0
SECTION
2
HEADER
9
$ACADVER
1
AC1015
9
$DWGCODEPAGE
3
ANSI_1252
9
$EXTMAX
10
558.8000000000
20
431.8000000000
30
0.0000000000
9
$EXTMIN
10
0.0000000000
20
0.0000000000
30
0.0000000000
9
$LIMMIN
10
0.0000000000
20
0.0000000000
9
$LIMMAX
10
558.8000000000
20
431.8000000000
9
$VIEWCTR
10
279.4000000000
20
215.9000000000
9
$VIEWSIZE
40
431.8000000000
9
$CLAYER
8
0
9
$LTSCALE
40
30.7340000000
9
$CELTYPE
6
BYLAYER
9
$DIMSCALE
40
1
9
$DIMASZ
40
3.0000000000
9
$DIMEXO
40
3.4925000000
9
$DIMDLI
40
21.2344000000
9
$DIMEXE
40
10.0584000000
9
$DIMCEN
40
5.0292000000
9
$DIMLFAC
40
1.0000000000
9
$DIMBLK
1
_FILLED
9
$DIMTXT
40
3.0000000000
9
$DIMTOL
70
1
9
$DIMLIM
70
0
9
$DIMTFAC
40
1.0000000000
9
$DIMTP
40
0.0100000000
9
$DIMTM
40
0.0100000000
9
$PDMODE
70
3
9
$PDSIZE
40
3.0000000000
9
$HANDSEED
5
2D7
9
$MEASUREMENT
70
1
9
$INSUNITS
70
4
0
ENDSEC
0
SECTION
2
CLASSES
0
CLASS
1
ACDBDICTIONARYWDFLT
2
AcDbDictionaryWithDefault
3
AutoCAD 2000
90
0
280
0
281
0
0
CLASS
1
ACDBPLACEHOLDER
2
AcDbPlaceHolder
3
AutoCAD 2000
90
0
280
0
281
0
0
CLASS
1
LAYOUT
2
AcDbLayout
3
AutoCAD 2000
90
0
280
0
281
0
0
ENDSEC
0
SECTION
2
TABLES
0
TABLE
2
VPORT
5
8
100
AcDbSymbolTable
70
2
0
VPORT
5
1F4
100
AcDbSymbolTableRecord
100
AcDbViewportTableRecord
2
*ACTIVE
70
0
10
0.0
20
0.0
11
1.0
21
1.0
12
279.4000000000
22
215.9000000000
13
0.0
23
0.0
14
1.0
24
1.0
15
0.0
25
0.0
16
0.0
26
0.0
36
1.0
17
0.0
27
0.0
37
0.0
40
431.8000000000
41
1.2941176471
42
50.0
43
0.0
44
0.0
50
0.0
51
0.0
71
0
72
100
73
1
74
1
75
0
76
0
77
0
78
0
0
ENDTAB
0
TABLE
2
LTYPE
5
5
100
AcDbSymbolTable
70
6
0
LTYPE
5
14
100
AcDbSymbolTableRecord
100
AcDbLinetypeTableRecord
2
BYBLOCK
70
0
3

72
65
73
0
40
0.0
0
LTYPE
5
15
100
AcDbSymbolTableRecord
100
AcDbLinetypeTableRecord
2
BYLAYER
70
0
3

72
65
73
0
40
0.0
0
LTYPE
5
16
100
AcDbSymbolTableRecord
100
AcDbLinetypeTableRecord
2
CONTINUOUS
70
64
3
Solid line
72
65
73
0
40
0
0
LTYPE
5
1F5
100
AcDbSymbolTableRecord
100
AcDbLinetypeTableRecord
2
CENTER
70
64
3
____ _ ____ _ ____ _ ____ _ ____ _ ____ _ ____
72
65
73
4
40
0.6
49
0.375
74
0
49
-0.075
74
0
49
0.075
74
0
49
-0.075
74
0
0
LTYPE
5
1F6
100
AcDbSymbolTableRecord
100
AcDbLinetypeTableRecord
2
HIDDEN
70
64
3
- - - - - - - - - - - - - - - - - - - -
72
65
73
2
40
0.2
49
0.1
74
0
49
-0.1
74
0
0
LTYPE
5
1F7
100
AcDbSymbolTableRecord
100
AcDbLinetypeTableRecord
2
PHANTOM
70
64
3
_____ _ _ _____ _ _ _____ _ _ _____
72
65
73
6
40
0.8
49
0.45
74
0
49
-0.05
74
0
49
0.1
74
0
49
-0.05
74
0
49
0.1
74
0
49
-0.05
74
0
0
LTYPE
5
1F8
100
AcDbSymbolTableRecord
100
AcDbLinetypeTableRecord
2
DOT
70
64
3
. . . . . . . . . . . . . . . . . . . .
72
65
73
2
40
0.2
49
0.1
74
0
49
-0.1
74
0
0
LTYPE
5
1F9
100
AcDbSymbolTableRecord
100
AcDbLinetypeTableRecord
2
DASHED
70
64
3
- - - - - - - - - - - - - - - - - - - -
72
65
73
2
40
0.2
49
0.1
74
0
49
-0.1
74
0
0
ENDTAB
0
TABLE
2
LAYER
5
2
100
AcDbSymbolTable
70
36
0
LAYER
5
10
100
AcDbSymbolTableRecord
100
AcDbLayerTableRecord
2
0
70
0
62
7
6
CONTINUOUS
370
-3
390
F
0
LAYER
5
1FA
100
AcDbSymbolTableRecord
100
AcDbLayerTableRecord
2
DEFAULT_1
70
0
62
7
6
CENTER
370
-3
390
F
0
LAYER
5
1FB
100
AcDbSymbolTableRecord
100
AcDbLayerTableRecord
2
DEFAULT_2
70
0
62
0
6
HIDDEN
370
-3
390
F
0
LAYER
5
1FC
100
AcDbSymbolTableRecord
100
AcDbLayerTableRecord
2
DEFAULT_3
70
0
62
7
6
PHANTOM
370
-3
390
F
0
LAYER
5
1FD
100
AcDbSymbolTableRecord
100
AcDbLayerTableRecord
2
ASSI
70
0
62
7
6
CONTINUOUS
370
-3
390
F
0
LAYER
5
1FE
100
AcDbSymbolTableRecord
100
AcDbLayerTableRecord
2
COORDINATE
70
0
62
7
6
CONTINUOUS
370
-3
390
F
0
LAYER
5
1FF
100
AcDbSymbolTableRecord
100
AcDbLayerTableRecord
2
COORD_ORIGINE
70
0
62
7
6
CONTINUOUS
370
-3
390
F
0
LAYER
5
200
100
AcDbSymbolTableRecord
100
AcDbLayerTableRecord
2
CURVE
70
0
62
7
6
CONTINUOUS
370
-3
390
F
0
LAYER
5
201
100
AcDbSymbolTableRecord
100
AcDbLayerTableRecord
2
CURVE_LED_TASTO
70
0
62
7
6
CONTINUOUS
370
-3
390
F
0
LAYER
5
202
100
AcDbSymbolTableRecord
100
AcDbLayerTableRecord
2
DRAFT
70
0
62
7
6
CONTINUOUS
370
-3
390
F
0
LAYER
5
203
100
AcDbSymbolTableRecord
100
AcDbLayerTableRecord
2
PIANI
70
0
62
7
6
CONTINUOUS
370
-3
390
F
0
LAYER
5
204
100
AcDbSymbolTableRecord
100
AcDbLayerTableRecord
2
PIANI_ORIGINE
70
0
62
7
6
CONTINUOUS
370
-3
390
F
0
LAYER
5
205
100
AcDbSymbolTableRecord
100
AcDbLayerTableRecord
2
PIANI_RIFERIMENTO
70
0
62
7
6
CONTINUOUS
370
-3
390
F
0
LAYER
5
206
100
AcDbSymbolTableRecord
100
AcDbLayerTableRecord
2
PUNTI
70
0
62
7
6
CONTINUOUS
370
-3
390
F
0
LAYER
5
207
100
AcDbSymbolTableRecord
100
AcDbLayerTableRecord
2
RACCORDO
70
0
62
7
6
CONTINUOUS
370
-3
390
F
0
LAYER
5
208
100
AcDbSymbolTableRecord
100
AcDbLayerTableRecord
2
SCRITTE
70
0
62
7
6
CONTINUOUS
370
-3
390
F
0
LAYER
5
209
100
AcDbSymbolTableRecord
100
AcDbLayerTableRecord
2
SNAPLINE
70
0
62
7
6
CONTINUOUS
370
-3
390
F
0
LAYER
5
20A
100
AcDbSymbolTableRecord
100
AcDbLayerTableRecord
2
SUPERFICI
70
0
62
7
6
CONTINUOUS
370
-3
390
F
0
LAYER
5
20B
100
AcDbSymbolTableRecord
100
AcDbLayerTableRecord
2
TRASH
70
0
62
7
6
CONTINUOUS
370
-3
390
F
0
ENDTAB
0
TABLE
2
STYLE
5
3
100
AcDbSymbolTable
70
1
0
STYLE
5
11
100
AcDbSymbolTableRecord
100
AcDbTextStyleTableRecord
2
STANDARD
70
0
40
0.0
41
0.8000000000
50
0.0
71
0
42
0.2
3
txt
4

0
ENDTAB
0
TABLE
2
VIEW
5
6
100
AcDbSymbolTable
70
0
0
ENDTAB
0
TABLE
2
UCS
5
7
100
AcDbSymbolTable
70
0
0
ENDTAB
0
TABLE
2
APPID
5
9
100
AcDbSymbolTable
70
1
0
APPID
5
20C
100
AcDbSymbolTableRecord
100
AcDbRegAppTableRecord
2
ACAD
70
0
0
ENDTAB
0
TABLE
2
BLOCK_RECORD
5
1
100
AcDbSymbolTable
70
0
0
BLOCK_RECORD
5
1F
100
AcDbSymbolTableRecord
100
AcDbBlockTableRecord
2
*MODEL_SPACE
0
BLOCK_RECORD
5
1B
100
AcDbSymbolTableRecord
100
AcDbBlockTableRecord
2
*PAPER_SPACE
0
ENDTAB
0
TABLE
2
DIMSTYLE
5
A
100
AcDbSymbolTable
70
1
100
AcDbDimStyleTable
71
0
0
DIMSTYLE
105
20D
100
AcDbSymbolTableRecord
100
AcDbDimStyleTableRecord
2
STANDARD
70
0
3

4

40
1.0
41
3.0000000000
42
0.0625
43
0.38
44
0.18
45
0.0
46
0.0
47
0.0100000000
48
0.0100000000
140
3.0000000000
141
0.09
142
0.0
143
25.4
144
1.0000000000
145
0.0
146
1.0000000000
147
0.09
71
1
72
0
73
0
74
0
75
0
76
0
77
1
78
8
170
0
171
2
172
0
173
0
174
0
175
0
176
0
177
0
178
0
270
2
271
2
272
2
273
2
274
2
275
0
280
0
281
0
282
0
283
1
284
8
285
0
286
0
287
3
288
0
340
11
0
ENDTAB
0
ENDSEC
0
SECTION
2
BLOCKS
0
BLOCK
5
20
100
AcDbEntity
8
0
100
AcDbBlockBegin
2
*MODEL_SPACE
70
0
10
0.0
20
0.0
30
0.0
3
*MODEL_SPACE
1

0
ENDBLK
5
21
100
AcDbEntity
8
0
100
AcDbBlockEnd
0
BLOCK
5
1C
100
AcDbEntity
8
0
100
AcDbBlockBegin
2
*PAPER_SPACE
70
0
10
0.0
20
0.0
30
0.0
3
*PAPER_SPACE
1

0
ENDBLK
5
1D
100
AcDbEntity
8
0
100
AcDbBlockEnd
0
ENDSEC
0
SECTION
2
ENTITIES
0
LINE
5
20E
100
AcDbEntity
8
0
100
AcDbLine
62
0
6
CONTINUOUS
10
-24.8000000000
20
18.0962952155
11
-24.8000000000
21
-18.0962952155
0
LINE
5
20F
100
AcDbEntity
8
0
100
AcDbLine
62
0
6
CONTINUOUS
10
-23.6563030050
20
4.3143593539
11
-23.6529375700
21
3.6464101615
0
LINE
5
210
100
AcDbEntity
8
0
100
AcDbLine
62
0
6
CONTINUOUS
10
-23.7000000000
20
17.1000000000
11
-23.7000000000
21
-17.1000000000
0
LINE
5
211
100
AcDbEntity
8
0
100
AcDbLine
62
0
6
CONTINUOUS
10
-23.6572383478
20
16.5849892472
11
-23.6572383478
21
4.7143593539
0
LINE
5
212
100
AcDbEntity
8
0
100
AcDbLine
62
0
6
CONTINUOUS
10
-23.6572383478
20
-4.7143593539
11
-23.6572383478
21
-16.5849892472
0
LINE
5
213
100
AcDbEntity
8
0
100
AcDbLine
62
0
6
CONTINUOUS
10
-23.6520022272
20
-3.2464101615
11
-23.6520022272
21
3.2464101615
0
LINE
5
214
100
AcDbEntity
8
0
100
AcDbLine
62
0
6
CONTINUOUS
10
-23.6529375700
20
-3.6464101615
11
-23.6563030050
21
-4.3143593539
0
LINE
5
215
100
AcDbEntity
8
0
100
AcDbLine
62
0
6
CONTINUOUS
10
-23.6572383478
20
16.5849892472
11
-23.7000000000
21
17.1000000000
0
LINE
5
216
100
AcDbEntity
8
0
100
AcDbLine
62
0
6
CONTINUOUS
10
-23.7000000000
20
-17.1000000000
11
-23.6572383478
21
-16.5849892472
0
LINE
5
217
100
AcDbEntity
8
0
100
AcDbLine
62
0
6
CONTINUOUS
10
-20.0000000000
20
17.1000000000
11
-20.0000000000
21
16.6501372354
0
LINE
5
218
100
AcDbEntity
8
0
100
AcDbLine
62
0
6
CONTINUOUS
10
-20.0000000000
20
-16.6500000000
11
-20.0000000000
21
-17.1000000000
0
LINE
5
219
100
AcDbEntity
8
0
100
AcDbLine
62
0
6
CONTINUOUS
10
-24.5008636137
20
-18.4000000000
11
24.5008636137
21
-18.4000000000
0
LINE
5
21A
100
AcDbEntity
8
0
100
AcDbLine
62
0
6
CONTINUOUS
10
23.7000000000
20
-17.1000000000
11
-23.7000000000
21
-17.1000000000
0
LINE
5
21B
100
AcDbEntity
8
0
100
AcDbLine
62
0
6
CONTINUOUS
10
20.4982261214
20
-16.7085786438
11
20.0000000000
21
-16.7085786438
0
LINE
5
21C
100
AcDbEntity
8
0
100
AcDbLine
62
0
6
CONTINUOUS
10
-20.0000000000
20
-16.7085786438
11
-20.4982261214
21
-16.7085786438
0
LINE
5
21D
100
AcDbEntity
8
0
100
AcDbLine
62
0
6
CONTINUOUS
10
20.0000000000
20
-16.6500000000
11
20.5281163217
21
-16.6500000000
0
LINE
5
21E
100
AcDbEntity
8
0
100
AcDbLine
62
0
6
CONTINUOUS
10
-20.0000000000
20
-16.6500000000
11
-20.5281163217
21
-16.6500000000
0
LINE
5
21F
100
AcDbEntity
8
0
100
AcDbLine
62
0
6
CONTINUOUS
10
-23.6572383478
20
-16.5849892472
11
23.6572383478
21
-16.5849892472
0
LINE
5
220
100
AcDbEntity
8
0
100
AcDbLine
62
0
6
CONTINUOUS
10
-8.5000000000
20
-13.6000000000
11
-7.5000000000
21
-13.6000000000
0
LINE
5
221
100
AcDbEntity
8
0
100
AcDbLine
62
0
6
CONTINUOUS
10
16.5000000000
20
-13.6000000000
11
17.5000000000
21
-13.6000000000
0
LINE
5
222
100
AcDbEntity
8
0
100
AcDbLine
62
0
6
CONTINUOUS
10
-7.3000000000
20
-13.4000000000
11
-8.7000000000
21
-13.4000000000
0
LINE
5
223
100
AcDbEntity
8
0
100
AcDbLine
62
0
6
CONTINUOUS
10
16.3000000000
20
-13.4000000000
11
17.7000000000
21
-13.4000000000
0
LINE
5
224
100
AcDbEntity
8
0
100
AcDbLine
62
0
6
CONTINUOUS
10
-8.7000000000
20
-5.8000000000
11
-8.7000000000
21
-13.4000000000
0
LINE
5
225
100
AcDbEntity
8
0
100
AcDbLine
62
0
6
CONTINUOUS
10
-8.5000000000
20
-13.6000000000
11
-8.5000000000
21
-5.6000000000
0
LINE
5
226
100
AcDbEntity
8
0
100
AcDbLine
62
0
6
CONTINUOUS
10
20.4982261214
20
16.7085786438
11
21.7785076894
21
17.1000000000
0
LINE
5
227
100
AcDbEntity
8
0
100
AcDbLine
62
0
6
CONTINUOUS
10
20.5281163217
20
16.6500000000
11
21.9648182263
21
17.0892438523
0
LINE
5
228
100
AcDbEntity
8
0
100
AcDbLine
62
0
6
CONTINUOUS
10
21.7785076894
20
-17.1000000000
11
20.4982261214
21
-16.7085786438
0
LINE
5
229
100
AcDbEntity
8
0
100
AcDbLine
62
0
6
CONTINUOUS
10
21.9648182263
20
-17.0892438523
11
20.5281163217
21
-16.6500000000
0
LINE
5
22A
100
AcDbEntity
8
0
100
AcDbLine
62
0
6
CONTINUOUS
10
-7.5000000000
20
-13.6000000000
11
-7.5000000000
21
-5.6000000000
0
LINE
5
22B
100
AcDbEntity
8
0
100
AcDbLine
62
0
6
CONTINUOUS
10
-7.3000000000
20
-13.4000000000
11
-7.3000000000
21
-5.8000000000
0
LINE
5
22C
100
AcDbEntity
8
0
100
AcDbLine
62
0
6
CONTINUOUS
10
-7.3000000000
20
-5.8000000000
11
-8.7000000000
21
-5.8000000000
0
LINE
5
22D
100
AcDbEntity
8
0
100
AcDbLine
62
0
6
CONTINUOUS
10
16.3000000000
20
-5.8000000000
11
17.7000000000
21
-5.8000000000
0
LINE
5
22E
100
AcDbEntity
8
0
100
AcDbLine
62
0
6
CONTINUOUS
10
17.5000000000
20
-5.6000000000
11
16.5000000000
21
-5.6000000000
0
LINE
5
22F
100
AcDbEntity
8
0
100
AcDbLine
62
0
6
CONTINUOUS
10
-7.5000000000
20
-5.6000000000
11
-8.5000000000
21
-5.6000000000
0
LINE
5
230
100
AcDbEntity
8
0
100
AcDbLine
62
0
6
CONTINUOUS
10
23.6572383478
20
-4.7143593539
11
-23.6572383478
21
-4.7143593539
0
LINE
5
231
100
AcDbEntity
8
0
100
AcDbLine
62
0
6
CONTINUOUS
10
23.6563030050
20
-4.3143593539
11
-23.6563030050
21
-4.3143593539
0
LINE
5
232
100
AcDbEntity
8
0
100
AcDbLine
62
0
6
CONTINUOUS
10
12.8845618456
20
-1.9141290129
11
12.7093185338
21
-1.9287330388
0
LINE
5
233
100
AcDbEntity
8
0
100
AcDbLine
62
0
6
CONTINUOUS
10
12.2941585948
20
-1.1610000326
11
12.4756606000
21
-1.1463960322
0
LINE
5
234
100
AcDbEntity
8
0
100
AcDbLine
62
0
6
CONTINUOUS
10
23.6529375700
20
-3.6464101615
11
-23.6529375700
21
-3.6464101615
0
LINE
5
235
100
AcDbEntity
8
0
100
AcDbLine
62
0
6
CONTINUOUS
10
23.6520022272
20
-3.2464101615
11
-23.6520022272
21
-3.2464101615
0
LINE
5
236
100
AcDbEntity
8
0
100
AcDbLine
62
0
6
CONTINUOUS
10
10.8671770000
20
-2.2750470000
11
11.0507650000
21
-2.2750470000
0
LINE
5
237
100
AcDbEntity
8
0
100
AcDbLine
62
0
6
CONTINUOUS
10
14.0611961147
20
-2.2750470000
11
14.2489569006
21
-2.2750470000
0
LINE
5
238
100
AcDbEntity
8
0
100
AcDbLine
62
0
6
CONTINUOUS
10
14.9749652334
20
-2.2750470000
11
15.9638390000
21
-2.2750470000
0
LINE
5
239
100
AcDbEntity
8
0
100
AcDbLine
62
0
6
CONTINUOUS
10
15.9638390000
20
-2.0998040000
11
15.2304305731
21
-2.0998040000
0
LINE
5
23A
100
AcDbEntity
8
0
100
AcDbLine
62
0
6
CONTINUOUS
10
13.8525730000
20
-0.9753250000
11
14.5827540876
21
-0.9753250000
0
LINE
5
23B
100
AcDbEntity
8
0
100
AcDbLine
62
0
6
CONTINUOUS
10
14.8184980000
20
-0.8000820000
11
13.8525730000
21
-0.8000820000
0
LINE
5
23C
100
AcDbEntity
8
0
100
AcDbLine
62
0
6
CONTINUOUS
10
11.0507650000
20
-0.7750470000
11
10.9324366425
21
-0.7750470000
0
LINE
5
23D
100
AcDbEntity
8
0
100
AcDbLine
62
0
6
CONTINUOUS
10
16.2620610000
20
0.8000080000
11
16.6337690000
21
0.8000120000
0
LINE
5
23E
100
AcDbEntity
8
0
100
AcDbLine
62
0
6
CONTINUOUS
10
13.7036660000
20
0.8000040000
11
14.0336780000
21
0.8000080000
0
LINE
5
23F
100
AcDbEntity
8
0
100
AcDbLine
62
0
6
CONTINUOUS
10
12.5116310000
20
0.8000040000
11
12.8416350000
21
0.8000080000
0
LINE
5
240
100
AcDbEntity
8
0
100
AcDbLine
62
0
6
CONTINUOUS
10
11.2095960000
20
0.8000000000
11
11.5396080000
21
0.8000040000
0
LINE
5
241
100
AcDbEntity
8
0
100
AcDbLine
62
0
6
CONTINUOUS
10
10.1297820000
20
0.8000000000
11
10.4598070000
21
0.8000040000
0
LINE
5
242
100
AcDbEntity
8
0
100
AcDbLine
62
0
6
CONTINUOUS
10
11.8696120000
20
0.8000040000
11
12.1996250000
21
0.8000040000
0
LINE
5
243
100
AcDbEntity
8
0
100
AcDbLine
62
0
6
CONTINUOUS
10
13.1536460000
20
0.8000040000
11
13.4836590000
21
0.8000040000
0
LINE
5
244
100
AcDbEntity
8
0
100
AcDbLine
62
0
6
CONTINUOUS
10
15.3132650000
20
0.8000080000
11
15.6432820000
21
0.8000080000
0
LINE
5
245
100
AcDbEntity
8
0
100
AcDbLine
62
0
6
CONTINUOUS
10
14.7632420000
20
0.8000080000
11
15.0932580000
21
0.8000040000
0
LINE
5
246
100
AcDbEntity
8
0
100
AcDbLine
62
0
6
CONTINUOUS
10
14.1378630000
20
1.1245060000
11
14.6590610000
21
1.1245060000
0
LINE
5
247
100
AcDbEntity
8
0
100
AcDbLine
62
0
6
CONTINUOUS
10
14.5583940000
20
1.4380180000
11
14.2385250000
21
1.4380180000
0
LINE
5
248
100
AcDbEntity
8
0
100
AcDbLine
62
0
6
CONTINUOUS
10
15.6433190000
20
1.4380220000
11
15.9313470000
21
1.4380180000
0
LINE
5
249
100
AcDbEntity
8
0
100
AcDbLine
62
0
6
CONTINUOUS
10
16.0402532571
20
1.7432840000
11
15.6387320000
21
1.7432840000
0
LINE
5
24A
100
AcDbEntity
8
0
100
AcDbLine
62
0
6
CONTINUOUS
10
15.6387280000
20
2.1448200000
11
16.0402532571
21
2.1448200000
0
LINE
5
24B
100
AcDbEntity
8
0
100
AcDbLine
62
0
6
CONTINUOUS
10
15.0104311456
20
-1.2068970146
11
15.1981919352
21
-1.2256729935
0
LINE
5
24C
100
AcDbEntity
8
0
100
AcDbLine
62
0
6
CONTINUOUS
10
13.4836590000
20
2.4500780000
11
12.9847690000
21
2.4500780000
0
LINE
5
24D
100
AcDbEntity
8
0
100
AcDbLine
62
0
6
CONTINUOUS
10
12.3685020000
20
2.4500780000
11
11.8696120000
21
2.4500780000
0
LINE
5
24E
100
AcDbEntity
8
0
100
AcDbLine
62
0
6
CONTINUOUS
10
11.5396120000
20
2.4500780000
11
11.2096000000
21
2.4500780000
0
LINE
5
24F
100
AcDbEntity
8
0
100
AcDbLine
62
0
6
CONTINUOUS
10
10.9895930000
20
2.4500780000
11
10.6595760000
21
2.4500780000
0
LINE
5
250
100
AcDbEntity
8
0
100
AcDbLine
62
0
6
CONTINUOUS
10
9.9300170000
20
2.4500780000
11
9.6000000000
21
2.4500780000
0
LINE
5
251
100
AcDbEntity
8
0
100
AcDbLine
62
0
6
CONTINUOUS
10
16.0860794997
20
2.4500830000
11
15.3132650000
21
2.4500830000
0
LINE
5
252
100
AcDbEntity
8
0
100
AcDbLine
62
0
6
CONTINUOUS
10
14.5634720000
20
2.4500830000
11
14.2334430000
21
2.4500830000
0
LINE
5
253
100
AcDbEntity
8
0
100
AcDbLine
62
0
6
CONTINUOUS
10
-23.6520022272
20
3.2464101615
11
23.6520022272
21
3.2464101615
0
LINE
5
254
100
AcDbEntity
8
0
100
AcDbLine
62
0
6
CONTINUOUS
10
-23.6529375700
20
3.6464101615
11
23.6529375700
21
3.6464101615
0
LINE
5
255
100
AcDbEntity
8
0
100
AcDbLine
62
0
6
CONTINUOUS
10
23.6563030050
20
4.3143593539
11
-23.6563030050
21
4.3143593539
0
LINE
5
256
100
AcDbEntity
8
0
100
AcDbLine
62
0
6
CONTINUOUS
10
23.6572383478
20
4.7143593539
11
-23.6572383478
21
4.7143593539
0
LINE
5
257
100
AcDbEntity
8
0
100
AcDbLine
62
0
6
CONTINUOUS
10
10.5000000000
20
-1.1500471515
11
10.5000000000
21
-1.3273441781
0
LINE
5
258
100
AcDbEntity
8
0
100
AcDbLine
62
0
6
CONTINUOUS
10
10.6595760000
20
2.4500780000
11
10.2947990000
21
1.3139130000
0
LINE
5
259
100
AcDbEntity
8
0
100
AcDbLine
62
0
6
CONTINUOUS
10
10.4598070000
20
0.8000040000
11
10.9895930000
21
2.4500780000
0
LINE
5
25A
100
AcDbEntity
8
0
100
AcDbLine
62
0
6
CONTINUOUS
10
-20.5281163217
20
-16.6500000000
11
-21.9648182263
21
-17.0892438523
0
LINE
5
25B
100
AcDbEntity
8
0
100
AcDbLine
62
0
6
CONTINUOUS
10
-20.4982261214
20
-16.7085786438
11
-21.7785076894
21
-17.1000000000
0
LINE
5
25C
100
AcDbEntity
8
0
100
AcDbLine
62
0
6
CONTINUOUS
10
-21.9648182263
20
17.0892438523
11
-20.5281163217
21
16.6500000000
0
LINE
5
25D
100
AcDbEntity
8
0
100
AcDbLine
62
0
6
CONTINUOUS
10
-21.7785076894
20
17.1000000000
11
-20.4982261214
21
16.7085786438
0
LINE
5
25E
100
AcDbEntity
8
0
100
AcDbLine
62
0
6
CONTINUOUS
10
9.6000000000
20
2.4500780000
11
10.1297820000
21
0.8000000000
0
LINE
5
25F
100
AcDbEntity
8
0
100
AcDbLine
62
0
6
CONTINUOUS
10
10.2947990000
20
1.3139130000
11
9.9300170000
21
2.4500780000
0
LINE
5
260
100
AcDbEntity
8
0
100
AcDbLine
62
0
6
CONTINUOUS
10
10.8671770000
20
-1.1062359844
11
10.8671770000
21
-2.2750470000
0
LINE
5
261
100
AcDbEntity
8
0
100
AcDbLine
62
0
6
CONTINUOUS
10
11.0507650000
20
-2.2750470000
11
11.0507650000
21
-0.7750470000
0
LINE
5
262
100
AcDbEntity
8
0
100
AcDbLine
62
0
6
CONTINUOUS
10
11.2096000000
20
2.4500780000
11
11.2095960000
21
0.8000000000
0
LINE
5
263
100
AcDbEntity
8
0
100
AcDbLine
62
0
6
CONTINUOUS
10
11.5396080000
20
0.8000040000
11
11.5396120000
21
2.4500780000
0
LINE
5
264
100
AcDbEntity
8
0
100
AcDbLine
62
0
6
CONTINUOUS
10
11.8696120000
20
2.4500780000
11
11.8696120000
21
0.8000040000
0
LINE
5
265
100
AcDbEntity
8
0
100
AcDbLine
62
0
6
CONTINUOUS
10
12.1996250000
20
0.8000040000
11
12.1996250000
21
1.8881170000
0
LINE
5
266
100
AcDbEntity
8
0
100
AcDbLine
62
0
6
CONTINUOUS
10
12.9847690000
20
2.4500780000
11
12.6766350000
21
1.3754910000
0
LINE
5
267
100
AcDbEntity
8
0
100
AcDbLine
62
0
6
CONTINUOUS
10
12.8416350000
20
0.8000080000
11
13.1536420000
21
1.8881170000
0
LINE
5
268
100
AcDbEntity
8
0
100
AcDbLine
62
0
6
CONTINUOUS
10
12.1996250000
20
1.8881170000
11
12.5116310000
21
0.8000040000
0
LINE
5
269
100
AcDbEntity
8
0
100
AcDbLine
62
0
6
CONTINUOUS
10
12.6766350000
20
1.3754910000
11
12.3685020000
21
2.4500780000
0
LINE
5
26A
100
AcDbEntity
8
0
100
AcDbLine
62
0
6
CONTINUOUS
10
13.1536420000
20
1.8881170000
11
13.1536460000
21
0.8000040000
0
LINE
5
26B
100
AcDbEntity
8
0
100
AcDbLine
62
0
6
CONTINUOUS
10
13.4836590000
20
0.8000040000
11
13.4836590000
21
2.4500780000
0
LINE
5
26C
100
AcDbEntity
8
0
100
AcDbLine
62
0
6
CONTINUOUS
10
13.8525730000
20
-0.8000820000
11
13.8525730000
21
-0.9753250000
0
LINE
5
26D
100
AcDbEntity
8
0
100
AcDbLine
62
0
6
CONTINUOUS
10
14.2334430000
20
2.4500830000
11
13.7036660000
21
0.8000040000
0
LINE
5
26E
100
AcDbEntity
8
0
100
AcDbLine
62
0
6
CONTINUOUS
10
14.0336780000
20
0.8000080000
11
14.1378630000
21
1.1245060000
0
LINE
5
26F
100
AcDbEntity
8
0
100
AcDbLine
62
0
6
CONTINUOUS
10
14.2385250000
20
1.4380180000
11
14.3984560000
21
1.9361690000
0
LINE
5
270
100
AcDbEntity
8
0
100
AcDbLine
62
0
6
CONTINUOUS
10
14.3984560000
20
1.9361690000
11
14.5583940000
21
1.4380180000
0
LINE
5
271
100
AcDbEntity
8
0
100
AcDbLine
62
0
6
CONTINUOUS
10
14.6590610000
20
1.1245060000
11
14.7632420000
21
0.8000080000
0
LINE
5
272
100
AcDbEntity
8
0
100
AcDbLine
62
0
6
CONTINUOUS
10
15.0932580000
20
0.8000040000
11
14.5634720000
21
2.4500830000
0
LINE
5
273
100
AcDbEntity
8
0
100
AcDbLine
62
0
6
CONTINUOUS
10
14.8184980000
20
-0.9419129327
11
14.8184980000
21
-0.8000820000
0
LINE
5
274
100
AcDbEntity
8
0
100
AcDbLine
62
0
6
CONTINUOUS
10
15.3132650000
20
2.4500830000
11
15.3132650000
21
0.8000080000
0
LINE
5
275
100
AcDbEntity
8
0
100
AcDbLine
62
0
6
CONTINUOUS
10
15.6387320000
20
1.7432840000
11
15.6387280000
21
2.1448200000
0
LINE
5
276
100
AcDbEntity
8
0
100
AcDbLine
62
0
6
CONTINUOUS
10
15.9638390000
20
-2.2750470000
11
15.9638390000
21
-2.0998040000
0
LINE
5
277
100
AcDbEntity
8
0
100
AcDbLine
62
0
6
CONTINUOUS
10
16.3000000000
20
-5.8000000000
11
16.3000000000
21
-13.4000000000
0
LINE
5
278
100
AcDbEntity
8
0
100
AcDbLine
62
0
6
CONTINUOUS
10
16.5000000000
20
-13.6000000000
11
16.5000000000
21
-5.6000000000
0
LINE
5
279
100
AcDbEntity
8
0
100
AcDbLine
62
0
6
CONTINUOUS
10
15.6432820000
20
0.8000080000
11
15.6433190000
21
1.4380220000
0
LINE
5
27A
100
AcDbEntity
8
0
100
AcDbLine
62
0
6
CONTINUOUS
10
-23.6572383478
20
16.5849892472
11
23.6572383478
21
16.5849892472
0
LINE
5
27B
100
AcDbEntity
8
0
100
AcDbLine
62
0
6
CONTINUOUS
10
-20.0000000000
20
16.6500000000
11
-20.5281163217
21
16.6500000000
0
LINE
5
27C
100
AcDbEntity
8
0
100
AcDbLine
62
0
6
CONTINUOUS
10
20.0000000000
20
16.6500000000
11
20.5281163217
21
16.6500000000
0
LINE
5
27D
100
AcDbEntity
8
0
100
AcDbLine
62
0
6
CONTINUOUS
10
20.4982261214
20
16.7085786438
11
20.0000000000
21
16.7085786438
0
LINE
5
27E
100
AcDbEntity
8
0
100
AcDbLine
62
0
6
CONTINUOUS
10
-20.0000000000
20
16.7085786438
11
-20.4982261214
21
16.7085786438
0
LINE
5
27F
100
AcDbEntity
8
0
100
AcDbLine
62
0
6
CONTINUOUS
10
15.9313470000
20
1.4380180000
11
16.2620610000
21
0.8000080000
0
LINE
5
280
100
AcDbEntity
8
0
100
AcDbLine
62
0
6
CONTINUOUS
10
16.6337690000
20
0.8000120000
11
16.2824875983
21
1.4777057749
0
LINE
5
281
100
AcDbEntity
8
0
100
AcDbLine
62
0
6
CONTINUOUS
10
17.5000000000
20
-13.6000000000
11
17.5000000000
21
-5.6000000000
0
LINE
5
282
100
AcDbEntity
8
0
100
AcDbLine
62
0
6
CONTINUOUS
10
17.7000000000
20
-13.4000000000
11
17.7000000000
21
-5.8000000000
0
LINE
5
283
100
AcDbEntity
8
0
100
AcDbLine
62
0
6
CONTINUOUS
10
-23.7000000000
20
17.1000000000
11
23.7000000000
21
17.1000000000
0
LINE
5
284
100
AcDbEntity
8
0
100
AcDbLine
62
0
6
CONTINUOUS
10
-24.5008636137
20
18.4000000000
11
24.5008636137
21
18.4000000000
0
LINE
5
285
100
AcDbEntity
8
0
100
AcDbLine
62
0
6
CONTINUOUS
10
20.0000000000
20
-17.1000000000
11
20.0000000000
21
-16.6500000000
0
LINE
5
286
100
AcDbEntity
8
0
100
AcDbLine
62
0
6
CONTINUOUS
10
20.0000000000
20
16.6500000000
11
20.0000000000
21
17.1000000000
0
LINE
5
287
100
AcDbEntity
8
0
100
AcDbLine
62
0
6
CONTINUOUS
10
23.7000000000
20
-17.1000000000
11
23.6572383478
21
-16.5849892472
0
LINE
5
288
100
AcDbEntity
8
0
100
AcDbLine
62
0
6
CONTINUOUS
10
23.6572383478
20
16.5849892472
11
23.7000000000
21
17.1000000000
0
LINE
5
289
100
AcDbEntity
8
0
100
AcDbLine
62
0
6
CONTINUOUS
10
23.6529375700
20
-3.6464101615
11
23.6563030050
21
-4.3143593539
0
LINE
5
28A
100
AcDbEntity
8
0
100
AcDbLine
62
0
6
CONTINUOUS
10
23.6520022272
20
-3.2464101615
11
23.6520022272
21
3.2464101615
0
LINE
5
28B
100
AcDbEntity
8
0
100
AcDbLine
62
0
6
CONTINUOUS
10
23.6572383478
20
16.5849892472
11
23.6572383478
21
4.7143593539
0
LINE
5
28C
100
AcDbEntity
8
0
100
AcDbLine
62
0
6
CONTINUOUS
10
23.6572383478
20
-4.7143593539
11
23.6572383478
21
-16.5849892472
0
LINE
5
28D
100
AcDbEntity
8
0
100
AcDbLine
62
0
6
CONTINUOUS
10
23.7000000000
20
17.1000000000
11
23.7000000000
21
-17.1000000000
0
LINE
5
28E
100
AcDbEntity
8
0
100
AcDbLine
62
0
6
CONTINUOUS
10
24.8000000000
20
18.0962952155
11
24.8000000000
21
-18.0962952155
0
LINE
5
28F
100
AcDbEntity
8
0
100
AcDbLine
62
0
6
CONTINUOUS
10
23.6563030050
20
4.3143593539
11
23.6529375700
21
3.6464101615
0
CIRCLE
5
290
100
AcDbEntity
8
0
100
AcDbCircle
62
0
6
CONTINUOUS
10
0.0000000000
20
0.0000000000
40
1.2500000000
0
CIRCLE
5
291
100
AcDbEntity
8
0
100
AcDbCircle
62
0
6
CONTINUOUS
10
0.0000000000
20
0.0000000000
40
1.2185839459
0
CIRCLE
5
292
100
AcDbEntity
8
0
100
AcDbCircle
62
0
6
CONTINUOUS
10
0.0000000000
20
0.0000000000
40
1.7000000000
0
CIRCLE
5
293
100
AcDbEntity
8
0
100
AcDbCircle
62
0
6
CONTINUOUS
10
0.0000000000
20
0.0000000000
40
2.7500000000
0
CIRCLE
5
294
100
AcDbEntity
8
0
100
AcDbCircle
62
0
6
CONTINUOUS
10
0.0000000000
20
0.0000000000
40
1.7750000000
0
CIRCLE
5
295
100
AcDbEntity
8
0
100
AcDbCircle
62
0
6
CONTINUOUS
10
0.0000000000
20
0.0000000000
40
2.2499999990
0
ARC
5
296
100
AcDbEntity
8
0
100
AcDbCircle
62
0
6
CONTINUOUS
10
16.0402380000
20
1.9440520000
40
0.2007690000
100
AcDbArc
50
270.0043541036
51
89.9956458964
0
ARC
5
297
100
AcDbEntity
8
0
100
AcDbCircle
62
0
6
CONTINUOUS
10
16.0860430000
20
1.9440520000
40
0.5060329798
100
AcDbArc
50
292.8428677796
51
89.9958672882
0
ARC
5
298
100
AcDbEntity
8
0
100
AcDbCircle
62
0
6
CONTINUOUS
10
-7.5000000000
20
-13.4000000000
40
0.2000000000
100
AcDbArc
50
270.0000000000
51
360.0000000000
0
ARC
5
299
100
AcDbEntity
8
0
100
AcDbCircle
62
0
6
CONTINUOUS
10
-8.5000000000
20
-13.4000000000
40
0.2000000000
100
AcDbArc
50
180.0000000000
51
270.0000000000
0
ARC
5
29A
100
AcDbEntity
8
0
100
AcDbCircle
62
0
6
CONTINUOUS
10
-7.5000000000
20
-5.8000000000
40
0.2000000000
100
AcDbArc
50
0.0000000000
51
90.0000000000
0
ARC
5
29B
100
AcDbEntity
8
0
100
AcDbCircle
62
0
6
CONTINUOUS
10
-8.5000000000
20
-5.8000000000
40
0.2000000000
100
AcDbArc
50
90.0000000000
51
180.0000000000
0
ARC
5
29C
100
AcDbEntity
8
0
100
AcDbCircle
62
0
6
CONTINUOUS
10
17.5000000000
20
-5.8000000000
40
0.2000000000
100
AcDbArc
50
0.0000000000
51
90.0000000000
0
ARC
5
29D
100
AcDbEntity
8
0
100
AcDbCircle
62
0
6
CONTINUOUS
10
16.5000000000
20
-5.8000000000
40
0.2000000000
100
AcDbArc
50
90.0000000000
51
180.0000000000
0
ARC
5
29E
100
AcDbEntity
8
0
100
AcDbCircle
62
0
6
CONTINUOUS
10
16.5000000000
20
-13.4000000000
40
0.2000000000
100
AcDbArc
50
180.0000000000
51
270.0000000000
0
ARC
5
29F
100
AcDbEntity
8
0
100
AcDbCircle
62
0
6
CONTINUOUS
10
17.5000000000
20
-13.4000000000
40
0.2000000000
100
AcDbArc
50
270.0000000000
51
360.0000000000
0
SPLINE
5
2A0
100
AcDbEntity
8
0
100
AcDbSpline
62
0
6
CONTINUOUS
70
0
71
3
72
14
73
10
74
8
42
0.0000001000
43
0.0000001000
44
0.0000000001
12
-0.2723152589
22
-0.2379897517
32
0.0000000000
13
-0.0330687766
23
-0.3600823952
33
0.0000000000
40
0.0000000000
40
0.0000000000
40
0.0000000000
40
0.0000000000
40
0.0148067241
40
0.0798891708
40
0.1448731778
40
0.2754732536
40
0.4086153035
40
0.6893180861
40
1.0000000000
40
1.0000000000
40
1.0000000000
40
1.0000000000
10
15.1563216716
20
-0.8854785423
30
0.0000000000
10
15.1549776393
20
-0.8866531585
30
0.0000000000
10
15.1477693083
20
-0.8930404137
30
0.0000000000
10
15.1351322758
20
-0.9051079499
30
0.0000000000
10
15.1137837532
20
-0.9281822940
30
0.0000000000
10
15.0896268946
20
-0.9597276302
30
0.0000000000
10
15.0562374564
20
-1.0163839539
30
0.0000000000
10
15.0254858666
20
-1.0988906981
30
0.0000000000
10
15.0138557721
20
-1.1696066523
30
0.0000000000
10
15.0104311485
20
-1.2068970148
30
0.0000000000
11
15.1563216716
21
-0.8854785423
31
0.0000000000
11
15.1523138788
21
-0.8890299785
31
0.0000000000
11
15.1352972161
21
-0.9052862511
31
0.0000000000
11
15.1193393506
21
-0.9225346023
31
0.0000000000
11
15.0906000117
21
-0.9600075407
31
0.0000000000
11
15.0660958619
21
-1.0014487936
31
0.0000000000
11
15.0297931298
21
-1.0962362431
31
0.0000000000
11
15.0104311485
21
-1.2068970148
31
0.0000000000
0
SPLINE
5
2A1
100
AcDbEntity
8
0
100
AcDbSpline
62
0
6
CONTINUOUS
70
0
71
3
72
8
73
4
74
2
42
0.0000001000
43
0.0000001000
44
0.0000000001
12
-0.0037062787
22
0.0000000000
32
0.0000000000
13
-0.0031380413
23
-0.0021323115
33
0.0000000000
40
0.0000000000
40
0.0000000000
40
0.0000000000
40
0.0000000000
40
1.0000000000
40
1.0000000000
40
1.0000000000
40
1.0000000000
10
20.5274900823
20
-16.6500000000
30
0.0000000000
10
20.5262546560
20
-16.6500000000
30
0.0000000000
10
20.5250548939
20
-16.6505611311
30
0.0000000000
10
20.5240088802
20
-16.6512719016
30
0.0000000000
11
20.5274900823
21
-16.6500000000
31
0.0000000000
11
20.5240088802
21
-16.6512719016
31
0.0000000000
0
SPLINE
5
2A2
100
AcDbEntity
8
0
100
AcDbSpline
62
0
6
CONTINUOUS
70
0
71
3
72
13
73
9
74
7
42
0.0000001000
43
0.0000001000
44
0.0000000001
12
-0.0491630650
22
-0.0334064979
32
0.0000000000
13
-0.0168869073
23
-0.0555584256
33
0.0000000000
40
0.0000000000
40
0.0000000000
40
0.0000000000
40
0.0000000000
40
0.0923845283
40
0.2206484403
40
0.3861153635
40
0.5879798892
40
0.8244044856
40
1.0000000000
40
1.0000000000
40
1.0000000000
40
1.0000000000
10
20.5240088802
20
-16.6512719016
30
0.0000000000
10
20.5224949113
20
-16.6523006495
30
0.0000000000
10
20.5196482499
20
-16.6555063779
30
0.0000000000
10
20.5156492368
20
-16.6618529654
30
0.0000000000
10
20.5114583531
20
-16.6704916905
30
0.0000000000
10
20.5070690427
20
-16.6813287481
30
0.0000000000
10
20.5031548636
20
-16.6925509369
30
0.0000000000
10
20.5007558887
20
-16.7001572668
30
0.0000000000
10
20.4997674669
20
-16.7034092036
30
0.0000000000
11
20.5240088802
21
-16.6512719016
31
0.0000000000
11
20.5202095583
21
-16.6550589152
31
0.0000000000
11
20.5161410112
21
-16.6612971307
31
0.0000000000
11
20.5118545590
21
-16.6698958825
31
0.0000000000
11
20.5074034059
21
-16.6807392100
31
0.0000000000
11
20.5028421180
21
-16.6936874106
31
0.0000000000
11
20.4997674669
21
-16.7034092036
31
0.0000000000
0
SPLINE
5
2A3
100
AcDbEntity
8
0
100
AcDbSpline
62
0
6
CONTINUOUS
70
0
71
3
72
8
73
4
74
2
42
0.0000001000
43
0.0000001000
44
0.0000000001
12
-0.0015687727
22
-0.0051613088
32
0.0000000000
13
-0.0015150218
23
-0.0051770907
33
0.0000000000
40
0.0000000000
40
0.0000000000
40
0.0000000000
40
0.0000000000
40
1.0000000000
40
1.0000000000
40
1.0000000000
40
1.0000000000
10
20.4997674669
20
-16.7034092036
30
0.0000000000
10
20.4992445427
20
-16.7051296398
30
0.0000000000
10
20.4987311287
20
-16.7068529469
30
0.0000000000
10
20.4982261214
20
-16.7085786438
30
0.0000000000
11
20.4997674669
21
-16.7034092036
31
0.0000000000
11
20.4982261214
21
-16.7085786438
31
0.0000000000
0
SPLINE
5
2A4
100
AcDbEntity
8
0
100
AcDbSpline
62
0
6
CONTINUOUS
70
0
71
3
72
8
73
4
74
2
42
0.0000001000
43
0.0000001000
44
0.0000000001
12
0.0037062787
22
0.0000000000
32
0.0000000000
13
0.0031380413
23
-0.0021323115
33
0.0000000000
40
0.0000000000
40
0.0000000000
40
0.0000000000
40
0.0000000000
40
1.0000000000
40
1.0000000000
40
1.0000000000
40
1.0000000000
10
-20.5274900823
20
-16.6500000000
30
0.0000000000
10
-20.5262546560
20
-16.6500000000
30
0.0000000000
10
-20.5250548939
20
-16.6505611311
30
0.0000000000
10
-20.5240088802
20
-16.6512719016
30
0.0000000000
11
-20.5274900823
21
-16.6500000000
31
0.0000000000
11
-20.5240088802
21
-16.6512719016
31
0.0000000000
0
SPLINE
5
2A5
100
AcDbEntity
8
0
100
AcDbSpline
62
0
6
CONTINUOUS
70
0
71
3
72
13
73
9
74
7
42
0.0000001000
43
0.0000001000
44
0.0000000001
12
0.0491630650
22
-0.0334064979
32
0.0000000000
13
0.0168869073
23
-0.0555584256
33
0.0000000000
40
0.0000000000
40
0.0000000000
40
0.0000000000
40
0.0000000000
40
0.0923845283
40
0.2206484403
40
0.3861153635
40
0.5879798892
40
0.8244044856
40
1.0000000000
40
1.0000000000
40
1.0000000000
40
1.0000000000
10
-20.5240088802
20
-16.6512719016
30
0.0000000000
10
-20.5224949113
20
-16.6523006495
30
0.0000000000
10
-20.5196482499
20
-16.6555063779
30
0.0000000000
10
-20.5156492368
20
-16.6618529654
30
0.0000000000
10
-20.5114583531
20
-16.6704916905
30
0.0000000000
10
-20.5070690427
20
-16.6813287481
30
0.0000000000
10
-20.5031548636
20
-16.6925509369
30
0.0000000000
10
-20.5007558887
20
-16.7001572668
30
0.0000000000
10
-20.4997674669
20
-16.7034092036
30
0.0000000000
11
-20.5240088802
21
-16.6512719016
31
0.0000000000
11
-20.5202095583
21
-16.6550589152
31
0.0000000000
11
-20.5161410112
21
-16.6612971307
31
0.0000000000
11
-20.5118545590
21
-16.6698958825
31
0.0000000000
11
-20.5074034059
21
-16.6807392100
31
0.0000000000
11
-20.5028421180
21
-16.6936874106
31
0.0000000000
11
-20.4997674669
21
-16.7034092036
31
0.0000000000
0
SPLINE
5
2A6
100
AcDbEntity
8
0
100
AcDbSpline
62
0
6
CONTINUOUS
70
0
71
3
72
8
73
4
74
2
42
0.0000001000
43
0.0000001000
44
0.0000000001
12
0.0015687727
22
-0.0051613088
32
0.0000000000
13
0.0015150218
23
-0.0051770907
33
0.0000000000
40
0.0000000000
40
0.0000000000
40
0.0000000000
40
0.0000000000
40
1.0000000000
40
1.0000000000
40
1.0000000000
40
1.0000000000
10
-20.4997674669
20
-16.7034092036
30
0.0000000000
10
-20.4992445427
20
-16.7051296398
30
0.0000000000
10
-20.4987311287
20
-16.7068529469
30
0.0000000000
10
-20.4982261214
20
-16.7085786438
30
0.0000000000
11
-20.4997674669
21
-16.7034092036
31
0.0000000000
11
-20.4982261214
21
-16.7085786438
31
0.0000000000
0
SPLINE
5
2A7
100
AcDbEntity
8
0
100
AcDbSpline
62
0
6
CONTINUOUS
70
0
71
3
72
8
73
4
74
2
42
0.0000001000
43
0.0000001000
44
0.0000000001
12
-0.0037062787
22
0.0000000000
32
0.0000000000
13
-0.0031380413
23
0.0021323115
33
0.0000000000
40
0.0000000000
40
0.0000000000
40
0.0000000000
40
0.0000000000
40
1.0000000000
40
1.0000000000
40
1.0000000000
40
1.0000000000
10
20.5274900823
20
16.6500000000
30
0.0000000000
10
20.5262546560
20
16.6500000000
30
0.0000000000
10
20.5250548939
20
16.6505611311
30
0.0000000000
10
20.5240088802
20
16.6512719016
30
0.0000000000
11
20.5274900823
21
16.6500000000
31
0.0000000000
11
20.5240088802
21
16.6512719016
31
0.0000000000
0
SPLINE
5
2A8
100
AcDbEntity
8
0
100
AcDbSpline
62
0
6
CONTINUOUS
70
0
71
3
72
8
73
4
74
2
42
0.0000001000
43
0.0000001000
44
0.0000000001
12
-0.0013214483
22
0.0008979294
32
0.0000000000
13
-0.0011743886
23
0.0010394357
33
0.0000000000
40
0.0000000000
40
0.0000000000
40
0.0000000000
40
0.0000000000
40
1.0000000000
40
1.0000000000
40
1.0000000000
40
1.0000000000
10
20.5240088802
20
16.6512719016
30
0.0000000000
10
20.5235683974
20
16.6515712114
30
0.0000000000
10
20.5231551789
20
16.6518970568
30
0.0000000000
10
20.5227637160
20
16.6522435354
30
0.0000000000
11
20.5240088802
21
16.6512719016
31
0.0000000000
11
20.5227637160
21
16.6522435354
31
0.0000000000
0
SPLINE
5
2A9
100
AcDbEntity
8
0
100
AcDbSpline
62
0
6
CONTINUOUS
70
0
71
3
72
13
73
9
74
7
42
0.0000001000
43
0.0000001000
44
0.0000000001
12
-0.0425174774
22
0.0376316535
32
0.0000000000
13
-0.0164330060
23
0.0540650771
33
0.0000000000
40
0.0000000000
40
0.0000000000
40
0.0000000000
40
0.0000000000
40
0.0673149959
40
0.1991217258
40
0.3691590630
40
0.5765993521
40
0.8195543067
40
1.0000000000
40
1.0000000000
40
1.0000000000
40
1.0000000000
10
20.5227637160
20
16.6522435354
30
0.0000000000
10
20.5218096947
20
16.6530879269
30
0.0000000000
10
20.5193698641
20
16.6559481868
30
0.0000000000
10
20.5156492368
20
16.6618529654
30
0.0000000000
10
20.5114583531
20
16.6704916905
30
0.0000000000
10
20.5070690427
20
16.6813287481
30
0.0000000000
10
20.5031548636
20
16.6925509369
30
0.0000000000
10
20.5007558887
20
16.7001572668
30
0.0000000000
10
20.4997674669
20
16.7034092036
30
0.0000000000
11
20.5227637160
21
16.6522435354
31
0.0000000000
11
20.5202095583
21
16.6550589152
31
0.0000000000
11
20.5161410112
21
16.6612971307
31
0.0000000000
11
20.5118545590
21
16.6698958825
31
0.0000000000
11
20.5074034059
21
16.6807392100
31
0.0000000000
11
20.5028421180
21
16.6936874106
31
0.0000000000
11
20.4997674669
21
16.7034092036
31
0.0000000000
0
SPLINE
5
2AA
100
AcDbEntity
8
0
100
AcDbSpline
62
0
6
CONTINUOUS
70
0
71
3
72
8
73
4
74
2
42
0.0000001000
43
0.0000001000
44
0.0000000001
12
-0.0015687727
22
0.0051613088
32
0.0000000000
13
-0.0015150218
23
0.0051770907
33
0.0000000000
40
0.0000000000
40
0.0000000000
40
0.0000000000
40
0.0000000000
40
1.0000000000
40
1.0000000000
40
1.0000000000
40
1.0000000000
10
20.4997674669
20
16.7034092036
30
0.0000000000
10
20.4992445427
20
16.7051296398
30
0.0000000000
10
20.4987311287
20
16.7068529469
30
0.0000000000
10
20.4982261214
20
16.7085786438
30
0.0000000000
11
20.4997674669
21
16.7034092036
31
0.0000000000
11
20.4982261214
21
16.7085786438
31
0.0000000000
0
SPLINE
5
2AB
100
AcDbEntity
8
0
100
AcDbSpline
62
0
6
CONTINUOUS
70
0
71
3
72
8
73
4
74
2
42
0.0000001000
43
0.0000001000
44
0.0000000001
12
0.0037062787
22
0.0000000000
32
0.0000000000
13
0.0031380413
23
0.0021323115
33
0.0000000000
40
0.0000000000
40
0.0000000000
40
0.0000000000
40
0.0000000000
40
1.0000000000
40
1.0000000000
40
1.0000000000
40
1.0000000000
10
-20.5274900823
20
16.6500000000
30
0.0000000000
10
-20.5262546560
20
16.6500000000
30
0.0000000000
10
-20.5250548939
20
16.6505611311
30
0.0000000000
10
-20.5240088802
20
16.6512719016
30
0.0000000000
11
-20.5274900823
21
16.6500000000
31
0.0000000000
11
-20.5240088802
21
16.6512719016
31
0.0000000000
0
SPLINE
5
2AC
100
AcDbEntity
8
0
100
AcDbSpline
62
0
6
CONTINUOUS
70
0
71
3
72
8
73
4
74
2
42
0.0000001000
43
0.0000001000
44
0.0000000001
12
0.0013214483
22
0.0008979294
32
0.0000000000
13
0.0011743886
23
0.0010394357
33
0.0000000000
40
0.0000000000
40
0.0000000000
40
0.0000000000
40
0.0000000000
40
1.0000000000
40
1.0000000000
40
1.0000000000
40
1.0000000000
10
-20.5240088802
20
16.6512719016
30
0.0000000000
10
-20.5235683974
20
16.6515712114
30
0.0000000000
10
-20.5231551789
20
16.6518970568
30
0.0000000000
10
-20.5227637160
20
16.6522435354
30
0.0000000000
11
-20.5240088802
21
16.6512719016
31
0.0000000000
11
-20.5227637160
21
16.6522435354
31
0.0000000000
0
SPLINE
5
2AD
100
AcDbEntity
8
0
100
AcDbSpline
62
0
6
CONTINUOUS
70
0
71
3
72
13
73
9
74
7
42
0.0000001000
43
0.0000001000
44
0.0000000001
12
0.0425174774
22
0.0376316535
32
0.0000000000
13
0.0164330060
23
0.0540650771
33
0.0000000000
40
0.0000000000
40
0.0000000000
40
0.0000000000
40
0.0000000000
40
0.0673149959
40
0.1991217258
40
0.3691590630
40
0.5765993521
40
0.8195543067
40
1.0000000000
40
1.0000000000
40
1.0000000000
40
1.0000000000
10
-20.5227637160
20
16.6522435354
30
0.0000000000
10
-20.5218096947
20
16.6530879269
30
0.0000000000
10
-20.5193698641
20
16.6559481868
30
0.0000000000
10
-20.5156492368
20
16.6618529654
30
0.0000000000
10
-20.5114583531
20
16.6704916905
30
0.0000000000
10
-20.5070690427
20
16.6813287481
30
0.0000000000
10
-20.5031548636
20
16.6925509369
30
0.0000000000
10
-20.5007558887
20
16.7001572668
30
0.0000000000
10
-20.4997674669
20
16.7034092036
30
0.0000000000
11
-20.5227637160
21
16.6522435354
31
0.0000000000
11
-20.5202095583
21
16.6550589152
31
0.0000000000
11
-20.5161410112
21
16.6612971307
31
0.0000000000
11
-20.5118545590
21
16.6698958825
31
0.0000000000
11
-20.5074034059
21
16.6807392100
31
0.0000000000
11
-20.5028421180
21
16.6936874106
31
0.0000000000
11
-20.4997674669
21
16.7034092036
31
0.0000000000
0
SPLINE
5
2AE
100
AcDbEntity
8
0
100
AcDbSpline
62
0
6
CONTINUOUS
70
0
71
3
72
8
73
4
74
2
42
0.0000001000
43
0.0000001000
44
0.0000000001
12
0.0015687727
22
0.0051613088
32
0.0000000000
13
0.0015150218
23
0.0051770907
33
0.0000000000
40
0.0000000000
40
0.0000000000
40
0.0000000000
40
0.0000000000
40
1.0000000000
40
1.0000000000
40
1.0000000000
40
1.0000000000
10
-20.4997674669
20
16.7034092036
30
0.0000000000
10
-20.4992445427
20
16.7051296398
30
0.0000000000
10
-20.4987311287
20
16.7068529469
30
0.0000000000
10
-20.4982261214
20
16.7085786438
30
0.0000000000
11
-20.4997674669
21
16.7034092036
31
0.0000000000
11
-20.4982261214
21
16.7085786438
31
0.0000000000
0
SPLINE
5
2AF
100
AcDbEntity
8
0
100
AcDbSpline
62
0
6
CONTINUOUS
70
0
71
3
72
154
73
150
74
148
42
0.0000001000
43
0.0000001000
44
0.0000000001
12
1.1850157053
22
1.9292753325
32
0.0000000000
13
-1.7051050448
23
-1.4901754964
33
0.0000000000
40
0.0000000000
40
0.0000000000
40
0.0000000000
40
0.0000000000
40
0.0148527292
40
0.0225129936
40
0.0303383638
40
0.0383356199
40
0.0424008007
40
0.0465112997
40
0.0506678477
40
0.0527636226
40
0.0548711728
40
0.0570133791
40
0.0593007716
40
0.0617482051
40
0.0643558960
40
0.0700527016
40
0.0763923448
40
0.0910030175
40
0.0992752342
40
0.1081925067
40
0.1177551216
40
0.1279633112
40
0.1388172661
40
0.1444864584
40
0.1503171493
40
0.1563093547
40
0.1624630892
40
0.1687783665
40
0.1719965878
40
0.1752551995
40
0.1768996521
40
0.1785542029
40
0.1793852651
40
0.1802188520
40
0.1806365921
40
0.1808456989
40
0.1810549634
40
0.1815384161
40
0.1820398551
40
0.1830410474
40
0.1840399926
40
0.1860311417
40
0.1880133032
40
0.1899864778
40
0.1939058696
40
0.1977893238
40
0.2016368471
40
0.2054484466
40
0.2129639005
40
0.2203357470
40
0.2275640490
40
0.2346488735
40
0.2483883594
40
0.2615548464
40
0.2861715471
40
0.3085061388
40
0.3285680067
40
0.3377507970
40
0.3463707045
40
0.3504703948
40
0.3544519040
40
0.3622769897
40
0.3699345438
40
0.3774270124
40
0.3919265951
40
0.4190649157
40
0.4317671380
40
0.4439334155
40
0.4556455494
40
0.4671475771
40
0.4785004954
40
0.4841324834
40
0.4897404084
40
0.4953288068
40
0.5009022628
40
0.5064653973
40
0.5092446182
40
0.5120230028
40
0.5148011340
40
0.5175795948
40
0.5203589681
40
0.5217491881
40
0.5231398545
40
0.5245310400
40
0.5259228172
40
0.5266189514
40
0.5273152606
40
0.5280117540
40
0.5283600727
40
0.5287084408
40
0.5290568595
40
0.5291439722
40
0.5292310881
40
0.5293182074
40
0.5293944751
40
0.5294800743
40
0.5296512271
40
0.5298223192
40
0.5301643217
40
0.5305060827
40
0.5308476030
40
0.5315299247
40
0.5322112939
40
0.5335712001
40
0.5362798684
40
0.5389740660
40
0.5416542424
40
0.5443208547
40
0.5496151307
40
0.5548608024
40
0.5600617693
40
0.5652220327
40
0.5703456888
40
0.5804989230
40
0.5905569053
40
0.6005550169
40
0.6105292757
40
0.6205159582
40
0.6406618284
40
0.6509001912
40
0.6612910325
40
0.6718664509
40
0.6772292408
40
0.6825915164
40
0.6932828626
40
0.7039646568
40
0.7254484903
40
0.7473648918
40
0.7700079205
40
0.7816903678
40
0.7936518763
40
0.8059207835
40
0.8185233533
40
0.8249577680
40
0.8314845173
40
0.8347834150
40
0.8381064085
40
0.8414144569
40
0.8446931751
40
0.8511813766
40
0.8575793138
40
0.8701135876
40
0.8942071089
40
0.9171660938
40
0.9392061947
40
0.9605709078
40
0.9815272847
40
0.9919448902
40
1.0000000000
40
1.0000000000
40
1.0000000000
40
1.0000000000
10
15.2304305856
20
-2.0998040077
30
0.0000000000
10
15.2362974914
20
-2.0902523397
30
0.0000000000
10
15.2456953535
20
-2.0760780134
30
0.0000000000
10
15.2592235342
20
-2.0576023967
30
0.0000000000
10
15.2701206327
20
-2.0436218648
30
0.0000000000
10
15.2796863080
20
-2.0320525393
30
0.0000000000
10
15.2876560454
20
-2.0228071838
30
0.0000000000
10
15.2938276660
20
-2.0158399189
30
0.0000000000
10
15.2990904500
20
-2.0100541935
30
0.0000000000
10
15.3033807136
20
-2.0054279882
30
0.0000000000
10
15.3066596124
20
-2.0019373932
30
0.0000000000
10
15.3100599939
20
-1.9983625517
30
0.0000000000
10
15.3136839139
20
-1.9946468100
30
0.0000000000
10
15.3175913444
20
-1.9907172873
30
0.0000000000
10
15.3233638109
20
-1.9850139820
30
0.0000000000
10
15.3313175195
20
-1.9773394939
30
0.0000000000
10
15.3459604879
20
-1.9635536180
30
0.0000000000
10
15.3622510835
20
-1.9486847148
30
0.0000000000
10
15.3801366390
20
-1.9326812101
30
0.0000000000
10
15.3952648766
20
-1.9193100493
30
0.0000000000
10
15.4115624655
20
-1.9050561804
30
0.0000000000
10
15.4290297902
20
-1.8899199171
30
0.0000000000
10
15.4443295893
20
-1.8767695813
30
0.0000000000
10
15.4571529982
20
-1.8658067243
30
0.0000000000
10
15.4672019995
20
-1.8572452474
30
0.0000000000
10
15.4775434849
20
-1.8484632145
30
0.0000000000
10
15.4881774592
20
-1.8394606299
30
0.0000000000
10
15.4972246128
20
-1.8318238355
30
0.0000000000
10
15.5046084550
20
-1.8256039873
30
0.0000000000
10
15.5092988538
20
-1.8216583516
30
0.0000000000
10
15.5130877226
20
-1.8184742617
30
0.0000000000
10
15.5154746389
20
-1.8164696458
30
0.0000000000
10
15.5173933253
20
-1.8148590765
30
0.0000000000
10
15.5185971912
20
-1.8138487933
30
0.0000000000
10
15.5194416450
20
-1.8131404355
30
0.0000000000
10
15.5199250201
20
-1.8127347967
30
0.0000000000
10
15.5204468325
20
-1.8122978089
30
0.0000000000
10
15.5211342277
20
-1.8117149321
30
0.0000000000
10
15.5222780927
20
-1.8107462442
30
0.0000000000
10
15.5237183018
20
-1.8095254785
30
0.0000000000
10
15.5260157112
20
-1.8075772010
30
0.0000000000
10
15.5288765879
20
-1.8051486827
30
0.0000000000
10
15.5322961983
20
-1.8022422108
30
0.0000000000
10
15.5368222194
20
-1.7983903854
30
0.0000000000
10
15.5424364294
20
-1.7936031822
30
0.0000000000
10
15.5491195944
20
-1.7878894034
30
0.0000000000
10
15.5557333930
20
-1.7822196917
30
0.0000000000
10
15.5644181902
20
-1.7747541704
30
0.0000000000
10
15.5751010837
20
-1.7655327274
30
0.0000000000
10
15.5877046516
20
-1.7545901388
30
0.0000000000
10
15.6000307724
20
-1.7438238275
30
0.0000000000
10
15.6159330606
20
-1.7298466540
30
0.0000000000
10
15.6351204066
20
-1.7128186033
30
0.0000000000
10
15.6640222073
20
-1.6868042944
30
0.0000000000
10
15.6974063484
20
-1.6560746528
30
0.0000000000
10
15.7339885657
20
-1.6211465573
30
0.0000000000
10
15.7615410970
20
-1.5936403573
30
0.0000000000
10
15.7813235851
20
-1.5730162812
30
0.0000000000
10
15.7925745927
20
-1.5609047860
30
0.0000000000
10
15.8010243352
20
-1.5515515894
30
0.0000000000
10
15.8089843959
20
-1.5425652607
30
0.0000000000
10
15.8185899525
20
-1.5314500054
30
0.0000000000
10
15.8296959373
20
-1.5181326532
30
0.0000000000
10
15.8437129156
20
-1.5006877871
30
0.0000000000
10
15.8661135326
20
-1.4711329980
30
0.0000000000
10
15.8888941212
20
-1.4369480628
30
0.0000000000
10
15.9081267947
20
-1.4027153762
30
0.0000000000
10
15.9203379383
20
-1.3779367536
30
0.0000000000
10
15.9306887456
20
-1.3533069325
30
0.0000000000
10
15.9395203306
20
-1.3287465046
30
0.0000000000
10
15.9456734602
20
-1.3081333928
30
0.0000000000
10
15.9498576768
20
-1.2916016694
30
0.0000000000
10
15.9526241986
20
-1.2792042093
30
0.0000000000
10
15.9550271939
20
-1.2667762505
30
0.0000000000
10
15.9570666591
20
-1.2543177533
30
0.0000000000
10
15.9584636886
20
-1.2439069882
30
0.0000000000
10
15.9593990824
20
-1.2355660337
30
0.0000000000
10
15.9600096131
20
-1.2293043839
30
0.0000000000
10
15.9605293106
20
-1.2230351290
30
0.0000000000
10
15.9609581779
20
-1.2167582616
30
0.0000000000
10
15.9612398404
20
-1.2115218243
30
0.0000000000
10
15.9614197583
20
-1.2073292363
30
0.0000000000
10
15.9615320106
20
-1.2041824797
30
0.0000000000
10
15.9616215587
20
-1.2010338220
30
0.0000000000
10
15.9616772556
20
-1.1984086580
30
0.0000000000
10
15.9617104644
20
-1.1963076210
30
0.0000000000
10
15.9617296982
20
-1.1947311808
30
0.0000000000
10
15.9617409957
20
-1.1934171742
30
0.0000000000
10
15.9617471964
20
-1.1923657367
30
0.0000000000
10
15.9617504283
20
-1.1915769851
30
0.0000000000
10
15.9617517880
20
-1.1909853649
30
0.0000000000
10
15.9617522511
20
-1.1905909149
30
0.0000000000
10
15.9617523941
20
-1.1903936715
30
0.0000000000
10
15.9617524455
20
-1.1902046129
30
0.0000000000
10
15.9617524199
20
-1.1900166991
30
0.0000000000
10
15.9617522949
20
-1.1897653638
30
0.0000000000
10
15.9617519443
20
-1.1894424632
30
0.0000000000
10
15.9617509803
20
-1.1889260517
30
0.0000000000
10
15.9617490187
20
-1.1882808813
30
0.0000000000
10
15.9617454533
20
-1.1875070911
30
0.0000000000
10
15.9617390869
20
-1.1864764681
30
0.0000000000
10
15.9617281046
20
-1.1851895624
30
0.0000000000
10
15.9617040844
20
-1.1831341574
30
0.0000000000
10
15.9616452095
20
-1.1795497616
30
0.0000000000
10
15.9615127919
20
-1.1744473565
30
0.0000000000
10
15.9612761565
20
-1.1683513830
30
0.0000000000
10
15.9609620019
20
-1.1622906763
30
0.0000000000
10
15.9604410509
20
-1.1542764219
30
0.0000000000
10
15.9595972521
20
-1.1443437043
30
0.0000000000
10
15.9582719757
20
-1.1325364825
30
0.0000000000
10
15.9566364431
20
-1.1208702961
30
0.0000000000
10
15.9546905939
20
-1.1093450841
30
0.0000000000
10
15.9516918370
20
-1.0942134370
30
0.0000000000
10
15.9471682485
20
-1.0756235307
30
0.0000000000
10
15.9404787387
20
-1.0538137378
30
0.0000000000
10
15.9325444368
20
-1.0325690972
30
0.0000000000
10
15.9233645377
20
-1.0118900080
30
0.0000000000
10
15.9094304209
20
-0.9850025758
30
0.0000000000
10
15.8929763646
20
-0.9592577037
30
0.0000000000
10
15.8742090841
20
-0.9348539556
30
0.0000000000
10
15.8588145065
20
-0.9170142625
30
0.0000000000
10
15.8450183262
20
-0.9026996331
30
0.0000000000
10
15.8334237350
20
-0.8915616394
30
0.0000000000
10
15.8214373467
20
-0.8807151430
30
0.0000000000
10
15.8058629720
20
-0.8678641433
30
0.0000000000
10
15.7796920474
20
-0.8488292759
30
0.0000000000
10
15.7445241441
20
-0.8278961921
30
0.0000000000
10
15.6988622898
20
-0.8076432052
30
0.0000000000
10
15.6582811746
20
-0.7948920325
30
0.0000000000
10
15.6242319472
20
-0.7870312314
30
0.0000000000
10
15.5975402297
20
-0.7822557026
30
0.0000000000
10
15.5699653292
20
-0.7786631418
30
0.0000000000
10
15.5464143856
20
-0.7766682138
30
0.0000000000
10
15.5271467999
20
-0.7756509220
30
0.0000000000
10
15.5148803761
20
-0.7752580369
30
0.0000000000
10
15.5049581928
20
-0.7750895851
30
0.0000000000
10
15.4974639649
20
-0.7750369892
30
0.0000000000
10
15.4899848247
20
-0.7750563302
30
0.0000000000
10
15.4801175026
20
-0.7751717829
30
0.0000000000
10
15.4679208597
20
-0.7754853477
30
0.0000000000
10
15.4487538490
20
-0.7763470152
30
0.0000000000
10
15.4163644475
20
-0.7787606107
30
0.0000000000
10
15.3717484381
20
-0.7848734665
30
0.0000000000
10
15.3208829753
20
-0.7967151281
30
0.0000000000
10
15.2734132347
20
-0.8129822463
30
0.0000000000
10
15.2293617815
20
-0.8336852995
30
0.0000000000
10
15.1954369490
20
-0.8546917270
30
0.0000000000
10
15.1716130409
20
-0.8725463917
30
0.0000000000
10
15.1608999411
20
-0.8814773665
30
0.0000000000
10
15.1563216716
20
-0.8854785423
30
0.0000000000
11
15.2304305856
21
-2.0998040077
31
0.0000000000
11
15.2489767479
21
-2.0717516569
31
0.0000000000
11
15.2592186275
21
-2.0577546130
31
0.0000000000
11
15.2701064222
21
-2.0437769093
31
0.0000000000
11
15.2816401320
21
-2.0298185459
31
0.0000000000
11
15.2876492052
21
-2.0228466169
31
0.0000000000
11
15.2938197570
21
-2.0158795229
31
0.0000000000
11
15.3001517877
21
-2.0089172640
31
0.0000000000
11
15.3033783576
21
-2.0054379477
31
0.0000000000
11
15.3066452972
21
-2.0019598402
31
0.0000000000
11
15.3099915153
21
-1.9984487206
31
0.0000000000
11
15.3136053305
21
-1.9947389597
31
0.0000000000
11
15.3175116447
21
-1.9908086564
31
0.0000000000
11
15.3217104576
21
-1.9866578104
31
0.0000000000
11
15.3309855799
21
-1.9776944909
31
0.0000000000
11
15.3414306976
21
-1.9678490012
31
0.0000000000
11
15.3658309188
21
-1.9455115112
31
0.0000000000
11
15.3797860224
21
-1.9330195109
31
0.0000000000
11
15.3949111213
21
-1.9196453403
31
0.0000000000
11
15.4112062155
21
-1.9053889996
31
0.0000000000
11
15.4286713050
21
-1.8902504886
31
0.0000000000
11
15.4473063898
21
-1.8742298075
31
0.0000000000
11
15.4570626805
21
-1.8658886531
31
0.0000000000
11
15.4671114699
21
-1.8573269561
31
0.0000000000
11
15.4774527582
21
-1.8485447166
31
0.0000000000
11
15.4880865454
21
-1.8395419346
31
0.0000000000
11
15.4990128313
21
-1.8303186099
31
0.0000000000
11
15.5045856614
21
-1.8256242442
31
0.0000000000
11
15.5102316161
21
-1.8208747428
31
0.0000000000
11
15.5130820152
21
-1.8184793162
31
0.0000000000
11
15.5159506956
21
-1.8160701058
31
0.0000000000
11
15.5173918912
21
-1.8148603315
31
0.0000000000
11
15.5188376571
21
-1.8136471114
31
0.0000000000
11
15.5195622539
21
-1.8130392090
31
0.0000000000
11
15.5199249807
21
-1.8127349348
31
0.0000000000
11
15.5202879932
21
-1.8124304452
31
0.0000000000
11
15.5211239472
21
-1.8117237991
31
0.0000000000
11
15.5219902281
21
-1.8109899491
31
0.0000000000
11
15.5237195383
21
-1.8095243147
31
0.0000000000
11
15.5254445130
21
-1.8080614344
31
0.0000000000
11
15.5288814559
21
-1.8051439362
31
0.0000000000
11
15.5323010569
21
-1.8022374545
31
0.0000000000
11
15.5357033160
21
-1.7993419895
31
0.0000000000
11
15.5424558083
21
-1.7935841089
31
0.0000000000
11
15.5491389330
21
-1.7878702946
31
0.0000000000
11
15.5557526899
21
-1.7822005465
31
0.0000000000
11
15.5622970790
21
-1.7765748646
31
0.0000000000
11
15.5751777541
21
-1.7654556993
31
0.0000000000
11
15.5877809583
21
-1.7545127988
31
0.0000000000
11
15.6001066916
21
-1.7437461632
31
0.0000000000
11
15.6121549540
21
-1.7331557923
31
0.0000000000
11
15.6354190659
21
-1.7125038449
31
0.0000000000
11
15.6575732942
21
-1.6925569567
31
0.0000000000
11
15.6985520995
21
-1.6547783578
31
0.0000000000
11
15.7350913702
21
-1.6198199956
31
0.0000000000
11
15.7671911060
21
-1.5876818701
31
0.0000000000
11
15.7815761484
21
-1.5726703961
31
0.0000000000
11
15.7948513070
21
-1.5583639813
31
0.0000000000
11
15.8010726800
21
-1.5514751710
31
0.0000000000
11
15.8070516246
21
-1.5447285052
31
0.0000000000
11
15.8186326538
21
-1.5313204029
31
0.0000000000
11
15.8297345650
21
-1.5180031927
31
0.0000000000
11
15.8403573580
21
-1.5047768747
31
0.0000000000
11
15.8601655898
21
-1.4785969152
31
0.0000000000
11
15.8940326359
21
-1.4273277021
31
0.0000000000
11
15.9080914502
21
-1.4022384485
31
0.0000000000
11
15.9202337921
21
-1.3775127636
31
0.0000000000
11
15.9305311874
21
-1.3530757397
31
0.0000000000
11
15.9393298208
21
-1.3285648238
31
0.0000000000
11
15.9466754688
21
-1.3039320749
31
0.0000000000
11
15.9498034234
21
-1.2915700131
31
0.0000000000
11
15.9525681316
21
-1.2791774931
31
0.0000000000
11
15.9549695935
21
-1.2667545149
31
0.0000000000
11
15.9570078090
21
-1.2543010784
31
0.0000000000
11
15.9586827782
21
-1.2418171837
31
0.0000000000
11
15.9593840454
21
-1.2355638145
31
0.0000000000
11
15.9599945011
21
-1.2293028307
31
0.0000000000
11
15.9605141451
21
-1.2230342324
31
0.0000000000
11
15.9609429776
21
-1.2167580196
31
0.0000000000
11
15.9612809985
21
-1.2104741921
31
0.0000000000
11
15.9614159546
21
-1.2073294230
31
0.0000000000
11
15.9615282078
21
-1.2041827502
31
0.0000000000
11
15.9616177581
21
-1.2010341737
31
0.0000000000
11
15.9616846055
21
-1.1978836936
31
0.0000000000
11
15.9617095157
21
-1.1963077397
31
0.0000000000
11
15.9617287501
21
-1.1947313099
31
0.0000000000
11
15.9617423087
21
-1.1931544042
31
0.0000000000
11
15.9617469597
21
-1.1923657728
31
0.0000000000
11
15.9617501917
21
-1.1915770225
31
0.0000000000
11
15.9617520048
21
-1.1907881532
31
0.0000000000
11
15.9617522363
21
-1.1905909173
31
0.0000000000
11
15.9617523792
21
-1.1903936740
31
0.0000000000
11
15.9617524334
21
-1.1901964232
31
0.0000000000
11
15.9617524110
21
-1.1900237417
31
0.0000000000
11
15.9617523143
21
-1.1898299325
31
0.0000000000
11
15.9617518938
21
-1.1894424175
31
0.0000000000
11
15.9617511706
21
-1.1890550404
31
0.0000000000
11
15.9617488158
21
-1.1882806998
31
0.0000000000
11
15.9617452500
21
-1.1875069106
31
0.0000000000
11
15.9617404731
21
-1.1867336729
31
0.0000000000
11
15.9617272863
21
-1.1851888518
31
0.0000000000
11
15.9617092554
21
-1.1836462366
31
0.0000000000
11
15.9616586611
21
-1.1805676237
31
0.0000000000
11
15.9614993429
21
-1.1744368677
31
0.0000000000
11
15.9612625186
21
-1.1683414050
31
0.0000000000
11
15.9609481882
21
-1.1622812355
31
0.0000000000
11
15.9605563516
21
-1.1562563593
31
0.0000000000
11
15.9595401601
21
-1.1443124867
31
0.0000000000
11
15.9582139440
21
-1.1325097872
31
0.0000000000
11
15.9565777034
21
-1.1208482607
31
0.0000000000
11
15.9546314383
21
-1.1093279073
31
0.0000000000
11
15.9523751486
21
-1.0979487269
31
0.0000000000
11
15.9469324957
21
-1.0756138852
31
0.0000000000
11
15.9402497446
21
-1.0538437358
31
0.0000000000
11
15.9323268953
21
-1.0326382785
31
0.0000000000
11
15.9231639480
21
-1.0119975134
31
0.0000000000
11
15.9127609025
21
-0.9919214406
31
0.0000000000
11
15.8882345170
21
-0.9534633714
31
0.0000000000
11
15.8741111771
21
-0.9350813751
31
0.0000000000
11
15.8587477390
21
-0.9172640710
31
0.0000000000
11
15.8421442028
21
-0.9000114591
31
0.0000000000
11
15.8333822997
21
-0.8916054585
31
0.0000000000
11
15.8243789978
21
-0.8834602715
31
0.0000000000
11
15.8057070195
21
-0.8680548877
31
0.0000000000
11
15.7861478753
21
-0.8538294908
31
0.0000000000
11
15.7443680888
21
-0.8289186575
31
0.0000000000
11
15.6990396385
21
-0.8087277715
31
0.0000000000
11
15.6501625242
21
-0.7932568329
31
0.0000000000
11
15.6243932181
21
-0.7872913439
31
0.0000000000
11
15.5977367461
21
-0.7825058417
31
0.0000000000
11
15.5701931081
21
-0.7789003264
31
0.0000000000
11
15.5417623041
21
-0.7764747979
31
0.0000000000
11
15.5272142149
21
-0.7757045287
31
0.0000000000
11
15.5124443341
21
-0.7752292562
31
0.0000000000
11
15.5049762220
21
-0.7751022437
31
0.0000000000
11
15.4974526619
21
-0.7750489804
31
0.0000000000
11
15.4899627747
21
-0.7750678151
31
0.0000000000
11
15.4825397846
21
-0.7751550745
31
0.0000000000
11
15.4678544371
21
-0.7755344635
31
0.0000000000
11
15.4533832663
21
-0.7761870125
31
0.0000000000
11
15.4250834552
21
-0.7783115906
31
0.0000000000
11
15.3710539548
21
-0.7858386673
31
0.0000000000
11
15.3204512834
21
-0.7977363048
31
0.0000000000
11
15.2732754412
21
-0.8140045029
31
0.0000000000
11
15.2295264280
21
-0.8346432618
31
0.0000000000
11
15.1892042439
21
-0.8596525813
31
0.0000000000
11
15.1703282128
21
-0.8737962013
31
0.0000000000
11
15.1563216716
21
-0.8854785423
31
0.0000000000
0
SPLINE
5
2B0
100
AcDbEntity
8
0
100
AcDbSpline
62
0
6
CONTINUOUS
70
0
71
3
72
61
73
57
74
55
42
0.0000001000
43
0.0000001000
44
0.0000000001
12
0.0065330262
22
0.9053283723
32
0.0000000000
13
-0.0142358619
23
-0.9052495415
33
0.0000000000
40
0.0000000000
40
0.0000000000
40
0.0000000000
40
0.0000000000
40
0.0820308033
40
0.1561937906
40
0.1914632511
40
0.2261594721
40
0.2434697077
40
0.2608399420
40
0.2695566651
40
0.2782368363
40
0.2954910300
40
0.3126580354
40
0.3298007891
40
0.3642503387
40
0.3993526489
40
0.4173039564
40
0.4355914301
40
0.4542671628
40
0.4733800734
40
0.4831155377
40
0.4929771302
40
0.5029700434
40
0.5130992679
40
0.5182165746
40
0.5233061577
40
0.5257408968
40
0.5281676174
40
0.5329972587
40
0.5425632185
40
0.5520087484
40
0.5705563809
40
0.5886813299
40
0.6064264671
40
0.6238374704
40
0.6578399498
40
0.6911151983
40
0.7241053182
40
0.7406422926
40
0.7572778211
40
0.7656507621
40
0.7740384256
40
0.7905745767
40
0.8068121037
40
0.8227998391
40
0.8542189997
40
0.8852748300
40
0.9164126532
40
0.9321577428
40
0.9480875104
40
0.9642536648
40
0.9807056864
40
0.9890543768
40
0.9932617794
40
0.9953740353
40
0.9974124271
40
1.0000000000
40
1.0000000000
40
1.0000000000
40
1.0000000000
10
15.1981919335
20
-1.2256729935
30
0.0000000000
10
15.1983705700
20
-1.2009180556
30
0.0000000000
10
15.2022076114
20
-1.1536630049
30
0.0000000000
10
15.2184234509
20
-1.0976728920
30
0.0000000000
10
15.2378999502
20
-1.0586719175
30
0.0000000000
10
15.2525360948
20
-1.0366822493
30
0.0000000000
10
15.2657411416
20
-1.0204207509
30
0.0000000000
10
15.2746240859
20
-1.0107839579
30
0.0000000000
10
15.2820867774
20
-1.0034069260
30
0.0000000000
10
15.2897360536
20
-0.9962747702
30
0.0000000000
10
15.2996423407
20
-0.9878324011
30
0.0000000000
10
15.3120815704
20
-0.9784665833
30
0.0000000000
10
15.3293950356
20
-0.9670089797
30
0.0000000000
10
15.3525012720
20
-0.9545917561
30
0.0000000000
10
15.3771426023
20
-0.9449251551
30
0.0000000000
10
15.3977828658
20
-0.9387705267
30
0.0000000000
10
15.4139064211
20
-0.9349039166
30
0.0000000000
10
15.4305536470
20
-0.9318225802
30
0.0000000000
10
15.4447751991
20
-0.9299203094
30
0.0000000000
10
15.4564026835
20
-0.9287839164
30
0.0000000000
10
15.4653087404
20
-0.9281220487
30
0.0000000000
10
15.4743460593
20
-0.9276559361
30
0.0000000000
10
15.4819602643
20
-0.9274312954
30
0.0000000000
10
15.4880969115
20
-0.9273488641
30
0.0000000000
10
15.4919120163
20
-0.9273373154
30
0.0000000000
10
15.4949150561
20
-0.9273521171
30
0.0000000000
10
15.4978395363
20
-0.9273820476
30
0.0000000000
10
15.5029154817
20
-0.9274743876
30
0.0000000000
10
15.5101067773
20
-0.9277211411
30
0.0000000000
10
15.5214242080
20
-0.9283601651
30
0.0000000000
10
15.5352907623
20
-0.9296142883
30
0.0000000000
10
15.5515637430
20
-0.9318702921
30
0.0000000000
10
15.5673685942
20
-0.9348688313
30
0.0000000000
10
15.5876523157
20
-0.9398162322
30
0.0000000000
10
15.6119726485
20
-0.9478549693
30
0.0000000000
10
15.6394970584
20
-0.9605817979
30
0.0000000000
10
15.6608458697
20
-0.9736899593
30
0.0000000000
10
15.6768820042
20
-0.9856011814
30
0.0000000000
10
15.6865017125
20
-0.9936544675
30
0.0000000000
10
15.6939453689
20
-1.0004507311
30
0.0000000000
10
15.7011740515
20
-1.0074319780
30
0.0000000000
10
15.7097776453
20
-1.0164002343
30
0.0000000000
10
15.7193803795
20
-1.0275608709
30
0.0000000000
10
15.7310822583
20
-1.0428015592
30
0.0000000000
10
15.7438720863
20
-1.0627994995
30
0.0000000000
10
15.7561711068
20
-1.0883057682
30
0.0000000000
10
15.7637783128
20
-1.1106270274
30
0.0000000000
10
15.7682888364
20
-1.1290472530
30
0.0000000000
10
15.7709094557
20
-1.1432535239
30
0.0000000000
10
15.7727536249
20
-1.1577952756
30
0.0000000000
10
15.7736395636
20
-1.1701330192
30
0.0000000000
10
15.7739246777
20
-1.1788833862
30
0.0000000000
10
15.7739837108
20
-1.1833097888
30
0.0000000000
10
15.7739936308
20
-1.1858321102
30
0.0000000000
10
15.7739882259
20
-1.1878656039
30
0.0000000000
10
15.7739727330
20
-1.1892615894
30
0.0000000000
10
15.7739604542
20
-1.1900423892
30
0.0000000000
11
15.1981919335
21
-1.2256729935
31
0.0000000000
11
15.2049913076
21
-1.1517181543
31
0.0000000000
11
15.2242525804
21
-1.0873965639
31
0.0000000000
11
15.2385564288
21
-1.0588482502
31
0.0000000000
11
15.2559757518
21
-1.0327082576
31
0.0000000000
11
15.2658537162
21
-1.0205413816
31
0.0000000000
11
15.2765105494
21
-1.0089765859
31
0.0000000000
11
15.2821212803
21
-1.0034269317
31
0.0000000000
11
15.2878697217
21
-0.9980684647
31
0.0000000000
11
15.2997609945
21
-0.9879384621
31
0.0000000000
11
15.3121781203
21
-0.9785910347
31
0.0000000000
11
15.3251210992
21
-0.9700261828
31
0.0000000000
11
15.3525846162
21
-0.9552442047
31
0.0000000000
11
15.3821515455
21
-0.9435925279
31
0.0000000000
11
15.3977237898
21
-0.9389405524
31
0.0000000000
11
15.4138218871
21
-0.9350711523
31
0.0000000000
11
15.4304458375
21
-0.9319843275
31
0.0000000000
11
15.4475956410
21
-0.9296800779
31
0.0000000000
11
15.4563677377
21
-0.9288214189
31
0.0000000000
11
15.4652712976
21
-0.9281584037
31
0.0000000000
11
15.4743063208
21
-0.9276910324
31
0.0000000000
11
15.4834728072
21
-0.9274193048
31
0.0000000000
11
15.4881053491
21
-0.9273568075
31
0.0000000000
11
15.4927131929
21
-0.9273431559
31
0.0000000000
11
15.4949174616
21
-0.9273540813
31
0.0000000000
11
15.4971143826
21
-0.9273765746
31
0.0000000000
11
15.5014861815
21
-0.9274562653
31
0.0000000000
11
15.5101416066
21
-0.9277544628
31
0.0000000000
11
15.5186794681
21
-0.9282377483
31
0.0000000000
11
15.5354025007
21
-0.9297595837
31
0.0000000000
11
15.5516552792
21
-0.9320217713
31
0.0000000000
11
15.5674378037
21
-0.9350243113
31
0.0000000000
11
15.5827500741
21
-0.9387672036
31
0.0000000000
11
15.6119638527
21
-0.9484740452
31
0.0000000000
11
15.6392966150
21
-0.9611422961
31
0.0000000000
11
15.6647483611
21
-0.9767719564
31
0.0000000000
11
15.6767688530
21
-0.9856973149
31
0.0000000000
11
15.6883190909
21
-0.9953630259
31
0.0000000000
11
15.6939178646
21
-1.0004735134
31
0.0000000000
11
15.6993822249
21
-1.0057466884
31
0.0000000000
11
15.7097392076
21
-1.0165570928
31
0.0000000000
11
15.7193226396
21
-1.0277046361
31
0.0000000000
11
15.7281325212
21
-1.0391893183
31
0.0000000000
11
15.7434316325
21
-1.0631700995
31
0.0000000000
11
15.7556365415
21
-1.0884994364
31
0.0000000000
11
15.7647472482
21
-1.1151773290
31
0.0000000000
11
15.7681422758
21
-1.1290219836
31
0.0000000000
11
15.7707637527
21
-1.1432037772
31
0.0000000000
11
15.7726116791
21
-1.1577227097
31
0.0000000000
11
15.7736860549
21
-1.1725787811
31
0.0000000000
11
15.7739331613
21
-1.1801332439
31
0.0000000000
11
15.7739841941
21
-1.1839420821
31
0.0000000000
11
15.7739915805
21
-1.1858544028
31
0.0000000000
11
15.7739863787
21
-1.1876998574
31
0.0000000000
11
15.7739604542
21
-1.1900423892
31
0.0000000000
0
SPLINE
5
2B1
100
AcDbEntity
8
0
100
AcDbSpline
62
0
6
CONTINUOUS
70
0
71
3
72
36
73
32
74
30
42
0.0000001000
43
0.0000001000
44
0.0000000001
12
-0.9381499088
22
-1.0718569777
32
0.0000000000
13
-0.0247281405
23
-1.4242159809
33
0.0000000000
40
0.0000000000
40
0.0000000000
40
0.0000000000
40
0.0000000000
40
0.0567950436
40
0.1159344905
40
0.1775498360
40
0.2417571068
40
0.2748666992
40
0.2916779863
40
0.3086620177
40
0.3258201444
40
0.3431069194
40
0.3776052660
40
0.4119857635
40
0.4462640926
40
0.4804560743
40
0.5145776497
40
0.5486448590
40
0.5826738189
40
0.6166807009
40
0.6506817076
40
0.6846930503
40
0.6931995576
40
0.7016925954
40
0.7184850845
40
0.7350101127
40
0.7512687649
40
0.7829912484
40
0.8432909322
40
0.8994785788
40
0.9516677292
40
1.0000000000
40
1.0000000000
40
1.0000000000
40
1.0000000000
10
14.5827540991
20
-0.9753250101
30
0.0000000000
10
14.5649933441
20
-0.9956170647
30
0.0000000000
10
14.5298543448
20
-1.0380264053
30
0.0000000000
10
14.4792934023
20
-1.1055202060
30
0.0000000000
10
14.4298488683
20
-1.1781339704
30
0.0000000000
10
14.3899928836
20
-1.2422378946
30
0.0000000000
10
14.3626984037
20
-1.2890541511
30
0.0000000000
10
14.3470762880
20
-1.3167150915
30
0.0000000000
10
14.3353691893
20
-1.3378875057
30
0.0000000000
10
14.3237414406
20
-1.3593606811
30
0.0000000000
10
14.3084055504
20
-1.3882815340
30
0.0000000000
10
14.2898231474
20
-1.4247341449
30
0.0000000000
10
14.2685058972
20
-1.4688360060
30
0.0000000000
10
14.2482001325
20
-1.5132529715
30
0.0000000000
10
14.2289043528
20
-1.5579840329
30
0.0000000000
10
14.2106189873
20
-1.6030294284
30
0.0000000000
10
14.1933439420
20
-1.6483890648
30
0.0000000000
10
14.1770792808
20
-1.6940629211
30
0.0000000000
10
14.1618249450
20
-1.7400510068
30
0.0000000000
10
14.1475811935
20
-1.7863531285
30
0.0000000000
10
14.1376580793
20
-1.8213070892
30
0.0000000000
10
14.1313622704
20
-1.8446950784
30
0.0000000000
10
14.1272745030
20
-1.8602104776
30
0.0000000000
10
14.1223221514
20
-1.8794351284
30
0.0000000000
10
14.1166340810
20
-1.9022770963
30
0.0000000000
10
14.1094771238
20
-1.9320577179
30
0.0000000000
10
14.0980970610
20
-1.9821973346
30
0.0000000000
10
14.0843557092
20
-2.0512329617
30
0.0000000000
10
14.0719904704
20
-2.1303892012
30
0.0000000000
10
14.0640409906
20
-2.2044007824
30
0.0000000000
10
14.0615944975
20
-2.2521018024
30
0.0000000000
10
14.0611961085
20
-2.2750469999
30
0.0000000000
11
14.5827540991
21
-0.9753250101
31
0.0000000000
11
14.5310747284
21
-1.0375676781
31
0.0000000000
11
14.4805038150
21
-1.1049395346
31
0.0000000000
11
14.4310410845
21
-1.1774408931
31
0.0000000000
11
14.3826865370
21
-1.2550717535
31
0.0000000000
11
14.3589248318
21
-1.2958107469
31
0.0000000000
11
14.3471478714
21
-1.3166611345
31
0.0000000000
11
14.3354401724
21
-1.3378321159
31
0.0000000000
11
14.3238017348
21
-1.3593236912
31
0.0000000000
11
14.3122732735
21
-1.3810820619
31
0.0000000000
11
14.2899534283
21
-1.4248612056
31
0.0000000000
11
14.2686434960
21
-1.4689543532
31
0.0000000000
11
14.2483434768
21
-1.5133615048
31
0.0000000000
11
14.2290533705
21
-1.5580826605
31
0.0000000000
11
14.2107731772
21
-1.6031178201
31
0.0000000000
11
14.1935028969
21
-1.6484669837
31
0.0000000000
11
14.1772425296
21
-1.6941301513
31
0.0000000000
11
14.1619920752
21
-1.7401073229
31
0.0000000000
11
14.1477515339
21
-1.7863984984
31
0.0000000000
11
14.1345209056
21
-1.8330036780
31
0.0000000000
11
14.1313710474
21
-1.8447040360
31
0.0000000000
11
14.1282856657
21
-1.8564017200
31
0.0000000000
11
14.1223219006
21
-1.8795660734
31
0.0000000000
11
14.1166350379
21
-1.9024075412
31
0.0000000000
11
14.1112250777
21
-1.9249261233
31
0.0000000000
11
14.1012358644
21
-1.9689946308
31
0.0000000000
11
14.0845802668
21
-2.0532570180
31
0.0000000000
11
14.0723551078
21
-2.1323532353
31
0.0000000000
11
14.0645603875
21
-2.2062832824
31
0.0000000000
11
14.0611961085
21
-2.2750469999
31
0.0000000000
0
SPLINE
5
2B2
100
AcDbEntity
8
0
100
AcDbSpline
62
0
6
CONTINUOUS
70
0
71
3
72
71
73
67
74
65
42
0.0000001000
43
0.0000001000
44
0.0000000001
12
0.1006856381
22
1.4714247774
32
0.0000000000
13
1.0101870305
23
1.0745932402
33
0.0000000000
40
0.0000000000
40
0.0000000000
40
0.0000000000
40
0.0000000000
40
0.0561649522
40
0.0836834401
40
0.1108380492
40
0.1376389626
40
0.1640967718
40
0.1902224857
40
0.2031645468
40
0.2160279088
40
0.2288140683
40
0.2415245492
40
0.2478519185
40
0.2541609523
40
0.2604518489
40
0.2667248080
40
0.2698546272
40
0.2729800378
40
0.2761010653
40
0.2776599438
40
0.2792177361
40
0.2807744454
40
0.2815523950
40
0.2823300751
40
0.2827188142
40
0.2831074861
40
0.2833017968
40
0.2834124163
40
0.2835499767
40
0.2838250996
40
0.2841002254
40
0.2852007568
40
0.2863013340
40
0.2874019574
40
0.2885026277
40
0.2907041106
40
0.2951076600
40
0.2995120169
40
0.3039172144
40
0.3083232862
40
0.3127302653
40
0.3215470710
40
0.3303679060
40
0.3480226610
40
0.3656967195
40
0.3833921970
40
0.4011112014
40
0.4188558323
40
0.4366281800
40
0.4722638221
40
0.5080351661
40
0.5439585419
40
0.5800500729
40
0.6163256584
40
0.6345376164
40
0.6528014382
40
0.6619534276
40
0.6711017418
40
0.6892144517
40
0.7070715086
40
0.7246742719
40
0.7591222796
40
0.8250300666
40
0.8870521484
40
0.9453218402
40
1.0000000000
40
1.0000000000
40
1.0000000000
40
1.0000000000
10
14.2489568955
20
-2.2750469996
30
0.0000000000
10
14.2508418968
20
-2.2474994989
30
0.0000000000
10
14.2543637806
20
-2.2064979036
30
0.0000000000
10
14.2605502140
20
-2.1523574794
30
0.0000000000
10
14.2658573894
20
-2.1126535314
30
0.0000000000
10
14.2718632497
20
-2.0735768422
30
0.0000000000
10
14.2785678392
20
-2.0351272490
30
0.0000000000
10
14.2847564228
20
-2.0035108460
30
0.0000000000
10
14.2900593703
20
-1.9785367630
30
0.0000000000
10
14.2941989151
20
-1.9600210054
30
0.0000000000
10
14.2985130968
20
-1.9416621159
30
0.0000000000
10
14.3022592720
20
-1.9264714944
30
0.0000000000
10
14.3053438164
20
-1.9143981569
30
0.0000000000
10
14.3076974943
20
-1.9053956261
30
0.0000000000
10
14.3100948281
20
-1.8964323129
30
0.0000000000
10
14.3121304296
20
-1.8889902899
30
0.0000000000
10
14.3137807708
20
-1.8830563738
30
0.0000000000
10
14.3150285636
20
-1.8786188930
30
0.0000000000
10
14.3160778529
20
-1.8749278725
30
0.0000000000
10
14.3169227444
20
-1.8719799698
30
0.0000000000
10
14.3175589218
20
-1.8697722667
30
0.0000000000
10
14.3180914303
20
-1.8679342361
30
0.0000000000
10
14.3185188141
20
-1.8664650421
30
0.0000000000
10
14.3187864462
20
-1.8655473782
30
0.0000000000
10
14.3190009570
20
-1.8648135725
30
0.0000000000
10
14.3191350167
20
-1.8643550486
30
0.0000000000
10
14.3192310934
20
-1.8640278737
30
0.0000000000
10
14.3192918711
20
-1.8638189979
30
0.0000000000
10
14.3193625978
20
-1.8635716433
30
0.0000000000
10
14.3194560664
20
-1.8632466763
30
0.0000000000
10
14.3196801470
20
-1.8624666654
30
0.0000000000
10
14.3200169415
20
-1.8612968100
30
0.0000000000
10
14.3204669948
20
-1.8597372452
30
0.0000000000
10
14.3209181659
20
-1.8581779323
30
0.0000000000
10
14.3215211893
20
-1.8560991276
30
0.0000000000
10
14.3225803581
20
-1.8524619137
30
0.0000000000
10
14.3241043589
20
-1.8472684384
30
0.0000000000
10
14.3259505695
20
-1.8410404622
30
0.0000000000
10
14.3278142700
20
-1.8348164030
30
0.0000000000
10
14.3296954607
20
-1.8285962603
30
0.0000000000
10
14.3322273064
20
-1.8203070711
30
0.0000000000
10
14.3354358945
20
-1.8099552473
30
0.0000000000
10
14.3406636418
20
-1.7934109621
30
0.0000000000
10
14.3473736991
20
-1.7727687752
30
0.0000000000
10
14.3557036140
20
-1.7480670675
30
0.0000000000
10
14.3643134032
20
-1.7234280319
30
0.0000000000
10
14.3732030553
20
-1.6988516991
30
0.0000000000
10
14.3823725879
20
-1.6743380289
30
0.0000000000
10
14.3949824355
20
-1.6417091425
30
0.0000000000
10
14.4114493385
20
-1.6010725619
30
0.0000000000
10
14.4323122634
20
-1.5526019885
30
0.0000000000
10
14.4542949669
20
-1.5043823366
30
0.0000000000
10
14.4773973012
20
-1.4564139140
30
0.0000000000
10
14.4975550960
20
-1.4167030346
30
0.0000000000
10
14.5142361787
20
-1.3850645233
30
0.0000000000
10
14.5249013999
20
-1.3653300302
30
0.0000000000
10
14.5335690134
20
-1.3495819673
30
0.0000000000
10
14.5422794846
20
-1.3339425644
30
0.0000000000
10
14.5531900976
20
-1.3146301574
30
0.0000000000
10
14.5663432439
20
-1.2918119104
30
0.0000000000
10
14.5837693797
20
-1.2621886845
30
0.0000000000
10
14.6138497653
20
-1.2126060952
30
0.0000000000
10
14.6571934787
20
-1.1455416626
30
0.0000000000
10
14.7101866968
20
-1.0708607033
30
0.0000000000
10
14.7633685785
20
-1.0032058603
30
0.0000000000
10
14.8000862810
20
-0.9614985298
30
0.0000000000
10
14.8184980036
20
-0.9419129361
30
0.0000000000
11
14.2489568955
21
-2.2750469996
31
0.0000000000
11
14.2560869238
21
-2.1925186714
31
0.0000000000
11
14.2606996747
21
-2.1521955807
31
0.0000000000
11
14.2660109132
21
-2.1124999255
31
0.0000000000
11
14.2720206392
21
-2.0734317058
31
0.0000000000
11
14.2787288528
21
-2.0349909217
31
0.0000000000
11
14.2861355539
21
-1.9971775730
31
0.0000000000
11
14.2901008373
21
-1.9785061871
31
0.0000000000
11
14.2942407426
21
-1.9599916599
31
0.0000000000
11
14.2985552697
21
-1.9416339917
31
0.0000000000
11
14.3030444188
21
-1.9234331824
31
0.0000000000
11
14.3053544765
21
-1.9143915998
31
0.0000000000
11
14.3077081897
21
-1.9053892319
31
0.0000000000
11
14.3101055583
21
-1.8964260787
31
0.0000000000
11
14.3125465825
21
-1.8875021403
31
0.0000000000
11
14.3137834654
21
-1.8830548766
31
0.0000000000
11
14.3150312621
21
-1.8786174166
31
0.0000000000
11
14.3162899727
21
-1.8741897603
31
0.0000000000
11
14.3169234207
21
-1.8719796085
31
0.0000000000
11
14.3175595972
21
-1.8697719076
31
0.0000000000
11
14.3181985021
21
-1.8675666577
31
0.0000000000
11
14.3185189778
21
-1.8664649518
31
0.0000000000
11
14.3188401355
21
-1.8653638586
31
0.0000000000
11
14.3190009702
21
-1.8648135418
31
0.0000000000
11
14.3191619754
21
-1.8642633782
31
0.0000000000
11
14.3192425420
21
-1.8639883539
31
0.0000000000
11
14.3192880622
21
-1.8638316841
31
0.0000000000
11
14.3193440395
21
-1.8636366761
31
0.0000000000
11
14.3194560453
21
-1.8632466716
31
0.0000000000
11
14.3195681194
21
-1.8628566825
31
0.0000000000
11
14.3200170989
21
-1.8612968788
31
0.0000000000
11
14.3204671716
21
-1.8597373200
31
0.0000000000
11
14.3209183374
21
-1.8581780059
31
0.0000000000
11
14.3213705964
21
-1.8566189367
31
0.0000000000
11
14.3222783936
21
-1.8535015327
31
0.0000000000
11
14.3241071055
21
-1.8472696625
31
0.0000000000
11
14.3259533074
21
-1.8410417092
31
0.0000000000
11
14.3278169992
21
-1.8348176730
31
0.0000000000
11
14.3296981810
21
-1.8285975538
31
0.0000000000
11
14.3315968527
21
-1.8223813515
31
0.0000000000
11
14.3354466660
21
-1.8099606981
31
0.0000000000
11
14.3393664391
21
-1.7975557126
31
0.0000000000
11
14.3474158646
21
-1.7727927457
31
0.0000000000
11
14.3557451292
21
-1.7480924509
31
0.0000000000
11
14.3643542331
21
-1.7234548281
31
0.0000000000
11
14.3732431760
21
-1.6988798774
31
0.0000000000
11
14.3824119582
21
-1.6743675986
31
0.0000000000
11
14.3918605794
21
-1.6499179920
31
0.0000000000
11
14.4115973395
21
-1.6012067947
31
0.0000000000
11
14.4324534561
21
-1.5527462856
31
0.0000000000
11
14.4544289294
21
-1.5045364647
31
0.0000000000
11
14.4775237593
21
-1.4565773319
31
0.0000000000
11
14.5017379458
21
-1.4088688873
31
0.0000000000
11
14.5142647977
21
-1.3851086730
31
0.0000000000
11
14.5270714889
21
-1.3614111308
31
0.0000000000
11
14.5335797741
21
-1.3495858617
31
0.0000000000
11
14.5401430973
21
-1.3377972547
31
0.0000000000
11
14.5532856383
21
-1.3145399680
31
0.0000000000
11
14.5664394243
21
-1.2917232469
31
0.0000000000
11
14.5796044554
21
-1.2693470916
31
0.0000000000
11
14.6059682526
21
-1.2259164780
31
0.0000000000
11
14.6588307873
21
-1.1443420395
31
0.0000000000
11
14.7118732424
21
-1.0698166522
31
0.0000000000
11
14.7650956179
21
-1.0023403163
31
0.0000000000
11
14.8184980036
21
-0.9419129361
31
0.0000000000
0
SPLINE
5
2B3
100
AcDbEntity
8
0
100
AcDbSpline
62
0
6
CONTINUOUS
70
0
71
3
72
86
73
82
74
80
42
0.0000001000
43
0.0000001000
44
0.0000000001
12
0.2444287624
22
-1.9262481030
32
0.0000000000
13
-0.2649739360
23
1.9240794563
33
0.0000000000
40
0.0000000000
40
0.0000000000
40
0.0000000000
40
0.0000000000
40
0.0385008684
40
0.0743463985
40
0.1083448625
40
0.1249584042
40
0.1414724006
40
0.1497344365
40
0.1580200133
40
0.1663211845
40
0.1745874155
40
0.1910617548
40
0.2075681418
40
0.2242309460
40
0.2411710921
40
0.2585037011
40
0.2673526923
40
0.2763393828
40
0.2854758359
40
0.2947735316
40
0.3042433639
40
0.3090462304
40
0.3114651759
40
0.3138959855
40
0.3163388081
40
0.3175647724
40
0.3187937948
40
0.3194094586
40
0.3199947328
40
0.3211535590
40
0.3234651926
40
0.3280648152
40
0.3326338161
40
0.3371732482
40
0.3416841851
40
0.3506246892
40
0.3594645929
40
0.3682131997
40
0.3854726868
40
0.4024854557
40
0.4193349599
40
0.4361070902
40
0.4528889255
40
0.4697673943
40
0.4867891191
40
0.5210401948
40
0.5561335849
40
0.5927346467
40
0.6117957996
40
0.6314466102
40
0.6415127937
40
0.6517856276
40
0.6731727088
40
0.6957382126
40
0.7195351917
40
0.7446088829
40
0.7709979580
40
0.7987355878
40
0.8278503341
40
0.8429323228
40
0.8506056611
40
0.8583676420
40
0.8662185831
40
0.8741587912
40
0.8781624681
40
0.8801727150
40
0.8811742888
40
0.8821416493
40
0.8840716838
40
0.8859954740
40
0.8898243393
40
0.8936282852
40
0.8974073512
40
0.9048909953
40
0.9122756138
40
0.9195615528
40
0.9338387521
40
0.9477257465
40
0.9743417938
40
0.9994408424
40
1.0000000000
40
1.0000000000
40
1.0000000000
40
1.0000000000
10
12.7093185241
20
-1.9287330401
30
0.0000000000
10
12.7124554306
20
-1.9534537817
30
0.0000000000
10
12.7212745882
20
-2.0009200380
30
0.0000000000
10
12.7436985027
20
-2.0676244361
30
0.0000000000
10
12.7699230410
20
-2.1173882579
30
0.0000000000
10
12.7950730262
20
-2.1528725249
30
0.0000000000
10
12.8124568752
20
-2.1733066056
30
0.0000000000
10
12.8273796526
20
-2.1886508765
30
0.0000000000
10
12.8390944686
20
-2.1996779694
30
0.0000000000
10
12.8512801658
20
-2.2101861747
30
0.0000000000
10
12.8680640817
20
-2.2234480672
30
0.0000000000
10
12.8900763527
20
-2.2386182457
30
0.0000000000
10
12.9180595193
20
-2.2544891296
30
0.0000000000
10
12.9475832896
20
-2.2680093425
30
0.0000000000
10
12.9786399941
20
-2.2791779236
30
0.0000000000
10
13.0056107493
20
-2.2864770172
30
0.0000000000
10
13.0278903523
20
-2.2911589503
30
0.0000000000
10
13.0451002737
20
-2.2941115645
30
0.0000000000
10
13.0626927885
20
-2.2964805175
30
0.0000000000
10
13.0806681377
20
-2.2982660532
30
0.0000000000
10
13.0958940031
20
-2.2992631214
30
0.0000000000
10
13.1066885753
20
-2.2997083762
30
0.0000000000
10
13.1129334291
20
-2.2998916752
30
0.0000000000
10
13.1176523735
20
-2.2999930562
30
0.0000000000
10
13.1215998971
20
-2.3000471177
30
0.0000000000
10
13.1247698201
20
-2.3000722227
30
0.0000000000
10
13.1267572307
20
-2.3000803368
30
0.0000000000
10
13.1283299771
20
-2.3000822641
30
0.0000000000
10
13.1298572912
20
-2.3000812838
30
0.0000000000
10
13.1324822807
20
-2.3000723133
30
0.0000000000
10
13.1377053240
20
-2.3000255632
30
0.0000000000
10
13.1451345100
20
-2.2998762838
30
0.0000000000
10
13.1540016361
20
-2.2995642834
30
0.0000000000
10
13.1628056710
20
-2.2991197154
30
0.0000000000
10
13.1744250120
20
-2.2983525332
30
0.0000000000
10
13.1887976705
20
-2.2970646555
30
0.0000000000
10
13.2058446760
20
-2.2949837857
30
0.0000000000
10
13.2281348237
20
-2.2915178167
30
0.0000000000
10
13.2554233632
20
-2.2858654504
30
0.0000000000
10
13.2873065407
20
-2.2769202978
30
0.0000000000
10
13.3181796050
20
-2.2658426402
30
0.0000000000
10
13.3480389525
20
-2.2526323415
30
0.0000000000
10
13.3768828167
20
-2.2372915213
30
0.0000000000
10
13.4046858549
20
-2.2198302700
30
0.0000000000
10
13.4403295334
20
-2.1937925682
30
0.0000000000
10
13.4817131415
20
-2.1558918552
30
0.0000000000
10
13.5252900497
20
-2.1026749125
30
0.0000000000
10
13.5562155425
20
-2.0525348551
30
0.0000000000
10
13.5780203336
20
-2.0089166718
30
0.0000000000
10
13.5905178727
20
-1.9799048449
30
0.0000000000
10
13.5998170748
20
-1.9557480589
30
0.0000000000
10
13.6088345844
20
-1.9302879080
30
0.0000000000
10
13.6190931180
20
-1.8967041091
30
0.0000000000
10
13.6297659261
20
-1.8541565967
30
0.0000000000
10
13.6389499832
20
-1.8088270655
30
0.0000000000
10
13.6466504159
20
-1.7607166654
30
0.0000000000
10
13.6528669161
20
-1.7098232401
30
0.0000000000
10
13.6576002165
20
-1.6561460324
30
0.0000000000
10
13.6602765431
20
-1.6096578529
30
0.0000000000
10
13.6615177906
20
-1.5761080485
30
0.0000000000
10
13.6620531354
20
-1.5563634038
30
0.0000000000
10
13.6623641679
20
-1.5412949096
30
0.0000000000
10
13.6625823995
20
-1.5260520477
30
0.0000000000
10
13.6626866238
20
-1.5132405512
30
0.0000000000
10
13.6627192907
20
-1.5042090454
30
0.0000000000
10
13.6627255332
20
-1.4996683972
30
0.0000000000
10
13.6627262415
20
-1.4970929458
30
0.0000000000
10
13.6627249905
20
-1.4945694106
30
0.0000000000
10
13.6627197780
20
-1.4914489908
30
0.0000000000
10
13.6627036717
20
-1.4864765365
30
0.0000000000
10
13.6626689917
20
-1.4802912894
30
0.0000000000
10
13.6626039249
20
-1.4729054368
30
0.0000000000
10
13.6624863759
20
-1.4631545173
30
0.0000000000
10
13.6622815721
20
-1.4510870231
30
0.0000000000
10
13.6619414673
20
-1.4367520405
30
0.0000000000
10
13.6613671620
20
-1.4180248425
30
0.0000000000
10
13.6604206092
20
-1.3950989233
30
0.0000000000
10
13.6584247653
20
-1.3596989184
30
0.0000000000
10
13.6550403008
20
-1.3173638412
30
0.0000000000
10
13.6511415722
20
-1.2837526612
30
0.0000000000
10
13.6488828793
20
-1.2672956142
30
0.0000000000
10
13.6488334919
20
-1.2669369930
30
0.0000000000
11
12.7093185241
21
-1.9287330401
31
0.0000000000
11
12.7233510004
21
-2.0021611464
31
0.0000000000
11
12.7458534008
21
-2.0680242634
31
0.0000000000
11
12.7768256992
21
-2.1263221850
31
0.0000000000
11
12.7954880602
21
-2.1526341975
31
0.0000000000
11
12.8162678956
21
-2.1770549112
31
0.0000000000
11
12.8274518663
21
-2.1885560310
31
0.0000000000
11
12.8391652056
21
-2.1995843260
31
0.0000000000
11
12.8513707084
21
-2.2101117432
31
0.0000000000
11
12.8639656885
21
-2.2200608557
31
0.0000000000
11
12.8903062224
21
-2.2382107010
31
0.0000000000
11
12.9181808545
21
-2.2540293735
31
0.0000000000
11
12.9475895847
21
-2.2675168733
31
0.0000000000
11
12.9785324131
21
-2.2786732002
31
0.0000000000
11
13.0110093396
21
-2.2874983544
31
0.0000000000
11
13.0278230897
21
-2.2910367417
31
0.0000000000
11
13.0450203643
21
-2.2939923357
31
0.0000000000
11
13.0626011635
21
-2.2963651366
31
0.0000000000
11
13.0805654872
21
-2.2981551443
31
0.0000000000
11
13.0989133354
21
-2.2993623588
31
0.0000000000
11
13.1082310812
21
-2.2997474186
31
0.0000000000
11
13.1129259096
21
-2.2998853116
31
0.0000000000
11
13.1176447082
21
-2.2999867801
31
0.0000000000
11
13.1223874771
21
-2.3000518240
31
0.0000000000
11
13.1247678504
21
-2.3000706867
31
0.0000000000
11
13.1271542163
21
-2.3000804433
31
0.0000000000
11
13.1283496464
21
-2.3000819067
31
0.0000000000
11
13.1294860697
21
-2.3000811692
31
0.0000000000
11
13.1317361428
21
-2.3000734773
31
0.0000000000
11
13.1362244486
21
-2.3000332428
31
0.0000000000
11
13.1451536985
21
-2.2998533709
31
0.0000000000
11
13.1540197995
21
-2.2995409618
31
0.0000000000
11
13.1628227515
21
-2.2990960154
31
0.0000000000
11
13.1715625546
21
-2.2985185319
31
0.0000000000
11
13.1888527140
21
-2.2969659531
31
0.0000000000
11
13.2058902776
21
-2.2948832256
31
0.0000000000
11
13.2226752455
21
-2.2922703491
31
0.0000000000
11
13.2554873941
21
-2.2854541498
31
0.0000000000
11
13.2872891596
21
-2.2765173551
31
0.0000000000
11
13.3180805422
21
-2.2654599650
31
0.0000000000
11
13.3478615419
21
-2.2522819796
31
0.0000000000
11
13.3766321585
21
-2.2369833988
31
0.0000000000
11
13.4043923922
21
-2.2195642227
31
0.0000000000
11
13.4310706816
21
-2.2000543111
31
0.0000000000
11
13.4801616779
21
-2.1551877839
31
0.0000000000
11
13.5234578891
21
-2.1025704411
31
0.0000000000
11
13.5609593150
21
-2.0422022829
31
0.0000000000
11
13.5775369836
21
-2.0091116480
31
0.0000000000
11
13.5926659558
21
-1.9740833092
31
0.0000000000
11
13.5996871808
21
-1.9558425009
31
0.0000000000
11
13.6063429012
21
-1.9370389803
31
0.0000000000
11
13.6185408053
21
-1.8973436727
31
0.0000000000
11
13.6292537472
21
-1.8548582109
31
0.0000000000
11
13.6384817269
21
-1.8095825948
31
0.0000000000
11
13.6462247443
21
-1.7615168245
31
0.0000000000
11
13.6524827994
21
-1.7106608999
31
0.0000000000
11
13.6572558923
21
-1.6570148211
31
0.0000000000
11
13.6605440230
21
-1.6005785881
31
0.0000000000
11
13.6616312275
21
-1.5713141637
31
0.0000000000
11
13.6620356145
21
-1.5564203746
31
0.0000000000
11
13.6623471914
21
-1.5413522008
31
0.0000000000
11
13.6625659582
21
-1.5261096424
31
0.0000000000
11
13.6626919148
21
-1.5106926993
31
0.0000000000
11
13.6627200893
21
-1.5029188336
31
0.0000000000
11
13.6627254756
21
-1.4990155521
31
0.0000000000
11
13.6627259934
21
-1.4970708019
31
0.0000000000
11
13.6627250538
21
-1.4951924838
31
0.0000000000
11
13.6627187899
21
-1.4914449518
31
0.0000000000
11
13.6627066797
21
-1.4877095588
31
0.0000000000
11
13.6626649201
21
-1.4802751897
31
0.0000000000
11
13.6625997753
21
-1.4728893766
31
0.0000000000
11
13.6625112451
21
-1.4655521194
31
0.0000000000
11
13.6622640287
21
-1.4510232728
31
0.0000000000
11
13.6619232711
21
-1.4366886501
31
0.0000000000
11
13.6614889721
21
-1.4225482510
31
0.0000000000
11
13.6603397501
21
-1.3948501242
31
0.0000000000
11
13.6588163628
21
-1.3679288924
31
0.0000000000
11
13.6546470924
21
-1.3164171139
31
0.0000000000
11
13.6489811608
21
-1.2680129154
31
0.0000000000
11
13.6488334919
21
-1.2669369930
31
0.0000000000
0
SPLINE
5
2B4
100
AcDbEntity
8
0
100
AcDbSpline
62
0
6
CONTINUOUS
70
0
71
3
72
113
73
109
74
107
42
0.0000001000
43
0.0000001000
44
0.0000000001
12
0.0483106087
22
-1.1322622037
32
0.0000000000
13
-0.2014647225
23
1.1152414453
33
0.0000000000
40
0.0000000000
40
0.0000000000
40
0.0000000000
40
0.0000000000
40
0.0045939055
40
0.0089290648
40
0.0130055113
40
0.0168232848
40
0.0203824342
40
0.0220650442
40
0.0236830220
40
0.0252363776
40
0.0267251221
40
0.0274452694
40
0.0281492690
40
0.0288371226
40
0.0295088323
40
0.0301644004
40
0.0304861320
40
0.0308038291
40
0.0311174921
40
0.0314271211
40
0.0315804230
40
0.0317327166
40
0.0318840019
40
0.0321090394
40
0.0322578042
40
0.0323733252
40
0.0324968728
40
0.0326689135
40
0.0330129800
40
0.0333570266
40
0.0340450603
40
0.0347330152
40
0.0361086901
40
0.0374840554
40
0.0402338706
40
0.0429824919
40
0.0457299491
40
0.0484762723
40
0.0512214917
40
0.0567087319
40
0.0621919187
40
0.0731470398
40
0.0840888575
40
0.0950193207
40
0.1059403848
40
0.1168540099
40
0.1386663107
40
0.1604724578
40
0.1822882084
40
0.2041292991
40
0.2260114117
40
0.2369517154
40
0.2477142021
40
0.2582625451
40
0.2685982966
40
0.2886382772
40
0.3078490475
40
0.3262470723
40
0.3438510972
40
0.3606825206
40
0.3767658251
40
0.3921290705
40
0.4068815572
40
0.4214105116
40
0.4357958511
40
0.4642774053
40
0.4926453001
40
0.5212130288
40
0.5356541011
40
0.5500976903
40
0.5645694432
40
0.5791281571
40
0.6087220390
40
0.6238808850
40
0.6315726684
40
0.6393470531
40
0.6472099703
40
0.6511765153
40
0.6551673261
40
0.6591830880
40
0.6612005466
40
0.6632244940
40
0.6652550124
40
0.6662727624
40
0.6667945557
40
0.6673898572
40
0.6685782649
40
0.6697637612
40
0.6721260877
40
0.6744769874
40
0.6768166090
40
0.6814625843
40
0.6860652829
40
0.6906259718
40
0.6996262261
40
0.7084745128
40
0.7171822441
40
0.7257613933
40
0.7425812196
40
0.7590432872
40
0.7752608613
40
0.8074085832
40
0.8154899502
40
0.8236163255
40
0.8401225990
40
0.8747209431
40
0.9123845408
40
1.0000000000
40
1.0000000000
40
1.0000000000
40
1.0000000000
10
13.4791376912
20
-1.5714657885
30
0.0000000000
10
13.4792116694
20
-1.5731996237
30
0.0000000000
10
13.4793516570
20
-1.5765698019
30
0.0000000000
10
13.4795428090
20
-1.5814791034
30
0.0000000000
10
13.4797090570
20
-1.5860959396
30
0.0000000000
10
13.4798504077
20
-1.5904203106
30
0.0000000000
10
13.4799492381
20
-1.5938412607
30
0.0000000000
10
13.4800153715
20
-1.5964317813
30
0.0000000000
10
13.4800578007
20
-1.5982649380
30
0.0000000000
10
13.4800939987
20
-1.6000249780
30
0.0000000000
10
13.4801192429
20
-1.6014459982
30
0.0000000000
10
13.4801362379
20
-1.6025462532
30
0.0000000000
10
13.4801472833
20
-1.6033440151
30
0.0000000000
10
13.4801567696
20
-1.6041234978
30
0.0000000000
10
13.4801646967
20
-1.6048847013
30
0.0000000000
10
13.4801700362
20
-1.6055076154
30
0.0000000000
10
13.4801735149
20
-1.6059968065
30
0.0000000000
10
13.4801757177
20
-1.6063568436
30
0.0000000000
10
13.4801775306
20
-1.6067123110
30
0.0000000000
10
13.4801787203
20
-1.6070056779
30
0.0000000000
10
13.4801794753
20
-1.6072380865
30
0.0000000000
10
13.4801799421
20
-1.6074106790
30
0.0000000000
10
13.4801803725
20
-1.6076103709
30
0.0000000000
10
13.4801806610
20
-1.6078087300
30
0.0000000000
10
13.4801808007
20
-1.6079935787
30
0.0000000000
10
13.4801808296
20
-1.6081400882
30
0.0000000000
10
13.4801808130
20
-1.6082953906
30
0.0000000000
10
13.4801807550
20
-1.6085370292
30
0.0000000000
10
13.4801805721
20
-1.6088619644
30
0.0000000000
10
13.4801800678
20
-1.6093818231
30
0.0000000000
10
13.4801790351
20
-1.6100315899
30
0.0000000000
10
13.4801765269
20
-1.6110710668
30
0.0000000000
10
13.4801717855
20
-1.6123701878
30
0.0000000000
10
13.4801607738
20
-1.6144481852
30
0.0000000000
10
13.4801405868
20
-1.6170447876
30
0.0000000000
10
13.4801060805
20
-1.6201596048
30
0.0000000000
10
13.4800612950
20
-1.6232729720
30
0.0000000000
10
13.4800062304
20
-1.6263848895
30
0.0000000000
10
13.4799191223
20
-1.6305313708
30
0.0000000000
10
13.4797845515
20
-1.6357109457
30
0.0000000000
10
13.4795144661
20
-1.6439892748
30
0.0000000000
10
13.4790741343
20
-1.6543234609
30
0.0000000000
10
13.4783810628
20
-1.6667054543
30
0.0000000000
10
13.4775234974
20
-1.6790642534
30
0.0000000000
10
13.4765014333
20
-1.6913998716
30
0.0000000000
10
13.4749197412
20
-1.7078125041
30
0.0000000000
10
13.4725309053
20
-1.7282765157
30
0.0000000000
10
13.4690053311
20
-1.7527454224
30
0.0000000000
10
13.4648215477
20
-1.7771215807
30
0.0000000000
10
13.4599789639
20
-1.8014045538
30
0.0000000000
10
13.4554009703
20
-1.8215434108
30
0.0000000000
10
13.4514280634
20
-1.8375220607
30
0.0000000000
10
13.4483551590
20
-1.8493117626
30
0.0000000000
10
13.4452022510
20
-1.8608437783
30
0.0000000000
10
13.4409409747
20
-1.8757048597
30
0.0000000000
10
13.4354338383
20
-1.8936115545
30
0.0000000000
10
13.4284513552
20
-1.9142426651
30
0.0000000000
10
13.4211646767
20
-1.9337896271
30
0.0000000000
10
13.4135735970
20
-1.9522525781
30
0.0000000000
10
13.4056780248
20
-1.9696319303
30
0.0000000000
10
13.3974769181
20
-1.9859274642
30
0.0000000000
10
13.3889579317
20
-2.0011665063
30
0.0000000000
10
13.3800224677
20
-2.0154780002
30
0.0000000000
10
13.3705946205
20
-2.0290229929
30
0.0000000000
10
13.3573184829
20
-2.0461748702
30
0.0000000000
10
13.3392151771
20
-2.0661570122
30
0.0000000000
10
13.3151096887
20
-2.0876957810
30
0.0000000000
10
13.2931742246
20
-2.1034633760
30
0.0000000000
10
13.2746471895
20
-2.1147860664
30
0.0000000000
10
13.2601426488
20
-2.1224196754
30
0.0000000000
10
13.2451392766
20
-2.1291269519
30
0.0000000000
10
13.2243774829
20
-2.1368682332
30
0.0000000000
10
13.2026741942
20
-2.1426958920
30
0.0000000000
10
13.1831533518
20
-2.1461259169
30
0.0000000000
10
13.1716825202
20
-2.1476422270
30
0.0000000000
10
13.1629156967
20
-2.1485527496
30
0.0000000000
10
13.1555305646
20
-2.1491163792
30
0.0000000000
10
13.1495635323
20
-2.1494521607
30
0.0000000000
10
13.1450445711
20
-2.1496467312
30
0.0000000000
10
13.1412594432
20
-2.1497603465
30
0.0000000000
10
13.1382163490
20
-2.1498223681
30
0.0000000000
10
13.1359228023
20
-2.1498544549
30
0.0000000000
10
13.1340067434
20
-2.1498691008
30
0.0000000000
10
13.1326581060
20
-2.1498730280
30
0.0000000000
10
13.1318516380
20
-2.1498734738
30
0.0000000000
10
13.1309807020
20
-2.1498723954
30
0.0000000000
10
13.1298590491
20
-2.1498677378
30
0.0000000000
10
13.1280699255
20
-2.1498533384
30
0.0000000000
10
13.1258417908
20
-2.1498223265
30
0.0000000000
10
13.1231780838
20
-2.1497641733
30
0.0000000000
10
13.1196526269
20
-2.1496590266
30
0.0000000000
10
13.1152786174
20
-2.1494757174
30
0.0000000000
10
13.1100705571
20
-2.1491716300
30
0.0000000000
10
13.1032280499
20
-2.1486570241
30
0.0000000000
10
13.0948035474
20
-2.1478072470
30
0.0000000000
10
13.0848619138
20
-2.1464482940
30
0.0000000000
10
13.0751329135
20
-2.1447545397
30
0.0000000000
10
13.0625292977
20
-2.1420679062
30
0.0000000000
10
13.0472623295
20
-2.1378790222
30
0.0000000000
10
13.0296715153
20
-2.1314697833
30
0.0000000000
10
13.0074314175
20
-2.1211665155
30
0.0000000000
10
12.9892967076
20
-2.1096941833
30
0.0000000000
10
12.9750139175
20
-2.0983041535
30
0.0000000000
10
12.9656748967
20
-2.0902035294
30
0.0000000000
10
12.9498976803
20
-2.0742873342
30
0.0000000000
10
12.9299069466
20
-2.0471109344
30
0.0000000000
10
12.9025731579
20
-1.9930307923
30
0.0000000000
10
12.8904456623
20
-1.9466998084
30
0.0000000000
10
12.8845618542
20
-1.9141290113
30
0.0000000000
11
13.4791376912
21
-1.5714657885
31
0.0000000000
11
13.4793533974
21
-1.5766675561
31
0.0000000000
11
13.4795441457
21
-1.5815768548
31
0.0000000000
11
13.4797099364
21
-1.5861936846
31
0.0000000000
11
13.4798507693
21
-1.5905180456
31
0.0000000000
11
13.4799666445
21
-1.5945499377
31
0.0000000000
11
13.4800152229
21
-1.5964562080
31
0.0000000000
11
13.4800575620
21
-1.5982893610
31
0.0000000000
11
13.4800936615
21
-1.6000493968
31
0.0000000000
11
13.4801235217
21
-1.6017363154
31
0.0000000000
11
13.4801361120
21
-1.6025523558
31
0.0000000000
11
13.4801471424
21
-1.6033501168
31
0.0000000000
11
13.4801566130
21
-1.6041295985
31
0.0000000000
11
13.4801645237
21
-1.6048908010
31
0.0000000000
11
13.4801708745
21
-1.6056337241
31
0.0000000000
11
13.4801734650
21
-1.6059983309
31
0.0000000000
11
13.4801756655
21
-1.6063583679
31
0.0000000000
11
13.4801774761
21
-1.6067138351
31
0.0000000000
11
13.4801788966
21
-1.6070647325
31
0.0000000000
11
13.4801794607
21
-1.6072384674
31
0.0000000000
11
13.4801799273
21
-1.6074110600
31
0.0000000000
11
13.4801802963
21
-1.6075825101
31
0.0000000000
11
13.4801806672
21
-1.6078375431
31
0.0000000000
11
13.4801807925
21
-1.6080061370
31
0.0000000000
11
13.4801808226
21
-1.6081370561
31
0.0000000000
11
13.4801808123
21
-1.6082770717
31
0.0000000000
11
13.4801807636
21
-1.6084720441
31
0.0000000000
11
13.4801805456
21
-1.6088619719
31
0.0000000000
11
13.4801801670
21
-1.6092518771
31
0.0000000000
11
13.4801789280
21
-1.6100316195
31
0.0000000000
11
13.4801770466
21
-1.6108112712
31
0.0000000000
11
13.4801713564
21
-1.6123703028
31
0.0000000000
11
13.4801630964
21
-1.6139289719
31
0.0000000000
11
13.4801388672
21
-1.6170452224
31
0.0000000000
11
13.4801043589
21
-1.6201600227
31
0.0000000000
11
13.4800595716
21
-1.6232733729
31
0.0000000000
11
13.4800045051
21
-1.6263852729
31
0.0000000000
11
13.4799391596
21
-1.6294957228
31
0.0000000000
11
13.4797776314
21
-1.6357122721
31
0.0000000000
11
13.4795749869
21
-1.6419230208
31
0.0000000000
11
13.4790463492
21
-1.6543271164
31
0.0000000000
11
13.4783532463
21
-1.6667080096
31
0.0000000000
11
13.4774956784
21
-1.6790657004
31
0.0000000000
11
13.4764736454
21
-1.6914001888
31
0.0000000000
11
13.4752871473
21
-1.7037114747
31
0.0000000000
11
13.4724207558
21
-1.7282644394
31
0.0000000000
11
13.4688965040
21
-1.7527245944
31
0.0000000000
11
13.4647143919
21
-1.7770919397
31
0.0000000000
11
13.4598744195
21
-1.8013664753
31
0.0000000000
11
13.4543765867
21
-1.8255482013
31
0.0000000000
11
13.4513890932
21
-1.8375814571
31
0.0000000000
11
13.4483111214
21
-1.8493837439
31
0.0000000000
11
13.4451571077
21
-1.8609145219
31
0.0000000000
11
13.4419270522
21
-1.8721737913
31
0.0000000000
11
13.4352388156
21
-1.8938778037
31
0.0000000000
11
13.4282464116
21
-1.9144957811
31
0.0000000000
11
13.4209498402
21
-1.9340277236
31
0.0000000000
11
13.4133491013
21
-1.9524736312
31
0.0000000000
11
13.4054441951
21
-1.9698335038
31
0.0000000000
11
13.3972351214
21
-1.9861073414
31
0.0000000000
11
13.3887218803
21
-2.0012951441
31
0.0000000000
11
13.3798606053
21
-2.0154725479
31
0.0000000000
11
13.3704511557
21
-2.0289846425
31
0.0000000000
11
13.3604688564
21
-2.0418739732
31
0.0000000000
11
13.3387857092
21
-2.0657843429
31
0.0000000000
11
13.3148111637
21
-2.0872036570
31
0.0000000000
11
13.2885452198
21
-2.1061319155
31
0.0000000000
11
13.2745608882
21
-2.1146338577
31
0.0000000000
11
13.2600758183
21
-2.1222575493
31
0.0000000000
11
13.2451040806
21
-2.1289531394
31
0.0000000000
11
13.2296456751
21
-2.1347206279
31
0.0000000000
11
13.1972688607
21
-2.1434713000
31
0.0000000000
11
13.1803504518
21
-2.1464544837
31
0.0000000000
11
13.1717087470
21
-2.1475980374
31
0.0000000000
11
13.1629453752
21
-2.1485095658
31
0.0000000000
11
13.1540603364
21
-2.1491890687
31
0.0000000000
11
13.1495721919
21
-2.1494418107
31
0.0000000000
11
13.1450536307
21
-2.1496365463
31
0.0000000000
11
13.1405046528
21
-2.1497732755
31
0.0000000000
11
13.1382187575
21
-2.1498198878
31
0.0000000000
11
13.1359252581
21
-2.1498519984
31
0.0000000000
11
13.1336241545
21
-2.1498696075
31
0.0000000000
11
13.1324707511
21
-2.1498729739
31
0.0000000000
11
13.1318794068
21
-2.1498732936
31
0.0000000000
11
13.1312047566
21
-2.1498724541
31
0.0000000000
11
13.1298579549
21
-2.1498668577
31
0.0000000000
11
13.1285144845
21
-2.1498560380
31
0.0000000000
11
13.1258375379
21
-2.1498187286
31
0.0000000000
11
13.1231739170
21
-2.1497605260
31
0.0000000000
11
13.1205236217
21
-2.1496814301
31
0.0000000000
11
13.1152630080
21
-2.1494605585
31
0.0000000000
11
13.1100556968
21
-2.1491561139
31
0.0000000000
11
13.1049016881
21
-2.1487680963
31
0.0000000000
11
13.0947535782
21
-2.1477413421
31
0.0000000000
11
13.0848186782
21
-2.1463802957
31
0.0000000000
11
13.0750969883
21
-2.1446849573
31
0.0000000000
11
13.0655885083
21
-2.1426553268
31
0.0000000000
11
13.0472111783
21
-2.1375931895
31
0.0000000000
11
13.0296866883
21
-2.1311938839
31
0.0000000000
11
13.0130150382
21
-2.1234574100
31
0.0000000000
11
12.9822302579
21
-2.1039729571
31
0.0000000000
11
12.9750670878
21
-2.0982661137
31
0.0000000000
11
12.9681183691
21
-2.0922220018
31
0.0000000000
11
12.9549362927
21
-2.0789493407
31
0.0000000000
11
12.9314956573
21
-2.0475174490
31
0.0000000000
11
12.9119530453
21
-2.0095701313
31
0.0000000000
11
12.8845618542
21
-1.9141290113
31
0.0000000000
0
SPLINE
5
2B5
100
AcDbEntity
8
0
100
AcDbSpline
62
0
6
CONTINUOUS
70
0
71
3
72
118
73
114
74
112
42
0.0000001000
43
0.0000001000
44
0.0000000001
12
0.0103505744
22
1.1295096433
32
0.0000000000
13
0.2505484611
23
-1.1014193716
33
0.0000000000
40
0.0000000000
40
0.0000000000
40
0.0000000000
40
0.0000000000
40
0.1152207837
40
0.1664198174
40
0.2135010667
40
0.2566316981
40
0.2767852126
40
0.2960380599
40
0.3053390592
40
0.3144375868
40
0.3322806740
40
0.3497178990
40
0.3667714945
40
0.3998178978
40
0.4316346451
40
0.4624557769
40
0.4775768378
40
0.4850792429
40
0.4925483347
40
0.4999885319
40
0.5036992606
40
0.5074044461
40
0.5092551457
40
0.5111046717
40
0.5129530953
40
0.5148004877
40
0.5157238206
40
0.5161853999
40
0.5165663217
40
0.5169269771
40
0.5172875075
40
0.5180081965
40
0.5194481095
40
0.5208861157
40
0.5237566072
40
0.5266201124
40
0.5323277835
40
0.5380127219
40
0.5436784554
40
0.5493285474
40
0.5549665912
40
0.5662201055
40
0.5774689905
40
0.5887423724
40
0.6000691885
40
0.6114779694
40
0.6229966371
40
0.6288061056
40
0.6346531420
40
0.6405409884
40
0.6464728204
40
0.6524517434
40
0.6554598612
40
0.6584808825
40
0.6599963527
40
0.6615151861
40
0.6622758788
40
0.6630374293
40
0.6634371166
40
0.6639110244
40
0.6648577431
40
0.6667468321
40
0.6686302056
40
0.6705079584
40
0.6723801861
40
0.6761084290
40
0.6798157408
40
0.6871705632
40
0.6944513727
40
0.7016648918
40
0.7159160921
40
0.7299832051
40
0.7439258380
40
0.7578052020
40
0.7716833455
40
0.7856223330
40
0.7996834235
40
0.8067793973
40
0.8139280968
40
0.8211366239
40
0.8247656007
40
0.8284121160
40
0.8320770060
40
0.8357610943
40
0.8394651918
40
0.8413250062
40
0.8431901209
40
0.8441246980
40
0.8450606367
40
0.8455291206
40
0.8459979495
40
0.8462143558
40
0.8463583098
40
0.8466464531
40
0.8472236855
40
0.8478021870
40
0.8483819670
40
0.8489630346
40
0.8501290671
40
0.8513003595
40
0.8536589926
40
0.8584423344
40
0.8633175322
40
0.8682886588
40
0.8733595560
40
0.8838141012
40
0.8947085553
40
0.9060663003
40
0.9179079737
40
0.9302517864
40
0.9431138164
40
0.9704447888
40
1.0000000000
40
1.0000000000
40
1.0000000000
40
1.0000000000
10
11.6954102921
20
-1.5035980734
30
0.0000000000
10
11.6958078258
20
-1.4602170780
30
0.0000000000
10
11.6983105219
20
-1.3975154741
30
0.0000000000
10
11.7072098054
20
-1.3175925721
30
0.0000000000
10
11.7159689227
20
-1.2650442041
30
0.0000000000
10
11.7254263880
20
-1.2245400305
30
0.0000000000
10
11.7342676317
20
-1.1947395258
30
0.0000000000
10
11.7402280680
20
-1.1773888938
30
0.0000000000
10
11.7452989007
20
-1.1641484893
30
0.0000000000
10
11.7505045464
20
-1.1515333650
30
0.0000000000
10
11.7572610293
20
-1.1362473109
30
0.0000000000
10
11.7658531319
20
-1.1185095437
30
0.0000000000
10
11.7777687010
20
-1.0960400216
30
0.0000000000
10
11.7937557492
20
-1.0696224254
30
0.0000000000
10
11.8149181431
20
-1.0404138273
30
0.0000000000
10
11.8341629763
20
-1.0182901514
30
0.0000000000
10
11.8484182529
20
-1.0040774507
30
0.0000000000
10
11.8567261631
20
-0.9963715725
30
0.0000000000
10
11.8630507951
20
-0.9907840832
30
0.0000000000
10
11.8684172918
20
-0.9862715845
30
0.0000000000
10
11.8727643577
20
-0.9827512519
30
0.0000000000
10
11.8755027789
20
-0.9805890139
30
0.0000000000
10
11.8777070908
20
-0.9788815068
30
0.0000000000
10
11.8793665840
20
-0.9776123399
30
0.0000000000
10
11.8810330252
20
-0.9763543827
30
0.0000000000
10
11.8824272947
20
-0.9753147298
30
0.0000000000
10
11.8834069554
20
-0.9745926446
30
0.0000000000
10
11.8839421319
20
-0.9741981257
30
0.0000000000
10
11.8843093490
20
-0.9739328437
30
0.0000000000
10
11.8846462935
20
-0.9736906384
30
0.0000000000
10
11.8850875288
20
-0.9733743395
30
0.0000000000
10
11.8858603162
20
-0.9728230815
30
0.0000000000
10
11.8869669300
20
-0.9720412207
30
0.0000000000
10
11.8887421927
20
-0.9708030555
30
0.0000000000
10
11.8909711630
20
-0.9692785087
30
0.0000000000
10
11.8945565759
20
-0.9668901074
30
0.0000000000
10
11.8990784479
20
-0.9639967946
30
0.0000000000
10
11.9045733627
20
-0.9606701575
30
0.0000000000
10
11.9101309285
20
-0.9574927025
30
0.0000000000
10
11.9157511721
20
-0.9544644336
30
0.0000000000
10
11.9233229839
20
-0.9506283548
30
0.0000000000
10
11.9329544974
20
-0.9462008971
30
0.0000000000
10
11.9447699753
20
-0.9414829514
30
0.0000000000
10
11.9568363217
20
-0.9373630136
30
0.0000000000
10
11.9691531505
20
-0.9338412173
30
0.0000000000
10
11.9817200787
20
-0.9309175331
30
0.0000000000
10
11.9923707856
20
-0.9289849870
30
0.0000000000
10
12.0010075464
20
-0.9277363271
30
0.0000000000
10
12.0075665622
20
-0.9269462847
30
0.0000000000
10
12.0141880716
20
-0.9263054551
30
0.0000000000
10
12.0208721010
20
-0.9258138196
30
0.0000000000
10
12.0264826347
20
-0.9255290404
30
0.0000000000
10
12.0310013591
20
-0.9253753675
30
0.0000000000
10
12.0338413680
20
-0.9253102627
30
0.0000000000
10
12.0361210754
20
-0.9252767607
30
0.0000000000
10
12.0375499111
20
-0.9252635737
30
0.0000000000
10
12.0386949201
20
-0.9252576752
30
0.0000000000
10
12.0394185624
20
-0.9252559144
30
0.0000000000
10
12.0400342259
20
-0.9252556803
30
0.0000000000
10
12.0407196086
20
-0.9252565182
30
0.0000000000
10
12.0419657724
20
-0.9252613196
30
0.0000000000
10
12.0437425760
20
-0.9252775274
30
0.0000000000
10
12.0458697277
20
-0.9253119833
30
0.0000000000
10
12.0479902354
20
-0.9253614300
30
0.0000000000
10
12.0508046401
20
-0.9254472225
30
0.0000000000
10
12.0543063545
20
-0.9255917900
30
0.0000000000
10
12.0598666931
20
-0.9259025520
30
0.0000000000
10
12.0667533212
20
-0.9264399065
30
0.0000000000
10
12.0749333413
20
-0.9273265531
30
0.0000000000
10
12.0856540823
20
-0.9288225895
30
0.0000000000
10
12.0988129481
20
-0.9312897518
30
0.0000000000
10
12.1142418562
20
-0.9352259800
30
0.0000000000
10
12.1292456271
20
-0.9401262048
30
0.0000000000
10
12.1438229388
20
-0.9459903635
30
0.0000000000
10
12.1579730685
20
-0.9528182756
30
0.0000000000
10
12.1716948736
20
-0.9606091919
30
0.0000000000
10
12.1827397409
20
-0.9678823237
30
0.0000000000
10
12.1913491950
20
-0.9741667662
30
0.0000000000
10
12.1977200214
20
-0.9791348176
30
0.0000000000
10
12.2029283929
20
-0.9834650123
30
0.0000000000
10
12.2070407606
20
-0.9870470620
30
0.0000000000
10
12.2101054958
20
-0.9897997112
30
0.0000000000
10
12.2131436223
20
-0.9926123194
30
0.0000000000
10
12.2161551477
20
-0.9954848883
30
0.0000000000
10
12.2186391238
20
-0.9979252712
30
0.0000000000
10
12.2206129265
20
-0.9999072834
30
0.0000000000
10
12.2218418345
20
-1.0011593770
30
0.0000000000
10
12.2228216663
20
-1.0021684769
30
0.0000000000
10
12.2234328050
20
-1.0028025926
30
0.0000000000
10
12.2239210894
20
-1.0033115659
30
0.0000000000
10
12.2242207951
20
-1.0036260006
30
0.0000000000
10
12.2244368288
20
-1.0038514180
30
0.0000000000
10
12.2246015289
20
-1.0040316923
30
0.0000000000
10
12.2248587779
20
-1.0043114138
30
0.0000000000
10
12.2252248677
20
-1.0047133293
30
0.0000000000
10
12.2256632574
20
-1.0051979084
30
0.0000000000
10
12.2261005889
20
-1.0056853872
30
0.0000000000
10
12.2266830721
20
-1.0063398282
30
0.0000000000
10
12.2274087247
20
-1.0071649855
30
0.0000000000
10
12.2285658981
20
-1.0085018653
30
0.0000000000
10
12.2305866477
20
-1.0108924368
30
0.0000000000
10
12.2334276868
20
-1.0144149481
30
0.0000000000
10
12.2367584519
20
-1.0188031192
30
0.0000000000
10
12.2400265246
20
-1.0233719853
30
0.0000000000
10
12.2443440773
20
-1.0297695234
30
0.0000000000
10
12.2495801005
20
-1.0382330487
30
0.0000000000
10
12.2555489951
20
-1.0490093346
30
0.0000000000
10
12.2612666382
20
-1.0605070484
30
0.0000000000
10
12.2667331907
20
-1.0727260530
30
0.0000000000
10
12.2719490956
20
-1.0856665736
30
0.0000000000
10
12.2787065478
20
-1.1042612478
30
0.0000000000
10
12.2864721781
20
-1.1293657007
30
0.0000000000
10
12.2916902528
20
-1.1501491395
30
0.0000000000
10
12.2941585904
20
-1.1610000336
30
0.0000000000
11
11.6954102921
21
-1.5035980734
31
0.0000000000
11
11.7013987984
21
-1.3735874701
31
0.0000000000
11
11.7079217759
21
-1.3161242850
31
0.0000000000
11
11.7167972362
21
-1.2636891777
31
0.0000000000
11
11.7280251795
21
-1.2162821481
31
0.0000000000
11
11.7345213322
21
-1.1944641624
31
0.0000000000
11
11.7416056056
21
-1.1739031962
31
0.0000000000
11
11.7453682876
21
-1.1640940953
31
0.0000000000
11
11.7492749995
21
-1.1545882748
31
0.0000000000
11
11.7574305047
21
-1.1361572383
31
0.0000000000
11
11.7660241167
21
-1.1184344939
31
0.0000000000
11
11.7750558356
21
-1.1014200417
31
0.0000000000
11
11.7944335938
21
-1.0695160135
31
0.0000000000
11
11.8155637795
21
-1.0404451538
31
0.0000000000
11
11.8384463925
21
-1.0142074626
31
0.0000000000
11
11.8505448593
21
-1.0021510552
31
0.0000000000
11
11.8567583828
21
-0.9963884610
31
0.0000000000
11
11.8630814329
21
-0.9908029399
31
0.0000000000
11
11.8695140098
21
-0.9853944917
31
0.0000000000
11
11.8727713708
21
-0.9827566701
31
0.0000000000
11
11.8760561134
21
-0.9801631167
31
0.0000000000
11
11.8777087529
21
-0.9788829405
31
0.0000000000
11
11.8793682378
21
-0.9776138315
31
0.0000000000
11
11.8810345680
21
-0.9763557895
31
0.0000000000
11
11.8827077437
21
-0.9751088146
31
0.0000000000
11
11.8835468986
21
-0.9744894773
31
0.0000000000
11
11.8839671178
21
-0.9741808462
31
0.0000000000
11
11.8843156355
21
-0.9739285166
31
0.0000000000
11
11.8846463835
21
-0.9736906829
31
0.0000000000
11
11.8849773760
21
-0.9734534318
31
0.0000000000
11
11.8856400943
21
-0.9729806769
31
0.0000000000
11
11.8869684638
21
-0.9720421572
31
0.0000000000
11
11.8883007442
21
-0.9711129574
31
0.0000000000
11
11.8909770371
21
-0.9692825176
31
0.0000000000
11
11.8936689732
21
-0.9674893578
31
0.0000000000
11
11.8990997745
21
-0.9640148775
31
0.0000000000
11
11.9045931482
21
-0.9606895165
31
0.0000000000
11
11.9101490942
21
-0.9575132749
31
0.0000000000
11
11.9157676126
21
-0.9544861526
31
0.0000000000
11
11.9214487032
21
-0.9516081497
31
0.0000000000
11
11.9329986015
21
-0.9462995017
31
0.0000000000
11
11.9447987892
21
-0.9415873310
31
0.0000000000
11
11.9568492661
21
-0.9374716377
31
0.0000000000
11
11.9691500324
21
-0.9339524216
31
0.0000000000
11
11.9817010879
21
-0.9310296828
31
0.0000000000
11
11.9945024328
21
-0.9287034213
31
0.0000000000
11
12.0009969638
21
-0.9277639696
31
0.0000000000
11
12.0075540670
21
-0.9269736372
31
0.0000000000
11
12.0141737426
21
-0.9263324241
31
0.0000000000
11
12.0208559905
21
-0.9258403303
31
0.0000000000
11
12.0276008108
21
-0.9254973559
31
0.0000000000
11
12.0309966855
21
-0.9253817884
31
0.0000000000
11
12.0344082034
21
-0.9253035007
31
0.0000000000
11
12.0361198284
21
-0.9252783368
31
0.0000000000
11
12.0378353643
21
-0.9252624929
31
0.0000000000
11
12.0386945987
21
-0.9252580659
31
0.0000000000
11
12.0395548109
21
-0.9252559689
31
0.0000000000
11
12.0400062804
21
-0.9252558013
31
0.0000000000
11
12.0405415860
21
-0.9252564571
31
0.0000000000
11
12.0416109508
21
-0.9252605794
31
0.0000000000
11
12.0437446957
21
-0.9252800668
31
0.0000000000
11
12.0458717941
21
-0.9253145444
31
0.0000000000
11
12.0479922461
21
-0.9253640123
31
0.0000000000
11
12.0501060516
21
-0.9254284705
31
0.0000000000
11
12.0543137232
21
-0.9256023577
31
0.0000000000
11
12.0584948090
21
-0.9258362060
31
0.0000000000
11
12.0667772229
21
-0.9264837860
31
0.0000000000
11
12.0749532936
21
-0.9273712103
31
0.0000000000
11
12.0830230208
21
-0.9284984791
31
0.0000000000
11
12.0988434452
21
-0.9314725498
31
0.0000000000
11
12.1142384960
21
-0.9354059982
31
0.0000000000
11
12.1292081734
21
-0.9402988243
31
0.0000000000
11
12.1437524772
21
-0.9461510281
31
0.0000000000
11
12.1578714075
21
-0.9529626095
31
0.0000000000
11
12.1715649644
21
-0.9607335686
31
0.0000000000
11
12.1848331477
21
-0.9694639054
31
0.0000000000
11
12.1913077243
21
-0.9741888404
31
0.0000000000
11
12.1976759575
21
-0.9791536198
31
0.0000000000
11
12.2039378474
21
-0.9843582436
31
0.0000000000
11
12.2070289135
21
-0.9870504972
31
0.0000000000
11
12.2100933938
21
-0.9898027119
31
0.0000000000
11
12.2131312883
21
-0.9926148877
31
0.0000000000
11
12.2161425969
21
-0.9954870245
31
0.0000000000
11
12.2191273197
21
-0.9984191225
31
0.0000000000
11
12.2206097114
21
-0.9999076569
31
0.0000000000
11
12.2220854566
21
-1.0014111816
31
0.0000000000
11
12.2228208368
21
-1.0021685653
31
0.0000000000
11
12.2235545554
21
-1.0029296966
31
0.0000000000
11
12.2239207916
21
-1.0033116676
31
0.0000000000
11
12.2242866124
21
-1.0036945754
31
0.0000000000
11
12.2244548518
21
-1.0038719113
31
0.0000000000
11
12.2245649525
21
-1.0039915690
31
0.0000000000
11
12.2247849704
21
-1.0042314141
31
0.0000000000
11
12.2252242729
21
-1.0047132226
31
0.0000000000
11
12.2256625977
21
-1.0051978553
31
0.0000000000
11
12.2260999449
21
-1.0056853122
31
0.0000000000
11
12.2265363144
21
-1.0061755935
31
0.0000000000
11
12.2274061202
21
-1.0071646289
31
0.0000000000
11
12.2282720152
21
-1.0081649613
31
0.0000000000
11
12.2299920730
21
-1.0101995177
31
0.0000000000
11
12.2333852593
21
-1.0144041957
31
0.0000000000
11
12.2367158731
21
-1.0187896277
31
0.0000000000
11
12.2399839145
21
-1.0233558136
31
0.0000000000
11
12.2431893835
21
-1.0281027534
31
0.0000000000
11
12.2494126041
21
-1.0381388947
31
0.0000000000
11
12.2553855351
21
-1.0488980518
31
0.0000000000
11
12.2611081764
21
-1.0603802244
31
0.0000000000
11
12.2665805279
21
-1.0725854128
31
0.0000000000
11
12.2718025898
21
-1.0855136167
31
0.0000000000
11
12.2767743619
21
-1.0991648364
31
0.0000000000
11
12.2859670371
21
-1.1286363227
31
0.0000000000
11
12.2941585904
21
-1.1610000336
31
0.0000000000
0
SPLINE
5
2B6
100
AcDbEntity
8
0
100
AcDbSpline
62
0
6
CONTINUOUS
70
0
71
3
72
132
73
128
74
126
42
0.0000001000
43
0.0000001000
44
0.0000000001
12
-0.2496148691
22
1.9335140910
32
0.0000000000
13
0.2972817236
23
-1.9267955538
33
0.0000000000
40
0.0000000000
40
0.0000000000
40
0.0000000000
40
0.0000000000
40
0.0682840099
40
0.0999530470
40
0.1154721625
40
0.1309033809
40
0.1463468209
40
0.1541059409
40
0.1619009909
40
0.1696773637
40
0.1774248785
40
0.1928798981
40
0.2083690069
40
0.2239914224
40
0.2398438592
40
0.2560189065
40
0.2642561833
40
0.2726062806
40
0.2810791080
40
0.2896841509
40
0.2940392363
40
0.2984307343
40
0.3028597094
40
0.3073271992
40
0.3118342150
40
0.3141028690
40
0.3163817715
40
0.3175251050
40
0.3180977486
40
0.3186710457
40
0.3192449980
40
0.3195322206
40
0.3196758935
40
0.3198196076
40
0.3198914801
40
0.3199822248
40
0.3201749904
40
0.3205603340
40
0.3213302722
40
0.3220992154
40
0.3228671678
40
0.3244001153
40
0.3259291488
40
0.3274543016
40
0.3304930913
40
0.3335167641
40
0.3365255958
40
0.3395198661
40
0.3454657897
40
0.3513569255
40
0.3629838195
40
0.3744209930
40
0.3856893055
40
0.3968105667
40
0.4078074613
40
0.4187034509
40
0.4402834919
40
0.4617549870
40
0.4725161172
40
0.4833255002
40
0.4942078369
40
0.5051873361
40
0.5107212763
40
0.5162882838
40
0.5218911854
40
0.5275327536
40
0.5303689305
40
0.5332157876
40
0.5346433297
40
0.5360736654
40
0.5375068353
40
0.5382244964
40
0.5389428812
40
0.5393023467
40
0.5396619949
40
0.5404636526
40
0.5412906947
40
0.5421186004
40
0.5437770383
40
0.5454390452
40
0.5487740507
40
0.5521242379
40
0.5588723793
40
0.5656882690
40
0.5725764204
40
0.5795412059
40
0.5937164521
40
0.6082471947
40
0.6231632496
40
0.6384921843
40
0.6704826557
40
0.7044043701
40
0.7404076551
40
0.7592317482
40
0.7786215578
40
0.7985896395
40
0.8191474895
40
0.8403056426
40
0.8511130258
40
0.8565742769
40
0.8620740730
40
0.8676125483
40
0.8703963339
40
0.8731898383
40
0.8745902403
40
0.8759930781
40
0.8773983535
40
0.8781019060
40
0.8788060687
40
0.8791583789
40
0.8794820575
40
0.8801117886
40
0.8813695582
40
0.8838783329
40
0.8863781010
40
0.8888688771
40
0.8938235085
40
0.8987423503
40
0.9036255251
40
0.9132853437
40
0.9228040294
40
0.9321826628
40
0.9414223738
40
0.9594894929
40
0.9770157960
40
0.9940123695
40
1.0000000000
40
1.0000000000
40
1.0000000000
40
1.0000000000
10
12.4756606108
20
-1.1463960308
30
0.0000000000
10
12.4699790427
20
-1.1023866657
30
0.0000000000
10
12.4545697813
20
-1.0382397688
30
0.0000000000
10
12.4208621897
20
-0.9708841351
30
0.0000000000
10
12.3984172923
20
-0.9368905384
30
0.0000000000
10
12.3798169262
20
-0.9131217402
30
0.0000000000
10
12.3627767096
20
-0.8946436458
30
0.0000000000
10
12.3482533975
20
-0.8806785091
30
0.0000000000
10
12.3369143643
20
-0.8706078146
30
0.0000000000
10
12.3251933898
20
-0.8609961670
30
0.0000000000
10
12.3091258123
20
-0.8488595388
30
0.0000000000
10
12.2881618411
20
-0.8349232885
30
0.0000000000
10
12.2616653668
20
-0.8202395380
30
0.0000000000
10
12.2338480971
20
-0.8076059740
30
0.0000000000
10
12.2047154777
20
-0.7970235832
30
0.0000000000
10
12.1794954908
20
-0.7899556708
30
0.0000000000
10
12.1587132693
20
-0.7853141376
30
0.0000000000
10
12.1427017333
20
-0.7823210129
30
0.0000000000
10
12.1263619668
20
-0.7798375798
30
0.0000000000
10
12.1125276981
20
-0.7781992692
30
0.0000000000
10
12.1013011275
20
-0.7771405213
30
0.0000000000
10
12.0927648356
20
-0.7764705095
30
0.0000000000
10
12.0841463473
20
-0.7759277710
30
0.0000000000
10
12.0754456424
20
-0.7755123000
30
0.0000000000
10
12.0681428790
20
-0.7752726657
30
0.0000000000
10
12.0622600974
20
-0.7751441687
30
0.0000000000
10
12.0585622100
20
-0.7750902503
30
0.0000000000
10
12.0559662292
20
-0.7750663918
30
0.0000000000
10
12.0544785674
20
-0.7750567127
30
0.0000000000
10
12.0533609011
20
-0.7750514374
30
0.0000000000
10
12.0524287082
20
-0.7750486989
30
0.0000000000
10
12.0517757053
20
-0.7750476513
30
0.0000000000
10
12.0514022935
20
-0.7750473009
30
0.0000000000
10
12.0511688275
20
-0.7750471853
30
0.0000000000
10
12.0509697571
20
-0.7750471532
30
0.0000000000
10
12.0507388104
20
-0.7750471732
30
0.0000000000
10
12.0503041535
20
-0.7750473935
30
0.0000000000
10
12.0494281211
20
-0.7750485917
30
0.0000000000
10
12.0481776619
20
-0.7750524562
30
0.0000000000
10
12.0466785788
20
-0.7750605430
30
0.0000000000
10
12.0446836887
20
-0.7750759126
30
0.0000000000
10
12.0421949396
20
-0.7751037275
30
0.0000000000
10
12.0392143378
20
-0.7751509183
30
0.0000000000
10
12.0352556182
20
-0.7752321252
30
0.0000000000
10
12.0303265729
20
-0.7753679855
30
0.0000000000
10
12.0244355236
20
-0.7755863916
30
0.0000000000
10
12.0185757293
20
-0.7758599668
30
0.0000000000
10
12.0108228442
20
-0.7762972479
30
0.0000000000
10
12.0012082081
20
-0.7769808803
30
0.0000000000
10
11.9860222761
20
-0.7783654466
30
0.0000000000
10
11.9673380174
20
-0.7806420995
30
0.0000000000
10
11.9453172746
20
-0.7842703655
30
0.0000000000
10
11.9237957196
20
-0.7887830906
30
0.0000000000
10
11.9027739421
20
-0.7941803429
30
0.0000000000
10
11.8822516032
20
-0.8004626540
30
0.0000000000
10
11.8556450856
20
-0.8099861022
30
0.0000000000
10
11.8235073476
20
-0.8241371327
30
0.0000000000
10
11.7929686037
20
-0.8412958971
30
0.0000000000
10
11.7696350907
20
-0.8567370095
30
0.0000000000
10
11.7526205692
20
-0.8692123461
30
0.0000000000
10
11.7361088686
20
-0.8825713819
30
0.0000000000
10
11.7228023928
20
-0.8944094814
30
0.0000000000
10
11.7124147223
20
-0.9043099906
30
0.0000000000
10
11.7047281123
20
-0.9119761076
30
0.0000000000
10
11.6971667823
20
-0.9198628513
30
0.0000000000
10
11.6909811669
20
-0.9266068763
30
0.0000000000
10
11.6860957598
20
-0.9321108933
30
0.0000000000
10
11.6830657977
20
-0.9355997842
30
0.0000000000
10
11.6806575202
20
-0.9384182833
30
0.0000000000
10
11.6788573917
20
-0.9405479861
30
0.0000000000
10
11.6773645417
20
-0.9423333341
30
0.0000000000
10
11.6761741867
20
-0.9437684928
30
0.0000000000
10
11.6754316348
20
-0.9446685413
30
0.0000000000
10
11.6748386271
20
-0.9453903466
30
0.0000000000
10
11.6742120584
20
-0.9461546154
30
0.0000000000
10
11.6733967143
20
-0.9471570312
30
0.0000000000
10
11.6723933865
20
-0.9483987801
30
0.0000000000
10
11.6710459038
20
-0.9500782560
30
0.0000000000
10
11.6693695895
20
-0.9521895447
30
0.0000000000
10
11.6667032113
20
-0.9555949591
30
0.0000000000
10
11.6634024172
20
-0.9598997820
30
0.0000000000
10
11.6581835689
20
-0.9668979853
30
0.0000000000
10
11.6517886247
20
-0.9758396895
30
0.0000000000
10
11.6443398861
20
-0.9868488835
30
0.0000000000
10
11.6370979977
20
-0.9981628448
30
0.0000000000
10
11.6276631886
20
-1.0137448410
30
0.0000000000
10
11.6163890312
20
-1.0340103272
30
0.0000000000
10
11.6037687258
20
-1.0594044584
30
0.0000000000
10
11.5919773846
20
-1.0860160675
30
0.0000000000
10
11.5771506576
20
-1.1236548488
30
0.0000000000
10
11.5607705873
20
-1.1739022858
30
0.0000000000
10
11.5447112198
20
-1.2382028490
30
0.0000000000
10
11.5342497012
20
-1.2949565992
30
0.0000000000
10
11.5274569641
20
-1.3427103160
30
0.0000000000
10
11.5231138981
20
-1.3802742683
30
0.0000000000
10
11.5195973296
20
-1.4190552371
30
0.0000000000
10
11.5169072520
20
-1.4590538692
30
0.0000000000
10
11.5153652989
20
-1.4931542964
30
0.0000000000
10
11.5146421646
20
-1.5174658200
30
0.0000000000
10
11.5143282276
20
-1.5316086806
30
0.0000000000
10
11.5141436082
20
-1.5423294036
30
0.0000000000
10
11.5140330060
20
-1.5513110710
30
0.0000000000
10
11.5139702199
20
-1.5585344206
30
0.0000000000
10
11.5139416986
20
-1.5630688123
30
0.0000000000
10
11.5139253228
20
-1.5667058389
30
0.0000000000
10
11.5139162593
20
-1.5694407422
30
0.0000000000
10
11.5139113995
20
-1.5717228052
30
0.0000000000
10
11.5139091239
20
-1.5735508351
30
0.0000000000
10
11.5139083745
20
-1.5746945932
30
0.0000000000
10
11.5139081810
20
-1.5755914892
30
0.0000000000
10
11.5139082414
20
-1.5764400157
30
0.0000000000
10
11.5139089982
20
-1.5778769578
30
0.0000000000
10
11.5139130445
20
-1.5807338897
30
0.0000000000
10
11.5139261015
20
-1.5848060569
30
0.0000000000
10
11.5139534471
20
-1.5896794424
30
0.0000000000
10
11.5140053675
20
-1.5961421445
30
0.0000000000
10
11.5140992697
20
-1.6041765789
30
0.0000000000
10
11.5142588135
20
-1.6137649495
30
0.0000000000
10
11.5145327501
20
-1.6264093637
30
0.0000000000
10
11.5149905026
20
-1.6420395282
30
0.0000000000
10
11.5157284443
20
-1.6605831383
30
0.0000000000
10
11.5166529985
20
-1.6788450855
30
0.0000000000
10
11.5181235638
20
-1.7026402452
30
0.0000000000
10
11.5204172080
20
-1.7316877404
30
0.0000000000
10
11.5239369619
20
-1.7656852346
30
0.0000000000
10
11.5273255719
20
-1.7917955711
30
0.0000000000
10
11.5295278675
20
-1.8065690549
30
0.0000000000
10
11.5301212052
20
-1.8104147015
30
0.0000000000
11
12.4756606108
21
-1.1463960308
31
0.0000000000
11
12.4424993270
21
-1.0174686541
31
0.0000000000
11
12.4147339876
21
-0.9623234065
31
0.0000000000
11
12.3980551472
21
-0.9370804209
31
0.0000000000
11
12.3795121929
21
-0.9133905275
31
0.0000000000
11
12.3591051248
21
-0.8912537263
31
0.0000000000
11
12.3482025480
21
-0.8807677353
31
0.0000000000
11
12.3368404289
21
-0.8706757313
31
0.0000000000
11
12.3251164635
21
-0.8610637829
31
0.0000000000
11
12.3130634875
21
-0.8519608175
31
0.0000000000
11
12.2879705037
21
-0.8352818356
31
0.0000000000
11
12.2615614774
21
-0.8206387859
31
0.0000000000
11
12.2338364087
21
-0.8080316681
31
0.0000000000
11
12.2047952976
21
-0.7974604825
31
0.0000000000
11
12.1744381441
21
-0.7889252289
31
0.0000000000
11
12.1587660514
21
-0.7854210766
31
0.0000000000
11
12.1427649482
21
-0.7824259073
31
0.0000000000
11
12.1264348343
21
-0.7799397210
31
0.0000000000
11
12.1097757098
21
-0.7779625178
31
0.0000000000
11
12.1013227686
21
-0.7771647848
31
0.0000000000
11
12.0927875747
21
-0.7764942976
31
0.0000000000
11
12.0841701282
21
-0.7759510561
31
0.0000000000
11
12.0754704290
21
-0.7755350603
31
0.0000000000
11
12.0666884772
21
-0.7752463104
31
0.0000000000
11
12.0622666565
21
-0.7751496525
31
0.0000000000
11
12.0578242727
21
-0.7750848061
31
0.0000000000
11
12.0555953696
21
-0.7750643122
31
0.0000000000
11
12.0544789902
21
-0.7750570476
31
0.0000000000
11
12.0533613257
21
-0.7750517712
31
0.0000000000
11
12.0522423760
21
-0.7750484830
31
0.0000000000
11
12.0516824191
21
-0.7750475845
31
0.0000000000
11
12.0514023202
21
-0.7750473216
31
0.0000000000
11
12.0511221410
21
-0.7750471830
31
0.0000000000
11
12.0509820213
21
-0.7750471603
31
0.0000000000
11
12.0508051090
21
-0.7750471754
31
0.0000000000
11
12.0504293010
21
-0.7750473660
31
0.0000000000
11
12.0496780513
21
-0.7750483937
31
0.0000000000
11
12.0481770178
21
-0.7750530350
31
0.0000000000
11
12.0466779387
21
-0.7750611240
31
0.0000000000
11
12.0451808139
21
-0.7750726607
31
0.0000000000
11
12.0421924276
21
-0.7751060776
31
0.0000000000
11
12.0392118589
21
-0.7751532855
31
0.0000000000
11
12.0362391078
21
-0.7752142846
31
0.0000000000
11
12.0303170582
21
-0.7753776559
31
0.0000000000
11
12.0244262790
21
-0.7755961915
31
0.0000000000
11
12.0185667700
21
-0.7758698915
31
0.0000000000
11
12.0127385314
21
-0.7761987558
31
0.0000000000
11
12.0011758649
21
-0.7770219775
31
0.0000000000
11
11.9897382797
21
-0.7780658565
31
0.0000000000
11
11.9672383529
21
-0.7808155865
31
0.0000000000
11
11.9452387508
21
-0.7844479460
31
0.0000000000
11
11.9237394735
21
-0.7889629348
31
0.0000000000
11
11.9027405211
21
-0.7943605531
31
0.0000000000
11
11.8822418934
21
-0.8006408007
31
0.0000000000
11
11.8622435905
21
-0.8078036778
31
0.0000000000
11
11.8237479590
21
-0.8247773201
31
0.0000000000
11
11.7872536267
21
-0.8452814800
31
0.0000000000
11
11.7697569477
21
-0.8568575041
31
0.0000000000
11
11.7527605936
21
-0.8693161575
31
0.0000000000
11
11.7362645642
21
-0.8826574404
31
0.0000000000
11
11.7202688596
21
-0.8968813526
31
0.0000000000
11
11.7124586291
21
-0.9043242948
31
0.0000000000
11
11.7047734797
21
-0.9119878943
31
0.0000000000
11
11.6972134116
21
-0.9198721511
31
0.0000000000
11
11.6897784247
21
-0.9279770653
31
0.0000000000
11
11.6861078367
21
-0.9321122689
31
0.0000000000
11
11.6824685190
21
-0.9363026369
31
0.0000000000
11
11.6806605865
21
-0.9384185075
31
0.0000000000
11
11.6788604716
21
-0.9405481692
31
0.0000000000
11
11.6770681742
21
-0.9426916219
31
0.0000000000
11
11.6761749572
21
-0.9437685200
31
0.0000000000
11
11.6752836945
21
-0.9448488658
31
0.0000000000
11
11.6748387960
21
-0.9453903316
31
0.0000000000
11
11.6743943862
21
-0.9459326594
31
0.0000000000
11
11.6734077709
21
-0.9471447579
31
0.0000000000
11
11.6723944592
21
-0.9483989233
31
0.0000000000
11
11.6713843765
21
-0.9496578499
31
0.0000000000
11
11.6693738985
21
-0.9521899867
31
0.0000000000
11
11.6673763369
21
-0.9547411683
31
0.0000000000
11
11.6634199626
21
-0.9599006661
31
0.0000000000
11
11.6595152536
21
-0.9651363432
31
0.0000000000
11
11.6518608318
21
-0.9758362355
31
0.0000000000
11
11.6444130714
21
-0.9868408451
31
0.0000000000
11
11.6371719724
21
-0.9981501721
31
0.0000000000
11
11.6301375349
21
-1.0097642164
31
0.0000000000
11
11.6166886443
21
-1.0339064572
31
0.0000000000
11
11.6040663993
21
-1.0592675674
31
0.0000000000
11
11.5922708002
21
-1.0858475470
31
0.0000000000
11
11.5813018468
21
-1.1136463961
31
0.0000000000
11
11.5618438773
21
-1.1729007025
31
0.0000000000
11
11.5456924909
21
-1.2370304867
31
0.0000000000
11
11.5328476875
21
-1.3060357486
31
0.0000000000
11
11.5276652544
21
-1.3423666837
31
0.0000000000
11
11.5233094671
21
-1.3799164883
31
0.0000000000
11
11.5197803256
21
-1.4186851623
31
0.0000000000
11
11.5170778298
21
-1.4586727057
31
0.0000000000
11
11.5152019798
21
-1.4998791186
31
0.0000000000
11
11.5145740470
21
-1.5209394011
31
0.0000000000
11
11.5143375786
21
-1.5315838113
31
0.0000000000
11
11.5141527756
21
-1.5423044009
31
0.0000000000
11
11.5140196379
21
-1.5531011699
31
0.0000000000
11
11.5139724436
21
-1.5585281216
31
0.0000000000
11
11.5139381656
21
-1.5639741181
31
0.0000000000
11
11.5139258703
21
-1.5667042582
31
0.0000000000
11
11.5139168040
21
-1.5694391595
31
0.0000000000
11
11.5139109668
21
-1.5721788220
31
0.0000000000
11
11.5139092591
21
-1.5735504387
31
0.0000000000
11
11.5139083587
21
-1.5749232457
31
0.0000000000
11
11.5139082112
21
-1.5756100956
31
0.0000000000
11
11.5139082598
21
-1.5762411264
31
0.0000000000
11
11.5139089047
21
-1.5774688248
31
0.0000000000
11
11.5139123816
21
-1.5799209196
31
0.0000000000
11
11.5139280840
21
-1.5848119012
31
0.0000000000
11
11.5139554511
21
-1.5896852722
31
0.0000000000
11
11.5139944827
21
-1.5945410327
31
0.0000000000
11
11.5141075399
21
-1.6041997220
31
0.0000000000
11
11.5142672557
21
-1.6137879690
31
0.0000000000
11
11.5144736300
21
-1.6233057738
31
0.0000000000
11
11.5150263542
21
-1.6421300568
31
0.0000000000
11
11.5157657125
21
-1.6606725707
31
0.0000000000
11
11.5166917049
21
-1.6789333158
31
0.0000000000
11
11.5178043315
21
-1.6969122918
31
0.0000000000
11
11.5205894871
21
-1.7320249371
31
0.0000000000
11
11.5241211792
21
-1.7660105067
31
0.0000000000
11
11.5283994079
21
-1.7988690004
31
0.0000000000
11
11.5301212052
21
-1.8104147015
31
0.0000000000
0
SPLINE
5
2B7
100
AcDbEntity
8
0
100
AcDbSpline
62
0
6
CONTINUOUS
70
0
71
3
72
21
73
17
74
15
42
0.0000001000
43
0.0000001000
44
0.0000000001
12
-0.2581994337
22
-0.5213141025
32
0.0000000000
13
-0.5265113130
23
-0.2474291431
33
0.0000000000
40
0.0000000000
40
0.0000000000
40
0.0000000000
40
0.0000000000
40
0.0718616894
40
0.1486225725
40
0.2308041467
40
0.3188313649
40
0.3651524488
40
0.4130589014
40
0.4376177022
40
0.4625084169
40
0.5125368538
40
0.5628808008
40
0.6135821391
40
0.7162101598
40
0.8560571476
40
1.0000000000
40
1.0000000000
40
1.0000000000
40
1.0000000000
10
10.9324366339
20
-0.7750469957
30
0.0000000000
10
10.9262517514
20
-0.7875344998
30
0.0000000000
10
10.9121241339
20
-0.8127131115
30
0.0000000000
10
10.8868585376
20
-0.8497129148
30
0.0000000000
10
10.8568781847
20
-0.8871126329
30
0.0000000000
10
10.8284698712
20
-0.9180712589
30
0.0000000000
10
10.8034766958
20
-0.9430643217
30
0.0000000000
10
10.7867477748
20
-0.9589037132
30
0.0000000000
10
10.7727950971
20
-0.9716219140
30
0.0000000000
10
10.7583775853
20
-0.9844390771
30
0.0000000000
10
10.7398628063
20
-1.0001688610
30
0.0000000000
10
10.7169945458
20
-1.0184861942
30
0.0000000000
10
10.6854691678
20
-1.0422861129
30
0.0000000000
10
10.6386550894
20
-1.0745987315
30
0.0000000000
10
10.5743393074
20
-1.1131710819
30
0.0000000000
10
10.5252625134
20
-1.1381752660
30
0.0000000000
10
10.5000000000
20
-1.1500471515
30
0.0000000000
11
10.9324366339
21
-0.7750469957
31
0.0000000000
11
10.9120891172
21
-0.8115667619
31
0.0000000000
11
10.8870098446
21
-0.8485149695
31
0.0000000000
11
10.8571987351
21
-0.8858917824
31
0.0000000000
11
10.8226557887
21
-0.9236972006
31
0.0000000000
11
10.8036098766
21
-0.9427606367
31
0.0000000000
11
10.7833810052
21
-0.9619312240
31
0.0000000000
11
10.7728229599
21
-0.9715566995
31
0.0000000000
11
10.7619970606
21
-0.9811731820
31
0.0000000000
11
10.7398205605
21
-1.0000213619
31
0.0000000000
11
10.7169630488
21
-1.0183326408
31
0.0000000000
11
10.6934245255
21
-1.0361070187
31
0.0000000000
11
10.6443044441
21
-1.0700450720
31
0.0000000000
11
10.5745735966
21
-1.1119550928
31
0.0000000000
11
10.5000000000
21
-1.1500471515
31
0.0000000000
0
SPLINE
5
2B8
100
AcDbEntity
8
0
100
AcDbSpline
62
0
6
CONTINUOUS
70
0
71
3
72
23
73
19
74
17
42
0.0000001000
43
0.0000001000
44
0.0000000001
12
0.4043100911
22
0.1490778252
32
0.0000000000
13
0.3119786391
23
0.2972543943
33
0.0000000000
40
0.0000000000
40
0.0000000000
40
0.0000000000
40
0.0000000000
40
0.0820461119
40
0.1693809725
40
0.2621276467
40
0.3603888679
40
0.4116161596
40
0.4377580691
40
0.4642535597
40
0.4911037042
40
0.5181497154
40
0.5712367048
40
0.6228897412
40
0.6731243975
40
0.7219576033
40
0.7694077886
40
0.8893228344
40
1.0000000000
40
1.0000000000
40
1.0000000000
40
1.0000000000
10
10.5000000000
20
-1.3273441781
30
0.0000000000
10
10.5110573570
20
-1.3232670928
30
0.0000000000
10
10.5336909481
20
-1.3143179881
30
0.0000000000
10
10.5681355625
20
-1.2990916496
30
0.0000000000
10
10.6041194504
20
-1.2816494182
30
0.0000000000
10
10.6349452721
20
-1.2655001426
30
0.0000000000
10
10.6570459378
20
-1.2533339302
30
0.0000000000
10
10.6700440175
20
-1.2460105503
30
0.0000000000
10
10.6799550769
20
-1.2403419345
30
0.0000000000
10
10.6899427681
20
-1.2345461961
30
0.0000000000
10
10.7031864434
20
-1.2267517635
30
0.0000000000
10
10.7193831792
20
-1.2169520491
30
0.0000000000
10
10.7382338164
20
-1.2051101096
30
0.0000000000
10
10.7563585595
20
-1.1932676158
30
0.0000000000
10
10.7737580827
20
-1.1814251540
30
0.0000000000
10
10.7990772209
20
-1.1634414529
30
0.0000000000
10
10.8307623369
20
-1.1390895435
30
0.0000000000
10
10.8556673479
20
-1.1172023934
30
0.0000000000
10
10.8671769851
20
-1.1062359688
30
0.0000000000
11
10.5000000000
21
-1.3273441781
31
0.0000000000
11
10.5328959551
21
-1.3143886367
31
0.0000000000
11
10.5673344274
21
-1.2992121453
31
0.0000000000
11
10.6033154168
21
-1.2818147040
31
0.0000000000
11
10.6408389234
21
-1.2621963127
31
0.0000000000
11
10.6601791207
21
-1.2515542608
31
0.0000000000
11
10.6699938303
21
-1.2460250208
31
0.0000000000
11
10.6799049472
21
-1.2403569715
31
0.0000000000
11
10.6899124715
21
-1.2345501127
31
0.0000000000
11
10.6999546463
21
-1.2286352912
31
0.0000000000
11
10.7195253806
21
-1.2167902252
31
0.0000000000
11
10.7383701232
21
-1.2049451598
31
0.0000000000
11
10.7564888741
21
-1.1931000949
31
0.0000000000
11
10.7738816333
21
-1.1812550306
31
0.0000000000
11
10.7905484008
21
-1.1694099669
31
0.0000000000
11
10.8314438213
21
-1.1378231330
31
0.0000000000
11
10.8671769851
21
-1.1062359688
31
0.0000000000
0
SPLINE
5
2B9
100
AcDbEntity
8
0
100
AcDbSpline
62
0
6
CONTINUOUS
70
0
71
3
72
68
73
64
74
62
42
0.0000001000
43
0.0000001000
44
0.0000000001
12
0.0293550835
22
1.0052081439
32
0.0000000000
13
0.0001753983
23
-1.0058756828
33
0.0000000000
40
0.0000000000
40
0.0000000000
40
0.0000000000
40
0.0000000000
40
0.0036933507
40
0.0132730829
40
0.0227480659
40
0.0321217816
40
0.0413978261
40
0.0596708882
40
0.0775992308
40
0.0952157427
40
0.1296443253
40
0.1632619407
40
0.1963872567
40
0.2128743326
40
0.2293638006
40
0.2458979106
40
0.2541954732
40
0.2625198623
40
0.2708097782
40
0.2790029606
40
0.2951141232
40
0.3108877969
40
0.3263596419
40
0.3565407959
40
0.3859920323
40
0.4150631233
40
0.4295752556
40
0.4441289858
40
0.4587696869
40
0.4735419303
40
0.4809916579
40
0.4884904208
40
0.4960434050
40
0.4998418987
40
0.5017469098
40
0.5036558603
40
0.5055013464
40
0.5073425782
40
0.5110125376
40
0.5183043269
40
0.5327108341
40
0.5469143860
40
0.5609543454
40
0.5886970066
40
0.6162861166
40
0.6440645406
40
0.6723682648
40
0.6868220720
40
0.7015242293
40
0.7165102380
40
0.7241207426
40
0.7318146075
40
0.7395450894
40
0.7472666013
40
0.7627031584
40
0.7781692705
40
0.7937083198
40
0.8251650766
40
0.8574136953
40
0.8907601924
40
0.9254815682
40
0.9618233986
40
1.0000000000
40
1.0000000000
40
1.0000000000
40
1.0000000000
10
12.8701879583
20
-1.2692824479
30
0.0000000000
10
12.8702240979
20
-1.2680449192
30
0.0000000000
10
12.8703695824
20
-1.2635979725
30
0.0000000000
10
12.8707162801
20
-1.2559799566
30
0.0000000000
10
12.8713299747
20
-1.2464696396
30
0.0000000000
10
12.8721193213
20
-1.2370743638
30
0.0000000000
10
12.8733995009
20
-1.2247631306
30
0.0000000000
10
12.8754333031
20
-1.2096502195
30
0.0000000000
10
12.8785900283
20
-1.1918822960
30
0.0000000000
10
12.8836971864
20
-1.1689830726
30
0.0000000000
10
12.8918290164
20
-1.1413965494
30
0.0000000000
10
12.9045005711
20
-1.1098832141
30
0.0000000000
10
12.9174544299
20
-1.0851147522
30
0.0000000000
10
12.9291920266
20
-1.0663115587
30
0.0000000000
10
12.9386865477
20
-1.0526902098
30
0.0000000000
10
12.9471760202
20
-1.0417375067
30
0.0000000000
10
12.9543096411
20
-1.0332133747
30
0.0000000000
10
12.9598303691
20
-1.0269467187
30
0.0000000000
10
12.9654694140
20
-1.0208340972
30
0.0000000000
10
12.9730478815
20
-1.0129627157
30
0.0000000000
10
12.9826870060
20
-1.0035973996
30
0.0000000000
10
12.9945797100
20
-0.9930730276
30
0.0000000000
10
13.0106483198
20
-0.9801869374
30
0.0000000000
10
13.0314540763
20
-0.9659242132
30
0.0000000000
10
13.0576874263
20
-0.9518053440
30
0.0000000000
10
13.0804548055
20
-0.9426520081
30
0.0000000000
10
13.0990943484
20
-0.9369349125
30
0.0000000000
10
13.1133278601
20
-0.9334287905
30
0.0000000000
10
13.1278192545
20
-0.9307037930
30
0.0000000000
10
13.1400766112
20
-0.9290880272
30
0.0000000000
10
13.1499991208
20
-0.9281832108
30
0.0000000000
10
13.1575271073
20
-0.9276972998
30
0.0000000000
10
13.1638420350
20
-0.9274550984
30
0.0000000000
10
13.1682850609
20
-0.9273703353
30
0.0000000000
10
13.1708367440
20
-0.9273460526
30
0.0000000000
10
13.1727338591
20
-0.9273400646
30
0.0000000000
10
13.1746095946
20
-0.9273457663
30
0.0000000000
10
13.1770755473
20
-0.9273683069
30
0.0000000000
10
13.1813666436
20
-0.9274469848
30
0.0000000000
10
13.1898653589
20
-0.9277603889
30
0.0000000000
10
13.2018722555
20
-0.9286565520
30
0.0000000000
10
13.2160615854
20
-0.9304612627
30
0.0000000000
10
13.2345333472
20
-0.9338192737
30
0.0000000000
10
13.2570475262
20
-0.9398413327
30
0.0000000000
10
13.2830412628
20
-0.9500240655
30
0.0000000000
10
13.3079024441
20
-0.9631298304
30
0.0000000000
10
13.3275357665
20
-0.9763912022
30
0.0000000000
10
13.3426245320
20
-0.9883733474
30
0.0000000000
10
13.3537421225
20
-0.9981473427
30
0.0000000000
10
13.3627269577
20
-1.0068491198
30
0.0000000000
10
13.3697714458
20
-1.0141625596
30
0.0000000000
10
13.3750043340
20
-1.0198414412
30
0.0000000000
10
13.3801226536
20
-1.0256737079
30
0.0000000000
10
13.3867395711
20
-1.0336391004
30
0.0000000000
10
13.3946144612
20
-1.0439244148
30
0.0000000000
10
13.4034112964
20
-1.0567775763
30
0.0000000000
10
13.4143132175
20
-1.0746629967
30
0.0000000000
10
13.4263353619
20
-1.0984079361
30
0.0000000000
10
13.4380605583
20
-1.1288083701
30
0.0000000000
10
13.4471545976
20
-1.1612315232
30
0.0000000000
10
13.4536222397
20
-1.1956697555
30
0.0000000000
10
13.4574728490
20
-1.2321217733
30
0.0000000000
10
13.4582731504
20
-1.2571073124
30
0.0000000000
10
13.4582753825
20
-1.2699076174
30
0.0000000000
11
12.8701879583
21
-1.2692824479
31
0.0000000000
11
12.8703094610
21
-1.2655702688
31
0.0000000000
11
12.8707484430
21
-1.2559465675
31
0.0000000000
11
12.8713630178
21
-1.2464380393
31
0.0000000000
11
12.8721531854
21
-1.2370446843
31
0.0000000000
11
12.8731189458
21
-1.2277665023
31
0.0000000000
11
12.8755772451
21
-1.2095556577
31
0.0000000000
11
12.8787379155
21
-1.1918055054
31
0.0000000000
11
12.8826009572
21
-1.1745160456
31
0.0000000000
11
12.8924341541
21
-1.1413192032
31
0.0000000000
11
12.9050768359
21
-1.1099651304
31
0.0000000000
11
12.9205290025
21
-1.0804538273
31
0.0000000000
11
12.9293086426
21
-1.0663892143
31
0.0000000000
11
12.9387906539
21
-1.0527852937
31
0.0000000000
11
12.9489750364
21
-1.0396420656
31
0.0000000000
11
12.9543306169
21
-1.0332432111
31
0.0000000000
11
12.9598617902
21
-1.0269595298
31
0.0000000000
11
12.9655130707
21
-1.0208307178
31
0.0000000000
11
12.9712289730
21
-1.0148964712
31
0.0000000000
11
12.9828546425
21
-1.0036116744
31
0.0000000000
11
12.9947387989
21
-0.9931051395
31
0.0000000000
11
13.0068814422
21
-0.9833768664
31
0.0000000000
11
13.0319421891
21
-0.9662551058
31
0.0000000000
11
13.0580368833
21
-0.9522463925
31
0.0000000000
11
13.0851655248
21
-0.9413507267
31
0.0000000000
11
13.0991175758
21
-0.9370702865
31
0.0000000000
11
13.1133281136
21
-0.9335681082
31
0.0000000000
11
13.1277971383
21
-0.9308441917
31
0.0000000000
11
13.1425246497
21
-0.9288985371
31
0.0000000000
11
13.1499853380
21
-0.9282175580
31
0.0000000000
11
13.1575106480
21
-0.9277311443
31
0.0000000000
11
13.1651005797
21
-0.9274392962
31
0.0000000000
11
13.1689197787
21
-0.9273663341
31
0.0000000000
11
13.1708354365
21
-0.9273480936
31
0.0000000000
11
13.1727551331
21
-0.9273420134
31
0.0000000000
11
13.1746110089
21
-0.9273476599
31
0.0000000000
11
13.1764625374
21
-0.9273645992
31
0.0000000000
11
13.1801525527
21
-0.9274323565
31
0.0000000000
11
13.1874804163
21
-0.9277033857
31
0.0000000000
11
13.2019274760
21
-0.9287875024
31
0.0000000000
11
13.2160963121
21
-0.9305943637
31
0.0000000000
11
13.2299869246
21
-0.9331239694
31
0.0000000000
11
13.2569334791
21
-0.9403514143
31
0.0000000000
11
13.2827671393
21
-0.9504698373
31
0.0000000000
11
13.3074879052
21
-0.9634792382
31
0.0000000000
11
13.3310957770
21
-0.9793796171
31
0.0000000000
11
13.3424823775
21
-0.9884139233
31
0.0000000000
11
13.3535907545
21
-0.9981709740
31
0.0000000000
11
13.3644209079
21
-1.0086507692
31
0.0000000000
11
13.3697316508
21
-1.0141616960
31
0.0000000000
11
13.3749728378
21
-1.0198533089
31
0.0000000000
11
13.3800978967
21
-1.0256987724
31
0.0000000000
11
13.3850602553
21
-1.0316712509
31
0.0000000000
11
13.3944968717
21
-1.0439972533
31
0.0000000000
11
13.4032826869
21
-1.0568313160
31
0.0000000000
11
13.4114177011
21
-1.0701734389
31
0.0000000000
11
13.4257353260
21
-1.0983818657
31
0.0000000000
11
13.4374497463
21
-1.1286225337
31
0.0000000000
11
13.4465609621
21
-1.1608954429
31
0.0000000000
11
13.4530689734
21
-1.1952005932
31
0.0000000000
11
13.4569737804
21
-1.2315379848
31
0.0000000000
11
13.4582753825
21
-1.2699076174
31
0.0000000000
0
SPLINE
5
2BA
100
AcDbEntity
8
0
100
AcDbSpline
62
0
6
CONTINUOUS
70
0
71
3
72
73
73
69
74
67
42
0.0000001000
43
0.0000001000
44
0.0000000001
12
0.0001753983
22
-1.0058756828
32
0.0000000000
13
0.0293550835
23
1.0052081439
33
0.0000000000
40
0.0000000000
40
0.0000000000
40
0.0000000000
40
0.0000000000
40
0.0381279887
40
0.0743035184
40
0.1087362823
40
0.1416692901
40
0.1733800469
40
0.2041791138
40
0.2344051667
40
0.2494204887
40
0.2644277491
40
0.2793171552
40
0.2939717917
40
0.3227194522
40
0.3509997286
40
0.3791483168
40
0.4075055898
40
0.4364045478
40
0.4511611222
40
0.4661690414
40
0.4814634923
40
0.4892291316
40
0.4970787013
40
0.5049336995
40
0.5127115667
40
0.5280508018
40
0.5431303547
40
0.5579849290
40
0.5871561714
40
0.6158796360
40
0.6444759354
40
0.6732699306
40
0.6878458754
40
0.7025893634
40
0.7175375200
40
0.7251000827
40
0.7327270318
40
0.7403683778
40
0.7479745954
40
0.7630999951
40
0.7781441711
40
0.7931474961
40
0.8231842535
40
0.8535444131
40
0.8845418318
40
0.9003769753
40
0.9164800306
40
0.9328839332
40
0.9412089758
40
0.9496207595
40
0.9581228951
40
0.9667188799
40
0.9710531792
40
0.9754122001
40
0.9776011144
40
0.9797963605
40
0.9819979881
40
0.9831012110
40
0.9836534274
40
0.9842060480
40
0.9848218307
40
0.9854371668
40
0.9866665020
40
0.9891198448
40
0.9915661272
40
0.9940053986
40
0.9988630952
40
1.0000000000
40
1.0000000000
40
1.0000000000
40
1.0000000000
10
13.4582753825
20
-1.2699076174
30
0.0000000000
10
13.4582776117
20
-1.2826916229
30
0.0000000000
10
13.4574893174
20
-1.3076048779
30
0.0000000000
10
13.4537158699
20
-1.3438941821
30
0.0000000000
10
13.4473702364
20
-1.3780587992
30
0.0000000000
10
13.4384469403
20
-1.4100975803
30
0.0000000000
10
13.4269369661
20
-1.4400056205
30
0.0000000000
10
13.4128367014
20
-1.4677729687
30
0.0000000000
10
13.3988856595
20
-1.4891718383
30
0.0000000000
10
13.3864892108
20
-1.5051269773
30
0.0000000000
10
13.3765941412
20
-1.5164836159
30
0.0000000000
10
13.3662116695
20
-1.5272270649
30
0.0000000000
10
13.3519546085
20
-1.5405986884
30
0.0000000000
10
13.3331746083
20
-1.5556664239
30
0.0000000000
10
13.3090600255
20
-1.5710582891
30
0.0000000000
10
13.2835099606
20
-1.5836399839
30
0.0000000000
10
13.2565392292
20
-1.5934055629
30
0.0000000000
10
13.2330461172
20
-1.5991579868
30
0.0000000000
10
13.2136396381
20
-1.6023736450
30
0.0000000000
10
13.1986288766
20
-1.6041064446
30
0.0000000000
10
13.1858920769
20
-1.6049655796
30
0.0000000000
10
13.1755358206
20
-1.6053100815
30
0.0000000000
10
13.1676681431
20
-1.6053956984
30
0.0000000000
10
13.1597963690
20
-1.6053100017
30
0.0000000000
10
13.1494191796
20
-1.6049652486
30
0.0000000000
10
13.1366392511
20
-1.6041051737
30
0.0000000000
10
13.1215563165
20
-1.6023717159
30
0.0000000000
10
13.1020003762
20
-1.5991522726
30
0.0000000000
10
13.0782566251
20
-1.5933910253
30
0.0000000000
10
13.0509016919
20
-1.5836230563
30
0.0000000000
10
13.0248601944
20
-1.5710431863
30
0.0000000000
10
13.0043397347
20
-1.5582676285
30
0.0000000000
10
12.9886455805
20
-1.5467158659
30
0.0000000000
10
12.9771521017
20
-1.5373197156
30
0.0000000000
10
12.9678832929
20
-1.5289427890
30
0.0000000000
10
12.9606363184
20
-1.5219031051
30
0.0000000000
10
12.9552726456
20
-1.5164429667
30
0.0000000000
10
12.9500316587
20
-1.5108447693
30
0.0000000000
10
12.9432642265
20
-1.5032368412
30
0.0000000000
10
12.9352103907
20
-1.4934575343
30
0.0000000000
10
12.9261963910
20
-1.4812815889
30
0.0000000000
10
12.9150660286
20
-1.4644864792
30
0.0000000000
10
12.9027739197
20
-1.4423443856
30
0.0000000000
10
12.8907348442
20
-1.4141170472
30
0.0000000000
10
12.8830045181
20
-1.3893759007
30
0.0000000000
10
12.8781531423
20
-1.3688384135
30
0.0000000000
10
12.8751560712
20
-1.3529072677
30
0.0000000000
10
12.8732250084
20
-1.3393521701
30
0.0000000000
10
12.8720096688
20
-1.3283090297
30
0.0000000000
10
12.8712603648
20
-1.3198812422
30
0.0000000000
10
12.8706778061
20
-1.3113493316
30
0.0000000000
10
12.8703322540
20
-1.3041727380
30
0.0000000000
10
12.8701384893
20
-1.2983803335
30
0.0000000000
10
12.8700518982
20
-1.2947334467
30
0.0000000000
10
12.8700033725
20
-1.2918030253
30
0.0000000000
10
12.8699773441
20
-1.2895955385
30
0.0000000000
10
12.8699643431
20
-1.2877518815
30
0.0000000000
10
12.8699597949
20
-1.2864589554
30
0.0000000000
10
12.8699584899
20
-1.2857187894
30
0.0000000000
10
12.8699581636
20
-1.2851420180
30
0.0000000000
10
12.8699585063
20
-1.2845440880
30
0.0000000000
10
12.8699598733
20
-1.2837193166
30
0.0000000000
10
12.8699646696
20
-1.2822785799
30
0.0000000000
10
12.8699783634
20
-1.2802241205
30
0.0000000000
10
12.8700057846
20
-1.2777641825
30
0.0000000000
10
12.8700569054
20
-1.2744985248
30
0.0000000000
10
12.8701203461
20
-1.2716720609
30
0.0000000000
10
12.8701768337
20
-1.2696633899
30
0.0000000000
10
12.8701879583
20
-1.2692824479
30
0.0000000000
11
13.4582753825
21
-1.2699076174
31
0.0000000000
11
13.4569972131
21
-1.3082291239
31
0.0000000000
11
13.4531626913
21
-1.3444058295
31
0.0000000000
11
13.4467718273
21
-1.3784377286
31
0.0000000000
11
13.4378246177
21
-1.4103248230
31
0.0000000000
11
13.4263210624
21
-1.4400671128
31
0.0000000000
11
13.4122611616
21
-1.4676645979
31
0.0000000000
11
13.3956449152
21
-1.4931172784
31
0.0000000000
11
13.3863781624
21
-1.5050393169
31
0.0000000000
11
13.3764723232
21
-1.5164251542
31
0.0000000000
11
13.3660703929
21
-1.5271954617
31
0.0000000000
11
13.3553153671
21
-1.5372709106
31
0.0000000000
11
13.3327460284
21
-1.5553372328
31
0.0000000000
11
13.3087643073
21
-1.5706241209
31
0.0000000000
11
13.2833702036
21
-1.5831315747
31
0.0000000000
11
13.2565637173
21
-1.5928595944
31
0.0000000000
11
13.2283448485
21
-1.5998081798
31
0.0000000000
11
13.2137057706
21
-1.6022401847
31
0.0000000000
11
13.1987135972
21
-1.6039773311
31
0.0000000000
11
13.1833683280
21
-1.6050196189
31
0.0000000000
11
13.1755632826
21
-1.6052801909
31
0.0000000000
11
13.1676699633
21
-1.6053670482
31
0.0000000000
11
13.1597711845
21
-1.6052801909
31
0.0000000000
11
13.1519538354
21
-1.6050196189
31
0.0000000000
11
13.1365634262
21
-1.6039773311
31
0.0000000000
11
13.1214987359
21
-1.6022401847
31
0.0000000000
11
13.1067597643
21
-1.5998081798
31
0.0000000000
11
13.0782589775
21
-1.5928595944
31
0.0000000000
11
13.0510610657
21
-1.5831315747
31
0.0000000000
11
13.0251660292
21
-1.5706241209
31
0.0000000000
11
13.0005738677
21
-1.5553372328
31
0.0000000000
11
12.9887663651
21
-1.5466515010
31
0.0000000000
11
12.9772845813
21
-1.5372709106
31
0.0000000000
11
12.9661285163
21
-1.5271954617
31
0.0000000000
11
12.9606726284
21
-1.5218971652
31
0.0000000000
11
12.9552981701
21
-1.5164251542
31
0.0000000000
11
12.9500477664
21
-1.5108141587
31
0.0000000000
11
12.9449640422
21
-1.5050989089
31
0.0000000000
11
12.9352966323
21
-1.4933556467
31
0.0000000000
11
12.9262959403
21
-1.4811953675
31
0.0000000000
11
12.9179619662
21
-1.4686180712
31
0.0000000000
11
12.9032941718
21
-1.4422124278
31
0.0000000000
11
12.8912932491
21
-1.4141387163
31
0.0000000000
11
12.8819591981
21
-1.3843969369
31
0.0000000000
11
12.8782922495
21
-1.3689005216
31
0.0000000000
11
12.8752920188
21
-1.3529870894
31
0.0000000000
11
12.8729585061
21
-1.3366566402
31
0.0000000000
11
12.8720417689
21
-1.3283350343
31
0.0000000000
11
12.8712917112
21
-1.3199091740
31
0.0000000000
11
12.8707083331
21
-1.3113790596
31
0.0000000000
11
12.8702916343
21
-1.3027446908
31
0.0000000000
11
12.8701457898
21
-1.2983884111
31
0.0000000000
11
12.8700416151
21
-1.2940060679
31
0.0000000000
11
12.8700051540
21
-1.2918051224
31
0.0000000000
11
12.8699791103
21
-1.2895976610
31
0.0000000000
11
12.8699634841
21
-1.2873836838
31
0.0000000000
11
12.8699595776
21
-1.2862742517
31
0.0000000000
11
12.8699586009
21
-1.2857189248
31
0.0000000000
11
12.8699582754
21
-1.2851631906
31
0.0000000000
11
12.8699586183
21
-1.2845439385
31
0.0000000000
11
12.8699596472
21
-1.2839251362
31
0.0000000000
11
12.8699637627
21
-1.2826888813
31
0.0000000000
11
12.8699802245
21
-1.2802217703
31
0.0000000000
11
12.8700076609
21
-1.2777618575
31
0.0000000000
11
12.8700460718
21
-1.2753091432
31
0.0000000000
11
12.8701558173
21
-1.2704253093
31
0.0000000000
11
12.8701879583
21
-1.2692824479
31
0.0000000000
0
SPLINE
5
2BB
100
AcDbEntity
8
0
100
AcDbSpline
62
0
6
CONTINUOUS
70
0
71
3
72
89
73
85
74
83
42
0.0000001000
43
0.0000001000
44
0.0000000001
12
-0.0313133815
22
-1.0077307097
32
0.0000000000
13
-0.0000510754
23
1.0082018300
33
0.0000000000
40
0.0000000000
40
0.0000000000
40
0.0000000000
40
0.0000000000
40
0.0060111493
40
0.0168133247
40
0.0274632454
40
0.0483227096
40
0.0884074849
40
0.1266088678
40
0.1633116975
40
0.1989493931
40
0.2165231888
40
0.2340104964
40
0.2427422663
40
0.2514759487
40
0.2601805487
40
0.2687759133
40
0.2856504588
40
0.3021449226
40
0.3341848440
40
0.3653477177
40
0.3961110175
40
0.4115055087
40
0.4269861841
40
0.4347789003
40
0.4426159067
40
0.4505045557
40
0.4584520569
40
0.4664654606
40
0.4704991377
40
0.4725230768
40
0.4745518801
40
0.4765856511
40
0.4776044331
40
0.4786244956
40
0.4791350111
40
0.4796458515
40
0.4799013941
40
0.4801036190
40
0.4804546417
40
0.4811564404
40
0.4818579141
40
0.4832599027
40
0.4846606433
40
0.4874585101
40
0.4902518019
40
0.4930407987
40
0.4958257818
40
0.4986070337
40
0.5041594082
40
0.5097002746
40
0.5207560992
40
0.5317935696
40
0.5428312674
40
0.5538877736
40
0.5649815742
40
0.5761309700
40
0.5986639408
40
0.6216308827
40
0.6333206241
40
0.6451466549
40
0.6687720097
40
0.6924285379
40
0.7162912562
40
0.7405307158
40
0.7653096895
40
0.7779518296
40
0.7907849989
40
0.8038263570
40
0.8104304944
40
0.8170845773
40
0.8303508021
40
0.8435373335
40
0.8697160602
40
0.8957209801
40
0.9216513412
40
0.9476071705
40
0.9606274287
40
0.9736913886
40
0.9802437754
40
0.9868116631
40
0.9933965562
40
0.9966958701
40
0.9983473222
40
1.0000000000
40
1.0000000000
40
1.0000000000
40
1.0000000000
10
12.3126475659
20
-1.8198231608
30
0.0000000000
10
12.3125848228
20
-1.8218423673
30
0.0000000000
10
12.3123798664
20
-1.8274892345
30
0.0000000000
10
12.3119072891
20
-1.8367072002
30
0.0000000000
10
12.3108967606
20
-1.8508917268
30
0.0000000000
10
12.3084557752
20
-1.8748336085
30
0.0000000000
10
12.3029557056
20
-1.9077456938
30
0.0000000000
10
12.2929475135
20
-1.9451381932
30
0.0000000000
10
12.2796093580
20
-1.9798874812
30
0.0000000000
10
12.2656378410
20
-2.0067644058
30
0.0000000000
10
12.2528428400
20
-2.0267981717
30
0.0000000000
10
12.2441890578
20
-2.0387147886
30
0.0000000000
10
12.2368651193
20
-2.0479002541
30
0.0000000000
10
12.2311755387
20
-2.0546087148
30
0.0000000000
10
12.2253250205
20
-2.0611153006
30
0.0000000000
10
12.2174414669
20
-2.0694682571
30
0.0000000000
10
12.2073661926
20
-2.0793473180
30
0.0000000000
10
12.1908565922
20
-2.0938728881
30
0.0000000000
10
12.1692786033
20
-2.1098522731
30
0.0000000000
10
12.1417397317
20
-2.1254663857
30
0.0000000000
10
12.1176224596
20
-2.1353461633
30
0.0000000000
10
12.0977792576
20
-2.1413299755
30
0.0000000000
10
12.0851158417
20
-2.1442899500
30
0.0000000000
10
12.0748338831
20
-2.1461923326
30
0.0000000000
10
12.0670201319
20
-2.1473903647
30
0.0000000000
10
12.0591220055
20
-2.1483562273
30
0.0000000000
10
12.0511394434
20
-2.1490899834
30
0.0000000000
10
12.0444318426
20
-2.1495070950
30
0.0000000000
10
12.0397067469
20
-2.1496979475
30
0.0000000000
10
12.0369903356
20
-2.1497783545
30
0.0000000000
10
12.0349453568
20
-2.1498242356
30
0.0000000000
10
12.0332378651
20
-2.1498503748
30
0.0000000000
10
12.0318692595
20
-2.1498640521
30
0.0000000000
10
12.0310125196
20
-2.1498695844
30
0.0000000000
10
12.0303264710
20
-2.1498722002
30
0.0000000000
10
12.0298973482
20
-2.1498730805
30
0.0000000000
10
12.0295718311
20
-2.1498733189
30
0.0000000000
10
12.0293000234
20
-2.1498733041
30
0.0000000000
10
12.0288782439
20
-2.1498728688
30
0.0000000000
10
12.0282886850
20
-2.1498711656
30
0.0000000000
10
12.0273459422
20
-2.1498661042
30
0.0000000000
10
12.0261683384
20
-2.1498553990
30
0.0000000000
10
12.0242863429
20
-2.1498289308
30
0.0000000000
10
12.0219370985
20
-2.1497783398
30
0.0000000000
10
12.0191221584
20
-2.1496895605
30
0.0000000000
10
12.0163125755
20
-2.1495727374
30
0.0000000000
10
12.0135083471
20
-2.1494278697
30
0.0000000000
10
12.0097788104
20
-2.1491974635
30
0.0000000000
10
12.0051294530
20
-2.1488394033
30
0.0000000000
10
11.9977205986
20
-2.1481171459
30
0.0000000000
10
11.9885065473
20
-2.1469335437
30
0.0000000000
10
11.9775275115
20
-2.1450627455
30
0.0000000000
10
11.9666342508
20
-2.1427425195
30
0.0000000000
10
11.9558270212
20
-2.1399729301
30
0.0000000000
10
11.9451057175
20
-2.1367538930
30
0.0000000000
10
11.9308770054
20
-2.1318463252
30
0.0000000000
10
11.9132665128
20
-2.1245577965
30
0.0000000000
10
11.8961126801
20
-2.1158464481
30
0.0000000000
10
11.8825964583
20
-2.1080092063
30
0.0000000000
10
11.8691754107
20
-2.0995848975
30
0.0000000000
10
11.8530464532
20
-2.0879431417
30
0.0000000000
10
11.8349205340
20
-2.0723070051
30
0.0000000000
10
11.8180562151
20
-2.0550276274
30
0.0000000000
10
11.8024559845
20
-2.0361104318
30
0.0000000000
10
11.7905873759
20
-2.0190958887
30
0.0000000000
10
11.7817281499
20
-2.0047135615
30
0.0000000000
10
11.7753516474
20
-1.9934454558
30
0.0000000000
10
11.7703205377
20
-1.9837564003
30
0.0000000000
10
11.7664521995
20
-1.9758090395
30
0.0000000000
10
11.7626901467
20
-1.9677274608
30
0.0000000000
10
11.7582159539
20
-1.9575386111
30
0.0000000000
10
11.7515913613
20
-1.9411360416
30
0.0000000000
10
11.7442887150
20
-1.9204008371
30
0.0000000000
10
11.7371035372
20
-1.8951345943
30
0.0000000000
10
11.7315169167
20
-1.8695440635
30
0.0000000000
10
11.7281973675
20
-1.8479697596
30
0.0000000000
10
11.7263411167
20
-1.8305774033
30
0.0000000000
10
11.7255125677
20
-1.8196386926
30
0.0000000000
10
11.7250485736
20
-1.8108510119
30
0.0000000000
10
11.7247997824
20
-1.8042331676
30
0.0000000000
10
11.7246755171
20
-1.7987053353
30
0.0000000000
10
11.7246320402
20
-1.7948287926
30
0.0000000000
10
11.7246195834
20
-1.7926096230
30
0.0000000000
10
11.7246175525
20
-1.7914992135
30
0.0000000000
10
11.7246175243
20
-1.7909438026
30
0.0000000000
11
12.3126475659
21
-1.8198231608
31
0.0000000000
11
12.3124274863
21
-1.8258796866
31
0.0000000000
11
12.3118683588
21
-1.8367560882
31
0.0000000000
11
12.3111038375
21
-1.8474660960
31
0.0000000000
11
12.3089586136
21
-1.8683869300
31
0.0000000000
11
12.3022034404
21
-1.9082318716
31
0.0000000000
11
12.2921619668
21
-1.9454145117
31
0.0000000000
11
12.2788341927
21
-1.9799348500
31
0.0000000000
11
12.2622201181
21
-2.0117928867
31
0.0000000000
11
12.2526807181
21
-2.0267235419
31
0.0000000000
11
12.2423197431
21
-2.0409886217
31
0.0000000000
11
12.2368311649
21
-2.0478715708
31
0.0000000000
11
12.2311371929
21
-2.0545881261
31
0.0000000000
11
12.2252743857
21
-2.0611184727
31
0.0000000000
11
12.2193240676
21
-2.0674185328
31
0.0000000000
11
12.2071698518
21
-2.0793229408
31
0.0000000000
11
12.1946775299
21
-2.0902997326
31
0.0000000000
11
12.1686785673
21
-2.1094704676
31
0.0000000000
11
12.1413271801
21
-2.1249307377
31
0.0000000000
11
12.1126233681
21
-2.1366805430
31
0.0000000000
11
12.0977643028
21
-2.1411640214
31
0.0000000000
11
12.0825671313
21
-2.1447198835
31
0.0000000000
11
12.0748417558
21
-2.1461499585
31
0.0000000000
11
12.0670318537
21
-2.1473481294
31
0.0000000000
11
12.0591374250
21
-2.1483143963
31
0.0000000000
11
12.0511584698
21
-2.1490487591
31
0.0000000000
11
12.0430949881
21
-2.1495512179
31
0.0000000000
11
12.0390315498
21
-2.1497154833
31
0.0000000000
11
12.0369919063
21
-2.1497758750
31
0.0000000000
11
12.0349469798
21
-2.1498217727
31
0.0000000000
11
12.0328967705
21
-2.1498531763
31
0.0000000000
11
12.0318696847
21
-2.1498634429
31
0.0000000000
11
12.0308412782
21
-2.1498700860
31
0.0000000000
11
12.0303265797
21
-2.1498720487
31
0.0000000000
11
12.0298115510
21
-2.1498731056
31
0.0000000000
11
12.0295539128
21
-2.1498732943
31
0.0000000000
11
12.0293500294
21
-2.1498732825
31
0.0000000000
11
12.0289961283
21
-2.1498729174
31
0.0000000000
11
12.0282885771
21
-2.1498708728
31
0.0000000000
11
12.0275813608
21
-2.1498670755
31
0.0000000000
11
12.0261679329
21
-2.1498542233
31
0.0000000000
11
12.0247558446
21
-2.1498343608
31
0.0000000000
11
12.0219356869
21
-2.1497736048
31
0.0000000000
11
12.0191208877
21
-2.1496848076
31
0.0000000000
11
12.0163114469
21
-2.1495679692
31
0.0000000000
11
12.0135073645
21
-2.1494230896
31
0.0000000000
11
12.0107086406
21
-2.1492501688
31
0.0000000000
11
12.0051272680
21
-2.1488202036
31
0.0000000000
11
11.9995673293
21
-2.1482780734
31
0.0000000000
11
11.9885117531
21
-2.1468573186
31
0.0000000000
11
11.9775419119
21
-2.1449879044
31
0.0000000000
11
11.9666578059
21
-2.1426698308
31
0.0000000000
11
11.9558594349
21
-2.1399030978
31
0.0000000000
11
11.9451467990
21
-2.1366877053
31
0.0000000000
11
11.9345198982
21
-2.1330236535
31
0.0000000000
11
11.9135233019
21
-2.1243495715
31
0.0000000000
11
11.8928696458
21
-2.1138808520
31
0.0000000000
11
11.8826714204
21
-2.1079735031
31
0.0000000000
11
11.8725813248
21
-2.1016214739
31
0.0000000000
11
11.8532685963
21
-2.0876798702
31
0.0000000000
11
11.8352057962
21
-2.0721047857
31
0.0000000000
11
11.8183929244
21
-2.0548962206
31
0.0000000000
11
11.8028299810
21
-2.0360541748
31
0.0000000000
11
11.7885169659
21
-2.0155786482
31
0.0000000000
11
11.7818291815
21
-2.0047283297
31
0.0000000000
11
11.7754538792
21
-1.9934696410
31
0.0000000000
11
11.7693910590
21
-1.9818025821
31
0.0000000000
11
11.7664768297
21
-1.9758159138
31
0.0000000000
11
11.7636428378
21
-1.9697352466
31
0.0000000000
11
11.7582669018
21
-1.9574881862
31
0.0000000000
11
11.7532891832
21
-1.9451605477
31
0.0000000000
11
11.7445283985
21
-1.9202635369
31
0.0000000000
11
11.7373604838
21
-1.8950442140
31
0.0000000000
11
11.7317854341
21
-1.8695025604
31
0.0000000000
11
11.7278032642
21
-1.8436386323
31
0.0000000000
11
11.7264095041
21
-1.8305857961
31
0.0000000000
11
11.7254139603
21
-1.8174523772
31
0.0000000000
11
11.7250655197
21
-1.8108554501
31
0.0000000000
11
11.7248166334
21
-1.8042383784
31
0.0000000000
11
11.7246673016
21
-1.7976011625
31
0.0000000000
11
11.7246299687
21
-1.7942750005
31
0.0000000000
11
11.7246206354
21
-1.7926100311
31
0.0000000000
11
11.7246175243
21
-1.7909438026
31
0.0000000000
0
SPLINE
5
2BC
100
AcDbEntity
8
0
100
AcDbSpline
62
0
6
CONTINUOUS
70
0
71
3
72
67
73
63
74
61
42
0.0000001000
43
0.0000001000
44
0.0000000001
12
-0.0000510754
22
1.0082018300
32
0.0000000000
13
-0.0313133815
23
-1.0077307097
33
0.0000000000
40
0.0000000000
40
0.0000000000
40
0.0000000000
40
0.0000000000
40
0.0025208804
40
0.0050333093
40
0.0100330789
40
0.0199342178
40
0.0297083223
40
0.0393603250
40
0.0583173527
40
0.0768498252
40
0.0950040461
40
0.1128292687
40
0.1476893822
40
0.1818870312
40
0.1988913200
40
0.2159073707
40
0.2329949595
40
0.2502131174
40
0.2588681136
40
0.2674478501
40
0.2843607415
40
0.3009867212
40
0.3173759127
40
0.3496412962
40
0.3816074713
40
0.4137244328
40
0.4299855816
40
0.4464491199
40
0.4631666651
40
0.4801875240
40
0.4888420237
40
0.4932328538
40
0.4975972989
40
0.5062496660
40
0.5148050456
40
0.5316472577
40
0.5481752539
40
0.5804880391
40
0.6122069450
40
0.6438080982
40
0.6757728877
40
0.6920451506
40
0.7085802031
40
0.7169636379
40
0.7254090266
40
0.7422805040
40
0.7591658820
40
0.7761279899
40
0.8105139494
40
0.8459292036
40
0.8828091754
40
0.9019265373
40
0.9215503412
40
0.9417206586
40
0.9624743958
40
0.9730812445
40
0.9784438552
40
0.9811401604
40
0.9839334572
40
0.9895133000
40
0.9950525607
40
1.0000000000
40
1.0000000000
40
1.0000000000
40
1.0000000000
10
11.7246175243
20
-1.7909438026
30
0.0000000000
10
11.7246174814
20
-1.7900966172
30
0.0000000000
10
11.7246219840
20
-1.7884050855
30
0.0000000000
10
11.7246486567
20
-1.7850333898
30
0.0000000000
10
11.7247417286
20
-1.7791819833
30
0.0000000000
10
11.7250074825
20
-1.7708930837
30
0.0000000000
10
11.7255417600
20
-1.7610507898
30
0.0000000000
10
11.7265338368
20
-1.7481887975
30
0.0000000000
10
11.7283013753
20
-1.7324384218
30
0.0000000000
10
11.7312940503
20
-1.7139718197
30
0.0000000000
10
11.7351463133
20
-1.6960527462
30
0.0000000000
10
11.7413806216
20
-1.6730671667
30
0.0000000000
10
11.7513276546
20
-1.6455453781
30
0.0000000000
10
11.7642804701
20
-1.6196048171
30
0.0000000000
10
11.7763181153
20
-1.6000802015
30
0.0000000000
10
11.7861905744
20
-1.5860124376
30
0.0000000000
10
11.7969221873
20
-1.5724979028
30
0.0000000000
10
11.8065516576
20
-1.5617286739
30
0.0000000000
10
11.8146336668
20
-1.5534359706
30
0.0000000000
10
11.8228470134
20
-1.5454197033
30
0.0000000000
10
11.8333598318
20
-1.5359309598
30
0.0000000000
10
11.8464115630
20
-1.5253721926
30
0.0000000000
10
11.8642178650
20
-1.5125407594
30
0.0000000000
10
11.8875313416
20
-1.4986046765
30
0.0000000000
10
11.9171656289
20
-1.4853741020
30
0.0000000000
10
11.9430224265
20
-1.4773626336
30
0.0000000000
10
11.9643279862
20
-1.4727430090
30
0.0000000000
10
11.9807492881
20
-1.4701475267
30
0.0000000000
10
11.9975416645
20
-1.4684374961
30
0.0000000000
10
12.0117791201
20
-1.4677522669
30
0.0000000000
10
12.0218838113
20
-1.4676550576
30
0.0000000000
10
12.0277345814
20
-1.4677076242
30
0.0000000000
10
12.0335834766
20
-1.4678336086
30
0.0000000000
10
12.0408281390
20
-1.4681278911
30
0.0000000000
10
12.0522467370
20
-1.4688902077
30
0.0000000000
10
12.0662647626
20
-1.4703881509
30
0.0000000000
10
12.0880585789
20
-1.4739488236
30
0.0000000000
10
12.1143718904
20
-1.4806041247
30
0.0000000000
10
12.1444183076
20
-1.4922367712
30
0.0000000000
10
12.1726865744
20
-1.5074532872
30
0.0000000000
10
12.1946232273
20
-1.5230258721
30
0.0000000000
10
12.2111984903
20
-1.5371506321
30
0.0000000000
10
12.2212079841
20
-1.5467249858
30
0.0000000000
10
12.2289836477
20
-1.5548047841
30
0.0000000000
10
12.2366126586
20
-1.5631772533
30
0.0000000000
10
12.2456761314
20
-1.5740987419
30
0.0000000000
10
12.2557467431
20
-1.5878638763
30
0.0000000000
10
12.2681415587
20
-1.6071705825
30
0.0000000000
10
12.2816393279
20
-1.6331008214
30
0.0000000000
10
12.2944522719
20
-1.6666608938
30
0.0000000000
10
12.3022938079
20
-1.6964239662
30
0.0000000000
10
12.3069753431
20
-1.7214099812
30
0.0000000000
10
12.3097162181
20
-1.7410249083
30
0.0000000000
10
12.3116441689
20
-1.7612874689
30
0.0000000000
10
12.3125671053
20
-1.7785857899
30
0.0000000000
10
12.3128644798
20
-1.7909242890
30
0.0000000000
10
12.3129264154
20
-1.7971970288
30
0.0000000000
10
12.3129367041
20
-1.8008440964
30
0.0000000000
10
12.3129299885
20
-1.8045641759
30
0.0000000000
10
12.3128899103
20
-1.8092395774
30
0.0000000000
10
12.3127935400
20
-1.8146382130
30
0.0000000000
10
12.3126992063
20
-1.8181612653
30
0.0000000000
10
12.3126475659
20
-1.8198231608
30
0.0000000000
11
11.7246175243
21
-1.7909438026
31
0.0000000000
11
11.7246242186
21
-1.7884022573
31
0.0000000000
11
11.7246443015
21
-1.7858693037
31
0.0000000000
11
11.7247246329
21
-1.7808291713
31
0.0000000000
11
11.7250459587
21
-1.7708520064
31
0.0000000000
11
11.7255815016
21
-1.7610123079
31
0.0000000000
11
11.7263312616
21
-1.7513100759
31
0.0000000000
11
11.7284734327
21
-1.7323180113
31
0.0000000000
11
11.7314724718
21
-1.7138758127
31
0.0000000000
11
11.7353283789
21
-1.6959834801
31
0.0000000000
11
11.7400411560
21
-1.6786410122
31
0.0000000000
11
11.7520373140
21
-1.6456056746
31
0.0000000000
11
11.7674609457
21
-1.6147698000
31
0.0000000000
11
11.7764580642
21
-1.6001766613
31
0.0000000000
11
11.7863120511
21
-1.5861333884
31
0.0000000000
11
11.7970229064
21
-1.5726399811
31
0.0000000000
11
11.8085906302
21
-1.5596964396
31
0.0000000000
11
11.8146771530
21
-1.5534436889
31
0.0000000000
11
11.8208688905
21
-1.5474032757
31
0.0000000000
11
11.8335321734
21
-1.5359840765
31
0.0000000000
11
11.8465685335
21
-1.5254470472
31
0.0000000000
11
11.8599779708
21
-1.5157921879
31
0.0000000000
11
11.8879160769
21
-1.4991289788
31
0.0000000000
11
11.9173464917
21
-1.4859944493
31
0.0000000000
11
11.9482692152
21
-1.4763885994
31
0.0000000000
11
11.9642901927
21
-1.4729089293
31
0.0000000000
11
11.9806842474
21
-1.4703114291
31
0.0000000000
11
11.9974513793
21
-1.4685960987
31
0.0000000000
11
12.0145915884
21
-1.4677629383
31
0.0000000000
11
12.0233166418
21
-1.4676771717
31
0.0000000000
11
12.0277433019
21
-1.4677169919
31
0.0000000000
11
12.0321425150
21
-1.4678119477
31
0.0000000000
11
12.0408586005
21
-1.4681672661
31
0.0000000000
11
12.0494648982
21
-1.4687431270
31
0.0000000000
11
12.0663481303
21
-1.4705564762
31
0.0000000000
11
12.0827922114
21
-1.4732519954
31
0.0000000000
11
12.1143629204
21
-1.4812895433
31
0.0000000000
11
12.1441770253
21
-1.4928557707
31
0.0000000000
11
12.1722345260
21
-1.5079506777
31
0.0000000000
11
12.1985354226
21
-1.5265742643
31
0.0000000000
11
12.2110271443
21
-1.5372093125
31
0.0000000000
11
12.2230797150
21
-1.5487265305
31
0.0000000000
11
12.2289413187
21
-1.5548159532
31
0.0000000000
11
12.2346724529
21
-1.5611130438
31
0.0000000000
11
12.2455364955
21
-1.5742014828
31
0.0000000000
11
12.2555891158
21
-1.5879403490
31
0.0000000000
11
12.2648303138
21
-1.6023296425
31
0.0000000000
11
12.2808784431
21
-1.6330595113
31
0.0000000000
11
12.2936808833
21
-1.6663910893
31
0.0000000000
11
12.3032376345
21
-1.7023243763
31
0.0000000000
11
12.3067988766
21
-1.7212666607
31
0.0000000000
11
12.3095486965
21
-1.7408593724
31
0.0000000000
11
12.3114870942
21
-1.7611025113
31
0.0000000000
11
12.3126140695
21
-1.7819960776
31
0.0000000000
11
12.3128732739
21
-1.7926867709
31
0.0000000000
11
12.3129268052
21
-1.7980930951
31
0.0000000000
11
12.3129345532
21
-1.8008115016
31
0.0000000000
11
12.3129295600
21
-1.8036277018
31
0.0000000000
11
12.3128810642
21
-1.8092530957
31
0.0000000000
11
12.3127812200
21
-1.8148368911
31
0.0000000000
11
12.3126475659
21
-1.8198231608
31
0.0000000000
0
SPLINE
5
2BD
100
AcDbEntity
8
0
100
AcDbSpline
62
0
6
CONTINUOUS
70
0
71
3
72
21
73
17
74
15
42
0.0000001000
43
0.0000001000
44
0.0000000001
12
0.0000000000
22
-0.4732934017
32
0.0000000000
13
0.4732934017
23
0.0000000000
33
0.0000000000
40
0.0000000000
40
0.0000000000
40
0.0000000000
40
0.0000000000
40
0.0724897195
40
0.1452254656
40
0.2176523541
40
0.2896056049
40
0.3617540594
40
0.4337284297
40
0.5050601977
40
0.5761852149
40
0.6474229840
40
0.7183397902
40
0.7886964192
40
0.8592505102
40
0.9298442714
40
1.0000000000
40
1.0000000000
40
1.0000000000
40
1.0000000000
10
-24.8000000000
20
-18.0962952155
30
0.0000000000
10
-24.8000000000
20
-18.1077315175
30
0.0000000000
10
-24.7987267075
20
-18.1306632907
30
0.0000000000
10
-24.7930126759
20
-18.1645913911
30
0.0000000000
10
-24.7835788425
20
-18.1975947425
30
0.0000000000
10
-24.7705704132
20
-18.2292573964
30
0.0000000000
10
-24.7541487590
20
-18.2592120490
30
0.0000000000
10
-24.7345322471
20
-18.2870591791
30
0.0000000000
10
-24.7120299307
20
-18.3124141833
30
0.0000000000
10
-24.6869193236
20
-18.3350156933
30
0.0000000000
10
-24.6594815330
20
-18.3546161052
30
0.0000000000
10
-24.6301162990
20
-18.3709413879
30
0.0000000000
10
-24.5992031509
20
-18.3838209974
30
0.0000000000
10
-24.5670850448
20
-18.3931295627
30
0.0000000000
10
-24.5341571496
20
-18.3987498265
30
0.0000000000
10
-24.5119316948
20
-18.4000000000
30
0.0000000000
10
-24.5008636137
20
-18.4000000000
30
0.0000000000
11
-24.8000000000
21
-18.0962952155
31
0.0000000000
11
-24.7980961851
21
-18.1305512590
31
0.0000000000
11
-24.7923777943
21
-18.1644983449
31
0.0000000000
11
-24.7829541844
21
-18.1974567575
31
0.0000000000
11
-24.7700100887
21
-18.2289558580
31
0.0000000000
11
-24.7535920399
21
-18.2588973299
31
0.0000000000
11
-24.7339715461
21
-18.2867444138
31
0.0000000000
11
-24.7115593557
21
-18.3119929595
31
0.0000000000
11
-24.6865367185
21
-18.3345110697
31
0.0000000000
11
-24.6590998492
21
-18.3541072821
31
0.0000000000
11
-24.6297628788
21
-18.3704141796
31
0.0000000000
11
-24.5990240046
21
-18.3832191348
31
0.0000000000
11
-24.5669508211
21
-18.3925137051
31
0.0000000000
11
-24.5340153955
21
-18.3981342190
31
0.0000000000
11
-24.5008636137
21
-18.4000000000
31
0.0000000000
0
SPLINE
5
2BE
100
AcDbEntity
8
0
100
AcDbSpline
62
0
6
CONTINUOUS
70
0
71
3
72
21
73
17
74
15
42
0.0000001000
43
0.0000001000
44
0.0000000001
12
-0.4732934017
22
0.0000000000
32
0.0000000000
13
0.0000000000
23
-0.4732934017
33
0.0000000000
40
0.0000000000
40
0.0000000000
40
0.0000000000
40
0.0000000000
40
0.0701557286
40
0.1407494898
40
0.2113035808
40
0.2816602098
40
0.3525770160
40
0.4238147851
40
0.4949398023
40
0.5662715703
40
0.6382459406
40
0.7103943951
40
0.7823476459
40
0.8547745344
40
0.9275102805
40
1.0000000000
40
1.0000000000
40
1.0000000000
40
1.0000000000
10
-24.5008636137
20
18.4000000000
30
0.0000000000
10
-24.5119316948
20
18.4000000000
30
0.0000000000
10
-24.5341571496
20
18.3987498265
30
0.0000000000
10
-24.5670850448
20
18.3931295627
30
0.0000000000
10
-24.5992031509
20
18.3838209974
30
0.0000000000
10
-24.6301162990
20
18.3709413879
30
0.0000000000
10
-24.6594815330
20
18.3546161052
30
0.0000000000
10
-24.6869193236
20
18.3350156933
30
0.0000000000
10
-24.7120299307
20
18.3124141833
30
0.0000000000
10
-24.7345322471
20
18.2870591791
30
0.0000000000
10
-24.7541487590
20
18.2592120490
30
0.0000000000
10
-24.7705704132
20
18.2292573964
30
0.0000000000
10
-24.7835788425
20
18.1975947425
30
0.0000000000
10
-24.7930126759
20
18.1645913911
30
0.0000000000
10
-24.7987267075
20
18.1306632907
30
0.0000000000
10
-24.8000000000
20
18.1077315175
30
0.0000000000
10
-24.8000000000
20
18.0962952155
30
0.0000000000
11
-24.5008636137
21
18.4000000000
31
0.0000000000
11
-24.5340153955
21
18.3981342190
31
0.0000000000
11
-24.5669508211
21
18.3925137051
31
0.0000000000
11
-24.5990240046
21
18.3832191348
31
0.0000000000
11
-24.6297628788
21
18.3704141796
31
0.0000000000
11
-24.6590998492
21
18.3541072821
31
0.0000000000
11
-24.6865367185
21
18.3345110697
31
0.0000000000
11
-24.7115593557
21
18.3119929595
31
0.0000000000
11
-24.7339715461
21
18.2867444138
31
0.0000000000
11
-24.7535920399
21
18.2588973299
31
0.0000000000
11
-24.7700100887
21
18.2289558580
31
0.0000000000
11
-24.7829541844
21
18.1974567575
31
0.0000000000
11
-24.7923777943
21
18.1644983449
31
0.0000000000
11
-24.7980961851
21
18.1305512590
31
0.0000000000
11
-24.8000000000
21
18.0962952155
31
0.0000000000
0
SPLINE
5
2BF
100
AcDbEntity
8
0
100
AcDbSpline
62
0
6
CONTINUOUS
70
0
71
3
72
21
73
17
74
15
42
0.0000001000
43
0.0000001000
44
0.0000000001
12
0.0000000000
22
0.4732934017
32
0.0000000000
13
-0.4732934017
23
-0.0000000000
33
0.0000000000
40
0.0000000000
40
0.0000000000
40
0.0000000000
40
0.0000000000
40
0.0724897195
40
0.1452254656
40
0.2176523541
40
0.2896056049
40
0.3617540594
40
0.4337284297
40
0.5050601977
40
0.5761852149
40
0.6474229840
40
0.7183397902
40
0.7886964192
40
0.8592505102
40
0.9298442714
40
1.0000000000
40
1.0000000000
40
1.0000000000
40
1.0000000000
10
24.8000000000
20
18.0962952155
30
0.0000000000
10
24.8000000000
20
18.1077315175
30
0.0000000000
10
24.7987267075
20
18.1306632907
30
0.0000000000
10
24.7930126759
20
18.1645913911
30
0.0000000000
10
24.7835788425
20
18.1975947425
30
0.0000000000
10
24.7705704132
20
18.2292573964
30
0.0000000000
10
24.7541487590
20
18.2592120490
30
0.0000000000
10
24.7345322471
20
18.2870591791
30
0.0000000000
10
24.7120299307
20
18.3124141833
30
0.0000000000
10
24.6869193236
20
18.3350156933
30
0.0000000000
10
24.6594815330
20
18.3546161052
30
0.0000000000
10
24.6301162990
20
18.3709413879
30
0.0000000000
10
24.5992031509
20
18.3838209974
30
0.0000000000
10
24.5670850448
20
18.3931295627
30
0.0000000000
10
24.5341571496
20
18.3987498265
30
0.0000000000
10
24.5119316948
20
18.4000000000
30
0.0000000000
10
24.5008636137
20
18.4000000000
30
0.0000000000
11
24.8000000000
21
18.0962952155
31
0.0000000000
11
24.7980961851
21
18.1305512590
31
0.0000000000
11
24.7923777943
21
18.1644983449
31
0.0000000000
11
24.7829541844
21
18.1974567575
31
0.0000000000
11
24.7700100887
21
18.2289558580
31
0.0000000000
11
24.7535920399
21
18.2588973299
31
0.0000000000
11
24.7339715461
21
18.2867444138
31
0.0000000000
11
24.7115593557
21
18.3119929595
31
0.0000000000
11
24.6865367185
21
18.3345110697
31
0.0000000000
11
24.6590998492
21
18.3541072821
31
0.0000000000
11
24.6297628788
21
18.3704141796
31
0.0000000000
11
24.5990240046
21
18.3832191348
31
0.0000000000
11
24.5669508211
21
18.3925137051
31
0.0000000000
11
24.5340153955
21
18.3981342190
31
0.0000000000
11
24.5008636137
21
18.4000000000
31
0.0000000000
0
SPLINE
5
2C0
100
AcDbEntity
8
0
100
AcDbSpline
62
0
6
CONTINUOUS
70
0
71
3
72
21
73
17
74
15
42
0.0000001000
43
0.0000001000
44
0.0000000001
12
0.4732934017
22
0.0000000000
32
0.0000000000
13
0.0000000000
23
0.4732934017
33
0.0000000000
40
0.0000000000
40
0.0000000000
40
0.0000000000
40
0.0000000000
40
0.0701557286
40
0.1407494898
40
0.2113035808
40
0.2816602098
40
0.3525770160
40
0.4238147851
40
0.4949398023
40
0.5662715703
40
0.6382459406
40
0.7103943951
40
0.7823476459
40
0.8547745344
40
0.9275102805
40
1.0000000000
40
1.0000000000
40
1.0000000000
40
1.0000000000
10
24.5008636137
20
-18.4000000000
30
0.0000000000
10
24.5119316948
20
-18.4000000000
30
0.0000000000
10
24.5341571496
20
-18.3987498265
30
0.0000000000
10
24.5670850448
20
-18.3931295627
30
0.0000000000
10
24.5992031509
20
-18.3838209974
30
0.0000000000
10
24.6301162990
20
-18.3709413879
30
0.0000000000
10
24.6594815330
20
-18.3546161052
30
0.0000000000
10
24.6869193236
20
-18.3350156933
30
0.0000000000
10
24.7120299307
20
-18.3124141833
30
0.0000000000
10
24.7345322471
20
-18.2870591791
30
0.0000000000
10
24.7541487590
20
-18.2592120490
30
0.0000000000
10
24.7705704132
20
-18.2292573964
30
0.0000000000
10
24.7835788425
20
-18.1975947425
30
0.0000000000
10
24.7930126759
20
-18.1645913911
30
0.0000000000
10
24.7987267075
20
-18.1306632907
30
0.0000000000
10
24.8000000000
20
-18.1077315175
30
0.0000000000
10
24.8000000000
20
-18.0962952155
30
0.0000000000
11
24.5008636137
21
-18.4000000000
31
0.0000000000
11
24.5340153955
21
-18.3981342190
31
0.0000000000
11
24.5669508211
21
-18.3925137051
31
0.0000000000
11
24.5990240046
21
-18.3832191348
31
0.0000000000
11
24.6297628788
21
-18.3704141796
31
0.0000000000
11
24.6590998492
21
-18.3541072821
31
0.0000000000
11
24.6865367185
21
-18.3345110697
31
0.0000000000
11
24.7115593557
21
-18.3119929595
31
0.0000000000
11
24.7339715461
21
-18.2867444138
31
0.0000000000
11
24.7535920399
21
-18.2588973299
31
0.0000000000
11
24.7700100887
21
-18.2289558580
31
0.0000000000
11
24.7829541844
21
-18.1974567575
31
0.0000000000
11
24.7923777943
21
-18.1644983449
31
0.0000000000
11
24.7980961851
21
-18.1305512590
31
0.0000000000
11
24.8000000000
21
-18.0962952155
31
0.0000000000
0
SPLINE
5
2C1
100
AcDbEntity
8
0
100
AcDbSpline
62
0
6
CONTINUOUS
70
0
71
3
72
14
73
10
74
8
42
0.0000001000
43
0.0000001000
44
0.0000000001
12
-0.2723152589
22
-0.2379897517
32
0.0000000000
13
-0.0330687766
23
-0.3600823952
33
0.0000000000
40
0.0000000000
40
0.0000000000
40
0.0000000000
40
0.0000000000
40
0.0148067241
40
0.0798891708
40
0.1448731778
40
0.2754732536
40
0.4086153035
40
0.6893180861
40
1.0000000000
40
1.0000000000
40
1.0000000000
40
1.0000000000
10
15.1563216716
20
-0.8854785423
30
0.0000000000
10
15.1549776393
20
-0.8866531585
30
0.0000000000
10
15.1477693083
20
-0.8930404137
30
0.0000000000
10
15.1351322758
20
-0.9051079499
30
0.0000000000
10
15.1137837532
20
-0.9281822940
30
0.0000000000
10
15.0896268946
20
-0.9597276302
30
0.0000000000
10
15.0562374564
20
-1.0163839539
30
0.0000000000
10
15.0254858666
20
-1.0988906981
30
0.0000000000
10
15.0138557721
20
-1.1696066523
30
0.0000000000
10
15.0104311485
20
-1.2068970148
30
0.0000000000
11
15.1563216716
21
-0.8854785423
31
0.0000000000
11
15.1523138788
21
-0.8890299785
31
0.0000000000
11
15.1352972161
21
-0.9052862511
31
0.0000000000
11
15.1193393506
21
-0.9225346023
31
0.0000000000
11
15.0906000117
21
-0.9600075407
31
0.0000000000
11
15.0660958619
21
-1.0014487936
31
0.0000000000
11
15.0297931298
21
-1.0962362431
31
0.0000000000
11
15.0104311485
21
-1.2068970148
31
0.0000000000
0
SPLINE
5
2C2
100
AcDbEntity
8
0
100
AcDbSpline
62
0
6
CONTINUOUS
70
0
71
3
72
127
73
123
74
121
42
0.0000001000
43
0.0000001000
44
0.0000000001
12
-0.0218391129
22
-1.3887355165
32
0.0000000000
13
0.0429975082
23
-1.3882268919
33
0.0000000000
40
0.0000000000
40
0.0000000000
40
0.0000000000
40
0.0000000000
40
0.0009623380
40
0.0036176186
40
0.0089489354
40
0.0143117419
40
0.0197103283
40
0.0306305542
40
0.0417431842
40
0.0530790715
40
0.0765284753
40
0.1011964908
40
0.1272638809
40
0.1408733387
40
0.1548879679
40
0.1620523103
40
0.1693236047
40
0.1767566488
40
0.1844716046
40
0.2007681450
40
0.2182327291
40
0.2567091387
40
0.2999758404
40
0.3234224831
40
0.3480842741
40
0.3739654168
40
0.3873644517
40
0.4010696461
40
0.4150813818
40
0.4294000163
40
0.4440258845
40
0.4589593007
40
0.4665414367
40
0.4742005688
40
0.4780590197
40
0.4819367323
40
0.4858337109
40
0.4897499594
40
0.4936854818
40
0.4956604720
40
0.4966497746
40
0.4976402822
40
0.4986319949
40
0.4996249128
40
0.4998733306
40
0.5001218238
40
0.5002460986
40
0.5003407296
40
0.5005003141
40
0.5008193854
40
0.5011383261
40
0.5017758162
40
0.5024127845
40
0.5036851555
40
0.5049554395
40
0.5062236368
40
0.5087537725
40
0.5112755652
40
0.5137890175
40
0.5187909107
40
0.5237594736
40
0.5286947278
40
0.5335966951
40
0.5433008535
40
0.5528721387
40
0.5623107431
40
0.5716168672
40
0.5898324647
40
0.6075207689
40
0.6246837309
40
0.6413234866
40
0.6574423800
40
0.6881274135
40
0.7027002915
40
0.7167643670
40
0.7303235229
40
0.7434120774
40
0.7562617860
40
0.7689250168
40
0.7937138197
40
0.8178290879
40
0.8296515577
40
0.8413260490
40
0.8528599175
40
0.8642607914
40
0.8755365686
40
0.8811302175
40
0.8866956760
40
0.8922340051
40
0.8977462811
40
0.9004930071
40
0.9018640752
40
0.9032336350
40
0.9039178549
40
0.9046017044
40
0.9052851854
40
0.9056267885
40
0.9059683003
40
0.9061390221
40
0.9062948525
40
0.9063986319
40
0.9065024034
40
0.9067099232
40
0.9069174120
40
0.9077470600
40
0.9085762246
40
0.9094049159
40
0.9110609156
40
0.9127151419
40
0.9143676754
40
0.9176679665
40
0.9209624577
40
0.9242518010
40
0.9275366516
40
0.9340953431
40
0.9406439844
40
0.9471878884
40
0.9537323792
40
0.9602827798
40
0.9734212005
40
0.9866465596
40
1.0000000000
40
1.0000000000
40
1.0000000000
40
1.0000000000
10
15.7739604542
20
-1.1900423892
30
0.0000000000
10
15.7739534486
20
-1.1904878668
30
0.0000000000
10
15.7739226927
20
-1.1921624359
30
0.0000000000
10
15.7738059811
20
-1.1963039429
30
0.0000000000
10
15.7734982440
20
-1.2024774914
30
0.0000000000
10
15.7729156323
20
-1.2099060356
30
0.0000000000
10
15.7718497232
20
-1.2198882103
30
0.0000000000
10
15.7699743869
20
-1.2324557153
30
0.0000000000
10
15.7668758514
20
-1.2475976437
30
0.0000000000
10
15.7615435047
20
-1.2681750996
30
0.0000000000
10
15.7526407387
20
-1.2942688226
30
0.0000000000
10
15.7386522648
20
-1.3256792196
30
0.0000000000
10
15.7243580097
20
-1.3518508160
30
0.0000000000
10
15.7112936213
20
-1.3730021673
30
0.0000000000
10
15.7023659190
20
-1.3864112799
30
0.0000000000
10
15.6948052849
20
-1.3971971108
30
0.0000000000
10
15.6888663180
20
-1.4053971718
30
0.0000000000
10
15.6826449908
20
-1.4137059802
30
0.0000000000
10
15.6737117262
20
-1.4252012971
30
0.0000000000
10
15.6615634026
20
-1.4400759353
30
0.0000000000
10
15.6396948982
20
-1.4653831638
30
0.0000000000
10
15.6083834856
20
-1.4990073937
30
0.0000000000
10
15.5738843347
20
-1.5333911424
30
0.0000000000
10
15.5432713607
20
-1.5625889891
30
0.0000000000
10
15.5181614661
20
-1.5858899966
30
0.0000000000
10
15.4962140629
20
-1.6057566003
30
0.0000000000
10
15.4778907357
20
-1.6220660301
30
0.0000000000
10
15.4636039692
20
-1.6346450400
30
0.0000000000
10
15.4489315339
20
-1.6474298674
30
0.0000000000
10
15.4338734114
20
-1.6604205106
30
0.0000000000
10
15.4184296041
20
-1.6736169672
30
0.0000000000
10
15.4053063229
20
-1.6847279850
30
0.0000000000
10
15.3946153823
20
-1.6937201646
30
0.0000000000
10
15.3878361893
20
-1.6993975089
30
0.0000000000
10
15.3823646841
20
-1.7039651651
30
0.0000000000
10
15.3782266812
20
-1.7074123397
30
0.0000000000
10
15.3740645705
20
-1.7108723767
30
0.0000000000
10
15.3698783519
20
-1.7143452758
30
0.0000000000
10
15.3663740433
20
-1.7172465204
30
0.0000000000
10
15.3639119908
20
-1.7192817801
30
0.0000000000
10
15.3625003724
20
-1.7204478170
30
0.0000000000
10
15.3614395040
20
-1.7213236782
30
0.0000000000
10
15.3603771393
20
-1.7222003559
30
0.0000000000
10
15.3595795695
20
-1.7228581319
30
0.0000000000
10
15.3590474314
20
-1.7232969562
30
0.0000000000
10
15.3588254763
20
-1.7234798278
30
0.0000000000
10
15.3586586141
20
-1.7236176005
30
0.0000000000
10
15.3585230986
20
-1.7237286873
30
0.0000000000
10
15.3583174614
20
-1.7238964864
30
0.0000000000
10
15.3580315701
20
-1.7241301916
30
0.0000000000
10
15.3575743212
20
-1.7245038594
30
0.0000000000
10
15.3570032322
20
-1.7249708061
30
0.0000000000
10
15.3560905897
20
-1.7257173574
30
0.0000000000
10
15.3549515413
20
-1.7266498300
30
0.0000000000
10
15.3535869171
20
-1.7277680937
30
0.0000000000
10
15.3517726427
20
-1.7292563428
30
0.0000000000
10
15.3495117891
20
-1.7311137530
30
0.0000000000
10
15.3468077161
20
-1.7333398490
30
0.0000000000
10
15.3432231610
20
-1.7362968834
30
0.0000000000
10
15.3387704065
20
-1.7399815592
30
0.0000000000
10
15.3334629414
20
-1.7443920083
30
0.0000000000
10
15.3282002363
20
-1.7487839145
30
0.0000000000
10
15.3212665809
20
-1.7545952823
30
0.0000000000
10
15.3127111023
20
-1.7618129048
30
0.0000000000
10
15.3025882612
20
-1.7704296556
30
0.0000000000
10
15.2926444471
20
-1.7789722329
30
0.0000000000
10
15.2797172519
20
-1.7901832177
30
0.0000000000
10
15.2640029676
20
-1.8040095553
30
0.0000000000
10
15.2457239416
20
-1.8204256654
30
0.0000000000
10
15.2281608560
20
-1.8365450549
30
0.0000000000
10
15.2113135428
20
-1.8523677305
30
0.0000000000
10
15.1901508331
20
-1.8727365711
30
0.0000000000
10
15.1700564371
20
-1.8928337165
30
0.0000000000
10
15.1510829217
20
-1.9126913531
30
0.0000000000
10
15.1378146137
20
-1.9270306587
30
0.0000000000
10
15.1252527010
20
-1.9410836397
30
0.0000000000
10
15.1133201279
20
-1.9549411191
30
0.0000000000
10
15.1019394573
20
-1.9687217657
30
0.0000000000
10
15.0874896344
20
-1.9869863289
30
0.0000000000
10
15.0705285267
20
-2.0099063874
30
0.0000000000
10
15.0548506488
20
-2.0332568923
30
0.0000000000
10
15.0432381056
20
-2.0519949820
30
0.0000000000
10
15.0350383389
20
-2.0659894457
30
0.0000000000
10
15.0272911854
20
-2.0800168989
30
0.0000000000
10
15.0199966540
20
-2.0940773518
30
0.0000000000
10
15.0142800243
20
-2.1058529537
30
0.0000000000
10
15.0099359074
20
-2.1152877096
30
0.0000000000
10
15.0067994897
20
-2.1223534473
30
0.0000000000
10
15.0037762236
20
-2.1294273650
30
0.0000000000
10
15.0013483436
20
-2.1353358900
30
0.0000000000
10
14.9996976896
20
-2.1394774804
30
0.0000000000
10
14.9987697176
20
-2.1418423844
30
0.0000000000
10
14.9981957933
20
-2.1433204550
30
0.0000000000
10
14.9977401957
20
-2.1445031624
30
0.0000000000
10
14.9974003545
20
-2.1453900774
30
0.0000000000
10
14.9971186011
20
-2.1461293837
30
0.0000000000
10
14.9968940551
20
-2.1467208812
30
0.0000000000
10
14.9967541548
20
-2.1470905934
30
0.0000000000
10
14.9966447458
20
-2.1473798843
30
0.0000000000
10
14.9965746690
20
-2.1475663840
30
0.0000000000
10
14.9965137158
20
-2.1477231876
30
0.0000000000
10
14.9964446157
20
-2.1479024964
30
0.0000000000
10
14.9963582434
20
-2.1481266051
30
0.0000000000
10
14.9961516101
20
-2.1486645135
30
0.0000000000
10
14.9958434670
20
-2.1494717311
30
0.0000000000
10
14.9954365221
20
-2.1505490620
30
0.0000000000
10
14.9948993662
20
-2.1519861529
30
0.0000000000
10
14.9942378376
20
-2.1537845281
30
0.0000000000
10
14.9934596765
20
-2.1559463392
30
0.0000000000
10
14.9924438139
20
-2.1588315734
30
0.0000000000
10
14.9912135670
20
-2.1624463044
30
0.0000000000
10
14.9898001567
20
-2.1667986996
30
0.0000000000
10
14.9884503304
20
-2.1711637660
30
0.0000000000
10
14.9867363206
20
-2.1769973975
30
0.0000000000
10
14.9847518660
20
-2.1843234911
30
0.0000000000
10
14.9826237658
20
-2.1931701543
30
0.0000000000
10
14.9807501613
20
-2.2020674923
30
0.0000000000
10
14.9791310744
20
-2.2110155420
30
0.0000000000
10
14.9773099227
20
-2.2230246642
30
0.0000000000
10
14.9756697606
20
-2.2381832961
30
0.0000000000
10
14.9747242760
20
-2.2565555386
30
0.0000000000
10
14.9747738363
20
-2.2688677986
30
0.0000000000
10
14.9749652246
20
-2.2750470003
30
0.0000000000
11
15.7739604542
21
-1.1900423892
31
0.0000000000
11
15.7739359233
21
-1.1913787597
31
0.0000000000
11
15.7738320446
21
-1.1950651961
31
0.0000000000
11
15.7734640172
21
-1.2024606710
31
0.0000000000
11
15.7728822964
21
-1.2098862822
31
0.0000000000
11
15.7720868823
21
-1.2173420297
31
0.0000000000
11
15.7698549741
21
-1.2323439334
31
0.0000000000
11
15.7667682925
21
-1.2474663822
31
0.0000000000
11
15.7628268376
21
-1.2627093760
31
0.0000000000
11
15.7523796076
21
-1.2935569990
31
0.0000000000
11
15.7385132842
21
-1.3248868022
31
0.0000000000
11
15.7212278673
21
-1.3566987857
31
0.0000000000
11
15.7113029988
21
-1.3727855951
31
0.0000000000
11
15.7005233569
21
-1.3889929496
31
0.0000000000
11
15.6948129960
21
-1.3971418312
31
0.0000000000
11
15.6888889417
21
-1.4053208491
31
0.0000000000
11
15.6826991590
21
-1.4135831351
31
0.0000000000
11
15.6761278964
21
-1.4220468804
31
0.0000000000
11
15.6618281879
21
-1.4395917610
31
0.0000000000
11
15.6459855686
21
-1.4579598282
31
0.0000000000
11
15.6096715974
21
-1.4971655221
31
0.0000000000
11
15.5671859828
21
-1.5396639622
31
0.0000000000
11
15.5436288092
21
-1.5621479621
31
0.0000000000
11
15.5185287247
21
-1.5854551485
31
0.0000000000
11
15.4918857294
21
-1.6095855215
31
0.0000000000
11
15.4779856402
21
-1.6219594029
31
0.0000000000
11
15.4636998232
21
-1.6345390810
31
0.0000000000
11
15.4490282786
21
-1.6473245557
31
0.0000000000
11
15.4339710062
21
-1.6603158271
31
0.0000000000
11
15.4185280061
21
-1.6735128951
31
0.0000000000
11
15.4026992783
21
-1.6869157597
31
0.0000000000
11
15.3946402665
21
-1.6936943657
31
0.0000000000
11
15.3864848228
21
-1.7005244209
31
0.0000000000
11
15.3823709389
21
-1.7039587420
31
0.0000000000
11
15.3782329471
21
-1.7074059253
31
0.0000000000
11
15.3740708473
21
-1.7108659709
31
0.0000000000
11
15.3698846396
21
-1.7143388788
31
0.0000000000
11
15.3656743238
21
-1.7178246490
31
0.0000000000
11
15.3635601254
21
-1.7195723575
31
0.0000000000
11
15.3625007661
21
-1.7204474176
31
0.0000000000
11
15.3614399000
21
-1.7213232815
31
0.0000000000
11
15.3603775272
21
-1.7221999494
31
0.0000000000
11
15.3593136477
21
-1.7230774211
31
0.0000000000
11
15.3590474424
21
-1.7232969147
31
0.0000000000
11
15.3587811429
21
-1.7235164585
31
0.0000000000
11
15.3586479578
21
-1.7236262492
31
0.0000000000
11
15.3585463316
21
-1.7237095952
31
0.0000000000
11
15.3583746827
21
-1.7238498219
31
0.0000000000
11
15.3580315162
21
-1.7241302212
31
0.0000000000
11
15.3576885246
21
-1.7244105479
31
0.0000000000
11
15.3570030658
21
-1.7249709842
31
0.0000000000
11
15.3563183064
21
-1.7255311307
31
0.0000000000
11
15.3549508858
21
-1.7266505546
31
0.0000000000
11
15.3535862628
21
-1.7277688195
31
0.0000000000
11
15.3522244374
21
-1.7288859254
31
0.0000000000
11
15.3495091793
21
-1.7311166605
31
0.0000000000
11
15.3468051114
21
-1.7333427599
31
0.0000000000
11
15.3441122339
21
-1.7355642234
31
0.0000000000
11
15.3387600496
21
-1.7399932433
31
0.0000000000
11
15.3334526266
21
-1.7444037200
31
0.0000000000
11
15.3281899647
21
-1.7487956537
31
0.0000000000
11
15.3229720640
21
-1.7531690444
31
0.0000000000
11
15.3126705461
21
-1.7618601965
31
0.0000000000
11
15.3025480729
21
-1.7704771763
31
0.0000000000
11
15.2926046444
21
-1.7790199839
31
0.0000000000
11
15.2828402607
21
-1.7874886193
31
0.0000000000
11
15.2638486272
21
-1.8042033733
31
0.0000000000
11
15.2455731726
21
-1.8206214382
31
0.0000000000
11
15.2280138968
21
-1.8367428142
31
0.0000000000
11
15.2111707998
21
-1.8525675012
31
0.0000000000
11
15.1950438817
21
-1.8680954992
31
0.0000000000
11
15.1649385818
21
-1.8982614281
31
0.0000000000
11
15.1509602001
21
-1.9128993591
31
0.0000000000
11
15.1376979972
21
-1.9272406011
31
0.0000000000
11
15.1251519731
21
-1.9412851541
31
0.0000000000
11
15.1132960881
21
-1.9550655518
31
0.0000000000
11
15.1019334172
21
-1.9688278305
31
0.0000000000
11
15.0910232734
21
-1.9826228242
31
0.0000000000
11
15.0705605670
21
-2.0103109562
31
0.0000000000
11
15.0519079688
21
-2.0381299480
31
0.0000000000
11
15.0432604603
21
-2.0520885163
31
0.0000000000
11
15.0350654788
21
-2.0660797995
31
0.0000000000
11
15.0273230245
21
-2.0801037976
31
0.0000000000
11
15.0200330972
21
-2.0941605107
31
0.0000000000
11
15.0131956969
21
-2.1082499387
31
0.0000000000
11
15.0099466945
21
-2.1153069208
31
0.0000000000
11
15.0068108238
21
-2.1223720816
31
0.0000000000
11
15.0037880848
21
-2.1294454211
31
0.0000000000
11
15.0008784777
21
-2.1365269394
31
0.0000000000
11
14.9994660985
21
-2.1400707656
31
0.0000000000
11
14.9987705150
21
-2.1418434454
31
0.0000000000
11
14.9980820023
21
-2.1436166364
31
0.0000000000
11
14.9977403974
21
-2.1445034236
31
0.0000000000
11
14.9974005602
21
-2.1453903386
31
0.0000000000
11
14.9970624908
21
-2.1462773814
31
0.0000000000
11
14.9968941189
21
-2.1467209507
31
0.0000000000
11
14.9967261890
21
-2.1471645520
31
0.0000000000
11
14.9966423897
21
-2.1473863646
31
0.0000000000
11
14.9965657349
21
-2.1475887669
31
0.0000000000
11
14.9965137800
21
-2.1477232160
31
0.0000000000
11
14.9964618871
21
-2.1478576775
31
0.0000000000
11
14.9963582876
21
-2.1481266375
31
0.0000000000
11
14.9962549364
21
-2.1483956468
31
0.0000000000
11
14.9958440152
21
-2.1494721786
31
0.0000000000
11
14.9954370674
21
-2.1505495010
31
0.0000000000
11
14.9950340932
21
-2.1516276141
31
0.0000000000
11
14.9942400654
21
-2.1537862123
31
0.0000000000
11
14.9934619315
21
-2.1559479733
31
0.0000000000
11
14.9926996918
21
-2.1581128969
31
0.0000000000
11
14.9912228944
21
-2.1624522325
31
0.0000000000
11
14.9898096732
21
-2.1668042189
31
0.0000000000
11
14.9884600283
21
-2.1711688562
31
0.0000000000
11
14.9871739596
21
-2.1755461444
31
0.0000000000
11
14.9847925507
21
-2.1843386734
31
0.0000000000
11
14.9826654468
21
-2.1931818060
31
0.0000000000
11
14.9807926477
21
-2.2020755422
31
0.0000000000
11
14.9791741534
21
-2.2110198819
31
0.0000000000
11
14.9778099640
21
-2.2200148251
31
0.0000000000
11
14.9758444997
21
-2.2381565223
31
0.0000000000
11
14.9748962549
21
-2.2565006338
31
0.0000000000
11
14.9749652246
21
-2.2750470003
31
0.0000000000
0
SPLINE
5
2C3
100
AcDbEntity
8
0
100
AcDbSpline
62
0
6
CONTINUOUS
70
0
71
3
72
101
73
97
74
95
42
0.0000001000
43
0.0000001000
44
0.0000000001
12
-0.2247972875
22
1.6323410872
32
0.0000000000
13
0.2578312472
23
-1.6270315553
33
0.0000000000
40
0.0000000000
40
0.0000000000
40
0.0000000000
40
0.0000000000
40
0.0533114310
40
0.0778241798
40
0.0894926055
40
0.1007824020
40
0.1117055375
40
0.1170339069
40
0.1222840051
40
0.1326729100
40
0.1429331258
40
0.1630996703
40
0.1828576038
40
0.2022833338
40
0.2214572396
40
0.2404628959
40
0.2593861068
40
0.2783137975
40
0.2878078491
40
0.2973355104
40
0.3068453014
40
0.3162843617
40
0.3349841397
40
0.3535110691
40
0.3719412316
40
0.3903519086
40
0.3995753900
40
0.4088230286
40
0.4181043904
40
0.4274289378
40
0.4368060023
40
0.4415172439
40
0.4462450408
40
0.4509905117
40
0.4557547631
40
0.4581442905
40
0.4605389219
40
0.4629387918
40
0.4641407351
40
0.4653440380
40
0.4659462048
40
0.4665487177
40
0.4671515788
40
0.4674531406
40
0.4677547902
40
0.4679056480
40
0.4680565279
40
0.4684577751
40
0.4688753765
40
0.4692927390
40
0.4701267495
40
0.4709598113
40
0.4726231069
40
0.4742826642
40
0.4775907060
40
0.4808842514
40
0.4841636095
40
0.4906809414
40
0.4971453334
40
0.5035594026
40
0.5162466581
40
0.5287655217
40
0.5411390499
40
0.5655400941
40
0.5896546345
40
0.6136887609
40
0.6378506207
40
0.6623451051
40
0.6747819346
40
0.6873747114
40
0.7001187922
40
0.7128165483
40
0.7254456340
40
0.7380326602
40
0.7631814014
40
0.7884847944
40
0.8141542762
40
0.8403924349
40
0.8673890594
40
0.8812294525
40
0.8953234039
40
0.9096900696
40
0.9169816340
40
0.9243480684
40
0.9317914692
40
0.9355427005
40
0.9374172776
40
0.9392400804
40
0.9428712462
40
0.9464833648
40
0.9536513595
40
0.9607460818
40
0.9677695507
40
0.9816105725
40
0.9951923422
40
1.0000000000
40
1.0000000000
40
1.0000000000
40
1.0000000000
10
13.6488334919
20
-1.2669369930
30
0.0000000000
10
13.6448387369
20
-1.2379295133
30
0.0000000000
10
13.6374338592
20
-1.1957725768
30
0.0000000000
10
13.6251586797
20
-1.1481642986
30
0.0000000000
10
13.6175225736
20
-1.1232377658
30
0.0000000000
10
13.6115155866
20
-1.1056267523
30
0.0000000000
10
13.6061538507
20
-1.0914828168
30
0.0000000000
10
13.6016710257
20
-1.0805598496
30
0.0000000000
10
13.5971003629
20
-1.0699924582
30
0.0000000000
10
13.5911920970
20
-1.0570544900
30
0.0000000000
10
13.5813001970
20
-1.0369412342
30
0.0000000000
10
13.5680671713
20
-1.0127502331
30
0.0000000000
10
13.5507001962
20
-0.9851500135
30
0.0000000000
10
13.5319372964
20
-0.9591463472
30
0.0000000000
10
13.5117785083
20
-0.9347417138
30
0.0000000000
10
13.4902239032
20
-0.9119377385
30
0.0000000000
10
13.4672753664
20
-0.8907363301
30
0.0000000000
10
13.4470079064
20
-0.8744208711
30
0.0000000000
10
13.4301338711
20
-0.8621889791
30
0.0000000000
10
13.4171419424
20
-0.8534286952
30
0.0000000000
10
13.4039052641
20
-0.8451002283
30
0.0000000000
10
13.3860807841
20
-0.8346238479
30
0.0000000000
10
13.3633923984
20
-0.8226752970
30
0.0000000000
10
13.3354821332
20
-0.8101753262
30
0.0000000000
10
13.3069713008
20
-0.7995593079
30
0.0000000000
10
13.2827253356
20
-0.7922871137
30
0.0000000000
10
13.2630648348
20
-0.7874178933
30
0.0000000000
10
13.2481598107
20
-0.7842329628
30
0.0000000000
10
13.2331058745
20
-0.7815178312
30
0.0000000000
10
13.2179029741
20
-0.7792724011
30
0.0000000000
10
13.2051299715
20
-0.7777949802
30
0.0000000000
10
13.1948413827
20
-0.7768470740
30
0.0000000000
10
13.1870751543
20
-0.7762523162
30
0.0000000000
10
13.1792717015
20
-0.7757748938
30
0.0000000000
10
13.1727444891
20
-0.7754751257
30
0.0000000000
10
13.1675046001
20
-0.7752938080
30
0.0000000000
10
13.1635612936
20
-0.7751870059
30
0.0000000000
10
13.1602692749
20
-0.7751224800
30
0.0000000000
10
13.1576310638
20
-0.7750854992
30
0.0000000000
10
13.1559797915
20
-0.7750684878
30
0.0000000000
10
13.1546576169
20
-0.7750585414
30
0.0000000000
10
13.1536651206
20
-0.7750529123
30
0.0000000000
10
13.1528376752
20
-0.7750497494
30
0.0000000000
10
13.1521754286
20
-0.7750481349
30
0.0000000000
10
13.1517613734
20
-0.7750475079
30
0.0000000000
10
13.1514300565
20
-0.7750472349
30
0.0000000000
10
13.1510440510
20
-0.7750470965
30
0.0000000000
10
13.1505115778
20
-0.7750473377
30
0.0000000000
10
13.1498327811
20
-0.7750484191
30
0.0000000000
10
13.1489163589
20
-0.7750509618
30
0.0000000000
10
13.1477718166
20
-0.7750561601
30
0.0000000000
10
13.1459431704
20
-0.7750687887
30
0.0000000000
10
13.1436612931
20
-0.7750926522
30
0.0000000000
10
13.1400207122
20
-0.7751480558
30
0.0000000000
10
13.1354856196
20
-0.7752495718
30
0.0000000000
10
13.1300627368
20
-0.7754233164
30
0.0000000000
10
13.1228811258
20
-0.7757233937
30
0.0000000000
10
13.1139658463
20
-0.7762272150
30
0.0000000000
10
13.1033460517
20
-0.7770403003
30
0.0000000000
10
13.0893728295
20
-0.7783956822
30
0.0000000000
10
13.0721458805
20
-0.7806037287
30
0.0000000000
10
13.0518016285
20
-0.7840934247
30
0.0000000000
10
13.0253416266
20
-0.7898253251
30
0.0000000000
10
12.9931597599
20
-0.7990700065
30
0.0000000000
10
12.9559913011
20
-0.8135591656
30
0.0000000000
10
12.9204511395
20
-0.8313932579
30
0.0000000000
10
12.8865500973
20
-0.8525663194
30
0.0000000000
10
12.8598002689
20
-0.8728900138
30
0.0000000000
10
12.8392690456
20
-0.8907317170
30
0.0000000000
10
12.8242100311
20
-0.9050038023
30
0.0000000000
10
12.8096509147
20
-0.9199859010
30
0.0000000000
10
12.7957658621
20
-0.9356226916
30
0.0000000000
10
12.7826647001
20
-0.9518115903
30
0.0000000000
10
12.7662718704
20
-0.9740944586
30
0.0000000000
10
12.7477193968
20
-1.0033814280
30
0.0000000000
10
12.7286871639
20
-1.0406592720
30
0.0000000000
10
12.7128852768
20
-1.0800617368
30
0.0000000000
10
12.7003136320
20
-1.1215774409
30
0.0000000000
10
12.6925892582
20
-1.1576327028
30
0.0000000000
10
12.6879871662
20
-1.1874476023
30
0.0000000000
10
12.6853074926
20
-1.2105253371
30
0.0000000000
10
12.6837497545
20
-1.2300991627
30
0.0000000000
10
12.6828981237
20
-1.2460143286
30
0.0000000000
10
12.6824562618
20
-1.2581426470
30
0.0000000000
10
12.6822552531
20
-1.2683329481
30
0.0000000000
10
12.6822015177
20
-1.2755090539
30
0.0000000000
10
12.6821955692
20
-1.2795990562
30
0.0000000000
10
12.6822058389
20
-1.2836231196
30
0.0000000000
10
12.6822484380
20
-1.2886011426
30
0.0000000000
10
12.6823801651
20
-1.2965132771
30
0.0000000000
10
12.6826636202
20
-1.3063246462
30
0.0000000000
10
12.6831962087
20
-1.3180012178
30
0.0000000000
10
12.6841570094
20
-1.3333240054
30
0.0000000000
10
12.6858304293
20
-1.3521682999
30
0.0000000000
10
12.6880326021
20
-1.3697326352
30
0.0000000000
10
12.6895449242
20
-1.3797167042
30
0.0000000000
10
12.6899581123
20
-1.3823241079
30
0.0000000000
11
13.6488334919
21
-1.2669369930
31
0.0000000000
11
13.6331593140
21
-1.1805272587
31
0.0000000000
11
13.6230033989
21
-1.1414458004
31
0.0000000000
11
13.6173641934
21
-1.1230704138
31
0.0000000000
11
13.6113508226
21
-1.1054719222
31
0.0000000000
11
13.6049632865
21
-1.0886503257
31
0.0000000000
11
13.6016292065
21
-1.0805308630
31
0.0000000000
11
13.5982027032
21
-1.0725902048
31
0.0000000000
11
13.5910883609
21
-1.0570255772
31
0.0000000000
11
13.5836272479
21
-1.0418600724
31
0.0000000000
11
13.5676647099
21
-1.0127264309
31
0.0000000000
11
13.5503150893
21
-0.9851892804
31
0.0000000000
11
13.5315783860
21
-0.9592486208
31
0.0000000000
11
13.5114546000
21
-0.9349044522
31
0.0000000000
11
13.4899437314
21
-0.9121567746
31
0.0000000000
11
13.4670457801
21
-0.8910055879
31
0.0000000000
11
13.4427607461
21
-0.8714508922
31
0.0000000000
11
13.4300980732
21
-0.8622722285
31
0.0000000000
11
13.4170886296
21
-0.8534926875
31
0.0000000000
11
13.4038312698
21
-0.8451473167
31
0.0000000000
11
13.3904248483
21
-0.8372711635
31
0.0000000000
11
13.3631648203
21
-0.8229265100
31
0.0000000000
11
13.3353085457
21
-0.8104587272
31
0.0000000000
11
13.3068560243
21
-0.7998678148
31
0.0000000000
11
13.2778072563
21
-0.7911537730
31
0.0000000000
11
13.2630592798
21
-0.7875005785
31
0.0000000000
11
13.2481622416
21
-0.7843166017
31
0.0000000000
11
13.2331161417
21
-0.7816018426
31
0.0000000000
11
13.2179209802
21
-0.7793563010
31
0.0000000000
11
13.2025767570
21
-0.7775799771
31
0.0000000000
11
13.1948487472
21
-0.7768677718
31
0.0000000000
11
13.1870834721
21
-0.7762728708
31
0.0000000000
11
13.1792809315
21
-0.7757952743
31
0.0000000000
11
13.1714411255
21
-0.7754349822
31
0.0000000000
11
13.1675072480
21
-0.7752988253
31
0.0000000000
11
13.1635640541
21
-0.7751919945
31
0.0000000000
11
13.1596115439
21
-0.7751144898
31
0.0000000000
11
13.1576317951
21
-0.7750867347
31
0.0000000000
11
13.1556497173
21
-0.7750663112
31
0.0000000000
11
13.1546578050
21
-0.7750588488
31
0.0000000000
11
13.1536653104
21
-0.7750532192
31
0.0000000000
11
13.1526722335
21
-0.7750494225
31
0.0000000000
11
13.1521754767
21
-0.7750482115
31
0.0000000000
11
13.1516785743
21
-0.7750474587
31
0.0000000000
11
13.1514300686
21
-0.7750472541
31
0.0000000000
11
13.1511815264
21
-0.7750471641
31
0.0000000000
11
13.1505205579
21
-0.7750474567
31
0.0000000000
11
13.1498326502
21
-0.7750485548
31
0.0000000000
11
13.1491451378
21
-0.7750504621
31
0.0000000000
11
13.1477712989
21
-0.7750567041
31
0.0000000000
11
13.1463990411
21
-0.7750661826
31
0.0000000000
11
13.1436592691
21
-0.7750948495
31
0.0000000000
11
13.1409258217
21
-0.7751364627
31
0.0000000000
11
13.1354779008
21
-0.7752585280
31
0.0000000000
11
13.1300552785
21
-0.7754323786
31
0.0000000000
11
13.1246579548
21
-0.7756580145
31
0.0000000000
11
13.1139392031
21
-0.7762646421
31
0.0000000000
11
13.1033216456
21
-0.7770784109
31
0.0000000000
11
13.0928052824
21
-0.7780993208
31
0.0000000000
11
13.0720761389
21
-0.7807625640
31
0.0000000000
11
13.0517517725
21
-0.7842543718
31
0.0000000000
11
13.0318321833
21
-0.7885747442
31
0.0000000000
11
12.9932073362
21
-0.7997011826
31
0.0000000000
11
12.9562015976
21
-0.8141418792
31
0.0000000000
11
12.9208149676
21
-0.8318968341
31
0.0000000000
11
12.8870474461
21
-0.8529660473
31
0.0000000000
11
12.8548990331
21
-0.8773495187
31
0.0000000000
11
12.8394319924
21
-0.8907841012
31
0.0000000000
11
12.8243697287
21
-0.9050472483
31
0.0000000000
11
12.8097485382
21
-0.9201115276
31
0.0000000000
11
12.7958628216
21
-0.9357544318
31
0.0000000000
11
12.7827771051
21
-0.9519271924
31
0.0000000000
11
12.7704913888
21
-0.9686298091
31
0.0000000000
11
12.7483199565
21
-1.0036246115
31
0.0000000000
11
12.7293485248
21
-1.0407388390
31
0.0000000000
11
12.7135770936
21
-1.0799724915
31
0.0000000000
11
12.7010056629
21
-1.1213255691
31
0.0000000000
11
12.6916342328
21
-1.1647980718
31
0.0000000000
11
12.6881485179
21
-1.1873291076
31
0.0000000000
11
12.6854628032
21
-1.2103899996
31
0.0000000000
11
12.6835770886
21
-1.2339807479
31
0.0000000000
11
12.6829342313
21
-1.2459748181
31
0.0000000000
11
12.6824913741
21
-1.2581013525
31
0.0000000000
11
12.6822485169
21
-1.2703603508
31
0.0000000000
11
12.6822020884
21
-1.2765395241
31
0.0000000000
11
12.6821976187
21
-1.2796274837
31
0.0000000000
11
12.6822053136
21
-1.2826301500
31
0.0000000000
11
12.6822566132
21
-1.2886114954
31
0.0000000000
11
12.6823557924
21
-1.2945608582
31
0.0000000000
11
12.6826977896
21
-1.3063636357
31
0.0000000000
11
12.6832313053
21
-1.3180384825
31
0.0000000000
11
12.6839563394
21
-1.3295853985
31
0.0000000000
11
12.6859809630
21
-1.3522954382
31
0.0000000000
11
12.6887716603
21
-1.3744937550
31
0.0000000000
11
12.6899581123
21
-1.3823241079
31
0.0000000000
0
SPLINE
5
2C4
100
AcDbEntity
8
0
100
AcDbSpline
62
0
6
CONTINUOUS
70
0
71
3
72
76
73
72
74
70
42
0.0000001000
43
0.0000001000
44
0.0000000001
12
0.1655651184
22
-1.0447906330
32
0.0000000000
13
0.5615897231
23
0.8964096065
33
0.0000000000
40
0.0000000000
40
0.0000000000
40
0.0000000000
40
0.0000000000
40
0.0132887049
40
0.0538291873
40
0.0932518483
40
0.1698176482
40
0.2076545067
40
0.2265960716
40
0.2456029945
40
0.2647147811
40
0.2742922833
40
0.2837952703
40
0.3025775670
40
0.3210896647
40
0.3574291030
40
0.3931034651
40
0.4284103931
40
0.4636568389
40
0.4991513235
40
0.5170910390
40
0.5352050330
40
0.5443390904
40
0.5535299586
40
0.5627818946
40
0.5720990719
40
0.5814855769
40
0.5862061411
40
0.5909455281
40
0.5933224394
40
0.5945127249
40
0.5957042397
40
0.5968969912
40
0.5980909869
40
0.5986884537
40
0.5989873047
40
0.5992176938
40
0.5993966773
40
0.5995756392
40
0.5999334978
40
0.6002912700
40
0.6006489560
40
0.6013640703
40
0.6027932752
40
0.6042211293
40
0.6056476491
40
0.6084967469
40
0.6113407042
40
0.6141796535
40
0.6170137277
40
0.6226677526
40
0.6283038900
40
0.6339232278
40
0.6395268637
40
0.6506911865
40
0.6618060912
40
0.6728806547
40
0.6839240538
40
0.6949455427
40
0.7169577231
40
0.7389942600
40
0.7611296490
40
0.7834373955
40
0.7946795269
40
0.8059841653
40
0.8172327876
40
0.8283864268
40
0.8504351601
40
0.8721901764
40
0.9150470482
40
0.9574769068
40
1.0000000000
40
1.0000000000
40
1.0000000000
40
1.0000000000
10
12.6899581123
20
-1.3823241079
30
0.0000000000
10
12.6906914943
20
-1.3869520794
30
0.0000000000
10
12.6938895560
20
-1.4056632041
30
0.0000000000
10
12.7010767175
20
-1.4377909798
30
0.0000000000
10
12.7175375052
20
-1.4905181870
30
0.0000000000
10
12.7404272687
20
-1.5400739308
30
0.0000000000
10
12.7659187001
20
-1.5796496956
30
0.0000000000
10
12.7819072719
20
-1.6010717634
30
0.0000000000
10
12.7946714297
20
-1.6166327701
30
0.0000000000
10
12.8059219991
20
-1.6291413783
30
0.0000000000
10
12.8152554441
20
-1.6388499639
30
0.0000000000
10
12.8246936618
20
-1.6482929843
30
0.0000000000
10
12.8367125918
20
-1.6596065468
30
0.0000000000
10
12.8563493354
20
-1.6766004681
30
0.0000000000
10
12.8818118994
20
-1.6959231612
30
0.0000000000
10
12.9139382073
20
-1.7160176031
30
0.0000000000
10
12.9474486985
20
-1.7328738003
30
0.0000000000
10
12.9823334620
20
-1.7464851581
30
0.0000000000
10
13.0124444556
20
-1.7550930542
30
0.0000000000
10
13.0371235214
20
-1.7603583381
30
0.0000000000
10
13.0528451080
20
-1.7629828060
30
0.0000000000
10
13.0655814029
20
-1.7646816243
30
0.0000000000
10
13.0752459860
20
-1.7657582634
30
0.0000000000
10
13.0849956207
20
-1.7666337452
30
0.0000000000
10
13.0948303531
20
-1.7673080968
30
0.0000000000
10
13.1030809696
20
-1.7677016872
30
0.0000000000
10
13.1097228231
20
-1.7679165563
30
0.0000000000
10
13.1138955411
20
-1.7680091278
30
0.0000000000
10
13.1168241293
20
-1.7680519799
30
0.0000000000
10
13.1185019479
20
-1.7680702184
30
0.0000000000
10
13.1197622878
20
-1.7680807628
30
0.0000000000
10
13.1210239582
20
-1.7680881659
30
0.0000000000
10
13.1220761837
20
-1.7680917161
30
0.0000000000
10
13.1228132250
20
-1.7680928285
30
0.0000000000
10
13.1232105005
20
-1.7680930569
30
0.0000000000
10
13.1234602193
20
-1.7680930651
30
0.0000000000
10
13.1236676653
20
-1.7680929715
30
0.0000000000
10
13.1239200569
20
-1.7680927518
30
0.0000000000
10
13.1242354888
20
-1.7680922780
30
0.0000000000
10
13.1246139381
20
-1.7680913912
30
0.0000000000
10
13.1251183537
20
-1.7680897845
30
0.0000000000
10
13.1260005493
20
-1.7680858597
30
0.0000000000
10
13.1272600653
20
-1.7680770709
30
0.0000000000
10
13.1287703719
20
-1.7680614278
30
0.0000000000
10
13.1307812224
20
-1.7680337914
30
0.0000000000
10
13.1332911522
20
-1.7679865277
30
0.0000000000
10
13.1362985605
20
-1.7679094090
30
0.0000000000
10
13.1393000795
20
-1.7678119140
30
0.0000000000
10
13.1432909203
20
-1.7676548835
30
0.0000000000
10
13.1482651475
20
-1.7674077617
30
0.0000000000
10
13.1542155878
20
-1.7670294539
30
0.0000000000
10
13.1601424842
20
-1.7665696265
30
0.0000000000
10
13.1680034458
20
-1.7658487689
30
0.0000000000
10
13.1777741152
20
-1.7647443007
30
0.0000000000
10
13.1894194148
20
-1.7630909849
30
0.0000000000
10
13.2009704905
20
-1.7611113914
30
0.0000000000
10
13.2124273802
20
-1.7588054679
30
0.0000000000
10
13.2275697172
20
-1.7552977466
30
0.0000000000
10
13.2462886671
20
-1.7500906611
30
0.0000000000
10
13.2683805257
20
-1.7425313411
30
0.0000000000
10
13.2900932903
20
-1.7336643926
30
0.0000000000
10
13.3078252148
20
-1.7252061598
30
0.0000000000
10
13.3218035956
20
-1.7178038182
30
0.0000000000
10
13.3321738838
20
-1.7119311599
30
0.0000000000
10
13.3423695960
20
-1.7058213448
30
0.0000000000
10
13.3556108701
20
-1.6974331202
30
0.0000000000
10
13.3715848256
20
-1.6864460461
30
0.0000000000
10
13.3958341856
20
-1.6678362779
30
0.0000000000
10
13.4239088865
20
-1.6424880918
30
0.0000000000
10
13.4538749057
20
-1.6087122631
30
0.0000000000
10
13.4711775139
20
-1.5841718249
30
0.0000000000
10
13.4791376912
20
-1.5714657885
30
0.0000000000
11
12.6899581123
21
-1.3823241079
31
0.0000000000
11
12.6923284315
21
-1.3961803487
31
0.0000000000
11
12.7017401952
21
-1.4380183671
31
0.0000000000
11
12.7142162540
21
-1.4778094934
31
0.0000000000
11
12.7483612570
21
-1.5512510699
31
0.0000000000
11
12.7700302013
21
-1.5849015201
31
0.0000000000
11
12.7820137841
21
-1.6009591607
31
0.0000000000
11
12.7947634407
21
-1.6165050783
31
0.0000000000
11
12.8082791711
21
-1.6315392728
31
0.0000000000
11
12.8152971810
21
-1.6388458216
31
0.0000000000
11
12.8224046893
21
-1.6459543067
31
0.0000000000
11
12.8368751775
21
-1.6595681327
31
0.0000000000
11
12.8516862945
21
-1.6723777664
31
0.0000000000
11
12.8823304145
21
-1.6955844571
31
0.0000000000
11
12.9143370495
21
-1.7155743788
31
0.0000000000
11
12.9477061993
21
-1.7323475315
31
0.0000000000
11
12.9824378640
21
-1.7459039152
31
0.0000000000
11
13.0185320437
21
-1.7562435299
31
0.0000000000
11
13.0370900765
21
-1.7602070488
31
0.0000000000
11
13.0559887382
21
-1.7633663755
31
0.0000000000
11
13.0655658047
21
-1.7646444668
31
0.0000000000
11
13.0752280285
21
-1.7657215100
31
0.0000000000
11
13.0849754094
21
-1.7665975051
31
0.0000000000
11
13.0948079476
21
-1.7672724522
31
0.0000000000
11
13.1047256429
21
-1.7677463512
31
0.0000000000
11
13.1097164244
21
-1.7679079077
31
0.0000000000
11
13.1147284953
21
-1.7680192022
31
0.0000000000
11
13.1172425143
21
-1.7680560011
31
0.0000000000
11
13.1185015196
21
-1.7680696886
31
0.0000000000
11
13.1197618555
21
-1.7680802346
31
0.0000000000
11
13.1210235220
21
-1.7680876393
31
0.0000000000
11
13.1222865191
21
-1.7680919026
31
0.0000000000
11
13.1229185166
21
-1.7680928562
31
0.0000000000
11
13.1232346401
21
-1.7680930385
31
0.0000000000
11
13.1234783449
21
-1.7680930435
31
0.0000000000
11
13.1236676730
21
-1.7680929583
31
0.0000000000
11
13.1238569781
21
-1.7680927934
31
0.0000000000
11
13.1242355192
21
-1.7680922249
31
0.0000000000
11
13.1246139683
21
-1.7680913380
31
0.0000000000
11
13.1249923253
21
-1.7680901328
31
0.0000000000
11
13.1257487632
21
-1.7680867672
31
0.0000000000
11
13.1272605341
21
-1.7680762157
31
0.0000000000
11
13.1287708320
21
-1.7680605704
31
0.0000000000
11
13.1302796570
21
-1.7680398312
31
0.0000000000
11
13.1332928878
21
-1.7679830713
31
0.0000000000
11
13.1363002266
21
-1.7679059361
31
0.0000000000
11
13.1393016733
21
-1.7678084255
31
0.0000000000
11
13.1422972280
21
-1.7676905396
31
0.0000000000
11
13.1482706614
21
-1.7673936418
31
0.0000000000
11
13.1542205266
21
-1.7670152427
31
0.0000000000
11
13.1601468237
21
-1.7665553421
31
0.0000000000
11
13.1660495527
21
-1.7660139403
31
0.0000000000
11
13.1777843063
21
-1.7646866324
31
0.0000000000
11
13.1894247873
21
-1.7630333192
31
0.0000000000
11
13.2009709959
21
-1.7610540005
31
0.0000000000
11
13.2124229319
21
-1.7587486764
31
0.0000000000
11
13.2237805954
21
-1.7561173468
31
0.0000000000
11
13.2462131050
21
-1.7498766714
31
0.0000000000
11
13.2682685245
21
-1.7423319743
31
0.0000000000
11
13.2899468540
21
-1.7334832554
31
0.0000000000
11
13.3112480935
21
-1.7233305148
31
0.0000000000
11
13.3217573044
21
-1.7177651364
31
0.0000000000
11
13.3321662901
21
-1.7118789732
31
0.0000000000
11
13.3423723638
21
-1.7057620818
31
0.0000000000
11
13.3523383203
21
-1.6994470915
31
0.0000000000
11
13.3715498820
21
-1.6862228140
31
0.0000000000
11
13.3898009750
21
-1.6722061407
31
0.0000000000
11
13.4234217550
21
-1.6417956066
31
0.0000000000
11
13.4532006604
21
-1.6082154892
31
0.0000000000
11
13.4791376912
21
-1.5714657885
31
0.0000000000
0
SPLINE
5
2C5
100
AcDbEntity
8
0
100
AcDbSpline
62
0
6
CONTINUOUS
70
0
71
3
72
125
73
121
74
119
42
0.0000001000
43
0.0000001000
44
0.0000000001
12
0.2511533792
22
-1.6278202659
32
0.0000000000
13
-0.2538313148
23
1.6274641869
33
0.0000000000
40
0.0000000000
40
0.0000000000
40
0.0000000000
40
0.0000000000
40
0.0124182773
40
0.0496517901
40
0.0846442546
40
0.1175709800
40
0.1486422610
40
0.1781081456
40
0.1923339721
40
0.2062719815
40
0.2199647841
40
0.2334419951
40
0.2467259514
40
0.2598404345
40
0.2856541880
40
0.3110964479
40
0.3363834712
40
0.3617354875
40
0.3745077325
40
0.3873776708
40
0.4003714488
40
0.4135144741
40
0.4201500362
40
0.4268320378
40
0.4335633990
40
0.4403469762
40
0.4471855605
40
0.4506263759
40
0.4540819589
40
0.4575526394
40
0.4610387429
40
0.4627876838
40
0.4645406007
40
0.4662975329
40
0.4671775177
40
0.4680585210
40
0.4689405477
40
0.4693819464
40
0.4698236028
40
0.4700445278
40
0.4702514605
40
0.4703162804
40
0.4703810949
40
0.4705107075
40
0.4707698674
40
0.4710289403
40
0.4715468258
40
0.4720643653
40
0.4730984105
40
0.4741310860
40
0.4751624013
40
0.4772209878
40
0.4792742503
40
0.4813222675
40
0.4854028629
40
0.4894634342
40
0.4935046315
40
0.5015313825
40
0.5094886650
40
0.5173820064
40
0.5252170698
40
0.5329996451
40
0.5484295545
40
0.5637216892
40
0.5789258595
40
0.5940927423
40
0.6092733878
40
0.6168855905
40
0.6245195991
40
0.6397477874
40
0.6549149392
40
0.6700753510
40
0.7005795637
40
0.7317001557
40
0.7476242960
40
0.7638501616
40
0.7720908749
40
0.7804102082
40
0.7970064137
40
0.8135313197
40
0.8300234190
40
0.8465214339
40
0.8630640451
40
0.8796896221
40
0.8880459459
40
0.8964371206
40
0.9048677419
40
0.9133423412
40
0.9175975985
40
0.9218655169
40
0.9261466421
40
0.9282923349
40
0.9304415318
40
0.9325942995
40
0.9347507045
40
0.9369108129
40
0.9379922775
40
0.9390746925
40
0.9396162592
40
0.9401580665
40
0.9407001156
40
0.9408356657
40
0.9409712311
40
0.9411231244
40
0.9413293623
40
0.9417416573
40
0.9421537113
40
0.9429770978
40
0.9437995250
40
0.9446209959
40
0.9462610806
40
0.9478973771
40
0.9495299104
40
0.9511587053
40
0.9544051747
40
0.9576369949
40
0.9640574619
40
0.9767314177
40
0.9891950343
40
1.0000000000
40
1.0000000000
40
1.0000000000
40
1.0000000000
10
11.5301212052
20
-1.8104147015
30
0.0000000000
10
11.5311608360
20
-1.8171529426
30
0.0000000000
10
11.5355583666
20
-1.8440574694
30
0.0000000000
10
11.5447891188
20
-1.8896352693
30
0.0000000000
10
11.5599805394
20
-1.9453797779
30
0.0000000000
10
11.5781781088
20
-1.9966519763
30
0.0000000000
10
11.5993918257
20
-2.0434469735
30
0.0000000000
10
11.6198366836
20
-2.0791268868
30
0.0000000000
10
11.6377047865
20
-2.1052536640
30
0.0000000000
10
11.6516958821
20
-2.1235007030
30
0.0000000000
10
11.6664503547
20
-2.1405906912
30
0.0000000000
10
11.6816047825
20
-2.1568341041
30
0.0000000000
10
11.6972074316
20
-2.1722014789
30
0.0000000000
10
11.7184765390
20
-2.1914298227
30
0.0000000000
10
11.7462314305
20
-2.2133901175
30
0.0000000000
10
11.7814799702
20
-2.2363790298
30
0.0000000000
10
11.8184949162
20
-2.2558637854
30
0.0000000000
10
11.8507347290
20
-2.2691457193
30
0.0000000000
10
11.8773024793
20
-2.2780007526
30
0.0000000000
10
11.8977173306
20
-2.2837885178
30
0.0000000000
10
11.9185677584
20
-2.2887044989
30
0.0000000000
10
11.9362500987
20
-2.2920643311
30
0.0000000000
10
11.9506022038
20
-2.2943194215
30
0.0000000000
10
11.9615104010
20
-2.2957987884
30
0.0000000000
10
11.9725276201
20
-2.2970606674
30
0.0000000000
10
11.9836539002
20
-2.2981050816
30
0.0000000000
10
11.9929971746
20
-2.2987927705
30
0.0000000000
10
12.0005250500
20
-2.2992348266
30
0.0000000000
10
12.0062100657
20
-2.2995127146
30
0.0000000000
10
12.0119223508
20
-2.2997362529
30
0.0000000000
10
12.0166999508
20
-2.2998770857
30
0.0000000000
10
12.0205355208
20
-2.2999626672
30
0.0000000000
10
12.0234222548
20
-2.3000133391
30
0.0000000000
10
12.0258321620
20
-2.3000442259
30
0.0000000000
10
12.0277634799
20
-2.3000621537
30
0.0000000000
10
12.0292145077
20
-2.3000722108
30
0.0000000000
10
12.0304247660
20
-2.3000777596
30
0.0000000000
10
12.0313938230
20
-2.3000805017
30
0.0000000000
10
12.0319999267
20
-2.3000815087
30
0.0000000000
10
12.0324773050
20
-2.3000818829
30
0.0000000000
10
12.0327477937
20
-2.3000819440
30
0.0000000000
10
12.0329325749
20
-2.3000819161
30
0.0000000000
10
12.0330749060
20
-2.3000818673
30
0.0000000000
10
12.0333239331
20
-2.3000817113
30
0.0000000000
10
12.0336796113
20
-2.3000812862
30
0.0000000000
10
12.0342484574
20
-2.3000801749
30
0.0000000000
10
12.0349591562
20
-2.3000779774
30
0.0000000000
10
12.0360953198
20
-2.3000727371
30
0.0000000000
10
12.0375140924
20
-2.3000629548
30
0.0000000000
10
12.0392148869
20
-2.3000460358
30
0.0000000000
10
12.0414780652
20
-2.3000165946
30
0.0000000000
10
12.0443013337
20
-2.2999668772
30
0.0000000000
10
12.0476822739
20
-2.2998864715
30
0.0000000000
10
12.0521722717
20
-2.2997518260
30
0.0000000000
10
12.0577621454
20
-2.2995319379
30
0.0000000000
10
12.0644416511
20
-2.2991849069
30
0.0000000000
10
12.0732782025
20
-2.2986130794
30
0.0000000000
10
12.0842351259
20
-2.2976924031
30
0.0000000000
10
12.0972665181
20
-2.2962535483
30
0.0000000000
10
12.1101508557
20
-2.2944831821
30
0.0000000000
10
12.1228882024
20
-2.2923812450
30
0.0000000000
10
12.1396258136
20
-2.2891462263
30
0.0000000000
10
12.1602088377
20
-2.2842742423
30
0.0000000000
10
12.1843894271
20
-2.2770814559
30
0.0000000000
10
12.2079811817
20
-2.2685586804
30
0.0000000000
10
12.2309822742
20
-2.2587062288
30
0.0000000000
10
12.2496418148
20
-2.2493960233
30
0.0000000000
10
12.2642537871
20
-2.2412961042
30
0.0000000000
10
12.2786512841
20
-2.2327694422
30
0.0000000000
10
12.2961428752
20
-2.2213450466
30
0.0000000000
10
12.3162393613
20
-2.2064305441
30
0.0000000000
10
12.3418306192
20
-2.1849449109
30
0.0000000000
10
12.3716194678
20
-2.1549651042
30
0.0000000000
10
12.3979533138
20
-2.1213868721
30
0.0000000000
10
12.4170749336
20
-2.0923710318
30
0.0000000000
10
12.4282784983
20
-2.0732207757
30
0.0000000000
10
12.4367679179
20
-2.0573467015
30
0.0000000000
10
12.4449481614
20
-2.0410831340
30
0.0000000000
10
12.4544481787
20
-2.0203996573
30
0.0000000000
10
12.4646150993
20
-1.9951184681
30
0.0000000000
10
12.4735285758
20
-1.9694253862
30
0.0000000000
10
12.4811878141
20
-1.9433207859
30
0.0000000000
10
12.4875928592
20
-1.9168054797
30
0.0000000000
10
12.4918780052
20
-1.8944045586
30
0.0000000000
10
12.4946800164
20
-1.8762962900
30
0.0000000000
10
12.4964723264
20
-1.8625884025
30
0.0000000000
10
12.4979516481
20
-1.8487780456
30
0.0000000000
10
12.4989222665
20
-1.8372000736
30
0.0000000000
10
12.4995428355
20
-1.8278884908
30
0.0000000000
10
12.4999307172
20
-1.8208692607
30
0.0000000000
10
12.5001885736
20
-1.8150031955
30
0.0000000000
10
12.5003558424
20
-1.8102977654
30
0.0000000000
10
12.5004618447
20
-1.8067594572
30
0.0000000000
10
12.5005482971
20
-1.8032147355
30
0.0000000000
10
12.5006151997
20
-1.7996635996
30
0.0000000000
10
12.5006546434
20
-1.7967002614
30
0.0000000000
10
12.5006764360
20
-1.7943264141
30
0.0000000000
10
12.5006859874
20
-1.7928411054
30
0.0000000000
10
12.5006911865
20
-1.7916520605
30
0.0000000000
10
12.5006938648
20
-1.7907596786
30
0.0000000000
10
12.5006949571
20
-1.7900902038
30
0.0000000000
10
12.5006953035
20
-1.7896437624
30
0.0000000000
10
12.5006954045
20
-1.7894115232
30
0.0000000000
10
12.5006954227
20
-1.7891404751
30
0.0000000000
10
12.5006952746
20
-1.7887174977
30
0.0000000000
10
12.5006946705
20
-1.7881516877
30
0.0000000000
10
12.5006928370
20
-1.7872470539
30
0.0000000000
10
12.5006889209
20
-1.7861172546
30
0.0000000000
10
12.5006816189
20
-1.7847626911
30
0.0000000000
10
12.5006684221
20
-1.7829597746
30
0.0000000000
10
12.5006454342
20
-1.7807100935
30
0.0000000000
10
12.5006074276
20
-1.7780152751
30
0.0000000000
10
12.5005590158
20
-1.7753268222
30
0.0000000000
10
12.5004806826
20
-1.7717547791
30
0.0000000000
10
12.5003568400
20
-1.7673055203
30
0.0000000000
10
12.5001035349
20
-1.7602283385
30
0.0000000000
10
12.4995180605
20
-1.7479843735
30
0.0000000000
10
12.4982685116
20
-1.7307001325
30
0.0000000000
10
12.4961808743
20
-1.7110739600
30
0.0000000000
10
12.4944127211
20
-1.6984197946
30
0.0000000000
10
12.4934985082
20
-1.6925582297
30
0.0000000000
11
11.5301212052
21
-1.8104147015
31
0.0000000000
11
11.5334241732
21
-1.8306004183
31
0.0000000000
11
11.5457133133
21
-1.8906820268
31
0.0000000000
11
11.5609885996
21
-1.9462553320
31
0.0000000000
11
11.5792500321
21
-1.9973203342
31
0.0000000000
11
11.6004976109
21
-2.0438770331
31
0.0000000000
11
11.6247313358
21
-2.0859254289
31
0.0000000000
11
11.6379680031
21
-2.1052590131
31
0.0000000000
11
11.6519512069
21
-2.1234655215
31
0.0000000000
11
11.6666360046
21
-2.1405822926
31
0.0000000000
11
11.6817903447
21
-2.1568021151
31
0.0000000000
11
11.6973812080
21
-2.1721524213
31
0.0000000000
11
11.7134085947
21
-2.1866332113
31
0.0000000000
11
11.7467729379
21
-2.2129862424
31
0.0000000000
11
11.7818833743
21
-2.2358612086
31
0.0000000000
11
11.8187399039
21
-2.2552581097
31
0.0000000000
11
11.8573425266
21
-2.2711769458
31
0.0000000000
11
11.8772986229
21
-2.2778320894
31
0.0000000000
11
11.8976912425
21
-2.2836177168
31
0.0000000000
11
11.9185203854
21
-2.2885338280
31
0.0000000000
11
11.9397860515
21
-2.2925804229
31
0.0000000000
11
11.9505825809
21
-2.2942776517
31
0.0000000000
11
11.9614882410
21
-2.2957575015
31
0.0000000000
11
11.9725030320
21
-2.2970199722
31
0.0000000000
11
11.9836269537
21
-2.2980650639
31
0.0000000000
11
11.9948600064
21
-2.2988927765
31
0.0000000000
11
12.0005174567
21
-2.2992251156
31
0.0000000000
11
12.0062021898
21
-2.2995031100
31
0.0000000000
11
12.0119142056
21
-2.2997267596
31
0.0000000000
11
12.0176535040
21
-2.2998960644
31
0.0000000000
11
12.0205333843
21
-2.2999603376
31
0.0000000000
11
12.0234200852
21
-2.3000110245
31
0.0000000000
11
12.0263136068
21
-2.3000481253
31
0.0000000000
11
12.0277629254
21
-2.3000615808
31
0.0000000000
11
12.0292139491
21
-2.3000716398
31
0.0000000000
11
12.0306666780
21
-2.3000783023
31
0.0000000000
11
12.0313936819
21
-2.3000803598
31
0.0000000000
11
12.0321211121
21
-2.3000815682
31
0.0000000000
11
12.0324849870
21
-2.3000818540
31
0.0000000000
11
12.0328258161
21
-2.3000819290
31
0.0000000000
11
12.0329325779
21
-2.3000819127
31
0.0000000000
11
12.0330393307
21
-2.3000818761
31
0.0000000000
11
12.0332528094
21
-2.3000817424
31
0.0000000000
11
12.0336796590
21
-2.3000812322
31
0.0000000000
11
12.0341063649
21
-2.3000803985
31
0.0000000000
11
12.0349593454
21
-2.3000777606
31
0.0000000000
11
12.0358117509
21
-2.3000738287
31
0.0000000000
11
12.0375148371
21
-2.3000620826
31
0.0000000000
11
12.0392156235
21
-2.3000451602
31
0.0000000000
11
12.0409141101
21
-2.3000230616
31
0.0000000000
11
12.0443041838
21
-2.2999633355
31
0.0000000000
11
12.0476850582
21
-2.2998829045
31
0.0000000000
11
12.0510567332
21
-2.2997817684
31
0.0000000000
11
12.0577724854
21
-2.2995173812
31
0.0000000000
11
12.0644514404
21
-2.2991701739
31
0.0000000000
11
12.0710935982
21
-2.2987401466
31
0.0000000000
11
12.0842675222
21
-2.2976316316
31
0.0000000000
11
12.0972942573
21
-2.2961918363
31
0.0000000000
11
12.1101738035
21
-2.2944207606
31
0.0000000000
11
12.1229061609
21
-2.2923184046
31
0.0000000000
11
12.1354913295
21
-2.2898847682
31
0.0000000000
11
12.1602201000
21
-2.2840236545
31
0.0000000000
11
12.1843601151
21
-2.2768374194
31
0.0000000000
11
12.2079113748
21
-2.2683260629
31
0.0000000000
11
12.2308738791
21
-2.2584895850
31
0.0000000000
11
12.2532476280
21
-2.2473279858
31
0.0000000000
11
12.2642137192
21
-2.2412502657
31
0.0000000000
11
12.2750315939
21
-2.2348417318
31
0.0000000000
11
12.2960274454
21
-2.2211208688
31
0.0000000000
11
12.3160872047
21
-2.2062325814
31
0.0000000000
11
12.3352108718
21
-2.1901768696
31
0.0000000000
11
12.3706499294
21
-2.1545631725
31
0.0000000000
11
12.4023446184
21
-2.1142797776
31
0.0000000000
11
12.4167878246
21
-2.0923869435
31
0.0000000000
11
12.4302949386
21
-2.0693266850
31
0.0000000000
11
12.4366974610
21
-2.0573587715
31
0.0000000000
11
12.4428575713
21
-2.0451191554
31
0.0000000000
11
12.4542622678
21
-2.0202771491
31
0.0000000000
11
12.4644158161
21
-1.9950245936
31
0.0000000000
11
12.4733182162
21
-1.9693614889
31
0.0000000000
11
12.4809694683
21
-1.9432878351
31
0.0000000000
11
12.4873695722
21
-1.9168036320
31
0.0000000000
11
12.4925185280
21
-1.8899088797
31
0.0000000000
11
12.4946238253
21
-1.8763075477
31
0.0000000000
11
12.4964163356
21
-1.8626035783
31
0.0000000000
11
12.4978960589
21
-1.8487969716
31
0.0000000000
11
12.4990629951
21
-1.8348877277
31
0.0000000000
11
12.4995291681
21
-1.8278946167
31
0.0000000000
11
12.4999171443
21
-1.8208758464
31
0.0000000000
11
12.5002269238
21
-1.8138314168
31
0.0000000000
11
12.5003524897
21
-1.8102995797
31
0.0000000000
11
12.5004585065
21
-1.8067613279
31
0.0000000000
11
12.5005449741
21
-1.8032166611
31
0.0000000000
11
12.5006118925
21
-1.7996655796
31
0.0000000000
11
12.5006592616
21
-1.7961080832
31
0.0000000000
11
12.5006756153
21
-1.7943269295
31
0.0000000000
11
12.5006870816
21
-1.7925441720
31
0.0000000000
11
12.5006909821
21
-1.7916521919
31
0.0000000000
11
12.5006936607
21
-1.7907598108
31
0.0000000000
11
12.5006951175
21
-1.7898670289
31
0.0000000000
11
12.5006952908
21
-1.7896437707
31
0.0000000000
11
12.5006953877
21
-1.7894204875
31
0.0000000000
11
12.5006954060
21
-1.7891703113
31
0.0000000000
11
12.5006952872
21
-1.7888306266
31
0.0000000000
11
12.5006945618
21
-1.7881515556
31
0.0000000000
11
12.5006931861
21
-1.7874728824
31
0.0000000000
11
12.5006884839
21
-1.7861167299
31
0.0000000000
11
12.5006811803
21
-1.7847621689
31
0.0000000000
11
12.5006712755
21
-1.7834091995
31
0.0000000000
11
12.5006436621
21
-1.7807080353
31
0.0000000000
11
12.5006056437
21
-1.7780132373
31
0.0000000000
11
12.5005572202
21
-1.7753248055
31
0.0000000000
11
12.5004983917
21
-1.7726427400
31
0.0000000000
11
12.5003495195
21
-1.7672977077
31
0.0000000000
11
12.5001590271
21
-1.7619781402
31
0.0000000000
11
12.4996531817
21
-1.7514154001
31
0.0000000000
11
12.4981420488
21
-1.7305954987
31
0.0000000000
11
12.4959649930
21
-1.7101830360
31
0.0000000000
11
12.4934985082
21
-1.6925582297
31
0.0000000000
0
SPLINE
5
2C6
100
AcDbEntity
8
0
100
AcDbSpline
62
0
6
CONTINUOUS
70
0
71
3
72
83
73
79
74
77
42
0.0000001000
43
0.0000001000
44
0.0000000001
12
-0.1645538135
22
1.0550527958
32
0.0000000000
13
-0.5867481381
23
-0.8920873066
33
0.0000000000
40
0.0000000000
40
0.0000000000
40
0.0000000000
40
0.0000000000
40
0.0022567820
40
0.0209027299
40
0.0392956012
40
0.0574613159
40
0.0754267774
40
0.1108617527
40
0.1458390850
40
0.1805996418
40
0.2153887937
40
0.2328745210
40
0.2504587945
40
0.2592976337
40
0.2681708643
40
0.2770118868
40
0.2857838859
40
0.3031321411
40
0.3202412670
40
0.3538400730
40
0.3868057582
40
0.4193702002
40
0.4517738915
40
0.4679955431
40
0.4842684767
40
0.5006228452
40
0.5170883543
40
0.5336941130
40
0.5420589201
40
0.5504693610
40
0.5589288498
40
0.5674407413
40
0.5717174204
40
0.5760084298
40
0.5803141711
40
0.5846350418
40
0.5868012800
40
0.5889714477
40
0.5911455934
40
0.5922341739
40
0.5933237670
40
0.5944143787
40
0.5949600684
40
0.5952330096
40
0.5954341504
40
0.5955903794
40
0.5957465977
40
0.5960590019
40
0.5963713633
40
0.5966836819
40
0.5973081916
40
0.5979325324
40
0.5991807128
40
0.6004282342
40
0.6016751077
40
0.6041669518
40
0.6091433263
40
0.6141105682
40
0.6190693883
40
0.6240205015
40
0.6289646257
40
0.6388346128
40
0.6486853295
40
0.6585226097
40
0.6683523113
40
0.6880109994
40
0.7077098162
40
0.7274954317
40
0.7474139058
40
0.7675103849
40
0.7878288289
40
0.7980658892
40
0.8082989195
40
0.8287719704
40
0.8493112999
40
0.8699813934
40
0.9119500950
40
1.0000000000
40
1.0000000000
40
1.0000000000
40
1.0000000000
10
12.4934985082
20
-1.6925582297
30
0.0000000000
10
12.4933747209
20
-1.6917645550
30
0.0000000000
10
12.4922123605
20
-1.6844158570
30
0.0000000000
10
12.4897504362
20
-1.6706450955
30
0.0000000000
10
12.4855774211
20
-1.6514404632
30
0.0000000000
10
12.4807372175
20
-1.6326424890
30
0.0000000000
10
12.4734289607
20
-1.6082363726
30
0.0000000000
10
12.4626191543
20
-1.5786573582
30
0.0000000000
10
12.4469039808
20
-1.5446361085
30
0.0000000000
10
12.4285049569
20
-1.5122515144
30
0.0000000000
10
12.4109628616
20
-1.4866714726
30
0.0000000000
10
12.3956423483
20
-1.4670810288
30
0.0000000000
10
12.3855109554
20
-1.4551754494
30
0.0000000000
10
12.3770812626
20
-1.4458600845
30
0.0000000000
10
12.3705967208
20
-1.4389841407
30
0.0000000000
10
12.3640025128
20
-1.4322466926
30
0.0000000000
10
12.3551376002
20
-1.4235138360
30
0.0000000000
10
12.3438762523
20
-1.4130236539
30
0.0000000000
10
12.3255277956
20
-1.3972033080
30
0.0000000000
10
12.3018396677
20
-1.3790962881
30
0.0000000000
10
12.2721004865
20
-1.3600363944
30
0.0000000000
10
12.2412200974
20
-1.3437783427
30
0.0000000000
10
12.2145420202
20
-1.3325709538
30
0.0000000000
10
12.1927030955
20
-1.3250296218
30
0.0000000000
10
12.1760338796
20
-1.3200685294
30
0.0000000000
10
12.1590834306
20
-1.3158057942
30
0.0000000000
10
12.1418517422
20
-1.3122411529
30
0.0000000000
10
12.1272931011
20
-1.3098581812
30
0.0000000000
10
12.1155143007
20
-1.3082991231
30
0.0000000000
10
12.1065877930
20
-1.3073011579
30
0.0000000000
10
12.0975910205
20
-1.3064774666
30
0.0000000000
10
12.0900472643
20
-1.3059371444
30
0.0000000000
10
12.0839780984
20
-1.3055916344
30
0.0000000000
10
12.0794012425
20
-1.3053756322
30
0.0000000000
10
12.0748068068
20
-1.3052031826
30
0.0000000000
10
12.0709668819
20
-1.3050958637
30
0.0000000000
10
12.0678862669
20
-1.3050317278
30
0.0000000000
10
12.0655693406
20
-1.3049944700
30
0.0000000000
10
12.0636357975
20
-1.3049725048
30
0.0000000000
10
12.0620867788
20
-1.3049603688
30
0.0000000000
10
12.0609233785
20
-1.3049539843
30
0.0000000000
10
12.0599531898
20
-1.3049509329
30
0.0000000000
10
12.0592736582
20
-1.3049499867
30
0.0000000000
10
12.0589107039
20
-1.3049497997
30
0.0000000000
10
12.0586863654
20
-1.3049497968
30
0.0000000000
10
12.0585035706
20
-1.3049498721
30
0.0000000000
10
12.0582811753
20
-1.3049500457
30
0.0000000000
10
12.0580032100
20
-1.3049504167
30
0.0000000000
10
12.0576696864
20
-1.3049511081
30
0.0000000000
10
12.0572250801
20
-1.3049523583
30
0.0000000000
10
12.0566694372
20
-1.3049545366
30
0.0000000000
10
12.0557807138
20
-1.3049593349
30
0.0000000000
10
12.0546702676
20
-1.3049677945
30
0.0000000000
10
12.0533382935
20
-1.3049818877
30
0.0000000000
10
12.0515637658
20
-1.3050059263
30
0.0000000000
10
12.0484624014
20
-1.3050617480
30
0.0000000000
10
12.0440378974
20
-1.3051808678
30
0.0000000000
10
12.0387377449
20
-1.3053869351
30
0.0000000000
10
12.0334494203
20
-1.3056560561
30
0.0000000000
10
12.0281729180
20
-1.3059882325
30
0.0000000000
10
12.0211577371
20
-1.3065148745
30
0.0000000000
10
12.0124161509
20
-1.3073307370
30
0.0000000000
10
12.0019673318
20
-1.3085626866
30
0.0000000000
10
11.9915657472
20
-1.3100469910
30
0.0000000000
10
11.9777607462
20
-1.3123623467
30
0.0000000000
10
11.9606057320
20
-1.3158911363
30
0.0000000000
10
11.9402112904
20
-1.3211365040
30
0.0000000000
10
11.9200069934
20
-1.3273928394
30
0.0000000000
10
11.8999933027
20
-1.3346596944
30
0.0000000000
10
11.8801709154
20
-1.3429375882
30
0.0000000000
10
11.8638678796
20
-1.3506483828
30
0.0000000000
10
11.8509626289
20
-1.3573005032
30
0.0000000000
10
11.8382084215
20
-1.3643529090
30
0.0000000000
10
11.8226239158
20
-1.3738486135
30
0.0000000000
10
11.8045410700
20
-1.3863178513
30
0.0000000000
10
11.7811323403
20
-1.4044656701
30
0.0000000000
10
11.7415415724
20
-1.4407809406
30
0.0000000000
10
11.7126313313
20
-1.4774153392
30
0.0000000000
10
11.6954102921
20
-1.5035980734
30
0.0000000000
11
12.4934985082
21
-1.6925582297
31
0.0000000000
11
12.4931220142
21
-1.6901780119
31
0.0000000000
11
12.4896131124
21
-1.6705804263
31
0.0000000000
11
12.4854382876
21
-1.6513902793
31
0.0000000000
11
12.4805975398
21
-1.6326075710
31
0.0000000000
11
12.4750908691
21
-1.6142323012
31
0.0000000000
11
12.4620797588
21
-1.5787040774
31
0.0000000000
11
12.4464049566
21
-1.5448056081
31
0.0000000000
11
12.4280664625
21
-1.5125368930
31
0.0000000000
11
12.4070642766
21
-1.4818979324
31
0.0000000000
11
12.3955642992
21
-1.4671896100
31
0.0000000000
11
12.3833983987
21
-1.4528887262
31
0.0000000000
11
12.3770657274
21
-1.4458910737
31
0.0000000000
11
12.3705677129
21
-1.4389961370
31
0.0000000000
11
12.3639649295
21
-1.4322494989
31
0.0000000000
11
12.3572917879
21
-1.4256770540
31
0.0000000000
11
12.3437344300
21
-1.4130547440
31
0.0000000000
11
12.3298956394
21
-1.4011292069
31
0.0000000000
11
12.3013737599
21
-1.3793684516
31
0.0000000000
11
12.2717261494
21
-1.3603947882
31
0.0000000000
11
12.2409528078
21
-1.3442082165
31
0.0000000000
11
12.2090537351
21
-1.3308087367
31
0.0000000000
11
12.1926820496
21
-1.3251541562
31
0.0000000000
11
12.1760289314
21
-1.3201963486
31
0.0000000000
11
12.1590943804
21
-1.3159353140
31
0.0000000000
11
12.1418783966
21
-1.3123710524
31
0.0000000000
11
12.1243809800
21
-1.3095035637
31
0.0000000000
11
12.1155267345
21
-1.3083311092
31
0.0000000000
11
12.1066021307
21
-1.3073328480
31
0.0000000000
11
12.0976071688
21
-1.3065087800
31
0.0000000000
11
12.0885418486
21
-1.3058589052
31
0.0000000000
11
12.0839828043
21
-1.3055992903
31
0.0000000000
11
12.0794061703
21
-1.3053832237
31
0.0000000000
11
12.0748119468
21
-1.3052107054
31
0.0000000000
11
12.0702001338
21
-1.3050817354
31
0.0000000000
11
12.0678876312
21
-1.3050335810
31
0.0000000000
11
12.0655707312
21
-1.3049963137
31
0.0000000000
11
12.0632494339
21
-1.3049699335
31
0.0000000000
11
12.0620871362
21
-1.3049608260
31
0.0000000000
11
12.0609237391
21
-1.3049544403
31
0.0000000000
11
12.0597592427
21
-1.3049507764
31
0.0000000000
11
12.0591765823
21
-1.3049499651
31
0.0000000000
11
12.0588851490
21
-1.3049498146
31
0.0000000000
11
12.0586703806
21
-1.3049498137
31
0.0000000000
11
12.0585035668
21
-1.3049498824
31
0.0000000000
11
12.0583367646
21
-1.3049500126
31
0.0000000000
11
12.0580031948
21
-1.3049504578
31
0.0000000000
11
12.0576696713
21
-1.3049511492
31
0.0000000000
11
12.0573361939
21
-1.3049520869
31
0.0000000000
11
12.0566693779
21
-1.3049547012
31
0.0000000000
11
12.0560027468
21
-1.3049583005
31
0.0000000000
11
12.0546700391
21
-1.3049684544
31
0.0000000000
11
12.0533380708
21
-1.3049825486
31
0.0000000000
11
12.0520068421
21
-1.3050005831
31
0.0000000000
11
12.0493466029
21
-1.3050484730
31
0.0000000000
11
12.0440349982
21
-1.3051915366
31
0.0000000000
11
12.0387352248
21
-1.3053976451
31
0.0000000000
11
12.0334472829
21
-1.3056667986
31
0.0000000000
11
12.0281711724
21
-1.3059989971
31
0.0000000000
11
12.0229068933
21
-1.3063942405
31
0.0000000000
11
12.0124138293
21
-1.3073738623
31
0.0000000000
11
12.0019680910
21
-1.3086056640
31
0.0000000000
11
11.9915696784
21
-1.3100896455
31
0.0000000000
11
11.9812185914
21
-1.3118258068
31
0.0000000000
11
11.9606583945
21
-1.3160546692
31
0.0000000000
11
11.9402875001
21
-1.3212922509
31
0.0000000000
11
11.9201059084
21
-1.3275385522
31
0.0000000000
11
11.9001136193
21
-1.3347935729
31
0.0000000000
11
11.8803106328
21
-1.3430573130
31
0.0000000000
11
11.8606969490
21
-1.3523297726
31
0.0000000000
11
11.8509863568
21
-1.3573480594
31
0.0000000000
11
11.8414235116
21
-1.3626335811
31
0.0000000000
11
11.8227560316
21
-1.3740085737
31
0.0000000000
11
11.8046994988
21
-1.3864554985
31
0.0000000000
11
11.7872539132
21
-1.3999743555
31
0.0000000000
11
11.7541955838
21
-1.4302278660
31
0.0000000000
11
11.6954102921
21
-1.5035980734
31
0.0000000000
0
SPLINE
5
2C7
100
AcDbEntity
8
0
100
AcDbSpline
62
0
6
CONTINUOUS
70
0
71
3
72
13
73
9
74
7
42
0.0000001000
43
0.0000001000
44
0.0000000001
12
0.0000000000
22
-0.4000014903
32
0.0000000000
13
0.0020153657
23
-0.3999964131
33
0.0000000000
40
0.0000000000
40
0.0000000000
40
0.0000000000
40
0.0000000000
40
0.1741319125
40
0.3473633786
40
0.5176268726
40
0.6839583035
40
0.8453898182
40
1.0000000000
40
1.0000000000
40
1.0000000000
40
1.0000000000
10
23.6520022272
20
-3.2464101615
30
0.0000000000
10
23.6520022272
20
-3.2696278363
30
0.0000000000
10
23.6520197895
20
-3.3159431280
30
0.0000000000
10
23.6520987609
20
-3.3849602629
30
0.0000000000
10
23.6522297633
20
-3.4529372492
30
0.0000000000
10
23.6524117022
20
-3.5193407805
30
0.0000000000
10
23.6526431740
20
-3.5836570285
30
0.0000000000
10
23.6528337047
20
-3.6257956555
30
0.0000000000
10
23.6529375700
20
-3.6464101615
30
0.0000000000
11
23.6520022272
21
-3.2464101615
31
0.0000000000
11
23.6520287392
21
-3.3160631810
31
0.0000000000
11
23.6521083337
21
-3.3853559799
31
0.0000000000
11
23.6522401067
21
-3.4534615037
31
0.0000000000
11
23.6524231605
21
-3.5199940721
31
0.0000000000
11
23.6526565900
21
-3.5845664967
31
0.0000000000
11
23.6529375700
21
-3.6464101615
31
0.0000000000
0
SPLINE
5
2C8
100
AcDbEntity
8
0
100
AcDbSpline
62
0
6
CONTINUOUS
70
0
71
3
72
13
73
9
74
7
42
0.0000001000
43
0.0000001000
44
0.0000000001
12
0.0020153657
22
0.3999964131
32
0.0000000000
13
0.0000000000
23
0.4000014903
33
0.0000000000
40
0.0000000000
40
0.0000000000
40
0.0000000000
40
0.0000000000
40
0.1546101818
40
0.3160416965
40
0.4823731274
40
0.6526366214
40
0.8258680875
40
1.0000000000
40
1.0000000000
40
1.0000000000
40
1.0000000000
10
-23.6529375700
20
-3.6464101615
30
0.0000000000
10
-23.6528337047
20
-3.6257956555
30
0.0000000000
10
-23.6526431740
20
-3.5836570285
30
0.0000000000
10
-23.6524117022
20
-3.5193407805
30
0.0000000000
10
-23.6522297633
20
-3.4529372492
30
0.0000000000
10
-23.6520987609
20
-3.3849602629
30
0.0000000000
10
-23.6520197895
20
-3.3159431280
30
0.0000000000
10
-23.6520022272
20
-3.2696278363
30
0.0000000000
10
-23.6520022272
20
-3.2464101615
30
0.0000000000
11
-23.6529375700
21
-3.6464101615
31
0.0000000000
11
-23.6526565900
21
-3.5845664967
31
0.0000000000
11
-23.6524231605
21
-3.5199940721
31
0.0000000000
11
-23.6522401067
21
-3.4534615037
31
0.0000000000
11
-23.6521083337
21
-3.3853559799
31
0.0000000000
11
-23.6520287392
21
-3.3160631810
31
0.0000000000
11
-23.6520022272
21
-3.2464101615
31
0.0000000000
0
SPLINE
5
2C9
100
AcDbEntity
8
0
100
AcDbSpline
62
0
6
CONTINUOUS
70
0
71
3
72
13
73
9
74
7
42
0.0000001000
43
0.0000001000
44
0.0000000001
12
0.0000000000
22
0.4000014903
32
0.0000000000
13
-0.0020153657
23
0.3999964131
33
0.0000000000
40
0.0000000000
40
0.0000000000
40
0.0000000000
40
0.0000000000
40
0.1741319125
40
0.3473633786
40
0.5176268726
40
0.6839583035
40
0.8453898182
40
1.0000000000
40
1.0000000000
40
1.0000000000
40
1.0000000000
10
-23.6520022272
20
3.2464101615
30
0.0000000000
10
-23.6520022272
20
3.2696278363
30
0.0000000000
10
-23.6520197895
20
3.3159431280
30
0.0000000000
10
-23.6520987609
20
3.3849602629
30
0.0000000000
10
-23.6522297633
20
3.4529372492
30
0.0000000000
10
-23.6524117022
20
3.5193407805
30
0.0000000000
10
-23.6526431740
20
3.5836570285
30
0.0000000000
10
-23.6528337047
20
3.6257956555
30
0.0000000000
10
-23.6529375700
20
3.6464101615
30
0.0000000000
11
-23.6520022272
21
3.2464101615
31
0.0000000000
11
-23.6520287392
21
3.3160631810
31
0.0000000000
11
-23.6521083337
21
3.3853559799
31
0.0000000000
11
-23.6522401067
21
3.4534615037
31
0.0000000000
11
-23.6524231605
21
3.5199940721
31
0.0000000000
11
-23.6526565900
21
3.5845664967
31
0.0000000000
11
-23.6529375700
21
3.6464101615
31
0.0000000000
0
SPLINE
5
2CA
100
AcDbEntity
8
0
100
AcDbSpline
62
0
6
CONTINUOUS
70
0
71
3
72
13
73
9
74
7
42
0.0000001000
43
0.0000001000
44
0.0000000001
12
-0.0020153657
22
-0.3999964131
32
0.0000000000
13
0.0000000000
23
-0.4000014903
33
0.0000000000
40
0.0000000000
40
0.0000000000
40
0.0000000000
40
0.0000000000
40
0.1546101818
40
0.3160416965
40
0.4823731274
40
0.6526366214
40
0.8258680875
40
1.0000000000
40
1.0000000000
40
1.0000000000
40
1.0000000000
10
23.6529375700
20
3.6464101615
30
0.0000000000
10
23.6528337047
20
3.6257956555
30
0.0000000000
10
23.6526431740
20
3.5836570285
30
0.0000000000
10
23.6524117022
20
3.5193407805
30
0.0000000000
10
23.6522297633
20
3.4529372492
30
0.0000000000
10
23.6520987609
20
3.3849602629
30
0.0000000000
10
23.6520197895
20
3.3159431280
30
0.0000000000
10
23.6520022272
20
3.2696278363
30
0.0000000000
10
23.6520022272
20
3.2464101615
30
0.0000000000
11
23.6529375700
21
3.6464101615
31
0.0000000000
11
23.6526565900
21
3.5845664967
31
0.0000000000
11
23.6524231605
21
3.5199940721
31
0.0000000000
11
23.6522401067
21
3.4534615037
31
0.0000000000
11
23.6521083337
21
3.3853559799
31
0.0000000000
11
23.6520287392
21
3.3160631810
31
0.0000000000
11
23.6520022272
21
3.2464101615
31
0.0000000000
0
SPLINE
5
2CB
100
AcDbEntity
8
0
100
AcDbSpline
62
0
6
CONTINUOUS
70
0
71
3
72
13
73
9
74
7
42
0.0000001000
43
0.0000001000
44
0.0000000001
12
0.0020153657
22
-0.3999964131
32
0.0000000000
13
-0.0000000000
23
-0.4000014903
33
0.0000000000
40
0.0000000000
40
0.0000000000
40
0.0000000000
40
0.0000000000
40
0.1546101818
40
0.3160416965
40
0.4823731274
40
0.6526366214
40
0.8258680875
40
1.0000000000
40
1.0000000000
40
1.0000000000
40
1.0000000000
10
23.6563030050
20
-4.3143593539
30
0.0000000000
10
23.6564068703
20
-4.3349738600
30
0.0000000000
10
23.6565974010
20
-4.3771124870
30
0.0000000000
10
23.6568288728
20
-4.4414287350
30
0.0000000000
10
23.6570108117
20
-4.5078322662
30
0.0000000000
10
23.6571418140
20
-4.5758092526
30
0.0000000000
10
23.6572207855
20
-4.6448263875
30
0.0000000000
10
23.6572383478
20
-4.6911416791
30
0.0000000000
10
23.6572383478
20
-4.7143593539
30
0.0000000000
11
23.6563030050
21
-4.3143593539
31
0.0000000000
11
23.6565839850
21
-4.3762030188
31
0.0000000000
11
23.6568174145
21
-4.4407754433
31
0.0000000000
11
23.6570004683
21
-4.5073080117
31
0.0000000000
11
23.6571322413
21
-4.5754135356
31
0.0000000000
11
23.6572118358
21
-4.6447063345
31
0.0000000000
11
23.6572383478
21
-4.7143593539
31
0.0000000000
0
SPLINE
5
2CC
100
AcDbEntity
8
0
100
AcDbSpline
62
0
6
CONTINUOUS
70
0
71
3
72
13
73
9
74
7
42
0.0000001000
43
0.0000001000
44
0.0000000001
12
0.0000000000
22
0.4000014903
32
0.0000000000
13
0.0020153657
23
0.3999964131
33
0.0000000000
40
0.0000000000
40
0.0000000000
40
0.0000000000
40
0.0000000000
40
0.1741319125
40
0.3473633786
40
0.5176268726
40
0.6839583035
40
0.8453898182
40
1.0000000000
40
1.0000000000
40
1.0000000000
40
1.0000000000
10
-23.6572383478
20
-4.7143593539
30
0.0000000000
10
-23.6572383478
20
-4.6911416791
30
0.0000000000
10
-23.6572207855
20
-4.6448263875
30
0.0000000000
10
-23.6571418140
20
-4.5758092526
30
0.0000000000
10
-23.6570108117
20
-4.5078322662
30
0.0000000000
10
-23.6568288728
20
-4.4414287350
30
0.0000000000
10
-23.6565974010
20
-4.3771124870
30
0.0000000000
10
-23.6564068703
20
-4.3349738600
30
0.0000000000
10
-23.6563030050
20
-4.3143593539
30
0.0000000000
11
-23.6572383478
21
-4.7143593539
31
0.0000000000
11
-23.6572118358
21
-4.6447063345
31
0.0000000000
11
-23.6571322413
21
-4.5754135356
31
0.0000000000
11
-23.6570004683
21
-4.5073080117
31
0.0000000000
11
-23.6568174145
21
-4.4407754433
31
0.0000000000
11
-23.6565839850
21
-4.3762030188
31
0.0000000000
11
-23.6563030050
21
-4.3143593539
31
0.0000000000
0
SPLINE
5
2CD
100
AcDbEntity
8
0
100
AcDbSpline
62
0
6
CONTINUOUS
70
0
71
3
72
13
73
9
74
7
42
0.0000001000
43
0.0000001000
44
0.0000000001
12
0.0000000000
22
-0.4000014903
32
0.0000000000
13
-0.0020153657
23
-0.3999964131
33
0.0000000000
40
0.0000000000
40
0.0000000000
40
0.0000000000
40
0.0000000000
40
0.1741395235
40
0.3473768951
40
0.5176434257
40
0.6839712017
40
0.8453967428
40
1.0000000000
40
1.0000000000
40
1.0000000000
40
1.0000000000
10
23.6572383478
20
4.7143593539
30
0.0000000000
10
23.6572383478
20
4.6911406643
30
0.0000000000
10
23.6572207841
20
4.6448235704
30
0.0000000000
10
23.6571418068
20
4.5758042285
30
0.0000000000
10
23.6570107984
20
4.5078265371
30
0.0000000000
10
23.6568288569
20
4.4414238848
30
0.0000000000
10
23.6565973896
20
4.3771098439
30
0.0000000000
10
23.6564068657
20
4.3349729367
30
0.0000000000
10
23.6563030050
20
4.3143593539
30
0.0000000000
11
23.6572383478
21
4.7143593539
31
0.0000000000
11
23.6572118334
21
4.6447032901
31
0.0000000000
11
23.6571322329
21
4.5754081290
31
0.0000000000
11
23.6570004528
21
4.5073013905
31
0.0000000000
11
23.6568173981
21
4.4407702840
31
0.0000000000
11
23.6565839737
21
4.3762002490
31
0.0000000000
11
23.6563030050
21
4.3143593539
31
0.0000000000
0
SPLINE
5
2CE
100
AcDbEntity
8
0
100
AcDbSpline
62
0
6
CONTINUOUS
70
0
71
3
72
13
73
9
74
7
42
0.0000001000
43
0.0000001000
44
0.0000000001
12
-0.0020153657
22
0.3999964131
32
0.0000000000
13
-0.0000000000
23
0.4000014903
33
0.0000000000
40
0.0000000000
40
0.0000000000
40
0.0000000000
40
0.0000000000
40
0.1546032572
40
0.3160287983
40
0.4823565743
40
0.6526231049
40
0.8258604765
40
1.0000000000
40
1.0000000000
40
1.0000000000
40
1.0000000000
10
-23.6563030050
20
4.3143593539
30
0.0000000000
10
-23.6564068657
20
4.3349729367
30
0.0000000000
10
-23.6565973896
20
4.3771098439
30
0.0000000000
10
-23.6568288569
20
4.4414238848
30
0.0000000000
10
-23.6570107984
20
4.5078265371
30
0.0000000000
10
-23.6571418068
20
4.5758042285
30
0.0000000000
10
-23.6572207841
20
4.6448235704
30
0.0000000000
10
-23.6572383478
20
4.6911406643
30
0.0000000000
10
-23.6572383478
20
4.7143593539
30
0.0000000000
11
-23.6563030050
21
4.3143593539
31
0.0000000000
11
-23.6565839737
21
4.3762002490
31
0.0000000000
11
-23.6568173981
21
4.4407702840
31
0.0000000000
11
-23.6570004528
21
4.5073013905
31
0.0000000000
11
-23.6571322329
21
4.5754081290
31
0.0000000000
11
-23.6572118334
21
4.6447032901
31
0.0000000000
11
-23.6572383478
21
4.7143593539
31
0.0000000000
0
SPLINE
5
2CF
100
AcDbEntity
8
0
100
AcDbSpline
62
0
6
CONTINUOUS
70
0
71
3
72
21
73
17
74
15
42
0.0000001000
43
0.0000001000
44
0.0000000001
12
0.1862658293
22
-0.0569471789
32
0.0000000000
13
-0.1947766423
23
0.0000000000
33
0.0000000000
40
0.0000000000
40
0.0000000000
40
0.0000000000
40
0.0000000000
40
0.0181749965
40
0.0410314833
40
0.0651712565
40
0.0987722079
40
0.1423682975
40
0.1955483968
40
0.2581922593
40
0.3312354171
40
0.4151843753
40
0.5098593495
40
0.6146925295
40
0.7300966697
40
0.8580283323
40
1.0000000000
40
1.0000000000
40
1.0000000000
40
1.0000000000
10
21.9648182263
20
-17.0892438523
30
0.0000000000
10
21.9659466865
20
-17.0895888573
30
0.0000000000
10
21.9700266855
20
-17.0902153697
30
0.0000000000
10
21.9646777056
20
-17.0946723448
30
0.0000000000
10
21.9599464206
20
-17.0945529359
30
0.0000000000
10
21.9532487964
20
-17.0957825550
30
0.0000000000
10
21.9448831703
20
-17.0963847045
30
0.0000000000
10
21.9345323856
20
-17.0971472687
30
0.0000000000
10
21.9222944216
20
-17.0977643147
30
0.0000000000
10
21.9080427606
20
-17.0983395275
30
0.0000000000
10
21.8917113389
20
-17.0988322979
30
0.0000000000
10
21.8733119636
20
-17.0992477246
30
0.0000000000
10
21.8528687395
20
-17.0995769979
30
0.0000000000
10
21.8302648470
20
-17.0998187991
30
0.0000000000
10
21.8052489272
20
-17.0999685102
30
0.0000000000
10
21.7877252777
20
-17.1000000000
30
0.0000000000
10
21.7785076894
20
-17.1000000000
30
0.0000000000
11
21.9648182263
21
-17.0892438523
31
0.0000000000
11
21.9680998899
21
-17.0905715355
31
0.0000000000
11
21.9650428499
21
-17.0938078925
31
0.0000000000
11
21.9604272389
21
-17.0947043633
31
0.0000000000
11
21.9539375978
21
-17.0955513589
31
0.0000000000
11
21.9454831433
21
-17.0963436780
31
0.0000000000
11
21.9351500465
21
-17.0970649766
31
0.0000000000
11
21.9229656310
21
-17.0977115938
31
0.0000000000
11
21.9087502317
21
-17.0982885051
31
0.0000000000
11
21.8924066851
21
-17.0987918669
31
0.0000000000
11
21.8739710431
21
-17.0992139690
31
0.0000000000
11
21.8535547276
21
-17.0995484243
31
0.0000000000
11
21.8310780312
21
-17.0997933541
31
0.0000000000
11
21.8061604025
21
-17.0999465686
31
0.0000000000
11
21.7785076894
21
-17.1000000000
31
0.0000000000
0
SPLINE
5
2D0
100
AcDbEntity
8
0
100
AcDbSpline
62
0
6
CONTINUOUS
70
0
71
3
72
14
73
10
74
8
42
0.0000001000
43
0.0000001000
44
0.0000000001
12
0.0671660209
22
0.0000000000
32
0.0000000000
13
0.0188642794
23
0.0644624955
33
0.0000000000
40
0.0000000000
40
0.0000000000
40
0.0000000000
40
0.0000000000
40
0.0551808584
40
0.1350479733
40
0.2459330835
40
0.3889804748
40
0.5634938653
40
0.7678846952
40
1.0000000000
40
1.0000000000
40
1.0000000000
40
1.0000000000
10
-20.5274900823
20
16.6500000000
30
0.0000000000
10
-20.5262546560
20
16.6500000000
30
0.0000000000
10
-20.5233183944
20
16.6513732954
30
0.0000000000
10
-20.5196482499
20
16.6555063779
30
0.0000000000
10
-20.5156492368
20
16.6618529654
30
0.0000000000
10
-20.5114583531
20
16.6704916905
30
0.0000000000
10
-20.5070690427
20
16.6813287481
30
0.0000000000
10
-20.5025625334
20
16.6942491833
30
0.0000000000
10
-20.4996856841
20
16.7035910665
30
0.0000000000
10
-20.4982261214
20
16.7085786438
30
0.0000000000
11
-20.5274900823
21
16.6500000000
31
0.0000000000
11
-20.5240088802
21
16.6512719016
31
0.0000000000
11
-20.5202095583
21
16.6550589152
31
0.0000000000
11
-20.5161410112
21
16.6612971307
31
0.0000000000
11
-20.5118545590
21
16.6698958825
31
0.0000000000
11
-20.5074034059
21
16.6807392100
31
0.0000000000
11
-20.5028421180
21
16.6936874106
31
0.0000000000
11
-20.4982261214
21
16.7085786438
31
0.0000000000
0
SPLINE
5
2D1
100
AcDbEntity
8
0
100
AcDbSpline
62
0
6
CONTINUOUS
70
0
71
3
72
14
73
10
74
8
42
0.0000001000
43
0.0000001000
44
0.0000000001
12
-0.0671660209
22
0.0000000000
32
0.0000000000
13
-0.0188642794
23
0.0644624955
33
0.0000000000
40
0.0000000000
40
0.0000000000
40
0.0000000000
40
0.0000000000
40
0.0551808584
40
0.1350479733
40
0.2459330835
40
0.3889804748
40
0.5634938653
40
0.7678846952
40
1.0000000000
40
1.0000000000
40
1.0000000000
40
1.0000000000
10
20.5274900823
20
16.6500000000
30
0.0000000000
10
20.5262546560
20
16.6500000000
30
0.0000000000
10
20.5233183944
20
16.6513732954
30
0.0000000000
10
20.5196482499
20
16.6555063779
30
0.0000000000
10
20.5156492368
20
16.6618529654
30
0.0000000000
10
20.5114583531
20
16.6704916905
30
0.0000000000
10
20.5070690427
20
16.6813287481
30
0.0000000000
10
20.5025625334
20
16.6942491833
30
0.0000000000
10
20.4996856841
20
16.7035910665
30
0.0000000000
10
20.4982261214
20
16.7085786438
30
0.0000000000
11
20.5274900823
21
16.6500000000
31
0.0000000000
11
20.5240088802
21
16.6512719016
31
0.0000000000
11
20.5202095583
21
16.6550589152
31
0.0000000000
11
20.5161410112
21
16.6612971307
31
0.0000000000
11
20.5118545590
21
16.6698958825
31
0.0000000000
11
20.5074034059
21
16.6807392100
31
0.0000000000
11
20.5028421180
21
16.6936874106
31
0.0000000000
11
20.4982261214
21
16.7085786438
31
0.0000000000
0
SPLINE
5
2D2
100
AcDbEntity
8
0
100
AcDbSpline
62
0
6
CONTINUOUS
70
0
71
3
72
14
73
10
74
8
42
0.0000001000
43
0.0000001000
44
0.0000000001
12
-0.0671660209
22
0.0000000000
32
0.0000000000
13
-0.0188642794
23
-0.0644624955
33
0.0000000000
40
0.0000000000
40
0.0000000000
40
0.0000000000
40
0.0000000000
40
0.0551808584
40
0.1350479733
40
0.2459330835
40
0.3889804748
40
0.5634938653
40
0.7678846952
40
1.0000000000
40
1.0000000000
40
1.0000000000
40
1.0000000000
10
20.5274900823
20
-16.6500000000
30
0.0000000000
10
20.5262546560
20
-16.6500000000
30
0.0000000000
10
20.5233183944
20
-16.6513732954
30
0.0000000000
10
20.5196482499
20
-16.6555063779
30
0.0000000000
10
20.5156492368
20
-16.6618529654
30
0.0000000000
10
20.5114583531
20
-16.6704916905
30
0.0000000000
10
20.5070690427
20
-16.6813287481
30
0.0000000000
10
20.5025625334
20
-16.6942491833
30
0.0000000000
10
20.4996856841
20
-16.7035910665
30
0.0000000000
10
20.4982261214
20
-16.7085786438
30
0.0000000000
11
20.5274900823
21
-16.6500000000
31
0.0000000000
11
20.5240088802
21
-16.6512719016
31
0.0000000000
11
20.5202095583
21
-16.6550589152
31
0.0000000000
11
20.5161410112
21
-16.6612971307
31
0.0000000000
11
20.5118545590
21
-16.6698958825
31
0.0000000000
11
20.5074034059
21
-16.6807392100
31
0.0000000000
11
20.5028421180
21
-16.6936874106
31
0.0000000000
11
20.4982261214
21
-16.7085786438
31
0.0000000000
0
SPLINE
5
2D3
100
AcDbEntity
8
0
100
AcDbSpline
62
0
6
CONTINUOUS
70
0
71
3
72
20
73
16
74
14
42
0.0000001000
43
0.0000001000
44
0.0000000001
12
-0.1926649368
22
0.0000000000
32
0.0000000000
13
0.1842463954
23
0.0563297760
33
0.0000000000
40
0.0000000000
40
0.0000000000
40
0.0000000000
40
0.0000000000
40
0.1457152596
40
0.2773711522
40
0.3960234070
40
0.5033599166
40
0.6001176263
40
0.6863962292
40
0.7627777447
40
0.8292811016
40
0.8842700025
40
0.9265071755
40
0.9567437681
40
0.9767659520
40
1.0000000000
40
1.0000000000
40
1.0000000000
40
1.0000000000
10
-21.7785076894
20
-17.1000000000
30
0.0000000000
10
-21.7878657632
20
-17.1000000000
30
0.0000000000
10
-21.8056790115
20
-17.0999675043
30
0.0000000000
10
-21.8311119402
20
-17.0998125248
30
0.0000000000
10
-21.8540790662
20
-17.0995614747
30
0.0000000000
10
-21.8748041064
20
-17.0992196962
30
0.0000000000
10
-21.8934461254
20
-17.0987868102
30
0.0000000000
10
-21.9101027639
20
-17.0982699690
30
0.0000000000
10
-21.9247942567
20
-17.0976465831
30
0.0000000000
10
-21.9375235563
20
-17.0969831540
30
0.0000000000
10
-21.9478976330
20
-17.0961014030
30
0.0000000000
10
-21.9563301326
20
-17.0955351599
30
0.0000000000
10
-21.9615501506
20
-17.0940785678
30
0.0000000000
10
-21.9677856192
20
-17.0945599407
30
0.0000000000
10
-21.9662451561
20
-17.0896801086
30
0.0000000000
10
-21.9648182263
20
-17.0892438523
30
0.0000000000
11
-21.7785076894
21
-17.1000000000
31
0.0000000000
11
-21.8065818566
21
-17.0999448682
31
0.0000000000
11
-21.8319468328
21
-17.0997859266
31
0.0000000000
11
-21.8548055438
21
-17.0995312907
31
0.0000000000
11
-21.8754826113
21
-17.0991841171
31
0.0000000000
11
-21.8941192694
21
-17.0987455361
31
0.0000000000
11
-21.9107337242
21
-17.0982169366
31
0.0000000000
11
-21.9254365687
21
-17.0975938853
31
0.0000000000
11
-21.9382290002
21
-17.0968705545
31
0.0000000000
11
-21.9487925387
21
-17.0960620572
31
0.0000000000
11
-21.9568847502
21
-17.0952035648
31
0.0000000000
11
-21.9626433955
21
-17.0943233274
31
0.0000000000
11
-21.9663967439
21
-17.0934326848
31
0.0000000000
11
-21.9648182263
21
-17.0892438523
31
0.0000000000
0
SPLINE
5
2D4
100
AcDbEntity
8
0
100
AcDbSpline
62
0
6
CONTINUOUS
70
0
71
3
72
21
73
17
74
15
42
0.0000001000
43
0.0000001000
44
0.0000000001
12
-0.1862658293
22
0.0569471789
32
0.0000000000
13
0.1947766423
23
-0.0000000000
33
0.0000000000
40
0.0000000000
40
0.0000000000
40
0.0000000000
40
0.0000000000
40
0.0181749965
40
0.0410314833
40
0.0651712565
40
0.0987722079
40
0.1423682975
40
0.1955483968
40
0.2581922593
40
0.3312354171
40
0.4151843753
40
0.5098593495
40
0.6146925295
40
0.7300966697
40
0.8580283323
40
1.0000000000
40
1.0000000000
40
1.0000000000
40
1.0000000000
10
-21.9648182263
20
17.0892438523
30
0.0000000000
10
-21.9659466865
20
17.0895888573
30
0.0000000000
10
-21.9700266855
20
17.0902153697
30
0.0000000000
10
-21.9646777056
20
17.0946723448
30
0.0000000000
10
-21.9599464206
20
17.0945529359
30
0.0000000000
10
-21.9532487964
20
17.0957825550
30
0.0000000000
10
-21.9448831703
20
17.0963847045
30
0.0000000000
10
-21.9345323856
20
17.0971472687
30
0.0000000000
10
-21.9222944216
20
17.0977643147
30
0.0000000000
10
-21.9080427606
20
17.0983395275
30
0.0000000000
10
-21.8917113389
20
17.0988322979
30
0.0000000000
10
-21.8733119636
20
17.0992477246
30
0.0000000000
10
-21.8528687395
20
17.0995769979
30
0.0000000000
10
-21.8302648470
20
17.0998187991
30
0.0000000000
10
-21.8052489272
20
17.0999685102
30
0.0000000000
10
-21.7877252777
20
17.1000000000
30
0.0000000000
10
-21.7785076894
20
17.1000000000
30
0.0000000000
11
-21.9648182263
21
17.0892438523
31
0.0000000000
11
-21.9680998899
21
17.0905715355
31
0.0000000000
11
-21.9650428499
21
17.0938078925
31
0.0000000000
11
-21.9604272389
21
17.0947043633
31
0.0000000000
11
-21.9539375978
21
17.0955513589
31
0.0000000000
11
-21.9454831433
21
17.0963436780
31
0.0000000000
11
-21.9351500465
21
17.0970649766
31
0.0000000000
11
-21.9229656310
21
17.0977115938
31
0.0000000000
11
-21.9087502317
21
17.0982885051
31
0.0000000000
11
-21.8924066851
21
17.0987918669
31
0.0000000000
11
-21.8739710431
21
17.0992139690
31
0.0000000000
11
-21.8535547276
21
17.0995484243
31
0.0000000000
11
-21.8310780312
21
17.0997933541
31
0.0000000000
11
-21.8061604025
21
17.0999465686
31
0.0000000000
11
-21.7785076894
21
17.1000000000
31
0.0000000000
0
SPLINE
5
2D5
100
AcDbEntity
8
0
100
AcDbSpline
62
0
6
CONTINUOUS
70
0
71
3
72
14
73
10
74
8
42
0.0000001000
43
0.0000001000
44
0.0000000001
12
0.0671660209
22
0.0000000000
32
0.0000000000
13
0.0188642794
23
-0.0644624955
33
0.0000000000
40
0.0000000000
40
0.0000000000
40
0.0000000000
40
0.0000000000
40
0.0551808584
40
0.1350479733
40
0.2459330835
40
0.3889804748
40
0.5634938653
40
0.7678846952
40
1.0000000000
40
1.0000000000
40
1.0000000000
40
1.0000000000
10
-20.5274900823
20
-16.6500000000
30
0.0000000000
10
-20.5262546560
20
-16.6500000000
30
0.0000000000
10
-20.5233183944
20
-16.6513732954
30
0.0000000000
10
-20.5196482499
20
-16.6555063779
30
0.0000000000
10
-20.5156492368
20
-16.6618529654
30
0.0000000000
10
-20.5114583531
20
-16.6704916905
30
0.0000000000
10
-20.5070690427
20
-16.6813287481
30
0.0000000000
10
-20.5025625334
20
-16.6942491833
30
0.0000000000
10
-20.4996856841
20
-16.7035910665
30
0.0000000000
10
-20.4982261214
20
-16.7085786438
30
0.0000000000
11
-20.5274900823
21
-16.6500000000
31
0.0000000000
11
-20.5240088802
21
-16.6512719016
31
0.0000000000
11
-20.5202095583
21
-16.6550589152
31
0.0000000000
11
-20.5161410112
21
-16.6612971307
31
0.0000000000
11
-20.5118545590
21
-16.6698958825
31
0.0000000000
11
-20.5074034059
21
-16.6807392100
31
0.0000000000
11
-20.5028421180
21
-16.6936874106
31
0.0000000000
11
-20.4982261214
21
-16.7085786438
31
0.0000000000
0
SPLINE
5
2D6
100
AcDbEntity
8
0
100
AcDbSpline
62
0
6
CONTINUOUS
70
0
71
3
72
20
73
16
74
14
42
0.0000001000
43
0.0000001000
44
0.0000000001
12
0.1926649368
22
0.0000000000
32
0.0000000000
13
-0.1842463954
23
-0.0563297760
33
0.0000000000
40
0.0000000000
40
0.0000000000
40
0.0000000000
40
0.0000000000
40
0.1457152596
40
0.2773711522
40
0.3960234070
40
0.5033599166
40
0.6001176263
40
0.6863962292
40
0.7627777447
40
0.8292811016
40
0.8842700025
40
0.9265071755
40
0.9567437681
40
0.9767659520
40
1.0000000000
40
1.0000000000
40
1.0000000000
40
1.0000000000
10
21.7785076894
20
17.1000000000
30
0.0000000000
10
21.7878657632
20
17.1000000000
30
0.0000000000
10
21.8056790115
20
17.0999675043
30
0.0000000000
10
21.8311119402
20
17.0998125248
30
0.0000000000
10
21.8540790662
20
17.0995614747
30
0.0000000000
10
21.8748041064
20
17.0992196962
30
0.0000000000
10
21.8934461254
20
17.0987868102
30
0.0000000000
10
21.9101027639
20
17.0982699690
30
0.0000000000
10
21.9247942567
20
17.0976465831
30
0.0000000000
10
21.9375235563
20
17.0969831540
30
0.0000000000
10
21.9478976330
20
17.0961014030
30
0.0000000000
10
21.9563301326
20
17.0955351599
30
0.0000000000
10
21.9615501506
20
17.0940785678
30
0.0000000000
10
21.9677856192
20
17.0945599407
30
0.0000000000
10
21.9662451561
20
17.0896801086
30
0.0000000000
10
21.9648182263
20
17.0892438523
30
0.0000000000
11
21.7785076894
21
17.1000000000
31
0.0000000000
11
21.8065818566
21
17.0999448682
31
0.0000000000
11
21.8319468328
21
17.0997859266
31
0.0000000000
11
21.8548055438
21
17.0995312907
31
0.0000000000
11
21.8754826113
21
17.0991841171
31
0.0000000000
11
21.8941192694
21
17.0987455361
31
0.0000000000
11
21.9107337242
21
17.0982169366
31
0.0000000000
11
21.9254365687
21
17.0975938853
31
0.0000000000
11
21.9382290002
21
17.0968705545
31
0.0000000000
11
21.9487925387
21
17.0960620572
31
0.0000000000
11
21.9568847502
21
17.0952035648
31
0.0000000000
11
21.9626433955
21
17.0943233274
31
0.0000000000
11
21.9663967439
21
17.0934326848
31
0.0000000000
11
21.9648182263
21
17.0892438523
31
0.0000000000
0
ENDSEC
0
SECTION
2
OBJECTS
0
DICTIONARY
5
C
100
AcDbDictionary
280
0
281
1
3
ACAD_GROUP
350
D
3
ACAD_MLINESTYLE
350
17
3
ACAD_LAYOUT
350
1A
3
ACAD_PLOTSETTINGS
350
19
3
ACAD_PLOTSTYLENAME
350
E
0
DICTIONARY
5
D
102
{ACAD_REACTORS
330
C
102
}
100
AcDbDictionary
280
0
281
1
0
ACDBDICTIONARYWDFLT
5
E
102
{ACAD_REACTORS
330
C
102
}
100
AcDbDictionary
281
1
3
Normal
350
F
100
AcDbDictionaryWithDefault
340
F
0
DICTIONARY
5
17
102
{ACAD_REACTORS
330
C
102
}
100
AcDbDictionary
280
0
281
1
3
Standard
350
18
0
DICTIONARY
5
19
102
{ACAD_REACTORS
330
C
102
}
100
AcDbDictionary
281
1
0
DICTIONARY
5
1A
102
{ACAD_REACTORS
330
C
102
}
100
AcDbDictionary
281
1
3
Layout1
350
1E
3
Model
350
22
0
ACDBPLACEHOLDER
5
F
102
{ACAD_REACTORS
330
E
102
}
0
MLINESTYLE
5
18
102
{ACAD_REACTORS
330
17
102
}
100
AcDbMlineStyle
2
STANDARD
70
0
3

62
256
51
90.0
52
90.0
71
2
49
0.5
62
256
6
BYLAYER
49
-0.5
62
256
6
BYLAYER
0
LAYOUT
5
1E
102
{ACAD_REACTORS
330
1A
102
}
100
AcDbPlotSettings
1

2

4

6

40
0.0
41
0.0
42
0.0
43
0.0
44
0.0
45
0.0
46
0.0
47
0.0
48
0.0
49
0.0
140
0.0
141
0.0
142
1.0
143
1.0
70
0
72
0
73
0
74
0
7

75
0
147
1.0
148
0.0
149
0.0
100
AcDbLayout
1
Layout1
70
0
71
0
10
0.0
20
0.0
11
0.0
21
0.0
12
0.0
22
0.0
32
0.0
14
0.0
24
0.0
34
0.0
15
0.0
25
0.0
35
0.0
146
0.0
13
0.0
23
0.0
33
0.0
16
0.0
26
0.0
36
0.0
17
0.0
27
0.0
37
0.0
76
0
330
1B
331
0
345
0
346
0
0
LAYOUT
5
22
102
{ACAD_REACTORS
330
1A
102
}
100
AcDbPlotSettings
1

2

4

6

40
0.0
41
0.0
42
0.0
43
0.0
44
0.0
45
0.0
46
0.0
47
0.0
48
0.0
49
0.0
140
0.0
141
0.0
142
1.0
143
1.0
70
0
72
0
73
0
74
0
7

75
0
147
1.0
148
0.0
149
0.0
100
AcDbLayout
1
Model
70
0
71
0
10
0.0
20
0.0
11
0.0
21
0.0
12
0.0
22
0.0
32
0.0
14
0.0
24
0.0
34
0.0
15
0.0
25
0.0
35
0.0
146
0.0
13
0.0
23
0.0
33
0.0
16
0.0
26
0.0
36
0.0
17
0.0
27
0.0
37
0.0
76
0
330
1F
331
0
345
0
346
0
0
ENDSEC
0
EOF
