  0
SECTION
  2
HEADER
  9
$ACADVER
  1
AC1015
  9
$DWGCODEPAGE
  3
ANSI_1252
  9
$EXTMAX
 10
297.0
 20
210.0
 30
0.0
  9
$EXTMIN
 10
0.0
 20
0.0
 30
0.0
  9
$LIMMIN
 10
0.0
 20
0.0
  9
$LIMMAX
 10
297.0
 20
210.0
  9
$VIEWCTR
 10
148.5
 20
105.0
  9
$VIEWSIZE
 40
210.0
  9
$CLAYER
  8
0
  9
$LTSCALE
 40
16.335
  9
$CELTYPE
  6
BYLAYER
  9
$DIMSCALE
 40
1.0
  9
$DIMASZ
 40
3.0
  9
$DIMEXO
 40
0.5
  9
$DIMDLI
 40
11.286
  9
$DIMEXE
 40
1.5
  9
$DIMCEN
 40
2.673
  9
$DIMLFAC
 40
1.0
  9
$DIMBLK
  1
_FILLED
  9
$DIMTXT
 40
3.0
  9
$DIMTOL
 70
1
  9
$DIMLIM
 70
0
  9
$DIMTFAC
 40
1.0
  9
$DIMTP
 40
0.01
  9
$DIMTM
 40
0.01
  9
$DIMGAP
 40
0.625
  9
$DIMDSEP
 70
44
  9
$PDMODE
 70
3
  9
$PDSIZE
 40
3.0
  9
$HANDSEED
  5
442
  9
$TILEMODE
 70
1
  9
$MEASUREMENT
 70
1
  9
$INSUNITS
 70
4
  0
ENDSEC
  0
SECTION
  2
CLASSES
  0
CLASS
  1
ACDBDICTIONARYWDFLT
  2
AcDbDictionaryWithDefault
  3
AutoCAD 2000
 90
0
280
0
281
0
  0
CLASS
  1
ACDBPLACEHOLDER
  2
AcDbPlaceHolder
  3
AutoCAD 2000
 90
0
280
0
281
0
  0
CLASS
  1
LAYOUT
  2
AcDbLayout
  3
AutoCAD 2000
 90
0
280
0
281
0
  0
ENDSEC
  0
SECTION
  2
TABLES
  0
TABLE
  2
VPORT
  5
8
100
AcDbSymbolTable
 70
2
  0
VPORT
  5
1F4
100
AcDbSymbolTableRecord
100
AcDbViewportTableRecord
  2
*ACTIVE
 70
0
 10
0.0
 20
0.0
 11
1.0
 21
1.0
 12
148.5
 22
105.0
 13
0.0
 23
0.0
 14
1.0
 24
1.0
 15
0.0
 25
0.0
 16
0.0
 26
0.0
 36
1.0
 17
0.0
 27
0.0
 37
0.0
 40
210.0
 41
1.4142857143
 42
50.0
 43
0.0
 44
0.0
 50
0.0
 51
0.0
 71
0
 72
100
 73
1
 74
1
 75
0
 76
0
 77
0
 78
0
  0
ENDTAB
  0
TABLE
  2
LTYPE
  5
5
100
AcDbSymbolTable
 70
6
  0
LTYPE
  5
14
100
AcDbSymbolTableRecord
100
AcDbLinetypeTableRecord
  2
BYBLOCK
 70
0
  3

 72
65
 73
0
 40
0.0
  0
LTYPE
  5
15
100
AcDbSymbolTableRecord
100
AcDbLinetypeTableRecord
  2
BYLAYER
 70
0
  3

 72
65
 73
0
 40
0.0
  0
LTYPE
  5
16
100
AcDbSymbolTableRecord
100
AcDbLinetypeTableRecord
  2
CONTINUOUS
 70
64
  3
Solid line
 72
65
 73
0
 40
0.0
  0
LTYPE
  5
1F5
100
AcDbSymbolTableRecord
100
AcDbLinetypeTableRecord
  2
CENTER
 70
64
  3
____ _ ____ _ ____ _ ____ _ ____ _ ____ _ ____
 72
65
 73
4
 40
0.6
 49
0.375
 74
0
 49
-0.075
 74
0
 49
0.075
 74
0
 49
-0.075
 74
0
  0
LTYPE
  5
1F6
100
AcDbSymbolTableRecord
100
AcDbLinetypeTableRecord
  2
HIDDEN
 70
64
  3
- - - - - - - - - - - - - - - - - - - -
 72
65
 73
2
 40
0.2
 49
0.1
 74
0
 49
-0.1
 74
0
  0
LTYPE
  5
1F7
100
AcDbSymbolTableRecord
100
AcDbLinetypeTableRecord
  2
PHANTOM
 70
64
  3
_____ _ _ _____ _ _ _____ _ _ _____
 72
65
 73
6
 40
0.8
 49
0.45
 74
0
 49
-0.05
 74
0
 49
0.1
 74
0
 49
-0.05
 74
0
 49
0.1
 74
0
 49
-0.05
 74
0
  0
LTYPE
  5
1F8
100
AcDbSymbolTableRecord
100
AcDbLinetypeTableRecord
  2
DOT
 70
64
  3
. . . . . . . . . . . . . . . . . . . .
 72
65
 73
2
 40
0.2
 49
0.1
 74
0
 49
-0.1
 74
0
  0
LTYPE
  5
1F9
100
AcDbSymbolTableRecord
100
AcDbLinetypeTableRecord
  2
DASHED
 70
64
  3
- - - - - - - - - - - - - - - - - - - -
 72
65
 73
2
 40
0.2
 49
0.1
 74
0
 49
-0.1
 74
0
  0
ENDTAB
  0
TABLE
  2
LAYER
  5
2
100
AcDbSymbolTable
 70
36
  0
LAYER
  5
10
100
AcDbSymbolTableRecord
100
AcDbLayerTableRecord
  2
0
 70
0
 62
7
  6
CONTINUOUS
370
-3
390
F
  0
LAYER
  5
1FA
100
AcDbSymbolTableRecord
100
AcDbLayerTableRecord
  2
DEFAULT_1
 70
0
 62
7
  6
CENTER
370
-3
390
F
  0
LAYER
  5
1FB
100
AcDbSymbolTableRecord
100
AcDbLayerTableRecord
  2
DEFAULT_2
 70
0
 62
7
  6
HIDDEN
370
-3
390
F
  0
LAYER
  5
1FC
100
AcDbSymbolTableRecord
100
AcDbLayerTableRecord
  2
DEFAULT_3
 70
0
 62
7
  6
PHANTOM
370
-3
390
F
  0
LAYER
  5
1FD
100
AcDbSymbolTableRecord
100
AcDbLayerTableRecord
  2
ASSI
 70
0
 62
7
  6
CONTINUOUS
370
-3
390
F
  0
LAYER
  5
1FE
100
AcDbSymbolTableRecord
100
AcDbLayerTableRecord
  2
COORDINATE
 70
0
 62
7
  6
CONTINUOUS
370
-3
390
F
  0
LAYER
  5
1FF
100
AcDbSymbolTableRecord
100
AcDbLayerTableRecord
  2
COORD_ORIGINE
 70
0
 62
7
  6
CONTINUOUS
370
-3
390
F
  0
LAYER
  5
200
100
AcDbSymbolTableRecord
100
AcDbLayerTableRecord
  2
COPY_PUBLISH
 70
0
 62
7
  6
CONTINUOUS
370
-3
390
F
  0
LAYER
  5
201
100
AcDbSymbolTableRecord
100
AcDbLayerTableRecord
  2
COSMETICI
 70
0
 62
7
  6
CONTINUOUS
370
-3
390
F
  0
LAYER
  5
202
100
AcDbSymbolTableRecord
100
AcDbLayerTableRecord
  2
CURVE
 70
0
 62
7
  6
CONTINUOUS
370
-3
390
F
  0
LAYER
  5
203
100
AcDbSymbolTableRecord
100
AcDbLayerTableRecord
  2
CURVE_LED_TASTO
 70
0
 62
7
  6
CONTINUOUS
370
-3
390
F
  0
LAYER
  5
204
100
AcDbSymbolTableRecord
100
AcDbLayerTableRecord
  2
DRAFT
 70
0
 62
7
  6
CONTINUOUS
370
-3
390
F
  0
LAYER
  5
205
100
AcDbSymbolTableRecord
100
AcDbLayerTableRecord
  2
IMPORT_IGES
 70
0
 62
7
  6
CONTINUOUS
370
-3
390
F
  0
LAYER
  5
206
100
AcDbSymbolTableRecord
100
AcDbLayerTableRecord
  2
NOTE
 70
0
 62
7
  6
CONTINUOUS
370
-3
390
F
  0
LAYER
  5
207
100
AcDbSymbolTableRecord
100
AcDbLayerTableRecord
  2
PIANI
 70
0
 62
7
  6
CONTINUOUS
370
-3
390
F
  0
LAYER
  5
208
100
AcDbSymbolTableRecord
100
AcDbLayerTableRecord
  2
PIANI_ORIGINE
 70
0
 62
7
  6
CONTINUOUS
370
-3
390
F
  0
LAYER
  5
209
100
AcDbSymbolTableRecord
100
AcDbLayerTableRecord
  2
PIANI_RIFERIMENTO
 70
0
 62
7
  6
CONTINUOUS
370
-3
390
F
  0
LAYER
  5
20A
100
AcDbSymbolTableRecord
100
AcDbLayerTableRecord
  2
PUNTI
 70
0
 62
7
  6
CONTINUOUS
370
-3
390
F
  0
LAYER
  5
20B
100
AcDbSymbolTableRecord
100
AcDbLayerTableRecord
  2
RACCORDO
 70
0
 62
7
  6
CONTINUOUS
370
-3
390
F
  0
LAYER
  5
20C
100
AcDbSymbolTableRecord
100
AcDbLayerTableRecord
  2
SCRITTE
 70
0
 62
7
  6
CONTINUOUS
370
-3
390
F
  0
LAYER
  5
20D
100
AcDbSymbolTableRecord
100
AcDbLayerTableRecord
  2
SIMBOLI
 70
0
 62
7
  6
CONTINUOUS
370
-3
390
F
  0
LAYER
  5
20E
100
AcDbSymbolTableRecord
100
AcDbLayerTableRecord
  2
SMUSSO
 70
0
 62
7
  6
CONTINUOUS
370
-3
390
F
  0
LAYER
  5
20F
100
AcDbSymbolTableRecord
100
AcDbLayerTableRecord
  2
SNAPLINE
 70
0
 62
7
  6
CONTINUOUS
370
-3
390
F
  0
LAYER
  5
210
100
AcDbSymbolTableRecord
100
AcDbLayerTableRecord
  2
SUPERFICI
 70
0
 62
7
  6
CONTINUOUS
370
-3
390
F
  0
LAYER
  5
211
100
AcDbSymbolTableRecord
100
AcDbLayerTableRecord
  2
TRASH
 70
0
 62
7
  6
CONTINUOUS
370
-3
390
F
  0
ENDTAB
  0
TABLE
  2
STYLE
  5
3
100
AcDbSymbolTable
 70
1
  0
STYLE
  5
11
100
AcDbSymbolTableRecord
100
AcDbTextStyleTableRecord
  2
STANDARD
 70
0
 40
0.0
 41
0.8
 50
0.0
 71
0
 42
0.2
  3
txt
  4

  0
STYLE
  5
212
100
AcDbSymbolTableRecord
100
AcDbTextStyleTableRecord
  2
TEXTSTYLE_1
 70
0
 40
0.0
 41
0.8
 50
0.0
 71
0
 42
0.2
  3
gdt
  4

  0
ENDTAB
  0
TABLE
  2
VIEW
  5
6
100
AcDbSymbolTable
 70
0
  0
ENDTAB
  0
TABLE
  2
UCS
  5
7
100
AcDbSymbolTable
 70
0
  0
ENDTAB
  0
TABLE
  2
APPID
  5
9
100
AcDbSymbolTable
 70
1
  0
APPID
  5
213
100
AcDbSymbolTableRecord
100
AcDbRegAppTableRecord
  2
ACAD
 70
0
  0
ENDTAB
  0
TABLE
  2
BLOCK_RECORD
  5
1
100
AcDbSymbolTable
 70
0
  0
BLOCK_RECORD
  5
214
100
AcDbSymbolTableRecord
100
AcDbBlockTableRecord
  2
*Model_Space
  0
BLOCK_RECORD
  5
215
100
AcDbSymbolTableRecord
100
AcDbBlockTableRecord
  2
*Paper_Space
  0
ENDTAB
  0
TABLE
  2
DIMSTYLE
  5
A
100
AcDbSymbolTable
 70
1
100
AcDbDimStyleTable
 71
0
  0
DIMSTYLE
105
216
100
AcDbSymbolTableRecord
100
AcDbDimStyleTableRecord
  2
STANDARD
 70
0
  3

  4

 40
1.0
 41
3.0
 42
0.5
 43
0.38
 44
1.5
 45
0.0
 46
0.0
 47
0.01
 48
0.01
140
3.0
141
0.09
142
0.0
143
25.4
144
1.0
145
0.0
146
1.0
147
0.625
 71
1.0
 72
0.0
 73
0
 74
0
 75
0
 76
0
 77
1
 78
8
170
0
171
2
172
0
173
0
174
0
175
0
176
0
177
0
178
0
270
2
271
2
272
2
273
2
274
2
275
0
280
0
281
0
282
0
283
1
284
8
285
0
286
0
287
3
288
0
340
11
278
44
  0
ENDTAB
  0
ENDSEC
  0
SECTION
  2
BLOCKS
  0
BLOCK
  5
20
100
AcDbEntity
  8
0
100
AcDbBlockBegin
  2
*Model_Space
 70
0
 10
0.0
 20
0.0
 30
0.0
  3
*Model_Space
  1

  0
ENDBLK
  5
21
100
AcDbEntity
  8
0
100
AcDbBlockEnd
  0
BLOCK
  5
1C
100
AcDbEntity
  8
0
100
AcDbBlockBegin
  2
*Paper_Space
 70
0
 10
0.0
 20
0.0
 30
0.0
  3
*Paper_Space
  1

  0
ENDBLK
  5
1D
100
AcDbEntity
  8
0
100
AcDbBlockEnd
  0
ENDSEC
  0
SECTION
  2
ENTITIES
  0
LINE
  5
217
100
AcDbEntity
  8
RACCORDO
100
AcDbLine
 62
7
  6
CONTINUOUS
 10
-50.4695759234
 20
35.6481420007
 11
-50.4695759234
 21
-0.5444484302
  0
LINE
  5
218
100
AcDbEntity
  8
ASSI
100
AcDbLine
 62
7
  6
CONTINUOUS
 10
-50.4695759234
 20
35.6481420007
 11
-50.4695759234
 21
-0.5444484302
  0
LINE
  5
219
100
AcDbEntity
  8
RACCORDO
100
AcDbLine
 62
7
  6
CONTINUOUS
 10
-46.1708854546
 20
34.2502909357
 11
-46.1693467891
 21
34.2552570219
  0
LWPOLYLINE
  5
21A
100
AcDbEntity
  8
RACCORDO
100
AcDbPolyline
 62
7
  6
CONTINUOUS
 90
16
 70
0
 10
-46.1923518987
 20
34.2041041716
 10
-46.1910836471
 20
34.2053672679
 10
-46.1897854817
 20
34.2069057004
 10
-46.1884573125
 20
34.2087167141
 10
-46.1870992294
 20
34.2107971854
 10
-46.1857169346
 20
34.2131439159
 10
-46.1843103583
 20
34.2157531407
 10
-46.1828795704
 20
34.2186207458
 10
-46.1814304824
 20
34.2217426678
 10
-46.1799630439
 20
34.2251141859
 10
-46.1784773052
 20
34.2287302518
 10
-46.1769793293
 20
34.2325859953
 10
-46.1754690844
 20
34.236675799
 10
-46.1739466022
 20
34.2409937391
 10
-46.1724180414
 20
34.2455341958
 10
-46.1708854546
 20
34.2502909357
  0
LINE
  5
21B
100
AcDbEntity
  8
RACCORDO
100
AcDbLine
 62
7
  6
CONTINUOUS
 10
-46.1935848036
 20
34.2031186869
 11
-46.1923518987
 21
34.2041041716
  0
LINE
  5
21C
100
AcDbEntity
  8
RACCORDO
100
AcDbLine
 62
7
  6
CONTINUOUS
 10
-46.1935848036
 20
0.9005748836
 11
-46.1923518987
 21
0.8995893989
  0
LWPOLYLINE
  5
21D
100
AcDbEntity
  8
RACCORDO
100
AcDbPolyline
 62
7
  6
CONTINUOUS
 90
16
 70
0
 10
-46.1923518987
 20
0.8995893989
 10
-46.1910836471
 20
0.8983263025
 10
-46.1897854817
 20
0.89678787
 10
-46.1884573125
 20
0.8949768563
 10
-46.1870992294
 20
0.8928963851
 10
-46.1857169346
 20
0.8905496545
 10
-46.1843103583
 20
0.8879404297
 10
-46.1828795704
 20
0.8850728247
 10
-46.1814304824
 20
0.8819509027
 10
-46.1799630439
 20
0.8785793845
 10
-46.1784773052
 20
0.8749633186
 10
-46.1769793293
 20
0.8711075752
 10
-46.1754690844
 20
0.8670177715
 10
-46.1739466022
 20
0.8626998314
 10
-46.1724180414
 20
0.8581593747
 10
-46.1708854546
 20
0.8534026347
  0
LINE
  5
21E
100
AcDbEntity
  8
RACCORDO
100
AcDbLine
 62
7
  6
CONTINUOUS
 10
-46.1708854546
 20
0.8534026347
 11
-46.1693467891
 21
0.8484365486
  0
LINE
  5
21F
100
AcDbEntity
  8
RACCORDO
100
AcDbLine
 62
7
  6
CONTINUOUS
 10
-49.3258789283
 20
21.8662061392
 11
-49.3225134934
 21
21.1982569467
  0
LINE
  5
220
100
AcDbEntity
  8
ASSI
100
AcDbLine
 62
7
  6
CONTINUOUS
 10
-49.3258789283
 20
21.8662061392
 11
-49.3225134934
 21
21.1982569467
  0
LINE
  5
221
100
AcDbEntity
  8
DRAFT
100
AcDbLine
 62
7
  6
CONTINUOUS
 10
-49.3695759234
 20
34.6518467852
 11
-49.3695759234
 21
0.4518467852
  0
LINE
  5
222
100
AcDbEntity
  8
ASSI
100
AcDbLine
 62
7
  6
CONTINUOUS
 10
-49.3695759234
 20
34.6518467852
 11
-49.3695759234
 21
0.4518467852
  0
LINE
  5
223
100
AcDbEntity
  8
RACCORDO
100
AcDbLine
 62
7
  6
CONTINUOUS
 10
-49.3268142712
 20
34.1368360324
 11
-49.3268142712
 21
22.2662061392
  0
LINE
  5
224
100
AcDbEntity
  8
ASSI
100
AcDbLine
 62
7
  6
CONTINUOUS
 10
-49.3268142712
 20
34.1368360324
 11
-49.3268142712
 21
22.2662061392
  0
LINE
  5
225
100
AcDbEntity
  8
RACCORDO
100
AcDbLine
 62
7
  6
CONTINUOUS
 10
-49.3268142712
 20
12.8374874313
 11
-49.3268142712
 21
0.966857538
  0
LINE
  5
226
100
AcDbEntity
  8
ASSI
100
AcDbLine
 62
7
  6
CONTINUOUS
 10
-49.3268142712
 20
12.8374874313
 11
-49.3268142712
 21
0.966857538
  0
LINE
  5
227
100
AcDbEntity
  8
RACCORDO
100
AcDbLine
 62
7
  6
CONTINUOUS
 10
-49.3215781505
 20
14.3054366237
 11
-49.3215781505
 21
20.7982569467
  0
LINE
  5
228
100
AcDbEntity
  8
ASSI
100
AcDbLine
 62
7
  6
CONTINUOUS
 10
-49.3215781505
 20
14.3054366237
 11
-49.3215781505
 21
20.7982569467
  0
LINE
  5
229
100
AcDbEntity
  8
RACCORDO
100
AcDbLine
 62
7
  6
CONTINUOUS
 10
-49.3225134934
 20
13.9054366237
 11
-49.3258789283
 21
13.2374874313
  0
LINE
  5
22A
100
AcDbEntity
  8
ASSI
100
AcDbLine
 62
7
  6
CONTINUOUS
 10
-49.3225134934
 20
13.9054366237
 11
-49.3258789283
 21
13.2374874313
  0
LINE
  5
22B
100
AcDbEntity
  8
RACCORDO
100
AcDbLine
 62
7
  6
CONTINUOUS
 10
-46.1693467891
 20
34.2552570219
 11
-46.1678020448
 21
34.260425429
  0
LINE
  5
22C
100
AcDbEntity
  8
RACCORDO
100
AcDbLine
 62
7
  6
CONTINUOUS
 10
-46.1693467891
 20
0.8484365486
 11
-46.1678020448
 21
0.8432681415
  0
LINE
  5
22D
100
AcDbEntity
  8
DRAFT
100
AcDbLine
 62
7
  6
CONTINUOUS
 10
-49.3268142712
 20
34.1368360324
 11
-49.3695759234
 21
34.6518467852
  0
LINE
  5
22E
100
AcDbEntity
  8
ASSI
100
AcDbLine
 62
7
  6
CONTINUOUS
 10
-49.3268142712
 20
34.1368360324
 11
-49.3695759234
 21
34.6518467852
  0
LINE
  5
22F
100
AcDbEntity
  8
DRAFT
100
AcDbLine
 62
7
  6
CONTINUOUS
 10
-49.3695759234
 20
0.4518467852
 11
-49.3268142712
 21
0.966857538
  0
LINE
  5
230
100
AcDbEntity
  8
ASSI
100
AcDbLine
 62
7
  6
CONTINUOUS
 10
-49.3695759234
 20
0.4518467852
 11
-49.3268142712
 21
0.966857538
  0
LINE
  5
231
100
AcDbEntity
  8
RACCORDO
100
AcDbLine
 62
7
  6
CONTINUOUS
 10
-45.6695759234
 20
34.6518467852
 11
-45.6695759234
 21
34.2019840206
  0
LINE
  5
232
100
AcDbEntity
  8
ASSI
100
AcDbLine
 62
7
  6
CONTINUOUS
 10
-45.6695759234
 20
34.6518467852
 11
-45.6695759234
 21
34.2019840206
  0
LINE
  5
233
100
AcDbEntity
  8
RACCORDO
100
AcDbLine
 62
7
  6
CONTINUOUS
 10
-45.6695759234
 20
0.9018467852
 11
-45.6695759234
 21
0.4518467852
  0
LINE
  5
234
100
AcDbEntity
  8
ASSI
100
AcDbLine
 62
7
  6
CONTINUOUS
 10
-45.6695759234
 20
0.9018467852
 11
-45.6695759234
 21
0.4518467852
  0
LWPOLYLINE
  5
235
100
AcDbEntity
  8
RACCORDO
100
AcDbPolyline
 62
7
  6
CONTINUOUS
 90
4
 70
0
 10
-5.1420858411
 20
0.9018467852
 10
-5.1432108952
 20
0.9017050956
 10
-5.1443712959
 20
0.9012806949
 10
-5.1455670432
 20
0.9005748836
  0
LWPOLYLINE
  5
236
100
AcDbEntity
  8
ASSI
100
AcDbPolyline
 62
7
  6
CONTINUOUS
 90
22
 70
0
 10
-5.1420858411
 20
0.9018467852
 10
-5.1432108952
 20
0.9017050956
 10
-5.1443712959
 20
0.9012806949
 10
-5.1455670432
 20
0.9005748836
 10
-5.1467999481
 20
0.8995893989
 10
-5.1480681997
 20
0.8983263025
 10
-5.1493663651
 20
0.89678787
 10
-5.1506945343
 20
0.8949768563
 10
-5.1520526174
 20
0.8928963851
 10
-5.1534349122
 20
0.8905496545
 10
-5.1548414885
 20
0.8879404297
 10
-5.1562722764
 20
0.8850728247
 10
-5.1577213644
 20
0.8819509027
 10
-5.1591888029
 20
0.8785793845
 10
-5.1606745416
 20
0.8749633186
 10
-5.1621725175
 20
0.8711075752
 10
-5.1636827624
 20
0.8670177715
 10
-5.1652052445
 20
0.8626998314
 10
-5.1667338054
 20
0.8581593747
 10
-5.1682663922
 20
0.8534026347
 10
-5.1698050577
 20
0.8484365486
 10
-5.171349802
 20
0.8432681415
  0
LINE
  5
237
100
AcDbEntity
  8
RACCORDO
100
AcDbLine
 62
7
  6
CONTINUOUS
 10
-50.170439537
 20
-0.8481532148
 11
-1.1687123097
 21
-0.8481532148
  0
LINE
  5
238
100
AcDbEntity
  8
ASSI
100
AcDbLine
 62
7
  6
CONTINUOUS
 10
-50.170439537
 20
-0.8481532148
 11
-1.1687123097
 21
-0.8481532148
  0
LWPOLYLINE
  5
239
100
AcDbEntity
  8
RACCORDO
100
AcDbPolyline
 62
7
  6
CONTINUOUS
 90
4
 70
0
 10
-46.1970660057
 20
0.9018467852
 10
-46.1959409516
 20
0.9017050956
 10
-46.1947805509
 20
0.9012806949
 10
-46.1935848036
 20
0.9005748836
  0
LWPOLYLINE
  5
23A
100
AcDbEntity
  8
ASSI
100
AcDbPolyline
 62
7
  6
CONTINUOUS
 90
22
 70
0
 10
-46.1970660057
 20
0.9018467852
 10
-46.1959409516
 20
0.9017050956
 10
-46.1947805509
 20
0.9012806949
 10
-46.1935848036
 20
0.9005748836
 10
-46.1923518987
 20
0.8995893989
 10
-46.1910836471
 20
0.8983263025
 10
-46.1897854817
 20
0.89678787
 10
-46.1884573125
 20
0.8949768563
 10
-46.1870992294
 20
0.8928963851
 10
-46.1857169346
 20
0.8905496545
 10
-46.1843103583
 20
0.8879404297
 10
-46.1828795704
 20
0.8850728247
 10
-46.1814304824
 20
0.8819509027
 10
-46.1799630439
 20
0.8785793845
 10
-46.1784773052
 20
0.8749633186
 10
-46.1769793293
 20
0.8711075752
 10
-46.1754690844
 20
0.8670177715
 10
-46.1739466022
 20
0.8626998314
 10
-46.1724180414
 20
0.8581593747
 10
-46.1708854546
 20
0.8534026347
 10
-46.1693467891
 20
0.8484365486
 10
-46.1678020448
 20
0.8432681415
  0
LINE
  5
23B
100
AcDbEntity
  8
0
100
AcDbLine
 62
7
  6
CONTINUOUS
 10
-43.5953859234
 20
19.4898297852
 11
-43.5953859234
 21
18.4901027852
  0
LINE
  5
23C
100
AcDbEntity
  8
ASSI
100
AcDbLine
 62
7
  6
CONTINUOUS
 10
-43.5953859234
 20
19.4898297852
 11
-43.5953859234
 21
18.4901027852
  0
LINE
  5
23D
100
AcDbEntity
  8
0
100
AcDbLine
 62
7
  6
CONTINUOUS
 10
-43.4644349234
 20
18.4901027852
 11
-43.4644349234
 21
19.3280617852
  0
LINE
  5
23E
100
AcDbEntity
  8
ASSI
100
AcDbLine
 62
7
  6
CONTINUOUS
 10
-43.4644349234
 20
18.4901027852
 11
-43.4644349234
 21
19.3280617852
  0
LINE
  5
23F
100
AcDbEntity
  8
0
100
AcDbLine
 62
7
  6
CONTINUOUS
 10
-43.3892929234
 20
16.6143997852
 11
-43.3892929234
 21
15.6138637852
  0
LINE
  5
240
100
AcDbEntity
  8
ASSI
100
AcDbLine
 62
7
  6
CONTINUOUS
 10
-43.3892929234
 20
16.6143997852
 11
-43.3892929234
 21
15.6138637852
  0
LINE
  5
241
100
AcDbEntity
  8
0
100
AcDbLine
 62
7
  6
CONTINUOUS
 10
-43.2541359234
 20
15.6138637852
 11
-43.2541359234
 21
16.6143997852
  0
LINE
  5
242
100
AcDbEntity
  8
ASSI
100
AcDbLine
 62
7
  6
CONTINUOUS
 10
-43.2541359234
 20
15.6138637852
 11
-43.2541359234
 21
16.6143997852
  0
LINE
  5
243
100
AcDbEntity
  8
0
100
AcDbLine
 62
7
  6
CONTINUOUS
 10
-43.1091919234
 20
16.6143997852
 11
-43.1091919234
 21
16.4946917852
  0
LINE
  5
244
100
AcDbEntity
  8
ASSI
100
AcDbLine
 62
7
  6
CONTINUOUS
 10
-43.1091919234
 20
16.6143997852
 11
-43.1091919234
 21
16.4946917852
  0
LINE
  5
245
100
AcDbEntity
  8
0
100
AcDbLine
 62
7
  6
CONTINUOUS
 10
-42.7706919234
 20
16.4946917852
 11
-42.7706919234
 21
15.6138637852
  0
LINE
  5
246
100
AcDbEntity
  8
ASSI
100
AcDbLine
 62
7
  6
CONTINUOUS
 10
-42.7706919234
 20
16.4946917852
 11
-42.7706919234
 21
15.6138637852
  0
LINE
  5
247
100
AcDbEntity
  8
0
100
AcDbLine
 62
7
  6
CONTINUOUS
 10
-42.7679419234
 20
19.3296787852
 11
-42.7679419234
 21
18.4901027852
  0
LINE
  5
248
100
AcDbEntity
  8
ASSI
100
AcDbLine
 62
7
  6
CONTINUOUS
 10
-42.7679419234
 20
19.3296787852
 11
-42.7679419234
 21
18.4901027852
  0
LINE
  5
249
100
AcDbEntity
  8
0
100
AcDbLine
 62
7
  6
CONTINUOUS
 10
-42.6369899234
 20
18.4901027852
 11
-42.6369899234
 21
19.4898297852
  0
LINE
  5
24A
100
AcDbEntity
  8
ASSI
100
AcDbLine
 62
7
  6
CONTINUOUS
 10
-42.6369899234
 20
18.4901027852
 11
-42.6369899234
 21
19.4898297852
  0
LINE
  5
24B
100
AcDbEntity
  8
0
100
AcDbLine
 62
7
  6
CONTINUOUS
 10
-42.6356149234
 20
15.6138637852
 11
-42.6356149234
 21
16.4946917852
  0
LINE
  5
24C
100
AcDbEntity
  8
ASSI
100
AcDbLine
 62
7
  6
CONTINUOUS
 10
-42.6356149234
 20
15.6138637852
 11
-42.6356149234
 21
16.4946917852
  0
LINE
  5
24D
100
AcDbEntity
  8
0
100
AcDbLine
 62
7
  6
CONTINUOUS
 10
-42.2971149234
 20
16.4946917852
 11
-42.2971149234
 21
16.6143997852
  0
LINE
  5
24E
100
AcDbEntity
  8
ASSI
100
AcDbLine
 62
7
  6
CONTINUOUS
 10
-42.2971149234
 20
16.4946917852
 11
-42.2971149234
 21
16.6143997852
  0
LINE
  5
24F
100
AcDbEntity
  8
0
100
AcDbLine
 62
7
  6
CONTINUOUS
 10
-42.2546509234
 20
18.0517107852
 11
-42.2546509234
 21
17.0519827852
  0
LINE
  5
250
100
AcDbEntity
  8
ASSI
100
AcDbLine
 62
7
  6
CONTINUOUS
 10
-42.2546509234
 20
18.0517107852
 11
-42.2546509234
 21
17.0519827852
  0
LINE
  5
251
100
AcDbEntity
  8
0
100
AcDbLine
 62
7
  6
CONTINUOUS
 10
-42.1194939234
 20
17.0519827852
 11
-42.1194939234
 21
18.0517107852
  0
LINE
  5
252
100
AcDbEntity
  8
ASSI
100
AcDbLine
 62
7
  6
CONTINUOUS
 10
-42.1194939234
 20
17.0519827852
 11
-42.1194939234
 21
18.0517107852
  0
LINE
  5
253
100
AcDbEntity
  8
0
100
AcDbLine
 62
7
  6
CONTINUOUS
 10
-41.8883269234
 20
18.0517107852
 11
-41.8883269234
 21
17.0519827852
  0
LINE
  5
254
100
AcDbEntity
  8
ASSI
100
AcDbLine
 62
7
  6
CONTINUOUS
 10
-41.8883269234
 20
18.0517107852
 11
-41.8883269234
 21
17.0519827852
  0
LINE
  5
255
100
AcDbEntity
  8
0
100
AcDbLine
 62
7
  6
CONTINUOUS
 10
-43.0493369234
 20
18.4901027852
 11
-42.7679419234
 21
19.3296787852
  0
LINE
  5
256
100
AcDbEntity
  8
ASSI
100
AcDbLine
 62
7
  6
CONTINUOUS
 10
-43.0493369234
 20
18.4901027852
 11
-42.7679419234
 21
19.3296787852
  0
LINE
  5
257
100
AcDbEntity
  8
0
100
AcDbLine
 62
7
  6
CONTINUOUS
 10
-42.8292519234
 20
19.4898297852
 11
-43.1148099234
 21
18.6403907852
  0
LINE
  5
258
100
AcDbEntity
  8
ASSI
100
AcDbLine
 62
7
  6
CONTINUOUS
 10
-42.8292519234
 20
19.4898297852
 11
-43.1148099234
 21
18.6403907852
  0
LINE
  5
259
100
AcDbEntity
  8
DRAFT
100
AcDbLine
 62
7
  6
CONTINUOUS
 10
-45.6695759234
 20
0.4518467852
 11
-5.6695759234
 21
0.4518467852
  0
LINE
  5
25A
100
AcDbEntity
  8
RACCORDO
100
AcDbLine
 62
7
  6
CONTINUOUS
 10
-1.9695759234
 20
0.4518467852
 11
-5.6695759234
 21
0.4518467852
  0
LINE
  5
25B
100
AcDbEntity
  8
RACCORDO
100
AcDbLine
 62
7
  6
CONTINUOUS
 10
-45.6695759234
 20
0.4518467852
 11
-49.3695759234
 21
0.4518467852
  0
LINE
  5
25C
100
AcDbEntity
  8
ASSI
100
AcDbLine
 62
7
  6
CONTINUOUS
 10
-1.9695759234
 20
0.4518467852
 11
-49.3695759234
 21
0.4518467852
  0
LINE
  5
25D
100
AcDbEntity
  8
RACCORDO
100
AcDbLine
 62
253
  6
CONTINUOUS
 10
-5.171349802
 20
0.8432681415
 11
-5.6695759234
 21
0.8432681415
  0
LINE
  5
25E
100
AcDbEntity
  8
ASSI
100
AcDbLine
 62
253
  6
CONTINUOUS
 10
-5.171349802
 20
0.8432681415
 11
-5.6695759234
 21
0.8432681415
  0
LINE
  5
25F
100
AcDbEntity
  8
RACCORDO
100
AcDbLine
 62
253
  6
CONTINUOUS
 10
-45.6695759234
 20
0.8432681415
 11
-46.1678020448
 21
0.8432681415
  0
LINE
  5
260
100
AcDbEntity
  8
ASSI
100
AcDbLine
 62
253
  6
CONTINUOUS
 10
-45.6695759234
 20
0.8432681415
 11
-46.1678020448
 21
0.8432681415
  0
LINE
  5
261
100
AcDbEntity
  8
RACCORDO
100
AcDbLine
 62
7
  6
CONTINUOUS
 10
-5.1420858411
 20
0.9018467852
 11
-5.6695759234
 21
0.9018467852
  0
LINE
  5
262
100
AcDbEntity
  8
ASSI
100
AcDbLine
 62
7
  6
CONTINUOUS
 10
-5.1414596017
 20
0.9018467852
 11
-5.6695759234
 21
0.9018467852
  0
LINE
  5
263
100
AcDbEntity
  8
RACCORDO
100
AcDbLine
 62
7
  6
CONTINUOUS
 10
-45.6695759234
 20
0.9018467852
 11
-46.1973105786
 21
0.9018467852
  0
LINE
  5
264
100
AcDbEntity
  8
ASSI
100
AcDbLine
 62
7
  6
CONTINUOUS
 10
-45.6695759234
 20
0.9018467852
 11
-46.1976738927
 21
0.9018467852
  0
LINE
  5
265
100
AcDbEntity
  8
DRAFT
100
AcDbLine
 62
7
  6
CONTINUOUS
 10
-49.3268142712
 20
0.966857538
 11
-2.0123375756
 21
0.966857538
  0
LINE
  5
266
100
AcDbEntity
  8
ASSI
100
AcDbLine
 62
7
  6
CONTINUOUS
 10
-49.3268142712
 20
0.966857538
 11
-2.0123375756
 21
0.966857538
  0
LINE
  5
267
100
AcDbEntity
  8
0
100
AcDbLine
 62
7
  6
CONTINUOUS
 10
-43.4644349234
 20
19.3280617852
 11
-43.1830389234
 21
18.4901027852
  0
LINE
  5
268
100
AcDbEntity
  8
ASSI
100
AcDbLine
 62
7
  6
CONTINUOUS
 10
-43.4644349234
 20
19.3280617852
 11
-43.1830389234
 21
18.4901027852
  0
LINE
  5
269
100
AcDbEntity
  8
0
100
AcDbLine
 62
7
  6
CONTINUOUS
 10
-41.7572949234
 20
17.0519827852
 11
-41.7572949234
 21
17.8643857852
  0
LINE
  5
26A
100
AcDbEntity
  8
ASSI
100
AcDbLine
 62
7
  6
CONTINUOUS
 10
-41.7572949234
 20
17.0519827852
 11
-41.7572949234
 21
17.8643857852
  0
LINE
  5
26B
100
AcDbEntity
  8
0
100
AcDbLine
 62
7
  6
CONTINUOUS
 10
-41.4947449234
 20
19.4898297852
 11
-41.4947449234
 21
18.4901027852
  0
LINE
  5
26C
100
AcDbEntity
  8
ASSI
100
AcDbLine
 62
7
  6
CONTINUOUS
 10
-41.4947449234
 20
19.4898297852
 11
-41.4947449234
 21
18.4901027852
  0
LINE
  5
26D
100
AcDbEntity
  8
0
100
AcDbLine
 62
7
  6
CONTINUOUS
 10
-41.3596689234
 20
18.6057667852
 11
-41.3596689234
 21
19.3741657852
  0
LINE
  5
26E
100
AcDbEntity
  8
ASSI
100
AcDbLine
 62
7
  6
CONTINUOUS
 10
-41.3596689234
 20
18.6057667852
 11
-41.3596689234
 21
19.3741657852
  0
LINE
  5
26F
100
AcDbEntity
  8
0
100
AcDbLine
 62
7
  6
CONTINUOUS
 10
-41.2426289234
 20
16.6143997852
 11
-41.2426289234
 21
15.6138637852
  0
LINE
  5
270
100
AcDbEntity
  8
ASSI
100
AcDbLine
 62
7
  6
CONTINUOUS
 10
-41.2426289234
 20
16.6143997852
 11
-41.2426289234
 21
15.6138637852
  0
LINE
  5
271
100
AcDbEntity
  8
0
100
AcDbLine
 62
7
  6
CONTINUOUS
 10
-41.2251579234
 20
18.0517107852
 11
-41.2251579234
 21
17.2399177852
  0
LINE
  5
272
100
AcDbEntity
  8
ASSI
100
AcDbLine
 62
7
  6
CONTINUOUS
 10
-41.2251579234
 20
18.0517107852
 11
-41.2251579234
 21
17.2399177852
  0
LINE
  5
273
100
AcDbEntity
  8
0
100
AcDbLine
 62
7
  6
CONTINUOUS
 10
-41.1075529234
 20
15.7335727852
 11
-41.1075529234
 21
16.6143997852
  0
LINE
  5
274
100
AcDbEntity
  8
ASSI
100
AcDbLine
 62
7
  6
CONTINUOUS
 10
-41.1075529234
 20
15.7335727852
 11
-41.1075529234
 21
16.6143997852
  0
LINE
  5
275
100
AcDbEntity
  8
0
100
AcDbLine
 62
7
  6
CONTINUOUS
 10
-41.0942879234
 20
17.0519827852
 11
-41.0942879234
 21
18.0517107852
  0
LINE
  5
276
100
AcDbEntity
  8
ASSI
100
AcDbLine
 62
7
  6
CONTINUOUS
 10
-41.0942879234
 20
17.0519827852
 11
-41.0942879234
 21
18.0517107852
  0
LINE
  5
277
100
AcDbEntity
  8
0
100
AcDbLine
 62
7
  6
CONTINUOUS
 10
-40.6004899234
 20
15.6138637852
 11
-40.6004899234
 21
15.7335727852
  0
LINE
  5
278
100
AcDbEntity
  8
ASSI
100
AcDbLine
 62
7
  6
CONTINUOUS
 10
-40.6004899234
 20
15.6138637852
 11
-40.6004899234
 21
15.7335727852
  0
LINE
  5
279
100
AcDbEntity
  8
0
100
AcDbLine
 62
7
  6
CONTINUOUS
 10
-40.4820759234
 20
19.4898297852
 11
-40.4820759234
 21
18.4901027852
  0
LINE
  5
27A
100
AcDbEntity
  8
ASSI
100
AcDbLine
 62
7
  6
CONTINUOUS
 10
-40.4820759234
 20
19.4898297852
 11
-40.4820759234
 21
18.4901027852
  0
LINE
  5
27B
100
AcDbEntity
  8
0
100
AcDbLine
 62
7
  6
CONTINUOUS
 10
-40.3859049234
 20
16.0166667852
 11
-40.3859049234
 21
15.6138637852
  0
LINE
  5
27C
100
AcDbEntity
  8
ASSI
100
AcDbLine
 62
7
  6
CONTINUOUS
 10
-40.3859049234
 20
16.0166667852
 11
-40.3859049234
 21
15.6138637852
  0
LINE
  5
27D
100
AcDbEntity
  8
0
100
AcDbLine
 62
7
  6
CONTINUOUS
 10
-40.3469189234
 20
18.6098107852
 11
-40.3469189234
 21
18.9438617852
  0
LINE
  5
27E
100
AcDbEntity
  8
ASSI
100
AcDbLine
 62
7
  6
CONTINUOUS
 10
-40.3469189234
 20
18.6098107852
 11
-40.3469189234
 21
18.9438617852
  0
LINE
  5
27F
100
AcDbEntity
  8
0
100
AcDbLine
 62
7
  6
CONTINUOUS
 10
-40.3469189234
 20
19.0635707852
 11
-40.3469189234
 21
19.3701207852
  0
LINE
  5
280
100
AcDbEntity
  8
ASSI
100
AcDbLine
 62
7
  6
CONTINUOUS
 10
-40.3469189234
 20
19.0635707852
 11
-40.3469189234
 21
19.3701207852
  0
LINE
  5
281
100
AcDbEntity
  8
0
100
AcDbLine
 62
7
  6
CONTINUOUS
 10
-40.2508289234
 20
15.6138637852
 11
-40.2508289234
 21
16.0166667852
  0
LINE
  5
282
100
AcDbEntity
  8
ASSI
100
AcDbLine
 62
7
  6
CONTINUOUS
 10
-40.2508289234
 20
15.6138637852
 11
-40.2508289234
 21
16.0166667852
  0
LWPOLYLINE
  5
283
100
AcDbEntity
  8
0
100
AcDbPolyline
 62
7
  6
CONTINUOUS
 90
49
 70
0
 10
-40.6691792281
 20
18.9899659852
 10
-40.6690892245
 20
19.0099056041
 10
-40.6694357283
 20
19.029283164
 10
-40.6702187394
 20
19.0480986649
 10
-40.6713826331
 20
19.0661439864
 10
-40.6729830342
 20
19.083627249
 10
-40.675186817
 20
19.1011728131
 10
-40.678054709
 20
19.1190023303
 10
-40.6815259827
 20
19.1368941492
 10
-40.68558533
 20
19.1548076759
 10
-40.6903092438
 20
19.1729814644
 10
-40.6956212312
 20
19.1911769608
 10
-40.7012765053
 20
19.2086379099
 10
-40.7072127985
 20
19.2250899716
 10
-40.7134923784
 20
19.2408074859
 10
-40.7200572609
 20
19.2558572177
 10
-40.726886052
 20
19.2702086797
 10
-40.7340001457
 20
19.2838923591
 10
-40.7414057396
 20
19.2970664815
 10
-40.7491232605
 20
19.3097812087
 10
-40.7571322815
 20
19.3219863788
 10
-40.7653777205
 20
19.3336897324
 10
-40.773858469
 20
19.3448928583
 10
-40.7825756355
 20
19.3555941677
 10
-40.7914774622
 20
19.3657966348
 10
-40.8005269415
 20
19.3754706771
 10
-40.809761081
 20
19.3846458771
 10
-40.8192391456
 20
19.3934139566
 10
-40.8289620912
 20
19.4017858478
 10
-40.8389289619
 20
19.4097506186
 10
-40.8491961546
 20
19.4173671949
 10
-40.8597838109
 20
19.4246599965
 10
-40.8706717893
 20
19.4316046037
 10
-40.8818560621
 20
19.4381866835
 10
-40.8933214478
 20
19.4444041537
 10
-40.9050831279
 20
19.4502590965
 10
-40.9171826193
 20
19.4557434257
 10
-40.929616348
 20
19.4608595112
 10
-40.9423878879
 20
19.4656049831
 10
-40.9555494778
 20
19.4699646465
 10
-40.9691335189
 20
19.4739517422
 10
-40.98310761
 20
19.4775530293
 10
-40.997426786
 20
19.48071359
 10
-41.0121153922
 20
19.4834329733
 10
-41.0271490834
 20
19.4857116302
 10
-41.042409859
 20
19.4874959963
 10
-41.0578583855
 20
19.4887682167
 10
-41.0735339965
 20
19.4895461464
 10
-41.0894366918
 20
19.4898297852
  0
LWPOLYLINE
  5
284
100
AcDbEntity
  8
ASSI
100
AcDbPolyline
 62
7
  6
CONTINUOUS
 90
49
 70
0
 10
-40.6691792281
 20
18.9899659852
 10
-40.6690892245
 20
19.0099056041
 10
-40.6694357283
 20
19.029283164
 10
-40.6702187394
 20
19.0480986649
 10
-40.6713826331
 20
19.0661439864
 10
-40.6729830342
 20
19.083627249
 10
-40.675186817
 20
19.1011728131
 10
-40.678054709
 20
19.1190023303
 10
-40.6815259827
 20
19.1368941492
 10
-40.68558533
 20
19.1548076759
 10
-40.6903092438
 20
19.1729814644
 10
-40.6956212312
 20
19.1911769608
 10
-40.7012765053
 20
19.2086379099
 10
-40.7072127985
 20
19.2250899716
 10
-40.7134923784
 20
19.2408074859
 10
-40.7200572609
 20
19.2558572177
 10
-40.726886052
 20
19.2702086797
 10
-40.7340001457
 20
19.2838923591
 10
-40.7414057396
 20
19.2970664815
 10
-40.7491232605
 20
19.3097812087
 10
-40.7571322815
 20
19.3219863788
 10
-40.7653777205
 20
19.3336897324
 10
-40.773858469
 20
19.3448928583
 10
-40.7825756355
 20
19.3555941677
 10
-40.7914774622
 20
19.3657966348
 10
-40.8005269415
 20
19.3754706771
 10
-40.809761081
 20
19.3846458771
 10
-40.8192391456
 20
19.3934139566
 10
-40.8289620912
 20
19.4017858478
 10
-40.8389289619
 20
19.4097506186
 10
-40.8491961546
 20
19.4173671949
 10
-40.8597838109
 20
19.4246599965
 10
-40.8706717893
 20
19.4316046037
 10
-40.8818560621
 20
19.4381866835
 10
-40.8933214478
 20
19.4444041537
 10
-40.9050831279
 20
19.4502590965
 10
-40.9171826193
 20
19.4557434257
 10
-40.929616348
 20
19.4608595112
 10
-40.9423878879
 20
19.4656049831
 10
-40.9555494778
 20
19.4699646465
 10
-40.9691335189
 20
19.4739517422
 10
-40.98310761
 20
19.4775530293
 10
-40.997426786
 20
19.48071359
 10
-41.0121153922
 20
19.4834329733
 10
-41.0271490834
 20
19.4857116302
 10
-41.042409859
 20
19.4874959963
 10
-41.0578583855
 20
19.4887682167
 10
-41.0735339965
 20
19.4895461464
 10
-41.0894366918
 20
19.4898297852
  0
LWPOLYLINE
  5
285
100
AcDbEntity
  8
0
100
AcDbPolyline
 62
7
  6
CONTINUOUS
 90
46
 70
0
 10
-40.8078200647
 20
18.9899659852
 10
-40.808230123
 20
18.9701473113
 10
-40.8090004276
 20
18.9511155486
 10
-40.8101309784
 20
18.9328706971
 10
-40.8116510367
 20
18.9154442544
 10
-40.8135313412
 20
18.8988047228
 10
-40.8156841087
 20
18.8828576098
 10
-40.8180678295
 20
18.8675897644
 10
-40.8207240134
 20
18.8530143374
 10
-40.8236894057
 20
18.8390762896
 10
-40.8269625037
 20
18.8258417363
 10
-40.8305448102
 20
18.8132445621
 10
-40.8344775792
 20
18.8010313808
 10
-40.8387861583
 20
18.789125678
 10
-40.8434451999
 20
18.7776039681
 10
-40.8484199154
 20
18.7664424081
 10
-40.8537166009
 20
18.755624287
 10
-40.8593289602
 20
18.7451663158
 10
-40.8652033167
 20
18.7350947839
 10
-40.8713458888
 20
18.7254064255
 10
-40.8777504582
 20
18.7161045065
 10
-40.8843446926
 20
18.7072251144
 10
-40.8911334633
 20
18.6987694939
 10
-40.8981118991
 20
18.6907364002
 10
-40.905193054
 20
18.6831581868
 10
-40.9123533425
 20
18.6760590748
 10
-40.91961635
 20
18.669414843
 10
-40.9269658872
 20
18.6631851812
 10
-40.9343493457
 20
18.6573938553
 10
-40.9418193339
 20
18.6520170994
 10
-40.9495174874
 20
18.646943306
 10
-40.9574450628
 20
18.6421541175
 10
-40.9656008035
 20
18.6376678915
 10
-40.9741225758
 20
18.6334280941
 10
-40.9830499488
 20
18.6294020797
 10
-40.9923433533
 20
18.6256224938
 10
-41.0020219484
 20
18.6221307386
 10
-41.0120855648
 20
18.6189226506
 10
-41.0225343718
 20
18.6160023932
 10
-41.0333880352
 20
18.6134238597
 10
-41.044634716
 20
18.6111853795
 10
-41.0562862532
 20
18.6092886231
 10
-41.0683978303
 20
18.607792495
 10
-41.0809878417
 20
18.6067166301
 10
-41.0940378928
 20
18.6060413935
 10
-41.1075479838
 20
18.6057667852
  0
LWPOLYLINE
  5
286
100
AcDbEntity
  8
ASSI
100
AcDbPolyline
 62
7
  6
CONTINUOUS
 90
46
 70
0
 10
-40.8078200647
 20
18.9899659852
 10
-40.808230123
 20
18.9701473113
 10
-40.8090004276
 20
18.9511155486
 10
-40.8101309784
 20
18.9328706971
 10
-40.8116510367
 20
18.9154442544
 10
-40.8135313412
 20
18.8988047228
 10
-40.8156841087
 20
18.8828576098
 10
-40.8180678295
 20
18.8675897644
 10
-40.8207240134
 20
18.8530143374
 10
-40.8236894057
 20
18.8390762896
 10
-40.8269625037
 20
18.8258417363
 10
-40.8305448102
 20
18.8132445621
 10
-40.8344775792
 20
18.8010313808
 10
-40.8387861583
 20
18.789125678
 10
-40.8434451999
 20
18.7776039681
 10
-40.8484199154
 20
18.7664424081
 10
-40.8537166009
 20
18.755624287
 10
-40.8593289602
 20
18.7451663158
 10
-40.8652033167
 20
18.7350947839
 10
-40.8713458888
 20
18.7254064255
 10
-40.8777504582
 20
18.7161045065
 10
-40.8843446926
 20
18.7072251144
 10
-40.8911334633
 20
18.6987694939
 10
-40.8981118991
 20
18.6907364002
 10
-40.905193054
 20
18.6831581868
 10
-40.9123533425
 20
18.6760590748
 10
-40.91961635
 20
18.669414843
 10
-40.9269658872
 20
18.6631851812
 10
-40.9343493457
 20
18.6573938553
 10
-40.9418193339
 20
18.6520170994
 10
-40.9495174874
 20
18.646943306
 10
-40.9574450628
 20
18.6421541175
 10
-40.9656008035
 20
18.6376678915
 10
-40.9741225758
 20
18.6334280941
 10
-40.9830499488
 20
18.6294020797
 10
-40.9923433533
 20
18.6256224938
 10
-41.0020219484
 20
18.6221307386
 10
-41.0120855648
 20
18.6189226506
 10
-41.0225343718
 20
18.6160023932
 10
-41.0333880352
 20
18.6134238597
 10
-41.044634716
 20
18.6111853795
 10
-41.0562862532
 20
18.6092886231
 10
-41.0683978303
 20
18.607792495
 10
-41.0809878417
 20
18.6067166301
 10
-41.0940378928
 20
18.6060413935
 10
-41.1075479838
 20
18.6057667852
  0
LINE
  5
287
100
AcDbEntity
  8
0
100
AcDbLine
 62
7
  6
CONTINUOUS
 10
-42.3779179234
 20
18.4901027852
 11
-42.2734159234
 21
18.7812847852
  0
LINE
  5
288
100
AcDbEntity
  8
ASSI
100
AcDbLine
 62
7
  6
CONTINUOUS
 10
-42.3779179234
 20
18.4901027852
 11
-42.2734159234
 21
18.7812847852
  0
LINE
  5
289
100
AcDbEntity
  8
0
100
AcDbLine
 62
7
  6
CONTINUOUS
 10
-42.1188469234
 20
15.6138637852
 11
-42.0143439234
 21
15.9050467852
  0
LINE
  5
28A
100
AcDbEntity
  8
ASSI
100
AcDbLine
 62
7
  6
CONTINUOUS
 10
-42.1188469234
 20
15.6138637852
 11
-42.0143439234
 21
15.9050467852
  0
LINE
  5
28B
100
AcDbEntity
  8
0
100
AcDbLine
 62
7
  6
CONTINUOUS
 10
-42.2315989234
 20
18.9009937852
 11
-42.0700179234
 21
19.3449337852
  0
LINE
  5
28C
100
AcDbEntity
  8
ASSI
100
AcDbLine
 62
7
  6
CONTINUOUS
 10
-42.2315989234
 20
18.9009937852
 11
-42.0700179234
 21
19.3449337852
  0
LINE
  5
28D
100
AcDbEntity
  8
0
100
AcDbLine
 62
7
  6
CONTINUOUS
 10
-41.9726079234
 20
16.0247547852
 11
-41.8109459234
 21
16.4686937852
  0
LINE
  5
28E
100
AcDbEntity
  8
ASSI
100
AcDbLine
 62
7
  6
CONTINUOUS
 10
-41.9726079234
 20
16.0247547852
 11
-41.8109459234
 21
16.4686937852
  0
LINE
  5
28F
100
AcDbEntity
  8
0
100
AcDbLine
 62
7
  6
CONTINUOUS
 10
-41.8820179234
 20
16.6143997852
 11
-42.2581289234
 21
15.6138637852
  0
LINE
  5
290
100
AcDbEntity
  8
ASSI
100
AcDbLine
 62
7
  6
CONTINUOUS
 10
-41.8820179234
 20
16.6143997852
 11
-42.2581289234
 21
15.6138637852
  0
LINE
  5
291
100
AcDbEntity
  8
0
100
AcDbLine
 62
7
  6
CONTINUOUS
 10
-42.1410899234
 20
19.4898297852
 11
-42.5172009234
 21
18.4901027852
  0
LINE
  5
292
100
AcDbEntity
  8
ASSI
100
AcDbLine
 62
7
  6
CONTINUOUS
 10
-42.1410899234
 20
19.4898297852
 11
-42.5172009234
 21
18.4901027852
  0
LINE
  5
293
100
AcDbEntity
  8
0
100
AcDbLine
 62
7
  6
CONTINUOUS
 10
-41.6256959234
 20
18.4901027852
 11
-41.9878949234
 21
19.4898297852
  0
LINE
  5
294
100
AcDbEntity
  8
ASSI
100
AcDbLine
 62
7
  6
CONTINUOUS
 10
-41.6256959234
 20
18.4901027852
 11
-41.9878949234
 21
19.4898297852
  0
LINE
  5
295
100
AcDbEntity
  8
0
100
AcDbLine
 62
7
  6
CONTINUOUS
 10
-41.3666249234
 20
15.6138637852
 11
-41.7288239234
 21
16.6143997852
  0
LINE
  5
296
100
AcDbEntity
  8
ASSI
100
AcDbLine
 62
7
  6
CONTINUOUS
 10
-41.3666249234
 20
15.6138637852
 11
-41.7288239234
 21
16.6143997852
  0
LINE
  5
297
100
AcDbEntity
  8
0
100
AcDbLine
 62
7
  6
CONTINUOUS
 10
-41.6131589234
 20
15.9050467852
 11
-41.5142379234
 21
15.6138637852
  0
LINE
  5
298
100
AcDbEntity
  8
ASSI
100
AcDbLine
 62
7
  6
CONTINUOUS
 10
-41.6131589234
 20
15.9050467852
 11
-41.5142379234
 21
15.6138637852
  0
LINE
  5
299
100
AcDbEntity
  8
0
100
AcDbLine
 62
7
  6
CONTINUOUS
 10
-41.8722309234
 20
18.7812847852
 11
-41.7733099234
 21
18.4901027852
  0
LINE
  5
29A
100
AcDbEntity
  8
ASSI
100
AcDbLine
 62
7
  6
CONTINUOUS
 10
-41.8722309234
 20
18.7812847852
 11
-41.7733099234
 21
18.4901027852
  0
LINE
  5
29B
100
AcDbEntity
  8
0
100
AcDbLine
 62
7
  6
CONTINUOUS
 10
-43.1148099234
 20
18.6403907852
 11
-43.4017489234
 21
19.4898297852
  0
LINE
  5
29C
100
AcDbEntity
  8
ASSI
100
AcDbLine
 62
7
  6
CONTINUOUS
 10
-43.1148099234
 20
18.6403907852
 11
-43.4017489234
 21
19.4898297852
  0
LINE
  5
29D
100
AcDbEntity
  8
0
100
AcDbLine
 62
7
  6
CONTINUOUS
 10
-41.8109459234
 20
16.4686937852
 11
-41.6619319234
 21
16.0247547852
  0
LINE
  5
29E
100
AcDbEntity
  8
ASSI
100
AcDbLine
 62
7
  6
CONTINUOUS
 10
-41.8109459234
 20
16.4686937852
 11
-41.6619319234
 21
16.0247547852
  0
LINE
  5
29F
100
AcDbEntity
  8
0
100
AcDbLine
 62
7
  6
CONTINUOUS
 10
-42.0700179234
 20
19.3449337852
 11
-41.9210039234
 21
18.9009937852
  0
LINE
  5
2A0
100
AcDbEntity
  8
ASSI
100
AcDbLine
 62
7
  6
CONTINUOUS
 10
-42.0700179234
 20
19.3449337852
 11
-41.9210039234
 21
18.9009937852
  0
LINE
  5
2A1
100
AcDbEntity
  8
0
100
AcDbLine
 62
7
  6
CONTINUOUS
 10
-39.7994949234
 20
18.9438617852
 11
-39.7994949234
 21
19.0635707852
  0
LINE
  5
2A2
100
AcDbEntity
  8
ASSI
100
AcDbLine
 62
7
  6
CONTINUOUS
 10
-39.7994949234
 20
18.9438617852
 11
-39.7994949234
 21
19.0635707852
  0
LINE
  5
2A3
100
AcDbEntity
  8
0
100
AcDbLine
 62
7
  6
CONTINUOUS
 10
-39.7535529234
 20
19.3701207852
 11
-39.7535529234
 21
19.4898297852
  0
LINE
  5
2A4
100
AcDbEntity
  8
ASSI
100
AcDbLine
 62
7
  6
CONTINUOUS
 10
-39.7535529234
 20
19.3701207852
 11
-39.7535529234
 21
19.4898297852
  0
LINE
  5
2A5
100
AcDbEntity
  8
0
100
AcDbLine
 62
7
  6
CONTINUOUS
 10
-39.7437659234
 20
18.4901027852
 11
-39.7437659234
 21
18.6098107852
  0
LINE
  5
2A6
100
AcDbEntity
  8
ASSI
100
AcDbLine
 62
7
  6
CONTINUOUS
 10
-39.7437659234
 20
18.4901027852
 11
-39.7437659234
 21
18.6098107852
  0
LINE
  5
2A7
100
AcDbEntity
  8
RACCORDO
100
AcDbLine
 62
7
  6
CONTINUOUS
 10
-34.1695759234
 20
3.9518467852
 11
-33.1695759234
 21
3.9518467852
  0
LINE
  5
2A8
100
AcDbEntity
  8
ASSI
100
AcDbLine
 62
7
  6
CONTINUOUS
 10
-34.1695759234
 20
3.9518467852
 11
-33.1695759234
 21
3.9518467852
  0
LINE
  5
2A9
100
AcDbEntity
  8
RACCORDO
100
AcDbLine
 62
7
  6
CONTINUOUS
 10
-9.1695759234
 20
3.9518467852
 11
-8.1695759234
 21
3.9518467852
  0
LINE
  5
2AA
100
AcDbEntity
  8
ASSI
100
AcDbLine
 62
7
  6
CONTINUOUS
 10
-9.1695759234
 20
3.9518467852
 11
-8.1695759234
 21
3.9518467852
  0
LINE
  5
2AB
100
AcDbEntity
  8
RACCORDO
100
AcDbLine
 62
253
  6
CONTINUOUS
 10
-7.9695759234
 20
4.1518467852
 11
-9.3695759234
 21
4.1518467852
  0
LINE
  5
2AC
100
AcDbEntity
  8
ASSI
100
AcDbLine
 62
253
  6
CONTINUOUS
 10
-7.9695759234
 20
4.1518467852
 11
-9.3695759234
 21
4.1518467852
  0
LINE
  5
2AD
100
AcDbEntity
  8
RACCORDO
100
AcDbLine
 62
253
  6
CONTINUOUS
 10
-32.9695759234
 20
4.1518467852
 11
-34.3695759234
 21
4.1518467852
  0
LINE
  5
2AE
100
AcDbEntity
  8
ASSI
100
AcDbLine
 62
253
  6
CONTINUOUS
 10
-32.9695759234
 20
4.1518467852
 11
-34.3695759234
 21
4.1518467852
  0
LINE
  5
2AF
100
AcDbEntity
  8
0
100
AcDbLine
 62
7
  6
CONTINUOUS
 10
-40.7634719234
 20
16.6143997852
 11
-40.3859049234
 21
16.0166667852
  0
LINE
  5
2B0
100
AcDbEntity
  8
ASSI
100
AcDbLine
 62
7
  6
CONTINUOUS
 10
-40.7634719234
 20
16.6143997852
 11
-40.3859049234
 21
16.0166667852
  0
LINE
  5
2B1
100
AcDbEntity
  8
0
100
AcDbLine
 62
7
  6
CONTINUOUS
 10
-41.7572949234
 20
17.8643857852
 11
-41.2461069234
 21
17.0519827852
  0
LINE
  5
2B2
100
AcDbEntity
  8
ASSI
100
AcDbLine
 62
7
  6
CONTINUOUS
 10
-41.7572949234
 20
17.8643857852
 11
-41.2461069234
 21
17.0519827852
  0
LINE
  5
2B3
100
AcDbEntity
  8
0
100
AcDbLine
 62
7
  6
CONTINUOUS
 10
-41.2251579234
 20
17.2399177852
 11
-41.7280959234
 21
18.0517107852
  0
LINE
  5
2B4
100
AcDbEntity
  8
ASSI
100
AcDbLine
 62
7
  6
CONTINUOUS
 10
-41.2251579234
 20
17.2399177852
 11
-41.7280959234
 21
18.0517107852
  0
LINE
  5
2B5
100
AcDbEntity
  8
0
100
AcDbLine
 62
7
  6
CONTINUOUS
 10
-40.3190949234
 20
16.1339487852
 11
-40.6060709234
 21
16.6143997852
  0
LINE
  5
2B6
100
AcDbEntity
  8
ASSI
100
AcDbLine
 62
7
  6
CONTINUOUS
 10
-40.3190949234
 20
16.1339487852
 11
-40.6060709234
 21
16.6143997852
  0
LINE
  5
2B7
100
AcDbEntity
  8
0
100
AcDbLine
 62
7
  6
CONTINUOUS
 10
-40.0321179234
 20
16.6143997852
 11
-40.3190949234
 21
16.1339487852
  0
LINE
  5
2B8
100
AcDbEntity
  8
ASSI
100
AcDbLine
 62
7
  6
CONTINUOUS
 10
-40.0321179234
 20
16.6143997852
 11
-40.3190949234
 21
16.1339487852
  0
LINE
  5
2B9
100
AcDbEntity
  8
0
100
AcDbLine
 62
7
  6
CONTINUOUS
 10
-40.2508289234
 20
16.0166667852
 11
-39.8733419234
 21
16.6143997852
  0
LINE
  5
2BA
100
AcDbEntity
  8
ASSI
100
AcDbLine
 62
7
  6
CONTINUOUS
 10
-40.2508289234
 20
16.0166667852
 11
-39.8733419234
 21
16.6143997852
  0
LINE
  5
2BB
100
AcDbEntity
  8
RACCORDO
100
AcDbLine
 62
7
  6
CONTINUOUS
 10
-34.3695759234
 20
11.7518467852
 11
-34.3695759234
 21
4.1518467852
  0
LINE
  5
2BC
100
AcDbEntity
  8
ASSI
100
AcDbLine
 62
7
  6
CONTINUOUS
 10
-34.3695759234
 20
11.7518467852
 11
-34.3695759234
 21
4.1518467852
  0
LINE
  5
2BD
100
AcDbEntity
  8
RACCORDO
100
AcDbLine
 62
253
  6
CONTINUOUS
 10
-34.1695759234
 20
3.9518467852
 11
-34.1695759234
 21
11.9518467852
  0
LINE
  5
2BE
100
AcDbEntity
  8
ASSI
100
AcDbLine
 62
253
  6
CONTINUOUS
 10
-34.1695759234
 20
3.9518467852
 11
-34.1695759234
 21
11.9518467852
  0
LINE
  5
2BF
100
AcDbEntity
  8
RACCORDO
100
AcDbLine
 62
253
  6
CONTINUOUS
 10
-5.171349802
 20
34.260425429
 11
-3.891068234
 21
34.6518467852
  0
LINE
  5
2C0
100
AcDbEntity
  8
ASSI
100
AcDbLine
 62
253
  6
CONTINUOUS
 10
-5.171349802
 20
34.260425429
 11
-3.891068234
 21
34.6518467852
  0
LINE
  5
2C1
100
AcDbEntity
  8
RACCORDO
100
AcDbLine
 62
7
  6
CONTINUOUS
 10
-5.1414596017
 20
34.2018467852
 11
-3.7047576971
 21
34.6410906376
  0
LINE
  5
2C2
100
AcDbEntity
  8
ASSI
100
AcDbLine
 62
7
  6
CONTINUOUS
 10
-5.1414596017
 20
34.2018467852
 11
-3.7047576971
 21
34.6410906376
  0
LINE
  5
2C3
100
AcDbEntity
  8
RACCORDO
100
AcDbLine
 62
253
  6
CONTINUOUS
 10
-3.891068234
 20
0.4518467852
 11
-5.171349802
 21
0.8432681415
  0
LINE
  5
2C4
100
AcDbEntity
  8
ASSI
100
AcDbLine
 62
253
  6
CONTINUOUS
 10
-3.891068234
 20
0.4518467852
 11
-5.171349802
 21
0.8432681415
  0
LINE
  5
2C5
100
AcDbEntity
  8
RACCORDO
100
AcDbLine
 62
7
  6
CONTINUOUS
 10
-3.7047576971
 20
0.4626029329
 11
-5.1414596017
 21
0.9018467852
  0
LINE
  5
2C6
100
AcDbEntity
  8
ASSI
100
AcDbLine
 62
7
  6
CONTINUOUS
 10
-3.7047576971
 20
0.4626029329
 11
-5.1414596017
 21
0.9018467852
  0
LINE
  5
2C7
100
AcDbEntity
  8
RACCORDO
100
AcDbLine
 62
253
  6
CONTINUOUS
 10
-33.1695759234
 20
3.9518467852
 11
-33.1695759234
 21
11.9518467852
  0
LINE
  5
2C8
100
AcDbEntity
  8
ASSI
100
AcDbLine
 62
253
  6
CONTINUOUS
 10
-33.1695759234
 20
3.9518467852
 11
-33.1695759234
 21
11.9518467852
  0
LINE
  5
2C9
100
AcDbEntity
  8
RACCORDO
100
AcDbLine
 62
7
  6
CONTINUOUS
 10
-32.9695759234
 20
4.1518467852
 11
-32.9695759234
 21
11.7518467852
  0
LINE
  5
2CA
100
AcDbEntity
  8
ASSI
100
AcDbLine
 62
7
  6
CONTINUOUS
 10
-32.9695759234
 20
4.1518467852
 11
-32.9695759234
 21
11.7518467852
  0
LINE
  5
2CB
100
AcDbEntity
  8
RACCORDO
100
AcDbLine
 62
253
  6
CONTINUOUS
 10
-7.9695759234
 20
11.7518467852
 11
-9.3695759234
 21
11.7518467852
  0
LINE
  5
2CC
100
AcDbEntity
  8
ASSI
100
AcDbLine
 62
253
  6
CONTINUOUS
 10
-7.9695759234
 20
11.7518467852
 11
-9.3695759234
 21
11.7518467852
  0
LINE
  5
2CD
100
AcDbEntity
  8
RACCORDO
100
AcDbLine
 62
253
  6
CONTINUOUS
 10
-32.9695759234
 20
11.7518467852
 11
-34.3695759234
 21
11.7518467852
  0
LINE
  5
2CE
100
AcDbEntity
  8
ASSI
100
AcDbLine
 62
253
  6
CONTINUOUS
 10
-32.9695759234
 20
11.7518467852
 11
-34.3695759234
 21
11.7518467852
  0
LINE
  5
2CF
100
AcDbEntity
  8
RACCORDO
100
AcDbLine
 62
7
  6
CONTINUOUS
 10
-8.1695759234
 20
11.9518467852
 11
-9.1695759234
 21
11.9518467852
  0
LINE
  5
2D0
100
AcDbEntity
  8
ASSI
100
AcDbLine
 62
7
  6
CONTINUOUS
 10
-8.1695759234
 20
11.9518467852
 11
-9.1695759234
 21
11.9518467852
  0
LINE
  5
2D1
100
AcDbEntity
  8
RACCORDO
100
AcDbLine
 62
7
  6
CONTINUOUS
 10
-33.1695759234
 20
11.9518467852
 11
-34.1695759234
 21
11.9518467852
  0
LINE
  5
2D2
100
AcDbEntity
  8
ASSI
100
AcDbLine
 62
7
  6
CONTINUOUS
 10
-33.1695759234
 20
11.9518467852
 11
-34.1695759234
 21
11.9518467852
  0
LINE
  5
2D3
100
AcDbEntity
  8
RACCORDO
100
AcDbLine
 62
253
  6
CONTINUOUS
 10
-2.0123375756
 20
12.8374874313
 11
-49.3268142712
 21
12.8374874313
  0
LINE
  5
2D4
100
AcDbEntity
  8
ASSI
100
AcDbLine
 62
253
  6
CONTINUOUS
 10
-2.0123375756
 20
12.8374874313
 11
-49.3268142712
 21
12.8374874313
  0
LINE
  5
2D5
100
AcDbEntity
  8
RACCORDO
100
AcDbLine
 62
253
  6
CONTINUOUS
 10
-2.0132729184
 20
13.2374874313
 11
-49.3258789283
 21
13.2374874313
  0
LINE
  5
2D6
100
AcDbEntity
  8
ASSI
100
AcDbLine
 62
253
  6
CONTINUOUS
 10
-2.0132729184
 20
13.2374874313
 11
-49.3258789283
 21
13.2374874313
  0
LINE
  5
2D7
100
AcDbEntity
  8
0
100
AcDbLine
 62
7
  6
CONTINUOUS
 10
-12.7850140778
 20
15.6377177724
 11
-12.9602573896
 21
15.6231137464
  0
LINE
  5
2D8
100
AcDbEntity
  8
ASSI
100
AcDbLine
 62
7
  6
CONTINUOUS
 10
-12.7850140778
 20
15.6377177724
 11
-12.9602573896
 21
15.6231137464
  0
LINE
  5
2D9
100
AcDbEntity
  8
0
100
AcDbLine
 62
7
  6
CONTINUOUS
 10
-13.3754173286
 20
16.3908467526
 11
-13.1939153234
 21
16.405450753
  0
LINE
  5
2DA
100
AcDbEntity
  8
ASSI
100
AcDbLine
 62
7
  6
CONTINUOUS
 10
-13.3754173286
 20
16.3908467526
 11
-13.1939153234
 21
16.405450753
  0
LINE
  5
2DB
100
AcDbEntity
  8
RACCORDO
100
AcDbLine
 62
253
  6
CONTINUOUS
 10
-2.0166383534
 20
13.9054366237
 11
-49.3225134934
 21
13.9054366237
  0
LINE
  5
2DC
100
AcDbEntity
  8
ASSI
100
AcDbLine
 62
253
  6
CONTINUOUS
 10
-2.0166383534
 20
13.9054366237
 11
-49.3225134934
 21
13.9054366237
  0
LINE
  5
2DD
100
AcDbEntity
  8
RACCORDO
100
AcDbLine
 62
253
  6
CONTINUOUS
 10
-2.0175736962
 20
14.3054366237
 11
-49.3215781505
 21
14.3054366237
  0
LINE
  5
2DE
100
AcDbEntity
  8
ASSI
100
AcDbLine
 62
253
  6
CONTINUOUS
 10
-2.0175736962
 20
14.3054366237
 11
-49.3215781505
 21
14.3054366237
  0
LINE
  5
2DF
100
AcDbEntity
  8
0
100
AcDbLine
 62
7
  6
CONTINUOUS
 10
-14.8023989234
 20
15.2767997852
 11
-14.6188109234
 21
15.2767997852
  0
LINE
  5
2E0
100
AcDbEntity
  8
ASSI
100
AcDbLine
 62
7
  6
CONTINUOUS
 10
-14.8023989234
 20
15.2767997852
 11
-14.6188109234
 21
15.2767997852
  0
LINE
  5
2E1
100
AcDbEntity
  8
0
100
AcDbLine
 62
7
  6
CONTINUOUS
 10
-11.6083798087
 20
15.2767997852
 11
-11.4206190228
 21
15.2767997852
  0
LINE
  5
2E2
100
AcDbEntity
  8
ASSI
100
AcDbLine
 62
7
  6
CONTINUOUS
 10
-11.6083798087
 20
15.2767997852
 11
-11.4206190228
 21
15.2767997852
  0
LINE
  5
2E3
100
AcDbEntity
  8
0
100
AcDbLine
 62
7
  6
CONTINUOUS
 10
-10.69461069
 20
15.2767997852
 11
-9.7057369234
 21
15.2767997852
  0
LINE
  5
2E4
100
AcDbEntity
  8
ASSI
100
AcDbLine
 62
7
  6
CONTINUOUS
 10
-10.69461069
 20
15.2767997852
 11
-9.7057369234
 21
15.2767997852
  0
LINE
  5
2E5
100
AcDbEntity
  8
0
100
AcDbLine
 62
7
  6
CONTINUOUS
 10
-9.7057369234
 20
15.4520427852
 11
-10.4391453503
 21
15.4520427852
  0
LINE
  5
2E6
100
AcDbEntity
  8
ASSI
100
AcDbLine
 62
7
  6
CONTINUOUS
 10
-9.7057369234
 20
15.4520427852
 11
-10.4391453503
 21
15.4520427852
  0
LINE
  5
2E7
100
AcDbEntity
  8
0
100
AcDbLine
 62
7
  6
CONTINUOUS
 10
-43.3892929234
 20
15.6138637852
 11
-43.2541359234
 21
15.6138637852
  0
LINE
  5
2E8
100
AcDbEntity
  8
ASSI
100
AcDbLine
 62
7
  6
CONTINUOUS
 10
-43.3892929234
 20
15.6138637852
 11
-43.2541359234
 21
15.6138637852
  0
LINE
  5
2E9
100
AcDbEntity
  8
0
100
AcDbLine
 62
7
  6
CONTINUOUS
 10
-42.7706919234
 20
15.6138637852
 11
-42.6356149234
 21
15.6138637852
  0
LINE
  5
2EA
100
AcDbEntity
  8
ASSI
100
AcDbLine
 62
7
  6
CONTINUOUS
 10
-42.7706919234
 20
15.6138637852
 11
-42.6356149234
 21
15.6138637852
  0
LINE
  5
2EB
100
AcDbEntity
  8
0
100
AcDbLine
 62
7
  6
CONTINUOUS
 10
-42.2581289234
 20
15.6138637852
 11
-42.1188469234
 21
15.6138637852
  0
LINE
  5
2EC
100
AcDbEntity
  8
ASSI
100
AcDbLine
 62
7
  6
CONTINUOUS
 10
-42.2581289234
 20
15.6138637852
 11
-42.1188469234
 21
15.6138637852
  0
LINE
  5
2ED
100
AcDbEntity
  8
0
100
AcDbLine
 62
7
  6
CONTINUOUS
 10
-41.5142379234
 20
15.6138637852
 11
-41.3666249234
 21
15.6138637852
  0
LINE
  5
2EE
100
AcDbEntity
  8
ASSI
100
AcDbLine
 62
7
  6
CONTINUOUS
 10
-41.5142379234
 20
15.6138637852
 11
-41.3666249234
 21
15.6138637852
  0
LINE
  5
2EF
100
AcDbEntity
  8
0
100
AcDbLine
 62
7
  6
CONTINUOUS
 10
-41.2426289234
 20
15.6138637852
 11
-40.6004899234
 21
15.6138637852
  0
LINE
  5
2F0
100
AcDbEntity
  8
ASSI
100
AcDbLine
 62
7
  6
CONTINUOUS
 10
-41.2426289234
 20
15.6138637852
 11
-40.6004899234
 21
15.6138637852
  0
LINE
  5
2F1
100
AcDbEntity
  8
0
100
AcDbLine
 62
7
  6
CONTINUOUS
 10
-40.3859049234
 20
15.6138637852
 11
-40.2508289234
 21
15.6138637852
  0
LINE
  5
2F2
100
AcDbEntity
  8
ASSI
100
AcDbLine
 62
7
  6
CONTINUOUS
 10
-40.3859049234
 20
15.6138637852
 11
-40.2508289234
 21
15.6138637852
  0
LINE
  5
2F3
100
AcDbEntity
  8
0
100
AcDbLine
 62
7
  6
CONTINUOUS
 10
-40.6004899234
 20
15.7335727852
 11
-41.1075529234
 21
15.7335727852
  0
LINE
  5
2F4
100
AcDbEntity
  8
ASSI
100
AcDbLine
 62
7
  6
CONTINUOUS
 10
-40.6004899234
 20
15.7335727852
 11
-41.1075529234
 21
15.7335727852
  0
LINE
  5
2F5
100
AcDbEntity
  8
0
100
AcDbLine
 62
7
  6
CONTINUOUS
 10
-42.0143439234
 20
15.9050467852
 11
-41.6131589234
 21
15.9050467852
  0
LINE
  5
2F6
100
AcDbEntity
  8
ASSI
100
AcDbLine
 62
7
  6
CONTINUOUS
 10
-42.0143439234
 20
15.9050467852
 11
-41.6131589234
 21
15.9050467852
  0
LINE
  5
2F7
100
AcDbEntity
  8
0
100
AcDbLine
 62
7
  6
CONTINUOUS
 10
-41.6619319234
 20
16.0247547852
 11
-41.9726079234
 21
16.0247547852
  0
LINE
  5
2F8
100
AcDbEntity
  8
ASSI
100
AcDbLine
 62
7
  6
CONTINUOUS
 10
-41.6619319234
 20
16.0247547852
 11
-41.9726079234
 21
16.0247547852
  0
LINE
  5
2F9
100
AcDbEntity
  8
0
100
AcDbLine
 62
7
  6
CONTINUOUS
 10
-43.1091919234
 20
16.4946917852
 11
-42.7706919234
 21
16.4946917852
  0
LINE
  5
2FA
100
AcDbEntity
  8
ASSI
100
AcDbLine
 62
7
  6
CONTINUOUS
 10
-43.1091919234
 20
16.4946917852
 11
-42.7706919234
 21
16.4946917852
  0
LINE
  5
2FB
100
AcDbEntity
  8
0
100
AcDbLine
 62
7
  6
CONTINUOUS
 10
-42.6356149234
 20
16.4946917852
 11
-42.2971149234
 21
16.4946917852
  0
LINE
  5
2FC
100
AcDbEntity
  8
ASSI
100
AcDbLine
 62
7
  6
CONTINUOUS
 10
-42.6356149234
 20
16.4946917852
 11
-42.2971149234
 21
16.4946917852
  0
LINE
  5
2FD
100
AcDbEntity
  8
0
100
AcDbLine
 62
7
  6
CONTINUOUS
 10
-11.8170029234
 20
16.5765217852
 11
-11.0868218358
 21
16.5765217852
  0
LINE
  5
2FE
100
AcDbEntity
  8
ASSI
100
AcDbLine
 62
7
  6
CONTINUOUS
 10
-11.8170029234
 20
16.5765217852
 11
-11.0868218358
 21
16.5765217852
  0
LINE
  5
2FF
100
AcDbEntity
  8
0
100
AcDbLine
 62
7
  6
CONTINUOUS
 10
-39.8733419234
 20
16.6143997852
 11
-40.0321179234
 21
16.6143997852
  0
LINE
  5
300
100
AcDbEntity
  8
ASSI
100
AcDbLine
 62
7
  6
CONTINUOUS
 10
-39.8733419234
 20
16.6143997852
 11
-40.0321179234
 21
16.6143997852
  0
LINE
  5
301
100
AcDbEntity
  8
0
100
AcDbLine
 62
7
  6
CONTINUOUS
 10
-40.6060709234
 20
16.6143997852
 11
-40.7634719234
 21
16.6143997852
  0
LINE
  5
302
100
AcDbEntity
  8
ASSI
100
AcDbLine
 62
7
  6
CONTINUOUS
 10
-40.6060709234
 20
16.6143997852
 11
-40.7634719234
 21
16.6143997852
  0
LINE
  5
303
100
AcDbEntity
  8
0
100
AcDbLine
 62
7
  6
CONTINUOUS
 10
-41.1075529234
 20
16.6143997852
 11
-41.2426289234
 21
16.6143997852
  0
LINE
  5
304
100
AcDbEntity
  8
ASSI
100
AcDbLine
 62
7
  6
CONTINUOUS
 10
-41.1075529234
 20
16.6143997852
 11
-41.2426289234
 21
16.6143997852
  0
LINE
  5
305
100
AcDbEntity
  8
0
100
AcDbLine
 62
7
  6
CONTINUOUS
 10
-41.7288239234
 20
16.6143997852
 11
-41.8820179234
 21
16.6143997852
  0
LINE
  5
306
100
AcDbEntity
  8
ASSI
100
AcDbLine
 62
7
  6
CONTINUOUS
 10
-41.7288239234
 20
16.6143997852
 11
-41.8820179234
 21
16.6143997852
  0
LINE
  5
307
100
AcDbEntity
  8
0
100
AcDbLine
 62
7
  6
CONTINUOUS
 10
-42.2971149234
 20
16.6143997852
 11
-43.1091919234
 21
16.6143997852
  0
LINE
  5
308
100
AcDbEntity
  8
ASSI
100
AcDbLine
 62
7
  6
CONTINUOUS
 10
-42.2971149234
 20
16.6143997852
 11
-43.1091919234
 21
16.6143997852
  0
LINE
  5
309
100
AcDbEntity
  8
0
100
AcDbLine
 62
7
  6
CONTINUOUS
 10
-43.2541359234
 20
16.6143997852
 11
-43.3892929234
 21
16.6143997852
  0
LINE
  5
30A
100
AcDbEntity
  8
ASSI
100
AcDbLine
 62
7
  6
CONTINUOUS
 10
-43.2541359234
 20
16.6143997852
 11
-43.3892929234
 21
16.6143997852
  0
LINE
  5
30B
100
AcDbEntity
  8
0
100
AcDbLine
 62
7
  6
CONTINUOUS
 10
-10.8510779234
 20
16.7517647852
 11
-11.8170029234
 21
16.7517647852
  0
LINE
  5
30C
100
AcDbEntity
  8
ASSI
100
AcDbLine
 62
7
  6
CONTINUOUS
 10
-10.8510779234
 20
16.7517647852
 11
-11.8170029234
 21
16.7517647852
  0
LINE
  5
30D
100
AcDbEntity
  8
0
100
AcDbLine
 62
7
  6
CONTINUOUS
 10
-14.6188109234
 20
16.7767997852
 11
-14.7371392809
 21
16.7767997852
  0
LINE
  5
30E
100
AcDbEntity
  8
ASSI
100
AcDbLine
 62
7
  6
CONTINUOUS
 10
-14.6188109234
 20
16.7767997852
 11
-14.7371392809
 21
16.7767997852
  0
LINE
  5
30F
100
AcDbEntity
  8
0
100
AcDbLine
 62
7
  6
CONTINUOUS
 10
-42.2546509234
 20
17.0519827852
 11
-42.1194939234
 21
17.0519827852
  0
LINE
  5
310
100
AcDbEntity
  8
ASSI
100
AcDbLine
 62
7
  6
CONTINUOUS
 10
-42.2546509234
 20
17.0519827852
 11
-42.1194939234
 21
17.0519827852
  0
LINE
  5
311
100
AcDbEntity
  8
0
100
AcDbLine
 62
7
  6
CONTINUOUS
 10
-41.8883269234
 20
17.0519827852
 11
-41.7572949234
 21
17.0519827852
  0
LINE
  5
312
100
AcDbEntity
  8
ASSI
100
AcDbLine
 62
7
  6
CONTINUOUS
 10
-41.8883269234
 20
17.0519827852
 11
-41.7572949234
 21
17.0519827852
  0
LINE
  5
313
100
AcDbEntity
  8
0
100
AcDbLine
 62
7
  6
CONTINUOUS
 10
-41.2461069234
 20
17.0519827852
 11
-41.0942879234
 21
17.0519827852
  0
LINE
  5
314
100
AcDbEntity
  8
ASSI
100
AcDbLine
 62
7
  6
CONTINUOUS
 10
-41.2461069234
 20
17.0519827852
 11
-41.0942879234
 21
17.0519827852
  0
LWPOLYLINE
  5
315
100
AcDbEntity
  8
0
100
AcDbPolyline
 62
7
  6
CONTINUOUS
 90
49
 70
0
 10
-41.0894246009
 20
18.4901027852
 10
-41.0735272793
 20
18.4903861574
 10
-41.0578556987
 20
18.491163887
 10
-41.042409859
 20
18.4924359742
 10
-41.027149979
 20
18.4942202958
 10
-41.01211584
 20
18.4964989749
 10
-40.997426786
 20
18.4992183804
 10
-40.98310761
 20
18.5023789412
 10
-40.9691335189
 20
18.5059802283
 10
-40.9555494778
 20
18.5099673239
 10
-40.9423878879
 20
18.5143269873
 10
-40.929616348
 20
18.5190724592
 10
-40.9171826193
 20
18.5241885447
 10
-40.9050831279
 20
18.529672874
 10
-40.8933214478
 20
18.5355278167
 10
-40.8818560621
 20
18.5417452869
 10
-40.8706717893
 20
18.5483273667
 10
-40.8597838109
 20
18.5552719739
 10
-40.8491961546
 20
18.5625647755
 10
-40.8389289619
 20
18.5701813518
 10
-40.8289620912
 20
18.5781461226
 10
-40.8192391456
 20
18.5865180138
 10
-40.809761081
 20
18.5952860934
 10
-40.8005269415
 20
18.6044612933
 10
-40.7914774622
 20
18.6141353356
 10
-40.7825756355
 20
18.6243378027
 10
-40.773858469
 20
18.6350391121
 10
-40.7653777205
 20
18.646242238
 10
-40.7571322815
 20
18.6579455916
 10
-40.7491232605
 20
18.6701507618
 10
-40.7414057396
 20
18.6828654889
 10
-40.7340001457
 20
18.6960396113
 10
-40.726886052
 20
18.7097232907
 10
-40.7200572609
 20
18.7240747528
 10
-40.7134923784
 20
18.7391244845
 10
-40.7072127985
 20
18.7548419989
 10
-40.7012765053
 20
18.7712940606
 10
-40.6956212312
 20
18.7887550096
 10
-40.6903092438
 20
18.806950506
 10
-40.68558533
 20
18.8251242945
 10
-40.6815259827
 20
18.8430378212
 10
-40.678054709
 20
18.8609296401
 10
-40.675186817
 20
18.8787591573
 10
-40.6729830342
 20
18.8963047215
 10
-40.6713826331
 20
18.913787984
 10
-40.6702187394
 20
18.9318333055
 10
-40.6694357283
 20
18.9506488064
 10
-40.6690892245
 20
18.9700263663
 10
-40.6691792281
 20
18.9899659852
  0
LWPOLYLINE
  5
316
100
AcDbEntity
  8
ASSI
100
AcDbPolyline
 62
7
  6
CONTINUOUS
 90
49
 70
0
 10
-41.0894246009
 20
18.4901027852
 10
-41.0735272793
 20
18.4903861574
 10
-41.0578556987
 20
18.491163887
 10
-41.042409859
 20
18.4924359742
 10
-41.027149979
 20
18.4942202958
 10
-41.01211584
 20
18.4964989749
 10
-40.997426786
 20
18.4992183804
 10
-40.98310761
 20
18.5023789412
 10
-40.9691335189
 20
18.5059802283
 10
-40.9555494778
 20
18.5099673239
 10
-40.9423878879
 20
18.5143269873
 10
-40.929616348
 20
18.5190724592
 10
-40.9171826193
 20
18.5241885447
 10
-40.9050831279
 20
18.529672874
 10
-40.8933214478
 20
18.5355278167
 10
-40.8818560621
 20
18.5417452869
 10
-40.8706717893
 20
18.5483273667
 10
-40.8597838109
 20
18.5552719739
 10
-40.8491961546
 20
18.5625647755
 10
-40.8389289619
 20
18.5701813518
 10
-40.8289620912
 20
18.5781461226
 10
-40.8192391456
 20
18.5865180138
 10
-40.809761081
 20
18.5952860934
 10
-40.8005269415
 20
18.6044612933
 10
-40.7914774622
 20
18.6141353356
 10
-40.7825756355
 20
18.6243378027
 10
-40.773858469
 20
18.6350391121
 10
-40.7653777205
 20
18.646242238
 10
-40.7571322815
 20
18.6579455916
 10
-40.7491232605
 20
18.6701507618
 10
-40.7414057396
 20
18.6828654889
 10
-40.7340001457
 20
18.6960396113
 10
-40.726886052
 20
18.7097232907
 10
-40.7200572609
 20
18.7240747528
 10
-40.7134923784
 20
18.7391244845
 10
-40.7072127985
 20
18.7548419989
 10
-40.7012765053
 20
18.7712940606
 10
-40.6956212312
 20
18.7887550096
 10
-40.6903092438
 20
18.806950506
 10
-40.68558533
 20
18.8251242945
 10
-40.6815259827
 20
18.8430378212
 10
-40.678054709
 20
18.8609296401
 10
-40.675186817
 20
18.8787591573
 10
-40.6729830342
 20
18.8963047215
 10
-40.6713826331
 20
18.913787984
 10
-40.6702187394
 20
18.9318333055
 10
-40.6694357283
 20
18.9506488064
 10
-40.6690892245
 20
18.9700263663
 10
-40.6691792281
 20
18.9899659852
  0
LINE
  5
317
100
AcDbEntity
  8
0
100
AcDbLine
 62
7
  6
CONTINUOUS
 10
-41.0942879234
 20
18.0517107852
 11
-41.2251579234
 21
18.0517107852
  0
LINE
  5
318
100
AcDbEntity
  8
ASSI
100
AcDbLine
 62
7
  6
CONTINUOUS
 10
-41.0942879234
 20
18.0517107852
 11
-41.2251579234
 21
18.0517107852
  0
LINE
  5
319
100
AcDbEntity
  8
0
100
AcDbLine
 62
7
  6
CONTINUOUS
 10
-41.7280959234
 20
18.0517107852
 11
-41.8883269234
 21
18.0517107852
  0
LINE
  5
31A
100
AcDbEntity
  8
ASSI
100
AcDbLine
 62
7
  6
CONTINUOUS
 10
-41.7280959234
 20
18.0517107852
 11
-41.8883269234
 21
18.0517107852
  0
LINE
  5
31B
100
AcDbEntity
  8
0
100
AcDbLine
 62
7
  6
CONTINUOUS
 10
-42.1194939234
 20
18.0517107852
 11
-42.2546509234
 21
18.0517107852
  0
LINE
  5
31C
100
AcDbEntity
  8
ASSI
100
AcDbLine
 62
7
  6
CONTINUOUS
 10
-42.1194939234
 20
18.0517107852
 11
-42.2546509234
 21
18.0517107852
  0
LINE
  5
31D
100
AcDbEntity
  8
ASSI
100
AcDbLine
 62
7
  6
CONTINUOUS
 10
-9.4075149234
 20
18.3518547852
 11
-9.0358069234
 21
18.3518587852
  0
LINE
  5
31E
100
AcDbEntity
  8
ASSI
100
AcDbLine
 62
7
  6
CONTINUOUS
 10
-11.9659099234
 20
18.3518507852
 11
-11.6358979234
 21
18.3518547852
  0
LINE
  5
31F
100
AcDbEntity
  8
ASSI
100
AcDbLine
 62
7
  6
CONTINUOUS
 10
-13.1579449234
 20
18.3518507852
 11
-12.8279409234
 21
18.3518547852
  0
LINE
  5
320
100
AcDbEntity
  8
ASSI
100
AcDbLine
 62
7
  6
CONTINUOUS
 10
-14.4599799234
 20
18.3518467852
 11
-14.1299679234
 21
18.3518507852
  0
LINE
  5
321
100
AcDbEntity
  8
ASSI
100
AcDbLine
 62
7
  6
CONTINUOUS
 10
-15.5397939234
 20
18.3518467852
 11
-15.2097689234
 21
18.3518507852
  0
LINE
  5
322
100
AcDbEntity
  8
ASSI
100
AcDbLine
 62
7
  6
CONTINUOUS
 10
-13.7999639234
 20
18.3518507852
 11
-13.4699509234
 21
18.3518507852
  0
LINE
  5
323
100
AcDbEntity
  8
ASSI
100
AcDbLine
 62
7
  6
CONTINUOUS
 10
-12.5159299234
 20
18.3518507852
 11
-12.1859169234
 21
18.3518507852
  0
LINE
  5
324
100
AcDbEntity
  8
ASSI
100
AcDbLine
 62
7
  6
CONTINUOUS
 10
-10.3563109234
 20
18.3518547852
 11
-10.0262939234
 21
18.3518547852
  0
LINE
  5
325
100
AcDbEntity
  8
ASSI
100
AcDbLine
 62
7
  6
CONTINUOUS
 10
-10.9063339234
 20
18.3518547852
 11
-10.5763179234
 21
18.3518507852
  0
LINE
  5
326
100
AcDbEntity
  8
0
100
AcDbLine
 62
7
  6
CONTINUOUS
 10
-43.5953859234
 20
18.4901027852
 11
-43.4644349234
 21
18.4901027852
  0
LINE
  5
327
100
AcDbEntity
  8
ASSI
100
AcDbLine
 62
7
  6
CONTINUOUS
 10
-43.5953859234
 20
18.4901027852
 11
-43.4644349234
 21
18.4901027852
  0
LINE
  5
328
100
AcDbEntity
  8
0
100
AcDbLine
 62
7
  6
CONTINUOUS
 10
-43.1830389234
 20
18.4901027852
 11
-43.0493369234
 21
18.4901027852
  0
LINE
  5
329
100
AcDbEntity
  8
ASSI
100
AcDbLine
 62
7
  6
CONTINUOUS
 10
-43.1830389234
 20
18.4901027852
 11
-43.0493369234
 21
18.4901027852
  0
LINE
  5
32A
100
AcDbEntity
  8
0
100
AcDbLine
 62
7
  6
CONTINUOUS
 10
-42.5172009234
 20
18.4901027852
 11
-42.3779179234
 21
18.4901027852
  0
LINE
  5
32B
100
AcDbEntity
  8
0
100
AcDbLine
 62
7
  6
CONTINUOUS
 10
-42.7679419234
 20
18.4901027852
 11
-42.6369899234
 21
18.4901027852
  0
LINE
  5
32C
100
AcDbEntity
  8
ASSI
100
AcDbLine
 62
7
  6
CONTINUOUS
 10
-42.5172009234
 20
18.4901027852
 11
-42.3779179234
 21
18.4901027852
  0
LINE
  5
32D
100
AcDbEntity
  8
ASSI
100
AcDbLine
 62
7
  6
CONTINUOUS
 10
-42.7679419234
 20
18.4901027852
 11
-42.6369899234
 21
18.4901027852
  0
LINE
  5
32E
100
AcDbEntity
  8
0
100
AcDbLine
 62
7
  6
CONTINUOUS
 10
-41.7733099234
 20
18.4901027852
 11
-41.6256959234
 21
18.4901027852
  0
LINE
  5
32F
100
AcDbEntity
  8
ASSI
100
AcDbLine
 62
7
  6
CONTINUOUS
 10
-41.7733099234
 20
18.4901027852
 11
-41.6256959234
 21
18.4901027852
  0
LINE
  5
330
100
AcDbEntity
  8
0
100
AcDbLine
 62
7
  6
CONTINUOUS
 10
-41.4947449234
 20
18.4901027852
 11
-41.0894246009
 21
18.4901027852
  0
LINE
  5
331
100
AcDbEntity
  8
ASSI
100
AcDbLine
 62
7
  6
CONTINUOUS
 10
-41.4947449234
 20
18.4901027852
 11
-41.0894246009
 21
18.4901027852
  0
LINE
  5
332
100
AcDbEntity
  8
0
100
AcDbLine
 62
7
  6
CONTINUOUS
 10
-40.4820759234
 20
18.4901027852
 11
-39.7437659234
 21
18.4901027852
  0
LINE
  5
333
100
AcDbEntity
  8
ASSI
100
AcDbLine
 62
7
  6
CONTINUOUS
 10
-40.4820759234
 20
18.4901027852
 11
-39.7437659234
 21
18.4901027852
  0
LINE
  5
334
100
AcDbEntity
  8
0
100
AcDbLine
 62
7
  6
CONTINUOUS
 10
-41.1075479838
 20
18.6057667852
 11
-41.3596689234
 21
18.6057667852
  0
LINE
  5
335
100
AcDbEntity
  8
ASSI
100
AcDbLine
 62
7
  6
CONTINUOUS
 10
-41.1075479838
 20
18.6057667852
 11
-41.3596689234
 21
18.6057667852
  0
LINE
  5
336
100
AcDbEntity
  8
0
100
AcDbLine
 62
7
  6
CONTINUOUS
 10
-39.7437659234
 20
18.6098107852
 11
-40.3469189234
 21
18.6098107852
  0
LINE
  5
337
100
AcDbEntity
  8
ASSI
100
AcDbLine
 62
7
  6
CONTINUOUS
 10
-39.7437659234
 20
18.6098107852
 11
-40.3469189234
 21
18.6098107852
  0
LINE
  5
338
100
AcDbEntity
  8
ASSI
100
AcDbLine
 62
7
  6
CONTINUOUS
 10
-11.5317129234
 20
18.6763527852
 11
-11.0105149234
 21
18.6763527852
  0
LINE
  5
339
100
AcDbEntity
  8
0
100
AcDbLine
 62
7
  6
CONTINUOUS
 10
-42.2734159234
 20
18.7812847852
 11
-41.8722309234
 21
18.7812847852
  0
LINE
  5
33A
100
AcDbEntity
  8
ASSI
100
AcDbLine
 62
7
  6
CONTINUOUS
 10
-42.2734159234
 20
18.7812847852
 11
-41.8722309234
 21
18.7812847852
  0
LINE
  5
33B
100
AcDbEntity
  8
0
100
AcDbLine
 62
7
  6
CONTINUOUS
 10
-41.9210039234
 20
18.9009937852
 11
-42.2315989234
 21
18.9009937852
  0
LINE
  5
33C
100
AcDbEntity
  8
ASSI
100
AcDbLine
 62
7
  6
CONTINUOUS
 10
-41.9210039234
 20
18.9009937852
 11
-42.2315989234
 21
18.9009937852
  0
LINE
  5
33D
100
AcDbEntity
  8
0
100
AcDbLine
 62
7
  6
CONTINUOUS
 10
-40.3469189234
 20
18.9438617852
 11
-39.7994949234
 21
18.9438617852
  0
LINE
  5
33E
100
AcDbEntity
  8
ASSI
100
AcDbLine
 62
7
  6
CONTINUOUS
 10
-40.3469189234
 20
18.9438617852
 11
-39.7994949234
 21
18.9438617852
  0
LINE
  5
33F
100
AcDbEntity
  8
ASSI
100
AcDbLine
 62
7
  6
CONTINUOUS
 10
-11.1111819234
 20
18.9898647852
 11
-11.4310509234
 21
18.9898647852
  0
LINE
  5
340
100
AcDbEntity
  8
ASSI
100
AcDbLine
 62
7
  6
CONTINUOUS
 10
-10.0262569234
 20
18.9898687852
 11
-9.7382289234
 21
18.9898647852
  0
LINE
  5
341
100
AcDbEntity
  8
0
100
AcDbLine
 62
7
  6
CONTINUOUS
 10
-39.7994949234
 20
19.0635707852
 11
-40.3469189234
 21
19.0635707852
  0
LINE
  5
342
100
AcDbEntity
  8
ASSI
100
AcDbLine
 62
7
  6
CONTINUOUS
 10
-39.7994949234
 20
19.0635707852
 11
-40.3469189234
 21
19.0635707852
  0
LINE
  5
343
100
AcDbEntity
  8
ASSI
100
AcDbLine
 62
7
  6
CONTINUOUS
 10
-9.6293226663
 20
19.2951307852
 11
-10.0308439234
 21
19.2951307852
  0
LINE
  5
344
100
AcDbEntity
  8
0
100
AcDbLine
 62
7
  6
CONTINUOUS
 10
-40.3469189234
 20
19.3701207852
 11
-39.7535529234
 21
19.3701207852
  0
LINE
  5
345
100
AcDbEntity
  8
ASSI
100
AcDbLine
 62
7
  6
CONTINUOUS
 10
-40.3469189234
 20
19.3701207852
 11
-39.7535529234
 21
19.3701207852
  0
LINE
  5
346
100
AcDbEntity
  8
0
100
AcDbLine
 62
7
  6
CONTINUOUS
 10
-41.3596689234
 20
19.3741657852
 11
-41.1075595804
 21
19.3741657852
  0
LINE
  5
347
100
AcDbEntity
  8
ASSI
100
AcDbLine
 62
7
  6
CONTINUOUS
 10
-41.3596689234
 20
19.3741657852
 11
-41.1075595804
 21
19.3741657852
  0
LINE
  5
348
100
AcDbEntity
  8
0
100
AcDbLine
 62
7
  6
CONTINUOUS
 10
-39.7535529234
 20
19.4898297852
 11
-40.4820759234
 21
19.4898297852
  0
LINE
  5
349
100
AcDbEntity
  8
ASSI
100
AcDbLine
 62
7
  6
CONTINUOUS
 10
-39.7535529234
 20
19.4898297852
 11
-40.4820759234
 21
19.4898297852
  0
LINE
  5
34A
100
AcDbEntity
  8
0
100
AcDbLine
 62
7
  6
CONTINUOUS
 10
-41.0894366918
 20
19.4898297852
 11
-41.4947449234
 21
19.4898297852
  0
LINE
  5
34B
100
AcDbEntity
  8
ASSI
100
AcDbLine
 62
7
  6
CONTINUOUS
 10
-41.0894366918
 20
19.4898297852
 11
-41.4947449234
 21
19.4898297852
  0
LINE
  5
34C
100
AcDbEntity
  8
0
100
AcDbLine
 62
7
  6
CONTINUOUS
 10
-41.9878949234
 20
19.4898297852
 11
-42.1410899234
 21
19.4898297852
  0
LINE
  5
34D
100
AcDbEntity
  8
ASSI
100
AcDbLine
 62
7
  6
CONTINUOUS
 10
-41.9878949234
 20
19.4898297852
 11
-42.1410899234
 21
19.4898297852
  0
LINE
  5
34E
100
AcDbEntity
  8
0
100
AcDbLine
 62
7
  6
CONTINUOUS
 10
-42.6369899234
 20
19.4898297852
 11
-42.8292519234
 21
19.4898297852
  0
LINE
  5
34F
100
AcDbEntity
  8
ASSI
100
AcDbLine
 62
7
  6
CONTINUOUS
 10
-42.6369899234
 20
19.4898297852
 11
-42.8292519234
 21
19.4898297852
  0
LINE
  5
350
100
AcDbEntity
  8
0
100
AcDbLine
 62
7
  6
CONTINUOUS
 10
-43.4017489234
 20
19.4898297852
 11
-43.5953859234
 21
19.4898297852
  0
LINE
  5
351
100
AcDbEntity
  8
ASSI
100
AcDbLine
 62
7
  6
CONTINUOUS
 10
-43.4017489234
 20
19.4898297852
 11
-43.5953859234
 21
19.4898297852
  0
LINE
  5
352
100
AcDbEntity
  8
ASSI
100
AcDbLine
 62
7
  6
CONTINUOUS
 10
-10.0308479234
 20
19.6966667852
 11
-9.6293226663
 21
19.6966667852
  0
LWPOLYLINE
  5
353
100
AcDbEntity
  8
0
100
AcDbPolyline
 62
7
  6
CONTINUOUS
 90
46
 70
0
 10
-41.1075595804
 20
19.3741657852
 10
-41.0940443354
 20
19.3738909103
 10
-41.0809904187
 20
19.3732154737
 10
-41.0683978303
 20
19.3721394754
 10
-41.0562853942
 20
19.3706433029
 10
-41.0446342865
 20
19.3687465687
 10
-41.0333880352
 20
19.3665081108
 10
-41.0225343718
 20
19.3639295772
 10
-41.0120855648
 20
19.3610093199
 10
-41.0020219484
 20
19.3578012318
 10
-40.9923433533
 20
19.3543094766
 10
-40.9830499488
 20
19.3505298907
 10
-40.9741225758
 20
19.3465038763
 10
-40.9656008035
 20
19.3422640789
 10
-40.9574450628
 20
19.3377778529
 10
-40.9495174874
 20
19.3329886644
 10
-40.9418193339
 20
19.3279148711
 10
-40.9343493457
 20
19.3225381151
 10
-40.9269658872
 20
19.3167467892
 10
-40.91961635
 20
19.3105171274
 10
-40.9123533425
 20
19.3038728956
 10
-40.905193054
 20
19.2967737836
 10
-40.8981118991
 20
19.2891955702
 10
-40.8911334633
 20
19.2811624765
 10
-40.8843446926
 20
19.272706856
 10
-40.8777504582
 20
19.2638274639
 10
-40.8713458888
 20
19.2545255449
 10
-40.8652033167
 20
19.2448371865
 10
-40.8593289602
 20
19.2347656547
 10
-40.8537166009
 20
19.2243076834
 10
-40.8484199154
 20
19.2134895623
 10
-40.8434451999
 20
19.2023280023
 10
-40.8387861583
 20
19.1908062924
 10
-40.8344775792
 20
19.1789005896
 10
-40.8305448102
 20
19.1666874083
 10
-40.8269625037
 20
19.1540902341
 10
-40.8236894057
 20
19.1408556808
 10
-40.8207240134
 20
19.126917633
 10
-40.8180678295
 20
19.1123422061
 10
-40.8156841087
 20
19.0970743606
 10
-40.8135313412
 20
19.0811272476
 10
-40.8116510367
 20
19.0644877161
 10
-40.8101309784
 20
19.0470612733
 10
-40.8090004276
 20
19.0288164218
 10
-40.808230123
 20
19.0097846591
 10
-40.8078200647
 20
18.9899659852
  0
LWPOLYLINE
  5
354
100
AcDbEntity
  8
ASSI
100
AcDbPolyline
 62
7
  6
CONTINUOUS
 90
46
 70
0
 10
-41.1075595804
 20
19.3741657852
 10
-41.0940443354
 20
19.3738909103
 10
-41.0809904187
 20
19.3732154737
 10
-41.0683978303
 20
19.3721394754
 10
-41.0562853942
 20
19.3706433029
 10
-41.0446342865
 20
19.3687465687
 10
-41.0333880352
 20
19.3665081108
 10
-41.0225343718
 20
19.3639295772
 10
-41.0120855648
 20
19.3610093199
 10
-41.0020219484
 20
19.3578012318
 10
-40.9923433533
 20
19.3543094766
 10
-40.9830499488
 20
19.3505298907
 10
-40.9741225758
 20
19.3465038763
 10
-40.9656008035
 20
19.3422640789
 10
-40.9574450628
 20
19.3377778529
 10
-40.9495174874
 20
19.3329886644
 10
-40.9418193339
 20
19.3279148711
 10
-40.9343493457
 20
19.3225381151
 10
-40.9269658872
 20
19.3167467892
 10
-40.91961635
 20
19.3105171274
 10
-40.9123533425
 20
19.3038728956
 10
-40.905193054
 20
19.2967737836
 10
-40.8981118991
 20
19.2891955702
 10
-40.8911334633
 20
19.2811624765
 10
-40.8843446926
 20
19.272706856
 10
-40.8777504582
 20
19.2638274639
 10
-40.8713458888
 20
19.2545255449
 10
-40.8652033167
 20
19.2448371865
 10
-40.8593289602
 20
19.2347656547
 10
-40.8537166009
 20
19.2243076834
 10
-40.8484199154
 20
19.2134895623
 10
-40.8434451999
 20
19.2023280023
 10
-40.8387861583
 20
19.1908062924
 10
-40.8344775792
 20
19.1789005896
 10
-40.8305448102
 20
19.1666874083
 10
-40.8269625037
 20
19.1540902341
 10
-40.8236894057
 20
19.1408556808
 10
-40.8207240134
 20
19.126917633
 10
-40.8180678295
 20
19.1123422061
 10
-40.8156841087
 20
19.0970743606
 10
-40.8135313412
 20
19.0811272476
 10
-40.8116510367
 20
19.0644877161
 10
-40.8101309784
 20
19.0470612733
 10
-40.8090004276
 20
19.0288164218
 10
-40.808230123
 20
19.0097846591
 10
-40.8078200647
 20
18.9899659852
  0
LINE
  5
355
100
AcDbEntity
  8
0
100
AcDbLine
 62
7
  6
CONTINUOUS
 10
-10.6591447778
 20
16.3449497707
 11
-10.4713839881
 21
16.3261737917
  0
LINE
  5
356
100
AcDbEntity
  8
ASSI
100
AcDbLine
 62
7
  6
CONTINUOUS
 10
-10.6591447778
 20
16.3449497707
 11
-10.4713839881
 21
16.3261737917
  0
LINE
  5
357
100
AcDbEntity
  8
ASSI
100
AcDbLine
 62
7
  6
CONTINUOUS
 10
-12.1859169234
 20
20.0019247852
 11
-12.6848069234
 21
20.0019247852
  0
LINE
  5
358
100
AcDbEntity
  8
ASSI
100
AcDbLine
 62
7
  6
CONTINUOUS
 10
-13.3010739234
 20
20.0019247852
 11
-13.7999639234
 21
20.0019247852
  0
LINE
  5
359
100
AcDbEntity
  8
ASSI
100
AcDbLine
 62
7
  6
CONTINUOUS
 10
-14.1299639234
 20
20.0019247852
 11
-14.4599759234
 21
20.0019247852
  0
LINE
  5
35A
100
AcDbEntity
  8
ASSI
100
AcDbLine
 62
7
  6
CONTINUOUS
 10
-14.6799829234
 20
20.0019247852
 11
-15.0099999234
 21
20.0019247852
  0
LINE
  5
35B
100
AcDbEntity
  8
ASSI
100
AcDbLine
 62
7
  6
CONTINUOUS
 10
-15.7395589234
 20
20.0019247852
 11
-16.0695759234
 21
20.0019247852
  0
LINE
  5
35C
100
AcDbEntity
  8
ASSI
100
AcDbLine
 62
7
  6
CONTINUOUS
 10
-9.5834964237
 20
20.0019297852
 11
-10.3563109234
 21
20.0019297852
  0
LINE
  5
35D
100
AcDbEntity
  8
ASSI
100
AcDbLine
 62
7
  6
CONTINUOUS
 10
-11.1061039234
 20
20.0019297852
 11
-11.4361329234
 21
20.0019297852
  0
LINE
  5
35E
100
AcDbEntity
  8
RACCORDO
100
AcDbLine
 62
253
  6
CONTINUOUS
 10
-49.3215781505
 20
20.7982569467
 11
-2.0175736962
 21
20.7982569467
  0
LINE
  5
35F
100
AcDbEntity
  8
ASSI
100
AcDbLine
 62
253
  6
CONTINUOUS
 10
-49.3215781505
 20
20.7982569467
 11
-2.0175736962
 21
20.7982569467
  0
LINE
  5
360
100
AcDbEntity
  8
RACCORDO
100
AcDbLine
 62
253
  6
CONTINUOUS
 10
-49.3225134934
 20
21.1982569467
 11
-2.0166383534
 21
21.1982569467
  0
LINE
  5
361
100
AcDbEntity
  8
ASSI
100
AcDbLine
 62
253
  6
CONTINUOUS
 10
-49.3225134934
 20
21.1982569467
 11
-2.0166383534
 21
21.1982569467
  0
LINE
  5
362
100
AcDbEntity
  8
RACCORDO
100
AcDbLine
 62
253
  6
CONTINUOUS
 10
-2.0132729184
 20
21.8662061392
 11
-49.3258789283
 21
21.8662061392
  0
LINE
  5
363
100
AcDbEntity
  8
ASSI
100
AcDbLine
 62
253
  6
CONTINUOUS
 10
-2.0132729184
 20
21.8662061392
 11
-49.3258789283
 21
21.8662061392
  0
LWPOLYLINE
  5
364
100
AcDbEntity
  8
0
100
AcDbPolyline
 62
7
  6
CONTINUOUS
 90
19
 70
0
 10
-15.1695759234
 20
16.2245026071
 10
-15.148843922
 20
16.2324668877
 10
-15.1273801202
 20
16.2413922001
 10
-15.1051845181
 20
16.2512785442
 10
-15.0820686963
 20
16.2622312546
 10
-15.058221074
 20
16.2741449966
 10
-15.034206909
 20
16.2867037668
 10
-15.0097994928
 20
16.3000482639
 10
-14.9852255338
 20
16.314037789
 10
-14.9617304145
 20
16.3279342425
 10
-14.9397239944
 20
16.3415025879
 10
-14.9187964141
 20
16.3549778615
 10
-14.8989634781
 20
16.3683270722
 10
-14.8802521613
 20
16.3815428611
 10
-14.862635489
 20
16.394632587
 10
-14.846048341
 20
16.4075853354
 10
-14.8304690107
 20
16.4203974681
 10
-14.8159192049
 20
16.4330726232
 10
-14.8023989234
 20
16.4456108008
  0
LWPOLYLINE
  5
365
100
AcDbEntity
  8
ASSI
100
AcDbPolyline
 62
7
  6
CONTINUOUS
 90
19
 70
0
 10
-15.1695759234
 20
16.2245026071
 10
-15.148843922
 20
16.2324668877
 10
-15.1273801202
 20
16.2413922001
 10
-15.1051845181
 20
16.2512785442
 10
-15.0820686963
 20
16.2622312546
 10
-15.058221074
 20
16.2741449966
 10
-15.034206909
 20
16.2867037668
 10
-15.0097994928
 20
16.3000482639
 10
-14.9852255338
 20
16.314037789
 10
-14.9617304145
 20
16.3279342425
 10
-14.9397239944
 20
16.3415025879
 10
-14.9187964141
 20
16.3549778615
 10
-14.8989634781
 20
16.3683270722
 10
-14.8802521613
 20
16.3815428611
 10
-14.862635489
 20
16.394632587
 10
-14.846048341
 20
16.4075853354
 10
-14.8304690107
 20
16.4203974681
 10
-14.8159192049
 20
16.4330726232
 10
-14.8023989234
 20
16.4456108008
  0
LINE
  5
366
100
AcDbEntity
  8
RACCORDO
100
AcDbLine
 62
253
  6
CONTINUOUS
 10
-2.0123375756
 20
22.2662061392
 11
-49.3268142712
 21
22.2662061392
  0
LINE
  5
367
100
AcDbEntity
  8
ASSI
100
AcDbLine
 62
253
  6
CONTINUOUS
 10
-2.0123375756
 20
22.2662061392
 11
-49.3268142712
 21
22.2662061392
  0
LINE
  5
368
100
AcDbEntity
  8
0
100
AcDbLine
 62
7
  6
CONTINUOUS
 10
-15.1695759234
 20
16.4017996337
 11
-15.1695759234
 21
16.2245026071
  0
LINE
  5
369
100
AcDbEntity
  8
ASSI
100
AcDbLine
 62
7
  6
CONTINUOUS
 10
-15.1695759234
 20
16.4017996337
 11
-15.1695759234
 21
16.2245026071
  0
LINE
  5
36A
100
AcDbEntity
  8
ASSI
100
AcDbLine
 62
7
  6
CONTINUOUS
 10
-15.0099999234
 20
20.0019247852
 11
-15.3747769234
 21
18.8657597852
  0
LINE
  5
36B
100
AcDbEntity
  8
ASSI
100
AcDbLine
 62
7
  6
CONTINUOUS
 10
-15.2097689234
 20
18.3518507852
 11
-14.6799829234
 21
20.0019247852
  0
LWPOLYLINE
  5
36C
100
AcDbEntity
  8
0
100
AcDbPolyline
 62
7
  6
CONTINUOUS
 90
25
 70
0
 10
-14.7371392809
 20
16.7767997852
 10
-14.7437659255
 20
16.7638669732
 10
-14.75123647
 20
16.7505906588
 10
-14.7595509142
 20
16.7369708419
 10
-14.7686750707
 20
16.7230025158
 10
-14.7786431271
 20
16.7086906872
 10
-14.7895576461
 20
16.694050377
 10
-14.8014201266
 20
16.6790828084
 10
-14.8142290698
 20
16.6637867581
 10
-14.828082543
 20
16.6481735776
 10
-14.842967735
 20
16.6322460894
 10
-14.8588974571
 20
16.6160014711
 10
-14.8760082098
 20
16.5994426069
 10
-14.8943422993
 20
16.5824732747
 10
-14.9138574193
 20
16.5651896967
 10
-14.9345631519
 20
16.5478834237
 10
-14.9565393125
 20
16.5305332268
 10
-14.9797060857
 20
16.5131603349
 10
-15.0038336068
 20
16.4961199863
 10
-15.0287985426
 20
16.4795221546
 10
-15.0547242264
 20
16.4632568661
 10
-15.0817507929
 20
16.447349438
 10
-15.1099249537
 20
16.4318083095
 10
-15.1391999972
 20
16.4166250414
 10
-15.1695759234
 20
16.4017996337
  0
LWPOLYLINE
  5
36D
100
AcDbEntity
  8
ASSI
100
AcDbPolyline
 62
7
  6
CONTINUOUS
 90
25
 70
0
 10
-14.7371392809
 20
16.7767997852
 10
-14.7437659255
 20
16.7638669732
 10
-14.75123647
 20
16.7505906588
 10
-14.7595509142
 20
16.7369708419
 10
-14.7686750707
 20
16.7230025158
 10
-14.7786431271
 20
16.7086906872
 10
-14.7895576461
 20
16.694050377
 10
-14.8014201266
 20
16.6790828084
 10
-14.8142290698
 20
16.6637867581
 10
-14.828082543
 20
16.6481735776
 10
-14.842967735
 20
16.6322460894
 10
-14.8588974571
 20
16.6160014711
 10
-14.8760082098
 20
16.5994426069
 10
-14.8943422993
 20
16.5824732747
 10
-14.9138574193
 20
16.5651896967
 10
-14.9345631519
 20
16.5478834237
 10
-14.9565393125
 20
16.5305332268
 10
-14.9797060857
 20
16.5131603349
 10
-15.0038336068
 20
16.4961199863
 10
-15.0287985426
 20
16.4795221546
 10
-15.0547242264
 20
16.4632568661
 10
-15.0817507929
 20
16.447349438
 10
-15.1099249537
 20
16.4318083095
 10
-15.1391999972
 20
16.4166250414
 10
-15.1695759234
 20
16.4017996337
  0
LWPOLYLINE
  5
36E
100
AcDbEntity
  8
ASSI
100
AcDbPolyline
 62
7
  6
CONTINUOUS
 90
16
 70
0
 10
-12.8262945873
 20
16.6645175042
 10
-12.838446869
 20
16.6533277879
 10
-12.8504046084
 20
16.6415687176
 10
-12.8617782002
 20
16.6296221158
 10
-12.8724029957
 20
16.6176443619
 10
-12.8824436435
 20
16.6054790765
 10
-12.892004485
 20
16.5930389431
 10
-12.9011070853
 20
16.5803147254
 10
-12.9097298792
 20
16.5673156598
 10
-12.9179125126
 20
16.5539821397
 10
-12.9256632799
 20
16.5403202828
 10
-12.9329738867
 20
16.5263239713
 10
-12.9398590949
 20
16.5119152461
 10
-12.9463277391
 20
16.4971001957
 10
-12.9523709848
 20
16.4818727315
 10
-12.9579770903
 20
16.4661366285
  0
LINE
  5
36F
100
AcDbEntity
  8
RACCORDO
100
AcDbLine
 62
7
  6
CONTINUOUS
 10
-46.1976922451
 20
0.9018467852
 11
-47.6343941497
 21
0.4626029329
  0
LINE
  5
370
100
AcDbEntity
  8
ASSI
100
AcDbLine
 62
7
  6
CONTINUOUS
 10
-46.1976922451
 20
0.9018467852
 11
-47.6343941497
 21
0.4626029329
  0
LINE
  5
371
100
AcDbEntity
  8
RACCORDO
100
AcDbLine
 62
253
  6
CONTINUOUS
 10
-46.1678020448
 20
0.8432681415
 11
-47.4480836128
 21
0.4518467852
  0
LINE
  5
372
100
AcDbEntity
  8
ASSI
100
AcDbLine
 62
253
  6
CONTINUOUS
 10
-46.1678020448
 20
0.8432681415
 11
-47.4480836128
 21
0.4518467852
  0
LINE
  5
373
100
AcDbEntity
  8
RACCORDO
100
AcDbLine
 62
7
  6
CONTINUOUS
 10
-47.6343941497
 20
34.6410906376
 11
-46.1976922451
 21
34.2018467852
  0
LINE
  5
374
100
AcDbEntity
  8
ASSI
100
AcDbLine
 62
7
  6
CONTINUOUS
 10
-47.6343941497
 20
34.6410906376
 11
-46.1976922451
 21
34.2018467852
  0
LINE
  5
375
100
AcDbEntity
  8
RACCORDO
100
AcDbLine
 62
253
  6
CONTINUOUS
 10
-47.4480836128
 20
34.6518467852
 11
-46.1678020448
 21
34.260425429
  0
LINE
  5
376
100
AcDbEntity
  8
ASSI
100
AcDbLine
 62
253
  6
CONTINUOUS
 10
-47.4480836128
 20
34.6518467852
 11
-46.1678020448
 21
34.260425429
  0
LINE
  5
377
100
AcDbEntity
  8
ASSI
100
AcDbLine
 62
7
  6
CONTINUOUS
 10
-16.0695759234
 20
20.0019247852
 11
-15.5397939234
 21
18.3518467852
  0
LINE
  5
378
100
AcDbEntity
  8
ASSI
100
AcDbLine
 62
7
  6
CONTINUOUS
 10
-15.3747769234
 20
18.8657597852
 11
-15.7395589234
 21
20.0019247852
  0
LINE
  5
379
100
AcDbEntity
  8
0
100
AcDbLine
 62
7
  6
CONTINUOUS
 10
-14.8023989234
 20
16.4456108008
 11
-14.8023989234
 21
15.2767997852
  0
LINE
  5
37A
100
AcDbEntity
  8
ASSI
100
AcDbLine
 62
7
  6
CONTINUOUS
 10
-14.8023989234
 20
16.4456108008
 11
-14.8023989234
 21
15.2767997852
  0
LINE
  5
37B
100
AcDbEntity
  8
0
100
AcDbLine
 62
7
  6
CONTINUOUS
 10
-14.6188109234
 20
15.2767997852
 11
-14.6188109234
 21
16.7767997852
  0
LINE
  5
37C
100
AcDbEntity
  8
ASSI
100
AcDbLine
 62
7
  6
CONTINUOUS
 10
-14.6188109234
 20
15.2767997852
 11
-14.6188109234
 21
16.7767997852
  0
LINE
  5
37D
100
AcDbEntity
  8
ASSI
100
AcDbLine
 62
7
  6
CONTINUOUS
 10
-14.4599759234
 20
20.0019247852
 11
-14.4599799234
 21
18.3518467852
  0
LINE
  5
37E
100
AcDbEntity
  8
ASSI
100
AcDbLine
 62
7
  6
CONTINUOUS
 10
-14.1299679234
 20
18.3518507852
 11
-14.1299639234
 21
20.0019247852
  0
LINE
  5
37F
100
AcDbEntity
  8
ASSI
100
AcDbLine
 62
7
  6
CONTINUOUS
 10
-13.7999639234
 20
20.0019247852
 11
-13.7999639234
 21
18.3518507852
  0
LINE
  5
380
100
AcDbEntity
  8
ASSI
100
AcDbLine
 62
7
  6
CONTINUOUS
 10
-13.4699509234
 20
18.3518507852
 11
-13.4699509234
 21
19.4399637852
  0
LWPOLYLINE
  5
381
100
AcDbEntity
  8
0
100
AcDbPolyline
 62
7
  6
CONTINUOUS
 90
91
 70
0
 10
-13.9741656313
 20
16.0482487118
 10
-13.9736621006
 20
16.0776895171
 10
-13.9727602535
 20
16.1060018854
 10
-13.97146009
 20
16.1331858167
 10
-13.9697490522
 20
16.1592165866
 10
-13.967639698
 20
16.1841189196
 10
-13.965169701
 20
16.2079669882
 10
-13.9623401414
 20
16.2307649591
 10
-13.9591499391
 20
16.2525086657
 10
-13.9556335272
 20
16.2732597809
 10
-13.951788578
 20
16.2930212294
 10
-13.9476174193
 20
16.3117900865
 10
-13.9431614673
 20
16.3296192516
 10
-13.9384609271
 20
16.3463896922
 10
-13.9334755936
 20
16.3622204406
 10
-13.9281262677
 20
16.3775214933
 10
-13.9224768585
 20
16.392189257
 10
-13.9164634568
 20
16.406327325
 10
-13.9098151362
 20
16.4206564733
 10
-13.9023011418
 20
16.4357203171
 10
-13.8941522286
 20
16.4509752412
 10
-13.8857897342
 20
16.4655111767
 10
-13.8773313526
 20
16.479013641
 10
-13.8686593899
 20
16.4917971166
 10
-13.8598421023
 20
16.5038949818
 10
-13.850883947
 20
16.5152967286
 10
-13.8417804668
 20
16.526012865
 10
-13.8325865462
 20
16.5361082925
 10
-13.8232452713
 20
16.5456262549
 10
-13.8138135559
 20
16.5545235085
 10
-13.8045170267
 20
16.5627352235
 10
-13.7954728541
 20
16.5701886964
 10
-13.7865638676
 20
16.5769566307
 10
-13.7776641818
 20
16.5831923065
 10
-13.768777773
 20
16.5889029205
 10
-13.759900665
 20
16.5940812761
 10
-13.7508950427
 20
16.5988590628
 10
-13.7417340901
 20
16.603271267
 10
-13.7324446233
 20
16.6072829023
 10
-13.7229692758
 20
16.610920699
 10
-13.713311811
 20
16.614194269
 10
-13.7034684655
 20
16.6170940002
 10
-13.693370583
 20
16.6196177872
 10
-13.6830158498
 20
16.6217754671
 10
-13.6724065796
 20
16.6235572027
 10
-13.6614810581
 20
16.6249313764
 10
-13.6500589285
 20
16.6258957214
 10
-13.6383205475
 20
16.6264525046
 10
-13.6267452709
 20
16.6265769094
 10
-13.6154346736
 20
16.626245782
 10
-13.6042871807
 20
16.6254822763
 10
-13.5934774232
 20
16.624331037
 10
-13.5830920109
 20
16.6227971806
 10
-13.573044334
 20
16.6208755906
 10
-13.5632491936
 20
16.618595562
 10
-13.5536964495
 20
16.6159646085
 10
-13.544396242
 20
16.6129752165
 10
-13.5352937931
 20
16.60963414
 10
-13.5263002182
 20
16.6058886365
 10
-13.5175044019
 20
16.6017914486
 10
-13.5091182206
 20
16.5975075587
 10
-13.5011952815
 20
16.5930357888
 10
-13.4936819774
 20
16.5883773169
 10
-13.4866293631
 20
16.5837006589
 10
-13.4800884221
 20
16.5790430309
 10
-13.4740081708
 20
16.5743672168
 10
-13.4682867139
 20
16.5697300844
 10
-13.4629176356
 20
16.5651521195
 10
-13.4579073516
 20
16.5606128363
 10
-13.453173213
 20
16.5561076445
 10
-13.4487550904
 20
16.5517371949
 10
-13.4446131131
 20
16.5474008367
 10
-13.440545021
 20
16.5427920278
 10
-13.4365014456
 20
16.5378462668
 10
-13.4325317553
 20
16.532628055
 10
-13.4285817945
 20
16.5270243551
 10
-13.4246250533
 20
16.5210071651
 10
-13.4206880417
 20
16.5146044869
 10
-13.4167961344
 20
16.5077872887
 10
-13.4129509652
 20
16.5005556156
 10
-13.4091509002
 20
16.4929094224
 10
-13.4054164128
 20
16.4848195415
 10
-13.4017486222
 20
16.4762863829
 10
-13.3981464091
 20
16.4673095366
 10
-13.3946268894
 20
16.4578586055
 10
-13.3911907029
 20
16.4479341863
 10
-13.3878372097
 20
16.4375356823
 10
-13.3845816061
 20
16.4266309057
 10
-13.3814289574
 20
16.4152091273
 10
-13.3783741983
 20
16.4032810763
 10
-13.3754173286
 20
16.3908467526
  0
LWPOLYLINE
  5
382
100
AcDbEntity
  8
ASSI
100
AcDbPolyline
 62
7
  6
CONTINUOUS
 90
91
 70
0
 10
-13.9741656313
 20
16.0482487118
 10
-13.9736621006
 20
16.0776895171
 10
-13.9727602535
 20
16.1060018854
 10
-13.97146009
 20
16.1331858167
 10
-13.9697490522
 20
16.1592165866
 10
-13.967639698
 20
16.1841189196
 10
-13.965169701
 20
16.2079669882
 10
-13.9623401414
 20
16.2307649591
 10
-13.9591499391
 20
16.2525086657
 10
-13.9556335272
 20
16.2732597809
 10
-13.951788578
 20
16.2930212294
 10
-13.9476174193
 20
16.3117900865
 10
-13.9431614673
 20
16.3296192516
 10
-13.9384609271
 20
16.3463896922
 10
-13.9334755936
 20
16.3622204406
 10
-13.9281262677
 20
16.3775214933
 10
-13.9224768585
 20
16.392189257
 10
-13.9164634568
 20
16.406327325
 10
-13.9098151362
 20
16.4206564733
 10
-13.9023011418
 20
16.4357203171
 10
-13.8941522286
 20
16.4509752412
 10
-13.8857897342
 20
16.4655111767
 10
-13.8773313526
 20
16.479013641
 10
-13.8686593899
 20
16.4917971166
 10
-13.8598421023
 20
16.5038949818
 10
-13.850883947
 20
16.5152967286
 10
-13.8417804668
 20
16.526012865
 10
-13.8325865462
 20
16.5361082925
 10
-13.8232452713
 20
16.5456262549
 10
-13.8138135559
 20
16.5545235085
 10
-13.8045170267
 20
16.5627352235
 10
-13.7954728541
 20
16.5701886964
 10
-13.7865638676
 20
16.5769566307
 10
-13.7776641818
 20
16.5831923065
 10
-13.768777773
 20
16.5889029205
 10
-13.759900665
 20
16.5940812761
 10
-13.7508950427
 20
16.5988590628
 10
-13.7417340901
 20
16.603271267
 10
-13.7324446233
 20
16.6072829023
 10
-13.7229692758
 20
16.610920699
 10
-13.713311811
 20
16.614194269
 10
-13.7034684655
 20
16.6170940002
 10
-13.693370583
 20
16.6196177872
 10
-13.6830158498
 20
16.6217754671
 10
-13.6724065796
 20
16.6235572027
 10
-13.6614810581
 20
16.6249313764
 10
-13.6500589285
 20
16.6258957214
 10
-13.6383205475
 20
16.6264525046
 10
-13.6267452709
 20
16.6265769094
 10
-13.6154346736
 20
16.626245782
 10
-13.6042871807
 20
16.6254822763
 10
-13.5934774232
 20
16.624331037
 10
-13.5830920109
 20
16.6227971806
 10
-13.573044334
 20
16.6208755906
 10
-13.5632491936
 20
16.618595562
 10
-13.5536964495
 20
16.6159646085
 10
-13.544396242
 20
16.6129752165
 10
-13.5352937931
 20
16.60963414
 10
-13.5263002182
 20
16.6058886365
 10
-13.5175044019
 20
16.6017914486
 10
-13.5091182206
 20
16.5975075587
 10
-13.5011952815
 20
16.5930357888
 10
-13.4936819774
 20
16.5883773169
 10
-13.4866293631
 20
16.5837006589
 10
-13.4800884221
 20
16.5790430309
 10
-13.4740081708
 20
16.5743672168
 10
-13.4682867139
 20
16.5697300844
 10
-13.4629176356
 20
16.5651521195
 10
-13.4579073516
 20
16.5606128363
 10
-13.453173213
 20
16.5561076445
 10
-13.4487550904
 20
16.5517371949
 10
-13.4446131131
 20
16.5474008367
 10
-13.440545021
 20
16.5427920278
 10
-13.4365014456
 20
16.5378462668
 10
-13.4325317553
 20
16.532628055
 10
-13.4285817945
 20
16.5270243551
 10
-13.4246250533
 20
16.5210071651
 10
-13.4206880417
 20
16.5146044869
 10
-13.4167961344
 20
16.5077872887
 10
-13.4129509652
 20
16.5005556156
 10
-13.4091509002
 20
16.4929094224
 10
-13.4054164128
 20
16.4848195415
 10
-13.4017486222
 20
16.4762863829
 10
-13.3981464091
 20
16.4673095366
 10
-13.3946268894
 20
16.4578586055
 10
-13.3911907029
 20
16.4479341863
 10
-13.3878372097
 20
16.4375356823
 10
-13.3845816061
 20
16.4266309057
 10
-13.3814289574
 20
16.4152091273
 10
-13.3783741983
 20
16.4032810763
 10
-13.3754173286
 20
16.3908467526
  0
LWPOLYLINE
  5
383
100
AcDbEntity
  8
0
100
AcDbPolyline
 62
7
  6
CONTINUOUS
 90
85
 70
0
 10
-13.9449583991
 20
15.7609029826
 10
-13.9446413662
 20
15.7767601418
 10
-13.9438734138
 20
15.7920102492
 10
-13.9426545418
 20
15.8066533046
 10
-13.940962091
 20
15.8206513684
 10
-13.9388187206
 20
15.8340423802
 10
-13.9362924086
 20
15.8469401595
 10
-13.9333942763
 20
15.8593473595
 10
-13.9301132023
 20
15.8712613269
 10
-13.9264838004
 20
15.8827879212
 10
-13.9225154468
 20
15.8939347415
 10
-13.9181987654
 20
15.9046941887
 10
-13.913540241
 20
15.9151493251
 10
-13.9085478119
 20
15.9253072709
 10
-13.9032135399
 20
15.935160906
 10
-13.8975200957
 20
15.9447719318
 10
-13.8914786419
 20
15.9541420503
 10
-13.885078016
 20
15.9632695597
 10
-13.8782674008
 20
15.9722110555
 10
-13.871032578
 20
15.9809875567
 10
-13.8633877659
 20
15.9895780444
 10
-13.8553248032
 20
15.9979760582
 10
-13.8467283193
 20
16.0062820979
 10
-13.8377136848
 20
16.0143956637
 10
-13.8286188498
 20
16.0220087967
 10
-13.8195621496
 20
16.0289998439
 10
-13.810425249
 20
16.0354904583
 10
-13.8011910913
 20
16.041537639
 10
-13.7918694445
 20
16.0471448437
 10
-13.7824505407
 20
16.0523086148
 10
-13.7728880201
 20
16.0570755784
 10
-13.7631864079
 20
16.0614543259
 10
-13.7533411787
 20
16.0654362659
 10
-13.7432923966
 20
16.0690422505
 10
-13.7330427339
 20
16.0722818313
 10
-13.7225895182
 20
16.0751454566
 10
-13.7118647964
 20
16.0776253236
 10
-13.7008716828
 20
16.0797304687
 10
-13.6896070631
 20
16.0814518555
 10
-13.677993641
 20
16.082754572
 10
-13.6658668424
 20
16.083635819
 10
-13.6533912415
 20
16.0840983957
 10
-13.6409832638
 20
16.084115787
 10
-13.6286733481
 20
16.0836630577
 10
-13.6164310556
 20
16.0827651431
 10
-13.604581496
 20
16.0814703342
 10
-13.5932625039
 20
16.0797825855
 10
-13.5823362446
 20
16.0776979425
 10
-13.5717143238
 20
16.0752528327
 10
-13.5613919101
 20
16.0724570293
 10
-13.551373835
 20
16.069300759
 10
-13.5415861986
 20
16.065791129
 10
-13.5320236722
 20
16.0619367414
 10
-13.5226915845
 20
16.0577289941
 10
-13.5135320227
 20
16.0531491879
 10
-13.5045407274
 20
16.0482059467
 10
-13.495721958
 20
16.0428906466
 10
-13.4870305791
 20
16.0371587167
 10
-13.4784529736
 20
16.0310091842
 10
-13.4700027586
 20
16.0244430219
 10
-13.46167565
 20
16.017418577
 10
-13.453375645
 20
16.0098320633
 10
-13.4451987464
 20
16.0017872671
 10
-13.4374286793
 20
15.9935538942
 10
-13.4301842011
 20
15.9852496709
 10
-13.4233465544
 20
15.9767568709
 10
-13.416843192
 20
15.9679920219
 10
-13.41066153
 20
15.9589562805
 10
-13.4048141523
 20
15.9496484901
 10
-13.3992662641
 20
15.939981708
 10
-13.3940037945
 20
15.9299564212
 10
-13.3890408144
 20
15.9195721427
 10
-13.3843847417
 20
15.9087404696
 10
-13.3800274308
 20
15.8974724662
 10
-13.3759770272
 20
15.8857570682
 10
-13.3722653852
 20
15.8734726784
 10
-13.3688810087
 20
15.8606300723
 10
-13.3658353936
 20
15.8472184744
 10
-13.363194883
 20
15.8330839619
 10
-13.3609468997
 20
15.8182035312
 10
-13.3591040208
 20
15.8026001858
 10
-13.3577703198
 20
15.7861890137
 10
-13.3569804878
 20
15.7689417107
 10
-13.3566998337
 20
15.750886581
 10
-13.3569283575
 20
15.7320236245
  0
LWPOLYLINE
  5
384
100
AcDbEntity
  8
ASSI
100
AcDbPolyline
 62
7
  6
CONTINUOUS
 90
85
 70
0
 10
-13.9449583991
 20
15.7609029826
 10
-13.9446413662
 20
15.7767601418
 10
-13.9438734138
 20
15.7920102492
 10
-13.9426545418
 20
15.8066533046
 10
-13.940962091
 20
15.8206513684
 10
-13.9388187206
 20
15.8340423802
 10
-13.9362924086
 20
15.8469401595
 10
-13.9333942763
 20
15.8593473595
 10
-13.9301132023
 20
15.8712613269
 10
-13.9264838004
 20
15.8827879212
 10
-13.9225154468
 20
15.8939347415
 10
-13.9181987654
 20
15.9046941887
 10
-13.913540241
 20
15.9151493251
 10
-13.9085478119
 20
15.9253072709
 10
-13.9032135399
 20
15.935160906
 10
-13.8975200957
 20
15.9447719318
 10
-13.8914786419
 20
15.9541420503
 10
-13.885078016
 20
15.9632695597
 10
-13.8782674008
 20
15.9722110555
 10
-13.871032578
 20
15.9809875567
 10
-13.8633877659
 20
15.9895780444
 10
-13.8553248032
 20
15.9979760582
 10
-13.8467283193
 20
16.0062820979
 10
-13.8377136848
 20
16.0143956637
 10
-13.8286188498
 20
16.0220087967
 10
-13.8195621496
 20
16.0289998439
 10
-13.810425249
 20
16.0354904583
 10
-13.8011910913
 20
16.041537639
 10
-13.7918694445
 20
16.0471448437
 10
-13.7824505407
 20
16.0523086148
 10
-13.7728880201
 20
16.0570755784
 10
-13.7631864079
 20
16.0614543259
 10
-13.7533411787
 20
16.0654362659
 10
-13.7432923966
 20
16.0690422505
 10
-13.7330427339
 20
16.0722818313
 10
-13.7225895182
 20
16.0751454566
 10
-13.7118647964
 20
16.0776253236
 10
-13.7008716828
 20
16.0797304687
 10
-13.6896070631
 20
16.0814518555
 10
-13.677993641
 20
16.082754572
 10
-13.6658668424
 20
16.083635819
 10
-13.6533912415
 20
16.0840983957
 10
-13.6409832638
 20
16.084115787
 10
-13.6286733481
 20
16.0836630577
 10
-13.6164310556
 20
16.0827651431
 10
-13.604581496
 20
16.0814703342
 10
-13.5932625039
 20
16.0797825855
 10
-13.5823362446
 20
16.0776979425
 10
-13.5717143238
 20
16.0752528327
 10
-13.5613919101
 20
16.0724570293
 10
-13.551373835
 20
16.069300759
 10
-13.5415861986
 20
16.065791129
 10
-13.5320236722
 20
16.0619367414
 10
-13.5226915845
 20
16.0577289941
 10
-13.5135320227
 20
16.0531491879
 10
-13.5045407274
 20
16.0482059467
 10
-13.495721958
 20
16.0428906466
 10
-13.4870305791
 20
16.0371587167
 10
-13.4784529736
 20
16.0310091842
 10
-13.4700027586
 20
16.0244430219
 10
-13.46167565
 20
16.017418577
 10
-13.453375645
 20
16.0098320633
 10
-13.4451987464
 20
16.0017872671
 10
-13.4374286793
 20
15.9935538942
 10
-13.4301842011
 20
15.9852496709
 10
-13.4233465544
 20
15.9767568709
 10
-13.416843192
 20
15.9679920219
 10
-13.41066153
 20
15.9589562805
 10
-13.4048141523
 20
15.9496484901
 10
-13.3992662641
 20
15.939981708
 10
-13.3940037945
 20
15.9299564212
 10
-13.3890408144
 20
15.9195721427
 10
-13.3843847417
 20
15.9087404696
 10
-13.3800274308
 20
15.8974724662
 10
-13.3759770272
 20
15.8857570682
 10
-13.3722653852
 20
15.8734726784
 10
-13.3688810087
 20
15.8606300723
 10
-13.3658353936
 20
15.8472184744
 10
-13.363194883
 20
15.8330839619
 10
-13.3609468997
 20
15.8182035312
 10
-13.3591040208
 20
15.8026001858
 10
-13.3577703198
 20
15.7861890137
 10
-13.3569804878
 20
15.7689417107
 10
-13.3566998337
 20
15.750886581
 10
-13.3569283575
 20
15.7320236245
  0
LWPOLYLINE
  5
385
100
AcDbEntity
  8
0
100
AcDbPolyline
 62
7
  6
CONTINUOUS
 90
85
 70
0
 10
-13.3569283575
 20
15.7320236245
 10
-13.3578318447
 20
15.7141423653
 10
-13.359175676
 20
15.697055634
 10
-13.3609598514
 20
15.6807634306
 10
-13.3632112194
 20
15.6653188992
 10
-13.3659029315
 20
15.6506688957
 10
-13.3689544415
 20
15.6366539879
 10
-13.3723541636
 20
15.6232646968
 10
-13.3761136836
 20
15.6105105015
 10
-13.3801872127
 20
15.5982604071
 10
-13.3845649733
 20
15.5865055457
 10
-13.3892567431
 20
15.5752547853
 10
-13.3942460667
 20
15.564403734
 10
-13.3995266629
 20
15.553941402
 10
-13.4051048129
 20
15.5438787792
 10
-13.4109829046
 20
15.5341444435
 10
-13.4171177863
 20
15.5247741923
 10
-13.4235526097
 20
15.5157322283
 10
-13.4304192177
 20
15.5068397376
 10
-13.4378230344
 20
15.4979739039
 10
-13.4456586356
 20
15.4892575434
 10
-13.4537415921
 20
15.4808802908
 10
-13.462088058
 20
15.4728435341
 10
-13.470681879
 20
15.4651458853
 10
-13.4792901638
 20
15.4579728152
 10
-13.4878237071
 20
15.4514143777
 10
-13.4963717141
 20
15.4453805189
 10
-13.5049689087
 20
15.4397865481
 10
-13.513610697
 20
15.4346229427
 10
-13.522301673
 20
15.4298992253
 10
-13.5310903419
 20
15.4255592731
 10
-13.5399776407
 20
15.421592251
 10
-13.5489626326
 20
15.4180089941
 10
-13.5580910116
 20
15.4147858853
 10
-13.5673566916
 20
15.4119155612
 10
-13.5767657588
 20
15.4094053852
 10
-13.5863821661
 20
15.407253831
 10
-13.5962159366
 20
15.4054516516
 10
-13.6062570472
 20
15.4040080939
 10
-13.6165393811
 20
15.4029493717
 10
-13.6271776616
 20
15.402277344
 10
-13.6380571654
 20
15.4019901517
 10
-13.6488676059
 20
15.4021084315
 10
-13.6595150103
 20
15.4026413882
 10
-13.6700933513
 20
15.4035798169
 10
-13.6805742611
 20
15.4049167409
 10
-13.6909295839
 20
15.4066449927
 10
-13.7011874755
 20
15.4087717397
 10
-13.7114040348
 20
15.4113115066
 10
-13.72157967
 20
15.4142547174
 10
-13.731713973
 20
15.4176109481
 10
-13.7418618187
 20
15.4214234517
 10
-13.7521164875
 20
15.4257427087
 10
-13.762384699
 20
15.4305182387
 10
-13.7724414865
 20
15.4356418532
 10
-13.7822698755
 20
15.4411147842
 10
-13.7918868407
 20
15.4469357997
 10
-13.8011183389
 20
15.4529930156
 10
-13.8098529256
 20
15.4592110715
 10
-13.8182020453
 20
15.4656653278
 10
-13.8263259894
 20
15.4724699814
 10
-13.8342687253
 20
15.4796435333
 10
-13.8419862855
 20
15.4871674825
 10
-13.8495070588
 20
15.4951005239
 10
-13.856835825
 20
15.5034334581
 10
-13.8639678041
 20
15.5121754846
 10
-13.8709170451
 20
15.5214128957
 10
-13.8776880609
 20
15.5311328115
 10
-13.8842763384
 20
15.541348112
 10
-13.8906823875
 20
15.5521837296
 10
-13.8969316289
 20
15.5636907822
 10
-13.9029986419
 20
15.5758181519
 10
-13.9088076736
 20
15.5885374173
 10
-13.9144156843
 20
15.6020080457
 10
-13.9197657138
 20
15.6160705698
 10
-13.9246111289
 20
15.6302181659
 10
-13.9288675912
 20
15.6442782838
 10
-13.9326194392
 20
15.6584234736
 10
-13.9358730548
 20
15.6726645621
 10
-13.9386300554
 20
15.6869771448
 10
-13.9408888236
 20
15.7013856261
 10
-13.9426508891
 20
15.7159740465
 10
-13.9439167618
 20
15.7307704194
 10
-13.9446859318
 20
15.7457467315
 10
-13.9449583991
 20
15.7609029826
  0
LWPOLYLINE
  5
386
100
AcDbEntity
  8
ASSI
100
AcDbPolyline
 62
7
  6
CONTINUOUS
 90
85
 70
0
 10
-13.3569283575
 20
15.7320236245
 10
-13.3578318447
 20
15.7141423653
 10
-13.359175676
 20
15.697055634
 10
-13.3609598514
 20
15.6807634306
 10
-13.3632112194
 20
15.6653188992
 10
-13.3659029315
 20
15.6506688957
 10
-13.3689544415
 20
15.6366539879
 10
-13.3723541636
 20
15.6232646968
 10
-13.3761136836
 20
15.6105105015
 10
-13.3801872127
 20
15.5982604071
 10
-13.3845649733
 20
15.5865055457
 10
-13.3892567431
 20
15.5752547853
 10
-13.3942460667
 20
15.564403734
 10
-13.3995266629
 20
15.553941402
 10
-13.4051048129
 20
15.5438787792
 10
-13.4109829046
 20
15.5341444435
 10
-13.4171177863
 20
15.5247741923
 10
-13.4235526097
 20
15.5157322283
 10
-13.4304192177
 20
15.5068397376
 10
-13.4378230344
 20
15.4979739039
 10
-13.4456586356
 20
15.4892575434
 10
-13.4537415921
 20
15.4808802908
 10
-13.462088058
 20
15.4728435341
 10
-13.470681879
 20
15.4651458853
 10
-13.4792901638
 20
15.4579728152
 10
-13.4878237071
 20
15.4514143777
 10
-13.4963717141
 20
15.4453805189
 10
-13.5049689087
 20
15.4397865481
 10
-13.513610697
 20
15.4346229427
 10
-13.522301673
 20
15.4298992253
 10
-13.5310903419
 20
15.4255592731
 10
-13.5399776407
 20
15.421592251
 10
-13.5489626326
 20
15.4180089941
 10
-13.5580910116
 20
15.4147858853
 10
-13.5673566916
 20
15.4119155612
 10
-13.5767657588
 20
15.4094053852
 10
-13.5863821661
 20
15.407253831
 10
-13.5962159366
 20
15.4054516516
 10
-13.6062570472
 20
15.4040080939
 10
-13.6165393811
 20
15.4029493717
 10
-13.6271776616
 20
15.402277344
 10
-13.6380571654
 20
15.4019901517
 10
-13.6488676059
 20
15.4021084315
 10
-13.6595150103
 20
15.4026413882
 10
-13.6700933513
 20
15.4035798169
 10
-13.6805742611
 20
15.4049167409
 10
-13.6909295839
 20
15.4066449927
 10
-13.7011874755
 20
15.4087717397
 10
-13.7114040348
 20
15.4113115066
 10
-13.72157967
 20
15.4142547174
 10
-13.731713973
 20
15.4176109481
 10
-13.7418618187
 20
15.4214234517
 10
-13.7521164875
 20
15.4257427087
 10
-13.762384699
 20
15.4305182387
 10
-13.7724414865
 20
15.4356418532
 10
-13.7822698755
 20
15.4411147842
 10
-13.7918868407
 20
15.4469357997
 10
-13.8011183389
 20
15.4529930156
 10
-13.8098529256
 20
15.4592110715
 10
-13.8182020453
 20
15.4656653278
 10
-13.8263259894
 20
15.4724699814
 10
-13.8342687253
 20
15.4796435333
 10
-13.8419862855
 20
15.4871674825
 10
-13.8495070588
 20
15.4951005239
 10
-13.856835825
 20
15.5034334581
 10
-13.8639678041
 20
15.5121754846
 10
-13.8709170451
 20
15.5214128957
 10
-13.8776880609
 20
15.5311328115
 10
-13.8842763384
 20
15.541348112
 10
-13.8906823875
 20
15.5521837296
 10
-13.8969316289
 20
15.5636907822
 10
-13.9029986419
 20
15.5758181519
 10
-13.9088076736
 20
15.5885374173
 10
-13.9144156843
 20
15.6020080457
 10
-13.9197657138
 20
15.6160705698
 10
-13.9246111289
 20
15.6302181659
 10
-13.9288675912
 20
15.6442782838
 10
-13.9326194392
 20
15.6584234736
 10
-13.9358730548
 20
15.6726645621
 10
-13.9386300554
 20
15.6869771448
 10
-13.9408888236
 20
15.7013856261
 10
-13.9426508891
 20
15.7159740465
 10
-13.9439167618
 20
15.7307704194
 10
-13.9446859318
 20
15.7457467315
 10
-13.9449583991
 20
15.7609029826
  0
LINE
  5
387
100
AcDbEntity
  8
ASSI
100
AcDbLine
 62
7
  6
CONTINUOUS
 10
-12.6848069234
 20
20.0019247852
 11
-12.9929409234
 21
18.9273377852
  0
LINE
  5
388
100
AcDbEntity
  8
ASSI
100
AcDbLine
 62
7
  6
CONTINUOUS
 10
-12.8279409234
 20
18.3518547852
 11
-12.5159339234
 21
19.4399637852
  0
LWPOLYLINE
  5
389
100
AcDbEntity
  8
ASSI
100
AcDbPolyline
 62
7
  6
CONTINUOUS
 90
16
 70
0
 10
-12.9579770903
 20
16.4661366285
 10
-12.9631552165
 20
16.4499014241
 10
-12.9678962026
 20
16.4331575808
 10
-12.9721608241
 20
16.4157802615
 10
-12.9759606771
 20
16.3977802726
 10
-12.9792841656
 20
16.3791468077
 10
-12.9820572769
 20
16.3597226096
 10
-12.9842887943
 20
16.3393416805
 10
-12.9859699345
 20
16.3181700182
 10
-12.9870003342
 20
16.2965483596
 10
-12.9873353776
 20
16.2741653683
 10
-12.9870196804
 20
16.2513323807
 10
-12.9860867268
 20
16.2293241432
 10
-12.9845141412
 20
16.2085957858
 10
-12.9823242991
 20
16.1886921784
 10
-12.9796178111
 20
16.1695226773
  0
LWPOLYLINE
  5
38A
100
AcDbEntity
  8
ASSI
100
AcDbPolyline
 62
7
  6
CONTINUOUS
 90
4
 70
0
 10
-12.2650753964
 20
16.0715159713
 10
-12.2711251206
 20
16.0626051131
 10
-12.2775370845
 20
16.0539263918
 10
-12.284343517
 20
16.0454335134
  0
LWPOLYLINE
  5
38B
100
AcDbEntity
  8
0
100
AcDbPolyline
 62
7
  6
CONTINUOUS
 90
34
 70
0
 10
-11.0868218358
 20
16.5765217852
 10
-11.1109640489
 20
16.5484408284
 10
-11.1354513599
 20
16.5182898251
 10
-11.160283769
 20
16.4860687754
 10
-11.1854768308
 20
16.4518827426
 10
-11.2110149906
 20
16.4156266635
 10
-11.2368515845
 20
16.3769853476
 10
-11.2633478267
 20
16.3352692226
 10
-11.290142503
 20
16.2911678609
 10
-11.3161053075
 20
16.246434789
 10
-11.3409825619
 20
16.2014556341
 10
-11.3650279444
 20
16.155844769
 10
-11.3878721836
 20
16.1101988381
 10
-11.4093560908
 20
16.0647761877
 10
-11.4296388546
 20
16.0193184714
 10
-11.4488287693
 20
15.9736472952
 10
-11.4669824638
 20
15.9275923869
 10
-11.4840433091
 20
15.8813240187
 10
-11.499949713
 20
15.8351746128
 10
-11.51470837
 20
15.7887968059
 10
-11.5283125856
 20
15.7425379614
 10
-11.540680683
 20
15.6977725916
 10
-11.5517040838
 20
15.6549741877
 10
-11.5614913664
 20
15.6136692586
 10
-11.5702865898
 20
15.5738118435
 10
-11.5781444628
 20
15.5354186487
 10
-11.5850102766
 20
15.498472968
 10
-11.5909639632
 20
15.462878721
 10
-11.5960066655
 20
15.428629859
 10
-11.6001372407
 20
15.3957324308
 10
-11.6034321923
 20
15.3641085027
 10
-11.6059170214
 20
15.3337320968
 10
-11.6075662269
 20
15.3046291909
 10
-11.6083798087
 20
15.2767997852
  0
LWPOLYLINE
  5
38C
100
AcDbEntity
  8
ASSI
100
AcDbPolyline
 62
7
  6
CONTINUOUS
 90
34
 70
0
 10
-11.0868218358
 20
16.5765217852
 10
-11.1109640489
 20
16.5484408284
 10
-11.1354513599
 20
16.5182898251
 10
-11.160283769
 20
16.4860687754
 10
-11.1854768308
 20
16.4518827426
 10
-11.2110149906
 20
16.4156266635
 10
-11.2368515845
 20
16.3769853476
 10
-11.2633478267
 20
16.3352692226
 10
-11.290142503
 20
16.2911678609
 10
-11.3161053075
 20
16.246434789
 10
-11.3409825619
 20
16.2014556341
 10
-11.3650279444
 20
16.155844769
 10
-11.3878721836
 20
16.1101988381
 10
-11.4093560908
 20
16.0647761877
 10
-11.4296388546
 20
16.0193184714
 10
-11.4488287693
 20
15.9736472952
 10
-11.4669824638
 20
15.9275923869
 10
-11.4840433091
 20
15.8813240187
 10
-11.499949713
 20
15.8351746128
 10
-11.51470837
 20
15.7887968059
 10
-11.5283125856
 20
15.7425379614
 10
-11.540680683
 20
15.6977725916
 10
-11.5517040838
 20
15.6549741877
 10
-11.5614913664
 20
15.6136692586
 10
-11.5702865898
 20
15.5738118435
 10
-11.5781444628
 20
15.5354186487
 10
-11.5850102766
 20
15.498472968
 10
-11.5909639632
 20
15.462878721
 10
-11.5960066655
 20
15.428629859
 10
-11.6001372407
 20
15.3957324308
 10
-11.6034321923
 20
15.3641085027
 10
-11.6059170214
 20
15.3337320968
 10
-11.6075662269
 20
15.3046291909
 10
-11.6083798087
 20
15.2767997852
  0
LWPOLYLINE
  5
38D
100
AcDbEntity
  8
ASSI
100
AcDbPolyline
 62
7
  6
CONTINUOUS
 90
58
 70
0
 10
-12.284343517
 20
16.0454335134
 10
-12.2915121892
 20
16.0371727719
 10
-12.2990193939
 20
16.0291636128
 10
-12.3069326335
 20
16.0213456339
 10
-12.3151844056
 20
16.0137792372
 10
-12.3235484957
 20
16.0066650739
 10
-12.3319385607
 20
16.0000892876
 10
-12.3404409437
 20
15.9939657346
 10
-12.3490884599
 20
15.9882366356
 10
-12.3578756747
 20
15.9828944582
 10
-12.3668080226
 20
15.9779467348
 10
-12.3759346224
 20
15.9733582833
 10
-12.3852496829
 20
15.9691208884
 10
-12.3947589952
 20
15.9652427654
 10
-12.4045290515
 20
15.9617133772
 10
-12.4145556553
 20
15.9585232596
 10
-12.4248430032
 20
15.9556818768
 10
-12.4354701767
 20
15.9532070854
 10
-12.4464373891
 20
15.9510890357
 10
-12.4577444271
 20
15.9493375774
 10
-12.4694697332
 20
15.9480001161
 10
-12.4818057949
 20
15.9470800796
 10
-12.4945601247
 20
15.94657404
 10
-12.5072337025
 20
15.9465191195
 10
-12.5197602169
 20
15.9469429474
 10
-12.5322059792
 20
15.9478178944
 10
-12.544270903
 20
15.9490981945
 10
-12.5558243608
 20
15.950779777
 10
-12.5669969801
 20
15.9528667126
 10
-12.5778805568
 20
15.9553254479
 10
-12.5884817574
 20
15.9581463978
 10
-12.5987939153
 20
15.9613391473
 10
-12.6088888271
 20
15.9648988984
 10
-12.6187712108
 20
15.9688168636
 10
-12.6284363484
 20
15.9731018305
 10
-12.6379418814
 20
15.9777753631
 10
-12.6472925464
 20
15.9828291918
 10
-12.6564836068
 20
15.9882715864
 10
-12.6655584947
 20
15.9941489201
 10
-12.6745305444
 20
16.000462113
 10
-12.6833864216
 20
16.0072102451
 10
-12.6921295553
 20
16.0144369295
 10
-12.7008628134
 20
16.0222521309
 10
-12.7094833279
 20
16.0305458845
 10
-12.7176859239
 20
16.0390319098
 10
-12.7253609498
 20
16.0476128568
 10
-12.7326180572
 20
16.0563860754
 10
-12.7394810253
 20
16.065357335
 10
-12.745945272
 20
16.0745114025
 10
-12.7520153794
 20
16.0838635111
 10
-12.7577288731
 20
16.0934651292
 10
-12.7630943393
 20
16.1033112676
 10
-12.7681031918
 20
16.1134069154
 10
-12.7727671978
 20
16.1238185089
 10
-12.7770946411
 20
16.1345396338
 10
-12.7810772378
 20
16.1455767043
 10
-12.7847019034
 20
16.1570153994
 10
-12.7879781678
 20
16.1688469906
  0
LWPOLYLINE
  5
38E
100
AcDbEntity
  8
ASSI
100
AcDbPolyline
 62
7
  6
CONTINUOUS
 90
13
 70
0
 10
-12.2066359542
 20
15.379411731
 10
-12.1951635312
 20
15.3906979109
 10
-12.1839717939
 20
15.4024855148
 10
-12.1730243067
 20
15.4148681097
 10
-12.1623119161
 20
15.4278384653
 10
-12.1518437757
 20
15.4414038121
 10
-12.1416109101
 20
15.4556794084
 10
-12.1316065775
 20
15.4706535293
 10
-12.1218375198
 20
15.4863378999
 10
-12.1123149874
 20
15.5028829538
 10
-12.1030045569
 20
15.5203483593
 10
-12.0939406517
 20
15.5386744482
 10
-12.0852377926
 20
15.5578326498
  0
LWPOLYLINE
  5
38F
100
AcDbEntity
  8
0
100
AcDbPolyline
 62
7
  6
CONTINUOUS
 90
23
 70
0
 10
-10.5132514924
 20
16.6663650856
 10
-10.5237290554
 20
16.6568720141
 10
-10.5337103185
 20
16.6471490326
 10
-10.5432483306
 20
16.6371408982
 10
-10.5524379998
 20
16.6267570923
 10
-10.5613053157
 20
16.6159860386
 10
-10.5698242885
 20
16.6048393134
 10
-10.578011857
 20
16.5932611258
 10
-10.5858694657
 20
16.5812690076
 10
-10.5933956699
 20
16.5688454271
 10
-10.6006030744
 20
16.5558819981
 10
-10.6074996996
 20
16.5423909751
 10
-10.614077525
 20
16.5283601036
 10
-10.6203250941
 20
16.5136442342
 10
-10.626261203
 20
16.4982304643
 10
-10.6318670555
 20
16.4821316965
 10
-10.6370748072
 20
16.4652414887
 10
-10.6418870552
 20
16.4476027808
 10
-10.6463012023
 20
16.429172633
 10
-10.6502416118
 20
16.4097157842
 10
-10.6536830714
 20
16.3891538141
 10
-10.6566507934
 20
16.3675651429
 10
-10.6591447778
 20
16.3449497707
  0
LWPOLYLINE
  5
390
100
AcDbEntity
  8
ASSI
100
AcDbPolyline
 62
7
  6
CONTINUOUS
 90
23
 70
0
 10
-10.5132514924
 20
16.6663650856
 10
-10.5237290554
 20
16.6568720141
 10
-10.5337103185
 20
16.6471490326
 10
-10.5432483306
 20
16.6371408982
 10
-10.5524379998
 20
16.6267570923
 10
-10.5613053157
 20
16.6159860386
 10
-10.5698242885
 20
16.6048393134
 10
-10.578011857
 20
16.5932611258
 10
-10.5858694657
 20
16.5812690076
 10
-10.5933956699
 20
16.5688454271
 10
-10.6006030744
 20
16.5558819981
 10
-10.6074996996
 20
16.5423909751
 10
-10.614077525
 20
16.5283601036
 10
-10.6203250941
 20
16.5136442342
 10
-10.626261203
 20
16.4982304643
 10
-10.6318670555
 20
16.4821316965
 10
-10.6370748072
 20
16.4652414887
 10
-10.6418870552
 20
16.4476027808
 10
-10.6463012023
 20
16.429172633
 10
-10.6502416118
 20
16.4097157842
 10
-10.6536830714
 20
16.3891538141
 10
-10.6566507934
 20
16.3675651429
 10
-10.6591447778
 20
16.3449497707
  0
LWPOLYLINE
  5
391
100
AcDbEntity
  8
0
100
AcDbPolyline
 62
7
  6
CONTINUOUS
 90
100
 70
0
 10
-10.108542843
 20
15.7742010776
 10
-10.0835661121
 20
15.7957922288
 10
-10.0576627964
 20
15.818513445
 10
-10.0312056001
 20
15.8419947833
 10
-10.0057185931
 20
15.8650033104
 10
-9.9816578604
 20
15.8871406834
 10
-9.9585673172
 20
15.9088052451
 10
-9.9366027789
 20
15.9299590919
 10
-9.9157841853
 20
15.9505726455
 10
-9.8960915966
 20
15.9706754841
 10
-9.87762101
 20
15.9903184383
 10
-9.860435959
 20
16.0095178404
 10
-9.84447291
 20
16.0282573581
 10
-9.8296372588
 20
16.0465388249
 10
-9.8159354897
 20
16.0643635398
 10
-9.8033611184
 20
16.0817302039
 10
-9.7918000886
 20
16.0986367532
 10
-9.7812692636
 20
16.1150477373
 10
-9.7717517801
 20
16.1309986067
 10
-9.7630829917
 20
16.1465936491
 10
-9.7553137778
 20
16.1616825454
 10
-9.748393259
 20
16.1764156147
 10
-9.7420041509
 20
16.1913481012
 10
-9.7360163563
 20
16.2067580858
 10
-9.7305599724
 20
16.2223674877
 10
-9.7257080054
 20
16.2378973093
 10
-9.7215002329
 20
16.2532342069
 10
-9.7178968774
 20
16.2684915242
 10
-9.7148516124
 20
16.2837302946
 10
-9.7123549756
 20
16.2989140567
 10
-9.7104164294
 20
16.3140792719
 10
-9.7090180343
 20
16.3293963574
 10
-9.7081554901
 20
16.3449764274
 10
-9.707833097
 20
16.3607083679
 10
-9.708045817
 20
16.3764292539
 10
-9.7088090505
 20
16.3922237549
 10
-9.710107397
 20
16.4080072016
 10
-9.7118896174
 20
16.4233626604
 10
-9.7141500711
 20
16.4381199627
 10
-9.7168943987
 20
16.4524492771
 10
-9.7200882829
 20
16.4664441763
 10
-9.7237216512
 20
16.4801091274
 10
-9.727804576
 20
16.4934396631
 10
-9.7323329568
 20
16.5065159551
 10
-9.7372980228
 20
16.5193438632
 10
-9.7427085448
 20
16.5319175275
 10
-9.7485867344
 20
16.5442995398
 10
-9.7549222766
 20
16.5564917802
 10
-9.7617254865
 20
16.5684923686
 10
-9.7690495207
 20
16.5803582576
 10
-9.7768871532
 20
16.592097618
 10
-9.78524561
 20
16.6037022789
 10
-9.7941997259
 20
16.6152046801
 10
-9.8038895437
 20
16.6267417871
 10
-9.8141750206
 20
16.6381766344
 10
-9.8247108634
 20
16.6491307655
 10
-9.8353915152
 20
16.6594837037
 10
-9.8463225329
 20
16.6693559258
 10
-9.8574752943
 20
16.6787304047
 10
-9.8687951204
 20
16.6875649948
 10
-9.8803366902
 20
16.6959018416
 10
-9.8922354181
 20
16.7038503553
 10
-9.9045124307
 20
16.7114439458
 10
-9.9171466014
 20
16.7186492031
 10
-9.9302099652
 20
16.7254753066
 10
-9.9436908721
 20
16.7319283052
 10
-9.9576009721
 20
16.73800215
 10
-9.9720472497
 20
16.7436878737
 10
-9.9870225595
 20
16.748996119
 10
-10.0025340469
 20
16.7539162431
 10
-10.0187101325
 20
16.7584073508
 10
-10.0355361033
 20
16.7624804267
 10
-10.0530266724
 20
16.766124486
 10
-10.0713543996
 20
16.7692656796
 10
-10.0905350603
 20
16.7719181362
 10
-10.1105528792
 20
16.774067727
 10
-10.1315330897
 20
16.7755982167
 10
-10.1539836178
 20
16.776483445
 10
-10.1773965375
 20
16.7767495723
 10
-10.2003733047
 20
16.7763588445
 10
-10.2226195961
 20
16.7752591094
 10
-10.244429735
 20
16.7735025191
 10
-10.2652881466
 20
16.7712077758
 10
-10.2849583111
 20
16.7683839803
 10
-10.3036767482
 20
16.7650220317
 10
-10.3216374433
 20
16.7612133301
 10
-10.3388545191
 20
16.7569707514
 10
-10.3553138528
 20
16.7522814197
 10
-10.371167061
 20
16.7471981066
 10
-10.3864253998
 20
16.7417311556
 10
-10.4010776131
 20
16.7358702233
 10
-10.4152415498
 20
16.7296370516
 10
-10.428925982
 20
16.7230405145
 10
-10.4421221376
 20
16.7160717379
 10
-10.4549215492
 20
16.7087258422
 10
-10.467348817
 20
16.7009956153
 10
-10.4793793408
 20
16.6928882691
 10
-10.4910308533
 20
16.6844205603
 10
-10.5023306785
 20
16.6755730043
 10
-10.5132514924
 20
16.6663650856
  0
LWPOLYLINE
  5
392
100
AcDbEntity
  8
ASSI
100
AcDbPolyline
 62
7
  6
CONTINUOUS
 90
100
 70
0
 10
-10.108542843
 20
15.7742010776
 10
-10.0835661121
 20
15.7957922288
 10
-10.0576627964
 20
15.818513445
 10
-10.0312056001
 20
15.8419947833
 10
-10.0057185931
 20
15.8650033104
 10
-9.9816578604
 20
15.8871406834
 10
-9.9585673172
 20
15.9088052451
 10
-9.9366027789
 20
15.9299590919
 10
-9.9157841853
 20
15.9505726455
 10
-9.8960915966
 20
15.9706754841
 10
-9.87762101
 20
15.9903184383
 10
-9.860435959
 20
16.0095178404
 10
-9.84447291
 20
16.0282573581
 10
-9.8296372588
 20
16.0465388249
 10
-9.8159354897
 20
16.0643635398
 10
-9.8033611184
 20
16.0817302039
 10
-9.7918000886
 20
16.0986367532
 10
-9.7812692636
 20
16.1150477373
 10
-9.7717517801
 20
16.1309986067
 10
-9.7630829917
 20
16.1465936491
 10
-9.7553137778
 20
16.1616825454
 10
-9.748393259
 20
16.1764156147
 10
-9.7420041509
 20
16.1913481012
 10
-9.7360163563
 20
16.2067580858
 10
-9.7305599724
 20
16.2223674877
 10
-9.7257080054
 20
16.2378973093
 10
-9.7215002329
 20
16.2532342069
 10
-9.7178968774
 20
16.2684915242
 10
-9.7148516124
 20
16.2837302946
 10
-9.7123549756
 20
16.2989140567
 10
-9.7104164294
 20
16.3140792719
 10
-9.7090180343
 20
16.3293963574
 10
-9.7081554901
 20
16.3449764274
 10
-9.707833097
 20
16.3607083679
 10
-9.708045817
 20
16.3764292539
 10
-9.7088090505
 20
16.3922237549
 10
-9.710107397
 20
16.4080072016
 10
-9.7118896174
 20
16.4233626604
 10
-9.7141500711
 20
16.4381199627
 10
-9.7168943987
 20
16.4524492771
 10
-9.7200882829
 20
16.4664441763
 10
-9.7237216512
 20
16.4801091274
 10
-9.727804576
 20
16.4934396631
 10
-9.7323329568
 20
16.5065159551
 10
-9.7372980228
 20
16.5193438632
 10
-9.7427085448
 20
16.5319175275
 10
-9.7485867344
 20
16.5442995398
 10
-9.7549222766
 20
16.5564917802
 10
-9.7617254865
 20
16.5684923686
 10
-9.7690495207
 20
16.5803582576
 10
-9.7768871532
 20
16.592097618
 10
-9.78524561
 20
16.6037022789
 10
-9.7941997259
 20
16.6152046801
 10
-9.8038895437
 20
16.6267417871
 10
-9.8141750206
 20
16.6381766344
 10
-9.8247108634
 20
16.6491307655
 10
-9.8353915152
 20
16.6594837037
 10
-9.8463225329
 20
16.6693559258
 10
-9.8574752943
 20
16.6787304047
 10
-9.8687951204
 20
16.6875649948
 10
-9.8803366902
 20
16.6959018416
 10
-9.8922354181
 20
16.7038503553
 10
-9.9045124307
 20
16.7114439458
 10
-9.9171466014
 20
16.7186492031
 10
-9.9302099652
 20
16.7254753066
 10
-9.9436908721
 20
16.7319283052
 10
-9.9576009721
 20
16.73800215
 10
-9.9720472497
 20
16.7436878737
 10
-9.9870225595
 20
16.748996119
 10
-10.0025340469
 20
16.7539162431
 10
-10.0187101325
 20
16.7584073508
 10
-10.0355361033
 20
16.7624804267
 10
-10.0530266724
 20
16.766124486
 10
-10.0713543996
 20
16.7692656796
 10
-10.0905350603
 20
16.7719181362
 10
-10.1105528792
 20
16.774067727
 10
-10.1315330897
 20
16.7755982167
 10
-10.1539836178
 20
16.776483445
 10
-10.1773965375
 20
16.7767495723
 10
-10.2003733047
 20
16.7763588445
 10
-10.2226195961
 20
16.7752591094
 10
-10.244429735
 20
16.7735025191
 10
-10.2652881466
 20
16.7712077758
 10
-10.2849583111
 20
16.7683839803
 10
-10.3036767482
 20
16.7650220317
 10
-10.3216374433
 20
16.7612133301
 10
-10.3388545191
 20
16.7569707514
 10
-10.3553138528
 20
16.7522814197
 10
-10.371167061
 20
16.7471981066
 10
-10.3864253998
 20
16.7417311556
 10
-10.4010776131
 20
16.7358702233
 10
-10.4152415498
 20
16.7296370516
 10
-10.428925982
 20
16.7230405145
 10
-10.4421221376
 20
16.7160717379
 10
-10.4549215492
 20
16.7087258422
 10
-10.467348817
 20
16.7009956153
 10
-10.4793793408
 20
16.6928882691
 10
-10.4910308533
 20
16.6844205603
 10
-10.5023306785
 20
16.6755730043
 10
-10.5132514924
 20
16.6663650856
  0
LINE
  5
393
100
AcDbEntity
  8
0
100
AcDbLine
 62
7
  6
CONTINUOUS
 10
-10.259034105
 20
15.6458957286
 11
-10.2206527569
 21
15.6790013032
  0
LINE
  5
394
100
AcDbEntity
  8
ASSI
100
AcDbLine
 62
7
  6
CONTINUOUS
 10
-10.259034105
 20
15.6458957286
 11
-10.2206527569
 21
15.6790013032
  0
LINE
  5
395
100
AcDbEntity
  8
0
100
AcDbLine
 62
7
  6
CONTINUOUS
 10
-10.2206527569
 20
15.6790013032
 11
-10.108542843
 21
15.7742010776
  0
LINE
  5
396
100
AcDbEntity
  8
ASSI
100
AcDbLine
 62
7
  6
CONTINUOUS
 10
-10.2206527569
 20
15.6790013032
 11
-10.108542843
 21
15.7742010776
  0
LINE
  5
397
100
AcDbEntity
  8
0
100
AcDbLine
 62
7
  6
CONTINUOUS
 10
-10.2349146289
 20
15.892198489
 11
-10.2890238016
 21
15.846371975
  0
LINE
  5
398
100
AcDbEntity
  8
ASSI
100
AcDbLine
 62
7
  6
CONTINUOUS
 10
-10.2349146289
 20
15.892198489
 11
-10.2890238016
 21
15.846371975
  0
LWPOLYLINE
  5
399
100
AcDbEntity
  8
0
100
AcDbPolyline
 62
7
  6
CONTINUOUS
 90
36
 70
0
 10
-10.2890238016
 20
15.846371975
 10
-10.3441097396
 20
15.8006547738
 10
-10.3705634571
 20
15.778341127
 10
-10.3953616247
 20
15.7567793935
 10
-10.4189732124
 20
15.7357645434
 10
-10.4414238943
 20
15.7152322286
 10
-10.4627117257
 20
15.6951729207
 10
-10.4828386511
 20
15.6755961481
 10
-10.5018361784
 20
15.656466149
 10
-10.5197068269
 20
15.6377783788
 10
-10.5364480772
 20
15.6195373821
 10
-10.5520838794
 20
15.6017210303
 10
-10.5665792283
 20
15.5843200811
 10
-10.579969129
 20
15.5673437768
 10
-10.5923825463
 20
15.5507977171
 10
-10.6038081661
 20
15.5346833501
 10
-10.6142573025
 20
15.5189992276
 10
-10.6238928619
 20
15.5037466041
 10
-10.6327196138
 20
15.4889289343
 10
-10.6407327888
 20
15.4745427636
 10
-10.648080985
 20
15.4605789822
 10
-10.6547706863
 20
15.447045191
 10
-10.6607954088
 20
15.4339337891
 10
-10.6662842991
 20
15.421212865
 10
-10.6712627393
 20
15.4089766189
 10
-10.6757053472
 20
15.3971308506
 10
-10.6796651221
 20
15.3853610478
 10
-10.6831486349
 20
15.3736180419
 10
-10.6861493147
 20
15.3619510015
 10
-10.6887004492
 20
15.3501929204
 10
-10.6908139747
 20
15.3383103073
 10
-10.6924779549
 20
15.3263366534
 10
-10.6936898687
 20
15.3142054275
 10
-10.6944488756
 20
15.3018944522
 10
-10.694755816
 20
15.2894259048
 10
-10.69461069
 20
15.2767997852
  0
LWPOLYLINE
  5
39A
100
AcDbEntity
  8
ASSI
100
AcDbPolyline
 62
7
  6
CONTINUOUS
 90
36
 70
0
 10
-10.2890238016
 20
15.846371975
 10
-10.3441097396
 20
15.8006547738
 10
-10.3705634571
 20
15.778341127
 10
-10.3953616247
 20
15.7567793935
 10
-10.4189732124
 20
15.7357645434
 10
-10.4414238943
 20
15.7152322286
 10
-10.4627117257
 20
15.6951729207
 10
-10.4828386511
 20
15.6755961481
 10
-10.5018361784
 20
15.656466149
 10
-10.5197068269
 20
15.6377783788
 10
-10.5364480772
 20
15.6195373821
 10
-10.5520838794
 20
15.6017210303
 10
-10.5665792283
 20
15.5843200811
 10
-10.579969129
 20
15.5673437768
 10
-10.5923825463
 20
15.5507977171
 10
-10.6038081661
 20
15.5346833501
 10
-10.6142573025
 20
15.5189992276
 10
-10.6238928619
 20
15.5037466041
 10
-10.6327196138
 20
15.4889289343
 10
-10.6407327888
 20
15.4745427636
 10
-10.648080985
 20
15.4605789822
 10
-10.6547706863
 20
15.447045191
 10
-10.6607954088
 20
15.4339337891
 10
-10.6662842991
 20
15.421212865
 10
-10.6712627393
 20
15.4089766189
 10
-10.6757053472
 20
15.3971308506
 10
-10.6796651221
 20
15.3853610478
 10
-10.6831486349
 20
15.3736180419
 10
-10.6861493147
 20
15.3619510015
 10
-10.6887004492
 20
15.3501929204
 10
-10.6908139747
 20
15.3383103073
 10
-10.6924779549
 20
15.3263366534
 10
-10.6936898687
 20
15.3142054275
 10
-10.6944488756
 20
15.3018944522
 10
-10.694755816
 20
15.2894259048
 10
-10.69461069
 20
15.2767997852
  0
LINE
  5
39B
100
AcDbEntity
  8
ASSI
100
AcDbLine
 62
7
  6
CONTINUOUS
 10
-13.4699509234
 20
19.4399637852
 11
-13.1579449234
 21
18.3518507852
  0
LINE
  5
39C
100
AcDbEntity
  8
ASSI
100
AcDbLine
 62
7
  6
CONTINUOUS
 10
-12.9929409234
 20
18.9273377852
 11
-13.3010739234
 21
20.0019247852
  0
LWPOLYLINE
  5
39D
100
AcDbEntity
  8
ASSI
100
AcDbPolyline
 62
7
  6
CONTINUOUS
 90
9
 70
0
 10
-12.7879781678
 20
16.1688469906
 10
-12.7908965011
 20
16.1810802065
 10
-12.7934152297
 20
16.1938269123
 10
-12.7955450766
 20
16.2070780939
 10
-12.7972753188
 20
16.2208427653
 10
-12.798532113
 20
16.2352598346
 10
-12.7992908449
 20
16.2503756044
 10
-12.7995761289
 20
16.2661437719
 10
-12.7993879651
 20
16.2825643373
  0
LWPOLYLINE
  5
39E
100
AcDbEntity
  8
0
100
AcDbPolyline
 62
7
  6
CONTINUOUS
 90
70
 70
0
 10
-12.9796178111
 20
16.1695226773
 10
-12.976405694
 20
16.1511009945
 10
-12.972676931
 20
16.1334134179
 10
-12.968499082
 20
16.1163281677
 10
-12.9638898029
 20
16.0998531768
 10
-12.9588314378
 20
16.0839805122
 10
-12.9533385795
 20
16.0685545949
 10
-12.9474075836
 20
16.0535377651
 10
-12.9410420944
 20
16.0389676826
 10
-12.9342676381
 20
16.0248017485
 10
-12.9271052136
 20
16.0110583671
 10
-12.919533822
 20
15.9977191342
 10
-12.9115159924
 20
15.9846862379
 10
-12.903069046
 20
15.9719592651
 10
-12.8941756617
 20
15.9595386289
 10
-12.8847464054
 20
15.9473277577
 10
-12.874735976
 20
15.9352726442
 10
-12.8641896745
 20
15.9234272956
 10
-12.8531539701
 20
15.9118571617
 10
-12.8415095614
 20
15.9004621863
 10
-12.8293757497
 20
15.8893424256
 10
-12.8171569083
 20
15.8788634976
 10
-12.8049956243
 20
15.8691728661
 10
-12.7927493106
 20
15.8601230674
 10
-12.7803945791
 20
15.8516373285
 10
-12.7679408792
 20
15.8437108149
 10
-12.7553787615
 20
15.836348361
 10
-12.7426564894
 20
15.8294876975
 10
-12.7297773686
 20
15.8231189058
 10
-12.7167380935
 20
15.8172519046
 10
-12.7034770109
 20
15.81185418
 10
-12.6899978571
 20
15.8069164688
 10
-12.6762968959
 20
15.8024480343
 10
-12.6623012658
 20
15.7984441534
 10
-12.6480170515
 20
15.7948954068
 10
-12.6334381682
 20
15.7918112137
 10
-12.6184735004
 20
15.789215109
 10
-12.6029913583
 20
15.7870994607
 10
-12.5871234315
 20
15.7854719008
 10
-12.5711736733
 20
15.7843788603
 10
-12.555079862
 20
15.7838398066
 10
-12.5389042191
 20
15.7838352723
 10
-12.5231373624
 20
15.7843532862
 10
-12.5080044317
 20
15.7853990979
 10
-12.4932802872
 20
15.7869674579
 10
-12.478780127
 20
15.789030646
 10
-12.4644662957
 20
15.7915790432
 10
-12.4503764488
 20
15.7946222685
 10
-12.4364387506
 20
15.7981614593
 10
-12.4226502129
 20
15.8021870757
 10
-12.409013824
 20
15.8067086574
 10
-12.3954667133
 20
15.8117559616
 10
-12.3820444382
 20
15.8172974706
 10
-12.3687114414
 20
15.823364702
 10
-12.3552981799
 20
15.8300819658
 10
-12.3415915883
 20
15.8375792643
 10
-12.327804732
 20
15.8457265952
 10
-12.3144072648
 20
15.8542582617
 10
-12.3015124081
 20
15.8631250387
 10
-12.2890069404
 20
15.8723761512
 10
-12.2770208511
 20
15.8818935775
 10
-12.2656222997
 20
15.8916284467
 10
-12.2547431267
 20
15.9016296298
 10
-12.2443088429
 20
15.9119257179
 10
-12.2343116036
 20
15.9225103688
 10
-12.2247592535
 20
15.9333899248
 10
-12.2156008369
 20
15.9446120038
 10
-12.2068193685
 20
15.9561924785
 10
-12.1984318336
 20
15.9681154761
 10
-12.1904382322
 20
15.9803809967
  0
LWPOLYLINE
  5
39F
100
AcDbEntity
  8
ASSI
100
AcDbPolyline
 62
7
  6
CONTINUOUS
 90
70
 70
0
 10
-12.9796178111
 20
16.1695226773
 10
-12.976405694
 20
16.1511009945
 10
-12.972676931
 20
16.1334134179
 10
-12.968499082
 20
16.1163281677
 10
-12.9638898029
 20
16.0998531768
 10
-12.9588314378
 20
16.0839805122
 10
-12.9533385795
 20
16.0685545949
 10
-12.9474075836
 20
16.0535377651
 10
-12.9410420944
 20
16.0389676826
 10
-12.9342676381
 20
16.0248017485
 10
-12.9271052136
 20
16.0110583671
 10
-12.919533822
 20
15.9977191342
 10
-12.9115159924
 20
15.9846862379
 10
-12.903069046
 20
15.9719592651
 10
-12.8941756617
 20
15.9595386289
 10
-12.8847464054
 20
15.9473277577
 10
-12.874735976
 20
15.9352726442
 10
-12.8641896745
 20
15.9234272956
 10
-12.8531539701
 20
15.9118571617
 10
-12.8415095614
 20
15.9004621863
 10
-12.8293757497
 20
15.8893424256
 10
-12.8171569083
 20
15.8788634976
 10
-12.8049956243
 20
15.8691728661
 10
-12.7927493106
 20
15.8601230674
 10
-12.7803945791
 20
15.8516373285
 10
-12.7679408792
 20
15.8437108149
 10
-12.7553787615
 20
15.836348361
 10
-12.7426564894
 20
15.8294876975
 10
-12.7297773686
 20
15.8231189058
 10
-12.7167380935
 20
15.8172519046
 10
-12.7034770109
 20
15.81185418
 10
-12.6899978571
 20
15.8069164688
 10
-12.6762968959
 20
15.8024480343
 10
-12.6623012658
 20
15.7984441534
 10
-12.6480170515
 20
15.7948954068
 10
-12.6334381682
 20
15.7918112137
 10
-12.6184735004
 20
15.789215109
 10
-12.6029913583
 20
15.7870994607
 10
-12.5871234315
 20
15.7854719008
 10
-12.5711736733
 20
15.7843788603
 10
-12.555079862
 20
15.7838398066
 10
-12.5389042191
 20
15.7838352723
 10
-12.5231373624
 20
15.7843532862
 10
-12.5080044317
 20
15.7853990979
 10
-12.4932802872
 20
15.7869674579
 10
-12.478780127
 20
15.789030646
 10
-12.4644662957
 20
15.7915790432
 10
-12.4503764488
 20
15.7946222685
 10
-12.4364387506
 20
15.7981614593
 10
-12.4226502129
 20
15.8021870757
 10
-12.409013824
 20
15.8067086574
 10
-12.3954667133
 20
15.8117559616
 10
-12.3820444382
 20
15.8172974706
 10
-12.3687114414
 20
15.823364702
 10
-12.3552981799
 20
15.8300819658
 10
-12.3415915883
 20
15.8375792643
 10
-12.327804732
 20
15.8457265952
 10
-12.3144072648
 20
15.8542582617
 10
-12.3015124081
 20
15.8631250387
 10
-12.2890069404
 20
15.8723761512
 10
-12.2770208511
 20
15.8818935775
 10
-12.2656222997
 20
15.8916284467
 10
-12.2547431267
 20
15.9016296298
 10
-12.2443088429
 20
15.9119257179
 10
-12.2343116036
 20
15.9225103688
 10
-12.2247592535
 20
15.9333899248
 10
-12.2156008369
 20
15.9446120038
 10
-12.2068193685
 20
15.9561924785
 10
-12.1984318336
 20
15.9681154761
 10
-12.1904382322
 20
15.9803809967
  0
LWPOLYLINE
  5
3A0
100
AcDbEntity
  8
0
100
AcDbPolyline
 62
7
  6
CONTINUOUS
 90
70
 70
0
 10
-13.1760774152
 20
15.8592885555
 10
-13.1791585661
 20
15.8772061045
 10
-13.1827551037
 20
15.8944663514
 10
-13.1868120253
 20
15.9112001057
 10
-13.1913189147
 20
15.9274159075
 10
-13.196286188
 20
15.9431052168
 10
-13.2016900908
 20
15.9583732228
 10
-13.2075218957
 20
15.9732276899
 10
-13.21379033
 20
15.9876608537
 10
-13.2204978218
 20
16.0017546109
 10
-13.2276354635
 20
16.0155138524
 10
-13.2352121625
 20
16.0289336873
 10
-13.2432570689
 20
16.0420813393
 10
-13.2517585939
 20
16.0549590374
 10
-13.2607283263
 20
16.0675645526
 10
-13.2702301828
 20
16.0799584208
 10
-13.2802904247
 20
16.0921732795
 10
-13.2908827908
 20
16.1041764913
 10
-13.3019924138
 20
16.1159306797
 10
-13.3137646035
 20
16.1275613185
 10
-13.3260540502
 20
16.1389429339
 10
-13.3384099581
 20
16.1496617282
 10
-13.3506744909
 20
16.159552224
 10
-13.3630054848
 20
16.1687798987
 10
-13.3754256526
 20
16.1774273869
 10
-13.3879266489
 20
16.1855001111
 10
-13.400516819
 20
16.1929926487
 10
-13.4132439125
 20
16.1999713666
 10
-13.4261036708
 20
16.2064455218
 10
-13.4391003524
 20
16.2124058572
 10
-13.452294482
 20
16.2178909694
 10
-13.4656828562
 20
16.2229104385
 10
-13.4792686784
 20
16.2274546844
 10
-13.4931220838
 20
16.2315335627
 10
-13.5072380652
 20
16.2351563561
 10
-13.5216216298
 20
16.2383137819
 10
-13.536357934
 20
16.240987848
 10
-13.5515409334
 20
16.2431868195
 10
-13.5670766725
 20
16.2449024313
 10
-13.5827684403
 20
16.2460918963
 10
-13.5986872744
 20
16.246742712
 10
-13.6147621373
 20
16.2468673809
 10
-13.6305832054
 20
16.2464606233
 10
-13.6459700421
 20
16.2455176072
 10
-13.661103084
 20
16.2440431648
 10
-13.6761138169
 20
16.2420465121
 10
-13.691023505
 20
16.2395365381
 10
-13.7058108841
 20
16.236504354
 10
-13.7205436482
 20
16.2329325099
 10
-13.735255678
 20
16.2288148097
 10
-13.7499130927
 20
16.2241574496
 10
-13.7644819441
 20
16.2189615684
 10
-13.7791415679
 20
16.213129499
 10
-13.7937126285
 20
16.2067589085
 10
-13.80762317
 20
16.2001439378
 10
-13.8205625635
 20
16.1934416381
 10
-13.832841438
 20
16.1864949583
 10
-13.8448197243
 20
16.1791268858
 10
-13.8565773407
 20
16.1713106954
 10
-13.868034369
 20
16.1630731124
 10
-13.8793109851
 20
16.1543172991
 10
-13.8904350845
 20
16.1450428027
 10
-13.9013787717
 20
16.135250076
 10
-13.9121785374
 20
16.1248436406
 10
-13.9228414388
 20
16.1138315766
 10
-13.9333604186
 20
16.1022058038
 10
-13.9437507959
 20
16.0898466028
 10
-13.9540176769
 20
16.0767140673
 10
-13.9641559554
 20
16.0628481036
 10
-13.9741656313
 20
16.0482487118
  0
LWPOLYLINE
  5
3A1
100
AcDbEntity
  8
ASSI
100
AcDbPolyline
 62
7
  6
CONTINUOUS
 90
70
 70
0
 10
-13.1760774152
 20
15.8592885555
 10
-13.1791585661
 20
15.8772061045
 10
-13.1827551037
 20
15.8944663514
 10
-13.1868120253
 20
15.9112001057
 10
-13.1913189147
 20
15.9274159075
 10
-13.196286188
 20
15.9431052168
 10
-13.2016900908
 20
15.9583732228
 10
-13.2075218957
 20
15.9732276899
 10
-13.21379033
 20
15.9876608537
 10
-13.2204978218
 20
16.0017546109
 10
-13.2276354635
 20
16.0155138524
 10
-13.2352121625
 20
16.0289336873
 10
-13.2432570689
 20
16.0420813393
 10
-13.2517585939
 20
16.0549590374
 10
-13.2607283263
 20
16.0675645526
 10
-13.2702301828
 20
16.0799584208
 10
-13.2802904247
 20
16.0921732795
 10
-13.2908827908
 20
16.1041764913
 10
-13.3019924138
 20
16.1159306797
 10
-13.3137646035
 20
16.1275613185
 10
-13.3260540502
 20
16.1389429339
 10
-13.3384099581
 20
16.1496617282
 10
-13.3506744909
 20
16.159552224
 10
-13.3630054848
 20
16.1687798987
 10
-13.3754256526
 20
16.1774273869
 10
-13.3879266489
 20
16.1855001111
 10
-13.400516819
 20
16.1929926487
 10
-13.4132439125
 20
16.1999713666
 10
-13.4261036708
 20
16.2064455218
 10
-13.4391003524
 20
16.2124058572
 10
-13.452294482
 20
16.2178909694
 10
-13.4656828562
 20
16.2229104385
 10
-13.4792686784
 20
16.2274546844
 10
-13.4931220838
 20
16.2315335627
 10
-13.5072380652
 20
16.2351563561
 10
-13.5216216298
 20
16.2383137819
 10
-13.536357934
 20
16.240987848
 10
-13.5515409334
 20
16.2431868195
 10
-13.5670766725
 20
16.2449024313
 10
-13.5827684403
 20
16.2460918963
 10
-13.5986872744
 20
16.246742712
 10
-13.6147621373
 20
16.2468673809
 10
-13.6305832054
 20
16.2464606233
 10
-13.6459700421
 20
16.2455176072
 10
-13.661103084
 20
16.2440431648
 10
-13.6761138169
 20
16.2420465121
 10
-13.691023505
 20
16.2395365381
 10
-13.7058108841
 20
16.236504354
 10
-13.7205436482
 20
16.2329325099
 10
-13.735255678
 20
16.2288148097
 10
-13.7499130927
 20
16.2241574496
 10
-13.7644819441
 20
16.2189615684
 10
-13.7791415679
 20
16.213129499
 10
-13.7937126285
 20
16.2067589085
 10
-13.80762317
 20
16.2001439378
 10
-13.8205625635
 20
16.1934416381
 10
-13.832841438
 20
16.1864949583
 10
-13.8448197243
 20
16.1791268858
 10
-13.8565773407
 20
16.1713106954
 10
-13.868034369
 20
16.1630731124
 10
-13.8793109851
 20
16.1543172991
 10
-13.8904350845
 20
16.1450428027
 10
-13.9013787717
 20
16.135250076
 10
-13.9121785374
 20
16.1248436406
 10
-13.9228414388
 20
16.1138315766
 10
-13.9333604186
 20
16.1022058038
 10
-13.9437507959
 20
16.0898466028
 10
-13.9540176769
 20
16.0767140673
 10
-13.9641559554
 20
16.0628481036
 10
-13.9741656313
 20
16.0482487118
  0
LWPOLYLINE
  5
3A2
100
AcDbEntity
  8
0
100
AcDbPolyline
 62
7
  6
CONTINUOUS
 90
95
 70
0
 10
-14.1394404858
 20
15.7414342796
 10
-14.1347358011
 20
15.7132503491
 10
-14.1295386316
 20
15.6864982025
 10
-14.1238500441
 20
15.6611792215
 10
-14.117782553
 20
15.6371686984
 10
-14.1113362203
 20
15.6144686178
 10
-14.104510984
 20
15.5930769953
 10
-14.0974191726
 20
15.5728631699
 10
-14.0900745325
 20
15.5538484408
 10
-14.0824633174
 20
15.5360115089
 10
-14.0746566168
 20
15.5191578165
 10
-14.0666698041
 20
15.5032881882
 10
-14.0584875061
 20
15.4884017995
 10
-14.0501346921
 20
15.4743016188
 10
-14.0417128109
 20
15.4610815558
 10
-14.0331204138
 20
15.448647701
 10
-14.0240781239
 20
15.4365212947
 10
-14.0145848837
 20
15.4246552675
 10
-14.0046417508
 20
15.4130966889
 10
-13.9939725205
 20
15.4015080076
 10
-13.9823077966
 20
15.3895749314
 10
-13.9699169754
 20
15.3776117525
 10
-13.9573320413
 20
15.366223796
 10
-13.9447213307
 20
15.3556182841
 10
-13.9319165071
 20
15.3455879945
 10
-13.9189445453
 20
15.3361165851
 10
-13.9058314455
 20
15.3272174859
 10
-13.8925512075
 20
15.318877267
 10
-13.879052805
 20
15.3110392966
 10
-13.865340976
 20
15.3036947642
 10
-13.8514109825
 20
15.2968524805
 10
-13.8371975848
 20
15.2904822453
 10
-13.8227056683
 20
15.2845749915
 10
-13.8079303477
 20
15.2791397862
 10
-13.7927917259
 20
15.2741736318
 10
-13.7772953352
 20
15.2696671488
 10
-13.7614356434
 20
15.2656297167
 10
-13.7451161579
 20
15.2620864756
 10
-13.728323926
 20
15.2590269337
 10
-13.7110719004
 20
15.2564615828
 10
-13.6933024459
 20
15.2544470381
 10
-13.67469979
 20
15.2529898344
 10
-13.6555797054
 20
15.2520834368
 10
-13.6368318742
 20
15.2517648568
 10
-13.6187136216
 20
15.2520649113
 10
-13.6009676226
 20
15.2529527832
 10
-13.5837115847
 20
15.2543730332
 10
-13.5670220641
 20
15.2563220335
 10
-13.5508225047
 20
15.2588034117
 10
-13.5350009454
 20
15.2617726111
 10
-13.5195489649
 20
15.2652194201
 10
-13.5044749845
 20
15.2691540503
 10
-13.4896923081
 20
15.2735625792
 10
-13.4751953079
 20
15.2784360693
 10
-13.4609896115
 20
15.2837834582
 10
-13.447005406
 20
15.289617637
 10
-13.4331898235
 20
15.2959617007
 10
-13.4195957318
 20
15.3027925542
 10
-13.4063119206
 20
15.3100538031
 10
-13.3933472726
 20
15.3177424733
 10
-13.380692905
 20
15.3258615389
 10
-13.3684109595
 20
15.334363527
 10
-13.3565461095
 20
15.3432139344
 10
-13.3450536815
 20
15.3524472644
 10
-13.3338617963
 20
15.3621195536
 10
-13.3229564572
 20
15.3722288042
 10
-13.3123516609
 20
15.3827770139
 10
-13.302017518
 20
15.3938262126
 10
-13.2919511859
 20
15.4053642062
 10
-13.2821555072
 20
15.4174031888
 10
-13.2726091206
 20
15.4300417727
 10
-13.2633060851
 20
15.4432669144
 10
-13.2542523416
 20
15.4570916573
 10
-13.2454443509
 20
15.4716537443
 10
-13.23680201
 20
15.4871189499
 10
-13.2284054219
 20
15.5033214996
 10
-13.2204913554
 20
15.5199018127
 10
-13.2131052761
 20
15.5368058115
 10
-13.2062017185
 20
15.5540875736
 10
-13.1998810548
 20
15.5715497517
 10
-13.1941811084
 20
15.5891017525
 10
-13.1890640559
 20
15.6068341692
 10
-13.1845167995
 20
15.6248214341
 10
-13.1805298565
 20
15.6430593408
 10
-13.1771127095
 20
15.6615520958
 10
-13.1742807086
 20
15.6803867506
 10
-13.1720251253
 20
15.6995659298
 10
-13.1703546881
 20
15.7190870089
 10
-13.169310932
 20
15.7390291662
 10
-13.1689156409
 20
15.7597297041
 10
-13.1691470309
 20
15.7808513202
 10
-13.1699812851
 20
15.8014612863
 10
-13.1714396235
 20
15.8212972435
 10
-13.173500826
 20
15.8406215506
 10
-13.1760774152
 20
15.8592885555
  0
LWPOLYLINE
  5
3A3
100
AcDbEntity
  8
ASSI
100
AcDbPolyline
 62
7
  6
CONTINUOUS
 90
95
 70
0
 10
-14.1394404858
 20
15.7414342796
 10
-14.1347358011
 20
15.7132503491
 10
-14.1295386316
 20
15.6864982025
 10
-14.1238500441
 20
15.6611792215
 10
-14.117782553
 20
15.6371686984
 10
-14.1113362203
 20
15.6144686178
 10
-14.104510984
 20
15.5930769953
 10
-14.0974191726
 20
15.5728631699
 10
-14.0900745325
 20
15.5538484408
 10
-14.0824633174
 20
15.5360115089
 10
-14.0746566168
 20
15.5191578165
 10
-14.0666698041
 20
15.5032881882
 10
-14.0584875061
 20
15.4884017995
 10
-14.0501346921
 20
15.4743016188
 10
-14.0417128109
 20
15.4610815558
 10
-14.0331204138
 20
15.448647701
 10
-14.0240781239
 20
15.4365212947
 10
-14.0145848837
 20
15.4246552675
 10
-14.0046417508
 20
15.4130966889
 10
-13.9939725205
 20
15.4015080076
 10
-13.9823077966
 20
15.3895749314
 10
-13.9699169754
 20
15.3776117525
 10
-13.9573320413
 20
15.366223796
 10
-13.9447213307
 20
15.3556182841
 10
-13.9319165071
 20
15.3455879945
 10
-13.9189445453
 20
15.3361165851
 10
-13.9058314455
 20
15.3272174859
 10
-13.8925512075
 20
15.318877267
 10
-13.879052805
 20
15.3110392966
 10
-13.865340976
 20
15.3036947642
 10
-13.8514109825
 20
15.2968524805
 10
-13.8371975848
 20
15.2904822453
 10
-13.8227056683
 20
15.2845749915
 10
-13.8079303477
 20
15.2791397862
 10
-13.7927917259
 20
15.2741736318
 10
-13.7772953352
 20
15.2696671488
 10
-13.7614356434
 20
15.2656297167
 10
-13.7451161579
 20
15.2620864756
 10
-13.728323926
 20
15.2590269337
 10
-13.7110719004
 20
15.2564615828
 10
-13.6933024459
 20
15.2544470381
 10
-13.67469979
 20
15.2529898344
 10
-13.6555797054
 20
15.2520834368
 10
-13.6368318742
 20
15.2517648568
 10
-13.6187136216
 20
15.2520649113
 10
-13.6009676226
 20
15.2529527832
 10
-13.5837115847
 20
15.2543730332
 10
-13.5670220641
 20
15.2563220335
 10
-13.5508225047
 20
15.2588034117
 10
-13.5350009454
 20
15.2617726111
 10
-13.5195489649
 20
15.2652194201
 10
-13.5044749845
 20
15.2691540503
 10
-13.4896923081
 20
15.2735625792
 10
-13.4751953079
 20
15.2784360693
 10
-13.4609896115
 20
15.2837834582
 10
-13.447005406
 20
15.289617637
 10
-13.4331898235
 20
15.2959617007
 10
-13.4195957318
 20
15.3027925542
 10
-13.4063119206
 20
15.3100538031
 10
-13.3933472726
 20
15.3177424733
 10
-13.380692905
 20
15.3258615389
 10
-13.3684109595
 20
15.334363527
 10
-13.3565461095
 20
15.3432139344
 10
-13.3450536815
 20
15.3524472644
 10
-13.3338617963
 20
15.3621195536
 10
-13.3229564572
 20
15.3722288042
 10
-13.3123516609
 20
15.3827770139
 10
-13.302017518
 20
15.3938262126
 10
-13.2919511859
 20
15.4053642062
 10
-13.2821555072
 20
15.4174031888
 10
-13.2726091206
 20
15.4300417727
 10
-13.2633060851
 20
15.4432669144
 10
-13.2542523416
 20
15.4570916573
 10
-13.2454443509
 20
15.4716537443
 10
-13.23680201
 20
15.4871189499
 10
-13.2284054219
 20
15.5033214996
 10
-13.2204913554
 20
15.5199018127
 10
-13.2131052761
 20
15.5368058115
 10
-13.2062017185
 20
15.5540875736
 10
-13.1998810548
 20
15.5715497517
 10
-13.1941811084
 20
15.5891017525
 10
-13.1890640559
 20
15.6068341692
 10
-13.1845167995
 20
15.6248214341
 10
-13.1805298565
 20
15.6430593408
 10
-13.1771127095
 20
15.6615520958
 10
-13.1742807086
 20
15.6803867506
 10
-13.1720251253
 20
15.6995659298
 10
-13.1703546881
 20
15.7190870089
 10
-13.169310932
 20
15.7390291662
 10
-13.1689156409
 20
15.7597297041
 10
-13.1691470309
 20
15.7808513202
 10
-13.1699812851
 20
15.8014612863
 10
-13.1714396235
 20
15.8212972435
 10
-13.173500826
 20
15.8406215506
 10
-13.1760774152
 20
15.8592885555
  0
LWPOLYLINE
  5
3A4
100
AcDbEntity
  8
0
100
AcDbPolyline
 62
7
  6
CONTINUOUS
 90
99
 70
0
 10
-13.1939153234
 20
16.405450753
 10
-13.1967529639
 20
16.4245474171
 10
-13.2000214462
 20
16.4428857283
 10
-13.2037207701
 20
16.4604656868
 10
-13.2078752444
 20
16.4772548852
 10
-13.2124605604
 20
16.4932857308
 10
-13.2174037923
 20
16.5086554454
 10
-13.22268274
 20
16.5233383616
 10
-13.2283196035
 20
16.5373601469
 10
-13.2343080577
 20
16.5508950243
 10
-13.2406492353
 20
16.5639772327
 10
-13.2473420035
 20
16.5765725333
 10
-13.2543766386
 20
16.5887524328
 10
-13.26174116
 20
16.6005155135
 10
-13.2694475483
 20
16.6118631931
 10
-13.2775220208
 20
16.6228712313
 10
-13.2859609722
 20
16.6335508657
 10
-13.2947680078
 20
16.6438908586
 10
-13.30398016
 20
16.6539332564
 10
-13.3136431041
 20
16.6637237103
 10
-13.3237111648
 20
16.6732165689
 10
-13.334084349
 20
16.6823169247
 10
-13.3447438477
 20
16.6910042759
 10
-13.3557084698
 20
16.6992991242
 10
-13.3669346487
 20
16.7071680673
 10
-13.3783872117
 20
16.714590507
 10
-13.3901013315
 20
16.7215870415
 10
-13.4021389591
 20
16.7281860626
 10
-13.4144939731
 20
16.7343957666
 10
-13.427172495
 20
16.7402079571
 10
-13.4402548406
 20
16.7456264374
 10
-13.4537333987
 20
16.7506599953
 10
-13.4676157804
 20
16.7552998429
 10
-13.4820051359
 20
16.7595234193
 10
-13.4968918225
 20
16.7633410881
 10
-13.5122854828
 20
16.7667424856
 10
-13.5283181942
 20
16.7696739594
 10
-13.5449970505
 20
16.7721478455
 10
-13.5623149579
 20
16.7741518079
 10
-13.5803827114
 20
16.7755951869
 10
-13.5995698031
 20
16.7764615105
 10
-13.6195067409
 20
16.7767672506
 10
-13.6391958439
 20
16.7764711636
 10
-13.6584291995
 20
16.7755338532
 10
-13.6774147203
 20
16.7739947158
 10
-13.695778463
 20
16.7719306967
 10
-13.713353415
 20
16.7693488538
 10
-13.7303065889
 20
16.7662421292
 10
-13.746765079
 20
16.7626662947
 10
-13.7627373431
 20
16.7586319266
 10
-13.7782149234
 20
16.7541284485
 10
-13.7932995414
 20
16.7491799031
 10
-13.807998419
 20
16.7437951691
 10
-13.8223043341
 20
16.7379653677
 10
-13.8362973419
 20
16.7316879051
 10
-13.8499829733
 20
16.7249712074
 10
-13.8633556972
 20
16.7178068487
 10
-13.8764789754
 20
16.7101669569
 10
-13.8893565024
 20
16.7020610914
 10
-13.9019845835
 20
16.693479693
 10
-13.9144155968
 20
16.6843662122
 10
-13.9266557639
 20
16.6747287986
 10
-13.938698863
 20
16.6645593026
 10
-13.9505786072
 20
16.6537767266
 10
-13.9623896696
 20
16.6422773057
 10
-13.9740373769
 20
16.6301648049
 10
-13.9852714227
 20
16.6176695212
 10
-13.9959575587
 20
16.6049588453
 10
-14.006230033
 20
16.5918653864
 10
-14.016241283
 20
16.5781172702
 10
-14.0260217838
 20
16.5637079702
 10
-14.0355410602
 20
16.5486440128
 10
-14.0448601242
 20
16.5326731028
 10
-14.0540103789
 20
16.5157863962
 10
-14.0629604212
 20
16.4979927371
 10
-14.0716770536
 20
16.4790663615
 10
-14.0801767198
 20
16.4590077685
 10
-14.088442976
 20
16.437816459
 10
-14.096393293
 20
16.4152651723
 10
-14.1040427327
 20
16.3913318479
 10
-14.1113762331
 20
16.3660385463
 10
-14.1182660798
 20
16.3392241878
 10
-14.1247137435
 20
16.310886479
 10
-14.1307177535
 20
16.2810277134
 10
-14.1361459824
 20
16.2494936919
 10
-14.1409984141
 20
16.2162793035
 10
-14.1452750648
 20
16.1813896593
 10
-14.1488438555
 20
16.1446858934
 10
-14.1516880634
 20
16.1054113553
 10
-14.1538244112
 20
16.0643226955
 10
-14.1551709881
 20
16.0235510005
 10
-14.1556721627
 20
15.9833476983
 10
-14.1553835664
 20
15.943461361
 10
-14.1543901823
 20
15.9052687911
 10
-14.1526856531
 20
15.8692728396
 10
-14.1502763361
 20
15.8349706556
 10
-14.1472662868
 20
15.8022304896
 10
-14.1436537524
 20
15.7710513757
 10
-14.1394404858
 20
15.7414342796
  0
LWPOLYLINE
  5
3A5
100
AcDbEntity
  8
ASSI
100
AcDbPolyline
 62
7
  6
CONTINUOUS
 90
99
 70
0
 10
-13.1939153234
 20
16.405450753
 10
-13.1967529639
 20
16.4245474171
 10
-13.2000214462
 20
16.4428857283
 10
-13.2037207701
 20
16.4604656868
 10
-13.2078752444
 20
16.4772548852
 10
-13.2124605604
 20
16.4932857308
 10
-13.2174037923
 20
16.5086554454
 10
-13.22268274
 20
16.5233383616
 10
-13.2283196035
 20
16.5373601469
 10
-13.2343080577
 20
16.5508950243
 10
-13.2406492353
 20
16.5639772327
 10
-13.2473420035
 20
16.5765725333
 10
-13.2543766386
 20
16.5887524328
 10
-13.26174116
 20
16.6005155135
 10
-13.2694475483
 20
16.6118631931
 10
-13.2775220208
 20
16.6228712313
 10
-13.2859609722
 20
16.6335508657
 10
-13.2947680078
 20
16.6438908586
 10
-13.30398016
 20
16.6539332564
 10
-13.3136431041
 20
16.6637237103
 10
-13.3237111648
 20
16.6732165689
 10
-13.334084349
 20
16.6823169247
 10
-13.3447438477
 20
16.6910042759
 10
-13.3557084698
 20
16.6992991242
 10
-13.3669346487
 20
16.7071680673
 10
-13.3783872117
 20
16.714590507
 10
-13.3901013315
 20
16.7215870415
 10
-13.4021389591
 20
16.7281860626
 10
-13.4144939731
 20
16.7343957666
 10
-13.427172495
 20
16.7402079571
 10
-13.4402548406
 20
16.7456264374
 10
-13.4537333987
 20
16.7506599953
 10
-13.4676157804
 20
16.7552998429
 10
-13.4820051359
 20
16.7595234193
 10
-13.4968918225
 20
16.7633410881
 10
-13.5122854828
 20
16.7667424856
 10
-13.5283181942
 20
16.7696739594
 10
-13.5449970505
 20
16.7721478455
 10
-13.5623149579
 20
16.7741518079
 10
-13.5803827114
 20
16.7755951869
 10
-13.5995698031
 20
16.7764615105
 10
-13.6195067409
 20
16.7767672506
 10
-13.6391958439
 20
16.7764711636
 10
-13.6584291995
 20
16.7755338532
 10
-13.6774147203
 20
16.7739947158
 10
-13.695778463
 20
16.7719306967
 10
-13.713353415
 20
16.7693488538
 10
-13.7303065889
 20
16.7662421292
 10
-13.746765079
 20
16.7626662947
 10
-13.7627373431
 20
16.7586319266
 10
-13.7782149234
 20
16.7541284485
 10
-13.7932995414
 20
16.7491799031
 10
-13.807998419
 20
16.7437951691
 10
-13.8223043341
 20
16.7379653677
 10
-13.8362973419
 20
16.7316879051
 10
-13.8499829733
 20
16.7249712074
 10
-13.8633556972
 20
16.7178068487
 10
-13.8764789754
 20
16.7101669569
 10
-13.8893565024
 20
16.7020610914
 10
-13.9019845835
 20
16.693479693
 10
-13.9144155968
 20
16.6843662122
 10
-13.9266557639
 20
16.6747287986
 10
-13.938698863
 20
16.6645593026
 10
-13.9505786072
 20
16.6537767266
 10
-13.9623896696
 20
16.6422773057
 10
-13.9740373769
 20
16.6301648049
 10
-13.9852714227
 20
16.6176695212
 10
-13.9959575587
 20
16.6049588453
 10
-14.006230033
 20
16.5918653864
 10
-14.016241283
 20
16.5781172702
 10
-14.0260217838
 20
16.5637079702
 10
-14.0355410602
 20
16.5486440128
 10
-14.0448601242
 20
16.5326731028
 10
-14.0540103789
 20
16.5157863962
 10
-14.0629604212
 20
16.4979927371
 10
-14.0716770536
 20
16.4790663615
 10
-14.0801767198
 20
16.4590077685
 10
-14.088442976
 20
16.437816459
 10
-14.096393293
 20
16.4152651723
 10
-14.1040427327
 20
16.3913318479
 10
-14.1113762331
 20
16.3660385463
 10
-14.1182660798
 20
16.3392241878
 10
-14.1247137435
 20
16.310886479
 10
-14.1307177535
 20
16.2810277134
 10
-14.1361459824
 20
16.2494936919
 10
-14.1409984141
 20
16.2162793035
 10
-14.1452750648
 20
16.1813896593
 10
-14.1488438555
 20
16.1446858934
 10
-14.1516880634
 20
16.1054113553
 10
-14.1538244112
 20
16.0643226955
 10
-14.1551709881
 20
16.0235510005
 10
-14.1556721627
 20
15.9833476983
 10
-14.1553835664
 20
15.943461361
 10
-14.1543901823
 20
15.9052687911
 10
-14.1526856531
 20
15.8692728396
 10
-14.1502763361
 20
15.8349706556
 10
-14.1472662868
 20
15.8022304896
 10
-14.1436537524
 20
15.7710513757
 10
-14.1394404858
 20
15.7414342796
  0
LWPOLYLINE
  5
3A6
100
AcDbEntity
  8
0
100
AcDbPolyline
 62
7
  6
CONTINUOUS
 90
101
 70
0
 10
-12.9602573896
 20
15.6231137464
 10
-12.9573609507
 20
15.6033239081
 10
-12.9540412987
 20
15.5843939094
 10
-12.9502984338
 20
15.5663237504
 10
-12.9461098979
 20
15.5491683029
 10
-12.9414981489
 20
15.5328726951
 10
-12.9365305609
 20
15.517272311
 10
-12.9312231607
 20
15.5023663202
 10
-12.9255599215
 20
15.4881555531
 10
-12.9195601364
 20
15.4744778849
 10
-12.9132222556
 20
15.4613017251
 10
-12.9065478289
 20
15.4486586642
 10
-12.8995607994
 20
15.4364813488
 10
-12.8922806074
 20
15.4247816736
 10
-12.8846878126
 20
15.413547744
 10
-12.8767480367
 20
15.4026765226
 10
-12.8684610199
 20
15.3921489953
 10
-12.8598270221
 20
15.3819841763
 10
-12.8508124435
 20
15.3721360704
 10
-12.8413915102
 20
15.3625751736
 10
-12.8315899962
 20
15.35333099
 10
-12.8214516244
 20
15.3444460364
 10
-12.8109680416
 20
15.3359148399
 10
-12.8001476009
 20
15.3277428734
 10
-12.7890590846
 20
15.3199890732
 10
-12.7777469277
 20
15.3126821595
 10
-12.7661666952
 20
15.3057934122
 10
-12.7542538647
 20
15.2992956071
 10
-12.7420142381
 20
15.2931801733
 10
-12.7294420135
 20
15.2874556817
 10
-12.7164552627
 20
15.2821206214
 10
-12.7030620179
 20
15.2771661797
 10
-12.6892542469
 20
15.2726011693
 10
-12.6749259249
 20
15.2684505169
 10
-12.6600870552
 20
15.264703639
 10
-12.6447276346
 20
15.2613711192
 10
-12.6287116288
 20
15.2585096347
 10
-12.6119990773
 20
15.2561067922
 10
-12.5946299405
 20
15.2541749852
 10
-12.5765880663
 20
15.2528080709
 10
-12.5575055933
 20
15.2520274108
 10
-12.5377503828
 20
15.2518116436
 10
-12.5184098663
 20
15.2521905421
 10
-12.4998192121
 20
15.2531960377
 10
-12.4816432519
 20
15.2547961991
 10
-12.463963913
 20
15.2569250048
 10
-12.4468433344
 20
15.2595734802
 10
-12.4302193771
 20
15.2627505999
 10
-12.4139875511
 20
15.2664172656
 10
-12.3981413276
 20
15.2705637916
 10
-12.3826872355
 20
15.2751998637
 10
-12.3675403716
 20
15.2803154402
 10
-12.3526966767
 20
15.2859009304
 10
-12.3381602101
 20
15.2919659252
 10
-12.323858247
 20
15.2985291554
 10
-12.3097684649
 20
15.3055946713
 10
-12.2959131862
 20
15.3131584226
 10
-12.2822866535
 20
15.3212269899
 10
-12.2688381941
 20
15.3298337133
 10
-12.2556184806
 20
15.3389452527
 10
-12.2427737738
 20
15.3484681682
 10
-12.2303842676
 20
15.3583412971
 10
-12.218369768
 20
15.368625802
 10
-12.2066359542
 20
15.379411731
 10
-12.1951635312
 20
15.3906979109
 10
-12.1839717939
 20
15.4024855148
 10
-12.1730243067
 20
15.4148681097
 10
-12.1623119161
 20
15.4278384653
 10
-12.1518437757
 20
15.4414038121
 10
-12.1416109101
 20
15.4556794084
 10
-12.1316065775
 20
15.4706535293
 10
-12.1218375198
 20
15.4863378999
 10
-12.1123149874
 20
15.5028829538
 10
-12.1030045569
 20
15.5203483593
 10
-12.0939406517
 20
15.5386744482
 10
-12.0852377926
 20
15.5578326498
 10
-12.0768915873
 20
15.5778276692
 10
-12.0689064282
 20
15.5986548013
 10
-12.0614100125
 20
15.6202713593
 10
-12.0544741118
 20
15.6424781187
 10
-12.0480269545
 20
15.6654743041
 10
-12.0419809246
 20
15.6898149026
 10
-12.0362807864
 20
15.7156498152
 10
-12.0309817755
 20
15.7428291408
 10
-12.0261619819
 20
15.7714581629
 10
-12.0218230451
 20
15.8015324082
 10
-12.0179633257
 20
15.8330563499
 10
-12.0146559952
 20
15.8661486916
 10
-12.0119088294
 20
15.9014459353
 10
-12.0097140525
 20
15.9383115789
 10
-12.0081215095
 20
15.9749548196
 10
-12.0071858316
 20
16.0111584601
 10
-12.0068523875
 20
16.0471396976
 10
-12.0070071286
 20
16.0817593209
 10
-12.0076283609
 20
16.1146031497
 10
-12.0087377784
 20
16.1460853643
 10
-12.0102864146
 20
16.1763092941
 10
-12.0122723801
 20
16.2052803851
 10
-12.0146975644
 20
16.2329931913
 10
-12.0175186691
 20
16.2595347046
 10
-12.0207354656
 20
16.2849107515
  0
LWPOLYLINE
  5
3A7
100
AcDbEntity
  8
ASSI
100
AcDbPolyline
 62
7
  6
CONTINUOUS
 90
64
 70
0
 10
-12.9602573896
 20
15.6231137464
 10
-12.9573609507
 20
15.6033239081
 10
-12.9540412987
 20
15.5843939094
 10
-12.9502984338
 20
15.5663237504
 10
-12.9461098979
 20
15.5491683029
 10
-12.9414981489
 20
15.5328726951
 10
-12.9365305609
 20
15.517272311
 10
-12.9312231607
 20
15.5023663202
 10
-12.9255599215
 20
15.4881555531
 10
-12.9195601364
 20
15.4744778849
 10
-12.9132222556
 20
15.4613017251
 10
-12.9065478289
 20
15.4486586642
 10
-12.8995607994
 20
15.4364813488
 10
-12.8922806074
 20
15.4247816736
 10
-12.8846878126
 20
15.413547744
 10
-12.8767480367
 20
15.4026765226
 10
-12.8684610199
 20
15.3921489953
 10
-12.8598270221
 20
15.3819841763
 10
-12.8508124435
 20
15.3721360704
 10
-12.8413915102
 20
15.3625751736
 10
-12.8315899962
 20
15.35333099
 10
-12.8214516244
 20
15.3444460364
 10
-12.8109680416
 20
15.3359148399
 10
-12.8001476009
 20
15.3277428734
 10
-12.7890590846
 20
15.3199890732
 10
-12.7777469277
 20
15.3126821595
 10
-12.7661666952
 20
15.3057934122
 10
-12.7542538647
 20
15.2992956071
 10
-12.7420142381
 20
15.2931801733
 10
-12.7294420135
 20
15.2874556817
 10
-12.7164552627
 20
15.2821206214
 10
-12.7030620179
 20
15.2771661797
 10
-12.6892542469
 20
15.2726011693
 10
-12.6749259249
 20
15.2684505169
 10
-12.6600870552
 20
15.264703639
 10
-12.6447276346
 20
15.2613711192
 10
-12.6287116288
 20
15.2585096347
 10
-12.6119990773
 20
15.2561067922
 10
-12.5946299405
 20
15.2541749852
 10
-12.5765880663
 20
15.2528080709
 10
-12.5575055933
 20
15.2520274108
 10
-12.5377503828
 20
15.2518116436
 10
-12.5184098663
 20
15.2521905421
 10
-12.4998192121
 20
15.2531960377
 10
-12.4816432519
 20
15.2547961991
 10
-12.463963913
 20
15.2569250048
 10
-12.4468433344
 20
15.2595734802
 10
-12.4302193771
 20
15.2627505999
 10
-12.4139875511
 20
15.2664172656
 10
-12.3981413276
 20
15.2705637916
 10
-12.3826872355
 20
15.2751998637
 10
-12.3675403716
 20
15.2803154402
 10
-12.3526966767
 20
15.2859009304
 10
-12.3381602101
 20
15.2919659252
 10
-12.323858247
 20
15.2985291554
 10
-12.3097684649
 20
15.3055946713
 10
-12.2959131862
 20
15.3131584226
 10
-12.2822866535
 20
15.3212269899
 10
-12.2688381941
 20
15.3298337133
 10
-12.2556184806
 20
15.3389452527
 10
-12.2427737738
 20
15.3484681682
 10
-12.2303842676
 20
15.3583412971
 10
-12.218369768
 20
15.368625802
 10
-12.2066359542
 20
15.379411731
  0
LWPOLYLINE
  5
3A8
100
AcDbEntity
  8
0
100
AcDbPolyline
 62
7
  6
CONTINUOUS
 90
88
 70
0
 10
-12.1904382322
 20
15.9803809967
 10
-12.1897657894
 20
15.9643302344
 10
-12.189446554
 20
15.9478707158
 10
-12.1894805258
 20
15.9310024408
 10
-12.189838329
 20
15.9138427475
 10
-12.1905493394
 20
15.8962742978
 10
-12.1917016849
 20
15.8779450777
 10
-12.193268997
 20
15.8587440064
 10
-12.1952776441
 20
15.8387821647
 10
-12.1978948597
 20
15.818040781
 10
-12.2012472638
 20
15.7960545383
 10
-12.2052082365
 20
15.7732887537
 10
-12.2095651519
 20
15.7511206074
 10
-12.2143186114
 20
15.7298984085
 10
-12.2194680136
 20
15.709273848
 10
-12.2247989283
 20
15.689579179
 10
-12.2302491423
 20
15.6709456484
 10
-12.2358808688
 20
15.6532420094
 10
-12.2416663177
 20
15.6364067744
 10
-12.2476042802
 20
15.6204329428
 10
-12.253695965
 20
15.6053275153
 10
-12.2599172081
 20
15.591050007
 10
-12.2662564757
 20
15.5776250308
 10
-12.2727253017
 20
15.5650279738
 10
-12.2793341241
 20
15.5531445125
 10
-12.2860505913
 20
15.5420263511
 10
-12.2929070549
 20
15.5316217855
 10
-12.3000110079
 20
15.5216613794
 10
-12.3073889606
 20
15.5120814518
 10
-12.3150144027
 20
15.5029456838
 10
-12.3229152968
 20
15.4941756831
 10
-12.3310968704
 20
15.4857538575
 10
-12.339553896
 20
15.4776977991
 10
-12.3482986529
 20
15.469981892
 10
-12.357451679
 20
15.462533638
 10
-12.3668924365
 20
15.4554255353
 10
-12.3762715912
 20
15.4488494628
 10
-12.3854233464
 20
15.4429049699
 10
-12.3945134988
 20
15.4374925072
 10
-12.4036901036
 20
15.432505305
 10
-12.4129452572
 20
15.427933386
 10
-12.4222868632
 20
15.4237867275
 10
-12.431886688
 20
15.419988491
 10
-12.4417772916
 20
15.4165085164
 10
-12.4519261141
 20
15.4133769637
 10
-12.4624072416
 20
15.410607475
 10
-12.473212032
 20
15.4081906219
 10
-12.4843491275
 20
15.4061358326
 10
-12.4959185408
 20
15.4044850339
 10
-12.5081316203
 20
15.4032371765
 10
-12.5207770175
 20
15.4023933097
 10
-12.5333206996
 20
15.4019985081
 10
-12.5457298618
 20
15.4020876456
 10
-12.558037309
 20
15.4026258484
 10
-12.5698074222
 20
15.403553569
 10
-12.5808538902
 20
15.4048717384
 10
-12.5913630244
 20
15.4065794258
 10
-12.6014581399
 20
15.4086142911
 10
-12.6111490547
 20
15.4109655513
 10
-12.6204259508
 20
15.4136439894
 10
-12.62938269
 20
15.4166196152
 10
-12.6380238056
 20
15.4198813214
 10
-12.6463447643
 20
15.4234402153
 10
-12.6544258281
 20
15.4272996275
 10
-12.6622876261
 20
15.4314625757
 10
-12.6699095293
 20
15.4359260421
 10
-12.6773099122
 20
15.4406843051
 10
-12.6845400033
 20
15.4457772043
 10
-12.6915485743
 20
15.4511648999
 10
-12.6982003144
 20
15.4567221515
 10
-12.704375748
 20
15.4623276697
 10
-12.7101943509
 20
15.4681027438
 10
-12.715879239
 20
15.4742860008
 10
-12.7214937794
 20
15.4809105566
 10
-12.7269746052
 20
15.4879432953
 10
-12.7323547319
 20
15.4955234956
 10
-12.7376567535
 20
15.503662541
 10
-12.742858076
 20
15.5123490481
 10
-12.7479239334
 20
15.5216881449
 10
-12.7528636941
 20
15.5316921336
 10
-12.7576679896
 20
15.5423487122
 10
-12.7622739483
 20
15.5537261032
 10
-12.7666830131
 20
15.5658302392
 10
-12.770893741
 20
15.5786551876
 10
-12.7748389316
 20
15.5922513727
 10
-12.7784961844
 20
15.6066356026
 10
-12.7818878998
 20
15.6217910691
 10
-12.7850140778
 20
15.6377177724
  0
LWPOLYLINE
  5
3A9
100
AcDbEntity
  8
ASSI
100
AcDbPolyline
 62
7
  6
CONTINUOUS
 90
88
 70
0
 10
-12.1904382322
 20
15.9803809967
 10
-12.1897657894
 20
15.9643302344
 10
-12.189446554
 20
15.9478707158
 10
-12.1894805258
 20
15.9310024408
 10
-12.189838329
 20
15.9138427475
 10
-12.1905493394
 20
15.8962742978
 10
-12.1917016849
 20
15.8779450777
 10
-12.193268997
 20
15.8587440064
 10
-12.1952776441
 20
15.8387821647
 10
-12.1978948597
 20
15.818040781
 10
-12.2012472638
 20
15.7960545383
 10
-12.2052082365
 20
15.7732887537
 10
-12.2095651519
 20
15.7511206074
 10
-12.2143186114
 20
15.7298984085
 10
-12.2194680136
 20
15.709273848
 10
-12.2247989283
 20
15.689579179
 10
-12.2302491423
 20
15.6709456484
 10
-12.2358808688
 20
15.6532420094
 10
-12.2416663177
 20
15.6364067744
 10
-12.2476042802
 20
15.6204329428
 10
-12.253695965
 20
15.6053275153
 10
-12.2599172081
 20
15.591050007
 10
-12.2662564757
 20
15.5776250308
 10
-12.2727253017
 20
15.5650279738
 10
-12.2793341241
 20
15.5531445125
 10
-12.2860505913
 20
15.5420263511
 10
-12.2929070549
 20
15.5316217855
 10
-12.3000110079
 20
15.5216613794
 10
-12.3073889606
 20
15.5120814518
 10
-12.3150144027
 20
15.5029456838
 10
-12.3229152968
 20
15.4941756831
 10
-12.3310968704
 20
15.4857538575
 10
-12.339553896
 20
15.4776977991
 10
-12.3482986529
 20
15.469981892
 10
-12.357451679
 20
15.462533638
 10
-12.3668924365
 20
15.4554255353
 10
-12.3762715912
 20
15.4488494628
 10
-12.3854233464
 20
15.4429049699
 10
-12.3945134988
 20
15.4374925072
 10
-12.4036901036
 20
15.432505305
 10
-12.4129452572
 20
15.427933386
 10
-12.4222868632
 20
15.4237867275
 10
-12.431886688
 20
15.419988491
 10
-12.4417772916
 20
15.4165085164
 10
-12.4519261141
 20
15.4133769637
 10
-12.4624072416
 20
15.410607475
 10
-12.473212032
 20
15.4081906219
 10
-12.4843491275
 20
15.4061358326
 10
-12.4959185408
 20
15.4044850339
 10
-12.5081316203
 20
15.4032371765
 10
-12.5207770175
 20
15.4023933097
 10
-12.5333206996
 20
15.4019985081
 10
-12.5457298618
 20
15.4020876456
 10
-12.558037309
 20
15.4026258484
 10
-12.5698074222
 20
15.403553569
 10
-12.5808538902
 20
15.4048717384
 10
-12.5913630244
 20
15.4065794258
 10
-12.6014581399
 20
15.4086142911
 10
-12.6111490547
 20
15.4109655513
 10
-12.6204259508
 20
15.4136439894
 10
-12.62938269
 20
15.4166196152
 10
-12.6380238056
 20
15.4198813214
 10
-12.6463447643
 20
15.4234402153
 10
-12.6544258281
 20
15.4272996275
 10
-12.6622876261
 20
15.4314625757
 10
-12.6699095293
 20
15.4359260421
 10
-12.6773099122
 20
15.4406843051
 10
-12.6845400033
 20
15.4457772043
 10
-12.6915485743
 20
15.4511648999
 10
-12.6982003144
 20
15.4567221515
 10
-12.704375748
 20
15.4623276697
 10
-12.7101943509
 20
15.4681027438
 10
-12.715879239
 20
15.4742860008
 10
-12.7214937794
 20
15.4809105566
 10
-12.7269746052
 20
15.4879432953
 10
-12.7323547319
 20
15.4955234956
 10
-12.7376567535
 20
15.503662541
 10
-12.742858076
 20
15.5123490481
 10
-12.7479239334
 20
15.5216881449
 10
-12.7528636941
 20
15.5316921336
 10
-12.7576679896
 20
15.5423487122
 10
-12.7622739483
 20
15.5537261032
 10
-12.7666830131
 20
15.5658302392
 10
-12.770893741
 20
15.5786551876
 10
-12.7748389316
 20
15.5922513727
 10
-12.7784961844
 20
15.6066356026
 10
-12.7818878998
 20
15.6217910691
 10
-12.7850140778
 20
15.6377177724
  0
LINE
  5
3AA
100
AcDbEntity
  8
ASSI
100
AcDbLine
 62
7
  6
CONTINUOUS
 10
-12.5159339234
 20
19.4399637852
 11
-12.5159299234
 21
18.3518507852
  0
LINE
  5
3AB
100
AcDbEntity
  8
ASSI
100
AcDbLine
 62
7
  6
CONTINUOUS
 10
-12.1859169234
 20
18.3518507852
 11
-12.1859169234
 21
20.0019247852
  0
LINE
  5
3AC
100
AcDbEntity
  8
0
100
AcDbLine
 62
7
  6
CONTINUOUS
 10
-11.8170029234
 20
16.7517647852
 11
-11.8170029234
 21
16.5765217852
  0
LINE
  5
3AD
100
AcDbEntity
  8
ASSI
100
AcDbLine
 62
7
  6
CONTINUOUS
 10
-11.8170029234
 20
16.7517647852
 11
-11.8170029234
 21
16.5765217852
  0
LWPOLYLINE
  5
3AE
100
AcDbEntity
  8
0
100
AcDbPolyline
 62
7
  6
CONTINUOUS
 90
85
 70
0
 10
-12.2113005409
 20
16.2819391678
 10
-12.2116541859
 20
16.2634905524
 10
-12.2124825917
 20
16.2458759034
 10
-12.2137857584
 20
16.2290952207
 10
-12.2155965038
 20
16.213190933
 10
-12.2178820101
 20
16.1981206117
 10
-12.2205438236
 20
16.1837569705
 10
-12.2235685391
 20
16.1701081823
 10
-12.2269695618
 20
16.1571660743
 10
-12.2306886545
 20
16.1447788413
 10
-12.2347157112
 20
16.1329338743
 10
-12.239060838
 20
16.1216437823
 10
-12.2436961153
 20
16.1107945872
 10
-12.2486125339
 20
16.1003780701
 10
-12.253819103
 20
16.0904024499
 10
-12.2593149318
 20
16.0807784041
 10
-12.2650753964
 20
16.0715159713
 10
-12.2711251206
 20
16.0626051131
 10
-12.2775370845
 20
16.0539263918
 10
-12.284343517
 20
16.0454335134
 10
-12.2915121892
 20
16.0371727719
 10
-12.2990193939
 20
16.0291636128
 10
-12.3069326335
 20
16.0213456339
 10
-12.3151844056
 20
16.0137792372
 10
-12.3235484957
 20
16.0066650739
 10
-12.3319385607
 20
16.0000892876
 10
-12.3404409437
 20
15.9939657346
 10
-12.3490884599
 20
15.9882366356
 10
-12.3578756747
 20
15.9828944582
 10
-12.3668080226
 20
15.9779467348
 10
-12.3759346224
 20
15.9733582833
 10
-12.3852496829
 20
15.9691208884
 10
-12.3947589952
 20
15.9652427654
 10
-12.4045290515
 20
15.9617133772
 10
-12.4145556553
 20
15.9585232596
 10
-12.4248430032
 20
15.9556818768
 10
-12.4354701767
 20
15.9532070854
 10
-12.4464373891
 20
15.9510890357
 10
-12.4577444271
 20
15.9493375774
 10
-12.4694697332
 20
15.9480001161
 10
-12.4818057949
 20
15.9470800796
 10
-12.4945601247
 20
15.94657404
 10
-12.5072337025
 20
15.9465191195
 10
-12.5197602169
 20
15.9469429474
 10
-12.5322059792
 20
15.9478178944
 10
-12.544270903
 20
15.9490981945
 10
-12.5558243608
 20
15.950779777
 10
-12.5669969801
 20
15.9528667126
 10
-12.5778805568
 20
15.9553254479
 10
-12.5884817574
 20
15.9581463978
 10
-12.5987939153
 20
15.9613391473
 10
-12.6088888271
 20
15.9648988984
 10
-12.6187712108
 20
15.9688168636
 10
-12.6284363484
 20
15.9731018305
 10
-12.6379418814
 20
15.9777753631
 10
-12.6472925464
 20
15.9828291918
 10
-12.6564836068
 20
15.9882715864
 10
-12.6655584947
 20
15.9941489201
 10
-12.6745305444
 20
16.000462113
 10
-12.6833864216
 20
16.0072102451
 10
-12.6921295553
 20
16.0144369295
 10
-12.7008628134
 20
16.0222521309
 10
-12.7094833279
 20
16.0305458845
 10
-12.7176859239
 20
16.0390319098
 10
-12.7253609498
 20
16.0476128568
 10
-12.7326180572
 20
16.0563860754
 10
-12.7394810253
 20
16.065357335
 10
-12.745945272
 20
16.0745114025
 10
-12.7520153794
 20
16.0838635111
 10
-12.7577288731
 20
16.0934651292
 10
-12.7630943393
 20
16.1033112676
 10
-12.7681031918
 20
16.1134069154
 10
-12.7727671978
 20
16.1238185089
 10
-12.7770946411
 20
16.1345396338
 10
-12.7810772378
 20
16.1455767043
 10
-12.7847019034
 20
16.1570153994
 10
-12.7879781678
 20
16.1688469906
 10
-12.7908965011
 20
16.1810802065
 10
-12.7934152297
 20
16.1938269123
 10
-12.7955450766
 20
16.2070780939
 10
-12.7972753188
 20
16.2208427653
 10
-12.798532113
 20
16.2352598346
 10
-12.7992908449
 20
16.2503756044
 10
-12.7995761289
 20
16.2661437719
 10
-12.7993879651
 20
16.2825643373
  0
LWPOLYLINE
  5
3AF
100
AcDbEntity
  8
ASSI
100
AcDbPolyline
 62
7
  6
CONTINUOUS
 90
17
 70
0
 10
-12.2113005409
 20
16.2819391678
 10
-12.2116541859
 20
16.2634905524
 10
-12.2124825917
 20
16.2458759034
 10
-12.2137857584
 20
16.2290952207
 10
-12.2155965038
 20
16.213190933
 10
-12.2178820101
 20
16.1981206117
 10
-12.2205438236
 20
16.1837569705
 10
-12.2235685391
 20
16.1701081823
 10
-12.2269695618
 20
16.1571660743
 10
-12.2306886545
 20
16.1447788413
 10
-12.2347157112
 20
16.1329338743
 10
-12.239060838
 20
16.1216437823
 10
-12.2436961153
 20
16.1107945872
 10
-12.2486125339
 20
16.1003780701
 10
-12.253819103
 20
16.0904024499
 10
-12.2593149318
 20
16.0807784041
 10
-12.2650753964
 20
16.0715159713
  0
LWPOLYLINE
  5
3B0
100
AcDbEntity
  8
0
100
AcDbPolyline
 62
7
  6
CONTINUOUS
 90
85
 70
0
 10
-12.7993879651
 20
16.2825643373
 10
-12.7985721237
 20
16.2993649654
 10
-12.7973106081
 20
16.3155339115
 10
-12.7956034184
 20
16.3310711755
 10
-12.7934302576
 20
16.3459328099
 10
-12.7908114225
 20
16.3601627622
 10
-12.7878078037
 20
16.3738928755
 10
-12.7844292384
 20
16.3871335513
 10
-12.7806658892
 20
16.399874388
 10
-12.7765491344
 20
16.4122160241
 10
-12.7720880492
 20
16.4241643286
 10
-12.7672735583
 20
16.4357134324
 10
-12.7621098144
 20
16.4469463661
 10
-12.7566035051
 20
16.4578711713
 10
-12.7507479427
 20
16.4684798063
 10
-12.7445272172
 20
16.4788311766
 10
-12.7379809205
 20
16.4888948048
 10
-12.7310694606
 20
16.4987011681
 10
-12.7236581518
 20
16.508400604
 10
-12.7156152526
 20
16.5181373459
 10
-12.7070725044
 20
16.5277671603
 10
-12.6982904459
 20
16.5370076839
 10
-12.6892723533
 20
16.5458274798
 10
-12.6800149503
 20
16.5542579849
 10
-12.6707689457
 20
16.5621111464
 10
-12.6616299865
 20
16.5692918489
 10
-12.6525024257
 20
16.5758952079
 10
-12.6433500317
 20
16.582018516
 10
-12.6341756841
 20
16.5876727082
 10
-12.6249765033
 20
16.5928468496
 10
-12.6157076189
 20
16.5976054283
 10
-12.6063692533
 20
16.6019586972
 10
-12.5969611841
 20
16.6058964034
 10
-12.5874378742
 20
16.6094522769
 10
-12.5778037606
 20
16.6126342241
 10
-12.5680544063
 20
16.6154343385
 10
-12.558130964
 20
16.6178626311
 10
-12.5480335981
 20
16.6199279924
 10
-12.5377621442
 20
16.6216215319
 10
-12.5272572617
 20
16.6229265886
 10
-12.516407963
 20
16.623844139
 10
-12.5053252356
 20
16.6243732067
 10
-12.4942827014
 20
16.6244942015
 10
-12.4832933105
 20
16.6241901753
 10
-12.4723441127
 20
16.6234780763
 10
-12.46166988
 20
16.6223891592
 10
-12.4513723638
 20
16.6209268836
 10
-12.4413498127
 20
16.6190877898
 10
-12.4315317434
 20
16.6168927534
 10
-12.4219153011
 20
16.6143510104
 10
-12.4125033407
 20
16.6114533249
 10
-12.4032339443
 20
16.6081928646
 10
-12.3941021598
 20
16.6045775187
 10
-12.3851129393
 20
16.6005993982
 10
-12.376219221
 20
16.5962280038
 10
-12.3674185748
 20
16.5914722739
 10
-12.3587134308
 20
16.5863232703
 10
-12.3500640173
 20
16.5807236793
 10
-12.3414567859
 20
16.5746721406
 10
-12.3329052849
 20
16.5681700146
 10
-12.3244103878
 20
16.5611640684
 10
-12.3158614901
 20
16.5535302661
 10
-12.3073691964
 20
16.5453926437
 10
-12.2992661934
 20
16.537070076
 10
-12.2916756628
 20
16.5286869917
 10
-12.2844744229
 20
16.5201189622
 10
-12.2776256162
 20
16.5113115755
 10
-12.2711329809
 20
16.5022762672
 10
-12.2649927787
 20
16.4930016018
 10
-12.2591569371
 20
16.483398861
 10
-12.2536094384
 20
16.4734642635
 10
-12.2483663004
 20
16.4632015906
 10
-12.2434275034
 20
16.4525334674
 10
-12.2387856153
 20
16.4414692866
 10
-12.2344480683
 20
16.4299996555
 10
-12.2304371389
 20
16.4180190212
 10
-12.2267429646
 20
16.4055372398
 10
-12.2233754078
 20
16.3925444552
 10
-12.2203863329
 20
16.3789055457
 10
-12.2177635166
 20
16.3646233988
 10
-12.215519182
 20
16.3496951271
 10
-12.2137418638
 20
16.3339769465
 10
-12.2124610732
 20
16.3174209291
 10
-12.211647299
 20
16.3000750029
 10
-12.2113005409
 20
16.2819391678
  0
LWPOLYLINE
  5
3B1
100
AcDbEntity
  8
ASSI
100
AcDbPolyline
 62
7
  6
CONTINUOUS
 90
6
 70
0
 10
-12.7993879651
 20
16.2825643373
 10
-12.7985721237
 20
16.2993649654
 10
-12.7973106081
 20
16.3155339115
 10
-12.7956034184
 20
16.3310711755
 10
-12.7934302576
 20
16.3459328099
 10
-12.7908114225
 20
16.3601627622
  0
LWPOLYLINE
  5
3B2
100
AcDbEntity
  8
0
100
AcDbPolyline
 62
7
  6
CONTINUOUS
 90
34
 70
0
 10
-11.4206190228
 20
15.2767997852
 10
-11.4165495101
 20
15.3269509545
 10
-11.411664987
 20
15.3753927373
 10
-11.4059654536
 20
15.4221251334
 10
-11.3994109595
 20
15.4670597449
 10
-11.392041455
 20
15.5102849699
 10
-11.3839767908
 20
15.5520660024
 10
-11.3752980704
 20
15.592038077
 10
-11.3659241903
 20
15.6305659591
 10
-11.3557316913
 20
15.6690091402
 10
-11.3448456244
 20
15.7072981906
 10
-11.3331409386
 20
15.74550254
 10
-11.3201190216
 20
15.7851899676
 10
-11.3057290555
 20
15.8268763667
 10
-11.2900218583
 20
15.8700458441
 10
-11.2726512714
 20
15.9147185002
 10
-11.2533933603
 20
15.9613317388
 10
-11.2324720594
 20
16.0094481562
 10
-11.2102130135
 20
16.057775641
 10
-11.1863309377
 20
16.1065360377
 10
-11.1611111169
 20
16.1555075019
 10
-11.1357350509
 20
16.2027323893
 10
-11.1104319515
 20
16.2476961165
 10
-11.0849726068
 20
16.2909132668
 10
-11.0598508805
 20
16.3319699459
 10
-11.0352257674
 20
16.3706635759
 10
-11.0109382728
 20
16.4071967346
 10
-10.9870052758
 20
16.4417632611
 10
-10.9634252766
 20
16.4743654336
 10
-10.9401997751
 20
16.5050009738
 10
-10.917350151
 20
16.5338568855
 10
-10.894883531
 20
16.5609955031
 10
-10.8727927885
 20
16.5863544921
 10
-10.8510779234
 20
16.6099338525
  0
LWPOLYLINE
  5
3B3
100
AcDbEntity
  8
ASSI
100
AcDbPolyline
 62
7
  6
CONTINUOUS
 90
34
 70
0
 10
-11.4206190228
 20
15.2767997852
 10
-11.4165495101
 20
15.3269509545
 10
-11.411664987
 20
15.3753927373
 10
-11.4059654536
 20
15.4221251334
 10
-11.3994109595
 20
15.4670597449
 10
-11.392041455
 20
15.5102849699
 10
-11.3839767908
 20
15.5520660024
 10
-11.3752980704
 20
15.592038077
 10
-11.3659241903
 20
15.6305659591
 10
-11.3557316913
 20
15.6690091402
 10
-11.3448456244
 20
15.7072981906
 10
-11.3331409386
 20
15.74550254
 10
-11.3201190216
 20
15.7851899676
 10
-11.3057290555
 20
15.8268763667
 10
-11.2900218583
 20
15.8700458441
 10
-11.2726512714
 20
15.9147185002
 10
-11.2533933603
 20
15.9613317388
 10
-11.2324720594
 20
16.0094481562
 10
-11.2102130135
 20
16.057775641
 10
-11.1863309377
 20
16.1065360377
 10
-11.1611111169
 20
16.1555075019
 10
-11.1357350509
 20
16.2027323893
 10
-11.1104319515
 20
16.2476961165
 10
-11.0849726068
 20
16.2909132668
 10
-11.0598508805
 20
16.3319699459
 10
-11.0352257674
 20
16.3706635759
 10
-11.0109382728
 20
16.4071967346
 10
-10.9870052758
 20
16.4417632611
 10
-10.9634252766
 20
16.4743654336
 10
-10.9401997751
 20
16.5050009738
 10
-10.917350151
 20
16.5338568855
 10
-10.894883531
 20
16.5609955031
 10
-10.8727927885
 20
16.5863544921
 10
-10.8510779234
 20
16.6099338525
  0
LWPOLYLINE
  5
3B4
100
AcDbEntity
  8
ASSI
100
AcDbPolyline
 62
7
  6
CONTINUOUS
 90
80
 70
0
 10
-12.7908114225
 20
16.3601627622
 10
-12.7878078037
 20
16.3738928755
 10
-12.7844292384
 20
16.3871335513
 10
-12.7806658892
 20
16.399874388
 10
-12.7765491344
 20
16.4122160241
 10
-12.7720880492
 20
16.4241643286
 10
-12.7672735583
 20
16.4357134324
 10
-12.7621098144
 20
16.4469463661
 10
-12.7566035051
 20
16.4578711713
 10
-12.7507479427
 20
16.4684798063
 10
-12.7445272172
 20
16.4788311766
 10
-12.7379809205
 20
16.4888948048
 10
-12.7310694606
 20
16.4987011681
 10
-12.7236581518
 20
16.508400604
 10
-12.7156152526
 20
16.5181373459
 10
-12.7070725044
 20
16.5277671603
 10
-12.6982904459
 20
16.5370076839
 10
-12.6892723533
 20
16.5458274798
 10
-12.6800149503
 20
16.5542579849
 10
-12.6707689457
 20
16.5621111464
 10
-12.6616299865
 20
16.5692918489
 10
-12.6525024257
 20
16.5758952079
 10
-12.6433500317
 20
16.582018516
 10
-12.6341756841
 20
16.5876727082
 10
-12.6249765033
 20
16.5928468496
 10
-12.6157076189
 20
16.5976054283
 10
-12.6063692533
 20
16.6019586972
 10
-12.5969611841
 20
16.6058964034
 10
-12.5874378742
 20
16.6094522769
 10
-12.5778037606
 20
16.6126342241
 10
-12.5680544063
 20
16.6154343385
 10
-12.558130964
 20
16.6178626311
 10
-12.5480335981
 20
16.6199279924
 10
-12.5377621442
 20
16.6216215319
 10
-12.5272572617
 20
16.6229265886
 10
-12.516407963
 20
16.623844139
 10
-12.5053252356
 20
16.6243732067
 10
-12.4942827014
 20
16.6244942015
 10
-12.4832933105
 20
16.6241901753
 10
-12.4723441127
 20
16.6234780763
 10
-12.46166988
 20
16.6223891592
 10
-12.4513723638
 20
16.6209268836
 10
-12.4413498127
 20
16.6190877898
 10
-12.4315317434
 20
16.6168927534
 10
-12.4219153011
 20
16.6143510104
 10
-12.4125033407
 20
16.6114533249
 10
-12.4032339443
 20
16.6081928646
 10
-12.3941021598
 20
16.6045775187
 10
-12.3851129393
 20
16.6005993982
 10
-12.376219221
 20
16.5962280038
 10
-12.3674185748
 20
16.5914722739
 10
-12.3587134308
 20
16.5863232703
 10
-12.3500640173
 20
16.5807236793
 10
-12.3414567859
 20
16.5746721406
 10
-12.3329052849
 20
16.5681700146
 10
-12.3244103878
 20
16.5611640684
 10
-12.3158614901
 20
16.5535302661
 10
-12.3073691964
 20
16.5453926437
 10
-12.2992661934
 20
16.537070076
 10
-12.2916756628
 20
16.5286869917
 10
-12.2844744229
 20
16.5201189622
 10
-12.2776256162
 20
16.5113115755
 10
-12.2711329809
 20
16.5022762672
 10
-12.2649927787
 20
16.4930016018
 10
-12.2591569371
 20
16.483398861
 10
-12.2536094384
 20
16.4734642635
 10
-12.2483663004
 20
16.4632015906
 10
-12.2434275034
 20
16.4525334674
 10
-12.2387856153
 20
16.4414692866
 10
-12.2344480683
 20
16.4299996555
 10
-12.2304371389
 20
16.4180190212
 10
-12.2267429646
 20
16.4055372398
 10
-12.2233754078
 20
16.3925444552
 10
-12.2203863329
 20
16.3789055457
 10
-12.2177635166
 20
16.3646233988
 10
-12.215519182
 20
16.3496951271
 10
-12.2137418638
 20
16.3339769465
 10
-12.2124610732
 20
16.3174209291
 10
-12.211647299
 20
16.3000750029
 10
-12.2113005409
 20
16.2819391678
  0
LINE
  5
3B5
100
AcDbEntity
  8
ASSI
100
AcDbLine
 62
7
  6
CONTINUOUS
 10
-11.4361329234
 20
20.0019297852
 11
-11.9659099234
 21
18.3518507852
  0
LINE
  5
3B6
100
AcDbEntity
  8
ASSI
100
AcDbLine
 62
7
  6
CONTINUOUS
 10
-11.6358979234
 20
18.3518547852
 11
-11.5317129234
 21
18.6763527852
  0
LINE
  5
3B7
100
AcDbEntity
  8
ASSI
100
AcDbLine
 62
7
  6
CONTINUOUS
 10
-11.4310509234
 20
18.9898647852
 11
-11.2711199234
 21
19.4880157852
  0
LWPOLYLINE
  5
3B8
100
AcDbEntity
  8
ASSI
100
AcDbPolyline
 62
7
  6
CONTINUOUS
 90
26
 70
0
 10
-12.0852377926
 20
15.5578326498
 10
-12.0768915873
 20
15.5778276692
 10
-12.0689064282
 20
15.5986548013
 10
-12.0614100125
 20
15.6202713593
 10
-12.0544741118
 20
15.6424781187
 10
-12.0480269545
 20
15.6654743041
 10
-12.0419809246
 20
15.6898149026
 10
-12.0362807864
 20
15.7156498152
 10
-12.0309817755
 20
15.7428291408
 10
-12.0261619819
 20
15.7714581629
 10
-12.0218230451
 20
15.8015324082
 10
-12.0179633257
 20
15.8330563499
 10
-12.0146559952
 20
15.8661486916
 10
-12.0119088294
 20
15.9014459353
 10
-12.0097140525
 20
15.9383115789
 10
-12.0081215095
 20
15.9749548196
 10
-12.0071858316
 20
16.0111584601
 10
-12.0068523875
 20
16.0471396976
 10
-12.0070071286
 20
16.0817593209
 10
-12.0076283609
 20
16.1146031497
 10
-12.0087377784
 20
16.1460853643
 10
-12.0102864146
 20
16.1763092941
 10
-12.0122723801
 20
16.2052803851
 10
-12.0146975644
 20
16.2329931913
 10
-12.0175186691
 20
16.2595347046
 10
-12.0207354656
 20
16.2849107515
  0
LWPOLYLINE
  5
3B9
100
AcDbEntity
  8
0
100
AcDbPolyline
 62
7
  6
CONTINUOUS
 90
14
 70
0
 10
-10.4391453503
 20
15.4520427852
 10
-10.4300400743
 20
15.4664351936
 10
-10.4199330129
 20
15.4811252115
 10
-10.408824166
 20
15.4961128392
 10
-10.3965143248
 20
15.511648808
 10
-10.3832026981
 20
15.5274823865
 10
-10.3694869124
 20
15.5428613801
 10
-10.3556727074
 20
15.5573113283
 10
-10.3414543433
 20
15.5713066916
 10
-10.3265122269
 20
15.5855186574
 10
-10.3107534858
 20
15.6000850355
 10
-10.2942709925
 20
15.6148680161
 10
-10.2770237706
 20
15.6301253573
 10
-10.259034105
 20
15.6458957286
  0
LWPOLYLINE
  5
3BA
100
AcDbEntity
  8
ASSI
100
AcDbPolyline
 62
7
  6
CONTINUOUS
 90
14
 70
0
 10
-10.4391453503
 20
15.4520427852
 10
-10.4300400743
 20
15.4664351936
 10
-10.4199330129
 20
15.4811252115
 10
-10.408824166
 20
15.4961128392
 10
-10.3965143248
 20
15.511648808
 10
-10.3832026981
 20
15.5274823865
 10
-10.3694869124
 20
15.5428613801
 10
-10.3556727074
 20
15.5573113283
 10
-10.3414543433
 20
15.5713066916
 10
-10.3265122269
 20
15.5855186574
 10
-10.3107534858
 20
15.6000850355
 10
-10.2942709925
 20
15.6148680161
 10
-10.2770237706
 20
15.6301253573
 10
-10.259034105
 20
15.6458957286
  0
LINE
  5
3BB
100
AcDbEntity
  8
ASSI
100
AcDbLine
 62
7
  6
CONTINUOUS
 10
-11.2711199234
 20
19.4880157852
 11
-11.1111819234
 21
18.9898647852
  0
LINE
  5
3BC
100
AcDbEntity
  8
ASSI
100
AcDbLine
 62
7
  6
CONTINUOUS
 10
-11.0105149234
 20
18.6763527852
 11
-10.9063339234
 21
18.3518547852
  0
LINE
  5
3BD
100
AcDbEntity
  8
ASSI
100
AcDbLine
 62
7
  6
CONTINUOUS
 10
-10.5763179234
 20
18.3518507852
 11
-11.1061039234
 21
20.0019297852
  0
LWPOLYLINE
  5
3BE
100
AcDbEntity
  8
0
100
AcDbPolyline
 62
7
  6
CONTINUOUS
 90
96
 70
0
 10
-12.0207354656
 20
16.2849107515
 10
-12.0243481826
 20
16.3091155054
 10
-12.0283142079
 20
16.3322184783
 10
-12.0326364952
 20
16.354219784
 10
-12.0373120907
 20
16.3751193088
 10
-12.0422895208
 20
16.3949862223
 10
-12.0475342634
 20
16.4137339239
 10
-12.0530808405
 20
16.4314490144
 10
-12.0589813447
 20
16.448460466
 10
-12.0651495615
 20
16.4646028024
 10
-12.0716717053
 20
16.4800414999
 10
-12.0788585124
 20
16.4956019593
 10
-12.0869240829
 20
16.5117958642
 10
-12.0956543168
 20
16.528111531
 10
-12.1047176494
 20
16.5438393101
 10
-12.1140167296
 20
16.5587355251
 10
-12.1236489085
 20
16.5730438525
 10
-12.1335746758
 20
16.5867856711
 10
-12.1437728038
 20
16.5999398675
 10
-12.1542645203
 20
16.6125275552
 10
-12.1650739972
 20
16.6246334545
 10
-12.1761943545
 20
16.636265503
 10
-12.1876324723
 20
16.6474157631
 10
-12.1994331634
 20
16.6581451426
 10
-12.2115515767
 20
16.6684369157
 10
-12.2240325632
 20
16.6783078081
 10
-12.2370554891
 20
16.6878689048
 10
-12.2507857676
 20
16.697226694
 10
-12.2650579854
 20
16.7062746873
 10
-12.2795552694
 20
16.714804505
 10
-12.2942122911
 20
16.7227642187
 10
-12.3090943789
 20
16.7302057567
 10
-12.3240806445
 20
16.7370765241
 10
-12.3391090826
 20
16.7433467002
 10
-12.3542416983
 20
16.7490461057
 10
-12.3695436195
 20
16.7542116076
 10
-12.3850122511
 20
16.7588529577
 10
-12.4006501881
 20
16.7629604043
 10
-12.416530343
 20
16.7665415585
 10
-12.4326481268
 20
16.7696060806
 10
-12.4490081284
 20
16.7721443105
 10
-12.465697028
 20
16.7741348787
 10
-12.4827828457
 20
16.7755811397
 10
-12.5001975613
 20
16.7764797391
 10
-12.517823794
 20
16.776799244
 10
-12.5358540151
 20
16.7765156895
 10
-12.5540957533
 20
16.7756530405
 10
-12.571854213
 20
16.7742517584
 10
-12.5888804654
 20
16.7723076781
 10
-12.6054234392
 20
16.7698249646
 10
-12.6215351255
 20
16.766856575
 10
-12.6372020988
 20
16.7634127808
 10
-12.6524377846
 20
16.7594833104
 10
-12.6673344506
 20
16.7550903059
 10
-12.6818970941
 20
16.7502433669
 10
-12.6961207178
 20
16.7449328937
 10
-12.7100825977
 20
16.7391522295
 10
-12.7237881855
 20
16.732909978
 10
-12.7372320294
 20
16.7261975355
 10
-12.7504750501
 20
16.7189824339
 10
-12.7635206337
 20
16.7112743522
 10
-12.7763653941
 20
16.7030636114
 10
-12.7890600934
 20
16.6942887067
 10
-12.8016364795
 20
16.6849308664
 10
-12.8140628046
 20
16.6750088623
 10
-12.8262945873
 20
16.6645175042
 10
-12.838446869
 20
16.6533277879
 10
-12.8504046084
 20
16.6415687176
 10
-12.8617782002
 20
16.6296221158
 10
-12.8724029957
 20
16.6176443619
 10
-12.8824436435
 20
16.6054790765
 10
-12.892004485
 20
16.5930389431
 10
-12.9011070853
 20
16.5803147254
 10
-12.9097298792
 20
16.5673156598
 10
-12.9179125126
 20
16.5539821397
 10
-12.9256632799
 20
16.5403202828
 10
-12.9329738867
 20
16.5263239713
 10
-12.9398590949
 20
16.5119152461
 10
-12.9463277391
 20
16.4971001957
 10
-12.9523709848
 20
16.4818727315
 10
-12.9579770903
 20
16.4661366285
 10
-12.9631552165
 20
16.4499014241
 10
-12.9678962026
 20
16.4331575808
 10
-12.9721608241
 20
16.4157802615
 10
-12.9759606771
 20
16.3977802726
 10
-12.9792841656
 20
16.3791468077
 10
-12.9820572769
 20
16.3597226096
 10
-12.9842887943
 20
16.3393416805
 10
-12.9859699345
 20
16.3181700182
 10
-12.9870003342
 20
16.2965483596
 10
-12.9873353776
 20
16.2741653683
 10
-12.9870196804
 20
16.2513323807
 10
-12.9860867268
 20
16.2293241432
 10
-12.9845141412
 20
16.2085957858
 10
-12.9823242991
 20
16.1886921784
 10
-12.9796178111
 20
16.1695226773
  0
LWPOLYLINE
  5
3BF
100
AcDbEntity
  8
ASSI
100
AcDbPolyline
 62
7
  6
CONTINUOUS
 90
66
 70
0
 10
-12.0207354656
 20
16.2849107515
 10
-12.0243481826
 20
16.3091155054
 10
-12.0283142079
 20
16.3322184783
 10
-12.0326364952
 20
16.354219784
 10
-12.0373120907
 20
16.3751193088
 10
-12.0422895208
 20
16.3949862223
 10
-12.0475342634
 20
16.4137339239
 10
-12.0530808405
 20
16.4314490144
 10
-12.0589813447
 20
16.448460466
 10
-12.0651495615
 20
16.4646028024
 10
-12.0716717053
 20
16.4800414999
 10
-12.0788585124
 20
16.4956019593
 10
-12.0869240829
 20
16.5117958642
 10
-12.0956543168
 20
16.528111531
 10
-12.1047176494
 20
16.5438393101
 10
-12.1140167296
 20
16.5587355251
 10
-12.1236489085
 20
16.5730438525
 10
-12.1335746758
 20
16.5867856711
 10
-12.1437728038
 20
16.5999398675
 10
-12.1542645203
 20
16.6125275552
 10
-12.1650739972
 20
16.6246334545
 10
-12.1761943545
 20
16.636265503
 10
-12.1876324723
 20
16.6474157631
 10
-12.1994331634
 20
16.6581451426
 10
-12.2115515767
 20
16.6684369157
 10
-12.2240325632
 20
16.6783078081
 10
-12.2370554891
 20
16.6878689048
 10
-12.2507857676
 20
16.697226694
 10
-12.2650579854
 20
16.7062746873
 10
-12.2795552694
 20
16.714804505
 10
-12.2942122911
 20
16.7227642187
 10
-12.3090943789
 20
16.7302057567
 10
-12.3240806445
 20
16.7370765241
 10
-12.3391090826
 20
16.7433467002
 10
-12.3542416983
 20
16.7490461057
 10
-12.3695436195
 20
16.7542116076
 10
-12.3850122511
 20
16.7588529577
 10
-12.4006501881
 20
16.7629604043
 10
-12.416530343
 20
16.7665415585
 10
-12.4326481268
 20
16.7696060806
 10
-12.4490081284
 20
16.7721443105
 10
-12.465697028
 20
16.7741348787
 10
-12.4827828457
 20
16.7755811397
 10
-12.5001975613
 20
16.7764797391
 10
-12.517823794
 20
16.776799244
 10
-12.5358540151
 20
16.7765156895
 10
-12.5540957533
 20
16.7756530405
 10
-12.571854213
 20
16.7742517584
 10
-12.5888804654
 20
16.7723076781
 10
-12.6054234392
 20
16.7698249646
 10
-12.6215351255
 20
16.766856575
 10
-12.6372020988
 20
16.7634127808
 10
-12.6524377846
 20
16.7594833104
 10
-12.6673344506
 20
16.7550903059
 10
-12.6818970941
 20
16.7502433669
 10
-12.6961207178
 20
16.7449328937
 10
-12.7100825977
 20
16.7391522295
 10
-12.7237881855
 20
16.732909978
 10
-12.7372320294
 20
16.7261975355
 10
-12.7504750501
 20
16.7189824339
 10
-12.7635206337
 20
16.7112743522
 10
-12.7763653941
 20
16.7030636114
 10
-12.7890600934
 20
16.6942887067
 10
-12.8016364795
 20
16.6849308664
 10
-12.8140628046
 20
16.6750088623
 10
-12.8262945873
 20
16.6645175042
  0
LINE
  5
3C0
100
AcDbEntity
  8
0
100
AcDbLine
 62
7
  6
CONTINUOUS
 10
-10.8510779234
 20
16.6099338525
 11
-10.8510779234
 21
16.7517647852
  0
LINE
  5
3C1
100
AcDbEntity
  8
ASSI
100
AcDbLine
 62
7
  6
CONTINUOUS
 10
-10.8510779234
 20
16.6099338525
 11
-10.8510779234
 21
16.7517647852
  0
LINE
  5
3C2
100
AcDbEntity
  8
ASSI
100
AcDbLine
 62
7
  6
CONTINUOUS
 10
-10.3563109234
 20
20.0019297852
 11
-10.3563109234
 21
18.3518547852
  0
LINE
  5
3C3
100
AcDbEntity
  8
ASSI
100
AcDbLine
 62
7
  6
CONTINUOUS
 10
-10.0308439234
 20
19.2951307852
 11
-10.0308479234
 21
19.6966667852
  0
LINE
  5
3C4
100
AcDbEntity
  8
0
100
AcDbLine
 62
7
  6
CONTINUOUS
 10
-9.7057369234
 20
15.2767997852
 11
-9.7057369234
 21
15.4520427852
  0
LINE
  5
3C5
100
AcDbEntity
  8
ASSI
100
AcDbLine
 62
7
  6
CONTINUOUS
 10
-9.7057369234
 20
15.2767997852
 11
-9.7057369234
 21
15.4520427852
  0
LINE
  5
3C6
100
AcDbEntity
  8
RACCORDO
100
AcDbLine
 62
7
  6
CONTINUOUS
 10
-9.3695759234
 20
11.7518467852
 11
-9.3695759234
 21
4.1518467852
  0
LINE
  5
3C7
100
AcDbEntity
  8
ASSI
100
AcDbLine
 62
7
  6
CONTINUOUS
 10
-9.3695759234
 20
11.7518467852
 11
-9.3695759234
 21
4.1518467852
  0
LINE
  5
3C8
100
AcDbEntity
  8
RACCORDO
100
AcDbLine
 62
253
  6
CONTINUOUS
 10
-9.1695759234
 20
3.9518467852
 11
-9.1695759234
 21
11.9518467852
  0
LINE
  5
3C9
100
AcDbEntity
  8
ASSI
100
AcDbLine
 62
253
  6
CONTINUOUS
 10
-9.1695759234
 20
3.9518467852
 11
-9.1695759234
 21
11.9518467852
  0
LINE
  5
3CA
100
AcDbEntity
  8
ASSI
100
AcDbLine
 62
7
  6
CONTINUOUS
 10
-10.0262939234
 20
18.3518547852
 11
-10.0262569234
 21
18.9898687852
  0
LWPOLYLINE
  5
3CB
100
AcDbEntity
  8
0
100
AcDbPolyline
 62
7
  6
CONTINUOUS
 90
82
 70
0
 10
-10.4713839881
 20
16.3261737917
 10
-10.4709476395
 20
16.3421698565
 10
-10.4700762732
 20
16.3574553683
 10
-10.4687698891
 20
16.3720303273
 10
-10.4670028709
 20
16.3858442242
 10
-10.4648008349
 20
16.3989475682
 10
-10.4622406304
 20
16.4114918869
 10
-10.4593284499
 20
16.4235012173
 10
-10.4560581008
 20
16.4349515225
 10
-10.4524878549
 20
16.4459222191
 10
-10.4486348957
 20
16.4563989423
 10
-10.4444820396
 20
16.466396057
 10
-10.4400360075
 20
16.4760360743
 10
-10.4353022348
 20
16.4853353921
 10
-10.4302752861
 20
16.4942776125
 10
-10.4249455759
 20
16.5029360536
 10
-10.4193233384
 20
16.5113160255
 10
-10.4133983393
 20
16.519412218
 10
-10.4071302904
 20
16.5272820189
 10
-10.4004961123
 20
16.5349557785
 10
-10.3935188844
 20
16.5424031466
 10
-10.3862275571
 20
16.5495904593
 10
-10.3785992369
 20
16.5565369268
 10
-10.3706568172
 20
16.563223339
 10
-10.362497929
 20
16.5695584016
 10
-10.3541705129
 20
16.5755030002
 10
-10.3456266283
 20
16.5810962492
 10
-10.3368200836
 20
16.5863641979
 10
-10.327759181
 20
16.5913130535
 10
-10.3184356184
 20
16.5959366088
 10
-10.3087782976
 20
16.6002422912
 10
-10.2987945265
 20
16.6042387888
 10
-10.2884769973
 20
16.6079174135
 10
-10.2777326883
 20
16.6112595285
 10
-10.2665709703
 20
16.6142752734
 10
-10.2549824725
 20
16.6169545086
 10
-10.242846061
 20
16.6192481796
 10
-10.230086738
 20
16.6211670832
 10
-10.2167795013
 20
16.6227004225
 10
-10.2030282104
 20
16.6237667523
 10
-10.1885474812
 20
16.6243399598
 10
-10.1736226977
 20
16.6244461578
 10
-10.1592138713
 20
16.62408224
 10
-10.1456389775
 20
16.6232207248
 10
-10.1325800409
 20
16.6218890938
 10
-10.1200431464
 20
16.6201666853
 10
-10.1080695526
 20
16.6180639662
 10
-10.0966180008
 20
16.6155704697
 10
-10.0855708002
 20
16.6127341329
 10
-10.0749177453
 20
16.6095646579
 10
-10.0646690414
 20
16.6060523426
 10
-10.0547376137
 20
16.6022160187
 10
-10.0451189796
 20
16.5980656427
 10
-10.0358176215
 20
16.5935912581
 10
-10.0267599127
 20
16.5887818275
 10
-10.0179381813
 20
16.5836451348
 10
-10.0093600991
 20
16.578173396
 10
-10.0009750543
 20
16.5723322212
 10
-9.9927764513
 20
16.5661253423
 10
-9.9847708857
 20
16.5595490274
 10
-9.9769275319
 20
16.5525576909
 10
-9.9691365247
 20
16.5450301694
 10
-9.9615077294
 20
16.5370876263
 10
-9.9543399161
 20
16.5290479659
 10
-9.9477455897
 20
16.5210155154
 10
-9.9416122454
 20
16.5128859475
 10
-9.935901139
 20
16.5046641846
 10
-9.930615396
 20
16.4963660383
 10
-9.9257518908
 20
16.487975697
 10
-9.9212625024
 20
16.4794506485
 10
-9.9171386565
 20
16.470795339
 10
-9.9133889272
 20
16.4620053223
 10
-9.9099909163
 20
16.4530247483
 10
-9.9069352996
 20
16.4438573474
 10
-9.9042314013
 20
16.4344993893
 10
-9.901884795
 20
16.4248838326
 10
-9.8998863746
 20
16.4149824949
 10
-9.8982452464
 20
16.4048235587
 10
-9.8969943025
 20
16.3944245301
 10
-9.8961343509
 20
16.3836678376
 10
-9.8956645837
 20
16.3726710526
 10
-9.8956154692
 20
16.3618043961
  0
LWPOLYLINE
  5
3CC
100
AcDbEntity
  8
ASSI
100
AcDbPolyline
 62
7
  6
CONTINUOUS
 90
82
 70
0
 10
-10.4713839881
 20
16.3261737917
 10
-10.4709476395
 20
16.3421698565
 10
-10.4700762732
 20
16.3574553683
 10
-10.4687698891
 20
16.3720303273
 10
-10.4670028709
 20
16.3858442242
 10
-10.4648008349
 20
16.3989475682
 10
-10.4622406304
 20
16.4114918869
 10
-10.4593284499
 20
16.4235012173
 10
-10.4560581008
 20
16.4349515225
 10
-10.4524878549
 20
16.4459222191
 10
-10.4486348957
 20
16.4563989423
 10
-10.4444820396
 20
16.466396057
 10
-10.4400360075
 20
16.4760360743
 10
-10.4353022348
 20
16.4853353921
 10
-10.4302752861
 20
16.4942776125
 10
-10.4249455759
 20
16.5029360536
 10
-10.4193233384
 20
16.5113160255
 10
-10.4133983393
 20
16.519412218
 10
-10.4071302904
 20
16.5272820189
 10
-10.4004961123
 20
16.5349557785
 10
-10.3935188844
 20
16.5424031466
 10
-10.3862275571
 20
16.5495904593
 10
-10.3785992369
 20
16.5565369268
 10
-10.3706568172
 20
16.563223339
 10
-10.362497929
 20
16.5695584016
 10
-10.3541705129
 20
16.5755030002
 10
-10.3456266283
 20
16.5810962492
 10
-10.3368200836
 20
16.5863641979
 10
-10.327759181
 20
16.5913130535
 10
-10.3184356184
 20
16.5959366088
 10
-10.3087782976
 20
16.6002422912
 10
-10.2987945265
 20
16.6042387888
 10
-10.2884769973
 20
16.6079174135
 10
-10.2777326883
 20
16.6112595285
 10
-10.2665709703
 20
16.6142752734
 10
-10.2549824725
 20
16.6169545086
 10
-10.242846061
 20
16.6192481796
 10
-10.230086738
 20
16.6211670832
 10
-10.2167795013
 20
16.6227004225
 10
-10.2030282104
 20
16.6237667523
 10
-10.1885474812
 20
16.6243399598
 10
-10.1736226977
 20
16.6244461578
 10
-10.1592138713
 20
16.62408224
 10
-10.1456389775
 20
16.6232207248
 10
-10.1325800409
 20
16.6218890938
 10
-10.1200431464
 20
16.6201666853
 10
-10.1080695526
 20
16.6180639662
 10
-10.0966180008
 20
16.6155704697
 10
-10.0855708002
 20
16.6127341329
 10
-10.0749177453
 20
16.6095646579
 10
-10.0646690414
 20
16.6060523426
 10
-10.0547376137
 20
16.6022160187
 10
-10.0451189796
 20
16.5980656427
 10
-10.0358176215
 20
16.5935912581
 10
-10.0267599127
 20
16.5887818275
 10
-10.0179381813
 20
16.5836451348
 10
-10.0093600991
 20
16.578173396
 10
-10.0009750543
 20
16.5723322212
 10
-9.9927764513
 20
16.5661253423
 10
-9.9847708857
 20
16.5595490274
 10
-9.9769275319
 20
16.5525576909
 10
-9.9691365247
 20
16.5450301694
 10
-9.9615077294
 20
16.5370876263
 10
-9.9543399161
 20
16.5290479659
 10
-9.9477455897
 20
16.5210155154
 10
-9.9416122454
 20
16.5128859475
 10
-9.935901139
 20
16.5046641846
 10
-9.930615396
 20
16.4963660383
 10
-9.9257518908
 20
16.487975697
 10
-9.9212625024
 20
16.4794506485
 10
-9.9171386565
 20
16.470795339
 10
-9.9133889272
 20
16.4620053223
 10
-9.9099909163
 20
16.4530247483
 10
-9.9069352996
 20
16.4438573474
 10
-9.9042314013
 20
16.4344993893
 10
-9.901884795
 20
16.4248838326
 10
-9.8998863746
 20
16.4149824949
 10
-9.8982452464
 20
16.4048235587
 10
-9.8969943025
 20
16.3944245301
 10
-9.8961343509
 20
16.3836678376
 10
-9.8956645837
 20
16.3726710526
 10
-9.8956154692
 20
16.3618043961
  0
LWPOLYLINE
  5
3CD
100
AcDbEntity
  8
0
100
AcDbPolyline
 62
7
  6
CONTINUOUS
 90
32
 70
0
 10
-9.8956154692
 20
16.3618043961
 10
-9.8959842611
 20
16.3512981604
 10
-9.8967737057
 20
16.3409220531
 10
-9.8980225107
 20
16.3303554179
 10
-9.8997153694
 20
16.3195256405
 10
-9.9018675884
 20
16.3085053352
 10
-9.9045637965
 20
16.2971916888
 10
-9.9077897642
 20
16.2855803803
 10
-9.9115597209
 20
16.2736757306
 10
-9.9160009826
 20
16.261387889
 10
-9.9211102995
 20
16.2486984779
 10
-9.9268909214
 20
16.2356258748
 10
-9.9334799135
 20
16.222135361
 10
-9.9408893533
 20
16.2082023054
 10
-9.9491071633
 20
16.1938513392
 10
-9.958234177
 20
16.1791216367
 10
-9.9683017828
 20
16.1639804737
 10
-9.9792785921
 20
16.1484605746
 10
-9.9911712727
 20
16.1326992868
 10
-10.0039621264
 20
16.1167953021
 10
-10.0176688512
 20
16.1006499288
 10
-10.0323512092
 20
16.084104439
 10
-10.048032703
 20
16.0671215867
 10
-10.06468983
 20
16.049738618
 10
-10.0823118435
 20
16.031908543
 10
-10.1008599391
 20
16.0136555794
 10
-10.1203729212
 20
15.9949555093
 10
-10.1409564571
 20
15.9756886899
 10
-10.1625763925
 20
15.955873565
 10
-10.1852668817
 20
15.9354916908
 10
-10.2092360542
 20
15.9143680921
 10
-10.2349146289
 20
15.892198489
  0
LWPOLYLINE
  5
3CE
100
AcDbEntity
  8
ASSI
100
AcDbPolyline
 62
7
  6
CONTINUOUS
 90
32
 70
0
 10
-9.8956154692
 20
16.3618043961
 10
-9.8959842611
 20
16.3512981604
 10
-9.8967737057
 20
16.3409220531
 10
-9.8980225107
 20
16.3303554179
 10
-9.8997153694
 20
16.3195256405
 10
-9.9018675884
 20
16.3085053352
 10
-9.9045637965
 20
16.2971916888
 10
-9.9077897642
 20
16.2855803803
 10
-9.9115597209
 20
16.2736757306
 10
-9.9160009826
 20
16.261387889
 10
-9.9211102995
 20
16.2486984779
 10
-9.9268909214
 20
16.2356258748
 10
-9.9334799135
 20
16.222135361
 10
-9.9408893533
 20
16.2082023054
 10
-9.9491071633
 20
16.1938513392
 10
-9.958234177
 20
16.1791216367
 10
-9.9683017828
 20
16.1639804737
 10
-9.9792785921
 20
16.1484605746
 10
-9.9911712727
 20
16.1326992868
 10
-10.0039621264
 20
16.1167953021
 10
-10.0176688512
 20
16.1006499288
 10
-10.0323512092
 20
16.084104439
 10
-10.048032703
 20
16.0671215867
 10
-10.06468983
 20
16.049738618
 10
-10.0823118435
 20
16.031908543
 10
-10.1008599391
 20
16.0136555794
 10
-10.1203729212
 20
15.9949555093
 10
-10.1409564571
 20
15.9756886899
 10
-10.1625763925
 20
15.955873565
 10
-10.1852668817
 20
15.9354916908
 10
-10.2092360542
 20
15.9143680921
 10
-10.2349146289
 20
15.892198489
  0
LINE
  5
3CF
100
AcDbEntity
  8
DRAFT
100
AcDbLine
 62
7
  6
CONTINUOUS
 10
-49.3268142712
 20
34.1368360324
 11
-2.0123375756
 21
34.1368360324
  0
LINE
  5
3D0
100
AcDbEntity
  8
ASSI
100
AcDbLine
 62
7
  6
CONTINUOUS
 10
-49.3268142712
 20
34.1368360324
 11
-2.0123375756
 21
34.1368360324
  0
LINE
  5
3D1
100
AcDbEntity
  8
RACCORDO
100
AcDbLine
 62
7
  6
CONTINUOUS
 10
-5.1420858411
 20
34.2018467852
 11
-5.6695759234
 21
34.2018467852
  0
LINE
  5
3D2
100
AcDbEntity
  8
ASSI
100
AcDbLine
 62
7
  6
CONTINUOUS
 10
-5.1414596017
 20
34.2018467852
 11
-5.6695759234
 21
34.2018467852
  0
LINE
  5
3D3
100
AcDbEntity
  8
RACCORDO
100
AcDbLine
 62
7
  6
CONTINUOUS
 10
-45.6695759234
 20
34.2018467852
 11
-46.1973105786
 21
34.2018467852
  0
LINE
  5
3D4
100
AcDbEntity
  8
ASSI
100
AcDbLine
 62
7
  6
CONTINUOUS
 10
-45.6695759234
 20
34.2018467852
 11
-46.1976922451
 21
34.2018467852
  0
LINE
  5
3D5
100
AcDbEntity
  8
RACCORDO
100
AcDbLine
 62
253
  6
CONTINUOUS
 10
-5.171349802
 20
34.260425429
 11
-5.6695759234
 21
34.260425429
  0
LINE
  5
3D6
100
AcDbEntity
  8
ASSI
100
AcDbLine
 62
253
  6
CONTINUOUS
 10
-5.171349802
 20
34.260425429
 11
-5.6695759234
 21
34.260425429
  0
LINE
  5
3D7
100
AcDbEntity
  8
RACCORDO
100
AcDbLine
 62
253
  6
CONTINUOUS
 10
-45.6695759234
 20
34.260425429
 11
-46.1678020448
 21
34.260425429
  0
LINE
  5
3D8
100
AcDbEntity
  8
ASSI
100
AcDbLine
 62
253
  6
CONTINUOUS
 10
-45.6695759234
 20
34.260425429
 11
-46.1678020448
 21
34.260425429
  0
LINE
  5
3D9
100
AcDbEntity
  8
ASSI
100
AcDbLine
 62
7
  6
CONTINUOUS
 10
-9.7382289234
 20
18.9898647852
 11
-9.4075149234
 21
18.3518547852
  0
LINE
  5
3DA
100
AcDbEntity
  8
ASSI
100
AcDbLine
 62
7
  6
CONTINUOUS
 10
-9.0358069234
 20
18.3518587852
 11
-9.3870883251
 21
19.0295525601
  0
LINE
  5
3DB
100
AcDbEntity
  8
RACCORDO
100
AcDbLine
 62
253
  6
CONTINUOUS
 10
-8.1695759234
 20
3.9518467852
 11
-8.1695759234
 21
11.9518467852
  0
LINE
  5
3DC
100
AcDbEntity
  8
ASSI
100
AcDbLine
 62
253
  6
CONTINUOUS
 10
-8.1695759234
 20
3.9518467852
 11
-8.1695759234
 21
11.9518467852
  0
LINE
  5
3DD
100
AcDbEntity
  8
RACCORDO
100
AcDbLine
 62
7
  6
CONTINUOUS
 10
-7.9695759234
 20
4.1518467852
 11
-7.9695759234
 21
11.7518467852
  0
LINE
  5
3DE
100
AcDbEntity
  8
ASSI
100
AcDbLine
 62
7
  6
CONTINUOUS
 10
-7.9695759234
 20
4.1518467852
 11
-7.9695759234
 21
11.7518467852
  0
LINE
  5
3DF
100
AcDbEntity
  8
RACCORDO
100
AcDbLine
 62
7
  6
CONTINUOUS
 10
-49.3695759234
 20
34.6518467852
 11
-45.6695759234
 21
34.6518467852
  0
LINE
  5
3E0
100
AcDbEntity
  8
DRAFT
100
AcDbLine
 62
7
  6
CONTINUOUS
 10
-45.6695759234
 20
34.6518467852
 11
-5.6695759234
 21
34.6518467852
  0
LINE
  5
3E1
100
AcDbEntity
  8
RACCORDO
100
AcDbLine
 62
7
  6
CONTINUOUS
 10
-5.6695759234
 20
34.6518467852
 11
-1.9695759234
 21
34.6518467852
  0
LINE
  5
3E2
100
AcDbEntity
  8
ASSI
100
AcDbLine
 62
7
  6
CONTINUOUS
 10
-49.3695759234
 20
34.6518467852
 11
-1.9695759234
 21
34.6518467852
  0
LINE
  5
3E3
100
AcDbEntity
  8
RACCORDO
100
AcDbLine
 62
7
  6
CONTINUOUS
 10
-50.170439537
 20
35.9518467852
 11
-1.1687123097
 21
35.9518467852
  0
LINE
  5
3E4
100
AcDbEntity
  8
ASSI
100
AcDbLine
 62
7
  6
CONTINUOUS
 10
-50.170439537
 20
35.9518467852
 11
-1.1687123097
 21
35.9518467852
  0
LINE
  5
3E5
100
AcDbEntity
  8
RACCORDO
100
AcDbLine
 62
7
  6
CONTINUOUS
 10
-5.6695759234
 20
0.4518467852
 11
-5.6695759234
 21
0.9018467852
  0
LINE
  5
3E6
100
AcDbEntity
  8
ASSI
100
AcDbLine
 62
7
  6
CONTINUOUS
 10
-5.6695759234
 20
0.4518467852
 11
-5.6695759234
 21
0.9018467852
  0
LINE
  5
3E7
100
AcDbEntity
  8
RACCORDO
100
AcDbLine
 62
7
  6
CONTINUOUS
 10
-5.6695759234
 20
34.2018467852
 11
-5.6695759234
 21
34.6518467852
  0
LINE
  5
3E8
100
AcDbEntity
  8
ASSI
100
AcDbLine
 62
7
  6
CONTINUOUS
 10
-5.6695759234
 20
34.2018467852
 11
-5.6695759234
 21
34.6518467852
  0
LWPOLYLINE
  5
3E9
100
AcDbEntity
  8
RACCORDO
100
AcDbPolyline
 62
7
  6
CONTINUOUS
 90
4
 70
0
 10
-46.1970660057
 20
34.2018467852
 10
-46.1959409516
 20
34.2019884749
 10
-46.1947805509
 20
34.2024128756
 10
-46.1935848036
 20
34.2031186869
  0
LWPOLYLINE
  5
3EA
100
AcDbEntity
  8
ASSI
100
AcDbPolyline
 62
7
  6
CONTINUOUS
 90
22
 70
0
 10
-46.1970660057
 20
34.2018467852
 10
-46.1959409516
 20
34.2019884749
 10
-46.1947805509
 20
34.2024128756
 10
-46.1935848036
 20
34.2031186869
 10
-46.1923518987
 20
34.2041041716
 10
-46.1910836471
 20
34.2053672679
 10
-46.1897854817
 20
34.2069057004
 10
-46.1884573125
 20
34.2087167141
 10
-46.1870992294
 20
34.2107971854
 10
-46.1857169346
 20
34.2131439159
 10
-46.1843103583
 20
34.2157531407
 10
-46.1828795704
 20
34.2186207458
 10
-46.1814304824
 20
34.2217426678
 10
-46.1799630439
 20
34.2251141859
 10
-46.1784773052
 20
34.2287302518
 10
-46.1769793293
 20
34.2325859953
 10
-46.1754690844
 20
34.236675799
 10
-46.1739466022
 20
34.2409937391
 10
-46.1724180414
 20
34.2455341958
 10
-46.1708854546
 20
34.2502909357
 10
-46.1693467891
 20
34.2552570219
 10
-46.1678020448
 20
34.260425429
  0
LWPOLYLINE
  5
3EB
100
AcDbEntity
  8
RACCORDO
100
AcDbPolyline
 62
7
  6
CONTINUOUS
 90
4
 70
0
 10
-5.1420858411
 20
34.2018467852
 10
-5.1432108952
 20
34.2019884749
 10
-5.1443712959
 20
34.2024128756
 10
-5.1455670432
 20
34.2031186869
  0
LWPOLYLINE
  5
3EC
100
AcDbEntity
  8
ASSI
100
AcDbPolyline
 62
7
  6
CONTINUOUS
 90
22
 70
0
 10
-5.1420858411
 20
34.2018467852
 10
-5.1432108952
 20
34.2019884749
 10
-5.1443712959
 20
34.2024128756
 10
-5.1455670432
 20
34.2031186869
 10
-5.1467999481
 20
34.2041041716
 10
-5.1480681997
 20
34.2053672679
 10
-5.1493663651
 20
34.2069057004
 10
-5.1506945343
 20
34.2087167141
 10
-5.1520526174
 20
34.2107971854
 10
-5.1534349122
 20
34.2131439159
 10
-5.1548414885
 20
34.2157531407
 10
-5.1562722764
 20
34.2186207458
 10
-5.1577213644
 20
34.2217426678
 10
-5.1591888029
 20
34.2251141859
 10
-5.1606745416
 20
34.2287302518
 10
-5.1621725175
 20
34.2325859953
 10
-5.1636827624
 20
34.236675799
 10
-5.1652052445
 20
34.2409937391
 10
-5.1667338054
 20
34.2455341958
 10
-5.1682663922
 20
34.2502909357
 10
-5.1698050577
 20
34.2552570219
 10
-5.171349802
 20
34.260425429
  0
LINE
  5
3ED
100
AcDbEntity
  8
DRAFT
100
AcDbLine
 62
7
  6
CONTINUOUS
 10
-1.9695759234
 20
0.4518467852
 11
-2.0123375756
 21
0.966857538
  0
LINE
  5
3EE
100
AcDbEntity
  8
ASSI
100
AcDbLine
 62
7
  6
CONTINUOUS
 10
-1.9695759234
 20
0.4518467852
 11
-2.0123375756
 21
0.966857538
  0
LINE
  5
3EF
100
AcDbEntity
  8
DRAFT
100
AcDbLine
 62
7
  6
CONTINUOUS
 10
-2.0123375756
 20
34.1368360324
 11
-1.9695759234
 21
34.6518467852
  0
LINE
  5
3F0
100
AcDbEntity
  8
ASSI
100
AcDbLine
 62
7
  6
CONTINUOUS
 10
-2.0123375756
 20
34.1368360324
 11
-1.9695759234
 21
34.6518467852
  0
LINE
  5
3F1
100
AcDbEntity
  8
RACCORDO
100
AcDbLine
 62
7
  6
CONTINUOUS
 10
-2.0166383534
 20
13.9054366237
 11
-2.0132729184
 21
13.2374874313
  0
LINE
  5
3F2
100
AcDbEntity
  8
ASSI
100
AcDbLine
 62
7
  6
CONTINUOUS
 10
-2.0166383534
 20
13.9054366237
 11
-2.0132729184
 21
13.2374874313
  0
LINE
  5
3F3
100
AcDbEntity
  8
RACCORDO
100
AcDbLine
 62
7
  6
CONTINUOUS
 10
-2.0175736962
 20
14.3054366237
 11
-2.0175736962
 21
20.7982569467
  0
LINE
  5
3F4
100
AcDbEntity
  8
ASSI
100
AcDbLine
 62
7
  6
CONTINUOUS
 10
-2.0175736962
 20
14.3054366237
 11
-2.0175736962
 21
20.7982569467
  0
LINE
  5
3F5
100
AcDbEntity
  8
RACCORDO
100
AcDbLine
 62
7
  6
CONTINUOUS
 10
-2.0123375756
 20
34.1368360324
 11
-2.0123375756
 21
22.2662061392
  0
LINE
  5
3F6
100
AcDbEntity
  8
ASSI
100
AcDbLine
 62
7
  6
CONTINUOUS
 10
-2.0123375756
 20
34.1368360324
 11
-2.0123375756
 21
22.2662061392
  0
LINE
  5
3F7
100
AcDbEntity
  8
RACCORDO
100
AcDbLine
 62
7
  6
CONTINUOUS
 10
-2.0123375756
 20
12.8374874313
 11
-2.0123375756
 21
0.966857538
  0
LINE
  5
3F8
100
AcDbEntity
  8
ASSI
100
AcDbLine
 62
7
  6
CONTINUOUS
 10
-2.0123375756
 20
12.8374874313
 11
-2.0123375756
 21
0.966857538
  0
LINE
  5
3F9
100
AcDbEntity
  8
DRAFT
100
AcDbLine
 62
7
  6
CONTINUOUS
 10
-1.9695759234
 20
34.6518467852
 11
-1.9695759234
 21
0.4518467852
  0
LINE
  5
3FA
100
AcDbEntity
  8
ASSI
100
AcDbLine
 62
7
  6
CONTINUOUS
 10
-1.9695759234
 20
34.6518467852
 11
-1.9695759234
 21
0.4518467852
  0
LINE
  5
3FB
100
AcDbEntity
  8
RACCORDO
100
AcDbLine
 62
7
  6
CONTINUOUS
 10
-0.8695759234
 20
35.6481420007
 11
-0.8695759234
 21
-0.5444484302
  0
LINE
  5
3FC
100
AcDbEntity
  8
ASSI
100
AcDbLine
 62
7
  6
CONTINUOUS
 10
-0.8695759234
 20
35.6481420007
 11
-0.8695759234
 21
-0.5444484302
  0
LINE
  5
3FD
100
AcDbEntity
  8
RACCORDO
100
AcDbLine
 62
7
  6
CONTINUOUS
 10
-2.0132729184
 20
21.8662061392
 11
-2.0166383534
 21
21.1982569467
  0
LINE
  5
3FE
100
AcDbEntity
  8
ASSI
100
AcDbLine
 62
7
  6
CONTINUOUS
 10
-2.0132729184
 20
21.8662061392
 11
-2.0166383534
 21
21.1982569467
  0
LINE
  5
3FF
100
AcDbEntity
  8
RACCORDO
100
AcDbLine
 62
7
  6
CONTINUOUS
 10
-5.1698050577
 20
0.8484365486
 11
-5.171349802
 21
0.8432681415
  0
LINE
  5
400
100
AcDbEntity
  8
RACCORDO
100
AcDbLine
 62
7
  6
CONTINUOUS
 10
-5.1682663922
 20
0.8534026347
 11
-5.1698050577
 21
0.8484365486
  0
LINE
  5
401
100
AcDbEntity
  8
RACCORDO
100
AcDbLine
 62
7
  6
CONTINUOUS
 10
-5.1682663922
 20
34.2502909357
 11
-5.1698050577
 21
34.2552570219
  0
LINE
  5
402
100
AcDbEntity
  8
RACCORDO
100
AcDbLine
 62
7
  6
CONTINUOUS
 10
-5.1698050577
 20
34.2552570219
 11
-5.171349802
 21
34.260425429
  0
LWPOLYLINE
  5
403
100
AcDbEntity
  8
RACCORDO
100
AcDbPolyline
 62
7
  6
CONTINUOUS
 90
17
 70
0
 10
-5.1455670432
 20
0.9005748836
 10
-5.1467999481
 20
0.8995893989
 10
-5.1480681997
 20
0.8983263025
 10
-5.1493663651
 20
0.89678787
 10
-5.1506945343
 20
0.8949768563
 10
-5.1520526174
 20
0.8928963851
 10
-5.1534349122
 20
0.8905496545
 10
-5.1548414885
 20
0.8879404297
 10
-5.1562722764
 20
0.8850728247
 10
-5.1577213644
 20
0.8819509027
 10
-5.1591888029
 20
0.8785793845
 10
-5.1606745416
 20
0.8749633186
 10
-5.1621725175
 20
0.8711075752
 10
-5.1636827624
 20
0.8670177715
 10
-5.1652052445
 20
0.8626998314
 10
-5.1667338054
 20
0.8581593747
 10
-5.1682663922
 20
0.8534026347
  0
LINE
  5
404
100
AcDbEntity
  8
RACCORDO
100
AcDbLine
 62
7
  6
CONTINUOUS
 10
-5.1455670432
 20
34.2031186869
 11
-5.1467999481
 21
34.2041041716
  0
LWPOLYLINE
  5
405
100
AcDbEntity
  8
RACCORDO
100
AcDbPolyline
 62
7
  6
CONTINUOUS
 90
16
 70
0
 10
-5.1467999481
 20
34.2041041716
 10
-5.1480681997
 20
34.2053672679
 10
-5.1493663651
 20
34.2069057004
 10
-5.1506945343
 20
34.2087167141
 10
-5.1520526174
 20
34.2107971854
 10
-5.1534349122
 20
34.2131439159
 10
-5.1548414885
 20
34.2157531407
 10
-5.1562722764
 20
34.2186207458
 10
-5.1577213644
 20
34.2217426678
 10
-5.1591888029
 20
34.2251141859
 10
-5.1606745416
 20
34.2287302518
 10
-5.1621725175
 20
34.2325859953
 10
-5.1636827624
 20
34.236675799
 10
-5.1652052445
 20
34.2409937391
 10
-5.1667338054
 20
34.2455341958
 10
-5.1682663922
 20
34.2502909357
  0
ARC
  5
406
100
AcDbEntity
  8
RACCORDO
100
AcDbCircle
 62
7
  6
CONTINUOUS
 10
-33.1695759234
 20
4.1518467852
 40
0.2
100
AcDbArc
 50
270.0
 51
360.0
  0
ARC
  5
407
100
AcDbEntity
  8
RACCORDO
100
AcDbCircle
 62
7
  6
CONTINUOUS
 10
-34.1695759234
 20
4.1518467852
 40
0.2
100
AcDbArc
 50
180.0
 51
270.0
  0
ARC
  5
408
100
AcDbEntity
  8
RACCORDO
100
AcDbCircle
 62
7
  6
CONTINUOUS
 10
-33.1695759234
 20
11.7518467852
 40
0.2
100
AcDbArc
 50
0.0
 51
90.0
  0
ARC
  5
409
100
AcDbEntity
  8
RACCORDO
100
AcDbCircle
 62
7
  6
CONTINUOUS
 10
-34.1695759234
 20
11.7518467852
 40
0.2
100
AcDbArc
 50
90.0
 51
180.0
  0
ARC
  5
40A
100
AcDbEntity
  8
ASSI
100
AcDbCircle
 62
7
  6
CONTINUOUS
 10
-33.1695759234
 20
4.1518467852
 40
0.2
100
AcDbArc
 50
270.0
 51
360.0
  0
ARC
  5
40B
100
AcDbEntity
  8
ASSI
100
AcDbCircle
 62
7
  6
CONTINUOUS
 10
-34.1695759234
 20
4.1518467852
 40
0.2
100
AcDbArc
 50
180.0
 51
270.0
  0
ARC
  5
40C
100
AcDbEntity
  8
ASSI
100
AcDbCircle
 62
7
  6
CONTINUOUS
 10
-33.1695759234
 20
11.7518467852
 40
0.2
100
AcDbArc
 50
0.0
 51
90.0
  0
ARC
  5
40D
100
AcDbEntity
  8
ASSI
100
AcDbCircle
 62
7
  6
CONTINUOUS
 10
-34.1695759234
 20
11.7518467852
 40
0.2
100
AcDbArc
 50
90.0
 51
180.0
  0
CIRCLE
  5
40E
100
AcDbEntity
  8
RACCORDO
100
AcDbCircle
 62
7
  6
CONTINUOUS
 10
-25.6695759234
 20
17.5518467852
 40
2.75
  0
CIRCLE
  5
40F
100
AcDbEntity
  8
ASSI
100
AcDbCircle
 62
7
  6
CONTINUOUS
 10
-25.6695759234
 20
17.5518467852
 40
2.75
  0
CIRCLE
  5
410
100
AcDbEntity
  8
RACCORDO
100
AcDbCircle
 62
253
  6
CONTINUOUS
 10
-25.6695759234
 20
17.5518467852
 40
2.249999999
  0
CIRCLE
  5
411
100
AcDbEntity
  8
ASSI
100
AcDbCircle
 62
253
  6
CONTINUOUS
 10
-25.6695759234
 20
17.5518467852
 40
2.249999999
  0
CIRCLE
  5
412
100
AcDbEntity
  8
0
100
AcDbCircle
 62
7
  6
CONTINUOUS
 10
-25.6695759234
 20
17.5518467852
 40
1.775
  0
CIRCLE
  5
413
100
AcDbEntity
  8
ASSI
100
AcDbCircle
 62
7
  6
CONTINUOUS
 10
-25.6695759234
 20
17.5518467852
 40
1.775
  0
CIRCLE
  5
414
100
AcDbEntity
  8
0
100
AcDbCircle
 62
7
  6
CONTINUOUS
 10
-25.6695759234
 20
17.5518467852
 40
1.7
  0
CIRCLE
  5
415
100
AcDbEntity
  8
ASSI
100
AcDbCircle
 62
7
  6
CONTINUOUS
 10
-25.6695759234
 20
17.5518467852
 40
1.7
  0
CIRCLE
  5
416
100
AcDbEntity
  8
DRAFT
100
AcDbCircle
 62
7
  6
CONTINUOUS
 10
-25.6695759234
 20
17.5518467852
 40
1.25
  0
CIRCLE
  5
417
100
AcDbEntity
  8
DRAFT
100
AcDbCircle
 62
7
  6
CONTINUOUS
 10
-25.6695759234
 20
17.5518467852
 40
1.2185839459
  0
ARC
  5
418
100
AcDbEntity
  8
RACCORDO
100
AcDbCircle
 62
7
  6
CONTINUOUS
 10
-8.1695759234
 20
11.7518467852
 40
0.2
100
AcDbArc
 50
0.0
 51
90.0
  0
ARC
  5
419
100
AcDbEntity
  8
RACCORDO
100
AcDbCircle
 62
7
  6
CONTINUOUS
 10
-9.1695759234
 20
11.7518467852
 40
0.2
100
AcDbArc
 50
90.0
 51
180.0
  0
ARC
  5
41A
100
AcDbEntity
  8
RACCORDO
100
AcDbCircle
 62
7
  6
CONTINUOUS
 10
-9.1695759234
 20
4.1518467852
 40
0.2
100
AcDbArc
 50
180.0
 51
270.0
  0
ARC
  5
41B
100
AcDbEntity
  8
RACCORDO
100
AcDbCircle
 62
7
  6
CONTINUOUS
 10
-8.1695759234
 20
4.1518467852
 40
0.2
100
AcDbArc
 50
270.0
 51
360.0
  0
ARC
  5
41C
100
AcDbEntity
  8
ASSI
100
AcDbCircle
 62
7
  6
CONTINUOUS
 10
-8.1695759234
 20
11.7518467852
 40
0.2
100
AcDbArc
 50
0.0
 51
90.0
  0
ARC
  5
41D
100
AcDbEntity
  8
ASSI
100
AcDbCircle
 62
7
  6
CONTINUOUS
 10
-9.1695759234
 20
11.7518467852
 40
0.2
100
AcDbArc
 50
90.0
 51
180.0
  0
ARC
  5
41E
100
AcDbEntity
  8
ASSI
100
AcDbCircle
 62
7
  6
CONTINUOUS
 10
-9.1695759234
 20
4.1518467852
 40
0.2
100
AcDbArc
 50
180.0
 51
270.0
  0
ARC
  5
41F
100
AcDbEntity
  8
ASSI
100
AcDbCircle
 62
7
  6
CONTINUOUS
 10
-8.1695759234
 20
4.1518467852
 40
0.2
100
AcDbArc
 50
270.0
 51
360.0
  0
ARC
  5
420
100
AcDbEntity
  8
ASSI
100
AcDbCircle
 62
7
  6
CONTINUOUS
 10
-9.5835329234
 20
19.4958987852
 40
0.5060329798
100
AcDbArc
 50
292.8428677796
 51
89.9958672882
  0
ARC
  5
421
100
AcDbEntity
  8
ASSI
100
AcDbCircle
 62
7
  6
CONTINUOUS
 10
-9.6293379234
 20
19.4958987852
 40
0.200769
100
AcDbArc
 50
270.0043541036
 51
89.9956458964
  0
ELLIPSE
  5
422
100
AcDbEntity
  8
RACCORDO
100
AcDbEllipse
 62
7
  6
CONTINUOUS
 10
-50.169530225
 20
-0.5435252312
 30
0.0
 11
-0.0300136675
 21
-0.3031910442
 31
0.0
 40
0.9846622838
 41
-1.4705984321
 42
0.0971673115
  0
ELLIPSE
  5
423
100
AcDbEntity
  8
RACCORDO
100
AcDbEllipse
 62
7
  6
CONTINUOUS
 10
-50.169530225
 20
35.6472188017
 30
0.0
 11
0.0300136675
 21
-0.3031910442
 31
0.0
 40
0.9846622838
 41
3.0444253421
 42
4.6121910857
  0
ELLIPSE
  5
424
100
AcDbEntity
  8
RACCORDO
100
AcDbEllipse
 62
7
  6
CONTINUOUS
 10
-1.1696216218
 20
35.6472188017
 30
0.0
 11
0.0300136675
 21
0.3031910442
 31
0.0
 40
0.9846622838
 41
-1.4705984321
 42
0.0971673115
  0
ELLIPSE
  5
425
100
AcDbEntity
  8
RACCORDO
100
AcDbEllipse
 62
7
  6
CONTINUOUS
 10
-1.1696216218
 20
-0.5435252312
 30
0.0
 11
-0.0300136675
 21
0.3031910442
 31
0.0
 40
0.9846622838
 41
3.0444253421
 42
4.6121910857
  0
ELLIPSE
  5
426
100
AcDbEntity
  8
RACCORDO
100
AcDbEllipse
 62
7
  6
CONTINUOUS
 10
-2.0193190698
 20
22.2662061392
 30
0.0
 11
0.0
 21
0.8
 31
0.0
 40
0.0087268678
 41
-2.0943951024
 42
-1.5707963268
  0
ELLIPSE
  5
427
100
AcDbEntity
  8
RACCORDO
100
AcDbEllipse
 62
7
  6
CONTINUOUS
 10
-49.319832777
 20
22.2662061392
 30
0.0
 11
0.0
 21
0.8
 31
0.0
 40
0.0087268678
 41
1.5707963268
 42
2.0943951024
  0
ELLIPSE
  5
428
100
AcDbEntity
  8
RACCORDO
100
AcDbEllipse
 62
7
  6
CONTINUOUS
 10
-2.010592202
 20
14.3054366237
 30
0.0
 11
0.0
 21
0.8
 31
0.0
 40
0.0087268678
 41
-4.7123889804
 42
-4.1887902048
  0
ELLIPSE
  5
429
100
AcDbEntity
  8
RACCORDO
100
AcDbEllipse
 62
7
  6
CONTINUOUS
 10
-4.4622926524
 20
0.4850662597
 30
0.0
 11
0.7617521624
 21
-0.0249314015
 31
0.0
 40
0.0288198169
 41
-0.7219695253
 42
0.106221468
  0
ELLIPSE
  5
42A
100
AcDbEntity
  8
RACCORDO
100
AcDbEllipse
 62
7
  6
CONTINUOUS
 10
-49.3285596448
 20
14.3054366237
 30
0.0
 11
0.0
 21
0.8
 31
0.0
 40
0.0087268678
 41
-2.0943951024
 42
-1.5707963268
  0
ELLIPSE
  5
42B
100
AcDbEntity
  8
RACCORDO
100
AcDbEllipse
 62
7
  6
CONTINUOUS
 10
-49.3285596448
 20
20.7982569467
 30
0.0
 11
-0.0
 21
0.8
 31
0.0
 40
0.0087268678
 41
-1.5707963268
 42
-1.0471975512
  0
ELLIPSE
  5
42C
100
AcDbEntity
  8
RACCORDO
100
AcDbEllipse
 62
7
  6
CONTINUOUS
 10
-2.010592202
 20
20.7982569467
 30
0.0
 11
0.0
 21
0.8
 31
0.0
 40
0.0087268678
 41
1.0471975512
 42
1.5707963268
  0
ELLIPSE
  5
42D
100
AcDbEntity
  8
RACCORDO
100
AcDbEllipse
 62
7
  6
CONTINUOUS
 10
-2.0193190698
 20
12.8374874313
 30
0.0
 11
0.0
 21
0.8
 31
0.0
 40
0.0087268678
 41
-1.5707963268
 42
-1.0471975512
  0
ELLIPSE
  5
42E
100
AcDbEntity
  8
RACCORDO
100
AcDbEllipse
 62
7
  6
CONTINUOUS
 10
-46.8768591944
 20
34.6186273108
 30
0.0
 11
0.7617521624
 21
-0.0249314015
 31
0.0
 40
0.0288198169
 41
2.4196231283
 42
3.2478141216
  0
ELLIPSE
  5
42F
100
AcDbEntity
  8
RACCORDO
100
AcDbEllipse
 62
7
  6
CONTINUOUS
 10
-49.319832777
 20
12.8374874313
 30
0.0
 11
0.0
 21
0.8
 31
0.0
 40
0.0087268678
 41
1.0471975512
 42
1.5707963268
  0
ELLIPSE
  5
430
100
AcDbEntity
  8
ASSI
100
AcDbEllipse
 62
7
  6
CONTINUOUS
 10
-50.169530225
 20
-0.5435252312
 30
0.0
 11
-0.0300136675
 21
-0.3031910442
 31
0.0
 40
0.9846622838
 41
-1.4705984321
 42
0.0971673115
  0
ELLIPSE
  5
431
100
AcDbEntity
  8
ASSI
100
AcDbEllipse
 62
7
  6
CONTINUOUS
 10
-50.169530225
 20
35.6472188017
 30
0.0
 11
0.0300136675
 21
-0.3031910442
 31
0.0
 40
0.9846622838
 41
3.0444253421
 42
4.6121910857
  0
ELLIPSE
  5
432
100
AcDbEntity
  8
ASSI
100
AcDbEllipse
 62
7
  6
CONTINUOUS
 10
-1.1696216218
 20
35.6472188017
 30
0.0
 11
0.0300136675
 21
0.3031910442
 31
0.0
 40
0.9846622838
 41
-1.4705984321
 42
0.0971673115
  0
ELLIPSE
  5
433
100
AcDbEntity
  8
ASSI
100
AcDbEllipse
 62
7
  6
CONTINUOUS
 10
-1.1696216218
 20
-0.5435252312
 30
0.0
 11
-0.0300136675
 21
0.3031910442
 31
0.0
 40
0.9846622838
 41
3.0444253421
 42
4.6121910857
  0
ELLIPSE
  5
434
100
AcDbEntity
  8
ASSI
100
AcDbEllipse
 62
7
  6
CONTINUOUS
 10
-46.8768591944
 20
0.4850662597
 30
0.0
 11
0.7617521624
 21
0.0249314015
 31
0.0
 40
0.0288198169
 41
3.0353711856
 42
3.8635621789
  0
ELLIPSE
  5
435
100
AcDbEntity
  8
ASSI
100
AcDbEllipse
 62
7
  6
CONTINUOUS
 10
-2.010592202
 20
14.3054366237
 30
0.0
 11
0.0
 21
0.8
 31
0.0
 40
0.0087268678
 41
-4.7123889804
 42
-4.1887902048
  0
ELLIPSE
  5
436
100
AcDbEntity
  8
ASSI
100
AcDbEllipse
 62
7
  6
CONTINUOUS
 10
-49.3285596448
 20
14.3054366237
 30
0.0
 11
0.0
 21
0.8
 31
0.0
 40
0.0087268678
 41
-2.0943951024
 42
-1.5707963268
  0
ELLIPSE
  5
437
100
AcDbEntity
  8
ASSI
100
AcDbEllipse
 62
7
  6
CONTINUOUS
 10
-4.4622926524
 20
0.4850662597
 30
0.0
 11
0.7617521624
 21
-0.0249314015
 31
0.0
 40
0.0288198169
 41
-0.7219695253
 42
0.106221468
  0
ELLIPSE
  5
438
100
AcDbEntity
  8
ASSI
100
AcDbEllipse
 62
7
  6
CONTINUOUS
 10
-49.3285596448
 20
20.7982569467
 30
0.0
 11
-0.0
 21
0.8
 31
0.0
 40
0.0087268678
 41
-1.5707963268
 42
-1.0471975512
  0
ELLIPSE
  5
439
100
AcDbEntity
  8
ASSI
100
AcDbEllipse
 62
7
  6
CONTINUOUS
 10
-2.010592202
 20
20.7982569467
 30
0.0
 11
0.0
 21
0.8
 31
0.0
 40
0.0087268678
 41
1.0471975512
 42
1.5707963268
  0
ELLIPSE
  5
43A
100
AcDbEntity
  8
ASSI
100
AcDbEllipse
 62
7
  6
CONTINUOUS
 10
-4.4622926524
 20
34.6186273108
 30
0.0
 11
0.7617521624
 21
0.0249314015
 31
0.0
 40
0.0288198169
 41
-0.106221468
 42
0.7219695253
  0
ELLIPSE
  5
43B
100
AcDbEntity
  8
ASSI
100
AcDbEllipse
 62
7
  6
CONTINUOUS
 10
-2.0193190698
 20
12.8374874313
 30
0.0
 11
0.0
 21
0.8
 31
0.0
 40
0.0087268678
 41
-1.5707963268
 42
-1.0471975512
  0
ELLIPSE
  5
43C
100
AcDbEntity
  8
ASSI
100
AcDbEllipse
 62
7
  6
CONTINUOUS
 10
-49.319832777
 20
12.8374874313
 30
0.0
 11
0.0
 21
0.8
 31
0.0
 40
0.0087268678
 41
1.0471975512
 42
1.5707963268
  0
ELLIPSE
  5
43D
100
AcDbEntity
  8
ASSI
100
AcDbEllipse
 62
7
  6
CONTINUOUS
 10
-46.8768591944
 20
34.6186273108
 30
0.0
 11
0.7617521624
 21
-0.0249314015
 31
0.0
 40
0.0288198169
 41
2.4196231283
 42
3.2478141216
  0
ELLIPSE
  5
43E
100
AcDbEntity
  8
ASSI
100
AcDbEllipse
 62
7
  6
CONTINUOUS
 10
-2.0193190698
 20
22.2662061392
 30
0.0
 11
0.0
 21
0.8
 31
0.0
 40
0.0087268678
 41
-2.0943951024
 42
-1.5707963268
  0
ELLIPSE
  5
43F
100
AcDbEntity
  8
ASSI
100
AcDbEllipse
 62
7
  6
CONTINUOUS
 10
-49.319832777
 20
22.2662061392
 30
0.0
 11
0.0
 21
0.8
 31
0.0
 40
0.0087268678
 41
1.5707963268
 42
2.0943951024
  0
ENDSEC
  0
SECTION
  2
OBJECTS
  0
DICTIONARY
  5
C
100
AcDbDictionary
280
0
281
1
  3
ACAD_GROUP
350
D
  3
ACAD_MLINESTYLE
350
17
  3
ACAD_LAYOUT
350
1A
  3
ACAD_PLOTSETTINGS
350
19
  3
ACAD_PLOTSTYLENAME
350
E
  0
DICTIONARY
  5
D
102
{ACAD_REACTORS
330
C
102
}
100
AcDbDictionary
280
0
281
1
  0
ACDBDICTIONARYWDFLT
  5
E
102
{ACAD_REACTORS
330
C
102
}
100
AcDbDictionary
281
1
  3
Normal
350
F
100
AcDbDictionaryWithDefault
340
F
  0
DICTIONARY
  5
17
102
{ACAD_REACTORS
330
C
102
}
100
AcDbDictionary
280
0
281
1
  3
Standard
350
18
  0
DICTIONARY
  5
19
102
{ACAD_REACTORS
330
C
102
}
100
AcDbDictionary
281
1
  0
DICTIONARY
  5
1A
102
{ACAD_REACTORS
330
C
102
}
100
AcDbDictionary
281
1
  3
Model
350
440
  3
Layout1
350
441
  0
ACDBPLACEHOLDER
  5
F
102
{ACAD_REACTORS
330
E
102
}
  0
MLINESTYLE
  5
18
102
{ACAD_REACTORS
330
17
102
}
100
AcDbMlineStyle
  2
STANDARD
 70
0
  3

 62
256
 51
90.0
 52
90.0
 71
2
 49
0.5
 62
256
  6
BYLAYER
 49
-0.5
 62
256
  6
BYLAYER
  0
LAYOUT
  5
440
102
{ACAD_REACTORS
330
1A
102
}
100
AcDbPlotSettings
  1

  2
none_device
  4
ISO_A4_(297.00_x_210.00_MM)
  6

 40
0.0
 41
0.0
 42
0.0
 43
0.0
 44
297.0
 45
210.0
 46
0.0
 47
0.0
 48
0.0
 49
0.0
140
0.0
141
0.0
142
1.0
143
1.0
 70
1024
 72
1
 73
0
 74
0
  7

 75
0
147
1.0
148
0.0
149
0.0
100
AcDbLayout
  1
Model
 70
0
 71
0
 10
0.0
 20
0.0
 11
297.0
 21
210.0
 12
0.0
 22
0.0
 32
0.0
 14
0.0
 24
0.0
 34
0.0
 15
0.0
 25
0.0
 35
0.0
146
0.0
 13
0.0
 23
0.0
 33
0.0
 16
1.0
 26
0.0
 36
0.0
 17
0.0
 27
1.0
 37
0.0
 76
0
330
214
345
0
346
0
  0
LAYOUT
  5
441
102
{ACAD_REACTORS
330
1A
102
}
100
AcDbPlotSettings
  1

  2
none_device
  4
ISO_A4_(297.00_x_210.00_MM)
  6

 40
0.0
 41
0.0
 42
0.0
 43
0.0
 44
297.0
 45
210.0
 46
0.0
 47
0.0
 48
0.0
 49
0.0
140
0.0
141
0.0
142
1.0
143
1.0
 70
0
 72
1
 73
0
 74
0
  7

 75
0
147
1.0
148
0.0
149
0.0
100
AcDbLayout
  1
Layout1
 70
0
 71
1
 10
0.0
 20
0.0
 11
297.0
 21
210.0
 12
0.0
 22
0.0
 32
0.0
 14
0.0
 24
0.0
 34
0.0
 15
0.0
 25
0.0
 35
0.0
146
0.0
 13
0.0
 23
0.0
 33
0.0
 16
1.0
 26
0.0
 36
0.0
 17
0.0
 27
1.0
 37
0.0
 76
0
330
215
345
0
346
0
  0
ENDSEC
  0
EOF
