  0
SECTION
  2
HEADER
  9
$ACADVER
  1
AC1024
  9
$DWGCODEPAGE
  3
ANSI_1252
  9
$EXTMAX
 10
297.0
 20
210.0
 30
0.0
  9
$EXTMIN
 10
0.0
 20
0.0
 30
0.0
  9
$LIMMIN
 10
0.0
 20
0.0
  9
$LIMMAX
 10
297.0
 20
210.0
  9
$VIEWCTR
 10
148.5
 20
105.0
  9
$VIEWSIZE
 40
210.0
  9
$CLAYER
  8
0
  9
$LTSCALE
 40
16.335
  9
$CELTYPE
  6
BYLAYER
  9
$DIMSCALE
 40
1.0
  9
$DIMASZ
 40
3.0
  9
$DIMEXO
 40
0.5
  9
$DIMDLI
 40
11.286
  9
$DIMEXE
 40
1.5
  9
$DIMCEN
 40
2.673
  9
$DIMLFAC
 40
1.0
  9
$DIMBLK
  1
_FILLED
  9
$DIMALT
 70
0
  9
$DIMALTF
 40
0.0393700787
  9
$DIMTXT
 40
3.0
  9
$DIMTOL
 70
1
  9
$DIMLIM
 70
0
  9
$DIMTFAC
 40
1.0
  9
$DIMTP
 40
0.01
  9
$DIMTM
 40
0.01
  9
$DIMGAP
 40
0.625
  9
$DIMDSEP
 70
44
  9
$AUNITS
 70
0
  9
$PDMODE
 70
3
  9
$PDSIZE
 40
3.0
  9
$HANDSEED
  5
81A
  9
$TILEMODE
 70
1
  9
$MEASUREMENT
 70
1
  9
$INSUNITS
 70
4
  0
ENDSEC
  0
SECTION
  2
CLASSES
  0
CLASS
  1
ACDBDICTIONARYWDFLT
  2
AcDbDictionaryWithDefault
  3
AutoCAD 2000
 90
0
 91
1
280
0
281
0
  0
CLASS
  1
ACDBPLACEHOLDER
  2
AcDbPlaceHolder
  3
AutoCAD 2000
 90
0
 91
1
280
0
281
0
  0
CLASS
  1
LAYOUT
  2
AcDbLayout
  3
AutoCAD 2000
 90
0
 91
0
280
0
281
0
  0
ENDSEC
  0
SECTION
  2
TABLES
  0
TABLE
  2
VPORT
  5
8
100
AcDbSymbolTable
 70
2
  0
VPORT
  5
1F4
100
AcDbSymbolTableRecord
100
AcDbViewportTableRecord
  2
*ACTIVE
 70
0
 10
0.0
 20
0.0
 11
1.0
 21
1.0
 12
148.5
 22
105.0
 13
0.0
 23
0.0
 14
1.0
 24
1.0
 15
0.0
 25
0.0
 16
0.0
 26
0.0
 36
1.0
 17
0.0
 27
0.0
 37
0.0
 40
210.0
 41
1.4142857143
 42
50.0
 43
0.0
 44
0.0
 50
0.0
 51
0.0
 71
0
 72
100
 73
1
 74
1
 75
0
 76
0
 77
0
 78
0
  0
ENDTAB
  0
TABLE
  2
LTYPE
  5
5
100
AcDbSymbolTable
 70
6
  0
LTYPE
  5
14
100
AcDbSymbolTableRecord
100
AcDbLinetypeTableRecord
  2
BYBLOCK
 70
0
  3

 72
65
 73
0
 40
0.0
  0
LTYPE
  5
15
100
AcDbSymbolTableRecord
100
AcDbLinetypeTableRecord
  2
BYLAYER
 70
0
  3

 72
65
 73
0
 40
0.0
  0
LTYPE
  5
16
100
AcDbSymbolTableRecord
100
AcDbLinetypeTableRecord
  2
CONTINUOUS
 70
64
  3
Solid line
 72
65
 73
0
 40
0.0
  0
LTYPE
  5
1F5
100
AcDbSymbolTableRecord
100
AcDbLinetypeTableRecord
  2
CENTER
 70
64
  3
____ _ ____ _ ____ _ ____ _ ____ _ ____ _ ____
 72
65
 73
4
 40
0.6
 49
0.375
 74
0
 49
-0.075
 74
0
 49
0.075
 74
0
 49
-0.075
 74
0
  0
LTYPE
  5
1F6
100
AcDbSymbolTableRecord
100
AcDbLinetypeTableRecord
  2
HIDDEN
 70
64
  3
- - - - - - - - - - - - - - - - - - - -
 72
65
 73
2
 40
0.2
 49
0.1
 74
0
 49
-0.1
 74
0
  0
LTYPE
  5
1F7
100
AcDbSymbolTableRecord
100
AcDbLinetypeTableRecord
  2
PHANTOM
 70
64
  3
_____ _ _ _____ _ _ _____ _ _ _____
 72
65
 73
6
 40
0.8
 49
0.45
 74
0
 49
-0.05
 74
0
 49
0.1
 74
0
 49
-0.05
 74
0
 49
0.1
 74
0
 49
-0.05
 74
0
  0
LTYPE
  5
1F8
100
AcDbSymbolTableRecord
100
AcDbLinetypeTableRecord
  2
DOT
 70
64
  3
. . . . . . . . . . . . . . . . . . . .
 72
65
 73
2
 40
0.2
 49
0.1
 74
0
 49
-0.1
 74
0
  0
LTYPE
  5
1F9
100
AcDbSymbolTableRecord
100
AcDbLinetypeTableRecord
  2
DASHED
 70
64
  3
- - - - - - - - - - - - - - - - - - - -
 72
65
 73
2
 40
0.2
 49
0.1
 74
0
 49
-0.1
 74
0
  0
ENDTAB
  0
TABLE
  2
LAYER
  5
2
100
AcDbSymbolTable
 70
36
  0
LAYER
  5
10
100
AcDbSymbolTableRecord
100
AcDbLayerTableRecord
  2
0
 70
0
 62
7
  6
CONTINUOUS
370
-3
390
F
  0
LAYER
  5
1FA
100
AcDbSymbolTableRecord
100
AcDbLayerTableRecord
  2
DEFAULT_1
 70
0
 62
7
  6
CENTER
370
-3
390
F
  0
LAYER
  5
1FB
100
AcDbSymbolTableRecord
100
AcDbLayerTableRecord
  2
DEFAULT_2
 70
0
 62
7
  6
HIDDEN
370
-3
390
F
  0
LAYER
  5
1FC
100
AcDbSymbolTableRecord
100
AcDbLayerTableRecord
  2
DEFAULT_3
 70
0
 62
7
  6
PHANTOM
370
-3
390
F
  0
LAYER
  5
1FD
100
AcDbSymbolTableRecord
100
AcDbLayerTableRecord
  2
ASSI
 70
0
 62
7
  6
CONTINUOUS
370
-3
390
F
  0
LAYER
  5
1FE
100
AcDbSymbolTableRecord
100
AcDbLayerTableRecord
  2
COORDINATE
 70
0
 62
7
  6
CONTINUOUS
370
-3
390
F
  0
LAYER
  5
1FF
100
AcDbSymbolTableRecord
100
AcDbLayerTableRecord
  2
COORD_ORIGINE
 70
0
 62
7
  6
CONTINUOUS
370
-3
390
F
  0
LAYER
  5
200
100
AcDbSymbolTableRecord
100
AcDbLayerTableRecord
  2
COPY-PUBBLISH
 70
0
 62
7
  6
CONTINUOUS
370
-3
390
F
  0
LAYER
  5
201
100
AcDbSymbolTableRecord
100
AcDbLayerTableRecord
  2
COPY_PUBLISH
 70
0
 62
7
  6
CONTINUOUS
370
-3
390
F
  0
LAYER
  5
202
100
AcDbSymbolTableRecord
100
AcDbLayerTableRecord
  2
COSMETICHE
 70
0
 62
7
  6
CONTINUOUS
370
-3
390
F
  0
LAYER
  5
203
100
AcDbSymbolTableRecord
100
AcDbLayerTableRecord
  2
COSMETICI
 70
0
 62
7
  6
CONTINUOUS
370
-3
390
F
  0
LAYER
  5
204
100
AcDbSymbolTableRecord
100
AcDbLayerTableRecord
  2
CURVE
 70
0
 62
7
  6
CONTINUOUS
370
-3
390
F
  0
LAYER
  5
205
100
AcDbSymbolTableRecord
100
AcDbLayerTableRecord
  2
DRAFT
 70
0
 62
7
  6
CONTINUOUS
370
-3
390
F
  0
LAYER
  5
206
100
AcDbSymbolTableRecord
100
AcDbLayerTableRecord
  2
IGES
 70
0
 62
7
  6
CONTINUOUS
370
-3
390
F
  0
LAYER
  5
207
100
AcDbSymbolTableRecord
100
AcDbLayerTableRecord
  2
IMPORT_IGES
 70
0
 62
7
  6
CONTINUOUS
370
-3
390
F
  0
LAYER
  5
208
100
AcDbSymbolTableRecord
100
AcDbLayerTableRecord
  2
INTF_1
 70
0
 62
7
  6
CONTINUOUS
370
-3
390
F
  0
LAYER
  5
209
100
AcDbSymbolTableRecord
100
AcDbLayerTableRecord
  2
INTF_11
 70
0
 62
7
  6
CONTINUOUS
370
-3
390
F
  0
LAYER
  5
20A
100
AcDbSymbolTableRecord
100
AcDbLayerTableRecord
  2
INTF_12
 70
0
 62
7
  6
CONTINUOUS
370
-3
390
F
  0
LAYER
  5
20B
100
AcDbSymbolTableRecord
100
AcDbLayerTableRecord
  2
INTF_2
 70
0
 62
7
  6
CONTINUOUS
370
-3
390
F
  0
LAYER
  5
20C
100
AcDbSymbolTableRecord
100
AcDbLayerTableRecord
  2
NOTE
 70
0
 62
7
  6
CONTINUOUS
370
-3
390
F
  0
LAYER
  5
20D
100
AcDbSymbolTableRecord
100
AcDbLayerTableRecord
  2
PIANI
 70
0
 62
7
  6
CONTINUOUS
370
-3
390
F
  0
LAYER
  5
20E
100
AcDbSymbolTableRecord
100
AcDbLayerTableRecord
  2
PIANI_ORIGINE
 70
0
 62
7
  6
CONTINUOUS
370
-3
390
F
  0
LAYER
  5
20F
100
AcDbSymbolTableRecord
100
AcDbLayerTableRecord
  2
PIANI_SFORMI
 70
0
 62
7
  6
CONTINUOUS
370
-3
390
F
  0
LAYER
  5
210
100
AcDbSymbolTableRecord
100
AcDbLayerTableRecord
  2
PUNTI
 70
0
 62
7
  6
CONTINUOUS
370
-3
390
F
  0
LAYER
  5
211
100
AcDbSymbolTableRecord
100
AcDbLayerTableRecord
  2
RACCORDO
 70
0
 62
7
  6
CONTINUOUS
370
-3
390
F
  0
LAYER
  5
212
100
AcDbSymbolTableRecord
100
AcDbLayerTableRecord
  2
RGB__255__255__255__
 70
0
 62
7
  6
CONTINUOUS
370
-3
390
F
  0
LAYER
  5
213
100
AcDbSymbolTableRecord
100
AcDbLayerTableRecord
  2
SIMBOLI
 70
0
 62
7
  6
CONTINUOUS
370
-3
390
F
  0
LAYER
  5
214
100
AcDbSymbolTableRecord
100
AcDbLayerTableRecord
  2
SMUSSO
 70
0
 62
7
  6
CONTINUOUS
370
-3
390
F
  0
LAYER
  5
215
100
AcDbSymbolTableRecord
100
AcDbLayerTableRecord
  2
SNAPLINE
 70
0
 62
7
  6
CONTINUOUS
370
-3
390
F
  0
LAYER
  5
216
100
AcDbSymbolTableRecord
100
AcDbLayerTableRecord
  2
SUP-SCAVI-INCLINATI
 70
0
 62
7
  6
CONTINUOUS
370
-3
390
F
  0
LAYER
  5
217
100
AcDbSymbolTableRecord
100
AcDbLayerTableRecord
  2
SUP-SCAVI-INCLINATI-SUP
 70
0
 62
7
  6
CONTINUOUS
370
-3
390
F
  0
LAYER
  5
218
100
AcDbSymbolTableRecord
100
AcDbLayerTableRecord
  2
SUPERFICI
 70
0
 62
7
  6
CONTINUOUS
370
-3
390
F
  0
LAYER
  5
219
100
AcDbSymbolTableRecord
100
AcDbLayerTableRecord
  2
SUP_COLORE
 70
0
 62
7
  6
CONTINUOUS
370
-3
390
F
  0
LAYER
  5
21A
100
AcDbSymbolTableRecord
100
AcDbLayerTableRecord
  2
TRACCIABILITA
 70
0
 62
7
  6
CONTINUOUS
370
-3
390
F
  0
LAYER
  5
21B
100
AcDbSymbolTableRecord
100
AcDbLayerTableRecord
  2
TRASH
 70
0
 62
7
  6
CONTINUOUS
370
-3
390
F
  0
LAYER
  5
21C
100
AcDbSymbolTableRecord
100
AcDbLayerTableRecord
  2
XSEC_DATUMS
 70
0
 62
7
  6
CONTINUOUS
370
-3
390
F
  0
ENDTAB
  0
TABLE
  2
STYLE
  5
3
100
AcDbSymbolTable
 70
1
  0
STYLE
  5
11
100
AcDbSymbolTableRecord
100
AcDbTextStyleTableRecord
  2
STANDARD
 70
0
 40
0.0
 41
0.8
 50
0.0
 71
0
 42
0.2
  3
txt
  4

  0
STYLE
  5
21D
100
AcDbSymbolTableRecord
100
AcDbTextStyleTableRecord
  2
TEXTSTYLE_1
 70
0
 40
0.0
 41
0.8
 50
0.0
 71
0
 42
0.2
  3
gdt
  4

  0
ENDTAB
  0
TABLE
  2
VIEW
  5
6
100
AcDbSymbolTable
 70
0
  0
ENDTAB
  0
TABLE
  2
UCS
  5
7
100
AcDbSymbolTable
 70
0
  0
ENDTAB
  0
TABLE
  2
APPID
  5
9
100
AcDbSymbolTable
 70
1
  0
APPID
  5
21E
100
AcDbSymbolTableRecord
100
AcDbRegAppTableRecord
  2
ACAD
 70
0
  0
ENDTAB
  0
TABLE
  2
BLOCK_RECORD
  5
1
100
AcDbSymbolTable
 70
0
  0
BLOCK_RECORD
  5
21F
100
AcDbSymbolTableRecord
100
AcDbBlockTableRecord
  2
*Model_Space
  0
BLOCK_RECORD
  5
220
100
AcDbSymbolTableRecord
100
AcDbBlockTableRecord
  2
*Paper_Space
  0
BLOCK_RECORD
  5
221
100
AcDbSymbolTableRecord
100
AcDbBlockTableRecord
  2
_FILLED
  0
ENDTAB
  0
TABLE
  2
DIMSTYLE
  5
A
100
AcDbSymbolTable
 70
1
100
AcDbDimStyleTable
 71
0
  0
DIMSTYLE
105
222
100
AcDbSymbolTableRecord
100
AcDbDimStyleTableRecord
  2
STANDARD
 70
0
  3

  4

 40
1.0
 41
3.0
 42
0.5
 43
0.38
 44
1.5
 45
0.0
 46
0.0
 47
0.01
 48
0.01
140
3.0
141
0.09
142
0.0
143
25.4
144
1.0
145
0.0
146
1.0
147
0.625
 71
1
 72
0
 73
0
 74
0
 75
0
 76
0
 77
1
 78
8
 79
2
170
0
171
1
172
0
173
0
174
0
175
0
176
0
177
0
178
0
270
2
179
2
271
2
272
2
273
2
274
2
275
0
280
0
281
0
282
0
283
1
284
8
285
0
286
0
287
3
288
0
340
11
278
44
341
221
342
221
343
221
344
221
  0
ENDTAB
  0
ENDSEC
  0
SECTION
  2
BLOCKS
  0
BLOCK
  5
20
100
AcDbEntity
  8
0
100
AcDbBlockBegin
  2
*Model_Space
 70
0
 10
0.0
 20
0.0
 30
0.0
  3
*Model_Space
  1

  0
ENDBLK
  5
21
100
AcDbEntity
  8
0
100
AcDbBlockEnd
  0
BLOCK
  5
1C
100
AcDbEntity
  8
0
100
AcDbBlockBegin
  2
*Paper_Space
 70
0
 10
0.0
 20
0.0
 30
0.0
  3
*Paper_Space
  1

  0
ENDBLK
  5
1D
100
AcDbEntity
  8
0
100
AcDbBlockEnd
  0
BLOCK
  5
223
100
AcDbEntity
  8
0
100
AcDbBlockBegin
  2
_FILLED
 70
64
 10
0.0
 20
0.0
  3
_FILLED
  1

  0
SOLID
  5
224
100
AcDbEntity
  8
0
  6
BYBLOCK
 62
0
100
AcDbTrace
 10
0.0
 20
0.0
 11
-1.0
 21
0.3166666667
 12
-1.0
 22
-0.3166666667
 13
-1.0
 23
-0.3166666667
  0
ENDBLK
  5
225
100
AcDbEntity
  8
0
  6
BYBLOCK
 62
0
100
AcDbBlockEnd
  0
ENDSEC
  0
SECTION
  2
ENTITIES
  0
LINE
  5
226
100
AcDbEntity
  8
RACCORDO
100
AcDbLine
 62
7
  6
CONTINUOUS
 10
-18.8440165946
 20
22.7585974382
 11
-19.9983286536
 21
21.6042853793
  0
LINE
  5
227
100
AcDbEntity
  8
DRAFT
100
AcDbLine
 62
7
  6
CONTINUOUS
 10
-20.6879828328
 20
20.9
 11
-22.0879828328
 21
19.5
  0
LINE
  5
228
100
AcDbEntity
  8
DRAFT
100
AcDbLine
 62
7
  6
CONTINUOUS
 10
-20.658185023
 20
20.9
 11
-19.9983286536
 21
21.5598563694
  0
LINE
  5
229
100
AcDbEntity
  8
DRAFT
100
AcDbLine
 62
7
  6
CONTINUOUS
 10
-20.6554497498
 20
20.8214581899
 11
-22.0094410227
 21
19.467466917
  0
LINE
  5
22A
100
AcDbEntity
  8
DRAFT
100
AcDbLine
 62
7
  6
CONTINUOUS
 10
-22.0879828328
 20
-19.5
 11
-19.0879828328
 21
-22.5
  0
LINE
  5
22B
100
AcDbEntity
  8
DRAFT
100
AcDbLine
 62
7
  6
CONTINUOUS
 10
-19.058185023
 20
-22.5
 11
-18.3292552564
 21
-23.2289297666
  0
LINE
  5
22C
100
AcDbEntity
  8
DRAFT
100
AcDbLine
 62
7
  6
CONTINUOUS
 10
-22.0094410227
 20
-19.467466917
 11
-19.0554497498
 21
-22.4214581899
  0
LINE
  5
22D
100
AcDbEntity
  8
RACCORDO
100
AcDbLine
 62
7
  6
CONTINUOUS
 10
-17.6895692226
 20
20.0984352067
 11
-17.7454144255
 21
20.0424311501
  0
LINE
  5
22E
100
AcDbEntity
  8
0
100
AcDbLine
 62
7
  6
CONTINUOUS
 10
-18.8665246429
 20
20.8214581899
 11
-18.7943534463
 21
20.8936293865
  0
LINE
  5
22F
100
AcDbEntity
  8
DRAFT
100
AcDbLine
 62
7
  6
CONTINUOUS
 10
-18.6094410227
 20
20.9785418101
 11
-18.6879828328
 21
20.9
  0
LINE
  5
230
100
AcDbEntity
  8
0
100
AcDbLine
 62
7
  6
CONTINUOUS
 10
-18.8665246429
 20
19.1714581899
 11
-18.7944713591
 21
19.2435114737
  0
LINE
  5
231
100
AcDbEntity
  8
DRAFT
100
AcDbLine
 62
7
  6
CONTINUOUS
 10
-18.6879828328
 20
19.25
 11
-18.6094410227
 21
19.3285418101
  0
LINE
  5
232
100
AcDbEntity
  8
DRAFT
100
AcDbLine
 62
7
  6
CONTINUOUS
 10
-17.3670387967
 20
20.4209440361
 11
-17.3879828328
 21
20.4
  0
LINE
  5
233
100
AcDbEntity
  8
RACCORDO
100
AcDbLine
 62
7
  6
CONTINUOUS
 10
-17.3879828328
 20
20.4
 11
-17.4639294292
 21
20.3240534036
  0
LINE
  5
234
100
AcDbEntity
  8
RACCORDO
100
AcDbLine
 62
7
  6
CONTINUOUS
 10
-17.564658467
 20
20.2232492239
 11
-17.6895692226
 21
20.0984352067
  0
LINE
  5
235
100
AcDbEntity
  8
RACCORDO
100
AcDbLine
 62
7
  6
CONTINUOUS
 10
-17.7454144255
 20
20.0424311501
 11
-17.7639180061
 21
20.0240648267
  0
LWPOLYLINE
  5
236
100
AcDbEntity
  8
RACCORDO
100
AcDbPolyline
 62
7
  6
CONTINUOUS
 90
3
 70
0
 10
-17.5197319447
 20
20.2681415872
 10
-17.5338998563
 20
20.2541071084
 10
-17.564658467
 20
20.2232492239
  0
LWPOLYLINE
  5
237
100
AcDbEntity
  8
RACCORDO
100
AcDbPolyline
 62
7
  6
CONTINUOUS
 90
7
 70
0
 10
-17.4639294292
 20
20.3240534036
 10
-17.4660815083
 20
20.3223996681
 10
-17.4702341548
 20
20.3181475416
 10
-17.4763873686
 20
20.3115954642
 10
-17.4847792118
 20
20.3030700165
 10
-17.4951716224
 20
20.2928547243
 10
-17.5197319447
 20
20.2681415872
  0
LINE
  5
238
100
AcDbEntity
  8
DRAFT
100
AcDbLine
 62
7
  6
CONTINUOUS
 10
-18.6879828328
 20
20.9
 11
-18.7089268689
 21
20.8476387933
  0
LINE
  5
239
100
AcDbEntity
  8
DRAFT
100
AcDbLine
 62
7
  6
CONTINUOUS
 10
-18.690578188
 20
19.2435114737
 11
-18.6879828328
 21
19.25
  0
LINE
  5
23A
100
AcDbEntity
  8
RACCORDO
100
AcDbLine
 62
250
  6
CONTINUOUS
 10
-15.5429856572
 20
20.2484013883
 11
-15.468773568
 21
20.3180102908
  0
LINE
  5
23B
100
AcDbEntity
  8
RACCORDO
100
AcDbLine
 62
250
  6
CONTINUOUS
 10
-15.2621992867
 20
19.9490280068
 11
-15.1879896867
 21
20.0186315746
  0
LINE
  5
23C
100
AcDbEntity
  8
0
100
AcDbLine
 62
7
  6
CONTINUOUS
 10
-20.4379828328
 20
16.209482
 11
-19.5716178328
 21
16.756765
  0
LINE
  5
23D
100
AcDbEntity
  8
0
100
AcDbLine
 62
7
  6
CONTINUOUS
 10
-19.7411858328
 20
16.853744
 11
-20.4379828328
 21
16.437683
  0
LINE
  5
23E
100
AcDbEntity
  8
RACCORDO
100
AcDbLine
 62
250
  6
CONTINUOUS
 10
-15.4687779322
 20
20.3180105707
 11
-15.4164210902
 21
20.3356394082
  0
LINE
  5
23F
100
AcDbEntity
  8
RACCORDO
100
AcDbLine
 62
250
  6
CONTINUOUS
 10
-15.1879896867
 20
20.0186315746
 11
-15.1356216261
 21
20.0362610661
  0
LWPOLYLINE
  5
240
100
AcDbEntity
  8
RACCORDO
100
AcDbPolyline
 62
7
  6
CONTINUOUS
 90
25
 70
0
 10
15.1120171672
 20
-24.5477429348
 10
15.1251897934
 20
-24.5476059158
 10
15.1381958148
 20
-24.5472100708
 10
15.1510352316
 20
-24.5465553998
 10
15.1637614444
 20
-24.5456368971
 10
15.1763210525
 20
-24.5444595685
 10
15.1885538537
 20
-24.5430384312
 10
15.2004556616
 20
-24.541370362
 10
15.2120306628
 20
-24.539458484
 10
15.2231312138
 20
-24.537327184
 10
15.2337512372
 20
-24.5349736512
 10
15.2438968105
 20
-24.5324006963
 10
15.2534385234
 20
-24.5296411384
 10
15.2623686407
 20
-24.5266925869
 10
15.2706948975
 20
-24.5235574323
 10
15.2783110897
 20
-24.5202756646
 10
15.2852081213
 20
-24.5168454057
 10
15.2913950883
 20
-24.5132685337
 10
15.2967930737
 20
-24.5095906727
 10
15.3013919708
 20
-24.5058105293
 10
15.3052018862
 20
-24.5019293969
 10
15.3081742233
 20
-24.4979967809
 10
15.310292783
 20
-24.4940291829
 10
15.3115737643
 20
-24.4900101013
 10
15.3120171672
 20
-24.4859395359
  0
LWPOLYLINE
  5
241
100
AcDbEntity
  8
RACCORDO
100
AcDbPolyline
 62
7
  6
CONTINUOUS
 90
25
 70
0
 10
9.4120171672
 20
-24.5477429348
 10
9.4251897934
 20
-24.5476059158
 10
9.4381958148
 20
-24.5472100708
 10
9.4510352316
 20
-24.5465553998
 10
9.4637614444
 20
-24.5456368971
 10
9.4763210525
 20
-24.5444595685
 10
9.4885538537
 20
-24.5430384312
 10
9.5004556616
 20
-24.541370362
 10
9.5120306628
 20
-24.539458484
 10
9.5231312138
 20
-24.537327184
 10
9.5337512372
 20
-24.5349736512
 10
9.5438968105
 20
-24.5324006963
 10
9.5534385234
 20
-24.5296411384
 10
9.5623686407
 20
-24.5266925869
 10
9.5706948975
 20
-24.5235574323
 10
9.5783110897
 20
-24.5202756646
 10
9.5852081213
 20
-24.5168454057
 10
9.5913950883
 20
-24.5132685337
 10
9.5967930737
 20
-24.5095906727
 10
9.6013919708
 20
-24.5058105293
 10
9.6052018862
 20
-24.5019293969
 10
9.6081742233
 20
-24.4979967809
 10
9.610292783
 20
-24.4940291829
 10
9.6115737643
 20
-24.4900101013
 10
9.6120171672
 20
-24.4859395359
  0
LINE
  5
242
100
AcDbEntity
  8
0
100
AcDbLine
 62
7
  6
CONTINUOUS
 10
16.8120171672
 20
-25.05
 11
4.8120171672
 21
-25.05
  0
LINE
  5
243
100
AcDbEntity
  8
0
100
AcDbLine
 62
250
  6
CONTINUOUS
 10
16.8120171672
 20
-25.0157395614
 11
4.8120171672
 21
-25.0157395614
  0
LINE
  5
244
100
AcDbEntity
  8
RACCORDO
100
AcDbLine
 62
7
  6
CONTINUOUS
 10
15.1120171672
 20
-24.9281655413
 11
12.2120171672
 21
-24.9281655413
  0
LINE
  5
245
100
AcDbEntity
  8
RACCORDO
100
AcDbLine
 62
7
  6
CONTINUOUS
 10
9.4120171672
 20
-24.9281655413
 11
6.5120171672
 21
-24.9281655413
  0
LINE
  5
246
100
AcDbEntity
  8
RACCORDO
100
AcDbLine
 62
7
  6
CONTINUOUS
 10
15.1120171672
 20
-24.5477429348
 11
12.2120171672
 21
-24.5477429348
  0
LINE
  5
247
100
AcDbEntity
  8
RACCORDO
100
AcDbLine
 62
7
  6
CONTINUOUS
 10
9.4120171672
 20
-24.5477429348
 11
6.5120171672
 21
-24.5477429348
  0
LINE
  5
248
100
AcDbEntity
  8
0
100
AcDbLine
 62
250
  6
CONTINUOUS
 10
15.3120171672
 20
-24.35
 11
12.0120171672
 21
-24.35
  0
LINE
  5
249
100
AcDbEntity
  8
0
100
AcDbLine
 62
250
  6
CONTINUOUS
 10
9.6120171672
 20
-24.35
 11
6.3120171672
 21
-24.35
  0
LINE
  5
24A
100
AcDbEntity
  8
RACCORDO
100
AcDbLine
 62
7
  6
CONTINUOUS
 10
15.3120171672
 20
-24.05
 11
14.745283402
 21
-24.05
  0
LINE
  5
24B
100
AcDbEntity
  8
RACCORDO
100
AcDbLine
 62
7
  6
CONTINUOUS
 10
6.8787509324
 20
-24.05
 11
6.3120171672
 21
-24.05
  0
LINE
  5
24C
100
AcDbEntity
  8
RACCORDO
100
AcDbLine
 62
7
  6
CONTINUOUS
 10
6.5120171672
 20
-23.9084094599
 11
9.4120171672
 21
-23.9084094599
  0
LINE
  5
24D
100
AcDbEntity
  8
RACCORDO
100
AcDbLine
 62
7
  6
CONTINUOUS
 10
12.2120171672
 20
-23.9084094599
 11
15.1120171672
 21
-23.9084094599
  0
LWPOLYLINE
  5
24E
100
AcDbEntity
  8
RACCORDO
100
AcDbPolyline
 62
7
  6
CONTINUOUS
 90
25
 70
0
 10
6.5120171672
 20
-24.9281655413
 10
6.498844541
 20
-24.9280285223
 10
6.4858385196
 20
-24.9276326773
 10
6.4729991028
 20
-24.9269780063
 10
6.46027289
 20
-24.9260595037
 10
6.4477132819
 20
-24.924882175
 10
6.4354804807
 20
-24.9234610377
 10
6.4235786727
 20
-24.9217929685
 10
6.4120036716
 20
-24.9198810905
 10
6.4009031206
 20
-24.9177497905
 10
6.3902830972
 20
-24.9153962577
 10
6.3801375239
 20
-24.9128233029
 10
6.370595811
 20
-24.9100637449
 10
6.3616656937
 20
-24.9071151934
 10
6.3533394369
 20
-24.9039800388
 10
6.3457232447
 20
-24.9006982711
 10
6.3388262131
 20
-24.8972680122
 10
6.3326392461
 20
-24.8936911402
 10
6.3272412607
 20
-24.8900132792
 10
6.3226423636
 20
-24.8862331358
 10
6.3188324482
 20
-24.8823520034
 10
6.3158601111
 20
-24.8784193874
 10
6.3137415514
 20
-24.8744517894
 10
6.3124605701
 20
-24.8704327078
 10
6.3120171672
 20
-24.8663621424
  0
LWPOLYLINE
  5
24F
100
AcDbEntity
  8
RACCORDO
100
AcDbPolyline
 62
7
  6
CONTINUOUS
 90
25
 70
0
 10
12.2120171672
 20
-24.9281655413
 10
12.198844541
 20
-24.9280285223
 10
12.1858385196
 20
-24.9276326773
 10
12.1729991028
 20
-24.9269780063
 10
12.16027289
 20
-24.9260595037
 10
12.1477132819
 20
-24.924882175
 10
12.1354804807
 20
-24.9234610377
 10
12.1235786727
 20
-24.9217929685
 10
12.1120036716
 20
-24.9198810905
 10
12.1009031206
 20
-24.9177497905
 10
12.0902830972
 20
-24.9153962577
 10
12.0801375239
 20
-24.9128233029
 10
12.070595811
 20
-24.9100637449
 10
12.0616656937
 20
-24.9071151934
 10
12.0533394369
 20
-24.9039800388
 10
12.0457232447
 20
-24.9006982711
 10
12.0388262131
 20
-24.8972680122
 10
12.0326392461
 20
-24.8936911402
 10
12.0272412607
 20
-24.8900132792
 10
12.0226423636
 20
-24.8862331358
 10
12.0188324482
 20
-24.8823520034
 10
12.0158601111
 20
-24.8784193874
 10
12.0137415514
 20
-24.8744517894
 10
12.0124605701
 20
-24.8704327078
 10
12.0120171672
 20
-24.8663621424
  0
LWPOLYLINE
  5
250
100
AcDbEntity
  8
RACCORDO
100
AcDbPolyline
 62
7
  6
CONTINUOUS
 90
25
 70
0
 10
9.4120171672
 20
-23.9084094599
 10
9.4251897934
 20
-23.9085464789
 10
9.4381958148
 20
-23.9089423239
 10
9.4510352316
 20
-23.9095969948
 10
9.4637614444
 20
-23.9105154975
 10
9.4763210525
 20
-23.9116928261
 10
9.4885538537
 20
-23.9131139635
 10
9.5004556616
 20
-23.9147820327
 10
9.5120306628
 20
-23.9166939106
 10
9.5231312138
 20
-23.9188252106
 10
9.5337512372
 20
-23.9211787434
 10
9.5438968105
 20
-23.9237516983
 10
9.5534385234
 20
-23.9265112563
 10
9.5623686407
 20
-23.9294598077
 10
9.5706948975
 20
-23.9325949623
 10
9.5783110897
 20
-23.93587673
 10
9.5852081213
 20
-23.9393069889
 10
9.5913950883
 20
-23.942883861
 10
9.5967930737
 20
-23.9465617219
 10
9.6013919708
 20
-23.9503418654
 10
9.6052018862
 20
-23.9542229977
 10
9.6081742233
 20
-23.9581556138
 10
9.610292783
 20
-23.9621232117
 10
9.6115737643
 20
-23.9661422934
 10
9.6120171672
 20
-23.9702128587
  0
LWPOLYLINE
  5
251
100
AcDbEntity
  8
RACCORDO
100
AcDbPolyline
 62
7
  6
CONTINUOUS
 90
25
 70
0
 10
15.1120171672
 20
-23.9084094599
 10
15.1251897934
 20
-23.9085464789
 10
15.1381958148
 20
-23.9089423239
 10
15.1510352316
 20
-23.9095969948
 10
15.1637614444
 20
-23.9105154975
 10
15.1763210525
 20
-23.9116928261
 10
15.1885538537
 20
-23.9131139635
 10
15.2004556616
 20
-23.9147820327
 10
15.2120306628
 20
-23.9166939106
 10
15.2231312138
 20
-23.9188252106
 10
15.2337512372
 20
-23.9211787434
 10
15.2438968105
 20
-23.9237516983
 10
15.2534385234
 20
-23.9265112563
 10
15.2623686407
 20
-23.9294598077
 10
15.2706948975
 20
-23.9325949623
 10
15.2783110897
 20
-23.93587673
 10
15.2852081213
 20
-23.9393069889
 10
15.2913950883
 20
-23.942883861
 10
15.2967930737
 20
-23.9465617219
 10
15.3013919708
 20
-23.9503418654
 10
15.3052018862
 20
-23.9542229977
 10
15.3081742233
 20
-23.9581556138
 10
15.310292783
 20
-23.9621232117
 10
15.3115737643
 20
-23.9661422934
 10
15.3120171672
 20
-23.9702128587
  0
LWPOLYLINE
  5
252
100
AcDbEntity
  8
RACCORDO
100
AcDbPolyline
 62
7
  6
CONTINUOUS
 90
12
 70
0
 10
-21.9771171424
 20
-18.8417753179
 10
-21.97453701
 20
-18.8784828626
 10
-21.9668107105
 20
-18.9171361643
 10
-21.9540806675
 20
-18.9544493949
 10
-21.9365635746
 20
-18.9897784088
 10
-21.914560063
 20
-19.0225103466
 10
-21.8884510484
 20
-19.0520752135
 10
-21.8586170583
 20
-19.0780144048
 10
-21.825629175
 20
-19.0998070676
 10
-21.7903076353
 20
-19.1169729181
 10
-21.753389257
 20
-19.1292881131
 10
-21.7165776468
 20
-19.1365393438
  0
LINE
  5
253
100
AcDbEntity
  8
RACCORDO
100
AcDbLine
 62
250
  6
CONTINUOUS
 10
-21.9771287653
 20
-18.8391573555
 11
-21.9771171424
 21
-18.8417753179
  0
LINE
  5
254
100
AcDbEntity
  8
DRAFT
100
AcDbLine
 62
7
  6
CONTINUOUS
 10
-22.0879828328
 20
-19.5
 11
-22.0879828328
 21
19.5
  0
LINE
  5
255
100
AcDbEntity
  8
RACCORDO
100
AcDbLine
 62
7
  6
CONTINUOUS
 10
-22.0705290972
 20
22.2219545135
 11
-22.0705290972
 21
19.5174537356
  0
LINE
  5
256
100
AcDbEntity
  8
RACCORDO
100
AcDbLine
 62
7
  6
CONTINUOUS
 10
-22.0705290972
 20
-19.5174537356
 11
-22.0705290972
 21
-22.2219545135
  0
LINE
  5
257
100
AcDbEntity
  8
RACCORDO
100
AcDbLine
 62
7
  6
CONTINUOUS
 10
-22.0094410227
 20
-19.467466917
 11
-22.0094410227
 21
-18.871469613
  0
LINE
  5
258
100
AcDbEntity
  8
RACCORDO
100
AcDbLine
 62
7
  6
CONTINUOUS
 10
-22.0094410227
 20
18.871469613
 11
-22.0094410227
 21
19.467466917
  0
LINE
  5
259
100
AcDbEntity
  8
RACCORDO
100
AcDbLine
 62
7
  6
CONTINUOUS
 10
-21.9771287653
 20
-18.8391573555
 11
-21.9771287653
 21
18.8391573555
  0
LINE
  5
25A
100
AcDbEntity
  8
RACCORDO
100
AcDbLine
 62
250
  6
CONTINUOUS
 10
-21.6771401883
 20
-19.1391459325
 11
-21.6771401883
 21
19.1391459325
  0
LINE
  5
25B
100
AcDbEntity
  8
RACCORDO
100
AcDbLine
 62
7
  6
CONTINUOUS
 10
-7.2857237521
 20
22.4712502867
 11
-7.2155872173
 21
22.4993043024
  0
LINE
  5
25C
100
AcDbEntity
  8
DRAFT
100
AcDbLine
 62
7
  6
CONTINUOUS
 10
-2.4406595395
 20
22.5
 11
-2.4665246429
 21
22.4896541792
  0
LWPOLYLINE
  5
25D
100
AcDbEntity
  8
RACCORDO
100
AcDbPolyline
 62
250
  6
CONTINUOUS
 90
5
 70
0
 10
6.5372800918
 20
-21.0551861951
 10
6.5363424773
 20
-21.0552735309
 10
6.5339572076
 20
-21.0552563311
 10
6.5301242826
 20
-21.0551345958
 10
6.5247930349
 20
-21.0549058878
  0
LINE
  5
25E
100
AcDbEntity
  8
RACCORDO
100
AcDbLine
 62
250
  6
CONTINUOUS
 10
16.2552117384
 20
-21.2759351733
 11
15.3076727725
 21
-21.3421935524
  0
LINE
  5
25F
100
AcDbEntity
  8
RACCORDO
100
AcDbLine
 62
7
  6
CONTINUOUS
 10
16.2447359064
 20
-20.9759465964
 11
15.2867466272
 21
-21.0429357326
  0
LINE
  5
260
100
AcDbEntity
  8
RACCORDO
100
AcDbLine
 62
7
  6
CONTINUOUS
 10
14.9933386796
 20
-20.9680747733
 11
14.8113467195
 21
-20.9808008909
  0
LINE
  5
261
100
AcDbEntity
  8
DRAFT
100
AcDbLine
 62
7
  6
CONTINUOUS
 10
14.8101886736
 20
-20.9476387933
 11
16.2064884696
 21
-20.85
  0
LINE
  5
262
100
AcDbEntity
  8
RACCORDO
100
AcDbLine
 62
250
  6
CONTINUOUS
 10
15.2867466272
 20
-21.0429357326
 11
15.1873054688
 21
-21.0496577041
  0
LINE
  5
263
100
AcDbEntity
  8
RACCORDO
100
AcDbLine
 62
250
  6
CONTINUOUS
 10
15.1873054688
 20
-21.0496577041
 11
15.1341881149
 21
-21.0529851544
  0
LINE
  5
264
100
AcDbEntity
  8
RACCORDO
100
AcDbLine
 62
250
  6
CONTINUOUS
 10
15.1341881149
 20
-21.0529851544
 11
15.1140947587
 21
-21.0541421767
  0
LWPOLYLINE
  5
265
100
AcDbEntity
  8
RACCORDO
100
AcDbPolyline
 62
250
  6
CONTINUOUS
 90
6
 70
0
 10
15.1140947587
 20
-21.0541421767
 10
15.0992412995
 20
-21.0549058878
 10
15.0939100518
 20
-21.0551345958
 10
15.0900771268
 20
-21.0552563311
 10
15.087691857
 20
-21.0552735309
 10
15.0867542426
 20
-21.0551861951
  0
LWPOLYLINE
  5
266
100
AcDbEntity
  8
RACCORDO
100
AcDbPolyline
 62
250
  6
CONTINUOUS
 90
4
 70
0
 10
6.8163425234
 20
-21.3544440149
 10
6.8140836998
 20
-21.3545308271
 10
6.8080803142
 20
-21.354513154
 10
6.7983773856
 20
-21.3543909955
  0
LINE
  5
267
100
AcDbEntity
  8
RACCORDO
100
AcDbLine
 62
250
  6
CONTINUOUS
 10
15.3076727725
 20
-21.3421935524
 11
14.9877246544
 21
-21.3507383276
  0
LINE
  5
268
100
AcDbEntity
  8
RACCORDO
100
AcDbLine
 62
250
  6
CONTINUOUS
 10
14.9877246544
 20
-21.3507383276
 11
14.8558425372
 21
-21.35382812
  0
LWPOLYLINE
  5
269
100
AcDbEntity
  8
RACCORDO
100
AcDbPolyline
 62
250
  6
CONTINUOUS
 90
5
 70
0
 10
14.8558425372
 20
-21.35382812
 10
14.8256569487
 20
-21.3543909955
 10
14.8159540202
 20
-21.354513154
 10
14.8099506346
 20
-21.3545308271
 10
14.807691811
 20
-21.3544440149
  0
LWPOLYLINE
  5
26A
100
AcDbEntity
  8
RACCORDO
100
AcDbPolyline
 62
7
  6
CONTINUOUS
 90
25
 70
0
 10
6.8620171672
 20
-22.5007488485
 10
6.8751897934
 20
-22.5006118295
 10
6.8881958148
 20
-22.5002159845
 10
6.9010352316
 20
-22.4995613135
 10
6.9137614444
 20
-22.4986428109
 10
6.9263210525
 20
-22.4974654823
 10
6.9385538537
 20
-22.4960443449
 10
6.9504556616
 20
-22.4943762757
 10
6.9620306628
 20
-22.4924643977
 10
6.9731312138
 20
-22.4903330977
 10
6.9837512372
 20
-22.4879795649
 10
6.9938968105
 20
-22.4854066101
 10
7.0034385234
 20
-22.4826470521
 10
7.0123686407
 20
-22.4796985006
 10
7.0206948975
 20
-22.4765633461
 10
7.0283110897
 20
-22.4732815784
 10
7.0352081213
 20
-22.4698513194
 10
7.0413950883
 20
-22.4662744474
 10
7.0467930737
 20
-22.4625965865
 10
7.0513919708
 20
-22.458816443
 10
7.0552018862
 20
-22.4549353107
 10
7.0581742233
 20
-22.4510026946
 10
7.060292783
 20
-22.4470350967
 10
7.0615737643
 20
-22.443016015
 10
7.0620171672
 20
-22.4389454496
  0
LINE
  5
26B
100
AcDbEntity
  8
RACCORDO
100
AcDbLine
 62
7
  6
CONTINUOUS
 10
2.7947464558
 20
-23.2585943921
 11
4.6034227751
 21
-23.2585943921
  0
LINE
  5
26C
100
AcDbEntity
  8
RACCORDO
100
AcDbLine
 62
7
  6
CONTINUOUS
 10
17.0206115593
 20
-23.2585943921
 11
17.9655770809
 21
-23.2585943921
  0
LINE
  5
26D
100
AcDbEntity
  8
DRAFT
100
AcDbLine
 62
7
  6
CONTINUOUS
 10
4.6120171672
 20
-23.25
 11
6.8378822707
 21
-23.25
  0
LINE
  5
26E
100
AcDbEntity
  8
DRAFT
100
AcDbLine
 62
7
  6
CONTINUOUS
 10
14.7861520637
 20
-23.25
 11
17.0120171672
 21
-23.25
  0
LINE
  5
26F
100
AcDbEntity
  8
DRAFT
100
AcDbLine
 62
7
  6
CONTINUOUS
 10
-17.5090530662
 20
-23.2289297666
 11
-18.3292552564
 21
-23.2289297666
  0
LINE
  5
270
100
AcDbEntity
  8
DRAFT
100
AcDbLine
 62
7
  6
CONTINUOUS
 10
18.0031595538
 20
-23.2219484213
 11
18.8098306919
 21
-23.2219484213
  0
LINE
  5
271
100
AcDbEntity
  8
DRAFT
100
AcDbLine
 62
7
  6
CONTINUOUS
 10
-18.3362366017
 20
-23.2219484213
 11
-19.1599312541
 21
-23.2219484213
  0
LINE
  5
272
100
AcDbEntity
  8
RACCORDO
100
AcDbLine
 62
7
  6
CONTINUOUS
 10
14.7861520637
 20
-22.881171455
 11
14.7620171672
 21
-22.881171455
  0
LINE
  5
273
100
AcDbEntity
  8
RACCORDO
100
AcDbLine
 62
7
  6
CONTINUOUS
 10
6.8378822707
 20
-22.881171455
 11
6.8620171672
 21
-22.881171455
  0
LINE
  5
274
100
AcDbEntity
  8
RACCORDO
100
AcDbLine
 62
250
  6
CONTINUOUS
 10
2.7964978845
 20
-22.7585974382
 11
4.6016713464
 21
-22.7585974382
  0
LINE
  5
275
100
AcDbEntity
  8
RACCORDO
100
AcDbLine
 62
250
  6
CONTINUOUS
 10
17.022362988
 20
-22.7585974382
 11
18.468050929
 21
-22.7585974382
  0
LINE
  5
276
100
AcDbEntity
  8
RACCORDO
100
AcDbLine
 62
7
  6
CONTINUOUS
 10
14.7844127827
 20
-22.5007488485
 11
14.7620171672
 21
-22.5007488485
  0
LINE
  5
277
100
AcDbEntity
  8
RACCORDO
100
AcDbLine
 62
7
  6
CONTINUOUS
 10
6.8396215517
 20
-22.5007488485
 11
6.8620171672
 21
-22.5007488485
  0
LINE
  5
278
100
AcDbEntity
  8
DRAFT
100
AcDbLine
 62
7
  6
CONTINUOUS
 10
-19.0879828328
 20
-22.5
 11
1.9120171672
 21
-22.5
  0
LINE
  5
279
100
AcDbEntity
  8
DRAFT
100
AcDbLine
 62
7
  6
CONTINUOUS
 10
2.0646938738
 20
-22.5
 11
2.7861520637
 21
-22.5
  0
LINE
  5
27A
100
AcDbEntity
  8
DRAFT
100
AcDbLine
 62
7
  6
CONTINUOUS
 10
2.0905589773
 20
-22.4896541792
 11
2.7964978845
 21
-22.4896541792
  0
LINE
  5
27B
100
AcDbEntity
  8
DRAFT
100
AcDbLine
 62
7
  6
CONTINUOUS
 10
1.9120171672
 20
-22.4789297666
 11
2.0120171672
 21
-22.4789297666
  0
LINE
  5
27C
100
AcDbEntity
  8
RACCORDO
100
AcDbLine
 62
7
  6
CONTINUOUS
 10
-21.8205271932
 20
-22.4719484213
 11
-19.1599312541
 21
-22.4719484213
  0
LINE
  5
27D
100
AcDbEntity
  8
RACCORDO
100
AcDbLine
 62
7
  6
CONTINUOUS
 10
21.4445615276
 20
-22.4719484213
 11
18.8098306919
 21
-22.4719484213
  0
LINE
  5
27E
100
AcDbEntity
  8
DRAFT
100
AcDbLine
 62
7
  6
CONTINUOUS
 10
14.7142762479
 20
-22.4712502867
 11
14.5916390392
 21
-22.4712502867
  0
LINE
  5
27F
100
AcDbEntity
  8
DRAFT
100
AcDbLine
 62
7
  6
CONTINUOUS
 10
7.0323952952
 20
-22.4712502867
 11
6.9097580864
 21
-22.4712502867
  0
LINE
  5
280
100
AcDbEntity
  8
DRAFT
100
AcDbLine
 62
7
  6
CONTINUOUS
 10
1.8334753571
 20
-22.4214581899
 11
-19.0554497498
 21
-22.4214581899
  0
LINE
  5
281
100
AcDbEntity
  8
0
100
AcDbLine
 62
250
  6
CONTINUOUS
 10
14.5620171672
 20
-22.2059508647
 11
7.0620171672
 21
-22.2059508647
  0
LINE
  5
282
100
AcDbEntity
  8
RACCORDO
100
AcDbLine
 62
7
  6
CONTINUOUS
 10
4.6016713464
 20
-22.1712478072
 11
6.3163615619
 21
-22.1712478072
  0
LINE
  5
283
100
AcDbEntity
  8
RACCORDO
100
AcDbLine
 62
7
  6
CONTINUOUS
 10
15.3076727725
 20
-22.1712478072
 11
17.022362988
 21
-22.1712478072
  0
LINE
  5
284
100
AcDbEntity
  8
DRAFT
100
AcDbLine
 62
7
  6
CONTINUOUS
 10
3.6905589773
 20
-21.3785418101
 11
2.0905589773
 21
-21.3785418101
  0
LINE
  5
285
100
AcDbEntity
  8
DRAFT
100
AcDbLine
 62
7
  6
CONTINUOUS
 10
3.6120171672
 20
-21.3
 11
2.0120171672
 21
-21.3
  0
LINE
  5
286
100
AcDbEntity
  8
DRAFT
100
AcDbLine
 62
7
  6
CONTINUOUS
 10
3.5910731311
 20
-21.2790559639
 11
1.9910731311
 21
-21.2790559639
  0
LINE
  5
287
100
AcDbEntity
  8
RACCORDO
100
AcDbLine
 62
250
  6
CONTINUOUS
 10
17.3879523405
 20
-21.2759351733
 11
16.2552117384
 21
-21.2759351733
  0
LINE
  5
288
100
AcDbEntity
  8
RACCORDO
100
AcDbLine
 62
250
  6
CONTINUOUS
 10
5.368822596
 20
-21.2759351733
 11
4.2360819939
 21
-21.2759351733
  0
LWPOLYLINE
  5
289
100
AcDbEntity
  8
RACCORDO
100
AcDbPolyline
 62
7
  6
CONTINUOUS
 90
25
 70
0
 10
14.7620171672
 20
-22.881171455
 10
14.748844541
 20
-22.881034436
 10
14.7358385196
 20
-22.880638591
 10
14.7229991028
 20
-22.8799839201
 10
14.71027289
 20
-22.8790654174
 10
14.6977132819
 20
-22.8778880888
 10
14.6854804807
 20
-22.8764669514
 10
14.6735786727
 20
-22.8747988822
 10
14.6620036716
 20
-22.8728870043
 10
14.6509031206
 20
-22.8707557043
 10
14.6402830972
 20
-22.8684021715
 10
14.6301375239
 20
-22.8658292166
 10
14.620595811
 20
-22.8630696586
 10
14.6116656937
 20
-22.8601211071
 10
14.6033394369
 20
-22.8569859526
 10
14.5957232447
 20
-22.8537041849
 10
14.5888262131
 20
-22.850273926
 10
14.5826392461
 20
-22.8466970539
 10
14.5772412607
 20
-22.843019193
 10
14.5726423636
 20
-22.8392390495
 10
14.5688324482
 20
-22.8353579172
 10
14.5658601111
 20
-22.8314253011
 10
14.5637415514
 20
-22.8274577032
 10
14.5624605701
 20
-22.8234386215
 10
14.5620171672
 20
-22.8193680562
  0
LINE
  5
28A
100
AcDbEntity
  8
RACCORDO
100
AcDbLine
 62
250
  6
CONTINUOUS
 10
6.7983773856
 20
-21.3543909955
 11
6.7479356122
 21
-21.3533976081
  0
LINE
  5
28B
100
AcDbEntity
  8
RACCORDO
100
AcDbLine
 62
250
  6
CONTINUOUS
 10
6.7479356122
 20
-21.3533976081
 11
6.4864952666
 21
-21.3468443707
  0
LINE
  5
28C
100
AcDbEntity
  8
RACCORDO
100
AcDbLine
 62
250
  6
CONTINUOUS
 10
6.4864952666
 20
-21.3468443707
 11
6.3163615619
 21
-21.3421935524
  0
LINE
  5
28D
100
AcDbEntity
  8
ASSI
100
AcDbLine
 62
7
  6
CONTINUOUS
 10
-20.4881158328
 20
-16.701931
 11
-18.5600778328
 21
-17.320948
  0
LINE
  5
28E
100
AcDbEntity
  8
ASSI
100
AcDbLine
 62
7
  6
CONTINUOUS
 10
-17.6879898328
 20
-17.040934
 11
-20.4881158328
 21
-16.141903
  0
LWPOLYLINE
  5
28F
100
AcDbEntity
  8
RACCORDO
100
AcDbPolyline
 62
250
  6
CONTINUOUS
 90
4
 70
0
 10
-15.2663128464
 20
-14.6150158688
 10
-15.2792653824
 20
-14.6022256814
 10
-15.2911739198
 20
-14.5889923244
 10
-15.3019512191
 20
-14.5755252164
  0
LWPOLYLINE
  5
290
100
AcDbEntity
  8
0
100
AcDbPolyline
 62
7
  6
CONTINUOUS
 90
16
 70
0
 10
-18.9879828328
 20
6.7195050546
 10
-18.9916576511
 20
6.7918871015
 10
-19.0023176012
 20
6.8603377025
 10
-19.0199626831
 20
6.9248568575
 10
-19.0447904909
 20
6.9855966926
 10
-19.0766034306
 20
7.0424050817
 10
-19.1148087199
 20
7.0948256468
 10
-19.1594600524
 20
7.1431334626
 10
-19.2105037346
 20
7.1870534544
 10
-19.2671859038
 20
7.2253040196
 10
-19.329669961
 20
7.2576232336
 10
-19.3977925054
 20
7.284273021
 10
-19.4703094713
 20
7.3047575529
 10
-19.5468061702
 20
7.3189115529
 10
-19.6276972907
 20
7.3269002974
 10
-19.7129828328
 20
7.3287237864
  0
LINE
  5
291
100
AcDbEntity
  8
0
100
AcDbLine
 62
7
  6
CONTINUOUS
 10
-18.7940387907
 20
20.8575734286
 11
-18.7943534463
 21
20.8936293865
  0
LINE
  5
292
100
AcDbEntity
  8
ASSI
100
AcDbLine
 62
7
  6
CONTINUOUS
 10
-20.4881228328
 20
-7.4933704066
 11
-20.4881228328
 21
-8.804762
  0
LINE
  5
293
100
AcDbEntity
  8
ASSI
100
AcDbLine
 62
7
  6
CONTINUOUS
 10
-20.4881228328
 20
-10.077138
 11
-20.4881228328
 21
-10.637187
  0
LINE
  5
294
100
AcDbEntity
  8
ASSI
100
AcDbLine
 62
7
  6
CONTINUOUS
 10
-20.4881158328
 20
-11.909549
 11
-20.4881158328
 21
-12.75615
  0
LINE
  5
295
100
AcDbEntity
  8
ASSI
100
AcDbLine
 62
7
  6
CONTINUOUS
 10
-20.4881158328
 20
-13.801936
 11
-20.4881158328
 21
-14.648537
  0
LINE
  5
296
100
AcDbEntity
  8
ASSI
100
AcDbLine
 62
7
  6
CONTINUOUS
 10
-20.4881158328
 20
-15.208537
 11
-20.4881158328
 21
-15.768558
  0
LINE
  5
297
100
AcDbEntity
  8
ASSI
100
AcDbLine
 62
7
  6
CONTINUOUS
 10
-20.4881158328
 20
-16.141903
 11
-20.4881158328
 21
-16.701931
  0
LINE
  5
298
100
AcDbEntity
  8
ASSI
100
AcDbLine
 62
7
  6
CONTINUOUS
 10
-20.4881158328
 20
-17.939972
 11
-20.4881158328
 21
-18.5
  0
LINE
  5
299
100
AcDbEntity
  8
0
100
AcDbLine
 62
7
  6
CONTINUOUS
 10
-20.4379828328
 20
17.5
 11
-20.4379828328
 21
17.269689
  0
LINE
  5
29A
100
AcDbEntity
  8
0
100
AcDbLine
 62
7
  6
CONTINUOUS
 10
-20.4379828328
 20
16.437683
 11
-20.4379828328
 21
16.209482
  0
LINE
  5
29B
100
AcDbEntity
  8
0
100
AcDbLine
 62
7
  6
CONTINUOUS
 10
-20.4379828328
 20
15.407731
 11
-20.4379828328
 21
15.211779
  0
LINE
  5
29C
100
AcDbEntity
  8
0
100
AcDbLine
 62
7
  6
CONTINUOUS
 10
-20.4379828328
 20
14.506972
 11
-20.4379828328
 21
14.284858
  0
LINE
  5
29D
100
AcDbEntity
  8
0
100
AcDbLine
 62
7
  6
CONTINUOUS
 10
-20.4379828328
 20
13.683
 11
-20.4379828328
 21
12.505609
  0
LINE
  5
29E
100
AcDbEntity
  8
0
100
AcDbLine
 62
7
  6
CONTINUOUS
 10
-20.4379828328
 20
12.295573
 11
-20.4379828328
 21
12.099632
  0
LINE
  5
29F
100
AcDbEntity
  8
0
100
AcDbLine
 62
7
  6
CONTINUOUS
 10
-20.4379828328
 20
11.200972
 11
-20.4379828328
 21
11.011153
  0
LINE
  5
2A0
100
AcDbEntity
  8
0
100
AcDbLine
 62
7
  6
CONTINUOUS
 10
-20.4379828328
 20
10.282049
 11
-20.4379828328
 21
10.049756
  0
LINE
  5
2A1
100
AcDbEntity
  8
0
100
AcDbLine
 62
7
  6
CONTINUOUS
 10
-20.4379828328
 20
9.714561
 11
-20.4379828328
 21
9.518679
  0
LINE
  5
2A2
100
AcDbEntity
  8
0
100
AcDbLine
 62
7
  6
CONTINUOUS
 10
-20.4379828328
 20
8.65629
 11
-20.4379828328
 21
7.600036
  0
LINE
  5
2A3
100
AcDbEntity
  8
0
100
AcDbLine
 62
7
  6
CONTINUOUS
 10
-20.4379828328
 20
6.7256701264
 11
-20.4379828328
 21
6.131801
  0
LINE
  5
2A4
100
AcDbEntity
  8
0
100
AcDbLine
 62
7
  6
CONTINUOUS
 10
-20.4379828328
 20
5.416932
 11
-20.4379828328
 21
5.194748
  0
LINE
  5
2A5
100
AcDbEntity
  8
0
100
AcDbLine
 62
7
  6
CONTINUOUS
 10
-20.4379828328
 20
4.475822
 11
-20.4379828328
 21
4.197091
  0
LINE
  5
2A6
100
AcDbEntity
  8
0
100
AcDbLine
 62
7
  6
CONTINUOUS
 10
-20.4379828328
 20
3.36707
 11
-20.4379828328
 21
3.086347
  0
LINE
  5
2A7
100
AcDbEntity
  8
0
100
AcDbLine
 62
7
  6
CONTINUOUS
 10
-20.2704088328
 20
6.327753
 11
-20.2704088328
 21
6.7145207496
  0
LINE
  5
2A8
100
AcDbEntity
  8
0
100
AcDbLine
 62
7
  6
CONTINUOUS
 10
-20.2643108328
 20
7.795976
 11
-20.2643108328
 21
8.65629
  0
LINE
  5
2A9
100
AcDbEntity
  8
0
100
AcDbLine
 62
7
  6
CONTINUOUS
 10
-20.2643108328
 20
12.505609
 11
-20.2643108328
 21
12.996369
  0
LINE
  5
2AA
100
AcDbEntity
  8
0
100
AcDbLine
 62
7
  6
CONTINUOUS
 10
-20.2643108328
 20
13.192239
 11
-20.2643108328
 21
13.683
  0
LINE
  5
2AB
100
AcDbEntity
  8
0
100
AcDbLine
 62
7
  6
CONTINUOUS
 10
-20.1879828328
 20
20.9
 11
-20.1879828328
 21
20.8936293865
  0
LINE
  5
2AC
100
AcDbEntity
  8
DRAFT
100
AcDbLine
 62
7
  6
CONTINUOUS
 10
-19.9983286536
 20
21.6042853793
 11
-19.9983286536
 21
20.9785418101
  0
LINE
  5
2AD
100
AcDbEntity
  8
ASSI
100
AcDbLine
 62
7
  6
CONTINUOUS
 10
-19.9701018328
 20
-8.252462
 11
-19.9701018328
 21
-7.571112
  0
LINE
  5
2AE
100
AcDbEntity
  8
0
100
AcDbLine
 62
7
  6
CONTINUOUS
 10
-19.8199888328
 20
8.589647
 11
-19.8199888328
 21
7.795976
  0
LINE
  5
2AF
100
AcDbEntity
  8
0
100
AcDbLine
 62
7
  6
CONTINUOUS
 10
-19.6463168328
 20
7.795976
 11
-19.6463168328
 21
8.589647
  0
LINE
  5
2B0
100
AcDbEntity
  8
0
100
AcDbLine
 62
7
  6
CONTINUOUS
 10
-19.5836968328
 20
14.603917
 11
-19.5836968328
 21
14.153555
  0
LINE
  5
2B1
100
AcDbEntity
  8
0
100
AcDbLine
 62
7
  6
CONTINUOUS
 10
-19.5836968328
 20
5.513888
 11
-19.5836968328
 21
5.063526
  0
LINE
  5
2B2
100
AcDbEntity
  8
0
100
AcDbLine
 62
7
  6
CONTINUOUS
 10
-19.4100248328
 20
5.002923
 11
-19.4100248328
 21
5.584518
  0
LINE
  5
2B3
100
AcDbEntity
  8
0
100
AcDbLine
 62
7
  6
CONTINUOUS
 10
-19.4100248328
 20
14.092963
 11
-19.4100248328
 21
14.674617
  0
LINE
  5
2B4
100
AcDbEntity
  8
ASSI
100
AcDbLine
 62
7
  6
CONTINUOUS
 10
-19.2887078328
 20
-7.5711045359
 11
-19.2887078328
 21
-8.252455
  0
LINE
  5
2B5
100
AcDbEntity
  8
DRAFT
100
AcDbLine
 62
7
  6
CONTINUOUS
 10
-19.1857963575
 20
23.2219484213
 11
-19.1857963575
 21
22.4719484213
  0
LINE
  5
2B6
100
AcDbEntity
  8
0
100
AcDbLine
 62
7
  6
CONTINUOUS
 10
-19.1616548328
 20
16.142875
 11
-19.1616548328
 21
15.407731
  0
LINE
  5
2B7
100
AcDbEntity
  8
0
100
AcDbLine
 62
7
  6
CONTINUOUS
 10
-19.1616548328
 20
8.670444
 11
-19.1616548328
 21
7.795976
  0
LINE
  5
2B8
100
AcDbEntity
  8
DRAFT
100
AcDbLine
 62
7
  6
CONTINUOUS
 10
-19.1599312541
 20
-23.2219484213
 11
-19.1599312541
 21
-22.4719484213
  0
LINE
  5
2B9
100
AcDbEntity
  8
0
100
AcDbLine
 62
7
  6
CONTINUOUS
 10
-19.1555568328
 20
6.7145207497
 11
-19.1555568328
 21
6.327753
  0
LINE
  5
2BA
100
AcDbEntity
  8
0
100
AcDbLine
 62
7
  6
CONTINUOUS
 10
-18.9879828328
 20
3.086347
 11
-18.9879828328
 21
3.276172
  0
LINE
  5
2BB
100
AcDbEntity
  8
0
100
AcDbLine
 62
7
  6
CONTINUOUS
 10
-18.9879828328
 20
3.684146
 11
-18.9879828328
 21
3.878026
  0
LINE
  5
2BC
100
AcDbEntity
  8
0
100
AcDbLine
 62
7
  6
CONTINUOUS
 10
-18.9879828328
 20
4.285921
 11
-18.9879828328
 21
4.475822
  0
LINE
  5
2BD
100
AcDbEntity
  8
0
100
AcDbLine
 62
7
  6
CONTINUOUS
 10
-18.9879828328
 20
4.649505
 11
-18.9879828328
 21
4.851438
  0
LINE
  5
2BE
100
AcDbEntity
  8
0
100
AcDbLine
 62
7
  6
CONTINUOUS
 10
-18.9879828328
 20
5.727888
 11
-18.9879828328
 21
5.941981
  0
LINE
  5
2BF
100
AcDbEntity
  8
0
100
AcDbLine
 62
7
  6
CONTINUOUS
 10
-18.9879828328
 20
6.131801
 11
-18.9879828328
 21
6.7195050546
  0
LINE
  5
2C0
100
AcDbEntity
  8
0
100
AcDbLine
 62
7
  6
CONTINUOUS
 10
-18.9879828328
 20
7.600036
 11
-18.9879828328
 21
8.670444
  0
LINE
  5
2C1
100
AcDbEntity
  8
0
100
AcDbLine
 62
7
  6
CONTINUOUS
 10
-18.9879828328
 20
9.518679
 11
-18.9879828328
 21
9.714561
  0
LINE
  5
2C2
100
AcDbEntity
  8
0
100
AcDbLine
 62
7
  6
CONTINUOUS
 10
-18.9879828328
 20
10.049756
 11
-18.9879828328
 21
10.239669
  0
LINE
  5
2C3
100
AcDbEntity
  8
0
100
AcDbLine
 62
7
  6
CONTINUOUS
 10
-18.9879828328
 20
10.980852
 11
-18.9879828328
 21
11.200972
  0
LINE
  5
2C4
100
AcDbEntity
  8
0
100
AcDbLine
 62
7
  6
CONTINUOUS
 10
-18.9879828328
 20
12.099632
 11
-18.9879828328
 21
12.295573
  0
LINE
  5
2C5
100
AcDbEntity
  8
0
100
AcDbLine
 62
7
  6
CONTINUOUS
 10
-18.9879828328
 20
12.996369
 11
-18.9879828328
 21
13.192239
  0
LINE
  5
2C6
100
AcDbEntity
  8
0
100
AcDbLine
 62
7
  6
CONTINUOUS
 10
-18.9879828328
 20
13.739545
 11
-18.9879828328
 21
13.941467
  0
LINE
  5
2C7
100
AcDbEntity
  8
0
100
AcDbLine
 62
7
  6
CONTINUOUS
 10
-18.9879828328
 20
14.817998
 11
-18.9879828328
 21
15.032127
  0
LINE
  5
2C8
100
AcDbEntity
  8
0
100
AcDbLine
 62
7
  6
CONTINUOUS
 10
-18.9879828328
 20
15.211779
 11
-18.9879828328
 21
16.142875
  0
LINE
  5
2C9
100
AcDbEntity
  8
0
100
AcDbLine
 62
7
  6
CONTINUOUS
 10
-18.9879828328
 20
16.756765
 11
-18.9879828328
 21
16.9526
  0
LINE
  5
2CA
100
AcDbEntity
  8
DRAFT
100
AcDbLine
 62
7
  6
CONTINUOUS
 10
-18.8665246429
 20
20.8214581899
 11
-18.8665246429
 21
19.1714581899
  0
LINE
  5
2CB
100
AcDbEntity
  8
0
100
AcDbLine
 62
7
  6
CONTINUOUS
 10
-18.7940387907
 20
20.8575734286
 11
-18.7940387907
 21
19.2435114737
  0
LINE
  5
2CC
100
AcDbEntity
  8
ASSI
100
AcDbLine
 62
7
  6
CONTINUOUS
 10
-18.7706798328
 20
-10.085755
 11
-18.7706798328
 21
-10.628563
  0
LINE
  5
2CD
100
AcDbEntity
  8
ASSI
100
AcDbLine
 62
7
  6
CONTINUOUS
 10
-18.7706868328
 20
-8.244671
 11
-18.7706798328
 21
-7.755896
  0
LINE
  5
2CE
100
AcDbEntity
  8
DRAFT
100
AcDbLine
 62
7
  6
CONTINUOUS
 10
-18.7089268689
 20
20.8476387933
 11
-18.7089268689
 21
19.2435114737
  0
LINE
  5
2CF
100
AcDbEntity
  8
DRAFT
100
AcDbLine
 62
7
  6
CONTINUOUS
 10
-18.6879828328
 20
20.9
 11
-18.6879828328
 21
19.25
  0
LINE
  5
2D0
100
AcDbEntity
  8
DRAFT
100
AcDbLine
 62
7
  6
CONTINUOUS
 10
-18.6094410227
 20
20.9785418101
 11
-18.6094410227
 21
19.3285418101
  0
LWPOLYLINE
  5
2D1
100
AcDbEntity
  8
0
100
AcDbPolyline
 62
7
  6
CONTINUOUS
 90
13
 70
0
 10
-20.2704088328
 20
6.7145207496
 10
-20.2632553215
 20
6.7792577922
 10
-20.2482536877
 20
6.8389420103
 10
-20.2254039312
 20
6.893573404
 10
-20.1944065096
 20
6.943571361
 10
-20.1555609653
 20
6.9885164935
 10
-20.1097659266
 20
7.0271506385
 10
-20.0565013336
 20
7.0589338123
 10
-19.9962872461
 20
7.0844059985
 10
-19.9315824715
 20
7.1039289847
 10
-19.8632066124
 20
7.117623367
 10
-19.7903400661
 20
7.1253685493
 10
-19.7129828328
 20
7.1271645316
  0
LINE
  5
2D2
100
AcDbEntity
  8
RACCORDO
100
AcDbLine
 62
7
  6
CONTINUOUS
 10
-7.1001710936
 20
20.9476387933
 11
-7.0745775586
 21
20.9808008909
  0
LINE
  5
2D3
100
AcDbEntity
  8
RACCORDO
100
AcDbLine
 62
7
  6
CONTINUOUS
 10
-4.9793884407
 20
23.2585943921
 11
-4.9879828328
 21
23.25
  0
LINE
  5
2D4
100
AcDbEntity
  8
0
100
AcDbLine
 62
7
  6
CONTINUOUS
 10
-7.4544204328
 20
20.3835624
 11
-7.5165246429
 21
20.3214581899
  0
LINE
  5
2D5
100
AcDbEntity
  8
DRAFT
100
AcDbLine
 62
7
  6
CONTINUOUS
 10
-7.4903440396
 20
19.1976387933
 11
-7.5165246429
 21
19.1714581899
  0
LINE
  5
2D6
100
AcDbEntity
  8
RACCORDO
100
AcDbLine
 62
250
  6
CONTINUOUS
 10
-7.2857237521
 20
21.2673325931
 11
-7.192308189
 21
21.3544440149
  0
LINE
  5
2D7
100
AcDbEntity
  8
RACCORDO
100
AcDbLine
 62
250
  6
CONTINUOUS
 10
-7.039823418
 20
20.937150617
 11
-6.9132457574
 21
21.0551861951
  0
LWPOLYLINE
  5
2D8
100
AcDbEntity
  8
RACCORDO
100
AcDbPolyline
 62
7
  6
CONTINUOUS
 90
7
 70
0
 10
-4.9120362364
 20
20.9759465964
 10
-4.9098841573
 20
20.9776003319
 10
-4.9057315108
 20
20.9818524584
 10
-4.899578297
 20
20.9884045358
 10
-4.8911864538
 20
20.9969299835
 10
-4.8807940432
 20
21.0071452757
 10
-4.8562337209
 20
21.0318584128
  0
LINE
  5
2D9
100
AcDbEntity
  8
0
100
AcDbLine
 62
7
  6
CONTINUOUS
 10
-20.1655568328
 20
10.239669
 11
-18.9879828328
 21
10.980852
  0
LINE
  5
2DA
100
AcDbEntity
  8
0
100
AcDbLine
 62
7
  6
CONTINUOUS
 10
-19.2601708328
 20
11.011153
 11
-20.4379828328
 21
10.282049
  0
LINE
  5
2DB
100
AcDbEntity
  8
0
100
AcDbLine
 62
7
  6
CONTINUOUS
 10
-18.9879828328
 20
15.032127
 11
-20.4379828328
 21
14.506972
  0
LINE
  5
2DC
100
AcDbEntity
  8
0
100
AcDbLine
 62
7
  6
CONTINUOUS
 10
-19.4100248328
 20
14.674617
 11
-18.9879828328
 21
14.817998
  0
LINE
  5
2DD
100
AcDbEntity
  8
0
100
AcDbLine
 62
7
  6
CONTINUOUS
 10
-20.2276628328
 20
14.387877
 11
-19.5836968328
 21
14.603917
  0
LINE
  5
2DE
100
AcDbEntity
  8
DRAFT
100
AcDbLine
 62
7
  6
CONTINUOUS
 10
4.8366689175
 20
-19.5650932732
 11
4.6386704007
 21
-19.5846563617
  0
LINE
  5
2DF
100
AcDbEntity
  8
DRAFT
100
AcDbLine
 62
7
  6
CONTINUOUS
 10
4.6386704007
 20
-19.5846563617
 11
4.4775699985
 21
-19.6
  0
LWPOLYLINE
  5
2E0
100
AcDbEntity
  8
RACCORDO
100
AcDbPolyline
 62
250
  6
CONTINUOUS
 90
13
 70
0
 10
21.3011745227
 20
-19.1391459325
 10
21.3403290021
 20
-19.1365767554
 10
21.3788136022
 20
-19.1289191426
 10
21.4159699049
 20
-19.1163041053
 10
21.4511622168
 20
-19.0989474695
 10
21.4837884463
 20
-19.0771461831
 10
21.5132904033
 20
-19.0512732361
 10
21.5391633503
 20
-19.0217712791
 10
21.5609646367
 20
-18.9891450496
 10
21.5783212725
 20
-18.9539527377
 10
21.5909363098
 20
-18.916796435
 10
21.5985939226
 20
-18.8783118349
 10
21.6011630997
 20
-18.8391573555
  0
LINE
  5
2E1
100
AcDbEntity
  8
RACCORDO
100
AcDbLine
 62
7
  6
CONTINUOUS
 10
14.8113467195
 20
-20.9808008909
 11
14.5620171672
 21
-20.9808008909
  0
LINE
  5
2E2
100
AcDbEntity
  8
RACCORDO
100
AcDbLine
 62
7
  6
CONTINUOUS
 10
6.6435550184
 20
-20.9808008909
 11
7.0620171672
 21
-20.9808008909
  0
LINE
  5
2E3
100
AcDbEntity
  8
DRAFT
100
AcDbLine
 62
7
  6
CONTINUOUS
 10
19.5334753571
 20
-20.9785418101
 11
18.2334753571
 21
-20.9785418101
  0
LINE
  5
2E4
100
AcDbEntity
  8
RACCORDO
100
AcDbLine
 62
7
  6
CONTINUOUS
 10
17.0879637636
 20
-20.9759465964
 11
16.2447359064
 21
-20.9759465964
  0
LINE
  5
2E5
100
AcDbEntity
  8
RACCORDO
100
AcDbLine
 62
7
  6
CONTINUOUS
 10
5.3792984279
 20
-20.9759465964
 11
4.5360705708
 21
-20.9759465964
  0
LINE
  5
2E6
100
AcDbEntity
  8
DRAFT
100
AcDbLine
 62
7
  6
CONTINUOUS
 10
6.3634620768
 20
-20.9476387933
 11
7.0620171672
 21
-20.9476387933
  0
LINE
  5
2E7
100
AcDbEntity
  8
DRAFT
100
AcDbLine
 62
7
  6
CONTINUOUS
 10
14.5620171672
 20
-20.9476387933
 11
14.8101886736
 21
-20.9476387933
  0
LINE
  5
2E8
100
AcDbEntity
  8
0
100
AcDbLine
 62
7
  6
CONTINUOUS
 10
20.3120171672
 20
-20.9
 11
19.8120171672
 21
-20.9
  0
LINE
  5
2E9
100
AcDbEntity
  8
DRAFT
100
AcDbLine
 62
7
  6
CONTINUOUS
 10
3.5910731311
 20
-20.9
 11
3.5771104404
 21
-20.9
  0
LINE
  5
2EA
100
AcDbEntity
  8
DRAFT
100
AcDbLine
 62
7
  6
CONTINUOUS
 10
3.2120171672
 20
-20.9
 11
1.8334753571
 21
-20.9
  0
LINE
  5
2EB
100
AcDbEntity
  8
RACCORDO
100
AcDbLine
 62
7
  6
CONTINUOUS
 10
19.6120171672
 20
-20.9
 11
19.7120362057
 21
-20.9
  0
LINE
  5
2EC
100
AcDbEntity
  8
0
100
AcDbLine
 62
7
  6
CONTINUOUS
 10
18.4183877807
 20
-20.8936293865
 11
19.8120171672
 21
-20.8936293865
  0
LINE
  5
2ED
100
AcDbEntity
  8
0
100
AcDbLine
 62
7
  6
CONTINUOUS
 10
16.8120171672
 20
-20.85
 11
14.7620171672
 21
-20.85
  0
LINE
  5
2EE
100
AcDbEntity
  8
0
100
AcDbLine
 62
7
  6
CONTINUOUS
 10
4.8120171672
 20
-20.85
 11
6.0682908998
 21
-20.85
  0
LINE
  5
2EF
100
AcDbEntity
  8
0
100
AcDbLine
 62
7
  6
CONTINUOUS
 10
6.0794976609
 20
-20.85
 11
6.8620171672
 21
-20.85
  0
LINE
  5
2F0
100
AcDbEntity
  8
DRAFT
100
AcDbLine
 62
7
  6
CONTINUOUS
 10
4.8120171672
 20
-20.8476387933
 11
4.6329612033
 21
-20.8476387933
  0
LINE
  5
2F1
100
AcDbEntity
  8
DRAFT
100
AcDbLine
 62
7
  6
CONTINUOUS
 10
16.8120171672
 20
-20.8476387933
 11
16.9596559604
 21
-20.8476387933
  0
LINE
  5
2F2
100
AcDbEntity
  8
RACCORDO
100
AcDbLine
 62
7
  6
CONTINUOUS
 10
18.3329612033
 20
-20.8476387933
 11
18.4183877807
 21
-20.8476387933
  0
LINE
  5
2F3
100
AcDbEntity
  8
DRAFT
100
AcDbLine
 62
7
  6
CONTINUOUS
 10
18.4905589773
 20
-20.8214581899
 11
20.2794840842
 21
-20.8214581899
  0
LINE
  5
2F4
100
AcDbEntity
  8
DRAFT
100
AcDbLine
 62
7
  6
CONTINUOUS
 10
16.8602150267
 20
-20.4523612067
 11
16.9596559604
 21
-20.4523612067
  0
LINE
  5
2F5
100
AcDbEntity
  8
0
100
AcDbLine
 62
7
  6
CONTINUOUS
 10
16.8120171672
 20
-20.45
 11
15.5557434345
 21
-20.45
  0
LINE
  5
2F6
100
AcDbEntity
  8
0
100
AcDbLine
 62
7
  6
CONTINUOUS
 10
15.5445366735
 20
-20.45
 11
14.7620171672
 21
-20.45
  0
LINE
  5
2F7
100
AcDbEntity
  8
ASSI
100
AcDbLine
 62
7
  6
CONTINUOUS
 10
14.7620171672
 20
-20.45
 11
6.8620171672
 21
-20.45
  0
LINE
  5
2F8
100
AcDbEntity
  8
0
100
AcDbLine
 62
7
  6
CONTINUOUS
 10
4.8120171672
 20
-20.45
 11
6.8620171672
 21
-20.45
  0
LINE
  5
2F9
100
AcDbEntity
  8
0
100
AcDbLine
 62
7
  6
CONTINUOUS
 10
14.5455795672
 20
-20.3835624
 11
13.3120171672
 21
-20.3835624
  0
LINE
  5
2FA
100
AcDbEntity
  8
0
100
AcDbLine
 62
7
  6
CONTINUOUS
 10
7.0784547672
 20
-20.3835624
 11
8.3120171672
 21
-20.3835624
  0
LINE
  5
2FB
100
AcDbEntity
  8
RACCORDO
100
AcDbLine
 62
7
  6
CONTINUOUS
 10
8.8120171672
 20
-20.356365661
 11
12.8120171672
 21
-20.356365661
  0
LINE
  5
2FC
100
AcDbEntity
  8
RACCORDO
100
AcDbLine
 62
7
  6
CONTINUOUS
 10
16.3735075236
 20
-20.3240534036
 11
17.0879637636
 21
-20.3240534036
  0
LINE
  5
2FD
100
AcDbEntity
  8
DRAFT
100
AcDbLine
 62
7
  6
CONTINUOUS
 10
14.4834753571
 20
-20.3214581899
 11
7.1405589773
 21
-20.3214581899
  0
LINE
  5
2FE
100
AcDbEntity
  8
RACCORDO
100
AcDbLine
 62
7
  6
CONTINUOUS
 10
4.646923894
 20
-20.2758495282
 11
5.3469257217
 21
-20.2758495282
  0
LINE
  5
2FF
100
AcDbEntity
  8
RACCORDO
100
AcDbLine
 62
7
  6
CONTINUOUS
 10
4.6120171672
 20
-20.2409428014
 11
5.3120240206
 21
-20.2409428014
  0
LINE
  5
300
100
AcDbEntity
  8
RACCORDO
100
AcDbLine
 62
7
  6
CONTINUOUS
 10
4.5360705708
 20
-20.164996205
 11
5.0378197518
 21
-20.164996205
  0
LINE
  5
301
100
AcDbEntity
  8
RACCORDO
100
AcDbLine
 62
250
  6
CONTINUOUS
 10
16.3831184815
 20
-20.0240648267
 11
17.3879523405
 21
-20.0240648267
  0
LINE
  5
302
100
AcDbEntity
  8
RACCORDO
100
AcDbLine
 62
7
  6
CONTINUOUS
 10
5.0378197518
 20
-19.6785418101
 11
3.6905589773
 21
-19.6785418101
  0
LINE
  5
303
100
AcDbEntity
  8
DRAFT
100
AcDbLine
 62
7
  6
CONTINUOUS
 10
4.139136848
 20
-19.6479977728
 11
3.66001494
 21
-19.6479977728
  0
LINE
  5
304
100
AcDbEntity
  8
DRAFT
100
AcDbLine
 62
7
  6
CONTINUOUS
 10
5.6120171672
 20
-19.6
 11
4.4775699985
 21
-19.6
  0
LINE
  5
305
100
AcDbEntity
  8
DRAFT
100
AcDbLine
 62
7
  6
CONTINUOUS
 10
5.646923894
 20
-19.5650932732
 11
4.8366689175
 21
-19.5650932732
  0
LINE
  5
306
100
AcDbEntity
  8
RACCORDO
100
AcDbLine
 62
7
  6
CONTINUOUS
 10
18.2334753571
 20
-19.3285418101
 11
15.3862145826
 21
-19.3285418101
  0
LINE
  5
307
100
AcDbEntity
  8
DRAFT
100
AcDbLine
 62
7
  6
CONTINUOUS
 10
18.3120171672
 20
-19.25
 11
14.8120171672
 21
-19.25
  0
LINE
  5
308
100
AcDbEntity
  8
0
100
AcDbLine
 62
7
  6
CONTINUOUS
 10
18.4185056935
 20
-19.2435114737
 11
14.5555286409
 21
-19.2435114737
  0
LINE
  5
309
100
AcDbEntity
  8
DRAFT
100
AcDbLine
 62
7
  6
CONTINUOUS
 10
7.1143783739
 20
-19.1976387933
 11
3.2120171672
 21
-19.1976387933
  0
LINE
  5
30A
100
AcDbEntity
  8
RACCORDO
100
AcDbLine
 62
7
  6
CONTINUOUS
 10
-21.7094524458
 20
-19.1714581899
 11
3.2120171672
 21
-19.1714581899
  0
LINE
  5
30B
100
AcDbEntity
  8
RACCORDO
100
AcDbLine
 62
7
  6
CONTINUOUS
 10
21.3334867802
 20
-19.1714581899
 11
18.4905589773
 21
-19.1714581899
  0
LINE
  5
30C
100
AcDbEntity
  8
DRAFT
100
AcDbLine
 62
7
  6
CONTINUOUS
 10
7.1405589773
 20
-19.1714581899
 11
14.4834753571
 21
-19.1714581899
  0
LINE
  5
30D
100
AcDbEntity
  8
RACCORDO
100
AcDbLine
 62
7
  6
CONTINUOUS
 10
-21.6771401883
 20
-19.1391459325
 11
21.3011745227
 21
-19.1391459325
  0
LINE
  5
30E
100
AcDbEntity
  8
RACCORDO
100
AcDbLine
 62
250
  6
CONTINUOUS
 10
21.6011630997
 20
-18.8391573555
 11
-21.9771287653
 21
-18.8391573555
  0
LINE
  5
30F
100
AcDbEntity
  8
RACCORDO
100
AcDbLine
 62
250
  6
CONTINUOUS
 10
4.2360819939
 20
-19.8650076281
 11
5.3577249001
 21
-19.8654120854
  0
LWPOLYLINE
  5
310
100
AcDbEntity
  8
ASSI
100
AcDbPolyline
 62
7
  6
CONTINUOUS
 90
25
 70
0
 10
6.8620171672
 20
-20.85
 10
6.8825028049
 20
-20.8500844485
 10
6.9014693987
 20
-20.8503393052
 10
6.9189169486
 20
-20.8507668005
 10
6.9347212541
 20
-20.8513703865
 10
6.9490065157
 20
-20.8521515576
 10
6.9621453347
 20
-20.8531066334
 10
6.9741759756
 20
-20.8542324803
 10
6.9850601738
 20
-20.8555297677
 10
6.9950557372
 20
-20.85699756
 10
7.0041845744
 20
-20.8586307808
 10
7.0124247767
 20
-20.860431592
 10
7.0199684257
 20
-20.862413457
 10
7.0268501367
 20
-20.8645790464
 10
7.0330352945
 20
-20.8669304655
 10
7.0386121355
 20
-20.8694872716
 10
7.043608144
 20
-20.8722642512
 10
7.0479958358
 20
-20.8752590179
 10
7.0517809944
 20
-20.8784670176
 10
7.0549593682
 20
-20.8818963567
 10
7.0575352089
 20
-20.8855467702
 10
7.0595270552
 20
-20.8893954685
 10
7.0609410869
 20
-20.8934328673
 10
7.0617711242
 20
-20.8976668341
 10
7.0620171672
 20
-20.9020967918
  0
LINE
  5
311
100
AcDbEntity
  8
RACCORDO
100
AcDbLine
 62
250
  6
CONTINUOUS
 10
5.0378197518
 20
-20.164996205
 11
5.1372696874
 21
-20.1652273154
  0
LINE
  5
312
100
AcDbEntity
  8
RACCORDO
100
AcDbLine
 62
250
  6
CONTINUOUS
 10
5.3577249001
 20
-19.8654120854
 11
5.4896327801
 21
-19.8660051743
  0
LWPOLYLINE
  5
313
100
AcDbEntity
  8
ASSI
100
AcDbPolyline
 62
7
  6
CONTINUOUS
 90
25
 70
0
 10
6.8620171672
 20
-20.45
 10
6.8825028049
 20
-20.4501520073
 10
6.9014693987
 20
-20.4506107494
 10
6.9189169486
 20
-20.4513802408
 10
6.9347212541
 20
-20.4524666957
 10
6.9490065157
 20
-20.4538728037
 10
6.9621453347
 20
-20.4555919401
 10
6.9741759756
 20
-20.4576184646
 10
6.9850601738
 20
-20.4599535819
 10
6.9950557372
 20
-20.462595608
 10
7.0041845744
 20
-20.4655354054
 10
7.0124247767
 20
-20.4687768655
 10
7.0199684257
 20
-20.4723442225
 10
7.0268501367
 20
-20.4762422836
 10
7.0330352945
 20
-20.4804748379
 10
7.0386121355
 20
-20.4850770889
 10
7.043608144
 20
-20.4900756521
 10
7.0479958358
 20
-20.4954662322
 10
7.0517809944
 20
-20.5012406316
 10
7.0549593682
 20
-20.5074134421
 10
7.0575352089
 20
-20.5139841863
 10
7.0595270552
 20
-20.5209118434
 10
7.0609410869
 20
-20.5281791611
 10
7.0617711242
 20
-20.5358003014
 10
7.0620171672
 20
-20.5437742252
  0
LINE
  5
314
100
AcDbEntity
  8
RACCORDO
100
AcDbLine
 62
250
  6
CONTINUOUS
 10
5.1372696874
 20
-20.1652273154
 11
5.1903838069
 21
-20.1656132656
  0
LWPOLYLINE
  5
315
100
AcDbEntity
  8
RACCORDO
100
AcDbPolyline
 62
250
  6
CONTINUOUS
 90
4
 70
0
 10
14.9041999232
 20
-19.9490396121
 10
14.8944963764
 20
-19.9489395614
 10
14.8884925928
 20
-19.948935693
 10
14.8862336211
 20
-19.9490280068
  0
LWPOLYLINE
  5
316
100
AcDbEntity
  8
RACCORDO
100
AcDbPolyline
 62
250
  6
CONTINUOUS
 90
5
 70
0
 10
5.4896327801
 20
-19.8660051743
 10
5.5198288619
 20
-19.8662890358
 10
5.5295353644
 20
-19.8664351385
 10
5.5355410408
 20
-19.8665847167
 10
5.5378007133
 20
-19.8667377706
  0
LINE
  5
317
100
AcDbEntity
  8
RACCORDO
100
AcDbLine
 62
250
  6
CONTINUOUS
 10
5.1903838069
 20
-20.1656132656
 11
5.2104775261
 21
-20.1658607344
  0
LINE
  5
318
100
AcDbEntity
  8
RACCORDO
100
AcDbLine
 62
250
  6
CONTINUOUS
 10
14.9546445357
 20
-19.949916858
 11
14.9041999232
 21
-19.9490396121
  0
LWPOLYLINE
  5
319
100
AcDbEntity
  8
RACCORDO
100
AcDbPolyline
 62
250
  6
CONTINUOUS
 90
6
 70
0
 10
5.2104775261
 20
-20.1658607344
 10
5.2253309506
 20
-20.1661350768
 10
5.2306616153
 20
-20.166278824
 10
5.2344932965
 20
-20.1664247281
 10
5.2368768036
 20
-20.1665739026
 10
5.2378121364
 20
-20.1667263475
  0
LINE
  5
31A
100
AcDbEntity
  8
RACCORDO
100
AcDbLine
 62
250
  6
CONTINUOUS
 10
15.21608677
 20
-19.9558651335
 11
14.9546445357
 21
-19.949916858
  0
LINE
  5
31B
100
AcDbEntity
  8
RACCORDO
100
AcDbLine
 62
250
  6
CONTINUOUS
 10
15.3862145826
 20
-19.9601220862
 11
15.21608677
 21
-19.9558651335
  0
LWPOLYLINE
  5
31C
100
AcDbEntity
  8
RACCORDO
100
AcDbPolyline
 62
250
  6
CONTINUOUS
 90
5
 70
0
 10
15.179542624
 20
-20.2486110452
 10
15.1742035665
 20
-20.2484126512
 10
15.1703621775
 20
-20.248312672
 10
15.1679676525
 20
-20.2483089177
 10
15.1670199916
 20
-20.2484013883
  0
LINE
  5
31D
100
AcDbEntity
  8
RACCORDO
100
AcDbLine
 62
250
  6
CONTINUOUS
 10
15.1944089179
 20
-20.2492899387
 11
15.179542624
 21
-20.2486110452
  0
LINE
  5
31E
100
AcDbEntity
  8
RACCORDO
100
AcDbLine
 62
250
  6
CONTINUOUS
 10
6.5247930349
 20
-21.0549058878
 11
6.5099395757
 21
-21.0541421767
  0
LINE
  5
31F
100
AcDbEntity
  8
RACCORDO
100
AcDbLine
 62
250
  6
CONTINUOUS
 10
15.2262643269
 20
-20.2509741257
 11
15.1944089179
 21
-20.2492899387
  0
LINE
  5
320
100
AcDbEntity
  8
RACCORDO
100
AcDbLine
 62
250
  6
CONTINUOUS
 10
6.5099395757
 20
-21.0541421767
 11
6.4780939885
 21
-21.052274742
  0
LINE
  5
321
100
AcDbEntity
  8
RACCORDO
100
AcDbLine
 62
250
  6
CONTINUOUS
 10
15.2991872623
 20
-20.255248944
 11
15.2262643269
 21
-20.2509741257
  0
LINE
  5
322
100
AcDbEntity
  8
RACCORDO
100
AcDbLine
 62
250
  6
CONTINUOUS
 10
15.3670123762
 20
-20.2594954677
 11
15.2991872623
 21
-20.255248944
  0
LINE
  5
323
100
AcDbEntity
  8
RACCORDO
100
AcDbLine
 62
7
  6
CONTINUOUS
 10
15.0718684828
 20
-20.3376542835
 11
16.8602150267
 21
-20.4523612067
  0
LINE
  5
324
100
AcDbEntity
  8
RACCORDO
100
AcDbLine
 62
7
  6
CONTINUOUS
 10
15.0928079024
 20
-20.3180102908
 11
16.3710743658
 21
-20.4
  0
LINE
  5
325
100
AcDbEntity
  8
RACCORDO
100
AcDbLine
 62
7
  6
CONTINUOUS
 10
16.3735075236
 20
-20.3240534036
 11
15.3670123762
 21
-20.2594954677
  0
LINE
  5
326
100
AcDbEntity
  8
RACCORDO
100
AcDbLine
 62
250
  6
CONTINUOUS
 10
16.3831184815
 20
-20.0240648267
 11
15.3862145826
 21
-19.9601220862
  0
LINE
  5
327
100
AcDbEntity
  8
RACCORDO
100
AcDbLine
 62
250
  6
CONTINUOUS
 10
-21.7165776468
 20
-19.1365393438
 11
-21.6771401883
 21
-19.1391459325
  0
LINE
  5
328
100
AcDbEntity
  8
RACCORDO
100
AcDbLine
 62
250
  6
CONTINUOUS
 10
6.4780939885
 20
-21.052274742
 11
6.4051608347
 21
-21.0475778291
  0
LINE
  5
329
100
AcDbEntity
  8
RACCORDO
100
AcDbLine
 62
250
  6
CONTINUOUS
 10
6.4051608347
 20
-21.0475778291
 11
6.3372877072
 21
-21.0429357326
  0
LINE
  5
32A
100
AcDbEntity
  8
RACCORDO
100
AcDbLine
 62
250
  6
CONTINUOUS
 10
6.3163615619
 20
-21.3421935524
 11
5.368822596
 21
-21.2759351733
  0
LINE
  5
32B
100
AcDbEntity
  8
RACCORDO
100
AcDbLine
 62
7
  6
CONTINUOUS
 10
6.3372877072
 20
-21.0429357326
 11
5.3792984279
 21
-20.9759465964
  0
LINE
  5
32C
100
AcDbEntity
  8
RACCORDO
100
AcDbLine
 62
7
  6
CONTINUOUS
 10
5.3819505415
 20
-20.9
 11
6.6114878538
 21
-20.9859776244
  0
LINE
  5
32D
100
AcDbEntity
  8
RACCORDO
100
AcDbLine
 62
7
  6
CONTINUOUS
 10
5.4992656342
 20
-20.8872082911
 11
4.9671622807
 21
-20.85
  0
LINE
  5
32E
100
AcDbEntity
  8
RACCORDO
100
AcDbLine
 62
7
  6
CONTINUOUS
 10
6.3634620768
 20
-20.9476387933
 11
5.5464211435
 21
-20.8900878778
  0
LWPOLYLINE
  5
32F
100
AcDbEntity
  8
RACCORDO
100
AcDbPolyline
 62
7
  6
CONTINUOUS
 90
5
 70
0
 10
5.5464211435
 20
-20.8900878778
 10
5.5046032441
 20
-20.8870012682
 10
5.500245948
 20
-20.8866599487
 10
5.4973956747
 20
-20.8864228158
 10
5.4960524244
 20
-20.8862898695
  0
LINE
  5
330
100
AcDbEntity
  8
DRAFT
100
AcDbLine
 62
7
  6
CONTINUOUS
 10
16.8602150267
 20
-20.4523612067
 11
16.3710743658
 21
-20.4
  0
LINE
  5
331
100
AcDbEntity
  8
DRAFT
100
AcDbLine
 62
7
  6
CONTINUOUS
 10
5.3819505415
 20
-20.9
 11
4.9536228555
 21
-20.85
  0
LINE
  5
332
100
AcDbEntity
  8
RACCORDO
100
AcDbLine
 62
7
  6
CONTINUOUS
 10
6.6324454613
 20
-20.9790380459
 11
6.3634620768
 21
-20.9476387933
  0
LINE
  5
333
100
AcDbEntity
  8
RACCORDO
100
AcDbLine
 62
7
  6
CONTINUOUS
 10
5.4960524244
 20
-20.8862898695
 11
5.4992656342
 21
-20.8872082911
  0
LINE
  5
334
100
AcDbEntity
  8
DRAFT
100
AcDbLine
 62
7
  6
CONTINUOUS
 10
2.0120171672
 20
-22.4789297666
 11
2.0646938738
 21
-22.5
  0
LWPOLYLINE
  5
335
100
AcDbEntity
  8
RACCORDO
100
AcDbPolyline
 62
250
  6
CONTINUOUS
 90
16
 70
0
 10
-15.3019512191
 20
-14.5755252164
 10
-15.3116076801
 20
-14.5619671715
 10
-15.3202200378
 20
-14.5483736995
 10
-15.3278312567
 20
-14.5348294329
 10
-15.3344989227
 20
-14.5214031238
 10
-15.3402761436
 20
-14.5081721529
 10
-15.3452087336
 20
-14.4952243816
 10
-15.3493682228
 20
-14.4825922029
 10
-15.3528113019
 20
-14.4703464335
 10
-15.3555794078
 20
-14.4586266279
 10
-15.3577517088
 20
-14.4474508307
 10
-15.3593974999
 20
-14.4368680331
 10
-15.3605700307
 20
-14.4270595478
 10
-15.3613474685
 20
-14.4180975389
 10
-15.3618131486
 20
-14.4099435204
 10
-15.3620362364
 20
-14.4026066368
  0
LWPOLYLINE
  5
336
100
AcDbEntity
  8
RACCORDO
100
AcDbPolyline
 62
250
  6
CONTINUOUS
 90
13
 70
0
 10
-15.3620362364
 20
-16.8740648267
 10
-15.3594670593
 20
-16.913219306
 10
-15.3518094466
 20
-16.9517039062
 10
-15.3391944093
 20
-16.9888602088
 10
-15.3218377734
 20
-17.0240525208
 10
-15.3000364871
 20
-17.0566787502
 10
-15.2741635401
 20
-17.0861807073
 10
-15.244661583
 20
-17.1120536543
 10
-15.2120353536
 20
-17.1338549406
 10
-15.1768430416
 20
-17.1512115765
 10
-15.139686739
 20
-17.1638266138
 10
-15.1012021388
 20
-17.1714842265
 10
-15.0620476595
 20
-17.1740534036
  0
LINE
  5
337
100
AcDbEntity
  8
RACCORDO
100
AcDbLine
 62
7
  6
CONTINUOUS
 10
-16.6180494585
 20
20.9
 11
-16.631177404
 21
21.2759351733
  0
LINE
  5
338
100
AcDbEntity
  8
ASSI
100
AcDbLine
 62
7
  6
CONTINUOUS
 10
-18.2386588328
 20
-10.799384
 11
-18.2386588328
 21
-9.914927
  0
LINE
  5
339
100
AcDbEntity
  8
RACCORDO
100
AcDbLine
 62
250
  6
CONTINUOUS
 10
-17.7639180061
 20
20.0240648267
 11
-17.7639180061
 21
21.2759351733
  0
LINE
  5
33A
100
AcDbEntity
  8
ASSI
100
AcDbLine
 62
7
  6
CONTINUOUS
 10
-17.6879828328
 20
-17.600976
 11
-17.6879898328
 21
-17.040934
  0
LINE
  5
33B
100
AcDbEntity
  8
ASSI
100
AcDbLine
 62
7
  6
CONTINUOUS
 10
-17.6879828328
 20
-15.768565
 11
-17.6879898328
 21
-15.208544
  0
LINE
  5
33C
100
AcDbEntity
  8
ASSI
100
AcDbLine
 62
7
  6
CONTINUOUS
 10
-17.6879898328
 20
-13.55905
 11
-17.6879968328
 21
-12.999043
  0
LINE
  5
33D
100
AcDbEntity
  8
ASSI
100
AcDbLine
 62
7
  6
CONTINUOUS
 10
-17.6879898328
 20
-11.536204
 11
-17.6879968328
 21
-10.976183
  0
LINE
  5
33E
100
AcDbEntity
  8
ASSI
100
AcDbLine
 62
7
  6
CONTINUOUS
 10
-17.6879968328
 20
-7.194685
 11
-17.6880038328
 21
-6.563908
  0
LINE
  5
33F
100
AcDbEntity
  8
ASSI
100
AcDbLine
 62
7
  6
CONTINUOUS
 10
-17.6879968328
 20
-8.804762
 11
-17.6879968328
 21
-8.244734
  0
LINE
  5
340
100
AcDbEntity
  8
ASSI
100
AcDbLine
 62
7
  6
CONTINUOUS
 10
-17.6879898328
 20
-14.648537
 11
-17.6879898328
 21
-14.088516
  0
LINE
  5
341
100
AcDbEntity
  8
ASSI
100
AcDbLine
 62
7
  6
CONTINUOUS
 10
-17.6879898328
 20
-12.46957
 11
-17.6879898328
 21
-11.909549
  0
LINE
  5
342
100
AcDbEntity
  8
ASSI
100
AcDbLine
 62
7
  6
CONTINUOUS
 10
-17.6879968328
 20
-9.738135
 11
-17.6879898328
 21
-9.178107
  0
LINE
  5
343
100
AcDbEntity
  8
DRAFT
100
AcDbLine
 62
7
  6
CONTINUOUS
 10
-17.5090530662
 20
-22.5
 11
-17.5090530662
 21
-23.2289297666
  0
LINE
  5
344
100
AcDbEntity
  8
RACCORDO
100
AcDbLine
 62
7
  6
CONTINUOUS
 10
-17.4639294292
 20
20.3240534036
 11
-17.4639294292
 21
20.9759465964
  0
LINE
  5
345
100
AcDbEntity
  8
RACCORDO
100
AcDbLine
 62
7
  6
CONTINUOUS
 10
-17.3983286536
 20
22.7585974382
 11
-17.3983286536
 21
22.1712478072
  0
LINE
  5
346
100
AcDbEntity
  8
DRAFT
100
AcDbLine
 62
7
  6
CONTINUOUS
 10
-17.3879828328
 20
20.4
 11
-17.3879828328
 21
20.9
  0
LINE
  5
347
100
AcDbEntity
  8
DRAFT
100
AcDbLine
 62
7
  6
CONTINUOUS
 10
-17.3670387967
 20
20.4209440361
 11
-17.3670387967
 21
20.8476387933
  0
LINE
  5
348
100
AcDbEntity
  8
0
100
AcDbLine
 62
7
  6
CONTINUOUS
 10
-17.1879828328
 20
25.05
 11
-17.1879828328
 21
23.25
  0
LINE
  5
349
100
AcDbEntity
  8
0
100
AcDbLine
 62
7
  6
CONTINUOUS
 10
-17.1879828328
 20
20.85
 11
-17.1879828328
 21
20.45
  0
LINE
  5
34A
100
AcDbEntity
  8
0
100
AcDbLine
 62
250
  6
CONTINUOUS
 10
-16.2317082261
 20
20.85
 11
-16.2317082261
 21
20.45
  0
LINE
  5
34B
100
AcDbEntity
  8
0
100
AcDbLine
 62
7
  6
CONTINUOUS
 10
-15.9317082261
 20
20.45
 11
-15.9317082261
 21
20.85
  0
LINE
  5
34C
100
AcDbEntity
  8
RACCORDO
100
AcDbLine
 62
250
  6
CONTINUOUS
 10
-15.7621802482
 20
19.3285418101
 11
-15.7621802482
 21
19.9601220862
  0
LINE
  5
34D
100
AcDbEntity
  8
DRAFT
100
AcDbLine
 62
7
  6
CONTINUOUS
 10
-17.3879828328
 20
23.25
 11
-17.3983286536
 21
22.1712478072
  0
LINE
  5
34E
100
AcDbEntity
  8
RACCORDO
100
AcDbLine
 62
7
  6
CONTINUOUS
 10
-15.1621177293
 20
23.25
 11
-15.1836574766
 21
22.3516448247
  0
LINE
  5
34F
100
AcDbEntity
  8
DRAFT
100
AcDbLine
 62
7
  6
CONTINUOUS
 10
-16.7463690317
 20
20.4209440361
 11
-16.7470400314
 21
20.4
  0
LINE
  5
350
100
AcDbEntity
  8
RACCORDO
100
AcDbLine
 62
7
  6
CONTINUOUS
 10
-16.7470400314
 20
20.4
 11
-16.7590841471
 21
20.0240648267
  0
LWPOLYLINE
  5
351
100
AcDbEntity
  8
ASSI
100
AcDbPolyline
 62
7
  6
CONTINUOUS
 90
25
 70
0
 10
-14.9379828328
 20
20.9020967918
 10
-14.9382288966
 20
20.8976665809
 10
-14.9390590356
 20
20.8934323754
 10
-14.9404732499
 20
20.8893947538
 10
-14.9424653712
 20
20.8855458373
 10
-14.9450415678
 20
20.8818952252
 10
-14.9482203444
 20
20.8784657412
 10
-14.952005967
 20
20.8752576513
 10
-14.9563941697
 20
20.8722628381
 10
-14.9613906594
 20
20.8694858636
 10
-14.9669679466
 20
20.8669291121
 10
-14.9731535208
 20
20.8645777837
 10
-14.980035557
 20
20.8624123106
 10
-14.9875794276
 20
20.8604305835
 10
-14.9958197602
 20
20.8586299231
 10
-15.0049486133
 20
20.856996852
 10
-15.0149440663
 20
20.8555292053
 10
-15.0258280398
 20
20.8542320551
 10
-15.0378583534
 20
20.8531063272
 10
-15.0509967319
 20
20.8521513516
 10
-15.0652814506
 20
20.8513702616
 10
-15.0810851555
 20
20.8507667344
 10
-15.0985320618
 20
20.8503392774
 10
-15.1174979542
 20
20.8500844419
 10
-15.1379828328
 20
20.85
  0
LWPOLYLINE
  5
352
100
AcDbEntity
  8
RACCORDO
100
AcDbPolyline
 62
250
  6
CONTINUOUS
 90
13
 70
0
 10
-15.1836574766
 20
21.3544440149
 10
-15.1860035886
 20
21.3170202084
 10
-15.1929999549
 20
21.2801810975
 10
-15.2045372668
 20
21.2445022425
 10
-15.2204352696
 20
21.2105410765
 10
-15.240445579
 20
21.178828196
 10
-15.2642555613
 20
21.1498590712
 10
-15.2914932184
 20
21.1240863048
 10
-15.3217329993
 20
21.1019125608
 10
-15.3545024489
 20
21.0836842736
 10
-15.3892895899
 20
21.0696862349
 10
-15.4255509208
 20
21.0601371449
 10
-15.4627199082
 20
21.0551861951
  0
LWPOLYLINE
  5
353
100
AcDbEntity
  8
RACCORDO
100
AcDbPolyline
 62
7
  6
CONTINUOUS
 90
13
 70
0
 10
-15.1094478766
 20
21.2852410692
 10
-15.1117928564
 20
21.2478156876
 10
-15.1187882846
 20
21.2109750774
 10
-15.1303248683
 20
21.1752948429
 10
-15.1462223691
 20
21.1413324614
 10
-15.1662324016
 20
21.1096185642
 10
-15.1900423149
 20
21.080648647
 10
-15.2172801063
 20
21.0548753416
 10
-15.2475202156
 20
21.0327013355
 10
-15.2802901572
 20
21.0144730732
 10
-15.3150779303
 20
21.0004753558
 10
-15.351340018
 20
20.990926891
 10
-15.388509862
 20
20.9859768681
  0
LINE
  5
354
100
AcDbEntity
  8
RACCORDO
100
AcDbLine
 62
250
  6
CONTINUOUS
 10
-15.7429780418
 20
20.2594954677
 11
-15.7621802475
 21
19.9601220862
  0
LWPOLYLINE
  5
355
100
AcDbEntity
  8
RACCORDO
100
AcDbPolyline
 62
250
  6
CONTINUOUS
 90
13
 70
0
 10
-15.3620362364
 20
16.8740648267
 10
-15.3594670593
 20
16.913219306
 10
-15.3518094466
 20
16.9517039062
 10
-15.3391944093
 20
16.9888602088
 10
-15.3218377734
 20
17.0240525208
 10
-15.3000364871
 20
17.0566787502
 10
-15.2741635401
 20
17.0861807073
 10
-15.244661583
 20
17.1120536543
 10
-15.2120353536
 20
17.1338549406
 10
-15.1768430416
 20
17.1512115765
 10
-15.139686739
 20
17.1638266138
 10
-15.1012021388
 20
17.1714842265
 10
-15.0620476595
 20
17.1740534036
  0
LWPOLYLINE
  5
356
100
AcDbEntity
  8
RACCORDO
100
AcDbPolyline
 62
7
  6
CONTINUOUS
 90
25
 70
0
 10
-15.6879828328
 20
24.8663621424
 10
-15.6875394299
 20
24.8704327078
 10
-15.6862584486
 20
24.8744517894
 10
-15.6841398889
 20
24.8784193874
 10
-15.6811675518
 20
24.8823520034
 10
-15.6773576364
 20
24.8862331358
 10
-15.6727587393
 20
24.8900132792
 10
-15.6673607539
 20
24.8936911402
 10
-15.6611737869
 20
24.8972680122
 10
-15.6542767553
 20
24.9006982711
 10
-15.6466605631
 20
24.9039800388
 10
-15.6383343063
 20
24.9071151934
 10
-15.629404189
 20
24.9100637449
 10
-15.6198624761
 20
24.9128233029
 10
-15.6097169028
 20
24.9153962577
 10
-15.5990968794
 20
24.9177497905
 10
-15.5879963284
 20
24.9198810905
 10
-15.5764213273
 20
24.9217929685
 10
-15.5645195193
 20
24.9234610377
 10
-15.5522867181
 20
24.924882175
 10
-15.53972711
 20
24.9260595037
 10
-15.5270008972
 20
24.9269780063
 10
-15.5141614804
 20
24.9276326773
 10
-15.501155459
 20
24.9280285223
 10
-15.4879828328
 20
24.9281655413
  0
LINE
  5
357
100
AcDbEntity
  8
RACCORDO
100
AcDbLine
 62
7
  6
CONTINUOUS
 10
-4.6863964431
 20
21.2015647933
 11
-4.6379828328
 21
21.2501270382
  0
LINE
  5
358
100
AcDbEntity
  8
RACCORDO
100
AcDbLine
 62
7
  6
CONTINUOUS
 10
-4.9120362364
 20
20.9759465964
 11
-4.9879828328
 21
20.9
  0
LINE
  5
359
100
AcDbEntity
  8
DRAFT
100
AcDbLine
 62
7
  6
CONTINUOUS
 10
-3.1621177293
 20
22.5
 11
-3.1724635501
 21
22.4896541792
  0
LINE
  5
35A
100
AcDbEntity
  8
DRAFT
100
AcDbLine
 62
7
  6
CONTINUOUS
 10
-6.0228895596
 20
19.5650932732
 11
-5.9879828328
 21
19.6
  0
LINE
  5
35B
100
AcDbEntity
  8
RACCORDO
100
AcDbLine
 62
7
  6
CONTINUOUS
 10
-5.9879828328
 20
19.6
 11
-5.9137663789
 21
19.6742164539
  0
LINE
  5
35C
100
AcDbEntity
  8
RACCORDO
100
AcDbLine
 62
7
  6
CONTINUOUS
 10
-4.8113071986
 20
21.0767507761
 11
-4.6863964431
 21
21.2015647933
  0
LWPOLYLINE
  5
35D
100
AcDbEntity
  8
RACCORDO
100
AcDbPolyline
 62
7
  6
CONTINUOUS
 90
3
 70
0
 10
-4.8562337209
 20
21.0318584128
 10
-4.8420658093
 20
21.0458928916
 10
-4.8113071986
 20
21.0767507761
  0
LINE
  5
35E
100
AcDbEntity
  8
RACCORDO
100
AcDbLine
 62
250
  6
CONTINUOUS
 10
14.6886999563
 20
-17.1740417807
 11
14.6860819939
 21
-17.1740534036
  0
LINE
  5
35F
100
AcDbEntity
  8
0
100
AcDbLine
 62
7
  6
CONTINUOUS
 10
18.5120171672
 20
-17.8074743095
 11
20.3120171672
 21
-17.8074743095
  0
LINE
  5
360
100
AcDbEntity
  8
RACCORDO
100
AcDbLine
 62
7
  6
CONTINUOUS
 10
-15.1379942559
 20
-17.25
 11
-13.1158228814
 21
-17.25
  0
LINE
  5
361
100
AcDbEntity
  8
DRAFT
100
AcDbLine
 62
7
  6
CONTINUOUS
 10
11.364483107
 20
-17.25
 11
11.3463362456
 21
-17.25
  0
LINE
  5
362
100
AcDbEntity
  8
DRAFT
100
AcDbLine
 62
7
  6
CONTINUOUS
 10
-6.2601427842
 20
-17.25
 11
5.8841771186
 21
-17.25
  0
LINE
  5
363
100
AcDbEntity
  8
DRAFT
100
AcDbLine
 62
7
  6
CONTINUOUS
 10
7.2595512274
 20
-17.25
 11
7.2904052355
 21
-17.25
  0
LINE
  5
364
100
AcDbEntity
  8
DRAFT
100
AcDbLine
 62
7
  6
CONTINUOUS
 10
-7.635516893
 20
-17.25
 11
-7.6536637544
 21
-17.25
  0
LINE
  5
365
100
AcDbEntity
  8
DRAFT
100
AcDbLine
 62
7
  6
CONTINUOUS
 10
-11.7223019112
 20
-17.25
 11
-11.7404487726
 21
-17.25
  0
LINE
  5
366
100
AcDbEntity
  8
RACCORDO
100
AcDbLine
 62
7
  6
CONTINUOUS
 10
12.7398572158
 20
-17.25
 11
14.7620285903
 21
-17.25
  0
LINE
  5
367
100
AcDbEntity
  8
RACCORDO
100
AcDbLine
 62
7
  6
CONTINUOUS
 10
-15.0620476595
 20
-17.1740534036
 11
-13.1158228814
 21
-17.1740534036
  0
LINE
  5
368
100
AcDbEntity
  8
RACCORDO
100
AcDbLine
 62
7
  6
CONTINUOUS
 10
-6.2601427842
 20
-17.1740534036
 11
5.8841771186
 21
-17.1740534036
  0
LINE
  5
369
100
AcDbEntity
  8
RACCORDO
100
AcDbLine
 62
7
  6
CONTINUOUS
 10
12.7398572158
 20
-17.1740534036
 11
14.6860819939
 21
-17.1740534036
  0
LINE
  5
36A
100
AcDbEntity
  8
RACCORDO
100
AcDbLine
 62
250
  6
CONTINUOUS
 10
-6.4333412698
 20
-16.8740648267
 11
6.0573756042
 21
-16.8740648267
  0
LINE
  5
36B
100
AcDbEntity
  8
RACCORDO
100
AcDbLine
 62
250
  6
CONTINUOUS
 10
12.5666587302
 20
-16.8740648267
 11
14.9860705708
 21
-16.8740648267
  0
LINE
  5
36C
100
AcDbEntity
  8
RACCORDO
100
AcDbLine
 62
250
  6
CONTINUOUS
 10
-12.9426243958
 20
-16.8740648267
 11
-15.3620362364
 21
-16.8740648267
  0
LINE
  5
36D
100
AcDbEntity
  8
0
100
AcDbLine
 62
7
  6
CONTINUOUS
 10
-12.4379828328
 20
-16.0
 11
-6.9379828328
 21
-16.0
  0
LINE
  5
36E
100
AcDbEntity
  8
0
100
AcDbLine
 62
7
  6
CONTINUOUS
 10
6.5620171672
 20
-16.0
 11
12.0620171672
 21
-16.0
  0
LINE
  5
36F
100
AcDbEntity
  8
ASSI
100
AcDbLine
 62
7
  6
CONTINUOUS
 10
-20.4881158328
 20
-15.768558
 11
-17.6879828328
 21
-15.768565
  0
LWPOLYLINE
  5
370
100
AcDbEntity
  8
RACCORDO
100
AcDbPolyline
 62
250
  6
CONTINUOUS
 90
23
 70
0
 10
-15.0620476595
 20
-14.9973709132
 10
-15.0805763871
 20
-14.9959612005
 10
-15.099238178
 20
-14.992143984
 10
-15.117956605
 20
-14.9859192635
 10
-15.1367157352
 20
-14.9772497886
 10
-15.1553635976
 20
-14.9661728098
 10
-15.1736245836
 20
-14.9528000788
 10
-15.1914209725
 20
-14.937004785
 10
-15.208678563
 20
-14.918913739
 10
-15.2251583453
 20
-14.8990191239
 10
-15.2408095774
 20
-14.8772331545
 10
-15.2555923771
 20
-14.8536436159
 10
-15.2693334986
 20
-14.8290060468
 10
-15.2820180072
 20
-14.8033071906
 10
-15.2936604664
 20
-14.7765603038
 10
-15.3041853915
 20
-14.7495606947
 10
-15.3136043875
 20
-14.722405616
 10
-15.3219905964
 20
-14.6949978149
 10
-15.3293900869
 20
-14.6678408411
 10
-15.3358595528
 20
-14.6409614801
 10
-15.341450468
 20
-14.6143329465
 10
-15.3462106673
 20
-14.5883784339
 10
-15.3502104078
 20
-14.5630899396
  0
LWPOLYLINE
  5
371
100
AcDbEntity
  8
RACCORDO
100
AcDbPolyline
 62
7
  6
CONTINUOUS
 90
13
 70
0
 10
15.0928099821
 20
-20.3180113399
 10
15.055469336
 20
-20.3132490949
 10
15.0190189709
 20
-20.3038481596
 10
14.9840327841
 20
-20.2899565484
 10
14.9510616199
 20
-20.2717929793
 10
14.9206245969
 20
-20.2496434309
 10
14.8932009343
 20
-20.2238566395
 10
14.8692224076
 20
-20.1948386083
 10
14.8490665494
 20
-20.1630462153
 10
14.8330507063
 20
-20.1289800198
 10
14.8214270415
 20
-20.0931763811
 10
14.8143785653
 20
-20.056199014
 10
14.8120162533
 20
-20.0186301131
  0
LWPOLYLINE
  5
372
100
AcDbEntity
  8
RACCORDO
100
AcDbPolyline
 62
250
  6
CONTINUOUS
 90
13
 70
0
 10
15.1670199916
 20
-20.2484013883
 10
15.1296817206
 20
-20.2436374711
 10
15.0932336001
 20
-20.2342353415
 10
15.0582494545
 20
-20.2203430227
 10
15.0252800602
 20
-20.2021792298
 10
14.9948444739
 20
-20.1800299262
 10
14.9674218612
 20
-20.1542438216
 10
14.9434439527
 20
-20.1252268822
 10
14.9232882469
 20
-20.0934359387
 10
14.9072720671
 20
-20.059371495
 10
14.8956475656
 20
-20.0235698481
 10
14.8885977538
 20
-19.9865946444
 10
14.8862336211
 20
-19.9490280068
  0
LINE
  5
373
100
AcDbEntity
  8
RACCORDO
100
AcDbLine
 62
7
  6
CONTINUOUS
 10
-15.0753045145
 20
-14.6738080217
 11
-15.0879570262
 21
-14.6718535838
  0
LWPOLYLINE
  5
374
100
AcDbEntity
  8
RACCORDO
100
AcDbPolyline
 62
7
  6
CONTINUOUS
 90
9
 70
0
 10
-15.0879570262
 20
-14.6718535838
 10
-15.138464422
 20
-14.6583170087
 10
-15.1858547502
 20
-14.6362161474
 10
-15.228688219
 20
-14.6062224583
 10
-15.265663481
 20
-14.5692471963
 10
-15.2956571701
 20
-14.5264137276
 10
-15.3177580314
 20
-14.4790233993
 10
-15.3312946065
 20
-14.4285160035
 10
-15.3358440102
 20
-14.3790439958
  0
LWPOLYLINE
  5
375
100
AcDbEntity
  8
RACCORDO
100
AcDbPolyline
 62
250
  6
CONTINUOUS
 90
9
 70
0
 10
-15.1319113397
 20
-14.6880662695
 10
-15.1507105695
 20
-14.682683755
 10
-15.1691472047
 20
-14.6761136756
 10
-15.1871442995
 20
-14.668382825
 10
-15.2046238525
 20
-14.659521186
 10
-15.221342336
 20
-14.6496677446
 10
-15.2372503406
 20
-14.6388950885
 10
-15.2523027294
 20
-14.6272761347
 10
-15.2663128464
 20
-14.6150158688
  0
LINE
  5
376
100
AcDbEntity
  8
ASSI
100
AcDbLine
 62
7
  6
CONTINUOUS
 10
-20.4881158328
 20
-12.75615
 11
-18.6645738328
 21
-13.279043
  0
LINE
  5
377
100
AcDbEntity
  8
ASSI
100
AcDbLine
 62
7
  6
CONTINUOUS
 10
-17.6879968328
 20
-12.999043
 11
-19.5344848328
 21
-12.469577
  0
LINE
  5
378
100
AcDbEntity
  8
ASSI
100
AcDbLine
 62
7
  6
CONTINUOUS
 10
-20.4881228328
 20
-10.637187
 11
-17.6879898328
 21
-11.536204
  0
LINE
  5
379
100
AcDbEntity
  8
ASSI
100
AcDbLine
 62
7
  6
CONTINUOUS
 10
-17.6879968328
 20
-10.976183
 11
-18.2386588328
 21
-10.799384
  0
LINE
  5
37A
100
AcDbEntity
  8
ASSI
100
AcDbLine
 62
7
  6
CONTINUOUS
 10
-18.7706798328
 20
-10.628563
 11
-19.6160278328
 21
-10.357166
  0
LWPOLYLINE
  5
37B
100
AcDbEntity
  8
DRAFT
100
AcDbPolyline
 62
7
  6
CONTINUOUS
 90
10
 70
0
 10
4.9490416089
 20
-19.535889534
 10
4.9354644922
 20
-19.5304803772
 10
4.9223773955
 20
-19.5248477828
 10
4.9097800259
 20
-19.5189927344
 10
4.8977345547
 20
-19.5128985135
 10
4.8861781133
 20
-19.5065837699
 10
4.8749229903
 20
-19.5001021499
 10
4.8639065565
 20
-19.4934717321
 10
4.8531910678
 20
-19.4866753988
 10
4.8427762998
 20
-19.4797136469
  0
LINE
  5
37C
100
AcDbEntity
  8
RACCORDO
100
AcDbLine
 62
250
  6
CONTINUOUS
 10
-14.4377418094
 20
-8.9956833493
 11
-13.9524733039
 21
-9.4809518548
  0
LINE
  5
37D
100
AcDbEntity
  8
RACCORDO
100
AcDbLine
 62
250
  6
CONTINUOUS
 10
-15.3620362364
 20
-7.9973933632
 11
-15.3358556331
 21
-8.0235739666
  0
LINE
  5
37E
100
AcDbEntity
  8
RACCORDO
100
AcDbLine
 62
250
  6
CONTINUOUS
 10
-14.1422994835
 20
-8.7002410234
 11
-13.657030978
 21
-9.1855095289
  0
LINE
  5
37F
100
AcDbEntity
  8
RACCORDO
100
AcDbLine
 62
250
  6
CONTINUOUS
 10
-15.056857232
 20
-7.7025952137
 11
-15.0358670561
 21
-7.7235853896
  0
LWPOLYLINE
  5
380
100
AcDbEntity
  8
0
100
AcDbPolyline
 62
7
  6
CONTINUOUS
 90
11
 70
0
 10
-12.6418981685
 20
-10.9201560291
 10
-12.6425654767
 20
-10.9194038251
 10
-12.6598555266
 20
-10.9040176085
 10
-12.6790229871
 20
-10.8905046237
 10
-12.6993378696
 20
-10.8794529826
 10
-12.7208623745
 20
-10.8710032831
 10
-12.7435343015
 20
-10.8650149272
 10
-12.7664370614
 20
-10.861654233
 10
-12.7892651243
 20
-10.8609766397
 10
-12.81232402
 20
-10.8629267081
 10
-12.8356137486
 20
-10.8675044381
  0
LWPOLYLINE
  5
381
100
AcDbEntity
  8
0
100
AcDbPolyline
 62
7
  6
CONTINUOUS
 90
19
 70
0
 10
-12.2030147508
 20
-10.9319582518
 10
-12.1983520047
 20
-10.9399433914
 10
-12.1932902154
 20
-10.9481116676
 10
-12.1877412258
 20
-10.9564837836
 10
-12.1813290209
 20
-10.965439964
 10
-12.1738120767
 20
-10.9750366163
 10
-12.165119496
 20
-10.9850459909
 10
-12.1550425848
 20
-10.9953672031
 10
-12.1432344814
 20
-11.005942989
 10
-12.1296499129
 20
-11.0163588473
 10
-12.1146031007
 20
-11.0259945147
 10
-12.0980697071
 20
-11.0345679118
 10
-12.0800171509
 20
-11.041862898
 10
-12.0609331187
 20
-11.0475238928
 10
-12.0410505012
 20
-11.051391169
 10
-12.0204493623
 20
-11.0533413261
 10
-11.9994958509
 20
-11.0532215228
 10
-11.978470406
 20
-11.0509240028
 10
-11.9601097341
 20
-11.0470226064
  0
LWPOLYLINE
  5
382
100
AcDbEntity
  8
0
100
AcDbPolyline
 62
7
  6
CONTINUOUS
 90
34
 70
0
 10
-12.6566947087
 20
-10.8821555521
 10
-12.6516649575
 20
-10.8952457034
 10
-12.6467743246
 20
-10.9078091978
 10
-12.6420186656
 20
-10.9198554206
 10
-12.6373812632
 20
-10.9314245107
 10
-12.6328619207
 20
-10.9425139423
 10
-12.6284534347
 20
-10.9531380921
 10
-12.6241259575
 20
-10.9633632757
 10
-12.6198744216
 20
-10.973193405
 10
-12.6156922283
 20
-10.9826348169
 10
-12.6115398223
 20
-10.9917641449
 10
-12.6074118088
 20
-11.0005766787
 10
-12.6032881281
 20
-11.0090965678
 10
-12.5990888727
 20
-11.0174603798
 10
-12.5948134908
 20
-11.0256325149
 10
-12.5904050826
 20
-11.0336799163
 10
-12.5856581968
 20
-11.0419039566
 10
-12.5805301628
 20
-11.0502726105
 10
-12.5749288087
 20
-11.0588155753
 10
-12.5684860202
 20
-11.0679084383
 10
-12.5609633317
 20
-11.0776098175
 10
-12.5522833357
 20
-11.0877046738
 10
-12.5422310883
 20
-11.098103863
 10
-12.5304578668
 20
-11.1087566648
 10
-12.5169167026
 20
-11.1192518357
 10
-12.5019164436
 20
-11.1289722781
 10
-12.4854394661
 20
-11.1376315229
 10
-12.4674415523
 20
-11.1450186402
 10
-12.4483758332
 20
-11.1507854997
 10
-12.4284734854
 20
-11.1547636537
 10
-12.4078115879
 20
-11.1568220476
 10
-12.3867191582
 20
-11.1567956987
 10
-12.3654686076
 20
-11.154552931
 10
-12.345704614
 20
-11.1503441281
  0
LWPOLYLINE
  5
383
100
AcDbEntity
  8
RACCORDO
100
AcDbPolyline
 62
250
  6
CONTINUOUS
 90
9
 70
0
 10
-15.3502104078
 20
-14.5630899396
 10
-15.3535052385
 20
-14.5384754664
 10
-15.3561387122
 20
-14.514982216
 10
-15.3581887163
 20
-14.4926057801
 10
-15.3597233242
 20
-14.4713505671
 10
-15.3607975727
 20
-14.4516770037
 10
-15.3614892245
 20
-14.4337385656
 10
-15.3618794055
 20
-14.4173817772
 10
-15.3620362364
 20
-14.4026066384
  0
LWPOLYLINE
  5
384
100
AcDbEntity
  8
RACCORDO
100
AcDbPolyline
 62
250
  6
CONTINUOUS
 90
4
 70
0
 10
-15.056857232
 20
-7.7025952137
 10
-15.0574339497
 20
-7.6976359804
 10
-15.0580106663
 20
-7.683811507
 10
-15.0585873817
 20
-7.6615372009
  0
LINE
  5
385
100
AcDbEntity
  8
RACCORDO
100
AcDbLine
 62
250
  6
CONTINUOUS
 10
-15.6836384381
 20
21.3421935524
 11
-15.6627122928
 21
21.0429357325
  0
LINE
  5
386
100
AcDbEntity
  8
0
100
AcDbLine
 62
7
  6
CONTINUOUS
 10
-14.6211644827
 20
20.3835624
 11
-14.6230236441
 21
20.45
  0
LWPOLYLINE
  5
387
100
AcDbEntity
  8
RACCORDO
100
AcDbPolyline
 62
250
  6
CONTINUOUS
 90
5
 70
0
 10
-15.358965435
 20
3.2511893609
 10
-15.3584603728
 20
3.2283704719
 10
-15.3579411405
 20
3.2119546558
 10
-15.3574029525
 20
3.2016365683
 10
-15.3568458089
 20
3.1974162093
  0
LINE
  5
388
100
AcDbEntity
  8
ASSI
100
AcDbLine
 62
7
  6
CONTINUOUS
 10
-13.5386593932
 20
-10.4933485791
 11
-13.5063095096
 21
-11.9714091292
  0
LWPOLYLINE
  5
389
100
AcDbEntity
  8
RACCORDO
100
AcDbPolyline
 62
250
  6
CONTINUOUS
 90
7
 70
0
 10
-15.0605288459
 20
3.5860951622
 10
-15.0600216487
 20
3.5603073082
 10
-15.059452557
 20
3.5385206015
 10
-15.0588488423
 20
3.5210616498
 10
-15.0582195952
 20
3.5082373315
 10
-15.0575557251
 20
3.500299508
 10
-15.056857232
 20
3.4974047863
  0
LINE
  5
38A
100
AcDbEntity
  8
RACCORDO
100
AcDbLine
 62
250
  6
CONTINUOUS
 10
-15.0585873817
 20
-7.6615372009
 11
-15.0597408084
 21
-7.5945501394
  0
LINE
  5
38B
100
AcDbEntity
  8
RACCORDO
100
AcDbLine
 62
250
  6
CONTINUOUS
 10
-15.3599043364
 20
3.3142042914
 11
-15.358965435
 21
3.2511893609
  0
LINE
  5
38C
100
AcDbEntity
  8
RACCORDO
100
AcDbLine
 62
250
  6
CONTINUOUS
 10
-15.0613519713
 20
3.6479440456
 11
-15.0605288459
 21
3.5860951622
  0
LINE
  5
38D
100
AcDbEntity
  8
RACCORDO
100
AcDbLine
 62
250
  6
CONTINUOUS
 10
-15.0597408084
 20
-7.5945501394
 11
-15.0620476595
 21
-7.4026066368
  0
LINE
  5
38E
100
AcDbEntity
  8
RACCORDO
100
AcDbLine
 62
250
  6
CONTINUOUS
 10
-15.361069351
 20
3.4500143513
 11
-15.3599043364
 21
3.3142042914
  0
LINE
  5
38F
100
AcDbEntity
  8
RACCORDO
100
AcDbLine
 62
250
  6
CONTINUOUS
 10
-15.0618645403
 20
3.7199779553
 11
-15.0613519713
 21
3.6479440456
  0
LINE
  5
390
100
AcDbEntity
  8
RACCORDO
100
AcDbLine
 62
250
  6
CONTINUOUS
 10
-15.3358440102
 20
-14.3790439958
 11
-15.3358556331
 21
-14.3764260334
  0
LINE
  5
391
100
AcDbEntity
  8
RACCORDO
100
AcDbLine
 62
250
  6
CONTINUOUS
 10
-15.3358440102
 20
-3.1790439958
 11
-15.3358556331
 21
-3.1764260334
  0
LINE
  5
392
100
AcDbEntity
  8
RACCORDO
100
AcDbLine
 62
7
  6
CONTINUOUS
 10
-15.3620044156
 20
3.7336925516
 11
-15.361069351
 21
3.4500143513
  0
LINE
  5
393
100
AcDbEntity
  8
RACCORDO
100
AcDbLine
 62
7
  6
CONTINUOUS
 10
-15.6879828328
 20
23.9702128587
 11
-15.6879828328
 21
24.8663621424
  0
LINE
  5
394
100
AcDbEntity
  8
RACCORDO
100
AcDbLine
 62
250
  6
CONTINUOUS
 10
-15.6836384381
 20
22.1712478072
 11
-15.6836384381
 21
21.3421935524
  0
LINE
  5
395
100
AcDbEntity
  8
RACCORDO
100
AcDbLine
 62
250
  6
CONTINUOUS
 10
-15.4879828328
 20
24.9281655413
 11
-15.4879828328
 21
24.5477429348
  0
LINE
  5
396
100
AcDbEntity
  8
RACCORDO
100
AcDbLine
 62
7
  6
CONTINUOUS
 10
-15.4379828328
 20
16.9500114231
 11
-15.4379828328
 21
-16.9500114231
  0
LINE
  5
397
100
AcDbEntity
  8
RACCORDO
100
AcDbLine
 62
7
  6
CONTINUOUS
 10
-15.3620362364
 20
16.8740648267
 11
-15.3620044156
 21
3.7336925516
  0
LINE
  5
398
100
AcDbEntity
  8
RACCORDO
100
AcDbLine
 62
7
  6
CONTINUOUS
 10
-15.3620362364
 20
-16.8740648267
 11
-15.3620362364
 21
-14.4026066368
  0
LINE
  5
399
100
AcDbEntity
  8
RACCORDO
100
AcDbLine
 62
7
  6
CONTINUOUS
 10
-15.3358556331
 20
3.1764260334
 11
-15.3358556331
 21
-3.1764260334
  0
LINE
  5
39A
100
AcDbEntity
  8
RACCORDO
100
AcDbLine
 62
7
  6
CONTINUOUS
 10
-15.3358556331
 20
-8.0235739666
 11
-15.3358556331
 21
-14.3764260334
  0
LINE
  5
39B
100
AcDbEntity
  8
RACCORDO
100
AcDbLine
 62
7
  6
CONTINUOUS
 10
-15.2621992867
 20
19.3242164539
 11
-15.2621992867
 21
19.9490280068
  0
LINE
  5
39C
100
AcDbEntity
  8
RACCORDO
100
AcDbLine
 62
7
  6
CONTINUOUS
 10
-15.1836574766
 20
22.3516448247
 11
-15.1836574766
 21
21.3544440149
  0
LINE
  5
39D
100
AcDbEntity
  8
RACCORDO
100
AcDbLine
 62
7
  6
CONTINUOUS
 10
-15.1621177293
 20
23.25
 11
-15.1621177293
 21
22.6993030839
  0
LINE
  5
39E
100
AcDbEntity
  8
RACCORDO
100
AcDbLine
 62
250
  6
CONTINUOUS
 10
-15.1379828328
 20
22.881171455
 11
-15.1379828328
 21
22.5007488485
  0
LINE
  5
39F
100
AcDbEntity
  8
ASSI
100
AcDbLine
 62
7
  6
CONTINUOUS
 10
-15.1379828328
 20
20.45
 11
-15.1379828328
 21
20.85
  0
LINE
  5
3A0
100
AcDbEntity
  8
RACCORDO
100
AcDbLine
 62
7
  6
CONTINUOUS
 10
-15.1356216261
 20
19.2435114737
 11
-15.1356216261
 21
20.0362610661
  0
LINE
  5
3A1
100
AcDbEntity
  8
RACCORDO
100
AcDbLine
 62
7
  6
CONTINUOUS
 10
-15.0902419136
 20
22.4712502867
 11
-15.0902419136
 21
21.2788844745
  0
LINE
  5
3A2
100
AcDbEntity
  8
RACCORDO
100
AcDbLine
 62
250
  6
CONTINUOUS
 10
-15.0620476595
 20
-14.9973933632
 11
-15.0620476595
 21
-17.1740534036
  0
LINE
  5
3A3
100
AcDbEntity
  8
RACCORDO
100
AcDbLine
 62
250
  6
CONTINUOUS
 10
-15.0618645403
 20
3.7199779553
 11
-15.0620476595
 21
17.1740534036
  0
LINE
  5
3A4
100
AcDbEntity
  8
RACCORDO
100
AcDbLine
 62
250
  6
CONTINUOUS
 10
-15.0358670561
 20
-14.6764146104
 11
-15.0358670561
 21
-7.7235853896
  0
LINE
  5
3A5
100
AcDbEntity
  8
RACCORDO
100
AcDbLine
 62
250
  6
CONTINUOUS
 10
-15.0358670561
 20
-3.4764146104
 11
-15.0358670561
 21
3.4764146104
  0
LINE
  5
3A6
100
AcDbEntity
  8
ASSI
100
AcDbLine
 62
7
  6
CONTINUOUS
 10
-14.9379828328
 20
20.5437742252
 11
-14.9379828328
 21
21.3499999965
  0
LINE
  5
3A7
100
AcDbEntity
  8
0
100
AcDbLine
 62
7
  6
CONTINUOUS
 10
-14.9379828328
 20
21.3499999968
 11
-14.9379828328
 21
22.2059508647
  0
LINE
  5
3A8
100
AcDbEntity
  8
RACCORDO
100
AcDbLine
 62
7
  6
CONTINUOUS
 10
-14.9379828328
 20
22.2059508647
 11
-14.9379828328
 21
22.8193680562
  0
LINE
  5
3A9
100
AcDbEntity
  8
DRAFT
100
AcDbLine
 62
7
  6
CONTINUOUS
 10
-14.8594410227
 20
19.1714581899
 11
-14.8594410227
 21
20.3214581899
  0
LINE
  5
3AA
100
AcDbEntity
  8
RACCORDO
100
AcDbLine
 62
250
  6
CONTINUOUS
 10
-14.7331841353
 20
-13.4043166507
 11
-14.7331841353
 21
-8.9956833493
  0
LINE
  5
3AB
100
AcDbEntity
  8
0
100
AcDbLine
 62
7
  6
CONTINUOUS
 10
-14.6055259114
 20
20.45
 11
-14.6055259114
 21
20.3835624
  0
LINE
  5
3AC
100
AcDbEntity
  8
0
100
AcDbLine
 62
7
  6
CONTINUOUS
 10
-14.5267861142
 20
20.3835624
 11
-14.5267861142
 21
20.45
  0
LINE
  5
3AD
100
AcDbEntity
  8
RACCORDO
100
AcDbLine
 62
250
  6
CONTINUOUS
 10
-14.1422994835
 20
-8.4047986975
 11
-14.1422994835
 21
-8.7002410234
  0
LINE
  5
3AE
100
AcDbEntity
  8
RACCORDO
100
AcDbLine
 62
250
  6
CONTINUOUS
 10
-14.1422994835
 20
-13.9952013025
 11
-14.1422994836
 21
-13.6997589766
  0
LINE
  5
3AF
100
AcDbEntity
  8
RACCORDO
100
AcDbLine
 62
7
  6
CONTINUOUS
 10
-13.9524733039
 20
-9.4809518548
 11
-13.9524733039
 21
-12.9190481452
  0
LINE
  5
3B0
100
AcDbEntity
  8
RACCORDO
100
AcDbLine
 62
7
  6
CONTINUOUS
 10
-13.6879828328
 20
20.45
 11
-13.6879828328
 21
20.3607290949
  0
LINE
  5
3B1
100
AcDbEntity
  8
RACCORDO
100
AcDbLine
 62
250
  6
CONTINUOUS
 10
-13.1879828328
 20
20.45
 11
-13.1879828328
 21
20.356365661
  0
LWPOLYLINE
  5
3B2
100
AcDbEntity
  8
RACCORDO
100
AcDbPolyline
 62
250
  6
CONTINUOUS
 90
19
 70
0
 10
-14.4377418094
 20
-13.4043166507
 10
-14.4377162919
 20
-8.9762646761
 10
-14.436376225
 20
-8.9562341822
 10
-14.4335868134
 20
-8.9356850099
 10
-14.4292414316
 20
-8.9147425498
 10
-14.4231925205
 20
-8.8935259114
 10
-14.4152337372
 20
-8.8721552728
 10
-14.4052314417
 20
-8.8507914055
 10
-14.3930803052
 20
-8.8296720911
 10
-14.378617139
 20
-8.8090796682
 10
-14.3617728985
 20
-8.7892824048
 10
-14.3425073478
 20
-8.7705694773
 10
-14.3207369922
 20
-8.7532982449
 10
-14.2964841513
 20
-8.7378103799
 10
-14.2698382089
 20
-8.7244602078
 10
-14.2408811286
 20
-8.7136541647
 10
-14.2097853061
 20
-8.7057786261
 10
-14.1768190661
 20
-8.7011892662
 10
-14.1422994835
 20
-8.7002410234
  0
LINE
  5
3B3
100
AcDbEntity
  8
RACCORDO
100
AcDbLine
 62
7
  6
CONTINUOUS
 10
-15.3615877506
 20
-3.5546450044
 11
-15.3620362364
 21
-7.9973933632
  0
LINE
  5
3B4
100
AcDbEntity
  8
RACCORDO
100
AcDbLine
 62
250
  6
CONTINUOUS
 10
-15.0620476595
 20
-7.4026066368
 11
-15.0618645405
 21
-3.7199779897
  0
LINE
  5
3B5
100
AcDbEntity
  8
RACCORDO
100
AcDbLine
 62
7
  6
CONTINUOUS
 10
-15.3610693866
 20
-3.4500201095
 11
-15.3615877506
 21
-3.5546450044
  0
LINE
  5
3B6
100
AcDbEntity
  8
RACCORDO
100
AcDbLine
 62
250
  6
CONTINUOUS
 10
-15.0618645405
 20
-3.7199779897
 11
-15.061351972
 21
-3.6479440957
  0
LINE
  5
3B7
100
AcDbEntity
  8
0
100
AcDbLine
 62
7
  6
CONTINUOUS
 10
-14.9215452328
 20
20.3835624
 11
-14.9314943065
 21
19.2435114737
  0
LINE
  5
3B8
100
AcDbEntity
  8
RACCORDO
100
AcDbLine
 62
250
  6
CONTINUOUS
 10
-15.3599043364
 20
-3.3142042906
 11
-15.3610693866
 21
-3.4500201095
  0
LWPOLYLINE
  5
3B9
100
AcDbEntity
  8
RACCORDO
100
AcDbPolyline
 62
250
  6
CONTINUOUS
 90
5
 70
0
 10
-15.3620362364
 20
-7.9973933625
 10
-15.3618515759
 20
-7.9810332709
 10
-15.3614004193
 20
-7.9634849409
 10
-15.3606271111
 20
-7.9447483724
 10
-15.3594686007
 20
-7.9247199377
  0
LINE
  5
3BA
100
AcDbEntity
  8
RACCORDO
100
AcDbLine
 62
250
  6
CONTINUOUS
 10
-15.0604004797
 20
-14.8481310514
 11
-15.0620476595
 21
-14.9973933632
  0
LWPOLYLINE
  5
3BB
100
AcDbEntity
  8
RACCORDO
100
AcDbPolyline
 62
250
  6
CONTINUOUS
 90
8
 70
0
 10
-15.061351972
 20
-3.6479440957
 10
-15.0605288472
 20
-3.5860952142
 10
-15.0600216502
 20
-3.5603073683
 10
-15.0594525585
 20
-3.5385206658
 10
-15.0588488437
 20
-3.5210617021
 10
-15.0582195963
 20
-3.5082373612
 10
-15.0575557257
 20
-3.5002995172
 10
-15.056857232
 20
-3.4974047863
  0
LINE
  5
3BC
100
AcDbEntity
  8
RACCORDO
100
AcDbLine
 62
250
  6
CONTINUOUS
 10
-15.358965435
 20
-3.2511893769
 11
-15.3599043364
 21
-3.3142042906
  0
LINE
  5
3BD
100
AcDbEntity
  8
RACCORDO
100
AcDbLine
 62
250
  6
CONTINUOUS
 10
-15.0591259018
 20
-14.7685122647
 11
-15.0604004797
 21
-14.8481310514
  0
LWPOLYLINE
  5
3BE
100
AcDbEntity
  8
RACCORDO
100
AcDbPolyline
 62
250
  6
CONTINUOUS
 90
19
 70
0
 10
-14.7331841353
 20
-8.9956833493
 10
-14.7324714033
 20
-8.9575198597
 10
-14.7286623193
 20
-8.9185074427
 10
-14.7217568835
 20
-8.8786460983
 10
-14.7120378978
 20
-8.8376532617
 10
-14.6992225602
 20
-8.7958114976
 10
-14.6824624647
 20
-8.7539685006
 10
-14.6616725328
 20
-8.7119199983
 10
-14.6369378429
 20
-8.6698702631
 10
-14.6076652241
 20
-8.6292798059
 10
-14.573687971
 20
-8.5900038619
 10
-14.5351727888
 20
-8.5521871961
 10
-14.4920266227
 20
-8.5177246146
 10
-14.4439745049
 20
-8.4865208978
 10
-14.391291403
 20
-8.4586712654
 10
-14.3347091652
 20
-8.4363561827
 10
-14.2744717406
 20
-8.4203024713
 10
-14.2103351801
 20
-8.4097833096
 10
-14.1422994835
 20
-8.4047986975
  0
LWPOLYLINE
  5
3BF
100
AcDbEntity
  8
ASSI
100
AcDbPolyline
 62
7
  6
CONTINUOUS
 90
25
 70
0
 10
-14.9379828328
 20
20.5437742252
 10
-14.9382288966
 20
20.5357998457
 10
-14.9390590356
 20
20.5281782758
 10
-14.9404732499
 20
20.5209105569
 10
-14.9424653712
 20
20.5139825071
 10
-14.9450415678
 20
20.5074114053
 10
-14.9482203444
 20
20.5012383342
 10
-14.952005967
 20
20.4954637724
 10
-14.9563941697
 20
20.4900731085
 10
-14.9613906594
 20
20.4850745545
 10
-14.9669679466
 20
20.4804724017
 10
-14.9731535208
 20
20.4762400106
 10
-14.980035557
 20
20.472342159
 10
-14.9875794276
 20
20.4687750503
 10
-14.9958197602
 20
20.4655338616
 10
-15.0049486133
 20
20.4625943337
 10
-15.0149440663
 20
20.4599525695
 10
-15.0258280398
 20
20.4576176991
 10
-15.0378583534
 20
20.4555913889
 10
-15.0509967319
 20
20.4538724329
 10
-15.0652814506
 20
20.452466471
 10
-15.0810851555
 20
20.4513801219
 10
-15.0985320618
 20
20.4506106994
 10
-15.1174979542
 20
20.4501519954
 10
-15.1379828328
 20
20.45
  0
LWPOLYLINE
  5
3C0
100
AcDbEntity
  8
RACCORDO
100
AcDbPolyline
 62
250
  6
CONTINUOUS
 90
8
 70
0
 10
-15.3620362364
 20
-7.9973933632
 10
-15.3617782133
 20
-7.9892694287
 10
-15.3612460073
 20
-7.9805242955
 10
-15.3603831097
 20
-7.9711682815
 10
-15.3591248025
 20
-7.9611865622
 10
-15.3574101139
 20
-7.9506270589
 10
-15.3551929181
 20
-7.9395995551
 10
-15.3524184619
 20
-7.92814713
  0
LWPOLYLINE
  5
3C1
100
AcDbEntity
  8
RACCORDO
100
AcDbPolyline
 62
250
  6
CONTINUOUS
 90
3
 70
0
 10
-15.3568458089
 20
3.1974162093
 10
-15.3542765568
 20
3.236571258
 10
-15.3466187344
 20
3.2750563509
  0
LWPOLYLINE
  5
3C2
100
AcDbEntity
  8
RACCORDO
100
AcDbPolyline
 62
7
  6
CONTINUOUS
 90
12
 70
0
 10
-15.3358556331
 20
3.1764260334
 10
-15.3332638778
 20
3.2157515405
 10
-15.3255375782
 20
3.2544048422
 10
-15.3128075353
 20
3.2917180728
 10
-15.2952904424
 20
3.3270470867
 10
-15.2732869308
 20
3.3597790245
 10
-15.2471779161
 20
3.3893438914
 10
-15.2173439261
 20
3.4152830827
 10
-15.1843560427
 20
3.4370757455
 10
-15.1490345031
 20
3.454241596
 10
-15.1121161247
 20
3.466556791
 10
-15.0753045145
 20
3.4738080217
  0
LWPOLYLINE
  5
3C3
100
AcDbEntity
  8
RACCORDO
100
AcDbPolyline
 62
250
  6
CONTINUOUS
 90
5
 70
0
 10
-15.3594686007
 20
-7.9247199377
 10
-15.3578642684
 20
-7.9035032646
 10
-15.3557668297
 20
-7.881409236
 10
-15.3531225358
 20
-7.8584412858
 10
-15.3498700032
 20
-7.8345959801
  0
LWPOLYLINE
  5
3C4
100
AcDbEntity
  8
RACCORDO
100
AcDbPolyline
 62
7
  6
CONTINUOUS
 90
10
 70
0
 10
-15.3358556331
 20
-8.0235739666
 10
-15.3312946065
 20
-7.9714839965
 10
-15.3177580314
 20
-7.9209766007
 10
-15.2956571701
 20
-7.8735862724
 10
-15.265663481
 20
-7.8307528037
 10
-15.228688219
 20
-7.7937775417
 10
-15.1858547502
 20
-7.7637838526
 10
-15.138464422
 20
-7.7416829913
 10
-15.0879570262
 20
-7.7281464162
 10
-15.0753045145
 20
-7.7261919783
  0
LWPOLYLINE
  5
3C5
100
AcDbEntity
  8
RACCORDO
100
AcDbPolyline
 62
250
  6
CONTINUOUS
 90
5
 70
0
 10
-15.056857232
 20
-14.6974047863
 10
-15.0573776988
 20
-14.7023643103
 10
-15.0579261953
 20
-14.7161888863
 10
-15.0585027217
 20
-14.7384620802
 10
-15.0591259018
 20
-14.7685122647
  0
LWPOLYLINE
  5
3C6
100
AcDbEntity
  8
RACCORDO
100
AcDbPolyline
 62
7
  6
CONTINUOUS
 90
25
 70
0
 10
-12.3879828328
 20
23.9702128587
 10
-12.3884262357
 20
23.9661422934
 10
-12.389707217
 20
23.9621232117
 10
-12.3918257767
 20
23.9581556138
 10
-12.3947981138
 20
23.9542229977
 10
-12.3986080292
 20
23.9503418654
 10
-12.4032069263
 20
23.9465617219
 10
-12.4086049117
 20
23.942883861
 10
-12.4147918787
 20
23.9393069889
 10
-12.4216889103
 20
23.93587673
 10
-12.4293051025
 20
23.9325949623
 10
-12.4376313593
 20
23.9294598077
 10
-12.4465614766
 20
23.9265112563
 10
-12.4561031895
 20
23.9237516983
 10
-12.4662487628
 20
23.9211787434
 10
-12.4768687862
 20
23.9188252106
 10
-12.4879693372
 20
23.9166939106
 10
-12.4995443384
 20
23.9147820327
 10
-12.5114461463
 20
23.9131139635
 10
-12.5236789475
 20
23.9116928261
 10
-12.5362385556
 20
23.9105154975
 10
-12.5489647684
 20
23.9095969948
 10
-12.5618041852
 20
23.9089423239
 10
-12.5748102066
 20
23.9085464789
 10
-12.5879828328
 20
23.9084094599
  0
LWPOLYLINE
  5
3C7
100
AcDbEntity
  8
RACCORDO
100
AcDbPolyline
 62
250
  6
CONTINUOUS
 90
5
 70
0
 10
-15.3568458089
 20
-3.1974162093
 10
-15.3574029525
 20
-3.2016365801
 10
-15.3579411404
 20
-3.2119546746
 10
-15.3584603728
 20
-3.2283704929
 10
-15.358965435
 20
-3.2511893769
  0
LWPOLYLINE
  5
3C8
100
AcDbEntity
  8
RACCORDO
100
AcDbPolyline
 62
250
  6
CONTINUOUS
 90
23
 70
0
 10
-15.3498700032
 20
-7.8345959801
 10
-15.3459632329
 20
-7.8101738995
 10
-15.3413556439
 20
-7.7851800931
 10
-15.3359872094
 20
-7.7596095118
 10
-15.3297946725
 20
-7.7337475892
 10
-15.3227315346
 20
-7.7075693461
 10
-15.3147400625
 20
-7.6810997617
 10
-15.3057318664
 20
-7.6546992073
 10
-15.2956165003
 20
-7.62822977
 10
-15.2843785962
 20
-7.6018293627
 10
-15.2720560445
 20
-7.5762720957
 10
-15.2586112961
 20
-7.5515375442
 10
-15.2440511481
 20
-7.5276461329
 10
-15.2285291571
 20
-7.505433247
 10
-15.2120670097
 20
-7.4849660305
 10
-15.1947101078
 20
-7.4661773392
 10
-15.1767016292
 20
-7.4497011261
 10
-15.1580958106
 20
-7.4356762904
 10
-15.1389841689
 20
-7.4239639328
 10
-15.1197070185
 20
-7.4147813081
 10
-15.1004439216
 20
-7.4082008347
 10
-15.081196375
 20
-7.4041500943
 10
-15.0620476595
 20
-7.4026290868
  0
LWPOLYLINE
  5
3C9
100
AcDbEntity
  8
RACCORDO
100
AcDbPolyline
 62
250
  6
CONTINUOUS
 90
3
 70
0
 10
-15.3466187344
 20
3.2750563509
 10
-15.3340033787
 20
3.3122130472
 10
-15.3166463225
 20
3.3474056759
  0
LWPOLYLINE
  5
3CA
100
AcDbEntity
  8
RACCORDO
100
AcDbPolyline
 62
250
  6
CONTINUOUS
 90
3
 70
0
 10
-15.3166463225
 20
3.3474056759
 10
-15.2948445568
 20
3.3800320913
 10
-15.2689711964
 20
3.4095340062
  0
LINE
  5
3CB
100
AcDbEntity
  8
RACCORDO
100
AcDbLine
 62
250
  6
CONTINUOUS
 10
3.9629012771
 20
22.4214581899
 11
3.8520472095
 21
22.3106041223
  0
LINE
  5
3CC
100
AcDbEntity
  8
0
100
AcDbLine
 62
7
  6
CONTINUOUS
 10
1.5932671672
 20
-13.7074468091
 11
1.3953503495
 21
-13.7478723362
  0
LINE
  5
3CD
100
AcDbEntity
  8
0
100
AcDbLine
 62
7
  6
CONTINUOUS
 10
1.3953503495
 20
-13.95
 11
1.5837907231
 21
-13.917925105
  0
LINE
  5
3CE
100
AcDbEntity
  8
RACCORDO
100
AcDbLine
 62
250
  6
CONTINUOUS
 10
14.6625193529
 20
-14.6764029875
 11
14.6599013905
 21
-14.6764146104
  0
LINE
  5
3CF
100
AcDbEntity
  8
ASSI
100
AcDbLine
 62
7
  6
CONTINUOUS
 10
-12.4379828328
 20
-15.5
 11
-6.9379828328
 21
-15.5
  0
LINE
  5
3D0
100
AcDbEntity
  8
ASSI
100
AcDbLine
 62
7
  6
CONTINUOUS
 10
6.5620171672
 20
-15.5
 11
12.0620171672
 21
-15.5
  0
LINE
  5
3D1
100
AcDbEntity
  8
ASSI
100
AcDbLine
 62
7
  6
CONTINUOUS
 10
-17.6879898328
 20
-15.208544
 11
-20.4881158328
 21
-15.208537
  0
LINE
  5
3D2
100
AcDbEntity
  8
RACCORDO
100
AcDbLine
 62
250
  6
CONTINUOUS
 10
14.6860819939
 20
-14.9973933632
 11
7.0620171672
 21
-14.9973933632
  0
LINE
  5
3D3
100
AcDbEntity
  8
RACCORDO
100
AcDbLine
 62
250
  6
CONTINUOUS
 10
-7.4379828328
 20
-14.9973933632
 11
-15.0620476595
 21
-14.9973933632
  0
LINE
  5
3D4
100
AcDbEntity
  8
RACCORDO
100
AcDbLine
 62
7
  6
CONTINUOUS
 10
14.6808915664
 20
-14.6974047863
 11
7.0620171672
 21
-14.6974047863
  0
LINE
  5
3D5
100
AcDbEntity
  8
RACCORDO
100
AcDbLine
 62
7
  6
CONTINUOUS
 10
-7.4379828328
 20
-14.6974047863
 11
-15.056857232
 21
-14.6974047863
  0
LINE
  5
3D6
100
AcDbEntity
  8
RACCORDO
100
AcDbLine
 62
7
  6
CONTINUOUS
 10
-15.0358670561
 20
-14.6764146104
 11
-7.4379828328
 21
-14.6764146104
  0
LINE
  5
3D7
100
AcDbEntity
  8
RACCORDO
100
AcDbLine
 62
7
  6
CONTINUOUS
 10
7.0620171672
 20
-14.6764146104
 11
14.6599013905
 21
-14.6764146104
  0
LINE
  5
3D8
100
AcDbEntity
  8
ASSI
100
AcDbLine
 62
7
  6
CONTINUOUS
 10
-20.4881158328
 20
-14.648537
 11
-17.6879898328
 21
-14.648537
  0
LINE
  5
3D9
100
AcDbEntity
  8
RACCORDO
100
AcDbLine
 62
250
  6
CONTINUOUS
 10
7.0620171672
 20
-14.3764260334
 11
14.9598899674
 21
-14.3764260334
  0
LINE
  5
3DA
100
AcDbEntity
  8
RACCORDO
100
AcDbLine
 62
250
  6
CONTINUOUS
 10
-7.4379828328
 20
-14.3764260334
 11
-15.3358556331
 21
-14.3764260334
  0
LINE
  5
3DB
100
AcDbEntity
  8
ASSI
100
AcDbLine
 62
7
  6
CONTINUOUS
 10
-17.6879898328
 20
-14.088516
 11
-19.5344848328
 21
-14.088516
  0
LINE
  5
3DC
100
AcDbEntity
  8
RACCORDO
100
AcDbLine
 62
250
  6
CONTINUOUS
 10
13.7663338179
 20
-13.9952013025
 11
7.0620171672
 21
-13.9952013025
  0
LINE
  5
3DD
100
AcDbEntity
  8
RACCORDO
100
AcDbLine
 62
250
  6
CONTINUOUS
 10
-7.4379828328
 20
-13.9952013025
 11
-14.1422994835
 21
-13.9952013025
  0
LINE
  5
3DE
100
AcDbEntity
  8
0
100
AcDbLine
 62
7
  6
CONTINUOUS
 10
-1.6129828328
 20
-13.95
 11
-1.3754828328
 21
-13.95
  0
LINE
  5
3DF
100
AcDbEntity
  8
0
100
AcDbLine
 62
7
  6
CONTINUOUS
 10
-0.6629828328
 20
-13.95
 11
-0.4254828328
 21
-13.95
  0
LINE
  5
3E0
100
AcDbEntity
  8
RACCORDO
100
AcDbLine
 62
250
  6
CONTINUOUS
 10
13.7663338179
 20
-13.6997589766
 11
7.0620171672
 21
-13.6997589766
  0
LINE
  5
3E1
100
AcDbEntity
  8
RACCORDO
100
AcDbLine
 62
250
  6
CONTINUOUS
 10
-14.7331841353
 20
-13.4043166507
 11
-14.4377418094
 21
-13.4043166507
  0
LINE
  5
3E2
100
AcDbEntity
  8
RACCORDO
100
AcDbLine
 62
250
  6
CONTINUOUS
 10
14.3572184697
 20
-13.4043166507
 11
14.0617761438
 21
-13.4043166507
  0
LINE
  5
3E3
100
AcDbEntity
  8
RACCORDO
100
AcDbLine
 62
7
  6
CONTINUOUS
 10
-13.657030978
 20
-13.2144904711
 11
-11.9379828328
 21
-13.2144904711
  0
LINE
  5
3E4
100
AcDbEntity
  8
ASSI
100
AcDbLine
 62
7
  6
CONTINUOUS
 10
-11.9379828328
 20
-13.2144904711
 11
-7.4379828328
 21
-13.2144904711
  0
LINE
  5
3E5
100
AcDbEntity
  8
ASSI
100
AcDbLine
 62
7
  6
CONTINUOUS
 10
7.0620171672
 20
-13.2144904711
 11
11.5620171672
 21
-13.2144904711
  0
LINE
  5
3E6
100
AcDbEntity
  8
RACCORDO
100
AcDbLine
 62
7
  6
CONTINUOUS
 10
11.5620171672
 20
-13.2144904711
 11
13.2810653124
 21
-13.2144904711
  0
LWPOLYLINE
  5
3E7
100
AcDbEntity
  8
RACCORDO
100
AcDbPolyline
 62
250
  6
CONTINUOUS
 90
19
 70
0
 10
-7.4379828328
 20
-13.6997589766
 10
-14.1617181567
 20
-13.6997334591
 10
-14.1817486506
 20
-13.6983933922
 10
-14.2022978229
 20
-13.6956039806
 10
-14.223240283
 20
-13.6912585988
 10
-14.2444569214
 20
-13.6852096877
 10
-14.26582756
 20
-13.6772509044
 10
-14.2871914273
 20
-13.6672486089
 10
-14.3083107417
 20
-13.6550974723
 10
-14.3289031646
 20
-13.6406343062
 10
-14.3487004281
 20
-13.6237900657
 10
-14.3674133555
 20
-13.604524515
 10
-14.3846845879
 20
-13.5827541594
 10
-14.4001724529
 20
-13.5585013185
 10
-14.413522625
 20
-13.5318553761
 10
-14.4243286681
 20
-13.5028982958
 10
-14.4322042067
 20
-13.4718024733
 10
-14.4367935666
 20
-13.4388362333
 10
-14.4377418094
 20
-13.4043166507
  0
LWPOLYLINE
  5
3E8
100
AcDbEntity
  8
RACCORDO
100
AcDbPolyline
 62
250
  6
CONTINUOUS
 90
19
 70
0
 10
-14.1422994835
 20
-13.9952013025
 10
-14.1804629731
 20
-13.9944885704
 10
-14.2194753901
 20
-13.9906794865
 10
-14.2593367345
 20
-13.9837740506
 10
-14.3003295711
 20
-13.974055065
 10
-14.3421713352
 20
-13.9612397274
 10
-14.3840143322
 20
-13.9444796319
 10
-14.4260628345
 20
-13.9236897
 10
-14.4681125698
 20
-13.8989550101
 10
-14.5087030269
 20
-13.8696823913
 10
-14.5479789709
 20
-13.8357051382
 10
-14.5857956367
 20
-13.797189956
 10
-14.6202582182
 20
-13.7540437899
 10
-14.651461935
 20
-13.7059916721
 10
-14.6793115674
 20
-13.6533085702
 10
-14.7016266501
 20
-13.5967263324
 10
-14.7176803615
 20
-13.5364889078
 10
-14.7281995232
 20
-13.4723523473
 10
-14.7331841353
 20
-13.4043166507
  0
LWPOLYLINE
  5
3E9
100
AcDbEntity
  8
RACCORDO
100
AcDbPolyline
 62
250
  6
CONTINUOUS
 90
5
 70
0
 10
-15.0568574279
 20
-14.6974049822
 10
-15.075447764
 20
-14.6968367644
 10
-15.0941951233
 20
-14.6951141643
 10
-15.1130223434
 20
-14.6922050576
 10
-15.1319113397
 20
-14.6880662695
  0
LINE
  5
3EA
100
AcDbEntity
  8
RACCORDO
100
AcDbLine
 62
250
  6
CONTINUOUS
 10
-15.0358670561
 20
-14.6764146104
 11
-15.0753045145
 21
-14.6738080217
  0
LINE
  5
3EB
100
AcDbEntity
  8
0
100
AcDbLine
 62
7
  6
CONTINUOUS
 10
1.1578503495
 20
-13.9095744694
 11
1.3953503495
 21
-13.95
  0
LINE
  5
3EC
100
AcDbEntity
  8
0
100
AcDbLine
 62
7
  6
CONTINUOUS
 10
1.3953503495
 20
-13.7478723362
 11
1.1974339849
 21
-13.7074468091
  0
LINE
  5
3ED
100
AcDbEntity
  8
RACCORDO
100
AcDbLine
 62
7
  6
CONTINUOUS
 10
14.7142762479
 20
-22.4712502867
 11
14.7844127827
 21
-22.4993043024
  0
LINE
  5
3EE
100
AcDbEntity
  8
DRAFT
100
AcDbLine
 62
7
  6
CONTINUOUS
 10
1.8334753571
 20
-22.4214581899
 11
1.9120171672
 21
-22.5
  0
LINE
  5
3EF
100
AcDbEntity
  8
RACCORDO
100
AcDbLine
 62
7
  6
CONTINUOUS
 10
2.7947464558
 20
-23.2585943921
 11
2.7861520637
 21
-23.25
  0
LINE
  5
3F0
100
AcDbEntity
  8
DRAFT
100
AcDbLine
 62
7
  6
CONTINUOUS
 10
1.9910731311
 20
-21.2790559639
 11
2.0905589773
 21
-21.3785418101
  0
LINE
  5
3F1
100
AcDbEntity
  8
DRAFT
100
AcDbLine
 62
7
  6
CONTINUOUS
 10
1.9120171672
 20
-21.0654515084
 11
1.8596559604
 21
-21.0130903017
  0
LWPOLYLINE
  5
3F2
100
AcDbEntity
  8
RACCORDO
100
AcDbPolyline
 62
250
  6
CONTINUOUS
 90
3
 70
0
 10
-15.2689712179
 20
-3.4095339847
 10
-15.2948445733
 20
-3.3800320697
 10
-15.3166463336
 20
-3.3474056568
  0
LINE
  5
3F3
100
AcDbEntity
  8
RACCORDO
100
AcDbLine
 62
7
  6
CONTINUOUS
 10
-6.2304026828
 20
-17.2255647702
 11
-6.9379828328
 21
-16.0
  0
LWPOLYLINE
  5
3F4
100
AcDbEntity
  8
0
100
AcDbPolyline
 62
7
  6
CONTINUOUS
 90
16
 70
0
 10
-11.8553001656
 20
-10.7358824876
 10
-11.8553176971
 20
-10.7358508752
 10
-11.8556989757
 20
-10.7351501043
 10
-11.8565351417
 20
-10.7335520009
 10
-11.8576939239
 20
-10.7312546373
 10
-11.8591498311
 20
-10.7282725102
 10
-11.8609099846
 20
-10.7245581579
 10
-11.8629038861
 20
-10.7202346776
 10
-11.8651173394
 20
-10.7153156293
 10
-11.8675567052
 20
-10.7097711064
 10
-11.8701880472
 20
-10.703665348
 10
-11.8730059515
 20
-10.697001496
 10
-11.8760132002
 20
-10.6897642853
 10
-11.8791909933
 20
-10.6819917925
 10
-11.8825369163
 20
-10.6736844509
 10
-11.8860525724
 20
-10.6648332317
  0
LWPOLYLINE
  5
3F5
100
AcDbEntity
  8
RACCORDO
100
AcDbPolyline
 62
250
  6
CONTINUOUS
 90
5
 70
0
 10
-15.3166463336
 20
-3.3474056568
 10
-15.3340033851
 20
-3.3122130319
 10
-15.3466187374
 20
-3.2750563399
 10
-15.3542765576
 20
-3.2365712522
 10
-15.3568458089
 20
-3.1974162093
  0
LINE
  5
3F6
100
AcDbEntity
  8
0
100
AcDbLine
 62
7
  6
CONTINUOUS
 10
-11.4763024739
 20
-9.9924941476
 11
-11.4379828328
 21
-10.0760185706
  0
LINE
  5
3F7
100
AcDbEntity
  8
0
100
AcDbLine
 62
7
  6
CONTINUOUS
 10
-11.5186830531
 20
-9.8985203372
 11
-11.4763024739
 21
-9.9924941476
  0
LINE
  5
3F8
100
AcDbEntity
  8
0
100
AcDbLine
 62
7
  6
CONTINUOUS
 10
-11.5831440512
 20
-9.7532704508
 11
-11.5186830531
 21
-9.8985203372
  0
LINE
  5
3F9
100
AcDbEntity
  8
0
100
AcDbLine
 62
7
  6
CONTINUOUS
 10
-11.7083353408
 20
-9.4669869014
 11
-11.5831440512
 21
-9.7532704508
  0
LWPOLYLINE
  5
3FA
100
AcDbEntity
  8
0
100
AcDbPolyline
 62
7
  6
CONTINUOUS
 90
14
 70
0
 10
-12.2587534181
 20
-10.8084823333
 10
-12.2539360206
 20
-10.8206208178
 10
-12.2492607358
 20
-10.8322140563
 10
-12.2447238514
 20
-10.8432703437
 10
-12.2403172856
 20
-10.8538082527
 10
-12.2360141397
 20
-10.8638891446
 10
-12.231807262
 20
-10.8735248586
 10
-12.2276866979
 20
-10.8827325576
 10
-12.2236137551
 20
-10.8915896736
 10
-12.2195876558
 20
-10.9000861736
 10
-12.2155788687
 20
-10.9082708961
 10
-12.2114898148
 20
-10.9163176213
 10
-12.2073206664
 20
-10.924190989
 10
-12.2030147508
 20
-10.9319582518
  0
LINE
  5
3FB
100
AcDbEntity
  8
0
100
AcDbLine
 62
7
  6
CONTINUOUS
 10
-12.2637299897
 20
-10.7957557795
 11
-12.2587534181
 21
-10.8084823333
  0
LINE
  5
3FC
100
AcDbEntity
  8
0
100
AcDbLine
 62
7
  6
CONTINUOUS
 10
-11.8860525724
 20
-10.6648332317
 11
-11.8935571025
 21
-10.645573983
  0
LINE
  5
3FD
100
AcDbEntity
  8
0
100
AcDbLine
 62
7
  6
CONTINUOUS
 10
-12.2741839794
 20
-10.768475965
 11
-12.2637299897
 21
-10.7957557795
  0
LINE
  5
3FE
100
AcDbEntity
  8
0
100
AcDbLine
 62
7
  6
CONTINUOUS
 10
-11.8935571025
 20
-10.645573983
 11
-11.9016840191
 21
-10.6242411789
  0
LINE
  5
3FF
100
AcDbEntity
  8
0
100
AcDbLine
 62
7
  6
CONTINUOUS
 10
-12.6671849648
 20
-10.8543644933
 11
-12.6566947087
 21
-10.8821555521
  0
LINE
  5
400
100
AcDbEntity
  8
0
100
AcDbLine
 62
7
  6
CONTINUOUS
 10
-12.2853367414
 20
-10.7386744622
 11
-12.2741839794
 21
-10.768475965
  0
LINE
  5
401
100
AcDbEntity
  8
0
100
AcDbLine
 62
7
  6
CONTINUOUS
 10
-11.9016840191
 20
-10.6242411789
 11
-11.9104080245
 21
-10.6008833372
  0
LINE
  5
402
100
AcDbEntity
  8
0
100
AcDbLine
 62
7
  6
CONTINUOUS
 10
-12.6782869065
 20
-10.8243310325
 11
-12.6671849648
 21
-10.8543644933
  0
LINE
  5
403
100
AcDbEntity
  8
0
100
AcDbLine
 62
7
  6
CONTINUOUS
 10
-11.9104080245
 20
-10.6008833372
 11
-11.9197096332
 21
-10.5755410848
  0
LINE
  5
404
100
AcDbEntity
  8
0
100
AcDbLine
 62
7
  6
CONTINUOUS
 10
-12.2972177683
 20
-10.7062667542
 11
-12.2853367414
 21
-10.7386744622
  0
LINE
  5
405
100
AcDbEntity
  8
0
100
AcDbLine
 62
7
  6
CONTINUOUS
 10
-12.6900294416
 20
-10.7919796602
 11
-12.6782869065
 21
-10.8243310325
  0
LINE
  5
406
100
AcDbEntity
  8
0
100
AcDbLine
 62
7
  6
CONTINUOUS
 10
-11.9197096332
 20
-10.5755410848
 11
-11.9295746169
 21
-10.5482461116
  0
LINE
  5
407
100
AcDbEntity
  8
0
100
AcDbLine
 62
7
  6
CONTINUOUS
 10
-12.3098463535
 20
-10.6711958598
 11
-12.2972177683
 21
-10.7062667542
  0
LINE
  5
408
100
AcDbEntity
  8
0
100
AcDbLine
 62
7
  6
CONTINUOUS
 10
-12.7024324354
 20
-10.7572574739
 11
-12.6900294416
 21
-10.7919796602
  0
LINE
  5
409
100
AcDbEntity
  8
0
100
AcDbLine
 62
7
  6
CONTINUOUS
 10
-12.3232361592
 20
-10.6334215731
 11
-12.3098463535
 21
-10.6711958598
  0
LINE
  5
40A
100
AcDbEntity
  8
0
100
AcDbLine
 62
7
  6
CONTINUOUS
 10
-11.9295746169
 20
-10.5482461116
 11
-11.945385464
 21
-10.5037548567
  0
LINE
  5
40B
100
AcDbEntity
  8
0
100
AcDbLine
 62
7
  6
CONTINUOUS
 10
-12.7223167048
 20
-10.7006168483
 11
-12.7024324354
 21
-10.7572574739
  0
LINE
  5
40C
100
AcDbEntity
  8
0
100
AcDbLine
 62
7
  6
CONTINUOUS
 10
-11.945385464
 20
-10.5037548567
 11
-11.9623804517
 21
-10.45509594
  0
LINE
  5
40D
100
AcDbEntity
  8
0
100
AcDbLine
 62
7
  6
CONTINUOUS
 10
-12.3447663031
 20
-10.5716407721
 11
-12.3232361592
 21
-10.6334215731
  0
LINE
  5
40E
100
AcDbEntity
  8
0
100
AcDbLine
 62
7
  6
CONTINUOUS
 10
-12.7437705516
 20
-10.6384190361
 11
-12.7223167048
 21
-10.7006168483
  0
LINE
  5
40F
100
AcDbEntity
  8
0
100
AcDbLine
 62
7
  6
CONTINUOUS
 10
-11.9623804517
 20
-10.45509594
 11
-11.986859609
 21
-10.3838139462
  0
LINE
  5
410
100
AcDbEntity
  8
0
100
AcDbLine
 62
7
  6
CONTINUOUS
 10
-12.3680363133
 20
-10.5037118445
 11
-12.3447663031
 21
-10.5716407721
  0
LINE
  5
411
100
AcDbEntity
  8
0
100
AcDbLine
 62
7
  6
CONTINUOUS
 10
-12.7748503241
 20
-10.5467757024
 11
-12.7437705516
 21
-10.6384190361
  0
LINE
  5
412
100
AcDbEntity
  8
0
100
AcDbLine
 62
7
  6
CONTINUOUS
 10
-11.986859609
 20
-10.3838139462
 11
-12.0203455942
 21
-10.2845743442
  0
LINE
  5
413
100
AcDbEntity
  8
0
100
AcDbLine
 62
7
  6
CONTINUOUS
 10
-12.4017262771
 20
-10.403746701
 11
-12.3680363133
 21
-10.5037118445
  0
LINE
  5
414
100
AcDbEntity
  8
0
100
AcDbLine
 62
7
  6
CONTINUOUS
 10
-12.8176552304
 20
-10.4183738271
 11
-12.7748503241
 21
-10.5467757024
  0
LINE
  5
415
100
AcDbEntity
  8
0
100
AcDbLine
 62
7
  6
CONTINUOUS
 10
-12.0203455942
 20
-10.2845743442
 11
-12.064682729
 21
-10.1509850987
  0
LINE
  5
416
100
AcDbEntity
  8
0
100
AcDbLine
 62
7
  6
CONTINUOUS
 10
-12.447911481
 20
-10.2644572757
 11
-12.4017262771
 21
-10.403746701
  0
LINE
  5
417
100
AcDbEntity
  8
0
100
AcDbLine
 62
7
  6
CONTINUOUS
 10
-12.884180198
 20
-10.2155192044
 11
-12.8176552304
 21
-10.4183738271
  0
LINE
  5
418
100
AcDbEntity
  8
0
100
AcDbLine
 62
7
  6
CONTINUOUS
 10
-12.064682729
 20
-10.1509850987
 11
-12.1393049295
 21
-9.9225980974
  0
LINE
  5
419
100
AcDbEntity
  8
0
100
AcDbLine
 62
7
  6
CONTINUOUS
 10
-12.5408872172
 20
-9.9793002112
 11
-12.447911481
 21
-10.2644572757
  0
LINE
  5
41A
100
AcDbEntity
  8
0
100
AcDbLine
 62
7
  6
CONTINUOUS
 10
-13.0118409913
 20
-9.8208501985
 11
-12.884180198
 21
-10.2155192044
  0
LINE
  5
41B
100
AcDbEntity
  8
0
100
AcDbLine
 62
7
  6
CONTINUOUS
 10
-12.6610359293
 20
-9.6070352262
 11
-12.5408872172
 21
-9.9793002112
  0
LINE
  5
41C
100
AcDbEntity
  8
0
100
AcDbLine
 62
7
  6
CONTINUOUS
 10
-12.1393049295
 20
-9.9225980974
 11
-12.2806677663
 21
-9.4848898659
  0
LINE
  5
41D
100
AcDbEntity
  8
0
100
AcDbLine
 62
7
  6
CONTINUOUS
 10
-13.1844139719
 20
-9.9749490895
 11
-13.1168554108
 21
-10.2916095864
  0
LINE
  5
41E
100
AcDbEntity
  8
0
100
AcDbLine
 62
7
  6
CONTINUOUS
 10
-13.1168554108
 20
-10.2916095864
 11
-13.0746552152
 21
-10.4935505276
  0
LINE
  5
41F
100
AcDbEntity
  8
0
100
AcDbLine
 62
7
  6
CONTINUOUS
 10
-13.0746552152
 20
-10.4935505276
 11
-13.0519584257
 21
-10.6048627675
  0
LINE
  5
420
100
AcDbEntity
  8
0
100
AcDbLine
 62
7
  6
CONTINUOUS
 10
-13.0519584257
 20
-10.6048627675
 11
-13.0359266765
 21
-10.6853775448
  0
LINE
  5
421
100
AcDbEntity
  8
0
100
AcDbLine
 62
7
  6
CONTINUOUS
 10
-13.0359266765
 20
-10.6853775448
 11
-13.0218180305
 21
-10.758201272
  0
LINE
  5
422
100
AcDbEntity
  8
0
100
AcDbLine
 62
7
  6
CONTINUOUS
 10
-13.0218180305
 20
-10.758201272
 11
-13.0125096583
 21
-10.8077340425
  0
LINE
  5
423
100
AcDbEntity
  8
0
100
AcDbLine
 62
7
  6
CONTINUOUS
 10
-13.0125096583
 20
-10.8077340425
 11
-13.004298448
 21
-10.8528785291
  0
LINE
  5
424
100
AcDbEntity
  8
0
100
AcDbLine
 62
7
  6
CONTINUOUS
 10
-13.004298448
 20
-10.8528785291
 11
-12.9994384003
 21
-10.8805052365
  0
LINE
  5
425
100
AcDbEntity
  8
0
100
AcDbLine
 62
7
  6
CONTINUOUS
 10
-12.9994384003
 20
-10.8805052365
 11
-12.9950754907
 21
-10.9061103927
  0
LINE
  5
426
100
AcDbEntity
  8
0
100
AcDbLine
 62
7
  6
CONTINUOUS
 10
-12.9950754907
 20
-10.9061103927
 11
-12.9912149482
 21
-10.9296416908
  0
LWPOLYLINE
  5
427
100
AcDbEntity
  8
0
100
AcDbPolyline
 62
7
  6
CONTINUOUS
 90
11
 70
0
 10
-12.9912149482
 20
-10.9296416908
 10
-12.9878558357
 20
-10.9510701274
 10
-12.9863646002
 20
-10.9609781973
 10
-12.9849969209
 20
-10.9703508358
 10
-12.983755195
 20
-10.9791602035
 10
-12.9826360832
 20
-10.9874156264
 10
-12.9816375097
 20
-10.9951160567
 10
-12.9807621017
 20
-11.0022186659
 10
-12.9800043986
 20
-11.0087386293
 10
-12.9793609798
 20
-11.0146714165
 10
-12.9789200586
 20
-11.0190855496
  0
LWPOLYLINE
  5
428
100
AcDbEntity
  8
RACCORDO
100
AcDbPolyline
 62
7
  6
CONTINUOUS
 90
25
 70
0
 10
-14.9379828328
 20
22.4389454496
 10
-14.9384262357
 20
22.443016015
 10
-14.939707217
 20
22.4470350967
 10
-14.9418257767
 20
22.4510026946
 10
-14.9447981138
 20
22.4549353107
 10
-14.9486080292
 20
22.458816443
 10
-14.9532069263
 20
22.4625965865
 10
-14.9586049117
 20
22.4662744474
 10
-14.9647918787
 20
22.4698513194
 10
-14.9716889103
 20
22.4732815784
 10
-14.9793051025
 20
22.4765633461
 10
-14.9876313593
 20
22.4796985006
 10
-14.9965614766
 20
22.4826470521
 10
-15.0061031895
 20
22.4854066101
 10
-15.0162487628
 20
22.4879795649
 10
-15.0268687862
 20
22.4903330977
 10
-15.0379693372
 20
22.4924643977
 10
-15.0495443384
 20
22.4943762757
 10
-15.0614461463
 20
22.4960443449
 10
-15.0736789475
 20
22.4974654822
 10
-15.0862385556
 20
22.4986428109
 10
-15.0989647684
 20
22.4995613135
 10
-15.1118041852
 20
22.5002159845
 10
-15.1248102066
 20
22.5006118295
 10
-15.1379828328
 20
22.5007488485
  0
LINE
  5
429
100
AcDbEntity
  8
0
100
AcDbLine
 62
7
  6
CONTINUOUS
 10
-11.8598941741
 20
-9.9182900743
 11
-11.873708597
 21
-9.7906730566
  0
LINE
  5
42A
100
AcDbEntity
  8
0
100
AcDbLine
 62
7
  6
CONTINUOUS
 10
-11.8467399901
 20
-10.0457170661
 11
-11.8598941741
 21
-9.9182900743
  0
LWPOLYLINE
  5
42B
100
AcDbEntity
  8
0
100
AcDbPolyline
 62
7
  6
CONTINUOUS
 90
6
 70
0
 10
-11.8165657466
 20
-10.4012848482
 10
-11.8202792593
 20
-10.3464142754
 10
-11.8245833003
 20
-10.2895561868
 10
-11.8294423971
 20
-10.2307407537
 10
-11.834803947
 20
-10.170211899
 10
-11.8467399901
 20
-10.0457170661
  0
LINE
  5
42C
100
AcDbEntity
  8
0
100
AcDbLine
 62
7
  6
CONTINUOUS
 10
-11.8130281483
 20
-10.4617428273
 11
-11.8165657466
 21
-10.4012848482
  0
LINE
  5
42D
100
AcDbEntity
  8
0
100
AcDbLine
 62
7
  6
CONTINUOUS
 10
-11.808586307
 20
-10.5438460596
 11
-11.8130281483
 21
-10.4617428273
  0
LINE
  5
42E
100
AcDbEntity
  8
0
100
AcDbLine
 62
7
  6
CONTINUOUS
 10
-11.8058497305
 20
-10.5992605297
 11
-11.808586307
 21
-10.5438460596
  0
LINE
  5
42F
100
AcDbEntity
  8
0
100
AcDbLine
 62
7
  6
CONTINUOUS
 10
-11.8043383685
 20
-10.633198246
 11
-11.8058497305
 21
-10.5992605297
  0
LINE
  5
430
100
AcDbEntity
  8
0
100
AcDbLine
 62
7
  6
CONTINUOUS
 10
-11.8030907221
 20
-10.6647344776
 11
-11.8043383685
 21
-10.633198246
  0
LINE
  5
431
100
AcDbEntity
  8
0
100
AcDbLine
 62
7
  6
CONTINUOUS
 10
-11.8021149823
 20
-10.6939082411
 11
-11.8030907221
 21
-10.6647344776
  0
LINE
  5
432
100
AcDbEntity
  8
RACCORDO
100
AcDbLine
 62
250
  6
CONTINUOUS
 10
-12.5879828328
 20
24.9281655413
 11
-12.5879828328
 21
24.5477429348
  0
LINE
  5
433
100
AcDbEntity
  8
0
100
AcDbLine
 62
7
  6
CONTINUOUS
 10
-12.4379828328
 20
-16.0
 11
-12.4379828328
 21
-15.5
  0
LINE
  5
434
100
AcDbEntity
  8
RACCORDO
100
AcDbLine
 62
7
  6
CONTINUOUS
 10
-12.3879828328
 20
24.8663621424
 11
-12.3879828328
 21
23.9702128587
  0
LINE
  5
435
100
AcDbEntity
  8
0
100
AcDbLine
 62
7
  6
CONTINUOUS
 10
-11.7223019112
 20
-17.25
 11
-11.7223019112
 21
-17.2314713874
  0
LINE
  5
436
100
AcDbEntity
  8
0
100
AcDbLine
 62
7
  6
CONTINUOUS
 10
-11.4379828328
 20
-9.5247238934
 11
-11.4379828328
 21
-12.8752761208
  0
LINE
  5
437
100
AcDbEntity
  8
0
100
AcDbLine
 62
7
  6
CONTINUOUS
 10
-11.0699218328
 20
-12.719080527
 11
-11.0699218328
 21
-9.6809194941
  0
LINE
  5
438
100
AcDbEntity
  8
0
100
AcDbLine
 62
7
  6
CONTINUOUS
 10
-12.1932939616
 20
-10.960411971
 11
-12.192545407
 21
-10.9492354077
  0
LWPOLYLINE
  5
439
100
AcDbEntity
  8
RACCORDO
100
AcDbPolyline
 62
7
  6
CONTINUOUS
 90
25
 70
0
 10
-9.9879828328
 20
24.8663621424
 10
-9.9875394299
 20
24.8704327078
 10
-9.9862584486
 20
24.8744517894
 10
-9.9841398889
 20
24.8784193874
 10
-9.9811675518
 20
24.8823520034
 10
-9.9773576364
 20
24.8862331358
 10
-9.9727587393
 20
24.8900132792
 10
-9.9673607539
 20
24.8936911402
 10
-9.9611737869
 20
24.8972680122
 10
-9.9542767553
 20
24.9006982711
 10
-9.9466605631
 20
24.9039800388
 10
-9.9383343063
 20
24.9071151934
 10
-9.929404189
 20
24.9100637449
 10
-9.9198624761
 20
24.9128233029
 10
-9.9097169028
 20
24.9153962577
 10
-9.8990968794
 20
24.9177497905
 10
-9.8879963284
 20
24.9198810905
 10
-9.8764213273
 20
24.9217929685
 10
-9.8645195193
 20
24.9234610377
 10
-9.8522867181
 20
24.924882175
 10
-9.83972711
 20
24.9260595037
 10
-9.8270008972
 20
24.9269780063
 10
-9.8141614804
 20
24.9276326773
 10
-9.801155459
 20
24.9280285223
 10
-9.7879828328
 20
24.9281655413
  0
LWPOLYLINE
  5
43A
100
AcDbEntity
  8
0
100
AcDbPolyline
 62
7
  6
CONTINUOUS
 90
19
 70
0
 10
-12.9768487627
 20
-11.0089747617
 10
-12.9814923226
 20
-11.0316417547
 10
-12.9835733814
 20
-11.0549923088
 10
-12.9829771662
 20
-11.0781114523
 10
-12.9795844239
 20
-11.1009964693
 10
-12.9735144075
 20
-11.1236500759
 10
-12.9650101032
 20
-11.145165448
 10
-12.9539668834
 20
-11.1654853073
 10
-12.9404893758
 20
-11.1846669323
 10
-12.9251344492
 20
-11.2019753345
 10
-12.90784439
 20
-11.2173615599
 10
-12.8886769119
 20
-11.2308745626
 10
-12.8683620248
 20
-11.241926217
 10
-12.846837547
 20
-11.2503759186
 10
-12.8241656601
 20
-11.2563642718
 10
-12.8012629196
 20
-11.2597249647
 10
-12.7784348436
 20
-11.2604025597
 10
-12.755375914
 20
-11.2584524944
 10
-12.7320861305
 20
-11.2538747686
  0
LWPOLYLINE
  5
43B
100
AcDbEntity
  8
RACCORDO
100
AcDbPolyline
 62
250
  6
CONTINUOUS
 90
9
 70
0
 10
-15.3524184619
 20
-7.92814713
 10
-15.3490243313
 20
-7.9162864175
 10
-15.3449657694
 20
-7.9040927994
 10
-15.340195143
 20
-7.891629672
 10
-15.3346512914
 20
-7.8789244866
 10
-15.328271874
 20
-7.8660077468
 10
-15.3210087856
 20
-7.8529564921
 10
-15.3128032848
 20
-7.8398272258
 10
-15.303568335
 20
-7.8266376062
  0
LWPOLYLINE
  5
43C
100
AcDbEntity
  8
RACCORDO
100
AcDbPolyline
 62
7
  6
CONTINUOUS
 90
11
 70
0
 10
-4.5181436327
 20
22.086864614
 10
-4.5058284377
 20
22.1237829924
 10
-4.4886625872
 20
22.159104532
 10
-4.4668699244
 20
22.1920924154
 10
-4.4409307331
 20
22.2219264054
 10
-4.4113658662
 20
22.24803542
 10
-4.3786339284
 20
22.2700389317
 10
-4.3433049145
 20
22.2875560246
 10
-4.3059916839
 20
22.3002860675
 10
-4.2673383822
 20
22.3080123671
 10
-4.2306308375
 20
22.3105924994
  0
LINE
  5
43D
100
AcDbEntity
  8
DRAFT
100
AcDbLine
 62
7
  6
CONTINUOUS
 10
-4.9879828328
 20
20.9
 11
-5.0089268689
 21
20.8476387933
  0
LINE
  5
43E
100
AcDbEntity
  8
RACCORDO
100
AcDbLine
 62
250
  6
CONTINUOUS
 10
4.262889854
 20
22.121469613
 11
4.1520357864
 21
22.0106155454
  0
LINE
  5
43F
100
AcDbEntity
  8
RACCORDO
100
AcDbLine
 62
7
  6
CONTINUOUS
 10
4.262889854
 20
19.1714581899
 11
4.2305775965
 21
19.1391459325
  0
LWPOLYLINE
  5
440
100
AcDbEntity
  8
RACCORDO
100
AcDbPolyline
 62
250
  6
CONTINUOUS
 90
7
 70
0
 10
-15.2689711964
 20
3.4095340062
 10
-15.2394689889
 20
3.4354066994
 10
-15.2068426991
 20
3.4572076091
 10
-15.1716505633
 20
3.4745638087
 10
-15.1344946964
 20
3.4871784293
 10
-15.0960107872
 20
3.4948357309
 10
-15.056857232
 20
3.4974047863
  0
LINE
  5
441
100
AcDbEntity
  8
0
100
AcDbLine
 62
7
  6
CONTINUOUS
 10
-18.9879828328
 20
5.941981
 11
-20.4379828328
 21
5.416932
  0
LINE
  5
442
100
AcDbEntity
  8
0
100
AcDbLine
 62
7
  6
CONTINUOUS
 10
-19.4100248328
 20
5.584518
 11
-18.9879828328
 21
5.727888
  0
LINE
  5
443
100
AcDbEntity
  8
0
100
AcDbLine
 62
7
  6
CONTINUOUS
 10
-20.2276628328
 20
5.29786
 11
-19.5836968328
 21
5.513888
  0
LINE
  5
444
100
AcDbEntity
  8
0
100
AcDbLine
 62
7
  6
CONTINUOUS
 10
1.1974339849
 20
-12.2925531626
 11
1.3953503495
 21
-12.2521276355
  0
LINE
  5
445
100
AcDbEntity
  8
0
100
AcDbLine
 62
7
  6
CONTINUOUS
 10
1.3953503495
 20
-12.05
 11
1.1578503495
 21
-12.0904255271
  0
LINE
  5
446
100
AcDbEntity
  8
ASSI
100
AcDbLine
 62
7
  6
CONTINUOUS
 10
-12.3457101405
 20
-12.9
 11
-11.5302555251
 21
-12.9
  0
LINE
  5
447
100
AcDbEntity
  8
ASSI
100
AcDbLine
 62
7
  6
CONTINUOUS
 10
-7.8457108695
 20
-12.9
 11
-7.0302547961
 21
-12.9
  0
LINE
  5
448
100
AcDbEntity
  8
ASSI
100
AcDbLine
 62
7
  6
CONTINUOUS
 10
6.6542891305
 20
-12.9
 11
7.4697452039
 21
-12.9
  0
LINE
  5
449
100
AcDbEntity
  8
ASSI
100
AcDbLine
 62
7
  6
CONTINUOUS
 10
11.1542898595
 20
-12.9
 11
11.9697444749
 21
-12.9
  0
LINE
  5
44A
100
AcDbEntity
  8
ASSI
100
AcDbLine
 62
7
  6
CONTINUOUS
 10
-19.5344848328
 20
-12.469577
 11
-17.6879898328
 21
-12.46957
  0
LINE
  5
44B
100
AcDbEntity
  8
0
100
AcDbLine
 62
7
  6
CONTINUOUS
 10
-3.091131546
 20
-12.2521276355
 11
-2.404649424
 21
-12.2521276355
  0
LINE
  5
44C
100
AcDbEntity
  8
0
100
AcDbLine
 62
7
  6
CONTINUOUS
 10
-1.0588160151
 20
-12.2521276355
 11
0.1286839849
 21
-12.2521276355
  0
LINE
  5
44D
100
AcDbEntity
  8
0
100
AcDbLine
 62
7
  6
CONTINUOUS
 10
0.3661839849
 20
-12.05
 11
-1.0588160151
 21
-12.05
  0
LINE
  5
44E
100
AcDbEntity
  8
0
100
AcDbLine
 62
7
  6
CONTINUOUS
 10
-1.3754828328
 20
-12.05
 11
-1.6129828328
 21
-12.05
  0
LINE
  5
44F
100
AcDbEntity
  8
0
100
AcDbLine
 62
7
  6
CONTINUOUS
 10
-2.1671496505
 20
-12.05
 11
-3.1357553527
 21
-12.05
  0
LINE
  5
450
100
AcDbEntity
  8
ASSI
100
AcDbLine
 62
7
  6
CONTINUOUS
 10
-17.6879898328
 20
-11.909549
 11
-20.4881158328
 21
-11.909549
  0
LINE
  5
451
100
AcDbEntity
  8
0
100
AcDbLine
 62
7
  6
CONTINUOUS
 10
1.6328508025
 20
-12.0904255271
 11
1.3953503495
 21
-12.05
  0
LINE
  5
452
100
AcDbEntity
  8
0
100
AcDbLine
 62
7
  6
CONTINUOUS
 10
1.3953503495
 20
-12.2521276355
 11
1.5932671672
 21
-12.2925531626
  0
LINE
  5
453
100
AcDbEntity
  8
0
100
AcDbLine
 62
7
  6
CONTINUOUS
 10
0.9599339849
 20
-13.7882978775
 11
1.1578503495
 21
-13.9095744694
  0
LINE
  5
454
100
AcDbEntity
  8
0
100
AcDbLine
 62
7
  6
CONTINUOUS
 10
1.1974339849
 20
-13.7074468091
 11
1.0786839849
 21
-13.6265957549
  0
LINE
  5
455
100
AcDbEntity
  8
DRAFT
100
AcDbLine
 62
7
  6
CONTINUOUS
 10
3.5910731311
 20
-21.2790559639
 11
3.6905589773
 21
-21.3785418101
  0
LINE
  5
456
100
AcDbEntity
  8
DRAFT
100
AcDbLine
 62
7
  6
CONTINUOUS
 10
3.66001494
 20
-19.6479977728
 11
3.6905589773
 21
-19.6785418101
  0
LINE
  5
457
100
AcDbEntity
  8
DRAFT
100
AcDbLine
 62
7
  6
CONTINUOUS
 10
4.646923894
 20
-20.2758495282
 11
4.6120171672
 21
-20.2409428014
  0
LINE
  5
458
100
AcDbEntity
  8
RACCORDO
100
AcDbLine
 62
7
  6
CONTINUOUS
 10
4.6120171672
 20
-20.2409428014
 11
4.5360705708
 21
-20.164996205
  0
LINE
  5
459
100
AcDbEntity
  8
RACCORDO
100
AcDbLine
 62
250
  6
CONTINUOUS
 10
5.2378121364
 20
-20.1667263475
 11
5.3469257217
 21
-20.2758495282
  0
LINE
  5
45A
100
AcDbEntity
  8
RACCORDO
100
AcDbLine
 62
7
  6
CONTINUOUS
 10
4.4187739429
 20
-20.0476764682
 11
4.2544483173
 21
-19.8835112087
  0
LINE
  5
45B
100
AcDbEntity
  8
RACCORDO
100
AcDbLine
 62
7
  6
CONTINUOUS
 10
4.4352663911
 20
-20.0642671672
 11
4.4187739429
 21
-20.0476764682
  0
LINE
  5
45C
100
AcDbEntity
  8
RACCORDO
100
AcDbLine
 62
7
  6
CONTINUOUS
 10
4.2544483173
 20
-19.8835112087
 11
4.2360819939
 21
-19.8650076281
  0
LWPOLYLINE
  5
45D
100
AcDbEntity
  8
RACCORDO
100
AcDbPolyline
 62
7
  6
CONTINUOUS
 90
3
 70
0
 10
4.4801587544
 20
-20.1091936896
 10
4.4661242756
 20
-20.0950257779
 10
4.4352663911
 20
-20.0642671672
  0
LWPOLYLINE
  5
45E
100
AcDbEntity
  8
0
100
AcDbPolyline
 62
7
  6
CONTINUOUS
 90
16
 70
0
 10
-7.7914020674
 20
-9.486590347
 10
-7.7893068766
 20
-9.4904653078
 10
-7.7749246441
 20
-9.5164253202
 10
-7.7608918749
 20
-9.5410913363
 10
-7.7471863366
 20
-9.5644944052
 10
-7.7337299482
 20
-9.5867544031
 10
-7.7205132455
 20
-9.6078686892
 10
-7.7074976016
 20
-9.6278790041
 10
-7.6945375838
 20
-9.6469747745
 10
-7.6816053185
 20
-9.6651486002
 10
-7.6686421094
 20
-9.6824285894
 10
-7.6554051259
 20
-9.699054623
 10
-7.6417880278
 20
-9.7150392792
 10
-7.6277224986
 20
-9.7303251768
 10
-7.6129296909
 20
-9.7450396903
 10
-7.597242391
 20
-9.7591213673
  0
LINE
  5
45F
100
AcDbEntity
  8
DRAFT
100
AcDbLine
 62
7
  6
CONTINUOUS
 10
-20.6554497498
 20
20.8214581899
 11
-20.6879828328
 21
20.9
  0
LINE
  5
460
100
AcDbEntity
  8
DRAFT
100
AcDbLine
 62
7
  6
CONTINUOUS
 10
-19.9669125994
 20
20.9
 11
-19.9983286536
 21
20.9785418101
  0
LINE
  5
461
100
AcDbEntity
  8
0
100
AcDbLine
 62
7
  6
CONTINUOUS
 10
-7.6536637544
 20
-17.2314713874
 11
-7.647375922
 21
-17.25
  0
LWPOLYLINE
  5
462
100
AcDbEntity
  8
0
100
AcDbPolyline
 62
250
  6
CONTINUOUS
 90
15
 70
0
 10
-11.8144509475
 20
-10.4365024751
 10
-11.8158206239
 20
-10.4247226367
 10
-11.8200765861
 20
-10.4088391668
 10
-11.8269961957
 20
-10.3937956312
 10
-11.8363887401
 20
-10.3797804284
 10
-11.8480809026
 20
-10.3669419653
 10
-11.861921342
 20
-10.3554269853
 10
-11.8777605911
 20
-10.3454006527
 10
-11.8954153213
 20
-10.3370530963
 10
-11.9146777683
 20
-10.3305579836
 10
-11.9352653516
 20
-10.3259743939
 10
-11.9568758912
 20
-10.3233030938
 10
-11.9792040708
 20
-10.3225486486
 10
-12.0019412159
 20
-10.3237174759
 10
-12.0069753844
 20
-10.3244006135
  0
LINE
  5
463
100
AcDbEntity
  8
0
100
AcDbLine
 62
7
  6
CONTINUOUS
 10
-11.873708597
 20
-9.7906730566
 11
-11.9118080311
 21
-9.4513717291
  0
LWPOLYLINE
  5
464
100
AcDbEntity
  8
RACCORDO
100
AcDbPolyline
 62
7
  6
CONTINUOUS
 90
25
 70
0
 10
-12.3879828328
 20
24.4859395359
 10
-12.3884262357
 20
24.4900101013
 10
-12.389707217
 20
24.4940291829
 10
-12.3918257767
 20
24.4979967809
 10
-12.3947981138
 20
24.5019293969
 10
-12.3986080292
 20
24.5058105293
 10
-12.4032069263
 20
24.5095906727
 10
-12.4086049117
 20
24.5132685337
 10
-12.4147918787
 20
24.5168454057
 10
-12.4216889103
 20
24.5202756646
 10
-12.4293051025
 20
24.5235574323
 10
-12.4376313593
 20
24.5266925869
 10
-12.4465614766
 20
24.5296411384
 10
-12.4561031895
 20
24.5324006963
 10
-12.4662487628
 20
24.5349736512
 10
-12.4768687862
 20
24.537327184
 10
-12.4879693372
 20
24.539458484
 10
-12.4995443384
 20
24.5413703619
 10
-12.5114461463
 20
24.5430384312
 10
-12.5236789475
 20
24.5444595685
 10
-12.5362385556
 20
24.5456368971
 10
-12.5489647684
 20
24.5465553998
 10
-12.5618041852
 20
24.5472100708
 10
-12.5748102066
 20
24.5476059158
 10
-12.5879828328
 20
24.5477429348
  0
LINE
  5
465
100
AcDbEntity
  8
RACCORDO
100
AcDbLine
 62
7
  6
CONTINUOUS
 10
-9.9879828328
 20
23.9702128587
 11
-9.9879828328
 21
24.8663621424
  0
LINE
  5
466
100
AcDbEntity
  8
RACCORDO
100
AcDbLine
 62
250
  6
CONTINUOUS
 10
-9.7879828328
 20
24.9281655413
 11
-9.7879828328
 21
24.5477429348
  0
LINE
  5
467
100
AcDbEntity
  8
RACCORDO
100
AcDbLine
 62
250
  6
CONTINUOUS
 10
-9.1879828328
 20
20.356365661
 11
-9.1879828328
 21
20.45
  0
LINE
  5
468
100
AcDbEntity
  8
RACCORDO
100
AcDbLine
 62
7
  6
CONTINUOUS
 10
-8.6879828328
 20
20.3607290949
 11
-8.6879828328
 21
20.45
  0
LINE
  5
469
100
AcDbEntity
  8
0
100
AcDbLine
 62
7
  6
CONTINUOUS
 10
-8.3060438328
 20
-12.7190800537
 11
-8.3060438328
 21
-9.6809199463
  0
LINE
  5
46A
100
AcDbEntity
  8
0
100
AcDbLine
 62
7
  6
CONTINUOUS
 10
-7.9379828328
 20
-9.524724198
 11
-7.9379828328
 21
-12.875275802
  0
LINE
  5
46B
100
AcDbEntity
  8
0
100
AcDbLine
 62
7
  6
CONTINUOUS
 10
-7.8491795514
 20
20.3835624
 11
-7.8491795514
 21
20.45
  0
LINE
  5
46C
100
AcDbEntity
  8
0
100
AcDbLine
 62
7
  6
CONTINUOUS
 10
-7.7704397542
 20
20.45
 11
-7.7704397542
 21
20.3835624
  0
LINE
  5
46D
100
AcDbEntity
  8
0
100
AcDbLine
 62
7
  6
CONTINUOUS
 10
-7.7529420215
 20
20.45
 11
-7.7548011829
 21
20.3835624
  0
LINE
  5
46E
100
AcDbEntity
  8
RACCORDO
100
AcDbLine
 62
250
  6
CONTINUOUS
 10
-6.6923272275
 20
21.3421935524
 11
-6.7132533728
 21
21.0429357325
  0
LWPOLYLINE
  5
46F
100
AcDbEntity
  8
RACCORDO
100
AcDbPolyline
 62
7
  6
CONTINUOUS
 90
25
 70
0
 10
-7.4379828328
 20
22.8193680562
 10
-7.4375394299
 20
22.8234386215
 10
-7.4362584486
 20
22.8274577032
 10
-7.4341398889
 20
22.8314253011
 10
-7.4311675518
 20
22.8353579172
 10
-7.4273576364
 20
22.8392390495
 10
-7.4227587393
 20
22.843019193
 10
-7.4173607539
 20
22.8466970539
 10
-7.4111737869
 20
22.850273926
 10
-7.4042767553
 20
22.8537041849
 10
-7.3966605631
 20
22.8569859526
 10
-7.3883343063
 20
22.8601211071
 10
-7.379404189
 20
22.8630696586
 10
-7.3698624761
 20
22.8658292166
 10
-7.3597169028
 20
22.8684021715
 10
-7.3490968794
 20
22.8707557043
 10
-7.3379963284
 20
22.8728870043
 10
-7.3264213273
 20
22.8747988822
 10
-7.3145195193
 20
22.8764669514
 10
-7.3022867181
 20
22.8778880888
 10
-7.28972711
 20
22.8790654174
 10
-7.2770008972
 20
22.8799839201
 10
-7.2641614804
 20
22.880638591
 10
-7.251155459
 20
22.881034436
 10
-7.2379828328
 20
22.881171455
  0
LWPOLYLINE
  5
470
100
AcDbEntity
  8
RACCORDO
100
AcDbPolyline
 62
7
  6
CONTINUOUS
 90
25
 70
0
 10
-6.6879828328
 20
23.9702128587
 10
-6.6884262357
 20
23.9661422934
 10
-6.689707217
 20
23.9621232117
 10
-6.6918257767
 20
23.9581556138
 10
-6.6947981138
 20
23.9542229977
 10
-6.6986080292
 20
23.9503418654
 10
-6.7032069263
 20
23.9465617219
 10
-6.7086049117
 20
23.942883861
 10
-6.7147918787
 20
23.9393069889
 10
-6.7216889103
 20
23.93587673
 10
-6.7293051025
 20
23.9325949623
 10
-6.7376313593
 20
23.9294598077
 10
-6.7465614766
 20
23.9265112563
 10
-6.7561031895
 20
23.9237516983
 10
-6.7662487628
 20
23.9211787434
 10
-6.7768687862
 20
23.9188252106
 10
-6.7879693372
 20
23.9166939106
 10
-6.7995443384
 20
23.9147820327
 10
-6.8114461463
 20
23.9131139635
 10
-6.8236789475
 20
23.9116928261
 10
-6.8362385556
 20
23.9105154975
 10
-6.8489647684
 20
23.9095969948
 10
-6.8618041852
 20
23.9089423239
 10
-6.8748102066
 20
23.9085464789
 10
-6.8879828328
 20
23.9084094599
  0
LINE
  5
471
100
AcDbEntity
  8
RACCORDO
100
AcDbLine
 62
7
  6
CONTINUOUS
 10
-4.5253948634
 20
22.0500530038
 11
-4.5181436327
 21
22.086864614
  0
LINE
  5
472
100
AcDbEntity
  8
DRAFT
100
AcDbLine
 62
7
  6
CONTINUOUS
 10
-19.0554497498
 20
-22.4214581899
 11
-19.0879828328
 21
-22.5
  0
LINE
  5
473
100
AcDbEntity
  8
RACCORDO
100
AcDbLine
 62
7
  6
CONTINUOUS
 10
2.5620171672
 20
21.25
 11
3.2056088819
 21
22.3647335492
  0
LWPOLYLINE
  5
474
100
AcDbEntity
  8
RACCORDO
100
AcDbPolyline
 62
7
  6
CONTINUOUS
 90
6
 70
0
 10
4.1520357864
 20
17.1740534036
 10
4.1500068918
 20
17.1717279462
 10
4.1445674472
 20
17.1663373439
 10
4.1358639795
 20
17.1578815967
 10
4.1240644538
 20
17.1461092377
 10
4.1093839513
 20
17.1312717338
  0
LINE
  5
475
100
AcDbEntity
  8
RACCORDO
100
AcDbLine
 62
7
  6
CONTINUOUS
 10
4.2279823828
 20
17.25
 11
4.1520357864
 21
17.1740534036
  0
LINE
  5
476
100
AcDbEntity
  8
RACCORDO
100
AcDbLine
 62
250
  6
CONTINUOUS
 10
-15.3358556331
 20
-3.1764260334
 11
-15.3568458089
 21
-3.1974162093
  0
LINE
  5
477
100
AcDbEntity
  8
RACCORDO
100
AcDbLine
 62
250
  6
CONTINUOUS
 10
-15.0358670561
 20
-3.4764146104
 11
-15.056857232
 21
-3.4974047863
  0
LINE
  5
478
100
AcDbEntity
  8
RACCORDO
100
AcDbLine
 62
7
  6
CONTINUOUS
 10
4.0726867142
 20
17.0948557949
 11
3.973212557
 21
16.9950569909
  0
LWPOLYLINE
  5
479
100
AcDbEntity
  8
RACCORDO
100
AcDbPolyline
 62
7
  6
CONTINUOUS
 90
5
 70
0
 10
3.973212557
 20
16.9950569909
 10
3.9438239934
 20
16.9658416106
 10
3.9136838896
 20
16.9361437626
 10
3.8829801639
 20
16.9055515013
 10
3.8520472095
 20
16.8740648267
  0
LINE
  5
47A
100
AcDbEntity
  8
RACCORDO
100
AcDbLine
 62
7
  6
CONTINUOUS
 10
4.1093839513
 20
17.1312717338
 11
4.0726867142
 21
17.0948557949
  0
LINE
  5
47B
100
AcDbEntity
  8
DRAFT
100
AcDbLine
 62
7
  6
CONTINUOUS
 10
21.6334753571
 20
19.467466917
 11
21.7120171672
 21
19.5
  0
LINE
  5
47C
100
AcDbEntity
  8
0
100
AcDbLine
 62
7
  6
CONTINUOUS
 10
-19.2061808328
 20
3.783078
 11
-20.4379828328
 21
3.36707
  0
LINE
  5
47D
100
AcDbEntity
  8
0
100
AcDbLine
 62
7
  6
CONTINUOUS
 10
-20.2038018328
 20
3.276172
 11
-18.9879828328
 21
3.684146
  0
LINE
  5
47E
100
AcDbEntity
  8
RACCORDO
100
AcDbLine
 62
7
  6
CONTINUOUS
 10
13.2810653124
 20
-9.1855095289
 11
11.5620171672
 21
-9.1855095289
  0
LINE
  5
47F
100
AcDbEntity
  8
ASSI
100
AcDbLine
 62
7
  6
CONTINUOUS
 10
11.5620171672
 20
-9.1855095289
 11
7.0620171672
 21
-9.1855095289
  0
LINE
  5
480
100
AcDbEntity
  8
ASSI
100
AcDbLine
 62
7
  6
CONTINUOUS
 10
-7.4379828328
 20
-9.1855095289
 11
-11.9379828328
 21
-9.1855095289
  0
LINE
  5
481
100
AcDbEntity
  8
RACCORDO
100
AcDbLine
 62
7
  6
CONTINUOUS
 10
-11.9379828328
 20
-9.1855095289
 11
-13.657030978
 21
-9.1855095289
  0
LINE
  5
482
100
AcDbEntity
  8
RACCORDO
100
AcDbLine
 62
250
  6
CONTINUOUS
 10
-14.7331841353
 20
-8.9956833493
 11
-14.4377418094
 21
-8.9956833493
  0
LINE
  5
483
100
AcDbEntity
  8
RACCORDO
100
AcDbLine
 62
250
  6
CONTINUOUS
 10
14.3572184697
 20
-8.9956833493
 11
14.0617761438
 21
-8.9956833493
  0
LINE
  5
484
100
AcDbEntity
  8
ASSI
100
AcDbLine
 62
7
  6
CONTINUOUS
 10
-20.4881228328
 20
-8.804762
 11
-17.6879968328
 21
-8.804762
  0
LINE
  5
485
100
AcDbEntity
  8
RACCORDO
100
AcDbLine
 62
250
  6
CONTINUOUS
 10
-14.1422994835
 20
-8.7002410234
 11
-7.4379828328
 21
-8.7002410234
  0
LINE
  5
486
100
AcDbEntity
  8
RACCORDO
100
AcDbLine
 62
250
  6
CONTINUOUS
 10
-14.1422994835
 20
-8.4047986975
 11
-7.4379828328
 21
-8.4047986975
  0
LINE
  5
487
100
AcDbEntity
  8
RACCORDO
100
AcDbLine
 62
250
  6
CONTINUOUS
 10
7.0620171672
 20
-8.4047986975
 11
13.7663338179
 21
-8.4047986975
  0
LINE
  5
488
100
AcDbEntity
  8
ASSI
100
AcDbLine
 62
7
  6
CONTINUOUS
 10
-19.2887078328
 20
-8.252455
 11
-19.9701018328
 21
-8.252462
  0
LINE
  5
489
100
AcDbEntity
  8
RACCORDO
100
AcDbLine
 62
250
  6
CONTINUOUS
 10
7.0620171672
 20
-8.0235739666
 11
14.9598899674
 21
-8.0235739666
  0
LINE
  5
48A
100
AcDbEntity
  8
RACCORDO
100
AcDbLine
 62
250
  6
CONTINUOUS
 10
-7.4379828328
 20
-8.0235739666
 11
-15.3358556331
 21
-8.0235739666
  0
LINE
  5
48B
100
AcDbEntity
  8
0
100
AcDbLine
 62
7
  6
CONTINUOUS
 10
-2.0129828328
 20
-7.825
 11
1.6370171672
 21
-7.825
  0
LINE
  5
48C
100
AcDbEntity
  8
RACCORDO
100
AcDbLine
 62
7
  6
CONTINUOUS
 10
14.6599013905
 20
-7.7235853896
 11
7.0620171672
 21
-7.7235853896
  0
LINE
  5
48D
100
AcDbEntity
  8
RACCORDO
100
AcDbLine
 62
7
  6
CONTINUOUS
 10
-7.4379828328
 20
-7.7235853896
 11
-15.0358670561
 21
-7.7235853896
  0
LINE
  5
48E
100
AcDbEntity
  8
RACCORDO
100
AcDbLine
 62
7
  6
CONTINUOUS
 10
-15.056857232
 20
-7.7025952137
 11
-7.4379828328
 21
-7.7025952137
  0
LINE
  5
48F
100
AcDbEntity
  8
RACCORDO
100
AcDbLine
 62
7
  6
CONTINUOUS
 10
7.0620171672
 20
-7.7025952137
 11
14.6808915664
 21
-7.7025952137
  0
LINE
  5
490
100
AcDbEntity
  8
ASSI
100
AcDbLine
 62
7
  6
CONTINUOUS
 10
-17.6879968328
 20
-8.244734
 11
-18.7706868328
 21
-8.244671
  0
LWPOLYLINE
  5
491
100
AcDbEntity
  8
RACCORDO
100
AcDbPolyline
 62
250
  6
CONTINUOUS
 90
19
 70
0
 10
7.0620171672
 20
-8.7002410234
 10
13.785752491
 20
-8.7002665409
 10
13.8057829849
 20
-8.7016066078
 10
13.8263321573
 20
-8.7043960194
 10
13.8472746174
 20
-8.7087414012
 10
13.8684912557
 20
-8.7147903123
 10
13.8898618944
 20
-8.7227490956
 10
13.9112257617
 20
-8.7327513911
 10
13.9323450761
 20
-8.7449025277
 10
13.952937499
 20
-8.7593656938
 10
13.9727347624
 20
-8.7762099343
 10
13.9914476899
 20
-8.795475485
 10
14.0087189223
 20
-8.8172458406
 10
14.0242067873
 20
-8.8414986815
 10
14.0375569594
 20
-8.8681446239
 10
14.0483630025
 20
-8.8971017042
 10
14.0562385411
 20
-8.9281975267
 10
14.060827901
 20
-8.9611637667
 10
14.0617761438
 20
-8.9956833493
  0
LWPOLYLINE
  5
492
100
AcDbEntity
  8
RACCORDO
100
AcDbPolyline
 62
250
  6
CONTINUOUS
 90
19
 70
0
 10
13.7663338179
 20
-8.4047986975
 10
13.8044973075
 20
-8.4055114296
 10
13.8435097245
 20
-8.4093205135
 10
13.8833710689
 20
-8.4162259494
 10
13.9243639055
 20
-8.425944935
 10
13.9662056696
 20
-8.4387602726
 10
14.0080486666
 20
-8.4555203681
 10
14.0500971689
 20
-8.4763103
 10
14.0921469041
 20
-8.5010449899
 10
14.1327373613
 20
-8.5303176087
 10
14.1720133053
 20
-8.5642948618
 10
14.2098299711
 20
-8.602810044
 10
14.2442925526
 20
-8.6459562101
 10
14.2754962694
 20
-8.6940083279
 10
14.3033459017
 20
-8.7466914298
 10
14.3256609845
 20
-8.8032736676
 10
14.3417146959
 20
-8.8635110922
 10
14.3522338576
 20
-8.9276476527
 10
14.3572184697
 20
-8.9956833493
  0
LWPOLYLINE
  5
493
100
AcDbEntity
  8
RACCORDO
100
AcDbPolyline
 62
7
  6
CONTINUOUS
 90
11
 70
0
 10
-15.1121161247
 20
-3.466556791
 10
-15.1490345031
 20
-3.454241596
 10
-15.1843560427
 20
-3.4370757455
 10
-15.2173439261
 20
-3.4152830827
 10
-15.2471779161
 20
-3.3893438914
 10
-15.2732869308
 20
-3.3597790245
 10
-15.2952904424
 20
-3.3270470867
 10
-15.3128075353
 20
-3.2917180728
 10
-15.3255375782
 20
-3.2544048422
 10
-15.3332638778
 20
-3.2157515405
 10
-15.3358440102
 20
-3.1790439958
  0
LWPOLYLINE
  5
494
100
AcDbEntity
  8
RACCORDO
100
AcDbPolyline
 62
250
  6
CONTINUOUS
 90
5
 70
0
 10
-15.1344947158
 20
-3.4871784241
 10
-15.1716505877
 20
-3.4745637986
 10
-15.2068427252
 20
-3.4572075941
 10
-15.2394690137
 20
-3.4354066804
 10
-15.2689712179
 20
-3.4095339847
  0
LINE
  5
495
100
AcDbEntity
  8
DRAFT
100
AcDbLine
 62
7
  6
CONTINUOUS
 10
21.6334753571
 20
-19.467466917
 11
21.7120171672
 21
-19.5
  0
LINE
  5
496
100
AcDbEntity
  8
0
100
AcDbLine
 62
7
  6
CONTINUOUS
 10
1.8307671672
 20
-12.2117021084
 11
1.6328508025
 21
-12.0904255271
  0
LINE
  5
497
100
AcDbEntity
  8
0
100
AcDbLine
 62
7
  6
CONTINUOUS
 10
1.5932671672
 20
-12.2925531626
 11
1.7120171672
 21
-12.3734042168
  0
LINE
  5
498
100
AcDbEntity
  8
RACCORDO
100
AcDbLine
 62
250
  6
CONTINUOUS
 10
5.5378007133
 20
-19.8667377706
 11
5.646923894
 21
-19.9758513559
  0
LINE
  5
499
100
AcDbEntity
  8
RACCORDO
100
AcDbLine
 62
250
  6
CONTINUOUS
 10
-15.3358556331
 20
3.1764260334
 11
-15.3568458089
 21
3.1974162093
  0
LINE
  5
49A
100
AcDbEntity
  8
RACCORDO
100
AcDbLine
 62
250
  6
CONTINUOUS
 10
-15.0358670561
 20
3.4764146104
 11
-15.056857232
 21
3.4974047863
  0
LINE
  5
49B
100
AcDbEntity
  8
0
100
AcDbLine
 62
7
  6
CONTINUOUS
 10
0.8411839849
 20
-13.667021282
 11
0.9599339849
 21
-13.7882978775
  0
LWPOLYLINE
  5
49C
100
AcDbEntity
  8
RACCORDO
100
AcDbPolyline
 62
7
  6
CONTINUOUS
 90
7
 70
0
 10
4.5360705708
 20
-20.164996205
 10
4.5344168353
 20
-20.1628441259
 10
4.5301647088
 20
-20.1586914795
 10
4.5236126314
 20
-20.1525382656
 10
4.5150871837
 20
-20.1441464224
 10
4.5048718915
 20
-20.1337540118
 10
4.4801587544
 20
-20.1091936896
  0
LINE
  5
49D
100
AcDbEntity
  8
DRAFT
100
AcDbLine
 62
7
  6
CONTINUOUS
 10
-17.3879828328
 20
20.9
 11
-17.3670387967
 21
20.8476387933
  0
LWPOLYLINE
  5
49E
100
AcDbEntity
  8
RACCORDO
100
AcDbPolyline
 62
250
  6
CONTINUOUS
 90
13
 70
0
 10
-7.192308189
 20
21.3544440149
 10
-7.1899619194
 20
21.3170189557
 10
-7.1829651363
 20
21.2801788504
 10
-7.1714272367
 20
21.2444992929
 10
-7.1555285537
 20
21.2105377072
 10
-7.1355175668
 20
21.1788247067
 10
-7.1117070437
 20
21.1498557892
 10
-7.0844691073
 20
21.1240835188
 10
-7.0542293574
 20
21.1019104391
 10
-7.0214602549
 20
21.0836828607
 10
-6.9866737803
 20
21.0696854741
 10
-6.9504134455
 20
21.0601368884
 10
-6.9132457574
 20
21.0551861951
  0
LINE
  5
49F
100
AcDbEntity
  8
RACCORDO
100
AcDbLine
 62
7
  6
CONTINUOUS
 10
-7.2138479363
 20
23.25
 11
-7.192308189
 21
22.3516448247
  0
LINE
  5
4A0
100
AcDbEntity
  8
0
100
AcDbLine
 62
7
  6
CONTINUOUS
 10
-7.4544204328
 20
20.3835624
 11
-7.4440745581
 21
19.1980425809
  0
LINE
  5
4A1
100
AcDbEntity
  8
0
100
AcDbLine
 62
7
  6
CONTINUOUS
 10
-7.6536637544
 20
-17.25
 11
-7.6536637544
 21
-17.2314713874
  0
LINE
  5
4A2
100
AcDbEntity
  8
DRAFT
100
AcDbLine
 62
7
  6
CONTINUOUS
 10
-7.6379828328
 20
-9.7191746246
 11
-7.6379828328
 21
-12.9
  0
LINE
  5
4A3
100
AcDbEntity
  8
DRAFT
100
AcDbLine
 62
7
  6
CONTINUOUS
 10
-7.5856216261
 20
-12.9
 11
-7.5856216261
 21
-9.4577374213
  0
LINE
  5
4A4
100
AcDbEntity
  8
DRAFT
100
AcDbLine
 62
7
  6
CONTINUOUS
 10
-7.5165246429
 20
20.3214581899
 11
-7.5165246429
 21
19.1714581899
  0
LINE
  5
4A5
100
AcDbEntity
  8
RACCORDO
100
AcDbLine
 62
250
  6
CONTINUOUS
 10
-7.4379828328
 20
-13.9952013025
 11
-7.4379828328
 21
-13.2144904711
  0
LINE
  5
4A6
100
AcDbEntity
  8
RACCORDO
100
AcDbLine
 62
250
  6
CONTINUOUS
 10
-7.4379828328
 20
-9.1855095289
 11
-7.4379828328
 21
-8.4047986975
  0
LINE
  5
4A7
100
AcDbEntity
  8
RACCORDO
100
AcDbLine
 62
250
  6
CONTINUOUS
 10
-7.4379828328
 20
-8.0235739666
 11
-7.4379828328
 21
-7.4026066368
  0
LINE
  5
4A8
100
AcDbEntity
  8
ASSI
100
AcDbLine
 62
7
  6
CONTINUOUS
 10
-7.4379828328
 20
20.5437742252
 11
-7.4379828328
 21
21.3499999965
  0
LINE
  5
4A9
100
AcDbEntity
  8
0
100
AcDbLine
 62
7
  6
CONTINUOUS
 10
-7.4379828328
 20
21.3499999968
 11
-7.4379828328
 21
22.2059508647
  0
LINE
  5
4AA
100
AcDbEntity
  8
RACCORDO
100
AcDbLine
 62
7
  6
CONTINUOUS
 10
-7.4379828328
 20
22.2059508647
 11
-7.4379828328
 21
22.8193680562
  0
LINE
  5
4AB
100
AcDbEntity
  8
RACCORDO
100
AcDbLine
 62
250
  6
CONTINUOUS
 10
-7.4379828328
 20
-14.3764260334
 11
-7.4379828328
 21
-14.9973933632
  0
LINE
  5
4AC
100
AcDbEntity
  8
RACCORDO
100
AcDbLine
 62
7
  6
CONTINUOUS
 10
-7.2857237521
 20
21.2673325931
 11
-7.2857237521
 21
22.4712502867
  0
LINE
  5
4AD
100
AcDbEntity
  8
RACCORDO
100
AcDbLine
 62
250
  6
CONTINUOUS
 10
-7.2379828328
 20
22.881171455
 11
-7.2379828328
 21
22.5007488485
  0
LINE
  5
4AE
100
AcDbEntity
  8
ASSI
100
AcDbLine
 62
7
  6
CONTINUOUS
 10
-7.2379828328
 20
20.45
 11
-7.2379828328
 21
20.85
  0
LINE
  5
4AF
100
AcDbEntity
  8
RACCORDO
100
AcDbLine
 62
7
  6
CONTINUOUS
 10
-7.2138479363
 20
23.25
 11
-7.2138479363
 21
22.6993030839
  0
LINE
  5
4B0
100
AcDbEntity
  8
RACCORDO
100
AcDbLine
 62
7
  6
CONTINUOUS
 10
-7.192308189
 20
21.3544440149
 11
-7.192308189
 21
22.3516448247
  0
LINE
  5
4B1
100
AcDbEntity
  8
0
100
AcDbLine
 62
7
  6
CONTINUOUS
 10
-6.9379828328
 20
-16.0
 11
-6.9379828328
 21
-15.5
  0
LINE
  5
4B2
100
AcDbEntity
  8
RACCORDO
100
AcDbLine
 62
250
  6
CONTINUOUS
 10
-6.8879828328
 20
24.9281655413
 11
-6.8879828328
 21
24.5477429348
  0
LINE
  5
4B3
100
AcDbEntity
  8
RACCORDO
100
AcDbLine
 62
250
  6
CONTINUOUS
 10
-6.6923272275
 20
21.3421935524
 11
-6.6923272275
 21
22.1712478072
  0
LINE
  5
4B4
100
AcDbEntity
  8
RACCORDO
100
AcDbLine
 62
7
  6
CONTINUOUS
 10
-6.6879828328
 20
24.8663621424
 11
-6.6879828328
 21
23.9702128587
  0
LINE
  5
4B5
100
AcDbEntity
  8
RACCORDO
100
AcDbLine
 62
7
  6
CONTINUOUS
 10
-6.4947074734
 20
-12.6712059198
 11
-6.4947074734
 21
-9.7287940802
  0
LINE
  5
4B6
100
AcDbEntity
  8
0
100
AcDbLine
 62
7
  6
CONTINUOUS
 10
-6.4442574395
 20
20.85
 11
-6.4442574395
 21
20.45
  0
LINE
  5
4B7
100
AcDbEntity
  8
RACCORDO
100
AcDbLine
 62
7
  6
CONTINUOUS
 10
-6.4379828328
 20
-9.7656314925
 11
-6.4379828328
 21
-12.6343685075
  0
LINE
  5
4B8
100
AcDbEntity
  8
0
100
AcDbLine
 62
250
  6
CONTINUOUS
 10
-6.1442574395
 20
20.45
 11
-6.1442574395
 21
20.85
  0
LINE
  5
4B9
100
AcDbEntity
  8
RACCORDO
100
AcDbLine
 62
7
  6
CONTINUOUS
 10
-6.0228895596
 20
19.9758513559
 11
-6.0228895596
 21
19.5650932732
  0
LINE
  5
4BA
100
AcDbEntity
  8
RACCORDO
100
AcDbLine
 62
7
  6
CONTINUOUS
 10
-5.9879828328
 20
19.9409496551
 11
-5.9879828328
 21
19.6
  0
LINE
  5
4BB
100
AcDbEntity
  8
RACCORDO
100
AcDbLine
 62
7
  6
CONTINUOUS
 10
-5.9137663789
 20
19.8667377706
 11
-5.9137663789
 21
19.6742164539
  0
LINE
  5
4BC
100
AcDbEntity
  8
RACCORDO
100
AcDbLine
 62
250
  6
CONTINUOUS
 10
-5.4137854174
 20
19.6785418101
 11
-5.4137854174
 21
20.164996205
  0
LINE
  5
4BD
100
AcDbEntity
  8
0
100
AcDbLine
 62
7
  6
CONTINUOUS
 10
-5.1879828328
 20
25.05
 11
-5.1879828328
 21
23.25
  0
LINE
  5
4BE
100
AcDbEntity
  8
0
100
AcDbLine
 62
7
  6
CONTINUOUS
 10
-5.1879828328
 20
20.45
 11
-5.1879828328
 21
20.85
  0
LINE
  5
4BF
100
AcDbEntity
  8
DRAFT
100
AcDbLine
 62
7
  6
CONTINUOUS
 10
-5.0228895596
 20
20.8476387933
 11
-5.0228895596
 21
20.2758495282
  0
LINE
  5
4C0
100
AcDbEntity
  8
ASSI
100
AcDbLine
 62
7
  6
CONTINUOUS
 10
-5.8373062632
 20
-10.4933481589
 11
-5.8696561544
 21
-11.9714090571
  0
LINE
  5
4C1
100
AcDbEntity
  8
RACCORDO
100
AcDbLine
 62
7
  6
CONTINUOUS
 10
-5.7596622456
 20
20.85
 11
-5.7447882616
 21
21.2759351733
  0
LWPOLYLINE
  5
4C2
100
AcDbEntity
  8
RACCORDO
100
AcDbPolyline
 62
7
  6
CONTINUOUS
 90
16
 70
0
 10
-5.9879837467
 20
19.9409473707
 10
-5.9863398031
 20
19.9723052238
 10
-5.9814271294
 20
20.0033195044
 10
-5.9732995484
 20
20.033650424
 10
-5.9620461047
 20
20.062965681
 10
-5.9477900895
 20
20.0909441013
 10
-5.9306876899
 20
20.117279157
 10
-5.9109262776
 20
20.1416823246
 10
-5.888722356
 20
20.1638862462
 10
-5.8643191884
 20
20.1836476585
 10
-5.8379841327
 20
20.2007500581
 10
-5.8100057124
 20
20.2150060733
 10
-5.7806904554
 20
20.226259517
 10
-5.7503595358
 20
20.2343870981
 10
-5.7193452552
 20
20.2392997717
 10
-5.687987402
 20
20.2409437153
  0
LWPOLYLINE
  5
4C3
100
AcDbEntity
  8
RACCORDO
100
AcDbPolyline
 62
250
  6
CONTINUOUS
 90
16
 70
0
 10
-5.9137663789
 20
19.8667377706
 10
-5.9121207815
 20
19.898093601
 10
-5.9072067926
 20
19.9291059236
 10
-5.8990782456
 20
19.9594349939
 10
-5.8878241901
 20
19.9887485524
 10
-5.8735679159
 20
20.0167254647
 10
-5.8564656026
 20
20.0430592397
 10
-5.8367046085
 20
20.0674613868
 10
-5.8145014182
 20
20.0896645771
 10
-5.7900992711
 20
20.1094255712
 10
-5.7637654961
 20
20.1265278845
 10
-5.7357885838
 20
20.1407841588
 10
-5.7064750253
 20
20.1520382143
 10
-5.676145955
 20
20.1601667612
 10
-5.6451336324
 20
20.1650807501
 10
-5.613777802
 20
20.1667263475
  0
LINE
  5
4C4
100
AcDbEntity
  8
RACCORDO
100
AcDbLine
 62
250
  6
CONTINUOUS
 10
-4.528001452
 20
22.0106155454
 11
-4.5253948634
 21
22.0500530038
  0
LINE
  5
4C5
100
AcDbEntity
  8
0
100
AcDbLine
 62
7
  6
CONTINUOUS
 10
-11.7285897437
 20
-17.25
 11
-11.7223019112
 21
-17.2314713874
  0
LWPOLYLINE
  5
4C6
100
AcDbEntity
  8
RACCORDO
100
AcDbPolyline
 62
250
  6
CONTINUOUS
 90
4
 70
0
 10
-15.303568335
 20
-7.8266376062
 10
-15.2932091485
 20
-7.813433142
 10
-15.2817115348
 20
-7.8003687047
 10
-15.2691240182
 20
-7.7876323756
  0
LINE
  5
4C7
100
AcDbEntity
  8
0
100
AcDbLine
 62
7
  6
CONTINUOUS
 10
1.5620171672
 20
9.668061
 11
1.1939561672
 21
9.3
  0
LINE
  5
4C8
100
AcDbEntity
  8
0
100
AcDbLine
 62
7
  6
CONTINUOUS
 10
-12.7320861305
 20
-11.2538747686
 11
-12.7313666351
 21
-11.2536804613
  0
LINE
  5
4C9
100
AcDbEntity
  8
0
100
AcDbLine
 62
7
  6
CONTINUOUS
 10
-12.8356137486
 20
-10.8675044381
 11
-12.8359260635
 21
-10.8675884087
  0
LINE
  5
4CA
100
AcDbEntity
  8
0
100
AcDbLine
 62
7
  6
CONTINUOUS
 10
-11.9601097341
 20
-11.0470226064
 11
-11.958672144
 21
-11.0466377852
  0
LINE
  5
4CB
100
AcDbEntity
  8
RACCORDO
100
AcDbLine
 62
250
  6
CONTINUOUS
 10
-15.0753045145
 20
-7.7261919783
 11
-15.0358670561
 21
-7.7235853896
  0
LINE
  5
4CC
100
AcDbEntity
  8
0
100
AcDbLine
 62
7
  6
CONTINUOUS
 10
1.2620171672
 20
-7.45
 11
-1.6379828328
 21
-7.45
  0
LINE
  5
4CD
100
AcDbEntity
  8
RACCORDO
100
AcDbLine
 62
250
  6
CONTINUOUS
 10
-15.0620476595
 20
-7.4026066368
 11
-7.4379828328
 21
-7.4026066368
  0
LINE
  5
4CE
100
AcDbEntity
  8
RACCORDO
100
AcDbLine
 62
250
  6
CONTINUOUS
 10
7.0620171672
 20
-7.4026066368
 11
14.6860819939
 21
-7.4026066368
  0
LINE
  5
4CF
100
AcDbEntity
  8
0
100
AcDbLine
 62
7
  6
CONTINUOUS
 10
-1.2879828328
 20
-6.75
 11
0.9120171672
 21
-6.75
  0
LINE
  5
4D0
100
AcDbEntity
  8
0
100
AcDbLine
 62
7
  6
CONTINUOUS
 10
20.3120171672
 20
-6.6074743095
 11
18.5120171672
 21
-6.6074743095
  0
LINE
  5
4D1
100
AcDbEntity
  8
0
100
AcDbLine
 62
7
  6
CONTINUOUS
 10
0.9120171672
 20
-6.442
 11
-0.0709615702
 21
-6.442
  0
LINE
  5
4D2
100
AcDbEntity
  8
0
100
AcDbLine
 62
7
  6
CONTINUOUS
 10
-0.3518126005
 20
-6.442
 11
-1.0539403075
 21
-6.442
  0
LINE
  5
4D3
100
AcDbEntity
  8
0
100
AcDbLine
 62
7
  6
CONTINUOUS
 10
-0.7730892772
 20
-5.1586667156
 11
-0.6326636309
 21
-5.1586667156
  0
LWPOLYLINE
  5
4D4
100
AcDbEntity
  8
RACCORDO
100
AcDbPolyline
 62
250
  6
CONTINUOUS
 90
5
 70
0
 10
14.6808917623
 20
-7.7025950178
 10
14.6994820983
 20
-7.7031632356
 10
14.7182294577
 20
-7.7048858357
 10
14.7370566778
 20
-7.7077949424
 10
14.7559456741
 20
-7.7119337305
  0
LWPOLYLINE
  5
4D5
100
AcDbEntity
  8
RACCORDO
100
AcDbPolyline
 62
250
  6
CONTINUOUS
 90
21
 70
0
 10
14.6860819939
 20
-7.4026290868
 10
14.7046107215
 20
-7.4040387995
 10
14.7232725124
 20
-7.407856016
 10
14.7419909394
 20
-7.4140807365
 10
14.7607500696
 20
-7.4227502114
 10
14.779397932
 20
-7.4338271902
 10
14.797658918
 20
-7.4471999212
 10
14.8154553069
 20
-7.462995215
 10
14.8327128974
 20
-7.481086261
 10
14.8491926796
 20
-7.5009808761
 10
14.8648439118
 20
-7.5227668455
 10
14.8796267114
 20
-7.5463563841
 10
14.893367833
 20
-7.5709939532
 10
14.9060523416
 20
-7.5966928094
 10
14.9176948008
 20
-7.6234396962
 10
14.9282197259
 20
-7.6504393053
 10
14.9376387219
 20
-7.677594384
 10
14.9460249308
 20
-7.7050021851
 10
14.9534244213
 20
-7.7321591589
 10
14.9598938872
 20
-7.7590385199
 10
14.9654848024
 20
-7.7856670535
  0
LWPOLYLINE
  5
4D6
100
AcDbEntity
  8
RACCORDO
100
AcDbPolyline
 62
7
  6
CONTINUOUS
 90
10
 70
0
 10
14.6599013905
 20
-7.7235853896
 10
14.7119913606
 20
-7.7281464162
 10
14.7624987564
 20
-7.7416829913
 10
14.8098890846
 20
-7.7637838526
 10
14.8527225534
 20
-7.7937775417
 10
14.8896978153
 20
-7.8307528037
 10
14.9196915044
 20
-7.8735862724
 10
14.9417923658
 20
-7.9209766007
 10
14.9553289409
 20
-7.9714839965
 10
14.9572833788
 20
-7.9841365081
  0
LINE
  5
4D7
100
AcDbEntity
  8
RACCORDO
100
AcDbLine
 62
7
  6
CONTINUOUS
 10
-15.0753045145
 20
-3.4738080217
 11
-15.1121161247
 21
-3.466556791
  0
LINE
  5
4D8
100
AcDbEntity
  8
0
100
AcDbLine
 62
7
  6
CONTINUOUS
 10
-0.6326636309
 20
-5.1586667156
 11
-0.4922381157
 21
-5.21
  0
LINE
  5
4D9
100
AcDbEntity
  8
RACCORDO
100
AcDbLine
 62
250
  6
CONTINUOUS
 10
14.807691811
 20
-21.3544440149
 11
14.7142762479
 21
-21.2673325931
  0
LINE
  5
4DA
100
AcDbEntity
  8
RACCORDO
100
AcDbLine
 62
250
  6
CONTINUOUS
 10
15.0867542426
 20
-21.0551861951
 11
14.9933386796
 21
-20.9680747733
  0
LINE
  5
4DB
100
AcDbEntity
  8
0
100
AcDbLine
 62
7
  6
CONTINUOUS
 10
1.9495171672
 20
-12.3329786897
 11
1.8307671672
 21
-12.2117021084
  0
LINE
  5
4DC
100
AcDbEntity
  8
0
100
AcDbLine
 62
7
  6
CONTINUOUS
 10
1.0786839849
 20
-13.6265957549
 11
0.9203503495
 21
-13.384042564
  0
LINE
  5
4DD
100
AcDbEntity
  8
0
100
AcDbLine
 62
7
  6
CONTINUOUS
 10
1.7120171672
 20
-12.3734042168
 11
1.8703508025
 21
-12.6159574926
  0
LINE
  5
4DE
100
AcDbEntity
  8
0
100
AcDbLine
 62
7
  6
CONTINUOUS
 10
0.7620171672
 20
-13.5053191453
 11
0.8411839849
 21
-13.667021282
  0
LINE
  5
4DF
100
AcDbEntity
  8
DRAFT
100
AcDbLine
 62
7
  6
CONTINUOUS
 10
1.9910731311
 20
-21.5376874439
 11
2.0120171672
 21
-21.5881912165
  0
LWPOLYLINE
  5
4E0
100
AcDbEntity
  8
RACCORDO
100
AcDbPolyline
 62
7
  6
CONTINUOUS
 90
25
 70
0
 10
-6.6879828328
 20
24.4859395359
 10
-6.6884262357
 20
24.4900101013
 10
-6.689707217
 20
24.4940291829
 10
-6.6918257767
 20
24.4979967809
 10
-6.6947981138
 20
24.5019293969
 10
-6.6986080292
 20
24.5058105293
 10
-6.7032069263
 20
24.5095906727
 10
-6.7086049117
 20
24.5132685337
 10
-6.7147918787
 20
24.5168454057
 10
-6.7216889103
 20
24.5202756646
 10
-6.7293051025
 20
24.5235574323
 10
-6.7376313593
 20
24.5266925869
 10
-6.7465614766
 20
24.5296411384
 10
-6.7561031895
 20
24.5324006963
 10
-6.7662487628
 20
24.5349736512
 10
-6.7768687862
 20
24.537327184
 10
-6.7879693372
 20
24.539458484
 10
-6.7995443384
 20
24.5413703619
 10
-6.8114461463
 20
24.5430384312
 10
-6.8236789475
 20
24.5444595685
 10
-6.8362385556
 20
24.5456368971
 10
-6.8489647684
 20
24.5465553998
 10
-6.8618041852
 20
24.5472100708
 10
-6.8748102066
 20
24.5476059158
 10
-6.8879828328
 20
24.5477429348
  0
LINE
  5
4E1
100
AcDbEntity
  8
RACCORDO
100
AcDbLine
 62
7
  6
CONTINUOUS
 10
-5.9664579268
 20
20.8603592228
 11
-5.9666335391
 21
20.8621058701
  0
LINE
  5
4E2
100
AcDbEntity
  8
DRAFT
100
AcDbLine
 62
7
  6
CONTINUOUS
 10
-4.9879828328
 20
23.25
 11
-4.977637012
 21
22.1712478072
  0
LINE
  5
4E3
100
AcDbEntity
  8
DRAFT
100
AcDbLine
 62
7
  6
CONTINUOUS
 10
-4.9879828328
 20
20.9
 11
-4.9879828328
 21
20.2409428014
  0
LINE
  5
4E4
100
AcDbEntity
  8
RACCORDO
100
AcDbLine
 62
7
  6
CONTINUOUS
 10
-4.977637012
 20
22.7585974382
 11
-4.977637012
 21
22.1712478072
  0
LINE
  5
4E5
100
AcDbEntity
  8
RACCORDO
100
AcDbLine
 62
7
  6
CONTINUOUS
 10
-4.9120362364
 20
20.9759465964
 11
-4.9120362364
 21
20.164996205
  0
LINE
  5
4E6
100
AcDbEntity
  8
RACCORDO
100
AcDbLine
 62
7
  6
CONTINUOUS
 10
-4.6379828328
 20
22.1205969262
 11
-4.6379828328
 21
19.1705855031
  0
LINE
  5
4E7
100
AcDbEntity
  8
RACCORDO
100
AcDbLine
 62
7
  6
CONTINUOUS
 10
-4.6039480484
 20
18.8391573555
 11
-4.6039480484
 21
17.25
  0
LINE
  5
4E8
100
AcDbEntity
  8
RACCORDO
100
AcDbLine
 62
7
  6
CONTINUOUS
 10
-4.528001452
 20
17.1740534036
 11
-4.528001452
 21
22.0106155454
  0
LINE
  5
4E9
100
AcDbEntity
  8
RACCORDO
100
AcDbLine
 62
250
  6
CONTINUOUS
 10
-4.2280128751
 20
16.8740648267
 11
-4.2280128751
 21
22.3106041223
  0
LINE
  5
4EA
100
AcDbEntity
  8
RACCORDO
100
AcDbLine
 62
7
  6
CONTINUOUS
 10
-3.1724635501
 20
22.7585974382
 11
-3.1724635501
 21
22.4896541792
  0
LINE
  5
4EB
100
AcDbEntity
  8
DRAFT
100
AcDbLine
 62
7
  6
CONTINUOUS
 10
-3.1621177293
 20
22.5
 11
-3.1621177293
 21
23.25
  0
LINE
  5
4EC
100
AcDbEntity
  8
0
100
AcDbLine
 62
7
  6
CONTINUOUS
 10
-2.9379828328
 20
21.25
 11
-2.9379828328
 21
20.75
  0
LINE
  5
4ED
100
AcDbEntity
  8
DRAFT
100
AcDbLine
 62
7
  6
CONTINUOUS
 10
-2.4665246429
 20
22.4205855031
 11
-2.4665246429
 21
22.4896541792
  0
LINE
  5
4EE
100
AcDbEntity
  8
DRAFT
100
AcDbLine
 62
7
  6
CONTINUOUS
 10
-2.3879828328
 20
22.4205855031
 11
-2.3879828328
 21
22.4789297666
  0
LINE
  5
4EF
100
AcDbEntity
  8
RACCORDO
100
AcDbLine
 62
7
  6
CONTINUOUS
 10
-12.4379828328
 20
-16.0
 11
-13.1455629828
 21
-17.2255647702
  0
LWPOLYLINE
  5
4F0
100
AcDbEntity
  8
RACCORDO
100
AcDbPolyline
 62
250
  6
CONTINUOUS
 90
13
 70
0
 10
-15.2691240182
 20
-7.7876323756
 10
-15.2554089722
 20
-7.7753138922
 10
-15.2405735651
 20
-7.7635444208
 10
-15.224785172
 20
-7.7525421552
 10
-15.2080681312
 20
-7.7423934731
 10
-15.1904684574
 20
-7.7331961932
 10
-15.1722419982
 20
-7.7251202002
 10
-15.1534512367
 20
-7.7182096777
 10
-15.1341836812
 20
-7.7125161667
 10
-15.1147738424
 20
-7.7081268378
 10
-15.0953997799
 20
-7.7050362985
 10
-15.0760662906
 20
-7.7032014768
 10
-15.0568574279
 20
-7.7025950178
  0
LINE
  5
4F1
100
AcDbEntity
  8
RACCORDO
100
AcDbLine
 62
250
  6
CONTINUOUS
 10
14.6625193529
 20
-3.4764029875
 11
14.6599013905
 21
-3.4764146104
  0
LINE
  5
4F2
100
AcDbEntity
  8
0
100
AcDbLine
 62
7
  6
CONTINUOUS
 10
-0.5858551258
 20
-4.8506667156
 11
-0.7730892772
 21
-4.8506667156
  0
LINE
  5
4F3
100
AcDbEntity
  8
0
100
AcDbLine
 62
7
  6
CONTINUOUS
 10
-1.6379828328
 20
-4.55
 11
1.2620171672
 21
-4.55
  0
LINE
  5
4F4
100
AcDbEntity
  8
0
100
AcDbLine
 62
7
  6
CONTINUOUS
 10
1.6370171672
 20
-4.175
 11
-2.0129828328
 21
-4.175
  0
LINE
  5
4F5
100
AcDbEntity
  8
RACCORDO
100
AcDbLine
 62
250
  6
CONTINUOUS
 10
14.9860705708
 20
-3.7973933646
 11
-15.3620362364
 21
-3.7973933646
  0
LINE
  5
4F6
100
AcDbEntity
  8
RACCORDO
100
AcDbLine
 62
7
  6
CONTINUOUS
 10
-15.056857232
 20
-3.4974047863
 11
14.6808915664
 21
-3.4974047863
  0
LINE
  5
4F7
100
AcDbEntity
  8
RACCORDO
100
AcDbLine
 62
7
  6
CONTINUOUS
 10
-15.0358670561
 20
-3.4764146104
 11
14.6599013905
 21
-3.4764146104
  0
LINE
  5
4F8
100
AcDbEntity
  8
RACCORDO
100
AcDbLine
 62
250
  6
CONTINUOUS
 10
14.9598899674
 20
-3.1764260334
 11
-15.3358556331
 21
-3.1764260334
  0
LWPOLYLINE
  5
4F9
100
AcDbEntity
  8
RACCORDO
100
AcDbPolyline
 62
250
  6
CONTINUOUS
 90
3
 70
0
 10
-15.056857232
 20
-3.4974047863
 10
-15.0960107984
 20
-3.4948357294
 10
-15.1344947158
 20
-3.4871784241
  0
LINE
  5
4FA
100
AcDbEntity
  8
RACCORDO
100
AcDbLine
 62
250
  6
CONTINUOUS
 10
-15.0358670561
 20
-3.4764146104
 11
-15.0753045145
 21
-3.4738080217
  0
LWPOLYLINE
  5
4FB
100
AcDbEntity
  8
RACCORDO
100
AcDbPolyline
 62
250
  6
CONTINUOUS
 90
6
 70
0
 10
14.7559456741
 20
-7.7119337305
 10
14.7747449039
 20
-7.717316245
 10
14.7931815391
 20
-7.7238863244
 10
14.8111786339
 20
-7.731617175
 10
14.8286581869
 20
-7.740478814
 10
14.8453766704
 20
-7.7503322554
  0
LINE
  5
4FC
100
AcDbEntity
  8
0
100
AcDbLine
 62
7
  6
CONTINUOUS
 10
-18.9879828328
 20
3.878026
 11
-20.2057948328
 21
4.285921
  0
LINE
  5
4FD
100
AcDbEntity
  8
0
100
AcDbLine
 62
7
  6
CONTINUOUS
 10
-20.4379828328
 20
4.197091
 11
-19.2061808328
 21
3.783078
  0
LINE
  5
4FE
100
AcDbEntity
  8
0
100
AcDbLine
 62
7
  6
CONTINUOUS
 10
-0.4454296106
 20
-4.902
 11
-0.5858551258
 21
-4.8506667156
  0
LINE
  5
4FF
100
AcDbEntity
  8
0
100
AcDbLine
 62
7
  6
CONTINUOUS
 10
-20.4379828328
 20
5.194748
 11
-18.9879828328
 21
4.649505
  0
LINE
  5
500
100
AcDbEntity
  8
0
100
AcDbLine
 62
7
  6
CONTINUOUS
 10
-0.2581955904
 20
-5.056
 11
-0.4454296106
 21
-4.902
  0
LINE
  5
501
100
AcDbEntity
  8
RACCORDO
100
AcDbLine
 62
7
  6
CONTINUOUS
 10
17.0120171672
 20
-23.25
 11
17.0206115593
 21
-23.2585943921
  0
LINE
  5
502
100
AcDbEntity
  8
0
100
AcDbLine
 62
7
  6
CONTINUOUS
 10
14.5455795672
 20
-20.3835624
 11
14.4834753571
 21
-20.3214581899
  0
LINE
  5
503
100
AcDbEntity
  8
0
100
AcDbLine
 62
7
  6
CONTINUOUS
 10
14.5555286409
 20
-19.2435114737
 11
14.4834753571
 21
-19.1714581899
  0
LINE
  5
504
100
AcDbEntity
  8
DRAFT
100
AcDbLine
 62
7
  6
CONTINUOUS
 10
14.8055286409
 20
-19.2435114737
 11
14.8120171672
 21
-19.25
  0
LINE
  5
505
100
AcDbEntity
  8
RACCORDO
100
AcDbLine
 62
7
  6
CONTINUOUS
 10
14.8120171672
 20
-19.25
 11
14.8862336211
 21
-19.3242164539
  0
LINE
  5
506
100
AcDbEntity
  8
RACCORDO
100
AcDbLine
 62
7
  6
CONTINUOUS
 10
16.9596559604
 20
-20.8476387933
 11
17.0879637636
 21
-20.9759465964
  0
LINE
  5
507
100
AcDbEntity
  8
RACCORDO
100
AcDbLine
 62
7
  6
CONTINUOUS
 10
17.2052603914
 20
-21.0932663332
 11
17.3695860171
 21
-21.2574315927
  0
LINE
  5
508
100
AcDbEntity
  8
RACCORDO
100
AcDbLine
 62
7
  6
CONTINUOUS
 10
17.1887679433
 20
-21.0766756342
 11
17.2052603914
 21
-21.0932663332
  0
LINE
  5
509
100
AcDbEntity
  8
RACCORDO
100
AcDbLine
 62
7
  6
CONTINUOUS
 10
17.3695860171
 20
-21.2574315927
 11
17.3879523405
 21
-21.2759351733
  0
LWPOLYLINE
  5
50A
100
AcDbEntity
  8
RACCORDO
100
AcDbPolyline
 62
7
  6
CONTINUOUS
 90
3
 70
0
 10
17.14387558
 20
-21.0317491119
 10
17.1579100588
 20
-21.0459170235
 10
17.1887679433
 20
-21.0766756342
  0
LINE
  5
50B
100
AcDbEntity
  8
0
100
AcDbLine
 62
7
  6
CONTINUOUS
 10
-0.4922381157
 20
-5.21
 11
-0.3986211056
 21
-5.3126667156
  0
LINE
  5
50C
100
AcDbEntity
  8
0
100
AcDbLine
 62
7
  6
CONTINUOUS
 10
2.0286835319
 20
-12.4946807981
 11
1.9495171672
 21
-12.3329786897
  0
LINE
  5
50D
100
AcDbEntity
  8
0
100
AcDbLine
 62
7
  6
CONTINUOUS
 10
-0.1645785803
 20
-5.2613332844
 11
-0.2581955904
 21
-5.056
  0
LINE
  5
50E
100
AcDbEntity
  8
0
100
AcDbLine
 62
7
  6
CONTINUOUS
 10
0.7224339849
 20
-13.384042564
 11
0.7620171672
 21
-13.5053191453
  0
LINE
  5
50F
100
AcDbEntity
  8
DRAFT
100
AcDbLine
 62
7
  6
CONTINUOUS
 10
-2.2879828328
 20
22.5
 11
-2.2879828328
 21
22.4205855031
  0
LINE
  5
510
100
AcDbEntity
  8
0
100
AcDbLine
 62
7
  6
CONTINUOUS
 10
-2.1671496505
 20
-12.2521276355
 11
-2.1671496505
 21
-12.05
  0
LINE
  5
511
100
AcDbEntity
  8
0
100
AcDbLine
 62
7
  6
CONTINUOUS
 10
-2.1588799757
 20
17.5581910204
 11
-2.1588799757
 21
17.2335897959
  0
LINE
  5
512
100
AcDbEntity
  8
0
100
AcDbLine
 62
7
  6
CONTINUOUS
 10
-2.0129828328
 20
-4.175
 11
-2.0129828328
 21
-7.825
  0
LINE
  5
513
100
AcDbEntity
  8
0
100
AcDbLine
 62
7
  6
CONTINUOUS
 10
-1.9379828328
 20
9.668061
 11
-1.9379828328
 21
10.7102325267
  0
LINE
  5
514
100
AcDbEntity
  8
0
100
AcDbLine
 62
7
  6
CONTINUOUS
 10
-1.8504828328
 20
-12.3329786897
 11
-1.8504828328
 21
-12.6563830197
  0
LINE
  5
515
100
AcDbEntity
  8
0
100
AcDbLine
 62
7
  6
CONTINUOUS
 10
-1.6379828328
 20
-7.45
 11
-1.6379828328
 21
-4.55
  0
LINE
  5
516
100
AcDbEntity
  8
0
100
AcDbLine
 62
7
  6
CONTINUOUS
 10
-1.6129828328
 20
-12.3734042168
 11
-1.6129828328
 21
-13.95
  0
LINE
  5
517
100
AcDbEntity
  8
0
100
AcDbLine
 62
7
  6
CONTINUOUS
 10
-1.5699218328
 20
11.2238489887
 11
-1.5699218328
 21
9.3
  0
LINE
  5
518
100
AcDbEntity
  8
0
100
AcDbLine
 62
7
  6
CONTINUOUS
 10
-1.5126028328
 20
16.730604898
 11
-1.5126028328
 21
16.406004898
  0
LINE
  5
519
100
AcDbEntity
  8
RACCORDO
100
AcDbLine
 62
7
  6
CONTINUOUS
 10
-1.4379828328
 20
8.45
 11
-1.4379828328
 21
9.3
  0
LINE
  5
51A
100
AcDbEntity
  8
0
100
AcDbLine
 62
7
  6
CONTINUOUS
 10
-1.3754828328
 20
-13.95
 11
-1.3754828328
 21
-12.05
  0
LINE
  5
51B
100
AcDbEntity
  8
0
100
AcDbLine
 62
7
  6
CONTINUOUS
 10
-1.2879828328
 20
-5.518
 11
-1.2879828328
 21
-6.75
  0
LINE
  5
51C
100
AcDbEntity
  8
0
100
AcDbLine
 62
7
  6
CONTINUOUS
 10
-1.0588160151
 20
-12.05
 11
-1.0588160151
 21
-12.2521276355
  0
LINE
  5
51D
100
AcDbEntity
  8
0
100
AcDbLine
 62
7
  6
CONTINUOUS
 10
-1.0539403075
 20
-6.442
 11
-1.0539403075
 21
-5.4666667156
  0
LINE
  5
51E
100
AcDbEntity
  8
0
100
AcDbLine
 62
7
  6
CONTINUOUS
 10
-0.8660342614
 20
15.90302
 11
-0.8660342614
 21
15.5830191837
  0
LINE
  5
51F
100
AcDbEntity
  8
0
100
AcDbLine
 62
7
  6
CONTINUOUS
 10
-0.3519665063
 20
19.1753453061
 11
-0.3519665063
 21
17.5581910204
  0
LINE
  5
520
100
AcDbEntity
  8
0
100
AcDbLine
 62
7
  6
CONTINUOUS
 10
-0.3518126005
 20
-5.4666667156
 11
-0.3518126005
 21
-6.442
  0
LINE
  5
521
100
AcDbEntity
  8
0
100
AcDbLine
 62
7
  6
CONTINUOUS
 10
-0.0709615702
 20
-6.442
 11
-0.0709615702
 21
-5.5693333578
  0
LINE
  5
522
100
AcDbEntity
  8
0
100
AcDbLine
 62
7
  6
CONTINUOUS
 10
-0.0319669144
 20
17.5581910204
 11
-0.0319669144
 21
19.1753453061
  0
LINE
  5
523
100
AcDbEntity
  8
0
100
AcDbLine
 62
7
  6
CONTINUOUS
 10
-1.2411743277
 20
-5.2613332844
 11
-1.2879828328
 21
-5.518
  0
LINE
  5
524
100
AcDbEntity
  8
RACCORDO
100
AcDbLine
 62
250
  6
CONTINUOUS
 10
-22.0094410227
 20
-18.871469613
 11
-21.9771287653
 21
-18.8391573555
  0
LINE
  5
525
100
AcDbEntity
  8
RACCORDO
100
AcDbLine
 62
250
  6
CONTINUOUS
 10
-21.7094524458
 20
-19.1714581899
 11
-21.6771401883
 21
-19.1391459325
  0
LINE
  5
526
100
AcDbEntity
  8
RACCORDO
100
AcDbLine
 62
250
  6
CONTINUOUS
 10
14.7620285903
 20
17.25
 11
14.6860819939
 21
17.1740534036
  0
LINE
  5
527
100
AcDbEntity
  8
RACCORDO
100
AcDbLine
 62
250
  6
CONTINUOUS
 10
15.0620171672
 20
16.9500114231
 11
14.9860705708
 21
16.8740648267
  0
LINE
  5
528
100
AcDbEntity
  8
RACCORDO
100
AcDbLine
 62
250
  6
CONTINUOUS
 10
-14.4377418094
 20
-13.4043166507
 11
-13.9524733039
 21
-12.9190481452
  0
LINE
  5
529
100
AcDbEntity
  8
RACCORDO
100
AcDbLine
 62
250
  6
CONTINUOUS
 10
-15.3358556331
 20
-14.3764260334
 11
-15.3620362364
 21
-14.4026066368
  0
LINE
  5
52A
100
AcDbEntity
  8
RACCORDO
100
AcDbLine
 62
250
  6
CONTINUOUS
 10
-14.1422994835
 20
-13.6997589766
 11
-13.657030978
 21
-13.2144904711
  0
LINE
  5
52B
100
AcDbEntity
  8
RACCORDO
100
AcDbLine
 62
250
  6
CONTINUOUS
 10
-15.0358670561
 20
-14.6764146104
 11
-15.056857232
 21
-14.6974047863
  0
LINE
  5
52C
100
AcDbEntity
  8
ASSI
100
AcDbLine
 62
7
  6
CONTINUOUS
 10
-17.6880038328
 20
-6.563908
 11
-18.8380293152
 21
-7.1600222867
  0
LINE
  5
52D
100
AcDbEntity
  8
ASSI
100
AcDbLine
 62
7
  6
CONTINUOUS
 10
-18.7706798328
 20
-7.755896
 11
-17.6879968328
 21
-7.194685
  0
LINE
  5
52E
100
AcDbEntity
  8
0
100
AcDbLine
 62
7
  6
CONTINUOUS
 10
-18.9879828328
 20
4.851438
 11
-19.4100248328
 21
5.002923
  0
LINE
  5
52F
100
AcDbEntity
  8
0
100
AcDbLine
 62
7
  6
CONTINUOUS
 10
-19.5836968328
 20
5.063526
 11
-20.2276628328
 21
5.29786
  0
LINE
  5
530
100
AcDbEntity
  8
RACCORDO
100
AcDbLine
 62
250
  6
CONTINUOUS
 10
-22.0094410227
 20
18.871469613
 11
-21.9771287653
 21
18.8391573555
  0
LINE
  5
531
100
AcDbEntity
  8
RACCORDO
100
AcDbLine
 62
250
  6
CONTINUOUS
 10
-21.7094524458
 20
19.1714581899
 11
-21.6771401883
 21
19.1391459325
  0
LINE
  5
532
100
AcDbEntity
  8
RACCORDO
100
AcDbLine
 62
250
  6
CONTINUOUS
 10
14.6860819939
 20
-17.1740534036
 11
14.7620285903
 21
-17.25
  0
LINE
  5
533
100
AcDbEntity
  8
RACCORDO
100
AcDbLine
 62
250
  6
CONTINUOUS
 10
14.9860705708
 20
-16.8740648267
 11
15.0620171672
 21
-16.9500114231
  0
LINE
  5
534
100
AcDbEntity
  8
RACCORDO
100
AcDbLine
 62
250
  6
CONTINUOUS
 10
14.6808915664
 20
-14.6974047863
 11
14.6599013905
 21
-14.6764146104
  0
LINE
  5
535
100
AcDbEntity
  8
RACCORDO
100
AcDbLine
 62
250
  6
CONTINUOUS
 10
13.7663338179
 20
-13.6997589766
 11
13.2810653124
 21
-13.2144904711
  0
LWPOLYLINE
  5
536
100
AcDbEntity
  8
RACCORDO
100
AcDbPolyline
 62
7
  6
CONTINUOUS
 90
7
 70
0
 10
-17.4639294292
 20
20.9759465964
 10
-17.4655831647
 20
20.9780986755
 10
-17.4698352912
 20
20.982251322
 10
-17.4763873686
 20
20.9884045358
 10
-17.4849128163
 20
20.996796379
 10
-17.4951281085
 20
21.0071887896
 10
-17.5198412456
 20
21.0317491119
  0
LINE
  5
537
100
AcDbEntity
  8
0
100
AcDbLine
 62
7
  6
CONTINUOUS
 10
2.0682671672
 20
-12.6159574926
 11
2.0286835319
 21
-12.4946807981
  0
LINE
  5
538
100
AcDbEntity
  8
0
100
AcDbLine
 62
7
  6
CONTINUOUS
 10
-0.3986211056
 20
-5.3126667156
 11
-0.3518126005
 21
-5.4666667156
  0
LINE
  5
539
100
AcDbEntity
  8
DRAFT
100
AcDbLine
 62
7
  6
CONTINUOUS
 10
-5.409187678
 20
19.3064502166
 11
-5.386945824
 21
19.2283912081
  0
LINE
  5
53A
100
AcDbEntity
  8
DRAFT
100
AcDbLine
 62
250
  6
CONTINUOUS
 10
5.0328583127
 20
-19.3052015742
 11
5.0116711399
 21
-19.2268573705
  0
LINE
  5
53B
100
AcDbEntity
  8
0
100
AcDbLine
 62
7
  6
CONTINUOUS
 10
0.6828503495
 20
-13.1819148719
 11
0.7224339849
 21
-13.384042564
  0
LINE
  5
53C
100
AcDbEntity
  8
0
100
AcDbLine
 62
7
  6
CONTINUOUS
 10
2.1078508025
 20
-12.8180851281
 11
2.0682671672
 21
-12.6159574926
  0
LINE
  5
53D
100
AcDbEntity
  8
0
100
AcDbLine
 62
7
  6
CONTINUOUS
 10
0.9203503495
 20
-13.384042564
 11
0.8807671672
 21
-13.1414893448
  0
LINE
  5
53E
100
AcDbEntity
  8
0
100
AcDbLine
 62
7
  6
CONTINUOUS
 10
1.8703508025
 20
-12.6159574926
 11
1.9099335319
 21
-12.8585106552
  0
LINE
  5
53F
100
AcDbEntity
  8
0
100
AcDbLine
 62
7
  6
CONTINUOUS
 10
0.3661839849
 20
-12.2521276355
 11
0.3661839849
 21
-12.05
  0
LINE
  5
540
100
AcDbEntity
  8
0
100
AcDbLine
 62
7
  6
CONTINUOUS
 10
0.4607347182
 20
15.5830191837
 11
0.4607347182
 21
15.90302
  0
LINE
  5
541
100
AcDbEntity
  8
0
100
AcDbLine
 62
7
  6
CONTINUOUS
 10
0.6828503495
 20
-12.8180851281
 11
0.6828503495
 21
-13.1819148719
  0
LINE
  5
542
100
AcDbEntity
  8
0
100
AcDbLine
 62
7
  6
CONTINUOUS
 10
0.8807671672
 20
-13.1414893448
 11
0.8807671672
 21
-12.8585106552
  0
LINE
  5
543
100
AcDbEntity
  8
0
100
AcDbLine
 62
7
  6
CONTINUOUS
 10
0.9120171672
 20
-6.75
 11
0.9120171672
 21
-6.442
  0
LINE
  5
544
100
AcDbEntity
  8
0
100
AcDbLine
 62
7
  6
CONTINUOUS
 10
0.9120171672
 20
-5.1586667156
 11
0.9120171672
 21
-4.7993332844
  0
LINE
  5
545
100
AcDbEntity
  8
RACCORDO
100
AcDbLine
 62
7
  6
CONTINUOUS
 10
1.0620171672
 20
8.45
 11
1.0620171672
 21
9.3
  0
LINE
  5
546
100
AcDbEntity
  8
0
100
AcDbLine
 62
7
  6
CONTINUOUS
 10
1.1070118611
 20
16.406004898
 11
1.1070118611
 21
16.730604898
  0
LINE
  5
547
100
AcDbEntity
  8
0
100
AcDbLine
 62
7
  6
CONTINUOUS
 10
1.1939561672
 20
11.2238489887
 11
1.1939561672
 21
9.3
  0
LINE
  5
548
100
AcDbEntity
  8
0
100
AcDbLine
 62
7
  6
CONTINUOUS
 10
1.2620171672
 20
-4.55
 11
1.2620171672
 21
-7.45
  0
LINE
  5
549
100
AcDbEntity
  8
0
100
AcDbLine
 62
7
  6
CONTINUOUS
 10
1.5620171672
 20
9.668061
 11
1.5620171672
 21
10.7102325267
  0
LINE
  5
54A
100
AcDbEntity
  8
0
100
AcDbLine
 62
7
  6
CONTINUOUS
 10
1.6370171672
 20
-7.825
 11
1.6370171672
 21
-4.175
  0
LINE
  5
54B
100
AcDbEntity
  8
0
100
AcDbLine
 62
7
  6
CONTINUOUS
 10
1.7535804325
 20
17.2335897959
 11
1.7535804325
 21
17.5581910204
  0
LINE
  5
54C
100
AcDbEntity
  8
DRAFT
100
AcDbLine
 62
7
  6
CONTINUOUS
 10
1.8334753571
 20
-20.9
 11
1.8334753571
 21
-22.4214581899
  0
LINE
  5
54D
100
AcDbEntity
  8
DRAFT
100
AcDbLine
 62
7
  6
CONTINUOUS
 10
1.8596559604
 20
-20.9
 11
1.8596559604
 21
-21.0130903017
  0
LINE
  5
54E
100
AcDbEntity
  8
0
100
AcDbLine
 62
7
  6
CONTINUOUS
 10
1.9099335319
 20
-12.8585106552
 11
1.9099335319
 21
-13.1414893448
  0
LINE
  5
54F
100
AcDbEntity
  8
DRAFT
100
AcDbLine
 62
7
  6
CONTINUOUS
 10
1.9120171672
 20
-21.0654515084
 11
1.9120171672
 21
-22.5
  0
LINE
  5
550
100
AcDbEntity
  8
DRAFT
100
AcDbLine
 62
7
  6
CONTINUOUS
 10
1.9910731311
 20
-21.2790559639
 11
1.9910731311
 21
-21.5376874439
  0
LINE
  5
551
100
AcDbEntity
  8
DRAFT
100
AcDbLine
 62
7
  6
CONTINUOUS
 10
2.0120171672
 20
-21.3
 11
2.0120171672
 21
-22.4789297666
  0
LINE
  5
552
100
AcDbEntity
  8
DRAFT
100
AcDbLine
 62
7
  6
CONTINUOUS
 10
2.0905589773
 20
-21.3785418101
 11
2.0905589773
 21
-22.4896541792
  0
LINE
  5
553
100
AcDbEntity
  8
0
100
AcDbLine
 62
7
  6
CONTINUOUS
 10
2.1078508025
 20
-13.1819148719
 11
2.1078508025
 21
-12.8180851281
  0
LINE
  5
554
100
AcDbEntity
  8
0
100
AcDbLine
 62
7
  6
CONTINUOUS
 10
2.5620171672
 20
21.25
 11
2.5620171672
 21
20.75
  0
LINE
  5
555
100
AcDbEntity
  8
DRAFT
100
AcDbLine
 62
7
  6
CONTINUOUS
 10
2.7861520637
 20
-22.5
 11
2.7861520637
 21
-23.25
  0
LINE
  5
556
100
AcDbEntity
  8
RACCORDO
100
AcDbLine
 62
7
  6
CONTINUOUS
 10
2.7964978845
 20
-22.7585974382
 11
2.7964978845
 21
-22.4896541792
  0
LINE
  5
557
100
AcDbEntity
  8
0
100
AcDbLine
 62
7
  6
CONTINUOUS
 10
0.8807671672
 20
-12.8585106552
 11
0.9203503495
 21
-12.6159574926
  0
LINE
  5
558
100
AcDbEntity
  8
0
100
AcDbLine
 62
7
  6
CONTINUOUS
 10
-1.0539403075
 20
-5.4666667156
 11
-1.0071318025
 21
-5.3126667156
  0
LINE
  5
559
100
AcDbEntity
  8
0
100
AcDbLine
 62
7
  6
CONTINUOUS
 10
-2.404649424
 20
-12.2521276355
 11
-2.767162955
 21
-13.0296033264
  0
LINE
  5
55A
100
AcDbEntity
  8
0
100
AcDbLine
 62
7
  6
CONTINUOUS
 10
-1.1007488126
 20
-5.056
 11
-1.2411743277
 21
-5.2613332844
  0
LINE
  5
55B
100
AcDbEntity
  8
0
100
AcDbLine
 62
7
  6
CONTINUOUS
 10
-1.0071318025
 20
-5.3126667156
 11
-0.9135147923
 21
-5.21
  0
LINE
  5
55C
100
AcDbEntity
  8
RACCORDO
100
AcDbLine
 62
250
  6
CONTINUOUS
 10
-15.4379828328
 20
-16.9500114231
 11
-15.3620362364
 21
-16.8740648267
  0
LINE
  5
55D
100
AcDbEntity
  8
RACCORDO
100
AcDbLine
 62
250
  6
CONTINUOUS
 10
-15.1379942559
 20
-17.25
 11
-15.0620476595
 21
-17.1740534036
  0
LINE
  5
55E
100
AcDbEntity
  8
RACCORDO
100
AcDbLine
 62
250
  6
CONTINUOUS
 10
21.3334867802
 20
19.1714581899
 11
21.3011745227
 21
19.1391459325
  0
LINE
  5
55F
100
AcDbEntity
  8
RACCORDO
100
AcDbLine
 62
250
  6
CONTINUOUS
 10
21.6334753571
 20
18.871469613
 11
21.6011630997
 21
18.8391573555
  0
LWPOLYLINE
  5
560
100
AcDbEntity
  8
RACCORDO
100
AcDbPolyline
 62
250
  6
CONTINUOUS
 90
4
 70
0
 10
14.8453766704
 20
-7.7503322554
 10
14.861284675
 20
-7.7611049115
 10
14.8763370638
 20
-7.7727238653
 10
14.8903471807
 20
-7.7849841312
  0
LINE
  5
561
100
AcDbEntity
  8
RACCORDO
100
AcDbLine
 62
7
  6
CONTINUOUS
 10
-17.6895476261
 20
21.2015863897
 11
-17.7455516827
 21
21.2574315927
  0
LINE
  5
562
100
AcDbEntity
  8
RACCORDO
100
AcDbLine
 62
250
  6
CONTINUOUS
 10
14.9860705708
 20
-14.4026066368
 11
14.9598899674
 21
-14.3764260334
  0
LINE
  5
563
100
AcDbEntity
  8
RACCORDO
100
AcDbLine
 62
250
  6
CONTINUOUS
 10
14.0617761438
 20
-13.4043166507
 11
13.5765076383
 21
-12.9190481452
  0
LINE
  5
564
100
AcDbEntity
  8
RACCORDO
100
AcDbLine
 62
250
  6
CONTINUOUS
 10
-15.3620362364
 20
16.8740648267
 11
-15.4379828328
 21
16.9500114231
  0
LINE
  5
565
100
AcDbEntity
  8
RACCORDO
100
AcDbLine
 62
250
  6
CONTINUOUS
 10
-15.0620476595
 20
17.1740534036
 11
-15.1379942559
 21
17.25
  0
LINE
  5
566
100
AcDbEntity
  8
RACCORDO
100
AcDbLine
 62
250
  6
CONTINUOUS
 10
21.3334867802
 20
-19.1714581899
 11
21.3011745227
 21
-19.1391459325
  0
LINE
  5
567
100
AcDbEntity
  8
RACCORDO
100
AcDbLine
 62
250
  6
CONTINUOUS
 10
21.6334753571
 20
-18.871469613
 11
21.6011630997
 21
-18.8391573555
  0
LINE
  5
568
100
AcDbEntity
  8
RACCORDO
100
AcDbLine
 62
7
  6
CONTINUOUS
 10
-17.4639294292
 20
20.9759465964
 11
-17.3879828328
 21
20.9
  0
LINE
  5
569
100
AcDbEntity
  8
RACCORDO
100
AcDbLine
 62
7
  6
CONTINUOUS
 10
-15.2621992867
 20
19.3242164539
 11
-15.1814943065
 21
19.2435114737
  0
LINE
  5
56A
100
AcDbEntity
  8
RACCORDO
100
AcDbLine
 62
7
  6
CONTINUOUS
 10
-17.5647336089
 20
21.0766756342
 11
-17.6895476261
 21
21.2015863897
  0
LINE
  5
56B
100
AcDbEntity
  8
RACCORDO
100
AcDbLine
 62
7
  6
CONTINUOUS
 10
-17.7455516827
 20
21.2574315927
 11
-17.7639180061
 21
21.2759351733
  0
LWPOLYLINE
  5
56C
100
AcDbEntity
  8
RACCORDO
100
AcDbPolyline
 62
7
  6
CONTINUOUS
 90
3
 70
0
 10
-17.5198412456
 20
21.0317491119
 10
-17.5338757244
 20
21.0459170235
 10
-17.5647336089
 20
21.0766756342
  0
LWPOLYLINE
  5
56D
100
AcDbEntity
  8
RACCORDO
100
AcDbPolyline
 62
7
  6
CONTINUOUS
 90
7
 70
0
 10
17.0879637636
 20
-20.9759465964
 10
17.089617499
 20
-20.9780986755
 10
17.0938696256
 20
-20.982251322
 10
17.100421703
 20
-20.9884045358
 10
17.1089471506
 20
-20.996796379
 10
17.1191624429
 20
-21.0071887896
 10
17.14387558
 20
-21.0317491119
  0
LINE
  5
56E
100
AcDbEntity
  8
RACCORDO
100
AcDbLine
 62
7
  6
CONTINUOUS
 10
12.0620171672
 20
-16.0
 11
12.7695973172
 21
-17.2255647702
  0
LWPOLYLINE
  5
56F
100
AcDbEntity
  8
RACCORDO
100
AcDbPolyline
 62
7
  6
CONTINUOUS
 90
25
 70
0
 10
6.3120171672
 20
-24.4859395359
 10
6.3124605701
 20
-24.4900101013
 10
6.3137415514
 20
-24.4940291829
 10
6.3158601111
 20
-24.4979967809
 10
6.3188324482
 20
-24.5019293969
 10
6.3226423636
 20
-24.5058105293
 10
6.3272412607
 20
-24.5095906727
 10
6.3326392461
 20
-24.5132685337
 10
6.3388262131
 20
-24.5168454057
 10
6.3457232447
 20
-24.5202756646
 10
6.3533394369
 20
-24.5235574323
 10
6.3616656937
 20
-24.5266925869
 10
6.370595811
 20
-24.5296411384
 10
6.3801375239
 20
-24.5324006963
 10
6.3902830972
 20
-24.5349736512
 10
6.4009031206
 20
-24.537327184
 10
6.4120036716
 20
-24.539458484
 10
6.4235786727
 20
-24.541370362
 10
6.4354804807
 20
-24.5430384312
 10
6.4477132819
 20
-24.5444595685
 10
6.46027289
 20
-24.5456368971
 10
6.4729991028
 20
-24.5465553998
 10
6.4858385196
 20
-24.5472100708
 10
6.498844541
 20
-24.5476059158
 10
6.5120171672
 20
-24.5477429348
  0
LWPOLYLINE
  5
570
100
AcDbEntity
  8
RACCORDO
100
AcDbPolyline
 62
250
  6
CONTINUOUS
 90
13
 70
0
 10
4.1520357864
 20
22.0106155454
 10
4.1494666093
 20
22.0497700247
 10
4.1418089966
 20
22.0882546249
 10
4.1291939593
 20
22.1254109275
 10
4.1118373234
 20
22.1606032395
 10
4.0900360371
 20
22.1932294689
 10
4.0641630901
 20
22.222731426
 10
4.034661133
 20
22.248604373
 10
4.0020349036
 20
22.2704056593
 10
3.9668425916
 20
22.2877622952
 10
3.929686289
 20
22.3003773325
 10
3.8912016888
 20
22.3080349453
 10
3.8520472095
 20
22.3106041223
  0
LWPOLYLINE
  5
571
100
AcDbEntity
  8
RACCORDO
100
AcDbPolyline
 62
250
  6
CONTINUOUS
 90
13
 70
0
 10
6.8163425234
 20
-21.3544440149
 10
6.8139963208
 20
-21.317019489
 10
6.8069997155
 20
-21.2801798081
 10
6.7954620671
 20
-21.2445005518
 10
6.7795636781
 20
-21.210539152
 10
6.7595529865
 20
-21.1788262097
 10
6.735742693
 20
-21.1498571993
 10
6.7085048504
 20
-21.1240846939
 10
6.6782650453
 20
-21.101911307
 10
6.6454957675
 20
-21.0836834228
 10
6.6107090127
 20
-21.0696857718
 10
6.5744482812
 20
-21.0601369874
 10
6.5372800918
 20
-21.0551861951
  0
LWPOLYLINE
  5
572
100
AcDbEntity
  8
RACCORDO
100
AcDbPolyline
 62
7
  6
CONTINUOUS
 90
13
 70
0
 10
6.8905521234
 20
-21.2852410692
 10
6.8882061896
 20
-21.2478166718
 10
6.8812099433
 20
-21.2109770029
 10
6.8696726985
 20
-21.1752976335
 10
6.8537747173
 20
-21.1413360067
 10
6.8337643928
 20
-21.1096227277
 10
6.809954369
 20
-21.0806532737
 10
6.7827166557
 20
-21.0548802532
 10
6.7524768162
 20
-21.0327063339
 10
6.7197073187
 20
-21.0144779518
 10
6.6849201541
 20
-21.0004798986
 10
6.6486588373
 20
-20.990930872
 10
6.6114899149
 20
-20.9859800588
  0
LINE
  5
573
100
AcDbEntity
  8
ASSI
100
AcDbLine
 62
7
  6
CONTINUOUS
 10
5.4613405976
 20
-10.493348159
 11
5.4936904888
 21
-11.9714090571
  0
LINE
  5
574
100
AcDbEntity
  8
DRAFT
100
AcDbLine
 62
7
  6
CONTINUOUS
 10
4.6120171672
 20
-23.25
 11
4.6016713464
 21
-22.1712478072
  0
LINE
  5
575
100
AcDbEntity
  8
DRAFT
100
AcDbLine
 62
7
  6
CONTINUOUS
 10
3.2120171672
 20
-19.1714581899
 11
3.2120171672
 21
-20.9
  0
LINE
  5
576
100
AcDbEntity
  8
DRAFT
100
AcDbLine
 62
7
  6
CONTINUOUS
 10
3.5771104404
 20
-19.8460089853
 11
3.5771104404
 21
-20.9
  0
LINE
  5
577
100
AcDbEntity
  8
DRAFT
100
AcDbLine
 62
7
  6
CONTINUOUS
 10
3.5910731311
 20
-20.9
 11
3.5910731311
 21
-21.2790559639
  0
LINE
  5
578
100
AcDbEntity
  8
DRAFT
100
AcDbLine
 62
7
  6
CONTINUOUS
 10
3.6120171672
 20
-19.7860401097
 11
3.6120171672
 21
-21.3
  0
LINE
  5
579
100
AcDbEntity
  8
DRAFT
100
AcDbLine
 62
7
  6
CONTINUOUS
 10
3.66001494
 20
-19.7474224737
 11
3.66001494
 21
-19.6479977728
  0
LINE
  5
57A
100
AcDbEntity
  8
DRAFT
100
AcDbLine
 62
7
  6
CONTINUOUS
 10
3.6905589773
 20
-19.6785418101
 11
3.6905589773
 21
-21.3785418101
  0
LINE
  5
57B
100
AcDbEntity
  8
RACCORDO
100
AcDbLine
 62
250
  6
CONTINUOUS
 10
3.8520472095
 20
16.8740648267
 11
3.8520472095
 21
22.3106041223
  0
LINE
  5
57C
100
AcDbEntity
  8
RACCORDO
100
AcDbLine
 62
7
  6
CONTINUOUS
 10
4.1520357864
 20
22.0106155454
 11
4.1520357864
 21
17.1740534036
  0
LINE
  5
57D
100
AcDbEntity
  8
RACCORDO
100
AcDbLine
 62
7
  6
CONTINUOUS
 10
4.2279823828
 20
18.8391573555
 11
4.2279823828
 21
17.25
  0
LINE
  5
57E
100
AcDbEntity
  8
RACCORDO
100
AcDbLine
 62
250
  6
CONTINUOUS
 10
4.2360819939
 20
-21.2759351733
 11
4.2360819939
 21
-19.8650076281
  0
LINE
  5
57F
100
AcDbEntity
  8
RACCORDO
100
AcDbLine
 62
7
  6
CONTINUOUS
 10
4.262889854
 20
22.121469613
 11
4.262889854
 21
19.1714581899
  0
LINE
  5
580
100
AcDbEntity
  8
RACCORDO
100
AcDbLine
 62
7
  6
CONTINUOUS
 10
4.5360705708
 20
-20.9759465964
 11
4.5360705708
 21
-20.164996205
  0
LINE
  5
581
100
AcDbEntity
  8
RACCORDO
100
AcDbLine
 62
7
  6
CONTINUOUS
 10
4.6016713464
 20
-22.7585974382
 11
4.6016713464
 21
-22.1712478072
  0
LINE
  5
582
100
AcDbEntity
  8
DRAFT
100
AcDbLine
 62
7
  6
CONTINUOUS
 10
4.6120171672
 20
-20.9
 11
4.6120171672
 21
-20.2409428014
  0
LINE
  5
583
100
AcDbEntity
  8
DRAFT
100
AcDbLine
 62
7
  6
CONTINUOUS
 10
4.646923894
 20
-20.8476387933
 11
4.646923894
 21
-20.2758495282
  0
LINE
  5
584
100
AcDbEntity
  8
0
100
AcDbLine
 62
7
  6
CONTINUOUS
 10
4.8120171672
 20
-25.05
 11
4.8120171672
 21
-23.25
  0
LINE
  5
585
100
AcDbEntity
  8
0
100
AcDbLine
 62
7
  6
CONTINUOUS
 10
4.8120171672
 20
-20.45
 11
4.8120171672
 21
-20.85
  0
LINE
  5
586
100
AcDbEntity
  8
RACCORDO
100
AcDbLine
 62
250
  6
CONTINUOUS
 10
5.0378197518
 20
-20.164996205
 11
5.0378197518
 21
-19.6785418101
  0
LINE
  5
587
100
AcDbEntity
  8
RACCORDO
100
AcDbLine
 62
7
  6
CONTINUOUS
 10
5.5378007133
 20
-19.8667377706
 11
5.5378007133
 21
-19.6742164539
  0
LINE
  5
588
100
AcDbEntity
  8
RACCORDO
100
AcDbLine
 62
7
  6
CONTINUOUS
 10
5.6120171672
 20
-19.9409496551
 11
5.6120171672
 21
-19.6
  0
LINE
  5
589
100
AcDbEntity
  8
RACCORDO
100
AcDbLine
 62
7
  6
CONTINUOUS
 10
5.646923894
 20
-19.9758513559
 11
5.646923894
 21
-19.5650932732
  0
LINE
  5
58A
100
AcDbEntity
  8
0
100
AcDbLine
 62
7
  6
CONTINUOUS
 10
1.9099335319
 20
-13.1414893448
 11
1.8703508025
 21
-13.384042564
  0
LINE
  5
58B
100
AcDbEntity
  8
0
100
AcDbLine
 62
7
  6
CONTINUOUS
 10
0.7224339849
 20
-12.6159574926
 11
0.6828503495
 21
-12.8180851281
  0
LINE
  5
58C
100
AcDbEntity
  8
0
100
AcDbLine
 62
7
  6
CONTINUOUS
 10
2.0682671672
 20
-13.384042564
 11
2.1078508025
 21
-13.1819148719
  0
LINE
  5
58D
100
AcDbEntity
  8
0
100
AcDbLine
 62
7
  6
CONTINUOUS
 10
0.7620171672
 20
-12.4946807981
 11
0.7224339849
 21
-12.6159574926
  0
LINE
  5
58E
100
AcDbEntity
  8
0
100
AcDbLine
 62
7
  6
CONTINUOUS
 10
-2.6287186843
 20
-13.2420460123
 11
-2.1671496505
 21
-12.2521276355
  0
LINE
  5
58F
100
AcDbEntity
  8
0
100
AcDbLine
 62
7
  6
CONTINUOUS
 10
0.1286839849
 20
-12.2521276355
 11
-0.6629828328
 21
-13.95
  0
LINE
  5
590
100
AcDbEntity
  8
0
100
AcDbLine
 62
7
  6
CONTINUOUS
 10
-0.4254828328
 20
-13.95
 11
0.3661839849
 21
-12.2521276355
  0
LWPOLYLINE
  5
591
100
AcDbEntity
  8
0
100
AcDbPolyline
 62
7
  6
CONTINUOUS
 90
55
 70
0
 10
-11.7223019112
 20
-17.2314713874
 10
-11.6661824584
 20
-17.1747291993
 10
-11.6093375255
 20
-17.1184911538
 10
-11.5517671125
 20
-17.0627572508
 10
-11.4934600181
 20
-17.0074332471
 10
-11.4344274436
 20
-16.952613386
 10
-11.3747029929
 20
-16.8985803973
 10
-11.3142792858
 20
-16.8453207371
 10
-11.2531637026
 20
-16.7928479494
 10
-11.1914119879
 20
-16.7414853956
 10
-11.1291703076
 20
-16.6913224482
 10
-11.066292496
 20
-16.6422697348
 10
-11.0023958
 20
-16.5943824998
 10
-10.9377887668
 20
-16.5477609168
 10
-10.8721628492
 20
-16.5023048122
 10
-10.8042096527
 20
-16.4577689108
 10
-10.7340573796
 20
-16.4139611614
 10
-10.6615778276
 20
-16.3710736151
 10
-10.585077995
 20
-16.3294371505
 10
-10.5044028824
 20
-16.2885874965
 10
-10.4197074892
 20
-16.2489889241
 10
-10.3297638111
 20
-16.2123651251
 10
-10.2334795234
 20
-16.1782505953
 10
-10.131946951
 20
-16.1471108387
 10
-10.0272150635
 20
-16.1220660598
 10
-9.9189965914
 20
-16.1036622469
 10
-9.8075788044
 20
-16.0913534116
 10
-9.6958724811
 20
-16.0866217929
 10
-9.5837923875
 20
-16.0903656575
 10
-9.4714237577
 20
-16.1016867386
 10
-9.361933073
 20
-16.1193724745
 10
-9.2555445531
 20
-16.1440939217
 10
-9.1520339783
 20
-16.1751800236
 10
-9.0538951709
 20
-16.2094050491
 10
-8.9623334821
 20
-16.2463268658
 10
-8.8761435608
 20
-16.2863876061
 10
-8.7942031753
 20
-16.3276879357
 10
-8.7167293657
 20
-16.3697191772
 10
-8.643505092
 20
-16.4129900081
 10
-8.5727570023
 20
-16.4571271267
 10
-8.5043512353
 20
-16.5019232864
 10
-8.4384216523
 20
-16.547585734
 10
-8.3735964847
 20
-16.5943629078
 10
-8.3095616939
 20
-16.6423494917
 10
-8.2466313184
 20
-16.6914508018
 10
-8.1843757064
 20
-16.7416312255
 10
-8.122645452
 20
-16.792977525
 10
-8.061589961
 20
-16.8454029381
 10
-8.0012277984
 20
-16.8986115664
 10
-7.9415647117
 20
-16.9525880239
 10
-7.8825949534
 20
-17.0073476966
 10
-7.8243198462
 20
-17.0626408434
 10
-7.7667398311
 20
-17.1183842173
 10
-7.7098544672
 20
-17.1746610653
 10
-7.6536637544
 20
-17.2314713874
  0
LINE
  5
592
100
AcDbEntity
  8
0
100
AcDbLine
 62
7
  6
CONTINUOUS
 10
-0.9135147923
 20
-4.902
 11
-1.1007488126
 21
-5.056
  0
LINE
  5
593
100
AcDbEntity
  8
0
100
AcDbLine
 62
7
  6
CONTINUOUS
 10
0.9120171672
 20
-4.7993332844
 11
-0.1645785803
 21
-5.2613332844
  0
LINE
  5
594
100
AcDbEntity
  8
0
100
AcDbLine
 62
7
  6
CONTINUOUS
 10
-0.0709615702
 20
-5.5693333578
 11
0.9120171672
 21
-5.1586667156
  0
LWPOLYLINE
  5
595
100
AcDbEntity
  8
0
100
AcDbPolyline
 62
7
  6
CONTINUOUS
 90
31
 70
0
 10
-11.9440758325
 20
-11.0420443262
 10
-11.9251944329
 20
-11.0341665594
 10
-11.9073245909
 20
-11.0245074808
 10
-11.8906703011
 20
-11.0132890573
 10
-11.8755261854
 20
-11.0008588407
 10
-11.8618584602
 20
-10.9873454945
 10
-11.8497871345
 20
-10.9730124322
 10
-11.8396318397
 20
-10.9585238049
 10
-11.8312803226
 20
-10.9441686607
 10
-11.8244812656
 20
-10.9300519561
 10
-11.8191244904
 20
-10.9166199181
 10
-11.8150021902
 20
-10.9041541682
 10
-11.8118183874
 20
-10.8925546793
 10
-11.8093411402
 20
-10.881668965
 10
-11.8074433373
 20
-10.8716046754
 10
-11.805980776
 20
-10.8622585578
 10
-11.8048014322
 20
-10.853158841
 10
-11.8038504422
 20
-10.844239503
 10
-11.8030916453
 20
-10.835527029
 10
-11.8024709405
 20
-10.8266997314
 10
-11.8019693048
 20
-10.8176849088
 10
-11.8015762795
 20
-10.8085086292
 10
-11.8012762803
 20
-10.7990079342
 10
-11.8010630592
 20
-10.7891355889
 10
-11.8009326113
 20
-10.7788977128
 10
-11.8008807393
 20
-10.7682239221
 10
-11.800905057
 20
-10.7570954185
 10
-11.8010034918
 20
-10.7455029158
 10
-11.8011747516
 20
-10.7334011865
 10
-11.8014176965
 20
-10.7207782021
 10
-11.8021149823
 20
-10.6939082411
  0
LINE
  5
596
100
AcDbEntity
  8
0
100
AcDbLine
 62
7
  6
CONTINUOUS
 10
-0.7730892772
 20
-4.8506667156
 11
-0.9135147923
 21
-4.902
  0
LINE
  5
597
100
AcDbEntity
  8
0
100
AcDbLine
 62
7
  6
CONTINUOUS
 10
-0.9135147923
 20
-5.21
 11
-0.7730892772
 21
-5.1586667156
  0
LINE
  5
598
100
AcDbEntity
  8
ASSI
100
AcDbLine
 62
7
  6
CONTINUOUS
 10
-17.6879898328
 20
-9.178107
 11
-20.4881228328
 21
-10.077138
  0
LINE
  5
599
100
AcDbEntity
  8
ASSI
100
AcDbLine
 62
7
  6
CONTINUOUS
 10
-19.6160278328
 20
-10.357166
 11
-18.7706798328
 21
-10.085755
  0
LINE
  5
59A
100
AcDbEntity
  8
ASSI
100
AcDbLine
 62
7
  6
CONTINUOUS
 10
-18.2386588328
 20
-9.914927
 11
-17.6879968328
 21
-9.738135
  0
LINE
  5
59B
100
AcDbEntity
  8
RACCORDO
100
AcDbLine
 62
250
  6
CONTINUOUS
 10
-15.0753045145
 20
3.4738080217
 11
-15.0358670561
 21
3.4764146104
  0
LINE
  5
59C
100
AcDbEntity
  8
0
100
AcDbLine
 62
7
  6
CONTINUOUS
 10
-20.4379828328
 20
3.086347
 11
-18.9879828328
 21
3.086347
  0
LINE
  5
59D
100
AcDbEntity
  8
RACCORDO
100
AcDbLine
 62
250
  6
CONTINUOUS
 10
14.9598899674
 20
3.1764260334
 11
-15.3358556331
 21
3.1764260334
  0
LINE
  5
59E
100
AcDbEntity
  8
0
100
AcDbLine
 62
7
  6
CONTINUOUS
 10
-18.9879828328
 20
3.276172
 11
-20.2038018328
 21
3.276172
  0
LINE
  5
59F
100
AcDbEntity
  8
RACCORDO
100
AcDbLine
 62
7
  6
CONTINUOUS
 10
14.6599013905
 20
3.4764146104
 11
-15.0358670561
 21
3.4764146104
  0
LINE
  5
5A0
100
AcDbEntity
  8
RACCORDO
100
AcDbLine
 62
7
  6
CONTINUOUS
 10
14.6808915664
 20
3.4974047863
 11
-15.056857232
 21
3.4974047863
  0
LINE
  5
5A1
100
AcDbEntity
  8
RACCORDO
100
AcDbLine
 62
250
  6
CONTINUOUS
 10
14.9860705708
 20
3.7973933646
 11
-15.3620362364
 21
3.7973933646
  0
LINE
  5
5A2
100
AcDbEntity
  8
0
100
AcDbLine
 62
7
  6
CONTINUOUS
 10
-20.2057948328
 20
4.285921
 11
-18.9879828328
 21
4.285921
  0
LINE
  5
5A3
100
AcDbEntity
  8
0
100
AcDbLine
 62
7
  6
CONTINUOUS
 10
-18.9879828328
 20
4.475822
 11
-20.4379828328
 21
4.475822
  0
LWPOLYLINE
  5
5A4
100
AcDbEntity
  8
RACCORDO
100
AcDbPolyline
 62
250
  6
CONTINUOUS
 90
13
 70
0
 10
14.6599013905
 20
3.4764146104
 10
14.6990558698
 20
3.4738454333
 10
14.73754047
 20
3.4661878205
 10
14.7746967726
 20
3.4535727832
 10
14.8098890846
 20
3.4362161474
 10
14.842515314
 20
3.414414861
 10
14.8720172711
 20
3.3885419141
 10
14.8978902181
 20
3.359039957
 10
14.9196915044
 20
3.3264137276
 10
14.9370481403
 20
3.2912214156
 10
14.9496631776
 20
3.2540651129
 10
14.9573207904
 20
3.2155805128
 10
14.9598899674
 20
3.1764260334
  0
LWPOLYLINE
  5
5A5
100
AcDbEntity
  8
RACCORDO
100
AcDbPolyline
 62
250
  6
CONTINUOUS
 90
3
 70
0
 10
14.6808915664
 20
3.4974047863
 10
14.7200451328
 20
3.4948357294
 10
14.7585290502
 20
3.4871784241
  0
LINE
  5
5A6
100
AcDbEntity
  8
0
100
AcDbLine
 62
7
  6
CONTINUOUS
 10
-20.4379828328
 20
17.269689
 11
-19.7411858328
 21
16.853744
  0
LINE
  5
5A7
100
AcDbEntity
  8
0
100
AcDbLine
 62
7
  6
CONTINUOUS
 10
-19.5716178328
 20
16.9526
 11
-20.4379828328
 21
17.5
  0
LINE
  5
5A8
100
AcDbEntity
  8
RACCORDO
100
AcDbLine
 62
250
  6
CONTINUOUS
 10
-15.4627199082
 20
21.0551861951
 11
-15.3885078009
 21
20.9859779283
  0
LINE
  5
5A9
100
AcDbEntity
  8
RACCORDO
100
AcDbLine
 62
250
  6
CONTINUOUS
 10
-15.1836574766
 20
21.3544440149
 11
-15.1094478766
 21
21.2852410692
  0
LWPOLYLINE
  5
5AA
100
AcDbEntity
  8
RACCORDO
100
AcDbPolyline
 62
250
  6
CONTINUOUS
 90
19
 70
0
 10
14.8903471807
 20
-7.7849841312
 10
14.9032997167
 20
-7.7977743186
 10
14.9152082541
 20
-7.8110076756
 10
14.9259855535
 20
-7.8244747836
 10
14.9356420145
 20
-7.8380328285
 10
14.9442543722
 20
-7.8516263005
 10
14.9518655911
 20
-7.8651705671
 10
14.9585332571
 20
-7.8785968762
 10
14.964310478
 20
-7.8918278471
 10
14.969243068
 20
-7.9047756184
 10
14.9734025572
 20
-7.9174077971
 10
14.9768456362
 20
-7.9296535665
 10
14.9796137422
 20
-7.9413733721
 10
14.9817860432
 20
-7.9525491693
 10
14.9834318343
 20
-7.9631319669
 10
14.9846043651
 20
-7.9729404522
 10
14.9853818029
 20
-7.9819024611
 10
14.9858474829
 20
-7.9900564796
 10
14.9860705708
 20
-7.9973933632
  0
LINE
  5
5AB
100
AcDbEntity
  8
0
100
AcDbLine
 62
7
  6
CONTINUOUS
 10
-14.9314943065
 20
19.2435114737
 11
-14.8594410227
 21
19.1714581899
  0
LINE
  5
5AC
100
AcDbEntity
  8
0
100
AcDbLine
 62
7
  6
CONTINUOUS
 10
-14.9215452328
 20
20.3835624
 11
-14.8594410227
 21
20.3214581899
  0
LINE
  5
5AD
100
AcDbEntity
  8
RACCORDO
100
AcDbLine
 62
7
  6
CONTINUOUS
 10
-17.3965772249
 20
23.2585943921
 11
-17.3879828328
 21
23.25
  0
LINE
  5
5AE
100
AcDbEntity
  8
0
100
AcDbLine
 62
7
  6
CONTINUOUS
 10
-1.9379828328
 20
9.668061
 11
-1.5699218328
 21
9.3
  0
LINE
  5
5AF
100
AcDbEntity
  8
0
100
AcDbLine
 62
7
  6
CONTINUOUS
 10
11.3463362456
 20
-17.2314713874
 11
11.352624078
 21
-17.25
  0
LINE
  5
5B0
100
AcDbEntity
  8
RACCORDO
100
AcDbLine
 62
7
  6
CONTINUOUS
 10
6.8378822707
 20
-23.25
 11
6.8163425234
 21
-22.3516448247
  0
LINE
  5
5B1
100
AcDbEntity
  8
0
100
AcDbLine
 62
7
  6
CONTINUOUS
 10
7.0784547672
 20
-20.3835624
 11
7.0681088925
 21
-19.1980425809
  0
LINE
  5
5B2
100
AcDbEntity
  8
0
100
AcDbLine
 62
250
  6
CONTINUOUS
 10
5.7682917739
 20
-20.45
 11
5.7682917739
 21
-20.85
  0
LINE
  5
5B3
100
AcDbEntity
  8
RACCORDO
100
AcDbLine
 62
7
  6
CONTINUOUS
 10
6.0620171672
 20
-12.6343685075
 11
6.0620171672
 21
-9.7656314925
  0
LINE
  5
5B4
100
AcDbEntity
  8
0
100
AcDbLine
 62
7
  6
CONTINUOUS
 10
6.0682917739
 20
-20.85
 11
6.0682917739
 21
-20.45
  0
LINE
  5
5B5
100
AcDbEntity
  8
RACCORDO
100
AcDbLine
 62
7
  6
CONTINUOUS
 10
6.1187418078
 20
-9.7287940802
 11
6.1187418078
 21
-12.6712059198
  0
LINE
  5
5B6
100
AcDbEntity
  8
RACCORDO
100
AcDbLine
 62
7
  6
CONTINUOUS
 10
6.3120171672
 20
-24.8663621424
 11
6.3120171672
 21
-23.9702128587
  0
LINE
  5
5B7
100
AcDbEntity
  8
RACCORDO
100
AcDbLine
 62
250
  6
CONTINUOUS
 10
6.3163615619
 20
-21.3421935524
 11
6.3163615619
 21
-22.1712478072
  0
LINE
  5
5B8
100
AcDbEntity
  8
RACCORDO
100
AcDbLine
 62
250
  6
CONTINUOUS
 10
6.5120171672
 20
-24.9281655413
 11
6.5120171672
 21
-24.5477429348
  0
LINE
  5
5B9
100
AcDbEntity
  8
0
100
AcDbLine
 62
7
  6
CONTINUOUS
 10
6.5620171672
 20
-16.0
 11
6.5620171672
 21
-15.5
  0
LINE
  5
5BA
100
AcDbEntity
  8
RACCORDO
100
AcDbLine
 62
7
  6
CONTINUOUS
 10
6.8163425234
 20
-21.3544440149
 11
6.8163425234
 21
-22.3516448247
  0
LINE
  5
5BB
100
AcDbEntity
  8
RACCORDO
100
AcDbLine
 62
7
  6
CONTINUOUS
 10
6.8378822707
 20
-23.25
 11
6.8378822707
 21
-22.6993030839
  0
LINE
  5
5BC
100
AcDbEntity
  8
RACCORDO
100
AcDbLine
 62
250
  6
CONTINUOUS
 10
6.8620171672
 20
-22.881171455
 11
6.8620171672
 21
-22.5007488485
  0
LINE
  5
5BD
100
AcDbEntity
  8
ASSI
100
AcDbLine
 62
7
  6
CONTINUOUS
 10
6.8620171672
 20
-20.45
 11
6.8620171672
 21
-20.85
  0
LINE
  5
5BE
100
AcDbEntity
  8
RACCORDO
100
AcDbLine
 62
7
  6
CONTINUOUS
 10
6.9097580864
 20
-21.2788844745
 11
6.9097580864
 21
-22.4712502867
  0
LINE
  5
5BF
100
AcDbEntity
  8
ASSI
100
AcDbLine
 62
7
  6
CONTINUOUS
 10
7.0620171672
 20
-20.5437742252
 11
7.0620171672
 21
-21.3499999965
  0
LINE
  5
5C0
100
AcDbEntity
  8
RACCORDO
100
AcDbLine
 62
7
  6
CONTINUOUS
 10
7.0620171672
 20
-22.2059508647
 11
7.0620171672
 21
-22.8193680562
  0
LINE
  5
5C1
100
AcDbEntity
  8
0
100
AcDbLine
 62
7
  6
CONTINUOUS
 10
7.0620171672
 20
-21.3499999968
 11
7.0620171672
 21
-22.2059508647
  0
LINE
  5
5C2
100
AcDbEntity
  8
RACCORDO
100
AcDbLine
 62
250
  6
CONTINUOUS
 10
7.0620171672
 20
-14.9973933632
 11
7.0620171672
 21
-14.3764260334
  0
LINE
  5
5C3
100
AcDbEntity
  8
RACCORDO
100
AcDbLine
 62
250
  6
CONTINUOUS
 10
7.0620171672
 20
-13.9952013025
 11
7.0620171672
 21
-13.2144904711
  0
LINE
  5
5C4
100
AcDbEntity
  8
RACCORDO
100
AcDbLine
 62
250
  6
CONTINUOUS
 10
7.0620171672
 20
-9.1855095289
 11
7.0620171672
 21
-8.4047986975
  0
LINE
  5
5C5
100
AcDbEntity
  8
RACCORDO
100
AcDbLine
 62
250
  6
CONTINUOUS
 10
7.0620171672
 20
-8.0235739666
 11
7.0620171672
 21
-7.4026066368
  0
LINE
  5
5C6
100
AcDbEntity
  8
DRAFT
100
AcDbLine
 62
7
  6
CONTINUOUS
 10
7.1405589773
 20
-20.3214581899
 11
7.1405589773
 21
-19.1714581899
  0
LINE
  5
5C7
100
AcDbEntity
  8
DRAFT
100
AcDbLine
 62
7
  6
CONTINUOUS
 10
7.2096559604
 20
-12.9
 11
7.2096559604
 21
-9.4577374213
  0
LINE
  5
5C8
100
AcDbEntity
  8
DRAFT
100
AcDbLine
 62
7
  6
CONTINUOUS
 10
7.2620171672
 20
-12.9
 11
7.2620171672
 21
-9.4622911274
  0
LINE
  5
5C9
100
AcDbEntity
  8
0
100
AcDbLine
 62
7
  6
CONTINUOUS
 10
7.2904052355
 20
-17.25
 11
7.2904052355
 21
-17.2185610747
  0
LINE
  5
5CA
100
AcDbEntity
  8
0
100
AcDbLine
 62
7
  6
CONTINUOUS
 10
7.3944740886
 20
-20.45
 11
7.3944740886
 21
-20.3835624
  0
LINE
  5
5CB
100
AcDbEntity
  8
0
100
AcDbLine
 62
7
  6
CONTINUOUS
 10
7.4732138858
 20
-20.3835624
 11
7.4732138858
 21
-20.45
  0
LINE
  5
5CC
100
AcDbEntity
  8
0
100
AcDbLine
 62
7
  6
CONTINUOUS
 10
7.5620171672
 20
-9.524724198
 11
7.5620171672
 21
-12.875275802
  0
LINE
  5
5CD
100
AcDbEntity
  8
0
100
AcDbLine
 62
7
  6
CONTINUOUS
 10
7.9300781672
 20
-12.7190800537
 11
7.9300781672
 21
-9.6809199463
  0
LINE
  5
5CE
100
AcDbEntity
  8
RACCORDO
100
AcDbLine
 62
7
  6
CONTINUOUS
 10
8.3120171672
 20
-20.3607290949
 11
8.3120171672
 21
-20.45
  0
LINE
  5
5CF
100
AcDbEntity
  8
0
100
AcDbLine
 62
7
  6
CONTINUOUS
 10
7.3769763559
 20
-20.45
 11
7.3788355173
 21
-20.3835624
  0
LINE
  5
5D0
100
AcDbEntity
  8
RACCORDO
100
AcDbLine
 62
7
  6
CONTINUOUS
 10
5.3819505415
 20
-20.9
 11
5.368822596
 21
-21.2759351733
  0
LWPOLYLINE
  5
5D1
100
AcDbEntity
  8
RACCORDO
100
AcDbPolyline
 62
7
  6
CONTINUOUS
 90
16
 70
0
 10
5.612018081
 20
-19.9409473707
 10
5.6103741374
 20
-19.9723052238
 10
5.6054614638
 20
-20.0033195044
 10
5.5973338828
 20
-20.033650424
 10
5.5860804391
 20
-20.062965681
 10
5.5718244239
 20
-20.0909441013
 10
5.5547220243
 20
-20.117279157
 10
5.534960612
 20
-20.1416823246
 10
5.5127566904
 20
-20.1638862462
 10
5.4883535228
 20
-20.1836476585
 10
5.4620184671
 20
-20.2007500581
 10
5.4340400468
 20
-20.2150060733
 10
5.4047247897
 20
-20.226259517
 10
5.3743938701
 20
-20.2343870981
 10
5.3433795896
 20
-20.2392997717
 10
5.3120217364
 20
-20.2409437153
  0
LWPOLYLINE
  5
5D2
100
AcDbEntity
  8
RACCORDO
100
AcDbPolyline
 62
250
  6
CONTINUOUS
 90
16
 70
0
 10
5.5378007133
 20
-19.8667377706
 10
5.5361551159
 20
-19.898093601
 10
5.5312411269
 20
-19.9291059236
 10
5.52311258
 20
-19.9594349939
 10
5.5118585245
 20
-19.9887485524
 10
5.4976022503
 20
-20.0167254647
 10
5.480499937
 20
-20.0430592397
 10
5.4607389429
 20
-20.0674613868
 10
5.4385357526
 20
-20.0896645771
 10
5.4141336054
 20
-20.1094255712
 10
5.3877998305
 20
-20.1265278845
 10
5.3598229182
 20
-20.1407841588
 10
5.3305093597
 20
-20.1520382143
 10
5.3001802894
 20
-20.1601667612
 10
5.2691679668
 20
-20.1650807501
 10
5.2378121364
 20
-20.1667263475
  0
LINE
  5
5D3
100
AcDbEntity
  8
RACCORDO
100
AcDbLine
 62
250
  6
CONTINUOUS
 10
6.3163615619
 20
-21.3421935524
 11
6.3372877072
 21
-21.0429357326
  0
LINE
  5
5D4
100
AcDbEntity
  8
0
100
AcDbLine
 62
7
  6
CONTINUOUS
 10
2.0286835319
 20
-13.5053191453
 11
2.0682671672
 21
-13.384042564
  0
LINE
  5
5D5
100
AcDbEntity
  8
0
100
AcDbLine
 62
7
  6
CONTINUOUS
 10
0.8411839849
 20
-12.3329786897
 11
0.7620171672
 21
-12.4946807981
  0
LINE
  5
5D6
100
AcDbEntity
  8
0
100
AcDbLine
 62
7
  6
CONTINUOUS
 10
0.9203503495
 20
-12.6159574926
 11
1.0786839849
 21
-12.3734042168
  0
LINE
  5
5D7
100
AcDbEntity
  8
0
100
AcDbLine
 62
7
  6
CONTINUOUS
 10
-1.6129828328
 20
-12.05
 11
-1.8504828328
 21
-12.3329786897
  0
LINE
  5
5D8
100
AcDbEntity
  8
0
100
AcDbLine
 62
7
  6
CONTINUOUS
 10
-1.8504828328
 20
-12.6563830197
 11
-1.6129828328
 21
-12.3734042168
  0
LINE
  5
5D9
100
AcDbEntity
  8
RACCORDO
100
AcDbLine
 62
250
  6
CONTINUOUS
 10
14.6599013905
 20
3.4764146104
 11
14.6808915664
 21
3.4974047863
  0
LINE
  5
5DA
100
AcDbEntity
  8
RACCORDO
100
AcDbLine
 62
250
  6
CONTINUOUS
 10
14.9598899674
 20
3.1764260334
 11
14.9808801433
 21
3.1974162093
  0
LWPOLYLINE
  5
5DB
100
AcDbEntity
  8
0
100
AcDbPolyline
 62
7
  6
CONTINUOUS
 90
13
 70
0
 10
-12.7313666351
 20
-11.2536804613
 10
-12.7096277236
 20
-11.2461943037
 10
-12.688683072
 20
-11.236353645
 10
-12.6692521759
 20
-11.2243527925
 10
-12.6510981671
 20
-11.2099909768
 10
-12.6344579138
 20
-11.1934689674
 10
-12.62004202
 20
-11.1753890723
 10
-12.6079746389
 20
-11.1556606153
 10
-12.5981316173
 20
-11.1343742726
 10
-12.5908510995
 20
-11.1124043809
 10
-12.5862075441
 20
-11.0897374016
 10
-12.5841264926
 20
-11.0663868733
 10
-12.5847183288
 20
-11.0434377667
  0
LWPOLYLINE
  5
5DC
100
AcDbEntity
  8
0
100
AcDbPolyline
 62
7
  6
CONTINUOUS
 90
10
 70
0
 10
-12.8359260635
 20
-10.8675884087
 10
-12.8580721102
 20
-10.8751848719
 10
-12.8790167338
 20
-10.8850255111
 10
-12.8984476196
 20
-10.8970263555
 10
-12.9166016443
 20
-10.911388182
 10
-12.9332419312
 20
-10.9279102138
 10
-12.9476578495
 20
-10.9459901207
 10
-12.9597252333
 20
-10.9657185639
 10
-12.9695682485
 20
-10.9870048823
 10
-12.9768487627
 20
-11.0089747617
  0
LWPOLYLINE
  5
5DD
100
AcDbEntity
  8
0
100
AcDbPolyline
 62
250
  6
CONTINUOUS
 90
19
 70
0
 10
-11.958672144
 20
-11.0466377852
 10
-11.9373451392
 20
-11.0394728863
 10
-11.9163339516
 20
-11.029572223
 10
-11.8965683362
 20
-11.0173127816
 10
-11.8783068719
 20
-11.0028916774
 10
-11.861804131
 20
-10.9865032253
 10
-11.8473127541
 20
-10.9683368895
 10
-11.8350854459
 20
-10.9485755017
 10
-11.8253238649
 20
-10.9274639191
 10
-11.8180976558
 20
-10.9053457198
 10
-11.8134456868
 20
-10.8825701247
 10
-11.8113933076
 20
-10.8594338667
 10
-11.81197873
 20
-10.8362116227
 10
-11.8152577344
 20
-10.8131936722
 10
-11.821276518
 20
-10.7907312658
 10
-11.8299457948
 20
-10.7691576275
 10
-11.8410499372
 20
-10.7487538465
 10
-11.8543954976
 20
-10.7297434296
 10
-11.8629892346
 20
-10.7200450041
  0
LINE
  5
5DE
100
AcDbEntity
  8
0
100
AcDbLine
 62
7
  6
CONTINUOUS
 10
-11.958672144
 20
-11.0466377852
 11
-11.9440758325
 21
-11.0420443262
  0
LWPOLYLINE
  5
5DF
100
AcDbEntity
  8
0
100
AcDbPolyline
 62
7
  6
CONTINUOUS
 90
16
 70
0
 10
-12.3457252838
 20
-11.1503496737
 10
-12.3304847185
 20
-11.1455856618
 10
-12.3113847505
 20
-11.137606876
 10
-12.2931576515
 20
-11.1277039427
 10
-12.2760598898
 20
-11.1160683834
 10
-12.2604690738
 20
-11.1030583971
 10
-12.2464293962
 20
-11.0888377066
 10
-12.2340536342
 20
-11.0736316608
 10
-12.2236303324
 20
-11.0580131467
 10
-12.2150470365
 20
-11.042165811
 10
-12.2081515512
 20
-11.0263123875
 10
-12.2029163783
 20
-11.0111493314
 10
-12.1990951772
 20
-10.9970056112
 10
-12.1963618517
 20
-10.9837856812
 10
-12.1944888784
 20
-10.9715286659
 10
-12.1932939616
 20
-10.960411971
  0
LINE
  5
5E0
100
AcDbEntity
  8
ASSI
100
AcDbLine
 62
7
  6
CONTINUOUS
 10
-18.6645738328
 20
-13.279043
 11
-20.4881158328
 21
-13.801936
  0
LINE
  5
5E1
100
AcDbEntity
  8
ASSI
100
AcDbLine
 62
7
  6
CONTINUOUS
 10
-19.5344848328
 20
-14.088516
 11
-17.6879898328
 21
-13.55905
  0
LWPOLYLINE
  5
5E2
100
AcDbEntity
  8
0
100
AcDbPolyline
 62
7
  6
CONTINUOUS
 90
16
 70
0
 10
-19.7129828328
 20
7.3287237864
 10
-19.7974702188
 20
7.3269651622
 10
-19.8776422891
 20
7.3191533414
 10
-19.9534990439
 20
7.305288324
 10
-20.0254056126
 20
7.285245505
 10
-20.0929968658
 20
7.2591494895
 10
-20.1551774144
 20
7.2273740923
 10
-20.2118764895
 20
7.1896328436
 10
-20.26316486
 20
7.1462122133
 10
-20.3081594438
 20
7.0983454262
 10
-20.3467958221
 20
7.0462425107
 10
-20.3791384136
 20
6.9896934384
 10
-20.404497393
 20
6.9293013498
 10
-20.4226428184
 20
6.8652672917
 10
-20.4338046317
 20
6.7973902172
 10
-20.4379828328
 20
6.7256701264
  0
LINE
  5
5E3
100
AcDbEntity
  8
0
100
AcDbLine
 62
7
  6
CONTINUOUS
 10
-20.4379828328
 20
6.131801
 11
-18.9879828328
 21
6.131801
  0
LINE
  5
5E4
100
AcDbEntity
  8
0
100
AcDbLine
 62
7
  6
CONTINUOUS
 10
-19.1555568328
 20
6.327753
 11
-20.2704088328
 21
6.327753
  0
LINE
  5
5E5
100
AcDbEntity
  8
0
100
AcDbLine
 62
7
  6
CONTINUOUS
 10
-20.4379828328
 20
7.600036
 11
-18.9879828328
 21
7.600036
  0
LINE
  5
5E6
100
AcDbEntity
  8
0
100
AcDbLine
 62
7
  6
CONTINUOUS
 10
-19.1616548328
 20
7.795976
 11
-19.6463168328
 21
7.795976
  0
LINE
  5
5E7
100
AcDbEntity
  8
0
100
AcDbLine
 62
7
  6
CONTINUOUS
 10
-19.8199888328
 20
7.795976
 11
-20.2643108328
 21
7.795976
  0
LINE
  5
5E8
100
AcDbEntity
  8
RACCORDO
100
AcDbLine
 62
7
  6
CONTINUOUS
 10
0.8620171672
 20
8.25
 11
-1.2379828328
 21
8.25
  0
LWPOLYLINE
  5
5E9
100
AcDbEntity
  8
0
100
AcDbPolyline
 62
7
  6
CONTINUOUS
 90
13
 70
0
 10
-19.7129828328
 20
7.1271645316
 10
-19.6355976262
 20
7.1253634499
 10
-19.5627124793
 20
7.1176138965
 10
-19.4943273919
 20
7.1039158715
 10
-19.4296262149
 20
7.0843897841
 10
-19.3694250976
 20
7.058915225
 10
-19.3161724873
 20
7.0271309661
 10
-19.2703851085
 20
6.9884972834
 10
-19.2315462368
 20
6.9435539007
 10
-19.200554146
 20
6.8935587617
 10
-19.1777082607
 20
6.8389311808
 10
-19.1627091563
 20
6.7792518434
 10
-19.1555568328
 20
6.7145207497
  0
LWPOLYLINE
  5
5EA
100
AcDbEntity
  8
RACCORDO
100
AcDbPolyline
 62
250
  6
CONTINUOUS
 90
11
 70
0
 10
14.7585290502
 20
3.4871784241
 10
14.7956849221
 20
3.4745637986
 10
14.8308770596
 20
3.4572075941
 10
14.8635033481
 20
3.4354066804
 10
14.8930055523
 20
3.4095339847
 10
14.9188789077
 20
3.3800320697
 10
14.9406806679
 20
3.3474056568
 10
14.9580377195
 20
3.3122130319
 10
14.9706530717
 20
3.2750563399
 10
14.978310892
 20
3.2365712522
 10
14.9808801433
 20
3.1974162093
  0
LINE
  5
5EB
100
AcDbEntity
  8
0
100
AcDbLine
 62
7
  6
CONTINUOUS
 10
-18.9879828328
 20
13.941467
 11
-19.4100248328
 21
14.092963
  0
LINE
  5
5EC
100
AcDbEntity
  8
0
100
AcDbLine
 62
7
  6
CONTINUOUS
 10
-19.5836968328
 20
14.153555
 11
-20.2276628328
 21
14.387877
  0
LINE
  5
5ED
100
AcDbEntity
  8
0
100
AcDbLine
 62
7
  6
CONTINUOUS
 10
-20.4379828328
 20
14.284858
 11
-18.9879828328
 21
13.739545
  0
LINE
  5
5EE
100
AcDbEntity
  8
RACCORDO
100
AcDbLine
 62
250
  6
CONTINUOUS
 10
14.6599013905
 20
-3.4764146104
 11
14.6808915664
 21
-3.4974047863
  0
LINE
  5
5EF
100
AcDbEntity
  8
RACCORDO
100
AcDbLine
 62
250
  6
CONTINUOUS
 10
14.9598899674
 20
-3.1764260334
 11
14.9808801433
 21
-3.1974162093
  0
LINE
  5
5F0
100
AcDbEntity
  8
RACCORDO
100
AcDbLine
 62
7
  6
CONTINUOUS
 10
-2.9379828328
 20
21.25
 11
-3.5815745475
 21
22.3647335492
  0
LWPOLYLINE
  5
5F1
100
AcDbEntity
  8
RACCORDO
100
AcDbPolyline
 62
7
  6
CONTINUOUS
 90
25
 70
0
 10
12.0120171672
 20
-24.4859395359
 10
12.0124605701
 20
-24.4900101013
 10
12.0137415514
 20
-24.4940291829
 10
12.0158601111
 20
-24.4979967809
 10
12.0188324482
 20
-24.5019293969
 10
12.0226423636
 20
-24.5058105293
 10
12.0272412607
 20
-24.5095906727
 10
12.0326392461
 20
-24.5132685337
 10
12.0388262131
 20
-24.5168454057
 10
12.0457232447
 20
-24.5202756646
 10
12.0533394369
 20
-24.5235574323
 10
12.0616656937
 20
-24.5266925869
 10
12.070595811
 20
-24.5296411384
 10
12.0801375239
 20
-24.5324006963
 10
12.0902830972
 20
-24.5349736512
 10
12.1009031206
 20
-24.537327184
 10
12.1120036716
 20
-24.539458484
 10
12.1235786727
 20
-24.541370362
 10
12.1354804807
 20
-24.5430384312
 10
12.1477132819
 20
-24.5444595685
 10
12.16027289
 20
-24.5456368971
 10
12.1729991028
 20
-24.5465553998
 10
12.1858385196
 20
-24.5472100708
 10
12.198844541
 20
-24.5476059158
 10
12.2120171672
 20
-24.5477429348
  0
LINE
  5
5F2
100
AcDbEntity
  8
RACCORDO
100
AcDbLine
 62
250
  6
CONTINUOUS
 10
8.8120171672
 20
-20.356365661
 11
8.8120171672
 21
-20.45
  0
LINE
  5
5F3
100
AcDbEntity
  8
RACCORDO
100
AcDbLine
 62
250
  6
CONTINUOUS
 10
9.4120171672
 20
-24.9281655413
 11
9.4120171672
 21
-24.5477429348
  0
LINE
  5
5F4
100
AcDbEntity
  8
RACCORDO
100
AcDbLine
 62
7
  6
CONTINUOUS
 10
9.6120171672
 20
-23.9702128587
 11
9.6120171672
 21
-24.8663621424
  0
LINE
  5
5F5
100
AcDbEntity
  8
0
100
AcDbLine
 62
7
  6
CONTINUOUS
 10
10.6939561672
 20
-12.719080527
 11
10.6939561672
 21
-9.680919473
  0
LINE
  5
5F6
100
AcDbEntity
  8
0
100
AcDbLine
 62
7
  6
CONTINUOUS
 10
11.0620171672
 20
-9.5247238792
 11
11.0620171672
 21
-12.8752761208
  0
LWPOLYLINE
  5
5F7
100
AcDbEntity
  8
RACCORDO
100
AcDbPolyline
 62
7
  6
CONTINUOUS
 90
25
 70
0
 10
6.3120171672
 20
-23.9702128587
 10
6.3124605701
 20
-23.9661422934
 10
6.3137415514
 20
-23.9621232117
 10
6.3158601111
 20
-23.9581556138
 10
6.3188324482
 20
-23.9542229977
 10
6.3226423636
 20
-23.9503418654
 10
6.3272412607
 20
-23.9465617219
 10
6.3326392461
 20
-23.942883861
 10
6.3388262131
 20
-23.9393069889
 10
6.3457232447
 20
-23.93587673
 10
6.3533394369
 20
-23.9325949623
 10
6.3616656937
 20
-23.9294598077
 10
6.370595811
 20
-23.9265112563
 10
6.3801375239
 20
-23.9237516983
 10
6.3902830972
 20
-23.9211787434
 10
6.4009031206
 20
-23.9188252106
 10
6.4120036716
 20
-23.9166939106
 10
6.4235786727
 20
-23.9147820327
 10
6.4354804807
 20
-23.9131139635
 10
6.4477132819
 20
-23.9116928261
 10
6.46027289
 20
-23.9105154975
 10
6.4729991028
 20
-23.9095969948
 10
6.4858385196
 20
-23.9089423239
 10
6.498844541
 20
-23.9085464789
 10
6.5120171672
 20
-23.9084094599
  0
LWPOLYLINE
  5
5F8
100
AcDbEntity
  8
RACCORDO
100
AcDbPolyline
 62
7
  6
CONTINUOUS
 90
25
 70
0
 10
7.0620171672
 20
-22.8193680562
 10
7.0615737643
 20
-22.8234386215
 10
7.060292783
 20
-22.8274577032
 10
7.0581742233
 20
-22.8314253011
 10
7.0552018862
 20
-22.8353579172
 10
7.0513919708
 20
-22.8392390495
 10
7.0467930737
 20
-22.843019193
 10
7.0413950883
 20
-22.8466970539
 10
7.0352081213
 20
-22.850273926
 10
7.0283110897
 20
-22.8537041849
 10
7.0206948975
 20
-22.8569859526
 10
7.0123686407
 20
-22.8601211071
 10
7.0034385234
 20
-22.8630696586
 10
6.9938968105
 20
-22.8658292166
 10
6.9837512372
 20
-22.8684021715
 10
6.9731312138
 20
-22.8707557043
 10
6.9620306628
 20
-22.8728870043
 10
6.9504556616
 20
-22.8747988822
 10
6.9385538537
 20
-22.8764669514
 10
6.9263210525
 20
-22.8778880888
 10
6.9137614444
 20
-22.8790654174
 10
6.9010352316
 20
-22.8799839201
 10
6.8881958148
 20
-22.880638591
 10
6.8751897934
 20
-22.881034436
 10
6.8620171672
 20
-22.881171455
  0
LINE
  5
5F9
100
AcDbEntity
  8
DRAFT
100
AcDbLine
 62
7
  6
CONTINUOUS
 10
18.6794840842
 20
22.4214581899
 11
18.7120171672
 21
22.5
  0
LINE
  5
5FA
100
AcDbEntity
  8
0
100
AcDbLine
 62
7
  6
CONTINUOUS
 10
1.8703508025
 20
-13.384042564
 11
1.7120171672
 21
-13.6265957549
  0
LINE
  5
5FB
100
AcDbEntity
  8
0
100
AcDbLine
 62
7
  6
CONTINUOUS
 10
0.9599339849
 20
-12.2117021084
 11
0.8411839849
 21
-12.3329786897
  0
LINE
  5
5FC
100
AcDbEntity
  8
0
100
AcDbLine
 62
7
  6
CONTINUOUS
 10
1.0786839849
 20
-12.3734042168
 11
1.1974339849
 21
-12.2925531626
  0
LINE
  5
5FD
100
AcDbEntity
  8
0
100
AcDbLine
 62
7
  6
CONTINUOUS
 10
1.1578503495
 20
-12.0904255271
 11
0.9599339849
 21
-12.2117021084
  0
LWPOLYLINE
  5
5FE
100
AcDbEntity
  8
RACCORDO
100
AcDbPolyline
 62
250
  6
CONTINUOUS
 90
5
 70
0
 10
14.8308770335
 20
-3.4572076091
 10
14.7956848976
 20
-3.4745638087
 10
14.7585290308
 20
-3.4871784293
 10
14.7200451216
 20
-3.4948357309
 10
14.6808915664
 20
-3.4974047863
  0
LINE
  5
5FF
100
AcDbEntity
  8
DRAFT
100
AcDbLine
 62
7
  6
CONTINUOUS
 10
-22.0094410227
 20
-19.467466917
 11
-22.0879828328
 21
-19.5
  0
LINE
  5
600
100
AcDbEntity
  8
ASSI
100
AcDbLine
 62
7
  6
CONTINUOUS
 10
-18.5600778328
 20
-17.320948
 11
-20.4881158328
 21
-17.939972
  0
LINE
  5
601
100
AcDbEntity
  8
RACCORDO
100
AcDbLine
 62
250
  6
CONTINUOUS
 10
1.0620171672
 20
8.45
 11
-1.4379828328
 21
8.45
  0
LINE
  5
602
100
AcDbEntity
  8
0
100
AcDbLine
 62
7
  6
CONTINUOUS
 10
-19.6463168328
 20
8.589647
 11
-19.8199888328
 21
8.589647
  0
LINE
  5
603
100
AcDbEntity
  8
0
100
AcDbLine
 62
7
  6
CONTINUOUS
 10
-20.2643108328
 20
8.65629
 11
-20.4379828328
 21
8.65629
  0
LINE
  5
604
100
AcDbEntity
  8
0
100
AcDbLine
 62
7
  6
CONTINUOUS
 10
-18.9879828328
 20
8.670444
 11
-19.1616548328
 21
8.670444
  0
LINE
  5
605
100
AcDbEntity
  8
0
100
AcDbLine
 62
7
  6
CONTINUOUS
 10
-1.5699218328
 20
9.3
 11
1.1939561672
 21
9.3
  0
LINE
  5
606
100
AcDbEntity
  8
0
100
AcDbLine
 62
7
  6
CONTINUOUS
 10
-20.4379828328
 20
9.518679
 11
-18.9879828328
 21
9.518679
  0
LINE
  5
607
100
AcDbEntity
  8
0
100
AcDbLine
 62
7
  6
CONTINUOUS
 10
1.5620171672
 20
9.668061
 11
-1.9379828328
 21
9.668061
  0
LINE
  5
608
100
AcDbEntity
  8
0
100
AcDbLine
 62
7
  6
CONTINUOUS
 10
-18.9879828328
 20
9.714561
 11
-20.4379828328
 21
9.714561
  0
LINE
  5
609
100
AcDbEntity
  8
0
100
AcDbLine
 62
7
  6
CONTINUOUS
 10
-20.4379828328
 20
10.049756
 11
-18.9879828328
 21
10.049756
  0
LINE
  5
60A
100
AcDbEntity
  8
0
100
AcDbLine
 62
7
  6
CONTINUOUS
 10
-18.9879828328
 20
10.239669
 11
-20.1655568328
 21
10.239669
  0
LINE
  5
60B
100
AcDbEntity
  8
0
100
AcDbLine
 62
7
  6
CONTINUOUS
 10
-20.4379828328
 20
11.011153
 11
-19.2601708328
 21
11.011153
  0
LINE
  5
60C
100
AcDbEntity
  8
DRAFT
100
AcDbLine
 62
7
  6
CONTINUOUS
 10
-22.0094410227
 20
19.467466917
 11
-22.0879828328
 21
19.5
  0
LWPOLYLINE
  5
60D
100
AcDbEntity
  8
RACCORDO
100
AcDbPolyline
 62
7
  6
CONTINUOUS
 90
7
 70
0
 10
-4.4484427797
 20
17.0946465239
 10
-4.4852371272
 20
17.1311538524
 10
-4.4999667508
 20
17.1460412367
 10
-4.5117999738
 20
17.1578519254
 10
-4.5205217624
 20
17.1663291137
 10
-4.5259701561
 20
17.1717296065
 10
-4.528001452
 20
17.1740534036
  0
LINE
  5
60E
100
AcDbEntity
  8
RACCORDO
100
AcDbLine
 62
7
  6
CONTINUOUS
 10
-4.6864180395
 20
19.9393564117
 11
-4.6379828328
 21
19.8910696651
  0
LINE
  5
60F
100
AcDbEntity
  8
RACCORDO
100
AcDbLine
 62
7
  6
CONTINUOUS
 10
-4.528001452
 20
17.1740534036
 11
-4.6039480484
 21
17.25
  0
LINE
  5
610
100
AcDbEntity
  8
RACCORDO
100
AcDbLine
 62
250
  6
CONTINUOUS
 10
-5.9137663789
 20
19.8667377706
 11
-6.0228895596
 21
19.9758513559
  0
LINE
  5
611
100
AcDbEntity
  8
RACCORDO
100
AcDbLine
 62
7
  6
CONTINUOUS
 10
-4.6379828328
 20
19.1705855031
 11
-4.6065432622
 21
19.1391459325
  0
LINE
  5
612
100
AcDbEntity
  8
RACCORDO
100
AcDbLine
 62
250
  6
CONTINUOUS
 10
-5.613777802
 20
20.1667263475
 11
-5.7228913873
 21
20.2758495282
  0
LINE
  5
613
100
AcDbEntity
  8
DRAFT
100
AcDbLine
 62
7
  6
CONTINUOUS
 10
-5.0228895596
 20
20.2758495282
 11
-4.9879828328
 21
20.2409428014
  0
LINE
  5
614
100
AcDbEntity
  8
RACCORDO
100
AcDbLine
 62
7
  6
CONTINUOUS
 10
-4.9879828328
 20
20.2409428014
 11
-4.9120362364
 21
20.164996205
  0
LINE
  5
615
100
AcDbEntity
  8
RACCORDO
100
AcDbLine
 62
7
  6
CONTINUOUS
 10
-4.8112320567
 20
20.0642671672
 11
-4.6864180395
 21
19.9393564117
  0
LINE
  5
616
100
AcDbEntity
  8
RACCORDO
100
AcDbLine
 62
7
  6
CONTINUOUS
 10
-4.3490681841
 20
16.9949537793
 11
-4.4484427797
 21
17.0946465239
  0
LWPOLYLINE
  5
617
100
AcDbEntity
  8
RACCORDO
100
AcDbPolyline
 62
7
  6
CONTINUOUS
 90
3
 70
0
 10
-4.85612442
 20
20.1091936896
 10
-4.8420899412
 20
20.0950257779
 10
-4.8112320567
 20
20.0642671672
  0
LWPOLYLINE
  5
618
100
AcDbEntity
  8
RACCORDO
100
AcDbPolyline
 62
7
  6
CONTINUOUS
 90
5
 70
0
 10
-4.2280128751
 20
16.8740648267
 10
-4.2589631385
 20
16.9055631203
 10
-4.2896561565
 20
16.9361452357
 10
-4.3197592215
 20
16.9658111731
 10
-4.3490681841
 20
16.9949537793
  0
LWPOLYLINE
  5
619
100
AcDbEntity
  8
RACCORDO
100
AcDbPolyline
 62
7
  6
CONTINUOUS
 90
7
 70
0
 10
-4.9120362364
 20
20.164996205
 10
-4.910382501
 20
20.1628441259
 10
-4.9061303744
 20
20.1586914795
 10
-4.899578297
 20
20.1525382656
 10
-4.8910528494
 20
20.1441464224
 10
-4.8808375571
 20
20.1337540118
 10
-4.85612442
 20
20.1091936896
  0
LINE
  5
61A
100
AcDbEntity
  8
DRAFT
100
AcDbLine
 62
7
  6
CONTINUOUS
 10
20.2794840842
 20
-20.8214581899
 11
20.3120171672
 21
-20.9
  0
LWPOLYLINE
  5
61B
100
AcDbEntity
  8
RACCORDO
100
AcDbPolyline
 62
7
  6
CONTINUOUS
 90
25
 70
0
 10
14.5620171672
 20
-22.4389454496
 10
14.5624605701
 20
-22.443016015
 10
14.5637415514
 20
-22.4470350967
 10
14.5658601111
 20
-22.4510026946
 10
14.5688324482
 20
-22.4549353107
 10
14.5726423636
 20
-22.458816443
 10
14.5772412607
 20
-22.4625965865
 10
14.5826392461
 20
-22.4662744474
 10
14.5888262131
 20
-22.4698513194
 10
14.5957232447
 20
-22.4732815784
 10
14.6033394369
 20
-22.4765633461
 10
14.6116656937
 20
-22.4796985006
 10
14.620595811
 20
-22.4826470521
 10
14.6301375239
 20
-22.4854066101
 10
14.6402830972
 20
-22.4879795649
 10
14.6509031206
 20
-22.4903330977
 10
14.6620036716
 20
-22.4924643977
 10
14.6735786727
 20
-22.4943762757
 10
14.6854804807
 20
-22.4960443449
 10
14.6977132819
 20
-22.4974654823
 10
14.71027289
 20
-22.4986428109
 10
14.7229991028
 20
-22.4995613135
 10
14.7358385196
 20
-22.5002159845
 10
14.748844541
 20
-22.5006118295
 10
14.7620171672
 20
-22.5007488485
  0
LINE
  5
61C
100
AcDbEntity
  8
0
100
AcDbLine
 62
7
  6
CONTINUOUS
 10
14.2451988171
 20
-20.3835624
 11
14.2470579785
 21
-20.45
  0
LINE
  5
61D
100
AcDbEntity
  8
0
100
AcDbLine
 62
7
  6
CONTINUOUS
 10
11.3463362456
 20
-17.25
 11
11.3463362456
 21
-17.2314713874
  0
LINE
  5
61E
100
AcDbEntity
  8
RACCORDO
100
AcDbLine
 62
7
  6
CONTINUOUS
 10
12.0120171672
 20
-24.8663621424
 11
12.0120171672
 21
-23.9702128587
  0
LINE
  5
61F
100
AcDbEntity
  8
0
100
AcDbLine
 62
7
  6
CONTINUOUS
 10
12.0620171672
 20
-16.0
 11
12.0620171672
 21
-15.5
  0
LINE
  5
620
100
AcDbEntity
  8
RACCORDO
100
AcDbLine
 62
250
  6
CONTINUOUS
 10
12.2120171672
 20
-24.9281655413
 11
12.2120171672
 21
-24.5477429348
  0
LINE
  5
621
100
AcDbEntity
  8
RACCORDO
100
AcDbLine
 62
250
  6
CONTINUOUS
 10
12.8120171672
 20
-20.45
 11
12.8120171672
 21
-20.356365661
  0
LINE
  5
622
100
AcDbEntity
  8
RACCORDO
100
AcDbLine
 62
7
  6
CONTINUOUS
 10
13.3120171672
 20
-20.45
 11
13.3120171672
 21
-20.3607290949
  0
LINE
  5
623
100
AcDbEntity
  8
RACCORDO
100
AcDbLine
 62
7
  6
CONTINUOUS
 10
13.5765076383
 20
-12.9190481452
 11
13.5765076383
 21
-9.4809518548
  0
LINE
  5
624
100
AcDbEntity
  8
ASSI
100
AcDbLine
 62
7
  6
CONTINUOUS
 10
13.1626937271
 20
-10.4933485987
 11
13.130343844
 21
-11.9714091292
  0
LWPOLYLINE
  5
625
100
AcDbEntity
  8
RACCORDO
100
AcDbPolyline
 62
7
  6
CONTINUOUS
 90
25
 70
0
 10
9.6120171672
 20
-24.8663621424
 10
9.6115737643
 20
-24.8704327078
 10
9.610292783
 20
-24.8744517894
 10
9.6081742233
 20
-24.8784193874
 10
9.6052018862
 20
-24.8823520034
 10
9.6013919708
 20
-24.8862331358
 10
9.5967930737
 20
-24.8900132792
 10
9.5913950883
 20
-24.8936911402
 10
9.5852081213
 20
-24.8972680122
 10
9.5783110897
 20
-24.9006982711
 10
9.5706948975
 20
-24.9039800388
 10
9.5623686407
 20
-24.9071151934
 10
9.5534385234
 20
-24.9100637449
 10
9.5438968105
 20
-24.9128233029
 10
9.5337512372
 20
-24.9153962577
 10
9.5231312138
 20
-24.9177497905
 10
9.5120306628
 20
-24.9198810905
 10
9.5004556616
 20
-24.9217929685
 10
9.4885538537
 20
-24.9234610377
 10
9.4763210525
 20
-24.924882175
 10
9.4637614444
 20
-24.9260595037
 10
9.4510352316
 20
-24.9269780063
 10
9.4381958148
 20
-24.9276326773
 10
9.4251897934
 20
-24.9280285223
 10
9.4120171672
 20
-24.9281655413
  0
LINE
  5
626
100
AcDbEntity
  8
0
100
AcDbLine
 62
7
  6
CONTINUOUS
 10
7.2797799453
 20
-17.25
 11
7.2904052355
 21
-17.2185610747
  0
LINE
  5
627
100
AcDbEntity
  8
DRAFT
100
AcDbLine
 62
7
  6
CONTINUOUS
 10
4.6329612033
 20
-20.8476387933
 11
4.6120171672
 21
-20.9
  0
LINE
  5
628
100
AcDbEntity
  8
RACCORDO
100
AcDbLine
 62
7
  6
CONTINUOUS
 10
5.8544370172
 20
-17.2255647702
 11
6.5620171672
 21
-16.0
  0
LINE
  5
629
100
AcDbEntity
  8
DRAFT
100
AcDbLine
 62
7
  6
CONTINUOUS
 10
3.5771104404
 20
-19.8460089853
 11
3.6120171672
 21
-19.7860401097
  0
LWPOLYLINE
  5
62A
100
AcDbEntity
  8
RACCORDO
100
AcDbPolyline
 62
250
  6
CONTINUOUS
 90
3
 70
0
 10
14.8930055308
 20
-3.4095340062
 10
14.8635033233
 20
-3.4354066994
 10
14.8308770335
 20
-3.4572076091
  0
LINE
  5
62B
100
AcDbEntity
  8
0
100
AcDbLine
 62
7
  6
CONTINUOUS
 10
1.7120171672
 20
-13.6265957549
 11
1.5932671672
 21
-13.7074468091
  0
LINE
  5
62C
100
AcDbEntity
  8
ASSI
100
AcDbLine
 62
7
  6
CONTINUOUS
 10
-20.4881158328
 20
-18.5
 11
-17.6879828328
 21
-17.600976
  0
LINE
  5
62D
100
AcDbEntity
  8
0
100
AcDbLine
 62
7
  6
CONTINUOUS
 10
-18.9879828328
 20
11.200972
 11
-20.4379828328
 21
11.200972
  0
LINE
  5
62E
100
AcDbEntity
  8
0
100
AcDbLine
 62
7
  6
CONTINUOUS
 10
-20.4379828328
 20
12.099632
 11
-18.9879828328
 21
12.099632
  0
LINE
  5
62F
100
AcDbEntity
  8
0
100
AcDbLine
 62
7
  6
CONTINUOUS
 10
-18.9879828328
 20
12.295573
 11
-20.4379828328
 21
12.295573
  0
LINE
  5
630
100
AcDbEntity
  8
0
100
AcDbLine
 62
7
  6
CONTINUOUS
 10
-20.4379828328
 20
12.505609
 11
-20.2643108328
 21
12.505609
  0
LINE
  5
631
100
AcDbEntity
  8
0
100
AcDbLine
 62
7
  6
CONTINUOUS
 10
-20.2643108328
 20
12.996369
 11
-18.9879828328
 21
12.996369
  0
LINE
  5
632
100
AcDbEntity
  8
0
100
AcDbLine
 62
7
  6
CONTINUOUS
 10
-18.9879828328
 20
13.192239
 11
-20.2643108328
 21
13.192239
  0
LINE
  5
633
100
AcDbEntity
  8
0
100
AcDbLine
 62
7
  6
CONTINUOUS
 10
-20.2643108328
 20
13.683
 11
-20.4379828328
 21
13.683
  0
LINE
  5
634
100
AcDbEntity
  8
RACCORDO
100
AcDbLine
 62
250
  6
CONTINUOUS
 10
-4.528001452
 20
22.0106155454
 11
-4.6379828328
 21
22.1205969262
  0
LINE
  5
635
100
AcDbEntity
  8
RACCORDO
100
AcDbLine
 62
250
  6
CONTINUOUS
 10
-4.2280128751
 20
22.3106041223
 11
-4.3379942559
 21
22.4205855031
  0
LWPOLYLINE
  5
636
100
AcDbEntity
  8
RACCORDO
100
AcDbPolyline
 62
250
  6
CONTINUOUS
 90
11
 70
0
 10
14.9654848024
 20
-7.7856670535
 10
14.9702450017
 20
-7.8116215661
 10
14.9742447422
 20
-7.8369100604
 10
14.9775395729
 20
-7.8615245336
 10
14.9801730465
 20
-7.885017784
 10
14.9822230507
 20
-7.9073942199
 10
14.9837576586
 20
-7.9286494329
 10
14.9848319071
 20
-7.9483229963
 10
14.9855235589
 20
-7.9662614344
 10
14.9859137399
 20
-7.9826182228
 10
14.9860705708
 20
-7.9973933616
  0
LWPOLYLINE
  5
637
100
AcDbEntity
  8
RACCORDO
100
AcDbPolyline
 62
250
  6
CONTINUOUS
 90
4
 70
0
 10
14.6808915664
 20
-14.6974047863
 10
14.6814682841
 20
-14.7023640196
 10
14.6820450007
 20
-14.716188493
 10
14.6826217161
 20
-14.7384627991
  0
LWPOLYLINE
  5
638
100
AcDbEntity
  8
RACCORDO
100
AcDbPolyline
 62
7
  6
CONTINUOUS
 90
12
 70
0
 10
14.9860589479
 20
16.8766827891
 10
14.9834788156
 20
16.9133903338
 10
14.975752516
 20
16.9520436355
 10
14.9630224731
 20
16.989356866
 10
14.9455053801
 20
17.02468588
 10
14.9235018685
 20
17.0574178178
 10
14.8973928539
 20
17.0869826847
 10
14.8675588639
 20
17.112921876
 10
14.8345709805
 20
17.1347145388
 10
14.7992494409
 20
17.1518803893
 10
14.7623310625
 20
17.1641955843
 10
14.7255194523
 20
17.1714468149
  0
LINE
  5
639
100
AcDbEntity
  8
RACCORDO
100
AcDbLine
 62
250
  6
CONTINUOUS
 10
15.3076727725
 20
-21.3421935524
 11
15.2867466272
 21
-21.0429357326
  0
LINE
  5
63A
100
AcDbEntity
  8
RACCORDO
100
AcDbLine
 62
250
  6
CONTINUOUS
 10
14.9572833788
 20
-7.9841365081
 11
14.9598899674
 21
-8.0235739666
  0
LINE
  5
63B
100
AcDbEntity
  8
RACCORDO
100
AcDbLine
 62
7
  6
CONTINUOUS
 10
14.8113467195
 20
-20.9808008909
 11
14.8101886736
 21
-20.9476387933
  0
LINE
  5
63C
100
AcDbEntity
  8
RACCORDO
100
AcDbLine
 62
7
  6
CONTINUOUS
 10
16.2403377544
 20
-20.85
 11
16.2552117384
 21
-21.2759351733
  0
LWPOLYLINE
  5
63D
100
AcDbEntity
  8
RACCORDO
100
AcDbPolyline
 62
250
  6
CONTINUOUS
 90
5
 70
0
 10
14.9829997694
 20
-3.2511893609
 10
14.9824947072
 20
-3.2283704719
 10
14.9819754748
 20
-3.2119546558
 10
14.9814372869
 20
-3.2016365683
 10
14.9808801433
 20
-3.1974162093
  0
LWPOLYLINE
  5
63E
100
AcDbEntity
  8
RACCORDO
100
AcDbPolyline
 62
250
  6
CONTINUOUS
 90
7
 70
0
 10
14.6845631803
 20
-3.5860951622
 10
14.6840559831
 20
-3.5603073082
 10
14.6834868914
 20
-3.5385206015
 10
14.6828831767
 20
-3.5210616498
 10
14.6822539295
 20
-3.5082373315
 10
14.6815900595
 20
-3.500299508
 10
14.6808915664
 20
-3.4974047863
  0
LINE
  5
63F
100
AcDbEntity
  8
RACCORDO
100
AcDbLine
 62
250
  6
CONTINUOUS
 10
14.6826217161
 20
-14.7384627991
 11
14.6837751428
 21
-14.8054498606
  0
LINE
  5
640
100
AcDbEntity
  8
RACCORDO
100
AcDbLine
 62
250
  6
CONTINUOUS
 10
14.9839386708
 20
-3.3142042914
 11
14.9829997694
 21
-3.2511893609
  0
LINE
  5
641
100
AcDbEntity
  8
RACCORDO
100
AcDbLine
 62
250
  6
CONTINUOUS
 10
14.6853863057
 20
-3.6479440456
 11
14.6845631803
 21
-3.5860951622
  0
LINE
  5
642
100
AcDbEntity
  8
RACCORDO
100
AcDbLine
 62
250
  6
CONTINUOUS
 10
14.6837751428
 20
-14.8054498606
 11
14.6860819939
 21
-14.9973933632
  0
LINE
  5
643
100
AcDbEntity
  8
RACCORDO
100
AcDbLine
 62
250
  6
CONTINUOUS
 10
14.9851036854
 20
-3.4500143513
 11
14.9839386708
 21
-3.3142042914
  0
LINE
  5
644
100
AcDbEntity
  8
RACCORDO
100
AcDbLine
 62
250
  6
CONTINUOUS
 10
14.6858988747
 20
-3.7199779553
 11
14.6853863057
 21
-3.6479440456
  0
LINE
  5
645
100
AcDbEntity
  8
RACCORDO
100
AcDbLine
 62
250
  6
CONTINUOUS
 10
14.9860705708
 20
16.8740648267
 11
14.9860589479
 21
16.8766827891
  0
LINE
  5
646
100
AcDbEntity
  8
RACCORDO
100
AcDbLine
 62
7
  6
CONTINUOUS
 10
14.98603875
 20
-3.7336925516
 11
14.9851036854
 21
-3.4500143513
  0
LINE
  5
647
100
AcDbEntity
  8
RACCORDO
100
AcDbLine
 62
250
  6
CONTINUOUS
 10
13.7663338179
 20
-8.4047986975
 11
13.7663338179
 21
-8.7002410234
  0
LINE
  5
648
100
AcDbEntity
  8
RACCORDO
100
AcDbLine
 62
250
  6
CONTINUOUS
 10
13.7663338179
 20
-13.9952013025
 11
13.7663338179
 21
-13.6997589766
  0
LINE
  5
649
100
AcDbEntity
  8
0
100
AcDbLine
 62
7
  6
CONTINUOUS
 10
14.1508204486
 20
-20.3835624
 11
14.1508204486
 21
-20.45
  0
LINE
  5
64A
100
AcDbEntity
  8
0
100
AcDbLine
 62
7
  6
CONTINUOUS
 10
14.2295602458
 20
-20.45
 11
14.2295602458
 21
-20.3835624
  0
LINE
  5
64B
100
AcDbEntity
  8
RACCORDO
100
AcDbLine
 62
250
  6
CONTINUOUS
 10
14.3572184697
 20
-8.9956833493
 11
14.3572184697
 21
-13.4043166507
  0
LINE
  5
64C
100
AcDbEntity
  8
DRAFT
100
AcDbLine
 62
7
  6
CONTINUOUS
 10
14.4834753571
 20
-19.1714581899
 11
14.4834753571
 21
-20.3214581899
  0
LINE
  5
64D
100
AcDbEntity
  8
ASSI
100
AcDbLine
 62
7
  6
CONTINUOUS
 10
14.5620171672
 20
-20.5437742252
 11
14.5620171672
 21
-21.3499999965
  0
LINE
  5
64E
100
AcDbEntity
  8
RACCORDO
100
AcDbLine
 62
7
  6
CONTINUOUS
 10
14.5620171672
 20
-22.2059508647
 11
14.5620171672
 21
-22.8193680562
  0
LINE
  5
64F
100
AcDbEntity
  8
0
100
AcDbLine
 62
7
  6
CONTINUOUS
 10
14.5620171672
 20
-21.3499999968
 11
14.5620171672
 21
-22.2059508647
  0
LINE
  5
650
100
AcDbEntity
  8
RACCORDO
100
AcDbLine
 62
250
  6
CONTINUOUS
 10
14.6599013905
 20
-14.6764146104
 11
14.6599013905
 21
-7.7235853896
  0
LINE
  5
651
100
AcDbEntity
  8
RACCORDO
100
AcDbLine
 62
250
  6
CONTINUOUS
 10
14.6599013905
 20
-3.4764146104
 11
14.6599013905
 21
3.4764146104
  0
LINE
  5
652
100
AcDbEntity
  8
RACCORDO
100
AcDbLine
 62
250
  6
CONTINUOUS
 10
14.6860819939
 20
-17.1740534036
 11
14.6860819939
 21
-14.9973933632
  0
LINE
  5
653
100
AcDbEntity
  8
RACCORDO
100
AcDbLine
 62
250
  6
CONTINUOUS
 10
14.6860819939
 20
-7.4026066368
 11
14.6858988747
 21
-3.7199779553
  0
LINE
  5
654
100
AcDbEntity
  8
RACCORDO
100
AcDbLine
 62
7
  6
CONTINUOUS
 10
14.7142762479
 20
-22.4712502867
 11
14.7142762479
 21
-21.2673325931
  0
LINE
  5
655
100
AcDbEntity
  8
RACCORDO
100
AcDbLine
 62
250
  6
CONTINUOUS
 10
14.7620171672
 20
-22.881171455
 11
14.7620171672
 21
-22.5007488485
  0
LINE
  5
656
100
AcDbEntity
  8
ASSI
100
AcDbLine
 62
7
  6
CONTINUOUS
 10
14.7620171672
 20
-20.45
 11
14.7620171672
 21
-20.85
  0
LINE
  5
657
100
AcDbEntity
  8
RACCORDO
100
AcDbLine
 62
7
  6
CONTINUOUS
 10
14.7861520637
 20
-23.25
 11
14.7861520637
 21
-22.6993030839
  0
LINE
  5
658
100
AcDbEntity
  8
RACCORDO
100
AcDbLine
 62
7
  6
CONTINUOUS
 10
14.7910731311
 20
-19.2435114737
 11
14.7910731311
 21
-20.0382713263
  0
LINE
  5
659
100
AcDbEntity
  8
RACCORDO
100
AcDbLine
 62
7
  6
CONTINUOUS
 10
14.807691811
 20
-22.3516448247
 11
14.807691811
 21
-21.3544440149
  0
LINE
  5
65A
100
AcDbEntity
  8
RACCORDO
100
AcDbLine
 62
7
  6
CONTINUOUS
 10
14.8120171672
 20
-19.25
 11
14.8120171672
 21
-20.0186322554
  0
LINE
  5
65B
100
AcDbEntity
  8
RACCORDO
100
AcDbLine
 62
7
  6
CONTINUOUS
 10
14.8862336211
 20
-19.3242164539
 11
14.8862336211
 21
-19.9490280068
  0
LINE
  5
65C
100
AcDbEntity
  8
RACCORDO
100
AcDbLine
 62
7
  6
CONTINUOUS
 10
14.9598899674
 20
-14.3764260334
 11
14.9598899674
 21
-8.0235739666
  0
LINE
  5
65D
100
AcDbEntity
  8
RACCORDO
100
AcDbLine
 62
7
  6
CONTINUOUS
 10
14.9598899674
 20
-3.1764260334
 11
14.9598899674
 21
3.1764260334
  0
LINE
  5
65E
100
AcDbEntity
  8
RACCORDO
100
AcDbLine
 62
7
  6
CONTINUOUS
 10
14.98603875
 20
-3.7336925516
 11
14.9860705708
 21
-7.9973933632
  0
LINE
  5
65F
100
AcDbEntity
  8
RACCORDO
100
AcDbLine
 62
7
  6
CONTINUOUS
 10
14.9860705708
 20
-14.4026066368
 11
14.9860705708
 21
-16.8740648267
  0
LINE
  5
660
100
AcDbEntity
  8
RACCORDO
100
AcDbLine
 62
7
  6
CONTINUOUS
 10
15.0620171672
 20
16.9500114231
 11
15.0620171672
 21
-16.9500114231
  0
LINE
  5
661
100
AcDbEntity
  8
RACCORDO
100
AcDbLine
 62
250
  6
CONTINUOUS
 10
15.1120171672
 20
-24.9281655413
 11
15.1120171672
 21
-24.5477429348
  0
LINE
  5
662
100
AcDbEntity
  8
RACCORDO
100
AcDbLine
 62
250
  6
CONTINUOUS
 10
15.3076727725
 20
-22.1712478072
 11
15.3076727725
 21
-21.3421935524
  0
LINE
  5
663
100
AcDbEntity
  8
RACCORDO
100
AcDbLine
 62
7
  6
CONTINUOUS
 10
15.3120171672
 20
-23.9702128587
 11
15.3120171672
 21
-24.8663621424
  0
LINE
  5
664
100
AcDbEntity
  8
RACCORDO
100
AcDbLine
 62
250
  6
CONTINUOUS
 10
15.3862145826
 20
-19.3285418101
 11
15.3862145826
 21
-19.9601220862
  0
LINE
  5
665
100
AcDbEntity
  8
0
100
AcDbLine
 62
7
  6
CONTINUOUS
 10
15.5557425605
 20
-20.45
 11
15.5557425605
 21
-20.85
  0
LINE
  5
666
100
AcDbEntity
  8
0
100
AcDbLine
 62
250
  6
CONTINUOUS
 10
15.8557425605
 20
-20.85
 11
15.8557425605
 21
-20.45
  0
LWPOLYLINE
  5
667
100
AcDbEntity
  8
RACCORDO
100
AcDbPolyline
 62
250
  6
CONTINUOUS
 90
19
 70
0
 10
14.0617761438
 20
-8.9956833493
 10
14.0617506263
 20
-13.4237353239
 10
14.0604105594
 20
-13.4437658178
 10
14.0576211478
 20
-13.4643149901
 10
14.0532757659
 20
-13.4852574502
 10
14.0472268549
 20
-13.5064740886
 10
14.0392680716
 20
-13.5278447272
 10
14.0292657761
 20
-13.5492085945
 10
14.0171146395
 20
-13.5703279089
 10
14.0026514734
 20
-13.5909203318
 10
13.9858072329
 20
-13.6107175952
 10
13.9665416822
 20
-13.6294305227
 10
13.9447713266
 20
-13.6467017551
 10
13.9205184857
 20
-13.6621896201
 10
13.8938725433
 20
-13.6755397922
 10
13.864915463
 20
-13.6863458353
 10
13.8338196405
 20
-13.6942213739
 10
13.8008534005
 20
-13.6988107338
 10
13.7663338179
 20
-13.6997589766
  0
LINE
  5
668
100
AcDbEntity
  8
RACCORDO
100
AcDbLine
 62
7
  6
CONTINUOUS
 10
14.985622085
 20
3.5546450044
 11
14.9860705708
 21
16.8740648267
  0
LINE
  5
669
100
AcDbEntity
  8
RACCORDO
100
AcDbLine
 62
250
  6
CONTINUOUS
 10
14.6860819939
 20
17.1740534036
 11
14.6858988749
 21
3.7199779897
  0
LINE
  5
66A
100
AcDbEntity
  8
RACCORDO
100
AcDbLine
 62
7
  6
CONTINUOUS
 10
14.985103721
 20
3.4500201095
 11
14.985622085
 21
3.5546450044
  0
LINE
  5
66B
100
AcDbEntity
  8
RACCORDO
100
AcDbLine
 62
250
  6
CONTINUOUS
 10
14.6858988749
 20
3.7199779897
 11
14.6853863063
 21
3.6479440957
  0
LINE
  5
66C
100
AcDbEntity
  8
0
100
AcDbLine
 62
7
  6
CONTINUOUS
 10
14.5555286409
 20
-19.2435114737
 11
14.5455795672
 21
-20.3835624
  0
LINE
  5
66D
100
AcDbEntity
  8
RACCORDO
100
AcDbLine
 62
250
  6
CONTINUOUS
 10
14.9839386708
 20
3.3142042906
 11
14.985103721
 21
3.4500201095
  0
LWPOLYLINE
  5
66E
100
AcDbEntity
  8
RACCORDO
100
AcDbPolyline
 62
250
  6
CONTINUOUS
 90
5
 70
0
 10
14.9860705708
 20
-14.4026066375
 10
14.9858859103
 20
-14.4189667291
 10
14.9854347537
 20
-14.4365150591
 10
14.9846614455
 20
-14.4552516276
 10
14.9835029351
 20
-14.4752800623
  0
LINE
  5
66F
100
AcDbEntity
  8
RACCORDO
100
AcDbLine
 62
250
  6
CONTINUOUS
 10
14.6844348141
 20
-7.5518689486
 11
14.6860819939
 21
-7.4026066368
  0
LWPOLYLINE
  5
670
100
AcDbEntity
  8
RACCORDO
100
AcDbPolyline
 62
250
  6
CONTINUOUS
 90
8
 70
0
 10
14.6853863063
 20
3.6479440957
 10
14.6845631816
 20
3.5860952142
 10
14.6840559846
 20
3.5603073683
 10
14.6834868929
 20
3.5385206658
 10
14.6828831781
 20
3.5210617021
 10
14.6822539307
 20
3.5082373612
 10
14.6815900601
 20
3.5002995172
 10
14.6808915664
 20
3.4974047863
  0
LINE
  5
671
100
AcDbEntity
  8
RACCORDO
100
AcDbLine
 62
250
  6
CONTINUOUS
 10
14.9829997693
 20
3.2511893769
 11
14.9839386708
 21
3.3142042906
  0
LINE
  5
672
100
AcDbEntity
  8
RACCORDO
100
AcDbLine
 62
250
  6
CONTINUOUS
 10
14.6831602362
 20
-7.6314877353
 11
14.6844348141
 21
-7.5518689486
  0
LWPOLYLINE
  5
673
100
AcDbEntity
  8
RACCORDO
100
AcDbPolyline
 62
250
  6
CONTINUOUS
 90
19
 70
0
 10
14.3572184697
 20
-13.4043166507
 10
14.3565057376
 20
-13.4424801403
 10
14.3526966537
 20
-13.4814925573
 10
14.3457912178
 20
-13.5213539017
 10
14.3360722322
 20
-13.5623467383
 10
14.3232568946
 20
-13.6041885024
 10
14.3064967991
 20
-13.6460314994
 10
14.2857068672
 20
-13.6880800017
 10
14.2609721773
 20
-13.730129737
 10
14.2316995585
 20
-13.7707201941
 10
14.1977223053
 20
-13.8099961381
 10
14.1592071232
 20
-13.8478128039
 10
14.1160609571
 20
-13.8822753854
 10
14.0680088393
 20
-13.9134791022
 10
14.0153257374
 20
-13.9413287346
 10
13.9587434996
 20
-13.9636438173
 10
13.898506075
 20
-13.9796975287
 10
13.8343695145
 20
-13.9902166904
 10
13.7663338179
 20
-13.9952013025
  0
LINE
  5
674
100
AcDbEntity
  8
RACCORDO
100
AcDbLine
 62
7
  6
CONTINUOUS
 10
14.7861520637
 20
-23.25
 11
14.807691811
 21
-22.3516448247
  0
LWPOLYLINE
  5
675
100
AcDbEntity
  8
ASSI
100
AcDbPolyline
 62
7
  6
CONTINUOUS
 90
25
 70
0
 10
14.5620171672
 20
-20.5437742252
 10
14.562263231
 20
-20.5357998457
 10
14.56309337
 20
-20.5281782758
 10
14.5645075843
 20
-20.5209105569
 10
14.5664997056
 20
-20.5139825071
 10
14.5690759022
 20
-20.5074114053
 10
14.5722546788
 20
-20.5012383342
 10
14.5760403014
 20
-20.4954637724
 10
14.5804285041
 20
-20.4900731085
 10
14.5854249938
 20
-20.4850745545
 10
14.591002281
 20
-20.4804724017
 10
14.5971878551
 20
-20.4762400106
 10
14.6040698914
 20
-20.472342159
 10
14.611613762
 20
-20.4687750503
 10
14.6198540946
 20
-20.4655338616
 10
14.6289829477
 20
-20.4625943337
 10
14.6389784007
 20
-20.4599525695
 10
14.6498623742
 20
-20.4576176991
 10
14.6618926878
 20
-20.4555913889
 10
14.6750310663
 20
-20.4538724329
 10
14.689315785
 20
-20.452466471
 10
14.7051194899
 20
-20.4513801219
 10
14.7225663962
 20
-20.4506106994
 10
14.7415322886
 20
-20.4501519954
 10
14.7620171672
 20
-20.45
  0
LWPOLYLINE
  5
676
100
AcDbEntity
  8
RACCORDO
100
AcDbPolyline
 62
250
  6
CONTINUOUS
 90
8
 70
0
 10
14.9860705708
 20
-14.4026066368
 10
14.9858125477
 20
-14.4107305713
 10
14.9852803417
 20
-14.4194757045
 10
14.984417444
 20
-14.4288317185
 10
14.9831591369
 20
-14.4388134378
 10
14.9814444483
 20
-14.4493729411
 10
14.9792272525
 20
-14.4604004449
 10
14.9764527963
 20
-14.47185287
  0
LWPOLYLINE
  5
677
100
AcDbEntity
  8
ASSI
100
AcDbPolyline
 62
7
  6
CONTINUOUS
 90
25
 70
0
 10
14.5620171672
 20
-20.9020967918
 10
14.562263231
 20
-20.8976665809
 10
14.56309337
 20
-20.8934323754
 10
14.5645075843
 20
-20.8893947538
 10
14.5664997056
 20
-20.8855458373
 10
14.5690759022
 20
-20.8818952252
 10
14.5722546788
 20
-20.8784657412
 10
14.5760403014
 20
-20.8752576513
 10
14.5804285041
 20
-20.8722628381
 10
14.5854249938
 20
-20.8694858636
 10
14.591002281
 20
-20.8669291121
 10
14.5971878551
 20
-20.8645777837
 10
14.6040698914
 20
-20.8624123106
 10
14.611613762
 20
-20.8604305835
 10
14.6198540946
 20
-20.8586299231
 10
14.6289829477
 20
-20.856996852
 10
14.6389784007
 20
-20.8555292053
 10
14.6498623742
 20
-20.8542320551
 10
14.6618926878
 20
-20.8531063272
 10
14.6750310663
 20
-20.8521513516
 10
14.689315785
 20
-20.8513702616
 10
14.7051194899
 20
-20.8507667344
 10
14.7225663962
 20
-20.8503392774
 10
14.7415322886
 20
-20.8500844419
 10
14.7620171672
 20
-20.85
  0
LWPOLYLINE
  5
678
100
AcDbEntity
  8
RACCORDO
100
AcDbPolyline
 62
250
  6
CONTINUOUS
 90
13
 70
0
 10
14.807691811
 20
-21.3544440149
 10
14.8100379231
 20
-21.3170202083
 10
14.8170342894
 20
-21.2801810972
 10
14.8285716014
 20
-21.2445022421
 10
14.8444696043
 20
-21.2105410761
 10
14.8644799137
 20
-21.1788281957
 10
14.888289896
 20
-21.1498590709
 10
14.9155275531
 20
-21.1240863046
 10
14.9457673339
 20
-21.1019125607
 10
14.9785367835
 20
-21.0836842735
 10
15.0133239243
 20
-21.0696862349
 10
15.0495852552
 20
-21.0601371449
 10
15.0867542426
 20
-21.0551861951
  0
LWPOLYLINE
  5
679
100
AcDbEntity
  8
RACCORDO
100
AcDbPolyline
 62
250
  6
CONTINUOUS
 90
3
 70
0
 10
14.9808801433
 20
-3.1974162093
 10
14.9783108912
 20
-3.236571258
 10
14.9706530688
 20
-3.2750563509
  0
LINE
  5
67A
100
AcDbEntity
  8
RACCORDO
100
AcDbLine
 62
250
  6
CONTINUOUS
 10
14.9598899674
 20
-3.1764260334
 11
14.9572833788
 21
-3.2158634919
  0
LINE
  5
67B
100
AcDbEntity
  8
RACCORDO
100
AcDbLine
 62
250
  6
CONTINUOUS
 10
14.9598899674
 20
-14.3764260334
 11
14.9572833788
 21
-14.4158634919
  0
LINE
  5
67C
100
AcDbEntity
  8
RACCORDO
100
AcDbLine
 62
250
  6
CONTINUOUS
 10
14.9860705708
 20
-16.8740648267
 11
14.9834639821
 21
-16.9135022851
  0
LWPOLYLINE
  5
67D
100
AcDbEntity
  8
RACCORDO
100
AcDbPolyline
 62
250
  6
CONTINUOUS
 90
7
 70
0
 10
14.9835029351
 20
-14.4752800623
 10
14.9818986028
 20
-14.4964967354
 10
14.9798011641
 20
-14.518590764
 10
14.9771568702
 20
-14.5415587142
 10
14.9739043376
 20
-14.5654040199
 10
14.9699975673
 20
-14.5898261005
 10
14.9653899782
 20
-14.6148199069
  0
LWPOLYLINE
  5
67E
100
AcDbEntity
  8
RACCORDO
100
AcDbPolyline
 62
250
  6
CONTINUOUS
 90
5
 70
0
 10
14.6808915664
 20
-7.7025952137
 10
14.6814120331
 20
-7.6976356897
 10
14.6819605297
 20
-7.6838111137
 10
14.6825370561
 20
-7.6615379198
 10
14.6831602362
 20
-7.6314877353
  0
LWPOLYLINE
  5
67F
100
AcDbEntity
  8
RACCORDO
100
AcDbPolyline
 62
7
  6
CONTINUOUS
 90
25
 70
0
 10
12.0120171672
 20
-23.9702128587
 10
12.0124605701
 20
-23.9661422934
 10
12.0137415514
 20
-23.9621232117
 10
12.0158601111
 20
-23.9581556138
 10
12.0188324482
 20
-23.9542229977
 10
12.0226423636
 20
-23.9503418654
 10
12.0272412607
 20
-23.9465617219
 10
12.0326392461
 20
-23.942883861
 10
12.0388262131
 20
-23.9393069889
 10
12.0457232447
 20
-23.93587673
 10
12.0533394369
 20
-23.9325949623
 10
12.0616656937
 20
-23.9294598077
 10
12.070595811
 20
-23.9265112563
 10
12.0801375239
 20
-23.9237516983
 10
12.0902830972
 20
-23.9211787434
 10
12.1009031206
 20
-23.9188252106
 10
12.1120036716
 20
-23.9166939106
 10
12.1235786727
 20
-23.9147820327
 10
12.1354804807
 20
-23.9131139635
 10
12.1477132819
 20
-23.9116928261
 10
12.16027289
 20
-23.9105154975
 10
12.1729991028
 20
-23.9095969948
 10
12.1858385196
 20
-23.9089423239
 10
12.198844541
 20
-23.9085464789
 10
12.2120171672
 20
-23.9084094599
  0
LWPOLYLINE
  5
680
100
AcDbEntity
  8
RACCORDO
100
AcDbPolyline
 62
250
  6
CONTINUOUS
 90
5
 70
0
 10
14.9808801433
 20
3.1974162093
 10
14.9814372868
 20
3.2016365801
 10
14.9819754748
 20
3.2119546746
 10
14.9824947072
 20
3.2283704929
 10
14.9829997693
 20
3.2511893769
  0
LINE
  5
681
100
AcDbEntity
  8
RACCORDO
100
AcDbLine
 62
7
  6
CONTINUOUS
 10
14.9572833788
 20
-3.2158634919
 11
14.9500321481
 21
-3.2526751021
  0
LWPOLYLINE
  5
682
100
AcDbEntity
  8
RACCORDO
100
AcDbPolyline
 62
7
  6
CONTINUOUS
 90
11
 70
0
 10
14.9500321481
 20
-3.2526751021
 10
14.9377169531
 20
-3.2895934804
 10
14.9205511026
 20
-3.3249150201
 10
14.8987584398
 20
-3.3579029034
 10
14.8728192485
 20
-3.3877368935
 10
14.8432543816
 20
-3.4138459081
 10
14.8105224438
 20
-3.4358494197
 10
14.7751934298
 20
-3.4533665126
 10
14.7378801993
 20
-3.4660965556
 10
14.6992268976
 20
-3.4738228551
 10
14.6625193529
 20
-3.4764029875
  0
LWPOLYLINE
  5
683
100
AcDbEntity
  8
RACCORDO
100
AcDbPolyline
 62
250
  6
CONTINUOUS
 90
5
 70
0
 10
14.9706530688
 20
-3.2750563509
 10
14.9580377131
 20
-3.3122130472
 10
14.9406806569
 20
-3.3474056759
 10
14.9188788911
 20
-3.3800320913
 10
14.8930055308
 20
-3.4095340062
  0
LINE
  5
684
100
AcDbEntity
  8
RACCORDO
100
AcDbLine
 62
250
  6
CONTINUOUS
 10
14.6599013905
 20
-7.7235853896
 11
14.6808915664
 21
-7.7025952137
  0
LINE
  5
685
100
AcDbEntity
  8
RACCORDO
100
AcDbLine
 62
250
  6
CONTINUOUS
 10
13.7663338179
 20
-8.7002410234
 11
13.2810653124
 21
-9.1855095289
  0
LINE
  5
686
100
AcDbEntity
  8
RACCORDO
100
AcDbLine
 62
250
  6
CONTINUOUS
 10
14.9598899674
 20
-8.0235739666
 11
14.9860705708
 21
-7.9973933632
  0
LINE
  5
687
100
AcDbEntity
  8
RACCORDO
100
AcDbLine
 62
250
  6
CONTINUOUS
 10
14.0617761438
 20
-8.9956833493
 11
13.5765076383
 21
-9.4809518548
  0
LINE
  5
688
100
AcDbEntity
  8
0
100
AcDbLine
 62
7
  6
CONTINUOUS
 10
-20.4379828328
 20
15.211779
 11
-18.9879828328
 21
15.211779
  0
LINE
  5
689
100
AcDbEntity
  8
0
100
AcDbLine
 62
7
  6
CONTINUOUS
 10
-19.1616548328
 20
15.407731
 11
-20.4379828328
 21
15.407731
  0
LINE
  5
68A
100
AcDbEntity
  8
0
100
AcDbLine
 62
7
  6
CONTINUOUS
 10
-0.8660342614
 20
15.5830191837
 11
0.4607347182
 21
15.5830191837
  0
LINE
  5
68B
100
AcDbEntity
  8
0
100
AcDbLine
 62
7
  6
CONTINUOUS
 10
0.4607347182
 20
15.90302
 11
-0.8660342614
 21
15.90302
  0
LINE
  5
68C
100
AcDbEntity
  8
0
100
AcDbLine
 62
7
  6
CONTINUOUS
 10
-18.9879828328
 20
16.142875
 11
-19.1616548328
 21
16.142875
  0
LINE
  5
68D
100
AcDbEntity
  8
0
100
AcDbLine
 62
7
  6
CONTINUOUS
 10
-1.5126028328
 20
16.406004898
 11
1.1070118611
 21
16.406004898
  0
LINE
  5
68E
100
AcDbEntity
  8
RACCORDO
100
AcDbLine
 62
250
  6
CONTINUOUS
 10
-15.3885121462
 20
20.9859776244
 11
-15.3675545387
 21
20.9790380459
  0
LINE
  5
68F
100
AcDbEntity
  8
RACCORDO
100
AcDbLine
 62
250
  6
CONTINUOUS
 10
-15.1094478766
 20
21.2852410692
 11
-15.0902419136
 21
21.2788844745
  0
LINE
  5
690
100
AcDbEntity
  8
RACCORDO
100
AcDbLine
 62
7
  6
CONTINUOUS
 10
-15.0902419136
 20
22.4712502867
 11
-15.1603784483
 21
22.4993043024
  0
LWPOLYLINE
  5
691
100
AcDbEntity
  8
DRAFT
100
AcDbPolyline
 62
7
  6
CONTINUOUS
 90
10
 70
0
 10
-5.3289992139
 20
19.5348394048
 10
-5.3155140955
 20
19.5294062096
 10
-5.3025109756
 20
19.5237522747
 10
-5.2899895646
 20
19.5178785613
 10
-5.2780106534
 20
19.5117686839
 10
-5.266512763
 20
19.5054409164
 10
-5.2553123378
 20
19.4989478313
 10
-5.2443481334
 20
19.492307147
 10
-5.2336810241
 20
19.4855020898
 10
-5.2233107878
 20
19.478533148
  0
LINE
  5
692
100
AcDbEntity
  8
RACCORDO
100
AcDbLine
 62
7
  6
CONTINUOUS
 10
-3.1707121214
 20
23.2585943921
 11
-3.1621177293
 21
23.25
  0
LINE
  5
693
100
AcDbEntity
  8
DRAFT
100
AcDbLine
 62
7
  6
CONTINUOUS
 10
-2.2879828328
 20
22.5
 11
-2.2085683359
 21
22.4205855031
  0
LINE
  5
694
100
AcDbEntity
  8
0
100
AcDbLine
 62
7
  6
CONTINUOUS
 10
18.4183877807
 20
-20.8936293865
 11
18.4120171672
 21
-20.1636293865
  0
LINE
  5
695
100
AcDbEntity
  8
0
100
AcDbLine
 62
7
  6
CONTINUOUS
 10
16.8120171672
 20
-25.05
 11
16.8120171672
 21
-23.25
  0
LINE
  5
696
100
AcDbEntity
  8
0
100
AcDbLine
 62
7
  6
CONTINUOUS
 10
16.8120171672
 20
-20.85
 11
16.8120171672
 21
-20.45
  0
LINE
  5
697
100
AcDbEntity
  8
DRAFT
100
AcDbLine
 62
7
  6
CONTINUOUS
 10
16.9596559604
 20
-20.4523612067
 11
16.9596559604
 21
-20.8476387933
  0
LINE
  5
698
100
AcDbEntity
  8
RACCORDO
100
AcDbLine
 62
7
  6
CONTINUOUS
 10
17.022362988
 20
-22.7585974382
 11
17.022362988
 21
-22.1712478072
  0
LINE
  5
699
100
AcDbEntity
  8
RACCORDO
100
AcDbLine
 62
7
  6
CONTINUOUS
 10
17.0879637636
 20
-20.3240534036
 11
17.0879637636
 21
-20.9759465964
  0
LINE
  5
69A
100
AcDbEntity
  8
DRAFT
100
AcDbLine
 62
7
  6
CONTINUOUS
 10
17.1330874006
 20
22.5
 11
17.1330874006
 21
23.2289297666
  0
LINE
  5
69B
100
AcDbEntity
  8
RACCORDO
100
AcDbLine
 62
250
  6
CONTINUOUS
 10
17.3879523405
 20
-20.0240648267
 11
17.3879523405
 21
-21.2759351733
  0
LINE
  5
69C
100
AcDbEntity
  8
DRAFT
100
AcDbLine
 62
7
  6
CONTINUOUS
 10
18.2334753571
 20
-20.9785418101
 11
18.2334753571
 21
-19.3285418101
  0
LINE
  5
69D
100
AcDbEntity
  8
DRAFT
100
AcDbLine
 62
7
  6
CONTINUOUS
 10
18.3120171672
 20
-20.9
 11
18.3120171672
 21
-19.25
  0
LINE
  5
69E
100
AcDbEntity
  8
DRAFT
100
AcDbLine
 62
7
  6
CONTINUOUS
 10
18.3329612033
 20
-20.8476387933
 11
18.3329612033
 21
-19.2435114737
  0
LINE
  5
69F
100
AcDbEntity
  8
0
100
AcDbLine
 62
7
  6
CONTINUOUS
 10
18.4120171672
 20
-20.1636293865
 11
18.4120171672
 21
-19.2435114737
  0
LINE
  5
6A0
100
AcDbEntity
  8
DRAFT
100
AcDbLine
 62
7
  6
CONTINUOUS
 10
18.4905589773
 20
-20.8214581899
 11
18.4905589773
 21
-19.1714581899
  0
LINE
  5
6A1
100
AcDbEntity
  8
0
100
AcDbLine
 62
7
  6
CONTINUOUS
 10
18.5120171672
 20
-6.6074743095
 11
18.5120171672
 21
-17.8074743095
  0
LINE
  5
6A2
100
AcDbEntity
  8
DRAFT
100
AcDbLine
 62
7
  6
CONTINUOUS
 10
18.7839655885
 20
23.2219484213
 11
18.7839655885
 21
22.4719484213
  0
LINE
  5
6A3
100
AcDbEntity
  8
DRAFT
100
AcDbLine
 62
7
  6
CONTINUOUS
 10
18.8098306919
 20
-23.2219484213
 11
18.8098306919
 21
-22.4719484213
  0
LINE
  5
6A4
100
AcDbEntity
  8
DRAFT
100
AcDbLine
 62
7
  6
CONTINUOUS
 10
17.0120171672
 20
-23.25
 11
17.022362988
 21
-22.1712478072
  0
LINE
  5
6A5
100
AcDbEntity
  8
RACCORDO
100
AcDbLine
 62
7
  6
CONTINUOUS
 10
16.3710743658
 20
-20.4
 11
16.3831184815
 21
-20.0240648267
  0
LINE
  5
6A6
100
AcDbEntity
  8
RACCORDO
100
AcDbLine
 62
250
  6
CONTINUOUS
 10
15.3670123762
 20
-20.2594954677
 11
15.3862145818
 21
-19.9601220862
  0
LWPOLYLINE
  5
6A7
100
AcDbEntity
  8
RACCORDO
100
AcDbPolyline
 62
7
  6
CONTINUOUS
 90
25
 70
0
 10
15.3120171672
 20
-24.8663621424
 10
15.3115737643
 20
-24.8704327078
 10
15.310292783
 20
-24.8744517894
 10
15.3081742233
 20
-24.8784193874
 10
15.3052018862
 20
-24.8823520034
 10
15.3013919708
 20
-24.8862331358
 10
15.2967930737
 20
-24.8900132792
 10
15.2913950883
 20
-24.8936911402
 10
15.2852081213
 20
-24.8972680122
 10
15.2783110897
 20
-24.9006982711
 10
15.2706948975
 20
-24.9039800388
 10
15.2623686407
 20
-24.9071151934
 10
15.2534385234
 20
-24.9100637449
 10
15.2438968105
 20
-24.9128233029
 10
15.2337512372
 20
-24.9153962577
 10
15.2231312138
 20
-24.9177497905
 10
15.2120306628
 20
-24.9198810905
 10
15.2004556616
 20
-24.9217929685
 10
15.1885538537
 20
-24.9234610377
 10
15.1763210525
 20
-24.924882175
 10
15.1637614444
 20
-24.9260595037
 10
15.1510352316
 20
-24.9269780063
 10
15.1381958148
 20
-24.9276326773
 10
15.1251897934
 20
-24.9280285223
 10
15.1120171672
 20
-24.9281655413
  0
LINE
  5
6A8
100
AcDbEntity
  8
RACCORDO
100
AcDbLine
 62
7
  6
CONTINUOUS
 10
14.9572833788
 20
-14.4158634919
 11
14.9553289409
 21
-14.4285160035
  0
LINE
  5
6A9
100
AcDbEntity
  8
RACCORDO
100
AcDbLine
 62
7
  6
CONTINUOUS
 10
14.9834639821
 20
-16.9135022851
 11
14.9762127515
 21
-16.9503138953
  0
LWPOLYLINE
  5
6AA
100
AcDbEntity
  8
RACCORDO
100
AcDbPolyline
 62
250
  6
CONTINUOUS
 90
21
 70
0
 10
14.9653899782
 20
-14.6148199069
 10
14.9600215437
 20
-14.6403904882
 10
14.9538290069
 20
-14.6662524108
 10
14.9467658689
 20
-14.6924306539
 10
14.9387743969
 20
-14.7189002383
 10
14.9297662008
 20
-14.7453007927
 10
14.9196508347
 20
-14.77177023
 10
14.9084129305
 20
-14.7981706373
 10
14.8960903789
 20
-14.8237279043
 10
14.8826456305
 20
-14.8484624558
 10
14.8680854825
 20
-14.8723538671
 10
14.8525634915
 20
-14.894566753
 10
14.8361013441
 20
-14.9150339695
 10
14.8187444422
 20
-14.9338226608
 10
14.8007359636
 20
-14.9502988739
 10
14.782130145
 20
-14.9643237096
 10
14.7630185033
 20
-14.9760360672
 10
14.7437413529
 20
-14.9852186919
 10
14.724478256
 20
-14.9917991653
 10
14.7052307094
 20
-14.9958499057
 10
14.6860819939
 20
-14.9973709132
  0
LWPOLYLINE
  5
6AB
100
AcDbEntity
  8
RACCORDO
100
AcDbPolyline
 62
7
  6
CONTINUOUS
 90
9
 70
0
 10
14.9553289409
 20
-14.4285160035
 10
14.9417923658
 20
-14.4790233993
 10
14.9196915044
 20
-14.5264137276
 10
14.8896978153
 20
-14.5692471963
 10
14.8527225534
 20
-14.6062224583
 10
14.8098890846
 20
-14.6362161474
 10
14.7624987564
 20
-14.6583170087
 10
14.7119913606
 20
-14.6718535838
 10
14.6625193529
 20
-14.6764029875
  0
LWPOLYLINE
  5
6AC
100
AcDbEntity
  8
RACCORDO
100
AcDbPolyline
 62
250
  6
CONTINUOUS
 90
12
 70
0
 10
14.9764527963
 20
-14.47185287
 10
14.9730586657
 20
-14.4837135825
 10
14.9690001038
 20
-14.4959072006
 10
14.9642294774
 20
-14.508370328
 10
14.9586856258
 20
-14.5210755134
 10
14.9523062084
 20
-14.5339922532
 10
14.94504312
 20
-14.5470435079
 10
14.9368376192
 20
-14.5601727742
 10
14.9276026693
 20
-14.5733623938
 10
14.9172434829
 20
-14.586566858
 10
14.9057458692
 20
-14.5996312953
 10
14.8931583525
 20
-14.6123676244
  0
LWPOLYLINE
  5
6AD
100
AcDbEntity
  8
0
100
AcDbPolyline
 62
7
  6
CONTINUOUS
 90
55
 70
0
 10
7.2904052355
 20
-17.2185610747
 10
7.3464570785
 20
-17.1621234175
 10
7.4032350908
 20
-17.1061971669
 10
7.4607392725
 20
-17.0507823228
 10
7.5189801992
 20
-16.9957849423
 10
7.5779472953
 20
-16.9412989683
 10
7.637608834
 20
-16.8876062298
 10
7.6979723685
 20
-16.8346929341
 10
7.7590303457
 20
-16.7825728739
 10
7.8207283791
 20
-16.7315692568
 10
7.8829213794
 20
-16.681769793
 10
7.9457544359
 20
-16.6330867723
 10
8.0096084297
 20
-16.5855802717
 10
8.0741773203
 20
-16.5393473242
 10
8.1397671483
 20
-16.4942908968
 10
8.207676916
 20
-16.4501799674
 10
8.2777803299
 20
-16.4068221676
 10
8.3502036834
 20
-16.3644098658
 10
8.4266248595
 20
-16.3232891459
 10
8.5072026556
 20
-16.2830000437
 10
8.5917782743
 20
-16.2440025233
 10
8.6815532054
 20
-16.2080225599
 10
8.777614151
 20
-16.1746117902
 10
8.8788744091
 20
-16.1442185775
 10
8.9832753638
 20
-16.1199139877
 10
9.0910961831
 20
-16.102248408
 10
9.202057699
 20
-16.0906714513
 10
9.3132637908
 20
-16.086603021
 10
9.4247894258
 20
-16.0909288486
 10
9.5365596368
 20
-16.1027632027
 10
9.645453402
 20
-16.1208687935
 10
9.7512464911
 20
-16.1458978796
 10
9.8541631344
 20
-16.1771982024
 10
9.9517550004
 20
-16.2115756967
 10
10.0428343443
 20
-16.248587034
 10
10.128588911
 20
-16.2886755427
 10
10.2101336025
 20
-16.3299771436
 10
10.2872551277
 20
-16.3719906761
 10
10.3601667778
 20
-16.4152173007
 10
10.430623329
 20
-16.4592964191
 10
10.4987572929
 20
-16.5040248122
 10
10.5644361578
 20
-16.5496056991
 10
10.6290171655
 20
-16.5962881392
 10
10.6928110269
 20
-16.6441667976
 10
10.755507031
 20
-16.6931470091
 10
10.817530287
 20
-16.743193838
 10
10.8790276326
 20
-16.7943924013
 10
10.9398522301
 20
-16.846657582
 10
10.9999886756
 20
-16.8996990938
 10
11.0594314309
 20
-16.9535016249
 10
11.1181860341
 20
-17.008080487
 10
11.1762536961
 20
-17.0631913295
 10
11.2336348205
 20
-17.1187527018
 10
11.2903290037
 20
-17.1748460545
 10
11.3463362456
 20
-17.2314713874
  0
LINE
  5
6AE
100
AcDbEntity
  8
DRAFT
100
AcDbLine
 62
7
  6
CONTINUOUS
 10
5.646923894
 20
-19.5650932732
 11
5.6120171672
 21
-19.6
  0
LINE
  5
6AF
100
AcDbEntity
  8
RACCORDO
100
AcDbLine
 62
7
  6
CONTINUOUS
 10
5.6120171672
 20
-19.6
 11
5.5378007133
 21
-19.6742164539
  0
LINE
  5
6B0
100
AcDbEntity
  8
DRAFT
100
AcDbLine
 62
7
  6
CONTINUOUS
 10
2.7861520637
 20
-22.5
 11
2.7964978845
 21
-22.4896541792
  0
LINE
  5
6B1
100
AcDbEntity
  8
RACCORDO
100
AcDbLine
 62
7
  6
CONTINUOUS
 10
4.6120171672
 20
-20.9
 11
4.5360705708
 21
-20.9759465964
  0
LINE
  5
6B2
100
AcDbEntity
  8
DRAFT
100
AcDbLine
 62
7
  6
CONTINUOUS
 10
7.1143783739
 20
-19.1976387933
 11
7.1405589773
 21
-19.1714581899
  0
LINE
  5
6B3
100
AcDbEntity
  8
RACCORDO
100
AcDbLine
 62
7
  6
CONTINUOUS
 10
4.418750834
 20
-21.0932432242
 11
4.2545855745
 21
-21.2575688499
  0
LINE
  5
6B4
100
AcDbEntity
  8
RACCORDO
100
AcDbLine
 62
7
  6
CONTINUOUS
 10
4.435341533
 20
-21.0767507761
 11
4.418750834
 21
-21.0932432242
  0
LINE
  5
6B5
100
AcDbEntity
  8
RACCORDO
100
AcDbLine
 62
7
  6
CONTINUOUS
 10
4.2545855745
 20
-21.2575688499
 11
4.2360819939
 21
-21.2759351733
  0
LWPOLYLINE
  5
6B6
100
AcDbEntity
  8
RACCORDO
100
AcDbPolyline
 62
7
  6
CONTINUOUS
 90
3
 70
0
 10
4.4802680553
 20
-21.0318584128
 10
4.4661001437
 20
-21.0458928916
 10
4.435341533
 20
-21.0767507761
  0
LINE
  5
6B7
100
AcDbEntity
  8
DRAFT
100
AcDbLine
 62
7
  6
CONTINUOUS
 10
3.6120171672
 20
-19.7860401097
 11
3.66001494
 21
-19.7474224737
  0
LINE
  5
6B8
100
AcDbEntity
  8
0
100
AcDbLine
 62
7
  6
CONTINUOUS
 10
1.1070118611
 20
16.730604898
 11
-1.5126028328
 21
16.730604898
  0
LINE
  5
6B9
100
AcDbEntity
  8
0
100
AcDbLine
 62
7
  6
CONTINUOUS
 10
-19.5716178328
 20
16.756765
 11
-18.9879828328
 21
16.756765
  0
LINE
  5
6BA
100
AcDbEntity
  8
RACCORDO
100
AcDbLine
 62
250
  6
CONTINUOUS
 10
14.9860705708
 20
16.8740648267
 11
3.8520472095
 21
16.8740648267
  0
LINE
  5
6BB
100
AcDbEntity
  8
RACCORDO
100
AcDbLine
 62
250
  6
CONTINUOUS
 10
-4.2280128751
 20
16.8740648267
 11
-15.3620362364
 21
16.8740648267
  0
LINE
  5
6BC
100
AcDbEntity
  8
0
100
AcDbLine
 62
7
  6
CONTINUOUS
 10
-18.9879828328
 20
16.9526
 11
-19.5716178328
 21
16.9526
  0
LINE
  5
6BD
100
AcDbEntity
  8
RACCORDO
100
AcDbLine
 62
7
  6
CONTINUOUS
 10
14.6860819939
 20
17.1740534036
 11
4.1520357864
 21
17.1740534036
  0
LINE
  5
6BE
100
AcDbEntity
  8
RACCORDO
100
AcDbLine
 62
7
  6
CONTINUOUS
 10
-4.528001452
 20
17.1740534036
 11
-15.0620476595
 21
17.1740534036
  0
LINE
  5
6BF
100
AcDbEntity
  8
0
100
AcDbLine
 62
7
  6
CONTINUOUS
 10
-2.1588799757
 20
17.2335897959
 11
1.7535804325
 21
17.2335897959
  0
LINE
  5
6C0
100
AcDbEntity
  8
RACCORDO
100
AcDbLine
 62
7
  6
CONTINUOUS
 10
14.7620285903
 20
17.25
 11
4.2279823828
 21
17.25
  0
LINE
  5
6C1
100
AcDbEntity
  8
RACCORDO
100
AcDbLine
 62
7
  6
CONTINUOUS
 10
-4.6039480484
 20
17.25
 11
-15.1379942559
 21
17.25
  0
LINE
  5
6C2
100
AcDbEntity
  8
0
100
AcDbLine
 62
7
  6
CONTINUOUS
 10
1.7535804325
 20
17.5581910204
 11
-0.0319669144
 21
17.5581910204
  0
LINE
  5
6C3
100
AcDbEntity
  8
0
100
AcDbLine
 62
7
  6
CONTINUOUS
 10
-0.3519665063
 20
17.5581910204
 11
-2.1588799757
 21
17.5581910204
  0
LINE
  5
6C4
100
AcDbEntity
  8
RACCORDO
100
AcDbLine
 62
250
  6
CONTINUOUS
 10
21.6011630997
 20
18.8391573555
 11
4.2279823828
 21
18.8391573555
  0
LINE
  5
6C5
100
AcDbEntity
  8
RACCORDO
100
AcDbLine
 62
250
  6
CONTINUOUS
 10
-4.6039480484
 20
18.8391573555
 11
-21.9771287653
 21
18.8391573555
  0
LINE
  5
6C6
100
AcDbEntity
  8
RACCORDO
100
AcDbLine
 62
250
  6
CONTINUOUS
 10
-16.7590841471
 20
20.0240648267
 11
-15.7621802482
 21
19.9601220862
  0
LINE
  5
6C7
100
AcDbEntity
  8
RACCORDO
100
AcDbLine
 62
250
  6
CONTINUOUS
 10
14.7255194523
 20
17.1714468149
 11
14.6860819939
 21
17.1740534036
  0
LWPOLYLINE
  5
6C8
100
AcDbEntity
  8
RACCORDO
100
AcDbPolyline
 62
250
  6
CONTINUOUS
 90
13
 70
0
 10
-15.5429856572
 20
20.2484013883
 10
-15.5056473862
 20
20.2436374711
 10
-15.4691992657
 20
20.2342353415
 10
-15.4342151201
 20
20.2203430227
 10
-15.4012457258
 20
20.2021792298
 10
-15.3708101395
 20
20.1800299262
 10
-15.3433875268
 20
20.1542438216
 10
-15.3194096183
 20
20.1252268822
 10
-15.2992539125
 20
20.0934359387
 10
-15.2832377327
 20
20.059371495
 10
-15.2716132312
 20
20.0235698481
 10
-15.2645634194
 20
19.9865946444
 10
-15.2621992867
 20
19.9490280068
  0
LWPOLYLINE
  5
6C9
100
AcDbEntity
  8
RACCORDO
100
AcDbPolyline
 62
7
  6
CONTINUOUS
 90
13
 70
0
 10
-15.4687756477
 20
20.3180113399
 10
-15.4314365134
 20
20.3132483674
 10
-15.3949876288
 20
20.3038468775
 10
-15.3600028437
 20
20.2899548911
 10
-15.3270329504
 20
20.2717911306
 10
-15.2965970293
 20
20.2496415689
 10
-15.269174277
 20
20.2238549255
 10
-15.2451964337
 20
20.1948371904
 10
-15.2250410025
 20
20.1630452239
 10
-15.2090253244
 20
20.1289795556
 10
-15.1974015525
 20
20.0931765176
 10
-15.1903526821
 20
20.0561998015
 10
-15.1879896867
 20
20.0186315746
  0
LINE
  5
6CA
100
AcDbEntity
  8
DRAFT
100
AcDbLine
 62
7
  6
CONTINUOUS
 10
19.5334753571
 20
-21.6931730102
 11
19.5334753571
 21
-20.9785418101
  0
LINE
  5
6CB
100
AcDbEntity
  8
DRAFT
100
AcDbLine
 62
7
  6
CONTINUOUS
 10
19.6120171672
 20
-21.5702021902
 11
19.6120171672
 21
-20.9
  0
LINE
  5
6CC
100
AcDbEntity
  8
0
100
AcDbLine
 62
7
  6
CONTINUOUS
 10
19.8120171672
 20
-20.9
 11
19.8120171672
 21
-20.8936293865
  0
LINE
  5
6CD
100
AcDbEntity
  8
0
100
AcDbLine
 62
7
  6
CONTINUOUS
 10
20.3120171672
 20
-17.8074743095
 11
20.3120171672
 21
-6.6074743095
  0
LINE
  5
6CE
100
AcDbEntity
  8
RACCORDO
100
AcDbLine
 62
250
  6
CONTINUOUS
 10
21.3011745227
 20
-19.1391459325
 11
21.3011745227
 21
19.1391459325
  0
LINE
  5
6CF
100
AcDbEntity
  8
RACCORDO
100
AcDbLine
 62
7
  6
CONTINUOUS
 10
21.6011630997
 20
18.8391573555
 11
21.6011630997
 21
-18.8391573555
  0
LINE
  5
6D0
100
AcDbEntity
  8
RACCORDO
100
AcDbLine
 62
7
  6
CONTINUOUS
 10
21.6334753571
 20
19.467466917
 11
21.6334753571
 21
18.871469613
  0
LINE
  5
6D1
100
AcDbEntity
  8
RACCORDO
100
AcDbLine
 62
7
  6
CONTINUOUS
 10
21.6334753571
 20
-18.871469613
 11
21.6334753571
 21
-19.467466917
  0
LINE
  5
6D2
100
AcDbEntity
  8
RACCORDO
100
AcDbLine
 62
7
  6
CONTINUOUS
 10
21.6945634316
 20
-22.2219545135
 11
21.6945634316
 21
-19.5174537356
  0
LINE
  5
6D3
100
AcDbEntity
  8
RACCORDO
100
AcDbLine
 62
7
  6
CONTINUOUS
 10
21.6945634316
 20
19.5174537356
 11
21.6945634316
 21
22.2219545135
  0
LINE
  5
6D4
100
AcDbEntity
  8
DRAFT
100
AcDbLine
 62
7
  6
CONTINUOUS
 10
21.7120171672
 20
19.5
 11
21.7120171672
 21
-19.5
  0
LWPOLYLINE
  5
6D5
100
AcDbEntity
  8
RACCORDO
100
AcDbPolyline
 62
7
  6
CONTINUOUS
 90
11
 70
0
 10
14.9762127515
 20
-16.9503138953
 10
14.9638975565
 20
-16.9872322737
 10
14.9467317059
 20
-17.0225538133
 10
14.9249390432
 20
-17.0555416967
 10
14.8989998519
 20
-17.0853756867
 10
14.869434985
 20
-17.1114847013
 10
14.8367030472
 20
-17.133488213
 10
14.8013740332
 20
-17.1510053059
 10
14.7640608027
 20
-17.1637353488
 10
14.7254075009
 20
-17.1714616484
 10
14.6886999563
 20
-17.1740417807
  0
LINE
  5
6D6
100
AcDbEntity
  8
0
100
AcDbLine
 62
7
  6
CONTINUOUS
 10
7.0784547672
 20
-20.3835624
 11
7.1405589773
 21
-20.3214581899
  0
LINE
  5
6D7
100
AcDbEntity
  8
RACCORDO
100
AcDbLine
 62
7
  6
CONTINUOUS
 10
4.6120171672
 20
-23.25
 11
4.6034227751
 21
-23.2585943921
  0
LINE
  5
6D8
100
AcDbEntity
  8
RACCORDO
100
AcDbLine
 62
250
  6
CONTINUOUS
 10
6.6114921994
 20
-20.9859779283
 11
6.5372800918
 21
-21.0551861951
  0
LINE
  5
6D9
100
AcDbEntity
  8
RACCORDO
100
AcDbLine
 62
250
  6
CONTINUOUS
 10
6.8905521234
 20
-21.2852410692
 11
6.8163425234
 21
-21.3544440149
  0
LWPOLYLINE
  5
6DA
100
AcDbEntity
  8
RACCORDO
100
AcDbPolyline
 62
250
  6
CONTINUOUS
 90
4
 70
0
 10
14.8931583525
 20
-14.6123676244
 10
14.8794433066
 20
-14.6246861078
 10
14.8646078995
 20
-14.6364555792
 10
14.8488195063
 20
-14.6474578448
  0
LWPOLYLINE
  5
6DB
100
AcDbEntity
  8
RACCORDO
100
AcDbPolyline
 62
7
  6
CONTINUOUS
 90
7
 70
0
 10
4.5360705708
 20
-20.9759465964
 10
4.5339184917
 20
-20.9776003319
 10
4.5297658452
 20
-20.9818524584
 10
4.5236126314
 20
-20.9884045358
 10
4.5152207882
 20
-20.9969299835
 10
4.5048283776
 20
-21.0071452757
 10
4.4802680553
 20
-21.0318584128
  0
LWPOLYLINE
  5
6DC
100
AcDbEntity
  8
RACCORDO
100
AcDbPolyline
 62
250
  6
CONTINUOUS
 90
10
 70
0
 10
14.8488195063
 20
-14.6474578448
 10
14.8321024656
 20
-14.6576065269
 10
14.8145027918
 20
-14.6668038068
 10
14.7962763326
 20
-14.6748797998
 10
14.7774855711
 20
-14.6817903223
 10
14.7582180156
 20
-14.6874838333
 10
14.7388081768
 20
-14.6918731622
 10
14.7194341143
 20
-14.6949637015
 10
14.700100625
 20
-14.6967985232
 10
14.6808917623
 20
-14.6974049822
  0
LINE
  5
6DD
100
AcDbEntity
  8
DRAFT
100
AcDbLine
 62
7
  6
CONTINUOUS
 10
2.0646938738
 20
-22.5
 11
2.0905589773
 21
-22.4896541792
  0
LINE
  5
6DE
100
AcDbEntity
  8
DRAFT
100
AcDbLine
 62
7
  6
CONTINUOUS
 10
-5.2126345831
 20
19.5650932732
 11
-5.0146360664
 21
19.5846563617
  0
LINE
  5
6DF
100
AcDbEntity
  8
DRAFT
100
AcDbLine
 62
7
  6
CONTINUOUS
 10
-5.0146360664
 20
19.5846563617
 11
-4.8535356642
 21
19.6
  0
LWPOLYLINE
  5
6E0
100
AcDbEntity
  8
RACCORDO
100
AcDbPolyline
 62
250
  6
CONTINUOUS
 90
5
 70
0
 10
-6.9132457574
 20
21.0551861951
 10
-6.912308143
 20
21.0552735309
 10
-6.9099228732
 20
21.0552563311
 10
-6.9060899482
 20
21.0551345958
 10
-6.9007587005
 20
21.0549058878
  0
LWPOLYLINE
  5
6E1
100
AcDbEntity
  8
RACCORDO
100
AcDbPolyline
 62
250
  6
CONTINUOUS
 90
13
 70
0
 10
-21.6771401883
 20
19.1391459325
 10
-21.7162946677
 20
19.1365767554
 10
-21.7547792678
 20
19.1289191426
 10
-21.7919355705
 20
19.1163041053
 10
-21.8271278825
 20
19.0989474695
 10
-21.8597541119
 20
19.0771461831
 10
-21.889256069
 20
19.0512732361
 10
-21.9151290159
 20
19.0217712791
 10
-21.9369303023
 20
18.9891450496
 10
-21.9542869381
 20
18.9539527377
 10
-21.9669019754
 20
18.916796435
 10
-21.9745595882
 20
18.8783118349
 10
-21.9771287653
 20
18.8391573555
  0
LWPOLYLINE
  5
6E2
100
AcDbEntity
  8
RACCORDO
100
AcDbPolyline
 62
250
  6
CONTINUOUS
 90
4
 70
0
 10
-7.192308189
 20
21.3544440149
 10
-7.1900493654
 20
21.3545308271
 10
-7.1840459798
 20
21.354513154
 10
-7.1743430513
 20
21.3543909955
  0
LINE
  5
6E3
100
AcDbEntity
  8
RACCORDO
100
AcDbLine
 62
250
  6
CONTINUOUS
 10
-15.6836384381
 20
21.3421935524
 11
-15.36369032
 21
21.3507383276
  0
LINE
  5
6E4
100
AcDbEntity
  8
RACCORDO
100
AcDbLine
 62
250
  6
CONTINUOUS
 10
-15.36369032
 20
21.3507383276
 11
-15.2318082028
 21
21.35382812
  0
LWPOLYLINE
  5
6E5
100
AcDbEntity
  8
RACCORDO
100
AcDbPolyline
 62
250
  6
CONTINUOUS
 90
5
 70
0
 10
-15.2318082028
 20
21.35382812
 10
-15.2016226144
 20
21.3543909955
 10
-15.1919196858
 20
21.354513154
 10
-15.1859163002
 20
21.3545308271
 10
-15.1836574766
 20
21.3544440149
  0
LINE
  5
6E6
100
AcDbEntity
  8
RACCORDO
100
AcDbLine
 62
7
  6
CONTINUOUS
 10
21.3011745227
 20
19.1391459325
 11
4.2305775965
 21
19.1391459325
  0
LINE
  5
6E7
100
AcDbEntity
  8
RACCORDO
100
AcDbLine
 62
7
  6
CONTINUOUS
 10
-4.6065432622
 20
19.1391459325
 11
-21.6771401883
 21
19.1391459325
  0
LINE
  5
6E8
100
AcDbEntity
  8
RACCORDO
100
AcDbLine
 62
7
  6
CONTINUOUS
 10
-21.7094524458
 20
19.1714581899
 11
-18.8665246429
 21
19.1714581899
  0
LINE
  5
6E9
100
AcDbEntity
  8
RACCORDO
100
AcDbLine
 62
7
  6
CONTINUOUS
 10
21.3334867802
 20
19.1714581899
 11
4.262889854
 21
19.1714581899
  0
LINE
  5
6EA
100
AcDbEntity
  8
DRAFT
100
AcDbLine
 62
7
  6
CONTINUOUS
 10
-7.5165246429
 20
19.1714581899
 11
-14.8594410227
 21
19.1714581899
  0
LINE
  5
6EB
100
AcDbEntity
  8
0
100
AcDbLine
 62
7
  6
CONTINUOUS
 10
-0.0319669144
 20
19.1753453061
 11
-0.3519665063
 21
19.1753453061
  0
LINE
  5
6EC
100
AcDbEntity
  8
DRAFT
100
AcDbLine
 62
7
  6
CONTINUOUS
 10
-7.4903440396
 20
19.1976387933
 11
-4.6379828328
 21
19.1976387933
  0
LINE
  5
6ED
100
AcDbEntity
  8
0
100
AcDbLine
 62
7
  6
CONTINUOUS
 10
-18.7944713591
 20
19.2435114737
 11
-14.9314943065
 21
19.2435114737
  0
LINE
  5
6EE
100
AcDbEntity
  8
RACCORDO
100
AcDbLine
 62
7
  6
CONTINUOUS
 10
-18.6094410227
 20
19.3285418101
 11
-15.7621802482
 21
19.3285418101
  0
LINE
  5
6EF
100
AcDbEntity
  8
DRAFT
100
AcDbLine
 62
7
  6
CONTINUOUS
 10
-6.0228895596
 20
19.5650932732
 11
-5.2126345831
 21
19.5650932732
  0
LINE
  5
6F0
100
AcDbEntity
  8
DRAFT
100
AcDbLine
 62
7
  6
CONTINUOUS
 10
-5.9879828328
 20
19.6
 11
-4.8535356642
 21
19.6
  0
LINE
  5
6F1
100
AcDbEntity
  8
RACCORDO
100
AcDbLine
 62
7
  6
CONTINUOUS
 10
-5.4137854174
 20
19.6785418101
 11
-4.6379828328
 21
19.6785418101
  0
LINE
  5
6F2
100
AcDbEntity
  8
RACCORDO
100
AcDbLine
 62
250
  6
CONTINUOUS
 10
-16.7590841471
 20
20.0240648267
 11
-17.7639180061
 21
20.0240648267
  0
LINE
  5
6F3
100
AcDbEntity
  8
RACCORDO
100
AcDbLine
 62
7
  6
CONTINUOUS
 10
-4.9120362364
 20
20.164996205
 11
-5.4137854174
 21
20.164996205
  0
LINE
  5
6F4
100
AcDbEntity
  8
RACCORDO
100
AcDbLine
 62
7
  6
CONTINUOUS
 10
-4.9879828328
 20
20.2409428014
 11
-5.6879896862
 21
20.2409428014
  0
LINE
  5
6F5
100
AcDbEntity
  8
RACCORDO
100
AcDbLine
 62
7
  6
CONTINUOUS
 10
-5.0228895596
 20
20.2758495282
 11
-5.7228913873
 21
20.2758495282
  0
LINE
  5
6F6
100
AcDbEntity
  8
DRAFT
100
AcDbLine
 62
7
  6
CONTINUOUS
 10
-14.8594410227
 20
20.3214581899
 11
-7.5165246429
 21
20.3214581899
  0
LINE
  5
6F7
100
AcDbEntity
  8
RACCORDO
100
AcDbLine
 62
7
  6
CONTINUOUS
 10
-16.7494731892
 20
20.3240534036
 11
-17.4639294292
 21
20.3240534036
  0
LINE
  5
6F8
100
AcDbEntity
  8
RACCORDO
100
AcDbLine
 62
7
  6
CONTINUOUS
 10
-9.1879828328
 20
20.356365661
 11
-13.1879828328
 21
20.356365661
  0
LINE
  5
6F9
100
AcDbEntity
  8
0
100
AcDbLine
 62
7
  6
CONTINUOUS
 10
-14.9215452328
 20
20.3835624
 11
-13.6879828328
 21
20.3835624
  0
LINE
  5
6FA
100
AcDbEntity
  8
0
100
AcDbLine
 62
7
  6
CONTINUOUS
 10
-7.4544204328
 20
20.3835624
 11
-8.6879828328
 21
20.3835624
  0
LINE
  5
6FB
100
AcDbEntity
  8
DRAFT
100
AcDbLine
 62
7
  6
CONTINUOUS
 10
-16.7470400314
 20
20.4
 11
-17.3879828328
 21
20.4
  0
LINE
  5
6FC
100
AcDbEntity
  8
DRAFT
100
AcDbLine
 62
7
  6
CONTINUOUS
 10
-16.7463690317
 20
20.4209440361
 11
-17.3670387967
 21
20.4209440361
  0
LINE
  5
6FD
100
AcDbEntity
  8
0
100
AcDbLine
 62
7
  6
CONTINUOUS
 10
-17.1879828328
 20
20.45
 11
-15.9317091002
 21
20.45
  0
LINE
  5
6FE
100
AcDbEntity
  8
0
100
AcDbLine
 62
7
  6
CONTINUOUS
 10
-15.9205023391
 20
20.45
 11
-15.1379828328
 21
20.45
  0
LINE
  5
6FF
100
AcDbEntity
  8
ASSI
100
AcDbLine
 62
7
  6
CONTINUOUS
 10
-15.1379828328
 20
20.45
 11
-7.2379828328
 21
20.45
  0
LINE
  5
700
100
AcDbEntity
  8
0
100
AcDbLine
 62
7
  6
CONTINUOUS
 10
-5.1879828328
 20
20.45
 11
-7.2379828328
 21
20.45
  0
LINE
  5
701
100
AcDbEntity
  8
ASSI
100
AcDbLine
 62
7
  6
CONTINUOUS
 10
-2.9379828328
 20
20.75
 11
2.5620171672
 21
20.75
  0
LINE
  5
702
100
AcDbEntity
  8
DRAFT
100
AcDbLine
 62
7
  6
CONTINUOUS
 10
-20.6554497498
 20
20.8214581899
 11
-18.8665246429
 21
20.8214581899
  0
LINE
  5
703
100
AcDbEntity
  8
DRAFT
100
AcDbLine
 62
7
  6
CONTINUOUS
 10
-5.1879828328
 20
20.8476387933
 11
-5.0089268689
 21
20.8476387933
  0
LINE
  5
704
100
AcDbEntity
  8
DRAFT
100
AcDbLine
 62
7
  6
CONTINUOUS
 10
-17.1879828328
 20
20.8476387933
 11
-17.3670387967
 21
20.8476387933
  0
LINE
  5
705
100
AcDbEntity
  8
RACCORDO
100
AcDbLine
 62
7
  6
CONTINUOUS
 10
-18.7089268689
 20
20.8476387933
 11
-18.7943534463
 21
20.8476387933
  0
LINE
  5
706
100
AcDbEntity
  8
0
100
AcDbLine
 62
7
  6
CONTINUOUS
 10
-17.1879828328
 20
20.85
 11
-15.1379828328
 21
20.85
  0
LINE
  5
707
100
AcDbEntity
  8
0
100
AcDbLine
 62
7
  6
CONTINUOUS
 10
-5.1879828328
 20
20.85
 11
-6.4442565655
 21
20.85
  0
LINE
  5
708
100
AcDbEntity
  8
0
100
AcDbLine
 62
7
  6
CONTINUOUS
 10
-6.4554633265
 20
20.85
 11
-7.2379828328
 21
20.85
  0
LINE
  5
709
100
AcDbEntity
  8
0
100
AcDbLine
 62
7
  6
CONTINUOUS
 10
-18.7943534463
 20
20.8936293865
 11
-20.1879828328
 21
20.8936293865
  0
LINE
  5
70A
100
AcDbEntity
  8
0
100
AcDbLine
 62
7
  6
CONTINUOUS
 10
-20.6879828328
 20
20.9
 11
-20.1879828328
 21
20.9
  0
LINE
  5
70B
100
AcDbEntity
  8
RACCORDO
100
AcDbLine
 62
7
  6
CONTINUOUS
 10
-19.9669125994
 20
20.9
 11
-20.0880018713
 21
20.9
  0
LINE
  5
70C
100
AcDbEntity
  8
RACCORDO
100
AcDbLine
 62
7
  6
CONTINUOUS
 10
-7.1001710936
 20
20.9476387933
 11
-7.4379828328
 21
20.9476387933
  0
LINE
  5
70D
100
AcDbEntity
  8
DRAFT
100
AcDbLine
 62
7
  6
CONTINUOUS
 10
-14.9379828328
 20
20.9476387933
 11
-15.6365379232
 21
20.9476387933
  0
LINE
  5
70E
100
AcDbEntity
  8
RACCORDO
100
AcDbLine
 62
7
  6
CONTINUOUS
 10
-17.4639294292
 20
20.9759465964
 11
-16.6207015721
 21
20.9759465964
  0
LINE
  5
70F
100
AcDbEntity
  8
RACCORDO
100
AcDbLine
 62
7
  6
CONTINUOUS
 10
-5.7552640936
 20
20.9759465964
 11
-4.9120362364
 21
20.9759465964
  0
LINE
  5
710
100
AcDbEntity
  8
DRAFT
100
AcDbLine
 62
7
  6
CONTINUOUS
 10
-19.9983286536
 20
20.9785418101
 11
-18.6094410227
 21
20.9785418101
  0
LINE
  5
711
100
AcDbEntity
  8
RACCORDO
100
AcDbLine
 62
7
  6
CONTINUOUS
 10
-7.4379828328
 20
20.9808008909
 11
-7.0745775586
 21
20.9808008909
  0
LINE
  5
712
100
AcDbEntity
  8
RACCORDO
100
AcDbLine
 62
7
  6
CONTINUOUS
 10
-14.9379828328
 20
20.9808008909
 11
-15.3564449816
 21
20.9808008909
  0
LINE
  5
713
100
AcDbEntity
  8
0
100
AcDbLine
 62
7
  6
CONTINUOUS
 10
2.5620171672
 20
21.25
 11
-2.9379828328
 21
21.25
  0
LINE
  5
714
100
AcDbEntity
  8
RACCORDO
100
AcDbLine
 62
250
  6
CONTINUOUS
 10
-17.7639180061
 20
21.2759351733
 11
-16.631177404
 21
21.2759351733
  0
LINE
  5
715
100
AcDbEntity
  8
RACCORDO
100
AcDbLine
 62
250
  6
CONTINUOUS
 10
-5.7447882616
 20
21.2759351733
 11
-4.6379828328
 21
21.2759351733
  0
LINE
  5
716
100
AcDbEntity
  8
RACCORDO
100
AcDbLine
 62
250
  6
CONTINUOUS
 10
-4.6379828328
 20
19.8650076281
 11
-5.7336905657
 21
19.8654120854
  0
LWPOLYLINE
  5
717
100
AcDbEntity
  8
ASSI
100
AcDbPolyline
 62
7
  6
CONTINUOUS
 90
25
 70
0
 10
-7.2379828328
 20
20.85
 10
-7.2584684705
 20
20.8500844485
 10
-7.2774350644
 20
20.8503393052
 10
-7.2948826142
 20
20.8507668005
 10
-7.3106869198
 20
20.8513703865
 10
-7.3249721813
 20
20.8521515576
 10
-7.3381110003
 20
20.8531066334
 10
-7.3501416412
 20
20.8542324803
 10
-7.3610258394
 20
20.8555297677
 10
-7.3710214028
 20
20.85699756
 10
-7.38015024
 20
20.8586307808
 10
-7.3883904423
 20
20.860431592
 10
-7.3959340914
 20
20.862413457
 10
-7.4028158023
 20
20.8645790464
 10
-7.4090009601
 20
20.8669304655
 10
-7.4145778011
 20
20.8694872716
 10
-7.4195738096
 20
20.8722642512
 10
-7.4239615014
 20
20.8752590179
 10
-7.42774666
 20
20.8784670176
 10
-7.4309250338
 20
20.8818963567
 10
-7.4335008745
 20
20.8855467702
 10
-7.4354927208
 20
20.8893954685
 10
-7.4369067525
 20
20.8934328673
 10
-7.4377367898
 20
20.8976668341
 10
-7.4379828328
 20
20.9020967918
  0
LINE
  5
718
100
AcDbEntity
  8
RACCORDO
100
AcDbLine
 62
250
  6
CONTINUOUS
 10
-5.4137854174
 20
20.164996205
 11
-5.513235353
 21
20.1652273154
  0
LINE
  5
719
100
AcDbEntity
  8
RACCORDO
100
AcDbLine
 62
250
  6
CONTINUOUS
 10
-5.7336905657
 20
19.8654120854
 11
-5.8655984457
 21
19.8660051743
  0
LWPOLYLINE
  5
71A
100
AcDbEntity
  8
ASSI
100
AcDbPolyline
 62
7
  6
CONTINUOUS
 90
25
 70
0
 10
-7.2379828328
 20
20.45
 10
-7.2584684705
 20
20.4501520073
 10
-7.2774350644
 20
20.4506107494
 10
-7.2948826142
 20
20.4513802408
 10
-7.3106869198
 20
20.4524666957
 10
-7.3249721813
 20
20.4538728037
 10
-7.3381110003
 20
20.4555919401
 10
-7.3501416412
 20
20.4576184646
 10
-7.3610258394
 20
20.4599535819
 10
-7.3710214028
 20
20.462595608
 10
-7.38015024
 20
20.4655354054
 10
-7.3883904423
 20
20.4687768655
 10
-7.3959340914
 20
20.4723442225
 10
-7.4028158023
 20
20.4762422836
 10
-7.4090009601
 20
20.4804748379
 10
-7.4145778011
 20
20.4850770889
 10
-7.4195738096
 20
20.4900756521
 10
-7.4239615014
 20
20.4954662322
 10
-7.42774666
 20
20.5012406316
 10
-7.4309250338
 20
20.5074134421
 10
-7.4335008745
 20
20.5139841863
 10
-7.4354927208
 20
20.5209118434
 10
-7.4369067525
 20
20.5281791611
 10
-7.4377367898
 20
20.5358003014
 10
-7.4379828328
 20
20.5437742252
  0
LINE
  5
71B
100
AcDbEntity
  8
RACCORDO
100
AcDbLine
 62
250
  6
CONTINUOUS
 10
-5.513235353
 20
20.1652273154
 11
-5.5663494726
 21
20.1656132656
  0
LWPOLYLINE
  5
71C
100
AcDbEntity
  8
RACCORDO
100
AcDbPolyline
 62
250
  6
CONTINUOUS
 90
4
 70
0
 10
-15.2801655888
 20
19.9490396121
 10
-15.270462042
 20
19.9489395614
 10
-15.2644582584
 20
19.948935693
 10
-15.2621992867
 20
19.9490280068
  0
LWPOLYLINE
  5
71D
100
AcDbEntity
  8
RACCORDO
100
AcDbPolyline
 62
250
  6
CONTINUOUS
 90
5
 70
0
 10
-5.8655984457
 20
19.8660051743
 10
-5.8957945275
 20
19.8662890358
 10
-5.90550103
 20
19.8664351385
 10
-5.9115067064
 20
19.8665847167
 10
-5.9137663789
 20
19.8667377706
  0
LINE
  5
71E
100
AcDbEntity
  8
RACCORDO
100
AcDbLine
 62
250
  6
CONTINUOUS
 10
-5.5663494726
 20
20.1656132656
 11
-5.5864431918
 21
20.1658607343
  0
LINE
  5
71F
100
AcDbEntity
  8
RACCORDO
100
AcDbLine
 62
250
  6
CONTINUOUS
 10
-15.3306102014
 20
19.949916858
 11
-15.2801655888
 21
19.9490396121
  0
LWPOLYLINE
  5
720
100
AcDbEntity
  8
RACCORDO
100
AcDbPolyline
 62
250
  6
CONTINUOUS
 90
6
 70
0
 10
-5.5864431918
 20
20.1658607343
 10
-5.6012966162
 20
20.1661350768
 10
-5.6066272809
 20
20.166278824
 10
-5.6104589622
 20
20.1664247281
 10
-5.6128424692
 20
20.1665739026
 10
-5.613777802
 20
20.1667263475
  0
LINE
  5
721
100
AcDbEntity
  8
RACCORDO
100
AcDbLine
 62
250
  6
CONTINUOUS
 10
-7.1743430513
 20
21.3543909955
 11
-7.1239012778
 21
21.3533976081
  0
LINE
  5
722
100
AcDbEntity
  8
RACCORDO
100
AcDbLine
 62
250
  6
CONTINUOUS
 10
-15.6758167673
 20
19.9579222699
 11
-15.3306102014
 21
19.949916858
  0
LINE
  5
723
100
AcDbEntity
  8
RACCORDO
100
AcDbLine
 62
250
  6
CONTINUOUS
 10
-15.7621802482
 20
19.9601220862
 11
-15.6758167673
 21
19.9579222699
  0
LINE
  5
724
100
AcDbEntity
  8
RACCORDO
100
AcDbLine
 62
250
  6
CONTINUOUS
 10
-7.1239012778
 20
21.3533976081
 11
-6.8624609323
 21
21.3468443707
  0
LINE
  5
725
100
AcDbEntity
  8
RACCORDO
100
AcDbLine
 62
250
  6
CONTINUOUS
 10
-6.8624609323
 20
21.3468443707
 11
-6.6923272275
 21
21.3421935524
  0
LWPOLYLINE
  5
726
100
AcDbEntity
  8
RACCORDO
100
AcDbPolyline
 62
250
  6
CONTINUOUS
 90
5
 70
0
 10
-15.5555082896
 20
20.2486110452
 10
-15.5501692321
 20
20.2484126512
 10
-15.5463278431
 20
20.248312672
 10
-15.5439333181
 20
20.2483089177
 10
-15.5429856572
 20
20.2484013883
  0
LINE
  5
727
100
AcDbEntity
  8
RACCORDO
100
AcDbLine
 62
250
  6
CONTINUOUS
 10
-15.5703745835
 20
20.2492899387
 11
-15.5555082896
 21
20.2486110452
  0
LINE
  5
728
100
AcDbEntity
  8
RACCORDO
100
AcDbLine
 62
250
  6
CONTINUOUS
 10
-6.9007587005
 20
21.0549058878
 11
-6.8859052413
 21
21.0541421767
  0
LINE
  5
729
100
AcDbEntity
  8
RACCORDO
100
AcDbLine
 62
250
  6
CONTINUOUS
 10
-15.6022299926
 20
20.2509741257
 11
-15.5703745835
 21
20.2492899387
  0
LINE
  5
72A
100
AcDbEntity
  8
RACCORDO
100
AcDbLine
 62
250
  6
CONTINUOUS
 10
-6.8859052413
 20
21.0541421767
 11
-6.8540596541
 21
21.052274742
  0
LINE
  5
72B
100
AcDbEntity
  8
RACCORDO
100
AcDbLine
 62
250
  6
CONTINUOUS
 10
-15.6751529279
 20
20.255248944
 11
-15.6022299926
 21
20.2509741257
  0
LINE
  5
72C
100
AcDbEntity
  8
RACCORDO
100
AcDbLine
 62
250
  6
CONTINUOUS
 10
-15.7429780418
 20
20.2594954677
 11
-15.6751529279
 21
20.255248944
  0
LINE
  5
72D
100
AcDbEntity
  8
RACCORDO
100
AcDbLine
 62
7
  6
CONTINUOUS
 10
-16.7494731892
 20
20.3240534036
 11
-15.7429780418
 21
20.2594954677
  0
LINE
  5
72E
100
AcDbEntity
  8
RACCORDO
100
AcDbLine
 62
7
  6
CONTINUOUS
 10
-15.468773568
 20
20.3180102908
 11
-16.7470400314
 21
20.4
  0
LINE
  5
72F
100
AcDbEntity
  8
RACCORDO
100
AcDbLine
 62
7
  6
CONTINUOUS
 10
-15.4164210902
 20
20.3356394082
 11
-16.7463690317
 21
20.4209440361
  0
LINE
  5
730
100
AcDbEntity
  8
RACCORDO
100
AcDbLine
 62
250
  6
CONTINUOUS
 10
-6.8540596541
 20
21.052274742
 11
-6.7811265003
 21
21.0475778291
  0
LINE
  5
731
100
AcDbEntity
  8
RACCORDO
100
AcDbLine
 62
250
  6
CONTINUOUS
 10
-6.7811265003
 20
21.0475778291
 11
-6.7132533728
 21
21.0429357325
  0
LINE
  5
732
100
AcDbEntity
  8
RACCORDO
100
AcDbLine
 62
7
  6
CONTINUOUS
 10
-5.9666335391
 20
20.8621058701
 11
-5.7935115304
 21
20.85
  0
LINE
  5
733
100
AcDbEntity
  8
RACCORDO
100
AcDbLine
 62
7
  6
CONTINUOUS
 10
-6.7132533728
 20
21.0429357325
 11
-5.7552640936
 21
20.9759465964
  0
LINE
  5
734
100
AcDbEntity
  8
RACCORDO
100
AcDbLine
 62
250
  6
CONTINUOUS
 10
-6.6923272275
 20
21.3421935524
 11
-5.7447882616
 21
21.2759351733
  0
LINE
  5
735
100
AcDbEntity
  8
RACCORDO
100
AcDbLine
 62
7
  6
CONTINUOUS
 10
-7.039823418
 20
20.937150617
 11
-6.3406377743
 21
20.8881466008
  0
LINE
  5
736
100
AcDbEntity
  8
RACCORDO
100
AcDbLine
 62
7
  6
CONTINUOUS
 10
-6.3406377743
 20
20.8881466008
 11
-6.0260098376
 21
20.8652838145
  0
LINE
  5
737
100
AcDbEntity
  8
RACCORDO
100
AcDbLine
 62
7
  6
CONTINUOUS
 10
-6.0260098376
 20
20.8652838145
 11
-5.9875034333
 21
20.8622891866
  0
LWPOLYLINE
  5
738
100
AcDbEntity
  8
RACCORDO
100
AcDbPolyline
 62
7
  6
CONTINUOUS
 90
5
 70
0
 10
-5.9875034333
 20
20.8622891866
 10
-5.9743651039
 20
20.8611950264
 10
-5.9702263811
 20
20.8608141383
 10
-5.9675906554
 20
20.8605355371
 10
-5.9664579268
 20
20.8603592228
  0
LINE
  5
739
100
AcDbEntity
  8
DRAFT
100
AcDbLine
 62
7
  6
CONTINUOUS
 10
-2.3879828328
 20
22.4789297666
 11
-2.4406595395
 21
22.5
  0
LWPOLYLINE
  5
73A
100
AcDbEntity
  8
RACCORDO
100
AcDbPolyline
 62
250
  6
CONTINUOUS
 90
13
 70
0
 10
21.6011630997
 20
18.8391573555
 10
21.5985939226
 20
18.8783118349
 10
21.5909363098
 20
18.916796435
 10
21.5783212725
 20
18.9539527377
 10
21.5609646367
 20
18.9891450496
 10
21.5391633503
 20
19.0217712791
 10
21.5132904033
 20
19.0512732361
 10
21.4837884463
 20
19.0771461831
 10
21.4511622168
 20
19.0989474695
 10
21.4159699049
 20
19.1163041053
 10
21.3788136022
 20
19.1289191426
 10
21.3403290021
 20
19.1365767554
 10
21.3011745227
 20
19.1391459325
  0
LINE
  5
73B
100
AcDbEntity
  8
RACCORDO
100
AcDbLine
 62
7
  6
CONTINUOUS
 10
6.9097580864
 20
-22.4712502867
 11
6.8396215517
 21
-22.4993043024
  0
LINE
  5
73C
100
AcDbEntity
  8
RACCORDO
100
AcDbLine
 62
250
  6
CONTINUOUS
 10
6.6324454613
 20
-20.9790380459
 11
6.6114878538
 21
-20.9859776244
  0
LINE
  5
73D
100
AcDbEntity
  8
RACCORDO
100
AcDbLine
 62
250
  6
CONTINUOUS
 10
6.9097580864
 20
-21.2788844745
 11
6.8905521234
 21
-21.2852410692
  0
LINE
  5
73E
100
AcDbEntity
  8
RACCORDO
100
AcDbLine
 62
7
  6
CONTINUOUS
 10
-15.3675545387
 20
20.9790380459
 11
-15.6365379232
 21
20.9476387933
  0
LINE
  5
73F
100
AcDbEntity
  8
DRAFT
100
AcDbLine
 62
7
  6
CONTINUOUS
 10
-17.0463771445
 20
20.85
 11
-16.6180494585
 21
20.9
  0
LINE
  5
740
100
AcDbEntity
  8
DRAFT
100
AcDbLine
 62
7
  6
CONTINUOUS
 10
-15.6365379232
 20
20.9476387933
 11
-17.0328377193
 21
20.85
  0
LINE
  5
741
100
AcDbEntity
  8
RACCORDO
100
AcDbLine
 62
7
  6
CONTINUOUS
 10
-15.3885121462
 20
20.9859776244
 11
-16.6180494585
 21
20.9
  0
LINE
  5
742
100
AcDbEntity
  8
RACCORDO
100
AcDbLine
 62
7
  6
CONTINUOUS
 10
-16.6207015721
 20
20.9759465964
 11
-15.6627122928
 21
21.0429357325
  0
LINE
  5
743
100
AcDbEntity
  8
RACCORDO
100
AcDbLine
 62
250
  6
CONTINUOUS
 10
-16.631177404
 20
21.2759351733
 11
-15.6836384381
 21
21.3421935524
  0
LINE
  5
744
100
AcDbEntity
  8
RACCORDO
100
AcDbLine
 62
250
  6
CONTINUOUS
 10
-15.6627122928
 20
21.0429357325
 11
-15.5632711344
 21
21.0496577041
  0
LINE
  5
745
100
AcDbEntity
  8
RACCORDO
100
AcDbLine
 62
250
  6
CONTINUOUS
 10
-15.5632711344
 20
21.0496577041
 11
-15.5101537805
 21
21.0529851544
  0
LINE
  5
746
100
AcDbEntity
  8
RACCORDO
100
AcDbLine
 62
250
  6
CONTINUOUS
 10
-15.5101537805
 20
21.0529851544
 11
-15.4900604243
 21
21.0541421767
  0
LWPOLYLINE
  5
747
100
AcDbEntity
  8
RACCORDO
100
AcDbPolyline
 62
250
  6
CONTINUOUS
 90
6
 70
0
 10
-15.4900604243
 20
21.0541421767
 10
-15.4752069651
 20
21.0549058878
 10
-15.4698757174
 20
21.0551345958
 10
-15.4660427924
 20
21.0552563311
 10
-15.4636575227
 20
21.0552735309
 10
-15.4627199082
 20
21.0551861951
  0
LWPOLYLINE
  5
748
100
AcDbEntity
  8
RACCORDO
100
AcDbPolyline
 62
7
  6
CONTINUOUS
 90
25
 70
0
 10
-7.2379828328
 20
22.5007488485
 10
-7.251155459
 20
22.5006118295
 10
-7.2641614804
 20
22.5002159845
 10
-7.2770008972
 20
22.4995613135
 10
-7.28972711
 20
22.4986428109
 10
-7.3022867181
 20
22.4974654822
 10
-7.3145195193
 20
22.4960443449
 10
-7.3264213273
 20
22.4943762757
 10
-7.3379963284
 20
22.4924643977
 10
-7.3490968794
 20
22.4903330977
 10
-7.3597169028
 20
22.4879795649
 10
-7.3698624761
 20
22.4854066101
 10
-7.379404189
 20
22.4826470521
 10
-7.3883343063
 20
22.4796985006
 10
-7.3966605631
 20
22.4765633461
 10
-7.4042767553
 20
22.4732815784
 10
-7.4111737869
 20
22.4698513194
 10
-7.4173607539
 20
22.4662744474
 10
-7.4227587393
 20
22.4625965865
 10
-7.4273576364
 20
22.458816443
 10
-7.4311675518
 20
22.4549353107
 10
-7.4341398889
 20
22.4510026946
 10
-7.4362584486
 20
22.4470350967
 10
-7.4375394299
 20
22.443016015
 10
-7.4379828328
 20
22.4389454496
  0
LINE
  5
749
100
AcDbEntity
  8
RACCORDO
100
AcDbLine
 62
250
  6
CONTINUOUS
 10
-4.2306308375
 20
22.3105924994
 11
-4.2280128751
 21
22.3106041223
  0
LINE
  5
74A
100
AcDbEntity
  8
RACCORDO
100
AcDbLine
 62
250
  6
CONTINUOUS
 10
4.1520357864
 20
22.0106155454
 11
3.0011587571
 21
22.0106155454
  0
LINE
  5
74B
100
AcDbEntity
  8
RACCORDO
100
AcDbLine
 62
250
  6
CONTINUOUS
 10
-3.3771244227
 20
22.0106155454
 11
-4.528001452
 21
22.0106155454
  0
LINE
  5
74C
100
AcDbEntity
  8
RACCORDO
100
AcDbLine
 62
7
  6
CONTINUOUS
 10
-4.977637012
 20
22.1712478072
 11
-6.6923272275
 21
22.1712478072
  0
LINE
  5
74D
100
AcDbEntity
  8
RACCORDO
100
AcDbLine
 62
7
  6
CONTINUOUS
 10
-15.6836384381
 20
22.1712478072
 11
-17.3983286536
 21
22.1712478072
  0
LINE
  5
74E
100
AcDbEntity
  8
0
100
AcDbLine
 62
250
  6
CONTINUOUS
 10
-14.9379828328
 20
22.2059508647
 11
-7.4379828328
 21
22.2059508647
  0
LINE
  5
74F
100
AcDbEntity
  8
RACCORDO
100
AcDbLine
 62
7
  6
CONTINUOUS
 10
3.8520472095
 20
22.3106041223
 11
3.1743572427
 21
22.3106041223
  0
LINE
  5
750
100
AcDbEntity
  8
RACCORDO
100
AcDbLine
 62
7
  6
CONTINUOUS
 10
-3.5503229083
 20
22.3106041223
 11
-4.2280128751
 21
22.3106041223
  0
LINE
  5
751
100
AcDbEntity
  8
RACCORDO
100
AcDbLine
 62
7
  6
CONTINUOUS
 10
-4.3379942559
 20
22.4205855031
 11
-2.2085683359
 21
22.4205855031
  0
LINE
  5
752
100
AcDbEntity
  8
RACCORDO
100
AcDbLine
 62
7
  6
CONTINUOUS
 10
3.9629012771
 20
22.4214581899
 11
18.6794840842
 21
22.4214581899
  0
LINE
  5
753
100
AcDbEntity
  8
DRAFT
100
AcDbLine
 62
7
  6
CONTINUOUS
 10
-15.0902419136
 20
22.4712502867
 11
-14.9676047048
 21
22.4712502867
  0
LINE
  5
754
100
AcDbEntity
  8
DRAFT
100
AcDbLine
 62
7
  6
CONTINUOUS
 10
-7.4083609608
 20
22.4712502867
 11
-7.2857237521
 21
22.4712502867
  0
LINE
  5
755
100
AcDbEntity
  8
RACCORDO
100
AcDbLine
 62
7
  6
CONTINUOUS
 10
21.4445615276
 20
22.4719484213
 11
18.7839655885
 21
22.4719484213
  0
LINE
  5
756
100
AcDbEntity
  8
RACCORDO
100
AcDbLine
 62
7
  6
CONTINUOUS
 10
-19.1857963575
 20
22.4719484213
 11
-21.8205271932
 21
22.4719484213
  0
LINE
  5
757
100
AcDbEntity
  8
DRAFT
100
AcDbLine
 62
7
  6
CONTINUOUS
 10
-2.2879828328
 20
22.4789297666
 11
-2.3879828328
 21
22.4789297666
  0
LINE
  5
758
100
AcDbEntity
  8
DRAFT
100
AcDbLine
 62
7
  6
CONTINUOUS
 10
-2.4665246429
 20
22.4896541792
 11
-3.1724635501
 21
22.4896541792
  0
LINE
  5
759
100
AcDbEntity
  8
DRAFT
100
AcDbLine
 62
7
  6
CONTINUOUS
 10
18.7120171672
 20
22.5
 11
-2.2879828328
 21
22.5
  0
LINE
  5
75A
100
AcDbEntity
  8
DRAFT
100
AcDbLine
 62
7
  6
CONTINUOUS
 10
-2.4406595395
 20
22.5
 11
-3.1621177293
 21
22.5
  0
LINE
  5
75B
100
AcDbEntity
  8
RACCORDO
100
AcDbLine
 62
7
  6
CONTINUOUS
 10
-15.1603784483
 20
22.5007488485
 11
-15.1379828328
 21
22.5007488485
  0
LINE
  5
75C
100
AcDbEntity
  8
RACCORDO
100
AcDbLine
 62
7
  6
CONTINUOUS
 10
-7.2155872173
 20
22.5007488485
 11
-7.2379828328
 21
22.5007488485
  0
LINE
  5
75D
100
AcDbEntity
  8
RACCORDO
100
AcDbLine
 62
250
  6
CONTINUOUS
 10
-3.1724635501
 20
22.7585974382
 11
-4.977637012
 21
22.7585974382
  0
LINE
  5
75E
100
AcDbEntity
  8
RACCORDO
100
AcDbLine
 62
250
  6
CONTINUOUS
 10
-17.3983286536
 20
22.7585974382
 11
-18.8440165946
 21
22.7585974382
  0
LINE
  5
75F
100
AcDbEntity
  8
RACCORDO
100
AcDbLine
 62
7
  6
CONTINUOUS
 10
-15.1621177293
 20
22.881171455
 11
-15.1379828328
 21
22.881171455
  0
LINE
  5
760
100
AcDbEntity
  8
RACCORDO
100
AcDbLine
 62
7
  6
CONTINUOUS
 10
-7.2138479363
 20
22.881171455
 11
-7.2379828328
 21
22.881171455
  0
LINE
  5
761
100
AcDbEntity
  8
DRAFT
100
AcDbLine
 62
7
  6
CONTINUOUS
 10
17.9602709361
 20
23.2219484213
 11
18.7839655885
 21
23.2219484213
  0
LINE
  5
762
100
AcDbEntity
  8
DRAFT
100
AcDbLine
 62
7
  6
CONTINUOUS
 10
-18.3791252195
 20
23.2219484213
 11
-19.1857963575
 21
23.2219484213
  0
LINE
  5
763
100
AcDbEntity
  8
DRAFT
100
AcDbLine
 62
7
  6
CONTINUOUS
 10
17.1330874006
 20
23.2289297666
 11
17.9532895908
 21
23.2289297666
  0
LINE
  5
764
100
AcDbEntity
  8
DRAFT
100
AcDbLine
 62
7
  6
CONTINUOUS
 10
-4.9879828328
 20
23.25
 11
-7.2138479363
 21
23.25
  0
LINE
  5
765
100
AcDbEntity
  8
DRAFT
100
AcDbLine
 62
7
  6
CONTINUOUS
 10
-15.1621177293
 20
23.25
 11
-17.3879828328
 21
23.25
  0
LINE
  5
766
100
AcDbEntity
  8
RACCORDO
100
AcDbLine
 62
7
  6
CONTINUOUS
 10
-3.1707121214
 20
23.2585943921
 11
-4.9793884407
 21
23.2585943921
  0
LINE
  5
767
100
AcDbEntity
  8
RACCORDO
100
AcDbLine
 62
7
  6
CONTINUOUS
 10
-17.3965772249
 20
23.2585943921
 11
-18.3415427466
 21
23.2585943921
  0
LINE
  5
768
100
AcDbEntity
  8
RACCORDO
100
AcDbLine
 62
7
  6
CONTINUOUS
 10
-6.8879828328
 20
23.9084094599
 11
-9.7879828328
 21
23.9084094599
  0
LINE
  5
769
100
AcDbEntity
  8
RACCORDO
100
AcDbLine
 62
7
  6
CONTINUOUS
 10
-12.5879828328
 20
23.9084094599
 11
-15.4879828328
 21
23.9084094599
  0
LINE
  5
76A
100
AcDbEntity
  8
RACCORDO
100
AcDbLine
 62
7
  6
CONTINUOUS
 10
-15.6879828328
 20
24.05
 11
-15.1212490676
 21
24.05
  0
LINE
  5
76B
100
AcDbEntity
  8
RACCORDO
100
AcDbLine
 62
7
  6
CONTINUOUS
 10
-7.254716598
 20
24.05
 11
-6.6879828328
 21
24.05
  0
LINE
  5
76C
100
AcDbEntity
  8
0
100
AcDbLine
 62
250
  6
CONTINUOUS
 10
-15.6879828328
 20
24.35
 11
-12.3879828328
 21
24.35
  0
LINE
  5
76D
100
AcDbEntity
  8
0
100
AcDbLine
 62
250
  6
CONTINUOUS
 10
-9.9879828328
 20
24.35
 11
-6.6879828328
 21
24.35
  0
LWPOLYLINE
  5
76E
100
AcDbEntity
  8
RACCORDO
100
AcDbPolyline
 62
7
  6
CONTINUOUS
 90
25
 70
0
 10
-15.1379828328
 20
22.881171455
 10
-15.1248102066
 20
22.881034436
 10
-15.1118041852
 20
22.880638591
 10
-15.0989647684
 20
22.8799839201
 10
-15.0862385556
 20
22.8790654174
 10
-15.0736789475
 20
22.8778880888
 10
-15.0614461463
 20
22.8764669514
 10
-15.0495443384
 20
22.8747988822
 10
-15.0379693372
 20
22.8728870043
 10
-15.0268687862
 20
22.8707557043
 10
-15.0162487628
 20
22.8684021715
 10
-15.0061031895
 20
22.8658292166
 10
-14.9965614766
 20
22.8630696586
 10
-14.9876313593
 20
22.8601211071
 10
-14.9793051025
 20
22.8569859526
 10
-14.9716889103
 20
22.8537041849
 10
-14.9647918787
 20
22.850273926
 10
-14.9586049117
 20
22.8466970539
 10
-14.9532069263
 20
22.843019193
 10
-14.9486080292
 20
22.8392390495
 10
-14.9447981138
 20
22.8353579172
 10
-14.9418257767
 20
22.8314253011
 10
-14.939707217
 20
22.8274577032
 10
-14.9384262357
 20
22.8234386215
 10
-14.9379828328
 20
22.8193680562
  0
LWPOLYLINE
  5
76F
100
AcDbEntity
  8
RACCORDO
100
AcDbPolyline
 62
7
  6
CONTINUOUS
 90
25
 70
0
 10
-15.4879828328
 20
23.9084094599
 10
-15.501155459
 20
23.9085464789
 10
-15.5141614804
 20
23.9089423239
 10
-15.5270008972
 20
23.9095969948
 10
-15.53972711
 20
23.9105154975
 10
-15.5522867181
 20
23.9116928261
 10
-15.5645195193
 20
23.9131139635
 10
-15.5764213273
 20
23.9147820327
 10
-15.5879963284
 20
23.9166939106
 10
-15.5990968794
 20
23.9188252106
 10
-15.6097169028
 20
23.9211787434
 10
-15.6198624761
 20
23.9237516983
 10
-15.629404189
 20
23.9265112563
 10
-15.6383343063
 20
23.9294598077
 10
-15.6466605631
 20
23.9325949623
 10
-15.6542767553
 20
23.93587673
 10
-15.6611737869
 20
23.9393069889
 10
-15.6673607539
 20
23.942883861
 10
-15.6727587393
 20
23.9465617219
 10
-15.6773576364
 20
23.9503418654
 10
-15.6811675518
 20
23.9542229977
 10
-15.6841398889
 20
23.9581556138
 10
-15.6862584486
 20
23.9621232117
 10
-15.6875394299
 20
23.9661422934
 10
-15.6879828328
 20
23.9702128587
  0
LWPOLYLINE
  5
770
100
AcDbEntity
  8
RACCORDO
100
AcDbPolyline
 62
7
  6
CONTINUOUS
 90
25
 70
0
 10
-9.7879828328
 20
23.9084094599
 10
-9.801155459
 20
23.9085464789
 10
-9.8141614804
 20
23.9089423239
 10
-9.8270008972
 20
23.9095969948
 10
-9.83972711
 20
23.9105154975
 10
-9.8522867181
 20
23.9116928261
 10
-9.8645195193
 20
23.9131139635
 10
-9.8764213273
 20
23.9147820327
 10
-9.8879963284
 20
23.9166939106
 10
-9.8990968794
 20
23.9188252106
 10
-9.9097169028
 20
23.9211787434
 10
-9.9198624761
 20
23.9237516983
 10
-9.929404189
 20
23.9265112563
 10
-9.9383343063
 20
23.9294598077
 10
-9.9466605631
 20
23.9325949623
 10
-9.9542767553
 20
23.93587673
 10
-9.9611737869
 20
23.9393069889
 10
-9.9673607539
 20
23.942883861
 10
-9.9727587393
 20
23.9465617219
 10
-9.9773576364
 20
23.9503418654
 10
-9.9811675518
 20
23.9542229977
 10
-9.9841398889
 20
23.9581556138
 10
-9.9862584486
 20
23.9621232117
 10
-9.9875394299
 20
23.9661422934
 10
-9.9879828328
 20
23.9702128587
  0
LINE
  5
771
100
AcDbEntity
  8
DRAFT
100
AcDbLine
 62
7
  6
CONTINUOUS
 10
18.3329612033
 20
-20.8476387933
 11
18.3120171672
 21
-20.9
  0
LINE
  5
772
100
AcDbEntity
  8
RACCORDO
100
AcDbLine
 62
7
  6
CONTINUOUS
 10
17.0879637636
 20
-20.3240534036
 11
16.9596559604
 21
-20.4523612067
  0
LINE
  5
773
100
AcDbEntity
  8
DRAFT
100
AcDbLine
 62
7
  6
CONTINUOUS
 10
18.3185056935
 20
-19.2435114737
 11
18.2334753571
 21
-19.3285418101
  0
LINE
  5
774
100
AcDbEntity
  8
0
100
AcDbLine
 62
7
  6
CONTINUOUS
 10
18.4905589773
 20
-19.1714581899
 11
18.4185056935
 21
-19.2435114737
  0
LINE
  5
775
100
AcDbEntity
  8
RACCORDO
100
AcDbLine
 62
7
  6
CONTINUOUS
 10
17.2052835004
 20
-20.2067567758
 11
17.3694487599
 21
-20.0424311501
  0
LINE
  5
776
100
AcDbEntity
  8
RACCORDO
100
AcDbLine
 62
7
  6
CONTINUOUS
 10
17.1886928014
 20
-20.2232492239
 11
17.2052835004
 21
-20.2067567758
  0
LINE
  5
777
100
AcDbEntity
  8
RACCORDO
100
AcDbLine
 62
7
  6
CONTINUOUS
 10
17.3694487599
 20
-20.0424311501
 11
17.3879523405
 21
-20.0240648267
  0
LWPOLYLINE
  5
778
100
AcDbEntity
  8
RACCORDO
100
AcDbPolyline
 62
7
  6
CONTINUOUS
 90
3
 70
0
 10
17.1437662791
 20
-20.2681415872
 10
17.1579341907
 20
-20.2541071084
 10
17.1886928014
 20
-20.2232492239
  0
LINE
  5
779
100
AcDbEntity
  8
RACCORDO
100
AcDbLine
 62
250
  6
CONTINUOUS
 10
14.8862336211
 20
-19.9490280068
 11
14.7910731311
 21
-20.0382713263
  0
LINE
  5
77A
100
AcDbEntity
  8
RACCORDO
100
AcDbLine
 62
250
  6
CONTINUOUS
 10
15.1670199916
 20
-20.2484013883
 11
15.0718684828
 21
-20.3376542835
  0
LWPOLYLINE
  5
77B
100
AcDbEntity
  8
RACCORDO
100
AcDbPolyline
 62
7
  6
CONTINUOUS
 90
7
 70
0
 10
17.0879637636
 20
-20.3240534036
 10
17.0901158427
 20
-20.3223996681
 10
17.0942684892
 20
-20.3181475416
 10
17.100421703
 20
-20.3115954642
 10
17.1088135462
 20
-20.3030700165
 10
17.1192059568
 20
-20.2928547243
 10
17.1437662791
 20
-20.2681415872
  0
LWPOLYLINE
  5
77C
100
AcDbEntity
  8
RACCORDO
100
AcDbPolyline
 62
7
  6
CONTINUOUS
 90
25
 70
0
 10
-9.7879828328
 20
24.5477429348
 10
-9.801155459
 20
24.5476059158
 10
-9.8141614804
 20
24.5472100708
 10
-9.8270008972
 20
24.5465553998
 10
-9.83972711
 20
24.5456368971
 10
-9.8522867181
 20
24.5444595685
 10
-9.8645195193
 20
24.5430384312
 10
-9.8764213273
 20
24.5413703619
 10
-9.8879963284
 20
24.539458484
 10
-9.8990968794
 20
24.537327184
 10
-9.9097169028
 20
24.5349736512
 10
-9.9198624761
 20
24.5324006963
 10
-9.929404189
 20
24.5296411384
 10
-9.9383343063
 20
24.5266925869
 10
-9.9466605631
 20
24.5235574323
 10
-9.9542767553
 20
24.5202756646
 10
-9.9611737869
 20
24.5168454057
 10
-9.9673607539
 20
24.5132685337
 10
-9.9727587393
 20
24.5095906727
 10
-9.9773576364
 20
24.5058105293
 10
-9.9811675518
 20
24.5019293969
 10
-9.9841398889
 20
24.4979967809
 10
-9.9862584486
 20
24.4940291829
 10
-9.9875394299
 20
24.4900101013
 10
-9.9879828328
 20
24.4859395359
  0
LWPOLYLINE
  5
77D
100
AcDbEntity
  8
RACCORDO
100
AcDbPolyline
 62
7
  6
CONTINUOUS
 90
25
 70
0
 10
-15.4879828328
 20
24.5477429348
 10
-15.501155459
 20
24.5476059158
 10
-15.5141614804
 20
24.5472100708
 10
-15.5270008972
 20
24.5465553998
 10
-15.53972711
 20
24.5456368971
 10
-15.5522867181
 20
24.5444595685
 10
-15.5645195193
 20
24.5430384312
 10
-15.5764213273
 20
24.5413703619
 10
-15.5879963284
 20
24.539458484
 10
-15.5990968794
 20
24.537327184
 10
-15.6097169028
 20
24.5349736512
 10
-15.6198624761
 20
24.5324006963
 10
-15.629404189
 20
24.5296411384
 10
-15.6383343063
 20
24.5266925869
 10
-15.6466605631
 20
24.5235574323
 10
-15.6542767553
 20
24.5202756646
 10
-15.6611737869
 20
24.5168454057
 10
-15.6673607539
 20
24.5132685337
 10
-15.6727587393
 20
24.5095906727
 10
-15.6773576364
 20
24.5058105293
 10
-15.6811675518
 20
24.5019293969
 10
-15.6841398889
 20
24.4979967809
 10
-15.6862584486
 20
24.4940291829
 10
-15.6875394299
 20
24.4900101013
 10
-15.6879828328
 20
24.4859395359
  0
LINE
  5
77E
100
AcDbEntity
  8
RACCORDO
100
AcDbLine
 62
7
  6
CONTINUOUS
 10
-15.4879828328
 20
24.5477429348
 11
-12.5879828328
 21
24.5477429348
  0
LINE
  5
77F
100
AcDbEntity
  8
RACCORDO
100
AcDbLine
 62
7
  6
CONTINUOUS
 10
-9.7879828328
 20
24.5477429348
 11
-6.8879828328
 21
24.5477429348
  0
LINE
  5
780
100
AcDbEntity
  8
RACCORDO
100
AcDbLine
 62
7
  6
CONTINUOUS
 10
-15.4879828328
 20
24.9281655413
 11
-12.5879828328
 21
24.9281655413
  0
LINE
  5
781
100
AcDbEntity
  8
RACCORDO
100
AcDbLine
 62
7
  6
CONTINUOUS
 10
-9.7879828328
 20
24.9281655413
 11
-6.8879828328
 21
24.9281655413
  0
LINE
  5
782
100
AcDbEntity
  8
0
100
AcDbLine
 62
250
  6
CONTINUOUS
 10
-17.1879828328
 20
25.0157395614
 11
-5.1879828328
 21
25.0157395614
  0
LINE
  5
783
100
AcDbEntity
  8
0
100
AcDbLine
 62
7
  6
CONTINUOUS
 10
-17.1879828328
 20
25.05
 11
-5.1879828328
 21
25.05
  0
LWPOLYLINE
  5
784
100
AcDbEntity
  8
RACCORDO
100
AcDbPolyline
 62
7
  6
CONTINUOUS
 90
25
 70
0
 10
-12.5879828328
 20
24.9281655413
 10
-12.5748102066
 20
24.9280285223
 10
-12.5618041852
 20
24.9276326773
 10
-12.5489647684
 20
24.9269780063
 10
-12.5362385556
 20
24.9260595037
 10
-12.5236789475
 20
24.924882175
 10
-12.5114461463
 20
24.9234610377
 10
-12.4995443384
 20
24.9217929685
 10
-12.4879693372
 20
24.9198810905
 10
-12.4768687862
 20
24.9177497905
 10
-12.4662487628
 20
24.9153962577
 10
-12.4561031895
 20
24.9128233029
 10
-12.4465614766
 20
24.9100637449
 10
-12.4376313593
 20
24.9071151934
 10
-12.4293051025
 20
24.9039800388
 10
-12.4216889103
 20
24.9006982711
 10
-12.4147918787
 20
24.8972680122
 10
-12.4086049117
 20
24.8936911402
 10
-12.4032069263
 20
24.8900132792
 10
-12.3986080292
 20
24.8862331358
 10
-12.3947981138
 20
24.8823520034
 10
-12.3918257767
 20
24.8784193874
 10
-12.389707217
 20
24.8744517894
 10
-12.3884262357
 20
24.8704327078
 10
-12.3879828328
 20
24.8663621424
  0
LWPOLYLINE
  5
785
100
AcDbEntity
  8
RACCORDO
100
AcDbPolyline
 62
7
  6
CONTINUOUS
 90
25
 70
0
 10
-6.8879828328
 20
24.9281655413
 10
-6.8748102066
 20
24.9280285223
 10
-6.8618041852
 20
24.9276326773
 10
-6.8489647684
 20
24.9269780063
 10
-6.8362385556
 20
24.9260595037
 10
-6.8236789475
 20
24.924882175
 10
-6.8114461463
 20
24.9234610377
 10
-6.7995443384
 20
24.9217929685
 10
-6.7879693372
 20
24.9198810905
 10
-6.7768687862
 20
24.9177497905
 10
-6.7662487628
 20
24.9153962577
 10
-6.7561031895
 20
24.9128233029
 10
-6.7465614766
 20
24.9100637449
 10
-6.7376313593
 20
24.9071151934
 10
-6.7293051025
 20
24.9039800388
 10
-6.7216889103
 20
24.9006982711
 10
-6.7147918787
 20
24.8972680122
 10
-6.7086049117
 20
24.8936911402
 10
-6.7032069263
 20
24.8900132792
 10
-6.6986080292
 20
24.8862331358
 10
-6.6947981138
 20
24.8823520034
 10
-6.6918257767
 20
24.8784193874
 10
-6.689707217
 20
24.8744517894
 10
-6.6884262357
 20
24.8704327078
 10
-6.6879828328
 20
24.8663621424
  0
LINE
  5
786
100
AcDbEntity
  8
DRAFT
100
AcDbLine
 62
7
  6
CONTINUOUS
 10
19.6120171672
 20
-21.5702021902
 11
19.5334753571
 21
-21.6931730102
  0
LINE
  5
787
100
AcDbEntity
  8
DRAFT
100
AcDbLine
 62
7
  6
CONTINUOUS
 10
18.3120171672
 20
-20.9
 11
18.2334753571
 21
-20.9785418101
  0
LINE
  5
788
100
AcDbEntity
  8
0
100
AcDbLine
 62
7
  6
CONTINUOUS
 10
18.4905589773
 20
-20.8214581899
 11
18.4183877807
 21
-20.8936293865
  0
LINE
  5
789
100
AcDbEntity
  8
DRAFT
100
AcDbLine
 62
7
  6
CONTINUOUS
 10
19.6120171672
 20
-20.9
 11
19.5334753571
 21
-20.9785418101
  0
LINE
  5
78A
100
AcDbEntity
  8
DRAFT
100
AcDbLine
 62
7
  6
CONTINUOUS
 10
20.2794840842
 20
-20.8214581899
 11
21.6334753571
 21
-19.467466917
  0
LINE
  5
78B
100
AcDbEntity
  8
DRAFT
100
AcDbLine
 62
7
  6
CONTINUOUS
 10
20.2822193574
 20
-20.9
 11
19.6120171672
 21
-21.5702021902
  0
LINE
  5
78C
100
AcDbEntity
  8
DRAFT
100
AcDbLine
 62
7
  6
CONTINUOUS
 10
20.3120171672
 20
-20.9
 11
21.7120171672
 21
-19.5
  0
LINE
  5
78D
100
AcDbEntity
  8
RACCORDO
100
AcDbLine
 62
7
  6
CONTINUOUS
 10
18.468050929
 20
-22.7585974382
 11
19.5334753571
 21
-21.6931730102
  0
LINE
  5
78E
100
AcDbEntity
  8
DRAFT
100
AcDbLine
 62
7
  6
CONTINUOUS
 10
21.6334753571
 20
19.467466917
 11
18.6794840842
 21
22.4214581899
  0
LINE
  5
78F
100
AcDbEntity
  8
DRAFT
100
AcDbLine
 62
7
  6
CONTINUOUS
 10
18.6822193574
 20
22.5
 11
17.9532895908
 21
23.2289297666
  0
LINE
  5
790
100
AcDbEntity
  8
DRAFT
100
AcDbLine
 62
7
  6
CONTINUOUS
 10
21.7120171672
 20
19.5
 11
18.7120171672
 21
22.5
  0
ARC
  5
791
100
AcDbEntity
  8
RACCORDO
100
AcDbCircle
 62
250
  6
CONTINUOUS
 10
-7.4379828328
 20
-11.2
 40
3.7973929033
100
AcDbArc
 50
270.0
 51
90.0
  0
ARC
  5
792
100
AcDbEntity
  8
RACCORDO
100
AcDbCircle
 62
7
  6
CONTINUOUS
 10
-7.4379828328
 20
-11.2
 40
3.4974047862
100
AcDbArc
 50
270.0
 51
90.0
  0
ARC
  5
793
100
AcDbEntity
  8
RACCORDO
100
AcDbCircle
 62
7
  6
CONTINUOUS
 10
-7.4379828328
 20
-11.2
 40
3.4764146101
100
AcDbArc
 50
270.0
 51
90.0
  0
ARC
  5
794
100
AcDbEntity
  8
RACCORDO
100
AcDbCircle
 62
250
  6
CONTINUOUS
 10
-7.4379828328
 20
-11.2
 40
3.1764236636
100
AcDbArc
 50
270.0
 51
90.0
  0
ARC
  5
795
100
AcDbEntity
  8
RACCORDO
100
AcDbCircle
 62
250
  6
CONTINUOUS
 10
-7.4379828328
 20
-11.2
 40
2.7952013025
100
AcDbArc
 50
270.0
 51
90.0
  0
ARC
  5
796
100
AcDbEntity
  8
RACCORDO
100
AcDbCircle
 62
250
  6
CONTINUOUS
 10
-7.4379828328
 20
-11.2
 40
2.4997587116
100
AcDbArc
 50
270.0
 51
90.0
  0
ARC
  5
797
100
AcDbEntity
  8
DRAFT
100
AcDbCircle
 62
7
  6
CONTINUOUS
 10
-7.4379828328
 20
-11.2
 40
2.0144904711
100
AcDbArc
 50
90.0
 51
270.0
  0
CIRCLE
  5
798
100
AcDbEntity
  8
ASSI
100
AcDbCircle
 62
7
  6
CONTINUOUS
 10
-11.9379828328
 20
-11.2
 40
2.0144904711
  0
CIRCLE
  5
799
100
AcDbEntity
  8
0
100
AcDbCircle
 62
7
  6
CONTINUOUS
 10
-7.4379828328
 20
-11.2
 40
1.75
  0
CIRCLE
  5
79A
100
AcDbEntity
  8
ASSI
100
AcDbCircle
 62
7
  6
CONTINUOUS
 10
-11.9379828328
 20
-11.2
 40
1.75
  0
ARC
  5
79B
100
AcDbEntity
  8
ASSI
100
AcDbCircle
 62
7
  6
CONTINUOUS
 10
-19.6294038328
 20
-7.493382
 40
0.8587214994
100
AcDbArc
 50
22.8428407018
 51
179.9992264575
  0
ARC
  5
79C
100
AcDbEntity
  8
ASSI
100
AcDbCircle
 62
7
  6
CONTINUOUS
 10
-19.6294038328
 20
-7.571112
 40
0.340698
100
AcDbArc
 50
0.0012552584
 51
180.0
  0
ARC
  5
79D
100
AcDbEntity
  8
DRAFT
100
AcDbCircle
 62
7
  6
CONTINUOUS
 10
-5.4527015801
 20
19.45
 40
0.2311585519
100
AcDbArc
 50
286.5266748687
 51
7.090411008
  0
ARC
  5
79E
100
AcDbEntity
  8
RACCORDO
100
AcDbCircle
 62
7
  6
CONTINUOUS
 10
-15.1212490676
 20
23.85
 40
0.2
100
AcDbArc
 50
16.985427259
 51
90.0
  0
ARC
  5
79F
100
AcDbEntity
  8
RACCORDO
100
AcDbCircle
 62
7
  6
CONTINUOUS
 10
-7.254716598
 20
23.85
 40
0.2
100
AcDbArc
 50
90.0
 51
163.014572741
  0
ARC
  5
7A0
100
AcDbEntity
  8
DRAFT
100
AcDbCircle
 62
7
  6
CONTINUOUS
 10
-5.4527015801
 20
19.45
 40
0.15
100
AcDbArc
 50
286.8635047535
 51
34.4436910546
  0
ARC
  5
7A1
100
AcDbEntity
  8
RACCORDO
100
AcDbCircle
 62
250
  6
CONTINUOUS
 10
7.0620171672
 20
-11.2
 40
3.7973929033
100
AcDbArc
 50
90.0
 51
270.0
  0
ARC
  5
7A2
100
AcDbEntity
  8
RACCORDO
100
AcDbCircle
 62
7
  6
CONTINUOUS
 10
7.0620171672
 20
-11.2
 40
3.4974047862
100
AcDbArc
 50
90.0
 51
270.0
  0
ARC
  5
7A3
100
AcDbEntity
  8
RACCORDO
100
AcDbCircle
 62
7
  6
CONTINUOUS
 10
7.0620171672
 20
-11.2
 40
3.4764146101
100
AcDbArc
 50
90.0
 51
270.0
  0
ARC
  5
7A4
100
AcDbEntity
  8
RACCORDO
100
AcDbCircle
 62
250
  6
CONTINUOUS
 10
7.0620171672
 20
-11.2
 40
3.1764236636
100
AcDbArc
 50
90.0
 51
270.0
  0
CIRCLE
  5
7A5
100
AcDbEntity
  8
ASSI
100
AcDbCircle
 62
7
  6
CONTINUOUS
 10
-0.1879828328
 20
-11.5
 40
3.0
  0
ARC
  5
7A6
100
AcDbEntity
  8
RACCORDO
100
AcDbCircle
 62
250
  6
CONTINUOUS
 10
7.0620171672
 20
-11.2
 40
2.7952013025
100
AcDbArc
 50
90.0
 51
270.0
  0
ARC
  5
7A7
100
AcDbEntity
  8
RACCORDO
100
AcDbCircle
 62
250
  6
CONTINUOUS
 10
7.0620171672
 20
-11.2
 40
2.4997587119
100
AcDbArc
 50
90.0
 51
270.0
  0
ARC
  5
7A8
100
AcDbEntity
  8
DRAFT
100
AcDbCircle
 62
7
  6
CONTINUOUS
 10
7.0620171672
 20
-11.2
 40
2.0144904711
100
AcDbArc
 50
270.0
 51
90.0
  0
CIRCLE
  5
7A9
100
AcDbEntity
  8
ASSI
100
AcDbCircle
 62
7
  6
CONTINUOUS
 10
11.5620171672
 20
-11.2
 40
2.0144904711
  0
CIRCLE
  5
7AA
100
AcDbEntity
  8
0
100
AcDbCircle
 62
7
  6
CONTINUOUS
 10
7.0620171672
 20
-11.2
 40
1.75
  0
CIRCLE
  5
7AB
100
AcDbEntity
  8
ASSI
100
AcDbCircle
 62
7
  6
CONTINUOUS
 10
11.5620171672
 20
-11.2
 40
1.75
  0
ARC
  5
7AC
100
AcDbEntity
  8
DRAFT
100
AcDbCircle
 62
7
  6
CONTINUOUS
 10
5.0720171672
 20
-19.45
 40
0.2311585519
100
AcDbArc
 50
105.1329105048
 51
187.385364266
  0
ARC
  5
7AD
100
AcDbEntity
  8
RACCORDO
100
AcDbCircle
 62
7
  6
CONTINUOUS
 10
14.745283402
 20
-23.85
 40
0.2
100
AcDbArc
 50
196.985427259
 51
270.0
  0
ARC
  5
7AE
100
AcDbEntity
  8
RACCORDO
100
AcDbCircle
 62
7
  6
CONTINUOUS
 10
6.8787509324
 20
-23.85
 40
0.2
100
AcDbArc
 50
270.0
 51
343.014572741
  0
ARC
  5
7AF
100
AcDbEntity
  8
DRAFT
100
AcDbCircle
 62
7
  6
CONTINUOUS
 10
5.0720171672
 20
-19.45
 40
0.15
100
AcDbArc
 50
105.1329105048
 51
214.9315142918
  0
ARC
  5
7B0
100
AcDbEntity
  8
RACCORDO
100
AcDbCircle
 62
7
  6
CONTINUOUS
 10
-1.2379828328
 20
8.45
 40
0.2
100
AcDbArc
 50
240.0947846597
 51
270.0
  0
ARC
  5
7B1
100
AcDbEntity
  8
RACCORDO
100
AcDbCircle
 62
7
  6
CONTINUOUS
 10
-1.2379828328
 20
8.45
 40
0.2
100
AcDbArc
 50
180.0
 51
227.294484225
  0
ARC
  5
7B2
100
AcDbEntity
  8
RACCORDO
100
AcDbCircle
 62
250
  6
CONTINUOUS
 10
-0.1879828328
 20
-0.0
 40
21.8459010354
100
AcDbArc
 50
106.902572744
 51
107.3590210919
  0
ARC
  5
7B3
100
AcDbEntity
  8
RACCORDO
100
AcDbCircle
 62
250
  6
CONTINUOUS
 10
-0.1879828328
 20
-0.0
 40
21.8459010354
100
AcDbArc
 50
286.6703895912
 51
287.362239289
  0
ARC
  5
7B4
100
AcDbEntity
  8
DRAFT
100
AcDbCircle
 62
7
  6
CONTINUOUS
 10
-0.1879828328
 20
-0.0
 40
21.7
100
AcDbArc
 50
275.5534715241
 51
275.8187858665
  0
ARC
  5
7B5
100
AcDbEntity
  8
RACCORDO
100
AcDbCircle
 62
7
  6
CONTINUOUS
 10
-0.1879828328
 20
-0.0
 40
21.6459086508
100
AcDbArc
 50
109.1242692966
 51
109.6580768267
  0
ARC
  5
7B6
100
AcDbEntity
  8
RACCORDO
100
AcDbCircle
 62
7
  6
CONTINUOUS
 10
-0.1879828328
 20
-0.0
 40
21.6459086508
100
AcDbArc
 50
105.4831284327
 51
105.5812196002
  0
ARC
  5
7B7
100
AcDbEntity
  8
RACCORDO
100
AcDbCircle
 62
7
  6
CONTINUOUS
 10
-0.1879828328
 20
-0.0
 40
21.6459086508
100
AcDbArc
 50
289.1238123824
 51
289.6623064085
  0
ARC
  5
7B8
100
AcDbEntity
  8
RACCORDO
100
AcDbCircle
 62
7
  6
CONTINUOUS
 10
-0.1879828328
 20
-0.0
 40
21.6459086508
100
AcDbArc
 50
285.223898293
 51
285.5743930114
  0
ARC
  5
7B9
100
AcDbEntity
  8
DRAFT
100
AcDbCircle
 62
7
  6
CONTINUOUS
 10
-0.1879828328
 20
-0.0
 40
21.6127313221
100
AcDbArc
 50
105.2065719627
 51
105.2488663532
  0
ARC
  5
7BA
100
AcDbEntity
  8
DRAFT
100
AcDbCircle
 62
7
  6
CONTINUOUS
 10
-0.1879828328
 20
-0.0
 40
21.6127313221
100
AcDbArc
 50
108.8622931569
 51
109.6473884893
  0
ARC
  5
7BB
100
AcDbEntity
  8
DRAFT
100
AcDbCircle
 62
7
  6
CONTINUOUS
 10
-0.1879828328
 20
-0.0
 40
21.6127313221
100
AcDbArc
 50
275.5777817337
 51
275.7787498979
  0
ARC
  5
7BC
100
AcDbEntity
  8
DRAFT
100
AcDbCircle
 62
7
  6
CONTINUOUS
 10
-0.1879828328
 20
-0.0
 40
21.6127313221
100
AcDbArc
 50
284.9625831915
 51
285.2488663532
  0
ARC
  5
7BD
100
AcDbEntity
  8
DRAFT
100
AcDbCircle
 62
7
  6
CONTINUOUS
 10
-0.1879828328
 20
-0.0
 40
21.6127313221
100
AcDbArc
 50
288.8622931569
 51
289.6473884893
  0
ARC
  5
7BE
100
AcDbEntity
  8
DRAFT
100
AcDbCircle
 62
7
  6
CONTINUOUS
 10
-0.1879828328
 20
-0.0
 40
20.2
100
AcDbArc
 50
104.4032682346
 51
104.7443011771
  0
ARC
  5
7BF
100
AcDbEntity
  8
DRAFT
100
AcDbCircle
 62
7
  6
CONTINUOUS
 10
-0.1879828328
 20
-0.0
 40
20.2
100
AcDbArc
 50
284.4032682346
 51
284.732593114
  0
ARC
  5
7C0
100
AcDbEntity
  8
DRAFT
100
AcDbCircle
 62
7
  6
CONTINUOUS
 10
-0.1879828328
 20
-0.0
 40
20.2
100
AcDbArc
 50
279.6908812575
 51
280.7422273144
  0
ARC
  5
7C1
100
AcDbEntity
  8
DRAFT
100
AcDbCircle
 62
7
  6
CONTINUOUS
 10
-0.1879828328
 20
-0.0
 40
20.1188414481
100
AcDbArc
 50
102.7787109275
 51
104.4940356261
  0
ARC
  5
7C2
100
AcDbEntity
  8
DRAFT
100
AcDbCircle
 62
7
  6
CONTINUOUS
 10
-0.1879828328
 20
-0.0
 40
20.1188414481
100
AcDbArc
 50
282.4201019737
 51
284.4805969185
  0
ARC
  5
7C3
100
AcDbEntity
  8
RACCORDO
100
AcDbCircle
 62
7
  6
CONTINUOUS
 10
-0.1879828328
 20
-0.0
 40
20.1188414481
100
AcDbArc
 50
279.7302358784
 51
281.0265232439
  0
ARC
  5
7C4
100
AcDbEntity
  8
DRAFT
100
AcDbCircle
 62
7
  6
CONTINUOUS
 10
-0.1879828328
 20
-0.0
 40
20.0
100
AcDbArc
 50
105.1329824632
 51
106.2796672666
  0
ARC
  5
7C5
100
AcDbEntity
  8
DRAFT
100
AcDbCircle
 62
7
  6
CONTINUOUS
 10
-0.1879828328
 20
-0.0
 40
19.9986997099
100
AcDbArc
 50
285.1329105048
 51
286.2669502082
  0
ARC
  5
7C6
100
AcDbEntity
  8
DRAFT
100
AcDbCircle
 62
7
  6
CONTINUOUS
 10
-0.1879828328
 20
-0.0
 40
19.9188414481
100
AcDbArc
 50
105.129840048
 51
105.4602109131
  0
ARC
  5
7C7
100
AcDbEntity
  8
DRAFT
100
AcDbCircle
 62
7
  6
CONTINUOUS
 10
-0.1879828328
 20
-0.0
 40
19.917541158
100
AcDbArc
 50
285.1329105048
 51
285.4467668413
  0
ARC
  5
7C8
100
AcDbEntity
  8
RACCORDO
100
AcDbCircle
 62
7
  6
CONTINUOUS
 10
0.8620171672
 20
8.45
 40
0.2
100
AcDbArc
 50
270.0
 51
299.9052153403
  0
ARC
  5
7C9
100
AcDbEntity
  8
RACCORDO
100
AcDbCircle
 62
7
  6
CONTINUOUS
 10
0.8620171672
 20
8.45
 40
0.2
100
AcDbArc
 50
312.705515775
 51
360.0
  0
CIRCLE
  5
7CA
100
AcDbEntity
  8
RACCORDO
100
AcDbCircle
 62
250
  6
CONTINUOUS
 10
-0.1879828328
 20
9.75
 40
3.7973924109
  0
CIRCLE
  5
7CB
100
AcDbEntity
  8
RACCORDO
100
AcDbCircle
 62
7
  6
CONTINUOUS
 10
-0.1879828328
 20
9.75
 40
3.4974047862
  0
CIRCLE
  5
7CC
100
AcDbEntity
  8
RACCORDO
100
AcDbCircle
 62
7
  6
CONTINUOUS
 10
-0.1879828328
 20
9.75
 40
3.4764146101
  0
CIRCLE
  5
7CD
100
AcDbEntity
  8
RACCORDO
100
AcDbCircle
 62
250
  6
CONTINUOUS
 10
-0.1879828328
 20
9.75
 40
3.1764236637
  0
CIRCLE
  5
7CE
100
AcDbEntity
  8
0
100
AcDbCircle
 62
7
  6
CONTINUOUS
 10
-0.1879828328
 20
17.4154840816
 40
2.9960167347
  0
CIRCLE
  5
7CF
100
AcDbEntity
  8
RACCORDO
100
AcDbCircle
 62
250
  6
CONTINUOUS
 10
-0.1879828328
 20
9.75
 40
2.8933860373
  0
CIRCLE
  5
7D0
100
AcDbEntity
  8
0
100
AcDbCircle
 62
7
  6
CONTINUOUS
 10
-0.1879828328
 20
17.4154840816
 40
2.6760159184
  0
CIRCLE
  5
7D1
100
AcDbEntity
  8
RACCORDO
100
AcDbCircle
 62
250
  6
CONTINUOUS
 10
-0.1879828328
 20
9.75
 40
2.5956272683
  0
CIRCLE
  5
7D2
100
AcDbEntity
  8
0
100
AcDbCircle
 62
7
  6
CONTINUOUS
 10
-0.1879828328
 20
9.75
 40
2.1
  0
CIRCLE
  5
7D3
100
AcDbEntity
  8
ASSI
100
AcDbCircle
 62
7
  6
CONTINUOUS
 10
-0.1879828328
 20
9.85
 40
1.95
  0
ELLIPSE
  5
7D4
100
AcDbEntity
  8
RACCORDO
100
AcDbEllipse
 62
7
  6
CONTINUOUS
 10
14.7844066902
 20
-22.6993030839
 30
0.0
 11
-0.0
 21
0.2
 31
0.0
 40
0.0087268678
 41
-1.5707963268
 42
-0.4210636019
  0
ELLIPSE
  5
7D5
100
AcDbEntity
  8
RACCORDO
100
AcDbEllipse
 62
7
  6
CONTINUOUS
 10
6.8396276442
 20
-22.6993030839
 30
0.0
 11
0.0
 21
0.2
 31
0.0
 40
0.0087268678
 41
0.1155480364
 42
1.5707963268
  0
ELLIPSE
  5
7D6
100
AcDbEntity
  8
RACCORDO
100
AcDbEllipse
 62
7
  6
CONTINUOUS
 10
-7.2155933098
 20
22.6993030839
 30
0.0
 11
0.0
 21
0.2
 31
0.0
 40
0.0087268678
 41
-3.0260446172
 42
-1.5707963268
  0
ELLIPSE
  5
7D7
100
AcDbEntity
  8
RACCORDO
100
AcDbEllipse
 62
7
  6
CONTINUOUS
 10
-15.1603723558
 20
22.6993030839
 30
0.0
 11
0.0
 21
0.2
 31
0.0
 40
0.0087268678
 41
-4.7123889804
 42
-3.5626562555
  0
ELLIPSE
  5
7D8
100
AcDbEntity
  8
RACCORDO
100
AcDbEllipse
 62
7
  6
CONTINUOUS
 10
21.444553912
 20
22.2219468982
 30
0.0
 11
-0.2321301083
 21
-0.0928500634
 31
0.0
 40
0.9999558314
 41
2.7611088598
 42
4.3318747253
  0
ELLIPSE
  5
7D9
100
AcDbEntity
  8
RACCORDO
100
AcDbEllipse
 62
7
  6
CONTINUOUS
 10
21.444553912
 20
-22.2219468982
 30
0.0
 11
0.2321301083
 21
-0.0928500634
 31
0.0
 40
0.9999558314
 41
-1.1902820717
 42
0.3804837938
  0
ELLIPSE
  5
7DA
100
AcDbEntity
  8
RACCORDO
100
AcDbEllipse
 62
7
  6
CONTINUOUS
 10
-21.8205195776
 20
-22.2219468982
 30
0.0
 11
0.2321301083
 21
0.0928500634
 31
0.0
 40
0.9999558314
 41
2.7611088598
 42
4.3318747253
  0
ELLIPSE
  5
7DB
100
AcDbEntity
  8
RACCORDO
100
AcDbEllipse
 62
7
  6
CONTINUOUS
 10
-21.8205195776
 20
22.2219468982
 30
0.0
 11
-0.2321301083
 21
0.0928500634
 31
0.0
 40
0.9999558314
 41
-1.1902820717
 42
0.3804837938
  0
ELLIPSE
  5
7DC
100
AcDbEntity
  8
RACCORDO
100
AcDbEllipse
 62
7
  6
CONTINUOUS
 10
18.4655826507
 20
-22.7585974382
 30
0.0
 11
0.5000045693
 21
0.4999984769
 31
0.0
 40
0.0024682633
 41
3.1405702834
 42
4.7148572687
  0
ELLIPSE
  5
7DD
100
AcDbEntity
  8
RACCORDO
100
AcDbEllipse
 62
7
  6
CONTINUOUS
 10
-18.8415483163
 20
22.7585974382
 30
0.0
 11
0.5000045693
 21
0.4999984769
 31
0.0
 40
0.0024682633
 41
-0.0010223702
 42
1.5732646151
  0
ELLIPSE
  5
7DE
100
AcDbEntity
  8
DRAFT
100
AcDbEllipse
 62
7
  6
CONTINUOUS
 10
-0.1879828328
 20
-29.9122003513
 30
0.0
 11
-0.0
 21
49.8544772141
 31
0.0
 40
0.8000073108
 41
0.111807222
 42
0.1172466575
  0
ELLIPSE
  5
7DF
100
AcDbEntity
  8
DRAFT
100
AcDbEllipse
 62
7
  6
CONTINUOUS
 10
-0.1879828328
 20
29.9122003513
 30
0.0
 11
0.0
 21
49.8544772141
 31
0.0
 40
0.8000073108
 41
-3.0328859125
 42
-3.0243459961
  0
ELLIPSE
  5
7E0
100
AcDbEntity
  8
RACCORDO
100
AcDbEllipse
 62
7
  6
CONTINUOUS
 10
-15.7621802482
 20
19.3241783762
 30
0.0
 11
0.5
 21
0.0
 31
0.0
 40
0.0087268678
 41
0.0087266463
 42
1.5707963268
  0
ELLIPSE
  5
7E1
100
AcDbEntity
  8
RACCORDO
100
AcDbEllipse
 62
7
  6
CONTINUOUS
 10
17.0206176516
 20
-22.7585974382
 30
0.0
 11
0.0
 21
0.5
 31
0.0
 40
0.0034906727
 41
-3.1450833121
 42
-1.5707963268
  0
ELLIPSE
  5
7E2
100
AcDbEntity
  8
RACCORDO
100
AcDbEllipse
 62
7
  6
CONTINUOUS
 10
-17.3965833172
 20
22.7585974382
 30
0.0
 11
-0.0
 21
0.5
 31
0.0
 40
0.0034906727
 41
-0.0034906585
 42
1.5707963268
  0
ELLIPSE
  5
7E3
100
AcDbEntity
  8
RACCORDO
100
AcDbEllipse
 62
7
  6
CONTINUOUS
 10
5.3469220663
 20
-19.9758477005
 30
0.0
 11
0.2121346191
 21
-0.2121346191
 31
0.0
 40
0.9999878154
 41
-0.7853920711
 42
0.7853920711
  0
ELLIPSE
  5
7E4
100
AcDbEntity
  8
RACCORDO
100
AcDbEllipse
 62
7
  6
CONTINUOUS
 10
6.6097466629
 20
-21.2788920377
 30
0.0
 11
0.2848122394
 21
0.0942846417
 31
0.0
 40
0.9999577505
 41
-0.3196737904
 42
1.1381924252
  0
ELLIPSE
  5
7E5
100
AcDbEntity
  8
RACCORDO
100
AcDbEllipse
 62
7
  6
CONTINUOUS
 10
15.0910749588
 20
-20.0382678978
 30
0.0
 11
0.218818503
 21
0.2052328532
 31
0.0
 40
0.9999885484
 41
2.388226996
 42
3.8949583111
  0
ELLIPSE
  5
7E6
100
AcDbEntity
  8
RACCORDO
100
AcDbEllipse
 62
7
  6
CONTINUOUS
 10
15.0142876715
 20
-21.2673538979
 30
0.0
 11
0.2194217299
 21
-0.2046140734
 31
0.0
 40
0.9999288155
 41
2.391136582
 42
3.8920487252
  0
ELLIPSE
  5
7E7
100
AcDbEntity
  8
RACCORDO
100
AcDbEllipse
 62
7
  6
CONTINUOUS
 10
-15.4356330496
 20
20.0362533743
 30
0.0
 11
0.2843309781
 21
0.0957263081
 31
0.0
 40
0.9999576074
 41
-0.324739611
 42
1.1819754414
  0
ELLIPSE
  5
7E8
100
AcDbEntity
  8
RACCORDO
100
AcDbEllipse
 62
7
  6
CONTINUOUS
 10
-15.3902533371
 20
21.2788920377
 30
0.0
 11
0.2848122394
 21
-0.0942846417
 31
0.0
 40
0.9999577505
 41
-1.1381924252
 42
0.3196737904
  0
ELLIPSE
  5
7E9
100
AcDbEntity
  8
RACCORDO
100
AcDbEllipse
 62
7
  6
CONTINUOUS
 10
-5.7228877319
 20
19.9758477005
 30
0.0
 11
0.2121346191
 21
-0.2121346191
 31
0.0
 40
0.9999878154
 41
2.3562005825
 42
3.9269847247
  0
ELLIPSE
  5
7EA
100
AcDbEntity
  8
RACCORDO
100
AcDbEllipse
 62
7
  6
CONTINUOUS
 10
-6.9857123285
 20
21.2673538979
 30
0.0
 11
0.2194217299
 21
0.2046140734
 31
0.0
 40
0.9999288155
 41
2.391136582
 42
3.661214812
  0
ELLIPSE
  5
7EB
100
AcDbEntity
  8
RACCORDO
100
AcDbEllipse
 62
7
  6
CONTINUOUS
 10
19.711998128
 20
-20.3999809608
 30
0.0
 11
0.3535803156
 21
-0.3535803156
 31
0.0
 40
0.9999238505
 41
-0.6970020075
 42
-0.6303325381
  0
ELLIPSE
  5
7EC
100
AcDbEntity
  8
RACCORDO
100
AcDbEllipse
 62
7
  6
CONTINUOUS
 10
19.711998128
 20
-20.3999809608
 30
0.0
 11
-0.3535803156
 21
0.3535803156
 31
0.0
 40
0.9999238505
 41
-3.9269527408
 42
-3.8385946611
  0
ELLIPSE
  5
7ED
100
AcDbEntity
  8
RACCORDO
100
AcDbEllipse
 62
7
  6
CONTINUOUS
 10
-20.0879637936
 20
20.3999809608
 30
0.0
 11
0.3535803156
 21
-0.3535803156
 31
0.0
 40
0.9999238505
 41
2.4445906461
 42
2.5112601155
  0
ELLIPSE
  5
7EE
100
AcDbEntity
  8
RACCORDO
100
AcDbEllipse
 62
7
  6
CONTINUOUS
 10
-20.0879637936
 20
20.3999809608
 30
0.0
 11
-0.3535803156
 21
0.3535803156
 31
0.0
 40
0.9999238505
 41
-0.7853600872
 42
-0.6970020075
  0
ELLIPSE
  5
7EF
100
AcDbEntity
  8
RACCORDO
100
AcDbEllipse
 62
7
  6
CONTINUOUS
 10
-4.9793823484
 20
22.7585974382
 30
0.0
 11
0.0
 21
0.5
 31
0.0
 40
0.0034906727
 41
-1.5707963268
 42
0.0034906585
  0
ELLIPSE
  5
7F0
100
AcDbEntity
  8
RACCORDO
100
AcDbEllipse
 62
7
  6
CONTINUOUS
 10
-6.6923272275
 20
22.3532329243
 30
0.0
 11
0.5
 21
0.0
 31
0.0
 40
0.3639702343
 41
-3.1328660073
 42
-1.5707963268
  0
ELLIPSE
  5
7F1
100
AcDbEntity
  8
RACCORDO
100
AcDbEllipse
 62
7
  6
CONTINUOUS
 10
-15.6836384381
 20
22.3532329243
 30
0.0
 11
0.5
 21
-0.0
 31
0.0
 40
0.3639702343
 41
-1.5707963268
 42
-0.0087266463
  0
ELLIPSE
  5
7F2
100
AcDbEntity
  8
RACCORDO
100
AcDbEllipse
 62
7
  6
CONTINUOUS
 10
-15.8358581107
 20
21.4264056645
 30
0.0
 11
0.5248679216
 21
-0.4203940376
 31
0.0
 40
0.2975187001
 41
-0.285844861
 42
-0.242755367
  0
ELLIPSE
  5
7F3
100
AcDbEntity
  8
RACCORDO
100
AcDbEllipse
 62
7
  6
CONTINUOUS
 10
-5.4137854174
 20
19.6741783762
 30
0.0
 11
0.5
 21
-0.0
 31
0.0
 40
0.0087268678
 41
1.5707963268
 42
3.1328660073
  0
ELLIPSE
  5
7F4
100
AcDbEntity
  8
RACCORDO
100
AcDbEllipse
 62
7
  6
CONTINUOUS
 10
-7.0188744262
 20
21.2364297416
 30
0.0
 11
0.2194217299
 21
0.2046140734
 31
0.0
 40
0.9999288155
 41
-2.5956618937
 42
-2.391136582
  0
ELLIPSE
  5
7F5
100
AcDbEntity
  8
RACCORDO
100
AcDbEllipse
 62
7
  6
CONTINUOUS
 10
4.6034166828
 20
-22.7585974382
 30
0.0
 11
0.0
 21
0.5
 31
0.0
 40
0.0034906727
 41
-4.7123889804
 42
-3.1381019951
  0
ELLIPSE
  5
7F6
100
AcDbEntity
  8
RACCORDO
100
AcDbEllipse
 62
7
  6
CONTINUOUS
 10
15.3076727725
 20
-22.3532329243
 30
0.0
 11
0.5
 21
0.0
 31
0.0
 40
0.3639702343
 41
1.5707963268
 42
3.1328660073
  0
ELLIPSE
  5
7F7
100
AcDbEntity
  8
RACCORDO
100
AcDbEllipse
 62
7
  6
CONTINUOUS
 10
6.3163615619
 20
-22.3532329243
 30
0.0
 11
0.5
 21
-0.0
 31
0.0
 40
0.3639702343
 41
0.0087266463
 42
1.5707963268
  0
ELLIPSE
  5
7F8
100
AcDbEntity
  8
RACCORDO
100
AcDbEllipse
 62
7
  6
CONTINUOUS
 10
6.1641418893
 20
-21.4264056645
 30
0.0
 11
0.5248679216
 21
0.4203940376
 31
0.0
 40
0.2975187001
 41
0.242755367
 42
0.285844861
  0
ELLIPSE
  5
7F9
100
AcDbEntity
  8
RACCORDO
100
AcDbEllipse
 62
7
  6
CONTINUOUS
 10
15.3862145826
 20
-19.3241783762
 30
0.0
 11
0.5
 21
-0.0
 31
0.0
 40
0.0087268678
 41
-3.1328660073
 42
-1.5707963268
  0
ELLIPSE
  5
7FA
100
AcDbEntity
  8
RACCORDO
100
AcDbEllipse
 62
7
  6
CONTINUOUS
 10
5.0378197518
 20
-19.6741783762
 30
0.0
 11
0.5
 21
-0.0
 31
0.0
 40
0.0087268678
 41
-1.5707963268
 42
-0.0087266463
  0
ELLIPSE
  5
7FB
100
AcDbEntity
  8
RACCORDO
100
AcDbEllipse
 62
7
  6
CONTINUOUS
 10
-3.1707182138
 20
22.7585974382
 30
0.0
 11
-0.0
 21
0.5
 31
0.0
 40
0.0034906727
 41
-0.0034906585
 42
1.5707963268
  0
ELLIPSE
  5
7FC
100
AcDbEntity
  8
RACCORDO
100
AcDbEllipse
 62
7
  6
CONTINUOUS
 10
2.7947525482
 20
-22.7585974382
 30
0.0
 11
0.0
 21
0.5
 31
0.0
 40
0.0034906727
 41
-3.1450833121
 42
-1.5707963268
  0
ELLIPSE
  5
7FD
100
AcDbEntity
  8
RACCORDO
100
AcDbEllipse
 62
7
  6
CONTINUOUS
 10
-4.3379714093
 20
22.1205740796
 30
0.0
 11
0.2121481893
 21
-0.2121481893
 31
0.0
 40
0.9999238505
 41
2.3562325664
 42
3.9269527408
  0
ELLIPSE
  5
7FE
100
AcDbEntity
  8
DRAFT
100
AcDbEllipse
 62
7
  6
CONTINUOUS
 10
-0.1879828328
 20
20.9301850577
 30
0.0
 11
2.75
 21
-0.0
 31
0.0
 40
0.0087268678
 41
-0.0
 42
3.1415926536
  0
ELLIPSE
  5
7FF
100
AcDbEntity
  8
RACCORDO
100
AcDbEllipse
 62
7
  6
CONTINUOUS
 10
12.8120171672
 20
-20.3607290949
 30
0.0
 11
0.5
 21
-0.0
 31
0.0
 40
0.0087268678
 41
0.0
 42
1.5707963268
  0
ELLIPSE
  5
800
100
AcDbEntity
  8
RACCORDO
100
AcDbEllipse
 62
7
  6
CONTINUOUS
 10
3.9628784305
 20
22.1214467664
 30
0.0
 11
0.2121481893
 21
0.2121481893
 31
0.0
 40
0.9999238505
 41
-0.7853600872
 42
0.7853600872
  0
ELLIPSE
  5
801
100
AcDbEntity
  8
RACCORDO
100
AcDbEllipse
 62
7
  6
CONTINUOUS
 10
-15.1379714093
 20
16.9499885765
 30
0.0
 11
-0.2121481893
 21
0.2121481893
 31
0.0
 40
0.9999238505
 41
-0.7853600872
 42
0.7853600872
  0
ELLIPSE
  5
802
100
AcDbEntity
  8
RACCORDO
100
AcDbEllipse
 62
7
  6
CONTINUOUS
 10
14.7620057437
 20
16.9499885765
 30
0.0
 11
0.2121481893
 21
0.2121481893
 31
0.0
 40
0.9999238505
 41
-0.7853600872
 42
0.7853600872
  0
ELLIPSE
  5
803
100
AcDbEntity
  8
RACCORDO
100
AcDbEllipse
 62
7
  6
CONTINUOUS
 10
14.7620057437
 20
-16.9499885765
 30
0.0
 11
0.2121481893
 21
-0.2121481893
 31
0.0
 40
0.9999238505
 41
-0.7853600872
 42
0.7853600872
  0
ELLIPSE
  5
804
100
AcDbEntity
  8
RACCORDO
100
AcDbEllipse
 62
7
  6
CONTINUOUS
 10
-15.1379714093
 20
-16.9499885765
 30
0.0
 11
0.2121481893
 21
0.2121481893
 31
0.0
 40
0.9999238505
 41
2.3562325664
 42
3.9269527408
  0
ELLIPSE
  5
805
100
AcDbEntity
  8
RACCORDO
100
AcDbEllipse
 62
7
  6
CONTINUOUS
 10
-21.7094295992
 20
-18.8714467664
 30
0.0
 11
0.2121481893
 21
0.2121481893
 31
0.0
 40
0.9999238505
 41
-3.9269527408
 42
-2.3562325664
  0
ELLIPSE
  5
806
100
AcDbEntity
  8
RACCORDO
100
AcDbEllipse
 62
7
  6
CONTINUOUS
 10
21.3334639336
 20
-18.8714467664
 30
0.0
 11
-0.2121481893
 21
0.2121481893
 31
0.0
 40
0.9999238505
 41
-2.4904166244
 42
-2.3562325664
  0
ELLIPSE
  5
807
100
AcDbEntity
  8
RACCORDO
100
AcDbEllipse
 62
7
  6
CONTINUOUS
 10
21.3334639336
 20
-18.8714467664
 30
0.0
 11
0.2121481893
 21
-0.2121481893
 31
0.0
 40
0.9999238505
 41
-0.7853600872
 42
0.6511760292
  0
ELLIPSE
  5
808
100
AcDbEntity
  8
RACCORDO
100
AcDbEllipse
 62
7
  6
CONTINUOUS
 10
21.3334639336
 20
18.8714467664
 30
0.0
 11
0.2121481893
 21
0.2121481893
 31
0.0
 40
0.9999238505
 41
-0.7853600872
 42
0.7853600872
  0
ELLIPSE
  5
809
100
AcDbEntity
  8
RACCORDO
100
AcDbEllipse
 62
7
  6
CONTINUOUS
 10
4.2306004431
 20
18.8391573555
 30
0.0
 11
0.0
 21
0.3
 31
0.0
 40
0.0087268678
 41
0.0087266463
 42
1.5707963268
  0
ELLIPSE
  5
80A
100
AcDbEntity
  8
RACCORDO
100
AcDbEllipse
 62
7
  6
CONTINUOUS
 10
-21.7094295992
 20
18.8714467664
 30
0.0
 11
-0.2121481893
 21
0.2121481893
 31
0.0
 40
0.9999238505
 41
-0.7853600872
 42
0.7853600872
  0
ELLIPSE
  5
80B
100
AcDbEntity
  8
RACCORDO
100
AcDbEllipse
 62
7
  6
CONTINUOUS
 10
-4.6065661088
 20
18.8391573555
 30
0.0
 11
-0.0
 21
0.3
 31
0.0
 40
0.0087268678
 41
-1.5707963268
 42
-0.0087266463
  0
ELLIPSE
  5
80C
100
AcDbEntity
  8
DRAFT
100
AcDbEllipse
 62
7
  6
CONTINUOUS
 10
-9.6879828328
 20
-17.2257168037
 30
0.0
 11
3.457624038
 21
-0.0
 31
0.0
 40
0.0087269786
 41
-0.9352641458
 42
0.0050384808
  0
ELLIPSE
  5
80D
100
AcDbEntity
  8
DRAFT
100
AcDbEllipse
 62
7
  6
CONTINUOUS
 10
9.3120171672
 20
-17.2257168037
 30
0.0
 11
3.457624038
 21
-0.0
 31
0.0
 40
0.0087269786
 41
3.1365541728
 42
4.0768567994
  0
ELLIPSE
  5
80E
100
AcDbEntity
  8
DRAFT
100
AcDbEllipse
 62
7
  6
CONTINUOUS
 10
9.3120171672
 20
-17.2257168037
 30
0.0
 11
3.457624038
 21
-0.0
 31
0.0
 40
0.0087269786
 41
-0.9352641458
 42
0.0050384808
  0
ELLIPSE
  5
80F
100
AcDbEntity
  8
DRAFT
100
AcDbEllipse
 62
7
  6
CONTINUOUS
 10
-9.6879828328
 20
-17.2257168037
 30
0.0
 11
3.457624038
 21
-0.0
 31
0.0
 40
0.0087269786
 41
3.1365541728
 42
4.0768567994
  0
ELLIPSE
  5
810
100
AcDbEntity
  8
RACCORDO
100
AcDbEllipse
 62
7
  6
CONTINUOUS
 10
13.2718796547
 20
-12.9098624875
 30
0.0
 11
0.2186280137
 21
-0.2186280137
 31
0.0
 40
0.9702875252
 41
-0.7703190329
 42
0.7703190329
  0
ELLIPSE
  5
811
100
AcDbEntity
  8
RACCORDO
100
AcDbEllipse
 62
7
  6
CONTINUOUS
 10
13.2718796547
 20
-9.4901375125
 30
0.0
 11
0.2186280137
 21
0.2186280137
 31
0.0
 40
0.9702875252
 41
-0.7703190329
 42
0.7703190329
  0
ELLIPSE
  5
812
100
AcDbEntity
  8
RACCORDO
100
AcDbEllipse
 62
7
  6
CONTINUOUS
 10
-13.6478453203
 20
-9.4901375125
 30
0.0
 11
-0.2186280137
 21
0.2186280137
 31
0.0
 40
0.9702875252
 41
-0.7703190329
 42
0.7703190329
  0
ELLIPSE
  5
813
100
AcDbEntity
  8
RACCORDO
100
AcDbEllipse
 62
7
  6
CONTINUOUS
 10
-13.6478453203
 20
-12.9098624875
 30
0.0
 11
-0.2186280137
 21
-0.2186280137
 31
0.0
 40
0.9702875252
 41
-0.7703190329
 42
0.7703190329
  0
ELLIPSE
  5
814
100
AcDbEntity
  8
DRAFT
100
AcDbEllipse
 62
7
  6
CONTINUOUS
 10
-0.1879828328
 20
22.3648827692
 30
0.0
 11
3.3936347905
 21
-0.0
 31
0.0
 40
0.0087269786
 41
-0.0050384808
 42
3.1466311344
  0
ELLIPSE
  5
815
100
AcDbEntity
  8
RACCORDO
100
AcDbEllipse
 62
7
  6
CONTINUOUS
 10
-9.1879828328
 20
20.3607290949
 30
0.0
 11
0.5
 21
0.0
 31
0.0
 40
0.0087268678
 41
-1.5707963268
 42
-0.0
  0
ELLIPSE
  5
816
100
AcDbEntity
  8
RACCORDO
100
AcDbEllipse
 62
7
  6
CONTINUOUS
 10
-13.1879828328
 20
20.3607290949
 30
0.0
 11
0.5
 21
0.0
 31
0.0
 40
0.0087268678
 41
3.1415926536
 42
4.7123889804
  0
ELLIPSE
  5
817
100
AcDbEntity
  8
RACCORDO
100
AcDbEllipse
 62
7
  6
CONTINUOUS
 10
8.8120171672
 20
-20.3607290949
 30
0.0
 11
0.5
 21
-0.0
 31
0.0
 40
0.0087268678
 41
1.5707963268
 42
3.1415926536
  0
ENDSEC
  0
SECTION
  2
OBJECTS
  0
DICTIONARY
  5
C
100
AcDbDictionary
280
0
281
1
  3
ACAD_GROUP
350
D
  3
ACAD_MLINESTYLE
350
17
  3
ACAD_LAYOUT
350
1A
  3
ACAD_PLOTSETTINGS
350
19
  3
ACAD_PLOTSTYLENAME
350
E
  0
DICTIONARY
  5
D
102
{ACAD_REACTORS
330
C
102
}
100
AcDbDictionary
280
0
281
1
  0
ACDBDICTIONARYWDFLT
  5
E
102
{ACAD_REACTORS
330
C
102
}
100
AcDbDictionary
281
1
  3
Normal
350
F
100
AcDbDictionaryWithDefault
340
F
  0
DICTIONARY
  5
17
102
{ACAD_REACTORS
330
C
102
}
100
AcDbDictionary
280
0
281
1
  3
Standard
350
18
  0
DICTIONARY
  5
19
102
{ACAD_REACTORS
330
C
102
}
100
AcDbDictionary
281
1
  0
DICTIONARY
  5
1A
102
{ACAD_REACTORS
330
C
102
}
100
AcDbDictionary
281
1
  3
Model
350
818
  3
Layout1
350
819
  0
ACDBPLACEHOLDER
  5
F
102
{ACAD_REACTORS
330
E
102
}
  0
MLINESTYLE
  5
18
102
{ACAD_REACTORS
330
17
102
}
100
AcDbMlineStyle
  2
STANDARD
 70
0
  3

 62
256
 51
90.0
 52
90.0
 71
2
 49
0.5
 62
256
  6
BYLAYER
 49
-0.5
 62
256
  6
BYLAYER
  0
LAYOUT
  5
818
102
{ACAD_REACTORS
330
1A
102
}
100
AcDbPlotSettings
  1

  2
none_device
  4
ISO_A4_(297.00_x_210.00_MM)
  6

 40
0.0
 41
0.0
 42
0.0
 43
0.0
 44
297.0
 45
210.0
 46
0.0
 47
0.0
 48
0.0
 49
0.0
140
0.0
141
0.0
142
1.0
143
1.0
 70
1024
 72
1
 73
0
 74
0
  7

 75
0
147
1.0
148
0.0
149
0.0
100
AcDbLayout
  1
Model
 70
0
 71
0
 10
0.0
 20
0.0
 11
297.0
 21
210.0
 12
0.0
 22
0.0
 32
0.0
 14
0.0
 24
0.0
 34
0.0
 15
0.0
 25
0.0
 35
0.0
146
0.0
 13
0.0
 23
0.0
 33
0.0
 16
1.0
 26
0.0
 36
0.0
 17
0.0
 27
1.0
 37
0.0
 76
0
330
21F
345
0
346
0
  0
LAYOUT
  5
819
102
{ACAD_REACTORS
330
1A
102
}
100
AcDbPlotSettings
  1

  2
none_device
  4
ISO_A4_(297.00_x_210.00_MM)
  6

 40
0.0
 41
0.0
 42
0.0
 43
0.0
 44
297.0
 45
210.0
 46
0.0
 47
0.0
 48
0.0
 49
0.0
140
0.0
141
0.0
142
1.0
143
1.0
 70
0
 72
1
 73
0
 74
0
  7

 75
0
147
1.0
148
0.0
149
0.0
100
AcDbLayout
  1
Layout1
 70
0
 71
1
 10
0.0
 20
0.0
 11
297.0
 21
210.0
 12
0.0
 22
0.0
 32
0.0
 14
0.0
 24
0.0
 34
0.0
 15
0.0
 25
0.0
 35
0.0
146
0.0
 13
0.0
 23
0.0
 33
0.0
 16
1.0
 26
0.0
 36
0.0
 17
0.0
 27
1.0
 37
0.0
 76
0
330
220
345
0
346
0
  0
ENDSEC
  0
EOF
