  0
SECTION
  2
HEADER
  9
$ACADVER
  1
AC1015
  9
$DWGCODEPAGE
  3
ANSI_1252
  9
$EXTMAX
 10
297.0
 20
210.0
 30
0.0
  9
$EXTMIN
 10
0.0
 20
0.0
 30
0.0
  9
$LIMMIN
 10
0.0
 20
0.0
  9
$LIMMAX
 10
297.0
 20
210.0
  9
$VIEWCTR
 10
148.5
 20
105.0
  9
$VIEWSIZE
 40
210.0
  9
$CLAYER
  8
0
  9
$LTSCALE
 40
16.335
  9
$CELTYPE
  6
BYLAYER
  9
$DIMSCALE
 40
1.0
  9
$DIMASZ
 40
3.0
  9
$DIMEXO
 40
1.85625
  9
$DIMDLI
 40
11.286
  9
$DIMEXE
 40
5.346
  9
$DIMCEN
 40
2.673
  9
$DIMLFAC
 40
1.0
  9
$DIMBLK
  1
_FILLED
  9
$DIMTXT
 40
3.0
  9
$DIMTOL
 70
1
  9
$DIMLIM
 70
0
  9
$DIMTFAC
 40
1.0
  9
$DIMTP
 40
0.01
  9
$DIMTM
 40
0.01
  9
$PDMODE
 70
3
  9
$PDSIZE
 40
3.0
  9
$HANDSEED
  5
7CE
  9
$TILEMODE
 70
1
  9
$MEASUREMENT
 70
1
  9
$INSUNITS
 70
4
  0
ENDSEC
  0
SECTION
  2
CLASSES
  0
CLASS
  1
ACDBDICTIONARYWDFLT
  2
AcDbDictionaryWithDefault
  3
AutoCAD 2000
 90
0
280
0
281
0
  0
CLASS
  1
ACDBPLACEHOLDER
  2
AcDbPlaceHolder
  3
AutoCAD 2000
 90
0
280
0
281
0
  0
CLASS
  1
LAYOUT
  2
AcDbLayout
  3
AutoCAD 2000
 90
0
280
0
281
0
  0
ENDSEC
  0
SECTION
  2
TABLES
  0
TABLE
  2
VPORT
  5
8
100
AcDbSymbolTable
 70
2
  0
VPORT
  5
1F4
100
AcDbSymbolTableRecord
100
AcDbViewportTableRecord
  2
*ACTIVE
 70
0
 10
0.0
 20
0.0
 11
1.0
 21
1.0
 12
148.5
 22
105.0
 13
0.0
 23
0.0
 14
1.0
 24
1.0
 15
0.0
 25
0.0
 16
0.0
 26
0.0
 36
1.0
 17
0.0
 27
0.0
 37
0.0
 40
210.0
 41
1.4142857143
 42
50.0
 43
0.0
 44
0.0
 50
0.0
 51
0.0
 71
0
 72
100
 73
1
 74
1
 75
0
 76
0
 77
0
 78
0
  0
ENDTAB
  0
TABLE
  2
LTYPE
  5
5
100
AcDbSymbolTable
 70
6
  0
LTYPE
  5
14
100
AcDbSymbolTableRecord
100
AcDbLinetypeTableRecord
  2
BYBLOCK
 70
0
  3

 72
65
 73
0
 40
0.0
  0
LTYPE
  5
15
100
AcDbSymbolTableRecord
100
AcDbLinetypeTableRecord
  2
BYLAYER
 70
0
  3

 72
65
 73
0
 40
0.0
  0
LTYPE
  5
16
100
AcDbSymbolTableRecord
100
AcDbLinetypeTableRecord
  2
CONTINUOUS
 70
64
  3
Solid line
 72
65
 73
0
 40
0.0
  0
LTYPE
  5
1F5
100
AcDbSymbolTableRecord
100
AcDbLinetypeTableRecord
  2
CENTER
 70
64
  3
____ _ ____ _ ____ _ ____ _ ____ _ ____ _ ____
 72
65
 73
4
 40
0.6
 49
0.375
 74
0
 49
-0.075
 74
0
 49
0.075
 74
0
 49
-0.075
 74
0
  0
LTYPE
  5
1F6
100
AcDbSymbolTableRecord
100
AcDbLinetypeTableRecord
  2
HIDDEN
 70
64
  3
- - - - - - - - - - - - - - - - - - - -
 72
65
 73
2
 40
0.2
 49
0.1
 74
0
 49
-0.1
 74
0
  0
LTYPE
  5
1F7
100
AcDbSymbolTableRecord
100
AcDbLinetypeTableRecord
  2
PHANTOM
 70
64
  3
_____ _ _ _____ _ _ _____ _ _ _____
 72
65
 73
6
 40
0.8
 49
0.45
 74
0
 49
-0.05
 74
0
 49
0.1
 74
0
 49
-0.05
 74
0
 49
0.1
 74
0
 49
-0.05
 74
0
  0
LTYPE
  5
1F8
100
AcDbSymbolTableRecord
100
AcDbLinetypeTableRecord
  2
DOT
 70
64
  3
. . . . . . . . . . . . . . . . . . . .
 72
65
 73
2
 40
0.2
 49
0.1
 74
0
 49
-0.1
 74
0
  0
LTYPE
  5
1F9
100
AcDbSymbolTableRecord
100
AcDbLinetypeTableRecord
  2
DASHED
 70
64
  3
- - - - - - - - - - - - - - - - - - - -
 72
65
 73
2
 40
0.2
 49
0.1
 74
0
 49
-0.1
 74
0
  0
ENDTAB
  0
TABLE
  2
LAYER
  5
2
100
AcDbSymbolTable
 70
36
  0
LAYER
  5
10
100
AcDbSymbolTableRecord
100
AcDbLayerTableRecord
  2
0
 70
0
 62
7
  6
CONTINUOUS
370
-3
390
F
  0
LAYER
  5
1FA
100
AcDbSymbolTableRecord
100
AcDbLayerTableRecord
  2
DEFAULT_1
 70
0
 62
7
  6
CENTER
370
-3
390
F
  0
LAYER
  5
1FB
100
AcDbSymbolTableRecord
100
AcDbLayerTableRecord
  2
DEFAULT_2
 70
0
 62
7
  6
HIDDEN
370
-3
390
F
  0
LAYER
  5
1FC
100
AcDbSymbolTableRecord
100
AcDbLayerTableRecord
  2
DEFAULT_3
 70
0
 62
7
  6
PHANTOM
370
-3
390
F
  0
LAYER
  5
1FD
100
AcDbSymbolTableRecord
100
AcDbLayerTableRecord
  2
ASSI
 70
0
 62
7
  6
CONTINUOUS
370
-3
390
F
  0
LAYER
  5
1FE
100
AcDbSymbolTableRecord
100
AcDbLayerTableRecord
  2
COLOR5
 70
0
 62
7
  6
CONTINUOUS
370
-3
390
F
  0
LAYER
  5
1FF
100
AcDbSymbolTableRecord
100
AcDbLayerTableRecord
  2
COORDINATE
 70
0
 62
7
  6
CONTINUOUS
370
-3
390
F
  0
LAYER
  5
200
100
AcDbSymbolTableRecord
100
AcDbLayerTableRecord
  2
COORD_ORIGINE
 70
0
 62
7
  6
CONTINUOUS
370
-3
390
F
  0
LAYER
  5
201
100
AcDbSymbolTableRecord
100
AcDbLayerTableRecord
  2
COPY_PUBLISH
 70
0
 62
7
  6
CONTINUOUS
370
-3
390
F
  0
LAYER
  5
202
100
AcDbSymbolTableRecord
100
AcDbLayerTableRecord
  2
COSMETIC
 70
0
 62
7
  6
CONTINUOUS
370
-3
390
F
  0
LAYER
  5
203
100
AcDbSymbolTableRecord
100
AcDbLayerTableRecord
  2
CURVE
 70
0
 62
7
  6
CONTINUOUS
370
-3
390
F
  0
LAYER
  5
204
100
AcDbSymbolTableRecord
100
AcDbLayerTableRecord
  2
DRAFT
 70
0
 62
7
  6
CONTINUOUS
370
-3
390
F
  0
LAYER
  5
205
100
AcDbSymbolTableRecord
100
AcDbLayerTableRecord
  2
IMPORT_IGES
 70
0
 62
7
  6
CONTINUOUS
370
-3
390
F
  0
LAYER
  5
206
100
AcDbSymbolTableRecord
100
AcDbLayerTableRecord
  2
INTFCLR_1
 70
0
 62
7
  6
CONTINUOUS
370
-3
390
F
  0
LAYER
  5
207
100
AcDbSymbolTableRecord
100
AcDbLayerTableRecord
  2
INTFCLR_3
 70
0
 62
7
  6
CONTINUOUS
370
-3
390
F
  0
LAYER
  5
208
100
AcDbSymbolTableRecord
100
AcDbLayerTableRecord
  2
INTF_1
 70
0
 62
7
  6
CONTINUOUS
370
-3
390
F
  0
LAYER
  5
209
100
AcDbSymbolTableRecord
100
AcDbLayerTableRecord
  2
INTF_15
 70
0
 62
7
  6
CONTINUOUS
370
-3
390
F
  0
LAYER
  5
20A
100
AcDbSymbolTableRecord
100
AcDbLayerTableRecord
  2
INTF_16
 70
0
 62
7
  6
CONTINUOUS
370
-3
390
F
  0
LAYER
  5
20B
100
AcDbSymbolTableRecord
100
AcDbLayerTableRecord
  2
NOTE
 70
0
 62
7
  6
CONTINUOUS
370
-3
390
F
  0
LAYER
  5
20C
100
AcDbSymbolTableRecord
100
AcDbLayerTableRecord
  2
PIANI
 70
0
 62
7
  6
CONTINUOUS
370
-3
390
F
  0
LAYER
  5
20D
100
AcDbSymbolTableRecord
100
AcDbLayerTableRecord
  2
PIANI_DI_RIFERIMENTO
 70
0
 62
7
  6
CONTINUOUS
370
-3
390
F
  0
LAYER
  5
20E
100
AcDbSymbolTableRecord
100
AcDbLayerTableRecord
  2
PIANI_ORIGINE
 70
0
 62
7
  6
CONTINUOUS
370
-3
390
F
  0
LAYER
  5
20F
100
AcDbSymbolTableRecord
100
AcDbLayerTableRecord
  2
PIANI_RIFERIMENTO
 70
0
 62
7
  6
CONTINUOUS
370
-3
390
F
  0
LAYER
  5
210
100
AcDbSymbolTableRecord
100
AcDbLayerTableRecord
  2
PUNTI
 70
0
 62
7
  6
CONTINUOUS
370
-3
390
F
  0
LAYER
  5
211
100
AcDbSymbolTableRecord
100
AcDbLayerTableRecord
  2
RACCORDO
 70
0
 62
7
  6
CONTINUOUS
370
-3
390
F
  0
LAYER
  5
212
100
AcDbSymbolTableRecord
100
AcDbLayerTableRecord
  2
SMUSSO
 70
0
 62
7
  6
CONTINUOUS
370
-3
390
F
  0
LAYER
  5
213
100
AcDbSymbolTableRecord
100
AcDbLayerTableRecord
  2
SNAPLINE
 70
0
 62
7
  6
CONTINUOUS
370
-3
390
F
  0
LAYER
  5
214
100
AcDbSymbolTableRecord
100
AcDbLayerTableRecord
  2
SUPERFICI
 70
0
 62
7
  6
CONTINUOUS
370
-3
390
F
  0
LAYER
  5
215
100
AcDbSymbolTableRecord
100
AcDbLayerTableRecord
  2
SUPERFICI_SKEL
 70
0
 62
7
  6
CONTINUOUS
370
-3
390
F
  0
LAYER
  5
216
100
AcDbSymbolTableRecord
100
AcDbLayerTableRecord
  2
TRASH
 70
0
 62
7
  6
CONTINUOUS
370
-3
390
F
  0
LAYER
  5
217
100
AcDbSymbolTableRecord
100
AcDbLayerTableRecord
  2
XSEC_DATUMS
 70
0
 62
7
  6
CONTINUOUS
370
-3
390
F
  0
ENDTAB
  0
TABLE
  2
STYLE
  5
3
100
AcDbSymbolTable
 70
1
  0
STYLE
  5
11
100
AcDbSymbolTableRecord
100
AcDbTextStyleTableRecord
  2
STANDARD
 70
0
 40
0.0
 41
0.8
 50
0.0
 71
0
 42
0.2
  3
txt
  4

  0
STYLE
  5
218
100
AcDbSymbolTableRecord
100
AcDbTextStyleTableRecord
  2
TEXTSTYLE_1
 70
0
 40
0.0
 41
0.8
 50
0.0
 71
0
 42
0.2
  3
gdt
  4

  0
ENDTAB
  0
TABLE
  2
VIEW
  5
6
100
AcDbSymbolTable
 70
0
  0
ENDTAB
  0
TABLE
  2
UCS
  5
7
100
AcDbSymbolTable
 70
0
  0
ENDTAB
  0
TABLE
  2
APPID
  5
9
100
AcDbSymbolTable
 70
1
  0
APPID
  5
219
100
AcDbSymbolTableRecord
100
AcDbRegAppTableRecord
  2
ACAD
 70
0
  0
ENDTAB
  0
TABLE
  2
BLOCK_RECORD
  5
1
100
AcDbSymbolTable
 70
0
  0
BLOCK_RECORD
  5
21A
100
AcDbSymbolTableRecord
100
AcDbBlockTableRecord
  2
*Model_Space
  0
BLOCK_RECORD
  5
21B
100
AcDbSymbolTableRecord
100
AcDbBlockTableRecord
  2
*Paper_Space
  0
ENDTAB
  0
TABLE
  2
DIMSTYLE
  5
A
100
AcDbSymbolTable
 70
1
100
AcDbDimStyleTable
 71
0
  0
DIMSTYLE
105
21C
100
AcDbSymbolTableRecord
100
AcDbDimStyleTableRecord
  2
STANDARD
 70
0
  3

  4

 40
1.0
 41
3.0
 42
0.0625
 43
0.38
 44
0.18
 45
0.0
 46
0.0
 47
0.01
 48
0.01
140
3.0
141
0.09
142
0.0
143
25.4
144
1.0
145
0.0
146
1.0
147
0.09
 71
1.0
 72
0.0
 73
0
 74
0
 75
0
 76
0
 77
1
 78
8
170
0
171
2
172
0
173
0
174
0
175
0
176
0
177
0
178
0
270
2
271
2
272
2
273
2
274
2
275
0
280
0
281
0
282
0
283
1
284
8
285
0
286
0
287
3
288
0
340
11
  0
ENDTAB
  0
ENDSEC
  0
SECTION
  2
BLOCKS
  0
BLOCK
  5
20
100
AcDbEntity
  8
0
100
AcDbBlockBegin
  2
*Model_Space
 70
0
 10
0.0
 20
0.0
 30
0.0
  3
*Model_Space
  1

  0
ENDBLK
  5
21
100
AcDbEntity
  8
0
100
AcDbBlockEnd
  0
BLOCK
  5
1C
100
AcDbEntity
  8
0
100
AcDbBlockBegin
  2
*Paper_Space
 70
0
 10
0.0
 20
0.0
 30
0.0
  3
*Paper_Space
  1

  0
ENDBLK
  5
1D
100
AcDbEntity
  8
0
100
AcDbBlockEnd
  0
ENDSEC
  0
SECTION
  2
ENTITIES
  0
LINE
  5
21D
100
AcDbEntity
  8
ASSI
100
AcDbLine
 62
7
  6
CONTINUOUS
 10
-10.400030461
 20
-24.5
 11
-7.399969539
 21
-24.5
  0
LINE
  5
21E
100
AcDbEntity
  8
ASSI
100
AcDbLine
 62
7
  6
CONTINUOUS
 10
7.399969539
 20
-24.5
 11
10.400030461
 21
-24.5
  0
LINE
  5
21F
100
AcDbEntity
  8
ASSI
100
AcDbLine
 62
253
  6
CONTINUOUS
 10
10.3868630041
 20
-24.4868325431
 11
7.4131369959
 21
-24.4868325431
  0
LINE
  5
220
100
AcDbEntity
  8
ASSI
100
AcDbLine
 62
253
  6
CONTINUOUS
 10
-7.4131370461
 20
-24.486832493
 11
-10.3868630041
 21
-24.4868325431
  0
LINE
  5
221
100
AcDbEntity
  8
ASSI
100
AcDbLine
 62
253
  6
CONTINUOUS
 10
10.5859750215
 20
-24.2368706193
 11
7.2140249785
 21
-24.2368706193
  0
LINE
  5
222
100
AcDbEntity
  8
ASSI
100
AcDbLine
 62
253
  6
CONTINUOUS
 10
-7.2140249785
 20
-24.2368706193
 11
-10.5859750215
 21
-24.2368706193
  0
LINE
  5
223
100
AcDbEntity
  8
ASSI
100
AcDbLine
 62
7
  6
CONTINUOUS
 10
-4.2000380762
 20
-24.0
 11
-1.0499619238
 21
-24.0
  0
LINE
  5
224
100
AcDbEntity
  8
ASSI
100
AcDbLine
 62
7
  6
CONTINUOUS
 10
1.0499619238
 20
-24.0
 11
4.2000380762
 21
-24.0
  0
LINE
  5
225
100
AcDbEntity
  8
ASSI
100
AcDbLine
 62
7
  6
CONTINUOUS
 10
3.7499619238
 20
-23.9825449351
 11
1.0674169887
 21
-23.9825449351
  0
LINE
  5
226
100
AcDbEntity
  8
ASSI
100
AcDbLine
 62
7
  6
CONTINUOUS
 10
-1.0674169887
 20
-23.9825449351
 11
-3.7499619238
 21
-23.9825449351
  0
LINE
  5
227
100
AcDbEntity
  8
ASSI
100
AcDbLine
 62
253
  6
CONTINUOUS
 10
10.5859750215
 20
-23.8443375673
 11
9.0368706193
 21
-23.8443375673
  0
LINE
  5
228
100
AcDbEntity
  8
ASSI
100
AcDbLine
 62
253
  6
CONTINUOUS
 10
-7.2140249785
 20
-23.8443375673
 11
-8.7631293807
 21
-23.8443375673
  0
LINE
  5
229
100
AcDbEntity
  8
ASSI
100
AcDbLine
 62
253
  6
CONTINUOUS
 10
8.7631293807
 20
-23.8443375673
 11
7.2140249785
 21
-23.8443375673
  0
LINE
  5
22A
100
AcDbEntity
  8
ASSI
100
AcDbLine
 62
253
  6
CONTINUOUS
 10
10.3864421555
 20
-23.6278214108
 11
9.2533769702
 21
-23.6278312163
  0
LINE
  5
22B
100
AcDbEntity
  8
ASSI
100
AcDbLine
 62
253
  6
CONTINUOUS
 10
-9.2533769702
 20
-23.6278312163
 11
-10.3864421556
 21
-23.6278214068
  0
LINE
  5
22C
100
AcDbEntity
  8
ASSI
100
AcDbLine
 62
253
  6
CONTINUOUS
 10
8.5466230298
 20
-23.6278312163
 11
7.4135581409
 21
-23.6278312163
  0
LINE
  5
22D
100
AcDbEntity
  8
ASSI
100
AcDbLine
 62
253
  6
CONTINUOUS
 10
-7.4135581409
 20
-23.6278312163
 11
-8.5466230298
 21
-23.6278312163
  0
LINE
  5
22E
100
AcDbEntity
  8
ASSI
100
AcDbLine
 62
7
  6
CONTINUOUS
 10
-10.4017150409
 20
-23.1226497308
 11
-9.3
 21
-23.1226497308
  0
LINE
  5
22F
100
AcDbEntity
  8
ASSI
100
AcDbLine
 62
7
  6
CONTINUOUS
 10
-8.5
 20
-23.1226497308
 11
-7.3982849591
 21
-23.1226497308
  0
LINE
  5
230
100
AcDbEntity
  8
ASSI
100
AcDbLine
 62
7
  6
CONTINUOUS
 10
7.3982849591
 20
-23.1226497308
 11
8.5
 21
-23.1226497308
  0
LINE
  5
231
100
AcDbEntity
  8
ASSI
100
AcDbLine
 62
7
  6
CONTINUOUS
 10
9.3
 20
-23.1226497308
 11
10.4017150409
 21
-23.1226497308
  0
LINE
  5
232
100
AcDbEntity
  8
ASSI
100
AcDbLine
 62
253
  6
CONTINUOUS
 10
-9.0368706193
 20
-23.8443375673
 11
-10.5859750215
 21
-23.8443375673
  0
LINE
  5
233
100
AcDbEntity
  8
ASSI
100
AcDbLine
 62
253
  6
CONTINUOUS
 10
-7.4131369959
 20
24.4868325431
 11
-7.399969539
 21
24.5
  0
LINE
  5
234
100
AcDbEntity
  8
ASSI
100
AcDbLine
 62
253
  6
CONTINUOUS
 10
-7.2131674569
 20
24.2868630041
 11
-7.2
 21
24.300030461
  0
LINE
  5
235
100
AcDbEntity
  8
ASSI
100
AcDbLine
 62
7
  6
CONTINUOUS
 10
-8.5
 20
22.4
 11
-8.5131674569
 21
22.3868325431
  0
LINE
  5
236
100
AcDbEntity
  8
ASSI
100
AcDbLine
 62
7
  6
CONTINUOUS
 10
-7.2551134101
 20
22.3825449351
 11
-8.2325449351
 21
21.4051134101
  0
LINE
  5
237
100
AcDbEntity
  8
ASSI
100
AcDbLine
 62
7
  6
CONTINUOUS
 10
-8.0579942858
 20
20.9872686779
 11
-8.2325449351
 21
20.9
  0
LINE
  5
238
100
AcDbEntity
  8
ASSI
100
AcDbLine
 62
7
  6
CONTINUOUS
 10
-8.0584656028
 20
21.4561094406
 11
-8.2325449351
 21
21.4051134101
  0
LINE
  5
239
100
AcDbEntity
  8
ASSI
100
AcDbLine
 62
7
  6
CONTINUOUS
 10
0.8
 20
-22.4
 11
0.8174550649
 21
-22.398254669
  0
LINE
  5
23A
100
AcDbEntity
  8
ASSI
100
AcDbLine
 62
7
  6
CONTINUOUS
 10
-10.6
 20
-22.3999999999
 11
-9.3
 21
-22.4
  0
LINE
  5
23B
100
AcDbEntity
  8
ASSI
100
AcDbLine
 62
7
  6
CONTINUOUS
 10
-8.5
 20
-22.4
 11
-4.45
 21
-22.4
  0
LINE
  5
23C
100
AcDbEntity
  8
ASSI
100
AcDbLine
 62
7
  6
CONTINUOUS
 10
4.45
 20
-22.4
 11
8.5
 21
-22.4
  0
LINE
  5
23D
100
AcDbEntity
  8
ASSI
100
AcDbLine
 62
7
  6
CONTINUOUS
 10
9.3
 20
-22.4
 11
10.6000000646
 21
-22.3999999354
  0
LINE
  5
23E
100
AcDbEntity
  8
ASSI
100
AcDbLine
 62
7
  6
CONTINUOUS
 10
-0.8174550649
 20
-22.398254669
 11
0.8174550649
 21
-22.398254669
  0
LINE
  5
23F
100
AcDbEntity
  8
ASSI
100
AcDbLine
 62
7
  6
CONTINUOUS
 10
-10.5826210875
 20
-22.3825449351
 11
-9.0368706193
 21
-22.3825449351
  0
LINE
  5
240
100
AcDbEntity
  8
ASSI
100
AcDbLine
 62
7
  6
CONTINUOUS
 10
-8.7631293807
 20
-22.3825449351
 11
-7.2551134101
 21
-22.3825449351
  0
LINE
  5
241
100
AcDbEntity
  8
ASSI
100
AcDbLine
 62
7
  6
CONTINUOUS
 10
-3.5
 20
-22.3825449351
 11
-3.2999714434
 21
-22.3825449351
  0
LINE
  5
242
100
AcDbEntity
  8
ASSI
100
AcDbLine
 62
7
  6
CONTINUOUS
 10
3.2999714434
 20
-22.3825449351
 11
3.5
 21
-22.3825449351
  0
LINE
  5
243
100
AcDbEntity
  8
ASSI
100
AcDbLine
 62
7
  6
CONTINUOUS
 10
7.2551134101
 20
-22.3825449351
 11
8.7631293807
 21
-22.3825449351
  0
LINE
  5
244
100
AcDbEntity
  8
ASSI
100
AcDbLine
 62
7
  6
CONTINUOUS
 10
9.0368706193
 20
-22.3825449351
 11
10.5826210875
 21
-22.3825449351
  0
LINE
  5
245
100
AcDbEntity
  8
ASSI
100
AcDbLine
 62
253
  6
CONTINUOUS
 10
-7.3012233427
 20
-22.2251447178
 11
-3.3786655583
 21
-22.2251447178
  0
LINE
  5
246
100
AcDbEntity
  8
ASSI
100
AcDbLine
 62
253
  6
CONTINUOUS
 10
3.3786655583
 20
-22.2251447178
 11
7.3012233427
 21
-22.2251447178
  0
LINE
  5
247
100
AcDbEntity
  8
ASSI
100
AcDbLine
 62
7
  6
CONTINUOUS
 10
3.05
 20
-21.7
 11
-3.05
 21
-21.7
  0
LINE
  5
248
100
AcDbEntity
  8
ASSI
100
AcDbLine
 62
7
  6
CONTINUOUS
 10
3.1173032135
 20
-21.6326967865
 11
-3.1173032135
 21
-21.6326967865
  0
LINE
  5
249
100
AcDbEntity
  8
ASSI
100
AcDbLine
 62
253
  6
CONTINUOUS
 10
-8.0579942858
 20
-21.2252970227
 11
-3.1351059998
 21
-21.2252970227
  0
LINE
  5
24A
100
AcDbEntity
  8
ASSI
100
AcDbLine
 62
253
  6
CONTINUOUS
 10
3.1351059998
 20
-21.2252970227
 11
8.0579942858
 21
-21.2252970227
  0
LINE
  5
24B
100
AcDbEntity
  8
RACCORDO
100
AcDbLine
 62
7
  6
CONTINUOUS
 10
6.8846620411
 20
-21.0745506493
 11
5.1254493507
 21
-21.0745506493
  0
LINE
  5
24C
100
AcDbEntity
  8
RACCORDO
100
AcDbLine
 62
7
  6
CONTINUOUS
 10
-5.1254493507
 20
-21.0745506493
 11
-6.8846620411
 21
-21.0745506493
  0
LINE
  5
24D
100
AcDbEntity
  8
RACCORDO
100
AcDbLine
 62
7
  6
CONTINUOUS
 10
8.0579942858
 20
-20.9872686779
 11
6.9153379589
 21
-20.9872686779
  0
LINE
  5
24E
100
AcDbEntity
  8
RACCORDO
100
AcDbLine
 62
7
  6
CONTINUOUS
 10
-6.9153379589
 20
-20.9872686779
 11
-8.0579942858
 21
-20.9872686779
  0
LINE
  5
24F
100
AcDbEntity
  8
ASSI
100
AcDbLine
 62
7
  6
CONTINUOUS
 10
-9.65
 20
-20.9
 11
-8.2325449351
 21
-20.9
  0
LINE
  5
250
100
AcDbEntity
  8
ASSI
100
AcDbLine
 62
7
  6
CONTINUOUS
 10
8.2325449351
 20
-20.9
 11
9.65
 21
-20.9
  0
LINE
  5
251
100
AcDbEntity
  8
ASSI
100
AcDbLine
 62
7
  6
CONTINUOUS
 10
-0.8
 20
-22.4
 11
-0.8174550649
 21
-22.398254669
  0
LINE
  5
252
100
AcDbEntity
  8
ASSI
100
AcDbLine
 62
7
  6
CONTINUOUS
 10
-8.0584656028
 20
-21.4561094406
 11
-8.2325449351
 21
-21.4051134101
  0
LINE
  5
253
100
AcDbEntity
  8
ASSI
100
AcDbLine
 62
7
  6
CONTINUOUS
 10
-8.0579942858
 20
-20.9872686779
 11
-8.2325449351
 21
-20.9
  0
LINE
  5
254
100
AcDbEntity
  8
ASSI
100
AcDbLine
 62
253
  6
CONTINUOUS
 10
-7.399969539
 20
-24.5
 11
-7.4131370461
 21
-24.486832493
  0
LINE
  5
255
100
AcDbEntity
  8
ASSI
100
AcDbLine
 62
253
  6
CONTINUOUS
 10
-7.2
 20
-24.300030461
 11
-7.2131674569
 21
-24.286863004
  0
LINE
  5
256
100
AcDbEntity
  8
ASSI
100
AcDbLine
 62
7
  6
CONTINUOUS
 10
-8.5
 20
-22.4
 11
-8.5131674569
 21
-22.3868325431
  0
LINE
  5
257
100
AcDbEntity
  8
ASSI
100
AcDbLine
 62
7
  6
CONTINUOUS
 10
-8.2325449351
 20
-21.4051134101
 11
-7.2551134101
 21
-22.3825449351
  0
LINE
  5
258
100
AcDbEntity
  8
RACCORDO
100
AcDbLine
 62
7
  6
CONTINUOUS
 10
-7.3678819614
 20
20.8321180386
 11
-7.2153265358
 21
20.9846734642
  0
LINE
  5
259
100
AcDbEntity
  8
ASSI
100
AcDbLine
 62
253
  6
CONTINUOUS
 10
-3.8306228363
 20
23.9018840226
 11
-3.7499619238
 21
23.9825449351
  0
LINE
  5
25A
100
AcDbEntity
  8
ASSI
100
AcDbLine
 62
253
  6
CONTINUOUS
 10
-3.5806626995
 20
23.6519203118
 11
-3.5
 21
23.7325830113
  0
LINE
  5
25B
100
AcDbEntity
  8
0
100
AcDbLine
 62
7
  6
CONTINUOUS
 10
-5.1254493507
 20
20.0872686779
 11
-5.4379421647
 21
19.9310341704
  0
LINE
  5
25C
100
AcDbEntity
  8
ASSI
100
AcDbLine
 62
7
  6
CONTINUOUS
 10
-3.3850964806
 20
-20.8
 11
3.3850964806
 21
-20.8
  0
LINE
  5
25D
100
AcDbEntity
  8
ASSI
100
AcDbLine
 62
7
  6
CONTINUOUS
 10
-11.1261859216
 20
-20.4226497308
 11
-11.0825449351
 21
-20.4226497308
  0
LINE
  5
25E
100
AcDbEntity
  8
ASSI
100
AcDbLine
 62
7
  6
CONTINUOUS
 10
11.1261859216
 20
-20.4226497308
 11
11.0825449351
 21
-20.4226497308
  0
LINE
  5
25F
100
AcDbEntity
  8
RACCORDO
100
AcDbLine
 62
253
  6
CONTINUOUS
 10
-7.2153265358
 20
-20.206013577
 11
-6.5846734642
 21
-20.206013577
  0
LINE
  5
260
100
AcDbEntity
  8
RACCORDO
100
AcDbLine
 62
253
  6
CONTINUOUS
 10
6.5846734642
 20
-20.206013577
 11
7.2153265358
 21
-20.206013577
  0
LINE
  5
261
100
AcDbEntity
  8
ASSI
100
AcDbLine
 62
7
  6
CONTINUOUS
 10
-5.1254493507
 20
-20.0872686779
 11
5.1254493507
 21
-20.0872686779
  0
LINE
  5
262
100
AcDbEntity
  8
DRAFT
100
AcDbLine
 62
7
  6
CONTINUOUS
 10
-0.3372664292
 20
-19.9885551946
 11
0.3372664292
 21
-19.9885551946
  0
LINE
  5
263
100
AcDbEntity
  8
RACCORDO
100
AcDbLine
 62
253
  6
CONTINUOUS
 10
6.9167770019
 20
-19.7137747542
 11
6.8832229981
 21
-19.7137747542
  0
LINE
  5
264
100
AcDbEntity
  8
RACCORDO
100
AcDbLine
 62
253
  6
CONTINUOUS
 10
-6.8832229981
 20
-19.7137747542
 11
-6.9167770019
 21
-19.7137747542
  0
LINE
  5
265
100
AcDbEntity
  8
0
100
AcDbLine
 62
7
  6
CONTINUOUS
 10
-4.2765957713
 20
-19.0
 11
-4.0212765634
 21
-19.0
  0
LINE
  5
266
100
AcDbEntity
  8
0
100
AcDbLine
 62
7
  6
CONTINUOUS
 10
-4.2446808815
 20
-18.8125
 11
-3.0
 21
-18.8125
  0
LINE
  5
267
100
AcDbEntity
  8
0
100
AcDbLine
 62
7
  6
CONTINUOUS
 10
-5.4379421647
 20
-19.9310341704
 11
-5.1254493507
 21
-20.0872686779
  0
LINE
  5
268
100
AcDbEntity
  8
RACCORDO
100
AcDbLine
 62
7
  6
CONTINUOUS
 10
-7.2153265358
 20
-20.9846734642
 11
-7.3678819614
 21
-20.8321180386
  0
LINE
  5
269
100
AcDbEntity
  8
ASSI
100
AcDbLine
 62
253
  6
CONTINUOUS
 10
-3.7499619238
 20
-23.9825449351
 11
-3.8306228363
 21
-23.9018840226
  0
LINE
  5
26A
100
AcDbEntity
  8
ASSI
100
AcDbLine
 62
253
  6
CONTINUOUS
 10
-3.5
 20
-23.7325830113
 11
-3.5806626995
 21
-23.6519203118
  0
LINE
  5
26B
100
AcDbEntity
  8
0
100
AcDbLine
 62
7
  6
CONTINUOUS
 10
-5.4372366227
 20
20.7627633773
 11
-5.1254493507
 21
21.0745506493
  0
LINE
  5
26C
100
AcDbEntity
  8
ASSI
100
AcDbLine
 62
7
  6
CONTINUOUS
 10
-3.5806609125
 20
22.3018840226
 11
-3.5
 21
22.3825449351
  0
LINE
  5
26D
100
AcDbEntity
  8
ASSI
100
AcDbLine
 62
253
  6
CONTINUOUS
 10
-1.0674169887
 20
23.9825449351
 11
-1.0499619238
 21
24.0
  0
LINE
  5
26E
100
AcDbEntity
  8
ASSI
100
AcDbLine
 62
7
  6
CONTINUOUS
 10
-3.1173032135
 20
21.6326967865
 11
-3.05
 21
21.7
  0
LINE
  5
26F
100
AcDbEntity
  8
ASSI
100
AcDbLine
 62
253
  6
CONTINUOUS
 10
-0.8174550649
 20
23.7325830113
 11
-0.8
 21
23.7500380762
  0
LINE
  5
270
100
AcDbEntity
  8
0
100
AcDbLine
 62
7
  6
CONTINUOUS
 10
9.4492944489
 20
20.833111737
 11
9.65
 21
20.9
  0
LINE
  5
271
100
AcDbEntity
  8
0
100
AcDbLine
 62
7
  6
CONTINUOUS
 10
-3.0
 20
-18.625
 11
-4.5
 21
-18.625
  0
LINE
  5
272
100
AcDbEntity
  8
0
100
AcDbLine
 62
7
  6
CONTINUOUS
 10
-4.085106343
 20
-18.3750000149
 11
-3.9574467838
 21
-18.3750000149
  0
LINE
  5
273
100
AcDbEntity
  8
0
100
AcDbLine
 62
7
  6
CONTINUOUS
 10
-3.9893616736
 20
-18.2187500298
 11
-4.0531914532
 21
-18.2187500298
  0
LINE
  5
274
100
AcDbEntity
  8
0
100
AcDbLine
 62
7
  6
CONTINUOUS
 10
-4.0531914532
 20
-17.4375000596
 11
-3.9893616736
 21
-17.4375000596
  0
LINE
  5
275
100
AcDbEntity
  8
0
100
AcDbLine
 62
7
  6
CONTINUOUS
 10
-3.7021276653
 20
-17.40625
 11
-3.6382978857
 21
-17.40625
  0
LINE
  5
276
100
AcDbEntity
  8
0
100
AcDbLine
 62
7
  6
CONTINUOUS
 10
-3.6382978857
 20
-17.2500000596
 11
-3.8617021143
 21
-17.2500000596
  0
LINE
  5
277
100
AcDbEntity
  8
0
100
AcDbLine
 62
7
  6
CONTINUOUS
 10
-3.8936170042
 20
-16.9999999404
 11
-3.6063829958
 21
-16.9999999404
  0
LINE
  5
278
100
AcDbEntity
  8
0
100
AcDbLine
 62
7
  6
CONTINUOUS
 10
-3.6382978857
 20
-16.84375
 11
-3.8617021143
 21
-16.84375
  0
LINE
  5
279
100
AcDbEntity
  8
0
100
AcDbLine
 62
7
  6
CONTINUOUS
 10
-3.4148936123
 20
-17.2812499404
 11
-3.6382978857
 21
-17.2500000596
  0
LINE
  5
27A
100
AcDbEntity
  8
0
100
AcDbLine
 62
7
  6
CONTINUOUS
 10
-3.6382978857
 20
-17.40625
 11
-3.4468085021
 21
-17.4375000596
  0
LINE
  5
27B
100
AcDbEntity
  8
0
100
AcDbLine
 62
7
  6
CONTINUOUS
 10
-3.8617021143
 20
-16.84375
 11
-4.0531914532
 21
-16.8124999404
  0
LINE
  5
27C
100
AcDbEntity
  8
0
100
AcDbLine
 62
7
  6
CONTINUOUS
 10
-4.0531914532
 20
-16.9687500596
 11
-3.8936170042
 21
-16.9999999404
  0
LINE
  5
27D
100
AcDbEntity
  8
0
100
AcDbLine
 62
7
  6
CONTINUOUS
 10
-4.0531914532
 20
-18.2187500298
 11
-4.1489362121
 21
-18.1874999702
  0
LINE
  5
27E
100
AcDbEntity
  8
0
100
AcDbLine
 62
7
  6
CONTINUOUS
 10
-3.9893616736
 20
-17.4375000596
 11
-3.8936170042
 21
-17.4687499404
  0
LINE
  5
27F
100
AcDbEntity
  8
0
100
AcDbLine
 62
7
  6
CONTINUOUS
 10
-3.4468085021
 20
-17.4375000596
 11
-3.3510638326
 21
-17.4687499404
  0
LINE
  5
280
100
AcDbEntity
  8
0
100
AcDbLine
 62
7
  6
CONTINUOUS
 10
-4.1489362121
 20
-16.9375
 11
-4.0531914532
 21
-16.9687500596
  0
LINE
  5
281
100
AcDbEntity
  8
0
100
AcDbLine
 62
7
  6
CONTINUOUS
 10
9.4492944489
 20
-20.833111737
 11
9.65
 21
-20.9
  0
LINE
  5
282
100
AcDbEntity
  8
0
100
AcDbLine
 62
7
  6
CONTINUOUS
 10
-4.2446808815
 20
-18.3124999851
 11
-4.085106343
 21
-18.3750000149
  0
LINE
  5
283
100
AcDbEntity
  8
0
100
AcDbLine
 62
7
  6
CONTINUOUS
 10
-3.2553191409
 20
-17.3437500596
 11
-3.4148936123
 21
-17.2812499404
  0
LINE
  5
284
100
AcDbEntity
  8
0
100
AcDbLine
 62
7
  6
CONTINUOUS
 10
-4.2765957713
 20
-16.8750000596
 11
-4.1489362121
 21
-16.9375
  0
LINE
  5
285
100
AcDbEntity
  8
0
100
AcDbLine
 62
7
  6
CONTINUOUS
 10
-4.1489362121
 20
-18.1874999702
 11
-4.2446808815
 21
-18.1250000298
  0
LINE
  5
286
100
AcDbEntity
  8
0
100
AcDbLine
 62
7
  6
CONTINUOUS
 10
-3.8936170042
 20
-17.4687499404
 11
-3.7978723347
 21
-17.5312499702
  0
LINE
  5
287
100
AcDbEntity
  8
0
100
AcDbLine
 62
7
  6
CONTINUOUS
 10
-4.3723404407
 20
-18.2187500298
 11
-4.2446808815
 21
-18.3124999851
  0
LINE
  5
288
100
AcDbEntity
  8
0
100
AcDbLine
 62
7
  6
CONTINUOUS
 10
-4.5
 20
-18.8125
 11
-4.2765957713
 21
-19.0
  0
LINE
  5
289
100
AcDbEntity
  8
0
100
AcDbLine
 62
7
  6
CONTINUOUS
 10
-4.0212765634
 20
-19.0
 11
-4.2446808815
 21
-18.8125
  0
LINE
  5
28A
100
AcDbEntity
  8
0
100
AcDbLine
 62
7
  6
CONTINUOUS
 10
-5.4372366227
 20
-20.7627633773
 11
-5.1254493507
 21
-21.0745506493
  0
LINE
  5
28B
100
AcDbEntity
  8
ASSI
100
AcDbLine
 62
7
  6
CONTINUOUS
 10
-3.5
 20
-22.3825449351
 11
-3.5806609125
 21
-22.3018840226
  0
LINE
  5
28C
100
AcDbEntity
  8
ASSI
100
AcDbLine
 62
253
  6
CONTINUOUS
 10
-1.0499619238
 20
-24.0
 11
-1.0674169887
 21
-23.9825449351
  0
LINE
  5
28D
100
AcDbEntity
  8
ASSI
100
AcDbLine
 62
7
  6
CONTINUOUS
 10
-3.1173032135
 20
-21.6326967865
 11
-3.05
 21
-21.7
  0
LINE
  5
28E
100
AcDbEntity
  8
ASSI
100
AcDbLine
 62
253
  6
CONTINUOUS
 10
-0.8
 20
-23.7500380762
 11
-0.8174550649
 21
-23.7325830113
  0
LINE
  5
28F
100
AcDbEntity
  8
0
100
AcDbLine
 62
7
  6
CONTINUOUS
 10
-3.6063829958
 20
-16.9999999404
 11
-3.4468085021
 21
-16.9687500596
  0
LINE
  5
290
100
AcDbEntity
  8
0
100
AcDbLine
 62
7
  6
CONTINUOUS
 10
-3.8936170042
 20
-15.8750001192
 11
-4.0531914532
 21
-15.90625
  0
LINE
  5
291
100
AcDbEntity
  8
0
100
AcDbLine
 62
7
  6
CONTINUOUS
 10
-3.4468085021
 20
-16.8124999404
 11
-3.6382978857
 21
-16.84375
  0
LINE
  5
292
100
AcDbEntity
  8
0
100
AcDbLine
 62
7
  6
CONTINUOUS
 10
-4.0531914532
 20
-16.0624999404
 11
-3.8617021143
 21
-16.0312500596
  0
LINE
  5
293
100
AcDbEntity
  8
0
100
AcDbLine
 62
7
  6
CONTINUOUS
 10
-3.8617021143
 20
-17.2500000596
 11
-4.085106343
 21
-17.2812499404
  0
LINE
  5
294
100
AcDbEntity
  8
0
100
AcDbLine
 62
7
  6
CONTINUOUS
 10
-3.8617021143
 20
-16.0312500596
 11
-3.6382978857
 21
-16.0312500596
  0
LINE
  5
295
100
AcDbEntity
  8
0
100
AcDbLine
 62
7
  6
CONTINUOUS
 10
-3.6063829958
 20
-15.8750001192
 11
-3.8936170042
 21
-15.8750001192
  0
LINE
  5
296
100
AcDbEntity
  8
DRAFT
100
AcDbLine
 62
7
  6
CONTINUOUS
 10
-0.3746920834
 20
-15.7
 11
0.3746920834
 21
-15.7
  0
LINE
  5
297
100
AcDbEntity
  8
0
100
AcDbLine
 62
7
  6
CONTINUOUS
 10
-3.6382978857
 20
-15.625
 11
-3.4468085021
 21
-15.625
  0
LINE
  5
298
100
AcDbEntity
  8
0
100
AcDbLine
 62
7
  6
CONTINUOUS
 10
-4.2446808815
 20
-14.875
 11
-3.6382978857
 21
-14.875
  0
LINE
  5
299
100
AcDbEntity
  8
0
100
AcDbLine
 62
7
  6
CONTINUOUS
 10
-3.4468085021
 20
-14.875
 11
-3.0
 21
-14.875
  0
LINE
  5
29A
100
AcDbEntity
  8
0
100
AcDbLine
 62
7
  6
CONTINUOUS
 10
-3.0
 20
-14.6875
 11
-3.4468085021
 21
-14.6875
  0
LINE
  5
29B
100
AcDbEntity
  8
0
100
AcDbLine
 62
7
  6
CONTINUOUS
 10
-3.6382978857
 20
-14.6875
 11
-4.5
 21
-14.6875
  0
LINE
  5
29C
100
AcDbEntity
  8
0
100
AcDbLine
 62
7
  6
CONTINUOUS
 10
-3.6382978857
 20
-16.0312500596
 11
-3.4468085021
 21
-16.0624999404
  0
LINE
  5
29D
100
AcDbEntity
  8
0
100
AcDbLine
 62
7
  6
CONTINUOUS
 10
-3.4468085021
 20
-15.90625
 11
-3.6063829958
 21
-15.8750001192
  0
LINE
  5
29E
100
AcDbEntity
  8
0
100
AcDbLine
 62
7
  6
CONTINUOUS
 10
-8.4123
 20
-14.1616
 11
-6.76047
 21
-14.633011
  0
LINE
  5
29F
100
AcDbEntity
  8
0
100
AcDbLine
 62
7
  6
CONTINUOUS
 10
-6.012539
 20
-14.432397
 11
-8.4123
 21
-13.661017
  0
LINE
  5
2A0
100
AcDbEntity
  8
0
100
AcDbLine
 62
7
  6
CONTINUOUS
 10
-3.3510638326
 20
-15.9374998808
 11
-3.4468085021
 21
-15.90625
  0
LINE
  5
2A1
100
AcDbEntity
  8
0
100
AcDbLine
 62
7
  6
CONTINUOUS
 10
-3.223404251
 20
-16.0
 11
-3.3510638326
 21
-15.9374998808
  0
LINE
  5
2A2
100
AcDbEntity
  8
0
100
AcDbLine
 62
7
  6
CONTINUOUS
 10
-3.3510638326
 20
-17.4687499404
 11
-3.2553191409
 21
-17.5312499702
  0
LINE
  5
2A3
100
AcDbEntity
  8
0
100
AcDbLine
 62
7
  6
CONTINUOUS
 10
-4.0531914532
 20
-16.8124999404
 11
-4.2446808815
 21
-16.6875000596
  0
LINE
  5
2A4
100
AcDbEntity
  8
0
100
AcDbLine
 62
7
  6
CONTINUOUS
 10
-3.4468085021
 20
-16.0624999404
 11
-3.2553191409
 21
-16.1875
  0
LINE
  5
2A5
100
AcDbEntity
  8
0
100
AcDbLine
 62
7
  6
CONTINUOUS
 10
-3.1276595704
 20
-17.4375000596
 11
-3.2553191409
 21
-17.3437500596
  0
LINE
  5
2A6
100
AcDbEntity
  8
0
100
AcDbLine
 62
7
  6
CONTINUOUS
 10
-4.3723404407
 20
-16.7812500596
 11
-4.2765957713
 21
-16.8750000596
  0
LINE
  5
2A7
100
AcDbEntity
  8
ASSI
100
AcDbLine
 62
7
  6
CONTINUOUS
 10
-7.3012233427
 20
22.2251447178
 11
-7.2551134101
 21
22.3825449351
  0
LINE
  5
2A8
100
AcDbEntity
  8
ASSI
100
AcDbLine
 62
253
  6
CONTINUOUS
 10
-3.3786655583
 20
22.2251447178
 11
-3.2999714434
 21
22.3825449351
  0
LINE
  5
2A9
100
AcDbEntity
  8
ASSI
100
AcDbLine
 62
253
  6
CONTINUOUS
 10
-3.1286750776
 20
21.975182794
 11
-3.05
 21
22.1325449336
  0
LINE
  5
2AA
100
AcDbEntity
  8
DRAFT
100
AcDbLine
 62
7
  6
CONTINUOUS
 10
-0.3956413238
 20
19.9301802999
 11
-0.3372664292
 21
19.9885551946
  0
LINE
  5
2AB
100
AcDbEntity
  8
ASSI
100
AcDbLine
 62
253
  6
CONTINUOUS
 10
4.1019220988
 20
23.9018840226
 11
4.2000380762
 21
24.0
  0
LINE
  5
2AC
100
AcDbEntity
  8
0
100
AcDbLine
 62
7
  6
CONTINUOUS
 10
-6.029109
 20
13.575195
 11
-7.280432
 21
12.323912
  0
LINE
  5
2AD
100
AcDbEntity
  8
ASSI
100
AcDbLine
 62
253
  6
CONTINUOUS
 10
4.3518822356
 20
23.6519203118
 11
4.45
 21
23.7500380762
  0
LINE
  5
2AE
100
AcDbEntity
  8
0
100
AcDbLine
 62
7
  6
CONTINUOUS
 10
-7.280433
 20
11.872704
 11
-6.029109
 21
13.124025
  0
LINE
  5
2AF
100
AcDbEntity
  8
ASSI
100
AcDbLine
 62
7
  6
CONTINUOUS
 10
4.45
 20
22.4
 11
4.3518840226
 21
22.3018840226
  0
LINE
  5
2B0
100
AcDbEntity
  8
0
100
AcDbLine
 62
7
  6
CONTINUOUS
 10
-6.0291091667
 20
11.0081341667
 11
-7.1062858333
 21
10.4428941667
  0
LINE
  5
2B1
100
AcDbEntity
  8
0
100
AcDbLine
 62
7
  6
CONTINUOUS
 10
-3.4468085021
 20
-14.3750001192
 11
-3.6382978857
 21
-14.3750001192
  0
LINE
  5
2B2
100
AcDbEntity
  8
0
100
AcDbLine
 62
7
  6
CONTINUOUS
 10
-3.6382978857
 20
-14.125
 11
-3.4468085021
 21
-14.125
  0
LINE
  5
2B3
100
AcDbEntity
  8
0
100
AcDbLine
 62
7
  6
CONTINUOUS
 10
-8.412444
 20
-13.475123
 11
-6.012539
 21
-13.475123
  0
LINE
  5
2B4
100
AcDbEntity
  8
0
100
AcDbLine
 62
7
  6
CONTINUOUS
 10
-4.2446808815
 20
-13.375
 11
-3.6382978857
 21
-13.375
  0
LINE
  5
2B5
100
AcDbEntity
  8
0
100
AcDbLine
 62
7
  6
CONTINUOUS
 10
-3.4468085021
 20
-13.375
 11
-3.3878964044
 21
-13.375
  0
LINE
  5
2B6
100
AcDbEntity
  8
ASSI
100
AcDbLine
 62
7
  6
CONTINUOUS
 10
9.048037
 20
-13.367554
 11
8.29722
 21
-13.367554
  0
LINE
  5
2B7
100
AcDbEntity
  8
ASSI
100
AcDbLine
 62
7
  6
CONTINUOUS
 10
4.70278
 20
-13.367554
 11
3.951963
 21
-13.367554
  0
LINE
  5
2B8
100
AcDbEntity
  8
0
100
AcDbLine
 62
7
  6
CONTINUOUS
 10
-3.6382978857
 20
-13.1875
 11
-4.5
 21
-13.1875
  0
LINE
  5
2B9
100
AcDbEntity
  8
0
100
AcDbLine
 62
7
  6
CONTINUOUS
 10
-6.012539
 20
-12.974199
 11
-8.412444
 21
-12.974199
  0
LINE
  5
2BA
100
AcDbEntity
  8
0
100
AcDbLine
 62
7
  6
CONTINUOUS
 10
-6.012539
 20
-12.225314
 11
-7.579538
 21
-12.117215
  0
LINE
  5
2BB
100
AcDbEntity
  8
0
100
AcDbLine
 62
7
  6
CONTINUOUS
 10
-8.4123
 20
-12.487851
 11
-6.012539
 21
-12.704536
  0
LINE
  5
2BC
100
AcDbEntity
  8
0
100
AcDbLine
 62
7
  6
CONTINUOUS
 10
-8.4123
 20
-10.990783
 11
-7.079945
 21
-11.491707
  0
LINE
  5
2BD
100
AcDbEntity
  8
0
100
AcDbLine
 62
7
  6
CONTINUOUS
 10
-6.012539
 20
-11.459315
 11
-7.573005
 21
-10.863716
  0
LINE
  5
2BE
100
AcDbEntity
  8
0
100
AcDbLine
 62
7
  6
CONTINUOUS
 10
-4.5
 20
-14.875
 11
-3.6382978857
 21
-15.625
  0
LINE
  5
2BF
100
AcDbEntity
  8
0
100
AcDbLine
 62
7
  6
CONTINUOUS
 10
-4.5
 20
-13.375
 11
-3.6382978857
 21
-14.125
  0
LINE
  5
2C0
100
AcDbEntity
  8
0
100
AcDbLine
 62
7
  6
CONTINUOUS
 10
-3.6382978857
 20
-15.4062501192
 11
-4.2446808815
 21
-14.875
  0
LINE
  5
2C1
100
AcDbEntity
  8
0
100
AcDbLine
 62
7
  6
CONTINUOUS
 10
-3.6382978857
 20
-13.9062501192
 11
-4.2446808815
 21
-13.375
  0
LINE
  5
2C2
100
AcDbEntity
  8
0
100
AcDbLine
 62
7
  6
CONTINUOUS
 10
-3.1276595704
 20
-16.09375
 11
-3.223404251
 21
-16.0
  0
LINE
  5
2C3
100
AcDbEntity
  8
DRAFT
100
AcDbLine
 62
7
  6
CONTINUOUS
 10
-0.3956413238
 20
-19.9301802999
 11
-0.3372664292
 21
-19.9885551946
  0
LINE
  5
2C4
100
AcDbEntity
  8
ASSI
100
AcDbLine
 62
253
  6
CONTINUOUS
 10
4.2000380762
 20
-24.0
 11
4.1019220988
 21
-23.9018840226
  0
LINE
  5
2C5
100
AcDbEntity
  8
ASSI
100
AcDbLine
 62
253
  6
CONTINUOUS
 10
4.45
 20
-23.7500380762
 11
4.3518822356
 21
-23.6519203118
  0
LINE
  5
2C6
100
AcDbEntity
  8
ASSI
100
AcDbLine
 62
7
  6
CONTINUOUS
 10
4.45
 20
-22.4
 11
4.3518840226
 21
-22.3018840226
  0
LINE
  5
2C7
100
AcDbEntity
  8
0
100
AcDbLine
 62
7
  6
CONTINUOUS
 10
-4.2446808815
 20
-18.1250000298
 11
-4.3085106611
 21
-18.0312500298
  0
LINE
  5
2C8
100
AcDbEntity
  8
0
100
AcDbLine
 62
7
  6
CONTINUOUS
 10
-3.7978723347
 20
-17.5312499702
 11
-3.7340425551
 21
-17.6249999702
  0
LINE
  5
2C9
100
AcDbEntity
  8
0
100
AcDbLine
 62
7
  6
CONTINUOUS
 10
-4.2446808815
 20
-16.6875000596
 11
-4.3085106611
 21
-16.5937500596
  0
LINE
  5
2CA
100
AcDbEntity
  8
0
100
AcDbLine
 62
7
  6
CONTINUOUS
 10
-3.574468106
 20
-17.59375
 11
-3.7021276653
 21
-17.40625
  0
LINE
  5
2CB
100
AcDbEntity
  8
0
100
AcDbLine
 62
7
  6
CONTINUOUS
 10
-3.2553191409
 20
-17.5312499702
 11
-3.1914893612
 21
-17.6249999702
  0
LINE
  5
2CC
100
AcDbEntity
  8
0
100
AcDbLine
 62
7
  6
CONTINUOUS
 10
-4.4680851102
 20
-18.0625
 11
-4.3723404407
 21
-18.2187500298
  0
LINE
  5
2CD
100
AcDbEntity
  8
0
100
AcDbLine
 62
7
  6
CONTINUOUS
 10
-4.4680851102
 20
-16.6249999404
 11
-4.3723404407
 21
-16.7812500596
  0
LINE
  5
2CE
100
AcDbEntity
  8
ASSI
100
AcDbLine
 62
253
  6
CONTINUOUS
 10
-3.2999714434
 20
-22.3825449351
 11
-3.3786655583
 21
-22.2251447178
  0
LINE
  5
2CF
100
AcDbEntity
  8
ASSI
100
AcDbLine
 62
253
  6
CONTINUOUS
 10
-3.05
 20
-22.1325449336
 11
-3.1286750776
 21
-21.975182794
  0
LINE
  5
2D0
100
AcDbEntity
  8
ASSI
100
AcDbLine
 62
7
  6
CONTINUOUS
 10
-7.3012233427
 20
-22.2251447178
 11
-7.2551134101
 21
-22.3825449351
  0
LINE
  5
2D1
100
AcDbEntity
  8
ASSI
100
AcDbLine
 62
7
  6
CONTINUOUS
 10
-11.1261859216
 20
-20.4226497308
 11
-11.1
 21
-21.0
  0
LINE
  5
2D2
100
AcDbEntity
  8
ASSI
100
AcDbLine
 62
253
  6
CONTINUOUS
 10
-10.5864113981
 20
-23.8010362971
 11
-10.6
 21
-23.3515746082
  0
LINE
  5
2D3
100
AcDbEntity
  8
ASSI
100
AcDbLine
 62
253
  6
CONTINUOUS
 10
-10.3864421556
 20
-23.6278214068
 11
-10.4017150409
 21
-23.1226497308
  0
LINE
  5
2D4
100
AcDbEntity
  8
ASSI
100
AcDbLine
 62
7
  6
CONTINUOUS
 10
-11.1
 20
21.0
 11
-11.0825449351
 21
20.4226497308
  0
LINE
  5
2D5
100
AcDbEntity
  8
ASSI
100
AcDbLine
 62
7
  6
CONTINUOUS
 10
-11.1261859216
 20
20.4226497308
 11
-11.1261859216
 21
-20.4226497308
  0
LINE
  5
2D6
100
AcDbEntity
  8
ASSI
100
AcDbLine
 62
7
  6
CONTINUOUS
 10
-11.1
 20
21.9000761524
 11
-11.1
 21
21.0
  0
LINE
  5
2D7
100
AcDbEntity
  8
ASSI
100
AcDbLine
 62
7
  6
CONTINUOUS
 10
-11.1
 20
-21.9000761524
 11
-11.1
 21
-21.0
  0
LINE
  5
2D8
100
AcDbEntity
  8
ASSI
100
AcDbLine
 62
7
  6
CONTINUOUS
 10
-11.0825449351
 20
-21.8826210875
 11
-11.0825449351
 21
-20.4226497308
  0
LINE
  5
2D9
100
AcDbEntity
  8
ASSI
100
AcDbLine
 62
7
  6
CONTINUOUS
 10
-11.0825449351
 20
20.4226497308
 11
-11.0825449351
 21
21.8826210875
  0
LINE
  5
2DA
100
AcDbEntity
  8
ASSI
100
AcDbLine
 62
7
  6
CONTINUOUS
 10
-10.6
 20
24.300030461
 11
-10.6000000646
 21
22.3999999296
  0
LINE
  5
2DB
100
AcDbEntity
  8
ASSI
100
AcDbLine
 62
7
  6
CONTINUOUS
 10
-10.6
 20
-22.3999997358
 11
-10.6
 21
-24.300030461
  0
LINE
  5
2DC
100
AcDbEntity
  8
ASSI
100
AcDbLine
 62
253
  6
CONTINUOUS
 10
-10.5859750215
 20
-24.2368706193
 11
-10.5859750215
 21
-23.8443375673
  0
LINE
  5
2DD
100
AcDbEntity
  8
ASSI
100
AcDbLine
 62
253
  6
CONTINUOUS
 10
-10.5859750215
 20
23.8443375673
 11
-10.5859750215
 21
24.2368706193
  0
LINE
  5
2DE
100
AcDbEntity
  8
ASSI
100
AcDbLine
 62
253
  6
CONTINUOUS
 10
-10.3860054824
 20
-24.2368706193
 11
-10.3860054824
 21
-23.844250724
  0
LINE
  5
2DF
100
AcDbEntity
  8
ASSI
100
AcDbLine
 62
253
  6
CONTINUOUS
 10
-10.3860054824
 20
23.844357602
 11
-10.3860054824
 21
24.2368706193
  0
LINE
  5
2E0
100
AcDbEntity
  8
ASSI
100
AcDbLine
 62
253
  6
CONTINUOUS
 10
-10.6
 20
23.3515746082
 11
-10.5864113981
 21
23.8010362971
  0
LINE
  5
2E1
100
AcDbEntity
  8
ASSI
100
AcDbLine
 62
253
  6
CONTINUOUS
 10
-10.4017150409
 20
23.1226497308
 11
-10.3864405812
 21
23.6278734826
  0
LINE
  5
2E2
100
AcDbEntity
  8
ASSI
100
AcDbLine
 62
7
  6
CONTINUOUS
 10
-11.0825449351
 20
-20.4226497308
 11
-11.1
 21
-21.0
  0
LINE
  5
2E3
100
AcDbEntity
  8
ASSI
100
AcDbLine
 62
7
  6
CONTINUOUS
 10
-11.1
 20
21.0
 11
-11.1261859216
 21
20.4226497308
  0
LINE
  5
2E4
100
AcDbEntity
  8
ASSI
100
AcDbLine
 62
7
  6
CONTINUOUS
 10
4.262274
 20
16.596221
 11
4.525886
 21
16.744178
  0
LINE
  5
2E5
100
AcDbEntity
  8
0
100
AcDbLine
 62
7
  6
CONTINUOUS
 10
-7.3963825
 20
9.9303633333
 11
-6.0291091667
 21
10.6478158333
  0
LINE
  5
2E6
100
AcDbEntity
  8
0
100
AcDbLine
 62
7
  6
CONTINUOUS
 10
0.2388223726
 20
12.372106287
 11
0.2469303789
 21
12.3758403852
  0
LINE
  5
2E7
100
AcDbEntity
  8
0
100
AcDbLine
 62
7
  6
CONTINUOUS
 10
-6.76047
 20
-14.633011
 11
-8.4123
 21
-15.090449
  0
LINE
  5
2E8
100
AcDbEntity
  8
0
100
AcDbLine
 62
7
  6
CONTINUOUS
 10
-7.573005
 20
-10.863716
 11
-6.012539
 21
-10.7608
  0
LINE
  5
2E9
100
AcDbEntity
  8
RACCORDO
100
AcDbLine
 62
253
  6
CONTINUOUS
 10
-4.3068156058
 20
-11.6478865147
 11
-3.9788848344
 21
-11.642929717
  0
LINE
  5
2EA
100
AcDbEntity
  8
RACCORDO
100
AcDbLine
 62
253
  6
CONTINUOUS
 10
-4.649648509
 20
-11.3491528964
 11
-3.9981136784
 21
-11.3393047009
  0
LINE
  5
2EB
100
AcDbEntity
  8
RACCORDO
100
AcDbLine
 62
253
  6
CONTINUOUS
 10
4.6527036778
 20
-11.1508009236
 11
3.9972846601
 21
-11.1607078301
  0
LINE
  5
2EC
100
AcDbEntity
  8
RACCORDO
100
AcDbLine
 62
253
  6
CONTINUOUS
 10
4.3191584032
 20
-10.8519269192
 11
3.9798787707
 21
-10.8570552592
  0
LINE
  5
2ED
100
AcDbEntity
  8
RACCORDO
100
AcDbLine
 62
253
  6
CONTINUOUS
 10
3.9788848344
 20
-11.642929717
 11
4.3068156058
 21
-11.6478865147
  0
LINE
  5
2EE
100
AcDbEntity
  8
RACCORDO
100
AcDbLine
 62
253
  6
CONTINUOUS
 10
3.9981136784
 20
-11.3393047009
 11
4.649648509
 21
-11.3491528964
  0
LINE
  5
2EF
100
AcDbEntity
  8
RACCORDO
100
AcDbLine
 62
253
  6
CONTINUOUS
 10
-3.9972846601
 20
-11.1607078301
 11
-4.6527036778
 21
-11.1508009236
  0
LINE
  5
2F0
100
AcDbEntity
  8
RACCORDO
100
AcDbLine
 62
253
  6
CONTINUOUS
 10
-3.9798787707
 20
-10.8570552592
 11
-4.3191584032
 21
-10.8519269192
  0
LINE
  5
2F1
100
AcDbEntity
  8
0
100
AcDbLine
 62
7
  6
CONTINUOUS
 10
-6.862325
 20
-9.455924
 11
-7.752907
 21
-9.206505
  0
LINE
  5
2F2
100
AcDbEntity
  8
0
100
AcDbLine
 62
7
  6
CONTINUOUS
 10
-6.012539
 20
-9.696614
 11
-6.491616
 21
-9.55839
  0
LINE
  5
2F3
100
AcDbEntity
  8
0
100
AcDbLine
 62
7
  6
CONTINUOUS
 10
-8.4123
 20
-9.439386
 11
-6.012539
 21
-10.192104
  0
LINE
  5
2F4
100
AcDbEntity
  8
0
100
AcDbLine
 62
7
  6
CONTINUOUS
 10
0.2469303309
 20
-12.3758404778
 11
0.2388223825
 21
-12.3721062937
  0
LINE
  5
2F5
100
AcDbEntity
  8
0
100
AcDbLine
 62
7
  6
CONTINUOUS
 10
-3.2553191409
 20
-16.1875
 11
-3.1914893612
 21
-16.28125
  0
LINE
  5
2F6
100
AcDbEntity
  8
0
100
AcDbLine
 62
7
  6
CONTINUOUS
 10
-3.0319148926
 20
-17.59375
 11
-3.1276595704
 21
-17.4375000596
  0
LINE
  5
2F7
100
AcDbEntity
  8
0
100
AcDbLine
 62
7
  6
CONTINUOUS
 10
-3.0319148926
 20
-16.2499999404
 11
-3.1276595704
 21
-16.09375
  0
LINE
  5
2F8
100
AcDbEntity
  8
ASSI
100
AcDbLine
 62
7
  6
CONTINUOUS
 10
-9.3
 20
-23.1226497308
 11
-9.2868325431
 21
-23.5581814706
  0
LINE
  5
2F9
100
AcDbEntity
  8
ASSI
100
AcDbLine
 62
7
  6
CONTINUOUS
 10
-9.65
 20
-20.9
 11
-9.65
 21
20.9
  0
LINE
  5
2FA
100
AcDbEntity
  8
0
100
AcDbLine
 62
7
  6
CONTINUOUS
 10
-9.319212
 20
15.466106
 11
-9.319212
 21
15.014938
  0
LINE
  5
2FB
100
AcDbEntity
  8
ASSI
100
AcDbLine
 62
7
  6
CONTINUOUS
 10
-9.3
 20
23.1226497308
 11
-9.3
 21
22.4
  0
LINE
  5
2FC
100
AcDbEntity
  8
ASSI
100
AcDbLine
 62
7
  6
CONTINUOUS
 10
-9.3
 20
-22.4
 11
-9.3
 21
-23.1226497308
  0
LINE
  5
2FD
100
AcDbEntity
  8
ASSI
100
AcDbLine
 62
253
  6
CONTINUOUS
 10
-9.2868325431
 20
23.5581814706
 11
-9.2868325431
 21
22.3868325431
  0
LINE
  5
2FE
100
AcDbEntity
  8
ASSI
100
AcDbLine
 62
253
  6
CONTINUOUS
 10
-9.2868325431
 20
-22.3868325431
 11
-9.2868325431
 21
-23.5581814706
  0
LINE
  5
2FF
100
AcDbEntity
  8
ASSI
100
AcDbLine
 62
253
  6
CONTINUOUS
 10
-9.0368706193
 20
23.8443375673
 11
-9.0368706193
 21
22.3825449351
  0
LINE
  5
300
100
AcDbEntity
  8
ASSI
100
AcDbLine
 62
253
  6
CONTINUOUS
 10
-9.0368706193
 20
-22.3825449351
 11
-9.0368706193
 21
-23.8443375673
  0
LINE
  5
301
100
AcDbEntity
  8
ASSI
100
AcDbLine
 62
253
  6
CONTINUOUS
 10
-8.7631293807
 20
23.8443375673
 11
-8.7631293807
 21
22.3825449351
  0
LINE
  5
302
100
AcDbEntity
  8
ASSI
100
AcDbLine
 62
253
  6
CONTINUOUS
 10
-8.7631293807
 20
-22.3825449351
 11
-8.7631293807
 21
-23.8443375673
  0
LINE
  5
303
100
AcDbEntity
  8
0
100
AcDbLine
 62
7
  6
CONTINUOUS
 10
-8.75355
 20
14.449275
 11
-8.75355
 21
14.900463
  0
LINE
  5
304
100
AcDbEntity
  8
0
100
AcDbLine
 62
7
  6
CONTINUOUS
 10
-8.534582
 20
13.578022
 11
-8.534582
 21
13.126853
  0
LINE
  5
305
100
AcDbEntity
  8
0
100
AcDbLine
 62
7
  6
CONTINUOUS
 10
-8.529846
 20
11.738368
 11
-8.529846
 21
11.419319
  0
LINE
  5
306
100
AcDbEntity
  8
0
100
AcDbLine
 62
7
  6
CONTINUOUS
 10
-8.525679
 20
15.591746
 11
-8.525679
 21
13.904142
  0
LINE
  5
307
100
AcDbEntity
  8
0
100
AcDbLine
 62
7
  6
CONTINUOUS
 10
-8.5220891667
 20
10.2261381667
 11
-8.5220891667
 21
9.22227
  0
LINE
  5
308
100
AcDbEntity
  8
0
100
AcDbLine
 62
7
  6
CONTINUOUS
 10
-8.522089
 20
8.893323
 11
-8.522089
 21
8.612279
  0
LINE
  5
309
100
AcDbEntity
  8
ASSI
100
AcDbLine
 62
253
  6
CONTINUOUS
 10
-8.5131674569
 20
23.5581814706
 11
-8.5131674569
 21
22.3868325431
  0
LINE
  5
30A
100
AcDbEntity
  8
ASSI
100
AcDbLine
 62
253
  6
CONTINUOUS
 10
-8.5131674569
 20
-22.3868325431
 11
-8.5131674569
 21
-23.5581814706
  0
LINE
  5
30B
100
AcDbEntity
  8
ASSI
100
AcDbLine
 62
7
  6
CONTINUOUS
 10
-8.5
 20
23.1226497308
 11
-8.5
 21
22.4
  0
LINE
  5
30C
100
AcDbEntity
  8
ASSI
100
AcDbLine
 62
7
  6
CONTINUOUS
 10
-8.5
 20
-22.4
 11
-8.5
 21
-23.1226497308
  0
LINE
  5
30D
100
AcDbEntity
  8
0
100
AcDbLine
 62
7
  6
CONTINUOUS
 10
-8.412444
 20
-12.974199
 11
-8.412444
 21
-13.475123
  0
LINE
  5
30E
100
AcDbEntity
  8
0
100
AcDbLine
 62
7
  6
CONTINUOUS
 10
-8.4123
 20
-8.954801
 11
-8.4123
 21
-9.439386
  0
LINE
  5
30F
100
AcDbEntity
  8
0
100
AcDbLine
 62
7
  6
CONTINUOUS
 10
-8.4123
 20
-10.495167
 11
-8.4123
 21
-10.990783
  0
LINE
  5
310
100
AcDbEntity
  8
0
100
AcDbLine
 62
7
  6
CONTINUOUS
 10
-8.4123
 20
-11.987341
 11
-8.4123
 21
-12.487851
  0
LINE
  5
311
100
AcDbEntity
  8
0
100
AcDbLine
 62
7
  6
CONTINUOUS
 10
-8.4123
 20
-13.661017
 11
-8.4123
 21
-14.1616
  0
LINE
  5
312
100
AcDbEntity
  8
0
100
AcDbLine
 62
7
  6
CONTINUOUS
 10
-8.4123
 20
-15.090449
 11
-8.4123
 21
-15.634608
  0
LINE
  5
313
100
AcDbEntity
  8
RACCORDO
100
AcDbLine
 62
253
  6
CONTINUOUS
 10
-8.2465803894
 20
-2.4362959141
 11
-8.2465803894
 21
-1.2935615297
  0
LINE
  5
314
100
AcDbEntity
  8
RACCORDO
100
AcDbLine
 62
253
  6
CONTINUOUS
 10
-8.2465803894
 20
1.2935615297
 11
-8.2465803894
 21
2.4362959142
  0
LINE
  5
315
100
AcDbEntity
  8
ASSI
100
AcDbLine
 62
7
  6
CONTINUOUS
 10
-8.2325449351
 20
21.4051134101
 11
-8.2325449351
 21
20.9
  0
LINE
  5
316
100
AcDbEntity
  8
ASSI
100
AcDbLine
 62
7
  6
CONTINUOUS
 10
-8.2325449351
 20
-21.4051134101
 11
-8.2325449351
 21
-20.9
  0
LINE
  5
317
100
AcDbEntity
  8
0
100
AcDbLine
 62
7
  6
CONTINUOUS
 10
-8.20663
 20
14.223193
 11
-8.20663
 21
15.591746
  0
LINE
  5
318
100
AcDbEntity
  8
ASSI
100
AcDbLine
 62
7
  6
CONTINUOUS
 10
-9.2868325431
 20
23.5581814706
 11
-9.3
 21
23.1226497308
  0
LINE
  5
319
100
AcDbEntity
  8
ASSI
100
AcDbLine
 62
253
  6
CONTINUOUS
 10
10.6
 20
22.3999999999
 11
10.5826210875
 21
22.3825449351
  0
LINE
  5
31A
100
AcDbEntity
  8
ASSI
100
AcDbLine
 62
253
  6
CONTINUOUS
 10
10.400030461
 20
24.5
 11
10.3868630041
 21
24.4868325431
  0
LINE
  5
31B
100
AcDbEntity
  8
ASSI
100
AcDbLine
 62
253
  6
CONTINUOUS
 10
10.6
 20
24.300030461
 11
10.5868325431
 21
24.2868630041
  0
LINE
  5
31C
100
AcDbEntity
  8
ASSI
100
AcDbLine
 62
7
  6
CONTINUOUS
 10
9.3
 20
22.4
 11
9.2868325431
 21
22.3868325431
  0
LINE
  5
31D
100
AcDbEntity
  8
0
100
AcDbLine
 62
7
  6
CONTINUOUS
 10
7.425
 20
14.692245
 11
8.112117
 21
15.126297
  0
LINE
  5
31E
100
AcDbEntity
  8
0
100
AcDbLine
 62
7
  6
CONTINUOUS
 10
7.977632
 20
15.203211
 11
7.425
 21
14.873232
  0
LINE
  5
31F
100
AcDbEntity
  8
0
100
AcDbLine
 62
7
  6
CONTINUOUS
 10
-0.2388223726
 20
10.127893713
 11
-0.2469303789
 21
10.1241596148
  0
LINE
  5
320
100
AcDbEntity
  8
0
100
AcDbLine
 62
7
  6
CONTINUOUS
 10
8.575
 20
13.75848
 11
7.425
 21
13.341978
  0
LINE
  5
321
100
AcDbEntity
  8
0
100
AcDbLine
 62
7
  6
CONTINUOUS
 10
8.240277
 20
13.474938
 11
8.575
 21
13.588654
  0
LINE
  5
322
100
AcDbEntity
  8
0
100
AcDbLine
 62
7
  6
CONTINUOUS
 10
7.591806
 20
13.247523
 11
8.102537
 21
13.418865
  0
LINE
  5
323
100
AcDbEntity
  8
0
100
AcDbLine
 62
7
  6
CONTINUOUS
 10
-6.012539
 20
-10.270762
 11
-8.4123
 21
-10.495167
  0
LINE
  5
324
100
AcDbEntity
  8
ASSI
100
AcDbLine
 62
7
  6
CONTINUOUS
 10
6.875
 20
-9.382444
 11
6.125
 21
-9.382444
  0
LINE
  5
325
100
AcDbEntity
  8
RACCORDO
100
AcDbLine
 62
7
  6
CONTINUOUS
 10
-4.9
 20
-9.0
 11
-4.2
 21
-9.0
  0
LINE
  5
326
100
AcDbEntity
  8
0
100
AcDbLine
 62
7
  6
CONTINUOUS
 10
-4.2
 20
-9.0
 11
-3.3056387431
 21
-9.0
  0
LINE
  5
327
100
AcDbEntity
  8
0
100
AcDbLine
 62
7
  6
CONTINUOUS
 10
3.3056387431
 20
-9.0
 11
4.2
 21
-9.0
  0
LINE
  5
328
100
AcDbEntity
  8
RACCORDO
100
AcDbLine
 62
7
  6
CONTINUOUS
 10
4.2
 20
-9.0
 11
4.9
 21
-9.0
  0
LINE
  5
329
100
AcDbEntity
  8
ASSI
100
AcDbLine
 62
7
  6
CONTINUOUS
 10
9.0480371177
 20
-8.982444
 11
8.2972169516
 21
-8.982444
  0
LINE
  5
32A
100
AcDbEntity
  8
0
100
AcDbLine
 62
7
  6
CONTINUOUS
 10
-0.2469303309
 20
-10.1241595222
 11
-0.2388223825
 21
-10.1278937063
  0
LINE
  5
32B
100
AcDbEntity
  8
ASSI
100
AcDbLine
 62
253
  6
CONTINUOUS
 10
10.3868630041
 20
-24.4868325431
 11
10.400030461
 21
-24.5
  0
LINE
  5
32C
100
AcDbEntity
  8
ASSI
100
AcDbLine
 62
253
  6
CONTINUOUS
 10
10.5868325431
 20
-24.286863004
 11
10.6
 21
-24.300030461
  0
LINE
  5
32D
100
AcDbEntity
  8
ASSI
100
AcDbLine
 62
7
  6
CONTINUOUS
 10
9.3
 20
-22.4
 11
9.2868325431
 21
-22.3868325431
  0
LINE
  5
32E
100
AcDbEntity
  8
ASSI
100
AcDbLine
 62
253
  6
CONTINUOUS
 10
10.5826210875
 20
-22.3825449351
 11
10.6000000646
 21
-22.3999999354
  0
LINE
  5
32F
100
AcDbEntity
  8
0
100
AcDbLine
 62
7
  6
CONTINUOUS
 10
-4.3085106611
 20
-18.0312500298
 11
-4.3404255509
 21
-17.9375000298
  0
LINE
  5
330
100
AcDbEntity
  8
0
100
AcDbLine
 62
7
  6
CONTINUOUS
 10
-3.7340425551
 20
-17.6249999702
 11
-3.7021276653
 21
-17.7187499702
  0
LINE
  5
331
100
AcDbEntity
  8
0
100
AcDbLine
 62
7
  6
CONTINUOUS
 10
-3.1914893612
 20
-17.6249999702
 11
-3.1595744714
 21
-17.7187499702
  0
LINE
  5
332
100
AcDbEntity
  8
RACCORDO
100
AcDbLine
 62
253
  6
CONTINUOUS
 10
-7.2167655789
 20
-20.0091180479
 11
-7.3693638587
 21
-16.8917556906
  0
LINE
  5
333
100
AcDbEntity
  8
RACCORDO
100
AcDbLine
 62
253
  6
CONTINUOUS
 10
-6.9167770019
 20
-19.7137747542
 11
-7.0700502745
 21
-16.582623273
  0
LINE
  5
334
100
AcDbEntity
  8
ASSI
100
AcDbLine
 62
7
  6
CONTINUOUS
 10
-8.5131674569
 20
23.5581814706
 11
-8.5
 21
23.1226497308
  0
LINE
  5
335
100
AcDbEntity
  8
ASSI
100
AcDbLine
 62
253
  6
CONTINUOUS
 10
-7.3982849591
 20
23.1226497308
 11
-7.4135581657
 21
23.6278320349
  0
LINE
  5
336
100
AcDbEntity
  8
ASSI
100
AcDbLine
 62
253
  6
CONTINUOUS
 10
-7.2
 20
23.3515746082
 11
-7.2135886019
 21
23.8010362971
  0
LINE
  5
337
100
AcDbEntity
  8
ASSI
100
AcDbLine
 62
7
  6
CONTINUOUS
 10
-8.0579942858
 20
-21.2252970227
 11
-8.0579942858
 21
-20.9872686779
  0
LINE
  5
338
100
AcDbEntity
  8
ASSI
100
AcDbLine
 62
7
  6
CONTINUOUS
 10
-8.0579942858
 20
20.9872686779
 11
-8.0579942858
 21
21.2252970227
  0
LINE
  5
339
100
AcDbEntity
  8
ASSI
100
AcDbLine
 62
253
  6
CONTINUOUS
 10
-7.4139945176
 20
-24.2368706193
 11
-7.4139945176
 21
-23.8443359174
  0
LINE
  5
33A
100
AcDbEntity
  8
ASSI
100
AcDbLine
 62
253
  6
CONTINUOUS
 10
-7.4139945176
 20
23.8443375673
 11
-7.4139945176
 21
24.2368735057
  0
LINE
  5
33B
100
AcDbEntity
  8
0
100
AcDbLine
 62
7
  6
CONTINUOUS
 10
-7.409067
 20
15.547293
 11
-7.409067
 21
14.583109
  0
LINE
  5
33C
100
AcDbEntity
  8
0
100
AcDbLine
 62
7
  6
CONTINUOUS
 10
-7.402533
 20
8.574273
 11
-7.402533
 21
8.238626
  0
LINE
  5
33D
100
AcDbEntity
  8
0
100
AcDbLine
 62
7
  6
CONTINUOUS
 10
-7.344695659
 20
-7.30282741
 11
-7.344695659
 21
-7.5891007185
  0
LINE
  5
33E
100
AcDbEntity
  8
RACCORDO
100
AcDbLine
 62
7
  6
CONTINUOUS
 10
-7.2153265358
 20
20.9846734642
 11
-7.2153265358
 21
20.2059987693
  0
LINE
  5
33F
100
AcDbEntity
  8
RACCORDO
100
AcDbLine
 62
7
  6
CONTINUOUS
 10
-7.2153265358
 20
-20.9846734642
 11
-7.2153265358
 21
-20.206013577
  0
LINE
  5
340
100
AcDbEntity
  8
ASSI
100
AcDbLine
 62
253
  6
CONTINUOUS
 10
-7.2140249785
 20
-24.2368706193
 11
-7.2140249785
 21
-23.8443375673
  0
LINE
  5
341
100
AcDbEntity
  8
ASSI
100
AcDbLine
 62
253
  6
CONTINUOUS
 10
-7.2140249785
 20
23.8443375673
 11
-7.2140249785
 21
24.2368706193
  0
LINE
  5
342
100
AcDbEntity
  8
ASSI
100
AcDbLine
 62
7
  6
CONTINUOUS
 10
-7.2
 20
24.300030461
 11
-7.2
 21
22.4
  0
LINE
  5
343
100
AcDbEntity
  8
ASSI
100
AcDbLine
 62
7
  6
CONTINUOUS
 10
-7.2
 20
-22.4
 11
-7.2
 21
-24.300030461
  0
LINE
  5
344
100
AcDbEntity
  8
0
100
AcDbLine
 62
7
  6
CONTINUOUS
 10
-7.090933
 20
14.583109
 11
-7.090933
 21
15.547293
  0
LINE
  5
345
100
AcDbEntity
  8
0
100
AcDbLine
 62
7
  6
CONTINUOUS
 10
-7.083484
 20
8.238626
 11
-7.083484
 21
8.574273
  0
LINE
  5
346
100
AcDbEntity
  8
0
100
AcDbLine
 62
7
  6
CONTINUOUS
 10
-6.9516727109
 20
-7.5724908201
 11
-6.9516727109
 21
-7.3039071434
  0
LINE
  5
347
100
AcDbEntity
  8
RACCORDO
100
AcDbLine
 62
253
  6
CONTINUOUS
 10
-6.9153379589
 20
20.9872686779
 11
-6.9153379589
 21
20.2059987694
  0
LINE
  5
348
100
AcDbEntity
  8
RACCORDO
100
AcDbLine
 62
253
  6
CONTINUOUS
 10
-6.9153379589
 20
-20.9872686779
 11
-6.9153379589
 21
-20.2060281563
  0
LINE
  5
349
100
AcDbEntity
  8
RACCORDO
100
AcDbLine
 62
253
  6
CONTINUOUS
 10
-6.8846620411
 20
21.0745506493
 11
-6.8846620411
 21
20.2060141064
  0
LINE
  5
34A
100
AcDbEntity
  8
RACCORDO
100
AcDbLine
 62
253
  6
CONTINUOUS
 10
-6.8846620411
 20
-21.0745506493
 11
-6.8846620411
 21
-20.206013577
  0
LINE
  5
34B
100
AcDbEntity
  8
0
100
AcDbLine
 62
7
  6
CONTINUOUS
 10
-6.862325
 20
-8.976324
 11
-6.862325
 21
-9.455924
  0
LINE
  5
34C
100
AcDbEntity
  8
RACCORDO
100
AcDbLine
 62
7
  6
CONTINUOUS
 10
-6.5846734642
 20
21.0693598265
 11
-6.5846734642
 21
20.2059987693
  0
LINE
  5
34D
100
AcDbEntity
  8
RACCORDO
100
AcDbLine
 62
7
  6
CONTINUOUS
 10
-6.5846734642
 20
-21.0693598265
 11
-6.5846734642
 21
-20.206013577
  0
LINE
  5
34E
100
AcDbEntity
  8
0
100
AcDbLine
 62
7
  6
CONTINUOUS
 10
-6.491616
 20
-9.55839
 11
-6.491616
 21
-8.876215
  0
LINE
  5
34F
100
AcDbEntity
  8
0
100
AcDbLine
 62
7
  6
CONTINUOUS
 10
-6.348158
 20
15.611671
 11
-6.348158
 21
14.223193
  0
LINE
  5
350
100
AcDbEntity
  8
ASSI
100
AcDbLine
 62
7
  6
CONTINUOUS
 10
-8.5
 20
-23.1226497308
 11
-8.5131674569
 21
-23.5581814706
  0
LINE
  5
351
100
AcDbEntity
  8
ASSI
100
AcDbLine
 62
253
  6
CONTINUOUS
 10
-7.4135581409
 20
-23.6278312163
 11
-7.3982849591
 21
-23.1226497308
  0
LINE
  5
352
100
AcDbEntity
  8
ASSI
100
AcDbLine
 62
253
  6
CONTINUOUS
 10
-7.2135886019
 20
-23.8010362971
 11
-7.2
 21
-23.3515746082
  0
LINE
  5
353
100
AcDbEntity
  8
RACCORDO
100
AcDbLine
 62
253
  6
CONTINUOUS
 10
-7.216765519
 20
20.0091044624
 11
-7.3693640767
 21
16.8911083256
  0
LINE
  5
354
100
AcDbEntity
  8
RACCORDO
100
AcDbLine
 62
253
  6
CONTINUOUS
 10
-6.9167769421
 20
19.7137630019
 11
-7.0700505807
 21
16.5819731584
  0
LINE
  5
355
100
AcDbEntity
  8
0
100
AcDbLine
 62
7
  6
CONTINUOUS
 10
-0.2329572845
 20
12.3965079556
 11
-0.2469303309
 21
12.3758404778
  0
LINE
  5
356
100
AcDbEntity
  8
ASSI
100
AcDbLine
 62
7
  6
CONTINUOUS
 10
2.884959
 20
15.830922
 11
2.123008
 21
14.926751
  0
LINE
  5
357
100
AcDbEntity
  8
ASSI
100
AcDbLine
 62
7
  6
CONTINUOUS
 10
2.554957
 20
14.966644
 11
3.28329
 21
15.830922
  0
LINE
  5
358
100
AcDbEntity
  8
ASSI
100
AcDbLine
 62
253
  6
CONTINUOUS
 10
11.1
 20
21.9000761524
 11
11.0825449351
 21
21.8826210875
  0
LINE
  5
359
100
AcDbEntity
  8
0
100
AcDbLine
 62
7
  6
CONTINUOUS
 10
-6.491616
 20
-8.876215
 11
-6.012539
 21
-8.746449
  0
LINE
  5
35A
100
AcDbEntity
  8
0
100
AcDbLine
 62
7
  6
CONTINUOUS
 10
-7.752907
 20
-9.206505
 11
-6.862325
 21
-8.976324
  0
LINE
  5
35B
100
AcDbEntity
  8
0
100
AcDbLine
 62
7
  6
CONTINUOUS
 10
-8.3842629513
 20
-8.071399621
 11
-6.0125386179
 21
-8.071399621
  0
LINE
  5
35C
100
AcDbEntity
  8
0
100
AcDbLine
 62
7
  6
CONTINUOUS
 10
-7.344695659
 20
-7.5891007185
 11
-8.0034769815
 21
-7.5891007185
  0
LINE
  5
35D
100
AcDbEntity
  8
0
100
AcDbLine
 62
7
  6
CONTINUOUS
 10
-6.0125386179
 20
-7.5724908201
 11
-6.9516727109
 21
-7.5724908201
  0
LINE
  5
35E
100
AcDbEntity
  8
0
100
AcDbLine
 62
7
  6
CONTINUOUS
 10
-7.1327260022
 20
-6.7835476394
 11
-7.1469065005
 21
-6.7835476394
  0
LINE
  5
35F
100
AcDbEntity
  8
ASSI
100
AcDbLine
 62
253
  6
CONTINUOUS
 10
11.0825449351
 20
-21.8826210875
 11
11.1
 21
-21.9000761524
  0
LINE
  5
360
100
AcDbEntity
  8
0
100
AcDbLine
 62
7
  6
CONTINUOUS
 10
-0.2469303789
 20
-12.3758403852
 11
-0.2327229075
 21
-12.3968546
  0
LINE
  5
361
100
AcDbEntity
  8
0
100
AcDbLine
 62
7
  6
CONTINUOUS
 10
-4.5
 20
-17.9062499702
 11
-4.4680851102
 21
-18.0625
  0
LINE
  5
362
100
AcDbEntity
  8
0
100
AcDbLine
 62
7
  6
CONTINUOUS
 10
-4.3085106611
 20
-16.5937500596
 11
-4.3404255509
 21
-16.4374999404
  0
LINE
  5
363
100
AcDbEntity
  8
0
100
AcDbLine
 62
7
  6
CONTINUOUS
 10
-3.5425531715
 20
-17.7500000298
 11
-3.574468106
 21
-17.59375
  0
LINE
  5
364
100
AcDbEntity
  8
0
100
AcDbLine
 62
7
  6
CONTINUOUS
 10
-3.0
 20
-17.7500000298
 11
-3.0319148926
 21
-17.59375
  0
LINE
  5
365
100
AcDbEntity
  8
0
100
AcDbLine
 62
7
  6
CONTINUOUS
 10
-3.1914893612
 20
-16.28125
 11
-3.1595744714
 21
-16.4374999404
  0
LINE
  5
366
100
AcDbEntity
  8
0
100
AcDbLine
 62
7
  6
CONTINUOUS
 10
-4.5
 20
-16.4374999404
 11
-4.4680851102
 21
-16.6249999404
  0
LINE
  5
367
100
AcDbEntity
  8
RACCORDO
100
AcDbLine
 62
253
  6
CONTINUOUS
 10
-6.8832230579
 20
19.7137630019
 11
-6.7298015678
 21
16.5789521585
  0
LINE
  5
368
100
AcDbEntity
  8
RACCORDO
100
AcDbLine
 62
253
  6
CONTINUOUS
 10
-6.583234481
 20
20.0091044624
 11
-6.4302302401
 21
16.8828191349
  0
LINE
  5
369
100
AcDbEntity
  8
0
100
AcDbLine
 62
7
  6
CONTINUOUS
 10
-6.0291091667
 20
10.6478158333
 11
-6.0291091667
 21
11.0081341667
  0
LINE
  5
36A
100
AcDbEntity
  8
0
100
AcDbLine
 62
7
  6
CONTINUOUS
 10
-6.029109
 20
11.419319
 11
-6.029109
 21
11.738368
  0
LINE
  5
36B
100
AcDbEntity
  8
0
100
AcDbLine
 62
7
  6
CONTINUOUS
 10
-6.029109
 20
13.124025
 11
-6.029109
 21
13.575195
  0
LINE
  5
36C
100
AcDbEntity
  8
0
100
AcDbLine
 62
7
  6
CONTINUOUS
 10
-6.029109
 20
13.904142
 11
-6.029109
 21
15.611671
  0
LINE
  5
36D
100
AcDbEntity
  8
0
100
AcDbLine
 62
7
  6
CONTINUOUS
 10
-6.016616
 20
6.452707
 11
-6.016616
 21
6.873937
  0
LINE
  5
36E
100
AcDbEntity
  8
0
100
AcDbLine
 62
7
  6
CONTINUOUS
 10
-6.016616
 20
8.574273
 11
-6.016616
 21
8.893323
  0
LINE
  5
36F
100
AcDbEntity
  8
0
100
AcDbLine
 62
7
  6
CONTINUOUS
 10
-6.012539
 20
-14.873837
 11
-6.012539
 21
-14.432397
  0
LINE
  5
370
100
AcDbEntity
  8
0
100
AcDbLine
 62
7
  6
CONTINUOUS
 10
-6.012539
 20
-13.475123
 11
-6.012539
 21
-12.974199
  0
LINE
  5
371
100
AcDbEntity
  8
0
100
AcDbLine
 62
7
  6
CONTINUOUS
 10
-6.012539
 20
-12.704536
 11
-6.012539
 21
-12.225314
  0
LINE
  5
372
100
AcDbEntity
  8
0
100
AcDbLine
 62
7
  6
CONTINUOUS
 10
-6.012539
 20
-11.52957
 11
-6.012539
 21
-11.459315
  0
LINE
  5
373
100
AcDbEntity
  8
0
100
AcDbLine
 62
7
  6
CONTINUOUS
 10
-6.012539
 20
-10.7608
 11
-6.012539
 21
-10.270762
  0
LINE
  5
374
100
AcDbEntity
  8
0
100
AcDbLine
 62
7
  6
CONTINUOUS
 10
-6.012539
 20
-10.192104
 11
-6.012539
 21
-9.696614
  0
LINE
  5
375
100
AcDbEntity
  8
0
100
AcDbLine
 62
7
  6
CONTINUOUS
 10
-6.012539
 20
-8.746449
 11
-6.012539
 21
-8.218495
  0
LINE
  5
376
100
AcDbEntity
  8
0
100
AcDbLine
 62
7
  6
CONTINUOUS
 10
-6.0125386179
 20
-8.071399621
 11
-6.0125386179
 21
-7.5724908201
  0
LINE
  5
377
100
AcDbEntity
  8
0
100
AcDbLine
 62
7
  6
CONTINUOUS
 10
-6.0125386179
 20
-6.8053942447
 11
-6.0125386179
 21
-6.3235632266
  0
LINE
  5
378
100
AcDbEntity
  8
RACCORDO
100
AcDbLine
 62
7
  6
CONTINUOUS
 10
-5.9
 20
8.0
 11
-5.9
 21
5.9077370513
  0
LINE
  5
379
100
AcDbEntity
  8
RACCORDO
100
AcDbLine
 62
7
  6
CONTINUOUS
 10
-5.9
 20
-5.9077370513
 11
-5.9
 21
-8.0
  0
LINE
  5
37A
100
AcDbEntity
  8
ASSI
100
AcDbLine
 62
7
  6
CONTINUOUS
 10
-5.1254493507
 20
21.0745506493
 11
-5.1254493507
 21
20.0872686779
  0
LINE
  5
37B
100
AcDbEntity
  8
ASSI
100
AcDbLine
 62
7
  6
CONTINUOUS
 10
-5.1254493507
 20
-20.0872686779
 11
-5.1254493507
 21
-21.0745506493
  0
LINE
  5
37C
100
AcDbEntity
  8
0
100
AcDbLine
 62
7
  6
CONTINUOUS
 10
-4.5
 20
-13.1875
 11
-4.5
 21
-13.375
  0
LINE
  5
37D
100
AcDbEntity
  8
0
100
AcDbLine
 62
7
  6
CONTINUOUS
 10
-4.5
 20
-14.6875
 11
-4.5
 21
-14.875
  0
LINE
  5
37E
100
AcDbEntity
  8
0
100
AcDbLine
 62
7
  6
CONTINUOUS
 10
-4.5
 20
-17.7500000298
 11
-4.5
 21
-17.9062499702
  0
LINE
  5
37F
100
AcDbEntity
  8
0
100
AcDbLine
 62
7
  6
CONTINUOUS
 10
-4.5
 20
-18.625
 11
-4.5
 21
-18.8125
  0
LINE
  5
380
100
AcDbEntity
  8
ASSI
100
AcDbLine
 62
7
  6
CONTINUOUS
 10
-4.45
 20
-23.7500380762
 11
-4.45
 21
-23.4179449472
  0
LINE
  5
381
100
AcDbEntity
  8
ASSI
100
AcDbLine
 62
7
  6
CONTINUOUS
 10
-4.45
 20
-22.9820550528
 11
-4.45
 21
-22.4
  0
LINE
  5
382
100
AcDbEntity
  8
ASSI
100
AcDbLine
 62
7
  6
CONTINUOUS
 10
-4.45
 20
22.4
 11
-4.45
 21
22.9820550528
  0
LINE
  5
383
100
AcDbEntity
  8
ASSI
100
AcDbLine
 62
7
  6
CONTINUOUS
 10
-4.45
 20
23.4179449472
 11
-4.45
 21
23.7500380762
  0
LINE
  5
384
100
AcDbEntity
  8
ASSI
100
AcDbLine
 62
7
  6
CONTINUOUS
 10
-4.3539971429
 20
23.5393800954
 11
-4.3539971429
 21
22.8606199046
  0
LINE
  5
385
100
AcDbEntity
  8
ASSI
100
AcDbLine
 62
7
  6
CONTINUOUS
 10
-4.3539971429
 20
-22.8606199046
 11
-4.3539971429
 21
-23.5393800954
  0
LINE
  5
386
100
AcDbEntity
  8
ASSI
100
AcDbLine
 62
253
  6
CONTINUOUS
 10
-4.3518840226
 20
-23.6519220988
 11
-4.3518840226
 21
-22.3018840226
  0
LINE
  5
387
100
AcDbEntity
  8
ASSI
100
AcDbLine
 62
253
  6
CONTINUOUS
 10
-4.3518840226
 20
22.3018840226
 11
-4.3518840226
 21
23.6519220988
  0
LINE
  5
388
100
AcDbEntity
  8
0
100
AcDbLine
 62
7
  6
CONTINUOUS
 10
-4.3404255509
 20
-17.9375000298
 11
-4.3404255509
 21
-17.7187499702
  0
LINE
  5
389
100
AcDbEntity
  8
0
100
AcDbLine
 62
7
  6
CONTINUOUS
 10
-4.2
 20
9.0
 11
-4.2
 21
7.2151039424
  0
LINE
  5
38A
100
AcDbEntity
  8
0
100
AcDbLine
 62
7
  6
CONTINUOUS
 10
-4.2
 20
-9.0
 11
-4.2
 21
-7.2151039424
  0
LINE
  5
38B
100
AcDbEntity
  8
RACCORDO
100
AcDbLine
 62
253
  6
CONTINUOUS
 10
-6.8832229981
 20
-19.7137747542
 11
-6.7298018764
 21
-16.5796029287
  0
LINE
  5
38C
100
AcDbEntity
  8
RACCORDO
100
AcDbLine
 62
253
  6
CONTINUOUS
 10
-6.5832344211
 20
-20.0091180479
 11
-6.430230464
 21
-16.88346829
  0
LINE
  5
38D
100
AcDbEntity
  8
0
100
AcDbLine
 62
7
  6
CONTINUOUS
 10
-1.1597282293
 20
10.9869554872
 11
-1.1449972769
 21
11.0218517719
  0
LINE
  5
38E
100
AcDbEntity
  8
0
100
AcDbLine
 62
7
  6
CONTINUOUS
 10
-1.1746647022
 20
10.9521810922
 11
-1.1597282293
 21
10.9869554872
  0
LINE
  5
38F
100
AcDbEntity
  8
0
100
AcDbLine
 62
7
  6
CONTINUOUS
 10
-1.1898066956
 20
10.9175285871
 11
-1.1746647022
 21
10.9521810922
  0
LINE
  5
390
100
AcDbEntity
  8
0
100
AcDbLine
 62
7
  6
CONTINUOUS
 10
-1.171604981
 20
10.9049273753
 11
-1.1221062937
 21
11.0111776175
  0
LINE
  5
391
100
AcDbEntity
  8
0
100
AcDbLine
 62
7
  6
CONTINUOUS
 10
0.2329572845
 20
10.1034920444
 11
0.2469303309
 21
10.1241595222
  0
LINE
  5
392
100
AcDbEntity
  8
0
100
AcDbLine
 62
7
  6
CONTINUOUS
 10
7.641062
 20
9.957565
 11
8.575
 21
10.5454
  0
LINE
  5
393
100
AcDbEntity
  8
0
100
AcDbLine
 62
7
  6
CONTINUOUS
 10
8.359127
 20
10.569432
 11
7.425
 21
9.991177
  0
LINE
  5
394
100
AcDbEntity
  8
0
100
AcDbLine
 62
7
  6
CONTINUOUS
 10
0.2469303789
 20
-10.1241596148
 11
0.2327228975
 21
-10.1031453852
  0
LINE
  5
395
100
AcDbEntity
  8
0
100
AcDbLine
 62
7
  6
CONTINUOUS
 10
-1.122106287
 20
-11.0111776274
 11
-1.1716048889
 21
-10.9049273261
  0
LINE
  5
396
100
AcDbEntity
  8
0
100
AcDbLine
 62
7
  6
CONTINUOUS
 10
-3.0
 20
-16.4374999404
 11
-3.0319148926
 21
-16.2499999404
  0
LINE
  5
397
100
AcDbEntity
  8
ASSI
100
AcDbLine
 62
7
  6
CONTINUOUS
 10
-3.1173032135
 20
-21.6326967865
 11
-3.1351059998
 21
-20.8901985088
  0
LINE
  5
398
100
AcDbEntity
  8
0
100
AcDbLine
 62
7
  6
CONTINUOUS
 10
-3.7021276653
 20
-17.7187499702
 11
-3.7021276653
 21
-17.9375000298
  0
LINE
  5
399
100
AcDbEntity
  8
0
100
AcDbLine
 62
7
  6
CONTINUOUS
 10
-3.6382978857
 20
-12.9105363277
 11
-3.6382978857
 21
-13.1875
  0
LINE
  5
39A
100
AcDbEntity
  8
0
100
AcDbLine
 62
7
  6
CONTINUOUS
 10
-3.6382978857
 20
-13.375
 11
-3.6382978857
 21
-13.9062501192
  0
LINE
  5
39B
100
AcDbEntity
  8
0
100
AcDbLine
 62
7
  6
CONTINUOUS
 10
-3.6382978857
 20
-14.3750001192
 11
-3.6382978857
 21
-14.6875
  0
LINE
  5
39C
100
AcDbEntity
  8
0
100
AcDbLine
 62
7
  6
CONTINUOUS
 10
-3.6382978857
 20
-14.875
 11
-3.6382978857
 21
-15.4062501192
  0
LINE
  5
39D
100
AcDbEntity
  8
ASSI
100
AcDbLine
 62
253
  6
CONTINUOUS
 10
-3.5806626995
 20
-23.6519203118
 11
-3.5806609125
 21
-22.3018840226
  0
LINE
  5
39E
100
AcDbEntity
  8
ASSI
100
AcDbLine
 62
253
  6
CONTINUOUS
 10
-3.5806609125
 20
22.3018840226
 11
-3.5806626995
 21
23.6519203118
  0
LINE
  5
39F
100
AcDbEntity
  8
0
100
AcDbLine
 62
7
  6
CONTINUOUS
 10
-3.5425531715
 20
-17.9062499702
 11
-3.5425531715
 21
-17.7500000298
  0
LINE
  5
3A0
100
AcDbEntity
  8
ASSI
100
AcDbLine
 62
7
  6
CONTINUOUS
 10
-3.5
 20
23.7325830113
 11
-3.5
 21
22.3825449351
  0
LINE
  5
3A1
100
AcDbEntity
  8
ASSI
100
AcDbLine
 62
7
  6
CONTINUOUS
 10
-3.5
 20
-22.3825449351
 11
-3.5
 21
-23.7325830113
  0
LINE
  5
3A2
100
AcDbEntity
  8
0
100
AcDbLine
 62
7
  6
CONTINUOUS
 10
-3.4468085021
 20
-15.625
 11
-3.4468085021
 21
-14.875
  0
LINE
  5
3A3
100
AcDbEntity
  8
0
100
AcDbLine
 62
7
  6
CONTINUOUS
 10
-3.4468085021
 20
-14.6875
 11
-3.4468085021
 21
-14.3750001192
  0
LINE
  5
3A4
100
AcDbEntity
  8
0
100
AcDbLine
 62
7
  6
CONTINUOUS
 10
-3.4468085021
 20
-14.125
 11
-3.4468085021
 21
-13.375
  0
LINE
  5
3A5
100
AcDbEntity
  8
ASSI
100
AcDbLine
 62
253
  6
CONTINUOUS
 10
-3.3850964806
 20
-21.2252970227
 11
-3.3850964806
 21
-20.8
  0
LINE
  5
3A6
100
AcDbEntity
  8
ASSI
100
AcDbLine
 62
253
  6
CONTINUOUS
 10
-3.3850964806
 20
20.8
 11
-3.3850964806
 21
21.2252970227
  0
LINE
  5
3A7
100
AcDbEntity
  8
0
100
AcDbLine
 62
7
  6
CONTINUOUS
 10
-3.3510638326
 20
-18.15625
 11
-3.3510638326
 21
-18.3124999851
  0
LINE
  5
3A8
100
AcDbEntity
  8
0
100
AcDbLine
 62
7
  6
CONTINUOUS
 10
-3.1595744714
 20
-17.7187499702
 11
-3.1595744714
 21
-17.9062499702
  0
LINE
  5
3A9
100
AcDbEntity
  8
ASSI
100
AcDbLine
 62
7
  6
CONTINUOUS
 10
-3.1351059998
 20
-21.2252970227
 11
-3.1351059998
 21
-20.8901985088
  0
LINE
  5
3AA
100
AcDbEntity
  8
ASSI
100
AcDbLine
 62
7
  6
CONTINUOUS
 10
-3.1351059998
 20
20.8901985088
 11
-3.1351059998
 21
21.2252970227
  0
LINE
  5
3AB
100
AcDbEntity
  8
ASSI
100
AcDbLine
 62
7
  6
CONTINUOUS
 10
-3.05
 20
22.1325449336
 11
-3.05
 21
21.7
  0
LINE
  5
3AC
100
AcDbEntity
  8
ASSI
100
AcDbLine
 62
7
  6
CONTINUOUS
 10
-3.05
 20
-21.7
 11
-3.05
 21
-22.1325449336
  0
LINE
  5
3AD
100
AcDbEntity
  8
0
100
AcDbLine
 62
7
  6
CONTINUOUS
 10
-3.0
 20
-18.8125
 11
-3.0
 21
-18.625
  0
LINE
  5
3AE
100
AcDbEntity
  8
0
100
AcDbLine
 62
7
  6
CONTINUOUS
 10
-3.0
 20
-17.875
 11
-3.0
 21
-17.7500000298
  0
LINE
  5
3AF
100
AcDbEntity
  8
0
100
AcDbLine
 62
7
  6
CONTINUOUS
 10
-3.0
 20
-14.875
 11
-3.0
 21
-14.6875
  0
LINE
  5
3B0
100
AcDbEntity
  8
0
100
AcDbLine
 62
7
  6
CONTINUOUS
 10
-2.9
 20
-8.4956310436
 11
-2.9
 21
-7.8274674959
  0
LINE
  5
3B1
100
AcDbEntity
  8
0
100
AcDbLine
 62
7
  6
CONTINUOUS
 10
-2.9
 20
7.8274674959
 11
-2.9
 21
8.4956310436
  0
LINE
  5
3B2
100
AcDbEntity
  8
ASSI
100
AcDbLine
 62
7
  6
CONTINUOUS
 10
-3.1351059998
 20
20.8901985088
 11
-3.1173032135
 21
21.6326967865
  0
LINE
  5
3B3
100
AcDbEntity
  8
0
100
AcDbLine
 62
7
  6
CONTINUOUS
 10
-0.2283221999
 20
12.4200462859
 11
-0.2329572845
 21
12.3965079556
  0
LINE
  5
3B4
100
AcDbEntity
  8
0
100
AcDbLine
 62
7
  6
CONTINUOUS
 10
1.1597282293
 20
11.5130445128
 11
1.1449972769
 21
11.4781482281
  0
LINE
  5
3B5
100
AcDbEntity
  8
0
100
AcDbLine
 62
7
  6
CONTINUOUS
 10
1.1746647022
 20
11.5478189078
 11
1.1597282293
 21
11.5130445128
  0
LINE
  5
3B6
100
AcDbEntity
  8
0
100
AcDbLine
 62
7
  6
CONTINUOUS
 10
1.1898066956
 20
11.5824714129
 11
1.1746647022
 21
11.5478189078
  0
LINE
  5
3B7
100
AcDbEntity
  8
0
100
AcDbLine
 62
7
  6
CONTINUOUS
 10
1.171604981
 20
11.5950726247
 11
1.1221062937
 21
11.4888223825
  0
LINE
  5
3B8
100
AcDbEntity
  8
RACCORDO
100
AcDbLine
 62
7
  6
CONTINUOUS
 10
6.4317224778
 20
20.7634345551
 11
6.5846734642
 21
21.0693598265
  0
LINE
  5
3B9
100
AcDbEntity
  8
0
100
AcDbLine
 62
7
  6
CONTINUOUS
 10
8.575
 20
6.549054
 11
7.425
 21
6.132636
  0
LINE
  5
3BA
100
AcDbEntity
  8
0
100
AcDbLine
 62
7
  6
CONTINUOUS
 10
8.240277
 20
6.265549
 11
8.575
 21
6.379256
  0
LINE
  5
3BB
100
AcDbEntity
  8
0
100
AcDbLine
 62
7
  6
CONTINUOUS
 10
8.401946
 20
4.836821
 11
7.425
 21
4.506883
  0
LINE
  5
3BC
100
AcDbEntity
  8
0
100
AcDbLine
 62
7
  6
CONTINUOUS
 10
7.591806
 20
6.0382
 11
8.102537
 21
6.209532
  0
LINE
  5
3BD
100
AcDbEntity
  8
RACCORDO
100
AcDbLine
 62
7
  6
CONTINUOUS
 10
6.5846734642
 20
-21.0693598265
 11
6.4317224778
 21
-20.7634345551
  0
LINE
  5
3BE
100
AcDbEntity
  8
0
100
AcDbLine
 62
7
  6
CONTINUOUS
 10
1.122106287
 20
-11.4888223726
 11
1.1716048889
 21
-11.5950726739
  0
LINE
  5
3BF
100
AcDbEntity
  8
DRAFT
100
AcDbLine
 62
7
  6
CONTINUOUS
 10
-0.3746920834
 20
-15.7
 11
-0.3372664292
 21
-19.9885551946
  0
LINE
  5
3C0
100
AcDbEntity
  8
RACCORDO
100
AcDbLine
 62
7
  6
CONTINUOUS
 10
-1.0
 20
7.2488969197
 11
-1.0
 21
5.7783914088
  0
LINE
  5
3C1
100
AcDbEntity
  8
RACCORDO
100
AcDbLine
 62
7
  6
CONTINUOUS
 10
-1.0
 20
-5.7783914088
 11
-1.0
 21
-7.2488969197
  0
LINE
  5
3C2
100
AcDbEntity
  8
ASSI
100
AcDbLine
 62
7
  6
CONTINUOUS
 10
-0.8174550649
 20
23.7325830113
 11
-0.8174550649
 21
22.398254669
  0
LINE
  5
3C3
100
AcDbEntity
  8
ASSI
100
AcDbLine
 62
7
  6
CONTINUOUS
 10
-0.8174550649
 20
-23.7325830113
 11
-0.8174550649
 21
-22.398254669
  0
LINE
  5
3C4
100
AcDbEntity
  8
ASSI
100
AcDbLine
 62
7
  6
CONTINUOUS
 10
-0.8
 20
23.7500380762
 11
-0.8
 21
22.4
  0
LINE
  5
3C5
100
AcDbEntity
  8
ASSI
100
AcDbLine
 62
7
  6
CONTINUOUS
 10
-0.8
 20
-22.4
 11
-0.8
 21
-23.7500380762
  0
LINE
  5
3C6
100
AcDbEntity
  8
0
100
AcDbLine
 62
7
  6
CONTINUOUS
 10
-0.6
 20
-14.1000389971
 11
-0.6
 21
-11.7644203221
  0
LINE
  5
3C7
100
AcDbEntity
  8
0
100
AcDbLine
 62
7
  6
CONTINUOUS
 10
-0.6
 20
-10.7355801558
 11
-0.6
 21
-8.3999610029
  0
LINE
  5
3C8
100
AcDbEntity
  8
0
100
AcDbLine
 62
7
  6
CONTINUOUS
 10
-0.6
 20
8.3999610029
 11
-0.6
 21
10.7355796779
  0
LINE
  5
3C9
100
AcDbEntity
  8
0
100
AcDbLine
 62
7
  6
CONTINUOUS
 10
-0.6
 20
11.7644198442
 11
-0.6
 21
14.1000389971
  0
LINE
  5
3CA
100
AcDbEntity
  8
DRAFT
100
AcDbLine
 62
7
  6
CONTINUOUS
 10
-0.3746920834
 20
-15.7
 11
-0.3746920834
 21
-15.2305607773
  0
LINE
  5
3CB
100
AcDbEntity
  8
DRAFT
100
AcDbLine
 62
7
  6
CONTINUOUS
 10
-0.3746920834
 20
15.2305607773
 11
-0.3746920834
 21
15.7
  0
LINE
  5
3CC
100
AcDbEntity
  8
DRAFT
100
AcDbLine
 62
7
  6
CONTINUOUS
 10
-0.3372664292
 20
19.9885551946
 11
-0.3746920834
 21
15.7
  0
LINE
  5
3CD
100
AcDbEntity
  8
0
100
AcDbLine
 62
7
  6
CONTINUOUS
 10
-4.4680851102
 20
-16.2499999404
 11
-4.5
 21
-16.4374999404
  0
LINE
  5
3CE
100
AcDbEntity
  8
0
100
AcDbLine
 62
7
  6
CONTINUOUS
 10
-3.0319148926
 20
-16.6249999404
 11
-3.0
 21
-16.4374999404
  0
LINE
  5
3CF
100
AcDbEntity
  8
0
100
AcDbLine
 62
7
  6
CONTINUOUS
 10
0.2283221999
 20
10.0799537141
 11
0.2329572845
 21
10.1034920444
  0
LINE
  5
3D0
100
AcDbEntity
  8
0
100
AcDbLine
 62
7
  6
CONTINUOUS
 10
-4.3404255509
 20
-16.4374999404
 11
-4.3085106611
 21
-16.28125
  0
LINE
  5
3D1
100
AcDbEntity
  8
0
100
AcDbLine
 62
7
  6
CONTINUOUS
 10
-4.4680851102
 20
-17.59375
 11
-4.5
 21
-17.7500000298
  0
LINE
  5
3D2
100
AcDbEntity
  8
0
100
AcDbLine
 62
7
  6
CONTINUOUS
 10
-3.574468106
 20
-18.0625
 11
-3.5425531715
 21
-17.9062499702
  0
LINE
  5
3D3
100
AcDbEntity
  8
0
100
AcDbLine
 62
7
  6
CONTINUOUS
 10
-3.1595744714
 20
-16.4374999404
 11
-3.1914893612
 21
-16.5937500596
  0
LINE
  5
3D4
100
AcDbEntity
  8
RACCORDO
100
AcDbLine
 62
253
  6
CONTINUOUS
 10
1.3977353477
 20
6.1517848755
 11
1.2869716318
 21
5.6642858985
  0
LINE
  5
3D5
100
AcDbEntity
  8
RACCORDO
100
AcDbLine
 62
253
  6
CONTINUOUS
 10
-1.3977353477
 20
-6.1517848755
 11
-1.2869716318
 21
-5.6642858984
  0
LINE
  5
3D6
100
AcDbEntity
  8
0
100
AcDbLine
 62
7
  6
CONTINUOUS
 10
-2.7238635321
 20
-3.3259882813
 11
-2.2980970389
 21
-2.2980970389
  0
LINE
  5
3D7
100
AcDbEntity
  8
0
100
AcDbLine
 62
7
  6
CONTINUOUS
 10
0.0
 20
3.25
 11
0.426135732
 21
4.2787826636
  0
LINE
  5
3D8
100
AcDbEntity
  8
0
100
AcDbLine
 62
7
  6
CONTINUOUS
 10
-4.2775413249
 20
-0.4256215527
 11
-3.25
 21
0.0
  0
LINE
  5
3D9
100
AcDbEntity
  8
0
100
AcDbLine
 62
7
  6
CONTINUOUS
 10
2.2980970389
 20
2.2980970389
 11
3.3259329802
 21
2.7238406257
  0
LINE
  5
3DA
100
AcDbEntity
  8
0
100
AcDbLine
 62
7
  6
CONTINUOUS
 10
7.61073
 20
4.434792
 11
8.575
 21
4.758357
  0
LINE
  5
3DB
100
AcDbEntity
  8
RACCORDO
100
AcDbLine
 62
7
  6
CONTINUOUS
 10
-8.2465803894
 20
-2.4362959141
 11
-8.5726502988
 21
-2.5013508734
  0
LINE
  5
3DC
100
AcDbEntity
  8
RACCORDO
100
AcDbLine
 62
7
  6
CONTINUOUS
 10
8.5726502988
 20
-2.5013508734
 11
8.2465803894
 21
-2.4362959141
  0
LINE
  5
3DD
100
AcDbEntity
  8
0
100
AcDbLine
 62
7
  6
CONTINUOUS
 10
3.3259329802
 20
-2.7238406257
 11
2.2980970389
 21
-2.2980970389
  0
LINE
  5
3DE
100
AcDbEntity
  8
0
100
AcDbLine
 62
7
  6
CONTINUOUS
 10
-3.25
 20
0.0
 11
-4.2775413249
 21
0.4256215527
  0
LINE
  5
3DF
100
AcDbEntity
  8
0
100
AcDbLine
 62
7
  6
CONTINUOUS
 10
0.426135732
 20
-4.2787826636
 11
0.0
 21
-3.25
  0
LINE
  5
3E0
100
AcDbEntity
  8
0
100
AcDbLine
 62
7
  6
CONTINUOUS
 10
-2.2980970389
 20
2.2980970389
 11
-2.7238635321
 21
3.3259882813
  0
LINE
  5
3E1
100
AcDbEntity
  8
RACCORDO
100
AcDbLine
 62
253
  6
CONTINUOUS
 10
-1.3977353477
 20
6.1517848755
 11
-1.2869716318
 21
5.6642858985
  0
LINE
  5
3E2
100
AcDbEntity
  8
RACCORDO
100
AcDbLine
 62
253
  6
CONTINUOUS
 10
1.3977353477
 20
-6.1517848755
 11
1.2869716318
 21
-5.6642858984
  0
LINE
  5
3E3
100
AcDbEntity
  8
DRAFT
100
AcDbLine
 62
7
  6
CONTINUOUS
 10
0.3372664292
 20
19.9885551946
 11
0.3746920834
 21
15.7
  0
LINE
  5
3E4
100
AcDbEntity
  8
DRAFT
100
AcDbLine
 62
7
  6
CONTINUOUS
 10
0.3746920834
 20
15.7
 11
0.3746920834
 21
15.2305607773
  0
LINE
  5
3E5
100
AcDbEntity
  8
DRAFT
100
AcDbLine
 62
7
  6
CONTINUOUS
 10
0.3746920834
 20
-15.2305607773
 11
0.3746920834
 21
-15.7
  0
LINE
  5
3E6
100
AcDbEntity
  8
0
100
AcDbLine
 62
7
  6
CONTINUOUS
 10
0.6
 20
14.1000389971
 11
0.6
 21
11.7644203221
  0
LINE
  5
3E7
100
AcDbEntity
  8
0
100
AcDbLine
 62
7
  6
CONTINUOUS
 10
0.6
 20
10.7355801558
 11
0.6
 21
8.3999610029
  0
LINE
  5
3E8
100
AcDbEntity
  8
0
100
AcDbLine
 62
7
  6
CONTINUOUS
 10
0.6
 20
-8.3999610029
 11
0.6
 21
-10.7355796779
  0
LINE
  5
3E9
100
AcDbEntity
  8
0
100
AcDbLine
 62
7
  6
CONTINUOUS
 10
0.6
 20
-11.7644198442
 11
0.6
 21
-14.1000389971
  0
LINE
  5
3EA
100
AcDbEntity
  8
ASSI
100
AcDbLine
 62
7
  6
CONTINUOUS
 10
0.8
 20
23.7500380762
 11
0.8
 21
22.4
  0
LINE
  5
3EB
100
AcDbEntity
  8
ASSI
100
AcDbLine
 62
7
  6
CONTINUOUS
 10
0.8
 20
-22.4
 11
0.8
 21
-23.7500380762
  0
LINE
  5
3EC
100
AcDbEntity
  8
ASSI
100
AcDbLine
 62
7
  6
CONTINUOUS
 10
0.8174550649
 20
23.7325830113
 11
0.8174550649
 21
22.398254669
  0
LINE
  5
3ED
100
AcDbEntity
  8
ASSI
100
AcDbLine
 62
7
  6
CONTINUOUS
 10
0.8174550649
 20
-23.7325830113
 11
0.8174550649
 21
-22.398254669
  0
LINE
  5
3EE
100
AcDbEntity
  8
RACCORDO
100
AcDbLine
 62
7
  6
CONTINUOUS
 10
1.0
 20
-7.2488969197
 11
1.0
 21
-5.7783914088
  0
LINE
  5
3EF
100
AcDbEntity
  8
RACCORDO
100
AcDbLine
 62
7
  6
CONTINUOUS
 10
1.0
 20
5.7783914088
 11
1.0
 21
7.2488969197
  0
LINE
  5
3F0
100
AcDbEntity
  8
ASSI
100
AcDbLine
 62
7
  6
CONTINUOUS
 10
1.742229
 20
16.44759
 11
1.742229
 21
15.556565
  0
LINE
  5
3F1
100
AcDbEntity
  8
ASSI
100
AcDbLine
 62
7
  6
CONTINUOUS
 10
2.065424
 20
15.556565
 11
2.065424
 21
15.830922
  0
LINE
  5
3F2
100
AcDbEntity
  8
ASSI
100
AcDbLine
 62
7
  6
CONTINUOUS
 10
2.065424
 20
16.173343
 11
2.065424
 21
16.44759
  0
LINE
  5
3F3
100
AcDbEntity
  8
DRAFT
100
AcDbLine
 62
7
  6
CONTINUOUS
 10
0.3746920834
 20
-15.7
 11
0.3372664292
 21
-19.9885551946
  0
LINE
  5
3F4
100
AcDbEntity
  8
0
100
AcDbLine
 62
7
  6
CONTINUOUS
 10
-0.2283221999
 20
-10.0799537141
 11
-0.2329572845
 21
-10.1034920444
  0
LINE
  5
3F5
100
AcDbEntity
  8
0
100
AcDbLine
 62
7
  6
CONTINUOUS
 10
-3.0319148926
 20
-18.0312500298
 11
-3.0
 21
-17.875
  0
LINE
  5
3F6
100
AcDbEntity
  8
0
100
AcDbLine
 62
7
  6
CONTINUOUS
 10
-4.3404255509
 20
-17.7187499702
 11
-4.3085106611
 21
-17.6249999702
  0
LINE
  5
3F7
100
AcDbEntity
  8
0
100
AcDbLine
 62
7
  6
CONTINUOUS
 10
-3.7021276653
 20
-17.9375000298
 11
-3.7340425551
 21
-18.0312500298
  0
LINE
  5
3F8
100
AcDbEntity
  8
0
100
AcDbLine
 62
7
  6
CONTINUOUS
 10
2.7238635321
 20
3.3259882813
 11
2.2980970389
 21
2.2980970389
  0
LINE
  5
3F9
100
AcDbEntity
  8
0
100
AcDbLine
 62
7
  6
CONTINUOUS
 10
0.0
 20
-3.25
 11
-0.426135732
 21
-4.2787826636
  0
LINE
  5
3FA
100
AcDbEntity
  8
0
100
AcDbLine
 62
7
  6
CONTINUOUS
 10
4.2775413249
 20
0.4256215527
 11
3.25
 21
0.0
  0
LINE
  5
3FB
100
AcDbEntity
  8
0
100
AcDbLine
 62
7
  6
CONTINUOUS
 10
-2.2980970389
 20
-2.2980970389
 11
-3.3259329802
 21
-2.7238406257
  0
LINE
  5
3FC
100
AcDbEntity
  8
RACCORDO
100
AcDbLine
 62
7
  6
CONTINUOUS
 10
8.5726502988
 20
2.5013508734
 11
8.2465803894
 21
2.4362959142
  0
LINE
  5
3FD
100
AcDbEntity
  8
RACCORDO
100
AcDbLine
 62
7
  6
CONTINUOUS
 10
-8.2465803894
 20
2.4362959142
 11
-8.5726502988
 21
2.5013508734
  0
LINE
  5
3FE
100
AcDbEntity
  8
0
100
AcDbLine
 62
7
  6
CONTINUOUS
 10
-3.3259329802
 20
2.7238406257
 11
-2.2980970389
 21
2.2980970389
  0
LINE
  5
3FF
100
AcDbEntity
  8
0
100
AcDbLine
 62
7
  6
CONTINUOUS
 10
3.25
 20
0.0
 11
4.2775413249
 21
-0.4256215527
  0
LINE
  5
400
100
AcDbEntity
  8
0
100
AcDbLine
 62
7
  6
CONTINUOUS
 10
-8.522089
 20
8.612279
 11
-6.016616
 21
6.452707
  0
LINE
  5
401
100
AcDbEntity
  8
0
100
AcDbLine
 62
7
  6
CONTINUOUS
 10
-6.016616
 20
6.873937
 11
-7.989321
 21
8.574273
  0
LINE
  5
402
100
AcDbEntity
  8
0
100
AcDbLine
 62
7
  6
CONTINUOUS
 10
-0.426135732
 20
4.2787826636
 11
0.0
 21
3.25
  0
LINE
  5
403
100
AcDbEntity
  8
0
100
AcDbLine
 62
7
  6
CONTINUOUS
 10
2.2980970389
 20
-2.2980970389
 11
2.7238635321
 21
-3.3259882813
  0
LINE
  5
404
100
AcDbEntity
  8
ASSI
100
AcDbLine
 62
7
  6
CONTINUOUS
 10
3.1351059998
 20
20.8901985088
 11
3.1173032135
 21
21.6326967865
  0
LINE
  5
405
100
AcDbEntity
  8
0
100
AcDbLine
 62
7
  6
CONTINUOUS
 10
2.9
 20
8.4956310436
 11
2.9
 21
7.8274674959
  0
LINE
  5
406
100
AcDbEntity
  8
0
100
AcDbLine
 62
7
  6
CONTINUOUS
 10
2.9
 20
-7.8274674959
 11
2.9
 21
-8.4956310436
  0
LINE
  5
407
100
AcDbEntity
  8
ASSI
100
AcDbLine
 62
7
  6
CONTINUOUS
 10
3.05
 20
-22.1325449336
 11
3.05
 21
-21.7
  0
LINE
  5
408
100
AcDbEntity
  8
ASSI
100
AcDbLine
 62
7
  6
CONTINUOUS
 10
3.05
 20
21.7
 11
3.05
 21
22.1325449336
  0
LINE
  5
409
100
AcDbEntity
  8
ASSI
100
AcDbLine
 62
7
  6
CONTINUOUS
 10
3.1351059998
 20
21.2252970227
 11
3.1351059998
 21
20.8901985088
  0
LINE
  5
40A
100
AcDbEntity
  8
ASSI
100
AcDbLine
 62
7
  6
CONTINUOUS
 10
3.1351059998
 20
-20.8901985088
 11
3.1351059998
 21
-21.2252970227
  0
LINE
  5
40B
100
AcDbEntity
  8
ASSI
100
AcDbLine
 62
253
  6
CONTINUOUS
 10
3.3850964806
 20
21.2252970227
 11
3.3850964806
 21
20.8
  0
LINE
  5
40C
100
AcDbEntity
  8
ASSI
100
AcDbLine
 62
253
  6
CONTINUOUS
 10
3.3850964806
 20
-20.8
 11
3.3850964806
 21
-21.2252970227
  0
LINE
  5
40D
100
AcDbEntity
  8
ASSI
100
AcDbLine
 62
7
  6
CONTINUOUS
 10
3.5
 20
23.7325830113
 11
3.5
 21
22.3825449351
  0
LINE
  5
40E
100
AcDbEntity
  8
ASSI
100
AcDbLine
 62
7
  6
CONTINUOUS
 10
3.5
 20
-22.3825449351
 11
3.5
 21
-23.7325830113
  0
LINE
  5
40F
100
AcDbEntity
  8
ASSI
100
AcDbLine
 62
253
  6
CONTINUOUS
 10
3.5806609125
 20
-23.6519220988
 11
3.5806609125
 21
-22.3018840226
  0
LINE
  5
410
100
AcDbEntity
  8
ASSI
100
AcDbLine
 62
253
  6
CONTINUOUS
 10
3.5806609125
 20
22.3018840226
 11
3.5806609125
 21
23.6519220988
  0
LINE
  5
411
100
AcDbEntity
  8
0
100
AcDbLine
 62
7
  6
CONTINUOUS
 10
4.2
 20
9.0
 11
4.2
 21
7.2151039424
  0
LINE
  5
412
100
AcDbEntity
  8
0
100
AcDbLine
 62
7
  6
CONTINUOUS
 10
4.2
 20
-9.0
 11
4.2
 21
-7.2151039424
  0
LINE
  5
413
100
AcDbEntity
  8
ASSI
100
AcDbLine
 62
7
  6
CONTINUOUS
 10
4.349006
 20
16.458087
 11
4.349006
 21
16.173343
  0
LINE
  5
414
100
AcDbEntity
  8
ASSI
100
AcDbLine
 62
7
  6
CONTINUOUS
 10
4.349006
 20
15.830922
 11
4.349006
 21
15.546068
  0
LINE
  5
415
100
AcDbEntity
  8
ASSI
100
AcDbLine
 62
253
  6
CONTINUOUS
 10
4.3518822356
 20
-23.6519203118
 11
4.3518840226
 21
-22.3018840226
  0
LINE
  5
416
100
AcDbEntity
  8
ASSI
100
AcDbLine
 62
253
  6
CONTINUOUS
 10
4.3518840226
 20
22.3018840226
 11
4.3518822356
 21
23.6519203118
  0
LINE
  5
417
100
AcDbEntity
  8
ASSI
100
AcDbLine
 62
7
  6
CONTINUOUS
 10
4.3539971429
 20
23.5393800954
 11
4.3539971429
 21
22.8606199046
  0
LINE
  5
418
100
AcDbEntity
  8
ASSI
100
AcDbLine
 62
7
  6
CONTINUOUS
 10
4.3539971429
 20
-22.8606199046
 11
4.3539971429
 21
-23.5393800954
  0
LINE
  5
419
100
AcDbEntity
  8
ASSI
100
AcDbLine
 62
7
  6
CONTINUOUS
 10
4.45
 20
-23.7500380762
 11
4.45
 21
-23.4179449472
  0
LINE
  5
41A
100
AcDbEntity
  8
ASSI
100
AcDbLine
 62
7
  6
CONTINUOUS
 10
4.45
 20
-22.9820550528
 11
4.45
 21
-22.4
  0
LINE
  5
41B
100
AcDbEntity
  8
ASSI
100
AcDbLine
 62
7
  6
CONTINUOUS
 10
4.45
 20
22.4
 11
4.45
 21
22.9820550528
  0
LINE
  5
41C
100
AcDbEntity
  8
ASSI
100
AcDbLine
 62
7
  6
CONTINUOUS
 10
4.45
 20
23.4179449472
 11
4.45
 21
23.7500380762
  0
LINE
  5
41D
100
AcDbEntity
  8
ASSI
100
AcDbLine
 62
7
  6
CONTINUOUS
 10
3.1173032135
 20
-21.6326967865
 11
3.1351059998
 21
-20.8901985088
  0
LINE
  5
41E
100
AcDbEntity
  8
0
100
AcDbLine
 62
7
  6
CONTINUOUS
 10
0.2283221999
 20
-12.4200462859
 11
0.2329572845
 21
-12.3965079556
  0
LINE
  5
41F
100
AcDbEntity
  8
0
100
AcDbLine
 62
7
  6
CONTINUOUS
 10
-3.1595744714
 20
-17.9062499702
 11
-3.1914893612
 21
-17.9999999702
  0
LINE
  5
420
100
AcDbEntity
  8
0
100
AcDbLine
 62
7
  6
CONTINUOUS
 10
-1.1597282293
 20
-11.5130445128
 11
-1.1449972769
 21
-11.4781482281
  0
LINE
  5
421
100
AcDbEntity
  8
0
100
AcDbLine
 62
7
  6
CONTINUOUS
 10
-1.1746647022
 20
-11.5478189078
 11
-1.1597282293
 21
-11.5130445128
  0
LINE
  5
422
100
AcDbEntity
  8
0
100
AcDbLine
 62
7
  6
CONTINUOUS
 10
-1.1898066956
 20
-11.5824714129
 11
-1.1746647022
 21
-11.5478189078
  0
LINE
  5
423
100
AcDbEntity
  8
0
100
AcDbLine
 62
7
  6
CONTINUOUS
 10
-1.171604981
 20
-11.5950726247
 11
-1.1221062937
 21
-11.4888223825
  0
LINE
  5
424
100
AcDbEntity
  8
RACCORDO
100
AcDbLine
 62
7
  6
CONTINUOUS
 10
-6.4317224778
 20
-20.7634345551
 11
-6.5846734642
 21
-21.0693598265
  0
LINE
  5
425
100
AcDbEntity
  8
0
100
AcDbLine
 62
7
  6
CONTINUOUS
 10
7.425
 20
4.284241
 11
8.575
 21
4.284241
  0
LINE
  5
426
100
AcDbEntity
  8
0
100
AcDbLine
 62
7
  6
CONTINUOUS
 10
8.575
 20
4.434792
 11
7.61073
 21
4.434792
  0
LINE
  5
427
100
AcDbEntity
  8
0
100
AcDbLine
 62
7
  6
CONTINUOUS
 10
-8.534582
 20
13.126853
 11
-7.280433
 21
11.872704
  0
LINE
  5
428
100
AcDbEntity
  8
0
100
AcDbLine
 62
7
  6
CONTINUOUS
 10
-7.280432
 20
12.323912
 11
-8.534582
 21
13.578022
  0
LINE
  5
429
100
AcDbEntity
  8
0
100
AcDbLine
 62
7
  6
CONTINUOUS
 10
-9.319212
 20
15.014938
 11
-8.75355
 21
14.449275
  0
LINE
  5
42A
100
AcDbEntity
  8
0
100
AcDbLine
 62
7
  6
CONTINUOUS
 10
-8.75355
 20
14.900463
 11
-9.319212
 21
15.466106
  0
LINE
  5
42B
100
AcDbEntity
  8
RACCORDO
100
AcDbLine
 62
7
  6
CONTINUOUS
 10
-6.5846734642
 20
21.0693598265
 11
-6.4317224778
 21
20.7634345551
  0
LINE
  5
42C
100
AcDbEntity
  8
0
100
AcDbLine
 62
7
  6
CONTINUOUS
 10
-1.122106287
 20
11.4888223726
 11
-1.1716048889
 21
11.5950726739
  0
LINE
  5
42D
100
AcDbEntity
  8
RACCORDO
100
AcDbLine
 62
253
  6
CONTINUOUS
 10
6.5832344211
 20
-20.0091180479
 11
6.430230464
 21
-16.88346829
  0
LINE
  5
42E
100
AcDbEntity
  8
RACCORDO
100
AcDbLine
 62
253
  6
CONTINUOUS
 10
6.8832229981
 20
-19.7137747542
 11
6.7298018764
 21
-16.5796029287
  0
LINE
  5
42F
100
AcDbEntity
  8
ASSI
100
AcDbLine
 62
253
  6
CONTINUOUS
 10
7.2
 20
-23.3515746082
 11
7.2135886019
 21
-23.8010362971
  0
LINE
  5
430
100
AcDbEntity
  8
ASSI
100
AcDbLine
 62
7
  6
CONTINUOUS
 10
4.670433
 20
15.546068
 11
4.670433
 21
16.458087
  0
LINE
  5
431
100
AcDbEntity
  8
ASSI
100
AcDbLine
 62
7
  6
CONTINUOUS
 10
5.1254493507
 20
-21.0745506493
 11
5.1254493507
 21
-20.0872686779
  0
LINE
  5
432
100
AcDbEntity
  8
ASSI
100
AcDbLine
 62
7
  6
CONTINUOUS
 10
5.1254493507
 20
20.0872686779
 11
5.1254493507
 21
21.0745506493
  0
LINE
  5
433
100
AcDbEntity
  8
RACCORDO
100
AcDbLine
 62
7
  6
CONTINUOUS
 10
5.9
 20
-8.0
 11
5.9
 21
-5.9077370513
  0
LINE
  5
434
100
AcDbEntity
  8
RACCORDO
100
AcDbLine
 62
7
  6
CONTINUOUS
 10
5.9
 20
5.9077370513
 11
5.9
 21
8.0
  0
LINE
  5
435
100
AcDbEntity
  8
ASSI
100
AcDbLine
 62
7
  6
CONTINUOUS
 10
6.125
 20
-9.382444
 11
6.125
 21
-10.842948112
  0
LINE
  5
436
100
AcDbEntity
  8
RACCORDO
100
AcDbLine
 62
7
  6
CONTINUOUS
 10
6.5846734642
 20
-21.0693598265
 11
6.5846734642
 21
-20.206013577
  0
LINE
  5
437
100
AcDbEntity
  8
RACCORDO
100
AcDbLine
 62
7
  6
CONTINUOUS
 10
6.5846734642
 20
20.206013577
 11
6.5846734642
 21
21.0693598265
  0
LINE
  5
438
100
AcDbEntity
  8
ASSI
100
AcDbLine
 62
7
  6
CONTINUOUS
 10
4.7002504533
 20
-13.4975756192
 11
4.70278
 21
-13.367554
  0
LINE
  5
439
100
AcDbEntity
  8
ASSI
100
AcDbLine
 62
253
  6
CONTINUOUS
 10
7.2135886019
 20
23.8010362971
 11
7.2
 21
23.3515746082
  0
LINE
  5
43A
100
AcDbEntity
  8
RACCORDO
100
AcDbLine
 62
253
  6
CONTINUOUS
 10
6.430230464
 20
16.88346829
 11
6.5832344211
 21
20.0091180479
  0
LINE
  5
43B
100
AcDbEntity
  8
RACCORDO
100
AcDbLine
 62
253
  6
CONTINUOUS
 10
6.7298018764
 20
16.5796029287
 11
6.8832229981
 21
19.7137747542
  0
LINE
  5
43C
100
AcDbEntity
  8
0
100
AcDbLine
 62
7
  6
CONTINUOUS
 10
1.1597282293
 20
-10.9869554872
 11
1.1449972769
 21
-11.0218517719
  0
LINE
  5
43D
100
AcDbEntity
  8
0
100
AcDbLine
 62
7
  6
CONTINUOUS
 10
1.1746647022
 20
-10.9521810922
 11
1.1597282293
 21
-10.9869554872
  0
LINE
  5
43E
100
AcDbEntity
  8
0
100
AcDbLine
 62
7
  6
CONTINUOUS
 10
1.1898066956
 20
-10.9175285871
 11
1.1746647022
 21
-10.9521810922
  0
LINE
  5
43F
100
AcDbEntity
  8
0
100
AcDbLine
 62
7
  6
CONTINUOUS
 10
1.171604981
 20
-10.9049273753
 11
1.1221062937
 21
-11.0111776175
  0
LINE
  5
440
100
AcDbEntity
  8
0
100
AcDbLine
 62
7
  6
CONTINUOUS
 10
-4.3723404407
 20
-16.09375
 11
-4.4680851102
 21
-16.2499999404
  0
LINE
  5
441
100
AcDbEntity
  8
0
100
AcDbLine
 62
7
  6
CONTINUOUS
 10
-4.3723404407
 20
-17.4375000596
 11
-4.4680851102
 21
-17.59375
  0
LINE
  5
442
100
AcDbEntity
  8
0
100
AcDbLine
 62
7
  6
CONTINUOUS
 10
-3.1276595704
 20
-16.7812500596
 11
-3.0319148926
 21
-16.6249999404
  0
LINE
  5
443
100
AcDbEntity
  8
0
100
AcDbLine
 62
7
  6
CONTINUOUS
 10
-3.6702127755
 20
-18.2187500298
 11
-3.574468106
 21
-18.0625
  0
LINE
  5
444
100
AcDbEntity
  8
0
100
AcDbLine
 62
7
  6
CONTINUOUS
 10
-0.2329572845
 20
-10.1034920444
 11
-0.2469303309
 21
-10.1241595222
  0
LINE
  5
445
100
AcDbEntity
  8
0
100
AcDbLine
 62
7
  6
CONTINUOUS
 10
-4.3085106611
 20
-16.28125
 11
-4.2446808815
 21
-16.1875
  0
LINE
  5
446
100
AcDbEntity
  8
0
100
AcDbLine
 62
7
  6
CONTINUOUS
 10
-4.3085106611
 20
-17.6249999702
 11
-4.2446808815
 21
-17.5312499702
  0
LINE
  5
447
100
AcDbEntity
  8
0
100
AcDbLine
 62
7
  6
CONTINUOUS
 10
-6.012539
 20
-8.218495
 11
-8.4123
 21
-8.954801
  0
LINE
  5
448
100
AcDbEntity
  8
0
100
AcDbLine
 62
7
  6
CONTINUOUS
 10
7.609149
 20
5.235627
 11
8.575
 21
5.235627
  0
LINE
  5
449
100
AcDbEntity
  8
0
100
AcDbLine
 62
7
  6
CONTINUOUS
 10
8.575
 20
5.386238
 11
7.425
 21
5.386238
  0
LINE
  5
44A
100
AcDbEntity
  8
0
100
AcDbLine
 62
7
  6
CONTINUOUS
 10
-0.2469303789
 20
10.1241596148
 11
-0.2327229075
 21
10.1031454
  0
LINE
  5
44B
100
AcDbEntity
  8
0
100
AcDbLine
 62
7
  6
CONTINUOUS
 10
1.122106287
 20
11.0111776274
 11
1.1716048889
 21
10.9049273261
  0
LINE
  5
44C
100
AcDbEntity
  8
RACCORDO
100
AcDbLine
 62
253
  6
CONTINUOUS
 10
6.9167770019
 20
19.7137747542
 11
7.0700502745
 21
16.582623273
  0
LINE
  5
44D
100
AcDbEntity
  8
RACCORDO
100
AcDbLine
 62
253
  6
CONTINUOUS
 10
7.2167655789
 20
20.0091180479
 11
7.3693638588
 21
16.8917556906
  0
LINE
  5
44E
100
AcDbEntity
  8
ASSI
100
AcDbLine
 62
253
  6
CONTINUOUS
 10
7.3982849591
 20
-23.1226497308
 11
7.4135581409
 21
-23.6278312163
  0
LINE
  5
44F
100
AcDbEntity
  8
ASSI
100
AcDbLine
 62
7
  6
CONTINUOUS
 10
8.5
 20
-23.1226497308
 11
8.5131674569
 21
-23.5581814706
  0
LINE
  5
450
100
AcDbEntity
  8
ASSI
100
AcDbLine
 62
7
  6
CONTINUOUS
 10
6.875
 20
-10.842945
 11
6.875
 21
-9.382444
  0
LINE
  5
451
100
AcDbEntity
  8
RACCORDO
100
AcDbLine
 62
253
  6
CONTINUOUS
 10
6.8846620411
 20
-21.0745506493
 11
6.8846620411
 21
-20.2060281563
  0
LINE
  5
452
100
AcDbEntity
  8
RACCORDO
100
AcDbLine
 62
253
  6
CONTINUOUS
 10
6.8846620411
 20
20.2060281562
 11
6.8846620411
 21
21.0745506493
  0
LINE
  5
453
100
AcDbEntity
  8
RACCORDO
100
AcDbLine
 62
253
  6
CONTINUOUS
 10
6.9153379589
 20
20.9872686779
 11
6.9153379589
 21
20.2060281563
  0
LINE
  5
454
100
AcDbEntity
  8
RACCORDO
100
AcDbLine
 62
253
  6
CONTINUOUS
 10
6.9153379589
 20
-20.9872686779
 11
6.9153379589
 21
-20.206013577
  0
LINE
  5
455
100
AcDbEntity
  8
ASSI
100
AcDbLine
 62
7
  6
CONTINUOUS
 10
7.2
 20
-22.4
 11
7.2
 21
-24.300030461
  0
LINE
  5
456
100
AcDbEntity
  8
ASSI
100
AcDbLine
 62
7
  6
CONTINUOUS
 10
7.2
 20
22.4
 11
7.2
 21
24.300030461
  0
LINE
  5
457
100
AcDbEntity
  8
ASSI
100
AcDbLine
 62
253
  6
CONTINUOUS
 10
7.2140249785
 20
24.2368706193
 11
7.2140249785
 21
23.8443375673
  0
LINE
  5
458
100
AcDbEntity
  8
ASSI
100
AcDbLine
 62
253
  6
CONTINUOUS
 10
7.2140249785
 20
-23.8443375673
 11
7.2140249785
 21
-24.2368706193
  0
LINE
  5
459
100
AcDbEntity
  8
RACCORDO
100
AcDbLine
 62
7
  6
CONTINUOUS
 10
7.2153265358
 20
20.9846734642
 11
7.2153265358
 21
20.206013577
  0
LINE
  5
45A
100
AcDbEntity
  8
RACCORDO
100
AcDbLine
 62
7
  6
CONTINUOUS
 10
7.2153265358
 20
-20.9846734642
 11
7.2153265358
 21
-20.206013577
  0
LINE
  5
45B
100
AcDbEntity
  8
ASSI
100
AcDbLine
 62
253
  6
CONTINUOUS
 10
7.4139945176
 20
24.2368706193
 11
7.4139945176
 21
23.8443375673
  0
LINE
  5
45C
100
AcDbEntity
  8
ASSI
100
AcDbLine
 62
253
  6
CONTINUOUS
 10
7.4139945176
 20
-23.8443354981
 11
7.4139945176
 21
-24.2368706193
  0
LINE
  5
45D
100
AcDbEntity
  8
0
100
AcDbLine
 62
7
  6
CONTINUOUS
 10
7.425
 20
15.715759
 11
7.425
 21
15.533098
  0
LINE
  5
45E
100
AcDbEntity
  8
0
100
AcDbLine
 62
7
  6
CONTINUOUS
 10
7.425
 20
14.873232
 11
7.425
 21
14.692245
  0
LINE
  5
45F
100
AcDbEntity
  8
0
100
AcDbLine
 62
7
  6
CONTINUOUS
 10
7.425
 20
14.056374
 11
7.425
 21
13.900963
  0
LINE
  5
460
100
AcDbEntity
  8
0
100
AcDbLine
 62
7
  6
CONTINUOUS
 10
7.425
 20
13.341978
 11
7.425
 21
13.165819
  0
LINE
  5
461
100
AcDbEntity
  8
0
100
AcDbLine
 62
7
  6
CONTINUOUS
 10
7.425
 20
12.688483
 11
7.425
 21
11.75469
  0
LINE
  5
462
100
AcDbEntity
  8
0
100
AcDbLine
 62
7
  6
CONTINUOUS
 10
7.425
 20
11.58811
 11
7.425
 21
11.432709
  0
LINE
  5
463
100
AcDbEntity
  8
0
100
AcDbLine
 62
7
  6
CONTINUOUS
 10
7.425
 20
10.719978
 11
7.425
 21
10.569432
  0
LINE
  5
464
100
AcDbEntity
  8
0
100
AcDbLine
 62
7
  6
CONTINUOUS
 10
7.425
 20
9.991177
 11
7.425
 21
9.806944
  0
LINE
  5
465
100
AcDbEntity
  8
0
100
AcDbLine
 62
7
  6
CONTINUOUS
 10
7.425
 20
9.541101
 11
7.425
 21
9.385746
  0
LINE
  5
466
100
AcDbEntity
  8
0
100
AcDbLine
 62
7
  6
CONTINUOUS
 10
7.425
 20
8.701782
 11
7.425
 21
7.864063
  0
LINE
  5
467
100
AcDbEntity
  8
0
100
AcDbLine
 62
7
  6
CONTINUOUS
 10
7.425
 20
7.1706007023
 11
7.425
 21
6.699601
  0
LINE
  5
468
100
AcDbEntity
  8
0
100
AcDbLine
 62
7
  6
CONTINUOUS
 10
7.425
 20
6.132636
 11
7.425
 21
5.956421
  0
LINE
  5
469
100
AcDbEntity
  8
0
100
AcDbLine
 62
7
  6
CONTINUOUS
 10
7.425
 20
5.386238
 11
7.425
 21
5.165176
  0
LINE
  5
46A
100
AcDbEntity
  8
0
100
AcDbLine
 62
7
  6
CONTINUOUS
 10
7.425
 20
4.506883
 11
7.425
 21
4.284241
  0
LINE
  5
46B
100
AcDbEntity
  8
0
100
AcDbLine
 62
7
  6
CONTINUOUS
 10
7.557903
 20
6.855011
 11
7.557903
 21
7.1617429791
  0
LINE
  5
46C
100
AcDbEntity
  8
0
100
AcDbLine
 62
7
  6
CONTINUOUS
 10
7.56274
 20
8.019464
 11
7.56274
 21
8.701782
  0
LINE
  5
46D
100
AcDbEntity
  8
0
100
AcDbLine
 62
7
  6
CONTINUOUS
 10
7.56274
 20
11.75469
 11
7.56274
 21
12.143914
  0
LINE
  5
46E
100
AcDbEntity
  8
0
100
AcDbLine
 62
7
  6
CONTINUOUS
 10
7.56274
 20
12.299259
 11
7.56274
 21
12.688483
  0
LINE
  5
46F
100
AcDbEntity
  8
0
100
AcDbLine
 62
7
  6
CONTINUOUS
 10
7.915133
 20
8.648927
 11
7.915133
 21
8.019464
  0
LINE
  5
470
100
AcDbEntity
  8
0
100
AcDbLine
 62
7
  6
CONTINUOUS
 10
8.052873
 20
8.019464
 11
8.052873
 21
8.648927
  0
LINE
  5
471
100
AcDbEntity
  8
ASSI
100
AcDbLine
 62
7
  6
CONTINUOUS
 10
8.0579942858
 20
21.2252970227
 11
8.0579942858
 21
20.9872686779
  0
LINE
  5
472
100
AcDbEntity
  8
ASSI
100
AcDbLine
 62
7
  6
CONTINUOUS
 10
8.0579942858
 20
-20.9872686779
 11
8.0579942858
 21
-21.2252970227
  0
LINE
  5
473
100
AcDbEntity
  8
0
100
AcDbLine
 62
7
  6
CONTINUOUS
 10
8.102537
 20
13.418865
 11
8.102537
 21
13.061682
  0
LINE
  5
474
100
AcDbEntity
  8
0
100
AcDbLine
 62
7
  6
CONTINUOUS
 10
8.102537
 20
6.209532
 11
8.102537
 21
5.852349
  0
LINE
  5
475
100
AcDbEntity
  8
ASSI
100
AcDbLine
 62
7
  6
CONTINUOUS
 10
8.2325449351
 20
21.4051134101
 11
8.2325449351
 21
20.9
  0
LINE
  5
476
100
AcDbEntity
  8
ASSI
100
AcDbLine
 62
7
  6
CONTINUOUS
 10
8.2325449351
 20
-21.4051134101
 11
8.2325449351
 21
-20.9
  0
LINE
  5
477
100
AcDbEntity
  8
0
100
AcDbLine
 62
7
  6
CONTINUOUS
 10
8.240277
 20
5.804284
 11
8.240277
 21
6.265549
  0
LINE
  5
478
100
AcDbEntity
  8
0
100
AcDbLine
 62
7
  6
CONTINUOUS
 10
8.240277
 20
13.013626
 11
8.240277
 21
13.474938
  0
LINE
  5
479
100
AcDbEntity
  8
RACCORDO
100
AcDbLine
 62
253
  6
CONTINUOUS
 10
8.2465803894
 20
-2.4362959141
 11
8.2465803894
 21
-1.2935615297
  0
LINE
  5
47A
100
AcDbEntity
  8
RACCORDO
100
AcDbLine
 62
253
  6
CONTINUOUS
 10
8.2465803894
 20
1.2935615297
 11
8.2465803894
 21
2.4362959142
  0
LINE
  5
47B
100
AcDbEntity
  8
0
100
AcDbLine
 62
7
  6
CONTINUOUS
 10
8.43726
 20
14.639418
 11
8.43726
 21
14.056374
  0
LINE
  5
47C
100
AcDbEntity
  8
0
100
AcDbLine
 62
7
  6
CONTINUOUS
 10
8.43726
 20
8.713008
 11
8.43726
 21
8.019464
  0
LINE
  5
47D
100
AcDbEntity
  8
0
100
AcDbLine
 62
7
  6
CONTINUOUS
 10
8.442097
 20
7.1617429791
 11
8.442097
 21
6.855011
  0
LINE
  5
47E
100
AcDbEntity
  8
ASSI
100
AcDbLine
 62
7
  6
CONTINUOUS
 10
8.5
 20
23.1226497308
 11
8.5
 21
22.4
  0
LINE
  5
47F
100
AcDbEntity
  8
ASSI
100
AcDbLine
 62
7
  6
CONTINUOUS
 10
8.5
 20
-22.4
 11
8.5
 21
-23.1226497308
  0
LINE
  5
480
100
AcDbEntity
  8
ASSI
100
AcDbLine
 62
253
  6
CONTINUOUS
 10
8.5131674569
 20
23.5581814706
 11
8.5131674569
 21
22.3868325431
  0
LINE
  5
481
100
AcDbEntity
  8
ASSI
100
AcDbLine
 62
253
  6
CONTINUOUS
 10
8.5131674569
 20
-22.3868325431
 11
8.5131674569
 21
-23.5581814706
  0
LINE
  5
482
100
AcDbEntity
  8
0
100
AcDbLine
 62
7
  6
CONTINUOUS
 10
8.575
 20
4.284241
 11
8.575
 21
4.434792
  0
LINE
  5
483
100
AcDbEntity
  8
0
100
AcDbLine
 62
7
  6
CONTINUOUS
 10
8.575
 20
4.758357
 11
8.575
 21
4.912124
  0
LINE
  5
484
100
AcDbEntity
  8
0
100
AcDbLine
 62
7
  6
CONTINUOUS
 10
8.575
 20
5.235627
 11
8.575
 21
5.386238
  0
LINE
  5
485
100
AcDbEntity
  8
0
100
AcDbLine
 62
7
  6
CONTINUOUS
 10
8.575
 20
5.523987
 11
8.575
 21
5.684141
  0
LINE
  5
486
100
AcDbEntity
  8
0
100
AcDbLine
 62
7
  6
CONTINUOUS
 10
8.575
 20
6.379256
 11
8.575
 21
6.549054
  0
LINE
  5
487
100
AcDbEntity
  8
0
100
AcDbLine
 62
7
  6
CONTINUOUS
 10
8.575
 20
6.699601
 11
8.575
 21
7.1657111626
  0
LINE
  5
488
100
AcDbEntity
  8
0
100
AcDbLine
 62
7
  6
CONTINUOUS
 10
8.575
 20
7.864063
 11
8.575
 21
8.713008
  0
LINE
  5
489
100
AcDbEntity
  8
0
100
AcDbLine
 62
7
  6
CONTINUOUS
 10
8.575
 20
9.385746
 11
8.575
 21
9.541101
  0
LINE
  5
48A
100
AcDbEntity
  8
0
100
AcDbLine
 62
7
  6
CONTINUOUS
 10
8.575
 20
9.806944
 11
8.575
 21
9.957565
  0
LINE
  5
48B
100
AcDbEntity
  8
0
100
AcDbLine
 62
7
  6
CONTINUOUS
 10
8.575
 20
10.5454
 11
8.575
 21
10.719978
  0
LINE
  5
48C
100
AcDbEntity
  8
0
100
AcDbLine
 62
7
  6
CONTINUOUS
 10
8.575
 20
11.432709
 11
8.575
 21
11.58811
  0
LINE
  5
48D
100
AcDbEntity
  8
0
100
AcDbLine
 62
7
  6
CONTINUOUS
 10
8.575
 20
12.143914
 11
8.575
 21
12.299259
  0
LINE
  5
48E
100
AcDbEntity
  8
0
100
AcDbLine
 62
7
  6
CONTINUOUS
 10
8.575
 20
12.733329
 11
8.575
 21
12.893474
  0
LINE
  5
48F
100
AcDbEntity
  8
0
100
AcDbLine
 62
7
  6
CONTINUOUS
 10
8.575
 20
13.588654
 11
8.575
 21
13.75848
  0
LINE
  5
490
100
AcDbEntity
  8
0
100
AcDbLine
 62
7
  6
CONTINUOUS
 10
8.575
 20
13.900963
 11
8.575
 21
14.639418
  0
LINE
  5
491
100
AcDbEntity
  8
0
100
AcDbLine
 62
7
  6
CONTINUOUS
 10
8.575
 20
15.126297
 11
8.575
 21
15.281614
  0
LINE
  5
492
100
AcDbEntity
  8
ASSI
100
AcDbLine
 62
253
  6
CONTINUOUS
 10
7.4135581719
 20
23.6278322392
 11
7.3982849591
 21
23.1226497308
  0
LINE
  5
493
100
AcDbEntity
  8
ASSI
100
AcDbLine
 62
7
  6
CONTINUOUS
 10
8.5131674569
 20
23.5581814706
 11
8.5
 21
23.1226497308
  0
LINE
  5
494
100
AcDbEntity
  8
RACCORDO
100
AcDbLine
 62
253
  6
CONTINUOUS
 10
6.9167770019
 20
-19.7137747542
 11
7.0700502745
 21
-16.582623273
  0
LINE
  5
495
100
AcDbEntity
  8
RACCORDO
100
AcDbLine
 62
253
  6
CONTINUOUS
 10
7.2167655789
 20
-20.0091180479
 11
7.3693638588
 21
-16.8917556906
  0
LINE
  5
496
100
AcDbEntity
  8
0
100
AcDbLine
 62
7
  6
CONTINUOUS
 10
-3.1276595704
 20
-18.1874999702
 11
-3.0319148926
 21
-18.0312500298
  0
LINE
  5
497
100
AcDbEntity
  8
0
100
AcDbLine
 62
7
  6
CONTINUOUS
 10
0.2329572845
 20
-12.3965079556
 11
0.2469303309
 21
-12.3758404778
  0
LINE
  5
498
100
AcDbEntity
  8
0
100
AcDbLine
 62
7
  6
CONTINUOUS
 10
-3.1914893612
 20
-16.5937500596
 11
-3.2553191409
 21
-16.6875000596
  0
LINE
  5
499
100
AcDbEntity
  8
0
100
AcDbLine
 62
7
  6
CONTINUOUS
 10
-3.7340425551
 20
-18.0312500298
 11
-3.7978723347
 21
-18.1250000298
  0
LINE
  5
49A
100
AcDbEntity
  8
0
100
AcDbLine
 62
7
  6
CONTINUOUS
 10
-3.1914893612
 20
-17.9999999702
 11
-3.2553191409
 21
-18.0937499702
  0
LINE
  5
49B
100
AcDbEntity
  8
ASSI
100
AcDbLine
 62
253
  6
CONTINUOUS
 10
-10.6
 20
-22.3999999999
 11
-10.5826210875
 21
-22.3825449351
  0
LINE
  5
49C
100
AcDbEntity
  8
ASSI
100
AcDbLine
 62
253
  6
CONTINUOUS
 10
-11.1
 20
-21.9000761524
 11
-11.0825449351
 21
-21.8826210875
  0
LINE
  5
49D
100
AcDbEntity
  8
0
100
AcDbLine
 62
7
  6
CONTINUOUS
 10
-4.2765957713
 20
-16.0
 11
-4.3723404407
 21
-16.09375
  0
LINE
  5
49E
100
AcDbEntity
  8
0
100
AcDbLine
 62
7
  6
CONTINUOUS
 10
-7.579538
 20
-12.117215
 11
-6.012539
 21
-11.52957
  0
LINE
  5
49F
100
AcDbEntity
  8
0
100
AcDbLine
 62
7
  6
CONTINUOUS
 10
-7.079945
 20
-11.491707
 11
-8.4123
 21
-11.987341
  0
LINE
  5
4A0
100
AcDbEntity
  8
0
100
AcDbLine
 62
7
  6
CONTINUOUS
 10
7.425
 20
6.699601
 11
8.575
 21
6.699601
  0
LINE
  5
4A1
100
AcDbEntity
  8
0
100
AcDbLine
 62
7
  6
CONTINUOUS
 10
8.442097
 20
6.855011
 11
7.557903
 21
6.855011
  0
LINE
  5
4A2
100
AcDbEntity
  8
0
100
AcDbLine
 62
7
  6
CONTINUOUS
 10
7.425
 20
7.864063
 11
8.575
 21
7.864063
  0
LINE
  5
4A3
100
AcDbEntity
  8
0
100
AcDbLine
 62
7
  6
CONTINUOUS
 10
8.43726
 20
8.019464
 11
8.052873
 21
8.019464
  0
LINE
  5
4A4
100
AcDbEntity
  8
0
100
AcDbLine
 62
7
  6
CONTINUOUS
 10
7.915133
 20
8.019464
 11
7.56274
 21
8.019464
  0
LINE
  5
4A5
100
AcDbEntity
  8
0
100
AcDbLine
 62
7
  6
CONTINUOUS
 10
-7.402533
 20
8.238626
 11
-7.083484
 21
8.238626
  0
LINE
  5
4A6
100
AcDbEntity
  8
0
100
AcDbLine
 62
7
  6
CONTINUOUS
 10
-7.989321
 20
8.574273
 11
-7.402533
 21
8.574273
  0
LINE
  5
4A7
100
AcDbEntity
  8
0
100
AcDbLine
 62
7
  6
CONTINUOUS
 10
-7.083484
 20
8.574273
 11
-6.016616
 21
8.574273
  0
LINE
  5
4A8
100
AcDbEntity
  8
0
100
AcDbLine
 62
7
  6
CONTINUOUS
 10
8.052873
 20
8.648927
 11
7.915133
 21
8.648927
  0
LINE
  5
4A9
100
AcDbEntity
  8
0
100
AcDbLine
 62
7
  6
CONTINUOUS
 10
7.56274
 20
8.701782
 11
7.425
 21
8.701782
  0
LINE
  5
4AA
100
AcDbEntity
  8
0
100
AcDbLine
 62
7
  6
CONTINUOUS
 10
8.575
 20
8.713008
 11
8.43726
 21
8.713008
  0
LINE
  5
4AB
100
AcDbEntity
  8
0
100
AcDbLine
 62
7
  6
CONTINUOUS
 10
8.575
 20
4.912124
 11
7.609149
 21
5.235627
  0
LINE
  5
4AC
100
AcDbEntity
  8
0
100
AcDbLine
 62
7
  6
CONTINUOUS
 10
7.425
 20
5.165176
 11
8.401946
 21
4.836821
  0
LINE
  5
4AD
100
AcDbEntity
  8
0
100
AcDbLine
 62
7
  6
CONTINUOUS
 10
8.575
 20
5.684141
 11
8.240277
 21
5.804284
  0
LINE
  5
4AE
100
AcDbEntity
  8
0
100
AcDbLine
 62
7
  6
CONTINUOUS
 10
8.102537
 20
5.852349
 11
7.591806
 21
6.0382
  0
LINE
  5
4AF
100
AcDbEntity
  8
0
100
AcDbLine
 62
7
  6
CONTINUOUS
 10
7.425
 20
5.956421
 11
8.575
 21
5.523987
  0
LINE
  5
4B0
100
AcDbEntity
  8
ASSI
100
AcDbLine
 62
253
  6
CONTINUOUS
 10
-11.0825449351
 20
21.8826210875
 11
-11.1
 21
21.9000761524
  0
LINE
  5
4B1
100
AcDbEntity
  8
ASSI
100
AcDbLine
 62
253
  6
CONTINUOUS
 10
-10.5826210875
 20
22.3825449351
 11
-10.6000000646
 21
22.3999999354
  0
LINE
  5
4B2
100
AcDbEntity
  8
0
100
AcDbLine
 62
7
  6
CONTINUOUS
 10
0.2469303789
 20
12.3758403852
 11
0.2327228975
 21
12.3968546148
  0
LINE
  5
4B3
100
AcDbEntity
  8
ASSI
100
AcDbLine
 62
7
  6
CONTINUOUS
 10
9.2868325431
 20
23.5581814706
 11
9.3
 21
23.1226497308
  0
LINE
  5
4B4
100
AcDbEntity
  8
ASSI
100
AcDbLine
 62
7
  6
CONTINUOUS
 10
11.0825449351
 20
-20.4226497308
 11
11.1
 21
-21.0
  0
LINE
  5
4B5
100
AcDbEntity
  8
ASSI
100
AcDbLine
 62
253
  6
CONTINUOUS
 10
8.7631293807
 20
23.8443375673
 11
8.7631293807
 21
22.3825449351
  0
LINE
  5
4B6
100
AcDbEntity
  8
ASSI
100
AcDbLine
 62
253
  6
CONTINUOUS
 10
8.7631293807
 20
-22.3825449351
 11
8.7631293807
 21
-23.8443375673
  0
LINE
  5
4B7
100
AcDbEntity
  8
ASSI
100
AcDbLine
 62
253
  6
CONTINUOUS
 10
9.0368706193
 20
23.8443375673
 11
9.0368706193
 21
22.3825449351
  0
LINE
  5
4B8
100
AcDbEntity
  8
ASSI
100
AcDbLine
 62
253
  6
CONTINUOUS
 10
9.0368706193
 20
-22.3825449351
 11
9.0368706193
 21
-23.8443375673
  0
LINE
  5
4B9
100
AcDbEntity
  8
ASSI
100
AcDbLine
 62
253
  6
CONTINUOUS
 10
9.2868325431
 20
23.5581814706
 11
9.2868325431
 21
22.3868325431
  0
LINE
  5
4BA
100
AcDbEntity
  8
ASSI
100
AcDbLine
 62
253
  6
CONTINUOUS
 10
9.2868325431
 20
-22.3868325431
 11
9.2868325431
 21
-23.5581814706
  0
LINE
  5
4BB
100
AcDbEntity
  8
ASSI
100
AcDbLine
 62
7
  6
CONTINUOUS
 10
9.3
 20
23.1226497308
 11
9.3
 21
22.4
  0
LINE
  5
4BC
100
AcDbEntity
  8
ASSI
100
AcDbLine
 62
7
  6
CONTINUOUS
 10
9.3
 20
-22.4
 11
9.3
 21
-23.1226497308
  0
LINE
  5
4BD
100
AcDbEntity
  8
ASSI
100
AcDbLine
 62
7
  6
CONTINUOUS
 10
9.65
 20
20.9
 11
9.65
 21
-20.9
  0
LINE
  5
4BE
100
AcDbEntity
  8
ASSI
100
AcDbLine
 62
253
  6
CONTINUOUS
 10
10.3860054824
 20
24.2368706193
 11
10.3860054824
 21
23.8443575944
  0
LINE
  5
4BF
100
AcDbEntity
  8
ASSI
100
AcDbLine
 62
253
  6
CONTINUOUS
 10
10.3860054824
 20
-23.8442507367
 11
10.3860054824
 21
-24.2368706193
  0
LINE
  5
4C0
100
AcDbEntity
  8
ASSI
100
AcDbLine
 62
253
  6
CONTINUOUS
 10
10.5859750215
 20
24.2368706193
 11
10.5859750215
 21
23.8443375673
  0
LINE
  5
4C1
100
AcDbEntity
  8
ASSI
100
AcDbLine
 62
253
  6
CONTINUOUS
 10
10.5859750215
 20
-23.8443375673
 11
10.5859750215
 21
-24.2368706193
  0
LINE
  5
4C2
100
AcDbEntity
  8
ASSI
100
AcDbLine
 62
7
  6
CONTINUOUS
 10
10.6
 20
24.300030461
 11
10.6
 21
22.3999997358
  0
LINE
  5
4C3
100
AcDbEntity
  8
ASSI
100
AcDbLine
 62
7
  6
CONTINUOUS
 10
10.6000000646
 20
-22.3999999296
 11
10.6
 21
-24.300030461
  0
LINE
  5
4C4
100
AcDbEntity
  8
ASSI
100
AcDbLine
 62
7
  6
CONTINUOUS
 10
9.3
 20
-23.1226497308
 11
9.2868325431
 21
-23.5581814706
  0
LINE
  5
4C5
100
AcDbEntity
  8
ASSI
100
AcDbLine
 62
7
  6
CONTINUOUS
 10
11.1
 20
21.0
 11
11.0825449351
 21
20.4226497308
  0
LINE
  5
4C6
100
AcDbEntity
  8
ASSI
100
AcDbLine
 62
7
  6
CONTINUOUS
 10
-9.3
 20
-22.4
 11
-9.2868325431
 21
-22.3868325431
  0
LINE
  5
4C7
100
AcDbEntity
  8
ASSI
100
AcDbLine
 62
253
  6
CONTINUOUS
 10
-10.6
 20
-24.300030461
 11
-10.5868325431
 21
-24.286863004
  0
LINE
  5
4C8
100
AcDbEntity
  8
ASSI
100
AcDbLine
 62
253
  6
CONTINUOUS
 10
-10.400030461
 20
-24.5
 11
-10.3868630041
 21
-24.4868325431
  0
LINE
  5
4C9
100
AcDbEntity
  8
0
100
AcDbLine
 62
7
  6
CONTINUOUS
 10
-3.223404251
 20
-16.8750000596
 11
-3.1276595704
 21
-16.7812500596
  0
LINE
  5
4CA
100
AcDbEntity
  8
0
100
AcDbLine
 62
7
  6
CONTINUOUS
 10
0.2388223726
 20
-10.127893713
 11
0.2469303789
 21
-10.1241596148
  0
LINE
  5
4CB
100
AcDbEntity
  8
0
100
AcDbLine
 62
7
  6
CONTINUOUS
 10
-6.016616
 20
8.893323
 11
-8.522089
 21
8.893323
  0
LINE
  5
4CC
100
AcDbEntity
  8
RACCORDO
100
AcDbLine
 62
7
  6
CONTINUOUS
 10
4.9
 20
9.0
 11
4.2
 21
9.0
  0
LINE
  5
4CD
100
AcDbEntity
  8
0
100
AcDbLine
 62
7
  6
CONTINUOUS
 10
4.2
 20
9.0
 11
3.3056387431
 21
9.0
  0
LINE
  5
4CE
100
AcDbEntity
  8
0
100
AcDbLine
 62
7
  6
CONTINUOUS
 10
-3.3056387431
 20
9.0
 11
-4.2
 21
9.0
  0
LINE
  5
4CF
100
AcDbEntity
  8
RACCORDO
100
AcDbLine
 62
7
  6
CONTINUOUS
 10
-4.2
 20
9.0
 11
-4.9
 21
9.0
  0
LINE
  5
4D0
100
AcDbEntity
  8
0
100
AcDbLine
 62
7
  6
CONTINUOUS
 10
-8.5220891667
 20
9.22227
 11
-8.20304
 21
9.22227
  0
LINE
  5
4D1
100
AcDbEntity
  8
0
100
AcDbLine
 62
7
  6
CONTINUOUS
 10
7.425
 20
9.385746
 11
8.575
 21
9.385746
  0
LINE
  5
4D2
100
AcDbEntity
  8
0
100
AcDbLine
 62
7
  6
CONTINUOUS
 10
8.575
 20
9.541101
 11
7.425
 21
9.541101
  0
LINE
  5
4D3
100
AcDbEntity
  8
0
100
AcDbLine
 62
7
  6
CONTINUOUS
 10
7.425
 20
9.806944
 11
8.575
 21
9.806944
  0
LINE
  5
4D4
100
AcDbEntity
  8
0
100
AcDbLine
 62
7
  6
CONTINUOUS
 10
8.575
 20
9.957565
 11
7.641062
 21
9.957565
  0
LINE
  5
4D5
100
AcDbEntity
  8
0
100
AcDbLine
 62
7
  6
CONTINUOUS
 10
7.425
 20
10.569432
 11
8.359127
 21
10.569432
  0
LINE
  5
4D6
100
AcDbEntity
  8
0
100
AcDbLine
 62
7
  6
CONTINUOUS
 10
8.575
 20
10.719978
 11
7.425
 21
10.719978
  0
LINE
  5
4D7
100
AcDbEntity
  8
0
100
AcDbLine
 62
7
  6
CONTINUOUS
 10
0.2469303309
 20
10.1241595222
 11
0.2388223825
 21
10.1278937063
  0
LINE
  5
4D8
100
AcDbEntity
  8
ASSI
100
AcDbLine
 62
7
  6
CONTINUOUS
 10
-9.3
 20
22.4
 11
-9.2868325431
 21
22.3868325431
  0
LINE
  5
4D9
100
AcDbEntity
  8
ASSI
100
AcDbLine
 62
253
  6
CONTINUOUS
 10
-10.5868325431
 20
24.2868630041
 11
-10.6
 21
24.300030461
  0
LINE
  5
4DA
100
AcDbEntity
  8
ASSI
100
AcDbLine
 62
253
  6
CONTINUOUS
 10
-10.3868630041
 20
24.4868325431
 11
-10.400030461
 21
24.5
  0
LINE
  5
4DB
100
AcDbEntity
  8
ASSI
100
AcDbLine
 62
7
  6
CONTINUOUS
 10
11.1
 20
21.0
 11
11.1261859216
 21
20.4226497308
  0
LINE
  5
4DC
100
AcDbEntity
  8
ASSI
100
AcDbLine
 62
253
  6
CONTINUOUS
 10
10.3864405814
 20
23.6278734767
 11
10.4017150409
 21
23.1226497308
  0
LINE
  5
4DD
100
AcDbEntity
  8
ASSI
100
AcDbLine
 62
253
  6
CONTINUOUS
 10
10.5864113981
 20
23.8010362971
 11
10.6
 21
23.3515746082
  0
LINE
  5
4DE
100
AcDbEntity
  8
ASSI
100
AcDbLine
 62
7
  6
CONTINUOUS
 10
11.0825449351
 20
21.8826210875
 11
11.0825449351
 21
20.4226497308
  0
LINE
  5
4DF
100
AcDbEntity
  8
ASSI
100
AcDbLine
 62
7
  6
CONTINUOUS
 10
11.0825449351
 20
-20.4226497308
 11
11.0825449351
 21
-21.8826210875
  0
LINE
  5
4E0
100
AcDbEntity
  8
ASSI
100
AcDbLine
 62
7
  6
CONTINUOUS
 10
11.1
 20
21.9000761524
 11
11.1
 21
21.0
  0
LINE
  5
4E1
100
AcDbEntity
  8
ASSI
100
AcDbLine
 62
7
  6
CONTINUOUS
 10
11.1
 20
-21.9000761524
 11
11.1
 21
-21.0
  0
LINE
  5
4E2
100
AcDbEntity
  8
ASSI
100
AcDbLine
 62
7
  6
CONTINUOUS
 10
11.1261859216
 20
20.4226497308
 11
11.1261859216
 21
-20.4226497308
  0
LINE
  5
4E3
100
AcDbEntity
  8
ASSI
100
AcDbLine
 62
253
  6
CONTINUOUS
 10
10.4017150409
 20
-23.1226497308
 11
10.3864421555
 21
-23.6278214108
  0
LINE
  5
4E4
100
AcDbEntity
  8
ASSI
100
AcDbLine
 62
253
  6
CONTINUOUS
 10
10.6
 20
-23.3515746082
 11
10.5864113981
 21
-23.8010362971
  0
LINE
  5
4E5
100
AcDbEntity
  8
ASSI
100
AcDbLine
 62
7
  6
CONTINUOUS
 10
11.1261859216
 20
-20.4226497308
 11
11.1
 21
-21.0
  0
LINE
  5
4E6
100
AcDbEntity
  8
ASSI
100
AcDbLine
 62
253
  6
CONTINUOUS
 10
3.1286750776
 20
-21.975182794
 11
3.05
 21
-22.1325449336
  0
LINE
  5
4E7
100
AcDbEntity
  8
ASSI
100
AcDbLine
 62
253
  6
CONTINUOUS
 10
3.3786655583
 20
-22.2251447178
 11
3.2999714434
 21
-22.3825449351
  0
LINE
  5
4E8
100
AcDbEntity
  8
ASSI
100
AcDbLine
 62
7
  6
CONTINUOUS
 10
-4.45
 20
-22.4
 11
-4.3518840226
 21
-22.3018840226
  0
LINE
  5
4E9
100
AcDbEntity
  8
0
100
AcDbLine
 62
7
  6
CONTINUOUS
 10
-4.2446808815
 20
-17.3437500596
 11
-4.3723404407
 21
-17.4375000596
  0
LINE
  5
4EA
100
AcDbEntity
  8
0
100
AcDbLine
 62
7
  6
CONTINUOUS
 10
-3.7978723347
 20
-18.3124999851
 11
-3.6702127755
 21
-18.2187500298
  0
LINE
  5
4EB
100
AcDbEntity
  8
0
100
AcDbLine
 62
7
  6
CONTINUOUS
 10
-3.2553191409
 20
-18.2812500149
 11
-3.1276595704
 21
-18.1874999702
  0
LINE
  5
4EC
100
AcDbEntity
  8
0
100
AcDbLine
 62
7
  6
CONTINUOUS
 10
-4.2446808815
 20
-16.1875
 11
-4.0531914532
 21
-16.0624999404
  0
LINE
  5
4ED
100
AcDbEntity
  8
0
100
AcDbLine
 62
7
  6
CONTINUOUS
 10
-3.2553191409
 20
-16.6875000596
 11
-3.4468085021
 21
-16.8124999404
  0
LINE
  5
4EE
100
AcDbEntity
  8
0
100
AcDbLine
 62
7
  6
CONTINUOUS
 10
-4.2446808815
 20
-17.5312499702
 11
-4.1489362121
 21
-17.4687499404
  0
LINE
  5
4EF
100
AcDbEntity
  8
0
100
AcDbLine
 62
7
  6
CONTINUOUS
 10
-4.1489362121
 20
-15.9374998808
 11
-4.2765957713
 21
-16.0
  0
LINE
  5
4F0
100
AcDbEntity
  8
0
100
AcDbLine
 62
7
  6
CONTINUOUS
 10
-0.2388223726
 20
-12.372106287
 11
-0.2469303789
 21
-12.3758403852
  0
LINE
  5
4F1
100
AcDbEntity
  8
0
100
AcDbLine
 62
7
  6
CONTINUOUS
 10
-8.4123
 20
-15.634608
 11
-6.012539
 21
-14.873837
  0
LINE
  5
4F2
100
AcDbEntity
  8
RACCORDO
100
AcDbLine
 62
253
  6
CONTINUOUS
 10
-4.3191584032
 20
10.8519269192
 11
-3.9798787707
 21
10.8570552592
  0
LINE
  5
4F3
100
AcDbEntity
  8
RACCORDO
100
AcDbLine
 62
253
  6
CONTINUOUS
 10
-4.6527036778
 20
11.1508009236
 11
-3.9972846601
 21
11.1607078301
  0
LINE
  5
4F4
100
AcDbEntity
  8
RACCORDO
100
AcDbLine
 62
253
  6
CONTINUOUS
 10
4.649648509
 20
11.3491528964
 11
3.9981136784
 21
11.3393047009
  0
LINE
  5
4F5
100
AcDbEntity
  8
RACCORDO
100
AcDbLine
 62
253
  6
CONTINUOUS
 10
4.3068156058
 20
11.6478865147
 11
3.9788848344
 21
11.642929717
  0
LINE
  5
4F6
100
AcDbEntity
  8
0
100
AcDbLine
 62
7
  6
CONTINUOUS
 10
-8.529846
 20
11.419319
 11
-6.029109
 21
11.419319
  0
LINE
  5
4F7
100
AcDbEntity
  8
0
100
AcDbLine
 62
7
  6
CONTINUOUS
 10
7.425
 20
11.432709
 11
8.575
 21
11.432709
  0
LINE
  5
4F8
100
AcDbEntity
  8
0
100
AcDbLine
 62
7
  6
CONTINUOUS
 10
8.575
 20
11.58811
 11
7.425
 21
11.58811
  0
LINE
  5
4F9
100
AcDbEntity
  8
0
100
AcDbLine
 62
7
  6
CONTINUOUS
 10
-6.029109
 20
11.738368
 11
-8.529846
 21
11.738368
  0
LINE
  5
4FA
100
AcDbEntity
  8
0
100
AcDbLine
 62
7
  6
CONTINUOUS
 10
7.425
 20
11.75469
 11
7.56274
 21
11.75469
  0
LINE
  5
4FB
100
AcDbEntity
  8
0
100
AcDbLine
 62
7
  6
CONTINUOUS
 10
7.56274
 20
12.143914
 11
8.575
 21
12.143914
  0
LINE
  5
4FC
100
AcDbEntity
  8
0
100
AcDbLine
 62
7
  6
CONTINUOUS
 10
8.575
 20
12.299259
 11
7.56274
 21
12.299259
  0
LINE
  5
4FD
100
AcDbEntity
  8
0
100
AcDbLine
 62
7
  6
CONTINUOUS
 10
7.56274
 20
12.688483
 11
7.425
 21
12.688483
  0
LINE
  5
4FE
100
AcDbEntity
  8
RACCORDO
100
AcDbLine
 62
253
  6
CONTINUOUS
 10
3.9798787707
 20
10.8570552592
 11
4.3191584032
 21
10.8519269192
  0
LINE
  5
4FF
100
AcDbEntity
  8
RACCORDO
100
AcDbLine
 62
253
  6
CONTINUOUS
 10
3.9972846601
 20
11.1607078301
 11
4.6527036778
 21
11.1508009236
  0
LINE
  5
500
100
AcDbEntity
  8
RACCORDO
100
AcDbLine
 62
253
  6
CONTINUOUS
 10
-3.9981136784
 20
11.3393047009
 11
-4.649648509
 21
11.3491528964
  0
LINE
  5
501
100
AcDbEntity
  8
RACCORDO
100
AcDbLine
 62
253
  6
CONTINUOUS
 10
-3.9788848344
 20
11.642929717
 11
-4.3068156058
 21
11.6478865147
  0
LINE
  5
502
100
AcDbEntity
  8
0
100
AcDbLine
 62
7
  6
CONTINUOUS
 10
-0.2469303309
 20
12.3758404778
 11
-0.2388223825
 21
12.3721062937
  0
LINE
  5
503
100
AcDbEntity
  8
ASSI
100
AcDbLine
 62
7
  6
CONTINUOUS
 10
-4.45
 20
22.4
 11
-4.3518840226
 21
22.3018840226
  0
LINE
  5
504
100
AcDbEntity
  8
ASSI
100
AcDbLine
 62
7
  6
CONTINUOUS
 10
2.1249575558
 20
17.0752015271
 11
2.884959
 21
16.173343
  0
LINE
  5
505
100
AcDbEntity
  8
ASSI
100
AcDbLine
 62
7
  6
CONTINUOUS
 10
3.279696
 20
16.173343
 11
2.5549568831
 21
17.0333561387
  0
LINE
  5
506
100
AcDbEntity
  8
ASSI
100
AcDbLine
 62
253
  6
CONTINUOUS
 10
3.05
 20
22.1325449336
 11
3.1286750776
 21
21.975182794
  0
LINE
  5
507
100
AcDbEntity
  8
ASSI
100
AcDbLine
 62
253
  6
CONTINUOUS
 10
3.2999714434
 20
22.3825449351
 11
3.3786655583
 21
22.2251447178
  0
LINE
  5
508
100
AcDbEntity
  8
ASSI
100
AcDbLine
 62
7
  6
CONTINUOUS
 10
7.3012233427
 20
-22.2251447178
 11
7.2551134101
 21
-22.3825449351
  0
LINE
  5
509
100
AcDbEntity
  8
ASSI
100
AcDbLine
 62
253
  6
CONTINUOUS
 10
-4.3518840226
 20
-23.6519220988
 11
-4.45
 21
-23.7500380762
  0
LINE
  5
50A
100
AcDbEntity
  8
ASSI
100
AcDbLine
 62
253
  6
CONTINUOUS
 10
-4.1019220988
 20
-23.9018840226
 11
-4.2000380762
 21
-24.0
  0
LINE
  5
50B
100
AcDbEntity
  8
DRAFT
100
AcDbLine
 62
7
  6
CONTINUOUS
 10
0.3956413238
 20
-19.9301802999
 11
0.3372664292
 21
-19.9885551946
  0
LINE
  5
50C
100
AcDbEntity
  8
0
100
AcDbLine
 62
7
  6
CONTINUOUS
 10
-3.7978723347
 20
-18.1250000298
 11
-3.8936170042
 21
-18.1874999702
  0
LINE
  5
50D
100
AcDbEntity
  8
0
100
AcDbLine
 62
7
  6
CONTINUOUS
 10
-3.2553191409
 20
-18.0937499702
 11
-3.3510638326
 21
-18.15625
  0
LINE
  5
50E
100
AcDbEntity
  8
0
100
AcDbLine
 62
7
  6
CONTINUOUS
 10
-3.3510638326
 20
-16.9375
 11
-3.223404251
 21
-16.8750000596
  0
LINE
  5
50F
100
AcDbEntity
  8
0
100
AcDbLine
 62
7
  6
CONTINUOUS
 10
-4.085106343
 20
-17.2812499404
 11
-4.2446808815
 21
-17.3437500596
  0
LINE
  5
510
100
AcDbEntity
  8
0
100
AcDbLine
 62
7
  6
CONTINUOUS
 10
-4.0531914532
 20
-15.90625
 11
-4.1489362121
 21
-15.9374998808
  0
LINE
  5
511
100
AcDbEntity
  8
0
100
AcDbLine
 62
7
  6
CONTINUOUS
 10
-3.4468085021
 20
-16.9687500596
 11
-3.3510638326
 21
-16.9375
  0
LINE
  5
512
100
AcDbEntity
  8
0
100
AcDbLine
 62
7
  6
CONTINUOUS
 10
7.425
 20
13.900963
 11
8.575
 21
13.900963
  0
LINE
  5
513
100
AcDbEntity
  8
0
100
AcDbLine
 62
7
  6
CONTINUOUS
 10
-8.525679
 20
13.904142
 11
-6.029109
 21
13.904142
  0
LINE
  5
514
100
AcDbEntity
  8
0
100
AcDbLine
 62
7
  6
CONTINUOUS
 10
8.43726
 20
14.056374
 11
7.425
 21
14.056374
  0
LINE
  5
515
100
AcDbEntity
  8
0
100
AcDbLine
 62
7
  6
CONTINUOUS
 10
-6.348158
 20
14.223193
 11
-8.20663
 21
14.223193
  0
LINE
  5
516
100
AcDbEntity
  8
0
100
AcDbLine
 62
7
  6
CONTINUOUS
 10
-7.409067
 20
14.583109
 11
-7.090933
 21
14.583109
  0
LINE
  5
517
100
AcDbEntity
  8
0
100
AcDbLine
 62
7
  6
CONTINUOUS
 10
8.575
 20
14.639418
 11
8.43726
 21
14.639418
  0
LINE
  5
518
100
AcDbEntity
  8
0
100
AcDbLine
 62
7
  6
CONTINUOUS
 10
8.575
 20
12.893474
 11
8.240277
 21
13.013626
  0
LINE
  5
519
100
AcDbEntity
  8
0
100
AcDbLine
 62
7
  6
CONTINUOUS
 10
8.102537
 20
13.061682
 11
7.591806
 21
13.247523
  0
LINE
  5
51A
100
AcDbEntity
  8
0
100
AcDbLine
 62
7
  6
CONTINUOUS
 10
7.425
 20
13.165819
 11
8.575
 21
12.733329
  0
LINE
  5
51B
100
AcDbEntity
  8
ASSI
100
AcDbLine
 62
253
  6
CONTINUOUS
 10
-4.45
 20
23.7500380762
 11
-4.3518840226
 21
23.6519220988
  0
LINE
  5
51C
100
AcDbEntity
  8
ASSI
100
AcDbLine
 62
253
  6
CONTINUOUS
 10
-4.2000380762
 20
24.0
 11
-4.1019220988
 21
23.9018840226
  0
LINE
  5
51D
100
AcDbEntity
  8
DRAFT
100
AcDbLine
 62
7
  6
CONTINUOUS
 10
0.3956413238
 20
19.9301802999
 11
0.3372664292
 21
19.9885551946
  0
LINE
  5
51E
100
AcDbEntity
  8
ASSI
100
AcDbLine
 62
7
  6
CONTINUOUS
 10
7.3012233427
 20
22.2251447178
 11
7.2551134101
 21
22.3825449351
  0
LINE
  5
51F
100
AcDbEntity
  8
0
100
AcDbLine
 62
7
  6
CONTINUOUS
 10
-3.9574467838
 20
-18.3750000149
 11
-3.7978723347
 21
-18.3124999851
  0
LINE
  5
520
100
AcDbEntity
  8
0
100
AcDbLine
 62
7
  6
CONTINUOUS
 10
-9.4492944489
 20
-20.833111737
 11
-9.65
 21
-20.9
  0
LINE
  5
521
100
AcDbEntity
  8
0
100
AcDbLine
 62
7
  6
CONTINUOUS
 10
-4.1489362121
 20
-17.4687499404
 11
-4.0531914532
 21
-17.4375000596
  0
LINE
  5
522
100
AcDbEntity
  8
0
100
AcDbLine
 62
7
  6
CONTINUOUS
 10
-3.8936170042
 20
-18.1874999702
 11
-3.9893616736
 21
-18.2187500298
  0
LINE
  5
523
100
AcDbEntity
  8
0
100
AcDbLine
 62
7
  6
CONTINUOUS
 10
-3.3510638326
 20
-18.3124999851
 11
-3.2553191409
 21
-18.2812500149
  0
LINE
  5
524
100
AcDbEntity
  8
0
100
AcDbLine
 62
7
  6
CONTINUOUS
 10
8.112117
 20
15.126297
 11
8.575
 21
15.126297
  0
LINE
  5
525
100
AcDbEntity
  8
0
100
AcDbLine
 62
7
  6
CONTINUOUS
 10
8.575
 20
15.281614
 11
8.112117
 21
15.281614
  0
LINE
  5
526
100
AcDbEntity
  8
ASSI
100
AcDbLine
 62
7
  6
CONTINUOUS
 10
4.349006
 20
15.546068
 11
4.670433
 21
15.546068
  0
LINE
  5
527
100
AcDbEntity
  8
0
100
AcDbLine
 62
7
  6
CONTINUOUS
 10
-7.090933
 20
15.547293
 11
-7.409067
 21
15.547293
  0
LINE
  5
528
100
AcDbEntity
  8
ASSI
100
AcDbLine
 62
7
  6
CONTINUOUS
 10
1.742229
 20
15.556565
 11
2.065424
 21
15.556565
  0
LINE
  5
529
100
AcDbEntity
  8
0
100
AcDbLine
 62
7
  6
CONTINUOUS
 10
-8.20663
 20
15.591746
 11
-8.525679
 21
15.591746
  0
LINE
  5
52A
100
AcDbEntity
  8
0
100
AcDbLine
 62
7
  6
CONTINUOUS
 10
-6.029109
 20
15.611671
 11
-6.348158
 21
15.611671
  0
LINE
  5
52B
100
AcDbEntity
  8
DRAFT
100
AcDbLine
 62
7
  6
CONTINUOUS
 10
-0.3746920834
 20
15.7
 11
0.3746920834
 21
15.7
  0
LINE
  5
52C
100
AcDbEntity
  8
ASSI
100
AcDbLine
 62
7
  6
CONTINUOUS
 10
2.065424
 20
15.830922
 11
2.884959
 21
15.830922
  0
LINE
  5
52D
100
AcDbEntity
  8
ASSI
100
AcDbLine
 62
7
  6
CONTINUOUS
 10
3.28329
 20
15.830922
 11
4.349006
 21
15.830922
  0
LINE
  5
52E
100
AcDbEntity
  8
ASSI
100
AcDbLine
 62
7
  6
CONTINUOUS
 10
4.349006
 20
16.173343
 11
3.279696
 21
16.173343
  0
LINE
  5
52F
100
AcDbEntity
  8
ASSI
100
AcDbLine
 62
7
  6
CONTINUOUS
 10
2.884959
 20
16.173343
 11
2.065424
 21
16.173343
  0
LINE
  5
530
100
AcDbEntity
  8
ASSI
100
AcDbLine
 62
7
  6
CONTINUOUS
 10
2.065424
 20
16.44759
 11
1.742229
 21
16.44759
  0
LINE
  5
531
100
AcDbEntity
  8
ASSI
100
AcDbLine
 62
7
  6
CONTINUOUS
 10
4.670433
 20
16.458087
 11
4.349006
 21
16.458087
  0
LINE
  5
532
100
AcDbEntity
  8
0
100
AcDbLine
 62
7
  6
CONTINUOUS
 10
-9.4492944489
 20
20.833111737
 11
-9.65
 21
20.9
  0
LINE
  5
533
100
AcDbEntity
  8
ASSI
100
AcDbLine
 62
7
  6
CONTINUOUS
 10
4.525886173
 20
15.2558219029
 11
4.2622738435
 21
15.4037790879
  0
LINE
  5
534
100
AcDbEntity
  8
0
100
AcDbLine
 62
7
  6
CONTINUOUS
 10
7.425
 20
15.533098
 11
7.977632
 21
15.203211
  0
LINE
  5
535
100
AcDbEntity
  8
ASSI
100
AcDbLine
 62
253
  6
CONTINUOUS
 10
0.8174550649
 20
-23.7325830113
 11
0.8
 21
-23.7500380762
  0
LINE
  5
536
100
AcDbEntity
  8
ASSI
100
AcDbLine
 62
7
  6
CONTINUOUS
 10
3.1173032135
 20
-21.6326967865
 11
3.05
 21
-21.7
  0
LINE
  5
537
100
AcDbEntity
  8
ASSI
100
AcDbLine
 62
253
  6
CONTINUOUS
 10
1.0674169887
 20
-23.9825449351
 11
1.0499619238
 21
-24.0
  0
LINE
  5
538
100
AcDbEntity
  8
ASSI
100
AcDbLine
 62
7
  6
CONTINUOUS
 10
3.5
 20
-22.3825449351
 11
3.5806609125
 21
-22.3018840226
  0
LINE
  5
539
100
AcDbEntity
  8
0
100
AcDbLine
 62
7
  6
CONTINUOUS
 10
5.4372366227
 20
-20.7627633773
 11
5.1254493507
 21
-21.0745506493
  0
LINE
  5
53A
100
AcDbEntity
  8
ASSI
100
AcDbLine
 62
253
  6
CONTINUOUS
 10
3.5806609125
 20
-23.6519220988
 11
3.5
 21
-23.7325830113
  0
LINE
  5
53B
100
AcDbEntity
  8
0
100
AcDbLine
 62
7
  6
CONTINUOUS
 10
8.112117
 20
15.281614
 11
7.425
 21
15.715759
  0
LINE
  5
53C
100
AcDbEntity
  8
ASSI
100
AcDbLine
 62
7
  6
CONTINUOUS
 10
5.690956
 20
17.164033
 11
5.453173
 21
17.331763
  0
LINE
  5
53D
100
AcDbEntity
  8
ASSI
100
AcDbLine
 62
253
  6
CONTINUOUS
 10
0.8
 20
23.7500380762
 11
0.8174550649
 21
23.7325830113
  0
LINE
  5
53E
100
AcDbEntity
  8
ASSI
100
AcDbLine
 62
7
  6
CONTINUOUS
 10
3.1173032135
 20
21.6326967865
 11
3.05
 21
21.7
  0
LINE
  5
53F
100
AcDbEntity
  8
ASSI
100
AcDbLine
 62
253
  6
CONTINUOUS
 10
1.0499619238
 20
24.0
 11
1.0674169887
 21
23.9825449351
  0
LINE
  5
540
100
AcDbEntity
  8
ASSI
100
AcDbLine
 62
7
  6
CONTINUOUS
 10
3.5806609125
 20
22.3018840226
 11
3.5
 21
22.3825449351
  0
LINE
  5
541
100
AcDbEntity
  8
0
100
AcDbLine
 62
7
  6
CONTINUOUS
 10
5.4372366227
 20
20.7627633773
 11
5.1254493507
 21
21.0745506493
  0
LINE
  5
542
100
AcDbEntity
  8
ASSI
100
AcDbLine
 62
253
  6
CONTINUOUS
 10
3.5
 20
23.7325830113
 11
3.5806609125
 21
23.6519220988
  0
LINE
  5
543
100
AcDbEntity
  8
ASSI
100
AcDbLine
 62
253
  6
CONTINUOUS
 10
3.8306228363
 20
-23.9018840226
 11
3.7499619238
 21
-23.9825449351
  0
LINE
  5
544
100
AcDbEntity
  8
RACCORDO
100
AcDbLine
 62
7
  6
CONTINUOUS
 10
7.3678819614
 20
-20.8321180386
 11
7.2153265358
 21
-20.9846734642
  0
LINE
  5
545
100
AcDbEntity
  8
ASSI
100
AcDbLine
 62
7
  6
CONTINUOUS
 10
7.2551134101
 20
-22.3825449351
 11
8.2325449351
 21
-21.4051134101
  0
LINE
  5
546
100
AcDbEntity
  8
0
100
AcDbLine
 62
7
  6
CONTINUOUS
 10
5.1254493507
 20
-20.0872686779
 11
5.4379421647
 21
-19.9310341704
  0
LINE
  5
547
100
AcDbEntity
  8
RACCORDO
100
AcDbLine
 62
253
  6
CONTINUOUS
 10
-6.9167769421
 20
19.7137630019
 11
-6.8832230579
 21
19.7137630019
  0
LINE
  5
548
100
AcDbEntity
  8
RACCORDO
100
AcDbLine
 62
253
  6
CONTINUOUS
 10
6.8832229981
 20
19.7137747542
 11
6.9167770019
 21
19.7137747542
  0
LINE
  5
549
100
AcDbEntity
  8
DRAFT
100
AcDbLine
 62
7
  6
CONTINUOUS
 10
-0.3372664292
 20
19.9885551946
 11
0.3372664292
 21
19.9885551946
  0
LINE
  5
54A
100
AcDbEntity
  8
ASSI
100
AcDbLine
 62
7
  6
CONTINUOUS
 10
5.1254493507
 20
20.0872686779
 11
-5.1254493507
 21
20.0872686779
  0
LINE
  5
54B
100
AcDbEntity
  8
RACCORDO
100
AcDbLine
 62
253
  6
CONTINUOUS
 10
-6.5846734642
 20
20.2059987693
 11
-7.2153265358
 21
20.2059987693
  0
LINE
  5
54C
100
AcDbEntity
  8
RACCORDO
100
AcDbLine
 62
253
  6
CONTINUOUS
 10
6.5846734642
 20
20.206013577
 11
7.2153265358
 21
20.206013577
  0
LINE
  5
54D
100
AcDbEntity
  8
ASSI
100
AcDbLine
 62
7
  6
CONTINUOUS
 10
-11.1261859216
 20
20.4226497308
 11
-11.0825449351
 21
20.4226497308
  0
LINE
  5
54E
100
AcDbEntity
  8
ASSI
100
AcDbLine
 62
7
  6
CONTINUOUS
 10
11.1261859216
 20
20.4226497308
 11
11.0825449351
 21
20.4226497308
  0
LINE
  5
54F
100
AcDbEntity
  8
ASSI
100
AcDbLine
 62
7
  6
CONTINUOUS
 10
3.3850964806
 20
20.8
 11
-3.3850964806
 21
20.8
  0
LINE
  5
550
100
AcDbEntity
  8
ASSI
100
AcDbLine
 62
7
  6
CONTINUOUS
 10
9.65
 20
20.9
 11
8.2325449351
 21
20.9
  0
LINE
  5
551
100
AcDbEntity
  8
ASSI
100
AcDbLine
 62
7
  6
CONTINUOUS
 10
-8.2325449351
 20
20.9
 11
-9.65
 21
20.9
  0
LINE
  5
552
100
AcDbEntity
  8
RACCORDO
100
AcDbLine
 62
7
  6
CONTINUOUS
 10
-8.0579942858
 20
20.9872686779
 11
-6.9153379589
 21
20.9872686779
  0
LINE
  5
553
100
AcDbEntity
  8
RACCORDO
100
AcDbLine
 62
7
  6
CONTINUOUS
 10
6.9153379589
 20
20.9872686779
 11
8.0579942858
 21
20.9872686779
  0
LINE
  5
554
100
AcDbEntity
  8
RACCORDO
100
AcDbLine
 62
7
  6
CONTINUOUS
 10
-6.8846620411
 20
21.0745506493
 11
-5.1254493507
 21
21.0745506493
  0
LINE
  5
555
100
AcDbEntity
  8
RACCORDO
100
AcDbLine
 62
7
  6
CONTINUOUS
 10
5.1254493507
 20
21.0745506493
 11
6.8846620411
 21
21.0745506493
  0
LINE
  5
556
100
AcDbEntity
  8
ASSI
100
AcDbLine
 62
253
  6
CONTINUOUS
 10
8.0579942858
 20
21.2252970227
 11
3.1351059998
 21
21.2252970227
  0
LINE
  5
557
100
AcDbEntity
  8
ASSI
100
AcDbLine
 62
253
  6
CONTINUOUS
 10
-3.1351059998
 20
21.2252970227
 11
-8.0579942858
 21
21.2252970227
  0
LINE
  5
558
100
AcDbEntity
  8
0
100
AcDbLine
 62
7
  6
CONTINUOUS
 10
5.4379421647
 20
19.9310341704
 11
5.1254493507
 21
20.0872686779
  0
LINE
  5
559
100
AcDbEntity
  8
ASSI
100
AcDbLine
 62
253
  6
CONTINUOUS
 10
3.7499619238
 20
23.9825449351
 11
3.8306228363
 21
23.9018840226
  0
LINE
  5
55A
100
AcDbEntity
  8
RACCORDO
100
AcDbLine
 62
7
  6
CONTINUOUS
 10
7.2153265358
 20
20.9846734642
 11
7.3678819614
 21
20.8321180386
  0
LINE
  5
55B
100
AcDbEntity
  8
ASSI
100
AcDbLine
 62
7
  6
CONTINUOUS
 10
8.2325449351
 20
21.4051134101
 11
7.2551134101
 21
22.3825449351
  0
LINE
  5
55C
100
AcDbEntity
  8
ASSI
100
AcDbLine
 62
7
  6
CONTINUOUS
 10
8.5
 20
-22.4
 11
8.5131674569
 21
-22.3868325431
  0
LINE
  5
55D
100
AcDbEntity
  8
ASSI
100
AcDbLine
 62
253
  6
CONTINUOUS
 10
7.2131674569
 20
-24.286863004
 11
7.2
 21
-24.300030461
  0
LINE
  5
55E
100
AcDbEntity
  8
ASSI
100
AcDbLine
 62
253
  6
CONTINUOUS
 10
7.4131369959
 20
-24.4868325431
 11
7.399969539
 21
-24.5
  0
LINE
  5
55F
100
AcDbEntity
  8
ASSI
100
AcDbLine
 62
7
  6
CONTINUOUS
 10
8.0579942858
 20
-20.9872686779
 11
8.2325449351
 21
-20.9
  0
LINE
  5
560
100
AcDbEntity
  8
ASSI
100
AcDbLine
 62
7
  6
CONTINUOUS
 10
8.0584656028
 20
-21.4561094406
 11
8.2325449351
 21
-21.4051134101
  0
LINE
  5
561
100
AcDbEntity
  8
ASSI
100
AcDbLine
 62
7
  6
CONTINUOUS
 10
-0.8174550649
 20
22.398254669
 11
-0.8
 21
22.4
  0
LINE
  5
562
100
AcDbEntity
  8
ASSI
100
AcDbLine
 62
7
  6
CONTINUOUS
 10
-3.1173032135
 20
21.6326967865
 11
3.1173032135
 21
21.6326967865
  0
LINE
  5
563
100
AcDbEntity
  8
ASSI
100
AcDbLine
 62
7
  6
CONTINUOUS
 10
-3.05
 20
21.7
 11
3.05
 21
21.7
  0
LINE
  5
564
100
AcDbEntity
  8
ASSI
100
AcDbLine
 62
253
  6
CONTINUOUS
 10
7.3012233427
 20
22.2251447178
 11
3.3786655583
 21
22.2251447178
  0
LINE
  5
565
100
AcDbEntity
  8
ASSI
100
AcDbLine
 62
253
  6
CONTINUOUS
 10
-3.3786655583
 20
22.2251447178
 11
-7.3012233427
 21
22.2251447178
  0
LINE
  5
566
100
AcDbEntity
  8
ASSI
100
AcDbLine
 62
7
  6
CONTINUOUS
 10
10.5826210875
 20
22.3825449351
 11
9.0368706193
 21
22.3825449351
  0
LINE
  5
567
100
AcDbEntity
  8
ASSI
100
AcDbLine
 62
7
  6
CONTINUOUS
 10
8.7631293807
 20
22.3825449351
 11
7.2551134101
 21
22.3825449351
  0
LINE
  5
568
100
AcDbEntity
  8
ASSI
100
AcDbLine
 62
7
  6
CONTINUOUS
 10
-3.5
 20
22.3825449351
 11
-3.2999714434
 21
22.3825449351
  0
LINE
  5
569
100
AcDbEntity
  8
ASSI
100
AcDbLine
 62
7
  6
CONTINUOUS
 10
3.2999714434
 20
22.3825449351
 11
3.5
 21
22.3825449351
  0
LINE
  5
56A
100
AcDbEntity
  8
ASSI
100
AcDbLine
 62
7
  6
CONTINUOUS
 10
-7.2551134101
 20
22.3825449351
 11
-8.7631293807
 21
22.3825449351
  0
LINE
  5
56B
100
AcDbEntity
  8
ASSI
100
AcDbLine
 62
7
  6
CONTINUOUS
 10
-9.0368706193
 20
22.3825449351
 11
-10.5826210875
 21
22.3825449351
  0
LINE
  5
56C
100
AcDbEntity
  8
ASSI
100
AcDbLine
 62
7
  6
CONTINUOUS
 10
-0.8174550649
 20
22.398254669
 11
0.8174550649
 21
22.398254669
  0
LINE
  5
56D
100
AcDbEntity
  8
ASSI
100
AcDbLine
 62
7
  6
CONTINUOUS
 10
-10.6000000646
 20
22.3999999354
 11
-9.3
 21
22.4
  0
LINE
  5
56E
100
AcDbEntity
  8
ASSI
100
AcDbLine
 62
7
  6
CONTINUOUS
 10
-8.5
 20
22.4
 11
-4.45
 21
22.4
  0
LINE
  5
56F
100
AcDbEntity
  8
ASSI
100
AcDbLine
 62
7
  6
CONTINUOUS
 10
4.45
 20
22.4
 11
8.5
 21
22.4
  0
LINE
  5
570
100
AcDbEntity
  8
ASSI
100
AcDbLine
 62
7
  6
CONTINUOUS
 10
9.3
 20
22.4
 11
10.6
 21
22.3999999999
  0
LINE
  5
571
100
AcDbEntity
  8
ASSI
100
AcDbLine
 62
7
  6
CONTINUOUS
 10
-10.4017150409
 20
23.1226497308
 11
-9.3
 21
23.1226497308
  0
LINE
  5
572
100
AcDbEntity
  8
ASSI
100
AcDbLine
 62
7
  6
CONTINUOUS
 10
-8.5
 20
23.1226497308
 11
-7.3982849591
 21
23.1226497308
  0
LINE
  5
573
100
AcDbEntity
  8
ASSI
100
AcDbLine
 62
7
  6
CONTINUOUS
 10
7.3982849591
 20
23.1226497308
 11
8.5
 21
23.1226497308
  0
LINE
  5
574
100
AcDbEntity
  8
ASSI
100
AcDbLine
 62
7
  6
CONTINUOUS
 10
9.3
 20
23.1226497308
 11
10.4017150409
 21
23.1226497308
  0
LINE
  5
575
100
AcDbEntity
  8
ASSI
100
AcDbLine
 62
7
  6
CONTINUOUS
 10
0.8174550649
 20
22.398254669
 11
0.8
 21
22.4
  0
LINE
  5
576
100
AcDbEntity
  8
ASSI
100
AcDbLine
 62
7
  6
CONTINUOUS
 10
8.0584656028
 20
21.4561094406
 11
8.2325449351
 21
21.4051134101
  0
LINE
  5
577
100
AcDbEntity
  8
ASSI
100
AcDbLine
 62
7
  6
CONTINUOUS
 10
8.0579942858
 20
20.9872686779
 11
8.2325449351
 21
20.9
  0
LINE
  5
578
100
AcDbEntity
  8
ASSI
100
AcDbLine
 62
7
  6
CONTINUOUS
 10
8.5
 20
22.4
 11
8.5131674569
 21
22.3868325431
  0
LINE
  5
579
100
AcDbEntity
  8
ASSI
100
AcDbLine
 62
253
  6
CONTINUOUS
 10
7.2
 20
24.300030461
 11
7.2131674569
 21
24.2868630041
  0
LINE
  5
57A
100
AcDbEntity
  8
ASSI
100
AcDbLine
 62
253
  6
CONTINUOUS
 10
7.399969539
 20
24.5
 11
7.4131369959
 21
24.4868325431
  0
LINE
  5
57B
100
AcDbEntity
  8
ASSI
100
AcDbLine
 62
253
  6
CONTINUOUS
 10
-10.3864405812
 20
23.6278734826
 11
-9.2533769702
 21
23.6278312164
  0
LINE
  5
57C
100
AcDbEntity
  8
ASSI
100
AcDbLine
 62
253
  6
CONTINUOUS
 10
9.2533769702
 20
23.6278312164
 11
10.3864405814
 21
23.6278734767
  0
LINE
  5
57D
100
AcDbEntity
  8
ASSI
100
AcDbLine
 62
253
  6
CONTINUOUS
 10
-8.5466230298
 20
23.6278312164
 11
-7.4135581657
 21
23.6278320349
  0
LINE
  5
57E
100
AcDbEntity
  8
ASSI
100
AcDbLine
 62
253
  6
CONTINUOUS
 10
7.4135581719
 20
23.6278322392
 11
8.5466230298
 21
23.6278312164
  0
LINE
  5
57F
100
AcDbEntity
  8
ASSI
100
AcDbLine
 62
253
  6
CONTINUOUS
 10
-10.5859750215
 20
23.8443375673
 11
-9.0368706193
 21
23.8443375673
  0
LINE
  5
580
100
AcDbEntity
  8
ASSI
100
AcDbLine
 62
253
  6
CONTINUOUS
 10
10.5859750215
 20
23.8443375673
 11
9.0368706193
 21
23.8443375673
  0
LINE
  5
581
100
AcDbEntity
  8
ASSI
100
AcDbLine
 62
253
  6
CONTINUOUS
 10
8.7631293807
 20
23.8443375673
 11
7.2140249785
 21
23.8443375673
  0
LINE
  5
582
100
AcDbEntity
  8
ASSI
100
AcDbLine
 62
253
  6
CONTINUOUS
 10
-7.2140249785
 20
23.8443375673
 11
-8.7631293807
 21
23.8443375673
  0
LINE
  5
583
100
AcDbEntity
  8
ASSI
100
AcDbLine
 62
7
  6
CONTINUOUS
 10
-3.7499619238
 20
23.9825449351
 11
-1.0674169887
 21
23.9825449351
  0
LINE
  5
584
100
AcDbEntity
  8
ASSI
100
AcDbLine
 62
7
  6
CONTINUOUS
 10
1.0674169887
 20
23.9825449351
 11
3.7499619238
 21
23.9825449351
  0
LINE
  5
585
100
AcDbEntity
  8
ASSI
100
AcDbLine
 62
7
  6
CONTINUOUS
 10
-4.2000380762
 20
24.0
 11
-1.0499619238
 21
24.0
  0
LINE
  5
586
100
AcDbEntity
  8
ASSI
100
AcDbLine
 62
7
  6
CONTINUOUS
 10
1.0499619238
 20
24.0
 11
4.2000380762
 21
24.0
  0
LINE
  5
587
100
AcDbEntity
  8
ASSI
100
AcDbLine
 62
253
  6
CONTINUOUS
 10
10.5859750215
 20
24.2368706193
 11
7.2140249785
 21
24.2368706193
  0
LINE
  5
588
100
AcDbEntity
  8
ASSI
100
AcDbLine
 62
253
  6
CONTINUOUS
 10
-7.2140249785
 20
24.2368706193
 11
-10.5859750215
 21
24.2368706193
  0
LINE
  5
589
100
AcDbEntity
  8
ASSI
100
AcDbLine
 62
253
  6
CONTINUOUS
 10
10.3868630041
 20
24.4868325431
 11
7.4131369959
 21
24.4868325431
  0
LINE
  5
58A
100
AcDbEntity
  8
ASSI
100
AcDbLine
 62
253
  6
CONTINUOUS
 10
-7.4131369959
 20
24.4868325431
 11
-10.3868630041
 21
24.4868325431
  0
LINE
  5
58B
100
AcDbEntity
  8
ASSI
100
AcDbLine
 62
7
  6
CONTINUOUS
 10
-10.400030461
 20
24.5
 11
-7.399969539
 21
24.5
  0
LINE
  5
58C
100
AcDbEntity
  8
ASSI
100
AcDbLine
 62
7
  6
CONTINUOUS
 10
7.399969539
 20
24.5
 11
10.400030461
 21
24.5
  0
ARC
  5
58D
100
AcDbEntity
  8
RACCORDO
100
AcDbCircle
 62
253
  6
CONTINUOUS
 10
-373.1428520413
 20
-28.6324612649
 40
375.3191235733
100
AcDbArc
 50
3.2090004302
 51
3.4202133715
  0
ARC
  5
58E
100
AcDbEntity
  8
0
100
AcDbCircle
 62
7
  6
CONTINUOUS
 10
-1.5959574565
 20
-231.0805177984
 40
242.1025844466
100
AcDbArc
 50
89.8932861206
 51
90.0180003575
  0
ARC
  5
58F
100
AcDbEntity
  8
0
100
AcDbCircle
 62
7
  6
CONTINUOUS
 10
-1.5959574565
 20
-253.5805177931
 40
242.1025844413
100
AcDbArc
 50
89.8932861206
 51
90.0180003575
  0
ARC
  5
590
100
AcDbEntity
  8
0
100
AcDbCircle
 62
7
  6
CONTINUOUS
 10
-12.9923624886
 20
-55.0087843982
 40
68.084721291
100
AcDbArc
 50
77.5619255269
 51
77.9771487725
  0
ARC
  5
591
100
AcDbEntity
  8
0
100
AcDbCircle
 62
7
  6
CONTINUOUS
 10
-12.9923624886
 20
-77.508784398
 40
68.0847212908
100
AcDbArc
 50
77.5619255269
 51
77.9771487725
  0
ARC
  5
592
100
AcDbEntity
  8
ASSI
100
AcDbCircle
 62
253
  6
CONTINUOUS
 10
-27.4626192189
 20
-23.8063786102
 40
34.8766343905
100
AcDbArc
 50
359.9376439284
 51
0.2933212156
  0
ARC
  5
593
100
AcDbEntity
  8
RACCORDO
100
AcDbCircle
 62
253
  6
CONTINUOUS
 10
-14.7914740889
 20
-10.6269446471
 40
22.0927804484
100
AcDbArc
 50
51.4011152603
 51
51.7684214368
  0
ARC
  5
594
100
AcDbEntity
  8
RACCORDO
100
AcDbCircle
 62
253
  6
CONTINUOUS
 10
-13.9763189132
 20
-8.4673339024
 40
19.2857304336
100
AcDbArc
 50
49.2906355138
 51
49.7052130125
  0
ARC
  5
595
100
AcDbEntity
  8
0
100
AcDbCircle
 62
7
  6
CONTINUOUS
 10
-6.8908571504
 20
-3.3979078894
 40
16.9118046831
100
AcDbArc
 50
63.7086020181
 51
63.9251943701
  0
ARC
  5
596
100
AcDbEntity
  8
0
100
AcDbCircle
 62
7
  6
CONTINUOUS
 10
-6.8908571504
 20
-25.8979078894
 40
16.9118046831
100
AcDbArc
 50
63.7086020181
 51
63.9251943701
  0
ARC
  5
597
100
AcDbEntity
  8
RACCORDO
100
AcDbCircle
 62
253
  6
CONTINUOUS
 10
-9.7197175965
 20
-19.8306127187
 40
15.3079406651
100
AcDbArc
 50
55.2762301405
 51
55.9097832306
  0
ARC
  5
598
100
AcDbEntity
  8
0
100
AcDbCircle
 62
7
  6
CONTINUOUS
 10
-12.4279714933
 20
-5.3831973573
 40
14.581268095
100
AcDbArc
 50
333.3129788868
 51
333.5528085468
  0
ARC
  5
599
100
AcDbEntity
  8
0
100
AcDbCircle
 62
7
  6
CONTINUOUS
 10
-12.3818629709
 20
-17.0937016632
 40
14.5296967201
100
AcDbArc
 50
26.4466091603
 51
26.6872922796
  0
ARC
  5
59A
100
AcDbEntity
  8
RACCORDO
100
AcDbCircle
 62
253
  6
CONTINUOUS
 10
-8.8366925481
 20
-17.3388910671
 40
12.2071522252
100
AcDbArc
 50
52.0191762065
 51
53.0250578841
  0
ARC
  5
59B
100
AcDbEntity
  8
RACCORDO
100
AcDbCircle
 62
253
  6
CONTINUOUS
 10
-0.1195578676
 20
-4.3634196783
 40
5.0850019543
100
AcDbArc
 50
306.1063551017
 51
306.4296919478
  0
ARC
  5
59C
100
AcDbEntity
  8
RACCORDO
100
AcDbCircle
 62
7
  6
CONTINUOUS
 10
-0.0179203008
 20
-11.4882674537
 40
4.1721564629
100
AcDbArc
 50
112.102638057
 51
123.7049091894
  0
ARC
  5
59D
100
AcDbEntity
  8
RACCORDO
100
AcDbCircle
 62
253
  6
CONTINUOUS
 10
-0.0004623676
 20
-11.2543478705
 40
3.7772797383
100
AcDbArc
 50
69.4666874186
 51
89.9929865628
  0
ARC
  5
59E
100
AcDbEntity
  8
RACCORDO
100
AcDbCircle
 62
253
  6
CONTINUOUS
 10
-0.0000281206
 20
-11.249984961
 40
3.7729560697
100
AcDbArc
 50
270.0004270383
 51
69.4503232646
  0
ARC
  5
59F
100
AcDbEntity
  8
RACCORDO
100
AcDbCircle
 62
7
  6
CONTINUOUS
 10
-0.4597079954
 20
-10.3980019759
 40
2.9957832114
100
AcDbArc
 50
110.2073934434
 51
112.1200334755
  0
ARC
  5
5A0
100
AcDbEntity
  8
RACCORDO
100
AcDbCircle
 62
7
  6
CONTINUOUS
 10
-4.9
 20
-8.0
 40
1.0
100
AcDbArc
 50
180.0
 51
270.0
  0
ARC
  5
5A1
100
AcDbEntity
  8
RACCORDO
100
AcDbCircle
 62
253
  6
CONTINUOUS
 10
-1.5085198753
 20
-6.6393875572
 40
0.9999534145
100
AcDbArc
 50
59.4331339809
 51
77.1992539918
  0
ARC
  5
5A2
100
AcDbEntity
  8
ASSI
100
AcDbCircle
 62
7
  6
CONTINUOUS
 10
-4.0
 20
-23.2
 40
0.5
100
AcDbArc
 50
154.1580672368
 51
205.8419327632
  0
ARC
  5
5A3
100
AcDbEntity
  8
RACCORDO
100
AcDbCircle
 62
7
  6
CONTINUOUS
 10
-1.4999073517
 20
-7.2489083539
 40
0.4999073518
100
AcDbArc
 50
290.5485853559
 51
0.001310501
  0
ARC
  5
5A4
100
AcDbEntity
  8
ASSI
100
AcDbCircle
 62
7
  6
CONTINUOUS
 10
-10.6001595988
 20
-21.9001682181
 40
0.4998372685
100
AcDbArc
 50
179.9806905154
 51
270.0182948367
  0
ARC
  5
5A5
100
AcDbEntity
  8
RACCORDO
100
AcDbCircle
 62
253
  6
CONTINUOUS
 10
-1.5082834646
 20
-6.6391121134
 40
0.4997068683
100
AcDbArc
 50
359.9803112408
 51
77.2131800351
  0
ARC
  5
5A6
100
AcDbEntity
  8
ASSI
100
AcDbCircle
 62
7
  6
CONTINUOUS
 10
-4.0
 20
-23.2
 40
0.4904006794
100
AcDbArc
 50
136.2076703059
 51
223.7923296941
  0
ARC
  5
5A7
100
AcDbEntity
  8
ASSI
100
AcDbCircle
 62
253
  6
CONTINUOUS
 10
-4.1018306317
 20
-23.6518306317
 40
0.2500538638
100
AcDbArc
 50
180.020958236
 51
269.979041764
  0
ARC
  5
5A8
100
AcDbEntity
  8
ASSI
100
AcDbCircle
 62
253
  6
CONTINUOUS
 10
-3.8307142387
 20
-23.6518306964
 40
0.2500538605
100
AcDbArc
 50
270.0209434272
 51
359.9790566038
  0
ARC
  5
5A9
100
AcDbEntity
  8
ASSI
100
AcDbCircle
 62
253
  6
CONTINUOUS
 10
-3.3786960099
 20
-21.9751217953
 40
0.2500221687
100
AcDbArc
 50
270.0069783445
 51
359.9860212836
  0
ARC
  5
5AA
100
AcDbEntity
  8
ASSI
100
AcDbCircle
 62
7
  6
CONTINUOUS
 10
-1.0499674725
 20
-23.7500325275
 40
0.2499699324
100
AcDbArc
 50
270.0012718308
 51
359.9987281692
  0
ARC
  5
5AB
100
AcDbEntity
  8
ASSI
100
AcDbCircle
 62
7
  6
CONTINUOUS
 10
-4.2000395761
 20
-23.750039576
 40
0.2499612619
100
AcDbArc
 50
179.9996562075
 51
270.0003437925
  0
ARC
  5
5AC
100
AcDbEntity
  8
ASSI
100
AcDbCircle
 62
253
  6
CONTINUOUS
 10
-7.4132101695
 20
-24.2867898305
 40
0.2000430909
100
AcDbArc
 50
270.0209581896
 51
359.9790418103
  0
ARC
  5
5AD
100
AcDbEntity
  8
ASSI
100
AcDbCircle
 62
253
  6
CONTINUOUS
 10
-10.3867898305
 20
-24.2867898305
 40
0.2000430909
100
AcDbArc
 50
180.02095819
 51
269.97904181
  0
ARC
  5
5AE
100
AcDbEntity
  8
ASSI
100
AcDbCircle
 62
7
  6
CONTINUOUS
 10
-7.3999572982
 20
-24.3000427018
 40
0.1999569277
100
AcDbArc
 50
269.9964925066
 51
0.0035074934
  0
ARC
  5
5AF
100
AcDbEntity
  8
ASSI
100
AcDbCircle
 62
7
  6
CONTINUOUS
 10
-10.4000426585
 20
-24.3000426585
 40
0.1999569277
100
AcDbArc
 50
179.9965049109
 51
270.0034950891
  0
ARC
  5
5B0
100
AcDbEntity
  8
0
100
AcDbCircle
 62
7
  6
CONTINUOUS
 10
-17836.120222158
 20
0.0
 40
17826.683100997
100
AcDbArc
 50
359.9330414053
 51
0.0669585947
  0
ARC
  5
5B1
100
AcDbEntity
  8
RACCORDO
100
AcDbCircle
 62
253
  6
CONTINUOUS
 10
-407.5975242036
 20
30.6279182858
 40
409.831477546
100
AcDbArc
 50
356.5886798774
 51
356.7821063298
  0
ARC
  5
5B2
100
AcDbEntity
  8
0
100
AcDbCircle
 62
7
  6
CONTINUOUS
 10
-11.3371133693
 20
70.0445216145
 40
60.4393193799
100
AcDbArc
 50
281.962321446
 51
282.4297492122
  0
ARC
  5
5B3
100
AcDbEntity
  8
0
100
AcDbCircle
 62
7
  6
CONTINUOUS
 10
-11.3371133694
 20
47.5445216148
 40
60.4393193802
100
AcDbArc
 50
281.962321446
 51
282.4297492122
  0
ARC
  5
5B4
100
AcDbEntity
  8
ASSI
100
AcDbCircle
 62
253
  6
CONTINUOUS
 10
-45.2599106764
 20
23.806377655
 40
34.8739258873
100
AcDbArc
 50
359.7067270348
 51
0.0623987992
  0
ARC
  5
5B5
100
AcDbEntity
  8
RACCORDO
100
AcDbCircle
 62
253
  6
CONTINUOUS
 10
-14.7914740875
 20
10.6269446453
 40
22.0927804462
100
AcDbArc
 50
308.2315785632
 51
308.5988847398
  0
ARC
  5
5B6
100
AcDbEntity
  8
RACCORDO
100
AcDbCircle
 62
253
  6
CONTINUOUS
 10
-13.9763189133
 20
8.4673339024
 40
19.2857304337
100
AcDbArc
 50
310.2947869877
 51
310.7093644864
  0
ARC
  5
5B7
100
AcDbEntity
  8
0
100
AcDbCircle
 62
7
  6
CONTINUOUS
 10
-6.8921243595
 20
25.9002419245
 40
16.9144581343
100
AcDbArc
 50
296.0751861391
 51
296.2917451962
  0
ARC
  5
5B8
100
AcDbEntity
  8
0
100
AcDbCircle
 62
7
  6
CONTINUOUS
 10
-6.8921243595
 20
3.4002419245
 40
16.9144581343
100
AcDbArc
 50
296.0751861391
 51
296.2917451962
  0
ARC
  5
5B9
100
AcDbEntity
  8
RACCORDO
100
AcDbCircle
 62
253
  6
CONTINUOUS
 10
-9.7895829427
 20
19.9326217719
 40
15.4315794536
100
AcDbArc
 50
304.0927548286
 51
304.7212318002
  0
ARC
  5
5BA
100
AcDbEntity
  8
0
100
AcDbCircle
 62
7
  6
CONTINUOUS
 10
-12.4279714939
 20
17.116802643
 40
14.5812680957
100
AcDbArc
 50
333.3129788868
 51
333.5528085468
  0
ARC
  5
5BB
100
AcDbEntity
  8
0
100
AcDbCircle
 62
7
  6
CONTINUOUS
 10
-12.3818629695
 20
5.4062983375
 40
14.5296967186
100
AcDbArc
 50
26.4466091603
 51
26.6872922796
  0
ARC
  5
5BC
100
AcDbEntity
  8
RACCORDO
100
AcDbCircle
 62
253
  6
CONTINUOUS
 10
-8.9208971832
 20
17.4486685696
 40
12.3454995833
100
AcDbArc
 50
306.9807135414
 51
307.9757356679
  0
ARC
  5
5BD
100
AcDbEntity
  8
RACCORDO
100
AcDbCircle
 62
253
  6
CONTINUOUS
 10
-0.1203131858
 20
4.3623711375
 40
5.0862914364
100
AcDbArc
 50
53.570829627
 51
53.8935792699
  0
ARC
  5
5BE
100
AcDbEntity
  8
RACCORDO
100
AcDbCircle
 62
7
  6
CONTINUOUS
 10
-0.0207625126
 20
11.4829003046
 40
4.1661143536
100
AcDbArc
 50
236.2866485014
 51
247.9058042505
  0
ARC
  5
5BF
100
AcDbEntity
  8
RACCORDO
100
AcDbCircle
 62
7
  6
CONTINUOUS
 10
-0.0000218775
 20
11.2498793157
 40
3.7729634717
100
AcDbArc
 50
249.4497720951
 51
270.0003322297
  0
ARC
  5
5C0
100
AcDbEntity
  8
RACCORDO
100
AcDbCircle
 62
7
  6
CONTINUOUS
 10
-0.4597079961
 20
10.398001974
 40
2.9957832094
100
AcDbArc
 50
247.8799665214
 51
249.792606557
  0
ARC
  5
5C1
100
AcDbEntity
  8
RACCORDO
100
AcDbCircle
 62
7
  6
CONTINUOUS
 10
-4.9
 20
8.0
 40
1.0
100
AcDbArc
 50
90.0
 51
180.0
  0
ARC
  5
5C2
100
AcDbEntity
  8
RACCORDO
100
AcDbCircle
 62
253
  6
CONTINUOUS
 10
-1.5085079151
 20
6.6393578302
 40
0.9999217361
100
AcDbArc
 50
282.8007442008
 51
300.5671421661
  0
ARC
  5
5C3
100
AcDbEntity
  8
ASSI
100
AcDbCircle
 62
7
  6
CONTINUOUS
 10
-4.0
 20
23.2
 40
0.5
100
AcDbArc
 50
154.1580672368
 51
205.8419327632
  0
ARC
  5
5C4
100
AcDbEntity
  8
RACCORDO
100
AcDbCircle
 62
7
  6
CONTINUOUS
 10
-1.4999073517
 20
7.2489083539
 40
0.4999073518
100
AcDbArc
 50
359.9986894989
 51
69.4514146441
  0
ARC
  5
5C5
100
AcDbEntity
  8
ASSI
100
AcDbCircle
 62
7
  6
CONTINUOUS
 10
-10.6001587126
 20
21.9001678853
 40
0.4998378818
100
AcDbArc
 50
89.9818141664
 51
180.0105151551
  0
ARC
  5
5C6
100
AcDbEntity
  8
RACCORDO
100
AcDbCircle
 62
253
  6
CONTINUOUS
 10
-1.5082834647
 20
6.6391121135
 40
0.4997068684
100
AcDbArc
 50
282.7866837338
 51
0.0196887567
  0
ARC
  5
5C7
100
AcDbEntity
  8
ASSI
100
AcDbCircle
 62
7
  6
CONTINUOUS
 10
-4.0
 20
23.2
 40
0.4904006794
100
AcDbArc
 50
136.2076703059
 51
223.7923296941
  0
ARC
  5
5C8
100
AcDbEntity
  8
ASSI
100
AcDbCircle
 62
253
  6
CONTINUOUS
 10
-3.8307142419
 20
23.6518306932
 40
0.2500538637
100
AcDbArc
 50
0.0209441593
 51
89.9790558407
  0
ARC
  5
5C9
100
AcDbEntity
  8
ASSI
100
AcDbCircle
 62
253
  6
CONTINUOUS
 10
-4.1018306367
 20
23.6518306368
 40
0.2500538587
100
AcDbArc
 50
90.0209570929
 51
179.9790429448
  0
ARC
  5
5CA
100
AcDbEntity
  8
ASSI
100
AcDbCircle
 62
253
  6
CONTINUOUS
 10
-3.3786960169
 20
21.9751217896
 40
0.2500221685
100
AcDbArc
 50
0.0139800263
 51
89.993020061
  0
ARC
  5
5CB
100
AcDbEntity
  8
ASSI
100
AcDbCircle
 62
7
  6
CONTINUOUS
 10
-1.0499674725
 20
23.7500325275
 40
0.2499699324
100
AcDbArc
 50
0.0012718308
 51
89.9987281692
  0
ARC
  5
5CC
100
AcDbEntity
  8
ASSI
100
AcDbCircle
 62
7
  6
CONTINUOUS
 10
-4.2000395761
 20
23.7500395761
 40
0.2499612619
100
AcDbArc
 50
89.9996562075
 51
180.0003437925
  0
ARC
  5
5CD
100
AcDbEntity
  8
ASSI
100
AcDbCircle
 62
253
  6
CONTINUOUS
 10
-7.4132101203
 20
24.2867898797
 40
0.2000430909
100
AcDbArc
 50
0.020944126
 51
89.979055874
  0
ARC
  5
5CE
100
AcDbEntity
  8
ASSI
100
AcDbCircle
 62
253
  6
CONTINUOUS
 10
-10.3867898305
 20
24.2867898305
 40
0.2000430909
100
AcDbArc
 50
90.0209581928
 51
179.9790418072
  0
ARC
  5
5CF
100
AcDbEntity
  8
ASSI
100
AcDbCircle
 62
7
  6
CONTINUOUS
 10
-7.3999572982
 20
24.3000427018
 40
0.1999569277
100
AcDbArc
 50
359.9964925066
 51
90.0035074934
  0
ARC
  5
5D0
100
AcDbEntity
  8
ASSI
100
AcDbCircle
 62
7
  6
CONTINUOUS
 10
-10.4000426585
 20
24.3000426585
 40
0.1999569277
100
AcDbArc
 50
89.9965049109
 51
180.0034950891
  0
ARC
  5
5D1
100
AcDbEntity
  8
0
100
AcDbCircle
 62
7
  6
CONTINUOUS
 10
11.3371136791
 20
-47.5445230891
 40
60.4393208872
100
AcDbArc
 50
101.9623214425
 51
102.429749198
  0
ARC
  5
5D2
100
AcDbEntity
  8
0
100
AcDbCircle
 62
7
  6
CONTINUOUS
 10
11.3371136791
 20
-70.0445230891
 40
60.4393208872
100
AcDbArc
 50
101.9623214425
 51
102.429749198
  0
ARC
  5
5D3
100
AcDbEntity
  8
0
100
AcDbCircle
 62
7
  6
CONTINUOUS
 10
6.8921243595
 20
-25.9002419245
 40
16.9144581343
100
AcDbArc
 50
116.0751861391
 51
116.2917451962
  0
ARC
  5
5D4
100
AcDbEntity
  8
RACCORDO
100
AcDbCircle
 62
253
  6
CONTINUOUS
 10
9.7895829428
 20
-19.932621772
 40
15.4315794538
100
AcDbArc
 50
124.0927548286
 51
124.7212318002
  0
ARC
  5
5D5
100
AcDbEntity
  8
0
100
AcDbCircle
 62
7
  6
CONTINUOUS
 10
12.4279714931
 20
-17.1168026426
 40
14.5812680948
100
AcDbArc
 50
153.3129788868
 51
153.5528085468
  0
ARC
  5
5D6
100
AcDbEntity
  8
RACCORDO
100
AcDbCircle
 62
253
  6
CONTINUOUS
 10
8.9208971832
 20
-17.4486685696
 40
12.3454995834
100
AcDbArc
 50
126.9807135414
 51
127.9757356679
  0
ARC
  5
5D7
100
AcDbEntity
  8
ASSI
100
AcDbCircle
 62
7
  6
CONTINUOUS
 10
4.0
 20
-23.2
 40
0.5
100
AcDbArc
 50
334.1580672368
 51
25.8419327632
  0
ARC
  5
5D8
100
AcDbEntity
  8
ASSI
100
AcDbCircle
 62
7
  6
CONTINUOUS
 10
10.6001586991
 20
-21.9001678667
 40
0.4998379147
100
AcDbArc
 50
269.9818157177
 51
0.0105130206
  0
ARC
  5
5D9
100
AcDbEntity
  8
ASSI
100
AcDbCircle
 62
7
  6
CONTINUOUS
 10
4.0
 20
-23.2
 40
0.4904006794
100
AcDbArc
 50
316.2076703059
 51
43.7923296941
  0
ARC
  5
5DA
100
AcDbEntity
  8
ASSI
100
AcDbCircle
 62
253
  6
CONTINUOUS
 10
3.8307143033
 20
-23.6518306317
 40
0.2500538638
100
AcDbArc
 50
180.020958236
 51
269.979041764
  0
ARC
  5
5DB
100
AcDbEntity
  8
ASSI
100
AcDbCircle
 62
253
  6
CONTINUOUS
 10
4.1018306964
 20
-23.6518306964
 40
0.2500538605
100
AcDbArc
 50
270.0209434272
 51
359.9790566038
  0
ARC
  5
5DC
100
AcDbEntity
  8
ASSI
100
AcDbCircle
 62
253
  6
CONTINUOUS
 10
3.3786960115
 20
-21.9751217973
 40
0.2500221685
100
AcDbArc
 50
180.0139782614
 51
269.9930212821
  0
ARC
  5
5DD
100
AcDbEntity
  8
ASSI
100
AcDbCircle
 62
7
  6
CONTINUOUS
 10
4.2000325275
 20
-23.7500325275
 40
0.2499699324
100
AcDbArc
 50
270.0012718308
 51
359.9987281692
  0
ARC
  5
5DE
100
AcDbEntity
  8
ASSI
100
AcDbCircle
 62
7
  6
CONTINUOUS
 10
1.0499604239
 20
-23.7500395761
 40
0.2499612619
100
AcDbArc
 50
179.9996562055
 51
270.0003437945
  0
ARC
  5
5DF
100
AcDbEntity
  8
ASSI
100
AcDbCircle
 62
253
  6
CONTINUOUS
 10
10.3867898305
 20
-24.2867898305
 40
0.2000430909
100
AcDbArc
 50
270.020958193
 51
359.979041807
  0
ARC
  5
5E0
100
AcDbEntity
  8
ASSI
100
AcDbCircle
 62
253
  6
CONTINUOUS
 10
7.4132101695
 20
-24.2867898305
 40
0.2000430909
100
AcDbArc
 50
180.020958193
 51
269.979041807
  0
ARC
  5
5E1
100
AcDbEntity
  8
ASSI
100
AcDbCircle
 62
7
  6
CONTINUOUS
 10
10.4000427018
 20
-24.3000427018
 40
0.1999569277
100
AcDbArc
 50
269.9964925066
 51
0.0035074934
  0
ARC
  5
5E2
100
AcDbEntity
  8
ASSI
100
AcDbCircle
 62
7
  6
CONTINUOUS
 10
7.3999573415
 20
-24.3000426585
 40
0.1999569277
100
AcDbArc
 50
179.9965049109
 51
270.0034950891
  0
ARC
  5
5E3
100
AcDbEntity
  8
RACCORDO
100
AcDbCircle
 62
7
  6
CONTINUOUS
 10
0.0207625126
 20
-11.4829003046
 40
4.1661143536
100
AcDbArc
 50
56.2866485014
 51
67.9058042506
  0
ARC
  5
5E4
100
AcDbEntity
  8
DRAFT
100
AcDbCircle
 62
7
  6
CONTINUOUS
 10
0.0
 20
-11.25
 40
4.0
100
AcDbArc
 50
125.9691526692
 51
54.0308473308
  0
ARC
  5
5E5
100
AcDbEntity
  8
RACCORDO
100
AcDbCircle
 62
7
  6
CONTINUOUS
 10
0.0000218775
 20
-11.2498793157
 40
3.7729634717
100
AcDbArc
 50
69.4497720951
 51
110.5498956752
  0
ARC
  5
5E6
100
AcDbEntity
  8
RACCORDO
100
AcDbCircle
 62
253
  6
CONTINUOUS
 10
0.0
 20
-11.25
 40
3.7729318393
100
AcDbArc
 50
110.5498956752
 51
270.0
  0
CIRCLE
  5
5E7
100
AcDbEntity
  8
RACCORDO
100
AcDbCircle
 62
253
  6
CONTINUOUS
 10
0.0
 20
-11.25
 40
3.2730076204
  0
CIRCLE
  5
5E8
100
AcDbEntity
  8
0
100
AcDbCircle
 62
7
  6
CONTINUOUS
 10
0.0
 20
-11.25
 40
3.0
  0
ARC
  5
5E9
100
AcDbEntity
  8
RACCORDO
100
AcDbCircle
 62
7
  6
CONTINUOUS
 10
0.4597079961
 20
-10.398001974
 40
2.9957832094
100
AcDbArc
 50
67.8799665214
 51
69.792606557
  0
ARC
  5
5EA
100
AcDbEntity
  8
0
100
AcDbCircle
 62
7
  6
CONTINUOUS
 10
0.0
 20
-11.25
 40
2.9125113365
100
AcDbArc
 50
78.1115000039
 51
101.8884999961
  0
ARC
  5
5EB
100
AcDbEntity
  8
0
100
AcDbCircle
 62
7
  6
CONTINUOUS
 10
0.0
 20
-11.25
 40
2.9125113365
100
AcDbArc
 50
258.1115000039
 51
281.8884999961
  0
ARC
  5
5EC
100
AcDbEntity
  8
0
100
AcDbCircle
 62
253
  6
CONTINUOUS
 10
0.0
 20
-11.25
 40
2.8713554527
100
AcDbArc
 50
102.0614444832
 51
257.9385555168
  0
ARC
  5
5ED
100
AcDbEntity
  8
0
100
AcDbCircle
 62
253
  6
CONTINUOUS
 10
0.0
 20
-11.25
 40
2.8713554527
100
AcDbArc
 50
282.0614444832
 51
77.9385555168
  0
ARC
  5
5EE
100
AcDbEntity
  8
0
100
AcDbCircle
 62
253
  6
CONTINUOUS
 10
0.0
 20
-11.25
 40
2.7507081752
100
AcDbArc
 50
102.5989670311
 51
257.4010329689
  0
ARC
  5
5EF
100
AcDbEntity
  8
0
100
AcDbCircle
 62
253
  6
CONTINUOUS
 10
0.0
 20
-11.25
 40
2.7507081752
100
AcDbArc
 50
282.5989670311
 51
77.4010329689
  0
ARC
  5
5F0
100
AcDbEntity
  8
ASSI
100
AcDbCircle
 62
7
  6
CONTINUOUS
 10
6.5
 20
-9.082444
 40
2.5499986575
100
AcDbArc
 50
178.1470800548
 51
2.247470802
  0
ARC
  5
5F1
100
AcDbEntity
  8
ASSI
100
AcDbCircle
 62
7
  6
CONTINUOUS
 10
6.5
 20
-13.467554
 40
2.5499985399
100
AcDbArc
 50
177.7525290943
 51
2.2474709057
  0
ARC
  5
5F2
100
AcDbEntity
  8
ASSI
100
AcDbCircle
 62
7
  6
CONTINUOUS
 10
6.5
 20
-13.467554
 40
1.7999999246
100
AcDbArc
 50
180.9556621699
 51
3.1847386703
  0
ARC
  5
5F3
100
AcDbEntity
  8
ASSI
100
AcDbCircle
 62
7
  6
CONTINUOUS
 10
6.5
 20
-9.082444
 40
1.7999999246
100
AcDbArc
 50
177.3740628404
 51
257.9753003079
  0
ARC
  5
5F4
100
AcDbEntity
  8
ASSI
100
AcDbCircle
 62
7
  6
CONTINUOUS
 10
6.5
 20
-9.082444
 40
1.7999968808
100
AcDbArc
 50
282.0247203293
 51
3.1847440612
  0
ARC
  5
5F5
100
AcDbEntity
  8
0
100
AcDbCircle
 62
7
  6
CONTINUOUS
 10
0.0
 20
-11.25
 40
1.6874840352
100
AcDbArc
 50
352.230101045
 51
7.7632444202
  0
ARC
  5
5F6
100
AcDbEntity
  8
0
100
AcDbCircle
 62
7
  6
CONTINUOUS
 10
0.0
 20
-11.25
 40
1.6874840352
100
AcDbArc
 50
172.2301010241
 51
187.7632444202
  0
ARC
  5
5F7
100
AcDbEntity
  8
0
100
AcDbCircle
 62
7
  6
CONTINUOUS
 10
0.0
 20
-11.25
 40
1.1921154886
100
AcDbArc
 50
258.9651609623
 51
281.041906541
  0
ARC
  5
5F8
100
AcDbEntity
  8
0
100
AcDbCircle
 62
7
  6
CONTINUOUS
 10
0.0
 20
-11.25
 40
1.1921154886
100
AcDbArc
 50
78.9651613239
 51
101.041906541
  0
ARC
  5
5F9
100
AcDbEntity
  8
TRASH
100
AcDbCircle
 62
7
  6
CONTINUOUS
 10
0.0
 20
-11.25
 40
1.1472328625
100
AcDbArc
 50
167.9845776281
 51
192.0153200785
  0
ARC
  5
5FA
100
AcDbEntity
  8
TRASH
100
AcDbCircle
 62
7
  6
CONTINUOUS
 10
0.0
 20
-11.25
 40
1.1472328625
100
AcDbArc
 50
347.9845776281
 51
12.0153200785
  0
ARC
  5
5FB
100
AcDbEntity
  8
TRASH
100
AcDbCircle
 62
7
  6
CONTINUOUS
 10
0.0
 20
-11.25
 40
1.1472328182
100
AcDbArc
 50
257.9846799215
 51
282.0154223719
  0
ARC
  5
5FC
100
AcDbEntity
  8
TRASH
100
AcDbCircle
 62
7
  6
CONTINUOUS
 10
0.0
 20
-11.25
 40
1.1472328182
100
AcDbArc
 50
77.9846799215
 51
102.0154223719
  0
ARC
  5
5FD
100
AcDbEntity
  8
0
100
AcDbCircle
 62
7
  6
CONTINUOUS
 10
6.8921243595
 20
-3.4002419245
 40
16.9144581343
100
AcDbArc
 50
116.0751861391
 51
116.2917451962
  0
ARC
  5
5FE
100
AcDbEntity
  8
RACCORDO
100
AcDbCircle
 62
253
  6
CONTINUOUS
 10
0.1198125364
 20
-4.3630454844
 40
5.0854543858
100
AcDbArc
 50
233.5706912099
 51
233.8936897047
  0
ARC
  5
5FF
100
AcDbEntity
  8
RACCORDO
100
AcDbCircle
 62
7
  6
CONTINUOUS
 10
4.9
 20
-8.0
 40
1.0
100
AcDbArc
 50
270.0
 51
360.0
  0
ARC
  5
600
100
AcDbEntity
  8
RACCORDO
100
AcDbCircle
 62
253
  6
CONTINUOUS
 10
1.5085079151
 20
-6.6393578302
 40
0.9999217361
100
AcDbArc
 50
102.8007442007
 51
120.5671421661
  0
ARC
  5
601
100
AcDbEntity
  8
RACCORDO
100
AcDbCircle
 62
7
  6
CONTINUOUS
 10
1.4999073517
 20
-7.2489083539
 40
0.4999073518
100
AcDbArc
 50
179.9986894989
 51
249.4514146441
  0
ARC
  5
602
100
AcDbEntity
  8
RACCORDO
100
AcDbCircle
 62
253
  6
CONTINUOUS
 10
1.5082833485
 20
-6.6391120215
 40
0.4997068684
100
AcDbArc
 50
102.7866837339
 51
180.0196993075
  0
ARC
  5
603
100
AcDbEntity
  8
RACCORDO
100
AcDbCircle
 62
253
  6
CONTINUOUS
 10
14.791474088
 20
-10.6269446459
 40
22.092780447
100
AcDbArc
 50
128.2315785632
 51
128.5988847398
  0
ARC
  5
604
100
AcDbEntity
  8
RACCORDO
100
AcDbCircle
 62
253
  6
CONTINUOUS
 10
13.9763189133
 20
-8.4673339024
 40
19.2857304337
100
AcDbArc
 50
130.2947869877
 51
130.7093644864
  0
ARC
  5
605
100
AcDbEntity
  8
0
100
AcDbCircle
 62
7
  6
CONTINUOUS
 10
12.3818629705
 20
-5.406298337
 40
14.5296967197
100
AcDbArc
 50
206.4466091603
 51
206.6872922796
  0
ARC
  5
606
100
AcDbEntity
  8
ASSI
100
AcDbCircle
 62
253
  6
CONTINUOUS
 10
45.6667535902
 20
-23.8071705124
 40
35.280767541
100
AcDbArc
 50
179.708736756
 51
180.0602180988
  0
ARC
  5
607
100
AcDbEntity
  8
RACCORDO
100
AcDbCircle
 62
253
  6
CONTINUOUS
 10
407.5975242044
 20
-30.6279182858
 40
409.8314775468
100
AcDbArc
 50
176.5886798774
 51
176.7821063298
  0
ARC
  5
608
100
AcDbEntity
  8
DRAFT
100
AcDbCircle
 62
7
  6
CONTINUOUS
 10
0.0
 20
0.0
 40
8.35
100
AcDbArc
 50
106.2252946967
 51
253.7747053033
  0
ARC
  5
609
100
AcDbEntity
  8
DRAFT
100
AcDbCircle
 62
7
  6
CONTINUOUS
 10
0.0
 20
0.0
 40
8.35
100
AcDbArc
 50
286.2252946967
 51
73.7747053033
  0
ARC
  5
60A
100
AcDbEntity
  8
RACCORDO
100
AcDbCircle
 62
7
  6
CONTINUOUS
 10
0.0
 20
0.0
 40
6.4210065896
100
AcDbArc
 50
283.5809072785
 51
76.4190927215
  0
ARC
  5
60B
100
AcDbEntity
  8
RACCORDO
100
AcDbCircle
 62
7
  6
CONTINUOUS
 10
0.0
 20
0.0
 40
6.4210065896
100
AcDbArc
 50
103.5809072785
 51
256.4190927215
  0
ARC
  5
60C
100
AcDbEntity
  8
RACCORDO
100
AcDbCircle
 62
253
  6
CONTINUOUS
 10
0.0
 20
0.0
 40
6.308575216
100
AcDbArc
 50
282.8007449675
 51
77.1992550325
  0
ARC
  5
60D
100
AcDbEntity
  8
RACCORDO
100
AcDbCircle
 62
253
  6
CONTINUOUS
 10
0.0
 20
0.0
 40
6.308575216
100
AcDbArc
 50
102.8007449675
 51
257.1992550325
  0
ARC
  5
60E
100
AcDbEntity
  8
RACCORDO
100
AcDbCircle
 62
253
  6
CONTINUOUS
 10
0.0
 20
0.0
 40
5.8086513683
100
AcDbArc
 50
282.8007449675
 51
77.1992550325
  0
ARC
  5
60F
100
AcDbEntity
  8
RACCORDO
100
AcDbCircle
 62
253
  6
CONTINUOUS
 10
0.0
 20
0.0
 40
5.8086513683
100
AcDbArc
 50
102.8007449675
 51
257.1992550325
  0
ARC
  5
610
100
AcDbEntity
  8
RACCORDO
100
AcDbCircle
 62
253
  6
CONTINUOUS
 10
0.1211915373
 20
4.3611509904
 40
5.0877946374
100
AcDbArc
 50
126.1063816863
 51
126.4291961946
  0
CIRCLE
  5
611
100
AcDbEntity
  8
RACCORDO
100
AcDbCircle
 62
253
  6
CONTINUOUS
 10
0.0
 20
0.0
 40
4.8175304323
  0
CIRCLE
  5
612
100
AcDbEntity
  8
RACCORDO
100
AcDbCircle
 62
253
  6
CONTINUOUS
 10
0.0
 20
0.0
 40
4.3176073811
  0
CIRCLE
  5
613
100
AcDbEntity
  8
DRAFT
100
AcDbCircle
 62
7
  6
CONTINUOUS
 10
0.0
 20
0.0
 40
4.3
  0
ARC
  5
614
100
AcDbEntity
  8
DRAFT
100
AcDbCircle
 62
7
  6
CONTINUOUS
 10
0.0
 20
0.0
 40
4.25
100
AcDbArc
 50
230.4778421618
 51
264.5215410169
  0
ARC
  5
615
100
AcDbEntity
  8
DRAFT
100
AcDbCircle
 62
7
  6
CONTINUOUS
 10
0.0
 20
0.0
 40
4.25
100
AcDbArc
 50
185.4767348474
 51
219.5221567806
  0
ARC
  5
616
100
AcDbEntity
  8
DRAFT
100
AcDbCircle
 62
7
  6
CONTINUOUS
 10
0.0
 20
0.0
 40
4.25
100
AcDbArc
 50
140.477842143
 51
174.5232637942
  0
ARC
  5
617
100
AcDbEntity
  8
DRAFT
100
AcDbCircle
 62
7
  6
CONTINUOUS
 10
0.0
 20
0.0
 40
4.25
100
AcDbArc
 50
95.4784591121
 51
129.5221563264
  0
ARC
  5
618
100
AcDbEntity
  8
DRAFT
100
AcDbCircle
 62
7
  6
CONTINUOUS
 10
0.0
 20
0.0
 40
4.25
100
AcDbArc
 50
50.4778421618
 51
84.5215410169
  0
ARC
  5
619
100
AcDbEntity
  8
DRAFT
100
AcDbCircle
 62
7
  6
CONTINUOUS
 10
0.0
 20
0.0
 40
4.25
100
AcDbArc
 50
5.4767348474
 51
39.5221567806
  0
ARC
  5
61A
100
AcDbEntity
  8
DRAFT
100
AcDbCircle
 62
7
  6
CONTINUOUS
 10
0.0
 20
0.0
 40
4.25
100
AcDbArc
 50
320.477842143
 51
354.5232637942
  0
ARC
  5
61B
100
AcDbEntity
  8
DRAFT
100
AcDbCircle
 62
7
  6
CONTINUOUS
 10
0.0
 20
0.0
 40
4.25
100
AcDbArc
 50
275.4784591121
 51
309.5221563264
  0
ARC
  5
61C
100
AcDbEntity
  8
RACCORDO
100
AcDbCircle
 62
7
  6
CONTINUOUS
 10
0.0179203008
 20
11.4882674537
 40
4.1721564629
100
AcDbArc
 50
292.102638057
 51
303.7049091894
  0
ARC
  5
61D
100
AcDbEntity
  8
DRAFT
100
AcDbCircle
 62
7
  6
CONTINUOUS
 10
0.0
 20
11.25
 40
4.0
100
AcDbArc
 50
305.9691526692
 51
234.0308473308
  0
ARC
  5
61E
100
AcDbEntity
  8
RACCORDO
100
AcDbCircle
 62
253
  6
CONTINUOUS
 10
0.0004623676
 20
11.2543478705
 40
3.7772797383
100
AcDbArc
 50
249.4666874186
 51
269.9929865628
  0
ARC
  5
61F
100
AcDbEntity
  8
RACCORDO
100
AcDbCircle
 62
7
  6
CONTINUOUS
 10
0.0
 20
11.25
 40
3.7730841559
100
AcDbArc
 50
270.0
 51
290.5498956752
  0
ARC
  5
620
100
AcDbEntity
  8
RACCORDO
100
AcDbCircle
 62
253
  6
CONTINUOUS
 10
0.0
 20
11.25
 40
3.7729318393
100
AcDbArc
 50
290.5498956752
 51
249.450326334
  0
CIRCLE
  5
621
100
AcDbEntity
  8
RACCORDO
100
AcDbCircle
 62
253
  6
CONTINUOUS
 10
0.0
 20
11.25
 40
3.2730076204
  0
CIRCLE
  5
622
100
AcDbEntity
  8
0
100
AcDbCircle
 62
7
  6
CONTINUOUS
 10
0.0
 20
11.25
 40
3.0
  0
ARC
  5
623
100
AcDbEntity
  8
RACCORDO
100
AcDbCircle
 62
7
  6
CONTINUOUS
 10
0.4597079954
 20
10.3980019759
 40
2.9957832114
100
AcDbArc
 50
290.2073934435
 51
292.1200334754
  0
ARC
  5
624
100
AcDbEntity
  8
0
100
AcDbCircle
 62
7
  6
CONTINUOUS
 10
0.0
 20
11.25
 40
2.9125113365
100
AcDbArc
 50
78.1115000039
 51
101.8884999961
  0
ARC
  5
625
100
AcDbEntity
  8
0
100
AcDbCircle
 62
7
  6
CONTINUOUS
 10
0.0
 20
11.25
 40
2.9125113365
100
AcDbArc
 50
258.1115000039
 51
281.8884999961
  0
ARC
  5
626
100
AcDbEntity
  8
0
100
AcDbCircle
 62
253
  6
CONTINUOUS
 10
0.0
 20
11.25
 40
2.8713554527
100
AcDbArc
 50
102.0614444832
 51
257.9385555168
  0
ARC
  5
627
100
AcDbEntity
  8
0
100
AcDbCircle
 62
253
  6
CONTINUOUS
 10
0.0
 20
11.25
 40
2.8713554527
100
AcDbArc
 50
282.0614444832
 51
77.9385555168
  0
ARC
  5
628
100
AcDbEntity
  8
0
100
AcDbCircle
 62
253
  6
CONTINUOUS
 10
0.0
 20
11.25
 40
2.7507081752
100
AcDbArc
 50
102.5989670311
 51
257.4010329689
  0
ARC
  5
629
100
AcDbEntity
  8
0
100
AcDbCircle
 62
253
  6
CONTINUOUS
 10
0.0
 20
11.25
 40
2.7507081752
100
AcDbArc
 50
282.5989670311
 51
77.4010329689
  0
ARC
  5
62A
100
AcDbEntity
  8
0
100
AcDbCircle
 62
7
  6
CONTINUOUS
 10
0.0
 20
11.25
 40
1.6874840352
100
AcDbArc
 50
352.230101045
 51
7.7632444202
  0
ARC
  5
62B
100
AcDbEntity
  8
0
100
AcDbCircle
 62
7
  6
CONTINUOUS
 10
0.0
 20
11.25
 40
1.6874840352
100
AcDbArc
 50
172.2301010241
 51
187.7632444202
  0
ARC
  5
62C
100
AcDbEntity
  8
0
100
AcDbCircle
 62
7
  6
CONTINUOUS
 10
0.0
 20
11.25
 40
1.1921154886
100
AcDbArc
 50
258.9651609623
 51
281.041906541
  0
ARC
  5
62D
100
AcDbEntity
  8
0
100
AcDbCircle
 62
7
  6
CONTINUOUS
 10
0.0
 20
11.25
 40
1.1921154886
100
AcDbArc
 50
78.9651613239
 51
101.041906541
  0
ARC
  5
62E
100
AcDbEntity
  8
TRASH
100
AcDbCircle
 62
7
  6
CONTINUOUS
 10
0.0
 20
11.25
 40
1.1472328625
100
AcDbArc
 50
167.9845776281
 51
192.0153200785
  0
ARC
  5
62F
100
AcDbEntity
  8
TRASH
100
AcDbCircle
 62
7
  6
CONTINUOUS
 10
0.0
 20
11.25
 40
1.1472328625
100
AcDbArc
 50
347.9845776281
 51
12.0153200785
  0
ARC
  5
630
100
AcDbEntity
  8
TRASH
100
AcDbCircle
 62
7
  6
CONTINUOUS
 10
0.0
 20
11.25
 40
1.1472328182
100
AcDbArc
 50
257.9846799215
 51
282.0154223719
  0
ARC
  5
631
100
AcDbEntity
  8
TRASH
100
AcDbCircle
 62
7
  6
CONTINUOUS
 10
0.0
 20
11.25
 40
1.1472328182
100
AcDbArc
 50
77.9846799215
 51
102.0154223719
  0
ARC
  5
632
100
AcDbEntity
  8
RACCORDO
100
AcDbCircle
 62
7
  6
CONTINUOUS
 10
4.9
 20
8.0
 40
1.0
100
AcDbArc
 50
0.0
 51
90.0
  0
ARC
  5
633
100
AcDbEntity
  8
RACCORDO
100
AcDbCircle
 62
253
  6
CONTINUOUS
 10
1.5085198753
 20
6.6393875572
 40
0.9999534145
100
AcDbArc
 50
239.4331339808
 51
257.1992539919
  0
ARC
  5
634
100
AcDbEntity
  8
RACCORDO
100
AcDbCircle
 62
7
  6
CONTINUOUS
 10
1.4999073517
 20
7.2489083539
 40
0.4999073518
100
AcDbArc
 50
110.5485853559
 51
180.001310501
  0
ARC
  5
635
100
AcDbEntity
  8
RACCORDO
100
AcDbCircle
 62
253
  6
CONTINUOUS
 10
1.5082833484
 20
6.6391120215
 40
0.4997068683
100
AcDbArc
 50
179.9803006899
 51
257.2131800351
  0
ARC
  5
636
100
AcDbEntity
  8
0
100
AcDbCircle
 62
7
  6
CONTINUOUS
 10
6.8908571503
 20
3.3979078891
 40
16.9118046829
100
AcDbArc
 50
243.7086020181
 51
243.9251943701
  0
ARC
  5
637
100
AcDbEntity
  8
0
100
AcDbCircle
 62
7
  6
CONTINUOUS
 10
12.4279714935
 20
5.3831973572
 40
14.5812680953
100
AcDbArc
 50
153.3129788868
 51
153.5528085468
  0
ARC
  5
638
100
AcDbEntity
  8
0
100
AcDbCircle
 62
7
  6
CONTINUOUS
 10
6.8908571504
 20
25.8979078894
 40
16.9118046831
100
AcDbArc
 50
243.7086020181
 51
243.9251943701
  0
ARC
  5
639
100
AcDbEntity
  8
RACCORDO
100
AcDbCircle
 62
253
  6
CONTINUOUS
 10
9.7197175966
 20
19.8306127188
 40
15.3079406653
100
AcDbArc
 50
235.2762301405
 51
235.9097832306
  0
ARC
  5
63A
100
AcDbEntity
  8
0
100
AcDbCircle
 62
7
  6
CONTINUOUS
 10
12.3818629695
 20
17.0937016625
 40
14.5296967186
100
AcDbArc
 50
206.4466091603
 51
206.6872922796
  0
ARC
  5
63B
100
AcDbEntity
  8
RACCORDO
100
AcDbCircle
 62
253
  6
CONTINUOUS
 10
8.8366925481
 20
17.3388910671
 40
12.2071522252
100
AcDbArc
 50
232.0191762065
 51
233.0250578841
  0
ARC
  5
63C
100
AcDbEntity
  8
ASSI
100
AcDbCircle
 62
7
  6
CONTINUOUS
 10
3.2
 20
16.0
 40
2.0240299518
100
AcDbArc
 50
22.0885283167
 51
210.4756505304
  0
ARC
  5
63D
100
AcDbEntity
  8
ASSI
100
AcDbCircle
 62
7
  6
CONTINUOUS
 10
3.2
 20
16.0
 40
2.0240299518
100
AcDbArc
 50
261.5732008472
 51
3.4299000434
  0
ARC
  5
63E
100
AcDbEntity
  8
ASSI
100
AcDbCircle
 62
7
  6
CONTINUOUS
 10
7.015557
 20
15.938781
 40
1.8043863978
100
AcDbArc
 50
137.231266101
 51
174.2010647067
  0
ARC
  5
63F
100
AcDbEntity
  8
ASSI
100
AcDbCircle
 62
7
  6
CONTINUOUS
 10
6.723287
 20
16.080786
 40
1.7827319001
100
AcDbArc
 50
135.4349102329
 51
157.565881117
  0
CIRCLE
  5
640
100
AcDbEntity
  8
ASSI
100
AcDbCircle
 62
7
  6
CONTINUOUS
 10
3.2
 20
16.0
 40
1.700044
  0
ARC
  5
641
100
AcDbEntity
  8
ASSI
100
AcDbCircle
 62
7
  6
CONTINUOUS
 10
3.2
 20
16.0
 40
1.5204522959
100
AcDbArc
 50
224.9002633258
 51
330.6958764731
  0
ARC
  5
642
100
AcDbEntity
  8
ASSI
100
AcDbCircle
 62
7
  6
CONTINUOUS
 10
3.2
 20
16.0
 40
1.5204520975
100
AcDbArc
 50
29.3041235269
 51
134.9957610488
  0
ARC
  5
643
100
AcDbEntity
  8
ASSI
100
AcDbCircle
 62
7
  6
CONTINUOUS
 10
3.2
 20
16.0
 40
1.2181566122
100
AcDbArc
 50
29.3041277351
 51
121.9732965665
  0
ARC
  5
644
100
AcDbEntity
  8
ASSI
100
AcDbCircle
 62
7
  6
CONTINUOUS
 10
3.2
 20
16.0
 40
1.2181564327
100
AcDbArc
 50
238.0267046423
 51
330.6958722649
  0
ARC
  5
645
100
AcDbEntity
  8
ASSI
100
AcDbCircle
 62
7
  6
CONTINUOUS
 10
4.0
 20
23.2
 40
0.5
100
AcDbArc
 50
334.1580672368
 51
25.8419327632
  0
ARC
  5
646
100
AcDbEntity
  8
ASSI
100
AcDbCircle
 62
7
  6
CONTINUOUS
 10
10.6001595972
 20
21.9001682196
 40
0.4998372686
100
AcDbArc
 50
359.9806903493
 51
90.0182946616
  0
ARC
  5
647
100
AcDbEntity
  8
ASSI
100
AcDbCircle
 62
7
  6
CONTINUOUS
 10
4.0
 20
23.2
 40
0.4904006794
100
AcDbArc
 50
316.2076703059
 51
43.7923296941
  0
ARC
  5
648
100
AcDbEntity
  8
ASSI
100
AcDbCircle
 62
253
  6
CONTINUOUS
 10
4.1018306932
 20
23.6518306932
 40
0.2500538637
100
AcDbArc
 50
0.0209441593
 51
89.9790558407
  0
ARC
  5
649
100
AcDbEntity
  8
ASSI
100
AcDbCircle
 62
253
  6
CONTINUOUS
 10
3.8307142984
 20
23.6518306368
 40
0.2500538587
100
AcDbArc
 50
90.0209570929
 51
179.9790429448
  0
ARC
  5
64A
100
AcDbEntity
  8
ASSI
100
AcDbCircle
 62
253
  6
CONTINUOUS
 10
3.3786960177
 20
21.9751217899
 40
0.2500221687
100
AcDbArc
 50
90.0069801199
 51
179.9860200517
  0
ARC
  5
64B
100
AcDbEntity
  8
ASSI
100
AcDbCircle
 62
7
  6
CONTINUOUS
 10
4.2000325275
 20
23.7500325275
 40
0.2499699324
100
AcDbArc
 50
0.0012718308
 51
89.9987281692
  0
ARC
  5
64C
100
AcDbEntity
  8
ASSI
100
AcDbCircle
 62
7
  6
CONTINUOUS
 10
1.0499604239
 20
23.7500395761
 40
0.2499612619
100
AcDbArc
 50
89.9996562036
 51
180.0003437964
  0
ARC
  5
64D
100
AcDbEntity
  8
ASSI
100
AcDbCircle
 62
253
  6
CONTINUOUS
 10
10.3867898797
 20
24.2867898797
 40
0.2000430909
100
AcDbArc
 50
0.0209441271
 51
89.979055873
  0
ARC
  5
64E
100
AcDbEntity
  8
ASSI
100
AcDbCircle
 62
253
  6
CONTINUOUS
 10
7.4132101203
 20
24.2867898797
 40
0.2000430909
100
AcDbArc
 50
90.0209441219
 51
179.9790558781
  0
ARC
  5
64F
100
AcDbEntity
  8
ASSI
100
AcDbCircle
 62
7
  6
CONTINUOUS
 10
10.4000427018
 20
24.3000427018
 40
0.1999569277
100
AcDbArc
 50
359.9964925066
 51
90.0035074934
  0
ARC
  5
650
100
AcDbEntity
  8
ASSI
100
AcDbCircle
 62
7
  6
CONTINUOUS
 10
7.3999573415
 20
24.3000426585
 40
0.1999569277
100
AcDbArc
 50
89.9965049109
 51
180.0034950891
  0
ARC
  5
651
100
AcDbEntity
  8
RACCORDO
100
AcDbCircle
 62
253
  6
CONTINUOUS
 10
14.791474089
 20
10.6269446473
 40
22.0927804486
100
AcDbArc
 50
231.4011152603
 51
231.7684214368
  0
ARC
  5
652
100
AcDbEntity
  8
RACCORDO
100
AcDbCircle
 62
253
  6
CONTINUOUS
 10
13.9763189131
 20
8.4673339023
 40
19.2857304334
100
AcDbArc
 50
229.2906355138
 51
229.7052130125
  0
ARC
  5
653
100
AcDbEntity
  8
ASSI
100
AcDbCircle
 62
253
  6
CONTINUOUS
 10
27.4472628223
 20
23.8063480255
 40
34.8612780391
100
AcDbArc
 50
179.9375627928
 51
180.2933988113
  0
ARC
  5
654
100
AcDbEntity
  8
0
100
AcDbCircle
 62
7
  6
CONTINUOUS
 10
13.0936663775
 20
77.9761303281
 40
68.5629176049
100
AcDbArc
 50
257.5633735333
 51
257.9757007661
  0
ARC
  5
655
100
AcDbEntity
  8
0
100
AcDbCircle
 62
7
  6
CONTINUOUS
 10
13.0936663775
 20
55.476130328
 40
68.5629176048
100
AcDbArc
 50
257.5633735333
 51
257.9757007661
  0
ARC
  5
656
100
AcDbEntity
  8
RACCORDO
100
AcDbCircle
 62
253
  6
CONTINUOUS
 10
373.1428520379
 20
28.6324612647
 40
375.3191235699
100
AcDbArc
 50
183.2090004302
 51
183.4202133715
  0
ARC
  5
657
100
AcDbEntity
  8
0
100
AcDbCircle
 62
7
  6
CONTINUOUS
 10
1.5959574565
 20
253.5805177984
 40
242.1025844466
100
AcDbArc
 50
269.8932861206
 51
270.0180003575
  0
ARC
  5
658
100
AcDbEntity
  8
0
100
AcDbCircle
 62
7
  6
CONTINUOUS
 10
1.5959574565
 20
231.080517796
 40
242.1025844442
100
AcDbArc
 50
269.8932861206
 51
270.0180003575
  0
ARC
  5
659
100
AcDbEntity
  8
0
100
AcDbCircle
 62
7
  6
CONTINUOUS
 10
17836.1202223463
 20
-0.0
 40
17826.6831011853
100
AcDbArc
 50
179.9330414053
 51
180.0669585947
  0
LINE
  5
65A
100
AcDbEntity
  8
0
100
AcDbLine
 62
7
  6
CONTINUOUS
 10
0.542629227
 20
11.7926292281
 11
0.5197234842
 21
11.7697234842
  0
SPLINE
  5
65B
100
AcDbEntity
  8
0
100
AcDbSpline
 62
7
  6
CONTINUOUS
 70
0
 71
3
 72
8
 73
4
 74
2
 42
0.0000001
 43
0.0000001
 44
0.0000000001
 12
-0.2873929513
 22
0.5873485797
 32
0.0
 13
-0.3010153242
 23
0.5804850017
 33
0.0
 40
0.0
 40
0.0
 40
0.0
 40
0.0
 40
1.0
 40
1.0
 40
1.0
 40
1.0
 10
0.542629227
 20
11.7926292281
 30
0.0
 10
0.4468315766
 20
11.988412088
 30
0.0
 10
0.3472688203
 20
12.1823453847
 30
0.0
 10
0.2469303789
 20
12.3758403852
 30
0.0
 11
0.542629227
 21
11.7926292281
 31
0.0
 11
0.2469303789
 21
12.3758403852
 31
0.0
  0
LINE
  5
65C
100
AcDbEntity
  8
TRASH
100
AcDbLine
 62
7
  6
CONTINUOUS
 10
-1.1221028135
 20
11.4888260178
 11
-0.5857779103
 21
11.73892094
  0
LINE
  5
65D
100
AcDbEntity
  8
TRASH
100
AcDbLine
 62
7
  6
CONTINUOUS
 10
-0.5857779103
 20
11.73892094
 11
-0.5197267822
 21
11.769717435
  0
LINE
  5
65E
100
AcDbEntity
  8
TRASH
100
AcDbLine
 62
7
  6
CONTINUOUS
 10
-0.5197234839
 20
10.7302765161
 11
-0.5857712346
 21
10.7610605433
  0
LINE
  5
65F
100
AcDbEntity
  8
TRASH
100
AcDbLine
 62
7
  6
CONTINUOUS
 10
-0.5857712346
 20
10.7610605433
 11
-1.1221066534
 21
11.011175259
  0
LINE
  5
660
100
AcDbEntity
  8
TRASH
100
AcDbLine
 62
7
  6
CONTINUOUS
 10
-0.238824741
 20
10.1278933466
 11
-0.5197234839
 21
10.7302765161
  0
LINE
  5
661
100
AcDbEntity
  8
TRASH
100
AcDbLine
 62
7
  6
CONTINUOUS
 10
0.519717435
 20
10.7302732178
 11
0.2388260178
 21
10.1278971865
  0
LINE
  5
662
100
AcDbEntity
  8
TRASH
100
AcDbLine
 62
7
  6
CONTINUOUS
 10
1.1221028135
 20
11.0111739822
 11
0.5857779102
 21
10.76107906
  0
LINE
  5
663
100
AcDbEntity
  8
TRASH
100
AcDbLine
 62
7
  6
CONTINUOUS
 10
0.5857779102
 20
10.76107906
 11
0.5197267822
 21
10.730282565
  0
LINE
  5
664
100
AcDbEntity
  8
TRASH
100
AcDbLine
 62
7
  6
CONTINUOUS
 10
0.5197234839
 20
11.7697234839
 11
0.5857712346
 21
11.7389394567
  0
LINE
  5
665
100
AcDbEntity
  8
TRASH
100
AcDbLine
 62
7
  6
CONTINUOUS
 10
0.5857712346
 20
11.7389394567
 11
1.1221066534
 21
11.488824741
  0
LINE
  5
666
100
AcDbEntity
  8
TRASH
100
AcDbLine
 62
7
  6
CONTINUOUS
 10
0.238824741
 20
12.3721066534
 11
0.5197234839
 21
11.7697234839
  0
LINE
  5
667
100
AcDbEntity
  8
TRASH
100
AcDbLine
 62
7
  6
CONTINUOUS
 10
-0.519717435
 20
11.7697267822
 11
-0.2388260178
 21
12.3721028135
  0
LINE
  5
668
100
AcDbEntity
  8
TRASH
100
AcDbLine
 62
7
  6
CONTINUOUS
 10
1.1221062937
 20
11.4888223825
 11
1.1449972769
 21
11.4781482281
  0
LINE
  5
669
100
AcDbEntity
  8
TRASH
100
AcDbLine
 62
7
  6
CONTINUOUS
 10
1.1449972701
 20
11.0218517819
 11
1.122106287
 21
11.0111776274
  0
LINE
  5
66A
100
AcDbEntity
  8
0
100
AcDbLine
 62
7
  6
CONTINUOUS
 10
1.6719912503
 20
11.0218605079
 11
1.1450079232
 21
11.02180726
  0
LINE
  5
66B
100
AcDbEntity
  8
0
100
AcDbLine
 62
7
  6
CONTINUOUS
 10
1.1449972701
 20
11.0218517819
 11
1.1900477491
 21
10.9176955419
  0
LINE
  5
66C
100
AcDbEntity
  8
0
100
AcDbLine
 62
7
  6
CONTINUOUS
 10
0.6
 20
10.6500001418
 11
0.6272974066
 21
10.6227027659
  0
LINE
  5
66D
100
AcDbEntity
  8
0
100
AcDbLine
 62
7
  6
CONTINUOUS
 10
0.5197234842
 20
10.7302765158
 11
0.5426292252
 21
10.7073707965
  0
SPLINE
  5
66E
100
AcDbEntity
  8
0
100
AcDbSpline
 62
7
  6
CONTINUOUS
 70
0
 71
3
 72
8
 73
4
 74
2
 42
0.0000001
 43
0.0000001
 44
0.0000000001
 12
0.3010153807
 22
0.5804851136
 32
0.0
 13
0.287394299
 23
0.5873480598
 33
0.0
 40
0.0
 40
0.0
 40
0.0
 40
0.0
 40
1.0
 40
1.0
 40
1.0
 40
1.0
 10
0.2469303309
 20
10.1241595222
 30
0.0
 10
0.3472687911
 20
10.3176545601
 30
0.0
 10
0.4468311255
 20
10.5115881099
 30
0.0
 10
0.5426292252
 20
10.7073707965
 30
0.0
 11
0.2469303309
 21
10.1241595222
 31
0.0
 11
0.5426292252
 21
10.7073707965
 31
0.0
  0
SPLINE
  5
66F
100
AcDbEntity
  8
0
100
AcDbSpline
 62
7
  6
CONTINUOUS
 70
0
 71
3
 72
9
 73
5
 74
3
 42
0.0000001
 43
0.0000001
 44
0.0000000001
 12
-0.0046467353
 22
0.0020218012
 32
0.0
 13
-0.0046467353
 23
0.0020218012
 33
0.0
 40
0.0
 40
0.0
 40
0.0
 40
0.0
 40
0.4849203347
 40
1.0
 40
1.0
 40
1.0
 40
1.0
 10
0.2329572845
 20
10.1034920444
 30
0.0
 10
0.2322061857
 20
10.1038188485
 30
0.0
 10
0.2307336438
 20
10.1047332912
 30
0.0
 10
0.228946041
 20
10.1046555936
 30
0.0
 10
0.2281482281
 20
10.1050027231
 30
0.0
 11
0.2329572845
 21
10.1034920444
 31
0.0
 11
0.2307039688
 21
10.1044724127
 31
0.0
 11
0.2281482281
 21
10.1050027231
 31
0.0
  0
LINE
  5
670
100
AcDbEntity
  8
0
100
AcDbLine
 62
7
  6
CONTINUOUS
 10
0.2283532711
 20
10.1049604169
 11
0.2283221999
 21
10.0799537141
  0
LINE
  5
671
100
AcDbEntity
  8
TRASH
100
AcDbLine
 62
7
  6
CONTINUOUS
 10
0.2388223825
 20
10.1278937063
 11
0.2281482281
 21
10.1050027231
  0
LINE
  5
672
100
AcDbEntity
  8
TRASH
100
AcDbLine
 62
7
  6
CONTINUOUS
 10
-0.2281482181
 20
10.1050027299
 11
-0.2388223726
 21
10.127893713
  0
LINE
  5
673
100
AcDbEntity
  8
0
100
AcDbLine
 62
7
  6
CONTINUOUS
 10
-0.2281778716
 20
10.0799255592
 11
-0.2281927462
 21
10.1049920756
  0
LINE
  5
674
100
AcDbEntity
  8
0
100
AcDbLine
 62
7
  6
CONTINUOUS
 10
1.1898066956
 20
11.5824714129
 11
1.171604981
 21
11.5950726247
  0
SPLINE
  5
675
100
AcDbEntity
  8
0
100
AcDbSpline
 62
7
  6
CONTINUOUS
 70
0
 71
3
 72
9
 73
5
 74
3
 42
0.0000001
 43
0.0000001
 44
0.0000000001
 12
0.5489802182
 22
-0.273055379
 32
0.0
 13
0.5407346917
 23
-0.2890406775
 33
0.0
 40
0.0
 40
0.0
 40
0.0
 40
0.0
 40
0.2506073173
 40
1.0
 40
1.0
 40
1.0
 40
1.0
 10
0.6272975093
 20
11.8772975163
 30
0.0
 10
0.6731569959
 20
11.8544876243
 30
0.0
 10
0.855643427
 20
11.7624491968
 30
0.0
 10
1.0365307739
 20
11.6672742809
 30
0.0
 10
1.171604981
 20
11.5950726247
 30
0.0
 11
0.6272975093
 21
11.8772975163
 31
0.0
 11
0.7645214368
 21
11.8081596334
 31
0.0
 11
1.171604981
 21
11.5950726247
 31
0.0
  0
LINE
  5
676
100
AcDbEntity
  8
0
100
AcDbLine
 62
7
  6
CONTINUOUS
 10
-0.2281482181
 20
10.1050027299
 11
-0.2327229075
 21
10.1031454
  0
SPLINE
  5
677
100
AcDbEntity
  8
0
100
AcDbSpline
 62
7
  6
CONTINUOUS
 70
0
 71
3
 72
9
 73
5
 74
3
 42
0.0000001
 43
0.0000001
 44
0.0000000001
 12
-0.5407314106
 22
-0.28903892
 32
0.0
 13
-0.5489749485
 23
-0.2730576159
 33
0.0
 40
0.0
 40
0.0
 40
0.0
 40
0.0
 40
0.2492823866
 40
1.0
 40
1.0
 40
1.0
 40
1.0
 10
1.1716048889
 20
10.9049273261
 30
0.0
 10
1.1266732834
 20
10.8809098889
 30
0.0
 10
0.9462010245
 20
10.7849962829
 30
0.0
 10
0.764672461
 20
10.6910324864
 30
0.0
 10
0.6272974066
 20
10.6227027659
 30
0.0
 11
1.1716048889
 21
10.9049273261
 31
0.0
 11
1.036630532
 21
10.8332119081
 31
0.0
 11
0.6272974066
 21
10.6227027659
 31
0.0
  0
LINE
  5
678
100
AcDbEntity
  8
0
100
AcDbLine
 62
7
  6
CONTINUOUS
 10
1.1900477491
 20
10.9176955419
 11
1.1716048889
 21
10.9049273261
  0
SPLINE
  5
679
100
AcDbEntity
  8
0
100
AcDbSpline
 62
7
  6
CONTINUOUS
 70
0
 71
3
 72
9
 73
5
 74
3
 42
0.0000001
 43
0.0000001
 44
0.0000000001
 12
0.5407314106
 22
0.28903892
 32
0.0
 13
0.5489749485
 23
0.2730576159
 33
0.0
 40
0.0
 40
0.0
 40
0.0
 40
0.0
 40
0.2492823866
 40
1.0
 40
1.0
 40
1.0
 40
1.0
 10
-1.1716048889
 20
11.5950726739
 30
0.0
 10
-1.1266732834
 20
11.6190901111
 30
0.0
 10
-0.9462010245
 20
11.7150037172
 30
0.0
 10
-0.764672461
 20
11.8089675136
 30
0.0
 10
-0.6272974066
 20
11.8772972341
 30
0.0
 11
-1.1716048889
 21
11.5950726739
 31
0.0
 11
-1.036630532
 21
11.6667880919
 31
0.0
 11
-0.6272974066
 21
11.8772972341
 31
0.0
  0
LINE
  5
67A
100
AcDbEntity
  8
0
100
AcDbLine
 62
7
  6
CONTINUOUS
 10
-1.1716048889
 20
11.5950726739
 11
-1.190047748
 21
11.5823044589
  0
LINE
  5
67B
100
AcDbEntity
  8
0
100
AcDbLine
 62
7
  6
CONTINUOUS
 10
-1.171604981
 20
10.9049273753
 11
-1.1898066956
 21
10.9175285871
  0
SPLINE
  5
67C
100
AcDbEntity
  8
0
100
AcDbSpline
 62
7
  6
CONTINUOUS
 70
0
 71
3
 72
9
 73
5
 74
3
 42
0.0000001
 43
0.0000001
 44
0.0000000001
 12
-0.5489802182
 22
0.273055379
 32
0.0
 13
-0.5407346917
 23
0.2890406775
 33
0.0
 40
0.0
 40
0.0
 40
0.0
 40
0.0
 40
0.2506073173
 40
1.0
 40
1.0
 40
1.0
 40
1.0
 10
-0.6272975093
 20
10.6227024837
 30
0.0
 10
-0.6731569959
 20
10.6455123757
 30
0.0
 10
-0.855643427
 20
10.7375508032
 30
0.0
 10
-1.0365307739
 20
10.8327257191
 30
0.0
 10
-1.171604981
 20
10.9049273753
 30
0.0
 11
-0.6272975093
 21
10.6227024837
 31
0.0
 11
-0.7645214368
 21
10.6918403666
 31
0.0
 11
-1.171604981
 21
10.9049273753
 31
0.0
  0
SPLINE
  5
67D
100
AcDbEntity
  8
0
100
AcDbSpline
 62
7
  6
CONTINUOUS
 70
0
 71
3
 72
8
 73
4
 74
2
 42
0.0000001
 43
0.0000001
 44
0.0000000001
 12
0.2873929513
 22
-0.5873485797
 32
0.0
 13
0.3010153242
 23
-0.5804850017
 33
0.0
 40
0.0
 40
0.0
 40
0.0
 40
0.0
 40
1.0
 40
1.0
 40
1.0
 40
1.0
 10
-0.542629227
 20
10.7073707719
 30
0.0
 10
-0.4468315766
 20
10.511587912
 30
0.0
 10
-0.3472688203
 20
10.3176546153
 30
0.0
 10
-0.2469303789
 20
10.1241596148
 30
0.0
 11
-0.542629227
 21
10.7073707719
 31
0.0
 11
-0.2469303789
 21
10.1241596148
 31
0.0
  0
LINE
  5
67E
100
AcDbEntity
  8
0
100
AcDbLine
 62
7
  6
CONTINUOUS
 10
-0.5197234842
 20
10.7302765158
 11
-0.542629227
 21
10.7073707719
  0
LINE
  5
67F
100
AcDbEntity
  8
0
100
AcDbLine
 62
7
  6
CONTINUOUS
 10
-0.6
 20
10.6499999936
 11
-0.6272975093
 21
10.6227024837
  0
LINE
  5
680
100
AcDbEntity
  8
TRASH
100
AcDbLine
 62
7
  6
CONTINUOUS
 10
-1.1221062937
 20
11.0111776175
 11
-1.1449972769
 21
11.0218517719
  0
LINE
  5
681
100
AcDbEntity
  8
0
100
AcDbLine
 62
7
  6
CONTINUOUS
 10
-1.1450079241
 20
11.4781927449
 11
-1.6719912502
 21
11.4781394927
  0
LINE
  5
682
100
AcDbEntity
  8
0
100
AcDbLine
 62
7
  6
CONTINUOUS
 10
-1.1449972701
 20
11.4781482181
 11
-1.190047748
 21
11.5823044589
  0
LINE
  5
683
100
AcDbEntity
  8
TRASH
100
AcDbLine
 62
7
  6
CONTINUOUS
 10
-1.122106287
 20
11.4888223726
 11
-1.1449972701
 21
11.4781482181
  0
LINE
  5
684
100
AcDbEntity
  8
0
100
AcDbLine
 62
7
  6
CONTINUOUS
 10
-0.6
 20
11.8499998582
 11
-0.6272974066
 21
11.8772972341
  0
LINE
  5
685
100
AcDbEntity
  8
0
100
AcDbLine
 62
7
  6
CONTINUOUS
 10
-0.5197234842
 20
11.7697234842
 11
-0.5426292252
 21
11.7926292035
  0
SPLINE
  5
686
100
AcDbEntity
  8
0
100
AcDbSpline
 62
7
  6
CONTINUOUS
 70
0
 71
3
 72
8
 73
4
 74
2
 42
0.0000001
 43
0.0000001
 44
0.0000000001
 12
-0.3010153807
 22
-0.5804851136
 32
0.0
 13
-0.287394299
 23
-0.5873480598
 33
0.0
 40
0.0
 40
0.0
 40
0.0
 40
0.0
 40
1.0
 40
1.0
 40
1.0
 40
1.0
 10
-0.2469303309
 20
12.3758404778
 30
0.0
 10
-0.3472687911
 20
12.1823454399
 30
0.0
 10
-0.4468311255
 20
11.9884118901
 30
0.0
 10
-0.5426292252
 20
11.7926292035
 30
0.0
 11
-0.2469303309
 21
12.3758404778
 31
0.0
 11
-0.5426292252
 21
11.7926292035
 31
0.0
  0
SPLINE
  5
687
100
AcDbEntity
  8
0
100
AcDbSpline
 62
7
  6
CONTINUOUS
 70
0
 71
3
 72
9
 73
5
 74
3
 42
0.0000001
 43
0.0000001
 44
0.0000000001
 12
0.0046467353
 22
-0.0020218012
 32
0.0
 13
0.0046467353
 23
-0.0020218012
 33
0.0
 40
0.0
 40
0.0
 40
0.0
 40
0.0
 40
0.4849203347
 40
1.0
 40
1.0
 40
1.0
 40
1.0
 10
-0.2329572845
 20
12.3965079556
 30
0.0
 10
-0.2322061857
 20
12.3961811515
 30
0.0
 10
-0.2307336438
 20
12.3952667088
 30
0.0
 10
-0.228946041
 20
12.3953444064
 30
0.0
 10
-0.2281482281
 20
12.3949972769
 30
0.0
 11
-0.2329572845
 21
12.3965079556
 31
0.0
 11
-0.2307039688
 21
12.3955275873
 31
0.0
 11
-0.2281482281
 21
12.3949972769
 31
0.0
  0
LINE
  5
688
100
AcDbEntity
  8
0
100
AcDbLine
 62
7
  6
CONTINUOUS
 10
-0.2283532711
 20
12.3950395831
 11
-0.2283221999
 21
12.4200462859
  0
LINE
  5
689
100
AcDbEntity
  8
TRASH
100
AcDbLine
 62
7
  6
CONTINUOUS
 10
-0.2388223825
 20
12.3721062937
 11
-0.2281482281
 21
12.3949972769
  0
LINE
  5
68A
100
AcDbEntity
  8
0
100
AcDbLine
 62
7
  6
CONTINUOUS
 10
0.2281927392
 20
12.395007923
 11
0.2281778642
 21
12.4200744423
  0
LINE
  5
68B
100
AcDbEntity
  8
0
100
AcDbLine
 62
7
  6
CONTINUOUS
 10
0.2281482181
 20
12.3949972701
 11
0.2327228975
 21
12.3968546148
  0
LINE
  5
68C
100
AcDbEntity
  8
TRASH
100
AcDbLine
 62
7
  6
CONTINUOUS
 10
0.2388223726
 20
12.372106287
 11
0.2281482181
 21
12.3949972701
  0
LINE
  5
68D
100
AcDbEntity
  8
0
100
AcDbLine
 62
7
  6
CONTINUOUS
 10
0.6272975093
 20
11.8772975163
 11
0.6
 21
11.8500000064
  0
LINE
  5
68E
100
AcDbEntity
  8
0
100
AcDbLine
 62
7
  6
CONTINUOUS
 10
0.542629227
 20
-10.7073707719
 11
0.5197234842
 21
-10.7302765158
  0
SPLINE
  5
68F
100
AcDbEntity
  8
0
100
AcDbSpline
 62
7
  6
CONTINUOUS
 70
0
 71
3
 72
8
 73
4
 74
2
 42
0.0000001
 43
0.0000001
 44
0.0000000001
 12
-0.2873929513
 22
0.5873485797
 32
0.0
 13
-0.3010153242
 23
0.5804850017
 33
0.0
 40
0.0
 40
0.0
 40
0.0
 40
0.0
 40
1.0
 40
1.0
 40
1.0
 40
1.0
 10
0.542629227
 20
-10.7073707719
 30
0.0
 10
0.4468315766
 20
-10.511587912
 30
0.0
 10
0.3472688203
 20
-10.3176546153
 30
0.0
 10
0.2469303789
 20
-10.1241596148
 30
0.0
 11
0.542629227
 21
-10.7073707719
 31
0.0
 11
0.2469303789
 21
-10.1241596148
 31
0.0
  0
LINE
  5
690
100
AcDbEntity
  8
TRASH
100
AcDbLine
 62
7
  6
CONTINUOUS
 10
-1.1221028135
 20
-11.0111739822
 11
-0.5857779103
 21
-10.76107906
  0
LINE
  5
691
100
AcDbEntity
  8
TRASH
100
AcDbLine
 62
7
  6
CONTINUOUS
 10
-0.5857779103
 20
-10.76107906
 11
-0.5197267822
 21
-10.730282565
  0
LINE
  5
692
100
AcDbEntity
  8
TRASH
100
AcDbLine
 62
7
  6
CONTINUOUS
 10
-0.5197234839
 20
-11.7697234839
 11
-0.5857712346
 21
-11.7389394567
  0
LINE
  5
693
100
AcDbEntity
  8
TRASH
100
AcDbLine
 62
7
  6
CONTINUOUS
 10
-0.5857712346
 20
-11.7389394567
 11
-1.1221066534
 21
-11.488824741
  0
LINE
  5
694
100
AcDbEntity
  8
TRASH
100
AcDbLine
 62
7
  6
CONTINUOUS
 10
-0.238824741
 20
-12.3721066534
 11
-0.5197234839
 21
-11.7697234839
  0
LINE
  5
695
100
AcDbEntity
  8
TRASH
100
AcDbLine
 62
7
  6
CONTINUOUS
 10
0.519717435
 20
-11.7697267822
 11
0.2388260178
 21
-12.3721028135
  0
LINE
  5
696
100
AcDbEntity
  8
TRASH
100
AcDbLine
 62
7
  6
CONTINUOUS
 10
1.1221028135
 20
-11.4888260178
 11
0.5857779102
 21
-11.73892094
  0
LINE
  5
697
100
AcDbEntity
  8
TRASH
100
AcDbLine
 62
7
  6
CONTINUOUS
 10
0.5857779102
 20
-11.73892094
 11
0.5197267822
 21
-11.769717435
  0
LINE
  5
698
100
AcDbEntity
  8
TRASH
100
AcDbLine
 62
7
  6
CONTINUOUS
 10
0.5197234839
 20
-10.7302765161
 11
0.5857712346
 21
-10.7610605433
  0
LINE
  5
699
100
AcDbEntity
  8
TRASH
100
AcDbLine
 62
7
  6
CONTINUOUS
 10
0.5857712346
 20
-10.7610605433
 11
1.1221066534
 21
-11.011175259
  0
LINE
  5
69A
100
AcDbEntity
  8
TRASH
100
AcDbLine
 62
7
  6
CONTINUOUS
 10
0.238824741
 20
-10.1278933466
 11
0.5197234839
 21
-10.7302765161
  0
LINE
  5
69B
100
AcDbEntity
  8
TRASH
100
AcDbLine
 62
7
  6
CONTINUOUS
 10
-0.519717435
 20
-10.7302732178
 11
-0.2388260178
 21
-10.1278971865
  0
LINE
  5
69C
100
AcDbEntity
  8
TRASH
100
AcDbLine
 62
7
  6
CONTINUOUS
 10
1.1221062937
 20
-11.0111776175
 11
1.1449972769
 21
-11.0218517719
  0
LINE
  5
69D
100
AcDbEntity
  8
TRASH
100
AcDbLine
 62
7
  6
CONTINUOUS
 10
1.1449972701
 20
-11.4781482181
 11
1.122106287
 21
-11.4888223726
  0
LINE
  5
69E
100
AcDbEntity
  8
0
100
AcDbLine
 62
7
  6
CONTINUOUS
 10
1.6719912503
 20
-11.4781394921
 11
1.1450079232
 21
-11.47819274
  0
LINE
  5
69F
100
AcDbEntity
  8
0
100
AcDbLine
 62
7
  6
CONTINUOUS
 10
1.1449972701
 20
-11.4781482181
 11
1.1900477491
 21
-11.5823044581
  0
LINE
  5
6A0
100
AcDbEntity
  8
0
100
AcDbLine
 62
7
  6
CONTINUOUS
 10
0.6
 20
-11.8499998582
 11
0.6272974066
 21
-11.8772972341
  0
LINE
  5
6A1
100
AcDbEntity
  8
0
100
AcDbLine
 62
7
  6
CONTINUOUS
 10
0.5197234842
 20
-11.7697234842
 11
0.5426292252
 21
-11.7926292035
  0
SPLINE
  5
6A2
100
AcDbEntity
  8
0
100
AcDbSpline
 62
7
  6
CONTINUOUS
 70
0
 71
3
 72
8
 73
4
 74
2
 42
0.0000001
 43
0.0000001
 44
0.0000000001
 12
0.3010153807
 22
0.5804851136
 32
0.0
 13
0.287394299
 23
0.5873480598
 33
0.0
 40
0.0
 40
0.0
 40
0.0
 40
0.0
 40
1.0
 40
1.0
 40
1.0
 40
1.0
 10
0.2469303309
 20
-12.3758404778
 30
0.0
 10
0.3472687911
 20
-12.1823454399
 30
0.0
 10
0.4468311255
 20
-11.9884118901
 30
0.0
 10
0.5426292252
 20
-11.7926292035
 30
0.0
 11
0.2469303309
 21
-12.3758404778
 31
0.0
 11
0.5426292252
 21
-11.7926292035
 31
0.0
  0
SPLINE
  5
6A3
100
AcDbEntity
  8
0
100
AcDbSpline
 62
7
  6
CONTINUOUS
 70
0
 71
3
 72
9
 73
5
 74
3
 42
0.0000001
 43
0.0000001
 44
0.0000000001
 12
-0.0046467353
 22
0.0020218012
 32
0.0
 13
-0.0046467353
 23
0.0020218012
 33
0.0
 40
0.0
 40
0.0
 40
0.0
 40
0.0
 40
0.4849203347
 40
1.0
 40
1.0
 40
1.0
 40
1.0
 10
0.2329572845
 20
-12.3965079556
 30
0.0
 10
0.2322061857
 20
-12.3961811515
 30
0.0
 10
0.2307336438
 20
-12.3952667088
 30
0.0
 10
0.228946041
 20
-12.3953444064
 30
0.0
 10
0.2281482281
 20
-12.3949972769
 30
0.0
 11
0.2329572845
 21
-12.3965079556
 31
0.0
 11
0.2307039688
 21
-12.3955275873
 31
0.0
 11
0.2281482281
 21
-12.3949972769
 31
0.0
  0
LINE
  5
6A4
100
AcDbEntity
  8
0
100
AcDbLine
 62
7
  6
CONTINUOUS
 10
0.2283532711
 20
-12.3950395831
 11
0.2283221999
 21
-12.4200462859
  0
LINE
  5
6A5
100
AcDbEntity
  8
TRASH
100
AcDbLine
 62
7
  6
CONTINUOUS
 10
0.2388223825
 20
-12.3721062937
 11
0.2281482281
 21
-12.3949972769
  0
LINE
  5
6A6
100
AcDbEntity
  8
TRASH
100
AcDbLine
 62
7
  6
CONTINUOUS
 10
-0.2281482181
 20
-12.3949972701
 11
-0.2388223726
 21
-12.372106287
  0
LINE
  5
6A7
100
AcDbEntity
  8
0
100
AcDbLine
 62
7
  6
CONTINUOUS
 10
-0.2281778716
 20
-12.4200744408
 11
-0.2281927462
 21
-12.3950079244
  0
LINE
  5
6A8
100
AcDbEntity
  8
0
100
AcDbLine
 62
7
  6
CONTINUOUS
 10
1.1898066956
 20
-10.9175285871
 11
1.171604981
 21
-10.9049273753
  0
SPLINE
  5
6A9
100
AcDbEntity
  8
0
100
AcDbSpline
 62
7
  6
CONTINUOUS
 70
0
 71
3
 72
9
 73
5
 74
3
 42
0.0000001
 43
0.0000001
 44
0.0000000001
 12
0.5489802182
 22
-0.273055379
 32
0.0
 13
0.5407346917
 23
-0.2890406775
 33
0.0
 40
0.0
 40
0.0
 40
0.0
 40
0.0
 40
0.2506073173
 40
1.0
 40
1.0
 40
1.0
 40
1.0
 10
0.6272975093
 20
-10.6227024837
 30
0.0
 10
0.6731569959
 20
-10.6455123757
 30
0.0
 10
0.855643427
 20
-10.7375508032
 30
0.0
 10
1.0365307739
 20
-10.8327257191
 30
0.0
 10
1.171604981
 20
-10.9049273753
 30
0.0
 11
0.6272975093
 21
-10.6227024837
 31
0.0
 11
0.7645214368
 21
-10.6918403666
 31
0.0
 11
1.171604981
 21
-10.9049273753
 31
0.0
  0
LINE
  5
6AA
100
AcDbEntity
  8
0
100
AcDbLine
 62
7
  6
CONTINUOUS
 10
-0.2281482181
 20
-12.3949972701
 11
-0.2327229075
 21
-12.3968546
  0
SPLINE
  5
6AB
100
AcDbEntity
  8
0
100
AcDbSpline
 62
7
  6
CONTINUOUS
 70
0
 71
3
 72
9
 73
5
 74
3
 42
0.0000001
 43
0.0000001
 44
0.0000000001
 12
-0.5407314106
 22
-0.28903892
 32
0.0
 13
-0.5489749485
 23
-0.2730576159
 33
0.0
 40
0.0
 40
0.0
 40
0.0
 40
0.0
 40
0.2492823866
 40
1.0
 40
1.0
 40
1.0
 40
1.0
 10
1.1716048889
 20
-11.5950726739
 30
0.0
 10
1.1266732834
 20
-11.6190901111
 30
0.0
 10
0.9462010245
 20
-11.7150037171
 30
0.0
 10
0.764672461
 20
-11.8089675136
 30
0.0
 10
0.6272974066
 20
-11.8772972341
 30
0.0
 11
1.1716048889
 21
-11.5950726739
 31
0.0
 11
1.036630532
 21
-11.6667880919
 31
0.0
 11
0.6272974066
 21
-11.8772972341
 31
0.0
  0
LINE
  5
6AC
100
AcDbEntity
  8
0
100
AcDbLine
 62
7
  6
CONTINUOUS
 10
1.1900477491
 20
-11.5823044581
 11
1.1716048889
 21
-11.5950726739
  0
SPLINE
  5
6AD
100
AcDbEntity
  8
0
100
AcDbSpline
 62
7
  6
CONTINUOUS
 70
0
 71
3
 72
9
 73
5
 74
3
 42
0.0000001
 43
0.0000001
 44
0.0000000001
 12
0.5407314106
 22
0.28903892
 32
0.0
 13
0.5489749485
 23
0.2730576159
 33
0.0
 40
0.0
 40
0.0
 40
0.0
 40
0.0
 40
0.2492823866
 40
1.0
 40
1.0
 40
1.0
 40
1.0
 10
-1.1716048889
 20
-10.9049273261
 30
0.0
 10
-1.1266732834
 20
-10.8809098889
 30
0.0
 10
-0.9462010245
 20
-10.7849962828
 30
0.0
 10
-0.764672461
 20
-10.6910324864
 30
0.0
 10
-0.6272974066
 20
-10.6227027659
 30
0.0
 11
-1.1716048889
 21
-10.9049273261
 31
0.0
 11
-1.036630532
 21
-10.8332119081
 31
0.0
 11
-0.6272974066
 21
-10.6227027659
 31
0.0
  0
LINE
  5
6AE
100
AcDbEntity
  8
0
100
AcDbLine
 62
7
  6
CONTINUOUS
 10
-1.1716048889
 20
-10.9049273261
 11
-1.190047748
 21
-10.9176955411
  0
LINE
  5
6AF
100
AcDbEntity
  8
0
100
AcDbLine
 62
7
  6
CONTINUOUS
 10
-1.171604981
 20
-11.5950726247
 11
-1.1898066956
 21
-11.5824714129
  0
SPLINE
  5
6B0
100
AcDbEntity
  8
0
100
AcDbSpline
 62
7
  6
CONTINUOUS
 70
0
 71
3
 72
9
 73
5
 74
3
 42
0.0000001
 43
0.0000001
 44
0.0000000001
 12
-0.5489802182
 22
0.273055379
 32
0.0
 13
-0.5407346917
 23
0.2890406775
 33
0.0
 40
0.0
 40
0.0
 40
0.0
 40
0.0
 40
0.2506073173
 40
1.0
 40
1.0
 40
1.0
 40
1.0
 10
-0.6272975093
 20
-11.8772975163
 30
0.0
 10
-0.6731569959
 20
-11.8544876243
 30
0.0
 10
-0.855643427
 20
-11.7624491968
 30
0.0
 10
-1.0365307739
 20
-11.6672742809
 30
0.0
 10
-1.171604981
 20
-11.5950726247
 30
0.0
 11
-0.6272975093
 21
-11.8772975163
 31
0.0
 11
-0.7645214368
 21
-11.8081596334
 31
0.0
 11
-1.171604981
 21
-11.5950726247
 31
0.0
  0
SPLINE
  5
6B1
100
AcDbEntity
  8
0
100
AcDbSpline
 62
7
  6
CONTINUOUS
 70
0
 71
3
 72
8
 73
4
 74
2
 42
0.0000001
 43
0.0000001
 44
0.0000000001
 12
0.2873929513
 22
-0.5873485797
 32
0.0
 13
0.3010153242
 23
-0.5804850017
 33
0.0
 40
0.0
 40
0.0
 40
0.0
 40
0.0
 40
1.0
 40
1.0
 40
1.0
 40
1.0
 10
-0.542629227
 20
-11.7926292281
 30
0.0
 10
-0.4468315766
 20
-11.988412088
 30
0.0
 10
-0.3472688203
 20
-12.1823453847
 30
0.0
 10
-0.2469303789
 20
-12.3758403852
 30
0.0
 11
-0.542629227
 21
-11.7926292281
 31
0.0
 11
-0.2469303789
 21
-12.3758403852
 31
0.0
  0
LINE
  5
6B2
100
AcDbEntity
  8
0
100
AcDbLine
 62
7
  6
CONTINUOUS
 10
-0.5197234842
 20
-11.7697234842
 11
-0.542629227
 21
-11.7926292281
  0
LINE
  5
6B3
100
AcDbEntity
  8
0
100
AcDbLine
 62
7
  6
CONTINUOUS
 10
-0.6
 20
-11.8500000064
 11
-0.6272975093
 21
-11.8772975163
  0
LINE
  5
6B4
100
AcDbEntity
  8
TRASH
100
AcDbLine
 62
7
  6
CONTINUOUS
 10
-1.1221062937
 20
-11.4888223825
 11
-1.1449972769
 21
-11.4781482281
  0
LINE
  5
6B5
100
AcDbEntity
  8
0
100
AcDbLine
 62
7
  6
CONTINUOUS
 10
-1.1450079241
 20
-11.0218072551
 11
-1.6719912502
 21
-11.0218605073
  0
LINE
  5
6B6
100
AcDbEntity
  8
0
100
AcDbLine
 62
7
  6
CONTINUOUS
 10
-1.1449972701
 20
-11.0218517819
 11
-1.190047748
 21
-10.9176955411
  0
LINE
  5
6B7
100
AcDbEntity
  8
TRASH
100
AcDbLine
 62
7
  6
CONTINUOUS
 10
-1.122106287
 20
-11.0111776274
 11
-1.1449972701
 21
-11.0218517819
  0
LINE
  5
6B8
100
AcDbEntity
  8
0
100
AcDbLine
 62
7
  6
CONTINUOUS
 10
-0.6
 20
-10.6500001418
 11
-0.6272974066
 21
-10.6227027659
  0
LINE
  5
6B9
100
AcDbEntity
  8
0
100
AcDbLine
 62
7
  6
CONTINUOUS
 10
-0.5197234842
 20
-10.7302765158
 11
-0.5426292252
 21
-10.7073707965
  0
SPLINE
  5
6BA
100
AcDbEntity
  8
0
100
AcDbSpline
 62
7
  6
CONTINUOUS
 70
0
 71
3
 72
8
 73
4
 74
2
 42
0.0000001
 43
0.0000001
 44
0.0000000001
 12
-0.3010153807
 22
-0.5804851136
 32
0.0
 13
-0.287394299
 23
-0.5873480598
 33
0.0
 40
0.0
 40
0.0
 40
0.0
 40
0.0
 40
1.0
 40
1.0
 40
1.0
 40
1.0
 10
-0.2469303309
 20
-10.1241595222
 30
0.0
 10
-0.3472687911
 20
-10.3176545601
 30
0.0
 10
-0.4468311255
 20
-10.5115881099
 30
0.0
 10
-0.5426292252
 20
-10.7073707965
 30
0.0
 11
-0.2469303309
 21
-10.1241595222
 31
0.0
 11
-0.5426292252
 21
-10.7073707965
 31
0.0
  0
SPLINE
  5
6BB
100
AcDbEntity
  8
0
100
AcDbSpline
 62
7
  6
CONTINUOUS
 70
0
 71
3
 72
9
 73
5
 74
3
 42
0.0000001
 43
0.0000001
 44
0.0000000001
 12
0.0046467353
 22
-0.0020218012
 32
0.0
 13
0.0046467353
 23
-0.0020218012
 33
0.0
 40
0.0
 40
0.0
 40
0.0
 40
0.0
 40
0.4849203347
 40
1.0
 40
1.0
 40
1.0
 40
1.0
 10
-0.2329572845
 20
-10.1034920444
 30
0.0
 10
-0.2322061857
 20
-10.1038188485
 30
0.0
 10
-0.2307336438
 20
-10.1047332912
 30
0.0
 10
-0.228946041
 20
-10.1046555936
 30
0.0
 10
-0.2281482281
 20
-10.1050027231
 30
0.0
 11
-0.2329572845
 21
-10.1034920444
 31
0.0
 11
-0.2307039688
 21
-10.1044724127
 31
0.0
 11
-0.2281482281
 21
-10.1050027231
 31
0.0
  0
LINE
  5
6BC
100
AcDbEntity
  8
0
100
AcDbLine
 62
7
  6
CONTINUOUS
 10
-0.2283532711
 20
-10.1049604169
 11
-0.2283221999
 21
-10.0799537141
  0
LINE
  5
6BD
100
AcDbEntity
  8
TRASH
100
AcDbLine
 62
7
  6
CONTINUOUS
 10
-0.2388223825
 20
-10.1278937063
 11
-0.2281482281
 21
-10.1050027231
  0
LINE
  5
6BE
100
AcDbEntity
  8
0
100
AcDbLine
 62
7
  6
CONTINUOUS
 10
0.2281927392
 20
-10.104992077
 11
0.2281778642
 21
-10.0799255577
  0
LINE
  5
6BF
100
AcDbEntity
  8
0
100
AcDbLine
 62
7
  6
CONTINUOUS
 10
0.2281482181
 20
-10.1050027299
 11
0.2327228975
 21
-10.1031453852
  0
LINE
  5
6C0
100
AcDbEntity
  8
TRASH
100
AcDbLine
 62
7
  6
CONTINUOUS
 10
0.2388223726
 20
-10.127893713
 11
0.2281482181
 21
-10.1050027299
  0
LINE
  5
6C1
100
AcDbEntity
  8
0
100
AcDbLine
 62
7
  6
CONTINUOUS
 10
0.6272975093
 20
-10.6227024837
 11
0.6
 21
-10.6499999936
  0
LINE
  5
6C2
100
AcDbEntity
  8
RACCORDO
100
AcDbLine
 62
7
  6
CONTINUOUS
 10
1.5038438821
 20
6.2424167738
 11
1.5077692962
 21
6.24147077
  0
LINE
  5
6C3
100
AcDbEntity
  8
RACCORDO
100
AcDbLine
 62
7
  6
CONTINUOUS
 10
-1.5038438821
 20
-6.2424167738
 11
-1.5077692962
 21
-6.24147077
  0
LINE
  5
6C4
100
AcDbEntity
  8
RACCORDO
100
AcDbLine
 62
7
  6
CONTINUOUS
 10
-1.5038438821
 20
6.2424167738
 11
-1.5077692962
 21
6.24147077
  0
SPLINE
  5
6C5
100
AcDbEntity
  8
RACCORDO
100
AcDbSpline
 62
7
  6
CONTINUOUS
 70
0
 71
3
 72
9
 73
5
 74
3
 42
0.0000001
 43
0.0000001
 44
0.0000000001
 12
-0.0150173105
 22
0.8608134731
 32
0.0
 13
0.0
 23
0.8609444553
 33
0.0
 40
0.0
 40
0.0
 40
0.0
 40
0.0
 40
0.4456668491
 40
1.0
 40
1.0
 40
1.0
 40
1.0
 10
1.0085752164
 20
-6.6392838529
 30
0.0
 10
1.0063443106
 20
-6.5114051768
 30
0.0
 10
1.0016488631
 20
-6.2244602884
 30
0.0
 10
1.0
 20
-5.9374747597
 30
0.0
 10
1.0
 20
-5.7783914088
 30
0.0
 11
1.0085752164
 21
-6.6392838529
 31
0.0
 11
1.0027642094
 21
-6.2556334563
 31
0.0
 11
1.0
 21
-5.7783914088
 31
0.0
  0
SPLINE
  5
6C6
100
AcDbEntity
  8
RACCORDO
100
AcDbSpline
 62
7
  6
CONTINUOUS
 70
0
 71
3
 72
9
 73
5
 74
3
 42
0.0000001
 43
0.0000001
 44
0.0000000001
 12
0.0
 22
-0.8609444553
 32
0.0
 13
-0.0150173107
 23
-0.8608134731
 33
0.0
 40
0.0
 40
0.0
 40
0.0
 40
0.0
 40
0.5543331509
 40
1.0
 40
1.0
 40
1.0
 40
1.0
 10
-1.0
 20
-5.7783914088
 30
0.0
 10
-1.0
 20
-5.9374747597
 30
0.0
 10
-1.0016488631
 20
-6.2244602884
 30
0.0
 10
-1.0063443106
 20
-6.5114051768
 30
0.0
 10
-1.0085752164
 20
-6.6392838529
 30
0.0
 11
-1.0
 21
-5.7783914088
 31
0.0
 11
-1.0027642094
 21
-6.2556334563
 31
0.0
 11
-1.0085752164
 21
-6.6392838529
 31
0.0
  0
SPLINE
  5
6C7
100
AcDbEntity
  8
RACCORDO
100
AcDbSpline
 62
7
  6
CONTINUOUS
 70
0
 71
3
 72
9
 73
5
 74
3
 42
0.0000001
 43
0.0000001
 44
0.0000000001
 12
0.0
 22
0.8609444553
 32
0.0
 13
0.0150173107
 23
0.8608134731
 33
0.0
 40
0.0
 40
0.0
 40
0.0
 40
0.0
 40
0.5543331509
 40
1.0
 40
1.0
 40
1.0
 40
1.0
 10
1.0
 20
5.7783914088
 30
0.0
 10
1.0
 20
5.9374747597
 30
0.0
 10
1.0016488631
 20
6.2244602884
 30
0.0
 10
1.0063443106
 20
6.5114051768
 30
0.0
 10
1.0085752164
 20
6.6392838529
 30
0.0
 11
1.0
 21
5.7783914088
 31
0.0
 11
1.0027642094
 21
6.2556334563
 31
0.0
 11
1.0085752164
 21
6.6392838529
 31
0.0
  0
SPLINE
  5
6C8
100
AcDbEntity
  8
RACCORDO
100
AcDbSpline
 62
7
  6
CONTINUOUS
 70
0
 71
3
 72
9
 73
5
 74
3
 42
0.0000001
 43
0.0000001
 44
0.0000000001
 12
0.0150173105
 22
-0.8608134731
 32
0.0
 13
0.0
 23
-0.8609444553
 33
0.0
 40
0.0
 40
0.0
 40
0.0
 40
0.0
 40
0.4456668491
 40
1.0
 40
1.0
 40
1.0
 40
1.0
 10
-1.0085752164
 20
6.6392838529
 30
0.0
 10
-1.0063443106
 20
6.5114051768
 30
0.0
 10
-1.0016488631
 20
6.2244602884
 30
0.0
 10
-1.0
 20
5.9374747597
 30
0.0
 10
-1.0
 20
5.7783914088
 30
0.0
 11
-1.0085752164
 21
6.6392838529
 31
0.0
 11
-1.0027642094
 21
6.2556334563
 31
0.0
 11
-1.0
 21
5.7783914088
 31
0.0
  0
LINE
  5
6C9
100
AcDbEntity
  8
RACCORDO
100
AcDbLine
 62
253
  6
CONTINUOUS
 10
-1.1396536626
 20
-7.153249022
 11
-1.1195463239
 21
-6.7272865123
  0
SPLINE
  5
6CA
100
AcDbEntity
  8
RACCORDO
100
AcDbSpline
 62
7
  6
CONTINUOUS
 70
0
 71
3
 72
11
 73
7
 74
5
 42
0.0000001
 43
0.0000001
 44
0.0000000001
 12
0.6453784456
 22
-0.1551597242
 32
0.0
 13
0.0021572909
 23
-0.6637644342
 33
0.0
 40
0.0
 40
0.0
 40
0.0
 40
0.0
 40
0.2518355744
 40
0.5025055051
 40
0.7517749449
 40
1.0
 40
1.0
 40
1.0
 40
1.0
 10
-1.5038438821
 20
-6.2424167738
 30
0.0
 10
-1.449667465
 20
-6.2554416865
 30
0.0
 10
-1.3451112599
 20
-6.2999628275
 30
0.0
 10
-1.219756643
 20
-6.4138017886
 30
0.0
 10
-1.1386384128
 20
-6.561495491
 30
0.0
 10
-1.1197248092
 20
-6.6723654667
 30
0.0
 10
-1.1195463113
 20
-6.7272864544
 30
0.0
 11
-1.5038438821
 21
-6.2424167738
 31
0.0
 11
-1.3500843349
 21
-6.3079956913
 31
0.0
 11
-1.2268533654
 21
-6.4197930523
 31
0.0
 11
-1.1473185414
 21
-6.5648800998
 31
0.0
 11
-1.1195463113
 21
-6.7272864544
 31
0.0
  0
SPLINE
  5
6CB
100
AcDbEntity
  8
RACCORDO
100
AcDbSpline
 62
7
  6
CONTINUOUS
 70
0
 71
3
 72
9
 73
5
 74
3
 42
0.0000001
 43
0.0000001
 44
0.0000000001
 12
0.5458704324
 22
0.2008761957
 32
0.0
 13
0.0584877735
 23
0.5787097332
 33
0.0
 40
0.0
 40
0.0
 40
0.0
 40
0.0
 40
0.5988442489
 40
1.0
 40
1.0
 40
1.0
 40
1.0
 10
-1.4945093337
 20
-7.5866138396
 30
0.0
 10
-1.385545544
 20
-7.546515988
 30
0.0
 10
-1.218424185
 20
-7.4198141804
 30
0.0
 10
-1.1474745645
 20
-7.2306332678
 30
0.0
 10
-1.1396536623
 20
-7.153249022
 30
0.0
 11
-1.4945093337
 21
-7.5866138396
 31
0.0
 11
-1.2198747882
 21
-7.3723607815
 31
0.0
 11
-1.1396536623
 21
-7.153249022
 31
0.0
  0
LINE
  5
6CC
100
AcDbEntity
  8
RACCORDO
100
AcDbLine
 62
253
  6
CONTINUOUS
 10
-1.1195463239
 20
6.7272865123
 11
-1.1396536626
 21
7.153249022
  0
SPLINE
  5
6CD
100
AcDbEntity
  8
RACCORDO
100
AcDbSpline
 62
7
  6
CONTINUOUS
 70
0
 71
3
 72
11
 73
7
 74
5
 42
0.0000001
 43
0.0000001
 44
0.0000000001
 12
0.6453784453
 22
0.1551597242
 32
0.0
 13
0.002157291
 23
0.663764434
 33
0.0
 40
0.0
 40
0.0
 40
0.0
 40
0.0
 40
0.2518355744
 40
0.5025055051
 40
0.7517749451
 40
1.0
 40
1.0
 40
1.0
 40
1.0
 10
-1.5038438821
 20
6.2424167738
 30
0.0
 10
-1.449667465
 20
6.2554416865
 30
0.0
 10
-1.34511126
 20
6.2999628274
 30
0.0
 10
-1.219756643
 20
6.4138017885
 30
0.0
 10
-1.1386384129
 20
6.5614954909
 30
0.0
 10
-1.1197248091
 20
6.6723654665
 30
0.0
 10
-1.1195463112
 20
6.7272864542
 30
0.0
 11
-1.5038438821
 21
6.2424167738
 31
0.0
 11
-1.350084335
 21
6.3079956913
 31
0.0
 11
-1.2268533654
 21
6.4197930522
 31
0.0
 11
-1.1473185415
 21
6.5648800997
 31
0.0
 11
-1.1195463112
 21
6.7272864542
 31
0.0
  0
SPLINE
  5
6CE
100
AcDbEntity
  8
RACCORDO
100
AcDbSpline
 62
7
  6
CONTINUOUS
 70
0
 71
3
 72
9
 73
5
 74
3
 42
0.0000001
 43
0.0000001
 44
0.0000000001
 12
0.5458704324
 22
-0.2008761957
 32
0.0
 13
0.0584877738
 23
-0.5787097332
 33
0.0
 40
0.0
 40
0.0
 40
0.0
 40
0.0
 40
0.5988442491
 40
1.0
 40
1.0
 40
1.0
 40
1.0
 10
-1.4945093337
 20
7.5866138396
 30
0.0
 10
-1.3855455439
 20
7.546515988
 30
0.0
 10
-1.218424185
 20
7.4198141804
 30
0.0
 10
-1.1474745645
 20
7.2306332678
 30
0.0
 10
-1.1396536622
 20
7.153249022
 30
0.0
 11
-1.4945093337
 21
7.5866138396
 31
0.0
 11
-1.2198747881
 21
7.3723607814
 31
0.0
 11
-1.1396536622
 21
7.153249022
 31
0.0
  0
LINE
  5
6CF
100
AcDbEntity
  8
RACCORDO
100
AcDbLine
 62
253
  6
CONTINUOUS
 10
1.1195463239
 20
-6.7272865123
 11
1.1396536626
 21
-7.153249022
  0
LINE
  5
6D0
100
AcDbEntity
  8
RACCORDO
100
AcDbLine
 62
7
  6
CONTINUOUS
 10
1.5038438821
 20
-6.2424167738
 11
1.5077692962
 21
-6.24147077
  0
SPLINE
  5
6D1
100
AcDbEntity
  8
RACCORDO
100
AcDbSpline
 62
7
  6
CONTINUOUS
 70
0
 71
3
 72
9
 73
5
 74
3
 42
0.0000001
 43
0.0000001
 44
0.0000000001
 12
-0.5458704537
 22
0.2008762035
 32
0.0
 13
-0.0584877761
 23
0.5787097558
 33
0.0
 40
0.0
 40
0.0
 40
0.0
 40
0.0
 40
0.5988442288
 40
1.0
 40
1.0
 40
1.0
 40
1.0
 10
1.4945093337
 20
-7.5866138396
 30
0.0
 10
1.3855455434
 20
-7.5465159878
 30
0.0
 10
1.218424218
 20
-7.4198141613
 30
0.0
 10
1.147474502
 20
-7.2306332748
 30
0.0
 10
1.139653599
 20
-7.153249022
 30
0.0
 11
1.4945093337
 21
-7.5866138396
 31
0.0
 11
1.2198747859
 21
-7.3723607814
 31
0.0
 11
1.139653599
 21
-7.153249022
 31
0.0
  0
SPLINE
  5
6D2
100
AcDbEntity
  8
RACCORDO
100
AcDbSpline
 62
7
  6
CONTINUOUS
 70
0
 71
3
 72
11
 73
7
 74
5
 42
0.0000001
 43
0.0000001
 44
0.0000000001
 12
-0.6453784972
 22
-0.1551597366
 32
0.0
 13
-0.0021572912
 23
-0.6637644873
 33
0.0
 40
0.0
 40
0.0
 40
0.0
 40
0.0
 40
0.2518355745
 40
0.502505505
 40
0.7517749447
 40
1.0
 40
1.0
 40
1.0
 40
1.0
 10
1.5038438821
 20
-6.2424167738
 30
0.0
 10
1.4496674606
 20
-6.2554416876
 30
0.0
 10
1.3451112469
 20
-6.2999628335
 30
0.0
 10
1.2197566268
 20
-6.4138018094
 30
0.0
 10
1.1386383904
 20
-6.5614955286
 30
0.0
 10
1.1197248189
 20
-6.6723655178
 30
0.0
 10
1.119546321
 20
-6.72728651
 30
0.0
 11
1.5038438821
 21
-6.2424167738
 31
0.0
 11
1.3500843235
 21
-6.3079956987
 31
0.0
 11
1.2268533487
 21
-6.4197930735
 31
0.0
 11
1.1473185282
 21
-6.5648801379
 31
0.0
 11
1.119546321
 21
-6.72728651
 31
0.0
  0
LINE
  5
6D3
100
AcDbEntity
  8
RACCORDO
100
AcDbLine
 62
253
  6
CONTINUOUS
 10
1.1396536626
 20
7.153249022
 11
1.1195463239
 21
6.7272865123
  0
SPLINE
  5
6D4
100
AcDbEntity
  8
RACCORDO
100
AcDbSpline
 62
7
  6
CONTINUOUS
 70
0
 71
3
 72
9
 73
5
 74
3
 42
0.0000001
 43
0.0000001
 44
0.0000000001
 12
-0.5458704537
 22
-0.2008762035
 32
0.0
 13
-0.0584877758
 23
-0.5787097558
 33
0.0
 40
0.0
 40
0.0
 40
0.0
 40
0.0
 40
0.5988442287
 40
1.0
 40
1.0
 40
1.0
 40
1.0
 10
1.4945093337
 20
7.5866138396
 30
0.0
 10
1.3855455434
 20
7.5465159878
 30
0.0
 10
1.218424218
 20
7.4198141613
 30
0.0
 10
1.147474502
 20
7.2306332748
 30
0.0
 10
1.1396535991
 20
7.153249022
 30
0.0
 11
1.4945093337
 21
7.5866138396
 31
0.0
 11
1.219874786
 21
7.3723607814
 31
0.0
 11
1.1396535991
 21
7.153249022
 31
0.0
  0
SPLINE
  5
6D5
100
AcDbEntity
  8
RACCORDO
100
AcDbSpline
 62
7
  6
CONTINUOUS
 70
0
 71
3
 72
11
 73
7
 74
5
 42
0.0000001
 43
0.0000001
 44
0.0000000001
 12
-0.6453784456
 22
0.1551597242
 32
0.0
 13
-0.0021572909
 23
0.6637644342
 33
0.0
 40
0.0
 40
0.0
 40
0.0
 40
0.0
 40
0.2518355744
 40
0.5025055051
 40
0.7517749449
 40
1.0
 40
1.0
 40
1.0
 40
1.0
 10
1.5038438821
 20
6.2424167738
 30
0.0
 10
1.449667465
 20
6.2554416865
 30
0.0
 10
1.3451112599
 20
6.2999628275
 30
0.0
 10
1.219756643
 20
6.4138017886
 30
0.0
 10
1.1386384128
 20
6.561495491
 30
0.0
 10
1.1197248092
 20
6.6723654667
 30
0.0
 10
1.1195463113
 20
6.7272864544
 30
0.0
 11
1.5038438821
 21
6.2424167738
 31
0.0
 11
1.3500843349
 21
6.3079956913
 31
0.0
 11
1.2268533654
 21
6.4197930523
 31
0.0
 11
1.1473185414
 21
6.5648800998
 31
0.0
 11
1.1195463113
 21
6.7272864544
 31
0.0
  0
SPLINE
  5
6D6
100
AcDbEntity
  8
0
100
AcDbSpline
 62
7
  6
CONTINUOUS
 70
0
 71
3
 72
35
 73
31
 74
29
 42
0.0000001
 43
0.0000001
 44
0.0000000001
 12
1.0548809647
 22
0.1512523926
 32
0.0
 13
0.1227980477
 23
-1.0585706285
 33
0.0
 40
0.0
 40
0.0
 40
0.0
 40
0.0
 40
0.024719433
 40
0.0498170664
 40
0.075018804
 40
0.1011425502
 40
0.1094855939
 40
0.1357468386
 40
0.1613075526
 40
0.1869543224
 40
0.2126906907
 40
0.2385338178
 40
0.2645034898
 40
0.2906351525
 40
0.3169722926
 40
0.3435729208
 40
0.3704970999
 40
0.3978231214
 40
0.4256317419
 40
0.4540110525
 40
0.4830614728
 40
0.5128809814
 40
0.5435752613
 40
0.575256911
 40
0.6080346519
 40
0.6420219399
 40
0.6773375651
 40
0.7140952384
 40
0.7533271743
 40
1.0
 40
1.0
 40
1.0
 40
1.0
 10
-7.8741083333
 20
10.709085
 30
0.0
 10
-7.8654163135
 20
10.7103312911
 30
0.0
 10
-7.8478024511
 20
10.7122109521
 30
0.0
 10
-7.8211485016
 20
10.7131454355
 30
0.0
 10
-7.7939977021
 20
10.7121752331
 30
0.0
 10
-7.7728984816
 20
10.7099457469
 30
0.0
 10
-7.7515822658
 20
10.7066270934
 30
0.0
 10
-7.7306355537
 20
10.7022788692
 30
0.0
 10
-7.7041156468
 20
10.6948566516
 30
0.0
 10
-7.678357739
 20
10.6856460092
 30
0.0
 10
-7.6532077118
 20
10.6746365504
 30
0.0
 10
-7.6287779695
 20
10.6618593403
 30
0.0
 10
-7.6051690272
 20
10.6473529551
 30
0.0
 10
-7.5824672886
 20
10.6311603222
 30
0.0
 10
-7.5607518994
 20
10.6133120601
 30
0.0
 10
-7.5400931241
 20
10.5938381501
 30
0.0
 10
-7.5205536655
 20
10.5727600117
 30
0.0
 10
-7.502191327
 20
10.5500940698
 30
0.0
 10
-7.4850645891
 20
10.5258451008
 30
0.0
 10
-7.4692308555
 20
10.5000117911
 30
0.0
 10
-7.454746814
 20
10.4725880002
 30
0.0
 10
-7.4416778916
 20
10.4435583338
 30
0.0
 10
-7.4300882627
 20
10.4129059832
 30
0.0
 10
-7.4200541978
 20
10.3806080649
 30
0.0
 10
-7.411644695
 20
10.34664378
 30
0.0
 10
-7.4049514384
 20
10.3109854632
 30
0.0
 10
-7.4000639652
 20
10.273611496
 30
0.0
 10
-7.3970225723
 20
10.2341665325
 30
0.0
 10
-7.3944784651
 20
10.1195769132
 30
0.0
 10
-7.4064794805
 20
10.0174035361
 30
0.0
 10
-7.3963825
 20
9.9303633333
 30
0.0
 11
-7.8741083333
 21
10.709085
 31
0.0
 11
-7.847915
 21
10.7118866667
 31
0.0
 11
-7.8211858333
 21
10.7128291667
 31
0.0
 11
-7.7943458333
 21
10.7118816667
 31
0.0
 11
-7.7666625
 21
10.7089391667
 31
0.0
 11
-7.7578775
 21
10.7075708333
 31
0.0
 11
-7.7304691667
 21
10.701915
 31
0.0
 11
-7.7042416667
 21
10.69456
 31
0.0
 11
-7.6785041667
 21
10.6853641667
 31
0.0
 11
-7.6533791667
 21
10.6743666667
 31
0.0
 11
-7.6289741667
 21
10.661605
 31
0.0
 11
-7.6053925
 21
10.64712
 31
0.0
 11
-7.5827191667
 21
10.6309516667
 31
0.0
 11
-7.5610333333
 21
10.6131341667
 31
0.0
 11
-7.5404016667
 21
10.5936941667
 31
0.0
 11
-7.52089
 21
10.5726575
 31
0.0
 11
-7.5025525
 21
10.5500358333
 31
0.0
 11
-7.4854475
 21
10.5258358333
 31
0.0
 11
-7.4696325
 21
10.5000575
 31
0.0
 11
-7.4551625
 21
10.4726891667
 31
0.0
 11
-7.4421025
 21
10.4437191667
 31
0.0
 11
-7.4305183333
 21
10.4131291667
 31
0.0
 11
-7.4204816667
 21
10.3808933333
 31
0.0
 11
-7.4120675
 21
10.3469916667
 31
0.0
 11
-7.4053633333
 21
10.3113983333
 31
0.0
 11
-7.400455
 21
10.274085
 31
0.0
 11
-7.3974358333
 21
10.23503
 31
0.0
 11
-7.3963825
 21
10.193235
 31
0.0
 11
-7.3963825
 21
9.9303633333
 31
0.0
  0
SPLINE
  5
6D7
100
AcDbEntity
  8
0
100
AcDbSpline
 62
7
  6
CONTINUOUS
 70
0
 71
3
 72
59
 73
55
 74
53
 42
0.0000001
 43
0.0000001
 44
0.0000000001
 12
-0.4982231073
 22
2.1389571549
 32
0.0
 13
0.000043693
 23
-2.1962152647
 33
0.0
 40
0.0
 40
0.0
 40
0.0
 40
0.0
 40
0.0165233983
 40
0.0379147828
 40
0.0589576685
 40
0.0796945069
 40
0.1001665338
 40
0.120412484
 40
0.140466322
 40
0.1603649603
 40
0.1801378769
 40
0.1998132905
 40
0.2194170559
 40
0.2389708504
 40
0.25849379
 40
0.2779997202
 40
0.2975003091
 40
0.3170033918
 40
0.3365117523
 40
0.356028619
 40
0.3755482313
 40
0.395066557
 40
0.4141010729
 40
0.4171625746
 40
0.4361687142
 40
0.4556025918
 40
0.474964742
 40
0.4941923544
 40
0.5133081826
 40
0.5323324218
 40
0.5508003584
 40
0.5541973269
 40
0.5726018893
 40
0.5914549836
 40
0.6102933702
 40
0.629136235
 40
0.648003995
 40
0.6669197061
 40
0.685904808
 40
0.7049831945
 40
0.7241472026
 40
0.7434201885
 40
0.7628565995
 40
0.7825084267
 40
0.8024282543
 40
0.8226671223
 40
0.8432756591
 40
0.8643016976
 40
0.8857938542
 40
0.9077964924
 40
0.9303536841
 40
0.9535043137
 40
0.9772678642
 40
1.0
 40
1.0
 40
1.0
 40
1.0
 10
-7.1062858333
 20
10.4428941667
 30
0.0
 10
-7.1090299463
 20
10.4546751137
 30
0.0
 10
-7.1160209664
 20
10.4815499306
 30
0.0
 10
-7.1291023587
 20
10.5227039854
 30
0.0
 10
-7.1453758496
 20
10.5660146548
 30
0.0
 10
-7.1637539863
 20
10.6077435737
 30
0.0
 10
-7.1841563776
 20
10.6478669285
 30
0.0
 10
-7.206542584
 20
10.6863416639
 30
0.0
 10
-7.2308629231
 20
10.7231219777
 30
0.0
 10
-7.2570602165
 20
10.7581587737
 30
0.0
 10
-7.2850763544
 20
10.7913977071
 30
0.0
 10
-7.3148457482
 20
10.8227794319
 30
0.0
 10
-7.3462992933
 20
10.852238902
 30
0.0
 10
-7.3793543641
 20
10.8797151691
 30
0.0
 10
-7.413925501
 20
10.9051372143
 30
0.0
 10
-7.4499154005
 20
10.928435926
 30
0.0
 10
-7.4872156143
 20
10.9495440243
 30
0.0
 10
-7.5257085154
 20
10.9683937106
 30
0.0
 10
-7.5652673517
 20
10.9849205058
 30
0.0
 10
-7.6057532543
 20
10.9990620178
 30
0.0
 10
-7.6470180246
 20
11.0107624622
 30
0.0
 10
-7.6885591024
 20
11.0199207728
 30
0.0
 10
-7.7186738124
 20
11.0246569631
 30
0.0
 10
-7.7485339169
 20
11.0283638429
 30
0.0
 10
-7.7788103409
 20
11.0311285683
 30
0.0
 10
-7.8211325157
 20
11.0323851128
 30
0.0
 10
-7.8636166491
 20
11.0311182488
 30
0.0
 10
-7.9057135363
 20
11.0272825009
 30
0.0
 10
-7.947251045
 20
11.0209103497
 30
0.0
 10
-7.9877764993
 20
11.012120297
 30
0.0
 10
-8.0165910465
 20
11.0039330881
 30
0.0
 10
-8.0446529761
 20
10.9949007331
 30
0.0
 10
-8.0726726362
 20
10.9848036344
 30
0.0
 10
-8.1103670055
 20
10.9684391836
 30
0.0
 10
-8.1472554808
 20
10.9496144515
 30
0.0
 10
-8.1828972715
 20
10.928502543
 30
0.0
 10
-8.2171949937
 20
10.9051705158
 30
0.0
 10
-8.2500517849
 20
10.8796794684
 30
0.0
 10
-8.2813759928
 20
10.8520932832
 30
0.0
 10
-8.311060664
 20
10.8224925769
 30
0.0
 10
-8.3390188406
 20
10.7909742193
 30
0.0
 10
-8.3651671917
 20
10.7576054707
 30
0.0
 10
-8.38945783
 20
10.7224266638
 30
0.0
 10
-8.4118562969
 20
10.6854597108
 30
0.0
 10
-8.432330203
 20
10.6467279375
 30
0.0
 10
-8.4508346161
 20
10.6062468203
 30
0.0
 10
-8.4673340187
 20
10.5640379696
 30
0.0
 10
-8.4817788138
 20
10.5201163588
 30
0.0
 10
-8.494124696
 20
10.474501847
 30
0.0
 10
-8.5043201855
 20
10.4272124711
 30
0.0
 10
-8.5123124765
 20
10.3782714227
 30
0.0
 10
-8.518042823
 20
10.3277173158
 30
0.0
 10
-8.5213809291
 20
10.2768225081
 30
0.0
 10
-8.5220894977
 20
10.2427797212
 30
0.0
 10
-8.5220891667
 20
10.2261381667
 30
0.0
 11
-7.1062858333
 21
10.4428941667
 31
0.0
 11
-7.1153933333
 21
10.4780216667
 31
0.0
 11
-7.129565
 21
10.5228133333
 31
0.0
 11
-7.1458533333
 21
10.5660625
 31
0.0
 11
-7.1642158333
 21
10.6077391667
 31
0.0
 11
-7.1846058333
 21
10.6478108333
 31
0.0
 11
-7.2069758333
 21
10.6862383333
 31
0.0
 11
-7.2312741667
 21
10.7229716667
 31
0.0
 11
-7.2574491667
 21
10.7579675
 31
0.0
 11
-7.28544
 21
10.7911683333
 31
0.0
 11
-7.3151825
 21
10.822515
 31
0.0
 11
-7.3466075
 21
10.851945
 31
0.0
 11
-7.3796341667
 21
10.8793941667
 31
0.0
 11
-7.4141775
 21
10.9047941667
 31
0.0
 11
-7.4501391667
 21
10.9280741667
 31
0.0
 11
-7.4874125
 21
10.9491666667
 31
0.0
 11
-7.5258808333
 21
10.9680041667
 31
0.0
 11
-7.5654141667
 21
10.98452
 31
0.0
 11
-7.60588
 21
10.9986541667
 31
0.0
 11
-7.6471225
 21
11.0103516667
 31
0.0
 11
-7.6889875
 21
11.0195633333
 31
0.0
 11
-7.7302791667
 21
11.0260875
 31
0.0
 11
-7.7369516667
 21
11.0269158333
 31
0.0
 11
-7.7785233333
 21
11.0306783333
 31
0.0
 11
-7.821185
 21
11.0319625
 31
0.0
 11
-7.8636891667
 21
11.0306816667
 31
0.0
 11
-7.9057425
 21
11.026845
 31
0.0
 11
-7.9472391667
 21
11.0204766667
 31
0.0
 11
-7.9880666667
 21
11.0116
 31
0.0
 11
-8.0270891667
 21
11.00054
 31
0.0
 11
-8.0341908333
 21
10.9982541667
 31
0.0
 11
-8.0722066667
 21
10.9845208333
 31
0.0
 11
-8.1101933333
 21
10.9680458333
 31
0.0
 11
-8.1470433333
 21
10.9492358333
 31
0.0
 11
-8.18265
 21
10.9281475
 31
0.0
 11
-8.2169125
 21
10.9048416667
 31
0.0
 11
-8.2497375
 21
10.8793791667
 31
0.0
 11
-8.2810308333
 21
10.851825
 31
0.0
 11
-8.3107058333
 21
10.8222441667
 31
0.0
 11
-8.3386383333
 21
10.7907608333
 31
0.0
 11
-8.3647516667
 21
10.7574483333
 31
0.0
 11
-8.3890141667
 21
10.7223275
 31
0.0
 11
-8.4113908333
 21
10.6854216667
 31
0.0
 11
-8.4318475
 21
10.6467508333
 31
0.0
 11
-8.4503425
 21
10.6063325
 31
0.0
 11
-8.4668366667
 21
10.5641841667
 31
0.0
 11
-8.4812825
 21
10.5203241667
 31
0.0
 11
-8.4936341667
 21
10.4747675
 31
0.0
 11
-8.50384
 21
10.427535
 31
0.0
 11
-8.5118466667
 21
10.3786458333
 31
0.0
 11
-8.5175975
 21
10.3281283333
 31
0.0
 11
-8.5210333333
 21
10.2760516667
 31
0.0
 11
-8.5220891667
 21
10.2261381667
 31
0.0
  0
SPLINE
  5
6D8
100
AcDbEntity
  8
0
100
AcDbSpline
 62
7
  6
CONTINUOUS
 70
0
 71
3
 72
9
 73
5
 74
3
 42
0.0000001
 43
0.0000001
 44
0.0000000001
 12
0.0
 22
1.0191640561
 32
0.0
 13
0.0095563415
 23
1.0191192519
 33
0.0
 40
0.0
 40
0.0
 40
0.0
 40
0.0
 40
0.983867606
 40
1.0
 40
1.0
 40
1.0
 40
1.0
 10
-8.20304
 20
9.22227
 30
0.0
 10
-8.20304
 20
9.5565108333
 30
0.0
 10
-8.2061740583
 20
9.8962468792
 30
0.0
 10
-8.2029372222
 20
10.2359530556
 30
0.0
 10
-8.2028858333
 20
10.2414333333
 30
0.0
 11
-8.20304
 21
9.22227
 31
0.0
 11
-8.20304
 21
10.2249925
 31
0.0
 11
-8.2028858333
 21
10.2414333333
 31
0.0
  0
SPLINE
  5
6D9
100
AcDbEntity
  8
0
100
AcDbSpline
 62
7
  6
CONTINUOUS
 70
0
 71
3
 72
29
 73
25
 74
23
 42
0.0000001
 43
0.0000001
 44
0.0000000001
 12
0.0118735099
 22
0.6257989551
 32
0.0
 13
0.6159646756
 23
0.1111432894
 33
0.0
 40
0.0
 40
0.0
 40
0.0
 40
0.0
 40
0.0671668931
 40
0.1302001866
 40
0.1901730507
 40
0.2472435899
 40
0.3015950387
 40
0.3534280937
 40
0.4029593351
 40
0.450436275
 40
0.4961083485
 40
0.5402498028
 40
0.5831525573
 40
0.6251124083
 40
0.6663407767
 40
0.7071541837
 40
0.7477018765
 40
0.7881142182
 40
0.8285057617
 40
0.8689993574
 40
0.9097053859
 40
0.9525826066
 40
0.9566100659
 40
1.0
 40
1.0
 40
1.0
 40
1.0
 10
-8.2028858333
 20
10.2414333333
 30
0.0
 10
-8.2026199977
 20
10.2554443238
 30
0.0
 10
-8.2014641678
 20
10.2825976362
 30
0.0
 10
-8.1977545094
 20
10.3221181778
 30
0.0
 10
-8.1922590869
 20
10.3593035675
 30
0.0
 10
-8.1850829205
 20
10.3943547061
 30
0.0
 10
-8.1763399109
 20
10.4272947513
 30
0.0
 10
-8.1661393671
 20
10.4581610207
 30
0.0
 10
-8.1545814185
 20
10.4870059574
 30
0.0
 10
-8.141751651
 20
10.5138911004
 30
0.0
 10
-8.1277222998
 20
10.5388886843
 30
0.0
 10
-8.1125505164
 20
10.5620779189
 30
0.0
 10
-8.0962677709
 20
10.5835368775
 30
0.0
 10
-8.0789065786
 20
10.6033317845
 30
0.0
 10
-8.0604755656
 20
10.6215197558
 30
0.0
 10
-8.0409888922
 20
10.6381212432
 30
0.0
 10
-8.0204771213
 20
10.6531516523
 30
0.0
 10
-7.9989897432
 20
10.6665861352
 30
0.0
 10
-7.976580356
 20
10.678393612
 30
0.0
 10
-7.9533076628
 20
10.6885497423
 30
0.0
 10
-7.9288577999
 20
10.6971193687
 30
0.0
 10
-7.9112005266
 20
10.7019208385
 30
0.0
 10
-7.8928261334
 20
10.7060823399
 30
0.0
 10
-7.8830172222
 20
10.7074775
 30
0.0
 10
-7.8741083333
 20
10.709085
 30
0.0
 11
-8.2028858333
 21
10.2414333333
 31
0.0
 11
-8.2010591667
 21
10.2834341667
 31
0.0
 11
-8.1973391667
 21
10.3227116667
 31
0.0
 11
-8.1918216667
 21
10.3598416667
 31
0.0
 11
-8.1846275
 21
10.3948308333
 31
0.0
 11
-8.1758725
 21
10.4277041667
 31
0.0
 11
-8.1656666667
 21
10.4585
 31
0.0
 11
-8.1541116667
 21
10.4872683333
 31
0.0
 11
-8.1412925
 21
10.5140775
 31
0.0
 11
-8.1272841667
 21
10.5389966667
 31
0.0
 11
-8.1121425
 21
10.5621066667
 31
0.0
 11
-8.0959
 21
10.5834908333
 31
0.0
 11
-8.0785741667
 21
10.6032283333
 31
0.0
 11
-8.0602
 21
10.6213475
 31
0.0
 11
-8.0407525
 21
10.6379116667
 31
0.0
 11
-8.0202791667
 21
10.65291
 31
0.0
 11
-7.9988308333
 21
10.6663183333
 31
0.0
 11
-7.976465
 21
10.678105
 31
0.0
 11
-7.9532341667
 21
10.68824
 31
0.0
 11
-7.9291966667
 21
10.6966866667
 31
0.0
 11
-7.9032941667
 21
10.7037083333
 31
0.0
 11
-7.900835
 21
10.7042625
 31
0.0
 11
-7.8741083333
 21
10.709085
 31
0.0
  0
SPLINE
  5
6DA
100
AcDbEntity
  8
0
100
AcDbSpline
 62
7
  6
CONTINUOUS
 70
0
 71
3
 72
15
 73
11
 74
9
 42
0.0000001
 43
0.0000001
 44
0.0000000001
 12
0.003887752
 22
0.8464963439
 32
0.0
 13
-0.8463794614
 23
-0.0145939122
 33
0.0
 40
0.0
 40
0.0
 40
0.0
 40
0.0
 40
0.1666104649
 40
0.3201400637
 40
0.432791991
 40
0.5473463999
 40
0.6677209668
 40
0.7950987643
 40
0.8857287116
 40
1.0
 40
1.0
 40
1.0
 40
1.0
 10
8.575
 20
7.1657111626
 30
0.0
 10
8.5752159134
 20
7.212722879
 30
0.0
 10
8.5639405484
 20
7.3035676141
 30
0.0
 10
8.5147480905
 20
7.4177597775
 30
0.0
 10
8.4441998473
 20
7.4997672843
 30
0.0
 10
8.368275086
 20
7.5631024222
 30
0.0
 10
8.2746995391
 20
7.6061873805
 30
0.0
 10
8.183232183
 20
7.6346309537
 30
0.0
 10
8.0901589606
 20
7.6479370666
 30
0.0
 10
8.0322389572
 20
7.6494405279
 30
0.0
 10
8.0
 20
7.6488846395
 30
0.0
 11
8.575
 21
7.1657111626
 31
0.0
 11
8.5566781237
 21
7.3055526506
 31
0.0
 11
8.5037585928
 21
7.4242542277
 31
0.0
 11
8.4427011727
 21
7.4975045309
 31
0.0
 11
8.3673210675
 21
7.5585061484
 31
0.0
 11
8.2758046907
 21
7.6033156915
 31
0.0
 11
8.1725697533
 21
7.6344442802
 31
0.0
 11
8.0966781237
 21
7.6456792176
 31
0.0
 11
8.0
 21
7.6488846395
 31
0.0
  0
SPLINE
  5
6DB
100
AcDbEntity
  8
0
100
AcDbSpline
 62
7
  6
CONTINUOUS
 70
0
 71
3
 72
15
 73
11
 74
9
 42
0.0000001
 43
0.0000001
 44
0.0000000001
 12
-0.8415335573
 22
0.0145103554
 32
0.0
 13
-0.0038640205
 23
-0.8416497774
 33
0.0
 40
0.0
 40
0.0
 40
0.0
 40
0.0
 40
0.1149293105
 40
0.2060811432
 40
0.3341924356
 40
0.4552601699
 40
0.5704742312
 40
0.6837748557
 40
0.8381885424
 40
1.0
 40
1.0
 40
1.0
 40
1.0
 10
8.0
 20
7.6488846395
 30
0.0
 10
7.9677610428
 20
7.6494405279
 30
0.0
 10
7.9098410381
 20
7.647937064
 30
0.0
 10
7.816767821
 20
7.634630962
 30
0.0
 10
7.7253004395
 20
7.6061873365
 30
0.0
 10
7.6317249867
 20
7.5631025715
 30
0.0
 10
7.5557998974
 20
7.49976676
 30
0.0
 10
7.4852529897
 20
7.4177619955
 30
0.0
 10
7.4367044108
 20
7.305066337
 30
0.0
 10
7.4252084143
 20
7.2159968947
 30
0.0
 10
7.425
 20
7.1706007023
 30
0.0
 11
8.0
 21
7.6488846395
 31
0.0
 11
7.9033218763
 21
7.6456792176
 31
0.0
 11
7.8274302467
 21
7.6344442802
 31
0.0
 11
7.7241953093
 21
7.6033156915
 31
0.0
 11
7.6326789325
 21
7.5585061484
 31
0.0
 11
7.5572988273
 21
7.4975045309
 31
0.0
 11
7.4962414072
 21
7.4242542277
 31
0.0
 11
7.4433218763
 21
7.3055526506
 31
0.0
 11
7.425
 21
7.1706007023
 31
0.0
  0
SPLINE
  5
6DC
100
AcDbEntity
  8
0
100
AcDbSpline
 62
7
  6
CONTINUOUS
 70
0
 71
3
 72
14
 73
10
 74
8
 42
0.0000001
 43
0.0000001
 44
0.0000000001
 12
0.0151754808
 22
0.6170770166
 32
0.0
 13
0.6170401105
 23
-0.0166496787
 33
0.0
 40
0.0
 40
0.0
 40
0.0
 40
0.0
 40
0.1344351353
 40
0.246505369
 40
0.3932420615
 40
0.5898762183
 40
0.7257801123
 40
0.8770609692
 40
1.0
 40
1.0
 40
1.0
 40
1.0
 10
7.557903
 20
7.1617429791
 30
0.0
 10
7.5585830393
 20
7.1893952565
 30
0.0
 10
7.5660056744
 20
7.2402091177
 30
0.0
 10
7.5961251587
 20
7.3159406914
 30
0.0
 10
7.6533371865
 20
7.3920325818
 30
0.0
 10
7.7386176258
 20
7.4466855335
 30
0.0
 10
7.8346677604
 20
7.4742456021
 30
0.0
 10
7.9181659014
 20
7.4877638224
 30
0.0
 10
7.9747138956
 20
7.489709598
 30
0.0
 10
8.0
 20
7.4890272995
 30
0.0
 11
7.557903
 21
7.1617429791
 31
0.0
 11
7.5700869389
 21
7.2438255985
 31
0.0
 11
7.595849171
 21
7.3080265689
 31
0.0
 11
7.6503497776
 21
7.3803700789
 31
0.0
 11
7.7518176304
 21
7.4469752143
 31
0.0
 11
7.8319409624
 21
7.4718260028
 31
0.0
 11
7.9241548726
 21
7.4865393065
 31
0.0
 11
8.0
 21
7.4890272995
 31
0.0
  0
SPLINE
  5
6DD
100
AcDbEntity
  8
0
100
AcDbSpline
 62
7
  6
CONTINUOUS
 70
0
 71
3
 72
14
 73
10
 74
8
 42
0.0000001
 43
0.0000001
 44
0.0000000001
 12
0.6170401105
 22
0.0166496787
 32
0.0
 13
0.0151754808
 23
-0.6170770166
 33
0.0
 40
0.0
 40
0.0
 40
0.0
 40
0.0
 40
0.1229390308
 40
0.2742198877
 40
0.4101237817
 40
0.6067579385
 40
0.753494631
 40
0.8655648647
 40
1.0
 40
1.0
 40
1.0
 40
1.0
 10
8.0
 20
7.4890272995
 30
0.0
 10
8.0252861044
 20
7.489709598
 30
0.0
 10
8.0818340986
 20
7.4877638224
 30
0.0
 10
8.1653322396
 20
7.4742456021
 30
0.0
 10
8.2613823742
 20
7.4466855335
 30
0.0
 10
8.3466628135
 20
7.3920325818
 30
0.0
 10
8.4038748413
 20
7.3159406914
 30
0.0
 10
8.4339943256
 20
7.2402091177
 30
0.0
 10
8.4414169607
 20
7.1893952565
 30
0.0
 10
8.442097
 20
7.1617429791
 30
0.0
 11
8.0
 21
7.4890272995
 31
0.0
 11
8.0758451274
 21
7.4865393065
 31
0.0
 11
8.1680590376
 21
7.4718260028
 31
0.0
 11
8.2481823696
 21
7.4469752143
 31
0.0
 11
8.3496502224
 21
7.3803700789
 31
0.0
 11
8.404150829
 21
7.3080265689
 31
0.0
 11
8.4299130611
 21
7.2438255985
 31
0.0
 11
8.442097
 21
7.1617429791
 31
0.0
  0
SPLINE
  5
6DE
100
AcDbEntity
  8
0
100
AcDbSpline
 62
7
  6
CONTINUOUS
 70
0
 71
3
 72
9
 73
5
 74
3
 42
0.0000001
 43
0.0000001
 44
0.0000000001
 12
-0.6482263378
 22
-0.1760564373
 32
0.0
 13
-0.6480872012
 23
-0.1765679296
 33
0.0
 40
0.0
 40
0.0
 40
0.0
 40
0.0
 40
0.1980141723
 40
1.0
 40
1.0
 40
1.0
 40
1.0
 10
-6.0125386179
 20
-6.3235632266
 30
0.0
 10
-6.0553246185
 20
-6.3351837832
 30
0.0
 10
-6.2718857451
 20
-6.3920612006
 30
0.0
 10
-6.4887999788
 20
-6.4476072806
 30
0.0
 10
-6.662052229
 20
-6.4948089397
 30
0.0
 11
-6.0125386179
 21
-6.3235632266
 31
0.0
 11
-6.1411028082
 21
-6.3576566514
 31
0.0
 11
-6.662052229
 21
-6.4948089397
 31
0.0
  0
SPLINE
  5
6DF
100
AcDbEntity
  8
0
100
AcDbSpline
 62
7
  6
CONTINUOUS
 70
0
 71
3
 72
9
 73
5
 74
3
 42
0.0000001
 43
0.0000001
 44
0.0000000001
 12
-0.5391240839
 22
-0.1468736374
 32
0.0
 13
-0.2069634548
 23
-0.5190306076
 33
0.0
 40
0.0
 40
0.0
 40
0.0
 40
0.0
 40
0.2426586216
 40
1.0
 40
1.0
 40
1.0
 40
1.0
 10
-6.662052229
 20
-6.4948089397
 30
0.0
 10
-6.7056599313
 20
-6.5066889912
 30
0.0
 10
-6.8817584605
 20
-6.5520689543
 30
0.0
 10
-7.0804786728
 20
-6.6525198542
 30
0.0
 10
-7.1327260022
 20
-6.7835476394
 30
0.0
 11
-6.662052229
 21
-6.4948089397
 31
0.0
 11
-6.7924556213
 21
-6.5319554231
 31
0.0
 11
-7.1327260022
 21
-6.7835476394
 31
0.0
  0
SPLINE
  5
6E0
100
AcDbEntity
  8
0
100
AcDbSpline
 62
7
  6
CONTINUOUS
 70
0
 71
3
 72
8
 73
4
 74
2
 42
0.0000001
 43
0.0000001
 44
0.0000000001
 12
-0.0085467964
 22
0.0662376718
 32
0.0
 13
-0.0425602173
 23
0.0547614526
 33
0.0
 40
0.0
 40
0.0
 40
0.0
 40
0.0
 40
1.0
 40
1.0
 40
1.0
 40
1.0
 10
-7.1469065005
 20
-6.7835476394
 30
0.0
 10
-7.1497554326
 20
-6.7614684155
 30
0.0
 10
-7.1620313868
 20
-6.7421523711
 30
0.0
 10
-7.1762181259
 20
-6.7238985536
 30
0.0
 11
-7.1469065005
 21
-6.7835476394
 31
0.0
 11
-7.1762181259
 21
-6.7238985536
 31
0.0
  0
SPLINE
  5
6E1
100
AcDbEntity
  8
0
100
AcDbSpline
 62
7
  6
CONTINUOUS
 70
0
 71
3
 72
17
 73
13
 74
11
 42
0.0000001
 43
0.0000001
 44
0.0000000001
 12
-0.9098282868
 22
1.1706594033
 32
0.0
 13
-0.4864954508
 23
-1.3422715274
 33
0.0
 40
0.0
 40
0.0
 40
0.0
 40
0.0
 40
0.0118403989
 40
0.129936212
 40
0.2893704519
 40
0.3849446381
 40
0.4942046187
 40
0.5829837405
 40
0.6627878179
 40
0.8017894593
 40
0.9166623601
 40
1.0
 40
1.0
 40
1.0
 40
1.0
 10
-7.1762181259
 20
-6.7238985536
 30
0.0
 10
-7.1798090359
 20
-6.7192781955
 30
0.0
 10
-7.2205590268
 20
-6.6693213482
 30
0.0
 10
-7.3114525713
 20
-6.5689206634
 30
0.0
 10
-7.4739873291
 20
-6.4830430449
 30
0.0
 10
-7.6435478711
 20
-6.4447865339
 30
0.0
 10
-7.7842795814
 20
-6.4411924113
 30
0.0
 10
-7.9157218573
 20
-6.4601338373
 30
0.0
 10
-8.0553895292
 20
-6.5060413505
 30
0.0
 10
-8.1922668925
 20
-6.5922650548
 30
0.0
 10
-8.29918375
 20
-6.7138642369
 30
0.0
 10
-8.3452915754
 20
-6.7973790016
 30
0.0
 10
-8.3588060363
 20
-6.8346662487
 30
0.0
 11
-7.1762181259
 21
-6.7238985536
 31
0.0
 11
-7.1872362291
 21
-6.7102140607
 31
0.0
 11
-7.3045745664
 21
-6.5891326477
 31
0.0
 11
-7.5047824401
 21
-6.4808190818
 31
0.0
 11
-7.6377939931
 21
-6.450361392
 31
0.0
 11
-7.793720778
 21
-6.4457890445
 31
0.0
 11
-7.9190793692
 21
-6.464536337
 31
0.0
 11
-8.0272322404
 21
-6.5003830632
 31
0.0
 11
-8.1950756686
 21
-6.6062779139
 31
0.0
 11
-8.3035607547
 21
-6.7292797902
 31
0.0
 11
-8.3588060363
 21
-6.8346662487
 31
0.0
  0
SPLINE
  5
6E2
100
AcDbEntity
  8
0
100
AcDbSpline
 62
7
  6
CONTINUOUS
 70
0
 71
3
 72
9
 73
5
 74
3
 42
0.0000001
 43
0.0000001
 44
0.0000000001
 12
-0.4237652825
 22
-1.1708856595
 32
0.0
 13
0.1812386266
 23
-1.2319350728
 33
0.0
 40
0.0
 40
0.0
 40
0.0
 40
0.0
 40
0.2960597147
 40
1.0
 40
1.0
 40
1.0
 40
1.0
 10
-8.3588060363
 20
-6.8346662487
 30
0.0
 10
-8.4006259792
 20
-6.9502169401
 30
0.0
 10
-8.4686637959
 20
-7.3651846492
 30
0.0
 10
-8.4267900081
 20
-7.7823300455
 30
0.0
 10
-8.3842629513
 20
-8.071399621
 30
0.0
 11
-8.3588060363
 21
-6.8346662487
 31
0.0
 11
-8.4312785914
 21
-7.1961182604
 31
0.0
 11
-8.3842629513
 21
-8.071399621
 31
0.0
  0
SPLINE
  5
6E3
100
AcDbEntity
  8
0
100
AcDbSpline
 62
7
  6
CONTINUOUS
 70
0
 71
3
 72
9
 73
5
 74
3
 42
0.0000001
 43
0.0000001
 44
0.0000000001
 12
-0.0
 22
0.3676195467
 32
0.0
 13
0.3441492651
 23
0.1294881453
 33
0.0
 40
0.0
 40
0.0
 40
0.0
 40
0.0
 40
0.3562265231
 40
1.0
 40
1.0
 40
1.0
 40
1.0
 10
-6.9516727109
 20
-7.3039071434
 30
0.0
 10
-6.9516727109
 20
-7.2602551991
 30
0.0
 10
-6.9252632515
 20
-7.1347903727
 30
0.0
 10
-6.8143783633
 20
-7.0523366676
 30
0.0
 10
-6.7405269737
 20
-7.0245496564
 30
0.0
 11
-6.9516727109
 21
-7.3039071434
 31
0.0
 11
-6.9221375043
 21
-7.176325398
 31
0.0
 11
-6.7405269737
 21
-7.0245496564
 31
0.0
  0
SPLINE
  5
6E4
100
AcDbEntity
  8
0
100
AcDbSpline
 62
7
  6
CONTINUOUS
 70
0
 71
3
 72
9
 73
5
 74
3
 42
0.0000001
 43
0.0000001
 44
0.0000000001
 12
0.7116792328
 22
0.2674899273
 32
0.0
 13
0.7306859278
 23
0.2100751382
 33
0.0
 40
0.0
 40
0.0
 40
0.0
 40
0.0
 40
0.5588087407
 40
1.0
 40
1.0
 40
1.0
 40
1.0
 10
-6.7405269737
 20
-7.0245496564
 30
0.0
 10
-6.6079627817
 20
-6.9747244199
 30
0.0
 10
-6.3625595574
 20
-6.9092513719
 30
0.0
 10
-6.1199960328
 20
-6.8362886829
 30
0.0
 10
-6.0125386179
 20
-6.8053942447
 30
0.0
 11
-6.7405269737
 21
-7.0245496564
 31
0.0
 11
-6.3345825934
 21
-6.8992118276
 31
0.0
 11
-6.0125386179
 21
-6.8053942447
 31
0.0
  0
SPLINE
  5
6E5
100
AcDbEntity
  8
0
100
AcDbSpline
 62
7
  6
CONTINUOUS
 70
0
 71
3
 72
9
 73
5
 74
3
 42
0.0000001
 43
0.0000001
 44
0.0000000001
 12
-0.0661852448
 22
0.3878774082
 32
0.0
 13
0.0453602183
 23
0.3908607327
 33
0.0
 40
0.0
 40
0.0
 40
0.0
 40
0.0
 40
0.270412968
 40
1.0
 40
1.0
 40
1.0
 40
1.0
 10
-8.0034769815
 20
-7.5891007185
 30
0.0
 10
-8.0094427643
 20
-7.5541383581
 30
0.0
 10
-8.0290624716
 20
-7.42444137
 30
0.0
 10
-8.0286378545
 20
-7.2917527028
 30
0.0
 10
-8.0176064455
 20
-7.1966970621
 30
0.0
 11
-8.0034769815
 21
-7.5891007185
 31
0.0
 11
-8.0185879063
 21
-7.4837761021
 31
0.0
 11
-8.0176064455
 21
-7.1966970621
 31
0.0
  0
SPLINE
  5
6E6
100
AcDbEntity
  8
0
100
AcDbSpline
 62
7
  6
CONTINUOUS
 70
0
 71
3
 72
9
 73
5
 74
3
 42
0.0000001
 43
0.0000001
 44
0.0000000001
 12
0.0509737423
 22
0.4393342031
 32
0.0
 13
0.4422325687
 23
0.0069167336
 33
0.0
 40
0.0
 40
0.0
 40
0.0
 40
0.0
 40
0.5013799112
 40
1.0
 40
1.0
 40
1.0
 40
1.0
 10
-8.0176064455
 20
-7.1966970621
 30
0.0
 10
-8.0090873754
 20
-7.1232726142
 30
0.0
 10
-7.9444351278
 20
-6.9747660309
 30
0.0
 10
-7.791119585
 20
-6.9148591051
 30
0.0
 10
-7.7176175707
 20
-6.9137094976
 30
0.0
 11
-8.0176064455
 21
-7.1966970621
 31
0.0
 11
-7.921968359
 21
-6.9966285218
 31
0.0
 11
-7.7176175707
 21
-6.9137094976
 31
0.0
  0
SPLINE
  5
6E7
100
AcDbEntity
  8
0
100
AcDbSpline
 62
7
  6
CONTINUOUS
 70
0
 71
3
 72
9
 73
5
 74
3
 42
0.0000001
 43
0.0000001
 44
0.0000000001
 12
0.5978039072
 22
0.0092242968
 32
0.0
 13
0.0133506454
 23
-0.5977259903
 33
0.0
 40
0.0
 40
0.0
 40
0.0
 40
0.0
 40
0.5206208722
 40
1.0
 40
1.0
 40
1.0
 40
1.0
 10
-7.7176175707
 20
-6.9137094976
 30
0.0
 10
-7.6138745069
 20
-6.9121087105
 30
0.0
 10
-7.3872488045
 20
-6.9853981495
 30
0.0
 10
-7.3468289992
 20
-7.2073149554
 30
0.0
 10
-7.344695659
 20
-7.30282741
 30
0.0
 11
-7.7176175707
 21
-6.9137094976
 31
0.0
 11
-7.428372746
 21
-7.0287056008
 31
0.0
 11
-7.344695659
 21
-7.30282741
 31
0.0
  0
SPLINE
  5
6E8
100
AcDbEntity
  8
ASSI
100
AcDbSpline
 62
253
  6
CONTINUOUS
 70
0
 71
3
 72
25
 73
21
 74
19
 42
0.0000001
 43
0.0000001
 44
0.0000000001
 12
-0.1885513154
 22
0.1952558163
 32
0.0
 13
-0.1903870649
 23
-0.1934662706
 33
0.0
 40
0.0
 40
0.0
 40
0.0
 40
0.0
 40
0.0032993224
 40
0.0112229513
 40
0.0237271288
 40
0.0407190122
 40
0.0874357045
 40
0.1496533678
 40
0.2250209446
 40
0.3107340552
 40
0.5000006095
 40
0.6892666206
 40
0.7749788229
 40
0.8503426385
 40
0.9125597899
 40
0.9592803118
 40
0.9762710712
 40
0.9887708994
 40
0.9966927945
 40
1.0
 40
1.0
 40
1.0
 40
1.0
 10
4.1019220988
 20
-23.9018840226
 30
0.0
 10
4.101714735
 20
-23.9016692853
 30
0.0
 10
4.1005661804
 20
-23.9016688371
 30
0.0
 10
4.098549934
 20
-23.9013302221
 30
0.0
 10
4.09510662
 20
-23.9011950848
 30
0.0
 10
4.0882544915
 20
-23.9008432663
 30
0.0
 10
4.0768392338
 20
-23.9005408964
 30
0.0
 10
4.0601790994
 20
-23.9001926342
 30
0.0
 10
4.0399730481
 20
-23.8999212826
 30
0.0
 10
4.0082772402
 20
-23.8996345298
 30
0.0
 10
3.9662723797
 20
-23.8995040986
 30
0.0
 10
3.9242676361
 20
-23.8996345596
 30
0.0
 10
3.89257225
 20
-23.8999212766
 30
0.0
 10
3.8723667868
 20
-23.9001927377
 30
0.0
 10
3.8557063604
 20
-23.9005407828
 30
0.0
 10
3.844291636
 20
-23.9008436703
 30
0.0
 10
3.8374386194
 20
-23.9011946585
 30
0.0
 10
3.8339977802
 20
-23.901331217
 30
0.0
 10
3.8319779444
 20
-23.9016673067
 30
0.0
 10
3.8308327193
 20
-23.901670745
 30
0.0
 10
3.8306228363
 20
-23.9018840226
 30
0.0
 11
4.1019220988
 21
-23.9018840226
 31
0.0
 11
4.1010562723
 21
-23.9016552184
 31
0.0
 11
4.0989175283
 21
-23.9014283546
 31
0.0
 11
4.0955307626
 21
-23.901205965
 31
0.0
 11
4.0909236219
 21
-23.9009905227
 31
0.0
 11
4.0782495006
 21
-23.9005883653
 31
0.0
 11
4.0613651764
 21
-23.9002364582
 31
0.0
 11
4.0409098873
 21
-23.8999478441
 31
0.0
 11
4.0176454184
 21
-23.8997336478
 31
0.0
 11
3.9662723376
 21
-23.8995572797
 31
0.0
 11
3.9148994044
 21
-23.8997336642
 31
0.0
 11
3.8916351821
 21
-23.8999478674
 31
0.0
 11
3.8711809142
 21
-23.9002364928
 31
0.0
 11
3.8542967292
 21
-23.9005884107
 31
0.0
 11
3.8416215677
 21
-23.9009905596
 31
0.0
 11
3.8370147317
 21
-23.901205989
 31
0.0
 11
3.8336291484
 21
-23.9014283662
 31
0.0
 11
3.8314908767
 21
-23.9016552219
 31
0.0
 11
3.8306228363
 21
-23.9018840226
 31
0.0
  0
SPLINE
  5
6E9
100
AcDbEntity
  8
ASSI
100
AcDbSpline
 62
253
  6
CONTINUOUS
 70
0
 71
3
 72
9
 73
5
 74
3
 42
0.0000001
 43
0.0000001
 44
0.0000000001
 12
0.0000006052
 22
0.0433040268
 32
0.0
 13
-0.0013082134
 23
0.0432842617
 33
0.0
 40
0.0
 40
0.0
 40
0.0
 40
0.0
 40
0.2986883658
 40
1.0
 40
1.0
 40
1.0
 40
1.0
 10
-10.5859750215
 20
-23.8443375673
 30
0.0
 10
-10.5859749612
 20
-23.8400260976
 30
0.0
 10
-10.5860182947
 20
-23.8255919006
 30
0.0
 10
-10.5861055763
 20
-23.8111548825
 30
0.0
 10
-10.5864113981
 20
-23.8010362971
 30
0.0
 11
-10.5859750215
 21
-23.8443375673
 31
0.0
 11
-10.5860047684
 21
-23.8314031925
 31
0.0
 11
-10.5864113981
 21
-23.8010362971
 31
0.0
  0
SPLINE
  5
6EA
100
AcDbEntity
  8
ASSI
100
AcDbSpline
 62
253
  6
CONTINUOUS
 70
0
 71
3
 72
14
 73
10
 74
8
 42
0.0000001
 43
0.0000001
 44
0.0000000001
 12
0.0353853364
 22
0.0353456974
 32
0.0
 13
0.0000000241
 23
0.0500144015
 33
0.0
 40
0.0
 40
0.0
 40
0.0
 40
0.0
 40
0.0223887733
 40
0.081330048
 40
0.174755207
 40
0.299184792
 40
0.44995127
 40
0.6213968764
 40
1.0
 40
1.0
 40
1.0
 40
1.0
 10
-10.5868325431
 20
-24.286863004
 30
0.0
 10
-10.586568465
 20
-24.2865992218
 30
0.0
 10
-10.5868043236
 20
-24.2850245546
 30
0.0
 10
-10.5863527733
 20
-24.2823118149
 30
0.0
 10
-10.5863839743
 20
-24.2775939037
 30
0.0
 10
-10.5861921021
 20
-24.2714930317
 30
0.0
 10
-10.5861148161
 20
-24.2640320217
 30
0.0
 10
-10.5859995564
 20
-24.2523553421
 30
0.0
 10
-10.5859750245
 20
-24.2431824888
 30
0.0
 10
-10.5859750215
 20
-24.2368706193
 30
0.0
 11
-10.5868325431
 21
-24.286863004
 31
0.0
 11
-10.5866645219
 21
-24.2857559206
 31
0.0
 11
-10.5865033614
 21
-24.2828124166
 31
0.0
 11
-10.5863551092
 21
-24.2781421656
 31
0.0
 11
-10.58622536
 21
-24.2719202471
 31
0.0
 11
-10.5861189992
 21
-24.2643805021
 31
0.0
 11
-10.586040032
 21
-24.2558061163
 31
0.0
 11
-10.5859750215
 21
-24.2368706193
 31
0.0
  0
SPLINE
  5
6EB
100
AcDbEntity
  8
ASSI
100
AcDbSpline
 62
253
  6
CONTINUOUS
 70
0
 71
3
 72
25
 73
21
 74
19
 42
0.0000001
 43
0.0000001
 44
0.0000000001
 12
0.1903870567
 22
-0.1934662786
 32
0.0
 13
0.1885513186
 23
0.1952558131
 33
0.0
 40
0.0
 40
0.0
 40
0.0
 40
0.0
 40
0.0033072054
 40
0.0112291006
 40
0.0237289288
 40
0.0407196882
 40
0.0874402101
 40
0.1496573615
 40
0.2250211771
 40
0.3107333794
 40
0.4999993905
 40
0.6892659448
 40
0.7749790554
 40
0.8503466322
 40
0.9125642955
 40
0.9592809878
 40
0.9762728712
 40
0.9887770487
 40
0.9967006776
 40
1.0
 40
1.0
 40
1.0
 40
1.0
 10
3.8306228363
 20
23.9018840226
 30
0.0
 10
3.8308327193
 20
23.901670745
 30
0.0
 10
3.8319779444
 20
23.9016673067
 30
0.0
 10
3.8339977802
 20
23.901331217
 30
0.0
 10
3.8374386194
 20
23.9011946585
 30
0.0
 10
3.844291636
 20
23.9008436703
 30
0.0
 10
3.8557063604
 20
23.9005407828
 30
0.0
 10
3.8723667868
 20
23.9001927377
 30
0.0
 10
3.89257225
 20
23.8999212766
 30
0.0
 10
3.9242676361
 20
23.8996345596
 30
0.0
 10
3.9662723797
 20
23.8995040986
 30
0.0
 10
4.0082772402
 20
23.8996345298
 30
0.0
 10
4.0399730481
 20
23.8999212826
 30
0.0
 10
4.0601790994
 20
23.9001926342
 30
0.0
 10
4.0768392338
 20
23.9005408964
 30
0.0
 10
4.0882544915
 20
23.9008432663
 30
0.0
 10
4.09510662
 20
23.9011950848
 30
0.0
 10
4.098549934
 20
23.9013302221
 30
0.0
 10
4.1005661804
 20
23.9016688371
 30
0.0
 10
4.101714735
 20
23.9016692853
 30
0.0
 10
4.1019220988
 20
23.9018840226
 30
0.0
 11
3.8306228363
 21
23.9018840226
 31
0.0
 11
3.8314908767
 21
23.9016552219
 31
0.0
 11
3.8336291484
 21
23.9014283662
 31
0.0
 11
3.8370147317
 21
23.901205989
 31
0.0
 11
3.8416215677
 21
23.9009905596
 31
0.0
 11
3.8542967292
 21
23.9005884107
 31
0.0
 11
3.8711809142
 21
23.9002364928
 31
0.0
 11
3.8916351821
 21
23.8999478674
 31
0.0
 11
3.9148994044
 21
23.8997336642
 31
0.0
 11
3.9662723376
 21
23.8995572797
 31
0.0
 11
4.0176454184
 21
23.8997336478
 31
0.0
 11
4.0409098873
 21
23.8999478441
 31
0.0
 11
4.0613651764
 21
23.9002364582
 31
0.0
 11
4.0782495006
 21
23.9005883653
 31
0.0
 11
4.0909236219
 21
23.9009905227
 31
0.0
 11
4.0955307626
 21
23.901205965
 31
0.0
 11
4.0989175283
 21
23.9014283546
 31
0.0
 11
4.1010562723
 21
23.9016552184
 31
0.0
 11
4.1019220988
 21
23.9018840226
 31
0.0
  0
SPLINE
  5
6EC
100
AcDbEntity
  8
ASSI
100
AcDbSpline
 62
253
  6
CONTINUOUS
 70
0
 71
3
 72
14
 73
10
 74
8
 42
0.0000001
 43
0.0000001
 44
0.0000000001
 12
0.0000000171
 22
0.0500143994
 32
0.0
 13
-0.0353375939
 23
0.035393426
 33
0.0
 40
0.0
 40
0.0
 40
0.0
 40
0.0
 40
0.3784749852
 40
0.5499132458
 40
0.7006959891
 40
0.8251541655
 40
0.9186156704
 40
0.977592881
 40
1.0
 40
1.0
 40
1.0
 40
1.0
 10
-10.5859750215
 20
24.2368706193
 30
0.0
 10
-10.5859750193
 20
24.2431803523
 30
0.0
 10
-10.5859995531
 20
24.2523509352
 30
0.0
 10
-10.5861147326
 20
24.2640256529
 30
0.0
 10
-10.5861920462
 20
24.2714872316
 30
0.0
 10
-10.5863837683
 20
24.2775896085
 30
0.0
 10
-10.5863528656
 20
24.2823088588
 30
0.0
 10
-10.5868039645
 20
24.2850237059
 30
0.0
 10
-10.5865686052
 20
24.2865986491
 30
0.0
 10
-10.5868325431
 20
24.2868630041
 30
0.0
 11
-10.5859750215
 21
24.2368706193
 31
0.0
 11
-10.5860399865
 21
24.2557997069
 31
0.0
 11
-10.5861189221
 21
24.2643737252
 31
0.0
 11
-10.5862252577
 21
24.2719142838
 31
0.0
 11
-10.5863549922
 21
24.2781376326
 31
0.0
 11
-10.5865032504
 21
24.2828097019
 31
0.0
 11
-10.5866644481
 21
24.2857550038
 31
0.0
 11
-10.5868325431
 21
24.2868630041
 31
0.0
  0
SPLINE
  5
6ED
100
AcDbEntity
  8
ASSI
100
AcDbSpline
 62
253
  6
CONTINUOUS
 70
0
 71
3
 72
9
 73
5
 74
3
 42
0.0000001
 43
0.0000001
 44
0.0000000001
 12
0.0013110427
 22
0.0432843983
 32
0.0
 13
0.0000001007
 23
0.0433042489
 33
0.0
 40
0.0
 40
0.0
 40
0.0
 40
0.0
 40
0.1834520378
 40
1.0
 40
1.0
 40
1.0
 40
1.0
 10
-10.5864113981
 20
23.8010362971
 30
0.0
 10
-10.586331227
 20
23.8036831675
 30
0.0
 10
-10.5860359079
 20
23.8181153116
 30
0.0
 10
-10.5859750489
 20
23.8325509019
 30
0.0
 10
-10.5859750215
 20
23.8443375673
 30
0.0
 11
-10.5864113981
 21
23.8010362971
 31
0.0
 11
-10.5862307638
 21
23.8089784959
 31
0.0
 11
-10.5859750215
 21
23.8443375673
 31
0.0
  0
SPLINE
  5
6EE
100
AcDbEntity
  8
ASSI
100
AcDbSpline
 62
253
  6
CONTINUOUS
 70
0
 71
3
 72
25
 73
21
 74
19
 42
0.0000001
 43
0.0000001
 44
0.0000000001
 12
0.1903870567
 22
-0.1934662786
 32
0.0
 13
0.1885513186
 23
0.1952558131
 33
0.0
 40
0.0
 40
0.0
 40
0.0
 40
0.0
 40
0.0033072054
 40
0.0112291006
 40
0.0237289288
 40
0.0407196882
 40
0.0874402101
 40
0.1496573615
 40
0.2250211771
 40
0.3107333794
 40
0.4999993905
 40
0.6892659448
 40
0.7749790554
 40
0.8503466322
 40
0.9125642955
 40
0.9592809878
 40
0.9762728712
 40
0.9887770487
 40
0.9967006776
 40
1.0
 40
1.0
 40
1.0
 40
1.0
 10
-4.1019220988
 20
23.9018840226
 30
0.0
 10
-4.1017122158
 20
23.901670745
 30
0.0
 10
-4.1005669907
 20
23.9016673067
 30
0.0
 10
-4.0985471548
 20
23.901331217
 30
0.0
 10
-4.0951063157
 20
23.9011946585
 30
0.0
 10
-4.088253299
 20
23.9008436703
 30
0.0
 10
-4.0768385747
 20
23.9005407828
 30
0.0
 10
-4.0601781483
 20
23.9001927377
 30
0.0
 10
-4.039972685
 20
23.8999212766
 30
0.0
 10
-4.0082772989
 20
23.8996345596
 30
0.0
 10
-3.9662725553
 20
23.8995040986
 30
0.0
 10
-3.9242676949
 20
23.8996345298
 30
0.0
 10
-3.8925718869
 20
23.8999212826
 30
0.0
 10
-3.8723658356
 20
23.9001926342
 30
0.0
 10
-3.8557057013
 20
23.9005408964
 30
0.0
 10
-3.8442904436
 20
23.9008432663
 30
0.0
 10
-3.8374383151
 20
23.9011950848
 30
0.0
 10
-3.8339950011
 20
23.9013302221
 30
0.0
 10
-3.8319787547
 20
23.9016688371
 30
0.0
 10
-3.8308302001
 20
23.9016692853
 30
0.0
 10
-3.8306228363
 20
23.9018840226
 30
0.0
 11
-4.1019220988
 21
23.9018840226
 31
0.0
 11
-4.1010540584
 21
23.9016552219
 31
0.0
 11
-4.0989157867
 21
23.9014283662
 31
0.0
 11
-4.0955302034
 21
23.901205989
 31
0.0
 11
-4.0909233674
 21
23.9009905596
 31
0.0
 11
-4.0782482058
 21
23.9005884107
 31
0.0
 11
-4.0613640208
 21
23.9002364928
 31
0.0
 11
-4.040909753
 21
23.8999478674
 31
0.0
 11
-4.0176455306
 21
23.8997336642
 31
0.0
 11
-3.9662725974
 21
23.8995572797
 31
0.0
 11
-3.9148995167
 21
23.8997336478
 31
0.0
 11
-3.8916350477
 21
23.8999478441
 31
0.0
 11
-3.8711797587
 21
23.9002364582
 31
0.0
 11
-3.8542954345
 21
23.9005883653
 31
0.0
 11
-3.8416213132
 21
23.9009905227
 31
0.0
 11
-3.8370141724
 21
23.901205965
 31
0.0
 11
-3.8336274068
 21
23.9014283546
 31
0.0
 11
-3.8314886627
 21
23.9016552184
 31
0.0
 11
-3.8306228363
 21
23.9018840226
 31
0.0
  0
LINE
  5
6EF
100
AcDbEntity
  8
0
100
AcDbLine
 62
7
  6
CONTINUOUS
 10
9.4492944489
 20
20.833111737
 11
7.3678819614
 21
20.8321180386
  0
LINE
  5
6F0
100
AcDbEntity
  8
0
100
AcDbLine
 62
7
  6
CONTINUOUS
 10
-7.3678819614
 20
20.8321180386
 11
-9.4492944489
 21
20.833111737
  0
LINE
  5
6F1
100
AcDbEntity
  8
RACCORDO
100
AcDbLine
 62
7
  6
CONTINUOUS
 10
-7.3678819614
 20
-20.8321180386
 11
-7.3693638587
 21
-16.8917556906
  0
SPLINE
  5
6F2
100
AcDbEntity
  8
RACCORDO
100
AcDbSpline
 62
253
  6
CONTINUOUS
 70
0
 71
3
 72
10
 73
6
 74
4
 42
0.0000001
 43
0.0000001
 44
0.0000000001
 12
0.0000000488
 22
0.1969053564
 32
0.0
 13
-0.0096494997
 23
0.1966687737
 33
0.0
 40
0.0
 40
0.0
 40
0.0
 40
0.0
 40
0.6521276054
 40
0.878912007
 40
1.0
 40
1.0
 40
1.0
 40
1.0
 10
-7.2153265358
 20
-20.206013577
 30
0.0
 10
-7.2153265252
 20
-20.1632111041
 30
0.0
 10
-7.2153798662
 20
-20.1055187125
 30
0.0
 10
-7.2161188788
 20
-20.0398943771
 30
0.0
 10
-7.2163760993
 20
-20.0170561236
 30
0.0
 10
-7.2167655789
 20
-20.0091180479
 30
0.0
 11
-7.2153265358
 21
-20.206013577
 31
0.0
 11
-7.2157338935
 21
-20.0776068045
 31
0.0
 11
-7.2161970486
 21
-20.0329541431
 31
0.0
 11
-7.2167655789
 21
-20.0091180479
 31
0.0
  0
LINE
  5
6F3
100
AcDbEntity
  8
RACCORDO
100
AcDbLine
 62
7
  6
CONTINUOUS
 10
-7.3693640767
 20
16.8911083256
 11
-7.3678819614
 21
20.8321180386
  0
SPLINE
  5
6F4
100
AcDbEntity
  8
RACCORDO
100
AcDbSpline
 62
253
  6
CONTINUOUS
 70
0
 71
3
 72
10
 73
6
 74
4
 42
0.0000001
 43
0.0000001
 44
0.0000000001
 12
0.0000001863
 22
-0.1969041333
 32
0.0
 13
-0.0096264746
 23
-0.1966686775
 33
0.0
 40
0.0
 40
0.0
 40
0.0
 40
0.0
 40
0.6521199178
 40
0.8789099121
 40
1.0
 40
1.0
 40
1.0
 40
1.0
 10
-7.2153265358
 20
20.2059987693
 30
0.0
 10
-7.2153264953
 20
20.1631970669
 30
0.0
 10
-7.2153807285
 20
20.1055052134
 30
0.0
 10
-7.2161180605
 20
20.0398812043
 30
0.0
 10
-7.2163769621
 20
20.0170426715
 30
0.0
 10
-7.216765519
 20
20.0091044624
 30
0.0
 11
-7.2153265358
 21
20.2059987693
 31
0.0
 11
-7.2157338755
 21
20.0775943082
 31
0.0
 11
-7.2161970158
 21
20.0329408227
 31
0.0
 11
-7.216765519
 21
20.0091044624
 31
0.0
  0
SPLINE
  5
6F5
100
AcDbEntity
  8
RACCORDO
100
AcDbSpline
 62
253
  6
CONTINUOUS
 70
0
 71
3
 72
10
 73
6
 74
4
 42
0.0000001
 43
0.0000001
 44
0.0000000001
 12
-0.0000000488
 22
-0.1969053564
 32
0.0
 13
0.0096494997
 23
-0.1966687737
 33
0.0
 40
0.0
 40
0.0
 40
0.0
 40
0.0
 40
0.6521276054
 40
0.878912007
 40
1.0
 40
1.0
 40
1.0
 40
1.0
 10
7.2153265358
 20
20.206013577
 30
0.0
 10
7.2153265252
 20
20.1632111041
 30
0.0
 10
7.2153798662
 20
20.1055187125
 30
0.0
 10
7.2161188788
 20
20.0398943771
 30
0.0
 10
7.2163760993
 20
20.0170561236
 30
0.0
 10
7.2167655789
 20
20.0091180479
 30
0.0
 11
7.2153265358
 21
20.206013577
 31
0.0
 11
7.2157338935
 21
20.0776068045
 31
0.0
 11
7.2161970486
 21
20.0329541431
 31
0.0
 11
7.2167655789
 21
20.0091180479
 31
0.0
  0
LINE
  5
6F6
100
AcDbEntity
  8
RACCORDO
100
AcDbLine
 62
7
  6
CONTINUOUS
 10
7.3678819614
 20
20.8321180386
 11
7.3693638588
 21
16.8917556906
  0
LINE
  5
6F7
100
AcDbEntity
  8
RACCORDO
100
AcDbLine
 62
7
  6
CONTINUOUS
 10
7.3693638588
 20
-16.8917556906
 11
7.3678819614
 21
-20.8321180386
  0
SPLINE
  5
6F8
100
AcDbEntity
  8
RACCORDO
100
AcDbSpline
 62
253
  6
CONTINUOUS
 70
0
 71
3
 72
10
 73
6
 74
4
 42
0.0000001
 43
0.0000001
 44
0.0000000001
 12
-0.0000001863
 22
0.1969053566
 32
0.0
 13
0.0096284686
 23
0.1966698046
 33
0.0
 40
0.0
 40
0.0
 40
0.0
 40
0.0
 40
0.6521294178
 40
0.8789177461
 40
1.0
 40
1.0
 40
1.0
 40
1.0
 10
7.2153265358
 20
-20.206013577
 30
0.0
 10
7.2153264953
 20
-20.1632109851
 30
0.0
 10
7.215380692
 20
-20.1055182562
 30
0.0
 10
7.2161181196
 20
-20.0398938447
 30
0.0
 10
7.2163769666
 20
-20.0170557889
 30
0.0
 10
7.2167655789
 20
-20.0091180479
 30
0.0
 11
7.2153265358
 21
-20.206013577
 31
0.0
 11
7.215733895
 21
-20.0776064476
 31
0.0
 11
7.2161970552
 21
-20.0329530129
 31
0.0
 11
7.2167655789
 21
-20.0091180479
 31
0.0
  0
LINE
  5
6F9
100
AcDbEntity
  8
RACCORDO
100
AcDbLine
 62
7
  6
CONTINUOUS
 10
6.4317224778
 20
-20.7634345551
 11
6.430230464
 21
-16.88346829
  0
SPLINE
  5
6FA
100
AcDbEntity
  8
RACCORDO
100
AcDbSpline
 62
253
  6
CONTINUOUS
 70
0
 71
3
 72
10
 73
6
 74
4
 42
0.0000001
 43
0.0000001
 44
0.0000000001
 12
0.0000000488
 22
0.1969053564
 32
0.0
 13
-0.0096494997
 23
0.1966687737
 33
0.0
 40
0.0
 40
0.0
 40
0.0
 40
0.0
 40
0.6521276054
 40
0.878912007
 40
1.0
 40
1.0
 40
1.0
 40
1.0
 10
6.5846734642
 20
-20.206013577
 30
0.0
 10
6.5846734748
 20
-20.1632111041
 30
0.0
 10
6.5846201338
 20
-20.1055187125
 30
0.0
 10
6.5838811212
 20
-20.0398943771
 30
0.0
 10
6.5836239007
 20
-20.0170561236
 30
0.0
 10
6.5832344211
 20
-20.0091180479
 30
0.0
 11
6.5846734642
 21
-20.206013577
 31
0.0
 11
6.5842661065
 21
-20.0776068045
 31
0.0
 11
6.5838029514
 21
-20.0329541431
 31
0.0
 11
6.5832344211
 21
-20.0091180479
 31
0.0
  0
SPLINE
  5
6FB
100
AcDbEntity
  8
RACCORDO
100
AcDbSpline
 62
253
  6
CONTINUOUS
 70
0
 71
3
 72
10
 73
6
 74
4
 42
0.0000001
 43
0.0000001
 44
0.0000000001
 12
0.0096494997
 22
0.1966687737
 32
0.0
 13
-0.0000000488
 23
0.1969053564
 33
0.0
 40
0.0
 40
0.0
 40
0.0
 40
0.0
 40
0.121087993
 40
0.3478723946
 40
1.0
 40
1.0
 40
1.0
 40
1.0
 10
6.5832344211
 20
20.0091180479
 30
0.0
 10
6.5836239007
 20
20.0170561236
 30
0.0
 10
6.5838811212
 20
20.0398943771
 30
0.0
 10
6.5846201338
 20
20.1055187125
 30
0.0
 10
6.5846734748
 20
20.1632111041
 30
0.0
 10
6.5846734642
 20
20.206013577
 30
0.0
 11
6.5832344211
 21
20.0091180479
 31
0.0
 11
6.5838029514
 21
20.0329541431
 31
0.0
 11
6.5842661065
 21
20.0776068045
 31
0.0
 11
6.5846734642
 21
20.206013577
 31
0.0
  0
LINE
  5
6FC
100
AcDbEntity
  8
RACCORDO
100
AcDbLine
 62
7
  6
CONTINUOUS
 10
6.430230464
 20
16.88346829
 11
6.4317224778
 21
20.7634345551
  0
LINE
  5
6FD
100
AcDbEntity
  8
0
100
AcDbLine
 62
7
  6
CONTINUOUS
 10
7.3678819614
 20
-20.8321180386
 11
9.4492944489
 21
-20.833111737
  0
LINE
  5
6FE
100
AcDbEntity
  8
0
100
AcDbLine
 62
7
  6
CONTINUOUS
 10
-9.4492944489
 20
-20.833111737
 11
-7.3678819614
 21
-20.8321180386
  0
SPLINE
  5
6FF
100
AcDbEntity
  8
RACCORDO
100
AcDbSpline
 62
253
  6
CONTINUOUS
 70
0
 71
3
 72
10
 73
6
 74
4
 42
0.0000001
 43
0.0000001
 44
0.0000000001
 12
-0.0000000489
 22
-0.1969041331
 32
0.0
 13
0.0096474958
 23
-0.1966676472
 33
0.0
 40
0.0
 40
0.0
 40
0.0
 40
0.0
 40
0.6521181055
 40
0.8789041736
 40
1.0
 40
1.0
 40
1.0
 40
1.0
 10
-6.5846734642
 20
20.2059987693
 30
0.0
 10
-6.5846734748
 20
20.1631971859
 30
0.0
 10
-6.5846200969
 20
20.1055056696
 30
0.0
 10
-6.5838811807
 20
20.0398817367
 30
0.0
 10
-6.5836239048
 20
20.0170430061
 30
0.0
 10
-6.583234481
 20
20.0091044624
 30
0.0
 11
-6.5846734642
 21
20.2059987693
 31
0.0
 11
-6.584266126
 21
20.0775946651
 31
0.0
 11
-6.5838029908
 21
20.0329419527
 31
0.0
 11
-6.583234481
 21
20.0091044624
 31
0.0
  0
LINE
  5
700
100
AcDbEntity
  8
RACCORDO
100
AcDbLine
 62
7
  6
CONTINUOUS
 10
-6.4317224778
 20
20.7634345551
 11
-6.4302302401
 21
16.8828191349
  0
LINE
  5
701
100
AcDbEntity
  8
RACCORDO
100
AcDbLine
 62
7
  6
CONTINUOUS
 10
-6.430230464
 20
-16.88346829
 11
-6.4317224778
 21
-20.7634345551
  0
SPLINE
  5
702
100
AcDbEntity
  8
RACCORDO
100
AcDbSpline
 62
253
  6
CONTINUOUS
 70
0
 71
3
 72
10
 73
6
 74
4
 42
0.0000001
 43
0.0000001
 44
0.0000000001
 12
-0.0000001863
 22
0.1969053566
 32
0.0
 13
0.0096284686
 23
0.1966698046
 33
0.0
 40
0.0
 40
0.0
 40
0.0
 40
0.0
 40
0.6521294178
 40
0.8789177461
 40
1.0
 40
1.0
 40
1.0
 40
1.0
 10
-6.5846734642
 20
-20.206013577
 30
0.0
 10
-6.5846735047
 20
-20.1632109851
 30
0.0
 10
-6.584619308
 20
-20.1055182562
 30
0.0
 10
-6.5838818804
 20
-20.0398938447
 30
0.0
 10
-6.5836230334
 20
-20.0170557889
 30
0.0
 10
-6.5832344211
 20
-20.0091180479
 30
0.0
 11
-6.5846734642
 21
-20.206013577
 31
0.0
 11
-6.584266105
 21
-20.0776064476
 31
0.0
 11
-6.5838029448
 21
-20.0329530129
 31
0.0
 11
-6.5832344211
 21
-20.0091180479
 31
0.0
  0
LINE
  5
703
100
AcDbEntity
  8
0
100
AcDbLine
 62
7
  6
CONTINUOUS
 10
-5.4372366227
 20
-20.7627633773
 11
-5.4379421647
 21
-19.9310341704
  0
LINE
  5
704
100
AcDbEntity
  8
0
100
AcDbLine
 62
7
  6
CONTINUOUS
 10
-6.4317224778
 20
-20.7634345551
 11
-5.4372366227
 21
-20.7627633773
  0
LINE
  5
705
100
AcDbEntity
  8
0
100
AcDbLine
 62
7
  6
CONTINUOUS
 10
5.4372366227
 20
-20.7627633773
 11
6.4317224778
 21
-20.7634345551
  0
LINE
  5
706
100
AcDbEntity
  8
0
100
AcDbLine
 62
7
  6
CONTINUOUS
 10
5.4379421647
 20
-19.9310341704
 11
5.4372366227
 21
-20.7627633773
  0
LINE
  5
707
100
AcDbEntity
  8
0
100
AcDbLine
 62
7
  6
CONTINUOUS
 10
-5.4372366227
 20
20.7627633773
 11
-6.4317224778
 21
20.7634345551
  0
LINE
  5
708
100
AcDbEntity
  8
0
100
AcDbLine
 62
7
  6
CONTINUOUS
 10
-5.4379421647
 20
19.9310341704
 11
-5.4372366227
 21
20.7627633773
  0
LINE
  5
709
100
AcDbEntity
  8
0
100
AcDbLine
 62
7
  6
CONTINUOUS
 10
5.4372366227
 20
20.7627633773
 11
5.4379421647
 21
19.9310341704
  0
LINE
  5
70A
100
AcDbEntity
  8
0
100
AcDbLine
 62
7
  6
CONTINUOUS
 10
6.4317224778
 20
20.7634345551
 11
5.4372366227
 21
20.7627633773
  0
SPLINE
  5
70B
100
AcDbEntity
  8
ASSI
100
AcDbSpline
 62
253
  6
CONTINUOUS
 70
0
 71
3
 72
21
 73
17
 74
15
 42
0.0000001
 43
0.0000001
 44
0.0000000001
 12
0.3322042724
 22
-0.6723986115
 32
0.0
 13
0.0000012325
 23
-0.7499863808
 33
0.0
 40
0.0
 40
0.0
 40
0.0
 40
0.0
 40
0.0020761064
 40
0.0064748838
 40
0.0131999047
 40
0.0222423331
 40
0.047220383
 40
0.0811680064
 40
0.1237648977
 40
0.1746133032
 40
0.2332250225
 40
0.2990673435
 40
0.4498729336
 40
0.621332998
 40
0.8070628718
 40
1.0
 40
1.0
 40
1.0
 40
1.0
 10
3.1286750776
 20
21.975182794
 30
0.0
 10
3.1289049747
 20
21.9747174704
 30
0.0
 10
3.1290323071
 20
21.9730542087
 30
0.0
 10
3.1293993086
 20
21.9698120037
 30
0.0
 10
3.1296553819
 20
21.9647559773
 30
0.0
 10
3.1301325644
 20
21.9545927577
 30
0.0
 10
3.1306325941
 20
21.9375989641
 30
0.0
 10
3.1312153759
 20
21.9122296448
 30
0.0
 10
3.1317670658
 20
21.8803850302
 30
0.0
 10
3.1322988145
 20
21.8423757134
 30
0.0
 10
3.1327969291
 20
21.7985534981
 30
0.0
 10
3.1334403343
 20
21.7297428911
 30
0.0
 10
3.1341028526
 20
21.6327197305
 30
0.0
 10
3.1346745702
 20
21.5057243778
 30
0.0
 10
3.135026982
 20
21.3681954785
 30
0.0
 10
3.1351059205
 20
21.2735304288
 30
0.0
 10
3.1351059998
 20
21.2252970227
 30
0.0
 11
3.1286750776
 21
21.975182794
 31
0.0
 11
3.1289920476
 21
21.9736583468
 31
0.0
 11
3.1293083566
 21
21.9703745224
 31
0.0
 11
3.1296231247
 21
21.9653406801
 31
0.0
 11
3.1299354721
 21
21.9585661787
 31
0.0
 11
3.130549492
 21
21.939843047
 31
0.0
 11
3.1311444998
 21
21.9143897454
 31
0.0
 11
3.1317151454
 21
21.882447754
 31
0.0
 11
3.1322561805
 21
21.8443159804
 31
0.0
 11
3.1327624714
 21
21.800360905
 31
0.0
 11
3.1332291225
 21
21.7509822659
 31
0.0
 11
3.1340265503
 21
21.6378829383
 31
0.0
 11
3.1346186058
 21
21.5092915881
 31
0.0
 11
3.1349829985
 21
21.3699971889
 31
0.0
 11
3.1351059998
 21
21.2252970227
 31
0.0
  0
SPLINE
  5
70C
100
AcDbEntity
  8
ASSI
100
AcDbSpline
 62
253
  6
CONTINUOUS
 70
0
 71
3
 72
21
 73
17
 74
15
 42
0.0000001
 43
0.0000001
 44
0.0000000001
 12
-0.0000012325
 22
-0.7499863808
 32
0.0
 13
-0.3322042713
 23
-0.6723986121
 33
0.0
 40
0.0
 40
0.0
 40
0.0
 40
0.0
 40
0.1929371282
 40
0.378667002
 40
0.5501270664
 40
0.7009326565
 40
0.7667749775
 40
0.8253866968
 40
0.8762351023
 40
0.9188319936
 40
0.952779617
 40
0.9777576669
 40
0.9868000953
 40
0.9935251162
 40
0.9979238936
 40
1.0
 40
1.0
 40
1.0
 40
1.0
 10
3.1351059998
 20
-21.2252970227
 30
0.0
 10
3.1351059205
 20
-21.2735304288
 30
0.0
 10
3.135026982
 20
-21.3681954785
 30
0.0
 10
3.1346745702
 20
-21.5057243778
 30
0.0
 10
3.1341028526
 20
-21.6327197305
 30
0.0
 10
3.1334403343
 20
-21.7297428911
 30
0.0
 10
3.1327969291
 20
-21.7985534981
 30
0.0
 10
3.1322988145
 20
-21.8423757134
 30
0.0
 10
3.1317670658
 20
-21.8803850302
 30
0.0
 10
3.1312153759
 20
-21.9122296448
 30
0.0
 10
3.1306325941
 20
-21.9375989641
 30
0.0
 10
3.1301325644
 20
-21.9545927577
 30
0.0
 10
3.1296553819
 20
-21.9647559773
 30
0.0
 10
3.1293993086
 20
-21.9698120037
 30
0.0
 10
3.1290323071
 20
-21.9730542087
 30
0.0
 10
3.1289049747
 20
-21.9747174703
 30
0.0
 10
3.1286750776
 20
-21.975182794
 30
0.0
 11
3.1351059998
 21
-21.2252970227
 31
0.0
 11
3.1349829985
 21
-21.3699971889
 31
0.0
 11
3.1346186058
 21
-21.5092915881
 31
0.0
 11
3.1340265503
 21
-21.6378829383
 31
0.0
 11
3.1332291225
 21
-21.7509822659
 31
0.0
 11
3.1327624714
 21
-21.800360905
 31
0.0
 11
3.1322561805
 21
-21.8443159804
 31
0.0
 11
3.1317151454
 21
-21.882447754
 31
0.0
 11
3.1311444998
 21
-21.9143897454
 31
0.0
 11
3.130549492
 21
-21.939843047
 31
0.0
 11
3.1299354721
 21
-21.9585661787
 31
0.0
 11
3.1296231247
 21
-21.9653406801
 31
0.0
 11
3.1293083566
 21
-21.9703745224
 31
0.0
 11
3.1289920476
 21
-21.9736583468
 31
0.0
 11
3.1286750776
 21
-21.975182794
 31
0.0
  0
SPLINE
  5
70D
100
AcDbEntity
  8
ASSI
100
AcDbSpline
 62
253
  6
CONTINUOUS
 70
0
 71
3
 72
21
 73
17
 74
15
 42
0.0000001
 43
0.0000001
 44
0.0000000001
 12
0.0000012325
 22
0.7499863808
 32
0.0
 13
0.3322042713
 23
0.6723986121
 33
0.0
 40
0.0
 40
0.0
 40
0.0
 40
0.0
 40
0.1929371282
 40
0.378667002
 40
0.5501270664
 40
0.7009326565
 40
0.7667749775
 40
0.8253866968
 40
0.8762351023
 40
0.9188319936
 40
0.952779617
 40
0.9777576669
 40
0.9868000953
 40
0.9935251162
 40
0.9979238936
 40
1.0
 40
1.0
 40
1.0
 40
1.0
 10
-3.1351059998
 20
21.2252970227
 30
0.0
 10
-3.1351059205
 20
21.2735304288
 30
0.0
 10
-3.135026982
 20
21.3681954785
 30
0.0
 10
-3.1346745702
 20
21.5057243778
 30
0.0
 10
-3.1341028526
 20
21.6327197305
 30
0.0
 10
-3.1334403343
 20
21.7297428911
 30
0.0
 10
-3.1327969291
 20
21.7985534981
 30
0.0
 10
-3.1322988145
 20
21.8423757134
 30
0.0
 10
-3.1317670658
 20
21.8803850302
 30
0.0
 10
-3.1312153759
 20
21.9122296448
 30
0.0
 10
-3.1306325941
 20
21.9375989641
 30
0.0
 10
-3.1301325644
 20
21.9545927577
 30
0.0
 10
-3.1296553819
 20
21.9647559773
 30
0.0
 10
-3.1293993086
 20
21.9698120037
 30
0.0
 10
-3.1290323071
 20
21.9730542087
 30
0.0
 10
-3.1289049747
 20
21.9747174704
 30
0.0
 10
-3.1286750776
 20
21.975182794
 30
0.0
 11
-3.1351059998
 21
21.2252970227
 31
0.0
 11
-3.1349829985
 21
21.3699971889
 31
0.0
 11
-3.1346186058
 21
21.5092915881
 31
0.0
 11
-3.1340265503
 21
21.6378829383
 31
0.0
 11
-3.1332291225
 21
21.7509822659
 31
0.0
 11
-3.1327624714
 21
21.800360905
 31
0.0
 11
-3.1322561805
 21
21.8443159804
 31
0.0
 11
-3.1317151454
 21
21.882447754
 31
0.0
 11
-3.1311444998
 21
21.9143897454
 31
0.0
 11
-3.130549492
 21
21.939843047
 31
0.0
 11
-3.1299354721
 21
21.9585661787
 31
0.0
 11
-3.1296231247
 21
21.9653406801
 31
0.0
 11
-3.1293083566
 21
21.9703745224
 31
0.0
 11
-3.1289920476
 21
21.9736583468
 31
0.0
 11
-3.1286750776
 21
21.975182794
 31
0.0
  0
SPLINE
  5
70E
100
AcDbEntity
  8
ASSI
100
AcDbSpline
 62
253
  6
CONTINUOUS
 70
0
 71
3
 72
21
 73
17
 74
15
 42
0.0000001
 43
0.0000001
 44
0.0000000001
 12
-0.3322042724
 22
0.6723986115
 32
0.0
 13
-0.0000012325
 23
0.7499863808
 33
0.0
 40
0.0
 40
0.0
 40
0.0
 40
0.0
 40
0.0020761064
 40
0.0064748838
 40
0.0131999047
 40
0.0222423331
 40
0.047220383
 40
0.0811680064
 40
0.1237648977
 40
0.1746133032
 40
0.2332250225
 40
0.2990673435
 40
0.4498729336
 40
0.621332998
 40
0.8070628718
 40
1.0
 40
1.0
 40
1.0
 40
1.0
 10
-3.1286750776
 20
-21.975182794
 30
0.0
 10
-3.1289049747
 20
-21.9747174704
 30
0.0
 10
-3.1290323071
 20
-21.9730542087
 30
0.0
 10
-3.1293993086
 20
-21.9698120037
 30
0.0
 10
-3.1296553819
 20
-21.9647559773
 30
0.0
 10
-3.1301325644
 20
-21.9545927577
 30
0.0
 10
-3.1306325941
 20
-21.9375989641
 30
0.0
 10
-3.1312153759
 20
-21.9122296448
 30
0.0
 10
-3.1317670658
 20
-21.8803850302
 30
0.0
 10
-3.1322988145
 20
-21.8423757134
 30
0.0
 10
-3.1327969291
 20
-21.7985534981
 30
0.0
 10
-3.1334403343
 20
-21.7297428911
 30
0.0
 10
-3.1341028526
 20
-21.6327197305
 30
0.0
 10
-3.1346745702
 20
-21.5057243778
 30
0.0
 10
-3.135026982
 20
-21.3681954785
 30
0.0
 10
-3.1351059205
 20
-21.2735304288
 30
0.0
 10
-3.1351059998
 20
-21.2252970227
 30
0.0
 11
-3.1286750776
 21
-21.975182794
 31
0.0
 11
-3.1289920476
 21
-21.9736583468
 31
0.0
 11
-3.1293083566
 21
-21.9703745224
 31
0.0
 11
-3.1296231247
 21
-21.9653406801
 31
0.0
 11
-3.1299354721
 21
-21.9585661787
 31
0.0
 11
-3.130549492
 21
-21.939843047
 31
0.0
 11
-3.1311444998
 21
-21.9143897454
 31
0.0
 11
-3.1317151454
 21
-21.882447754
 31
0.0
 11
-3.1322561805
 21
-21.8443159804
 31
0.0
 11
-3.1327624714
 21
-21.800360905
 31
0.0
 11
-3.1332291225
 21
-21.7509822659
 31
0.0
 11
-3.1340265503
 21
-21.6378829383
 31
0.0
 11
-3.1346186058
 21
-21.5092915881
 31
0.0
 11
-3.1349829985
 21
-21.3699971889
 31
0.0
 11
-3.1351059998
 21
-21.2252970227
 31
0.0
  0
SPLINE
  5
70F
100
AcDbEntity
  8
ASSI
100
AcDbSpline
 62
253
  6
CONTINUOUS
 70
0
 71
3
 72
9
 73
5
 74
3
 42
0.0000001
 43
0.0000001
 44
0.0000000001
 12
0.0000009928
 22
-0.2164846565
 32
0.0
 13
0.0013081016
 23
-0.2164807044
 33
0.0
 40
0.0
 40
0.0
 40
0.0
 40
0.0
 40
0.2986608327
 40
1.0
 40
1.0
 40
1.0
 40
1.0
 10
10.3860054704
 20
23.8443575944
 30
0.0
 10
10.3860055693
 20
23.8228057652
 30
0.0
 10
10.3860481938
 20
23.7506443085
 30
0.0
 10
10.3861358263
 20
23.6784822881
 30
0.0
 10
10.386441634
 20
23.6278734891
 30
0.0
 11
10.3860054704
 21
23.8443575944
 31
0.0
 11
10.3860350445
 21
23.7797021134
 31
0.0
 11
10.386441634
 21
23.6278734891
 31
0.0
  0
LINE
  5
710
100
AcDbEntity
  8
ASSI
100
AcDbLine
 62
7
  6
CONTINUOUS
 10
9.2533769702
 20
23.6278312164
 11
9.0368706193
 21
23.8443375673
  0
LINE
  5
711
100
AcDbEntity
  8
ASSI
100
AcDbLine
 62
7
  6
CONTINUOUS
 10
-8.5466230298
 20
23.6278312164
 11
-8.7631293807
 21
23.8443375673
  0
LINE
  5
712
100
AcDbEntity
  8
ASSI
100
AcDbLine
 62
7
  6
CONTINUOUS
 10
9.2533769702
 20
-23.6278312163
 11
9.0368706193
 21
-23.8443375673
  0
SPLINE
  5
713
100
AcDbEntity
  8
ASSI
100
AcDbSpline
 62
253
  6
CONTINUOUS
 70
0
 71
3
 72
9
 73
5
 74
3
 42
0.0000001
 43
0.0000001
 44
0.0000000001
 12
-0.0000000798
 22
0.2165052525
 32
0.0
 13
0.0013107489
 23
0.2165012847
 33
0.0
 40
0.0
 40
0.0
 40
0.0
 40
0.0
 40
0.2988002074
 40
1.0
 40
1.0
 40
1.0
 40
1.0
 10
-7.4139945172
 20
-23.8443359174
 30
0.0
 10
-7.4139945251
 20
-23.8227719793
 30
0.0
 10
-7.4139512004
 20
-23.7506036582
 30
0.0
 10
-7.4138645065
 20
-23.6784347683
 30
0.0
 10
-7.4135581409
 20
-23.6278312163
 30
0.0
 11
-7.4139945172
 21
-23.8443359174
 31
0.0
 11
-7.4139647622
 21
-23.7796441099
 31
0.0
 11
-7.4135581409
 21
-23.6278312163
 31
0.0
  0
LINE
  5
714
100
AcDbEntity
  8
ASSI
100
AcDbLine
 62
7
  6
CONTINUOUS
 10
-8.5466230298
 20
-23.6278312163
 11
-8.7631293807
 21
-23.8443375673
  0
SPLINE
  5
715
100
AcDbEntity
  8
ASSI
100
AcDbSpline
 62
253
  6
CONTINUOUS
 70
0
 71
3
 72
14
 73
10
 74
8
 42
0.0000001
 43
0.0000001
 44
0.0000000001
 12
-0.0353890363
 22
0.0353419927
 32
0.0
 13
0.0000000042
 23
0.0500144013
 33
0.0
 40
0.0
 40
0.0
 40
0.0
 40
0.0
 40
0.0223894862
 40
0.0813317476
 40
0.1747573579
 40
0.2991859872
 40
0.4499515839
 40
0.6213967272
 40
1.0
 40
1.0
 40
1.0
 40
1.0
 10
-7.2131674569
 20
-24.286863004
 30
0.0
 10
-7.213431571
 20
-24.286599241
 30
0.0
 10
-7.2131956378
 20
-24.2850244771
 30
0.0
 10
-7.2136472507
 20
-24.2823117595
 30
0.0
 10
-7.2136160178
 20
-24.277593811
 30
0.0
 10
-7.2138079016
 20
-24.2714929736
 30
0.0
 10
-7.2138851817
 20
-24.2640319979
 30
0.0
 10
-7.2140004445
 20
-24.2523553401
 30
0.0
 10
-7.214024979
 20
-24.2431824913
 30
0.0
 10
-7.2140249785
 20
-24.2368706193
 30
0.0
 11
-7.2131674569
 21
-24.286863004
 31
0.0
 11
-7.2133354803
 21
-24.2857558849
 31
0.0
 11
-7.2134966412
 21
-24.2828123315
 31
0.0
 11
-7.2136448926
 21
-24.2781420579
 31
0.0
 11
-7.2137746403
 21
-24.2719201872
 31
0.0
 11
-7.213881
 21
-24.2643804863
 31
0.0
 11
-7.2139599679
 21
-24.2558061237
 31
0.0
 11
-7.2140249785
 21
-24.2368706193
 31
0.0
  0
SPLINE
  5
716
100
AcDbEntity
  8
ASSI
100
AcDbSpline
 62
253
  6
CONTINUOUS
 70
0
 71
3
 72
9
 73
5
 74
3
 42
0.0000001
 43
0.0000001
 44
0.0000000001
 12
-0.0000000101
 22
0.0433040274
 32
0.0
 13
0.0013086635
 23
0.0432842487
 33
0.0
 40
0.0
 40
0.0
 40
0.0
 40
0.0
 40
0.2987936565
 40
1.0
 40
1.0
 40
1.0
 40
1.0
 10
-7.2140249785
 20
-23.8443375673
 30
0.0
 10
-7.2140249795
 20
-23.8400245777
 30
0.0
 10
-7.2139818319
 20
-23.825590381
 30
0.0
 10
-7.2138944829
 20
-23.8111533604
 30
0.0
 10
-7.2135886019
 20
-23.8010362971
 30
0.0
 11
-7.2140249785
 21
-23.8443375673
 31
0.0
 11
-7.2139952489
 21
-23.8313986328
 31
0.0
 11
-7.2135886019
 21
-23.8010362971
 31
0.0
  0
SPLINE
  5
717
100
AcDbEntity
  8
ASSI
100
AcDbSpline
 62
253
  6
CONTINUOUS
 70
0
 71
3
 72
9
 73
5
 74
3
 42
0.0000001
 43
0.0000001
 44
0.0000000001
 12
-0.0013086622
 22
0.0432844713
 32
0.0
 13
0.0000000121
 23
0.0433042498
 33
0.0
 40
0.0
 40
0.0
 40
0.0
 40
0.0
 40
0.183485244
 40
1.0
 40
1.0
 40
1.0
 40
1.0
 10
-7.2135886019
 20
23.8010362971
 30
0.0
 10
-7.213668642
 20
23.803683651
 30
0.0
 10
-7.2139645839
 20
23.8181157778
 30
0.0
 10
-7.2140249818
 20
23.832551381
 30
0.0
 10
-7.2140249785
 20
23.8443375673
 30
0.0
 11
-7.2135886019
 21
23.8010362971
 31
0.0
 11
-7.2137693139
 21
23.8089799327
 31
0.0
 11
-7.2140249785
 21
23.8443375673
 31
0.0
  0
SPLINE
  5
718
100
AcDbEntity
  8
ASSI
100
AcDbSpline
 62
253
  6
CONTINUOUS
 70
0
 71
3
 72
14
 73
10
 74
8
 42
0.0000001
 43
0.0000001
 44
0.0000000001
 12
-0.0000000203
 22
0.0500143983
 32
0.0
 13
0.0353703802
 23
0.0353606595
 33
0.0
 40
0.0
 40
0.0
 40
0.0
 40
0.0
 40
0.3784780211
 40
0.5499153469
 40
0.7006964619
 40
0.8251532518
 40
0.9186155577
 40
0.9775909287
 40
1.0
 40
1.0
 40
1.0
 40
1.0
 10
-7.2140249785
 20
24.2368706193
 30
0.0
 10
-7.2140249811
 20
24.2431804028
 30
0.0
 10
-7.2140004536
 20
24.2523510272
 30
0.0
 10
-7.2138852553
 20
24.2640257364
 30
0.0
 10
-7.2138079839
 20
24.2714872873
 30
0.0
 10
-7.2136161456
 20
24.27758952
 30
0.0
 10
-7.2136473315
 20
24.2823089904
 30
0.0
 10
-7.2131957107
 20
24.2850233649
 30
0.0
 10
-7.2134316627
 20
24.2865988709
 30
0.0
 10
-7.2131674569
 20
24.2868630041
 30
0.0
 11
-7.2140249785
 21
24.2368706193
 31
0.0
 11
-7.213960012
 21
24.2557998583
 31
0.0
 11
-7.2138810761
 21
24.2643738297
 31
0.0
 11
-7.2137747412
 21
24.2719143067
 31
0.0
 11
-7.2136450075
 21
24.2781375861
 31
0.0
 11
-7.2134967497
 21
24.2828096954
 31
0.0
 11
-7.2133355514
 21
24.285754905
 31
0.0
 11
-7.2131674569
 21
24.2868630041
 31
0.0
  0
SPLINE
  5
719
100
AcDbEntity
  8
ASSI
100
AcDbSpline
 62
253
  6
CONTINUOUS
 70
0
 71
3
 72
14
 73
10
 74
8
 42
0.0000001
 43
0.0000001
 44
0.0000000001
 12
-0.000000161
 22
0.2499634559
 32
0.0
 13
0.0491541604
 23
0.2450828386
 33
0.0
 40
0.0
 40
0.0
 40
0.0
 40
0.0
 40
0.3786143138
 40
0.5501135625
 40
0.7009463438
 40
0.8254370374
 40
0.9189018018
 40
0.9778262026
 40
1.0
 40
1.0
 40
1.0
 40
1.0
 10
-7.4139945168
 20
24.2368735057
 30
0.0
 10
-7.4139945371
 20
24.2684200865
 30
0.0
 10
-7.4139726979
 20
24.3142571225
 30
0.0
 10
-7.413850825
 20
24.3726584357
 30
0.0
 10
-7.4137895065
 20
24.4098934707
 30
0.0
 10
-7.4135530605
 20
24.4406060187
 30
0.0
 10
-7.4136924003
 20
24.4637121256
 30
0.0
 10
-7.4130388175
 20
24.4781877786
 30
0.0
 10
-7.4135003074
 20
24.4850210707
 30
0.0
 10
-7.4131369959
 20
24.4868325431
 30
0.0
 11
-7.4139945168
 21
24.2368735057
 31
0.0
 11
-7.4139295136
 21
24.3315132257
 31
0.0
 11
-7.4138505748
 21
24.3743816979
 31
0.0
 11
-7.4137442524
 21
24.4120842312
 31
0.0
 11
-7.4136145416
 21
24.4432020849
 31
0.0
 11
-7.4134663042
 21
24.4665643901
 31
0.0
 11
-7.4133051467
 21
24.4812924553
 31
0.0
 11
-7.4131369959
 21
24.4868325431
 31
0.0
  0
SPLINE
  5
71A
100
AcDbEntity
  8
ASSI
100
AcDbSpline
 62
253
  6
CONTINUOUS
 70
0
 71
3
 72
14
 73
10
 74
8
 42
0.0000001
 43
0.0000001
 44
0.0000000001
 12
0.0000001187
 22
0.249966339
 32
0.0
 13
-0.0492103035
 23
0.2450745124
 33
0.0
 40
0.0
 40
0.0
 40
0.0
 40
0.0
 40
0.3786102122
 40
0.550110195
 40
0.7009447699
 40
0.8254366722
 40
0.9189016359
 40
0.9778261742
 40
1.0
 40
1.0
 40
1.0
 40
1.0
 10
-10.3860054824
 20
24.2368706193
 30
0.0
 10
-10.3860054675
 20
24.2684172222
 30
0.0
 10
-10.3860272746
 20
24.3142545087
 30
0.0
 10
-10.3861492046
 20
24.3726563585
 30
0.0
 10
-10.3862104415
 20
24.4098921483
 30
0.0
 10
-10.3864471954
 20
24.4406052781
 30
0.0
 10
-10.3863072136
 20
24.4637118744
 30
0.0
 10
-10.3869620359
 20
24.4781875483
 30
0.0
 10
-10.3864992772
 20
24.4850211299
 30
0.0
 10
-10.3868630041
 20
24.4868325431
 30
0.0
 11
-10.3860054824
 21
24.2368706193
 31
0.0
 11
-10.3860704826
 21
24.3315104056
 31
0.0
 11
-10.3861494321
 21
24.3743795558
 31
0.0
 11
-10.3862557752
 21
24.4120829723
 31
0.0
 11
-10.386385516
 21
24.4432014869
 31
0.0
 11
-10.3865337696
 21
24.4665641113
 31
0.0
 11
-10.3866949937
 21
24.48129238
 31
0.0
 11
-10.3868630041
 21
24.4868325431
 31
0.0
  0
LINE
  5
71B
100
AcDbEntity
  8
ASSI
100
AcDbLine
 62
7
  6
CONTINUOUS
 10
-9.2533769702
 20
23.6278312164
 11
-9.0368706193
 21
23.8443375673
  0
SPLINE
  5
71C
100
AcDbEntity
  8
ASSI
100
AcDbSpline
 62
253
  6
CONTINUOUS
 70
0
 71
3
 72
14
 73
10
 74
8
 42
0.0000001
 43
0.0000001
 44
0.0000000001
 12
-0.0491708119
 22
-0.2450824418
 32
0.0
 13
0.0000001167
 23
-0.2499663418
 33
0.0
 40
0.0
 40
0.0
 40
0.0
 40
0.0
 40
0.022160649
 40
0.0810578314
 40
0.1744935263
 40
0.2989595177
 40
0.4497755697
 40
0.6212777996
 40
1.0
 40
1.0
 40
1.0
 40
1.0
 10
10.3868630041
 20
24.4868325431
 30
0.0
 10
10.386499785
 20
24.4850221478
 30
0.0
 10
10.3869613093
 20
24.4781921258
 30
0.0
 10
10.386307597
 20
24.4637221138
 30
0.0
 10
10.3864470764
 20
24.4406224703
 30
0.0
 10
10.3862105355
 20
24.409915452
 30
0.0
 10
10.3861492427
 20
24.3726831866
 30
0.0
 10
10.3860272974
 20
24.3142733578
 30
0.0
 10
10.3860054677
 20
24.2684265536
 30
0.0
 10
10.3860054824
 20
24.2368706193
 30
0.0
 11
10.3868630041
 21
24.4868325431
 31
0.0
 11
10.3866949466
 21
24.4812956766
 31
0.0
 11
10.3865337753
 21
24.4665742456
 31
0.0
 11
10.3863855488
 21
24.4432189371
 31
0.0
 11
10.3862558217
 21
24.4121068991
 31
0.0
 11
10.3861494863
 21
24.3744081122
 31
0.0
 11
10.386070521
 21
24.3315383999
 31
0.0
 11
10.3860054824
 21
24.2368706193
 31
0.0
  0
SPLINE
  5
71D
100
AcDbEntity
  8
ASSI
100
AcDbSpline
 62
253
  6
CONTINUOUS
 70
0
 71
3
 72
14
 73
10
 74
8
 42
0.0000001
 43
0.0000001
 44
0.0000000001
 12
0.0491604488
 22
-0.24508452
 32
0.0
 13
-0.000000147
 23
-0.2499663411
 33
0.0
 40
0.0
 40
0.0
 40
0.0
 40
0.0
 40
0.0221560382
 40
0.0810435912
 40
0.1744700487
 40
0.2989316111
 40
0.4497491635
 40
0.6212572333
 40
1.0
 40
1.0
 40
1.0
 40
1.0
 10
7.4131369959
 20
24.4868325431
 30
0.0
 10
7.4135000629
 20
24.4850225091
 30
0.0
 10
7.4130387693
 20
24.4781937216
 30
0.0
 10
7.4136922946
 20
24.4637256266
 30
0.0
 10
7.4135528884
 20
24.4406279425
 30
0.0
 10
7.4137894171
 20
24.4099219317
 30
0.0
 10
7.4138507262
 20
24.3726894257
 30
0.0
 10
7.4139726908
 20
24.3142772712
 30
0.0
 10
7.4139945361
 20
24.2684282672
 30
0.0
 10
7.4139945176
 20
24.2368706193
 30
0.0
 11
7.4131369959
 21
24.4868325431
 31
0.0
 11
7.4133050073
 21
24.4812968283
 31
0.0
 11
7.4134661721
 21
24.4665778045
 31
0.0
 11
7.413614396
 21
24.4432248051
 31
0.0
 11
7.4137441318
 21
24.4121138742
 31
0.0
 11
7.4138504802
 21
24.3744147125
 31
0.0
 11
7.4139294606
 21
24.3315435406
 31
0.0
 11
7.4139945176
 21
24.2368706193
 31
0.0
  0
LINE
  5
71E
100
AcDbEntity
  8
ASSI
100
AcDbLine
 62
7
  6
CONTINUOUS
 10
8.5466230298
 20
23.6278312164
 11
8.7631293807
 21
23.8443375673
  0
SPLINE
  5
71F
100
AcDbEntity
  8
ASSI
100
AcDbSpline
 62
253
  6
CONTINUOUS
 70
0
 71
3
 72
9
 73
5
 74
3
 42
0.0000001
 43
0.0000001
 44
0.0000000001
 12
0.0000000894
 22
-0.2165058795
 32
0.0
 13
-0.0013063451
 23
-0.2165019383
 33
0.0
 40
0.0
 40
0.0
 40
0.0
 40
0.0
 40
0.2987948397
 40
1.0
 40
1.0
 40
1.0
 40
1.0
 10
7.4139945176
 20
23.8443375673
 30
0.0
 10
7.4139945265
 20
23.8227739541
 30
0.0
 10
7.4139514468
 20
23.7506054227
 30
0.0
 10
7.4138634855
 20
23.6784363314
 30
0.0
 10
7.4135581468
 20
23.6278322393
 30
0.0
 11
7.4139945176
 21
23.8443375673
 31
0.0
 11
7.4139647755
 21
23.7796467346
 31
0.0
 11
7.4135581468
 21
23.6278322393
 31
0.0
  0
LINE
  5
720
100
AcDbEntity
  8
ASSI
100
AcDbLine
 62
7
  6
CONTINUOUS
 10
8.5466230298
 20
-23.6278312163
 11
8.7631293807
 21
-23.8443375673
  0
SPLINE
  5
721
100
AcDbEntity
  8
ASSI
100
AcDbSpline
 62
253
  6
CONTINUOUS
 70
0
 71
3
 72
14
 73
10
 74
8
 42
0.0000001
 43
0.0000001
 44
0.0000000001
 12
-0.0000000677
 22
-0.2499663444
 32
0.0
 13
0.0491135085
 23
-0.2450939342
 33
0.0
 40
0.0
 40
0.0
 40
0.0
 40
0.0
 40
0.378639668
 40
0.5501399824
 40
0.7009674195
 40
0.8254504889
 40
0.91890819
 40
0.9778278202
 40
1.0
 40
1.0
 40
1.0
 40
1.0
 10
10.3860054824
 20
-24.2368706193
 30
0.0
 10
10.3860054739
 20
-24.2684196772
 30
0.0
 10
10.3860272974
 20
-24.3142594426
 30
0.0
 10
10.386149122
 20
-24.3726631909
 30
0.0
 10
10.3862104998
 20
-24.4098976543
 30
0.0
 10
10.3864467422
 20
-24.4406089172
 30
0.0
 10
10.3863078655
 20
-24.4637135986
 30
0.0
 10
10.386960603
 20
-24.478188432
 30
0.0
 10
10.3865000195
 20
-24.4850211208
 30
0.0
 10
10.3868630041
 20
-24.4868325431
 30
0.0
 11
10.3860054824
 21
-24.2368706193
 31
0.0
 11
10.386070468
 21
-24.3315177706
 31
0.0
 11
10.386149391
 21
-24.3743870046
 31
0.0
 11
10.3862557028
 21
-24.4120886378
 31
0.0
 11
10.3863854024
 21
-24.4432049453
 31
0.0
 11
10.3865336465
 21
-24.4665657548
 31
0.0
 11
10.3866947825
 21
-24.4812927979
 31
0.0
 11
10.3868630041
 21
-24.4868325431
 31
0.0
  0
SPLINE
  5
722
100
AcDbEntity
  8
ASSI
100
AcDbSpline
 62
253
  6
CONTINUOUS
 70
0
 71
3
 72
14
 73
10
 74
8
 42
0.0000001
 43
0.0000001
 44
0.0000000001
 12
0.0000000316
 22
-0.2499663453
 32
0.0
 13
-0.0490876294
 23
-0.2450991195
 33
0.0
 40
0.0
 40
0.0
 40
0.0
 40
0.0
 40
0.3786066962
 40
0.5501057471
 40
0.7009402767
 40
0.825433203
 40
0.9188999329
 40
0.9778256633
 40
1.0
 40
1.0
 40
1.0
 40
1.0
 10
7.4139945176
 20
-24.2368706193
 30
0.0
 10
7.4139945215
 20
-24.26841693
 30
0.0
 10
7.4139727085
 20
-24.3142538419
 30
0.0
 10
7.4138509229
 20
-24.3726553316
 30
0.0
 10
7.4137895178
 20
-24.409891096
 30
0.0
 10
7.4135533789
 20
-24.44060454
 30
0.0
 10
7.4136920266
 20
-24.4637112645
 30
0.0
 10
7.4130396942
 20
-24.4781876106
 30
0.0
 10
7.4134998245
 20
-24.4850209063
 30
0.0
 10
7.4131369959
 20
-24.4868325431
 30
0.0
 11
7.4139945176
 21
-24.2368706193
 31
0.0
 11
7.4139295549
 21
-24.3315095291
 31
0.0
 11
7.4138506467
 21
-24.3743784475
 31
0.0
 11
7.4137443439
 21
-24.4120818537
 31
0.0
 11
7.4136146489
 21
-24.4432006253
 31
0.0
 11
7.4134663983
 21
-24.4665636918
 31
0.0
 11
7.4133052621
 21
-24.4812922598
 31
0.0
 11
7.4131369959
 21
-24.4868325431
 31
0.0
  0
SPLINE
  5
723
100
AcDbEntity
  8
ASSI
100
AcDbSpline
 62
253
  6
CONTINUOUS
 70
0
 71
3
 72
14
 73
10
 74
8
 42
0.0000001
 43
0.0000001
 44
0.0000000001
 12
-0.0490895383
 22
0.2450986842
 32
0.0
 13
0.0000000528
 23
0.2499662933
 33
0.0
 40
0.0
 40
0.0
 40
0.0
 40
0.0
 40
0.0221590326
 40
0.0810497444
 40
0.174478782
 40
0.2989411458
 40
0.4497578551
 40
0.6212639873
 40
1.0
 40
1.0
 40
1.0
 40
1.0
 10
-7.4131370059
 20
-24.486832493
 30
0.0
 10
-7.4134995982
 20
-24.4850221097
 30
0.0
 10
-7.4130396215
 20
-24.4781930473
 30
0.0
 10
-7.4136919389
 20
-24.4637240131
 30
0.0
 10
-7.4135532036
 20
-24.440625904
 30
0.0
 10
-7.413789428
 20
-24.4099196393
 30
0.0
 10
-7.4138508162
 20
-24.3726873227
 30
0.0
 10
-7.4139726972
 20
-24.3142759664
 30
0.0
 10
-7.4139945242
 20
-24.2684276984
 30
0.0
 10
-7.4139945176
 20
-24.2368706193
 30
0.0
 11
-7.4131370059
 21
-24.486832493
 31
0.0
 11
-7.4133051147
 21
-24.4812960333
 31
0.0
 11
-7.4134662747
 21
-24.4665762226
 31
0.0
 11
-7.4136145057
 21
-24.4432225828
 31
0.0
 11
-7.4137442219
 21
-24.4121114575
 31
0.0
 11
-7.4138505459
 21
-24.3744125136
 31
0.0
 11
-7.4139294966
 21
-24.3315418342
 31
0.0
 11
-7.4139945176
 21
-24.2368706193
 31
0.0
  0
SPLINE
  5
724
100
AcDbEntity
  8
ASSI
100
AcDbSpline
 62
253
  6
CONTINUOUS
 70
0
 71
3
 72
14
 73
10
 74
8
 42
0.0000001
 43
0.0000001
 44
0.0000000001
 12
0.049114046
 22
0.245093826
 32
0.0
 13
0.0000001694
 23
0.2499663439
 33
0.0
 40
0.0
 40
0.0
 40
0.0
 40
0.0
 40
0.0221565314
 40
0.0810451339
 40
0.1744731537
 40
0.2989362923
 40
0.4497544396
 40
0.6212615068
 40
1.0
 40
1.0
 40
1.0
 40
1.0
 10
-10.3868630041
 20
-24.4868325431
 30
0.0
 10
-10.3865002717
 20
-24.4850224001
 30
0.0
 10
-10.3869606059
 20
-24.4781936441
 30
0.0
 10
-10.3863079196
 20
-24.4637251477
 30
0.0
 10
-10.3864468351
 20
-24.4406271906
 30
0.0
 10
-10.3862105132
 20
-24.4099208368
 30
0.0
 10
-10.3861491412
 20
-24.3726882444
 30
0.0
 10
-10.3860272632
 20
-24.3142764744
 30
0.0
 10
-10.3860055038
 20
-24.2684279114
 30
0.0
 10
-10.3860054824
 20
-24.2368706193
 30
0.0
 11
-10.3868630041
 21
-24.4868325431
 31
0.0
 11
-10.386694904
 21
-24.4812967076
 31
0.0
 11
-10.3865337259
 21
-24.4665774214
 31
0.0
 11
-10.3863854759
 21
-24.4432240314
 31
0.0
 11
-10.3862557436
 21
-24.4121127062
 31
0.0
 11
-10.3861494084
 21
-24.3744133953
 31
0.0
 11
-10.3860704693
 21
-24.3315424734
 31
0.0
 11
-10.3860054824
 21
-24.2368706193
 31
0.0
  0
SPLINE
  5
725
100
AcDbEntity
  8
ASSI
100
AcDbSpline
 62
253
  6
CONTINUOUS
 70
0
 71
3
 72
9
 73
5
 74
3
 42
0.0000001
 43
0.0000001
 44
0.0000000001
 12
0.0000041288
 22
0.2164298683
 32
0.0
 13
-0.0012987802
 23
0.2164259713
 33
0.0
 40
0.0
 40
0.0
 40
0.0
 40
0.0
 40
0.2987119025
 40
1.0
 40
1.0
 40
1.0
 40
1.0
 10
-10.3860055349
 20
-23.844250724
 30
0.0
 10
-10.3860051238
 20
-23.8227006648
 30
0.0
 10
-10.3860484515
 20
-23.750557468
 30
0.0
 10
-10.3861383046
 20
-23.6784137267
 30
0.0
 10
-10.386441911
 20
-23.6278214075
 30
0.0
 11
-10.3860055349
 21
-23.844250724
 31
0.0
 11
-10.3860351602
 21
-23.7796005531
 31
0.0
 11
-10.386441911
 21
-23.6278214075
 31
0.0
  0
LINE
  5
726
100
AcDbEntity
  8
ASSI
100
AcDbLine
 62
7
  6
CONTINUOUS
 10
-9.2533769702
 20
-23.6278312163
 11
-9.0368706193
 21
-23.8443375673
  0
SPLINE
  5
727
100
AcDbEntity
  8
ASSI
100
AcDbSpline
 62
253
  6
CONTINUOUS
 70
0
 71
3
 72
11
 73
7
 74
5
 42
0.0000001
 43
0.0000001
 44
0.0000000001
 12
-0.0029298877
 22
0.290817936
 32
0.0
 13
-0.2908243864
 23
0.0021982718
 33
0.0
 40
0.0
 40
0.0
 40
0.0
 40
0.0
 40
0.2330682335
 40
0.4768287988
 40
0.7340988118
 40
1.0
 40
1.0
 40
1.0
 40
1.0
 10
10.5864113981
 20
-23.8010362971
 30
0.0
 10
10.5861837769
 20
-23.7784428229
 30
0.0
 10
10.5747821072
 20
-23.7317691528
 30
0.0
 10
10.5292238729
 20
-23.6746348299
 30
0.0
 10
10.4633039456
 20
-23.6369744694
 30
0.0
 10
10.412218709
 20
-23.6280260574
 30
0.0
 10
10.3864418591
 20
-23.6278312164
 30
0.0
 11
10.5864113981
 21
-23.8010362971
 31
0.0
 11
10.5706918472
 21
-23.7351003607
 31
0.0
 11
10.5272287389
 21
-23.6790927495
 31
0.0
 11
10.4625665606
 21
-23.6414468486
 31
0.0
 11
10.3864418591
 21
-23.6278312164
 31
0.0
  0
SPLINE
  5
728
100
AcDbEntity
  8
ASSI
100
AcDbSpline
 62
253
  6
CONTINUOUS
 70
0
 71
3
 72
11
 73
7
 74
5
 42
0.0000001
 43
0.0000001
 44
0.0000000001
 12
-0.290824418
 22
-0.0021981279
 32
0.0
 13
-0.0029298796
 23
-0.2908179665
 33
0.0
 40
0.0
 40
0.0
 40
0.0
 40
0.0
 40
0.2659011537
 40
0.5231711216
 40
0.7669316808
 40
1.0
 40
1.0
 40
1.0
 40
1.0
 10
7.4135581409
 20
-23.6278312163
 30
0.0
 10
7.3877812915
 20
-23.6280260446
 30
0.0
 10
7.3366960526
 20
-23.6369744366
 30
0.0
 10
7.2707761169
 20
-23.6746347866
 30
0.0
 10
7.2252178835
 20
-23.7317691277
 30
0.0
 10
7.2138162226
 20
-23.7784428122
 30
0.0
 10
7.2135886019
 20
-23.8010362971
 30
0.0
 11
7.4135581409
 21
-23.6278312163
 31
0.0
 11
7.3374334361
 21
-23.6414468189
 31
0.0
 11
7.2727712565
 21
-23.6790927071
 31
0.0
 11
7.2293081505
 21
-23.7351003272
 31
0.0
 11
7.2135886019
 21
-23.8010362971
 31
0.0
  0
SPLINE
  5
729
100
AcDbEntity
  8
ASSI
100
AcDbSpline
 62
253
  6
CONTINUOUS
 70
0
 71
3
 72
11
 73
7
 74
5
 42
0.0000001
 43
0.0000001
 44
0.0000000001
 12
0.290824418
 22
-0.002198128
 32
0.0
 13
0.0029298796
 23
-0.2908179665
 33
0.0
 40
0.0
 40
0.0
 40
0.0
 40
0.0
 40
0.2659011522
 40
0.5231711191
 40
0.7669316794
 40
1.0
 40
1.0
 40
1.0
 40
1.0
 10
-7.4135581409
 20
-23.6278312163
 30
0.0
 10
-7.3877812917
 20
-23.6280260446
 30
0.0
 10
-7.336696053
 20
-23.6369744364
 30
0.0
 10
-7.2707761173
 20
-23.6746347862
 30
0.0
 10
-7.2252178837
 20
-23.7317691273
 30
0.0
 10
-7.2138162226
 20
-23.7784428121
 30
0.0
 10
-7.2135886019
 20
-23.8010362971
 30
0.0
 11
-7.4135581409
 21
-23.6278312163
 31
0.0
 11
-7.3374334365
 21
-23.6414468187
 31
0.0
 11
-7.2727712571
 21
-23.6790927066
 31
0.0
 11
-7.2293081507
 21
-23.7351003269
 31
0.0
 11
-7.2135886019
 21
-23.8010362971
 31
0.0
  0
SPLINE
  5
72A
100
AcDbEntity
  8
ASSI
100
AcDbSpline
 62
253
  6
CONTINUOUS
 70
0
 71
3
 72
11
 73
7
 74
5
 42
0.0000001
 43
0.0000001
 44
0.0000000001
 12
0.0029298796
 22
0.2908179665
 32
0.0
 13
0.2908244179
 23
0.0021981283
 33
0.0
 40
0.0
 40
0.0
 40
0.0
 40
0.0
 40
0.2330683206
 40
0.4768288809
 40
0.7340988478
 40
1.0
 40
1.0
 40
1.0
 40
1.0
 10
-10.5864113981
 20
-23.8010362971
 30
0.0
 10
-10.5861837774
 20
-23.7784428121
 30
0.0
 10
-10.5747821163
 20
-23.7317691273
 30
0.0
 10
-10.5292238827
 20
-23.6746347862
 30
0.0
 10
-10.463303947
 20
-23.6369744365
 30
0.0
 10
-10.4122187083
 20
-23.6280260446
 30
0.0
 10
-10.3864418591
 20
-23.6278312163
 30
0.0
 11
-10.5864113981
 21
-23.8010362971
 31
0.0
 11
-10.5706918493
 21
-23.7351003269
 31
0.0
 11
-10.5272287429
 21
-23.6790927066
 31
0.0
 11
-10.4625665635
 21
-23.6414468188
 31
0.0
 11
-10.3864418591
 21
-23.6278312163
 31
0.0
  0
SPLINE
  5
72B
100
AcDbEntity
  8
ASSI
100
AcDbSpline
 62
253
  6
CONTINUOUS
 70
0
 71
3
 72
11
 73
7
 74
5
 42
0.0000001
 43
0.0000001
 44
0.0000000001
 12
-0.0029298796
 22
-0.290817965
 32
0.0
 13
-0.2908244163
 23
-0.0021981479
 33
0.0
 40
0.0
 40
0.0
 40
0.0
 40
0.0
 40
0.2330683208
 40
0.4768288792
 40
0.7340988449
 40
1.0
 40
1.0
 40
1.0
 40
1.0
 10
10.5864113981
 20
23.8010362971
 30
0.0
 10
10.5861837774
 20
23.7784428122
 30
0.0
 10
10.5747821164
 20
23.7317691278
 30
0.0
 10
10.5292238826
 20
23.6746347873
 30
0.0
 10
10.4633039461
 20
23.6369744404
 30
0.0
 10
10.4122187085
 20
23.6280260464
 30
0.0
 10
10.3864418591
 20
23.6278312164
 30
0.0
 11
10.5864113981
 21
23.8010362971
 31
0.0
 11
10.5706918493
 21
23.7351003272
 31
0.0
 11
10.5272287429
 21
23.6790927081
 31
0.0
 11
10.4625665634
 21
23.6414468218
 31
0.0
 11
10.3864418591
 21
23.6278312164
 31
0.0
  0
SPLINE
  5
72C
100
AcDbEntity
  8
ASSI
100
AcDbSpline
 62
253
  6
CONTINUOUS
 70
0
 71
3
 72
11
 73
7
 74
5
 42
0.0000001
 43
0.0000001
 44
0.0000000001
 12
0.290824418
 22
0.0021981279
 32
0.0
 13
0.0029298796
 23
0.2908179665
 33
0.0
 40
0.0
 40
0.0
 40
0.0
 40
0.0
 40
0.2659011524
 40
0.5231711195
 40
0.7669316796
 40
1.0
 40
1.0
 40
1.0
 40
1.0
 10
-7.4135581409
 20
23.6278312164
 30
0.0
 10
-7.3877812916
 20
23.6280260446
 30
0.0
 10
-7.336696053
 20
23.6369744365
 30
0.0
 10
-7.2707761173
 20
23.6746347863
 30
0.0
 10
-7.2252178837
 20
23.7317691274
 30
0.0
 10
-7.2138162226
 20
23.7784428121
 30
0.0
 10
-7.2135886019
 20
23.8010362971
 30
0.0
 11
-7.4135581409
 21
23.6278312164
 31
0.0
 11
-7.3374334365
 21
23.6414468187
 31
0.0
 11
-7.272771257
 21
23.6790927066
 31
0.0
 11
-7.2293081507
 21
23.7351003269
 31
0.0
 11
-7.2135886019
 21
23.8010362971
 31
0.0
  0
SPLINE
  5
72D
100
AcDbEntity
  8
ASSI
100
AcDbSpline
 62
253
  6
CONTINUOUS
 70
0
 71
3
 72
11
 73
7
 74
5
 42
0.0000001
 43
0.0000001
 44
0.0000000001
 12
-0.290824418
 22
0.002198128
 32
0.0
 13
-0.0029298796
 23
0.2908179665
 33
0.0
 40
0.0
 40
0.0
 40
0.0
 40
0.0
 40
0.2659011522
 40
0.5231711191
 40
0.7669316794
 40
1.0
 40
1.0
 40
1.0
 40
1.0
 10
7.4135581409
 20
23.6278312164
 30
0.0
 10
7.3877812917
 20
23.6280260446
 30
0.0
 10
7.336696053
 20
23.6369744364
 30
0.0
 10
7.2707761173
 20
23.6746347862
 30
0.0
 10
7.2252178837
 20
23.7317691273
 30
0.0
 10
7.2138162226
 20
23.7784428121
 30
0.0
 10
7.2135886019
 20
23.8010362971
 30
0.0
 11
7.4135581409
 21
23.6278312164
 31
0.0
 11
7.3374334365
 21
23.6414468187
 31
0.0
 11
7.2727712571
 21
23.6790927066
 31
0.0
 11
7.2293081507
 21
23.7351003269
 31
0.0
 11
7.2135886019
 21
23.8010362971
 31
0.0
  0
SPLINE
  5
72E
100
AcDbEntity
  8
ASSI
100
AcDbSpline
 62
253
  6
CONTINUOUS
 70
0
 71
3
 72
11
 73
7
 74
5
 42
0.0000001
 43
0.0000001
 44
0.0000000001
 12
0.0029298744
 22
-0.2908179843
 32
0.0
 13
0.2908244364
 23
-0.0021980406
 33
0.0
 40
0.0
 40
0.0
 40
0.0
 40
0.0
 40
0.2330683041
 40
0.4768288064
 40
0.7340987915
 40
1.0
 40
1.0
 40
1.0
 40
1.0
 10
-10.5864113981
 20
23.8010362971
 30
0.0
 10
-10.5861837778
 20
23.7784428123
 30
0.0
 10
-10.5747821307
 20
23.7317691306
 30
0.0
 10
-10.5292239105
 20
23.674634778
 30
0.0
 10
-10.4633039672
 20
23.636974425
 30
0.0
 10
-10.4122187154
 20
23.6280260394
 30
0.0
 10
-10.386441859
 20
23.6278312189
 30
0.0
 11
-10.5864113981
 21
23.8010362971
 31
0.0
 11
-10.570691861
 21
23.7351003247
 31
0.0
 11
-10.5272287738
 21
23.6790927054
 31
0.0
 11
-10.4625665866
 21
23.6414468114
 31
0.0
 11
-10.386441859
 21
23.6278312189
 31
0.0
  0
SPLINE
  5
72F
100
AcDbEntity
  8
ASSI
100
AcDbSpline
 62
253
  6
CONTINUOUS
 70
0
 71
3
 72
21
 73
17
 74
15
 42
0.0000001
 43
0.0000001
 44
0.0000000001
 12
-0.3493460813
 22
0.9369119276
 32
0.0
 13
-0.0000017991
 23
0.9999233193
 33
0.0
 40
0.0
 40
0.0
 40
0.0
 40
0.0
 40
0.0020543828
 40
0.0064449151
 40
0.0131667489
 40
0.0222079328
 40
0.0471826218
 40
0.0811258233
 40
0.1237210341
 40
0.1745719804
 40
0.2331875095
 40
0.2990327518
 40
0.4498428938
 40
0.6213092194
 40
0.8070507576
 40
1.0
 40
1.0
 40
1.0
 40
1.0
 10
-3.3786655583
 20
-22.2251447178
 30
0.0
 10
-3.3789047885
 20
-22.2245031259
 30
0.0
 10
-3.379014647
 20
-22.2223159522
 30
0.0
 10
-3.3793948843
 20
-22.2179751779
 30
0.0
 10
-3.3796438709
 20
-22.2112446031
 30
0.0
 10
-3.3801249242
 20
-22.1976849519
 30
0.0
 10
-3.3806220981
 20
-22.1750311627
 30
0.0
 10
-3.3812062018
 20
-22.141204643
 30
0.0
 10
-3.3817574022
 20
-22.098746892
 30
0.0
 10
-3.3822893409
 20
-22.0480667933
 30
0.0
 10
-3.3827874221
 20
-21.9896359664
 30
0.0
 10
-3.3834308525
 20
-21.8978883273
 30
0.0
 10
-3.3840933472
 20
-21.7685258935
 30
0.0
 10
-3.384665085
 20
-21.5992004624
 30
0.0
 10
-3.385017461
 20
-21.4158290992
 30
0.0
 10
-3.3850963648
 20
-21.289608505
 30
0.0
 10
-3.3850964806
 20
-21.2252970227
 30
0.0
 11
-3.3786655583
 21
-22.2251447178
 31
0.0
 11
-3.3789825744
 21
-22.2231151015
 31
0.0
 11
-3.379298895
 21
-22.2187363164
 31
0.0
 11
-3.3796136517
 21
-22.2120223721
 31
0.0
 11
-3.3799259761
 21
-22.2029872781
 31
0.0
 11
-3.3805399523
 21
-22.1780220528
 31
0.0
 11
-3.3811349364
 21
-22.1440866696
 31
0.0
 11
-3.3817055901
 21
-22.1014985481
 31
0.0
 11
-3.3822466579
 21
-22.0506543799
 31
0.0
 11
-3.3827529776
 21
-21.9920455325
 31
0.0
 11
-3.3832196342
 21
-21.9262069931
 31
0.0
 11
-3.3840170513
 21
-21.7754105236
 31
0.0
 11
-3.3846091063
 21
-21.6039583684
 31
0.0
 11
-3.3849734751
 21
-21.4182314304
 31
0.0
 11
-3.3850964806
 21
-21.2252970227
 31
0.0
  0
SPLINE
  5
730
100
AcDbEntity
  8
ASSI
100
AcDbSpline
 62
253
  6
CONTINUOUS
 70
0
 71
3
 72
21
 73
17
 74
15
 42
0.0000001
 43
0.0000001
 44
0.0000000001
 12
-0.0000017991
 22
-0.9999233193
 32
0.0
 13
-0.3493460799
 23
-0.9369119281
 33
0.0
 40
0.0
 40
0.0
 40
0.0
 40
0.0
 40
0.1929492424
 40
0.3786907806
 40
0.5501571062
 40
0.7009672482
 40
0.7668124905
 40
0.8254280196
 40
0.8762789659
 40
0.9188741767
 40
0.9528173782
 40
0.9777920672
 40
0.9868332511
 40
0.9935550849
 40
0.9979456172
 40
1.0
 40
1.0
 40
1.0
 40
1.0
 10
3.3850964806
 20
-21.2252970227
 30
0.0
 10
3.3850963648
 20
-21.289608505
 30
0.0
 10
3.385017461
 20
-21.4158290992
 30
0.0
 10
3.384665085
 20
-21.5992004624
 30
0.0
 10
3.3840933472
 20
-21.7685258935
 30
0.0
 10
3.3834308525
 20
-21.8978883273
 30
0.0
 10
3.3827874221
 20
-21.9896359664
 30
0.0
 10
3.3822893409
 20
-22.0480667933
 30
0.0
 10
3.3817574022
 20
-22.098746892
 30
0.0
 10
3.3812062018
 20
-22.141204643
 30
0.0
 10
3.3806220981
 20
-22.1750311627
 30
0.0
 10
3.3801249242
 20
-22.1976849519
 30
0.0
 10
3.3796438709
 20
-22.2112446031
 30
0.0
 10
3.3793948843
 20
-22.2179751779
 30
0.0
 10
3.379014647
 20
-22.2223159522
 30
0.0
 10
3.3789047885
 20
-22.2245031259
 30
0.0
 10
3.3786655583
 20
-22.2251447178
 30
0.0
 11
3.3850964806
 21
-21.2252970227
 31
0.0
 11
3.3849734751
 21
-21.4182314304
 31
0.0
 11
3.3846091063
 21
-21.6039583684
 31
0.0
 11
3.3840170513
 21
-21.7754105236
 31
0.0
 11
3.3832196342
 21
-21.9262069931
 31
0.0
 11
3.3827529776
 21
-21.9920455325
 31
0.0
 11
3.3822466579
 21
-22.0506543799
 31
0.0
 11
3.3817055901
 21
-22.1014985481
 31
0.0
 11
3.3811349364
 21
-22.1440866696
 31
0.0
 11
3.3805399523
 21
-22.1780220528
 31
0.0
 11
3.3799259761
 21
-22.2029872781
 31
0.0
 11
3.3796136517
 21
-22.2120223721
 31
0.0
 11
3.379298895
 21
-22.2187363164
 31
0.0
 11
3.3789825744
 21
-22.2231151015
 31
0.0
 11
3.3786655583
 21
-22.2251447178
 31
0.0
  0
SPLINE
  5
731
100
AcDbEntity
  8
ASSI
100
AcDbSpline
 62
253
  6
CONTINUOUS
 70
0
 71
3
 72
21
 73
17
 74
15
 42
0.0000001
 43
0.0000001
 44
0.0000000001
 12
0.3493460813
 22
-0.9369119276
 32
0.0
 13
0.0000017991
 23
-0.9999233193
 33
0.0
 40
0.0
 40
0.0
 40
0.0
 40
0.0
 40
0.0020543828
 40
0.0064449151
 40
0.0131667489
 40
0.0222079328
 40
0.0471826218
 40
0.0811258233
 40
0.1237210341
 40
0.1745719804
 40
0.2331875095
 40
0.2990327518
 40
0.4498428938
 40
0.6213092194
 40
0.8070507576
 40
1.0
 40
1.0
 40
1.0
 40
1.0
 10
3.3786655583
 20
22.2251447178
 30
0.0
 10
3.3789047885
 20
22.2245031259
 30
0.0
 10
3.379014647
 20
22.2223159522
 30
0.0
 10
3.3793948843
 20
22.2179751779
 30
0.0
 10
3.3796438709
 20
22.2112446031
 30
0.0
 10
3.3801249242
 20
22.1976849519
 30
0.0
 10
3.3806220981
 20
22.1750311627
 30
0.0
 10
3.3812062018
 20
22.141204643
 30
0.0
 10
3.3817574022
 20
22.098746892
 30
0.0
 10
3.3822893409
 20
22.0480667933
 30
0.0
 10
3.3827874221
 20
21.9896359664
 30
0.0
 10
3.3834308525
 20
21.8978883273
 30
0.0
 10
3.3840933472
 20
21.7685258935
 30
0.0
 10
3.384665085
 20
21.5992004624
 30
0.0
 10
3.385017461
 20
21.4158290992
 30
0.0
 10
3.3850963648
 20
21.289608505
 30
0.0
 10
3.3850964806
 20
21.2252970227
 30
0.0
 11
3.3786655583
 21
22.2251447178
 31
0.0
 11
3.3789825744
 21
22.2231151015
 31
0.0
 11
3.379298895
 21
22.2187363164
 31
0.0
 11
3.3796136517
 21
22.2120223721
 31
0.0
 11
3.3799259761
 21
22.2029872781
 31
0.0
 11
3.3805399523
 21
22.1780220528
 31
0.0
 11
3.3811349364
 21
22.1440866696
 31
0.0
 11
3.3817055901
 21
22.1014985481
 31
0.0
 11
3.3822466579
 21
22.0506543799
 31
0.0
 11
3.3827529776
 21
21.9920455325
 31
0.0
 11
3.3832196342
 21
21.9262069931
 31
0.0
 11
3.3840170513
 21
21.7754105236
 31
0.0
 11
3.3846091063
 21
21.6039583684
 31
0.0
 11
3.3849734751
 21
21.4182314304
 31
0.0
 11
3.3850964806
 21
21.2252970227
 31
0.0
  0
SPLINE
  5
732
100
AcDbEntity
  8
ASSI
100
AcDbSpline
 62
253
  6
CONTINUOUS
 70
0
 71
3
 72
21
 73
17
 74
15
 42
0.0000001
 43
0.0000001
 44
0.0000000001
 12
0.0000017991
 22
0.9999233193
 32
0.0
 13
0.3493460799
 23
0.9369119281
 33
0.0
 40
0.0
 40
0.0
 40
0.0
 40
0.0
 40
0.1929492424
 40
0.3786907806
 40
0.5501571062
 40
0.7009672482
 40
0.7668124905
 40
0.8254280196
 40
0.8762789659
 40
0.9188741767
 40
0.9528173782
 40
0.9777920672
 40
0.9868332511
 40
0.9935550849
 40
0.9979456172
 40
1.0
 40
1.0
 40
1.0
 40
1.0
 10
-3.3850964806
 20
21.2252970227
 30
0.0
 10
-3.3850963648
 20
21.289608505
 30
0.0
 10
-3.385017461
 20
21.4158290992
 30
0.0
 10
-3.384665085
 20
21.5992004624
 30
0.0
 10
-3.3840933472
 20
21.7685258935
 30
0.0
 10
-3.3834308525
 20
21.8978883273
 30
0.0
 10
-3.3827874221
 20
21.9896359664
 30
0.0
 10
-3.3822893409
 20
22.0480667933
 30
0.0
 10
-3.3817574022
 20
22.098746892
 30
0.0
 10
-3.3812062018
 20
22.141204643
 30
0.0
 10
-3.3806220981
 20
22.1750311627
 30
0.0
 10
-3.3801249242
 20
22.1976849519
 30
0.0
 10
-3.3796438709
 20
22.2112446031
 30
0.0
 10
-3.3793948843
 20
22.2179751779
 30
0.0
 10
-3.379014647
 20
22.2223159522
 30
0.0
 10
-3.3789047885
 20
22.2245031259
 30
0.0
 10
-3.3786655583
 20
22.2251447178
 30
0.0
 11
-3.3850964806
 21
21.2252970227
 31
0.0
 11
-3.3849734751
 21
21.4182314304
 31
0.0
 11
-3.3846091063
 21
21.6039583684
 31
0.0
 11
-3.3840170513
 21
21.7754105236
 31
0.0
 11
-3.3832196342
 21
21.9262069931
 31
0.0
 11
-3.3827529776
 21
21.9920455325
 31
0.0
 11
-3.3822466579
 21
22.0506543799
 31
0.0
 11
-3.3817055901
 21
22.1014985481
 31
0.0
 11
-3.3811349364
 21
22.1440866696
 31
0.0
 11
-3.3805399523
 21
22.1780220528
 31
0.0
 11
-3.3799259761
 21
22.2029872781
 31
0.0
 11
-3.3796136517
 21
22.2120223721
 31
0.0
 11
-3.379298895
 21
22.2187363164
 31
0.0
 11
-3.3789825744
 21
22.2231151015
 31
0.0
 11
-3.3786655583
 21
22.2251447178
 31
0.0
  0
SPLINE
  5
733
100
AcDbEntity
  8
ASSI
100
AcDbSpline
 62
253
  6
CONTINUOUS
 70
0
 71
3
 72
29
 73
25
 74
23
 42
0.0000001
 43
0.0000001
 44
0.0000000001
 12
-0.727109997
 22
0.2572297694
 32
0.0
 13
-0.7263583895
 23
-0.2593445431
 33
0.0
 40
0.0
 40
0.0
 40
0.0
 40
0.0
 40
0.0032231171
 40
0.0111232113
 40
0.0236176136
 40
0.0406082266
 40
0.0619191072
 40
0.0873397501
 40
0.149586798
 40
0.2249889815
 40
0.3107352647
 40
0.4035878127
 40
0.5000646111
 40
0.5965389168
 40
0.6893842172
 40
0.7751186269
 40
0.8505041667
 40
0.9127325955
 40
0.938143639
 40
0.9594431793
 40
0.9764191147
 40
0.9888962758
 40
0.9967820666
 40
1.0
 40
1.0
 40
1.0
 40
1.0
 10
4.351882222
 20
-23.6519214817
 30
0.0
 10
4.3511010351
 20
-23.6516451211
 30
0.0
 10
4.3481608997
 20
-23.6517775988
 30
0.0
 10
4.3421641191
 20
-23.6513253656
 30
0.0
 10
4.3325168189
 20
-23.6512513621
 30
0.0
 10
4.319475483
 20
-23.6509871158
 30
0.0
 10
4.3030883441
 20
-23.6508072777
 30
0.0
 10
4.2750751508
 20
-23.650522861
 30
0.0
 10
4.2331508011
 20
-23.6502362193
 30
0.0
 10
4.1757194513
 20
-23.649956869
 30
0.0
 10
4.1104184735
 20
-23.6497515729
 30
0.0
 10
4.0396995221
 20
-23.6496239558
 30
0.0
 10
3.966222323
 20
-23.649581034
 30
0.0
 10
3.8927469869
 20
-23.6496243194
 30
0.0
 10
3.8220335941
 20
-23.6497522438
 30
0.0
 10
3.7567418079
 20
-23.649957762
 30
0.0
 10
3.6993225893
 20
-23.6502372817
 30
0.0
 10
3.6574097452
 20
-23.6505241103
 30
0.0
 10
3.6294067721
 20
-23.6508088207
 30
0.0
 10
3.6130286875
 20
-23.6509884274
 30
0.0
 10
3.599998733
 20
-23.6512524891
 30
0.0
 10
3.5903626937
 20
-23.6513246894
 30
0.0
 10
3.5843764427
 20
-23.6517775732
 30
0.0
 10
3.5814400368
 20
-23.6516439143
 30
0.0
 10
3.5806609125
 20
-23.6519220988
 30
0.0
 11
4.351882222
 21
-23.6519214817
 31
0.0
 11
4.3494068637
 21
-23.6516928893
 31
0.0
 11
4.3433179951
 21
-23.6514658777
 31
0.0
 11
4.3336840213
 21
-23.6512431999
 31
0.0
 11
4.3205814605
 21
-23.6510275278
 31
0.0
 11
4.304146334
 21
-23.6508209404
 31
0.0
 11
4.284541153
 21
-23.6506252526
 31
0.0
 11
4.236533213
 21
-23.6502736235
 31
0.0
 11
4.1783785492
 21
-23.6499854062
 31
0.0
 11
4.1122454322
 21
-23.649771491
 31
0.0
 11
4.0406312472
 21
-23.6496399248
 31
0.0
 11
3.9662216821
 21
-23.6495955842
 31
0.0
 11
3.8918140398
 21
-23.6496402878
 31
0.0
 11
3.8202054453
 21
-23.6497721635
 31
0.0
 11
3.7540814868
 21
-23.6499863128
 31
0.0
 11
3.6959396609
 21
-23.650274723
 31
0.0
 11
3.6479460836
 21
-23.6506266247
 31
0.0
 11
3.6283483077
 21
-23.6508224232
 31
0.0
 11
3.6119219266
 21
-23.6510288629
 31
0.0
 11
3.5988306774
 21
-23.6512439079
 31
0.0
 11
3.5892099822
 21
-23.6514656152
 31
0.0
 11
3.583132139
 21
-23.6516922484
 31
0.0
 11
3.5806609125
 21
-23.6519220988
 31
0.0
  0
SPLINE
  5
734
100
AcDbEntity
  8
ASSI
100
AcDbSpline
 62
253
  6
CONTINUOUS
 70
0
 71
3
 72
29
 73
25
 74
23
 42
0.0000001
 43
0.0000001
 44
0.0000000001
 12
0.7263583892
 22
-0.2593445439
 32
0.0
 13
0.7271099964
 23
0.2572297712
 33
0.0
 40
0.0
 40
0.0
 40
0.0
 40
0.0
 40
0.0032179334
 40
0.0111037242
 40
0.0235808853
 40
0.0405568207
 40
0.061856361
 40
0.0872674045
 40
0.1494958333
 40
0.2248813731
 40
0.3106157828
 40
0.4034610831
 40
0.4999353888
 40
0.5964121872
 40
0.6892647352
 40
0.7750110185
 40
0.850413202
 40
0.9126602499
 40
0.9380808928
 40
0.9593917734
 40
0.9763823864
 40
0.9888767887
 40
0.9967768829
 40
1.0
 40
1.0
 40
1.0
 40
1.0
 10
3.5806609125
 20
23.6519220988
 30
0.0
 10
3.5814400368
 20
23.6516439143
 30
0.0
 10
3.5843764427
 20
23.6517775732
 30
0.0
 10
3.5903626937
 20
23.6513246894
 30
0.0
 10
3.599998733
 20
23.6512524891
 30
0.0
 10
3.6130286875
 20
23.6509884274
 30
0.0
 10
3.6294067721
 20
23.6508088207
 30
0.0
 10
3.6574097452
 20
23.6505241103
 30
0.0
 10
3.6993225893
 20
23.6502372817
 30
0.0
 10
3.7567418079
 20
23.649957762
 30
0.0
 10
3.8220335941
 20
23.6497522438
 30
0.0
 10
3.8927469869
 20
23.6496243194
 30
0.0
 10
3.966222323
 20
23.649581034
 30
0.0
 10
4.0396995221
 20
23.6496239558
 30
0.0
 10
4.1104184735
 20
23.6497515729
 30
0.0
 10
4.1757194512
 20
23.649956869
 30
0.0
 10
4.2331508011
 20
23.6502362193
 30
0.0
 10
4.2750751508
 20
23.650522861
 30
0.0
 10
4.3030883441
 20
23.6508072777
 30
0.0
 10
4.319475483
 20
23.6509871158
 30
0.0
 10
4.3325168189
 20
23.6512513621
 30
0.0
 10
4.3421641191
 20
23.6513253656
 30
0.0
 10
4.3481608997
 20
23.6517775988
 30
0.0
 10
4.3511010351
 20
23.6516451211
 30
0.0
 10
4.351882222
 20
23.6519214817
 30
0.0
 11
3.5806609125
 21
23.6519220988
 31
0.0
 11
3.583132139
 21
23.6516922484
 31
0.0
 11
3.5892099822
 21
23.6514656152
 31
0.0
 11
3.5988306774
 21
23.6512439079
 31
0.0
 11
3.6119219266
 21
23.6510288629
 31
0.0
 11
3.6283483077
 21
23.6508224232
 31
0.0
 11
3.6479460836
 21
23.6506266247
 31
0.0
 11
3.6959396609
 21
23.650274723
 31
0.0
 11
3.7540814868
 21
23.6499863128
 31
0.0
 11
3.8202054453
 21
23.6497721635
 31
0.0
 11
3.8918140398
 21
23.6496402878
 31
0.0
 11
3.9662216821
 21
23.6495955842
 31
0.0
 11
4.0406312472
 21
23.6496399248
 31
0.0
 11
4.1122454321
 21
23.649771491
 31
0.0
 11
4.1783785492
 21
23.6499854062
 31
0.0
 11
4.236533213
 21
23.6502736235
 31
0.0
 11
4.284541153
 21
23.6506252526
 31
0.0
 11
4.304146334
 21
23.6508209404
 31
0.0
 11
4.3205814605
 21
23.6510275278
 31
0.0
 11
4.3336840212
 21
23.6512431999
 31
0.0
 11
4.3433179951
 21
23.6514658777
 31
0.0
 11
4.3494068637
 21
23.6516928893
 31
0.0
 11
4.351882222
 21
23.6519214817
 31
0.0
  0
SPLINE
  5
735
100
AcDbEntity
  8
ASSI
100
AcDbSpline
 62
253
  6
CONTINUOUS
 70
0
 71
3
 72
29
 73
25
 74
23
 42
0.0000001
 43
0.0000001
 44
0.0000000001
 12
-0.727109997
 22
0.2572297694
 32
0.0
 13
-0.7263583895
 23
-0.2593445431
 33
0.0
 40
0.0
 40
0.0
 40
0.0
 40
0.0
 40
0.0032231171
 40
0.0111232113
 40
0.0236176136
 40
0.0406082266
 40
0.0619191072
 40
0.0873397501
 40
0.149586798
 40
0.2249889815
 40
0.3107352647
 40
0.4035878127
 40
0.5000646111
 40
0.5965389168
 40
0.6893842172
 40
0.7751186269
 40
0.8505041667
 40
0.9127325955
 40
0.938143639
 40
0.9594431793
 40
0.9764191147
 40
0.9888962758
 40
0.9967820666
 40
1.0
 40
1.0
 40
1.0
 40
1.0
 10
-3.5806627131
 20
-23.6519214817
 30
0.0
 10
-3.5814439
 20
-23.6516451211
 30
0.0
 10
-3.5843840353
 20
-23.6517775988
 30
0.0
 10
-3.590380816
 20
-23.6513253656
 30
0.0
 10
-3.6000281162
 20
-23.6512513621
 30
0.0
 10
-3.613069452
 20
-23.6509871158
 30
0.0
 10
-3.629456591
 20
-23.6508072777
 30
0.0
 10
-3.6574697843
 20
-23.650522861
 30
0.0
 10
-3.699394134
 20
-23.6502362193
 30
0.0
 10
-3.7568254838
 20
-23.649956869
 30
0.0
 10
-3.8221264616
 20
-23.6497515729
 30
0.0
 10
-3.8928454129
 20
-23.6496239558
 30
0.0
 10
-3.9663226121
 20
-23.649581034
 30
0.0
 10
-4.0397979481
 20
-23.6496243194
 30
0.0
 10
-4.110511341
 20
-23.6497522438
 30
0.0
 10
-4.1758031271
 20
-23.649957762
 30
0.0
 10
-4.2332223457
 20
-23.6502372817
 30
0.0
 10
-4.2751351899
 20
-23.6505241103
 30
0.0
 10
-4.303138163
 20
-23.6508088207
 30
0.0
 10
-4.3195162475
 20
-23.6509884274
 30
0.0
 10
-4.3325462021
 20
-23.6512524891
 30
0.0
 10
-4.3421822413
 20
-23.6513246894
 30
0.0
 10
-4.3481684923
 20
-23.6517775732
 30
0.0
 10
-4.3511048983
 20
-23.6516439143
 30
0.0
 10
-4.3518840226
 20
-23.6519220988
 30
0.0
 11
-3.5806627131
 21
-23.6519214817
 31
0.0
 11
-3.5831380714
 21
-23.6516928893
 31
0.0
 11
-3.5892269399
 21
-23.6514658777
 31
0.0
 11
-3.5988609138
 21
-23.6512431999
 31
0.0
 11
-3.6119634746
 21
-23.6510275278
 31
0.0
 11
-3.628398601
 21
-23.6508209404
 31
0.0
 11
-3.6480037821
 21
-23.6506252526
 31
0.0
 11
-3.6960117221
 21
-23.6502736235
 31
0.0
 11
-3.7541663859
 21
-23.6499854062
 31
0.0
 11
-3.8202995029
 21
-23.649771491
 31
0.0
 11
-3.8919136879
 21
-23.6496399248
 31
0.0
 11
-3.9663232529
 21
-23.6495955842
 31
0.0
 11
-4.0407308953
 21
-23.6496402878
 31
0.0
 11
-4.1123394898
 21
-23.6497721635
 31
0.0
 11
-4.1784634483
 21
-23.6499863128
 31
0.0
 11
-4.2366052742
 21
-23.650274723
 31
0.0
 11
-4.2845988515
 21
-23.6506266247
 31
0.0
 11
-4.3041966274
 21
-23.6508224232
 31
0.0
 11
-4.3206230085
 21
-23.6510288629
 31
0.0
 11
-4.3337142577
 21
-23.6512439079
 31
0.0
 11
-4.3433349528
 21
-23.6514656152
 31
0.0
 11
-4.3494127961
 21
-23.6516922484
 31
0.0
 11
-4.3518840226
 21
-23.6519220988
 31
0.0
  0
SPLINE
  5
736
100
AcDbEntity
  8
ASSI
100
AcDbSpline
 62
253
  6
CONTINUOUS
 70
0
 71
3
 72
29
 73
25
 74
23
 42
0.0000001
 43
0.0000001
 44
0.0000000001
 12
0.7263583892
 22
-0.2593445439
 32
0.0
 13
0.7271099964
 23
0.2572297712
 33
0.0
 40
0.0
 40
0.0
 40
0.0
 40
0.0
 40
0.0032179334
 40
0.0111037242
 40
0.0235808853
 40
0.0405568207
 40
0.061856361
 40
0.0872674045
 40
0.1494958333
 40
0.2248813731
 40
0.3106157828
 40
0.4034610831
 40
0.4999353888
 40
0.5964121872
 40
0.6892647352
 40
0.7750110185
 40
0.850413202
 40
0.9126602499
 40
0.9380808928
 40
0.9593917734
 40
0.9763823864
 40
0.9888767887
 40
0.9967768829
 40
1.0
 40
1.0
 40
1.0
 40
1.0
 10
-4.3518840226
 20
23.6519220988
 30
0.0
 10
-4.3511048983
 20
23.6516439143
 30
0.0
 10
-4.3481684923
 20
23.6517775732
 30
0.0
 10
-4.3421822413
 20
23.6513246894
 30
0.0
 10
-4.3325462021
 20
23.6512524891
 30
0.0
 10
-4.3195162475
 20
23.6509884274
 30
0.0
 10
-4.303138163
 20
23.6508088207
 30
0.0
 10
-4.2751351899
 20
23.6505241103
 30
0.0
 10
-4.2332223457
 20
23.6502372817
 30
0.0
 10
-4.1758031272
 20
23.649957762
 30
0.0
 10
-4.110511341
 20
23.6497522438
 30
0.0
 10
-4.0397979482
 20
23.6496243194
 30
0.0
 10
-3.9663226121
 20
23.649581034
 30
0.0
 10
-3.892845413
 20
23.6496239558
 30
0.0
 10
-3.8221264616
 20
23.6497515729
 30
0.0
 10
-3.7568254838
 20
23.649956869
 30
0.0
 10
-3.699394134
 20
23.6502362193
 30
0.0
 10
-3.6574697843
 20
23.650522861
 30
0.0
 10
-3.629456591
 20
23.6508072777
 30
0.0
 10
-3.613069452
 20
23.6509871158
 30
0.0
 10
-3.6000281162
 20
23.6512513621
 30
0.0
 10
-3.590380816
 20
23.6513253656
 30
0.0
 10
-3.5843840353
 20
23.6517775988
 30
0.0
 10
-3.5814439
 20
23.6516451211
 30
0.0
 10
-3.5806627131
 20
23.6519214817
 30
0.0
 11
-4.3518840226
 21
23.6519220988
 31
0.0
 11
-4.3494127961
 21
23.6516922484
 31
0.0
 11
-4.3433349529
 21
23.6514656152
 31
0.0
 11
-4.3337142577
 21
23.6512439079
 31
0.0
 11
-4.3206230085
 21
23.6510288629
 31
0.0
 11
-4.3041966274
 21
23.6508224232
 31
0.0
 11
-4.2845988515
 21
23.6506266247
 31
0.0
 11
-4.2366052742
 21
23.650274723
 31
0.0
 11
-4.1784634483
 21
23.6499863128
 31
0.0
 11
-4.1123394898
 21
23.6497721635
 31
0.0
 11
-4.0407308953
 21
23.6496402878
 31
0.0
 11
-3.966323253
 21
23.6495955842
 31
0.0
 11
-3.8919136879
 21
23.6496399248
 31
0.0
 11
-3.8202995029
 21
23.649771491
 31
0.0
 11
-3.7541663859
 21
23.6499854062
 31
0.0
 11
-3.6960117221
 21
23.6502736235
 31
0.0
 11
-3.6480037821
 21
23.6506252526
 31
0.0
 11
-3.6283986011
 21
23.6508209404
 31
0.0
 11
-3.6119634746
 21
23.6510275278
 31
0.0
 11
-3.5988609138
 21
23.6512431999
 31
0.0
 11
-3.58922694
 21
23.6514658777
 31
0.0
 11
-3.5831380714
 21
23.6516928893
 31
0.0
 11
-3.5806627131
 21
23.6519214817
 31
0.0
  0
SPLINE
  5
737
100
AcDbEntity
  8
ASSI
100
AcDbSpline
 62
253
  6
CONTINUOUS
 70
0
 71
3
 72
14
 73
10
 74
8
 42
0.0000001
 43
0.0000001
 44
0.0000000001
 12
-0.0000000096
 22
-0.0500143991
 32
0.0
 13
0.0353803488
 23
-0.0353506865
 33
0.0
 40
0.0
 40
0.0
 40
0.0
 40
0.0
 40
0.3785041649
 40
0.5499426895
 40
0.7007184935
 40
0.8251676513
 40
0.9186227152
 40
0.9775936171
 40
1.0
 40
1.0
 40
1.0
 40
1.0
 10
10.5859750215
 20
-24.2368706193
 30
0.0
 10
10.5859750203
 20
-24.2431808387
 30
0.0
 10
10.585999548
 20
-24.2523519214
 30
0.0
 10
10.5861147615
 20
-24.2640269928
 30
0.0
 10
10.5861920275
 20
-24.2714883592
 30
0.0
 10
10.5863838892
 20
-24.2775902255
 30
0.0
 10
10.5863526465
 20
-24.2823094438
 30
0.0
 10
10.5868043613
 20
-24.2850234477
 30
0.0
 10
10.5865682945
 20
-24.286598977
 30
0.0
 10
10.5868325431
 20
-24.286863004
 30
0.0
 11
10.5859750215
 21
-24.2368706193
 31
0.0
 11
10.5860399979
 21
-24.2558011661
 31
0.0
 11
10.58611894
 21
-24.2643751975
 31
0.0
 11
10.586225278
 21
-24.271915409
 31
0.0
 11
10.5863550108
 21
-24.2781383066
 31
0.0
 11
10.5865032644
 21
-24.2828100537
 31
0.0
 11
10.5866644551
 21
-24.28575504
 31
0.0
 11
10.5868325431
 21
-24.286863004
 31
0.0
  0
SPLINE
  5
738
100
AcDbEntity
  8
ASSI
100
AcDbSpline
 62
253
  6
CONTINUOUS
 70
0
 71
3
 72
9
 73
5
 74
3
 42
0.0000001
 43
0.0000001
 44
0.0000000001
 12
-0.0013082203
 22
-0.0432844827
 32
0.0
 13
0.0000006052
 23
-0.0433042479
 33
0.0
 40
0.0
 40
0.0
 40
0.0
 40
0.0
 40
0.1835083404
 40
1.0
 40
1.0
 40
1.0
 40
1.0
 10
10.5864113981
 20
-23.8010362971
 30
0.0
 10
10.586331375
 20
-23.803683985
 30
0.0
 10
10.5860357894
 20
-23.818116118
 30
0.0
 10
10.5859748568
 20
-23.8325517149
 30
0.0
 10
10.5859750215
 20
-23.8443375673
 30
0.0
 11
10.5864113981
 21
-23.8010362971
 31
0.0
 11
10.5862307922
 21
-23.8089809352
 31
0.0
 11
10.5859750215
 21
-23.8443375673
 31
0.0
  0
SPLINE
  5
739
100
AcDbEntity
  8
ASSI
100
AcDbSpline
 62
253
  6
CONTINUOUS
 70
0
 71
3
 72
9
 73
5
 74
3
 42
0.0000001
 43
0.0000001
 44
0.0000000001
 12
0.0000001007
 22
-0.0433040262
 32
0.0
 13
0.0013110356
 23
-0.0432841757
 33
0.0
 40
0.0
 40
0.0
 40
0.0
 40
0.0
 40
0.2986840764
 40
1.0
 40
1.0
 40
1.0
 40
1.0
 10
10.5859750215
 20
23.8443375673
 30
0.0
 10
10.5859750315
 20
23.8400261596
 30
0.0
 10
10.586018476
 20
23.8255919674
 30
0.0
 10
10.5861049147
 20
23.8111549243
 30
0.0
 10
10.5864113981
 20
23.8010362971
 30
0.0
 11
10.5859750215
 21
23.8443375673
 31
0.0
 11
10.5860048195
 21
23.8314033786
 31
0.0
 11
10.5864113981
 21
23.8010362971
 31
0.0
  0
SPLINE
  5
73A
100
AcDbEntity
  8
ASSI
100
AcDbSpline
 62
253
  6
CONTINUOUS
 70
0
 71
3
 72
14
 73
10
 74
8
 42
0.0000001
 43
0.0000001
 44
0.0000000001
 12
-0.0353766991
 22
-0.0353543411
 32
0.0
 13
0.0000000128
 23
-0.0500144006
 33
0.0
 40
0.0
 40
0.0
 40
0.0
 40
0.0
 40
0.0223938169
 40
0.081343507
 40
0.1747762356
 40
0.2992083366
 40
0.4499726905
 40
0.6214130518
 40
1.0
 40
1.0
 40
1.0
 40
1.0
 10
10.5868325431
 20
24.2868630041
 30
0.0
 10
10.58656847
 20
24.2865990978
 30
0.0
 10
10.5868042696
 20
24.285024306
 30
0.0
 10
10.5863527813
 20
24.2823111138
 30
0.0
 10
10.5863839349
 20
24.2775929564
 30
0.0
 10
10.5861920926
 20
24.2714919227
 30
0.0
 10
10.5861148036
 20
24.2640310048
 30
0.0
 10
10.585999556
 20
24.252354713
 30
0.0
 10
10.5859750199
 20
24.2431822191
 30
0.0
 10
10.5859750215
 20
24.2368706193
 30
0.0
 11
10.5868325431
 21
24.2868630041
 31
0.0
 11
10.5866645041
 21
24.2857556682
 31
0.0
 11
10.5865033362
 21
24.2828117431
 31
0.0
 11
10.5863550838
 21
24.2781411135
 31
0.0
 11
10.5862253408
 21
24.2719190691
 31
0.0
 11
10.5861189877
 21
24.2643794303
 31
0.0
 11
10.5860400261
 21
24.255805307
 31
0.0
 11
10.5859750215
 21
24.2368706193
 31
0.0
  0
SPLINE
  5
73B
100
AcDbEntity
  8
RACCORDO
100
AcDbSpline
 62
253
  6
CONTINUOUS
 70
0
 71
3
 72
11
 73
7
 74
5
 42
0.0000001
 43
0.0000001
 44
0.0000000001
 12
0.0007224048
 22
-0.46436621
 32
0.0
 13
0.4643662441
 23
-0.0007001696
 33
0.0
 40
0.0
 40
0.0
 40
0.0
 40
0.0
 40
0.2481456778
 40
0.4974550941
 40
0.7482543811
 40
1.0
 40
1.0
 40
1.0
 40
1.0
 10
6.5832344211
 20
20.0091180479
 30
0.0
 10
6.583294175
 20
19.9707078919
 30
0.0
 10
6.5990930824
 20
19.892876877
 30
0.0
 10
6.6660498028
 20
19.7947902022
 30
0.0
 10
6.7656619216
 20
19.7292201155
 30
0.0
 10
6.8442556089
 20
19.7138335099
 30
0.0
 10
6.8832229981
 20
19.7137747551
 30
0.0
 11
6.5832344211
 21
20.0091180479
 31
0.0
 11
6.6062014025
 21
19.896199446
 31
0.0
 11
6.6712612502
 21
19.8004385839
 31
0.0
 11
6.7685282995
 21
19.7363861227
 31
0.0
 11
6.8832229981
 21
19.7137747551
 31
0.0
  0
SPLINE
  5
73C
100
AcDbEntity
  8
RACCORDO
100
AcDbSpline
 62
7
  6
CONTINUOUS
 70
0
 71
3
 72
11
 73
7
 74
5
 42
0.0000001
 43
0.0000001
 44
0.0000000001
 12
-0.4716415991
 22
-0.0040834923
 32
0.0
 13
0.0001626429
 23
0.4716592482
 33
0.0
 40
0.0
 40
0.0
 40
0.0
 40
0.0
 40
0.2498639665
 40
0.4998453491
 40
0.7499126833
 40
1.0
 40
1.0
 40
1.0
 40
1.0
 10
6.7298018764
 20
16.5796029287
 30
0.0
 10
6.6905197962
 20
16.5792628228
 30
0.0
 10
6.6108645815
 20
16.5948118741
 30
0.0
 10
6.5110384238
 20
16.6632294915
 30
0.0
 10
6.4452841194
 20
16.7646724915
 30
0.0
 10
6.4302169057
 20
16.8441496248
 30
0.0
 10
6.430230464
 20
16.88346829
 30
0.0
 11
6.7298018764
 21
16.5796029287
 31
0.0
 11
6.6141610726
 21
16.6023181658
 31
0.0
 11
6.5167310324
 21
16.6687201316
 31
0.0
 11
6.4524789452
 21
16.7676295069
 31
0.0
 11
6.430230464
 21
16.88346829
 31
0.0
  0
SPLINE
  5
73D
100
AcDbEntity
  8
RACCORDO
100
AcDbSpline
 62
253
  6
CONTINUOUS
 70
0
 71
3
 72
11
 73
7
 74
5
 42
0.0000001
 43
0.0000001
 44
0.0000000001
 12
0.4643662372
 22
-0.0007002075
 32
0.0
 13
0.000722407
 23
-0.4643662031
 33
0.0
 40
0.0
 40
0.0
 40
0.0
 40
0.0
 40
0.2517455431
 40
0.5025447792
 40
0.7518542489
 40
1.0
 40
1.0
 40
1.0
 40
1.0
 10
6.9167770019
 20
-19.7137747542
 30
0.0
 10
6.9557443788
 20
-19.7138335123
 30
0.0
 10
7.0343380438
 20
-19.7292201106
 30
0.0
 10
7.1339501586
 20
-19.7947901768
 30
0.0
 10
7.2009069023
 20
-19.8928768479
 30
0.0
 10
7.2167058248
 20
-19.9707078811
 30
0.0
 10
7.2167655789
 20
-20.0091180479
 30
0.0
 11
6.9167770019
 21
-19.7137747542
 31
0.0
 11
7.0314716647
 21
-19.736386113
 31
0.0
 11
7.1287387014
 21
-19.8004385472
 31
0.0
 11
7.1937985791
 21
-19.8961994167
 31
0.0
 11
7.2167655789
 21
-20.0091180479
 31
0.0
  0
SPLINE
  5
73E
100
AcDbEntity
  8
RACCORDO
100
AcDbSpline
 62
7
  6
CONTINUOUS
 70
0
 71
3
 72
11
 73
7
 74
5
 42
0.0000001
 43
0.0000001
 44
0.0000000001
 12
0.4741412778
 22
-0.0043126566
 32
0.0
 13
-0.0001596444
 23
-0.4741608638
 33
0.0
 40
0.0
 40
0.0
 40
0.0
 40
0.0
 40
0.2499474735
 40
0.4997974029
 40
0.7497693077
 40
1.0
 40
1.0
 40
1.0
 40
1.0
 10
7.0700502745
 20
-16.582623273
 30
0.0
 10
7.1095537459
 20
-16.5829825856
 30
0.0
 10
7.1892944413
 20
-16.6001417999
 30
0.0
 10
7.2885759324
 20
-16.6701815051
 30
0.0
 10
7.3541530433
 20
-16.7723309027
 30
0.0
 10
7.3693771747
 20
-16.8522058236
 30
0.0
 10
7.3693638588
 20
-16.8917556906
 30
0.0
 11
7.0700502745
 21
-16.582623273
 31
0.0
 11
7.1859188065
 21
-16.6075303716
 31
0.0
 11
7.2829412746
 21
-16.6755124286
 31
0.0
 11
7.3470106418
 21
-16.7752307441
 31
0.0
 11
7.3693638588
 21
-16.8917556906
 31
0.0
  0
SPLINE
  5
73F
100
AcDbEntity
  8
DRAFT
100
AcDbSpline
 62
7
  6
CONTINUOUS
 70
0
 71
3
 72
8
 73
4
 74
2
 42
0.0000001
 43
0.0000001
 44
0.0000000001
 12
0.00239534
 22
5.0027011733
 32
0.0
 13
-0.00239534
 23
5.0027011733
 33
0.0
 40
0.0
 40
0.0
 40
0.0
 40
0.0
 40
1.0
 40
1.0
 40
1.0
 40
1.0
 10
8.5726502988
 20
-2.5013508734
 30
0.0
 10
8.5734487455
 20
-0.8337838156
 30
0.0
 10
8.5734487455
 20
0.8337838156
 30
0.0
 10
8.5726502988
 20
2.5013508734
 30
0.0
 11
8.5726502988
 21
-2.5013508734
 31
0.0
 11
8.5726502988
 21
2.5013508734
 31
0.0
  0
LINE
  5
740
100
AcDbEntity
  8
RACCORDO
100
AcDbLine
 62
7
  6
CONTINUOUS
 10
3.9794853236
 20
10.8518306851
 11
4.3191584032
 21
10.8519269192
  0
LINE
  5
741
100
AcDbEntity
  8
RACCORDO
100
AcDbLine
 62
7
  6
CONTINUOUS
 10
4.6527036778
 20
11.1508009236
 11
4.649648509
 21
11.3491528964
  0
LINE
  5
742
100
AcDbEntity
  8
RACCORDO
100
AcDbLine
 62
7
  6
CONTINUOUS
 10
4.3068156058
 20
11.6478865147
 11
3.9783586756
 21
11.6479784825
  0
LINE
  5
743
100
AcDbEntity
  8
DRAFT
100
AcDbLine
 62
7
  6
CONTINUOUS
 10
0.3974534648
 20
15.2285168621
 11
0.3956412176
 21
19.9301804062
  0
LINE
  5
744
100
AcDbEntity
  8
RACCORDO
100
AcDbLine
 62
7
  6
CONTINUOUS
 10
6.7298018764
 20
16.5796029287
 11
7.0700502745
 21
16.582623273
  0
LINE
  5
745
100
AcDbEntity
  8
RACCORDO
100
AcDbLine
 62
7
  6
CONTINUOUS
 10
7.0700502745
 20
-16.582623273
 11
6.7298018764
 21
-16.5796029287
  0
LINE
  5
746
100
AcDbEntity
  8
DRAFT
100
AcDbLine
 62
7
  6
CONTINUOUS
 10
0.3956412176
 20
-19.9301804062
 11
0.3974534648
 21
-15.2285168621
  0
LINE
  5
747
100
AcDbEntity
  8
RACCORDO
100
AcDbLine
 62
7
  6
CONTINUOUS
 10
3.9783586757
 20
-11.6479784825
 11
4.3068156058
 21
-11.6478865147
  0
LINE
  5
748
100
AcDbEntity
  8
RACCORDO
100
AcDbLine
 62
7
  6
CONTINUOUS
 10
4.649648509
 20
-11.3491528964
 11
4.6527036778
 21
-11.1508009236
  0
LINE
  5
749
100
AcDbEntity
  8
RACCORDO
100
AcDbLine
 62
7
  6
CONTINUOUS
 10
4.3191584032
 20
-10.8519269192
 11
3.9794853236
 21
-10.8518306851
  0
SPLINE
  5
74A
100
AcDbEntity
  8
DRAFT
100
AcDbSpline
 62
7
  6
CONTINUOUS
 70
0
 71
3
 72
8
 73
4
 74
2
 42
0.0000001
 43
0.0000001
 44
0.0000000001
 12
-0.00239534
 22
-5.0027011733
 32
0.0
 13
0.00239534
 23
-5.0027011733
 33
0.0
 40
0.0
 40
0.0
 40
0.0
 40
0.0
 40
1.0
 40
1.0
 40
1.0
 40
1.0
 10
-8.5726502988
 20
2.5013508734
 30
0.0
 10
-8.5734487455
 20
0.8337838156
 30
0.0
 10
-8.5734487455
 20
-0.8337838156
 30
0.0
 10
-8.5726502988
 20
-2.5013508734
 30
0.0
 11
-8.5726502988
 21
2.5013508734
 31
0.0
 11
-8.5726502988
 21
-2.5013508734
 31
0.0
  0
LINE
  5
74B
100
AcDbEntity
  8
RACCORDO
100
AcDbLine
 62
7
  6
CONTINUOUS
 10
-3.9794853236
 20
-10.8518306851
 11
-4.3191584032
 21
-10.8519269192
  0
LINE
  5
74C
100
AcDbEntity
  8
RACCORDO
100
AcDbLine
 62
7
  6
CONTINUOUS
 10
-4.6527036778
 20
-11.1508009236
 11
-4.649648509
 21
-11.3491528964
  0
LINE
  5
74D
100
AcDbEntity
  8
RACCORDO
100
AcDbLine
 62
7
  6
CONTINUOUS
 10
-4.3068156058
 20
-11.6478865147
 11
-3.9783586756
 21
-11.6479784825
  0
LINE
  5
74E
100
AcDbEntity
  8
DRAFT
100
AcDbLine
 62
7
  6
CONTINUOUS
 10
-0.3974534648
 20
-15.2285168621
 11
-0.3956412176
 21
-19.9301804062
  0
LINE
  5
74F
100
AcDbEntity
  8
RACCORDO
100
AcDbLine
 62
7
  6
CONTINUOUS
 10
-6.7298018764
 20
-16.5796029287
 11
-7.0700502745
 21
-16.582623273
  0
LINE
  5
750
100
AcDbEntity
  8
RACCORDO
100
AcDbLine
 62
7
  6
CONTINUOUS
 10
-7.0700505807
 20
16.5819731584
 11
-6.7298015678
 21
16.5789521585
  0
LINE
  5
751
100
AcDbEntity
  8
DRAFT
100
AcDbLine
 62
7
  6
CONTINUOUS
 10
-0.3956412176
 20
19.9301804062
 11
-0.3974534648
 21
15.2285168621
  0
LINE
  5
752
100
AcDbEntity
  8
RACCORDO
100
AcDbLine
 62
7
  6
CONTINUOUS
 10
-3.9783586757
 20
11.6479784825
 11
-4.3068156058
 21
11.6478865147
  0
LINE
  5
753
100
AcDbEntity
  8
RACCORDO
100
AcDbLine
 62
7
  6
CONTINUOUS
 10
-4.649648509
 20
11.3491528964
 11
-4.6527036778
 21
11.1508009236
  0
LINE
  5
754
100
AcDbEntity
  8
RACCORDO
100
AcDbLine
 62
7
  6
CONTINUOUS
 10
-4.3191584032
 20
10.8519269192
 11
-3.9794853236
 21
10.8518306851
  0
SPLINE
  5
755
100
AcDbEntity
  8
RACCORDO
100
AcDbSpline
 62
7
  6
CONTINUOUS
 70
0
 71
3
 72
11
 73
7
 74
5
 42
0.0000001
 43
0.0000001
 44
0.0000000001
 12
-0.0001626429
 22
0.4716592482
 32
0.0
 13
0.4716415991
 23
-0.0040834923
 33
0.0
 40
0.0
 40
0.0
 40
0.0
 40
0.0
 40
0.2500873167
 40
0.5001546509
 40
0.7501360335
 40
1.0
 40
1.0
 40
1.0
 40
1.0
 10
6.430230464
 20
-16.88346829
 30
0.0
 10
6.4302169057
 20
-16.8441496248
 30
0.0
 10
6.4452841194
 20
-16.7646724915
 30
0.0
 10
6.5110384238
 20
-16.6632294915
 30
0.0
 10
6.6108645815
 20
-16.5948118741
 30
0.0
 10
6.6905197962
 20
-16.5792628228
 30
0.0
 10
6.7298018764
 20
-16.5796029287
 30
0.0
 11
6.430230464
 21
-16.88346829
 31
0.0
 11
6.4524789452
 21
-16.7676295069
 31
0.0
 11
6.5167310324
 21
-16.6687201316
 31
0.0
 11
6.6141610726
 21
-16.6023181658
 31
0.0
 11
6.7298018764
 21
-16.5796029287
 31
0.0
  0
SPLINE
  5
756
100
AcDbEntity
  8
RACCORDO
100
AcDbSpline
 62
253
  6
CONTINUOUS
 70
0
 71
3
 72
11
 73
7
 74
5
 42
0.0000001
 43
0.0000001
 44
0.0000000001
 12
0.000722407
 22
0.4643662026
 32
0.0
 13
0.4643662366
 23
0.0007002146
 33
0.0
 40
0.0
 40
0.0
 40
0.0
 40
0.0
 40
0.2481457512
 40
0.4974552204
 40
0.7482544562
 40
1.0
 40
1.0
 40
1.0
 40
1.0
 10
6.5832344211
 20
-20.0091180479
 30
0.0
 10
6.5832941752
 20
-19.9707078812
 30
0.0
 10
6.5990930977
 20
-19.8928768481
 30
0.0
 10
6.6660498414
 20
-19.7947901772
 30
0.0
 10
6.7656619566
 20
-19.7292201119
 30
0.0
 10
6.8442556212
 20
-19.7138335129
 30
0.0
 10
6.8832229981
 20
-19.7137747542
 30
0.0
 11
6.5832344211
 21
-20.0091180479
 31
0.0
 11
6.6062014209
 21
-19.8961994169
 31
0.0
 11
6.6712612986
 21
-19.8004385477
 31
0.0
 11
6.7685283354
 21
-19.736386114
 31
0.0
 11
6.8832229981
 21
-19.7137747542
 31
0.0
  0
SPLINE
  5
757
100
AcDbEntity
  8
RACCORDO
100
AcDbSpline
 62
253
  6
CONTINUOUS
 70
0
 71
3
 72
11
 73
7
 74
5
 42
0.0000001
 43
0.0000001
 44
0.0000000001
 12
0.4643662372
 22
-0.0007002075
 32
0.0
 13
0.000722407
 23
-0.4643662031
 33
0.0
 40
0.0
 40
0.0
 40
0.0
 40
0.0
 40
0.2517455431
 40
0.5025447792
 40
0.7518542489
 40
1.0
 40
1.0
 40
1.0
 40
1.0
 10
-6.8832229981
 20
-19.7137747542
 30
0.0
 10
-6.8442556212
 20
-19.7138335123
 30
0.0
 10
-6.7656619562
 20
-19.7292201106
 30
0.0
 10
-6.6660498414
 20
-19.7947901768
 30
0.0
 10
-6.5990930977
 20
-19.8928768479
 30
0.0
 10
-6.5832941752
 20
-19.9707078811
 30
0.0
 10
-6.5832344211
 20
-20.0091180479
 30
0.0
 11
-6.8832229981
 21
-19.7137747542
 31
0.0
 11
-6.7685283353
 21
-19.736386113
 31
0.0
 11
-6.6712612986
 21
-19.8004385472
 31
0.0
 11
-6.6062014209
 21
-19.8961994167
 31
0.0
 11
-6.5832344211
 21
-20.0091180479
 31
0.0
  0
SPLINE
  5
758
100
AcDbEntity
  8
RACCORDO
100
AcDbSpline
 62
7
  6
CONTINUOUS
 70
0
 71
3
 72
11
 73
7
 74
5
 42
0.0000001
 43
0.0000001
 44
0.0000000001
 12
0.4716416203
 22
0.0040834925
 32
0.0
 13
-0.0001626429
 23
-0.4716592695
 33
0.0
 40
0.0
 40
0.0
 40
0.0
 40
0.0
 40
0.2498614269
 40
0.4998381424
 40
0.7499097884
 40
1.0
 40
1.0
 40
1.0
 40
1.0
 10
-6.7298018764
 20
-16.5796029287
 30
0.0
 10
-6.6905201937
 20
-16.5792628263
 30
0.0
 10
-6.6108661162
 20
-16.5948113462
 30
0.0
 10
-6.5110398989
 20
-16.6632279033
 30
0.0
 10
-6.4452846707
 20
-16.7646709098
 30
0.0
 10
-6.4302169055
 20
-16.8441491679
 30
0.0
 10
-6.430230464
 20
-16.88346829
 30
0.0
 11
-6.7298018764
 21
-16.5796029287
 31
0.0
 11
-6.6141621776
 21
-16.6023176039
 31
0.0
 11
-6.516733452
 21
-16.6687175995
 31
0.0
 11
-6.45247955
 21
-16.7676282273
 31
0.0
 11
-6.430230464
 21
-16.88346829
 31
0.0
  0
SPLINE
  5
759
100
AcDbEntity
  8
RACCORDO
100
AcDbSpline
 62
7
  6
CONTINUOUS
 70
0
 71
3
 72
11
 73
7
 74
5
 42
0.0000001
 43
0.0000001
 44
0.0000000001
 12
-0.0001596444
 22
0.4741608474
 32
0.0
 13
0.4741412613
 23
0.0043126565
 33
0.0
 40
0.0
 40
0.0
 40
0.0
 40
0.0
 40
0.2502284186
 40
0.5001964678
 40
0.7500505495
 40
1.0
 40
1.0
 40
1.0
 40
1.0
 10
-7.3693638587
 20
-16.8917556906
 30
0.0
 10
-7.3693771746
 20
-16.8522061843
 30
0.0
 10
-7.3541535059
 20
-16.7723322205
 30
0.0
 10
-7.2885771354
 20
-16.6701828297
 30
0.0
 10
-7.1892957145
 20
-16.6001422589
 30
0.0
 10
-7.109554057
 20
-16.5829825884
 30
0.0
 10
-7.0700502745
 20
-16.582623273
 30
0.0
 11
-7.3693638587
 21
-16.8917556906
 31
0.0
 11
-7.3470111242
 21
-16.7752317535
 31
0.0
 11
-7.282943322
 21
-16.6755146104
 31
0.0
 11
-7.1859196627
 21
-16.6075308296
 31
0.0
 11
-7.0700502745
 21
-16.582623273
 31
0.0
  0
SPLINE
  5
75A
100
AcDbEntity
  8
RACCORDO
100
AcDbSpline
 62
253
  6
CONTINUOUS
 70
0
 71
3
 72
11
 73
7
 74
5
 42
0.0000001
 43
0.0000001
 44
0.0000000001
 12
0.000722407
 22
0.4643662026
 32
0.0
 13
0.4643662366
 23
0.0007002146
 33
0.0
 40
0.0
 40
0.0
 40
0.0
 40
0.0
 40
0.2481457512
 40
0.4974552204
 40
0.7482544562
 40
1.0
 40
1.0
 40
1.0
 40
1.0
 10
-7.2167655789
 20
-20.0091180479
 30
0.0
 10
-7.2167058248
 20
-19.9707078812
 30
0.0
 10
-7.2009069023
 20
-19.8928768481
 30
0.0
 10
-7.1339501586
 20
-19.7947901772
 30
0.0
 10
-7.0343380434
 20
-19.7292201119
 30
0.0
 10
-6.9557443788
 20
-19.7138335129
 30
0.0
 10
-6.9167770019
 20
-19.7137747542
 30
0.0
 11
-7.2167655789
 21
-20.0091180479
 31
0.0
 11
-7.1937985791
 21
-19.8961994169
 31
0.0
 11
-7.1287387014
 21
-19.8004385477
 31
0.0
 11
-7.0314716646
 21
-19.736386114
 31
0.0
 11
-6.9167770019
 21
-19.7137747542
 31
0.0
  0
SPLINE
  5
75B
100
AcDbEntity
  8
RACCORDO
100
AcDbSpline
 62
7
  6
CONTINUOUS
 70
0
 71
3
 72
11
 73
7
 74
5
 42
0.0000001
 43
0.0000001
 44
0.0000000001
 12
0.0001626371
 22
-0.4716606015
 32
0.0
 13
-0.4716429447
 23
0.0040843828
 33
0.0
 40
0.0
 40
0.0
 40
0.0
 40
0.0
 40
0.2500873525
 40
0.5001546986
 40
0.7501360652
 40
1.0
 40
1.0
 40
1.0
 40
1.0
 10
-6.4302302401
 20
16.8828191349
 30
0.0
 10
-6.4302166823
 20
16.8435003512
 30
0.0
 10
-6.445283748
 20
16.7640229945
 30
0.0
 10
-6.5110377168
 20
16.6625793763
 30
0.0
 10
-6.6108638942
 20
16.5941611114
 30
0.0
 10
-6.6905193805
 20
16.5786119786
 30
0.0
 10
-6.7298015678
 20
16.5789521585
 30
0.0
 11
-6.4302302401
 21
16.8828191349
 31
0.0
 11
-6.4524785568
 21
16.7669799583
 31
0.0
 11
-6.5167303888
 21
16.668070007
 31
0.0
 11
-6.614160453
 21
16.6016674891
 31
0.0
 11
-6.7298015678
 21
16.5789521585
 31
0.0
  0
SPLINE
  5
75C
100
AcDbEntity
  8
RACCORDO
100
AcDbSpline
 62
253
  6
CONTINUOUS
 70
0
 71
3
 72
11
 73
7
 74
5
 42
0.0000001
 43
0.0000001
 44
0.0000000001
 12
-0.0007225503
 22
-0.4643647363
 32
0.0
 13
-0.4643647703
 23
-0.0007003448
 33
0.0
 40
0.0
 40
0.0
 40
0.0
 40
0.0
 40
0.2481450236
 40
0.4974542091
 40
0.7482537531
 40
1.0
 40
1.0
 40
1.0
 40
1.0
 10
-6.583234481
 20
20.0091044624
 30
0.0
 10
-6.5832942467
 20
19.9706945295
 30
0.0
 10
-6.599093224
 20
19.8928638999
 30
0.0
 10
-6.6660500409
 20
19.794777854
 30
0.0
 10
-6.7656621329
 20
19.7292082623
 30
0.0
 10
-6.8442556952
 20
19.7138217717
 30
0.0
 10
-6.8832230579
 20
19.7137630019
 30
0.0
 11
-6.583234481
 21
20.0091044624
 31
0.0
 11
-6.6062015064
 21
19.8961865526
 31
0.0
 11
-6.6712613901
 21
19.8004262887
 31
0.0
 11
-6.7685284159
 21
19.7363742467
 31
0.0
 11
-6.8832230579
 21
19.7137630019
 31
0.0
  0
SPLINE
  5
75D
100
AcDbEntity
  8
RACCORDO
100
AcDbSpline
 62
253
  6
CONTINUOUS
 70
0
 71
3
 72
11
 73
7
 74
5
 42
0.0000001
 43
0.0000001
 44
0.0000000001
 12
-0.4643647709
 22
0.0007003377
 32
0.0
 13
-0.0007225503
 23
0.4643647369
 33
0.0
 40
0.0
 40
0.0
 40
0.0
 40
0.0
 40
0.2517462463
 40
0.5025457905
 40
0.7518549764
 40
1.0
 40
1.0
 40
1.0
 40
1.0
 10
-6.9167769421
 20
19.7137630019
 30
0.0
 10
-6.9557443048
 20
19.7138217711
 30
0.0
 10
-7.0343378675
 20
19.729208261
 30
0.0
 10
-7.1339499591
 20
19.7947778537
 30
0.0
 10
-7.200906776
 20
19.8928638997
 30
0.0
 10
-7.2167057533
 20
19.9706945295
 30
0.0
 10
-7.216765519
 20
20.0091044624
 30
0.0
 11
-6.9167769421
 21
19.7137630019
 31
0.0
 11
-7.0314715842
 21
19.7363742456
 31
0.0
 11
-7.1287386099
 21
19.8004262881
 31
0.0
 11
-7.1937984936
 21
19.8961865525
 31
0.0
 11
-7.216765519
 21
20.0091044624
 31
0.0
  0
SPLINE
  5
75E
100
AcDbEntity
  8
RACCORDO
100
AcDbSpline
 62
7
  6
CONTINUOUS
 70
0
 71
3
 72
11
 73
7
 74
5
 42
0.0000001
 43
0.0000001
 44
0.0000000001
 12
-0.4741432129
 22
0.0043136026
 32
0.0
 13
0.0001596389
 23
0.4741628075
 33
0.0
 40
0.0
 40
0.0
 40
0.0
 40
0.0
 40
0.2499474333
 40
0.4997973536
 40
0.749769278
 40
1.0
 40
1.0
 40
1.0
 40
1.0
 10
-7.0700505807
 20
16.5819731584
 30
0.0
 10
-7.1095542071
 20
16.5823325497
 30
0.0
 10
-7.1892951957
 20
16.5994921946
 30
0.0
 10
-7.2885766093
 20
16.6695328815
 30
0.0
 10
-7.3541533731
 20
16.7716830533
 30
0.0
 10
-7.3693773922
 20
16.8515582917
 30
0.0
 10
-7.3693640767
 20
16.8911083256
 30
0.0
 11
-7.0700505807
 21
16.5819731584
 31
0.0
 11
-7.1859194693
 21
16.6068808197
 31
0.0
 11
-7.2829419021
 21
16.6748637656
 31
0.0
 11
-7.3470110004
 21
16.7745828425
 31
0.0
 11
-7.3693640767
 21
16.8911083256
 31
0.0
  0
SPLINE
  5
75F
100
AcDbEntity
  8
RACCORDO
100
AcDbSpline
 62
7
  6
CONTINUOUS
 70
0
 71
3
 72
11
 73
7
 74
5
 42
0.0000001
 43
0.0000001
 44
0.0000000001
 12
0.0001596444
 22
-0.4741608474
 32
0.0
 13
-0.4741412613
 23
-0.0043126565
 33
0.0
 40
0.0
 40
0.0
 40
0.0
 40
0.0
 40
0.2502284186
 40
0.5001964678
 40
0.7500505495
 40
1.0
 40
1.0
 40
1.0
 40
1.0
 10
7.3693638588
 20
16.8917556906
 30
0.0
 10
7.3693771746
 20
16.8522061843
 30
0.0
 10
7.3541535059
 20
16.7723322205
 30
0.0
 10
7.2885771354
 20
16.6701828297
 30
0.0
 10
7.1892957145
 20
16.6001422589
 30
0.0
 10
7.109554057
 20
16.5829825884
 30
0.0
 10
7.0700502745
 20
16.582623273
 30
0.0
 11
7.3693638588
 21
16.8917556906
 31
0.0
 11
7.3470111242
 21
16.7752317535
 31
0.0
 11
7.282943322
 21
16.6755146104
 31
0.0
 11
7.1859196627
 21
16.6075308297
 31
0.0
 11
7.0700502745
 21
16.582623273
 31
0.0
  0
SPLINE
  5
760
100
AcDbEntity
  8
RACCORDO
100
AcDbSpline
 62
253
  6
CONTINUOUS
 70
0
 71
3
 72
11
 73
7
 74
5
 42
0.0000001
 43
0.0000001
 44
0.0000000001
 12
-0.000722407
 22
-0.4643662026
 32
0.0
 13
-0.4643662366
 23
-0.0007002146
 33
0.0
 40
0.0
 40
0.0
 40
0.0
 40
0.0
 40
0.2481457512
 40
0.4974552204
 40
0.7482544562
 40
1.0
 40
1.0
 40
1.0
 40
1.0
 10
7.2167655789
 20
20.0091180479
 30
0.0
 10
7.2167058248
 20
19.9707078812
 30
0.0
 10
7.2009069023
 20
19.8928768481
 30
0.0
 10
7.1339501586
 20
19.7947901772
 30
0.0
 10
7.0343380434
 20
19.7292201119
 30
0.0
 10
6.9557443788
 20
19.7138335129
 30
0.0
 10
6.9167770019
 20
19.7137747542
 30
0.0
 11
7.2167655789
 21
20.0091180479
 31
0.0
 11
7.1937985791
 21
19.8961994169
 31
0.0
 11
7.1287387014
 21
19.8004385477
 31
0.0
 11
7.0314716646
 21
19.736386114
 31
0.0
 11
6.9167770019
 21
19.7137747542
 31
0.0
  0
SPLINE
  5
761
100
AcDbEntity
  8
RACCORDO
100
AcDbSpline
 62
253
  6
CONTINUOUS
 70
0
 71
3
 72
10
 73
6
 74
4
 42
0.0000001
 43
0.0000001
 44
0.0000000001
 12
0.0000003782
 22
-0.4922396974
 32
0.0
 13
-0.0096857243
 23
-0.492144396
 33
0.0
 40
0.0
 40
0.0
 40
0.0
 40
0.0
 40
0.6521544213
 40
0.8789347829
 40
1.0
 40
1.0
 40
1.0
 40
1.0
 10
-6.9153379589
 20
20.2059987694
 30
0.0
 10
-6.9153378767
 20
20.0989933377
 30
0.0
 10
-6.9153898419
 20
19.9547758217
 30
0.0
 10
-6.9161317284
 20
19.7907002868
 30
0.0
 10
-6.916386074
 20
19.7336235246
 30
0.0
 10
-6.9167769421
 20
19.7137630019
 30
0.0
 11
-6.9153379589
 21
20.2059987694
 31
0.0
 11
-6.9157453719
 21
19.8849827329
 31
0.0
 11
-6.9162085774
 21
19.7733533973
 31
0.0
 11
-6.9167769421
 21
19.7137630019
 31
0.0
  0
SPLINE
  5
762
100
AcDbEntity
  8
RACCORDO
100
AcDbSpline
 62
253
  6
CONTINUOUS
 70
0
 71
3
 72
10
 73
6
 74
4
 42
0.0000001
 43
0.0000001
 44
0.0000000001
 12
0.0000000852
 22
-0.4922550361
 32
0.0
 13
0.0096743283
 23
-0.4921599617
 33
0.0
 40
0.0
 40
0.0
 40
0.0
 40
0.0
 40
0.6521538684
 40
0.8789326095
 40
1.0
 40
1.0
 40
1.0
 40
1.0
 10
-6.8846620485
 20
20.2060141064
 30
0.0
 10
-6.88466203
 20
20.0990054311
 30
0.0
 10
-6.8846096115
 20
19.9547837886
 30
0.0
 10
-6.8838691164
 20
19.7907031197
 30
0.0
 10
-6.8836134731
 20
19.7336245094
 30
0.0
 10
-6.8832230579
 20
19.7137630019
 30
0.0
 11
-6.8846620485
 21
20.2060141064
 31
0.0
 11
-6.8842547846
 21
19.8849883387
 31
0.0
 11
-6.8837916601
 21
19.7733563221
 31
0.0
 11
-6.8832230579
 21
19.7137630019
 31
0.0
  0
SPLINE
  5
763
100
AcDbEntity
  8
RACCORDO
100
AcDbSpline
 62
253
  6
CONTINUOUS
 70
0
 71
3
 72
10
 73
6
 74
4
 42
0.0000001
 43
0.0000001
 44
0.0000000001
 12
0.0000000834
 22
-0.4922573341
 32
0.0
 13
0.0096763284
 23
-0.4921622209
 33
0.0
 40
0.0
 40
0.0
 40
0.0
 40
0.0
 40
0.6521634241
 40
0.8789404522
 40
1.0
 40
1.0
 40
1.0
 40
1.0
 10
6.9153379519
 20
20.2060281563
 30
0.0
 10
6.91533797
 20
20.0990174135
 30
0.0
 10
6.9153903523
 20
19.9547938097
 30
0.0
 10
6.916130944
 20
19.7907123769
 30
0.0
 10
6.9163865313
 20
19.7336350662
 30
0.0
 10
6.9167770019
 20
19.7137747542
 30
0.0
 11
6.9153379519
 21
20.2060281563
 31
0.0
 11
6.9157452357
 21
19.8849961861
 31
0.0
 11
6.9162083799
 21
19.7733644916
 31
0.0
 11
6.9167770019
 21
19.7137747542
 31
0.0
  0
SPLINE
  5
764
100
AcDbEntity
  8
RACCORDO
100
AcDbSpline
 62
253
  6
CONTINUOUS
 70
0
 71
3
 72
10
 73
6
 74
4
 42
0.0000001
 43
0.0000001
 44
0.0000000001
 12
0.0096763284
 22
0.4921622208
 32
0.0
 13
0.0000000834
 23
0.492257334
 33
0.0
 40
0.0
 40
0.0
 40
0.0
 40
0.0
 40
0.1210595478
 40
0.3478365759
 40
1.0
 40
1.0
 40
1.0
 40
1.0
 10
6.8832229981
 20
19.7137747542
 30
0.0
 10
6.8836134687
 20
19.7336350662
 30
0.0
 10
6.883869056
 20
19.7907123769
 30
0.0
 10
6.8846096477
 20
19.9547938096
 30
0.0
 10
6.88466203
 20
20.0990174134
 30
0.0
 10
6.8846620481
 20
20.2060281562
 30
0.0
 11
6.8832229981
 21
19.7137747542
 31
0.0
 11
6.8837916201
 21
19.7733644916
 31
0.0
 11
6.8842547643
 21
19.8849961861
 31
0.0
 11
6.8846620481
 21
20.2060281562
 31
0.0
  0
SPLINE
  5
765
100
AcDbEntity
  8
RACCORDO
100
AcDbSpline
 62
253
  6
CONTINUOUS
 70
0
 71
3
 72
10
 73
6
 74
4
 42
0.0000001
 43
0.0000001
 44
0.0000000001
 12
-0.0000003781
 22
0.4922427533
 32
0.0
 13
0.0096877367
 23
0.4921474128
 33
0.0
 40
0.0
 40
0.0
 40
0.0
 40
0.0
 40
0.6521639259
 40
0.8789426205
 40
1.0
 40
1.0
 40
1.0
 40
1.0
 10
6.9153379589
 20
-20.206013577
 30
0.0
 10
6.9153378767
 20
-20.0990059215
 30
0.0
 10
6.9153898045
 20
-19.9547862231
 30
0.0
 10
6.9161317881
 20
-19.7907096718
 30
0.0
 10
6.9163860779
 20
-19.7336341129
 30
0.0
 10
6.9167770019
 20
-19.7137747542
 30
0.0
 11
6.9153379589
 21
-20.206013577
 31
0.0
 11
6.9157453914
 21
-19.8849908691
 31
0.0
 11
6.9162086169
 21
-19.7733616612
 31
0.0
 11
6.9167770019
 21
-19.7137747542
 31
0.0
  0
SPLINE
  5
766
100
AcDbEntity
  8
RACCORDO
100
AcDbSpline
 62
253
  6
CONTINUOUS
 70
0
 71
3
 72
10
 73
6
 74
4
 42
0.0000001
 43
0.0000001
 44
0.0000000001
 12
-0.0000000834
 22
0.4922573341
 32
0.0
 13
-0.0096763284
 23
0.4921622208
 33
0.0
 40
0.0
 40
0.0
 40
0.0
 40
0.0
 40
0.6521634241
 40
0.8789404522
 40
1.0
 40
1.0
 40
1.0
 40
1.0
 10
6.8846620481
 20
-20.2060281562
 30
0.0
 10
6.88466203
 20
-20.0990174134
 30
0.0
 10
6.8846096477
 20
-19.9547938097
 30
0.0
 10
6.883869056
 20
-19.7907123769
 30
0.0
 10
6.8836134687
 20
-19.7336350662
 30
0.0
 10
6.8832229981
 20
-19.7137747542
 30
0.0
 11
6.8846620481
 21
-20.2060281562
 31
0.0
 11
6.8842547643
 21
-19.8849961861
 31
0.0
 11
6.8837916201
 21
-19.7733644916
 31
0.0
 11
6.8832229981
 21
-19.7137747542
 31
0.0
  0
SPLINE
  5
767
100
AcDbEntity
  8
RACCORDO
100
AcDbSpline
 62
253
  6
CONTINUOUS
 70
0
 71
3
 72
10
 73
6
 74
4
 42
0.0000001
 43
0.0000001
 44
0.0000000001
 12
-0.0000003781
 22
0.4922427533
 32
0.0
 13
0.0096877367
 23
0.4921474128
 33
0.0
 40
0.0
 40
0.0
 40
0.0
 40
0.0
 40
0.6521639259
 40
0.8789426205
 40
1.0
 40
1.0
 40
1.0
 40
1.0
 10
-6.8846620411
 20
-20.206013577
 30
0.0
 10
-6.8846621233
 20
-20.0990059215
 30
0.0
 10
-6.8846101955
 20
-19.9547862231
 30
0.0
 10
-6.8838682119
 20
-19.7907096718
 30
0.0
 10
-6.8836139221
 20
-19.7336341129
 30
0.0
 10
-6.8832229981
 20
-19.7137747542
 30
0.0
 11
-6.8846620411
 21
-20.206013577
 31
0.0
 11
-6.8842546086
 21
-19.8849908691
 31
0.0
 11
-6.8837913831
 21
-19.7733616612
 31
0.0
 11
-6.8832229981
 21
-19.7137747542
 31
0.0
  0
SPLINE
  5
768
100
AcDbEntity
  8
RACCORDO
100
AcDbSpline
 62
253
  6
CONTINUOUS
 70
0
 71
3
 72
10
 73
6
 74
4
 42
0.0000001
 43
0.0000001
 44
0.0000000001
 12
-0.0000000834
 22
0.4922573341
 32
0.0
 13
-0.0096763284
 23
0.4921622208
 33
0.0
 40
0.0
 40
0.0
 40
0.0
 40
0.0
 40
0.6521634241
 40
0.8789404522
 40
1.0
 40
1.0
 40
1.0
 40
1.0
 10
-6.9153379519
 20
-20.2060281563
 30
0.0
 10
-6.91533797
 20
-20.0990174134
 30
0.0
 10
-6.9153903523
 20
-19.9547938097
 30
0.0
 10
-6.916130944
 20
-19.7907123769
 30
0.0
 10
-6.9163865313
 20
-19.7336350662
 30
0.0
 10
-6.9167770019
 20
-19.7137747542
 30
0.0
 11
-6.9153379519
 21
-20.2060281563
 31
0.0
 11
-6.9157452357
 21
-19.8849961861
 31
0.0
 11
-6.9162083799
 21
-19.7733644916
 31
0.0
 11
-6.9167770019
 21
-19.7137747542
 31
0.0
  0
SPLINE
  5
769
100
AcDbEntity
  8
RACCORDO
100
AcDbSpline
 62
7
  6
CONTINUOUS
 70
0
 71
3
 72
11
 73
7
 74
5
 42
0.0000001
 43
0.0000001
 44
0.0000000001
 12
-0.0077699782
 22
-0.500013701
 32
0.0
 13
-0.5000740471
 23
-0.0001455746
 33
0.0
 40
0.0
 40
0.0
 40
0.0
 40
0.0
 40
0.2495561406
 40
0.4994852623
 40
0.7496846739
 40
1.0
 40
1.0
 40
1.0
 40
1.0
 10
4.649648509
 20
-11.3491528964
 30
0.0
 10
4.6490021604
 20
-11.3907467262
 30
0.0
 10
4.6271293326
 20
-11.4747841209
 30
0.0
 10
4.5446869321
 20
-11.5731341879
 30
0.0
 10
4.4326242055
 20
-11.6341800848
 30
0.0
 10
4.3485410052
 20
-11.6478743682
 30
0.0
 10
4.3068156058
 20
-11.6478865147
 30
0.0
 11
4.649648509
 21
-11.3491528964
 31
0.0
 11
4.6188941816
 21
-11.470100618
 31
0.0
 11
4.5398008139
 21
-11.5668735875
 31
0.0
 11
4.4303070869
 21
-11.6274185885
 31
0.0
 11
4.3068156058
 21
-11.6478865147
 31
0.0
  0
SPLINE
  5
76A
100
AcDbEntity
  8
RACCORDO
100
AcDbSpline
 62
7
  6
CONTINUOUS
 70
0
 71
3
 72
11
 73
7
 74
5
 42
0.0000001
 43
0.0000001
 44
0.0000000001
 12
0.4951265018
 22
-0.0001460208
 32
0.0
 13
-0.0075577291
 23
-0.4950688385
 33
0.0
 40
0.0
 40
0.0
 40
0.0
 40
0.0
 40
0.250422123
 40
0.5005616113
 40
0.7503718407
 40
1.0
 40
1.0
 40
1.0
 40
1.0
 10
4.3191584032
 20
-10.8519269192
 30
0.0
 10
4.3604886131
 20
-10.8519391082
 30
0.0
 10
4.443779538
 20
-10.8653874228
 30
0.0
 10
4.5545570128
 20
-10.9264774993
 30
0.0
 10
4.6344064102
 20
-11.0256650868
 30
0.0
 10
4.6533325518
 20
-11.1096065493
 30
0.0
 10
4.6527036778
 20
-11.1508009236
 30
0.0
 11
4.3191584032
 21
-10.8519269192
 31
0.0
 11
4.4414756742
 21
-10.8722287127
 31
0.0
 11
4.5494613329
 21
-10.9328759897
 31
0.0
 11
4.6258503209
 21
-11.0301558043
 31
0.0
 11
4.6527036778
 21
-11.1508009236
 31
0.0
  0
SPLINE
  5
76B
100
AcDbEntity
  8
RACCORDO
100
AcDbSpline
 62
7
  6
CONTINUOUS
 70
0
 71
3
 72
11
 73
7
 74
5
 42
0.0000001
 43
0.0000001
 44
0.0000000001
 12
-0.5000740471
 22
0.0001455746
 32
0.0
 13
-0.0077699782
 23
0.500013701
 33
0.0
 40
0.0
 40
0.0
 40
0.0
 40
0.0
 40
0.2503153261
 40
0.5005147377
 40
0.7504438594
 40
1.0
 40
1.0
 40
1.0
 40
1.0
 10
-4.3068156058
 20
-11.6478865147
 30
0.0
 10
-4.3485410052
 20
-11.6478743682
 30
0.0
 10
-4.4326242055
 20
-11.6341800848
 30
0.0
 10
-4.5446869321
 20
-11.5731341879
 30
0.0
 10
-4.6271293326
 20
-11.4747841209
 30
0.0
 10
-4.6490021604
 20
-11.3907467262
 30
0.0
 10
-4.649648509
 20
-11.3491528964
 30
0.0
 11
-4.3068156058
 21
-11.6478865147
 31
0.0
 11
-4.4303070869
 21
-11.6274185885
 31
0.0
 11
-4.5398008139
 21
-11.5668735875
 31
0.0
 11
-4.6188941816
 21
-11.470100618
 31
0.0
 11
-4.649648509
 21
-11.3491528964
 31
0.0
  0
SPLINE
  5
76C
100
AcDbEntity
  8
RACCORDO
100
AcDbSpline
 62
7
  6
CONTINUOUS
 70
0
 71
3
 72
11
 73
7
 74
5
 42
0.0000001
 43
0.0000001
 44
0.0000000001
 12
-0.0075577291
 22
0.4950688385
 32
0.0
 13
0.4951265018
 23
0.0001460208
 33
0.0
 40
0.0
 40
0.0
 40
0.0
 40
0.0
 40
0.2496281593
 40
0.4994383887
 40
0.749577877
 40
1.0
 40
1.0
 40
1.0
 40
1.0
 10
-4.6527036778
 20
-11.1508009236
 30
0.0
 10
-4.6533325518
 20
-11.1096065493
 30
0.0
 10
-4.6344064102
 20
-11.0256650868
 30
0.0
 10
-4.5545570128
 20
-10.9264774993
 30
0.0
 10
-4.4437795379
 20
-10.8653874228
 30
0.0
 10
-4.3604886131
 20
-10.8519391082
 30
0.0
 10
-4.3191584032
 20
-10.8519269192
 30
0.0
 11
-4.6527036778
 21
-11.1508009236
 31
0.0
 11
-4.6258503209
 21
-11.0301558043
 31
0.0
 11
-4.5494613329
 21
-10.9328759897
 31
0.0
 11
-4.4414756742
 21
-10.8722287127
 31
0.0
 11
-4.3191584032
 21
-10.8519269192
 31
0.0
  0
SPLINE
  5
76D
100
AcDbEntity
  8
RACCORDO
100
AcDbSpline
 62
7
  6
CONTINUOUS
 70
0
 71
3
 72
11
 73
7
 74
5
 42
0.0000001
 43
0.0000001
 44
0.0000000001
 12
0.0077699782
 22
0.500013701
 32
0.0
 13
0.5000740471
 23
0.0001455746
 33
0.0
 40
0.0
 40
0.0
 40
0.0
 40
0.0
 40
0.2495561406
 40
0.4994852623
 40
0.7496846739
 40
1.0
 40
1.0
 40
1.0
 40
1.0
 10
-4.649648509
 20
11.3491528964
 30
0.0
 10
-4.6490021604
 20
11.3907467262
 30
0.0
 10
-4.6271293326
 20
11.4747841209
 30
0.0
 10
-4.5446869321
 20
11.5731341879
 30
0.0
 10
-4.4326242055
 20
11.6341800848
 30
0.0
 10
-4.3485410052
 20
11.6478743682
 30
0.0
 10
-4.3068156058
 20
11.6478865147
 30
0.0
 11
-4.649648509
 21
11.3491528964
 31
0.0
 11
-4.6188941816
 21
11.470100618
 31
0.0
 11
-4.5398008139
 21
11.5668735875
 31
0.0
 11
-4.4303070869
 21
11.6274185885
 31
0.0
 11
-4.3068156058
 21
11.6478865147
 31
0.0
  0
SPLINE
  5
76E
100
AcDbEntity
  8
RACCORDO
100
AcDbSpline
 62
7
  6
CONTINUOUS
 70
0
 71
3
 72
11
 73
7
 74
5
 42
0.0000001
 43
0.0000001
 44
0.0000000001
 12
-0.4951265018
 22
0.0001460208
 32
0.0
 13
0.0075577291
 23
0.4950688385
 33
0.0
 40
0.0
 40
0.0
 40
0.0
 40
0.0
 40
0.250422123
 40
0.5005616113
 40
0.7503718407
 40
1.0
 40
1.0
 40
1.0
 40
1.0
 10
-4.3191584032
 20
10.8519269192
 30
0.0
 10
-4.3604886131
 20
10.8519391082
 30
0.0
 10
-4.4437795379
 20
10.8653874228
 30
0.0
 10
-4.5545570128
 20
10.9264774993
 30
0.0
 10
-4.6344064102
 20
11.0256650868
 30
0.0
 10
-4.6533325518
 20
11.1096065493
 30
0.0
 10
-4.6527036778
 20
11.1508009236
 30
0.0
 11
-4.3191584032
 21
10.8519269192
 31
0.0
 11
-4.4414756742
 21
10.8722287127
 31
0.0
 11
-4.5494613329
 21
10.9328759897
 31
0.0
 11
-4.6258503209
 21
11.0301558043
 31
0.0
 11
-4.6527036778
 21
11.1508009236
 31
0.0
  0
SPLINE
  5
76F
100
AcDbEntity
  8
RACCORDO
100
AcDbSpline
 62
7
  6
CONTINUOUS
 70
0
 71
3
 72
11
 73
7
 74
5
 42
0.0000001
 43
0.0000001
 44
0.0000000001
 12
0.5000740471
 22
-0.0001455746
 32
0.0
 13
0.0077699782
 23
-0.500013701
 33
0.0
 40
0.0
 40
0.0
 40
0.0
 40
0.0
 40
0.2503153261
 40
0.5005147377
 40
0.7504438594
 40
1.0
 40
1.0
 40
1.0
 40
1.0
 10
4.3068156058
 20
11.6478865147
 30
0.0
 10
4.3485410052
 20
11.6478743682
 30
0.0
 10
4.4326242055
 20
11.6341800848
 30
0.0
 10
4.5446869321
 20
11.5731341879
 30
0.0
 10
4.6271293326
 20
11.4747841209
 30
0.0
 10
4.6490021604
 20
11.3907467262
 30
0.0
 10
4.649648509
 20
11.3491528964
 30
0.0
 11
4.3068156058
 21
11.6478865147
 31
0.0
 11
4.4303070869
 21
11.6274185885
 31
0.0
 11
4.5398008139
 21
11.5668735875
 31
0.0
 11
4.6188941816
 21
11.470100618
 31
0.0
 11
4.649648509
 21
11.3491528964
 31
0.0
  0
SPLINE
  5
770
100
AcDbEntity
  8
RACCORDO
100
AcDbSpline
 62
7
  6
CONTINUOUS
 70
0
 71
3
 72
11
 73
7
 74
5
 42
0.0000001
 43
0.0000001
 44
0.0000000001
 12
0.0075577291
 22
-0.4950688385
 32
0.0
 13
-0.4951265018
 23
-0.0001460208
 33
0.0
 40
0.0
 40
0.0
 40
0.0
 40
0.0
 40
0.2496281593
 40
0.4994383887
 40
0.749577877
 40
1.0
 40
1.0
 40
1.0
 40
1.0
 10
4.6527036778
 20
11.1508009236
 30
0.0
 10
4.6533325518
 20
11.1096065493
 30
0.0
 10
4.6344064102
 20
11.0256650868
 30
0.0
 10
4.5545570128
 20
10.9264774993
 30
0.0
 10
4.443779538
 20
10.8653874228
 30
0.0
 10
4.3604886131
 20
10.8519391082
 30
0.0
 10
4.3191584032
 20
10.8519269192
 30
0.0
 11
4.6527036778
 21
11.1508009236
 31
0.0
 11
4.6258503209
 21
11.0301558043
 31
0.0
 11
4.5494613329
 21
10.9328759897
 31
0.0
 11
4.4414756742
 21
10.8722287127
 31
0.0
 11
4.3191584032
 21
10.8519269192
 31
0.0
  0
SPLINE
  5
771
100
AcDbEntity
  8
DRAFT
100
AcDbSpline
 62
7
  6
CONTINUOUS
 70
0
 71
3
 72
9
 73
5
 74
3
 42
0.0000001
 43
0.0000001
 44
0.0000000001
 12
5.042300672
 22
0.0015921327
 32
0.0
 13
5.042300922
 23
0.0001157959
 33
0.0
 40
0.0
 40
0.0
 40
0.0
 40
0.0
 40
0.2499300933
 40
1.0
 40
1.0
 40
1.0
 40
1.0
 10
-5.4379421647
 20
-19.9310341704
 30
0.0
 10
-5.0178679389
 20
-19.9309015297
 30
0.0
 10
-3.3371010294
 20
-19.9304324032
 30
0.0
 10
-1.6563340512
 20
-19.9302092516
 30
0.0
 10
-0.3956413238
 20
-19.9301802999
 30
0.0
 11
-5.4379421647
 21
-19.9310341704
 31
0.0
 11
-4.1777194735
 21
-19.9306823969
 31
0.0
 11
-0.3956413238
 21
-19.9301802999
 31
0.0
  0
SPLINE
  5
772
100
AcDbEntity
  8
DRAFT
100
AcDbSpline
 62
7
  6
CONTINUOUS
 70
0
 71
3
 72
9
 73
5
 74
3
 42
0.0000001
 43
0.0000001
 44
0.0000000001
 12
5.042300922
 22
-0.0001157959
 32
0.0
 13
5.042300672
 23
-0.0015921327
 33
0.0
 40
0.0
 40
0.0
 40
0.0
 40
0.0
 40
0.2500520751
 40
1.0
 40
1.0
 40
1.0
 40
1.0
 10
0.3956413238
 20
-19.9301802999
 30
0.0
 10
0.8159205934
 20
-19.9301899516
 30
0.0
 10
2.4966875654
 20
-19.9302902441
 30
0.0
 10
4.1774545228
 20
-19.9306361648
 30
0.0
 10
5.4379421647
 20
-19.9310341704
 30
0.0
 11
0.3956413238
 21
-19.9301802999
 31
0.0
 11
1.6564791307
 21
-19.9302554665
 31
0.0
 11
5.4379421647
 21
-19.9310341704
 31
0.0
  0
SPLINE
  5
773
100
AcDbEntity
  8
DRAFT
100
AcDbSpline
 62
7
  6
CONTINUOUS
 70
0
 71
3
 72
9
 73
5
 74
3
 42
0.0000001
 43
0.0000001
 44
0.0000000001
 12
-5.042300672
 22
-0.0015921327
 32
0.0
 13
-5.042300922
 23
-0.0001157959
 33
0.0
 40
0.0
 40
0.0
 40
0.0
 40
0.0
 40
0.2499300933
 40
1.0
 40
1.0
 40
1.0
 40
1.0
 10
5.4379421647
 20
19.9310341704
 30
0.0
 10
5.0178679389
 20
19.9309015297
 30
0.0
 10
3.3371010294
 20
19.9304324032
 30
0.0
 10
1.6563340512
 20
19.9302092516
 30
0.0
 10
0.3956413238
 20
19.9301802999
 30
0.0
 11
5.4379421647
 21
19.9310341704
 31
0.0
 11
4.1777194735
 21
19.9306823969
 31
0.0
 11
0.3956413238
 21
19.9301802999
 31
0.0
  0
SPLINE
  5
774
100
AcDbEntity
  8
DRAFT
100
AcDbSpline
 62
7
  6
CONTINUOUS
 70
0
 71
3
 72
9
 73
5
 74
3
 42
0.0000001
 43
0.0000001
 44
0.0000000001
 12
-5.042300922
 22
0.0001157959
 32
0.0
 13
-5.042300672
 23
0.0015921327
 33
0.0
 40
0.0
 40
0.0
 40
0.0
 40
0.0
 40
0.2500520751
 40
1.0
 40
1.0
 40
1.0
 40
1.0
 10
-0.3956413238
 20
19.9301802999
 30
0.0
 10
-0.8159205934
 20
19.9301899516
 30
0.0
 10
-2.4966875654
 20
19.9302902441
 30
0.0
 10
-4.1774545228
 20
19.9306361648
 30
0.0
 10
-5.4379421647
 20
19.9310341704
 30
0.0
 11
-0.3956413238
 21
19.9301802999
 31
0.0
 11
-1.6564791307
 21
19.9302554665
 31
0.0
 11
-5.4379421647
 21
19.9310341704
 31
0.0
  0
LINE
  5
775
100
AcDbEntity
  8
RACCORDO
100
AcDbLine
 62
7
  6
CONTINUOUS
 10
-7.9635298566
 20
-2.5020804181
 11
-8.5726502988
 21
-2.5013508734
  0
LINE
  5
776
100
AcDbEntity
  8
RACCORDO
100
AcDbLine
 62
7
  6
CONTINUOUS
 10
8.5726502988
 20
-2.5013508734
 11
7.9635298566
 21
-2.5020804181
  0
SPLINE
  5
777
100
AcDbEntity
  8
ASSI
100
AcDbSpline
 62
253
  6
CONTINUOUS
 70
0
 71
3
 72
9
 73
5
 74
3
 42
0.0000001
 43
0.0000001
 44
0.0000000001
 12
0.0013086734
 22
-0.0432844709
 32
0.0
 13
-0.0000000099
 23
-0.0433042498
 33
0.0
 40
0.0
 40
0.0
 40
0.0
 40
0.0
 40
0.183482616
 40
1.0
 40
1.0
 40
1.0
 40
1.0
 10
7.2135886019
 20
-23.8010362971
 30
0.0
 10
7.2136686415
 20
-23.8036836131
 30
0.0
 10
7.2139645803
 20
-23.8181157399
 30
0.0
 10
7.2140249812
 20
-23.8325513431
 30
0.0
 10
7.2140249785
 20
-23.8443375673
 30
0.0
 11
7.2135886019
 21
-23.8010362971
 31
0.0
 11
7.2137693112
 21
-23.8089798189
 31
0.0
 11
7.2140249785
 21
-23.8443375673
 31
0.0
  0
LINE
  5
778
100
AcDbEntity
  8
RACCORDO
100
AcDbLine
 62
7
  6
CONTINUOUS
 10
-8.5726502988
 20
2.5013508734
 11
-7.9635298566
 21
2.5020804181
  0
SPLINE
  5
779
100
AcDbEntity
  8
ASSI
100
AcDbSpline
 62
253
  6
CONTINUOUS
 70
0
 71
3
 72
14
 73
10
 74
8
 42
0.0000001
 43
0.0000001
 44
0.0000000001
 12
0.0000000046
 22
-0.0500143989
 32
0.0
 13
-0.0353848633
 23
-0.0353461674
 33
0.0
 40
0.0
 40
0.0
 40
0.0
 40
0.0
 40
0.3784712214
 40
0.5499084536
 40
0.7006913151
 40
0.8251503658
 40
0.9186144536
 40
0.9775916124
 40
1.0
 40
1.0
 40
1.0
 40
1.0
 10
7.2140249785
 20
-24.2368706193
 30
0.0
 10
7.2140249791
 20
-24.2431802895
 30
0.0
 10
7.2140004569
 20
-24.2523508019
 30
0.0
 10
7.2138852549
 20
-24.2640254185
 30
0.0
 10
7.2138080005
 20
-24.2714870517
 30
0.0
 10
7.2136161172
 20
-24.277589333
 30
0.0
 10
7.2136474124
 20
-24.2823090177
 30
0.0
 10
7.213195583
 20
-24.2850232201
 30
0.0
 10
7.2134317628
 20
-24.2865989872
 30
0.0
 10
7.2131674569
 20
-24.286863004
 30
0.0
 11
7.2140249785
 21
-24.2368706193
 31
0.0
 11
7.2139600142
 21
-24.2557995185
 31
0.0
 11
7.21388108
 21
-24.2643734852
 31
0.0
 11
7.213774746
 21
-24.2719140497
 31
0.0
 11
7.213645012
 21
-24.2781374423
 31
0.0
 11
7.2134967534
 21
-24.2828096407
 31
0.0
 11
7.2133355534
 21
-24.2857549398
 31
0.0
 11
7.2131674569
 21
-24.286863004
 31
0.0
  0
LINE
  5
77A
100
AcDbEntity
  8
RACCORDO
100
AcDbLine
 62
7
  6
CONTINUOUS
 10
7.9635298566
 20
2.5020804181
 11
8.5726502988
 21
2.5013508734
  0
SPLINE
  5
77B
100
AcDbEntity
  8
ASSI
100
AcDbSpline
 62
253
  6
CONTINUOUS
 70
0
 71
3
 72
14
 73
10
 74
8
 42
0.0000001
 43
0.0000001
 44
0.0000000001
 12
0.0353708696
 22
-0.0353601741
 32
0.0
 13
-0.0000000167
 23
-0.0500144012
 33
0.0
 40
0.0
 40
0.0
 40
0.0
 40
0.0
 40
0.0223888774
 40
0.0813291623
 40
0.1747527001
 40
0.2991804371
 40
0.4499462781
 40
0.6213924665
 40
1.0
 40
1.0
 40
1.0
 40
1.0
 10
7.2131674569
 20
24.2868630041
 30
0.0
 10
7.2134314283
 20
24.2865991125
 30
0.0
 10
7.2131958083
 20
24.2850247044
 30
0.0
 10
7.2136471428
 20
24.2823117879
 30
0.0
 10
7.213616056
 20
24.2775940677
 30
0.0
 10
7.2138078821
 20
24.2714932163
 30
0.0
 10
7.2138851847
 20
24.264032255
 30
0.0
 10
7.2140004409
 20
24.2523554959
 30
0.0
 10
7.2140249806
 20
24.2431825623
 30
0.0
 10
7.2140249785
 20
24.2368706193
 30
0.0
 11
7.2131674569
 21
24.2868630041
 31
0.0
 11
7.2133354761
 21
24.285755915
 31
0.0
 11
7.2134966353
 21
24.2828124605
 31
0.0
 11
7.2136448867
 21
24.2781422907
 31
0.0
 11
7.2137746359
 21
24.2719204647
 31
0.0
 11
7.2138809976
 21
24.2643807516
 31
0.0
 11
7.213959967
 21
24.2558063368
 31
0.0
 11
7.2140249785
 21
24.2368706193
 31
0.0
  0
SPLINE
  5
77C
100
AcDbEntity
  8
ASSI
100
AcDbSpline
 62
253
  6
CONTINUOUS
 70
0
 71
3
 72
9
 73
5
 74
3
 42
0.0000001
 43
0.0000001
 44
0.0000000001
 12
0.0000000129
 22
-0.0433040273
 32
0.0
 13
-0.0013086547
 23
-0.043284249
 33
0.0
 40
0.0
 40
0.0
 40
0.0
 40
0.0
 40
0.29878921
 40
1.0
 40
1.0
 40
1.0
 40
1.0
 10
7.2140249785
 20
23.8443375673
 30
0.0
 10
7.2140249798
 20
23.8400246419
 30
0.0
 10
7.2139818312
 20
23.8255904452
 30
0.0
 10
7.2138944828
 20
23.8111534246
 30
0.0
 10
7.2135886019
 20
23.8010362971
 30
0.0
 11
7.2140249785
 21
23.8443375673
 31
0.0
 11
7.2139952492
 21
23.8313988253
 31
0.0
 11
7.2135886019
 21
23.8010362971
 31
0.0
  0
SPLINE
  5
77D
100
AcDbEntity
  8
ASSI
100
AcDbSpline
 62
253
  6
CONTINUOUS
 70
0
 71
3
 72
25
 73
21
 74
19
 42
0.0000001
 43
0.0000001
 44
0.0000000001
 12
-0.1885513154
 22
0.1952558163
 32
0.0
 13
-0.1903870649
 23
-0.1934662706
 33
0.0
 40
0.0
 40
0.0
 40
0.0
 40
0.0
 40
0.0032993224
 40
0.0112229513
 40
0.0237271288
 40
0.0407190122
 40
0.0874357045
 40
0.1496533678
 40
0.2250209446
 40
0.3107340552
 40
0.5000006095
 40
0.6892666206
 40
0.7749788229
 40
0.8503426385
 40
0.9125597899
 40
0.9592803118
 40
0.9762710712
 40
0.9887708994
 40
0.9966927945
 40
1.0
 40
1.0
 40
1.0
 40
1.0
 10
-3.8306228363
 20
-23.9018840226
 30
0.0
 10
-3.8308302001
 20
-23.9016692853
 30
0.0
 10
-3.8319787547
 20
-23.9016688371
 30
0.0
 10
-3.8339950011
 20
-23.9013302221
 30
0.0
 10
-3.8374383151
 20
-23.9011950848
 30
0.0
 10
-3.8442904436
 20
-23.9008432663
 30
0.0
 10
-3.8557057013
 20
-23.9005408964
 30
0.0
 10
-3.8723658356
 20
-23.9001926342
 30
0.0
 10
-3.8925718869
 20
-23.8999212826
 30
0.0
 10
-3.9242676949
 20
-23.8996345298
 30
0.0
 10
-3.9662725553
 20
-23.8995040986
 30
0.0
 10
-4.0082772989
 20
-23.8996345596
 30
0.0
 10
-4.039972685
 20
-23.8999212766
 30
0.0
 10
-4.0601781483
 20
-23.9001927377
 30
0.0
 10
-4.0768385747
 20
-23.9005407828
 30
0.0
 10
-4.088253299
 20
-23.9008436703
 30
0.0
 10
-4.0951063157
 20
-23.9011946585
 30
0.0
 10
-4.0985471548
 20
-23.901331217
 30
0.0
 10
-4.1005669907
 20
-23.9016673067
 30
0.0
 10
-4.1017122158
 20
-23.901670745
 30
0.0
 10
-4.1019220988
 20
-23.9018840226
 30
0.0
 11
-3.8306228363
 21
-23.9018840226
 31
0.0
 11
-3.8314886627
 21
-23.9016552184
 31
0.0
 11
-3.8336274068
 21
-23.9014283546
 31
0.0
 11
-3.8370141724
 21
-23.901205965
 31
0.0
 11
-3.8416213132
 21
-23.9009905227
 31
0.0
 11
-3.8542954345
 21
-23.9005883653
 31
0.0
 11
-3.8711797587
 21
-23.9002364582
 31
0.0
 11
-3.8916350477
 21
-23.8999478441
 31
0.0
 11
-3.9148995167
 21
-23.8997336478
 31
0.0
 11
-3.9662725974
 21
-23.8995572797
 31
0.0
 11
-4.0176455306
 21
-23.8997336642
 31
0.0
 11
-4.040909753
 21
-23.8999478674
 31
0.0
 11
-4.0613640208
 21
-23.9002364928
 31
0.0
 11
-4.0782482058
 21
-23.9005884107
 31
0.0
 11
-4.0909233674
 21
-23.9009905596
 31
0.0
 11
-4.0955302034
 21
-23.901205989
 31
0.0
 11
-4.0989157867
 21
-23.9014283662
 31
0.0
 11
-4.1010540584
 21
-23.9016552219
 31
0.0
 11
-4.1019220988
 21
-23.9018840226
 31
0.0
  0
ELLIPSE
  5
77E
100
AcDbEntity
  8
0
100
AcDbEllipse
 62
7
  6
CONTINUOUS
 10
-525.012209681
 20
-89.402150435
 30
0.0
 11
535.1140690522
 21
0.0000119097
 31
0.0
 40
0.9951246675
 41
0.1923539394
 42
0.1923983638
  0
ELLIPSE
  5
77F
100
AcDbEntity
  8
0
100
AcDbEllipse
 62
7
  6
CONTINUOUS
 10
525.0122093572
 20
111.9021504722
 30
0.0
 11
-535.1140688131
 21
0.0000279813
 31
0.0
 40
0.9951246679
 41
0.1923540144
 42
0.1923984388
  0
ELLIPSE
  5
780
100
AcDbEntity
  8
0
100
AcDbEllipse
 62
7
  6
CONTINUOUS
 10
-525.012209681
 20
-111.902150435
 30
0.0
 11
535.1140690522
 21
0.0000119097
 31
0.0
 40
0.9951246675
 41
0.1923539394
 42
0.1923983638
  0
ELLIPSE
  5
781
100
AcDbEntity
  8
0
100
AcDbEllipse
 62
7
  6
CONTINUOUS
 10
525.0122093572
 20
89.4021504722
 30
0.0
 11
-535.1140688131
 21
0.0000279813
 31
0.0
 40
0.9951246679
 41
0.1923540144
 42
0.1923984388
  0
ELLIPSE
  5
782
100
AcDbEntity
  8
ASSI
100
AcDbEllipse
 62
7
  6
CONTINUOUS
 10
-10.582468771
 20
-21.882468771
 30
0.0
 11
-0.3536610946
 21
-0.3536610946
 31
0.0
 40
0.9996954599
 41
-0.7852458701
 42
0.7852458701
  0
ELLIPSE
  5
783
100
AcDbEntity
  8
ASSI
100
AcDbEllipse
 62
7
  6
CONTINUOUS
 10
-10.582468771
 20
21.8824687711
 30
0.0
 11
0.3536610946
 21
-0.3536610946
 31
0.0
 40
0.9996954599
 41
2.3563467834
 42
3.9268385237
  0
ELLIPSE
  5
784
100
AcDbEntity
  8
ASSI
100
AcDbEllipse
 62
7
  6
CONTINUOUS
 10
-4.0459553394
 20
23.2
 30
0.0
 11
0.4595995956
 21
-0.0
 31
0.0
 40
0.9949884474
 41
2.3053277814
 42
2.644815645
  0
ELLIPSE
  5
785
100
AcDbEntity
  8
ASSI
100
AcDbEllipse
 62
7
  6
CONTINUOUS
 10
-4.0459553394
 20
-23.2
 30
0.0
 11
0.4595995956
 21
0.0
 31
0.0
 40
0.9949884474
 41
2.3053277814
 42
2.644815645
  0
ELLIPSE
  5
786
100
AcDbEntity
  8
ASSI
100
AcDbEllipse
 62
7
  6
CONTINUOUS
 10
4.0459553394
 20
23.2
 30
0.0
 11
0.4595995956
 21
0.0
 31
0.0
 40
0.9949884474
 41
0.4967770086
 42
0.8362648721
  0
ELLIPSE
  5
787
100
AcDbEntity
  8
ASSI
100
AcDbEllipse
 62
7
  6
CONTINUOUS
 10
4.0459553394
 20
23.2
 30
0.0
 11
0.4595995956
 21
-0.0
 31
0.0
 40
0.9949884474
 41
-0.8362648721
 42
-0.4967770086
  0
ELLIPSE
  5
788
100
AcDbEntity
  8
ASSI
100
AcDbEllipse
 62
7
  6
CONTINUOUS
 10
4.0459553394
 20
-23.2
 30
0.0
 11
0.4595995956
 21
-0.0
 31
0.0
 40
0.9949884474
 41
0.4967770086
 42
0.8362648721
  0
ELLIPSE
  5
789
100
AcDbEntity
  8
ASSI
100
AcDbEllipse
 62
7
  6
CONTINUOUS
 10
4.0459553394
 20
-23.2
 30
0.0
 11
0.4595995956
 21
-0.0
 31
0.0
 40
0.9949884474
 41
-0.8362648721
 42
-0.4967770086
  0
ELLIPSE
  5
78A
100
AcDbEntity
  8
ASSI
100
AcDbEllipse
 62
7
  6
CONTINUOUS
 10
1.0674931469
 20
-23.7325068531
 30
0.0
 11
0.1768305473
 21
0.1768305473
 31
0.0
 40
0.9996954599
 41
2.3563467834
 42
3.9268385237
  0
ELLIPSE
  5
78B
100
AcDbEntity
  8
ASSI
100
AcDbEllipse
 62
7
  6
CONTINUOUS
 10
-1.0674931469
 20
-23.7325068531
 30
0.0
 11
0.1768305473
 21
-0.1768305473
 31
0.0
 40
0.9996954599
 41
-0.7852458701
 42
0.7852458701
  0
ELLIPSE
  5
78C
100
AcDbEntity
  8
ASSI
100
AcDbEllipse
 62
7
  6
CONTINUOUS
 10
-1.0674931469
 20
23.7325068531
 30
0.0
 11
-0.1768305473
 21
-0.1768305473
 31
0.0
 40
0.9996954599
 41
2.3563467834
 42
3.9268385237
  0
ELLIPSE
  5
78D
100
AcDbEntity
  8
ASSI
100
AcDbEllipse
 62
7
  6
CONTINUOUS
 10
1.0674931469
 20
23.7325068531
 30
0.0
 11
-0.1768305473
 21
0.1768305473
 31
0.0
 40
0.9996954599
 41
-0.7852458701
 42
0.7852458701
  0
ELLIPSE
  5
78E
100
AcDbEntity
  8
ASSI
100
AcDbEllipse
 62
7
  6
CONTINUOUS
 10
-8.0754493507
 20
-21.2252970227
 30
0.0
 11
-0.0
 21
1.0
 31
0.0
 40
0.0174550649
 41
-1.8037088905
 42
-1.5707963268
  0
ELLIPSE
  5
78F
100
AcDbEntity
  8
ASSI
100
AcDbEllipse
 62
7
  6
CONTINUOUS
 10
8.0754493507
 20
-21.2252970227
 30
0.0
 11
-0.0
 21
1.0
 31
0.0
 40
0.0174550649
 41
-4.7123889804
 42
-4.4794764167
  0
ELLIPSE
  5
790
100
AcDbEntity
  8
ASSI
100
AcDbEllipse
 62
7
  6
CONTINUOUS
 10
8.0754493507
 20
21.2252970227
 30
0.0
 11
0.0
 21
1.0
 31
0.0
 40
0.0174550649
 41
1.3378837631
 42
1.5707963268
  0
ELLIPSE
  5
791
100
AcDbEntity
  8
ASSI
100
AcDbEllipse
 62
7
  6
CONTINUOUS
 10
-8.0754493507
 20
21.2252970227
 30
0.0
 11
-0.0
 21
1.0
 31
0.0
 40
0.0174550649
 41
-1.5707963268
 42
-1.3378837631
  0
ELLIPSE
  5
792
100
AcDbEntity
  8
ASSI
100
AcDbEllipse
 62
7
  6
CONTINUOUS
 10
8.3012864295
 20
21.2252970227
 30
0.0
 11
1.0000571192
 21
-0.9999809595
 31
0.0
 40
0.0061705924
 41
-3.1303103451
 42
-1.8098798745
  0
ELLIPSE
  5
793
100
AcDbEntity
  8
ASSI
100
AcDbEllipse
 62
7
  6
CONTINUOUS
 10
-8.3012864295
 20
21.2252970227
 30
0.0
 11
1.0000571192
 21
0.9999809595
 31
0.0
 40
0.0061705924
 41
-1.3317127791
 42
-0.0112823085
  0
ELLIPSE
  5
794
100
AcDbEntity
  8
ASSI
100
AcDbEllipse
 62
7
  6
CONTINUOUS
 10
8.3012864295
 20
-21.2252970227
 30
0.0
 11
1.0000571192
 21
0.9999809595
 31
0.0
 40
0.0061705924
 41
1.8098798745
 42
3.1303103451
  0
ELLIPSE
  5
795
100
AcDbEntity
  8
ASSI
100
AcDbEllipse
 62
7
  6
CONTINUOUS
 10
-8.3012864295
 20
-21.2252970227
 30
0.0
 11
1.0000571192
 21
-0.9999809595
 31
0.0
 40
0.0061705924
 41
0.0112823085
 42
1.3317127791
  0
ELLIPSE
  5
796
100
AcDbEntity
  8
ASSI
100
AcDbEllipse
 62
7
  6
CONTINUOUS
 10
9.0368706193
 20
23.5556624327
 30
0.0
 11
0.25
 21
0.0
 31
0.0
 40
0.5773502692
 41
0.0174532925
 42
0.5235987756
  0
ELLIPSE
  5
797
100
AcDbEntity
  8
ASSI
100
AcDbEllipse
 62
7
  6
CONTINUOUS
 10
9.0368706193
 20
22.3869087013
 30
0.0
 11
0.25
 21
0.0
 31
0.0
 40
0.0174550649
 41
-1.5707963268
 42
-0.0174532925
  0
ELLIPSE
  5
798
100
AcDbEntity
  8
ASSI
100
AcDbEllipse
 62
7
  6
CONTINUOUS
 10
-8.7631293807
 20
23.5556624327
 30
0.0
 11
0.25
 21
0.0
 31
0.0
 40
0.5773502692
 41
0.0174532925
 42
0.5235987756
  0
ELLIPSE
  5
799
100
AcDbEntity
  8
ASSI
100
AcDbEllipse
 62
7
  6
CONTINUOUS
 10
-8.7631293807
 20
22.3869087013
 30
0.0
 11
0.25
 21
-0.0
 31
0.0
 40
0.0174550649
 41
-1.5707963268
 42
-0.0174532925
  0
ELLIPSE
  5
79A
100
AcDbEntity
  8
ASSI
100
AcDbEllipse
 62
7
  6
CONTINUOUS
 10
9.0368706193
 20
-22.3869087013
 30
0.0
 11
0.25
 21
0.0
 31
0.0
 40
0.0174550649
 41
0.0174532925
 42
1.5707963268
  0
ELLIPSE
  5
79B
100
AcDbEntity
  8
ASSI
100
AcDbEllipse
 62
7
  6
CONTINUOUS
 10
-8.7631293807
 20
-22.3869087013
 30
0.0
 11
0.25
 21
0.0
 31
0.0
 40
0.0174550649
 41
0.0174532925
 42
1.5707963268
  0
ELLIPSE
  5
79C
100
AcDbEntity
  8
ASSI
100
AcDbEllipse
 62
7
  6
CONTINUOUS
 10
10.5824687711
 20
21.8824687711
 30
0.0
 11
0.3536610946
 21
0.3536610946
 31
0.0
 40
0.9996954599
 41
-0.7852458701
 42
0.7852458701
  0
ELLIPSE
  5
79D
100
AcDbEntity
  8
ASSI
100
AcDbEllipse
 62
7
  6
CONTINUOUS
 10
8.7631293807
 20
23.5556624327
 30
0.0
 11
0.25
 21
0.0
 31
0.0
 40
0.5773502692
 41
2.617993878
 42
3.1241393611
  0
ELLIPSE
  5
79E
100
AcDbEntity
  8
ASSI
100
AcDbEllipse
 62
7
  6
CONTINUOUS
 10
-9.0368706193
 20
23.5556624327
 30
0.0
 11
0.25
 21
0.0
 31
0.0
 40
0.5773502692
 41
2.617993878
 42
3.1241393611
  0
ELLIPSE
  5
79F
100
AcDbEntity
  8
ASSI
100
AcDbEllipse
 62
7
  6
CONTINUOUS
 10
-9.0368706193
 20
22.3869087013
 30
0.0
 11
0.25
 21
0.0
 31
0.0
 40
0.0174550649
 41
-3.1241393611
 42
-1.5707963268
  0
ELLIPSE
  5
7A0
100
AcDbEntity
  8
ASSI
100
AcDbEllipse
 62
7
  6
CONTINUOUS
 10
8.7631293807
 20
22.3869087013
 30
0.0
 11
0.25
 21
0.0
 31
0.0
 40
0.0174550649
 41
-3.1241393611
 42
-1.5707963268
  0
ELLIPSE
  5
7A1
100
AcDbEntity
  8
ASSI
100
AcDbEllipse
 62
7
  6
CONTINUOUS
 10
8.7631293807
 20
-22.3869087013
 30
0.0
 11
0.25
 21
0.0
 31
0.0
 40
0.0174550649
 41
1.5707963268
 42
3.1241393611
  0
ELLIPSE
  5
7A2
100
AcDbEntity
  8
ASSI
100
AcDbEllipse
 62
7
  6
CONTINUOUS
 10
8.7631293807
 20
-23.5556624327
 30
0.0
 11
0.25
 21
0.0
 31
0.0
 40
0.5773502692
 41
-3.1241393611
 42
-2.617993878
  0
ELLIPSE
  5
7A3
100
AcDbEntity
  8
ASSI
100
AcDbEllipse
 62
7
  6
CONTINUOUS
 10
-9.0368706193
 20
-23.5556624327
 30
0.0
 11
0.25
 21
-0.0
 31
0.0
 40
0.5773502692
 41
-3.1241393611
 42
-2.617993878
  0
ELLIPSE
  5
7A4
100
AcDbEntity
  8
ASSI
100
AcDbEllipse
 62
7
  6
CONTINUOUS
 10
-9.0368706193
 20
-22.3869087013
 30
0.0
 11
0.25
 21
0.0
 31
0.0
 40
0.0174550649
 41
1.5707963268
 42
3.1241393611
  0
ELLIPSE
  5
7A5
100
AcDbEntity
  8
ASSI
100
AcDbEllipse
 62
7
  6
CONTINUOUS
 10
9.0368706193
 20
-23.5556624327
 30
0.0
 11
0.25
 21
-0.0
 31
0.0
 40
0.5773502692
 41
-0.5235987756
 42
-0.0174532925
  0
ELLIPSE
  5
7A6
100
AcDbEntity
  8
ASSI
100
AcDbEllipse
 62
7
  6
CONTINUOUS
 10
10.3999695344
 20
-23.3535898385
 30
0.0
 11
0.0069796346
 21
0.2308610084
 31
0.0
 40
0.8659264732
 41
-1.5358963758
 42
0.026173628
  0
ELLIPSE
  5
7A7
100
AcDbEntity
  8
ASSI
100
AcDbEllipse
 62
7
  6
CONTINUOUS
 10
7.4000304656
 20
-23.3535898385
 30
0.0
 11
-0.0069796346
 21
0.2308610084
 31
0.0
 40
0.8659264732
 41
-0.026173628
 42
1.5358963756
  0
ELLIPSE
  5
7A8
100
AcDbEntity
  8
ASSI
100
AcDbEllipse
 62
7
  6
CONTINUOUS
 10
-8.7631293807
 20
-23.5556624327
 30
0.0
 11
0.25
 21
-0.0
 31
0.0
 40
0.5773502692
 41
-0.5235987756
 42
-0.0174532925
  0
ELLIPSE
  5
7A9
100
AcDbEntity
  8
ASSI
100
AcDbEllipse
 62
7
  6
CONTINUOUS
 10
-7.4000304656
 20
-23.3535898385
 30
0.0
 11
0.0069796346
 21
0.2308610084
 31
0.0
 40
0.8659264732
 41
-1.5358963758
 42
0.026173628
  0
ELLIPSE
  5
7AA
100
AcDbEntity
  8
ASSI
100
AcDbEllipse
 62
7
  6
CONTINUOUS
 10
-10.3999695344
 20
-23.3535898385
 30
0.0
 11
-0.0069796346
 21
0.2308610084
 31
0.0
 40
0.8659264732
 41
-0.026173628
 42
1.5358963756
  0
ELLIPSE
  5
7AB
100
AcDbEntity
  8
ASSI
100
AcDbEllipse
 62
7
  6
CONTINUOUS
 10
10.3999695344
 20
23.3535898385
 30
0.0
 11
-0.0069796346
 21
0.2308610084
 31
0.0
 40
0.8659264732
 41
-3.1677662815
 42
-1.6056962779
  0
ELLIPSE
  5
7AC
100
AcDbEntity
  8
ASSI
100
AcDbEllipse
 62
7
  6
CONTINUOUS
 10
-7.4000304656
 20
23.3535898385
 30
0.0
 11
-0.0069796346
 21
0.2308610084
 31
0.0
 40
0.8659264732
 41
-3.1677662815
 42
-1.6056962779
  0
ELLIPSE
  5
7AD
100
AcDbEntity
  8
ASSI
100
AcDbEllipse
 62
7
  6
CONTINUOUS
 10
7.4000304656
 20
23.3535898385
 30
0.0
 11
0.0069796346
 21
0.2308610084
 31
0.0
 40
0.8659264732
 41
-4.6774890294
 42
-3.1154190256
  0
ELLIPSE
  5
7AE
100
AcDbEntity
  8
ASSI
100
AcDbEllipse
 62
7
  6
CONTINUOUS
 10
10.5824687711
 20
-21.882468771
 30
0.0
 11
-0.3536610946
 21
0.3536610946
 31
0.0
 40
0.9996954599
 41
2.3563467834
 42
3.9268385237
  0
ELLIPSE
  5
7AF
100
AcDbEntity
  8
ASSI
100
AcDbEllipse
 62
7
  6
CONTINUOUS
 10
-10.3999695344
 20
23.3535898385
 30
0.0
 11
0.0069796346
 21
0.2308610084
 31
0.0
 40
0.8659264732
 41
-4.6774890294
 42
-3.1154190256
  0
ELLIPSE
  5
7B0
100
AcDbEntity
  8
ASSI
100
AcDbEllipse
 62
7
  6
CONTINUOUS
 10
3.9662724675
 20
-22.3020015105
 30
0.0
 11
0.3856702945
 21
-0.0
 31
0.0
 40
0.0174550649
 41
0.0174532925
 42
3.1241393611
  0
ELLIPSE
  5
7B1
100
AcDbEntity
  8
ASSI
100
AcDbEllipse
 62
7
  6
CONTINUOUS
 10
3.9662724675
 20
22.3020015105
 30
0.0
 11
0.3856702945
 21
0.0
 31
0.0
 40
0.0174550649
 41
-3.1241393611
 42
-0.0174532925
  0
ELLIPSE
  5
7B2
100
AcDbEntity
  8
ASSI
100
AcDbEllipse
 62
7
  6
CONTINUOUS
 10
-3.9662724675
 20
-22.3020015105
 30
0.0
 11
0.3856702945
 21
0.0
 31
0.0
 40
0.0174550649
 41
0.0174532925
 42
3.1241393611
  0
ELLIPSE
  5
7B3
100
AcDbEntity
  8
ASSI
100
AcDbEllipse
 62
7
  6
CONTINUOUS
 10
-3.9662724675
 20
22.3020015105
 30
0.0
 11
0.3856702945
 21
0.0
 31
0.0
 40
0.0174550649
 41
-3.1241393611
 42
-0.0174532925
  0
ELLIPSE
  5
7B4
100
AcDbEntity
  8
ASSI
100
AcDbEllipse
 62
7
  6
CONTINUOUS
 10
3.750038082
 20
23.7325068531
 30
0.0
 11
-0.1768305473
 21
0.1768305473
 31
0.0
 40
0.9996954599
 41
-0.7852458702
 42
0.7852458701
  0
ELLIPSE
  5
7B5
100
AcDbEntity
  8
ASSI
100
AcDbEllipse
 62
7
  6
CONTINUOUS
 10
-3.750038082
 20
23.7325068531
 30
0.0
 11
0.1768305473
 21
0.1768305473
 31
0.0
 40
0.9996954599
 41
-0.7852458702
 42
0.7852458701
  0
ELLIPSE
  5
7B6
100
AcDbEntity
  8
ASSI
100
AcDbEllipse
 62
7
  6
CONTINUOUS
 10
-3.750038082
 20
-23.7325068531
 30
0.0
 11
0.1768305473
 21
-0.1768305473
 31
0.0
 40
0.9996954599
 41
-0.7852458701
 42
0.7852458702
  0
ELLIPSE
  5
7B7
100
AcDbEntity
  8
ASSI
100
AcDbEllipse
 62
7
  6
CONTINUOUS
 10
3.750038082
 20
-23.7325068531
 30
0.0
 11
0.1768305473
 21
0.1768305473
 31
0.0
 40
0.9996954599
 41
-3.9268385237
 42
-2.3563467834
  0
ELLIPSE
  5
7B8
100
AcDbEntity
  8
RACCORDO
100
AcDbEllipse
 62
7
  6
CONTINUOUS
 10
6.8846620411
 20
21.0693141298
 30
0.0
 11
0.3
 21
0.0
 31
0.0
 40
0.0174550649
 41
1.5707963268
 42
3.1328660073
  0
ELLIPSE
  5
7B9
100
AcDbEntity
  8
RACCORDO
100
AcDbEllipse
 62
7
  6
CONTINUOUS
 10
6.9153379589
 20
-20.9846506176
 30
0.0
 11
0.3
 21
-0.0
 31
0.0
 40
0.0087268678
 41
-1.5707963268
 42
-0.0087266463
  0
ELLIPSE
  5
7BA
100
AcDbEntity
  8
ASSI
100
AcDbEllipse
 62
7
  6
CONTINUOUS
 10
3.3850964806
 20
20.8909925586
 30
0.0
 11
0.25
 21
-0.0
 31
0.0
 40
0.3639702343
 41
-3.1328660073
 42
-1.5707963268
  0
ELLIPSE
  5
7BB
100
AcDbEntity
  8
ASSI
100
AcDbEllipse
 62
7
  6
CONTINUOUS
 10
3.3000095196
 20
22.1325068531
 30
0.0
 11
-0.1118178731
 21
0.2236527791
 31
0.0
 40
0.9998096356
 41
-0.4635410001
 42
1.1071030276
  0
ELLIPSE
  5
7BC
100
AcDbEntity
  8
ASSI
100
AcDbEllipse
 62
7
  6
CONTINUOUS
 10
-3.3000095196
 20
22.1325068531
 30
0.0
 11
0.1118178731
 21
0.2236527791
 31
0.0
 40
0.9998096356
 41
-1.1071030277
 42
0.4635410001
  0
ELLIPSE
  5
7BD
100
AcDbEntity
  8
ASSI
100
AcDbEllipse
 62
7
  6
CONTINUOUS
 10
-3.3850964806
 20
20.8909925586
 30
0.0
 11
0.25
 21
-0.0
 31
0.0
 40
0.3639702343
 41
-1.5707963268
 42
-0.0087266463
  0
ELLIPSE
  5
7BE
100
AcDbEntity
  8
ASSI
100
AcDbEllipse
 62
7
  6
CONTINUOUS
 10
-3.3850964806
 20
-20.8909925586
 30
0.0
 11
0.25
 21
-0.0
 31
0.0
 40
0.3639702343
 41
0.0087266463
 42
1.5707963268
  0
ELLIPSE
  5
7BF
100
AcDbEntity
  8
ASSI
100
AcDbEllipse
 62
7
  6
CONTINUOUS
 10
-3.3000095196
 20
-22.1325068531
 30
0.0
 11
-0.1118178731
 21
0.2236527791
 31
0.0
 40
0.9998096356
 41
-3.6051336537
 42
-2.0344896259
  0
ELLIPSE
  5
7C0
100
AcDbEntity
  8
ASSI
100
AcDbEllipse
 62
7
  6
CONTINUOUS
 10
3.3000095196
 20
-22.1325068531
 30
0.0
 11
0.1118178731
 21
0.2236527791
 31
0.0
 40
0.9998096356
 41
-4.2486956813
 42
-2.6780516535
  0
ELLIPSE
  5
7C1
100
AcDbEntity
  8
ASSI
100
AcDbEllipse
 62
7
  6
CONTINUOUS
 10
3.3850964806
 20
-20.8909925586
 30
0.0
 11
0.25
 21
-0.0
 31
0.0
 40
0.3639702343
 41
1.5707963268
 42
3.1328660073
  0
ELLIPSE
  5
7C2
100
AcDbEntity
  8
RACCORDO
100
AcDbEllipse
 62
7
  6
CONTINUOUS
 10
6.8846620411
 20
-21.0693141298
 30
0.0
 11
0.3
 21
0.0
 31
0.0
 40
0.0174550649
 41
-3.1328660073
 42
-1.5707963268
  0
ELLIPSE
  5
7C3
100
AcDbEntity
  8
RACCORDO
100
AcDbEllipse
 62
7
  6
CONTINUOUS
 10
-6.8846620411
 20
-21.0693141298
 30
0.0
 11
0.3
 21
0.0
 31
0.0
 40
0.0174550649
 41
-1.5707963268
 42
-0.0087266463
  0
ELLIPSE
  5
7C4
100
AcDbEntity
  8
RACCORDO
100
AcDbEllipse
 62
7
  6
CONTINUOUS
 10
-6.9153379589
 20
-20.9846506176
 30
0.0
 11
0.3
 21
-0.0
 31
0.0
 40
0.0087268678
 41
-3.1328660073
 42
-1.5707963268
  0
ELLIPSE
  5
7C5
100
AcDbEntity
  8
RACCORDO
100
AcDbEllipse
 62
7
  6
CONTINUOUS
 10
-6.8846620411
 20
21.0693141298
 30
0.0
 11
0.3
 21
0.0
 31
0.0
 40
0.0174550649
 41
0.0087266463
 42
1.5707963268
  0
ELLIPSE
  5
7C6
100
AcDbEntity
  8
RACCORDO
100
AcDbEllipse
 62
7
  6
CONTINUOUS
 10
-6.9153379589
 20
20.9846506176
 30
0.0
 11
0.3
 21
0.0
 31
0.0
 40
0.0087268678
 41
1.5707963268
 42
3.1328660073
  0
ELLIPSE
  5
7C7
100
AcDbEntity
  8
RACCORDO
100
AcDbEllipse
 62
7
  6
CONTINUOUS
 10
6.9153379589
 20
20.9846506176
 30
0.0
 11
0.3
 21
-0.0
 31
0.0
 40
0.0087268678
 41
0.0087266463
 42
1.5707963268
  0
ELLIPSE
  5
7C8
100
AcDbEntity
  8
RACCORDO
100
AcDbEllipse
 62
7
  6
CONTINUOUS
 10
-7.94772198
 20
-2.4367523069
 30
0.0
 11
0.3
 21
0.0
 31
0.0
 40
0.0174550649
 41
1.6974662976
 42
3.054326191
  0
ELLIPSE
  5
7C9
100
AcDbEntity
  8
RACCORDO
100
AcDbEllipse
 62
7
  6
CONTINUOUS
 10
7.94772198
 20
-2.4367523069
 30
0.0
 11
0.3
 21
0.0
 31
0.0
 40
0.0174550649
 41
0.0872664626
 42
1.444126356
  0
ELLIPSE
  5
7CA
100
AcDbEntity
  8
RACCORDO
100
AcDbEllipse
 62
7
  6
CONTINUOUS
 10
-7.94772198
 20
2.4367523069
 30
0.0
 11
0.3
 21
-0.0
 31
0.0
 40
0.0174550649
 41
-3.054326191
 42
-1.6974662976
  0
ELLIPSE
  5
7CB
100
AcDbEntity
  8
RACCORDO
100
AcDbEllipse
 62
7
  6
CONTINUOUS
 10
7.94772198
 20
2.4367523069
 30
0.0
 11
0.3
 21
0.0
 31
0.0
 40
0.0174550649
 41
-1.444126356
 42
-0.0872664626
  0
ENDSEC
  0
SECTION
  2
OBJECTS
  0
DICTIONARY
  5
C
100
AcDbDictionary
280
0
281
1
  3
ACAD_GROUP
350
D
  3
ACAD_MLINESTYLE
350
17
  3
ACAD_LAYOUT
350
1A
  3
ACAD_PLOTSETTINGS
350
19
  3
ACAD_PLOTSTYLENAME
350
E
  0
DICTIONARY
  5
D
102
{ACAD_REACTORS
330
C
102
}
100
AcDbDictionary
280
0
281
1
  0
ACDBDICTIONARYWDFLT
  5
E
102
{ACAD_REACTORS
330
C
102
}
100
AcDbDictionary
281
1
  3
Normal
350
F
100
AcDbDictionaryWithDefault
340
F
  0
DICTIONARY
  5
17
102
{ACAD_REACTORS
330
C
102
}
100
AcDbDictionary
280
0
281
1
  3
Standard
350
18
  0
DICTIONARY
  5
19
102
{ACAD_REACTORS
330
C
102
}
100
AcDbDictionary
281
1
  0
DICTIONARY
  5
1A
102
{ACAD_REACTORS
330
C
102
}
100
AcDbDictionary
281
1
  3
Model
350
7CC
  3
Layout1
350
7CD
  0
ACDBPLACEHOLDER
  5
F
102
{ACAD_REACTORS
330
E
102
}
  0
MLINESTYLE
  5
18
102
{ACAD_REACTORS
330
17
102
}
100
AcDbMlineStyle
  2
STANDARD
 70
0
  3

 62
256
 51
90.0
 52
90.0
 71
2
 49
0.5
 62
256
  6
BYLAYER
 49
-0.5
 62
256
  6
BYLAYER
  0
LAYOUT
  5
7CC
102
{ACAD_REACTORS
330
1A
102
}
100
AcDbPlotSettings
  1

  2
none_device
  4
ISO_A4_(297.00_x_210.00_MM)
  6

 40
0.0
 41
0.0
 42
0.0
 43
0.0
 44
297.0
 45
210.0
 46
0.0
 47
0.0
 48
0.0
 49
0.0
140
0.0
141
0.0
142
1.0
143
1.0
 70
1024
 72
1
 73
0
 74
0
  7

 75
0
147
1.0
148
0.0
149
0.0
100
AcDbLayout
  1
Model
 70
0
 71
0
 10
0.0
 20
0.0
 11
297.0
 21
210.0
 12
0.0
 22
0.0
 32
0.0
 14
0.0
 24
0.0
 34
0.0
 15
0.0
 25
0.0
 35
0.0
146
0.0
 13
0.0
 23
0.0
 33
0.0
 16
1.0
 26
0.0
 36
0.0
 17
0.0
 27
1.0
 37
0.0
 76
0
330
21A
345
0
346
0
  0
LAYOUT
  5
7CD
102
{ACAD_REACTORS
330
1A
102
}
100
AcDbPlotSettings
  1

  2
none_device
  4
ISO_A4_(297.00_x_210.00_MM)
  6

 40
0.0
 41
0.0
 42
0.0
 43
0.0
 44
297.0
 45
210.0
 46
0.0
 47
0.0
 48
0.0
 49
0.0
140
0.0
141
0.0
142
1.0
143
1.0
 70
0
 72
1
 73
0
 74
0
  7

 75
0
147
1.0
148
0.0
149
0.0
100
AcDbLayout
  1
Layout1
 70
0
 71
1
 10
0.0
 20
0.0
 11
297.0
 21
210.0
 12
0.0
 22
0.0
 32
0.0
 14
0.0
 24
0.0
 34
0.0
 15
0.0
 25
0.0
 35
0.0
146
0.0
 13
0.0
 23
0.0
 33
0.0
 16
1.0
 26
0.0
 36
0.0
 17
0.0
 27
1.0
 37
0.0
 76
0
330
21B
345
0
346
0
  0
ENDSEC
  0
EOF
