  0
SECTION
  2
HEADER
  9
$ACADVER
  1
AC1015
  9
$DWGCODEPAGE
  3
ANSI_1252
  9
$EXTMAX
 10
297.0
 20
210.0
 30
0.0
  9
$EXTMIN
 10
0.0
 20
0.0
 30
0.0
  9
$LIMMIN
 10
0.0
 20
0.0
  9
$LIMMAX
 10
297.0
 20
210.0
  9
$VIEWCTR
 10
148.5
 20
105.0
  9
$VIEWSIZE
 40
210.0
  9
$CLAYER
  8
0
  9
$LTSCALE
 40
16.335
  9
$CELTYPE
  6
BYLAYER
  9
$DIMSCALE
 40
1.0
  9
$DIMASZ
 40
3.0
  9
$DIMEXO
 40
1.85625
  9
$DIMDLI
 40
11.286
  9
$DIMEXE
 40
5.346
  9
$DIMCEN
 40
2.673
  9
$DIMLFAC
 40
1.0
  9
$DIMBLK
  1
_FILLED
  9
$DIMTXT
 40
3.0
  9
$DIMTOL
 70
1
  9
$DIMLIM
 70
0
  9
$DIMTFAC
 40
1.0
  9
$DIMTP
 40
0.01
  9
$DIMTM
 40
0.01
  9
$PDMODE
 70
3
  9
$PDSIZE
 40
3.0
  9
$HANDSEED
  5
7A7
  9
$TILEMODE
 70
1
  9
$MEASUREMENT
 70
1
  9
$INSUNITS
 70
4
  0
ENDSEC
  0
SECTION
  2
CLASSES
  0
CLASS
  1
ACDBDICTIONARYWDFLT
  2
AcDbDictionaryWithDefault
  3
AutoCAD 2000
 90
0
280
0
281
0
  0
CLASS
  1
ACDBPLACEHOLDER
  2
AcDbPlaceHolder
  3
AutoCAD 2000
 90
0
280
0
281
0
  0
CLASS
  1
LAYOUT
  2
AcDbLayout
  3
AutoCAD 2000
 90
0
280
0
281
0
  0
ENDSEC
  0
SECTION
  2
TABLES
  0
TABLE
  2
VPORT
  5
8
100
AcDbSymbolTable
 70
2
  0
VPORT
  5
1F4
100
AcDbSymbolTableRecord
100
AcDbViewportTableRecord
  2
*ACTIVE
 70
0
 10
0.0
 20
0.0
 11
1.0
 21
1.0
 12
148.5
 22
105.0
 13
0.0
 23
0.0
 14
1.0
 24
1.0
 15
0.0
 25
0.0
 16
0.0
 26
0.0
 36
1.0
 17
0.0
 27
0.0
 37
0.0
 40
210.0
 41
1.4142857143
 42
50.0
 43
0.0
 44
0.0
 50
0.0
 51
0.0
 71
0
 72
100
 73
1
 74
1
 75
0
 76
0
 77
0
 78
0
  0
ENDTAB
  0
TABLE
  2
LTYPE
  5
5
100
AcDbSymbolTable
 70
6
  0
LTYPE
  5
14
100
AcDbSymbolTableRecord
100
AcDbLinetypeTableRecord
  2
BYBLOCK
 70
0
  3

 72
65
 73
0
 40
0.0
  0
LTYPE
  5
15
100
AcDbSymbolTableRecord
100
AcDbLinetypeTableRecord
  2
BYLAYER
 70
0
  3

 72
65
 73
0
 40
0.0
  0
LTYPE
  5
16
100
AcDbSymbolTableRecord
100
AcDbLinetypeTableRecord
  2
CONTINUOUS
 70
64
  3
Solid line
 72
65
 73
0
 40
0.0
  0
LTYPE
  5
1F5
100
AcDbSymbolTableRecord
100
AcDbLinetypeTableRecord
  2
CENTER
 70
64
  3
____ _ ____ _ ____ _ ____ _ ____ _ ____ _ ____
 72
65
 73
4
 40
0.6
 49
0.375
 74
0
 49
-0.075
 74
0
 49
0.075
 74
0
 49
-0.075
 74
0
  0
LTYPE
  5
1F6
100
AcDbSymbolTableRecord
100
AcDbLinetypeTableRecord
  2
HIDDEN
 70
64
  3
- - - - - - - - - - - - - - - - - - - -
 72
65
 73
2
 40
0.2
 49
0.1
 74
0
 49
-0.1
 74
0
  0
LTYPE
  5
1F7
100
AcDbSymbolTableRecord
100
AcDbLinetypeTableRecord
  2
PHANTOM
 70
64
  3
_____ _ _ _____ _ _ _____ _ _ _____
 72
65
 73
6
 40
0.8
 49
0.45
 74
0
 49
-0.05
 74
0
 49
0.1
 74
0
 49
-0.05
 74
0
 49
0.1
 74
0
 49
-0.05
 74
0
  0
LTYPE
  5
1F8
100
AcDbSymbolTableRecord
100
AcDbLinetypeTableRecord
  2
DOT
 70
64
  3
. . . . . . . . . . . . . . . . . . . .
 72
65
 73
2
 40
0.2
 49
0.1
 74
0
 49
-0.1
 74
0
  0
LTYPE
  5
1F9
100
AcDbSymbolTableRecord
100
AcDbLinetypeTableRecord
  2
DASHED
 70
64
  3
- - - - - - - - - - - - - - - - - - - -
 72
65
 73
2
 40
0.2
 49
0.1
 74
0
 49
-0.1
 74
0
  0
ENDTAB
  0
TABLE
  2
LAYER
  5
2
100
AcDbSymbolTable
 70
36
  0
LAYER
  5
10
100
AcDbSymbolTableRecord
100
AcDbLayerTableRecord
  2
0
 70
0
 62
7
  6
CONTINUOUS
370
-3
390
F
  0
LAYER
  5
1FA
100
AcDbSymbolTableRecord
100
AcDbLayerTableRecord
  2
DEFAULT_1
 70
0
 62
7
  6
CENTER
370
-3
390
F
  0
LAYER
  5
1FB
100
AcDbSymbolTableRecord
100
AcDbLayerTableRecord
  2
DEFAULT_2
 70
0
 62
7
  6
HIDDEN
370
-3
390
F
  0
LAYER
  5
1FC
100
AcDbSymbolTableRecord
100
AcDbLayerTableRecord
  2
DEFAULT_3
 70
0
 62
7
  6
PHANTOM
370
-3
390
F
  0
LAYER
  5
1FD
100
AcDbSymbolTableRecord
100
AcDbLayerTableRecord
  2
ASSI
 70
0
 62
7
  6
CONTINUOUS
370
-3
390
F
  0
LAYER
  5
1FE
100
AcDbSymbolTableRecord
100
AcDbLayerTableRecord
  2
COORDINATE
 70
0
 62
7
  6
CONTINUOUS
370
-3
390
F
  0
LAYER
  5
1FF
100
AcDbSymbolTableRecord
100
AcDbLayerTableRecord
  2
COORD_ORIGINE
 70
0
 62
7
  6
CONTINUOUS
370
-3
390
F
  0
LAYER
  5
200
100
AcDbSymbolTableRecord
100
AcDbLayerTableRecord
  2
COPY
 70
0
 62
7
  6
CONTINUOUS
370
-3
390
F
  0
LAYER
  5
201
100
AcDbSymbolTableRecord
100
AcDbLayerTableRecord
  2
COPY_PUBLISH
 70
0
 62
7
  6
CONTINUOUS
370
-3
390
F
  0
LAYER
  5
202
100
AcDbSymbolTableRecord
100
AcDbLayerTableRecord
  2
COSMETICI
 70
0
 62
7
  6
CONTINUOUS
370
-3
390
F
  0
LAYER
  5
203
100
AcDbSymbolTableRecord
100
AcDbLayerTableRecord
  2
CURVE
 70
0
 62
7
  6
CONTINUOUS
370
-3
390
F
  0
LAYER
  5
204
100
AcDbSymbolTableRecord
100
AcDbLayerTableRecord
  2
DRAFT
 70
0
 62
7
  6
CONTINUOUS
370
-3
390
F
  0
LAYER
  5
205
100
AcDbSymbolTableRecord
100
AcDbLayerTableRecord
  2
IMPORT_IGES
 70
0
 62
7
  6
CONTINUOUS
370
-3
390
F
  0
LAYER
  5
206
100
AcDbSymbolTableRecord
100
AcDbLayerTableRecord
  2
INTFCLR_2
 70
0
 62
7
  6
CONTINUOUS
370
-3
390
F
  0
LAYER
  5
207
100
AcDbSymbolTableRecord
100
AcDbLayerTableRecord
  2
INTF_1
 70
0
 62
7
  6
CONTINUOUS
370
-3
390
F
  0
LAYER
  5
208
100
AcDbSymbolTableRecord
100
AcDbLayerTableRecord
  2
NOTE
 70
0
 62
7
  6
CONTINUOUS
370
-3
390
F
  0
LAYER
  5
209
100
AcDbSymbolTableRecord
100
AcDbLayerTableRecord
  2
PIANI
 70
0
 62
7
  6
CONTINUOUS
370
-3
390
F
  0
LAYER
  5
20A
100
AcDbSymbolTableRecord
100
AcDbLayerTableRecord
  2
PIANI_ORIGINE
 70
0
 62
7
  6
CONTINUOUS
370
-3
390
F
  0
LAYER
  5
20B
100
AcDbSymbolTableRecord
100
AcDbLayerTableRecord
  2
PIANI_RIFERIMENTO
 70
0
 62
7
  6
CONTINUOUS
370
-3
390
F
  0
LAYER
  5
20C
100
AcDbSymbolTableRecord
100
AcDbLayerTableRecord
  2
PIANI_SFORMO
 70
0
 62
7
  6
CONTINUOUS
370
-3
390
F
  0
LAYER
  5
20D
100
AcDbSymbolTableRecord
100
AcDbLayerTableRecord
  2
PUNTI
 70
0
 62
7
  6
CONTINUOUS
370
-3
390
F
  0
LAYER
  5
20E
100
AcDbSymbolTableRecord
100
AcDbLayerTableRecord
  2
RACCORDO
 70
0
 62
7
  6
CONTINUOUS
370
-3
390
F
  0
LAYER
  5
20F
100
AcDbSymbolTableRecord
100
AcDbLayerTableRecord
  2
SIMBOLI
 70
0
 62
7
  6
CONTINUOUS
370
-3
390
F
  0
LAYER
  5
210
100
AcDbSymbolTableRecord
100
AcDbLayerTableRecord
  2
SMUSSO
 70
0
 62
7
  6
CONTINUOUS
370
-3
390
F
  0
LAYER
  5
211
100
AcDbSymbolTableRecord
100
AcDbLayerTableRecord
  2
SNAPLINE
 70
0
 62
7
  6
CONTINUOUS
370
-3
390
F
  0
LAYER
  5
212
100
AcDbSymbolTableRecord
100
AcDbLayerTableRecord
  2
SUPERFICI
 70
0
 62
7
  6
CONTINUOUS
370
-3
390
F
  0
LAYER
  5
213
100
AcDbSymbolTableRecord
100
AcDbLayerTableRecord
  2
TRASH
 70
0
 62
7
  6
CONTINUOUS
370
-3
390
F
  0
LAYER
  5
214
100
AcDbSymbolTableRecord
100
AcDbLayerTableRecord
  2
XSEC_DATUMS
 70
0
 62
7
  6
CONTINUOUS
370
-3
390
F
  0
ENDTAB
  0
TABLE
  2
STYLE
  5
3
100
AcDbSymbolTable
 70
1
  0
STYLE
  5
11
100
AcDbSymbolTableRecord
100
AcDbTextStyleTableRecord
  2
STANDARD
 70
0
 40
0.0
 41
0.8
 50
0.0
 71
0
 42
0.2
  3
txt
  4

  0
STYLE
  5
215
100
AcDbSymbolTableRecord
100
AcDbTextStyleTableRecord
  2
TEXTSTYLE_1
 70
0
 40
0.0
 41
0.8
 50
0.0
 71
0
 42
0.2
  3
gdt
  4

  0
ENDTAB
  0
TABLE
  2
VIEW
  5
6
100
AcDbSymbolTable
 70
0
  0
ENDTAB
  0
TABLE
  2
UCS
  5
7
100
AcDbSymbolTable
 70
0
  0
ENDTAB
  0
TABLE
  2
APPID
  5
9
100
AcDbSymbolTable
 70
1
  0
APPID
  5
216
100
AcDbSymbolTableRecord
100
AcDbRegAppTableRecord
  2
ACAD
 70
0
  0
ENDTAB
  0
TABLE
  2
BLOCK_RECORD
  5
1
100
AcDbSymbolTable
 70
0
  0
BLOCK_RECORD
  5
217
100
AcDbSymbolTableRecord
100
AcDbBlockTableRecord
  2
*Model_Space
  0
BLOCK_RECORD
  5
218
100
AcDbSymbolTableRecord
100
AcDbBlockTableRecord
  2
*Paper_Space
  0
ENDTAB
  0
TABLE
  2
DIMSTYLE
  5
A
100
AcDbSymbolTable
 70
1
100
AcDbDimStyleTable
 71
0
  0
DIMSTYLE
105
219
100
AcDbSymbolTableRecord
100
AcDbDimStyleTableRecord
  2
STANDARD
 70
0
  3

  4

 40
1.0
 41
3.0
 42
0.0625
 43
0.38
 44
0.18
 45
0.0
 46
0.0
 47
0.01
 48
0.01
140
3.0
141
0.09
142
0.0
143
25.4
144
1.0
145
0.0
146
1.0
147
0.09
 71
1.0
 72
0.0
 73
0
 74
0
 75
0
 76
0
 77
1
 78
8
170
0
171
2
172
0
173
0
174
0
175
0
176
0
177
0
178
0
270
2
271
2
272
2
273
2
274
2
275
0
280
0
281
0
282
0
283
1
284
8
285
0
286
0
287
3
288
0
340
11
  0
ENDTAB
  0
ENDSEC
  0
SECTION
  2
BLOCKS
  0
BLOCK
  5
20
100
AcDbEntity
  8
0
100
AcDbBlockBegin
  2
*Model_Space
 70
0
 10
0.0
 20
0.0
 30
0.0
  3
*Model_Space
  1

  0
ENDBLK
  5
21
100
AcDbEntity
  8
0
100
AcDbBlockEnd
  0
BLOCK
  5
1C
100
AcDbEntity
  8
0
100
AcDbBlockBegin
  2
*Paper_Space
 70
0
 10
0.0
 20
0.0
 30
0.0
  3
*Paper_Space
  1

  0
ENDBLK
  5
1D
100
AcDbEntity
  8
0
100
AcDbBlockEnd
  0
ENDSEC
  0
SECTION
  2
ENTITIES
  0
LWPOLYLINE
  5
21A
100
AcDbEntity
  8
0
100
AcDbPolyline
 62
7
  6
CONTINUOUS
 90
18
 70
0
 10
-9.9929184493
 20
24.4820926258
 10
-10.0038564463
 20
24.4774087722
 10
-10.0145591876
 20
24.4722097688
 10
-10.0250024283
 20
24.4665073916
 10
-10.0351625059
 20
24.4603145581
 10
-10.0450164051
 20
24.4536452955
 10
-10.0545418038
 20
24.4465147107
 10
-10.0637171191
 20
24.4389389589
 10
-10.0725215661
 20
24.4309352005
 10
-10.0809352005
 20
24.4225215661
 10
-10.0889389589
 20
24.4137171191
 10
-10.0965147107
 20
24.4045418038
 10
-10.1036452955
 20
24.3950164051
 10
-10.1103145581
 20
24.3851625059
 10
-10.1165073916
 20
24.3750024283
 10
-10.1222097688
 20
24.3645591876
 10
-10.1274087722
 20
24.3538564463
 10
-10.1320926258
 20
24.3429184493
  0
LWPOLYLINE
  5
21B
100
AcDbEntity
  8
0
100
AcDbPolyline
 62
7
  6
CONTINUOUS
 90
6
 70
0
 10
9.9355823661
 20
-24.4974554741
 10
9.9473162875
 20
-24.4954823677
 10
9.9589430388
 20
-24.4929531817
 10
9.970436279
 20
-24.4898736417
 10
9.9817699738
 20
-24.4862507213
 10
9.9929184493
 20
-24.4820926258
  0
LWPOLYLINE
  5
21C
100
AcDbEntity
  8
0
100
AcDbPolyline
 62
7
  6
CONTINUOUS
 90
9
 70
0
 10
-9.9929184493
 20
-24.4820926258
 10
-9.9817699738
 20
-24.4862507213
 10
-9.970436279
 20
-24.4898736417
 10
-9.9589430388
 20
-24.4929531817
 10
-9.9473162875
 20
-24.4954823677
 10
-9.9355823661
 20
-24.4974554741
 10
-9.9237678556
 20
-24.4988680342
 10
-9.911899516
 20
-24.4997168498
 10
-9.9000042308
 20
-24.5
  0
LWPOLYLINE
  5
21D
100
AcDbEntity
  8
0
100
AcDbPolyline
 62
7
  6
CONTINUOUS
 90
4
 70
0
 10
9.9000042308
 20
-24.5
 10
9.911899516
 20
-24.4997168498
 10
9.9237678556
 20
-24.4988680342
 10
9.9355823661
 20
-24.4974554741
  0
LWPOLYLINE
  5
21E
100
AcDbEntity
  8
0
100
AcDbPolyline
 62
7
  6
CONTINUOUS
 90
34
 70
0
 10
9.8956323968
 20
-24.495628166
 10
9.9075078683
 20
-24.4953455463
 10
9.9193616109
 20
-24.4944986445
 10
9.9311667864
 20
-24.4930886486
 10
9.942898281
 20
-24.4911177026
 10
9.9545277163
 20
-24.4885897127
 10
9.9660236819
 20
-24.4855111341
 10
9.977358447
 20
-24.4818895243
 10
9.988508059
 20
-24.4777326699
 10
9.9994474601
 20
-24.4730498963
 10
10.0101519949
 20
-24.467851711
 10
10.0205972484
 20
-24.4621499225
 10
10.030759324
 20
-24.4559575601
 10
10.0406151087
 20
-24.4492887229
 10
10.0501423702
 20
-24.4421584695
 10
10.0593195834
 20
-24.4345829086
 10
10.068125975
 20
-24.4265791771
 10
10.0765415612
 20
-24.4181654255
 10
10.0845472554
 20
-24.4093607299
 10
10.0921249119
 20
-24.4001850429
 10
10.0992573629
 20
-24.3906591487
 10
10.105928443
 20
-24.3808046326
 10
10.1121230353
 20
-24.3706438204
 10
10.1178271006
 20
-24.3601997352
 10
10.1230277082
 20
-24.3494960488
 10
10.1277130725
 20
-24.3385570152
 10
10.1318725768
 20
-24.3274074189
 10
10.135496794
 20
-24.3160725264
 10
10.1385775126
 20
-24.3045780153
 10
10.1411077496
 20
-24.292949936
 10
10.1430817682
 20
-24.2812146563
 10
10.144495097
 20
-24.269398774
 10
10.1453445371
 20
-24.2575290557
 10
10.145628166
 20
-24.2456323968
  0
LWPOLYLINE
  5
21F
100
AcDbEntity
  8
0
100
AcDbPolyline
 62
7
  6
CONTINUOUS
 90
4
 70
0
 10
-7.4999957692
 20
-24.5
 10
-7.488100484
 20
-24.4997168498
 10
-7.4762321444
 20
-24.4988680342
 10
-7.4644176339
 20
-24.4974554741
  0
LWPOLYLINE
  5
220
100
AcDbEntity
  8
0
100
AcDbPolyline
 62
7
  6
CONTINUOUS
 90
34
 70
0
 10
-7.5043676032
 20
-24.495628166
 10
-7.4924725817
 20
-24.4953446152
 10
-7.480604505
 20
-24.4944954103
 10
-7.4687902571
 20
-24.4930824749
 10
-7.4570565999
 20
-24.4911090096
 10
-7.4454301126
 20
-24.4885794848
 10
-7.433937132
 20
-24.4854996304
 10
-7.4226036922
 20
-24.481876423
 10
-7.411455466
 20
-24.47771807
 10
-7.4005177065
 20
-24.4730339909
 10
-7.3898151904
 20
-24.4678347962
 10
-7.3793721611
 20
-24.4621322634
 10
-7.3692122745
 20
-24.4559393098
 10
-7.359358545
 20
-24.449269964
 10
-7.3498332936
 20
-24.4421393334
 10
-7.3406580969
 20
-24.4345635707
 10
-7.3318537389
 20
-24.4265598365
 10
-7.3234401635
 20
-24.4181462611
 10
-7.3154364293
 20
-24.4093419031
 10
-7.3078606666
 20
-24.4001667064
 10
-7.300730036
 20
-24.390641455
 10
-7.2940606902
 20
-24.3807877255
 10
-7.2878677366
 20
-24.3706278389
 10
-7.2821652038
 20
-24.3601848096
 10
-7.2769660091
 20
-24.3494822935
 10
-7.27228193
 20
-24.338544534
 10
-7.268123577
 20
-24.3273963078
 10
-7.2645003696
 20
-24.316062868
 10
-7.2614205152
 20
-24.3045698874
 10
-7.2588909904
 20
-24.2929434001
 10
-7.2569175251
 20
-24.2812097429
 10
-7.2555045897
 20
-24.269395495
 10
-7.2546553848
 20
-24.2575274183
 10
-7.254371834
 20
-24.2456323968
  0
LWPOLYLINE
  5
221
100
AcDbEntity
  8
0
100
AcDbPolyline
 62
7
  6
CONTINUOUS
 90
37
 70
0
 10
-1.1999974616
 20
-24.0
 10
-1.1912738079
 20
-23.9998096663
 10
-1.1825667532
 20
-23.9992390211
 10
-1.1738928689
 20
-23.9982891478
 10
-1.1652686621
 20
-23.9969618522
 10
-1.1567105486
 20
-23.9952596573
 10
-1.1482348219
 20
-23.9931857986
 10
-1.1398576138
 20
-23.9907442207
 10
-1.1315948698
 20
-23.9879395683
 10
-1.1234623227
 20
-23.9847771768
 10
-1.115475452
 20
-23.981263063
 10
-1.1076494607
 20
-23.9774039139
 10
-1.0999992512
 20
-23.9732070734
 10
-1.0925393856
 20
-23.9686805281
 10
-1.085284064
 20
-23.9638328927
 10
-1.078247103
 20
-23.9586733946
 10
-1.0714418978
 20
-23.9532118535
 10
-1.0648814023
 20
-23.9474586645
 10
-1.0585781102
 20
-23.9414247806
 10
-1.0525440201
 20
-23.9351216866
 10
-1.0467906181
 20
-23.9285613799
 10
-1.0413288602
 20
-23.9217563514
 10
-1.0361691431
 20
-23.9147195545
 10
-1.0313212881
 20
-23.9074643834
 10
-1.0267945259
 20
-23.9000046527
 10
-1.0225974731
 20
-23.8923545622
 10
-1.018738118
 20
-23.8845286738
 10
-1.0152238078
 20
-23.8765418886
 10
-1.0120612314
 20
-23.8684094098
 10
-1.0092564078
 20
-23.8601467172
 10
-1.0068146748
 20
-23.8517695428
 10
-1.0047406795
 20
-23.8432938328
 10
-1.0030383682
 20
-23.8347357198
 10
-1.0017109789
 20
-23.8261114971
 10
-1.0007610365
 20
-23.8174375811
 10
-1.0001903485
 20
-23.8087304808
 10
-1.0
 20
-23.8000067692
  0
LINE
  5
222
100
AcDbEntity
  8
0
100
AcDbLine
 62
7
  6
CONTINUOUS
 10
-9.8956323968
 20
-24.495628166
 11
-7.5043676032
 21
-24.495628166
  0
LINE
  5
223
100
AcDbEntity
  8
0
100
AcDbLine
 62
7
  6
CONTINUOUS
 10
7.5043676032
 20
-24.495628166
 11
9.8956323968
 21
-24.495628166
  0
LINE
  5
224
100
AcDbEntity
  8
0
100
AcDbLine
 62
253
  6
CONTINUOUS
 10
7.254371834
 20
-24.2456323968
 11
10.145628166
 21
-24.2456323968
  0
LINE
  5
225
100
AcDbEntity
  8
0
100
AcDbLine
 62
253
  6
CONTINUOUS
 10
-7.254371834
 20
-24.2456323968
 11
-10.145628166
 21
-24.2456323968
  0
LINE
  5
226
100
AcDbEntity
  8
0
100
AcDbLine
 62
7
  6
CONTINUOUS
 10
-4.45
 20
-24.0
 11
-1.1999974616
 21
-24.0
  0
LINE
  5
227
100
AcDbEntity
  8
0
100
AcDbLine
 62
7
  6
CONTINUOUS
 10
1.1999974616
 20
-24.0
 11
4.45
 21
-24.0
  0
LINE
  5
228
100
AcDbEntity
  8
0
100
AcDbLine
 62
7
  6
CONTINUOUS
 10
-3.5348577163
 20
-23.994298655
 11
-1.2085495996
 21
-23.994298655
  0
LINE
  5
229
100
AcDbEntity
  8
0
100
AcDbLine
 62
7
  6
CONTINUOUS
 10
1.2085495996
 20
-23.994298655
 11
3.5348577163
 21
-23.994298655
  0
LINE
  5
22A
100
AcDbEntity
  8
0
100
AcDbLine
 62
7
  6
CONTINUOUS
 10
-4.4063493531
 20
-23.9563493531
 11
-3.5345265377
 21
-23.9563493531
  0
LINE
  5
22B
100
AcDbEntity
  8
0
100
AcDbLine
 62
7
  6
CONTINUOUS
 10
3.5345265377
 20
-23.9563493531
 11
4.4063493531
 21
-23.9563493531
  0
LINE
  5
22C
100
AcDbEntity
  8
0
100
AcDbLine
 62
253
  6
CONTINUOUS
 10
7.254371834
 20
-23.8443375673
 11
10.145628166
 21
-23.8443375673
  0
LINE
  5
22D
100
AcDbEntity
  8
0
100
AcDbLine
 62
253
  6
CONTINUOUS
 10
-7.254371834
 20
-23.8443375673
 11
-10.145628166
 21
-23.8443375673
  0
LINE
  5
22E
100
AcDbEntity
  8
0
100
AcDbLine
 62
253
  6
CONTINUOUS
 10
9.8956323968
 20
-23.6278312164
 11
7.5043676032
 21
-23.6278312164
  0
LINE
  5
22F
100
AcDbEntity
  8
0
100
AcDbLine
 62
253
  6
CONTINUOUS
 10
-7.5043676032
 20
-23.6278312164
 11
-9.8956323968
 21
-23.6278312164
  0
LINE
  5
230
100
AcDbEntity
  8
0
100
AcDbLine
 62
7
  6
CONTINUOUS
 10
-9.9007229979
 20
-23.1226497308
 11
-7.4992770021
 21
-23.1226497308
  0
LINE
  5
231
100
AcDbEntity
  8
0
100
AcDbLine
 62
7
  6
CONTINUOUS
 10
9.9007229979
 20
-23.1226497308
 11
7.4992770021
 21
-23.1226497308
  0
LWPOLYLINE
  5
232
100
AcDbEntity
  8
0
100
AcDbPolyline
 62
7
  6
CONTINUOUS
 90
37
 70
0
 10
1.1999974616
 20
-24.0
 10
1.1912738079
 20
-23.9998096663
 10
1.1825667532
 20
-23.9992390211
 10
1.1738928689
 20
-23.9982891478
 10
1.1652686621
 20
-23.9969618522
 10
1.1567105486
 20
-23.9952596573
 10
1.1482348219
 20
-23.9931857986
 10
1.1398576138
 20
-23.9907442207
 10
1.1315948698
 20
-23.9879395683
 10
1.1234623227
 20
-23.9847771768
 10
1.115475452
 20
-23.981263063
 10
1.1076494607
 20
-23.9774039139
 10
1.0999992512
 20
-23.9732070734
 10
1.0925393856
 20
-23.9686805281
 10
1.085284064
 20
-23.9638328927
 10
1.078247103
 20
-23.9586733946
 10
1.0714418978
 20
-23.9532118535
 10
1.0648814023
 20
-23.9474586645
 10
1.0585781102
 20
-23.9414247806
 10
1.0525440201
 20
-23.9351216866
 10
1.0467906181
 20
-23.9285613799
 10
1.0413288602
 20
-23.9217563514
 10
1.0361691431
 20
-23.9147195545
 10
1.0313212881
 20
-23.9074643834
 10
1.0267945259
 20
-23.9000046527
 10
1.0225974731
 20
-23.8923545622
 10
1.018738118
 20
-23.8845286738
 10
1.0152238078
 20
-23.8765418886
 10
1.0120612314
 20
-23.8684094098
 10
1.0092564078
 20
-23.8601467172
 10
1.0068146748
 20
-23.8517695428
 10
1.0047406795
 20
-23.8432938328
 10
1.0030383682
 20
-23.8347357198
 10
1.0017109789
 20
-23.8261114971
 10
1.0007610365
 20
-23.8174375811
 10
1.0001903485
 20
-23.8087304808
 10
1.0
 20
-23.8000067692
  0
LINE
  5
233
100
AcDbEntity
  8
0
100
AcDbLine
 62
7
  6
CONTINUOUS
 10
-8.0665695018
 20
20.9917082642
 11
-8.2325449351
 21
20.9087268678
  0
LINE
  5
234
100
AcDbEntity
  8
0
100
AcDbLine
 62
7
  6
CONTINUOUS
 10
-8.0665695018
 20
21.4537354271
 11
-8.2325449351
 21
21.4051134101
  0
LWPOLYLINE
  5
235
100
AcDbEntity
  8
0
100
AcDbPolyline
 62
7
  6
CONTINUOUS
 90
6
 70
0
 10
-7.4644176339
 20
-24.4974554741
 10
-7.4526837125
 20
-24.4954823677
 10
-7.4410569612
 20
-24.4929531817
 10
-7.429563721
 20
-24.4898736417
 10
-7.4182300262
 20
-24.4862507213
 10
-7.4070815507
 20
-24.4820926258
  0
LINE
  5
236
100
AcDbEntity
  8
0
100
AcDbLine
 62
7
  6
CONTINUOUS
 10
1.0
 20
-22.4
 11
-1.0
 21
-22.4
  0
LINE
  5
237
100
AcDbEntity
  8
0
100
AcDbLine
 62
7
  6
CONTINUOUS
 10
4.45
 20
-22.4
 11
10.6503805997
 21
-22.4
  0
LINE
  5
238
100
AcDbEntity
  8
0
100
AcDbLine
 62
7
  6
CONTINUOUS
 10
-4.45
 20
-22.4
 11
-10.6503805997
 21
-22.4
  0
LINE
  5
239
100
AcDbEntity
  8
0
100
AcDbLine
 62
7
  6
CONTINUOUS
 10
-1.0086739534
 20
-22.3947957125
 11
1.0086739534
 21
-22.3947957125
  0
LINE
  5
23A
100
AcDbEntity
  8
0
100
AcDbLine
 62
7
  6
CONTINUOUS
 10
-10.6412794783
 20
-22.3941821702
 11
-7.2558178298
 21
-22.3941821702
  0
LINE
  5
23B
100
AcDbEntity
  8
0
100
AcDbLine
 62
7
  6
CONTINUOUS
 10
7.2558178298
 20
-22.3941821702
 11
10.6412794783
 21
-22.3941821702
  0
LINE
  5
23C
100
AcDbEntity
  8
0
100
AcDbLine
 62
253
  6
CONTINUOUS
 10
-7.1905416262
 20
-22.3359700255
 11
-3.0055500263
 21
-22.3359700255
  0
LINE
  5
23D
100
AcDbEntity
  8
0
100
AcDbLine
 62
253
  6
CONTINUOUS
 10
3.0055500263
 20
-22.3359700255
 11
7.1905416262
 21
-22.3359700255
  0
LINE
  5
23E
100
AcDbEntity
  8
0
100
AcDbLine
 62
7
  6
CONTINUOUS
 10
-3.0
 20
-21.7
 11
3.0
 21
-21.7
  0
LINE
  5
23F
100
AcDbEntity
  8
0
100
AcDbLine
 62
253
  6
CONTINUOUS
 10
-7.5666456542
 20
-21.3359869487
 11
-2.9968233062
 21
-21.3359869487
  0
LINE
  5
240
100
AcDbEntity
  8
0
100
AcDbLine
 62
253
  6
CONTINUOUS
 10
2.9968233062
 20
-21.3359869487
 11
7.5666456542
 21
-21.3359869487
  0
LINE
  5
241
100
AcDbEntity
  8
0
100
AcDbLine
 62
7
  6
CONTINUOUS
 10
-8.0665695018
 20
-21.4537354271
 11
-8.2325449351
 21
-21.4051134101
  0
LINE
  5
242
100
AcDbEntity
  8
0
100
AcDbLine
 62
7
  6
CONTINUOUS
 10
-8.0665695018
 20
-20.9917082642
 11
-8.2325449351
 21
-20.9087268678
  0
LINE
  5
243
100
AcDbEntity
  8
RACCORDO
100
AcDbLine
 62
7
  6
CONTINUOUS
 10
-8.8
 20
20.85
 11
-10.5643027805
 21
19.0856972195
  0
LINE
  5
244
100
AcDbEntity
  8
0
100
AcDbLine
 62
7
  6
CONTINUOUS
 10
-11.1412731322
 20
18.5087268678
 11
-7.2558178298
 21
22.3941821702
  0
LINE
  5
245
100
AcDbEntity
  8
0
100
AcDbLine
 62
7
  6
CONTINUOUS
 10
-8.2325449351
 20
21.4051134101
 11
-8.0665695018
 21
21.5710888434
  0
LINE
  5
246
100
AcDbEntity
  8
RACCORDO
100
AcDbLine
 62
7
  6
CONTINUOUS
 10
-8.6272036731
 20
20.85
 11
-10.442117326
 21
19.0350863471
  0
LINE
  5
247
100
AcDbEntity
  8
DRAFT
100
AcDbLine
 62
7
  6
CONTINUOUS
 10
-7.6433124597
 20
20.9
 11
-7.6933124597
 21
20.85
  0
LINE
  5
248
100
AcDbEntity
  8
DRAFT
100
AcDbLine
 62
7
  6
CONTINUOUS
 10
-7.6186291501
 20
20.9
 11
-7.6686291501
 21
20.85
  0
LINE
  5
249
100
AcDbEntity
  8
DRAFT
100
AcDbLine
 62
7
  6
CONTINUOUS
 10
-7.2912734645
 20
20.9087265355
 11
-7.3
 21
20.9
  0
LINE
  5
24A
100
AcDbEntity
  8
DRAFT
100
AcDbLine
 62
7
  6
CONTINUOUS
 10
-7.1952775865
 20
20.9959955457
 11
-7.2912734645
 21
20.9000003323
  0
LINE
  5
24B
100
AcDbEntity
  8
RACCORDO
100
AcDbLine
 62
7
  6
CONTINUOUS
 10
-10.7202082353
 20
17.2983042468
 11
-10.0983042468
 21
17.9202082353
  0
LINE
  5
24C
100
AcDbEntity
  8
ASSI
100
AcDbLine
 62
7
  6
CONTINUOUS
 10
-10.7202082353
 20
17.2983042468
 11
-10.0983042468
 21
17.9202082353
  0
LINE
  5
24D
100
AcDbEntity
  8
0
100
AcDbLine
 62
253
  6
CONTINUOUS
 10
-1.2085495996
 20
23.994298655
 11
-1.1999974616
 21
24.0
  0
LINE
  5
24E
100
AcDbEntity
  8
0
100
AcDbLine
 62
253
  6
CONTINUOUS
 10
-1.00856737
 20
23.7942952698
 11
-1.0
 21
23.8000067692
  0
LINE
  5
24F
100
AcDbEntity
  8
0
100
AcDbLine
 62
7
  6
CONTINUOUS
 10
-1.0086739534
 20
22.3947957125
 11
-1.0
 21
22.4
  0
LINE
  5
250
100
AcDbEntity
  8
DRAFT
100
AcDbLine
 62
7
  6
CONTINUOUS
 10
-7.4366556363
 20
18.2661694676
 11
-7.4541107013
 21
18.2574425998
  0
LWPOLYLINE
  5
251
100
AcDbEntity
  8
0
100
AcDbPolyline
 62
7
  6
CONTINUOUS
 90
18
 70
0
 10
7.4070815507
 20
24.4820926258
 10
7.3961435537
 20
24.4774087722
 10
7.3854408124
 20
24.4722097688
 10
7.3749975717
 20
24.4665073916
 10
7.3648374941
 20
24.4603145581
 10
7.3549835949
 20
24.4536452955
 10
7.3454581962
 20
24.4465147107
 10
7.3362828809
 20
24.4389389589
 10
7.3274784339
 20
24.4309352005
 10
7.3190647995
 20
24.4225215661
 10
7.3110610411
 20
24.4137171191
 10
7.3034852893
 20
24.4045418038
 10
7.2963547045
 20
24.3950164051
 10
7.2896854419
 20
24.3851625059
 10
7.2834926084
 20
24.3750024283
 10
7.2777902312
 20
24.3645591876
 10
7.2725912278
 20
24.3538564463
 10
7.2679073742
 20
24.3429184493
  0
LWPOLYLINE
  5
252
100
AcDbEntity
  8
0
100
AcDbPolyline
 62
7
  6
CONTINUOUS
 90
12
 70
0
 10
-1.6243964614
 20
-19.8846288165
 10
-1.7422682896
 20
-19.8850092905
 10
-1.8551397193
 20
-19.8856281018
 10
-1.9644955018
 20
-19.8865000664
 10
-2.0688508859
 20
-19.8876103683
 10
-2.1637516183
 20
-19.8889145591
 10
-2.2488197026
 20
-19.8904245811
 10
-2.3244331351
 20
-19.8921284921
 10
-2.3872716511
 20
-19.893946017
 10
-2.4362284958
 20
-19.8958503974
 10
-2.4724104239
 20
-19.8978683918
 10
-2.4958174355
 20
-19.9
  0
LINE
  5
253
100
AcDbEntity
  8
DRAFT
100
AcDbLine
 62
7
  6
CONTINUOUS
 10
-7.5666456542
 20
-20.9959955457
 11
-7.1952775865
 21
-20.9959955457
  0
LINE
  5
254
100
AcDbEntity
  8
DRAFT
100
AcDbLine
 62
7
  6
CONTINUOUS
 10
7.5666456542
 20
-20.9959955457
 11
7.1952775865
 21
-20.9959955457
  0
LINE
  5
255
100
AcDbEntity
  8
0
100
AcDbLine
 62
7
  6
CONTINUOUS
 10
-8.2325449351
 20
-20.9087268678
 11
-8.0665695018
 21
-20.9087268678
  0
LINE
  5
256
100
AcDbEntity
  8
0
100
AcDbLine
 62
7
  6
CONTINUOUS
 10
8.0665695018
 20
-20.9087268678
 11
8.2325449351
 21
-20.9087268678
  0
LINE
  5
257
100
AcDbEntity
  8
DRAFT
100
AcDbLine
 62
7
  6
CONTINUOUS
 10
8.0665695018
 20
-20.9
 11
7.6309708049
 21
-20.9
  0
LINE
  5
258
100
AcDbEntity
  8
DRAFT
100
AcDbLine
 62
7
  6
CONTINUOUS
 10
7.3
 20
-20.9
 11
7.6186291501
 21
-20.9
  0
LINE
  5
259
100
AcDbEntity
  8
DRAFT
100
AcDbLine
 62
7
  6
CONTINUOUS
 10
-7.2912731322
 20
-20.9
 11
-7.6186291501
 21
-20.9
  0
LINE
  5
25A
100
AcDbEntity
  8
DRAFT
100
AcDbLine
 62
7
  6
CONTINUOUS
 10
-7.6309708049
 20
-20.9
 11
-8.0665695018
 21
-20.9
  0
LINE
  5
25B
100
AcDbEntity
  8
DRAFT
100
AcDbLine
 62
7
  6
CONTINUOUS
 10
-8.8
 20
-20.85
 11
-7.4
 21
-20.85
  0
LINE
  5
25C
100
AcDbEntity
  8
DRAFT
100
AcDbLine
 62
7
  6
CONTINUOUS
 10
7.4
 20
-20.85
 11
8.8
 21
-20.85
  0
LINE
  5
25D
100
AcDbEntity
  8
0
100
AcDbLine
 62
7
  6
CONTINUOUS
 10
-2.992145819
 20
-20.8
 11
2.992145819
 21
-20.8
  0
LINE
  5
25E
100
AcDbEntity
  8
DRAFT
100
AcDbLine
 62
7
  6
CONTINUOUS
 10
-6.6047224135
 20
-20.1047224135
 11
6.6047224135
 21
-20.1047224135
  0
LINE
  5
25F
100
AcDbEntity
  8
DRAFT
100
AcDbLine
 62
7
  6
CONTINUOUS
 10
2.5
 20
-20.070693013
 11
2.4412605819
 21
-20.070693013
  0
LINE
  5
260
100
AcDbEntity
  8
DRAFT
100
AcDbLine
 62
7
  6
CONTINUOUS
 10
-2.4412605819
 20
-20.070693013
 11
-2.5
 21
-20.070693013
  0
LINE
  5
261
100
AcDbEntity
  8
DRAFT
100
AcDbLine
 62
7
  6
CONTINUOUS
 10
-3.5001534346
 20
-20.0175818656
 11
-2.499383967
 21
-20.0175818656
  0
LINE
  5
262
100
AcDbEntity
  8
DRAFT
100
AcDbLine
 62
7
  6
CONTINUOUS
 10
2.499383967
 20
-20.0175818656
 11
3.5001534346
 21
-20.0175818656
  0
LINE
  5
263
100
AcDbEntity
  8
DRAFT
100
AcDbLine
 62
7
  6
CONTINUOUS
 10
-6.5043634339
 20
-20.0043634339
 11
-2.4993600697
 21
-20.0043634339
  0
LINE
  5
264
100
AcDbEntity
  8
DRAFT
100
AcDbLine
 62
7
  6
CONTINUOUS
 10
2.4993600697
 20
-20.0043634339
 11
6.5043634339
 21
-20.0043634339
  0
LINE
  5
265
100
AcDbEntity
  8
DRAFT
100
AcDbLine
 62
7
  6
CONTINUOUS
 10
-7.4
 20
-20.0
 11
-7.2956365661
 21
-20.0
  0
LINE
  5
266
100
AcDbEntity
  8
DRAFT
100
AcDbLine
 62
7
  6
CONTINUOUS
 10
7.2956365661
 20
-20.0
 11
7.4
 21
-20.0
  0
LINE
  5
267
100
AcDbEntity
  8
0
100
AcDbLine
 62
7
  6
CONTINUOUS
 10
3.5
 20
-19.9
 11
2.4944782802
 21
-19.9
  0
LINE
  5
268
100
AcDbEntity
  8
0
100
AcDbLine
 62
7
  6
CONTINUOUS
 10
-2.4944782802
 20
-19.9
 11
-3.5
 21
-19.9
  0
LINE
  5
269
100
AcDbEntity
  8
0
100
AcDbLine
 62
7
  6
CONTINUOUS
 10
1.5015242349
 20
-19.8844866796
 11
-1.6243964614
 21
-19.8846288165
  0
LINE
  5
26A
100
AcDbEntity
  8
DRAFT
100
AcDbLine
 62
7
  6
CONTINUOUS
 10
3.4633443637
 20
-19.8633443637
 11
-3.4633443637
 21
-19.8633443637
  0
LINE
  5
26B
100
AcDbEntity
  8
DRAFT
100
AcDbLine
 62
7
  6
CONTINUOUS
 10
-7.1952775865
 20
-19.8047224135
 11
-6.6047224135
 21
-19.8047224135
  0
LINE
  5
26C
100
AcDbEntity
  8
DRAFT
100
AcDbLine
 62
7
  6
CONTINUOUS
 10
6.6047224135
 20
-19.8047224135
 11
7.1952775865
 21
-19.8047224135
  0
LINE
  5
26D
100
AcDbEntity
  8
DRAFT
100
AcDbLine
 62
7
  6
CONTINUOUS
 10
-7.2956365661
 20
-19.7043634339
 11
-6.5043634339
 21
-19.7043634339
  0
LINE
  5
26E
100
AcDbEntity
  8
DRAFT
100
AcDbLine
 62
7
  6
CONTINUOUS
 10
6.5043634339
 20
-19.7043634339
 11
7.2956365661
 21
-19.7043634339
  0
LINE
  5
26F
100
AcDbEntity
  8
DRAFT
100
AcDbLine
 62
7
  6
CONTINUOUS
 10
-7.4
 20
-19.7
 11
-3.5
 21
-19.7
  0
LINE
  5
270
100
AcDbEntity
  8
DRAFT
100
AcDbLine
 62
7
  6
CONTINUOUS
 10
3.5
 20
-19.7
 11
7.4
 21
-19.7
  0
LINE
  5
271
100
AcDbEntity
  8
DRAFT
100
AcDbLine
 62
7
  6
CONTINUOUS
 10
-7.4366556363
 20
-19.6633443637
 11
-3.4633443637
 21
-19.6633443637
  0
LINE
  5
272
100
AcDbEntity
  8
DRAFT
100
AcDbLine
 62
7
  6
CONTINUOUS
 10
3.4633443637
 20
-19.6633443637
 11
7.4366556363
 21
-19.6633443637
  0
LINE
  5
273
100
AcDbEntity
  8
RACCORDO
100
AcDbLine
 62
7
  6
CONTINUOUS
 10
-3.7131017248
 20
-19.6130903017
 11
9.3912243901
 21
-19.6130903017
  0
LINE
  5
274
100
AcDbEntity
  8
ASSI
100
AcDbLine
 62
7
  6
CONTINUOUS
 10
-3.7131017248
 20
-19.6130903017
 11
9.3912243901
 21
-19.6130903017
  0
LWPOLYLINE
  5
275
100
AcDbEntity
  8
0
100
AcDbPolyline
 62
7
  6
CONTINUOUS
 90
13
 70
0
 10
1.5015242349
 20
-19.8844866796
 10
1.6243964614
 20
-19.8846288165
 10
1.7422682896
 20
-19.8850092905
 10
1.8551397193
 20
-19.8856281018
 10
1.9644955018
 20
-19.8865000664
 10
2.0688508859
 20
-19.8876103683
 10
2.1637516183
 20
-19.8889145591
 10
2.2488197026
 20
-19.8904245811
 10
2.3244331351
 20
-19.8921284921
 10
2.3872716511
 20
-19.893946017
 10
2.4362284958
 20
-19.8958503974
 10
2.4724104239
 20
-19.8978683918
 10
2.4958174355
 20
-19.9
  0
LWPOLYLINE
  5
276
100
AcDbEntity
  8
0
100
AcDbPolyline
 62
7
  6
CONTINUOUS
 90
9
 70
0
 10
7.4070815507
 20
-24.4820926258
 10
7.4182300262
 20
-24.4862507213
 10
7.429563721
 20
-24.4898736417
 10
7.4410569612
 20
-24.4929531817
 10
7.4526837125
 20
-24.4954823677
 10
7.4644176339
 20
-24.4974554741
 10
7.4762321444
 20
-24.4988680342
 10
7.488100484
 20
-24.4997168498
 10
7.4999957692
 20
-24.5
  0
LINE
  5
277
100
AcDbEntity
  8
0
100
AcDbLine
 62
7
  6
CONTINUOUS
 10
-1.0
 20
-22.4
 11
-1.0086739534
 21
-22.3947957125
  0
LINE
  5
278
100
AcDbEntity
  8
0
100
AcDbLine
 62
253
  6
CONTINUOUS
 10
-1.1999974616
 20
-24.0
 11
-1.2085495996
 21
-23.994298655
  0
LINE
  5
279
100
AcDbEntity
  8
0
100
AcDbLine
 62
253
  6
CONTINUOUS
 10
-1.0
 20
-23.8000067692
 11
-1.00856737
 21
-23.7942952698
  0
LINE
  5
27A
100
AcDbEntity
  8
RACCORDO
100
AcDbLine
 62
7
  6
CONTINUOUS
 10
-10.5643027805
 20
-19.0856972195
 11
-8.8
 21
-20.85
  0
LINE
  5
27B
100
AcDbEntity
  8
0
100
AcDbLine
 62
7
  6
CONTINUOUS
 10
-7.2558178298
 20
-22.3941821702
 11
-11.1412731322
 21
-18.5087268678
  0
LINE
  5
27C
100
AcDbEntity
  8
0
100
AcDbLine
 62
7
  6
CONTINUOUS
 10
-8.2325449351
 20
-21.4051134101
 11
-8.0665695018
 21
-21.5710888434
  0
LINE
  5
27D
100
AcDbEntity
  8
RACCORDO
100
AcDbLine
 62
7
  6
CONTINUOUS
 10
-10.442117326
 20
-19.0350863471
 11
-8.6272036731
 21
-20.85
  0
LINE
  5
27E
100
AcDbEntity
  8
DRAFT
100
AcDbLine
 62
7
  6
CONTINUOUS
 10
-7.6933124597
 20
-20.85
 11
-7.6433124597
 21
-20.9
  0
LINE
  5
27F
100
AcDbEntity
  8
DRAFT
100
AcDbLine
 62
7
  6
CONTINUOUS
 10
-7.6686291501
 20
-20.85
 11
-7.6186291501
 21
-20.9
  0
LINE
  5
280
100
AcDbEntity
  8
DRAFT
100
AcDbLine
 62
7
  6
CONTINUOUS
 10
-7.1952775865
 20
-20.9959955457
 11
-7.2912731322
 21
-20.9
  0
LINE
  5
281
100
AcDbEntity
  8
RACCORDO
100
AcDbLine
 62
7
  6
CONTINUOUS
 10
-10.7202082353
 20
-17.2983042468
 11
-10.0983042468
 21
-17.9202082353
  0
LINE
  5
282
100
AcDbEntity
  8
ASSI
100
AcDbLine
 62
7
  6
CONTINUOUS
 10
-10.7202082353
 20
-17.2983042468
 11
-10.0983042468
 21
-17.9202082353
  0
LWPOLYLINE
  5
283
100
AcDbEntity
  8
0
100
AcDbPolyline
 62
7
  6
CONTINUOUS
 90
9
 70
0
 10
-10.1320926258
 20
24.3429184493
 10
-10.1362507213
 20
24.3317699738
 10
-10.1398736417
 20
24.320436279
 10
-10.1429531817
 20
24.3089430388
 10
-10.1454823677
 20
24.2973162875
 10
-10.1474554741
 20
24.2855823661
 10
-10.1488680342
 20
24.2737678556
 10
-10.1497168498
 20
24.261899516
 10
-10.15
 20
24.2500042308
  0
LWPOLYLINE
  5
284
100
AcDbEntity
  8
0
100
AcDbPolyline
 62
7
  6
CONTINUOUS
 90
5
 70
0
 10
-3.5340842777
 20
23.9056713724
 10
-3.5406691964
 20
23.8979458078
 10
-3.5479139207
 20
23.8895413297
 10
-3.5558327405
 20
23.8804579381
 10
-3.5644425454
 20
23.8707001782
  0
LINE
  5
285
100
AcDbEntity
  8
0
100
AcDbLine
 62
7
  6
CONTINUOUS
 10
-3.5644425454
 20
23.8707001782
 11
-3.5837555935
 21
23.8491342822
  0
LINE
  5
286
100
AcDbEntity
  8
0
100
AcDbLine
 62
7
  6
CONTINUOUS
 10
-3.5837555935
 20
23.8491342822
 11
-3.6058570793
 21
23.8248008104
  0
LINE
  5
287
100
AcDbEntity
  8
0
100
AcDbLine
 62
7
  6
CONTINUOUS
 10
-3.6058570793
 20
23.8248008104
 11
-3.6307896531
 21
23.7976632689
  0
LINE
  5
288
100
AcDbEntity
  8
0
100
AcDbLine
 62
7
  6
CONTINUOUS
 10
-3.6307896531
 20
23.7976632689
 11
-3.6737411976
 21
23.7514075681
  0
LINE
  5
289
100
AcDbEntity
  8
0
100
AcDbLine
 62
7
  6
CONTINUOUS
 10
-3.6737411976
 20
23.7514075681
 11
-3.7419583603
 21
23.6787343857
  0
LINE
  5
28A
100
AcDbEntity
  8
0
100
AcDbLine
 62
7
  6
CONTINUOUS
 10
-3.7419583603
 20
23.6787343857
 11
-3.8650931909
 21
23.5487709461
  0
LINE
  5
28B
100
AcDbEntity
  8
0
100
AcDbLine
 62
7
  6
CONTINUOUS
 10
-3.8650931909
 20
23.5487709461
 11
-3.9530427099
 21
23.4563578147
  0
LINE
  5
28C
100
AcDbEntity
  8
DRAFT
100
AcDbLine
 62
7
  6
CONTINUOUS
 10
-7.4
 20
19.7
 11
-7.4366556363
 21
19.6633443637
  0
LINE
  5
28D
100
AcDbEntity
  8
DRAFT
100
AcDbLine
 62
7
  6
CONTINUOUS
 10
-7.1952775865
 20
19.8047224135
 11
-7.2956365661
 21
19.7043634339
  0
LINE
  5
28E
100
AcDbEntity
  8
ASSI
100
AcDbLine
 62
7
  6
CONTINUOUS
 10
-4.0130903017
 20
-18.6
 11
-9.2
 21
-18.6
  0
LINE
  5
28F
100
AcDbEntity
  8
0
100
AcDbLine
 62
7
  6
CONTINUOUS
 10
2.5
 20
-18.3
 11
-2.5
 21
-18.3
  0
LINE
  5
290
100
AcDbEntity
  8
ASSI
100
AcDbLine
 62
7
  6
CONTINUOUS
 10
2.5
 20
-18.3
 11
-2.5
 21
-18.3
  0
LINE
  5
291
100
AcDbEntity
  8
RACCORDO
100
AcDbLine
 62
7
  6
CONTINUOUS
 10
-9.3912243901
 20
-18.2130903017
 11
-4.0130903017
 21
-18.2130903017
  0
LINE
  5
292
100
AcDbEntity
  8
ASSI
100
AcDbLine
 62
7
  6
CONTINUOUS
 10
-9.3912243901
 20
-18.2130903017
 11
-4.0130903017
 21
-18.2130903017
  0
LINE
  5
293
100
AcDbEntity
  8
ASSI
100
AcDbLine
 62
7
  6
CONTINUOUS
 10
-2.5
 20
-18.2
 11
2.5
 21
-18.2
  0
LINE
  5
294
100
AcDbEntity
  8
DRAFT
100
AcDbLine
 62
7
  6
CONTINUOUS
 10
-7.4
 20
-19.7
 11
-7.4366556363
 21
-19.6633443637
  0
LINE
  5
295
100
AcDbEntity
  8
DRAFT
100
AcDbLine
 62
7
  6
CONTINUOUS
 10
-7.1952775865
 20
-19.8047224135
 11
-7.2956365661
 21
-19.7043634339
  0
LINE
  5
296
100
AcDbEntity
  8
0
100
AcDbLine
 62
7
  6
CONTINUOUS
 10
-3.9530427099
 20
-23.4563578147
 11
-3.7426153494
 21
-23.6780399754
  0
LINE
  5
297
100
AcDbEntity
  8
0
100
AcDbLine
 62
7
  6
CONTINUOUS
 10
-3.7426153494
 20
-23.6780399754
 11
-3.6745396595
 21
-23.7505580627
  0
LINE
  5
298
100
AcDbEntity
  8
0
100
AcDbLine
 62
7
  6
CONTINUOUS
 10
-3.6745396595
 20
-23.7505580627
 11
-3.6311344897
 21
-23.7972846575
  0
LINE
  5
299
100
AcDbEntity
  8
0
100
AcDbLine
 62
7
  6
CONTINUOUS
 10
-3.6311344897
 20
-23.7972846575
 11
-3.6058507608
 21
-23.8248049937
  0
LINE
  5
29A
100
AcDbEntity
  8
0
100
AcDbLine
 62
7
  6
CONTINUOUS
 10
-3.6058507608
 20
-23.8248049937
 11
-3.5835374242
 21
-23.8493761243
  0
LWPOLYLINE
  5
29B
100
AcDbEntity
  8
0
100
AcDbPolyline
 62
7
  6
CONTINUOUS
 90
6
 70
0
 10
-3.5835374242
 20
-23.8493761243
 10
-3.5642370055
 20
-23.8709325511
 10
-3.5556682487
 20
-23.8806452238
 10
-3.5477965568
 20
-23.8896809346
 10
-3.5406078169
 20
-23.8980229841
 10
-3.5340842777
 20
-23.9056713724
  0
LWPOLYLINE
  5
29C
100
AcDbEntity
  8
0
100
AcDbPolyline
 62
7
  6
CONTINUOUS
 90
18
 70
0
 10
-10.1320926258
 20
-24.3429184493
 10
-10.1274087722
 20
-24.3538564463
 10
-10.1222097688
 20
-24.3645591876
 10
-10.1165073916
 20
-24.3750024283
 10
-10.1103145581
 20
-24.3851625059
 10
-10.1036452955
 20
-24.3950164051
 10
-10.0965147107
 20
-24.4045418038
 10
-10.0889389589
 20
-24.4137171191
 10
-10.0809352005
 20
-24.4225215661
 10
-10.0725215661
 20
-24.4309352005
 10
-10.0637171191
 20
-24.4389389589
 10
-10.0545418038
 20
-24.4465147107
 10
-10.0450164051
 20
-24.4536452955
 10
-10.0351625059
 20
-24.4603145581
 10
-10.0250024283
 20
-24.4665073916
 10
-10.0145591876
 20
-24.4722097688
 10
-10.0038564463
 20
-24.4774087722
 10
-9.9929184493
 20
-24.4820926258
  0
LWPOLYLINE
  5
29D
100
AcDbEntity
  8
RACCORDO
100
AcDbPolyline
 62
253
  6
CONTINUOUS
 90
3
 70
0
 10
-1.8027519366
 20
-17.2979015438
 10
-1.7521424653
 20
-17.285755926
 10
-1.7
 20
-17.2816718427
  0
LINE
  5
29E
100
AcDbEntity
  8
ASSI
100
AcDbLine
 62
7
  6
CONTINUOUS
 10
-2.5
 20
-17.5
 11
2.5
 21
-17.5
  0
LINE
  5
29F
100
AcDbEntity
  8
RACCORDO
100
AcDbLine
 62
7
  6
CONTINUOUS
 10
1.6825778872
 20
-17.3
 11
-1.6825778872
 21
-17.3
  0
LINE
  5
2A0
100
AcDbEntity
  8
ASSI
100
AcDbLine
 62
7
  6
CONTINUOUS
 10
1.6825778872
 20
-17.3
 11
-1.6825778872
 21
-17.3
  0
LINE
  5
2A1
100
AcDbEntity
  8
RACCORDO
100
AcDbLine
 62
253
  6
CONTINUOUS
 10
-1.7
 20
-17.2816718427
 11
1.7
 21
-17.2816718427
  0
LINE
  5
2A2
100
AcDbEntity
  8
RACCORDO
100
AcDbLine
 62
7
  6
CONTINUOUS
 10
-1.7
 20
-17.25
 11
1.7
 21
-17.25
  0
LINE
  5
2A3
100
AcDbEntity
  8
0
100
AcDbLine
 62
7
  6
CONTINUOUS
 10
2.5
 20
-17.05
 11
-2.5
 21
-17.05
  0
LINE
  5
2A4
100
AcDbEntity
  8
0
100
AcDbLine
 62
7
  6
CONTINUOUS
 10
-2.5
 20
-16.6
 11
2.5
 21
-16.6
  0
LINE
  5
2A5
100
AcDbEntity
  8
ASSI
100
AcDbLine
 62
7
  6
CONTINUOUS
 10
-2.5
 20
-16.6
 11
2.5
 21
-16.6
  0
LINE
  5
2A6
100
AcDbEntity
  8
RACCORDO
100
AcDbLine
 62
253
  6
CONTINUOUS
 10
1.7
 20
-17.2816718427
 11
1.7520944533
 21
-17.2857483503
  0
LINE
  5
2A7
100
AcDbEntity
  8
RACCORDO
100
AcDbLine
 62
253
  6
CONTINUOUS
 10
1.7520944533
 20
-17.2857483503
 11
1.802606043
 21
-17.2978540106
  0
LINE
  5
2A8
100
AcDbEntity
  8
CURVE
100
AcDbLine
 62
253
  6
CONTINUOUS
 10
-8.0
 20
-15.3428574085
 11
-6.7
 21
-15.3428574085
  0
LINE
  5
2A9
100
AcDbEntity
  8
CURVE
100
AcDbLine
 62
253
  6
CONTINUOUS
 10
-4.0
 20
-15.0642858028
 11
-2.7
 21
-15.0642858028
  0
LINE
  5
2AA
100
AcDbEntity
  8
CURVE
100
AcDbLine
 62
253
  6
CONTINUOUS
 10
-8.0
 20
-14.6
 11
-6.7
 21
-14.6
  0
LINE
  5
2AB
100
AcDbEntity
  8
CURVE
100
AcDbLine
 62
253
  6
CONTINUOUS
 10
-2.7
 20
-14.2285716057
 11
-4.0
 21
-14.2285716057
  0
LWPOLYLINE
  5
2AC
100
AcDbEntity
  8
RACCORDO
100
AcDbPolyline
 62
253
  6
CONTINUOUS
 90
3
 70
0
 10
1.802606043
 20
-17.2978540106
 10
1.85
 20
-17.3176209992
 10
1.8928362829
 20
-17.3444487062
  0
LWPOLYLINE
  5
2AD
100
AcDbEntity
  8
RACCORDO
100
AcDbPolyline
 62
253
  6
CONTINUOUS
 90
4
 70
0
 10
-10.6585359545
 20
11.85
 10
-10.6570164708
 20
11.8553504461
 10
-10.655521434
 20
11.8713400553
 10
-10.6540508441
 20
11.8978371398
  0
LWPOLYLINE
  5
2AE
100
AcDbEntity
  8
ASSI
100
AcDbPolyline
 62
253
  6
CONTINUOUS
 90
4
 70
0
 10
-10.6585359545
 20
11.85
 10
-10.6570164708
 20
11.8553504461
 10
-10.655521434
 20
11.8713400553
 10
-10.6540508441
 20
11.8978371398
  0
LINE
  5
2AF
100
AcDbEntity
  8
0
100
AcDbLine
 62
7
  6
CONTINUOUS
 10
4.3372436276
 20
23.865756098
 11
4.3179209671
 21
23.8442547312
  0
LINE
  5
2B0
100
AcDbEntity
  8
0
100
AcDbLine
 62
7
  6
CONTINUOUS
 10
4.3179209671
 20
23.8442547312
 11
4.2957724793
 21
23.8199314713
  0
LINE
  5
2B1
100
AcDbEntity
  8
0
100
AcDbLine
 62
7
  6
CONTINUOUS
 10
4.2957724793
 20
23.8199314713
 11
4.2706965286
 21
23.7926780164
  0
LINE
  5
2B2
100
AcDbEntity
  8
0
100
AcDbLine
 62
7
  6
CONTINUOUS
 10
4.2706965286
 20
23.7926780164
 11
4.2274965588
 21
23.746217597
  0
LINE
  5
2B3
100
AcDbEntity
  8
0
100
AcDbLine
 62
7
  6
CONTINUOUS
 10
4.2274965588
 20
23.746217597
 11
4.1597626973
 21
23.6741067328
  0
LINE
  5
2B4
100
AcDbEntity
  8
0
100
AcDbLine
 62
7
  6
CONTINUOUS
 10
4.1597626973
 20
23.6741067328
 11
4.0819562481
 21
23.591921681
  0
LWPOLYLINE
  5
2B5
100
AcDbEntity
  8
0
100
AcDbPolyline
 62
7
  6
CONTINUOUS
 90
3
 70
0
 10
4.0819562481
 20
23.591921681
 10
3.9969529128
 20
23.5025552705
 10
3.9530427099
 20
23.4563578147
  0
LINE
  5
2B6
100
AcDbEntity
  8
0
100
AcDbLine
 62
7
  6
CONTINUOUS
 10
4.4063493531
 20
23.9563493531
 11
4.45
 21
24.0
  0
LINE
  5
2B7
100
AcDbEntity
  8
0
100
AcDbLine
 62
7
  6
CONTINUOUS
 10
4.45
 20
22.4
 11
4.406077753
 21
22.356077753
  0
LINE
  5
2B8
100
AcDbEntity
  8
0
100
AcDbLine
 62
253
  6
CONTINUOUS
 10
10.6500063461
 20
22.4
 11
10.6412794783
 21
22.3941821702
  0
LWPOLYLINE
  5
2B9
100
AcDbEntity
  8
RACCORDO
100
AcDbPolyline
 62
253
  6
CONTINUOUS
 90
4
 70
0
 10
1.8933221907
 20
17.3448141709
 10
1.8502766567
 20
17.3177640399
 10
1.8027519366
 20
17.2979015438
 10
1.7521424653
 20
17.285755926
  0
LINE
  5
2BA
100
AcDbEntity
  8
RACCORDO
100
AcDbLine
 62
253
  6
CONTINUOUS
 10
10.5643027805
 20
19.0856972195
 11
10.442117326
 21
19.0350863471
  0
LINE
  5
2BB
100
AcDbEntity
  8
CURVE
100
AcDbLine
 62
253
  6
CONTINUOUS
 10
-8.0
 20
-12.2785716057
 11
-6.7
 21
-12.5571425915
  0
LINE
  5
2BC
100
AcDbEntity
  8
CURVE
100
AcDbLine
 62
253
  6
CONTINUOUS
 10
-4.0
 20
-12.2785716057
 11
-2.7
 21
-12.5571425915
  0
LINE
  5
2BD
100
AcDbEntity
  8
CURVE
100
AcDbLine
 62
253
  6
CONTINUOUS
 10
-8.0
 20
-11.7214283943
 11
-7.0714285493
 21
-12.0
  0
LINE
  5
2BE
100
AcDbEntity
  8
CURVE
100
AcDbLine
 62
253
  6
CONTINUOUS
 10
-4.0
 20
-11.7214283943
 11
-3.0714285493
 21
-12.0
  0
LINE
  5
2BF
100
AcDbEntity
  8
RACCORDO
100
AcDbLine
 62
253
  6
CONTINUOUS
 10
10.442117326
 20
-19.0350863471
 11
10.5643027805
 21
-19.0856972195
  0
LINE
  5
2C0
100
AcDbEntity
  8
CURVE
100
AcDbLine
 62
253
  6
CONTINUOUS
 10
-7.628571412
 20
-11.0714283943
 11
-7.814285706
 21
-10.9785716057
  0
LINE
  5
2C1
100
AcDbEntity
  8
CURVE
100
AcDbLine
 62
253
  6
CONTINUOUS
 10
-7.0714285493
 20
-10.4214287043
 11
-6.8857142746
 21
-10.5142858028
  0
LINE
  5
2C2
100
AcDbEntity
  8
CURVE
100
AcDbLine
 62
253
  6
CONTINUOUS
 10
-7.628571412
 20
-10.05
 11
-7.814285706
 21
-9.9571429014
  0
LINE
  5
2C3
100
AcDbEntity
  8
0
100
AcDbLine
 62
253
  6
CONTINUOUS
 10
10.6412794783
 20
-22.3941821702
 11
10.6500063461
 21
-22.4
  0
LINE
  5
2C4
100
AcDbEntity
  8
0
100
AcDbLine
 62
7
  6
CONTINUOUS
 10
4.45
 20
-24.0
 11
4.4063493531
 21
-23.9563493531
  0
LINE
  5
2C5
100
AcDbEntity
  8
CURVE
100
AcDbLine
 62
253
  6
CONTINUOUS
 10
-7.814285706
 20
-10.9785716057
 11
-8.0
 21
-10.7928574085
  0
LINE
  5
2C6
100
AcDbEntity
  8
0
100
AcDbLine
 62
7
  6
CONTINUOUS
 10
4.45
 20
-22.4
 11
4.406077753
 21
-22.356077753
  0
LINE
  5
2C7
100
AcDbEntity
  8
CURVE
100
AcDbLine
 62
253
  6
CONTINUOUS
 10
-7.814285706
 20
-9.9571429014
 11
-8.0
 21
-9.7714287043
  0
LINE
  5
2C8
100
AcDbEntity
  8
0
100
AcDbLine
 62
7
  6
CONTINUOUS
 10
3.9530427099
 20
-23.4563578147
 11
4.1598398308
 21
-23.6741880891
  0
LINE
  5
2C9
100
AcDbEntity
  8
0
100
AcDbLine
 62
7
  6
CONTINUOUS
 10
4.1598398308
 20
-23.6741880891
 11
4.2276161524
 21
-23.7463456692
  0
LINE
  5
2CA
100
AcDbEntity
  8
0
100
AcDbLine
 62
7
  6
CONTINUOUS
 10
4.2276161524
 20
-23.7463456692
 11
4.2708125871
 21
-23.7928036324
  0
LINE
  5
2CB
100
AcDbEntity
  8
0
100
AcDbLine
 62
7
  6
CONTINUOUS
 10
4.2708125871
 20
-23.7928036324
 11
4.2958825819
 21
-23.8200519157
  0
LINE
  5
2CC
100
AcDbEntity
  8
0
100
AcDbLine
 62
7
  6
CONTINUOUS
 10
4.2958825819
 20
-23.8200519157
 11
4.3180262543
 21
-23.8443710927
  0
LWPOLYLINE
  5
2CD
100
AcDbEntity
  8
0
100
AcDbPolyline
 62
7
  6
CONTINUOUS
 90
18
 70
0
 10
4.3180262543
 20
-23.8443710927
 10
4.3373545384
 20
-23.8658802923
 10
4.3460017322
 20
-23.8756314726
 10
4.3539855775
 20
-23.8847241713
 10
4.3613249818
 20
-23.89316388
 10
4.3680560579
 20
-23.9010149424
 10
4.374185929
 20
-23.908278441
 10
4.3797298268
 20
-23.9149532933
 10
4.3847244888
 20
-23.9211005962
 10
4.3891783161
 20
-23.9267301175
 10
4.3930934804
 20
-23.9318320894
 10
4.3964861493
 20
-23.9364383061
 10
4.3993608958
 20
-23.9405532939
 10
4.4017189632
 20
-23.9441725265
 10
4.4035662906
 20
-23.9473142192
 10
4.4049063765
 20
-23.9499844437
 10
4.4057421188
 20
-23.9521771283
 10
4.406077753
 20
-23.9538922731
  0
LWPOLYLINE
  5
2CE
100
AcDbEntity
  8
0
100
AcDbPolyline
 62
7
  6
CONTINUOUS
 90
6
 70
0
 10
-10.1474554741
 20
-24.2855823661
 10
-10.1454823677
 20
-24.2973162875
 10
-10.1429531817
 20
-24.3089430388
 10
-10.1398736417
 20
-24.320436279
 10
-10.1362507213
 20
-24.3317699738
 10
-10.1320926258
 20
-24.3429184493
  0
LWPOLYLINE
  5
2CF
100
AcDbEntity
  8
0
100
AcDbPolyline
 62
7
  6
CONTINUOUS
 90
4
 70
0
 10
-10.15
 20
-24.2500042308
 10
-10.1497168498
 20
-24.261899516
 10
-10.1488680342
 20
-24.2737678556
 10
-10.1474554741
 20
-24.2855823661
  0
LWPOLYLINE
  5
2D0
100
AcDbEntity
  8
0
100
AcDbPolyline
 62
7
  6
CONTINUOUS
 90
34
 70
0
 10
-10.145628166
 20
-24.2456323968
 10
-10.1453445371
 20
-24.2575290557
 10
-10.144495097
 20
-24.269398774
 10
-10.1430817682
 20
-24.2812146563
 10
-10.1411077496
 20
-24.292949936
 10
-10.1385775126
 20
-24.3045780153
 10
-10.135496794
 20
-24.3160725264
 10
-10.1318725768
 20
-24.3274074189
 10
-10.1277130725
 20
-24.3385570152
 10
-10.1230277082
 20
-24.3494960488
 10
-10.1178271006
 20
-24.3601997352
 10
-10.1121230353
 20
-24.3706438204
 10
-10.105928443
 20
-24.3808046326
 10
-10.0992573629
 20
-24.3906591487
 10
-10.0921249119
 20
-24.4001850429
 10
-10.0845472554
 20
-24.4093607299
 10
-10.0765415612
 20
-24.4181654255
 10
-10.068125975
 20
-24.4265791771
 10
-10.0593195834
 20
-24.4345829086
 10
-10.0501423702
 20
-24.4421584695
 10
-10.0406151087
 20
-24.4492887229
 10
-10.030759324
 20
-24.4559575601
 10
-10.0205972484
 20
-24.4621499225
 10
-10.0101519949
 20
-24.467851711
 10
-9.9994474601
 20
-24.4730498963
 10
-9.988508059
 20
-24.4777326699
 10
-9.977358447
 20
-24.4818895243
 10
-9.9660236819
 20
-24.4855111341
 10
-9.9545277163
 20
-24.4885897127
 10
-9.942898281
 20
-24.4911177026
 10
-9.9311667864
 20
-24.4930886486
 10
-9.9193616109
 20
-24.4944986445
 10
-9.9075078683
 20
-24.4953455463
 10
-9.8956323968
 20
-24.495628166
  0
LWPOLYLINE
  5
2D1
100
AcDbEntity
  8
0
100
AcDbPolyline
 62
7
  6
CONTINUOUS
 90
40
 70
0
 10
-11.15
 20
-21.8997711479
 10
-11.1496011542
 20
-21.9198999433
 10
-11.1483943263
 20
-21.9399911946
 10
-11.1463815669
 20
-21.9600125729
 10
-11.1435665894
 20
-21.9799279069
 10
-11.1399539427
 20
-21.9997091412
 10
-11.1355476462
 20
-22.0193361401
 10
-11.1303534229
 20
-22.0387786561
 10
-11.1243787294
 20
-22.0580033578
 10
-11.1176301844
 20
-22.0769853683
 10
-11.1101125158
 20
-22.0957039561
 10
-11.101839741
 20
-22.1141170912
 10
-11.0928367141
 20
-22.1321695942
 10
-11.0831284461
 20
-22.149817212
 10
-11.0727242114
 20
-22.1670483607
 10
-11.0616273089
 20
-22.1838576898
 10
-11.0498430866
 20
-22.2002320605
 10
-11.0373993445
 20
-22.2161280105
 10
-11.0243349531
 20
-22.2314962575
 10
-11.0106868398
 20
-22.2462983041
 10
-10.9964655797
 20
-22.2605273631
 10
-10.9816720103
 20
-22.2741827498
 10
-10.9663134846
 20
-22.2872535323
 10
-10.95042807
 20
-22.299703298
 10
-10.9340635554
 20
-22.3114944468
 10
-10.9172627083
 20
-22.3225993795
 10
-10.9000391799
 20
-22.3330121997
 10
-10.8823985142
 20
-22.342729553
 10
-10.8643512692
 20
-22.351742425
 10
-10.8459426326
 20
-22.3600251252
 10
-10.8272311009
 20
-22.367551676
 10
-10.8082617596
 20
-22.3743071586
 10
-10.7890526441
 20
-22.3802883352
 10
-10.7696232292
 20
-22.3854906619
 10
-10.749993711
 20
-22.3899085853
 10
-10.7302071767
 20
-22.393532297
 10
-10.7103178672
 20
-22.3963539679
 10
-10.6903657436
 20
-22.3983717072
 10
-10.6703758992
 20
-22.3995866261
 10
-10.6503805997
 20
-22.4
  0
LINE
  5
2D2
100
AcDbEntity
  8
ASSI
100
AcDbLine
 62
7
  6
CONTINUOUS
 10
-10.9505007266
 20
1.2671375469
 11
-10.9491010867
 21
1.1960432517
  0
LINE
  5
2D3
100
AcDbEntity
  8
ASSI
100
AcDbLine
 62
7
  6
CONTINUOUS
 10
-10.9505007266
 20
6.2671375469
 11
-10.9491010867
 21
6.1960432517
  0
LINE
  5
2D4
100
AcDbEntity
  8
ASSI
100
AcDbLine
 62
7
  6
CONTINUOUS
 10
-10.9505007266
 20
11.2671375469
 11
-10.9491010867
 21
11.1960432517
  0
LINE
  5
2D5
100
AcDbEntity
  8
ASSI
100
AcDbLine
 62
7
  6
CONTINUOUS
 10
-10.9505007266
 20
16.2671375469
 11
-10.9491010867
 21
16.1960432517
  0
LINE
  5
2D6
100
AcDbEntity
  8
RACCORDO
100
AcDbLine
 62
7
  6
CONTINUOUS
 10
-10.9505012062
 20
1.2671381382
 11
-10.9488741344
 21
1.1831787817
  0
LINE
  5
2D7
100
AcDbEntity
  8
RACCORDO
100
AcDbLine
 62
7
  6
CONTINUOUS
 10
-10.9505012062
 20
6.2671381382
 11
-10.9488741344
 21
6.1831787817
  0
LINE
  5
2D8
100
AcDbEntity
  8
RACCORDO
100
AcDbLine
 62
7
  6
CONTINUOUS
 10
-10.9505012062
 20
11.2671381382
 11
-10.9488741344
 21
11.1831787817
  0
LINE
  5
2D9
100
AcDbEntity
  8
RACCORDO
100
AcDbLine
 62
7
  6
CONTINUOUS
 10
-10.9505012062
 20
16.2671381382
 11
-10.9488741344
 21
16.1831787817
  0
LINE
  5
2DA
100
AcDbEntity
  8
ASSI
100
AcDbLine
 62
7
  6
CONTINUOUS
 10
-10.9491010867
 20
1.1960432517
 11
-10.9474742789
 21
1.0946800749
  0
LINE
  5
2DB
100
AcDbEntity
  8
ASSI
100
AcDbLine
 62
7
  6
CONTINUOUS
 10
-10.9491010867
 20
6.1960432517
 11
-10.9474742789
 21
6.0946800749
  0
LINE
  5
2DC
100
AcDbEntity
  8
ASSI
100
AcDbLine
 62
7
  6
CONTINUOUS
 10
-10.9491010867
 20
11.1960432517
 11
-10.9474742789
 21
11.0946800749
  0
LINE
  5
2DD
100
AcDbEntity
  8
ASSI
100
AcDbLine
 62
7
  6
CONTINUOUS
 10
-10.9491010867
 20
16.1960432517
 11
-10.9474742789
 21
16.0946800749
  0
LWPOLYLINE
  5
2DE
100
AcDbEntity
  8
RACCORDO
100
AcDbPolyline
 62
253
  6
CONTINUOUS
 90
10
 70
0
 10
-10.6459190192
 20
0.7357507149
 10
-10.6471505549
 20
0.8199155765
 10
-10.6484443494
 20
0.8953097947
 10
-10.6497828725
 20
0.9615713764
 10
-10.6511670325
 20
1.0183402648
 10
-10.6525959211
 20
1.0652838999
 10
-10.6540492831
 20
1.1021293927
 10
-10.6555203668
 20
1.1286449494
 10
-10.6570159239
 20
1.1446457809
 10
-10.6585359545
 20
1.15
  0
LWPOLYLINE
  5
2DF
100
AcDbEntity
  8
ASSI
100
AcDbPolyline
 62
253
  6
CONTINUOUS
 90
10
 70
0
 10
-10.6459190192
 20
0.7357507149
 10
-10.6471505549
 20
0.8199155765
 10
-10.6484443494
 20
0.8953097947
 10
-10.6497828725
 20
0.9615713764
 10
-10.6511670325
 20
1.0183402648
 10
-10.6525959211
 20
1.0652838999
 10
-10.6540492831
 20
1.1021293927
 10
-10.6555203668
 20
1.1286449494
 10
-10.6570159239
 20
1.1446457809
 10
-10.6585359545
 20
1.15
  0
LWPOLYLINE
  5
2E0
100
AcDbEntity
  8
RACCORDO
100
AcDbPolyline
 62
253
  6
CONTINUOUS
 90
10
 70
0
 10
-10.6459190192
 20
5.7357507149
 10
-10.6471505549
 20
5.8199155765
 10
-10.6484443494
 20
5.8953097947
 10
-10.6497828725
 20
5.9615713764
 10
-10.6511670325
 20
6.0183402648
 10
-10.6525959211
 20
6.0652838999
 10
-10.6540492831
 20
6.1021293927
 10
-10.6555203668
 20
6.1286449494
 10
-10.6570159239
 20
6.1446457809
 10
-10.6585359545
 20
6.15
  0
LWPOLYLINE
  5
2E1
100
AcDbEntity
  8
ASSI
100
AcDbPolyline
 62
253
  6
CONTINUOUS
 90
10
 70
0
 10
-10.6459190192
 20
5.7357507149
 10
-10.6471505549
 20
5.8199155765
 10
-10.6484443494
 20
5.8953097947
 10
-10.6497828725
 20
5.9615713764
 10
-10.6511670325
 20
6.0183402648
 10
-10.6525959211
 20
6.0652838999
 10
-10.6540492831
 20
6.1021293927
 10
-10.6555203668
 20
6.1286449494
 10
-10.6570159239
 20
6.1446457809
 10
-10.6585359545
 20
6.15
  0
LINE
  5
2E2
100
AcDbEntity
  8
RACCORDO
100
AcDbLine
 62
7
  6
CONTINUOUS
 10
-10.9488741344
 20
1.1831787817
 11
-10.9473053453
 21
1.0828725919
  0
LINE
  5
2E3
100
AcDbEntity
  8
RACCORDO
100
AcDbLine
 62
7
  6
CONTINUOUS
 10
-10.9488741344
 20
6.1831787817
 11
-10.9473053453
 21
6.0828725919
  0
LINE
  5
2E4
100
AcDbEntity
  8
RACCORDO
100
AcDbLine
 62
7
  6
CONTINUOUS
 10
-10.9488741344
 20
11.1831787817
 11
-10.9473053453
 21
11.0828725919
  0
LINE
  5
2E5
100
AcDbEntity
  8
RACCORDO
100
AcDbLine
 62
7
  6
CONTINUOUS
 10
-10.9488741344
 20
16.1831787817
 11
-10.9473053453
 21
16.0828725919
  0
LINE
  5
2E6
100
AcDbEntity
  8
ASSI
100
AcDbLine
 62
7
  6
CONTINUOUS
 10
-10.9474742789
 20
1.0946800749
 11
-10.9458695659
 21
0.9720278507
  0
LINE
  5
2E7
100
AcDbEntity
  8
ASSI
100
AcDbLine
 62
7
  6
CONTINUOUS
 10
-10.9474742789
 20
6.0946800749
 11
-10.9458695659
 21
5.9720278507
  0
LINE
  5
2E8
100
AcDbEntity
  8
ASSI
100
AcDbLine
 62
7
  6
CONTINUOUS
 10
-10.9474742789
 20
11.0946800749
 11
-10.9458695659
 21
10.9720278507
  0
LINE
  5
2E9
100
AcDbEntity
  8
ASSI
100
AcDbLine
 62
7
  6
CONTINUOUS
 10
-10.9474742789
 20
16.0946800749
 11
-10.9458695659
 21
15.9720278507
  0
LINE
  5
2EA
100
AcDbEntity
  8
RACCORDO
100
AcDbLine
 62
7
  6
CONTINUOUS
 10
-10.9473053453
 20
1.0828725919
 11
-10.9455431852
 21
0.9440986159
  0
LINE
  5
2EB
100
AcDbEntity
  8
RACCORDO
100
AcDbLine
 62
7
  6
CONTINUOUS
 10
-10.9473053453
 20
6.0828725919
 11
-10.9455431852
 21
5.9440986159
  0
LINE
  5
2EC
100
AcDbEntity
  8
RACCORDO
100
AcDbLine
 62
7
  6
CONTINUOUS
 10
-10.9473053453
 20
11.0828725919
 11
-10.9455431852
 21
10.9440986159
  0
LINE
  5
2ED
100
AcDbEntity
  8
RACCORDO
100
AcDbLine
 62
7
  6
CONTINUOUS
 10
-10.9473053453
 20
16.0828725919
 11
-10.9455431852
 21
15.9440986159
  0
LINE
  5
2EE
100
AcDbEntity
  8
RACCORDO
100
AcDbLine
 62
253
  6
CONTINUOUS
 10
-10.6436445193
 20
0.5428954306
 11
-10.6459190192
 21
0.7357507149
  0
LINE
  5
2EF
100
AcDbEntity
  8
ASSI
100
AcDbLine
 62
253
  6
CONTINUOUS
 10
-10.6436445193
 20
0.5428954306
 11
-10.6459190192
 21
0.7357507149
  0
LINE
  5
2F0
100
AcDbEntity
  8
RACCORDO
100
AcDbLine
 62
253
  6
CONTINUOUS
 10
-10.6436445193
 20
5.5428954306
 11
-10.6459190192
 21
5.7357507149
  0
LINE
  5
2F1
100
AcDbEntity
  8
ASSI
100
AcDbLine
 62
253
  6
CONTINUOUS
 10
-10.6436445193
 20
5.5428954306
 11
-10.6459190192
 21
5.7357507149
  0
LINE
  5
2F2
100
AcDbEntity
  8
ASSI
100
AcDbLine
 62
7
  6
CONTINUOUS
 10
-10.9458695659
 20
0.9720278507
 11
-10.9443133873
 21
0.828137898
  0
LINE
  5
2F3
100
AcDbEntity
  8
ASSI
100
AcDbLine
 62
7
  6
CONTINUOUS
 10
-10.9458695659
 20
5.9720278507
 11
-10.9443133873
 21
5.828137898
  0
LINE
  5
2F4
100
AcDbEntity
  8
ASSI
100
AcDbLine
 62
7
  6
CONTINUOUS
 10
-10.9458695659
 20
10.9720278507
 11
-10.9443133873
 21
10.828137898
  0
LINE
  5
2F5
100
AcDbEntity
  8
ASSI
100
AcDbLine
 62
7
  6
CONTINUOUS
 10
-10.9458695659
 20
15.9720278507
 11
-10.9443133873
 21
15.828137898
  0
LINE
  5
2F6
100
AcDbEntity
  8
RACCORDO
100
AcDbLine
 62
253
  6
CONTINUOUS
 10
-10.6426154941
 20
10.435113392
 11
-10.6447506399
 21
10.6432538384
  0
LINE
  5
2F7
100
AcDbEntity
  8
ASSI
100
AcDbLine
 62
253
  6
CONTINUOUS
 10
-10.6426154941
 20
10.435113392
 11
-10.6447506399
 21
10.6432538384
  0
LINE
  5
2F8
100
AcDbEntity
  8
RACCORDO
100
AcDbLine
 62
7
  6
CONTINUOUS
 10
-10.9455431852
 20
0.9440986159
 11
-10.943852135
 21
0.779685549
  0
LINE
  5
2F9
100
AcDbEntity
  8
RACCORDO
100
AcDbLine
 62
7
  6
CONTINUOUS
 10
-10.9455431852
 20
5.9440986159
 11
-10.943852135
 21
5.779685549
  0
LINE
  5
2FA
100
AcDbEntity
  8
RACCORDO
100
AcDbLine
 62
7
  6
CONTINUOUS
 10
-10.9455431852
 20
10.9440986159
 11
-10.943852135
 21
10.779685549
  0
LINE
  5
2FB
100
AcDbEntity
  8
RACCORDO
100
AcDbLine
 62
7
  6
CONTINUOUS
 10
-10.9455431852
 20
15.9440986159
 11
-10.943852135
 21
15.779685549
  0
LINE
  5
2FC
100
AcDbEntity
  8
RACCORDO
100
AcDbLine
 62
253
  6
CONTINUOUS
 10
-10.6416645212
 20
0.3204393538
 11
-10.6436445193
 21
0.5428954306
  0
LINE
  5
2FD
100
AcDbEntity
  8
ASSI
100
AcDbLine
 62
253
  6
CONTINUOUS
 10
-10.6416645212
 20
0.3204393538
 11
-10.6436445193
 21
0.5428954306
  0
LINE
  5
2FE
100
AcDbEntity
  8
RACCORDO
100
AcDbLine
 62
253
  6
CONTINUOUS
 10
-10.6416645212
 20
5.3204393538
 11
-10.6436445193
 21
5.5428954306
  0
LINE
  5
2FF
100
AcDbEntity
  8
ASSI
100
AcDbLine
 62
253
  6
CONTINUOUS
 10
-10.6416645212
 20
5.3204393538
 11
-10.6436445193
 21
5.5428954306
  0
LINE
  5
300
100
AcDbEntity
  8
ASSI
100
AcDbLine
 62
7
  6
CONTINUOUS
 10
-10.9443133873
 20
0.828137898
 11
-10.9426439115
 21
0.6378256371
  0
LINE
  5
301
100
AcDbEntity
  8
ASSI
100
AcDbLine
 62
7
  6
CONTINUOUS
 10
-10.9443133873
 20
5.828137898
 11
-10.9426439115
 21
5.6378256371
  0
LINE
  5
302
100
AcDbEntity
  8
ASSI
100
AcDbLine
 62
7
  6
CONTINUOUS
 10
-10.9443133873
 20
10.828137898
 11
-10.9426439115
 21
10.6378256371
  0
LINE
  5
303
100
AcDbEntity
  8
ASSI
100
AcDbLine
 62
7
  6
CONTINUOUS
 10
-10.9443133873
 20
15.828137898
 11
-10.9426439115
 21
15.6378256371
  0
LINE
  5
304
100
AcDbEntity
  8
RACCORDO
100
AcDbLine
 62
7
  6
CONTINUOUS
 10
-10.943852135
 20
0.779685549
 11
-10.9422748032
 21
0.5897639268
  0
LINE
  5
305
100
AcDbEntity
  8
RACCORDO
100
AcDbLine
 62
7
  6
CONTINUOUS
 10
-10.943852135
 20
5.779685549
 11
-10.9422748032
 21
5.5897639268
  0
LINE
  5
306
100
AcDbEntity
  8
RACCORDO
100
AcDbLine
 62
7
  6
CONTINUOUS
 10
-10.943852135
 20
10.779685549
 11
-10.9422748032
 21
10.5897639268
  0
LINE
  5
307
100
AcDbEntity
  8
RACCORDO
100
AcDbLine
 62
7
  6
CONTINUOUS
 10
-10.943852135
 20
15.779685549
 11
-10.9422748032
 21
15.5897639268
  0
LINE
  5
308
100
AcDbEntity
  8
RACCORDO
100
AcDbLine
 62
253
  6
CONTINUOUS
 10
-10.6407906437
 20
10.1994327256
 11
-10.6426154941
 21
10.435113392
  0
LINE
  5
309
100
AcDbEntity
  8
ASSI
100
AcDbLine
 62
253
  6
CONTINUOUS
 10
-10.6407906437
 20
10.1994327256
 11
-10.6426154941
 21
10.435113392
  0
LINE
  5
30A
100
AcDbEntity
  8
ASSI
100
AcDbLine
 62
7
  6
CONTINUOUS
 10
-10.9426439115
 20
0.6378256371
 11
-10.94111911
 21
0.4206222492
  0
LINE
  5
30B
100
AcDbEntity
  8
ASSI
100
AcDbLine
 62
7
  6
CONTINUOUS
 10
-10.9426439115
 20
5.6378256371
 11
-10.94111911
 21
5.4206222492
  0
LINE
  5
30C
100
AcDbEntity
  8
ASSI
100
AcDbLine
 62
7
  6
CONTINUOUS
 10
-10.9426439115
 20
10.6378256371
 11
-10.94111911
 21
10.4206222492
  0
LINE
  5
30D
100
AcDbEntity
  8
ASSI
100
AcDbLine
 62
7
  6
CONTINUOUS
 10
-10.9426439115
 20
15.6378256371
 11
-10.94111911
 21
15.4206222492
  0
LINE
  5
30E
100
AcDbEntity
  8
RACCORDO
100
AcDbLine
 62
253
  6
CONTINUOUS
 10
-10.640005827
 20
0.0725938599
 11
-10.6416645212
 21
0.3204393538
  0
LINE
  5
30F
100
AcDbEntity
  8
ASSI
100
AcDbLine
 62
253
  6
CONTINUOUS
 10
-10.640005827
 20
0.0725938599
 11
-10.6416645212
 21
0.3204393538
  0
LINE
  5
310
100
AcDbEntity
  8
RACCORDO
100
AcDbLine
 62
253
  6
CONTINUOUS
 10
-10.640005827
 20
5.0725938599
 11
-10.6416645212
 21
5.3204393538
  0
LINE
  5
311
100
AcDbEntity
  8
ASSI
100
AcDbLine
 62
253
  6
CONTINUOUS
 10
-10.640005827
 20
5.0725938599
 11
-10.6416645212
 21
5.3204393538
  0
LINE
  5
312
100
AcDbEntity
  8
RACCORDO
100
AcDbLine
 62
253
  6
CONTINUOUS
 10
-10.640005827
 20
15.0725938599
 11
-10.6416645212
 21
15.3204393538
  0
LINE
  5
313
100
AcDbEntity
  8
ASSI
100
AcDbLine
 62
253
  6
CONTINUOUS
 10
-10.640005827
 20
15.0725938599
 11
-10.6416645212
 21
15.3204393538
  0
LINE
  5
314
100
AcDbEntity
  8
RACCORDO
100
AcDbLine
 62
7
  6
CONTINUOUS
 10
-10.9422748032
 20
0.5897639268
 11
-10.9408429026
 21
0.3750454914
  0
LINE
  5
315
100
AcDbEntity
  8
RACCORDO
100
AcDbLine
 62
7
  6
CONTINUOUS
 10
-10.9422748032
 20
5.5897639268
 11
-10.9408429026
 21
5.3750454914
  0
LINE
  5
316
100
AcDbEntity
  8
RACCORDO
100
AcDbLine
 62
7
  6
CONTINUOUS
 10
-10.9422748032
 20
10.5897639268
 11
-10.9408429026
 21
10.3750454914
  0
LINE
  5
317
100
AcDbEntity
  8
RACCORDO
100
AcDbLine
 62
7
  6
CONTINUOUS
 10
-10.9422748032
 20
15.5897639268
 11
-10.9408429026
 21
15.3750454914
  0
LINE
  5
318
100
AcDbEntity
  8
RACCORDO
100
AcDbLine
 62
253
  6
CONTINUOUS
 10
-10.6393110698
 20
9.9405054415
 11
-10.6407906437
 21
10.1994327256
  0
LINE
  5
319
100
AcDbEntity
  8
ASSI
100
AcDbLine
 62
253
  6
CONTINUOUS
 10
-10.6393110698
 20
9.9405054415
 11
-10.6407906437
 21
10.1994327256
  0
LINE
  5
31A
100
AcDbEntity
  8
ASSI
100
AcDbLine
 62
7
  6
CONTINUOUS
 10
-10.94111911
 20
0.4206222492
 11
-10.9397920586
 21
0.1780875587
  0
LINE
  5
31B
100
AcDbEntity
  8
ASSI
100
AcDbLine
 62
7
  6
CONTINUOUS
 10
-10.94111911
 20
5.4206222492
 11
-10.9397920586
 21
5.1780875587
  0
LINE
  5
31C
100
AcDbEntity
  8
ASSI
100
AcDbLine
 62
7
  6
CONTINUOUS
 10
-10.94111911
 20
10.4206222492
 11
-10.9397920586
 21
10.1780875587
  0
LINE
  5
31D
100
AcDbEntity
  8
ASSI
100
AcDbLine
 62
7
  6
CONTINUOUS
 10
-10.94111911
 20
15.4206222492
 11
-10.9397920586
 21
15.1780875587
  0
LINE
  5
31E
100
AcDbEntity
  8
RACCORDO
100
AcDbLine
 62
7
  6
CONTINUOUS
 10
-10.9408429026
 20
5.3750454914
 11
-10.9394566949
 21
5.105579406
  0
LINE
  5
31F
100
AcDbEntity
  8
RACCORDO
100
AcDbLine
 62
7
  6
CONTINUOUS
 10
-10.9408429026
 20
10.3750454914
 11
-10.9394566949
 21
10.105579406
  0
LINE
  5
320
100
AcDbEntity
  8
RACCORDO
100
AcDbLine
 62
7
  6
CONTINUOUS
 10
-10.9408429026
 20
15.3750454914
 11
-10.9394566949
 21
15.105579406
  0
LINE
  5
321
100
AcDbEntity
  8
RACCORDO
100
AcDbLine
 62
253
  6
CONTINUOUS
 10
-10.6387053736
 20
-0.1961757274
 11
-10.640005827
 21
0.0725938599
  0
LINE
  5
322
100
AcDbEntity
  8
ASSI
100
AcDbLine
 62
253
  6
CONTINUOUS
 10
-10.6387053736
 20
-0.1961757274
 11
-10.640005827
 21
0.0725938599
  0
LINE
  5
323
100
AcDbEntity
  8
RACCORDO
100
AcDbLine
 62
253
  6
CONTINUOUS
 10
-10.6387053736
 20
4.8038242726
 11
-10.640005827
 21
5.0725938599
  0
LINE
  5
324
100
AcDbEntity
  8
ASSI
100
AcDbLine
 62
253
  6
CONTINUOUS
 10
-10.6387053736
 20
4.8038242726
 11
-10.640005827
 21
5.0725938599
  0
LINE
  5
325
100
AcDbEntity
  8
RACCORDO
100
AcDbLine
 62
253
  6
CONTINUOUS
 10
-10.6387053736
 20
14.8038242726
 11
-10.640005827
 21
15.0725938599
  0
LINE
  5
326
100
AcDbEntity
  8
ASSI
100
AcDbLine
 62
253
  6
CONTINUOUS
 10
-10.6387053736
 20
14.8038242726
 11
-10.640005827
 21
15.0725938599
  0
LINE
  5
327
100
AcDbEntity
  8
ASSI
100
AcDbLine
 62
7
  6
CONTINUOUS
 10
-10.9397920586
 20
0.1780875587
 11
-10.9386931655
 21
-0.0874242649
  0
LINE
  5
328
100
AcDbEntity
  8
ASSI
100
AcDbLine
 62
7
  6
CONTINUOUS
 10
-10.9397920586
 20
5.1780875587
 11
-10.9386931655
 21
4.9125757351
  0
LINE
  5
329
100
AcDbEntity
  8
ASSI
100
AcDbLine
 62
7
  6
CONTINUOUS
 10
-10.9397920586
 20
10.1780875587
 11
-10.9386931655
 21
9.9125757351
  0
LINE
  5
32A
100
AcDbEntity
  8
ASSI
100
AcDbLine
 62
7
  6
CONTINUOUS
 10
-10.9397920586
 20
15.1780875587
 11
-10.9386931655
 21
14.9125757351
  0
LINE
  5
32B
100
AcDbEntity
  8
RACCORDO
100
AcDbLine
 62
253
  6
CONTINUOUS
 10
-10.6381977074
 20
9.6631864981
 11
-10.6393110698
 21
9.9405054415
  0
LINE
  5
32C
100
AcDbEntity
  8
ASSI
100
AcDbLine
 62
253
  6
CONTINUOUS
 10
-10.6381977074
 20
9.6631864981
 11
-10.6393110698
 21
9.9405054415
  0
LINE
  5
32D
100
AcDbEntity
  8
RACCORDO
100
AcDbLine
 62
7
  6
CONTINUOUS
 10
-10.9408429026
 20
0.3750454914
 11
-10.9384630496
 21
-0.1564035622
  0
LINE
  5
32E
100
AcDbEntity
  8
RACCORDO
100
AcDbLine
 62
7
  6
CONTINUOUS
 10
-10.9394566949
 20
5.105579406
 11
-10.9384630496
 21
4.8435964378
  0
LINE
  5
32F
100
AcDbEntity
  8
RACCORDO
100
AcDbLine
 62
7
  6
CONTINUOUS
 10
-10.9394566949
 20
10.105579406
 11
-10.9384630496
 21
9.8435964378
  0
LINE
  5
330
100
AcDbEntity
  8
RACCORDO
100
AcDbLine
 62
7
  6
CONTINUOUS
 10
-10.9394566949
 20
15.105579406
 11
-10.9384630496
 21
14.8435964378
  0
LINE
  5
331
100
AcDbEntity
  8
RACCORDO
100
AcDbLine
 62
253
  6
CONTINUOUS
 10
-10.6377894311
 20
-0.4807427344
 11
-10.6387053736
 21
-0.1961757274
  0
LINE
  5
332
100
AcDbEntity
  8
ASSI
100
AcDbLine
 62
253
  6
CONTINUOUS
 10
-10.6377894311
 20
-0.4807427344
 11
-10.6387053736
 21
-0.1961757274
  0
LINE
  5
333
100
AcDbEntity
  8
RACCORDO
100
AcDbLine
 62
253
  6
CONTINUOUS
 10
-10.6377894311
 20
4.5192572656
 11
-10.6387053736
 21
4.8038242726
  0
LINE
  5
334
100
AcDbEntity
  8
ASSI
100
AcDbLine
 62
253
  6
CONTINUOUS
 10
-10.6377894311
 20
4.5192572656
 11
-10.6387053736
 21
4.8038242726
  0
LINE
  5
335
100
AcDbEntity
  8
RACCORDO
100
AcDbLine
 62
253
  6
CONTINUOUS
 10
-10.6377894311
 20
14.5192572656
 11
-10.6387053736
 21
14.8038242726
  0
LINE
  5
336
100
AcDbEntity
  8
ASSI
100
AcDbLine
 62
253
  6
CONTINUOUS
 10
-10.6377894311
 20
14.5192572656
 11
-10.6387053736
 21
14.8038242726
  0
LINE
  5
337
100
AcDbEntity
  8
ASSI
100
AcDbLine
 62
7
  6
CONTINUOUS
 10
-10.9386931655
 20
-0.0874242649
 11
-10.937866895
 21
-0.3726305096
  0
LINE
  5
338
100
AcDbEntity
  8
ASSI
100
AcDbLine
 62
7
  6
CONTINUOUS
 10
-10.9386931655
 20
4.9125757351
 11
-10.9377837508
 21
4.5905704478
  0
LINE
  5
339
100
AcDbEntity
  8
ASSI
100
AcDbLine
 62
7
  6
CONTINUOUS
 10
-10.9386931655
 20
9.9125757351
 11
-10.9377837508
 21
9.5905704478
  0
LINE
  5
33A
100
AcDbEntity
  8
ASSI
100
AcDbLine
 62
7
  6
CONTINUOUS
 10
-10.9386931655
 20
14.9125757351
 11
-10.9377837508
 21
14.5905704478
  0
LINE
  5
33B
100
AcDbEntity
  8
RACCORDO
100
AcDbLine
 62
7
  6
CONTINUOUS
 10
-10.9384630496
 20
-0.1564035622
 11
-10.9377263633
 21
-0.4363602246
  0
LINE
  5
33C
100
AcDbEntity
  8
RACCORDO
100
AcDbLine
 62
7
  6
CONTINUOUS
 10
-10.9384630496
 20
4.8435964378
 11
-10.9377263633
 21
4.5636397754
  0
LINE
  5
33D
100
AcDbEntity
  8
RACCORDO
100
AcDbLine
 62
7
  6
CONTINUOUS
 10
-10.9384630496
 20
9.8435964378
 11
-10.9377263633
 21
9.5636397754
  0
LINE
  5
33E
100
AcDbEntity
  8
RACCORDO
100
AcDbLine
 62
7
  6
CONTINUOUS
 10
-10.9384630496
 20
14.8435964378
 11
-10.9377263633
 21
14.5636397754
  0
LINE
  5
33F
100
AcDbEntity
  8
RACCORDO
100
AcDbLine
 62
253
  6
CONTINUOUS
 10
-10.6374791849
 20
9.3727408631
 11
-10.6381977074
 21
9.6631864981
  0
LINE
  5
340
100
AcDbEntity
  8
ASSI
100
AcDbLine
 62
253
  6
CONTINUOUS
 10
-10.6374791849
 20
9.3727408631
 11
-10.6381977074
 21
9.6631864981
  0
LINE
  5
341
100
AcDbEntity
  8
RACCORDO
100
AcDbLine
 62
253
  6
CONTINUOUS
 10
-10.6372718589
 20
-0.7756430429
 11
-10.6377894311
 21
-0.4807427344
  0
LINE
  5
342
100
AcDbEntity
  8
ASSI
100
AcDbLine
 62
253
  6
CONTINUOUS
 10
-10.6372718589
 20
-0.7756430429
 11
-10.6377894311
 21
-0.4807427344
  0
LINE
  5
343
100
AcDbEntity
  8
RACCORDO
100
AcDbLine
 62
253
  6
CONTINUOUS
 10
-10.6372718589
 20
4.2243569571
 11
-10.6377894311
 21
4.5192572656
  0
LINE
  5
344
100
AcDbEntity
  8
ASSI
100
AcDbLine
 62
253
  6
CONTINUOUS
 10
-10.6372718589
 20
4.2243569571
 11
-10.6377894311
 21
4.5192572656
  0
LINE
  5
345
100
AcDbEntity
  8
RACCORDO
100
AcDbLine
 62
253
  6
CONTINUOUS
 10
-10.6372718589
 20
14.2243569571
 11
-10.6377894311
 21
14.5192572656
  0
LINE
  5
346
100
AcDbEntity
  8
ASSI
100
AcDbLine
 62
253
  6
CONTINUOUS
 10
-10.6372718589
 20
14.2243569571
 11
-10.6377894311
 21
14.5192572656
  0
LINE
  5
347
100
AcDbEntity
  8
ASSI
100
AcDbLine
 62
7
  6
CONTINUOUS
 10
-10.937866895
 20
-0.3726305096
 11
-10.9373467547
 21
-0.6721043962
  0
LINE
  5
348
100
AcDbEntity
  8
RACCORDO
100
AcDbLine
 62
7
  6
CONTINUOUS
 10
-10.9377263633
 20
-0.4363602246
 11
-10.9372866078
 21
-0.7287340661
  0
LINE
  5
349
100
AcDbEntity
  8
ASSI
100
AcDbLine
 62
7
  6
CONTINUOUS
 10
-10.9377837508
 20
4.5905704478
 11
-10.9373050929
 21
4.2898232123
  0
LINE
  5
34A
100
AcDbEntity
  8
ASSI
100
AcDbLine
 62
7
  6
CONTINUOUS
 10
-10.9377837508
 20
9.5905704478
 11
-10.9373050929
 21
9.2898232123
  0
LINE
  5
34B
100
AcDbEntity
  8
ASSI
100
AcDbLine
 62
7
  6
CONTINUOUS
 10
-10.9377837508
 20
14.5905704478
 11
-10.9373050929
 21
14.2898232123
  0
LINE
  5
34C
100
AcDbEntity
  8
RACCORDO
100
AcDbLine
 62
7
  6
CONTINUOUS
 10
-10.9377263633
 20
4.5636397754
 11
-10.9372531202
 21
4.2341939819
  0
LINE
  5
34D
100
AcDbEntity
  8
RACCORDO
100
AcDbLine
 62
7
  6
CONTINUOUS
 10
-10.9377263633
 20
9.5636397754
 11
-10.9372531202
 21
9.2341939819
  0
LINE
  5
34E
100
AcDbEntity
  8
RACCORDO
100
AcDbLine
 62
7
  6
CONTINUOUS
 10
-10.9377263633
 20
14.5636397754
 11
-10.9372531202
 21
14.2341939819
  0
LINE
  5
34F
100
AcDbEntity
  8
RACCORDO
100
AcDbLine
 62
253
  6
CONTINUOUS
 10
-10.6371690793
 20
9.0747907239
 11
-10.6374791849
 21
9.3727408631
  0
LINE
  5
350
100
AcDbEntity
  8
ASSI
100
AcDbLine
 62
253
  6
CONTINUOUS
 10
-10.6371690793
 20
9.0747907239
 11
-10.6374791849
 21
9.3727408631
  0
LINE
  5
351
100
AcDbEntity
  8
ASSI
100
AcDbLine
 62
7
  6
CONTINUOUS
 10
-10.9373467547
 20
-0.6721043962
 11
-10.9371528517
 21
-0.9782673416
  0
LINE
  5
352
100
AcDbEntity
  8
0
100
AcDbLine
 62
7
  6
CONTINUOUS
 10
-11.15
 20
21.900016923
 11
-11.15
 21
17.6716990487
  0
LINE
  5
353
100
AcDbEntity
  8
RACCORDO
100
AcDbLine
 62
7
  6
CONTINUOUS
 10
-11.15
 20
17.6716990487
 11
-11.15
 21
-17.6716990487
  0
LINE
  5
354
100
AcDbEntity
  8
0
100
AcDbLine
 62
7
  6
CONTINUOUS
 10
-11.15
 20
-17.6716990487
 11
-11.15
 21
-21.900016923
  0
LINE
  5
355
100
AcDbEntity
  8
0
100
AcDbLine
 62
7
  6
CONTINUOUS
 10
-11.1412731322
 20
21.8941990932
 11
-11.1412731322
 21
18.5087268678
  0
LINE
  5
356
100
AcDbEntity
  8
0
100
AcDbLine
 62
7
  6
CONTINUOUS
 10
-11.1412731322
 20
-18.5087268678
 11
-11.1412731322
 21
-21.8941990932
  0
LINE
  5
357
100
AcDbEntity
  8
0
100
AcDbLine
 62
7
  6
CONTINUOUS
 10
-11.1325462644
 20
18.5174537356
 11
-11.1325462644
 21
17.9192894123
  0
LINE
  5
358
100
AcDbEntity
  8
0
100
AcDbLine
 62
7
  6
CONTINUOUS
 10
-11.1325462644
 20
-17.9192894123
 11
-11.1325462644
 21
-18.5174537356
  0
LINE
  5
359
100
AcDbEntity
  8
RACCORDO
100
AcDbLine
 62
7
  6
CONTINUOUS
 10
-11.0278145455
 20
17.6210881763
 11
-11.0278145455
 21
-17.6210881763
  0
LINE
  5
35A
100
AcDbEntity
  8
RACCORDO
100
AcDbLine
 62
7
  6
CONTINUOUS
 10
-11.0130903017
 20
16.5912243901
 11
-11.0130903017
 21
16.45
  0
LINE
  5
35B
100
AcDbEntity
  8
ASSI
100
AcDbLine
 62
7
  6
CONTINUOUS
 10
-11.0130903017
 20
16.5912243901
 11
-11.0130903017
 21
16.45
  0
LINE
  5
35C
100
AcDbEntity
  8
RACCORDO
100
AcDbLine
 62
7
  6
CONTINUOUS
 10
-11.0130903017
 20
11.55
 11
-11.0130903017
 21
11.45
  0
LINE
  5
35D
100
AcDbEntity
  8
ASSI
100
AcDbLine
 62
7
  6
CONTINUOUS
 10
-11.0130903017
 20
11.55
 11
-11.0130903017
 21
11.45
  0
LINE
  5
35E
100
AcDbEntity
  8
RACCORDO
100
AcDbLine
 62
7
  6
CONTINUOUS
 10
-11.0130903017
 20
6.55
 11
-11.0130903017
 21
6.45
  0
LINE
  5
35F
100
AcDbEntity
  8
ASSI
100
AcDbLine
 62
7
  6
CONTINUOUS
 10
-11.0130903017
 20
6.55
 11
-11.0130903017
 21
6.45
  0
LINE
  5
360
100
AcDbEntity
  8
RACCORDO
100
AcDbLine
 62
7
  6
CONTINUOUS
 10
-11.0130903017
 20
1.55
 11
-11.0130903017
 21
1.45
  0
LINE
  5
361
100
AcDbEntity
  8
ASSI
100
AcDbLine
 62
7
  6
CONTINUOUS
 10
-11.0130903017
 20
1.55
 11
-11.0130903017
 21
1.45
  0
LINE
  5
362
100
AcDbEntity
  8
RACCORDO
100
AcDbLine
 62
7
  6
CONTINUOUS
 10
-11.0130903017
 20
-3.45
 11
-11.0130903017
 21
-16.5912243901
  0
LINE
  5
363
100
AcDbEntity
  8
ASSI
100
AcDbLine
 62
7
  6
CONTINUOUS
 10
-11.0130903017
 20
-3.45
 11
-11.0130903017
 21
-16.5912243901
  0
LINE
  5
364
100
AcDbEntity
  8
ASSI
100
AcDbLine
 62
7
  6
CONTINUOUS
 10
-11.0
 20
16.363227895
 11
-11.0
 21
11.636772105
  0
LINE
  5
365
100
AcDbEntity
  8
ASSI
100
AcDbLine
 62
7
  6
CONTINUOUS
 10
-11.0
 20
11.363227895
 11
-11.0
 21
6.636772105
  0
LINE
  5
366
100
AcDbEntity
  8
ASSI
100
AcDbLine
 62
7
  6
CONTINUOUS
 10
-11.0
 20
6.363227895
 11
-11.0
 21
1.636772105
  0
LINE
  5
367
100
AcDbEntity
  8
ASSI
100
AcDbLine
 62
7
  6
CONTINUOUS
 10
-11.0
 20
1.363227895
 11
-11.0
 21
-3.363227895
  0
LINE
  5
368
100
AcDbEntity
  8
RACCORDO
100
AcDbLine
 62
7
  6
CONTINUOUS
 10
-10.9372866078
 20
-0.7287340661
 11
-10.9371531035
 21
-1.0263364329
  0
LINE
  5
369
100
AcDbEntity
  8
ASSI
100
AcDbLine
 62
7
  6
CONTINUOUS
 10
-10.9373050929
 20
4.2898232123
 11
-10.9371523524
 21
3.9833963189
  0
LINE
  5
36A
100
AcDbEntity
  8
ASSI
100
AcDbLine
 62
7
  6
CONTINUOUS
 10
-10.9373050929
 20
9.2898232123
 11
-10.9371523524
 21
8.9833963189
  0
LINE
  5
36B
100
AcDbEntity
  8
ASSI
100
AcDbLine
 62
7
  6
CONTINUOUS
 10
-10.9373050929
 20
14.2898232123
 11
-10.9371523524
 21
13.9833963189
  0
LINE
  5
36C
100
AcDbEntity
  8
RACCORDO
100
AcDbLine
 62
253
  6
CONTINUOUS
 10
-10.6371692198
 20
13.9248019577
 11
-10.6372718589
 21
14.2243569571
  0
LINE
  5
36D
100
AcDbEntity
  8
ASSI
100
AcDbLine
 62
253
  6
CONTINUOUS
 10
-10.6371692198
 20
13.9248019577
 11
-10.6372718589
 21
14.2243569571
  0
LINE
  5
36E
100
AcDbEntity
  8
RACCORDO
100
AcDbLine
 62
253
  6
CONTINUOUS
 10
-10.6371692198
 20
3.9248019577
 11
-10.6372718589
 21
4.2243569571
  0
LINE
  5
36F
100
AcDbEntity
  8
ASSI
100
AcDbLine
 62
253
  6
CONTINUOUS
 10
-10.6371692198
 20
3.9248019577
 11
-10.6372718589
 21
4.2243569571
  0
LINE
  5
370
100
AcDbEntity
  8
RACCORDO
100
AcDbLine
 62
253
  6
CONTINUOUS
 10
-10.6371692198
 20
-1.0751980423
 11
-10.6372718589
 21
-0.7756430429
  0
LINE
  5
371
100
AcDbEntity
  8
ASSI
100
AcDbLine
 62
253
  6
CONTINUOUS
 10
-10.6371692198
 20
-1.0751980423
 11
-10.6372718589
 21
-0.7756430429
  0
LINE
  5
372
100
AcDbEntity
  8
RACCORDO
100
AcDbLine
 62
7
  6
CONTINUOUS
 10
-10.9372531202
 20
14.2341939819
 11
-10.9371592482
 21
13.9364741367
  0
LINE
  5
373
100
AcDbEntity
  8
RACCORDO
100
AcDbLine
 62
7
  6
CONTINUOUS
 10
-10.9372531202
 20
9.2341939819
 11
-10.9371592482
 21
8.9364741367
  0
LINE
  5
374
100
AcDbEntity
  8
RACCORDO
100
AcDbLine
 62
7
  6
CONTINUOUS
 10
-10.9372531202
 20
4.2341939819
 11
-10.9371592482
 21
3.9364741367
  0
LINE
  5
375
100
AcDbEntity
  8
RACCORDO
100
AcDbLine
 62
253
  6
CONTINUOUS
 10
-10.637272292
 20
8.7752332117
 11
-10.6371690793
 21
9.0747907239
  0
LINE
  5
376
100
AcDbEntity
  8
ASSI
100
AcDbLine
 62
253
  6
CONTINUOUS
 10
-10.637272292
 20
8.7752332117
 11
-10.6371690793
 21
9.0747907239
  0
LINE
  5
377
100
AcDbEntity
  8
ASSI
100
AcDbLine
 62
7
  6
CONTINUOUS
 10
-10.9371528517
 20
-0.9782673416
 11
-10.9372984282
 21
-1.2830286631
  0
LINE
  5
378
100
AcDbEntity
  8
RACCORDO
100
AcDbLine
 62
7
  6
CONTINUOUS
 10
-10.9371531035
 20
-1.0263364329
 11
-10.9373400752
 21
-1.321611681
  0
LINE
  5
379
100
AcDbEntity
  8
RACCORDO
100
AcDbLine
 62
7
  6
CONTINUOUS
 10
-10.9371592482
 20
13.9364741367
 11
-10.9373840213
 21
13.6420173722
  0
LINE
  5
37A
100
AcDbEntity
  8
ASSI
100
AcDbLine
 62
7
  6
CONTINUOUS
 10
-10.9371523524
 20
13.9833963189
 11
-10.9373841085
 21
13.6419488636
  0
LINE
  5
37B
100
AcDbEntity
  8
RACCORDO
100
AcDbLine
 62
7
  6
CONTINUOUS
 10
-10.9371592482
 20
8.9364741367
 11
-10.9373840213
 21
8.6420173722
  0
LINE
  5
37C
100
AcDbEntity
  8
ASSI
100
AcDbLine
 62
7
  6
CONTINUOUS
 10
-10.9371523524
 20
8.9833963189
 11
-10.9373841085
 21
8.6419488636
  0
LINE
  5
37D
100
AcDbEntity
  8
ASSI
100
AcDbLine
 62
7
  6
CONTINUOUS
 10
-10.9371523524
 20
3.9833963189
 11
-10.9373841085
 21
3.6419488636
  0
LINE
  5
37E
100
AcDbEntity
  8
RACCORDO
100
AcDbLine
 62
253
  6
CONTINUOUS
 10
-10.6374799304
 20
13.6268428474
 11
-10.6371692198
 21
13.9248019577
  0
LINE
  5
37F
100
AcDbEntity
  8
ASSI
100
AcDbLine
 62
253
  6
CONTINUOUS
 10
-10.6374799304
 20
13.6268428474
 11
-10.6371692198
 21
13.9248019577
  0
LINE
  5
380
100
AcDbEntity
  8
RACCORDO
100
AcDbLine
 62
253
  6
CONTINUOUS
 10
-10.6374799304
 20
3.6268428474
 11
-10.6371692198
 21
3.9248019577
  0
LINE
  5
381
100
AcDbEntity
  8
ASSI
100
AcDbLine
 62
253
  6
CONTINUOUS
 10
-10.6374799304
 20
3.6268428474
 11
-10.6371692198
 21
3.9248019577
  0
LINE
  5
382
100
AcDbEntity
  8
RACCORDO
100
AcDbLine
 62
253
  6
CONTINUOUS
 10
-10.6374799304
 20
-1.3731571526
 11
-10.6371692198
 21
-1.0751980423
  0
LINE
  5
383
100
AcDbEntity
  8
ASSI
100
AcDbLine
 62
253
  6
CONTINUOUS
 10
-10.6374799304
 20
-1.3731571526
 11
-10.6371692198
 21
-1.0751980423
  0
LINE
  5
384
100
AcDbEntity
  8
ASSI
100
AcDbLine
 62
7
  6
CONTINUOUS
 10
-10.9372984282
 20
-1.2830286631
 11
-10.9377571462
 21
-1.5784318504
  0
LINE
  5
385
100
AcDbEntity
  8
RACCORDO
100
AcDbLine
 62
253
  6
CONTINUOUS
 10
-10.6377905004
 20
8.4803178775
 11
-10.637272292
 21
8.7752332117
  0
LINE
  5
386
100
AcDbEntity
  8
ASSI
100
AcDbLine
 62
253
  6
CONTINUOUS
 10
-10.6377905004
 20
8.4803178775
 11
-10.637272292
 21
8.7752332117
  0
LINE
  5
387
100
AcDbEntity
  8
RACCORDO
100
AcDbLine
 62
7
  6
CONTINUOUS
 10
-10.9373400752
 20
-1.321611681
 11
-10.9378201102
 21
-1.6071961949
  0
LINE
  5
388
100
AcDbEntity
  8
ASSI
100
AcDbLine
 62
7
  6
CONTINUOUS
 10
-10.9373841085
 20
13.6419488636
 11
-10.9379199485
 21
13.3500445166
  0
LINE
  5
389
100
AcDbEntity
  8
RACCORDO
100
AcDbLine
 62
7
  6
CONTINUOUS
 10
-10.9373840213
 20
13.6420173722
 11
-10.9379005127
 21
13.3581239224
  0
LINE
  5
38A
100
AcDbEntity
  8
ASSI
100
AcDbLine
 62
7
  6
CONTINUOUS
 10
-10.9373841085
 20
8.6419488636
 11
-10.9379199485
 21
8.3500445166
  0
LINE
  5
38B
100
AcDbEntity
  8
RACCORDO
100
AcDbLine
 62
7
  6
CONTINUOUS
 10
-10.9373840213
 20
8.6420173722
 11
-10.9379005127
 21
8.3581239224
  0
LINE
  5
38C
100
AcDbEntity
  8
ASSI
100
AcDbLine
 62
7
  6
CONTINUOUS
 10
-10.9373841085
 20
3.6419488636
 11
-10.9379199485
 21
3.3500445166
  0
LINE
  5
38D
100
AcDbEntity
  8
RACCORDO
100
AcDbLine
 62
7
  6
CONTINUOUS
 10
-10.9371592482
 20
3.9364741367
 11
-10.9379005127
 21
3.3581239224
  0
LINE
  5
38E
100
AcDbEntity
  8
RACCORDO
100
AcDbLine
 62
253
  6
CONTINUOUS
 10
-10.63819911
 20
13.3363828404
 11
-10.6374799304
 21
13.6268428474
  0
LINE
  5
38F
100
AcDbEntity
  8
ASSI
100
AcDbLine
 62
253
  6
CONTINUOUS
 10
-10.63819911
 20
13.3363828404
 11
-10.6374799304
 21
13.6268428474
  0
LINE
  5
390
100
AcDbEntity
  8
RACCORDO
100
AcDbLine
 62
253
  6
CONTINUOUS
 10
-10.63819911
 20
3.3363828404
 11
-10.6374799304
 21
3.6268428474
  0
LINE
  5
391
100
AcDbEntity
  8
ASSI
100
AcDbLine
 62
253
  6
CONTINUOUS
 10
-10.63819911
 20
3.3363828404
 11
-10.6374799304
 21
3.6268428474
  0
LINE
  5
392
100
AcDbEntity
  8
RACCORDO
100
AcDbLine
 62
253
  6
CONTINUOUS
 10
-10.63819911
 20
-1.6636171596
 11
-10.6374799304
 21
-1.3731571526
  0
LINE
  5
393
100
AcDbEntity
  8
ASSI
100
AcDbLine
 62
253
  6
CONTINUOUS
 10
-10.63819911
 20
-1.6636171596
 11
-10.6374799304
 21
-1.3731571526
  0
LINE
  5
394
100
AcDbEntity
  8
ASSI
100
AcDbLine
 62
7
  6
CONTINUOUS
 10
-10.9377571462
 20
-1.5784318504
 11
-10.9385076691
 21
-1.8572749028
  0
LINE
  5
395
100
AcDbEntity
  8
RACCORDO
100
AcDbLine
 62
7
  6
CONTINUOUS
 10
-10.9378201102
 20
-1.6071961949
 11
-10.9385707867
 21
-1.8764761488
  0
LINE
  5
396
100
AcDbEntity
  8
ASSI
100
AcDbLine
 62
7
  6
CONTINUOUS
 10
-10.9379199485
 20
13.3500445166
 11
-10.9387329867
 21
13.0762660163
  0
LINE
  5
397
100
AcDbEntity
  8
RACCORDO
100
AcDbLine
 62
7
  6
CONTINUOUS
 10
-10.9379005127
 20
13.3581239224
 11
-10.9386804332
 21
13.0912635171
  0
LINE
  5
398
100
AcDbEntity
  8
ASSI
100
AcDbLine
 62
7
  6
CONTINUOUS
 10
-10.9379199485
 20
8.3500445166
 11
-10.9387329867
 21
8.0762660163
  0
LINE
  5
399
100
AcDbEntity
  8
RACCORDO
100
AcDbLine
 62
7
  6
CONTINUOUS
 10
-10.9379005127
 20
8.3581239224
 11
-10.9386804332
 21
8.0912635171
  0
LINE
  5
39A
100
AcDbEntity
  8
RACCORDO
100
AcDbLine
 62
7
  6
CONTINUOUS
 10
-10.9379005127
 20
3.3581239224
 11
-10.9389102221
 21
3.0277201049
  0
LINE
  5
39B
100
AcDbEntity
  8
RACCORDO
100
AcDbLine
 62
253
  6
CONTINUOUS
 10
-10.6387071286
 20
8.1957425413
 11
-10.6377905004
 21
8.4803178775
  0
LINE
  5
39C
100
AcDbEntity
  8
ASSI
100
AcDbLine
 62
253
  6
CONTINUOUS
 10
-10.6387071286
 20
8.1957425413
 11
-10.6377905004
 21
8.4803178775
  0
LINE
  5
39D
100
AcDbEntity
  8
ASSI
100
AcDbLine
 62
7
  6
CONTINUOUS
 10
-10.9379199485
 20
3.3500445166
 11
-10.9394972546
 21
2.8851974435
  0
LINE
  5
39E
100
AcDbEntity
  8
ASSI
100
AcDbLine
 62
7
  6
CONTINUOUS
 10
-10.9385076691
 20
-1.8572749028
 11
-10.9394972546
 21
-2.1148025565
  0
LINE
  5
39F
100
AcDbEntity
  8
RACCORDO
100
AcDbLine
 62
7
  6
CONTINUOUS
 10
-10.9385707867
 20
-1.8764761488
 11
-10.9395448378
 21
-2.1253530766
  0
LINE
  5
3A0
100
AcDbEntity
  8
RACCORDO
100
AcDbLine
 62
253
  6
CONTINUOUS
 10
-10.6393131867
 20
13.0590618699
 11
-10.63819911
 21
13.3363828404
  0
LINE
  5
3A1
100
AcDbEntity
  8
ASSI
100
AcDbLine
 62
253
  6
CONTINUOUS
 10
-10.6393131867
 20
13.0590618699
 11
-10.63819911
 21
13.3363828404
  0
LINE
  5
3A2
100
AcDbEntity
  8
RACCORDO
100
AcDbLine
 62
253
  6
CONTINUOUS
 10
-10.6393131867
 20
3.0590618699
 11
-10.63819911
 21
3.3363828404
  0
LINE
  5
3A3
100
AcDbEntity
  8
ASSI
100
AcDbLine
 62
253
  6
CONTINUOUS
 10
-10.6393131867
 20
3.0590618699
 11
-10.63819911
 21
3.3363828404
  0
LINE
  5
3A4
100
AcDbEntity
  8
RACCORDO
100
AcDbLine
 62
253
  6
CONTINUOUS
 10
-10.6393131867
 20
-1.9409381301
 11
-10.63819911
 21
-1.6636171596
  0
LINE
  5
3A5
100
AcDbEntity
  8
ASSI
100
AcDbLine
 62
253
  6
CONTINUOUS
 10
-10.6393131867
 20
-1.9409381301
 11
-10.63819911
 21
-1.6636171596
  0
LINE
  5
3A6
100
AcDbEntity
  8
ASSI
100
AcDbLine
 62
7
  6
CONTINUOUS
 10
-10.9387329867
 20
13.0762660163
 11
-10.939779782
 21
12.8243333756
  0
LINE
  5
3A7
100
AcDbEntity
  8
RACCORDO
100
AcDbLine
 62
7
  6
CONTINUOUS
 10
-10.9386804332
 20
13.0912635171
 11
-10.9396814894
 21
12.8450377648
  0
LINE
  5
3A8
100
AcDbEntity
  8
ASSI
100
AcDbLine
 62
7
  6
CONTINUOUS
 10
-10.9387329867
 20
8.0762660163
 11
-10.939779782
 21
7.8243333756
  0
LINE
  5
3A9
100
AcDbEntity
  8
RACCORDO
100
AcDbLine
 62
7
  6
CONTINUOUS
 10
-10.9386804332
 20
8.0912635171
 11
-10.9396814894
 21
7.8450377648
  0
LINE
  5
3AA
100
AcDbEntity
  8
RACCORDO
100
AcDbLine
 62
253
  6
CONTINUOUS
 10
-10.6400082841
 20
7.9269801435
 11
-10.6387071286
 21
8.1957425413
  0
LINE
  5
3AB
100
AcDbEntity
  8
ASSI
100
AcDbLine
 62
253
  6
CONTINUOUS
 10
-10.6400082841
 20
7.9269801435
 11
-10.6387071286
 21
8.1957425413
  0
LINE
  5
3AC
100
AcDbEntity
  8
ASSI
100
AcDbLine
 62
7
  6
CONTINUOUS
 10
-10.9394972546
 20
2.8851974435
 11
-10.9406952191
 21
2.6504110416
  0
LINE
  5
3AD
100
AcDbEntity
  8
ASSI
100
AcDbLine
 62
7
  6
CONTINUOUS
 10
-10.9394972546
 20
-2.1148025565
 11
-10.9406952191
 21
-2.3495889584
  0
LINE
  5
3AE
100
AcDbEntity
  8
RACCORDO
100
AcDbLine
 62
7
  6
CONTINUOUS
 10
-10.9395448378
 20
-2.1253530766
 11
-10.9408700651
 21
-2.3795254388
  0
LINE
  5
3AF
100
AcDbEntity
  8
RACCORDO
100
AcDbLine
 62
7
  6
CONTINUOUS
 10
-10.9396814894
 20
12.8450377648
 11
-10.9410297381
 21
12.593955589
  0
LINE
  5
3B0
100
AcDbEntity
  8
ASSI
100
AcDbLine
 62
7
  6
CONTINUOUS
 10
-10.939779782
 20
12.8243333756
 11
-10.9410211867
 21
12.5953566
  0
LINE
  5
3B1
100
AcDbEntity
  8
RACCORDO
100
AcDbLine
 62
7
  6
CONTINUOUS
 10
-10.9396814894
 20
7.8450377648
 11
-10.9410297381
 21
7.593955589
  0
LINE
  5
3B2
100
AcDbEntity
  8
ASSI
100
AcDbLine
 62
7
  6
CONTINUOUS
 10
-10.939779782
 20
7.8243333756
 11
-10.9410211867
 21
7.5953566
  0
LINE
  5
3B3
100
AcDbEntity
  8
RACCORDO
100
AcDbLine
 62
253
  6
CONTINUOUS
 10
-10.640793427
 20
12.8001537949
 11
-10.6393131867
 21
13.0590618699
  0
LINE
  5
3B4
100
AcDbEntity
  8
ASSI
100
AcDbLine
 62
253
  6
CONTINUOUS
 10
-10.640793427
 20
12.8001537949
 11
-10.6393131867
 21
13.0590618699
  0
LINE
  5
3B5
100
AcDbEntity
  8
RACCORDO
100
AcDbLine
 62
253
  6
CONTINUOUS
 10
-10.640793427
 20
2.8001537949
 11
-10.6393131867
 21
3.0590618699
  0
LINE
  5
3B6
100
AcDbEntity
  8
ASSI
100
AcDbLine
 62
253
  6
CONTINUOUS
 10
-10.640793427
 20
2.8001537949
 11
-10.6393131867
 21
3.0590618699
  0
LINE
  5
3B7
100
AcDbEntity
  8
RACCORDO
100
AcDbLine
 62
253
  6
CONTINUOUS
 10
-10.640793427
 20
-2.1998462051
 11
-10.6393131867
 21
-1.9409381301
  0
LINE
  5
3B8
100
AcDbEntity
  8
ASSI
100
AcDbLine
 62
253
  6
CONTINUOUS
 10
-10.640793427
 20
-2.1998462051
 11
-10.6393131867
 21
-1.9409381301
  0
LINE
  5
3B9
100
AcDbEntity
  8
RACCORDO
100
AcDbLine
 62
7
  6
CONTINUOUS
 10
-10.9389102221
 20
3.0277201049
 11
-10.9416933664
 21
2.4913467689
  0
LINE
  5
3BA
100
AcDbEntity
  8
ASSI
100
AcDbLine
 62
7
  6
CONTINUOUS
 10
-10.9406952191
 20
2.6504110416
 11
-10.9420621687
 21
2.4390013794
  0
LINE
  5
3BB
100
AcDbEntity
  8
ASSI
100
AcDbLine
 62
7
  6
CONTINUOUS
 10
-10.9406952191
 20
-2.3495889584
 11
-10.9420621687
 21
-2.5609986206
  0
LINE
  5
3BC
100
AcDbEntity
  8
RACCORDO
100
AcDbLine
 62
7
  6
CONTINUOUS
 10
-10.9408700651
 20
-2.3795254388
 11
-10.9422160043
 21
-2.5819674335
  0
LINE
  5
3BD
100
AcDbEntity
  8
RACCORDO
100
AcDbLine
 62
253
  6
CONTINUOUS
 10
-10.6416676091
 20
7.6791651496
 11
-10.6400082841
 21
7.9269801435
  0
LINE
  5
3BE
100
AcDbEntity
  8
ASSI
100
AcDbLine
 62
253
  6
CONTINUOUS
 10
-10.6416676091
 20
7.6791651496
 11
-10.6400082841
 21
7.9269801435
  0
LINE
  5
3BF
100
AcDbEntity
  8
RACCORDO
100
AcDbLine
 62
7
  6
CONTINUOUS
 10
-10.9410297381
 20
12.593955589
 11
-10.9423945257
 21
12.394289289
  0
LINE
  5
3C0
100
AcDbEntity
  8
RACCORDO
100
AcDbLine
 62
7
  6
CONTINUOUS
 10
-10.9410297381
 20
7.593955589
 11
-10.9423945257
 21
7.394289289
  0
LINE
  5
3C1
100
AcDbEntity
  8
ASSI
100
AcDbLine
 62
7
  6
CONTINUOUS
 10
-10.9410211867
 20
12.5953566
 11
-10.9424286138
 21
12.3898247797
  0
LINE
  5
3C2
100
AcDbEntity
  8
ASSI
100
AcDbLine
 62
7
  6
CONTINUOUS
 10
-10.9410211867
 20
7.5953566
 11
-10.9424286138
 21
7.3898247797
  0
LINE
  5
3C3
100
AcDbEntity
  8
RACCORDO
100
AcDbLine
 62
7
  6
CONTINUOUS
 10
-10.9416933664
 20
2.4913467689
 11
-10.9431269537
 21
2.3027799417
  0
LINE
  5
3C4
100
AcDbEntity
  8
RACCORDO
100
AcDbLine
 62
253
  6
CONTINUOUS
 10
-10.6426188118
 20
12.5645168339
 11
-10.640793427
 21
12.8001537949
  0
LINE
  5
3C5
100
AcDbEntity
  8
ASSI
100
AcDbLine
 62
253
  6
CONTINUOUS
 10
-10.6426188118
 20
12.5645168339
 11
-10.640793427
 21
12.8001537949
  0
LINE
  5
3C6
100
AcDbEntity
  8
RACCORDO
100
AcDbLine
 62
253
  6
CONTINUOUS
 10
-10.6426188118
 20
2.5645168339
 11
-10.640793427
 21
2.8001537949
  0
LINE
  5
3C7
100
AcDbEntity
  8
ASSI
100
AcDbLine
 62
253
  6
CONTINUOUS
 10
-10.6426188118
 20
2.5645168339
 11
-10.640793427
 21
2.8001537949
  0
LINE
  5
3C8
100
AcDbEntity
  8
RACCORDO
100
AcDbLine
 62
253
  6
CONTINUOUS
 10
-10.6426188118
 20
-2.4354831661
 11
-10.640793427
 21
-2.1998462051
  0
LINE
  5
3C9
100
AcDbEntity
  8
ASSI
100
AcDbLine
 62
253
  6
CONTINUOUS
 10
-10.6426188118
 20
-2.4354831661
 11
-10.640793427
 21
-2.1998462051
  0
LINE
  5
3CA
100
AcDbEntity
  8
ASSI
100
AcDbLine
 62
7
  6
CONTINUOUS
 10
-10.9420621687
 20
2.4390013794
 11
-10.9435734387
 21
2.2511243151
  0
LINE
  5
3CB
100
AcDbEntity
  8
ASSI
100
AcDbLine
 62
7
  6
CONTINUOUS
 10
-10.9420621687
 20
-2.5609986206
 11
-10.9435734387
 21
-2.7488756849
  0
LINE
  5
3CC
100
AcDbEntity
  8
RACCORDO
100
AcDbLine
 62
7
  6
CONTINUOUS
 10
-10.9422160043
 20
-2.5819674335
 11
-10.943693031
 21
-2.7622095139
  0
LINE
  5
3CD
100
AcDbEntity
  8
ASSI
100
AcDbLine
 62
7
  6
CONTINUOUS
 10
-10.9424286138
 20
12.3898247797
 11
-10.9439687821
 21
12.2078308048
  0
LINE
  5
3CE
100
AcDbEntity
  8
RACCORDO
100
AcDbLine
 62
7
  6
CONTINUOUS
 10
-10.9423945257
 20
12.394289289
 11
-10.9438850062
 21
12.2168185327
  0
LINE
  5
3CF
100
AcDbEntity
  8
ASSI
100
AcDbLine
 62
7
  6
CONTINUOUS
 10
-10.9424286138
 20
7.3898247797
 11
-10.9439687821
 21
7.2078308048
  0
LINE
  5
3D0
100
AcDbEntity
  8
RACCORDO
100
AcDbLine
 62
7
  6
CONTINUOUS
 10
-10.9423945257
 20
7.394289289
 11
-10.9438850062
 21
7.2168185327
  0
LINE
  5
3D1
100
AcDbEntity
  8
RACCORDO
100
AcDbLine
 62
253
  6
CONTINUOUS
 10
-10.6436479793
 20
7.4567682598
 11
-10.6416676091
 21
7.6791651496
  0
LINE
  5
3D2
100
AcDbEntity
  8
ASSI
100
AcDbLine
 62
253
  6
CONTINUOUS
 10
-10.6436479793
 20
7.4567682598
 11
-10.6416676091
 21
7.6791651496
  0
LINE
  5
3D3
100
AcDbEntity
  8
RACCORDO
100
AcDbLine
 62
7
  6
CONTINUOUS
 10
-10.9431269537
 20
2.3027799417
 11
-10.9446696605
 21
2.1363718488
  0
LINE
  5
3D4
100
AcDbEntity
  8
ASSI
100
AcDbLine
 62
7
  6
CONTINUOUS
 10
-10.9435734387
 20
2.2511243151
 11
-10.9451970244
 21
2.0867043263
  0
LINE
  5
3D5
100
AcDbEntity
  8
ASSI
100
AcDbLine
 62
7
  6
CONTINUOUS
 10
-10.9435734387
 20
-2.7488756849
 11
-10.9451970244
 21
-2.9132956737
  0
LINE
  5
3D6
100
AcDbEntity
  8
RACCORDO
100
AcDbLine
 62
7
  6
CONTINUOUS
 10
-10.943693031
 20
-2.7622095139
 11
-10.9452751124
 21
-2.9203726732
  0
LINE
  5
3D7
100
AcDbEntity
  8
RACCORDO
100
AcDbLine
 62
7
  6
CONTINUOUS
 10
-10.9438850062
 20
12.2168185327
 11
-10.9454798847
 21
12.0613925232
  0
LINE
  5
3D8
100
AcDbEntity
  8
RACCORDO
100
AcDbLine
 62
7
  6
CONTINUOUS
 10
-10.9438850062
 20
7.2168185327
 11
-10.9454798847
 21
7.0613925232
  0
LINE
  5
3D9
100
AcDbEntity
  8
ASSI
100
AcDbLine
 62
7
  6
CONTINUOUS
 10
-10.9439687821
 20
12.2078308048
 11
-10.945619433
 21
12.0492272176
  0
LINE
  5
3DA
100
AcDbEntity
  8
ASSI
100
AcDbLine
 62
7
  6
CONTINUOUS
 10
-10.9439687821
 20
7.2078308048
 11
-10.945619433
 21
7.0492272176
  0
LINE
  5
3DB
100
AcDbEntity
  8
RACCORDO
100
AcDbLine
 62
7
  6
CONTINUOUS
 10
-10.9446696605
 20
2.1363718488
 11
-10.9463113968
 21
1.9918384075
  0
LINE
  5
3DC
100
AcDbEntity
  8
ASSI
100
AcDbLine
 62
7
  6
CONTINUOUS
 10
-10.9451970244
 20
2.0867043263
 11
-10.9469152217
 21
1.9454309558
  0
LINE
  5
3DD
100
AcDbEntity
  8
ASSI
100
AcDbLine
 62
7
  6
CONTINUOUS
 10
-10.9451970244
 20
-2.9132956737
 11
-10.9469152217
 21
-3.0545690442
  0
LINE
  5
3DE
100
AcDbEntity
  8
RACCORDO
100
AcDbLine
 62
7
  6
CONTINUOUS
 10
-10.9452751124
 20
-2.9203726732
 11
-10.9469449057
 21
-3.0567659598
  0
LINE
  5
3DF
100
AcDbEntity
  8
RACCORDO
100
AcDbLine
 62
7
  6
CONTINUOUS
 10
-10.9454798847
 20
12.0613925232
 11
-10.9471576649
 21
11.927718052
  0
LINE
  5
3E0
100
AcDbEntity
  8
RACCORDO
100
AcDbLine
 62
7
  6
CONTINUOUS
 10
-10.9454798847
 20
7.0613925232
 11
-10.9471576649
 21
6.927718052
  0
LINE
  5
3E1
100
AcDbEntity
  8
ASSI
100
AcDbLine
 62
7
  6
CONTINUOUS
 10
-10.945619433
 20
12.0492272176
 11
-10.9473542396
 21
11.9137396632
  0
LINE
  5
3E2
100
AcDbEntity
  8
ASSI
100
AcDbLine
 62
7
  6
CONTINUOUS
 10
-10.945619433
 20
7.0492272176
 11
-10.9473542396
 21
6.9137396632
  0
LINE
  5
3E3
100
AcDbEntity
  8
RACCORDO
100
AcDbLine
 62
7
  6
CONTINUOUS
 10
-10.9463113968
 20
1.9918384075
 11
-10.9480162903
 21
1.8691380922
  0
LINE
  5
3E4
100
AcDbEntity
  8
ASSI
100
AcDbLine
 62
7
  6
CONTINUOUS
 10
-10.9469152217
 20
1.9454309558
 11
-10.9484653277
 21
1.8409947757
  0
LINE
  5
3E5
100
AcDbEntity
  8
RACCORDO
100
AcDbLine
 62
7
  6
CONTINUOUS
 10
-10.9469449057
 20
-3.0567659598
 11
-10.9484496988
 21
-3.1580534517
  0
LINE
  5
3E6
100
AcDbEntity
  8
ASSI
100
AcDbLine
 62
7
  6
CONTINUOUS
 10
-10.9469152217
 20
-3.0545690442
 11
-10.9484653277
 21
-3.1590052243
  0
LINE
  5
3E7
100
AcDbEntity
  8
RACCORDO
100
AcDbLine
 62
7
  6
CONTINUOUS
 10
-10.9471576649
 20
11.927718052
 11
-10.9486671815
 21
11.8288785968
  0
LINE
  5
3E8
100
AcDbEntity
  8
RACCORDO
100
AcDbLine
 62
7
  6
CONTINUOUS
 10
-10.9471576649
 20
6.927718052
 11
-10.9486671815
 21
6.8288785968
  0
LINE
  5
3E9
100
AcDbEntity
  8
ASSI
100
AcDbLine
 62
7
  6
CONTINUOUS
 10
-10.9473542396
 20
11.9137396632
 11
-10.9489139755
 21
11.814503225
  0
LINE
  5
3EA
100
AcDbEntity
  8
ASSI
100
AcDbLine
 62
7
  6
CONTINUOUS
 10
-10.9473542396
 20
6.9137396632
 11
-10.9489139755
 21
6.814503225
  0
LINE
  5
3EB
100
AcDbEntity
  8
RACCORDO
100
AcDbLine
 62
7
  6
CONTINUOUS
 10
-10.9480162903
 20
1.8691380922
 11
-10.9495401285
 21
1.7801190822
  0
LINE
  5
3EC
100
AcDbEntity
  8
RACCORDO
100
AcDbLine
 62
7
  6
CONTINUOUS
 10
-10.9484496988
 20
-3.1580534517
 11
-10.9499766584
 21
-3.2421569814
  0
LINE
  5
3ED
100
AcDbEntity
  8
ASSI
100
AcDbLine
 62
7
  6
CONTINUOUS
 10
-10.9484653277
 20
1.8409947757
 11
-10.9500384631
 21
1.7547974339
  0
LINE
  5
3EE
100
AcDbEntity
  8
ASSI
100
AcDbLine
 62
7
  6
CONTINUOUS
 10
-10.9484653277
 20
-3.1590052243
 11
-10.9500384631
 21
-3.2452025661
  0
LINE
  5
3EF
100
AcDbEntity
  8
RACCORDO
100
AcDbLine
 62
7
  6
CONTINUOUS
 10
-10.9486671815
 20
11.8288785968
 11
-10.9501944217
 21
11.7472289844
  0
LINE
  5
3F0
100
AcDbEntity
  8
RACCORDO
100
AcDbLine
 62
7
  6
CONTINUOUS
 10
-10.9486671815
 20
6.8288785968
 11
-10.9501944217
 21
6.7472289844
  0
LINE
  5
3F1
100
AcDbEntity
  8
RACCORDO
100
AcDbLine
 62
7
  6
CONTINUOUS
 10
-10.9501944217
 20
11.7472289844
 11
-10.9505011364
 21
11.7328619478
  0
LINE
  5
3F2
100
AcDbEntity
  8
RACCORDO
100
AcDbLine
 62
7
  6
CONTINUOUS
 10
-10.9501944217
 20
6.7472289844
 11
-10.9505011364
 21
6.7328619478
  0
LINE
  5
3F3
100
AcDbEntity
  8
RACCORDO
100
AcDbLine
 62
7
  6
CONTINUOUS
 10
-10.9495401285
 20
1.7801190822
 11
-10.9505011364
 21
1.7328619478
  0
LINE
  5
3F4
100
AcDbEntity
  8
RACCORDO
100
AcDbLine
 62
7
  6
CONTINUOUS
 10
-10.9499766584
 20
-3.2421569814
 11
-10.9505011364
 21
-3.2671380522
  0
LINE
  5
3F5
100
AcDbEntity
  8
ASSI
100
AcDbLine
 62
7
  6
CONTINUOUS
 10
-10.9489139755
 20
11.814503225
 11
-10.9505005175
 21
11.7328627108
  0
LINE
  5
3F6
100
AcDbEntity
  8
ASSI
100
AcDbLine
 62
7
  6
CONTINUOUS
 10
-10.9489139755
 20
6.814503225
 11
-10.9505005175
 21
6.7328627108
  0
LINE
  5
3F7
100
AcDbEntity
  8
ASSI
100
AcDbLine
 62
7
  6
CONTINUOUS
 10
-10.9500384631
 20
1.7547974339
 11
-10.9505005175
 21
1.7328627108
  0
LINE
  5
3F8
100
AcDbEntity
  8
ASSI
100
AcDbLine
 62
7
  6
CONTINUOUS
 10
-10.9500384631
 20
-3.2452025661
 11
-10.9505005175
 21
-3.2671372892
  0
LWPOLYLINE
  5
3F9
100
AcDbEntity
  8
RACCORDO
100
AcDbPolyline
 62
253
  6
CONTINUOUS
 90
9
 70
0
 10
-10.6540508441
 20
11.8978371398
 10
-10.6525979664
 20
11.9346568188
 10
-10.6511695357
 20
11.9815678226
 10
-10.6497857557
 20
12.0382992647
 10
-10.6484475217
 20
12.1045200894
 10
-10.6471539385
 20
12.1798712137
 10
-10.6459225242
 20
12.2639929856
 10
-10.6447541673
 20
12.3564484105
 10
-10.6426188118
 20
12.5645168339
  0
LWPOLYLINE
  5
3FA
100
AcDbEntity
  8
ASSI
100
AcDbPolyline
 62
253
  6
CONTINUOUS
 90
9
 70
0
 10
-10.6540508441
 20
11.8978371398
 10
-10.6525979664
 20
11.9346568188
 10
-10.6511695357
 20
11.9815678226
 10
-10.6497857557
 20
12.0382992647
 10
-10.6484475217
 20
12.1045200894
 10
-10.6471539385
 20
12.1798712137
 10
-10.6459225242
 20
12.2639929856
 10
-10.6447541673
 20
12.3564484105
 10
-10.6426188118
 20
12.5645168339
  0
LWPOLYLINE
  5
3FB
100
AcDbEntity
  8
RACCORDO
100
AcDbPolyline
 62
253
  6
CONTINUOUS
 90
8
 70
0
 10
-10.6540508441
 20
6.8978371398
 10
-10.6525979664
 20
6.9346568188
 10
-10.6511695357
 20
6.9815678226
 10
-10.6497857557
 20
7.0382992647
 10
-10.6484475217
 20
7.1045200894
 10
-10.6471539385
 20
7.1798712137
 10
-10.6459225242
 20
7.2639929856
 10
-10.6436479793
 20
7.4567682598
  0
LWPOLYLINE
  5
3FC
100
AcDbEntity
  8
ASSI
100
AcDbPolyline
 62
253
  6
CONTINUOUS
 90
8
 70
0
 10
-10.6540508441
 20
6.8978371398
 10
-10.6525979664
 20
6.9346568188
 10
-10.6511695357
 20
6.9815678226
 10
-10.6497857557
 20
7.0382992647
 10
-10.6484475217
 20
7.1045200894
 10
-10.6471539385
 20
7.1798712137
 10
-10.6459225242
 20
7.2639929856
 10
-10.6436479793
 20
7.4567682598
  0
LWPOLYLINE
  5
3FD
100
AcDbEntity
  8
RACCORDO
100
AcDbPolyline
 62
253
  6
CONTINUOUS
 90
9
 70
0
 10
-10.6540508441
 20
1.8978371398
 10
-10.6525979664
 20
1.9346568188
 10
-10.6511695357
 20
1.9815678226
 10
-10.6497857557
 20
2.0382992647
 10
-10.6484475217
 20
2.1045200894
 10
-10.6471539385
 20
2.1798712137
 10
-10.6459225242
 20
2.2639929856
 10
-10.6447541673
 20
2.3564484105
 10
-10.6426188118
 20
2.5645168339
  0
LWPOLYLINE
  5
3FE
100
AcDbEntity
  8
ASSI
100
AcDbPolyline
 62
253
  6
CONTINUOUS
 90
9
 70
0
 10
-10.6540508441
 20
1.8978371398
 10
-10.6525979664
 20
1.9346568188
 10
-10.6511695357
 20
1.9815678226
 10
-10.6497857557
 20
2.0382992647
 10
-10.6484475217
 20
2.1045200894
 10
-10.6471539385
 20
2.1798712137
 10
-10.6459225242
 20
2.2639929856
 10
-10.6447541673
 20
2.3564484105
 10
-10.6426188118
 20
2.5645168339
  0
LWPOLYLINE
  5
3FF
100
AcDbEntity
  8
RACCORDO
100
AcDbPolyline
 62
253
  6
CONTINUOUS
 90
4
 70
0
 10
-10.6585359545
 20
6.85
 10
-10.6570164708
 20
6.8553504461
 10
-10.655521434
 20
6.8713400553
 10
-10.6540508441
 20
6.8978371398
  0
LWPOLYLINE
  5
400
100
AcDbEntity
  8
ASSI
100
AcDbPolyline
 62
253
  6
CONTINUOUS
 90
4
 70
0
 10
-10.6585359545
 20
6.85
 10
-10.6570164708
 20
6.8553504461
 10
-10.655521434
 20
6.8713400553
 10
-10.6540508441
 20
6.8978371398
  0
LWPOLYLINE
  5
401
100
AcDbEntity
  8
RACCORDO
100
AcDbPolyline
 62
253
  6
CONTINUOUS
 90
4
 70
0
 10
-10.6585359545
 20
1.85
 10
-10.6570164708
 20
1.8553504461
 10
-10.655521434
 20
1.8713400553
 10
-10.6540508441
 20
1.8978371398
  0
LWPOLYLINE
  5
402
100
AcDbEntity
  8
ASSI
100
AcDbPolyline
 62
253
  6
CONTINUOUS
 90
4
 70
0
 10
-10.6585359545
 20
1.85
 10
-10.6570164708
 20
1.8553504461
 10
-10.655521434
 20
1.8713400553
 10
-10.6540508441
 20
1.8978371398
  0
LINE
  5
403
100
AcDbEntity
  8
DRAFT
100
AcDbLine
 62
7
  6
CONTINUOUS
 10
3.4633443637
 20
19.8633443637
 11
3.5
 21
19.9
  0
LINE
  5
404
100
AcDbEntity
  8
DRAFT
100
AcDbLine
 62
7
  6
CONTINUOUS
 10
3.5
 20
19.7
 11
3.4633443637
 21
19.6633443637
  0
LINE
  5
405
100
AcDbEntity
  8
0
100
AcDbLine
 62
7
  6
CONTINUOUS
 10
7.1905416262
 20
22.3359700255
 11
7.2558178298
 21
22.3941821702
  0
LINE
  5
406
100
AcDbEntity
  8
0
100
AcDbLine
 62
253
  6
CONTINUOUS
 10
11.15
 20
21.900016923
 11
11.1412731322
 21
21.8941990932
  0
LINE
  5
407
100
AcDbEntity
  8
RACCORDO
100
AcDbLine
 62
253
  6
CONTINUOUS
 10
11.15
 20
17.6716990487
 11
11.0278145455
 21
17.6210881763
  0
LINE
  5
408
100
AcDbEntity
  8
CURVE
100
AcDbLine
 62
253
  6
CONTINUOUS
 10
-2.7
 20
-11.4428574085
 11
-4.0
 21
-11.7214283943
  0
LINE
  5
409
100
AcDbEntity
  8
CURVE
100
AcDbLine
 62
253
  6
CONTINUOUS
 10
-3.0714285493
 20
-11.0714283943
 11
-3.628571412
 21
-11.0714283943
  0
LINE
  5
40A
100
AcDbEntity
  8
CURVE
100
AcDbLine
 62
253
  6
CONTINUOUS
 10
-7.0714285493
 20
-11.0714283943
 11
-7.628571412
 21
-11.0714283943
  0
LINE
  5
40B
100
AcDbEntity
  8
RACCORDO
100
AcDbLine
 62
253
  6
CONTINUOUS
 10
11.0278145455
 20
-17.6210881763
 11
11.15
 21
-17.6716990487
  0
LINE
  5
40C
100
AcDbEntity
  8
CURVE
100
AcDbLine
 62
253
  6
CONTINUOUS
 10
-7.0714285493
 20
-9.4
 11
-6.8857142746
 21
-9.4928570986
  0
LINE
  5
40D
100
AcDbEntity
  8
CURVE
100
AcDbLine
 62
253
  6
CONTINUOUS
 10
-3.628571412
 20
-11.0714283943
 11
-3.814285706
 21
-10.9785716057
  0
LINE
  5
40E
100
AcDbEntity
  8
CURVE
100
AcDbLine
 62
253
  6
CONTINUOUS
 10
-3.0714285493
 20
-10.4214287043
 11
-2.8857142746
 21
-10.5142858028
  0
LINE
  5
40F
100
AcDbEntity
  8
CURVE
100
AcDbLine
 62
253
  6
CONTINUOUS
 10
-3.628571412
 20
-10.05
 11
-3.814285706
 21
-9.9571429014
  0
LINE
  5
410
100
AcDbEntity
  8
0
100
AcDbLine
 62
253
  6
CONTINUOUS
 10
11.1412731322
 20
-21.8941990932
 11
11.15
 21
-21.900016923
  0
LINE
  5
411
100
AcDbEntity
  8
0
100
AcDbLine
 62
7
  6
CONTINUOUS
 10
7.1905416262
 20
-22.3359700255
 11
7.2558178298
 21
-22.3941821702
  0
LWPOLYLINE
  5
412
100
AcDbEntity
  8
RACCORDO
100
AcDbPolyline
 62
253
  6
CONTINUOUS
 90
4
 70
0
 10
1.8928362829
 20
-17.3444487062
 10
1.9298133329
 20
-17.3775219852
 10
1.9598076211
 20
-17.4158359214
 10
1.9819077862
 20
-17.4582263652
  0
LINE
  5
413
100
AcDbEntity
  8
CURVE
100
AcDbLine
 62
253
  6
CONTINUOUS
 10
-6.8857142746
 20
-10.5142858028
 11
-6.7
 21
-10.7
  0
LINE
  5
414
100
AcDbEntity
  8
CURVE
100
AcDbLine
 62
253
  6
CONTINUOUS
 10
-8.0
 20
-8.9357141972
 11
-7.907142853
 21
-9.0285712957
  0
LINE
  5
415
100
AcDbEntity
  8
DRAFT
100
AcDbLine
 62
7
  6
CONTINUOUS
 10
3.5
 20
-19.9
 11
3.4633443637
 21
-19.8633443637
  0
LINE
  5
416
100
AcDbEntity
  8
CURVE
100
AcDbLine
 62
253
  6
CONTINUOUS
 10
-6.8857142746
 20
-9.4928570986
 11
-6.7
 21
-9.6785712957
  0
LINE
  5
417
100
AcDbEntity
  8
DRAFT
100
AcDbLine
 62
7
  6
CONTINUOUS
 10
3.5
 20
-19.7
 11
3.4633443637
 21
-19.6633443637
  0
LINE
  5
418
100
AcDbEntity
  8
CURVE
100
AcDbLine
 62
253
  6
CONTINUOUS
 10
-7.814285706
 20
-7.0785714507
 11
-8.0
 21
-6.8928570986
  0
LINE
  5
419
100
AcDbEntity
  8
CURVE
100
AcDbLine
 62
253
  6
CONTINUOUS
 10
-7.2571428239
 20
-8.8428570986
 11
-7.1642857254
 21
-8.9976190329
  0
LWPOLYLINE
  5
41A
100
AcDbEntity
  8
0
100
AcDbPolyline
 62
253
  6
CONTINUOUS
 90
34
 70
0
 10
-10.145628166
 20
23.8443375673
 10
-10.1453115153
 20
23.8340547998
 10
-10.1444313535
 20
23.8237952398
 10
-10.1429896672
 20
23.8135820427
 10
-10.1409897102
 20
23.803438259
 10
-10.1384359962
 20
23.7933867826
 10
-10.1353342888
 20
23.7834502991
 10
-10.1316915884
 20
23.7736512346
 10
-10.1275161163
 20
23.764011705
 10
-10.1228172964
 20
23.7545534661
 10
-10.1176057336
 20
23.7452978646
 10
-10.1118931901
 20
23.7362657898
 10
-10.1056925587
 20
23.7274776267
 10
-10.0990178339
 20
23.7189532096
 10
-10.0918840803
 20
23.7107117775
 10
-10.0843073982
 20
23.702771931
 10
-10.0763048877
 20
23.6951515897
 10
-10.0678946101
 20
23.6878679524
 10
-10.0590955469
 20
23.6809374578
 10
-10.049927557
 20
23.6743757476
 10
-10.040411332
 20
23.6681976311
 10
-10.0305683495
 20
23.6624170521
 10
-10.0204208246
 20
23.6570470569
 10
-10.0099916595
 20
23.6520997654
 10
-9.9993043923
 20
23.6475863432
 10
-9.9883831436
 20
23.6435169769
 10
-9.9772525619
 20
23.6399008509
 10
-9.9659377683
 20
23.6367461264
 10
-9.9544642997
 20
23.6340599235
 10
-9.9428580509
 20
23.6318483049
 10
-9.9311452166
 20
23.630116262
 10
-9.919352232
 20
23.6288677039
 10
-9.9075057131
 20
23.6281054486
 10
-9.8956323968
 20
23.6278312164
  0
LWPOLYLINE
  5
41B
100
AcDbEntity
  8
RACCORDO
100
AcDbPolyline
 62
253
  6
CONTINUOUS
 90
10
 70
0
 10
-10.6459190192
 20
15.7357507149
 10
-10.6471505549
 20
15.8199155765
 10
-10.6484443494
 20
15.8953097947
 10
-10.6497828725
 20
15.9615713764
 10
-10.6511670325
 20
16.0183402648
 10
-10.6525959211
 20
16.0652838999
 10
-10.6540492831
 20
16.1021293927
 10
-10.6555203668
 20
16.1286449494
 10
-10.6570159239
 20
16.1446457809
 10
-10.6585359545
 20
16.15
  0
LWPOLYLINE
  5
41C
100
AcDbEntity
  8
ASSI
100
AcDbPolyline
 62
253
  6
CONTINUOUS
 90
10
 70
0
 10
-10.6459190192
 20
15.7357507149
 10
-10.6471505549
 20
15.8199155765
 10
-10.6484443494
 20
15.8953097947
 10
-10.6497828725
 20
15.9615713764
 10
-10.6511670325
 20
16.0183402648
 10
-10.6525959211
 20
16.0652838999
 10
-10.6540492831
 20
16.1021293927
 10
-10.6555203668
 20
16.1286449494
 10
-10.6570159239
 20
16.1446457809
 10
-10.6585359545
 20
16.15
  0
LWPOLYLINE
  5
41D
100
AcDbEntity
  8
RACCORDO
100
AcDbPolyline
 62
253
  6
CONTINUOUS
 90
11
 70
0
 10
-10.6447506399
 20
10.6432538384
 10
-10.6459190192
 20
10.7357507149
 10
-10.6471505549
 20
10.8199155765
 10
-10.6484443494
 20
10.8953097947
 10
-10.6497828725
 20
10.9615713764
 10
-10.6511670325
 20
11.0183402648
 10
-10.6525959211
 20
11.0652838999
 10
-10.6540492831
 20
11.1021293927
 10
-10.6555203668
 20
11.1286449494
 10
-10.6570159239
 20
11.1446457809
 10
-10.6585359545
 20
11.15
  0
LWPOLYLINE
  5
41E
100
AcDbEntity
  8
ASSI
100
AcDbPolyline
 62
253
  6
CONTINUOUS
 90
11
 70
0
 10
-10.6447506399
 20
10.6432538384
 10
-10.6459190192
 20
10.7357507149
 10
-10.6471505549
 20
10.8199155765
 10
-10.6484443494
 20
10.8953097947
 10
-10.6497828725
 20
10.9615713764
 10
-10.6511670325
 20
11.0183402648
 10
-10.6525959211
 20
11.0652838999
 10
-10.6540492831
 20
11.1021293927
 10
-10.6555203668
 20
11.1286449494
 10
-10.6570159239
 20
11.1446457809
 10
-10.6585359545
 20
11.15
  0
LINE
  5
41F
100
AcDbEntity
  8
RACCORDO
100
AcDbLine
 62
253
  6
CONTINUOUS
 10
-10.6436445193
 20
15.5428954306
 11
-10.6459190192
 21
15.7357507149
  0
LINE
  5
420
100
AcDbEntity
  8
ASSI
100
AcDbLine
 62
253
  6
CONTINUOUS
 10
-10.6436445193
 20
15.5428954306
 11
-10.6459190192
 21
15.7357507149
  0
LINE
  5
421
100
AcDbEntity
  8
0
100
AcDbLine
 62
253
  6
CONTINUOUS
 10
-10.145628166
 20
-23.8443375673
 11
-10.15
 21
-23.4104851482
  0
LINE
  5
422
100
AcDbEntity
  8
0
100
AcDbLine
 62
253
  6
CONTINUOUS
 10
-9.8956323968
 20
-23.6278312164
 11
-9.9007229979
 21
-23.1226497308
  0
LINE
  5
423
100
AcDbEntity
  8
RACCORDO
100
AcDbLine
 62
253
  6
CONTINUOUS
 10
-10.6416645212
 20
15.3204393538
 11
-10.6436445193
 21
15.5428954306
  0
LINE
  5
424
100
AcDbEntity
  8
ASSI
100
AcDbLine
 62
253
  6
CONTINUOUS
 10
-10.6416645212
 20
15.3204393538
 11
-10.6436445193
 21
15.5428954306
  0
LINE
  5
425
100
AcDbEntity
  8
0
100
AcDbLine
 62
7
  6
CONTINUOUS
 10
-10.15
 20
-22.4
 11
-10.15
 21
-23.8443375673
  0
LINE
  5
426
100
AcDbEntity
  8
0
100
AcDbLine
 62
7
  6
CONTINUOUS
 10
-10.15
 20
22.4
 11
-10.15
 21
23.8443375673
  0
LINE
  5
427
100
AcDbEntity
  8
0
100
AcDbLine
 62
7
  6
CONTINUOUS
 10
-10.145628166
 20
24.2456323968
 11
-10.145628166
 21
23.8443375673
  0
LINE
  5
428
100
AcDbEntity
  8
0
100
AcDbLine
 62
7
  6
CONTINUOUS
 10
-10.145628166
 20
-23.8443375673
 11
-10.145628166
 21
-24.2456323968
  0
LINE
  5
429
100
AcDbEntity
  8
0
100
AcDbLine
 62
253
  6
CONTINUOUS
 10
-9.8956323968
 20
-23.6278312164
 11
-9.8956323968
 21
-24.495628166
  0
LINE
  5
42A
100
AcDbEntity
  8
0
100
AcDbLine
 62
253
  6
CONTINUOUS
 10
-9.8956323968
 20
23.6278312164
 11
-9.8956323968
 21
24.495628166
  0
LINE
  5
42B
100
AcDbEntity
  8
ASSI
100
AcDbLine
 62
7
  6
CONTINUOUS
 10
-9.8
 20
-3.15
 11
-9.8
 21
1.15
  0
LINE
  5
42C
100
AcDbEntity
  8
ASSI
100
AcDbLine
 62
7
  6
CONTINUOUS
 10
-9.8
 20
1.85
 11
-9.8
 21
6.15
  0
LINE
  5
42D
100
AcDbEntity
  8
ASSI
100
AcDbLine
 62
7
  6
CONTINUOUS
 10
-9.8
 20
6.85
 11
-9.8
 21
11.15
  0
LINE
  5
42E
100
AcDbEntity
  8
ASSI
100
AcDbLine
 62
7
  6
CONTINUOUS
 10
-9.8
 20
11.85
 11
-9.8
 21
16.15
  0
LINE
  5
42F
100
AcDbEntity
  8
0
100
AcDbLine
 62
253
  6
CONTINUOUS
 10
-9.2
 20
-18.6
 11
-9.2
 21
-18.2130903017
  0
LINE
  5
430
100
AcDbEntity
  8
0
100
AcDbLine
 62
253
  6
CONTINUOUS
 10
-10.15
 20
23.4104851482
 11
-10.145628166
 21
23.8443375673
  0
LINE
  5
431
100
AcDbEntity
  8
0
100
AcDbLine
 62
253
  6
CONTINUOUS
 10
-9.9007229979
 20
23.1226497308
 11
-9.8956323968
 21
23.6278312164
  0
LWPOLYLINE
  5
432
100
AcDbEntity
  8
0
100
AcDbPolyline
 62
253
  6
CONTINUOUS
 90
34
 70
0
 10
-10.145628166
 20
-23.8443375673
 10
-10.145311504
 20
-23.8340546062
 10
-10.1444313098
 20
-23.823794854
 10
-10.1429895699
 20
-23.8135814673
 10
-10.1409895398
 20
-23.8034375035
 10
-10.1384357329
 20
-23.7933858521
 10
-10.1353339075
 20
-23.7834491834
 10
-10.1316910568
 20
-23.773649913
 10
-10.1275154039
 20
-23.7640101717
 10
-10.1228163816
 20
-23.7545517387
 10
-10.1176046015
 20
-23.7452959695
 10
-10.1118918239
 20
-23.7362637463
 10
-10.1056909407
 20
-23.7274754512
 10
-10.0990159471
 20
-23.7189509186
 10
-10.0918819095
 20
-23.7107093898
 10
-10.08430493
 20
-23.7027694659
 10
-10.0763021104
 20
-23.6951490678
 10
-10.0678915133
 20
-23.6878653946
 10
-10.0590921207
 20
-23.680934885
 10
-10.0499237948
 20
-23.6743731824
 10
-10.0404072274
 20
-23.6681950956
 10
-10.0305638912
 20
-23.6624145653
 10
-10.0204159898
 20
-23.6570446328
 10
-10.0099864389
 20
-23.6520974265
 10
-9.9992988113
 20
-23.6475841265
 10
-9.9883772514
 20
-23.6435149235
 10
-9.9772463916
 20
-23.6398989896
 10
-9.9659313281
 20
-23.6367444758
 10
-9.954457306
 20
-23.6340584395
 10
-9.9428505087
 20
-23.6318470295
 10
-9.9311379997
 20
-23.630115347
 10
-9.9193465228
 20
-23.6288672183
 10
-9.907502412
 20
-23.6281053043
 10
-9.8956323968
 20
-23.6278312164
  0
LWPOLYLINE
  5
433
100
AcDbEntity
  8
RACCORDO
100
AcDbPolyline
 62
253
  6
CONTINUOUS
 90
9
 70
0
 10
-10.6540508441
 20
-3.1021628602
 10
-10.6525979664
 20
-3.0653431812
 10
-10.6511695357
 20
-3.0184321774
 10
-10.6497857557
 20
-2.9617007353
 10
-10.6484475217
 20
-2.8954799106
 10
-10.6471539385
 20
-2.8201287863
 10
-10.6459225242
 20
-2.7360070144
 10
-10.6447541673
 20
-2.6435515895
 10
-10.6426188118
 20
-2.4354831661
  0
LWPOLYLINE
  5
434
100
AcDbEntity
  8
ASSI
100
AcDbPolyline
 62
253
  6
CONTINUOUS
 90
9
 70
0
 10
-10.6540508441
 20
-3.1021628602
 10
-10.6525979664
 20
-3.0653431812
 10
-10.6511695357
 20
-3.0184321774
 10
-10.6497857557
 20
-2.9617007353
 10
-10.6484475217
 20
-2.8954799106
 10
-10.6471539385
 20
-2.8201287863
 10
-10.6459225242
 20
-2.7360070144
 10
-10.6447541673
 20
-2.6435515895
 10
-10.6426188118
 20
-2.4354831661
  0
LWPOLYLINE
  5
435
100
AcDbEntity
  8
RACCORDO
100
AcDbPolyline
 62
253
  6
CONTINUOUS
 90
4
 70
0
 10
-10.6585359545
 20
-3.15
 10
-10.6570164708
 20
-3.1446495539
 10
-10.655521434
 20
-3.1286599447
 10
-10.6540508441
 20
-3.1021628602
  0
LWPOLYLINE
  5
436
100
AcDbEntity
  8
ASSI
100
AcDbPolyline
 62
253
  6
CONTINUOUS
 90
4
 70
0
 10
-10.6585359545
 20
-3.15
 10
-10.6570164708
 20
-3.1446495539
 10
-10.655521434
 20
-3.1286599447
 10
-10.6540508441
 20
-3.1021628602
  0
LINE
  5
437
100
AcDbEntity
  8
DRAFT
100
AcDbLine
 62
7
  6
CONTINUOUS
 10
6.6047224135
 20
20.1047224135
 11
6.5043634339
 21
20.0043634339
  0
LINE
  5
438
100
AcDbEntity
  8
DRAFT
100
AcDbLine
 62
7
  6
CONTINUOUS
 10
6.6047224135
 20
19.8047224135
 11
6.5043634339
 21
19.7043634339
  0
LINE
  5
439
100
AcDbEntity
  8
CURVE
100
AcDbLine
 62
253
  6
CONTINUOUS
 10
-6.7
 20
-11.4428574085
 11
-8.0
 21
-11.7214283943
  0
LINE
  5
43A
100
AcDbEntity
  8
CURVE
100
AcDbLine
 62
253
  6
CONTINUOUS
 10
-7.628571412
 20
-10.4214287043
 11
-7.0714285493
 21
-10.4214287043
  0
LINE
  5
43B
100
AcDbEntity
  8
CURVE
100
AcDbLine
 62
253
  6
CONTINUOUS
 10
-3.628571412
 20
-10.4214287043
 11
-3.0714285493
 21
-10.4214287043
  0
LINE
  5
43C
100
AcDbEntity
  8
CURVE
100
AcDbLine
 62
253
  6
CONTINUOUS
 10
-3.0714285493
 20
-10.05
 11
-3.628571412
 21
-10.05
  0
LINE
  5
43D
100
AcDbEntity
  8
CURVE
100
AcDbLine
 62
253
  6
CONTINUOUS
 10
-7.0714285493
 20
-10.05
 11
-7.628571412
 21
-10.05
  0
LINE
  5
43E
100
AcDbEntity
  8
CURVE
100
AcDbLine
 62
253
  6
CONTINUOUS
 10
-7.628571412
 20
-9.4
 11
-7.0714285493
 21
-9.4
  0
LINE
  5
43F
100
AcDbEntity
  8
CURVE
100
AcDbLine
 62
253
  6
CONTINUOUS
 10
-3.628571412
 20
-9.4
 11
-3.0714285493
 21
-9.4
  0
LINE
  5
440
100
AcDbEntity
  8
CURVE
100
AcDbLine
 62
253
  6
CONTINUOUS
 10
-7.907142853
 20
-9.0285712957
 11
-7.4428571373
 21
-9.0285712957
  0
LINE
  5
441
100
AcDbEntity
  8
CURVE
100
AcDbLine
 62
253
  6
CONTINUOUS
 10
-3.814285706
 20
-9.0285712957
 11
-3.4428571373
 21
-9.0285712957
  0
LINE
  5
442
100
AcDbEntity
  8
CURVE
100
AcDbLine
 62
253
  6
CONTINUOUS
 10
-7.1642857254
 20
-8.9976190329
 11
-6.8857142746
 21
-8.9976190329
  0
LINE
  5
443
100
AcDbEntity
  8
CURVE
100
AcDbLine
 62
253
  6
CONTINUOUS
 10
-7.628571412
 20
-7.1714285493
 11
-7.814285706
 21
-7.0785714507
  0
LINE
  5
444
100
AcDbEntity
  8
CURVE
100
AcDbLine
 62
253
  6
CONTINUOUS
 10
-3.0714285493
 20
-9.4
 11
-2.8857142746
 21
-9.4928570986
  0
LINE
  5
445
100
AcDbEntity
  8
CURVE
100
AcDbLine
 62
253
  6
CONTINUOUS
 10
-7.0714285493
 20
-6.5214285493
 11
-6.8857142746
 21
-6.6142857254
  0
LINE
  5
446
100
AcDbEntity
  8
CURVE
100
AcDbLine
 62
253
  6
CONTINUOUS
 10
-3.814285706
 20
-10.9785716057
 11
-4.0
 21
-10.7928574085
  0
LINE
  5
447
100
AcDbEntity
  8
CURVE
100
AcDbLine
 62
253
  6
CONTINUOUS
 10
-3.814285706
 20
-9.9571429014
 11
-4.0
 21
-9.7714287043
  0
LINE
  5
448
100
AcDbEntity
  8
CURVE
100
AcDbLine
 62
253
  6
CONTINUOUS
 10
-6.8857142746
 20
-6.6142857254
 11
-6.7
 21
-6.8
  0
LINE
  5
449
100
AcDbEntity
  8
DRAFT
100
AcDbLine
 62
7
  6
CONTINUOUS
 10
6.6047224135
 20
-20.1047224135
 11
6.5043634339
 21
-20.0043634339
  0
LINE
  5
44A
100
AcDbEntity
  8
CURVE
100
AcDbLine
 62
253
  6
CONTINUOUS
 10
-2.8857142746
 20
-10.5142858028
 11
-2.7
 21
-10.7
  0
LINE
  5
44B
100
AcDbEntity
  8
DRAFT
100
AcDbLine
 62
7
  6
CONTINUOUS
 10
6.6047224135
 20
-19.8047224135
 11
6.5043634339
 21
-19.7043634339
  0
LINE
  5
44C
100
AcDbEntity
  8
CURVE
100
AcDbLine
 62
253
  6
CONTINUOUS
 10
-4.0
 20
-8.8428570986
 11
-3.814285706
 21
-9.0285712957
  0
LINE
  5
44D
100
AcDbEntity
  8
CURVE
100
AcDbLine
 62
253
  6
CONTINUOUS
 10
-2.8857142746
 20
-9.4928570986
 11
-2.7
 21
-9.6785712957
  0
LWPOLYLINE
  5
44E
100
AcDbEntity
  8
0
100
AcDbPolyline
 62
253
  6
CONTINUOUS
 90
34
 70
0
 10
-7.254371834
 20
-23.8443375673
 10
-7.2546879612
 20
-23.8340637895
 10
-7.2555668735
 20
-23.8238108791
 10
-7.257006965
 20
-23.8136019692
 10
-7.2590055309
 20
-23.8034593699
 10
-7.2615583468
 20
-23.7934067803
 10
-7.2646592669
 20
-23.7834691596
 10
-7.2683009749
 20
-23.7736697274
 10
-7.2724754803
 20
-23.7640297916
 10
-7.2771734609
 20
-23.7545709211
 10
-7.2823844175
 20
-23.7453143541
 10
-7.2880965586
 20
-23.7362811256
 10
-7.2942968909
 20
-23.7274918143
 10
-7.3009713669
 20
-23.7189663226
 10
-7.3081049647
 20
-23.7107238287
 10
-7.3156815988
 20
-23.7027829214
 10
-7.323684181
 20
-23.6951615168
 10
-7.3320946393
 20
-23.6878768325
 10
-7.3408939717
 20
-23.6809453292
 10
-7.3500623086
 20
-23.6743826581
 10
-7.3595789604
 20
-23.6682036281
 10
-7.3694224454
 20
-23.6624221869
 10
-7.3795705442
 20
-23.6570513849
 10
-7.3900003491
 20
-23.6521033459
 10
-7.4006883165
 20
-23.6475892394
 10
-7.4116103331
 20
-23.6435192505
 10
-7.4227417323
 20
-23.6399025721
 10
-7.4340573467
 20
-23.6367473785
 10
-7.4455316046
 20
-23.6340607927
 10
-7.4571386303
 20
-23.6318488662
 10
-7.468852264
 20
-23.6301165815
 10
-7.4806460789
 20
-23.6288678476
 10
-7.4924934395
 20
-23.6281054856
 10
-7.5043676032
 20
-23.6278312164
  0
LINE
  5
44F
100
AcDbEntity
  8
0
100
AcDbLine
 62
253
  6
CONTINUOUS
 10
-7.5043676032
 20
23.6278312164
 11
-7.4992770021
 21
23.1226497308
  0
LINE
  5
450
100
AcDbEntity
  8
0
100
AcDbLine
 62
253
  6
CONTINUOUS
 10
-7.254371834
 20
23.8443375673
 11
-7.25
 21
23.4104851482
  0
LINE
  5
451
100
AcDbEntity
  8
DRAFT
100
AcDbLine
 62
7
  6
CONTINUOUS
 10
-8.6
 20
20.85
 11
-8.6
 21
18.2574425998
  0
LINE
  5
452
100
AcDbEntity
  8
DRAFT
100
AcDbLine
 62
7
  6
CONTINUOUS
 10
-8.6
 20
-18.6
 11
-8.6
 21
-20.85
  0
LINE
  5
453
100
AcDbEntity
  8
0
100
AcDbLine
 62
7
  6
CONTINUOUS
 10
-8.2325449351
 20
-21.4051134101
 11
-8.2325449351
 21
-20.9087268678
  0
LINE
  5
454
100
AcDbEntity
  8
0
100
AcDbLine
 62
7
  6
CONTINUOUS
 10
-8.2325449351
 20
20.9087268678
 11
-8.2325449351
 21
21.4051134101
  0
LINE
  5
455
100
AcDbEntity
  8
0
100
AcDbLine
 62
7
  6
CONTINUOUS
 10
-8.0665695018
 20
21.5834304982
 11
-8.0665695018
 21
21.5710888434
  0
LINE
  5
456
100
AcDbEntity
  8
0
100
AcDbLine
 62
253
  6
CONTINUOUS
 10
-8.0665695018
 20
21.4537354271
 11
-8.0665695018
 21
20.9917082642
  0
LINE
  5
457
100
AcDbEntity
  8
0
100
AcDbLine
 62
7
  6
CONTINUOUS
 10
-8.0665695018
 20
20.9087268678
 11
-8.0665695018
 21
20.9
  0
LINE
  5
458
100
AcDbEntity
  8
0
100
AcDbLine
 62
7
  6
CONTINUOUS
 10
-8.0665695018
 20
-20.9
 11
-8.0665695018
 21
-20.9087268678
  0
LINE
  5
459
100
AcDbEntity
  8
0
100
AcDbLine
 62
253
  6
CONTINUOUS
 10
-8.0665695018
 20
-20.9917082642
 11
-8.0665695018
 21
-21.4537354271
  0
LINE
  5
45A
100
AcDbEntity
  8
0
100
AcDbLine
 62
7
  6
CONTINUOUS
 10
-8.0665695018
 20
-21.5710888434
 11
-8.0665695018
 21
-21.5834304982
  0
LINE
  5
45B
100
AcDbEntity
  8
CURVE
100
AcDbLine
 62
253
  6
CONTINUOUS
 10
-8.0
 20
-8.4714287043
 11
-8.0
 21
-8.9357141972
  0
LINE
  5
45C
100
AcDbEntity
  8
CURVE
100
AcDbLine
 62
253
  6
CONTINUOUS
 10
-8.0
 20
-15.3428574085
 11
-8.0
 21
-15.9
  0
LINE
  5
45D
100
AcDbEntity
  8
CURVE
100
AcDbLine
 62
253
  6
CONTINUOUS
 10
-8.0
 20
-10.7928574085
 11
-8.0
 21
-10.7
  0
LINE
  5
45E
100
AcDbEntity
  8
CURVE
100
AcDbLine
 62
253
  6
CONTINUOUS
 10
-8.0
 20
-9.7714287043
 11
-8.0
 21
-9.6785712957
  0
LINE
  5
45F
100
AcDbEntity
  8
CURVE
100
AcDbLine
 62
253
  6
CONTINUOUS
 10
-8.0
 20
-6.8928570986
 11
-8.0
 21
-6.8
  0
LINE
  5
460
100
AcDbEntity
  8
CURVE
100
AcDbLine
 62
253
  6
CONTINUOUS
 10
-7.7214285687
 20
-6.15
 11
-7.7214285687
 21
-5.5
  0
LINE
  5
461
100
AcDbEntity
  8
0
100
AcDbLine
 62
253
  6
CONTINUOUS
 10
-7.5666456542
 20
21.3359869487
 11
-7.5666456542
 21
20.9959955457
  0
LINE
  5
462
100
AcDbEntity
  8
0
100
AcDbLine
 62
253
  6
CONTINUOUS
 10
-7.5666456542
 20
-20.9959955457
 11
-7.5666456542
 21
-21.3359869487
  0
LINE
  5
463
100
AcDbEntity
  8
CURVE
100
AcDbLine
 62
253
  6
CONTINUOUS
 10
-7.5357142746
 20
-7.5428570986
 11
-7.5357142746
 21
-8.1
  0
LINE
  5
464
100
AcDbEntity
  8
0
100
AcDbLine
 62
253
  6
CONTINUOUS
 10
-7.5043676032
 20
-23.6278312164
 11
-7.5043676032
 21
-24.495628166
  0
LINE
  5
465
100
AcDbEntity
  8
0
100
AcDbLine
 62
253
  6
CONTINUOUS
 10
-7.5043676032
 20
23.6278312164
 11
-7.5043676032
 21
24.495628166
  0
LINE
  5
466
100
AcDbEntity
  8
DRAFT
100
AcDbLine
 62
7
  6
CONTINUOUS
 10
-7.4541107013
 20
-20.85
 11
-7.4541107013
 21
-18.6
  0
LINE
  5
467
100
AcDbEntity
  8
DRAFT
100
AcDbLine
 62
7
  6
CONTINUOUS
 10
-7.4541107013
 20
18.2574425998
 11
-7.4541107013
 21
20.85
  0
LINE
  5
468
100
AcDbEntity
  8
DRAFT
100
AcDbLine
 62
7
  6
CONTINUOUS
 10
-7.4366556363
 20
19.6633443637
 11
-7.4366556363
 21
18.2661694676
  0
LINE
  5
469
100
AcDbEntity
  8
DRAFT
100
AcDbLine
 62
7
  6
CONTINUOUS
 10
-7.4366556363
 20
-19.6633443637
 11
-7.4366556363
 21
-18.6
  0
LINE
  5
46A
100
AcDbEntity
  8
DRAFT
100
AcDbLine
 62
7
  6
CONTINUOUS
 10
-7.4
 20
-20.85
 11
-7.4
 21
-19.7
  0
LINE
  5
46B
100
AcDbEntity
  8
DRAFT
100
AcDbLine
 62
7
  6
CONTINUOUS
 10
-7.4
 20
19.7
 11
-7.4
 21
20.85
  0
LINE
  5
46C
100
AcDbEntity
  8
DRAFT
100
AcDbLine
 62
7
  6
CONTINUOUS
 10
-7.3
 20
-20.9
 11
-7.3
 21
-20.0
  0
LINE
  5
46D
100
AcDbEntity
  8
DRAFT
100
AcDbLine
 62
7
  6
CONTINUOUS
 10
-7.3
 20
20.0
 11
-7.3
 21
20.9
  0
LINE
  5
46E
100
AcDbEntity
  8
DRAFT
100
AcDbLine
 62
7
  6
CONTINUOUS
 10
-7.2956365661
 20
-19.7043634339
 11
-7.2956365661
 21
-20.0
  0
LINE
  5
46F
100
AcDbEntity
  8
DRAFT
100
AcDbLine
 62
7
  6
CONTINUOUS
 10
-7.2956365661
 20
19.7043634339
 11
-7.2956365661
 21
20.0
  0
LINE
  5
470
100
AcDbEntity
  8
CURVE
100
AcDbLine
 62
253
  6
CONTINUOUS
 10
-7.2571428239
 20
-15.7142858028
 11
-7.2571428239
 21
-15.3428574085
  0
LINE
  5
471
100
AcDbEntity
  8
CURVE
100
AcDbLine
 62
253
  6
CONTINUOUS
 10
-7.2571428239
 20
-8.8428570986
 11
-7.2571428239
 21
-8.6571429014
  0
LINE
  5
472
100
AcDbEntity
  8
0
100
AcDbLine
 62
7
  6
CONTINUOUS
 10
-7.254371834
 20
-24.2456323968
 11
-7.254371834
 21
-23.8443375673
  0
LINE
  5
473
100
AcDbEntity
  8
0
100
AcDbLine
 62
7
  6
CONTINUOUS
 10
-7.254371834
 20
23.8443375673
 11
-7.254371834
 21
24.2456323968
  0
LINE
  5
474
100
AcDbEntity
  8
0
100
AcDbLine
 62
7
  6
CONTINUOUS
 10
-7.25
 20
-22.4
 11
-7.25
 21
-23.8443375673
  0
LINE
  5
475
100
AcDbEntity
  8
0
100
AcDbLine
 62
7
  6
CONTINUOUS
 10
-7.25
 20
22.4
 11
-7.25
 21
23.8443375673
  0
LINE
  5
476
100
AcDbEntity
  8
DRAFT
100
AcDbLine
 62
7
  6
CONTINUOUS
 10
-7.1952775865
 20
20.9959955457
 11
-7.1952775865
 21
19.8047224135
  0
LINE
  5
477
100
AcDbEntity
  8
DRAFT
100
AcDbLine
 62
7
  6
CONTINUOUS
 10
-7.1952775865
 20
-19.8047224135
 11
-7.1952775865
 21
-20.9959955457
  0
LINE
  5
478
100
AcDbEntity
  8
0
100
AcDbLine
 62
253
  6
CONTINUOUS
 10
-7.4992770021
 20
-23.1226497308
 11
-7.5043676032
 21
-23.6278312164
  0
LINE
  5
479
100
AcDbEntity
  8
0
100
AcDbLine
 62
253
  6
CONTINUOUS
 10
-7.25
 20
-23.4104851482
 11
-7.254371834
 21
-23.8443375673
  0
LWPOLYLINE
  5
47A
100
AcDbEntity
  8
0
100
AcDbPolyline
 62
253
  6
CONTINUOUS
 90
34
 70
0
 10
-7.254371834
 20
23.8443375673
 10
-7.2546884847
 20
23.8340547998
 10
-7.2555686465
 20
23.8237952398
 10
-7.2570103328
 20
23.8135820427
 10
-7.2590102898
 20
23.803438259
 10
-7.2615640038
 20
23.7933867826
 10
-7.2646657112
 20
23.7834502991
 10
-7.2683084116
 20
23.7736512346
 10
-7.2724838837
 20
23.764011705
 10
-7.2771827036
 20
23.7545534661
 10
-7.2823942664
 20
23.7452978646
 10
-7.2881068099
 20
23.7362657898
 10
-7.2943074413
 20
23.7274776267
 10
-7.3009821661
 20
23.7189532096
 10
-7.3081159197
 20
23.7107117775
 10
-7.3156926018
 20
23.702771931
 10
-7.3236951123
 20
23.6951515897
 10
-7.3321053899
 20
23.6878679524
 10
-7.3409044531
 20
23.6809374578
 10
-7.350072443
 20
23.6743757476
 10
-7.359588668
 20
23.6681976311
 10
-7.3694316505
 20
23.6624170521
 10
-7.3795791754
 20
23.6570470569
 10
-7.3900083405
 20
23.6520997654
 10
-7.4006956077
 20
23.6475863432
 10
-7.4116168564
 20
23.6435169769
 10
-7.4227474381
 20
23.6399008509
 10
-7.4340622317
 20
23.6367461264
 10
-7.4455357003
 20
23.6340599235
 10
-7.4571419491
 20
23.6318483049
 10
-7.4688547834
 20
23.630116262
 10
-7.480647768
 20
23.6288677039
 10
-7.4924942869
 20
23.6281054486
 10
-7.5043676032
 20
23.6278312164
  0
LINE
  5
47B
100
AcDbEntity
  8
SMUSSO
100
AcDbLine
 62
7
  6
CONTINUOUS
 10
-0.25
 20
11.75
 11
0.25
 21
12.25
  0
LINE
  5
47C
100
AcDbEntity
  8
ASSI
100
AcDbLine
 62
7
  6
CONTINUOUS
 10
-0.25
 20
11.75
 11
0.25
 21
12.25
  0
LINE
  5
47D
100
AcDbEntity
  8
SMUSSO
100
AcDbLine
 62
7
  6
CONTINUOUS
 10
4.75
 20
16.25
 11
4.25
 21
15.75
  0
LINE
  5
47E
100
AcDbEntity
  8
ASSI
100
AcDbLine
 62
7
  6
CONTINUOUS
 10
4.75
 20
16.25
 11
4.25
 21
15.75
  0
LINE
  5
47F
100
AcDbEntity
  8
CURVE
100
AcDbLine
 62
253
  6
CONTINUOUS
 10
10.3
 20
10.5285712957
 11
9.0
 21
10.1571429014
  0
LINE
  5
480
100
AcDbEntity
  8
CURVE
100
AcDbLine
 62
253
  6
CONTINUOUS
 10
-3.2571428239
 20
-8.4714287043
 11
-2.7
 21
-8.4714287043
  0
LINE
  5
481
100
AcDbEntity
  8
CURVE
100
AcDbLine
 62
253
  6
CONTINUOUS
 10
-3.0714285493
 20
-7.1714285493
 11
-3.628571412
 21
-7.1714285493
  0
LINE
  5
482
100
AcDbEntity
  8
CURVE
100
AcDbLine
 62
253
  6
CONTINUOUS
 10
-7.0714285493
 20
-7.1714285493
 11
-7.628571412
 21
-7.1714285493
  0
LINE
  5
483
100
AcDbEntity
  8
CURVE
100
AcDbLine
 62
253
  6
CONTINUOUS
 10
-7.7214285687
 20
-5.5
 11
-6.7
 21
-5.7785714313
  0
LINE
  5
484
100
AcDbEntity
  8
CURVE
100
AcDbLine
 62
253
  6
CONTINUOUS
 10
-3.628571412
 20
-7.1714285493
 11
-3.814285706
 21
-7.0785714507
  0
LINE
  5
485
100
AcDbEntity
  8
CURVE
100
AcDbLine
 62
253
  6
CONTINUOUS
 10
-3.0714285493
 20
-6.5214285493
 11
-2.8857142746
 21
-6.6142857254
  0
LINE
  5
486
100
AcDbEntity
  8
CURVE
100
AcDbLine
 62
253
  6
CONTINUOUS
 10
-3.814285706
 20
-7.0785714507
 11
-4.0
 21
-6.8928570986
  0
LWPOLYLINE
  5
487
100
AcDbEntity
  8
0
100
AcDbPolyline
 62
7
  6
CONTINUOUS
 90
34
 70
0
 10
-7.254371834
 20
24.2456323968
 10
-7.2546553848
 20
24.2575274183
 10
-7.2555045897
 20
24.269395495
 10
-7.2569175251
 20
24.2812097429
 10
-7.2588909904
 20
24.2929434001
 10
-7.2614205152
 20
24.3045698874
 10
-7.2645003696
 20
24.316062868
 10
-7.268123577
 20
24.3273963078
 10
-7.27228193
 20
24.338544534
 10
-7.2769660091
 20
24.3494822935
 10
-7.2821652038
 20
24.3601848096
 10
-7.2878677366
 20
24.3706278389
 10
-7.2940606902
 20
24.3807877255
 10
-7.300730036
 20
24.390641455
 10
-7.3078606666
 20
24.4001667064
 10
-7.3154364293
 20
24.4093419031
 10
-7.3234401635
 20
24.4181462611
 10
-7.3318537389
 20
24.4265598365
 10
-7.3406580969
 20
24.4345635707
 10
-7.3498332936
 20
24.4421393334
 10
-7.359358545
 20
24.449269964
 10
-7.3692122745
 20
24.4559393098
 10
-7.3793721611
 20
24.4621322634
 10
-7.3898151904
 20
24.4678347962
 10
-7.4005177065
 20
24.4730339909
 10
-7.411455466
 20
24.47771807
 10
-7.4226036922
 20
24.481876423
 10
-7.433937132
 20
24.4854996304
 10
-7.4454301126
 20
24.4885794848
 10
-7.4570565999
 20
24.4911090096
 10
-7.4687902571
 20
24.4930824749
 10
-7.480604505
 20
24.4944954103
 10
-7.4924725817
 20
24.4953446152
 10
-7.5043676032
 20
24.495628166
  0
LWPOLYLINE
  5
488
100
AcDbEntity
  8
0
100
AcDbPolyline
 62
7
  6
CONTINUOUS
 90
4
 70
0
 10
-7.25
 20
24.2500042308
 10
-7.2502831502
 20
24.261899516
 10
-7.2511319658
 20
24.2737678556
 10
-7.2525445259
 20
24.2855823661
  0
LINE
  5
489
100
AcDbEntity
  8
CURVE
100
AcDbLine
 62
253
  6
CONTINUOUS
 10
-6.7
 20
-6.8
 11
-6.7
 21
-6.8928570986
  0
LINE
  5
48A
100
AcDbEntity
  8
CURVE
100
AcDbLine
 62
253
  6
CONTINUOUS
 10
-6.7
 20
-9.6785712957
 11
-6.7
 21
-9.7714287043
  0
LINE
  5
48B
100
AcDbEntity
  8
CURVE
100
AcDbLine
 62
253
  6
CONTINUOUS
 10
-6.7
 20
-10.7
 11
-6.7
 21
-10.7928574085
  0
LINE
  5
48C
100
AcDbEntity
  8
CURVE
100
AcDbLine
 62
253
  6
CONTINUOUS
 10
-6.7
 20
-14.2285716057
 11
-6.7
 21
-14.9714283943
  0
LINE
  5
48D
100
AcDbEntity
  8
CURVE
100
AcDbLine
 62
253
  6
CONTINUOUS
 10
-6.7
 20
-15.3428574085
 11
-6.7
 21
-15.9
  0
LINE
  5
48E
100
AcDbEntity
  8
CURVE
100
AcDbLine
 62
253
  6
CONTINUOUS
 10
-6.7
 20
-8.8428570986
 11
-6.7
 21
-8.4714287043
  0
LINE
  5
48F
100
AcDbEntity
  8
DRAFT
100
AcDbLine
 62
7
  6
CONTINUOUS
 10
-6.6047224135
 20
20.1047224135
 11
-6.6047224135
 21
19.8047224135
  0
LINE
  5
490
100
AcDbEntity
  8
DRAFT
100
AcDbLine
 62
7
  6
CONTINUOUS
 10
-6.6047224135
 20
-19.8047224135
 11
-6.6047224135
 21
-20.1047224135
  0
LINE
  5
491
100
AcDbEntity
  8
DRAFT
100
AcDbLine
 62
7
  6
CONTINUOUS
 10
-6.5043634339
 20
20.0043634339
 11
-6.5043634339
 21
19.7043634339
  0
LINE
  5
492
100
AcDbEntity
  8
DRAFT
100
AcDbLine
 62
7
  6
CONTINUOUS
 10
-6.5043634339
 20
-19.7043634339
 11
-6.5043634339
 21
-20.0043634339
  0
LINE
  5
493
100
AcDbEntity
  8
CURVE
100
AcDbLine
 62
7
  6
CONTINUOUS
 10
-5.875
 20
9.382444
 11
-5.875
 21
10.842944
  0
LINE
  5
494
100
AcDbEntity
  8
ASSI
100
AcDbLine
 62
253
  6
CONTINUOUS
 10
-5.7
 20
-18.6
 11
-5.7
 21
-18.2130903017
  0
LINE
  5
495
100
AcDbEntity
  8
CURVE
100
AcDbLine
 62
253
  6
CONTINUOUS
 10
-5.5
 20
-4.2
 11
-5.5
 21
-4.5
  0
LINE
  5
496
100
AcDbEntity
  8
CURVE
100
AcDbLine
 62
253
  6
CONTINUOUS
 10
-5.5
 20
-1.8
 11
-5.5
 21
-1.5
  0
LWPOLYLINE
  5
497
100
AcDbEntity
  8
0
100
AcDbPolyline
 62
7
  6
CONTINUOUS
 90
4
 70
0
 10
7.8176867079
 20
21.6973892622
 10
7.7640305237
 20
21.6182592016
 10
7.7366647097
 20
21.5782691211
 10
7.7088773055
 20
21.5381379605
  0
LWPOLYLINE
  5
498
100
AcDbEntity
  8
0
100
AcDbPolyline
 62
7
  6
CONTINUOUS
 90
4
 70
0
 10
7.7088773055
 20
21.5381379605
 10
7.6239952928
 20
21.4169965568
 10
7.595405051
 20
21.3764658744
 10
7.5666456542
 20
21.3359869487
  0
LINE
  5
499
100
AcDbEntity
  8
CURVE
100
AcDbLine
 62
253
  6
CONTINUOUS
 10
9.185714294
 20
11.4571429014
 11
9.371428588
 21
11.55
  0
LINE
  5
49A
100
AcDbEntity
  8
CURVE
100
AcDbLine
 62
253
  6
CONTINUOUS
 10
10.1142857254
 20
10.9928570986
 11
9.9285714507
 21
10.9
  0
LINE
  5
49B
100
AcDbEntity
  8
CURVE
100
AcDbLine
 62
253
  6
CONTINUOUS
 10
-7.628571412
 20
-6.5214285493
 11
-7.0714285493
 21
-6.5214285493
  0
LINE
  5
49C
100
AcDbEntity
  8
CURVE
100
AcDbLine
 62
253
  6
CONTINUOUS
 10
-3.628571412
 20
-6.5214285493
 11
-3.0714285493
 21
-6.5214285493
  0
LINE
  5
49D
100
AcDbEntity
  8
CURVE
100
AcDbLine
 62
253
  6
CONTINUOUS
 10
-8.0
 20
-5.9333333462
 11
-7.35
 21
-5.9333333462
  0
LINE
  5
49E
100
AcDbEntity
  8
CURVE
100
AcDbLine
 62
253
  6
CONTINUOUS
 10
-4.0
 20
-5.9333333462
 11
-3.35
 21
-5.9333333462
  0
LINE
  5
49F
100
AcDbEntity
  8
CURVE
100
AcDbLine
 62
253
  6
CONTINUOUS
 10
-3.7214285687
 20
-5.5
 11
-2.7
 21
-5.7785714313
  0
LINE
  5
4A0
100
AcDbEntity
  8
CURVE
100
AcDbLine
 62
253
  6
CONTINUOUS
 10
-2.8857142746
 20
-6.6142857254
 11
-2.7
 21
-6.8
  0
LINE
  5
4A1
100
AcDbEntity
  8
CURVE
100
AcDbLine
 62
253
  6
CONTINUOUS
 10
-6.3485281374
 20
-2.1514718626
 11
-6.5606601718
 21
-1.9393398282
  0
LINE
  5
4A2
100
AcDbEntity
  8
0
100
AcDbLine
 62
7
  6
CONTINUOUS
 10
7.5666456542
 20
-21.3359869487
 11
7.595405051
 21
-21.3764658744
  0
LINE
  5
4A3
100
AcDbEntity
  8
0
100
AcDbLine
 62
7
  6
CONTINUOUS
 10
7.595405051
 20
-21.3764658744
 11
7.6524163795
 21
-21.4575112906
  0
LWPOLYLINE
  5
4A4
100
AcDbEntity
  8
0
100
AcDbPolyline
 62
7
  6
CONTINUOUS
 90
3
 70
0
 10
7.6524163795
 20
-21.4575112906
 10
7.7088773055
 20
-21.5381379605
 10
7.7366647097
 20
-21.5782691211
  0
LWPOLYLINE
  5
4A5
100
AcDbEntity
  8
0
100
AcDbPolyline
 62
7
  6
CONTINUOUS
 90
3
 70
0
 10
7.7366647097
 20
-21.5782691211
 10
7.7910378565
 20
-21.6579919507
 10
7.8176867079
 20
-21.6973892622
  0
LINE
  5
4A6
100
AcDbEntity
  8
CURVE
100
AcDbLine
 62
7
  6
CONTINUOUS
 10
-5.125
 20
10.842944
 11
-5.125
 21
9.382444
  0
LINE
  5
4A7
100
AcDbEntity
  8
ASSI
100
AcDbLine
 62
7
  6
CONTINUOUS
 10
-4.7
 20
-18.2130903017
 11
-4.7
 21
-18.6
  0
LINE
  5
4A8
100
AcDbEntity
  8
0
100
AcDbLine
 62
7
  6
CONTINUOUS
 10
-4.45
 20
24.0
 11
-4.45
 21
23.3679449472
  0
LINE
  5
4A9
100
AcDbEntity
  8
0
100
AcDbLine
 62
7
  6
CONTINUOUS
 10
-4.45
 20
22.9320550528
 11
-4.45
 21
22.4
  0
LINE
  5
4AA
100
AcDbEntity
  8
0
100
AcDbLine
 62
7
  6
CONTINUOUS
 10
-4.45
 20
-22.4
 11
-4.45
 21
-22.9320550528
  0
LINE
  5
4AB
100
AcDbEntity
  8
0
100
AcDbLine
 62
7
  6
CONTINUOUS
 10
-4.45
 20
-23.3679449472
 11
-4.45
 21
-24.0
  0
LINE
  5
4AC
100
AcDbEntity
  8
0
100
AcDbLine
 62
7
  6
CONTINUOUS
 10
-4.406077753
 20
-23.9538922731
 11
-4.406077753
 21
-22.356077753
  0
LINE
  5
4AD
100
AcDbEntity
  8
0
100
AcDbLine
 62
7
  6
CONTINUOUS
 10
-4.406077753
 20
22.356077753
 11
-4.406077753
 21
23.9538922731
  0
LINE
  5
4AE
100
AcDbEntity
  8
RACCORDO
100
AcDbLine
 62
7
  6
CONTINUOUS
 10
-4.0130903017
 20
19.3131017248
 11
-4.0130903017
 21
18.5130788786
  0
LINE
  5
4AF
100
AcDbEntity
  8
ASSI
100
AcDbLine
 62
7
  6
CONTINUOUS
 10
-4.0130903017
 20
19.3131017248
 11
-4.0130903017
 21
18.5130788786
  0
LINE
  5
4B0
100
AcDbEntity
  8
RACCORDO
100
AcDbLine
 62
7
  6
CONTINUOUS
 10
-4.0130903017
 20
-19.3131017248
 11
-4.0130903017
 21
-18.2130903017
  0
LINE
  5
4B1
100
AcDbEntity
  8
ASSI
100
AcDbLine
 62
7
  6
CONTINUOUS
 10
-4.0130903017
 20
-19.3131017248
 11
-4.0130903017
 21
-18.2130903017
  0
LINE
  5
4B2
100
AcDbEntity
  8
CURVE
100
AcDbLine
 62
253
  6
CONTINUOUS
 10
-4.0
 20
-2.6
 11
-4.0
 21
-3.4
  0
LINE
  5
4B3
100
AcDbEntity
  8
CURVE
100
AcDbLine
 62
253
  6
CONTINUOUS
 10
-4.0
 20
-8.4714287043
 11
-4.0
 21
-8.8428570986
  0
LINE
  5
4B4
100
AcDbEntity
  8
CURVE
100
AcDbLine
 62
253
  6
CONTINUOUS
 10
-4.0
 20
-14.2285716057
 11
-4.0
 21
-14.6928574085
  0
LINE
  5
4B5
100
AcDbEntity
  8
CURVE
100
AcDbLine
 62
253
  6
CONTINUOUS
 10
-4.0
 20
-15.0642858028
 11
-4.0
 21
-15.6214283943
  0
LINE
  5
4B6
100
AcDbEntity
  8
CURVE
100
AcDbLine
 62
253
  6
CONTINUOUS
 10
-4.0
 20
-10.7928574085
 11
-4.0
 21
-10.7
  0
LINE
  5
4B7
100
AcDbEntity
  8
CURVE
100
AcDbLine
 62
253
  6
CONTINUOUS
 10
-4.0
 20
-9.7714287043
 11
-4.0
 21
-9.6785712957
  0
LINE
  5
4B8
100
AcDbEntity
  8
CURVE
100
AcDbLine
 62
253
  6
CONTINUOUS
 10
-4.0
 20
-6.8928570986
 11
-4.0
 21
-6.8
  0
LINE
  5
4B9
100
AcDbEntity
  8
CURVE
100
AcDbLine
 62
253
  6
CONTINUOUS
 10
-3.7214285687
 20
-6.15
 11
-3.7214285687
 21
-5.5
  0
LINE
  5
4BA
100
AcDbEntity
  8
CURVE
100
AcDbLine
 62
253
  6
CONTINUOUS
 10
-3.5357142746
 20
-7.5428570986
 11
-3.5357142746
 21
-8.1
  0
LINE
  5
4BB
100
AcDbEntity
  8
DRAFT
100
AcDbLine
 62
7
  6
CONTINUOUS
 10
-3.5
 20
-19.9
 11
-3.5
 21
-19.7
  0
LINE
  5
4BC
100
AcDbEntity
  8
DRAFT
100
AcDbLine
 62
7
  6
CONTINUOUS
 10
-3.5
 20
19.7
 11
-3.5
 21
19.9
  0
LINE
  5
4BD
100
AcDbEntity
  8
DRAFT
100
AcDbLine
 62
7
  6
CONTINUOUS
 10
-3.4633443637
 20
-19.8633443637
 11
-3.4633443637
 21
-19.6633443637
  0
LINE
  5
4BE
100
AcDbEntity
  8
DRAFT
100
AcDbLine
 62
7
  6
CONTINUOUS
 10
-3.4633443637
 20
19.6633443637
 11
-3.4633443637
 21
19.8633443637
  0
LINE
  5
4BF
100
AcDbEntity
  8
RACCORDO
100
AcDbLine
 62
7
  6
CONTINUOUS
 10
1.9905723476
 20
18.2316174985
 11
1.981003484
 21
18.2
  0
LINE
  5
4C0
100
AcDbEntity
  8
SMUSSO
100
AcDbLine
 62
7
  6
CONTINUOUS
 10
-0.25
 20
6.75
 11
0.25
 21
7.25
  0
LINE
  5
4C1
100
AcDbEntity
  8
ASSI
100
AcDbLine
 62
7
  6
CONTINUOUS
 10
-0.25
 20
6.75
 11
0.25
 21
7.25
  0
LINE
  5
4C2
100
AcDbEntity
  8
SMUSSO
100
AcDbLine
 62
7
  6
CONTINUOUS
 10
4.75
 20
11.25
 11
4.25
 21
10.75
  0
LINE
  5
4C3
100
AcDbEntity
  8
ASSI
100
AcDbLine
 62
7
  6
CONTINUOUS
 10
4.75
 20
11.25
 11
4.25
 21
10.75
  0
LINE
  5
4C4
100
AcDbEntity
  8
SMUSSO
100
AcDbLine
 62
7
  6
CONTINUOUS
 10
4.75
 20
-3.5
 11
-0.25
 21
-3.5
  0
LINE
  5
4C5
100
AcDbEntity
  8
ASSI
100
AcDbLine
 62
7
  6
CONTINUOUS
 10
4.75
 20
-3.5
 11
-0.25
 21
-3.5
  0
LINE
  5
4C6
100
AcDbEntity
  8
CURVE
100
AcDbLine
 62
253
  6
CONTINUOUS
 10
-4.0
 20
-3.4
 11
-4.583484861
 21
-3.4
  0
LINE
  5
4C7
100
AcDbEntity
  8
DRAFT
100
AcDbLine
 62
7
  6
CONTINUOUS
 10
-3.5005407234
 20
20.0619607613
 11
-3.5001534346
 21
20.0175818656
  0
LINE
  5
4C8
100
AcDbEntity
  8
0
100
AcDbLine
 62
7
  6
CONTINUOUS
 10
-3.5205544631
 20
22.355308184
 11
-3.5348577163
 21
23.994298655
  0
LINE
  5
4C9
100
AcDbEntity
  8
0
100
AcDbLine
 62
7
  6
CONTINUOUS
 10
-2.992145819
 20
20.8
 11
-3.0057033248
 21
22.3535362903
  0
LINE
  5
4CA
100
AcDbEntity
  8
0
100
AcDbLine
 62
253
  6
CONTINUOUS
 10
-1.5009544263
 20
-20.0696217518
 11
-1.5015242349
 21
-19.8844866796
  0
LINE
  5
4CB
100
AcDbEntity
  8
CURVE
100
AcDbLine
 62
253
  6
CONTINUOUS
 10
-3.2571428239
 20
-15.4357141972
 11
-3.2571428239
 21
-15.0642858028
  0
LINE
  5
4CC
100
AcDbEntity
  8
CURVE
100
AcDbLine
 62
253
  6
CONTINUOUS
 10
-3.2571428239
 20
-8.8428570986
 11
-3.2571428239
 21
-8.4714287043
  0
LINE
  5
4CD
100
AcDbEntity
  8
CURVE
100
AcDbLine
 62
253
  6
CONTINUOUS
 10
-2.7
 20
-6.8
 11
-2.7
 21
-6.8928570986
  0
LINE
  5
4CE
100
AcDbEntity
  8
CURVE
100
AcDbLine
 62
253
  6
CONTINUOUS
 10
-2.7
 20
-8.4714287043
 11
-2.7
 21
-9.0285712957
  0
LINE
  5
4CF
100
AcDbEntity
  8
CURVE
100
AcDbLine
 62
253
  6
CONTINUOUS
 10
-2.7
 20
-9.6785712957
 11
-2.7
 21
-9.7714287043
  0
LINE
  5
4D0
100
AcDbEntity
  8
CURVE
100
AcDbLine
 62
253
  6
CONTINUOUS
 10
-2.7
 20
-10.7
 11
-2.7
 21
-10.7928574085
  0
LINE
  5
4D1
100
AcDbEntity
  8
CURVE
100
AcDbLine
 62
253
  6
CONTINUOUS
 10
-2.7
 20
-15.0642858028
 11
-2.7
 21
-15.6214283943
  0
LINE
  5
4D2
100
AcDbEntity
  8
0
100
AcDbLine
 62
7
  6
CONTINUOUS
 10
-2.5
 20
-18.3
 11
-2.5
 21
-16.6
  0
LINE
  5
4D3
100
AcDbEntity
  8
ASSI
100
AcDbLine
 62
7
  6
CONTINUOUS
 10
-2.5
 20
-18.3
 11
-2.5
 21
-16.6
  0
LINE
  5
4D4
100
AcDbEntity
  8
0
100
AcDbLine
 62
7
  6
CONTINUOUS
 10
-2.5
 20
16.6
 11
-2.5
 21
18.3
  0
LINE
  5
4D5
100
AcDbEntity
  8
ASSI
100
AcDbLine
 62
7
  6
CONTINUOUS
 10
-2.5
 20
16.6
 11
-2.5
 21
18.3
  0
LINE
  5
4D6
100
AcDbEntity
  8
RACCORDO
100
AcDbLine
 62
253
  6
CONTINUOUS
 10
-2.1464466094
 20
18.2325400167
 11
-2.1464466094
 21
18.3
  0
LINE
  5
4D7
100
AcDbEntity
  8
0
100
AcDbLine
 62
7
  6
CONTINUOUS
 10
-2.1
 20
18.2
 11
-2.1
 21
18.232181202
  0
LINE
  5
4D8
100
AcDbEntity
  8
RACCORDO
100
AcDbLine
 62
7
  6
CONTINUOUS
 10
-2.0
 20
18.2
 11
-2.0
 21
18.2330485889
  0
LINE
  5
4D9
100
AcDbEntity
  8
RACCORDO
100
AcDbLine
 62
7
  6
CONTINUOUS
 10
-1.9825893107
 20
-18.3
 11
-1.9825893107
 21
-18.2
  0
LINE
  5
4DA
100
AcDbEntity
  8
ASSI
100
AcDbLine
 62
7
  6
CONTINUOUS
 10
-1.9825893107
 20
-18.3
 11
-1.9825893107
 21
-18.2
  0
LINE
  5
4DB
100
AcDbEntity
  8
RACCORDO
100
AcDbLine
 62
7
  6
CONTINUOUS
 10
-1.9040044543
 20
18.2
 11
-1.9040044543
 21
18.3
  0
LINE
  5
4DC
100
AcDbEntity
  8
ASSI
100
AcDbLine
 62
7
  6
CONTINUOUS
 10
-1.9040044543
 20
18.2
 11
-1.9040044543
 21
18.3
  0
LINE
  5
4DD
100
AcDbEntity
  8
RACCORDO
100
AcDbLine
 62
253
  6
CONTINUOUS
 10
-1.7
 20
-17.3
 11
-1.7
 21
-17.25
  0
LINE
  5
4DE
100
AcDbEntity
  8
RACCORDO
100
AcDbLine
 62
253
  6
CONTINUOUS
 10
-1.7
 20
17.25
 11
-1.7
 21
17.3159679184
  0
LINE
  5
4DF
100
AcDbEntity
  8
0
100
AcDbLine
 62
253
  6
CONTINUOUS
 10
-1.5015242349
 20
19.8844866796
 11
-1.5009544263
 21
20.0696217518
  0
LINE
  5
4E0
100
AcDbEntity
  8
DRAFT
100
AcDbLine
 62
7
  6
CONTINUOUS
 10
-3.5005407234
 20
-20.0619607613
 11
-3.5001534346
 21
-20.0175818656
  0
LINE
  5
4E1
100
AcDbEntity
  8
0
100
AcDbLine
 62
7
  6
CONTINUOUS
 10
-3.5205544631
 20
-22.355308184
 11
-3.5348577163
 21
-23.994298655
  0
LINE
  5
4E2
100
AcDbEntity
  8
0
100
AcDbLine
 62
7
  6
CONTINUOUS
 10
-2.992145819
 20
-20.8
 11
-3.0057033248
 21
-22.3535362903
  0
LWPOLYLINE
  5
4E3
100
AcDbEntity
  8
RACCORDO
100
AcDbPolyline
 62
253
  6
CONTINUOUS
 90
5
 70
0
 10
1.9955473619
 20
17.503941282
 10
1.9822464458
 20
17.4590629059
 10
1.9603851756
 20
17.4167346696
 10
1.930459935
 20
17.3782135783
 10
1.8933221907
 20
17.3448141709
  0
LWPOLYLINE
  5
4E4
100
AcDbEntity
  8
0
100
AcDbPolyline
 62
7
  6
CONTINUOUS
 90
9
 70
0
 10
7.2679073742
 20
24.3429184493
 10
7.2637492787
 20
24.3317699738
 10
7.2601263583
 20
24.320436279
 10
7.2570468183
 20
24.3089430388
 10
7.2545176323
 20
24.2973162875
 10
7.2525445259
 20
24.2855823661
 10
7.2511319658
 20
24.2737678556
 10
7.2502831502
 20
24.261899516
 10
7.25
 20
24.2500042308
  0
LINE
  5
4E5
100
AcDbEntity
  8
CURVE
100
AcDbLine
 62
253
  6
CONTINUOUS
 10
6.1357142918
 20
9.5
 11
6.0
 21
9.3642857082
  0
LINE
  5
4E6
100
AcDbEntity
  8
CURVE
100
AcDbLine
 62
253
  6
CONTINUOUS
 10
10.1142857254
 20
12.85
 11
10.3
 21
13.0357142746
  0
LINE
  5
4E7
100
AcDbEntity
  8
CURVE
100
AcDbLine
 62
253
  6
CONTINUOUS
 10
-6.3485281374
 20
-3.8485281374
 11
-6.5606601718
 21
-4.0606601718
  0
LINE
  5
4E8
100
AcDbEntity
  8
CURVE
100
AcDbLine
 62
253
  6
CONTINUOUS
 10
9.5571428627
 20
11.9214285493
 11
9.7428571761
 21
12.1071429014
  0
LINE
  5
4E9
100
AcDbEntity
  8
CURVE
100
AcDbLine
 62
253
  6
CONTINUOUS
 10
9.0
 20
11.2714285493
 11
9.185714294
 21
11.4571429014
  0
LINE
  5
4EA
100
AcDbEntity
  8
CURVE
100
AcDbLine
 62
253
  6
CONTINUOUS
 10
10.1142857254
 20
11.9523809671
 11
10.3
 21
12.1071429014
  0
LINE
  5
4EB
100
AcDbEntity
  8
RACCORDO
100
AcDbLine
 62
7
  6
CONTINUOUS
 10
-10.7130788782
 20
-3.15
 11
-9.8
 21
-3.15
  0
LINE
  5
4EC
100
AcDbEntity
  8
ASSI
100
AcDbLine
 62
7
  6
CONTINUOUS
 10
-10.7130788782
 20
-3.15
 11
-9.8
 21
-3.15
  0
LINE
  5
4ED
100
AcDbEntity
  8
SMUSSO
100
AcDbLine
 62
7
  6
CONTINUOUS
 10
4.25
 20
-3.0
 11
0.25
 21
-3.0
  0
LINE
  5
4EE
100
AcDbEntity
  8
ASSI
100
AcDbLine
 62
7
  6
CONTINUOUS
 10
4.25
 20
-3.0
 11
0.25
 21
-3.0
  0
LINE
  5
4EF
100
AcDbEntity
  8
CURVE
100
AcDbLine
 62
253
  6
CONTINUOUS
 10
-6.7
 20
-3.0
 11
-7.0
 21
-3.0
  0
LINE
  5
4F0
100
AcDbEntity
  8
CURVE
100
AcDbLine
 62
253
  6
CONTINUOUS
 10
-4.583484861
 20
-2.6
 11
-4.0
 21
-2.6
  0
LINE
  5
4F1
100
AcDbEntity
  8
0
100
AcDbLine
 62
7
  6
CONTINUOUS
 10
0.6
 20
-2.5
 11
3.6
 21
-2.5
  0
LINE
  5
4F2
100
AcDbEntity
  8
CURVE
100
AcDbLine
 62
253
  6
CONTINUOUS
 10
7.3905444566
 20
-1.6215063509
 11
7.8905444566
 21
-1.6215063509
  0
LWPOLYLINE
  5
4F3
100
AcDbEntity
  8
0
100
AcDbPolyline
 62
7
  6
CONTINUOUS
 90
18
 70
0
 10
7.2679073742
 20
-24.3429184493
 10
7.2725912278
 20
-24.3538564463
 10
7.2777902312
 20
-24.3645591876
 10
7.2834926084
 20
-24.3750024283
 10
7.2896854419
 20
-24.3851625059
 10
7.2963547045
 20
-24.3950164051
 10
7.3034852893
 20
-24.4045418038
 10
7.3110610411
 20
-24.4137171191
 10
7.3190647995
 20
-24.4225215661
 10
7.3274784339
 20
-24.4309352005
 10
7.3362828809
 20
-24.4389389589
 10
7.3454581962
 20
-24.4465147107
 10
7.3549835949
 20
-24.4536452955
 10
7.3648374941
 20
-24.4603145581
 10
7.3749975717
 20
-24.4665073916
 10
7.3854408124
 20
-24.4722097688
 10
7.3961435537
 20
-24.4774087722
 10
7.4070815507
 20
-24.4820926258
  0
LINE
  5
4F4
100
AcDbEntity
  8
RACCORDO
100
AcDbLine
 62
253
  6
CONTINUOUS
 10
1.9819077862
 20
-17.4582263652
 11
1.9954423259
 21
-17.5034053045
  0
LWPOLYLINE
  5
4F5
100
AcDbEntity
  8
0
100
AcDbPolyline
 62
7
  6
CONTINUOUS
 90
6
 70
0
 10
-7.2525445259
 20
24.2855823661
 10
-7.2545176323
 20
24.2973162875
 10
-7.2570468183
 20
24.3089430388
 10
-7.2601263583
 20
24.320436279
 10
-7.2637492787
 20
24.3317699738
 10
-7.2679073742
 20
24.3429184493
  0
LINE
  5
4F6
100
AcDbEntity
  8
0
100
AcDbLine
 62
7
  6
CONTINUOUS
 10
-1.0086739534
 20
-22.3947957125
 11
-1.00856737
 21
-23.7942952698
  0
LINE
  5
4F7
100
AcDbEntity
  8
0
100
AcDbLine
 62
7
  6
CONTINUOUS
 10
-1.0
 20
23.8000067692
 11
-1.0
 21
22.4
  0
LINE
  5
4F8
100
AcDbEntity
  8
0
100
AcDbLine
 62
7
  6
CONTINUOUS
 10
-1.0
 20
-22.4
 11
-1.0
 21
-23.8000067692
  0
LINE
  5
4F9
100
AcDbEntity
  8
SMUSSO
100
AcDbLine
 62
7
  6
CONTINUOUS
 10
-0.25
 20
-3.5
 11
-0.25
 21
1.5
  0
LINE
  5
4FA
100
AcDbEntity
  8
ASSI
100
AcDbLine
 62
7
  6
CONTINUOUS
 10
-0.25
 20
-3.5
 11
-0.25
 21
1.5
  0
LINE
  5
4FB
100
AcDbEntity
  8
SMUSSO
100
AcDbLine
 62
7
  6
CONTINUOUS
 10
-0.25
 20
1.75
 11
-0.25
 21
6.25
  0
LINE
  5
4FC
100
AcDbEntity
  8
ASSI
100
AcDbLine
 62
7
  6
CONTINUOUS
 10
-0.25
 20
1.75
 11
-0.25
 21
6.25
  0
LINE
  5
4FD
100
AcDbEntity
  8
SMUSSO
100
AcDbLine
 62
7
  6
CONTINUOUS
 10
-0.25
 20
6.75
 11
-0.25
 21
11.25
  0
LINE
  5
4FE
100
AcDbEntity
  8
ASSI
100
AcDbLine
 62
7
  6
CONTINUOUS
 10
-0.25
 20
6.75
 11
-0.25
 21
11.25
  0
LINE
  5
4FF
100
AcDbEntity
  8
SMUSSO
100
AcDbLine
 62
7
  6
CONTINUOUS
 10
-0.25
 20
11.75
 11
-0.25
 21
16.25
  0
LINE
  5
500
100
AcDbEntity
  8
ASSI
100
AcDbLine
 62
7
  6
CONTINUOUS
 10
-0.25
 20
11.75
 11
-0.25
 21
16.25
  0
LINE
  5
501
100
AcDbEntity
  8
0
100
AcDbLine
 62
7
  6
CONTINUOUS
 10
-1.0086739534
 20
22.3947957125
 11
-1.00856737
 21
23.7942952698
  0
LWPOLYLINE
  5
502
100
AcDbEntity
  8
0
100
AcDbPolyline
 62
7
  6
CONTINUOUS
 90
17
 70
0
 10
4.406077753
 20
23.9538922731
 10
4.4057416006
 20
23.9521762471
 10
4.4049040642
 20
23.9499799669
 10
4.4035603649
 20
23.9473034326
 10
4.4017068149
 20
23.9441525434
 10
4.399339508
 20
23.9405214
 10
4.3964530753
 20
23.9363923047
 10
4.3930458222
 20
23.931768186
 10
4.3891135245
 20
23.9266461153
 10
4.3846434307
 20
23.9209996089
 10
4.3796364065
 20
23.9148402405
 10
4.3740836251
 20
23.9081564364
 10
4.3679471077
 20
23.9008869914
 10
4.3612120551
 20
23.8930335307
 10
4.3538719842
 20
23.8845944292
 10
4.3458888129
 20
23.8755036066
 10
4.3372436276
 20
23.865756098
  0
LINE
  5
503
100
AcDbEntity
  8
CURVE
100
AcDbLine
 62
253
  6
CONTINUOUS
 10
6.5428571671
 20
8.55
 11
7.3571428895
 21
9.5
  0
LINE
  5
504
100
AcDbEntity
  8
SMUSSO
100
AcDbLine
 62
7
  6
CONTINUOUS
 10
-0.25
 20
1.75
 11
0.25
 21
2.25
  0
LINE
  5
505
100
AcDbEntity
  8
ASSI
100
AcDbLine
 62
7
  6
CONTINUOUS
 10
-0.25
 20
1.75
 11
0.25
 21
2.25
  0
LINE
  5
506
100
AcDbEntity
  8
SMUSSO
100
AcDbLine
 62
7
  6
CONTINUOUS
 10
4.75
 20
6.25
 11
4.25
 21
5.75
  0
LINE
  5
507
100
AcDbEntity
  8
ASSI
100
AcDbLine
 62
7
  6
CONTINUOUS
 10
4.75
 20
6.25
 11
4.25
 21
5.75
  0
LINE
  5
508
100
AcDbEntity
  8
CURVE
100
AcDbLine
 62
253
  6
CONTINUOUS
 10
-8.0
 20
-6.8
 11
-7.814285706
 21
-6.6142857254
  0
LINE
  5
509
100
AcDbEntity
  8
CURVE
100
AcDbLine
 62
253
  6
CONTINUOUS
 10
10.3
 20
11.1785714507
 11
10.1142857254
 21
10.9928570986
  0
LINE
  5
50A
100
AcDbEntity
  8
CURVE
100
AcDbLine
 62
253
  6
CONTINUOUS
 10
7.9
 20
8.6857142776
 11
7.7642856658
 21
8.55
  0
LINE
  5
50B
100
AcDbEntity
  8
CURVE
100
AcDbLine
 62
253
  6
CONTINUOUS
 10
-6.7
 20
-6.8928570986
 11
-6.8857142746
 21
-7.0785714507
  0
LINE
  5
50C
100
AcDbEntity
  8
CURVE
100
AcDbLine
 62
253
  6
CONTINUOUS
 10
9.185714294
 20
5.3595238686
 11
9.371428588
 21
5.4523806572
  0
LINE
  5
50D
100
AcDbEntity
  8
CURVE
100
AcDbLine
 62
253
  6
CONTINUOUS
 10
7.9
 20
4.6
 11
6.0
 21
3.65
  0
LINE
  5
50E
100
AcDbEntity
  8
CURVE
100
AcDbLine
 62
253
  6
CONTINUOUS
 10
10.1142857254
 20
4.8952380657
 11
9.9285714507
 21
4.8023806572
  0
LINE
  5
50F
100
AcDbEntity
  8
CURVE
100
AcDbLine
 62
253
  6
CONTINUOUS
 10
10.0
 20
-0.1875
 11
9.9375
 21
-0.1875
  0
LINE
  5
510
100
AcDbEntity
  8
CURVE
100
AcDbLine
 62
253
  6
CONTINUOUS
 10
9.125
 20
0.0
 11
8.9375
 21
0.0
  0
LINE
  5
511
100
AcDbEntity
  8
0
100
AcDbLine
 62
253
  6
CONTINUOUS
 10
1.5009544263
 20
20.0696217518
 11
1.5015242349
 21
19.8844866796
  0
LINE
  5
512
100
AcDbEntity
  8
SMUSSO
100
AcDbLine
 62
7
  6
CONTINUOUS
 10
0.25
 20
-3.0
 11
0.25
 21
1.0
  0
LINE
  5
513
100
AcDbEntity
  8
ASSI
100
AcDbLine
 62
7
  6
CONTINUOUS
 10
0.25
 20
-3.0
 11
0.25
 21
1.0
  0
LINE
  5
514
100
AcDbEntity
  8
SMUSSO
100
AcDbLine
 62
7
  6
CONTINUOUS
 10
0.25
 20
2.25
 11
0.25
 21
5.75
  0
LINE
  5
515
100
AcDbEntity
  8
ASSI
100
AcDbLine
 62
7
  6
CONTINUOUS
 10
0.25
 20
2.25
 11
0.25
 21
5.75
  0
LINE
  5
516
100
AcDbEntity
  8
SMUSSO
100
AcDbLine
 62
7
  6
CONTINUOUS
 10
0.25
 20
7.25
 11
0.25
 21
10.75
  0
LINE
  5
517
100
AcDbEntity
  8
ASSI
100
AcDbLine
 62
7
  6
CONTINUOUS
 10
0.25
 20
7.25
 11
0.25
 21
10.75
  0
LINE
  5
518
100
AcDbEntity
  8
SMUSSO
100
AcDbLine
 62
7
  6
CONTINUOUS
 10
0.25
 20
12.25
 11
0.25
 21
15.75
  0
LINE
  5
519
100
AcDbEntity
  8
ASSI
100
AcDbLine
 62
7
  6
CONTINUOUS
 10
0.25
 20
12.25
 11
0.25
 21
15.75
  0
LINE
  5
51A
100
AcDbEntity
  8
0
100
AcDbLine
 62
7
  6
CONTINUOUS
 10
0.6
 20
15.5
 11
0.6
 21
12.5
  0
LINE
  5
51B
100
AcDbEntity
  8
0
100
AcDbLine
 62
7
  6
CONTINUOUS
 10
0.6
 20
10.5
 11
0.6
 21
7.5
  0
LINE
  5
51C
100
AcDbEntity
  8
0
100
AcDbLine
 62
7
  6
CONTINUOUS
 10
0.6
 20
5.5
 11
0.6
 21
2.5
  0
LINE
  5
51D
100
AcDbEntity
  8
0
100
AcDbLine
 62
7
  6
CONTINUOUS
 10
0.6
 20
0.5
 11
0.6
 21
-2.5
  0
LINE
  5
51E
100
AcDbEntity
  8
0
100
AcDbLine
 62
7
  6
CONTINUOUS
 10
1.0
 20
23.8000067692
 11
1.0
 21
22.4
  0
LINE
  5
51F
100
AcDbEntity
  8
0
100
AcDbLine
 62
7
  6
CONTINUOUS
 10
1.0
 20
-22.4
 11
1.0
 21
-23.8000067692
  0
LINE
  5
520
100
AcDbEntity
  8
0
100
AcDbLine
 62
7
  6
CONTINUOUS
 10
1.0086739534
 20
22.3947957125
 11
1.00856737
 21
23.7942952698
  0
LINE
  5
521
100
AcDbEntity
  8
RACCORDO
100
AcDbLine
 62
253
  6
CONTINUOUS
 10
1.7
 20
17.3159679184
 11
1.7
 21
17.25
  0
LINE
  5
522
100
AcDbEntity
  8
RACCORDO
100
AcDbLine
 62
253
  6
CONTINUOUS
 10
1.7
 20
-17.3
 11
1.7
 21
-17.25
  0
LINE
  5
523
100
AcDbEntity
  8
RACCORDO
100
AcDbLine
 62
7
  6
CONTINUOUS
 10
1.9040044543
 20
18.2
 11
1.9040044543
 21
18.3
  0
LINE
  5
524
100
AcDbEntity
  8
ASSI
100
AcDbLine
 62
7
  6
CONTINUOUS
 10
1.9040044543
 20
18.2
 11
1.9040044543
 21
18.3
  0
LINE
  5
525
100
AcDbEntity
  8
RACCORDO
100
AcDbLine
 62
7
  6
CONTINUOUS
 10
1.9825893107
 20
-18.3
 11
1.9825893107
 21
-18.2
  0
LINE
  5
526
100
AcDbEntity
  8
ASSI
100
AcDbLine
 62
7
  6
CONTINUOUS
 10
1.9825893107
 20
-18.3
 11
1.9825893107
 21
-18.2
  0
LINE
  5
527
100
AcDbEntity
  8
RACCORDO
100
AcDbLine
 62
7
  6
CONTINUOUS
 10
2.0
 20
18.2330485889
 11
2.0
 21
18.2
  0
LINE
  5
528
100
AcDbEntity
  8
0
100
AcDbLine
 62
7
  6
CONTINUOUS
 10
1.0086739534
 20
-22.3947957125
 11
1.00856737
 21
-23.7942952698
  0
LINE
  5
529
100
AcDbEntity
  8
0
100
AcDbLine
 62
253
  6
CONTINUOUS
 10
1.5015242349
 20
-19.8844866796
 11
1.5009544263
 21
-20.0696217518
  0
LWPOLYLINE
  5
52A
100
AcDbEntity
  8
0
100
AcDbPolyline
 62
7
  6
CONTINUOUS
 90
17
 70
0
 10
-4.406077753
 20
-23.9538922731
 10
-4.4057417716
 20
-23.9521758189
 10
-4.4049051613
 20
-23.949981613
 10
-4.4035637839
 20
-23.9473096556
 10
-4.4017148325
 20
-23.9441659044
 10
-4.3993549122
 20
-23.9405444016
 10
-4.3964782186
 20
-23.9364272733
 10
-4.3930836341
 20
-23.9318190368
 10
-4.3891666972
 20
-23.9267151748
 10
-4.3847113797
 20
-23.9210842611
 10
-4.3797157848
 20
-23.914936303
 10
-4.3741715139
 20
-23.9082612933
 10
-4.3680414491
 20
-23.900997784
 10
-4.3613102172
 20
-23.8931467931
 10
-4.3539708196
 20
-23.8847073027
 10
-4.3459870192
 20
-23.8756148111
 10
-4.3373399202
 20
-23.865863904
  0
LWPOLYLINE
  5
52B
100
AcDbEntity
  8
0
100
AcDbPolyline
 62
7
  6
CONTINUOUS
 90
9
 70
0
 10
-7.2679073742
 20
-24.3429184493
 10
-7.2637492787
 20
-24.3317699738
 10
-7.2601263583
 20
-24.320436279
 10
-7.2570468183
 20
-24.3089430388
 10
-7.2545176323
 20
-24.2973162875
 10
-7.2525445259
 20
-24.2855823661
 10
-7.2511319658
 20
-24.2737678556
 10
-7.2502831502
 20
-24.261899516
 10
-7.25
 20
-24.2500042308
  0
LINE
  5
52C
100
AcDbEntity
  8
CURVE
100
AcDbLine
 62
253
  6
CONTINUOUS
 10
-7.4428571373
 20
-9.0285712957
 11
-7.2571428239
 21
-8.8428570986
  0
LINE
  5
52D
100
AcDbEntity
  8
CURVE
100
AcDbLine
 62
253
  6
CONTINUOUS
 10
-8.0
 20
-9.6785712957
 11
-7.814285706
 21
-9.4928570986
  0
LINE
  5
52E
100
AcDbEntity
  8
CURVE
100
AcDbLine
 62
253
  6
CONTINUOUS
 10
-8.0
 20
-10.7
 11
-7.814285706
 21
-10.5142858028
  0
LINE
  5
52F
100
AcDbEntity
  8
CURVE
100
AcDbLine
 62
253
  6
CONTINUOUS
 10
-4.0
 20
-6.8
 11
-3.814285706
 21
-6.6142857254
  0
LINE
  5
530
100
AcDbEntity
  8
0
100
AcDbLine
 62
7
  6
CONTINUOUS
 10
3.6
 20
0.5
 11
0.6
 21
0.5
  0
LINE
  5
531
100
AcDbEntity
  8
SMUSSO
100
AcDbLine
 62
7
  6
CONTINUOUS
 10
0.25
 20
1.0
 11
4.25
 21
1.0
  0
LINE
  5
532
100
AcDbEntity
  8
ASSI
100
AcDbLine
 62
7
  6
CONTINUOUS
 10
0.25
 20
1.0
 11
4.25
 21
1.0
  0
LINE
  5
533
100
AcDbEntity
  8
RACCORDO
100
AcDbLine
 62
7
  6
CONTINUOUS
 10
-10.7130788782
 20
1.15
 11
-9.8
 21
1.15
  0
LINE
  5
534
100
AcDbEntity
  8
ASSI
100
AcDbLine
 62
7
  6
CONTINUOUS
 10
-10.7130788782
 20
1.15
 11
-9.8
 21
1.15
  0
LINE
  5
535
100
AcDbEntity
  8
SMUSSO
100
AcDbLine
 62
7
  6
CONTINUOUS
 10
-0.25
 20
1.5
 11
4.75
 21
1.5
  0
LINE
  5
536
100
AcDbEntity
  8
ASSI
100
AcDbLine
 62
7
  6
CONTINUOUS
 10
-0.25
 20
1.5
 11
4.75
 21
1.5
  0
LINE
  5
537
100
AcDbEntity
  8
SMUSSO
100
AcDbLine
 62
7
  6
CONTINUOUS
 10
4.75
 20
1.75
 11
-0.25
 21
1.75
  0
LINE
  5
538
100
AcDbEntity
  8
ASSI
100
AcDbLine
 62
7
  6
CONTINUOUS
 10
4.75
 20
1.75
 11
-0.25
 21
1.75
  0
LINE
  5
539
100
AcDbEntity
  8
RACCORDO
100
AcDbLine
 62
7
  6
CONTINUOUS
 10
-10.7130788782
 20
1.85
 11
-9.8
 21
1.85
  0
LINE
  5
53A
100
AcDbEntity
  8
ASSI
100
AcDbLine
 62
7
  6
CONTINUOUS
 10
-10.7130788782
 20
1.85
 11
-9.8
 21
1.85
  0
LINE
  5
53B
100
AcDbEntity
  8
SMUSSO
100
AcDbLine
 62
7
  6
CONTINUOUS
 10
-0.25
 20
1.5
 11
0.25
 21
1.0
  0
LINE
  5
53C
100
AcDbEntity
  8
ASSI
100
AcDbLine
 62
7
  6
CONTINUOUS
 10
-0.25
 20
1.5
 11
0.25
 21
1.0
  0
LINE
  5
53D
100
AcDbEntity
  8
SMUSSO
100
AcDbLine
 62
7
  6
CONTINUOUS
 10
4.75
 20
-3.5
 11
4.25
 21
-3.0
  0
LINE
  5
53E
100
AcDbEntity
  8
ASSI
100
AcDbLine
 62
7
  6
CONTINUOUS
 10
4.75
 20
-3.5
 11
4.25
 21
-3.0
  0
LINE
  5
53F
100
AcDbEntity
  8
0
100
AcDbLine
 62
7
  6
CONTINUOUS
 10
2.992145819
 20
-20.8
 11
3.0057033248
 21
-22.3535362903
  0
LINE
  5
540
100
AcDbEntity
  8
DRAFT
100
AcDbLine
 62
7
  6
CONTINUOUS
 10
3.5001534346
 20
-20.0175818656
 11
3.5005407234
 21
-20.0619607613
  0
LINE
  5
541
100
AcDbEntity
  8
0
100
AcDbLine
 62
7
  6
CONTINUOUS
 10
3.5205544631
 20
-22.355308184
 11
3.5348577163
 21
-23.994298655
  0
LINE
  5
542
100
AcDbEntity
  8
0
100
AcDbLine
 62
7
  6
CONTINUOUS
 10
2.1
 20
18.2
 11
2.1
 21
18.232181202
  0
LINE
  5
543
100
AcDbEntity
  8
RACCORDO
100
AcDbLine
 62
253
  6
CONTINUOUS
 10
2.1464466094
 20
18.3
 11
2.1464466094
 21
18.2325400167
  0
LINE
  5
544
100
AcDbEntity
  8
0
100
AcDbLine
 62
7
  6
CONTINUOUS
 10
2.5
 20
18.3
 11
2.5
 21
16.6
  0
LINE
  5
545
100
AcDbEntity
  8
ASSI
100
AcDbLine
 62
7
  6
CONTINUOUS
 10
2.5
 20
18.3
 11
2.5
 21
16.6
  0
LINE
  5
546
100
AcDbEntity
  8
0
100
AcDbLine
 62
7
  6
CONTINUOUS
 10
2.5
 20
-16.6
 11
2.5
 21
-18.3
  0
LINE
  5
547
100
AcDbEntity
  8
ASSI
100
AcDbLine
 62
7
  6
CONTINUOUS
 10
2.5
 20
-16.6
 11
2.5
 21
-18.3
  0
LINE
  5
548
100
AcDbEntity
  8
DRAFT
100
AcDbLine
 62
7
  6
CONTINUOUS
 10
3.4633443637
 20
-19.8633443637
 11
3.4633443637
 21
-19.6633443637
  0
LINE
  5
549
100
AcDbEntity
  8
DRAFT
100
AcDbLine
 62
7
  6
CONTINUOUS
 10
3.4633443637
 20
19.6633443637
 11
3.4633443637
 21
19.8633443637
  0
LINE
  5
54A
100
AcDbEntity
  8
DRAFT
100
AcDbLine
 62
7
  6
CONTINUOUS
 10
3.5
 20
-19.9
 11
3.5
 21
-19.7
  0
LINE
  5
54B
100
AcDbEntity
  8
DRAFT
100
AcDbLine
 62
7
  6
CONTINUOUS
 10
3.5
 20
19.7
 11
3.5
 21
19.9
  0
LINE
  5
54C
100
AcDbEntity
  8
0
100
AcDbLine
 62
7
  6
CONTINUOUS
 10
3.6
 20
-2.5
 11
3.6
 21
0.5
  0
LINE
  5
54D
100
AcDbEntity
  8
0
100
AcDbLine
 62
7
  6
CONTINUOUS
 10
3.6
 20
2.5
 11
3.6
 21
5.5
  0
LINE
  5
54E
100
AcDbEntity
  8
0
100
AcDbLine
 62
7
  6
CONTINUOUS
 10
3.6
 20
7.5
 11
3.6
 21
10.5
  0
LINE
  5
54F
100
AcDbEntity
  8
0
100
AcDbLine
 62
7
  6
CONTINUOUS
 10
3.6
 20
12.5
 11
3.6
 21
15.5
  0
LINE
  5
550
100
AcDbEntity
  8
0
100
AcDbLine
 62
7
  6
CONTINUOUS
 10
2.992145819
 20
20.8
 11
3.0057033248
 21
22.3535362903
  0
LINE
  5
551
100
AcDbEntity
  8
DRAFT
100
AcDbLine
 62
7
  6
CONTINUOUS
 10
3.5001534346
 20
20.0175818656
 11
3.5005407234
 21
20.0619607613
  0
LINE
  5
552
100
AcDbEntity
  8
0
100
AcDbLine
 62
7
  6
CONTINUOUS
 10
3.5205544631
 20
22.355308184
 11
3.5348577163
 21
23.994298655
  0
LINE
  5
553
100
AcDbEntity
  8
RACCORDO
100
AcDbLine
 62
253
  6
CONTINUOUS
 10
-1.9943792568
 20
-17.5
 11
-1.9822464458
 21
-17.4590629059
  0
LINE
  5
554
100
AcDbEntity
  8
CURVE
100
AcDbLine
 62
253
  6
CONTINUOUS
 10
9.4952381045
 20
9.1976190329
 11
9.3095238104
 21
8.95
  0
LINE
  5
555
100
AcDbEntity
  8
CURVE
100
AcDbLine
 62
253
  6
CONTINUOUS
 10
-6.7
 20
-9.7714287043
 11
-6.8857142746
 21
-9.9571429014
  0
LINE
  5
556
100
AcDbEntity
  8
SMUSSO
100
AcDbLine
 62
7
  6
CONTINUOUS
 10
4.75
 20
1.5
 11
4.25
 21
1.0
  0
LINE
  5
557
100
AcDbEntity
  8
ASSI
100
AcDbLine
 62
7
  6
CONTINUOUS
 10
4.75
 20
1.5
 11
4.25
 21
1.0
  0
LINE
  5
558
100
AcDbEntity
  8
SMUSSO
100
AcDbLine
 62
7
  6
CONTINUOUS
 10
-0.25
 20
-3.5
 11
0.25
 21
-3.0
  0
LINE
  5
559
100
AcDbEntity
  8
ASSI
100
AcDbLine
 62
7
  6
CONTINUOUS
 10
-0.25
 20
-3.5
 11
0.25
 21
-3.0
  0
LINE
  5
55A
100
AcDbEntity
  8
CURVE
100
AcDbLine
 62
253
  6
CONTINUOUS
 10
9.5571428627
 20
5.8238096714
 11
9.7428571761
 21
6.0095238686
  0
LINE
  5
55B
100
AcDbEntity
  8
CURVE
100
AcDbLine
 62
253
  6
CONTINUOUS
 10
9.0
 20
5.1738096714
 11
9.185714294
 21
5.3595238686
  0
LINE
  5
55C
100
AcDbEntity
  8
CURVE
100
AcDbLine
 62
253
  6
CONTINUOUS
 10
-6.7
 20
-10.7928574085
 11
-6.8857142746
 21
-10.9785716057
  0
LINE
  5
55D
100
AcDbEntity
  8
CURVE
100
AcDbLine
 62
253
  6
CONTINUOUS
 10
-2.7
 20
-6.8928570986
 11
-2.8857142746
 21
-7.0785714507
  0
LINE
  5
55E
100
AcDbEntity
  8
CURVE
100
AcDbLine
 62
253
  6
CONTINUOUS
 10
10.3
 20
5.0809522629
 11
10.1142857254
 21
4.8952380657
  0
LINE
  5
55F
100
AcDbEntity
  8
CURVE
100
AcDbLine
 62
253
  6
CONTINUOUS
 10
-6.8857142746
 20
-8.9976190329
 11
-6.7
 21
-8.8428570986
  0
LINE
  5
560
100
AcDbEntity
  8
CURVE
100
AcDbLine
 62
253
  6
CONTINUOUS
 10
-7.814285706
 20
-6.6142857254
 11
-7.628571412
 21
-6.5214285493
  0
LINE
  5
561
100
AcDbEntity
  8
CURVE
100
AcDbLine
 62
253
  6
CONTINUOUS
 10
-6.8857142746
 20
-7.0785714507
 11
-7.0714285493
 21
-7.1714285493
  0
LINE
  5
562
100
AcDbEntity
  8
CURVE
100
AcDbLine
 62
253
  6
CONTINUOUS
 10
8.9375
 20
0.0
 11
8.75
 21
-0.0625
  0
LINE
  5
563
100
AcDbEntity
  8
SMUSSO
100
AcDbLine
 62
7
  6
CONTINUOUS
 10
4.25
 20
2.25
 11
0.25
 21
2.25
  0
LINE
  5
564
100
AcDbEntity
  8
ASSI
100
AcDbLine
 62
7
  6
CONTINUOUS
 10
4.25
 20
2.25
 11
0.25
 21
2.25
  0
LINE
  5
565
100
AcDbEntity
  8
0
100
AcDbLine
 62
7
  6
CONTINUOUS
 10
0.6
 20
2.5
 11
3.6
 21
2.5
  0
LINE
  5
566
100
AcDbEntity
  8
CURVE
100
AcDbLine
 62
253
  6
CONTINUOUS
 10
6.0
 20
3.65
 11
7.9
 21
3.65
  0
LINE
  5
567
100
AcDbEntity
  8
CURVE
100
AcDbLine
 62
253
  6
CONTINUOUS
 10
10.3
 20
3.7809522629
 11
9.0
 21
3.7809522629
  0
LINE
  5
568
100
AcDbEntity
  8
CURVE
100
AcDbLine
 62
253
  6
CONTINUOUS
 10
9.3125
 20
-0.0625
 11
9.125
 21
0.0
  0
LINE
  5
569
100
AcDbEntity
  8
CURVE
100
AcDbLine
 62
253
  6
CONTINUOUS
 10
10.1875
 20
-0.25
 11
10.0
 21
-0.1875
  0
LINE
  5
56A
100
AcDbEntity
  8
CURVE
100
AcDbLine
 62
253
  6
CONTINUOUS
 10
6.0
 20
-0.53
 11
7.8905444566
 21
-1.6215063509
  0
LWPOLYLINE
  5
56B
100
AcDbEntity
  8
0
100
AcDbPolyline
 62
7
  6
CONTINUOUS
 90
18
 70
0
 10
-7.2679073742
 20
24.3429184493
 10
-7.2725912278
 20
24.3538564463
 10
-7.2777902312
 20
24.3645591876
 10
-7.2834926084
 20
24.3750024283
 10
-7.2896854419
 20
24.3851625059
 10
-7.2963547045
 20
24.3950164051
 10
-7.3034852893
 20
24.4045418038
 10
-7.3110610411
 20
24.4137171191
 10
-7.3190647995
 20
24.4225215661
 10
-7.3274784339
 20
24.4309352005
 10
-7.3362828809
 20
24.4389389589
 10
-7.3454581962
 20
24.4465147107
 10
-7.3549835949
 20
24.4536452955
 10
-7.3648374941
 20
24.4603145581
 10
-7.3749975717
 20
24.4665073916
 10
-7.3854408124
 20
24.4722097688
 10
-7.3961435537
 20
24.4774087722
 10
-7.4070815507
 20
24.4820926258
  0
LINE
  5
56C
100
AcDbEntity
  8
RACCORDO
100
AcDbLine
 62
7
  6
CONTINUOUS
 10
-1.9810113849
 20
18.2
 11
-1.9905723476
 21
18.2316174985
  0
LWPOLYLINE
  5
56D
100
AcDbEntity
  8
RACCORDO
100
AcDbPolyline
 62
253
  6
CONTINUOUS
 90
5
 70
0
 10
-1.9943792568
 20
17.5
 10
-1.9822464458
 20
17.4590629059
 10
-1.9603851756
 20
17.4167346696
 10
-1.930459935
 20
17.3782135783
 10
-1.8933221907
 20
17.3448141709
  0
LWPOLYLINE
  5
56E
100
AcDbEntity
  8
0
100
AcDbPolyline
 62
7
  6
CONTINUOUS
 90
6
 70
0
 10
7.2525445259
 20
-24.2855823661
 10
7.2545176323
 20
-24.2973162875
 10
7.2570468183
 20
-24.3089430388
 10
7.2601263583
 20
-24.320436279
 10
7.2637492787
 20
-24.3317699738
 10
7.2679073742
 20
-24.3429184493
  0
LINE
  5
56F
100
AcDbEntity
  8
SMUSSO
100
AcDbLine
 62
7
  6
CONTINUOUS
 10
4.25
 20
15.75
 11
4.25
 21
12.25
  0
LINE
  5
570
100
AcDbEntity
  8
ASSI
100
AcDbLine
 62
7
  6
CONTINUOUS
 10
4.25
 20
15.75
 11
4.25
 21
12.25
  0
LINE
  5
571
100
AcDbEntity
  8
SMUSSO
100
AcDbLine
 62
7
  6
CONTINUOUS
 10
4.25
 20
10.75
 11
4.25
 21
7.25
  0
LINE
  5
572
100
AcDbEntity
  8
ASSI
100
AcDbLine
 62
7
  6
CONTINUOUS
 10
4.25
 20
10.75
 11
4.25
 21
7.25
  0
LINE
  5
573
100
AcDbEntity
  8
SMUSSO
100
AcDbLine
 62
7
  6
CONTINUOUS
 10
4.25
 20
5.75
 11
4.25
 21
2.25
  0
LINE
  5
574
100
AcDbEntity
  8
ASSI
100
AcDbLine
 62
7
  6
CONTINUOUS
 10
4.25
 20
5.75
 11
4.25
 21
2.25
  0
LINE
  5
575
100
AcDbEntity
  8
SMUSSO
100
AcDbLine
 62
7
  6
CONTINUOUS
 10
4.25
 20
1.0
 11
4.25
 21
-3.0
  0
LINE
  5
576
100
AcDbEntity
  8
ASSI
100
AcDbLine
 62
7
  6
CONTINUOUS
 10
4.25
 20
1.0
 11
4.25
 21
-3.0
  0
LINE
  5
577
100
AcDbEntity
  8
0
100
AcDbLine
 62
7
  6
CONTINUOUS
 10
4.406077753
 20
-23.9538922731
 11
4.406077753
 21
-22.356077753
  0
LINE
  5
578
100
AcDbEntity
  8
0
100
AcDbLine
 62
7
  6
CONTINUOUS
 10
4.406077753
 20
22.356077753
 11
4.406077753
 21
23.9538922731
  0
LINE
  5
579
100
AcDbEntity
  8
0
100
AcDbLine
 62
7
  6
CONTINUOUS
 10
4.45
 20
-24.0
 11
4.45
 21
-23.3679449472
  0
LINE
  5
57A
100
AcDbEntity
  8
0
100
AcDbLine
 62
7
  6
CONTINUOUS
 10
4.45
 20
-22.9320550528
 11
4.45
 21
-22.4
  0
LINE
  5
57B
100
AcDbEntity
  8
0
100
AcDbLine
 62
7
  6
CONTINUOUS
 10
4.45
 20
22.4
 11
4.45
 21
22.9320550528
  0
LINE
  5
57C
100
AcDbEntity
  8
0
100
AcDbLine
 62
7
  6
CONTINUOUS
 10
4.45
 20
23.3679449472
 11
4.45
 21
24.0
  0
LINE
  5
57D
100
AcDbEntity
  8
SMUSSO
100
AcDbLine
 62
7
  6
CONTINUOUS
 10
4.75
 20
16.25
 11
4.75
 21
11.75
  0
LINE
  5
57E
100
AcDbEntity
  8
ASSI
100
AcDbLine
 62
7
  6
CONTINUOUS
 10
4.75
 20
16.25
 11
4.75
 21
11.75
  0
LINE
  5
57F
100
AcDbEntity
  8
SMUSSO
100
AcDbLine
 62
7
  6
CONTINUOUS
 10
4.75
 20
11.25
 11
4.75
 21
6.75
  0
LINE
  5
580
100
AcDbEntity
  8
ASSI
100
AcDbLine
 62
7
  6
CONTINUOUS
 10
4.75
 20
11.25
 11
4.75
 21
6.75
  0
LINE
  5
581
100
AcDbEntity
  8
SMUSSO
100
AcDbLine
 62
7
  6
CONTINUOUS
 10
4.75
 20
6.25
 11
4.75
 21
1.75
  0
LINE
  5
582
100
AcDbEntity
  8
ASSI
100
AcDbLine
 62
7
  6
CONTINUOUS
 10
4.75
 20
6.25
 11
4.75
 21
1.75
  0
LINE
  5
583
100
AcDbEntity
  8
SMUSSO
100
AcDbLine
 62
7
  6
CONTINUOUS
 10
4.75
 20
1.5
 11
4.75
 21
-3.5
  0
LINE
  5
584
100
AcDbEntity
  8
ASSI
100
AcDbLine
 62
7
  6
CONTINUOUS
 10
4.75
 20
1.5
 11
4.75
 21
-3.5
  0
LINE
  5
585
100
AcDbEntity
  8
CURVE
100
AcDbLine
 62
253
  6
CONTINUOUS
 10
-3.4428571373
 20
-9.0285712957
 11
-3.2571428239
 21
-8.8428570986
  0
LINE
  5
586
100
AcDbEntity
  8
CURVE
100
AcDbLine
 62
253
  6
CONTINUOUS
 10
-4.0
 20
-9.6785712957
 11
-3.814285706
 21
-9.4928570986
  0
LINE
  5
587
100
AcDbEntity
  8
CURVE
100
AcDbLine
 62
253
  6
CONTINUOUS
 10
-4.0
 20
-10.7
 11
-3.814285706
 21
-10.5142858028
  0
LINE
  5
588
100
AcDbEntity
  8
CURVE
100
AcDbLine
 62
253
  6
CONTINUOUS
 10
-2.7
 20
-9.7714287043
 11
-2.8857142746
 21
-9.9571429014
  0
LINE
  5
589
100
AcDbEntity
  8
CURVE
100
AcDbLine
 62
253
  6
CONTINUOUS
 10
-3.814285706
 20
-6.6142857254
 11
-3.628571412
 21
-6.5214285493
  0
LINE
  5
58A
100
AcDbEntity
  8
CURVE
100
AcDbLine
 62
253
  6
CONTINUOUS
 10
9.9375
 20
-0.1875
 11
9.8125
 21
-0.25
  0
LINE
  5
58B
100
AcDbEntity
  8
CURVE
100
AcDbLine
 62
253
  6
CONTINUOUS
 10
-7.814285706
 20
-9.4928570986
 11
-7.628571412
 21
-9.4
  0
LINE
  5
58C
100
AcDbEntity
  8
CURVE
100
AcDbLine
 62
253
  6
CONTINUOUS
 10
-2.8857142746
 20
-7.0785714507
 11
-3.0714285493
 21
-7.1714285493
  0
LINE
  5
58D
100
AcDbEntity
  8
CURVE
100
AcDbLine
 62
253
  6
CONTINUOUS
 10
9.0
 20
4.4309522629
 11
10.3
 21
4.4309522629
  0
LINE
  5
58E
100
AcDbEntity
  8
CURVE
100
AcDbLine
 62
253
  6
CONTINUOUS
 10
6.0
 20
4.6
 11
7.9
 21
4.6
  0
LINE
  5
58F
100
AcDbEntity
  8
CURVE
100
AcDbLine
 62
253
  6
CONTINUOUS
 10
9.9285714507
 20
4.8023806572
 11
9.371428588
 21
4.8023806572
  0
LINE
  5
590
100
AcDbEntity
  8
CURVE
100
AcDbLine
 62
253
  6
CONTINUOUS
 10
9.371428588
 20
5.4523806572
 11
9.9285714507
 21
5.4523806572
  0
LINE
  5
591
100
AcDbEntity
  8
0
100
AcDbLine
 62
7
  6
CONTINUOUS
 10
3.6
 20
5.5
 11
0.6
 21
5.5
  0
LINE
  5
592
100
AcDbEntity
  8
SMUSSO
100
AcDbLine
 62
7
  6
CONTINUOUS
 10
-0.25
 20
6.25
 11
0.25
 21
5.75
  0
LINE
  5
593
100
AcDbEntity
  8
ASSI
100
AcDbLine
 62
7
  6
CONTINUOUS
 10
-0.25
 20
6.25
 11
0.25
 21
5.75
  0
LINE
  5
594
100
AcDbEntity
  8
SMUSSO
100
AcDbLine
 62
7
  6
CONTINUOUS
 10
4.75
 20
1.75
 11
4.25
 21
2.25
  0
LINE
  5
595
100
AcDbEntity
  8
ASSI
100
AcDbLine
 62
7
  6
CONTINUOUS
 10
4.75
 20
1.75
 11
4.25
 21
2.25
  0
LINE
  5
596
100
AcDbEntity
  8
CURVE
100
AcDbLine
 62
253
  6
CONTINUOUS
 10
8.6875
 20
-1.125
 11
8.8125
 21
-1.25
  0
LWPOLYLINE
  5
597
100
AcDbEntity
  8
0
100
AcDbPolyline
 62
7
  6
CONTINUOUS
 90
4
 70
0
 10
7.25
 20
-24.2500042308
 10
7.2502831502
 20
-24.261899516
 10
7.2511319658
 20
-24.2737678556
 10
7.2525445259
 20
-24.2855823661
  0
LWPOLYLINE
  5
598
100
AcDbEntity
  8
0
100
AcDbPolyline
 62
7
  6
CONTINUOUS
 90
34
 70
0
 10
7.254371834
 20
-24.2456323968
 10
7.2546553848
 20
-24.2575274183
 10
7.2555045897
 20
-24.269395495
 10
7.2569175251
 20
-24.2812097429
 10
7.2588909904
 20
-24.2929434001
 10
7.2614205152
 20
-24.3045698874
 10
7.2645003696
 20
-24.316062868
 10
7.268123577
 20
-24.3273963078
 10
7.27228193
 20
-24.338544534
 10
7.2769660091
 20
-24.3494822935
 10
7.2821652038
 20
-24.3601848096
 10
7.2878677366
 20
-24.3706278389
 10
7.2940606902
 20
-24.3807877255
 10
7.300730036
 20
-24.390641455
 10
7.3078606666
 20
-24.4001667064
 10
7.3154364293
 20
-24.4093419031
 10
7.3234401635
 20
-24.4181462611
 10
7.3318537389
 20
-24.4265598365
 10
7.3406580969
 20
-24.4345635707
 10
7.3498332936
 20
-24.4421393334
 10
7.359358545
 20
-24.449269964
 10
7.3692122745
 20
-24.4559393098
 10
7.3793721611
 20
-24.4621322634
 10
7.3898151904
 20
-24.4678347962
 10
7.4005177065
 20
-24.4730339909
 10
7.411455466
 20
-24.47771807
 10
7.4226036922
 20
-24.481876423
 10
7.433937132
 20
-24.4854996304
 10
7.4454301126
 20
-24.4885794848
 10
7.4570565999
 20
-24.4911090096
 10
7.4687902571
 20
-24.4930824749
 10
7.480604505
 20
-24.4944954103
 10
7.4924725817
 20
-24.4953446152
 10
7.5043676032
 20
-24.495628166
  0
LINE
  5
599
100
AcDbEntity
  8
0
100
AcDbLine
 62
253
  6
CONTINUOUS
 10
7.254371834
 20
-23.8443375673
 11
7.25
 21
-23.4104851482
  0
LINE
  5
59A
100
AcDbEntity
  8
0
100
AcDbLine
 62
253
  6
CONTINUOUS
 10
7.5043676032
 20
-23.6278312164
 11
7.4992770021
 21
-23.1226497308
  0
LINE
  5
59B
100
AcDbEntity
  8
CURVE
100
AcDbLine
 62
253
  6
CONTINUOUS
 10
6.0
 20
14.2
 11
6.0
 21
13.5214285553
  0
LINE
  5
59C
100
AcDbEntity
  8
CURVE
100
AcDbLine
 62
253
  6
CONTINUOUS
 10
6.0
 20
9.3642857082
 11
6.0
 21
8.8214285553
  0
LINE
  5
59D
100
AcDbEntity
  8
DRAFT
100
AcDbLine
 62
7
  6
CONTINUOUS
 10
6.5043634339
 20
-20.0043634339
 11
6.5043634339
 21
-19.7043634339
  0
LINE
  5
59E
100
AcDbEntity
  8
DRAFT
100
AcDbLine
 62
7
  6
CONTINUOUS
 10
6.5043634339
 20
19.7043634339
 11
6.5043634339
 21
20.0043634339
  0
LINE
  5
59F
100
AcDbEntity
  8
DRAFT
100
AcDbLine
 62
7
  6
CONTINUOUS
 10
6.6047224135
 20
-20.1047224135
 11
6.6047224135
 21
-19.8047224135
  0
LINE
  5
5A0
100
AcDbEntity
  8
DRAFT
100
AcDbLine
 62
7
  6
CONTINUOUS
 10
6.6047224135
 20
19.8047224135
 11
6.6047224135
 21
20.1047224135
  0
LINE
  5
5A1
100
AcDbEntity
  8
DRAFT
100
AcDbLine
 62
7
  6
CONTINUOUS
 10
7.1952775865
 20
-20.9959955457
 11
7.1952775865
 21
-19.8047224135
  0
LINE
  5
5A2
100
AcDbEntity
  8
DRAFT
100
AcDbLine
 62
7
  6
CONTINUOUS
 10
7.1952775865
 20
19.8047224135
 11
7.1952775865
 21
20.9959955457
  0
LINE
  5
5A3
100
AcDbEntity
  8
0
100
AcDbLine
 62
7
  6
CONTINUOUS
 10
7.25
 20
-22.4
 11
7.25
 21
-23.8443375673
  0
LINE
  5
5A4
100
AcDbEntity
  8
0
100
AcDbLine
 62
7
  6
CONTINUOUS
 10
7.25
 20
22.4
 11
7.25
 21
23.8443375673
  0
LINE
  5
5A5
100
AcDbEntity
  8
0
100
AcDbLine
 62
7
  6
CONTINUOUS
 10
7.254371834
 20
24.2456323968
 11
7.254371834
 21
23.8443375673
  0
LINE
  5
5A6
100
AcDbEntity
  8
0
100
AcDbLine
 62
7
  6
CONTINUOUS
 10
7.254371834
 20
-23.8443375673
 11
7.254371834
 21
-24.2456323968
  0
LINE
  5
5A7
100
AcDbEntity
  8
DRAFT
100
AcDbLine
 62
7
  6
CONTINUOUS
 10
7.2956365661
 20
-19.7043634339
 11
7.2956365661
 21
-20.0
  0
LINE
  5
5A8
100
AcDbEntity
  8
DRAFT
100
AcDbLine
 62
7
  6
CONTINUOUS
 10
7.2956365661
 20
19.7043634339
 11
7.2956365661
 21
20.0
  0
LINE
  5
5A9
100
AcDbEntity
  8
DRAFT
100
AcDbLine
 62
7
  6
CONTINUOUS
 10
7.3
 20
20.9
 11
7.3
 21
20.0
  0
LINE
  5
5AA
100
AcDbEntity
  8
DRAFT
100
AcDbLine
 62
7
  6
CONTINUOUS
 10
7.3
 20
-20.0
 11
7.3
 21
-20.9
  0
LINE
  5
5AB
100
AcDbEntity
  8
DRAFT
100
AcDbLine
 62
7
  6
CONTINUOUS
 10
7.4
 20
20.85
 11
7.4
 21
19.7
  0
LINE
  5
5AC
100
AcDbEntity
  8
DRAFT
100
AcDbLine
 62
7
  6
CONTINUOUS
 10
7.4
 20
-19.7
 11
7.4
 21
-20.85
  0
LINE
  5
5AD
100
AcDbEntity
  8
0
100
AcDbLine
 62
253
  6
CONTINUOUS
 10
7.25
 20
23.4104851482
 11
7.254371834
 21
23.8443375673
  0
LINE
  5
5AE
100
AcDbEntity
  8
0
100
AcDbLine
 62
253
  6
CONTINUOUS
 10
7.4992770021
 20
23.1226497308
 11
7.5043676032
 21
23.6278312164
  0
LWPOLYLINE
  5
5AF
100
AcDbEntity
  8
RACCORDO
100
AcDbPolyline
 62
253
  6
CONTINUOUS
 90
4
 70
0
 10
-1.9822464458
 20
-17.4590629059
 10
-1.9603851756
 20
-17.4167346696
 10
-1.930459935
 20
-17.3782135783
 10
-1.8933221907
 20
-17.3448141709
  0
LINE
  5
5B0
100
AcDbEntity
  8
CURVE
100
AcDbLine
 62
253
  6
CONTINUOUS
 10
6.8830127019
 20
-0.8666025404
 11
6.7330127019
 21
-1.1264101615
  0
LINE
  5
5B1
100
AcDbEntity
  8
CURVE
100
AcDbLine
 62
253
  6
CONTINUOUS
 10
7.6405444566
 20
-1.1884936491
 11
7.3905444566
 21
-1.6215063509
  0
LWPOLYLINE
  5
5B2
100
AcDbEntity
  8
0
100
AcDbPolyline
 62
7
  6
CONTINUOUS
 90
4
 70
0
 10
-7.8176867079
 20
-21.6973892622
 10
-7.7640305237
 20
-21.6182592016
 10
-7.7366647097
 20
-21.5782691211
 10
-7.7088773055
 20
-21.5381379605
  0
LWPOLYLINE
  5
5B3
100
AcDbEntity
  8
0
100
AcDbPolyline
 62
7
  6
CONTINUOUS
 90
4
 70
0
 10
-7.7088773055
 20
-21.5381379605
 10
-7.6239952928
 20
-21.4169965568
 10
-7.595405051
 20
-21.3764658744
 10
-7.5666456542
 20
-21.3359869487
  0
LINE
  5
5B4
100
AcDbEntity
  8
CURVE
100
AcDbLine
 62
253
  6
CONTINUOUS
 10
-2.7
 20
-10.7928574085
 11
-2.8857142746
 21
-10.9785716057
  0
LINE
  5
5B5
100
AcDbEntity
  8
CURVE
100
AcDbLine
 62
253
  6
CONTINUOUS
 10
8.75
 20
-0.0625
 11
8.625
 21
-0.1875
  0
LINE
  5
5B6
100
AcDbEntity
  8
CURVE
100
AcDbLine
 62
253
  6
CONTINUOUS
 10
9.8125
 20
-0.25
 11
9.75
 21
-0.3125
  0
LINE
  5
5B7
100
AcDbEntity
  8
CURVE
100
AcDbLine
 62
253
  6
CONTINUOUS
 10
-6.8857142746
 20
-9.9571429014
 11
-7.0714285493
 21
-10.05
  0
LINE
  5
5B8
100
AcDbEntity
  8
CURVE
100
AcDbLine
 62
253
  6
CONTINUOUS
 10
-7.814285706
 20
-10.5142858028
 11
-7.628571412
 21
-10.4214287043
  0
LINE
  5
5B9
100
AcDbEntity
  8
CURVE
100
AcDbLine
 62
253
  6
CONTINUOUS
 10
-6.8857142746
 20
-10.9785716057
 11
-7.0714285493
 21
-11.0714283943
  0
LINE
  5
5BA
100
AcDbEntity
  8
CURVE
100
AcDbLine
 62
253
  6
CONTINUOUS
 10
-3.814285706
 20
-9.4928570986
 11
-3.628571412
 21
-9.4
  0
LINE
  5
5BB
100
AcDbEntity
  8
SMUSSO
100
AcDbLine
 62
7
  6
CONTINUOUS
 10
0.25
 20
5.75
 11
4.25
 21
5.75
  0
LINE
  5
5BC
100
AcDbEntity
  8
ASSI
100
AcDbLine
 62
7
  6
CONTINUOUS
 10
0.25
 20
5.75
 11
4.25
 21
5.75
  0
LINE
  5
5BD
100
AcDbEntity
  8
CURVE
100
AcDbLine
 62
253
  6
CONTINUOUS
 10
9.185714294
 20
5.8238096714
 11
9.5571428627
 21
5.8238096714
  0
LINE
  5
5BE
100
AcDbEntity
  8
RACCORDO
100
AcDbLine
 62
7
  6
CONTINUOUS
 10
-10.7130788782
 20
6.15
 11
-9.8
 21
6.15
  0
LINE
  5
5BF
100
AcDbEntity
  8
ASSI
100
AcDbLine
 62
7
  6
CONTINUOUS
 10
-10.7130788782
 20
6.15
 11
-9.8
 21
6.15
  0
LINE
  5
5C0
100
AcDbEntity
  8
SMUSSO
100
AcDbLine
 62
7
  6
CONTINUOUS
 10
-0.25
 20
6.25
 11
4.75
 21
6.25
  0
LINE
  5
5C1
100
AcDbEntity
  8
ASSI
100
AcDbLine
 62
7
  6
CONTINUOUS
 10
-0.25
 20
6.25
 11
4.75
 21
6.25
  0
LINE
  5
5C2
100
AcDbEntity
  8
CURVE
100
AcDbLine
 62
253
  6
CONTINUOUS
 10
9.7428571761
 20
6.3809522629
 11
10.3
 21
6.3809522629
  0
LINE
  5
5C3
100
AcDbEntity
  8
SMUSSO
100
AcDbLine
 62
7
  6
CONTINUOUS
 10
4.75
 20
6.75
 11
-0.25
 21
6.75
  0
LINE
  5
5C4
100
AcDbEntity
  8
ASSI
100
AcDbLine
 62
7
  6
CONTINUOUS
 10
4.75
 20
6.75
 11
-0.25
 21
6.75
  0
LINE
  5
5C5
100
AcDbEntity
  8
RACCORDO
100
AcDbLine
 62
7
  6
CONTINUOUS
 10
-10.7130788782
 20
6.85
 11
-9.8
 21
6.85
  0
LINE
  5
5C6
100
AcDbEntity
  8
ASSI
100
AcDbLine
 62
7
  6
CONTINUOUS
 10
-10.7130788782
 20
6.85
 11
-9.8
 21
6.85
  0
LINE
  5
5C7
100
AcDbEntity
  8
SMUSSO
100
AcDbLine
 62
7
  6
CONTINUOUS
 10
4.25
 20
7.25
 11
0.25
 21
7.25
  0
LINE
  5
5C8
100
AcDbEntity
  8
ASSI
100
AcDbLine
 62
7
  6
CONTINUOUS
 10
4.25
 20
7.25
 11
0.25
 21
7.25
  0
LINE
  5
5C9
100
AcDbEntity
  8
CURVE
100
AcDbLine
 62
253
  6
CONTINUOUS
 10
9.4375
 20
-0.1875
 11
9.3125
 21
-0.0625
  0
LINE
  5
5CA
100
AcDbEntity
  8
CURVE
100
AcDbLine
 62
253
  6
CONTINUOUS
 10
10.3125
 20
-0.375
 11
10.1875
 21
-0.25
  0
LINE
  5
5CB
100
AcDbEntity
  8
0
100
AcDbLine
 62
7
  6
CONTINUOUS
 10
-7.5666456542
 20
21.3359869487
 11
-7.595405051
 21
21.3764658744
  0
LINE
  5
5CC
100
AcDbEntity
  8
0
100
AcDbLine
 62
7
  6
CONTINUOUS
 10
-7.595405051
 20
21.3764658744
 11
-7.6524163795
 21
21.4575112906
  0
LWPOLYLINE
  5
5CD
100
AcDbEntity
  8
0
100
AcDbPolyline
 62
7
  6
CONTINUOUS
 90
3
 70
0
 10
-7.6524163795
 20
21.4575112906
 10
-7.7088773055
 20
21.5381379605
 10
-7.7366647097
 20
21.5782691211
  0
LWPOLYLINE
  5
5CE
100
AcDbEntity
  8
0
100
AcDbPolyline
 62
7
  6
CONTINUOUS
 90
3
 70
0
 10
-7.7366647097
 20
21.5782691211
 10
-7.7910378565
 20
21.6579919507
 10
-7.8176867079
 20
21.6973892622
  0
LINE
  5
5CF
100
AcDbEntity
  8
CURVE
100
AcDbLine
 62
253
  6
CONTINUOUS
 10
8.5625
 20
-0.9375
 11
8.6875
 21
-1.125
  0
LINE
  5
5D0
100
AcDbEntity
  8
CURVE
100
AcDbLine
 62
253
  6
CONTINUOUS
 10
7.8905444566
 20
-1.6215063509
 11
7.6405444566
 21
-1.1884936491
  0
LWPOLYLINE
  5
5D1
100
AcDbEntity
  8
0
100
AcDbPolyline
 62
253
  6
CONTINUOUS
 90
34
 70
0
 10
7.254371834
 20
23.8443375673
 10
7.2546884847
 20
23.8340547998
 10
7.2555686465
 20
23.8237952398
 10
7.2570103328
 20
23.8135820427
 10
7.2590102898
 20
23.803438259
 10
7.2615640038
 20
23.7933867826
 10
7.2646657112
 20
23.7834502991
 10
7.2683084116
 20
23.7736512346
 10
7.2724838837
 20
23.764011705
 10
7.2771827036
 20
23.7545534661
 10
7.2823942664
 20
23.7452978646
 10
7.2881068099
 20
23.7362657898
 10
7.2943074413
 20
23.7274776267
 10
7.3009821661
 20
23.7189532096
 10
7.3081159197
 20
23.7107117775
 10
7.3156926018
 20
23.702771931
 10
7.3236951123
 20
23.6951515897
 10
7.3321053899
 20
23.6878679524
 10
7.3409044531
 20
23.6809374578
 10
7.350072443
 20
23.6743757476
 10
7.359588668
 20
23.6681976311
 10
7.3694316505
 20
23.6624170521
 10
7.3795791754
 20
23.6570470569
 10
7.3900083405
 20
23.6520997654
 10
7.4006956077
 20
23.6475863432
 10
7.4116168564
 20
23.6435169769
 10
7.4227474381
 20
23.6399008509
 10
7.4340622317
 20
23.6367461264
 10
7.4455357003
 20
23.6340599235
 10
7.4571419491
 20
23.6318483049
 10
7.4688547834
 20
23.630116262
 10
7.480647768
 20
23.6288677039
 10
7.4924942869
 20
23.6281054486
 10
7.5043676032
 20
23.6278312164
  0
LINE
  5
5D2
100
AcDbEntity
  8
DRAFT
100
AcDbLine
 62
7
  6
CONTINUOUS
 10
7.4366556363
 20
20.85
 11
7.4366556363
 21
19.6633443637
  0
LINE
  5
5D3
100
AcDbEntity
  8
DRAFT
100
AcDbLine
 62
7
  6
CONTINUOUS
 10
7.4366556363
 20
-19.6633443637
 11
7.4366556363
 21
-20.85
  0
LINE
  5
5D4
100
AcDbEntity
  8
0
100
AcDbLine
 62
253
  6
CONTINUOUS
 10
7.5043676032
 20
-23.6278312164
 11
7.5043676032
 21
-24.495628166
  0
LINE
  5
5D5
100
AcDbEntity
  8
0
100
AcDbLine
 62
253
  6
CONTINUOUS
 10
7.5043676032
 20
23.6278312164
 11
7.5043676032
 21
24.495628166
  0
LINE
  5
5D6
100
AcDbEntity
  8
0
100
AcDbLine
 62
253
  6
CONTINUOUS
 10
7.5666456542
 20
21.3359869487
 11
7.5666456542
 21
20.9959955457
  0
LINE
  5
5D7
100
AcDbEntity
  8
0
100
AcDbLine
 62
253
  6
CONTINUOUS
 10
7.5666456542
 20
-20.9959955457
 11
7.5666456542
 21
-21.3359869487
  0
LINE
  5
5D8
100
AcDbEntity
  8
CURVE
100
AcDbLine
 62
253
  6
CONTINUOUS
 10
7.9
 20
9.2285714164
 11
7.9
 21
8.6857142776
  0
LINE
  5
5D9
100
AcDbEntity
  8
0
100
AcDbLine
 62
253
  6
CONTINUOUS
 10
8.0665695018
 20
21.4537354271
 11
8.0665695018
 21
20.9917082642
  0
LINE
  5
5DA
100
AcDbEntity
  8
0
100
AcDbLine
 62
7
  6
CONTINUOUS
 10
8.0665695018
 20
-21.5834304982
 11
8.0665695018
 21
-21.5710888434
  0
LINE
  5
5DB
100
AcDbEntity
  8
0
100
AcDbLine
 62
7
  6
CONTINUOUS
 10
8.0665695018
 20
-20.9087268678
 11
8.0665695018
 21
-20.9
  0
LINE
  5
5DC
100
AcDbEntity
  8
0
100
AcDbLine
 62
253
  6
CONTINUOUS
 10
8.0665695018
 20
-20.9917082642
 11
8.0665695018
 21
-21.4537354271
  0
LINE
  5
5DD
100
AcDbEntity
  8
0
100
AcDbLine
 62
7
  6
CONTINUOUS
 10
8.0665695018
 20
20.9
 11
8.0665695018
 21
20.9087268678
  0
LINE
  5
5DE
100
AcDbEntity
  8
0
100
AcDbLine
 62
7
  6
CONTINUOUS
 10
8.0665695018
 20
21.5710888434
 11
8.0665695018
 21
21.5834304982
  0
LINE
  5
5DF
100
AcDbEntity
  8
0
100
AcDbLine
 62
7
  6
CONTINUOUS
 10
8.2325449351
 20
21.4051134101
 11
8.2325449351
 21
20.9087268678
  0
LINE
  5
5E0
100
AcDbEntity
  8
0
100
AcDbLine
 62
7
  6
CONTINUOUS
 10
8.2325449351
 20
-20.9087268678
 11
8.2325449351
 21
-21.4051134101
  0
LINE
  5
5E1
100
AcDbEntity
  8
CURVE
100
AcDbLine
 62
253
  6
CONTINUOUS
 10
8.5
 20
-0.5
 11
8.5
 21
-0.6875
  0
LINE
  5
5E2
100
AcDbEntity
  8
CURVE
100
AcDbLine
 62
253
  6
CONTINUOUS
 10
9.0
 20
12.4785714507
 11
9.0
 21
12.0142856479
  0
LINE
  5
5E3
100
AcDbEntity
  8
CURVE
100
AcDbLine
 62
253
  6
CONTINUOUS
 10
9.0
 20
6.3809522629
 11
9.0
 21
6.0095238686
  0
LINE
  5
5E4
100
AcDbEntity
  8
CURVE
100
AcDbLine
 62
253
  6
CONTINUOUS
 10
9.0
 20
3.4095238686
 11
9.0
 21
2.8523806572
  0
LINE
  5
5E5
100
AcDbEntity
  8
CURVE
100
AcDbLine
 62
253
  6
CONTINUOUS
 10
9.0
 20
5.0809522629
 11
9.0
 21
5.1738096714
  0
LINE
  5
5E6
100
AcDbEntity
  8
CURVE
100
AcDbLine
 62
253
  6
CONTINUOUS
 10
9.0
 20
11.1785714507
 11
9.0
 21
11.2714285493
  0
LINE
  5
5E7
100
AcDbEntity
  8
CURVE
100
AcDbLine
 62
253
  6
CONTINUOUS
 10
9.0
 20
12.85
 11
9.0
 21
13.5
  0
LWPOLYLINE
  5
5E8
100
AcDbEntity
  8
0
100
AcDbPolyline
 62
253
  6
CONTINUOUS
 90
34
 70
0
 10
7.254371834
 20
-23.8443375673
 10
7.2546879612
 20
-23.8340637895
 10
7.2555668735
 20
-23.8238108791
 10
7.257006965
 20
-23.8136019692
 10
7.2590055309
 20
-23.8034593699
 10
7.2615583468
 20
-23.7934067803
 10
7.2646592669
 20
-23.7834691596
 10
7.2683009749
 20
-23.7736697274
 10
7.2724754803
 20
-23.7640297916
 10
7.2771734609
 20
-23.7545709211
 10
7.2823844175
 20
-23.7453143541
 10
7.2880965586
 20
-23.7362811256
 10
7.2942968909
 20
-23.7274918143
 10
7.3009713669
 20
-23.7189663226
 10
7.3081049647
 20
-23.7107238287
 10
7.3156815988
 20
-23.7027829214
 10
7.323684181
 20
-23.6951615168
 10
7.3320946393
 20
-23.6878768325
 10
7.3408939717
 20
-23.6809453292
 10
7.3500623086
 20
-23.6743826581
 10
7.3595789604
 20
-23.6682036281
 10
7.3694224454
 20
-23.6624221869
 10
7.3795705442
 20
-23.6570513849
 10
7.3900003491
 20
-23.6521033459
 10
7.4006883165
 20
-23.6475892394
 10
7.4116103331
 20
-23.6435192505
 10
7.4227417323
 20
-23.6399025721
 10
7.4340573467
 20
-23.6367473785
 10
7.4455316046
 20
-23.6340607927
 10
7.4571386303
 20
-23.6318488662
 10
7.468852264
 20
-23.6301165815
 10
7.4806460789
 20
-23.6288678476
 10
7.4924934395
 20
-23.6281054856
 10
7.5043676032
 20
-23.6278312164
  0
LINE
  5
5E9
100
AcDbEntity
  8
CURVE
100
AcDbLine
 62
253
  6
CONTINUOUS
 10
8.5625
 20
-0.3125
 11
8.5
 21
-0.5
  0
LINE
  5
5EA
100
AcDbEntity
  8
CURVE
100
AcDbLine
 62
253
  6
CONTINUOUS
 10
8.625
 20
-0.1875
 11
8.5625
 21
-0.3125
  0
LINE
  5
5EB
100
AcDbEntity
  8
CURVE
100
AcDbLine
 62
253
  6
CONTINUOUS
 10
9.75
 20
-0.3125
 11
9.6875
 21
-0.4375
  0
LINE
  5
5EC
100
AcDbEntity
  8
CURVE
100
AcDbLine
 62
253
  6
CONTINUOUS
 10
-2.8857142746
 20
-9.9571429014
 11
-3.0714285493
 21
-10.05
  0
LINE
  5
5ED
100
AcDbEntity
  8
CURVE
100
AcDbLine
 62
253
  6
CONTINUOUS
 10
-3.814285706
 20
-10.5142858028
 11
-3.628571412
 21
-10.4214287043
  0
LINE
  5
5EE
100
AcDbEntity
  8
CURVE
100
AcDbLine
 62
253
  6
CONTINUOUS
 10
-2.8857142746
 20
-10.9785716057
 11
-3.0714285493
 21
-11.0714283943
  0
LINE
  5
5EF
100
AcDbEntity
  8
0
100
AcDbLine
 62
7
  6
CONTINUOUS
 10
0.6
 20
7.5
 11
3.6
 21
7.5
  0
LINE
  5
5F0
100
AcDbEntity
  8
CURVE
100
AcDbLine
 62
253
  6
CONTINUOUS
 10
6.2714285836
 20
8.55
 11
6.5428571671
 21
8.55
  0
LINE
  5
5F1
100
AcDbEntity
  8
CURVE
100
AcDbLine
 62
7
  6
CONTINUOUS
 10
-2.95196
 20
8.982444
 11
-3.70278
 21
8.982444
  0
LINE
  5
5F2
100
AcDbEntity
  8
CURVE
100
AcDbLine
 62
7
  6
CONTINUOUS
 10
-7.29722
 20
8.982444
 11
-8.04804
 21
8.982444
  0
LINE
  5
5F3
100
AcDbEntity
  8
CURVE
100
AcDbLine
 62
253
  6
CONTINUOUS
 10
9.371428588
 20
4.8023806572
 11
9.185714294
 21
4.8952380657
  0
LINE
  5
5F4
100
AcDbEntity
  8
CURVE
100
AcDbLine
 62
253
  6
CONTINUOUS
 10
9.9285714507
 20
2.8523806572
 11
9.0
 21
3.4095238686
  0
LINE
  5
5F5
100
AcDbEntity
  8
SMUSSO
100
AcDbLine
 62
7
  6
CONTINUOUS
 10
-0.25
 20
11.25
 11
0.25
 21
10.75
  0
LINE
  5
5F6
100
AcDbEntity
  8
ASSI
100
AcDbLine
 62
7
  6
CONTINUOUS
 10
-0.25
 20
11.25
 11
0.25
 21
10.75
  0
LINE
  5
5F7
100
AcDbEntity
  8
SMUSSO
100
AcDbLine
 62
7
  6
CONTINUOUS
 10
4.75
 20
6.75
 11
4.25
 21
7.25
  0
LINE
  5
5F8
100
AcDbEntity
  8
ASSI
100
AcDbLine
 62
7
  6
CONTINUOUS
 10
4.75
 20
6.75
 11
4.25
 21
7.25
  0
LINE
  5
5F9
100
AcDbEntity
  8
CURVE
100
AcDbLine
 62
253
  6
CONTINUOUS
 10
9.5625
 20
-0.4375
 11
9.4375
 21
-0.1875
  0
LINE
  5
5FA
100
AcDbEntity
  8
CURVE
100
AcDbLine
 62
253
  6
CONTINUOUS
 10
8.5
 20
-0.6875
 11
8.5625
 21
-0.9375
  0
LINE
  5
5FB
100
AcDbEntity
  8
CURVE
100
AcDbLine
 62
253
  6
CONTINUOUS
 10
9.625
 20
-0.6875
 11
9.5625
 21
-0.4375
  0
LWPOLYLINE
  5
5FC
100
AcDbEntity
  8
0
100
AcDbPolyline
 62
253
  6
CONTINUOUS
 90
34
 70
0
 10
10.145628166
 20
-23.8443375673
 10
10.145311504
 20
-23.8340546062
 10
10.1444313098
 20
-23.823794854
 10
10.1429895699
 20
-23.8135814673
 10
10.1409895398
 20
-23.8034375035
 10
10.1384357329
 20
-23.7933858521
 10
10.1353339075
 20
-23.7834491834
 10
10.1316910568
 20
-23.773649913
 10
10.1275154039
 20
-23.7640101717
 10
10.1228163816
 20
-23.7545517387
 10
10.1176046015
 20
-23.7452959695
 10
10.1118918239
 20
-23.7362637463
 10
10.1056909407
 20
-23.7274754512
 10
10.0990159471
 20
-23.7189509186
 10
10.0918819095
 20
-23.7107093898
 10
10.08430493
 20
-23.7027694659
 10
10.0763021104
 20
-23.6951490678
 10
10.0678915133
 20
-23.6878653946
 10
10.0590921207
 20
-23.680934885
 10
10.0499237948
 20
-23.6743731824
 10
10.0404072274
 20
-23.6681950956
 10
10.0305638912
 20
-23.6624145653
 10
10.0204159898
 20
-23.6570446328
 10
10.0099864389
 20
-23.6520974265
 10
9.9992988113
 20
-23.6475841265
 10
9.9883772514
 20
-23.6435149235
 10
9.9772463916
 20
-23.6398989896
 10
9.9659313281
 20
-23.6367444758
 10
9.954457306
 20
-23.6340584395
 10
9.9428505087
 20
-23.6318470295
 10
9.9311379997
 20
-23.630115347
 10
9.9193465228
 20
-23.6288672183
 10
9.907502412
 20
-23.6281053043
 10
9.8956323968
 20
-23.6278312164
  0
LWPOLYLINE
  5
5FD
100
AcDbEntity
  8
0
100
AcDbPolyline
 62
7
  6
CONTINUOUS
 90
34
 70
0
 10
10.145628166
 20
24.2456323968
 10
10.1453445371
 20
24.2575290557
 10
10.144495097
 20
24.269398774
 10
10.1430817682
 20
24.2812146563
 10
10.1411077496
 20
24.292949936
 10
10.1385775126
 20
24.3045780153
 10
10.135496794
 20
24.3160725264
 10
10.1318725768
 20
24.3274074189
 10
10.1277130725
 20
24.3385570152
 10
10.1230277082
 20
24.3494960488
 10
10.1178271006
 20
24.3601997352
 10
10.1121230353
 20
24.3706438204
 10
10.105928443
 20
24.3808046326
 10
10.0992573629
 20
24.3906591487
 10
10.0921249119
 20
24.4001850429
 10
10.0845472554
 20
24.4093607299
 10
10.0765415612
 20
24.4181654255
 10
10.068125975
 20
24.4265791771
 10
10.0593195834
 20
24.4345829086
 10
10.0501423702
 20
24.4421584695
 10
10.0406151087
 20
24.4492887229
 10
10.030759324
 20
24.4559575601
 10
10.0205972484
 20
24.4621499225
 10
10.0101519949
 20
24.467851711
 10
9.9994474601
 20
24.4730498963
 10
9.988508059
 20
24.4777326699
 10
9.977358447
 20
24.4818895243
 10
9.9660236819
 20
24.4855111341
 10
9.9545277163
 20
24.4885897127
 10
9.942898281
 20
24.4911177026
 10
9.9311667864
 20
24.4930886486
 10
9.9193616109
 20
24.4944986445
 10
9.9075078683
 20
24.4953455463
 10
9.8956323968
 20
24.495628166
  0
LWPOLYLINE
  5
5FE
100
AcDbEntity
  8
0
100
AcDbPolyline
 62
7
  6
CONTINUOUS
 90
4
 70
0
 10
10.15
 20
24.2500042308
 10
10.1497168498
 20
24.261899516
 10
10.1488680342
 20
24.2737678556
 10
10.1474554741
 20
24.2855823661
  0
LINE
  5
5FF
100
AcDbEntity
  8
0
100
AcDbLine
 62
253
  6
CONTINUOUS
 10
9.8956323968
 20
23.6278312164
 11
9.9007229979
 21
23.1226497308
  0
LINE
  5
600
100
AcDbEntity
  8
0
100
AcDbLine
 62
253
  6
CONTINUOUS
 10
10.145628166
 20
23.8443375673
 11
10.15
 21
23.4104851482
  0
LINE
  5
601
100
AcDbEntity
  8
CURVE
100
AcDbLine
 62
253
  6
CONTINUOUS
 10
9.625
 20
-0.625
 11
9.625
 21
-0.6875
  0
LINE
  5
602
100
AcDbEntity
  8
CURVE
100
AcDbLine
 62
253
  6
CONTINUOUS
 10
9.7428571761
 20
4.4309522629
 11
9.7428571761
 21
3.7809522629
  0
LINE
  5
603
100
AcDbEntity
  8
CURVE
100
AcDbLine
 62
253
  6
CONTINUOUS
 10
9.7428571761
 20
6.0095238686
 11
9.7428571761
 21
6.3809522629
  0
LINE
  5
604
100
AcDbEntity
  8
CURVE
100
AcDbLine
 62
253
  6
CONTINUOUS
 10
9.7428571761
 20
12.1071429014
 11
9.7428571761
 21
12.2928571761
  0
LINE
  5
605
100
AcDbEntity
  8
RACCORDO
100
AcDbLine
 62
7
  6
CONTINUOUS
 10
9.7973819397
 20
-19.5263078747
 11
9.7973819397
 21
-19.6026183423
  0
LINE
  5
606
100
AcDbEntity
  8
ASSI
100
AcDbLine
 62
7
  6
CONTINUOUS
 10
9.7973819397
 20
-19.5263078747
 11
9.7973819397
 21
-19.6026183423
  0
LINE
  5
607
100
AcDbEntity
  8
0
100
AcDbLine
 62
253
  6
CONTINUOUS
 10
9.8956323968
 20
-23.6278312164
 11
9.8956323968
 21
-24.495628166
  0
LINE
  5
608
100
AcDbEntity
  8
0
100
AcDbLine
 62
253
  6
CONTINUOUS
 10
9.8956323968
 20
23.6278312164
 11
9.8956323968
 21
24.495628166
  0
LINE
  5
609
100
AcDbEntity
  8
CURVE
100
AcDbLine
 62
253
  6
CONTINUOUS
 10
9.9285714507
 20
3.4095238686
 11
9.9285714507
 21
2.8523806572
  0
LINE
  5
60A
100
AcDbEntity
  8
0
100
AcDbLine
 62
7
  6
CONTINUOUS
 10
10.145628166
 20
-24.2456323968
 11
10.145628166
 21
-23.8443375673
  0
LINE
  5
60B
100
AcDbEntity
  8
0
100
AcDbLine
 62
7
  6
CONTINUOUS
 10
10.145628166
 20
23.8443375673
 11
10.145628166
 21
24.2456323968
  0
LINE
  5
60C
100
AcDbEntity
  8
0
100
AcDbLine
 62
7
  6
CONTINUOUS
 10
10.15
 20
-22.4
 11
10.15
 21
-23.8443375673
  0
LINE
  5
60D
100
AcDbEntity
  8
0
100
AcDbLine
 62
7
  6
CONTINUOUS
 10
10.15
 20
22.4
 11
10.15
 21
23.8443375673
  0
LINE
  5
60E
100
AcDbEntity
  8
CURVE
100
AcDbLine
 62
253
  6
CONTINUOUS
 10
10.3
 20
11.2714285493
 11
10.3
 21
11.1785714507
  0
LINE
  5
60F
100
AcDbEntity
  8
CURVE
100
AcDbLine
 62
253
  6
CONTINUOUS
 10
10.3
 20
6.3809522629
 11
10.3
 21
5.8238096714
  0
LINE
  5
610
100
AcDbEntity
  8
CURVE
100
AcDbLine
 62
253
  6
CONTINUOUS
 10
10.3
 20
5.1738096714
 11
10.3
 21
5.0809522629
  0
LINE
  5
611
100
AcDbEntity
  8
CURVE
100
AcDbLine
 62
253
  6
CONTINUOUS
 10
10.3
 20
12.1071429014
 11
10.3
 21
12.4785714507
  0
LINE
  5
612
100
AcDbEntity
  8
CURVE
100
AcDbLine
 62
253
  6
CONTINUOUS
 10
10.3
 20
13.0357142746
 11
10.3
 21
13.314285706
  0
LINE
  5
613
100
AcDbEntity
  8
CURVE
100
AcDbLine
 62
253
  6
CONTINUOUS
 10
10.375
 20
-0.6875
 11
10.375
 21
-0.5625
  0
LINE
  5
614
100
AcDbEntity
  8
0
100
AcDbLine
 62
253
  6
CONTINUOUS
 10
9.9007229979
 20
-23.1226497308
 11
9.8956323968
 21
-23.6278312164
  0
LINE
  5
615
100
AcDbEntity
  8
0
100
AcDbLine
 62
253
  6
CONTINUOUS
 10
10.15
 20
-23.4104851482
 11
10.145628166
 21
-23.8443375673
  0
LWPOLYLINE
  5
616
100
AcDbEntity
  8
0
100
AcDbPolyline
 62
253
  6
CONTINUOUS
 90
34
 70
0
 10
10.145628166
 20
23.8443375673
 10
10.1453115153
 20
23.8340547998
 10
10.1444313535
 20
23.8237952398
 10
10.1429896672
 20
23.8135820427
 10
10.1409897102
 20
23.803438259
 10
10.1384359962
 20
23.7933867826
 10
10.1353342888
 20
23.7834502991
 10
10.1316915884
 20
23.7736512346
 10
10.1275161163
 20
23.764011705
 10
10.1228172964
 20
23.7545534661
 10
10.1176057336
 20
23.7452978646
 10
10.1118931901
 20
23.7362657898
 10
10.1056925587
 20
23.7274776267
 10
10.0990178339
 20
23.7189532096
 10
10.0918840803
 20
23.7107117775
 10
10.0843073982
 20
23.702771931
 10
10.0763048877
 20
23.6951515897
 10
10.0678946101
 20
23.6878679524
 10
10.0590955469
 20
23.6809374578
 10
10.049927557
 20
23.6743757476
 10
10.040411332
 20
23.6681976311
 10
10.0305683495
 20
23.6624170521
 10
10.0204208246
 20
23.6570470569
 10
10.0099916595
 20
23.6520997654
 10
9.9993043923
 20
23.6475863432
 10
9.9883831436
 20
23.6435169769
 10
9.9772525619
 20
23.6399008509
 10
9.9659377683
 20
23.6367461264
 10
9.9544642997
 20
23.6340599235
 10
9.9428580509
 20
23.6318483049
 10
9.9311452166
 20
23.630116262
 10
9.919352232
 20
23.6288677039
 10
9.9075057131
 20
23.6281054486
 10
9.8956323968
 20
23.6278312164
  0
LINE
  5
617
100
AcDbEntity
  8
CURVE
100
AcDbLine
 62
253
  6
CONTINUOUS
 10
10.3125
 20
-0.9375
 11
10.375
 21
-0.6875
  0
LINE
  5
618
100
AcDbEntity
  8
CURVE
100
AcDbLine
 62
253
  6
CONTINUOUS
 10
9.6875
 20
-0.4375
 11
9.625
 21
-0.625
  0
LINE
  5
619
100
AcDbEntity
  8
CURVE
100
AcDbLine
 62
253
  6
CONTINUOUS
 10
10.25
 20
-1.125
 11
10.3125
 21
-0.9375
  0
LINE
  5
61A
100
AcDbEntity
  8
CURVE
100
AcDbLine
 62
253
  6
CONTINUOUS
 10
10.1875
 20
-1.25
 11
10.25
 21
-1.125
  0
LINE
  5
61B
100
AcDbEntity
  8
DRAFT
100
AcDbLine
 62
7
  6
CONTINUOUS
 10
-6.6047224135
 20
-19.8047224135
 11
-6.5043634339
 21
-19.7043634339
  0
LINE
  5
61C
100
AcDbEntity
  8
DRAFT
100
AcDbLine
 62
7
  6
CONTINUOUS
 10
-6.6047224135
 20
-20.1047224135
 11
-6.5043634339
 21
-20.0043634339
  0
LINE
  5
61D
100
AcDbEntity
  8
CURVE
100
AcDbLine
 62
253
  6
CONTINUOUS
 10
-7.0714285493
 20
-12.0
 11
-8.0
 21
-12.2785716057
  0
LINE
  5
61E
100
AcDbEntity
  8
CURVE
100
AcDbLine
 62
253
  6
CONTINUOUS
 10
-3.0714285493
 20
-12.0
 11
-4.0
 21
-12.2785716057
  0
LINE
  5
61F
100
AcDbEntity
  8
CURVE
100
AcDbLine
 62
7
  6
CONTINUOUS
 10
-5.125
 20
9.382444
 11
-5.875
 21
9.382444
  0
LINE
  5
620
100
AcDbEntity
  8
CURVE
100
AcDbLine
 62
253
  6
CONTINUOUS
 10
7.3571428895
 20
9.5
 11
7.6285714447
 21
9.5
  0
LINE
  5
621
100
AcDbEntity
  8
0
100
AcDbLine
 62
7
  6
CONTINUOUS
 10
3.6
 20
10.5
 11
0.6
 21
10.5
  0
LINE
  5
622
100
AcDbEntity
  8
SMUSSO
100
AcDbLine
 62
7
  6
CONTINUOUS
 10
0.25
 20
10.75
 11
4.25
 21
10.75
  0
LINE
  5
623
100
AcDbEntity
  8
ASSI
100
AcDbLine
 62
7
  6
CONTINUOUS
 10
0.25
 20
10.75
 11
4.25
 21
10.75
  0
LINE
  5
624
100
AcDbEntity
  8
CURVE
100
AcDbLine
 62
253
  6
CONTINUOUS
 10
9.9285714507
 20
10.9
 11
9.371428588
 21
10.9
  0
LINE
  5
625
100
AcDbEntity
  8
CURVE
100
AcDbLine
 62
253
  6
CONTINUOUS
 10
9.9285714507
 20
5.4523806572
 11
10.1142857254
 21
5.3595238686
  0
LINE
  5
626
100
AcDbEntity
  8
DRAFT
100
AcDbLine
 62
7
  6
CONTINUOUS
 10
-6.6047224135
 20
19.8047224135
 11
-6.5043634339
 21
19.7043634339
  0
LINE
  5
627
100
AcDbEntity
  8
DRAFT
100
AcDbLine
 62
7
  6
CONTINUOUS
 10
-6.6047224135
 20
20.1047224135
 11
-6.5043634339
 21
20.0043634339
  0
LINE
  5
628
100
AcDbEntity
  8
CURVE
100
AcDbLine
 62
253
  6
CONTINUOUS
 10
9.185714294
 20
4.8952380657
 11
9.0
 21
5.0809522629
  0
LINE
  5
629
100
AcDbEntity
  8
CURVE
100
AcDbLine
 62
253
  6
CONTINUOUS
 10
6.0
 20
8.8214285553
 11
6.2714285836
 21
8.55
  0
LINE
  5
62A
100
AcDbEntity
  8
CURVE
100
AcDbLine
 62
253
  6
CONTINUOUS
 10
9.0
 20
6.0095238686
 11
9.185714294
 21
5.8238096714
  0
LINE
  5
62B
100
AcDbEntity
  8
CURVE
100
AcDbLine
 62
253
  6
CONTINUOUS
 10
10.1142857254
 20
5.3595238686
 11
10.3
 21
5.1738096714
  0
LINE
  5
62C
100
AcDbEntity
  8
CURVE
100
AcDbLine
 62
253
  6
CONTINUOUS
 10
10.375
 20
-0.5625
 11
10.3125
 21
-0.375
  0
LWPOLYLINE
  5
62D
100
AcDbEntity
  8
0
100
AcDbPolyline
 62
7
  6
CONTINUOUS
 90
40
 70
0
 10
11.15
 20
21.8997711479
 10
11.1496011542
 20
21.9198999433
 10
11.1483943263
 20
21.9399911946
 10
11.1463815669
 20
21.9600125729
 10
11.1435665894
 20
21.9799279069
 10
11.1399539427
 20
21.9997091412
 10
11.1355476462
 20
22.0193361401
 10
11.1303534229
 20
22.0387786561
 10
11.1243787294
 20
22.0580033578
 10
11.1176301844
 20
22.0769853683
 10
11.1101125158
 20
22.0957039561
 10
11.101839741
 20
22.1141170912
 10
11.0928367141
 20
22.1321695942
 10
11.0831284461
 20
22.149817212
 10
11.0727242114
 20
22.1670483607
 10
11.0616273089
 20
22.1838576898
 10
11.0498430866
 20
22.2002320605
 10
11.0373993445
 20
22.2161280105
 10
11.0243349531
 20
22.2314962575
 10
11.0106868398
 20
22.2462983041
 10
10.9964655797
 20
22.2605273631
 10
10.9816720103
 20
22.2741827498
 10
10.9663134846
 20
22.2872535323
 10
10.95042807
 20
22.299703298
 10
10.9340635554
 20
22.3114944468
 10
10.9172627083
 20
22.3225993795
 10
10.9000391799
 20
22.3330121997
 10
10.8823985142
 20
22.342729553
 10
10.8643512692
 20
22.351742425
 10
10.8459426326
 20
22.3600251252
 10
10.8272311009
 20
22.367551676
 10
10.8082617596
 20
22.3743071586
 10
10.7890526441
 20
22.3802883352
 10
10.7696232292
 20
22.3854906619
 10
10.749993711
 20
22.3899085853
 10
10.7302071767
 20
22.393532297
 10
10.7103178672
 20
22.3963539679
 10
10.6903657436
 20
22.3983717072
 10
10.6703758992
 20
22.3995866261
 10
10.6503805997
 20
22.4
  0
LINE
  5
62E
100
AcDbEntity
  8
RACCORDO
100
AcDbLine
 62
7
  6
CONTINUOUS
 10
11.0130903017
 20
-17.9912243901
 11
11.0130903017
 21
17.9912243901
  0
LINE
  5
62F
100
AcDbEntity
  8
ASSI
100
AcDbLine
 62
7
  6
CONTINUOUS
 10
11.0130903017
 20
-17.9912243901
 11
11.0130903017
 21
17.9912243901
  0
LINE
  5
630
100
AcDbEntity
  8
RACCORDO
100
AcDbLine
 62
7
  6
CONTINUOUS
 10
11.0278145455
 20
-17.6210881763
 11
11.0278145455
 21
17.6210881763
  0
LINE
  5
631
100
AcDbEntity
  8
0
100
AcDbLine
 62
7
  6
CONTINUOUS
 10
11.1325462644
 20
-18.5174537356
 11
11.1325462644
 21
-17.9192894123
  0
LINE
  5
632
100
AcDbEntity
  8
0
100
AcDbLine
 62
7
  6
CONTINUOUS
 10
11.1325462644
 20
17.9192894123
 11
11.1325462644
 21
18.5174537356
  0
LINE
  5
633
100
AcDbEntity
  8
0
100
AcDbLine
 62
7
  6
CONTINUOUS
 10
11.1412731322
 20
21.8941990932
 11
11.1412731322
 21
18.5087268678
  0
LINE
  5
634
100
AcDbEntity
  8
0
100
AcDbLine
 62
7
  6
CONTINUOUS
 10
11.1412731322
 20
-18.5087268678
 11
11.1412731322
 21
-21.8941990932
  0
LINE
  5
635
100
AcDbEntity
  8
0
100
AcDbLine
 62
7
  6
CONTINUOUS
 10
11.15
 20
21.900016923
 11
11.15
 21
17.6716990487
  0
LINE
  5
636
100
AcDbEntity
  8
0
100
AcDbLine
 62
7
  6
CONTINUOUS
 10
11.15
 20
-17.6716990487
 11
11.15
 21
-21.900016923
  0
LINE
  5
637
100
AcDbEntity
  8
RACCORDO
100
AcDbLine
 62
7
  6
CONTINUOUS
 10
11.15
 20
-17.6716990487
 11
11.15
 21
17.6716990487
  0
LWPOLYLINE
  5
638
100
AcDbEntity
  8
0
100
AcDbPolyline
 62
7
  6
CONTINUOUS
 90
40
 70
0
 10
11.15
 20
-21.8997711479
 10
11.1496011542
 20
-21.9198999433
 10
11.1483943263
 20
-21.9399911946
 10
11.1463815669
 20
-21.9600125729
 10
11.1435665894
 20
-21.9799279069
 10
11.1399539427
 20
-21.9997091412
 10
11.1355476462
 20
-22.0193361401
 10
11.1303534229
 20
-22.0387786561
 10
11.1243787294
 20
-22.0580033578
 10
11.1176301844
 20
-22.0769853683
 10
11.1101125158
 20
-22.0957039561
 10
11.101839741
 20
-22.1141170912
 10
11.0928367141
 20
-22.1321695942
 10
11.0831284461
 20
-22.149817212
 10
11.0727242114
 20
-22.1670483607
 10
11.0616273089
 20
-22.1838576898
 10
11.0498430866
 20
-22.2002320605
 10
11.0373993445
 20
-22.2161280105
 10
11.0243349531
 20
-22.2314962575
 10
11.0106868398
 20
-22.2462983041
 10
10.9964655797
 20
-22.2605273631
 10
10.9816720103
 20
-22.2741827498
 10
10.9663134846
 20
-22.2872535323
 10
10.95042807
 20
-22.299703298
 10
10.9340635554
 20
-22.3114944468
 10
10.9172627083
 20
-22.3225993795
 10
10.9000391799
 20
-22.3330121997
 10
10.8823985142
 20
-22.342729553
 10
10.8643512692
 20
-22.351742425
 10
10.8459426326
 20
-22.3600251252
 10
10.8272311009
 20
-22.367551676
 10
10.8082617596
 20
-22.3743071586
 10
10.7890526441
 20
-22.3802883352
 10
10.7696232292
 20
-22.3854906619
 10
10.749993711
 20
-22.3899085853
 10
10.7302071767
 20
-22.393532297
 10
10.7103178672
 20
-22.3963539679
 10
10.6903657436
 20
-22.3983717072
 10
10.6703758992
 20
-22.3995866261
 10
10.6503805997
 20
-22.4
  0
LINE
  5
639
100
AcDbEntity
  8
0
100
AcDbLine
 62
7
  6
CONTINUOUS
 10
-4.3373399202
 20
-23.865863904
 11
-4.3180115379
 21
-23.8443548279
  0
LINE
  5
63A
100
AcDbEntity
  8
DRAFT
100
AcDbLine
 62
7
  6
CONTINUOUS
 10
-3.5
 20
-19.7
 11
-3.4633443637
 21
-19.6633443637
  0
LINE
  5
63B
100
AcDbEntity
  8
DRAFT
100
AcDbLine
 62
7
  6
CONTINUOUS
 10
-3.5
 20
-19.9
 11
-3.4633443637
 21
-19.8633443637
  0
LINE
  5
63C
100
AcDbEntity
  8
0
100
AcDbLine
 62
7
  6
CONTINUOUS
 10
-4.45
 20
-22.4
 11
-4.406077753
 21
-22.356077753
  0
LINE
  5
63D
100
AcDbEntity
  8
0
100
AcDbLine
 62
7
  6
CONTINUOUS
 10
-7.1905416262
 20
-22.3359700255
 11
-7.2558178298
 21
-22.3941821702
  0
LINE
  5
63E
100
AcDbEntity
  8
0
100
AcDbLine
 62
253
  6
CONTINUOUS
 10
-11.15
 20
-21.900016923
 11
-11.1412731322
 21
-21.8941990932
  0
LINE
  5
63F
100
AcDbEntity
  8
0
100
AcDbLine
 62
253
  6
CONTINUOUS
 10
-10.6500063461
 20
-22.4
 11
-10.6412794783
 21
-22.3941821702
  0
LINE
  5
640
100
AcDbEntity
  8
RACCORDO
100
AcDbLine
 62
253
  6
CONTINUOUS
 10
-11.15
 20
-17.6716990487
 11
-11.0278145455
 21
-17.6210881763
  0
LINE
  5
641
100
AcDbEntity
  8
RACCORDO
100
AcDbLine
 62
7
  6
CONTINUOUS
 10
-10.7130788782
 20
11.15
 11
-9.8
 21
11.15
  0
LINE
  5
642
100
AcDbEntity
  8
ASSI
100
AcDbLine
 62
7
  6
CONTINUOUS
 10
-10.7130788782
 20
11.15
 11
-9.8
 21
11.15
  0
LINE
  5
643
100
AcDbEntity
  8
SMUSSO
100
AcDbLine
 62
7
  6
CONTINUOUS
 10
-0.25
 20
11.25
 11
4.75
 21
11.25
  0
LINE
  5
644
100
AcDbEntity
  8
ASSI
100
AcDbLine
 62
7
  6
CONTINUOUS
 10
-0.25
 20
11.25
 11
4.75
 21
11.25
  0
LINE
  5
645
100
AcDbEntity
  8
CURVE
100
AcDbLine
 62
253
  6
CONTINUOUS
 10
9.371428588
 20
11.55
 11
9.9285714507
 21
11.55
  0
LINE
  5
646
100
AcDbEntity
  8
SMUSSO
100
AcDbLine
 62
7
  6
CONTINUOUS
 10
4.75
 20
11.75
 11
-0.25
 21
11.75
  0
LINE
  5
647
100
AcDbEntity
  8
ASSI
100
AcDbLine
 62
7
  6
CONTINUOUS
 10
4.75
 20
11.75
 11
-0.25
 21
11.75
  0
LINE
  5
648
100
AcDbEntity
  8
RACCORDO
100
AcDbLine
 62
7
  6
CONTINUOUS
 10
-10.7130788782
 20
11.85
 11
-9.8
 21
11.85
  0
LINE
  5
649
100
AcDbEntity
  8
ASSI
100
AcDbLine
 62
7
  6
CONTINUOUS
 10
-10.7130788782
 20
11.85
 11
-9.8
 21
11.85
  0
LINE
  5
64A
100
AcDbEntity
  8
CURVE
100
AcDbLine
 62
253
  6
CONTINUOUS
 10
9.092857147
 20
11.9214285493
 11
9.5571428627
 21
11.9214285493
  0
LINE
  5
64B
100
AcDbEntity
  8
CURVE
100
AcDbLine
 62
253
  6
CONTINUOUS
 10
9.8357142746
 20
11.9523809671
 11
10.1142857254
 21
11.9523809671
  0
LINE
  5
64C
100
AcDbEntity
  8
SMUSSO
100
AcDbLine
 62
7
  6
CONTINUOUS
 10
4.25
 20
12.25
 11
0.25
 21
12.25
  0
LINE
  5
64D
100
AcDbEntity
  8
ASSI
100
AcDbLine
 62
7
  6
CONTINUOUS
 10
4.25
 20
12.25
 11
0.25
 21
12.25
  0
LINE
  5
64E
100
AcDbEntity
  8
0
100
AcDbLine
 62
7
  6
CONTINUOUS
 10
0.6
 20
12.5
 11
3.6
 21
12.5
  0
LINE
  5
64F
100
AcDbEntity
  8
CURVE
100
AcDbLine
 62
253
  6
CONTINUOUS
 10
9.0
 20
10.1571429014
 11
10.3
 21
9.7857141972
  0
LINE
  5
650
100
AcDbEntity
  8
RACCORDO
100
AcDbLine
 62
253
  6
CONTINUOUS
 10
-11.0278145455
 20
17.6210881763
 11
-11.15
 21
17.6716990487
  0
LINE
  5
651
100
AcDbEntity
  8
0
100
AcDbLine
 62
253
  6
CONTINUOUS
 10
-11.1412731322
 20
21.8941990932
 11
-11.15
 21
21.900016923
  0
LINE
  5
652
100
AcDbEntity
  8
0
100
AcDbLine
 62
253
  6
CONTINUOUS
 10
-10.6412794783
 20
22.3941821702
 11
-10.6500063461
 21
22.4
  0
LINE
  5
653
100
AcDbEntity
  8
0
100
AcDbLine
 62
7
  6
CONTINUOUS
 10
-7.1905416262
 20
22.3359700255
 11
-7.2558178298
 21
22.3941821702
  0
LINE
  5
654
100
AcDbEntity
  8
SMUSSO
100
AcDbLine
 62
7
  6
CONTINUOUS
 10
-0.25
 20
16.25
 11
0.25
 21
15.75
  0
LINE
  5
655
100
AcDbEntity
  8
ASSI
100
AcDbLine
 62
7
  6
CONTINUOUS
 10
-0.25
 20
16.25
 11
0.25
 21
15.75
  0
LINE
  5
656
100
AcDbEntity
  8
DRAFT
100
AcDbLine
 62
7
  6
CONTINUOUS
 10
-3.5
 20
19.7
 11
-3.4633443637
 21
19.6633443637
  0
LINE
  5
657
100
AcDbEntity
  8
DRAFT
100
AcDbLine
 62
7
  6
CONTINUOUS
 10
-3.4633443637
 20
19.8633443637
 11
-3.5
 21
19.9
  0
LINE
  5
658
100
AcDbEntity
  8
SMUSSO
100
AcDbLine
 62
7
  6
CONTINUOUS
 10
4.75
 20
11.75
 11
4.25
 21
12.25
  0
LINE
  5
659
100
AcDbEntity
  8
ASSI
100
AcDbLine
 62
7
  6
CONTINUOUS
 10
4.75
 20
11.75
 11
4.25
 21
12.25
  0
LINE
  5
65A
100
AcDbEntity
  8
CURVE
100
AcDbLine
 62
253
  6
CONTINUOUS
 10
7.6285714447
 20
9.5
 11
7.9
 21
9.2285714164
  0
LINE
  5
65B
100
AcDbEntity
  8
0
100
AcDbLine
 62
7
  6
CONTINUOUS
 10
-4.45
 20
22.4
 11
-4.406077753
 21
22.356077753
  0
LWPOLYLINE
  5
65C
100
AcDbEntity
  8
0
100
AcDbPolyline
 62
7
  6
CONTINUOUS
 90
18
 70
0
 10
-4.3179022606
 20
23.8442340578
 10
-4.3372254864
 20
23.8657357489
 10
-4.3458708143
 20
23.8754832272
 10
-4.3538540745
 20
23.8845739756
 10
-4.3611942618
 20
23.8930129663
 10
-4.3679297228
 20
23.9008665776
 10
-4.3740668939
 20
23.9081364934
 10
-4.3796205629
 20
23.9148210297
 10
-4.3846289019
 20
23.9209815126
 10
-4.3891006634
 20
23.9266296229
 10
-4.3930348488
 20
23.9317536798
 10
-4.3964442019
 20
23.9363799673
 10
-4.3993328571
 20
23.9405114994
 10
-4.4017022847
 20
23.944145262
 10
-4.4035576521
 20
23.9472984966
 10
-4.4049027605
 20
23.9499769502
 10
-4.405741231
 20
23.9521748757
 10
-4.406077753
 20
23.9538922731
  0
LINE
  5
65D
100
AcDbEntity
  8
CURVE
100
AcDbLine
 62
253
  6
CONTINUOUS
 10
9.4023809671
 20
9.4142858028
 11
9.4952381045
 21
9.1976190329
  0
LINE
  5
65E
100
AcDbEntity
  8
CURVE
100
AcDbLine
 62
253
  6
CONTINUOUS
 10
9.3095238104
 20
8.95
 11
9.4023809671
 21
8.7023809671
  0
LINE
  5
65F
100
AcDbEntity
  8
0
100
AcDbLine
 62
7
  6
CONTINUOUS
 10
-4.3180115379
 20
-23.8443548279
 11
-4.2958658709
 21
-23.8200336263
  0
LINE
  5
660
100
AcDbEntity
  8
0
100
AcDbLine
 62
7
  6
CONTINUOUS
 10
-4.2958658709
 20
-23.8200336263
 11
-4.270793474
 21
-23.7927829281
  0
LINE
  5
661
100
AcDbEntity
  8
0
100
AcDbLine
 62
7
  6
CONTINUOUS
 10
-4.270793474
 20
-23.7927829281
 11
-4.2275954144
 21
-23.7463234953
  0
LINE
  5
662
100
AcDbEntity
  8
0
100
AcDbLine
 62
7
  6
CONTINUOUS
 10
-4.2275954144
 20
-23.7463234953
 11
-4.1598294826
 21
-23.6741772238
  0
LINE
  5
663
100
AcDbEntity
  8
0
100
AcDbLine
 62
7
  6
CONTINUOUS
 10
-4.1598294826
 20
-23.6741772238
 11
-4.1220172249
 21
-23.6341891571
  0
LINE
  5
664
100
AcDbEntity
  8
0
100
AcDbLine
 62
7
  6
CONTINUOUS
 10
-4.1220172249
 20
-23.6341891571
 11
-4.0401083348
 21
-23.5478454405
  0
LINE
  5
665
100
AcDbEntity
  8
0
100
AcDbLine
 62
7
  6
CONTINUOUS
 10
-4.0401083348
 20
-23.5478454405
 11
-3.9530427099
 21
-23.4563578147
  0
LINE
  5
666
100
AcDbEntity
  8
0
100
AcDbLine
 62
7
  6
CONTINUOUS
 10
-4.4063493531
 20
-23.9563493531
 11
-4.45
 21
-24.0
  0
LWPOLYLINE
  5
667
100
AcDbEntity
  8
RACCORDO
100
AcDbPolyline
 62
253
  6
CONTINUOUS
 90
3
 70
0
 10
-1.8933221907
 20
-17.3448141709
 10
-1.8502766567
 20
-17.3177640399
 10
-1.8027519366
 20
-17.2979015438
  0
LINE
  5
668
100
AcDbEntity
  8
RACCORDO
100
AcDbLine
 62
253
  6
CONTINUOUS
 10
-10.5643027805
 20
-19.0856972195
 11
-10.442117326
 21
-19.0350863471
  0
LINE
  5
669
100
AcDbEntity
  8
CURVE
100
AcDbLine
 62
253
  6
CONTINUOUS
 10
9.9285714507
 20
12.85
 11
10.1142857254
 21
12.85
  0
LINE
  5
66A
100
AcDbEntity
  8
CURVE
100
AcDbLine
 62
7
  6
CONTINUOUS
 10
-2.95196
 20
13.367554
 11
-3.70278
 21
13.367554
  0
LINE
  5
66B
100
AcDbEntity
  8
CURVE
100
AcDbLine
 62
7
  6
CONTINUOUS
 10
-7.29722
 20
13.367554
 11
-8.04804
 21
13.367554
  0
LINE
  5
66C
100
AcDbEntity
  8
CURVE
100
AcDbLine
 62
253
  6
CONTINUOUS
 10
7.9
 20
14.2
 11
6.0
 21
14.2
  0
LINE
  5
66D
100
AcDbEntity
  8
RACCORDO
100
AcDbLine
 62
253
  6
CONTINUOUS
 10
-9.8595407725
 20
14.5655503016
 11
-9.8
 21
14.5655503016
  0
LINE
  5
66E
100
AcDbEntity
  8
RACCORDO
100
AcDbLine
 62
253
  6
CONTINUOUS
 10
-10.442117326
 20
19.0350863471
 11
-10.5643027805
 21
19.0856972195
  0
LINE
  5
66F
100
AcDbEntity
  8
CURVE
100
AcDbLine
 62
253
  6
CONTINUOUS
 10
9.371428588
 20
10.9
 11
9.185714294
 21
10.9928570986
  0
LWPOLYLINE
  5
670
100
AcDbEntity
  8
RACCORDO
100
AcDbPolyline
 62
253
  6
CONTINUOUS
 90
4
 70
0
 10
-1.8933221907
 20
17.3448141709
 10
-1.8502766567
 20
17.3177640399
 10
-1.8027519366
 20
17.2979015438
 10
-1.7521424653
 20
17.285755926
  0
LINE
  5
671
100
AcDbEntity
  8
0
100
AcDbLine
 62
7
  6
CONTINUOUS
 10
-4.4063493531
 20
23.9563493531
 11
-4.45
 21
24.0
  0
LINE
  5
672
100
AcDbEntity
  8
CURVE
100
AcDbLine
 62
253
  6
CONTINUOUS
 10
9.185714294
 20
10.9928570986
 11
9.0
 21
11.1785714507
  0
LINE
  5
673
100
AcDbEntity
  8
0
100
AcDbLine
 62
7
  6
CONTINUOUS
 10
-3.9530427099
 20
23.4563578147
 11
-4.1597487793
 21
23.6740920824
  0
LINE
  5
674
100
AcDbEntity
  8
0
100
AcDbLine
 62
7
  6
CONTINUOUS
 10
-4.1597487793
 20
23.6740920824
 11
-4.2274715278
 21
23.7461908354
  0
LINE
  5
675
100
AcDbEntity
  8
0
100
AcDbLine
 62
7
  6
CONTINUOUS
 10
-4.2274715278
 20
23.7461908354
 11
-4.2706733437
 21
23.7926528975
  0
LINE
  5
676
100
AcDbEntity
  8
0
100
AcDbLine
 62
7
  6
CONTINUOUS
 10
-4.2706733437
 20
23.7926528975
 11
-4.2957517907
 21
23.8199088518
  0
LINE
  5
677
100
AcDbEntity
  8
0
100
AcDbLine
 62
7
  6
CONTINUOUS
 10
-4.2957517907
 20
23.8199088518
 11
-4.3179022606
 21
23.8442340578
  0
LINE
  5
678
100
AcDbEntity
  8
CURVE
100
AcDbLine
 62
253
  6
CONTINUOUS
 10
9.7428571761
 20
12.1071429014
 11
9.8357142746
 21
11.9523809671
  0
LWPOLYLINE
  5
679
100
AcDbEntity
  8
0
100
AcDbPolyline
 62
7
  6
CONTINUOUS
 90
6
 70
0
 10
10.1474554741
 20
24.2855823661
 10
10.1454823677
 20
24.2973162875
 10
10.1429531817
 20
24.3089430388
 10
10.1398736417
 20
24.320436279
 10
10.1362507213
 20
24.3317699738
 10
10.1320926258
 20
24.3429184493
  0
LINE
  5
67A
100
AcDbEntity
  8
RACCORDO
100
AcDbLine
 62
253
  6
CONTINUOUS
 10
-9.8586133199
 20
14.8655046102
 11
-9.8
 21
14.8655046102
  0
LINE
  5
67B
100
AcDbEntity
  8
RACCORDO
100
AcDbLine
 62
7
  6
CONTINUOUS
 10
-9.8585665218
 20
14.8778145455
 11
-9.8
 21
14.8778145455
  0
LINE
  5
67C
100
AcDbEntity
  8
0
100
AcDbLine
 62
7
  6
CONTINUOUS
 10
3.6
 20
15.5
 11
0.6
 21
15.5
  0
LINE
  5
67D
100
AcDbEntity
  8
SMUSSO
100
AcDbLine
 62
7
  6
CONTINUOUS
 10
0.25
 20
15.75
 11
4.25
 21
15.75
  0
LINE
  5
67E
100
AcDbEntity
  8
ASSI
100
AcDbLine
 62
7
  6
CONTINUOUS
 10
0.25
 20
15.75
 11
4.25
 21
15.75
  0
LINE
  5
67F
100
AcDbEntity
  8
RACCORDO
100
AcDbLine
 62
7
  6
CONTINUOUS
 10
-10.7130788782
 20
16.15
 11
-9.8
 21
16.15
  0
LINE
  5
680
100
AcDbEntity
  8
ASSI
100
AcDbLine
 62
7
  6
CONTINUOUS
 10
-10.7130788782
 20
16.15
 11
-9.8
 21
16.15
  0
LINE
  5
681
100
AcDbEntity
  8
SMUSSO
100
AcDbLine
 62
7
  6
CONTINUOUS
 10
-0.25
 20
16.25
 11
4.75
 21
16.25
  0
LINE
  5
682
100
AcDbEntity
  8
ASSI
100
AcDbLine
 62
7
  6
CONTINUOUS
 10
-0.25
 20
16.25
 11
4.75
 21
16.25
  0
LINE
  5
683
100
AcDbEntity
  8
CURVE
100
AcDbLine
 62
253
  6
CONTINUOUS
 10
9.9285714507
 20
11.55
 11
10.1142857254
 21
11.4571429014
  0
LINE
  5
684
100
AcDbEntity
  8
CURVE
100
AcDbLine
 62
253
  6
CONTINUOUS
 10
9.0
 20
13.5
 11
9.9285714507
 21
12.85
  0
LINE
  5
685
100
AcDbEntity
  8
CURVE
100
AcDbLine
 62
253
  6
CONTINUOUS
 10
9.0
 20
12.0142856479
 11
9.092857147
 21
11.9214285493
  0
LINE
  5
686
100
AcDbEntity
  8
CURVE
100
AcDbLine
 62
253
  6
CONTINUOUS
 10
10.1142857254
 20
11.4571429014
 11
10.3
 21
11.2714285493
  0
LWPOLYLINE
  5
687
100
AcDbEntity
  8
0
100
AcDbPolyline
 62
7
  6
CONTINUOUS
 90
9
 70
0
 10
10.1320926258
 20
-24.3429184493
 10
10.1362507213
 20
-24.3317699738
 10
10.1398736417
 20
-24.320436279
 10
10.1429531817
 20
-24.3089430388
 10
10.1454823677
 20
-24.2973162875
 10
10.1474554741
 20
-24.2855823661
 10
10.1488680342
 20
-24.2737678556
 10
10.1497168498
 20
-24.261899516
 10
10.15
 20
-24.2500042308
  0
LINE
  5
688
100
AcDbEntity
  8
RACCORDO
100
AcDbLine
 62
253
  6
CONTINUOUS
 10
1.7521424653
 20
17.285755926
 11
1.7
 21
17.2816718427
  0
LINE
  5
689
100
AcDbEntity
  8
0
100
AcDbLine
 62
7
  6
CONTINUOUS
 10
2.5
 20
16.6
 11
-2.5
 21
16.6
  0
LINE
  5
68A
100
AcDbEntity
  8
ASSI
100
AcDbLine
 62
7
  6
CONTINUOUS
 10
2.5
 20
16.6
 11
-2.5
 21
16.6
  0
LINE
  5
68B
100
AcDbEntity
  8
RACCORDO
100
AcDbLine
 62
7
  6
CONTINUOUS
 10
-1.7
 20
17.25
 11
1.7
 21
17.25
  0
LINE
  5
68C
100
AcDbEntity
  8
RACCORDO
100
AcDbLine
 62
253
  6
CONTINUOUS
 10
-1.7
 20
17.2816718427
 11
1.7
 21
17.2816718427
  0
LINE
  5
68D
100
AcDbEntity
  8
RACCORDO
100
AcDbLine
 62
7
  6
CONTINUOUS
 10
1.6039930308
 20
17.3
 11
-1.6039930308
 21
17.3
  0
LINE
  5
68E
100
AcDbEntity
  8
ASSI
100
AcDbLine
 62
7
  6
CONTINUOUS
 10
1.6039930308
 20
17.3
 11
-1.6039930308
 21
17.3
  0
LINE
  5
68F
100
AcDbEntity
  8
ASSI
100
AcDbLine
 62
7
  6
CONTINUOUS
 10
2.5
 20
17.5
 11
-2.5
 21
17.5
  0
LINE
  5
690
100
AcDbEntity
  8
RACCORDO
100
AcDbLine
 62
253
  6
CONTINUOUS
 10
-1.7521424653
 20
17.285755926
 11
-1.7
 21
17.2816718427
  0
LINE
  5
691
100
AcDbEntity
  8
CURVE
100
AcDbLine
 62
253
  6
CONTINUOUS
 10
10.3
 20
13.314285706
 11
10.0214285493
 21
13.5
  0
LWPOLYLINE
  5
692
100
AcDbEntity
  8
0
100
AcDbPolyline
 62
7
  6
CONTINUOUS
 90
5
 70
0
 10
3.5340842777
 20
-23.9056713724
 10
3.5406092046
 20
-23.8980214189
 10
3.5477997176
 20
-23.8896773368
 10
3.5556736036
 20
-23.8806391262
 10
3.5642451476
 20
-23.8709233186
  0
LINE
  5
693
100
AcDbEntity
  8
0
100
AcDbLine
 62
7
  6
CONTINUOUS
 10
3.5642451476
 20
-23.8709233186
 11
3.583552219
 21
-23.849359723
  0
LINE
  5
694
100
AcDbEntity
  8
0
100
AcDbLine
 62
7
  6
CONTINUOUS
 10
3.583552219
 20
-23.849359723
 11
3.6058724745
 21
-23.8247811188
  0
LINE
  5
695
100
AcDbEntity
  8
0
100
AcDbLine
 62
7
  6
CONTINUOUS
 10
3.6058724745
 20
-23.8247811188
 11
3.6311595745
 21
-23.7972576022
  0
LINE
  5
696
100
AcDbEntity
  8
0
100
AcDbLine
 62
7
  6
CONTINUOUS
 10
3.6311595745
 20
-23.7972576022
 11
3.6745616937
 21
-23.750534558
  0
LINE
  5
697
100
AcDbEntity
  8
0
100
AcDbLine
 62
7
  6
CONTINUOUS
 10
3.6745616937
 20
-23.750534558
 11
3.7426374126
 21
-23.6780165838
  0
LINE
  5
698
100
AcDbEntity
  8
0
100
AcDbLine
 62
7
  6
CONTINUOUS
 10
3.7426374126
 20
-23.6780165838
 11
3.865695611
 21
-23.5481375714
  0
LINE
  5
699
100
AcDbEntity
  8
0
100
AcDbLine
 62
7
  6
CONTINUOUS
 10
3.865695611
 20
-23.5481375714
 11
3.9530427099
 21
-23.4563578147
  0
LINE
  5
69A
100
AcDbEntity
  8
DRAFT
100
AcDbLine
 62
7
  6
CONTINUOUS
 10
7.1952775865
 20
-19.8047224135
 11
7.2956365661
 21
-19.7043634339
  0
LINE
  5
69B
100
AcDbEntity
  8
DRAFT
100
AcDbLine
 62
7
  6
CONTINUOUS
 10
7.4
 20
-19.7
 11
7.4366556363
 21
-19.6633443637
  0
LINE
  5
69C
100
AcDbEntity
  8
DRAFT
100
AcDbLine
 62
7
  6
CONTINUOUS
 10
7.1952775865
 20
-20.9959955457
 11
7.2912734645
 21
-20.9000003323
  0
LINE
  5
69D
100
AcDbEntity
  8
DRAFT
100
AcDbLine
 62
7
  6
CONTINUOUS
 10
7.2912734645
 20
-20.9087265355
 11
7.3
 21
-20.9
  0
LINE
  5
69E
100
AcDbEntity
  8
0
100
AcDbLine
 62
7
  6
CONTINUOUS
 10
1.0
 20
-22.4
 11
1.0086739534
 21
-22.3947957125
  0
LWPOLYLINE
  5
69F
100
AcDbEntity
  8
0
100
AcDbPolyline
 62
7
  6
CONTINUOUS
 90
18
 70
0
 10
-7.4070815507
 20
-24.4820926258
 10
-7.3961435537
 20
-24.4774087722
 10
-7.3854408124
 20
-24.4722097688
 10
-7.3749975717
 20
-24.4665073916
 10
-7.3648374941
 20
-24.4603145581
 10
-7.3549835949
 20
-24.4536452955
 10
-7.3454581962
 20
-24.4465147107
 10
-7.3362828809
 20
-24.4389389589
 10
-7.3274784339
 20
-24.4309352005
 10
-7.3190647995
 20
-24.4225215661
 10
-7.3110610411
 20
-24.4137171191
 10
-7.3034852893
 20
-24.4045418038
 10
-7.2963547045
 20
-24.3950164051
 10
-7.2896854419
 20
-24.3851625059
 10
-7.2834926084
 20
-24.3750024283
 10
-7.2777902312
 20
-24.3645591876
 10
-7.2725912278
 20
-24.3538564463
 10
-7.2679073742
 20
-24.3429184493
  0
LINE
  5
6A0
100
AcDbEntity
  8
RACCORDO
100
AcDbLine
 62
7
  6
CONTINUOUS
 10
2.1464466094
 20
18.2325400167
 11
2.5005617456
 21
18.2356303326
  0
LWPOLYLINE
  5
6A1
100
AcDbEntity
  8
0
100
AcDbPolyline
 62
7
  6
CONTINUOUS
 90
12
 70
0
 10
1.6243964614
 20
19.8846288165
 10
1.7422682896
 20
19.8850092905
 10
1.8551397193
 20
19.8856281018
 10
1.9644955018
 20
19.8865000664
 10
2.0688508859
 20
19.8876103683
 10
2.1637516183
 20
19.8889145591
 10
2.2488197026
 20
19.8904245811
 10
2.3244331351
 20
19.8921284921
 10
2.3872716511
 20
19.893946017
 10
2.4362284958
 20
19.8958503974
 10
2.4724104239
 20
19.8978683918
 10
2.4958174355
 20
19.9
  0
LINE
  5
6A2
100
AcDbEntity
  8
ASSI
100
AcDbLine
 62
7
  6
CONTINUOUS
 10
2.5
 20
18.2
 11
-2.5
 21
18.2
  0
LINE
  5
6A3
100
AcDbEntity
  8
RACCORDO
100
AcDbLine
 62
7
  6
CONTINUOUS
 10
-9.3912243901
 20
18.2130903017
 11
-4.3130788786
 21
18.2130903017
  0
LINE
  5
6A4
100
AcDbEntity
  8
ASSI
100
AcDbLine
 62
7
  6
CONTINUOUS
 10
-9.3912243901
 20
18.2130903017
 11
-4.3130788786
 21
18.2130903017
  0
LINE
  5
6A5
100
AcDbEntity
  8
DRAFT
100
AcDbLine
 62
7
  6
CONTINUOUS
 10
-8.6
 20
18.2574425998
 11
-7.4541107013
 21
18.2574425998
  0
LINE
  5
6A6
100
AcDbEntity
  8
DRAFT
100
AcDbLine
 62
7
  6
CONTINUOUS
 10
-4.1432823548
 20
18.2661694676
 11
-7.4366556363
 21
18.2661694676
  0
LINE
  5
6A7
100
AcDbEntity
  8
RACCORDO
100
AcDbLine
 62
7
  6
CONTINUOUS
 10
-8.6
 20
18.2661694676
 11
-9.2661885061
 21
18.2661694676
  0
LINE
  5
6A8
100
AcDbEntity
  8
0
100
AcDbLine
 62
7
  6
CONTINUOUS
 10
-2.5
 20
18.3
 11
2.5
 21
18.3
  0
LINE
  5
6A9
100
AcDbEntity
  8
ASSI
100
AcDbLine
 62
7
  6
CONTINUOUS
 10
-2.5
 20
18.3
 11
2.5
 21
18.3
  0
LINE
  5
6AA
100
AcDbEntity
  8
RACCORDO
100
AcDbLine
 62
7
  6
CONTINUOUS
 10
9.3912243901
 20
19.6130903017
 11
-3.7131017248
 21
19.6130903017
  0
LINE
  5
6AB
100
AcDbEntity
  8
ASSI
100
AcDbLine
 62
7
  6
CONTINUOUS
 10
9.3912243901
 20
19.6130903017
 11
-3.7131017248
 21
19.6130903017
  0
LINE
  5
6AC
100
AcDbEntity
  8
DRAFT
100
AcDbLine
 62
7
  6
CONTINUOUS
 10
7.4366556363
 20
19.6633443637
 11
3.4633443637
 21
19.6633443637
  0
LINE
  5
6AD
100
AcDbEntity
  8
DRAFT
100
AcDbLine
 62
7
  6
CONTINUOUS
 10
-3.4633443637
 20
19.6633443637
 11
-7.4366556363
 21
19.6633443637
  0
LINE
  5
6AE
100
AcDbEntity
  8
DRAFT
100
AcDbLine
 62
7
  6
CONTINUOUS
 10
7.4
 20
19.7
 11
3.5
 21
19.7
  0
LINE
  5
6AF
100
AcDbEntity
  8
DRAFT
100
AcDbLine
 62
7
  6
CONTINUOUS
 10
-3.5
 20
19.7
 11
-7.4
 21
19.7
  0
LINE
  5
6B0
100
AcDbEntity
  8
DRAFT
100
AcDbLine
 62
7
  6
CONTINUOUS
 10
7.2956365661
 20
19.7043634339
 11
6.5043634339
 21
19.7043634339
  0
LINE
  5
6B1
100
AcDbEntity
  8
DRAFT
100
AcDbLine
 62
7
  6
CONTINUOUS
 10
-6.5043634339
 20
19.7043634339
 11
-7.2956365661
 21
19.7043634339
  0
LINE
  5
6B2
100
AcDbEntity
  8
DRAFT
100
AcDbLine
 62
7
  6
CONTINUOUS
 10
7.1952775865
 20
19.8047224135
 11
6.6047224135
 21
19.8047224135
  0
LINE
  5
6B3
100
AcDbEntity
  8
DRAFT
100
AcDbLine
 62
7
  6
CONTINUOUS
 10
-6.6047224135
 20
19.8047224135
 11
-7.1952775865
 21
19.8047224135
  0
LINE
  5
6B4
100
AcDbEntity
  8
DRAFT
100
AcDbLine
 62
7
  6
CONTINUOUS
 10
3.4633443637
 20
19.8633443637
 11
-3.4633443637
 21
19.8633443637
  0
LINE
  5
6B5
100
AcDbEntity
  8
0
100
AcDbLine
 62
7
  6
CONTINUOUS
 10
1.6243964614
 20
19.8846288165
 11
-1.5015242349
 21
19.8844866796
  0
LINE
  5
6B6
100
AcDbEntity
  8
0
100
AcDbLine
 62
7
  6
CONTINUOUS
 10
3.5
 20
19.9
 11
2.4944782802
 21
19.9
  0
LINE
  5
6B7
100
AcDbEntity
  8
0
100
AcDbLine
 62
7
  6
CONTINUOUS
 10
-2.4944782802
 20
19.9
 11
-3.5
 21
19.9
  0
LWPOLYLINE
  5
6B8
100
AcDbEntity
  8
0
100
AcDbPolyline
 62
7
  6
CONTINUOUS
 90
13
 70
0
 10
-1.5015242349
 20
19.8844866796
 10
-1.6243964614
 20
19.8846288165
 10
-1.7422682896
 20
19.8850092905
 10
-1.8551397193
 20
19.8856281018
 10
-1.9644955018
 20
19.8865000664
 10
-2.0688508859
 20
19.8876103683
 10
-2.1637516183
 20
19.8889145591
 10
-2.2488197026
 20
19.8904245811
 10
-2.3244331351
 20
19.8921284921
 10
-2.3872716511
 20
19.893946017
 10
-2.4362284958
 20
19.8958503974
 10
-2.4724104239
 20
19.8978683918
 10
-2.4958174355
 20
19.9
  0
LINE
  5
6B9
100
AcDbEntity
  8
RACCORDO
100
AcDbLine
 62
7
  6
CONTINUOUS
 10
-2.1464466094
 20
18.2325400167
 11
-2.5005617456
 21
18.2356303326
  0
LINE
  5
6BA
100
AcDbEntity
  8
0
100
AcDbLine
 62
7
  6
CONTINUOUS
 10
1.0086739534
 20
22.3947957125
 11
1.0
 21
22.4
  0
LINE
  5
6BB
100
AcDbEntity
  8
DRAFT
100
AcDbLine
 62
7
  6
CONTINUOUS
 10
7.1952775865
 20
19.8047224135
 11
7.2956365661
 21
19.7043634339
  0
LINE
  5
6BC
100
AcDbEntity
  8
DRAFT
100
AcDbLine
 62
7
  6
CONTINUOUS
 10
7.4
 20
19.7
 11
7.4366556363
 21
19.6633443637
  0
LINE
  5
6BD
100
AcDbEntity
  8
DRAFT
100
AcDbLine
 62
7
  6
CONTINUOUS
 10
7.1952775865
 20
20.9959955457
 11
7.2912731322
 21
20.9
  0
LINE
  5
6BE
100
AcDbEntity
  8
0
100
AcDbLine
 62
7
  6
CONTINUOUS
 10
3.9530427099
 20
23.4563578147
 11
3.7425997568
 21
23.6780569355
  0
LINE
  5
6BF
100
AcDbEntity
  8
0
100
AcDbLine
 62
7
  6
CONTINUOUS
 10
3.7425997568
 20
23.6780569355
 11
3.6745702138
 21
23.750526023
  0
LINE
  5
6C0
100
AcDbEntity
  8
0
100
AcDbLine
 62
7
  6
CONTINUOUS
 10
3.6745702138
 20
23.750526023
 11
3.6311363041
 21
23.7972820268
  0
LINE
  5
6C1
100
AcDbEntity
  8
0
100
AcDbLine
 62
7
  6
CONTINUOUS
 10
3.6311363041
 20
23.7972820268
 11
3.6058289104
 21
23.8248288027
  0
LINE
  5
6C2
100
AcDbEntity
  8
0
100
AcDbLine
 62
7
  6
CONTINUOUS
 10
3.6058289104
 20
23.8248288027
 11
3.5835069741
 21
23.8494098814
  0
LWPOLYLINE
  5
6C3
100
AcDbEntity
  8
0
100
AcDbPolyline
 62
7
  6
CONTINUOUS
 90
6
 70
0
 10
3.5835069741
 20
23.8494098814
 10
3.5642154451
 20
23.8709570515
 10
3.5556527146
 20
23.8806629126
 10
3.5477863172
 20
23.8896929072
 10
3.5406028007
 20
23.8980290604
 10
3.5340842777
 20
23.9056713724
  0
LWPOLYLINE
  5
6C4
100
AcDbEntity
  8
0
100
AcDbPolyline
 62
7
  6
CONTINUOUS
 90
18
 70
0
 10
10.1320926258
 20
24.3429184493
 10
10.1274087722
 20
24.3538564463
 10
10.1222097688
 20
24.3645591876
 10
10.1165073916
 20
24.3750024283
 10
10.1103145581
 20
24.3851625059
 10
10.1036452955
 20
24.3950164051
 10
10.0965147107
 20
24.4045418038
 10
10.0889389589
 20
24.4137171191
 10
10.0809352005
 20
24.4225215661
 10
10.0725215661
 20
24.4309352005
 10
10.0637171191
 20
24.4389389589
 10
10.0545418038
 20
24.4465147107
 10
10.0450164051
 20
24.4536452955
 10
10.0351625059
 20
24.4603145581
 10
10.0250024283
 20
24.4665073916
 10
10.0145591876
 20
24.4722097688
 10
10.0038564463
 20
24.4774087722
 10
9.9929184493
 20
24.4820926258
  0
LINE
  5
6C5
100
AcDbEntity
  8
DRAFT
100
AcDbLine
 62
7
  6
CONTINUOUS
 10
7.6186291501
 20
-20.9
 11
7.6686291501
 21
-20.85
  0
LINE
  5
6C6
100
AcDbEntity
  8
DRAFT
100
AcDbLine
 62
7
  6
CONTINUOUS
 10
7.6433124597
 20
-20.9
 11
7.6933124597
 21
-20.85
  0
LINE
  5
6C7
100
AcDbEntity
  8
RACCORDO
100
AcDbLine
 62
7
  6
CONTINUOUS
 10
9.9903116728
 20
-19.4133907652
 11
9.8010843877
 21
-19.6026179435
  0
LINE
  5
6C8
100
AcDbEntity
  8
ASSI
100
AcDbLine
 62
7
  6
CONTINUOUS
 10
9.9903116728
 20
-19.4133907652
 11
9.8010843877
 21
-19.6026179435
  0
LINE
  5
6C9
100
AcDbEntity
  8
RACCORDO
100
AcDbLine
 62
7
  6
CONTINUOUS
 10
10.7202082353
 20
-18.6983042468
 11
10.0983042468
 21
-19.3202082353
  0
LINE
  5
6CA
100
AcDbEntity
  8
ASSI
100
AcDbLine
 62
7
  6
CONTINUOUS
 10
10.7202082353
 20
-18.6983042468
 11
10.0983042468
 21
-19.3202082353
  0
LINE
  5
6CB
100
AcDbEntity
  8
RACCORDO
100
AcDbLine
 62
7
  6
CONTINUOUS
 10
8.6272036731
 20
-20.85
 11
10.442117326
 21
-19.0350863471
  0
LINE
  5
6CC
100
AcDbEntity
  8
0
100
AcDbLine
 62
7
  6
CONTINUOUS
 10
8.2325449351
 20
-21.4051134101
 11
8.0665695018
 21
-21.5710888434
  0
LINE
  5
6CD
100
AcDbEntity
  8
RACCORDO
100
AcDbLine
 62
7
  6
CONTINUOUS
 10
8.8
 20
-20.85
 11
10.5643027805
 21
-19.0856972195
  0
LINE
  5
6CE
100
AcDbEntity
  8
0
100
AcDbLine
 62
7
  6
CONTINUOUS
 10
7.2558178298
 20
-22.3941821702
 11
11.1412731322
 21
-18.5087268678
  0
LINE
  5
6CF
100
AcDbEntity
  8
0
100
AcDbLine
 62
253
  6
CONTINUOUS
 10
1.00856737
 20
-23.7942952698
 11
1.0
 21
-23.8000067692
  0
LINE
  5
6D0
100
AcDbEntity
  8
0
100
AcDbLine
 62
253
  6
CONTINUOUS
 10
1.2085495996
 20
-23.994298655
 11
1.1999974616
 21
-24.0
  0
LINE
  5
6D1
100
AcDbEntity
  8
DRAFT
100
AcDbLine
 62
7
  6
CONTINUOUS
 10
-7.4
 20
20.0
 11
-7.2956365661
 21
20.0
  0
LINE
  5
6D2
100
AcDbEntity
  8
DRAFT
100
AcDbLine
 62
7
  6
CONTINUOUS
 10
7.2956365661
 20
20.0
 11
7.4
 21
20.0
  0
LINE
  5
6D3
100
AcDbEntity
  8
DRAFT
100
AcDbLine
 62
7
  6
CONTINUOUS
 10
6.5043634339
 20
20.0043634339
 11
2.4993600697
 21
20.0043634339
  0
LINE
  5
6D4
100
AcDbEntity
  8
DRAFT
100
AcDbLine
 62
7
  6
CONTINUOUS
 10
-2.4993600697
 20
20.0043634339
 11
-6.5043634339
 21
20.0043634339
  0
LINE
  5
6D5
100
AcDbEntity
  8
DRAFT
100
AcDbLine
 62
7
  6
CONTINUOUS
 10
-3.5001534346
 20
20.0175818656
 11
-2.499383967
 21
20.0175818656
  0
LINE
  5
6D6
100
AcDbEntity
  8
DRAFT
100
AcDbLine
 62
7
  6
CONTINUOUS
 10
2.499383967
 20
20.0175818656
 11
3.5001534346
 21
20.0175818656
  0
LINE
  5
6D7
100
AcDbEntity
  8
DRAFT
100
AcDbLine
 62
7
  6
CONTINUOUS
 10
2.5
 20
20.070693013
 11
2.4412605819
 21
20.070693013
  0
LINE
  5
6D8
100
AcDbEntity
  8
DRAFT
100
AcDbLine
 62
7
  6
CONTINUOUS
 10
-2.4412605819
 20
20.070693013
 11
-2.5
 21
20.070693013
  0
LINE
  5
6D9
100
AcDbEntity
  8
DRAFT
100
AcDbLine
 62
7
  6
CONTINUOUS
 10
6.6047224135
 20
20.1047224135
 11
-6.6047224135
 21
20.1047224135
  0
LINE
  5
6DA
100
AcDbEntity
  8
0
100
AcDbLine
 62
7
  6
CONTINUOUS
 10
-2.992145819
 20
20.8
 11
2.992145819
 21
20.8
  0
LINE
  5
6DB
100
AcDbEntity
  8
DRAFT
100
AcDbLine
 62
7
  6
CONTINUOUS
 10
7.4
 20
20.85
 11
8.8
 21
20.85
  0
LINE
  5
6DC
100
AcDbEntity
  8
DRAFT
100
AcDbLine
 62
7
  6
CONTINUOUS
 10
-7.4
 20
20.85
 11
-8.8
 21
20.85
  0
LINE
  5
6DD
100
AcDbEntity
  8
DRAFT
100
AcDbLine
 62
7
  6
CONTINUOUS
 10
-8.0665695018
 20
20.9
 11
-7.6309708049
 21
20.9
  0
LINE
  5
6DE
100
AcDbEntity
  8
DRAFT
100
AcDbLine
 62
7
  6
CONTINUOUS
 10
7.2912731322
 20
20.9
 11
7.6186291501
 21
20.9
  0
LINE
  5
6DF
100
AcDbEntity
  8
DRAFT
100
AcDbLine
 62
7
  6
CONTINUOUS
 10
7.6309708049
 20
20.9
 11
8.0665695018
 21
20.9
  0
LINE
  5
6E0
100
AcDbEntity
  8
DRAFT
100
AcDbLine
 62
7
  6
CONTINUOUS
 10
-7.3
 20
20.9
 11
-7.6186291501
 21
20.9
  0
LINE
  5
6E1
100
AcDbEntity
  8
0
100
AcDbLine
 62
7
  6
CONTINUOUS
 10
8.2325449351
 20
20.9087268678
 11
8.0665695018
 21
20.9087268678
  0
LINE
  5
6E2
100
AcDbEntity
  8
0
100
AcDbLine
 62
7
  6
CONTINUOUS
 10
-8.0665695018
 20
20.9087268678
 11
-8.2325449351
 21
20.9087268678
  0
LINE
  5
6E3
100
AcDbEntity
  8
DRAFT
100
AcDbLine
 62
7
  6
CONTINUOUS
 10
-7.5666456542
 20
20.9959955457
 11
-7.1952775865
 21
20.9959955457
  0
LINE
  5
6E4
100
AcDbEntity
  8
DRAFT
100
AcDbLine
 62
7
  6
CONTINUOUS
 10
7.5666456542
 20
20.9959955457
 11
7.1952775865
 21
20.9959955457
  0
LINE
  5
6E5
100
AcDbEntity
  8
0
100
AcDbLine
 62
253
  6
CONTINUOUS
 10
7.5666456542
 20
21.3359869487
 11
2.9968233062
 21
21.3359869487
  0
LINE
  5
6E6
100
AcDbEntity
  8
0
100
AcDbLine
 62
253
  6
CONTINUOUS
 10
-2.9968233062
 20
21.3359869487
 11
-7.5666456542
 21
21.3359869487
  0
LINE
  5
6E7
100
AcDbEntity
  8
0
100
AcDbLine
 62
7
  6
CONTINUOUS
 10
3.0
 20
21.7
 11
-3.0
 21
21.7
  0
LWPOLYLINE
  5
6E8
100
AcDbEntity
  8
0
100
AcDbPolyline
 62
7
  6
CONTINUOUS
 90
9
 70
0
 10
-7.4070815507
 20
24.4820926258
 10
-7.4182300262
 20
24.4862507213
 10
-7.429563721
 20
24.4898736417
 10
-7.4410569612
 20
24.4929531817
 10
-7.4526837125
 20
24.4954823677
 10
-7.4644176339
 20
24.4974554741
 10
-7.4762321444
 20
24.4988680342
 10
-7.488100484
 20
24.4997168498
 10
-7.4999957692
 20
24.5
  0
LINE
  5
6E9
100
AcDbEntity
  8
0
100
AcDbLine
 62
253
  6
CONTINUOUS
 10
1.0
 20
23.8000067692
 11
1.00856737
 21
23.7942952698
  0
LINE
  5
6EA
100
AcDbEntity
  8
0
100
AcDbLine
 62
253
  6
CONTINUOUS
 10
1.1999974616
 20
24.0
 11
1.2085495996
 21
23.994298655
  0
LINE
  5
6EB
100
AcDbEntity
  8
DRAFT
100
AcDbLine
 62
7
  6
CONTINUOUS
 10
7.6686291501
 20
20.85
 11
7.6186291501
 21
20.9
  0
LINE
  5
6EC
100
AcDbEntity
  8
DRAFT
100
AcDbLine
 62
7
  6
CONTINUOUS
 10
7.6933124597
 20
20.85
 11
7.6433124597
 21
20.9
  0
LINE
  5
6ED
100
AcDbEntity
  8
RACCORDO
100
AcDbLine
 62
7
  6
CONTINUOUS
 10
10.0983042468
 20
19.3202082353
 11
10.7202082353
 21
18.6983042468
  0
LINE
  5
6EE
100
AcDbEntity
  8
ASSI
100
AcDbLine
 62
7
  6
CONTINUOUS
 10
10.0983042468
 20
19.3202082353
 11
10.7202082353
 21
18.6983042468
  0
LINE
  5
6EF
100
AcDbEntity
  8
RACCORDO
100
AcDbLine
 62
7
  6
CONTINUOUS
 10
10.442117326
 20
19.0350863471
 11
8.6272036731
 21
20.85
  0
LINE
  5
6F0
100
AcDbEntity
  8
0
100
AcDbLine
 62
7
  6
CONTINUOUS
 10
8.2325449351
 20
21.4051134101
 11
8.0665695018
 21
21.5710888434
  0
LINE
  5
6F1
100
AcDbEntity
  8
RACCORDO
100
AcDbLine
 62
7
  6
CONTINUOUS
 10
10.5643027805
 20
19.0856972195
 11
8.8
 21
20.85
  0
LINE
  5
6F2
100
AcDbEntity
  8
0
100
AcDbLine
 62
7
  6
CONTINUOUS
 10
11.1412731322
 20
18.5087268678
 11
7.2558178298
 21
22.3941821702
  0
LINE
  5
6F3
100
AcDbEntity
  8
0
100
AcDbLine
 62
7
  6
CONTINUOUS
 10
8.0665695018
 20
-20.9917082642
 11
8.2325449351
 21
-20.9087268678
  0
LINE
  5
6F4
100
AcDbEntity
  8
0
100
AcDbLine
 62
7
  6
CONTINUOUS
 10
8.0665695018
 20
-21.4537354271
 11
8.2325449351
 21
-21.4051134101
  0
LWPOLYLINE
  5
6F5
100
AcDbEntity
  8
0
100
AcDbPolyline
 62
7
  6
CONTINUOUS
 90
6
 70
0
 10
7.4644176339
 20
24.4974554741
 10
7.4526837125
 20
24.4954823677
 10
7.4410569612
 20
24.4929531817
 10
7.429563721
 20
24.4898736417
 10
7.4182300262
 20
24.4862507213
 10
7.4070815507
 20
24.4820926258
  0
LWPOLYLINE
  5
6F6
100
AcDbEntity
  8
0
100
AcDbPolyline
 62
7
  6
CONTINUOUS
 90
40
 70
0
 10
-10.6503805997
 20
22.4
 10
-10.6703758992
 20
22.3995866261
 10
-10.6903657436
 20
22.3983717072
 10
-10.7103178672
 20
22.3963539679
 10
-10.7302071767
 20
22.393532297
 10
-10.749993711
 20
22.3899085853
 10
-10.7696232292
 20
22.3854906619
 10
-10.7890526441
 20
22.3802883352
 10
-10.8082617596
 20
22.3743071586
 10
-10.8272311009
 20
22.367551676
 10
-10.8459426326
 20
22.3600251252
 10
-10.8643512692
 20
22.351742425
 10
-10.8823985142
 20
22.342729553
 10
-10.9000391799
 20
22.3330121997
 10
-10.9172627083
 20
22.3225993795
 10
-10.9340635554
 20
22.3114944468
 10
-10.95042807
 20
22.299703298
 10
-10.9663134846
 20
22.2872535323
 10
-10.9816720103
 20
22.2741827498
 10
-10.9964655797
 20
22.2605273631
 10
-11.0106868398
 20
22.2462983041
 10
-11.0243349531
 20
22.2314962575
 10
-11.0373993445
 20
22.2161280105
 10
-11.0498430866
 20
22.2002320605
 10
-11.0616273089
 20
22.1838576898
 10
-11.0727242114
 20
22.1670483607
 10
-11.0831284461
 20
22.149817212
 10
-11.0928367141
 20
22.1321695942
 10
-11.101839741
 20
22.1141170912
 10
-11.1101125158
 20
22.0957039561
 10
-11.1176301844
 20
22.0769853683
 10
-11.1243787294
 20
22.0580033578
 10
-11.1303534229
 20
22.0387786561
 10
-11.1355476462
 20
22.0193361401
 10
-11.1399539427
 20
21.9997091412
 10
-11.1435665894
 20
21.9799279069
 10
-11.1463815669
 20
21.9600125729
 10
-11.1483943263
 20
21.9399911946
 10
-11.1496011542
 20
21.9198999433
 10
-11.15
 20
21.8997711479
  0
LINE
  5
6F7
100
AcDbEntity
  8
0
100
AcDbLine
 62
253
  6
CONTINUOUS
 10
7.1905416262
 20
22.3359700255
 11
3.0055500263
 21
22.3359700255
  0
LINE
  5
6F8
100
AcDbEntity
  8
0
100
AcDbLine
 62
253
  6
CONTINUOUS
 10
-3.0055500263
 20
22.3359700255
 11
-7.1905416262
 21
22.3359700255
  0
LINE
  5
6F9
100
AcDbEntity
  8
0
100
AcDbLine
 62
7
  6
CONTINUOUS
 10
-10.6412794783
 20
22.3941821702
 11
-7.2558178298
 21
22.3941821702
  0
LINE
  5
6FA
100
AcDbEntity
  8
0
100
AcDbLine
 62
7
  6
CONTINUOUS
 10
7.2558178298
 20
22.3941821702
 11
10.6412794783
 21
22.3941821702
  0
LINE
  5
6FB
100
AcDbEntity
  8
0
100
AcDbLine
 62
7
  6
CONTINUOUS
 10
-1.0086739534
 20
22.3947957125
 11
1.0086739534
 21
22.3947957125
  0
LINE
  5
6FC
100
AcDbEntity
  8
0
100
AcDbLine
 62
7
  6
CONTINUOUS
 10
1.0
 20
22.4
 11
-1.0
 21
22.4
  0
LINE
  5
6FD
100
AcDbEntity
  8
0
100
AcDbLine
 62
7
  6
CONTINUOUS
 10
4.45
 20
22.4
 11
10.6500063461
 21
22.4
  0
LINE
  5
6FE
100
AcDbEntity
  8
0
100
AcDbLine
 62
7
  6
CONTINUOUS
 10
-4.45
 20
22.4
 11
-10.6500063461
 21
22.4
  0
LINE
  5
6FF
100
AcDbEntity
  8
0
100
AcDbLine
 62
7
  6
CONTINUOUS
 10
-9.9007229979
 20
23.1226497308
 11
-7.4992770021
 21
23.1226497308
  0
LINE
  5
700
100
AcDbEntity
  8
0
100
AcDbLine
 62
7
  6
CONTINUOUS
 10
9.9007229979
 20
23.1226497308
 11
7.4992770021
 21
23.1226497308
  0
LINE
  5
701
100
AcDbEntity
  8
0
100
AcDbLine
 62
7
  6
CONTINUOUS
 10
8.0665695018
 20
21.4537354271
 11
8.2325449351
 21
21.4051134101
  0
LINE
  5
702
100
AcDbEntity
  8
0
100
AcDbLine
 62
7
  6
CONTINUOUS
 10
8.0665695018
 20
20.9917082642
 11
8.2325449351
 21
20.9087268678
  0
LWPOLYLINE
  5
703
100
AcDbEntity
  8
0
100
AcDbPolyline
 62
7
  6
CONTINUOUS
 90
18
 70
0
 10
9.9929184493
 20
-24.4820926258
 10
10.0038564463
 20
-24.4774087722
 10
10.0145591876
 20
-24.4722097688
 10
10.0250024283
 20
-24.4665073916
 10
10.0351625059
 20
-24.4603145581
 10
10.0450164051
 20
-24.4536452955
 10
10.0545418038
 20
-24.4465147107
 10
10.0637171191
 20
-24.4389389589
 10
10.0725215661
 20
-24.4309352005
 10
10.0809352005
 20
-24.4225215661
 10
10.0889389589
 20
-24.4137171191
 10
10.0965147107
 20
-24.4045418038
 10
10.1036452955
 20
-24.3950164051
 10
10.1103145581
 20
-24.3851625059
 10
10.1165073916
 20
-24.3750024283
 10
10.1222097688
 20
-24.3645591876
 10
10.1274087722
 20
-24.3538564463
 10
10.1320926258
 20
-24.3429184493
  0
LWPOLYLINE
  5
704
100
AcDbEntity
  8
0
100
AcDbPolyline
 62
7
  6
CONTINUOUS
 90
6
 70
0
 10
-9.9355823661
 20
24.4974554741
 10
-9.9473162875
 20
24.4954823677
 10
-9.9589430388
 20
24.4929531817
 10
-9.970436279
 20
24.4898736417
 10
-9.9817699738
 20
24.4862507213
 10
-9.9929184493
 20
24.4820926258
  0
LWPOLYLINE
  5
705
100
AcDbEntity
  8
0
100
AcDbPolyline
 62
7
  6
CONTINUOUS
 90
34
 70
0
 10
7.5043676032
 20
24.495628166
 10
7.4924921317
 20
24.4953455463
 10
7.4806383891
 20
24.4944986445
 10
7.4688332136
 20
24.4930886486
 10
7.457101719
 20
24.4911177026
 10
7.4454722837
 20
24.4885897127
 10
7.4339763181
 20
24.4855111341
 10
7.422641553
 20
24.4818895243
 10
7.411491941
 20
24.4777326699
 10
7.4005525399
 20
24.4730498963
 10
7.3898480051
 20
24.467851711
 10
7.3794027516
 20
24.4621499225
 10
7.369240676
 20
24.4559575601
 10
7.3593848913
 20
24.4492887229
 10
7.3498576298
 20
24.4421584695
 10
7.3406804166
 20
24.4345829086
 10
7.331874025
 20
24.4265791771
 10
7.3234584388
 20
24.4181654255
 10
7.3154527446
 20
24.4093607299
 10
7.3078750881
 20
24.4001850429
 10
7.3007426371
 20
24.3906591487
 10
7.294071557
 20
24.3808046326
 10
7.2878769647
 20
24.3706438204
 10
7.2821728994
 20
24.3601997352
 10
7.2769722918
 20
24.3494960488
 10
7.2722869275
 20
24.3385570152
 10
7.2681274232
 20
24.3274074189
 10
7.264503206
 20
24.3160725264
 10
7.2614224874
 20
24.3045780153
 10
7.2588922504
 20
24.292949936
 10
7.2569182318
 20
24.2812146563
 10
7.255504903
 20
24.269398774
 10
7.2546554629
 20
24.2575290557
 10
7.254371834
 20
24.2456323968
  0
LWPOLYLINE
  5
706
100
AcDbEntity
  8
0
100
AcDbPolyline
 62
7
  6
CONTINUOUS
 90
4
 70
0
 10
7.4999957692
 20
24.5
 10
7.488100484
 20
24.4997168498
 10
7.4762321444
 20
24.4988680342
 10
7.4644176339
 20
24.4974554741
  0
LWPOLYLINE
  5
707
100
AcDbEntity
  8
0
100
AcDbPolyline
 62
7
  6
CONTINUOUS
 90
34
 70
0
 10
-9.8956323968
 20
24.495628166
 10
-9.9075078683
 20
24.4953455463
 10
-9.9193616109
 20
24.4944986445
 10
-9.9311667864
 20
24.4930886486
 10
-9.942898281
 20
24.4911177026
 10
-9.9545277163
 20
24.4885897127
 10
-9.9660236819
 20
24.4855111341
 10
-9.977358447
 20
24.4818895243
 10
-9.988508059
 20
24.4777326699
 10
-9.9994474601
 20
24.4730498963
 10
-10.0101519949
 20
24.467851711
 10
-10.0205972484
 20
24.4621499225
 10
-10.030759324
 20
24.4559575601
 10
-10.0406151087
 20
24.4492887229
 10
-10.0501423702
 20
24.4421584695
 10
-10.0593195834
 20
24.4345829086
 10
-10.068125975
 20
24.4265791771
 10
-10.0765415612
 20
24.4181654255
 10
-10.0845472554
 20
24.4093607299
 10
-10.0921249119
 20
24.4001850429
 10
-10.0992573629
 20
24.3906591487
 10
-10.105928443
 20
24.3808046326
 10
-10.1121230353
 20
24.3706438204
 10
-10.1178271006
 20
24.3601997352
 10
-10.1230277082
 20
24.3494960488
 10
-10.1277130725
 20
24.3385570152
 10
-10.1318725768
 20
24.3274074189
 10
-10.135496794
 20
24.3160725264
 10
-10.1385775126
 20
24.3045780153
 10
-10.1411077496
 20
24.292949936
 10
-10.1430817682
 20
24.2812146563
 10
-10.144495097
 20
24.269398774
 10
-10.1453445371
 20
24.2575290557
 10
-10.145628166
 20
24.2456323968
  0
LWPOLYLINE
  5
708
100
AcDbEntity
  8
0
100
AcDbPolyline
 62
7
  6
CONTINUOUS
 90
4
 70
0
 10
-9.9000042308
 20
24.5
 10
-9.911899516
 20
24.4997168498
 10
-9.9237678556
 20
24.4988680342
 10
-9.9355823661
 20
24.4974554741
  0
LWPOLYLINE
  5
709
100
AcDbEntity
  8
0
100
AcDbPolyline
 62
7
  6
CONTINUOUS
 90
37
 70
0
 10
1.1999974616
 20
24.0
 10
1.1912738079
 20
23.9998096663
 10
1.1825667532
 20
23.9992390211
 10
1.1738928689
 20
23.9982891478
 10
1.1652686621
 20
23.9969618522
 10
1.1567105486
 20
23.9952596573
 10
1.1482348219
 20
23.9931857986
 10
1.1398576138
 20
23.9907442207
 10
1.1315948698
 20
23.9879395683
 10
1.1234623227
 20
23.9847771768
 10
1.115475452
 20
23.981263063
 10
1.1076494607
 20
23.9774039139
 10
1.0999992512
 20
23.9732070734
 10
1.0925393856
 20
23.9686805281
 10
1.085284064
 20
23.9638328927
 10
1.078247103
 20
23.9586733946
 10
1.0714418978
 20
23.9532118535
 10
1.0648814023
 20
23.9474586645
 10
1.0585781102
 20
23.9414247806
 10
1.0525440201
 20
23.9351216866
 10
1.0467906181
 20
23.9285613799
 10
1.0413288602
 20
23.9217563514
 10
1.0361691431
 20
23.9147195545
 10
1.0313212881
 20
23.9074643834
 10
1.0267945259
 20
23.9000046527
 10
1.0225974731
 20
23.8923545622
 10
1.018738118
 20
23.8845286738
 10
1.0152238078
 20
23.8765418886
 10
1.0120612314
 20
23.8684094098
 10
1.0092564078
 20
23.8601467172
 10
1.0068146748
 20
23.8517695428
 10
1.0047406795
 20
23.8432938328
 10
1.0030383682
 20
23.8347357198
 10
1.0017109789
 20
23.8261114971
 10
1.0007610365
 20
23.8174375811
 10
1.0001903485
 20
23.8087304808
 10
1.0
 20
23.8000067692
  0
LINE
  5
70A
100
AcDbEntity
  8
0
100
AcDbLine
 62
253
  6
CONTINUOUS
 10
-9.8956323968
 20
23.6278312164
 11
-7.5043676032
 21
23.6278312164
  0
LINE
  5
70B
100
AcDbEntity
  8
0
100
AcDbLine
 62
253
  6
CONTINUOUS
 10
7.5043676032
 20
23.6278312164
 11
9.8956323968
 21
23.6278312164
  0
LINE
  5
70C
100
AcDbEntity
  8
0
100
AcDbLine
 62
253
  6
CONTINUOUS
 10
7.254371834
 20
23.8443375673
 11
10.145628166
 21
23.8443375673
  0
LINE
  5
70D
100
AcDbEntity
  8
0
100
AcDbLine
 62
253
  6
CONTINUOUS
 10
-7.254371834
 20
23.8443375673
 11
-10.145628166
 21
23.8443375673
  0
LINE
  5
70E
100
AcDbEntity
  8
0
100
AcDbLine
 62
7
  6
CONTINUOUS
 10
-4.4063493531
 20
23.9563493531
 11
-3.5345265377
 21
23.9563493531
  0
LINE
  5
70F
100
AcDbEntity
  8
0
100
AcDbLine
 62
7
  6
CONTINUOUS
 10
3.5345265377
 20
23.9563493531
 11
4.4063493531
 21
23.9563493531
  0
LINE
  5
710
100
AcDbEntity
  8
0
100
AcDbLine
 62
7
  6
CONTINUOUS
 10
3.5348577163
 20
23.994298655
 11
1.2085495996
 21
23.994298655
  0
LINE
  5
711
100
AcDbEntity
  8
0
100
AcDbLine
 62
7
  6
CONTINUOUS
 10
-1.2085495996
 20
23.994298655
 11
-3.5348577163
 21
23.994298655
  0
LINE
  5
712
100
AcDbEntity
  8
0
100
AcDbLine
 62
7
  6
CONTINUOUS
 10
4.45
 20
24.0
 11
1.1999974616
 21
24.0
  0
LINE
  5
713
100
AcDbEntity
  8
0
100
AcDbLine
 62
7
  6
CONTINUOUS
 10
-1.1999974616
 20
24.0
 11
-4.45
 21
24.0
  0
LINE
  5
714
100
AcDbEntity
  8
0
100
AcDbLine
 62
253
  6
CONTINUOUS
 10
7.254371834
 20
24.2456323968
 11
10.145628166
 21
24.2456323968
  0
LINE
  5
715
100
AcDbEntity
  8
0
100
AcDbLine
 62
253
  6
CONTINUOUS
 10
-7.254371834
 20
24.2456323968
 11
-10.145628166
 21
24.2456323968
  0
LINE
  5
716
100
AcDbEntity
  8
0
100
AcDbLine
 62
7
  6
CONTINUOUS
 10
9.8956323968
 20
24.495628166
 11
7.5043676032
 21
24.495628166
  0
LINE
  5
717
100
AcDbEntity
  8
0
100
AcDbLine
 62
7
  6
CONTINUOUS
 10
-7.5043676032
 20
24.495628166
 11
-9.8956323968
 21
24.495628166
  0
LWPOLYLINE
  5
718
100
AcDbEntity
  8
0
100
AcDbPolyline
 62
7
  6
CONTINUOUS
 90
37
 70
0
 10
-1.1999974616
 20
24.0
 10
-1.1912738079
 20
23.9998096663
 10
-1.1825667532
 20
23.9992390211
 10
-1.1738928689
 20
23.9982891478
 10
-1.1652686621
 20
23.9969618522
 10
-1.1567105486
 20
23.9952596573
 10
-1.1482348219
 20
23.9931857986
 10
-1.1398576138
 20
23.9907442207
 10
-1.1315948698
 20
23.9879395683
 10
-1.1234623227
 20
23.9847771768
 10
-1.115475452
 20
23.981263063
 10
-1.1076494607
 20
23.9774039139
 10
-1.0999992512
 20
23.9732070734
 10
-1.0925393856
 20
23.9686805281
 10
-1.085284064
 20
23.9638328927
 10
-1.078247103
 20
23.9586733946
 10
-1.0714418978
 20
23.9532118535
 10
-1.0648814023
 20
23.9474586645
 10
-1.0585781102
 20
23.9414247806
 10
-1.0525440201
 20
23.9351216866
 10
-1.0467906181
 20
23.9285613799
 10
-1.0413288602
 20
23.9217563514
 10
-1.0361691431
 20
23.9147195545
 10
-1.0313212881
 20
23.9074643834
 10
-1.0267945259
 20
23.9000046527
 10
-1.0225974731
 20
23.8923545622
 10
-1.018738118
 20
23.8845286738
 10
-1.0152238078
 20
23.8765418886
 10
-1.0120612314
 20
23.8684094098
 10
-1.0092564078
 20
23.8601467172
 10
-1.0068146748
 20
23.8517695428
 10
-1.0047406795
 20
23.8432938328
 10
-1.0030383682
 20
23.8347357198
 10
-1.0017109789
 20
23.8261114971
 10
-1.0007610365
 20
23.8174375811
 10
-1.0001903485
 20
23.8087304808
 10
-1.0
 20
23.8000067692
  0
LWPOLYLINE
  5
719
100
AcDbEntity
  8
0
100
AcDbPolyline
 62
7
  6
CONTINUOUS
 90
9
 70
0
 10
9.9929184493
 20
24.4820926258
 10
9.9817699738
 20
24.4862507213
 10
9.970436279
 20
24.4898736417
 10
9.9589430388
 20
24.4929531817
 10
9.9473162875
 20
24.4954823677
 10
9.9355823661
 20
24.4974554741
 10
9.9237678556
 20
24.4988680342
 10
9.911899516
 20
24.4997168498
 10
9.9000042308
 20
24.5
  0
ARC
  5
71A
100
AcDbEntity
  8
0
100
AcDbCircle
 62
7
  6
CONTINUOUS
 10
-9.2
 20
-17.2
 40
1.4
100
AcDbArc
 50
189.8532892494
 51
270.0
  0
ARC
  5
71B
100
AcDbEntity
  8
CURVE
100
AcDbCircle
 62
253
  6
CONTINUOUS
 10
-5.5
 20
-3.0
 40
1.0
100
AcDbArc
 50
23.5781784782
 51
336.4218215218
  0
ARC
  5
71C
100
AcDbEntity
  8
ASSI
100
AcDbCircle
 62
7
  6
CONTINUOUS
 10
-9.5059083707
 20
-17.49
 40
0.71
100
AcDbArc
 50
229.7010712477
 51
265.2998279782
  0
ARC
  5
71D
100
AcDbEntity
  8
ASSI
100
AcDbCircle
 62
7
  6
CONTINUOUS
 10
-10.29
 20
-16.7059083707
 40
0.71
100
AcDbArc
 50
184.7001961556
 51
220.2989529286
  0
ARC
  5
71E
100
AcDbEntity
  8
0
100
AcDbCircle
 62
7
  6
CONTINUOUS
 10
-4.0
 20
-23.15
 40
0.5
100
AcDbArc
 50
144.3637748935
 51
215.6362251065
  0
ARC
  5
71F
100
AcDbEntity
  8
RACCORDO
100
AcDbCircle
 62
7
  6
CONTINUOUS
 10
-1.7
 20
-17.55
 40
0.3
100
AcDbArc
 50
90.0
 51
170.0
  0
ARC
  5
720
100
AcDbEntity
  8
CURVE
100
AcDbCircle
 62
7
  6
CONTINUOUS
 10
-5.5
 20
9.082444
 40
2.5499986575
100
AcDbArc
 50
357.7524617393
 51
182.2474682623
  0
ARC
  5
721
100
AcDbEntity
  8
CURVE
100
AcDbCircle
 62
7
  6
CONTINUOUS
 10
-5.5
 20
13.467554
 40
2.5499985399
100
AcDbArc
 50
357.7525290943
 51
182.2474682623
  0
ARC
  5
722
100
AcDbEntity
  8
CURVE
100
AcDbCircle
 62
7
  6
CONTINUOUS
 10
-5.5
 20
9.082444
 40
1.7999999246
100
AcDbArc
 50
356.8152613297
 51
77.9753174348
  0
ARC
  5
723
100
AcDbEntity
  8
CURVE
100
AcDbCircle
 62
7
  6
CONTINUOUS
 10
-5.5
 20
13.467554
 40
1.7999999246
100
AcDbArc
 50
356.8152613297
 51
183.1847351336
  0
ARC
  5
724
100
AcDbEntity
  8
CURVE
100
AcDbCircle
 62
7
  6
CONTINUOUS
 10
-5.5
 20
9.082444
 40
1.7999968808
100
AcDbArc
 50
102.0247203293
 51
183.1848322474
  0
ARC
  5
725
100
AcDbEntity
  8
ASSI
100
AcDbCircle
 62
7
  6
CONTINUOUS
 10
-10.29
 20
16.7059083707
 40
0.71
100
AcDbArc
 50
139.7020215745
 51
175.2988538673
  0
ARC
  5
726
100
AcDbEntity
  8
ASSI
100
AcDbCircle
 62
7
  6
CONTINUOUS
 10
-9.5059083707
 20
17.49
 40
0.71
100
AcDbArc
 50
94.7020215745
 51
130.2988538673
  0
ARC
  5
727
100
AcDbEntity
  8
0
100
AcDbCircle
 62
7
  6
CONTINUOUS
 10
-4.0
 20
23.15
 40
0.5
100
AcDbArc
 50
144.3637748935
 51
215.6362251065
  0
ARC
  5
728
100
AcDbEntity
  8
RACCORDO
100
AcDbCircle
 62
7
  6
CONTINUOUS
 10
-1.7
 20
17.55
 40
0.3
100
AcDbArc
 50
189.5979508052
 51
270.0
  0
ARC
  5
729
100
AcDbEntity
  8
CURVE
100
AcDbCircle
 62
253
  6
CONTINUOUS
 10
7.4258330249
 20
-1.5264101615
 40
0.8
100
AcDbArc
 50
150.0
 51
228.5903778907
  0
ARC
  5
72A
100
AcDbEntity
  8
CURVE
100
AcDbCircle
 62
253
  6
CONTINUOUS
 10
6.1901923789
 20
-0.4666025404
 40
0.8
100
AcDbArc
 50
330.0
 51
48.5903778907
  0
ARC
  5
72B
100
AcDbEntity
  8
ASSI
100
AcDbCircle
 62
7
  6
CONTINUOUS
 10
9.5059083707
 20
-18.89
 40
0.71
100
AcDbArc
 50
289.9961491498
 51
294.2412807351
  0
ARC
  5
72C
100
AcDbEntity
  8
ASSI
100
AcDbCircle
 62
7
  6
CONTINUOUS
 10
10.29
 20
-18.1059083707
 40
0.71
100
AcDbArc
 50
319.7010712477
 51
355.2998279782
  0
ARC
  5
72D
100
AcDbEntity
  8
0
100
AcDbCircle
 62
7
  6
CONTINUOUS
 10
4.0
 20
-23.15
 40
0.5
100
AcDbArc
 50
324.3637748935
 51
35.6362251065
  0
ARC
  5
72E
100
AcDbEntity
  8
RACCORDO
100
AcDbCircle
 62
7
  6
CONTINUOUS
 10
1.7
 20
-17.55
 40
0.3
100
AcDbArc
 50
9.8838085533
 51
90.0
  0
ARC
  5
72F
100
AcDbEntity
  8
ASSI
100
AcDbCircle
 62
7
  6
CONTINUOUS
 10
9.5059083707
 20
18.89
 40
0.71
100
AcDbArc
 50
49.7020215745
 51
85.2988538673
  0
ARC
  5
730
100
AcDbEntity
  8
ASSI
100
AcDbCircle
 62
7
  6
CONTINUOUS
 10
10.29
 20
18.1059083707
 40
0.71
100
AcDbArc
 50
4.7020215745
 51
40.2988538673
  0
ARC
  5
731
100
AcDbEntity
  8
0
100
AcDbCircle
 62
7
  6
CONTINUOUS
 10
4.0
 20
23.15
 40
0.5
100
AcDbArc
 50
324.3637748935
 51
35.6362251065
  0
ARC
  5
732
100
AcDbEntity
  8
RACCORDO
100
AcDbCircle
 62
7
  6
CONTINUOUS
 10
1.7
 20
17.55
 40
0.3
100
AcDbArc
 50
270.0
 51
350.0
  0
ELLIPSE
  5
733
100
AcDbEntity
  8
RACCORDO
100
AcDbEllipse
 62
7
  6
CONTINUOUS
 10
-9.2661504284
 20
17.7661504284
 30
0.0
 11
0.3535803156
 21
-0.3535803156
 31
0.0
 40
0.9999238505
 41
2.4902938806
 42
2.8453801602
  0
ELLIPSE
  5
734
100
AcDbEntity
  8
RACCORDO
100
AcDbEllipse
 62
7
  6
CONTINUOUS
 10
-9.2661504284
 20
17.7661504284
 30
0.0
 11
-0.3535803156
 21
0.3535803156
 31
0.0
 40
0.9999238505
 41
-0.7853600872
 42
-0.6512987731
  0
ELLIPSE
  5
735
100
AcDbEntity
  8
RACCORDO
100
AcDbEllipse
 62
7
  6
CONTINUOUS
 10
-1.7928932188
 20
18.2356254304
 30
0.0
 11
0.5
 21
0.0
 31
0.0
 40
0.0087268678
 41
-2.3561944902
 42
-1.9981274692
  0
ELLIPSE
  5
736
100
AcDbEntity
  8
RACCORDO
100
AcDbEllipse
 62
7
  6
CONTINUOUS
 10
1.7928932188
 20
18.2356254304
 30
0.0
 11
0.5
 21
0.0
 31
0.0
 40
0.0087268678
 41
-1.1643384736
 42
-0.7853981634
  0
ELLIPSE
  5
737
100
AcDbEntity
  8
RACCORDO
100
AcDbEllipse
 62
7
  6
CONTINUOUS
 10
-9.1496953439
 20
-17.6714466826
 30
0.0
 11
1.8480888181
 21
0.7655034529
 31
0.0
 40
0.9998215708
 41
2.7489566578
 42
3.5342286494
  0
ELLIPSE
  5
738
100
AcDbEntity
  8
RACCORDO
100
AcDbEllipse
 62
7
  6
CONTINUOUS
 10
-9.1496953439
 20
17.6714466826
 30
0.0
 11
1.8480888181
 21
-0.7655034529
 31
0.0
 40
0.9998215708
 41
2.7489566578
 42
3.5342286494
  0
ELLIPSE
  5
739
100
AcDbEntity
  8
RACCORDO
100
AcDbEllipse
 62
7
  6
CONTINUOUS
 10
9.1496953439
 20
17.6714466826
 30
0.0
 11
1.8480888181
 21
0.7655034529
 31
0.0
 40
0.9998215708
 41
-0.3926359958
 42
0.3926359958
  0
ELLIPSE
  5
73A
100
AcDbEntity
  8
RACCORDO
100
AcDbEllipse
 62
7
  6
CONTINUOUS
 10
9.1496953439
 20
-17.6714466826
 30
0.0
 11
1.8480888181
 21
-0.7655034529
 31
0.0
 40
0.9998215708
 41
-0.3926359958
 42
0.3926359958
  0
ELLIPSE
  5
73B
100
AcDbEntity
  8
0
100
AcDbEllipse
 62
7
  6
CONTINUOUS
 10
1.999923836
 20
141.875642436
 30
0.0
 11
-0.4997620717
 21
162.4815824859
 31
0.0
 40
0.000109066
 41
3.2227835669
 42
3.234898768
  0
ELLIPSE
  5
73C
100
AcDbEntity
  8
0
100
AcDbEllipse
 62
7
  6
CONTINUOUS
 10
1.999923836
 20
-141.875642436
 30
0.0
 11
0.4997620717
 21
162.4815824859
 31
0.0
 40
0.000109066
 41
-0.0933061144
 42
-0.0811909133
  0
ELLIPSE
  5
73D
100
AcDbEntity
  8
0
100
AcDbEllipse
 62
7
  6
CONTINUOUS
 10
-1.999923836
 20
141.875642436
 30
0.0
 11
0.4997620717
 21
162.4815824859
 31
0.0
 40
0.000109066
 41
-3.234898768
 42
-3.2227835669
  0
ELLIPSE
  5
73E
100
AcDbEntity
  8
0
100
AcDbEllipse
 62
7
  6
CONTINUOUS
 10
-1.999923836
 20
-141.875642436
 30
0.0
 11
-0.4997620717
 21
162.4815824859
 31
0.0
 40
0.000109066
 41
6.3643762205
 42
6.3764914216
  0
ELLIPSE
  5
73F
100
AcDbEntity
  8
RACCORDO
100
AcDbEllipse
 62
7
  6
CONTINUOUS
 10
-9.0275098894
 20
-17.6208358102
 30
0.0
 11
-1.8480888181
 21
-0.7655034529
 31
0.0
 40
0.9998215708
 41
-0.3926359958
 42
0.3926359958
  0
ELLIPSE
  5
740
100
AcDbEntity
  8
RACCORDO
100
AcDbEllipse
 62
7
  6
CONTINUOUS
 10
-9.0275098894
 20
17.6208358102
 30
0.0
 11
1.8480888181
 21
-0.7655034529
 31
0.0
 40
0.9998215708
 41
2.7489566578
 42
3.5342286494
  0
ELLIPSE
  5
741
100
AcDbEntity
  8
RACCORDO
100
AcDbEllipse
 62
7
  6
CONTINUOUS
 10
9.0275098894
 20
17.6208358102
 30
0.0
 11
1.8480888181
 21
0.7655034529
 31
0.0
 40
0.9998215708
 41
-0.3926359958
 42
-0.278861721
  0
ELLIPSE
  5
742
100
AcDbEntity
  8
RACCORDO
100
AcDbEllipse
 62
7
  6
CONTINUOUS
 10
9.0275098894
 20
17.6208358102
 30
0.0
 11
1.8480888181
 21
0.7655034529
 31
0.0
 40
0.9998215708
 41
6.4756880539
 42
6.675821303
  0
ELLIPSE
  5
743
100
AcDbEntity
  8
RACCORDO
100
AcDbEllipse
 62
7
  6
CONTINUOUS
 10
9.0275098894
 20
-17.6208358102
 30
0.0
 11
-1.8480888181
 21
0.7655034529
 31
0.0
 40
0.9998215708
 41
9.032141965
 42
9.2322752141
  0
ELLIPSE
  5
744
100
AcDbEntity
  8
RACCORDO
100
AcDbEllipse
 62
7
  6
CONTINUOUS
 10
9.0275098894
 20
-17.6208358102
 30
0.0
 11
-1.8480888181
 21
0.7655034529
 31
0.0
 40
0.9998215708
 41
3.4204543746
 42
3.5342286494
  0
ELLIPSE
  5
745
100
AcDbEntity
  8
0
100
AcDbEllipse
 62
7
  6
CONTINUOUS
 10
2.5
 20
-22.3586937098
 30
0.0
 11
1.0205840068
 21
0.0
 31
0.0
 40
0.0058178298
 41
0.0000507714
 42
1.0523815008
  0
ELLIPSE
  5
746
100
AcDbEntity
  8
0
100
AcDbEllipse
 62
7
  6
CONTINUOUS
 10
-2.5
 20
-22.3586937098
 30
0.0
 11
1.0205840068
 21
0.0
 31
0.0
 40
0.0058178298
 41
8.37239646
 42
9.4247271893
  0
ELLIPSE
  5
747
100
AcDbEntity
  8
0
100
AcDbEllipse
 62
7
  6
CONTINUOUS
 10
-2.5
 20
22.3586937098
 30
0.0
 11
1.0205840068
 21
0.0
 31
0.0
 40
0.0058178298
 41
-3.1415418822
 42
-2.0892111528
  0
ELLIPSE
  5
748
100
AcDbEntity
  8
DRAFT
100
AcDbEllipse
 62
7
  6
CONTINUOUS
 10
2.5
 20
-20.0619614263
 30
0.0
 11
1.0005407263
 21
0.0
 31
0.0
 40
0.0087268678
 41
-1.5707963268
 42
0.0000761582
  0
ELLIPSE
  5
749
100
AcDbEntity
  8
DRAFT
100
AcDbEllipse
 62
7
  6
CONTINUOUS
 10
2.5
 20
20.0619614263
 30
0.0
 11
1.0005407263
 21
0.0
 31
0.0
 40
0.0087268678
 41
-0.0000761582
 42
1.5707963268
  0
ELLIPSE
  5
74A
100
AcDbEntity
  8
0
100
AcDbEllipse
 62
7
  6
CONTINUOUS
 10
2.5
 20
22.3586937098
 30
0.0
 11
1.0205840068
 21
0.0
 31
0.0
 40
0.0058178298
 41
-1.0523815008
 42
-0.0000507714
  0
ELLIPSE
  5
74B
100
AcDbEntity
  8
DRAFT
100
AcDbEllipse
 62
7
  6
CONTINUOUS
 10
-2.5
 20
20.0619614263
 30
0.0
 11
1.0005407263
 21
-0.0
 31
0.0
 40
0.0087268678
 41
1.5707963268
 42
3.1416688118
  0
ELLIPSE
  5
74C
100
AcDbEntity
  8
DRAFT
100
AcDbEllipse
 62
7
  6
CONTINUOUS
 10
-0.0
 20
20.1998353042
 30
0.0
 11
14.9982560202
 21
0.0
 31
0.0
 40
0.0087268678
 41
-1.7342933984
 42
-1.4072992552
  0
ELLIPSE
  5
74D
100
AcDbEntity
  8
DRAFT
100
AcDbEllipse
 62
7
  6
CONTINUOUS
 10
0.0
 20
-20.1998353042
 30
0.0
 11
14.9982560202
 21
0.0
 31
0.0
 40
0.0087268678
 41
1.4072992552
 42
1.7342933984
  0
ELLIPSE
  5
74E
100
AcDbEntity
  8
DRAFT
100
AcDbEllipse
 62
7
  6
CONTINUOUS
 10
-2.5
 20
-20.0619614263
 30
0.0
 11
1.0005407263
 21
0.0
 31
0.0
 40
0.0087268678
 41
3.1415164954
 42
4.7123889804
  0
ELLIPSE
  5
74F
100
AcDbEntity
  8
0
100
AcDbEllipse
 62
7
  6
CONTINUOUS
 10
3.9530427099
 20
-22.3560930869
 30
0.0
 11
0.4530427099
 21
-0.0
 31
0.0
 40
0.0058178298
 41
0.0058177642
 42
2.8392117832
  0
ELLIPSE
  5
750
100
AcDbEntity
  8
0
100
AcDbEllipse
 62
7
  6
CONTINUOUS
 10
-3.9530427099
 20
-22.3560930869
 30
0.0
 11
0.4530427099
 21
-0.0
 31
0.0
 40
0.0058178298
 41
0.3023808704
 42
3.1357748894
  0
ELLIPSE
  5
751
100
AcDbEntity
  8
0
100
AcDbEllipse
 62
7
  6
CONTINUOUS
 10
-3.9530427099
 20
22.3560930869
 30
0.0
 11
0.4530427099
 21
-0.0
 31
0.0
 40
0.0058178298
 41
-3.1357748894
 42
-0.3023808704
  0
ELLIPSE
  5
752
100
AcDbEntity
  8
0
100
AcDbEllipse
 62
7
  6
CONTINUOUS
 10
3.9530427099
 20
22.3560930869
 30
0.0
 11
0.4530427099
 21
-0.0
 31
0.0
 40
0.0058178298
 41
-2.8392117832
 42
-0.0058177642
  0
ELLIPSE
  5
753
100
AcDbEntity
  8
0
100
AcDbEllipse
 62
7
  6
CONTINUOUS
 10
-8.1905965035
 20
21.3359869487
 30
0.0
 11
1.0000571192
 21
0.9999809595
 31
0.0
 40
0.0061705924
 41
-1.1948539202
 42
0.0003532199
  0
ELLIPSE
  5
754
100
AcDbEntity
  8
0
100
AcDbEllipse
 62
7
  6
CONTINUOUS
 10
8.1905965035
 20
21.3359869487
 30
0.0
 11
1.0000571192
 21
-0.9999809595
 31
0.0
 40
0.0061705924
 41
3.1412394337
 42
4.3364465738
  0
ELLIPSE
  5
755
100
AcDbEntity
  8
0
100
AcDbEllipse
 62
7
  6
CONTINUOUS
 10
8.1905965035
 20
-21.3359869487
 30
0.0
 11
1.0000571192
 21
0.9999809595
 31
0.0
 40
0.0061705924
 41
1.9467387334
 42
3.1419458735
  0
ELLIPSE
  5
756
100
AcDbEntity
  8
0
100
AcDbEllipse
 62
7
  6
CONTINUOUS
 10
-8.1905965035
 20
-21.3359869487
 30
0.0
 11
1.0000571192
 21
-0.9999809595
 31
0.0
 40
0.0061705924
 41
-0.0003532199
 42
1.1948539202
  0
ELLIPSE
  5
757
100
AcDbEntity
  8
0
100
AcDbEllipse
 62
7
  6
CONTINUOUS
 10
9.8999957691
 20
23.4113248654
 30
0.0
 11
-0.0029088041
 21
0.2886641433
 31
0.0
 40
0.8660144118
 41
-3.150319066
 42
-1.582431609
  0
ELLIPSE
  5
758
100
AcDbEntity
  8
0
100
AcDbEllipse
 62
7
  6
CONTINUOUS
 10
7.5000042309
 20
23.4113248654
 30
0.0
 11
0.0029088041
 21
0.2886641433
 31
0.0
 40
0.8660144118
 41
-4.7007536982
 42
-3.1328662411
  0
ELLIPSE
  5
759
100
AcDbEntity
  8
0
100
AcDbEllipse
 62
7
  6
CONTINUOUS
 10
-7.5000042309
 20
23.4113248654
 30
0.0
 11
-0.0029088041
 21
0.2886641433
 31
0.0
 40
0.8660144118
 41
-3.150319066
 42
-1.582431609
  0
ELLIPSE
  5
75A
100
AcDbEntity
  8
0
100
AcDbEllipse
 62
7
  6
CONTINUOUS
 10
-9.8999957691
 20
23.4113248654
 30
0.0
 11
0.0029088041
 21
0.2886641433
 31
0.0
 40
0.8660144118
 41
-4.7007536982
 42
-3.1328662412
  0
ELLIPSE
  5
75B
100
AcDbEntity
  8
0
100
AcDbEllipse
 62
7
  6
CONTINUOUS
 10
9.8999957691
 20
-23.4113248654
 30
0.0
 11
0.0029088041
 21
0.2886641433
 31
0.0
 40
0.8660144118
 41
-1.5591610446
 42
0.0087264124
  0
ELLIPSE
  5
75C
100
AcDbEntity
  8
0
100
AcDbEllipse
 62
7
  6
CONTINUOUS
 10
7.5000042309
 20
-23.4113248654
 30
0.0
 11
-0.0029088041
 21
0.2886641433
 31
0.0
 40
0.8660144118
 41
-0.0087264124
 42
1.5591610446
  0
ELLIPSE
  5
75D
100
AcDbEntity
  8
0
100
AcDbEllipse
 62
7
  6
CONTINUOUS
 10
-9.8999957691
 20
-23.4113248654
 30
0.0
 11
-0.0029088041
 21
0.2886641433
 31
0.0
 40
0.8660144118
 41
-0.0087264124
 42
1.5591610446
  0
ELLIPSE
  5
75E
100
AcDbEntity
  8
0
100
AcDbEllipse
 62
7
  6
CONTINUOUS
 10
-7.5000042309
 20
-23.4113248654
 30
0.0
 11
0.0029088041
 21
0.2886641433
 31
0.0
 40
0.8660144118
 41
-1.5591610446
 42
0.0087264124
  0
ELLIPSE
  5
75F
100
AcDbEntity
  8
0
100
AcDbEllipse
 62
7
  6
CONTINUOUS
 10
10.641254093
 20
21.8941737085
 30
0.0
 11
-0.4160498344
 21
-0.2773626446
 31
0.0
 40
0.9999450019
 41
2.5536219432
 42
4.1243675013
  0
ELLIPSE
  5
760
100
AcDbEntity
  8
0
100
AcDbEllipse
 62
7
  6
CONTINUOUS
 10
10.641254093
 20
-21.8941737085
 30
0.0
 11
0.4160498344
 21
-0.2773626446
 31
0.0
 40
0.9999450019
 41
-0.9827748477
 42
0.5879707104
  0
ELLIPSE
  5
761
100
AcDbEntity
  8
0
100
AcDbEllipse
 62
7
  6
CONTINUOUS
 10
-10.641254093
 20
-21.8941737085
 30
0.0
 11
0.4160498344
 21
0.2773626446
 31
0.0
 40
0.9999450019
 41
2.5536219432
 42
4.1243675013
  0
ELLIPSE
  5
762
100
AcDbEntity
  8
0
100
AcDbEllipse
 62
7
  6
CONTINUOUS
 10
-10.641254093
 20
21.8941737085
 30
0.0
 11
-0.4160498344
 21
0.2773626446
 31
0.0
 40
0.9999450019
 41
-0.9827748477
 42
0.5879707104
  0
ELLIPSE
  5
763
100
AcDbEntity
  8
0
100
AcDbEllipse
 62
7
  6
CONTINUOUS
 10
7.5666456542
 20
-21.9537669705
 30
0.0
 11
0.4999904798
 21
0.5000285596
 31
0.0
 40
0.0061705924
 41
0.0112823085
 42
1.0386206835
  0
ELLIPSE
  5
764
100
AcDbEntity
  8
0
100
AcDbEllipse
 62
7
  6
CONTINUOUS
 10
-7.5666456542
 20
-21.9537669705
 30
0.0
 11
-0.4999904798
 21
0.5000285596
 31
0.0
 40
0.0061705924
 41
-1.0386206835
 42
-0.0112823085
  0
ELLIPSE
  5
765
100
AcDbEntity
  8
0
100
AcDbEllipse
 62
7
  6
CONTINUOUS
 10
-7.5666456542
 20
21.9537669705
 30
0.0
 11
0.4999904798
 21
0.5000285596
 31
0.0
 40
0.0061705924
 41
-3.1303103451
 42
-2.1029719701
  0
ELLIPSE
  5
766
100
AcDbEntity
  8
0
100
AcDbEllipse
 62
7
  6
CONTINUOUS
 10
7.5666456542
 20
21.9537669705
 30
0.0
 11
-0.4999904798
 21
0.5000285596
 31
0.0
 40
0.0061705924
 41
-4.1802133371
 42
-3.1528749621
  0
ELLIPSE
  5
767
100
AcDbEntity
  8
0
100
AcDbEllipse
 62
7
  6
CONTINUOUS
 10
7.5666456542
 20
-20.9916321118
 30
0.0
 11
0.5
 21
-0.0
 31
0.0
 40
0.0087268678
 41
-1.5707963268
 42
-0.0174532925
  0
ELLIPSE
  5
768
100
AcDbEntity
  8
0
100
AcDbEllipse
 62
7
  6
CONTINUOUS
 10
-7.5666456542
 20
-20.9916321118
 30
0.0
 11
0.5
 21
0.0
 31
0.0
 40
0.0087268678
 41
-3.1241393611
 42
-1.5707963268
  0
ELLIPSE
  5
769
100
AcDbEntity
  8
0
100
AcDbEllipse
 62
7
  6
CONTINUOUS
 10
-7.5666456542
 20
20.9916321118
 30
0.0
 11
0.5
 21
0.0
 31
0.0
 40
0.0087268678
 41
1.5707963268
 42
3.1241393611
  0
ELLIPSE
  5
76A
100
AcDbEntity
  8
0
100
AcDbEllipse
 62
7
  6
CONTINUOUS
 10
7.5666456542
 20
20.9916321118
 30
0.0
 11
0.5
 21
-0.0
 31
0.0
 40
0.0087268678
 41
0.0174532925
 42
1.5707963268
  0
ELLIPSE
  5
76B
100
AcDbEntity
  8
0
100
AcDbEllipse
 62
7
  6
CONTINUOUS
 10
-1.2085749864
 20
23.7942851154
 30
0.0
 11
0.1243375101
 21
0.1566832125
 31
0.0
 40
0.9998696711
 41
-0.9000073419
 42
0.6707382163
  0
ELLIPSE
  5
76C
100
AcDbEntity
  8
0
100
AcDbEllipse
 62
7
  6
CONTINUOUS
 10
1.2085749864
 20
23.7942851154
 30
0.0
 11
-0.1243375101
 21
0.1566832125
 31
0.0
 40
0.9998696711
 41
-0.6707382163
 42
0.9000073418
  0
ELLIPSE
  5
76D
100
AcDbEntity
  8
0
100
AcDbEllipse
 62
7
  6
CONTINUOUS
 10
1.2085749864
 20
-23.7942851154
 30
0.0
 11
0.1243375101
 21
0.1566832125
 31
0.0
 40
0.9998696711
 41
-4.0415999954
 42
-2.4708544373
  0
ELLIPSE
  5
76E
100
AcDbEntity
  8
0
100
AcDbEllipse
 62
7
  6
CONTINUOUS
 10
-1.2085749864
 20
-23.7942851154
 30
0.0
 11
-0.1243375101
 21
0.1566832125
 31
0.0
 40
0.9998696711
 41
-3.8123308699
 42
-2.2415853118
  0
ELLIPSE
  5
76F
100
AcDbEntity
  8
RACCORDO
100
AcDbEllipse
 62
7
  6
CONTINUOUS
 10
-1.6825778872
 20
-17.6
 30
0.0
 11
0.3000114235
 21
0.0
 31
0.0
 40
0.9999619231
 41
1.5707963268
 42
2.80137059
  0
ELLIPSE
  5
770
100
AcDbEntity
  8
RACCORDO
100
AcDbEllipse
 62
7
  6
CONTINUOUS
 10
-10.7130788782
 20
-3.45
 30
0.0
 11
0.3000114235
 21
0.0
 31
0.0
 40
0.9999619231
 41
1.5707963268
 42
3.1415926536
  0
ELLIPSE
  5
771
100
AcDbEntity
  8
RACCORDO
100
AcDbEllipse
 62
7
  6
CONTINUOUS
 10
-10.7130788782
 20
1.55
 30
0.0
 11
0.3000114235
 21
0.0
 31
0.0
 40
0.9999619231
 41
1.5707963268
 42
3.1415926536
  0
ELLIPSE
  5
772
100
AcDbEntity
  8
DRAFT
100
AcDbEllipse
 62
7
  6
CONTINUOUS
 10
-9.841452622
 20
-1.0
 30
0.0
 11
0.0
 21
2.15
 31
0.0
 40
0.0087268678
 41
-0.0
 42
3.1415926536
  0
ELLIPSE
  5
773
100
AcDbEntity
  8
DRAFT
100
AcDbEllipse
 62
7
  6
CONTINUOUS
 10
-9.841452622
 20
14.0
 30
0.0
 11
0.0
 21
2.15
 31
0.0
 40
0.0087268678
 41
-0.0
 42
3.1415926536
  0
ELLIPSE
  5
774
100
AcDbEntity
  8
DRAFT
100
AcDbEllipse
 62
7
  6
CONTINUOUS
 10
-9.841452622
 20
9.0
 30
0.0
 11
-0.0
 21
2.15
 31
0.0
 40
0.0087268678
 41
-0.0
 42
3.1415926536
  0
ELLIPSE
  5
775
100
AcDbEntity
  8
DRAFT
100
AcDbEllipse
 62
7
  6
CONTINUOUS
 10
-9.841452622
 20
4.0
 30
0.0
 11
0.0
 21
2.15
 31
0.0
 40
0.0087268678
 41
-0.0
 42
3.1415926536
  0
ELLIPSE
  5
776
100
AcDbEntity
  8
RACCORDO
100
AcDbEllipse
 62
7
  6
CONTINUOUS
 10
-3.7130788782
 20
19.3130788782
 30
0.0
 11
0.2121481893
 21
-0.2121481893
 31
0.0
 40
0.9999238505
 41
2.3562325664
 42
3.9269527408
  0
ELLIPSE
  5
777
100
AcDbEntity
  8
RACCORDO
100
AcDbEllipse
 62
7
  6
CONTINUOUS
 10
9.3911928455
 20
18.6130522233
 30
0.0
 11
0.3827005044
 21
0.9239207481
 31
0.0
 40
0.9999553905
 41
-0.3926833098
 42
0.3926833098
  0
ELLIPSE
  5
778
100
AcDbEntity
  8
RACCORDO
100
AcDbEllipse
 62
7
  6
CONTINUOUS
 10
10.0130522233
 20
17.9911928455
 30
0.0
 11
0.9239207481
 21
0.3827005044
 31
0.0
 40
0.9999553905
 41
-0.3926833098
 42
0.3926833098
  0
ELLIPSE
  5
779
100
AcDbEntity
  8
RACCORDO
100
AcDbEllipse
 62
7
  6
CONTINUOUS
 10
10.0130522233
 20
-17.9911928455
 30
0.0
 11
0.9239207481
 21
-0.3827005044
 31
0.0
 40
0.9999553905
 41
-0.3926833098
 42
0.3926833098
  0
ELLIPSE
  5
77A
100
AcDbEntity
  8
RACCORDO
100
AcDbEllipse
 62
7
  6
CONTINUOUS
 10
9.3911928455
 20
-18.6130522233
 30
0.0
 11
-0.3827005044
 21
0.9239207481
 31
0.0
 40
0.9999553905
 41
2.7489093438
 42
3.5342759634
  0
ELLIPSE
  5
77B
100
AcDbEntity
  8
RACCORDO
100
AcDbEllipse
 62
7
  6
CONTINUOUS
 10
-3.7130788782
 20
-19.3130788782
 30
0.0
 11
-0.2121481893
 21
-0.2121481893
 31
0.0
 40
0.9999238505
 41
-0.7853600872
 42
0.7853600872
  0
ELLIPSE
  5
77C
100
AcDbEntity
  8
RACCORDO
100
AcDbEllipse
 62
7
  6
CONTINUOUS
 10
-9.3911928455
 20
-17.2130522233
 30
0.0
 11
-0.3827005044
 21
-0.9239207481
 31
0.0
 40
0.9999553905
 41
-0.3926833098
 42
0.3926833098
  0
ELLIPSE
  5
77D
100
AcDbEntity
  8
RACCORDO
100
AcDbEllipse
 62
7
  6
CONTINUOUS
 10
-10.0130522233
 20
-16.5911928455
 30
0.0
 11
0.9239207481
 21
0.3827005044
 31
0.0
 40
0.9999553905
 41
2.7489093438
 42
3.5342759634
  0
ELLIPSE
  5
77E
100
AcDbEntity
  8
RACCORDO
100
AcDbEllipse
 62
7
  6
CONTINUOUS
 10
-10.7130788782
 20
1.45
 30
0.0
 11
-0.3000114235
 21
-0.0
 31
0.0
 40
0.9999619231
 41
0.0
 42
1.5707963268
  0
ELLIPSE
  5
77F
100
AcDbEntity
  8
RACCORDO
100
AcDbEllipse
 62
7
  6
CONTINUOUS
 10
-10.7130788782
 20
6.45
 30
0.0
 11
-0.3000114235
 21
-0.0
 31
0.0
 40
0.9999619231
 41
0.0
 42
1.5707963268
  0
ELLIPSE
  5
780
100
AcDbEntity
  8
RACCORDO
100
AcDbEllipse
 62
7
  6
CONTINUOUS
 10
-10.7130788782
 20
6.55
 30
0.0
 11
0.3000114235
 21
0.0
 31
0.0
 40
0.9999619231
 41
1.5707963268
 42
3.1415926536
  0
ELLIPSE
  5
781
100
AcDbEntity
  8
RACCORDO
100
AcDbEllipse
 62
7
  6
CONTINUOUS
 10
-10.7130788782
 20
11.45
 30
0.0
 11
-0.3000114235
 21
-0.0
 31
0.0
 40
0.9999619231
 41
0.0
 42
1.5707963268
  0
ELLIPSE
  5
782
100
AcDbEntity
  8
RACCORDO
100
AcDbEllipse
 62
7
  6
CONTINUOUS
 10
-10.7130788782
 20
11.55
 30
0.0
 11
0.3000114235
 21
0.0
 31
0.0
 40
0.9999619231
 41
1.5707963268
 42
3.1415926536
  0
ELLIPSE
  5
783
100
AcDbEntity
  8
RACCORDO
100
AcDbEllipse
 62
7
  6
CONTINUOUS
 10
-10.7130788782
 20
16.45
 30
0.0
 11
-0.3000114235
 21
-0.0
 31
0.0
 40
0.9999619231
 41
0.0
 42
1.5707963268
  0
ELLIPSE
  5
784
100
AcDbEntity
  8
RACCORDO
100
AcDbEllipse
 62
7
  6
CONTINUOUS
 10
-10.0130522233
 20
16.5911928455
 30
0.0
 11
-0.9239207481
 21
0.3827005044
 31
0.0
 40
0.9999553905
 41
-0.3926833098
 42
0.3926833098
  0
ELLIPSE
  5
785
100
AcDbEntity
  8
RACCORDO
100
AcDbEllipse
 62
7
  6
CONTINUOUS
 10
-9.3911928455
 20
17.2130522233
 30
0.0
 11
-0.3827005044
 21
0.9239207481
 31
0.0
 40
0.9999553905
 41
-0.3926833098
 42
0.3926833098
  0
ELLIPSE
  5
786
100
AcDbEntity
  8
RACCORDO
100
AcDbEllipse
 62
7
  6
CONTINUOUS
 10
-4.3131017252
 20
18.5131017252
 30
0.0
 11
0.2121481894
 21
-0.2121481893
 31
0.0
 40
0.9999238505
 41
-0.7853600873
 42
0.785360087
  0
ELLIPSE
  5
787
100
AcDbEntity
  8
RACCORDO
100
AcDbEllipse
 62
7
  6
CONTINUOUS
 10
1.6825778872
 20
-17.6
 30
0.0
 11
0.3000114235
 21
0.0
 31
0.0
 40
0.9999619231
 41
0.3402220636
 42
1.5707963268
  0
ELLIPSE
  5
788
100
AcDbEntity
  8
RACCORDO
100
AcDbEllipse
 62
7
  6
CONTINUOUS
 10
1.6039930308
 20
17.6
 30
0.0
 11
-0.3000114235
 21
-0.0
 31
0.0
 40
0.9999619231
 41
1.5707963268
 42
2.80137059
  0
ELLIPSE
  5
789
100
AcDbEntity
  8
RACCORDO
100
AcDbEllipse
 62
7
  6
CONTINUOUS
 10
-1.6039930308
 20
17.6
 30
0.0
 11
-0.3000114235
 21
-0.0
 31
0.0
 40
0.9999619231
 41
0.3402220636
 42
1.5707963268
  0
ELLIPSE
  5
78A
100
AcDbEntity
  8
ASSI
100
AcDbEllipse
 62
7
  6
CONTINUOUS
 10
-3.7130788782
 20
19.3130788782
 30
0.0
 11
0.2121481893
 21
-0.2121481893
 31
0.0
 40
0.9999238505
 41
2.3562325664
 42
3.9269527408
  0
ELLIPSE
  5
78B
100
AcDbEntity
  8
ASSI
100
AcDbEllipse
 62
7
  6
CONTINUOUS
 10
9.3911928455
 20
18.6130522233
 30
0.0
 11
0.3827005044
 21
0.9239207481
 31
0.0
 40
0.9999553905
 41
-0.3926833098
 42
0.3926833098
  0
ELLIPSE
  5
78C
100
AcDbEntity
  8
ASSI
100
AcDbEllipse
 62
7
  6
CONTINUOUS
 10
10.0130522233
 20
17.9911928455
 30
0.0
 11
0.9239207481
 21
0.3827005044
 31
0.0
 40
0.9999553905
 41
-0.3926833098
 42
0.3926833098
  0
ELLIPSE
  5
78D
100
AcDbEntity
  8
ASSI
100
AcDbEllipse
 62
7
  6
CONTINUOUS
 10
10.0130522233
 20
-17.9911928455
 30
0.0
 11
0.9239207481
 21
-0.3827005044
 31
0.0
 40
0.9999553905
 41
-0.3926833098
 42
0.3926833098
  0
ELLIPSE
  5
78E
100
AcDbEntity
  8
ASSI
100
AcDbEllipse
 62
7
  6
CONTINUOUS
 10
9.3911928455
 20
-18.6130522233
 30
0.0
 11
-0.3827005044
 21
0.9239207481
 31
0.0
 40
0.9999553905
 41
2.7489093438
 42
3.5342759634
  0
ELLIPSE
  5
78F
100
AcDbEntity
  8
ASSI
100
AcDbEllipse
 62
7
  6
CONTINUOUS
 10
-3.7130788782
 20
-19.3130788782
 30
0.0
 11
-0.2121481893
 21
-0.2121481893
 31
0.0
 40
0.9999238505
 41
-0.7853600872
 42
0.7853600872
  0
ELLIPSE
  5
790
100
AcDbEntity
  8
ASSI
100
AcDbEllipse
 62
7
  6
CONTINUOUS
 10
-9.3911928455
 20
-17.2130522233
 30
0.0
 11
-0.3827005044
 21
-0.9239207481
 31
0.0
 40
0.9999553905
 41
-0.3926833098
 42
0.3926833098
  0
ELLIPSE
  5
791
100
AcDbEntity
  8
ASSI
100
AcDbEllipse
 62
7
  6
CONTINUOUS
 10
-10.0130522233
 20
-16.5911928455
 30
0.0
 11
0.9239207481
 21
0.3827005044
 31
0.0
 40
0.9999553905
 41
2.7489093438
 42
3.5342759634
  0
ELLIPSE
  5
792
100
AcDbEntity
  8
ASSI
100
AcDbEllipse
 62
7
  6
CONTINUOUS
 10
-10.7130788782
 20
1.45
 30
0.0
 11
-0.3000114235
 21
-0.0
 31
0.0
 40
0.9999619231
 41
0.0
 42
1.5707963268
  0
ELLIPSE
  5
793
100
AcDbEntity
  8
ASSI
100
AcDbEllipse
 62
7
  6
CONTINUOUS
 10
-10.7130788782
 20
6.45
 30
0.0
 11
-0.3000114235
 21
-0.0
 31
0.0
 40
0.9999619231
 41
0.0
 42
1.5707963268
  0
ELLIPSE
  5
794
100
AcDbEntity
  8
ASSI
100
AcDbEllipse
 62
7
  6
CONTINUOUS
 10
-10.7130788782
 20
6.55
 30
0.0
 11
0.3000114235
 21
0.0
 31
0.0
 40
0.9999619231
 41
1.5707963268
 42
3.1415926536
  0
ELLIPSE
  5
795
100
AcDbEntity
  8
ASSI
100
AcDbEllipse
 62
7
  6
CONTINUOUS
 10
-10.7130788782
 20
11.45
 30
0.0
 11
-0.3000114235
 21
-0.0
 31
0.0
 40
0.9999619231
 41
0.0
 42
1.5707963268
  0
ELLIPSE
  5
796
100
AcDbEntity
  8
ASSI
100
AcDbEllipse
 62
7
  6
CONTINUOUS
 10
-10.7130788782
 20
11.55
 30
0.0
 11
0.3000114235
 21
0.0
 31
0.0
 40
0.9999619231
 41
1.5707963268
 42
3.1415926536
  0
ELLIPSE
  5
797
100
AcDbEntity
  8
ASSI
100
AcDbEllipse
 62
7
  6
CONTINUOUS
 10
-10.7130788782
 20
16.45
 30
0.0
 11
-0.3000114235
 21
-0.0
 31
0.0
 40
0.9999619231
 41
0.0
 42
1.5707963268
  0
ELLIPSE
  5
798
100
AcDbEntity
  8
ASSI
100
AcDbEllipse
 62
7
  6
CONTINUOUS
 10
-10.0130522233
 20
16.5911928455
 30
0.0
 11
-0.9239207481
 21
0.3827005044
 31
0.0
 40
0.9999553905
 41
-0.3926833098
 42
0.3926833098
  0
ELLIPSE
  5
799
100
AcDbEntity
  8
ASSI
100
AcDbEllipse
 62
7
  6
CONTINUOUS
 10
-9.3911928455
 20
17.2130522233
 30
0.0
 11
-0.3827005044
 21
0.9239207481
 31
0.0
 40
0.9999553905
 41
-0.3926833098
 42
0.3926833098
  0
ELLIPSE
  5
79A
100
AcDbEntity
  8
ASSI
100
AcDbEllipse
 62
7
  6
CONTINUOUS
 10
1.6825778872
 20
-17.6
 30
0.0
 11
0.3000114235
 21
0.0
 31
0.0
 40
0.9999619231
 41
0.3402220636
 42
1.5707963268
  0
ELLIPSE
  5
79B
100
AcDbEntity
  8
ASSI
100
AcDbEllipse
 62
7
  6
CONTINUOUS
 10
1.6039930308
 20
17.6
 30
0.0
 11
-0.3000114235
 21
-0.0
 31
0.0
 40
0.9999619231
 41
1.5707963268
 42
2.80137059
  0
ELLIPSE
  5
79C
100
AcDbEntity
  8
ASSI
100
AcDbEllipse
 62
7
  6
CONTINUOUS
 10
-1.6039930308
 20
17.6
 30
0.0
 11
-0.3000114235
 21
-0.0
 31
0.0
 40
0.9999619231
 41
0.3402220636
 42
1.5707963268
  0
ELLIPSE
  5
79D
100
AcDbEntity
  8
ASSI
100
AcDbEllipse
 62
7
  6
CONTINUOUS
 10
-1.6825778872
 20
-17.6
 30
0.0
 11
0.3000114235
 21
0.0
 31
0.0
 40
0.9999619231
 41
1.5707963268
 42
2.80137059
  0
ELLIPSE
  5
79E
100
AcDbEntity
  8
ASSI
100
AcDbEllipse
 62
7
  6
CONTINUOUS
 10
-10.7130788782
 20
-3.45
 30
0.0
 11
0.3000114235
 21
0.0
 31
0.0
 40
0.9999619231
 41
1.5707963268
 42
3.1415926536
  0
ELLIPSE
  5
79F
100
AcDbEntity
  8
ASSI
100
AcDbEllipse
 62
7
  6
CONTINUOUS
 10
-10.7130788782
 20
1.55
 30
0.0
 11
0.3000114235
 21
0.0
 31
0.0
 40
0.9999619231
 41
1.5707963268
 42
3.1415926536
  0
ELLIPSE
  5
7A0
100
AcDbEntity
  8
ASSI
100
AcDbEllipse
 62
7
  6
CONTINUOUS
 10
-9.841452622
 20
-1.0
 30
0.0
 11
0.0
 21
2.15
 31
0.0
 40
0.0087268678
 41
-0.0
 42
3.1415926536
  0
ELLIPSE
  5
7A1
100
AcDbEntity
  8
ASSI
100
AcDbEllipse
 62
7
  6
CONTINUOUS
 10
-9.841452622
 20
14.0
 30
0.0
 11
0.0
 21
2.15
 31
0.0
 40
0.0087268678
 41
-0.0
 42
3.1415926536
  0
ELLIPSE
  5
7A2
100
AcDbEntity
  8
ASSI
100
AcDbEllipse
 62
7
  6
CONTINUOUS
 10
-9.841452622
 20
9.0
 30
0.0
 11
-0.0
 21
2.15
 31
0.0
 40
0.0087268678
 41
-0.0
 42
3.1415926536
  0
ELLIPSE
  5
7A3
100
AcDbEntity
  8
ASSI
100
AcDbEllipse
 62
7
  6
CONTINUOUS
 10
-9.841452622
 20
4.0
 30
0.0
 11
0.0
 21
2.15
 31
0.0
 40
0.0087268678
 41
-0.0
 42
3.1415926536
  0
ELLIPSE
  5
7A4
100
AcDbEntity
  8
ASSI
100
AcDbEllipse
 62
7
  6
CONTINUOUS
 10
-4.3131017252
 20
18.5131017252
 30
0.0
 11
0.2121481894
 21
-0.2121481893
 31
0.0
 40
0.9999238505
 41
-0.7853600873
 42
0.785360087
  0
ENDSEC
  0
SECTION
  2
OBJECTS
  0
DICTIONARY
  5
C
100
AcDbDictionary
280
0
281
1
  3
ACAD_GROUP
350
D
  3
ACAD_MLINESTYLE
350
17
  3
ACAD_LAYOUT
350
1A
  3
ACAD_PLOTSETTINGS
350
19
  3
ACAD_PLOTSTYLENAME
350
E
  0
DICTIONARY
  5
D
102
{ACAD_REACTORS
330
C
102
}
100
AcDbDictionary
280
0
281
1
  0
ACDBDICTIONARYWDFLT
  5
E
102
{ACAD_REACTORS
330
C
102
}
100
AcDbDictionary
281
1
  3
Normal
350
F
100
AcDbDictionaryWithDefault
340
F
  0
DICTIONARY
  5
17
102
{ACAD_REACTORS
330
C
102
}
100
AcDbDictionary
280
0
281
1
  3
Standard
350
18
  0
DICTIONARY
  5
19
102
{ACAD_REACTORS
330
C
102
}
100
AcDbDictionary
281
1
  0
DICTIONARY
  5
1A
102
{ACAD_REACTORS
330
C
102
}
100
AcDbDictionary
281
1
  3
Model
350
7A5
  3
Layout1
350
7A6
  0
ACDBPLACEHOLDER
  5
F
102
{ACAD_REACTORS
330
E
102
}
  0
MLINESTYLE
  5
18
102
{ACAD_REACTORS
330
17
102
}
100
AcDbMlineStyle
  2
STANDARD
 70
0
  3

 62
256
 51
90.0
 52
90.0
 71
2
 49
0.5
 62
256
  6
BYLAYER
 49
-0.5
 62
256
  6
BYLAYER
  0
LAYOUT
  5
7A5
102
{ACAD_REACTORS
330
1A
102
}
100
AcDbPlotSettings
  1

  2
none_device
  4
ISO_A4_(297.00_x_210.00_MM)
  6

 40
0.0
 41
0.0
 42
0.0
 43
0.0
 44
297.0
 45
210.0
 46
0.0
 47
0.0
 48
0.0
 49
0.0
140
0.0
141
0.0
142
1.0
143
1.0
 70
1024
 72
1
 73
0
 74
0
  7

 75
0
147
1.0
148
0.0
149
0.0
100
AcDbLayout
  1
Model
 70
0
 71
0
 10
0.0
 20
0.0
 11
297.0
 21
210.0
 12
0.0
 22
0.0
 32
0.0
 14
0.0
 24
0.0
 34
0.0
 15
0.0
 25
0.0
 35
0.0
146
0.0
 13
0.0
 23
0.0
 33
0.0
 16
1.0
 26
0.0
 36
0.0
 17
0.0
 27
1.0
 37
0.0
 76
0
330
217
345
0
346
0
  0
LAYOUT
  5
7A6
102
{ACAD_REACTORS
330
1A
102
}
100
AcDbPlotSettings
  1

  2
none_device
  4
ISO_A4_(297.00_x_210.00_MM)
  6

 40
0.0
 41
0.0
 42
0.0
 43
0.0
 44
297.0
 45
210.0
 46
0.0
 47
0.0
 48
0.0
 49
0.0
140
0.0
141
0.0
142
1.0
143
1.0
 70
0
 72
1
 73
0
 74
0
  7

 75
0
147
1.0
148
0.0
149
0.0
100
AcDbLayout
  1
Layout1
 70
0
 71
1
 10
0.0
 20
0.0
 11
297.0
 21
210.0
 12
0.0
 22
0.0
 32
0.0
 14
0.0
 24
0.0
 34
0.0
 15
0.0
 25
0.0
 35
0.0
146
0.0
 13
0.0
 23
0.0
 33
0.0
 16
1.0
 26
0.0
 36
0.0
 17
0.0
 27
1.0
 37
0.0
 76
0
330
218
345
0
346
0
  0
ENDSEC
  0
EOF
