  0
SECTION
  2
HEADER
  9
$ACADVER
  1
AC1015
  9
$DWGCODEPAGE
  3
ANSI_1252
  9
$EXTMAX
 10
297.0
 20
210.0
 30
0.0
  9
$EXTMIN
 10
0.0
 20
0.0
 30
0.0
  9
$LIMMIN
 10
0.0
 20
0.0
  9
$LIMMAX
 10
297.0
 20
210.0
  9
$VIEWCTR
 10
148.5
 20
105.0
  9
$VIEWSIZE
 40
210.0
  9
$CLAYER
  8
0
  9
$LTSCALE
 40
16.335
  9
$CELTYPE
  6
BYLAYER
  9
$DIMSCALE
 40
1.0
  9
$DIMASZ
 40
3.0
  9
$DIMEXO
 40
0.5
  9
$DIMDLI
 40
11.286
  9
$DIMEXE
 40
1.5
  9
$DIMCEN
 40
2.673
  9
$DIMLFAC
 40
1.0
  9
$DIMBLK
  1
_FILLED
  9
$DIMTXT
 40
3.0
  9
$DIMTOL
 70
1
  9
$DIMLIM
 70
0
  9
$DIMTFAC
 40
1.0
  9
$DIMTP
 40
0.01
  9
$DIMTM
 40
0.01
  9
$DIMGAP
 40
0.625
  9
$DIMDSEP
 70
44
  9
$PDMODE
 70
3
  9
$PDSIZE
 40
3.0
  9
$HANDSEED
  5
892
  9
$TILEMODE
 70
1
  9
$MEASUREMENT
 70
1
  9
$INSUNITS
 70
4
  0
ENDSEC
  0
SECTION
  2
CLASSES
  0
CLASS
  1
ACDBDICTIONARYWDFLT
  2
AcDbDictionaryWithDefault
  3
AutoCAD 2000
 90
0
280
0
281
0
  0
CLASS
  1
ACDBPLACEHOLDER
  2
AcDbPlaceHolder
  3
AutoCAD 2000
 90
0
280
0
281
0
  0
CLASS
  1
LAYOUT
  2
AcDbLayout
  3
AutoCAD 2000
 90
0
280
0
281
0
  0
ENDSEC
  0
SECTION
  2
TABLES
  0
TABLE
  2
VPORT
  5
8
100
AcDbSymbolTable
 70
2
  0
VPORT
  5
1F4
100
AcDbSymbolTableRecord
100
AcDbViewportTableRecord
  2
*ACTIVE
 70
0
 10
0.0
 20
0.0
 11
1.0
 21
1.0
 12
148.5
 22
105.0
 13
0.0
 23
0.0
 14
1.0
 24
1.0
 15
0.0
 25
0.0
 16
0.0
 26
0.0
 36
1.0
 17
0.0
 27
0.0
 37
0.0
 40
210.0
 41
1.4142857143
 42
50.0
 43
0.0
 44
0.0
 50
0.0
 51
0.0
 71
0
 72
100
 73
1
 74
1
 75
0
 76
0
 77
0
 78
0
  0
ENDTAB
  0
TABLE
  2
LTYPE
  5
5
100
AcDbSymbolTable
 70
6
  0
LTYPE
  5
14
100
AcDbSymbolTableRecord
100
AcDbLinetypeTableRecord
  2
BYBLOCK
 70
0
  3

 72
65
 73
0
 40
0.0
  0
LTYPE
  5
15
100
AcDbSymbolTableRecord
100
AcDbLinetypeTableRecord
  2
BYLAYER
 70
0
  3

 72
65
 73
0
 40
0.0
  0
LTYPE
  5
16
100
AcDbSymbolTableRecord
100
AcDbLinetypeTableRecord
  2
CONTINUOUS
 70
64
  3
Solid line
 72
65
 73
0
 40
0.0
  0
LTYPE
  5
1F5
100
AcDbSymbolTableRecord
100
AcDbLinetypeTableRecord
  2
CENTER
 70
64
  3
____ _ ____ _ ____ _ ____ _ ____ _ ____ _ ____
 72
65
 73
4
 40
0.6
 49
0.375
 74
0
 49
-0.075
 74
0
 49
0.075
 74
0
 49
-0.075
 74
0
  0
LTYPE
  5
1F6
100
AcDbSymbolTableRecord
100
AcDbLinetypeTableRecord
  2
HIDDEN
 70
64
  3
- - - - - - - - - - - - - - - - - - - -
 72
65
 73
2
 40
0.2
 49
0.1
 74
0
 49
-0.1
 74
0
  0
LTYPE
  5
1F7
100
AcDbSymbolTableRecord
100
AcDbLinetypeTableRecord
  2
PHANTOM
 70
64
  3
_____ _ _ _____ _ _ _____ _ _ _____
 72
65
 73
6
 40
0.8
 49
0.45
 74
0
 49
-0.05
 74
0
 49
0.1
 74
0
 49
-0.05
 74
0
 49
0.1
 74
0
 49
-0.05
 74
0
  0
LTYPE
  5
1F8
100
AcDbSymbolTableRecord
100
AcDbLinetypeTableRecord
  2
DOT
 70
64
  3
. . . . . . . . . . . . . . . . . . . .
 72
65
 73
2
 40
0.2
 49
0.1
 74
0
 49
-0.1
 74
0
  0
LTYPE
  5
1F9
100
AcDbSymbolTableRecord
100
AcDbLinetypeTableRecord
  2
DASHED
 70
64
  3
- - - - - - - - - - - - - - - - - - - -
 72
65
 73
2
 40
0.2
 49
0.1
 74
0
 49
-0.1
 74
0
  0
ENDTAB
  0
TABLE
  2
LAYER
  5
2
100
AcDbSymbolTable
 70
36
  0
LAYER
  5
10
100
AcDbSymbolTableRecord
100
AcDbLayerTableRecord
  2
0
 70
0
 62
7
  6
CONTINUOUS
370
-3
390
F
  0
LAYER
  5
1FA
100
AcDbSymbolTableRecord
100
AcDbLayerTableRecord
  2
DEFAULT_1
 70
0
 62
7
  6
CENTER
370
-3
390
F
  0
LAYER
  5
1FB
100
AcDbSymbolTableRecord
100
AcDbLayerTableRecord
  2
DEFAULT_2
 70
0
 62
7
  6
HIDDEN
370
-3
390
F
  0
LAYER
  5
1FC
100
AcDbSymbolTableRecord
100
AcDbLayerTableRecord
  2
DEFAULT_3
 70
0
 62
7
  6
PHANTOM
370
-3
390
F
  0
LAYER
  5
1FD
100
AcDbSymbolTableRecord
100
AcDbLayerTableRecord
  2
ASSI
 70
0
 62
7
  6
CONTINUOUS
370
-3
390
F
  0
LAYER
  5
1FE
100
AcDbSymbolTableRecord
100
AcDbLayerTableRecord
  2
COLOR4
 70
0
 62
7
  6
CONTINUOUS
370
-3
390
F
  0
LAYER
  5
1FF
100
AcDbSymbolTableRecord
100
AcDbLayerTableRecord
  2
COORDINATE
 70
0
 62
7
  6
CONTINUOUS
370
-3
390
F
  0
LAYER
  5
200
100
AcDbSymbolTableRecord
100
AcDbLayerTableRecord
  2
COORD_ORIGINE
 70
0
 62
7
  6
CONTINUOUS
370
-3
390
F
  0
LAYER
  5
201
100
AcDbSymbolTableRecord
100
AcDbLayerTableRecord
  2
COPY
 70
0
 62
7
  6
CONTINUOUS
370
-3
390
F
  0
LAYER
  5
202
100
AcDbSymbolTableRecord
100
AcDbLayerTableRecord
  2
COPY_PUBLISH
 70
0
 62
7
  6
CONTINUOUS
370
-3
390
F
  0
LAYER
  5
203
100
AcDbSymbolTableRecord
100
AcDbLayerTableRecord
  2
COSMETIC
 70
0
 62
7
  6
CONTINUOUS
370
-3
390
F
  0
LAYER
  5
204
100
AcDbSymbolTableRecord
100
AcDbLayerTableRecord
  2
COSMETICI
 70
0
 62
7
  6
CONTINUOUS
370
-3
390
F
  0
LAYER
  5
205
100
AcDbSymbolTableRecord
100
AcDbLayerTableRecord
  2
CURVE
 70
0
 62
7
  6
CONTINUOUS
370
-3
390
F
  0
LAYER
  5
206
100
AcDbSymbolTableRecord
100
AcDbLayerTableRecord
  2
DRAFT
 70
0
 62
7
  6
CONTINUOUS
370
-3
390
F
  0
LAYER
  5
207
100
AcDbSymbolTableRecord
100
AcDbLayerTableRecord
  2
IMPORT_IGES
 70
0
 62
7
  6
CONTINUOUS
370
-3
390
F
  0
LAYER
  5
208
100
AcDbSymbolTableRecord
100
AcDbLayerTableRecord
  2
INTFCLR_1
 70
0
 62
7
  6
CONTINUOUS
370
-3
390
F
  0
LAYER
  5
209
100
AcDbSymbolTableRecord
100
AcDbLayerTableRecord
  2
INTFCLR_137
 70
0
 62
7
  6
CONTINUOUS
370
-3
390
F
  0
LAYER
  5
20A
100
AcDbSymbolTableRecord
100
AcDbLayerTableRecord
  2
INTFCLR_2
 70
0
 62
7
  6
CONTINUOUS
370
-3
390
F
  0
LAYER
  5
20B
100
AcDbSymbolTableRecord
100
AcDbLayerTableRecord
  2
INTFCLR_383
 70
0
 62
7
  6
CONTINUOUS
370
-3
390
F
  0
LAYER
  5
20C
100
AcDbSymbolTableRecord
100
AcDbLayerTableRecord
  2
INTFCLR_4627
 70
0
 62
7
  6
CONTINUOUS
370
-3
390
F
  0
LAYER
  5
20D
100
AcDbSymbolTableRecord
100
AcDbLayerTableRecord
  2
INTFCLR_6275
 70
0
 62
7
  6
CONTINUOUS
370
-3
390
F
  0
LAYER
  5
20E
100
AcDbSymbolTableRecord
100
AcDbLayerTableRecord
  2
INTF_1
 70
0
 62
7
  6
CONTINUOUS
370
-3
390
F
  0
LAYER
  5
20F
100
AcDbSymbolTableRecord
100
AcDbLayerTableRecord
  2
INTF_12
 70
0
 62
7
  6
CONTINUOUS
370
-3
390
F
  0
LAYER
  5
210
100
AcDbSymbolTableRecord
100
AcDbLayerTableRecord
  2
INTF_2
 70
0
 62
7
  6
CONTINUOUS
370
-3
390
F
  0
LAYER
  5
211
100
AcDbSymbolTableRecord
100
AcDbLayerTableRecord
  2
INTF_5
 70
0
 62
7
  6
CONTINUOUS
370
-3
390
F
  0
LAYER
  5
212
100
AcDbSymbolTableRecord
100
AcDbLayerTableRecord
  2
INTF_6
 70
0
 62
7
  6
CONTINUOUS
370
-3
390
F
  0
LAYER
  5
213
100
AcDbSymbolTableRecord
100
AcDbLayerTableRecord
  2
INTF_9
 70
0
 62
7
  6
CONTINUOUS
370
-3
390
F
  0
LAYER
  5
214
100
AcDbSymbolTableRecord
100
AcDbLayerTableRecord
  2
NOTE
 70
0
 62
7
  6
CONTINUOUS
370
-3
390
F
  0
LAYER
  5
215
100
AcDbSymbolTableRecord
100
AcDbLayerTableRecord
  2
PIANI
 70
0
 62
7
  6
CONTINUOUS
370
-3
390
F
  0
LAYER
  5
216
100
AcDbSymbolTableRecord
100
AcDbLayerTableRecord
  2
PIANI_ORIGINE
 70
0
 62
7
  6
CONTINUOUS
370
-3
390
F
  0
LAYER
  5
217
100
AcDbSymbolTableRecord
100
AcDbLayerTableRecord
  2
PIANI_RIFERIMENTO
 70
0
 62
7
  6
CONTINUOUS
370
-3
390
F
  0
LAYER
  5
218
100
AcDbSymbolTableRecord
100
AcDbLayerTableRecord
  2
PIANI_SFORMO
 70
0
 62
7
  6
CONTINUOUS
370
-3
390
F
  0
LAYER
  5
219
100
AcDbSymbolTableRecord
100
AcDbLayerTableRecord
  2
PUNTI
 70
0
 62
7
  6
CONTINUOUS
370
-3
390
F
  0
LAYER
  5
21A
100
AcDbSymbolTableRecord
100
AcDbLayerTableRecord
  2
RACCORDO
 70
0
 62
7
  6
CONTINUOUS
370
-3
390
F
  0
LAYER
  5
21B
100
AcDbSymbolTableRecord
100
AcDbLayerTableRecord
  2
SIMBOLI
 70
0
 62
7
  6
CONTINUOUS
370
-3
390
F
  0
LAYER
  5
21C
100
AcDbSymbolTableRecord
100
AcDbLayerTableRecord
  2
SMUSSO
 70
0
 62
7
  6
CONTINUOUS
370
-3
390
F
  0
LAYER
  5
21D
100
AcDbSymbolTableRecord
100
AcDbLayerTableRecord
  2
SNAPLINE
 70
0
 62
7
  6
CONTINUOUS
370
-3
390
F
  0
LAYER
  5
21E
100
AcDbSymbolTableRecord
100
AcDbLayerTableRecord
  2
SUPERFICI
 70
0
 62
7
  6
CONTINUOUS
370
-3
390
F
  0
LAYER
  5
21F
100
AcDbSymbolTableRecord
100
AcDbLayerTableRecord
  2
TRASH
 70
0
 62
7
  6
CONTINUOUS
370
-3
390
F
  0
LAYER
  5
220
100
AcDbSymbolTableRecord
100
AcDbLayerTableRecord
  2
XSEC_DATUMS
 70
0
 62
7
  6
CONTINUOUS
370
-3
390
F
  0
ENDTAB
  0
TABLE
  2
STYLE
  5
3
100
AcDbSymbolTable
 70
1
  0
STYLE
  5
11
100
AcDbSymbolTableRecord
100
AcDbTextStyleTableRecord
  2
STANDARD
 70
0
 40
0.0
 41
0.8
 50
0.0
 71
0
 42
0.2
  3
txt
  4

  0
STYLE
  5
221
100
AcDbSymbolTableRecord
100
AcDbTextStyleTableRecord
  2
TEXTSTYLE_1
 70
0
 40
0.0
 41
0.8
 50
0.0
 71
0
 42
0.2
  3
gdt
  4

  0
ENDTAB
  0
TABLE
  2
VIEW
  5
6
100
AcDbSymbolTable
 70
0
  0
ENDTAB
  0
TABLE
  2
UCS
  5
7
100
AcDbSymbolTable
 70
0
  0
ENDTAB
  0
TABLE
  2
APPID
  5
9
100
AcDbSymbolTable
 70
1
  0
APPID
  5
222
100
AcDbSymbolTableRecord
100
AcDbRegAppTableRecord
  2
ACAD
 70
0
  0
ENDTAB
  0
TABLE
  2
BLOCK_RECORD
  5
1
100
AcDbSymbolTable
 70
0
  0
BLOCK_RECORD
  5
223
100
AcDbSymbolTableRecord
100
AcDbBlockTableRecord
  2
*Model_Space
  0
BLOCK_RECORD
  5
224
100
AcDbSymbolTableRecord
100
AcDbBlockTableRecord
  2
*Paper_Space
  0
ENDTAB
  0
TABLE
  2
DIMSTYLE
  5
A
100
AcDbSymbolTable
 70
1
100
AcDbDimStyleTable
 71
0
  0
DIMSTYLE
105
225
100
AcDbSymbolTableRecord
100
AcDbDimStyleTableRecord
  2
STANDARD
 70
0
  3

  4

 40
1.0
 41
3.0
 42
0.5
 43
0.38
 44
1.5
 45
0.0
 46
0.0
 47
0.01
 48
0.01
140
3.0
141
0.09
142
0.0
143
25.4
144
1.0
145
0.0
146
1.0
147
0.625
 71
1.0
 72
0.0
 73
0
 74
0
 75
0
 76
0
 77
1
 78
8
170
0
171
2
172
0
173
0
174
0
175
0
176
0
177
0
178
0
270
2
271
2
272
2
273
2
274
2
275
0
280
0
281
0
282
0
283
1
284
8
285
0
286
0
287
3
288
0
340
11
278
44
  0
ENDTAB
  0
ENDSEC
  0
SECTION
  2
BLOCKS
  0
BLOCK
  5
20
100
AcDbEntity
  8
0
100
AcDbBlockBegin
  2
*Model_Space
 70
0
 10
0.0
 20
0.0
 30
0.0
  3
*Model_Space
  1

  0
ENDBLK
  5
21
100
AcDbEntity
  8
0
100
AcDbBlockEnd
  0
BLOCK
  5
1C
100
AcDbEntity
  8
0
100
AcDbBlockBegin
  2
*Paper_Space
 70
0
 10
0.0
 20
0.0
 30
0.0
  3
*Paper_Space
  1

  0
ENDBLK
  5
1D
100
AcDbEntity
  8
0
100
AcDbBlockEnd
  0
ENDSEC
  0
SECTION
  2
ENTITIES
  0
LWPOLYLINE
  5
226
100
AcDbEntity
  8
ASSI
100
AcDbPolyline
 62
7
  6
CONTINUOUS
 90
13
 70
0
 10
-1.5547270077
 20
-6.1865792708
 10
-1.5286248808
 20
-6.1848690066
 10
-1.5029697025
 20
-6.1797668303
 10
-1.4782001811
 20
-6.1713598491
 10
-1.4547397243
 20
-6.159791608
 10
-1.4329899184
 20
-6.1452598208
 10
-1.4133234964
 20
-6.128013243
 10
-1.3960769186
 20
-6.1083468211
 10
-1.3815451315
 20
-6.0865970152
 10
-1.3699768904
 20
-6.0631365583
 10
-1.3615699092
 20
-6.0383670369
 10
-1.3564677328
 20
-6.0127118586
 10
-1.3547574686
 20
-5.9866097318
  0
LWPOLYLINE
  5
227
100
AcDbEntity
  8
ASSI
100
AcDbPolyline
 62
7
  6
CONTINUOUS
 90
13
 70
0
 10
-22.3547879296
 20
-6.1865792708
 10
-22.3808900564
 20
-6.1848690066
 10
-22.4065452347
 20
-6.1797668303
 10
-22.4313147561
 20
-6.1713598491
 10
-22.454775213
 20
-6.159791608
 10
-22.4765250189
 20
-6.1452598208
 10
-22.4961914408
 20
-6.128013243
 10
-22.5134380186
 20
-6.1083468211
 10
-22.5279698058
 20
-6.0865970152
 10
-22.5395380469
 20
-6.0631365583
 10
-22.5479450281
 20
-6.0383670369
 10
-22.5530472044
 20
-6.0127118586
 10
-22.5547574686
 20
-5.9866097318
  0
LWPOLYLINE
  5
228
100
AcDbEntity
  8
RACCORDO
100
AcDbPolyline
 62
253
  6
CONTINUOUS
 90
13
 70
0
 10
-7.8521381569
 20
-5.5891605063
 10
-7.8195193351
 20
-5.5870131338
 10
-7.7874581086
 20
-5.580627542
 10
-7.7565028208
 20
-5.5701128387
 10
-7.7271829359
 20
-5.5556487633
 10
-7.6999999402
 20
-5.5374825972
 10
-7.6754187743
 20
-5.5159249215
 10
-7.6538599121
 20
-5.4913443176
 10
-7.6356922248
 20
-5.46416116
 10
-7.6212265968
 20
-5.4348404235
 10
-7.6107105358
 20
-5.4038836203
 10
-7.6043239745
 20
-5.3718201987
 10
-7.6021762332
 20
-5.3391985824
  0
LWPOLYLINE
  5
229
100
AcDbEntity
  8
ASSI
100
AcDbPolyline
 62
253
  6
CONTINUOUS
 90
13
 70
0
 10
-19.3678944646
 20
-6.1734118139
 10
-19.3417982001
 20
-6.1716937563
 10
-19.3161482833
 20
-6.1665848671
 10
-19.291383422
 20
-6.1581725293
 10
-19.2679271852
 20
-6.1466006264
 10
-19.2461807605
 20
-6.1320670825
 10
-19.2265160921
 20
-6.1148204779
 10
-19.2092695166
 20
-6.0951557961
 10
-19.19473601
 20
-6.0734093759
 10
-19.1831641449
 20
-6.0499531602
 10
-19.17475184
 20
-6.0251883357
 10
-19.1696429743
 20
-5.999538472
 10
-19.1679249255
 20
-5.9734422749
  0
LWPOLYLINE
  5
22A
100
AcDbEntity
  8
RACCORDO
100
AcDbPolyline
 62
7
  6
CONTINUOUS
 90
12
 70
0
 10
-15.7047574686
 20
-5.5892142201
 10
-15.6721273893
 20
-5.5870759549
 10
-15.6400553137
 20
-5.580697673
 10
-15.6090899833
 20
-5.5701883993
 10
-15.5797612392
 20
-5.5557278499
 10
-15.5525709136
 20
-5.5375633417
 10
-15.5279842527
 20
-5.5160055476
 10
-15.5064219873
 20
-5.4914231938
 10
-15.4882531899
 20
-5.4642368477
 10
-15.4737888841
 20
-5.4349117187
 10
-15.4632766513
 20
-5.4039495884
 10
-15.456896428
 20
-5.3718802015
  0
LWPOLYLINE
  5
22B
100
AcDbEntity
  8
ASSI
100
AcDbPolyline
 62
253
  6
CONTINUOUS
 90
13
 70
0
 10
-4.5411993277
 20
-5.3144104872
 10
-4.5671574394
 20
-5.3160720886
 10
-4.5926763071
 20
-5.320636379
 10
-4.6173241262
 20
-5.3280261238
 10
-4.6406838327
 20
-5.3381162793
 10
-4.6623601572
 20
-5.350736108
 10
-4.6819863144
 20
-5.3656720664
 10
-4.6992302119
 20
-5.38267142
 10
-4.7138000705
 20
-5.4014465224
 10
-4.7254493583
 20
-5.421679681
 10
-4.733980961
 20
-5.4430285314
 10
-4.7392505182
 20
-5.4651318299
 10
-4.7411688667
 20
-5.4876155679
  0
LWPOLYLINE
  5
22C
100
AcDbEntity
  8
RACCORDO
100
AcDbPolyline
 62
253
  6
CONTINUOUS
 90
7
 70
0
 10
-8.1715845035
 20
-5.5874174939
 10
-8.1814567535
 20
-5.5876866196
 10
-8.1897877398
 20
-5.5879750925
 10
-8.1963100461
 20
-5.5882730729
 10
-8.2009345336
 20
-5.5885772811
 10
-8.2037503411
 20
-5.5888909968
 10
-8.2047574686
 20
-5.5892142201
  0
LWPOLYLINE
  5
22D
100
AcDbEntity
  8
RACCORDO
100
AcDbPolyline
 62
253
  6
CONTINUOUS
 90
7
 70
0
 10
-16.022412483
 20
-5.5873741609
 10
-16.032552302
 20
-5.5876402383
 10
-16.0411704349
 20
-5.5879261293
 10
-16.0479896703
 20
-5.5882220774
 10
-16.0529176045
 20
-5.5885248301
 10
-16.0560466411
 20
-5.5888376397
 10
-16.0573767803
 20
-5.5891605063
  0
LWPOLYLINE
  5
22E
100
AcDbEntity
  8
RACCORDO
100
AcDbPolyline
 62
253
  6
CONTINUOUS
 90
4
 70
0
 10
-16.2844187534
 20
-5.3382554461
 10
-16.2965884378
 20
-5.3385590903
 10
-16.3042560913
 20
-5.3388734691
 10
-16.3073387041
 20
-5.3391985825
  0
LWPOLYLINE
  5
22F
100
AcDbEntity
  8
RACCORDO
100
AcDbPolyline
 62
253
  6
CONTINUOUS
 90
5
 70
0
 10
-8.4183023381
 20
-5.3380084334
 10
-8.4341211398
 20
-5.3383064127
 10
-8.4455442225
 20
-5.338611521
 10
-8.4524479116
 20
-5.3389268156
 10
-8.4547574686
 20
-5.3392522963
  0
LINE
  5
230
100
AcDbEntity
  8
RACCORDO
100
AcDbLine
 62
253
  6
CONTINUOUS
 10
-8.1471179337
 20
-5.5869389431
 11
-8.1715845035
 21
-5.5874174939
  0
LINE
  5
231
100
AcDbEntity
  8
RACCORDO
100
AcDbLine
 62
253
  6
CONTINUOUS
 10
-15.9974711762
 20
-5.586903136
 11
-16.022412483
 21
-5.5873741609
  0
LINE
  5
232
100
AcDbEntity
  8
RACCORDO
100
AcDbLine
 62
253
  6
CONTINUOUS
 10
-16.2471477229
 20
-5.3376743035
 11
-16.2844187534
 21
-5.3382554461
  0
LINE
  5
233
100
AcDbEntity
  8
RACCORDO
100
AcDbLine
 62
253
  6
CONTINUOUS
 10
-8.117694073
 20
-5.5865607031
 11
-8.1471179337
 21
-5.5869389431
  0
LINE
  5
234
100
AcDbEntity
  8
RACCORDO
100
AcDbLine
 62
253
  6
CONTINUOUS
 10
-8.37420891
 20
-5.3374522046
 11
-8.4183023381
 21
-5.3380084334
  0
LINE
  5
235
100
AcDbEntity
  8
RACCORDO
100
AcDbLine
 62
253
  6
CONTINUOUS
 10
-15.9676736392
 20
-5.5865339168
 11
-15.9974711762
 21
-5.586903136
  0
LINE
  5
236
100
AcDbEntity
  8
RACCORDO
100
AcDbLine
 62
253
  6
CONTINUOUS
 10
-16.1622667312
 20
-5.3369388853
 11
-16.2471477229
 21
-5.3376743035
  0
LINE
  5
237
100
AcDbEntity
  8
RACCORDO
100
AcDbLine
 62
253
  6
CONTINUOUS
 10
-8.2808214298
 20
-5.336772214
 11
-8.37420891
 21
-5.3374522046
  0
LINE
  5
238
100
AcDbEntity
  8
RACCORDO
100
AcDbLine
 62
253
  6
CONTINUOUS
 10
-8.0666107674
 20
-5.5862101354
 11
-8.117694073
 21
-5.5865607031
  0
LINE
  5
239
100
AcDbEntity
  8
RACCORDO
100
AcDbLine
 62
253
  6
CONTINUOUS
 10
-15.9162476377
 20
-5.5861989637
 11
-15.9676736392
 21
-5.5865339168
  0
LINE
  5
23A
100
AcDbEntity
  8
RACCORDO
100
AcDbLine
 62
253
  6
CONTINUOUS
 10
-16.0085680146
 20
-5.3363158133
 11
-16.1622667312
 21
-5.3369388853
  0
LINE
  5
23B
100
AcDbEntity
  8
RACCORDO
100
AcDbLine
 62
253
  6
CONTINUOUS
 10
-8.0764489987
 20
-5.3361949074
 11
-8.2808214298
 21
-5.336772214
  0
LINE
  5
23C
100
AcDbEntity
  8
ASSI
100
AcDbLine
 62
7
  6
CONTINUOUS
 10
-22.3547879296
 20
-6.1865792708
 11
-19.3547270077
 21
-6.1865792708
  0
LINE
  5
23D
100
AcDbEntity
  8
ASSI
100
AcDbLine
 62
7
  6
CONTINUOUS
 10
-4.5547879296
 20
-6.1865792708
 11
-1.5547270077
 21
-6.1865792708
  0
LINE
  5
23E
100
AcDbEntity
  8
ASSI
100
AcDbLine
 62
253
  6
CONTINUOUS
 10
-1.5678944646
 20
-6.1734118139
 11
-4.5416204727
 21
-6.1734118139
  0
LINE
  5
23F
100
AcDbEntity
  8
ASSI
100
AcDbLine
 62
253
  6
CONTINUOUS
 10
-19.3678944646
 20
-6.1734118139
 11
-22.3416204727
 21
-6.1734118139
  0
LINE
  5
240
100
AcDbEntity
  8
ASSI
100
AcDbLine
 62
253
  6
CONTINUOUS
 10
-1.3687824471
 20
-5.9234498901
 11
-4.7407324901
 21
-5.9234498901
  0
LINE
  5
241
100
AcDbEntity
  8
ASSI
100
AcDbLine
 62
253
  6
CONTINUOUS
 10
-19.1687824471
 20
-5.9234498901
 11
-22.5407324901
 21
-5.9234498901
  0
LINE
  5
242
100
AcDbEntity
  8
RACCORDO
100
AcDbLine
 62
7
  6
CONTINUOUS
 10
-16.1547955448
 20
-5.6865792708
 11
-13.0047193924
 21
-5.6865792708
  0
LINE
  5
243
100
AcDbEntity
  8
RACCORDO
100
AcDbLine
 62
7
  6
CONTINUOUS
 10
-10.9047955448
 20
-5.6865792708
 11
-7.7547193924
 21
-5.6865792708
  0
LINE
  5
244
100
AcDbEntity
  8
RACCORDO
100
AcDbLine
 62
7
  6
CONTINUOUS
 10
-8.2047574686
 20
-5.6691242059
 11
-10.8873404799
 21
-5.6691242059
  0
LINE
  5
245
100
AcDbEntity
  8
RACCORDO
100
AcDbLine
 62
7
  6
CONTINUOUS
 10
-13.0221744573
 20
-5.6691242059
 11
-15.7047574686
 21
-5.6691242059
  0
LINE
  5
246
100
AcDbEntity
  8
ASSI
100
AcDbLine
 62
253
  6
CONTINUOUS
 10
-1.3687824471
 20
-5.5309168381
 11
-2.9178868493
 21
-5.5309168381
  0
LINE
  5
247
100
AcDbEntity
  8
ASSI
100
AcDbLine
 62
253
  6
CONTINUOUS
 10
-3.1916280879
 20
-5.5309168381
 11
-4.7407324901
 21
-5.5309168381
  0
LINE
  5
248
100
AcDbEntity
  8
ASSI
100
AcDbLine
 62
253
  6
CONTINUOUS
 10
-19.1687824471
 20
-5.5309168381
 11
-20.7178868493
 21
-5.5309168381
  0
LINE
  5
249
100
AcDbEntity
  8
ASSI
100
AcDbLine
 62
253
  6
CONTINUOUS
 10
-20.9916280879
 20
-5.5309168381
 11
-22.5407324901
 21
-5.5309168381
  0
LINE
  5
24A
100
AcDbEntity
  8
ASSI
100
AcDbLine
 62
253
  6
CONTINUOUS
 10
-1.5683156071
 20
-5.314410407
 11
-2.7013804984
 21
-5.3144104872
  0
LINE
  5
24B
100
AcDbEntity
  8
ASSI
100
AcDbLine
 62
253
  6
CONTINUOUS
 10
-3.4081344389
 20
-5.3144104872
 11
-4.5411993277
 21
-5.3144104872
  0
LINE
  5
24C
100
AcDbEntity
  8
ASSI
100
AcDbLine
 62
253
  6
CONTINUOUS
 10
-19.3683156095
 20
-5.3144104872
 11
-20.5013804984
 21
-5.3144104872
  0
LINE
  5
24D
100
AcDbEntity
  8
ASSI
100
AcDbLine
 62
253
  6
CONTINUOUS
 10
-21.2081344389
 20
-5.3144104872
 11
-22.3411993277
 21
-5.3144104872
  0
LINE
  5
24E
100
AcDbEntity
  8
ASSI
100
AcDbLine
 62
7
  6
CONTINUOUS
 10
-22.3564725095
 20
-4.8092290016
 11
-21.2547574686
 21
-4.8092290016
  0
LINE
  5
24F
100
AcDbEntity
  8
ASSI
100
AcDbLine
 62
7
  6
CONTINUOUS
 10
-20.4547574686
 20
-4.8092290016
 11
-19.3530424277
 21
-4.8092290016
  0
LINE
  5
250
100
AcDbEntity
  8
ASSI
100
AcDbLine
 62
7
  6
CONTINUOUS
 10
-4.5564725095
 20
-4.8092290016
 11
-3.4547574686
 21
-4.8092290016
  0
LINE
  5
251
100
AcDbEntity
  8
ASSI
100
AcDbLine
 62
7
  6
CONTINUOUS
 10
-2.6547574686
 20
-4.8092290016
 11
-1.5530424277
 21
-4.8092290016
  0
LINE
  5
252
100
AcDbEntity
  8
RACCORDO
100
AcDbLine
 62
253
  6
CONTINUOUS
 10
-8.0118253186
 20
-5.5861507947
 11
-8.0666107674
 21
-5.5862101354
  0
LINE
  5
253
100
AcDbEntity
  8
RACCORDO
100
AcDbLine
 62
253
  6
CONTINUOUS
 10
-15.8614112004
 20
-5.5861563206
 11
-15.9162476377
 21
-5.5861989637
  0
LINE
  5
254
100
AcDbEntity
  8
RACCORDO
100
AcDbLine
 62
253
  6
CONTINUOUS
 10
-15.7892933534
 20
-5.3362477037
 11
-16.0085680146
 21
-5.3363158133
  0
LINE
  5
255
100
AcDbEntity
  8
RACCORDO
100
AcDbLine
 62
253
  6
CONTINUOUS
 10
-7.8593507294
 20
-5.3364270557
 11
-8.0764489987
 21
-5.3361949074
  0
LINE
  5
256
100
AcDbEntity
  8
RACCORDO
100
AcDbLine
 62
253
  6
CONTINUOUS
 10
-15.5943455949
 20
-5.3369740346
 11
-15.7892933534
 21
-5.3362477037
  0
LINE
  5
257
100
AcDbEntity
  8
RACCORDO
100
AcDbLine
 62
253
  6
CONTINUOUS
 10
-7.9586481041
 20
-5.5863884739
 11
-8.0118253186
 21
-5.5861507947
  0
LINE
  5
258
100
AcDbEntity
  8
RACCORDO
100
AcDbLine
 62
253
  6
CONTINUOUS
 10
-15.8084797044
 20
-5.5864101626
 11
-15.8614112004
 21
-5.5861563206
  0
LINE
  5
259
100
AcDbEntity
  8
RACCORDO
100
AcDbLine
 62
253
  6
CONTINUOUS
 10
-7.7154619221
 20
-5.3371632814
 11
-7.8593507294
 21
-5.3364270557
  0
LINE
  5
25A
100
AcDbEntity
  8
RACCORDO
100
AcDbLine
 62
253
  6
CONTINUOUS
 10
-7.6623659535
 20
-5.3376736605
 11
-7.7154619221
 21
-5.3371632814
  0
LINE
  5
25B
100
AcDbEntity
  8
RACCORDO
100
AcDbLine
 62
253
  6
CONTINUOUS
 10
-7.9265853389
 20
-5.5867019407
 11
-7.9586481041
 21
-5.5863884739
  0
LINE
  5
25C
100
AcDbEntity
  8
RACCORDO
100
AcDbLine
 62
253
  6
CONTINUOUS
 10
-15.7767352116
 20
-5.5867333487
 11
-15.8084797044
 21
-5.5864101626
  0
LWPOLYLINE
  5
25D
100
AcDbEntity
  8
ASSI
100
AcDbPolyline
 62
253
  6
CONTINUOUS
 90
13
 70
0
 10
-19.3683156095
 20
-5.3144104872
 10
-19.342357538
 20
-5.3160720838
 10
-19.3168387021
 20
-5.3206363619
 10
-19.2921909051
 20
-5.3280260895
 10
-19.2688312118
 20
-5.3381162253
 10
-19.2471548905
 20
-5.3507360344
 10
-19.2275287257
 20
-5.3656719774
 10
-19.210284811
 20
-5.3826713238
 10
-19.19571493
 20
-5.4014464282
 10
-19.1840656194
 20
-5.4216795977
 10
-19.1755339965
 20
-5.4430284675
 10
-19.1702644248
 20
-5.4651317941
 10
-19.1683460705
 20
-5.4876155679
  0
LWPOLYLINE
  5
25E
100
AcDbEntity
  8
RACCORDO
100
AcDbPolyline
 62
7
  6
CONTINUOUS
 90
13
 70
0
 10
-8.2047574686
 20
-5.5892142201
 10
-8.2373890165
 20
-5.5870757612
 10
-8.2694622295
 20
-5.5806969742
 10
-8.300428326
 20
-5.5701870019
 10
-8.3297574676
 20
-5.5557256729
 10
-8.3569478246
 20
-5.5375604244
 10
-8.3815341626
 20
-5.516002069
 10
-8.4030958025
 20
-5.4914194758
 10
-8.4212638186
 20
-5.4642332599
 10
-8.4357273511
 20
-5.4349085849
 10
-8.4462389248
 20
-5.403947204
 10
-8.4526186839
 20
-5.3718788752
 10
-8.4547574686
 20
-5.3392522963
  0
LWPOLYLINE
  5
25F
100
AcDbEntity
  8
RACCORDO
100
AcDbPolyline
 62
253
  6
CONTINUOUS
 90
13
 70
0
 10
-16.0573767803
 20
-5.5891605063
 10
-16.0899970694
 20
-5.5870129398
 10
-16.1220594324
 20
-5.5806268428
 10
-16.1530154858
 20
-5.5701114411
 10
-16.1823357681
 20
-5.5556465863
 10
-16.2095187953
 20
-5.5374796803
 10
-16.2340996387
 20
-5.5159214435
 10
-16.255657876
 20
-5.4913406003
 10
-16.2738247825
 20
-5.4641575729
 10
-16.2882896379
 20
-5.4348372903
 10
-16.2988050401
 20
-5.4038812364
 10
-16.3051911374
 20
-5.3718188726
 10
-16.3073387041
 20
-5.3391985825
  0
LWPOLYLINE
  5
260
100
AcDbEntity
  8
ASSI
100
AcDbPolyline
 62
253
  6
CONTINUOUS
 90
13
 70
0
 10
-4.5416204727
 20
-6.1734118139
 10
-4.5677167041
 20
-6.1716937607
 10
-4.5933665947
 20
-6.166584883
 10
-4.6181314376
 20
-6.1581725615
 10
-4.6415876637
 20
-6.1466006774
 10
-4.6633340857
 20
-6.1320671524
 10
-4.6829987604
 20
-6.1148205626
 10
-4.7002453502
 20
-6.0951558879
 10
-4.7147788752
 20
-6.0734094659
 10
-4.7263507593
 20
-6.0499532398
 10
-4.7347630808
 20
-6.0251883969
 10
-4.7398719585
 20
-5.9995385063
 10
-4.7415900117
 20
-5.9734422749
  0
LWPOLYLINE
  5
261
100
AcDbEntity
  8
RACCORDO
100
AcDbPolyline
 62
253
  6
CONTINUOUS
 90
7
 70
0
 10
-15.454757483
 20
-5.3392515091
 10
-15.4570734635
 20
-5.3389262579
 10
-15.4639759399
 20
-5.3386111029
 10
-15.475394085
 20
-5.3383060442
 10
-15.4912097914
 20
-5.3380079706
 10
-15.5112545084
 20
-5.3377199933
 10
-15.5943455949
 20
-5.3369740346
  0
LWPOLYLINE
  5
262
100
AcDbEntity
  8
RACCORDO
100
AcDbPolyline
 62
253
  6
CONTINUOUS
 90
9
 70
0
 10
-15.7047574686
 20
-5.5892142201
 10
-15.7057888195
 20
-5.5888891866
 10
-15.7086288039
 20
-5.5885741461
 10
-15.7132774218
 20
-5.5882690987
 10
-15.7198241258
 20
-5.5879709082
 10
-15.7281794633
 20
-5.5876827108
 10
-15.7380750764
 20
-5.5874139153
 10
-15.7495602333
 20
-5.5871652132
 10
-15.7767352116
 20
-5.5867333487
  0
LWPOLYLINE
  5
263
100
AcDbEntity
  8
ASSI
100
AcDbPolyline
 62
7
  6
CONTINUOUS
 90
10
 70
0
 10
-21.2081344389
 20
-5.3144104872
 10
-21.1888215721
 20
-5.3327031697
 10
-21.168098785
 20
-5.3536448295
 10
-21.1459660776
 20
-5.3765788484
 10
-21.1221246878
 20
-5.4007170225
 10
-21.0968733777
 20
-5.425644732
 10
-21.071108434
 20
-5.4514364921
 10
-21.0451286189
 20
-5.4779079032
 10
-21.0186351702
 20
-5.5045131335
 10
-20.9916280879
 20
-5.5309168381
  0
LWPOLYLINE
  5
264
100
AcDbEntity
  8
ASSI
100
AcDbPolyline
 62
7
  6
CONTINUOUS
 90
10
 70
0
 10
-21.2081344389
 20
41.9412519455
 10
-21.1898417564
 20
41.9605648123
 10
-21.1689000965
 20
41.9812875994
 10
-21.1459660776
 20
42.0034203068
 10
-21.1218279035
 20
42.0272616966
 10
-21.0969001941
 20
42.0525130067
 10
-21.071108434
 20
42.0782779504
 10
-21.0446370228
 20
42.1042577655
 10
-21.0180317925
 20
42.1307512142
 10
-20.9916280879
 20
42.1577582965
  0
LINE
  5
265
100
AcDbEntity
  8
ASSI
100
AcDbLine
 62
253
  6
CONTINUOUS
 10
-19.3678944646
 20
42.8002532723
 11
-19.3547270077
 21
42.8134207292
  0
LINE
  5
266
100
AcDbEntity
  8
ASSI
100
AcDbLine
 62
253
  6
CONTINUOUS
 10
-19.1679249255
 20
42.6002837332
 11
-19.1547574686
 21
42.6134511902
  0
LINE
  5
267
100
AcDbEntity
  8
ASSI
100
AcDbLine
 62
7
  6
CONTINUOUS
 10
-20.4547574686
 20
40.7134207292
 11
-20.4679249255
 21
40.7002532723
  0
LINE
  5
268
100
AcDbEntity
  8
ASSI
100
AcDbLine
 62
7
  6
CONTINUOUS
 10
-20.0127517544
 20
39.3006894071
 11
-20.1873024037
 21
39.2134207292
  0
LINE
  5
269
100
AcDbEntity
  8
ASSI
100
AcDbLine
 62
7
  6
CONTINUOUS
 10
-20.0132230714
 20
39.7695301698
 11
-20.1873024037
 21
39.7185341393
  0
LINE
  5
26A
100
AcDbEntity
  8
ASSI
100
AcDbLine
 62
7
  6
CONTINUOUS
 10
-11.1547574686
 20
-4.0865792708
 11
-11.1373024037
 21
-4.0848339398
  0
LINE
  5
26B
100
AcDbEntity
  8
ASSI
100
AcDbLine
 62
7
  6
CONTINUOUS
 10
-22.5547575332
 20
-4.0865792062
 11
-21.2547574686
 21
-4.0865792708
  0
LINE
  5
26C
100
AcDbEntity
  8
ASSI
100
AcDbLine
 62
7
  6
CONTINUOUS
 10
-20.4547574686
 20
-4.0865792708
 11
-16.4047574686
 21
-4.0865792708
  0
LINE
  5
26D
100
AcDbEntity
  8
ASSI
100
AcDbLine
 62
7
  6
CONTINUOUS
 10
-7.5047574686
 20
-4.0865792708
 11
-3.4547574686
 21
-4.0865792708
  0
LINE
  5
26E
100
AcDbEntity
  8
ASSI
100
AcDbLine
 62
7
  6
CONTINUOUS
 10
-2.6547574686
 20
-4.0865792708
 11
-1.3547574686
 21
-4.0865792708
  0
LINE
  5
26F
100
AcDbEntity
  8
ASSI
100
AcDbLine
 62
7
  6
CONTINUOUS
 10
-12.7722125335
 20
-4.0848339398
 11
-11.1373024037
 21
-4.0848339398
  0
LINE
  5
270
100
AcDbEntity
  8
ASSI
100
AcDbLine
 62
7
  6
CONTINUOUS
 10
-22.5373785561
 20
-4.0691242059
 11
-20.9916280879
 21
-4.0691242059
  0
LINE
  5
271
100
AcDbEntity
  8
ASSI
100
AcDbLine
 62
7
  6
CONTINUOUS
 10
-20.7178868493
 20
-4.0691242059
 11
-19.2098708788
 21
-4.0691242059
  0
LINE
  5
272
100
AcDbEntity
  8
ASSI
100
AcDbLine
 62
7
  6
CONTINUOUS
 10
-4.6996440585
 20
-4.0691242059
 11
-3.1916280879
 21
-4.0691242059
  0
LINE
  5
273
100
AcDbEntity
  8
ASSI
100
AcDbLine
 62
7
  6
CONTINUOUS
 10
-2.9178868493
 20
-4.0691242059
 11
-1.3721363811
 21
-4.0691242059
  0
LINE
  5
274
100
AcDbEntity
  8
ASSI
100
AcDbLine
 62
253
  6
CONTINUOUS
 10
-19.2559808113
 20
-3.9117239886
 11
-15.0296334622
 21
-3.9117239886
  0
LINE
  5
275
100
AcDbEntity
  8
ASSI
100
AcDbLine
 62
253
  6
CONTINUOUS
 10
-8.879881475
 20
-3.9117239886
 11
-4.6535341259
 21
-3.9117239886
  0
LINE
  5
276
100
AcDbEntity
  8
ASSI
100
AcDbLine
 62
7
  6
CONTINUOUS
 10
-8.8890479102
 20
-3.3865792708
 11
-15.0204670271
 21
-3.3865792708
  0
LINE
  5
277
100
AcDbEntity
  8
ASSI
100
AcDbLine
 62
7
  6
CONTINUOUS
 10
-12.7547574686
 20
-4.0865792708
 11
-12.7722125335
 21
-4.0848339398
  0
LWPOLYLINE
  5
278
100
AcDbEntity
  8
RACCORDO
100
AcDbPolyline
 62
253
  6
CONTINUOUS
 90
5
 70
0
 10
-7.6021781793
 20
-5.3391977984
 10
-7.605266348
 20
-5.3388729129
 10
-7.6129321471
 20
-5.338558673
 10
-7.6250964863
 20
-5.3382550785
 10
-7.6623659535
 20
-5.3376736605
  0
LWPOLYLINE
  5
279
100
AcDbEntity
  8
RACCORDO
100
AcDbPolyline
 62
253
  6
CONTINUOUS
 90
9
 70
0
 10
-7.8521381569
 20
-5.5891605063
 10
-7.8534943234
 20
-5.5888358372
 10
-7.8566488576
 20
-5.5885217103
 10
-7.8616017594
 20
-5.5882181259
 10
-7.8684456051
 20
-5.5879219751
 10
-7.8770878184
 20
-5.5876363667
 10
-7.8872506712
 20
-5.5873706265
 10
-7.8989827306
 20
-5.587125461
 10
-7.9265853389
 20
-5.5867019407
  0
LINE
  5
27A
100
AcDbEntity
  8
ASSI
100
AcDbLine
 62
7
  6
CONTINUOUS
 10
-20.0132230714
 20
-3.1426887114
 11
-20.1873024037
 21
-3.091692681
  0
LINE
  5
27B
100
AcDbEntity
  8
ASSI
100
AcDbLine
 62
7
  6
CONTINUOUS
 10
-20.0127517544
 20
-2.6738479487
 11
-20.1873024037
 21
-2.5865792708
  0
LINE
  5
27C
100
AcDbEntity
  8
ASSI
100
AcDbLine
 62
253
  6
CONTINUOUS
 10
-19.3547270077
 20
-6.1865792708
 11
-19.3678944646
 21
-6.1734118139
  0
LINE
  5
27D
100
AcDbEntity
  8
ASSI
100
AcDbLine
 62
253
  6
CONTINUOUS
 10
-19.1547574686
 20
-5.9866097318
 11
-19.1679249255
 21
-5.9734422749
  0
LINE
  5
27E
100
AcDbEntity
  8
ASSI
100
AcDbLine
 62
7
  6
CONTINUOUS
 10
-20.4547574686
 20
-4.0865792708
 11
-20.4679249255
 21
-4.0734118139
  0
LINE
  5
27F
100
AcDbEntity
  8
DRAFT
100
AcDbLine
 62
7
  6
CONTINUOUS
 10
-21.3891402962
 20
36.5493984054
 11
-21.4144377827
 21
36.524084646
  0
LINE
  5
280
100
AcDbEntity
  8
DRAFT
100
AcDbLine
 62
7
  6
CONTINUOUS
 10
-21.3697594222
 20
36.550273309
 11
-21.3951025666
 21
36.5249138623
  0
LINE
  5
281
100
AcDbEntity
  8
0
100
AcDbLine
 62
7
  6
CONTINUOUS
 10
-20.7547574686
 20
39.1634207292
 11
-22.5190602491
 21
37.3991179487
  0
LINE
  5
282
100
AcDbEntity
  8
RACCORDO
100
AcDbLine
 62
7
  6
CONTINUOUS
 10
-20.7547574686
 20
39.1634207292
 11
-22.5190602491
 21
37.3991179487
  0
LINE
  5
283
100
AcDbEntity
  8
ASSI
100
AcDbLine
 62
7
  6
CONTINUOUS
 10
-20.1873024037
 20
39.7185341393
 11
-19.2098708788
 21
40.6959656643
  0
LINE
  5
284
100
AcDbEntity
  8
0
100
AcDbLine
 62
7
  6
CONTINUOUS
 10
-20.5819611417
 20
39.1634207292
 11
-22.3968747946
 21
37.3485070763
  0
LINE
  5
285
100
AcDbEntity
  8
RACCORDO
100
AcDbLine
 62
7
  6
CONTINUOUS
 10
-20.5819611417
 20
39.1634207292
 11
-22.3968747946
 21
37.3485070763
  0
LINE
  5
286
100
AcDbEntity
  8
ASSI
100
AcDbLine
 62
7
  6
CONTINUOUS
 10
-19.2547574686
 20
39.2134207292
 11
-19.1674887907
 21
39.3006894071
  0
LINE
  5
287
100
AcDbEntity
  8
RACCORDO
100
AcDbLine
 62
7
  6
CONTINUOUS
 10
-22.674965704
 20
35.611724976
 11
-22.0530617155
 21
36.2336289645
  0
LINE
  5
288
100
AcDbEntity
  8
ASSI
100
AcDbLine
 62
7
  6
CONTINUOUS
 10
-22.674965704
 20
35.611724976
 11
-22.0530617155
 21
36.2336289645
  0
LINE
  5
289
100
AcDbEntity
  8
0
100
AcDbLine
 62
7
  6
CONTINUOUS
 10
-17.2547574686
 20
38.3134207292
 11
-17.0802068193
 21
38.4006894071
  0
LINE
  5
28A
100
AcDbEntity
  8
0
100
AcDbLine
 62
7
  6
CONTINUOUS
 10
-19.391413105
 20
36.5795901968
 11
-19.4088681699
 21
36.570863329
  0
LINE
  5
28B
100
AcDbEntity
  8
DRAFT
100
AcDbLine
 62
7
  6
CONTINUOUS
 10
-19.391413105
 20
36.5795901968
 11
-19.4088681699
 21
36.570863329
  0
LWPOLYLINE
  5
28C
100
AcDbEntity
  8
0
100
AcDbPolyline
 62
7
  6
CONTINUOUS
 90
12
 70
0
 10
-13.57915393
 20
-1.5712080873
 10
-13.6970257582
 20
-1.5715885614
 10
-13.8098971879
 20
-1.5722073727
 10
-13.9192529704
 20
-1.5730793373
 10
-14.0236083546
 20
-1.5741896391
 10
-14.1185090869
 20
-1.5754938299
 10
-14.2035771712
 20
-1.5770038519
 10
-14.2791906037
 20
-1.5787077629
 10
-14.3420291198
 20
-1.5805252878
 10
-14.3909859644
 20
-1.5824296683
 10
-14.4271678925
 20
-1.5844476626
 10
-14.4505749041
 20
-1.5865792708
  0
LINE
  5
28D
100
AcDbEntity
  8
ASSI
100
AcDbLine
 62
253
  6
CONTINUOUS
 10
-20.0127517544
 20
-2.9118762935
 11
-15.0121810558
 21
-2.9118762935
  0
LINE
  5
28E
100
AcDbEntity
  8
ASSI
100
AcDbLine
 62
253
  6
CONTINUOUS
 10
-8.8973338815
 20
-2.9118762935
 11
-3.8967631828
 21
-2.9118762935
  0
LINE
  5
28F
100
AcDbEntity
  8
ASSI
100
AcDbLine
 62
7
  6
CONTINUOUS
 10
-18.5420261465
 20
-2.7611299201
 11
-17.0802068193
 21
-2.7611299201
  0
LINE
  5
290
100
AcDbEntity
  8
ASSI
100
AcDbLine
 62
7
  6
CONTINUOUS
 10
-6.8293081179
 20
-2.7611299201
 11
-5.3674887907
 21
-2.7611299201
  0
LINE
  5
291
100
AcDbEntity
  8
ASSI
100
AcDbLine
 62
7
  6
CONTINUOUS
 10
-20.0127517544
 20
-2.6738479487
 11
-19.1674887907
 21
-2.6738479487
  0
LINE
  5
292
100
AcDbEntity
  8
ASSI
100
AcDbLine
 62
7
  6
CONTINUOUS
 10
-4.7420261465
 20
-2.6738479487
 11
-3.8967631828
 21
-2.6738479487
  0
LINE
  5
293
100
AcDbEntity
  8
0
100
AcDbLine
 62
7
  6
CONTINUOUS
 10
-18.4547574686
 20
-2.5865792708
 11
-17.2547574686
 21
-2.5865792708
  0
LINE
  5
294
100
AcDbEntity
  8
0
100
AcDbLine
 62
7
  6
CONTINUOUS
 10
-6.6547574686
 20
-2.5865792708
 11
-5.4547574686
 21
-2.5865792708
  0
LINE
  5
295
100
AcDbEntity
  8
ASSI
100
AcDbLine
 62
7
  6
CONTINUOUS
 10
-3.7222125335
 20
-2.5865792708
 11
-4.6547574686
 21
-2.5865792708
  0
LINE
  5
296
100
AcDbEntity
  8
ASSI
100
AcDbLine
 62
7
  6
CONTINUOUS
 10
-19.2547574686
 20
-2.5865792708
 11
-20.1873024037
 21
-2.5865792708
  0
LINE
  5
297
100
AcDbEntity
  8
0
100
AcDbLine
 62
7
  6
CONTINUOUS
 10
-20.7547574686
 20
-2.5365792708
 11
-19.3547574686
 21
-2.5365792708
  0
LINE
  5
298
100
AcDbEntity
  8
DRAFT
100
AcDbLine
 62
7
  6
CONTINUOUS
 10
-20.7547574686
 20
-2.5365792708
 11
-19.3547574686
 21
-2.5365792708
  0
LINE
  5
299
100
AcDbEntity
  8
0
100
AcDbLine
 62
7
  6
CONTINUOUS
 10
-3.1547574686
 20
-2.5365792708
 11
-4.5547574686
 21
-2.5365792708
  0
LINE
  5
29A
100
AcDbEntity
  8
DRAFT
100
AcDbLine
 62
7
  6
CONTINUOUS
 10
-3.1547574686
 20
-2.5365792708
 11
-4.5547574686
 21
-2.5365792708
  0
LINE
  5
29B
100
AcDbEntity
  8
ASSI
100
AcDbLine
 62
7
  6
CONTINUOUS
 10
-15.0047574686
 20
-2.4865792708
 11
-8.9047574686
 21
-2.4865792708
  0
LINE
  5
29C
100
AcDbEntity
  8
ASSI
100
AcDbLine
 62
7
  6
CONTINUOUS
 10
-17.0802068193
 20
-1.7738479487
 11
-6.8293081179
 21
-1.7738479487
  0
LINE
  5
29D
100
AcDbEntity
  8
RACCORDO
100
AcDbLine
 62
7
  6
CONTINUOUS
 10
-14.4547574686
 20
-1.7398131643
 11
-14.3960685918
 21
-1.7398131643
  0
LINE
  5
29E
100
AcDbEntity
  8
RACCORDO
100
AcDbLine
 62
7
  6
CONTINUOUS
 10
-9.5134463455
 20
-1.7398131643
 11
-9.4547574686
 21
-1.7398131643
  0
LINE
  5
29F
100
AcDbEntity
  8
DRAFT
100
AcDbLine
 62
7
  6
CONTINUOUS
 10
-19.3547574686
 20
-1.6865792708
 11
-19.2547574686
 21
-1.6865792708
  0
LINE
  5
2A0
100
AcDbEntity
  8
0
100
AcDbLine
 62
7
  6
CONTINUOUS
 10
-17.2547574686
 20
-1.6865792708
 11
-14.4541096497
 21
-1.6865792708
  0
LINE
  5
2A1
100
AcDbEntity
  8
0
100
AcDbLine
 62
7
  6
CONTINUOUS
 10
-9.4554052875
 20
-1.6865792708
 11
-6.6547574686
 21
-1.6865792708
  0
LINE
  5
2A2
100
AcDbEntity
  8
DRAFT
100
AcDbLine
 62
7
  6
CONTINUOUS
 10
-4.6547574686
 20
-1.6865792708
 11
-4.5547574686
 21
-1.6865792708
  0
LINE
  5
2A3
100
AcDbEntity
  8
0
100
AcDbLine
 62
7
  6
CONTINUOUS
 10
-8.4547574686
 20
-1.5865792708
 11
-9.4602791884
 21
-1.5865792708
  0
LINE
  5
2A4
100
AcDbEntity
  8
0
100
AcDbLine
 62
7
  6
CONTINUOUS
 10
-14.4492357488
 20
-1.5865792708
 11
-15.4547574686
 21
-1.5865792708
  0
LINE
  5
2A5
100
AcDbEntity
  8
0
100
AcDbLine
 62
7
  6
CONTINUOUS
 10
-10.4532332338
 20
-1.5710659504
 11
-13.57915393
 21
-1.5712080873
  0
LINE
  5
2A6
100
AcDbEntity
  8
0
100
AcDbLine
 62
7
  6
CONTINUOUS
 10
-8.491413105
 20
-1.5499236345
 11
-15.4181018323
 21
-1.5499236345
  0
LINE
  5
2A7
100
AcDbEntity
  8
DRAFT
100
AcDbLine
 62
7
  6
CONTINUOUS
 10
-8.491413105
 20
-1.5499236345
 11
-15.4181018323
 21
-1.5499236345
  0
LINE
  5
2A8
100
AcDbEntity
  8
ASSI
100
AcDbLine
 62
7
  6
CONTINUOUS
 10
-4.7420261465
 20
-1.4738479487
 11
-5.3674887907
 21
-1.4738479487
  0
LINE
  5
2A9
100
AcDbEntity
  8
ASSI
100
AcDbLine
 62
7
  6
CONTINUOUS
 10
-18.5420261465
 20
-1.4738479487
 11
-19.1674887907
 21
-1.4738479487
  0
LINE
  5
2AA
100
AcDbEntity
  8
0
100
AcDbLine
 62
7
  6
CONTINUOUS
 10
-19.3547574686
 20
-1.3865792708
 11
-15.4547574686
 21
-1.3865792708
  0
LINE
  5
2AB
100
AcDbEntity
  8
DRAFT
100
AcDbLine
 62
7
  6
CONTINUOUS
 10
-19.3547574686
 20
-1.3865792708
 11
-15.4547574686
 21
-1.3865792708
  0
LINE
  5
2AC
100
AcDbEntity
  8
0
100
AcDbLine
 62
7
  6
CONTINUOUS
 10
-8.4547574686
 20
-1.3865792708
 11
-4.5547574686
 21
-1.3865792708
  0
LINE
  5
2AD
100
AcDbEntity
  8
DRAFT
100
AcDbLine
 62
7
  6
CONTINUOUS
 10
-8.4547574686
 20
-1.3865792708
 11
-4.5547574686
 21
-1.3865792708
  0
LINE
  5
2AE
100
AcDbEntity
  8
0
100
AcDbLine
 62
7
  6
CONTINUOUS
 10
-19.391413105
 20
-1.3499236345
 11
-15.4181018323
 21
-1.3499236345
  0
LINE
  5
2AF
100
AcDbEntity
  8
DRAFT
100
AcDbLine
 62
7
  6
CONTINUOUS
 10
-19.391413105
 20
-1.3499236345
 11
-15.4181018323
 21
-1.3499236345
  0
LINE
  5
2B0
100
AcDbEntity
  8
0
100
AcDbLine
 62
7
  6
CONTINUOUS
 10
-8.491413105
 20
-1.3499236345
 11
-4.5181018323
 21
-1.3499236345
  0
LINE
  5
2B1
100
AcDbEntity
  8
DRAFT
100
AcDbLine
 62
7
  6
CONTINUOUS
 10
-8.491413105
 20
-1.3499236345
 11
-4.5181018323
 21
-1.3499236345
  0
LINE
  5
2B2
100
AcDbEntity
  8
RACCORDO
100
AcDbLine
 62
7
  6
CONTINUOUS
 10
-15.6678591934
 20
-1.2996695725
 11
-2.5635330785
 21
-1.2996695725
  0
LINE
  5
2B3
100
AcDbEntity
  8
ASSI
100
AcDbLine
 62
7
  6
CONTINUOUS
 10
-15.6678591934
 20
-1.2996695725
 11
-2.5635330785
 21
-1.2996695725
  0
LWPOLYLINE
  5
2B4
100
AcDbEntity
  8
0
100
AcDbPolyline
 62
7
  6
CONTINUOUS
 90
13
 70
0
 10
-10.4532332338
 20
-1.5710659504
 10
-10.3303610072
 20
-1.5712080873
 10
-10.2124891791
 20
-1.5715885614
 10
-10.0996177493
 20
-1.5722073727
 10
-9.9902619668
 20
-1.5730793373
 10
-9.8859065827
 20
-1.5741896391
 10
-9.7910058504
 20
-1.5754938299
 10
-9.705937766
 20
-1.5770038519
 10
-9.6303243335
 20
-1.5787077629
 10
-9.5674858175
 20
-1.5805252878
 10
-9.5185289729
 20
-1.5824296683
 10
-9.4823470447
 20
-1.5844476626
 10
-9.4589400331
 20
-1.5865792708
  0
LINE
  5
2B5
100
AcDbEntity
  8
0
100
AcDbLine
 62
7
  6
CONTINUOUS
 10
-17.2547574686
 20
-1.6865792708
 11
-17.0802068193
 21
-1.7738479487
  0
LINE
  5
2B6
100
AcDbEntity
  8
0
100
AcDbLine
 62
7
  6
CONTINUOUS
 10
-22.5190602491
 20
-0.7722764903
 11
-20.7547574686
 21
-2.5365792708
  0
LINE
  5
2B7
100
AcDbEntity
  8
RACCORDO
100
AcDbLine
 62
7
  6
CONTINUOUS
 10
-22.5190602491
 20
-0.7722764903
 11
-20.7547574686
 21
-2.5365792708
  0
LINE
  5
2B8
100
AcDbEntity
  8
ASSI
100
AcDbLine
 62
7
  6
CONTINUOUS
 10
-19.2098708788
 20
-4.0691242059
 11
-20.1873024037
 21
-3.091692681
  0
LINE
  5
2B9
100
AcDbEntity
  8
0
100
AcDbLine
 62
7
  6
CONTINUOUS
 10
-22.3968747946
 20
-0.721665618
 11
-20.5819611417
 21
-2.5365792708
  0
LINE
  5
2BA
100
AcDbEntity
  8
RACCORDO
100
AcDbLine
 62
7
  6
CONTINUOUS
 10
-22.3968747946
 20
-0.721665618
 11
-20.5819611417
 21
-2.5365792708
  0
LINE
  5
2BB
100
AcDbEntity
  8
ASSI
100
AcDbLine
 62
7
  6
CONTINUOUS
 10
-19.2547574686
 20
-2.5865792708
 11
-19.1674887907
 21
-2.6738479487
  0
LINE
  5
2BC
100
AcDbEntity
  8
RACCORDO
100
AcDbLine
 62
7
  6
CONTINUOUS
 10
-22.674965704
 20
1.0151164824
 11
-22.0530617155
 21
0.3932124938
  0
LINE
  5
2BD
100
AcDbEntity
  8
ASSI
100
AcDbLine
 62
7
  6
CONTINUOUS
 10
-22.674965704
 20
1.0151164824
 11
-22.0530617155
 21
0.3932124938
  0
LINE
  5
2BE
100
AcDbEntity
  8
0
100
AcDbLine
 62
7
  6
CONTINUOUS
 10
-19.3547574686
 20
38.0134207292
 11
-19.391413105
 21
37.9767650928
  0
LINE
  5
2BF
100
AcDbEntity
  8
DRAFT
100
AcDbLine
 62
7
  6
CONTINUOUS
 10
-19.3547574686
 20
38.0134207292
 11
-19.391413105
 21
37.9767650928
  0
LINE
  5
2C0
100
AcDbEntity
  8
0
100
AcDbLine
 62
7
  6
CONTINUOUS
 10
-19.1674887907
 20
38.1006894071
 11
-19.2547574686
 21
38.0134207292
  0
LINE
  5
2C1
100
AcDbEntity
  8
0
100
AcDbLine
 62
7
  6
CONTINUOUS
 10
-17.0802068193
 20
39.3879713785
 11
-17.2547574686
 21
39.2134207292
  0
LINE
  5
2C2
100
AcDbEntity
  8
RACCORDO
100
AcDbLine
 62
253
  6
CONTINUOUS
 10
-13.0221744573
 20
42.2959656643
 11
-13.0047193924
 21
42.3134207292
  0
LINE
  5
2C3
100
AcDbEntity
  8
ASSI
100
AcDbLine
 62
7
  6
CONTINUOUS
 10
-15.9678477703
 20
-0.2865792708
 11
-21.1547574686
 21
-0.2865792708
  0
LINE
  5
2C4
100
AcDbEntity
  8
ASSI
100
AcDbLine
 62
7
  6
CONTINUOUS
 10
-0.8722125335
 20
-0.1092290016
 11
-0.8285715471
 21
-0.1092290016
  0
LINE
  5
2C5
100
AcDbEntity
  8
ASSI
100
AcDbLine
 62
7
  6
CONTINUOUS
 10
-23.0373024037
 20
-0.1092290016
 11
-23.0809433902
 21
-0.1092290016
  0
LINE
  5
2C6
100
AcDbEntity
  8
0
100
AcDbLine
 62
7
  6
CONTINUOUS
 10
-9.4547574686
 20
0.0134207292
 11
-14.4547574686
 21
0.0134207292
  0
LINE
  5
2C7
100
AcDbEntity
  8
ASSI
100
AcDbLine
 62
7
  6
CONTINUOUS
 10
-9.4547574686
 20
0.0134207292
 11
-14.4547574686
 21
0.0134207292
  0
LINE
  5
2C8
100
AcDbEntity
  8
RACCORDO
100
AcDbLine
 62
7
  6
CONTINUOUS
 10
-21.3459818587
 20
0.1003304275
 11
-15.9678477703
 21
0.1003304275
  0
LINE
  5
2C9
100
AcDbEntity
  8
ASSI
100
AcDbLine
 62
7
  6
CONTINUOUS
 10
-21.3459818587
 20
0.1003304275
 11
-15.9678477703
 21
0.1003304275
  0
LINE
  5
2CA
100
AcDbEntity
  8
ASSI
100
AcDbLine
 62
7
  6
CONTINUOUS
 10
-14.4547574686
 20
0.1134207292
 11
-9.4547574686
 21
0.1134207292
  0
LINE
  5
2CB
100
AcDbEntity
  8
0
100
AcDbLine
 62
7
  6
CONTINUOUS
 10
-19.3547574686
 20
-1.3865792708
 11
-19.391413105
 21
-1.3499236345
  0
LINE
  5
2CC
100
AcDbEntity
  8
DRAFT
100
AcDbLine
 62
7
  6
CONTINUOUS
 10
-19.3547574686
 20
-1.3865792708
 11
-19.391413105
 21
-1.3499236345
  0
LINE
  5
2CD
100
AcDbEntity
  8
0
100
AcDbLine
 62
7
  6
CONTINUOUS
 10
-19.1674887907
 20
-1.4738479487
 11
-19.2547574686
 21
-1.3865792708
  0
LINE
  5
2CE
100
AcDbEntity
  8
0
100
AcDbLine
 62
7
  6
CONTINUOUS
 10
-17.0802068193
 20
-2.7611299201
 11
-17.2547574686
 21
-2.5865792708
  0
LINE
  5
2CF
100
AcDbEntity
  8
RACCORDO
100
AcDbLine
 62
253
  6
CONTINUOUS
 10
-13.0047193924
 20
-5.6865792708
 11
-13.0221744573
 21
-5.6691242059
  0
LINE
  5
2D0
100
AcDbEntity
  8
RACCORDO
100
AcDbLine
 62
253
  6
CONTINUOUS
 10
-12.7722125335
 20
42.0460037405
 11
-12.7547574686
 21
42.0634588054
  0
LWPOLYLINE
  5
2D1
100
AcDbEntity
  8
0
100
AcDbPolyline
 62
253
  6
CONTINUOUS
 90
3
 70
0
 10
-13.7575094052
 20
1.0155191854
 10
-13.7068999339
 20
1.0276648032
 10
-13.6547574686
 20
1.0317488865
  0
LWPOLYLINE
  5
2D2
100
AcDbEntity
  8
RACCORDO
100
AcDbPolyline
 62
253
  6
CONTINUOUS
 90
3
 70
0
 10
-13.7575094052
 20
1.0155191854
 10
-13.7068999339
 20
1.0276648032
 10
-13.6547574686
 20
1.0317488865
  0
LINE
  5
2D3
100
AcDbEntity
  8
ASSI
100
AcDbLine
 62
7
  6
CONTINUOUS
 10
-14.4547574686
 20
0.8134207292
 11
-9.4547574686
 21
0.8134207292
  0
LINE
  5
2D4
100
AcDbEntity
  8
RACCORDO
100
AcDbLine
 62
7
  6
CONTINUOUS
 10
-10.2721795814
 20
1.0134207292
 11
-13.6373353558
 21
1.0134207292
  0
LINE
  5
2D5
100
AcDbEntity
  8
ASSI
100
AcDbLine
 62
7
  6
CONTINUOUS
 10
-10.2721795814
 20
1.0134207292
 11
-13.6373353558
 21
1.0134207292
  0
LINE
  5
2D6
100
AcDbEntity
  8
0
100
AcDbLine
 62
253
  6
CONTINUOUS
 10
-13.6547574686
 20
1.0317488865
 11
-10.2547574686
 21
1.0317488865
  0
LINE
  5
2D7
100
AcDbEntity
  8
RACCORDO
100
AcDbLine
 62
253
  6
CONTINUOUS
 10
-13.6547574686
 20
1.0317488865
 11
-10.2547574686
 21
1.0317488865
  0
LINE
  5
2D8
100
AcDbEntity
  8
0
100
AcDbLine
 62
7
  6
CONTINUOUS
 10
-13.6547574686
 20
1.0634207292
 11
-10.2547574686
 21
1.0634207292
  0
LINE
  5
2D9
100
AcDbEntity
  8
RACCORDO
100
AcDbLine
 62
7
  6
CONTINUOUS
 10
-13.6547574686
 20
1.0634207292
 11
-10.2547574686
 21
1.0634207292
  0
LINE
  5
2DA
100
AcDbEntity
  8
0
100
AcDbLine
 62
7
  6
CONTINUOUS
 10
-9.4547574686
 20
1.2634207292
 11
-14.4547574686
 21
1.2634207292
  0
LINE
  5
2DB
100
AcDbEntity
  8
0
100
AcDbLine
 62
7
  6
CONTINUOUS
 10
-14.4547574686
 20
1.7134207292
 11
-9.4547574686
 21
1.7134207292
  0
LINE
  5
2DC
100
AcDbEntity
  8
ASSI
100
AcDbLine
 62
7
  6
CONTINUOUS
 10
-14.4547574686
 20
1.7134207292
 11
-9.4547574686
 21
1.7134207292
  0
LINE
  5
2DD
100
AcDbEntity
  8
0
100
AcDbLine
 62
253
  6
CONTINUOUS
 10
-10.2547574686
 20
1.0317488865
 11
-10.2026630153
 21
1.0276723788
  0
LINE
  5
2DE
100
AcDbEntity
  8
RACCORDO
100
AcDbLine
 62
253
  6
CONTINUOUS
 10
-10.2547574686
 20
1.0317488865
 11
-10.2026630153
 21
1.0276723788
  0
LINE
  5
2DF
100
AcDbEntity
  8
0
100
AcDbLine
 62
253
  6
CONTINUOUS
 10
-10.2026630153
 20
1.0276723788
 11
-10.1521514256
 21
1.0155667185
  0
LINE
  5
2E0
100
AcDbEntity
  8
RACCORDO
100
AcDbLine
 62
253
  6
CONTINUOUS
 10
-10.2026630153
 20
1.0276723788
 11
-10.1521514256
 21
1.0155667185
  0
LINE
  5
2E1
100
AcDbEntity
  8
RACCORDO
100
AcDbLine
 62
253
  6
CONTINUOUS
 10
-12.7547574686
 20
-5.436617347
 11
-12.7722125335
 21
-5.4191622821
  0
LWPOLYLINE
  5
2E2
100
AcDbEntity
  8
ASSI
100
AcDbPolyline
 62
253
  6
CONTINUOUS
 90
10
 70
0
 10
-19.1679249255
 20
-5.9734422749
 10
-19.1679677594
 20
-5.9733551923
 10
-19.1680113232
 20
-5.973123092
 10
-19.1680556172
 20
-5.9727459741
 10
-19.168100916
 20
-5.9722292413
 10
-19.1681469449
 20
-5.9715674909
 10
-19.1681928792
 20
-5.970744514
 10
-19.1682387337
 20
-5.9697546522
 10
-19.1682844935
 20
-5.968603564
 10
-19.1683292894
 20
-5.9672920159
  0
LWPOLYLINE
  5
2E3
100
AcDbEntity
  8
0
100
AcDbPolyline
 62
253
  6
CONTINUOUS
 90
3
 70
0
 10
-10.1521514256
 20
1.0155667185
 10
-10.1047574686
 20
0.99579973
 10
-10.0619211857
 20
0.968972023
  0
LWPOLYLINE
  5
2E4
100
AcDbEntity
  8
RACCORDO
100
AcDbPolyline
 62
253
  6
CONTINUOUS
 90
3
 70
0
 10
-10.1521514256
 20
1.0155667185
 10
-10.1047574686
 20
0.99579973
 10
-10.0619211857
 20
0.968972023
  0
LWPOLYLINE
  5
2E5
100
AcDbEntity
  8
RACCORDO
100
AcDbPolyline
 62
253
  6
CONTINUOUS
 90
4
 70
0
 10
-22.6132934231
 20
30.1634207292
 10
-22.6117739394
 20
30.1687711753
 10
-22.6102789026
 20
30.1847607845
 10
-22.6088083127
 20
30.211257869
  0
LWPOLYLINE
  5
2E6
100
AcDbEntity
  8
ASSI
100
AcDbPolyline
 62
253
  6
CONTINUOUS
 90
4
 70
0
 10
-22.6132934231
 20
30.1634207292
 10
-22.6117739394
 20
30.1687711753
 10
-22.6102789026
 20
30.1847607845
 10
-22.6088083127
 20
30.211257869
  0
LINE
  5
2E7
100
AcDbEntity
  8
ASSI
100
AcDbLine
 62
7
  6
CONTINUOUS
 10
-19.2559808113
 20
40.538565447
 11
-19.2098708788
 21
40.6959656643
  0
LINE
  5
2E8
100
AcDbEntity
  8
RACCORDO
100
AcDbLine
 62
253
  6
CONTINUOUS
 10
-7.8521381569
 20
42.2160019647
 11
-7.7547193924
 21
42.3134207292
  0
LINE
  5
2E9
100
AcDbEntity
  8
RACCORDO
100
AcDbLine
 62
253
  6
CONTINUOUS
 10
-7.6021781649
 20
41.9660381091
 11
-7.5047574686
 21
42.0634588054
  0
LINE
  5
2EA
100
AcDbEntity
  8
RACCORDO
100
AcDbLine
 62
7
  6
CONTINUOUS
 10
-7.5047574686
 20
40.7134207292
 11
-7.6021762331
 21
40.6160019647
  0
LWPOLYLINE
  5
2EB
100
AcDbEntity
  8
0
100
AcDbPolyline
 62
253
  6
CONTINUOUS
 90
4
 70
0
 10
-10.0614352779
 20
35.6582349001
 10
-10.1044808119
 20
35.6311847691
 10
-10.152005532
 20
35.611322273
 10
-10.2026150033
 20
35.5991766552
  0
LWPOLYLINE
  5
2EC
100
AcDbEntity
  8
RACCORDO
100
AcDbPolyline
 62
253
  6
CONTINUOUS
 90
4
 70
0
 10
-10.0614352779
 20
35.6582349001
 10
-10.1044808119
 20
35.6311847691
 10
-10.152005532
 20
35.611322273
 10
-10.2026150033
 20
35.5991766552
  0
LINE
  5
2ED
100
AcDbEntity
  8
0
100
AcDbLine
 62
253
  6
CONTINUOUS
 10
-1.3904546881
 20
37.3991179487
 11
-1.5126401426
 21
37.3485070763
  0
LINE
  5
2EE
100
AcDbEntity
  8
RACCORDO
100
AcDbLine
 62
253
  6
CONTINUOUS
 10
-1.3904546881
 20
37.3991179487
 11
-1.5126401426
 21
37.3485070763
  0
LINE
  5
2EF
100
AcDbEntity
  8
0
100
AcDbLine
 62
253
  6
CONTINUOUS
 10
-1.5126401426
 20
-0.721665618
 11
-1.3904546881
 21
-0.7722764903
  0
LINE
  5
2F0
100
AcDbEntity
  8
RACCORDO
100
AcDbLine
 62
253
  6
CONTINUOUS
 10
-1.5126401426
 20
-0.721665618
 11
-1.3904546881
 21
-0.7722764903
  0
LINE
  5
2F1
100
AcDbEntity
  8
RACCORDO
100
AcDbLine
 62
253
  6
CONTINUOUS
 10
-7.7547193924
 20
-5.6865792708
 11
-7.8521381569
 21
-5.5891605063
  0
LINE
  5
2F2
100
AcDbEntity
  8
RACCORDO
100
AcDbLine
 62
253
  6
CONTINUOUS
 10
-7.5047574686
 20
-5.436617347
 11
-7.6021781649
 21
-5.3391966507
  0
LINE
  5
2F3
100
AcDbEntity
  8
RACCORDO
100
AcDbLine
 62
7
  6
CONTINUOUS
 10
-7.5047574686
 20
-4.0865792708
 11
-7.6021762331
 21
-3.9891605063
  0
LINE
  5
2F4
100
AcDbEntity
  8
ASSI
100
AcDbLine
 62
7
  6
CONTINUOUS
 10
-19.2559808113
 20
-3.9117239886
 11
-19.2098708788
 21
-4.0691242059
  0
LWPOLYLINE
  5
2F5
100
AcDbEntity
  8
ASSI
100
AcDbPolyline
 62
253
  6
CONTINUOUS
 90
13
 70
0
 10
-22.5415900117
 20
-5.9734422749
 10
-22.5398719627
 20
-5.9995384741
 10
-22.5347630963
 20
-6.0251883394
 10
-22.5263507903
 20
-6.049953165
 10
-22.5147789241
 20
-6.0734093813
 10
-22.5002454164
 20
-6.0951558016
 10
-22.4829988401
 20
-6.114820483
 10
-22.4633341713
 20
-6.1320670867
 10
-22.4415877467
 20
-6.1466006295
 10
-22.4181315106
 20
-6.1581725313
 10
-22.3933666504
 20
-6.1665848681
 10
-22.3677167352
 20
-6.1716937566
 10
-22.3416204727
 20
-6.1734118139
  0
LWPOLYLINE
  5
2F6
100
AcDbEntity
  8
ASSI
100
AcDbPolyline
 62
7
  6
CONTINUOUS
 90
16
 70
0
 10
-23.0547574686
 20
-3.5866554232
 10
-23.0520607568
 20
-3.6385320704
 10
-23.0439524003
 20
-3.6900630897
 10
-23.0304531038
 20
-3.7406772268
 10
-23.0115648872
 20
-3.7899828826
 10
-22.9874739895
 20
-3.8372114427
 10
-22.9587374877
 20
-3.8813191519
 10
-22.9260717549
 20
-3.9215490986
 10
-22.8896937645
 20
-3.9579293556
 10
-22.8494654654
 20
-3.9905964211
 10
-22.8053596032
 20
-4.0193331588
 10
-22.75813234
 20
-4.0434233852
 10
-22.7088232522
 20
-4.0623084094
 10
-22.6581993729
 20
-4.0758007423
 10
-22.6066536664
 20
-4.083898135
 10
-22.5547575332
 20
-4.0865792005
  0
LINE
  5
2F7
100
AcDbEntity
  8
ASSI
100
AcDbLine
 62
7
  6
CONTINUOUS
 10
-23.0547574686
 20
-0.6865792708
 11
-23.0809433902
 21
-0.1092290016
  0
LINE
  5
2F8
100
AcDbEntity
  8
ASSI
100
AcDbLine
 62
253
  6
CONTINUOUS
 10
-22.3411993277
 20
-5.3144104872
 11
-22.3564725095
 21
-4.8092290016
  0
LINE
  5
2F9
100
AcDbEntity
  8
ASSI
100
AcDbLine
 62
253
  6
CONTINUOUS
 10
-22.5411284606
 20
-5.4890579555
 11
-22.5547574686
 21
-5.038153879
  0
LINE
  5
2FA
100
AcDbEntity
  8
ASSI
100
AcDbLine
 62
253
  6
CONTINUOUS
 10
-22.5410545323
 20
-5.4921279066
 11
-22.5411284606
 21
-5.4890579555
  0
LINE
  5
2FB
100
AcDbEntity
  8
ASSI
100
AcDbLine
 62
7
  6
CONTINUOUS
 10
-22.9052581952
 20
19.5805582761
 11
-22.9038585553
 21
19.5094639809
  0
LINE
  5
2FC
100
AcDbEntity
  8
ASSI
100
AcDbLine
 62
7
  6
CONTINUOUS
 10
-22.9052581952
 20
24.5805582761
 11
-22.9038585553
 21
24.5094639809
  0
LINE
  5
2FD
100
AcDbEntity
  8
ASSI
100
AcDbLine
 62
7
  6
CONTINUOUS
 10
-22.9052581952
 20
29.5805582761
 11
-22.9038585553
 21
29.5094639809
  0
LINE
  5
2FE
100
AcDbEntity
  8
ASSI
100
AcDbLine
 62
7
  6
CONTINUOUS
 10
-22.9052581952
 20
34.5805582761
 11
-22.9038585553
 21
34.5094639809
  0
LINE
  5
2FF
100
AcDbEntity
  8
RACCORDO
100
AcDbLine
 62
7
  6
CONTINUOUS
 10
-22.9052586748
 20
19.5805588674
 11
-22.9036316031
 21
19.4965995109
  0
LINE
  5
300
100
AcDbEntity
  8
RACCORDO
100
AcDbLine
 62
7
  6
CONTINUOUS
 10
-22.9052586748
 20
24.5805588674
 11
-22.9036316031
 21
24.4965995109
  0
LINE
  5
301
100
AcDbEntity
  8
RACCORDO
100
AcDbLine
 62
7
  6
CONTINUOUS
 10
-22.9052586748
 20
29.5805588674
 11
-22.9036316031
 21
29.4965995109
  0
LINE
  5
302
100
AcDbEntity
  8
RACCORDO
100
AcDbLine
 62
7
  6
CONTINUOUS
 10
-22.9052586748
 20
34.5805588674
 11
-22.9036316031
 21
34.4965995109
  0
LINE
  5
303
100
AcDbEntity
  8
ASSI
100
AcDbLine
 62
253
  6
CONTINUOUS
 10
-22.5409608495
 20
-5.4971957735
 11
-22.5410545323
 21
-5.4921279066
  0
LINE
  5
304
100
AcDbEntity
  8
ASSI
100
AcDbLine
 62
7
  6
CONTINUOUS
 10
-22.9038585553
 20
19.5094639809
 11
-22.9022317476
 21
19.4081008041
  0
LINE
  5
305
100
AcDbEntity
  8
ASSI
100
AcDbLine
 62
7
  6
CONTINUOUS
 10
-22.9038585553
 20
24.5094639809
 11
-22.9022317476
 21
24.4081008041
  0
LINE
  5
306
100
AcDbEntity
  8
ASSI
100
AcDbLine
 62
7
  6
CONTINUOUS
 10
-22.9038585553
 20
29.5094639809
 11
-22.9022317476
 21
29.4081008041
  0
LINE
  5
307
100
AcDbEntity
  8
ASSI
100
AcDbLine
 62
7
  6
CONTINUOUS
 10
-22.9038585553
 20
34.5094639809
 11
-22.9022317476
 21
34.4081008041
  0
LWPOLYLINE
  5
308
100
AcDbEntity
  8
RACCORDO
100
AcDbPolyline
 62
253
  6
CONTINUOUS
 90
10
 70
0
 10
-22.6006764878
 20
19.0491714441
 10
-22.6019080236
 20
19.1333363057
 10
-22.6032018181
 20
19.2087305239
 10
-22.6045403411
 20
19.2749921056
 10
-22.6059245011
 20
19.331760994
 10
-22.6073533897
 20
19.3787046291
 10
-22.6088067517
 20
19.4155501219
 10
-22.6102778354
 20
19.4420656786
 10
-22.6117733925
 20
19.4580665101
 10
-22.6132934231
 20
19.4634207292
  0
LWPOLYLINE
  5
309
100
AcDbEntity
  8
ASSI
100
AcDbPolyline
 62
253
  6
CONTINUOUS
 90
10
 70
0
 10
-22.6006764878
 20
19.0491714441
 10
-22.6019080236
 20
19.1333363057
 10
-22.6032018181
 20
19.2087305239
 10
-22.6045403411
 20
19.2749921056
 10
-22.6059245011
 20
19.331760994
 10
-22.6073533897
 20
19.3787046291
 10
-22.6088067517
 20
19.4155501219
 10
-22.6102778354
 20
19.4420656786
 10
-22.6117733925
 20
19.4580665101
 10
-22.6132934231
 20
19.4634207292
  0
LWPOLYLINE
  5
30A
100
AcDbEntity
  8
RACCORDO
100
AcDbPolyline
 62
253
  6
CONTINUOUS
 90
10
 70
0
 10
-22.6006764878
 20
24.0491714441
 10
-22.6019080236
 20
24.1333363057
 10
-22.6032018181
 20
24.2087305239
 10
-22.6045403411
 20
24.2749921056
 10
-22.6059245011
 20
24.331760994
 10
-22.6073533897
 20
24.3787046291
 10
-22.6088067517
 20
24.4155501219
 10
-22.6102778354
 20
24.4420656786
 10
-22.6117733925
 20
24.4580665101
 10
-22.6132934231
 20
24.4634207292
  0
LWPOLYLINE
  5
30B
100
AcDbEntity
  8
ASSI
100
AcDbPolyline
 62
253
  6
CONTINUOUS
 90
10
 70
0
 10
-22.6006764878
 20
24.0491714441
 10
-22.6019080236
 20
24.1333363057
 10
-22.6032018181
 20
24.2087305239
 10
-22.6045403411
 20
24.2749921056
 10
-22.6059245011
 20
24.331760994
 10
-22.6073533897
 20
24.3787046291
 10
-22.6088067517
 20
24.4155501219
 10
-22.6102778354
 20
24.4420656786
 10
-22.6117733925
 20
24.4580665101
 10
-22.6132934231
 20
24.4634207292
  0
LINE
  5
30C
100
AcDbEntity
  8
RACCORDO
100
AcDbLine
 62
7
  6
CONTINUOUS
 10
-22.9036316031
 20
19.4965995109
 11
-22.9020628139
 21
19.3962933211
  0
LINE
  5
30D
100
AcDbEntity
  8
RACCORDO
100
AcDbLine
 62
7
  6
CONTINUOUS
 10
-22.9036316031
 20
24.4965995109
 11
-22.9020628139
 21
24.3962933211
  0
LINE
  5
30E
100
AcDbEntity
  8
RACCORDO
100
AcDbLine
 62
7
  6
CONTINUOUS
 10
-22.9036316031
 20
29.4965995109
 11
-22.9020628139
 21
29.3962933211
  0
LINE
  5
30F
100
AcDbEntity
  8
RACCORDO
100
AcDbLine
 62
7
  6
CONTINUOUS
 10
-22.9036316031
 20
34.4965995109
 11
-22.9020628139
 21
34.3962933211
  0
LINE
  5
310
100
AcDbEntity
  8
ASSI
100
AcDbLine
 62
7
  6
CONTINUOUS
 10
-22.9022317476
 20
19.4081008041
 11
-22.9006270345
 21
19.2854485799
  0
LINE
  5
311
100
AcDbEntity
  8
ASSI
100
AcDbLine
 62
7
  6
CONTINUOUS
 10
-22.9022317476
 20
24.4081008041
 11
-22.9006270345
 21
24.2854485799
  0
LINE
  5
312
100
AcDbEntity
  8
ASSI
100
AcDbLine
 62
7
  6
CONTINUOUS
 10
-22.9022317476
 20
29.4081008041
 11
-22.9006270345
 21
29.2854485799
  0
LINE
  5
313
100
AcDbEntity
  8
ASSI
100
AcDbLine
 62
7
  6
CONTINUOUS
 10
-22.9022317476
 20
34.4081008041
 11
-22.9006270345
 21
34.2854485799
  0
LINE
  5
314
100
AcDbEntity
  8
RACCORDO
100
AcDbLine
 62
7
  6
CONTINUOUS
 10
-22.9020628139
 20
19.3962933211
 11
-22.9003006538
 21
19.2575193451
  0
LINE
  5
315
100
AcDbEntity
  8
RACCORDO
100
AcDbLine
 62
7
  6
CONTINUOUS
 10
-22.9020628139
 20
24.3962933211
 11
-22.9003006538
 21
24.2575193451
  0
LINE
  5
316
100
AcDbEntity
  8
ASSI
100
AcDbLine
 62
253
  6
CONTINUOUS
 10
-22.5408651376
 20
-5.5044131415
 11
-22.5409608495
 21
-5.4971957735
  0
LINE
  5
317
100
AcDbEntity
  8
RACCORDO
100
AcDbLine
 62
7
  6
CONTINUOUS
 10
-22.9020628139
 20
29.3962933211
 11
-22.9003006538
 21
29.2575193451
  0
LINE
  5
318
100
AcDbEntity
  8
RACCORDO
100
AcDbLine
 62
7
  6
CONTINUOUS
 10
-22.9020628139
 20
34.3962933211
 11
-22.9003006538
 21
34.2575193451
  0
LINE
  5
319
100
AcDbEntity
  8
RACCORDO
100
AcDbLine
 62
253
  6
CONTINUOUS
 10
-22.598401988
 20
18.8563161597
 11
-22.6006764878
 21
19.0491714441
  0
LINE
  5
31A
100
AcDbEntity
  8
ASSI
100
AcDbLine
 62
253
  6
CONTINUOUS
 10
-22.598401988
 20
18.8563161597
 11
-22.6006764878
 21
19.0491714441
  0
LINE
  5
31B
100
AcDbEntity
  8
RACCORDO
100
AcDbLine
 62
253
  6
CONTINUOUS
 10
-22.598401988
 20
23.8563161597
 11
-22.6006764878
 21
24.0491714441
  0
LINE
  5
31C
100
AcDbEntity
  8
ASSI
100
AcDbLine
 62
253
  6
CONTINUOUS
 10
-22.598401988
 20
23.8563161597
 11
-22.6006764878
 21
24.0491714441
  0
LINE
  5
31D
100
AcDbEntity
  8
ASSI
100
AcDbLine
 62
7
  6
CONTINUOUS
 10
-22.9006270345
 20
19.2854485799
 11
-22.8990708559
 21
19.1415586271
  0
LINE
  5
31E
100
AcDbEntity
  8
ASSI
100
AcDbLine
 62
7
  6
CONTINUOUS
 10
-22.9006270345
 20
24.2854485799
 11
-22.8990708559
 21
24.1415586271
  0
LINE
  5
31F
100
AcDbEntity
  8
ASSI
100
AcDbLine
 62
7
  6
CONTINUOUS
 10
-22.9006270345
 20
29.2854485799
 11
-22.8990708559
 21
29.1415586271
  0
LINE
  5
320
100
AcDbEntity
  8
ASSI
100
AcDbLine
 62
7
  6
CONTINUOUS
 10
-22.9006270345
 20
34.2854485799
 11
-22.8990708559
 21
34.1415586271
  0
LINE
  5
321
100
AcDbEntity
  8
RACCORDO
100
AcDbLine
 62
253
  6
CONTINUOUS
 10
-22.5973729627
 20
28.7485341212
 11
-22.5995081085
 21
28.9566745676
  0
LINE
  5
322
100
AcDbEntity
  8
ASSI
100
AcDbLine
 62
253
  6
CONTINUOUS
 10
-22.5973729627
 20
28.7485341212
 11
-22.5995081085
 21
28.9566745676
  0
LINE
  5
323
100
AcDbEntity
  8
RACCORDO
100
AcDbLine
 62
7
  6
CONTINUOUS
 10
-22.9003006538
 20
19.2575193451
 11
-22.8986096036
 21
19.0931062782
  0
LINE
  5
324
100
AcDbEntity
  8
RACCORDO
100
AcDbLine
 62
7
  6
CONTINUOUS
 10
-22.9003006538
 20
24.2575193451
 11
-22.8986096036
 21
24.0931062782
  0
LINE
  5
325
100
AcDbEntity
  8
RACCORDO
100
AcDbLine
 62
7
  6
CONTINUOUS
 10
-22.9003006538
 20
29.2575193451
 11
-22.8986096036
 21
29.0931062782
  0
LINE
  5
326
100
AcDbEntity
  8
RACCORDO
100
AcDbLine
 62
7
  6
CONTINUOUS
 10
-22.9003006538
 20
34.2575193451
 11
-22.8986096036
 21
34.0931062782
  0
LINE
  5
327
100
AcDbEntity
  8
RACCORDO
100
AcDbLine
 62
253
  6
CONTINUOUS
 10
-22.5964219898
 20
18.633860083
 11
-22.598401988
 21
18.8563161597
  0
LINE
  5
328
100
AcDbEntity
  8
ASSI
100
AcDbLine
 62
253
  6
CONTINUOUS
 10
-22.5964219898
 20
18.633860083
 11
-22.598401988
 21
18.8563161597
  0
LINE
  5
329
100
AcDbEntity
  8
RACCORDO
100
AcDbLine
 62
253
  6
CONTINUOUS
 10
-22.5964219898
 20
23.633860083
 11
-22.598401988
 21
23.8563161597
  0
LINE
  5
32A
100
AcDbEntity
  8
ASSI
100
AcDbLine
 62
253
  6
CONTINUOUS
 10
-22.5964219898
 20
23.633860083
 11
-22.598401988
 21
23.8563161597
  0
LINE
  5
32B
100
AcDbEntity
  8
ASSI
100
AcDbLine
 62
7
  6
CONTINUOUS
 10
-22.8990708559
 20
19.1415586271
 11
-22.8974013801
 21
18.9512463663
  0
LINE
  5
32C
100
AcDbEntity
  8
ASSI
100
AcDbLine
 62
7
  6
CONTINUOUS
 10
-22.8990708559
 20
24.1415586271
 11
-22.8974013801
 21
23.9512463663
  0
LINE
  5
32D
100
AcDbEntity
  8
ASSI
100
AcDbLine
 62
7
  6
CONTINUOUS
 10
-22.8990708559
 20
29.1415586271
 11
-22.8974013801
 21
28.9512463663
  0
LINE
  5
32E
100
AcDbEntity
  8
ASSI
100
AcDbLine
 62
7
  6
CONTINUOUS
 10
-22.8990708559
 20
34.1415586271
 11
-22.8974013801
 21
33.9512463663
  0
LINE
  5
32F
100
AcDbEntity
  8
RACCORDO
100
AcDbLine
 62
7
  6
CONTINUOUS
 10
-22.8986096036
 20
19.0931062782
 11
-22.8970322718
 21
18.903184656
  0
LINE
  5
330
100
AcDbEntity
  8
RACCORDO
100
AcDbLine
 62
7
  6
CONTINUOUS
 10
-22.8986096036
 20
24.0931062782
 11
-22.8970322718
 21
23.903184656
  0
LINE
  5
331
100
AcDbEntity
  8
RACCORDO
100
AcDbLine
 62
7
  6
CONTINUOUS
 10
-22.8986096036
 20
29.0931062782
 11
-22.8970322718
 21
28.903184656
  0
LINE
  5
332
100
AcDbEntity
  8
RACCORDO
100
AcDbLine
 62
7
  6
CONTINUOUS
 10
-22.8986096036
 20
34.0931062782
 11
-22.8970322718
 21
33.903184656
  0
LINE
  5
333
100
AcDbEntity
  8
RACCORDO
100
AcDbLine
 62
253
  6
CONTINUOUS
 10
-22.5955481123
 20
28.5128534548
 11
-22.5973729627
 21
28.7485341212
  0
LINE
  5
334
100
AcDbEntity
  8
ASSI
100
AcDbLine
 62
253
  6
CONTINUOUS
 10
-22.5955481123
 20
28.5128534548
 11
-22.5973729627
 21
28.7485341212
  0
LINE
  5
335
100
AcDbEntity
  8
ASSI
100
AcDbLine
 62
7
  6
CONTINUOUS
 10
-22.8974013801
 20
18.9512463663
 11
-22.8958765786
 21
18.7340429784
  0
LINE
  5
336
100
AcDbEntity
  8
ASSI
100
AcDbLine
 62
7
  6
CONTINUOUS
 10
-22.8974013801
 20
23.9512463663
 11
-22.8958765786
 21
23.7340429784
  0
LINE
  5
337
100
AcDbEntity
  8
ASSI
100
AcDbLine
 62
7
  6
CONTINUOUS
 10
-22.8974013801
 20
28.9512463663
 11
-22.8958765786
 21
28.7340429784
  0
LINE
  5
338
100
AcDbEntity
  8
ASSI
100
AcDbLine
 62
7
  6
CONTINUOUS
 10
-22.8974013801
 20
33.9512463663
 11
-22.8958765786
 21
33.7340429784
  0
LINE
  5
339
100
AcDbEntity
  8
RACCORDO
100
AcDbLine
 62
253
  6
CONTINUOUS
 10
-22.5947632956
 20
18.386014589
 11
-22.5964219898
 21
18.633860083
  0
LINE
  5
33A
100
AcDbEntity
  8
ASSI
100
AcDbLine
 62
253
  6
CONTINUOUS
 10
-22.5947632956
 20
18.386014589
 11
-22.5964219898
 21
18.633860083
  0
LINE
  5
33B
100
AcDbEntity
  8
RACCORDO
100
AcDbLine
 62
253
  6
CONTINUOUS
 10
-22.5947632956
 20
23.386014589
 11
-22.5964219898
 21
23.633860083
  0
LINE
  5
33C
100
AcDbEntity
  8
ASSI
100
AcDbLine
 62
253
  6
CONTINUOUS
 10
-22.5947632956
 20
23.386014589
 11
-22.5964219898
 21
23.633860083
  0
LINE
  5
33D
100
AcDbEntity
  8
RACCORDO
100
AcDbLine
 62
253
  6
CONTINUOUS
 10
-22.5947632956
 20
33.386014589
 11
-22.5964219898
 21
33.633860083
  0
LINE
  5
33E
100
AcDbEntity
  8
ASSI
100
AcDbLine
 62
253
  6
CONTINUOUS
 10
-22.5947632956
 20
33.386014589
 11
-22.5964219898
 21
33.633860083
  0
LINE
  5
33F
100
AcDbEntity
  8
RACCORDO
100
AcDbLine
 62
7
  6
CONTINUOUS
 10
-22.8970322718
 20
18.903184656
 11
-22.8956003712
 21
18.6884662206
  0
LINE
  5
340
100
AcDbEntity
  8
RACCORDO
100
AcDbLine
 62
7
  6
CONTINUOUS
 10
-22.8970322718
 20
23.903184656
 11
-22.8956003712
 21
23.6884662206
  0
LINE
  5
341
100
AcDbEntity
  8
RACCORDO
100
AcDbLine
 62
7
  6
CONTINUOUS
 10
-22.8970322718
 20
28.903184656
 11
-22.8956003712
 21
28.6884662206
  0
LINE
  5
342
100
AcDbEntity
  8
RACCORDO
100
AcDbLine
 62
7
  6
CONTINUOUS
 10
-22.8970322718
 20
33.903184656
 11
-22.8956003712
 21
33.6884662206
  0
LINE
  5
343
100
AcDbEntity
  8
ASSI
100
AcDbLine
 62
253
  6
CONTINUOUS
 10
-22.5407747129
 20
-5.5155449279
 11
-22.5408651376
 21
-5.5044131415
  0
LINE
  5
344
100
AcDbEntity
  8
RACCORDO
100
AcDbLine
 62
253
  6
CONTINUOUS
 10
-22.5940685385
 20
28.2539261707
 11
-22.5955481123
 21
28.5128534548
  0
LINE
  5
345
100
AcDbEntity
  8
ASSI
100
AcDbLine
 62
253
  6
CONTINUOUS
 10
-22.5940685385
 20
28.2539261707
 11
-22.5955481123
 21
28.5128534548
  0
LINE
  5
346
100
AcDbEntity
  8
ASSI
100
AcDbLine
 62
7
  6
CONTINUOUS
 10
-22.8958765786
 20
18.7340429784
 11
-22.8945495273
 21
18.4915082878
  0
LINE
  5
347
100
AcDbEntity
  8
ASSI
100
AcDbLine
 62
7
  6
CONTINUOUS
 10
-22.8958765786
 20
23.7340429784
 11
-22.8945495273
 21
23.4915082878
  0
LINE
  5
348
100
AcDbEntity
  8
ASSI
100
AcDbLine
 62
7
  6
CONTINUOUS
 10
-22.8958765786
 20
28.7340429784
 11
-22.8945495273
 21
28.4915082878
  0
LINE
  5
349
100
AcDbEntity
  8
ASSI
100
AcDbLine
 62
7
  6
CONTINUOUS
 10
-22.8958765786
 20
33.7340429784
 11
-22.8945495273
 21
33.4915082878
  0
LINE
  5
34A
100
AcDbEntity
  8
RACCORDO
100
AcDbLine
 62
7
  6
CONTINUOUS
 10
-22.8956003712
 20
23.6884662206
 11
-22.8942141635
 21
23.4190001352
  0
LINE
  5
34B
100
AcDbEntity
  8
RACCORDO
100
AcDbLine
 62
7
  6
CONTINUOUS
 10
-22.8956003712
 20
28.6884662206
 11
-22.8942141635
 21
28.4190001352
  0
LINE
  5
34C
100
AcDbEntity
  8
RACCORDO
100
AcDbLine
 62
7
  6
CONTINUOUS
 10
-22.8956003712
 20
33.6884662206
 11
-22.8942141635
 21
33.4190001352
  0
LINE
  5
34D
100
AcDbEntity
  8
RACCORDO
100
AcDbLine
 62
253
  6
CONTINUOUS
 10
-22.5934628422
 20
18.1172450018
 11
-22.5947632956
 21
18.386014589
  0
LINE
  5
34E
100
AcDbEntity
  8
ASSI
100
AcDbLine
 62
253
  6
CONTINUOUS
 10
-22.5934628422
 20
18.1172450018
 11
-22.5947632956
 21
18.386014589
  0
LINE
  5
34F
100
AcDbEntity
  8
RACCORDO
100
AcDbLine
 62
253
  6
CONTINUOUS
 10
-22.5934628422
 20
23.1172450018
 11
-22.5947632956
 21
23.386014589
  0
LINE
  5
350
100
AcDbEntity
  8
ASSI
100
AcDbLine
 62
253
  6
CONTINUOUS
 10
-22.5934628422
 20
23.1172450018
 11
-22.5947632956
 21
23.386014589
  0
LINE
  5
351
100
AcDbEntity
  8
RACCORDO
100
AcDbLine
 62
253
  6
CONTINUOUS
 10
-22.5934628422
 20
33.1172450018
 11
-22.5947632956
 21
33.386014589
  0
LINE
  5
352
100
AcDbEntity
  8
ASSI
100
AcDbLine
 62
253
  6
CONTINUOUS
 10
-22.5934628422
 20
33.1172450018
 11
-22.5947632956
 21
33.386014589
  0
LINE
  5
353
100
AcDbEntity
  8
ASSI
100
AcDbLine
 62
7
  6
CONTINUOUS
 10
-22.8945495273
 20
18.4915082878
 11
-22.8934506341
 21
18.2259964643
  0
LINE
  5
354
100
AcDbEntity
  8
ASSI
100
AcDbLine
 62
7
  6
CONTINUOUS
 10
-22.8945495273
 20
23.4915082878
 11
-22.8934506341
 21
23.2259964643
  0
LINE
  5
355
100
AcDbEntity
  8
ASSI
100
AcDbLine
 62
7
  6
CONTINUOUS
 10
-22.8945495273
 20
28.4915082878
 11
-22.8934506341
 21
28.2259964643
  0
LINE
  5
356
100
AcDbEntity
  8
ASSI
100
AcDbLine
 62
7
  6
CONTINUOUS
 10
-22.8945495273
 20
33.4915082878
 11
-22.8934506341
 21
33.2259964643
  0
LINE
  5
357
100
AcDbEntity
  8
RACCORDO
100
AcDbLine
 62
253
  6
CONTINUOUS
 10
-22.592955176
 20
27.9766072273
 11
-22.5940685385
 21
28.2539261707
  0
LINE
  5
358
100
AcDbEntity
  8
ASSI
100
AcDbLine
 62
253
  6
CONTINUOUS
 10
-22.592955176
 20
27.9766072273
 11
-22.5940685385
 21
28.2539261707
  0
LINE
  5
359
100
AcDbEntity
  8
RACCORDO
100
AcDbLine
 62
7
  6
CONTINUOUS
 10
-22.8956003712
 20
18.6884662206
 11
-22.8932205182
 21
18.1570171669
  0
LINE
  5
35A
100
AcDbEntity
  8
RACCORDO
100
AcDbLine
 62
7
  6
CONTINUOUS
 10
-22.8942141635
 20
23.4190001352
 11
-22.8932205182
 21
23.1570171669
  0
LINE
  5
35B
100
AcDbEntity
  8
RACCORDO
100
AcDbLine
 62
7
  6
CONTINUOUS
 10
-22.8942141635
 20
28.4190001352
 11
-22.8932205182
 21
28.1570171669
  0
LINE
  5
35C
100
AcDbEntity
  8
RACCORDO
100
AcDbLine
 62
7
  6
CONTINUOUS
 10
-22.8942141635
 20
33.4190001352
 11
-22.8932205182
 21
33.1570171669
  0
LINE
  5
35D
100
AcDbEntity
  8
RACCORDO
100
AcDbLine
 62
253
  6
CONTINUOUS
 10
-22.5925468997
 20
17.8326779948
 11
-22.5934628422
 21
18.1172450018
  0
LINE
  5
35E
100
AcDbEntity
  8
ASSI
100
AcDbLine
 62
253
  6
CONTINUOUS
 10
-22.5925468997
 20
17.8326779948
 11
-22.5934628422
 21
18.1172450018
  0
LINE
  5
35F
100
AcDbEntity
  8
RACCORDO
100
AcDbLine
 62
253
  6
CONTINUOUS
 10
-22.5925468997
 20
22.8326779948
 11
-22.5934628422
 21
23.1172450018
  0
LINE
  5
360
100
AcDbEntity
  8
ASSI
100
AcDbLine
 62
253
  6
CONTINUOUS
 10
-22.5925468997
 20
22.8326779948
 11
-22.5934628422
 21
23.1172450018
  0
LINE
  5
361
100
AcDbEntity
  8
RACCORDO
100
AcDbLine
 62
253
  6
CONTINUOUS
 10
-22.5925468997
 20
32.8326779948
 11
-22.5934628422
 21
33.1172450018
  0
LINE
  5
362
100
AcDbEntity
  8
ASSI
100
AcDbLine
 62
253
  6
CONTINUOUS
 10
-22.5925468997
 20
32.8326779948
 11
-22.5934628422
 21
33.1172450018
  0
LINE
  5
363
100
AcDbEntity
  8
ASSI
100
AcDbLine
 62
7
  6
CONTINUOUS
 10
-22.8934506341
 20
18.2259964643
 11
-22.8926243636
 21
17.9407902196
  0
LINE
  5
364
100
AcDbEntity
  8
ASSI
100
AcDbLine
 62
7
  6
CONTINUOUS
 10
-22.8934506341
 20
23.2259964643
 11
-22.8925412194
 21
22.903991177
  0
LINE
  5
365
100
AcDbEntity
  8
ASSI
100
AcDbLine
 62
7
  6
CONTINUOUS
 10
-22.8934506341
 20
28.2259964643
 11
-22.8925412194
 21
27.903991177
  0
LINE
  5
366
100
AcDbEntity
  8
ASSI
100
AcDbLine
 62
7
  6
CONTINUOUS
 10
-22.8934506341
 20
33.2259964643
 11
-22.8925412194
 21
32.903991177
  0
LINE
  5
367
100
AcDbEntity
  8
RACCORDO
100
AcDbLine
 62
7
  6
CONTINUOUS
 10
-22.8932205182
 20
18.1570171669
 11
-22.8924838319
 21
17.8770605046
  0
LINE
  5
368
100
AcDbEntity
  8
RACCORDO
100
AcDbLine
 62
7
  6
CONTINUOUS
 10
-22.8932205182
 20
23.1570171669
 11
-22.8924838319
 21
22.8770605046
  0
LINE
  5
369
100
AcDbEntity
  8
RACCORDO
100
AcDbLine
 62
7
  6
CONTINUOUS
 10
-22.8932205182
 20
28.1570171669
 11
-22.8924838319
 21
27.8770605046
  0
LINE
  5
36A
100
AcDbEntity
  8
RACCORDO
100
AcDbLine
 62
7
  6
CONTINUOUS
 10
-22.8932205182
 20
33.1570171669
 11
-22.8924838319
 21
32.8770605046
  0
LINE
  5
36B
100
AcDbEntity
  8
RACCORDO
100
AcDbLine
 62
253
  6
CONTINUOUS
 10
-22.5922366536
 20
27.6861615923
 11
-22.592955176
 21
27.9766072273
  0
LINE
  5
36C
100
AcDbEntity
  8
ASSI
100
AcDbLine
 62
253
  6
CONTINUOUS
 10
-22.5922366536
 20
27.6861615923
 11
-22.592955176
 21
27.9766072273
  0
LINE
  5
36D
100
AcDbEntity
  8
RACCORDO
100
AcDbLine
 62
253
  6
CONTINUOUS
 10
-22.5920293275
 20
17.5377776863
 11
-22.5925468997
 21
17.8326779948
  0
LINE
  5
36E
100
AcDbEntity
  8
ASSI
100
AcDbLine
 62
253
  6
CONTINUOUS
 10
-22.5920293275
 20
17.5377776863
 11
-22.5925468997
 21
17.8326779948
  0
LINE
  5
36F
100
AcDbEntity
  8
RACCORDO
100
AcDbLine
 62
253
  6
CONTINUOUS
 10
-22.5920293275
 20
22.5377776863
 11
-22.5925468997
 21
22.8326779948
  0
LINE
  5
370
100
AcDbEntity
  8
ASSI
100
AcDbLine
 62
253
  6
CONTINUOUS
 10
-22.5920293275
 20
22.5377776863
 11
-22.5925468997
 21
22.8326779948
  0
LINE
  5
371
100
AcDbEntity
  8
RACCORDO
100
AcDbLine
 62
253
  6
CONTINUOUS
 10
-22.5920293275
 20
32.5377776863
 11
-22.5925468997
 21
32.8326779948
  0
LINE
  5
372
100
AcDbEntity
  8
ASSI
100
AcDbLine
 62
253
  6
CONTINUOUS
 10
-22.5920293275
 20
32.5377776863
 11
-22.5925468997
 21
32.8326779948
  0
LINE
  5
373
100
AcDbEntity
  8
ASSI
100
AcDbLine
 62
7
  6
CONTINUOUS
 10
-22.8926243636
 20
17.9407902196
 11
-22.8921042233
 21
17.641316333
  0
LINE
  5
374
100
AcDbEntity
  8
RACCORDO
100
AcDbLine
 62
7
  6
CONTINUOUS
 10
-22.8924838319
 20
17.8770605046
 11
-22.8920440764
 21
17.5846866631
  0
LINE
  5
375
100
AcDbEntity
  8
ASSI
100
AcDbLine
 62
7
  6
CONTINUOUS
 10
-22.8925412194
 20
22.903991177
 11
-22.8920625615
 21
22.6032439415
  0
LINE
  5
376
100
AcDbEntity
  8
ASSI
100
AcDbLine
 62
7
  6
CONTINUOUS
 10
-22.8925412194
 20
27.903991177
 11
-22.8920625615
 21
27.6032439415
  0
LINE
  5
377
100
AcDbEntity
  8
ASSI
100
AcDbLine
 62
7
  6
CONTINUOUS
 10
-22.8925412194
 20
32.903991177
 11
-22.8920625615
 21
32.6032439415
  0
LINE
  5
378
100
AcDbEntity
  8
ASSI
100
AcDbLine
 62
253
  6
CONTINUOUS
 10
-22.5407333296
 20
-5.5288746048
 11
-22.5407747129
 21
-5.5155449279
  0
LINE
  5
379
100
AcDbEntity
  8
RACCORDO
100
AcDbLine
 62
7
  6
CONTINUOUS
 10
-22.8924838319
 20
22.8770605046
 11
-22.8920105888
 21
22.5476147111
  0
LINE
  5
37A
100
AcDbEntity
  8
RACCORDO
100
AcDbLine
 62
7
  6
CONTINUOUS
 10
-22.8924838319
 20
27.8770605046
 11
-22.8920105888
 21
27.5476147111
  0
LINE
  5
37B
100
AcDbEntity
  8
RACCORDO
100
AcDbLine
 62
7
  6
CONTINUOUS
 10
-22.8924838319
 20
32.8770605046
 11
-22.8920105888
 21
32.5476147111
  0
LINE
  5
37C
100
AcDbEntity
  8
RACCORDO
100
AcDbLine
 62
253
  6
CONTINUOUS
 10
-22.5919265479
 20
27.3882114531
 11
-22.5922366536
 21
27.6861615923
  0
LINE
  5
37D
100
AcDbEntity
  8
ASSI
100
AcDbLine
 62
253
  6
CONTINUOUS
 10
-22.5919265479
 20
27.3882114531
 11
-22.5922366536
 21
27.6861615923
  0
LINE
  5
37E
100
AcDbEntity
  8
ASSI
100
AcDbLine
 62
7
  6
CONTINUOUS
 10
-22.8921042233
 20
17.641316333
 11
-22.8919103203
 21
17.3351533876
  0
LINE
  5
37F
100
AcDbEntity
  8
0
100
AcDbLine
 62
7
  6
CONTINUOUS
 10
-23.1047574686
 20
35.9851197779
 11
-23.1047574686
 21
0.6417216805
  0
LINE
  5
380
100
AcDbEntity
  8
RACCORDO
100
AcDbLine
 62
7
  6
CONTINUOUS
 10
-23.1047574686
 20
35.9851197779
 11
-23.1047574686
 21
0.6417216805
  0
LINE
  5
381
100
AcDbEntity
  8
DRAFT
100
AcDbLine
 62
7
  6
CONTINUOUS
 10
-23.0809433902
 20
-0.1092290016
 11
-23.0809433902
 21
0.345818963
  0
LINE
  5
382
100
AcDbEntity
  8
DRAFT
100
AcDbLine
 62
7
  6
CONTINUOUS
 10
-23.0809433902
 20
36.2810224954
 11
-23.0809433902
 21
36.73607046
  0
LINE
  5
383
100
AcDbEntity
  8
ASSI
100
AcDbLine
 62
7
  6
CONTINUOUS
 10
-23.0547574686
 20
40.2134204941
 11
-23.0547574686
 21
37.3134207292
  0
LINE
  5
384
100
AcDbEntity
  8
ASSI
100
AcDbLine
 62
7
  6
CONTINUOUS
 10
-23.0547574686
 20
-3.5865790357
 11
-23.0547574686
 21
-0.6865792708
  0
LINE
  5
385
100
AcDbEntity
  8
ASSI
100
AcDbLine
 62
7
  6
CONTINUOUS
 10
-23.0373024037
 20
-3.5692003583
 11
-23.0373024037
 21
-0.1092290016
  0
LINE
  5
386
100
AcDbEntity
  8
ASSI
100
AcDbLine
 62
7
  6
CONTINUOUS
 10
-23.0373024037
 20
36.73607046
 11
-23.0373024037
 21
40.1960418167
  0
LINE
  5
387
100
AcDbEntity
  8
0
100
AcDbLine
 62
7
  6
CONTINUOUS
 10
-22.9825720141
 20
35.9345089055
 11
-22.9825720141
 21
0.6923325528
  0
LINE
  5
388
100
AcDbEntity
  8
RACCORDO
100
AcDbLine
 62
7
  6
CONTINUOUS
 10
-22.9825720141
 20
35.9345089055
 11
-22.9825720141
 21
0.6923325528
  0
LINE
  5
389
100
AcDbEntity
  8
RACCORDO
100
AcDbLine
 62
7
  6
CONTINUOUS
 10
-22.9678477703
 20
34.9046451193
 11
-22.9678477703
 21
34.7634207292
  0
LINE
  5
38A
100
AcDbEntity
  8
ASSI
100
AcDbLine
 62
7
  6
CONTINUOUS
 10
-22.9678477703
 20
34.9046451193
 11
-22.9678477703
 21
34.7634207292
  0
LINE
  5
38B
100
AcDbEntity
  8
RACCORDO
100
AcDbLine
 62
7
  6
CONTINUOUS
 10
-22.9678477703
 20
29.8634207292
 11
-22.9678477703
 21
29.7634207292
  0
LINE
  5
38C
100
AcDbEntity
  8
ASSI
100
AcDbLine
 62
7
  6
CONTINUOUS
 10
-22.9678477703
 20
29.8634207292
 11
-22.9678477703
 21
29.7634207292
  0
LINE
  5
38D
100
AcDbEntity
  8
RACCORDO
100
AcDbLine
 62
7
  6
CONTINUOUS
 10
-22.9678477703
 20
24.8634207292
 11
-22.9678477703
 21
24.7634207292
  0
LINE
  5
38E
100
AcDbEntity
  8
ASSI
100
AcDbLine
 62
7
  6
CONTINUOUS
 10
-22.9678477703
 20
24.8634207292
 11
-22.9678477703
 21
24.7634207292
  0
LINE
  5
38F
100
AcDbEntity
  8
RACCORDO
100
AcDbLine
 62
7
  6
CONTINUOUS
 10
-22.9678477703
 20
19.8634207292
 11
-22.9678477703
 21
19.7634207292
  0
LINE
  5
390
100
AcDbEntity
  8
ASSI
100
AcDbLine
 62
7
  6
CONTINUOUS
 10
-22.9678477703
 20
19.8634207292
 11
-22.9678477703
 21
19.7634207292
  0
LINE
  5
391
100
AcDbEntity
  8
RACCORDO
100
AcDbLine
 62
7
  6
CONTINUOUS
 10
-22.9678477703
 20
14.8634207292
 11
-22.9678477703
 21
1.7221963391
  0
LINE
  5
392
100
AcDbEntity
  8
ASSI
100
AcDbLine
 62
7
  6
CONTINUOUS
 10
-22.9678477703
 20
14.8634207292
 11
-22.9678477703
 21
1.7221963391
  0
LINE
  5
393
100
AcDbEntity
  8
ASSI
100
AcDbLine
 62
7
  6
CONTINUOUS
 10
-22.9547574686
 20
34.6766486242
 11
-22.9547574686
 21
29.9501928342
  0
LINE
  5
394
100
AcDbEntity
  8
ASSI
100
AcDbLine
 62
7
  6
CONTINUOUS
 10
-22.9547574686
 20
29.6766486242
 11
-22.9547574686
 21
24.9501928342
  0
LINE
  5
395
100
AcDbEntity
  8
ASSI
100
AcDbLine
 62
7
  6
CONTINUOUS
 10
-22.9547574686
 20
24.6766486242
 11
-22.9547574686
 21
19.9501928342
  0
LINE
  5
396
100
AcDbEntity
  8
ASSI
100
AcDbLine
 62
7
  6
CONTINUOUS
 10
-22.9547574686
 20
19.6766486242
 11
-22.9547574686
 21
14.9501928342
  0
LINE
  5
397
100
AcDbEntity
  8
RACCORDO
100
AcDbLine
 62
7
  6
CONTINUOUS
 10
-22.8920440764
 20
17.5846866631
 11
-22.8919105722
 21
17.2870842963
  0
LINE
  5
398
100
AcDbEntity
  8
ASSI
100
AcDbLine
 62
7
  6
CONTINUOUS
 10
-22.8920625615
 20
22.6032439415
 11
-22.891909821
 21
22.2968170481
  0
LINE
  5
399
100
AcDbEntity
  8
ASSI
100
AcDbLine
 62
7
  6
CONTINUOUS
 10
-22.8920625615
 20
27.6032439415
 11
-22.891909821
 21
27.2968170481
  0
LINE
  5
39A
100
AcDbEntity
  8
ASSI
100
AcDbLine
 62
7
  6
CONTINUOUS
 10
-22.8920625615
 20
32.6032439415
 11
-22.891909821
 21
32.2968170481
  0
LINE
  5
39B
100
AcDbEntity
  8
RACCORDO
100
AcDbLine
 62
253
  6
CONTINUOUS
 10
-22.5919266884
 20
32.2382226869
 11
-22.5920293275
 21
32.5377776863
  0
LINE
  5
39C
100
AcDbEntity
  8
ASSI
100
AcDbLine
 62
253
  6
CONTINUOUS
 10
-22.5919266884
 20
32.2382226869
 11
-22.5920293275
 21
32.5377776863
  0
LINE
  5
39D
100
AcDbEntity
  8
RACCORDO
100
AcDbLine
 62
253
  6
CONTINUOUS
 10
-22.5919266884
 20
22.2382226869
 11
-22.5920293275
 21
22.5377776863
  0
LINE
  5
39E
100
AcDbEntity
  8
ASSI
100
AcDbLine
 62
253
  6
CONTINUOUS
 10
-22.5919266884
 20
22.2382226869
 11
-22.5920293275
 21
22.5377776863
  0
LINE
  5
39F
100
AcDbEntity
  8
RACCORDO
100
AcDbLine
 62
253
  6
CONTINUOUS
 10
-22.5919266884
 20
17.2382226869
 11
-22.5920293275
 21
17.5377776863
  0
LINE
  5
3A0
100
AcDbEntity
  8
ASSI
100
AcDbLine
 62
253
  6
CONTINUOUS
 10
-22.5919266884
 20
17.2382226869
 11
-22.5920293275
 21
17.5377776863
  0
LINE
  5
3A1
100
AcDbEntity
  8
ASSI
100
AcDbLine
 62
7
  6
CONTINUOUS
 10
-22.5547575332
 20
-4.0865792005
 11
-22.5547574686
 21
-5.9866097318
  0
LINE
  5
3A2
100
AcDbEntity
  8
ASSI
100
AcDbLine
 62
7
  6
CONTINUOUS
 10
-22.5547574686
 20
40.7134207292
 11
-22.5547574686
 21
42.6134511902
  0
LINE
  5
3A3
100
AcDbEntity
  8
RACCORDO
100
AcDbLine
 62
7
  6
CONTINUOUS
 10
-22.8920105888
 20
32.5476147111
 11
-22.8919167168
 21
32.2498948659
  0
LINE
  5
3A4
100
AcDbEntity
  8
RACCORDO
100
AcDbLine
 62
7
  6
CONTINUOUS
 10
-22.8920105888
 20
27.5476147111
 11
-22.8919167168
 21
27.2498948659
  0
LINE
  5
3A5
100
AcDbEntity
  8
RACCORDO
100
AcDbLine
 62
7
  6
CONTINUOUS
 10
-22.8920105888
 20
22.5476147111
 11
-22.8919167168
 21
22.2498948659
  0
LINE
  5
3A6
100
AcDbEntity
  8
RACCORDO
100
AcDbLine
 62
253
  6
CONTINUOUS
 10
-22.5920297606
 20
27.0886539409
 11
-22.5919265479
 21
27.3882114531
  0
LINE
  5
3A7
100
AcDbEntity
  8
ASSI
100
AcDbLine
 62
253
  6
CONTINUOUS
 10
-22.5920297606
 20
27.0886539409
 11
-22.5919265479
 21
27.3882114531
  0
LINE
  5
3A8
100
AcDbEntity
  8
ASSI
100
AcDbLine
 62
7
  6
CONTINUOUS
 10
-22.8919103203
 20
17.3351533876
 11
-22.8920558968
 21
17.0303920661
  0
LINE
  5
3A9
100
AcDbEntity
  8
RACCORDO
100
AcDbLine
 62
7
  6
CONTINUOUS
 10
-22.8919105722
 20
17.2870842963
 11
-22.8920975438
 21
16.9918090482
  0
LINE
  5
3AA
100
AcDbEntity
  8
RACCORDO
100
AcDbLine
 62
7
  6
CONTINUOUS
 10
-22.8919167168
 20
32.2498948659
 11
-22.8921414899
 21
31.9554381014
  0
LINE
  5
3AB
100
AcDbEntity
  8
ASSI
100
AcDbLine
 62
7
  6
CONTINUOUS
 10
-22.891909821
 20
32.2968170481
 11
-22.8921415771
 21
31.9553695928
  0
LINE
  5
3AC
100
AcDbEntity
  8
RACCORDO
100
AcDbLine
 62
7
  6
CONTINUOUS
 10
-22.8919167168
 20
27.2498948659
 11
-22.8921414899
 21
26.9554381014
  0
LINE
  5
3AD
100
AcDbEntity
  8
ASSI
100
AcDbLine
 62
7
  6
CONTINUOUS
 10
-22.891909821
 20
27.2968170481
 11
-22.8921415771
 21
26.9553695928
  0
LINE
  5
3AE
100
AcDbEntity
  8
ASSI
100
AcDbLine
 62
7
  6
CONTINUOUS
 10
-22.891909821
 20
22.2968170481
 11
-22.8921415771
 21
21.9553695928
  0
LINE
  5
3AF
100
AcDbEntity
  8
RACCORDO
100
AcDbLine
 62
253
  6
CONTINUOUS
 10
-22.592237399
 20
31.9402635766
 11
-22.5919266884
 21
32.2382226869
  0
LINE
  5
3B0
100
AcDbEntity
  8
ASSI
100
AcDbLine
 62
253
  6
CONTINUOUS
 10
-22.592237399
 20
31.9402635766
 11
-22.5919266884
 21
32.2382226869
  0
LINE
  5
3B1
100
AcDbEntity
  8
RACCORDO
100
AcDbLine
 62
253
  6
CONTINUOUS
 10
-22.592237399
 20
21.9402635766
 11
-22.5919266884
 21
22.2382226869
  0
LINE
  5
3B2
100
AcDbEntity
  8
ASSI
100
AcDbLine
 62
253
  6
CONTINUOUS
 10
-22.592237399
 20
21.9402635766
 11
-22.5919266884
 21
22.2382226869
  0
LINE
  5
3B3
100
AcDbEntity
  8
RACCORDO
100
AcDbLine
 62
253
  6
CONTINUOUS
 10
-22.592237399
 20
16.9402635766
 11
-22.5919266884
 21
17.2382226869
  0
LINE
  5
3B4
100
AcDbEntity
  8
ASSI
100
AcDbLine
 62
253
  6
CONTINUOUS
 10
-22.592237399
 20
16.9402635766
 11
-22.5919266884
 21
17.2382226869
  0
LINE
  5
3B5
100
AcDbEntity
  8
ASSI
100
AcDbLine
 62
253
  6
CONTINUOUS
 10
-22.5407377723
 20
42.1523893494
 11
-22.5407421927
 21
42.5577257681
  0
LINE
  5
3B6
100
AcDbEntity
  8
ASSI
100
AcDbLine
 62
253
  6
CONTINUOUS
 10
-22.5407386898
 20
-5.9293944167
 11
-22.5407333296
 21
-5.5288746048
  0
LINE
  5
3B7
100
AcDbEntity
  8
ASSI
100
AcDbLine
 62
7
  6
CONTINUOUS
 10
-22.8920558968
 20
17.0303920661
 11
-22.8925146148
 21
16.7349888788
  0
LINE
  5
3B8
100
AcDbEntity
  8
RACCORDO
100
AcDbLine
 62
253
  6
CONTINUOUS
 10
-22.592547969
 20
26.7937386067
 11
-22.5920297606
 21
27.0886539409
  0
LINE
  5
3B9
100
AcDbEntity
  8
ASSI
100
AcDbLine
 62
253
  6
CONTINUOUS
 10
-22.592547969
 20
26.7937386067
 11
-22.5920297606
 21
27.0886539409
  0
LINE
  5
3BA
100
AcDbEntity
  8
RACCORDO
100
AcDbLine
 62
7
  6
CONTINUOUS
 10
-22.8920975438
 20
16.9918090482
 11
-22.8925775789
 21
16.7062245343
  0
LINE
  5
3BB
100
AcDbEntity
  8
ASSI
100
AcDbLine
 62
7
  6
CONTINUOUS
 10
-22.8921415771
 20
31.9553695928
 11
-22.8926774171
 21
31.6634652458
  0
LINE
  5
3BC
100
AcDbEntity
  8
RACCORDO
100
AcDbLine
 62
7
  6
CONTINUOUS
 10
-22.8921414899
 20
31.9554381014
 11
-22.8926579813
 21
31.6715446516
  0
LINE
  5
3BD
100
AcDbEntity
  8
ASSI
100
AcDbLine
 62
7
  6
CONTINUOUS
 10
-22.8921415771
 20
26.9553695928
 11
-22.8926774171
 21
26.6634652458
  0
LINE
  5
3BE
100
AcDbEntity
  8
RACCORDO
100
AcDbLine
 62
7
  6
CONTINUOUS
 10
-22.8921414899
 20
26.9554381014
 11
-22.8926579813
 21
26.6715446516
  0
LINE
  5
3BF
100
AcDbEntity
  8
ASSI
100
AcDbLine
 62
7
  6
CONTINUOUS
 10
-22.8921415771
 20
21.9553695928
 11
-22.8926774171
 21
21.6634652458
  0
LINE
  5
3C0
100
AcDbEntity
  8
RACCORDO
100
AcDbLine
 62
7
  6
CONTINUOUS
 10
-22.8919167168
 20
22.2498948659
 11
-22.8926579813
 21
21.6715446516
  0
LINE
  5
3C1
100
AcDbEntity
  8
RACCORDO
100
AcDbLine
 62
253
  6
CONTINUOUS
 10
-22.5929565786
 20
31.6498035696
 11
-22.592237399
 21
31.9402635766
  0
LINE
  5
3C2
100
AcDbEntity
  8
ASSI
100
AcDbLine
 62
253
  6
CONTINUOUS
 10
-22.5929565786
 20
31.6498035696
 11
-22.592237399
 21
31.9402635766
  0
LINE
  5
3C3
100
AcDbEntity
  8
RACCORDO
100
AcDbLine
 62
253
  6
CONTINUOUS
 10
-22.5929565786
 20
21.6498035696
 11
-22.592237399
 21
21.9402635766
  0
LINE
  5
3C4
100
AcDbEntity
  8
ASSI
100
AcDbLine
 62
253
  6
CONTINUOUS
 10
-22.5929565786
 20
21.6498035696
 11
-22.592237399
 21
21.9402635766
  0
LINE
  5
3C5
100
AcDbEntity
  8
RACCORDO
100
AcDbLine
 62
253
  6
CONTINUOUS
 10
-22.5929565786
 20
16.6498035696
 11
-22.592237399
 21
16.9402635766
  0
LINE
  5
3C6
100
AcDbEntity
  8
ASSI
100
AcDbLine
 62
253
  6
CONTINUOUS
 10
-22.5929565786
 20
16.6498035696
 11
-22.592237399
 21
16.9402635766
  0
LINE
  5
3C7
100
AcDbEntity
  8
ASSI
100
AcDbLine
 62
7
  6
CONTINUOUS
 10
-22.8925146148
 20
16.7349888788
 11
-22.8932651377
 21
16.4561458263
  0
LINE
  5
3C8
100
AcDbEntity
  8
RACCORDO
100
AcDbLine
 62
7
  6
CONTINUOUS
 10
-22.8925775789
 20
16.7062245343
 11
-22.8933282554
 21
16.4369445804
  0
LINE
  5
3C9
100
AcDbEntity
  8
ASSI
100
AcDbLine
 62
7
  6
CONTINUOUS
 10
-22.8926774171
 20
31.6634652458
 11
-22.8934904553
 21
31.3896867455
  0
LINE
  5
3CA
100
AcDbEntity
  8
RACCORDO
100
AcDbLine
 62
7
  6
CONTINUOUS
 10
-22.8926579813
 20
31.6715446516
 11
-22.8934379018
 21
31.4046842463
  0
LINE
  5
3CB
100
AcDbEntity
  8
ASSI
100
AcDbLine
 62
7
  6
CONTINUOUS
 10
-22.8926774171
 20
26.6634652458
 11
-22.8934904553
 21
26.3896867455
  0
LINE
  5
3CC
100
AcDbEntity
  8
RACCORDO
100
AcDbLine
 62
7
  6
CONTINUOUS
 10
-22.8926579813
 20
26.6715446516
 11
-22.8934379018
 21
26.4046842463
  0
LINE
  5
3CD
100
AcDbEntity
  8
RACCORDO
100
AcDbLine
 62
7
  6
CONTINUOUS
 10
-22.8926579813
 20
21.6715446516
 11
-22.8936676907
 21
21.3411408341
  0
LINE
  5
3CE
100
AcDbEntity
  8
RACCORDO
100
AcDbLine
 62
253
  6
CONTINUOUS
 10
-22.5934645972
 20
26.5091632705
 11
-22.592547969
 21
26.7937386067
  0
LINE
  5
3CF
100
AcDbEntity
  8
ASSI
100
AcDbLine
 62
253
  6
CONTINUOUS
 10
-22.5934645972
 20
26.5091632705
 11
-22.592547969
 21
26.7937386067
  0
LINE
  5
3D0
100
AcDbEntity
  8
ASSI
100
AcDbLine
 62
7
  6
CONTINUOUS
 10
-22.8926774171
 20
21.6634652458
 11
-22.8942547232
 21
21.1986181727
  0
LINE
  5
3D1
100
AcDbEntity
  8
ASSI
100
AcDbLine
 62
7
  6
CONTINUOUS
 10
-22.8932651377
 20
16.4561458263
 11
-22.8942547232
 21
16.1986181727
  0
LINE
  5
3D2
100
AcDbEntity
  8
RACCORDO
100
AcDbLine
 62
7
  6
CONTINUOUS
 10
-22.8933282554
 20
16.4369445804
 11
-22.8943023064
 21
16.1880676525
  0
LINE
  5
3D3
100
AcDbEntity
  8
RACCORDO
100
AcDbLine
 62
253
  6
CONTINUOUS
 10
-22.5940706553
 20
31.3724825991
 11
-22.5929565786
 21
31.6498035696
  0
LINE
  5
3D4
100
AcDbEntity
  8
ASSI
100
AcDbLine
 62
253
  6
CONTINUOUS
 10
-22.5940706553
 20
31.3724825991
 11
-22.5929565786
 21
31.6498035696
  0
LINE
  5
3D5
100
AcDbEntity
  8
RACCORDO
100
AcDbLine
 62
253
  6
CONTINUOUS
 10
-22.5940706553
 20
21.3724825991
 11
-22.5929565786
 21
21.6498035696
  0
LINE
  5
3D6
100
AcDbEntity
  8
ASSI
100
AcDbLine
 62
253
  6
CONTINUOUS
 10
-22.5940706553
 20
21.3724825991
 11
-22.5929565786
 21
21.6498035696
  0
LINE
  5
3D7
100
AcDbEntity
  8
RACCORDO
100
AcDbLine
 62
253
  6
CONTINUOUS
 10
-22.5940706553
 20
16.3724825991
 11
-22.5929565786
 21
16.6498035696
  0
LINE
  5
3D8
100
AcDbEntity
  8
ASSI
100
AcDbLine
 62
253
  6
CONTINUOUS
 10
-22.5940706553
 20
16.3724825991
 11
-22.5929565786
 21
16.6498035696
  0
LINE
  5
3D9
100
AcDbEntity
  8
ASSI
100
AcDbLine
 62
7
  6
CONTINUOUS
 10
-22.8934904553
 20
31.3896867455
 11
-22.8945372506
 21
31.1377541047
  0
LINE
  5
3DA
100
AcDbEntity
  8
RACCORDO
100
AcDbLine
 62
7
  6
CONTINUOUS
 10
-22.8934379018
 20
31.4046842463
 11
-22.894438958
 21
31.158458494
  0
LINE
  5
3DB
100
AcDbEntity
  8
ASSI
100
AcDbLine
 62
7
  6
CONTINUOUS
 10
-22.8934904553
 20
26.3896867455
 11
-22.8945372506
 21
26.1377541047
  0
LINE
  5
3DC
100
AcDbEntity
  8
RACCORDO
100
AcDbLine
 62
7
  6
CONTINUOUS
 10
-22.8934379018
 20
26.4046842463
 11
-22.894438958
 21
26.158458494
  0
LINE
  5
3DD
100
AcDbEntity
  8
RACCORDO
100
AcDbLine
 62
253
  6
CONTINUOUS
 10
-22.5947657527
 20
26.2404008726
 11
-22.5934645972
 21
26.5091632705
  0
LINE
  5
3DE
100
AcDbEntity
  8
ASSI
100
AcDbLine
 62
253
  6
CONTINUOUS
 10
-22.5947657527
 20
26.2404008726
 11
-22.5934645972
 21
26.5091632705
  0
LINE
  5
3DF
100
AcDbEntity
  8
ASSI
100
AcDbLine
 62
7
  6
CONTINUOUS
 10
-22.8942547232
 20
21.1986181727
 11
-22.8954526878
 21
20.9638317708
  0
LINE
  5
3E0
100
AcDbEntity
  8
ASSI
100
AcDbLine
 62
7
  6
CONTINUOUS
 10
-22.8942547232
 20
16.1986181727
 11
-22.8954526878
 21
15.9638317708
  0
LINE
  5
3E1
100
AcDbEntity
  8
RACCORDO
100
AcDbLine
 62
7
  6
CONTINUOUS
 10
-22.8943023064
 20
16.1880676525
 11
-22.8956275338
 21
15.9338952904
  0
LINE
  5
3E2
100
AcDbEntity
  8
ASSI
100
AcDbLine
 62
253
  6
CONTINUOUS
 10
-22.5407865327
 20
42.1404281363
 11
-22.5407377723
 21
42.1523893494
  0
LINE
  5
3E3
100
AcDbEntity
  8
RACCORDO
100
AcDbLine
 62
7
  6
CONTINUOUS
 10
-22.894438958
 20
31.158458494
 11
-22.8957872067
 21
30.9073763182
  0
LINE
  5
3E4
100
AcDbEntity
  8
ASSI
100
AcDbLine
 62
7
  6
CONTINUOUS
 10
-22.8945372506
 20
31.1377541047
 11
-22.8957786553
 21
30.9087773292
  0
LINE
  5
3E5
100
AcDbEntity
  8
RACCORDO
100
AcDbLine
 62
7
  6
CONTINUOUS
 10
-22.894438958
 20
26.158458494
 11
-22.8957872067
 21
25.9073763182
  0
LINE
  5
3E6
100
AcDbEntity
  8
ASSI
100
AcDbLine
 62
7
  6
CONTINUOUS
 10
-22.8945372506
 20
26.1377541047
 11
-22.8957786553
 21
25.9087773292
  0
LINE
  5
3E7
100
AcDbEntity
  8
RACCORDO
100
AcDbLine
 62
253
  6
CONTINUOUS
 10
-22.5955508956
 20
31.1135745241
 11
-22.5940706553
 21
31.3724825991
  0
LINE
  5
3E8
100
AcDbEntity
  8
ASSI
100
AcDbLine
 62
253
  6
CONTINUOUS
 10
-22.5955508956
 20
31.1135745241
 11
-22.5940706553
 21
31.3724825991
  0
LINE
  5
3E9
100
AcDbEntity
  8
RACCORDO
100
AcDbLine
 62
253
  6
CONTINUOUS
 10
-22.5955508956
 20
21.1135745241
 11
-22.5940706553
 21
21.3724825991
  0
LINE
  5
3EA
100
AcDbEntity
  8
ASSI
100
AcDbLine
 62
253
  6
CONTINUOUS
 10
-22.5955508956
 20
21.1135745241
 11
-22.5940706553
 21
21.3724825991
  0
LINE
  5
3EB
100
AcDbEntity
  8
RACCORDO
100
AcDbLine
 62
253
  6
CONTINUOUS
 10
-22.5955508956
 20
16.1135745241
 11
-22.5940706553
 21
16.3724825991
  0
LINE
  5
3EC
100
AcDbEntity
  8
ASSI
100
AcDbLine
 62
253
  6
CONTINUOUS
 10
-22.5955508956
 20
16.1135745241
 11
-22.5940706553
 21
16.3724825991
  0
LINE
  5
3ED
100
AcDbEntity
  8
RACCORDO
100
AcDbLine
 62
7
  6
CONTINUOUS
 10
-22.8936676907
 20
21.3411408341
 11
-22.896450835
 21
20.8047674981
  0
LINE
  5
3EE
100
AcDbEntity
  8
ASSI
100
AcDbLine
 62
7
  6
CONTINUOUS
 10
-22.8954526878
 20
20.9638317708
 11
-22.8968196373
 21
20.7524221085
  0
LINE
  5
3EF
100
AcDbEntity
  8
ASSI
100
AcDbLine
 62
7
  6
CONTINUOUS
 10
-22.8954526878
 20
15.9638317708
 11
-22.8968196373
 21
15.7524221085
  0
LINE
  5
3F0
100
AcDbEntity
  8
RACCORDO
100
AcDbLine
 62
7
  6
CONTINUOUS
 10
-22.8956275338
 20
15.9338952904
 11
-22.8969734729
 21
15.7314532957
  0
LINE
  5
3F1
100
AcDbEntity
  8
RACCORDO
100
AcDbLine
 62
253
  6
CONTINUOUS
 10
-22.5964250777
 20
25.9925858788
 11
-22.5947657527
 21
26.2404008726
  0
LINE
  5
3F2
100
AcDbEntity
  8
ASSI
100
AcDbLine
 62
253
  6
CONTINUOUS
 10
-22.5964250777
 20
25.9925858788
 11
-22.5947657527
 21
26.2404008726
  0
LINE
  5
3F3
100
AcDbEntity
  8
RACCORDO
100
AcDbLine
 62
7
  6
CONTINUOUS
 10
-22.8957872067
 20
30.9073763182
 11
-22.8971519943
 21
30.7077100182
  0
LINE
  5
3F4
100
AcDbEntity
  8
RACCORDO
100
AcDbLine
 62
7
  6
CONTINUOUS
 10
-22.8957872067
 20
25.9073763182
 11
-22.8971519943
 21
25.7077100182
  0
LINE
  5
3F5
100
AcDbEntity
  8
ASSI
100
AcDbLine
 62
7
  6
CONTINUOUS
 10
-22.8957786553
 20
30.9087773292
 11
-22.8971860824
 21
30.7032455089
  0
LINE
  5
3F6
100
AcDbEntity
  8
ASSI
100
AcDbLine
 62
7
  6
CONTINUOUS
 10
-22.8957786553
 20
25.9087773292
 11
-22.8971860824
 21
25.7032455089
  0
LINE
  5
3F7
100
AcDbEntity
  8
RACCORDO
100
AcDbLine
 62
7
  6
CONTINUOUS
 10
-22.896450835
 20
20.8047674981
 11
-22.8978844223
 21
20.6162006708
  0
LINE
  5
3F8
100
AcDbEntity
  8
RACCORDO
100
AcDbLine
 62
253
  6
CONTINUOUS
 10
-22.5973762804
 20
30.8779375631
 11
-22.5955508956
 21
31.1135745241
  0
LINE
  5
3F9
100
AcDbEntity
  8
ASSI
100
AcDbLine
 62
253
  6
CONTINUOUS
 10
-22.5973762804
 20
30.8779375631
 11
-22.5955508956
 21
31.1135745241
  0
LINE
  5
3FA
100
AcDbEntity
  8
RACCORDO
100
AcDbLine
 62
253
  6
CONTINUOUS
 10
-22.5973762804
 20
20.8779375631
 11
-22.5955508956
 21
21.1135745241
  0
LINE
  5
3FB
100
AcDbEntity
  8
ASSI
100
AcDbLine
 62
253
  6
CONTINUOUS
 10
-22.5973762804
 20
20.8779375631
 11
-22.5955508956
 21
21.1135745241
  0
LINE
  5
3FC
100
AcDbEntity
  8
RACCORDO
100
AcDbLine
 62
253
  6
CONTINUOUS
 10
-22.5973762804
 20
15.8779375631
 11
-22.5955508956
 21
16.1135745241
  0
LINE
  5
3FD
100
AcDbEntity
  8
ASSI
100
AcDbLine
 62
253
  6
CONTINUOUS
 10
-22.5973762804
 20
15.8779375631
 11
-22.5955508956
 21
16.1135745241
  0
LINE
  5
3FE
100
AcDbEntity
  8
ASSI
100
AcDbLine
 62
7
  6
CONTINUOUS
 10
-22.8968196373
 20
20.7524221085
 11
-22.8983309073
 21
20.5645450443
  0
LINE
  5
3FF
100
AcDbEntity
  8
ASSI
100
AcDbLine
 62
7
  6
CONTINUOUS
 10
-22.8968196373
 20
15.7524221085
 11
-22.8983309073
 21
15.5645450443
  0
LINE
  5
400
100
AcDbEntity
  8
RACCORDO
100
AcDbLine
 62
7
  6
CONTINUOUS
 10
-22.8969734729
 20
15.7314532957
 11
-22.8984504996
 21
15.5512112153
  0
LINE
  5
401
100
AcDbEntity
  8
ASSI
100
AcDbLine
 62
7
  6
CONTINUOUS
 10
-22.8971860824
 20
30.7032455089
 11
-22.8987262507
 21
30.521251534
  0
LINE
  5
402
100
AcDbEntity
  8
RACCORDO
100
AcDbLine
 62
7
  6
CONTINUOUS
 10
-22.8971519943
 20
30.7077100182
 11
-22.8986424748
 21
30.5302392619
  0
LINE
  5
403
100
AcDbEntity
  8
ASSI
100
AcDbLine
 62
7
  6
CONTINUOUS
 10
-22.8971860824
 20
25.7032455089
 11
-22.8987262507
 21
25.521251534
  0
LINE
  5
404
100
AcDbEntity
  8
RACCORDO
100
AcDbLine
 62
7
  6
CONTINUOUS
 10
-22.8971519943
 20
25.7077100182
 11
-22.8986424748
 21
25.5302392619
  0
LINE
  5
405
100
AcDbEntity
  8
RACCORDO
100
AcDbLine
 62
253
  6
CONTINUOUS
 10
-22.5984054479
 20
25.770188989
 11
-22.5964250777
 21
25.9925858788
  0
LINE
  5
406
100
AcDbEntity
  8
ASSI
100
AcDbLine
 62
253
  6
CONTINUOUS
 10
-22.5984054479
 20
25.770188989
 11
-22.5964250777
 21
25.9925858788
  0
LINE
  5
407
100
AcDbEntity
  8
RACCORDO
100
AcDbLine
 62
7
  6
CONTINUOUS
 10
-22.8978844223
 20
20.6162006708
 11
-22.8994271291
 21
20.449792578
  0
LINE
  5
408
100
AcDbEntity
  8
ASSI
100
AcDbLine
 62
7
  6
CONTINUOUS
 10
-22.8983309073
 20
20.5645450443
 11
-22.8999544931
 21
20.4001250554
  0
LINE
  5
409
100
AcDbEntity
  8
ASSI
100
AcDbLine
 62
7
  6
CONTINUOUS
 10
-22.8983309073
 20
15.5645450443
 11
-22.8999544931
 21
15.4001250554
  0
LINE
  5
40A
100
AcDbEntity
  8
ASSI
100
AcDbLine
 62
253
  6
CONTINUOUS
 10
-22.5408722111
 20
42.1306218495
 11
-22.5407865327
 21
42.1404281363
  0
LINE
  5
40B
100
AcDbEntity
  8
RACCORDO
100
AcDbLine
 62
7
  6
CONTINUOUS
 10
-22.8984504996
 20
15.5512112153
 11
-22.900032581
 21
15.393048056
  0
LINE
  5
40C
100
AcDbEntity
  8
RACCORDO
100
AcDbLine
 62
7
  6
CONTINUOUS
 10
-22.8986424748
 20
30.5302392619
 11
-22.9002373533
 21
30.3748132524
  0
LINE
  5
40D
100
AcDbEntity
  8
RACCORDO
100
AcDbLine
 62
7
  6
CONTINUOUS
 10
-22.8986424748
 20
25.5302392619
 11
-22.9002373533
 21
25.3748132524
  0
LINE
  5
40E
100
AcDbEntity
  8
ASSI
100
AcDbLine
 62
7
  6
CONTINUOUS
 10
-22.8987262507
 20
30.521251534
 11
-22.9003769016
 21
30.3626479468
  0
LINE
  5
40F
100
AcDbEntity
  8
ASSI
100
AcDbLine
 62
7
  6
CONTINUOUS
 10
-22.8987262507
 20
25.521251534
 11
-22.9003769016
 21
25.3626479468
  0
LINE
  5
410
100
AcDbEntity
  8
RACCORDO
100
AcDbLine
 62
7
  6
CONTINUOUS
 10
-22.8994271291
 20
20.449792578
 11
-22.9010688654
 21
20.3052591367
  0
LINE
  5
411
100
AcDbEntity
  8
ASSI
100
AcDbLine
 62
7
  6
CONTINUOUS
 10
-22.8999544931
 20
20.4001250554
 11
-22.9016726903
 21
20.258851685
  0
LINE
  5
412
100
AcDbEntity
  8
ASSI
100
AcDbLine
 62
7
  6
CONTINUOUS
 10
-22.8999544931
 20
15.4001250554
 11
-22.9016726903
 21
15.258851685
  0
LINE
  5
413
100
AcDbEntity
  8
RACCORDO
100
AcDbLine
 62
7
  6
CONTINUOUS
 10
-22.900032581
 20
15.393048056
 11
-22.9017023743
 21
15.2566547694
  0
LINE
  5
414
100
AcDbEntity
  8
RACCORDO
100
AcDbLine
 62
7
  6
CONTINUOUS
 10
-22.9002373533
 20
30.3748132524
 11
-22.9019151335
 21
30.2411387812
  0
LINE
  5
415
100
AcDbEntity
  8
RACCORDO
100
AcDbLine
 62
7
  6
CONTINUOUS
 10
-22.9002373533
 20
25.3748132524
 11
-22.9019151335
 21
25.2411387812
  0
LINE
  5
416
100
AcDbEntity
  8
ASSI
100
AcDbLine
 62
7
  6
CONTINUOUS
 10
-22.9003769016
 20
30.3626479468
 11
-22.9021117083
 21
30.2271603924
  0
LINE
  5
417
100
AcDbEntity
  8
ASSI
100
AcDbLine
 62
7
  6
CONTINUOUS
 10
-22.9003769016
 20
25.3626479468
 11
-22.9021117083
 21
25.2271603924
  0
LINE
  5
418
100
AcDbEntity
  8
ASSI
100
AcDbLine
 62
253
  6
CONTINUOUS
 10
-22.5409576121
 20
42.1242375997
 11
-22.5408722111
 21
42.1306218495
  0
LINE
  5
419
100
AcDbEntity
  8
RACCORDO
100
AcDbLine
 62
7
  6
CONTINUOUS
 10
-22.9010688654
 20
20.3052591367
 11
-22.9027737589
 21
20.1825588214
  0
LINE
  5
41A
100
AcDbEntity
  8
ASSI
100
AcDbLine
 62
7
  6
CONTINUOUS
 10
-22.9016726903
 20
20.258851685
 11
-22.9032227963
 21
20.1544155049
  0
LINE
  5
41B
100
AcDbEntity
  8
RACCORDO
100
AcDbLine
 62
7
  6
CONTINUOUS
 10
-22.9017023743
 20
15.2566547694
 11
-22.9032071674
 21
15.1553672775
  0
LINE
  5
41C
100
AcDbEntity
  8
ASSI
100
AcDbLine
 62
7
  6
CONTINUOUS
 10
-22.9016726903
 20
15.258851685
 11
-22.9032227963
 21
15.1544155049
  0
LINE
  5
41D
100
AcDbEntity
  8
RACCORDO
100
AcDbLine
 62
7
  6
CONTINUOUS
 10
-22.9019151335
 20
30.2411387812
 11
-22.9034246501
 21
30.142299326
  0
LINE
  5
41E
100
AcDbEntity
  8
RACCORDO
100
AcDbLine
 62
7
  6
CONTINUOUS
 10
-22.9019151335
 20
25.2411387812
 11
-22.9034246501
 21
25.142299326
  0
LINE
  5
41F
100
AcDbEntity
  8
ASSI
100
AcDbLine
 62
7
  6
CONTINUOUS
 10
-22.9021117083
 20
30.2271603924
 11
-22.9036714442
 21
30.1279239541
  0
LINE
  5
420
100
AcDbEntity
  8
ASSI
100
AcDbLine
 62
7
  6
CONTINUOUS
 10
-22.9021117083
 20
25.2271603924
 11
-22.9036714442
 21
25.1279239541
  0
LINE
  5
421
100
AcDbEntity
  8
RACCORDO
100
AcDbLine
 62
7
  6
CONTINUOUS
 10
-22.9027737589
 20
20.1825588214
 11
-22.9042975971
 21
20.0935398114
  0
LINE
  5
422
100
AcDbEntity
  8
RACCORDO
100
AcDbLine
 62
7
  6
CONTINUOUS
 10
-22.9032071674
 20
15.1553672775
 11
-22.9047341271
 21
15.0712637478
  0
LINE
  5
423
100
AcDbEntity
  8
ASSI
100
AcDbLine
 62
7
  6
CONTINUOUS
 10
-22.9032227963
 20
20.1544155049
 11
-22.9047959317
 21
20.0682181631
  0
LINE
  5
424
100
AcDbEntity
  8
ASSI
100
AcDbLine
 62
7
  6
CONTINUOUS
 10
-22.9032227963
 20
15.1544155049
 11
-22.9047959317
 21
15.0682181631
  0
LINE
  5
425
100
AcDbEntity
  8
RACCORDO
100
AcDbLine
 62
7
  6
CONTINUOUS
 10
-22.9034246501
 20
30.142299326
 11
-22.9049518903
 21
30.0606497136
  0
LINE
  5
426
100
AcDbEntity
  8
RACCORDO
100
AcDbLine
 62
7
  6
CONTINUOUS
 10
-22.9034246501
 20
25.142299326
 11
-22.9049518903
 21
25.0606497136
  0
LINE
  5
427
100
AcDbEntity
  8
ASSI
100
AcDbLine
 62
253
  6
CONTINUOUS
 10
-22.5410546045
 20
42.1189614103
 11
-22.5409576121
 21
42.1242375997
  0
LINE
  5
428
100
AcDbEntity
  8
RACCORDO
100
AcDbLine
 62
7
  6
CONTINUOUS
 10
-22.9049518903
 20
30.0606497136
 11
-22.905258605
 21
30.046282677
  0
LINE
  5
429
100
AcDbEntity
  8
RACCORDO
100
AcDbLine
 62
7
  6
CONTINUOUS
 10
-22.9049518903
 20
25.0606497136
 11
-22.905258605
 21
25.046282677
  0
LINE
  5
42A
100
AcDbEntity
  8
RACCORDO
100
AcDbLine
 62
7
  6
CONTINUOUS
 10
-22.9042975971
 20
20.0935398114
 11
-22.905258605
 21
20.046282677
  0
LINE
  5
42B
100
AcDbEntity
  8
RACCORDO
100
AcDbLine
 62
7
  6
CONTINUOUS
 10
-22.9047341271
 20
15.0712637478
 11
-22.905258605
 21
15.046282677
  0
LINE
  5
42C
100
AcDbEntity
  8
ASSI
100
AcDbLine
 62
7
  6
CONTINUOUS
 10
-22.9036714442
 20
30.1279239541
 11
-22.9052579862
 21
30.0462834399
  0
LINE
  5
42D
100
AcDbEntity
  8
ASSI
100
AcDbLine
 62
7
  6
CONTINUOUS
 10
-22.9036714442
 20
25.1279239541
 11
-22.9052579862
 21
25.0462834399
  0
LINE
  5
42E
100
AcDbEntity
  8
ASSI
100
AcDbLine
 62
7
  6
CONTINUOUS
 10
-22.9047959317
 20
20.0682181631
 11
-22.9052579862
 21
20.0462834399
  0
LINE
  5
42F
100
AcDbEntity
  8
ASSI
100
AcDbLine
 62
7
  6
CONTINUOUS
 10
-22.9047959317
 20
15.0682181631
 11
-22.9052579862
 21
15.0462834399
  0
LINE
  5
430
100
AcDbEntity
  8
ASSI
100
AcDbLine
 62
253
  6
CONTINUOUS
 10
-22.5411384159
 20
42.1155197591
 11
-22.5410546045
 21
42.1189614103
  0
LINE
  5
431
100
AcDbEntity
  8
ASSI
100
AcDbLine
 62
253
  6
CONTINUOUS
 10
-22.5547574686
 20
41.6649953374
 11
-22.5411384159
 21
42.1155197591
  0
LINE
  5
432
100
AcDbEntity
  8
ASSI
100
AcDbLine
 62
253
  6
CONTINUOUS
 10
-22.3564725095
 20
41.43607046
 11
-22.3411993671
 21
41.9412506435
  0
LWPOLYLINE
  5
433
100
AcDbEntity
  8
RACCORDO
100
AcDbPolyline
 62
253
  6
CONTINUOUS
 90
9
 70
0
 10
-22.6088083127
 20
30.211257869
 10
-22.6073554351
 20
30.248077548
 10
-22.6059270043
 20
30.2949885518
 10
-22.6045432243
 20
30.3517199939
 10
-22.6032049903
 20
30.4179408186
 10
-22.6019114072
 20
30.4932919429
 10
-22.6006799928
 20
30.5774137148
 10
-22.5995116359
 20
30.6698691397
 10
-22.5973762804
 20
30.8779375631
  0
LWPOLYLINE
  5
434
100
AcDbEntity
  8
ASSI
100
AcDbPolyline
 62
253
  6
CONTINUOUS
 90
9
 70
0
 10
-22.6088083127
 20
30.211257869
 10
-22.6073554351
 20
30.248077548
 10
-22.6059270043
 20
30.2949885518
 10
-22.6045432243
 20
30.3517199939
 10
-22.6032049903
 20
30.4179408186
 10
-22.6019114072
 20
30.4932919429
 10
-22.6006799928
 20
30.5774137148
 10
-22.5995116359
 20
30.6698691397
 10
-22.5973762804
 20
30.8779375631
  0
LWPOLYLINE
  5
435
100
AcDbEntity
  8
RACCORDO
100
AcDbPolyline
 62
253
  6
CONTINUOUS
 90
8
 70
0
 10
-22.6088083127
 20
25.211257869
 10
-22.6073554351
 20
25.248077548
 10
-22.6059270043
 20
25.2949885518
 10
-22.6045432243
 20
25.3517199939
 10
-22.6032049903
 20
25.4179408186
 10
-22.6019114072
 20
25.4932919429
 10
-22.6006799928
 20
25.5774137148
 10
-22.5984054479
 20
25.770188989
  0
LWPOLYLINE
  5
436
100
AcDbEntity
  8
ASSI
100
AcDbPolyline
 62
253
  6
CONTINUOUS
 90
8
 70
0
 10
-22.6088083127
 20
25.211257869
 10
-22.6073554351
 20
25.248077548
 10
-22.6059270043
 20
25.2949885518
 10
-22.6045432243
 20
25.3517199939
 10
-22.6032049903
 20
25.4179408186
 10
-22.6019114072
 20
25.4932919429
 10
-22.6006799928
 20
25.5774137148
 10
-22.5984054479
 20
25.770188989
  0
LWPOLYLINE
  5
437
100
AcDbEntity
  8
RACCORDO
100
AcDbPolyline
 62
253
  6
CONTINUOUS
 90
9
 70
0
 10
-22.6088083127
 20
20.211257869
 10
-22.6073554351
 20
20.248077548
 10
-22.6059270043
 20
20.2949885518
 10
-22.6045432243
 20
20.3517199939
 10
-22.6032049903
 20
20.4179408186
 10
-22.6019114072
 20
20.4932919429
 10
-22.6006799928
 20
20.5774137148
 10
-22.5995116359
 20
20.6698691397
 10
-22.5973762804
 20
20.8779375631
  0
LWPOLYLINE
  5
438
100
AcDbEntity
  8
ASSI
100
AcDbPolyline
 62
253
  6
CONTINUOUS
 90
9
 70
0
 10
-22.6088083127
 20
20.211257869
 10
-22.6073554351
 20
20.248077548
 10
-22.6059270043
 20
20.2949885518
 10
-22.6045432243
 20
20.3517199939
 10
-22.6032049903
 20
20.4179408186
 10
-22.6019114072
 20
20.4932919429
 10
-22.6006799928
 20
20.5774137148
 10
-22.5995116359
 20
20.6698691397
 10
-22.5973762804
 20
20.8779375631
  0
LINE
  5
439
100
AcDbEntity
  8
ASSI
100
AcDbLine
 62
7
  6
CONTINUOUS
 10
-23.0809433902
 20
36.73607046
 11
-23.0547574686
 21
37.3134207292
  0
LWPOLYLINE
  5
43A
100
AcDbEntity
  8
ASSI
100
AcDbPolyline
 62
7
  6
CONTINUOUS
 90
16
 70
0
 10
-23.0547574686
 20
40.2134204941
 10
-23.0520611858
 20
40.26533052
 10
-23.0439540293
 20
40.3168819359
 10
-23.0304575063
 20
40.3675050818
 10
-23.0115745968
 20
40.4168057833
 10
-22.987492385
 20
40.4640216851
 10
-22.9587654018
 20
40.5081223317
 10
-22.9261050649
 20
40.5483544673
 10
-22.8897278311
 20
40.5847402808
 10
-22.8494982377
 20
40.6174139745
 10
-22.8053890942
 20
40.6461573436
 10
-22.7581556372
 20
40.6702537904
 10
-22.708840038
 20
40.6891444367
 10
-22.6582103742
 20
40.7026412478
 10
-22.6066589309
 20
40.7107407189
 10
-22.5547574689
 20
40.7134204657
  0
LWPOLYLINE
  5
43B
100
AcDbEntity
  8
ASSI
100
AcDbPolyline
 62
253
  6
CONTINUOUS
 90
13
 70
0
 10
-22.5415900117
 20
42.6002837332
 10
-22.5398719585
 20
42.6263799647
 10
-22.5347630808
 20
42.6520298553
 10
-22.5263507593
 20
42.6767946982
 10
-22.5147788752
 20
42.7002509242
 10
-22.5002453502
 20
42.7219973462
 10
-22.4829987604
 20
42.741662021
 10
-22.4633340857
 20
42.7589086107
 10
-22.4415876637
 20
42.7734421358
 10
-22.4181314376
 20
42.7850140199
 10
-22.3933665947
 20
42.7934263414
 10
-22.3677167041
 20
42.798535219
 10
-22.3416204727
 20
42.8002532723
  0
LWPOLYLINE
  5
43C
100
AcDbEntity
  8
RACCORDO
100
AcDbPolyline
 62
253
  6
CONTINUOUS
 90
4
 70
0
 10
-22.6132934231
 20
25.1634207292
 10
-22.6117739394
 20
25.1687711753
 10
-22.6102789026
 20
25.1847607845
 10
-22.6088083127
 20
25.211257869
  0
LWPOLYLINE
  5
43D
100
AcDbEntity
  8
ASSI
100
AcDbPolyline
 62
253
  6
CONTINUOUS
 90
4
 70
0
 10
-22.6132934231
 20
25.1634207292
 10
-22.6117739394
 20
25.1687711753
 10
-22.6102789026
 20
25.1847607845
 10
-22.6088083127
 20
25.211257869
  0
LWPOLYLINE
  5
43E
100
AcDbEntity
  8
RACCORDO
100
AcDbPolyline
 62
253
  6
CONTINUOUS
 90
4
 70
0
 10
-22.6132934231
 20
20.1634207292
 10
-22.6117739394
 20
20.1687711753
 10
-22.6102789026
 20
20.1847607845
 10
-22.6088083127
 20
20.211257869
  0
LWPOLYLINE
  5
43F
100
AcDbEntity
  8
ASSI
100
AcDbPolyline
 62
253
  6
CONTINUOUS
 90
4
 70
0
 10
-22.6132934231
 20
20.1634207292
 10
-22.6117739394
 20
20.1687711753
 10
-22.6102789026
 20
20.1847607845
 10
-22.6088083127
 20
20.211257869
  0
LINE
  5
440
100
AcDbEntity
  8
0
100
AcDbLine
 62
7
  6
CONTINUOUS
 10
-8.491413105
 20
38.1767650928
 11
-8.4547574686
 21
38.2134207292
  0
LINE
  5
441
100
AcDbEntity
  8
DRAFT
100
AcDbLine
 62
7
  6
CONTINUOUS
 10
-8.491413105
 20
38.1767650928
 11
-8.4547574686
 21
38.2134207292
  0
LINE
  5
442
100
AcDbEntity
  8
0
100
AcDbLine
 62
7
  6
CONTINUOUS
 10
-8.4547574686
 20
38.0134207292
 11
-8.491413105
 21
37.9767650928
  0
LINE
  5
443
100
AcDbEntity
  8
DRAFT
100
AcDbLine
 62
7
  6
CONTINUOUS
 10
-8.4547574686
 20
38.0134207292
 11
-8.491413105
 21
37.9767650928
  0
LINE
  5
444
100
AcDbEntity
  8
0
100
AcDbLine
 62
253
  6
CONTINUOUS
 10
-0.8047574686
 20
35.9851197779
 11
-0.9269429231
 21
35.9345089055
  0
LINE
  5
445
100
AcDbEntity
  8
RACCORDO
100
AcDbLine
 62
253
  6
CONTINUOUS
 10
-0.8047574686
 20
35.9851197779
 11
-0.9269429231
 21
35.9345089055
  0
LINE
  5
446
100
AcDbEntity
  8
0
100
AcDbLine
 62
253
  6
CONTINUOUS
 10
-0.9269429231
 20
0.6923325528
 11
-0.8047574686
 21
0.6417216805
  0
LINE
  5
447
100
AcDbEntity
  8
RACCORDO
100
AcDbLine
 62
253
  6
CONTINUOUS
 10
-0.9269429231
 20
0.6923325528
 11
-0.8047574686
 21
0.6417216805
  0
LWPOLYLINE
  5
448
100
AcDbEntity
  8
0
100
AcDbPolyline
 62
253
  6
CONTINUOUS
 90
4
 70
0
 10
-10.0619211857
 20
0.968972023
 10
-10.0249441357
 20
0.935898744
 10
-9.9949498475
 20
0.8975848078
 10
-9.9728496824
 20
0.855194364
  0
LWPOLYLINE
  5
449
100
AcDbEntity
  8
RACCORDO
100
AcDbPolyline
 62
253
  6
CONTINUOUS
 90
4
 70
0
 10
-10.0619211857
 20
0.968972023
 10
-10.0249441357
 20
0.935898744
 10
-9.9949498475
 20
0.8975848078
 10
-9.9728496824
 20
0.855194364
  0
LWPOLYLINE
  5
44A
100
AcDbEntity
  8
ASSI
100
AcDbPolyline
 62
7
  6
CONTINUOUS
 90
10
 70
0
 10
-3.4081344389
 20
-5.3144104872
 10
-3.3888215721
 20
-5.3327031697
 10
-3.368098785
 20
-5.3536448295
 10
-3.3459660776
 20
-5.3765788484
 10
-3.3221246878
 20
-5.4007170225
 10
-3.2968733777
 20
-5.425644732
 10
-3.271108434
 20
-5.4514364921
 10
-3.2451286189
 20
-5.4779079032
 10
-3.2186351702
 20
-5.5045131335
 10
-3.1916280879
 20
-5.5309168381
  0
LINE
  5
44B
100
AcDbEntity
  8
0
100
AcDbLine
 62
7
  6
CONTINUOUS
 10
-8.4547574686
 20
-1.5865792708
 11
-8.491413105
 21
-1.5499236345
  0
LINE
  5
44C
100
AcDbEntity
  8
DRAFT
100
AcDbLine
 62
7
  6
CONTINUOUS
 10
-8.4547574686
 20
-1.5865792708
 11
-8.491413105
 21
-1.5499236345
  0
LINE
  5
44D
100
AcDbEntity
  8
0
100
AcDbLine
 62
7
  6
CONTINUOUS
 10
-8.4547574686
 20
-1.3865792708
 11
-8.491413105
 21
-1.3499236345
  0
LINE
  5
44E
100
AcDbEntity
  8
DRAFT
100
AcDbLine
 62
7
  6
CONTINUOUS
 10
-8.4547574686
 20
-1.3865792708
 11
-8.491413105
 21
-1.3499236345
  0
LWPOLYLINE
  5
44F
100
AcDbEntity
  8
ASSI
100
AcDbPolyline
 62
253
  6
CONTINUOUS
 90
4
 70
0
 10
-19.3678944646
 20
-6.1734118139
 10
-19.3679373171
 20
-6.1729006064
 10
-19.3679808942
 20
-6.1717559653
 10
-19.3680251962
 20
-6.1699311031
  0
LWPOLYLINE
  5
450
100
AcDbEntity
  8
ASSI
100
AcDbPolyline
 62
253
  6
CONTINUOUS
 90
9
 70
0
 10
-22.5411918074
 20
42.594324417
 10
-22.5412384287
 20
42.5956595521
 10
-22.5412861507
 20
42.5968294886
 10
-22.5413349832
 20
42.5978327451
 10
-22.5413849162
 20
42.598670803
 10
-22.5414354369
 20
42.5993357246
 10
-22.5414863742
 20
42.5998248639
 10
-22.5415378992
 20
42.6001408667
 10
-22.5415900117
 20
42.6002837332
  0
LINE
  5
451
100
AcDbEntity
  8
ASSI
100
AcDbLine
 62
7
  6
CONTINUOUS
 10
-23.0373024037
 20
36.73607046
 11
-23.0547574686
 21
37.3134207292
  0
LINE
  5
452
100
AcDbEntity
  8
ASSI
100
AcDbLine
 62
7
  6
CONTINUOUS
 10
-21.2547574686
 20
-4.8092290016
 11
-21.2415900117
 21
-5.2447607414
  0
LINE
  5
453
100
AcDbEntity
  8
ASSI
100
AcDbLine
 62
253
  6
CONTINUOUS
 10
-22.5411033105
 20
42.591193078
 11
-22.5411918074
 21
42.594324417
  0
LINE
  5
454
100
AcDbEntity
  8
ASSI
100
AcDbLine
 62
253
  6
CONTINUOUS
 10
-22.5410216393
 20
42.5874680974
 11
-22.5411033105
 21
42.591193078
  0
LWPOLYLINE
  5
455
100
AcDbEntity
  8
ASSI
100
AcDbPolyline
 62
253
  6
CONTINUOUS
 90
4
 70
0
 10
-22.3414659525
 20
42.7955139987
 10
-22.341516877
 20
42.7979712532
 10
-22.3415683837
 20
42.799552673
 10
-22.3416204727
 20
42.8002532723
  0
LWPOLYLINE
  5
456
100
AcDbEntity
  8
RACCORDO
100
AcDbPolyline
 62
253
  6
CONTINUOUS
 90
10
 70
0
 10
-22.6006764878
 20
34.0491714441
 10
-22.6019080236
 20
34.1333363057
 10
-22.6032018181
 20
34.2087305239
 10
-22.6045403411
 20
34.2749921056
 10
-22.6059245011
 20
34.331760994
 10
-22.6073533897
 20
34.3787046291
 10
-22.6088067517
 20
34.4155501219
 10
-22.6102778354
 20
34.4420656786
 10
-22.6117733925
 20
34.4580665101
 10
-22.6132934231
 20
34.4634207292
  0
LWPOLYLINE
  5
457
100
AcDbEntity
  8
ASSI
100
AcDbPolyline
 62
253
  6
CONTINUOUS
 90
10
 70
0
 10
-22.6006764878
 20
34.0491714441
 10
-22.6019080236
 20
34.1333363057
 10
-22.6032018181
 20
34.2087305239
 10
-22.6045403411
 20
34.2749921056
 10
-22.6059245011
 20
34.331760994
 10
-22.6073533897
 20
34.3787046291
 10
-22.6088067517
 20
34.4155501219
 10
-22.6102778354
 20
34.4420656786
 10
-22.6117733925
 20
34.4580665101
 10
-22.6132934231
 20
34.4634207292
  0
LINE
  5
458
100
AcDbEntity
  8
ASSI
100
AcDbLine
 62
253
  6
CONTINUOUS
 10
-22.5409152283
 20
42.5809065771
 11
-22.5410216393
 21
42.5874680974
  0
LWPOLYLINE
  5
459
100
AcDbEntity
  8
RACCORDO
100
AcDbPolyline
 62
253
  6
CONTINUOUS
 90
11
 70
0
 10
-22.5995081085
 20
28.9566745676
 10
-22.6006764878
 20
29.0491714441
 10
-22.6019080236
 20
29.1333363057
 10
-22.6032018181
 20
29.2087305239
 10
-22.6045403411
 20
29.2749921056
 10
-22.6059245011
 20
29.331760994
 10
-22.6073533897
 20
29.3787046291
 10
-22.6088067517
 20
29.4155501219
 10
-22.6102778354
 20
29.4420656786
 10
-22.6117733925
 20
29.4580665101
 10
-22.6132934231
 20
29.4634207292
  0
LWPOLYLINE
  5
45A
100
AcDbEntity
  8
ASSI
100
AcDbPolyline
 62
253
  6
CONTINUOUS
 90
11
 70
0
 10
-22.5995081085
 20
28.9566745676
 10
-22.6006764878
 20
29.0491714441
 10
-22.6019080236
 20
29.1333363057
 10
-22.6032018181
 20
29.2087305239
 10
-22.6045403411
 20
29.2749921056
 10
-22.6059245011
 20
29.331760994
 10
-22.6073533897
 20
29.3787046291
 10
-22.6088067517
 20
29.4155501219
 10
-22.6102778354
 20
29.4420656786
 10
-22.6117733925
 20
29.4580665101
 10
-22.6132934231
 20
29.4634207292
  0
LINE
  5
45B
100
AcDbEntity
  8
ASSI
100
AcDbLine
 62
253
  6
CONTINUOUS
 10
-22.3413655049
 20
42.788008521
 11
-22.3414659525
 21
42.7955139987
  0
LINE
  5
45C
100
AcDbEntity
  8
RACCORDO
100
AcDbLine
 62
253
  6
CONTINUOUS
 10
-22.598401988
 20
33.8563161597
 11
-22.6006764878
 21
34.0491714441
  0
LINE
  5
45D
100
AcDbEntity
  8
ASSI
100
AcDbLine
 62
253
  6
CONTINUOUS
 10
-22.598401988
 20
33.8563161597
 11
-22.6006764878
 21
34.0491714441
  0
LINE
  5
45E
100
AcDbEntity
  8
ASSI
100
AcDbLine
 62
253
  6
CONTINUOUS
 10
-22.5408099139
 20
42.5708782951
 11
-22.5409152283
 21
42.5809065771
  0
LINE
  5
45F
100
AcDbEntity
  8
RACCORDO
100
AcDbLine
 62
253
  6
CONTINUOUS
 10
-22.5964219898
 20
33.633860083
 11
-22.598401988
 21
33.8563161597
  0
LINE
  5
460
100
AcDbEntity
  8
ASSI
100
AcDbLine
 62
253
  6
CONTINUOUS
 10
-22.5964219898
 20
33.633860083
 11
-22.598401988
 21
33.8563161597
  0
LINE
  5
461
100
AcDbEntity
  8
ASSI
100
AcDbLine
 62
253
  6
CONTINUOUS
 10
-22.3411772949
 20
42.7630191763
 11
-22.3413655049
 21
42.788008521
  0
LINE
  5
462
100
AcDbEntity
  8
ASSI
100
AcDbLine
 62
253
  6
CONTINUOUS
 10
-22.5407421927
 20
42.5577257681
 11
-22.5408099139
 21
42.5708782951
  0
LINE
  5
463
100
AcDbEntity
  8
ASSI
100
AcDbLine
 62
253
  6
CONTINUOUS
 10
-22.3408290499
 20
-5.4354923972
 11
-22.3411993277
 21
-5.3144104872
  0
LINE
  5
464
100
AcDbEntity
  8
ASSI
100
AcDbLine
 62
253
  6
CONTINUOUS
 10
-22.3407914146
 20
42.6135830895
 11
-22.3411772949
 21
42.7630191763
  0
LINE
  5
465
100
AcDbEntity
  8
ASSI
100
AcDbLine
 62
253
  6
CONTINUOUS
 10
-22.3407739134
 20
-5.4913069921
 11
-22.3408290499
 21
-5.4354923972
  0
LINE
  5
466
100
AcDbEntity
  8
ASSI
100
AcDbLine
 62
253
  6
CONTINUOUS
 10
-22.3407629505
 20
-5.5309194355
 11
-22.3407739134
 21
-5.4913069921
  0
LINE
  5
467
100
AcDbEntity
  8
ASSI
100
AcDbLine
 62
7
  6
CONTINUOUS
 10
-21.7547574686
 20
15.1634207292
 11
-21.7547574686
 21
19.4634207292
  0
LINE
  5
468
100
AcDbEntity
  8
ASSI
100
AcDbLine
 62
7
  6
CONTINUOUS
 10
-21.7547574686
 20
20.1634207292
 11
-21.7547574686
 21
24.4634207292
  0
LINE
  5
469
100
AcDbEntity
  8
ASSI
100
AcDbLine
 62
7
  6
CONTINUOUS
 10
-21.7547574686
 20
25.1634207292
 11
-21.7547574686
 21
29.4634207292
  0
LINE
  5
46A
100
AcDbEntity
  8
ASSI
100
AcDbLine
 62
7
  6
CONTINUOUS
 10
-21.7547574686
 20
30.1634207292
 11
-21.7547574686
 21
34.4634207292
  0
LINE
  5
46B
100
AcDbEntity
  8
ASSI
100
AcDbLine
 62
7
  6
CONTINUOUS
 10
-21.2547574686
 20
41.43607046
 11
-21.2547574686
 21
40.7134207292
  0
LINE
  5
46C
100
AcDbEntity
  8
ASSI
100
AcDbLine
 62
7
  6
CONTINUOUS
 10
-21.2547574686
 20
-4.0865792708
 11
-21.2547574686
 21
-4.8092290016
  0
LINE
  5
46D
100
AcDbEntity
  8
ASSI
100
AcDbLine
 62
253
  6
CONTINUOUS
 10
-21.2415900117
 20
41.8716021998
 11
-21.2415900117
 21
40.7002532723
  0
LINE
  5
46E
100
AcDbEntity
  8
ASSI
100
AcDbLine
 62
253
  6
CONTINUOUS
 10
-21.2415900117
 20
-4.0734118139
 11
-21.2415900117
 21
-5.2447607414
  0
LINE
  5
46F
100
AcDbEntity
  8
0
100
AcDbLine
 62
253
  6
CONTINUOUS
 10
-21.1547574686
 20
-0.2865792708
 11
-21.1547574686
 21
0.1003304275
  0
LINE
  5
470
100
AcDbEntity
  8
ASSI
100
AcDbLine
 62
253
  6
CONTINUOUS
 10
-20.9916280879
 20
42.1577582965
 11
-20.9916280879
 21
40.6959656643
  0
LINE
  5
471
100
AcDbEntity
  8
ASSI
100
AcDbLine
 62
253
  6
CONTINUOUS
 10
-20.9916280879
 20
-4.0691242059
 11
-20.9916280879
 21
-5.5309168381
  0
LINE
  5
472
100
AcDbEntity
  8
ASSI
100
AcDbLine
 62
253
  6
CONTINUOUS
 10
-20.7178868493
 20
42.1577582965
 11
-20.7178868493
 21
40.6959656643
  0
LINE
  5
473
100
AcDbEntity
  8
ASSI
100
AcDbLine
 62
253
  6
CONTINUOUS
 10
-20.7178868493
 20
-4.0691242059
 11
-20.7178868493
 21
-5.5309168381
  0
LINE
  5
474
100
AcDbEntity
  8
ASSI
100
AcDbLine
 62
253
  6
CONTINUOUS
 10
-22.3410351045
 20
41.9763689659
 11
-22.3407914146
 21
42.6135830895
  0
LINE
  5
475
100
AcDbEntity
  8
ASSI
100
AcDbLine
 62
253
  6
CONTINUOUS
 10
-22.3410893138
 20
-6.1184027544
 11
-22.3407629511
 21
-5.5309194355
  0
LINE
  5
476
100
AcDbEntity
  8
ASSI
100
AcDbLine
 62
253
  6
CONTINUOUS
 10
-22.3411993353
 20
41.9412506436
 11
-22.3410351045
 21
41.9763689659
  0
LINE
  5
477
100
AcDbEntity
  8
ASSI
100
AcDbLine
 62
253
  6
CONTINUOUS
 10
-22.5407874725
 20
-5.9409158021
 11
-22.5407386898
 21
-5.9293944167
  0
LINE
  5
478
100
AcDbEntity
  8
ASSI
100
AcDbLine
 62
253
  6
CONTINUOUS
 10
-22.3413082792
 20
-6.15518753
 11
-22.3410893138
 21
-6.1184027544
  0
LINE
  5
479
100
AcDbEntity
  8
ASSI
100
AcDbLine
 62
253
  6
CONTINUOUS
 10
-22.5408826511
 20
-5.9514875038
 11
-22.5407874725
 21
-5.9409158021
  0
LINE
  5
47A
100
AcDbEntity
  8
ASSI
100
AcDbLine
 62
253
  6
CONTINUOUS
 10
-22.3413999286
 20
-6.1641641645
 11
-22.3413082792
 21
-6.15518753
  0
LINE
  5
47B
100
AcDbEntity
  8
ASSI
100
AcDbLine
 62
253
  6
CONTINUOUS
 10
-22.5409816424
 20
-5.9584270838
 11
-22.5408826511
 21
-5.9514875038
  0
LINE
  5
47C
100
AcDbEntity
  8
ASSI
100
AcDbLine
 62
253
  6
CONTINUOUS
 10
-22.5410588933
 20
-5.9624405757
 11
-22.5409816424
 21
-5.9584270838
  0
LINE
  5
47D
100
AcDbEntity
  8
ASSI
100
AcDbLine
 62
7
  6
CONTINUOUS
 10
-23.0547574686
 20
-0.6865792708
 11
-23.0373024037
 21
-0.1092290016
  0
LINE
  5
47E
100
AcDbEntity
  8
ASSI
100
AcDbLine
 62
7
  6
CONTINUOUS
 10
-21.2415900117
 20
41.8716021998
 11
-21.2547574686
 21
41.43607046
  0
LWPOLYLINE
  5
47F
100
AcDbEntity
  8
RACCORDO
100
AcDbPolyline
 62
253
  6
CONTINUOUS
 90
9
 70
0
 10
-22.6088083127
 20
15.211257869
 10
-22.6073554351
 20
15.248077548
 10
-22.6059270043
 20
15.2949885518
 10
-22.6045432243
 20
15.3517199939
 10
-22.6032049903
 20
15.4179408186
 10
-22.6019114072
 20
15.4932919429
 10
-22.6006799928
 20
15.5774137148
 10
-22.5995116359
 20
15.6698691397
 10
-22.5973762804
 20
15.8779375631
  0
LWPOLYLINE
  5
480
100
AcDbEntity
  8
ASSI
100
AcDbPolyline
 62
253
  6
CONTINUOUS
 90
9
 70
0
 10
-22.6088083127
 20
15.211257869
 10
-22.6073554351
 20
15.248077548
 10
-22.6059270043
 20
15.2949885518
 10
-22.6045432243
 20
15.3517199939
 10
-22.6032049903
 20
15.4179408186
 10
-22.6019114072
 20
15.4932919429
 10
-22.6006799928
 20
15.5774137148
 10
-22.5995116359
 20
15.6698691397
 10
-22.5973762804
 20
15.8779375631
  0
LWPOLYLINE
  5
481
100
AcDbEntity
  8
RACCORDO
100
AcDbPolyline
 62
253
  6
CONTINUOUS
 90
4
 70
0
 10
-22.6132934231
 20
15.1634207292
 10
-22.6117739394
 20
15.1687711753
 10
-22.6102789026
 20
15.1847607845
 10
-22.6088083127
 20
15.211257869
  0
LWPOLYLINE
  5
482
100
AcDbEntity
  8
ASSI
100
AcDbPolyline
 62
253
  6
CONTINUOUS
 90
4
 70
0
 10
-22.6132934231
 20
15.1634207292
 10
-22.6117739394
 20
15.1687711753
 10
-22.6102789026
 20
15.1847607845
 10
-22.6088083127
 20
15.211257869
  0
LWPOLYLINE
  5
483
100
AcDbEntity
  8
ASSI
100
AcDbPolyline
 62
7
  6
CONTINUOUS
 90
10
 70
0
 10
-3.4081344389
 20
41.9412519455
 10
-3.3898417564
 20
41.9605648123
 10
-3.3689000965
 20
41.9812875994
 10
-3.3459660776
 20
42.0034203068
 10
-3.3218279035
 20
42.0272616966
 10
-3.2969001941
 20
42.0525130067
 10
-3.271108434
 20
42.0782779504
 10
-3.2446370228
 20
42.1042577655
 10
-3.2180317925
 20
42.1307512142
 10
-3.1916280879
 20
42.1577582965
  0
LINE
  5
484
100
AcDbEntity
  8
ASSI
100
AcDbLine
 62
253
  6
CONTINUOUS
 10
-1.5547270077
 20
42.8134207292
 11
-1.5678944646
 21
42.8002532723
  0
LINE
  5
485
100
AcDbEntity
  8
ASSI
100
AcDbLine
 62
253
  6
CONTINUOUS
 10
-1.3547574686
 20
42.6134511902
 11
-1.3679249255
 21
42.6002837332
  0
LINE
  5
486
100
AcDbEntity
  8
0
100
AcDbLine
 62
7
  6
CONTINUOUS
 10
-5.3674887907
 20
38.1006894071
 11
-5.4547574686
 21
38.0134207292
  0
LINE
  5
487
100
AcDbEntity
  8
ASSI
100
AcDbLine
 62
7
  6
CONTINUOUS
 10
-2.6547574686
 20
40.7134207292
 11
-2.6679249255
 21
40.7002532723
  0
LINE
  5
488
100
AcDbEntity
  8
ASSI
100
AcDbLine
 62
253
  6
CONTINUOUS
 10
-1.5678944646
 20
-6.1734118139
 11
-1.5547270077
 21
-6.1865792708
  0
LINE
  5
489
100
AcDbEntity
  8
ASSI
100
AcDbLine
 62
253
  6
CONTINUOUS
 10
-1.3679249255
 20
-5.9734422749
 11
-1.3547574686
 21
-5.9866097318
  0
LINE
  5
48A
100
AcDbEntity
  8
0
100
AcDbLine
 62
7
  6
CONTINUOUS
 10
-5.3674887907
 20
-1.4738479487
 11
-5.4547574686
 21
-1.3865792708
  0
LINE
  5
48B
100
AcDbEntity
  8
ASSI
100
AcDbLine
 62
7
  6
CONTINUOUS
 10
-2.6547574686
 20
-4.0865792708
 11
-2.6679249255
 21
-4.0734118139
  0
LWPOLYLINE
  5
48C
100
AcDbEntity
  8
ASSI
100
AcDbPolyline
 62
253
  6
CONTINUOUS
 90
13
 70
0
 10
-22.5411688667
 20
42.1144570263
 10
-22.5392505128
 20
42.0919732551
 10
-22.5339809422
 20
42.0698699305
 10
-22.5254493209
 20
42.0485210621
 10
-22.5138000118
 20
42.0282878934
 10
-22.4992301325
 20
42.0095127891
 10
-22.4819862191
 20
41.9925134422
 10
-22.4623600548
 20
41.9775774981
 10
-22.4406837333
 20
41.9649576875
 10
-22.417324039
 20
41.9548675503
 10
-22.3926762404
 20
41.9474778215
 10
-22.3671574022
 20
41.9429135425
 10
-22.3411993277
 20
41.9412519455
  0
LINE
  5
48D
100
AcDbEntity
  8
ASSI
100
AcDbLine
 62
7
  6
CONTINUOUS
 10
-20.4679249255
 20
41.8716021998
 11
-20.4547574686
 21
41.43607046
  0
LINE
  5
48E
100
AcDbEntity
  8
ASSI
100
AcDbLine
 62
253
  6
CONTINUOUS
 10
-19.1683292894
 20
-5.9672920159
 11
-19.1684159384
 21
-5.9641762421
  0
LINE
  5
48F
100
AcDbEntity
  8
ASSI
100
AcDbLine
 62
253
  6
CONTINUOUS
 10
-19.1684159384
 20
-5.9641762421
 11
-19.1684962754
 21
-5.9604690474
  0
LINE
  5
490
100
AcDbEntity
  8
ASSI
100
AcDbLine
 62
253
  6
CONTINUOUS
 10
-19.1684962754
 20
-5.9604690474
 11
-19.1686017575
 21
-5.9539110085
  0
LINE
  5
491
100
AcDbEntity
  8
ASSI
100
AcDbLine
 62
253
  6
CONTINUOUS
 10
-19.3680251962
 20
-6.1699311031
 11
-19.3681165208
 21
-6.1640421128
  0
LINE
  5
492
100
AcDbEntity
  8
ASSI
100
AcDbLine
 62
253
  6
CONTINUOUS
 10
-19.1686017575
 20
-5.9539110085
 11
-19.1687077406
 21
-5.9436876279
  0
LINE
  5
493
100
AcDbEntity
  8
ASSI
100
AcDbLine
 62
253
  6
CONTINUOUS
 10
-19.1686242421
 20
42.1290500265
 11
-19.168723216
 21
42.1396529108
  0
LINE
  5
494
100
AcDbEntity
  8
ASSI
100
AcDbLine
 62
253
  6
CONTINUOUS
 10
-19.3681165208
 20
-6.1640421128
 11
-19.3682988473
 21
-6.142661967
  0
LINE
  5
495
100
AcDbEntity
  8
ASSI
100
AcDbLine
 62
253
  6
CONTINUOUS
 10
-19.1687077406
 20
-5.9436876279
 11
-19.1687685652
 21
-5.9323312274
  0
LINE
  5
496
100
AcDbEntity
  8
ASSI
100
AcDbLine
 62
253
  6
CONTINUOUS
 10
-19.168723216
 20
42.1396529108
 11
-19.168775732
 21
42.1515777265
  0
LINE
  5
497
100
AcDbEntity
  8
ASSI
100
AcDbLine
 62
253
  6
CONTINUOUS
 10
-19.3682988473
 20
-6.142661967
 11
-19.3686296033
 21
-6.0511031125
  0
LINE
  5
498
100
AcDbEntity
  8
ASSI
100
AcDbLine
 62
253
  6
CONTINUOUS
 10
-19.3683156095
 20
41.9412519455
 11
-19.3686481916
 21
42.0395793297
  0
LINE
  5
499
100
AcDbEntity
  8
0
100
AcDbLine
 62
7
  6
CONTINUOUS
 10
-20.5547574686
 20
39.1634207292
 11
-20.5547574686
 21
36.570863329
  0
LINE
  5
49A
100
AcDbEntity
  8
DRAFT
100
AcDbLine
 62
7
  6
CONTINUOUS
 10
-20.5547574686
 20
39.1634207292
 11
-20.5547574686
 21
36.570863329
  0
LINE
  5
49B
100
AcDbEntity
  8
0
100
AcDbLine
 62
7
  6
CONTINUOUS
 10
-20.5547574686
 20
-0.2865792708
 11
-20.5547574686
 21
-2.5365792708
  0
LINE
  5
49C
100
AcDbEntity
  8
DRAFT
100
AcDbLine
 62
7
  6
CONTINUOUS
 10
-20.5547574686
 20
-0.2865792708
 11
-20.5547574686
 21
-2.5365792708
  0
LINE
  5
49D
100
AcDbEntity
  8
ASSI
100
AcDbLine
 62
253
  6
CONTINUOUS
 10
-20.4679249255
 20
41.8716021998
 11
-20.4679249255
 21
40.7002532723
  0
LINE
  5
49E
100
AcDbEntity
  8
ASSI
100
AcDbLine
 62
253
  6
CONTINUOUS
 10
-20.4679249255
 20
-4.0734118139
 11
-20.4679249255
 21
-5.2447607414
  0
LINE
  5
49F
100
AcDbEntity
  8
ASSI
100
AcDbLine
 62
7
  6
CONTINUOUS
 10
-20.4547574686
 20
41.43607046
 11
-20.4547574686
 21
40.7134207292
  0
LINE
  5
4A0
100
AcDbEntity
  8
ASSI
100
AcDbLine
 62
7
  6
CONTINUOUS
 10
-20.4547574686
 20
-4.0865792708
 11
-20.4547574686
 21
-4.8092290016
  0
LINE
  5
4A1
100
AcDbEntity
  8
ASSI
100
AcDbLine
 62
7
  6
CONTINUOUS
 10
-20.1873024037
 20
39.7185341393
 11
-20.1873024037
 21
39.2134207292
  0
LINE
  5
4A2
100
AcDbEntity
  8
ASSI
100
AcDbLine
 62
7
  6
CONTINUOUS
 10
-20.1873024037
 20
-3.091692681
 11
-20.1873024037
 21
-2.5865792708
  0
LINE
  5
4A3
100
AcDbEntity
  8
ASSI
100
AcDbLine
 62
7
  6
CONTINUOUS
 10
-20.0127517544
 20
-2.9118762935
 11
-20.0127517544
 21
-2.6738479487
  0
LINE
  5
4A4
100
AcDbEntity
  8
ASSI
100
AcDbLine
 62
7
  6
CONTINUOUS
 10
-20.0127517544
 20
39.3006894071
 11
-20.0127517544
 21
39.5387177519
  0
LINE
  5
4A5
100
AcDbEntity
  8
0
100
AcDbLine
 62
7
  6
CONTINUOUS
 10
-19.4088681699
 20
-2.5365792708
 11
-19.4088681699
 21
-0.2865792708
  0
LINE
  5
4A6
100
AcDbEntity
  8
DRAFT
100
AcDbLine
 62
7
  6
CONTINUOUS
 10
-19.4088681699
 20
-2.5365792708
 11
-19.4088681699
 21
-0.2865792708
  0
LINE
  5
4A7
100
AcDbEntity
  8
0
100
AcDbLine
 62
7
  6
CONTINUOUS
 10
-19.4088681699
 20
36.570863329
 11
-19.4088681699
 21
39.1634207292
  0
LINE
  5
4A8
100
AcDbEntity
  8
DRAFT
100
AcDbLine
 62
7
  6
CONTINUOUS
 10
-19.4088681699
 20
36.570863329
 11
-19.4088681699
 21
39.1634207292
  0
LINE
  5
4A9
100
AcDbEntity
  8
0
100
AcDbLine
 62
7
  6
CONTINUOUS
 10
-19.391413105
 20
37.9767650928
 11
-19.391413105
 21
36.5795901968
  0
LINE
  5
4AA
100
AcDbEntity
  8
DRAFT
100
AcDbLine
 62
7
  6
CONTINUOUS
 10
-19.391413105
 20
37.9767650928
 11
-19.391413105
 21
36.5795901968
  0
LINE
  5
4AB
100
AcDbEntity
  8
0
100
AcDbLine
 62
7
  6
CONTINUOUS
 10
-19.391413105
 20
-1.3499236345
 11
-19.391413105
 21
-0.2865792708
  0
LINE
  5
4AC
100
AcDbEntity
  8
DRAFT
100
AcDbLine
 62
7
  6
CONTINUOUS
 10
-19.391413105
 20
-1.3499236345
 11
-19.391413105
 21
-0.2865792708
  0
LINE
  5
4AD
100
AcDbEntity
  8
ASSI
100
AcDbLine
 62
253
  6
CONTINUOUS
 10
-19.3686296033
 20
-6.0511031125
 11
-19.3687519862
 21
-5.9234498901
  0
LINE
  5
4AE
100
AcDbEntity
  8
0
100
AcDbLine
 62
7
  6
CONTINUOUS
 10
-19.3547574686
 20
-2.5365792708
 11
-19.3547574686
 21
-1.3865792708
  0
LINE
  5
4AF
100
AcDbEntity
  8
DRAFT
100
AcDbLine
 62
7
  6
CONTINUOUS
 10
-19.3547574686
 20
-2.5365792708
 11
-19.3547574686
 21
-1.3865792708
  0
LINE
  5
4B0
100
AcDbEntity
  8
0
100
AcDbLine
 62
7
  6
CONTINUOUS
 10
-19.3547574686
 20
38.0134207292
 11
-19.3547574686
 21
39.1634207292
  0
LINE
  5
4B1
100
AcDbEntity
  8
DRAFT
100
AcDbLine
 62
7
  6
CONTINUOUS
 10
-19.3547574686
 20
38.0134207292
 11
-19.3547574686
 21
39.1634207292
  0
LINE
  5
4B2
100
AcDbEntity
  8
0
100
AcDbLine
 62
7
  6
CONTINUOUS
 10
-19.2547574686
 20
-1.3865792708
 11
-19.2547574686
 21
-2.5865792708
  0
LINE
  5
4B3
100
AcDbEntity
  8
0
100
AcDbLine
 62
7
  6
CONTINUOUS
 10
-19.2547574686
 20
38.0134207292
 11
-19.2547574686
 21
39.2134207292
  0
LINE
  5
4B4
100
AcDbEntity
  8
ASSI
100
AcDbLine
 62
7
  6
CONTINUOUS
 10
-19.1674887907
 20
39.3006894071
 11
-19.1674887907
 21
38.1006894071
  0
LINE
  5
4B5
100
AcDbEntity
  8
ASSI
100
AcDbLine
 62
7
  6
CONTINUOUS
 10
-19.1674887907
 20
-1.4738479487
 11
-19.1674887907
 21
-2.6738479487
  0
LINE
  5
4B6
100
AcDbEntity
  8
ASSI
100
AcDbLine
 62
7
  6
CONTINUOUS
 10
-19.1547574686
 20
42.6134511902
 11
-19.1547574686
 21
40.7134207292
  0
LINE
  5
4B7
100
AcDbEntity
  8
ASSI
100
AcDbLine
 62
7
  6
CONTINUOUS
 10
-19.1547574686
 20
-4.0865792708
 11
-19.1547574686
 21
-5.9866097318
  0
LINE
  5
4B8
100
AcDbEntity
  8
ASSI
100
AcDbLine
 62
253
  6
CONTINUOUS
 10
-19.3686481916
 20
42.0395793297
 11
-19.3687512075
 21
42.5624985592
  0
LINE
  5
4B9
100
AcDbEntity
  8
ASSI
100
AcDbLine
 62
253
  6
CONTINUOUS
 10
-19.168775732
 20
42.1515777265
 11
-19.1687816749
 21
42.5527464494
  0
LINE
  5
4BA
100
AcDbEntity
  8
ASSI
100
AcDbLine
 62
253
  6
CONTINUOUS
 10
-19.1687685652
 20
-5.9323312274
 11
-19.1687816552
 21
-5.5284162065
  0
LINE
  5
4BB
100
AcDbEntity
  8
ASSI
100
AcDbLine
 62
253
  6
CONTINUOUS
 10
-19.3687519862
 20
-5.9234498901
 11
-19.368621006
 21
-5.3992179707
  0
LINE
  5
4BC
100
AcDbEntity
  8
ASSI
100
AcDbLine
 62
253
  6
CONTINUOUS
 10
-19.3687512075
 20
42.5624985592
 11
-19.3685684456
 21
42.7036535157
  0
LINE
  5
4BD
100
AcDbEntity
  8
ASSI
100
AcDbLine
 62
253
  6
CONTINUOUS
 10
-19.1687816749
 20
42.5527464494
 11
-19.1687400408
 21
42.5656872161
  0
LINE
  5
4BE
100
AcDbEntity
  8
ASSI
100
AcDbLine
 62
253
  6
CONTINUOUS
 10
-19.1687816552
 20
-5.5284162065
 11
-19.1687383123
 21
-5.515218346
  0
LINE
  5
4BF
100
AcDbEntity
  8
ASSI
100
AcDbLine
 62
253
  6
CONTINUOUS
 10
-19.368621006
 20
-5.3992179707
 11
-19.3683156095
 21
-5.3144104872
  0
LINE
  5
4C0
100
AcDbEntity
  8
ASSI
100
AcDbLine
 62
253
  6
CONTINUOUS
 10
-19.3685684456
 20
42.7036535157
 11
-19.3682463661
 21
42.7770895216
  0
LINE
  5
4C1
100
AcDbEntity
  8
ASSI
100
AcDbLine
 62
253
  6
CONTINUOUS
 10
-19.1687400408
 20
42.5656872161
 11
-19.168657142
 21
42.576096342
  0
LWPOLYLINE
  5
4C2
100
AcDbEntity
  8
ASSI
100
AcDbPolyline
 62
253
  6
CONTINUOUS
 90
3
 70
0
 10
-19.1687383123
 20
-5.515218346
 10
-19.1686514733
 20
-5.5045814574
 10
-19.1686221776
 20
-5.5020428561
  0
LWPOLYLINE
  5
4C3
100
AcDbEntity
  8
ASSI
100
AcDbPolyline
 62
253
  6
CONTINUOUS
 90
6
 70
0
 10
-19.3682463661
 20
42.7770895216
 10
-19.3680998604
 20
42.7921713426
 10
-19.3680492916
 20
42.7955035898
 10
-19.3679982891
 20
42.7979662652
 10
-19.3679466801
 20
42.799551224
 10
-19.3678944646
 20
42.8002532723
  0
LINE
  5
4C4
100
AcDbEntity
  8
ASSI
100
AcDbLine
 62
253
  6
CONTINUOUS
 10
-19.168657142
 20
42.576096342
 11
-19.1685660025
 21
42.5832455236
  0
LINE
  5
4C5
100
AcDbEntity
  8
ASSI
100
AcDbLine
 62
253
  6
CONTINUOUS
 10
-19.1685660025
 20
42.5832455236
 11
-19.1684930102
 21
42.5874828997
  0
LINE
  5
4C6
100
AcDbEntity
  8
ASSI
100
AcDbLine
 62
253
  6
CONTINUOUS
 10
-19.1684930102
 20
42.5874828997
 11
-19.1684116888
 21
42.5911910003
  0
LINE
  5
4C7
100
AcDbEntity
  8
ASSI
100
AcDbLine
 62
7
  6
CONTINUOUS
 10
-20.4547574686
 20
-4.8092290016
 11
-20.4679249255
 21
-5.2447607414
  0
LWPOLYLINE
  5
4C8
100
AcDbEntity
  8
ASSI
100
AcDbPolyline
 62
253
  6
CONTINUOUS
 90
10
 70
0
 10
-19.1684116888
 20
42.5911910003
 10
-19.1683234024
 20
42.5943156064
 10
-19.1682768166
 20
42.5956513142
 10
-19.1682291023
 20
42.5968223873
 10
-19.1681802459
 20
42.5978270218
 10
-19.1681302608
 20
42.5986670217
 10
-19.1680796827
 20
42.5993335741
 10
-19.1680286901
 20
42.5998237413
 10
-19.1679771043
 20
42.600140461
 10
-19.1679249255
 20
42.6002837332
  0
LWPOLYLINE
  5
4C9
100
AcDbEntity
  8
ASSI
100
AcDbPolyline
 62
253
  6
CONTINUOUS
 90
5
 70
0
 10
-22.3416204727
 20
-6.1734118139
 10
-22.3415780601
 20
-6.172908817
 10
-22.3415348543
 20
-6.1717827794
 10
-22.3414908553
 20
-6.1699846949
 10
-22.3413999286
 20
-6.1641641645
  0
LWPOLYLINE
  5
4CA
100
AcDbEntity
  8
ASSI
100
AcDbPolyline
 62
253
  6
CONTINUOUS
 90
13
 70
0
 10
-22.5411688667
 20
-5.4876155679
 10
-22.5392505124
 20
-5.4651317941
 10
-22.5339809407
 20
-5.4430284675
 10
-22.5254493179
 20
-5.4216795977
 10
-22.5138000072
 20
-5.4014464282
 10
-22.4992301263
 20
-5.3826713238
 10
-22.4819862115
 20
-5.3656719774
 10
-22.4623600467
 20
-5.3507360344
 10
-22.4406837255
 20
-5.3381162253
 10
-22.4173240321
 20
-5.3280260895
 10
-22.3926762352
 20
-5.3206363619
 10
-22.3671573993
 20
-5.3160720838
 10
-22.3411993277
 20
-5.3144104872
  0
LINE
  5
4CB
100
AcDbEntity
  8
ASSI
100
AcDbLine
 62
253
  6
CONTINUOUS
 10
-1.354757404
 20
40.7134206646
 11
-1.3721363811
 21
40.6959656643
  0
LINE
  5
4CC
100
AcDbEntity
  8
SMUSSO
100
AcDbLine
 62
7
  6
CONTINUOUS
 10
-12.2047574686
 20
30.0634207292
 11
-11.7047574686
 21
30.5634207292
  0
LINE
  5
4CD
100
AcDbEntity
  8
ASSI
100
AcDbLine
 62
7
  6
CONTINUOUS
 10
-12.2047574686
 20
30.0634207292
 11
-11.7047574686
 21
30.5634207292
  0
LINE
  5
4CE
100
AcDbEntity
  8
SMUSSO
100
AcDbLine
 62
7
  6
CONTINUOUS
 10
-7.2047574686
 20
34.5634207292
 11
-7.7047574686
 21
34.0634207292
  0
LINE
  5
4CF
100
AcDbEntity
  8
ASSI
100
AcDbLine
 62
7
  6
CONTINUOUS
 10
-7.2047574686
 20
34.5634207292
 11
-7.7047574686
 21
34.0634207292
  0
LINE
  5
4D0
100
AcDbEntity
  8
ASSI
100
AcDbLine
 62
253
  6
CONTINUOUS
 10
-0.8547574686
 20
40.2134968816
 11
-0.8722125335
 21
40.1960418167
  0
LINE
  5
4D1
100
AcDbEntity
  8
CURVE
100
AcDbLine
 62
253
  6
CONTINUOUS
 10
-1.6547574686
 20
28.8419920249
 11
-2.9547574686
 21
28.4705636306
  0
LINE
  5
4D2
100
AcDbEntity
  8
ASSI
100
AcDbLine
 62
253
  6
CONTINUOUS
 10
-0.8722125335
 20
-3.5692003583
 11
-0.8547574686
 21
-3.5866554232
  0
LINE
  5
4D3
100
AcDbEntity
  8
ASSI
100
AcDbLine
 62
253
  6
CONTINUOUS
 10
-1.3721363811
 20
-4.0691242059
 11
-1.3547574686
 21
-4.0865792708
  0
LWPOLYLINE
  5
4D4
100
AcDbEntity
  8
RACCORDO
100
AcDbPolyline
 62
7
  6
CONTINUOUS
 90
13
 70
0
 10
-16.4047574686
 20
-5.436617347
 10
-16.4026196384
 20
-5.4692450056
 10
-16.3962419179
 20
-5.5013139784
 10
-16.3857331914
 20
-5.5322758802
 10
-16.37127289
 20
-5.5616014513
 10
-16.3531081561
 20
-5.5887887086
 10
-16.3315499339
 20
-5.6133717361
 10
-16.3069669064
 20
-5.6349299583
 10
-16.2797796491
 20
-5.6530946922
 10
-16.250454078
 20
-5.6675549936
 10
-16.2194921762
 20
-5.6780637201
 10
-16.1874232034
 20
-5.6844414406
 10
-16.1547955448
 20
-5.6865792708
  0
LWPOLYLINE
  5
4D5
100
AcDbEntity
  8
ASSI
100
AcDbPolyline
 62
7
  6
CONTINUOUS
 90
13
 70
0
 10
-19.1547574686
 20
42.6134511902
 10
-19.1564677328
 20
42.639553317
 10
-19.1615699092
 20
42.6652084953
 10
-19.1699768904
 20
42.6899780167
 10
-19.1815451315
 20
42.7134384736
 10
-19.1960769186
 20
42.7351882794
 10
-19.2133234964
 20
42.7548547014
 10
-19.2329899184
 20
42.7721012792
 10
-19.2547397243
 20
42.7866330663
 10
-19.2782001811
 20
42.7982013074
 10
-19.3029697025
 20
42.8066082886
 10
-19.3286248808
 20
42.811710465
 10
-19.3547270077
 20
42.8134207292
  0
LINE
  5
4D6
100
AcDbEntity
  8
ASSI
100
AcDbLine
 62
253
  6
CONTINUOUS
 10
-19.3530424277
 20
41.43607046
 11
-19.3683156095
 21
41.9412519455
  0
LINE
  5
4D7
100
AcDbEntity
  8
ASSI
100
AcDbLine
 62
253
  6
CONTINUOUS
 10
-19.1547574686
 20
41.6649953374
 11
-19.1683834755
 21
42.1157466366
  0
LINE
  5
4D8
100
AcDbEntity
  8
ASSI
100
AcDbLine
 62
253
  6
CONTINUOUS
 10
-19.1683834755
 20
42.1157466366
 11
-19.1684564474
 21
42.1187861256
  0
LINE
  5
4D9
100
AcDbEntity
  8
ASSI
100
AcDbLine
 62
253
  6
CONTINUOUS
 10
-19.1684564474
 20
42.1187861256
 11
-19.1685613102
 21
42.1244960306
  0
LINE
  5
4DA
100
AcDbEntity
  8
ASSI
100
AcDbLine
 62
253
  6
CONTINUOUS
 10
-19.1685613102
 20
42.1244960306
 11
-19.1686242421
 21
42.1290500265
  0
LINE
  5
4DB
100
AcDbEntity
  8
ASSI
100
AcDbLine
 62
7
  6
CONTINUOUS
 10
-18.5420261465
 20
-2.7611299201
 11
-18.5420261465
 21
-1.4738479487
  0
LINE
  5
4DC
100
AcDbEntity
  8
ASSI
100
AcDbLine
 62
7
  6
CONTINUOUS
 10
-18.5420261465
 20
38.1006894071
 11
-18.5420261465
 21
39.3879713785
  0
LINE
  5
4DD
100
AcDbEntity
  8
0
100
AcDbLine
 62
7
  6
CONTINUOUS
 10
-18.4547574686
 20
-1.3865792708
 11
-18.4547574686
 21
-2.5865792708
  0
LINE
  5
4DE
100
AcDbEntity
  8
0
100
AcDbLine
 62
7
  6
CONTINUOUS
 10
-18.4547574686
 20
38.0134207292
 11
-18.4547574686
 21
39.2134207292
  0
LINE
  5
4DF
100
AcDbEntity
  8
CURVE
100
AcDbLine
 62
7
  6
CONTINUOUS
 10
-17.8297574686
 20
27.6958647292
 11
-17.8297574686
 21
29.1563647292
  0
LINE
  5
4E0
100
AcDbEntity
  8
ASSI
100
AcDbLine
 62
253
  6
CONTINUOUS
 10
-17.6547574686
 20
-0.2865792708
 11
-17.6547574686
 21
0.1003304275
  0
LINE
  5
4E1
100
AcDbEntity
  8
0
100
AcDbLine
 62
7
  6
CONTINUOUS
 10
-17.2547574686
 20
-1.6865792708
 11
-17.2547574686
 21
-2.5865792708
  0
LINE
  5
4E2
100
AcDbEntity
  8
0
100
AcDbLine
 62
7
  6
CONTINUOUS
 10
-17.2547574686
 20
38.3134207292
 11
-17.2547574686
 21
39.2134207292
  0
LINE
  5
4E3
100
AcDbEntity
  8
ASSI
100
AcDbLine
 62
253
  6
CONTINUOUS
 10
-19.1686221776
 20
-5.5020428561
 11
-19.1685176867
 21
-5.4950497526
  0
LINE
  5
4E4
100
AcDbEntity
  8
ASSI
100
AcDbLine
 62
253
  6
CONTINUOUS
 10
-19.1685176867
 20
-5.4950497526
 11
-19.1684361423
 21
-5.4910390506
  0
LINE
  5
4E5
100
AcDbEntity
  8
ASSI
100
AcDbLine
 62
253
  6
CONTINUOUS
 10
-19.1684361423
 20
-5.4910390506
 11
-19.1683460705
 21
-5.4876155679
  0
LINE
  5
4E6
100
AcDbEntity
  8
ASSI
100
AcDbLine
 62
253
  6
CONTINUOUS
 10
-19.3683156095
 20
-5.3144104872
 11
-19.3530424277
 21
-4.8092290016
  0
LINE
  5
4E7
100
AcDbEntity
  8
ASSI
100
AcDbLine
 62
253
  6
CONTINUOUS
 10
-19.1683460705
 20
-5.4876155679
 11
-19.1547574686
 21
-5.038153879
  0
LWPOLYLINE
  5
4E8
100
AcDbEntity
  8
RACCORDO
100
AcDbPolyline
 62
7
  6
CONTINUOUS
 90
13
 70
0
 10
-16.4047574686
 20
42.0634588054
 10
-16.4026196384
 20
42.096086464
 10
-16.3962419179
 20
42.1281554368
 10
-16.3857331914
 20
42.1591173386
 10
-16.37127289
 20
42.1884429096
 10
-16.3531081561
 20
42.215630167
 10
-16.3315499339
 20
42.2402131945
 10
-16.3069669064
 20
42.2617714167
 10
-16.2797796491
 20
42.2799361506
 10
-16.250454078
 20
42.294396452
 10
-16.2194921762
 20
42.3049051785
 10
-16.1874232034
 20
42.3112828989
 10
-16.1547955448
 20
42.3134207292
  0
LWPOLYLINE
  5
4E9
100
AcDbEntity
  8
ASSI
100
AcDbPolyline
 62
7
  6
CONTINUOUS
 90
13
 70
0
 10
-19.1547574686
 20
-5.9866097318
 10
-19.1564677328
 20
-6.0127118586
 10
-19.1615699092
 20
-6.0383670369
 10
-19.1699768904
 20
-6.0631365583
 10
-19.1815451315
 20
-6.0865970152
 10
-19.1960769186
 20
-6.1083468211
 10
-19.2133234964
 20
-6.128013243
 10
-19.2329899184
 20
-6.1452598208
 10
-19.2547397243
 20
-6.159791608
 10
-19.2782001811
 20
-6.1713598491
 10
-19.3029697025
 20
-6.1797668303
 10
-19.3286248808
 20
-6.1848690066
 10
-19.3547270077
 20
-6.1865792708
  0
LINE
  5
4EA
100
AcDbEntity
  8
CURVE
100
AcDbLine
 62
253
  6
CONTINUOUS
 10
-2.7690431746
 20
29.7705636306
 11
-2.5833288806
 21
29.8634207292
  0
LINE
  5
4EB
100
AcDbEntity
  8
CURVE
100
AcDbLine
 62
253
  6
CONTINUOUS
 10
-1.8404717433
 20
29.3062778278
 11
-2.0261860179
 21
29.2134207292
  0
LINE
  5
4EC
100
AcDbEntity
  8
ASSI
100
AcDbLine
 62
7
  6
CONTINUOUS
 10
-17.0802068193
 20
-2.7611299201
 11
-17.0802068193
 21
-1.7738479487
  0
LINE
  5
4ED
100
AcDbEntity
  8
ASSI
100
AcDbLine
 62
7
  6
CONTINUOUS
 10
-17.0802068193
 20
38.4006894071
 11
-17.0802068193
 21
39.3879713785
  0
LINE
  5
4EE
100
AcDbEntity
  8
CURVE
100
AcDbLine
 62
7
  6
CONTINUOUS
 10
-17.0797574686
 20
29.1563647292
 11
-17.0797574686
 21
27.6958647292
  0
LINE
  5
4EF
100
AcDbEntity
  8
ASSI
100
AcDbLine
 62
7
  6
CONTINUOUS
 10
-16.6547574686
 20
0.1003304275
 11
-16.6547574686
 21
-0.2865792708
  0
LINE
  5
4F0
100
AcDbEntity
  8
RACCORDO
100
AcDbLine
 62
7
  6
CONTINUOUS
 10
-16.4047574686
 20
-5.436617347
 11
-16.4047574686
 21
-5.104524218
  0
LINE
  5
4F1
100
AcDbEntity
  8
ASSI
100
AcDbLine
 62
7
  6
CONTINUOUS
 10
-16.4047574686
 20
-4.6686343236
 11
-16.4047574686
 21
-4.0865792708
  0
LINE
  5
4F2
100
AcDbEntity
  8
ASSI
100
AcDbLine
 62
7
  6
CONTINUOUS
 10
-16.4047574686
 20
40.7134207292
 11
-16.4047574686
 21
41.295475782
  0
LINE
  5
4F3
100
AcDbEntity
  8
RACCORDO
100
AcDbLine
 62
7
  6
CONTINUOUS
 10
-16.4047574686
 20
41.7313656764
 11
-16.4047574686
 21
42.0634588054
  0
LINE
  5
4F4
100
AcDbEntity
  8
ASSI
100
AcDbLine
 62
7
  6
CONTINUOUS
 10
-16.3087546115
 20
41.8528008246
 11
-16.3087546115
 21
41.1740406338
  0
LINE
  5
4F5
100
AcDbEntity
  8
ASSI
100
AcDbLine
 62
7
  6
CONTINUOUS
 10
-16.3087546115
 20
-4.5471991754
 11
-16.3087546115
 21
-5.2259593662
  0
LINE
  5
4F6
100
AcDbEntity
  8
RACCORDO
100
AcDbLine
 62
253
  6
CONTINUOUS
 10
-16.3073387041
 20
-5.3391985825
 11
-16.3073387041
 21
-3.9891605063
  0
LINE
  5
4F7
100
AcDbEntity
  8
RACCORDO
100
AcDbLine
 62
253
  6
CONTINUOUS
 10
-16.3073387041
 20
40.6160019647
 11
-16.3073387041
 21
41.9660400409
  0
LINE
  5
4F8
100
AcDbEntity
  8
RACCORDO
100
AcDbLine
 62
7
  6
CONTINUOUS
 10
-15.9678477703
 20
37.626522454
 11
-15.9678477703
 21
36.8264996078
  0
LINE
  5
4F9
100
AcDbEntity
  8
ASSI
100
AcDbLine
 62
7
  6
CONTINUOUS
 10
-15.9678477703
 20
37.626522454
 11
-15.9678477703
 21
36.8264996078
  0
LINE
  5
4FA
100
AcDbEntity
  8
RACCORDO
100
AcDbLine
 62
7
  6
CONTINUOUS
 10
-15.9678477703
 20
-0.9996809956
 11
-15.9678477703
 21
0.1003304275
  0
LINE
  5
4FB
100
AcDbEntity
  8
ASSI
100
AcDbLine
 62
7
  6
CONTINUOUS
 10
-15.9678477703
 20
-0.9996809956
 11
-15.9678477703
 21
0.1003304275
  0
LINE
  5
4FC
100
AcDbEntity
  8
RACCORDO
100
AcDbLine
 62
253
  6
CONTINUOUS
 10
-15.7047574686
 20
-5.6691242059
 11
-15.7047574686
 21
-5.5892142201
  0
LINE
  5
4FD
100
AcDbEntity
  8
RACCORDO
100
AcDbLine
 62
253
  6
CONTINUOUS
 10
-15.7047574686
 20
42.2160556785
 11
-15.7047574686
 21
42.2959656643
  0
LINE
  5
4FE
100
AcDbEntity
  8
RACCORDO
100
AcDbLine
 62
7
  6
CONTINUOUS
 10
-15.4547574686
 20
38.3579277549
 11
-15.4547574686
 21
38.3134207292
  0
LINE
  5
4FF
100
AcDbEntity
  8
RACCORDO
100
AcDbLine
 62
7
  6
CONTINUOUS
 10
-15.4547574686
 20
-5.4190861239
 11
-15.4547574686
 21
-3.9801033748
  0
LINE
  5
500
100
AcDbEntity
  8
RACCORDO
100
AcDbLine
 62
7
  6
CONTINUOUS
 10
-15.4547574686
 20
-1.7310862965
 11
-15.4547574686
 21
-1.6865792708
  0
LINE
  5
501
100
AcDbEntity
  8
0
100
AcDbLine
 62
7
  6
CONTINUOUS
 10
-15.4547574686
 20
-1.5865792708
 11
-15.4547574686
 21
-1.3865792708
  0
LINE
  5
502
100
AcDbEntity
  8
DRAFT
100
AcDbLine
 62
7
  6
CONTINUOUS
 10
-15.4547574686
 20
-1.5865792708
 11
-15.4547574686
 21
-1.3865792708
  0
LINE
  5
503
100
AcDbEntity
  8
0
100
AcDbLine
 62
7
  6
CONTINUOUS
 10
-15.4547574686
 20
38.0134207292
 11
-15.4547574686
 21
38.2134207292
  0
LINE
  5
504
100
AcDbEntity
  8
DRAFT
100
AcDbLine
 62
7
  6
CONTINUOUS
 10
-15.4547574686
 20
38.0134207292
 11
-15.4547574686
 21
38.2134207292
  0
LINE
  5
505
100
AcDbEntity
  8
RACCORDO
100
AcDbLine
 62
7
  6
CONTINUOUS
 10
-15.4547574686
 20
40.6069448331
 11
-15.4547574686
 21
42.0459275822
  0
LINE
  5
506
100
AcDbEntity
  8
0
100
AcDbLine
 62
7
  6
CONTINUOUS
 10
-15.4181018323
 20
-1.5499236345
 11
-15.4181018323
 21
-1.3499236345
  0
LINE
  5
507
100
AcDbEntity
  8
DRAFT
100
AcDbLine
 62
7
  6
CONTINUOUS
 10
-15.4181018323
 20
-1.5499236345
 11
-15.4181018323
 21
-1.3499236345
  0
LINE
  5
508
100
AcDbEntity
  8
0
100
AcDbLine
 62
7
  6
CONTINUOUS
 10
-15.4181018323
 20
37.9767650928
 11
-15.4181018323
 21
38.1767650928
  0
LINE
  5
509
100
AcDbEntity
  8
DRAFT
100
AcDbLine
 62
7
  6
CONTINUOUS
 10
-15.4181018323
 20
37.9767650928
 11
-15.4181018323
 21
38.1767650928
  0
LINE
  5
50A
100
AcDbEntity
  8
0
100
AcDbLine
 62
7
  6
CONTINUOUS
 10
-9.964185121
 20
36.5450382277
 11
-9.9737539846
 21
36.5134207292
  0
LINE
  5
50B
100
AcDbEntity
  8
RACCORDO
100
AcDbLine
 62
7
  6
CONTINUOUS
 10
-9.964185121
 20
36.5450382277
 11
-9.9737539846
 21
36.5134207292
  0
LINE
  5
50C
100
AcDbEntity
  8
0
100
AcDbLine
 62
7
  6
CONTINUOUS
 10
-5.3674887907
 20
39.3879713785
 11
-5.4547574686
 21
39.2134207292
  0
LINE
  5
50D
100
AcDbEntity
  8
SMUSSO
100
AcDbLine
 62
7
  6
CONTINUOUS
 10
-12.2047574686
 20
25.0634207292
 11
-11.7047574686
 21
25.5634207292
  0
LINE
  5
50E
100
AcDbEntity
  8
ASSI
100
AcDbLine
 62
7
  6
CONTINUOUS
 10
-12.2047574686
 20
25.0634207292
 11
-11.7047574686
 21
25.5634207292
  0
LINE
  5
50F
100
AcDbEntity
  8
SMUSSO
100
AcDbLine
 62
7
  6
CONTINUOUS
 10
-7.2047574686
 20
29.5634207292
 11
-7.7047574686
 21
29.0634207292
  0
LINE
  5
510
100
AcDbEntity
  8
ASSI
100
AcDbLine
 62
7
  6
CONTINUOUS
 10
-7.2047574686
 20
29.5634207292
 11
-7.7047574686
 21
29.0634207292
  0
LINE
  5
511
100
AcDbEntity
  8
SMUSSO
100
AcDbLine
 62
7
  6
CONTINUOUS
 10
-7.2047574686
 20
14.8134207292
 11
-12.2047574686
 21
14.8134207292
  0
LINE
  5
512
100
AcDbEntity
  8
ASSI
100
AcDbLine
 62
7
  6
CONTINUOUS
 10
-7.2047574686
 20
14.8134207292
 11
-12.2047574686
 21
14.8134207292
  0
LINE
  5
513
100
AcDbEntity
  8
0
100
AcDbLine
 62
7
  6
CONTINUOUS
 10
-5.3674887907
 20
-2.7611299201
 11
-5.4547574686
 21
-2.5865792708
  0
LINE
  5
514
100
AcDbEntity
  8
RACCORDO
100
AcDbLine
 62
7
  6
CONTINUOUS
 10
-15.0305779303
 20
40.592673988
 11
-15.0296334622
 21
40.538565447
  0
LINE
  5
515
100
AcDbEntity
  8
ASSI
100
AcDbLine
 62
7
  6
CONTINUOUS
 10
-15.0047574686
 20
39.1134207292
 11
-15.0296334622
 21
40.538565447
  0
LINE
  5
516
100
AcDbEntity
  8
0
100
AcDbLine
 62
253
  6
CONTINUOUS
 10
-13.4557656306
 20
-1.7387418972
 11
-13.4562817035
 21
-1.5710659504
  0
LINE
  5
517
100
AcDbEntity
  8
0
100
AcDbLine
 62
7
  6
CONTINUOUS
 10
-14.4547574686
 20
0.0134207292
 11
-14.4547574686
 21
1.7134207292
  0
LINE
  5
518
100
AcDbEntity
  8
ASSI
100
AcDbLine
 62
7
  6
CONTINUOUS
 10
-14.4547574686
 20
0.0134207292
 11
-14.4547574686
 21
1.7134207292
  0
LINE
  5
519
100
AcDbEntity
  8
0
100
AcDbLine
 62
7
  6
CONTINUOUS
 10
-14.4547574686
 20
34.9134207292
 11
-14.4547574686
 21
36.6134207292
  0
LINE
  5
51A
100
AcDbEntity
  8
ASSI
100
AcDbLine
 62
7
  6
CONTINUOUS
 10
-14.4547574686
 20
34.9134207292
 11
-14.4547574686
 21
36.6134207292
  0
LINE
  5
51B
100
AcDbEntity
  8
0
100
AcDbLine
 62
253
  6
CONTINUOUS
 10
-14.101204078
 20
36.5459607458
 11
-14.101204078
 21
36.6134207292
  0
LINE
  5
51C
100
AcDbEntity
  8
RACCORDO
100
AcDbLine
 62
253
  6
CONTINUOUS
 10
-14.101204078
 20
36.5459607458
 11
-14.101204078
 21
36.6134207292
  0
LINE
  5
51D
100
AcDbEntity
  8
0
100
AcDbLine
 62
7
  6
CONTINUOUS
 10
-14.0547574686
 20
36.5134207292
 11
-14.0547574686
 21
36.5456019312
  0
LINE
  5
51E
100
AcDbEntity
  8
0
100
AcDbLine
 62
7
  6
CONTINUOUS
 10
-13.9547574686
 20
36.5134207292
 11
-13.9547574686
 21
36.5464693181
  0
LINE
  5
51F
100
AcDbEntity
  8
RACCORDO
100
AcDbLine
 62
7
  6
CONTINUOUS
 10
-13.9547574686
 20
36.5134207292
 11
-13.9547574686
 21
36.5464693181
  0
LINE
  5
520
100
AcDbEntity
  8
RACCORDO
100
AcDbLine
 62
7
  6
CONTINUOUS
 10
-13.9373467793
 20
0.0134207292
 11
-13.9373467793
 21
0.1134207292
  0
LINE
  5
521
100
AcDbEntity
  8
ASSI
100
AcDbLine
 62
7
  6
CONTINUOUS
 10
-13.9373467793
 20
0.0134207292
 11
-13.9373467793
 21
0.1134207292
  0
LINE
  5
522
100
AcDbEntity
  8
RACCORDO
100
AcDbLine
 62
7
  6
CONTINUOUS
 10
-13.8587619229
 20
36.5134207292
 11
-13.8587619229
 21
36.6134207292
  0
LINE
  5
523
100
AcDbEntity
  8
ASSI
100
AcDbLine
 62
7
  6
CONTINUOUS
 10
-13.8587619229
 20
36.5134207292
 11
-13.8587619229
 21
36.6134207292
  0
LINE
  5
524
100
AcDbEntity
  8
0
100
AcDbLine
 62
253
  6
CONTINUOUS
 10
-13.6547574686
 20
1.0134207292
 11
-13.6547574686
 21
1.0634207292
  0
LINE
  5
525
100
AcDbEntity
  8
RACCORDO
100
AcDbLine
 62
253
  6
CONTINUOUS
 10
-13.6547574686
 20
1.0134207292
 11
-13.6547574686
 21
1.0634207292
  0
LINE
  5
526
100
AcDbEntity
  8
0
100
AcDbLine
 62
253
  6
CONTINUOUS
 10
-13.6547574686
 20
35.5634207292
 11
-13.6547574686
 21
35.6293886476
  0
LINE
  5
527
100
AcDbEntity
  8
RACCORDO
100
AcDbLine
 62
253
  6
CONTINUOUS
 10
-13.6547574686
 20
35.5634207292
 11
-13.6547574686
 21
35.6293886476
  0
LINE
  5
528
100
AcDbEntity
  8
0
100
AcDbLine
 62
253
  6
CONTINUOUS
 10
-13.4562817035
 20
38.1979074088
 11
-13.4557656306
 21
38.3655833556
  0
LINE
  5
529
100
AcDbEntity
  8
RACCORDO
100
AcDbLine
 62
7
  6
CONTINUOUS
 10
-15.0305779303
 20
-3.9658325296
 11
-15.0296334622
 21
-3.9117239886
  0
LINE
  5
52A
100
AcDbEntity
  8
ASSI
100
AcDbLine
 62
7
  6
CONTINUOUS
 10
-15.0296334622
 20
-3.9117239886
 11
-15.0047574686
 21
-2.4865792708
  0
LINE
  5
52B
100
AcDbEntity
  8
RACCORDO
100
AcDbLine
 62
7
  6
CONTINUOUS
 10
-15.456896428
 20
-5.3718802015
 11
-15.4547574686
 21
-5.3392522962
  0
LWPOLYLINE
  5
52C
100
AcDbEntity
  8
0
100
AcDbPolyline
 62
253
  6
CONTINUOUS
 90
5
 70
0
 10
-9.9592101067
 20
35.8173620112
 10
-9.9725110229
 20
35.7724836351
 10
-9.9943722931
 20
35.7301553988
 10
-10.0242975336
 20
35.6916343075
 10
-10.0614352779
 20
35.6582349001
  0
LWPOLYLINE
  5
52D
100
AcDbEntity
  8
RACCORDO
100
AcDbPolyline
 62
253
  6
CONTINUOUS
 90
5
 70
0
 10
-9.9592101067
 20
35.8173620112
 10
-9.9725110229
 20
35.7724836351
 10
-9.9943722931
 20
35.7301553988
 10
-10.0242975336
 20
35.6916343075
 10
-10.0614352779
 20
35.6582349001
  0
LINE
  5
52E
100
AcDbEntity
  8
CURVE
100
AcDbLine
 62
253
  6
CONTINUOUS
 10
-1.8404717433
 20
31.1634207292
 11
-1.6547574686
 21
31.3491350038
  0
LINE
  5
52F
100
AcDbEntity
  8
CURVE
100
AcDbLine
 62
253
  6
CONTINUOUS
 10
-2.3976146059
 20
30.2348492785
 11
-2.2119002926
 21
30.4205636306
  0
LINE
  5
530
100
AcDbEntity
  8
CURVE
100
AcDbLine
 62
253
  6
CONTINUOUS
 10
-2.9547574686
 20
29.5848492785
 11
-2.7690431746
 21
29.7705636306
  0
LINE
  5
531
100
AcDbEntity
  8
CURVE
100
AcDbLine
 62
253
  6
CONTINUOUS
 10
-1.8404717433
 20
30.2658016963
 11
-1.6547574686
 21
30.4205636306
  0
LINE
  5
532
100
AcDbEntity
  8
RACCORDO
100
AcDbLine
 62
7
  6
CONTINUOUS
 10
-22.6678363468
 20
15.1634207292
 11
-21.7547574686
 21
15.1634207292
  0
LINE
  5
533
100
AcDbEntity
  8
ASSI
100
AcDbLine
 62
7
  6
CONTINUOUS
 10
-22.6678363468
 20
15.1634207292
 11
-21.7547574686
 21
15.1634207292
  0
LINE
  5
534
100
AcDbEntity
  8
SMUSSO
100
AcDbLine
 62
7
  6
CONTINUOUS
 10
-7.7047574686
 20
15.3134207292
 11
-11.7047574686
 21
15.3134207292
  0
LINE
  5
535
100
AcDbEntity
  8
ASSI
100
AcDbLine
 62
7
  6
CONTINUOUS
 10
-7.7047574686
 20
15.3134207292
 11
-11.7047574686
 21
15.3134207292
  0
LINE
  5
536
100
AcDbEntity
  8
0
100
AcDbLine
 62
7
  6
CONTINUOUS
 10
-11.3547574686
 20
15.8134207292
 11
-8.4147574686
 21
15.8134207292
  0
LINE
  5
537
100
AcDbEntity
  8
0
100
AcDbLine
 62
253
  6
CONTINUOUS
 10
-9.9728496824
 20
0.855194364
 11
-9.9593151427
 21
0.8100154247
  0
LINE
  5
538
100
AcDbEntity
  8
RACCORDO
100
AcDbLine
 62
253
  6
CONTINUOUS
 10
-9.9728496824
 20
0.855194364
 11
-9.9593151427
 21
0.8100154247
  0
LWPOLYLINE
  5
539
100
AcDbEntity
  8
RACCORDO
100
AcDbPolyline
 62
7
  6
CONTINUOUS
 90
13
 70
0
 10
-11.1547574686
 20
-5.436617347
 10
-11.1526196384
 20
-5.4692450056
 10
-11.1462419179
 20
-5.5013139784
 10
-11.1357331914
 20
-5.5322758802
 10
-11.12127289
 20
-5.5616014513
 10
-11.1031081561
 20
-5.5887887086
 10
-11.0815499339
 20
-5.6133717361
 10
-11.0569669064
 20
-5.6349299583
 10
-11.0297796491
 20
-5.6530946922
 10
-11.000454078
 20
-5.6675549936
 10
-10.9694921762
 20
-5.6780637201
 10
-10.9374232034
 20
-5.6844414406
 10
-10.9047955448
 20
-5.6865792708
  0
LINE
  5
53A
100
AcDbEntity
  8
RACCORDO
100
AcDbLine
 62
7
  6
CONTINUOUS
 10
-12.7722125335
 20
42.0460037405
 11
-12.7722125335
 21
40.7116753982
  0
LINE
  5
53B
100
AcDbEntity
  8
RACCORDO
100
AcDbLine
 62
7
  6
CONTINUOUS
 10
-12.7722125335
 20
-4.0848339398
 11
-12.7722125335
 21
-5.4191622821
  0
LINE
  5
53C
100
AcDbEntity
  8
RACCORDO
100
AcDbLine
 62
7
  6
CONTINUOUS
 10
-12.7547574686
 20
42.0634588054
 11
-12.7547574686
 21
40.7134207292
  0
LINE
  5
53D
100
AcDbEntity
  8
RACCORDO
100
AcDbLine
 62
7
  6
CONTINUOUS
 10
-12.7547574686
 20
-4.0865792708
 11
-12.7547574686
 21
-5.436617347
  0
LINE
  5
53E
100
AcDbEntity
  8
SMUSSO
100
AcDbLine
 62
7
  6
CONTINUOUS
 10
-12.2047574686
 20
14.8134207292
 11
-12.2047574686
 21
19.8134207292
  0
LINE
  5
53F
100
AcDbEntity
  8
ASSI
100
AcDbLine
 62
7
  6
CONTINUOUS
 10
-12.2047574686
 20
14.8134207292
 11
-12.2047574686
 21
19.8134207292
  0
LINE
  5
540
100
AcDbEntity
  8
SMUSSO
100
AcDbLine
 62
7
  6
CONTINUOUS
 10
-12.2047574686
 20
20.0634207292
 11
-12.2047574686
 21
24.5634207292
  0
LINE
  5
541
100
AcDbEntity
  8
ASSI
100
AcDbLine
 62
7
  6
CONTINUOUS
 10
-12.2047574686
 20
20.0634207292
 11
-12.2047574686
 21
24.5634207292
  0
LINE
  5
542
100
AcDbEntity
  8
SMUSSO
100
AcDbLine
 62
7
  6
CONTINUOUS
 10
-12.2047574686
 20
25.0634207292
 11
-12.2047574686
 21
29.5634207292
  0
LINE
  5
543
100
AcDbEntity
  8
ASSI
100
AcDbLine
 62
7
  6
CONTINUOUS
 10
-12.2047574686
 20
25.0634207292
 11
-12.2047574686
 21
29.5634207292
  0
LINE
  5
544
100
AcDbEntity
  8
SMUSSO
100
AcDbLine
 62
7
  6
CONTINUOUS
 10
-12.2047574686
 20
30.0634207292
 11
-12.2047574686
 21
34.5634207292
  0
LINE
  5
545
100
AcDbEntity
  8
ASSI
100
AcDbLine
 62
7
  6
CONTINUOUS
 10
-12.2047574686
 20
30.0634207292
 11
-12.2047574686
 21
34.5634207292
  0
LWPOLYLINE
  5
546
100
AcDbEntity
  8
RACCORDO
100
AcDbPolyline
 62
7
  6
CONTINUOUS
 90
13
 70
0
 10
-11.1547574686
 20
42.0634588054
 10
-11.1526196384
 20
42.096086464
 10
-11.1462419179
 20
42.1281554368
 10
-11.1357331914
 20
42.1591173386
 10
-11.12127289
 20
42.1884429096
 10
-11.1031081561
 20
42.215630167
 10
-11.0815499339
 20
42.2402131945
 10
-11.0569669064
 20
42.2617714167
 10
-11.0297796491
 20
42.2799361506
 10
-11.000454078
 20
42.294396452
 10
-10.9694921762
 20
42.3049051785
 10
-10.9374232034
 20
42.3112828989
 10
-10.9047955448
 20
42.3134207292
  0
LWPOLYLINE
  5
547
100
AcDbEntity
  8
ASSI
100
AcDbPolyline
 62
253
  6
CONTINUOUS
 90
11
 70
0
 10
-1.3679249255
 20
42.6002837332
 10
-1.3679700883
 20
42.6001843412
 10
-1.3680156921
 20
42.5999319843
 10
-1.368061737
 20
42.5995266625
 10
-1.368108497
 20
42.5989715962
 10
-1.3681556981
 20
42.598263565
 10
-1.3682025185
 20
42.5973929077
 10
-1.36824896
 20
42.5963539599
 10
-1.3682950209
 20
42.5951523859
 10
-1.3683398733
 20
42.5937955184
 10
-1.3684258593
 20
42.5906065826
  0
LINE
  5
548
100
AcDbEntity
  8
SMUSSO
100
AcDbLine
 62
7
  6
CONTINUOUS
 10
-12.2047574686
 20
20.0634207292
 11
-11.7047574686
 21
20.5634207292
  0
LINE
  5
549
100
AcDbEntity
  8
ASSI
100
AcDbLine
 62
7
  6
CONTINUOUS
 10
-12.2047574686
 20
20.0634207292
 11
-11.7047574686
 21
20.5634207292
  0
LINE
  5
54A
100
AcDbEntity
  8
SMUSSO
100
AcDbLine
 62
7
  6
CONTINUOUS
 10
-7.2047574686
 20
24.5634207292
 11
-7.7047574686
 21
24.0634207292
  0
LINE
  5
54B
100
AcDbEntity
  8
ASSI
100
AcDbLine
 62
7
  6
CONTINUOUS
 10
-7.2047574686
 20
24.5634207292
 11
-7.7047574686
 21
24.0634207292
  0
LINE
  5
54C
100
AcDbEntity
  8
CURVE
100
AcDbLine
 62
253
  6
CONTINUOUS
 10
-4.0547574686
 20
27.1348492844
 11
-4.3261860239
 21
26.8634207292
  0
LINE
  5
54D
100
AcDbEntity
  8
CURVE
100
AcDbLine
 62
253
  6
CONTINUOUS
 10
-1.6547574686
 20
29.4919921799
 11
-1.8404717433
 21
29.3062778278
  0
LINE
  5
54E
100
AcDbEntity
  8
CURVE
100
AcDbLine
 62
253
  6
CONTINUOUS
 10
-2.7690431746
 20
23.6729445977
 11
-2.5833288806
 21
23.7658013864
  0
LINE
  5
54F
100
AcDbEntity
  8
CURVE
100
AcDbLine
 62
253
  6
CONTINUOUS
 10
-4.0547574686
 20
22.9134207292
 11
-5.9547574686
 21
21.9634207292
  0
LINE
  5
550
100
AcDbEntity
  8
CURVE
100
AcDbLine
 62
253
  6
CONTINUOUS
 10
-1.8404717433
 20
23.2086587949
 11
-2.0261860179
 21
23.1158013864
  0
LINE
  5
551
100
AcDbEntity
  8
CURVE
100
AcDbLine
 62
253
  6
CONTINUOUS
 10
-5.6833288851
 20
16.8634207292
 11
-5.4119003015
 21
16.8634207292
  0
LINE
  5
552
100
AcDbEntity
  8
CURVE
100
AcDbLine
 62
253
  6
CONTINUOUS
 10
-4.5976145791
 20
17.8134207292
 11
-4.3261860239
 21
17.8134207292
  0
LINE
  5
553
100
AcDbEntity
  8
CURVE
100
AcDbLine
 62
253
  6
CONTINUOUS
 10
-1.9547574686
 20
18.1259207292
 11
-2.0172574686
 21
18.1259207292
  0
LINE
  5
554
100
AcDbEntity
  8
CURVE
100
AcDbLine
 62
253
  6
CONTINUOUS
 10
-2.8297574686
 20
18.3134207292
 11
-3.0172574686
 21
18.3134207292
  0
LWPOLYLINE
  5
555
100
AcDbEntity
  8
RACCORDO
100
AcDbPolyline
 62
7
  6
CONTINUOUS
 90
13
 70
0
 10
-12.7547574686
 20
42.0634588054
 10
-12.7568952989
 20
42.096086464
 10
-12.7632730193
 20
42.1281554368
 10
-12.7737817458
 20
42.1591173386
 10
-12.7882420472
 20
42.1884429096
 10
-12.8064067811
 20
42.215630167
 10
-12.8279650033
 20
42.2402131945
 10
-12.8525480308
 20
42.2617714167
 10
-12.8797352882
 20
42.2799361506
 10
-12.9090608592
 20
42.294396452
 10
-12.940022761
 20
42.3049051785
 10
-12.9720917338
 20
42.3112828989
 10
-13.0047193924
 20
42.3134207292
  0
LINE
  5
556
100
AcDbEntity
  8
0
100
AcDbLine
 62
253
  6
CONTINUOUS
 10
-10.4537493066
 20
38.3655833556
 11
-10.4532332338
 21
38.1979074088
  0
LINE
  5
557
100
AcDbEntity
  8
SMUSSO
100
AcDbLine
 62
7
  6
CONTINUOUS
 10
-11.7047574686
 20
15.3134207292
 11
-11.7047574686
 21
19.3134207292
  0
LINE
  5
558
100
AcDbEntity
  8
ASSI
100
AcDbLine
 62
7
  6
CONTINUOUS
 10
-11.7047574686
 20
15.3134207292
 11
-11.7047574686
 21
19.3134207292
  0
LINE
  5
559
100
AcDbEntity
  8
SMUSSO
100
AcDbLine
 62
7
  6
CONTINUOUS
 10
-11.7047574686
 20
20.5634207292
 11
-11.7047574686
 21
24.0634207292
  0
LINE
  5
55A
100
AcDbEntity
  8
ASSI
100
AcDbLine
 62
7
  6
CONTINUOUS
 10
-11.7047574686
 20
20.5634207292
 11
-11.7047574686
 21
24.0634207292
  0
LINE
  5
55B
100
AcDbEntity
  8
SMUSSO
100
AcDbLine
 62
7
  6
CONTINUOUS
 10
-11.7047574686
 20
25.5634207292
 11
-11.7047574686
 21
29.0634207292
  0
LINE
  5
55C
100
AcDbEntity
  8
ASSI
100
AcDbLine
 62
7
  6
CONTINUOUS
 10
-11.7047574686
 20
25.5634207292
 11
-11.7047574686
 21
29.0634207292
  0
LINE
  5
55D
100
AcDbEntity
  8
SMUSSO
100
AcDbLine
 62
7
  6
CONTINUOUS
 10
-11.7047574686
 20
30.5634207292
 11
-11.7047574686
 21
34.0634207292
  0
LINE
  5
55E
100
AcDbEntity
  8
ASSI
100
AcDbLine
 62
7
  6
CONTINUOUS
 10
-11.7047574686
 20
30.5634207292
 11
-11.7047574686
 21
34.0634207292
  0
LINE
  5
55F
100
AcDbEntity
  8
0
100
AcDbLine
 62
7
  6
CONTINUOUS
 10
-11.3547574686
 20
33.8134207292
 11
-11.3547574686
 21
30.8134207292
  0
LINE
  5
560
100
AcDbEntity
  8
0
100
AcDbLine
 62
7
  6
CONTINUOUS
 10
-11.3547574686
 20
28.8134207292
 11
-11.3547574686
 21
25.8134207292
  0
LINE
  5
561
100
AcDbEntity
  8
0
100
AcDbLine
 62
7
  6
CONTINUOUS
 10
-11.3547574686
 20
23.8134207292
 11
-11.3547574686
 21
20.8134207292
  0
LINE
  5
562
100
AcDbEntity
  8
0
100
AcDbLine
 62
7
  6
CONTINUOUS
 10
-11.3547574686
 20
18.8134207292
 11
-11.3547574686
 21
15.8134207292
  0
LINE
  5
563
100
AcDbEntity
  8
RACCORDO
100
AcDbLine
 62
7
  6
CONTINUOUS
 10
-11.1547574686
 20
42.0634588054
 11
-11.1547574686
 21
40.7134207292
  0
LINE
  5
564
100
AcDbEntity
  8
RACCORDO
100
AcDbLine
 62
7
  6
CONTINUOUS
 10
-11.1547574686
 20
-4.0865792708
 11
-11.1547574686
 21
-5.436617347
  0
LINE
  5
565
100
AcDbEntity
  8
RACCORDO
100
AcDbLine
 62
7
  6
CONTINUOUS
 10
-11.1373024037
 20
42.0460037405
 11
-11.1373024037
 21
40.7116753982
  0
LINE
  5
566
100
AcDbEntity
  8
RACCORDO
100
AcDbLine
 62
7
  6
CONTINUOUS
 10
-11.1373024037
 20
-4.0848339398
 11
-11.1373024037
 21
-5.4191622821
  0
LINE
  5
567
100
AcDbEntity
  8
0
100
AcDbLine
 62
253
  6
CONTINUOUS
 10
-10.2547574686
 20
35.6293886476
 11
-10.2547574686
 21
35.5634207292
  0
LINE
  5
568
100
AcDbEntity
  8
RACCORDO
100
AcDbLine
 62
253
  6
CONTINUOUS
 10
-10.2547574686
 20
35.6293886476
 11
-10.2547574686
 21
35.5634207292
  0
LINE
  5
569
100
AcDbEntity
  8
0
100
AcDbLine
 62
253
  6
CONTINUOUS
 10
-10.2547574686
 20
1.0134207292
 11
-10.2547574686
 21
1.0634207292
  0
LINE
  5
56A
100
AcDbEntity
  8
RACCORDO
100
AcDbLine
 62
253
  6
CONTINUOUS
 10
-10.2547574686
 20
1.0134207292
 11
-10.2547574686
 21
1.0634207292
  0
LINE
  5
56B
100
AcDbEntity
  8
RACCORDO
100
AcDbLine
 62
7
  6
CONTINUOUS
 10
-10.0507530143
 20
36.5134207292
 11
-10.0507530143
 21
36.6134207292
  0
LINE
  5
56C
100
AcDbEntity
  8
ASSI
100
AcDbLine
 62
7
  6
CONTINUOUS
 10
-10.0507530143
 20
36.5134207292
 11
-10.0507530143
 21
36.6134207292
  0
LINE
  5
56D
100
AcDbEntity
  8
RACCORDO
100
AcDbLine
 62
7
  6
CONTINUOUS
 10
-9.9721681579
 20
0.0134207292
 11
-9.9721681579
 21
0.1134207292
  0
LINE
  5
56E
100
AcDbEntity
  8
ASSI
100
AcDbLine
 62
7
  6
CONTINUOUS
 10
-9.9721681579
 20
0.0134207292
 11
-9.9721681579
 21
0.1134207292
  0
LINE
  5
56F
100
AcDbEntity
  8
0
100
AcDbLine
 62
7
  6
CONTINUOUS
 10
-9.9547574686
 20
36.5464693181
 11
-9.9547574686
 21
36.5134207292
  0
LINE
  5
570
100
AcDbEntity
  8
RACCORDO
100
AcDbLine
 62
7
  6
CONTINUOUS
 10
-9.9547574686
 20
36.5464693181
 11
-9.9547574686
 21
36.5134207292
  0
LINE
  5
571
100
AcDbEntity
  8
0
100
AcDbLine
 62
253
  6
CONTINUOUS
 10
-10.4532332338
 20
-1.5710659504
 11
-10.4537493066
 21
-1.7387418972
  0
LWPOLYLINE
  5
572
100
AcDbEntity
  8
RACCORDO
100
AcDbPolyline
 62
7
  6
CONTINUOUS
 90
13
 70
0
 10
-12.7547574686
 20
-5.436617347
 10
-12.7568952989
 20
-5.4692450056
 10
-12.7632730193
 20
-5.5013139784
 10
-12.7737817458
 20
-5.5322758802
 10
-12.7882420472
 20
-5.5616014513
 10
-12.8064067811
 20
-5.5887887086
 10
-12.8279650033
 20
-5.6133717361
 10
-12.8525480308
 20
-5.6349299583
 10
-12.8797352882
 20
-5.6530946922
 10
-12.9090608592
 20
-5.6675549936
 10
-12.940022761
 20
-5.6780637201
 10
-12.9720917338
 20
-5.6844414406
 10
-13.0047193924
 20
-5.6865792708
  0
LINE
  5
573
100
AcDbEntity
  8
RACCORDO
100
AcDbLine
 62
253
  6
CONTINUOUS
 10
-8.4526183695
 20
41.9987227215
 11
-8.4547574686
 21
41.9660937547
  0
LWPOLYLINE
  5
574
100
AcDbEntity
  8
ASSI
100
AcDbPolyline
 62
253
  6
CONTINUOUS
 90
12
 70
0
 10
-22.5415900117
 20
-5.9734422749
 10
-22.5415476157
 20
-5.9733576449
 10
-22.5415044228
 20
-5.9731291368
 10
-22.5414604328
 20
-5.9727567503
 10
-22.5414153705
 20
-5.9722464316
 10
-22.5413695111
 20
-5.9715922346
 10
-22.541323681
 20
-5.9707763214
 10
-22.5412778621
 20
-5.9697930626
 10
-22.5412320724
 20
-5.9686480877
 10
-22.5411871927
 20
-5.9673404465
 10
-22.5411432403
 20
-5.9658641178
 10
-22.5410588933
 20
-5.9624405757
  0
LINE
  5
575
100
AcDbEntity
  8
0
100
AcDbLine
 62
7
  6
CONTINUOUS
 10
-8.4147574686
 20
18.8134207292
 11
-11.3547574686
 21
18.8134207292
  0
LINE
  5
576
100
AcDbEntity
  8
SMUSSO
100
AcDbLine
 62
7
  6
CONTINUOUS
 10
-11.7047574686
 20
19.3134207292
 11
-7.7047574686
 21
19.3134207292
  0
LINE
  5
577
100
AcDbEntity
  8
ASSI
100
AcDbLine
 62
7
  6
CONTINUOUS
 10
-11.7047574686
 20
19.3134207292
 11
-7.7047574686
 21
19.3134207292
  0
LINE
  5
578
100
AcDbEntity
  8
RACCORDO
100
AcDbLine
 62
7
  6
CONTINUOUS
 10
-22.6678363468
 20
19.4634207292
 11
-21.7547574686
 21
19.4634207292
  0
LINE
  5
579
100
AcDbEntity
  8
ASSI
100
AcDbLine
 62
7
  6
CONTINUOUS
 10
-22.6678363468
 20
19.4634207292
 11
-21.7547574686
 21
19.4634207292
  0
LINE
  5
57A
100
AcDbEntity
  8
SMUSSO
100
AcDbLine
 62
7
  6
CONTINUOUS
 10
-12.2047574686
 20
19.8134207292
 11
-7.2047574686
 21
19.8134207292
  0
LINE
  5
57B
100
AcDbEntity
  8
ASSI
100
AcDbLine
 62
7
  6
CONTINUOUS
 10
-12.2047574686
 20
19.8134207292
 11
-7.2047574686
 21
19.8134207292
  0
LINE
  5
57C
100
AcDbEntity
  8
SMUSSO
100
AcDbLine
 62
7
  6
CONTINUOUS
 10
-7.2047574686
 20
20.0634207292
 11
-12.2047574686
 21
20.0634207292
  0
LINE
  5
57D
100
AcDbEntity
  8
ASSI
100
AcDbLine
 62
7
  6
CONTINUOUS
 10
-7.2047574686
 20
20.0634207292
 11
-12.2047574686
 21
20.0634207292
  0
LINE
  5
57E
100
AcDbEntity
  8
RACCORDO
100
AcDbLine
 62
7
  6
CONTINUOUS
 10
-22.6678363468
 20
20.1634207292
 11
-21.7547574686
 21
20.1634207292
  0
LINE
  5
57F
100
AcDbEntity
  8
ASSI
100
AcDbLine
 62
7
  6
CONTINUOUS
 10
-22.6678363468
 20
20.1634207292
 11
-21.7547574686
 21
20.1634207292
  0
LINE
  5
580
100
AcDbEntity
  8
SMUSSO
100
AcDbLine
 62
7
  6
CONTINUOUS
 10
-12.2047574686
 20
19.8134207292
 11
-11.7047574686
 21
19.3134207292
  0
LINE
  5
581
100
AcDbEntity
  8
ASSI
100
AcDbLine
 62
7
  6
CONTINUOUS
 10
-12.2047574686
 20
19.8134207292
 11
-11.7047574686
 21
19.3134207292
  0
LINE
  5
582
100
AcDbEntity
  8
SMUSSO
100
AcDbLine
 62
7
  6
CONTINUOUS
 10
-7.2047574686
 20
14.8134207292
 11
-7.7047574686
 21
15.3134207292
  0
LINE
  5
583
100
AcDbEntity
  8
ASSI
100
AcDbLine
 62
7
  6
CONTINUOUS
 10
-7.2047574686
 20
14.8134207292
 11
-7.7047574686
 21
15.3134207292
  0
LINE
  5
584
100
AcDbEntity
  8
RACCORDO
100
AcDbLine
 62
7
  6
CONTINUOUS
 10
-8.879881475
 20
-3.9117239886
 11
-8.8789370069
 21
-3.9658325296
  0
LINE
  5
585
100
AcDbEntity
  8
ASSI
100
AcDbLine
 62
7
  6
CONTINUOUS
 10
-8.879881475
 20
-3.9117239886
 11
-8.9047574686
 21
-2.4865792708
  0
LINE
  5
586
100
AcDbEntity
  8
0
100
AcDbLine
 62
7
  6
CONTINUOUS
 10
-9.8547574686
 20
36.5134207292
 11
-9.8547574686
 21
36.5456019312
  0
LINE
  5
587
100
AcDbEntity
  8
0
100
AcDbLine
 62
253
  6
CONTINUOUS
 10
-9.8083108592
 20
36.6134207292
 11
-9.8083108592
 21
36.5459607458
  0
LINE
  5
588
100
AcDbEntity
  8
RACCORDO
100
AcDbLine
 62
253
  6
CONTINUOUS
 10
-9.8083108592
 20
36.6134207292
 11
-9.8083108592
 21
36.5459607458
  0
LINE
  5
589
100
AcDbEntity
  8
0
100
AcDbLine
 62
7
  6
CONTINUOUS
 10
-9.4547574686
 20
36.6134207292
 11
-9.4547574686
 21
34.9134207292
  0
LINE
  5
58A
100
AcDbEntity
  8
ASSI
100
AcDbLine
 62
7
  6
CONTINUOUS
 10
-9.4547574686
 20
36.6134207292
 11
-9.4547574686
 21
34.9134207292
  0
LINE
  5
58B
100
AcDbEntity
  8
0
100
AcDbLine
 62
7
  6
CONTINUOUS
 10
-9.4547574686
 20
1.7134207292
 11
-9.4547574686
 21
0.0134207292
  0
LINE
  5
58C
100
AcDbEntity
  8
ASSI
100
AcDbLine
 62
7
  6
CONTINUOUS
 10
-9.4547574686
 20
1.7134207292
 11
-9.4547574686
 21
0.0134207292
  0
LINE
  5
58D
100
AcDbEntity
  8
0
100
AcDbLine
 62
7
  6
CONTINUOUS
 10
-8.491413105
 20
-1.5499236345
 11
-8.491413105
 21
-1.3499236345
  0
LINE
  5
58E
100
AcDbEntity
  8
DRAFT
100
AcDbLine
 62
7
  6
CONTINUOUS
 10
-8.491413105
 20
-1.5499236345
 11
-8.491413105
 21
-1.3499236345
  0
LINE
  5
58F
100
AcDbEntity
  8
0
100
AcDbLine
 62
7
  6
CONTINUOUS
 10
-8.491413105
 20
37.9767650928
 11
-8.491413105
 21
38.1767650928
  0
LINE
  5
590
100
AcDbEntity
  8
DRAFT
100
AcDbLine
 62
7
  6
CONTINUOUS
 10
-8.491413105
 20
37.9767650928
 11
-8.491413105
 21
38.1767650928
  0
LINE
  5
591
100
AcDbEntity
  8
RACCORDO
100
AcDbLine
 62
7
  6
CONTINUOUS
 10
-8.4547574686
 20
38.3579277549
 11
-8.4547574686
 21
38.3134207292
  0
LINE
  5
592
100
AcDbEntity
  8
RACCORDO
100
AcDbLine
 62
7
  6
CONTINUOUS
 10
-8.4547574686
 20
-5.4190861239
 11
-8.4547574686
 21
-3.9801033748
  0
LINE
  5
593
100
AcDbEntity
  8
RACCORDO
100
AcDbLine
 62
7
  6
CONTINUOUS
 10
-8.4547574686
 20
-1.7310862965
 11
-8.4547574686
 21
-1.6865792708
  0
LINE
  5
594
100
AcDbEntity
  8
0
100
AcDbLine
 62
7
  6
CONTINUOUS
 10
-8.4547574686
 20
-1.5865792708
 11
-8.4547574686
 21
-1.3865792708
  0
LINE
  5
595
100
AcDbEntity
  8
DRAFT
100
AcDbLine
 62
7
  6
CONTINUOUS
 10
-8.4547574686
 20
-1.5865792708
 11
-8.4547574686
 21
-1.3865792708
  0
LINE
  5
596
100
AcDbEntity
  8
0
100
AcDbLine
 62
7
  6
CONTINUOUS
 10
-8.4547574686
 20
38.0134207292
 11
-8.4547574686
 21
38.2134207292
  0
LINE
  5
597
100
AcDbEntity
  8
DRAFT
100
AcDbLine
 62
7
  6
CONTINUOUS
 10
-8.4547574686
 20
38.0134207292
 11
-8.4547574686
 21
38.2134207292
  0
LINE
  5
598
100
AcDbEntity
  8
RACCORDO
100
AcDbLine
 62
7
  6
CONTINUOUS
 10
-8.4547574686
 20
40.6069448331
 11
-8.4547574686
 21
42.0459275822
  0
LINE
  5
599
100
AcDbEntity
  8
0
100
AcDbLine
 62
7
  6
CONTINUOUS
 10
-8.4147574686
 20
15.3134207292
 11
-8.4147574686
 21
19.3134207292
  0
LINE
  5
59A
100
AcDbEntity
  8
0
100
AcDbLine
 62
7
  6
CONTINUOUS
 10
-8.4147574686
 20
20.5634207292
 11
-8.4147574686
 21
24.0634207292
  0
LINE
  5
59B
100
AcDbEntity
  8
0
100
AcDbLine
 62
7
  6
CONTINUOUS
 10
-8.4147574686
 20
25.5634207292
 11
-8.4147574686
 21
29.0634207292
  0
LINE
  5
59C
100
AcDbEntity
  8
0
100
AcDbLine
 62
7
  6
CONTINUOUS
 10
-8.4147574686
 20
30.5634207292
 11
-8.4147574686
 21
34.0634207292
  0
LINE
  5
59D
100
AcDbEntity
  8
RACCORDO
100
AcDbLine
 62
253
  6
CONTINUOUS
 10
-8.2047574686
 20
42.2959656643
 11
-8.2047574686
 21
42.2160556785
  0
LINE
  5
59E
100
AcDbEntity
  8
RACCORDO
100
AcDbLine
 62
253
  6
CONTINUOUS
 10
-8.2047574686
 20
-5.5892142201
 11
-8.2047574686
 21
-5.6691242059
  0
LINE
  5
59F
100
AcDbEntity
  8
RACCORDO
100
AcDbLine
 62
7
  6
CONTINUOUS
 10
-8.8789370069
 20
40.592673988
 11
-8.879881475
 21
40.538565447
  0
LINE
  5
5A0
100
AcDbEntity
  8
ASSI
100
AcDbLine
 62
7
  6
CONTINUOUS
 10
-8.9047574686
 20
39.1134207292
 11
-8.879881475
 21
40.538565447
  0
LINE
  5
5A1
100
AcDbEntity
  8
0
100
AcDbLine
 62
253
  6
CONTINUOUS
 10
-13.9491367254
 20
0.8134207292
 11
-13.9370039144
 21
0.8543578233
  0
LINE
  5
5A2
100
AcDbEntity
  8
RACCORDO
100
AcDbLine
 62
253
  6
CONTINUOUS
 10
-13.9491367254
 20
0.8134207292
 11
-13.9370039144
 21
0.8543578233
  0
LINE
  5
5A3
100
AcDbEntity
  8
0
100
AcDbLine
 62
7
  6
CONTINUOUS
 10
-18.5420261465
 20
-2.7611299201
 11
-18.4547574686
 21
-2.5865792708
  0
LINE
  5
5A4
100
AcDbEntity
  8
CURVE
100
AcDbLine
 62
253
  6
CONTINUOUS
 10
-2.4595193642
 20
27.511039762
 11
-2.6452336582
 21
27.2634207292
  0
LINE
  5
5A5
100
AcDbEntity
  8
SMUSSO
100
AcDbLine
 62
7
  6
CONTINUOUS
 10
-7.2047574686
 20
19.8134207292
 11
-7.7047574686
 21
19.3134207292
  0
LINE
  5
5A6
100
AcDbEntity
  8
ASSI
100
AcDbLine
 62
7
  6
CONTINUOUS
 10
-7.2047574686
 20
19.8134207292
 11
-7.7047574686
 21
19.3134207292
  0
LINE
  5
5A7
100
AcDbEntity
  8
SMUSSO
100
AcDbLine
 62
7
  6
CONTINUOUS
 10
-12.2047574686
 20
14.8134207292
 11
-11.7047574686
 21
15.3134207292
  0
LINE
  5
5A8
100
AcDbEntity
  8
ASSI
100
AcDbLine
 62
7
  6
CONTINUOUS
 10
-12.2047574686
 20
14.8134207292
 11
-11.7047574686
 21
15.3134207292
  0
LINE
  5
5A9
100
AcDbEntity
  8
CURVE
100
AcDbLine
 62
253
  6
CONTINUOUS
 10
-2.3976146059
 20
24.1372304006
 11
-2.2119002926
 21
24.3229445977
  0
LINE
  5
5AA
100
AcDbEntity
  8
CURVE
100
AcDbLine
 62
253
  6
CONTINUOUS
 10
-2.9547574686
 20
23.4872304006
 11
-2.7690431746
 21
23.6729445977
  0
LINE
  5
5AB
100
AcDbEntity
  8
CURVE
100
AcDbLine
 62
253
  6
CONTINUOUS
 10
-1.6547574686
 20
23.3943729921
 11
-1.8404717433
 21
23.2086587949
  0
LINE
  5
5AC
100
AcDbEntity
  8
CURVE
100
AcDbLine
 62
253
  6
CONTINUOUS
 10
-3.0172574686
 20
18.3134207292
 11
-3.2047574686
 21
18.2509207292
  0
LINE
  5
5AD
100
AcDbEntity
  8
SMUSSO
100
AcDbLine
 62
7
  6
CONTINUOUS
 10
-7.7047574686
 20
20.5634207292
 11
-11.7047574686
 21
20.5634207292
  0
LINE
  5
5AE
100
AcDbEntity
  8
ASSI
100
AcDbLine
 62
7
  6
CONTINUOUS
 10
-7.7047574686
 20
20.5634207292
 11
-11.7047574686
 21
20.5634207292
  0
LINE
  5
5AF
100
AcDbEntity
  8
0
100
AcDbLine
 62
7
  6
CONTINUOUS
 10
-11.3547574686
 20
20.8134207292
 11
-8.4147574686
 21
20.8134207292
  0
LINE
  5
5B0
100
AcDbEntity
  8
CURVE
100
AcDbLine
 62
253
  6
CONTINUOUS
 10
-5.9547574686
 20
21.9634207292
 11
-4.0547574686
 21
21.9634207292
  0
LINE
  5
5B1
100
AcDbEntity
  8
CURVE
100
AcDbLine
 62
253
  6
CONTINUOUS
 10
-1.6547574686
 20
22.0943729921
 11
-2.9547574686
 21
22.0943729921
  0
LINE
  5
5B2
100
AcDbEntity
  8
CURVE
100
AcDbLine
 62
253
  6
CONTINUOUS
 10
-2.6422574686
 20
18.2509207292
 11
-2.8297574686
 21
18.3134207292
  0
LINE
  5
5B3
100
AcDbEntity
  8
CURVE
100
AcDbLine
 62
253
  6
CONTINUOUS
 10
-1.7672574686
 20
18.0634207292
 11
-1.9547574686
 21
18.1259207292
  0
LINE
  5
5B4
100
AcDbEntity
  8
CURVE
100
AcDbLine
 62
253
  6
CONTINUOUS
 10
-5.9547574686
 20
17.1348492844
 11
-5.6833288851
 21
16.8634207292
  0
LINE
  5
5B5
100
AcDbEntity
  8
0
100
AcDbLine
 62
7
  6
CONTINUOUS
 10
-18.5420261465
 20
39.3879713785
 11
-18.4547574686
 21
39.2134207292
  0
LINE
  5
5B6
100
AcDbEntity
  8
0
100
AcDbLine
 62
7
  6
CONTINUOUS
 10
-13.9357688535
 20
36.5134207292
 11
-13.9453298162
 21
36.5450382277
  0
LINE
  5
5B7
100
AcDbEntity
  8
RACCORDO
100
AcDbLine
 62
7
  6
CONTINUOUS
 10
-13.9357688535
 20
36.5134207292
 11
-13.9453298162
 21
36.5450382277
  0
LWPOLYLINE
  5
5B8
100
AcDbEntity
  8
0
100
AcDbPolyline
 62
253
  6
CONTINUOUS
 90
5
 70
0
 10
-13.9491367254
 20
35.8134207292
 10
-13.9370039144
 20
35.7724836351
 10
-13.9151426442
 20
35.7301553988
 10
-13.8852174037
 20
35.6916343075
 10
-13.8480796593
 20
35.6582349001
  0
LWPOLYLINE
  5
5B9
100
AcDbEntity
  8
RACCORDO
100
AcDbPolyline
 62
253
  6
CONTINUOUS
 90
5
 70
0
 10
-13.9491367254
 20
35.8134207292
 10
-13.9370039144
 20
35.7724836351
 10
-13.9151426442
 20
35.7301553988
 10
-13.8852174037
 20
35.6916343075
 10
-13.8480796593
 20
35.6582349001
  0
LWPOLYLINE
  5
5BA
100
AcDbEntity
  8
ASSI
100
AcDbPolyline
 62
7
  6
CONTINUOUS
 90
13
 70
0
 10
-4.7547574686
 20
-5.9866097318
 10
-4.7530472044
 20
-6.0127118586
 10
-4.7479450281
 20
-6.0383670369
 10
-4.7395380469
 20
-6.0631365583
 10
-4.7279698058
 20
-6.0865970152
 10
-4.7134380186
 20
-6.1083468211
 10
-4.6961914408
 20
-6.128013243
 10
-4.6765250189
 20
-6.1452598208
 10
-4.654775213
 20
-6.159791608
 10
-4.6313147561
 20
-6.1713598491
 10
-4.6065452347
 20
-6.1797668303
 10
-4.5808900564
 20
-6.1848690066
 10
-4.5547879296
 20
-6.1865792708
  0
LINE
  5
5BB
100
AcDbEntity
  8
SMUSSO
100
AcDbLine
 62
7
  6
CONTINUOUS
 10
-7.7047574686
 20
34.0634207292
 11
-7.7047574686
 21
30.5634207292
  0
LINE
  5
5BC
100
AcDbEntity
  8
ASSI
100
AcDbLine
 62
7
  6
CONTINUOUS
 10
-7.7047574686
 20
34.0634207292
 11
-7.7047574686
 21
30.5634207292
  0
LINE
  5
5BD
100
AcDbEntity
  8
SMUSSO
100
AcDbLine
 62
7
  6
CONTINUOUS
 10
-7.7047574686
 20
29.0634207292
 11
-7.7047574686
 21
25.5634207292
  0
LINE
  5
5BE
100
AcDbEntity
  8
ASSI
100
AcDbLine
 62
7
  6
CONTINUOUS
 10
-7.7047574686
 20
29.0634207292
 11
-7.7047574686
 21
25.5634207292
  0
LINE
  5
5BF
100
AcDbEntity
  8
SMUSSO
100
AcDbLine
 62
7
  6
CONTINUOUS
 10
-7.7047574686
 20
24.0634207292
 11
-7.7047574686
 21
20.5634207292
  0
LINE
  5
5C0
100
AcDbEntity
  8
ASSI
100
AcDbLine
 62
7
  6
CONTINUOUS
 10
-7.7047574686
 20
24.0634207292
 11
-7.7047574686
 21
20.5634207292
  0
LINE
  5
5C1
100
AcDbEntity
  8
SMUSSO
100
AcDbLine
 62
7
  6
CONTINUOUS
 10
-7.7047574686
 20
19.3134207292
 11
-7.7047574686
 21
15.3134207292
  0
LINE
  5
5C2
100
AcDbEntity
  8
ASSI
100
AcDbLine
 62
7
  6
CONTINUOUS
 10
-7.7047574686
 20
19.3134207292
 11
-7.7047574686
 21
15.3134207292
  0
LINE
  5
5C3
100
AcDbEntity
  8
RACCORDO
100
AcDbLine
 62
253
  6
CONTINUOUS
 10
-7.6021781649
 20
-5.3391966507
 11
-7.6021762331
 21
-3.9891605063
  0
LINE
  5
5C4
100
AcDbEntity
  8
RACCORDO
100
AcDbLine
 62
253
  6
CONTINUOUS
 10
-7.6021762331
 20
40.6160019647
 11
-7.6021781649
 21
41.9660381091
  0
LINE
  5
5C5
100
AcDbEntity
  8
ASSI
100
AcDbLine
 62
7
  6
CONTINUOUS
 10
-7.6007603257
 20
41.8528008246
 11
-7.6007603257
 21
41.1740406338
  0
LINE
  5
5C6
100
AcDbEntity
  8
ASSI
100
AcDbLine
 62
7
  6
CONTINUOUS
 10
-7.6007603257
 20
-4.5471991754
 11
-7.6007603257
 21
-5.2259593662
  0
LINE
  5
5C7
100
AcDbEntity
  8
RACCORDO
100
AcDbLine
 62
7
  6
CONTINUOUS
 10
-7.5047574686
 20
-5.436617347
 11
-7.5047574686
 21
-5.104524218
  0
LINE
  5
5C8
100
AcDbEntity
  8
ASSI
100
AcDbLine
 62
7
  6
CONTINUOUS
 10
-7.5047574686
 20
-4.6686343236
 11
-7.5047574686
 21
-4.0865792708
  0
LINE
  5
5C9
100
AcDbEntity
  8
ASSI
100
AcDbLine
 62
7
  6
CONTINUOUS
 10
-7.5047574686
 20
40.7134207292
 11
-7.5047574686
 21
41.295475782
  0
LINE
  5
5CA
100
AcDbEntity
  8
RACCORDO
100
AcDbLine
 62
7
  6
CONTINUOUS
 10
-7.5047574686
 20
41.7313656764
 11
-7.5047574686
 21
42.0634588054
  0
LINE
  5
5CB
100
AcDbEntity
  8
SMUSSO
100
AcDbLine
 62
7
  6
CONTINUOUS
 10
-7.2047574686
 20
34.5634207292
 11
-7.2047574686
 21
30.0634207292
  0
LINE
  5
5CC
100
AcDbEntity
  8
ASSI
100
AcDbLine
 62
7
  6
CONTINUOUS
 10
-7.2047574686
 20
34.5634207292
 11
-7.2047574686
 21
30.0634207292
  0
LINE
  5
5CD
100
AcDbEntity
  8
SMUSSO
100
AcDbLine
 62
7
  6
CONTINUOUS
 10
-7.2047574686
 20
29.5634207292
 11
-7.2047574686
 21
25.0634207292
  0
LINE
  5
5CE
100
AcDbEntity
  8
ASSI
100
AcDbLine
 62
7
  6
CONTINUOUS
 10
-7.2047574686
 20
29.5634207292
 11
-7.2047574686
 21
25.0634207292
  0
LINE
  5
5CF
100
AcDbEntity
  8
SMUSSO
100
AcDbLine
 62
7
  6
CONTINUOUS
 10
-7.2047574686
 20
24.5634207292
 11
-7.2047574686
 21
20.0634207292
  0
LINE
  5
5D0
100
AcDbEntity
  8
ASSI
100
AcDbLine
 62
7
  6
CONTINUOUS
 10
-7.2047574686
 20
24.5634207292
 11
-7.2047574686
 21
20.0634207292
  0
LINE
  5
5D1
100
AcDbEntity
  8
SMUSSO
100
AcDbLine
 62
7
  6
CONTINUOUS
 10
-7.2047574686
 20
19.8134207292
 11
-7.2047574686
 21
14.8134207292
  0
LINE
  5
5D2
100
AcDbEntity
  8
ASSI
100
AcDbLine
 62
7
  6
CONTINUOUS
 10
-7.2047574686
 20
19.8134207292
 11
-7.2047574686
 21
14.8134207292
  0
LINE
  5
5D3
100
AcDbEntity
  8
ASSI
100
AcDbLine
 62
7
  6
CONTINUOUS
 10
-6.8293081179
 20
39.3879713785
 11
-6.8293081179
 21
38.4006894071
  0
LINE
  5
5D4
100
AcDbEntity
  8
ASSI
100
AcDbLine
 62
7
  6
CONTINUOUS
 10
-6.8293081179
 20
-1.7738479487
 11
-6.8293081179
 21
-2.7611299201
  0
LINE
  5
5D5
100
AcDbEntity
  8
0
100
AcDbLine
 62
7
  6
CONTINUOUS
 10
-6.6547574686
 20
-1.6865792708
 11
-6.6547574686
 21
-2.5865792708
  0
LINE
  5
5D6
100
AcDbEntity
  8
0
100
AcDbLine
 62
7
  6
CONTINUOUS
 10
-6.6547574686
 20
38.3134207292
 11
-6.6547574686
 21
39.2134207292
  0
LWPOLYLINE
  5
5D7
100
AcDbEntity
  8
ASSI
100
AcDbPolyline
 62
7
  6
CONTINUOUS
 90
13
 70
0
 10
-4.7547574686
 20
42.6134511902
 10
-4.7530472044
 20
42.639553317
 10
-4.7479450281
 20
42.6652084953
 10
-4.7395380469
 20
42.6899780167
 10
-4.7279698058
 20
42.7134384736
 10
-4.7134380186
 20
42.7351882794
 10
-4.6961914408
 20
42.7548547014
 10
-4.6765250189
 20
42.7721012792
 10
-4.654775213
 20
42.7866330663
 10
-4.6313147561
 20
42.7982013074
 10
-4.6065452347
 20
42.8066082886
 10
-4.5808900564
 20
42.811710465
 10
-4.5547879296
 20
42.8134207292
  0
LINE
  5
5D8
100
AcDbEntity
  8
CURVE
100
AcDbLine
 62
253
  6
CONTINUOUS
 10
-5.8190431768
 20
17.8134207292
 11
-5.9547574686
 21
17.6777064374
  0
LINE
  5
5D9
100
AcDbEntity
  8
CURVE
100
AcDbLine
 62
253
  6
CONTINUOUS
 10
-2.0172574686
 20
18.1259207292
 11
-2.1422574686
 21
18.0634207292
  0
LINE
  5
5DA
100
AcDbEntity
  8
CURVE
100
AcDbLine
 62
253
  6
CONTINUOUS
 10
-2.9547574686
 20
22.7443729921
 11
-1.6547574686
 21
22.7443729921
  0
LINE
  5
5DB
100
AcDbEntity
  8
CURVE
100
AcDbLine
 62
253
  6
CONTINUOUS
 10
-5.9547574686
 20
22.9134207292
 11
-4.0547574686
 21
22.9134207292
  0
LINE
  5
5DC
100
AcDbEntity
  8
CURVE
100
AcDbLine
 62
253
  6
CONTINUOUS
 10
-2.0261860179
 20
23.1158013864
 11
-2.5833288806
 21
23.1158013864
  0
LINE
  5
5DD
100
AcDbEntity
  8
CURVE
100
AcDbLine
 62
253
  6
CONTINUOUS
 10
-2.5833288806
 20
23.7658013864
 11
-2.0261860179
 21
23.7658013864
  0
LINE
  5
5DE
100
AcDbEntity
  8
0
100
AcDbLine
 62
7
  6
CONTINUOUS
 10
-8.4147574686
 20
23.8134207292
 11
-11.3547574686
 21
23.8134207292
  0
LINE
  5
5DF
100
AcDbEntity
  8
SMUSSO
100
AcDbLine
 62
7
  6
CONTINUOUS
 10
-12.2047574686
 20
24.5634207292
 11
-11.7047574686
 21
24.0634207292
  0
LINE
  5
5E0
100
AcDbEntity
  8
ASSI
100
AcDbLine
 62
7
  6
CONTINUOUS
 10
-12.2047574686
 20
24.5634207292
 11
-11.7047574686
 21
24.0634207292
  0
LINE
  5
5E1
100
AcDbEntity
  8
SMUSSO
100
AcDbLine
 62
7
  6
CONTINUOUS
 10
-7.2047574686
 20
20.0634207292
 11
-7.7047574686
 21
20.5634207292
  0
LINE
  5
5E2
100
AcDbEntity
  8
ASSI
100
AcDbLine
 62
7
  6
CONTINUOUS
 10
-7.2047574686
 20
20.0634207292
 11
-7.7047574686
 21
20.5634207292
  0
LINE
  5
5E3
100
AcDbEntity
  8
CURVE
100
AcDbLine
 62
253
  6
CONTINUOUS
 10
-4.3261860239
 20
17.8134207292
 11
-4.0547574686
 21
17.5419921456
  0
LINE
  5
5E4
100
AcDbEntity
  8
CURVE
100
AcDbLine
 62
253
  6
CONTINUOUS
 10
-3.2672574686
 20
17.1884207292
 11
-3.1422574686
 21
17.0634207292
  0
LWPOLYLINE
  5
5E5
100
AcDbEntity
  8
RACCORDO
100
AcDbPolyline
 62
7
  6
CONTINUOUS
 90
13
 70
0
 10
-7.5047574686
 20
42.0634588054
 10
-7.5068952989
 20
42.096086464
 10
-7.5132730193
 20
42.1281554368
 10
-7.5237817458
 20
42.1591173386
 10
-7.5382420472
 20
42.1884429096
 10
-7.5564067811
 20
42.215630167
 10
-7.5779650033
 20
42.2402131945
 10
-7.6025480308
 20
42.2617714167
 10
-7.6297352882
 20
42.2799361506
 10
-7.6590608592
 20
42.294396452
 10
-7.690022761
 20
42.3049051785
 10
-7.7220917338
 20
42.3112828989
 10
-7.7547193924
 20
42.3134207292
  0
LINE
  5
5E6
100
AcDbEntity
  8
ASSI
100
AcDbLine
 62
253
  6
CONTINUOUS
 10
-4.5564725095
 20
-4.8092290016
 11
-4.5411993277
 21
-5.3144104872
  0
LINE
  5
5E7
100
AcDbEntity
  8
ASSI
100
AcDbLine
 62
253
  6
CONTINUOUS
 10
-4.7547574686
 20
-5.038153879
 11
-4.7411319057
 21
-5.4888876824
  0
LINE
  5
5E8
100
AcDbEntity
  8
ASSI
100
AcDbLine
 62
253
  6
CONTINUOUS
 10
-4.7411319057
 20
-5.4888876824
 11
-4.7410595781
 21
-5.4918946241
  0
LINE
  5
5E9
100
AcDbEntity
  8
ASSI
100
AcDbLine
 62
253
  6
CONTINUOUS
 10
-4.7410595781
 20
-5.4918946241
 11
-4.7409550727
 21
-5.4975618192
  0
LINE
  5
5EA
100
AcDbEntity
  8
ASSI
100
AcDbLine
 62
253
  6
CONTINUOUS
 10
-4.7409550727
 20
-5.4975618192
 11
-4.7408635326
 21
-5.504565972
  0
LINE
  5
5EB
100
AcDbEntity
  8
ASSI
100
AcDbLine
 62
253
  6
CONTINUOUS
 10
-4.7408635326
 20
-5.504565972
 11
-4.740774486
 21
-5.5156074765
  0
LINE
  5
5EC
100
AcDbEntity
  8
ASSI
100
AcDbLine
 62
253
  6
CONTINUOUS
 10
-4.7408305198
 20
42.5733122708
 11
-4.7407573356
 21
42.5621319166
  0
LINE
  5
5ED
100
AcDbEntity
  8
ASSI
100
AcDbLine
 62
253
  6
CONTINUOUS
 10
-4.5411993277
 20
-5.3144104872
 11
-4.5408678791
 21
-5.4121597708
  0
LINE
  5
5EE
100
AcDbEntity
  8
ASSI
100
AcDbLine
 62
253
  6
CONTINUOUS
 10
-4.740774486
 20
-5.5156074765
 11
-4.7407342619
 21
-5.5277822733
  0
LINE
  5
5EF
100
AcDbEntity
  8
CURVE
100
AcDbLine
 62
253
  6
CONTINUOUS
 10
-5.9547574686
 20
32.6134207292
 11
-5.9547574686
 21
31.9348492844
  0
LINE
  5
5F0
100
AcDbEntity
  8
CURVE
100
AcDbLine
 62
253
  6
CONTINUOUS
 10
-5.9547574686
 20
17.6777064374
 11
-5.9547574686
 21
17.1348492844
  0
LINE
  5
5F1
100
AcDbEntity
  8
0
100
AcDbLine
 62
7
  6
CONTINUOUS
 10
-5.4547574686
 20
-1.3865792708
 11
-5.4547574686
 21
-2.5865792708
  0
LINE
  5
5F2
100
AcDbEntity
  8
0
100
AcDbLine
 62
7
  6
CONTINUOUS
 10
-5.4547574686
 20
38.0134207292
 11
-5.4547574686
 21
39.2134207292
  0
LINE
  5
5F3
100
AcDbEntity
  8
ASSI
100
AcDbLine
 62
7
  6
CONTINUOUS
 10
-5.3674887907
 20
39.3879713785
 11
-5.3674887907
 21
38.1006894071
  0
LINE
  5
5F4
100
AcDbEntity
  8
ASSI
100
AcDbLine
 62
7
  6
CONTINUOUS
 10
-5.3674887907
 20
-1.4738479487
 11
-5.3674887907
 21
-2.7611299201
  0
LINE
  5
5F5
100
AcDbEntity
  8
CURVE
100
AcDbLine
 62
253
  6
CONTINUOUS
 10
-5.1404717462
 20
27.1348492844
 11
-5.1404717462
 21
27.8134207292
  0
LINE
  5
5F6
100
AcDbEntity
  8
ASSI
100
AcDbLine
 62
7
  6
CONTINUOUS
 10
-4.7547574686
 20
-5.9866097318
 11
-4.7547574686
 21
-4.0865792708
  0
LINE
  5
5F7
100
AcDbEntity
  8
ASSI
100
AcDbLine
 62
7
  6
CONTINUOUS
 10
-4.7547574686
 20
40.7134207292
 11
-4.7547574686
 21
42.6134511902
  0
LINE
  5
5F8
100
AcDbEntity
  8
ASSI
100
AcDbLine
 62
7
  6
CONTINUOUS
 10
-4.7420261465
 20
-2.6738479487
 11
-4.7420261465
 21
-1.4738479487
  0
LINE
  5
5F9
100
AcDbEntity
  8
ASSI
100
AcDbLine
 62
7
  6
CONTINUOUS
 10
-4.7420261465
 20
38.1006894071
 11
-4.7420261465
 21
39.3006894071
  0
LINE
  5
5FA
100
AcDbEntity
  8
0
100
AcDbLine
 62
7
  6
CONTINUOUS
 10
-4.6547574686
 20
-2.5865792708
 11
-4.6547574686
 21
-1.3865792708
  0
LINE
  5
5FB
100
AcDbEntity
  8
0
100
AcDbLine
 62
7
  6
CONTINUOUS
 10
-4.6547574686
 20
38.0134207292
 11
-4.6547574686
 21
39.2134207292
  0
LINE
  5
5FC
100
AcDbEntity
  8
0
100
AcDbLine
 62
7
  6
CONTINUOUS
 10
-4.5547574686
 20
39.1634207292
 11
-4.5547574686
 21
38.0134207292
  0
LINE
  5
5FD
100
AcDbEntity
  8
DRAFT
100
AcDbLine
 62
7
  6
CONTINUOUS
 10
-4.5547574686
 20
39.1634207292
 11
-4.5547574686
 21
38.0134207292
  0
LINE
  5
5FE
100
AcDbEntity
  8
0
100
AcDbLine
 62
7
  6
CONTINUOUS
 10
-4.5547574686
 20
-1.3865792708
 11
-4.5547574686
 21
-2.5365792708
  0
LINE
  5
5FF
100
AcDbEntity
  8
DRAFT
100
AcDbLine
 62
7
  6
CONTINUOUS
 10
-4.5547574686
 20
-1.3865792708
 11
-4.5547574686
 21
-2.5365792708
  0
LINE
  5
600
100
AcDbEntity
  8
ASSI
100
AcDbLine
 62
253
  6
CONTINUOUS
 10
-4.5408678791
 20
-5.4121597708
 11
-4.5407629511
 21
-5.5309168381
  0
LINE
  5
601
100
AcDbEntity
  8
ASSI
100
AcDbLine
 62
253
  6
CONTINUOUS
 10
-4.5407629511
 20
-5.5309168381
 11
-4.5407636808
 21
-5.935475016
  0
LINE
  5
602
100
AcDbEntity
  8
ASSI
100
AcDbLine
 62
253
  6
CONTINUOUS
 10
-4.7407573356
 20
42.5621319166
 11
-4.7407332396
 21
42.1552884387
  0
LINE
  5
603
100
AcDbEntity
  8
ASSI
100
AcDbLine
 62
253
  6
CONTINUOUS
 10
-4.7407342619
 20
-5.5277822733
 11
-4.740733216
 21
-5.9258680329
  0
LINE
  5
604
100
AcDbEntity
  8
ASSI
100
AcDbLine
 62
253
  6
CONTINUOUS
 10
-4.5407645744
 20
42.5652254873
 11
-4.5408434365
 21
42.0529019689
  0
LWPOLYLINE
  5
605
100
AcDbEntity
  8
ASSI
100
AcDbPolyline
 62
253
  6
CONTINUOUS
 90
3
 70
0
 10
-4.5408434365
 20
42.0529019689
 10
-4.5411527737
 20
41.9494596106
 10
-4.5411993277
 20
41.9412519455
  0
LINE
  5
606
100
AcDbEntity
  8
ASSI
100
AcDbLine
 62
253
  6
CONTINUOUS
 10
-4.740733216
 20
-5.9258680329
 11
-4.7407740363
 21
-5.9386926609
  0
LINE
  5
607
100
AcDbEntity
  8
ASSI
100
AcDbLine
 62
253
  6
CONTINUOUS
 10
-4.7407332396
 20
42.1552884387
 11
-4.7407759457
 21
42.1421779021
  0
LINE
  5
608
100
AcDbEntity
  8
ASSI
100
AcDbLine
 62
253
  6
CONTINUOUS
 10
-4.7407740363
 20
-5.9386926609
 11
-4.7408093398
 21
-5.9439638658
  0
LINE
  5
609
100
AcDbEntity
  8
ASSI
100
AcDbLine
 62
253
  6
CONTINUOUS
 10
-4.7407759457
 20
42.1421779021
 11
-4.7408622528
 21
42.1315356016
  0
LINE
  5
60A
100
AcDbEntity
  8
ASSI
100
AcDbLine
 62
253
  6
CONTINUOUS
 10
-4.7408622528
 20
42.1315356016
 11
-4.7409584395
 21
42.1241953673
  0
LINE
  5
60B
100
AcDbEntity
  8
ASSI
100
AcDbLine
 62
253
  6
CONTINUOUS
 10
-4.7409584395
 20
42.1241953673
 11
-4.7410361008
 21
42.1198528455
  0
LINE
  5
60C
100
AcDbEntity
  8
ASSI
100
AcDbLine
 62
253
  6
CONTINUOUS
 10
-4.7410361008
 20
42.1198528455
 11
-4.7411223685
 21
42.1161122326
  0
LINE
  5
60D
100
AcDbEntity
  8
ASSI
100
AcDbLine
 62
253
  6
CONTINUOUS
 10
-4.7411223685
 20
42.1161122326
 11
-4.7547574686
 21
41.6649953374
  0
LINE
  5
60E
100
AcDbEntity
  8
ASSI
100
AcDbLine
 62
253
  6
CONTINUOUS
 10
-4.5411993277
 20
41.9412519455
 11
-4.5564725095
 21
41.43607046
  0
LWPOLYLINE
  5
60F
100
AcDbEntity
  8
RACCORDO
100
AcDbPolyline
 62
7
  6
CONTINUOUS
 90
13
 70
0
 10
-7.5047574686
 20
-5.436617347
 10
-7.5068952989
 20
-5.4692450056
 10
-7.5132730193
 20
-5.5013139784
 10
-7.5237817458
 20
-5.5322758802
 10
-7.5382420472
 20
-5.5616014513
 10
-7.5564067811
 20
-5.5887887086
 10
-7.5779650033
 20
-5.6133717361
 10
-7.6025480308
 20
-5.6349299583
 10
-7.6297352882
 20
-5.6530946922
 10
-7.6590608592
 20
-5.6675549936
 10
-7.690022761
 20
-5.6780637201
 10
-7.7220917338
 20
-5.6844414406
 10
-7.7547193924
 20
-5.6865792708
  0
LWPOLYLINE
  5
610
100
AcDbEntity
  8
0
100
AcDbPolyline
 62
253
  6
CONTINUOUS
 90
4
 70
0
 10
-13.9370039144
 20
0.8543578233
 10
-13.9151426442
 20
0.8966860596
 10
-13.8852174037
 20
0.9352071509
 10
-13.8480796593
 20
0.9686065583
  0
LWPOLYLINE
  5
611
100
AcDbEntity
  8
RACCORDO
100
AcDbPolyline
 62
253
  6
CONTINUOUS
 90
4
 70
0
 10
-13.9370039144
 20
0.8543578233
 10
-13.9151426442
 20
0.8966860596
 10
-13.8852174037
 20
0.9352071509
 10
-13.8480796593
 20
0.9686065583
  0
LINE
  5
612
100
AcDbEntity
  8
CURVE
100
AcDbLine
 62
253
  6
CONTINUOUS
 10
-5.4119003015
 20
16.8634207292
 11
-4.5976145791
 21
17.8134207292
  0
LINE
  5
613
100
AcDbEntity
  8
CURVE
100
AcDbLine
 62
253
  6
CONTINUOUS
 10
-3.2047574686
 20
18.2509207292
 11
-3.3297574686
 21
18.1259207292
  0
LINE
  5
614
100
AcDbEntity
  8
CURVE
100
AcDbLine
 62
253
  6
CONTINUOUS
 10
-4.0547574686
 20
16.9991350068
 11
-4.1904718029
 21
16.8634207292
  0
LINE
  5
615
100
AcDbEntity
  8
CURVE
100
AcDbLine
 62
253
  6
CONTINUOUS
 10
-2.1422574686
 20
18.0634207292
 11
-2.2047574686
 21
18.0009207292
  0
LINE
  5
616
100
AcDbEntity
  8
SMUSSO
100
AcDbLine
 62
7
  6
CONTINUOUS
 10
-11.7047574686
 20
24.0634207292
 11
-7.7047574686
 21
24.0634207292
  0
LINE
  5
617
100
AcDbEntity
  8
ASSI
100
AcDbLine
 62
7
  6
CONTINUOUS
 10
-11.7047574686
 20
24.0634207292
 11
-7.7047574686
 21
24.0634207292
  0
LINE
  5
618
100
AcDbEntity
  8
CURVE
100
AcDbLine
 62
253
  6
CONTINUOUS
 10
-2.7690431746
 20
24.1372304006
 11
-2.3976146059
 21
24.1372304006
  0
LINE
  5
619
100
AcDbEntity
  8
RACCORDO
100
AcDbLine
 62
7
  6
CONTINUOUS
 10
-22.6678363468
 20
24.4634207292
 11
-21.7547574686
 21
24.4634207292
  0
LINE
  5
61A
100
AcDbEntity
  8
ASSI
100
AcDbLine
 62
7
  6
CONTINUOUS
 10
-22.6678363468
 20
24.4634207292
 11
-21.7547574686
 21
24.4634207292
  0
LINE
  5
61B
100
AcDbEntity
  8
SMUSSO
100
AcDbLine
 62
7
  6
CONTINUOUS
 10
-12.2047574686
 20
24.5634207292
 11
-7.2047574686
 21
24.5634207292
  0
LINE
  5
61C
100
AcDbEntity
  8
ASSI
100
AcDbLine
 62
7
  6
CONTINUOUS
 10
-12.2047574686
 20
24.5634207292
 11
-7.2047574686
 21
24.5634207292
  0
LINE
  5
61D
100
AcDbEntity
  8
CURVE
100
AcDbLine
 62
253
  6
CONTINUOUS
 10
-2.2119002926
 20
24.6943729921
 11
-1.6547574686
 21
24.6943729921
  0
LINE
  5
61E
100
AcDbEntity
  8
SMUSSO
100
AcDbLine
 62
7
  6
CONTINUOUS
 10
-7.2047574686
 20
25.0634207292
 11
-12.2047574686
 21
25.0634207292
  0
LINE
  5
61F
100
AcDbEntity
  8
ASSI
100
AcDbLine
 62
7
  6
CONTINUOUS
 10
-7.2047574686
 20
25.0634207292
 11
-12.2047574686
 21
25.0634207292
  0
LINE
  5
620
100
AcDbEntity
  8
RACCORDO
100
AcDbLine
 62
7
  6
CONTINUOUS
 10
-22.6678363468
 20
25.1634207292
 11
-21.7547574686
 21
25.1634207292
  0
LINE
  5
621
100
AcDbEntity
  8
ASSI
100
AcDbLine
 62
7
  6
CONTINUOUS
 10
-22.6678363468
 20
25.1634207292
 11
-21.7547574686
 21
25.1634207292
  0
LINE
  5
622
100
AcDbEntity
  8
SMUSSO
100
AcDbLine
 62
7
  6
CONTINUOUS
 10
-7.7047574686
 20
25.5634207292
 11
-11.7047574686
 21
25.5634207292
  0
LINE
  5
623
100
AcDbEntity
  8
ASSI
100
AcDbLine
 62
7
  6
CONTINUOUS
 10
-7.7047574686
 20
25.5634207292
 11
-11.7047574686
 21
25.5634207292
  0
LINE
  5
624
100
AcDbEntity
  8
CURVE
100
AcDbLine
 62
253
  6
CONTINUOUS
 10
-2.5172574686
 20
18.1259207292
 11
-2.6422574686
 21
18.2509207292
  0
LINE
  5
625
100
AcDbEntity
  8
CURVE
100
AcDbLine
 62
253
  6
CONTINUOUS
 10
-1.6422574686
 20
17.9384207292
 11
-1.7672574686
 21
18.0634207292
  0
LINE
  5
626
100
AcDbEntity
  8
CURVE
100
AcDbLine
 62
253
  6
CONTINUOUS
 10
-3.3922574686
 20
17.3759207292
 11
-3.2672574686
 21
17.1884207292
  0
LWPOLYLINE
  5
627
100
AcDbEntity
  8
ASSI
100
AcDbPolyline
 62
253
  6
CONTINUOUS
 90
13
 70
0
 10
-1.3683460705
 20
-5.4876155679
 10
-1.3702644249
 20
-5.4651317934
 10
-1.3755339969
 20
-5.4430284662
 10
-1.3840656202
 20
-5.421679596
 10
-1.3957149313
 20
-5.4014464263
 10
-1.4102848127
 20
-5.3826713219
 10
-1.4275287278
 20
-5.3656719756
 10
-1.4471548928
 20
-5.3507360329
 10
-1.468831214
 20
-5.3381162242
 10
-1.4921909071
 20
-5.3280260889
 10
-1.5168387035
 20
-5.3206363616
 10
-1.5423575388
 20
-5.3160720837
 10
-1.5683156095
 20
-5.3144104872
  0
LINE
  5
628
100
AcDbEntity
  8
ASSI
100
AcDbLine
 62
7
  6
CONTINUOUS
 10
-3.4547574686
 20
-4.8092290016
 11
-3.4415900117
 21
-5.2447607414
  0
LINE
  5
629
100
AcDbEntity
  8
ASSI
100
AcDbLine
 62
253
  6
CONTINUOUS
 10
-4.7411885485
 20
42.5942241936
 11
-4.7411016998
 21
42.5911276541
  0
LINE
  5
62A
100
AcDbEntity
  8
ASSI
100
AcDbLine
 62
253
  6
CONTINUOUS
 10
-4.7411016998
 20
42.5911276541
 11
-4.7410209553
 21
42.5874287845
  0
LINE
  5
62B
100
AcDbEntity
  8
ASSI
100
AcDbLine
 62
253
  6
CONTINUOUS
 10
-4.7410209553
 20
42.5874287845
 11
-4.7409146819
 21
42.5808640331
  0
LINE
  5
62C
100
AcDbEntity
  8
ASSI
100
AcDbLine
 62
253
  6
CONTINUOUS
 10
-4.5414915004
 20
42.7968536145
 11
-4.5414009067
 21
42.7910764268
  0
LINE
  5
62D
100
AcDbEntity
  8
ASSI
100
AcDbLine
 62
253
  6
CONTINUOUS
 10
-4.7409146819
 20
42.5808640331
 11
-4.7408305198
 21
42.5733122708
  0
LINE
  5
62E
100
AcDbEntity
  8
ASSI
100
AcDbLine
 62
253
  6
CONTINUOUS
 10
-4.5414009067
 20
42.7910764268
 11
-4.5412638462
 21
42.7764628913
  0
LINE
  5
62F
100
AcDbEntity
  8
ASSI
100
AcDbLine
 62
253
  6
CONTINUOUS
 10
-4.5412638462
 20
42.7764628913
 11
-4.540914466
 21
42.6910383971
  0
LINE
  5
630
100
AcDbEntity
  8
ASSI
100
AcDbLine
 62
253
  6
CONTINUOUS
 10
-4.540914466
 20
42.6910383971
 11
-4.5407645744
 21
42.5652254873
  0
LINE
  5
631
100
AcDbEntity
  8
0
100
AcDbLine
 62
7
  6
CONTINUOUS
 10
-4.5181018323
 20
39.1634207292
 11
-4.5181018323
 21
37.9767650928
  0
LINE
  5
632
100
AcDbEntity
  8
DRAFT
100
AcDbLine
 62
7
  6
CONTINUOUS
 10
-4.5181018323
 20
39.1634207292
 11
-4.5181018323
 21
37.9767650928
  0
LINE
  5
633
100
AcDbEntity
  8
0
100
AcDbLine
 62
7
  6
CONTINUOUS
 10
-4.5181018323
 20
-1.3499236345
 11
-4.5181018323
 21
-2.5365792708
  0
LINE
  5
634
100
AcDbEntity
  8
DRAFT
100
AcDbLine
 62
7
  6
CONTINUOUS
 10
-4.5181018323
 20
-1.3499236345
 11
-4.5181018323
 21
-2.5365792708
  0
LINE
  5
635
100
AcDbEntity
  8
CURVE
100
AcDbLine
 62
253
  6
CONTINUOUS
 10
-4.0547574686
 20
27.8134207292
 11
-4.0547574686
 21
27.1348492844
  0
LINE
  5
636
100
AcDbEntity
  8
CURVE
100
AcDbLine
 62
253
  6
CONTINUOUS
 10
-4.0547574686
 20
17.5419921456
 11
-4.0547574686
 21
16.9991350068
  0
LINE
  5
637
100
AcDbEntity
  8
ASSI
100
AcDbLine
 62
7
  6
CONTINUOUS
 10
-3.8967631828
 20
39.5387177519
 11
-3.8967631828
 21
39.3006894071
  0
LINE
  5
638
100
AcDbEntity
  8
ASSI
100
AcDbLine
 62
7
  6
CONTINUOUS
 10
-3.8967631828
 20
-2.6738479487
 11
-3.8967631828
 21
-2.9118762935
  0
LINE
  5
639
100
AcDbEntity
  8
ASSI
100
AcDbLine
 62
7
  6
CONTINUOUS
 10
-3.7222125335
 20
39.7185341393
 11
-3.7222125335
 21
39.2134207292
  0
LINE
  5
63A
100
AcDbEntity
  8
ASSI
100
AcDbLine
 62
7
  6
CONTINUOUS
 10
-3.7222125335
 20
-3.091692681
 11
-3.7222125335
 21
-2.5865792708
  0
LINE
  5
63B
100
AcDbEntity
  8
ASSI
100
AcDbLine
 62
7
  6
CONTINUOUS
 10
-3.4547574686
 20
41.43607046
 11
-3.4547574686
 21
40.7134207292
  0
LINE
  5
63C
100
AcDbEntity
  8
CURVE
100
AcDbLine
 62
253
  6
CONTINUOUS
 10
-3.4547574686
 20
17.8134207292
 11
-3.4547574686
 21
17.6259207292
  0
LINE
  5
63D
100
AcDbEntity
  8
ASSI
100
AcDbLine
 62
7
  6
CONTINUOUS
 10
-3.4547574686
 20
-4.0865792708
 11
-3.4547574686
 21
-4.8092290016
  0
LINE
  5
63E
100
AcDbEntity
  8
ASSI
100
AcDbLine
 62
253
  6
CONTINUOUS
 10
-3.4415900117
 20
41.8716021998
 11
-3.4415900117
 21
40.7002532723
  0
LINE
  5
63F
100
AcDbEntity
  8
ASSI
100
AcDbLine
 62
253
  6
CONTINUOUS
 10
-3.4415900117
 20
-4.0734118139
 11
-3.4415900117
 21
-5.2447607414
  0
LINE
  5
640
100
AcDbEntity
  8
ASSI
100
AcDbLine
 62
253
  6
CONTINUOUS
 10
-3.1916280879
 20
42.1577582965
 11
-3.1916280879
 21
40.6959656643
  0
LINE
  5
641
100
AcDbEntity
  8
ASSI
100
AcDbLine
 62
253
  6
CONTINUOUS
 10
-3.1916280879
 20
-4.0691242059
 11
-3.1916280879
 21
-5.5309168381
  0
LINE
  5
642
100
AcDbEntity
  8
CURVE
100
AcDbLine
 62
253
  6
CONTINUOUS
 10
-2.9547574686
 20
30.7919921799
 11
-2.9547574686
 21
30.3277063771
  0
LINE
  5
643
100
AcDbEntity
  8
CURVE
100
AcDbLine
 62
253
  6
CONTINUOUS
 10
-2.9547574686
 20
24.6943729921
 11
-2.9547574686
 21
24.3229445977
  0
LINE
  5
644
100
AcDbEntity
  8
CURVE
100
AcDbLine
 62
253
  6
CONTINUOUS
 10
-2.9547574686
 20
21.7229445977
 11
-2.9547574686
 21
21.1658013864
  0
LINE
  5
645
100
AcDbEntity
  8
CURVE
100
AcDbLine
 62
253
  6
CONTINUOUS
 10
-2.9547574686
 20
23.3943729921
 11
-2.9547574686
 21
23.4872304006
  0
LINE
  5
646
100
AcDbEntity
  8
CURVE
100
AcDbLine
 62
253
  6
CONTINUOUS
 10
-2.9547574686
 20
29.4919921799
 11
-2.9547574686
 21
29.5848492785
  0
LINE
  5
647
100
AcDbEntity
  8
CURVE
100
AcDbLine
 62
253
  6
CONTINUOUS
 10
-2.9547574686
 20
31.1634207292
 11
-2.9547574686
 21
31.8134207292
  0
LINE
  5
648
100
AcDbEntity
  8
ASSI
100
AcDbLine
 62
253
  6
CONTINUOUS
 10
-2.9178868493
 20
42.1577582965
 11
-2.9178868493
 21
40.6959656643
  0
LINE
  5
649
100
AcDbEntity
  8
ASSI
100
AcDbLine
 62
253
  6
CONTINUOUS
 10
-2.9178868493
 20
-4.0691242059
 11
-2.9178868493
 21
-5.5309168381
  0
LINE
  5
64A
100
AcDbEntity
  8
ASSI
100
AcDbLine
 62
253
  6
CONTINUOUS
 10
-4.5407636808
 20
-5.935475016
 11
-4.5409444577
 21
-6.0760858135
  0
LINE
  5
64B
100
AcDbEntity
  8
ASSI
100
AcDbLine
 62
253
  6
CONTINUOUS
 10
-4.5409444577
 20
-6.0760858135
 11
-4.5412670782
 21
-6.1500598115
  0
LWPOLYLINE
  5
64C
100
AcDbEntity
  8
ASSI
100
AcDbPolyline
 62
253
  6
CONTINUOUS
 90
6
 70
0
 10
-4.5412670782
 20
-6.1500598115
 10
-4.5414141216
 20
-6.1652648401
 10
-4.5414649002
 20
-6.1686244943
 10
-4.5415161326
 20
-6.1711072504
 10
-4.5415679901
 20
-6.172704798
 10
-4.5416204727
 20
-6.1734118139
  0
LINE
  5
64D
100
AcDbEntity
  8
ASSI
100
AcDbLine
 62
253
  6
CONTINUOUS
 10
-4.7408093398
 20
-5.9439638658
 11
-4.7409140202
 21
-5.9539755456
  0
LINE
  5
64E
100
AcDbEntity
  8
ASSI
100
AcDbLine
 62
253
  6
CONTINUOUS
 10
-4.7409140202
 20
-5.9539755456
 11
-4.7410199423
 21
-5.9605389945
  0
LINE
  5
64F
100
AcDbEntity
  8
ASSI
100
AcDbLine
 62
253
  6
CONTINUOUS
 10
-4.7410199423
 20
-5.9605389945
 11
-4.7411014211
 21
-5.9642756832
  0
LINE
  5
650
100
AcDbEntity
  8
ASSI
100
AcDbLine
 62
7
  6
CONTINUOUS
 10
-3.4415900117
 20
41.8716021998
 11
-3.4547574686
 21
41.43607046
  0
LWPOLYLINE
  5
651
100
AcDbEntity
  8
ASSI
100
AcDbPolyline
 62
253
  6
CONTINUOUS
 90
10
 70
0
 10
-4.7411014211
 20
-5.9642756832
 10
-4.741189954
 20
-5.9674252998
 10
-4.7412366922
 20
-5.9687718584
 10
-4.7412845746
 20
-5.9699525099
 10
-4.7413336153
 20
-5.9709654427
 10
-4.7413838002
 20
-5.9718124684
 10
-4.7414345866
 20
-5.9724845665
 10
-4.7414857935
 20
-5.9729787302
 10
-4.7415376019
 20
-5.9732979663
 10
-4.7415900117
 20
-5.9734422749
  0
LWPOLYLINE
  5
652
100
AcDbEntity
  8
ASSI
100
AcDbPolyline
 62
253
  6
CONTINUOUS
 90
5
 70
0
 10
-1.5678944646
 20
42.8002532723
 10
-1.5679396196
 20
42.7996971339
 10
-1.5679852168
 20
42.7984479323
 10
-1.5680312562
 20
42.796468164
 10
-1.5681252101
 20
42.7901591658
  0
LWPOLYLINE
  5
653
100
AcDbEntity
  8
ASSI
100
AcDbPolyline
 62
253
  6
CONTINUOUS
 90
13
 70
0
 10
-1.3683460705
 20
42.1144570263
 10
-1.3702644248
 20
42.0919732525
 10
-1.3755339965
 20
42.0698699259
 10
-1.3840656194
 20
42.0485210561
 10
-1.39571493
 20
42.0282878866
 10
-1.410284811
 20
42.0095127822
 10
-1.4275287257
 20
41.9925134358
 10
-1.4471548905
 20
41.9775774927
 10
-1.4688312118
 20
41.9649576837
 10
-1.4921909051
 20
41.9548675479
 10
-1.5168387021
 20
41.9474778203
 10
-1.542357538
 20
41.9429135422
 10
-1.5683156095
 20
41.9412519455
  0
LINE
  5
654
100
AcDbEntity
  8
CURVE
100
AcDbLine
 62
253
  6
CONTINUOUS
 10
-3.3922574686
 20
18.0009207292
 11
-3.4547574686
 21
17.8134207292
  0
LINE
  5
655
100
AcDbEntity
  8
CURVE
100
AcDbLine
 62
253
  6
CONTINUOUS
 10
-3.3297574686
 20
18.1259207292
 11
-3.3922574686
 21
18.0009207292
  0
LINE
  5
656
100
AcDbEntity
  8
CURVE
100
AcDbLine
 62
253
  6
CONTINUOUS
 10
-2.2047574686
 20
18.0009207292
 11
-2.2672574686
 21
17.8759207292
  0
LINE
  5
657
100
AcDbEntity
  8
ASSI
100
AcDbLine
 62
253
  6
CONTINUOUS
 10
-22.5547575332
 20
-4.0865792062
 11
-22.5373785561
 21
-4.0691242059
  0
LINE
  5
658
100
AcDbEntity
  8
ASSI
100
AcDbLine
 62
253
  6
CONTINUOUS
 10
-23.0547574686
 20
-3.5866554232
 11
-23.0373024037
 21
-3.5692003583
  0
LINE
  5
659
100
AcDbEntity
  8
0
100
AcDbLine
 62
7
  6
CONTINUOUS
 10
-11.3547574686
 20
25.8134207292
 11
-8.4147574686
 21
25.8134207292
  0
LINE
  5
65A
100
AcDbEntity
  8
CURVE
100
AcDbLine
 62
253
  6
CONTINUOUS
 10
-4.3261860239
 20
26.8634207292
 11
-4.8690431344
 21
26.8634207292
  0
LINE
  5
65B
100
AcDbEntity
  8
CURVE
100
AcDbLine
 62
7
  6
CONTINUOUS
 10
-14.9067174686
 20
27.2958647292
 11
-15.6575374686
 21
27.2958647292
  0
LINE
  5
65C
100
AcDbEntity
  8
CURVE
100
AcDbLine
 62
7
  6
CONTINUOUS
 10
-19.2519774686
 20
27.2958647292
 11
-20.0027974686
 21
27.2958647292
  0
LINE
  5
65D
100
AcDbEntity
  8
CURVE
100
AcDbLine
 62
253
  6
CONTINUOUS
 10
-2.5833288806
 20
23.1158013864
 11
-2.7690431746
 21
23.2086587949
  0
LINE
  5
65E
100
AcDbEntity
  8
CURVE
100
AcDbLine
 62
253
  6
CONTINUOUS
 10
-2.0261860179
 20
21.1658013864
 11
-2.9547574686
 21
21.7229445977
  0
LINE
  5
65F
100
AcDbEntity
  8
ASSI
100
AcDbLine
 62
253
  6
CONTINUOUS
 10
-23.0373024037
 20
40.1960418167
 11
-23.0547574686
 21
40.2134968816
  0
LINE
  5
660
100
AcDbEntity
  8
SMUSSO
100
AcDbLine
 62
7
  6
CONTINUOUS
 10
-12.2047574686
 20
29.5634207292
 11
-11.7047574686
 21
29.0634207292
  0
LINE
  5
661
100
AcDbEntity
  8
ASSI
100
AcDbLine
 62
7
  6
CONTINUOUS
 10
-12.2047574686
 20
29.5634207292
 11
-11.7047574686
 21
29.0634207292
  0
LINE
  5
662
100
AcDbEntity
  8
SMUSSO
100
AcDbLine
 62
7
  6
CONTINUOUS
 10
-7.2047574686
 20
25.0634207292
 11
-7.7047574686
 21
25.5634207292
  0
LINE
  5
663
100
AcDbEntity
  8
ASSI
100
AcDbLine
 62
7
  6
CONTINUOUS
 10
-7.2047574686
 20
25.0634207292
 11
-7.7047574686
 21
25.5634207292
  0
LINE
  5
664
100
AcDbEntity
  8
ASSI
100
AcDbLine
 62
253
  6
CONTINUOUS
 10
-22.5373785561
 20
40.6959656643
 11
-22.5547574686
 21
40.7134207292
  0
LINE
  5
665
100
AcDbEntity
  8
CURVE
100
AcDbLine
 62
253
  6
CONTINUOUS
 10
-2.3922574686
 20
17.8759207292
 11
-2.5172574686
 21
18.1259207292
  0
LINE
  5
666
100
AcDbEntity
  8
CURVE
100
AcDbLine
 62
253
  6
CONTINUOUS
 10
-3.4547574686
 20
17.6259207292
 11
-3.3922574686
 21
17.3759207292
  0
LINE
  5
667
100
AcDbEntity
  8
CURVE
100
AcDbLine
 62
253
  6
CONTINUOUS
 10
-2.3297574686
 20
17.6259207292
 11
-2.3922574686
 21
17.8759207292
  0
LWPOLYLINE
  5
668
100
AcDbEntity
  8
ASSI
100
AcDbPolyline
 62
253
  6
CONTINUOUS
 90
4
 70
0
 10
-4.5416204727
 20
42.8002532723
 10
-4.5415782942
 20
42.7997540751
 10
-4.5415353034
 20
42.7986372595
 10
-4.5414915004
 20
42.7968536145
  0
LWPOLYLINE
  5
669
100
AcDbEntity
  8
ASSI
100
AcDbPolyline
 62
253
  6
CONTINUOUS
 90
9
 70
0
 10
-1.3683169787
 20
-5.967670679
 10
-1.3682710185
 20
-5.9689625882
 10
-1.3682239993
 20
-5.9700948781
 10
-1.3681759128
 20
-5.9710661055
 10
-1.3681267672
 20
-5.9718777137
 10
-1.3680770472
 20
-5.9725219136
 10
-1.3680269143
 20
-5.9729961089
 10
-1.3679762071
 20
-5.973302896
 10
-1.3679249255
 20
-5.9734422749
  0
LINE
  5
66A
100
AcDbEntity
  8
ASSI
100
AcDbLine
 62
7
  6
CONTINUOUS
 10
-2.6679249255
 20
41.8716021998
 11
-2.6547574686
 21
41.43607046
  0
LINE
  5
66B
100
AcDbEntity
  8
ASSI
100
AcDbLine
 62
7
  6
CONTINUOUS
 10
-0.8547574686
 20
-0.6865792708
 11
-0.8722125335
 21
-0.1092290016
  0
LINE
  5
66C
100
AcDbEntity
  8
ASSI
100
AcDbLine
 62
253
  6
CONTINUOUS
 10
-1.3684043289
 20
-5.9646431154
 11
-1.3683169787
 21
-5.967670679
  0
LINE
  5
66D
100
AcDbEntity
  8
ASSI
100
AcDbLine
 62
253
  6
CONTINUOUS
 10
-1.3684851713
 20
-5.9610401553
 11
-1.3684043289
 21
-5.9646431154
  0
LWPOLYLINE
  5
66E
100
AcDbEntity
  8
ASSI
100
AcDbPolyline
 62
253
  6
CONTINUOUS
 90
4
 70
0
 10
-1.56804671
 20
-6.1688111011
 10
-1.5679965561
 20
-6.1711937616
 10
-1.5679458076
 20
-6.1727291387
 10
-1.5678944646
 20
-6.1734118139
  0
LINE
  5
66F
100
AcDbEntity
  8
ASSI
100
AcDbLine
 62
253
  6
CONTINUOUS
 10
-1.3685914824
 20
-5.9546641814
 11
-1.3684851713
 21
-5.9610401553
  0
LINE
  5
670
100
AcDbEntity
  8
ASSI
100
AcDbLine
 62
253
  6
CONTINUOUS
 10
-1.3686331695
 20
42.1297928266
 11
-1.3685282269
 21
42.1224871906
  0
LINE
  5
671
100
AcDbEntity
  8
ASSI
100
AcDbLine
 62
253
  6
CONTINUOUS
 10
-1.5681455403
 20
-6.1615411618
 11
-1.56804671
 21
-6.1688111011
  0
LINE
  5
672
100
AcDbEntity
  8
ASSI
100
AcDbLine
 62
253
  6
CONTINUOUS
 10
-1.36869935
 20
-5.9447391905
 11
-1.3685914824
 21
-5.9546641814
  0
LINE
  5
673
100
AcDbEntity
  8
ASSI
100
AcDbLine
 62
253
  6
CONTINUOUS
 10
-1.368720434
 20
42.1392503721
 11
-1.3686331695
 21
42.1297928266
  0
LINE
  5
674
100
AcDbEntity
  8
ASSI
100
AcDbLine
 62
253
  6
CONTINUOUS
 10
-1.568331013
 20
-6.1373605695
 11
-1.5681455403
 21
-6.1615411618
  0
LINE
  5
675
100
AcDbEntity
  8
ASSI
100
AcDbLine
 62
253
  6
CONTINUOUS
 10
-1.3687716219
 20
-5.9312999173
 11
-1.36869935
 21
-5.9447391905
  0
LINE
  5
676
100
AcDbEntity
  8
ASSI
100
AcDbLine
 62
253
  6
CONTINUOUS
 10
-1.3687771522
 20
42.1522589752
 11
-1.368720434
 21
42.1392503721
  0
LINE
  5
677
100
AcDbEntity
  8
ASSI
100
AcDbLine
 62
253
  6
CONTINUOUS
 10
-1.5686899685
 20
42.0652251059
 11
-1.5683156095
 21
41.9412519455
  0
LINE
  5
678
100
AcDbEntity
  8
ASSI
100
AcDbLine
 62
253
  6
CONTINUOUS
 10
-1.5687207465
 20
-5.9897052362
 11
-1.568331013
 21
-6.1373605695
  0
LINE
  5
679
100
AcDbEntity
  8
ASSI
100
AcDbLine
 62
253
  6
CONTINUOUS
 10
-2.6679249255
 20
41.8716021998
 11
-2.6679249255
 21
40.7002532723
  0
LINE
  5
67A
100
AcDbEntity
  8
ASSI
100
AcDbLine
 62
253
  6
CONTINUOUS
 10
-2.6679249255
 20
-4.0734118139
 11
-2.6679249255
 21
-5.2447607414
  0
LINE
  5
67B
100
AcDbEntity
  8
ASSI
100
AcDbLine
 62
7
  6
CONTINUOUS
 10
-2.6547574686
 20
41.43607046
 11
-2.6547574686
 21
40.7134207292
  0
LINE
  5
67C
100
AcDbEntity
  8
ASSI
100
AcDbLine
 62
7
  6
CONTINUOUS
 10
-2.6547574686
 20
-4.0865792708
 11
-2.6547574686
 21
-4.8092290016
  0
LINE
  5
67D
100
AcDbEntity
  8
CURVE
100
AcDbLine
 62
253
  6
CONTINUOUS
 10
-2.3297574686
 20
17.6884207292
 11
-2.3297574686
 21
17.6259207292
  0
LINE
  5
67E
100
AcDbEntity
  8
CURVE
100
AcDbLine
 62
253
  6
CONTINUOUS
 10
-2.2119002926
 20
22.7443729921
 11
-2.2119002926
 21
22.0943729921
  0
LINE
  5
67F
100
AcDbEntity
  8
CURVE
100
AcDbLine
 62
253
  6
CONTINUOUS
 10
-2.2119002926
 20
24.3229445977
 11
-2.2119002926
 21
24.6943729921
  0
LINE
  5
680
100
AcDbEntity
  8
CURVE
100
AcDbLine
 62
253
  6
CONTINUOUS
 10
-2.2119002926
 20
30.4205636306
 11
-2.2119002926
 21
30.6062779052
  0
LINE
  5
681
100
AcDbEntity
  8
RACCORDO
100
AcDbLine
 62
7
  6
CONTINUOUS
 10
-2.157375529
 20
-1.2128871455
 11
-2.157375529
 21
-1.2891976131
  0
LINE
  5
682
100
AcDbEntity
  8
ASSI
100
AcDbLine
 62
7
  6
CONTINUOUS
 10
-2.157375529
 20
-1.2128871455
 11
-2.157375529
 21
-1.2891976131
  0
LINE
  5
683
100
AcDbEntity
  8
CURVE
100
AcDbLine
 62
253
  6
CONTINUOUS
 10
-2.0261860179
 20
21.7229445977
 11
-2.0261860179
 21
21.1658013864
  0
LINE
  5
684
100
AcDbEntity
  8
CURVE
100
AcDbLine
 62
253
  6
CONTINUOUS
 10
-1.6547574686
 20
29.5848492785
 11
-1.6547574686
 21
29.4919921799
  0
LINE
  5
685
100
AcDbEntity
  8
CURVE
100
AcDbLine
 62
253
  6
CONTINUOUS
 10
-1.6547574686
 20
24.6943729921
 11
-1.6547574686
 21
24.1372304006
  0
LINE
  5
686
100
AcDbEntity
  8
CURVE
100
AcDbLine
 62
253
  6
CONTINUOUS
 10
-1.6547574686
 20
23.4872304006
 11
-1.6547574686
 21
23.3943729921
  0
LINE
  5
687
100
AcDbEntity
  8
CURVE
100
AcDbLine
 62
253
  6
CONTINUOUS
 10
-1.6547574686
 20
30.4205636306
 11
-1.6547574686
 21
30.7919921799
  0
LINE
  5
688
100
AcDbEntity
  8
CURVE
100
AcDbLine
 62
253
  6
CONTINUOUS
 10
-1.6547574686
 20
31.3491350038
 11
-1.6547574686
 21
31.6277064352
  0
LINE
  5
689
100
AcDbEntity
  8
CURVE
100
AcDbLine
 62
253
  6
CONTINUOUS
 10
-1.5797574686
 20
17.6259207292
 11
-1.5797574686
 21
17.7509207292
  0
LINE
  5
68A
100
AcDbEntity
  8
ASSI
100
AcDbLine
 62
253
  6
CONTINUOUS
 10
-1.5687519862
 20
-5.9234498901
 11
-1.5687207465
 21
-5.9897052362
  0
LINE
  5
68B
100
AcDbEntity
  8
ASSI
100
AcDbLine
 62
7
  6
CONTINUOUS
 10
-1.3547574686
 20
-4.0865792708
 11
-1.3547574686
 21
-5.9866097318
  0
LINE
  5
68C
100
AcDbEntity
  8
ASSI
100
AcDbLine
 62
7
  6
CONTINUOUS
 10
-1.3547574686
 20
42.6134511902
 11
-1.354757404
 21
40.7134206588
  0
LINE
  5
68D
100
AcDbEntity
  8
ASSI
100
AcDbLine
 62
253
  6
CONTINUOUS
 10
-1.3687769583
 20
-5.5254438333
 11
-1.3687716219
 21
-5.9312999173
  0
LINE
  5
68E
100
AcDbEntity
  8
ASSI
100
AcDbLine
 62
253
  6
CONTINUOUS
 10
-1.3687690392
 20
42.5590212378
 11
-1.3687771522
 21
42.1522589752
  0
LINE
  5
68F
100
AcDbEntity
  8
ASSI
100
AcDbLine
 62
253
  6
CONTINUOUS
 10
-1.5685452668
 20
42.7118269443
 11
-1.5686899685
 21
42.0652251059
  0
LINE
  5
690
100
AcDbEntity
  8
ASSI
100
AcDbLine
 62
253
  6
CONTINUOUS
 10
-1.5684217058
 20
-5.3350755923
 11
-1.5687519862
 21
-5.9234498901
  0
LINE
  5
691
100
AcDbEntity
  8
ASSI
100
AcDbLine
 62
253
  6
CONTINUOUS
 10
-1.5683156091
 20
-5.314410407
 11
-1.5684217058
 21
-5.3350755923
  0
LINE
  5
692
100
AcDbEntity
  8
ASSI
100
AcDbLine
 62
253
  6
CONTINUOUS
 10
-1.3687262244
 20
-5.5132522857
 11
-1.3687769583
 21
-5.5254438333
  0
LINE
  5
693
100
AcDbEntity
  8
ASSI
100
AcDbLine
 62
253
  6
CONTINUOUS
 10
-1.5682645246
 20
42.7746101122
 11
-1.5685452668
 21
42.7118269443
  0
LINE
  5
694
100
AcDbEntity
  8
ASSI
100
AcDbLine
 62
253
  6
CONTINUOUS
 10
-1.3687103043
 20
42.5701943895
 11
-1.3687690392
 21
42.5590212378
  0
LINE
  5
695
100
AcDbEntity
  8
ASSI
100
AcDbLine
 62
253
  6
CONTINUOUS
 10
-1.5681252101
 20
42.7901591658
 11
-1.5682645246
 21
42.7746101122
  0
LINE
  5
696
100
AcDbEntity
  8
ASSI
100
AcDbLine
 62
253
  6
CONTINUOUS
 10
-1.3686373448
 20
-5.5033091555
 11
-1.3687262244
 21
-5.5132522857
  0
LINE
  5
697
100
AcDbEntity
  8
ASSI
100
AcDbLine
 62
253
  6
CONTINUOUS
 10
-1.3686076749
 20
42.5803071646
 11
-1.3687103043
 21
42.5701943895
  0
LWPOLYLINE
  5
698
100
AcDbEntity
  8
ASSI
100
AcDbPolyline
 62
253
  6
CONTINUOUS
 90
3
 70
0
 10
-1.3685258845
 20
-5.4955087133
 10
-1.3685495108
 20
-5.4969081333
 10
-1.3686373448
 20
-5.5033091555
  0
LINE
  5
699
100
AcDbEntity
  8
ASSI
100
AcDbLine
 62
253
  6
CONTINUOUS
 10
-1.3685048672
 20
42.58685909
 11
-1.3686076749
 21
42.5803071646
  0
LINE
  5
69A
100
AcDbEntity
  8
ASSI
100
AcDbLine
 62
253
  6
CONTINUOUS
 10
-1.3684258593
 20
42.5906065826
 11
-1.3685048672
 21
42.58685909
  0
LINE
  5
69B
100
AcDbEntity
  8
ASSI
100
AcDbLine
 62
7
  6
CONTINUOUS
 10
-2.6547574686
 20
-4.8092290016
 11
-2.6679249255
 21
-5.2447607414
  0
LINE
  5
69C
100
AcDbEntity
  8
ASSI
100
AcDbLine
 62
7
  6
CONTINUOUS
 10
-0.8722125335
 20
36.73607046
 11
-0.8547574686
 21
37.3134207292
  0
LINE
  5
69D
100
AcDbEntity
  8
CURVE
100
AcDbLine
 62
253
  6
CONTINUOUS
 10
-1.6422574686
 20
17.3759207292
 11
-1.5797574686
 21
17.6259207292
  0
LINE
  5
69E
100
AcDbEntity
  8
CURVE
100
AcDbLine
 62
253
  6
CONTINUOUS
 10
-2.2672574686
 20
17.8759207292
 11
-2.3297574686
 21
17.6884207292
  0
LINE
  5
69F
100
AcDbEntity
  8
CURVE
100
AcDbLine
 62
253
  6
CONTINUOUS
 10
-1.7047574686
 20
17.1884207292
 11
-1.6422574686
 21
17.3759207292
  0
LINE
  5
6A0
100
AcDbEntity
  8
CURVE
100
AcDbLine
 62
253
  6
CONTINUOUS
 10
-1.7672574686
 20
17.0634207292
 11
-1.7047574686
 21
17.1884207292
  0
LWPOLYLINE
  5
6A1
100
AcDbEntity
  8
ASSI
100
AcDbPolyline
 62
7
  6
CONTINUOUS
 90
10
 70
0
 10
-20.5013804984
 20
-5.3144104872
 10
-20.5196731809
 20
-5.333723354
 10
-20.5406148408
 20
-5.354446141
 10
-20.5635488596
 20
-5.3765788484
 10
-20.5876870337
 20
-5.4004202382
 10
-20.6126147432
 20
-5.4256715484
 10
-20.6384065033
 20
-5.4514364921
 10
-20.6648779145
 20
-5.4774163072
 10
-20.6914831448
 20
-5.5039097558
 10
-20.7178868493
 20
-5.5309168381
  0
LINE
  5
6A2
100
AcDbEntity
  8
ASSI
100
AcDbLine
 62
7
  6
CONTINUOUS
 10
-21.2547574686
 20
-4.0865792708
 11
-21.2415900117
 21
-4.0734118139
  0
LINE
  5
6A3
100
AcDbEntity
  8
0
100
AcDbLine
 62
7
  6
CONTINUOUS
 10
-18.5420261465
 20
-1.4738479487
 11
-18.4547574686
 21
-1.3865792708
  0
LINE
  5
6A4
100
AcDbEntity
  8
ASSI
100
AcDbLine
 62
253
  6
CONTINUOUS
 10
-22.5547574686
 20
-5.9866097318
 11
-22.5415900117
 21
-5.9734422749
  0
LINE
  5
6A5
100
AcDbEntity
  8
ASSI
100
AcDbLine
 62
253
  6
CONTINUOUS
 10
-22.3547879296
 20
-6.1865792708
 11
-22.3416204727
 21
-6.1734118139
  0
LINE
  5
6A6
100
AcDbEntity
  8
CURVE
100
AcDbLine
 62
7
  6
CONTINUOUS
 10
-17.0797574686
 20
27.6958647292
 11
-17.8297574686
 21
27.6958647292
  0
LINE
  5
6A7
100
AcDbEntity
  8
CURVE
100
AcDbLine
 62
253
  6
CONTINUOUS
 10
-5.9547574686
 20
27.8134207292
 11
-4.0547574686
 21
27.8134207292
  0
LINE
  5
6A8
100
AcDbEntity
  8
0
100
AcDbLine
 62
7
  6
CONTINUOUS
 10
-8.4147574686
 20
28.8134207292
 11
-11.3547574686
 21
28.8134207292
  0
LINE
  5
6A9
100
AcDbEntity
  8
SMUSSO
100
AcDbLine
 62
7
  6
CONTINUOUS
 10
-11.7047574686
 20
29.0634207292
 11
-7.7047574686
 21
29.0634207292
  0
LINE
  5
6AA
100
AcDbEntity
  8
ASSI
100
AcDbLine
 62
7
  6
CONTINUOUS
 10
-11.7047574686
 20
29.0634207292
 11
-7.7047574686
 21
29.0634207292
  0
LINE
  5
6AB
100
AcDbEntity
  8
CURVE
100
AcDbLine
 62
253
  6
CONTINUOUS
 10
-2.0261860179
 20
29.2134207292
 11
-2.5833288806
 21
29.2134207292
  0
LINE
  5
6AC
100
AcDbEntity
  8
CURVE
100
AcDbLine
 62
253
  6
CONTINUOUS
 10
-2.0261860179
 20
23.7658013864
 11
-1.8404717433
 21
23.6729445977
  0
LINE
  5
6AD
100
AcDbEntity
  8
ASSI
100
AcDbLine
 62
7
  6
CONTINUOUS
 10
-21.2547574686
 20
40.7134207292
 11
-21.2415900117
 21
40.7002532723
  0
LINE
  5
6AE
100
AcDbEntity
  8
0
100
AcDbLine
 62
7
  6
CONTINUOUS
 10
-18.5420261465
 20
38.1006894071
 11
-18.4547574686
 21
38.0134207292
  0
LINE
  5
6AF
100
AcDbEntity
  8
ASSI
100
AcDbLine
 62
253
  6
CONTINUOUS
 10
-22.5415900117
 20
42.6002837332
 11
-22.5547574686
 21
42.6134511902
  0
LINE
  5
6B0
100
AcDbEntity
  8
CURVE
100
AcDbLine
 62
253
  6
CONTINUOUS
 10
-2.7690431746
 20
23.2086587949
 11
-2.9547574686
 21
23.3943729921
  0
LINE
  5
6B1
100
AcDbEntity
  8
ASSI
100
AcDbLine
 62
253
  6
CONTINUOUS
 10
-22.3416204727
 20
42.8002532723
 11
-22.3547879296
 21
42.8134207292
  0
LINE
  5
6B2
100
AcDbEntity
  8
CURVE
100
AcDbLine
 62
253
  6
CONTINUOUS
 10
-2.9547574686
 20
24.3229445977
 11
-2.7690431746
 21
24.1372304006
  0
LINE
  5
6B3
100
AcDbEntity
  8
CURVE
100
AcDbLine
 62
253
  6
CONTINUOUS
 10
-1.8404717433
 20
23.6729445977
 11
-1.6547574686
 21
23.4872304006
  0
LINE
  5
6B4
100
AcDbEntity
  8
CURVE
100
AcDbLine
 62
253
  6
CONTINUOUS
 10
-1.5797574686
 20
17.7509207292
 11
-1.6422574686
 21
17.9384207292
  0
LWPOLYLINE
  5
6B5
100
AcDbEntity
  8
ASSI
100
AcDbPolyline
 62
253
  6
CONTINUOUS
 90
13
 70
0
 10
-1.3679249255
 20
42.6002837332
 10
-1.3696429726
 20
42.6263799178
 10
-1.374751834
 20
42.6520297717
 10
-1.3831641329
 20
42.6767945894
 10
-1.394735991
 20
42.7002508013
 10
-1.4092694908
 20
42.7219972208
 10
-1.4265160611
 20
42.7416619052
 10
-1.4461807271
 20
42.7589085152
 10
-1.4679271528
 20
42.7734420661
 10
-1.4913833936
 20
42.7850139759
 10
-1.5161482616
 20
42.7934263197
 10
-1.541798188
 20
42.7985352131
 10
-1.5678944646
 20
42.8002532723
  0
LWPOLYLINE
  5
6B6
100
AcDbEntity
  8
ASSI
100
AcDbPolyline
 62
7
  6
CONTINUOUS
 90
16
 70
0
 10
-0.8547574686
 20
40.2134968816
 10
-0.8574541804
 20
40.2653735288
 10
-0.8655625369
 20
40.3169045481
 10
-0.8790618334
 20
40.3675186852
 10
-0.8979500501
 20
40.416824341
 10
-0.9220409477
 20
40.464052901
 10
-0.9507774496
 20
40.5081606103
 10
-0.9834431824
 20
40.548390557
 10
-1.0198211727
 20
40.5847708139
 10
-1.0600494718
 20
40.6174378795
 10
-1.104155334
 20
40.6461746172
 10
-1.1513825972
 20
40.6702648436
 10
-1.200691685
 20
40.6891498678
 10
-1.2513155643
 20
40.7026422007
 10
-1.3028612708
 20
40.7107395933
 10
-1.354757404
 20
40.7134206588
  0
LINE
  5
6B7
100
AcDbEntity
  8
ASSI
100
AcDbLine
 62
7
  6
CONTINUOUS
 10
-0.8285715471
 20
36.73607046
 11
-0.8547574686
 21
37.3134207292
  0
LINE
  5
6B8
100
AcDbEntity
  8
ASSI
100
AcDbLine
 62
253
  6
CONTINUOUS
 10
-1.5683156095
 20
41.9412519455
 11
-1.5530424277
 21
41.43607046
  0
LINE
  5
6B9
100
AcDbEntity
  8
ASSI
100
AcDbLine
 62
253
  6
CONTINUOUS
 10
-1.3683872446
 20
42.1159288242
 11
-1.3547574686
 21
41.6649953374
  0
LINE
  5
6BA
100
AcDbEntity
  8
ASSI
100
AcDbLine
 62
253
  6
CONTINUOUS
 10
-1.3684625119
 20
42.1190680424
 11
-1.3683872446
 21
42.1159288242
  0
LINE
  5
6BB
100
AcDbEntity
  8
ASSI
100
AcDbLine
 62
253
  6
CONTINUOUS
 10
-1.3685282269
 20
42.1224871906
 11
-1.3684625119
 21
42.1190680424
  0
LINE
  5
6BC
100
AcDbEntity
  8
RACCORDO
100
AcDbLine
 62
7
  6
CONTINUOUS
 10
-0.9416671669
 20
0.3221963391
 11
-0.9416671669
 21
36.3046451193
  0
LINE
  5
6BD
100
AcDbEntity
  8
ASSI
100
AcDbLine
 62
7
  6
CONTINUOUS
 10
-0.9416671669
 20
0.3221963391
 11
-0.9416671669
 21
36.3046451193
  0
LINE
  5
6BE
100
AcDbEntity
  8
0
100
AcDbLine
 62
7
  6
CONTINUOUS
 10
-0.9269429231
 20
0.6923325528
 11
-0.9269429231
 21
35.9345089055
  0
LINE
  5
6BF
100
AcDbEntity
  8
RACCORDO
100
AcDbLine
 62
7
  6
CONTINUOUS
 10
-0.9269429231
 20
0.6923325528
 11
-0.9269429231
 21
35.9345089055
  0
LINE
  5
6C0
100
AcDbEntity
  8
ASSI
100
AcDbLine
 62
7
  6
CONTINUOUS
 10
-0.8722125335
 20
40.1960418167
 11
-0.8722125335
 21
36.73607046
  0
LINE
  5
6C1
100
AcDbEntity
  8
ASSI
100
AcDbLine
 62
7
  6
CONTINUOUS
 10
-0.8722125335
 20
-0.1092290016
 11
-0.8722125335
 21
-3.5692003583
  0
LINE
  5
6C2
100
AcDbEntity
  8
ASSI
100
AcDbLine
 62
7
  6
CONTINUOUS
 10
-0.8547574686
 20
40.2134204941
 11
-0.8547574686
 21
37.3134207292
  0
LINE
  5
6C3
100
AcDbEntity
  8
ASSI
100
AcDbLine
 62
7
  6
CONTINUOUS
 10
-0.8547574686
 20
-3.5865790357
 11
-0.8547574686
 21
-0.6865792708
  0
LINE
  5
6C4
100
AcDbEntity
  8
DRAFT
100
AcDbLine
 62
7
  6
CONTINUOUS
 10
-0.8285715471
 20
-0.1092290016
 11
-0.8285715471
 21
0.345818963
  0
LINE
  5
6C5
100
AcDbEntity
  8
DRAFT
100
AcDbLine
 62
7
  6
CONTINUOUS
 10
-0.8285715471
 20
36.2810224954
 11
-0.8285715471
 21
36.73607046
  0
LINE
  5
6C6
100
AcDbEntity
  8
0
100
AcDbLine
 62
7
  6
CONTINUOUS
 10
-0.8047574686
 20
0.6417216805
 11
-0.8047574686
 21
35.9851197779
  0
LINE
  5
6C7
100
AcDbEntity
  8
RACCORDO
100
AcDbLine
 62
7
  6
CONTINUOUS
 10
-0.8047574686
 20
0.6417216805
 11
-0.8047574686
 21
35.9851197779
  0
LINE
  5
6C8
100
AcDbEntity
  8
ASSI
100
AcDbLine
 62
253
  6
CONTINUOUS
 10
-1.368452178
 20
-5.4917482228
 11
-1.3685258845
 21
-5.4955087133
  0
LINE
  5
6C9
100
AcDbEntity
  8
ASSI
100
AcDbLine
 62
253
  6
CONTINUOUS
 10
-1.3683734836
 20
-5.4885594933
 11
-1.368452178
 21
-5.4917482228
  0
LINE
  5
6CA
100
AcDbEntity
  8
ASSI
100
AcDbLine
 62
253
  6
CONTINUOUS
 10
-1.5530424277
 20
-4.8092290016
 11
-1.5683156071
 21
-5.314410407
  0
LINE
  5
6CB
100
AcDbEntity
  8
ASSI
100
AcDbLine
 62
253
  6
CONTINUOUS
 10
-1.3547574686
 20
-5.038153879
 11
-1.3683734836
 21
-5.4885594933
  0
LINE
  5
6CC
100
AcDbEntity
  8
ASSI
100
AcDbLine
 62
7
  6
CONTINUOUS
 10
-0.8547574686
 20
-0.6865792708
 11
-0.8285715471
 21
-0.1092290016
  0
LWPOLYLINE
  5
6CD
100
AcDbEntity
  8
ASSI
100
AcDbPolyline
 62
7
  6
CONTINUOUS
 90
16
 70
0
 10
-0.8547574686
 20
-3.5865790357
 10
-0.8574537514
 20
-3.6384890617
 10
-0.865560908
 20
-3.6900404775
 10
-0.879057431
 20
-3.7406636234
 10
-0.8979403405
 20
-3.789964325
 10
-0.9220225522
 20
-3.8371802267
 10
-0.9507495354
 20
-3.8812808733
 10
-0.9834098723
 20
-3.9215130089
 10
-1.0197871061
 20
-3.9578988225
 10
-1.0600166996
 20
-3.9905725161
 10
-1.104125843
 20
-4.0193158852
 10
-1.1513593001
 20
-4.043412332
 10
-1.2006748992
 20
-4.0623029783
 10
-1.2513045631
 20
-4.0757997895
 10
-1.3028560063
 20
-4.0838992605
 10
-1.3547574684
 20
-4.0865790073
  0
LWPOLYLINE
  5
6CE
100
AcDbEntity
  8
ASSI
100
AcDbPolyline
 62
253
  6
CONTINUOUS
 90
13
 70
0
 10
-1.3679249255
 20
-5.9734422749
 10
-1.3696429788
 20
-5.9995385063
 10
-1.3747518564
 20
-6.0251883969
 10
-1.383164178
 20
-6.0499532398
 10
-1.394736062
 20
-6.0734094659
 10
-1.4092695871
 20
-6.0951558879
 10
-1.4265161768
 20
-6.1148205626
 10
-1.4461808516
 20
-6.1320671524
 10
-1.4679272736
 20
-6.1466006774
 10
-1.4913834996
 20
-6.1581725615
 10
-1.5161483425
 20
-6.166584883
 10
-1.5417982331
 20
-6.1716937607
 10
-1.5678944646
 20
-6.1734118139
  0
LINE
  5
6CF
100
AcDbEntity
  8
0
100
AcDbLine
 62
7
  6
CONTINUOUS
 10
-15.4547574686
 20
-1.3865792708
 11
-15.4181018323
 21
-1.3499236345
  0
LINE
  5
6D0
100
AcDbEntity
  8
DRAFT
100
AcDbLine
 62
7
  6
CONTINUOUS
 10
-15.4547574686
 20
-1.3865792708
 11
-15.4181018323
 21
-1.3499236345
  0
LINE
  5
6D1
100
AcDbEntity
  8
0
100
AcDbLine
 62
7
  6
CONTINUOUS
 10
-15.4547574686
 20
-1.5865792708
 11
-15.4181018323
 21
-1.5499236345
  0
LINE
  5
6D2
100
AcDbEntity
  8
DRAFT
100
AcDbLine
 62
7
  6
CONTINUOUS
 10
-15.4547574686
 20
-1.5865792708
 11
-15.4181018323
 21
-1.5499236345
  0
LINE
  5
6D3
100
AcDbEntity
  8
RACCORDO
100
AcDbLine
 62
7
  6
CONTINUOUS
 10
-16.4047574686
 20
-4.0865792708
 11
-16.3073387041
 21
-3.9891605063
  0
LINE
  5
6D4
100
AcDbEntity
  8
0
100
AcDbLine
 62
253
  6
CONTINUOUS
 10
-23.1047574686
 20
0.6417216805
 11
-22.9825720141
 21
0.6923325528
  0
LINE
  5
6D5
100
AcDbEntity
  8
RACCORDO
100
AcDbLine
 62
253
  6
CONTINUOUS
 10
-23.1047574686
 20
0.6417216805
 11
-22.9825720141
 21
0.6923325528
  0
LINE
  5
6D6
100
AcDbEntity
  8
RACCORDO
100
AcDbLine
 62
7
  6
CONTINUOUS
 10
-22.6678363468
 20
29.4634207292
 11
-21.7547574686
 21
29.4634207292
  0
LINE
  5
6D7
100
AcDbEntity
  8
ASSI
100
AcDbLine
 62
7
  6
CONTINUOUS
 10
-22.6678363468
 20
29.4634207292
 11
-21.7547574686
 21
29.4634207292
  0
LINE
  5
6D8
100
AcDbEntity
  8
SMUSSO
100
AcDbLine
 62
7
  6
CONTINUOUS
 10
-12.2047574686
 20
29.5634207292
 11
-7.2047574686
 21
29.5634207292
  0
LINE
  5
6D9
100
AcDbEntity
  8
ASSI
100
AcDbLine
 62
7
  6
CONTINUOUS
 10
-12.2047574686
 20
29.5634207292
 11
-7.2047574686
 21
29.5634207292
  0
LINE
  5
6DA
100
AcDbEntity
  8
CURVE
100
AcDbLine
 62
253
  6
CONTINUOUS
 10
-2.5833288806
 20
29.8634207292
 11
-2.0261860179
 21
29.8634207292
  0
LINE
  5
6DB
100
AcDbEntity
  8
SMUSSO
100
AcDbLine
 62
7
  6
CONTINUOUS
 10
-7.2047574686
 20
30.0634207292
 11
-12.2047574686
 21
30.0634207292
  0
LINE
  5
6DC
100
AcDbEntity
  8
ASSI
100
AcDbLine
 62
7
  6
CONTINUOUS
 10
-7.2047574686
 20
30.0634207292
 11
-12.2047574686
 21
30.0634207292
  0
LINE
  5
6DD
100
AcDbEntity
  8
RACCORDO
100
AcDbLine
 62
7
  6
CONTINUOUS
 10
-22.6678363468
 20
30.1634207292
 11
-21.7547574686
 21
30.1634207292
  0
LINE
  5
6DE
100
AcDbEntity
  8
ASSI
100
AcDbLine
 62
7
  6
CONTINUOUS
 10
-22.6678363468
 20
30.1634207292
 11
-21.7547574686
 21
30.1634207292
  0
LINE
  5
6DF
100
AcDbEntity
  8
CURVE
100
AcDbLine
 62
253
  6
CONTINUOUS
 10
-2.8619003216
 20
30.2348492785
 11
-2.3976146059
 21
30.2348492785
  0
LINE
  5
6E0
100
AcDbEntity
  8
CURVE
100
AcDbLine
 62
253
  6
CONTINUOUS
 10
-2.119043194
 20
30.2658016963
 11
-1.8404717433
 21
30.2658016963
  0
LINE
  5
6E1
100
AcDbEntity
  8
SMUSSO
100
AcDbLine
 62
7
  6
CONTINUOUS
 10
-7.7047574686
 20
30.5634207292
 11
-11.7047574686
 21
30.5634207292
  0
LINE
  5
6E2
100
AcDbEntity
  8
ASSI
100
AcDbLine
 62
7
  6
CONTINUOUS
 10
-7.7047574686
 20
30.5634207292
 11
-11.7047574686
 21
30.5634207292
  0
LINE
  5
6E3
100
AcDbEntity
  8
0
100
AcDbLine
 62
7
  6
CONTINUOUS
 10
-11.3547574686
 20
30.8134207292
 11
-8.4147574686
 21
30.8134207292
  0
LINE
  5
6E4
100
AcDbEntity
  8
CURVE
100
AcDbLine
 62
253
  6
CONTINUOUS
 10
-2.9547574686
 20
28.4705636306
 11
-1.6547574686
 21
28.0991349263
  0
LINE
  5
6E5
100
AcDbEntity
  8
0
100
AcDbLine
 62
253
  6
CONTINUOUS
 10
-22.9825720141
 20
35.9345089055
 11
-23.1047574686
 21
35.9851197779
  0
LINE
  5
6E6
100
AcDbEntity
  8
RACCORDO
100
AcDbLine
 62
253
  6
CONTINUOUS
 10
-22.9825720141
 20
35.9345089055
 11
-23.1047574686
 21
35.9851197779
  0
LWPOLYLINE
  5
6E7
100
AcDbEntity
  8
ASSI
100
AcDbPolyline
 62
7
  6
CONTINUOUS
 90
10
 70
0
 10
-20.5013804984
 20
41.9412519455
 10
-20.5206933652
 20
41.959544628
 10
-20.5414161523
 20
41.9804862879
 10
-20.5635488596
 20
42.0034203068
 10
-20.5873902495
 20
42.0275584809
 10
-20.6126415596
 20
42.0524861903
 10
-20.6384065033
 20
42.0782779504
 10
-20.6643863184
 20
42.1047493616
 10
-20.690879767
 20
42.1313545919
 10
-20.7178868493
 20
42.1577582965
  0
LINE
  5
6E8
100
AcDbEntity
  8
CURVE
100
AcDbLine
 62
253
  6
CONTINUOUS
 10
-4.8690431344
 20
26.8634207292
 11
-5.1404717462
 21
27.1348492844
  0
LINE
  5
6E9
100
AcDbEntity
  8
SMUSSO
100
AcDbLine
 62
7
  6
CONTINUOUS
 10
-12.2047574686
 20
34.5634207292
 11
-11.7047574686
 21
34.0634207292
  0
LINE
  5
6EA
100
AcDbEntity
  8
ASSI
100
AcDbLine
 62
7
  6
CONTINUOUS
 10
-12.2047574686
 20
34.5634207292
 11
-11.7047574686
 21
34.0634207292
  0
LINE
  5
6EB
100
AcDbEntity
  8
0
100
AcDbLine
 62
7
  6
CONTINUOUS
 10
-15.4547574686
 20
38.0134207292
 11
-15.4181018323
 21
37.9767650928
  0
LINE
  5
6EC
100
AcDbEntity
  8
DRAFT
100
AcDbLine
 62
7
  6
CONTINUOUS
 10
-15.4547574686
 20
38.0134207292
 11
-15.4181018323
 21
37.9767650928
  0
LINE
  5
6ED
100
AcDbEntity
  8
0
100
AcDbLine
 62
7
  6
CONTINUOUS
 10
-15.4181018323
 20
38.1767650928
 11
-15.4547574686
 21
38.2134207292
  0
LINE
  5
6EE
100
AcDbEntity
  8
DRAFT
100
AcDbLine
 62
7
  6
CONTINUOUS
 10
-15.4181018323
 20
38.1767650928
 11
-15.4547574686
 21
38.2134207292
  0
LINE
  5
6EF
100
AcDbEntity
  8
SMUSSO
100
AcDbLine
 62
7
  6
CONTINUOUS
 10
-7.2047574686
 20
30.0634207292
 11
-7.7047574686
 21
30.5634207292
  0
LINE
  5
6F0
100
AcDbEntity
  8
ASSI
100
AcDbLine
 62
7
  6
CONTINUOUS
 10
-7.2047574686
 20
30.0634207292
 11
-7.7047574686
 21
30.5634207292
  0
LINE
  5
6F1
100
AcDbEntity
  8
RACCORDO
100
AcDbLine
 62
7
  6
CONTINUOUS
 10
-16.4047574686
 20
40.7134207292
 11
-16.3073387041
 21
40.6160019647
  0
LINE
  5
6F2
100
AcDbEntity
  8
CURVE
100
AcDbLine
 62
253
  6
CONTINUOUS
 10
-2.5523765015
 20
27.727706532
 11
-2.4595193642
 21
27.511039762
  0
LINE
  5
6F3
100
AcDbEntity
  8
CURVE
100
AcDbLine
 62
253
  6
CONTINUOUS
 10
-2.6452336582
 20
27.2634207292
 11
-2.5523765015
 21
27.0158016963
  0
LINE
  5
6F4
100
AcDbEntity
  8
ASSI
100
AcDbLine
 62
7
  6
CONTINUOUS
 10
-4.6535341259
 20
-3.9117239886
 11
-4.6996440585
 21
-4.0691242059
  0
LINE
  5
6F5
100
AcDbEntity
  8
RACCORDO
100
AcDbLine
 62
253
  6
CONTINUOUS
 10
-16.3073387041
 20
-5.3391985825
 11
-16.4047574686
 21
-5.436617347
  0
LINE
  5
6F6
100
AcDbEntity
  8
RACCORDO
100
AcDbLine
 62
253
  6
CONTINUOUS
 10
-16.0573767803
 20
-5.5891605063
 11
-16.1547955448
 21
-5.6865792708
  0
LWPOLYLINE
  5
6F7
100
AcDbEntity
  8
0
100
AcDbPolyline
 62
253
  6
CONTINUOUS
 90
3
 70
0
 10
-13.8480796593
 20
0.9686065583
 10
-13.8050341253
 20
0.9956566893
 10
-13.7575094052
 20
1.0155191854
  0
LWPOLYLINE
  5
6F8
100
AcDbEntity
  8
RACCORDO
100
AcDbPolyline
 62
253
  6
CONTINUOUS
 90
3
 70
0
 10
-13.8480796593
 20
0.9686065583
 10
-13.8050341253
 20
0.9956566893
 10
-13.7575094052
 20
1.0155191854
  0
LINE
  5
6F9
100
AcDbEntity
  8
0
100
AcDbLine
 62
253
  6
CONTINUOUS
 10
-22.5190602491
 20
-0.7722764903
 11
-22.3968747946
 21
-0.721665618
  0
LINE
  5
6FA
100
AcDbEntity
  8
RACCORDO
100
AcDbLine
 62
253
  6
CONTINUOUS
 10
-22.5190602491
 20
-0.7722764903
 11
-22.3968747946
 21
-0.721665618
  0
LINE
  5
6FB
100
AcDbEntity
  8
CURVE
100
AcDbLine
 62
253
  6
CONTINUOUS
 10
-2.0261860179
 20
31.1634207292
 11
-1.8404717433
 21
31.1634207292
  0
LINE
  5
6FC
100
AcDbEntity
  8
CURVE
100
AcDbLine
 62
7
  6
CONTINUOUS
 10
-14.9067174686
 20
31.6809747292
 11
-15.6575374686
 21
31.6809747292
  0
LINE
  5
6FD
100
AcDbEntity
  8
CURVE
100
AcDbLine
 62
7
  6
CONTINUOUS
 10
-19.2519774686
 20
31.6809747292
 11
-20.0027974686
 21
31.6809747292
  0
LINE
  5
6FE
100
AcDbEntity
  8
CURVE
100
AcDbLine
 62
253
  6
CONTINUOUS
 10
-4.0547574686
 20
32.6134207292
 11
-5.9547574686
 21
32.6134207292
  0
LINE
  5
6FF
100
AcDbEntity
  8
0
100
AcDbLine
 62
253
  6
CONTINUOUS
 10
-21.8142982412
 20
32.8789710308
 11
-21.7547574686
 21
32.8789710308
  0
LINE
  5
700
100
AcDbEntity
  8
RACCORDO
100
AcDbLine
 62
253
  6
CONTINUOUS
 10
-21.8142982412
 20
32.8789710308
 11
-21.7547574686
 21
32.8789710308
  0
LINE
  5
701
100
AcDbEntity
  8
0
100
AcDbLine
 62
253
  6
CONTINUOUS
 10
-22.3968747946
 20
37.3485070763
 11
-22.5190602491
 21
37.3991179487
  0
LINE
  5
702
100
AcDbEntity
  8
RACCORDO
100
AcDbLine
 62
253
  6
CONTINUOUS
 10
-22.3968747946
 20
37.3485070763
 11
-22.5190602491
 21
37.3991179487
  0
LINE
  5
703
100
AcDbEntity
  8
CURVE
100
AcDbLine
 62
253
  6
CONTINUOUS
 10
-2.5833288806
 20
29.2134207292
 11
-2.7690431746
 21
29.3062778278
  0
LWPOLYLINE
  5
704
100
AcDbEntity
  8
0
100
AcDbPolyline
 62
253
  6
CONTINUOUS
 90
4
 70
0
 10
-13.8480796593
 20
35.6582349001
 10
-13.8050341253
 20
35.6311847691
 10
-13.7575094052
 20
35.611322273
 10
-13.7068999339
 20
35.5991766552
  0
LWPOLYLINE
  5
705
100
AcDbEntity
  8
RACCORDO
100
AcDbPolyline
 62
253
  6
CONTINUOUS
 90
4
 70
0
 10
-13.8480796593
 20
35.6582349001
 10
-13.8050341253
 20
35.6311847691
 10
-13.7575094052
 20
35.611322273
 10
-13.7068999339
 20
35.5991766552
  0
LINE
  5
706
100
AcDbEntity
  8
RACCORDO
100
AcDbLine
 62
253
  6
CONTINUOUS
 10
-16.4047574686
 20
42.0634588054
 11
-16.3073387041
 21
41.9660400409
  0
LINE
  5
707
100
AcDbEntity
  8
RACCORDO
100
AcDbLine
 62
253
  6
CONTINUOUS
 10
-16.1547955448
 20
42.3134207292
 11
-16.0573767803
 21
42.2160019647
  0
LINE
  5
708
100
AcDbEntity
  8
CURVE
100
AcDbLine
 62
253
  6
CONTINUOUS
 10
-2.7690431746
 20
29.3062778278
 11
-2.9547574686
 21
29.4919921799
  0
LINE
  5
709
100
AcDbEntity
  8
CURVE
100
AcDbLine
 62
253
  6
CONTINUOUS
 10
-2.2119002926
 20
30.4205636306
 11
-2.119043194
 21
30.2658016963
  0
LINE
  5
70A
100
AcDbEntity
  8
ASSI
100
AcDbLine
 62
7
  6
CONTINUOUS
 10
-4.6535341259
 20
40.538565447
 11
-4.6996440585
 21
40.6959656643
  0
LINE
  5
70B
100
AcDbEntity
  8
0
100
AcDbLine
 62
253
  6
CONTINUOUS
 10
-21.8133707885
 20
33.1789253394
 11
-21.7547574686
 21
33.1789253394
  0
LINE
  5
70C
100
AcDbEntity
  8
RACCORDO
100
AcDbLine
 62
253
  6
CONTINUOUS
 10
-21.8133707885
 20
33.1789253394
 11
-21.7547574686
 21
33.1789253394
  0
LINE
  5
70D
100
AcDbEntity
  8
0
100
AcDbLine
 62
7
  6
CONTINUOUS
 10
-21.8133239904
 20
33.1912352747
 11
-21.7547574686
 21
33.1912352747
  0
LINE
  5
70E
100
AcDbEntity
  8
RACCORDO
100
AcDbLine
 62
7
  6
CONTINUOUS
 10
-21.8133239904
 20
33.1912352747
 11
-21.7547574686
 21
33.1912352747
  0
LINE
  5
70F
100
AcDbEntity
  8
0
100
AcDbLine
 62
7
  6
CONTINUOUS
 10
-8.4147574686
 20
33.8134207292
 11
-11.3547574686
 21
33.8134207292
  0
LINE
  5
710
100
AcDbEntity
  8
SMUSSO
100
AcDbLine
 62
7
  6
CONTINUOUS
 10
-11.7047574686
 20
34.0634207292
 11
-7.7047574686
 21
34.0634207292
  0
LINE
  5
711
100
AcDbEntity
  8
ASSI
100
AcDbLine
 62
7
  6
CONTINUOUS
 10
-11.7047574686
 20
34.0634207292
 11
-7.7047574686
 21
34.0634207292
  0
LINE
  5
712
100
AcDbEntity
  8
RACCORDO
100
AcDbLine
 62
7
  6
CONTINUOUS
 10
-22.6678363468
 20
34.4634207292
 11
-21.7547574686
 21
34.4634207292
  0
LINE
  5
713
100
AcDbEntity
  8
ASSI
100
AcDbLine
 62
7
  6
CONTINUOUS
 10
-22.6678363468
 20
34.4634207292
 11
-21.7547574686
 21
34.4634207292
  0
LINE
  5
714
100
AcDbEntity
  8
SMUSSO
100
AcDbLine
 62
7
  6
CONTINUOUS
 10
-12.2047574686
 20
34.5634207292
 11
-7.2047574686
 21
34.5634207292
  0
LINE
  5
715
100
AcDbEntity
  8
ASSI
100
AcDbLine
 62
7
  6
CONTINUOUS
 10
-12.2047574686
 20
34.5634207292
 11
-7.2047574686
 21
34.5634207292
  0
LINE
  5
716
100
AcDbEntity
  8
CURVE
100
AcDbLine
 62
253
  6
CONTINUOUS
 10
-2.0261860179
 20
29.8634207292
 11
-1.8404717433
 21
29.7705636306
  0
LINE
  5
717
100
AcDbEntity
  8
CURVE
100
AcDbLine
 62
253
  6
CONTINUOUS
 10
-2.9547574686
 20
31.8134207292
 11
-2.0261860179
 21
31.1634207292
  0
LINE
  5
718
100
AcDbEntity
  8
CURVE
100
AcDbLine
 62
253
  6
CONTINUOUS
 10
-2.9547574686
 20
30.3277063771
 11
-2.8619003216
 21
30.2348492785
  0
LINE
  5
719
100
AcDbEntity
  8
CURVE
100
AcDbLine
 62
253
  6
CONTINUOUS
 10
-1.8404717433
 20
29.7705636306
 11
-1.6547574686
 21
29.5848492785
  0
LINE
  5
71A
100
AcDbEntity
  8
RACCORDO
100
AcDbLine
 62
253
  6
CONTINUOUS
 10
-11.1373024037
 20
-5.4191622821
 11
-11.1547574686
 21
-5.436617347
  0
LINE
  5
71B
100
AcDbEntity
  8
RACCORDO
100
AcDbLine
 62
253
  6
CONTINUOUS
 10
-10.8873404799
 20
-5.6691242059
 11
-10.9047955448
 21
-5.6865792708
  0
LINE
  5
71C
100
AcDbEntity
  8
0
100
AcDbLine
 62
253
  6
CONTINUOUS
 10
-10.2026150033
 20
35.5991766552
 11
-10.2547574686
 21
35.5950925719
  0
LINE
  5
71D
100
AcDbEntity
  8
RACCORDO
100
AcDbLine
 62
253
  6
CONTINUOUS
 10
-10.2026150033
 20
35.5991766552
 11
-10.2547574686
 21
35.5950925719
  0
LINE
  5
71E
100
AcDbEntity
  8
0
100
AcDbLine
 62
7
  6
CONTINUOUS
 10
-9.4547574686
 20
34.9134207292
 11
-14.4547574686
 21
34.9134207292
  0
LINE
  5
71F
100
AcDbEntity
  8
ASSI
100
AcDbLine
 62
7
  6
CONTINUOUS
 10
-9.4547574686
 20
34.9134207292
 11
-14.4547574686
 21
34.9134207292
  0
LINE
  5
720
100
AcDbEntity
  8
0
100
AcDbLine
 62
7
  6
CONTINUOUS
 10
-13.6547574686
 20
35.5634207292
 11
-10.2547574686
 21
35.5634207292
  0
LINE
  5
721
100
AcDbEntity
  8
RACCORDO
100
AcDbLine
 62
7
  6
CONTINUOUS
 10
-13.6547574686
 20
35.5634207292
 11
-10.2547574686
 21
35.5634207292
  0
LINE
  5
722
100
AcDbEntity
  8
0
100
AcDbLine
 62
253
  6
CONTINUOUS
 10
-13.6547574686
 20
35.5950925719
 11
-10.2547574686
 21
35.5950925719
  0
LINE
  5
723
100
AcDbEntity
  8
RACCORDO
100
AcDbLine
 62
253
  6
CONTINUOUS
 10
-13.6547574686
 20
35.5950925719
 11
-10.2547574686
 21
35.5950925719
  0
LINE
  5
724
100
AcDbEntity
  8
RACCORDO
100
AcDbLine
 62
7
  6
CONTINUOUS
 10
-10.3507644378
 20
35.6134207292
 11
-13.5587504994
 21
35.6134207292
  0
LINE
  5
725
100
AcDbEntity
  8
ASSI
100
AcDbLine
 62
7
  6
CONTINUOUS
 10
-10.3507644378
 20
35.6134207292
 11
-13.5587504994
 21
35.6134207292
  0
LINE
  5
726
100
AcDbEntity
  8
ASSI
100
AcDbLine
 62
7
  6
CONTINUOUS
 10
-9.4547574686
 20
35.8134207292
 11
-14.4547574686
 21
35.8134207292
  0
LINE
  5
727
100
AcDbEntity
  8
0
100
AcDbLine
 62
253
  6
CONTINUOUS
 10
-13.7068999339
 20
35.5991766552
 11
-13.6547574686
 21
35.5950925719
  0
LINE
  5
728
100
AcDbEntity
  8
RACCORDO
100
AcDbLine
 62
253
  6
CONTINUOUS
 10
-13.7068999339
 20
35.5991766552
 11
-13.6547574686
 21
35.5950925719
  0
LINE
  5
729
100
AcDbEntity
  8
CURVE
100
AcDbLine
 62
253
  6
CONTINUOUS
 10
-1.6547574686
 20
31.6277064352
 11
-1.9333289193
 21
31.8134207292
  0
LINE
  5
72A
100
AcDbEntity
  8
RACCORDO
100
AcDbLine
 62
253
  6
CONTINUOUS
 10
-11.1547574686
 20
42.0634588054
 11
-11.1373024037
 21
42.0460037405
  0
LINE
  5
72B
100
AcDbEntity
  8
RACCORDO
100
AcDbLine
 62
253
  6
CONTINUOUS
 10
-10.9047955448
 20
42.3134207292
 11
-10.8873404799
 21
42.2959656643
  0
LWPOLYLINE
  5
72C
100
AcDbEntity
  8
ASSI
100
AcDbPolyline
 62
253
  6
CONTINUOUS
 90
10
 70
0
 10
-4.7415900117
 20
42.6002837332
 10
-4.741547822
 20
42.6001999486
 10
-4.7415048217
 20
42.5999732894
 10
-4.7414610108
 20
42.5996037555
 10
-4.7414161143
 20
42.5990973466
 10
-4.7413704072
 20
42.5984480631
 10
-4.7413247145
 20
42.597637906
 10
-4.741279018
 20
42.5966612394
 10
-4.7412333359
 20
42.5955236991
 10
-4.7411885485
 20
42.5942241936
  0
LINE
  5
72D
100
AcDbEntity
  8
0
100
AcDbLine
 62
7
  6
CONTINUOUS
 10
-6.8293081179
 20
-2.7611299201
 11
-6.6547574686
 21
-2.5865792708
  0
LINE
  5
72E
100
AcDbEntity
  8
0
100
AcDbLine
 62
7
  6
CONTINUOUS
 10
-4.7420261465
 20
-1.4738479487
 11
-4.6547574686
 21
-1.3865792708
  0
LINE
  5
72F
100
AcDbEntity
  8
0
100
AcDbLine
 62
7
  6
CONTINUOUS
 10
-4.5547574686
 20
-1.3865792708
 11
-4.5181018323
 21
-1.3499236345
  0
LINE
  5
730
100
AcDbEntity
  8
DRAFT
100
AcDbLine
 62
7
  6
CONTINUOUS
 10
-4.5547574686
 20
-1.3865792708
 11
-4.5181018323
 21
-1.3499236345
  0
LINE
  5
731
100
AcDbEntity
  8
ASSI
100
AcDbLine
 62
7
  6
CONTINUOUS
 10
-4.6547574686
 20
-2.5865792708
 11
-4.7420261465
 21
-2.6738479487
  0
LINE
  5
732
100
AcDbEntity
  8
0
100
AcDbLine
 62
7
  6
CONTINUOUS
 10
-9.8083108592
 20
36.5459607458
 11
-9.454195723
 21
36.5490510618
  0
LINE
  5
733
100
AcDbEntity
  8
RACCORDO
100
AcDbLine
 62
7
  6
CONTINUOUS
 10
-9.8083108592
 20
36.5459607458
 11
-9.454195723
 21
36.5490510618
  0
LWPOLYLINE
  5
734
100
AcDbEntity
  8
0
100
AcDbPolyline
 62
7
  6
CONTINUOUS
 90
12
 70
0
 10
-10.3303610072
 20
38.1980495457
 10
-10.2124891791
 20
38.1984300197
 10
-10.0996177493
 20
38.199048831
 10
-9.9902619668
 20
38.1999207956
 10
-9.8859065827
 20
38.2010310975
 10
-9.7910058504
 20
38.2023352882
 10
-9.705937766
 20
38.2038453103
 10
-9.6303243335
 20
38.2055492213
 10
-9.5674858175
 20
38.2073667462
 10
-9.5185289729
 20
38.2092711266
 10
-9.4823470447
 20
38.211289121
 10
-9.4589400331
 20
38.2134207292
  0
LINE
  5
735
100
AcDbEntity
  8
ASSI
100
AcDbLine
 62
7
  6
CONTINUOUS
 10
-9.4547574686
 20
36.5134207292
 11
-14.4547574686
 21
36.5134207292
  0
LINE
  5
736
100
AcDbEntity
  8
RACCORDO
100
AcDbLine
 62
7
  6
CONTINUOUS
 10
-21.3459818587
 20
36.5265110309
 11
-16.2678363472
 21
36.5265110309
  0
LINE
  5
737
100
AcDbEntity
  8
ASSI
100
AcDbLine
 62
7
  6
CONTINUOUS
 10
-21.3459818587
 20
36.5265110309
 11
-16.2678363472
 21
36.5265110309
  0
LINE
  5
738
100
AcDbEntity
  8
0
100
AcDbLine
 62
7
  6
CONTINUOUS
 10
-20.5547574686
 20
36.570863329
 11
-19.4088681699
 21
36.570863329
  0
LINE
  5
739
100
AcDbEntity
  8
DRAFT
100
AcDbLine
 62
7
  6
CONTINUOUS
 10
-20.5547574686
 20
36.570863329
 11
-19.4088681699
 21
36.570863329
  0
LINE
  5
73A
100
AcDbEntity
  8
0
100
AcDbLine
 62
7
  6
CONTINUOUS
 10
-16.0980398234
 20
36.5795901968
 11
-19.391413105
 21
36.5795901968
  0
LINE
  5
73B
100
AcDbEntity
  8
DRAFT
100
AcDbLine
 62
7
  6
CONTINUOUS
 10
-16.0980398234
 20
36.5795901968
 11
-19.391413105
 21
36.5795901968
  0
LINE
  5
73C
100
AcDbEntity
  8
0
100
AcDbLine
 62
7
  6
CONTINUOUS
 10
-20.5547574686
 20
36.5795901968
 11
-21.2209459747
 21
36.5795901968
  0
LINE
  5
73D
100
AcDbEntity
  8
RACCORDO
100
AcDbLine
 62
7
  6
CONTINUOUS
 10
-20.5547574686
 20
36.5795901968
 11
-21.2209459747
 21
36.5795901968
  0
LINE
  5
73E
100
AcDbEntity
  8
0
100
AcDbLine
 62
7
  6
CONTINUOUS
 10
-14.4547574686
 20
36.6134207292
 11
-9.4547574686
 21
36.6134207292
  0
LINE
  5
73F
100
AcDbEntity
  8
ASSI
100
AcDbLine
 62
7
  6
CONTINUOUS
 10
-14.4547574686
 20
36.6134207292
 11
-9.4547574686
 21
36.6134207292
  0
LINE
  5
740
100
AcDbEntity
  8
ASSI
100
AcDbLine
 62
7
  6
CONTINUOUS
 10
-23.0809433902
 20
36.73607046
 11
-23.0373024037
 21
36.73607046
  0
LINE
  5
741
100
AcDbEntity
  8
ASSI
100
AcDbLine
 62
7
  6
CONTINUOUS
 10
-0.8285715471
 20
36.73607046
 11
-0.8722125335
 21
36.73607046
  0
LINE
  5
742
100
AcDbEntity
  8
RACCORDO
100
AcDbLine
 62
7
  6
CONTINUOUS
 10
-2.5635330785
 20
37.9265110309
 11
-15.6678591934
 21
37.9265110309
  0
LINE
  5
743
100
AcDbEntity
  8
ASSI
100
AcDbLine
 62
7
  6
CONTINUOUS
 10
-2.5635330785
 20
37.9265110309
 11
-15.6678591934
 21
37.9265110309
  0
LINE
  5
744
100
AcDbEntity
  8
0
100
AcDbLine
 62
7
  6
CONTINUOUS
 10
-4.5181018323
 20
37.9767650928
 11
-8.491413105
 21
37.9767650928
  0
LINE
  5
745
100
AcDbEntity
  8
DRAFT
100
AcDbLine
 62
7
  6
CONTINUOUS
 10
-4.5181018323
 20
37.9767650928
 11
-8.491413105
 21
37.9767650928
  0
LINE
  5
746
100
AcDbEntity
  8
0
100
AcDbLine
 62
7
  6
CONTINUOUS
 10
-15.4181018323
 20
37.9767650928
 11
-19.391413105
 21
37.9767650928
  0
LINE
  5
747
100
AcDbEntity
  8
DRAFT
100
AcDbLine
 62
7
  6
CONTINUOUS
 10
-15.4181018323
 20
37.9767650928
 11
-19.391413105
 21
37.9767650928
  0
LINE
  5
748
100
AcDbEntity
  8
0
100
AcDbLine
 62
7
  6
CONTINUOUS
 10
-4.5547574686
 20
38.0134207292
 11
-8.4547574686
 21
38.0134207292
  0
LINE
  5
749
100
AcDbEntity
  8
DRAFT
100
AcDbLine
 62
7
  6
CONTINUOUS
 10
-4.5547574686
 20
38.0134207292
 11
-8.4547574686
 21
38.0134207292
  0
LINE
  5
74A
100
AcDbEntity
  8
0
100
AcDbLine
 62
7
  6
CONTINUOUS
 10
-15.4547574686
 20
38.0134207292
 11
-19.3547574686
 21
38.0134207292
  0
LINE
  5
74B
100
AcDbEntity
  8
DRAFT
100
AcDbLine
 62
7
  6
CONTINUOUS
 10
-15.4547574686
 20
38.0134207292
 11
-19.3547574686
 21
38.0134207292
  0
LINE
  5
74C
100
AcDbEntity
  8
ASSI
100
AcDbLine
 62
7
  6
CONTINUOUS
 10
-19.1674887907
 20
38.1006894071
 11
-18.5420261465
 21
38.1006894071
  0
LINE
  5
74D
100
AcDbEntity
  8
ASSI
100
AcDbLine
 62
7
  6
CONTINUOUS
 10
-5.3674887907
 20
38.1006894071
 11
-4.7420261465
 21
38.1006894071
  0
LINE
  5
74E
100
AcDbEntity
  8
0
100
AcDbLine
 62
7
  6
CONTINUOUS
 10
-8.491413105
 20
38.1767650928
 11
-15.4181018323
 21
38.1767650928
  0
LINE
  5
74F
100
AcDbEntity
  8
DRAFT
100
AcDbLine
 62
7
  6
CONTINUOUS
 10
-8.491413105
 20
38.1767650928
 11
-15.4181018323
 21
38.1767650928
  0
LINE
  5
750
100
AcDbEntity
  8
0
100
AcDbLine
 62
7
  6
CONTINUOUS
 10
-10.3303610072
 20
38.1980495457
 11
-13.4562817035
 21
38.1979074088
  0
LINE
  5
751
100
AcDbEntity
  8
0
100
AcDbLine
 62
7
  6
CONTINUOUS
 10
-8.4547574686
 20
38.2134207292
 11
-9.4602791884
 21
38.2134207292
  0
LINE
  5
752
100
AcDbEntity
  8
0
100
AcDbLine
 62
7
  6
CONTINUOUS
 10
-14.4492357488
 20
38.2134207292
 11
-15.4547574686
 21
38.2134207292
  0
LWPOLYLINE
  5
753
100
AcDbEntity
  8
0
100
AcDbPolyline
 62
7
  6
CONTINUOUS
 90
13
 70
0
 10
-13.4562817035
 20
38.1979074088
 10
-13.57915393
 20
38.1980495457
 10
-13.6970257582
 20
38.1984300197
 10
-13.8098971879
 20
38.199048831
 10
-13.9192529704
 20
38.1999207956
 10
-14.0236083546
 20
38.2010310975
 10
-14.1185090869
 20
38.2023352882
 10
-14.2035771712
 20
38.2038453103
 10
-14.2791906037
 20
38.2055492213
 10
-14.3420291198
 20
38.2073667462
 10
-14.3909859644
 20
38.2092711266
 10
-14.4271678925
 20
38.211289121
 10
-14.4505749041
 20
38.2134207292
  0
LINE
  5
754
100
AcDbEntity
  8
0
100
AcDbLine
 62
7
  6
CONTINUOUS
 10
-14.101204078
 20
36.5459607458
 11
-14.4553192142
 21
36.5490510618
  0
LINE
  5
755
100
AcDbEntity
  8
RACCORDO
100
AcDbLine
 62
7
  6
CONTINUOUS
 10
-14.101204078
 20
36.5459607458
 11
-14.4553192142
 21
36.5490510618
  0
LINE
  5
756
100
AcDbEntity
  8
0
100
AcDbLine
 62
7
  6
CONTINUOUS
 10
-6.8293081179
 20
39.3879713785
 11
-6.6547574686
 21
39.2134207292
  0
LINE
  5
757
100
AcDbEntity
  8
0
100
AcDbLine
 62
7
  6
CONTINUOUS
 10
-4.7420261465
 20
38.1006894071
 11
-4.6547574686
 21
38.0134207292
  0
LINE
  5
758
100
AcDbEntity
  8
0
100
AcDbLine
 62
7
  6
CONTINUOUS
 10
-4.5547574686
 20
38.0134207292
 11
-4.5181018323
 21
37.9767650928
  0
LINE
  5
759
100
AcDbEntity
  8
DRAFT
100
AcDbLine
 62
7
  6
CONTINUOUS
 10
-4.5547574686
 20
38.0134207292
 11
-4.5181018323
 21
37.9767650928
  0
LINE
  5
75A
100
AcDbEntity
  8
ASSI
100
AcDbLine
 62
7
  6
CONTINUOUS
 10
-4.6547574686
 20
39.2134207292
 11
-4.7420261465
 21
39.3006894071
  0
LINE
  5
75B
100
AcDbEntity
  8
RACCORDO
100
AcDbLine
 62
7
  6
CONTINUOUS
 10
-1.9644457958
 20
-1.099970036
 11
-2.1536730809
 21
-1.2891972144
  0
LINE
  5
75C
100
AcDbEntity
  8
ASSI
100
AcDbLine
 62
7
  6
CONTINUOUS
 10
-1.9644457958
 20
-1.099970036
 11
-2.1536730809
 21
-1.2891972144
  0
LINE
  5
75D
100
AcDbEntity
  8
RACCORDO
100
AcDbLine
 62
7
  6
CONTINUOUS
 10
-1.2345492333
 20
-0.3848835176
 11
-1.8564532218
 21
-1.0067875062
  0
LINE
  5
75E
100
AcDbEntity
  8
ASSI
100
AcDbLine
 62
7
  6
CONTINUOUS
 10
-1.2345492333
 20
-0.3848835176
 11
-1.8564532218
 21
-1.0067875062
  0
LINE
  5
75F
100
AcDbEntity
  8
0
100
AcDbLine
 62
7
  6
CONTINUOUS
 10
-3.3275537955
 20
-2.5365792708
 11
-1.5126401426
 21
-0.721665618
  0
LINE
  5
760
100
AcDbEntity
  8
RACCORDO
100
AcDbLine
 62
7
  6
CONTINUOUS
 10
-3.3275537955
 20
-2.5365792708
 11
-1.5126401426
 21
-0.721665618
  0
LINE
  5
761
100
AcDbEntity
  8
ASSI
100
AcDbLine
 62
7
  6
CONTINUOUS
 10
-3.7222125335
 20
-3.091692681
 11
-4.6996440585
 21
-4.0691242059
  0
LINE
  5
762
100
AcDbEntity
  8
0
100
AcDbLine
 62
7
  6
CONTINUOUS
 10
-3.1547574686
 20
-2.5365792708
 11
-1.3904546881
 21
-0.7722764903
  0
LINE
  5
763
100
AcDbEntity
  8
RACCORDO
100
AcDbLine
 62
7
  6
CONTINUOUS
 10
-3.1547574686
 20
-2.5365792708
 11
-1.3904546881
 21
-0.7722764903
  0
LINE
  5
764
100
AcDbEntity
  8
0
100
AcDbLine
 62
7
  6
CONTINUOUS
 10
-6.6547574686
 20
-1.6865792708
 11
-6.8293081179
 21
-1.7738479487
  0
LINE
  5
765
100
AcDbEntity
  8
DRAFT
100
AcDbLine
 62
7
  6
CONTINUOUS
 10
-4.5547574686
 20
38.3134207292
 11
-4.6547574686
 21
38.3134207292
  0
LINE
  5
766
100
AcDbEntity
  8
0
100
AcDbLine
 62
7
  6
CONTINUOUS
 10
-6.6547574686
 20
38.3134207292
 11
-9.4554052875
 21
38.3134207292
  0
LINE
  5
767
100
AcDbEntity
  8
0
100
AcDbLine
 62
7
  6
CONTINUOUS
 10
-14.4541096497
 20
38.3134207292
 11
-17.2547574686
 21
38.3134207292
  0
LINE
  5
768
100
AcDbEntity
  8
DRAFT
100
AcDbLine
 62
7
  6
CONTINUOUS
 10
-19.2547574686
 20
38.3134207292
 11
-19.3547574686
 21
38.3134207292
  0
LINE
  5
769
100
AcDbEntity
  8
RACCORDO
100
AcDbLine
 62
7
  6
CONTINUOUS
 10
-14.4547574686
 20
38.3666546227
 11
-14.3960685918
 21
38.3666546227
  0
LINE
  5
76A
100
AcDbEntity
  8
RACCORDO
100
AcDbLine
 62
7
  6
CONTINUOUS
 10
-9.5134463455
 20
38.3666546227
 11
-9.4547574686
 21
38.3666546227
  0
LINE
  5
76B
100
AcDbEntity
  8
ASSI
100
AcDbLine
 62
7
  6
CONTINUOUS
 10
-6.8293081179
 20
38.4006894071
 11
-17.0802068193
 21
38.4006894071
  0
LINE
  5
76C
100
AcDbEntity
  8
ASSI
100
AcDbLine
 62
7
  6
CONTINUOUS
 10
-15.0047574686
 20
39.1134207292
 11
-8.9047574686
 21
39.1134207292
  0
LINE
  5
76D
100
AcDbEntity
  8
0
100
AcDbLine
 62
7
  6
CONTINUOUS
 10
-3.1547574686
 20
39.1634207292
 11
-4.5547574686
 21
39.1634207292
  0
LINE
  5
76E
100
AcDbEntity
  8
DRAFT
100
AcDbLine
 62
7
  6
CONTINUOUS
 10
-3.1547574686
 20
39.1634207292
 11
-4.5547574686
 21
39.1634207292
  0
LINE
  5
76F
100
AcDbEntity
  8
0
100
AcDbLine
 62
7
  6
CONTINUOUS
 10
-19.3547574686
 20
39.1634207292
 11
-20.7547574686
 21
39.1634207292
  0
LINE
  5
770
100
AcDbEntity
  8
DRAFT
100
AcDbLine
 62
7
  6
CONTINUOUS
 10
-19.3547574686
 20
39.1634207292
 11
-20.7547574686
 21
39.1634207292
  0
LINE
  5
771
100
AcDbEntity
  8
ASSI
100
AcDbLine
 62
7
  6
CONTINUOUS
 10
-20.1873024037
 20
39.2134207292
 11
-19.2547574686
 21
39.2134207292
  0
LINE
  5
772
100
AcDbEntity
  8
ASSI
100
AcDbLine
 62
7
  6
CONTINUOUS
 10
-4.6547574686
 20
39.2134207292
 11
-3.7222125335
 21
39.2134207292
  0
LINE
  5
773
100
AcDbEntity
  8
0
100
AcDbLine
 62
7
  6
CONTINUOUS
 10
-5.4547574686
 20
39.2134207292
 11
-6.6547574686
 21
39.2134207292
  0
LINE
  5
774
100
AcDbEntity
  8
0
100
AcDbLine
 62
7
  6
CONTINUOUS
 10
-17.2547574686
 20
39.2134207292
 11
-18.4547574686
 21
39.2134207292
  0
LINE
  5
775
100
AcDbEntity
  8
ASSI
100
AcDbLine
 62
7
  6
CONTINUOUS
 10
-20.0127517544
 20
39.3006894071
 11
-19.1674887907
 21
39.3006894071
  0
LINE
  5
776
100
AcDbEntity
  8
ASSI
100
AcDbLine
 62
7
  6
CONTINUOUS
 10
-4.7420261465
 20
39.3006894071
 11
-3.8967631828
 21
39.3006894071
  0
LINE
  5
777
100
AcDbEntity
  8
ASSI
100
AcDbLine
 62
7
  6
CONTINUOUS
 10
-5.3674887907
 20
39.3879713785
 11
-6.8293081179
 21
39.3879713785
  0
LINE
  5
778
100
AcDbEntity
  8
ASSI
100
AcDbLine
 62
7
  6
CONTINUOUS
 10
-17.0802068193
 20
39.3879713785
 11
-18.5420261465
 21
39.3879713785
  0
LINE
  5
779
100
AcDbEntity
  8
ASSI
100
AcDbLine
 62
253
  6
CONTINUOUS
 10
-3.8967631828
 20
39.5387177519
 11
-8.8973338815
 21
39.5387177519
  0
LINE
  5
77A
100
AcDbEntity
  8
ASSI
100
AcDbLine
 62
253
  6
CONTINUOUS
 10
-15.0121810558
 20
39.5387177519
 11
-20.0127517544
 21
39.5387177519
  0
LINE
  5
77B
100
AcDbEntity
  8
ASSI
100
AcDbLine
 62
7
  6
CONTINUOUS
 10
-15.0204670271
 20
40.0134207292
 11
-8.8890479102
 21
40.0134207292
  0
LINE
  5
77C
100
AcDbEntity
  8
0
100
AcDbLine
 62
7
  6
CONTINUOUS
 10
-6.6547574686
 20
38.3134207292
 11
-6.8293081179
 21
38.4006894071
  0
LINE
  5
77D
100
AcDbEntity
  8
RACCORDO
100
AcDbLine
 62
7
  6
CONTINUOUS
 10
-1.8564532218
 20
37.6336289645
 11
-1.2345492333
 21
37.011724976
  0
LINE
  5
77E
100
AcDbEntity
  8
ASSI
100
AcDbLine
 62
7
  6
CONTINUOUS
 10
-1.8564532218
 20
37.6336289645
 11
-1.2345492333
 21
37.011724976
  0
LINE
  5
77F
100
AcDbEntity
  8
0
100
AcDbLine
 62
7
  6
CONTINUOUS
 10
-1.5126401426
 20
37.3485070763
 11
-3.3275537955
 21
39.1634207292
  0
LINE
  5
780
100
AcDbEntity
  8
RACCORDO
100
AcDbLine
 62
7
  6
CONTINUOUS
 10
-1.5126401426
 20
37.3485070763
 11
-3.3275537955
 21
39.1634207292
  0
LINE
  5
781
100
AcDbEntity
  8
ASSI
100
AcDbLine
 62
7
  6
CONTINUOUS
 10
-4.6996440585
 20
40.6959656643
 11
-3.7222125335
 21
39.7185341393
  0
LINE
  5
782
100
AcDbEntity
  8
0
100
AcDbLine
 62
7
  6
CONTINUOUS
 10
-1.3904546881
 20
37.3991179487
 11
-3.1547574686
 21
39.1634207292
  0
LINE
  5
783
100
AcDbEntity
  8
RACCORDO
100
AcDbLine
 62
7
  6
CONTINUOUS
 10
-1.3904546881
 20
37.3991179487
 11
-3.1547574686
 21
39.1634207292
  0
LWPOLYLINE
  5
784
100
AcDbEntity
  8
ASSI
100
AcDbPolyline
 62
7
  6
CONTINUOUS
 90
10
 70
0
 10
-2.7013804984
 20
-5.3144104872
 10
-2.7196731809
 20
-5.333723354
 10
-2.7406148408
 20
-5.354446141
 10
-2.7635488596
 20
-5.3765788484
 10
-2.7876870337
 20
-5.4004202382
 10
-2.8126147432
 20
-5.4256715484
 10
-2.8384065033
 20
-5.4514364921
 10
-2.8648779145
 20
-5.4774163072
 10
-2.8914831448
 20
-5.5039097558
 10
-2.9178868493
 20
-5.5309168381
  0
LINE
  5
785
100
AcDbEntity
  8
ASSI
100
AcDbLine
 62
7
  6
CONTINUOUS
 10
-3.4547574686
 20
-4.0865792708
 11
-3.4415900117
 21
-4.0734118139
  0
LINE
  5
786
100
AcDbEntity
  8
ASSI
100
AcDbLine
 62
253
  6
CONTINUOUS
 10
-4.7415900117
 20
-5.9734422749
 11
-4.7547574686
 21
-5.9866097318
  0
LINE
  5
787
100
AcDbEntity
  8
ASSI
100
AcDbLine
 62
253
  6
CONTINUOUS
 10
-4.5416204727
 20
-6.1734118139
 11
-4.5547879296
 21
-6.1865792708
  0
LINE
  5
788
100
AcDbEntity
  8
ASSI
100
AcDbLine
 62
7
  6
CONTINUOUS
 10
-3.8967631828
 20
-2.6738479487
 11
-3.7222125335
 21
-2.5865792708
  0
LINE
  5
789
100
AcDbEntity
  8
ASSI
100
AcDbLine
 62
7
  6
CONTINUOUS
 10
-3.8962918658
 20
-3.1426887114
 11
-3.7222125335
 21
-3.091692681
  0
LINE
  5
78A
100
AcDbEntity
  8
ASSI
100
AcDbLine
 62
7
  6
CONTINUOUS
 10
-12.7722125335
 20
40.7116753982
 11
-12.7547574686
 21
40.7134207292
  0
LWPOLYLINE
  5
78B
100
AcDbEntity
  8
RACCORDO
100
AcDbPolyline
 62
253
  6
CONTINUOUS
 90
4
 70
0
 10
-7.6250964863
 20
41.9650965369
 10
-7.6129321471
 20
41.9654001314
 10
-7.605266348
 20
41.9657143713
 10
-7.6021781793
 20
41.9660392568
  0
LINE
  5
78C
100
AcDbEntity
  8
ASSI
100
AcDbLine
 62
253
  6
CONTINUOUS
 10
-4.6535341259
 20
40.538565447
 11
-8.879881475
 21
40.538565447
  0
LINE
  5
78D
100
AcDbEntity
  8
ASSI
100
AcDbLine
 62
253
  6
CONTINUOUS
 10
-15.0296334622
 20
40.538565447
 11
-19.2559808113
 21
40.538565447
  0
LINE
  5
78E
100
AcDbEntity
  8
ASSI
100
AcDbLine
 62
7
  6
CONTINUOUS
 10
-1.3721363811
 20
40.6959656643
 11
-2.9178868493
 21
40.6959656643
  0
LINE
  5
78F
100
AcDbEntity
  8
ASSI
100
AcDbLine
 62
7
  6
CONTINUOUS
 10
-3.1916280879
 20
40.6959656643
 11
-4.6996440585
 21
40.6959656643
  0
LINE
  5
790
100
AcDbEntity
  8
ASSI
100
AcDbLine
 62
7
  6
CONTINUOUS
 10
-19.2098708788
 20
40.6959656643
 11
-20.7178868493
 21
40.6959656643
  0
LINE
  5
791
100
AcDbEntity
  8
ASSI
100
AcDbLine
 62
7
  6
CONTINUOUS
 10
-20.9916280879
 20
40.6959656643
 11
-22.5373785561
 21
40.6959656643
  0
LINE
  5
792
100
AcDbEntity
  8
ASSI
100
AcDbLine
 62
7
  6
CONTINUOUS
 10
-12.7722125335
 20
40.7116753982
 11
-11.1373024037
 21
40.7116753982
  0
LINE
  5
793
100
AcDbEntity
  8
ASSI
100
AcDbLine
 62
7
  6
CONTINUOUS
 10
-22.5547574686
 20
40.7134207292
 11
-21.2547574686
 21
40.7134207292
  0
LINE
  5
794
100
AcDbEntity
  8
ASSI
100
AcDbLine
 62
7
  6
CONTINUOUS
 10
-20.4547574686
 20
40.7134207292
 11
-16.4047574686
 21
40.7134207292
  0
LINE
  5
795
100
AcDbEntity
  8
ASSI
100
AcDbLine
 62
7
  6
CONTINUOUS
 10
-7.5047574686
 20
40.7134207292
 11
-3.4547574686
 21
40.7134207292
  0
LINE
  5
796
100
AcDbEntity
  8
ASSI
100
AcDbLine
 62
7
  6
CONTINUOUS
 10
-2.6547574686
 20
40.7134207292
 11
-1.354757404
 21
40.7134206646
  0
LINE
  5
797
100
AcDbEntity
  8
ASSI
100
AcDbLine
 62
7
  6
CONTINUOUS
 10
-22.3564725095
 20
41.43607046
 11
-21.2547574686
 21
41.43607046
  0
LINE
  5
798
100
AcDbEntity
  8
ASSI
100
AcDbLine
 62
7
  6
CONTINUOUS
 10
-20.4547574686
 20
41.43607046
 11
-19.3530424277
 21
41.43607046
  0
LINE
  5
799
100
AcDbEntity
  8
ASSI
100
AcDbLine
 62
7
  6
CONTINUOUS
 10
-4.5564725095
 20
41.43607046
 11
-3.4547574686
 21
41.43607046
  0
LINE
  5
79A
100
AcDbEntity
  8
ASSI
100
AcDbLine
 62
7
  6
CONTINUOUS
 10
-2.6547574686
 20
41.43607046
 11
-1.5530424277
 21
41.43607046
  0
LINE
  5
79B
100
AcDbEntity
  8
ASSI
100
AcDbLine
 62
7
  6
CONTINUOUS
 10
-11.1373024037
 20
40.7116753982
 11
-11.1547574686
 21
40.7134207292
  0
LWPOLYLINE
  5
79C
100
AcDbEntity
  8
RACCORDO
100
AcDbPolyline
 62
253
  6
CONTINUOUS
 90
5
 70
0
 10
-16.3073387041
 20
41.9660400409
 10
-16.3042560913
 20
41.9657149274
 10
-16.2965884378
 20
41.9654005486
 10
-16.2844187534
 20
41.9650969045
 10
-16.2471477229
 20
41.9645157619
  0
LWPOLYLINE
  5
79D
100
AcDbEntity
  8
RACCORDO
100
AcDbPolyline
 62
253
  6
CONTINUOUS
 90
9
 70
0
 10
-16.0573767803
 20
42.2160019647
 10
-16.0560466411
 20
42.2156790981
 10
-16.0529176045
 20
42.2153662884
 10
-16.0479896703
 20
42.2150635357
 10
-16.0411704349
 20
42.2147675877
 10
-16.032552302
 20
42.2144816966
 10
-16.022412483
 20
42.2142156193
 10
-16.0107026727
 20
42.2139702
 10
-15.9831401199
 20
42.2135460264
  0
LINE
  5
79E
100
AcDbEntity
  8
ASSI
100
AcDbLine
 62
7
  6
CONTINUOUS
 10
-3.8962918658
 20
39.7695301698
 11
-3.7222125335
 21
39.7185341393
  0
LINE
  5
79F
100
AcDbEntity
  8
ASSI
100
AcDbLine
 62
7
  6
CONTINUOUS
 10
-3.8967631828
 20
39.3006894071
 11
-3.7222125335
 21
39.2134207292
  0
LWPOLYLINE
  5
7A0
100
AcDbEntity
  8
ASSI
100
AcDbPolyline
 62
7
  6
CONTINUOUS
 90
10
 70
0
 10
-2.7013804984
 20
41.9412519455
 10
-2.7206933652
 20
41.959544628
 10
-2.7414161523
 20
41.9804862879
 10
-2.7635488596
 20
42.0034203068
 10
-2.7873902495
 20
42.0275584809
 10
-2.8126415596
 20
42.0524861903
 10
-2.8384065033
 20
42.0782779504
 10
-2.8643863184
 20
42.1047493616
 10
-2.890879767
 20
42.1313545919
 10
-2.9178868493
 20
42.1577582965
  0
LINE
  5
7A1
100
AcDbEntity
  8
ASSI
100
AcDbLine
 62
7
  6
CONTINUOUS
 10
-3.4547574686
 20
40.7134207292
 11
-3.4415900117
 21
40.7002532723
  0
LINE
  5
7A2
100
AcDbEntity
  8
ASSI
100
AcDbLine
 62
253
  6
CONTINUOUS
 10
-4.7547574686
 20
42.6134511902
 11
-4.7415900117
 21
42.6002837332
  0
LINE
  5
7A3
100
AcDbEntity
  8
ASSI
100
AcDbLine
 62
253
  6
CONTINUOUS
 10
-4.5547879296
 20
42.8134207292
 11
-4.5416204727
 21
42.8002532723
  0
LWPOLYLINE
  5
7A4
100
AcDbEntity
  8
ASSI
100
AcDbPolyline
 62
253
  6
CONTINUOUS
 90
13
 70
0
 10
-4.5416204727
 20
42.8002532723
 10
-4.5677167431
 20
42.7985352139
 10
-4.5933666645
 20
42.7934263227
 10
-4.618131529
 20
42.785013982
 10
-4.6415877678
 20
42.7734420757
 10
-4.663334193
 20
42.7589085284
 10
-4.6829988603
 20
42.7416619212
 10
-4.7002454332
 20
42.7219972381
 10
-4.7147789365
 20
42.7002508182
 10
-4.7263507982
 20
42.6767946044
 10
-4.7347631002
 20
42.6520297832
 10
-4.7398719638
 20
42.6263799243
 10
-4.7415900117
 20
42.6002837332
  0
LWPOLYLINE
  5
7A5
100
AcDbEntity
  8
RACCORDO
100
AcDbPolyline
 62
253
  6
CONTINUOUS
 90
13
 70
0
 10
-16.0573767803
 20
42.2160019647
 10
-16.0899944213
 20
42.2138547479
 10
-16.122054734
 20
42.2074695621
 10
-16.1530094072
 20
42.1969554198
 10
-16.182328975
 20
42.1824919694
 10
-16.2095119481
 20
42.1643263954
 10
-16.2340933747
 20
42.142769168
 10
-16.255652739
 20
42.1181887548
 10
-16.273821053
 20
42.0910054917
 10
-16.2882873007
 20
42.0616843908
 10
-16.2988038896
 20
42.0307269872
 10
-16.3051908228
 20
41.9986627185
 10
-16.3073387041
 20
41.9660400409
  0
LWPOLYLINE
  5
7A6
100
AcDbEntity
  8
RACCORDO
100
AcDbPolyline
 62
253
  6
CONTINUOUS
 90
12
 70
0
 10
-8.2047574686
 20
42.2160556785
 10
-8.2373863665
 20
42.2139175688
 10
-8.269457528
 20
42.2075396928
 10
-8.3004222435
 20
42.1970309802
 10
-8.3297506705
 20
42.1825710559
 10
-8.3569409736
 20
42.16440714
 10
-8.3815278955
 20
42.1428497944
 10
-8.4030906634
 20
42.1182676314
 10
-8.4212600879
 20
42.0910811798
 10
-8.4357250135
 20
42.0617556863
 10
-8.4462377744
 20
42.0307929555
 10
-8.4526183695
 20
41.9987227215
  0
LWPOLYLINE
  5
7A7
100
AcDbEntity
  8
ASSI
100
AcDbPolyline
 62
7
  6
CONTINUOUS
 90
13
 70
0
 10
-22.3547879296
 20
42.8134207292
 10
-22.3808900564
 20
42.811710465
 10
-22.4065452347
 20
42.8066082886
 10
-22.4313147561
 20
42.7982013074
 10
-22.454775213
 20
42.7866330663
 10
-22.4765250189
 20
42.7721012792
 10
-22.4961914408
 20
42.7548547014
 10
-22.5134380186
 20
42.7351882794
 10
-22.5279698058
 20
42.7134384736
 10
-22.5395380469
 20
42.6899780167
 10
-22.5479450281
 20
42.6652084953
 10
-22.5530472044
 20
42.639553317
 10
-22.5547574686
 20
42.6134511902
  0
LWPOLYLINE
  5
7A8
100
AcDbEntity
  8
ASSI
100
AcDbPolyline
 62
253
  6
CONTINUOUS
 90
13
 70
0
 10
-19.3683156095
 20
41.9412519455
 10
-19.3423574964
 20
41.9429135472
 10
-19.3168386276
 20
41.947477838
 10
-19.2921908077
 20
41.9548675833
 10
-19.2688311008
 20
41.9649577396
 10
-19.2471547761
 20
41.977577569
 10
-19.2275286192
 20
41.9925135279
 10
-19.2102847223
 20
42.0095128818
 10
-19.1957148645
 20
42.0282879841
 10
-19.1840655775
 20
42.0485211423
 10
-19.1755339755
 20
42.069869992
 10
-19.1702644188
 20
42.0919732896
 10
-19.1683460705
 20
42.1144570263
  0
LWPOLYLINE
  5
7A9
100
AcDbEntity
  8
RACCORDO
100
AcDbPolyline
 62
253
  6
CONTINUOUS
 90
7
 70
0
 10
-15.7380750764
 20
42.2142553736
 10
-15.7281794633
 20
42.2145241692
 10
-15.7198241258
 20
42.2148123666
 10
-15.7132774218
 20
42.2151105571
 10
-15.7086288039
 20
42.2154156045
 10
-15.7057888195
 20
42.2157306449
 10
-15.7047574686
 20
42.2160556785
  0
LWPOLYLINE
  5
7AA
100
AcDbEntity
  8
RACCORDO
100
AcDbPolyline
 62
253
  6
CONTINUOUS
 90
7
 70
0
 10
-7.8872506712
 20
42.2142120848
 10
-7.8770878184
 20
42.2144778251
 10
-7.8684456051
 20
42.2147634335
 10
-7.8616017594
 20
42.2150595842
 10
-7.8566488576
 20
42.2153631687
 10
-7.8534943234
 20
42.2156772955
 10
-7.8521381569
 20
42.2160019647
  0
LWPOLYLINE
  5
7AB
100
AcDbEntity
  8
RACCORDO
100
AcDbPolyline
 62
253
  6
CONTINUOUS
 90
5
 70
0
 10
-15.4912097914
 20
41.9648494289
 10
-15.475394085
 20
41.9651475025
 10
-15.4639759399
 20
41.9654525613
 10
-15.4570734635
 20
41.9657677162
 10
-15.454757483
 20
41.9660929675
  0
LINE
  5
7AC
100
AcDbEntity
  8
RACCORDO
100
AcDbLine
 62
253
  6
CONTINUOUS
 10
-15.7625856658
 20
42.2137773714
 11
-15.7380750764
 21
42.2142553736
  0
LINE
  5
7AD
100
AcDbEntity
  8
RACCORDO
100
AcDbLine
 62
253
  6
CONTINUOUS
 10
-7.9122354296
 20
42.2137416222
 11
-7.8872506712
 21
42.2142120848
  0
LINE
  5
7AE
100
AcDbEntity
  8
RACCORDO
100
AcDbLine
 62
253
  6
CONTINUOUS
 10
-7.6623659535
 20
41.9645151189
 11
-7.6250964863
 21
41.9650965369
  0
LINE
  5
7AF
100
AcDbEntity
  8
RACCORDO
100
AcDbLine
 62
253
  6
CONTINUOUS
 10
-15.7920454013
 20
42.2133998461
 11
-15.7625856658
 21
42.2137773714
  0
LINE
  5
7B0
100
AcDbEntity
  8
RACCORDO
100
AcDbLine
 62
253
  6
CONTINUOUS
 10
-15.5353070233
 20
41.964292904
 11
-15.4912097914
 21
41.9648494289
  0
LINE
  5
7B1
100
AcDbEntity
  8
RACCORDO
100
AcDbLine
 62
253
  6
CONTINUOUS
 10
-7.9420681163
 20
42.2133731286
 11
-7.9122354296
 21
42.2137416222
  0
LINE
  5
7B2
100
AcDbEntity
  8
RACCORDO
100
AcDbLine
 62
253
  6
CONTINUOUS
 10
-7.7472489849
 20
41.963779747
 11
-7.6623659535
 21
41.9645151189
  0
LINE
  5
7B3
100
AcDbEntity
  8
RACCORDO
100
AcDbLine
 62
253
  6
CONTINUOUS
 10
-15.6286940978
 20
41.9636131728
 11
-15.5353070233
 21
41.964292904
  0
LINE
  5
7B4
100
AcDbEntity
  8
RACCORDO
100
AcDbLine
 62
253
  6
CONTINUOUS
 10
-15.8431626039
 20
42.2130505874
 11
-15.7920454013
 21
42.2133998461
  0
LINE
  5
7B5
100
AcDbEntity
  8
RACCORDO
100
AcDbLine
 62
253
  6
CONTINUOUS
 10
-7.9935267052
 20
42.2130394945
 11
-7.9420681163
 21
42.2133731286
  0
LINE
  5
7B6
100
AcDbEntity
  8
RACCORDO
100
AcDbLine
 62
253
  6
CONTINUOUS
 10
-7.9009481031
 20
41.963156978
 11
-7.7472489849
 21
41.963779747
  0
LINE
  5
7B7
100
AcDbEntity
  8
RACCORDO
100
AcDbLine
 62
253
  6
CONTINUOUS
 10
-15.8330670233
 20
41.9630362545
 11
-15.6286940978
 21
41.9636131728
  0
LINE
  5
7B8
100
AcDbEntity
  8
ASSI
100
AcDbLine
 62
253
  6
CONTINUOUS
 10
-20.5013804984
 20
41.9412519455
 11
-19.3683156095
 21
41.9412519455
  0
LINE
  5
7B9
100
AcDbEntity
  8
ASSI
100
AcDbLine
 62
253
  6
CONTINUOUS
 10
-4.5411993277
 20
41.9412519455
 11
-3.4081344389
 21
41.9412519455
  0
LINE
  5
7BA
100
AcDbEntity
  8
ASSI
100
AcDbLine
 62
253
  6
CONTINUOUS
 10
-2.7013804984
 20
41.9412519455
 11
-1.5683156095
 21
41.9412519455
  0
LINE
  5
7BB
100
AcDbEntity
  8
ASSI
100
AcDbLine
 62
253
  6
CONTINUOUS
 10
-22.3411993671
 20
41.9412506435
 11
-21.2081344389
 21
41.9412519455
  0
LINE
  5
7BC
100
AcDbEntity
  8
ASSI
100
AcDbLine
 62
253
  6
CONTINUOUS
 10
-1.3687824471
 20
42.1577582965
 11
-2.9178868493
 21
42.1577582965
  0
LINE
  5
7BD
100
AcDbEntity
  8
ASSI
100
AcDbLine
 62
253
  6
CONTINUOUS
 10
-3.1916280879
 20
42.1577582965
 11
-4.7407324901
 21
42.1577582965
  0
LINE
  5
7BE
100
AcDbEntity
  8
ASSI
100
AcDbLine
 62
253
  6
CONTINUOUS
 10
-19.1687824471
 20
42.1577582965
 11
-20.7178868493
 21
42.1577582965
  0
LINE
  5
7BF
100
AcDbEntity
  8
ASSI
100
AcDbLine
 62
253
  6
CONTINUOUS
 10
-20.9916280879
 20
42.1577582965
 11
-22.5407324901
 21
42.1577582965
  0
LINE
  5
7C0
100
AcDbEntity
  8
RACCORDO
100
AcDbLine
 62
7
  6
CONTINUOUS
 10
-15.7047574686
 20
42.2959656643
 11
-13.0221744573
 21
42.2959656643
  0
LINE
  5
7C1
100
AcDbEntity
  8
RACCORDO
100
AcDbLine
 62
7
  6
CONTINUOUS
 10
-10.8873404799
 20
42.2959656643
 11
-8.2047574686
 21
42.2959656643
  0
LINE
  5
7C2
100
AcDbEntity
  8
RACCORDO
100
AcDbLine
 62
7
  6
CONTINUOUS
 10
-16.1547955448
 20
42.3134207292
 11
-13.0047193924
 21
42.3134207292
  0
LINE
  5
7C3
100
AcDbEntity
  8
RACCORDO
100
AcDbLine
 62
7
  6
CONTINUOUS
 10
-10.9047955448
 20
42.3134207292
 11
-7.7547193924
 21
42.3134207292
  0
LINE
  5
7C4
100
AcDbEntity
  8
ASSI
100
AcDbLine
 62
253
  6
CONTINUOUS
 10
-1.3687824471
 20
42.5502913485
 11
-4.7407324901
 21
42.5502913485
  0
LINE
  5
7C5
100
AcDbEntity
  8
ASSI
100
AcDbLine
 62
253
  6
CONTINUOUS
 10
-19.1687824471
 20
42.5502913485
 11
-22.5407324901
 21
42.5502913485
  0
LINE
  5
7C6
100
AcDbEntity
  8
ASSI
100
AcDbLine
 62
253
  6
CONTINUOUS
 10
-1.5678944646
 20
42.8002532723
 11
-4.5416204727
 21
42.8002532723
  0
LINE
  5
7C7
100
AcDbEntity
  8
ASSI
100
AcDbLine
 62
253
  6
CONTINUOUS
 10
-19.3678944646
 20
42.8002532723
 11
-22.3416204727
 21
42.8002532723
  0
LINE
  5
7C8
100
AcDbEntity
  8
ASSI
100
AcDbLine
 62
7
  6
CONTINUOUS
 10
-22.3547879296
 20
42.8134207292
 11
-19.3547270077
 21
42.8134207292
  0
LINE
  5
7C9
100
AcDbEntity
  8
ASSI
100
AcDbLine
 62
7
  6
CONTINUOUS
 10
-4.5547879296
 20
42.8134207292
 11
-1.5547270077
 21
42.8134207292
  0
LINE
  5
7CA
100
AcDbEntity
  8
RACCORDO
100
AcDbLine
 62
253
  6
CONTINUOUS
 10
-15.8979537173
 20
42.2129926963
 11
-15.8431626039
 21
42.2130505874
  0
LINE
  5
7CB
100
AcDbEntity
  8
RACCORDO
100
AcDbLine
 62
253
  6
CONTINUOUS
 10
-8.1202227502
 20
41.9630893773
 11
-7.9009481031
 21
41.963156978
  0
LINE
  5
7CC
100
AcDbEntity
  8
RACCORDO
100
AcDbLine
 62
253
  6
CONTINUOUS
 10
-8.0483673497
 20
42.2129983027
 11
-7.9935267052
 21
42.2130394945
  0
LINE
  5
7CD
100
AcDbEntity
  8
RACCORDO
100
AcDbLine
 62
253
  6
CONTINUOUS
 10
-16.0501651847
 20
41.9632688783
 11
-15.8330670233
 21
41.9630362545
  0
LINE
  5
7CE
100
AcDbEntity
  8
RACCORDO
100
AcDbLine
 62
253
  6
CONTINUOUS
 10
-8.3151700915
 20
41.9638160981
 11
-8.1202227502
 21
41.9630893773
  0
LINE
  5
7CF
100
AcDbEntity
  8
RACCORDO
100
AcDbLine
 62
253
  6
CONTINUOUS
 10
-15.9511075987
 20
42.2132317615
 11
-15.8979537173
 21
42.2129926963
  0
LINE
  5
7D0
100
AcDbEntity
  8
RACCORDO
100
AcDbLine
 62
253
  6
CONTINUOUS
 10
-8.101274129
 20
42.2132535232
 11
-8.0483673497
 21
42.2129983027
  0
LINE
  5
7D1
100
AcDbEntity
  8
RACCORDO
100
AcDbLine
 62
253
  6
CONTINUOUS
 10
-16.1940540417
 20
41.9640054508
 11
-16.0501651847
 21
41.9632688783
  0
LINE
  5
7D2
100
AcDbEntity
  8
RACCORDO
100
AcDbLine
 62
253
  6
CONTINUOUS
 10
-16.2471477229
 20
41.9645157619
 11
-16.1940540417
 21
41.9640054508
  0
LINE
  5
7D3
100
AcDbEntity
  8
RACCORDO
100
AcDbLine
 62
253
  6
CONTINUOUS
 10
-15.9831401199
 20
42.2135460264
 11
-15.9511075987
 21
42.2132317615
  0
LINE
  5
7D4
100
AcDbEntity
  8
RACCORDO
100
AcDbLine
 62
253
  6
CONTINUOUS
 10
-8.1329875885
 20
42.2135774981
 11
-8.101274129
 21
42.2132535232
  0
LWPOLYLINE
  5
7D5
100
AcDbEntity
  8
ASSI
100
AcDbPolyline
 62
253
  6
CONTINUOUS
 90
13
 70
0
 10
-4.5411993277
 20
41.9412519455
 10
-4.5671573993
 20
41.9429135422
 10
-4.5926762352
 20
41.9474778203
 10
-4.6173240321
 20
41.9548675479
 10
-4.6406837255
 20
41.9649576837
 10
-4.6623600467
 20
41.9775774927
 10
-4.6819862115
 20
41.9925134358
 10
-4.6992301263
 20
42.0095127822
 10
-4.7138000072
 20
42.0282878866
 10
-4.7254493179
 20
42.0485210561
 10
-4.7339809407
 20
42.0698699259
 10
-4.7392505124
 20
42.0919732525
 10
-4.7411688667
 20
42.1144570263
  0
LWPOLYLINE
  5
7D6
100
AcDbEntity
  8
RACCORDO
100
AcDbPolyline
 62
7
  6
CONTINUOUS
 90
13
 70
0
 10
-15.7047574686
 20
42.2160556785
 10
-15.6721259206
 20
42.2139172196
 10
-15.6400527075
 20
42.2075384325
 10
-15.6090866107
 20
42.1970284601
 10
-15.5797574689
 20
42.1825671308
 10
-15.5525671117
 20
42.1644018821
 10
-15.5279807737
 20
42.1428435264
 10
-15.5064191339
 20
42.118260933
 10
-15.488251118
 20
42.091074717
 10
-15.4737875857
 20
42.061750042
 10
-15.4632760122
 20
42.0307886614
 10
-15.4568962533
 20
41.998720333
 10
-15.4547574686
 20
41.9660937547
  0
LWPOLYLINE
  5
7D7
100
AcDbEntity
  8
ASSI
100
AcDbPolyline
 62
7
  6
CONTINUOUS
 90
13
 70
0
 10
-1.5547270077
 20
42.8134207292
 10
-1.5286248808
 20
42.811710465
 10
-1.5029697025
 20
42.8066082886
 10
-1.4782001811
 20
42.7982013074
 10
-1.4547397243
 20
42.7866330663
 10
-1.4329899184
 20
42.7721012792
 10
-1.4133234964
 20
42.7548547014
 10
-1.3960769186
 20
42.7351882794
 10
-1.3815451315
 20
42.7134384736
 10
-1.3699768904
 20
42.6899780167
 10
-1.3615699092
 20
42.6652084953
 10
-1.3564677328
 20
42.639553317
 10
-1.3547574686
 20
42.6134511902
  0
LWPOLYLINE
  5
7D8
100
AcDbEntity
  8
ASSI
100
AcDbPolyline
 62
253
  6
CONTINUOUS
 90
13
 70
0
 10
-19.3678944646
 20
42.8002532723
 10
-19.3417982331
 20
42.798535219
 10
-19.3161483425
 20
42.7934263414
 10
-19.2913834996
 20
42.7850140199
 10
-19.2679272736
 20
42.7734421358
 10
-19.2461808516
 20
42.7589086107
 10
-19.2265161768
 20
42.741662021
 10
-19.2092695871
 20
42.7219973462
 10
-19.194736062
 20
42.7002509242
 10
-19.183164178
 20
42.6767946982
 10
-19.1747518564
 20
42.6520298553
 10
-19.1696429788
 20
42.6263799647
 10
-19.1679249255
 20
42.6002837332
  0
LWPOLYLINE
  5
7D9
100
AcDbEntity
  8
RACCORDO
100
AcDbPolyline
 62
253
  6
CONTINUOUS
 90
13
 70
0
 10
-7.8521381569
 20
42.2160019647
 10
-7.8195178677
 20
42.2138543981
 10
-7.7874555045
 20
42.2074683011
 10
-7.7564994509
 20
42.1969528992
 10
-7.7271791685
 20
42.1824880442
 10
-7.6999961411
 20
42.164321138
 10
-7.6754152977
 20
42.1427629009
 10
-7.6538570605
 20
42.1181820575
 10
-7.6356901541
 20
42.09099903
 10
-7.621225299
 20
42.0616787475
 10
-7.6107098969
 20
42.0307226937
 10
-7.6043237998
 20
41.9986603304
 10
-7.6021762331
 20
41.9660400409
  0
LWPOLYLINE
  5
7DA
100
AcDbEntity
  8
RACCORDO
100
AcDbPolyline
 62
253
  6
CONTINUOUS
 90
7
 70
0
 10
-8.4547574686
 20
41.9660937547
 10
-8.4524479116
 20
41.965768274
 10
-8.4455442225
 20
41.9654529794
 10
-8.4341211398
 20
41.965147871
 10
-8.4183023381
 20
41.9648498917
 10
-8.3982591742
 20
41.9645620986
 10
-8.3151700915
 20
41.9638160981
  0
LWPOLYLINE
  5
7DB
100
AcDbEntity
  8
RACCORDO
100
AcDbPolyline
 62
253
  6
CONTINUOUS
 90
9
 70
0
 10
-8.2047574686
 20
42.2160556785
 10
-8.2037503411
 20
42.2157324552
 10
-8.2009345336
 20
42.2154187395
 10
-8.1963100461
 20
42.2151145313
 10
-8.1897877398
 20
42.2148165508
 10
-8.1814567535
 20
42.2145280779
 10
-8.1715845036
 20
42.2142589523
 10
-8.1601218504
 20
42.2140100033
 10
-8.1329875885
 20
42.2135774981
  0
ARC
  5
7DC
100
AcDbEntity
  8
0
100
AcDbCircle
 62
7
  6
CONTINUOUS
 10
-21.1547574686
 20
1.1134207292
 40
1.4
100
AcDbArc
 50
189.8532892494
 51
270.0
  0
ARC
  5
7DD
100
AcDbEntity
  8
ASSI
100
AcDbCircle
 62
7
  6
CONTINUOUS
 10
-21.4606658393
 20
0.8234207292
 40
0.71
100
AcDbArc
 50
229.7010712477
 51
265.2998279782
  0
ARC
  5
7DE
100
AcDbEntity
  8
ASSI
100
AcDbCircle
 62
7
  6
CONTINUOUS
 10
-22.2447574686
 20
1.6075123585
 40
0.71
100
AcDbArc
 50
184.7001961556
 51
220.2989529286
  0
ARC
  5
7DF
100
AcDbEntity
  8
ASSI
100
AcDbCircle
 62
7
  6
CONTINUOUS
 10
-15.9547574686
 20
-4.8865792708
 40
0.5
100
AcDbArc
 50
154.1580672368
 51
205.8419327632
  0
ARC
  5
7E0
100
AcDbEntity
  8
ASSI
100
AcDbCircle
 62
7
  6
CONTINUOUS
 10
-15.9547574686
 20
-4.8865792708
 40
0.4904006794
100
AcDbArc
 50
136.2076703059
 51
223.7923296941
  0
ARC
  5
7E1
100
AcDbEntity
  8
0
100
AcDbCircle
 62
7
  6
CONTINUOUS
 10
-13.6547574686
 20
0.7634207292
 40
0.3
100
AcDbArc
 50
90.0
 51
170.0
  0
ARC
  5
7E2
100
AcDbEntity
  8
RACCORDO
100
AcDbCircle
 62
7
  6
CONTINUOUS
 10
-13.6547574686
 20
0.7634207292
 40
0.3
100
AcDbArc
 50
90.0
 51
170.0
  0
ARC
  5
7E3
100
AcDbEntity
  8
CURVE
100
AcDbCircle
 62
7
  6
CONTINUOUS
 10
-17.4547574686
 20
27.3958647292
 40
2.5499986575
100
AcDbArc
 50
357.7524617393
 51
182.2474682623
  0
ARC
  5
7E4
100
AcDbEntity
  8
CURVE
100
AcDbCircle
 62
7
  6
CONTINUOUS
 10
-17.4547574686
 20
31.7809747292
 40
2.5499985399
100
AcDbArc
 50
357.7525290943
 51
182.2474682623
  0
ARC
  5
7E5
100
AcDbEntity
  8
CURVE
100
AcDbCircle
 62
7
  6
CONTINUOUS
 10
-17.4547574686
 20
27.3958647292
 40
1.7999999246
100
AcDbArc
 50
356.8152613297
 51
77.9753174348
  0
ARC
  5
7E6
100
AcDbEntity
  8
CURVE
100
AcDbCircle
 62
7
  6
CONTINUOUS
 10
-17.4547574686
 20
31.7809747292
 40
1.7999999246
100
AcDbArc
 50
356.8152613297
 51
183.1847351336
  0
ARC
  5
7E7
100
AcDbEntity
  8
CURVE
100
AcDbCircle
 62
7
  6
CONTINUOUS
 10
-17.4547574686
 20
27.3958647292
 40
1.7999968808
100
AcDbArc
 50
102.0247203293
 51
183.1848322474
  0
ARC
  5
7E8
100
AcDbEntity
  8
ASSI
100
AcDbCircle
 62
7
  6
CONTINUOUS
 10
-22.2447574686
 20
35.0193290999
 40
0.71
100
AcDbArc
 50
139.7020215745
 51
175.2988538673
  0
ARC
  5
7E9
100
AcDbEntity
  8
ASSI
100
AcDbCircle
 62
7
  6
CONTINUOUS
 10
-21.4606658393
 20
35.8034207292
 40
0.71
100
AcDbArc
 50
94.7020215745
 51
130.2988538673
  0
ARC
  5
7EA
100
AcDbEntity
  8
ASSI
100
AcDbCircle
 62
7
  6
CONTINUOUS
 10
-15.9547574686
 20
41.5134207292
 40
0.5
100
AcDbArc
 50
154.1580672368
 51
205.8419327632
  0
ARC
  5
7EB
100
AcDbEntity
  8
ASSI
100
AcDbCircle
 62
7
  6
CONTINUOUS
 10
-15.9547574686
 20
41.5134207292
 40
0.4904006794
100
AcDbArc
 50
136.2076703059
 51
223.7923296941
  0
ARC
  5
7EC
100
AcDbEntity
  8
0
100
AcDbCircle
 62
7
  6
CONTINUOUS
 10
-13.6547574686
 20
35.8634207292
 40
0.3
100
AcDbArc
 50
189.5979508052
 51
270.0
  0
ARC
  5
7ED
100
AcDbEntity
  8
RACCORDO
100
AcDbCircle
 62
7
  6
CONTINUOUS
 10
-13.6547574686
 20
35.8634207292
 40
0.3
100
AcDbArc
 50
189.5979508052
 51
270.0
  0
ARC
  5
7EE
100
AcDbEntity
  8
ASSI
100
AcDbCircle
 62
7
  6
CONTINUOUS
 10
-2.4488490979
 20
-0.5765792708
 40
0.71
100
AcDbArc
 50
289.9961491498
 51
294.2412807351
  0
ARC
  5
7EF
100
AcDbEntity
  8
ASSI
100
AcDbCircle
 62
7
  6
CONTINUOUS
 10
-1.6647574686
 20
0.2075123585
 40
0.71
100
AcDbArc
 50
319.7010712477
 51
355.2998279782
  0
ARC
  5
7F0
100
AcDbEntity
  8
ASSI
100
AcDbCircle
 62
7
  6
CONTINUOUS
 10
-7.9547574686
 20
-4.8865792708
 40
0.5
100
AcDbArc
 50
334.1580672368
 51
25.8419327632
  0
ARC
  5
7F1
100
AcDbEntity
  8
ASSI
100
AcDbCircle
 62
7
  6
CONTINUOUS
 10
-7.9547574686
 20
-4.8865792708
 40
0.4904006794
100
AcDbArc
 50
316.2076703059
 51
43.7923296941
  0
ARC
  5
7F2
100
AcDbEntity
  8
0
100
AcDbCircle
 62
7
  6
CONTINUOUS
 10
-10.2547574686
 20
0.7634207292
 40
0.3
100
AcDbArc
 50
9.8838085533
 51
90.0
  0
ARC
  5
7F3
100
AcDbEntity
  8
RACCORDO
100
AcDbCircle
 62
7
  6
CONTINUOUS
 10
-10.2547574686
 20
0.7634207292
 40
0.3
100
AcDbArc
 50
9.8838085533
 51
90.0
  0
ARC
  5
7F4
100
AcDbEntity
  8
ASSI
100
AcDbCircle
 62
7
  6
CONTINUOUS
 10
-2.4488490979
 20
37.2034207292
 40
0.71
100
AcDbArc
 50
49.7020215745
 51
85.2988538673
  0
ARC
  5
7F5
100
AcDbEntity
  8
ASSI
100
AcDbCircle
 62
7
  6
CONTINUOUS
 10
-1.6647574686
 20
36.4193290999
 40
0.71
100
AcDbArc
 50
4.7020215745
 51
40.2988538673
  0
ARC
  5
7F6
100
AcDbEntity
  8
ASSI
100
AcDbCircle
 62
7
  6
CONTINUOUS
 10
-7.9547574686
 20
41.5134207292
 40
0.5
100
AcDbArc
 50
334.1580672368
 51
25.8419327632
  0
ARC
  5
7F7
100
AcDbEntity
  8
ASSI
100
AcDbCircle
 62
7
  6
CONTINUOUS
 10
-7.9547574686
 20
41.5134207292
 40
0.4904006794
100
AcDbArc
 50
316.2076703059
 51
43.7923296941
  0
ARC
  5
7F8
100
AcDbEntity
  8
0
100
AcDbCircle
 62
7
  6
CONTINUOUS
 10
-10.2547574686
 20
35.8634207292
 40
0.3
100
AcDbArc
 50
270.0
 51
350.0
  0
ARC
  5
7F9
100
AcDbEntity
  8
RACCORDO
100
AcDbCircle
 62
7
  6
CONTINUOUS
 10
-10.2547574686
 20
35.8634207292
 40
0.3
100
AcDbArc
 50
270.0
 51
350.0
  0
ELLIPSE
  5
7FA
100
AcDbEntity
  8
0
100
AcDbEllipse
 62
7
  6
CONTINUOUS
 10
-21.220907897
 20
36.0795711576
 30
0.0
 11
-0.3535803156
 21
0.3535803156
 31
0.0
 40
0.9999238505
 41
-0.651298773
 42
-0.2962124934
  0
ELLIPSE
  5
7FB
100
AcDbEntity
  8
0
100
AcDbEllipse
 62
7
  6
CONTINUOUS
 10
-21.220907897
 20
36.0795711576
 30
0.0
 11
0.3535803156
 21
-0.3535803156
 31
0.0
 40
0.9999238505
 41
2.3562325664
 42
2.4902938806
  0
ELLIPSE
  5
7FC
100
AcDbEntity
  8
0
100
AcDbEllipse
 62
7
  6
CONTINUOUS
 10
-13.7476506874
 20
36.5490461595
 30
0.0
 11
0.5
 21
0.0
 31
0.0
 40
0.0087268678
 41
-2.3561944902
 42
-1.9981274692
  0
ELLIPSE
  5
7FD
100
AcDbEntity
  8
0
100
AcDbEllipse
 62
7
  6
CONTINUOUS
 10
-10.1618642498
 20
36.5490461595
 30
0.0
 11
0.5
 21
0.0
 31
0.0
 40
0.0087268678
 41
-1.1643384736
 42
-0.7853981634
  0
ELLIPSE
  5
7FE
100
AcDbEntity
  8
0
100
AcDbEllipse
 62
7
  6
CONTINUOUS
 10
-21.1044528125
 20
0.6419740466
 30
0.0
 11
1.8480888181
 21
0.7655034529
 31
0.0
 40
0.9998215708
 41
2.7489566578
 42
3.5342286494
  0
ELLIPSE
  5
7FF
100
AcDbEntity
  8
0
100
AcDbEllipse
 62
7
  6
CONTINUOUS
 10
-21.1044528125
 20
35.9848674118
 30
0.0
 11
1.8480888181
 21
-0.7655034529
 31
0.0
 40
0.9998215708
 41
2.7489566578
 42
3.5342286494
  0
ELLIPSE
  5
800
100
AcDbEntity
  8
0
100
AcDbEllipse
 62
7
  6
CONTINUOUS
 10
-2.8050621247
 20
35.9848674118
 30
0.0
 11
1.8480888181
 21
0.7655034529
 31
0.0
 40
0.9998215708
 41
-0.3926359958
 42
0.3926359958
  0
ELLIPSE
  5
801
100
AcDbEntity
  8
0
100
AcDbEllipse
 62
7
  6
CONTINUOUS
 10
-2.8050621247
 20
0.6419740466
 30
0.0
 11
1.8480888181
 21
-0.7655034529
 31
0.0
 40
0.9998215708
 41
-0.3926359958
 42
0.3926359958
  0
ELLIPSE
  5
802
100
AcDbEntity
  8
0
100
AcDbEllipse
 62
7
  6
CONTINUOUS
 10
-20.982267358
 20
0.692584919
 30
0.0
 11
-1.8480888181
 21
-0.7655034529
 31
0.0
 40
0.9998215708
 41
-0.3926359958
 42
0.3926359958
  0
ELLIPSE
  5
803
100
AcDbEntity
  8
0
100
AcDbEllipse
 62
7
  6
CONTINUOUS
 10
-20.982267358
 20
35.9342565394
 30
0.0
 11
1.8480888181
 21
-0.7655034529
 31
0.0
 40
0.9998215708
 41
2.7489566578
 42
3.5342286494
  0
ELLIPSE
  5
804
100
AcDbEntity
  8
0
100
AcDbEllipse
 62
7
  6
CONTINUOUS
 10
-2.9272475792
 20
35.9342565394
 30
0.0
 11
1.8480888181
 21
0.7655034529
 31
0.0
 40
0.9998215708
 41
-0.3926359958
 42
-0.278861721
  0
ELLIPSE
  5
805
100
AcDbEntity
  8
0
100
AcDbEllipse
 62
7
  6
CONTINUOUS
 10
-2.9272475792
 20
35.9342565394
 30
0.0
 11
1.8480888181
 21
0.7655034529
 31
0.0
 40
0.9998215708
 41
6.4756880539
 42
6.675821303
  0
ELLIPSE
  5
806
100
AcDbEntity
  8
0
100
AcDbEllipse
 62
7
  6
CONTINUOUS
 10
-2.9272475792
 20
0.692584919
 30
0.0
 11
-1.8480888181
 21
0.7655034529
 31
0.0
 40
0.9998215708
 41
9.032141965
 42
9.2322752141
  0
ELLIPSE
  5
807
100
AcDbEntity
  8
0
100
AcDbEllipse
 62
7
  6
CONTINUOUS
 10
-2.9272475792
 20
0.692584919
 30
0.0
 11
-1.8480888181
 21
0.7655034529
 31
0.0
 40
0.9998215708
 41
3.4204543746
 42
3.5342286494
  0
ELLIPSE
  5
808
100
AcDbEntity
  8
RACCORDO
100
AcDbEllipse
 62
7
  6
CONTINUOUS
 10
-21.220907897
 20
36.0795711576
 30
0.0
 11
-0.3535803156
 21
0.3535803156
 31
0.0
 40
0.9999238505
 41
-0.651298773
 42
-0.2962124934
  0
ELLIPSE
  5
809
100
AcDbEntity
  8
RACCORDO
100
AcDbEllipse
 62
7
  6
CONTINUOUS
 10
-21.220907897
 20
36.0795711576
 30
0.0
 11
0.3535803156
 21
-0.3535803156
 31
0.0
 40
0.9999238505
 41
2.3562325664
 42
2.4902938806
  0
ELLIPSE
  5
80A
100
AcDbEntity
  8
RACCORDO
100
AcDbEllipse
 62
7
  6
CONTINUOUS
 10
-13.7476506874
 20
36.5490461595
 30
0.0
 11
0.5
 21
0.0
 31
0.0
 40
0.0087268678
 41
-2.3561944902
 42
-1.9981274692
  0
ELLIPSE
  5
80B
100
AcDbEntity
  8
RACCORDO
100
AcDbEllipse
 62
7
  6
CONTINUOUS
 10
-10.1618642498
 20
36.5490461595
 30
0.0
 11
0.5
 21
0.0
 31
0.0
 40
0.0087268678
 41
-1.1643384736
 42
-0.7853981634
  0
ELLIPSE
  5
80C
100
AcDbEntity
  8
RACCORDO
100
AcDbEllipse
 62
7
  6
CONTINUOUS
 10
-21.1044528125
 20
0.6419740466
 30
0.0
 11
1.8480888181
 21
0.7655034529
 31
0.0
 40
0.9998215708
 41
2.7489566578
 42
3.5342286494
  0
ELLIPSE
  5
80D
100
AcDbEntity
  8
RACCORDO
100
AcDbEllipse
 62
7
  6
CONTINUOUS
 10
-21.1044528125
 20
35.9848674118
 30
0.0
 11
1.8480888181
 21
-0.7655034529
 31
0.0
 40
0.9998215708
 41
2.7489566578
 42
3.5342286494
  0
ELLIPSE
  5
80E
100
AcDbEntity
  8
RACCORDO
100
AcDbEllipse
 62
7
  6
CONTINUOUS
 10
-2.8050621247
 20
35.9848674118
 30
0.0
 11
1.8480888181
 21
0.7655034529
 31
0.0
 40
0.9998215708
 41
-0.3926359958
 42
0.3926359958
  0
ELLIPSE
  5
80F
100
AcDbEntity
  8
RACCORDO
100
AcDbEllipse
 62
7
  6
CONTINUOUS
 10
-2.8050621247
 20
0.6419740466
 30
0.0
 11
1.8480888181
 21
-0.7655034529
 31
0.0
 40
0.9998215708
 41
-0.3926359958
 42
0.3926359958
  0
ELLIPSE
  5
810
100
AcDbEntity
  8
0
100
AcDbEllipse
 62
7
  6
CONTINUOUS
 10
-9.9548336326
 20
160.1890631652
 30
0.0
 11
-0.4997620717
 21
162.4815824859
 31
0.0
 40
0.000109066
 41
3.224097589
 42
3.234898768
  0
ELLIPSE
  5
811
100
AcDbEntity
  8
0
100
AcDbEllipse
 62
7
  6
CONTINUOUS
 10
-9.9548336326
 20
-123.5622217068
 30
0.0
 11
0.4997620717
 21
162.4815824859
 31
0.0
 40
0.000109066
 41
-0.0933061144
 42
-0.0825049354
  0
ELLIPSE
  5
812
100
AcDbEntity
  8
0
100
AcDbEllipse
 62
7
  6
CONTINUOUS
 10
-13.9546813046
 20
160.1890631652
 30
0.0
 11
0.4997620717
 21
162.4815824859
 31
0.0
 40
0.000109066
 41
-3.234898768
 42
-3.224097589
  0
ELLIPSE
  5
813
100
AcDbEntity
  8
0
100
AcDbEllipse
 62
7
  6
CONTINUOUS
 10
-13.9546813046
 20
-123.5622217068
 30
0.0
 11
-0.4997620717
 21
162.4815824859
 31
0.0
 40
0.000109066
 41
6.3656902426
 42
6.3764914216
  0
ELLIPSE
  5
814
100
AcDbEntity
  8
RACCORDO
100
AcDbEllipse
 62
7
  6
CONTINUOUS
 10
-20.982267358
 20
0.692584919
 30
0.0
 11
-1.8480888181
 21
-0.7655034529
 31
0.0
 40
0.9998215708
 41
-0.3926359958
 42
0.3926359958
  0
ELLIPSE
  5
815
100
AcDbEntity
  8
RACCORDO
100
AcDbEllipse
 62
7
  6
CONTINUOUS
 10
-20.982267358
 20
35.9342565394
 30
0.0
 11
1.8480888181
 21
-0.7655034529
 31
0.0
 40
0.9998215708
 41
2.7489566578
 42
3.5342286494
  0
ELLIPSE
  5
816
100
AcDbEntity
  8
RACCORDO
100
AcDbEllipse
 62
7
  6
CONTINUOUS
 10
-2.9272475792
 20
35.9342565394
 30
0.0
 11
1.8480888181
 21
0.7655034529
 31
0.0
 40
0.9998215708
 41
-0.3926359958
 42
-0.278861721
  0
ELLIPSE
  5
817
100
AcDbEntity
  8
RACCORDO
100
AcDbEllipse
 62
7
  6
CONTINUOUS
 10
-2.9272475792
 20
35.9342565394
 30
0.0
 11
1.8480888181
 21
0.7655034529
 31
0.0
 40
0.9998215708
 41
6.4756880539
 42
6.675821303
  0
ELLIPSE
  5
818
100
AcDbEntity
  8
RACCORDO
100
AcDbEllipse
 62
7
  6
CONTINUOUS
 10
-2.9272475792
 20
0.692584919
 30
0.0
 11
-1.8480888181
 21
0.7655034529
 31
0.0
 40
0.9998215708
 41
9.032141965
 42
9.2322752141
  0
ELLIPSE
  5
819
100
AcDbEntity
  8
RACCORDO
100
AcDbEllipse
 62
7
  6
CONTINUOUS
 10
-2.9272475792
 20
0.692584919
 30
0.0
 11
-1.8480888181
 21
0.7655034529
 31
0.0
 40
0.9998215708
 41
3.4204543746
 42
3.5342286494
  0
ELLIPSE
  5
81A
100
AcDbEntity
  8
RACCORDO
100
AcDbEllipse
 62
7
  6
CONTINUOUS
 10
-9.4547574686
 20
-1.7310862965
 30
0.0
 11
1.0
 21
0.0
 31
0.0
 40
0.0087268678
 41
-1.5707963268
 42
0.0
  0
ELLIPSE
  5
81B
100
AcDbEntity
  8
RACCORDO
100
AcDbEllipse
 62
7
  6
CONTINUOUS
 10
-9.4547574686
 20
40.6069448331
 30
0.0
 11
1.0
 21
0.0
 31
0.0
 40
0.0174550649
 41
-0.9571890036
 42
-0.0
  0
ELLIPSE
  5
81C
100
AcDbEntity
  8
RACCORDO
100
AcDbEllipse
 62
7
  6
CONTINUOUS
 10
-14.4547574686
 20
-3.9801033748
 30
0.0
 11
1.0
 21
0.0
 31
0.0
 40
0.0174550649
 41
2.18440365
 42
3.1415926536
  0
ELLIPSE
  5
81D
100
AcDbEntity
  8
RACCORDO
100
AcDbEllipse
 62
7
  6
CONTINUOUS
 10
-14.4547574686
 20
-1.7310862965
 30
0.0
 11
1.0
 21
0.0
 31
0.0
 40
0.0087268678
 41
3.1415926536
 42
4.7123889804
  0
ELLIPSE
  5
81E
100
AcDbEntity
  8
RACCORDO
100
AcDbEllipse
 62
7
  6
CONTINUOUS
 10
-9.4547574686
 20
-3.9801033748
 30
0.0
 11
1.0
 21
0.0
 31
0.0
 40
0.0174550649
 41
0.0
 42
0.9571890036
  0
ELLIPSE
  5
81F
100
AcDbEntity
  8
RACCORDO
100
AcDbEllipse
 62
7
  6
CONTINUOUS
 10
-9.4547574686
 20
38.3579277549
 30
0.0
 11
1.0
 21
0.0
 31
0.0
 40
0.0087268678
 41
-0.0
 42
1.5707963268
  0
ELLIPSE
  5
820
100
AcDbEntity
  8
RACCORDO
100
AcDbEllipse
 62
7
  6
CONTINUOUS
 10
-14.4547574686
 20
38.3579277549
 30
0.0
 11
1.0
 21
0.0
 31
0.0
 40
0.0087268678
 41
1.5707963268
 42
3.1415926536
  0
ELLIPSE
  5
821
100
AcDbEntity
  8
RACCORDO
100
AcDbEllipse
 62
7
  6
CONTINUOUS
 10
-14.4547574686
 20
40.6069448331
 30
0.0
 11
1.0
 21
0.0
 31
0.0
 40
0.0174550649
 41
-3.1415926536
 42
-2.18440365
  0
ELLIPSE
  5
822
100
AcDbEntity
  8
ASSI
100
AcDbEllipse
 62
7
  6
CONTINUOUS
 10
-11.9547574686
 20
-1.8689708076
 30
0.0
 11
15.0
 21
0.0
 31
0.0
 40
0.0087268678
 41
1.4073150204
 42
1.7342776332
  0
ELLIPSE
  5
823
100
AcDbEntity
  8
ASSI
100
AcDbEllipse
 62
7
  6
CONTINUOUS
 10
-11.9547574686
 20
38.495812266
 30
0.0
 11
15.0
 21
0.0
 31
0.0
 40
0.0087268678
 41
-1.7342776332
 42
-1.4073150204
  0
ELLIPSE
  5
824
100
AcDbEntity
  8
ASSI
100
AcDbEllipse
 62
7
  6
CONTINUOUS
 10
-22.5372262397
 20
-3.5690480419
 30
0.0
 11
-0.3536610946
 21
-0.3536610946
 31
0.0
 40
0.9996954599
 41
-0.7852458701
 42
0.7852458701
  0
ELLIPSE
  5
825
100
AcDbEntity
  8
RACCORDO
100
AcDbEllipse
 62
7
  6
CONTINUOUS
 10
-15.7047574686
 20
-5.4190861239
 30
0.0
 11
0.0
 21
0.250038082
 31
0.0
 40
0.9998476952
 41
-3.1415926536
 42
-1.5707963268
  0
ELLIPSE
  5
826
100
AcDbEntity
  8
RACCORDO
100
AcDbEllipse
 62
7
  6
CONTINUOUS
 10
-8.2047574686
 20
42.0459275822
 30
0.0
 11
0.0
 21
0.250038082
 31
0.0
 40
0.9998476952
 41
0.0
 42
1.5707963268
  0
ELLIPSE
  5
827
100
AcDbEntity
  8
ASSI
100
AcDbEllipse
 62
7
  6
CONTINUOUS
 10
-16.000712808
 20
41.5134207292
 30
0.0
 11
0.4595995956
 21
-0.0
 31
0.0
 40
0.9949884474
 41
2.3053277814
 42
2.644815645
  0
ELLIPSE
  5
828
100
AcDbEntity
  8
ASSI
100
AcDbEllipse
 62
7
  6
CONTINUOUS
 10
-16.000712808
 20
-4.8865792708
 30
0.0
 11
0.4595995956
 21
-0.0
 31
0.0
 40
0.9949884474
 41
2.3053277814
 42
2.644815645
  0
ELLIPSE
  5
829
100
AcDbEntity
  8
ASSI
100
AcDbEllipse
 62
7
  6
CONTINUOUS
 10
-20.9916280879
 20
41.8690831619
 30
0.0
 11
0.25
 21
-0.0
 31
0.0
 40
0.5773502692
 41
2.617993878
 42
3.1241393611
  0
ELLIPSE
  5
82A
100
AcDbEntity
  8
ASSI
100
AcDbEllipse
 62
7
  6
CONTINUOUS
 10
-3.1916280879
 20
41.8690831619
 30
0.0
 11
0.25
 21
0.0
 31
0.0
 40
0.5773502692
 41
2.617993878
 42
3.1241393611
  0
ELLIPSE
  5
82B
100
AcDbEntity
  8
ASSI
100
AcDbEllipse
 62
7
  6
CONTINUOUS
 10
-2.9178868493
 20
-5.2422417035
 30
0.0
 11
0.25
 21
0.0
 31
0.0
 40
0.5773502692
 41
-0.5235987756
 42
-0.0174532925
  0
ELLIPSE
  5
82C
100
AcDbEntity
  8
ASSI
100
AcDbEllipse
 62
7
  6
CONTINUOUS
 10
-20.7178868493
 20
-5.2422417035
 30
0.0
 11
0.25
 21
0.0
 31
0.0
 40
0.5773502692
 41
-0.5235987756
 42
-0.0174532925
  0
ELLIPSE
  5
82D
100
AcDbEntity
  8
ASSI
100
AcDbEllipse
 62
7
  6
CONTINUOUS
 10
-1.3722886976
 20
40.1958895002
 30
0.0
 11
0.3536610946
 21
0.3536610946
 31
0.0
 40
0.9996954599
 41
-0.7852458701
 42
0.7852458701
  0
ELLIPSE
  5
82E
100
AcDbEntity
  8
RACCORDO
100
AcDbEllipse
 62
7
  6
CONTINUOUS
 10
-8.2047574686
 20
-5.4190861239
 30
0.0
 11
0.0
 21
0.250038082
 31
0.0
 40
0.9998476952
 41
-4.7123889804
 42
-3.1415926536
  0
ELLIPSE
  5
82F
100
AcDbEntity
  8
ASSI
100
AcDbEllipse
 62
7
  6
CONTINUOUS
 10
-1.3722886976
 20
-3.5690480419
 30
0.0
 11
-0.3536610946
 21
0.3536610946
 31
0.0
 40
0.9996954599
 41
2.3563467834
 42
3.9268385237
  0
ELLIPSE
  5
830
100
AcDbEntity
  8
RACCORDO
100
AcDbEllipse
 62
7
  6
CONTINUOUS
 10
-13.0222506156
 20
42.0459275822
 30
0.0
 11
-0.1768305473
 21
-0.1768305473
 31
0.0
 40
0.9996954599
 41
2.3563467834
 42
3.9268385237
  0
ELLIPSE
  5
831
100
AcDbEntity
  8
RACCORDO
100
AcDbEllipse
 62
7
  6
CONTINUOUS
 10
-15.7047574686
 20
42.0459275822
 30
0.0
 11
0.0
 21
0.250038082
 31
0.0
 40
0.9998476952
 41
-1.5707963268
 42
0.0
  0
ELLIPSE
  5
832
100
AcDbEntity
  8
RACCORDO
100
AcDbEllipse
 62
7
  6
CONTINUOUS
 10
-15.8810805519
 20
40.6161318367
 30
0.0
 11
0.4263230833
 21
0.0
 31
0.0
 40
0.0174550649
 41
-3.1241393611
 42
0.0
  0
ELLIPSE
  5
833
100
AcDbEntity
  8
RACCORDO
100
AcDbEllipse
 62
7
  6
CONTINUOUS
 10
-15.8810805519
 20
-3.9892903783
 30
0.0
 11
0.4263230833
 21
0.0
 31
0.0
 40
0.0174550649
 41
0.0
 42
3.1241393611
  0
ELLIPSE
  5
834
100
AcDbEntity
  8
RACCORDO
100
AcDbEllipse
 62
7
  6
CONTINUOUS
 10
-10.8872643217
 20
42.0459275822
 30
0.0
 11
-0.1768305473
 21
0.1768305473
 31
0.0
 40
0.9996954599
 41
-0.7852458701
 42
0.7852458701
  0
ELLIPSE
  5
835
100
AcDbEntity
  8
RACCORDO
100
AcDbEllipse
 62
7
  6
CONTINUOUS
 10
-10.8872643217
 20
-5.4190861239
 30
0.0
 11
0.1768305473
 21
0.1768305473
 31
0.0
 40
0.9996954599
 41
2.3563467834
 42
3.9268385237
  0
ELLIPSE
  5
836
100
AcDbEntity
  8
ASSI
100
AcDbEllipse
 62
7
  6
CONTINUOUS
 10
-7.9088021292
 20
41.5134207292
 30
0.0
 11
0.4595995956
 21
-0.0
 31
0.0
 40
0.9949884474
 41
0.4967770086
 42
0.8362648721
  0
ELLIPSE
  5
837
100
AcDbEntity
  8
ASSI
100
AcDbEllipse
 62
7
  6
CONTINUOUS
 10
-7.9088021292
 20
41.5134207292
 30
0.0
 11
0.4595995956
 21
0.0
 31
0.0
 40
0.9949884474
 41
-0.8362648721
 42
-0.4967770086
  0
ELLIPSE
  5
838
100
AcDbEntity
  8
ASSI
100
AcDbEllipse
 62
7
  6
CONTINUOUS
 10
-7.9088021292
 20
-4.8865792708
 30
0.0
 11
0.4595995956
 21
0.0
 31
0.0
 40
0.9949884474
 41
0.4967770086
 42
0.8362648721
  0
ELLIPSE
  5
839
100
AcDbEntity
  8
ASSI
100
AcDbEllipse
 62
7
  6
CONTINUOUS
 10
-7.9088021292
 20
-4.8865792708
 30
0.0
 11
0.4595995956
 21
0.0
 31
0.0
 40
0.9949884474
 41
-0.8362648721
 42
-0.4967770086
  0
ELLIPSE
  5
83A
100
AcDbEntity
  8
RACCORDO
100
AcDbEllipse
 62
7
  6
CONTINUOUS
 10
-8.0284343853
 20
40.6161318367
 30
0.0
 11
0.4263230833
 21
-0.0
 31
0.0
 40
0.0174550649
 41
-3.1415926536
 42
-0.0174532925
  0
ELLIPSE
  5
83B
100
AcDbEntity
  8
RACCORDO
100
AcDbEllipse
 62
7
  6
CONTINUOUS
 10
-8.0284343853
 20
-3.9892903783
 30
0.0
 11
0.4263230833
 21
0.0
 31
0.0
 40
0.0174550649
 41
0.0174532925
 42
3.1415926536
  0
ELLIPSE
  5
83C
100
AcDbEntity
  8
RACCORDO
100
AcDbEllipse
 62
7
  6
CONTINUOUS
 10
-13.0222506156
 20
-5.4190861239
 30
0.0
 11
0.1768305473
 21
-0.1768305473
 31
0.0
 40
0.9996954599
 41
-0.7852458701
 42
0.7852458701
  0
ELLIPSE
  5
83D
100
AcDbEntity
  8
ASSI
100
AcDbEllipse
 62
7
  6
CONTINUOUS
 10
-22.5372262397
 20
40.1958895002
 30
0.0
 11
0.3536610946
 21
-0.3536610946
 31
0.0
 40
0.9996954599
 41
2.3563467834
 42
3.9268385237
  0
ELLIPSE
  5
83E
100
AcDbEntity
  8
ASSI
100
AcDbEllipse
 62
7
  6
CONTINUOUS
 10
-20.0302068193
 20
-2.9118762935
 30
0.0
 11
0.0
 21
1.0
 31
0.0
 40
0.0174550649
 41
-1.8037088905
 42
-1.5707963268
  0
ELLIPSE
  5
83F
100
AcDbEntity
  8
ASSI
100
AcDbEllipse
 62
7
  6
CONTINUOUS
 10
-3.8793081179
 20
-2.9118762935
 30
0.0
 11
-0.0
 21
1.0
 31
0.0
 40
0.0174550649
 41
-4.7123889804
 42
-4.4794764167
  0
ELLIPSE
  5
840
100
AcDbEntity
  8
ASSI
100
AcDbEllipse
 62
7
  6
CONTINUOUS
 10
-3.8793081179
 20
39.5387177519
 30
0.0
 11
0.0
 21
1.0
 31
0.0
 40
0.0174550649
 41
1.3378837631
 42
1.5707963268
  0
ELLIPSE
  5
841
100
AcDbEntity
  8
ASSI
100
AcDbEllipse
 62
7
  6
CONTINUOUS
 10
-20.0302068193
 20
39.5387177519
 30
0.0
 11
0.0
 21
1.0
 31
0.0
 40
0.0174550649
 41
-1.5707963268
 42
-1.3378837631
  0
ELLIPSE
  5
842
100
AcDbEntity
  8
ASSI
100
AcDbEllipse
 62
7
  6
CONTINUOUS
 10
-3.6534710392
 20
39.5387177519
 30
0.0
 11
1.0000571192
 21
-0.9999809595
 31
0.0
 40
0.0061705924
 41
-3.1303103451
 42
-1.8098798745
  0
ELLIPSE
  5
843
100
AcDbEntity
  8
ASSI
100
AcDbEllipse
 62
7
  6
CONTINUOUS
 10
-20.2560438981
 20
39.5387177519
 30
0.0
 11
1.0000571192
 21
0.9999809595
 31
0.0
 40
0.0061705924
 41
-1.3317127791
 42
-0.0112823085
  0
ELLIPSE
  5
844
100
AcDbEntity
  8
ASSI
100
AcDbEllipse
 62
7
  6
CONTINUOUS
 10
-3.6534710392
 20
-2.9118762935
 30
0.0
 11
1.0000571192
 21
0.9999809595
 31
0.0
 40
0.0061705924
 41
1.8098798745
 42
3.1303103451
  0
ELLIPSE
  5
845
100
AcDbEntity
  8
ASSI
100
AcDbEllipse
 62
7
  6
CONTINUOUS
 10
-20.2560438981
 20
-2.9118762935
 30
0.0
 11
1.0000571192
 21
-0.9999809595
 31
0.0
 40
0.0061705924
 41
0.0112823085
 42
1.3317127791
  0
ELLIPSE
  5
846
100
AcDbEntity
  8
ASSI
100
AcDbEllipse
 62
7
  6
CONTINUOUS
 10
-2.9178868493
 20
41.8690831619
 30
0.0
 11
0.25
 21
-0.0
 31
0.0
 40
0.5773502692
 41
0.0174532925
 42
0.5235987756
  0
ELLIPSE
  5
847
100
AcDbEntity
  8
ASSI
100
AcDbEllipse
 62
7
  6
CONTINUOUS
 10
-2.9178868493
 20
40.7003294305
 30
0.0
 11
0.25
 21
0.0
 31
0.0
 40
0.0174550649
 41
-1.5707963268
 42
-0.0174532925
  0
ELLIPSE
  5
848
100
AcDbEntity
  8
ASSI
100
AcDbEllipse
 62
7
  6
CONTINUOUS
 10
-3.1916280879
 20
40.7003294305
 30
0.0
 11
0.25
 21
0.0
 31
0.0
 40
0.0174550649
 41
-3.1241393611
 42
-1.5707963268
  0
ELLIPSE
  5
849
100
AcDbEntity
  8
ASSI
100
AcDbEllipse
 62
7
  6
CONTINUOUS
 10
-20.9916280879
 20
40.7003294305
 30
0.0
 11
0.25
 21
-0.0
 31
0.0
 40
0.0174550649
 41
-3.1241393611
 42
-1.5707963268
  0
ELLIPSE
  5
84A
100
AcDbEntity
  8
ASSI
100
AcDbEllipse
 62
7
  6
CONTINUOUS
 10
-20.7178868493
 20
41.8690831619
 30
0.0
 11
0.25
 21
-0.0
 31
0.0
 40
0.5773502692
 41
0.0174532925
 42
0.5235987756
  0
ELLIPSE
  5
84B
100
AcDbEntity
  8
ASSI
100
AcDbEllipse
 62
7
  6
CONTINUOUS
 10
-20.7178868493
 20
40.7003294305
 30
0.0
 11
0.25
 21
0.0
 31
0.0
 40
0.0174550649
 41
-1.5707963268
 42
-0.0174532925
  0
ELLIPSE
  5
84C
100
AcDbEntity
  8
ASSI
100
AcDbEllipse
 62
7
  6
CONTINUOUS
 10
-2.9178868493
 20
-4.0734879721
 30
0.0
 11
0.25
 21
-0.0
 31
0.0
 40
0.0174550649
 41
0.0174532925
 42
1.5707963268
  0
ELLIPSE
  5
84D
100
AcDbEntity
  8
ASSI
100
AcDbEllipse
 62
7
  6
CONTINUOUS
 10
-3.1916280879
 20
-5.2422417035
 30
0.0
 11
0.25
 21
-0.0
 31
0.0
 40
0.5773502692
 41
-3.1241393611
 42
-2.617993878
  0
ELLIPSE
  5
84E
100
AcDbEntity
  8
ASSI
100
AcDbEllipse
 62
7
  6
CONTINUOUS
 10
-3.1916280879
 20
-4.0734879721
 30
0.0
 11
0.25
 21
0.0
 31
0.0
 40
0.0174550649
 41
1.5707963268
 42
3.1241393611
  0
ELLIPSE
  5
84F
100
AcDbEntity
  8
ASSI
100
AcDbEllipse
 62
7
  6
CONTINUOUS
 10
-19.3547879342
 20
-5.0401691093
 30
0.0
 11
0.0069796346
 21
0.2308610084
 31
0.0
 40
0.8659264732
 41
-1.535896377
 42
0.026173628
  0
ELLIPSE
  5
850
100
AcDbEntity
  8
ASSI
100
AcDbEllipse
 62
7
  6
CONTINUOUS
 10
-20.7178868493
 20
-4.0734879721
 30
0.0
 11
0.25
 21
-0.0
 31
0.0
 40
0.0174550649
 41
0.0174532925
 42
1.5707963268
  0
ELLIPSE
  5
851
100
AcDbEntity
  8
ASSI
100
AcDbEllipse
 62
7
  6
CONTINUOUS
 10
-20.9916280879
 20
-5.2422417035
 30
0.0
 11
0.25
 21
0.0
 31
0.0
 40
0.5773502692
 41
-3.1241393611
 42
-2.617993878
  0
ELLIPSE
  5
852
100
AcDbEntity
  8
ASSI
100
AcDbEllipse
 62
7
  6
CONTINUOUS
 10
-20.9916280879
 20
-4.0734879721
 30
0.0
 11
0.25
 21
-0.0
 31
0.0
 40
0.0174550649
 41
1.5707963268
 42
3.1241393611
  0
ELLIPSE
  5
853
100
AcDbEntity
  8
ASSI
100
AcDbEllipse
 62
7
  6
CONTINUOUS
 10
-22.354727003
 20
41.6670105677
 30
0.0
 11
0.0069796346
 21
0.2308610084
 31
0.0
 40
0.8659264732
 41
-4.6774890306
 42
-3.1154190256
  0
ELLIPSE
  5
854
100
AcDbEntity
  8
ASSI
100
AcDbEllipse
 62
7
  6
CONTINUOUS
 10
-19.3547879342
 20
41.6670105677
 30
0.0
 11
-0.0069796346
 21
0.2308610084
 31
0.0
 40
0.8659264732
 41
-3.1677662815
 42
-1.6056962766
  0
ELLIPSE
  5
855
100
AcDbEntity
  8
ASSI
100
AcDbEllipse
 62
7
  6
CONTINUOUS
 10
-1.5547879342
 20
-5.0401691093
 30
0.0
 11
0.0069796346
 21
0.2308610084
 31
0.0
 40
0.8659264732
 41
-1.535896377
 42
0.026173628
  0
ELLIPSE
  5
856
100
AcDbEntity
  8
ASSI
100
AcDbEllipse
 62
7
  6
CONTINUOUS
 10
-4.554727003
 20
41.6670105677
 30
0.0
 11
0.0069796346
 21
0.2308610084
 31
0.0
 40
0.8659264732
 41
-4.6774890306
 42
-3.1154190256
  0
ELLIPSE
  5
857
100
AcDbEntity
  8
ASSI
100
AcDbEllipse
 62
7
  6
CONTINUOUS
 10
-4.554727003
 20
-5.0401691093
 30
0.0
 11
-0.0069796346
 21
0.2308610084
 31
0.0
 40
0.8659264732
 41
-0.026173628
 42
1.535896377
  0
ELLIPSE
  5
858
100
AcDbEntity
  8
ASSI
100
AcDbEllipse
 62
7
  6
CONTINUOUS
 10
-1.5547879342
 20
41.6670105677
 30
0.0
 11
-0.0069796346
 21
0.2308610084
 31
0.0
 40
0.8659264732
 41
-3.1677662815
 42
-1.6056962766
  0
ELLIPSE
  5
859
100
AcDbEntity
  8
ASSI
100
AcDbEllipse
 62
7
  6
CONTINUOUS
 10
-22.354727003
 20
-5.0401691093
 30
0.0
 11
-0.0069796346
 21
0.2308610084
 31
0.0
 40
0.8659264732
 41
-0.026173628
 42
1.535896377
  0
ELLIPSE
  5
85A
100
AcDbEntity
  8
RACCORDO
100
AcDbEllipse
 62
7
  6
CONTINUOUS
 10
-13.6373353558
 20
0.7134207292
 30
0.0
 11
0.3000114235
 21
0.0
 31
0.0
 40
0.9999619231
 41
1.5707963268
 42
2.80137059
  0
ELLIPSE
  5
85B
100
AcDbEntity
  8
RACCORDO
100
AcDbEllipse
 62
7
  6
CONTINUOUS
 10
-22.6678363468
 20
14.8634207292
 30
0.0
 11
0.3000114235
 21
0.0
 31
0.0
 40
0.9999619231
 41
1.5707963268
 42
3.1415926536
  0
ELLIPSE
  5
85C
100
AcDbEntity
  8
RACCORDO
100
AcDbEllipse
 62
7
  6
CONTINUOUS
 10
-22.6678363468
 20
19.8634207292
 30
0.0
 11
0.3000114235
 21
0.0
 31
0.0
 40
0.9999619231
 41
1.5707963268
 42
3.1415926536
  0
ELLIPSE
  5
85D
100
AcDbEntity
  8
DRAFT
100
AcDbEllipse
 62
7
  6
CONTINUOUS
 10
-21.7962100906
 20
17.3134207292
 30
0.0
 11
0.0
 21
2.15
 31
0.0
 40
0.0087268678
 41
0.0
 42
3.1415926536
  0
ELLIPSE
  5
85E
100
AcDbEntity
  8
DRAFT
100
AcDbEllipse
 62
7
  6
CONTINUOUS
 10
-21.7962100906
 20
32.3134207292
 30
0.0
 11
-0.0
 21
2.15
 31
0.0
 40
0.0087268678
 41
-0.0
 42
3.1415926536
  0
ELLIPSE
  5
85F
100
AcDbEntity
  8
DRAFT
100
AcDbEllipse
 62
7
  6
CONTINUOUS
 10
-21.7962100906
 20
27.3134207292
 30
0.0
 11
0.0
 21
2.15
 31
0.0
 40
0.0087268678
 41
0.0
 42
3.1415926536
  0
ELLIPSE
  5
860
100
AcDbEntity
  8
DRAFT
100
AcDbEllipse
 62
7
  6
CONTINUOUS
 10
-21.7962100906
 20
22.3134207292
 30
0.0
 11
-0.0
 21
2.15
 31
0.0
 40
0.0087268678
 41
0.0
 42
3.1415926536
  0
ELLIPSE
  5
861
100
AcDbEntity
  8
RACCORDO
100
AcDbEllipse
 62
7
  6
CONTINUOUS
 10
-15.6678363468
 20
37.6264996074
 30
0.0
 11
0.2121481893
 21
-0.2121481893
 31
0.0
 40
0.9999238505
 41
2.3562325664
 42
3.9269527408
  0
ELLIPSE
  5
862
100
AcDbEntity
  8
RACCORDO
100
AcDbEllipse
 62
7
  6
CONTINUOUS
 10
-2.5635646231
 20
36.9264729525
 30
0.0
 11
0.3827005044
 21
0.9239207481
 31
0.0
 40
0.9999553905
 41
-0.3926833098
 42
0.3926833098
  0
ELLIPSE
  5
863
100
AcDbEntity
  8
RACCORDO
100
AcDbEllipse
 62
7
  6
CONTINUOUS
 10
-1.9417052453
 20
36.3046135747
 30
0.0
 11
0.9239207481
 21
0.3827005044
 31
0.0
 40
0.9999553905
 41
-0.3926833098
 42
0.3926833098
  0
ELLIPSE
  5
864
100
AcDbEntity
  8
RACCORDO
100
AcDbEllipse
 62
7
  6
CONTINUOUS
 10
-1.9417052453
 20
0.3222278836
 30
0.0
 11
0.9239207481
 21
-0.3827005044
 31
0.0
 40
0.9999553905
 41
-0.3926833098
 42
0.3926833098
  0
ELLIPSE
  5
865
100
AcDbEntity
  8
RACCORDO
100
AcDbEllipse
 62
7
  6
CONTINUOUS
 10
-2.5635646231
 20
-0.2996314941
 30
0.0
 11
-0.3827005044
 21
0.9239207481
 31
0.0
 40
0.9999553905
 41
2.7489093438
 42
3.5342759634
  0
ELLIPSE
  5
866
100
AcDbEntity
  8
RACCORDO
100
AcDbEllipse
 62
7
  6
CONTINUOUS
 10
-15.6678363468
 20
-0.999658149
 30
0.0
 11
-0.2121481893
 21
-0.2121481893
 31
0.0
 40
0.9999238505
 41
-0.7853600872
 42
0.7853600872
  0
ELLIPSE
  5
867
100
AcDbEntity
  8
RACCORDO
100
AcDbEllipse
 62
7
  6
CONTINUOUS
 10
-21.3459503142
 20
1.1003685059
 30
0.0
 11
-0.3827005044
 21
-0.9239207481
 31
0.0
 40
0.9999553905
 41
-0.3926833098
 42
0.3926833098
  0
ELLIPSE
  5
868
100
AcDbEntity
  8
RACCORDO
100
AcDbEllipse
 62
7
  6
CONTINUOUS
 10
-21.9678096919
 20
1.7222278836
 30
0.0
 11
0.9239207481
 21
0.3827005044
 31
0.0
 40
0.9999553905
 41
2.7489093438
 42
3.5342759634
  0
ELLIPSE
  5
869
100
AcDbEntity
  8
RACCORDO
100
AcDbEllipse
 62
7
  6
CONTINUOUS
 10
-22.6678363468
 20
19.7634207292
 30
0.0
 11
-0.3000114235
 21
-0.0
 31
0.0
 40
0.9999619231
 41
0.0
 42
1.5707963268
  0
ELLIPSE
  5
86A
100
AcDbEntity
  8
RACCORDO
100
AcDbEllipse
 62
7
  6
CONTINUOUS
 10
-22.6678363468
 20
24.7634207292
 30
0.0
 11
-0.3000114235
 21
-0.0
 31
0.0
 40
0.9999619231
 41
0.0
 42
1.5707963268
  0
ELLIPSE
  5
86B
100
AcDbEntity
  8
RACCORDO
100
AcDbEllipse
 62
7
  6
CONTINUOUS
 10
-22.6678363468
 20
24.8634207292
 30
0.0
 11
0.3000114235
 21
0.0
 31
0.0
 40
0.9999619231
 41
1.5707963268
 42
3.1415926536
  0
ELLIPSE
  5
86C
100
AcDbEntity
  8
RACCORDO
100
AcDbEllipse
 62
7
  6
CONTINUOUS
 10
-22.6678363468
 20
29.7634207292
 30
0.0
 11
-0.3000114235
 21
-0.0
 31
0.0
 40
0.9999619231
 41
0.0
 42
1.5707963268
  0
ELLIPSE
  5
86D
100
AcDbEntity
  8
RACCORDO
100
AcDbEllipse
 62
7
  6
CONTINUOUS
 10
-22.6678363468
 20
29.8634207292
 30
0.0
 11
0.3000114235
 21
0.0
 31
0.0
 40
0.9999619231
 41
1.5707963268
 42
3.1415926536
  0
ELLIPSE
  5
86E
100
AcDbEntity
  8
RACCORDO
100
AcDbEllipse
 62
7
  6
CONTINUOUS
 10
-22.6678363468
 20
34.7634207292
 30
0.0
 11
-0.3000114235
 21
-0.0
 31
0.0
 40
0.9999619231
 41
0.0
 42
1.5707963268
  0
ELLIPSE
  5
86F
100
AcDbEntity
  8
RACCORDO
100
AcDbEllipse
 62
7
  6
CONTINUOUS
 10
-21.9678096919
 20
34.9046135747
 30
0.0
 11
-0.9239207481
 21
0.3827005044
 31
0.0
 40
0.9999553905
 41
-0.3926833098
 42
0.3926833098
  0
ELLIPSE
  5
870
100
AcDbEntity
  8
RACCORDO
100
AcDbEllipse
 62
7
  6
CONTINUOUS
 10
-21.3459503142
 20
35.5264729525
 30
0.0
 11
-0.3827005044
 21
0.9239207481
 31
0.0
 40
0.9999553905
 41
-0.3926833098
 42
0.3926833098
  0
ELLIPSE
  5
871
100
AcDbEntity
  8
RACCORDO
100
AcDbEllipse
 62
7
  6
CONTINUOUS
 10
-16.2678591938
 20
36.8265224544
 30
0.0
 11
0.2121481893
 21
-0.2121481893
 31
0.0
 40
0.9999238505
 41
-0.7853600872
 42
0.7853600872
  0
ELLIPSE
  5
872
100
AcDbEntity
  8
RACCORDO
100
AcDbEllipse
 62
7
  6
CONTINUOUS
 10
-10.2721795814
 20
0.7134207292
 30
0.0
 11
0.3000114235
 21
0.0
 31
0.0
 40
0.9999619231
 41
0.3402220636
 42
1.5707963268
  0
ELLIPSE
  5
873
100
AcDbEntity
  8
RACCORDO
100
AcDbEllipse
 62
7
  6
CONTINUOUS
 10
-10.3507644378
 20
35.9134207292
 30
0.0
 11
-0.3000114235
 21
-0.0
 31
0.0
 40
0.9999619231
 41
1.5707963268
 42
2.80137059
  0
ELLIPSE
  5
874
100
AcDbEntity
  8
RACCORDO
100
AcDbEllipse
 62
7
  6
CONTINUOUS
 10
-13.5587504994
 20
35.9134207292
 30
0.0
 11
-0.3000114235
 21
-0.0
 31
0.0
 40
0.9999619231
 41
0.3402220636
 42
1.5707963268
  0
ELLIPSE
  5
875
100
AcDbEntity
  8
ASSI
100
AcDbEllipse
 62
7
  6
CONTINUOUS
 10
-15.6678363468
 20
37.6264996074
 30
0.0
 11
0.2121481893
 21
-0.2121481893
 31
0.0
 40
0.9999238505
 41
2.3562325664
 42
3.9269527408
  0
ELLIPSE
  5
876
100
AcDbEntity
  8
ASSI
100
AcDbEllipse
 62
7
  6
CONTINUOUS
 10
-2.5635646231
 20
36.9264729525
 30
0.0
 11
0.3827005044
 21
0.9239207481
 31
0.0
 40
0.9999553905
 41
-0.3926833098
 42
0.3926833098
  0
ELLIPSE
  5
877
100
AcDbEntity
  8
ASSI
100
AcDbEllipse
 62
7
  6
CONTINUOUS
 10
-1.9417052453
 20
36.3046135747
 30
0.0
 11
0.9239207481
 21
0.3827005044
 31
0.0
 40
0.9999553905
 41
-0.3926833098
 42
0.3926833098
  0
ELLIPSE
  5
878
100
AcDbEntity
  8
ASSI
100
AcDbEllipse
 62
7
  6
CONTINUOUS
 10
-1.9417052453
 20
0.3222278836
 30
0.0
 11
0.9239207481
 21
-0.3827005044
 31
0.0
 40
0.9999553905
 41
-0.3926833098
 42
0.3926833098
  0
ELLIPSE
  5
879
100
AcDbEntity
  8
ASSI
100
AcDbEllipse
 62
7
  6
CONTINUOUS
 10
-2.5635646231
 20
-0.2996314941
 30
0.0
 11
-0.3827005044
 21
0.9239207481
 31
0.0
 40
0.9999553905
 41
2.7489093438
 42
3.5342759634
  0
ELLIPSE
  5
87A
100
AcDbEntity
  8
ASSI
100
AcDbEllipse
 62
7
  6
CONTINUOUS
 10
-15.6678363468
 20
-0.999658149
 30
0.0
 11
-0.2121481893
 21
-0.2121481893
 31
0.0
 40
0.9999238505
 41
-0.7853600872
 42
0.7853600872
  0
ELLIPSE
  5
87B
100
AcDbEntity
  8
ASSI
100
AcDbEllipse
 62
7
  6
CONTINUOUS
 10
-21.3459503142
 20
1.1003685059
 30
0.0
 11
-0.3827005044
 21
-0.9239207481
 31
0.0
 40
0.9999553905
 41
-0.3926833098
 42
0.3926833098
  0
ELLIPSE
  5
87C
100
AcDbEntity
  8
ASSI
100
AcDbEllipse
 62
7
  6
CONTINUOUS
 10
-21.9678096919
 20
1.7222278836
 30
0.0
 11
0.9239207481
 21
0.3827005044
 31
0.0
 40
0.9999553905
 41
2.7489093438
 42
3.5342759634
  0
ELLIPSE
  5
87D
100
AcDbEntity
  8
ASSI
100
AcDbEllipse
 62
7
  6
CONTINUOUS
 10
-22.6678363468
 20
19.7634207292
 30
0.0
 11
-0.3000114235
 21
-0.0
 31
0.0
 40
0.9999619231
 41
0.0
 42
1.5707963268
  0
ELLIPSE
  5
87E
100
AcDbEntity
  8
ASSI
100
AcDbEllipse
 62
7
  6
CONTINUOUS
 10
-22.6678363468
 20
24.7634207292
 30
0.0
 11
-0.3000114235
 21
-0.0
 31
0.0
 40
0.9999619231
 41
0.0
 42
1.5707963268
  0
ELLIPSE
  5
87F
100
AcDbEntity
  8
ASSI
100
AcDbEllipse
 62
7
  6
CONTINUOUS
 10
-22.6678363468
 20
24.8634207292
 30
0.0
 11
0.3000114235
 21
0.0
 31
0.0
 40
0.9999619231
 41
1.5707963268
 42
3.1415926536
  0
ELLIPSE
  5
880
100
AcDbEntity
  8
ASSI
100
AcDbEllipse
 62
7
  6
CONTINUOUS
 10
-22.6678363468
 20
29.7634207292
 30
0.0
 11
-0.3000114235
 21
-0.0
 31
0.0
 40
0.9999619231
 41
0.0
 42
1.5707963268
  0
ELLIPSE
  5
881
100
AcDbEntity
  8
ASSI
100
AcDbEllipse
 62
7
  6
CONTINUOUS
 10
-22.6678363468
 20
29.8634207292
 30
0.0
 11
0.3000114235
 21
0.0
 31
0.0
 40
0.9999619231
 41
1.5707963268
 42
3.1415926536
  0
ELLIPSE
  5
882
100
AcDbEntity
  8
ASSI
100
AcDbEllipse
 62
7
  6
CONTINUOUS
 10
-22.6678363468
 20
34.7634207292
 30
0.0
 11
-0.3000114235
 21
-0.0
 31
0.0
 40
0.9999619231
 41
0.0
 42
1.5707963268
  0
ELLIPSE
  5
883
100
AcDbEntity
  8
ASSI
100
AcDbEllipse
 62
7
  6
CONTINUOUS
 10
-21.9678096919
 20
34.9046135747
 30
0.0
 11
-0.9239207481
 21
0.3827005044
 31
0.0
 40
0.9999553905
 41
-0.3926833098
 42
0.3926833098
  0
ELLIPSE
  5
884
100
AcDbEntity
  8
ASSI
100
AcDbEllipse
 62
7
  6
CONTINUOUS
 10
-21.3459503142
 20
35.5264729525
 30
0.0
 11
-0.3827005044
 21
0.9239207481
 31
0.0
 40
0.9999553905
 41
-0.3926833098
 42
0.3926833098
  0
ELLIPSE
  5
885
100
AcDbEntity
  8
ASSI
100
AcDbEllipse
 62
7
  6
CONTINUOUS
 10
-10.2721795814
 20
0.7134207292
 30
0.0
 11
0.3000114235
 21
0.0
 31
0.0
 40
0.9999619231
 41
0.3402220636
 42
1.5707963268
  0
ELLIPSE
  5
886
100
AcDbEntity
  8
ASSI
100
AcDbEllipse
 62
7
  6
CONTINUOUS
 10
-10.3507644378
 20
35.9134207292
 30
0.0
 11
-0.3000114235
 21
-0.0
 31
0.0
 40
0.9999619231
 41
1.5707963268
 42
2.80137059
  0
ELLIPSE
  5
887
100
AcDbEntity
  8
ASSI
100
AcDbEllipse
 62
7
  6
CONTINUOUS
 10
-13.5587504994
 20
35.9134207292
 30
0.0
 11
-0.3000114235
 21
-0.0
 31
0.0
 40
0.9999619231
 41
0.3402220636
 42
1.5707963268
  0
ELLIPSE
  5
888
100
AcDbEntity
  8
ASSI
100
AcDbEllipse
 62
7
  6
CONTINUOUS
 10
-13.6373353558
 20
0.7134207292
 30
0.0
 11
0.3000114235
 21
0.0
 31
0.0
 40
0.9999619231
 41
1.5707963268
 42
2.80137059
  0
ELLIPSE
  5
889
100
AcDbEntity
  8
ASSI
100
AcDbEllipse
 62
7
  6
CONTINUOUS
 10
-22.6678363468
 20
14.8634207292
 30
0.0
 11
0.3000114235
 21
0.0
 31
0.0
 40
0.9999619231
 41
1.5707963268
 42
3.1415926536
  0
ELLIPSE
  5
88A
100
AcDbEntity
  8
ASSI
100
AcDbEllipse
 62
7
  6
CONTINUOUS
 10
-22.6678363468
 20
19.8634207292
 30
0.0
 11
0.3000114235
 21
0.0
 31
0.0
 40
0.9999619231
 41
1.5707963268
 42
3.1415926536
  0
ELLIPSE
  5
88B
100
AcDbEntity
  8
ASSI
100
AcDbEllipse
 62
7
  6
CONTINUOUS
 10
-21.7962100906
 20
17.3134207292
 30
0.0
 11
0.0
 21
2.15
 31
0.0
 40
0.0087268678
 41
0.0
 42
3.1415926536
  0
ELLIPSE
  5
88C
100
AcDbEntity
  8
ASSI
100
AcDbEllipse
 62
7
  6
CONTINUOUS
 10
-21.7962100906
 20
32.3134207292
 30
0.0
 11
-0.0
 21
2.15
 31
0.0
 40
0.0087268678
 41
-0.0
 42
3.1415926536
  0
ELLIPSE
  5
88D
100
AcDbEntity
  8
ASSI
100
AcDbEllipse
 62
7
  6
CONTINUOUS
 10
-21.7962100906
 20
27.3134207292
 30
0.0
 11
0.0
 21
2.15
 31
0.0
 40
0.0087268678
 41
0.0
 42
3.1415926536
  0
ELLIPSE
  5
88E
100
AcDbEntity
  8
ASSI
100
AcDbEllipse
 62
7
  6
CONTINUOUS
 10
-21.7962100906
 20
22.3134207292
 30
0.0
 11
-0.0
 21
2.15
 31
0.0
 40
0.0087268678
 41
0.0
 42
3.1415926536
  0
ELLIPSE
  5
88F
100
AcDbEntity
  8
ASSI
100
AcDbEllipse
 62
7
  6
CONTINUOUS
 10
-16.2678591938
 20
36.8265224544
 30
0.0
 11
0.2121481893
 21
-0.2121481893
 31
0.0
 40
0.9999238505
 41
-0.7853600872
 42
0.7853600872
  0
ENDSEC
  0
SECTION
  2
OBJECTS
  0
DICTIONARY
  5
C
100
AcDbDictionary
280
0
281
1
  3
ACAD_GROUP
350
D
  3
ACAD_MLINESTYLE
350
17
  3
ACAD_LAYOUT
350
1A
  3
ACAD_PLOTSETTINGS
350
19
  3
ACAD_PLOTSTYLENAME
350
E
  0
DICTIONARY
  5
D
102
{ACAD_REACTORS
330
C
102
}
100
AcDbDictionary
280
0
281
1
  0
ACDBDICTIONARYWDFLT
  5
E
102
{ACAD_REACTORS
330
C
102
}
100
AcDbDictionary
281
1
  3
Normal
350
F
100
AcDbDictionaryWithDefault
340
F
  0
DICTIONARY
  5
17
102
{ACAD_REACTORS
330
C
102
}
100
AcDbDictionary
280
0
281
1
  3
Standard
350
18
  0
DICTIONARY
  5
19
102
{ACAD_REACTORS
330
C
102
}
100
AcDbDictionary
281
1
  0
DICTIONARY
  5
1A
102
{ACAD_REACTORS
330
C
102
}
100
AcDbDictionary
281
1
  3
Model
350
890
  3
Layout1
350
891
  0
ACDBPLACEHOLDER
  5
F
102
{ACAD_REACTORS
330
E
102
}
  0
MLINESTYLE
  5
18
102
{ACAD_REACTORS
330
17
102
}
100
AcDbMlineStyle
  2
STANDARD
 70
0
  3

 62
256
 51
90.0
 52
90.0
 71
2
 49
0.5
 62
256
  6
BYLAYER
 49
-0.5
 62
256
  6
BYLAYER
  0
LAYOUT
  5
890
102
{ACAD_REACTORS
330
1A
102
}
100
AcDbPlotSettings
  1

  2
none_device
  4
ISO_A4_(297.00_x_210.00_MM)
  6

 40
0.0
 41
0.0
 42
0.0
 43
0.0
 44
297.0
 45
210.0
 46
0.0
 47
0.0
 48
0.0
 49
0.0
140
0.0
141
0.0
142
1.0
143
1.0
 70
1024
 72
1
 73
0
 74
0
  7

 75
0
147
1.0
148
0.0
149
0.0
100
AcDbLayout
  1
Model
 70
0
 71
0
 10
0.0
 20
0.0
 11
297.0
 21
210.0
 12
0.0
 22
0.0
 32
0.0
 14
0.0
 24
0.0
 34
0.0
 15
0.0
 25
0.0
 35
0.0
146
0.0
 13
0.0
 23
0.0
 33
0.0
 16
1.0
 26
0.0
 36
0.0
 17
0.0
 27
1.0
 37
0.0
 76
0
330
223
345
0
346
0
  0
LAYOUT
  5
891
102
{ACAD_REACTORS
330
1A
102
}
100
AcDbPlotSettings
  1

  2
none_device
  4
ISO_A4_(297.00_x_210.00_MM)
  6

 40
0.0
 41
0.0
 42
0.0
 43
0.0
 44
297.0
 45
210.0
 46
0.0
 47
0.0
 48
0.0
 49
0.0
140
0.0
141
0.0
142
1.0
143
1.0
 70
0
 72
1
 73
0
 74
0
  7

 75
0
147
1.0
148
0.0
149
0.0
100
AcDbLayout
  1
Layout1
 70
0
 71
1
 10
0.0
 20
0.0
 11
297.0
 21
210.0
 12
0.0
 22
0.0
 32
0.0
 14
0.0
 24
0.0
 34
0.0
 15
0.0
 25
0.0
 35
0.0
146
0.0
 13
0.0
 23
0.0
 33
0.0
 16
1.0
 26
0.0
 36
0.0
 17
0.0
 27
1.0
 37
0.0
 76
0
330
224
345
0
346
0
  0
ENDSEC
  0
EOF
