  0
SECTION
  2
HEADER
  9
$ACADVER
  1
AC1015
  9
$DWGCODEPAGE
  3
ANSI_1252
  9
$EXTMAX
 10
297.0
 20
210.0
 30
0.0
  9
$EXTMIN
 10
0.0
 20
0.0
 30
0.0
  9
$LIMMIN
 10
0.0
 20
0.0
  9
$LIMMAX
 10
297.0
 20
210.0
  9
$VIEWCTR
 10
148.5
 20
105.0
  9
$VIEWSIZE
 40
210.0
  9
$CLAYER
  8
0
  9
$LTSCALE
 40
16.335
  9
$CELTYPE
  6
BYLAYER
  9
$DIMSCALE
 40
1.0
  9
$DIMASZ
 40
3.0
  9
$DIMEXO
 40
0.5
  9
$DIMDLI
 40
11.286
  9
$DIMEXE
 40
1.5
  9
$DIMCEN
 40
2.673
  9
$DIMLFAC
 40
1.0
  9
$DIMBLK
  1
_FILLED
  9
$DIMTXT
 40
3.0
  9
$DIMTOL
 70
1
  9
$DIMLIM
 70
0
  9
$DIMTFAC
 40
1.0
  9
$DIMTP
 40
0.01
  9
$DIMTM
 40
0.01
  9
$DIMGAP
 40
0.625
  9
$DIMDSEP
 70
44
  9
$PDMODE
 70
3
  9
$PDSIZE
 40
3.0
  9
$HANDSEED
  5
9D1
  9
$TILEMODE
 70
1
  9
$MEASUREMENT
 70
1
  9
$INSUNITS
 70
4
  0
ENDSEC
  0
SECTION
  2
CLASSES
  0
CLASS
  1
ACDBDICTIONARYWDFLT
  2
AcDbDictionaryWithDefault
  3
AutoCAD 2000
 90
0
280
0
281
0
  0
CLASS
  1
ACDBPLACEHOLDER
  2
AcDbPlaceHolder
  3
AutoCAD 2000
 90
0
280
0
281
0
  0
CLASS
  1
LAYOUT
  2
AcDbLayout
  3
AutoCAD 2000
 90
0
280
0
281
0
  0
ENDSEC
  0
SECTION
  2
TABLES
  0
TABLE
  2
VPORT
  5
8
100
AcDbSymbolTable
 70
2
  0
VPORT
  5
1F4
100
AcDbSymbolTableRecord
100
AcDbViewportTableRecord
  2
*ACTIVE
 70
0
 10
0.0
 20
0.0
 11
1.0
 21
1.0
 12
148.5
 22
105.0
 13
0.0
 23
0.0
 14
1.0
 24
1.0
 15
0.0
 25
0.0
 16
0.0
 26
0.0
 36
1.0
 17
0.0
 27
0.0
 37
0.0
 40
210.0
 41
1.4142857143
 42
50.0
 43
0.0
 44
0.0
 50
0.0
 51
0.0
 71
0
 72
100
 73
1
 74
1
 75
0
 76
0
 77
0
 78
0
  0
ENDTAB
  0
TABLE
  2
LTYPE
  5
5
100
AcDbSymbolTable
 70
6
  0
LTYPE
  5
14
100
AcDbSymbolTableRecord
100
AcDbLinetypeTableRecord
  2
BYBLOCK
 70
0
  3

 72
65
 73
0
 40
0.0
  0
LTYPE
  5
15
100
AcDbSymbolTableRecord
100
AcDbLinetypeTableRecord
  2
BYLAYER
 70
0
  3

 72
65
 73
0
 40
0.0
  0
LTYPE
  5
16
100
AcDbSymbolTableRecord
100
AcDbLinetypeTableRecord
  2
CONTINUOUS
 70
64
  3
Solid line
 72
65
 73
0
 40
0.0
  0
LTYPE
  5
1F5
100
AcDbSymbolTableRecord
100
AcDbLinetypeTableRecord
  2
CENTER
 70
64
  3
____ _ ____ _ ____ _ ____ _ ____ _ ____ _ ____
 72
65
 73
4
 40
0.6
 49
0.375
 74
0
 49
-0.075
 74
0
 49
0.075
 74
0
 49
-0.075
 74
0
  0
LTYPE
  5
1F6
100
AcDbSymbolTableRecord
100
AcDbLinetypeTableRecord
  2
HIDDEN
 70
64
  3
- - - - - - - - - - - - - - - - - - - -
 72
65
 73
2
 40
0.2
 49
0.1
 74
0
 49
-0.1
 74
0
  0
LTYPE
  5
1F7
100
AcDbSymbolTableRecord
100
AcDbLinetypeTableRecord
  2
PHANTOM
 70
64
  3
_____ _ _ _____ _ _ _____ _ _ _____
 72
65
 73
6
 40
0.8
 49
0.45
 74
0
 49
-0.05
 74
0
 49
0.1
 74
0
 49
-0.05
 74
0
 49
0.1
 74
0
 49
-0.05
 74
0
  0
LTYPE
  5
1F8
100
AcDbSymbolTableRecord
100
AcDbLinetypeTableRecord
  2
DOT
 70
64
  3
. . . . . . . . . . . . . . . . . . . .
 72
65
 73
2
 40
0.2
 49
0.1
 74
0
 49
-0.1
 74
0
  0
LTYPE
  5
1F9
100
AcDbSymbolTableRecord
100
AcDbLinetypeTableRecord
  2
DASHED
 70
64
  3
- - - - - - - - - - - - - - - - - - - -
 72
65
 73
2
 40
0.2
 49
0.1
 74
0
 49
-0.1
 74
0
  0
ENDTAB
  0
TABLE
  2
LAYER
  5
2
100
AcDbSymbolTable
 70
36
  0
LAYER
  5
10
100
AcDbSymbolTableRecord
100
AcDbLayerTableRecord
  2
0
 70
0
 62
7
  6
CONTINUOUS
370
-3
390
F
  0
LAYER
  5
1FA
100
AcDbSymbolTableRecord
100
AcDbLayerTableRecord
  2
DEFAULT_1
 70
0
 62
7
  6
CENTER
370
-3
390
F
  0
LAYER
  5
1FB
100
AcDbSymbolTableRecord
100
AcDbLayerTableRecord
  2
DEFAULT_2
 70
0
 62
7
  6
HIDDEN
370
-3
390
F
  0
LAYER
  5
1FC
100
AcDbSymbolTableRecord
100
AcDbLayerTableRecord
  2
DEFAULT_3
 70
0
 62
7
  6
PHANTOM
370
-3
390
F
  0
LAYER
  5
1FD
100
AcDbSymbolTableRecord
100
AcDbLayerTableRecord
  2
ASSI
 70
0
 62
7
  6
CONTINUOUS
370
-3
390
F
  0
LAYER
  5
1FE
100
AcDbSymbolTableRecord
100
AcDbLayerTableRecord
  2
COLOR4
 70
0
 62
7
  6
CONTINUOUS
370
-3
390
F
  0
LAYER
  5
1FF
100
AcDbSymbolTableRecord
100
AcDbLayerTableRecord
  2
COORDINATE
 70
0
 62
7
  6
CONTINUOUS
370
-3
390
F
  0
LAYER
  5
200
100
AcDbSymbolTableRecord
100
AcDbLayerTableRecord
  2
COORD_ORIGINE
 70
0
 62
7
  6
CONTINUOUS
370
-3
390
F
  0
LAYER
  5
201
100
AcDbSymbolTableRecord
100
AcDbLayerTableRecord
  2
COPY
 70
0
 62
7
  6
CONTINUOUS
370
-3
390
F
  0
LAYER
  5
202
100
AcDbSymbolTableRecord
100
AcDbLayerTableRecord
  2
COPY_PUBLISH
 70
0
 62
7
  6
CONTINUOUS
370
-3
390
F
  0
LAYER
  5
203
100
AcDbSymbolTableRecord
100
AcDbLayerTableRecord
  2
COSMETIC
 70
0
 62
7
  6
CONTINUOUS
370
-3
390
F
  0
LAYER
  5
204
100
AcDbSymbolTableRecord
100
AcDbLayerTableRecord
  2
COSMETICI
 70
0
 62
7
  6
CONTINUOUS
370
-3
390
F
  0
LAYER
  5
205
100
AcDbSymbolTableRecord
100
AcDbLayerTableRecord
  2
CURVE
 70
0
 62
7
  6
CONTINUOUS
370
-3
390
F
  0
LAYER
  5
206
100
AcDbSymbolTableRecord
100
AcDbLayerTableRecord
  2
DRAFT
 70
0
 62
7
  6
CONTINUOUS
370
-3
390
F
  0
LAYER
  5
207
100
AcDbSymbolTableRecord
100
AcDbLayerTableRecord
  2
IMPORT_IGES
 70
0
 62
7
  6
CONTINUOUS
370
-3
390
F
  0
LAYER
  5
208
100
AcDbSymbolTableRecord
100
AcDbLayerTableRecord
  2
INTFCLR_1
 70
0
 62
7
  6
CONTINUOUS
370
-3
390
F
  0
LAYER
  5
209
100
AcDbSymbolTableRecord
100
AcDbLayerTableRecord
  2
INTFCLR_137
 70
0
 62
7
  6
CONTINUOUS
370
-3
390
F
  0
LAYER
  5
20A
100
AcDbSymbolTableRecord
100
AcDbLayerTableRecord
  2
INTFCLR_2
 70
0
 62
7
  6
CONTINUOUS
370
-3
390
F
  0
LAYER
  5
20B
100
AcDbSymbolTableRecord
100
AcDbLayerTableRecord
  2
INTFCLR_383
 70
0
 62
7
  6
CONTINUOUS
370
-3
390
F
  0
LAYER
  5
20C
100
AcDbSymbolTableRecord
100
AcDbLayerTableRecord
  2
INTFCLR_4627
 70
0
 62
7
  6
CONTINUOUS
370
-3
390
F
  0
LAYER
  5
20D
100
AcDbSymbolTableRecord
100
AcDbLayerTableRecord
  2
INTFCLR_6275
 70
0
 62
7
  6
CONTINUOUS
370
-3
390
F
  0
LAYER
  5
20E
100
AcDbSymbolTableRecord
100
AcDbLayerTableRecord
  2
INTF_1
 70
0
 62
7
  6
CONTINUOUS
370
-3
390
F
  0
LAYER
  5
20F
100
AcDbSymbolTableRecord
100
AcDbLayerTableRecord
  2
INTF_12
 70
0
 62
7
  6
CONTINUOUS
370
-3
390
F
  0
LAYER
  5
210
100
AcDbSymbolTableRecord
100
AcDbLayerTableRecord
  2
INTF_2
 70
0
 62
7
  6
CONTINUOUS
370
-3
390
F
  0
LAYER
  5
211
100
AcDbSymbolTableRecord
100
AcDbLayerTableRecord
  2
INTF_5
 70
0
 62
7
  6
CONTINUOUS
370
-3
390
F
  0
LAYER
  5
212
100
AcDbSymbolTableRecord
100
AcDbLayerTableRecord
  2
INTF_6
 70
0
 62
7
  6
CONTINUOUS
370
-3
390
F
  0
LAYER
  5
213
100
AcDbSymbolTableRecord
100
AcDbLayerTableRecord
  2
INTF_9
 70
0
 62
7
  6
CONTINUOUS
370
-3
390
F
  0
LAYER
  5
214
100
AcDbSymbolTableRecord
100
AcDbLayerTableRecord
  2
NOTE
 70
0
 62
7
  6
CONTINUOUS
370
-3
390
F
  0
LAYER
  5
215
100
AcDbSymbolTableRecord
100
AcDbLayerTableRecord
  2
PIANI
 70
0
 62
7
  6
CONTINUOUS
370
-3
390
F
  0
LAYER
  5
216
100
AcDbSymbolTableRecord
100
AcDbLayerTableRecord
  2
PIANI_ORIGINE
 70
0
 62
7
  6
CONTINUOUS
370
-3
390
F
  0
LAYER
  5
217
100
AcDbSymbolTableRecord
100
AcDbLayerTableRecord
  2
PIANI_RIFERIMENTO
 70
0
 62
7
  6
CONTINUOUS
370
-3
390
F
  0
LAYER
  5
218
100
AcDbSymbolTableRecord
100
AcDbLayerTableRecord
  2
PIANI_SFORMO
 70
0
 62
7
  6
CONTINUOUS
370
-3
390
F
  0
LAYER
  5
219
100
AcDbSymbolTableRecord
100
AcDbLayerTableRecord
  2
PUNTI
 70
0
 62
7
  6
CONTINUOUS
370
-3
390
F
  0
LAYER
  5
21A
100
AcDbSymbolTableRecord
100
AcDbLayerTableRecord
  2
RACCORDO
 70
0
 62
7
  6
CONTINUOUS
370
-3
390
F
  0
LAYER
  5
21B
100
AcDbSymbolTableRecord
100
AcDbLayerTableRecord
  2
SIMBOLI
 70
0
 62
7
  6
CONTINUOUS
370
-3
390
F
  0
LAYER
  5
21C
100
AcDbSymbolTableRecord
100
AcDbLayerTableRecord
  2
SMUSSO
 70
0
 62
7
  6
CONTINUOUS
370
-3
390
F
  0
LAYER
  5
21D
100
AcDbSymbolTableRecord
100
AcDbLayerTableRecord
  2
SNAPLINE
 70
0
 62
7
  6
CONTINUOUS
370
-3
390
F
  0
LAYER
  5
21E
100
AcDbSymbolTableRecord
100
AcDbLayerTableRecord
  2
SUPERFICI
 70
0
 62
7
  6
CONTINUOUS
370
-3
390
F
  0
LAYER
  5
21F
100
AcDbSymbolTableRecord
100
AcDbLayerTableRecord
  2
TRASH
 70
0
 62
7
  6
CONTINUOUS
370
-3
390
F
  0
LAYER
  5
220
100
AcDbSymbolTableRecord
100
AcDbLayerTableRecord
  2
XSEC_DATUMS
 70
0
 62
7
  6
CONTINUOUS
370
-3
390
F
  0
ENDTAB
  0
TABLE
  2
STYLE
  5
3
100
AcDbSymbolTable
 70
1
  0
STYLE
  5
11
100
AcDbSymbolTableRecord
100
AcDbTextStyleTableRecord
  2
STANDARD
 70
0
 40
0.0
 41
0.8
 50
0.0
 71
0
 42
0.2
  3
txt
  4

  0
STYLE
  5
221
100
AcDbSymbolTableRecord
100
AcDbTextStyleTableRecord
  2
TEXTSTYLE_1
 70
0
 40
0.0
 41
0.8
 50
0.0
 71
0
 42
0.2
  3
gdt
  4

  0
ENDTAB
  0
TABLE
  2
VIEW
  5
6
100
AcDbSymbolTable
 70
0
  0
ENDTAB
  0
TABLE
  2
UCS
  5
7
100
AcDbSymbolTable
 70
0
  0
ENDTAB
  0
TABLE
  2
APPID
  5
9
100
AcDbSymbolTable
 70
1
  0
APPID
  5
222
100
AcDbSymbolTableRecord
100
AcDbRegAppTableRecord
  2
ACAD
 70
0
  0
ENDTAB
  0
TABLE
  2
BLOCK_RECORD
  5
1
100
AcDbSymbolTable
 70
0
  0
BLOCK_RECORD
  5
223
100
AcDbSymbolTableRecord
100
AcDbBlockTableRecord
  2
*Model_Space
  0
BLOCK_RECORD
  5
224
100
AcDbSymbolTableRecord
100
AcDbBlockTableRecord
  2
*Paper_Space
  0
ENDTAB
  0
TABLE
  2
DIMSTYLE
  5
A
100
AcDbSymbolTable
 70
1
100
AcDbDimStyleTable
 71
0
  0
DIMSTYLE
105
225
100
AcDbSymbolTableRecord
100
AcDbDimStyleTableRecord
  2
STANDARD
 70
0
  3

  4

 40
1.0
 41
3.0
 42
0.5
 43
0.38
 44
1.5
 45
0.0
 46
0.0
 47
0.01
 48
0.01
140
3.0
141
0.09
142
0.0
143
25.4
144
1.0
145
0.0
146
1.0
147
0.625
 71
1.0
 72
0.0
 73
0
 74
0
 75
0
 76
0
 77
1
 78
8
170
0
171
2
172
0
173
0
174
0
175
0
176
0
177
0
178
0
270
2
271
2
272
2
273
2
274
2
275
0
280
0
281
0
282
0
283
1
284
8
285
0
286
0
287
3
288
0
340
11
278
44
  0
ENDTAB
  0
ENDSEC
  0
SECTION
  2
BLOCKS
  0
BLOCK
  5
20
100
AcDbEntity
  8
0
100
AcDbBlockBegin
  2
*Model_Space
 70
0
 10
0.0
 20
0.0
 30
0.0
  3
*Model_Space
  1

  0
ENDBLK
  5
21
100
AcDbEntity
  8
0
100
AcDbBlockEnd
  0
BLOCK
  5
1C
100
AcDbEntity
  8
0
100
AcDbBlockBegin
  2
*Paper_Space
 70
0
 10
0.0
 20
0.0
 30
0.0
  3
*Paper_Space
  1

  0
ENDBLK
  5
1D
100
AcDbEntity
  8
0
100
AcDbBlockEnd
  0
ENDSEC
  0
SECTION
  2
ENTITIES
  0
LWPOLYLINE
  5
226
100
AcDbEntity
  8
ASSI
100
AcDbPolyline
 62
7
  6
CONTINUOUS
 90
13
 70
0
 10
-2.2558062737
 20
-5.516244898
 10
-2.2297041469
 20
-5.5145346338
 10
-2.2040489686
 20
-5.5094324574
 10
-2.1792794472
 20
-5.5010254762
 10
-2.1558189903
 20
-5.4894572351
 10
-2.1340691845
 20
-5.4749254479
 10
-2.1144027625
 20
-5.4576788702
 10
-2.0971561847
 20
-5.4380124482
 10
-2.0826243976
 20
-5.4162626423
 10
-2.0710561565
 20
-5.3928021855
 10
-2.0626491752
 20
-5.368032664
 10
-2.0575469989
 20
-5.3423774858
 10
-2.0558367347
 20
-5.3162753589
  0
LWPOLYLINE
  5
227
100
AcDbEntity
  8
ASSI
100
AcDbPolyline
 62
7
  6
CONTINUOUS
 90
13
 70
0
 10
-23.0558671957
 20
-5.516244898
 10
-23.0819693225
 20
-5.5145346338
 10
-23.1076245008
 20
-5.5094324574
 10
-23.1323940222
 20
-5.5010254762
 10
-23.1558544791
 20
-5.4894572351
 10
-23.1776042849
 20
-5.4749254479
 10
-23.1972707069
 20
-5.4576788702
 10
-23.2145172847
 20
-5.4380124482
 10
-23.2290490718
 20
-5.4162626423
 10
-23.2406173129
 20
-5.3928021855
 10
-23.2490242941
 20
-5.368032664
 10
-23.2541264705
 20
-5.3423774858
 10
-23.2558367347
 20
-5.3162753589
  0
LWPOLYLINE
  5
228
100
AcDbEntity
  8
RACCORDO
100
AcDbPolyline
 62
253
  6
CONTINUOUS
 90
13
 70
0
 10
-8.553217423
 20
-4.9188261335
 10
-8.520599782
 20
-4.9166789167
 10
-8.4885394693
 20
-4.9102937309
 10
-8.4575847961
 20
-4.8997795886
 10
-8.4282652284
 20
-4.8853161381
 10
-8.4010822552
 20
-4.8671505641
 10
-8.3765008286
 20
-4.8455933368
 10
-8.3549414643
 20
-4.8210129235
 10
-8.3367731503
 20
-4.7938296605
 10
-8.3223069026
 20
-4.7645085596
 10
-8.3117903137
 20
-4.7335511559
 10
-8.3054033805
 20
-4.7014868873
 10
-8.3032554992
 20
-4.6688642096
  0
LWPOLYLINE
  5
229
100
AcDbEntity
  8
ASSI
100
AcDbPolyline
 62
253
  6
CONTINUOUS
 90
13
 70
0
 10
-20.0689737306
 20
-5.503077441
 10
-20.0428774603
 20
-5.5013593827
 10
-20.0172275388
 20
-5.4962504915
 10
-19.9924626743
 20
-5.4878381508
 10
-19.9690064355
 20
-5.4762662445
 10
-19.9472600103
 20
-5.4617326972
 10
-19.9275953431
 20
-5.44448609
 10
-19.9103487701
 20
-5.4248214069
 10
-19.8958152669
 20
-5.403074987
 10
-19.8842434051
 20
-5.3796187731
 10
-19.8758311031
 20
-5.354853952
 10
-19.8707222395
 20
-5.3292040931
 10
-19.8690041916
 20
-5.303107902
  0
LWPOLYLINE
  5
22A
100
AcDbEntity
  8
RACCORDO
100
AcDbPolyline
 62
253
  6
CONTINUOUS
 90
12
 70
0
 10
-16.4058367347
 20
-4.9188798473
 10
-16.3732078368
 20
-4.9167417376
 10
-16.3411366754
 20
-4.9103638616
 10
-16.3101719598
 20
-4.8998551489
 10
-16.2808435329
 20
-4.8853952247
 10
-16.2536532297
 20
-4.8672313087
 10
-16.2290663078
 20
-4.8456739632
 10
-16.2075035399
 20
-4.8210918002
 10
-16.1893341154
 20
-4.7939053486
 10
-16.1748691898
 20
-4.7645798551
 10
-16.1643564289
 20
-4.7336171243
 10
-16.1579758339
 20
-4.7015468903
  0
LWPOLYLINE
  5
22B
100
AcDbEntity
  8
ASSI
100
AcDbPolyline
 62
253
  6
CONTINUOUS
 90
13
 70
0
 10
-5.2422785938
 20
-4.6440761143
 10
-5.2682367069
 20
-4.645737716
 10
-5.2937555757
 20
-4.6503020068
 10
-5.3184033956
 20
-4.6576917521
 10
-5.3417631026
 20
-4.6677819084
 10
-5.3634394272
 20
-4.6804017378
 10
-5.3830655841
 20
-4.6953376967
 10
-5.400309481
 20
-4.7123370506
 10
-5.4148793389
 20
-4.7311121529
 10
-5.4265286258
 20
-4.7513453111
 10
-5.4350602278
 20
-4.7726941608
 10
-5.4403297845
 20
-4.7947974583
 10
-5.4422481328
 20
-4.8172811951
  0
LWPOLYLINE
  5
22C
100
AcDbEntity
  8
RACCORDO
100
AcDbPolyline
 62
253
  6
CONTINUOUS
 90
7
 70
0
 10
-8.8725191269
 20
-4.9170795424
 10
-8.88241474
 20
-4.9173483379
 10
-8.8907700775
 20
-4.9176365354
 10
-8.8973167815
 20
-4.9179347259
 10
-8.9019653994
 20
-4.9182397732
 10
-8.9048053838
 20
-4.9185548137
 10
-8.9058367347
 20
-4.9188798473
  0
LWPOLYLINE
  5
22D
100
AcDbEntity
  8
RACCORDO
100
AcDbPolyline
 62
253
  6
CONTINUOUS
 90
7
 70
0
 10
-16.7233435321
 20
-4.9170362536
 10
-16.7335063849
 20
-4.9173019938
 10
-16.7421485982
 20
-4.9175876023
 10
-16.7489924439
 20
-4.917883753
 10
-16.7539453457
 20
-4.9181873375
 10
-16.7570998799
 20
-4.9185014643
 10
-16.7584560464
 20
-4.9188261335
  0
LWPOLYLINE
  5
22E
100
AcDbEntity
  8
RACCORDO
100
AcDbPolyline
 62
253
  6
CONTINUOUS
 90
4
 70
0
 10
-16.985497717
 20
-4.6679207057
 10
-16.9976620562
 20
-4.6682243001
 10
-17.0053278553
 20
-4.6685385401
 10
-17.008416024
 20
-4.6688634256
  0
LWPOLYLINE
  5
22F
100
AcDbEntity
  8
RACCORDO
100
AcDbPolyline
 62
253
  6
CONTINUOUS
 90
5
 70
0
 10
-9.1193844119
 20
-4.6676735977
 10
-9.1352001183
 20
-4.6679716713
 10
-9.1466182634
 20
-4.66827673
 10
-9.1535207398
 20
-4.668591885
 10
-9.1558367203
 20
-4.6689171362
  0
LINE
  5
230
100
AcDbEntity
  8
RACCORDO
100
AcDbLine
 62
253
  6
CONTINUOUS
 10
-8.8480085375
 20
-4.9166015402
 11
-8.8725191269
 21
-4.9170795424
  0
LINE
  5
231
100
AcDbEntity
  8
RACCORDO
100
AcDbLine
 62
253
  6
CONTINUOUS
 10
-16.6983587737
 20
-4.9165657909
 11
-16.7233435321
 21
-4.9170362536
  0
LINE
  5
232
100
AcDbEntity
  8
RACCORDO
100
AcDbLine
 62
253
  6
CONTINUOUS
 10
-16.9482282498
 20
-4.6673392876
 11
-16.985497717
 21
-4.6679207057
  0
LINE
  5
233
100
AcDbEntity
  8
RACCORDO
100
AcDbLine
 62
253
  6
CONTINUOUS
 10
-8.818548802
 20
-4.9162240149
 11
-8.8480085375
 21
-4.9166015402
  0
LINE
  5
234
100
AcDbEntity
  8
RACCORDO
100
AcDbLine
 62
253
  6
CONTINUOUS
 10
-9.07528718
 20
-4.6671170728
 11
-9.1193844119
 21
-4.6676735977
  0
LINE
  5
235
100
AcDbEntity
  8
RACCORDO
100
AcDbLine
 62
253
  6
CONTINUOUS
 10
-16.668526087
 20
-4.9161972974
 11
-16.6983587737
 21
-4.9165657909
  0
LINE
  5
236
100
AcDbEntity
  8
RACCORDO
100
AcDbLine
 62
253
  6
CONTINUOUS
 10
-16.8633452184
 20
-4.6666039158
 11
-16.9482282498
 21
-4.6673392876
  0
LINE
  5
237
100
AcDbEntity
  8
RACCORDO
100
AcDbLine
 62
253
  6
CONTINUOUS
 10
-8.9819001055
 20
-4.6664373416
 11
-9.07528718
 21
-4.6671170728
  0
LINE
  5
238
100
AcDbEntity
  8
RACCORDO
100
AcDbLine
 62
253
  6
CONTINUOUS
 10
-8.7674315994
 20
-4.9158747562
 11
-8.818548802
 21
-4.9162240149
  0
LINE
  5
239
100
AcDbEntity
  8
RACCORDO
100
AcDbLine
 62
253
  6
CONTINUOUS
 10
-16.6170674981
 20
-4.9158636633
 11
-16.668526087
 21
-4.9161972974
  0
LINE
  5
23A
100
AcDbEntity
  8
RACCORDO
100
AcDbLine
 62
253
  6
CONTINUOUS
 10
-16.7096461002
 20
-4.6659811468
 11
-16.8633452184
 21
-4.6666039158
  0
LINE
  5
23B
100
AcDbEntity
  8
RACCORDO
100
AcDbLine
 62
253
  6
CONTINUOUS
 10
-8.77752718
 20
-4.6658604232
 11
-8.9819001055
 21
-4.6664373416
  0
LINE
  5
23C
100
AcDbEntity
  8
ASSI
100
AcDbLine
 62
7
  6
CONTINUOUS
 10
-2.2558062737
 20
-5.516244898
 11
-5.2558671957
 21
-5.516244898
  0
LINE
  5
23D
100
AcDbEntity
  8
ASSI
100
AcDbLine
 62
7
  6
CONTINUOUS
 10
-20.0558062737
 20
-5.516244898
 11
-23.0558671957
 21
-5.516244898
  0
LINE
  5
23E
100
AcDbEntity
  8
ASSI
100
AcDbLine
 62
253
  6
CONTINUOUS
 10
-23.0426997387
 20
-5.503077441
 11
-20.0689737306
 21
-5.503077441
  0
LINE
  5
23F
100
AcDbEntity
  8
ASSI
100
AcDbLine
 62
253
  6
CONTINUOUS
 10
-5.2426997387
 20
-5.503077441
 11
-2.2689737306
 21
-5.503077441
  0
LINE
  5
240
100
AcDbEntity
  8
ASSI
100
AcDbLine
 62
253
  6
CONTINUOUS
 10
-23.2418117562
 20
-5.2531155173
 11
-19.8698617132
 21
-5.2531155173
  0
LINE
  5
241
100
AcDbEntity
  8
ASSI
100
AcDbLine
 62
253
  6
CONTINUOUS
 10
-2.0698617132
 20
-5.2531155173
 11
-5.4418117562
 21
-5.2531155173
  0
LINE
  5
242
100
AcDbEntity
  8
RACCORDO
100
AcDbLine
 62
7
  6
CONTINUOUS
 10
-8.4557986585
 20
-5.016244898
 11
-11.6058748109
 21
-5.016244898
  0
LINE
  5
243
100
AcDbEntity
  8
RACCORDO
100
AcDbLine
 62
7
  6
CONTINUOUS
 10
-13.7057986585
 20
-5.016244898
 11
-16.8558748109
 21
-5.016244898
  0
LINE
  5
244
100
AcDbEntity
  8
RACCORDO
100
AcDbLine
 62
7
  6
CONTINUOUS
 10
-8.9058367347
 20
-4.998789833
 11
-11.588419746
 21
-4.998789833
  0
LINE
  5
245
100
AcDbEntity
  8
RACCORDO
100
AcDbLine
 62
7
  6
CONTINUOUS
 10
-13.7232537234
 20
-4.998789833
 11
-16.4058367347
 21
-4.998789833
  0
LINE
  5
246
100
AcDbEntity
  8
ASSI
100
AcDbLine
 62
253
  6
CONTINUOUS
 10
-21.4189661154
 20
-4.8605824653
 11
-19.8698617132
 21
-4.8605824653
  0
LINE
  5
247
100
AcDbEntity
  8
ASSI
100
AcDbLine
 62
253
  6
CONTINUOUS
 10
-2.0698617132
 20
-4.8605824653
 11
-3.6189661154
 21
-4.8605824653
  0
LINE
  5
248
100
AcDbEntity
  8
ASSI
100
AcDbLine
 62
253
  6
CONTINUOUS
 10
-3.892707354
 20
-4.8605824653
 11
-5.4418117562
 21
-4.8605824653
  0
LINE
  5
249
100
AcDbEntity
  8
ASSI
100
AcDbLine
 62
253
  6
CONTINUOUS
 10
-23.2418117562
 20
-4.8605824653
 11
-21.692707354
 21
-4.8605824653
  0
LINE
  5
24A
100
AcDbEntity
  8
ASSI
100
AcDbLine
 62
253
  6
CONTINUOUS
 10
-2.2693948363
 20
-4.6440748123
 11
-3.4024597645
 21
-4.6440761143
  0
LINE
  5
24B
100
AcDbEntity
  8
ASSI
100
AcDbLine
 62
253
  6
CONTINUOUS
 10
-4.1092137049
 20
-4.6440761143
 11
-5.2422785938
 21
-4.6440761143
  0
LINE
  5
24C
100
AcDbEntity
  8
ASSI
100
AcDbLine
 62
253
  6
CONTINUOUS
 10
-20.0693948756
 20
-4.6440761143
 11
-21.2024597645
 21
-4.6440761143
  0
LINE
  5
24D
100
AcDbEntity
  8
ASSI
100
AcDbLine
 62
253
  6
CONTINUOUS
 10
-21.9092137049
 20
-4.6440761143
 11
-23.0422785938
 21
-4.6440761143
  0
LINE
  5
24E
100
AcDbEntity
  8
ASSI
100
AcDbLine
 62
7
  6
CONTINUOUS
 10
-2.2541216938
 20
-4.1388946288
 11
-3.3558367347
 21
-4.1388946288
  0
LINE
  5
24F
100
AcDbEntity
  8
ASSI
100
AcDbLine
 62
7
  6
CONTINUOUS
 10
-4.1558367347
 20
-4.1388946288
 11
-5.2575517756
 21
-4.1388946288
  0
LINE
  5
250
100
AcDbEntity
  8
ASSI
100
AcDbLine
 62
7
  6
CONTINUOUS
 10
-20.0541216938
 20
-4.1388946288
 11
-21.1558367347
 21
-4.1388946288
  0
LINE
  5
251
100
AcDbEntity
  8
ASSI
100
AcDbLine
 62
7
  6
CONTINUOUS
 10
-21.9558367347
 20
-4.1388946288
 11
-23.0575517756
 21
-4.1388946288
  0
LINE
  5
252
100
AcDbEntity
  8
RACCORDO
100
AcDbLine
 62
253
  6
CONTINUOUS
 10
-8.712640486
 20
-4.9158168651
 11
-8.7674315994
 21
-4.9158747562
  0
LINE
  5
253
100
AcDbEntity
  8
RACCORDO
100
AcDbLine
 62
253
  6
CONTINUOUS
 10
-16.5622268536
 20
-4.9158224714
 11
-16.6170674981
 21
-4.9158636633
  0
LINE
  5
254
100
AcDbEntity
  8
RACCORDO
100
AcDbLine
 62
253
  6
CONTINUOUS
 10
-16.4903714531
 20
-4.665913546
 11
-16.7096461002
 21
-4.6659811468
  0
LINE
  5
255
100
AcDbEntity
  8
RACCORDO
100
AcDbLine
 62
253
  6
CONTINUOUS
 10
-8.5604290186
 20
-4.6660930471
 11
-8.77752718
 21
-4.6658604232
  0
LINE
  5
256
100
AcDbEntity
  8
RACCORDO
100
AcDbLine
 62
253
  6
CONTINUOUS
 10
-16.2954241118
 20
-4.6666402669
 11
-16.4903714531
 21
-4.665913546
  0
LINE
  5
257
100
AcDbEntity
  8
RACCORDO
100
AcDbLine
 62
253
  6
CONTINUOUS
 10
-8.6594866046
 20
-4.9160559303
 11
-8.712640486
 21
-4.9158168651
  0
LINE
  5
258
100
AcDbEntity
  8
RACCORDO
100
AcDbLine
 62
253
  6
CONTINUOUS
 10
-16.5093200743
 20
-4.916077692
 11
-16.5622268536
 21
-4.9158224714
  0
LINE
  5
259
100
AcDbEntity
  8
RACCORDO
100
AcDbLine
 62
253
  6
CONTINUOUS
 10
-8.4165401617
 20
-4.6668296196
 11
-8.5604290186
 21
-4.6660930471
  0
LINE
  5
25A
100
AcDbEntity
  8
RACCORDO
100
AcDbLine
 62
253
  6
CONTINUOUS
 10
-8.3634464804
 20
-4.6673399307
 11
-8.4165401617
 21
-4.6668296196
  0
LINE
  5
25B
100
AcDbEntity
  8
RACCORDO
100
AcDbLine
 62
253
  6
CONTINUOUS
 10
-8.6274540834
 20
-4.9163701951
 11
-8.6594866046
 21
-4.9160559303
  0
LINE
  5
25C
100
AcDbEntity
  8
RACCORDO
100
AcDbLine
 62
253
  6
CONTINUOUS
 10
-16.4776066148
 20
-4.9164016669
 11
-16.5093200743
 21
-4.916077692
  0
LWPOLYLINE
  5
25D
100
AcDbEntity
  8
ASSI
100
AcDbPolyline
 62
253
  6
CONTINUOUS
 90
13
 70
0
 10
-20.0693948756
 20
-4.6440761143
 10
-20.043436804
 20
-4.6457377109
 10
-20.0179179681
 20
-4.6503019891
 10
-19.9932701712
 20
-4.6576917167
 10
-19.9699104778
 20
-4.6677818524
 10
-19.9482341566
 20
-4.6804016615
 10
-19.9286079918
 20
-4.6953376045
 10
-19.9113640771
 20
-4.7123369509
 10
-19.8967941961
 20
-4.7311120553
 10
-19.8851448854
 20
-4.7513452248
 10
-19.8766132626
 20
-4.7726940946
 10
-19.8713436909
 20
-4.7947974213
 10
-19.8694253366
 20
-4.8172811951
  0
LWPOLYLINE
  5
25E
100
AcDbEntity
  8
RACCORDO
100
AcDbPolyline
 62
7
  6
CONTINUOUS
 90
13
 70
0
 10
-8.9058367347
 20
-4.9188798473
 10
-8.9384682827
 20
-4.9167413884
 10
-8.9705414958
 20
-4.9103626013
 10
-9.0015075926
 20
-4.8998526288
 10
-9.0308367344
 20
-4.8853912996
 10
-9.0580270916
 20
-4.8672260509
 10
-9.0826134296
 20
-4.8456676951
 10
-9.1041750694
 20
-4.8210851018
 10
-9.1223430853
 20
-4.7938988857
 10
-9.1368066176
 20
-4.7645742108
 10
-9.1473181912
 20
-4.7336128302
 10
-9.15369795
 20
-4.7015445018
 10
-9.1558367347
 20
-4.6689179235
  0
LWPOLYLINE
  5
25F
100
AcDbEntity
  8
RACCORDO
100
AcDbPolyline
 62
253
  6
CONTINUOUS
 90
13
 70
0
 10
-16.7584560464
 20
-4.9188261335
 10
-16.7910763356
 20
-4.9166785669
 10
-16.8231386988
 20
-4.9102924699
 10
-16.8540947524
 20
-4.899777068
 10
-16.8834150348
 20
-4.885312213
 10
-16.9105980622
 20
-4.8671453068
 10
-16.9351789056
 20
-4.8455870697
 10
-16.9567371428
 20
-4.8210062263
 10
-16.9749040492
 20
-4.7938231988
 10
-16.9893689043
 20
-4.7645029162
 10
-16.9998843064
 20
-4.7335468625
 10
-17.0062704035
 20
-4.7014844991
 10
-17.0084179702
 20
-4.6688642097
  0
LWPOLYLINE
  5
260
100
AcDbEntity
  8
ASSI
100
AcDbPolyline
 62
253
  6
CONTINUOUS
 90
13
 70
0
 10
-5.2426997387
 20
-5.503077441
 10
-5.2687959702
 20
-5.5013593878
 10
-5.2944458608
 20
-5.4962505102
 10
-5.3192107037
 20
-5.4878381886
 10
-5.3426669298
 20
-5.4762663046
 10
-5.3644133518
 20
-5.4617327795
 10
-5.3840780265
 20
-5.4444861898
 10
-5.4013246162
 20
-5.424821515
 10
-5.4158581413
 20
-5.403075093
 10
-5.4274300254
 20
-5.379618867
 10
-5.4358423469
 20
-5.354854024
 10
-5.4409512245
 20
-5.3292041335
 10
-5.4426692778
 20
-5.303107902
  0
LWPOLYLINE
  5
261
100
AcDbEntity
  8
RACCORDO
100
AcDbPolyline
 62
253
  6
CONTINUOUS
 90
7
 70
0
 10
-16.1558367347
 20
-4.6689179235
 10
-16.1581462917
 20
-4.6685924427
 10
-16.1650499808
 20
-4.6682771482
 10
-16.1764730635
 20
-4.6679720398
 10
-16.1922918652
 20
-4.6676740605
 10
-16.2123350291
 20
-4.6673862674
 10
-16.2954241118
 20
-4.6666402669
  0
LWPOLYLINE
  5
262
100
AcDbEntity
  8
RACCORDO
100
AcDbPolyline
 62
253
  6
CONTINUOUS
 90
9
 70
0
 10
-16.4058367347
 20
-4.9188798473
 10
-16.4068438622
 20
-4.918556624
 10
-16.4096596697
 20
-4.9182429082
 10
-16.4142841572
 20
-4.9179387001
 10
-16.4208064635
 20
-4.9176407196
 10
-16.4291374498
 20
-4.9173522467
 10
-16.4390096998
 20
-4.917083121
 10
-16.4504723529
 20
-4.916834172
 10
-16.4776066148
 20
-4.9164016669
  0
LWPOLYLINE
  5
263
100
AcDbEntity
  8
ASSI
100
AcDbPolyline
 62
7
  6
CONTINUOUS
 90
10
 70
0
 10
-21.9092137049
 20
-4.6440761143
 10
-21.8899008381
 20
-4.6623687968
 10
-21.8691780511
 20
-4.6833104567
 10
-21.8470453437
 20
-4.7062444755
 10
-21.8232039539
 20
-4.7303826496
 10
-21.7979526437
 20
-4.7553103591
 10
-21.7721877
 20
-4.7811021192
 10
-21.7462078849
 20
-4.8075735304
 10
-21.7197144363
 20
-4.8341787607
 10
-21.692707354
 20
-4.8605824653
  0
LWPOLYLINE
  5
264
100
AcDbEntity
  8
ASSI
100
AcDbPolyline
 62
7
  6
CONTINUOUS
 90
10
 70
0
 10
-21.9092137049
 20
42.6115863184
 10
-21.8909210224
 20
42.6308991852
 10
-21.8699793626
 20
42.6516219723
 10
-21.8470453437
 20
42.6737546796
 10
-21.8229071696
 20
42.6975960695
 10
-21.7979794601
 20
42.7228473796
 10
-21.7721877
 20
42.7486123233
 10
-21.7457162889
 20
42.7745921384
 10
-21.7191110586
 20
42.8010855871
 10
-21.692707354
 20
42.8280926693
  0
LINE
  5
265
100
AcDbEntity
  8
ASSI
100
AcDbLine
 62
253
  6
CONTINUOUS
 10
-20.0689737306
 20
43.4705876451
 11
-20.0558062737
 21
43.483755102
  0
LINE
  5
266
100
AcDbEntity
  8
ASSI
100
AcDbLine
 62
253
  6
CONTINUOUS
 10
-19.8690041916
 20
43.2706181061
 11
-19.8558367347
 21
43.283785563
  0
LINE
  5
267
100
AcDbEntity
  8
ASSI
100
AcDbLine
 62
7
  6
CONTINUOUS
 10
-21.1558367347
 20
41.383755102
 11
-21.1690041916
 21
41.3705876451
  0
LINE
  5
268
100
AcDbEntity
  8
ASSI
100
AcDbLine
 62
7
  6
CONTINUOUS
 10
-20.7138310205
 20
39.9710237799
 11
-20.8883816698
 21
39.883755102
  0
LINE
  5
269
100
AcDbEntity
  8
ASSI
100
AcDbLine
 62
7
  6
CONTINUOUS
 10
-20.7143023375
 20
40.4398645427
 11
-20.8883816698
 21
40.3888685122
  0
LINE
  5
26A
100
AcDbEntity
  8
ASSI
100
AcDbLine
 62
7
  6
CONTINUOUS
 10
-11.8383816698
 20
-3.4144995669
 11
-11.8558367347
 21
-3.416244898
  0
LINE
  5
26B
100
AcDbEntity
  8
ASSI
100
AcDbLine
 62
7
  6
CONTINUOUS
 10
-2.0558367347
 20
-3.416244898
 11
-3.3558367347
 21
-3.416244898
  0
LINE
  5
26C
100
AcDbEntity
  8
ASSI
100
AcDbLine
 62
7
  6
CONTINUOUS
 10
-4.1558367347
 20
-3.416244898
 11
-8.2058367347
 21
-3.416244898
  0
LINE
  5
26D
100
AcDbEntity
  8
ASSI
100
AcDbLine
 62
7
  6
CONTINUOUS
 10
-17.1058367347
 20
-3.416244898
 11
-21.1558367347
 21
-3.416244898
  0
LINE
  5
26E
100
AcDbEntity
  8
ASSI
100
AcDbLine
 62
7
  6
CONTINUOUS
 10
-21.9558367347
 20
-3.416244898
 11
-23.2558367993
 21
-3.4162448334
  0
LINE
  5
26F
100
AcDbEntity
  8
ASSI
100
AcDbLine
 62
7
  6
CONTINUOUS
 10
-11.8383816698
 20
-3.4144995669
 11
-13.4732917996
 21
-3.4144995669
  0
LINE
  5
270
100
AcDbEntity
  8
ASSI
100
AcDbLine
 62
7
  6
CONTINUOUS
 10
-23.2384578222
 20
-3.398789833
 11
-21.692707354
 21
-3.398789833
  0
LINE
  5
271
100
AcDbEntity
  8
ASSI
100
AcDbLine
 62
7
  6
CONTINUOUS
 10
-21.4189661154
 20
-3.398789833
 11
-19.9109501448
 21
-3.398789833
  0
LINE
  5
272
100
AcDbEntity
  8
ASSI
100
AcDbLine
 62
7
  6
CONTINUOUS
 10
-5.4007233246
 20
-3.398789833
 11
-3.892707354
 21
-3.398789833
  0
LINE
  5
273
100
AcDbEntity
  8
ASSI
100
AcDbLine
 62
7
  6
CONTINUOUS
 10
-3.6189661154
 20
-3.398789833
 11
-2.0732156472
 21
-3.398789833
  0
LINE
  5
274
100
AcDbEntity
  8
ASSI
100
AcDbLine
 62
253
  6
CONTINUOUS
 10
-19.9570600774
 20
-3.2413896158
 11
-15.7307127283
 21
-3.2413896158
  0
LINE
  5
275
100
AcDbEntity
  8
ASSI
100
AcDbLine
 62
253
  6
CONTINUOUS
 10
-9.5809607411
 20
-3.2413896158
 11
-5.354613392
 21
-3.2413896158
  0
LINE
  5
276
100
AcDbEntity
  8
ASSI
100
AcDbLine
 62
7
  6
CONTINUOUS
 10
-9.5901271763
 20
-2.716244898
 11
-15.7215462931
 21
-2.716244898
  0
LINE
  5
277
100
AcDbEntity
  8
ASSI
100
AcDbLine
 62
7
  6
CONTINUOUS
 10
-13.4732917996
 20
-3.4144995669
 11
-13.4558367347
 21
-3.416244898
  0
LWPOLYLINE
  5
278
100
AcDbEntity
  8
RACCORDO
100
AcDbPolyline
 62
253
  6
CONTINUOUS
 90
5
 70
0
 10
-8.3032554992
 20
-4.6688642097
 10
-8.3063381121
 20
-4.6685390962
 10
-8.3140057655
 20
-4.6682247174
 10
-8.3261754499
 20
-4.6679210732
 10
-8.3634464804
 20
-4.6673399307
  0
LWPOLYLINE
  5
279
100
AcDbEntity
  8
RACCORDO
100
AcDbPolyline
 62
253
  6
CONTINUOUS
 90
9
 70
0
 10
-8.553217423
 20
-4.9188261335
 10
-8.5545475622
 20
-4.9185032669
 10
-8.5576765989
 20
-4.9181904572
 10
-8.562604533
 20
-4.9178877045
 10
-8.5694237684
 20
-4.9175917565
 10
-8.5780419013
 20
-4.9173058654
 10
-8.5881817203
 20
-4.917039788
 10
-8.5998915306
 20
-4.9167943688
 10
-8.6274540834
 20
-4.9163701951
  0
LINE
  5
27A
100
AcDbEntity
  8
ASSI
100
AcDbLine
 62
7
  6
CONTINUOUS
 10
-20.7143023375
 20
-2.4723543386
 11
-20.8883816698
 21
-2.4213583081
  0
LINE
  5
27B
100
AcDbEntity
  8
ASSI
100
AcDbLine
 62
7
  6
CONTINUOUS
 10
-20.7138310205
 20
-2.0035135759
 11
-20.8883816698
 21
-1.916244898
  0
LINE
  5
27C
100
AcDbEntity
  8
ASSI
100
AcDbLine
 62
253
  6
CONTINUOUS
 10
-20.0558062737
 20
-5.516244898
 11
-20.0689737306
 21
-5.503077441
  0
LINE
  5
27D
100
AcDbEntity
  8
ASSI
100
AcDbLine
 62
253
  6
CONTINUOUS
 10
-19.8558367347
 20
-5.3162753589
 11
-19.8690041916
 21
-5.303107902
  0
LINE
  5
27E
100
AcDbEntity
  8
ASSI
100
AcDbLine
 62
7
  6
CONTINUOUS
 10
-21.1558367347
 20
-3.416244898
 11
-21.1690041916
 21
-3.403077441
  0
LINE
  5
27F
100
AcDbEntity
  8
0
100
AcDbLine
 62
7
  6
CONTINUOUS
 10
-21.4558367347
 20
39.833755102
 11
-23.2201395152
 21
38.0694523216
  0
LINE
  5
280
100
AcDbEntity
  8
RACCORDO
100
AcDbLine
 62
7
  6
CONTINUOUS
 10
-21.4558367347
 20
39.833755102
 11
-23.2201395152
 21
38.0694523216
  0
LINE
  5
281
100
AcDbEntity
  8
ASSI
100
AcDbLine
 62
7
  6
CONTINUOUS
 10
-20.8883816698
 20
40.3888685122
 11
-19.9109501448
 21
41.3663000371
  0
LINE
  5
282
100
AcDbEntity
  8
0
100
AcDbLine
 62
7
  6
CONTINUOUS
 10
-21.2830404078
 20
39.833755102
 11
-23.0979540607
 21
38.0188414492
  0
LINE
  5
283
100
AcDbEntity
  8
RACCORDO
100
AcDbLine
 62
7
  6
CONTINUOUS
 10
-21.2830404078
 20
39.833755102
 11
-23.0979540607
 21
38.0188414492
  0
LINE
  5
284
100
AcDbEntity
  8
RACCORDO
100
AcDbLine
 62
7
  6
CONTINUOUS
 10
-23.37604497
 20
37.6820593489
 11
-22.7541409815
 21
38.3039633374
  0
LINE
  5
285
100
AcDbEntity
  8
ASSI
100
AcDbLine
 62
7
  6
CONTINUOUS
 10
-23.37604497
 20
37.6820593489
 11
-22.7541409815
 21
38.3039633374
  0
LINE
  5
286
100
AcDbEntity
  8
RACCORDO
100
AcDbLine
 62
7
  6
CONTINUOUS
 10
-22.6461484075
 20
38.3971458672
 11
-22.4569211224
 21
38.5863730456
  0
LINE
  5
287
100
AcDbEntity
  8
ASSI
100
AcDbLine
 62
7
  6
CONTINUOUS
 10
-22.6461484075
 20
38.3971458672
 11
-22.4569211224
 21
38.5863730456
  0
LINE
  5
288
100
AcDbEntity
  8
ASSI
100
AcDbLine
 62
7
  6
CONTINUOUS
 10
-19.9558367347
 20
39.883755102
 11
-19.8685680568
 21
39.9710237799
  0
LINE
  5
289
100
AcDbEntity
  8
0
100
AcDbLine
 62
7
  6
CONTINUOUS
 10
-17.9558367347
 20
38.983755102
 11
-17.7812860854
 21
39.0710237799
  0
LWPOLYLINE
  5
28A
100
AcDbEntity
  8
0
100
AcDbPolyline
 62
7
  6
CONTINUOUS
 90
12
 70
0
 10
-14.2802331961
 20
-0.9008737144
 10
-14.3981050242
 20
-0.9012541885
 10
-14.510976454
 20
-0.9018729998
 10
-14.6203322365
 20
-0.9027449644
 10
-14.7246876206
 20
-0.9038552662
 10
-14.819588353
 20
-0.905159457
 10
-14.9046564373
 20
-0.9066694791
 10
-14.9802698698
 20
-0.9083733901
 10
-15.0431083858
 20
-0.910190915
 10
-15.0920652305
 20
-0.9120952954
 10
-15.1282471586
 20
-0.9141132897
 10
-15.1516541702
 20
-0.916244898
  0
LINE
  5
28B
100
AcDbEntity
  8
ASSI
100
AcDbLine
 62
253
  6
CONTINUOUS
 10
-20.7138310205
 20
-2.2415419206
 11
-15.7132603218
 21
-2.2415419206
  0
LINE
  5
28C
100
AcDbEntity
  8
ASSI
100
AcDbLine
 62
253
  6
CONTINUOUS
 10
-9.5984131475
 20
-2.2415419206
 11
-4.5978424489
 21
-2.2415419206
  0
LINE
  5
28D
100
AcDbEntity
  8
ASSI
100
AcDbLine
 62
7
  6
CONTINUOUS
 10
-19.2431054126
 20
-2.0907955472
 11
-17.7812860854
 21
-2.0907955472
  0
LINE
  5
28E
100
AcDbEntity
  8
ASSI
100
AcDbLine
 62
7
  6
CONTINUOUS
 10
-7.530387384
 20
-2.0907955472
 11
-6.0685680568
 21
-2.0907955472
  0
LINE
  5
28F
100
AcDbEntity
  8
ASSI
100
AcDbLine
 62
7
  6
CONTINUOUS
 10
-4.5978424489
 20
-2.0035135759
 11
-5.4431054126
 21
-2.0035135759
  0
LINE
  5
290
100
AcDbEntity
  8
ASSI
100
AcDbLine
 62
7
  6
CONTINUOUS
 10
-19.8685680568
 20
-2.0035135759
 11
-20.7138310205
 21
-2.0035135759
  0
LINE
  5
291
100
AcDbEntity
  8
0
100
AcDbLine
 62
7
  6
CONTINUOUS
 10
-19.1558367347
 20
-1.916244898
 11
-17.9558367347
 21
-1.916244898
  0
LINE
  5
292
100
AcDbEntity
  8
0
100
AcDbLine
 62
7
  6
CONTINUOUS
 10
-7.3558367347
 20
-1.916244898
 11
-6.1558367347
 21
-1.916244898
  0
LINE
  5
293
100
AcDbEntity
  8
ASSI
100
AcDbLine
 62
7
  6
CONTINUOUS
 10
-4.4232917996
 20
-1.916244898
 11
-5.3558367347
 21
-1.916244898
  0
LINE
  5
294
100
AcDbEntity
  8
ASSI
100
AcDbLine
 62
7
  6
CONTINUOUS
 10
-19.9558367347
 20
-1.916244898
 11
-20.8883816698
 21
-1.916244898
  0
LINE
  5
295
100
AcDbEntity
  8
0
100
AcDbLine
 62
7
  6
CONTINUOUS
 10
-3.8558367347
 20
-1.866244898
 11
-5.2558367347
 21
-1.866244898
  0
LINE
  5
296
100
AcDbEntity
  8
DRAFT
100
AcDbLine
 62
7
  6
CONTINUOUS
 10
-3.8558367347
 20
-1.866244898
 11
-5.2558367347
 21
-1.866244898
  0
LINE
  5
297
100
AcDbEntity
  8
0
100
AcDbLine
 62
7
  6
CONTINUOUS
 10
-20.0558367347
 20
-1.866244898
 11
-21.4558367347
 21
-1.866244898
  0
LINE
  5
298
100
AcDbEntity
  8
DRAFT
100
AcDbLine
 62
7
  6
CONTINUOUS
 10
-20.0558367347
 20
-1.866244898
 11
-21.4558367347
 21
-1.866244898
  0
LINE
  5
299
100
AcDbEntity
  8
ASSI
100
AcDbLine
 62
7
  6
CONTINUOUS
 10
-9.6058367347
 20
-1.816244898
 11
-15.7058367347
 21
-1.816244898
  0
LINE
  5
29A
100
AcDbEntity
  8
ASSI
100
AcDbLine
 62
7
  6
CONTINUOUS
 10
-17.7812860854
 20
-1.1035135759
 11
-7.530387384
 21
-1.1035135759
  0
LINE
  5
29B
100
AcDbEntity
  8
RACCORDO
100
AcDbLine
 62
7
  6
CONTINUOUS
 10
-10.1558367347
 20
-1.0694787915
 11
-10.2145256115
 21
-1.0694787915
  0
LINE
  5
29C
100
AcDbEntity
  8
RACCORDO
100
AcDbLine
 62
7
  6
CONTINUOUS
 10
-15.0971478578
 20
-1.0694787915
 11
-15.1558367347
 21
-1.0694787915
  0
LINE
  5
29D
100
AcDbEntity
  8
DRAFT
100
AcDbLine
 62
7
  6
CONTINUOUS
 10
-20.0558367347
 20
-1.016244898
 11
-19.9558367347
 21
-1.016244898
  0
LINE
  5
29E
100
AcDbEntity
  8
0
100
AcDbLine
 62
7
  6
CONTINUOUS
 10
-17.9558367347
 20
-1.016244898
 11
-15.1551889158
 21
-1.016244898
  0
LINE
  5
29F
100
AcDbEntity
  8
0
100
AcDbLine
 62
7
  6
CONTINUOUS
 10
-10.1564845536
 20
-1.016244898
 11
-7.3558367347
 21
-1.016244898
  0
LINE
  5
2A0
100
AcDbEntity
  8
DRAFT
100
AcDbLine
 62
7
  6
CONTINUOUS
 10
-5.3558367347
 20
-1.016244898
 11
-5.2558367347
 21
-1.016244898
  0
LINE
  5
2A1
100
AcDbEntity
  8
0
100
AcDbLine
 62
7
  6
CONTINUOUS
 10
-16.1558367347
 20
-0.916244898
 11
-15.1503150149
 21
-0.916244898
  0
LINE
  5
2A2
100
AcDbEntity
  8
0
100
AcDbLine
 62
7
  6
CONTINUOUS
 10
-10.1613584545
 20
-0.916244898
 11
-9.1558367347
 21
-0.916244898
  0
LINE
  5
2A3
100
AcDbEntity
  8
0
100
AcDbLine
 62
7
  6
CONTINUOUS
 10
-14.2802331961
 20
-0.9008737144
 11
-11.1543124998
 21
-0.9007315776
  0
LINE
  5
2A4
100
AcDbEntity
  8
0
100
AcDbLine
 62
7
  6
CONTINUOUS
 10
-16.1191810983
 20
-0.8795892616
 11
-9.192492371
 21
-0.8795892616
  0
LINE
  5
2A5
100
AcDbEntity
  8
DRAFT
100
AcDbLine
 62
7
  6
CONTINUOUS
 10
-16.1191810983
 20
-0.8795892616
 11
-9.192492371
 21
-0.8795892616
  0
LINE
  5
2A6
100
AcDbEntity
  8
ASSI
100
AcDbLine
 62
7
  6
CONTINUOUS
 10
-5.4431054126
 20
-0.8035135759
 11
-6.0685680568
 21
-0.8035135759
  0
LINE
  5
2A7
100
AcDbEntity
  8
ASSI
100
AcDbLine
 62
7
  6
CONTINUOUS
 10
-19.2431054126
 20
-0.8035135759
 11
-19.8685680568
 21
-0.8035135759
  0
LINE
  5
2A8
100
AcDbEntity
  8
0
100
AcDbLine
 62
7
  6
CONTINUOUS
 10
-20.0558367347
 20
-0.716244898
 11
-16.1558367347
 21
-0.716244898
  0
LINE
  5
2A9
100
AcDbEntity
  8
DRAFT
100
AcDbLine
 62
7
  6
CONTINUOUS
 10
-20.0558367347
 20
-0.716244898
 11
-16.1558367347
 21
-0.716244898
  0
LINE
  5
2AA
100
AcDbEntity
  8
0
100
AcDbLine
 62
7
  6
CONTINUOUS
 10
-9.1558367347
 20
-0.716244898
 11
-5.2558367347
 21
-0.716244898
  0
LINE
  5
2AB
100
AcDbEntity
  8
DRAFT
100
AcDbLine
 62
7
  6
CONTINUOUS
 10
-9.1558367347
 20
-0.716244898
 11
-5.2558367347
 21
-0.716244898
  0
LINE
  5
2AC
100
AcDbEntity
  8
0
100
AcDbLine
 62
7
  6
CONTINUOUS
 10
-20.092492371
 20
-0.6795892616
 11
-16.1191810983
 21
-0.6795892616
  0
LINE
  5
2AD
100
AcDbEntity
  8
DRAFT
100
AcDbLine
 62
7
  6
CONTINUOUS
 10
-20.092492371
 20
-0.6795892616
 11
-16.1191810983
 21
-0.6795892616
  0
LINE
  5
2AE
100
AcDbEntity
  8
0
100
AcDbLine
 62
7
  6
CONTINUOUS
 10
-9.192492371
 20
-0.6795892616
 11
-5.2191810983
 21
-0.6795892616
  0
LINE
  5
2AF
100
AcDbEntity
  8
DRAFT
100
AcDbLine
 62
7
  6
CONTINUOUS
 10
-9.192492371
 20
-0.6795892616
 11
-5.2191810983
 21
-0.6795892616
  0
LINE
  5
2B0
100
AcDbEntity
  8
RACCORDO
100
AcDbLine
 62
7
  6
CONTINUOUS
 10
-22.0470611248
 20
-0.6293351996
 11
-8.9427350099
 21
-0.6293351996
  0
LINE
  5
2B1
100
AcDbEntity
  8
ASSI
100
AcDbLine
 62
7
  6
CONTINUOUS
 10
-22.0470611248
 20
-0.6293351996
 11
-8.9427350099
 21
-0.6293351996
  0
LWPOLYLINE
  5
2B2
100
AcDbEntity
  8
0
100
AcDbPolyline
 62
7
  6
CONTINUOUS
 90
13
 70
0
 10
-11.1543124998
 20
-0.9007315776
 10
-11.0314402733
 20
-0.9008737144
 10
-10.9135684451
 20
-0.9012541885
 10
-10.8006970154
 20
-0.9018729998
 10
-10.6913412329
 20
-0.9027449644
 10
-10.5869858488
 20
-0.9038552662
 10
-10.4920851164
 20
-0.905159457
 10
-10.4070170321
 20
-0.9066694791
 10
-10.3314035996
 20
-0.9083733901
 10
-10.2685650836
 20
-0.910190915
 10
-10.2196082389
 20
-0.9120952954
 10
-10.1834263108
 20
-0.9141132897
 10
-10.1600192992
 20
-0.916244898
  0
LINE
  5
2B3
100
AcDbEntity
  8
0
100
AcDbLine
 62
7
  6
CONTINUOUS
 10
-17.9558367347
 20
-1.016244898
 11
-17.7812860854
 21
-1.1035135759
  0
LINE
  5
2B4
100
AcDbEntity
  8
0
100
AcDbLine
 62
7
  6
CONTINUOUS
 10
-23.2201395152
 20
-0.1019421175
 11
-21.4558367347
 21
-1.866244898
  0
LINE
  5
2B5
100
AcDbEntity
  8
RACCORDO
100
AcDbLine
 62
7
  6
CONTINUOUS
 10
-23.2201395152
 20
-0.1019421175
 11
-21.4558367347
 21
-1.866244898
  0
LINE
  5
2B6
100
AcDbEntity
  8
ASSI
100
AcDbLine
 62
7
  6
CONTINUOUS
 10
-19.9109501448
 20
-3.398789833
 11
-20.8883816698
 21
-2.4213583081
  0
LINE
  5
2B7
100
AcDbEntity
  8
0
100
AcDbLine
 62
7
  6
CONTINUOUS
 10
-23.0979540607
 20
-0.0513312451
 11
-21.2830404078
 21
-1.866244898
  0
LINE
  5
2B8
100
AcDbEntity
  8
RACCORDO
100
AcDbLine
 62
7
  6
CONTINUOUS
 10
-23.0979540607
 20
-0.0513312451
 11
-21.2830404078
 21
-1.866244898
  0
LINE
  5
2B9
100
AcDbEntity
  8
RACCORDO
100
AcDbLine
 62
7
  6
CONTINUOUS
 10
-22.7541409815
 20
-0.3364531333
 11
-23.37604497
 21
0.2854508552
  0
LINE
  5
2BA
100
AcDbEntity
  8
ASSI
100
AcDbLine
 62
7
  6
CONTINUOUS
 10
-22.7541409815
 20
-0.3364531333
 11
-23.37604497
 21
0.2854508552
  0
LINE
  5
2BB
100
AcDbEntity
  8
ASSI
100
AcDbLine
 62
7
  6
CONTINUOUS
 10
-19.9558367347
 20
-1.916244898
 11
-19.8685680568
 21
-2.0035135759
  0
LINE
  5
2BC
100
AcDbEntity
  8
0
100
AcDbLine
 62
7
  6
CONTINUOUS
 10
-20.0558367347
 20
38.683755102
 11
-20.092492371
 21
38.6470994657
  0
LINE
  5
2BD
100
AcDbEntity
  8
DRAFT
100
AcDbLine
 62
7
  6
CONTINUOUS
 10
-20.0558367347
 20
38.683755102
 11
-20.092492371
 21
38.6470994657
  0
LINE
  5
2BE
100
AcDbEntity
  8
0
100
AcDbLine
 62
7
  6
CONTINUOUS
 10
-19.8685680568
 20
38.7710237799
 11
-19.9558367347
 21
38.683755102
  0
LINE
  5
2BF
100
AcDbEntity
  8
0
100
AcDbLine
 62
7
  6
CONTINUOUS
 10
-17.7812860854
 20
40.0583057513
 11
-17.9558367347
 21
39.883755102
  0
LINE
  5
2C0
100
AcDbEntity
  8
RACCORDO
100
AcDbLine
 62
253
  6
CONTINUOUS
 10
-13.7232537234
 20
42.9663000371
 11
-13.7057986585
 21
42.983755102
  0
LINE
  5
2C1
100
AcDbEntity
  8
0
100
AcDbLine
 62
7
  6
CONTINUOUS
 10
-14.8022833441
 20
0.7512150854
 11
-15.1563984803
 21
0.7481247694
  0
LINE
  5
2C2
100
AcDbEntity
  8
RACCORDO
100
AcDbLine
 62
7
  6
CONTINUOUS
 10
-14.8022833441
 20
0.7512150854
 11
-15.1563984803
 21
0.7481247694
  0
LINE
  5
2C3
100
AcDbEntity
  8
ASSI
100
AcDbLine
 62
7
  6
CONTINUOUS
 10
-23.7820226563
 20
0.5611053712
 11
-23.7383816698
 21
0.5611053712
  0
LINE
  5
2C4
100
AcDbEntity
  8
ASSI
100
AcDbLine
 62
7
  6
CONTINUOUS
 10
-1.5296508131
 20
0.5611053712
 11
-1.5732917996
 21
0.5611053712
  0
LINE
  5
2C5
100
AcDbEntity
  8
0
100
AcDbLine
 62
7
  6
CONTINUOUS
 10
-10.1558367347
 20
0.683755102
 11
-15.1558367347
 21
0.683755102
  0
LINE
  5
2C6
100
AcDbEntity
  8
ASSI
100
AcDbLine
 62
7
  6
CONTINUOUS
 10
-10.1558367347
 20
0.683755102
 11
-15.1558367347
 21
0.683755102
  0
LINE
  5
2C7
100
AcDbEntity
  8
0
100
AcDbLine
 62
7
  6
CONTINUOUS
 10
-8.5125543799
 20
0.7175856344
 11
-5.2191810983
 21
0.7175856344
  0
LINE
  5
2C8
100
AcDbEntity
  8
DRAFT
100
AcDbLine
 62
7
  6
CONTINUOUS
 10
-8.5125543799
 20
0.7175856344
 11
-5.2191810983
 21
0.7175856344
  0
LINE
  5
2C9
100
AcDbEntity
  8
0
100
AcDbLine
 62
7
  6
CONTINUOUS
 10
-4.0558367347
 20
0.7175856344
 11
-3.3896482286
 21
0.7175856344
  0
LINE
  5
2CA
100
AcDbEntity
  8
RACCORDO
100
AcDbLine
 62
7
  6
CONTINUOUS
 10
-4.0558367347
 20
0.7175856344
 11
-3.3896482286
 21
0.7175856344
  0
LINE
  5
2CB
100
AcDbEntity
  8
0
100
AcDbLine
 62
7
  6
CONTINUOUS
 10
-4.0558367347
 20
0.7263125022
 11
-5.2017260334
 21
0.7263125022
  0
LINE
  5
2CC
100
AcDbEntity
  8
DRAFT
100
AcDbLine
 62
7
  6
CONTINUOUS
 10
-4.0558367347
 20
0.7263125022
 11
-5.2017260334
 21
0.7263125022
  0
LINE
  5
2CD
100
AcDbEntity
  8
RACCORDO
100
AcDbLine
 62
7
  6
CONTINUOUS
 10
-3.2646123446
 20
0.7706648004
 11
-8.3427578561
 21
0.7706648004
  0
LINE
  5
2CE
100
AcDbEntity
  8
ASSI
100
AcDbLine
 62
7
  6
CONTINUOUS
 10
-3.2646123446
 20
0.7706648004
 11
-8.3427578561
 21
0.7706648004
  0
LINE
  5
2CF
100
AcDbEntity
  8
ASSI
100
AcDbLine
 62
7
  6
CONTINUOUS
 10
-15.1558367347
 20
0.783755102
 11
-10.1558367347
 21
0.783755102
  0
LINE
  5
2D0
100
AcDbEntity
  8
0
100
AcDbLine
 62
7
  6
CONTINUOUS
 10
-10.5093901253
 20
0.7512150854
 11
-10.1552749891
 21
0.7481247694
  0
LINE
  5
2D1
100
AcDbEntity
  8
RACCORDO
100
AcDbLine
 62
7
  6
CONTINUOUS
 10
-10.5093901253
 20
0.7512150854
 11
-10.1552749891
 21
0.7481247694
  0
LINE
  5
2D2
100
AcDbEntity
  8
0
100
AcDbLine
 62
7
  6
CONTINUOUS
 10
-20.0558367347
 20
-0.716244898
 11
-20.092492371
 21
-0.6795892616
  0
LINE
  5
2D3
100
AcDbEntity
  8
DRAFT
100
AcDbLine
 62
7
  6
CONTINUOUS
 10
-20.0558367347
 20
-0.716244898
 11
-20.092492371
 21
-0.6795892616
  0
LINE
  5
2D4
100
AcDbEntity
  8
0
100
AcDbLine
 62
7
  6
CONTINUOUS
 10
-19.8685680568
 20
-0.8035135759
 11
-19.9558367347
 21
-0.716244898
  0
LINE
  5
2D5
100
AcDbEntity
  8
0
100
AcDbLine
 62
7
  6
CONTINUOUS
 10
-17.7812860854
 20
-2.0907955472
 11
-17.9558367347
 21
-1.916244898
  0
LINE
  5
2D6
100
AcDbEntity
  8
RACCORDO
100
AcDbLine
 62
253
  6
CONTINUOUS
 10
-13.7057986585
 20
-5.016244898
 11
-13.7232537234
 21
-4.998789833
  0
LINE
  5
2D7
100
AcDbEntity
  8
RACCORDO
100
AcDbLine
 62
253
  6
CONTINUOUS
 10
-13.4732917996
 20
42.7163381133
 11
-13.4558367347
 21
42.7337931783
  0
LINE
  5
2D8
100
AcDbEntity
  8
0
100
AcDbLine
 62
253
  6
CONTINUOUS
 10
-14.4079792
 20
1.697999176
 11
-14.3558367347
 21
1.7020832593
  0
LINE
  5
2D9
100
AcDbEntity
  8
RACCORDO
100
AcDbLine
 62
253
  6
CONTINUOUS
 10
-14.4079792
 20
1.697999176
 11
-14.3558367347
 21
1.7020832593
  0
LINE
  5
2DA
100
AcDbEntity
  8
ASSI
100
AcDbLine
 62
7
  6
CONTINUOUS
 10
-15.1558367347
 20
1.483755102
 11
-10.1558367347
 21
1.483755102
  0
LINE
  5
2DB
100
AcDbEntity
  8
RACCORDO
100
AcDbLine
 62
7
  6
CONTINUOUS
 10
-14.2598297655
 20
1.683755102
 11
-11.0518437039
 21
1.683755102
  0
LINE
  5
2DC
100
AcDbEntity
  8
ASSI
100
AcDbLine
 62
7
  6
CONTINUOUS
 10
-14.2598297655
 20
1.683755102
 11
-11.0518437039
 21
1.683755102
  0
LINE
  5
2DD
100
AcDbEntity
  8
0
100
AcDbLine
 62
253
  6
CONTINUOUS
 10
-10.9558367347
 20
1.7020832593
 11
-14.3558367347
 21
1.7020832593
  0
LINE
  5
2DE
100
AcDbEntity
  8
RACCORDO
100
AcDbLine
 62
253
  6
CONTINUOUS
 10
-10.9558367347
 20
1.7020832593
 11
-14.3558367347
 21
1.7020832593
  0
LINE
  5
2DF
100
AcDbEntity
  8
0
100
AcDbLine
 62
7
  6
CONTINUOUS
 10
-10.9558367347
 20
1.733755102
 11
-14.3558367347
 21
1.733755102
  0
LINE
  5
2E0
100
AcDbEntity
  8
RACCORDO
100
AcDbLine
 62
7
  6
CONTINUOUS
 10
-10.9558367347
 20
1.733755102
 11
-14.3558367347
 21
1.733755102
  0
LINE
  5
2E1
100
AcDbEntity
  8
CURVE
100
AcDbLine
 62
7
  6
CONTINUOUS
 10
-1.5826390204
 20
1.983755102
 11
-1.5791205055
 21
1.983755102
  0
LINE
  5
2E2
100
AcDbEntity
  8
CURVE
100
AcDbLine
 62
7
  6
CONTINUOUS
 10
-1.5356000304
 20
2.008421102
 11
-1.5320815155
 21
2.008421102
  0
LINE
  5
2E3
100
AcDbEntity
  8
CURVE
100
AcDbLine
 62
7
  6
CONTINUOUS
 10
-1.559701396
 20
2.063454102
 11
-1.5562026865
 21
2.063454102
  0
LINE
  5
2E4
100
AcDbEntity
  8
CURVE
100
AcDbLine
 62
253
  6
CONTINUOUS
 10
-1.5990824485
 20
2.255183544
 11
-1.6132936939
 21
2.255183544
  0
LINE
  5
2E5
100
AcDbEntity
  8
0
100
AcDbLine
 62
7
  6
CONTINUOUS
 10
-15.1558367347
 20
2.383755102
 11
-10.1558367347
 21
2.383755102
  0
LINE
  5
2E6
100
AcDbEntity
  8
ASSI
100
AcDbLine
 62
7
  6
CONTINUOUS
 10
-15.1558367347
 20
2.383755102
 11
-10.1558367347
 21
2.383755102
  0
LINE
  5
2E7
100
AcDbEntity
  8
SMUSSO
100
AcDbLine
 62
7
  6
CONTINUOUS
 10
-12.4058367347
 20
2.733755102
 11
-17.4058367347
 21
2.733755102
  0
LINE
  5
2E8
100
AcDbEntity
  8
ASSI
100
AcDbLine
 62
7
  6
CONTINUOUS
 10
-12.4058367347
 20
2.733755102
 11
-17.4058367347
 21
2.733755102
  0
LINE
  5
2E9
100
AcDbEntity
  8
RACCORDO
100
AcDbLine
 62
7
  6
CONTINUOUS
 10
-1.9427578565
 20
2.833755102
 11
-2.8558367347
 21
2.833755102
  0
LINE
  5
2EA
100
AcDbEntity
  8
ASSI
100
AcDbLine
 62
7
  6
CONTINUOUS
 10
-1.9427578565
 20
2.833755102
 11
-2.8558367347
 21
2.833755102
  0
LINE
  5
2EB
100
AcDbEntity
  8
CURVE
100
AcDbLine
 62
7
  6
CONTINUOUS
 10
-1.5562026865
 20
3.063741102
 11
-1.559701396
 21
3.063741102
  0
LINE
  5
2EC
100
AcDbEntity
  8
0
100
AcDbLine
 62
253
  6
CONTINUOUS
 10
-10.9036942694
 20
1.697999176
 11
-10.9558367347
 21
1.7020832593
  0
LINE
  5
2ED
100
AcDbEntity
  8
RACCORDO
100
AcDbLine
 62
253
  6
CONTINUOUS
 10
-10.9036942694
 20
1.697999176
 11
-10.9558367347
 21
1.7020832593
  0
LINE
  5
2EE
100
AcDbEntity
  8
CURVE
100
AcDbLine
 62
253
  6
CONTINUOUS
 10
-22.9558367347
 20
6.4123265528
 11
-22.677265284
 21
6.2266122781
  0
LINE
  5
2EF
100
AcDbEntity
  8
RACCORDO
100
AcDbLine
 62
253
  6
CONTINUOUS
 10
-13.4558367347
 20
-4.7662829742
 11
-13.4732917996
 21
-4.7488279092
  0
LINE
  5
2F0
100
AcDbEntity
  8
CURVE
100
AcDbLine
 62
253
  6
CONTINUOUS
 10
-22.5844081854
 20
5.483755102
 11
-22.9558367347
 21
5.8551836901
  0
LWPOLYLINE
  5
2F1
100
AcDbEntity
  8
ASSI
100
AcDbPolyline
 62
253
  6
CONTINUOUS
 90
10
 70
0
 10
-19.8690041916
 20
-5.303107902
 10
-19.8690463813
 20
-5.3030241174
 10
-19.8690893816
 20
-5.3027974581
 10
-19.8691331925
 20
-5.3024279243
 10
-19.869178089
 20
-5.3019215154
 10
-19.8692237961
 20
-5.3012722319
 10
-19.8692694888
 20
-5.3004620748
 10
-19.8693151853
 20
-5.2994854081
 10
-19.8693608674
 20
-5.2983478678
 10
-19.8694056548
 20
-5.2970483623
  0
LINE
  5
2F2
100
AcDbEntity
  8
CURVE
100
AcDbLine
 62
253
  6
CONTINUOUS
 10
-1.6132936939
 20
3.205183544
 11
-1.5990824485
 21
3.205183544
  0
LINE
  5
2F3
100
AcDbEntity
  8
SMUSSO
100
AcDbLine
 62
7
  6
CONTINUOUS
 10
-12.9058367347
 20
3.233755102
 11
-16.9058367347
 21
3.233755102
  0
LINE
  5
2F4
100
AcDbEntity
  8
ASSI
100
AcDbLine
 62
7
  6
CONTINUOUS
 10
-12.9058367347
 20
3.233755102
 11
-16.9058367347
 21
3.233755102
  0
LINE
  5
2F5
100
AcDbEntity
  8
0
100
AcDbLine
 62
7
  6
CONTINUOUS
 10
-16.1958367347
 20
3.483755102
 11
-13.2558367347
 21
3.483755102
  0
LINE
  5
2F6
100
AcDbEntity
  8
CURVE
100
AcDbLine
 62
7
  6
CONTINUOUS
 10
-1.5791205055
 20
3.702637102
 11
-1.5356000304
 21
3.702637102
  0
LINE
  5
2F7
100
AcDbEntity
  8
CURVE
100
AcDbLine
 62
253
  6
CONTINUOUS
 10
-1.5990824485
 20
3.748040428
 11
-1.5943453671
 21
3.748040428
  0
LINE
  5
2F8
100
AcDbEntity
  8
CURVE
100
AcDbLine
 62
7
  6
CONTINUOUS
 10
-1.5320815155
 20
3.904274102
 11
-1.5826390204
 21
3.904274102
  0
LINE
  5
2F9
100
AcDbEntity
  8
0
100
AcDbLine
 62
7
  6
CONTINUOUS
 10
-2.7972702129
 20
4.1059405565
 11
-2.8558367347
 21
4.1059405565
  0
LINE
  5
2FA
100
AcDbEntity
  8
RACCORDO
100
AcDbLine
 62
7
  6
CONTINUOUS
 10
-2.7972702129
 20
4.1059405565
 11
-2.8558367347
 21
4.1059405565
  0
LINE
  5
2FB
100
AcDbEntity
  8
0
100
AcDbLine
 62
253
  6
CONTINUOUS
 10
-2.7972234148
 20
4.1182504919
 11
-2.8558367347
 21
4.1182504919
  0
LINE
  5
2FC
100
AcDbEntity
  8
RACCORDO
100
AcDbLine
 62
253
  6
CONTINUOUS
 10
-2.7972234148
 20
4.1182504919
 11
-2.8558367347
 21
4.1182504919
  0
LINE
  5
2FD
100
AcDbEntity
  8
0
100
AcDbLine
 62
253
  6
CONTINUOUS
 10
-2.7962959621
 20
4.4182048004
 11
-2.8558367347
 21
4.4182048004
  0
LINE
  5
2FE
100
AcDbEntity
  8
RACCORDO
100
AcDbLine
 62
253
  6
CONTINUOUS
 10
-2.7962959621
 20
4.4182048004
 11
-2.8558367347
 21
4.4182048004
  0
LINE
  5
2FF
100
AcDbEntity
  8
CURVE
100
AcDbLine
 62
253
  6
CONTINUOUS
 10
-20.5558367347
 20
4.683755102
 11
-18.6558367347
 21
4.683755102
  0
LINE
  5
300
100
AcDbEntity
  8
CURVE
100
AcDbLine
 62
253
  6
CONTINUOUS
 10
-22.5844081854
 20
7.2480407499
 11
-22.77012246
 21
7.3408980035
  0
LINE
  5
301
100
AcDbEntity
  8
CURVE
100
AcDbLine
 62
253
  6
CONTINUOUS
 10
-21.6558367347
 20
6.2266122781
 11
-22.5844081854
 21
6.8766122006
  0
LINE
  5
302
100
AcDbEntity
  8
CURVE
100
AcDbLine
 62
253
  6
CONTINUOUS
 10
-22.77012246
 20
7.3408980035
 11
-22.9558367347
 21
7.5266122006
  0
LINE
  5
303
100
AcDbEntity
  8
CURVE
100
AcDbLine
 62
253
  6
CONTINUOUS
 10
-21.8415510287
 20
7.8051836513
 11
-21.6558367347
 21
7.6194694542
  0
LINE
  5
304
100
AcDbEntity
  8
ASSI
100
AcDbLine
 62
7
  6
CONTINUOUS
 10
-19.9570600774
 20
41.2088998199
 11
-19.9109501448
 21
41.3663000371
  0
LINE
  5
305
100
AcDbEntity
  8
RACCORDO
100
AcDbLine
 62
253
  6
CONTINUOUS
 10
-8.553217423
 20
42.8863363375
 11
-8.4557986585
 21
42.983755102
  0
LINE
  5
306
100
AcDbEntity
  8
RACCORDO
100
AcDbLine
 62
253
  6
CONTINUOUS
 10
-8.3032554992
 20
42.6363744137
 11
-8.2058367347
 21
42.7337931783
  0
LINE
  5
307
100
AcDbEntity
  8
RACCORDO
100
AcDbLine
 62
7
  6
CONTINUOUS
 10
-8.2058367347
 20
41.383755102
 11
-8.3032554992
 21
41.2863363375
  0
LWPOLYLINE
  5
308
100
AcDbEntity
  8
0
100
AcDbPolyline
 62
253
  6
CONTINUOUS
 90
3
 70
0
 10
-10.762514544
 20
36.3285692729
 10
-10.805560078
 20
36.3015191419
 10
-10.8530847981
 20
36.2816566458
  0
LWPOLYLINE
  5
309
100
AcDbEntity
  8
RACCORDO
100
AcDbPolyline
 62
253
  6
CONTINUOUS
 90
3
 70
0
 10
-10.762514544
 20
36.3285692729
 10
-10.805560078
 20
36.3015191419
 10
-10.8530847981
 20
36.2816566458
  0
LINE
  5
30A
100
AcDbEntity
  8
0
100
AcDbLine
 62
253
  6
CONTINUOUS
 10
-2.0915339542
 20
38.0694523216
 11
-2.2137194087
 21
38.0188414492
  0
LINE
  5
30B
100
AcDbEntity
  8
RACCORDO
100
AcDbLine
 62
253
  6
CONTINUOUS
 10
-2.0915339542
 20
38.0694523216
 11
-2.2137194087
 21
38.0188414492
  0
LINE
  5
30C
100
AcDbEntity
  8
CURVE
100
AcDbLine
 62
253
  6
CONTINUOUS
 10
-1.5896082856
 20
5.240898218
 11
-1.6227678578
 21
5.240898218
  0
LINE
  5
30D
100
AcDbEntity
  8
CURVE
100
AcDbLine
 62
253
  6
CONTINUOUS
 10
-22.9558367347
 20
5.8551836901
 11
-21.6558367347
 21
5.8551836901
  0
LINE
  5
30E
100
AcDbEntity
  8
CURVE
100
AcDbLine
 62
7
  6
CONTINUOUS
 10
-1.5827661418
 20
6.171403102
 11
-1.5321186311
 21
6.171403102
  0
LINE
  5
30F
100
AcDbEntity
  8
CURVE
100
AcDbLine
 62
7
  6
CONTINUOUS
 10
-1.5321186311
 20
6.373040102
 11
-1.5827661418
 21
6.373040102
  0
LINE
  5
310
100
AcDbEntity
  8
0
100
AcDbLine
 62
7
  6
CONTINUOUS
 10
-13.2558367347
 20
6.483755102
 11
-16.1958367347
 21
6.483755102
  0
LINE
  5
311
100
AcDbEntity
  8
CURVE
100
AcDbLine
 62
253
  6
CONTINUOUS
 10
-21.6558367347
 20
8.6408980035
 11
-22.9558367347
 21
9.0123263978
  0
LINE
  5
312
100
AcDbEntity
  8
0
100
AcDbLine
 62
253
  6
CONTINUOUS
 10
-2.2137194087
 20
-0.0513312451
 11
-2.0915339542
 21
-0.1019421175
  0
LINE
  5
313
100
AcDbEntity
  8
RACCORDO
100
AcDbLine
 62
253
  6
CONTINUOUS
 10
-2.2137194087
 20
-0.0513312451
 11
-2.0915339542
 21
-0.1019421175
  0
LINE
  5
314
100
AcDbEntity
  8
CURVE
100
AcDbLine
 62
253
  6
CONTINUOUS
 10
-22.0272653227
 20
7.8980407499
 11
-21.8415510287
 21
7.8051836513
  0
LWPOLYLINE
  5
315
100
AcDbEntity
  8
0
100
AcDbPolyline
 62
253
  6
CONTINUOUS
 90
4
 70
0
 10
-10.762514544
 20
1.6389409311
 10
-10.805560078
 20
1.6659910621
 10
-10.8530847981
 20
1.6858535582
 10
-10.9036942694
 20
1.697999176
  0
LWPOLYLINE
  5
316
100
AcDbEntity
  8
RACCORDO
100
AcDbPolyline
 62
253
  6
CONTINUOUS
 90
4
 70
0
 10
-10.762514544
 20
1.6389409311
 10
-10.805560078
 20
1.6659910621
 10
-10.8530847981
 20
1.6858535582
 10
-10.9036942694
 20
1.697999176
  0
LINE
  5
317
100
AcDbEntity
  8
RACCORDO
100
AcDbLine
 62
253
  6
CONTINUOUS
 10
-8.4557986585
 20
-5.016244898
 11
-8.553217423
 21
-4.9188261335
  0
LINE
  5
318
100
AcDbEntity
  8
RACCORDO
100
AcDbLine
 62
253
  6
CONTINUOUS
 10
-8.2058367347
 20
-4.7662829742
 11
-8.3032554992
 21
-4.6688642097
  0
LINE
  5
319
100
AcDbEntity
  8
RACCORDO
100
AcDbLine
 62
7
  6
CONTINUOUS
 10
-8.2058367347
 20
-3.416244898
 11
-8.3032554992
 21
-3.3188261335
  0
LINE
  5
31A
100
AcDbEntity
  8
CURVE
100
AcDbLine
 62
253
  6
CONTINUOUS
 10
-22.0582177018
 20
9.383755102
 11
-22.1510748392
 21
9.600421872
  0
LINE
  5
31B
100
AcDbEntity
  8
ASSI
100
AcDbLine
 62
7
  6
CONTINUOUS
 10
-19.9570600774
 20
-3.2413896158
 11
-19.9109501448
 21
-3.398789833
  0
LWPOLYLINE
  5
31C
100
AcDbEntity
  8
ASSI
100
AcDbPolyline
 62
253
  6
CONTINUOUS
 90
13
 70
0
 10
-23.2426692778
 20
-5.303107902
 10
-23.2409512307
 20
-5.3292040866
 10
-23.2358423693
 20
-5.3548539405
 10
-23.2274300705
 20
-5.3796187582
 10
-23.2158582123
 20
-5.4030749701
 10
-23.2013247125
 20
-5.4248213896
 10
-23.1840781423
 20
-5.444486074
 10
-23.1644134762
 20
-5.461732684
 10
-23.1426670505
 20
-5.4762662348
 10
-23.1192108097
 20
-5.4878381447
 10
-23.0944459417
 20
-5.4962504885
 10
-23.0687960154
 20
-5.5013593818
 10
-23.0426997387
 20
-5.503077441
  0
LWPOLYLINE
  5
31D
100
AcDbEntity
  8
ASSI
100
AcDbPolyline
 62
7
  6
CONTINUOUS
 90
16
 70
0
 10
-23.7558367347
 20
-2.9163210504
 10
-23.7531400229
 20
-2.9681976976
 10
-23.7450316664
 20
-3.0197287168
 10
-23.7315323699
 20
-3.070342854
 10
-23.7126441532
 20
-3.1196485098
 10
-23.6885532556
 20
-3.1668770698
 10
-23.6598167537
 20
-3.210984779
 10
-23.627151021
 20
-3.2512147258
 10
-23.5907730306
 20
-3.2875949827
 10
-23.5505447315
 20
-3.3202620482
 10
-23.5064388693
 20
-3.3489987859
 10
-23.4592116061
 20
-3.3730890124
 10
-23.4099025183
 20
-3.3919740365
 10
-23.359278639
 20
-3.4054663695
 10
-23.3077329325
 20
-3.4135637621
 10
-23.2558367993
 20
-3.4162448276
  0
LINE
  5
31E
100
AcDbEntity
  8
ASSI
100
AcDbLine
 62
7
  6
CONTINUOUS
 10
-23.7820226563
 20
0.5611053712
 11
-23.7558367347
 21
-0.016244898
  0
LINE
  5
31F
100
AcDbEntity
  8
ASSI
100
AcDbLine
 62
253
  6
CONTINUOUS
 10
-23.0422785938
 20
-4.6440761143
 11
-23.0575517756
 21
-4.1388946288
  0
LINE
  5
320
100
AcDbEntity
  8
ASSI
100
AcDbLine
 62
253
  6
CONTINUOUS
 10
-23.2422069587
 20
-4.8187529929
 11
-23.2558367347
 21
-4.3678195061
  0
LINE
  5
321
100
AcDbEntity
  8
ASSI
100
AcDbLine
 62
253
  6
CONTINUOUS
 10
-23.2421316914
 20
-4.8218922111
 11
-23.2422069587
 21
-4.8187529929
  0
LINE
  5
322
100
AcDbEntity
  8
ASSI
100
AcDbLine
 62
253
  6
CONTINUOUS
 10
-23.2420364925
 20
-4.8270900947
 11
-23.2421316914
 21
-4.8218922111
  0
LINE
  5
323
100
AcDbEntity
  8
ASSI
100
AcDbLine
 62
253
  6
CONTINUOUS
 10
-23.2419399083
 20
-4.8344951894
 11
-23.2420364925
 21
-4.8270900947
  0
LINE
  5
324
100
AcDbEntity
  8
ASSI
100
AcDbLine
 62
253
  6
CONTINUOUS
 10
-23.2418505085
 20
-4.8458423729
 11
-23.2419399083
 21
-4.8344951894
  0
LINE
  5
325
100
AcDbEntity
  8
ASSI
100
AcDbLine
 62
253
  6
CONTINUOUS
 10
-23.2418123186
 20
-4.8587503679
 11
-23.2418505085
 21
-4.8458423729
  0
LINE
  5
326
100
AcDbEntity
  8
0
100
AcDbLine
 62
7
  6
CONTINUOUS
 10
-23.8058367347
 20
36.6554541508
 11
-23.8058367347
 21
1.3120560533
  0
LINE
  5
327
100
AcDbEntity
  8
RACCORDO
100
AcDbLine
 62
7
  6
CONTINUOUS
 10
-23.8058367347
 20
36.6554541508
 11
-23.8058367347
 21
1.3120560533
  0
LINE
  5
328
100
AcDbEntity
  8
DRAFT
100
AcDbLine
 62
7
  6
CONTINUOUS
 10
-23.7820226563
 20
37.4064048329
 11
-23.7820226563
 21
36.9513568682
  0
LINE
  5
329
100
AcDbEntity
  8
DRAFT
100
AcDbLine
 62
7
  6
CONTINUOUS
 10
-23.7820226563
 20
1.0161533358
 11
-23.7820226563
 21
0.5611053712
  0
LINE
  5
32A
100
AcDbEntity
  8
ASSI
100
AcDbLine
 62
7
  6
CONTINUOUS
 10
-23.7558367347
 20
40.8837548669
 11
-23.7558367347
 21
37.983755102
  0
LINE
  5
32B
100
AcDbEntity
  8
ASSI
100
AcDbLine
 62
7
  6
CONTINUOUS
 10
-23.7558367347
 20
-2.9162446628
 11
-23.7558367347
 21
-0.016244898
  0
LINE
  5
32C
100
AcDbEntity
  8
ASSI
100
AcDbLine
 62
7
  6
CONTINUOUS
 10
-23.7383816698
 20
-2.8988659855
 11
-23.7383816698
 21
0.5611053712
  0
LINE
  5
32D
100
AcDbEntity
  8
ASSI
100
AcDbLine
 62
7
  6
CONTINUOUS
 10
-23.7383816698
 20
37.4064048329
 11
-23.7383816698
 21
40.8663761895
  0
LINE
  5
32E
100
AcDbEntity
  8
0
100
AcDbLine
 62
7
  6
CONTINUOUS
 10
-23.6836512802
 20
36.6048432784
 11
-23.6836512802
 21
1.3626669257
  0
LINE
  5
32F
100
AcDbEntity
  8
RACCORDO
100
AcDbLine
 62
7
  6
CONTINUOUS
 10
-23.6836512802
 20
36.6048432784
 11
-23.6836512802
 21
1.3626669257
  0
LINE
  5
330
100
AcDbEntity
  8
RACCORDO
100
AcDbLine
 62
7
  6
CONTINUOUS
 10
-23.6689270364
 20
36.9749794921
 11
-23.6689270364
 21
0.9925307119
  0
LINE
  5
331
100
AcDbEntity
  8
ASSI
100
AcDbLine
 62
7
  6
CONTINUOUS
 10
-23.6689270364
 20
36.9749794921
 11
-23.6689270364
 21
0.9925307119
  0
LINE
  5
332
100
AcDbEntity
  8
ASSI
100
AcDbLine
 62
7
  6
CONTINUOUS
 10
-23.2558367347
 20
-5.3162753589
 11
-23.2558367993
 21
-3.4162448276
  0
LINE
  5
333
100
AcDbEntity
  8
ASSI
100
AcDbLine
 62
7
  6
CONTINUOUS
 10
-23.2558367347
 20
41.383755102
 11
-23.2558367347
 21
43.283785563
  0
LINE
  5
334
100
AcDbEntity
  8
ASSI
100
AcDbLine
 62
253
  6
CONTINUOUS
 10
-23.241817245
 20
42.8226196645
 11
-23.2418225814
 21
43.2284757485
  0
LINE
  5
335
100
AcDbEntity
  8
ASSI
100
AcDbLine
 62
253
  6
CONTINUOUS
 10
-23.2418177631
 20
-5.2589654255
 11
-23.2418123186
 21
-4.8587503679
  0
LINE
  5
336
100
AcDbEntity
  8
ASSI
100
AcDbLine
 62
253
  6
CONTINUOUS
 10
-23.2418679789
 20
42.810428117
 11
-23.241817245
 21
42.8226196645
  0
LINE
  5
337
100
AcDbEntity
  8
ASSI
100
AcDbLine
 62
253
  6
CONTINUOUS
 10
-23.2419568585
 20
42.8004849867
 11
-23.2418679789
 21
42.810428117
  0
LINE
  5
338
100
AcDbEntity
  8
ASSI
100
AcDbLine
 62
253
  6
CONTINUOUS
 10
-23.2420446925
 20
42.7940839646
 11
-23.2419568585
 21
42.8004849867
  0
LINE
  5
339
100
AcDbEntity
  8
ASSI
100
AcDbLine
 62
253
  6
CONTINUOUS
 10
-23.2421420253
 20
42.788924054
 11
-23.2420446925
 21
42.7940839646
  0
LINE
  5
33A
100
AcDbEntity
  8
ASSI
100
AcDbLine
 62
253
  6
CONTINUOUS
 10
-23.2422207197
 20
42.7857353245
 11
-23.2421420253
 21
42.788924054
  0
LINE
  5
33B
100
AcDbEntity
  8
ASSI
100
AcDbLine
 62
253
  6
CONTINUOUS
 10
-23.2558367347
 20
42.3353297102
 11
-23.2422207197
 21
42.7857353245
  0
LINE
  5
33C
100
AcDbEntity
  8
ASSI
100
AcDbLine
 62
253
  6
CONTINUOUS
 10
-23.0575517756
 20
42.1064048329
 11
-23.0422785962
 21
42.6115862382
  0
LINE
  5
33D
100
AcDbEntity
  8
ASSI
100
AcDbLine
 62
7
  6
CONTINUOUS
 10
-23.7558367347
 20
37.983755102
 11
-23.7820226563
 21
37.4064048329
  0
LWPOLYLINE
  5
33E
100
AcDbEntity
  8
ASSI
100
AcDbPolyline
 62
7
  6
CONTINUOUS
 90
16
 70
0
 10
-23.7558367347
 20
40.8837548669
 10
-23.7531404519
 20
40.9356648929
 10
-23.7450332954
 20
40.9872163088
 10
-23.7315367723
 20
41.0378394546
 10
-23.7126538629
 20
41.0871401562
 10
-23.6885716511
 20
41.134356058
 10
-23.6598446679
 20
41.1784567045
 10
-23.627184331
 20
41.2186888401
 10
-23.5908070972
 20
41.2550746537
 10
-23.5505775037
 20
41.2877483474
 10
-23.5064683603
 20
41.3164917165
 10
-23.4592349032
 20
41.3405881632
 10
-23.4099193041
 20
41.3594788095
 10
-23.3592896402
 20
41.3729756207
 10
-23.307738197
 20
41.3810750918
 10
-23.255836735
 20
41.3837548386
  0
LWPOLYLINE
  5
33F
100
AcDbEntity
  8
ASSI
100
AcDbPolyline
 62
253
  6
CONTINUOUS
 90
13
 70
0
 10
-23.2426692778
 20
43.2706181061
 10
-23.2409512245
 20
43.2967143375
 10
-23.2358423469
 20
43.3223642281
 10
-23.2274300254
 20
43.3471290711
 10
-23.2158581413
 20
43.3705852971
 10
-23.2013246162
 20
43.3923317191
 10
-23.1840780265
 20
43.4119963939
 10
-23.1644133518
 20
43.4292429836
 10
-23.1426669298
 20
43.4437765087
 10
-23.1192107037
 20
43.4553483927
 10
-23.0944458608
 20
43.4637607143
 10
-23.0687959702
 20
43.4688695919
 10
-23.0426997387
 20
43.4705876451
  0
LINE
  5
340
100
AcDbEntity
  8
0
100
AcDbLine
 62
7
  6
CONTINUOUS
 10
-9.1558367347
 20
38.883755102
 11
-9.192492371
 21
38.8470994657
  0
LINE
  5
341
100
AcDbEntity
  8
DRAFT
100
AcDbLine
 62
7
  6
CONTINUOUS
 10
-9.1558367347
 20
38.883755102
 11
-9.192492371
 21
38.8470994657
  0
LINE
  5
342
100
AcDbEntity
  8
0
100
AcDbLine
 62
7
  6
CONTINUOUS
 10
-9.1558367347
 20
38.683755102
 11
-9.192492371
 21
38.6470994657
  0
LINE
  5
343
100
AcDbEntity
  8
DRAFT
100
AcDbLine
 62
7
  6
CONTINUOUS
 10
-9.1558367347
 20
38.683755102
 11
-9.192492371
 21
38.6470994657
  0
LINE
  5
344
100
AcDbEntity
  8
0
100
AcDbLine
 62
253
  6
CONTINUOUS
 10
-1.5058367347
 20
36.6554541508
 11
-1.6280221892
 21
36.6048432784
  0
LINE
  5
345
100
AcDbEntity
  8
RACCORDO
100
AcDbLine
 62
253
  6
CONTINUOUS
 10
-1.5058367347
 20
36.6554541508
 11
-1.6280221892
 21
36.6048432784
  0
LINE
  5
346
100
AcDbEntity
  8
SMUSSO
100
AcDbLine
 62
7
  6
CONTINUOUS
 10
-16.9058367347
 20
6.733755102
 11
-12.9058367347
 21
6.733755102
  0
LINE
  5
347
100
AcDbEntity
  8
ASSI
100
AcDbLine
 62
7
  6
CONTINUOUS
 10
-16.9058367347
 20
6.733755102
 11
-12.9058367347
 21
6.733755102
  0
LINE
  5
348
100
AcDbEntity
  8
CURVE
100
AcDbLine
 62
253
  6
CONTINUOUS
 10
-22.5844081854
 20
6.8766122006
 11
-22.77012246
 21
6.8766122006
  0
LINE
  5
349
100
AcDbEntity
  8
RACCORDO
100
AcDbLine
 62
7
  6
CONTINUOUS
 10
-1.9427578565
 20
7.133755102
 11
-2.8558367347
 21
7.133755102
  0
LINE
  5
34A
100
AcDbEntity
  8
ASSI
100
AcDbLine
 62
7
  6
CONTINUOUS
 10
-1.9427578565
 20
7.133755102
 11
-2.8558367347
 21
7.133755102
  0
LINE
  5
34B
100
AcDbEntity
  8
SMUSSO
100
AcDbLine
 62
7
  6
CONTINUOUS
 10
-17.4058367347
 20
7.233755102
 11
-12.4058367347
 21
7.233755102
  0
LINE
  5
34C
100
AcDbEntity
  8
ASSI
100
AcDbLine
 62
7
  6
CONTINUOUS
 10
-17.4058367347
 20
7.233755102
 11
-12.4058367347
 21
7.233755102
  0
LINE
  5
34D
100
AcDbEntity
  8
CURVE
100
AcDbLine
 62
253
  6
CONTINUOUS
 10
-22.0272653227
 20
7.2480407499
 11
-22.5844081854
 21
7.2480407499
  0
LINE
  5
34E
100
AcDbEntity
  8
CURVE
100
AcDbLine
 62
253
  6
CONTINUOUS
 10
-1.6085566124
 20
7.41232666
 11
-1.6180307759
 21
7.41232666
  0
LINE
  5
34F
100
AcDbEntity
  8
CURVE
100
AcDbLine
 62
253
  6
CONTINUOUS
 10
-1.5943453671
 20
7.5028025054
 11
-1.6014509902
 21
7.5028025054
  0
LINE
  5
350
100
AcDbEntity
  8
SMUSSO
100
AcDbLine
 62
7
  6
CONTINUOUS
 10
-12.4058367347
 20
7.733755102
 11
-17.4058367347
 21
7.733755102
  0
LINE
  5
351
100
AcDbEntity
  8
ASSI
100
AcDbLine
 62
7
  6
CONTINUOUS
 10
-12.4058367347
 20
7.733755102
 11
-17.4058367347
 21
7.733755102
  0
LINE
  5
352
100
AcDbEntity
  8
RACCORDO
100
AcDbLine
 62
7
  6
CONTINUOUS
 10
-1.9427578565
 20
7.833755102
 11
-2.8558367347
 21
7.833755102
  0
LINE
  5
353
100
AcDbEntity
  8
ASSI
100
AcDbLine
 62
7
  6
CONTINUOUS
 10
-1.9427578565
 20
7.833755102
 11
-2.8558367347
 21
7.833755102
  0
LINE
  5
354
100
AcDbEntity
  8
CURVE
100
AcDbLine
 62
253
  6
CONTINUOUS
 10
-22.5844081854
 20
7.8980407499
 11
-22.0272653227
 21
7.8980407499
  0
LINE
  5
355
100
AcDbEntity
  8
SMUSSO
100
AcDbLine
 62
7
  6
CONTINUOUS
 10
-12.9058367347
 20
8.233755102
 11
-16.9058367347
 21
8.233755102
  0
LINE
  5
356
100
AcDbEntity
  8
ASSI
100
AcDbLine
 62
7
  6
CONTINUOUS
 10
-12.9058367347
 20
8.233755102
 11
-16.9058367347
 21
8.233755102
  0
LINE
  5
357
100
AcDbEntity
  8
CURVE
100
AcDbLine
 62
253
  6
CONTINUOUS
 10
-1.6014509902
 20
8.2718503617
 11
-1.5943453671
 21
8.2718503617
  0
LINE
  5
358
100
AcDbEntity
  8
CURVE
100
AcDbLine
 62
253
  6
CONTINUOUS
 10
-1.6180307759
 20
8.36232666
 11
-1.6085566124
 21
8.36232666
  0
LINE
  5
359
100
AcDbEntity
  8
0
100
AcDbLine
 62
253
  6
CONTINUOUS
 10
-1.6280221892
 20
1.3626669257
 11
-1.5058367347
 21
1.3120560533
  0
LINE
  5
35A
100
AcDbEntity
  8
RACCORDO
100
AcDbLine
 62
253
  6
CONTINUOUS
 10
-1.6280221892
 20
1.3626669257
 11
-1.5058367347
 21
1.3120560533
  0
LWPOLYLINE
  5
35B
100
AcDbEntity
  8
ASSI
100
AcDbPolyline
 62
7
  6
CONTINUOUS
 90
10
 70
0
 10
-4.1092137049
 20
-4.6440761143
 10
-4.0899008381
 20
-4.6623687968
 10
-4.0691780511
 20
-4.6833104567
 10
-4.0470453437
 20
-4.7062444755
 10
-4.0232039539
 20
-4.7303826496
 10
-3.9979526437
 20
-4.7553103591
 10
-3.9721877
 20
-4.7811021192
 10
-3.9462078849
 20
-4.8075735304
 10
-3.9197144363
 20
-4.8341787607
 10
-3.892707354
 20
-4.8605824653
  0
LINE
  5
35C
100
AcDbEntity
  8
SMUSSO
100
AcDbLine
 62
7
  6
CONTINUOUS
 10
-17.4058367347
 20
7.233755102
 11
-16.9058367347
 21
6.733755102
  0
LINE
  5
35D
100
AcDbEntity
  8
ASSI
100
AcDbLine
 62
7
  6
CONTINUOUS
 10
-17.4058367347
 20
7.233755102
 11
-16.9058367347
 21
6.733755102
  0
LINE
  5
35E
100
AcDbEntity
  8
CURVE
100
AcDbLine
 62
253
  6
CONTINUOUS
 10
-22.9558367347
 20
12.8813744448
 11
-22.677265284
 21
12.6028028392
  0
LINE
  5
35F
100
AcDbEntity
  8
0
100
AcDbLine
 62
7
  6
CONTINUOUS
 10
-9.192492371
 20
-0.8795892616
 11
-9.1558367347
 21
-0.916244898
  0
LINE
  5
360
100
AcDbEntity
  8
DRAFT
100
AcDbLine
 62
7
  6
CONTINUOUS
 10
-9.192492371
 20
-0.8795892616
 11
-9.1558367347
 21
-0.916244898
  0
LINE
  5
361
100
AcDbEntity
  8
0
100
AcDbLine
 62
7
  6
CONTINUOUS
 10
-9.1558367347
 20
-0.716244898
 11
-9.192492371
 21
-0.6795892616
  0
LINE
  5
362
100
AcDbEntity
  8
DRAFT
100
AcDbLine
 62
7
  6
CONTINUOUS
 10
-9.1558367347
 20
-0.716244898
 11
-9.192492371
 21
-0.6795892616
  0
LINE
  5
363
100
AcDbEntity
  8
SMUSSO
100
AcDbLine
 62
7
  6
CONTINUOUS
 10
-12.4058367347
 20
2.733755102
 11
-12.9058367347
 21
3.233755102
  0
LINE
  5
364
100
AcDbEntity
  8
ASSI
100
AcDbLine
 62
7
  6
CONTINUOUS
 10
-12.4058367347
 20
2.733755102
 11
-12.9058367347
 21
3.233755102
  0
LINE
  5
365
100
AcDbEntity
  8
CURVE
100
AcDbLine
 62
253
  6
CONTINUOUS
 10
-19.7415510689
 20
10.433755102
 11
-19.4701224571
 21
10.1623265468
  0
LINE
  5
366
100
AcDbEntity
  8
CURVE
100
AcDbLine
 62
253
  6
CONTINUOUS
 10
-22.77012246
 20
13.5313744448
 11
-22.9558367347
 21
13.717088642
  0
LINE
  5
367
100
AcDbEntity
  8
CURVE
100
AcDbLine
 62
253
  6
CONTINUOUS
 10
-21.6558367347
 20
12.8813744448
 11
-21.8415510287
 21
13.067088642
  0
LINE
  5
368
100
AcDbEntity
  8
CURVE
100
AcDbLine
 62
253
  6
CONTINUOUS
 10
-21.9653605451
 20
9.8480409049
 11
-22.0582177018
 21
10.0956599377
  0
LWPOLYLINE
  5
369
100
AcDbEntity
  8
ASSI
100
AcDbPolyline
 62
253
  6
CONTINUOUS
 90
4
 70
0
 10
-20.0689737306
 20
-5.503077441
 10
-20.0690159091
 20
-5.5025782439
 10
-20.0690588999
 20
-5.5014614283
 10
-20.0691027029
 20
-5.4996777832
  0
LWPOLYLINE
  5
36A
100
AcDbEntity
  8
ASSI
100
AcDbPolyline
 62
253
  6
CONTINUOUS
 90
9
 70
0
 10
-23.2422772246
 20
43.2648465103
 10
-23.2423231848
 20
43.2661384194
 10
-23.242370204
 20
43.2672707094
 10
-23.2424182905
 20
43.2682419368
 10
-23.2424674361
 20
43.2690535449
 10
-23.2425171561
 20
43.2696977448
 10
-23.242567289
 20
43.2701719401
 10
-23.2426179962
 20
43.2704787272
 10
-23.2426692778
 20
43.2706181061
  0
LINE
  5
36B
100
AcDbEntity
  8
ASSI
100
AcDbLine
 62
7
  6
CONTINUOUS
 10
-23.7558367347
 20
37.983755102
 11
-23.7383816698
 21
37.4064048329
  0
LINE
  5
36C
100
AcDbEntity
  8
ASSI
100
AcDbLine
 62
7
  6
CONTINUOUS
 10
-21.9426692778
 20
-4.5744263686
 11
-21.9558367347
 21
-4.1388946288
  0
LINE
  5
36D
100
AcDbEntity
  8
ASSI
100
AcDbLine
 62
253
  6
CONTINUOUS
 10
-23.2421898744
 20
43.2618189466
 11
-23.2422772246
 21
43.2648465103
  0
LINE
  5
36E
100
AcDbEntity
  8
ASSI
100
AcDbLine
 62
253
  6
CONTINUOUS
 10
-23.242109032
 20
43.2582159865
 11
-23.2421898744
 21
43.2618189466
  0
LWPOLYLINE
  5
36F
100
AcDbEntity
  8
ASSI
100
AcDbPolyline
 62
253
  6
CONTINUOUS
 90
4
 70
0
 10
-23.0425474933
 20
43.4659869323
 10
-23.0425976472
 20
43.4683695928
 10
-23.0426483957
 20
43.4699049699
 10
-23.0426997387
 20
43.4705876451
  0
LINE
  5
370
100
AcDbEntity
  8
ASSI
100
AcDbLine
 62
253
  6
CONTINUOUS
 10
-23.2420027209
 20
43.2518400126
 11
-23.242109032
 21
43.2582159865
  0
LINE
  5
371
100
AcDbEntity
  8
ASSI
100
AcDbLine
 62
253
  6
CONTINUOUS
 10
-23.042448663
 20
43.4587169931
 11
-23.0425474933
 21
43.4659869323
  0
LINE
  5
372
100
AcDbEntity
  8
ASSI
100
AcDbLine
 62
253
  6
CONTINUOUS
 10
-23.2418948534
 20
43.2419150218
 11
-23.2420027209
 21
43.2518400126
  0
LINE
  5
373
100
AcDbEntity
  8
ASSI
100
AcDbLine
 62
253
  6
CONTINUOUS
 10
-23.0422631903
 20
43.4345364007
 11
-23.042448663
 21
43.4587169931
  0
LINE
  5
374
100
AcDbEntity
  8
ASSI
100
AcDbLine
 62
253
  6
CONTINUOUS
 10
-23.2418225814
 20
43.2284757485
 11
-23.2418948534
 21
43.2419150218
  0
LINE
  5
375
100
AcDbEntity
  8
ASSI
100
AcDbLine
 62
253
  6
CONTINUOUS
 10
-23.0419042349
 20
-4.7680492746
 11
-23.0422785938
 21
-4.6440761143
  0
LINE
  5
376
100
AcDbEntity
  8
ASSI
100
AcDbLine
 62
253
  6
CONTINUOUS
 10
-23.0418734568
 20
43.2868810674
 11
-23.0422631903
 21
43.4345364007
  0
LINE
  5
377
100
AcDbEntity
  8
ASSI
100
AcDbLine
 62
253
  6
CONTINUOUS
 10
-23.0418716298
 20
-4.7962466707
 11
-23.0419042349
 21
-4.7680492746
  0
LINE
  5
378
100
AcDbEntity
  8
ASSI
100
AcDbLine
 62
253
  6
CONTINUOUS
 10
-23.04184751
 20
-4.8330896946
 11
-23.0418716298
 21
-4.7962466707
  0
LINE
  5
379
100
AcDbEntity
  8
ASSI
100
AcDbLine
 62
253
  6
CONTINUOUS
 10
-23.0418422171
 20
-4.8605826289
 11
-23.04184751
 21
-4.8330896946
  0
LINE
  5
37A
100
AcDbEntity
  8
CURVE
100
AcDbLine
 62
253
  6
CONTINUOUS
 10
-23.0308367347
 20
19.671255102
 11
-23.0308367347
 21
19.546255102
  0
LINE
  5
37B
100
AcDbEntity
  8
CURVE
100
AcDbLine
 62
253
  6
CONTINUOUS
 10
-22.9558367347
 20
6.690897926
 11
-22.9558367347
 21
6.4123265528
  0
LINE
  5
37C
100
AcDbEntity
  8
CURVE
100
AcDbLine
 62
253
  6
CONTINUOUS
 10
-22.9558367347
 20
7.5266122006
 11
-22.9558367347
 21
7.6194694542
  0
LINE
  5
37D
100
AcDbEntity
  8
CURVE
100
AcDbLine
 62
253
  6
CONTINUOUS
 10
-22.9558367347
 20
13.717088642
 11
-22.9558367347
 21
13.8099454306
  0
LINE
  5
37E
100
AcDbEntity
  8
CURVE
100
AcDbLine
 62
253
  6
CONTINUOUS
 10
-22.5844081854
 20
15.4813744448
 11
-22.5844081854
 21
16.0385164164
  0
LINE
  5
37F
100
AcDbEntity
  8
RACCORDO
100
AcDbLine
 62
7
  6
CONTINUOUS
 10
-22.4532186744
 20
38.5100629767
 11
-22.4532186744
 21
38.5863734444
  0
LINE
  5
380
100
AcDbEntity
  8
ASSI
100
AcDbLine
 62
7
  6
CONTINUOUS
 10
-22.4532186744
 20
38.5100629767
 11
-22.4532186744
 21
38.5863734444
  0
LINE
  5
381
100
AcDbEntity
  8
CURVE
100
AcDbLine
 62
253
  6
CONTINUOUS
 10
-22.3986939108
 20
12.8813744448
 11
-22.3986939108
 21
12.4789931678
  0
LINE
  5
382
100
AcDbEntity
  8
CURVE
100
AcDbLine
 62
253
  6
CONTINUOUS
 10
-22.3986939108
 20
14.4599454306
 11
-22.3986939108
 21
15.1099454306
  0
LINE
  5
383
100
AcDbEntity
  8
CURVE
100
AcDbLine
 62
253
  6
CONTINUOUS
 10
-22.2808367347
 20
19.608755102
 11
-22.2808367347
 21
19.671255102
  0
LINE
  5
384
100
AcDbEntity
  8
ASSI
100
AcDbLine
 62
7
  6
CONTINUOUS
 10
-21.9558367347
 20
-4.1388946288
 11
-21.9558367347
 21
-3.416244898
  0
LINE
  5
385
100
AcDbEntity
  8
ASSI
100
AcDbLine
 62
7
  6
CONTINUOUS
 10
-21.9558367347
 20
41.383755102
 11
-21.9558367347
 21
42.1064048329
  0
LINE
  5
386
100
AcDbEntity
  8
ASSI
100
AcDbLine
 62
253
  6
CONTINUOUS
 10
-21.9426692778
 20
-4.5744263686
 11
-21.9426692778
 21
-3.403077441
  0
LINE
  5
387
100
AcDbEntity
  8
ASSI
100
AcDbLine
 62
253
  6
CONTINUOUS
 10
-21.9426692778
 20
41.3705876451
 11
-21.9426692778
 21
42.5419365726
  0
LINE
  5
388
100
AcDbEntity
  8
ASSI
100
AcDbLine
 62
253
  6
CONTINUOUS
 10
-21.692707354
 20
-4.8605824653
 11
-21.692707354
 21
-3.398789833
  0
LINE
  5
389
100
AcDbEntity
  8
ASSI
100
AcDbLine
 62
253
  6
CONTINUOUS
 10
-21.692707354
 20
41.3663000371
 11
-21.692707354
 21
42.8280926693
  0
LINE
  5
38A
100
AcDbEntity
  8
CURVE
100
AcDbLine
 62
253
  6
CONTINUOUS
 10
-21.6558367347
 20
13.8099454306
 11
-21.6558367347
 21
13.717088642
  0
LINE
  5
38B
100
AcDbEntity
  8
CURVE
100
AcDbLine
 62
253
  6
CONTINUOUS
 10
-21.6558367347
 20
7.6194694542
 11
-21.6558367347
 21
7.5266122006
  0
LINE
  5
38C
100
AcDbEntity
  8
CURVE
100
AcDbLine
 62
253
  6
CONTINUOUS
 10
-21.6558367347
 20
6.8766122006
 11
-21.6558367347
 21
6.2266122781
  0
LINE
  5
38D
100
AcDbEntity
  8
CURVE
100
AcDbLine
 62
253
  6
CONTINUOUS
 10
-21.6558367347
 20
12.6028028392
 11
-21.6558367347
 21
12.8813744448
  0
LINE
  5
38E
100
AcDbEntity
  8
CURVE
100
AcDbLine
 62
253
  6
CONTINUOUS
 10
-21.6558367347
 20
15.4813744448
 11
-21.6558367347
 21
16.0385164164
  0
LINE
  5
38F
100
AcDbEntity
  8
ASSI
100
AcDbLine
 62
253
  6
CONTINUOUS
 10
-21.4189661154
 20
-4.8605824653
 11
-21.4189661154
 21
-3.398789833
  0
LINE
  5
390
100
AcDbEntity
  8
ASSI
100
AcDbLine
 62
253
  6
CONTINUOUS
 10
-21.4189661154
 20
41.3663000371
 11
-21.4189661154
 21
42.8280926693
  0
LINE
  5
391
100
AcDbEntity
  8
ASSI
100
AcDbLine
 62
253
  6
CONTINUOUS
 10
-23.0420987769
 20
42.6510453828
 11
-23.0418734568
 21
43.2868810674
  0
LINE
  5
392
100
AcDbEntity
  8
ASSI
100
AcDbLine
 62
253
  6
CONTINUOUS
 10
-23.0421583551
 20
-5.4456562262
 11
-23.0418422171
 21
-4.8605826289
  0
LINE
  5
393
100
AcDbEntity
  8
ASSI
100
AcDbLine
 62
253
  6
CONTINUOUS
 10
-23.0422785942
 20
42.6115862382
 11
-23.0420987769
 21
42.6510453828
  0
LINE
  5
394
100
AcDbEntity
  8
ASSI
100
AcDbLine
 62
253
  6
CONTINUOUS
 10
-23.241864958
 20
-5.2703054573
 11
-23.2418177631
 21
-5.2589654255
  0
LINE
  5
395
100
AcDbEntity
  8
ASSI
100
AcDbLine
 62
253
  6
CONTINUOUS
 10
-23.0423757369
 20
-5.4834430198
 11
-23.0421583551
 21
-5.4456562262
  0
LINE
  5
396
100
AcDbEntity
  8
ASSI
100
AcDbLine
 62
253
  6
CONTINUOUS
 10
-23.241956959
 20
-5.2807301641
 11
-23.241864958
 21
-5.2703054573
  0
LINE
  5
397
100
AcDbEntity
  8
ASSI
100
AcDbLine
 62
253
  6
CONTINUOUS
 10
-23.242052717
 20
-5.2876078807
 11
-23.241956959
 21
-5.2807301641
  0
LINE
  5
398
100
AcDbEntity
  8
ASSI
100
AcDbLine
 62
253
  6
CONTINUOUS
 10
-23.2421278506
 20
-5.2916246557
 11
-23.242052717
 21
-5.2876078807
  0
LINE
  5
399
100
AcDbEntity
  8
ASSI
100
AcDbLine
 62
253
  6
CONTINUOUS
 10
-23.2422107328
 20
-5.2951028661
 11
-23.2421278506
 21
-5.2916246557
  0
LINE
  5
39A
100
AcDbEntity
  8
ASSI
100
AcDbLine
 62
7
  6
CONTINUOUS
 10
-23.7383816698
 20
0.5611053712
 11
-23.7558367347
 21
-0.016244898
  0
LINE
  5
39B
100
AcDbEntity
  8
ASSI
100
AcDbLine
 62
7
  6
CONTINUOUS
 10
-21.9558367347
 20
42.1064048329
 11
-21.9426692778
 21
42.5419365726
  0
LINE
  5
39C
100
AcDbEntity
  8
CURVE
100
AcDbLine
 62
253
  6
CONTINUOUS
 10
-22.9683367347
 20
19.921255102
 11
-23.0308367347
 21
19.671255102
  0
LINE
  5
39D
100
AcDbEntity
  8
CURVE
100
AcDbLine
 62
253
  6
CONTINUOUS
 10
-22.9058367347
 20
20.108755102
 11
-22.9683367347
 21
19.921255102
  0
LINE
  5
39E
100
AcDbEntity
  8
CURVE
100
AcDbLine
 62
253
  6
CONTINUOUS
 10
-22.3433367347
 20
19.421255102
 11
-22.2808367347
 21
19.608755102
  0
LINE
  5
39F
100
AcDbEntity
  8
CURVE
100
AcDbLine
 62
253
  6
CONTINUOUS
 10
-22.8433367347
 20
20.233755102
 11
-22.9058367347
 21
20.108755102
  0
LINE
  5
3A0
100
AcDbEntity
  8
CURVE
100
AcDbLine
 62
253
  6
CONTINUOUS
 10
-22.4058367347
 20
19.296255102
 11
-22.3433367347
 21
19.421255102
  0
LWPOLYLINE
  5
3A1
100
AcDbEntity
  8
ASSI
100
AcDbPolyline
 62
7
  6
CONTINUOUS
 90
10
 70
0
 10
-4.1092137049
 20
42.6115863184
 10
-4.0909210224
 20
42.6308991852
 10
-4.0699793626
 20
42.6516219723
 10
-4.0470453437
 20
42.6737546796
 10
-4.0229071696
 20
42.6975960695
 10
-3.9979794601
 20
42.7228473796
 10
-3.9721877
 20
42.7486123233
 10
-3.9457162889
 20
42.7745921384
 10
-3.9191110586
 20
42.8010855871
 10
-3.892707354
 20
42.8280926693
  0
LINE
  5
3A2
100
AcDbEntity
  8
ASSI
100
AcDbLine
 62
253
  6
CONTINUOUS
 10
-2.2558062737
 20
43.483755102
 11
-2.2689737306
 21
43.4705876451
  0
LINE
  5
3A3
100
AcDbEntity
  8
ASSI
100
AcDbLine
 62
253
  6
CONTINUOUS
 10
-2.0558367347
 20
43.283785563
 11
-2.0690041916
 21
43.2706181061
  0
LINE
  5
3A4
100
AcDbEntity
  8
0
100
AcDbLine
 62
7
  6
CONTINUOUS
 10
-6.0685680568
 20
38.7710237799
 11
-6.1558367347
 21
38.683755102
  0
LINE
  5
3A5
100
AcDbEntity
  8
ASSI
100
AcDbLine
 62
7
  6
CONTINUOUS
 10
-3.3558367347
 20
41.383755102
 11
-3.3690041916
 21
41.3705876451
  0
LINE
  5
3A6
100
AcDbEntity
  8
0
100
AcDbLine
 62
7
  6
CONTINUOUS
 10
-16.1958367347
 20
8.483755102
 11
-13.2558367347
 21
8.483755102
  0
LINE
  5
3A7
100
AcDbEntity
  8
CURVE
100
AcDbLine
 62
7
  6
CONTINUOUS
 10
-1.532286186
 20
8.8519750479
 11
-1.5358047031
 21
8.8519750479
  0
LINE
  5
3A8
100
AcDbEntity
  8
CURVE
100
AcDbLine
 62
253
  6
CONTINUOUS
 10
-1.6203993168
 20
8.905183544
 11
-1.6085566124
 21
8.905183544
  0
LINE
  5
3A9
100
AcDbEntity
  8
CURVE
100
AcDbLine
 62
253
  6
CONTINUOUS
 10
-1.6014509902
 20
8.9504219197
 11
-1.5943453671
 21
8.9504219197
  0
LINE
  5
3AA
100
AcDbEntity
  8
CURVE
100
AcDbLine
 62
7
  6
CONTINUOUS
 10
-1.5827661418
 20
9.283393102
 11
-1.5320163058
 21
9.283393102
  0
LINE
  5
3AB
100
AcDbEntity
  8
CURVE
100
AcDbLine
 62
253
  6
CONTINUOUS
 10
-18.6558367347
 20
9.483755102
 11
-20.5558367347
 21
9.483755102
  0
LINE
  5
3AC
100
AcDbEntity
  8
CURVE
100
AcDbLine
 62
7
  6
CONTINUOUS
 10
-1.5597195612
 20
9.485030102
 11
-1.5827661418
 21
9.485030102
  0
LINE
  5
3AD
100
AcDbEntity
  8
CURVE
100
AcDbLine
 62
7
  6
CONTINUOUS
 10
-1.5372977688
 20
9.485030102
 11
-1.5562010462
 21
9.485030102
  0
LINE
  5
3AE
100
AcDbEntity
  8
CURVE
100
AcDbLine
 62
7
  6
CONTINUOUS
 10
-1.5562010462
 20
10.205966102
 11
-1.5597195612
 21
10.205966102
  0
LINE
  5
3AF
100
AcDbEntity
  8
CURVE
100
AcDbLine
 62
253
  6
CONTINUOUS
 10
-22.677265284
 20
12.6028028392
 11
-22.3058367347
 21
12.417088642
  0
LINE
  5
3B0
100
AcDbEntity
  8
CURVE
100
AcDbLine
 62
253
  6
CONTINUOUS
 10
-22.5844081854
 20
13.4385170363
 11
-22.77012246
 21
13.5313744448
  0
LINE
  5
3B1
100
AcDbEntity
  8
CURVE
100
AcDbLine
 62
253
  6
CONTINUOUS
 10
-21.8415510287
 20
13.9956596278
 11
-21.6558367347
 21
13.8099454306
  0
LINE
  5
3B2
100
AcDbEntity
  8
ASSI
100
AcDbLine
 62
253
  6
CONTINUOUS
 10
-2.2689737306
 20
-5.503077441
 11
-2.2558062737
 21
-5.516244898
  0
LINE
  5
3B3
100
AcDbEntity
  8
ASSI
100
AcDbLine
 62
253
  6
CONTINUOUS
 10
-2.0690041916
 20
-5.303107902
 11
-2.0558367347
 21
-5.3162753589
  0
LINE
  5
3B4
100
AcDbEntity
  8
0
100
AcDbLine
 62
7
  6
CONTINUOUS
 10
-6.0685680568
 20
-0.8035135759
 11
-6.1558367347
 21
-0.716244898
  0
LINE
  5
3B5
100
AcDbEntity
  8
ASSI
100
AcDbLine
 62
7
  6
CONTINUOUS
 10
-3.3558367347
 20
-3.416244898
 11
-3.3690041916
 21
-3.403077441
  0
LINE
  5
3B6
100
AcDbEntity
  8
CURVE
100
AcDbLine
 62
253
  6
CONTINUOUS
 10
-23.0308367347
 20
19.546255102
 11
-22.9683367347
 21
19.358755102
  0
LINE
  5
3B7
100
AcDbEntity
  8
CURVE
100
AcDbLine
 62
253
  6
CONTINUOUS
 10
-22.2808367347
 20
19.671255102
 11
-22.2183367347
 21
19.421255102
  0
LWPOLYLINE
  5
3B8
100
AcDbEntity
  8
ASSI
100
AcDbPolyline
 62
253
  6
CONTINUOUS
 90
13
 70
0
 10
-23.2422481328
 20
42.7847913991
 10
-23.2403297784
 20
42.7623076246
 10
-23.2350602064
 20
42.7402042974
 10
-23.2265285831
 20
42.7188554272
 10
-23.214879272
 20
42.6986222575
 10
-23.2003093906
 20
42.6798471531
 10
-23.1830654755
 20
42.6628478069
 10
-23.1634393105
 20
42.6479118641
 10
-23.1417629893
 20
42.6352920555
 10
-23.1184032962
 20
42.6252019201
 10
-23.0937554998
 20
42.6178121928
 10
-23.0682366645
 20
42.6132479149
 10
-23.0422785938
 20
42.6115863184
  0
LINE
  5
3B9
100
AcDbEntity
  8
ASSI
100
AcDbLine
 62
7
  6
CONTINUOUS
 10
-21.1558367347
 20
42.1064048329
 11
-21.1690041916
 21
42.5419365726
  0
LINE
  5
3BA
100
AcDbEntity
  8
ASSI
100
AcDbLine
 62
253
  6
CONTINUOUS
 10
-19.8694056548
 20
-5.2970483623
 11
-19.8694925035
 21
-5.2939518229
  0
LINE
  5
3BB
100
AcDbEntity
  8
ASSI
100
AcDbLine
 62
253
  6
CONTINUOUS
 10
-19.8694925035
 20
-5.2939518229
 11
-19.869573248
 21
-5.2902529533
  0
LINE
  5
3BC
100
AcDbEntity
  8
ASSI
100
AcDbLine
 62
253
  6
CONTINUOUS
 10
-19.869573248
 20
-5.2902529533
 11
-19.8696795214
 21
-5.2836882019
  0
LINE
  5
3BD
100
AcDbEntity
  8
ASSI
100
AcDbLine
 62
253
  6
CONTINUOUS
 10
-20.0691027029
 20
-5.4996777832
 11
-20.0691932966
 21
-5.4939005956
  0
LINE
  5
3BE
100
AcDbEntity
  8
ASSI
100
AcDbLine
 62
253
  6
CONTINUOUS
 10
-19.8696795214
 20
-5.2836882019
 11
-19.8697863687
 21
-5.2734357107
  0
LINE
  5
3BF
100
AcDbEntity
  8
ASSI
100
AcDbLine
 62
253
  6
CONTINUOUS
 10
-20.0691932966
 20
-5.4939005956
 11
-20.0693303571
 21
-5.4792870601
  0
LINE
  5
3C0
100
AcDbEntity
  8
ASSI
100
AcDbLine
 62
253
  6
CONTINUOUS
 10
-19.8697021535
 20
42.7992736488
 11
-19.8698017452
 21
42.8098788735
  0
LINE
  5
3C1
100
AcDbEntity
  8
ASSI
100
AcDbLine
 62
253
  6
CONTINUOUS
 10
-19.8697863687
 20
-5.2734357107
 11
-19.8698477113
 21
-5.2620352353
  0
LINE
  5
3C2
100
AcDbEntity
  8
ASSI
100
AcDbLine
 62
253
  6
CONTINUOUS
 10
-19.8698017452
 20
42.8098788735
 11
-19.8698548804
 21
42.8218631126
  0
LINE
  5
3C3
100
AcDbEntity
  8
ASSI
100
AcDbLine
 62
253
  6
CONTINUOUS
 10
-20.0693303571
 20
-5.4792870601
 11
-20.0696797374
 21
-5.3938625658
  0
LINE
  5
3C4
100
AcDbEntity
  8
ASSI
100
AcDbLine
 62
253
  6
CONTINUOUS
 10
-20.0693948756
 20
42.6115863184
 11
-20.0697263242
 21
42.709335602
  0
LINE
  5
3C5
100
AcDbEntity
  8
ASSI
100
AcDbLine
 62
253
  6
CONTINUOUS
 10
-21.1690041916
 20
-4.5744263686
 11
-21.1690041916
 21
-3.403077441
  0
LINE
  5
3C6
100
AcDbEntity
  8
ASSI
100
AcDbLine
 62
253
  6
CONTINUOUS
 10
-21.1690041916
 20
41.3705876451
 11
-21.1690041916
 21
42.5419365726
  0
LINE
  5
3C7
100
AcDbEntity
  8
ASSI
100
AcDbLine
 62
7
  6
CONTINUOUS
 10
-21.1558367347
 20
-4.1388946288
 11
-21.1558367347
 21
-3.416244898
  0
LINE
  5
3C8
100
AcDbEntity
  8
CURVE
100
AcDbLine
 62
253
  6
CONTINUOUS
 10
-21.1558367347
 20
19.483755102
 11
-21.1558367347
 21
19.671255102
  0
LINE
  5
3C9
100
AcDbEntity
  8
ASSI
100
AcDbLine
 62
7
  6
CONTINUOUS
 10
-21.1558367347
 20
41.383755102
 11
-21.1558367347
 21
42.1064048329
  0
LINE
  5
3CA
100
AcDbEntity
  8
ASSI
100
AcDbLine
 62
7
  6
CONTINUOUS
 10
-20.8883816698
 20
40.3888685122
 11
-20.8883816698
 21
39.883755102
  0
LINE
  5
3CB
100
AcDbEntity
  8
ASSI
100
AcDbLine
 62
7
  6
CONTINUOUS
 10
-20.8883816698
 20
-2.4213583081
 11
-20.8883816698
 21
-1.916244898
  0
LINE
  5
3CC
100
AcDbEntity
  8
ASSI
100
AcDbLine
 62
7
  6
CONTINUOUS
 10
-20.7138310205
 20
-2.2415419206
 11
-20.7138310205
 21
-2.0035135759
  0
LINE
  5
3CD
100
AcDbEntity
  8
ASSI
100
AcDbLine
 62
7
  6
CONTINUOUS
 10
-20.7138310205
 20
39.9710237799
 11
-20.7138310205
 21
40.2090521247
  0
LINE
  5
3CE
100
AcDbEntity
  8
CURVE
100
AcDbLine
 62
253
  6
CONTINUOUS
 10
-20.5558367347
 20
9.483755102
 11
-20.5558367347
 21
10.1623265468
  0
LINE
  5
3CF
100
AcDbEntity
  8
CURVE
100
AcDbLine
 62
253
  6
CONTINUOUS
 10
-20.5558367347
 20
19.7551836856
 11
-20.5558367347
 21
20.2980408244
  0
LINE
  5
3D0
100
AcDbEntity
  8
0
100
AcDbLine
 62
7
  6
CONTINUOUS
 10
-20.092492371
 20
-1.866244898
 11
-20.092492371
 21
-0.6795892616
  0
LINE
  5
3D1
100
AcDbEntity
  8
DRAFT
100
AcDbLine
 62
7
  6
CONTINUOUS
 10
-20.092492371
 20
-1.866244898
 11
-20.092492371
 21
-0.6795892616
  0
LINE
  5
3D2
100
AcDbEntity
  8
0
100
AcDbLine
 62
7
  6
CONTINUOUS
 10
-20.092492371
 20
38.6470994657
 11
-20.092492371
 21
39.833755102
  0
LINE
  5
3D3
100
AcDbEntity
  8
DRAFT
100
AcDbLine
 62
7
  6
CONTINUOUS
 10
-20.092492371
 20
38.6470994657
 11
-20.092492371
 21
39.833755102
  0
LINE
  5
3D4
100
AcDbEntity
  8
ASSI
100
AcDbLine
 62
253
  6
CONTINUOUS
 10
-20.0696797374
 20
-5.3938625658
 11
-20.0698312522
 21
-5.2531155173
  0
LINE
  5
3D5
100
AcDbEntity
  8
0
100
AcDbLine
 62
7
  6
CONTINUOUS
 10
-20.0558367347
 20
-1.866244898
 11
-20.0558367347
 21
-0.716244898
  0
LINE
  5
3D6
100
AcDbEntity
  8
DRAFT
100
AcDbLine
 62
7
  6
CONTINUOUS
 10
-20.0558367347
 20
-1.866244898
 11
-20.0558367347
 21
-0.716244898
  0
LINE
  5
3D7
100
AcDbEntity
  8
0
100
AcDbLine
 62
7
  6
CONTINUOUS
 10
-20.0558367347
 20
38.683755102
 11
-20.0558367347
 21
39.833755102
  0
LINE
  5
3D8
100
AcDbEntity
  8
DRAFT
100
AcDbLine
 62
7
  6
CONTINUOUS
 10
-20.0558367347
 20
38.683755102
 11
-20.0558367347
 21
39.833755102
  0
LINE
  5
3D9
100
AcDbEntity
  8
0
100
AcDbLine
 62
7
  6
CONTINUOUS
 10
-19.9558367347
 20
-0.716244898
 11
-19.9558367347
 21
-1.916244898
  0
LINE
  5
3DA
100
AcDbEntity
  8
0
100
AcDbLine
 62
7
  6
CONTINUOUS
 10
-19.9558367347
 20
38.683755102
 11
-19.9558367347
 21
39.883755102
  0
LINE
  5
3DB
100
AcDbEntity
  8
ASSI
100
AcDbLine
 62
7
  6
CONTINUOUS
 10
-19.8685680568
 20
39.9710237799
 11
-19.8685680568
 21
38.7710237799
  0
LINE
  5
3DC
100
AcDbEntity
  8
ASSI
100
AcDbLine
 62
7
  6
CONTINUOUS
 10
-19.8685680568
 20
-0.8035135759
 11
-19.8685680568
 21
-2.0035135759
  0
LINE
  5
3DD
100
AcDbEntity
  8
ASSI
100
AcDbLine
 62
7
  6
CONTINUOUS
 10
-19.8558367347
 20
-5.3162753589
 11
-19.8558367347
 21
-3.416244898
  0
LINE
  5
3DE
100
AcDbEntity
  8
ASSI
100
AcDbLine
 62
7
  6
CONTINUOUS
 10
-19.8558367347
 20
41.383755102
 11
-19.8558367347
 21
43.283785563
  0
LINE
  5
3DF
100
AcDbEntity
  8
ASSI
100
AcDbLine
 62
253
  6
CONTINUOUS
 10
-20.0697263242
 20
42.709335602
 11
-20.0698305226
 21
43.2326508472
  0
LINE
  5
3E0
100
AcDbEntity
  8
ASSI
100
AcDbLine
 62
253
  6
CONTINUOUS
 10
-19.8698548804
 20
42.8218631126
 11
-19.8698609873
 21
43.2230438642
  0
LINE
  5
3E1
100
AcDbEntity
  8
ASSI
100
AcDbLine
 62
253
  6
CONTINUOUS
 10
-19.8698477113
 20
-5.2620352353
 11
-19.8698609637
 21
-4.8581126075
  0
LINE
  5
3E2
100
AcDbEntity
  8
ASSI
100
AcDbLine
 62
253
  6
CONTINUOUS
 10
-20.0698312522
 20
-5.2531155173
 11
-20.0697015307
 21
-4.7294420378
  0
LINE
  5
3E3
100
AcDbEntity
  8
ASSI
100
AcDbLine
 62
253
  6
CONTINUOUS
 10
-20.0698305226
 20
43.2326508472
 11
-20.0696497456
 21
43.3732616447
  0
LINE
  5
3E4
100
AcDbEntity
  8
ASSI
100
AcDbLine
 62
253
  6
CONTINUOUS
 10
-19.8698609873
 20
43.2230438642
 11
-19.869820167
 21
43.2358684921
  0
LINE
  5
3E5
100
AcDbEntity
  8
ASSI
100
AcDbLine
 62
253
  6
CONTINUOUS
 10
-19.8698609637
 20
-4.8581126075
 11
-19.8698182576
 21
-4.8450020709
  0
LINE
  5
3E6
100
AcDbEntity
  8
ASSI
100
AcDbLine
 62
253
  6
CONTINUOUS
 10
-20.0697015307
 20
-4.7294420378
 11
-20.0693948756
 21
-4.6440761143
  0
LINE
  5
3E7
100
AcDbEntity
  8
ASSI
100
AcDbLine
 62
253
  6
CONTINUOUS
 10
-20.0696497456
 20
43.3732616447
 11
-20.0693271251
 21
43.4472356427
  0
LINE
  5
3E8
100
AcDbEntity
  8
ASSI
100
AcDbLine
 62
253
  6
CONTINUOUS
 10
-19.869820167
 20
43.2358684921
 11
-19.8697381232
 21
43.2462665059
  0
LWPOLYLINE
  5
3E9
100
AcDbEntity
  8
ASSI
100
AcDbPolyline
 62
253
  6
CONTINUOUS
 90
3
 70
0
 10
-19.8698182576
 20
-4.8450020709
 10
-19.8697319505
 20
-4.8343597704
 10
-19.8697027118
 20
-4.8318111337
  0
LWPOLYLINE
  5
3EA
100
AcDbEntity
  8
ASSI
100
AcDbPolyline
 62
253
  6
CONTINUOUS
 90
6
 70
0
 10
-20.0693271251
 20
43.4472356427
 10
-20.0691800817
 20
43.4624406713
 10
-20.0691293031
 20
43.4658003255
 10
-20.0690780707
 20
43.4682830816
 10
-20.0690262132
 20
43.4698806292
 10
-20.0689737306
 20
43.4705876451
  0
LINE
  5
3EB
100
AcDbEntity
  8
ASSI
100
AcDbLine
 62
253
  6
CONTINUOUS
 10
-19.8697381232
 20
43.2462665059
 11
-19.8696472933
 21
43.2534464261
  0
LINE
  5
3EC
100
AcDbEntity
  8
ASSI
100
AcDbLine
 62
253
  6
CONTINUOUS
 10
-19.8696472933
 20
43.2534464261
 11
-19.869574261
 21
43.2577148257
  0
LINE
  5
3ED
100
AcDbEntity
  8
ASSI
100
AcDbLine
 62
253
  6
CONTINUOUS
 10
-19.869574261
 20
43.2577148257
 11
-19.8694927822
 21
43.2614515144
  0
LWPOLYLINE
  5
3EE
100
AcDbEntity
  8
ASSI
100
AcDbPolyline
 62
253
  6
CONTINUOUS
 90
10
 70
0
 10
-19.8694927822
 20
43.2614515144
 10
-19.8694042493
 20
43.264601131
 10
-19.8693575111
 20
43.2659476897
 10
-19.8693096287
 20
43.2671283411
 10
-19.869260588
 20
43.2681412739
 10
-19.8692104031
 20
43.2689882996
 10
-19.8691596168
 20
43.2696603977
 10
-19.8691084098
 20
43.2701545614
 10
-19.8690566015
 20
43.2704737976
 10
-19.8690041916
 20
43.2706181061
  0
LINE
  5
3EF
100
AcDbEntity
  8
ASSI
100
AcDbLine
 62
7
  6
CONTINUOUS
 10
-21.1690041916
 20
-4.5744263686
 11
-21.1558367347
 21
-4.1388946288
  0
LWPOLYLINE
  5
3F0
100
AcDbEntity
  8
ASSI
100
AcDbPolyline
 62
253
  6
CONTINUOUS
 90
6
 70
0
 10
-23.0426997387
 20
-5.503077441
 10
-23.0426545837
 20
-5.5025213027
 10
-23.0426089865
 20
-5.5012721011
 10
-23.0425629471
 20
-5.4992923328
 10
-23.0425161913
 20
-5.4965394619
 10
-23.0423757369
 20
-5.4834430198
  0
LWPOLYLINE
  5
3F1
100
AcDbEntity
  8
ASSI
100
AcDbPolyline
 62
253
  6
CONTINUOUS
 90
13
 70
0
 10
-23.2422481328
 20
-4.8172811951
 10
-23.2403297785
 20
-4.7947974213
 10
-23.2350602068
 20
-4.7726940946
 10
-23.226528584
 20
-4.7513452248
 10
-23.2148792733
 20
-4.7311120553
 10
-23.2003093923
 20
-4.7123369509
 10
-23.1830654776
 20
-4.6953376045
 10
-23.1634393128
 20
-4.6804016615
 10
-23.1417629915
 20
-4.6677818524
 10
-23.1184032982
 20
-4.6576917167
 10
-23.0937555013
 20
-4.6503019891
 10
-23.0682366653
 20
-4.6457377109
 10
-23.0422785938
 20
-4.6440761143
  0
LINE
  5
3F2
100
AcDbEntity
  8
CURVE
100
AcDbLine
 62
253
  6
CONTINUOUS
 10
-21.2183367347
 20
19.296255102
 11
-21.1558367347
 21
19.483755102
  0
LINE
  5
3F3
100
AcDbEntity
  8
CURVE
100
AcDbLine
 62
253
  6
CONTINUOUS
 10
-21.2808367347
 20
19.171255102
 11
-21.2183367347
 21
19.296255102
  0
LINE
  5
3F4
100
AcDbEntity
  8
ASSI
100
AcDbLine
 62
253
  6
CONTINUOUS
 10
-2.0558366701
 20
41.3837550375
 11
-2.0732156472
 21
41.3663000371
  0
LINE
  5
3F5
100
AcDbEntity
  8
ASSI
100
AcDbLine
 62
253
  6
CONTINUOUS
 10
-1.5558367347
 20
40.8838312545
 11
-1.5732917996
 21
40.8663761895
  0
LINE
  5
3F6
100
AcDbEntity
  8
CURVE
100
AcDbLine
 62
253
  6
CONTINUOUS
 10
-22.4683367347
 20
19.233755102
 11
-22.4058367347
 21
19.296255102
  0
LINE
  5
3F7
100
AcDbEntity
  8
CURVE
100
AcDbLine
 62
253
  6
CONTINUOUS
 10
-1.5896082856
 20
10.2623264335
 11
-1.6227678578
 21
10.2623264335
  0
LINE
  5
3F8
100
AcDbEntity
  8
CURVE
100
AcDbLine
 62
253
  6
CONTINUOUS
 10
-20.2844081794
 20
10.433755102
 11
-19.7415510689
 21
10.433755102
  0
LINE
  5
3F9
100
AcDbEntity
  8
CURVE
100
AcDbLine
 62
253
  6
CONTINUOUS
 10
-1.60381953
 20
11.348040881
 11
-1.5943453671
 21
11.348040881
  0
LINE
  5
3FA
100
AcDbEntity
  8
0
100
AcDbLine
 62
7
  6
CONTINUOUS
 10
-13.2558367347
 20
11.483755102
 11
-16.1958367347
 21
11.483755102
  0
LINE
  5
3FB
100
AcDbEntity
  8
SMUSSO
100
AcDbLine
 62
7
  6
CONTINUOUS
 10
-16.9058367347
 20
11.733755102
 11
-12.9058367347
 21
11.733755102
  0
LINE
  5
3FC
100
AcDbEntity
  8
ASSI
100
AcDbLine
 62
7
  6
CONTINUOUS
 10
-16.9058367347
 20
11.733755102
 11
-12.9058367347
 21
11.733755102
  0
LINE
  5
3FD
100
AcDbEntity
  8
CURVE
100
AcDbLine
 62
253
  6
CONTINUOUS
 10
-22.0272653227
 20
14.0885170363
 11
-21.8415510287
 21
13.9956596278
  0
LINE
  5
3FE
100
AcDbEntity
  8
CURVE
100
AcDbLine
 62
253
  6
CONTINUOUS
 10
-22.5844081854
 20
16.0385164164
 11
-21.6558367347
 21
15.4813744448
  0
LINE
  5
3FF
100
AcDbEntity
  8
SMUSSO
100
AcDbLine
 62
7
  6
CONTINUOUS
 10
-17.4058367347
 20
12.233755102
 11
-16.9058367347
 21
11.733755102
  0
LINE
  5
400
100
AcDbEntity
  8
ASSI
100
AcDbLine
 62
7
  6
CONTINUOUS
 10
-17.4058367347
 20
12.233755102
 11
-16.9058367347
 21
11.733755102
  0
LINE
  5
401
100
AcDbEntity
  8
SMUSSO
100
AcDbLine
 62
7
  6
CONTINUOUS
 10
-12.4058367347
 20
7.733755102
 11
-12.9058367347
 21
8.233755102
  0
LINE
  5
402
100
AcDbEntity
  8
ASSI
100
AcDbLine
 62
7
  6
CONTINUOUS
 10
-12.4058367347
 20
7.733755102
 11
-12.9058367347
 21
8.233755102
  0
LINE
  5
403
100
AcDbEntity
  8
ASSI
100
AcDbLine
 62
253
  6
CONTINUOUS
 10
-1.5732917996
 20
-2.8988659855
 11
-1.5558367347
 21
-2.9163210504
  0
LINE
  5
404
100
AcDbEntity
  8
CURVE
100
AcDbLine
 62
253
  6
CONTINUOUS
 10
-22.9683367347
 20
19.358755102
 11
-22.8433367347
 21
19.233755102
  0
LINE
  5
405
100
AcDbEntity
  8
ASSI
100
AcDbLine
 62
253
  6
CONTINUOUS
 10
-2.0732156472
 20
-3.398789833
 11
-2.0558367347
 21
-3.416244898
  0
LINE
  5
406
100
AcDbEntity
  8
CURVE
100
AcDbLine
 62
253
  6
CONTINUOUS
 10
-22.2183367347
 20
19.421255102
 11
-22.0933367347
 21
19.171255102
  0
LINE
  5
407
100
AcDbEntity
  8
CURVE
100
AcDbLine
 62
253
  6
CONTINUOUS
 10
-21.1558367347
 20
19.671255102
 11
-21.2183367347
 21
19.921255102
  0
LWPOLYLINE
  5
408
100
AcDbEntity
  8
RACCORDO
100
AcDbPolyline
 62
7
  6
CONTINUOUS
 90
13
 70
0
 10
-17.1058367347
 20
-4.7662829742
 10
-17.1036989045
 20
-4.7989106327
 10
-17.097321184
 20
-4.8309796056
 10
-17.0868124575
 20
-4.8619415073
 10
-17.0723521561
 20
-4.8912670784
 10
-17.0541874222
 20
-4.9184543358
 10
-17.0326292
 20
-4.9430373632
 10
-17.0080461725
 20
-4.9645955854
 10
-16.9808589152
 20
-4.9827603194
 10
-16.9515333441
 20
-4.9972206208
 10
-16.9205714423
 20
-5.0077293473
 10
-16.8885024695
 20
-5.0141070677
 10
-16.8558748109
 20
-5.016244898
  0
LWPOLYLINE
  5
409
100
AcDbEntity
  8
ASSI
100
AcDbPolyline
 62
7
  6
CONTINUOUS
 90
13
 70
0
 10
-19.8558367347
 20
43.283785563
 10
-19.8575469989
 20
43.3098876899
 10
-19.8626491752
 20
43.3355428681
 10
-19.8710561565
 20
43.3603123895
 10
-19.8826243976
 20
43.3837728464
 10
-19.8971561847
 20
43.4055226523
 10
-19.9144027625
 20
43.4251890743
 10
-19.9340691845
 20
43.442435652
 10
-19.9558189903
 20
43.4569674392
 10
-19.9792794472
 20
43.4685356803
 10
-20.0040489686
 20
43.4769426615
 10
-20.0297041469
 20
43.4820448378
 10
-20.0558062737
 20
43.483755102
  0
LINE
  5
40A
100
AcDbEntity
  8
ASSI
100
AcDbLine
 62
253
  6
CONTINUOUS
 10
-20.0541216938
 20
42.1064048329
 11
-20.0693948756
 21
42.6115863184
  0
LINE
  5
40B
100
AcDbEntity
  8
ASSI
100
AcDbLine
 62
253
  6
CONTINUOUS
 10
-19.8558367347
 20
42.3353297102
 11
-19.8694622976
 21
42.7860635136
  0
LINE
  5
40C
100
AcDbEntity
  8
ASSI
100
AcDbLine
 62
253
  6
CONTINUOUS
 10
-19.8694622976
 20
42.7860635136
 11
-19.8695346252
 21
42.7890704554
  0
LINE
  5
40D
100
AcDbEntity
  8
ASSI
100
AcDbLine
 62
253
  6
CONTINUOUS
 10
-19.8695346252
 20
42.7890704554
 11
-19.8696391306
 21
42.7947376504
  0
LINE
  5
40E
100
AcDbEntity
  8
ASSI
100
AcDbLine
 62
253
  6
CONTINUOUS
 10
-19.8696391306
 20
42.7947376504
 11
-19.8697021535
 21
42.7992736488
  0
LINE
  5
40F
100
AcDbEntity
  8
CURVE
100
AcDbLine
 62
253
  6
CONTINUOUS
 10
-19.4701224571
 20
10.1623265468
 11
-19.4701224571
 21
9.483755102
  0
LINE
  5
410
100
AcDbEntity
  8
ASSI
100
AcDbLine
 62
7
  6
CONTINUOUS
 10
-19.2431054126
 20
-2.0907955472
 11
-19.2431054126
 21
-0.8035135759
  0
LINE
  5
411
100
AcDbEntity
  8
ASSI
100
AcDbLine
 62
7
  6
CONTINUOUS
 10
-19.2431054126
 20
38.7710237799
 11
-19.2431054126
 21
40.0583057513
  0
LINE
  5
412
100
AcDbEntity
  8
0
100
AcDbLine
 62
7
  6
CONTINUOUS
 10
-19.1558367347
 20
-0.716244898
 11
-19.1558367347
 21
-1.916244898
  0
LINE
  5
413
100
AcDbEntity
  8
0
100
AcDbLine
 62
7
  6
CONTINUOUS
 10
-19.1558367347
 20
38.683755102
 11
-19.1558367347
 21
39.883755102
  0
LINE
  5
414
100
AcDbEntity
  8
CURVE
100
AcDbLine
 62
253
  6
CONTINUOUS
 10
-18.6558367347
 20
4.683755102
 11
-18.6558367347
 21
5.3623265468
  0
LINE
  5
415
100
AcDbEntity
  8
CURVE
100
AcDbLine
 62
253
  6
CONTINUOUS
 10
-18.6558367347
 20
19.6194693938
 11
-18.6558367347
 21
20.1623265468
  0
LINE
  5
416
100
AcDbEntity
  8
0
100
AcDbLine
 62
7
  6
CONTINUOUS
 10
-17.9558367347
 20
-1.016244898
 11
-17.9558367347
 21
-1.916244898
  0
LINE
  5
417
100
AcDbEntity
  8
0
100
AcDbLine
 62
7
  6
CONTINUOUS
 10
-17.9558367347
 20
38.983755102
 11
-17.9558367347
 21
39.883755102
  0
LINE
  5
418
100
AcDbEntity
  8
ASSI
100
AcDbLine
 62
253
  6
CONTINUOUS
 10
-19.8697027118
 20
-4.8318111337
 11
-19.8695980546
 21
-4.8247765751
  0
LINE
  5
419
100
AcDbEntity
  8
ASSI
100
AcDbLine
 62
253
  6
CONTINUOUS
 10
-19.8695980546
 20
-4.8247765751
 11
-19.8695160901
 21
-4.8207350078
  0
LINE
  5
41A
100
AcDbEntity
  8
ASSI
100
AcDbLine
 62
253
  6
CONTINUOUS
 10
-19.8695160901
 20
-4.8207350078
 11
-19.8694253366
 21
-4.8172811951
  0
LINE
  5
41B
100
AcDbEntity
  8
ASSI
100
AcDbLine
 62
253
  6
CONTINUOUS
 10
-20.0693948756
 20
-4.6440761143
 11
-20.0541216938
 21
-4.1388946288
  0
LINE
  5
41C
100
AcDbEntity
  8
ASSI
100
AcDbLine
 62
253
  6
CONTINUOUS
 10
-19.8694253366
 20
-4.8172811951
 11
-19.8558367347
 21
-4.3678195061
  0
LWPOLYLINE
  5
41D
100
AcDbEntity
  8
RACCORDO
100
AcDbPolyline
 62
7
  6
CONTINUOUS
 90
13
 70
0
 10
-17.1058367347
 20
42.7337931783
 10
-17.1036989045
 20
42.7664208368
 10
-17.097321184
 20
42.7984898097
 10
-17.0868124575
 20
42.8294517114
 10
-17.0723521561
 20
42.8587772825
 10
-17.0541874222
 20
42.8859645398
 10
-17.0326292
 20
42.9105475673
 10
-17.0080461725
 20
42.9321057895
 10
-16.9808589152
 20
42.9502705235
 10
-16.9515333441
 20
42.9647308248
 10
-16.9205714423
 20
42.9752395514
 10
-16.8885024695
 20
42.9816172718
 10
-16.8558748109
 20
42.983755102
  0
LWPOLYLINE
  5
41E
100
AcDbEntity
  8
ASSI
100
AcDbPolyline
 62
7
  6
CONTINUOUS
 90
13
 70
0
 10
-19.8558367347
 20
-5.3162753589
 10
-19.8575469989
 20
-5.3423774858
 10
-19.8626491752
 20
-5.368032664
 10
-19.8710561565
 20
-5.3928021855
 10
-19.8826243976
 20
-5.4162626423
 10
-19.8971561847
 20
-5.4380124482
 10
-19.9144027625
 20
-5.4576788702
 10
-19.9340691845
 20
-5.4749254479
 10
-19.9558189903
 20
-5.4894572351
 10
-19.9792794472
 20
-5.5010254762
 10
-20.0040489686
 20
-5.5094324574
 10
-20.0297041469
 20
-5.5145346338
 10
-20.0558062737
 20
-5.516244898
  0
LWPOLYLINE
  5
41F
100
AcDbEntity
  8
0
100
AcDbPolyline
 62
253
  6
CONTINUOUS
 90
4
 70
0
 10
-10.6735902889
 20
36.4428180079
 10
-10.6954515591
 20
36.4004897717
 10
-10.7253767997
 20
36.3619686804
 10
-10.762514544
 20
36.3285692729
  0
LWPOLYLINE
  5
420
100
AcDbEntity
  8
RACCORDO
100
AcDbPolyline
 62
253
  6
CONTINUOUS
 90
4
 70
0
 10
-10.6735902889
 20
36.4428180079
 10
-10.6954515591
 20
36.4004897717
 10
-10.7253767997
 20
36.3619686804
 10
-10.762514544
 20
36.3285692729
  0
LINE
  5
421
100
AcDbEntity
  8
CURVE
100
AcDbLine
 62
253
  6
CONTINUOUS
 10
-19.1986939018
 20
20.433755102
 11
-20.0129796242
 21
19.483755102
  0
LINE
  5
422
100
AcDbEntity
  8
CURVE
100
AcDbLine
 62
253
  6
CONTINUOUS
 10
-20.5558367347
 20
20.2980408244
 11
-20.4201224004
 21
20.433755102
  0
LINE
  5
423
100
AcDbEntity
  8
CURVE
100
AcDbLine
 62
253
  6
CONTINUOUS
 10
-21.4058367347
 20
19.046255102
 11
-21.2808367347
 21
19.171255102
  0
LINE
  5
424
100
AcDbEntity
  8
RACCORDO
100
AcDbLine
 62
7
  6
CONTINUOUS
 10
-1.9427578565
 20
12.133755102
 11
-2.8558367347
 21
12.133755102
  0
LINE
  5
425
100
AcDbEntity
  8
ASSI
100
AcDbLine
 62
7
  6
CONTINUOUS
 10
-1.9427578565
 20
12.133755102
 11
-2.8558367347
 21
12.133755102
  0
LINE
  5
426
100
AcDbEntity
  8
SMUSSO
100
AcDbLine
 62
7
  6
CONTINUOUS
 10
-17.4058367347
 20
12.233755102
 11
-12.4058367347
 21
12.233755102
  0
LINE
  5
427
100
AcDbEntity
  8
ASSI
100
AcDbLine
 62
7
  6
CONTINUOUS
 10
-17.4058367347
 20
12.233755102
 11
-12.4058367347
 21
12.233755102
  0
LINE
  5
428
100
AcDbEntity
  8
CURVE
100
AcDbLine
 62
253
  6
CONTINUOUS
 10
-1.5943453671
 20
12.2980407678
 11
-1.60381953
 21
12.2980407678
  0
LINE
  5
429
100
AcDbEntity
  8
CURVE
100
AcDbLine
 62
253
  6
CONTINUOUS
 10
-22.3058367347
 20
12.417088642
 11
-21.8415510287
 21
12.417088642
  0
LINE
  5
42A
100
AcDbEntity
  8
SMUSSO
100
AcDbLine
 62
7
  6
CONTINUOUS
 10
-12.4058367347
 20
12.733755102
 11
-17.4058367347
 21
12.733755102
  0
LINE
  5
42B
100
AcDbEntity
  8
ASSI
100
AcDbLine
 62
7
  6
CONTINUOUS
 10
-12.4058367347
 20
12.733755102
 11
-17.4058367347
 21
12.733755102
  0
LINE
  5
42C
100
AcDbEntity
  8
RACCORDO
100
AcDbLine
 62
7
  6
CONTINUOUS
 10
-1.9427578565
 20
12.833755102
 11
-2.8558367347
 21
12.833755102
  0
LINE
  5
42D
100
AcDbEntity
  8
ASSI
100
AcDbLine
 62
7
  6
CONTINUOUS
 10
-1.9427578565
 20
12.833755102
 11
-2.8558367347
 21
12.833755102
  0
LINE
  5
42E
100
AcDbEntity
  8
CURVE
100
AcDbLine
 62
253
  6
CONTINUOUS
 10
-1.5896082856
 20
12.8408979349
 11
-1.6227678578
 21
12.8408979349
  0
LINE
  5
42F
100
AcDbEntity
  8
CURVE
100
AcDbLine
 62
253
  6
CONTINUOUS
 10
-21.8415510287
 20
13.067088642
 11
-22.2129795974
 21
13.067088642
  0
LINE
  5
430
100
AcDbEntity
  8
SMUSSO
100
AcDbLine
 62
7
  6
CONTINUOUS
 10
-12.9058367347
 20
13.233755102
 11
-16.9058367347
 21
13.233755102
  0
LINE
  5
431
100
AcDbEntity
  8
ASSI
100
AcDbLine
 62
7
  6
CONTINUOUS
 10
-12.9058367347
 20
13.233755102
 11
-16.9058367347
 21
13.233755102
  0
LINE
  5
432
100
AcDbEntity
  8
CURVE
100
AcDbLine
 62
253
  6
CONTINUOUS
 10
-22.0272653227
 20
13.4385170363
 11
-22.5844081854
 21
13.4385170363
  0
LINE
  5
433
100
AcDbEntity
  8
0
100
AcDbLine
 62
7
  6
CONTINUOUS
 10
-16.1958367347
 20
13.483755102
 11
-13.2558367347
 21
13.483755102
  0
LINE
  5
434
100
AcDbEntity
  8
CURVE
100
AcDbLine
 62
253
  6
CONTINUOUS
 10
-22.0933367347
 20
19.171255102
 11
-21.9683367347
 21
19.046255102
  0
LINE
  5
435
100
AcDbEntity
  8
CURVE
100
AcDbLine
 62
253
  6
CONTINUOUS
 10
-21.3433367347
 20
20.108755102
 11
-21.4683367347
 21
20.233755102
  0
LINE
  5
436
100
AcDbEntity
  8
CURVE
100
AcDbLine
 62
253
  6
CONTINUOUS
 10
-21.2183367347
 20
19.921255102
 11
-21.3433367347
 21
20.108755102
  0
LINE
  5
437
100
AcDbEntity
  8
ASSI
100
AcDbLine
 62
7
  6
CONTINUOUS
 10
-17.7812860854
 20
-2.0907955472
 11
-17.7812860854
 21
-1.1035135759
  0
LINE
  5
438
100
AcDbEntity
  8
ASSI
100
AcDbLine
 62
7
  6
CONTINUOUS
 10
-17.7812860854
 20
39.0710237799
 11
-17.7812860854
 21
40.0583057513
  0
LINE
  5
439
100
AcDbEntity
  8
SMUSSO
100
AcDbLine
 62
7
  6
CONTINUOUS
 10
-17.4058367347
 20
2.733755102
 11
-17.4058367347
 21
7.233755102
  0
LINE
  5
43A
100
AcDbEntity
  8
ASSI
100
AcDbLine
 62
7
  6
CONTINUOUS
 10
-17.4058367347
 20
2.733755102
 11
-17.4058367347
 21
7.233755102
  0
LINE
  5
43B
100
AcDbEntity
  8
SMUSSO
100
AcDbLine
 62
7
  6
CONTINUOUS
 10
-17.4058367347
 20
7.733755102
 11
-17.4058367347
 21
12.233755102
  0
LINE
  5
43C
100
AcDbEntity
  8
ASSI
100
AcDbLine
 62
7
  6
CONTINUOUS
 10
-17.4058367347
 20
7.733755102
 11
-17.4058367347
 21
12.233755102
  0
LINE
  5
43D
100
AcDbEntity
  8
SMUSSO
100
AcDbLine
 62
7
  6
CONTINUOUS
 10
-17.4058367347
 20
12.733755102
 11
-17.4058367347
 21
17.233755102
  0
LINE
  5
43E
100
AcDbEntity
  8
ASSI
100
AcDbLine
 62
7
  6
CONTINUOUS
 10
-17.4058367347
 20
12.733755102
 11
-17.4058367347
 21
17.233755102
  0
LINE
  5
43F
100
AcDbEntity
  8
SMUSSO
100
AcDbLine
 62
7
  6
CONTINUOUS
 10
-17.4058367347
 20
17.483755102
 11
-17.4058367347
 21
22.483755102
  0
LINE
  5
440
100
AcDbEntity
  8
ASSI
100
AcDbLine
 62
7
  6
CONTINUOUS
 10
-17.4058367347
 20
17.483755102
 11
-17.4058367347
 21
22.483755102
  0
LINE
  5
441
100
AcDbEntity
  8
RACCORDO
100
AcDbLine
 62
7
  6
CONTINUOUS
 10
-17.1058367347
 20
42.7337931783
 11
-17.1058367347
 21
42.4017000492
  0
LINE
  5
442
100
AcDbEntity
  8
ASSI
100
AcDbLine
 62
7
  6
CONTINUOUS
 10
-17.1058367347
 20
41.9658101549
 11
-17.1058367347
 21
41.383755102
  0
LINE
  5
443
100
AcDbEntity
  8
ASSI
100
AcDbLine
 62
7
  6
CONTINUOUS
 10
-17.1058367347
 20
-3.416244898
 11
-17.1058367347
 21
-3.9982999508
  0
LINE
  5
444
100
AcDbEntity
  8
RACCORDO
100
AcDbLine
 62
7
  6
CONTINUOUS
 10
-17.1058367347
 20
-4.4341898451
 11
-17.1058367347
 21
-4.7662829742
  0
LINE
  5
445
100
AcDbEntity
  8
ASSI
100
AcDbLine
 62
7
  6
CONTINUOUS
 10
-17.0098338776
 20
-4.5556249933
 11
-17.0098338776
 21
-3.8768648026
  0
LINE
  5
446
100
AcDbEntity
  8
ASSI
100
AcDbLine
 62
7
  6
CONTINUOUS
 10
-17.0098338776
 20
41.8443750067
 11
-17.0098338776
 21
42.5231351974
  0
LINE
  5
447
100
AcDbEntity
  8
RACCORDO
100
AcDbLine
 62
253
  6
CONTINUOUS
 10
-17.0084160384
 20
42.636372482
 11
-17.0084179702
 21
41.2863363375
  0
LINE
  5
448
100
AcDbEntity
  8
RACCORDO
100
AcDbLine
 62
253
  6
CONTINUOUS
 10
-17.0084179702
 20
-3.3188261335
 11
-17.0084160384
 21
-4.6688622779
  0
LINE
  5
449
100
AcDbEntity
  8
SMUSSO
100
AcDbLine
 62
7
  6
CONTINUOUS
 10
-16.9058367347
 20
3.233755102
 11
-16.9058367347
 21
6.733755102
  0
LINE
  5
44A
100
AcDbEntity
  8
ASSI
100
AcDbLine
 62
7
  6
CONTINUOUS
 10
-16.9058367347
 20
3.233755102
 11
-16.9058367347
 21
6.733755102
  0
LINE
  5
44B
100
AcDbEntity
  8
SMUSSO
100
AcDbLine
 62
7
  6
CONTINUOUS
 10
-16.9058367347
 20
8.233755102
 11
-16.9058367347
 21
11.733755102
  0
LINE
  5
44C
100
AcDbEntity
  8
ASSI
100
AcDbLine
 62
7
  6
CONTINUOUS
 10
-16.9058367347
 20
8.233755102
 11
-16.9058367347
 21
11.733755102
  0
LINE
  5
44D
100
AcDbEntity
  8
SMUSSO
100
AcDbLine
 62
7
  6
CONTINUOUS
 10
-16.9058367347
 20
13.233755102
 11
-16.9058367347
 21
16.733755102
  0
LINE
  5
44E
100
AcDbEntity
  8
ASSI
100
AcDbLine
 62
7
  6
CONTINUOUS
 10
-16.9058367347
 20
13.233755102
 11
-16.9058367347
 21
16.733755102
  0
LINE
  5
44F
100
AcDbEntity
  8
SMUSSO
100
AcDbLine
 62
7
  6
CONTINUOUS
 10
-16.9058367347
 20
17.983755102
 11
-16.9058367347
 21
21.983755102
  0
LINE
  5
450
100
AcDbEntity
  8
ASSI
100
AcDbLine
 62
7
  6
CONTINUOUS
 10
-16.9058367347
 20
17.983755102
 11
-16.9058367347
 21
21.983755102
  0
LINE
  5
451
100
AcDbEntity
  8
RACCORDO
100
AcDbLine
 62
253
  6
CONTINUOUS
 10
-16.4058367347
 20
-4.998789833
 11
-16.4058367347
 21
-4.9188798473
  0
LINE
  5
452
100
AcDbEntity
  8
RACCORDO
100
AcDbLine
 62
253
  6
CONTINUOUS
 10
-16.4058367347
 20
42.8863900513
 11
-16.4058367347
 21
42.9663000371
  0
LINE
  5
453
100
AcDbEntity
  8
0
100
AcDbLine
 62
7
  6
CONTINUOUS
 10
-16.1958367347
 20
21.983755102
 11
-16.1958367347
 21
17.983755102
  0
LINE
  5
454
100
AcDbEntity
  8
0
100
AcDbLine
 62
7
  6
CONTINUOUS
 10
-16.1958367347
 20
16.733755102
 11
-16.1958367347
 21
13.233755102
  0
LINE
  5
455
100
AcDbEntity
  8
0
100
AcDbLine
 62
7
  6
CONTINUOUS
 10
-16.1958367347
 20
11.733755102
 11
-16.1958367347
 21
8.233755102
  0
LINE
  5
456
100
AcDbEntity
  8
0
100
AcDbLine
 62
7
  6
CONTINUOUS
 10
-16.1958367347
 20
6.733755102
 11
-16.1958367347
 21
3.233755102
  0
LINE
  5
457
100
AcDbEntity
  8
0
100
AcDbLine
 62
7
  6
CONTINUOUS
 10
-16.1558367347
 20
38.883755102
 11
-16.1558367347
 21
38.683755102
  0
LINE
  5
458
100
AcDbEntity
  8
DRAFT
100
AcDbLine
 62
7
  6
CONTINUOUS
 10
-16.1558367347
 20
38.883755102
 11
-16.1558367347
 21
38.683755102
  0
LINE
  5
459
100
AcDbEntity
  8
RACCORDO
100
AcDbLine
 62
7
  6
CONTINUOUS
 10
-16.1558367347
 20
39.0282621278
 11
-16.1558367347
 21
38.983755102
  0
LINE
  5
45A
100
AcDbEntity
  8
0
100
AcDbLine
 62
7
  6
CONTINUOUS
 10
-16.1558367347
 20
-0.716244898
 11
-16.1558367347
 21
-0.916244898
  0
LINE
  5
45B
100
AcDbEntity
  8
DRAFT
100
AcDbLine
 62
7
  6
CONTINUOUS
 10
-16.1558367347
 20
-0.716244898
 11
-16.1558367347
 21
-0.916244898
  0
LINE
  5
45C
100
AcDbEntity
  8
RACCORDO
100
AcDbLine
 62
7
  6
CONTINUOUS
 10
-16.1558367347
 20
-4.748751751
 11
-16.1558367347
 21
-3.3097690019
  0
LINE
  5
45D
100
AcDbEntity
  8
RACCORDO
100
AcDbLine
 62
7
  6
CONTINUOUS
 10
-16.1558367347
 20
-1.0607519237
 11
-16.1558367347
 21
-1.016244898
  0
LINE
  5
45E
100
AcDbEntity
  8
RACCORDO
100
AcDbLine
 62
7
  6
CONTINUOUS
 10
-16.1558367347
 20
41.277279206
 11
-16.1558367347
 21
42.7162619551
  0
LINE
  5
45F
100
AcDbEntity
  8
0
100
AcDbLine
 62
7
  6
CONTINUOUS
 10
-16.1191810983
 20
38.8470994657
 11
-16.1191810983
 21
38.6470994657
  0
LINE
  5
460
100
AcDbEntity
  8
DRAFT
100
AcDbLine
 62
7
  6
CONTINUOUS
 10
-16.1191810983
 20
38.8470994657
 11
-16.1191810983
 21
38.6470994657
  0
LINE
  5
461
100
AcDbEntity
  8
0
100
AcDbLine
 62
7
  6
CONTINUOUS
 10
-16.1191810983
 20
-0.6795892616
 11
-16.1191810983
 21
-0.8795892616
  0
LINE
  5
462
100
AcDbEntity
  8
DRAFT
100
AcDbLine
 62
7
  6
CONTINUOUS
 10
-16.1191810983
 20
-0.6795892616
 11
-16.1191810983
 21
-0.8795892616
  0
LINE
  5
463
100
AcDbEntity
  8
0
100
AcDbLine
 62
7
  6
CONTINUOUS
 10
-6.0685680568
 20
40.0583057513
 11
-6.1558367347
 21
39.883755102
  0
LINE
  5
464
100
AcDbEntity
  8
CURVE
100
AcDbLine
 62
253
  6
CONTINUOUS
 10
-18.7915510265
 20
19.483755102
 11
-18.6558367347
 21
19.6194693938
  0
LINE
  5
465
100
AcDbEntity
  8
CURVE
100
AcDbLine
 62
253
  6
CONTINUOUS
 10
-22.9558367347
 20
13.8099454306
 11
-22.77012246
 21
13.9956596278
  0
LINE
  5
466
100
AcDbEntity
  8
CURVE
100
AcDbLine
 62
253
  6
CONTINUOUS
 10
-22.5933367347
 20
19.171255102
 11
-22.4683367347
 21
19.233755102
  0
LINE
  5
467
100
AcDbEntity
  8
CURVE
100
AcDbLine
 62
253
  6
CONTINUOUS
 10
-22.5844081854
 20
14.0885170363
 11
-22.0272653227
 21
14.0885170363
  0
LINE
  5
468
100
AcDbEntity
  8
CURVE
100
AcDbLine
 62
253
  6
CONTINUOUS
 10
-18.6558367347
 20
14.383755102
 11
-20.5558367347
 21
14.383755102
  0
LINE
  5
469
100
AcDbEntity
  8
CURVE
100
AcDbLine
 62
253
  6
CONTINUOUS
 10
-21.6558367347
 20
14.4599454306
 11
-22.9558367347
 21
14.4599454306
  0
LINE
  5
46A
100
AcDbEntity
  8
CURVE
100
AcDbLine
 62
253
  6
CONTINUOUS
 10
-22.9558367347
 20
15.1099454306
 11
-21.6558367347
 21
15.1099454306
  0
LINE
  5
46B
100
AcDbEntity
  8
CURVE
100
AcDbLine
 62
253
  6
CONTINUOUS
 10
-18.6558367347
 20
15.333755102
 11
-20.5558367347
 21
15.333755102
  0
LINE
  5
46C
100
AcDbEntity
  8
CURVE
100
AcDbLine
 62
253
  6
CONTINUOUS
 10
-20.2844081794
 20
19.483755102
 11
-20.5558367347
 21
19.7551836856
  0
LINE
  5
46D
100
AcDbEntity
  8
SMUSSO
100
AcDbLine
 62
7
  6
CONTINUOUS
 10
-17.4058367347
 20
17.233755102
 11
-16.9058367347
 21
16.733755102
  0
LINE
  5
46E
100
AcDbEntity
  8
ASSI
100
AcDbLine
 62
7
  6
CONTINUOUS
 10
-17.4058367347
 20
17.233755102
 11
-16.9058367347
 21
16.733755102
  0
LINE
  5
46F
100
AcDbEntity
  8
SMUSSO
100
AcDbLine
 62
7
  6
CONTINUOUS
 10
-12.4058367347
 20
12.733755102
 11
-12.9058367347
 21
13.233755102
  0
LINE
  5
470
100
AcDbEntity
  8
ASSI
100
AcDbLine
 62
7
  6
CONTINUOUS
 10
-12.4058367347
 20
12.733755102
 11
-12.9058367347
 21
13.233755102
  0
LINE
  5
471
100
AcDbEntity
  8
CURVE
100
AcDbLine
 62
253
  6
CONTINUOUS
 10
-18.6558367347
 20
20.1623265468
 11
-18.9272653183
 21
20.433755102
  0
LINE
  5
472
100
AcDbEntity
  8
0
100
AcDbLine
 62
7
  6
CONTINUOUS
 10
-6.0685680568
 20
-2.0907955472
 11
-6.1558367347
 21
-1.916244898
  0
LINE
  5
473
100
AcDbEntity
  8
0
100
AcDbLine
 62
7
  6
CONTINUOUS
 10
-10.6748253498
 20
0.783755102
 11
-10.6652643871
 21
0.7521376035
  0
LINE
  5
474
100
AcDbEntity
  8
RACCORDO
100
AcDbLine
 62
7
  6
CONTINUOUS
 10
-10.6748253498
 20
0.783755102
 11
-10.6652643871
 21
0.7521376035
  0
LINE
  5
475
100
AcDbEntity
  8
ASSI
100
AcDbLine
 62
7
  6
CONTINUOUS
 10
-15.7058367347
 20
39.783755102
 11
-15.7307127283
 21
41.2088998199
  0
LINE
  5
476
100
AcDbEntity
  8
RACCORDO
100
AcDbLine
 62
7
  6
CONTINUOUS
 10
-15.7307127283
 20
41.2088998199
 11
-15.7316571964
 21
41.2630083608
  0
LINE
  5
477
100
AcDbEntity
  8
0
100
AcDbLine
 62
253
  6
CONTINUOUS
 10
-14.1568448967
 20
-1.0684075244
 11
-14.1573609696
 21
-0.9007315776
  0
LINE
  5
478
100
AcDbEntity
  8
0
100
AcDbLine
 62
7
  6
CONTINUOUS
 10
-15.1558367347
 20
0.683755102
 11
-15.1558367347
 21
2.383755102
  0
LINE
  5
479
100
AcDbEntity
  8
ASSI
100
AcDbLine
 62
7
  6
CONTINUOUS
 10
-15.1558367347
 20
0.683755102
 11
-15.1558367347
 21
2.383755102
  0
LINE
  5
47A
100
AcDbEntity
  8
0
100
AcDbLine
 62
7
  6
CONTINUOUS
 10
-15.1558367347
 20
35.583755102
 11
-15.1558367347
 21
37.283755102
  0
LINE
  5
47B
100
AcDbEntity
  8
ASSI
100
AcDbLine
 62
7
  6
CONTINUOUS
 10
-15.1558367347
 20
35.583755102
 11
-15.1558367347
 21
37.283755102
  0
LINE
  5
47C
100
AcDbEntity
  8
0
100
AcDbLine
 62
253
  6
CONTINUOUS
 10
-14.8022833441
 20
0.683755102
 11
-14.8022833441
 21
0.7512150854
  0
LINE
  5
47D
100
AcDbEntity
  8
RACCORDO
100
AcDbLine
 62
253
  6
CONTINUOUS
 10
-14.8022833441
 20
0.683755102
 11
-14.8022833441
 21
0.7512150854
  0
LINE
  5
47E
100
AcDbEntity
  8
0
100
AcDbLine
 62
7
  6
CONTINUOUS
 10
-14.7558367347
 20
0.783755102
 11
-14.7558367347
 21
0.7515739
  0
LINE
  5
47F
100
AcDbEntity
  8
0
100
AcDbLine
 62
7
  6
CONTINUOUS
 10
-14.6558367347
 20
0.7507065132
 11
-14.6558367347
 21
0.783755102
  0
LINE
  5
480
100
AcDbEntity
  8
RACCORDO
100
AcDbLine
 62
7
  6
CONTINUOUS
 10
-14.6558367347
 20
0.7507065132
 11
-14.6558367347
 21
0.783755102
  0
LINE
  5
481
100
AcDbEntity
  8
RACCORDO
100
AcDbLine
 62
7
  6
CONTINUOUS
 10
-14.6384260454
 20
37.283755102
 11
-14.6384260454
 21
37.183755102
  0
LINE
  5
482
100
AcDbEntity
  8
ASSI
100
AcDbLine
 62
7
  6
CONTINUOUS
 10
-14.6384260454
 20
37.283755102
 11
-14.6384260454
 21
37.183755102
  0
LINE
  5
483
100
AcDbEntity
  8
RACCORDO
100
AcDbLine
 62
7
  6
CONTINUOUS
 10
-14.559841189
 20
0.783755102
 11
-14.559841189
 21
0.683755102
  0
LINE
  5
484
100
AcDbEntity
  8
ASSI
100
AcDbLine
 62
7
  6
CONTINUOUS
 10
-14.559841189
 20
0.783755102
 11
-14.559841189
 21
0.683755102
  0
LINE
  5
485
100
AcDbEntity
  8
0
100
AcDbLine
 62
253
  6
CONTINUOUS
 10
-14.3558367347
 20
1.6677871836
 11
-14.3558367347
 21
1.733755102
  0
LINE
  5
486
100
AcDbEntity
  8
RACCORDO
100
AcDbLine
 62
253
  6
CONTINUOUS
 10
-14.3558367347
 20
1.6677871836
 11
-14.3558367347
 21
1.733755102
  0
LINE
  5
487
100
AcDbEntity
  8
0
100
AcDbLine
 62
253
  6
CONTINUOUS
 10
-14.3558367347
 20
36.233755102
 11
-14.3558367347
 21
36.283755102
  0
LINE
  5
488
100
AcDbEntity
  8
RACCORDO
100
AcDbLine
 62
253
  6
CONTINUOUS
 10
-14.3558367347
 20
36.233755102
 11
-14.3558367347
 21
36.283755102
  0
LINE
  5
489
100
AcDbEntity
  8
0
100
AcDbLine
 62
253
  6
CONTINUOUS
 10
-14.1573609696
 20
38.8682417817
 11
-14.1568448967
 21
39.0359177284
  0
LINE
  5
48A
100
AcDbEntity
  8
RACCORDO
100
AcDbLine
 62
7
  6
CONTINUOUS
 10
-15.7316571964
 20
-3.2954981567
 11
-15.7307127283
 21
-3.2413896158
  0
LINE
  5
48B
100
AcDbEntity
  8
ASSI
100
AcDbLine
 62
7
  6
CONTINUOUS
 10
-15.7307127283
 20
-3.2413896158
 11
-15.7058367347
 21
-1.816244898
  0
LINE
  5
48C
100
AcDbEntity
  8
RACCORDO
100
AcDbLine
 62
253
  6
CONTINUOUS
 10
-16.1579758339
 20
-4.7015468903
 11
-16.1558367347
 21
-4.6689179234
  0
LINE
  5
48D
100
AcDbEntity
  8
0
100
AcDbLine
 62
253
  6
CONTINUOUS
 10
-10.6602893728
 20
36.487696384
 11
-10.6735902889
 21
36.4428180079
  0
LINE
  5
48E
100
AcDbEntity
  8
RACCORDO
100
AcDbLine
 62
253
  6
CONTINUOUS
 10
-10.6602893728
 20
36.487696384
 11
-10.6735902889
 21
36.4428180079
  0
LINE
  5
48F
100
AcDbEntity
  8
CURVE
100
AcDbLine
 62
253
  6
CONTINUOUS
 10
-22.1510748392
 20
9.600421872
 11
-21.9653605451
 21
9.8480409049
  0
LINE
  5
490
100
AcDbEntity
  8
CURVE
100
AcDbLine
 62
253
  6
CONTINUOUS
 10
-21.6558367347
 20
13.717088642
 11
-21.8415510287
 21
13.5313744448
  0
LINE
  5
491
100
AcDbEntity
  8
CURVE
100
AcDbLine
 62
253
  6
CONTINUOUS
 10
-22.2129795974
 20
13.067088642
 11
-22.3986939108
 21
12.8813744448
  0
LINE
  5
492
100
AcDbEntity
  8
SMUSSO
100
AcDbLine
 62
7
  6
CONTINUOUS
 10
-12.4058367347
 20
22.483755102
 11
-12.9058367347
 21
21.983755102
  0
LINE
  5
493
100
AcDbEntity
  8
ASSI
100
AcDbLine
 62
7
  6
CONTINUOUS
 10
-12.4058367347
 20
22.483755102
 11
-12.9058367347
 21
21.983755102
  0
LINE
  5
494
100
AcDbEntity
  8
SMUSSO
100
AcDbLine
 62
7
  6
CONTINUOUS
 10
-17.4058367347
 20
17.483755102
 11
-16.9058367347
 21
17.983755102
  0
LINE
  5
495
100
AcDbEntity
  8
ASSI
100
AcDbLine
 62
7
  6
CONTINUOUS
 10
-17.4058367347
 20
17.483755102
 11
-16.9058367347
 21
17.983755102
  0
LINE
  5
496
100
AcDbEntity
  8
CURVE
100
AcDbLine
 62
253
  6
CONTINUOUS
 10
-21.8415510287
 20
12.417088642
 11
-21.6558367347
 21
12.6028028392
  0
LINE
  5
497
100
AcDbEntity
  8
CURVE
100
AcDbLine
 62
253
  6
CONTINUOUS
 10
-21.5933367347
 20
18.983755102
 11
-21.4058367347
 21
19.046255102
  0
LINE
  5
498
100
AcDbEntity
  8
0
100
AcDbLine
 62
7
  6
CONTINUOUS
 10
-13.2558367347
 20
16.483755102
 11
-16.1958367347
 21
16.483755102
  0
LINE
  5
499
100
AcDbEntity
  8
SMUSSO
100
AcDbLine
 62
7
  6
CONTINUOUS
 10
-16.9058367347
 20
16.733755102
 11
-12.9058367347
 21
16.733755102
  0
LINE
  5
49A
100
AcDbEntity
  8
ASSI
100
AcDbLine
 62
7
  6
CONTINUOUS
 10
-16.9058367347
 20
16.733755102
 11
-12.9058367347
 21
16.733755102
  0
LINE
  5
49B
100
AcDbEntity
  8
RACCORDO
100
AcDbLine
 62
7
  6
CONTINUOUS
 10
-1.9427578565
 20
17.133755102
 11
-2.8558367347
 21
17.133755102
  0
LINE
  5
49C
100
AcDbEntity
  8
ASSI
100
AcDbLine
 62
7
  6
CONTINUOUS
 10
-1.9427578565
 20
17.133755102
 11
-2.8558367347
 21
17.133755102
  0
LINE
  5
49D
100
AcDbEntity
  8
CURVE
100
AcDbLine
 62
253
  6
CONTINUOUS
 10
-1.6098032125
 20
17.1599454455
 11
-1.6227678578
 21
17.1599454455
  0
LINE
  5
49E
100
AcDbEntity
  8
SMUSSO
100
AcDbLine
 62
7
  6
CONTINUOUS
 10
-17.4058367347
 20
17.233755102
 11
-12.4058367347
 21
17.233755102
  0
LINE
  5
49F
100
AcDbEntity
  8
ASSI
100
AcDbLine
 62
7
  6
CONTINUOUS
 10
-17.4058367347
 20
17.233755102
 11
-12.4058367347
 21
17.233755102
  0
LINE
  5
4A0
100
AcDbEntity
  8
CURVE
100
AcDbLine
 62
253
  6
CONTINUOUS
 10
-22.8433367347
 20
19.233755102
 11
-22.6558367347
 21
19.171255102
  0
LINE
  5
4A1
100
AcDbEntity
  8
CURVE
100
AcDbLine
 62
253
  6
CONTINUOUS
 10
-21.9683367347
 20
19.046255102
 11
-21.7808367347
 21
18.983755102
  0
LWPOLYLINE
  5
4A2
100
AcDbEntity
  8
0
100
AcDbPolyline
 62
253
  6
CONTINUOUS
 90
5
 70
0
 10
-10.6602893728
 20
1.4798138201
 10
-10.6735902889
 20
1.5246921962
 10
-10.6954515591
 20
1.5670204324
 10
-10.7253767997
 20
1.6055415237
 10
-10.762514544
 20
1.6389409311
  0
LWPOLYLINE
  5
4A3
100
AcDbEntity
  8
RACCORDO
100
AcDbPolyline
 62
253
  6
CONTINUOUS
 90
5
 70
0
 10
-10.6602893728
 20
1.4798138201
 10
-10.6735902889
 20
1.5246921962
 10
-10.6954515591
 20
1.5670204324
 10
-10.7253767997
 20
1.6055415237
 10
-10.762514544
 20
1.6389409311
  0
LWPOLYLINE
  5
4A4
100
AcDbEntity
  8
RACCORDO
100
AcDbPolyline
 62
7
  6
CONTINUOUS
 90
13
 70
0
 10
-11.8558367347
 20
-4.7662829742
 10
-11.8536989045
 20
-4.7989106327
 10
-11.847321184
 20
-4.8309796056
 10
-11.8368124575
 20
-4.8619415073
 10
-11.8223521561
 20
-4.8912670784
 10
-11.8041874222
 20
-4.9184543358
 10
-11.7826292
 20
-4.9430373632
 10
-11.7580461725
 20
-4.9645955854
 10
-11.7308589152
 20
-4.9827603194
 10
-11.7015333441
 20
-4.9972206208
 10
-11.6705714423
 20
-5.0077293473
 10
-11.6385024695
 20
-5.0141070677
 10
-11.6058748109
 20
-5.016244898
  0
LINE
  5
4A5
100
AcDbEntity
  8
RACCORDO
100
AcDbLine
 62
7
  6
CONTINUOUS
 10
-13.4732917996
 20
-4.7488279092
 11
-13.4732917996
 21
-3.4144995669
  0
LINE
  5
4A6
100
AcDbEntity
  8
RACCORDO
100
AcDbLine
 62
7
  6
CONTINUOUS
 10
-13.4732917996
 20
41.382009771
 11
-13.4732917996
 21
42.7163381133
  0
LINE
  5
4A7
100
AcDbEntity
  8
RACCORDO
100
AcDbLine
 62
7
  6
CONTINUOUS
 10
-13.4558367347
 20
-4.7662829742
 11
-13.4558367347
 21
-3.416244898
  0
LINE
  5
4A8
100
AcDbEntity
  8
RACCORDO
100
AcDbLine
 62
7
  6
CONTINUOUS
 10
-13.4558367347
 20
41.383755102
 11
-13.4558367347
 21
42.7337931783
  0
LINE
  5
4A9
100
AcDbEntity
  8
0
100
AcDbLine
 62
7
  6
CONTINUOUS
 10
-13.2558367347
 20
3.483755102
 11
-13.2558367347
 21
6.483755102
  0
LINE
  5
4AA
100
AcDbEntity
  8
0
100
AcDbLine
 62
7
  6
CONTINUOUS
 10
-13.2558367347
 20
8.483755102
 11
-13.2558367347
 21
11.483755102
  0
LINE
  5
4AB
100
AcDbEntity
  8
0
100
AcDbLine
 62
7
  6
CONTINUOUS
 10
-13.2558367347
 20
13.483755102
 11
-13.2558367347
 21
16.483755102
  0
LINE
  5
4AC
100
AcDbEntity
  8
0
100
AcDbLine
 62
7
  6
CONTINUOUS
 10
-13.2558367347
 20
18.483755102
 11
-13.2558367347
 21
21.483755102
  0
LINE
  5
4AD
100
AcDbEntity
  8
SMUSSO
100
AcDbLine
 62
7
  6
CONTINUOUS
 10
-12.9058367347
 20
21.983755102
 11
-12.9058367347
 21
17.983755102
  0
LINE
  5
4AE
100
AcDbEntity
  8
ASSI
100
AcDbLine
 62
7
  6
CONTINUOUS
 10
-12.9058367347
 20
21.983755102
 11
-12.9058367347
 21
17.983755102
  0
LINE
  5
4AF
100
AcDbEntity
  8
SMUSSO
100
AcDbLine
 62
7
  6
CONTINUOUS
 10
-12.9058367347
 20
16.733755102
 11
-12.9058367347
 21
13.233755102
  0
LINE
  5
4B0
100
AcDbEntity
  8
ASSI
100
AcDbLine
 62
7
  6
CONTINUOUS
 10
-12.9058367347
 20
16.733755102
 11
-12.9058367347
 21
13.233755102
  0
LINE
  5
4B1
100
AcDbEntity
  8
SMUSSO
100
AcDbLine
 62
7
  6
CONTINUOUS
 10
-12.9058367347
 20
11.733755102
 11
-12.9058367347
 21
8.233755102
  0
LINE
  5
4B2
100
AcDbEntity
  8
ASSI
100
AcDbLine
 62
7
  6
CONTINUOUS
 10
-12.9058367347
 20
11.733755102
 11
-12.9058367347
 21
8.233755102
  0
LINE
  5
4B3
100
AcDbEntity
  8
SMUSSO
100
AcDbLine
 62
7
  6
CONTINUOUS
 10
-12.9058367347
 20
6.733755102
 11
-12.9058367347
 21
3.233755102
  0
LINE
  5
4B4
100
AcDbEntity
  8
ASSI
100
AcDbLine
 62
7
  6
CONTINUOUS
 10
-12.9058367347
 20
6.733755102
 11
-12.9058367347
 21
3.233755102
  0
LWPOLYLINE
  5
4B5
100
AcDbEntity
  8
RACCORDO
100
AcDbPolyline
 62
7
  6
CONTINUOUS
 90
13
 70
0
 10
-11.8558367347
 20
42.7337931783
 10
-11.8536989045
 20
42.7664208368
 10
-11.847321184
 20
42.7984898097
 10
-11.8368124575
 20
42.8294517114
 10
-11.8223521561
 20
42.8587772825
 10
-11.8041874222
 20
42.8859645398
 10
-11.7826292
 20
42.9105475673
 10
-11.7580461725
 20
42.9321057895
 10
-11.7308589152
 20
42.9502705235
 10
-11.7015333441
 20
42.9647308248
 10
-11.6705714423
 20
42.9752395514
 10
-11.6385024695
 20
42.9816172718
 10
-11.6058748109
 20
42.983755102
  0
LWPOLYLINE
  5
4B6
100
AcDbEntity
  8
ASSI
100
AcDbPolyline
 62
253
  6
CONTINUOUS
 90
12
 70
0
 10
-2.0690041916
 20
43.2706181061
 10
-2.0690465876
 20
43.2705334762
 10
-2.0690897805
 20
43.270304968
 10
-2.0691337705
 20
43.2699325815
 10
-2.0691788329
 20
43.2694222628
 10
-2.0692246922
 20
43.2687680658
 10
-2.0692705223
 20
43.2679521526
 10
-2.0693163412
 20
43.2669688939
 10
-2.0693621309
 20
43.2658239189
 10
-2.0694070106
 20
43.2645162777
 10
-2.069450963
 20
43.263039949
 10
-2.0695353101
 20
43.2596164069
  0
LINE
  5
4B7
100
AcDbEntity
  8
CURVE
100
AcDbLine
 62
253
  6
CONTINUOUS
 10
-22.77012246
 20
13.9956596278
 11
-22.5844081854
 21
14.0885170363
  0
LINE
  5
4B8
100
AcDbEntity
  8
SMUSSO
100
AcDbLine
 62
7
  6
CONTINUOUS
 10
-12.4058367347
 20
17.483755102
 11
-17.4058367347
 21
17.483755102
  0
LINE
  5
4B9
100
AcDbEntity
  8
ASSI
100
AcDbLine
 62
7
  6
CONTINUOUS
 10
-12.4058367347
 20
17.483755102
 11
-17.4058367347
 21
17.483755102
  0
LINE
  5
4BA
100
AcDbEntity
  8
CURVE
100
AcDbLine
 62
253
  6
CONTINUOUS
 10
-1.5634296759
 20
17.7492312645
 11
-1.5407415476
 21
17.7492312645
  0
LINE
  5
4BB
100
AcDbEntity
  8
RACCORDO
100
AcDbLine
 62
7
  6
CONTINUOUS
 10
-1.9427578565
 20
17.833755102
 11
-2.8558367347
 21
17.833755102
  0
LINE
  5
4BC
100
AcDbEntity
  8
ASSI
100
AcDbLine
 62
7
  6
CONTINUOUS
 10
-1.9427578565
 20
17.833755102
 11
-2.8558367347
 21
17.833755102
  0
LINE
  5
4BD
100
AcDbEntity
  8
SMUSSO
100
AcDbLine
 62
7
  6
CONTINUOUS
 10
-12.9058367347
 20
17.983755102
 11
-16.9058367347
 21
17.983755102
  0
LINE
  5
4BE
100
AcDbEntity
  8
ASSI
100
AcDbLine
 62
7
  6
CONTINUOUS
 10
-12.9058367347
 20
17.983755102
 11
-16.9058367347
 21
17.983755102
  0
LINE
  5
4BF
100
AcDbEntity
  8
CURVE
100
AcDbLine
 62
253
  6
CONTINUOUS
 10
-1.5439827086
 20
18.2491123711
 11
-1.5601885146
 21
18.2491123711
  0
LINE
  5
4C0
100
AcDbEntity
  8
CURVE
100
AcDbLine
 62
253
  6
CONTINUOUS
 10
-1.6000797295
 20
18.367088347
 11
-1.6227678578
 21
18.367088347
  0
LINE
  5
4C1
100
AcDbEntity
  8
0
100
AcDbLine
 62
7
  6
CONTINUOUS
 10
-16.1958367347
 20
18.483755102
 11
-13.2558367347
 21
18.483755102
  0
LINE
  5
4C2
100
AcDbEntity
  8
CURVE
100
AcDbLine
 62
253
  6
CONTINUOUS
 10
-1.5930987669
 20
18.5456597977
 11
-1.5704106385
 21
18.5456597977
  0
LINE
  5
4C3
100
AcDbEntity
  8
CURVE
100
AcDbLine
 62
253
  6
CONTINUOUS
 10
-1.5634296759
 20
18.8666122239
 11
-1.5407415476
 21
18.8666122239
  0
LINE
  5
4C4
100
AcDbEntity
  8
CURVE
100
AcDbLine
 62
253
  6
CONTINUOUS
 10
-21.7808367347
 20
18.983755102
 11
-21.5933367347
 21
18.983755102
  0
LINE
  5
4C5
100
AcDbEntity
  8
CURVE
100
AcDbLine
 62
253
  6
CONTINUOUS
 10
-22.6558367347
 20
19.171255102
 11
-22.5933367347
 21
19.171255102
  0
LINE
  5
4C6
100
AcDbEntity
  8
CURVE
100
AcDbLine
 62
253
  6
CONTINUOUS
 10
-1.5930987669
 20
19.1956598752
 11
-1.5704106385
 21
19.1956598752
  0
LINE
  5
4C7
100
AcDbEntity
  8
SMUSSO
100
AcDbLine
 62
7
  6
CONTINUOUS
 10
-17.4058367347
 20
22.483755102
 11
-16.9058367347
 21
21.983755102
  0
LINE
  5
4C8
100
AcDbEntity
  8
ASSI
100
AcDbLine
 62
7
  6
CONTINUOUS
 10
-17.4058367347
 20
22.483755102
 11
-16.9058367347
 21
21.983755102
  0
LINE
  5
4C9
100
AcDbEntity
  8
SMUSSO
100
AcDbLine
 62
7
  6
CONTINUOUS
 10
-12.4058367347
 20
17.483755102
 11
-12.9058367347
 21
17.983755102
  0
LINE
  5
4CA
100
AcDbEntity
  8
ASSI
100
AcDbLine
 62
7
  6
CONTINUOUS
 10
-12.4058367347
 20
17.483755102
 11
-12.9058367347
 21
17.983755102
  0
LWPOLYLINE
  5
4CB
100
AcDbEntity
  8
RACCORDO
100
AcDbPolyline
 62
7
  6
CONTINUOUS
 90
13
 70
0
 10
-13.4558367347
 20
42.7337931783
 10
-13.4579745649
 20
42.7664208368
 10
-13.4643522854
 20
42.7984898097
 10
-13.4748610119
 20
42.8294517114
 10
-13.4893213133
 20
42.8587772825
 10
-13.5074860472
 20
42.8859645398
 10
-13.5290442694
 20
42.9105475673
 10
-13.5536272969
 20
42.9321057895
 10
-13.5808145542
 20
42.9502705235
 10
-13.6101401253
 20
42.9647308248
 10
-13.6411020271
 20
42.9752395514
 10
-13.6731709999
 20
42.9816172718
 10
-13.7057986585
 20
42.983755102
  0
LINE
  5
4CC
100
AcDbEntity
  8
0
100
AcDbLine
 62
253
  6
CONTINUOUS
 10
-11.1548285727
 20
39.0359177284
 11
-11.1543124998
 21
38.8682417817
  0
LINE
  5
4CD
100
AcDbEntity
  8
SMUSSO
100
AcDbLine
 62
7
  6
CONTINUOUS
 10
-12.4058367347
 20
22.483755102
 11
-12.4058367347
 21
17.483755102
  0
LINE
  5
4CE
100
AcDbEntity
  8
ASSI
100
AcDbLine
 62
7
  6
CONTINUOUS
 10
-12.4058367347
 20
22.483755102
 11
-12.4058367347
 21
17.483755102
  0
LINE
  5
4CF
100
AcDbEntity
  8
SMUSSO
100
AcDbLine
 62
7
  6
CONTINUOUS
 10
-12.4058367347
 20
17.233755102
 11
-12.4058367347
 21
12.733755102
  0
LINE
  5
4D0
100
AcDbEntity
  8
ASSI
100
AcDbLine
 62
7
  6
CONTINUOUS
 10
-12.4058367347
 20
17.233755102
 11
-12.4058367347
 21
12.733755102
  0
LINE
  5
4D1
100
AcDbEntity
  8
SMUSSO
100
AcDbLine
 62
7
  6
CONTINUOUS
 10
-12.4058367347
 20
12.233755102
 11
-12.4058367347
 21
7.733755102
  0
LINE
  5
4D2
100
AcDbEntity
  8
ASSI
100
AcDbLine
 62
7
  6
CONTINUOUS
 10
-12.4058367347
 20
12.233755102
 11
-12.4058367347
 21
7.733755102
  0
LINE
  5
4D3
100
AcDbEntity
  8
SMUSSO
100
AcDbLine
 62
7
  6
CONTINUOUS
 10
-12.4058367347
 20
7.233755102
 11
-12.4058367347
 21
2.733755102
  0
LINE
  5
4D4
100
AcDbEntity
  8
ASSI
100
AcDbLine
 62
7
  6
CONTINUOUS
 10
-12.4058367347
 20
7.233755102
 11
-12.4058367347
 21
2.733755102
  0
LINE
  5
4D5
100
AcDbEntity
  8
RACCORDO
100
AcDbLine
 62
7
  6
CONTINUOUS
 10
-11.8558367347
 20
-4.7662829742
 11
-11.8558367347
 21
-3.416244898
  0
LINE
  5
4D6
100
AcDbEntity
  8
RACCORDO
100
AcDbLine
 62
7
  6
CONTINUOUS
 10
-11.8558367347
 20
41.383755102
 11
-11.8558367347
 21
42.7337931783
  0
LINE
  5
4D7
100
AcDbEntity
  8
RACCORDO
100
AcDbLine
 62
7
  6
CONTINUOUS
 10
-11.8383816698
 20
-4.7488279092
 11
-11.8383816698
 21
-3.4144995669
  0
LINE
  5
4D8
100
AcDbEntity
  8
RACCORDO
100
AcDbLine
 62
7
  6
CONTINUOUS
 10
-11.8383816698
 20
41.382009771
 11
-11.8383816698
 21
42.7163381133
  0
LINE
  5
4D9
100
AcDbEntity
  8
0
100
AcDbLine
 62
253
  6
CONTINUOUS
 10
-10.9558367347
 20
36.283755102
 11
-10.9558367347
 21
36.233755102
  0
LINE
  5
4DA
100
AcDbEntity
  8
RACCORDO
100
AcDbLine
 62
253
  6
CONTINUOUS
 10
-10.9558367347
 20
36.283755102
 11
-10.9558367347
 21
36.233755102
  0
LINE
  5
4DB
100
AcDbEntity
  8
0
100
AcDbLine
 62
253
  6
CONTINUOUS
 10
-10.9558367347
 20
1.6677871836
 11
-10.9558367347
 21
1.733755102
  0
LINE
  5
4DC
100
AcDbEntity
  8
RACCORDO
100
AcDbLine
 62
253
  6
CONTINUOUS
 10
-10.9558367347
 20
1.6677871836
 11
-10.9558367347
 21
1.733755102
  0
LINE
  5
4DD
100
AcDbEntity
  8
RACCORDO
100
AcDbLine
 62
7
  6
CONTINUOUS
 10
-10.7518322804
 20
0.783755102
 11
-10.7518322804
 21
0.683755102
  0
LINE
  5
4DE
100
AcDbEntity
  8
ASSI
100
AcDbLine
 62
7
  6
CONTINUOUS
 10
-10.7518322804
 20
0.783755102
 11
-10.7518322804
 21
0.683755102
  0
LINE
  5
4DF
100
AcDbEntity
  8
RACCORDO
100
AcDbLine
 62
7
  6
CONTINUOUS
 10
-10.673247424
 20
37.283755102
 11
-10.673247424
 21
37.183755102
  0
LINE
  5
4E0
100
AcDbEntity
  8
ASSI
100
AcDbLine
 62
7
  6
CONTINUOUS
 10
-10.673247424
 20
37.283755102
 11
-10.673247424
 21
37.183755102
  0
LINE
  5
4E1
100
AcDbEntity
  8
0
100
AcDbLine
 62
7
  6
CONTINUOUS
 10
-10.6558367347
 20
0.783755102
 11
-10.6558367347
 21
0.7507065132
  0
LINE
  5
4E2
100
AcDbEntity
  8
RACCORDO
100
AcDbLine
 62
7
  6
CONTINUOUS
 10
-10.6558367347
 20
0.783755102
 11
-10.6558367347
 21
0.7507065132
  0
LINE
  5
4E3
100
AcDbEntity
  8
0
100
AcDbLine
 62
253
  6
CONTINUOUS
 10
-11.1543124998
 20
-0.9007315776
 11
-11.1548285727
 21
-1.0684075244
  0
LWPOLYLINE
  5
4E4
100
AcDbEntity
  8
RACCORDO
100
AcDbPolyline
 62
7
  6
CONTINUOUS
 90
13
 70
0
 10
-13.4558367347
 20
-4.7662829742
 10
-13.4579745649
 20
-4.7989106327
 10
-13.4643522854
 20
-4.8309796056
 10
-13.4748610119
 20
-4.8619415073
 10
-13.4893213133
 20
-4.8912670784
 10
-13.5074860472
 20
-4.9184543358
 10
-13.5290442694
 20
-4.9430373632
 10
-13.5536272969
 20
-4.9645955854
 10
-13.5808145542
 20
-4.9827603194
 10
-13.6101401253
 20
-4.9972206208
 10
-13.6411020271
 20
-5.0077293473
 10
-13.6731709999
 20
-5.0141070677
 10
-13.7057986585
 20
-5.016244898
  0
LINE
  5
4E5
100
AcDbEntity
  8
RACCORDO
100
AcDbLine
 62
7
  6
CONTINUOUS
 10
-9.1536977753
 20
42.6690560328
 11
-9.1558367347
 21
42.6364281274
  0
LWPOLYLINE
  5
4E6
100
AcDbEntity
  8
ASSI
100
AcDbPolyline
 62
253
  6
CONTINUOUS
 90
10
 70
0
 10
-23.2426692778
 20
-5.303107902
 10
-23.2426241151
 20
-5.30300851
 10
-23.2425785112
 20
-5.3027561531
 10
-23.2425324663
 20
-5.3023508313
 10
-23.2424857063
 20
-5.301795765
 10
-23.2424385052
 20
-5.3010877338
 10
-23.2423916848
 20
-5.3002170765
 10
-23.2423452433
 20
-5.2991781286
 10
-23.2422991824
 20
-5.2979765547
 10
-23.2422107328
 20
-5.2951028661
  0
LINE
  5
4E7
100
AcDbEntity
  8
CURVE
100
AcDbLine
 62
253
  6
CONTINUOUS
 10
-20.5558367347
 20
10.1623265468
 11
-20.2844081794
 21
10.433755102
  0
LINE
  5
4E8
100
AcDbEntity
  8
CURVE
100
AcDbLine
 62
253
  6
CONTINUOUS
 10
-22.9558367347
 20
7.6194694542
 11
-22.77012246
 21
7.8051836513
  0
LINE
  5
4E9
100
AcDbEntity
  8
SMUSSO
100
AcDbLine
 62
7
  6
CONTINUOUS
 10
-17.4058367347
 20
12.733755102
 11
-16.9058367347
 21
13.233755102
  0
LINE
  5
4EA
100
AcDbEntity
  8
ASSI
100
AcDbLine
 62
7
  6
CONTINUOUS
 10
-17.4058367347
 20
12.733755102
 11
-16.9058367347
 21
13.233755102
  0
LINE
  5
4EB
100
AcDbEntity
  8
CURVE
100
AcDbLine
 62
253
  6
CONTINUOUS
 10
-22.77012246
 20
6.8766122006
 11
-22.9558367347
 21
6.690897926
  0
LINE
  5
4EC
100
AcDbEntity
  8
SMUSSO
100
AcDbLine
 62
7
  6
CONTINUOUS
 10
-12.4058367347
 20
17.233755102
 11
-12.9058367347
 21
16.733755102
  0
LINE
  5
4ED
100
AcDbEntity
  8
ASSI
100
AcDbLine
 62
7
  6
CONTINUOUS
 10
-12.4058367347
 20
17.233755102
 11
-12.9058367347
 21
16.733755102
  0
LINE
  5
4EE
100
AcDbEntity
  8
CURVE
100
AcDbLine
 62
253
  6
CONTINUOUS
 10
-21.6558367347
 20
7.5266122006
 11
-21.8415510287
 21
7.3408980035
  0
LINE
  5
4EF
100
AcDbEntity
  8
CURVE
100
AcDbLine
 62
253
  6
CONTINUOUS
 10
-20.5558367347
 20
14.383755102
 11
-18.6558367347
 21
15.333755102
  0
LINE
  5
4F0
100
AcDbEntity
  8
CURVE
100
AcDbLine
 62
253
  6
CONTINUOUS
 10
-21.8415510287
 20
13.5313744448
 11
-22.0272653227
 21
13.4385170363
  0
LINE
  5
4F1
100
AcDbEntity
  8
CURVE
100
AcDbLine
 62
253
  6
CONTINUOUS
 10
-20.0129796242
 20
19.483755102
 11
-20.2844081794
 21
19.483755102
  0
LINE
  5
4F2
100
AcDbEntity
  8
CURVE
100
AcDbLine
 62
253
  6
CONTINUOUS
 10
-1.5930987669
 20
19.7837550976
 11
-1.5704106385
 21
19.7837550976
  0
LINE
  5
4F3
100
AcDbEntity
  8
CURVE
100
AcDbLine
 62
253
  6
CONTINUOUS
 10
-1.6227678578
 20
20.2242313259
 11
-1.6000797295
 21
20.2242313259
  0
LINE
  5
4F4
100
AcDbEntity
  8
CURVE
100
AcDbLine
 62
253
  6
CONTINUOUS
 10
-1.5407415476
 20
20.2780407848
 11
-1.5634296759
 21
20.2780407848
  0
LINE
  5
4F5
100
AcDbEntity
  8
CURVE
100
AcDbLine
 62
253
  6
CONTINUOUS
 10
-18.9272653183
 20
20.433755102
 11
-19.1986939018
 21
20.433755102
  0
LINE
  5
4F6
100
AcDbEntity
  8
CURVE
100
AcDbLine
 62
253
  6
CONTINUOUS
 10
-1.5634296759
 20
20.983755102
 11
-1.5407415476
 21
20.983755102
  0
LINE
  5
4F7
100
AcDbEntity
  8
RACCORDO
100
AcDbLine
 62
7
  6
CONTINUOUS
 10
-9.580016273
 20
-3.2954981567
 11
-9.5809607411
 21
-3.2413896158
  0
LINE
  5
4F8
100
AcDbEntity
  8
ASSI
100
AcDbLine
 62
7
  6
CONTINUOUS
 10
-9.5809607411
 20
-3.2413896158
 11
-9.6058367347
 21
-1.816244898
  0
LINE
  5
4F9
100
AcDbEntity
  8
0
100
AcDbLine
 62
7
  6
CONTINUOUS
 10
-10.5558367347
 20
0.783755102
 11
-10.5558367347
 21
0.7515739
  0
LINE
  5
4FA
100
AcDbEntity
  8
0
100
AcDbLine
 62
253
  6
CONTINUOUS
 10
-10.5093901253
 20
0.7512150854
 11
-10.5093901253
 21
0.683755102
  0
LINE
  5
4FB
100
AcDbEntity
  8
RACCORDO
100
AcDbLine
 62
253
  6
CONTINUOUS
 10
-10.5093901253
 20
0.7512150854
 11
-10.5093901253
 21
0.683755102
  0
LINE
  5
4FC
100
AcDbEntity
  8
0
100
AcDbLine
 62
7
  6
CONTINUOUS
 10
-10.1558367347
 20
37.283755102
 11
-10.1558367347
 21
35.583755102
  0
LINE
  5
4FD
100
AcDbEntity
  8
ASSI
100
AcDbLine
 62
7
  6
CONTINUOUS
 10
-10.1558367347
 20
37.283755102
 11
-10.1558367347
 21
35.583755102
  0
LINE
  5
4FE
100
AcDbEntity
  8
0
100
AcDbLine
 62
7
  6
CONTINUOUS
 10
-10.1558367347
 20
2.383755102
 11
-10.1558367347
 21
0.683755102
  0
LINE
  5
4FF
100
AcDbEntity
  8
ASSI
100
AcDbLine
 62
7
  6
CONTINUOUS
 10
-10.1558367347
 20
2.383755102
 11
-10.1558367347
 21
0.683755102
  0
LINE
  5
500
100
AcDbEntity
  8
0
100
AcDbLine
 62
7
  6
CONTINUOUS
 10
-9.192492371
 20
38.8470994657
 11
-9.192492371
 21
38.6470994657
  0
LINE
  5
501
100
AcDbEntity
  8
DRAFT
100
AcDbLine
 62
7
  6
CONTINUOUS
 10
-9.192492371
 20
38.8470994657
 11
-9.192492371
 21
38.6470994657
  0
LINE
  5
502
100
AcDbEntity
  8
0
100
AcDbLine
 62
7
  6
CONTINUOUS
 10
-9.192492371
 20
-0.6795892616
 11
-9.192492371
 21
-0.8795892616
  0
LINE
  5
503
100
AcDbEntity
  8
DRAFT
100
AcDbLine
 62
7
  6
CONTINUOUS
 10
-9.192492371
 20
-0.6795892616
 11
-9.192492371
 21
-0.8795892616
  0
LINE
  5
504
100
AcDbEntity
  8
0
100
AcDbLine
 62
7
  6
CONTINUOUS
 10
-9.1558367347
 20
38.883755102
 11
-9.1558367347
 21
38.683755102
  0
LINE
  5
505
100
AcDbEntity
  8
DRAFT
100
AcDbLine
 62
7
  6
CONTINUOUS
 10
-9.1558367347
 20
38.883755102
 11
-9.1558367347
 21
38.683755102
  0
LINE
  5
506
100
AcDbEntity
  8
RACCORDO
100
AcDbLine
 62
7
  6
CONTINUOUS
 10
-9.1558367347
 20
39.0282621278
 11
-9.1558367347
 21
38.983755102
  0
LINE
  5
507
100
AcDbEntity
  8
0
100
AcDbLine
 62
7
  6
CONTINUOUS
 10
-9.1558367347
 20
-0.716244898
 11
-9.1558367347
 21
-0.916244898
  0
LINE
  5
508
100
AcDbEntity
  8
DRAFT
100
AcDbLine
 62
7
  6
CONTINUOUS
 10
-9.1558367347
 20
-0.716244898
 11
-9.1558367347
 21
-0.916244898
  0
LINE
  5
509
100
AcDbEntity
  8
RACCORDO
100
AcDbLine
 62
7
  6
CONTINUOUS
 10
-9.1558367347
 20
-4.748751751
 11
-9.1558367347
 21
-3.3097690019
  0
LINE
  5
50A
100
AcDbEntity
  8
RACCORDO
100
AcDbLine
 62
7
  6
CONTINUOUS
 10
-9.1558367347
 20
-1.0607519237
 11
-9.1558367347
 21
-1.016244898
  0
LINE
  5
50B
100
AcDbEntity
  8
RACCORDO
100
AcDbLine
 62
7
  6
CONTINUOUS
 10
-9.1558367347
 20
41.277279206
 11
-9.1558367347
 21
42.7162619551
  0
LINE
  5
50C
100
AcDbEntity
  8
RACCORDO
100
AcDbLine
 62
253
  6
CONTINUOUS
 10
-8.9058367347
 20
42.9663000371
 11
-8.9058367347
 21
42.8863900513
  0
LINE
  5
50D
100
AcDbEntity
  8
RACCORDO
100
AcDbLine
 62
253
  6
CONTINUOUS
 10
-8.9058367347
 20
-4.9188798473
 11
-8.9058367347
 21
-4.998789833
  0
LINE
  5
50E
100
AcDbEntity
  8
RACCORDO
100
AcDbLine
 62
7
  6
CONTINUOUS
 10
-9.580016273
 20
41.2630083608
 11
-9.5809607411
 21
41.2088998199
  0
LINE
  5
50F
100
AcDbEntity
  8
ASSI
100
AcDbLine
 62
7
  6
CONTINUOUS
 10
-9.6058367347
 20
39.783755102
 11
-9.5809607411
 21
41.2088998199
  0
LWPOLYLINE
  5
510
100
AcDbEntity
  8
0
100
AcDbPolyline
 62
253
  6
CONTINUOUS
 90
5
 70
0
 10
-14.6513840966
 20
1.4798138201
 10
-14.6380831804
 20
1.5246921962
 10
-14.6162219103
 20
1.5670204324
 10
-14.5862966697
 20
1.6055415237
 10
-14.5491589254
 20
1.6389409311
  0
LWPOLYLINE
  5
511
100
AcDbEntity
  8
RACCORDO
100
AcDbPolyline
 62
253
  6
CONTINUOUS
 90
5
 70
0
 10
-14.6513840966
 20
1.4798138201
 10
-14.6380831804
 20
1.5246921962
 10
-14.6162219103
 20
1.5670204324
 10
-14.5862966697
 20
1.6055415237
 10
-14.5491589254
 20
1.6389409311
  0
LINE
  5
512
100
AcDbEntity
  8
0
100
AcDbLine
 62
7
  6
CONTINUOUS
 10
-14.6464090823
 20
0.7521376035
 11
-14.6368402187
 21
0.783755102
  0
LINE
  5
513
100
AcDbEntity
  8
RACCORDO
100
AcDbLine
 62
7
  6
CONTINUOUS
 10
-14.6464090823
 20
0.7521376035
 11
-14.6368402187
 21
0.783755102
  0
LINE
  5
514
100
AcDbEntity
  8
0
100
AcDbLine
 62
7
  6
CONTINUOUS
 10
-19.2431054126
 20
-2.0907955472
 11
-19.1558367347
 21
-1.916244898
  0
LINE
  5
515
100
AcDbEntity
  8
CURVE
100
AcDbLine
 62
253
  6
CONTINUOUS
 10
-1.6227678578
 20
21.1837550976
 11
-1.6000797295
 21
21.1837550976
  0
LINE
  5
516
100
AcDbEntity
  8
0
100
AcDbLine
 62
7
  6
CONTINUOUS
 10
-13.2558367347
 20
21.483755102
 11
-16.1958367347
 21
21.483755102
  0
LINE
  5
517
100
AcDbEntity
  8
SMUSSO
100
AcDbLine
 62
7
  6
CONTINUOUS
 10
-16.9058367347
 20
21.983755102
 11
-12.9058367347
 21
21.983755102
  0
LINE
  5
518
100
AcDbEntity
  8
ASSI
100
AcDbLine
 62
7
  6
CONTINUOUS
 10
-16.9058367347
 20
21.983755102
 11
-12.9058367347
 21
21.983755102
  0
LINE
  5
519
100
AcDbEntity
  8
RACCORDO
100
AcDbLine
 62
7
  6
CONTINUOUS
 10
-1.9427578565
 20
22.133755102
 11
-2.8558367347
 21
22.133755102
  0
LINE
  5
51A
100
AcDbEntity
  8
ASSI
100
AcDbLine
 62
7
  6
CONTINUOUS
 10
-1.9427578565
 20
22.133755102
 11
-2.8558367347
 21
22.133755102
  0
LINE
  5
51B
100
AcDbEntity
  8
SMUSSO
100
AcDbLine
 62
7
  6
CONTINUOUS
 10
-17.4058367347
 20
22.483755102
 11
-12.4058367347
 21
22.483755102
  0
LINE
  5
51C
100
AcDbEntity
  8
ASSI
100
AcDbLine
 62
7
  6
CONTINUOUS
 10
-17.4058367347
 20
22.483755102
 11
-12.4058367347
 21
22.483755102
  0
LINE
  5
51D
100
AcDbEntity
  8
0
100
AcDbLine
 62
7
  6
CONTINUOUS
 10
-19.2431054126
 20
40.0583057513
 11
-19.1558367347
 21
39.883755102
  0
LINE
  5
51E
100
AcDbEntity
  8
0
100
AcDbLine
 62
253
  6
CONTINUOUS
 10
-14.6377445209
 20
36.4419814672
 11
-14.6512790606
 21
36.4871604065
  0
LINE
  5
51F
100
AcDbEntity
  8
RACCORDO
100
AcDbLine
 62
253
  6
CONTINUOUS
 10
-14.6377445209
 20
36.4419814672
 11
-14.6512790606
 21
36.4871604065
  0
LWPOLYLINE
  5
520
100
AcDbEntity
  8
ASSI
100
AcDbPolyline
 62
7
  6
CONTINUOUS
 90
13
 70
0
 10
-5.4558367347
 20
-5.3162753589
 10
-5.4541264705
 20
-5.3423774858
 10
-5.4490242941
 20
-5.368032664
 10
-5.4406173129
 20
-5.3928021855
 10
-5.4290490718
 20
-5.4162626423
 10
-5.4145172847
 20
-5.4380124482
 10
-5.3972707069
 20
-5.4576788702
 10
-5.3776042849
 20
-5.4749254479
 10
-5.3558544791
 20
-5.4894572351
 10
-5.3323940222
 20
-5.5010254762
 10
-5.3076245008
 20
-5.5094324574
 10
-5.2819693225
 20
-5.5145346338
 10
-5.2558671957
 20
-5.516244898
  0
LINE
  5
521
100
AcDbEntity
  8
RACCORDO
100
AcDbLine
 62
7
  6
CONTINUOUS
 10
-8.642746433
 20
38.2968568268
 11
-8.642746433
 21
37.1968454037
  0
LINE
  5
522
100
AcDbEntity
  8
ASSI
100
AcDbLine
 62
7
  6
CONTINUOUS
 10
-8.642746433
 20
38.2968568268
 11
-8.642746433
 21
37.1968454037
  0
LINE
  5
523
100
AcDbEntity
  8
RACCORDO
100
AcDbLine
 62
7
  6
CONTINUOUS
 10
-8.642746433
 20
-0.3293466227
 11
-8.642746433
 21
0.4706762234
  0
LINE
  5
524
100
AcDbEntity
  8
ASSI
100
AcDbLine
 62
7
  6
CONTINUOUS
 10
-8.642746433
 20
-0.3293466227
 11
-8.642746433
 21
0.4706762234
  0
LINE
  5
525
100
AcDbEntity
  8
RACCORDO
100
AcDbLine
 62
253
  6
CONTINUOUS
 10
-8.3032554992
 20
42.6363744137
 11
-8.3032554992
 21
41.2863363375
  0
LINE
  5
526
100
AcDbEntity
  8
RACCORDO
100
AcDbLine
 62
253
  6
CONTINUOUS
 10
-8.3032554992
 20
-3.3188261335
 11
-8.3032554992
 21
-4.6688642097
  0
LINE
  5
527
100
AcDbEntity
  8
ASSI
100
AcDbLine
 62
7
  6
CONTINUOUS
 10
-8.3018395918
 20
-4.5556249933
 11
-8.3018395918
 21
-3.8768648026
  0
LINE
  5
528
100
AcDbEntity
  8
ASSI
100
AcDbLine
 62
7
  6
CONTINUOUS
 10
-8.3018395918
 20
41.8443750067
 11
-8.3018395918
 21
42.5231351974
  0
LINE
  5
529
100
AcDbEntity
  8
RACCORDO
100
AcDbLine
 62
7
  6
CONTINUOUS
 10
-8.2058367347
 20
42.7337931783
 11
-8.2058367347
 21
42.4017000492
  0
LINE
  5
52A
100
AcDbEntity
  8
ASSI
100
AcDbLine
 62
7
  6
CONTINUOUS
 10
-8.2058367347
 20
41.9658101549
 11
-8.2058367347
 21
41.383755102
  0
LINE
  5
52B
100
AcDbEntity
  8
ASSI
100
AcDbLine
 62
7
  6
CONTINUOUS
 10
-8.2058367347
 20
-3.416244898
 11
-8.2058367347
 21
-3.9982999508
  0
LINE
  5
52C
100
AcDbEntity
  8
RACCORDO
100
AcDbLine
 62
7
  6
CONTINUOUS
 10
-8.2058367347
 20
-4.4341898451
 11
-8.2058367347
 21
-4.7662829742
  0
LINE
  5
52D
100
AcDbEntity
  8
ASSI
100
AcDbLine
 62
7
  6
CONTINUOUS
 10
-7.9558367347
 20
37.583755102
 11
-7.9558367347
 21
37.1968454037
  0
LINE
  5
52E
100
AcDbEntity
  8
ASSI
100
AcDbLine
 62
7
  6
CONTINUOUS
 10
-7.530387384
 20
40.0583057513
 11
-7.530387384
 21
39.0710237799
  0
LINE
  5
52F
100
AcDbEntity
  8
ASSI
100
AcDbLine
 62
7
  6
CONTINUOUS
 10
-7.530387384
 20
-1.1035135759
 11
-7.530387384
 21
-2.0907955472
  0
LINE
  5
530
100
AcDbEntity
  8
0
100
AcDbLine
 62
7
  6
CONTINUOUS
 10
-7.3558367347
 20
-1.016244898
 11
-7.3558367347
 21
-1.916244898
  0
LINE
  5
531
100
AcDbEntity
  8
0
100
AcDbLine
 62
7
  6
CONTINUOUS
 10
-7.3558367347
 20
38.983755102
 11
-7.3558367347
 21
39.883755102
  0
LWPOLYLINE
  5
532
100
AcDbEntity
  8
ASSI
100
AcDbPolyline
 62
7
  6
CONTINUOUS
 90
13
 70
0
 10
-5.4558367347
 20
43.283785563
 10
-5.4541264705
 20
43.3098876899
 10
-5.4490242941
 20
43.3355428681
 10
-5.4406173129
 20
43.3603123895
 10
-5.4290490718
 20
43.3837728464
 10
-5.4145172847
 20
43.4055226523
 10
-5.3972707069
 20
43.4251890743
 10
-5.3776042849
 20
43.442435652
 10
-5.3558544791
 20
43.4569674392
 10
-5.3323940222
 20
43.4685356803
 10
-5.3076245008
 20
43.4769426615
 10
-5.2819693225
 20
43.4820448378
 10
-5.2558671957
 20
43.483755102
  0
LINE
  5
533
100
AcDbEntity
  8
SMUSSO
100
AcDbLine
 62
7
  6
CONTINUOUS
 10
-17.4058367347
 20
7.733755102
 11
-16.9058367347
 21
8.233755102
  0
LINE
  5
534
100
AcDbEntity
  8
ASSI
100
AcDbLine
 62
7
  6
CONTINUOUS
 10
-17.4058367347
 20
7.733755102
 11
-16.9058367347
 21
8.233755102
  0
LINE
  5
535
100
AcDbEntity
  8
SMUSSO
100
AcDbLine
 62
7
  6
CONTINUOUS
 10
-12.4058367347
 20
12.233755102
 11
-12.9058367347
 21
11.733755102
  0
LINE
  5
536
100
AcDbEntity
  8
ASSI
100
AcDbLine
 62
7
  6
CONTINUOUS
 10
-12.4058367347
 20
12.233755102
 11
-12.9058367347
 21
11.733755102
  0
LINE
  5
537
100
AcDbEntity
  8
CURVE
100
AcDbLine
 62
253
  6
CONTINUOUS
 10
-22.77012246
 20
7.8051836513
 11
-22.5844081854
 21
7.8980407499
  0
LWPOLYLINE
  5
538
100
AcDbEntity
  8
CURVE
100
AcDbPolyline
 62
7
  6
CONTINUOUS
 90
15
 70
0
 10
-1.546548303
 20
25.4464751282
 10
-1.5467675282
 20
25.4464359026
 10
-1.5469884178
 20
25.4467049921
 10
-1.5472106682
 20
25.4472834583
 10
-1.5474339761
 20
25.4481723628
 10
-1.5476580381
 20
25.4493727672
 10
-1.5478825508
 20
25.4508857332
 10
-1.5481072107
 20
25.4527123224
 10
-1.5483317144
 20
25.4548535964
 10
-1.5485557585
 20
25.4573106169
 10
-1.5487790396
 20
25.4600844455
 10
-1.5490012543
 20
25.4631761438
 10
-1.5492220991
 20
25.4665867736
 10
-1.5494412707
 20
25.4703173963
 10
-1.5496584655
 20
25.4743690736
  0
LWPOLYLINE
  5
539
100
AcDbEntity
  8
RACCORDO
100
AcDbPolyline
 62
7
  6
CONTINUOUS
 90
13
 70
0
 10
-8.2058367347
 20
42.7337931783
 10
-8.2079745649
 20
42.7664208368
 10
-8.2143522854
 20
42.7984898097
 10
-8.2248610119
 20
42.8294517114
 10
-8.2393213133
 20
42.8587772825
 10
-8.2574860472
 20
42.8859645398
 10
-8.2790442694
 20
42.9105475673
 10
-8.3036272969
 20
42.9321057895
 10
-8.3308145542
 20
42.9502705235
 10
-8.3601401253
 20
42.9647308248
 10
-8.3911020271
 20
42.9752395514
 10
-8.4231709999
 20
42.9816172718
 10
-8.4557986585
 20
42.983755102
  0
LINE
  5
53A
100
AcDbEntity
  8
ASSI
100
AcDbLine
 62
253
  6
CONTINUOUS
 10
-5.2575517756
 20
-4.1388946288
 11
-5.2422785938
 21
-4.6440761143
  0
LINE
  5
53B
100
AcDbEntity
  8
ASSI
100
AcDbLine
 62
253
  6
CONTINUOUS
 10
-5.4558367347
 20
-4.3678195061
 11
-5.4422107278
 21
-4.8185708053
  0
LINE
  5
53C
100
AcDbEntity
  8
ASSI
100
AcDbLine
 62
253
  6
CONTINUOUS
 10
-5.4422107278
 20
-4.8185708053
 11
-5.4421377559
 21
-4.8216102944
  0
LINE
  5
53D
100
AcDbEntity
  8
ASSI
100
AcDbLine
 62
253
  6
CONTINUOUS
 10
-5.4421377559
 20
-4.8216102944
 11
-5.4420328931
 21
-4.8273201994
  0
LINE
  5
53E
100
AcDbEntity
  8
ASSI
100
AcDbLine
 62
253
  6
CONTINUOUS
 10
-5.4420328931
 20
-4.8273201994
 11
-5.4419415545
 21
-4.8343469491
  0
LINE
  5
53F
100
AcDbEntity
  8
ASSI
100
AcDbLine
 62
253
  6
CONTINUOUS
 10
-5.4419415545
 20
-4.8343469491
 11
-5.4418531963
 21
-4.8453717654
  0
LINE
  5
540
100
AcDbEntity
  8
ASSI
100
AcDbLine
 62
253
  6
CONTINUOUS
 10
-5.4419089612
 20
43.2435552659
 11
-5.4418363885
 21
43.2324158878
  0
LINE
  5
541
100
AcDbEntity
  8
ASSI
100
AcDbLine
 62
253
  6
CONTINUOUS
 10
-5.2422785938
 20
-4.6440761143
 11
-5.2419460117
 21
-4.7424034985
  0
LINE
  5
542
100
AcDbEntity
  8
ASSI
100
AcDbLine
 62
253
  6
CONTINUOUS
 10
-5.4418531963
 20
-4.8453717654
 11
-5.4418134852
 21
-4.8574740001
  0
LINE
  5
543
100
AcDbEntity
  8
ASSI
100
AcDbLine
 62
253
  6
CONTINUOUS
 10
-6.9558367347
 20
37.583755102
 11
-6.9558367347
 21
37.1968454037
  0
LINE
  5
544
100
AcDbEntity
  8
0
100
AcDbLine
 62
7
  6
CONTINUOUS
 10
-6.1558367347
 20
-0.716244898
 11
-6.1558367347
 21
-1.916244898
  0
LINE
  5
545
100
AcDbEntity
  8
0
100
AcDbLine
 62
7
  6
CONTINUOUS
 10
-6.1558367347
 20
38.683755102
 11
-6.1558367347
 21
39.883755102
  0
LINE
  5
546
100
AcDbEntity
  8
ASSI
100
AcDbLine
 62
7
  6
CONTINUOUS
 10
-6.0685680568
 20
40.0583057513
 11
-6.0685680568
 21
38.7710237799
  0
LINE
  5
547
100
AcDbEntity
  8
ASSI
100
AcDbLine
 62
7
  6
CONTINUOUS
 10
-6.0685680568
 20
-0.8035135759
 11
-6.0685680568
 21
-2.0907955472
  0
LINE
  5
548
100
AcDbEntity
  8
ASSI
100
AcDbLine
 62
7
  6
CONTINUOUS
 10
-5.4558367347
 20
-5.3162753589
 11
-5.4558367347
 21
-3.416244898
  0
LINE
  5
549
100
AcDbEntity
  8
ASSI
100
AcDbLine
 62
7
  6
CONTINUOUS
 10
-5.4558367347
 20
41.383755102
 11
-5.4558367347
 21
43.283785563
  0
LINE
  5
54A
100
AcDbEntity
  8
ASSI
100
AcDbLine
 62
7
  6
CONTINUOUS
 10
-5.4431054126
 20
-2.0035135759
 11
-5.4431054126
 21
-0.8035135759
  0
LINE
  5
54B
100
AcDbEntity
  8
ASSI
100
AcDbLine
 62
7
  6
CONTINUOUS
 10
-5.4431054126
 20
38.7710237799
 11
-5.4431054126
 21
39.9710237799
  0
LINE
  5
54C
100
AcDbEntity
  8
0
100
AcDbLine
 62
7
  6
CONTINUOUS
 10
-5.3558367347
 20
-1.916244898
 11
-5.3558367347
 21
-0.716244898
  0
LINE
  5
54D
100
AcDbEntity
  8
0
100
AcDbLine
 62
7
  6
CONTINUOUS
 10
-5.3558367347
 20
38.683755102
 11
-5.3558367347
 21
39.883755102
  0
LINE
  5
54E
100
AcDbEntity
  8
0
100
AcDbLine
 62
7
  6
CONTINUOUS
 10
-5.2558367347
 20
39.833755102
 11
-5.2558367347
 21
38.683755102
  0
LINE
  5
54F
100
AcDbEntity
  8
DRAFT
100
AcDbLine
 62
7
  6
CONTINUOUS
 10
-5.2558367347
 20
39.833755102
 11
-5.2558367347
 21
38.683755102
  0
LINE
  5
550
100
AcDbEntity
  8
0
100
AcDbLine
 62
7
  6
CONTINUOUS
 10
-5.2558367347
 20
-0.716244898
 11
-5.2558367347
 21
-1.866244898
  0
LINE
  5
551
100
AcDbEntity
  8
DRAFT
100
AcDbLine
 62
7
  6
CONTINUOUS
 10
-5.2558367347
 20
-0.716244898
 11
-5.2558367347
 21
-1.866244898
  0
LINE
  5
552
100
AcDbEntity
  8
ASSI
100
AcDbLine
 62
253
  6
CONTINUOUS
 10
-5.2419460117
 20
-4.7424034985
 11
-5.2418422171
 21
-4.8605824653
  0
LINE
  5
553
100
AcDbEntity
  8
ASSI
100
AcDbLine
 62
253
  6
CONTINUOUS
 10
-5.2418422171
 20
-4.8605824653
 11
-5.2418429958
 21
-5.2653227279
  0
LINE
  5
554
100
AcDbEntity
  8
ASSI
100
AcDbLine
 62
253
  6
CONTINUOUS
 10
-5.4418363885
 20
43.2324158878
 11
-5.4418125481
 21
42.8255920378
  0
LINE
  5
555
100
AcDbEntity
  8
ASSI
100
AcDbLine
 62
253
  6
CONTINUOUS
 10
-5.4418134852
 20
-4.8574740001
 11
-5.4418125284
 21
-5.2555706182
  0
LINE
  5
556
100
AcDbEntity
  8
ASSI
100
AcDbLine
 62
253
  6
CONTINUOUS
 10
-5.2418438256
 20
43.2354955002
 11
-5.2419237388
 21
42.7226276722
  0
LWPOLYLINE
  5
557
100
AcDbEntity
  8
ASSI
100
AcDbPolyline
 62
253
  6
CONTINUOUS
 90
3
 70
0
 10
-5.2419237388
 20
42.7226276722
 10
-5.2422324492
 20
42.6197230573
 10
-5.2422785938
 20
42.6115863184
  0
LINE
  5
558
100
AcDbEntity
  8
ASSI
100
AcDbLine
 62
253
  6
CONTINUOUS
 10
-5.4418125481
 20
42.8255920378
 11
-5.441855891
 21
42.8123941772
  0
LINE
  5
559
100
AcDbEntity
  8
ASSI
100
AcDbLine
 62
253
  6
CONTINUOUS
 10
-5.4418125284
 20
-5.2555706182
 11
-5.4418541625
 21
-5.2685113849
  0
LINE
  5
55A
100
AcDbEntity
  8
ASSI
100
AcDbLine
 62
253
  6
CONTINUOUS
 10
-5.4418541625
 20
-5.2685113849
 11
-5.4418899288
 21
-5.2737965576
  0
LINE
  5
55B
100
AcDbEntity
  8
ASSI
100
AcDbLine
 62
253
  6
CONTINUOUS
 10
-5.441855891
 20
42.8123941772
 11
-5.44194273
 21
42.8017572886
  0
LINE
  5
55C
100
AcDbEntity
  8
ASSI
100
AcDbLine
 62
253
  6
CONTINUOUS
 10
-5.44194273
 20
42.8017572886
 11
-5.442038919
 21
42.7944528349
  0
LINE
  5
55D
100
AcDbEntity
  8
ASSI
100
AcDbLine
 62
253
  6
CONTINUOUS
 10
-5.442038919
 20
42.7944528349
 11
-5.4421162925
 21
42.7901417516
  0
LINE
  5
55E
100
AcDbEntity
  8
ASSI
100
AcDbLine
 62
253
  6
CONTINUOUS
 10
-5.4421162925
 20
42.7901417516
 11
-5.4422020077
 21
42.786431431
  0
LINE
  5
55F
100
AcDbEntity
  8
ASSI
100
AcDbLine
 62
253
  6
CONTINUOUS
 10
-5.4422020077
 20
42.786431431
 11
-5.4558367347
 21
42.3353297102
  0
LINE
  5
560
100
AcDbEntity
  8
ASSI
100
AcDbLine
 62
253
  6
CONTINUOUS
 10
-5.2422785938
 20
42.6115863184
 11
-5.2575517756
 21
42.1064048329
  0
LWPOLYLINE
  5
561
100
AcDbEntity
  8
RACCORDO
100
AcDbPolyline
 62
7
  6
CONTINUOUS
 90
13
 70
0
 10
-8.2058367347
 20
-4.7662829742
 10
-8.2079745649
 20
-4.7989106327
 10
-8.2143522854
 20
-4.8309796056
 10
-8.2248610119
 20
-4.8619415073
 10
-8.2393213133
 20
-4.8912670784
 10
-8.2574860472
 20
-4.9184543358
 10
-8.2790442694
 20
-4.9430373632
 10
-8.3036272969
 20
-4.9645955854
 10
-8.3308145542
 20
-4.9827603194
 10
-8.3601401253
 20
-4.9972206208
 10
-8.3911020271
 20
-5.0077293473
 10
-8.4231709999
 20
-5.0141070677
 10
-8.4557986585
 20
-5.016244898
  0
LINE
  5
562
100
AcDbEntity
  8
CURVE
100
AcDbLine
 62
253
  6
CONTINUOUS
 10
-21.8415510287
 20
7.3408980035
 11
-22.0272653227
 21
7.2480407499
  0
LINE
  5
563
100
AcDbEntity
  8
CURVE
100
AcDbLine
 62
7
  6
CONTINUOUS
 10
-1.5588805586
 20
25.2891993921
 11
-1.5585815672
 21
25.2891993921
  0
LINE
  5
564
100
AcDbEntity
  8
CURVE
100
AcDbLine
 62
253
  6
CONTINUOUS
 10
-1.6033208905
 20
26.0789931678
 11
-1.6098032125
 21
26.0789931678
  0
LINE
  5
565
100
AcDbEntity
  8
CURVE
100
AcDbLine
 62
7
  6
CONTINUOUS
 10
-1.5824993587
 20
26.2424864853
 11
-1.5626980105
 21
26.2424864853
  0
LINE
  5
566
100
AcDbEntity
  8
CURVE
100
AcDbLine
 62
7
  6
CONTINUOUS
 10
-1.5544112447
 20
26.2625563739
 11
-1.5405210469
 21
26.2625563739
  0
LWPOLYLINE
  5
567
100
AcDbEntity
  8
ASSI
100
AcDbPolyline
 62
253
  6
CONTINUOUS
 90
13
 70
0
 10
-2.0694253366
 20
-4.8172811951
 10
-2.0713436905
 20
-4.7947974239
 10
-2.0766132611
 20
-4.7726940993
 10
-2.0851448825
 20
-4.7513452309
 10
-2.0967941915
 20
-4.7311120622
 10
-2.1113640708
 20
-4.7123369579
 10
-2.1286079842
 20
-4.695337611
 10
-2.1482341485
 20
-4.6804016668
 10
-2.16991047
 20
-4.6677818563
 10
-2.1932701643
 20
-4.6576917191
 10
-2.2179179629
 20
-4.6503019903
 10
-2.2434368011
 20
-4.6457377113
 10
-2.2693948756
 20
-4.6440761143
  0
LINE
  5
568
100
AcDbEntity
  8
ASSI
100
AcDbLine
 62
7
  6
CONTINUOUS
 10
-4.1426692778
 20
-4.5744263686
 11
-4.1558367347
 21
-4.1388946288
  0
LINE
  5
569
100
AcDbEntity
  8
ASSI
100
AcDbLine
 62
253
  6
CONTINUOUS
 10
-5.4422649139
 20
43.2644678471
 11
-5.442178265
 21
43.2613520733
  0
LINE
  5
56A
100
AcDbEntity
  8
ASSI
100
AcDbLine
 62
253
  6
CONTINUOUS
 10
-5.442178265
 20
43.2613520733
 11
-5.4420979279
 21
43.2576448787
  0
LINE
  5
56B
100
AcDbEntity
  8
ASSI
100
AcDbLine
 62
253
  6
CONTINUOUS
 10
-5.4420979279
 20
43.2576448787
 11
-5.4419924458
 21
43.2510868397
  0
LINE
  5
56C
100
AcDbEntity
  8
ASSI
100
AcDbLine
 62
253
  6
CONTINUOUS
 10
-5.2425690072
 20
43.4671069343
 11
-5.2424776826
 21
43.461217944
  0
LINE
  5
56D
100
AcDbEntity
  8
ASSI
100
AcDbLine
 62
253
  6
CONTINUOUS
 10
-5.4419924458
 20
43.2510868397
 11
-5.4419089612
 21
43.2435552659
  0
LINE
  5
56E
100
AcDbEntity
  8
ASSI
100
AcDbLine
 62
253
  6
CONTINUOUS
 10
-5.2424776826
 20
43.461217944
 11
-5.242295356
 21
43.4398377982
  0
LINE
  5
56F
100
AcDbEntity
  8
ASSI
100
AcDbLine
 62
253
  6
CONTINUOUS
 10
-5.242295356
 20
43.4398377982
 11
-5.2419646
 21
43.3482789437
  0
LINE
  5
570
100
AcDbEntity
  8
ASSI
100
AcDbLine
 62
253
  6
CONTINUOUS
 10
-5.2419646
 20
43.3482789437
 11
-5.2418438256
 21
43.2354955002
  0
LINE
  5
571
100
AcDbEntity
  8
0
100
AcDbLine
 62
7
  6
CONTINUOUS
 10
-5.2191810983
 20
38.6470994657
 11
-5.2191810983
 21
37.583755102
  0
LINE
  5
572
100
AcDbEntity
  8
DRAFT
100
AcDbLine
 62
7
  6
CONTINUOUS
 10
-5.2191810983
 20
38.6470994657
 11
-5.2191810983
 21
37.583755102
  0
LINE
  5
573
100
AcDbEntity
  8
0
100
AcDbLine
 62
7
  6
CONTINUOUS
 10
-5.2191810983
 20
-0.6795892616
 11
-5.2191810983
 21
0.7175856344
  0
LINE
  5
574
100
AcDbEntity
  8
DRAFT
100
AcDbLine
 62
7
  6
CONTINUOUS
 10
-5.2191810983
 20
-0.6795892616
 11
-5.2191810983
 21
0.7175856344
  0
LINE
  5
575
100
AcDbEntity
  8
0
100
AcDbLine
 62
7
  6
CONTINUOUS
 10
-5.2017260334
 20
39.833755102
 11
-5.2017260334
 21
37.583755102
  0
LINE
  5
576
100
AcDbEntity
  8
DRAFT
100
AcDbLine
 62
7
  6
CONTINUOUS
 10
-5.2017260334
 20
39.833755102
 11
-5.2017260334
 21
37.583755102
  0
LINE
  5
577
100
AcDbEntity
  8
0
100
AcDbLine
 62
7
  6
CONTINUOUS
 10
-5.2017260334
 20
0.7263125022
 11
-5.2017260334
 21
-1.866244898
  0
LINE
  5
578
100
AcDbEntity
  8
DRAFT
100
AcDbLine
 62
7
  6
CONTINUOUS
 10
-5.2017260334
 20
0.7263125022
 11
-5.2017260334
 21
-1.866244898
  0
LINE
  5
579
100
AcDbEntity
  8
ASSI
100
AcDbLine
 62
7
  6
CONTINUOUS
 10
-4.5978424489
 20
40.2090521247
 11
-4.5978424489
 21
39.9710237799
  0
LINE
  5
57A
100
AcDbEntity
  8
ASSI
100
AcDbLine
 62
7
  6
CONTINUOUS
 10
-4.5978424489
 20
-2.0035135759
 11
-4.5978424489
 21
-2.2415419206
  0
LINE
  5
57B
100
AcDbEntity
  8
ASSI
100
AcDbLine
 62
7
  6
CONTINUOUS
 10
-4.4232917996
 20
40.3888685122
 11
-4.4232917996
 21
39.883755102
  0
LINE
  5
57C
100
AcDbEntity
  8
ASSI
100
AcDbLine
 62
7
  6
CONTINUOUS
 10
-4.4232917996
 20
-2.4213583081
 11
-4.4232917996
 21
-1.916244898
  0
LINE
  5
57D
100
AcDbEntity
  8
ASSI
100
AcDbLine
 62
7
  6
CONTINUOUS
 10
-4.1558367347
 20
-4.1388946288
 11
-4.1558367347
 21
-3.416244898
  0
LINE
  5
57E
100
AcDbEntity
  8
ASSI
100
AcDbLine
 62
7
  6
CONTINUOUS
 10
-4.1558367347
 20
41.383755102
 11
-4.1558367347
 21
42.1064048329
  0
LINE
  5
57F
100
AcDbEntity
  8
ASSI
100
AcDbLine
 62
253
  6
CONTINUOUS
 10
-4.1426692778
 20
-4.5744263686
 11
-4.1426692778
 21
-3.403077441
  0
LINE
  5
580
100
AcDbEntity
  8
ASSI
100
AcDbLine
 62
253
  6
CONTINUOUS
 10
-4.1426692778
 20
41.3705876451
 11
-4.1426692778
 21
42.5419365726
  0
LINE
  5
581
100
AcDbEntity
  8
0
100
AcDbLine
 62
7
  6
CONTINUOUS
 10
-4.0558367347
 20
-1.866244898
 11
-4.0558367347
 21
0.7263125022
  0
LINE
  5
582
100
AcDbEntity
  8
DRAFT
100
AcDbLine
 62
7
  6
CONTINUOUS
 10
-4.0558367347
 20
-1.866244898
 11
-4.0558367347
 21
0.7263125022
  0
LINE
  5
583
100
AcDbEntity
  8
0
100
AcDbLine
 62
7
  6
CONTINUOUS
 10
-4.0558367347
 20
37.583755102
 11
-4.0558367347
 21
39.833755102
  0
LINE
  5
584
100
AcDbEntity
  8
DRAFT
100
AcDbLine
 62
7
  6
CONTINUOUS
 10
-4.0558367347
 20
37.583755102
 11
-4.0558367347
 21
39.833755102
  0
LINE
  5
585
100
AcDbEntity
  8
ASSI
100
AcDbLine
 62
253
  6
CONTINUOUS
 10
-3.892707354
 20
-4.8605824653
 11
-3.892707354
 21
-3.398789833
  0
LINE
  5
586
100
AcDbEntity
  8
ASSI
100
AcDbLine
 62
253
  6
CONTINUOUS
 10
-3.892707354
 20
41.3663000371
 11
-3.892707354
 21
42.8280926693
  0
LINE
  5
587
100
AcDbEntity
  8
ASSI
100
AcDbLine
 62
253
  6
CONTINUOUS
 10
-3.6189661154
 20
-4.8605824653
 11
-3.6189661154
 21
-3.398789833
  0
LINE
  5
588
100
AcDbEntity
  8
ASSI
100
AcDbLine
 62
253
  6
CONTINUOUS
 10
-3.6189661154
 20
41.3663000371
 11
-3.6189661154
 21
42.8280926693
  0
LINE
  5
589
100
AcDbEntity
  8
0
100
AcDbLine
 62
253
  6
CONTINUOUS
 10
-3.4558367347
 20
37.583755102
 11
-3.4558367347
 21
37.1968454037
  0
LINE
  5
58A
100
AcDbEntity
  8
ASSI
100
AcDbLine
 62
253
  6
CONTINUOUS
 10
-5.2418429958
 20
-5.2653227279
 11
-5.2420257577
 21
-5.4064776845
  0
LINE
  5
58B
100
AcDbEntity
  8
ASSI
100
AcDbLine
 62
253
  6
CONTINUOUS
 10
-5.2420257577
 20
-5.4064776845
 11
-5.2423478372
 21
-5.4799136904
  0
LWPOLYLINE
  5
58C
100
AcDbEntity
  8
ASSI
100
AcDbPolyline
 62
253
  6
CONTINUOUS
 90
6
 70
0
 10
-5.2423478372
 20
-5.4799136904
 10
-5.242494343
 20
-5.4949955114
 10
-5.2425449117
 20
-5.4983277586
 10
-5.2425959142
 20
-5.5007904339
 10
-5.2426475232
 20
-5.5023753928
 10
-5.2426997387
 20
-5.503077441
  0
LINE
  5
58D
100
AcDbEntity
  8
ASSI
100
AcDbLine
 62
253
  6
CONTINUOUS
 10
-5.4418899288
 20
-5.2737965576
 11
-5.4419952665
 21
-5.2837877423
  0
LINE
  5
58E
100
AcDbEntity
  8
ASSI
100
AcDbLine
 62
253
  6
CONTINUOUS
 10
-5.4419952665
 20
-5.2837877423
 11
-5.4421011932
 21
-5.2903070685
  0
LINE
  5
58F
100
AcDbEntity
  8
ASSI
100
AcDbLine
 62
253
  6
CONTINUOUS
 10
-5.4421011932
 20
-5.2903070685
 11
-5.4421825146
 21
-5.2940151691
  0
LINE
  5
590
100
AcDbEntity
  8
ASSI
100
AcDbLine
 62
7
  6
CONTINUOUS
 10
-4.1558367347
 20
42.1064048329
 11
-4.1426692778
 21
42.5419365726
  0
LWPOLYLINE
  5
591
100
AcDbEntity
  8
ASSI
100
AcDbPolyline
 62
253
  6
CONTINUOUS
 90
10
 70
0
 10
-5.4421825146
 20
-5.2940151691
 10
-5.442270801
 20
-5.2971397752
 10
-5.4423173867
 20
-5.298475483
 10
-5.442365101
 20
-5.2996465561
 10
-5.4424139575
 20
-5.3006511906
 10
-5.4424639425
 20
-5.3014911905
 10
-5.4425145206
 20
-5.3021577428
 10
-5.4425655133
 20
-5.3026479101
 10
-5.442617099
 20
-5.3029646298
 10
-5.4426692778
 20
-5.303107902
  0
LWPOLYLINE
  5
592
100
AcDbEntity
  8
ASSI
100
AcDbPolyline
 62
253
  6
CONTINUOUS
 90
5
 70
0
 10
-2.2689737306
 20
43.4705876451
 10
-2.2690161432
 20
43.4700846482
 10
-2.269059349
 20
43.4689586106
 10
-2.269103348
 20
43.4671605261
 10
-2.2691942747
 20
43.4613399957
  0
LWPOLYLINE
  5
593
100
AcDbEntity
  8
ASSI
100
AcDbPolyline
 62
253
  6
CONTINUOUS
 90
13
 70
0
 10
-2.0694253366
 20
42.7847913991
 10
-2.0713436909
 20
42.7623076253
 10
-2.0766132626
 20
42.7402042987
 10
-2.0851448854
 20
42.7188554289
 10
-2.0967941961
 20
42.6986222594
 10
-2.1113640771
 20
42.679847155
 10
-2.1286079918
 20
42.6628478086
 10
-2.1482341566
 20
42.6479118656
 10
-2.1699104778
 20
42.6352920565
 10
-2.1932701712
 20
42.6252019207
 10
-2.2179179681
 20
42.6178121931
 10
-2.243436804
 20
42.613247915
 10
-2.2693948756
 20
42.6115863184
  0
LINE
  5
594
100
AcDbEntity
  8
CURVE
100
AcDbLine
 62
7
  6
CONTINUOUS
 10
-1.5319011374
 20
29.773982102
 11
-1.5824993526
 21
29.502832102
  0
LINE
  5
595
100
AcDbEntity
  8
CURVE
100
AcDbLine
 62
7
  6
CONTINUOUS
 10
-1.5824993526
 20
30.094948102
 11
-1.5495973984
 21
30.219303102
  0
LINE
  5
596
100
AcDbEntity
  8
ASSI
100
AcDbLine
 62
253
  6
CONTINUOUS
 10
-23.2558367993
 20
-3.4162448334
 11
-23.2384578222
 21
-3.398789833
  0
LINE
  5
597
100
AcDbEntity
  8
ASSI
100
AcDbLine
 62
253
  6
CONTINUOUS
 10
-23.7558367347
 20
-2.9163210504
 11
-23.7383816698
 21
-2.8988659855
  0
LINE
  5
598
100
AcDbEntity
  8
SMUSSO
100
AcDbLine
 62
7
  6
CONTINUOUS
 10
-17.4058367347
 20
2.733755102
 11
-16.9058367347
 21
3.233755102
  0
LINE
  5
599
100
AcDbEntity
  8
ASSI
100
AcDbLine
 62
7
  6
CONTINUOUS
 10
-17.4058367347
 20
2.733755102
 11
-16.9058367347
 21
3.233755102
  0
LINE
  5
59A
100
AcDbEntity
  8
SMUSSO
100
AcDbLine
 62
7
  6
CONTINUOUS
 10
-12.4058367347
 20
7.233755102
 11
-12.9058367347
 21
6.733755102
  0
LINE
  5
59B
100
AcDbEntity
  8
ASSI
100
AcDbLine
 62
7
  6
CONTINUOUS
 10
-12.4058367347
 20
7.233755102
 11
-12.9058367347
 21
6.733755102
  0
LINE
  5
59C
100
AcDbEntity
  8
CURVE
100
AcDbLine
 62
253
  6
CONTINUOUS
 10
-22.9558367347
 20
8.2694692992
 11
-21.6558367347
 21
8.6408980035
  0
LINE
  5
59D
100
AcDbEntity
  8
CURVE
100
AcDbLine
 62
253
  6
CONTINUOUS
 10
-1.6227678578
 20
26.7289931678
 11
-1.6000797295
 21
26.7289931678
  0
LINE
  5
59E
100
AcDbEntity
  8
CURVE
100
AcDbLine
 62
7
  6
CONTINUOUS
 10
-1.5324922939
 20
26.8453224464
 11
-1.5824993587
 21
26.8453224464
  0
LINE
  5
59F
100
AcDbEntity
  8
CURVE
100
AcDbLine
 62
253
  6
CONTINUOUS
 10
-1.6227678578
 20
27.6575647734
 11
-1.6000797295
 21
27.6575647734
  0
LINE
  5
5A0
100
AcDbEntity
  8
CURVE
100
AcDbLine
 62
253
  6
CONTINUOUS
 10
-1.6000797295
 20
28.0289931678
 11
-1.6227678578
 21
28.0289931678
  0
LINE
  5
5A1
100
AcDbEntity
  8
ASSI
100
AcDbLine
 62
253
  6
CONTINUOUS
 10
-23.7383816698
 20
40.8663761895
 11
-23.7558367347
 21
40.8838312545
  0
LINE
  5
5A2
100
AcDbEntity
  8
ASSI
100
AcDbLine
 62
253
  6
CONTINUOUS
 10
-23.2384578222
 20
41.3663000371
 11
-23.2558367347
 21
41.383755102
  0
LWPOLYLINE
  5
5A3
100
AcDbEntity
  8
ASSI
100
AcDbPolyline
 62
253
  6
CONTINUOUS
 90
4
 70
0
 10
-5.2426997387
 20
43.4705876451
 10
-5.2426568863
 20
43.4700764377
 10
-5.2426133091
 20
43.4689317965
 10
-5.2425690072
 20
43.4671069343
  0
LINE
  5
5A4
100
AcDbEntity
  8
CURVE
100
AcDbLine
 62
253
  6
CONTINUOUS
 10
-1.6132936939
 20
11.483755102
 11
-1.60381953
 21
11.348040881
  0
LWPOLYLINE
  5
5A5
100
AcDbEntity
  8
CURVE
100
AcDbPolyline
 62
7
  6
CONTINUOUS
 90
22
 70
0
 10
-1.5509648812
 20
6.864321059
 10
-1.5504454056
 20
6.8527031414
 10
-1.5499173983
 20
6.8423057494
 10
-1.5493821558
 20
6.8331550995
 10
-1.5488406677
 20
6.8252680172
 10
-1.5482939233
 20
6.818661328
 10
-1.547742912
 20
6.8133518575
 10
-1.547188623
 20
6.8093564311
 10
-1.5466320459
 20
6.8066918745
 10
-1.5460741699
 20
6.8053750131
 10
-1.5455159845
 20
6.8054226725
 10
-1.544958479
 20
6.8068516782
 10
-1.5443988348
 20
6.8096970319
 10
-1.5438418414
 20
6.8139406485
 10
-1.5432884573
 20
6.8195633981
 10
-1.5427396411
 20
6.8265461511
 10
-1.5421963514
 20
6.8348697775
 10
-1.5416595467
 20
6.8445151477
 10
-1.5411301856
 20
6.8554631319
 10
-1.5406092267
 20
6.8676946003
 10
-1.5400976285
 20
6.8811904232
 10
-1.5391121059
 20
6.9116989964
  0
LINE
  5
5A6
100
AcDbEntity
  8
CURVE
100
AcDbLine
 62
7
  6
CONTINUOUS
 10
-1.5519762998
 20
6.8911492913
 11
-1.5509648812
 21
6.864321059
  0
LINE
  5
5A7
100
AcDbEntity
  8
CURVE
100
AcDbLine
 62
7
  6
CONTINUOUS
 10
-1.5495191146
 20
7.0506371921
 11
-1.5502725377
 21
7.0707665358
  0
LWPOLYLINE
  5
5A8
100
AcDbEntity
  8
ASSI
100
AcDbPolyline
 62
253
  6
CONTINUOUS
 90
9
 70
0
 10
-2.069402396
 20
-5.2971485858
 10
-2.0693557746
 20
-5.2984837208
 10
-2.0693080527
 20
-5.2996536574
 10
-2.0692592202
 20
-5.3006569139
 10
-2.0692092871
 20
-5.3014949718
 10
-2.0691587664
 20
-5.3021598934
 10
-2.0691078291
 20
-5.3026490327
 10
-2.0690563042
 20
-5.3029650355
 10
-2.0690041916
 20
-5.303107902
  0
LINE
  5
5A9
100
AcDbEntity
  8
CURVE
100
AcDbLine
 62
253
  6
CONTINUOUS
 10
-1.6132936939
 20
2.255183544
 11
-1.6180307759
 21
2.390898218
  0
LINE
  5
5AA
100
AcDbEntity
  8
CURVE
100
AcDbLine
 62
253
  6
CONTINUOUS
 10
-1.5990824485
 20
3.205183544
 11
-1.5943453671
 21
3.069469776
  0
LINE
  5
5AB
100
AcDbEntity
  8
ASSI
100
AcDbLine
 62
7
  6
CONTINUOUS
 10
-3.3558367347
 20
42.1064048329
 11
-3.3690041916
 21
42.5419365726
  0
LINE
  5
5AC
100
AcDbEntity
  8
ASSI
100
AcDbLine
 62
7
  6
CONTINUOUS
 10
-1.5732917996
 20
0.5611053712
 11
-1.5558367347
 21
-0.016244898
  0
LINE
  5
5AD
100
AcDbEntity
  8
CURVE
100
AcDbLine
 62
7
  6
CONTINUOUS
 10
-1.5502725377
 20
7.0707665358
 11
-1.5509955372
 21
7.09422169
  0
LINE
  5
5AE
100
AcDbEntity
  8
CURVE
100
AcDbLine
 62
7
  6
CONTINUOUS
 10
-1.5529461865
 20
6.9226135148
 11
-1.5519762998
 21
6.8911492913
  0
LINE
  5
5AF
100
AcDbEntity
  8
ASSI
100
AcDbLine
 62
253
  6
CONTINUOUS
 10
-2.0694908928
 20
-5.2940172467
 11
-2.069402396
 21
-5.2971485858
  0
LINE
  5
5B0
100
AcDbEntity
  8
CURVE
100
AcDbLine
 62
253
  6
CONTINUOUS
 10
-1.5896082856
 20
4.426611986
 11
-1.5967139088
 21
4.698040428
  0
LINE
  5
5B1
100
AcDbEntity
  8
CURVE
100
AcDbLine
 62
253
  6
CONTINUOUS
 10
-1.5943453671
 20
8.2718503617
 11
-1.5896082856
 21
8.090897765
  0
LINE
  5
5B2
100
AcDbEntity
  8
CURVE
100
AcDbLine
 62
253
  6
CONTINUOUS
 10
-1.6098032125
 20
17.1599454455
 11
-1.6000797295
 21
16.7885170512
  0
LINE
  5
5B3
100
AcDbEntity
  8
CURVE
100
AcDbLine
 62
253
  6
CONTINUOUS
 10
-1.6227678578
 20
4.698040428
 11
-1.5990824485
 21
3.748040428
  0
LINE
  5
5B4
100
AcDbEntity
  8
CURVE
100
AcDbLine
 62
7
  6
CONTINUOUS
 10
-1.5509955372
 20
7.09422169
 11
-1.5520139096
 21
7.1351895327
  0
LINE
  5
5B5
100
AcDbEntity
  8
CURVE
100
AcDbLine
 62
7
  6
CONTINUOUS
 10
-1.5543104873
 20
6.9780984203
 11
-1.5529461865
 21
6.9226135148
  0
LWPOLYLINE
  5
5B6
100
AcDbEntity
  8
ASSI
100
AcDbPolyline
 62
253
  6
CONTINUOUS
 90
4
 70
0
 10
-2.2691282508
 20
-5.4983381675
 10
-2.2690773263
 20
-5.5007954219
 10
-2.2690258196
 20
-5.5023768418
 10
-2.2689737306
 20
-5.503077441
  0
LINE
  5
5B7
100
AcDbEntity
  8
ASSI
100
AcDbLine
 62
253
  6
CONTINUOUS
 10
-2.069572564
 20
-5.2902922662
 11
-2.0694908928
 21
-5.2940172467
  0
LINE
  5
5B8
100
AcDbEntity
  8
CURVE
100
AcDbLine
 62
7
  6
CONTINUOUS
 10
-1.5372977688
 20
9.485030102
 11
-1.5827661418
 21
11.730945102
  0
LINE
  5
5B9
100
AcDbEntity
  8
CURVE
100
AcDbLine
 62
7
  6
CONTINUOUS
 10
-1.5320163058
 20
9.490350102
 11
-1.5827661418
 21
11.997169102
  0
LINE
  5
5BA
100
AcDbEntity
  8
ASSI
100
AcDbLine
 62
7
  6
CONTINUOUS
 10
-1.7053360081
 20
2.7166175551
 11
-1.706735648
 21
2.7877118504
  0
LINE
  5
5BB
100
AcDbEntity
  8
ASSI
100
AcDbLine
 62
7
  6
CONTINUOUS
 10
-1.7053360081
 20
7.7166175551
 11
-1.706735648
 21
7.7877118504
  0
LINE
  5
5BC
100
AcDbEntity
  8
ASSI
100
AcDbLine
 62
7
  6
CONTINUOUS
 10
-1.7053360081
 20
12.7166175551
 11
-1.706735648
 21
12.7877118503
  0
LINE
  5
5BD
100
AcDbEntity
  8
ASSI
100
AcDbLine
 62
7
  6
CONTINUOUS
 10
-1.7053360081
 20
17.7166175551
 11
-1.706735648
 21
17.7877118503
  0
LINE
  5
5BE
100
AcDbEntity
  8
RACCORDO
100
AcDbLine
 62
7
  6
CONTINUOUS
 10
-1.7053355285
 20
2.7166169638
 11
-1.7069626002
 21
2.8005763204
  0
LINE
  5
5BF
100
AcDbEntity
  8
RACCORDO
100
AcDbLine
 62
7
  6
CONTINUOUS
 10
-1.7053355285
 20
7.7166169638
 11
-1.7069626002
 21
7.8005763204
  0
LINE
  5
5C0
100
AcDbEntity
  8
RACCORDO
100
AcDbLine
 62
7
  6
CONTINUOUS
 10
-1.7053355285
 20
12.7166169638
 11
-1.7069626002
 21
12.8005763204
  0
LINE
  5
5C1
100
AcDbEntity
  8
RACCORDO
100
AcDbLine
 62
7
  6
CONTINUOUS
 10
-1.7053355285
 20
17.7166169638
 11
-1.7069626002
 21
17.8005763204
  0
LINE
  5
5C2
100
AcDbEntity
  8
CURVE
100
AcDbLine
 62
253
  6
CONTINUOUS
 10
-1.5943453671
 20
3.069469776
 11
-1.5896082856
 21
2.798040428
  0
LINE
  5
5C3
100
AcDbEntity
  8
CURVE
100
AcDbLine
 62
253
  6
CONTINUOUS
 10
-1.5990824485
 20
5.783755102
 11
-1.5896082856
 21
5.240898218
  0
LINE
  5
5C4
100
AcDbEntity
  8
CURVE
100
AcDbLine
 62
7
  6
CONTINUOUS
 10
-1.5271590287
 20
3.000904102
 11
-1.5149395632
 21
2.300661102
  0
LINE
  5
5C5
100
AcDbEntity
  8
CURVE
100
AcDbLine
 62
7
  6
CONTINUOUS
 10
-1.5149395632
 20
2.585781102
 11
-1.5271590287
 21
3.286048102
  0
LINE
  5
5C6
100
AcDbEntity
  8
CURVE
100
AcDbLine
 62
253
  6
CONTINUOUS
 10
-1.6085566124
 20
8.36232666
 11
-1.60381953
 21
8.090897765
  0
LINE
  5
5C7
100
AcDbEntity
  8
CURVE
100
AcDbLine
 62
7
  6
CONTINUOUS
 10
-1.5574217434
 20
5.781798102
 11
-1.5320163058
 21
4.325924102
  0
LINE
  5
5C8
100
AcDbEntity
  8
CURVE
100
AcDbLine
 62
7
  6
CONTINUOUS
 10
-1.5320163058
 20
4.611045102
 11
-1.5574217434
 21
6.066965102
  0
LINE
  5
5C9
100
AcDbEntity
  8
CURVE
100
AcDbLine
 62
7
  6
CONTINUOUS
 10
-1.5555642188
 20
7.0438806202
 11
-1.5543104873
 21
6.9780984203
  0
LINE
  5
5CA
100
AcDbEntity
  8
CURVE
100
AcDbLine
 62
253
  6
CONTINUOUS
 10
-1.6227678578
 20
12.0266122125
 11
-1.6132936939
 21
11.483755102
  0
LINE
  5
5CB
100
AcDbEntity
  8
CURVE
100
AcDbLine
 62
253
  6
CONTINUOUS
 10
-1.5990824485
 20
10.8051837705
 11
-1.5896082856
 21
10.2623264335
  0
LINE
  5
5CC
100
AcDbEntity
  8
CURVE
100
AcDbLine
 62
253
  6
CONTINUOUS
 10
-1.5896082856
 20
12.0266122125
 11
-1.5943453671
 21
12.2980407678
  0
LINE
  5
5CD
100
AcDbEntity
  8
CURVE
100
AcDbLine
 62
253
  6
CONTINUOUS
 10
-1.5990824485
 20
13.383755102
 11
-1.5896082856
 21
12.8408979349
  0
LINE
  5
5CE
100
AcDbEntity
  8
CURVE
100
AcDbLine
 62
7
  6
CONTINUOUS
 10
-1.5520139096
 20
7.1351895327
 11
-1.5532304116
 21
7.199536464
  0
LWPOLYLINE
  5
5CF
100
AcDbEntity
  8
RACCORDO
100
AcDbPolyline
 62
253
  6
CONTINUOUS
 90
10
 70
0
 10
-2.0099177155
 20
3.2480043871
 10
-2.0086861797
 20
3.1638395256
 10
-2.0073923853
 20
3.0884453073
 10
-2.0060538622
 20
3.0221837257
 10
-2.0046697022
 20
2.9654148372
 10
-2.0032408136
 20
2.9184712021
 10
-2.0017874516
 20
2.8816257093
 10
-2.0003163679
 20
2.8551101526
 10
-1.9988208108
 20
2.8391093212
 10
-1.9973007802
 20
2.833755102
  0
LWPOLYLINE
  5
5D0
100
AcDbEntity
  8
ASSI
100
AcDbPolyline
 62
253
  6
CONTINUOUS
 90
10
 70
0
 10
-2.0099177155
 20
3.2480043871
 10
-2.0086861797
 20
3.1638395256
 10
-2.0073923853
 20
3.0884453073
 10
-2.0060538622
 20
3.0221837257
 10
-2.0046697022
 20
2.9654148372
 10
-2.0032408136
 20
2.9184712021
 10
-2.0017874516
 20
2.8816257093
 10
-2.0003163679
 20
2.8551101526
 10
-1.9988208108
 20
2.8391093212
 10
-1.9973007802
 20
2.833755102
  0
LWPOLYLINE
  5
5D1
100
AcDbEntity
  8
RACCORDO
100
AcDbPolyline
 62
253
  6
CONTINUOUS
 90
10
 70
0
 10
-2.0099177155
 20
8.2480043871
 10
-2.0086861797
 20
8.1638395256
 10
-2.0073923853
 20
8.0884453073
 10
-2.0060538622
 20
8.0221837257
 10
-2.0046697022
 20
7.9654148372
 10
-2.0032408136
 20
7.9184712021
 10
-2.0017874516
 20
7.8816257093
 10
-2.0003163679
 20
7.8551101526
 10
-1.9988208108
 20
7.8391093212
 10
-1.9973007802
 20
7.833755102
  0
LWPOLYLINE
  5
5D2
100
AcDbEntity
  8
ASSI
100
AcDbPolyline
 62
253
  6
CONTINUOUS
 90
10
 70
0
 10
-2.0099177155
 20
8.2480043871
 10
-2.0086861797
 20
8.1638395256
 10
-2.0073923853
 20
8.0884453073
 10
-2.0060538622
 20
8.0221837257
 10
-2.0046697022
 20
7.9654148372
 10
-2.0032408136
 20
7.9184712021
 10
-2.0017874516
 20
7.8816257093
 10
-2.0003163679
 20
7.8551101526
 10
-1.9988208108
 20
7.8391093212
 10
-1.9973007802
 20
7.833755102
  0
LWPOLYLINE
  5
5D3
100
AcDbEntity
  8
RACCORDO
100
AcDbPolyline
 62
253
  6
CONTINUOUS
 90
10
 70
0
 10
-2.0099177155
 20
13.2480043871
 10
-2.0086861797
 20
13.1638395256
 10
-2.0073923853
 20
13.0884453073
 10
-2.0060538622
 20
13.0221837257
 10
-2.0046697022
 20
12.9654148372
 10
-2.0032408136
 20
12.9184712021
 10
-2.0017874516
 20
12.8816257093
 10
-2.0003163679
 20
12.8551101526
 10
-1.9988208108
 20
12.8391093212
 10
-1.9973007802
 20
12.833755102
  0
LWPOLYLINE
  5
5D4
100
AcDbEntity
  8
ASSI
100
AcDbPolyline
 62
253
  6
CONTINUOUS
 90
10
 70
0
 10
-2.0099177155
 20
13.2480043871
 10
-2.0086861797
 20
13.1638395256
 10
-2.0073923853
 20
13.0884453073
 10
-2.0060538622
 20
13.0221837257
 10
-2.0046697022
 20
12.9654148372
 10
-2.0032408136
 20
12.9184712021
 10
-2.0017874516
 20
12.8816257093
 10
-2.0003163679
 20
12.8551101526
 10
-1.9988208108
 20
12.8391093212
 10
-1.9973007802
 20
12.833755102
  0
LWPOLYLINE
  5
5D5
100
AcDbEntity
  8
RACCORDO
100
AcDbPolyline
 62
253
  6
CONTINUOUS
 90
10
 70
0
 10
-2.0099177155
 20
18.2480043871
 10
-2.0086861797
 20
18.1638395256
 10
-2.0073923853
 20
18.0884453073
 10
-2.0060538622
 20
18.0221837257
 10
-2.0046697022
 20
17.9654148372
 10
-2.0032408136
 20
17.9184712021
 10
-2.0017874516
 20
17.8816257093
 10
-2.0003163679
 20
17.8551101526
 10
-1.9988208108
 20
17.8391093212
 10
-1.9973007802
 20
17.833755102
  0
LWPOLYLINE
  5
5D6
100
AcDbEntity
  8
ASSI
100
AcDbPolyline
 62
253
  6
CONTINUOUS
 90
10
 70
0
 10
-2.0099177155
 20
18.2480043871
 10
-2.0086861797
 20
18.1638395256
 10
-2.0073923853
 20
18.0884453073
 10
-2.0060538622
 20
18.0221837257
 10
-2.0046697022
 20
17.9654148372
 10
-2.0032408136
 20
17.9184712021
 10
-2.0017874516
 20
17.8816257093
 10
-2.0003163679
 20
17.8551101526
 10
-1.9988208108
 20
17.8391093212
 10
-1.9973007802
 20
17.833755102
  0
LINE
  5
5D7
100
AcDbEntity
  8
ASSI
100
AcDbLine
 62
7
  6
CONTINUOUS
 10
-1.706735648
 20
2.7877118504
 11
-1.7083624558
 21
2.8890750271
  0
LINE
  5
5D8
100
AcDbEntity
  8
ASSI
100
AcDbLine
 62
7
  6
CONTINUOUS
 10
-1.706735648
 20
7.7877118504
 11
-1.7083624558
 21
7.8890750271
  0
LINE
  5
5D9
100
AcDbEntity
  8
ASSI
100
AcDbLine
 62
7
  6
CONTINUOUS
 10
-1.706735648
 20
12.7877118503
 11
-1.7083624558
 21
12.8890750271
  0
LINE
  5
5DA
100
AcDbEntity
  8
ASSI
100
AcDbLine
 62
7
  6
CONTINUOUS
 10
-1.706735648
 20
17.7877118503
 11
-1.7083624558
 21
17.8890750271
  0
LINE
  5
5DB
100
AcDbEntity
  8
ASSI
100
AcDbLine
 62
253
  6
CONTINUOUS
 10
-2.069678975
 20
-5.2837307459
 11
-2.069572564
 21
-5.2902922662
  0
LINE
  5
5DC
100
AcDbEntity
  8
RACCORDO
100
AcDbLine
 62
7
  6
CONTINUOUS
 10
-1.7069626002
 20
2.8005763204
 11
-1.7085313894
 21
2.9008825101
  0
LINE
  5
5DD
100
AcDbEntity
  8
RACCORDO
100
AcDbLine
 62
7
  6
CONTINUOUS
 10
-1.7069626002
 20
7.8005763204
 11
-1.7085313894
 21
7.9008825101
  0
LINE
  5
5DE
100
AcDbEntity
  8
RACCORDO
100
AcDbLine
 62
7
  6
CONTINUOUS
 10
-1.7069626002
 20
12.8005763204
 11
-1.7085313894
 21
12.9008825101
  0
LINE
  5
5DF
100
AcDbEntity
  8
RACCORDO
100
AcDbLine
 62
7
  6
CONTINUOUS
 10
-1.7069626002
 20
17.8005763204
 11
-1.7085313894
 21
17.9008825101
  0
LINE
  5
5E0
100
AcDbEntity
  8
CURVE
100
AcDbLine
 62
253
  6
CONTINUOUS
 10
-1.6014509902
 20
7.5028025054
 11
-1.60381953
 21
7.683755102
  0
LINE
  5
5E1
100
AcDbEntity
  8
ASSI
100
AcDbLine
 62
253
  6
CONTINUOUS
 10
-2.0697080302
 20
42.7997566696
 11
-2.069604299
 21
42.7926382445
  0
LINE
  5
5E2
100
AcDbEntity
  8
CURVE
100
AcDbLine
 62
7
  6
CONTINUOUS
 10
-1.5570458562
 20
7.1476079266
 11
-1.5555642188
 21
7.0438806202
  0
LINE
  5
5E3
100
AcDbEntity
  8
CURVE
100
AcDbLine
 62
7
  6
CONTINUOUS
 10
-1.5532304116
 20
7.199536464
 11
-1.5542842674
 21
7.2754986911
  0
LINE
  5
5E4
100
AcDbEntity
  8
ASSI
100
AcDbLine
 62
7
  6
CONTINUOUS
 10
-1.7083624558
 20
2.8890750271
 11
-1.7099671688
 21
3.0117272513
  0
LINE
  5
5E5
100
AcDbEntity
  8
ASSI
100
AcDbLine
 62
7
  6
CONTINUOUS
 10
-1.7083624558
 20
7.8890750271
 11
-1.7099671688
 21
8.0117272513
  0
LINE
  5
5E6
100
AcDbEntity
  8
ASSI
100
AcDbLine
 62
7
  6
CONTINUOUS
 10
-1.7083624558
 20
12.8890750271
 11
-1.7099671688
 21
13.0117272513
  0
LINE
  5
5E7
100
AcDbEntity
  8
ASSI
100
AcDbLine
 62
7
  6
CONTINUOUS
 10
-1.7083624558
 20
17.8890750271
 11
-1.7099671688
 21
18.0117272513
  0
LINE
  5
5E8
100
AcDbEntity
  8
ASSI
100
AcDbLine
 62
253
  6
CONTINUOUS
 10
-2.2692286984
 20
-5.4908326898
 11
-2.2691282508
 21
-5.4983381675
  0
LINE
  5
5E9
100
AcDbEntity
  8
RACCORDO
100
AcDbLine
 62
7
  6
CONTINUOUS
 10
-1.7085313894
 20
2.9008825101
 11
-1.7102935495
 21
3.0396564861
  0
LINE
  5
5EA
100
AcDbEntity
  8
RACCORDO
100
AcDbLine
 62
7
  6
CONTINUOUS
 10
-1.7085313894
 20
7.9008825101
 11
-1.7102935495
 21
8.0396564861
  0
LINE
  5
5EB
100
AcDbEntity
  8
RACCORDO
100
AcDbLine
 62
7
  6
CONTINUOUS
 10
-1.7085313894
 20
12.9008825101
 11
-1.7102935495
 21
13.0396564861
  0
LINE
  5
5EC
100
AcDbEntity
  8
RACCORDO
100
AcDbLine
 62
7
  6
CONTINUOUS
 10
-1.7085313894
 20
17.9008825101
 11
-1.7102935495
 21
18.0396564861
  0
LINE
  5
5ED
100
AcDbEntity
  8
RACCORDO
100
AcDbLine
 62
253
  6
CONTINUOUS
 10
-2.0121922154
 20
3.4408596715
 11
-2.0099177155
 21
3.2480043871
  0
LINE
  5
5EE
100
AcDbEntity
  8
ASSI
100
AcDbLine
 62
253
  6
CONTINUOUS
 10
-2.0121922154
 20
3.4408596715
 11
-2.0099177155
 21
3.2480043871
  0
LINE
  5
5EF
100
AcDbEntity
  8
RACCORDO
100
AcDbLine
 62
253
  6
CONTINUOUS
 10
-2.0121922154
 20
8.4408596715
 11
-2.0099177155
 21
8.2480043871
  0
LINE
  5
5F0
100
AcDbEntity
  8
ASSI
100
AcDbLine
 62
253
  6
CONTINUOUS
 10
-2.0121922154
 20
8.4408596715
 11
-2.0099177155
 21
8.2480043871
  0
LINE
  5
5F1
100
AcDbEntity
  8
RACCORDO
100
AcDbLine
 62
253
  6
CONTINUOUS
 10
-2.0121922154
 20
13.4408596715
 11
-2.0099177155
 21
13.2480043871
  0
LINE
  5
5F2
100
AcDbEntity
  8
ASSI
100
AcDbLine
 62
253
  6
CONTINUOUS
 10
-2.0121922154
 20
13.4408596715
 11
-2.0099177155
 21
13.2480043871
  0
LINE
  5
5F3
100
AcDbEntity
  8
RACCORDO
100
AcDbLine
 62
253
  6
CONTINUOUS
 10
-2.0121922154
 20
18.4408596715
 11
-2.0099177155
 21
18.2480043871
  0
LINE
  5
5F4
100
AcDbEntity
  8
ASSI
100
AcDbLine
 62
253
  6
CONTINUOUS
 10
-2.0121922154
 20
18.4408596715
 11
-2.0099177155
 21
18.2480043871
  0
LINE
  5
5F5
100
AcDbEntity
  8
CURVE
100
AcDbLine
 62
253
  6
CONTINUOUS
 10
-1.60381953
 20
9.176612439
 11
-1.6014509902
 21
8.9504219197
  0
LINE
  5
5F6
100
AcDbEntity
  8
ASSI
100
AcDbLine
 62
7
  6
CONTINUOUS
 10
-1.7099671688
 20
3.0117272513
 11
-1.7115233474
 21
3.1556172041
  0
LINE
  5
5F7
100
AcDbEntity
  8
ASSI
100
AcDbLine
 62
7
  6
CONTINUOUS
 10
-1.7099671688
 20
8.0117272513
 11
-1.7115233474
 21
8.1556172041
  0
LINE
  5
5F8
100
AcDbEntity
  8
ASSI
100
AcDbLine
 62
7
  6
CONTINUOUS
 10
-1.7099671688
 20
13.0117272513
 11
-1.7115233474
 21
13.1556172041
  0
LINE
  5
5F9
100
AcDbEntity
  8
ASSI
100
AcDbLine
 62
7
  6
CONTINUOUS
 10
-1.7099671688
 20
18.0117272513
 11
-1.7115233474
 21
18.1556172041
  0
LINE
  5
5FA
100
AcDbEntity
  8
RACCORDO
100
AcDbLine
 62
7
  6
CONTINUOUS
 10
-1.7102935495
 20
3.0396564861
 11
-1.7119845997
 21
3.204069553
  0
LINE
  5
5FB
100
AcDbEntity
  8
RACCORDO
100
AcDbLine
 62
7
  6
CONTINUOUS
 10
-1.7102935495
 20
8.0396564861
 11
-1.7119845997
 21
8.204069553
  0
LINE
  5
5FC
100
AcDbEntity
  8
RACCORDO
100
AcDbLine
 62
7
  6
CONTINUOUS
 10
-1.7102935495
 20
13.0396564861
 11
-1.7119845997
 21
13.204069553
  0
LINE
  5
5FD
100
AcDbEntity
  8
RACCORDO
100
AcDbLine
 62
7
  6
CONTINUOUS
 10
-1.7102935495
 20
18.0396564861
 11
-1.7119845997
 21
18.204069553
  0
LINE
  5
5FE
100
AcDbEntity
  8
CURVE
100
AcDbLine
 62
7
  6
CONTINUOUS
 10
-1.5542842674
 20
7.2754986911
 11
-1.5551818653
 21
7.3662111836
  0
LINE
  5
5FF
100
AcDbEntity
  8
ASSI
100
AcDbLine
 62
253
  6
CONTINUOUS
 10
-2.0697842894
 20
-5.2737024638
 11
-2.069678975
 21
-5.2837307459
  0
LINE
  5
600
100
AcDbEntity
  8
RACCORDO
100
AcDbLine
 62
253
  6
CONTINUOUS
 10
-2.0141722135
 20
3.6633157482
 11
-2.0121922154
 21
3.4408596715
  0
LINE
  5
601
100
AcDbEntity
  8
ASSI
100
AcDbLine
 62
253
  6
CONTINUOUS
 10
-2.0141722135
 20
3.6633157482
 11
-2.0121922154
 21
3.4408596715
  0
LINE
  5
602
100
AcDbEntity
  8
RACCORDO
100
AcDbLine
 62
253
  6
CONTINUOUS
 10
-2.0141722135
 20
8.6633157482
 11
-2.0121922154
 21
8.4408596715
  0
LINE
  5
603
100
AcDbEntity
  8
ASSI
100
AcDbLine
 62
253
  6
CONTINUOUS
 10
-2.0141722135
 20
8.6633157482
 11
-2.0121922154
 21
8.4408596715
  0
LINE
  5
604
100
AcDbEntity
  8
RACCORDO
100
AcDbLine
 62
253
  6
CONTINUOUS
 10
-2.0141722135
 20
13.6633157482
 11
-2.0121922154
 21
13.4408596715
  0
LINE
  5
605
100
AcDbEntity
  8
ASSI
100
AcDbLine
 62
253
  6
CONTINUOUS
 10
-2.0141722135
 20
13.6633157482
 11
-2.0121922154
 21
13.4408596715
  0
LINE
  5
606
100
AcDbEntity
  8
RACCORDO
100
AcDbLine
 62
253
  6
CONTINUOUS
 10
-2.0141722135
 20
18.6633157482
 11
-2.0121922154
 21
18.4408596715
  0
LINE
  5
607
100
AcDbEntity
  8
ASSI
100
AcDbLine
 62
253
  6
CONTINUOUS
 10
-2.0141722135
 20
18.6633157482
 11
-2.0121922154
 21
18.4408596715
  0
LINE
  5
608
100
AcDbEntity
  8
ASSI
100
AcDbLine
 62
7
  6
CONTINUOUS
 10
-1.7115233474
 20
3.1556172041
 11
-1.7131928232
 21
3.3459294649
  0
LINE
  5
609
100
AcDbEntity
  8
ASSI
100
AcDbLine
 62
7
  6
CONTINUOUS
 10
-1.7115233474
 20
8.1556172041
 11
-1.7131928232
 21
8.3459294649
  0
LINE
  5
60A
100
AcDbEntity
  8
ASSI
100
AcDbLine
 62
7
  6
CONTINUOUS
 10
-1.7115233474
 20
13.1556172041
 11
-1.7131928232
 21
13.3459294649
  0
LINE
  5
60B
100
AcDbEntity
  8
ASSI
100
AcDbLine
 62
7
  6
CONTINUOUS
 10
-1.7115233474
 20
18.1556172041
 11
-1.7131928232
 21
18.3459294649
  0
LINE
  5
60C
100
AcDbEntity
  8
ASSI
100
AcDbLine
 62
253
  6
CONTINUOUS
 10
-2.0697956272
 20
42.8090086049
 11
-2.0697080302
 21
42.7997566696
  0
LINE
  5
60D
100
AcDbEntity
  8
RACCORDO
100
AcDbLine
 62
7
  6
CONTINUOUS
 10
-1.7119845997
 20
3.204069553
 11
-1.7135619315
 21
3.3939911752
  0
LINE
  5
60E
100
AcDbEntity
  8
RACCORDO
100
AcDbLine
 62
7
  6
CONTINUOUS
 10
-1.7119845997
 20
8.204069553
 11
-1.7135619315
 21
8.3939911752
  0
LINE
  5
60F
100
AcDbEntity
  8
RACCORDO
100
AcDbLine
 62
7
  6
CONTINUOUS
 10
-1.7119845997
 20
13.204069553
 11
-1.7135619315
 21
13.3939911752
  0
LINE
  5
610
100
AcDbEntity
  8
RACCORDO
100
AcDbLine
 62
7
  6
CONTINUOUS
 10
-1.7119845997
 20
18.204069553
 11
-1.7135619315
 21
18.3939911752
  0
LINE
  5
611
100
AcDbEntity
  8
CURVE
100
AcDbLine
 62
7
  6
CONTINUOUS
 10
-1.5587383072
 20
7.3254020739
 11
-1.5570458562
 21
7.1476079266
  0
LINE
  5
612
100
AcDbEntity
  8
ASSI
100
AcDbLine
 62
7
  6
CONTINUOUS
 10
-1.7131928232
 20
3.3459294649
 11
-1.7147176247
 21
3.5631328528
  0
LINE
  5
613
100
AcDbEntity
  8
ASSI
100
AcDbLine
 62
7
  6
CONTINUOUS
 10
-1.7131928232
 20
8.3459294649
 11
-1.7147176247
 21
8.5631328528
  0
LINE
  5
614
100
AcDbEntity
  8
ASSI
100
AcDbLine
 62
7
  6
CONTINUOUS
 10
-1.7131928232
 20
13.3459294649
 11
-1.7147176247
 21
13.5631328528
  0
LINE
  5
615
100
AcDbEntity
  8
ASSI
100
AcDbLine
 62
7
  6
CONTINUOUS
 10
-1.7131928232
 20
18.3459294649
 11
-1.7147176247
 21
18.5631328528
  0
LINE
  5
616
100
AcDbEntity
  8
RACCORDO
100
AcDbLine
 62
253
  6
CONTINUOUS
 10
-2.0158309077
 20
3.9111612422
 11
-2.0141722135
 21
3.6633157482
  0
LINE
  5
617
100
AcDbEntity
  8
ASSI
100
AcDbLine
 62
253
  6
CONTINUOUS
 10
-2.0158309077
 20
3.9111612422
 11
-2.0141722135
 21
3.6633157482
  0
LINE
  5
618
100
AcDbEntity
  8
RACCORDO
100
AcDbLine
 62
253
  6
CONTINUOUS
 10
-2.0158309077
 20
8.9111612422
 11
-2.0141722135
 21
8.6633157482
  0
LINE
  5
619
100
AcDbEntity
  8
ASSI
100
AcDbLine
 62
253
  6
CONTINUOUS
 10
-2.0158309077
 20
8.9111612422
 11
-2.0141722135
 21
8.6633157482
  0
LINE
  5
61A
100
AcDbEntity
  8
RACCORDO
100
AcDbLine
 62
253
  6
CONTINUOUS
 10
-2.0158309077
 20
13.9111612422
 11
-2.0141722135
 21
13.6633157482
  0
LINE
  5
61B
100
AcDbEntity
  8
ASSI
100
AcDbLine
 62
253
  6
CONTINUOUS
 10
-2.0158309077
 20
13.9111612422
 11
-2.0141722135
 21
13.6633157482
  0
LINE
  5
61C
100
AcDbEntity
  8
RACCORDO
100
AcDbLine
 62
253
  6
CONTINUOUS
 10
-2.0158309077
 20
18.9111612422
 11
-2.0141722135
 21
18.6633157482
  0
LINE
  5
61D
100
AcDbEntity
  8
ASSI
100
AcDbLine
 62
253
  6
CONTINUOUS
 10
-2.0158309077
 20
18.9111612422
 11
-2.0141722135
 21
18.6633157482
  0
LINE
  5
61E
100
AcDbEntity
  8
ASSI
100
AcDbLine
 62
253
  6
CONTINUOUS
 10
-2.2694169084
 20
-5.465843345
 11
-2.2692286984
 21
-5.4908326898
  0
LINE
  5
61F
100
AcDbEntity
  8
RACCORDO
100
AcDbLine
 62
7
  6
CONTINUOUS
 10
-1.7135619315
 20
3.3939911752
 11
-1.7149938321
 21
3.6087096107
  0
LINE
  5
620
100
AcDbEntity
  8
RACCORDO
100
AcDbLine
 62
7
  6
CONTINUOUS
 10
-1.7135619315
 20
8.3939911752
 11
-1.7149938321
 21
8.6087096107
  0
LINE
  5
621
100
AcDbEntity
  8
RACCORDO
100
AcDbLine
 62
7
  6
CONTINUOUS
 10
-1.7135619315
 20
13.3939911752
 11
-1.7149938321
 21
13.6087096107
  0
LINE
  5
622
100
AcDbEntity
  8
RACCORDO
100
AcDbLine
 62
7
  6
CONTINUOUS
 10
-1.7135619315
 20
18.3939911752
 11
-1.7149938321
 21
18.6087096107
  0
LINE
  5
623
100
AcDbEntity
  8
ASSI
100
AcDbLine
 62
7
  6
CONTINUOUS
 10
-1.7147176247
 20
3.5631328528
 11
-1.716044676
 21
3.8056675434
  0
LINE
  5
624
100
AcDbEntity
  8
ASSI
100
AcDbLine
 62
7
  6
CONTINUOUS
 10
-1.7147176247
 20
8.5631328528
 11
-1.716044676
 21
8.8056675434
  0
LINE
  5
625
100
AcDbEntity
  8
ASSI
100
AcDbLine
 62
7
  6
CONTINUOUS
 10
-1.7147176247
 20
13.5631328528
 11
-1.716044676
 21
13.8056675434
  0
LINE
  5
626
100
AcDbEntity
  8
ASSI
100
AcDbLine
 62
7
  6
CONTINUOUS
 10
-1.7147176247
 20
18.5631328528
 11
-1.716044676
 21
18.8056675434
  0
LINE
  5
627
100
AcDbEntity
  8
RACCORDO
100
AcDbLine
 62
7
  6
CONTINUOUS
 10
-1.7149938321
 20
3.6087096107
 11
-1.7160934903
 21
3.815868258
  0
LINE
  5
628
100
AcDbEntity
  8
RACCORDO
100
AcDbLine
 62
7
  6
CONTINUOUS
 10
-1.7149938321
 20
8.6087096107
 11
-1.7160934903
 21
8.815868258
  0
LINE
  5
629
100
AcDbEntity
  8
RACCORDO
100
AcDbLine
 62
7
  6
CONTINUOUS
 10
-1.7149938321
 20
13.6087096107
 11
-1.7160934903
 21
13.815868258
  0
LINE
  5
62A
100
AcDbEntity
  8
RACCORDO
100
AcDbLine
 62
7
  6
CONTINUOUS
 10
-1.7149938321
 20
18.6087096107
 11
-1.7162384916
 21
18.8468548345
  0
LINE
  5
62B
100
AcDbEntity
  8
RACCORDO
100
AcDbLine
 62
253
  6
CONTINUOUS
 10
-2.0171313611
 20
4.1799308294
 11
-2.0158309077
 21
3.9111612422
  0
LINE
  5
62C
100
AcDbEntity
  8
ASSI
100
AcDbLine
 62
253
  6
CONTINUOUS
 10
-2.0171313611
 20
4.1799308294
 11
-2.0158309077
 21
3.9111612422
  0
LINE
  5
62D
100
AcDbEntity
  8
RACCORDO
100
AcDbLine
 62
253
  6
CONTINUOUS
 10
-2.0171313611
 20
9.1799308294
 11
-2.0158309077
 21
8.9111612422
  0
LINE
  5
62E
100
AcDbEntity
  8
ASSI
100
AcDbLine
 62
253
  6
CONTINUOUS
 10
-2.0171313611
 20
9.1799308294
 11
-2.0158309077
 21
8.9111612422
  0
LINE
  5
62F
100
AcDbEntity
  8
RACCORDO
100
AcDbLine
 62
253
  6
CONTINUOUS
 10
-2.0171313611
 20
14.1799308294
 11
-2.0158309077
 21
13.9111612422
  0
LINE
  5
630
100
AcDbEntity
  8
ASSI
100
AcDbLine
 62
253
  6
CONTINUOUS
 10
-2.0171313611
 20
14.1799308294
 11
-2.0158309077
 21
13.9111612422
  0
LINE
  5
631
100
AcDbEntity
  8
RACCORDO
100
AcDbLine
 62
253
  6
CONTINUOUS
 10
-2.0171313611
 20
19.1799308294
 11
-2.0158309077
 21
18.9111612422
  0
LINE
  5
632
100
AcDbEntity
  8
ASSI
100
AcDbLine
 62
253
  6
CONTINUOUS
 10
-2.0171313611
 20
19.1799308294
 11
-2.0158309077
 21
18.9111612422
  0
LINE
  5
633
100
AcDbEntity
  8
ASSI
100
AcDbLine
 62
7
  6
CONTINUOUS
 10
-1.716044676
 20
3.8056675434
 11
-1.7171435692
 21
4.0711793669
  0
LINE
  5
634
100
AcDbEntity
  8
RACCORDO
100
AcDbLine
 62
7
  6
CONTINUOUS
 10
-1.7160934903
 20
3.815868258
 11
-1.7171493497
 21
4.0728372123
  0
LINE
  5
635
100
AcDbEntity
  8
ASSI
100
AcDbLine
 62
7
  6
CONTINUOUS
 10
-1.716044676
 20
8.8056675434
 11
-1.7171435692
 21
9.0711793669
  0
LINE
  5
636
100
AcDbEntity
  8
RACCORDO
100
AcDbLine
 62
7
  6
CONTINUOUS
 10
-1.7160934903
 20
8.815868258
 11
-1.7171493497
 21
9.0728372123
  0
LINE
  5
637
100
AcDbEntity
  8
ASSI
100
AcDbLine
 62
7
  6
CONTINUOUS
 10
-1.716044676
 20
13.8056675434
 11
-1.7171435692
 21
14.0711793669
  0
LINE
  5
638
100
AcDbEntity
  8
RACCORDO
100
AcDbLine
 62
7
  6
CONTINUOUS
 10
-1.7160934903
 20
13.815868258
 11
-1.7171493497
 21
14.0728372123
  0
LINE
  5
639
100
AcDbEntity
  8
ASSI
100
AcDbLine
 62
7
  6
CONTINUOUS
 10
-1.716044676
 20
18.8056675434
 11
-1.7171435692
 21
19.0711793669
  0
LINE
  5
63A
100
AcDbEntity
  8
RACCORDO
100
AcDbLine
 62
7
  6
CONTINUOUS
 10
-1.7162384916
 20
18.8468548345
 11
-1.7172635393
 21
19.106352836
  0
LINE
  5
63B
100
AcDbEntity
  8
ASSI
100
AcDbLine
 62
253
  6
CONTINUOUS
 10
-2.0698520106
 20
-5.2605499369
 11
-2.0697842894
 21
-5.2737024638
  0
LINE
  5
63C
100
AcDbEntity
  8
ASSI
100
AcDbLine
 62
253
  6
CONTINUOUS
 10
-2.0698507531
 20
42.8201711955
 11
-2.0697956272
 21
42.8090086049
  0
LINE
  5
63D
100
AcDbEntity
  8
RACCORDO
100
AcDbLine
 62
7
  6
CONTINUOUS
 10
-1.7171493497
 20
4.0728372123
 11
-1.7173736851
 21
4.1401586643
  0
LINE
  5
63E
100
AcDbEntity
  8
ASSI
100
AcDbLine
 62
7
  6
CONTINUOUS
 10
-1.7171435692
 20
4.0711793669
 11
-1.717375681
 21
4.1407855146
  0
LINE
  5
63F
100
AcDbEntity
  8
RACCORDO
100
AcDbLine
 62
7
  6
CONTINUOUS
 10
-1.7171493497
 20
9.0728372123
 11
-1.7173736851
 21
9.1401586643
  0
LINE
  5
640
100
AcDbEntity
  8
ASSI
100
AcDbLine
 62
7
  6
CONTINUOUS
 10
-1.7171435692
 20
9.0711793669
 11
-1.717375681
 21
9.1407855146
  0
LINE
  5
641
100
AcDbEntity
  8
RACCORDO
100
AcDbLine
 62
7
  6
CONTINUOUS
 10
-1.7171493497
 20
14.0728372123
 11
-1.7173736851
 21
14.1401586643
  0
LINE
  5
642
100
AcDbEntity
  8
ASSI
100
AcDbLine
 62
7
  6
CONTINUOUS
 10
-1.7171435692
 20
14.0711793669
 11
-1.717375681
 21
14.1407855146
  0
LINE
  5
643
100
AcDbEntity
  8
RACCORDO
100
AcDbLine
 62
253
  6
CONTINUOUS
 10
-2.0180473036
 20
4.4644978365
 11
-2.0171313611
 21
4.1799308294
  0
LINE
  5
644
100
AcDbEntity
  8
ASSI
100
AcDbLine
 62
253
  6
CONTINUOUS
 10
-2.0180473036
 20
4.4644978365
 11
-2.0171313611
 21
4.1799308294
  0
LINE
  5
645
100
AcDbEntity
  8
RACCORDO
100
AcDbLine
 62
253
  6
CONTINUOUS
 10
-2.0180473036
 20
9.4644978365
 11
-2.0171313611
 21
9.1799308294
  0
LINE
  5
646
100
AcDbEntity
  8
ASSI
100
AcDbLine
 62
253
  6
CONTINUOUS
 10
-2.0180473036
 20
9.4644978365
 11
-2.0171313611
 21
9.1799308294
  0
LINE
  5
647
100
AcDbEntity
  8
RACCORDO
100
AcDbLine
 62
253
  6
CONTINUOUS
 10
-2.0180473036
 20
14.4644978365
 11
-2.0171313611
 21
14.1799308294
  0
LINE
  5
648
100
AcDbEntity
  8
ASSI
100
AcDbLine
 62
253
  6
CONTINUOUS
 10
-2.0180473036
 20
14.4644978365
 11
-2.0171313611
 21
14.1799308294
  0
LINE
  5
649
100
AcDbEntity
  8
RACCORDO
100
AcDbLine
 62
253
  6
CONTINUOUS
 10
-2.0180473036
 20
19.4644978365
 11
-2.0171313611
 21
19.1799308294
  0
LINE
  5
64A
100
AcDbEntity
  8
ASSI
100
AcDbLine
 62
253
  6
CONTINUOUS
 10
-2.0180473036
 20
19.4644978365
 11
-2.0171313611
 21
19.1799308294
  0
LINE
  5
64B
100
AcDbEntity
  8
RACCORDO
100
AcDbLine
 62
7
  6
CONTINUOUS
 10
-1.7173736851
 20
4.1401586643
 11
-1.7177751349
 21
4.2781589546
  0
LINE
  5
64C
100
AcDbEntity
  8
RACCORDO
100
AcDbLine
 62
7
  6
CONTINUOUS
 10
-1.7173736851
 20
9.1401586643
 11
-1.7177751349
 21
9.2781589546
  0
LINE
  5
64D
100
AcDbEntity
  8
RACCORDO
100
AcDbLine
 62
7
  6
CONTINUOUS
 10
-1.7173736851
 20
14.1401586643
 11
-1.7177751349
 21
14.2781589546
  0
LINE
  5
64E
100
AcDbEntity
  8
ASSI
100
AcDbLine
 62
7
  6
CONTINUOUS
 10
-1.717375681
 20
4.1407855146
 11
-1.7178818089
 21
4.3198054491
  0
LINE
  5
64F
100
AcDbEntity
  8
ASSI
100
AcDbLine
 62
7
  6
CONTINUOUS
 10
-1.717375681
 20
9.1407855146
 11
-1.7178818089
 21
9.3198054491
  0
LINE
  5
650
100
AcDbEntity
  8
ASSI
100
AcDbLine
 62
7
  6
CONTINUOUS
 10
-1.717375681
 20
14.1407855146
 11
-1.7178818089
 21
14.3198054491
  0
LINE
  5
651
100
AcDbEntity
  8
RACCORDO
100
AcDbLine
 62
7
  6
CONTINUOUS
 10
-1.7177751349
 20
4.2781589546
 11
-1.7182497968
 21
4.4923122167
  0
LINE
  5
652
100
AcDbEntity
  8
RACCORDO
100
AcDbLine
 62
7
  6
CONTINUOUS
 10
-1.7177751349
 20
9.2781589546
 11
-1.7182497968
 21
9.4923122167
  0
LINE
  5
653
100
AcDbEntity
  8
RACCORDO
100
AcDbLine
 62
7
  6
CONTINUOUS
 10
-1.7177751349
 20
14.2781589546
 11
-1.7182497968
 21
14.4923122167
  0
LINE
  5
654
100
AcDbEntity
  8
RACCORDO
100
AcDbLine
 62
7
  6
CONTINUOUS
 10
-1.7172635393
 20
19.106352836
 11
-1.7183121304
 21
19.528675267
  0
LINE
  5
655
100
AcDbEntity
  8
RACCORDO
100
AcDbLine
 62
253
  6
CONTINUOUS
 10
-2.0185648758
 20
4.7593981449
 11
-2.0180473036
 21
4.4644978365
  0
LINE
  5
656
100
AcDbEntity
  8
ASSI
100
AcDbLine
 62
253
  6
CONTINUOUS
 10
-2.0185648758
 20
4.7593981449
 11
-2.0180473036
 21
4.4644978365
  0
LINE
  5
657
100
AcDbEntity
  8
RACCORDO
100
AcDbLine
 62
253
  6
CONTINUOUS
 10
-2.0185648758
 20
9.7593981449
 11
-2.0180473036
 21
9.4644978365
  0
LINE
  5
658
100
AcDbEntity
  8
ASSI
100
AcDbLine
 62
253
  6
CONTINUOUS
 10
-2.0185648758
 20
9.7593981449
 11
-2.0180473036
 21
9.4644978365
  0
LINE
  5
659
100
AcDbEntity
  8
RACCORDO
100
AcDbLine
 62
253
  6
CONTINUOUS
 10
-2.0185648758
 20
14.7593981449
 11
-2.0180473036
 21
14.4644978365
  0
LINE
  5
65A
100
AcDbEntity
  8
ASSI
100
AcDbLine
 62
253
  6
CONTINUOUS
 10
-2.0185648758
 20
14.7593981449
 11
-2.0180473036
 21
14.4644978365
  0
LINE
  5
65B
100
AcDbEntity
  8
RACCORDO
100
AcDbLine
 62
253
  6
CONTINUOUS
 10
-2.0185648758
 20
19.7593981449
 11
-2.0180473036
 21
19.4644978365
  0
LINE
  5
65C
100
AcDbEntity
  8
ASSI
100
AcDbLine
 62
253
  6
CONTINUOUS
 10
-2.0185648758
 20
19.7593981449
 11
-2.0180473036
 21
19.4644978365
  0
LINE
  5
65D
100
AcDbEntity
  8
ASSI
100
AcDbLine
 62
7
  6
CONTINUOUS
 10
-1.7178818089
 20
4.3198054491
 11
-1.7183913724
 21
4.5800580583
  0
LINE
  5
65E
100
AcDbEntity
  8
ASSI
100
AcDbLine
 62
7
  6
CONTINUOUS
 10
-1.7178818089
 20
9.3198054491
 11
-1.7183913724
 21
9.5800580583
  0
LINE
  5
65F
100
AcDbEntity
  8
ASSI
100
AcDbLine
 62
7
  6
CONTINUOUS
 10
-1.7178818089
 20
14.3198054491
 11
-1.7183913724
 21
14.5800580583
  0
LINE
  5
660
100
AcDbEntity
  8
ASSI
100
AcDbLine
 62
7
  6
CONTINUOUS
 10
-1.7171435692
 20
19.0711793669
 11
-1.7184432645
 21
19.6178985282
  0
LINE
  5
661
100
AcDbEntity
  8
ASSI
100
AcDbLine
 62
253
  6
CONTINUOUS
 10
-2.2697890228
 20
42.7512431476
 11
-2.2693948756
 21
42.6115863184
  0
LINE
  5
662
100
AcDbEntity
  8
ASSI
100
AcDbLine
 62
253
  6
CONTINUOUS
 10
-2.2698027887
 20
-5.3164072583
 11
-2.2694169084
 21
-5.465843345
  0
LINE
  5
663
100
AcDbEntity
  8
RACCORDO
100
AcDbLine
 62
7
  6
CONTINUOUS
 10
-1.7182497968
 20
4.4923122167
 11
-1.7185121146
 21
4.6755055124
  0
LINE
  5
664
100
AcDbEntity
  8
RACCORDO
100
AcDbLine
 62
7
  6
CONTINUOUS
 10
-1.7182497968
 20
9.4923122167
 11
-1.7185121146
 21
9.6755055124
  0
LINE
  5
665
100
AcDbEntity
  8
RACCORDO
100
AcDbLine
 62
7
  6
CONTINUOUS
 10
-1.7182497968
 20
14.4923122167
 11
-1.7185121146
 21
14.6755055124
  0
LINE
  5
666
100
AcDbEntity
  8
ASSI
100
AcDbLine
 62
7
  6
CONTINUOUS
 10
-1.7183913724
 20
4.5800580583
 11
-1.7185683922
 21
4.7320872322
  0
LINE
  5
667
100
AcDbEntity
  8
ASSI
100
AcDbLine
 62
7
  6
CONTINUOUS
 10
-1.7183913724
 20
9.5800580583
 11
-1.7185683922
 21
9.7320872322
  0
LINE
  5
668
100
AcDbEntity
  8
ASSI
100
AcDbLine
 62
7
  6
CONTINUOUS
 10
-1.7183913724
 20
14.5800580583
 11
-1.7185683922
 21
14.7320872322
  0
LINE
  5
669
100
AcDbEntity
  8
RACCORDO
100
AcDbLine
 62
7
  6
CONTINUOUS
 10
-1.7185121146
 20
4.6755055124
 11
-1.7186126127
 21
4.7866943836
  0
LINE
  5
66A
100
AcDbEntity
  8
RACCORDO
100
AcDbLine
 62
7
  6
CONTINUOUS
 10
-1.7185121146
 20
9.6755055124
 11
-1.7186126127
 21
9.7866943836
  0
LINE
  5
66B
100
AcDbEntity
  8
RACCORDO
100
AcDbLine
 62
7
  6
CONTINUOUS
 10
-1.7185121146
 20
14.6755055124
 11
-1.7186126127
 21
14.7866943836
  0
LINE
  5
66C
100
AcDbEntity
  8
ASSI
100
AcDbLine
 62
7
  6
CONTINUOUS
 10
-1.7185683922
 20
4.7320872322
 11
-1.7186778814
 21
4.9236640187
  0
LINE
  5
66D
100
AcDbEntity
  8
ASSI
100
AcDbLine
 62
7
  6
CONTINUOUS
 10
-1.7185683922
 20
9.7320872322
 11
-1.7186778814
 21
9.9236640187
  0
LINE
  5
66E
100
AcDbEntity
  8
ASSI
100
AcDbLine
 62
7
  6
CONTINUOUS
 10
-1.7185683922
 20
14.7320872322
 11
-1.7186778814
 21
14.9236640187
  0
LINE
  5
66F
100
AcDbEntity
  8
ASSI
100
AcDbLine
 62
7
  6
CONTINUOUS
 10
-1.7184432645
 20
19.6178985282
 11
-1.718683883
 21
19.9620224436
  0
LINE
  5
670
100
AcDbEntity
  8
ASSI
100
AcDbLine
 62
253
  6
CONTINUOUS
 10
-3.3690041916
 20
-4.5744263686
 11
-3.3690041916
 21
-3.403077441
  0
LINE
  5
671
100
AcDbEntity
  8
ASSI
100
AcDbLine
 62
253
  6
CONTINUOUS
 10
-3.3690041916
 20
41.3705876451
 11
-3.3690041916
 21
42.5419365726
  0
LINE
  5
672
100
AcDbEntity
  8
ASSI
100
AcDbLine
 62
7
  6
CONTINUOUS
 10
-3.3558367347
 20
-4.1388946288
 11
-3.3558367347
 21
-3.416244898
  0
LINE
  5
673
100
AcDbEntity
  8
ASSI
100
AcDbLine
 62
7
  6
CONTINUOUS
 10
-3.3558367347
 20
41.383755102
 11
-3.3558367347
 21
42.1064048329
  0
LINE
  5
674
100
AcDbEntity
  8
ASSI
100
AcDbLine
 62
7
  6
CONTINUOUS
 10
-2.8558367347
 20
22.133755102
 11
-2.8558367347
 21
17.833755102
  0
LINE
  5
675
100
AcDbEntity
  8
ASSI
100
AcDbLine
 62
7
  6
CONTINUOUS
 10
-2.8558367347
 20
17.133755102
 11
-2.8558367347
 21
12.833755102
  0
LINE
  5
676
100
AcDbEntity
  8
ASSI
100
AcDbLine
 62
7
  6
CONTINUOUS
 10
-2.8558367347
 20
12.133755102
 11
-2.8558367347
 21
7.833755102
  0
LINE
  5
677
100
AcDbEntity
  8
ASSI
100
AcDbLine
 62
7
  6
CONTINUOUS
 10
-2.8558367347
 20
7.133755102
 11
-2.8558367347
 21
2.833755102
  0
LINE
  5
678
100
AcDbEntity
  8
ASSI
100
AcDbLine
 62
253
  6
CONTINUOUS
 10
-2.2698312522
 20
-5.2531155173
 11
-2.2698027887
 21
-5.3164072583
  0
LINE
  5
679
100
AcDbEntity
  8
ASSI
100
AcDbLine
 62
7
  6
CONTINUOUS
 10
-2.0558367347
 20
-5.3162753589
 11
-2.0558367347
 21
-3.416244898
  0
LINE
  5
67A
100
AcDbEntity
  8
ASSI
100
AcDbLine
 62
7
  6
CONTINUOUS
 10
-2.0558367347
 20
43.283785563
 11
-2.0558366701
 21
41.3837550317
  0
LINE
  5
67B
100
AcDbEntity
  8
RACCORDO
100
AcDbLine
 62
253
  6
CONTINUOUS
 10
-2.0186675149
 20
20.0589531443
 11
-2.0185648758
 21
19.7593981449
  0
LINE
  5
67C
100
AcDbEntity
  8
ASSI
100
AcDbLine
 62
253
  6
CONTINUOUS
 10
-2.0186675149
 20
20.0589531443
 11
-2.0185648758
 21
19.7593981449
  0
LINE
  5
67D
100
AcDbEntity
  8
RACCORDO
100
AcDbLine
 62
253
  6
CONTINUOUS
 10
-2.0186675149
 20
15.0589531443
 11
-2.0185648758
 21
14.7593981449
  0
LINE
  5
67E
100
AcDbEntity
  8
ASSI
100
AcDbLine
 62
253
  6
CONTINUOUS
 10
-2.0186675149
 20
15.0589531443
 11
-2.0185648758
 21
14.7593981449
  0
LINE
  5
67F
100
AcDbEntity
  8
RACCORDO
100
AcDbLine
 62
253
  6
CONTINUOUS
 10
-2.0186675149
 20
10.0589531443
 11
-2.0185648758
 21
9.7593981449
  0
LINE
  5
680
100
AcDbEntity
  8
ASSI
100
AcDbLine
 62
253
  6
CONTINUOUS
 10
-2.0186675149
 20
10.0589531443
 11
-2.0185648758
 21
9.7593981449
  0
LINE
  5
681
100
AcDbEntity
  8
RACCORDO
100
AcDbLine
 62
253
  6
CONTINUOUS
 10
-2.0186675149
 20
5.0589531443
 11
-2.0185648758
 21
4.7593981449
  0
LINE
  5
682
100
AcDbEntity
  8
ASSI
100
AcDbLine
 62
253
  6
CONTINUOUS
 10
-2.0186675149
 20
5.0589531443
 11
-2.0185648758
 21
4.7593981449
  0
LINE
  5
683
100
AcDbEntity
  8
RACCORDO
100
AcDbLine
 62
7
  6
CONTINUOUS
 10
-1.7186126127
 20
4.7866943836
 11
-1.7186845832
 21
4.9728654981
  0
LINE
  5
684
100
AcDbEntity
  8
RACCORDO
100
AcDbLine
 62
7
  6
CONTINUOUS
 10
-1.7186126127
 20
9.7866943836
 11
-1.7186845832
 21
9.9728654981
  0
LINE
  5
685
100
AcDbEntity
  8
RACCORDO
100
AcDbLine
 62
7
  6
CONTINUOUS
 10
-1.7186126127
 20
14.7866943836
 11
-1.7186845832
 21
14.9728654981
  0
LINE
  5
686
100
AcDbEntity
  8
RACCORDO
100
AcDbLine
 62
7
  6
CONTINUOUS
 10
-1.7183121304
 20
19.528675267
 11
-1.7186836312
 21
20.010091535
  0
LINE
  5
687
100
AcDbEntity
  8
ASSI
100
AcDbLine
 62
7
  6
CONTINUOUS
 10
-1.6558367347
 20
2.620527207
 11
-1.6558367347
 21
7.3469829971
  0
LINE
  5
688
100
AcDbEntity
  8
ASSI
100
AcDbLine
 62
7
  6
CONTINUOUS
 10
-1.6558367347
 20
7.620527207
 11
-1.6558367347
 21
12.3469829971
  0
LINE
  5
689
100
AcDbEntity
  8
ASSI
100
AcDbLine
 62
7
  6
CONTINUOUS
 10
-1.6558367347
 20
12.620527207
 11
-1.6558367347
 21
17.3469829971
  0
LINE
  5
68A
100
AcDbEntity
  8
ASSI
100
AcDbLine
 62
7
  6
CONTINUOUS
 10
-1.6558367347
 20
17.620527207
 11
-1.6558367347
 21
22.3469829971
  0
LINE
  5
68B
100
AcDbEntity
  8
ASSI
100
AcDbLine
 62
7
  6
CONTINUOUS
 10
-1.7186778814
 20
14.9236640187
 11
-1.7186530036
 21
15.1150826187
  0
LINE
  5
68C
100
AcDbEntity
  8
ASSI
100
AcDbLine
 62
7
  6
CONTINUOUS
 10
-1.7186778814
 20
9.9236640187
 11
-1.7186530036
 21
10.1150826187
  0
LINE
  5
68D
100
AcDbEntity
  8
ASSI
100
AcDbLine
 62
7
  6
CONTINUOUS
 10
-1.7186778814
 20
4.9236640187
 11
-1.7186530036
 21
5.1150826187
  0
LINE
  5
68E
100
AcDbEntity
  8
RACCORDO
100
AcDbLine
 62
7
  6
CONTINUOUS
 10
-1.7186845832
 20
14.9728654981
 11
-1.7186284618
 21
15.1584881006
  0
LINE
  5
68F
100
AcDbEntity
  8
RACCORDO
100
AcDbLine
 62
7
  6
CONTINUOUS
 10
-1.7186845832
 20
9.9728654981
 11
-1.7186284618
 21
10.1584881006
  0
LINE
  5
690
100
AcDbEntity
  8
RACCORDO
100
AcDbLine
 62
7
  6
CONTINUOUS
 10
-1.7186845832
 20
4.9728654981
 11
-1.7186284618
 21
5.1584881006
  0
LINE
  5
691
100
AcDbEntity
  8
ASSI
100
AcDbLine
 62
7
  6
CONTINUOUS
 10
-1.718683883
 20
19.9620224436
 11
-1.7184977919
 21
20.3043760493
  0
LINE
  5
692
100
AcDbEntity
  8
ASSI
100
AcDbLine
 62
7
  6
CONTINUOUS
 10
-1.7186530036
 20
15.1150826187
 11
-1.7185383065
 21
15.2667837651
  0
LINE
  5
693
100
AcDbEntity
  8
ASSI
100
AcDbLine
 62
7
  6
CONTINUOUS
 10
-1.7186530036
 20
10.1150826187
 11
-1.7185383065
 21
10.2667837651
  0
LINE
  5
694
100
AcDbEntity
  8
RACCORDO
100
AcDbLine
 62
7
  6
CONTINUOUS
 10
-1.7186284618
 20
10.1584881006
 11
-1.7185362148
 21
10.2688373856
  0
LINE
  5
695
100
AcDbEntity
  8
ASSI
100
AcDbLine
 62
7
  6
CONTINUOUS
 10
-1.7186530036
 20
5.1150826187
 11
-1.7185383065
 21
5.2667837651
  0
LINE
  5
696
100
AcDbEntity
  8
RACCORDO
100
AcDbLine
 62
7
  6
CONTINUOUS
 10
-1.7186284618
 20
5.1584881006
 11
-1.7185362148
 21
5.2688373856
  0
LINE
  5
697
100
AcDbEntity
  8
ASSI
100
AcDbLine
 62
253
  6
CONTINUOUS
 10
-2.069856431
 20
-4.8552135181
 11
-2.0698520106
 21
-5.2605499369
  0
LINE
  5
698
100
AcDbEntity
  8
RACCORDO
100
AcDbLine
 62
253
  6
CONTINUOUS
 10
-2.0183568043
 20
20.3569122546
 11
-2.0186675149
 21
20.0589531443
  0
LINE
  5
699
100
AcDbEntity
  8
ASSI
100
AcDbLine
 62
253
  6
CONTINUOUS
 10
-2.0183568043
 20
20.3569122546
 11
-2.0186675149
 21
20.0589531443
  0
LINE
  5
69A
100
AcDbEntity
  8
RACCORDO
100
AcDbLine
 62
253
  6
CONTINUOUS
 10
-2.0183568043
 20
15.3569122546
 11
-2.0186675149
 21
15.0589531443
  0
LINE
  5
69B
100
AcDbEntity
  8
ASSI
100
AcDbLine
 62
253
  6
CONTINUOUS
 10
-2.0183568043
 20
15.3569122546
 11
-2.0186675149
 21
15.0589531443
  0
LINE
  5
69C
100
AcDbEntity
  8
RACCORDO
100
AcDbLine
 62
253
  6
CONTINUOUS
 10
-2.0183568043
 20
10.3569122546
 11
-2.0186675149
 21
10.0589531443
  0
LINE
  5
69D
100
AcDbEntity
  8
ASSI
100
AcDbLine
 62
253
  6
CONTINUOUS
 10
-2.0183568043
 20
10.3569122546
 11
-2.0186675149
 21
10.0589531443
  0
LINE
  5
69E
100
AcDbEntity
  8
RACCORDO
100
AcDbLine
 62
253
  6
CONTINUOUS
 10
-2.0183568043
 20
5.3569122546
 11
-2.0186675149
 21
5.0589531443
  0
LINE
  5
69F
100
AcDbEntity
  8
ASSI
100
AcDbLine
 62
253
  6
CONTINUOUS
 10
-2.0183568043
 20
5.3569122546
 11
-2.0186675149
 21
5.0589531443
  0
LINE
  5
6A0
100
AcDbEntity
  8
ASSI
100
AcDbLine
 62
253
  6
CONTINUOUS
 10
-2.0698555135
 20
43.226570248
 11
-2.0698507531
 21
42.8201711955
  0
LINE
  5
6A1
100
AcDbEntity
  8
RACCORDO
100
AcDbLine
 62
7
  6
CONTINUOUS
 10
-1.7186836312
 20
20.010091535
 11
-1.7182935044
 21
20.4498063773
  0
LINE
  5
6A2
100
AcDbEntity
  8
RACCORDO
100
AcDbLine
 62
7
  6
CONTINUOUS
 10
-1.7186284618
 20
15.1584881006
 11
-1.7183511946
 21
15.4139740508
  0
LINE
  5
6A3
100
AcDbEntity
  8
RACCORDO
100
AcDbLine
 62
7
  6
CONTINUOUS
 10
-1.7185362148
 20
10.2688373856
 11
-1.7183511946
 21
10.4139740508
  0
LINE
  5
6A4
100
AcDbEntity
  8
RACCORDO
100
AcDbLine
 62
7
  6
CONTINUOUS
 10
-1.7185362148
 20
5.2688373856
 11
-1.7183511946
 21
5.4139740508
  0
LINE
  5
6A5
100
AcDbEntity
  8
ASSI
100
AcDbLine
 62
7
  6
CONTINUOUS
 10
-1.7185383065
 20
15.2667837651
 11
-1.7182881463
 21
15.4529846107
  0
LINE
  5
6A6
100
AcDbEntity
  8
ASSI
100
AcDbLine
 62
7
  6
CONTINUOUS
 10
-1.7185383065
 20
10.2667837651
 11
-1.7182881463
 21
10.4529846107
  0
LINE
  5
6A7
100
AcDbEntity
  8
ASSI
100
AcDbLine
 62
7
  6
CONTINUOUS
 10
-1.7185383065
 20
5.2667837651
 11
-1.7182881463
 21
5.4529846107
  0
LINE
  5
6A8
100
AcDbEntity
  8
RACCORDO
100
AcDbLine
 62
7
  6
CONTINUOUS
 10
-1.7183511946
 20
15.4139740508
 11
-1.717936222
 21
15.6256311796
  0
LINE
  5
6A9
100
AcDbEntity
  8
RACCORDO
100
AcDbLine
 62
7
  6
CONTINUOUS
 10
-1.7183511946
 20
10.4139740508
 11
-1.717936222
 21
10.6256311796
  0
LINE
  5
6AA
100
AcDbEntity
  8
RACCORDO
100
AcDbLine
 62
7
  6
CONTINUOUS
 10
-1.7183511946
 20
5.4139740508
 11
-1.717936222
 21
5.6256311796
  0
LINE
  5
6AB
100
AcDbEntity
  8
ASSI
100
AcDbLine
 62
7
  6
CONTINUOUS
 10
-1.7184977919
 20
20.3043760493
 11
-1.7177363066
 21
20.7040875104
  0
LINE
  5
6AC
100
AcDbEntity
  8
ASSI
100
AcDbLine
 62
7
  6
CONTINUOUS
 10
-1.7182881463
 20
15.4529846107
 11
-1.7178286688
 21
15.6690454136
  0
LINE
  5
6AD
100
AcDbEntity
  8
ASSI
100
AcDbLine
 62
7
  6
CONTINUOUS
 10
-1.7182881463
 20
10.4529846107
 11
-1.7178286688
 21
10.6690454136
  0
LINE
  5
6AE
100
AcDbEntity
  8
ASSI
100
AcDbLine
 62
7
  6
CONTINUOUS
 10
-1.7182881463
 20
5.4529846107
 11
-1.7178286688
 21
5.6690454136
  0
LINE
  5
6AF
100
AcDbEntity
  8
RACCORDO
100
AcDbLine
 62
253
  6
CONTINUOUS
 10
-2.0176376247
 20
20.6473722616
 11
-2.0183568043
 21
20.3569122546
  0
LINE
  5
6B0
100
AcDbEntity
  8
ASSI
100
AcDbLine
 62
253
  6
CONTINUOUS
 10
-2.0176376247
 20
20.6473722616
 11
-2.0183568043
 21
20.3569122546
  0
LINE
  5
6B1
100
AcDbEntity
  8
RACCORDO
100
AcDbLine
 62
253
  6
CONTINUOUS
 10
-2.0176376247
 20
15.6473722616
 11
-2.0183568043
 21
15.3569122546
  0
LINE
  5
6B2
100
AcDbEntity
  8
ASSI
100
AcDbLine
 62
253
  6
CONTINUOUS
 10
-2.0176376247
 20
15.6473722616
 11
-2.0183568043
 21
15.3569122546
  0
LINE
  5
6B3
100
AcDbEntity
  8
RACCORDO
100
AcDbLine
 62
253
  6
CONTINUOUS
 10
-2.0176376247
 20
10.6473722616
 11
-2.0183568043
 21
10.3569122546
  0
LINE
  5
6B4
100
AcDbEntity
  8
ASSI
100
AcDbLine
 62
253
  6
CONTINUOUS
 10
-2.0176376247
 20
10.6473722616
 11
-2.0183568043
 21
10.3569122546
  0
LINE
  5
6B5
100
AcDbEntity
  8
RACCORDO
100
AcDbLine
 62
253
  6
CONTINUOUS
 10
-2.0176376247
 20
5.6473722616
 11
-2.0183568043
 21
5.3569122546
  0
LINE
  5
6B6
100
AcDbEntity
  8
ASSI
100
AcDbLine
 62
253
  6
CONTINUOUS
 10
-2.0176376247
 20
5.6473722616
 11
-2.0183568043
 21
5.3569122546
  0
LINE
  5
6B7
100
AcDbEntity
  8
RACCORDO
100
AcDbLine
 62
7
  6
CONTINUOUS
 10
-1.7182935044
 20
20.4498063773
 11
-1.7174749203
 21
20.7947457048
  0
LINE
  5
6B8
100
AcDbEntity
  8
RACCORDO
100
AcDbLine
 62
7
  6
CONTINUOUS
 10
-1.717936222
 20
10.6256311796
 11
-1.7175743805
 21
10.7615289944
  0
LINE
  5
6B9
100
AcDbEntity
  8
RACCORDO
100
AcDbLine
 62
7
  6
CONTINUOUS
 10
-1.717936222
 20
5.6256311796
 11
-1.7175743805
 21
5.7615289944
  0
LINE
  5
6BA
100
AcDbEntity
  8
ASSI
100
AcDbLine
 62
7
  6
CONTINUOUS
 10
-1.7178286688
 20
10.6690454136
 11
-1.7174362481
 21
10.8072891066
  0
LINE
  5
6BB
100
AcDbEntity
  8
ASSI
100
AcDbLine
 62
7
  6
CONTINUOUS
 10
-1.7178286688
 20
5.6690454136
 11
-1.7174362481
 21
5.8072891066
  0
LINE
  5
6BC
100
AcDbEntity
  8
ASSI
100
AcDbLine
 62
253
  6
CONTINUOUS
 10
-2.2695821347
 20
43.395531626
 11
-2.2697890228
 21
42.7512431476
  0
LINE
  5
6BD
100
AcDbEntity
  8
RACCORDO
100
AcDbLine
 62
7
  6
CONTINUOUS
 10
-1.717936222
 20
15.6256311796
 11
-1.7171563015
 21
15.8924915849
  0
LINE
  5
6BE
100
AcDbEntity
  8
ASSI
100
AcDbLine
 62
7
  6
CONTINUOUS
 10
-1.7178286688
 20
15.6690454136
 11
-1.7169855178
 21
15.940205964
  0
LINE
  5
6BF
100
AcDbEntity
  8
RACCORDO
100
AcDbLine
 62
7
  6
CONTINUOUS
 10
-1.7175743805
 20
10.7615289944
 11
-1.7170431638
 21
10.924425827
  0
LINE
  5
6C0
100
AcDbEntity
  8
RACCORDO
100
AcDbLine
 62
7
  6
CONTINUOUS
 10
-1.7175743805
 20
5.7615289944
 11
-1.7170431638
 21
5.924425827
  0
LINE
  5
6C1
100
AcDbEntity
  8
ASSI
100
AcDbLine
 62
253
  6
CONTINUOUS
 10
-2.2695091531
 20
-4.6666151102
 11
-2.2698312522
 21
-5.2531155173
  0
LINE
  5
6C2
100
AcDbEntity
  8
ASSI
100
AcDbLine
 62
7
  6
CONTINUOUS
 10
-1.7177363066
 20
20.7040875104
 11
-1.7163394801
 21
21.0985576585
  0
LINE
  5
6C3
100
AcDbEntity
  8
ASSI
100
AcDbLine
 62
7
  6
CONTINUOUS
 10
-1.7174362481
 20
10.8072891066
 11
-1.7164757905
 21
11.0675925858
  0
LINE
  5
6C4
100
AcDbEntity
  8
ASSI
100
AcDbLine
 62
7
  6
CONTINUOUS
 10
-1.7174362481
 20
5.8072891066
 11
-1.7164757905
 21
6.0675925858
  0
LINE
  5
6C5
100
AcDbEntity
  8
RACCORDO
100
AcDbLine
 62
253
  6
CONTINUOUS
 10
-2.016523548
 20
20.9246932321
 11
-2.0176376247
 21
20.6473722616
  0
LINE
  5
6C6
100
AcDbEntity
  8
ASSI
100
AcDbLine
 62
253
  6
CONTINUOUS
 10
-2.016523548
 20
20.9246932321
 11
-2.0176376247
 21
20.6473722616
  0
LINE
  5
6C7
100
AcDbEntity
  8
RACCORDO
100
AcDbLine
 62
253
  6
CONTINUOUS
 10
-2.016523548
 20
15.9246932321
 11
-2.0176376247
 21
15.6473722616
  0
LINE
  5
6C8
100
AcDbEntity
  8
ASSI
100
AcDbLine
 62
253
  6
CONTINUOUS
 10
-2.016523548
 20
15.9246932321
 11
-2.0176376247
 21
15.6473722616
  0
LINE
  5
6C9
100
AcDbEntity
  8
RACCORDO
100
AcDbLine
 62
253
  6
CONTINUOUS
 10
-2.016523548
 20
10.9246932321
 11
-2.0176376247
 21
10.6473722616
  0
LINE
  5
6CA
100
AcDbEntity
  8
ASSI
100
AcDbLine
 62
253
  6
CONTINUOUS
 10
-2.016523548
 20
10.9246932321
 11
-2.0176376247
 21
10.6473722616
  0
LINE
  5
6CB
100
AcDbEntity
  8
RACCORDO
100
AcDbLine
 62
253
  6
CONTINUOUS
 10
-2.016523548
 20
5.9246932321
 11
-2.0176376247
 21
5.6473722616
  0
LINE
  5
6CC
100
AcDbEntity
  8
ASSI
100
AcDbLine
 62
253
  6
CONTINUOUS
 10
-2.016523548
 20
5.9246932321
 11
-2.0176376247
 21
5.6473722616
  0
LINE
  5
6CD
100
AcDbEntity
  8
RACCORDO
100
AcDbLine
 62
7
  6
CONTINUOUS
 10
-1.7171563015
 20
15.8924915849
 11
-1.7161552453
 21
16.1387173372
  0
LINE
  5
6CE
100
AcDbEntity
  8
RACCORDO
100
AcDbLine
 62
7
  6
CONTINUOUS
 10
-1.7174749203
 20
20.7947457048
 11
-1.7158732017
 21
21.1969159907
  0
LINE
  5
6CF
100
AcDbEntity
  8
ASSI
100
AcDbLine
 62
7
  6
CONTINUOUS
 10
-1.7169855178
 20
15.940205964
 11
-1.7159110554
 21
16.1893141154
  0
LINE
  5
6D0
100
AcDbEntity
  8
RACCORDO
100
AcDbLine
 62
7
  6
CONTINUOUS
 10
-1.7170431638
 20
10.924425827
 11
-1.7160156263
 21
11.1679875932
  0
LINE
  5
6D1
100
AcDbEntity
  8
RACCORDO
100
AcDbLine
 62
7
  6
CONTINUOUS
 10
-1.7170431638
 20
5.924425827
 11
-1.7160156263
 21
6.1679875932
  0
LINE
  5
6D2
100
AcDbEntity
  8
ASSI
100
AcDbLine
 62
7
  6
CONTINUOUS
 10
-1.7164757905
 20
6.0675925858
 11
-1.7156108665
 21
6.2480183509
  0
LINE
  5
6D3
100
AcDbEntity
  8
RACCORDO
100
AcDbLine
 62
7
  6
CONTINUOUS
 10
-1.7160156263
 20
6.1679875932
 11
-1.7155805953
 21
6.2537495932
  0
LINE
  5
6D4
100
AcDbEntity
  8
ASSI
100
AcDbLine
 62
7
  6
CONTINUOUS
 10
-1.7164757905
 20
11.0675925858
 11
-1.7153005316
 21
11.3052669989
  0
LINE
  5
6D5
100
AcDbEntity
  8
ASSI
100
AcDbLine
 62
253
  6
CONTINUOUS
 10
-2.269394868
 20
-4.6440748123
 11
-2.2695091531
 21
-4.6666151102
  0
LINE
  5
6D6
100
AcDbEntity
  8
ASSI
100
AcDbLine
 62
7
  6
CONTINUOUS
 10
-1.7163394801
 20
21.0985576585
 11
-1.7151415155
 21
21.3333440604
  0
LINE
  5
6D7
100
AcDbEntity
  8
ASSI
100
AcDbLine
 62
253
  6
CONTINUOUS
 10
-2.0698067308
 20
43.2380916333
 11
-2.0698555135
 21
43.226570248
  0
LINE
  5
6D8
100
AcDbEntity
  8
ASSI
100
AcDbLine
 62
253
  6
CONTINUOUS
 10
-2.0698076706
 20
-4.8432523051
 11
-2.069856431
 21
-4.8552135181
  0
LINE
  5
6D9
100
AcDbEntity
  8
CURVE
100
AcDbLine
 62
253
  6
CONTINUOUS
 10
-1.6000797295
 20
33.6623265528
 11
-1.6006199236
 21
33.5694694542
  0
LINE
  5
6DA
100
AcDbEntity
  8
RACCORDO
100
AcDbLine
 62
7
  6
CONTINUOUS
 10
-1.7161552453
 20
16.1387173372
 11
-1.7148069966
 21
16.389799513
  0
LINE
  5
6DB
100
AcDbEntity
  8
RACCORDO
100
AcDbLine
 62
253
  6
CONTINUOUS
 10
-2.0150433077
 20
21.1836013071
 11
-2.016523548
 21
20.9246932321
  0
LINE
  5
6DC
100
AcDbEntity
  8
ASSI
100
AcDbLine
 62
253
  6
CONTINUOUS
 10
-2.0150433077
 20
21.1836013071
 11
-2.016523548
 21
20.9246932321
  0
LINE
  5
6DD
100
AcDbEntity
  8
RACCORDO
100
AcDbLine
 62
253
  6
CONTINUOUS
 10
-2.0150433077
 20
16.1836013071
 11
-2.016523548
 21
15.9246932321
  0
LINE
  5
6DE
100
AcDbEntity
  8
ASSI
100
AcDbLine
 62
253
  6
CONTINUOUS
 10
-2.0150433077
 20
16.1836013071
 11
-2.016523548
 21
15.9246932321
  0
LINE
  5
6DF
100
AcDbEntity
  8
RACCORDO
100
AcDbLine
 62
253
  6
CONTINUOUS
 10
-2.0150433077
 20
11.1836013071
 11
-2.016523548
 21
10.9246932321
  0
LINE
  5
6E0
100
AcDbEntity
  8
ASSI
100
AcDbLine
 62
253
  6
CONTINUOUS
 10
-2.0150433077
 20
11.1836013071
 11
-2.016523548
 21
10.9246932321
  0
LINE
  5
6E1
100
AcDbEntity
  8
RACCORDO
100
AcDbLine
 62
253
  6
CONTINUOUS
 10
-2.0150433077
 20
6.1836013071
 11
-2.016523548
 21
5.9246932321
  0
LINE
  5
6E2
100
AcDbEntity
  8
ASSI
100
AcDbLine
 62
253
  6
CONTINUOUS
 10
-2.0150433077
 20
6.1836013071
 11
-2.016523548
 21
5.9246932321
  0
LINE
  5
6E3
100
AcDbEntity
  8
ASSI
100
AcDbLine
 62
7
  6
CONTINUOUS
 10
-1.7159110554
 20
16.1893141154
 11
-1.7146485512
 21
16.4153765292
  0
LINE
  5
6E4
100
AcDbEntity
  8
RACCORDO
100
AcDbLine
 62
7
  6
CONTINUOUS
 10
-1.7160156263
 20
11.1679875932
 11
-1.7146448085
 21
11.4159720832
  0
LINE
  5
6E5
100
AcDbEntity
  8
RACCORDO
100
AcDbLine
 62
7
  6
CONTINUOUS
 10
-1.7158732017
 20
21.1969159907
 11
-1.7144801264
 21
21.4417966511
  0
LINE
  5
6E6
100
AcDbEntity
  8
ASSI
100
AcDbLine
 62
7
  6
CONTINUOUS
 10
-1.7153005316
 20
11.3052669989
 11
-1.7139543711
 21
11.5196129424
  0
LINE
  5
6E7
100
AcDbEntity
  8
ASSI
100
AcDbLine
 62
7
  6
CONTINUOUS
 10
-1.7151415155
 20
21.3333440604
 11
-1.713774566
 21
21.5447537227
  0
LINE
  5
6E8
100
AcDbEntity
  8
RACCORDO
100
AcDbLine
 62
7
  6
CONTINUOUS
 10
-1.7148069966
 20
16.389799513
 11
-1.713442209
 21
16.5894658131
  0
LINE
  5
6E9
100
AcDbEntity
  8
RACCORDO
100
AcDbLine
 62
7
  6
CONTINUOUS
 10
-1.7146448085
 20
11.4159720832
 11
-1.7132617083
 21
11.6128635833
  0
LINE
  5
6EA
100
AcDbEntity
  8
ASSI
100
AcDbLine
 62
7
  6
CONTINUOUS
 10
-1.7146485512
 20
16.4153765292
 11
-1.7132217237
 21
16.6179674975
  0
LINE
  5
6EB
100
AcDbEntity
  8
ASSI
100
AcDbLine
 62
253
  6
CONTINUOUS
 10
-2.2692859242
 20
43.4523633612
 11
-2.2695821347
 21
43.395531626
  0
LINE
  5
6EC
100
AcDbEntity
  8
RACCORDO
100
AcDbLine
 62
7
  6
CONTINUOUS
 10
-1.7144801264
 20
21.4417966511
 11
-1.7130793688
 21
21.6359148867
  0
LINE
  5
6ED
100
AcDbEntity
  8
RACCORDO
100
AcDbLine
 62
253
  6
CONTINUOUS
 10
-2.0132179229
 20
21.4192382681
 11
-2.0150433077
 21
21.1836013071
  0
LINE
  5
6EE
100
AcDbEntity
  8
ASSI
100
AcDbLine
 62
253
  6
CONTINUOUS
 10
-2.0132179229
 20
21.4192382681
 11
-2.0150433077
 21
21.1836013071
  0
LINE
  5
6EF
100
AcDbEntity
  8
RACCORDO
100
AcDbLine
 62
253
  6
CONTINUOUS
 10
-2.0132179229
 20
16.4192382681
 11
-2.0150433077
 21
16.1836013071
  0
LINE
  5
6F0
100
AcDbEntity
  8
ASSI
100
AcDbLine
 62
253
  6
CONTINUOUS
 10
-2.0132179229
 20
16.4192382681
 11
-2.0150433077
 21
16.1836013071
  0
LINE
  5
6F1
100
AcDbEntity
  8
RACCORDO
100
AcDbLine
 62
253
  6
CONTINUOUS
 10
-2.0132179229
 20
11.4192382681
 11
-2.0150433077
 21
11.1836013071
  0
LINE
  5
6F2
100
AcDbEntity
  8
ASSI
100
AcDbLine
 62
253
  6
CONTINUOUS
 10
-2.0132179229
 20
11.4192382681
 11
-2.0150433077
 21
11.1836013071
  0
LINE
  5
6F3
100
AcDbEntity
  8
RACCORDO
100
AcDbLine
 62
253
  6
CONTINUOUS
 10
-2.0132179229
 20
6.4192382681
 11
-2.0150433077
 21
6.1836013071
  0
LINE
  5
6F4
100
AcDbEntity
  8
ASSI
100
AcDbLine
 62
253
  6
CONTINUOUS
 10
-2.0132179229
 20
6.4192382681
 11
-2.0150433077
 21
6.1836013071
  0
LWPOLYLINE
  5
6F5
100
AcDbEntity
  8
ASSI
100
AcDbPolyline
 62
7
  6
CONTINUOUS
 90
3
 70
0
 10
-1.7139543711
 20
11.5196129424
 10
-1.7124583204
 20
11.7104350131
 10
-1.712263296
 20
11.7326307869
  0
LINE
  5
6F6
100
AcDbEntity
  8
ASSI
100
AcDbLine
 62
7
  6
CONTINUOUS
 10
-1.713774566
 20
21.5447537227
 11
-1.712263296
 21
21.7326307869
  0
LINE
  5
6F7
100
AcDbEntity
  8
RACCORDO
100
AcDbLine
 62
7
  6
CONTINUOUS
 10
-1.7132617083
 20
11.6128635833
 11
-1.7121437037
 21
11.7459646159
  0
LINE
  5
6F8
100
AcDbEntity
  8
RACCORDO
100
AcDbLine
 62
7
  6
CONTINUOUS
 10
-1.713442209
 20
16.5894658131
 11
-1.7119517285
 21
16.7669365694
  0
LINE
  5
6F9
100
AcDbEntity
  8
RACCORDO
100
AcDbLine
 62
7
  6
CONTINUOUS
 10
-1.7130793688
 20
21.6359148867
 11
-1.7115627424
 21
21.8078462397
  0
LINE
  5
6FA
100
AcDbEntity
  8
ASSI
100
AcDbLine
 62
7
  6
CONTINUOUS
 10
-1.7132217237
 20
16.6179674975
 11
-1.7116676162
 21
16.7970209636
  0
LINE
  5
6FB
100
AcDbEntity
  8
ASSI
100
AcDbLine
 62
253
  6
CONTINUOUS
 10
-2.0697219922
 20
-4.8334460183
 11
-2.0698076706
 21
-4.8432523051
  0
LINE
  5
6FC
100
AcDbEntity
  8
ASSI
100
AcDbLine
 62
7
  6
CONTINUOUS
 10
-1.712263296
 20
21.7326307869
 11
-1.7106397103
 21
21.8970507758
  0
LINE
  5
6FD
100
AcDbEntity
  8
ASSI
100
AcDbLine
 62
253
  6
CONTINUOUS
 10
-2.0697115522
 20
43.2486633351
 11
-2.0698067308
 21
43.2380916333
  0
LINE
  5
6FE
100
AcDbEntity
  8
ASSI
100
AcDbLine
 62
253
  6
CONTINUOUS
 10
-2.2691942747
 20
43.4613399957
 11
-2.2692859242
 21
43.4523633612
  0
LINE
  5
6FF
100
AcDbEntity
  8
RACCORDO
100
AcDbLine
 62
7
  6
CONTINUOUS
 10
-1.7119517285
 20
16.7669365694
 11
-1.71035685
 21
16.9223625789
  0
LINE
  5
700
100
AcDbEntity
  8
ASSI
100
AcDbLine
 62
7
  6
CONTINUOUS
 10
-1.7116676162
 20
16.7970209636
 11
-1.7100040001
 21
16.9527273796
  0
LINE
  5
701
100
AcDbEntity
  8
RACCORDO
100
AcDbLine
 62
7
  6
CONTINUOUS
 10
-1.7115627424
 20
21.8078462397
 11
-1.7099433789
 21
21.9578147648
  0
LINE
  5
702
100
AcDbEntity
  8
ASSI
100
AcDbLine
 62
7
  6
CONTINUOUS
 10
-1.7106397103
 20
21.8970507758
 11
-1.708921513
 21
22.0383241463
  0
LINE
  5
703
100
AcDbEntity
  8
RACCORDO
100
AcDbLine
 62
7
  6
CONTINUOUS
 10
-1.71035685
 20
16.9223625789
 11
-1.7086790698
 21
17.0560370501
  0
LINE
  5
704
100
AcDbEntity
  8
RACCORDO
100
AcDbLine
 62
7
  6
CONTINUOUS
 10
-1.7099433789
 20
21.9578147648
 11
-1.7082512591
 21
22.0860237531
  0
LINE
  5
705
100
AcDbEntity
  8
ASSI
100
AcDbLine
 62
7
  6
CONTINUOUS
 10
-1.7100040001
 20
16.9527273796
 11
-1.7082617634
 21
17.085306661
  0
LINE
  5
706
100
AcDbEntity
  8
CURVE
100
AcDbLine
 62
253
  6
CONTINUOUS
 10
-1.6006199236
 20
33.5694694542
 11
-1.6033208905
 21
33.383755102
  0
LINE
  5
707
100
AcDbEntity
  8
ASSI
100
AcDbLine
 62
253
  6
CONTINUOUS
 10
-2.0696365912
 20
-4.8270617685
 11
-2.0697219922
 21
-4.8334460183
  0
LINE
  5
708
100
AcDbEntity
  8
CURVE
100
AcDbLine
 62
7
  6
CONTINUOUS
 10
-1.5636937087
 20
25.7362659832
 11
-1.5643811413
 21
25.6876804061
  0
LINE
  5
709
100
AcDbEntity
  8
ASSI
100
AcDbLine
 62
253
  6
CONTINUOUS
 10
-2.0696125609
 20
43.255602915
 11
-2.0697115522
 21
43.2486633351
  0
LINE
  5
70A
100
AcDbEntity
  8
ASSI
100
AcDbLine
 62
7
  6
CONTINUOUS
 10
-1.708921513
 20
22.0383241463
 11
-1.707371407
 21
22.1427603264
  0
LINE
  5
70B
100
AcDbEntity
  8
RACCORDO
100
AcDbLine
 62
7
  6
CONTINUOUS
 10
-1.7086790698
 20
17.0560370501
 11
-1.7071695532
 21
17.1548765053
  0
LINE
  5
70C
100
AcDbEntity
  8
CURVE
100
AcDbLine
 62
253
  6
CONTINUOUS
 10
-1.6000797295
 20
35.5194693767
 11
-1.6033208905
 21
35.333755102
  0
LINE
  5
70D
100
AcDbEntity
  8
CURVE
100
AcDbLine
 62
253
  6
CONTINUOUS
 10
-1.6114237936
 20
33.4766122006
 11
-1.6146649546
 21
33.2908980035
  0
LINE
  5
70E
100
AcDbEntity
  8
CURVE
100
AcDbLine
 62
253
  6
CONTINUOUS
 10
-1.6000797295
 20
31.433755102
 11
-1.6033208905
 21
31.2480409049
  0
LINE
  5
70F
100
AcDbEntity
  8
CURVE
100
AcDbLine
 62
253
  6
CONTINUOUS
 10
-1.6000797295
 20
26.2647073649
 11
-1.6033208905
 21
26.0789931678
  0
LINE
  5
710
100
AcDbEntity
  8
RACCORDO
100
AcDbLine
 62
7
  6
CONTINUOUS
 10
-1.7082512591
 20
22.0860237531
 11
-1.7067334322
 21
22.1799597808
  0
LINE
  5
711
100
AcDbEntity
  8
ASSI
100
AcDbLine
 62
7
  6
CONTINUOUS
 10
-1.7082617634
 20
17.085306661
 11
-1.7066979356
 21
17.1819369358
  0
LINE
  5
712
100
AcDbEntity
  8
ASSI
100
AcDbLine
 62
253
  6
CONTINUOUS
 10
-2.0695895562
 20
-4.8243046443
 11
-2.0696365912
 21
-4.8270617685
  0
LINE
  5
713
100
AcDbEntity
  8
CURVE
100
AcDbLine
 62
7
  6
CONTINUOUS
 10
-1.5605088345
 20
25.1569363779
 11
-1.5597598584
 21
25.2034890965
  0
LINE
  5
714
100
AcDbEntity
  8
ASSI
100
AcDbLine
 62
7
  6
CONTINUOUS
 10
-1.707371407
 20
22.1427603264
 11
-1.7057982716
 21
22.2289576682
  0
LINE
  5
715
100
AcDbEntity
  8
CURVE
100
AcDbLine
 62
7
  6
CONTINUOUS
 10
-1.5419530254
 20
25.5634709672
 11
-1.5425267426
 21
25.5319895567
  0
LINE
  5
716
100
AcDbEntity
  8
ASSI
100
AcDbLine
 62
253
  6
CONTINUOUS
 10
-2.0695353101
 20
43.2596164069
 11
-2.0696125609
 21
43.255602915
  0
LINE
  5
717
100
AcDbEntity
  8
RACCORDO
100
AcDbLine
 62
7
  6
CONTINUOUS
 10
-1.7071695532
 20
17.1548765053
 11
-1.705642313
 21
17.2365261177
  0
LINE
  5
718
100
AcDbEntity
  8
CURVE
100
AcDbLine
 62
7
  6
CONTINUOUS
 10
-1.5643811413
 20
25.6876804061
 11
-1.5651091798
 21
25.6486110674
  0
LINE
  5
719
100
AcDbEntity
  8
RACCORDO
100
AcDbLine
 62
7
  6
CONTINUOUS
 10
-1.7067334322
 20
22.1799597808
 11
-1.7053355983
 21
22.2508931542
  0
LINE
  5
71A
100
AcDbEntity
  8
RACCORDO
100
AcDbLine
 62
7
  6
CONTINUOUS
 10
-1.705642313
 20
17.2365261177
 11
-1.7053355983
 21
17.2508931542
  0
LINE
  5
71B
100
AcDbEntity
  8
CURVE
100
AcDbLine
 62
7
  6
CONTINUOUS
 10
-1.5371980472
 20
25.0416401961
 11
-1.5360728915
 21
25.0967110439
  0
LINE
  5
71C
100
AcDbEntity
  8
ASSI
100
AcDbLine
 62
7
  6
CONTINUOUS
 10
-1.7057982716
 20
22.2289576682
 11
-1.7053362172
 21
22.2508923913
  0
LINE
  5
71D
100
AcDbEntity
  8
ASSI
100
AcDbLine
 62
7
  6
CONTINUOUS
 10
-1.7066979356
 20
17.1819369358
 11
-1.7053362172
 21
17.2508923913
  0
LINE
  5
71E
100
AcDbEntity
  8
CURVE
100
AcDbLine
 62
7
  6
CONTINUOUS
 10
-1.5613704042
 20
25.1156583601
 11
-1.5605088345
 21
25.1569363779
  0
LINE
  5
71F
100
AcDbEntity
  8
CURVE
100
AcDbLine
 62
7
  6
CONTINUOUS
 10
-1.5425267426
 20
25.5319895567
 11
-1.5430039416
 21
25.5113547725
  0
LINE
  5
720
100
AcDbEntity
  8
CURVE
100
AcDbLine
 62
7
  6
CONTINUOUS
 10
-1.5651091798
 20
25.6486110674
 11
-1.5657506131
 21
25.621496964
  0
LINE
  5
721
100
AcDbEntity
  8
CURVE
100
AcDbLine
 62
253
  6
CONTINUOUS
 10
-1.6130443741
 20
35.7051836707
 11
-1.6164709457
 21
35.5742916364
  0
LINE
  5
722
100
AcDbEntity
  8
CURVE
100
AcDbLine
 62
7
  6
CONTINUOUS
 10
-1.538421583
 20
24.9940450168
 11
-1.5371980472
 21
25.0416401961
  0
LINE
  5
723
100
AcDbEntity
  8
CURVE
100
AcDbLine
 62
7
  6
CONTINUOUS
 10
-1.5623105662
 20
25.0795530529
 11
-1.5613704042
 21
25.1156583601
  0
LINE
  5
724
100
AcDbEntity
  8
ASSI
100
AcDbLine
 62
7
  6
CONTINUOUS
 10
-3.3690041916
 20
-4.5744263686
 11
-3.3558367347
 21
-4.1388946288
  0
LINE
  5
725
100
AcDbEntity
  8
ASSI
100
AcDbLine
 62
7
  6
CONTINUOUS
 10
-1.5558367347
 20
37.983755102
 11
-1.5732917996
 21
37.4064048329
  0
LINE
  5
726
100
AcDbEntity
  8
CURVE
100
AcDbLine
 62
7
  6
CONTINUOUS
 10
-1.5430039416
 20
25.5113547725
 11
-1.5435146839
 21
25.4933819679
  0
LINE
  5
727
100
AcDbEntity
  8
CURVE
100
AcDbLine
 62
7
  6
CONTINUOUS
 10
-1.5657506131
 20
25.621496964
 11
-1.5662607792
 21
25.603879018
  0
LINE
  5
728
100
AcDbEntity
  8
CURVE
100
AcDbLine
 62
7
  6
CONTINUOUS
 10
-1.5630964334
 20
25.0543246213
 11
-1.5623105662
 21
25.0795530529
  0
LINE
  5
729
100
AcDbEntity
  8
CURVE
100
AcDbLine
 62
7
  6
CONTINUOUS
 10
-1.5392866716
 20
24.9667586922
 11
-1.538421583
 21
24.9940450168
  0
LINE
  5
72A
100
AcDbEntity
  8
CURVE
100
AcDbLine
 62
253
  6
CONTINUOUS
 10
-1.6000797295
 20
29.8861357592
 11
-1.6130443741
 21
29.5147073649
  0
LINE
  5
72B
100
AcDbEntity
  8
CURVE
100
AcDbLine
 62
253
  6
CONTINUOUS
 10
-1.6000797295
 20
28.7718505763
 11
-1.6130443741
 21
28.4004215621
  0
LINE
  5
72C
100
AcDbEntity
  8
CURVE
100
AcDbLine
 62
7
  6
CONTINUOUS
 10
-1.5662607792
 20
25.603879018
 11
-1.5666128403
 21
25.5935356288
  0
LINE
  5
72D
100
AcDbEntity
  8
CURVE
100
AcDbLine
 62
7
  6
CONTINUOUS
 10
-1.5435146839
 20
25.4933819679
 11
-1.5438707416
 21
25.4829267059
  0
LINE
  5
72E
100
AcDbEntity
  8
CURVE
100
AcDbLine
 62
7
  6
CONTINUOUS
 10
-1.5640222169
 20
25.0290142355
 11
-1.5630964334
 21
25.0543246213
  0
LWPOLYLINE
  5
72F
100
AcDbEntity
  8
RACCORDO
100
AcDbPolyline
 62
253
  6
CONTINUOUS
 90
9
 70
0
 10
-2.0017858906
 20
22.0859179622
 10
-2.0032387682
 20
22.0490982832
 10
-2.004667199
 20
22.0021872794
 10
-2.006050979
 20
21.9454558374
 10
-2.007389213
 20
21.8792350126
 10
-2.0086827961
 20
21.8038838883
 10
-2.0099142105
 20
21.7197621164
 10
-2.0110825674
 20
21.6273066915
 10
-2.0132179229
 20
21.4192382681
  0
LWPOLYLINE
  5
730
100
AcDbEntity
  8
ASSI
100
AcDbPolyline
 62
253
  6
CONTINUOUS
 90
9
 70
0
 10
-2.0017858906
 20
22.0859179622
 10
-2.0032387682
 20
22.0490982832
 10
-2.004667199
 20
22.0021872794
 10
-2.006050979
 20
21.9454558374
 10
-2.007389213
 20
21.8792350126
 10
-2.0086827961
 20
21.8038838883
 10
-2.0099142105
 20
21.7197621164
 10
-2.0110825674
 20
21.6273066915
 10
-2.0132179229
 20
21.4192382681
  0
LWPOLYLINE
  5
731
100
AcDbEntity
  8
RACCORDO
100
AcDbPolyline
 62
253
  6
CONTINUOUS
 90
9
 70
0
 10
-2.0017858906
 20
17.0859179622
 10
-2.0032387682
 20
17.0490982832
 10
-2.004667199
 20
17.0021872794
 10
-2.006050979
 20
16.9454558374
 10
-2.007389213
 20
16.8792350126
 10
-2.0086827961
 20
16.8038838883
 10
-2.0099142105
 20
16.7197621164
 10
-2.0110825674
 20
16.6273066915
 10
-2.0132179229
 20
16.4192382681
  0
LWPOLYLINE
  5
732
100
AcDbEntity
  8
ASSI
100
AcDbPolyline
 62
253
  6
CONTINUOUS
 90
9
 70
0
 10
-2.0017858906
 20
17.0859179622
 10
-2.0032387682
 20
17.0490982832
 10
-2.004667199
 20
17.0021872794
 10
-2.006050979
 20
16.9454558374
 10
-2.007389213
 20
16.8792350126
 10
-2.0086827961
 20
16.8038838883
 10
-2.0099142105
 20
16.7197621164
 10
-2.0110825674
 20
16.6273066915
 10
-2.0132179229
 20
16.4192382681
  0
LWPOLYLINE
  5
733
100
AcDbEntity
  8
RACCORDO
100
AcDbPolyline
 62
253
  6
CONTINUOUS
 90
9
 70
0
 10
-2.0017858906
 20
12.0859179622
 10
-2.0032387682
 20
12.0490982832
 10
-2.004667199
 20
12.0021872794
 10
-2.006050979
 20
11.9454558374
 10
-2.007389213
 20
11.8792350126
 10
-2.0086827961
 20
11.8038838883
 10
-2.0099142105
 20
11.7197621164
 10
-2.0110825674
 20
11.6273066915
 10
-2.0132179229
 20
11.4192382681
  0
LWPOLYLINE
  5
734
100
AcDbEntity
  8
ASSI
100
AcDbPolyline
 62
253
  6
CONTINUOUS
 90
9
 70
0
 10
-2.0017858906
 20
12.0859179622
 10
-2.0032387682
 20
12.0490982832
 10
-2.004667199
 20
12.0021872794
 10
-2.006050979
 20
11.9454558374
 10
-2.007389213
 20
11.8792350126
 10
-2.0086827961
 20
11.8038838883
 10
-2.0099142105
 20
11.7197621164
 10
-2.0110825674
 20
11.6273066915
 10
-2.0132179229
 20
11.4192382681
  0
LINE
  5
735
100
AcDbEntity
  8
CURVE
100
AcDbLine
 62
7
  6
CONTINUOUS
 10
-1.5666128403
 20
25.5935356288
 11
-1.5669732779
 21
25.5843808403
  0
LINE
  5
736
100
AcDbEntity
  8
CURVE
100
AcDbLine
 62
7
  6
CONTINUOUS
 10
-1.5438707416
 20
25.4829267059
 11
-1.5442370988
 21
25.4737261412
  0
LINE
  5
737
100
AcDbEntity
  8
CURVE
100
AcDbLine
 62
7
  6
CONTINUOUS
 10
-1.5646466904
 20
25.0141435381
 11
-1.5640222169
 21
25.0290142355
  0
LINE
  5
738
100
AcDbEntity
  8
CURVE
100
AcDbLine
 62
7
  6
CONTINUOUS
 10
-1.5824993526
 20
31.023860102
 11
-1.5494596675
 21
31.733917102
  0
LINE
  5
739
100
AcDbEntity
  8
CURVE
100
AcDbLine
 62
7
  6
CONTINUOUS
 10
-1.5319011374
 20
31.576989102
 11
-1.5599934175
 21
30.978110102
  0
LINE
  5
73A
100
AcDbEntity
  8
CURVE
100
AcDbLine
 62
7
  6
CONTINUOUS
 10
-1.5669732779
 20
25.5843808403
 11
-1.5678400157
 21
25.565904765
  0
LINE
  5
73B
100
AcDbEntity
  8
CURVE
100
AcDbLine
 62
7
  6
CONTINUOUS
 10
-1.5652763016
 20
25.0006162697
 11
-1.5646466904
 21
25.0141435381
  0
LWPOLYLINE
  5
73C
100
AcDbEntity
  8
CURVE
100
AcDbPolyline
 62
7
  6
CONTINUOUS
 90
12
 70
0
 10
-1.5442370988
 20
25.4737261412
 10
-1.5446119123
 20
25.4658089118
 10
-1.544801914
 20
25.4623404973
 10
-1.5449933385
 20
25.4592036559
 10
-1.5451859553
 20
25.4564019674
 10
-1.5453795341
 20
25.4539390115
 10
-1.5455738443
 20
25.451818368
 10
-1.5457686556
 20
25.4500436167
 10
-1.5459637376
 20
25.4486183373
 10
-1.5461588597
 20
25.4475461096
 10
-1.5463537917
 20
25.4468305133
 10
-1.546548303
 20
25.4464751282
  0
LINE
  5
73D
100
AcDbEntity
  8
CURVE
100
AcDbLine
 62
7
  6
CONTINUOUS
 10
-1.565910459
 20
24.9882105282
 11
-1.5652763016
 21
25.0006162697
  0
LINE
  5
73E
100
AcDbEntity
  8
CURVE
100
AcDbLine
 62
7
  6
CONTINUOUS
 10
-1.5678400157
 20
25.565904765
 11
-1.5699108067
 21
25.5260801807
  0
LINE
  5
73F
100
AcDbEntity
  8
CURVE
100
AcDbLine
 62
7
  6
CONTINUOUS
 10
-1.5824993526
 20
35.064768102
 11
-1.5319011374
 21
35.984015102
  0
LINE
  5
740
100
AcDbEntity
  8
CURVE
100
AcDbLine
 62
7
  6
CONTINUOUS
 10
-1.5319011374
 20
27.912745102
 11
-1.5824993526
 21
27.023059102
  0
LINE
  5
741
100
AcDbEntity
  8
CURVE
100
AcDbLine
 62
7
  6
CONTINUOUS
 10
-1.5668689253
 20
24.9712193686
 11
-1.565910459
 21
24.9882105282
  0
LINE
  5
742
100
AcDbEntity
  8
CURVE
100
AcDbLine
 62
7
  6
CONTINUOUS
 10
-1.5699108067
 20
25.5260801807
 11
-1.5727025337
 21
25.4781189415
  0
LINE
  5
743
100
AcDbEntity
  8
CURVE
100
AcDbLine
 62
7
  6
CONTINUOUS
 10
-1.5727025337
 20
25.4781189415
 11
-1.5824993587
 21
25.3155968404
  0
LINE
  5
744
100
AcDbEntity
  8
CURVE
100
AcDbLine
 62
7
  6
CONTINUOUS
 10
-1.5319011374
 20
35.326503102
 11
-1.5667294566
 21
34.773776102
  0
LINE
  5
745
100
AcDbEntity
  8
CURVE
100
AcDbLine
 62
7
  6
CONTINUOUS
 10
-1.5688045677
 20
24.9403138418
 11
-1.5668689253
 21
24.9712193686
  0
LINE
  5
746
100
AcDbEntity
  8
CURVE
100
AcDbLine
 62
7
  6
CONTINUOUS
 10
-1.5824993526
 20
27.660990102
 11
-1.572398147
 21
27.817788102
  0
LWPOLYLINE
  5
747
100
AcDbEntity
  8
CURVE
100
AcDbPolyline
 62
7
  6
CONTINUOUS
 90
3
 70
0
 10
-1.5824993587
 20
24.7333961169
 10
-1.5756515964
 20
24.8367777259
 10
-1.5688045677
 20
24.9403138418
  0
LINE
  5
748
100
AcDbEntity
  8
CURVE
100
AcDbLine
 62
7
  6
CONTINUOUS
 10
-1.5645818812
 20
27.938751102
 11
-1.5458042419
 21
28.216881102
  0
LWPOLYLINE
  5
749
100
AcDbEntity
  8
RACCORDO
100
AcDbPolyline
 62
253
  6
CONTINUOUS
 90
4
 70
0
 10
-1.9973007802
 20
22.133755102
 10
-1.9988202639
 20
22.1284046559
 10
-2.0003153007
 20
22.1124150467
 10
-2.0017858906
 20
22.0859179622
  0
LWPOLYLINE
  5
74A
100
AcDbEntity
  8
ASSI
100
AcDbPolyline
 62
253
  6
CONTINUOUS
 90
4
 70
0
 10
-1.9973007802
 20
22.133755102
 10
-1.9988202639
 20
22.1284046559
 10
-2.0003153007
 20
22.1124150467
 10
-2.0017858906
 20
22.0859179622
  0
LWPOLYLINE
  5
74B
100
AcDbEntity
  8
RACCORDO
100
AcDbPolyline
 62
253
  6
CONTINUOUS
 90
4
 70
0
 10
-1.9973007802
 20
17.133755102
 10
-1.9988202639
 20
17.1284046559
 10
-2.0003153007
 20
17.1124150467
 10
-2.0017858906
 20
17.0859179622
  0
LWPOLYLINE
  5
74C
100
AcDbEntity
  8
ASSI
100
AcDbPolyline
 62
253
  6
CONTINUOUS
 90
4
 70
0
 10
-1.9973007802
 20
17.133755102
 10
-1.9988202639
 20
17.1284046559
 10
-2.0003153007
 20
17.1124150467
 10
-2.0017858906
 20
17.0859179622
  0
LWPOLYLINE
  5
74D
100
AcDbEntity
  8
ASSI
100
AcDbPolyline
 62
7
  6
CONTINUOUS
 90
10
 70
0
 10
-21.2024597645
 20
-4.6440761143
 10
-21.220752447
 20
-4.6633889811
 10
-21.2416941068
 20
-4.6841117682
 10
-21.2646281257
 20
-4.7062444755
 10
-21.2887662998
 20
-4.7300858654
 10
-21.3136940092
 20
-4.7553371755
 10
-21.3394857694
 20
-4.7811021192
 10
-21.3659571805
 20
-4.8070819343
 10
-21.3925624108
 20
-4.833575383
 10
-21.4189661154
 20
-4.8605824653
  0
LINE
  5
74E
100
AcDbEntity
  8
ASSI
100
AcDbLine
 62
7
  6
CONTINUOUS
 10
-21.9558367347
 20
-3.416244898
 11
-21.9426692778
 21
-3.403077441
  0
LINE
  5
74F
100
AcDbEntity
  8
0
100
AcDbLine
 62
7
  6
CONTINUOUS
 10
-19.2431054126
 20
-0.8035135759
 11
-19.1558367347
 21
-0.716244898
  0
LINE
  5
750
100
AcDbEntity
  8
ASSI
100
AcDbLine
 62
253
  6
CONTINUOUS
 10
-23.2558367347
 20
-5.3162753589
 11
-23.2426692778
 21
-5.303107902
  0
LINE
  5
751
100
AcDbEntity
  8
ASSI
100
AcDbLine
 62
253
  6
CONTINUOUS
 10
-23.0558671957
 20
-5.516244898
 11
-23.0426997387
 21
-5.503077441
  0
LINE
  5
752
100
AcDbEntity
  8
CURVE
100
AcDbLine
 62
253
  6
CONTINUOUS
 10
-1.6227678578
 20
28.7718505763
 11
-1.6000797295
 21
28.7718505763
  0
LINE
  5
753
100
AcDbEntity
  8
CURVE
100
AcDbLine
 62
253
  6
CONTINUOUS
 10
-1.6000797295
 20
29.1432789706
 11
-1.6227678578
 21
29.1432789706
  0
LINE
  5
754
100
AcDbEntity
  8
CURVE
100
AcDbLine
 62
253
  6
CONTINUOUS
 10
-1.6227678578
 20
29.8861357592
 11
-1.6000797295
 21
29.8861357592
  0
LINE
  5
755
100
AcDbEntity
  8
ASSI
100
AcDbLine
 62
7
  6
CONTINUOUS
 10
-21.9558367347
 20
41.383755102
 11
-21.9426692778
 21
41.3705876451
  0
LINE
  5
756
100
AcDbEntity
  8
0
100
AcDbLine
 62
7
  6
CONTINUOUS
 10
-19.2431054126
 20
38.7710237799
 11
-19.1558367347
 21
38.683755102
  0
LINE
  5
757
100
AcDbEntity
  8
ASSI
100
AcDbLine
 62
253
  6
CONTINUOUS
 10
-23.2426692778
 20
43.2706181061
 11
-23.2558367347
 21
43.283785563
  0
LINE
  5
758
100
AcDbEntity
  8
ASSI
100
AcDbLine
 62
253
  6
CONTINUOUS
 10
-23.0426997387
 20
43.4705876451
 11
-23.0558671957
 21
43.483755102
  0
LWPOLYLINE
  5
759
100
AcDbEntity
  8
ASSI
100
AcDbPolyline
 62
253
  6
CONTINUOUS
 90
13
 70
0
 10
-2.0690041916
 20
43.2706181061
 10
-2.0707222406
 20
43.2967143053
 10
-2.0758311071
 20
43.3223641706
 10
-2.084243413
 20
43.3471289962
 10
-2.0958152792
 20
43.3705852126
 10
-2.1103487869
 20
43.3923316328
 10
-2.1275953633
 20
43.4119963142
 10
-2.147260032
 20
43.4292429179
 10
-2.1690064566
 20
43.4437764607
 10
-2.1924626928
 20
43.4553483625
 10
-2.2172275529
 20
43.4637606993
 10
-2.2428774681
 20
43.4688695878
 10
-2.2689737306
 20
43.4705876451
  0
LINE
  5
75A
100
AcDbEntity
  8
CURVE
100
AcDbLine
 62
253
  6
CONTINUOUS
 10
-1.5634296759
 20
19.925183663
 11
-1.5407415476
 21
19.5723264675
  0
LINE
  5
75B
100
AcDbEntity
  8
CURVE
100
AcDbLine
 62
7
  6
CONTINUOUS
 10
-1.5458042419
 20
28.216881102
 11
-1.5645818812
 21
28.518255102
  0
LINE
  5
75C
100
AcDbEntity
  8
CURVE
100
AcDbLine
 62
7
  6
CONTINUOUS
 10
-1.5667294566
 20
34.773776102
 11
-1.5319011374
 21
34.204165102
  0
LINE
  5
75D
100
AcDbEntity
  8
CURVE
100
AcDbLine
 62
253
  6
CONTINUOUS
 10
-1.6227678578
 20
19.4813741498
 11
-1.6000797295
 21
19.1099456005
  0
LINE
  5
75E
100
AcDbEntity
  8
CURVE
100
AcDbLine
 62
7
  6
CONTINUOUS
 10
-1.572398147
 20
28.642067102
 11
-1.5824993526
 21
28.809084102
  0
LINE
  5
75F
100
AcDbEntity
  8
CURVE
100
AcDbLine
 62
7
  6
CONTINUOUS
 10
-1.5824993526
 20
29.407788102
 11
-1.5319011374
 21
28.498272102
  0
LINE
  5
760
100
AcDbEntity
  8
CURVE
100
AcDbLine
 62
7
  6
CONTINUOUS
 10
-1.5319011374
 20
33.599307102
 11
-1.5824993526
 21
34.531372102
  0
LWPOLYLINE
  5
761
100
AcDbEntity
  8
ASSI
100
AcDbPolyline
 62
7
  6
CONTINUOUS
 90
16
 70
0
 10
-1.5558367347
 20
40.8838312545
 10
-1.5585334465
 20
40.9357079017
 10
-1.566641803
 20
40.9872389209
 10
-1.5801410995
 20
41.037853058
 10
-1.5990293162
 20
41.0871587139
 10
-1.6231202138
 20
41.1343872739
 10
-1.6518567156
 20
41.1784949831
 10
-1.6845224484
 20
41.2187249299
 10
-1.7209004388
 20
41.2551051868
 10
-1.7611287379
 20
41.2877722523
 10
-1.8052346001
 20
41.31650899
 10
-1.8524618633
 20
41.3405992165
 10
-1.9017709511
 20
41.3594842406
 10
-1.9523948304
 20
41.3729765735
 10
-2.0039405369
 20
41.3810739662
 10
-2.0558366701
 20
41.3837550317
  0
LWPOLYLINE
  5
762
100
AcDbEntity
  8
CURVE
100
AcDbPolyline
 62
7
  6
CONTINUOUS
 90
26
 70
0
 10
-1.5517624997
 20
24.9386380925
 10
-1.5512981001
 20
24.9286534583
 10
-1.5508279118
 20
24.9195777053
 10
-1.5503526152
 20
24.9114176777
 10
-1.5498728905
 20
24.9041802196
 10
-1.5493894182
 20
24.8978721751
 10
-1.5489052858
 20
24.8925208609
 10
-1.5484185516
 20
24.8880784666
 10
-1.5479296503
 20
24.8845270211
 10
-1.5474390168
 20
24.8818485534
 10
-1.5469470857
 20
24.8800250926
 10
-1.5464542918
 20
24.8790386676
 10
-1.54596107
 20
24.8788713074
 10
-1.5454678549
 20
24.8795050409
 10
-1.5449750449
 20
24.8809288709
 10
-1.5444831934
 20
24.8831587472
 10
-1.5439928172
 20
24.8862174338
 10
-1.5435044332
 20
24.8901276948
 10
-1.5430185583
 20
24.8949122942
 10
-1.5425357093
 20
24.9005939961
 10
-1.5420564031
 20
24.9071955645
 10
-1.5415811565
 20
24.9147397634
 10
-1.5411101463
 20
24.9232510653
 10
-1.5406444564
 20
24.932718962
 10
-1.540184823
 20
24.9431331006
 10
-1.5392866716
 20
24.9667586922
  0
LINE
  5
763
100
AcDbEntity
  8
CURVE
100
AcDbLine
 62
7
  6
CONTINUOUS
 10
-1.5599934175
 20
30.978110102
 11
-1.5319011374
 21
30.372839102
  0
LINE
  5
764
100
AcDbEntity
  8
CURVE
100
AcDbLine
 62
7
  6
CONTINUOUS
 10
-1.5495973984
 20
30.219303102
 11
-1.5824993526
 21
30.938971102
  0
LINE
  5
765
100
AcDbEntity
  8
CURVE
100
AcDbLine
 62
7
  6
CONTINUOUS
 10
-1.5496584655
 20
25.4743690736
 11
-1.5500857116
 21
25.4834398387
  0
LINE
  5
766
100
AcDbEntity
  8
ASSI
100
AcDbLine
 62
7
  6
CONTINUOUS
 10
-1.5558367347
 20
37.983755102
 11
-1.5296508131
 21
37.4064048329
  0
LINE
  5
767
100
AcDbEntity
  8
CURVE
100
AcDbLine
 62
7
  6
CONTINUOUS
 10
-1.5500857116
 20
25.4834398387
 11
-1.5505014099
 21
25.4938075618
  0
LINE
  5
768
100
AcDbEntity
  8
CURVE
100
AcDbLine
 62
7
  6
CONTINUOUS
 10
-1.5526712112
 20
24.9613066284
 11
-1.5517624997
 21
24.9386380925
  0
LINE
  5
769
100
AcDbEntity
  8
CURVE
100
AcDbLine
 62
253
  6
CONTINUOUS
 10
-1.5537061923
 20
20.6308979434
 11
-1.5407415476
 21
20.2780407848
  0
LINE
  5
76A
100
AcDbEntity
  8
CURVE
100
AcDbLine
 62
253
  6
CONTINUOUS
 10
-1.6130443741
 20
28.4004215621
 11
-1.6000797295
 21
28.0289931678
  0
LINE
  5
76B
100
AcDbEntity
  8
CURVE
100
AcDbLine
 62
253
  6
CONTINUOUS
 10
-1.6130443741
 20
29.5147073649
 11
-1.6000797295
 21
29.1432789706
  0
LINE
  5
76C
100
AcDbEntity
  8
CURVE
100
AcDbLine
 62
7
  6
CONTINUOUS
 10
-1.5505014099
 20
25.4938075618
 11
-1.5509031332
 21
25.5054807362
  0
LINE
  5
76D
100
AcDbEntity
  8
CURVE
100
AcDbLine
 62
7
  6
CONTINUOUS
 10
-1.5535483224
 20
24.9875253112
 11
-1.5526712112
 21
24.9613066284
  0
LINE
  5
76E
100
AcDbEntity
  8
ASSI
100
AcDbLine
 62
253
  6
CONTINUOUS
 10
-2.2693948756
 20
42.6115863184
 11
-2.2541216938
 21
42.1064048329
  0
LINE
  5
76F
100
AcDbEntity
  8
ASSI
100
AcDbLine
 62
253
  6
CONTINUOUS
 10
-2.0694657427
 20
42.7862337867
 11
-2.0558367347
 21
42.3353297102
  0
LINE
  5
770
100
AcDbEntity
  8
CURVE
100
AcDbLine
 62
7
  6
CONTINUOUS
 10
-1.5543882619
 20
25.0173722075
 11
-1.5535483224
 21
24.9875253112
  0
LINE
  5
771
100
AcDbEntity
  8
CURVE
100
AcDbLine
 62
7
  6
CONTINUOUS
 10
-1.5509031332
 20
25.5054807362
 11
-1.551474205
 21
25.5254567972
  0
LINE
  5
772
100
AcDbEntity
  8
ASSI
100
AcDbLine
 62
253
  6
CONTINUOUS
 10
-2.069539671
 20
42.7893037379
 11
-2.0694657427
 21
42.7862337867
  0
LINE
  5
773
100
AcDbEntity
  8
CURVE
100
AcDbLine
 62
7
  6
CONTINUOUS
 10
-1.551474205
 20
25.5254567972
 11
-1.5520001792
 21
25.5484178968
  0
LINE
  5
774
100
AcDbEntity
  8
CURVE
100
AcDbLine
 62
7
  6
CONTINUOUS
 10
-1.5555556057
 20
25.0687244957
 11
-1.5543882619
 21
25.0173722075
  0
LINE
  5
775
100
AcDbEntity
  8
ASSI
100
AcDbLine
 62
253
  6
CONTINUOUS
 10
-2.069604299
 20
42.7926382445
 11
-2.069539671
 21
42.7893037379
  0
LINE
  5
776
100
AcDbEntity
  8
CURVE
100
AcDbLine
 62
253
  6
CONTINUOUS
 10
-1.5601885146
 20
18.2491123711
 11
-1.5634296759
 21
18.4255408584
  0
LINE
  5
777
100
AcDbEntity
  8
CURVE
100
AcDbLine
 62
253
  6
CONTINUOUS
 10
-1.6098032125
 20
26.0789931678
 11
-1.6130443741
 21
26.2647073649
  0
LINE
  5
778
100
AcDbEntity
  8
CURVE
100
AcDbLine
 62
253
  6
CONTINUOUS
 10
-1.6081826326
 20
33.383755102
 11
-1.6114237936
 21
33.5694694542
  0
LINE
  5
779
100
AcDbEntity
  8
CURVE
100
AcDbLine
 62
253
  6
CONTINUOUS
 10
-1.6033208905
 20
34.9623265528
 11
-1.6000797295
 21
34.7766122781
  0
LINE
  5
77A
100
AcDbEntity
  8
CURVE
100
AcDbLine
 62
253
  6
CONTINUOUS
 10
-1.6098032125
 20
35.333755102
 11
-1.6130443741
 21
35.5194693767
  0
LINE
  5
77B
100
AcDbEntity
  8
CURVE
100
AcDbLine
 62
7
  6
CONTINUOUS
 10
-1.5520001792
 20
25.5484178968
 11
-1.5526160947
 21
25.5836458688
  0
LINE
  5
77C
100
AcDbEntity
  8
CURVE
100
AcDbLine
 62
7
  6
CONTINUOUS
 10
-1.5572663194
 20
25.1692255238
 11
-1.5555556057
 21
25.0687244957
  0
LINE
  5
77D
100
AcDbEntity
  8
CURVE
100
AcDbLine
 62
7
  6
CONTINUOUS
 10
-1.5582704744
 20
25.2416789163
 11
-1.5572663194
 21
25.1692255238
  0
LINE
  5
77E
100
AcDbEntity
  8
CURVE
100
AcDbLine
 62
7
  6
CONTINUOUS
 10
-1.5526160947
 20
25.5836458688
 11
-1.5532358622
 21
25.6343735626
  0
LINE
  5
77F
100
AcDbEntity
  8
CURVE
100
AcDbLine
 62
7
  6
CONTINUOUS
 10
-1.5585006558
 20
25.2694014273
 11
-1.5582704744
 21
25.2416789163
  0
LINE
  5
780
100
AcDbEntity
  8
CURVE
100
AcDbLine
 62
7
  6
CONTINUOUS
 10
-1.5532358622
 20
25.6343735626
 11
-1.5538566624
 21
25.715146021
  0
LINE
  5
781
100
AcDbEntity
  8
CURVE
100
AcDbLine
 62
7
  6
CONTINUOUS
 10
-1.5551818653
 20
7.3662111836
 11
-1.5559816795
 21
7.4885895377
  0
LINE
  5
782
100
AcDbEntity
  8
CURVE
100
AcDbLine
 62
7
  6
CONTINUOUS
 10
-1.5585815672
 20
25.2891993921
 11
-1.5585006558
 21
25.2694014273
  0
LINE
  5
783
100
AcDbEntity
  8
CURVE
100
AcDbLine
 62
7
  6
CONTINUOUS
 10
-1.5559816795
 20
7.4885895377
 11
-1.5564137575
 21
7.6016352588
  0
LINE
  5
784
100
AcDbEntity
  8
CURVE
100
AcDbLine
 62
7
  6
CONTINUOUS
 10
-1.5538566624
 20
25.715146021
 11
-1.5542640503
 21
25.8153704074
  0
LWPOLYLINE
  5
785
100
AcDbEntity
  8
CURVE
100
AcDbPolyline
 62
7
  6
CONTINUOUS
 90
3
 70
0
 10
-1.5599473589
 20
7.5839031702
 10
-1.5598643267
 20
7.5511533392
 10
-1.5587383072
 20
7.3254020739
  0
LINE
  5
786
100
AcDbEntity
  8
CURVE
100
AcDbLine
 62
7
  6
CONTINUOUS
 10
-1.5405210469
 20
26.2625563739
 11
-1.5401352276
 21
26.0826032467
  0
LINE
  5
787
100
AcDbEntity
  8
CURVE
100
AcDbLine
 62
7
  6
CONTINUOUS
 10
-1.5564137575
 20
7.6016352588
 11
-1.5566038185
 21
7.7454067949
  0
LINE
  5
788
100
AcDbEntity
  8
RACCORDO
100
AcDbLine
 62
7
  6
CONTINUOUS
 10
-1.642746433
 20
2.3925307119
 11
-1.642746433
 21
2.533755102
  0
LINE
  5
789
100
AcDbEntity
  8
ASSI
100
AcDbLine
 62
7
  6
CONTINUOUS
 10
-1.642746433
 20
2.3925307119
 11
-1.642746433
 21
2.533755102
  0
LINE
  5
78A
100
AcDbEntity
  8
RACCORDO
100
AcDbLine
 62
7
  6
CONTINUOUS
 10
-1.642746433
 20
7.433755102
 11
-1.642746433
 21
7.533755102
  0
LINE
  5
78B
100
AcDbEntity
  8
ASSI
100
AcDbLine
 62
7
  6
CONTINUOUS
 10
-1.642746433
 20
7.433755102
 11
-1.642746433
 21
7.533755102
  0
LINE
  5
78C
100
AcDbEntity
  8
RACCORDO
100
AcDbLine
 62
7
  6
CONTINUOUS
 10
-1.642746433
 20
12.433755102
 11
-1.642746433
 21
12.533755102
  0
LINE
  5
78D
100
AcDbEntity
  8
ASSI
100
AcDbLine
 62
7
  6
CONTINUOUS
 10
-1.642746433
 20
12.433755102
 11
-1.642746433
 21
12.533755102
  0
LINE
  5
78E
100
AcDbEntity
  8
RACCORDO
100
AcDbLine
 62
7
  6
CONTINUOUS
 10
-1.642746433
 20
17.433755102
 11
-1.642746433
 21
17.533755102
  0
LINE
  5
78F
100
AcDbEntity
  8
ASSI
100
AcDbLine
 62
7
  6
CONTINUOUS
 10
-1.642746433
 20
17.433755102
 11
-1.642746433
 21
17.533755102
  0
LINE
  5
790
100
AcDbEntity
  8
RACCORDO
100
AcDbLine
 62
7
  6
CONTINUOUS
 10
-1.642746433
 20
22.433755102
 11
-1.642746433
 21
35.5749794921
  0
LINE
  5
791
100
AcDbEntity
  8
ASSI
100
AcDbLine
 62
7
  6
CONTINUOUS
 10
-1.642746433
 20
22.433755102
 11
-1.642746433
 21
35.5749794921
  0
LINE
  5
792
100
AcDbEntity
  8
0
100
AcDbLine
 62
7
  6
CONTINUOUS
 10
-1.6280221892
 20
1.3626669257
 11
-1.6280221892
 21
36.6048432784
  0
LINE
  5
793
100
AcDbEntity
  8
RACCORDO
100
AcDbLine
 62
7
  6
CONTINUOUS
 10
-1.6280221892
 20
1.3626669257
 11
-1.6280221892
 21
36.6048432784
  0
LINE
  5
794
100
AcDbEntity
  8
CURVE
100
AcDbLine
 62
253
  6
CONTINUOUS
 10
-1.6172412623
 20
6.5528025054
 11
-1.6172412623
 21
6.46232666
  0
LINE
  5
795
100
AcDbEntity
  8
CURVE
100
AcDbLine
 62
253
  6
CONTINUOUS
 10
-1.6162855351
 20
19.3575646334
 11
-1.6162855351
 21
18.8623265677
  0
LINE
  5
796
100
AcDbEntity
  8
CURVE
100
AcDbLine
 62
253
  6
CONTINUOUS
 10
-1.6130443741
 20
26.2647073649
 11
-1.6130443741
 21
26.7289931678
  0
LINE
  5
797
100
AcDbEntity
  8
CURVE
100
AcDbLine
 62
253
  6
CONTINUOUS
 10
-1.6130443741
 20
35.5194693767
 11
-1.6130443741
 21
35.983755102
  0
LINE
  5
798
100
AcDbEntity
  8
CURVE
100
AcDbLine
 62
253
  6
CONTINUOUS
 10
-1.6114237936
 20
33.4766122006
 11
-1.6114237936
 21
33.9408980035
  0
LINE
  5
799
100
AcDbEntity
  8
CURVE
100
AcDbLine
 62
253
  6
CONTINUOUS
 10
-1.6098032125
 20
34.5908980035
 11
-1.6098032125
 21
34.3123265528
  0
LINE
  5
79A
100
AcDbEntity
  8
CURVE
100
AcDbLine
 62
253
  6
CONTINUOUS
 10
-1.6098032125
 20
27.2861357592
 11
-1.6098032125
 21
27.6575647734
  0
LINE
  5
79B
100
AcDbEntity
  8
CURVE
100
AcDbLine
 62
253
  6
CONTINUOUS
 10
-1.6085566124
 20
12.0266122125
 11
-1.6085566124
 21
11.4385169529
  0
LINE
  5
79C
100
AcDbEntity
  8
CURVE
100
AcDbLine
 62
253
  6
CONTINUOUS
 10
-1.60381953
 20
8.090897765
 11
-1.60381953
 21
7.683755102
  0
LINE
  5
79D
100
AcDbEntity
  8
CURVE
100
AcDbLine
 62
253
  6
CONTINUOUS
 10
-1.60381953
 20
9.176612439
 11
-1.60381953
 21
9.448040881
  0
LINE
  5
79E
100
AcDbEntity
  8
CURVE
100
AcDbLine
 62
253
  6
CONTINUOUS
 10
-1.6000797295
 20
35.983755102
 11
-1.6000797295
 21
35.5194693767
  0
LINE
  5
79F
100
AcDbEntity
  8
CURVE
100
AcDbLine
 62
253
  6
CONTINUOUS
 10
-1.6000797295
 20
34.7766122781
 11
-1.6000797295
 21
34.3123265528
  0
LINE
  5
7A0
100
AcDbEntity
  8
CURVE
100
AcDbLine
 62
253
  6
CONTINUOUS
 10
-1.6000797295
 20
33.9408980035
 11
-1.6000797295
 21
33.6623265528
  0
LINE
  5
7A1
100
AcDbEntity
  8
CURVE
100
AcDbLine
 62
253
  6
CONTINUOUS
 10
-1.6000797295
 20
31.8980409049
 11
-1.6000797295
 21
31.433755102
  0
LINE
  5
7A2
100
AcDbEntity
  8
CURVE
100
AcDbLine
 62
253
  6
CONTINUOUS
 10
-1.6000797295
 20
27.6575647734
 11
-1.6000797295
 21
27.1004215621
  0
LINE
  5
7A3
100
AcDbEntity
  8
CURVE
100
AcDbLine
 62
253
  6
CONTINUOUS
 10
-1.6000797295
 20
26.7289931678
 11
-1.6000797295
 21
26.2647073649
  0
LINE
  5
7A4
100
AcDbEntity
  8
CURVE
100
AcDbLine
 62
253
  6
CONTINUOUS
 10
-1.6000797295
 20
20.5956598752
 11
-1.6000797295
 21
19.8528026991
  0
LINE
  5
7A5
100
AcDbEntity
  8
CURVE
100
AcDbLine
 62
253
  6
CONTINUOUS
 10
-1.5896082856
 20
8.090897765
 11
-1.5896082856
 21
7.683755102
  0
LINE
  5
7A6
100
AcDbEntity
  8
CURVE
100
AcDbLine
 62
253
  6
CONTINUOUS
 10
-1.5896082856
 20
2.798040428
 11
-1.5896082856
 21
2.66232666
  0
LINE
  5
7A7
100
AcDbEntity
  8
CURVE
100
AcDbLine
 62
253
  6
CONTINUOUS
 10
-1.5896082856
 20
4.019469776
 11
-1.5896082856
 21
4.426611986
  0
LINE
  5
7A8
100
AcDbEntity
  8
CURVE
100
AcDbLine
 62
253
  6
CONTINUOUS
 10
-1.5896082856
 20
9.176612439
 11
-1.5896082856
 21
9.719469323
  0
LINE
  5
7A9
100
AcDbEntity
  8
CURVE
100
AcDbLine
 62
253
  6
CONTINUOUS
 10
-1.5896082856
 20
11.6194694363
 11
-1.5896082856
 21
12.0266122125
  0
LINE
  5
7AA
100
AcDbEntity
  8
CURVE
100
AcDbLine
 62
7
  6
CONTINUOUS
 10
-1.5827661418
 20
11.997169102
 11
-1.5827661418
 21
11.730945102
  0
LINE
  5
7AB
100
AcDbEntity
  8
CURVE
100
AcDbLine
 62
7
  6
CONTINUOUS
 10
-1.5827661418
 20
9.485030102
 11
-1.5827661418
 21
9.283393102
  0
LINE
  5
7AC
100
AcDbEntity
  8
CURVE
100
AcDbLine
 62
7
  6
CONTINUOUS
 10
-1.5827661345
 20
7.1254305874
 11
-1.5827661345
 21
6.8977078751
  0
LINE
  5
7AD
100
AcDbEntity
  8
CURVE
100
AcDbLine
 62
7
  6
CONTINUOUS
 10
-1.5827661418
 20
6.373040102
 11
-1.5827661418
 21
6.171403102
  0
LINE
  5
7AE
100
AcDbEntity
  8
CURVE
100
AcDbLine
 62
7
  6
CONTINUOUS
 10
-1.5827661418
 20
4.614545102
 11
-1.5827661418
 21
4.329424102
  0
LINE
  5
7AF
100
AcDbEntity
  8
CURVE
100
AcDbLine
 62
7
  6
CONTINUOUS
 10
-1.5826390204
 20
3.904274102
 11
-1.5826390204
 21
1.983755102
  0
LINE
  5
7B0
100
AcDbEntity
  8
CURVE
100
AcDbLine
 62
7
  6
CONTINUOUS
 10
-1.5824993526
 20
33.374690102
 11
-1.5824993526
 21
32.769419102
  0
LINE
  5
7B1
100
AcDbEntity
  8
CURVE
100
AcDbLine
 62
7
  6
CONTINUOUS
 10
-1.5824993587
 20
26.8453224464
 11
-1.5824993587
 21
26.2424864853
  0
LINE
  5
7B2
100
AcDbEntity
  8
CURVE
100
AcDbLine
 62
7
  6
CONTINUOUS
 10
-1.5824993587
 20
25.3155968404
 11
-1.5824993587
 21
24.7333961169
  0
LINE
  5
7B3
100
AcDbEntity
  8
CURVE
100
AcDbLine
 62
7
  6
CONTINUOUS
 10
-1.5824993526
 20
27.023059102
 11
-1.5824993526
 21
27.660990102
  0
LINE
  5
7B4
100
AcDbEntity
  8
CURVE
100
AcDbLine
 62
7
  6
CONTINUOUS
 10
-1.5824993526
 20
28.809084102
 11
-1.5824993526
 21
29.407788102
  0
LINE
  5
7B5
100
AcDbEntity
  8
CURVE
100
AcDbLine
 62
7
  6
CONTINUOUS
 10
-1.5824993526
 20
29.502832102
 11
-1.5824993526
 21
30.094948102
  0
LINE
  5
7B6
100
AcDbEntity
  8
CURVE
100
AcDbLine
 62
7
  6
CONTINUOUS
 10
-1.5824993526
 20
30.938971102
 11
-1.5824993526
 21
31.023860102
  0
LINE
  5
7B7
100
AcDbEntity
  8
CURVE
100
AcDbLine
 62
7
  6
CONTINUOUS
 10
-1.5824993526
 20
31.864534102
 11
-1.5824993526
 21
32.443582102
  0
LINE
  5
7B8
100
AcDbEntity
  8
CURVE
100
AcDbLine
 62
7
  6
CONTINUOUS
 10
-1.5824993526
 20
34.531372102
 11
-1.5824993526
 21
35.064768102
  0
LINE
  5
7B9
100
AcDbEntity
  8
CURVE
100
AcDbLine
 62
7
  6
CONTINUOUS
 10
-1.5791205055
 20
1.983755102
 11
-1.5791205055
 21
3.702637102
  0
LINE
  5
7BA
100
AcDbEntity
  8
ASSI
100
AcDbLine
 62
7
  6
CONTINUOUS
 10
-1.5732917996
 20
40.8663761895
 11
-1.5732917996
 21
37.4064048329
  0
LINE
  5
7BB
100
AcDbEntity
  8
ASSI
100
AcDbLine
 62
7
  6
CONTINUOUS
 10
-1.5732917996
 20
0.5611053712
 11
-1.5732917996
 21
-2.8988659855
  0
LINE
  5
7BC
100
AcDbEntity
  8
CURVE
100
AcDbLine
 62
7
  6
CONTINUOUS
 10
-1.572398147
 20
27.817788102
 11
-1.572398147
 21
28.642067102
  0
LINE
  5
7BD
100
AcDbEntity
  8
CURVE
100
AcDbLine
 62
7
  6
CONTINUOUS
 10
-1.5645818812
 20
28.518255102
 11
-1.5645818812
 21
27.938751102
  0
LINE
  5
7BE
100
AcDbEntity
  8
CURVE
100
AcDbLine
 62
253
  6
CONTINUOUS
 10
-1.5634296759
 20
17.7492312645
 11
-1.5634296759
 21
17.2199455081
  0
LINE
  5
7BF
100
AcDbEntity
  8
CURVE
100
AcDbLine
 62
253
  6
CONTINUOUS
 10
-1.5634296759
 20
18.4255408584
 11
-1.5634296759
 21
18.8666122239
  0
LINE
  5
7C0
100
AcDbEntity
  8
CURVE
100
AcDbLine
 62
7
  6
CONTINUOUS
 10
-1.5597195612
 20
10.205966102
 11
-1.5597195612
 21
9.485030102
  0
LINE
  5
7C1
100
AcDbEntity
  8
CURVE
100
AcDbLine
 62
7
  6
CONTINUOUS
 10
-1.559701396
 20
3.063741102
 11
-1.559701396
 21
2.063454102
  0
LINE
  5
7C2
100
AcDbEntity
  8
CURVE
100
AcDbLine
 62
253
  6
CONTINUOUS
 10
-1.5569473533
 20
19.8075646223
 11
-1.5569473533
 21
19.3370883863
  0
LINE
  5
7C3
100
AcDbEntity
  8
CURVE
100
AcDbLine
 62
7
  6
CONTINUOUS
 10
-1.5566038185
 20
7.7454067949
 11
-1.5566038185
 21
7.9121606473
  0
LINE
  5
7C4
100
AcDbEntity
  8
CURVE
100
AcDbLine
 62
7
  6
CONTINUOUS
 10
-1.5562026865
 20
2.063454102
 11
-1.5562026865
 21
3.063741102
  0
LINE
  5
7C5
100
AcDbEntity
  8
CURVE
100
AcDbLine
 62
7
  6
CONTINUOUS
 10
-1.5562010462
 20
10.205966102
 11
-1.5562010462
 21
9.485030102
  0
LINE
  5
7C6
100
AcDbEntity
  8
ASSI
100
AcDbLine
 62
7
  6
CONTINUOUS
 10
-1.5558367347
 20
40.8837548669
 11
-1.5558367347
 21
37.983755102
  0
LINE
  5
7C7
100
AcDbEntity
  8
ASSI
100
AcDbLine
 62
7
  6
CONTINUOUS
 10
-1.5558367347
 20
-2.9162446628
 11
-1.5558367347
 21
-0.016244898
  0
LINE
  5
7C8
100
AcDbEntity
  8
CURVE
100
AcDbLine
 62
7
  6
CONTINUOUS
 10
-1.5542640503
 20
25.8153704074
 11
-1.5544112447
 21
26.2625563739
  0
LINE
  5
7C9
100
AcDbEntity
  8
CURVE
100
AcDbLine
 62
253
  6
CONTINUOUS
 10
-1.5504650306
 20
17.3963742899
 11
-1.5504650306
 21
17.7492312645
  0
LINE
  5
7CA
100
AcDbEntity
  8
CURVE
100
AcDbLine
 62
253
  6
CONTINUOUS
 10
-1.5407415476
 20
18.8666122239
 11
-1.5407415476
 21
18.4255408584
  0
LINE
  5
7CB
100
AcDbEntity
  8
CURVE
100
AcDbLine
 62
253
  6
CONTINUOUS
 10
-1.5407415476
 20
17.7492312645
 11
-1.5407415476
 21
17.2199455081
  0
LINE
  5
7CC
100
AcDbEntity
  8
CURVE
100
AcDbLine
 62
7
  6
CONTINUOUS
 10
-1.5356000304
 20
3.702637102
 11
-1.5356000304
 21
2.008421102
  0
LINE
  5
7CD
100
AcDbEntity
  8
CURVE
100
AcDbLine
 62
7
  6
CONTINUOUS
 10
-1.5321186311
 20
6.171403102
 11
-1.5321186311
 21
6.373040102
  0
LINE
  5
7CE
100
AcDbEntity
  8
CURVE
100
AcDbLine
 62
7
  6
CONTINUOUS
 10
-1.5320815155
 20
2.008421102
 11
-1.5320815155
 21
3.904274102
  0
LINE
  5
7CF
100
AcDbEntity
  8
CURVE
100
AcDbLine
 62
7
  6
CONTINUOUS
 10
-1.5320163058
 20
4.325924102
 11
-1.5320163058
 21
4.611045102
  0
LINE
  5
7D0
100
AcDbEntity
  8
CURVE
100
AcDbLine
 62
7
  6
CONTINUOUS
 10
-1.5320163058
 20
9.283393102
 11
-1.5320163058
 21
9.490350102
  0
LINE
  5
7D1
100
AcDbEntity
  8
CURVE
100
AcDbLine
 62
7
  6
CONTINUOUS
 10
-1.5319011374
 20
35.984015102
 11
-1.5319011374
 21
35.326503102
  0
LINE
  5
7D2
100
AcDbEntity
  8
CURVE
100
AcDbLine
 62
7
  6
CONTINUOUS
 10
-1.5319011374
 20
34.204165102
 11
-1.5319011374
 21
33.599307102
  0
LINE
  5
7D3
100
AcDbEntity
  8
CURVE
100
AcDbLine
 62
7
  6
CONTINUOUS
 10
-1.5319011374
 20
32.181760102
 11
-1.5319011374
 21
31.576989102
  0
LINE
  5
7D4
100
AcDbEntity
  8
CURVE
100
AcDbLine
 62
7
  6
CONTINUOUS
 10
-1.5319011374
 20
30.372839102
 11
-1.5319011374
 21
29.773982102
  0
LINE
  5
7D5
100
AcDbEntity
  8
CURVE
100
AcDbLine
 62
7
  6
CONTINUOUS
 10
-1.5319011374
 20
28.498272102
 11
-1.5319011374
 21
27.912745102
  0
LINE
  5
7D6
100
AcDbEntity
  8
CURVE
100
AcDbLine
 62
7
  6
CONTINUOUS
 10
-1.5318981012
 20
32.769419102
 11
-1.5318981012
 21
33.374690102
  0
LINE
  5
7D7
100
AcDbEntity
  8
DRAFT
100
AcDbLine
 62
7
  6
CONTINUOUS
 10
-1.5296508131
 20
37.4064048329
 11
-1.5296508131
 21
36.9513568682
  0
LINE
  5
7D8
100
AcDbEntity
  8
DRAFT
100
AcDbLine
 62
7
  6
CONTINUOUS
 10
-1.5296508131
 20
1.0161533358
 11
-1.5296508131
 21
0.5611053712
  0
LINE
  5
7D9
100
AcDbEntity
  8
CURVE
100
AcDbLine
 62
7
  6
CONTINUOUS
 10
-1.5271590287
 20
3.286048102
 11
-1.5271590287
 21
3.000904102
  0
LINE
  5
7DA
100
AcDbEntity
  8
CURVE
100
AcDbLine
 62
7
  6
CONTINUOUS
 10
-1.5149395632
 20
2.300661102
 11
-1.5149395632
 21
2.585781102
  0
LINE
  5
7DB
100
AcDbEntity
  8
0
100
AcDbLine
 62
7
  6
CONTINUOUS
 10
-1.5058367347
 20
1.3120560533
 11
-1.5058367347
 21
36.6554541508
  0
LINE
  5
7DC
100
AcDbEntity
  8
RACCORDO
100
AcDbLine
 62
7
  6
CONTINUOUS
 10
-1.5058367347
 20
1.3120560533
 11
-1.5058367347
 21
36.6554541508
  0
LINE
  5
7DD
100
AcDbEntity
  8
CURVE
100
AcDbLine
 62
7
  6
CONTINUOUS
 10
-1.5401352276
 20
26.0826032467
 11
-1.5400737139
 21
25.901163588
  0
LINE
  5
7DE
100
AcDbEntity
  8
CURVE
100
AcDbLine
 62
7
  6
CONTINUOUS
 10
-1.5312751518
 20
25.9037340396
 11
-1.5324922939
 21
26.8453224464
  0
LINE
  5
7DF
100
AcDbEntity
  8
CURVE
100
AcDbLine
 62
7
  6
CONTINUOUS
 10
-1.5358047031
 20
8.8519750479
 11
-1.5359124549
 21
7.5909427449
  0
LINE
  5
7E0
100
AcDbEntity
  8
CURVE
100
AcDbLine
 62
7
  6
CONTINUOUS
 10
-1.5400737139
 20
25.901163588
 11
-1.5403138033
 21
25.7551981651
  0
LINE
  5
7E1
100
AcDbEntity
  8
CURVE
100
AcDbLine
 62
7
  6
CONTINUOUS
 10
-1.5626980105
 20
26.2424864853
 11
-1.5628356804
 21
25.845780251
  0
LINE
  5
7E2
100
AcDbEntity
  8
CURVE
100
AcDbLine
 62
7
  6
CONTINUOUS
 10
-1.5359124549
 20
7.5909427449
 11
-1.5362539772
 21
7.4762255121
  0
LINE
  5
7E3
100
AcDbEntity
  8
CURVE
100
AcDbLine
 62
7
  6
CONTINUOUS
 10
-1.5328678606
 20
7.4244535964
 11
-1.532286186
 21
8.8519750479
  0
LINE
  5
7E4
100
AcDbEntity
  8
CURVE
100
AcDbLine
 62
7
  6
CONTINUOUS
 10
-1.5326150767
 20
25.4226683419
 11
-1.5312751518
 21
25.9037340396
  0
LINE
  5
7E5
100
AcDbEntity
  8
RACCORDO
100
AcDbLine
 62
7
  6
CONTINUOUS
 10
-1.7155805953
 20
6.2537495932
 11
-1.7143129612
 21
6.4672759252
  0
LINE
  5
7E6
100
AcDbEntity
  8
ASSI
100
AcDbLine
 62
7
  6
CONTINUOUS
 10
-1.7156108665
 20
6.2480183509
 11
-1.7143066113
 21
6.4682297096
  0
LINE
  5
7E7
100
AcDbEntity
  8
CURVE
100
AcDbLine
 62
7
  6
CONTINUOUS
 10
-1.5362539772
 20
7.4762255121
 11
-1.5369041292
 21
7.3579049745
  0
LINE
  5
7E8
100
AcDbEntity
  8
CURVE
100
AcDbLine
 62
7
  6
CONTINUOUS
 10
-1.5403138033
 20
25.7551981651
 11
-1.5407819277
 21
25.6686355389
  0
LINE
  5
7E9
100
AcDbEntity
  8
RACCORDO
100
AcDbLine
 62
7
  6
CONTINUOUS
 10
-1.7143129612
 20
6.4672759252
 11
-1.7128953493
 21
6.658618161
  0
LINE
  5
7EA
100
AcDbEntity
  8
ASSI
100
AcDbLine
 62
7
  6
CONTINUOUS
 10
-1.7143066113
 20
6.4682297096
 11
-1.712843339
 21
6.664937564
  0
LINE
  5
7EB
100
AcDbEntity
  8
CURVE
100
AcDbLine
 62
7
  6
CONTINUOUS
 10
-1.5628356804
 20
25.845780251
 11
-1.5632721015
 21
25.7765445223
  0
LINE
  5
7EC
100
AcDbEntity
  8
CURVE
100
AcDbLine
 62
7
  6
CONTINUOUS
 10
-1.5343257987
 20
7.1999351276
 11
-1.5328678606
 21
7.4244535964
  0
LINE
  5
7ED
100
AcDbEntity
  8
CURVE
100
AcDbLine
 62
7
  6
CONTINUOUS
 10
-1.533684024
 20
25.2697239241
 11
-1.5326150767
 21
25.4226683419
  0
LINE
  5
7EE
100
AcDbEntity
  8
CURVE
100
AcDbLine
 62
7
  6
CONTINUOUS
 10
-1.5369041292
 20
7.3579049745
 11
-1.5376310659
 21
7.2729961109
  0
LINE
  5
7EF
100
AcDbEntity
  8
RACCORDO
100
AcDbLine
 62
7
  6
CONTINUOUS
 10
-1.7128953493
 20
6.658618161
 11
-1.7113657275
 21
6.8277865553
  0
LINE
  5
7F0
100
AcDbEntity
  8
ASSI
100
AcDbLine
 62
7
  6
CONTINUOUS
 10
-1.712843339
 20
6.664937564
 11
-1.7112615829
 21
6.8381229299
  0
LINE
  5
7F1
100
AcDbEntity
  8
ASSI
100
AcDbLine
 62
7
  6
CONTINUOUS
 10
-1.712263296
 20
11.7326307869
 11
-1.7106397103
 21
11.8970507758
  0
LINE
  5
7F2
100
AcDbEntity
  8
RACCORDO
100
AcDbLine
 62
7
  6
CONTINUOUS
 10
-1.7121437037
 20
11.7459646159
 11
-1.7105616223
 21
11.9041277753
  0
LINE
  5
7F3
100
AcDbEntity
  8
CURVE
100
AcDbLine
 62
7
  6
CONTINUOUS
 10
-1.5594994105
 20
25.223609946
 11
-1.5588805586
 21
25.2891993921
  0
LINE
  5
7F4
100
AcDbEntity
  8
CURVE
100
AcDbLine
 62
7
  6
CONTINUOUS
 10
-1.5632721015
 20
25.7765445223
 11
-1.5636937087
 21
25.7362659832
  0
LINE
  5
7F5
100
AcDbEntity
  8
CURVE
100
AcDbLine
 62
7
  6
CONTINUOUS
 10
-1.5407819277
 20
25.6686355389
 11
-1.5414574715
 21
25.5990074548
  0
LINE
  5
7F6
100
AcDbEntity
  8
RACCORDO
100
AcDbLine
 62
7
  6
CONTINUOUS
 10
-1.7113657275
 20
6.8277865553
 11
-1.7097348811
 21
6.9750335271
  0
LINE
  5
7F7
100
AcDbEntity
  8
ASSI
100
AcDbLine
 62
7
  6
CONTINUOUS
 10
-1.7112615829
 20
6.8381229299
 11
-1.7095738371
 21
6.988045799
  0
LINE
  5
7F8
100
AcDbEntity
  8
CURVE
100
AcDbLine
 62
253
  6
CONTINUOUS
 10
-1.60381953
 20
8.090897765
 11
-1.6014509902
 21
8.2718503617
  0
LINE
  5
7F9
100
AcDbEntity
  8
ASSI
100
AcDbLine
 62
7
  6
CONTINUOUS
 10
-1.7106397103
 20
11.8970507758
 11
-1.708921513
 21
12.0383241463
  0
LINE
  5
7FA
100
AcDbEntity
  8
CURVE
100
AcDbLine
 62
7
  6
CONTINUOUS
 10
-1.5597598584
 20
25.2034890965
 11
-1.5594994105
 21
25.223609946
  0
LINE
  5
7FB
100
AcDbEntity
  8
RACCORDO
100
AcDbLine
 62
7
  6
CONTINUOUS
 10
-1.7105616223
 20
11.9041277753
 11
-1.708891829
 21
12.0405210618
  0
LINE
  5
7FC
100
AcDbEntity
  8
CURVE
100
AcDbLine
 62
7
  6
CONTINUOUS
 10
-1.5357499279
 20
7.0767044885
 11
-1.5343257987
 21
7.1999351276
  0
LINE
  5
7FD
100
AcDbEntity
  8
CURVE
100
AcDbLine
 62
7
  6
CONTINUOUS
 10
-1.5376310659
 20
7.2729961109
 11
-1.5385837902
 21
7.1963665376
  0
LINE
  5
7FE
100
AcDbEntity
  8
CURVE
100
AcDbLine
 62
7
  6
CONTINUOUS
 10
-1.5350525974
 20
25.1585335379
 11
-1.533684024
 21
25.2697239241
  0
LINE
  5
7FF
100
AcDbEntity
  8
RACCORDO
100
AcDbLine
 62
7
  6
CONTINUOUS
 10
-1.7097348811
 20
6.9750335271
 11
-1.7080361899
 21
7.1004962684
  0
LINE
  5
800
100
AcDbEntity
  8
CURVE
100
AcDbLine
 62
7
  6
CONTINUOUS
 10
-1.5414574715
 20
25.5990074548
 11
-1.5419530254
 21
25.5634709672
  0
LINE
  5
801
100
AcDbEntity
  8
ASSI
100
AcDbLine
 62
7
  6
CONTINUOUS
 10
-1.7095738371
 20
6.988045799
 11
-1.7078179372
 21
7.1147787948
  0
LINE
  5
802
100
AcDbEntity
  8
RACCORDO
100
AcDbLine
 62
7
  6
CONTINUOUS
 10
-1.708891829
 20
12.0405210618
 11
-1.7073870359
 21
12.1418085538
  0
LINE
  5
803
100
AcDbEntity
  8
ASSI
100
AcDbLine
 62
7
  6
CONTINUOUS
 10
-1.708921513
 20
12.0383241463
 11
-1.707371407
 21
12.1427603264
  0
LINE
  5
804
100
AcDbEntity
  8
CURVE
100
AcDbLine
 62
253
  6
CONTINUOUS
 10
-1.60381953
 20
12.2980407678
 11
-1.6085566124
 21
12.0266122125
  0
LINE
  5
805
100
AcDbEntity
  8
CURVE
100
AcDbLine
 62
253
  6
CONTINUOUS
 10
-1.5943453671
 20
11.348040881
 11
-1.5896082856
 21
11.6194694363
  0
LINE
  5
806
100
AcDbEntity
  8
CURVE
100
AcDbLine
 62
253
  6
CONTINUOUS
 10
-1.6085566124
 20
8.905183544
 11
-1.60381953
 21
9.176612439
  0
LINE
  5
807
100
AcDbEntity
  8
CURVE
100
AcDbLine
 62
253
  6
CONTINUOUS
 10
-1.60381953
 20
7.683755102
 11
-1.6085566124
 21
7.41232666
  0
LINE
  5
808
100
AcDbEntity
  8
CURVE
100
AcDbLine
 62
7
  6
CONTINUOUS
 10
-1.5574217434
 20
6.066965102
 11
-1.5827661418
 21
4.614545102
  0
LINE
  5
809
100
AcDbEntity
  8
CURVE
100
AcDbLine
 62
253
  6
CONTINUOUS
 10
-1.5943453671
 20
3.748040428
 11
-1.5896082856
 21
4.019469776
  0
LINE
  5
80A
100
AcDbEntity
  8
CURVE
100
AcDbLine
 62
7
  6
CONTINUOUS
 10
-1.5827661418
 20
4.329424102
 11
-1.5574217434
 21
5.781798102
  0
LINE
  5
80B
100
AcDbEntity
  8
CURVE
100
AcDbLine
 62
253
  6
CONTINUOUS
 10
-1.5896082856
 20
2.66232666
 11
-1.5943453671
 21
2.390898218
  0
LINE
  5
80C
100
AcDbEntity
  8
CURVE
100
AcDbLine
 62
7
  6
CONTINUOUS
 10
-1.5360728915
 20
25.0967110439
 11
-1.5350525974
 21
25.1585335379
  0
LINE
  5
80D
100
AcDbEntity
  8
CURVE
100
AcDbLine
 62
7
  6
CONTINUOUS
 10
-1.5368897059
 20
7.0072594425
 11
-1.5357499279
 21
7.0767044885
  0
LINE
  5
80E
100
AcDbEntity
  8
RACCORDO
100
AcDbLine
 62
7
  6
CONTINUOUS
 10
-1.7080361899
 20
7.1004962684
 11
-1.7065150496
 21
7.1919733494
  0
LINE
  5
80F
100
AcDbEntity
  8
CURVE
100
AcDbLine
 62
253
  6
CONTINUOUS
 10
-1.5407415476
 20
18.4255408584
 11
-1.5439827086
 21
18.2491123711
  0
LINE
  5
810
100
AcDbEntity
  8
ASSI
100
AcDbLine
 62
7
  6
CONTINUOUS
 10
-1.7078179372
 20
7.1147787948
 11
-1.7062478679
 21
7.2061906052
  0
LINE
  5
811
100
AcDbEntity
  8
CURVE
100
AcDbLine
 62
7
  6
CONTINUOUS
 10
-1.5385837902
 20
7.1963665376
 11
-1.5394465954
 21
7.1460775357
  0
LINE
  5
812
100
AcDbEntity
  8
RACCORDO
100
AcDbLine
 62
7
  6
CONTINUOUS
 10
-1.7073870359
 20
12.1418085538
 11
-1.7058600763
 21
12.2259120835
  0
LINE
  5
813
100
AcDbEntity
  8
ASSI
100
AcDbLine
 62
7
  6
CONTINUOUS
 10
-1.707371407
 20
12.1427603264
 11
-1.7057982716
 21
12.2289576682
  0
LINE
  5
814
100
AcDbEntity
  8
CURVE
100
AcDbLine
 62
253
  6
CONTINUOUS
 10
-1.5943453671
 20
8.9504219197
 11
-1.5896082856
 21
9.176612439
  0
LINE
  5
815
100
AcDbEntity
  8
RACCORDO
100
AcDbLine
 62
7
  6
CONTINUOUS
 10
-1.7058600763
 20
12.2259120835
 11
-1.7053355983
 21
12.2508931542
  0
LINE
  5
816
100
AcDbEntity
  8
RACCORDO
100
AcDbLine
 62
7
  6
CONTINUOUS
 10
-1.7065150496
 20
7.1919733494
 11
-1.7053355983
 21
7.2508931542
  0
LINE
  5
817
100
AcDbEntity
  8
ASSI
100
AcDbLine
 62
7
  6
CONTINUOUS
 10
-1.7057982716
 20
12.2289576682
 11
-1.7053362172
 21
12.2508923913
  0
LINE
  5
818
100
AcDbEntity
  8
ASSI
100
AcDbLine
 62
7
  6
CONTINUOUS
 10
-1.7062478679
 20
7.2061906052
 11
-1.7053362172
 21
7.2508923913
  0
LINE
  5
819
100
AcDbEntity
  8
ASSI
100
AcDbLine
 62
253
  6
CONTINUOUS
 10
-2.069512992
 20
-4.8205988039
 11
-2.0695895562
 21
-4.8243046443
  0
LINE
  5
81A
100
AcDbEntity
  8
CURVE
100
AcDbLine
 62
7
  6
CONTINUOUS
 10
-1.5381804983
 20
6.9466844009
 11
-1.5368897059
 21
7.0072594425
  0
LINE
  5
81B
100
AcDbEntity
  8
CURVE
100
AcDbLine
 62
7
  6
CONTINUOUS
 10
-1.5394465954
 20
7.1460775357
 11
-1.5404204693
 21
7.1025338368
  0
LINE
  5
81C
100
AcDbEntity
  8
CURVE
100
AcDbLine
 62
253
  6
CONTINUOUS
 10
-1.6000797295
 20
17.5313741498
 11
-1.6098032125
 21
17.1599454455
  0
LINE
  5
81D
100
AcDbEntity
  8
CURVE
100
AcDbLine
 62
253
  6
CONTINUOUS
 10
-1.5896082856
 20
7.683755102
 11
-1.5943453671
 21
7.5028025054
  0
LINE
  5
81E
100
AcDbEntity
  8
CURVE
100
AcDbLine
 62
7
  6
CONTINUOUS
 10
-1.5391121059
 20
6.9116989964
 11
-1.5381804983
 21
6.9466844009
  0
LINE
  5
81F
100
AcDbEntity
  8
ASSI
100
AcDbLine
 62
253
  6
CONTINUOUS
 10
-2.0694253366
 20
-4.8172811951
 11
-2.069512992
 21
-4.8205988039
  0
LINE
  5
820
100
AcDbEntity
  8
CURVE
100
AcDbLine
 62
7
  6
CONTINUOUS
 10
-1.5404204693
 20
7.1025338368
 11
-1.5411217483
 21
7.0775944831
  0
LINE
  5
821
100
AcDbEntity
  8
ASSI
100
AcDbLine
 62
253
  6
CONTINUOUS
 10
-2.2541216938
 20
-4.1388946288
 11
-2.2693948363
 21
-4.6440748123
  0
LINE
  5
822
100
AcDbEntity
  8
ASSI
100
AcDbLine
 62
253
  6
CONTINUOUS
 10
-2.0558367347
 20
-4.3678195061
 11
-2.0694253366
 21
-4.8172811951
  0
LINE
  5
823
100
AcDbEntity
  8
CURVE
100
AcDbLine
 62
7
  6
CONTINUOUS
 10
-1.5566038185
 20
7.9121606473
 11
-1.5827661345
 21
7.1254305874
  0
LINE
  5
824
100
AcDbEntity
  8
CURVE
100
AcDbLine
 62
7
  6
CONTINUOUS
 10
-1.5827661345
 20
6.8977078751
 11
-1.5599473589
 21
7.5839031702
  0
LINE
  5
825
100
AcDbEntity
  8
CURVE
100
AcDbLine
 62
253
  6
CONTINUOUS
 10
-1.5704106385
 20
19.1956598752
 11
-1.5930987669
 21
18.5456597977
  0
LINE
  5
826
100
AcDbEntity
  8
CURVE
100
AcDbLine
 62
253
  6
CONTINUOUS
 10
-1.6172412623
 20
6.46232666
 11
-1.6188202897
 21
6.4170882844
  0
LINE
  5
827
100
AcDbEntity
  8
CURVE
100
AcDbLine
 62
253
  6
CONTINUOUS
 10
-1.6180307759
 20
3.069469776
 11
-1.6132936939
 21
3.205183544
  0
LINE
  5
828
100
AcDbEntity
  8
CURVE
100
AcDbLine
 62
253
  6
CONTINUOUS
 10
-1.5943453671
 20
2.390898218
 11
-1.5990824485
 21
2.255183544
  0
LWPOLYLINE
  5
829
100
AcDbEntity
  8
CURVE
100
AcDbPolyline
 62
7
  6
CONTINUOUS
 90
21
 70
0
 10
-1.5411217483
 20
7.0775944831
 10
-1.5418578788
 20
7.0561666242
 10
-1.5422406891
 20
7.046750616
 10
-1.5426301163
 20
7.0382939631
 10
-1.5430253826
 20
7.0308097396
 10
-1.5434257101
 20
7.0243110198
 10
-1.543830321
 20
7.0188108778
 10
-1.5442384372
 20
7.0143223878
 10
-1.544649281
 20
7.010858624
 10
-1.5450620745
 20
7.0084326605
 10
-1.5454760397
 20
7.0070575717
 10
-1.5458903988
 20
7.0067464316
 10
-1.546304374
 20
7.0075123144
 10
-1.5467170441
 20
7.0093608634
 10
-1.547127909
 20
7.0122728998
 10
-1.5475363246
 20
7.0162226884
 10
-1.5479416466
 20
7.0211844943
 10
-1.5483432308
 20
7.0271325827
 10
-1.548740433
 20
7.0340412184
 10
-1.549132609
 20
7.0418846665
 10
-1.5495191146
 20
7.0506371921
  0
LINE
  5
82A
100
AcDbEntity
  8
CURVE
100
AcDbLine
 62
253
  6
CONTINUOUS
 10
-1.5407415476
 20
20.983755102
 11
-1.5537061923
 21
20.6308979434
  0
LWPOLYLINE
  5
82B
100
AcDbEntity
  8
RACCORDO
100
AcDbPolyline
 62
253
  6
CONTINUOUS
 90
9
 70
0
 10
-2.0017858906
 20
7.0859179622
 10
-2.0032387682
 20
7.0490982832
 10
-2.004667199
 20
7.0021872794
 10
-2.006050979
 20
6.9454558374
 10
-2.007389213
 20
6.8792350126
 10
-2.0086827961
 20
6.8038838883
 10
-2.0099142105
 20
6.7197621164
 10
-2.0110825674
 20
6.6273066915
 10
-2.0132179229
 20
6.4192382681
  0
LWPOLYLINE
  5
82C
100
AcDbEntity
  8
ASSI
100
AcDbPolyline
 62
253
  6
CONTINUOUS
 90
9
 70
0
 10
-2.0017858906
 20
7.0859179622
 10
-2.0032387682
 20
7.0490982832
 10
-2.004667199
 20
7.0021872794
 10
-2.006050979
 20
6.9454558374
 10
-2.007389213
 20
6.8792350126
 10
-2.0086827961
 20
6.8038838883
 10
-2.0099142105
 20
6.7197621164
 10
-2.0110825674
 20
6.6273066915
 10
-2.0132179229
 20
6.4192382681
  0
LINE
  5
82D
100
AcDbEntity
  8
ASSI
100
AcDbLine
 62
7
  6
CONTINUOUS
 10
-1.5296508131
 20
0.5611053712
 11
-1.5558367347
 21
-0.016244898
  0
LWPOLYLINE
  5
82E
100
AcDbEntity
  8
ASSI
100
AcDbPolyline
 62
7
  6
CONTINUOUS
 90
16
 70
0
 10
-1.5558367347
 20
-2.9162446628
 10
-1.5585330175
 20
-2.9681546888
 10
-1.566640174
 20
-3.0197061047
 10
-1.5801366971
 20
-3.0703292506
 10
-1.5990196065
 20
-3.1196299521
 10
-1.6231018183
 20
-3.1668458539
 10
-1.6518288015
 20
-3.2109465004
 10
-1.6844891384
 20
-3.2511786361
 10
-1.7208663722
 20
-3.2875644496
 10
-1.7610959656
 20
-3.3202381433
 10
-1.8052051091
 20
-3.3489815124
 10
-1.8524385661
 20
-3.3730779591
 10
-1.9017541653
 20
-3.3919686055
 10
-1.9523838291
 20
-3.4054654166
 10
-2.0039352724
 20
-3.4135648877
 10
-2.0558367344
 20
-3.4162446345
  0
LINE
  5
82F
100
AcDbEntity
  8
CURVE
100
AcDbLine
 62
253
  6
CONTINUOUS
 10
-1.6000797295
 20
19.1099456005
 11
-1.6227678578
 21
18.7385170512
  0
LINE
  5
830
100
AcDbEntity
  8
CURVE
100
AcDbLine
 62
253
  6
CONTINUOUS
 10
-1.5407415476
 20
19.5723264675
 11
-1.5634296759
 21
19.2194693457
  0
LWPOLYLINE
  5
831
100
AcDbEntity
  8
ASSI
100
AcDbPolyline
 62
253
  6
CONTINUOUS
 90
13
 70
0
 10
-2.0690041916
 20
-5.303107902
 10
-2.0707222449
 20
-5.3292041335
 10
-2.0758311225
 20
-5.354854024
 10
-2.084243444
 20
-5.379618867
 10
-2.0958153281
 20
-5.403075093
 10
-2.1103488531
 20
-5.424821515
 10
-2.1275954429
 20
-5.4444861898
 10
-2.1472601176
 20
-5.4617327795
 10
-2.1690065396
 20
-5.4762663046
 10
-2.1924627657
 20
-5.4878381886
 10
-2.2172276086
 20
-5.4962505102
 10
-2.2428774992
 20
-5.5013593878
 10
-2.2689737306
 20
-5.503077441
  0
LWPOLYLINE
  5
832
100
AcDbEntity
  8
RACCORDO
100
AcDbPolyline
 62
253
  6
CONTINUOUS
 90
4
 70
0
 10
-1.9973007802
 20
12.133755102
 10
-1.9988202639
 20
12.1284046559
 10
-2.0003153007
 20
12.1124150467
 10
-2.0017858906
 20
12.0859179622
  0
LWPOLYLINE
  5
833
100
AcDbEntity
  8
ASSI
100
AcDbPolyline
 62
253
  6
CONTINUOUS
 90
4
 70
0
 10
-1.9973007802
 20
12.133755102
 10
-1.9988202639
 20
12.1284046559
 10
-2.0003153007
 20
12.1124150467
 10
-2.0017858906
 20
12.0859179622
  0
LINE
  5
834
100
AcDbEntity
  8
0
100
AcDbLine
 62
7
  6
CONTINUOUS
 10
-16.1558367347
 20
-0.716244898
 11
-16.1191810983
 21
-0.6795892616
  0
LINE
  5
835
100
AcDbEntity
  8
DRAFT
100
AcDbLine
 62
7
  6
CONTINUOUS
 10
-16.1558367347
 20
-0.716244898
 11
-16.1191810983
 21
-0.6795892616
  0
LINE
  5
836
100
AcDbEntity
  8
0
100
AcDbLine
 62
7
  6
CONTINUOUS
 10
-16.1191810983
 20
-0.8795892616
 11
-16.1558367347
 21
-0.916244898
  0
LINE
  5
837
100
AcDbEntity
  8
DRAFT
100
AcDbLine
 62
7
  6
CONTINUOUS
 10
-16.1191810983
 20
-0.8795892616
 11
-16.1558367347
 21
-0.916244898
  0
LINE
  5
838
100
AcDbEntity
  8
RACCORDO
100
AcDbLine
 62
7
  6
CONTINUOUS
 10
-17.1058367347
 20
-3.416244898
 11
-17.0084179702
 21
-3.3188261335
  0
LINE
  5
839
100
AcDbEntity
  8
0
100
AcDbLine
 62
253
  6
CONTINUOUS
 10
-23.8058367347
 20
1.3120560533
 11
-23.6836512802
 21
1.3626669257
  0
LINE
  5
83A
100
AcDbEntity
  8
RACCORDO
100
AcDbLine
 62
253
  6
CONTINUOUS
 10
-23.8058367347
 20
1.3120560533
 11
-23.6836512802
 21
1.3626669257
  0
LINE
  5
83B
100
AcDbEntity
  8
CURVE
100
AcDbLine
 62
253
  6
CONTINUOUS
 10
-1.6227678578
 20
30.4742312335
 11
-1.6000797295
 21
30.4742312335
  0
LINE
  5
83C
100
AcDbEntity
  8
CURVE
100
AcDbLine
 62
253
  6
CONTINUOUS
 10
-1.6033208905
 20
31.2480409049
 11
-1.6195266965
 21
31.2480409049
  0
LINE
  5
83D
100
AcDbEntity
  8
0
100
AcDbLine
 62
253
  6
CONTINUOUS
 10
-23.6836512802
 20
36.6048432784
 11
-23.8058367347
 21
36.6554541508
  0
LINE
  5
83E
100
AcDbEntity
  8
RACCORDO
100
AcDbLine
 62
253
  6
CONTINUOUS
 10
-23.6836512802
 20
36.6048432784
 11
-23.8058367347
 21
36.6554541508
  0
LWPOLYLINE
  5
83F
100
AcDbEntity
  8
0
100
AcDbPolyline
 62
253
  6
CONTINUOUS
 90
4
 70
0
 10
-14.5486730176
 20
36.3282038082
 10
-14.5856500676
 20
36.3612770872
 10
-14.6156443558
 20
36.3995910234
 10
-14.6377445209
 20
36.4419814672
  0
LWPOLYLINE
  5
840
100
AcDbEntity
  8
RACCORDO
100
AcDbPolyline
 62
253
  6
CONTINUOUS
 90
4
 70
0
 10
-14.5486730176
 20
36.3282038082
 10
-14.5856500676
 20
36.3612770872
 10
-14.6156443558
 20
36.3995910234
 10
-14.6377445209
 20
36.4419814672
  0
LWPOLYLINE
  5
841
100
AcDbEntity
  8
ASSI
100
AcDbPolyline
 62
7
  6
CONTINUOUS
 90
10
 70
0
 10
-21.2024597645
 20
42.6115863184
 10
-21.2217726313
 20
42.6298790009
 10
-21.2424954183
 20
42.6508206608
 10
-21.2646281257
 20
42.6737546796
 10
-21.2884695155
 20
42.6978928537
 10
-21.3137208256
 20
42.7228205632
 10
-21.3394857694
 20
42.7486123233
 10
-21.3654655844
 20
42.7750837345
 10
-21.3919590331
 20
42.8016889648
 10
-21.4189661154
 20
42.8280926693
  0
LINE
  5
842
100
AcDbEntity
  8
0
100
AcDbLine
 62
7
  6
CONTINUOUS
 10
-16.1558367347
 20
38.683755102
 11
-16.1191810983
 21
38.6470994657
  0
LINE
  5
843
100
AcDbEntity
  8
DRAFT
100
AcDbLine
 62
7
  6
CONTINUOUS
 10
-16.1558367347
 20
38.683755102
 11
-16.1191810983
 21
38.6470994657
  0
LINE
  5
844
100
AcDbEntity
  8
0
100
AcDbLine
 62
7
  6
CONTINUOUS
 10
-16.1558367347
 20
38.883755102
 11
-16.1191810983
 21
38.8470994657
  0
LINE
  5
845
100
AcDbEntity
  8
DRAFT
100
AcDbLine
 62
7
  6
CONTINUOUS
 10
-16.1558367347
 20
38.883755102
 11
-16.1191810983
 21
38.8470994657
  0
LINE
  5
846
100
AcDbEntity
  8
RACCORDO
100
AcDbLine
 62
7
  6
CONTINUOUS
 10
-17.1058367347
 20
41.383755102
 11
-17.0084179702
 21
41.2863363375
  0
LWPOLYLINE
  5
847
100
AcDbEntity
  8
RACCORDO
100
AcDbPolyline
 62
253
  6
CONTINUOUS
 90
4
 70
0
 10
-1.9973007802
 20
7.133755102
 10
-1.9988202639
 20
7.1284046559
 10
-2.0003153007
 20
7.1124150467
 10
-2.0017858906
 20
7.0859179622
  0
LWPOLYLINE
  5
848
100
AcDbEntity
  8
ASSI
100
AcDbPolyline
 62
253
  6
CONTINUOUS
 90
4
 70
0
 10
-1.9973007802
 20
7.133755102
 10
-1.9988202639
 20
7.1284046559
 10
-2.0003153007
 20
7.1124150467
 10
-2.0017858906
 20
7.0859179622
  0
LINE
  5
849
100
AcDbEntity
  8
ASSI
100
AcDbLine
 62
7
  6
CONTINUOUS
 10
-5.354613392
 20
-3.2413896158
 11
-5.4007233246
 21
-3.398789833
  0
LINE
  5
84A
100
AcDbEntity
  8
RACCORDO
100
AcDbLine
 62
253
  6
CONTINUOUS
 10
-17.0084160384
 20
-4.6688622779
 11
-17.1058367347
 21
-4.7662829742
  0
LINE
  5
84B
100
AcDbEntity
  8
RACCORDO
100
AcDbLine
 62
253
  6
CONTINUOUS
 10
-16.7584560464
 20
-4.9188261335
 11
-16.8558748109
 21
-5.016244898
  0
LWPOLYLINE
  5
84C
100
AcDbEntity
  8
0
100
AcDbPolyline
 62
253
  6
CONTINUOUS
 90
4
 70
0
 10
-14.5491589254
 20
1.6389409311
 10
-14.5061133914
 20
1.6659910621
 10
-14.4585886713
 20
1.6858535582
 10
-14.4079792
 20
1.697999176
  0
LWPOLYLINE
  5
84D
100
AcDbEntity
  8
RACCORDO
100
AcDbPolyline
 62
253
  6
CONTINUOUS
 90
4
 70
0
 10
-14.5491589254
 20
1.6389409311
 10
-14.5061133914
 20
1.6659910621
 10
-14.4585886713
 20
1.6858535582
 10
-14.4079792
 20
1.697999176
  0
LINE
  5
84E
100
AcDbEntity
  8
0
100
AcDbLine
 62
253
  6
CONTINUOUS
 10
-23.2201395152
 20
-0.1019421175
 11
-23.0979540607
 21
-0.0513312451
  0
LINE
  5
84F
100
AcDbEntity
  8
RACCORDO
100
AcDbLine
 62
253
  6
CONTINUOUS
 10
-23.2201395152
 20
-0.1019421175
 11
-23.0979540607
 21
-0.0513312451
  0
LINE
  5
850
100
AcDbEntity
  8
CURVE
100
AcDbLine
 62
253
  6
CONTINUOUS
 10
-1.6227678578
 20
31.8980409049
 11
-1.6000797295
 21
31.8980409049
  0
LINE
  5
851
100
AcDbEntity
  8
CURVE
100
AcDbLine
 62
7
  6
CONTINUOUS
 10
-1.5824993526
 20
32.769419102
 11
-1.5318981012
 21
32.769419102
  0
LINE
  5
852
100
AcDbEntity
  8
CURVE
100
AcDbLine
 62
253
  6
CONTINUOUS
 10
-1.6146649546
 20
33.2908980035
 11
-1.6195266965
 21
33.2908980035
  0
LINE
  5
853
100
AcDbEntity
  8
CURVE
100
AcDbLine
 62
7
  6
CONTINUOUS
 10
-1.5318981012
 20
33.374690102
 11
-1.5824993526
 21
33.374690102
  0
LINE
  5
854
100
AcDbEntity
  8
CURVE
100
AcDbLine
 62
253
  6
CONTINUOUS
 10
-1.6033208905
 20
33.383755102
 11
-1.6081826326
 21
33.383755102
  0
LINE
  5
855
100
AcDbEntity
  8
0
100
AcDbLine
 62
253
  6
CONTINUOUS
 10
-23.0979540607
 20
38.0188414492
 11
-23.2201395152
 21
38.0694523216
  0
LINE
  5
856
100
AcDbEntity
  8
RACCORDO
100
AcDbLine
 62
253
  6
CONTINUOUS
 10
-23.0979540607
 20
38.0188414492
 11
-23.2201395152
 21
38.0694523216
  0
LINE
  5
857
100
AcDbEntity
  8
RACCORDO
100
AcDbLine
 62
253
  6
CONTINUOUS
 10
-17.1058367347
 20
42.7337931783
 11
-17.0084160384
 21
42.636372482
  0
LINE
  5
858
100
AcDbEntity
  8
RACCORDO
100
AcDbLine
 62
253
  6
CONTINUOUS
 10
-16.8558748109
 20
42.983755102
 11
-16.7584560464
 21
42.8863363375
  0
LINE
  5
859
100
AcDbEntity
  8
ASSI
100
AcDbLine
 62
7
  6
CONTINUOUS
 10
-5.354613392
 20
41.2088998199
 11
-5.4007233246
 21
41.3663000371
  0
LINE
  5
85A
100
AcDbEntity
  8
CURVE
100
AcDbLine
 62
7
  6
CONTINUOUS
 10
-1.5494596675
 20
31.733917102
 11
-1.5824993526
 21
31.864534102
  0
LINE
  5
85B
100
AcDbEntity
  8
CURVE
100
AcDbLine
 62
7
  6
CONTINUOUS
 10
-1.5824993526
 20
32.443582102
 11
-1.5319011374
 21
32.181760102
  0
LINE
  5
85C
100
AcDbEntity
  8
CURVE
100
AcDbLine
 62
253
  6
CONTINUOUS
 10
-1.6227678578
 20
33.9408980035
 11
-1.6000797295
 21
33.9408980035
  0
LINE
  5
85D
100
AcDbEntity
  8
CURVE
100
AcDbLine
 62
253
  6
CONTINUOUS
 10
-1.6098032125
 20
34.3123265528
 11
-1.6227678578
 21
34.3123265528
  0
LINE
  5
85E
100
AcDbEntity
  8
CURVE
100
AcDbLine
 62
253
  6
CONTINUOUS
 10
-1.6195266965
 20
34.9623265528
 11
-1.6033208905
 21
34.9623265528
  0
LINE
  5
85F
100
AcDbEntity
  8
CURVE
100
AcDbLine
 62
253
  6
CONTINUOUS
 10
-1.6033208905
 20
35.333755102
 11
-1.6098032125
 21
35.333755102
  0
LWPOLYLINE
  5
860
100
AcDbEntity
  8
0
100
AcDbPolyline
 62
253
  6
CONTINUOUS
 90
3
 70
0
 10
-14.4584427777
 20
36.2816091127
 10
-14.5058367347
 20
36.3013761013
 10
-14.5486730176
 20
36.3282038082
  0
LWPOLYLINE
  5
861
100
AcDbEntity
  8
RACCORDO
100
AcDbPolyline
 62
253
  6
CONTINUOUS
 90
3
 70
0
 10
-14.4584427777
 20
36.2816091127
 10
-14.5058367347
 20
36.3013761013
 10
-14.5486730176
 20
36.3282038082
  0
LINE
  5
862
100
AcDbEntity
  8
RACCORDO
100
AcDbLine
 62
253
  6
CONTINUOUS
 10
-11.8383816698
 20
-4.7488279092
 11
-11.8558367347
 21
-4.7662829742
  0
LINE
  5
863
100
AcDbEntity
  8
RACCORDO
100
AcDbLine
 62
253
  6
CONTINUOUS
 10
-11.588419746
 20
-4.998789833
 11
-11.6058748109
 21
-5.016244898
  0
LWPOLYLINE
  5
864
100
AcDbEntity
  8
0
100
AcDbPolyline
 62
253
  6
CONTINUOUS
 90
3
 70
0
 10
-10.8530847981
 20
36.2816566458
 10
-10.9036942694
 20
36.269511028
 10
-10.9558367347
 20
36.2654269447
  0
LWPOLYLINE
  5
865
100
AcDbEntity
  8
RACCORDO
100
AcDbPolyline
 62
253
  6
CONTINUOUS
 90
3
 70
0
 10
-10.8530847981
 20
36.2816566458
 10
-10.9036942694
 20
36.269511028
 10
-10.9558367347
 20
36.2654269447
  0
LINE
  5
866
100
AcDbEntity
  8
0
100
AcDbLine
 62
7
  6
CONTINUOUS
 10
-10.1558367347
 20
35.583755102
 11
-15.1558367347
 21
35.583755102
  0
LINE
  5
867
100
AcDbEntity
  8
ASSI
100
AcDbLine
 62
7
  6
CONTINUOUS
 10
-10.1558367347
 20
35.583755102
 11
-15.1558367347
 21
35.583755102
  0
LINE
  5
868
100
AcDbEntity
  8
CURVE
100
AcDbLine
 62
253
  6
CONTINUOUS
 10
-1.6227678578
 20
35.983755102
 11
-1.6000797295
 21
35.983755102
  0
LINE
  5
869
100
AcDbEntity
  8
0
100
AcDbLine
 62
7
  6
CONTINUOUS
 10
-15.1558367347
 20
36.033755102
 11
-10.1558367347
 21
36.033755102
  0
LINE
  5
86A
100
AcDbEntity
  8
0
100
AcDbLine
 62
7
  6
CONTINUOUS
 10
-10.9558367347
 20
36.233755102
 11
-14.3558367347
 21
36.233755102
  0
LINE
  5
86B
100
AcDbEntity
  8
RACCORDO
100
AcDbLine
 62
7
  6
CONTINUOUS
 10
-10.9558367347
 20
36.233755102
 11
-14.3558367347
 21
36.233755102
  0
LINE
  5
86C
100
AcDbEntity
  8
0
100
AcDbLine
 62
253
  6
CONTINUOUS
 10
-10.9558367347
 20
36.2654269447
 11
-14.3558367347
 21
36.2654269447
  0
LINE
  5
86D
100
AcDbEntity
  8
RACCORDO
100
AcDbLine
 62
253
  6
CONTINUOUS
 10
-10.9558367347
 20
36.2654269447
 11
-14.3558367347
 21
36.2654269447
  0
LINE
  5
86E
100
AcDbEntity
  8
RACCORDO
100
AcDbLine
 62
7
  6
CONTINUOUS
 10
-14.3384146219
 20
36.283755102
 11
-10.9732588475
 21
36.283755102
  0
LINE
  5
86F
100
AcDbEntity
  8
ASSI
100
AcDbLine
 62
7
  6
CONTINUOUS
 10
-14.3384146219
 20
36.283755102
 11
-10.9732588475
 21
36.283755102
  0
LINE
  5
870
100
AcDbEntity
  8
ASSI
100
AcDbLine
 62
7
  6
CONTINUOUS
 10
-10.1558367347
 20
36.483755102
 11
-15.1558367347
 21
36.483755102
  0
LINE
  5
871
100
AcDbEntity
  8
0
100
AcDbLine
 62
253
  6
CONTINUOUS
 10
-14.3558367347
 20
36.2654269447
 11
-14.407931188
 21
36.2695034524
  0
LINE
  5
872
100
AcDbEntity
  8
RACCORDO
100
AcDbLine
 62
253
  6
CONTINUOUS
 10
-14.3558367347
 20
36.2654269447
 11
-14.407931188
 21
36.2695034524
  0
LINE
  5
873
100
AcDbEntity
  8
0
100
AcDbLine
 62
253
  6
CONTINUOUS
 10
-14.407931188
 20
36.2695034524
 11
-14.4584427777
 21
36.2816091127
  0
LINE
  5
874
100
AcDbEntity
  8
RACCORDO
100
AcDbLine
 62
253
  6
CONTINUOUS
 10
-14.407931188
 20
36.2695034524
 11
-14.4584427777
 21
36.2816091127
  0
LINE
  5
875
100
AcDbEntity
  8
RACCORDO
100
AcDbLine
 62
253
  6
CONTINUOUS
 10
-11.8558367347
 20
42.7337931783
 11
-11.8383816698
 21
42.7163381133
  0
LINE
  5
876
100
AcDbEntity
  8
RACCORDO
100
AcDbLine
 62
253
  6
CONTINUOUS
 10
-11.6058748109
 20
42.983755102
 11
-11.588419746
 21
42.9663000371
  0
LWPOLYLINE
  5
877
100
AcDbEntity
  8
ASSI
100
AcDbPolyline
 62
253
  6
CONTINUOUS
 90
10
 70
0
 10
-5.4426692778
 20
43.2706181061
 10
-5.442626444
 20
43.2705310235
 10
-5.4425828801
 20
43.2702989232
 10
-5.4425385862
 20
43.2699218053
 10
-5.4424932873
 20
43.2694050725
 10
-5.4424472584
 20
43.2687433221
 10
-5.4424013241
 20
43.2679203452
 10
-5.4423554697
 20
43.2669304834
 10
-5.4423097099
 20
43.2657793952
 10
-5.4422649139
 20
43.2644678471
  0
LINE
  5
878
100
AcDbEntity
  8
DRAFT
100
AcDbLine
 62
7
  6
CONTINUOUS
 10
-3.2408347811
 20
0.7469025222
 11
-3.2154916367
 21
0.7722619689
  0
LINE
  5
879
100
AcDbEntity
  8
DRAFT
100
AcDbLine
 62
7
  6
CONTINUOUS
 10
-3.2214539071
 20
0.7477774258
 11
-3.1961564206
 21
0.7730911852
  0
LINE
  5
87A
100
AcDbEntity
  8
0
100
AcDbLine
 62
7
  6
CONTINUOUS
 10
-7.530387384
 20
-2.0907955472
 11
-7.3558367347
 21
-1.916244898
  0
LINE
  5
87B
100
AcDbEntity
  8
0
100
AcDbLine
 62
7
  6
CONTINUOUS
 10
-5.4431054126
 20
-0.8035135759
 11
-5.3558367347
 21
-0.716244898
  0
LINE
  5
87C
100
AcDbEntity
  8
0
100
AcDbLine
 62
7
  6
CONTINUOUS
 10
-5.2558367347
 20
-0.716244898
 11
-5.2191810983
 21
-0.6795892616
  0
LINE
  5
87D
100
AcDbEntity
  8
DRAFT
100
AcDbLine
 62
7
  6
CONTINUOUS
 10
-5.2558367347
 20
-0.716244898
 11
-5.2191810983
 21
-0.6795892616
  0
LINE
  5
87E
100
AcDbEntity
  8
RACCORDO
100
AcDbLine
 62
7
  6
CONTINUOUS
 10
-1.9356284993
 20
1.6854508552
 11
-2.5575324879
 21
1.0635468667
  0
LINE
  5
87F
100
AcDbEntity
  8
ASSI
100
AcDbLine
 62
7
  6
CONTINUOUS
 10
-1.9356284993
 20
1.6854508552
 11
-2.5575324879
 21
1.0635468667
  0
LINE
  5
880
100
AcDbEntity
  8
ASSI
100
AcDbLine
 62
7
  6
CONTINUOUS
 10
-5.3558367347
 20
-1.916244898
 11
-5.4431054126
 21
-2.0035135759
  0
LINE
  5
881
100
AcDbEntity
  8
0
100
AcDbLine
 62
7
  6
CONTINUOUS
 10
-5.2191810983
 20
0.7175856344
 11
-5.2017260334
 21
0.7263125022
  0
LINE
  5
882
100
AcDbEntity
  8
DRAFT
100
AcDbLine
 62
7
  6
CONTINUOUS
 10
-5.2191810983
 20
0.7175856344
 11
-5.2017260334
 21
0.7263125022
  0
LWPOLYLINE
  5
883
100
AcDbEntity
  8
0
100
AcDbPolyline
 62
7
  6
CONTINUOUS
 90
12
 70
0
 10
-11.0314402733
 20
38.8683839185
 10
-10.9135684451
 20
38.8687643926
 10
-10.8006970154
 20
38.8693832039
 10
-10.6913412329
 20
38.8702551685
 10
-10.5869858488
 20
38.8713654703
 10
-10.4920851164
 20
38.8726696611
 10
-10.4070170321
 20
38.8741796831
 10
-10.3314035996
 20
38.8758835941
 10
-10.2685650836
 20
38.877701119
 10
-10.2196082389
 20
38.8796054995
 10
-10.1834263108
 20
38.8816234938
 10
-10.1600192992
 20
38.883755102
  0
LINE
  5
884
100
AcDbEntity
  8
ASSI
100
AcDbLine
 62
7
  6
CONTINUOUS
 10
-10.1558367347
 20
37.183755102
 11
-15.1558367347
 21
37.183755102
  0
LINE
  5
885
100
AcDbEntity
  8
RACCORDO
100
AcDbLine
 62
7
  6
CONTINUOUS
 10
-3.2646123446
 20
37.1968454037
 11
-8.642746433
 21
37.1968454037
  0
LINE
  5
886
100
AcDbEntity
  8
ASSI
100
AcDbLine
 62
7
  6
CONTINUOUS
 10
-3.2646123446
 20
37.1968454037
 11
-8.642746433
 21
37.1968454037
  0
LINE
  5
887
100
AcDbEntity
  8
0
100
AcDbLine
 62
7
  6
CONTINUOUS
 10
-15.1558367347
 20
37.283755102
 11
-10.1558367347
 21
37.283755102
  0
LINE
  5
888
100
AcDbEntity
  8
ASSI
100
AcDbLine
 62
7
  6
CONTINUOUS
 10
-15.1558367347
 20
37.283755102
 11
-10.1558367347
 21
37.283755102
  0
LINE
  5
889
100
AcDbEntity
  8
ASSI
100
AcDbLine
 62
7
  6
CONTINUOUS
 10
-1.5732917996
 20
37.4064048329
 11
-1.5296508131
 21
37.4064048329
  0
LINE
  5
88A
100
AcDbEntity
  8
ASSI
100
AcDbLine
 62
7
  6
CONTINUOUS
 10
-23.7383816698
 20
37.4064048329
 11
-23.7820226563
 21
37.4064048329
  0
LINE
  5
88B
100
AcDbEntity
  8
ASSI
100
AcDbLine
 62
7
  6
CONTINUOUS
 10
-3.4558367347
 20
37.583755102
 11
-8.642746433
 21
37.583755102
  0
LINE
  5
88C
100
AcDbEntity
  8
RACCORDO
100
AcDbLine
 62
7
  6
CONTINUOUS
 10
-8.9427350099
 20
38.5968454037
 11
-22.0470611248
 21
38.5968454037
  0
LINE
  5
88D
100
AcDbEntity
  8
ASSI
100
AcDbLine
 62
7
  6
CONTINUOUS
 10
-8.9427350099
 20
38.5968454037
 11
-22.0470611248
 21
38.5968454037
  0
LINE
  5
88E
100
AcDbEntity
  8
0
100
AcDbLine
 62
7
  6
CONTINUOUS
 10
-5.2191810983
 20
38.6470994657
 11
-9.192492371
 21
38.6470994657
  0
LINE
  5
88F
100
AcDbEntity
  8
DRAFT
100
AcDbLine
 62
7
  6
CONTINUOUS
 10
-5.2191810983
 20
38.6470994657
 11
-9.192492371
 21
38.6470994657
  0
LINE
  5
890
100
AcDbEntity
  8
0
100
AcDbLine
 62
7
  6
CONTINUOUS
 10
-16.1191810983
 20
38.6470994657
 11
-20.092492371
 21
38.6470994657
  0
LINE
  5
891
100
AcDbEntity
  8
DRAFT
100
AcDbLine
 62
7
  6
CONTINUOUS
 10
-16.1191810983
 20
38.6470994657
 11
-20.092492371
 21
38.6470994657
  0
LINE
  5
892
100
AcDbEntity
  8
0
100
AcDbLine
 62
7
  6
CONTINUOUS
 10
-5.2558367347
 20
38.683755102
 11
-9.1558367347
 21
38.683755102
  0
LINE
  5
893
100
AcDbEntity
  8
DRAFT
100
AcDbLine
 62
7
  6
CONTINUOUS
 10
-5.2558367347
 20
38.683755102
 11
-9.1558367347
 21
38.683755102
  0
LINE
  5
894
100
AcDbEntity
  8
0
100
AcDbLine
 62
7
  6
CONTINUOUS
 10
-16.1558367347
 20
38.683755102
 11
-20.0558367347
 21
38.683755102
  0
LINE
  5
895
100
AcDbEntity
  8
DRAFT
100
AcDbLine
 62
7
  6
CONTINUOUS
 10
-16.1558367347
 20
38.683755102
 11
-20.0558367347
 21
38.683755102
  0
LINE
  5
896
100
AcDbEntity
  8
ASSI
100
AcDbLine
 62
7
  6
CONTINUOUS
 10
-19.8685680568
 20
38.7710237799
 11
-19.2431054126
 21
38.7710237799
  0
LINE
  5
897
100
AcDbEntity
  8
ASSI
100
AcDbLine
 62
7
  6
CONTINUOUS
 10
-6.0685680568
 20
38.7710237799
 11
-5.4431054126
 21
38.7710237799
  0
LINE
  5
898
100
AcDbEntity
  8
0
100
AcDbLine
 62
7
  6
CONTINUOUS
 10
-16.1191810983
 20
38.8470994657
 11
-9.192492371
 21
38.8470994657
  0
LINE
  5
899
100
AcDbEntity
  8
DRAFT
100
AcDbLine
 62
7
  6
CONTINUOUS
 10
-16.1191810983
 20
38.8470994657
 11
-9.192492371
 21
38.8470994657
  0
LINE
  5
89A
100
AcDbEntity
  8
0
100
AcDbLine
 62
7
  6
CONTINUOUS
 10
-14.1573609696
 20
38.8682417817
 11
-11.0314402733
 21
38.8683839185
  0
LINE
  5
89B
100
AcDbEntity
  8
0
100
AcDbLine
 62
7
  6
CONTINUOUS
 10
-16.1558367347
 20
38.883755102
 11
-15.1503150149
 21
38.883755102
  0
LINE
  5
89C
100
AcDbEntity
  8
0
100
AcDbLine
 62
7
  6
CONTINUOUS
 10
-10.1613584545
 20
38.883755102
 11
-9.1558367347
 21
38.883755102
  0
LWPOLYLINE
  5
89D
100
AcDbEntity
  8
0
100
AcDbPolyline
 62
7
  6
CONTINUOUS
 90
13
 70
0
 10
-14.1573609696
 20
38.8682417817
 10
-14.2802331961
 20
38.8683839185
 10
-14.3981050242
 20
38.8687643926
 10
-14.510976454
 20
38.8693832039
 10
-14.6203322365
 20
38.8702551685
 10
-14.7246876206
 20
38.8713654703
 10
-14.819588353
 20
38.8726696611
 10
-14.9046564373
 20
38.8741796831
 10
-14.9802698698
 20
38.8758835941
 10
-15.0431083858
 20
38.877701119
 10
-15.0920652305
 20
38.8796054995
 10
-15.1282471586
 20
38.8816234938
 10
-15.1516541702
 20
38.883755102
  0
LINE
  5
89E
100
AcDbEntity
  8
0
100
AcDbLine
 62
7
  6
CONTINUOUS
 10
-7.530387384
 20
40.0583057513
 11
-7.3558367347
 21
39.883755102
  0
LINE
  5
89F
100
AcDbEntity
  8
0
100
AcDbLine
 62
7
  6
CONTINUOUS
 10
-5.4431054126
 20
38.7710237799
 11
-5.3558367347
 21
38.683755102
  0
LINE
  5
8A0
100
AcDbEntity
  8
0
100
AcDbLine
 62
7
  6
CONTINUOUS
 10
-5.2558367347
 20
38.683755102
 11
-5.2191810983
 21
38.6470994657
  0
LINE
  5
8A1
100
AcDbEntity
  8
DRAFT
100
AcDbLine
 62
7
  6
CONTINUOUS
 10
-5.2558367347
 20
38.683755102
 11
-5.2191810983
 21
38.6470994657
  0
LINE
  5
8A2
100
AcDbEntity
  8
RACCORDO
100
AcDbLine
 62
7
  6
CONTINUOUS
 10
-1.9356284993
 20
36.2820593489
 11
-2.5575324879
 21
36.9039633374
  0
LINE
  5
8A3
100
AcDbEntity
  8
ASSI
100
AcDbLine
 62
7
  6
CONTINUOUS
 10
-1.9356284993
 20
36.2820593489
 11
-2.5575324879
 21
36.9039633374
  0
LINE
  5
8A4
100
AcDbEntity
  8
ASSI
100
AcDbLine
 62
7
  6
CONTINUOUS
 10
-5.3558367347
 20
39.883755102
 11
-5.4431054126
 21
39.9710237799
  0
LINE
  5
8A5
100
AcDbEntity
  8
0
100
AcDbLine
 62
7
  6
CONTINUOUS
 10
-4.0286330616
 20
-1.866244898
 11
-2.2137194087
 21
-0.0513312451
  0
LINE
  5
8A6
100
AcDbEntity
  8
RACCORDO
100
AcDbLine
 62
7
  6
CONTINUOUS
 10
-4.0286330616
 20
-1.866244898
 11
-2.2137194087
 21
-0.0513312451
  0
LINE
  5
8A7
100
AcDbEntity
  8
ASSI
100
AcDbLine
 62
7
  6
CONTINUOUS
 10
-4.4232917996
 20
-2.4213583081
 11
-5.4007233246
 21
-3.398789833
  0
LINE
  5
8A8
100
AcDbEntity
  8
0
100
AcDbLine
 62
7
  6
CONTINUOUS
 10
-3.8558367347
 20
-1.866244898
 11
-2.0915339542
 21
-0.1019421175
  0
LINE
  5
8A9
100
AcDbEntity
  8
RACCORDO
100
AcDbLine
 62
7
  6
CONTINUOUS
 10
-3.8558367347
 20
-1.866244898
 11
-2.0915339542
 21
-0.1019421175
  0
LINE
  5
8AA
100
AcDbEntity
  8
0
100
AcDbLine
 62
7
  6
CONTINUOUS
 10
-7.3558367347
 20
-1.016244898
 11
-7.530387384
 21
-1.1035135759
  0
LINE
  5
8AB
100
AcDbEntity
  8
DRAFT
100
AcDbLine
 62
7
  6
CONTINUOUS
 10
-5.2558367347
 20
38.983755102
 11
-5.3558367347
 21
38.983755102
  0
LINE
  5
8AC
100
AcDbEntity
  8
0
100
AcDbLine
 62
7
  6
CONTINUOUS
 10
-7.3558367347
 20
38.983755102
 11
-10.1564845536
 21
38.983755102
  0
LINE
  5
8AD
100
AcDbEntity
  8
0
100
AcDbLine
 62
7
  6
CONTINUOUS
 10
-15.1551889158
 20
38.983755102
 11
-17.9558367347
 21
38.983755102
  0
LINE
  5
8AE
100
AcDbEntity
  8
DRAFT
100
AcDbLine
 62
7
  6
CONTINUOUS
 10
-19.9558367347
 20
38.983755102
 11
-20.0558367347
 21
38.983755102
  0
LINE
  5
8AF
100
AcDbEntity
  8
RACCORDO
100
AcDbLine
 62
7
  6
CONTINUOUS
 10
-10.1558367347
 20
39.0369889956
 11
-10.2145256115
 21
39.0369889956
  0
LINE
  5
8B0
100
AcDbEntity
  8
RACCORDO
100
AcDbLine
 62
7
  6
CONTINUOUS
 10
-15.0971478578
 20
39.0369889956
 11
-15.1558367347
 21
39.0369889956
  0
LINE
  5
8B1
100
AcDbEntity
  8
ASSI
100
AcDbLine
 62
7
  6
CONTINUOUS
 10
-7.530387384
 20
39.0710237799
 11
-17.7812860854
 21
39.0710237799
  0
LINE
  5
8B2
100
AcDbEntity
  8
ASSI
100
AcDbLine
 62
7
  6
CONTINUOUS
 10
-9.6058367347
 20
39.783755102
 11
-15.7058367347
 21
39.783755102
  0
LINE
  5
8B3
100
AcDbEntity
  8
0
100
AcDbLine
 62
7
  6
CONTINUOUS
 10
-3.8558367347
 20
39.833755102
 11
-5.2558367347
 21
39.833755102
  0
LINE
  5
8B4
100
AcDbEntity
  8
DRAFT
100
AcDbLine
 62
7
  6
CONTINUOUS
 10
-3.8558367347
 20
39.833755102
 11
-5.2558367347
 21
39.833755102
  0
LINE
  5
8B5
100
AcDbEntity
  8
0
100
AcDbLine
 62
7
  6
CONTINUOUS
 10
-20.0558367347
 20
39.833755102
 11
-21.4558367347
 21
39.833755102
  0
LINE
  5
8B6
100
AcDbEntity
  8
DRAFT
100
AcDbLine
 62
7
  6
CONTINUOUS
 10
-20.0558367347
 20
39.833755102
 11
-21.4558367347
 21
39.833755102
  0
LINE
  5
8B7
100
AcDbEntity
  8
ASSI
100
AcDbLine
 62
7
  6
CONTINUOUS
 10
-20.8883816698
 20
39.883755102
 11
-19.9558367347
 21
39.883755102
  0
LINE
  5
8B8
100
AcDbEntity
  8
ASSI
100
AcDbLine
 62
7
  6
CONTINUOUS
 10
-5.3558367347
 20
39.883755102
 11
-4.4232917996
 21
39.883755102
  0
LINE
  5
8B9
100
AcDbEntity
  8
0
100
AcDbLine
 62
7
  6
CONTINUOUS
 10
-6.1558367347
 20
39.883755102
 11
-7.3558367347
 21
39.883755102
  0
LINE
  5
8BA
100
AcDbEntity
  8
0
100
AcDbLine
 62
7
  6
CONTINUOUS
 10
-17.9558367347
 20
39.883755102
 11
-19.1558367347
 21
39.883755102
  0
LINE
  5
8BB
100
AcDbEntity
  8
ASSI
100
AcDbLine
 62
7
  6
CONTINUOUS
 10
-4.5978424489
 20
39.9710237799
 11
-5.4431054126
 21
39.9710237799
  0
LINE
  5
8BC
100
AcDbEntity
  8
ASSI
100
AcDbLine
 62
7
  6
CONTINUOUS
 10
-19.8685680568
 20
39.9710237799
 11
-20.7138310205
 21
39.9710237799
  0
LINE
  5
8BD
100
AcDbEntity
  8
ASSI
100
AcDbLine
 62
7
  6
CONTINUOUS
 10
-6.0685680568
 20
40.0583057513
 11
-7.530387384
 21
40.0583057513
  0
LINE
  5
8BE
100
AcDbEntity
  8
ASSI
100
AcDbLine
 62
7
  6
CONTINUOUS
 10
-17.7812860854
 20
40.0583057513
 11
-19.2431054126
 21
40.0583057513
  0
LINE
  5
8BF
100
AcDbEntity
  8
ASSI
100
AcDbLine
 62
253
  6
CONTINUOUS
 10
-4.5978424489
 20
40.2090521247
 11
-9.5984131475
 21
40.2090521247
  0
LINE
  5
8C0
100
AcDbEntity
  8
ASSI
100
AcDbLine
 62
253
  6
CONTINUOUS
 10
-15.7132603218
 20
40.2090521247
 11
-20.7138310205
 21
40.2090521247
  0
LINE
  5
8C1
100
AcDbEntity
  8
ASSI
100
AcDbLine
 62
7
  6
CONTINUOUS
 10
-15.7215462931
 20
40.683755102
 11
-9.5901271763
 21
40.683755102
  0
LINE
  5
8C2
100
AcDbEntity
  8
0
100
AcDbLine
 62
7
  6
CONTINUOUS
 10
-7.3558367347
 20
38.983755102
 11
-7.530387384
 21
39.0710237799
  0
LINE
  5
8C3
100
AcDbEntity
  8
0
100
AcDbLine
 62
7
  6
CONTINUOUS
 10
-2.2137194087
 20
38.0188414492
 11
-4.0286330616
 21
39.833755102
  0
LINE
  5
8C4
100
AcDbEntity
  8
RACCORDO
100
AcDbLine
 62
7
  6
CONTINUOUS
 10
-2.2137194087
 20
38.0188414492
 11
-4.0286330616
 21
39.833755102
  0
LINE
  5
8C5
100
AcDbEntity
  8
ASSI
100
AcDbLine
 62
7
  6
CONTINUOUS
 10
-5.4007233246
 20
41.3663000371
 11
-4.4232917996
 21
40.3888685122
  0
LINE
  5
8C6
100
AcDbEntity
  8
0
100
AcDbLine
 62
7
  6
CONTINUOUS
 10
-2.0915339542
 20
38.0694523216
 11
-3.8558367347
 21
39.833755102
  0
LINE
  5
8C7
100
AcDbEntity
  8
RACCORDO
100
AcDbLine
 62
7
  6
CONTINUOUS
 10
-2.0915339542
 20
38.0694523216
 11
-3.8558367347
 21
39.833755102
  0
LWPOLYLINE
  5
8C8
100
AcDbEntity
  8
ASSI
100
AcDbPolyline
 62
7
  6
CONTINUOUS
 90
10
 70
0
 10
-3.4024597645
 20
-4.6440761143
 10
-3.420752447
 20
-4.6633889811
 10
-3.4416941068
 20
-4.6841117682
 10
-3.4646281257
 20
-4.7062444755
 10
-3.4887662998
 20
-4.7300858654
 10
-3.5136940092
 20
-4.7553371755
 10
-3.5394857694
 20
-4.7811021192
 10
-3.5659571805
 20
-4.8070819343
 10
-3.5925624108
 20
-4.833575383
 10
-3.6189661154
 20
-4.8605824653
  0
LINE
  5
8C9
100
AcDbEntity
  8
ASSI
100
AcDbLine
 62
7
  6
CONTINUOUS
 10
-4.1558367347
 20
-3.416244898
 11
-4.1426692778
 21
-3.403077441
  0
LINE
  5
8CA
100
AcDbEntity
  8
ASSI
100
AcDbLine
 62
253
  6
CONTINUOUS
 10
-5.4426692778
 20
-5.303107902
 11
-5.4558367347
 21
-5.3162753589
  0
LINE
  5
8CB
100
AcDbEntity
  8
ASSI
100
AcDbLine
 62
253
  6
CONTINUOUS
 10
-5.2426997387
 20
-5.503077441
 11
-5.2558671957
 21
-5.516244898
  0
LINE
  5
8CC
100
AcDbEntity
  8
ASSI
100
AcDbLine
 62
7
  6
CONTINUOUS
 10
-4.5978424489
 20
-2.0035135759
 11
-4.4232917996
 21
-1.916244898
  0
LINE
  5
8CD
100
AcDbEntity
  8
ASSI
100
AcDbLine
 62
7
  6
CONTINUOUS
 10
-4.5973711319
 20
-2.4723543386
 11
-4.4232917996
 21
-2.4213583081
  0
LINE
  5
8CE
100
AcDbEntity
  8
ASSI
100
AcDbLine
 62
7
  6
CONTINUOUS
 10
-13.4558367347
 20
41.383755102
 11
-13.4732917996
 21
41.382009771
  0
LWPOLYLINE
  5
8CF
100
AcDbEntity
  8
RACCORDO
100
AcDbPolyline
 62
253
  6
CONTINUOUS
 90
4
 70
0
 10
-8.3261754499
 20
42.6354312773
 10
-8.3140057655
 20
42.6357349215
 10
-8.3063381121
 20
42.6360493003
 10
-8.3032554992
 20
42.6363744137
  0
LINE
  5
8D0
100
AcDbEntity
  8
ASSI
100
AcDbLine
 62
253
  6
CONTINUOUS
 10
-5.354613392
 20
41.2088998199
 11
-9.5809607411
 21
41.2088998199
  0
LINE
  5
8D1
100
AcDbEntity
  8
ASSI
100
AcDbLine
 62
253
  6
CONTINUOUS
 10
-15.7307127283
 20
41.2088998199
 11
-19.9570600774
 21
41.2088998199
  0
LINE
  5
8D2
100
AcDbEntity
  8
ASSI
100
AcDbLine
 62
7
  6
CONTINUOUS
 10
-2.0732156472
 20
41.3663000371
 11
-3.6189661154
 21
41.3663000371
  0
LINE
  5
8D3
100
AcDbEntity
  8
ASSI
100
AcDbLine
 62
7
  6
CONTINUOUS
 10
-3.892707354
 20
41.3663000371
 11
-5.4007233246
 21
41.3663000371
  0
LINE
  5
8D4
100
AcDbEntity
  8
ASSI
100
AcDbLine
 62
7
  6
CONTINUOUS
 10
-19.9109501448
 20
41.3663000371
 11
-21.4189661154
 21
41.3663000371
  0
LINE
  5
8D5
100
AcDbEntity
  8
ASSI
100
AcDbLine
 62
7
  6
CONTINUOUS
 10
-21.692707354
 20
41.3663000371
 11
-23.2384578222
 21
41.3663000371
  0
LINE
  5
8D6
100
AcDbEntity
  8
ASSI
100
AcDbLine
 62
7
  6
CONTINUOUS
 10
-11.8383816698
 20
41.382009771
 11
-13.4732917996
 21
41.382009771
  0
LINE
  5
8D7
100
AcDbEntity
  8
ASSI
100
AcDbLine
 62
7
  6
CONTINUOUS
 10
-2.0558366701
 20
41.3837550375
 11
-3.3558367347
 21
41.383755102
  0
LINE
  5
8D8
100
AcDbEntity
  8
ASSI
100
AcDbLine
 62
7
  6
CONTINUOUS
 10
-4.1558367347
 20
41.383755102
 11
-8.2058367347
 21
41.383755102
  0
LINE
  5
8D9
100
AcDbEntity
  8
ASSI
100
AcDbLine
 62
7
  6
CONTINUOUS
 10
-17.1058367347
 20
41.383755102
 11
-21.1558367347
 21
41.383755102
  0
LINE
  5
8DA
100
AcDbEntity
  8
ASSI
100
AcDbLine
 62
7
  6
CONTINUOUS
 10
-21.9558367347
 20
41.383755102
 11
-23.2558367347
 21
41.383755102
  0
LINE
  5
8DB
100
AcDbEntity
  8
ASSI
100
AcDbLine
 62
7
  6
CONTINUOUS
 10
-2.2541216938
 20
42.1064048329
 11
-3.3558367347
 21
42.1064048329
  0
LINE
  5
8DC
100
AcDbEntity
  8
ASSI
100
AcDbLine
 62
7
  6
CONTINUOUS
 10
-4.1558367347
 20
42.1064048329
 11
-5.2575517756
 21
42.1064048329
  0
LINE
  5
8DD
100
AcDbEntity
  8
ASSI
100
AcDbLine
 62
7
  6
CONTINUOUS
 10
-20.0541216938
 20
42.1064048329
 11
-21.1558367347
 21
42.1064048329
  0
LINE
  5
8DE
100
AcDbEntity
  8
ASSI
100
AcDbLine
 62
7
  6
CONTINUOUS
 10
-21.9558367347
 20
42.1064048329
 11
-23.0575517756
 21
42.1064048329
  0
LINE
  5
8DF
100
AcDbEntity
  8
ASSI
100
AcDbLine
 62
7
  6
CONTINUOUS
 10
-11.8558367347
 20
41.383755102
 11
-11.8383816698
 21
41.382009771
  0
LWPOLYLINE
  5
8E0
100
AcDbEntity
  8
RACCORDO
100
AcDbPolyline
 62
253
  6
CONTINUOUS
 90
5
 70
0
 10
-17.008416024
 20
42.6363736296
 10
-17.0053278553
 20
42.6360487442
 10
-16.9976620562
 20
42.6357345042
 10
-16.985497717
 20
42.6354309098
 10
-16.9482282498
 20
42.6348494917
  0
LWPOLYLINE
  5
8E1
100
AcDbEntity
  8
RACCORDO
100
AcDbPolyline
 62
253
  6
CONTINUOUS
 90
9
 70
0
 10
-16.7584560464
 20
42.8863363375
 10
-16.7570998799
 20
42.8860116684
 10
-16.7539453457
 20
42.8856975416
 10
-16.7489924439
 20
42.8853939571
 10
-16.7421485982
 20
42.8850978063
 10
-16.7335063849
 20
42.8848121979
 10
-16.7233435321
 20
42.8845464577
 10
-16.7116114727
 20
42.8843012923
 10
-16.6840088644
 20
42.8838777719
  0
LINE
  5
8E2
100
AcDbEntity
  8
ASSI
100
AcDbLine
 62
7
  6
CONTINUOUS
 10
-4.5973711319
 20
40.4398645427
 11
-4.4232917996
 21
40.3888685122
  0
LINE
  5
8E3
100
AcDbEntity
  8
ASSI
100
AcDbLine
 62
7
  6
CONTINUOUS
 10
-4.5978424489
 20
39.9710237799
 11
-4.4232917996
 21
39.883755102
  0
LWPOLYLINE
  5
8E4
100
AcDbEntity
  8
ASSI
100
AcDbPolyline
 62
7
  6
CONTINUOUS
 90
10
 70
0
 10
-3.4024597645
 20
42.6115863184
 10
-3.4217726313
 20
42.6298790009
 10
-3.4424954183
 20
42.6508206608
 10
-3.4646281257
 20
42.6737546796
 10
-3.4884695155
 20
42.6978928537
 10
-3.5137208256
 20
42.7228205632
 10
-3.5394857694
 20
42.7486123233
 10
-3.5654655844
 20
42.7750837345
 10
-3.5919590331
 20
42.8016889648
 10
-3.6189661154
 20
42.8280926693
  0
LINE
  5
8E5
100
AcDbEntity
  8
ASSI
100
AcDbLine
 62
7
  6
CONTINUOUS
 10
-4.1558367347
 20
41.383755102
 11
-4.1426692778
 21
41.3705876451
  0
LINE
  5
8E6
100
AcDbEntity
  8
ASSI
100
AcDbLine
 62
253
  6
CONTINUOUS
 10
-5.4558367347
 20
43.283785563
 11
-5.4426692778
 21
43.2706181061
  0
LINE
  5
8E7
100
AcDbEntity
  8
ASSI
100
AcDbLine
 62
253
  6
CONTINUOUS
 10
-5.2558671957
 20
43.483755102
 11
-5.2426997387
 21
43.4705876451
  0
LWPOLYLINE
  5
8E8
100
AcDbEntity
  8
ASSI
100
AcDbPolyline
 62
253
  6
CONTINUOUS
 90
13
 70
0
 10
-5.2426997387
 20
43.4705876451
 10
-5.2687960032
 20
43.4688695875
 10
-5.29444592
 20
43.4637606984
 10
-5.3192107813
 20
43.4553483606
 10
-5.3426670182
 20
43.4437764576
 10
-5.3644134428
 20
43.4292429137
 10
-5.3840781113
 20
43.4119963091
 10
-5.4013246867
 20
43.3923316273
 10
-5.4158581933
 20
43.3705852071
 10
-5.4274300584
 20
43.3471289914
 10
-5.4358423633
 20
43.322364167
 10
-5.4409512291
 20
43.2967143032
 10
-5.4426692778
 20
43.2706181061
  0
LWPOLYLINE
  5
8E9
100
AcDbEntity
  8
RACCORDO
100
AcDbPolyline
 62
253
  6
CONTINUOUS
 90
13
 70
0
 10
-16.7584560464
 20
42.8863363375
 10
-16.7910748682
 20
42.884188965
 10
-16.8231360947
 20
42.8778033732
 10
-16.8540913825
 20
42.8672886699
 10
-16.8834112674
 20
42.8528245945
 10
-16.9105942631
 20
42.8346584285
 10
-16.935175429
 20
42.8131007527
 10
-16.9567342912
 20
42.7885201488
 10
-16.9749019785
 20
42.7613369912
 10
-16.9893676065
 20
42.7320162547
 10
-16.9998836675
 20
42.7010594515
 10
-17.0062702288
 20
42.6689960299
 10
-17.0084179701
 20
42.6363744136
  0
LWPOLYLINE
  5
8EA
100
AcDbEntity
  8
RACCORDO
100
AcDbPolyline
 62
7
  6
CONTINUOUS
 90
12
 70
0
 10
-8.9058367347
 20
42.8863900513
 10
-8.938466814
 20
42.8842517861
 10
-8.9705388897
 20
42.8778735042
 10
-9.0015042201
 20
42.8673642305
 10
-9.0308329641
 20
42.8529036812
 10
-9.0580232897
 20
42.8347391729
 10
-9.0826099506
 20
42.8131813788
 10
-9.104172216
 20
42.7885990251
 10
-9.1223410134
 20
42.7614126789
 10
-9.1368053192
 20
42.7320875499
 10
-9.1473175521
 20
42.7011254196
 10
-9.1536977753
 20
42.6690560328
  0
LWPOLYLINE
  5
8EB
100
AcDbEntity
  8
ASSI
100
AcDbPolyline
 62
7
  6
CONTINUOUS
 90
13
 70
0
 10
-23.0558671957
 20
43.483755102
 10
-23.0819693225
 20
43.4820448378
 10
-23.1076245008
 20
43.4769426615
 10
-23.1323940222
 20
43.4685356803
 10
-23.1558544791
 20
43.4569674392
 10
-23.1776042849
 20
43.442435652
 10
-23.1972707069
 20
43.4251890743
 10
-23.2145172847
 20
43.4055226523
 10
-23.2290490718
 20
43.3837728464
 10
-23.2406173129
 20
43.3603123895
 10
-23.2490242941
 20
43.3355428681
 10
-23.2541264705
 20
43.3098876899
 10
-23.2558367347
 20
43.283785563
  0
LWPOLYLINE
  5
8EC
100
AcDbEntity
  8
ASSI
100
AcDbPolyline
 62
253
  6
CONTINUOUS
 90
13
 70
0
 10
-20.0693948756
 20
42.6115863184
 10
-20.0434367639
 20
42.6132479199
 10
-20.0179178962
 20
42.6178122102
 10
-19.9932700771
 20
42.625201955
 10
-19.9699103706
 20
42.6352921105
 10
-19.9482340461
 20
42.6479119392
 10
-19.928607889
 20
42.6628478976
 10
-19.9113639914
 20
42.6798472513
 10
-19.8967941328
 20
42.6986223536
 10
-19.885144845
 20
42.7188555122
 10
-19.8766132423
 20
42.7402043626
 10
-19.8713436851
 20
42.7623076611
 10
-19.8694253366
 20
42.7847913991
  0
LWPOLYLINE
  5
8ED
100
AcDbEntity
  8
RACCORDO
100
AcDbPolyline
 62
253
  6
CONTINUOUS
 90
7
 70
0
 10
-16.4390096998
 20
42.8845933251
 10
-16.4291374498
 20
42.8848624508
 10
-16.4208064635
 20
42.8851509237
 10
-16.4142841572
 20
42.8854489042
 10
-16.4096596697
 20
42.8857531123
 10
-16.4068438622
 20
42.886066828
 10
-16.4058367347
 20
42.8863900513
  0
LWPOLYLINE
  5
8EE
100
AcDbEntity
  8
RACCORDO
100
AcDbPolyline
 62
253
  6
CONTINUOUS
 90
7
 70
0
 10
-8.5881817203
 20
42.8845499921
 10
-8.5780419013
 20
42.8848160695
 10
-8.5694237684
 20
42.8851019606
 10
-8.562604533
 20
42.8853979086
 10
-8.5576765989
 20
42.8857006613
 10
-8.5545475622
 20
42.8860134709
 10
-8.553217423
 20
42.8863363375
  0
LWPOLYLINE
  5
8EF
100
AcDbEntity
  8
RACCORDO
100
AcDbPolyline
 62
253
  6
CONTINUOUS
 90
5
 70
0
 10
-16.1922918652
 20
42.6351842646
 10
-16.1764730635
 20
42.6354822439
 10
-16.1650499808
 20
42.6357873523
 10
-16.1581462917
 20
42.6361026468
 10
-16.1558367347
 20
42.6364281276
  0
LINE
  5
8F0
100
AcDbEntity
  8
RACCORDO
100
AcDbLine
 62
253
  6
CONTINUOUS
 10
-16.4634762696
 20
42.8841147743
 11
-16.4390096998
 21
42.8845933251
  0
LINE
  5
8F1
100
AcDbEntity
  8
RACCORDO
100
AcDbLine
 62
253
  6
CONTINUOUS
 10
-8.6131230271
 20
42.8840789673
 11
-8.5881817203
 21
42.8845499921
  0
LINE
  5
8F2
100
AcDbEntity
  8
RACCORDO
100
AcDbLine
 62
253
  6
CONTINUOUS
 10
-8.3634464804
 20
42.6348501348
 11
-8.3261754499
 21
42.6354312773
  0
LINE
  5
8F3
100
AcDbEntity
  8
RACCORDO
100
AcDbLine
 62
253
  6
CONTINUOUS
 10
-16.4929001303
 20
42.8837365343
 11
-16.4634762696
 21
42.8841147743
  0
LINE
  5
8F4
100
AcDbEntity
  8
RACCORDO
100
AcDbLine
 62
253
  6
CONTINUOUS
 10
-16.2363852933
 20
42.6346280358
 11
-16.1922918652
 21
42.6351842646
  0
LINE
  5
8F5
100
AcDbEntity
  8
RACCORDO
100
AcDbLine
 62
253
  6
CONTINUOUS
 10
-8.6429205641
 20
42.883709748
 11
-8.6131230271
 21
42.8840789673
  0
LINE
  5
8F6
100
AcDbEntity
  8
RACCORDO
100
AcDbLine
 62
253
  6
CONTINUOUS
 10
-8.4483274721
 20
42.6341147165
 11
-8.3634464804
 21
42.6348501348
  0
LINE
  5
8F7
100
AcDbEntity
  8
RACCORDO
100
AcDbLine
 62
253
  6
CONTINUOUS
 10
-16.3297727735
 20
42.6339480452
 11
-16.2363852933
 21
42.6346280358
  0
LINE
  5
8F8
100
AcDbEntity
  8
RACCORDO
100
AcDbLine
 62
253
  6
CONTINUOUS
 10
-16.543983436
 20
42.8833859667
 11
-16.4929001303
 21
42.8837365343
  0
LINE
  5
8F9
100
AcDbEntity
  8
RACCORDO
100
AcDbLine
 62
253
  6
CONTINUOUS
 10
-8.6943465656
 20
42.883374795
 11
-8.6429205641
 21
42.883709748
  0
LINE
  5
8FA
100
AcDbEntity
  8
RACCORDO
100
AcDbLine
 62
253
  6
CONTINUOUS
 10
-8.6020261887
 20
42.6334916445
 11
-8.4483274721
 21
42.6341147165
  0
LINE
  5
8FB
100
AcDbEntity
  8
RACCORDO
100
AcDbLine
 62
253
  6
CONTINUOUS
 10
-16.5341452046
 20
42.6333707386
 11
-16.3297727735
 21
42.6339480452
  0
LINE
  5
8FC
100
AcDbEntity
  8
ASSI
100
AcDbLine
 62
253
  6
CONTINUOUS
 10
-21.2024597645
 20
42.6115863184
 11
-20.0693948756
 21
42.6115863184
  0
LINE
  5
8FD
100
AcDbEntity
  8
ASSI
100
AcDbLine
 62
253
  6
CONTINUOUS
 10
-5.2422785938
 20
42.6115863184
 11
-4.1092137049
 21
42.6115863184
  0
LINE
  5
8FE
100
AcDbEntity
  8
ASSI
100
AcDbLine
 62
253
  6
CONTINUOUS
 10
-3.4024597645
 20
42.6115863184
 11
-2.2693948756
 21
42.6115863184
  0
LINE
  5
8FF
100
AcDbEntity
  8
ASSI
100
AcDbLine
 62
253
  6
CONTINUOUS
 10
-23.0422785962
 20
42.6115862382
 11
-21.9092137049
 21
42.6115863184
  0
LINE
  5
900
100
AcDbEntity
  8
ASSI
100
AcDbLine
 62
253
  6
CONTINUOUS
 10
-23.2418117562
 20
42.8280926693
 11
-21.692707354
 21
42.8280926693
  0
LINE
  5
901
100
AcDbEntity
  8
ASSI
100
AcDbLine
 62
253
  6
CONTINUOUS
 10
-21.4189661154
 20
42.8280926693
 11
-19.8698617132
 21
42.8280926693
  0
LINE
  5
902
100
AcDbEntity
  8
ASSI
100
AcDbLine
 62
253
  6
CONTINUOUS
 10
-2.0698617132
 20
42.8280926693
 11
-3.6189661154
 21
42.8280926693
  0
LINE
  5
903
100
AcDbEntity
  8
ASSI
100
AcDbLine
 62
253
  6
CONTINUOUS
 10
-3.892707354
 20
42.8280926693
 11
-5.4418117562
 21
42.8280926693
  0
LINE
  5
904
100
AcDbEntity
  8
RACCORDO
100
AcDbLine
 62
7
  6
CONTINUOUS
 10
-16.4058367347
 20
42.9663000371
 11
-13.7232537234
 21
42.9663000371
  0
LINE
  5
905
100
AcDbEntity
  8
RACCORDO
100
AcDbLine
 62
7
  6
CONTINUOUS
 10
-11.588419746
 20
42.9663000371
 11
-8.9058367347
 21
42.9663000371
  0
LINE
  5
906
100
AcDbEntity
  8
RACCORDO
100
AcDbLine
 62
7
  6
CONTINUOUS
 10
-8.4557986585
 20
42.983755102
 11
-11.6058748109
 21
42.983755102
  0
LINE
  5
907
100
AcDbEntity
  8
RACCORDO
100
AcDbLine
 62
7
  6
CONTINUOUS
 10
-13.7057986585
 20
42.983755102
 11
-16.8558748109
 21
42.983755102
  0
LINE
  5
908
100
AcDbEntity
  8
ASSI
100
AcDbLine
 62
253
  6
CONTINUOUS
 10
-23.2418117562
 20
43.2206257213
 11
-19.8698617132
 21
43.2206257213
  0
LINE
  5
909
100
AcDbEntity
  8
ASSI
100
AcDbLine
 62
253
  6
CONTINUOUS
 10
-2.0698617132
 20
43.2206257213
 11
-5.4418117562
 21
43.2206257213
  0
LINE
  5
90A
100
AcDbEntity
  8
ASSI
100
AcDbLine
 62
253
  6
CONTINUOUS
 10
-23.0426997387
 20
43.4705876451
 11
-20.0689737306
 21
43.4705876451
  0
LINE
  5
90B
100
AcDbEntity
  8
ASSI
100
AcDbLine
 62
253
  6
CONTINUOUS
 10
-5.2426997387
 20
43.4705876451
 11
-2.2689737306
 21
43.4705876451
  0
LINE
  5
90C
100
AcDbEntity
  8
ASSI
100
AcDbLine
 62
7
  6
CONTINUOUS
 10
-2.2558062737
 20
43.483755102
 11
-5.2558671957
 21
43.483755102
  0
LINE
  5
90D
100
AcDbEntity
  8
ASSI
100
AcDbLine
 62
7
  6
CONTINUOUS
 10
-20.0558062737
 20
43.483755102
 11
-23.0558671957
 21
43.483755102
  0
LINE
  5
90E
100
AcDbEntity
  8
RACCORDO
100
AcDbLine
 62
253
  6
CONTINUOUS
 10
-16.5987688847
 20
42.8833266259
 11
-16.543983436
 21
42.8833859667
  0
LINE
  5
90F
100
AcDbEntity
  8
RACCORDO
100
AcDbLine
 62
253
  6
CONTINUOUS
 10
-8.7491830029
 20
42.8833321518
 11
-8.6943465656
 21
42.883374795
  0
LINE
  5
910
100
AcDbEntity
  8
RACCORDO
100
AcDbLine
 62
253
  6
CONTINUOUS
 10
-8.8213008499
 20
42.6334235349
 11
-8.6020261887
 21
42.6334916445
  0
LINE
  5
911
100
AcDbEntity
  8
RACCORDO
100
AcDbLine
 62
253
  6
CONTINUOUS
 10
-16.7512434739
 20
42.6336028869
 11
-16.5341452046
 21
42.6333707386
  0
LINE
  5
912
100
AcDbEntity
  8
RACCORDO
100
AcDbLine
 62
253
  6
CONTINUOUS
 10
-9.0162486084
 20
42.6341498658
 11
-8.8213008499
 21
42.6334235349
  0
LINE
  5
913
100
AcDbEntity
  8
RACCORDO
100
AcDbLine
 62
253
  6
CONTINUOUS
 10
-16.6519460992
 20
42.8835643052
 11
-16.5987688847
 21
42.8833266259
  0
LINE
  5
914
100
AcDbEntity
  8
RACCORDO
100
AcDbLine
 62
253
  6
CONTINUOUS
 10
-8.8021144989
 20
42.8835859938
 11
-8.7491830029
 21
42.8833321518
  0
LINE
  5
915
100
AcDbEntity
  8
RACCORDO
100
AcDbLine
 62
253
  6
CONTINUOUS
 10
-16.8951322812
 20
42.6343391126
 11
-16.7512434739
 21
42.6336028869
  0
LINE
  5
916
100
AcDbEntity
  8
RACCORDO
100
AcDbLine
 62
253
  6
CONTINUOUS
 10
-16.9482282498
 20
42.6348494917
 11
-16.8951322812
 21
42.6343391126
  0
LINE
  5
917
100
AcDbEntity
  8
RACCORDO
100
AcDbLine
 62
253
  6
CONTINUOUS
 10
-16.6840088644
 20
42.8838777719
 11
-16.6519460992
 21
42.8835643052
  0
LINE
  5
918
100
AcDbEntity
  8
RACCORDO
100
AcDbLine
 62
253
  6
CONTINUOUS
 10
-8.8338589917
 20
42.88390918
 11
-8.8021144989
 21
42.8835859938
  0
LWPOLYLINE
  5
919
100
AcDbEntity
  8
ASSI
100
AcDbPolyline
 62
253
  6
CONTINUOUS
 90
13
 70
0
 10
-5.2422785938
 20
42.6115863184
 10
-5.2682366653
 20
42.613247915
 10
-5.2937555013
 20
42.6178121931
 10
-5.3184032982
 20
42.6252019207
 10
-5.3417629915
 20
42.6352920565
 10
-5.3634393128
 20
42.6479118656
 10
-5.3830654776
 20
42.6628478086
 10
-5.4003093923
 20
42.679847155
 10
-5.4148792733
 20
42.6986222594
 10
-5.426528584
 20
42.7188554289
 10
-5.4350602068
 20
42.7402042987
 10
-5.4403297785
 20
42.7623076253
 10
-5.4422481328
 20
42.7847913991
  0
LWPOLYLINE
  5
91A
100
AcDbEntity
  8
RACCORDO
100
AcDbPolyline
 62
7
  6
CONTINUOUS
 90
13
 70
0
 10
-16.4058367347
 20
42.8863900513
 10
-16.3732051868
 20
42.8842515925
 10
-16.3411319739
 20
42.8778728055
 10
-16.3101658773
 20
42.8673628331
 10
-16.2808367357
 20
42.8529015041
 10
-16.2536463787
 20
42.8347362557
 10
-16.2290600407
 20
42.8131779002
 10
-16.2074984008
 20
42.788595307
 10
-16.1893303847
 20
42.7614090911
 10
-16.1748668522
 20
42.7320844161
 10
-16.1643552785
 20
42.7011230353
 10
-16.1579755195
 20
42.6690547064
 10
-16.1558367347
 20
42.6364281276
  0
LWPOLYLINE
  5
91B
100
AcDbEntity
  8
ASSI
100
AcDbPolyline
 62
7
  6
CONTINUOUS
 90
13
 70
0
 10
-2.2558062737
 20
43.483755102
 10
-2.2297041469
 20
43.4820448378
 10
-2.2040489686
 20
43.4769426615
 10
-2.1792794472
 20
43.4685356803
 10
-2.1558189903
 20
43.4569674392
 10
-2.1340691845
 20
43.442435652
 10
-2.1144027625
 20
43.4251890743
 10
-2.0971561847
 20
43.4055226523
 10
-2.0826243976
 20
43.3837728464
 10
-2.0710561565
 20
43.3603123895
 10
-2.0626491752
 20
43.3355428681
 10
-2.0575469989
 20
43.3098876899
 10
-2.0558367347
 20
43.283785563
  0
LWPOLYLINE
  5
91C
100
AcDbEntity
  8
ASSI
100
AcDbPolyline
 62
253
  6
CONTINUOUS
 90
13
 70
0
 10
-20.0689737306
 20
43.4705876451
 10
-20.0428774992
 20
43.4688695919
 10
-20.0172276086
 20
43.4637607143
 10
-19.9924627657
 20
43.4553483927
 10
-19.9690065396
 20
43.4437765087
 10
-19.9472601176
 20
43.4292429836
 10
-19.9275954429
 20
43.4119963939
 10
-19.9103488531
 20
43.3923317191
 10
-19.8958153281
 20
43.3705852971
 10
-19.884243444
 20
43.3471290711
 10
-19.8758311225
 20
43.3223642281
 10
-19.8707222449
 20
43.2967143375
 10
-19.8690041916
 20
43.2706181061
  0
LWPOLYLINE
  5
91D
100
AcDbEntity
  8
RACCORDO
100
AcDbPolyline
 62
253
  6
CONTINUOUS
 90
13
 70
0
 10
-8.553217423
 20
42.8863363375
 10
-8.5205971339
 20
42.884188771
 10
-8.4885347709
 20
42.8778026741
 10
-8.4575787175
 20
42.8672872723
 10
-8.4282584352
 20
42.8528224175
 10
-8.401075408
 20
42.8346555116
 10
-8.3764945646
 20
42.8130972747
 10
-8.3549363273
 20
42.7885164315
 10
-8.3367694208
 20
42.7613334042
 10
-8.3223045654
 20
42.7320131216
 10
-8.3117891632
 20
42.7010570676
 10
-8.3054030659
 20
42.6689947038
 10
-8.3032554992
 20
42.6363744137
  0
LWPOLYLINE
  5
91E
100
AcDbEntity
  8
RACCORDO
100
AcDbPolyline
 62
253
  6
CONTINUOUS
 90
7
 70
0
 10
-9.1558367203
 20
42.6364273403
 10
-9.1535207398
 20
42.6361020891
 10
-9.1466182634
 20
42.6357869341
 10
-9.1352001183
 20
42.6354818754
 10
-9.1193844119
 20
42.6351838018
 10
-9.0993396949
 20
42.6348958245
 10
-9.0162486084
 20
42.6341498658
  0
LWPOLYLINE
  5
91F
100
AcDbEntity
  8
RACCORDO
100
AcDbPolyline
 62
253
  6
CONTINUOUS
 90
9
 70
0
 10
-8.9058367347
 20
42.8863900513
 10
-8.9048053838
 20
42.8860650178
 10
-8.9019653994
 20
42.8857499773
 10
-8.8973167815
 20
42.8854449299
 10
-8.8907700775
 20
42.8851467394
 10
-8.88241474
 20
42.884858542
 10
-8.8725191269
 20
42.8845897465
 10
-8.8610339701
 20
42.8843410445
 10
-8.8338589917
 20
42.88390918
  0
ARC
  5
920
100
AcDbEntity
  8
ASSI
100
AcDbCircle
 62
7
  6
CONTINUOUS
 10
-22.1617451054
 20
0.093755102
 40
0.71
100
AcDbArc
 50
229.7020215745
 51
265.2988538673
  0
ARC
  5
921
100
AcDbEntity
  8
ASSI
100
AcDbCircle
 62
7
  6
CONTINUOUS
 10
-22.9458367347
 20
0.8778467313
 40
0.71
100
AcDbArc
 50
184.7020215745
 51
220.2988538673
  0
ARC
  5
922
100
AcDbEntity
  8
ASSI
100
AcDbCircle
 62
7
  6
CONTINUOUS
 10
-16.6558367347
 20
-4.216244898
 40
0.5
100
AcDbArc
 50
154.1580672368
 51
205.8419327632
  0
ARC
  5
923
100
AcDbEntity
  8
ASSI
100
AcDbCircle
 62
7
  6
CONTINUOUS
 10
-16.6558367347
 20
-4.216244898
 40
0.4904006794
100
AcDbArc
 50
136.2076703059
 51
223.7923296941
  0
ARC
  5
924
100
AcDbEntity
  8
0
100
AcDbCircle
 62
7
  6
CONTINUOUS
 10
-14.3558367347
 20
1.433755102
 40
0.3
100
AcDbArc
 50
90.0
 51
170.0
  0
ARC
  5
925
100
AcDbEntity
  8
RACCORDO
100
AcDbCircle
 62
7
  6
CONTINUOUS
 10
-14.3558367347
 20
1.433755102
 40
0.3
100
AcDbArc
 50
90.0
 51
170.0
  0
ARC
  5
926
100
AcDbEntity
  8
ASSI
100
AcDbCircle
 62
7
  6
CONTINUOUS
 10
-22.1617451054
 20
37.873755102
 40
0.71
100
AcDbArc
 50
109.9961491498
 51
114.2412807351
  0
ARC
  5
927
100
AcDbEntity
  8
ASSI
100
AcDbCircle
 62
7
  6
CONTINUOUS
 10
-22.9458367347
 20
37.0896634728
 40
0.71
100
AcDbArc
 50
139.7010712477
 51
175.2998279782
  0
ARC
  5
928
100
AcDbEntity
  8
ASSI
100
AcDbCircle
 62
7
  6
CONTINUOUS
 10
-16.6558367347
 20
42.183755102
 40
0.5
100
AcDbArc
 50
154.1580672368
 51
205.8419327632
  0
ARC
  5
929
100
AcDbEntity
  8
ASSI
100
AcDbCircle
 62
7
  6
CONTINUOUS
 10
-16.6558367347
 20
42.183755102
 40
0.4904006794
100
AcDbArc
 50
136.2076703059
 51
223.7923296941
  0
ARC
  5
92A
100
AcDbEntity
  8
0
100
AcDbCircle
 62
7
  6
CONTINUOUS
 10
-14.3558367347
 20
36.533755102
 40
0.3
100
AcDbArc
 50
189.8838085533
 51
270.0
  0
ARC
  5
92B
100
AcDbEntity
  8
RACCORDO
100
AcDbCircle
 62
7
  6
CONTINUOUS
 10
-14.3558367347
 20
36.533755102
 40
0.3
100
AcDbArc
 50
189.8838085533
 51
270.0
  0
ARC
  5
92C
100
AcDbEntity
  8
ASSI
100
AcDbCircle
 62
7
  6
CONTINUOUS
 10
-2.3658367347
 20
2.2778467313
 40
0.71
100
AcDbArc
 50
319.7020215745
 51
355.2988538673
  0
ARC
  5
92D
100
AcDbEntity
  8
ASSI
100
AcDbCircle
 62
7
  6
CONTINUOUS
 10
-3.149928364
 20
1.493755102
 40
0.71
100
AcDbArc
 50
274.7020215745
 51
310.2988538673
  0
ARC
  5
92E
100
AcDbEntity
  8
ASSI
100
AcDbCircle
 62
7
  6
CONTINUOUS
 10
-8.6558367347
 20
-4.216244898
 40
0.5
100
AcDbArc
 50
334.1580672368
 51
25.8419327632
  0
ARC
  5
92F
100
AcDbEntity
  8
ASSI
100
AcDbCircle
 62
7
  6
CONTINUOUS
 10
-8.6558367347
 20
-4.216244898
 40
0.4904006794
100
AcDbArc
 50
316.2076703059
 51
43.7923296941
  0
ARC
  5
930
100
AcDbEntity
  8
0
100
AcDbCircle
 62
7
  6
CONTINUOUS
 10
-10.9558367347
 20
1.433755102
 40
0.3
100
AcDbArc
 50
10.0
 51
90.0
  0
ARC
  5
931
100
AcDbEntity
  8
RACCORDO
100
AcDbCircle
 62
7
  6
CONTINUOUS
 10
-10.9558367347
 20
1.433755102
 40
0.3
100
AcDbArc
 50
10.0
 51
90.0
  0
ARC
  5
932
100
AcDbEntity
  8
0
100
AcDbCircle
 62
7
  6
CONTINUOUS
 10
-3.4558367347
 20
36.183755102
 40
1.4
100
AcDbArc
 50
9.8532892494
 51
90.0
  0
ARC
  5
933
100
AcDbEntity
  8
ASSI
100
AcDbCircle
 62
7
  6
CONTINUOUS
 10
-3.149928364
 20
36.473755102
 40
0.71
100
AcDbArc
 50
49.7010712477
 51
85.2998279782
  0
ARC
  5
934
100
AcDbEntity
  8
ASSI
100
AcDbCircle
 62
7
  6
CONTINUOUS
 10
-2.3658367347
 20
35.6896634728
 40
0.71
100
AcDbArc
 50
4.7001961556
 51
40.2989529286
  0
ARC
  5
935
100
AcDbEntity
  8
ASSI
100
AcDbCircle
 62
7
  6
CONTINUOUS
 10
-8.6558367347
 20
42.183755102
 40
0.5
100
AcDbArc
 50
334.1580672368
 51
25.8419327632
  0
ARC
  5
936
100
AcDbEntity
  8
ASSI
100
AcDbCircle
 62
7
  6
CONTINUOUS
 10
-8.6558367347
 20
42.183755102
 40
0.4904006794
100
AcDbArc
 50
316.2076703059
 51
43.7923296941
  0
ARC
  5
937
100
AcDbEntity
  8
0
100
AcDbCircle
 62
7
  6
CONTINUOUS
 10
-10.9558367347
 20
36.533755102
 40
0.3
100
AcDbArc
 50
270.0
 51
350.0
  0
ARC
  5
938
100
AcDbEntity
  8
RACCORDO
100
AcDbCircle
 62
7
  6
CONTINUOUS
 10
-10.9558367347
 20
36.533755102
 40
0.3
100
AcDbArc
 50
270.0
 51
350.0
  0
ELLIPSE
  5
939
100
AcDbEntity
  8
0
100
AcDbEllipse
 62
7
  6
CONTINUOUS
 10
-10.8629435159
 20
0.7481296717
 30
0.0
 11
0.5
 21
-0.0
 31
0.0
 40
0.0087268678
 41
0.7853981634
 42
1.1434651843
  0
ELLIPSE
  5
93A
100
AcDbEntity
  8
0
100
AcDbEllipse
 62
7
  6
CONTINUOUS
 10
-14.4487299535
 20
0.7481296717
 30
0.0
 11
0.5
 21
0.0
 31
0.0
 40
0.0087268678
 41
1.97725418
 42
2.3561944902
  0
ELLIPSE
  5
93B
100
AcDbEntity
  8
0
100
AcDbEllipse
 62
7
  6
CONTINUOUS
 10
-21.8055320786
 20
36.6552017846
 30
0.0
 11
1.8480888181
 21
-0.7655034529
 31
0.0
 40
0.9998215708
 41
2.7489566578
 42
3.5342286494
  0
ELLIPSE
  5
93C
100
AcDbEntity
  8
0
100
AcDbEllipse
 62
7
  6
CONTINUOUS
 10
-21.8055320786
 20
1.3123084195
 30
0.0
 11
1.8480888181
 21
0.7655034529
 31
0.0
 40
0.9998215708
 41
2.7489566578
 42
3.5342286494
  0
ELLIPSE
  5
93D
100
AcDbEntity
  8
0
100
AcDbEllipse
 62
7
  6
CONTINUOUS
 10
-3.5061413908
 20
1.3123084195
 30
0.0
 11
1.8480888181
 21
-0.7655034529
 31
0.0
 40
0.9998215708
 41
-0.3926359958
 42
0.3926359958
  0
ELLIPSE
  5
93E
100
AcDbEntity
  8
0
100
AcDbEllipse
 62
7
  6
CONTINUOUS
 10
-3.5061413908
 20
36.6552017846
 30
0.0
 11
1.8480888181
 21
0.7655034529
 31
0.0
 40
0.9998215708
 41
-0.3926359958
 42
0.3926359958
  0
ELLIPSE
  5
93F
100
AcDbEntity
  8
0
100
AcDbEllipse
 62
7
  6
CONTINUOUS
 10
-3.3896863063
 20
1.2176046736
 30
0.0
 11
-0.3535803156
 21
0.3535803156
 31
0.0
 40
0.9999238505
 41
-3.7928914266
 42
-3.437805147
  0
ELLIPSE
  5
940
100
AcDbEntity
  8
0
100
AcDbEllipse
 62
7
  6
CONTINUOUS
 10
-3.3896863063
 20
1.2176046736
 30
0.0
 11
0.3535803156
 21
-0.3535803156
 31
0.0
 40
0.9999238505
 41
-0.7853600872
 42
-0.651298773
  0
ELLIPSE
  5
941
100
AcDbEntity
  8
0
100
AcDbEllipse
 62
7
  6
CONTINUOUS
 10
-21.6833466241
 20
36.6045909122
 30
0.0
 11
1.8480888181
 21
-0.7655034529
 31
0.0
 40
0.9998215708
 41
9.032141965
 42
9.2322752141
  0
ELLIPSE
  5
942
100
AcDbEntity
  8
0
100
AcDbEllipse
 62
7
  6
CONTINUOUS
 10
-21.6833466241
 20
36.6045909122
 30
0.0
 11
1.8480888181
 21
-0.7655034529
 31
0.0
 40
0.9998215708
 41
3.4204543746
 42
3.5342286494
  0
ELLIPSE
  5
943
100
AcDbEntity
  8
0
100
AcDbEllipse
 62
7
  6
CONTINUOUS
 10
-21.6833466241
 20
1.3629192918
 30
0.0
 11
-1.8480888181
 21
-0.7655034529
 31
0.0
 40
0.9998215708
 41
-0.3926359958
 42
-0.278861721
  0
ELLIPSE
  5
944
100
AcDbEntity
  8
0
100
AcDbEllipse
 62
7
  6
CONTINUOUS
 10
-21.6833466241
 20
1.3629192918
 30
0.0
 11
-1.8480888181
 21
-0.7655034529
 31
0.0
 40
0.9998215708
 41
6.4756880539
 42
6.675821303
  0
ELLIPSE
  5
945
100
AcDbEntity
  8
0
100
AcDbEllipse
 62
7
  6
CONTINUOUS
 10
-3.6283268453
 20
1.3629192918
 30
0.0
 11
-1.8480888181
 21
0.7655034529
 31
0.0
 40
0.9998215708
 41
2.7489566578
 42
3.5342286494
  0
ELLIPSE
  5
946
100
AcDbEntity
  8
0
100
AcDbEllipse
 62
7
  6
CONTINUOUS
 10
-3.6283268453
 20
36.6045909122
 30
0.0
 11
1.8480888181
 21
0.7655034529
 31
0.0
 40
0.9998215708
 41
-0.3926359958
 42
0.3926359958
  0
ELLIPSE
  5
947
100
AcDbEntity
  8
RACCORDO
100
AcDbEllipse
 62
7
  6
CONTINUOUS
 10
-3.3896863063
 20
1.2176046736
 30
0.0
 11
-0.3535803156
 21
0.3535803156
 31
0.0
 40
0.9999238505
 41
-3.7928914266
 42
-3.437805147
  0
ELLIPSE
  5
948
100
AcDbEntity
  8
RACCORDO
100
AcDbEllipse
 62
7
  6
CONTINUOUS
 10
-3.3896863063
 20
1.2176046736
 30
0.0
 11
0.3535803156
 21
-0.3535803156
 31
0.0
 40
0.9999238505
 41
-0.7853600872
 42
-0.651298773
  0
ELLIPSE
  5
949
100
AcDbEntity
  8
RACCORDO
100
AcDbEllipse
 62
7
  6
CONTINUOUS
 10
-10.8629435159
 20
0.7481296717
 30
0.0
 11
0.5
 21
-0.0
 31
0.0
 40
0.0087268678
 41
0.7853981634
 42
1.1434651843
  0
ELLIPSE
  5
94A
100
AcDbEntity
  8
RACCORDO
100
AcDbEllipse
 62
7
  6
CONTINUOUS
 10
-14.4487299535
 20
0.7481296717
 30
0.0
 11
0.5
 21
0.0
 31
0.0
 40
0.0087268678
 41
1.97725418
 42
2.3561944902
  0
ELLIPSE
  5
94B
100
AcDbEntity
  8
RACCORDO
100
AcDbEllipse
 62
7
  6
CONTINUOUS
 10
-3.5061413908
 20
36.6552017846
 30
0.0
 11
1.8480888181
 21
0.7655034529
 31
0.0
 40
0.9998215708
 41
-0.3926359958
 42
0.3926359958
  0
ELLIPSE
  5
94C
100
AcDbEntity
  8
RACCORDO
100
AcDbEllipse
 62
7
  6
CONTINUOUS
 10
-3.5061413908
 20
1.3123084195
 30
0.0
 11
1.8480888181
 21
-0.7655034529
 31
0.0
 40
0.9998215708
 41
-0.3926359958
 42
0.3926359958
  0
ELLIPSE
  5
94D
100
AcDbEntity
  8
RACCORDO
100
AcDbEllipse
 62
7
  6
CONTINUOUS
 10
-21.8055320786
 20
1.3123084195
 30
0.0
 11
1.8480888181
 21
0.7655034529
 31
0.0
 40
0.9998215708
 41
2.7489566578
 42
3.5342286494
  0
ELLIPSE
  5
94E
100
AcDbEntity
  8
RACCORDO
100
AcDbEllipse
 62
7
  6
CONTINUOUS
 10
-21.8055320786
 20
36.6552017846
 30
0.0
 11
1.8480888181
 21
-0.7655034529
 31
0.0
 40
0.9998215708
 41
2.7489566578
 42
3.5342286494
  0
ELLIPSE
  5
94F
100
AcDbEntity
  8
0
100
AcDbEllipse
 62
7
  6
CONTINUOUS
 10
-14.6557605707
 20
-122.891887334
 30
0.0
 11
-0.4997620717
 21
162.4815824859
 31
0.0
 40
0.000109066
 41
6.3656902426
 42
6.3764914216
  0
ELLIPSE
  5
950
100
AcDbEntity
  8
0
100
AcDbEllipse
 62
7
  6
CONTINUOUS
 10
-14.6557605707
 20
160.8593975381
 30
0.0
 11
0.4997620717
 21
162.4815824859
 31
0.0
 40
0.000109066
 41
-3.234898768
 42
-3.224097589
  0
ELLIPSE
  5
951
100
AcDbEntity
  8
0
100
AcDbEllipse
 62
7
  6
CONTINUOUS
 10
-10.6559128987
 20
-122.891887334
 30
0.0
 11
0.4997620717
 21
162.4815824859
 31
0.0
 40
0.000109066
 41
-0.0933061144
 42
-0.0825049354
  0
ELLIPSE
  5
952
100
AcDbEntity
  8
0
100
AcDbEllipse
 62
7
  6
CONTINUOUS
 10
-10.6559128987
 20
160.8593975381
 30
0.0
 11
-0.4997620717
 21
162.4815824859
 31
0.0
 40
0.000109066
 41
3.224097589
 42
3.234898768
  0
ELLIPSE
  5
953
100
AcDbEntity
  8
RACCORDO
100
AcDbEllipse
 62
7
  6
CONTINUOUS
 10
-3.6283268453
 20
36.6045909122
 30
0.0
 11
1.8480888181
 21
0.7655034529
 31
0.0
 40
0.9998215708
 41
-0.3926359958
 42
0.3926359958
  0
ELLIPSE
  5
954
100
AcDbEntity
  8
RACCORDO
100
AcDbEllipse
 62
7
  6
CONTINUOUS
 10
-3.6283268453
 20
1.3629192918
 30
0.0
 11
-1.8480888181
 21
0.7655034529
 31
0.0
 40
0.9998215708
 41
2.7489566578
 42
3.5342286494
  0
ELLIPSE
  5
955
100
AcDbEntity
  8
RACCORDO
100
AcDbEllipse
 62
7
  6
CONTINUOUS
 10
-21.6833466241
 20
1.3629192918
 30
0.0
 11
-1.8480888181
 21
-0.7655034529
 31
0.0
 40
0.9998215708
 41
-0.3926359958
 42
-0.278861721
  0
ELLIPSE
  5
956
100
AcDbEntity
  8
RACCORDO
100
AcDbEllipse
 62
7
  6
CONTINUOUS
 10
-21.6833466241
 20
1.3629192918
 30
0.0
 11
-1.8480888181
 21
-0.7655034529
 31
0.0
 40
0.9998215708
 41
6.4756880539
 42
6.675821303
  0
ELLIPSE
  5
957
100
AcDbEntity
  8
RACCORDO
100
AcDbEllipse
 62
7
  6
CONTINUOUS
 10
-21.6833466241
 20
36.6045909122
 30
0.0
 11
1.8480888181
 21
-0.7655034529
 31
0.0
 40
0.9998215708
 41
9.032141965
 42
9.2322752141
  0
ELLIPSE
  5
958
100
AcDbEntity
  8
RACCORDO
100
AcDbEllipse
 62
7
  6
CONTINUOUS
 10
-21.6833466241
 20
36.6045909122
 30
0.0
 11
1.8480888181
 21
-0.7655034529
 31
0.0
 40
0.9998215708
 41
3.4204543746
 42
3.5342286494
  0
ELLIPSE
  5
959
100
AcDbEntity
  8
RACCORDO
100
AcDbEllipse
 62
7
  6
CONTINUOUS
 10
-15.1558367347
 20
39.0282621278
 30
0.0
 11
1.0
 21
0.0
 31
0.0
 40
0.0087268678
 41
1.5707963268
 42
3.1415926536
  0
ELLIPSE
  5
95A
100
AcDbEntity
  8
RACCORDO
100
AcDbEllipse
 62
7
  6
CONTINUOUS
 10
-15.1558367347
 20
-3.3097690019
 30
0.0
 11
1.0
 21
-0.0
 31
0.0
 40
0.0174550649
 41
2.18440365
 42
3.1415926536
  0
ELLIPSE
  5
95B
100
AcDbEntity
  8
RACCORDO
100
AcDbEllipse
 62
7
  6
CONTINUOUS
 10
-10.1558367347
 20
41.277279206
 30
0.0
 11
1.0
 21
0.0
 31
0.0
 40
0.0174550649
 41
-0.9571890036
 42
0.0
  0
ELLIPSE
  5
95C
100
AcDbEntity
  8
RACCORDO
100
AcDbEllipse
 62
7
  6
CONTINUOUS
 10
-10.1558367347
 20
39.0282621278
 30
0.0
 11
1.0
 21
0.0
 31
0.0
 40
0.0087268678
 41
0.0
 42
1.5707963268
  0
ELLIPSE
  5
95D
100
AcDbEntity
  8
RACCORDO
100
AcDbEllipse
 62
7
  6
CONTINUOUS
 10
-15.1558367347
 20
41.277279206
 30
0.0
 11
1.0
 21
-0.0
 31
0.0
 40
0.0174550649
 41
3.1415926536
 42
4.0987816572
  0
ELLIPSE
  5
95E
100
AcDbEntity
  8
RACCORDO
100
AcDbEllipse
 62
7
  6
CONTINUOUS
 10
-15.1558367347
 20
-1.0607519237
 30
0.0
 11
1.0
 21
0.0
 31
0.0
 40
0.0087268678
 41
-3.1415926536
 42
-1.5707963268
  0
ELLIPSE
  5
95F
100
AcDbEntity
  8
RACCORDO
100
AcDbEllipse
 62
7
  6
CONTINUOUS
 10
-10.1558367347
 20
-1.0607519237
 30
0.0
 11
1.0
 21
0.0
 31
0.0
 40
0.0087268678
 41
-1.5707963268
 42
-0.0
  0
ELLIPSE
  5
960
100
AcDbEntity
  8
RACCORDO
100
AcDbEllipse
 62
7
  6
CONTINUOUS
 10
-10.1558367347
 20
-3.3097690019
 30
0.0
 11
1.0
 21
0.0
 31
0.0
 40
0.0174550649
 41
-0.0
 42
0.9571890036
  0
ELLIPSE
  5
961
100
AcDbEntity
  8
ASSI
100
AcDbEllipse
 62
7
  6
CONTINUOUS
 10
-12.6558367347
 20
39.1661466389
 30
0.0
 11
15.0
 21
-0.0
 31
0.0
 40
0.0087268678
 41
-1.7342776332
 42
-1.4073150204
  0
ELLIPSE
  5
962
100
AcDbEntity
  8
ASSI
100
AcDbEllipse
 62
7
  6
CONTINUOUS
 10
-12.6558367347
 20
-1.1986364348
 30
0.0
 11
15.0
 21
0.0
 31
0.0
 40
0.0087268678
 41
1.4073150204
 42
1.7342776332
  0
ELLIPSE
  5
963
100
AcDbEntity
  8
ASSI
100
AcDbEllipse
 62
7
  6
CONTINUOUS
 10
-2.0733679636
 20
40.8662238731
 30
0.0
 11
0.3536610946
 21
0.3536610946
 31
0.0
 40
0.9996954599
 41
-0.7852458701
 42
0.7852458701
  0
ELLIPSE
  5
964
100
AcDbEntity
  8
RACCORDO
100
AcDbEllipse
 62
7
  6
CONTINUOUS
 10
-8.9058367347
 20
42.7162619551
 30
0.0
 11
0.0
 21
0.250038082
 31
0.0
 40
0.9998476952
 41
0.0
 42
1.5707963268
  0
ELLIPSE
  5
965
100
AcDbEntity
  8
RACCORDO
100
AcDbEllipse
 62
7
  6
CONTINUOUS
 10
-16.4058367347
 20
-4.748751751
 30
0.0
 11
0.0
 21
0.250038082
 31
0.0
 40
0.9998476952
 41
-3.1415926536
 42
-1.5707963268
  0
ELLIPSE
  5
966
100
AcDbEntity
  8
ASSI
100
AcDbEllipse
 62
7
  6
CONTINUOUS
 10
-8.6098813953
 20
-4.216244898
 30
0.0
 11
0.4595995956
 21
-0.0
 31
0.0
 40
0.9949884474
 41
-0.8362648721
 42
-0.4967770086
  0
ELLIPSE
  5
967
100
AcDbEntity
  8
ASSI
100
AcDbEllipse
 62
7
  6
CONTINUOUS
 10
-8.6098813953
 20
42.183755102
 30
0.0
 11
0.4595995956
 21
0.0
 31
0.0
 40
0.9949884474
 41
-0.8362648721
 42
-0.4967770086
  0
ELLIPSE
  5
968
100
AcDbEntity
  8
ASSI
100
AcDbEllipse
 62
7
  6
CONTINUOUS
 10
-3.6189661154
 20
-4.5719073307
 30
0.0
 11
0.25
 21
-0.0
 31
0.0
 40
0.5773502692
 41
-0.5235987756
 42
-0.0174532925
  0
ELLIPSE
  5
969
100
AcDbEntity
  8
ASSI
100
AcDbEllipse
 62
7
  6
CONTINUOUS
 10
-21.4189661154
 20
-4.5719073307
 30
0.0
 11
0.25
 21
0.0
 31
0.0
 40
0.5773502692
 41
-0.5235987756
 42
-0.0174532925
  0
ELLIPSE
  5
96A
100
AcDbEntity
  8
ASSI
100
AcDbEllipse
 62
7
  6
CONTINUOUS
 10
-21.692707354
 20
42.5394175347
 30
0.0
 11
0.25
 21
-0.0
 31
0.0
 40
0.5773502692
 41
2.617993878
 42
3.1241393611
  0
ELLIPSE
  5
96B
100
AcDbEntity
  8
ASSI
100
AcDbEllipse
 62
7
  6
CONTINUOUS
 10
-3.892707354
 20
42.5394175347
 30
0.0
 11
0.25
 21
-0.0
 31
0.0
 40
0.5773502692
 41
2.617993878
 42
3.1241393611
  0
ELLIPSE
  5
96C
100
AcDbEntity
  8
ASSI
100
AcDbEllipse
 62
7
  6
CONTINUOUS
 10
-23.2383055057
 20
-2.898713669
 30
0.0
 11
-0.3536610946
 21
-0.3536610946
 31
0.0
 40
0.9996954599
 41
-0.7852458701
 42
0.7852458701
  0
ELLIPSE
  5
96D
100
AcDbEntity
  8
RACCORDO
100
AcDbEllipse
 62
7
  6
CONTINUOUS
 10
-16.4058367347
 20
42.7162619551
 30
0.0
 11
0.0
 21
0.250038082
 31
0.0
 40
0.9998476952
 41
-1.5707963268
 42
0.0
  0
ELLIPSE
  5
96E
100
AcDbEntity
  8
ASSI
100
AcDbEllipse
 62
7
  6
CONTINUOUS
 10
-23.2383055057
 20
40.8662238731
 30
0.0
 11
0.3536610946
 21
-0.3536610946
 31
0.0
 40
0.9996954599
 41
2.3563467834
 42
3.9268385237
  0
ELLIPSE
  5
96F
100
AcDbEntity
  8
RACCORDO
100
AcDbEllipse
 62
7
  6
CONTINUOUS
 10
-11.5883435878
 20
-4.748751751
 30
0.0
 11
0.1768305473
 21
0.1768305473
 31
0.0
 40
0.9996954599
 41
2.3563467834
 42
3.9268385237
  0
ELLIPSE
  5
970
100
AcDbEntity
  8
RACCORDO
100
AcDbEllipse
 62
7
  6
CONTINUOUS
 10
-8.9058367347
 20
-4.748751751
 30
0.0
 11
0.0
 21
0.250038082
 31
0.0
 40
0.9998476952
 41
-4.7123889804
 42
-3.1415926536
  0
ELLIPSE
  5
971
100
AcDbEntity
  8
RACCORDO
100
AcDbEllipse
 62
7
  6
CONTINUOUS
 10
-8.7295136514
 20
-3.3189560055
 30
0.0
 11
0.4263230833
 21
0.0
 31
0.0
 40
0.0174550649
 41
0.0174532925
 42
3.1415926536
  0
ELLIPSE
  5
972
100
AcDbEntity
  8
RACCORDO
100
AcDbEllipse
 62
7
  6
CONTINUOUS
 10
-8.7295136514
 20
41.2864662096
 30
0.0
 11
0.4263230833
 21
0.0
 31
0.0
 40
0.0174550649
 41
-3.1415926536
 42
-0.0174532925
  0
ELLIPSE
  5
973
100
AcDbEntity
  8
RACCORDO
100
AcDbEllipse
 62
7
  6
CONTINUOUS
 10
-13.7233298816
 20
-4.748751751
 30
0.0
 11
0.1768305473
 21
-0.1768305473
 31
0.0
 40
0.9996954599
 41
-0.7852458701
 42
0.7852458701
  0
ELLIPSE
  5
974
100
AcDbEntity
  8
RACCORDO
100
AcDbEllipse
 62
7
  6
CONTINUOUS
 10
-13.7233298816
 20
42.7162619551
 30
0.0
 11
-0.1768305473
 21
-0.1768305473
 31
0.0
 40
0.9996954599
 41
2.3563467834
 42
3.9268385237
  0
ELLIPSE
  5
975
100
AcDbEntity
  8
ASSI
100
AcDbEllipse
 62
7
  6
CONTINUOUS
 10
-16.7017920741
 20
-4.216244898
 30
0.0
 11
0.4595995956
 21
0.0
 31
0.0
 40
0.9949884474
 41
-2.644815645
 42
-2.3053277814
  0
ELLIPSE
  5
976
100
AcDbEntity
  8
ASSI
100
AcDbEllipse
 62
7
  6
CONTINUOUS
 10
-16.7017920741
 20
-4.216244898
 30
0.0
 11
0.4595995956
 21
0.0
 31
0.0
 40
0.9949884474
 41
2.3053277814
 42
2.644815645
  0
ELLIPSE
  5
977
100
AcDbEntity
  8
ASSI
100
AcDbEllipse
 62
7
  6
CONTINUOUS
 10
-16.7017920741
 20
42.183755102
 30
0.0
 11
0.4595995956
 21
0.0
 31
0.0
 40
0.9949884474
 41
-2.644815645
 42
-2.3053277814
  0
ELLIPSE
  5
978
100
AcDbEntity
  8
ASSI
100
AcDbEllipse
 62
7
  6
CONTINUOUS
 10
-16.7017920741
 20
42.183755102
 30
0.0
 11
0.4595995956
 21
-0.0
 31
0.0
 40
0.9949884474
 41
2.3053277814
 42
2.644815645
  0
ELLIPSE
  5
979
100
AcDbEntity
  8
RACCORDO
100
AcDbEllipse
 62
7
  6
CONTINUOUS
 10
-16.582159818
 20
-3.3189560055
 30
0.0
 11
0.4263230833
 21
0.0
 31
0.0
 40
0.0174550649
 41
0.0
 42
3.1241393611
  0
ELLIPSE
  5
97A
100
AcDbEntity
  8
RACCORDO
100
AcDbEllipse
 62
7
  6
CONTINUOUS
 10
-16.582159818
 20
41.2864662096
 30
0.0
 11
0.4263230833
 21
0.0
 31
0.0
 40
0.0174550649
 41
-3.1241393611
 42
-0.0
  0
ELLIPSE
  5
97B
100
AcDbEntity
  8
RACCORDO
100
AcDbEllipse
 62
7
  6
CONTINUOUS
 10
-11.5883435878
 20
42.7162619551
 30
0.0
 11
-0.1768305473
 21
0.1768305473
 31
0.0
 40
0.9996954599
 41
-0.7852458701
 42
0.7852458701
  0
ELLIPSE
  5
97C
100
AcDbEntity
  8
ASSI
100
AcDbEllipse
 62
7
  6
CONTINUOUS
 10
-2.0733679636
 20
-2.898713669
 30
0.0
 11
-0.3536610946
 21
0.3536610946
 31
0.0
 40
0.9996954599
 41
2.3563467834
 42
3.9268385237
  0
ELLIPSE
  5
97D
100
AcDbEntity
  8
ASSI
100
AcDbEllipse
 62
7
  6
CONTINUOUS
 10
-4.580387384
 20
40.2090521247
 30
0.0
 11
0.0
 21
1.0
 31
0.0
 40
0.0174550649
 41
1.3378837631
 42
1.5707963268
  0
ELLIPSE
  5
97E
100
AcDbEntity
  8
ASSI
100
AcDbEllipse
 62
7
  6
CONTINUOUS
 10
-20.7312860854
 20
40.2090521247
 30
0.0
 11
0.0
 21
1.0
 31
0.0
 40
0.0174550649
 41
-1.5707963268
 42
-1.3378837631
  0
ELLIPSE
  5
97F
100
AcDbEntity
  8
ASSI
100
AcDbEllipse
 62
7
  6
CONTINUOUS
 10
-20.7312860854
 20
-2.2415419206
 30
0.0
 11
-0.0
 21
1.0
 31
0.0
 40
0.0174550649
 41
-1.8037088905
 42
-1.5707963268
  0
ELLIPSE
  5
980
100
AcDbEntity
  8
ASSI
100
AcDbEllipse
 62
7
  6
CONTINUOUS
 10
-4.580387384
 20
-2.2415419206
 30
0.0
 11
0.0
 21
1.0
 31
0.0
 40
0.0174550649
 41
-4.7123889804
 42
-4.4794764167
  0
ELLIPSE
  5
981
100
AcDbEntity
  8
ASSI
100
AcDbEllipse
 62
7
  6
CONTINUOUS
 10
-20.9571231642
 20
-2.2415419206
 30
0.0
 11
1.0000571192
 21
-0.9999809595
 31
0.0
 40
0.0061705924
 41
0.0112823085
 42
1.3317127791
  0
ELLIPSE
  5
982
100
AcDbEntity
  8
ASSI
100
AcDbEllipse
 62
7
  6
CONTINUOUS
 10
-4.3545503052
 20
-2.2415419206
 30
0.0
 11
1.0000571192
 21
0.9999809595
 31
0.0
 40
0.0061705924
 41
1.8098798745
 42
3.1303103451
  0
ELLIPSE
  5
983
100
AcDbEntity
  8
ASSI
100
AcDbEllipse
 62
7
  6
CONTINUOUS
 10
-20.9571231642
 20
40.2090521247
 30
0.0
 11
1.0000571192
 21
0.9999809595
 31
0.0
 40
0.0061705924
 41
-1.3317127791
 42
-0.0112823085
  0
ELLIPSE
  5
984
100
AcDbEntity
  8
ASSI
100
AcDbEllipse
 62
7
  6
CONTINUOUS
 10
-4.3545503052
 20
40.2090521247
 30
0.0
 11
1.0000571192
 21
-0.9999809595
 31
0.0
 40
0.0061705924
 41
-3.1303103451
 42
-1.8098798745
  0
ELLIPSE
  5
985
100
AcDbEntity
  8
ASSI
100
AcDbEllipse
 62
7
  6
CONTINUOUS
 10
-21.692707354
 20
-4.5719073307
 30
0.0
 11
0.25
 21
-0.0
 31
0.0
 40
0.5773502692
 41
-3.1241393611
 42
-2.617993878
  0
ELLIPSE
  5
986
100
AcDbEntity
  8
ASSI
100
AcDbEllipse
 62
7
  6
CONTINUOUS
 10
-21.692707354
 20
-3.4031535993
 30
0.0
 11
0.25
 21
-0.0
 31
0.0
 40
0.0174550649
 41
1.5707963268
 42
3.1241393611
  0
ELLIPSE
  5
987
100
AcDbEntity
  8
ASSI
100
AcDbEllipse
 62
7
  6
CONTINUOUS
 10
-21.4189661154
 20
-3.4031535993
 30
0.0
 11
0.25
 21
-0.0
 31
0.0
 40
0.0174550649
 41
0.0174532925
 42
1.5707963268
  0
ELLIPSE
  5
988
100
AcDbEntity
  8
ASSI
100
AcDbEllipse
 62
7
  6
CONTINUOUS
 10
-3.6189661154
 20
-3.4031535993
 30
0.0
 11
0.25
 21
-0.0
 31
0.0
 40
0.0174550649
 41
0.0174532925
 42
1.5707963268
  0
ELLIPSE
  5
989
100
AcDbEntity
  8
ASSI
100
AcDbEllipse
 62
7
  6
CONTINUOUS
 10
-3.892707354
 20
-4.5719073307
 30
0.0
 11
0.25
 21
-0.0
 31
0.0
 40
0.5773502692
 41
-3.1241393611
 42
-2.617993878
  0
ELLIPSE
  5
98A
100
AcDbEntity
  8
ASSI
100
AcDbEllipse
 62
7
  6
CONTINUOUS
 10
-3.892707354
 20
-3.4031535993
 30
0.0
 11
0.25
 21
0.0
 31
0.0
 40
0.0174550649
 41
1.5707963268
 42
3.1241393611
  0
ELLIPSE
  5
98B
100
AcDbEntity
  8
ASSI
100
AcDbEllipse
 62
7
  6
CONTINUOUS
 10
-21.692707354
 20
41.3706638033
 30
0.0
 11
0.25
 21
0.0
 31
0.0
 40
0.0174550649
 41
-3.1241393611
 42
-1.5707963268
  0
ELLIPSE
  5
98C
100
AcDbEntity
  8
ASSI
100
AcDbEllipse
 62
7
  6
CONTINUOUS
 10
-21.4189661154
 20
42.5394175347
 30
0.0
 11
0.25
 21
0.0
 31
0.0
 40
0.5773502692
 41
0.0174532925
 42
0.5235987756
  0
ELLIPSE
  5
98D
100
AcDbEntity
  8
ASSI
100
AcDbEllipse
 62
7
  6
CONTINUOUS
 10
-21.4189661154
 20
41.3706638033
 30
0.0
 11
0.25
 21
-0.0
 31
0.0
 40
0.0174550649
 41
-1.5707963268
 42
-0.0174532925
  0
ELLIPSE
  5
98E
100
AcDbEntity
  8
ASSI
100
AcDbEllipse
 62
7
  6
CONTINUOUS
 10
-5.2558062691
 20
42.3373449405
 30
0.0
 11
0.0069796346
 21
0.2308610084
 31
0.0
 40
0.8659264732
 41
-4.6774890306
 42
-3.1154190256
  0
ELLIPSE
  5
98F
100
AcDbEntity
  8
ASSI
100
AcDbEllipse
 62
7
  6
CONTINUOUS
 10
-3.892707354
 20
41.3706638033
 30
0.0
 11
0.25
 21
0.0
 31
0.0
 40
0.0174550649
 41
-3.1241393611
 42
-1.5707963268
  0
ELLIPSE
  5
990
100
AcDbEntity
  8
ASSI
100
AcDbEllipse
 62
7
  6
CONTINUOUS
 10
-3.6189661154
 20
42.5394175347
 30
0.0
 11
0.25
 21
-0.0
 31
0.0
 40
0.5773502692
 41
0.0174532925
 42
0.5235987756
  0
ELLIPSE
  5
991
100
AcDbEntity
  8
ASSI
100
AcDbEllipse
 62
7
  6
CONTINUOUS
 10
-3.6189661154
 20
41.3706638033
 30
0.0
 11
0.25
 21
-0.0
 31
0.0
 40
0.0174550649
 41
-1.5707963268
 42
-0.0174532925
  0
ELLIPSE
  5
992
100
AcDbEntity
  8
ASSI
100
AcDbEllipse
 62
7
  6
CONTINUOUS
 10
-2.2558672003
 20
-4.3698347364
 30
0.0
 11
0.0069796346
 21
0.2308610084
 31
0.0
 40
0.8659264732
 41
-1.535896377
 42
0.026173628
  0
ELLIPSE
  5
993
100
AcDbEntity
  8
ASSI
100
AcDbEllipse
 62
7
  6
CONTINUOUS
 10
-5.2558062691
 20
-4.3698347364
 30
0.0
 11
-0.0069796346
 21
0.2308610084
 31
0.0
 40
0.8659264732
 41
-0.026173628
 42
1.535896377
  0
ELLIPSE
  5
994
100
AcDbEntity
  8
ASSI
100
AcDbEllipse
 62
7
  6
CONTINUOUS
 10
-23.0558062691
 20
42.3373449405
 30
0.0
 11
0.0069796346
 21
0.2308610084
 31
0.0
 40
0.8659264732
 41
-4.6774890306
 42
-3.1154190256
  0
ELLIPSE
  5
995
100
AcDbEntity
  8
ASSI
100
AcDbEllipse
 62
7
  6
CONTINUOUS
 10
-20.0558672003
 20
-4.3698347364
 30
0.0
 11
0.0069796346
 21
0.2308610084
 31
0.0
 40
0.8659264732
 41
-1.535896377
 42
0.026173628
  0
ELLIPSE
  5
996
100
AcDbEntity
  8
ASSI
100
AcDbEllipse
 62
7
  6
CONTINUOUS
 10
-20.0558672003
 20
42.3373449405
 30
0.0
 11
-0.0069796346
 21
0.2308610084
 31
0.0
 40
0.8659264732
 41
-3.1677662815
 42
-1.6056962766
  0
ELLIPSE
  5
997
100
AcDbEntity
  8
ASSI
100
AcDbEllipse
 62
7
  6
CONTINUOUS
 10
-23.0558062691
 20
-4.3698347364
 30
0.0
 11
-0.0069796346
 21
0.2308610084
 31
0.0
 40
0.8659264732
 41
-0.026173628
 42
1.535896377
  0
ELLIPSE
  5
998
100
AcDbEntity
  8
ASSI
100
AcDbEllipse
 62
7
  6
CONTINUOUS
 10
-2.2558672003
 20
42.3373449405
 30
0.0
 11
-0.0069796346
 21
0.2308610084
 31
0.0
 40
0.8659264732
 41
-3.1677662815
 42
-1.6056962766
  0
ELLIPSE
  5
999
100
AcDbEntity
  8
RACCORDO
100
AcDbEllipse
 62
7
  6
CONTINUOUS
 10
-10.9732588475
 20
36.583755102
 30
0.0
 11
-0.3000114235
 21
0.0
 31
0.0
 40
0.9999619231
 41
1.5707963268
 42
2.80137059
  0
ELLIPSE
  5
99A
100
AcDbEntity
  8
RACCORDO
100
AcDbEllipse
 62
7
  6
CONTINUOUS
 10
-1.9427578565
 20
22.433755102
 30
0.0
 11
-0.3000114235
 21
0.0
 31
0.0
 40
0.9999619231
 41
1.5707963268
 42
3.1415926536
  0
ELLIPSE
  5
99B
100
AcDbEntity
  8
RACCORDO
100
AcDbEllipse
 62
7
  6
CONTINUOUS
 10
-1.9427578565
 20
17.433755102
 30
0.0
 11
-0.3000114235
 21
0.0
 31
0.0
 40
0.9999619231
 41
1.5707963268
 42
3.1415926536
  0
ELLIPSE
  5
99C
100
AcDbEntity
  8
RACCORDO
100
AcDbEllipse
 62
7
  6
CONTINUOUS
 10
-1.9427578565
 20
12.433755102
 30
0.0
 11
-0.3000114235
 21
0.0
 31
0.0
 40
0.9999619231
 41
1.5707963268
 42
3.1415926536
  0
ELLIPSE
  5
99D
100
AcDbEntity
  8
RACCORDO
100
AcDbEllipse
 62
7
  6
CONTINUOUS
 10
-1.9427578565
 20
7.433755102
 30
0.0
 11
-0.3000114235
 21
0.0
 31
0.0
 40
0.9999619231
 41
1.5707963268
 42
3.1415926536
  0
ELLIPSE
  5
99E
100
AcDbEntity
  8
DRAFT
100
AcDbEllipse
 62
7
  6
CONTINUOUS
 10
-2.8143841127
 20
19.983755102
 30
0.0
 11
0.0
 21
2.15
 31
0.0
 40
0.0087268678
 41
3.1415926536
 42
6.2831853072
  0
ELLIPSE
  5
99F
100
AcDbEntity
  8
DRAFT
100
AcDbEllipse
 62
7
  6
CONTINUOUS
 10
-2.8143841127
 20
4.983755102
 30
0.0
 11
0.0
 21
2.15
 31
0.0
 40
0.0087268678
 41
3.1415926536
 42
6.2831853072
  0
ELLIPSE
  5
9A0
100
AcDbEntity
  8
RACCORDO
100
AcDbEllipse
 62
7
  6
CONTINUOUS
 10
-8.9427578565
 20
-0.3293237761
 30
0.0
 11
-0.2121481893
 21
0.2121481893
 31
0.0
 40
0.9999238505
 41
2.3562325664
 42
3.9269527408
  0
ELLIPSE
  5
9A1
100
AcDbEntity
  8
RACCORDO
100
AcDbEllipse
 62
7
  6
CONTINUOUS
 10
-22.0470295802
 20
0.3707028787
 30
0.0
 11
-0.3827005044
 21
-0.9239207481
 31
0.0
 40
0.9999553905
 41
-0.3926833098
 42
0.3926833098
  0
ELLIPSE
  5
9A2
100
AcDbEntity
  8
RACCORDO
100
AcDbEllipse
 62
7
  6
CONTINUOUS
 10
-22.668888958
 20
0.9925622565
 30
0.0
 11
-0.9239207481
 21
-0.3827005044
 31
0.0
 40
0.9999553905
 41
-0.3926833098
 42
0.3926833098
  0
ELLIPSE
  5
9A3
100
AcDbEntity
  8
RACCORDO
100
AcDbEllipse
 62
7
  6
CONTINUOUS
 10
-22.668888958
 20
36.9749479476
 30
0.0
 11
-0.9239207481
 21
0.3827005044
 31
0.0
 40
0.9999553905
 41
-0.3926833098
 42
0.3926833098
  0
ELLIPSE
  5
9A4
100
AcDbEntity
  8
RACCORDO
100
AcDbEllipse
 62
7
  6
CONTINUOUS
 10
-22.0470295802
 20
37.5968073253
 30
0.0
 11
0.3827005044
 21
-0.9239207481
 31
0.0
 40
0.9999553905
 41
2.7489093438
 42
3.5342759634
  0
ELLIPSE
  5
9A5
100
AcDbEntity
  8
RACCORDO
100
AcDbEllipse
 62
7
  6
CONTINUOUS
 10
-8.9427578565
 20
38.2968339802
 30
0.0
 11
0.2121481893
 21
0.2121481893
 31
0.0
 40
0.9999238505
 41
-0.7853600872
 42
0.7853600872
  0
ELLIPSE
  5
9A6
100
AcDbEntity
  8
RACCORDO
100
AcDbEllipse
 62
7
  6
CONTINUOUS
 10
-3.2646438892
 20
36.1968073253
 30
0.0
 11
0.3827005044
 21
0.9239207481
 31
0.0
 40
0.9999553905
 41
-0.3926833098
 42
0.3926833098
  0
ELLIPSE
  5
9A7
100
AcDbEntity
  8
RACCORDO
100
AcDbEllipse
 62
7
  6
CONTINUOUS
 10
-2.6427845114
 20
35.5749479476
 30
0.0
 11
-0.9239207481
 21
-0.3827005044
 31
0.0
 40
0.9999553905
 41
2.7489093438
 42
3.5342759634
  0
ELLIPSE
  5
9A8
100
AcDbEntity
  8
DRAFT
100
AcDbEllipse
 62
7
  6
CONTINUOUS
 10
-2.8143841127
 20
9.983755102
 30
0.0
 11
0.0
 21
2.15
 31
0.0
 40
0.0087268678
 41
3.1415926536
 42
6.2831853072
  0
ELLIPSE
  5
9A9
100
AcDbEntity
  8
RACCORDO
100
AcDbEllipse
 62
7
  6
CONTINUOUS
 10
-1.9427578565
 20
17.533755102
 30
0.0
 11
0.3000114235
 21
-0.0
 31
0.0
 40
0.9999619231
 41
0.0
 42
1.5707963268
  0
ELLIPSE
  5
9AA
100
AcDbEntity
  8
DRAFT
100
AcDbEllipse
 62
7
  6
CONTINUOUS
 10
-2.8143841127
 20
14.983755102
 30
0.0
 11
0.0
 21
2.15
 31
0.0
 40
0.0087268678
 41
3.1415926536
 42
6.2831853072
  0
ELLIPSE
  5
9AB
100
AcDbEntity
  8
RACCORDO
100
AcDbEllipse
 62
7
  6
CONTINUOUS
 10
-1.9427578565
 20
12.533755102
 30
0.0
 11
0.3000114235
 21
-0.0
 31
0.0
 40
0.9999619231
 41
0.0
 42
1.5707963268
  0
ELLIPSE
  5
9AC
100
AcDbEntity
  8
RACCORDO
100
AcDbEllipse
 62
7
  6
CONTINUOUS
 10
-1.9427578565
 20
7.533755102
 30
0.0
 11
0.3000114235
 21
-0.0
 31
0.0
 40
0.9999619231
 41
0.0
 42
1.5707963268
  0
ELLIPSE
  5
9AD
100
AcDbEntity
  8
RACCORDO
100
AcDbEllipse
 62
7
  6
CONTINUOUS
 10
-1.9427578565
 20
2.533755102
 30
0.0
 11
0.3000114235
 21
-0.0
 31
0.0
 40
0.9999619231
 41
0.0
 42
1.5707963268
  0
ELLIPSE
  5
9AE
100
AcDbEntity
  8
RACCORDO
100
AcDbEllipse
 62
7
  6
CONTINUOUS
 10
-2.6427845114
 20
2.3925622565
 30
0.0
 11
0.9239207481
 21
-0.3827005044
 31
0.0
 40
0.9999553905
 41
-0.3926833098
 42
0.3926833098
  0
ELLIPSE
  5
9AF
100
AcDbEntity
  8
RACCORDO
100
AcDbEllipse
 62
7
  6
CONTINUOUS
 10
-3.2646438892
 20
1.7707028787
 30
0.0
 11
0.3827005044
 21
-0.9239207481
 31
0.0
 40
0.9999553905
 41
-0.3926833098
 42
0.3926833098
  0
ELLIPSE
  5
9B0
100
AcDbEntity
  8
RACCORDO
100
AcDbEllipse
 62
7
  6
CONTINUOUS
 10
-8.3427350095
 20
0.4706533768
 30
0.0
 11
0.2121481893
 21
-0.2121481893
 31
0.0
 40
0.9999238505
 41
2.3562325664
 42
3.9269527408
  0
ELLIPSE
  5
9B1
100
AcDbEntity
  8
RACCORDO
100
AcDbEllipse
 62
7
  6
CONTINUOUS
 10
-14.3384146219
 20
36.583755102
 30
0.0
 11
-0.3000114235
 21
0.0
 31
0.0
 40
0.9999619231
 41
0.3402220636
 42
1.5707963268
  0
ELLIPSE
  5
9B2
100
AcDbEntity
  8
RACCORDO
100
AcDbEllipse
 62
7
  6
CONTINUOUS
 10
-14.2598297655
 20
1.383755102
 30
0.0
 11
0.3000114235
 21
-0.0
 31
0.0
 40
0.9999619231
 41
1.5707963268
 42
2.80137059
  0
ELLIPSE
  5
9B3
100
AcDbEntity
  8
RACCORDO
100
AcDbEllipse
 62
7
  6
CONTINUOUS
 10
-11.0518437039
 20
1.383755102
 30
0.0
 11
0.3000114235
 21
-0.0
 31
0.0
 40
0.9999619231
 41
0.3402220636
 42
1.5707963268
  0
ELLIPSE
  5
9B4
100
AcDbEntity
  8
ASSI
100
AcDbEllipse
 62
7
  6
CONTINUOUS
 10
-8.9427578565
 20
-0.3293237761
 30
0.0
 11
-0.2121481893
 21
0.2121481893
 31
0.0
 40
0.9999238505
 41
2.3562325664
 42
3.9269527408
  0
ELLIPSE
  5
9B5
100
AcDbEntity
  8
ASSI
100
AcDbEllipse
 62
7
  6
CONTINUOUS
 10
-22.0470295802
 20
0.3707028787
 30
0.0
 11
-0.3827005044
 21
-0.9239207481
 31
0.0
 40
0.9999553905
 41
-0.3926833098
 42
0.3926833098
  0
ELLIPSE
  5
9B6
100
AcDbEntity
  8
ASSI
100
AcDbEllipse
 62
7
  6
CONTINUOUS
 10
-22.668888958
 20
0.9925622565
 30
0.0
 11
-0.9239207481
 21
-0.3827005044
 31
0.0
 40
0.9999553905
 41
-0.3926833098
 42
0.3926833098
  0
ELLIPSE
  5
9B7
100
AcDbEntity
  8
ASSI
100
AcDbEllipse
 62
7
  6
CONTINUOUS
 10
-22.668888958
 20
36.9749479476
 30
0.0
 11
-0.9239207481
 21
0.3827005044
 31
0.0
 40
0.9999553905
 41
-0.3926833098
 42
0.3926833098
  0
ELLIPSE
  5
9B8
100
AcDbEntity
  8
ASSI
100
AcDbEllipse
 62
7
  6
CONTINUOUS
 10
-22.0470295802
 20
37.5968073253
 30
0.0
 11
0.3827005044
 21
-0.9239207481
 31
0.0
 40
0.9999553905
 41
2.7489093438
 42
3.5342759634
  0
ELLIPSE
  5
9B9
100
AcDbEntity
  8
ASSI
100
AcDbEllipse
 62
7
  6
CONTINUOUS
 10
-8.9427578565
 20
38.2968339802
 30
0.0
 11
0.2121481893
 21
0.2121481893
 31
0.0
 40
0.9999238505
 41
-0.7853600872
 42
0.7853600872
  0
ELLIPSE
  5
9BA
100
AcDbEntity
  8
ASSI
100
AcDbEllipse
 62
7
  6
CONTINUOUS
 10
-3.2646438892
 20
36.1968073253
 30
0.0
 11
0.3827005044
 21
0.9239207481
 31
0.0
 40
0.9999553905
 41
-0.3926833098
 42
0.3926833098
  0
ELLIPSE
  5
9BB
100
AcDbEntity
  8
ASSI
100
AcDbEllipse
 62
7
  6
CONTINUOUS
 10
-2.6427845114
 20
35.5749479476
 30
0.0
 11
-0.9239207481
 21
-0.3827005044
 31
0.0
 40
0.9999553905
 41
2.7489093438
 42
3.5342759634
  0
ELLIPSE
  5
9BC
100
AcDbEntity
  8
ASSI
100
AcDbEllipse
 62
7
  6
CONTINUOUS
 10
-1.9427578565
 20
17.533755102
 30
0.0
 11
0.3000114235
 21
-0.0
 31
0.0
 40
0.9999619231
 41
0.0
 42
1.5707963268
  0
ELLIPSE
  5
9BD
100
AcDbEntity
  8
ASSI
100
AcDbEllipse
 62
7
  6
CONTINUOUS
 10
-1.9427578565
 20
12.533755102
 30
0.0
 11
0.3000114235
 21
-0.0
 31
0.0
 40
0.9999619231
 41
0.0
 42
1.5707963268
  0
ELLIPSE
  5
9BE
100
AcDbEntity
  8
ASSI
100
AcDbEllipse
 62
7
  6
CONTINUOUS
 10
-1.9427578565
 20
7.533755102
 30
0.0
 11
0.3000114235
 21
-0.0
 31
0.0
 40
0.9999619231
 41
0.0
 42
1.5707963268
  0
ELLIPSE
  5
9BF
100
AcDbEntity
  8
ASSI
100
AcDbEllipse
 62
7
  6
CONTINUOUS
 10
-1.9427578565
 20
2.533755102
 30
0.0
 11
0.3000114235
 21
-0.0
 31
0.0
 40
0.9999619231
 41
0.0
 42
1.5707963268
  0
ELLIPSE
  5
9C0
100
AcDbEntity
  8
ASSI
100
AcDbEllipse
 62
7
  6
CONTINUOUS
 10
-2.6427845114
 20
2.3925622565
 30
0.0
 11
0.9239207481
 21
-0.3827005044
 31
0.0
 40
0.9999553905
 41
-0.3926833098
 42
0.3926833098
  0
ELLIPSE
  5
9C1
100
AcDbEntity
  8
ASSI
100
AcDbEllipse
 62
7
  6
CONTINUOUS
 10
-3.2646438892
 20
1.7707028787
 30
0.0
 11
0.3827005044
 21
-0.9239207481
 31
0.0
 40
0.9999553905
 41
-0.3926833098
 42
0.3926833098
  0
ELLIPSE
  5
9C2
100
AcDbEntity
  8
ASSI
100
AcDbEllipse
 62
7
  6
CONTINUOUS
 10
-14.3384146219
 20
36.583755102
 30
0.0
 11
-0.3000114235
 21
0.0
 31
0.0
 40
0.9999619231
 41
0.3402220636
 42
1.5707963268
  0
ELLIPSE
  5
9C3
100
AcDbEntity
  8
ASSI
100
AcDbEllipse
 62
7
  6
CONTINUOUS
 10
-14.2598297655
 20
1.383755102
 30
0.0
 11
0.3000114235
 21
-0.0
 31
0.0
 40
0.9999619231
 41
1.5707963268
 42
2.80137059
  0
ELLIPSE
  5
9C4
100
AcDbEntity
  8
ASSI
100
AcDbEllipse
 62
7
  6
CONTINUOUS
 10
-11.0518437039
 20
1.383755102
 30
0.0
 11
0.3000114235
 21
-0.0
 31
0.0
 40
0.9999619231
 41
0.3402220636
 42
1.5707963268
  0
ELLIPSE
  5
9C5
100
AcDbEntity
  8
ASSI
100
AcDbEllipse
 62
7
  6
CONTINUOUS
 10
-10.9732588475
 20
36.583755102
 30
0.0
 11
-0.3000114235
 21
0.0
 31
0.0
 40
0.9999619231
 41
1.5707963268
 42
2.80137059
  0
ELLIPSE
  5
9C6
100
AcDbEntity
  8
ASSI
100
AcDbEllipse
 62
7
  6
CONTINUOUS
 10
-1.9427578565
 20
22.433755102
 30
0.0
 11
-0.3000114235
 21
0.0
 31
0.0
 40
0.9999619231
 41
1.5707963268
 42
3.1415926536
  0
ELLIPSE
  5
9C7
100
AcDbEntity
  8
ASSI
100
AcDbEllipse
 62
7
  6
CONTINUOUS
 10
-1.9427578565
 20
17.433755102
 30
0.0
 11
-0.3000114235
 21
0.0
 31
0.0
 40
0.9999619231
 41
1.5707963268
 42
3.1415926536
  0
ELLIPSE
  5
9C8
100
AcDbEntity
  8
ASSI
100
AcDbEllipse
 62
7
  6
CONTINUOUS
 10
-1.9427578565
 20
12.433755102
 30
0.0
 11
-0.3000114235
 21
0.0
 31
0.0
 40
0.9999619231
 41
1.5707963268
 42
3.1415926536
  0
ELLIPSE
  5
9C9
100
AcDbEntity
  8
ASSI
100
AcDbEllipse
 62
7
  6
CONTINUOUS
 10
-1.9427578565
 20
7.433755102
 30
0.0
 11
-0.3000114235
 21
0.0
 31
0.0
 40
0.9999619231
 41
1.5707963268
 42
3.1415926536
  0
ELLIPSE
  5
9CA
100
AcDbEntity
  8
ASSI
100
AcDbEllipse
 62
7
  6
CONTINUOUS
 10
-2.8143841127
 20
19.983755102
 30
0.0
 11
0.0
 21
2.15
 31
0.0
 40
0.0087268678
 41
3.1415926536
 42
6.2831853072
  0
ELLIPSE
  5
9CB
100
AcDbEntity
  8
ASSI
100
AcDbEllipse
 62
7
  6
CONTINUOUS
 10
-2.8143841127
 20
4.983755102
 30
0.0
 11
0.0
 21
2.15
 31
0.0
 40
0.0087268678
 41
3.1415926536
 42
6.2831853072
  0
ELLIPSE
  5
9CC
100
AcDbEntity
  8
ASSI
100
AcDbEllipse
 62
7
  6
CONTINUOUS
 10
-2.8143841127
 20
9.983755102
 30
0.0
 11
0.0
 21
2.15
 31
0.0
 40
0.0087268678
 41
3.1415926536
 42
6.2831853072
  0
ELLIPSE
  5
9CD
100
AcDbEntity
  8
ASSI
100
AcDbEllipse
 62
7
  6
CONTINUOUS
 10
-2.8143841127
 20
14.983755102
 30
0.0
 11
0.0
 21
2.15
 31
0.0
 40
0.0087268678
 41
3.1415926536
 42
6.2831853072
  0
ELLIPSE
  5
9CE
100
AcDbEntity
  8
ASSI
100
AcDbEllipse
 62
7
  6
CONTINUOUS
 10
-8.3427350095
 20
0.4706533768
 30
0.0
 11
0.2121481893
 21
-0.2121481893
 31
0.0
 40
0.9999238505
 41
2.3562325664
 42
3.9269527408
  0
ENDSEC
  0
SECTION
  2
OBJECTS
  0
DICTIONARY
  5
C
100
AcDbDictionary
280
0
281
1
  3
ACAD_GROUP
350
D
  3
ACAD_MLINESTYLE
350
17
  3
ACAD_LAYOUT
350
1A
  3
ACAD_PLOTSETTINGS
350
19
  3
ACAD_PLOTSTYLENAME
350
E
  0
DICTIONARY
  5
D
102
{ACAD_REACTORS
330
C
102
}
100
AcDbDictionary
280
0
281
1
  0
ACDBDICTIONARYWDFLT
  5
E
102
{ACAD_REACTORS
330
C
102
}
100
AcDbDictionary
281
1
  3
Normal
350
F
100
AcDbDictionaryWithDefault
340
F
  0
DICTIONARY
  5
17
102
{ACAD_REACTORS
330
C
102
}
100
AcDbDictionary
280
0
281
1
  3
Standard
350
18
  0
DICTIONARY
  5
19
102
{ACAD_REACTORS
330
C
102
}
100
AcDbDictionary
281
1
  0
DICTIONARY
  5
1A
102
{ACAD_REACTORS
330
C
102
}
100
AcDbDictionary
281
1
  3
Model
350
9CF
  3
Layout1
350
9D0
  0
ACDBPLACEHOLDER
  5
F
102
{ACAD_REACTORS
330
E
102
}
  0
MLINESTYLE
  5
18
102
{ACAD_REACTORS
330
17
102
}
100
AcDbMlineStyle
  2
STANDARD
 70
0
  3

 62
256
 51
90.0
 52
90.0
 71
2
 49
0.5
 62
256
  6
BYLAYER
 49
-0.5
 62
256
  6
BYLAYER
  0
LAYOUT
  5
9CF
102
{ACAD_REACTORS
330
1A
102
}
100
AcDbPlotSettings
  1

  2
none_device
  4
ISO_A4_(297.00_x_210.00_MM)
  6

 40
0.0
 41
0.0
 42
0.0
 43
0.0
 44
297.0
 45
210.0
 46
0.0
 47
0.0
 48
0.0
 49
0.0
140
0.0
141
0.0
142
1.0
143
1.0
 70
1024
 72
1
 73
0
 74
0
  7

 75
0
147
1.0
148
0.0
149
0.0
100
AcDbLayout
  1
Model
 70
0
 71
0
 10
0.0
 20
0.0
 11
297.0
 21
210.0
 12
0.0
 22
0.0
 32
0.0
 14
0.0
 24
0.0
 34
0.0
 15
0.0
 25
0.0
 35
0.0
146
0.0
 13
0.0
 23
0.0
 33
0.0
 16
1.0
 26
0.0
 36
0.0
 17
0.0
 27
1.0
 37
0.0
 76
0
330
223
345
0
346
0
  0
LAYOUT
  5
9D0
102
{ACAD_REACTORS
330
1A
102
}
100
AcDbPlotSettings
  1

  2
none_device
  4
ISO_A4_(297.00_x_210.00_MM)
  6

 40
0.0
 41
0.0
 42
0.0
 43
0.0
 44
297.0
 45
210.0
 46
0.0
 47
0.0
 48
0.0
 49
0.0
140
0.0
141
0.0
142
1.0
143
1.0
 70
0
 72
1
 73
0
 74
0
  7

 75
0
147
1.0
148
0.0
149
0.0
100
AcDbLayout
  1
Layout1
 70
0
 71
1
 10
0.0
 20
0.0
 11
297.0
 21
210.0
 12
0.0
 22
0.0
 32
0.0
 14
0.0
 24
0.0
 34
0.0
 15
0.0
 25
0.0
 35
0.0
146
0.0
 13
0.0
 23
0.0
 33
0.0
 16
1.0
 26
0.0
 36
0.0
 17
0.0
 27
1.0
 37
0.0
 76
0
330
224
345
0
346
0
  0
ENDSEC
  0
EOF
