  0
SECTION
  2
HEADER
  9
$ACADVER
  1
AC1015
  9
$DWGCODEPAGE
  3
ANSI_1252
  9
$EXTMAX
 10
297.0
 20
210.0
 30
0.0
  9
$EXTMIN
 10
0.0
 20
0.0
 30
0.0
  9
$LIMMIN
 10
0.0
 20
0.0
  9
$LIMMAX
 10
297.0
 20
210.0
  9
$VIEWCTR
 10
148.5
 20
105.0
  9
$VIEWSIZE
 40
210.0
  9
$CLAYER
  8
0
  9
$LTSCALE
 40
16.335
  9
$CELTYPE
  6
BYLAYER
  9
$DIMSCALE
 40
1.0
  9
$DIMASZ
 40
3.0
  9
$DIMEXO
 40
0.5
  9
$DIMDLI
 40
11.286
  9
$DIMEXE
 40
1.5
  9
$DIMCEN
 40
2.673
  9
$DIMLFAC
 40
1.0
  9
$DIMBLK
  1
_FILLED
  9
$DIMTXT
 40
3.0
  9
$DIMTOL
 70
1
  9
$DIMLIM
 70
0
  9
$DIMTFAC
 40
1.0
  9
$DIMTP
 40
0.01
  9
$DIMTM
 40
0.01
  9
$DIMGAP
 40
0.625
  9
$DIMDSEP
 70
44
  9
$PDMODE
 70
3
  9
$PDSIZE
 40
3.0
  9
$HANDSEED
  5
890
  9
$TILEMODE
 70
1
  9
$MEASUREMENT
 70
1
  9
$INSUNITS
 70
4
  0
ENDSEC
  0
SECTION
  2
CLASSES
  0
CLASS
  1
ACDBDICTIONARYWDFLT
  2
AcDbDictionaryWithDefault
  3
AutoCAD 2000
 90
0
280
0
281
0
  0
CLASS
  1
ACDBPLACEHOLDER
  2
AcDbPlaceHolder
  3
AutoCAD 2000
 90
0
280
0
281
0
  0
CLASS
  1
LAYOUT
  2
AcDbLayout
  3
AutoCAD 2000
 90
0
280
0
281
0
  0
ENDSEC
  0
SECTION
  2
TABLES
  0
TABLE
  2
VPORT
  5
8
100
AcDbSymbolTable
 70
2
  0
VPORT
  5
1F4
100
AcDbSymbolTableRecord
100
AcDbViewportTableRecord
  2
*ACTIVE
 70
0
 10
0.0
 20
0.0
 11
1.0
 21
1.0
 12
148.5
 22
105.0
 13
0.0
 23
0.0
 14
1.0
 24
1.0
 15
0.0
 25
0.0
 16
0.0
 26
0.0
 36
1.0
 17
0.0
 27
0.0
 37
0.0
 40
210.0
 41
1.4142857143
 42
50.0
 43
0.0
 44
0.0
 50
0.0
 51
0.0
 71
0
 72
100
 73
1
 74
1
 75
0
 76
0
 77
0
 78
0
  0
ENDTAB
  0
TABLE
  2
LTYPE
  5
5
100
AcDbSymbolTable
 70
6
  0
LTYPE
  5
14
100
AcDbSymbolTableRecord
100
AcDbLinetypeTableRecord
  2
BYBLOCK
 70
0
  3

 72
65
 73
0
 40
0.0
  0
LTYPE
  5
15
100
AcDbSymbolTableRecord
100
AcDbLinetypeTableRecord
  2
BYLAYER
 70
0
  3

 72
65
 73
0
 40
0.0
  0
LTYPE
  5
16
100
AcDbSymbolTableRecord
100
AcDbLinetypeTableRecord
  2
CONTINUOUS
 70
64
  3
Solid line
 72
65
 73
0
 40
0.0
  0
LTYPE
  5
1F5
100
AcDbSymbolTableRecord
100
AcDbLinetypeTableRecord
  2
CENTER
 70
64
  3
____ _ ____ _ ____ _ ____ _ ____ _ ____ _ ____
 72
65
 73
4
 40
0.6
 49
0.375
 74
0
 49
-0.075
 74
0
 49
0.075
 74
0
 49
-0.075
 74
0
  0
LTYPE
  5
1F6
100
AcDbSymbolTableRecord
100
AcDbLinetypeTableRecord
  2
HIDDEN
 70
64
  3
- - - - - - - - - - - - - - - - - - - -
 72
65
 73
2
 40
0.2
 49
0.1
 74
0
 49
-0.1
 74
0
  0
LTYPE
  5
1F7
100
AcDbSymbolTableRecord
100
AcDbLinetypeTableRecord
  2
PHANTOM
 70
64
  3
_____ _ _ _____ _ _ _____ _ _ _____
 72
65
 73
6
 40
0.8
 49
0.45
 74
0
 49
-0.05
 74
0
 49
0.1
 74
0
 49
-0.05
 74
0
 49
0.1
 74
0
 49
-0.05
 74
0
  0
LTYPE
  5
1F8
100
AcDbSymbolTableRecord
100
AcDbLinetypeTableRecord
  2
DOT
 70
64
  3
. . . . . . . . . . . . . . . . . . . .
 72
65
 73
2
 40
0.2
 49
0.1
 74
0
 49
-0.1
 74
0
  0
LTYPE
  5
1F9
100
AcDbSymbolTableRecord
100
AcDbLinetypeTableRecord
  2
DASHED
 70
64
  3
- - - - - - - - - - - - - - - - - - - -
 72
65
 73
2
 40
0.2
 49
0.1
 74
0
 49
-0.1
 74
0
  0
ENDTAB
  0
TABLE
  2
LAYER
  5
2
100
AcDbSymbolTable
 70
36
  0
LAYER
  5
10
100
AcDbSymbolTableRecord
100
AcDbLayerTableRecord
  2
0
 70
0
 62
7
  6
CONTINUOUS
370
-3
390
F
  0
LAYER
  5
1FA
100
AcDbSymbolTableRecord
100
AcDbLayerTableRecord
  2
DEFAULT_1
 70
0
 62
7
  6
CENTER
370
-3
390
F
  0
LAYER
  5
1FB
100
AcDbSymbolTableRecord
100
AcDbLayerTableRecord
  2
DEFAULT_2
 70
0
 62
7
  6
HIDDEN
370
-3
390
F
  0
LAYER
  5
1FC
100
AcDbSymbolTableRecord
100
AcDbLayerTableRecord
  2
DEFAULT_3
 70
0
 62
7
  6
PHANTOM
370
-3
390
F
  0
LAYER
  5
1FD
100
AcDbSymbolTableRecord
100
AcDbLayerTableRecord
  2
ASSI
 70
0
 62
7
  6
CONTINUOUS
370
-3
390
F
  0
LAYER
  5
1FE
100
AcDbSymbolTableRecord
100
AcDbLayerTableRecord
  2
COLOR4
 70
0
 62
7
  6
CONTINUOUS
370
-3
390
F
  0
LAYER
  5
1FF
100
AcDbSymbolTableRecord
100
AcDbLayerTableRecord
  2
COORDINATE
 70
0
 62
7
  6
CONTINUOUS
370
-3
390
F
  0
LAYER
  5
200
100
AcDbSymbolTableRecord
100
AcDbLayerTableRecord
  2
COORD_ORIGINE
 70
0
 62
7
  6
CONTINUOUS
370
-3
390
F
  0
LAYER
  5
201
100
AcDbSymbolTableRecord
100
AcDbLayerTableRecord
  2
COPY
 70
0
 62
7
  6
CONTINUOUS
370
-3
390
F
  0
LAYER
  5
202
100
AcDbSymbolTableRecord
100
AcDbLayerTableRecord
  2
COPY_PUBLISH
 70
0
 62
7
  6
CONTINUOUS
370
-3
390
F
  0
LAYER
  5
203
100
AcDbSymbolTableRecord
100
AcDbLayerTableRecord
  2
COSMETIC
 70
0
 62
7
  6
CONTINUOUS
370
-3
390
F
  0
LAYER
  5
204
100
AcDbSymbolTableRecord
100
AcDbLayerTableRecord
  2
COSMETICI
 70
0
 62
7
  6
CONTINUOUS
370
-3
390
F
  0
LAYER
  5
205
100
AcDbSymbolTableRecord
100
AcDbLayerTableRecord
  2
CURVE
 70
0
 62
7
  6
CONTINUOUS
370
-3
390
F
  0
LAYER
  5
206
100
AcDbSymbolTableRecord
100
AcDbLayerTableRecord
  2
DRAFT
 70
0
 62
7
  6
CONTINUOUS
370
-3
390
F
  0
LAYER
  5
207
100
AcDbSymbolTableRecord
100
AcDbLayerTableRecord
  2
IMPORT_IGES
 70
0
 62
7
  6
CONTINUOUS
370
-3
390
F
  0
LAYER
  5
208
100
AcDbSymbolTableRecord
100
AcDbLayerTableRecord
  2
INTFCLR_1
 70
0
 62
7
  6
CONTINUOUS
370
-3
390
F
  0
LAYER
  5
209
100
AcDbSymbolTableRecord
100
AcDbLayerTableRecord
  2
INTFCLR_137
 70
0
 62
7
  6
CONTINUOUS
370
-3
390
F
  0
LAYER
  5
20A
100
AcDbSymbolTableRecord
100
AcDbLayerTableRecord
  2
INTFCLR_2
 70
0
 62
7
  6
CONTINUOUS
370
-3
390
F
  0
LAYER
  5
20B
100
AcDbSymbolTableRecord
100
AcDbLayerTableRecord
  2
INTFCLR_383
 70
0
 62
7
  6
CONTINUOUS
370
-3
390
F
  0
LAYER
  5
20C
100
AcDbSymbolTableRecord
100
AcDbLayerTableRecord
  2
INTFCLR_4627
 70
0
 62
7
  6
CONTINUOUS
370
-3
390
F
  0
LAYER
  5
20D
100
AcDbSymbolTableRecord
100
AcDbLayerTableRecord
  2
INTFCLR_6275
 70
0
 62
7
  6
CONTINUOUS
370
-3
390
F
  0
LAYER
  5
20E
100
AcDbSymbolTableRecord
100
AcDbLayerTableRecord
  2
INTF_1
 70
0
 62
7
  6
CONTINUOUS
370
-3
390
F
  0
LAYER
  5
20F
100
AcDbSymbolTableRecord
100
AcDbLayerTableRecord
  2
INTF_12
 70
0
 62
7
  6
CONTINUOUS
370
-3
390
F
  0
LAYER
  5
210
100
AcDbSymbolTableRecord
100
AcDbLayerTableRecord
  2
INTF_2
 70
0
 62
7
  6
CONTINUOUS
370
-3
390
F
  0
LAYER
  5
211
100
AcDbSymbolTableRecord
100
AcDbLayerTableRecord
  2
INTF_5
 70
0
 62
7
  6
CONTINUOUS
370
-3
390
F
  0
LAYER
  5
212
100
AcDbSymbolTableRecord
100
AcDbLayerTableRecord
  2
INTF_6
 70
0
 62
7
  6
CONTINUOUS
370
-3
390
F
  0
LAYER
  5
213
100
AcDbSymbolTableRecord
100
AcDbLayerTableRecord
  2
INTF_9
 70
0
 62
7
  6
CONTINUOUS
370
-3
390
F
  0
LAYER
  5
214
100
AcDbSymbolTableRecord
100
AcDbLayerTableRecord
  2
NOTE
 70
0
 62
7
  6
CONTINUOUS
370
-3
390
F
  0
LAYER
  5
215
100
AcDbSymbolTableRecord
100
AcDbLayerTableRecord
  2
PIANI
 70
0
 62
7
  6
CONTINUOUS
370
-3
390
F
  0
LAYER
  5
216
100
AcDbSymbolTableRecord
100
AcDbLayerTableRecord
  2
PIANI_ORIGINE
 70
0
 62
7
  6
CONTINUOUS
370
-3
390
F
  0
LAYER
  5
217
100
AcDbSymbolTableRecord
100
AcDbLayerTableRecord
  2
PIANI_RIFERIMENTO
 70
0
 62
7
  6
CONTINUOUS
370
-3
390
F
  0
LAYER
  5
218
100
AcDbSymbolTableRecord
100
AcDbLayerTableRecord
  2
PIANI_SFORMO
 70
0
 62
7
  6
CONTINUOUS
370
-3
390
F
  0
LAYER
  5
219
100
AcDbSymbolTableRecord
100
AcDbLayerTableRecord
  2
PUNTI
 70
0
 62
7
  6
CONTINUOUS
370
-3
390
F
  0
LAYER
  5
21A
100
AcDbSymbolTableRecord
100
AcDbLayerTableRecord
  2
RACCORDO
 70
0
 62
7
  6
CONTINUOUS
370
-3
390
F
  0
LAYER
  5
21B
100
AcDbSymbolTableRecord
100
AcDbLayerTableRecord
  2
SIMBOLI
 70
0
 62
7
  6
CONTINUOUS
370
-3
390
F
  0
LAYER
  5
21C
100
AcDbSymbolTableRecord
100
AcDbLayerTableRecord
  2
SMUSSO
 70
0
 62
7
  6
CONTINUOUS
370
-3
390
F
  0
LAYER
  5
21D
100
AcDbSymbolTableRecord
100
AcDbLayerTableRecord
  2
SNAPLINE
 70
0
 62
7
  6
CONTINUOUS
370
-3
390
F
  0
LAYER
  5
21E
100
AcDbSymbolTableRecord
100
AcDbLayerTableRecord
  2
SUPERFICI
 70
0
 62
7
  6
CONTINUOUS
370
-3
390
F
  0
LAYER
  5
21F
100
AcDbSymbolTableRecord
100
AcDbLayerTableRecord
  2
TRASH
 70
0
 62
7
  6
CONTINUOUS
370
-3
390
F
  0
LAYER
  5
220
100
AcDbSymbolTableRecord
100
AcDbLayerTableRecord
  2
XSEC_DATUMS
 70
0
 62
7
  6
CONTINUOUS
370
-3
390
F
  0
ENDTAB
  0
TABLE
  2
STYLE
  5
3
100
AcDbSymbolTable
 70
1
  0
STYLE
  5
11
100
AcDbSymbolTableRecord
100
AcDbTextStyleTableRecord
  2
STANDARD
 70
0
 40
0.0
 41
0.8
 50
0.0
 71
0
 42
0.2
  3
txt
  4

  0
STYLE
  5
221
100
AcDbSymbolTableRecord
100
AcDbTextStyleTableRecord
  2
TEXTSTYLE_1
 70
0
 40
0.0
 41
0.8
 50
0.0
 71
0
 42
0.2
  3
gdt
  4

  0
ENDTAB
  0
TABLE
  2
VIEW
  5
6
100
AcDbSymbolTable
 70
0
  0
ENDTAB
  0
TABLE
  2
UCS
  5
7
100
AcDbSymbolTable
 70
0
  0
ENDTAB
  0
TABLE
  2
APPID
  5
9
100
AcDbSymbolTable
 70
1
  0
APPID
  5
222
100
AcDbSymbolTableRecord
100
AcDbRegAppTableRecord
  2
ACAD
 70
0
  0
ENDTAB
  0
TABLE
  2
BLOCK_RECORD
  5
1
100
AcDbSymbolTable
 70
0
  0
BLOCK_RECORD
  5
223
100
AcDbSymbolTableRecord
100
AcDbBlockTableRecord
  2
*Model_Space
  0
BLOCK_RECORD
  5
224
100
AcDbSymbolTableRecord
100
AcDbBlockTableRecord
  2
*Paper_Space
  0
ENDTAB
  0
TABLE
  2
DIMSTYLE
  5
A
100
AcDbSymbolTable
 70
1
100
AcDbDimStyleTable
 71
0
  0
DIMSTYLE
105
225
100
AcDbSymbolTableRecord
100
AcDbDimStyleTableRecord
  2
STANDARD
 70
0
  3

  4

 40
1.0
 41
3.0
 42
0.5
 43
0.38
 44
1.5
 45
0.0
 46
0.0
 47
0.01
 48
0.01
140
3.0
141
0.09
142
0.0
143
25.4
144
1.0
145
0.0
146
1.0
147
0.625
 71
1.0
 72
0.0
 73
0
 74
0
 75
0
 76
0
 77
1
 78
8
170
0
171
2
172
0
173
0
174
0
175
0
176
0
177
0
178
0
270
2
271
2
272
2
273
2
274
2
275
0
280
0
281
0
282
0
283
1
284
8
285
0
286
0
287
3
288
0
340
11
278
44
  0
ENDTAB
  0
ENDSEC
  0
SECTION
  2
BLOCKS
  0
BLOCK
  5
20
100
AcDbEntity
  8
0
100
AcDbBlockBegin
  2
*Model_Space
 70
0
 10
0.0
 20
0.0
 30
0.0
  3
*Model_Space
  1

  0
ENDBLK
  5
21
100
AcDbEntity
  8
0
100
AcDbBlockEnd
  0
BLOCK
  5
1C
100
AcDbEntity
  8
0
100
AcDbBlockBegin
  2
*Paper_Space
 70
0
 10
0.0
 20
0.0
 30
0.0
  3
*Paper_Space
  1

  0
ENDBLK
  5
1D
100
AcDbEntity
  8
0
100
AcDbBlockEnd
  0
ENDSEC
  0
SECTION
  2
ENTITIES
  0
LWPOLYLINE
  5
226
100
AcDbEntity
  8
ASSI
100
AcDbPolyline
 62
7
  6
CONTINUOUS
 90
13
 70
0
 10
-2.234969539
 20
1.485
 10
-2.2088674122
 20
1.4867102642
 10
-2.1832122339
 20
1.4918124405
 10
-2.1584427125
 20
1.5002194218
 10
-2.1349822556
 20
1.5117876629
 10
-2.1132324498
 20
1.52631945
 10
-2.0935660278
 20
1.5435660278
 10
-2.07631945
 20
1.5632324498
 10
-2.0617876629
 20
1.5849822556
 10
-2.0502194218
 20
1.6084427125
 10
-2.0418124405
 20
1.6332122339
 10
-2.0367102642
 20
1.6588674122
 10
-2.035
 20
1.684969539
  0
LWPOLYLINE
  5
227
100
AcDbEntity
  8
ASSI
100
AcDbPolyline
 62
7
  6
CONTINUOUS
 90
13
 70
0
 10
-23.035030461
 20
1.485
 10
-23.0611325878
 20
1.4867102642
 10
-23.0867877661
 20
1.4918124405
 10
-23.1115572875
 20
1.5002194218
 10
-23.1350177444
 20
1.5117876629
 10
-23.1567675502
 20
1.52631945
 10
-23.1764339722
 20
1.5435660278
 10
-23.19368055
 20
1.5632324498
 10
-23.2082123371
 20
1.5849822556
 10
-23.2197805782
 20
1.6084427125
 10
-23.2281875595
 20
1.6332122339
 10
-23.2332897358
 20
1.6588674122
 10
-23.235
 20
1.684969539
  0
LWPOLYLINE
  5
228
100
AcDbEntity
  8
RACCORDO
100
AcDbPolyline
 62
253
  6
CONTINUOUS
 90
13
 70
0
 10
-8.5323806883
 20
2.0824187645
 10
-8.4997618665
 20
2.084566137
 10
-8.46770064
 20
2.0909517288
 10
-8.4367453522
 20
2.1014664321
 10
-8.4074254673
 20
2.1159305075
 10
-8.3802424716
 20
2.1340966736
 10
-8.3556613057
 20
2.1556543493
 10
-8.3341024435
 20
2.1802349532
 10
-8.3159347562
 20
2.2074181108
 10
-8.3014691282
 20
2.2367388473
 10
-8.2909530672
 20
2.2676956506
 10
-8.2845665059
 20
2.2997590721
 10
-8.2824187646
 20
2.3323806884
  0
LWPOLYLINE
  5
229
100
AcDbEntity
  8
ASSI
100
AcDbPolyline
 62
253
  6
CONTINUOUS
 90
13
 70
0
 10
-20.0481369959
 20
1.4981674569
 10
-20.0220407314
 20
1.4998855145
 10
-19.9963908147
 20
1.5049944037
 10
-19.9716259534
 20
1.5134067415
 10
-19.9481697165
 20
1.5249786444
 10
-19.9264232918
 20
1.5395121883
 10
-19.9067586234
 20
1.5567587929
 10
-19.889512048
 20
1.5764234747
 10
-19.8749785414
 20
1.5981698949
 10
-19.8634066763
 20
1.6216261106
 10
-19.8549943714
 20
1.6463909351
 10
-19.8498855056
 20
1.6720407988
 10
-19.8481674569
 20
1.6981369959
  0
LWPOLYLINE
  5
22A
100
AcDbEntity
  8
RACCORDO
100
AcDbPolyline
 62
7
  6
CONTINUOUS
 90
12
 70
0
 10
-16.385
 20
2.0823650507
 10
-16.3523699207
 20
2.0845033159
 10
-16.320297845
 20
2.0908815978
 10
-16.2893325146
 20
2.1013908715
 10
-16.2600037706
 20
2.1158514209
 10
-16.232813445
 20
2.1340159291
 10
-16.2082267841
 20
2.1555737232
 10
-16.1866645187
 20
2.180156077
 10
-16.1684957212
 20
2.2073424231
 10
-16.1540314155
 20
2.2366675521
 10
-16.1435191826
 20
2.2676296824
 10
-16.1371389594
 20
2.2996990693
  0
LWPOLYLINE
  5
22B
100
AcDbEntity
  8
ASSI
100
AcDbPolyline
 62
253
  6
CONTINUOUS
 90
13
 70
0
 10
-5.2214418591
 20
2.3571687836
 10
-5.2473999708
 20
2.3555071822
 10
-5.2729188385
 20
2.3509428918
 10
-5.2975666576
 20
2.3435531471
 10
-5.3209263641
 20
2.3334629915
 10
-5.3426026885
 20
2.3208431628
 10
-5.3622288457
 20
2.3059072044
 10
-5.3794727433
 20
2.2889078508
 10
-5.3940426019
 20
2.2701327485
 10
-5.4056918897
 20
2.2498995899
 10
-5.4142234924
 20
2.2285507394
 10
-5.4194930496
 20
2.2064474409
 10
-5.4214113981
 20
2.1839637029
  0
LWPOLYLINE
  5
22C
100
AcDbEntity
  8
RACCORDO
100
AcDbPolyline
 62
253
  6
CONTINUOUS
 90
7
 70
0
 10
-8.8518270349
 20
2.0841617769
 10
-8.8616992849
 20
2.0838926512
 10
-8.8700302712
 20
2.0836041783
 10
-8.8765525775
 20
2.0833061979
 10
-8.881177065
 20
2.0830019897
 10
-8.8839928725
 20
2.082688274
 10
-8.885
 20
2.0823650507
  0
LWPOLYLINE
  5
22D
100
AcDbEntity
  8
RACCORDO
100
AcDbPolyline
 62
253
  6
CONTINUOUS
 90
7
 70
0
 10
-16.7026550144
 20
2.0842051099
 10
-16.7127948334
 20
2.0839390326
 10
-16.7214129663
 20
2.0836531415
 10
-16.7282322017
 20
2.0833571935
 10
-16.7331601358
 20
2.0830544408
 10
-16.7362891725
 20
2.0827416311
 10
-16.7376193117
 20
2.0824187645
  0
LWPOLYLINE
  5
22E
100
AcDbEntity
  8
RACCORDO
100
AcDbPolyline
 62
253
  6
CONTINUOUS
 90
4
 70
0
 10
-16.9646612848
 20
2.3333238247
 10
-16.9768309692
 20
2.3330201806
 10
-16.9844986226
 20
2.3327058018
 10
-16.9875812355
 20
2.3323806883
  0
LWPOLYLINE
  5
22F
100
AcDbEntity
  8
RACCORDO
100
AcDbPolyline
 62
253
  6
CONTINUOUS
 90
5
 70
0
 10
-9.0985448695
 20
2.3335708375
 10
-9.1143636712
 20
2.3332728581
 10
-9.1257867539
 20
2.3329677498
 10
-9.132690443
 20
2.3326524552
 10
-9.135
 20
2.3323269745
  0
LINE
  5
230
100
AcDbEntity
  8
RACCORDO
100
AcDbLine
 62
253
  6
CONTINUOUS
 10
-8.8273604651
 20
2.0846403277
 11
-8.8518270349
 21
2.0841617769
  0
LINE
  5
231
100
AcDbEntity
  8
RACCORDO
100
AcDbLine
 62
253
  6
CONTINUOUS
 10
-16.6777137076
 20
2.0846761348
 11
-16.7026550144
 21
2.0842051099
  0
LINE
  5
232
100
AcDbEntity
  8
RACCORDO
100
AcDbLine
 62
253
  6
CONTINUOUS
 10
-16.9273902543
 20
2.3339049673
 11
-16.9646612848
 21
2.3333238247
  0
LINE
  5
233
100
AcDbEntity
  8
RACCORDO
100
AcDbLine
 62
253
  6
CONTINUOUS
 10
-8.7979366044
 20
2.0850185677
 11
-8.8273604651
 21
2.0846403277
  0
LINE
  5
234
100
AcDbEntity
  8
RACCORDO
100
AcDbLine
 62
253
  6
CONTINUOUS
 10
-9.0544514414
 20
2.3341270662
 11
-9.0985448695
 21
2.3335708375
  0
LINE
  5
235
100
AcDbEntity
  8
RACCORDO
100
AcDbLine
 62
253
  6
CONTINUOUS
 10
-16.6479161706
 20
2.085045354
 11
-16.6777137076
 21
2.0846761348
  0
LINE
  5
236
100
AcDbEntity
  8
RACCORDO
100
AcDbLine
 62
253
  6
CONTINUOUS
 10
-16.8425092626
 20
2.3346403855
 11
-16.9273902543
 21
2.3339049673
  0
LINE
  5
237
100
AcDbEntity
  8
RACCORDO
100
AcDbLine
 62
253
  6
CONTINUOUS
 10
-8.9610639612
 20
2.3348070568
 11
-9.0544514414
 21
2.3341270662
  0
LINE
  5
238
100
AcDbEntity
  8
RACCORDO
100
AcDbLine
 62
253
  6
CONTINUOUS
 10
-8.7468532987
 20
2.0853691354
 11
-8.7979366044
 21
2.0850185677
  0
LINE
  5
239
100
AcDbEntity
  8
RACCORDO
100
AcDbLine
 62
253
  6
CONTINUOUS
 10
-16.5964901691
 20
2.0853803071
 11
-16.6479161706
 21
2.085045354
  0
LINE
  5
23A
100
AcDbEntity
  8
RACCORDO
100
AcDbLine
 62
253
  6
CONTINUOUS
 10
-16.688810546
 20
2.3352634575
 11
-16.8425092626
 21
2.3346403855
  0
LINE
  5
23B
100
AcDbEntity
  8
RACCORDO
100
AcDbLine
 62
253
  6
CONTINUOUS
 10
-8.7566915301
 20
2.3353843634
 11
-8.9610639612
 21
2.3348070568
  0
LINE
  5
23C
100
AcDbEntity
  8
ASSI
100
AcDbLine
 62
7
  6
CONTINUOUS
 10
-23.035030461
 20
1.485
 11
-20.034969539
 21
1.485
  0
LINE
  5
23D
100
AcDbEntity
  8
ASSI
100
AcDbLine
 62
7
  6
CONTINUOUS
 10
-5.235030461
 20
1.485
 11
-2.234969539
 21
1.485
  0
LINE
  5
23E
100
AcDbEntity
  8
ASSI
100
AcDbLine
 62
253
  6
CONTINUOUS
 10
-2.2481369959
 20
1.4981674569
 11
-5.2218630041
 21
1.4981674569
  0
LINE
  5
23F
100
AcDbEntity
  8
ASSI
100
AcDbLine
 62
253
  6
CONTINUOUS
 10
-20.0481369959
 20
1.4981674569
 11
-23.0218630041
 21
1.4981674569
  0
LINE
  5
240
100
AcDbEntity
  8
ASSI
100
AcDbLine
 62
253
  6
CONTINUOUS
 10
-2.0490249785
 20
1.7481293807
 11
-5.4209750215
 21
1.7481293807
  0
LINE
  5
241
100
AcDbEntity
  8
ASSI
100
AcDbLine
 62
253
  6
CONTINUOUS
 10
-19.8490249785
 20
1.7481293807
 11
-23.2209750215
 21
1.7481293807
  0
LINE
  5
242
100
AcDbEntity
  8
RACCORDO
100
AcDbLine
 62
7
  6
CONTINUOUS
 10
-16.8350380762
 20
1.985
 11
-13.6849619238
 21
1.985
  0
LINE
  5
243
100
AcDbEntity
  8
RACCORDO
100
AcDbLine
 62
7
  6
CONTINUOUS
 10
-11.5850380762
 20
1.985
 11
-8.4349619238
 21
1.985
  0
LINE
  5
244
100
AcDbEntity
  8
RACCORDO
100
AcDbLine
 62
7
  6
CONTINUOUS
 10
-8.885
 20
2.0024550649
 11
-11.5675830113
 21
2.0024550649
  0
LINE
  5
245
100
AcDbEntity
  8
RACCORDO
100
AcDbLine
 62
7
  6
CONTINUOUS
 10
-13.7024169887
 20
2.0024550649
 11
-16.385
 21
2.0024550649
  0
LINE
  5
246
100
AcDbEntity
  8
ASSI
100
AcDbLine
 62
253
  6
CONTINUOUS
 10
-2.0490249785
 20
2.1406624327
 11
-3.5981293807
 21
2.1406624327
  0
LINE
  5
247
100
AcDbEntity
  8
ASSI
100
AcDbLine
 62
253
  6
CONTINUOUS
 10
-3.8718706193
 20
2.1406624327
 11
-5.4209750215
 21
2.1406624327
  0
LINE
  5
248
100
AcDbEntity
  8
ASSI
100
AcDbLine
 62
253
  6
CONTINUOUS
 10
-19.8490249785
 20
2.1406624327
 11
-21.3981293807
 21
2.1406624327
  0
LINE
  5
249
100
AcDbEntity
  8
ASSI
100
AcDbLine
 62
253
  6
CONTINUOUS
 10
-21.6718706193
 20
2.1406624327
 11
-23.2209750215
 21
2.1406624327
  0
LINE
  5
24A
100
AcDbEntity
  8
ASSI
100
AcDbLine
 62
253
  6
CONTINUOUS
 10
-2.2485581385
 20
2.3571688638
 11
-3.3816230298
 21
2.3571687836
  0
LINE
  5
24B
100
AcDbEntity
  8
ASSI
100
AcDbLine
 62
253
  6
CONTINUOUS
 10
-4.0883769702
 20
2.3571687836
 11
-5.2214418591
 21
2.3571687836
  0
LINE
  5
24C
100
AcDbEntity
  8
ASSI
100
AcDbLine
 62
253
  6
CONTINUOUS
 10
-20.0485581409
 20
2.3571687836
 11
-21.1816230298
 21
2.3571687836
  0
LINE
  5
24D
100
AcDbEntity
  8
ASSI
100
AcDbLine
 62
253
  6
CONTINUOUS
 10
-21.8883769702
 20
2.3571687836
 11
-23.0214418591
 21
2.3571687836
  0
LINE
  5
24E
100
AcDbEntity
  8
ASSI
100
AcDbLine
 62
7
  6
CONTINUOUS
 10
-23.0367150409
 20
2.8623502692
 11
-21.935
 21
2.8623502692
  0
LINE
  5
24F
100
AcDbEntity
  8
ASSI
100
AcDbLine
 62
7
  6
CONTINUOUS
 10
-21.135
 20
2.8623502692
 11
-20.0332849591
 21
2.8623502692
  0
LINE
  5
250
100
AcDbEntity
  8
ASSI
100
AcDbLine
 62
7
  6
CONTINUOUS
 10
-5.2367150409
 20
2.8623502692
 11
-4.135
 21
2.8623502692
  0
LINE
  5
251
100
AcDbEntity
  8
ASSI
100
AcDbLine
 62
7
  6
CONTINUOUS
 10
-3.335
 20
2.8623502692
 11
-2.2332849591
 21
2.8623502692
  0
LINE
  5
252
100
AcDbEntity
  8
RACCORDO
100
AcDbLine
 62
253
  6
CONTINUOUS
 10
-8.69206785
 20
2.0854284762
 11
-8.7468532987
 21
2.0853691354
  0
LINE
  5
253
100
AcDbEntity
  8
RACCORDO
100
AcDbLine
 62
253
  6
CONTINUOUS
 10
-16.5416537318
 20
2.0854229502
 11
-16.5964901691
 21
2.0853803071
  0
LINE
  5
254
100
AcDbEntity
  8
RACCORDO
100
AcDbLine
 62
253
  6
CONTINUOUS
 10
-16.4695358848
 20
2.3353315671
 11
-16.688810546
 21
2.3352634575
  0
LINE
  5
255
100
AcDbEntity
  8
RACCORDO
100
AcDbLine
 62
253
  6
CONTINUOUS
 10
-8.5395932608
 20
2.3351522152
 11
-8.7566915301
 21
2.3353843634
  0
LINE
  5
256
100
AcDbEntity
  8
RACCORDO
100
AcDbLine
 62
253
  6
CONTINUOUS
 10
-16.2745881263
 20
2.3346052362
 11
-16.4695358848
 21
2.3353315671
  0
LINE
  5
257
100
AcDbEntity
  8
RACCORDO
100
AcDbLine
 62
253
  6
CONTINUOUS
 10
-8.6388906355
 20
2.0851907969
 11
-8.69206785
 21
2.0854284762
  0
LINE
  5
258
100
AcDbEntity
  8
RACCORDO
100
AcDbLine
 62
253
  6
CONTINUOUS
 10
-16.4887222358
 20
2.0851691082
 11
-16.5416537318
 21
2.0854229502
  0
LINE
  5
259
100
AcDbEntity
  8
RACCORDO
100
AcDbLine
 62
253
  6
CONTINUOUS
 10
-8.3957044535
 20
2.3344159894
 11
-8.5395932608
 21
2.3351522152
  0
LINE
  5
25A
100
AcDbEntity
  8
RACCORDO
100
AcDbLine
 62
253
  6
CONTINUOUS
 10
-8.3426084849
 20
2.3339056103
 11
-8.3957044535
 21
2.3344159894
  0
LINE
  5
25B
100
AcDbEntity
  8
RACCORDO
100
AcDbLine
 62
253
  6
CONTINUOUS
 10
-8.6068278703
 20
2.0848773301
 11
-8.6388906355
 21
2.0851907969
  0
LINE
  5
25C
100
AcDbEntity
  8
RACCORDO
100
AcDbLine
 62
253
  6
CONTINUOUS
 10
-16.456977743
 20
2.0848459221
 11
-16.4887222358
 21
2.0851691082
  0
LWPOLYLINE
  5
25D
100
AcDbEntity
  8
ASSI
100
AcDbPolyline
 62
253
  6
CONTINUOUS
 90
13
 70
0
 10
-20.0485581409
 20
2.3571687836
 10
-20.0226000694
 20
2.355507187
 10
-19.9970812334
 20
2.3509429089
 10
-19.9724334365
 20
2.3435531813
 10
-19.9490737432
 20
2.3334630455
 10
-19.9273974219
 20
2.3208432364
 10
-19.9077712571
 20
2.3059072934
 10
-19.8905273424
 20
2.288907947
 10
-19.8759574614
 20
2.2701328426
 10
-19.8643081507
 20
2.2498996731
 10
-19.8557765279
 20
2.2285508033
 10
-19.8505069562
 20
2.2064474767
 10
-19.8485886019
 20
2.1839637029
  0
LWPOLYLINE
  5
25E
100
AcDbEntity
  8
RACCORDO
100
AcDbPolyline
 62
7
  6
CONTINUOUS
 90
13
 70
0
 10
-8.885
 20
2.0823650507
 10
-8.9176315478
 20
2.0845035096
 10
-8.9497047608
 20
2.0908822966
 10
-8.9806708574
 20
2.1013922689
 10
-9.009999999
 20
2.1158535979
 10
-9.037190356
 20
2.1340188464
 10
-9.061776694
 20
2.1555772018
 10
-9.0833383339
 20
2.180159795
 10
-9.10150635
 20
2.2073460109
 10
-9.1159698825
 20
2.2366706859
 10
-9.1264814562
 20
2.2676320668
 10
-9.1328612152
 20
2.2997003956
 10
-9.135
 20
2.3323269745
  0
LWPOLYLINE
  5
25F
100
AcDbEntity
  8
RACCORDO
100
AcDbPolyline
 62
253
  6
CONTINUOUS
 90
13
 70
0
 10
-16.7376193117
 20
2.0824187645
 10
-16.7702396008
 20
2.084566331
 10
-16.8023019638
 20
2.090952428
 10
-16.8332580172
 20
2.1014678297
 10
-16.8625782995
 20
2.1159326845
 10
-16.8897613267
 20
2.1340995905
 10
-16.9143421701
 20
2.1556578273
 10
-16.9359004073
 20
2.1802386705
 10
-16.9540673139
 20
2.2074216979
 10
-16.9685321693
 20
2.2367419805
 10
-16.9790475715
 20
2.2676980345
 10
-16.9854336688
 20
2.2997603982
 10
-16.9875812355
 20
2.3323806883
  0
LWPOLYLINE
  5
260
100
AcDbEntity
  8
ASSI
100
AcDbPolyline
 62
253
  6
CONTINUOUS
 90
13
 70
0
 10
-5.2218630041
 20
1.4981674569
 10
-5.2479592355
 20
1.4998855102
 10
-5.2736091261
 20
1.5049943878
 10
-5.298373969
 20
1.5134067093
 10
-5.3218301951
 20
1.5249785934
 10
-5.3435766171
 20
1.5395121184
 10
-5.3632412918
 20
1.5567587082
 10
-5.3804878816
 20
1.5764233829
 10
-5.3950214066
 20
1.5981698049
 10
-5.4065932907
 20
1.621626031
 10
-5.4150056122
 20
1.6463908739
 10
-5.4201144898
 20
1.6720407645
 10
-5.4218325431
 20
1.6981369959
  0
LWPOLYLINE
  5
261
100
AcDbEntity
  8
RACCORDO
100
AcDbPolyline
 62
253
  6
CONTINUOUS
 90
7
 70
0
 10
-16.1350000144
 20
2.3323277617
 10
-16.1373159949
 20
2.332653013
 10
-16.1442184713
 20
2.3329681679
 10
-16.1556366164
 20
2.3332732266
 10
-16.1714523228
 20
2.3335713002
 10
-16.1914970398
 20
2.3338592776
 10
-16.2745881263
 20
2.3346052362
  0
LWPOLYLINE
  5
262
100
AcDbEntity
  8
RACCORDO
100
AcDbPolyline
 62
253
  6
CONTINUOUS
 90
9
 70
0
 10
-16.385
 20
2.0823650507
 10
-16.3860313509
 20
2.0826900843
 10
-16.3888713353
 20
2.0830051247
 10
-16.3935199532
 20
2.0833101721
 10
-16.4000666572
 20
2.0836083626
 10
-16.4084219947
 20
2.08389656
 10
-16.4183176077
 20
2.0841653555
 10
-16.4298027646
 20
2.0844140576
 10
-16.456977743
 20
2.0848459221
  0
LWPOLYLINE
  5
263
100
AcDbEntity
  8
ASSI
100
AcDbPolyline
 62
7
  6
CONTINUOUS
 90
10
 70
0
 10
-21.8883769702
 20
2.3571687836
 10
-21.8690641034
 20
2.3388761012
 10
-21.8483413164
 20
2.3179344413
 10
-21.826208609
 20
2.2950004224
 10
-21.8023672192
 20
2.2708622483
 10
-21.7771159091
 20
2.2459345389
 10
-21.7513509653
 20
2.2201427787
 10
-21.7253711503
 20
2.1936713676
 10
-21.6988777016
 20
2.1670661373
 10
-21.6718706193
 20
2.1406624327
  0
LWPOLYLINE
  5
264
100
AcDbEntity
  8
ASSI
100
AcDbPolyline
 62
7
  6
CONTINUOUS
 90
10
 70
0
 10
-21.8883769702
 20
49.6128312164
 10
-21.8700842877
 20
49.6321440832
 10
-21.8491426279
 20
49.6528668702
 10
-21.826208609
 20
49.6749995776
 10
-21.8020704349
 20
49.6988409674
 10
-21.7771427254
 20
49.7240922775
 10
-21.7513509653
 20
49.7498572213
 10
-21.7248795542
 20
49.7758370363
 10
-21.6982743239
 20
49.802330485
 10
-21.6718706193
 20
49.8293375673
  0
LINE
  5
265
100
AcDbEntity
  8
ASSI
100
AcDbLine
 62
253
  6
CONTINUOUS
 10
-20.0481369959
 20
50.4718325431
 11
-20.034969539
 21
50.485
  0
LINE
  5
266
100
AcDbEntity
  8
ASSI
100
AcDbLine
 62
253
  6
CONTINUOUS
 10
-19.8481674569
 20
50.2718630041
 11
-19.835
 21
50.285030461
  0
LINE
  5
267
100
AcDbEntity
  8
ASSI
100
AcDbLine
 62
7
  6
CONTINUOUS
 10
-21.135
 20
48.385
 11
-21.1481674569
 21
48.3718325431
  0
LINE
  5
268
100
AcDbEntity
  8
ASSI
100
AcDbLine
 62
7
  6
CONTINUOUS
 10
-20.6929942858
 20
46.9722686779
 11
-20.8675449351
 21
46.885
  0
LINE
  5
269
100
AcDbEntity
  8
ASSI
100
AcDbLine
 62
7
  6
CONTINUOUS
 10
-20.6934656028
 20
47.4411094406
 11
-20.8675449351
 21
47.3901134101
  0
LINE
  5
26A
100
AcDbEntity
  8
ASSI
100
AcDbLine
 62
7
  6
CONTINUOUS
 10
-11.835
 20
3.585
 11
-11.8175449351
 21
3.586745331
  0
LINE
  5
26B
100
AcDbEntity
  8
ASSI
100
AcDbLine
 62
7
  6
CONTINUOUS
 10
-23.2350000646
 20
3.5850000646
 11
-21.935
 21
3.585
  0
LINE
  5
26C
100
AcDbEntity
  8
ASSI
100
AcDbLine
 62
7
  6
CONTINUOUS
 10
-21.135
 20
3.585
 11
-17.085
 21
3.585
  0
LINE
  5
26D
100
AcDbEntity
  8
ASSI
100
AcDbLine
 62
7
  6
CONTINUOUS
 10
-8.185
 20
3.585
 11
-4.135
 21
3.585
  0
LINE
  5
26E
100
AcDbEntity
  8
ASSI
100
AcDbLine
 62
7
  6
CONTINUOUS
 10
-3.335
 20
3.585
 11
-2.035
 21
3.585
  0
LINE
  5
26F
100
AcDbEntity
  8
ASSI
100
AcDbLine
 62
7
  6
CONTINUOUS
 10
-13.4524550649
 20
3.586745331
 11
-11.8175449351
 21
3.586745331
  0
LINE
  5
270
100
AcDbEntity
  8
ASSI
100
AcDbLine
 62
7
  6
CONTINUOUS
 10
-23.2176210875
 20
3.6024550649
 11
-21.6718706193
 21
3.6024550649
  0
LINE
  5
271
100
AcDbEntity
  8
ASSI
100
AcDbLine
 62
7
  6
CONTINUOUS
 10
-21.3981293807
 20
3.6024550649
 11
-19.8901134101
 21
3.6024550649
  0
LINE
  5
272
100
AcDbEntity
  8
ASSI
100
AcDbLine
 62
7
  6
CONTINUOUS
 10
-5.3798865899
 20
3.6024550649
 11
-3.8718706193
 21
3.6024550649
  0
LINE
  5
273
100
AcDbEntity
  8
ASSI
100
AcDbLine
 62
7
  6
CONTINUOUS
 10
-3.5981293807
 20
3.6024550649
 11
-2.0523789125
 21
3.6024550649
  0
LINE
  5
274
100
AcDbEntity
  8
ASSI
100
AcDbLine
 62
253
  6
CONTINUOUS
 10
-19.9362233427
 20
3.7598552822
 11
-15.7098759936
 21
3.7598552822
  0
LINE
  5
275
100
AcDbEntity
  8
ASSI
100
AcDbLine
 62
253
  6
CONTINUOUS
 10
-9.5601240064
 20
3.7598552822
 11
-5.3337766573
 21
3.7598552822
  0
LINE
  5
276
100
AcDbEntity
  8
ASSI
100
AcDbLine
 62
7
  6
CONTINUOUS
 10
-9.5692904416
 20
4.285
 11
-15.7007095584
 21
4.285
  0
LINE
  5
277
100
AcDbEntity
  8
ASSI
100
AcDbLine
 62
7
  6
CONTINUOUS
 10
-13.435
 20
3.585
 11
-13.4524550649
 21
3.586745331
  0
LWPOLYLINE
  5
278
100
AcDbEntity
  8
RACCORDO
100
AcDbPolyline
 62
253
  6
CONTINUOUS
 90
5
 70
0
 10
-8.2824207106
 20
2.3323814724
 10
-8.2855088794
 20
2.3327063579
 10
-8.2931746785
 20
2.3330205978
 10
-8.3053390177
 20
2.3333241923
 10
-8.3426084849
 20
2.3339056103
  0
LWPOLYLINE
  5
279
100
AcDbEntity
  8
RACCORDO
100
AcDbPolyline
 62
253
  6
CONTINUOUS
 90
9
 70
0
 10
-8.5323806883
 20
2.0824187645
 10
-8.5337368548
 20
2.0827434337
 10
-8.536891389
 20
2.0830575605
 10
-8.5418442908
 20
2.0833611449
 10
-8.5486881364
 20
2.0836572957
 10
-8.5573303498
 20
2.0839429041
 10
-8.5674932026
 20
2.0842086444
 10
-8.579225262
 20
2.0844538098
 10
-8.6068278703
 20
2.0848773301
  0
LINE
  5
27A
100
AcDbEntity
  8
ASSI
100
AcDbLine
 62
7
  6
CONTINUOUS
 10
-20.6934656028
 20
4.5288905594
 11
-20.8675449351
 21
4.5798865899
  0
LINE
  5
27B
100
AcDbEntity
  8
ASSI
100
AcDbLine
 62
7
  6
CONTINUOUS
 10
-20.6929942858
 20
4.9977313221
 11
-20.8675449351
 21
5.085
  0
LINE
  5
27C
100
AcDbEntity
  8
ASSI
100
AcDbLine
 62
253
  6
CONTINUOUS
 10
-20.034969539
 20
1.485
 11
-20.0481369959
 21
1.4981674569
  0
LINE
  5
27D
100
AcDbEntity
  8
ASSI
100
AcDbLine
 62
253
  6
CONTINUOUS
 10
-19.835
 20
1.684969539
 11
-19.8481674569
 21
1.6981369959
  0
LINE
  5
27E
100
AcDbEntity
  8
ASSI
100
AcDbLine
 62
7
  6
CONTINUOUS
 10
-21.135
 20
3.585
 11
-21.1481674569
 21
3.5981674569
  0
LINE
  5
27F
100
AcDbEntity
  8
DRAFT
100
AcDbLine
 62
7
  6
CONTINUOUS
 10
-22.0693828276
 20
44.2209776762
 11
-22.094680314
 21
44.1956639168
  0
LINE
  5
280
100
AcDbEntity
  8
DRAFT
100
AcDbLine
 62
7
  6
CONTINUOUS
 10
-22.0500019536
 20
44.2218525798
 11
-22.075345098
 21
44.1964931331
  0
LINE
  5
281
100
AcDbEntity
  8
0
100
AcDbLine
 62
7
  6
CONTINUOUS
 10
-21.435
 20
46.835
 11
-23.1993027805
 21
45.0706972195
  0
LINE
  5
282
100
AcDbEntity
  8
RACCORDO
100
AcDbLine
 62
7
  6
CONTINUOUS
 10
-21.435
 20
46.835
 11
-23.1993027805
 21
45.0706972195
  0
LINE
  5
283
100
AcDbEntity
  8
ASSI
100
AcDbLine
 62
7
  6
CONTINUOUS
 10
-20.8675449351
 20
47.3901134101
 11
-19.8901134101
 21
48.3675449351
  0
LINE
  5
284
100
AcDbEntity
  8
0
100
AcDbLine
 62
7
  6
CONTINUOUS
 10
-21.2622036731
 20
46.835
 11
-23.077117326
 21
45.0200863471
  0
LINE
  5
285
100
AcDbEntity
  8
RACCORDO
100
AcDbLine
 62
7
  6
CONTINUOUS
 10
-21.2622036731
 20
46.835
 11
-23.077117326
 21
45.0200863471
  0
LINE
  5
286
100
AcDbEntity
  8
ASSI
100
AcDbLine
 62
7
  6
CONTINUOUS
 10
-19.935
 20
46.885
 11
-19.8477313221
 21
46.9722686779
  0
LINE
  5
287
100
AcDbEntity
  8
RACCORDO
100
AcDbLine
 62
7
  6
CONTINUOUS
 10
-23.3552082353
 20
43.2833042468
 11
-22.7333042468
 21
43.9052082353
  0
LINE
  5
288
100
AcDbEntity
  8
ASSI
100
AcDbLine
 62
7
  6
CONTINUOUS
 10
-23.3552082353
 20
43.2833042468
 11
-22.7333042468
 21
43.9052082353
  0
LINE
  5
289
100
AcDbEntity
  8
0
100
AcDbLine
 62
7
  6
CONTINUOUS
 10
-17.935
 20
45.985
 11
-17.7604493507
 21
46.0722686779
  0
LINE
  5
28A
100
AcDbEntity
  8
0
100
AcDbLine
 62
7
  6
CONTINUOUS
 10
-20.0716556363
 20
44.2511694676
 11
-20.0891107013
 21
44.2424425998
  0
LINE
  5
28B
100
AcDbEntity
  8
DRAFT
100
AcDbLine
 62
7
  6
CONTINUOUS
 10
-20.0716556363
 20
44.2511694676
 11
-20.0891107013
 21
44.2424425998
  0
LWPOLYLINE
  5
28C
100
AcDbEntity
  8
0
100
AcDbPolyline
 62
7
  6
CONTINUOUS
 90
12
 70
0
 10
-14.2593964614
 20
6.1003711835
 10
-14.3772682896
 20
6.0999907095
 10
-14.4901397193
 20
6.0993718982
 10
-14.5994955018
 20
6.0984999336
 10
-14.7038508859
 20
6.0973896317
 10
-14.7987516183
 20
6.0960854409
 10
-14.8838197026
 20
6.0945754189
 10
-14.9594331351
 20
6.0928715079
 10
-15.0222716511
 20
6.091053983
 10
-15.0712284958
 20
6.0891496026
 10
-15.1074104239
 20
6.0871316082
 10
-15.1308174355
 20
6.085
  0
LINE
  5
28D
100
AcDbEntity
  8
ASSI
100
AcDbLine
 62
253
  6
CONTINUOUS
 10
-20.6929942858
 20
4.7597029773
 11
-15.6924235871
 21
4.7597029773
  0
LINE
  5
28E
100
AcDbEntity
  8
ASSI
100
AcDbLine
 62
253
  6
CONTINUOUS
 10
-9.5775764129
 20
4.7597029773
 11
-4.5770057142
 21
4.7597029773
  0
LINE
  5
28F
100
AcDbEntity
  8
ASSI
100
AcDbLine
 62
7
  6
CONTINUOUS
 10
-19.2222686779
 20
4.9104493507
 11
-17.7604493507
 21
4.9104493507
  0
LINE
  5
290
100
AcDbEntity
  8
ASSI
100
AcDbLine
 62
7
  6
CONTINUOUS
 10
-7.5095506493
 20
4.9104493507
 11
-6.0477313221
 21
4.9104493507
  0
LINE
  5
291
100
AcDbEntity
  8
ASSI
100
AcDbLine
 62
7
  6
CONTINUOUS
 10
-20.6929942858
 20
4.9977313221
 11
-19.8477313221
 21
4.9977313221
  0
LINE
  5
292
100
AcDbEntity
  8
ASSI
100
AcDbLine
 62
7
  6
CONTINUOUS
 10
-5.4222686779
 20
4.9977313221
 11
-4.5770057142
 21
4.9977313221
  0
LINE
  5
293
100
AcDbEntity
  8
0
100
AcDbLine
 62
7
  6
CONTINUOUS
 10
-19.135
 20
5.085
 11
-17.935
 21
5.085
  0
LINE
  5
294
100
AcDbEntity
  8
0
100
AcDbLine
 62
7
  6
CONTINUOUS
 10
-7.335
 20
5.085
 11
-6.135
 21
5.085
  0
LINE
  5
295
100
AcDbEntity
  8
ASSI
100
AcDbLine
 62
7
  6
CONTINUOUS
 10
-4.4024550649
 20
5.085
 11
-5.335
 21
5.085
  0
LINE
  5
296
100
AcDbEntity
  8
ASSI
100
AcDbLine
 62
7
  6
CONTINUOUS
 10
-19.935
 20
5.085
 11
-20.8675449351
 21
5.085
  0
LINE
  5
297
100
AcDbEntity
  8
0
100
AcDbLine
 62
7
  6
CONTINUOUS
 10
-21.435
 20
5.135
 11
-20.035
 21
5.135
  0
LINE
  5
298
100
AcDbEntity
  8
DRAFT
100
AcDbLine
 62
7
  6
CONTINUOUS
 10
-21.435
 20
5.135
 11
-20.035
 21
5.135
  0
LINE
  5
299
100
AcDbEntity
  8
0
100
AcDbLine
 62
7
  6
CONTINUOUS
 10
-3.835
 20
5.135
 11
-5.235
 21
5.135
  0
LINE
  5
29A
100
AcDbEntity
  8
DRAFT
100
AcDbLine
 62
7
  6
CONTINUOUS
 10
-3.835
 20
5.135
 11
-5.235
 21
5.135
  0
LINE
  5
29B
100
AcDbEntity
  8
ASSI
100
AcDbLine
 62
7
  6
CONTINUOUS
 10
-15.685
 20
5.185
 11
-9.585
 21
5.185
  0
LINE
  5
29C
100
AcDbEntity
  8
ASSI
100
AcDbLine
 62
7
  6
CONTINUOUS
 10
-17.7604493507
 20
5.8977313221
 11
-7.5095506493
 21
5.8977313221
  0
LINE
  5
29D
100
AcDbEntity
  8
RACCORDO
100
AcDbLine
 62
7
  6
CONTINUOUS
 10
-15.135
 20
5.9317661065
 11
-15.0763111231
 21
5.9317661065
  0
LINE
  5
29E
100
AcDbEntity
  8
RACCORDO
100
AcDbLine
 62
7
  6
CONTINUOUS
 10
-10.1936888769
 20
5.9317661065
 11
-10.135
 21
5.9317661065
  0
LINE
  5
29F
100
AcDbEntity
  8
DRAFT
100
AcDbLine
 62
7
  6
CONTINUOUS
 10
-20.035
 20
5.985
 11
-19.935
 21
5.985
  0
LINE
  5
2A0
100
AcDbEntity
  8
0
100
AcDbLine
 62
7
  6
CONTINUOUS
 10
-17.935
 20
5.985
 11
-15.1343521811
 21
5.985
  0
LINE
  5
2A1
100
AcDbEntity
  8
0
100
AcDbLine
 62
7
  6
CONTINUOUS
 10
-10.1356478189
 20
5.985
 11
-7.335
 21
5.985
  0
LINE
  5
2A2
100
AcDbEntity
  8
DRAFT
100
AcDbLine
 62
7
  6
CONTINUOUS
 10
-5.335
 20
5.985
 11
-5.235
 21
5.985
  0
LINE
  5
2A3
100
AcDbEntity
  8
0
100
AcDbLine
 62
7
  6
CONTINUOUS
 10
-9.135
 20
6.085
 11
-10.1405217198
 21
6.085
  0
LINE
  5
2A4
100
AcDbEntity
  8
0
100
AcDbLine
 62
7
  6
CONTINUOUS
 10
-15.1294782802
 20
6.085
 11
-16.135
 21
6.085
  0
LINE
  5
2A5
100
AcDbEntity
  8
0
100
AcDbLine
 62
7
  6
CONTINUOUS
 10
-11.1334757651
 20
6.1005133204
 11
-14.2593964614
 21
6.1003711835
  0
LINE
  5
2A6
100
AcDbEntity
  8
0
100
AcDbLine
 62
7
  6
CONTINUOUS
 10
-9.1716556363
 20
6.1216556363
 11
-16.0983443637
 21
6.1216556363
  0
LINE
  5
2A7
100
AcDbEntity
  8
DRAFT
100
AcDbLine
 62
7
  6
CONTINUOUS
 10
-9.1716556363
 20
6.1216556363
 11
-16.0983443637
 21
6.1216556363
  0
LINE
  5
2A8
100
AcDbEntity
  8
ASSI
100
AcDbLine
 62
7
  6
CONTINUOUS
 10
-5.4222686779
 20
6.1977313221
 11
-6.0477313221
 21
6.1977313221
  0
LINE
  5
2A9
100
AcDbEntity
  8
ASSI
100
AcDbLine
 62
7
  6
CONTINUOUS
 10
-19.2222686779
 20
6.1977313221
 11
-19.8477313221
 21
6.1977313221
  0
LINE
  5
2AA
100
AcDbEntity
  8
0
100
AcDbLine
 62
7
  6
CONTINUOUS
 10
-20.035
 20
6.285
 11
-16.135
 21
6.285
  0
LINE
  5
2AB
100
AcDbEntity
  8
DRAFT
100
AcDbLine
 62
7
  6
CONTINUOUS
 10
-20.035
 20
6.285
 11
-16.135
 21
6.285
  0
LINE
  5
2AC
100
AcDbEntity
  8
0
100
AcDbLine
 62
7
  6
CONTINUOUS
 10
-9.135
 20
6.285
 11
-5.235
 21
6.285
  0
LINE
  5
2AD
100
AcDbEntity
  8
DRAFT
100
AcDbLine
 62
7
  6
CONTINUOUS
 10
-9.135
 20
6.285
 11
-5.235
 21
6.285
  0
LINE
  5
2AE
100
AcDbEntity
  8
0
100
AcDbLine
 62
7
  6
CONTINUOUS
 10
-20.0716556363
 20
6.3216556363
 11
-16.0983443637
 21
6.3216556363
  0
LINE
  5
2AF
100
AcDbEntity
  8
DRAFT
100
AcDbLine
 62
7
  6
CONTINUOUS
 10
-20.0716556363
 20
6.3216556363
 11
-16.0983443637
 21
6.3216556363
  0
LINE
  5
2B0
100
AcDbEntity
  8
0
100
AcDbLine
 62
7
  6
CONTINUOUS
 10
-9.1716556363
 20
6.3216556363
 11
-5.1983443637
 21
6.3216556363
  0
LINE
  5
2B1
100
AcDbEntity
  8
DRAFT
100
AcDbLine
 62
7
  6
CONTINUOUS
 10
-9.1716556363
 20
6.3216556363
 11
-5.1983443637
 21
6.3216556363
  0
LINE
  5
2B2
100
AcDbEntity
  8
RACCORDO
100
AcDbLine
 62
7
  6
CONTINUOUS
 10
-16.3481017248
 20
6.3719096983
 11
-3.2437756099
 21
6.3719096983
  0
LINE
  5
2B3
100
AcDbEntity
  8
ASSI
100
AcDbLine
 62
7
  6
CONTINUOUS
 10
-16.3481017248
 20
6.3719096983
 11
-3.2437756099
 21
6.3719096983
  0
LWPOLYLINE
  5
2B4
100
AcDbEntity
  8
0
100
AcDbPolyline
 62
7
  6
CONTINUOUS
 90
13
 70
0
 10
-11.1334757651
 20
6.1005133204
 10
-11.0106035386
 20
6.1003711835
 10
-10.8927317104
 20
6.0999907095
 10
-10.7798602807
 20
6.0993718982
 10
-10.6705044982
 20
6.0984999336
 10
-10.5661491141
 20
6.0973896317
 10
-10.4712483817
 20
6.0960854409
 10
-10.3861802974
 20
6.0945754189
 10
-10.3105668649
 20
6.0928715079
 10
-10.2477283489
 20
6.091053983
 10
-10.1987715042
 20
6.0891496026
 10
-10.1625895761
 20
6.0871316082
 10
-10.1391825645
 20
6.085
  0
LINE
  5
2B5
100
AcDbEntity
  8
0
100
AcDbLine
 62
7
  6
CONTINUOUS
 10
-17.935
 20
5.985
 11
-17.7604493507
 21
5.8977313221
  0
LINE
  5
2B6
100
AcDbEntity
  8
0
100
AcDbLine
 62
7
  6
CONTINUOUS
 10
-23.1993027805
 20
6.8993027805
 11
-21.435
 21
5.135
  0
LINE
  5
2B7
100
AcDbEntity
  8
RACCORDO
100
AcDbLine
 62
7
  6
CONTINUOUS
 10
-23.1993027805
 20
6.8993027805
 11
-21.435
 21
5.135
  0
LINE
  5
2B8
100
AcDbEntity
  8
ASSI
100
AcDbLine
 62
7
  6
CONTINUOUS
 10
-19.8901134101
 20
3.6024550649
 11
-20.8675449351
 21
4.5798865899
  0
LINE
  5
2B9
100
AcDbEntity
  8
0
100
AcDbLine
 62
7
  6
CONTINUOUS
 10
-23.077117326
 20
6.9499136529
 11
-21.2622036731
 21
5.135
  0
LINE
  5
2BA
100
AcDbEntity
  8
RACCORDO
100
AcDbLine
 62
7
  6
CONTINUOUS
 10
-23.077117326
 20
6.9499136529
 11
-21.2622036731
 21
5.135
  0
LINE
  5
2BB
100
AcDbEntity
  8
ASSI
100
AcDbLine
 62
7
  6
CONTINUOUS
 10
-19.935
 20
5.085
 11
-19.8477313221
 21
4.9977313221
  0
LINE
  5
2BC
100
AcDbEntity
  8
RACCORDO
100
AcDbLine
 62
7
  6
CONTINUOUS
 10
-23.3552082353
 20
8.6866957532
 11
-22.7333042468
 21
8.0647917647
  0
LINE
  5
2BD
100
AcDbEntity
  8
ASSI
100
AcDbLine
 62
7
  6
CONTINUOUS
 10
-23.3552082353
 20
8.6866957532
 11
-22.7333042468
 21
8.0647917647
  0
LINE
  5
2BE
100
AcDbEntity
  8
0
100
AcDbLine
 62
7
  6
CONTINUOUS
 10
-20.035
 20
45.685
 11
-20.0716556363
 21
45.6483443637
  0
LINE
  5
2BF
100
AcDbEntity
  8
DRAFT
100
AcDbLine
 62
7
  6
CONTINUOUS
 10
-20.035
 20
45.685
 11
-20.0716556363
 21
45.6483443637
  0
LINE
  5
2C0
100
AcDbEntity
  8
0
100
AcDbLine
 62
7
  6
CONTINUOUS
 10
-19.8477313221
 20
45.7722686779
 11
-19.935
 21
45.685
  0
LINE
  5
2C1
100
AcDbEntity
  8
0
100
AcDbLine
 62
7
  6
CONTINUOUS
 10
-17.7604493507
 20
47.0595506493
 11
-17.935
 21
46.885
  0
LINE
  5
2C2
100
AcDbEntity
  8
RACCORDO
100
AcDbLine
 62
253
  6
CONTINUOUS
 10
-13.7024169887
 20
49.9675449351
 11
-13.6849619238
 21
49.985
  0
LINE
  5
2C3
100
AcDbEntity
  8
ASSI
100
AcDbLine
 62
7
  6
CONTINUOUS
 10
-16.6480903017
 20
7.385
 11
-21.835
 21
7.385
  0
LINE
  5
2C4
100
AcDbEntity
  8
ASSI
100
AcDbLine
 62
7
  6
CONTINUOUS
 10
-1.5524550649
 20
7.5623502692
 11
-1.5088140784
 21
7.5623502692
  0
LINE
  5
2C5
100
AcDbEntity
  8
ASSI
100
AcDbLine
 62
7
  6
CONTINUOUS
 10
-23.7175449351
 20
7.5623502692
 11
-23.7611859216
 21
7.5623502692
  0
LINE
  5
2C6
100
AcDbEntity
  8
0
100
AcDbLine
 62
7
  6
CONTINUOUS
 10
-10.135
 20
7.685
 11
-15.135
 21
7.685
  0
LINE
  5
2C7
100
AcDbEntity
  8
ASSI
100
AcDbLine
 62
7
  6
CONTINUOUS
 10
-10.135
 20
7.685
 11
-15.135
 21
7.685
  0
LINE
  5
2C8
100
AcDbEntity
  8
RACCORDO
100
AcDbLine
 62
7
  6
CONTINUOUS
 10
-22.0262243901
 20
7.7719096983
 11
-16.6480903017
 21
7.7719096983
  0
LINE
  5
2C9
100
AcDbEntity
  8
ASSI
100
AcDbLine
 62
7
  6
CONTINUOUS
 10
-22.0262243901
 20
7.7719096983
 11
-16.6480903017
 21
7.7719096983
  0
LINE
  5
2CA
100
AcDbEntity
  8
ASSI
100
AcDbLine
 62
7
  6
CONTINUOUS
 10
-15.135
 20
7.785
 11
-10.135
 21
7.785
  0
LINE
  5
2CB
100
AcDbEntity
  8
0
100
AcDbLine
 62
7
  6
CONTINUOUS
 10
-20.035
 20
6.285
 11
-20.0716556363
 21
6.3216556363
  0
LINE
  5
2CC
100
AcDbEntity
  8
DRAFT
100
AcDbLine
 62
7
  6
CONTINUOUS
 10
-20.035
 20
6.285
 11
-20.0716556363
 21
6.3216556363
  0
LINE
  5
2CD
100
AcDbEntity
  8
0
100
AcDbLine
 62
7
  6
CONTINUOUS
 10
-19.8477313221
 20
6.1977313221
 11
-19.935
 21
6.285
  0
LINE
  5
2CE
100
AcDbEntity
  8
0
100
AcDbLine
 62
7
  6
CONTINUOUS
 10
-17.7604493507
 20
4.9104493507
 11
-17.935
 21
5.085
  0
LINE
  5
2CF
100
AcDbEntity
  8
RACCORDO
100
AcDbLine
 62
253
  6
CONTINUOUS
 10
-13.6849619238
 20
1.985
 11
-13.7024169887
 21
2.0024550649
  0
LINE
  5
2D0
100
AcDbEntity
  8
RACCORDO
100
AcDbLine
 62
253
  6
CONTINUOUS
 10
-13.4524550649
 20
49.7175830113
 11
-13.435
 21
49.7350380762
  0
LWPOLYLINE
  5
2D1
100
AcDbEntity
  8
0
100
AcDbPolyline
 62
253
  6
CONTINUOUS
 90
3
 70
0
 10
-14.4377519366
 20
8.6870984562
 10
-14.3871424653
 20
8.699244074
 10
-14.335
 20
8.7033281573
  0
LWPOLYLINE
  5
2D2
100
AcDbEntity
  8
RACCORDO
100
AcDbPolyline
 62
253
  6
CONTINUOUS
 90
3
 70
0
 10
-14.4377519366
 20
8.6870984562
 10
-14.3871424653
 20
8.699244074
 10
-14.335
 20
8.7033281573
  0
LINE
  5
2D3
100
AcDbEntity
  8
ASSI
100
AcDbLine
 62
7
  6
CONTINUOUS
 10
-15.135
 20
8.485
 11
-10.135
 21
8.485
  0
LINE
  5
2D4
100
AcDbEntity
  8
RACCORDO
100
AcDbLine
 62
7
  6
CONTINUOUS
 10
-10.9524221128
 20
8.685
 11
-14.3175778872
 21
8.685
  0
LINE
  5
2D5
100
AcDbEntity
  8
ASSI
100
AcDbLine
 62
7
  6
CONTINUOUS
 10
-10.9524221128
 20
8.685
 11
-14.3175778872
 21
8.685
  0
LINE
  5
2D6
100
AcDbEntity
  8
0
100
AcDbLine
 62
253
  6
CONTINUOUS
 10
-14.335
 20
8.7033281573
 11
-10.935
 21
8.7033281573
  0
LINE
  5
2D7
100
AcDbEntity
  8
RACCORDO
100
AcDbLine
 62
253
  6
CONTINUOUS
 10
-14.335
 20
8.7033281573
 11
-10.935
 21
8.7033281573
  0
LINE
  5
2D8
100
AcDbEntity
  8
0
100
AcDbLine
 62
7
  6
CONTINUOUS
 10
-14.335
 20
8.735
 11
-10.935
 21
8.735
  0
LINE
  5
2D9
100
AcDbEntity
  8
RACCORDO
100
AcDbLine
 62
7
  6
CONTINUOUS
 10
-14.335
 20
8.735
 11
-10.935
 21
8.735
  0
LINE
  5
2DA
100
AcDbEntity
  8
0
100
AcDbLine
 62
7
  6
CONTINUOUS
 10
-10.135
 20
8.935
 11
-15.135
 21
8.935
  0
LINE
  5
2DB
100
AcDbEntity
  8
0
100
AcDbLine
 62
7
  6
CONTINUOUS
 10
-15.135
 20
9.385
 11
-10.135
 21
9.385
  0
LINE
  5
2DC
100
AcDbEntity
  8
ASSI
100
AcDbLine
 62
7
  6
CONTINUOUS
 10
-15.135
 20
9.385
 11
-10.135
 21
9.385
  0
LINE
  5
2DD
100
AcDbEntity
  8
0
100
AcDbLine
 62
253
  6
CONTINUOUS
 10
-10.935
 20
8.7033281573
 11
-10.8829055467
 21
8.6992516497
  0
LINE
  5
2DE
100
AcDbEntity
  8
RACCORDO
100
AcDbLine
 62
253
  6
CONTINUOUS
 10
-10.935
 20
8.7033281573
 11
-10.8829055467
 21
8.6992516497
  0
LINE
  5
2DF
100
AcDbEntity
  8
0
100
AcDbLine
 62
253
  6
CONTINUOUS
 10
-10.8829055467
 20
8.6992516497
 11
-10.832393957
 21
8.6871459894
  0
LINE
  5
2E0
100
AcDbEntity
  8
RACCORDO
100
AcDbLine
 62
253
  6
CONTINUOUS
 10
-10.8829055467
 20
8.6992516497
 11
-10.832393957
 21
8.6871459894
  0
LINE
  5
2E1
100
AcDbEntity
  8
RACCORDO
100
AcDbLine
 62
253
  6
CONTINUOUS
 10
-13.435
 20
2.2349619238
 11
-13.4524550649
 21
2.2524169887
  0
LWPOLYLINE
  5
2E2
100
AcDbEntity
  8
ASSI
100
AcDbPolyline
 62
253
  6
CONTINUOUS
 90
10
 70
0
 10
-19.8481674569
 20
1.6981369959
 10
-19.8482102907
 20
1.6982240785
 10
-19.8482538546
 20
1.6984561788
 10
-19.8482981485
 20
1.6988332968
 10
-19.8483434474
 20
1.6993500295
 10
-19.8483894763
 20
1.70001178
 10
-19.8484354106
 20
1.7008347568
 10
-19.848481265
 20
1.7018246186
 10
-19.8485270248
 20
1.7029757068
 10
-19.8485718208
 20
1.7042872549
  0
LWPOLYLINE
  5
2E3
100
AcDbEntity
  8
0
100
AcDbPolyline
 62
253
  6
CONTINUOUS
 90
3
 70
0
 10
-10.832393957
 20
8.6871459894
 10
-10.785
 20
8.6673790008
 10
-10.7421637171
 20
8.6405512938
  0
LWPOLYLINE
  5
2E4
100
AcDbEntity
  8
RACCORDO
100
AcDbPolyline
 62
253
  6
CONTINUOUS
 90
3
 70
0
 10
-10.832393957
 20
8.6871459894
 10
-10.785
 20
8.6673790008
 10
-10.7421637171
 20
8.6405512938
  0
LWPOLYLINE
  5
2E5
100
AcDbEntity
  8
RACCORDO
100
AcDbPolyline
 62
253
  6
CONTINUOUS
 90
4
 70
0
 10
-23.2935359545
 20
37.835
 10
-23.2920164708
 20
37.8403504461
 10
-23.290521434
 20
37.8563400553
 10
-23.2890508441
 20
37.8828371398
  0
LWPOLYLINE
  5
2E6
100
AcDbEntity
  8
ASSI
100
AcDbPolyline
 62
253
  6
CONTINUOUS
 90
4
 70
0
 10
-23.2935359545
 20
37.835
 10
-23.2920164708
 20
37.8403504461
 10
-23.290521434
 20
37.8563400553
 10
-23.2890508441
 20
37.8828371398
  0
LINE
  5
2E7
100
AcDbEntity
  8
ASSI
100
AcDbLine
 62
7
  6
CONTINUOUS
 10
-19.9362233427
 20
48.2101447178
 11
-19.8901134101
 21
48.3675449351
  0
LINE
  5
2E8
100
AcDbEntity
  8
RACCORDO
100
AcDbLine
 62
253
  6
CONTINUOUS
 10
-8.5323806883
 20
49.8875812355
 11
-8.4349619238
 21
49.985
  0
LINE
  5
2E9
100
AcDbEntity
  8
RACCORDO
100
AcDbLine
 62
253
  6
CONTINUOUS
 10
-8.2824206963
 20
49.6376173799
 11
-8.185
 21
49.7350380762
  0
LINE
  5
2EA
100
AcDbEntity
  8
RACCORDO
100
AcDbLine
 62
7
  6
CONTINUOUS
 10
-8.185
 20
48.385
 11
-8.2824187645
 21
48.2875812355
  0
LWPOLYLINE
  5
2EB
100
AcDbEntity
  8
0
100
AcDbPolyline
 62
253
  6
CONTINUOUS
 90
4
 70
0
 10
-10.7416778093
 20
43.3298141709
 10
-10.7847233433
 20
43.3027640399
 10
-10.8322480634
 20
43.2829015438
 10
-10.8828575347
 20
43.270755926
  0
LWPOLYLINE
  5
2EC
100
AcDbEntity
  8
RACCORDO
100
AcDbPolyline
 62
253
  6
CONTINUOUS
 90
4
 70
0
 10
-10.7416778093
 20
43.3298141709
 10
-10.7847233433
 20
43.3027640399
 10
-10.8322480634
 20
43.2829015438
 10
-10.8828575347
 20
43.270755926
  0
LINE
  5
2ED
100
AcDbEntity
  8
0
100
AcDbLine
 62
253
  6
CONTINUOUS
 10
-2.0706972195
 20
45.0706972195
 11
-2.192882674
 21
45.0200863471
  0
LINE
  5
2EE
100
AcDbEntity
  8
RACCORDO
100
AcDbLine
 62
253
  6
CONTINUOUS
 10
-2.0706972195
 20
45.0706972195
 11
-2.192882674
 21
45.0200863471
  0
LINE
  5
2EF
100
AcDbEntity
  8
0
100
AcDbLine
 62
253
  6
CONTINUOUS
 10
-2.192882674
 20
6.9499136529
 11
-2.0706972195
 21
6.8993027805
  0
LINE
  5
2F0
100
AcDbEntity
  8
RACCORDO
100
AcDbLine
 62
253
  6
CONTINUOUS
 10
-2.192882674
 20
6.9499136529
 11
-2.0706972195
 21
6.8993027805
  0
LINE
  5
2F1
100
AcDbEntity
  8
RACCORDO
100
AcDbLine
 62
253
  6
CONTINUOUS
 10
-8.4349619238
 20
1.985
 11
-8.5323806883
 21
2.0824187645
  0
LINE
  5
2F2
100
AcDbEntity
  8
RACCORDO
100
AcDbLine
 62
253
  6
CONTINUOUS
 10
-8.185
 20
2.2349619238
 11
-8.2824206963
 21
2.3323826201
  0
LINE
  5
2F3
100
AcDbEntity
  8
RACCORDO
100
AcDbLine
 62
7
  6
CONTINUOUS
 10
-8.185
 20
3.585
 11
-8.2824187645
 21
3.6824187645
  0
LINE
  5
2F4
100
AcDbEntity
  8
ASSI
100
AcDbLine
 62
7
  6
CONTINUOUS
 10
-19.9362233427
 20
3.7598552822
 11
-19.8901134101
 21
3.6024550649
  0
LWPOLYLINE
  5
2F5
100
AcDbEntity
  8
ASSI
100
AcDbPolyline
 62
253
  6
CONTINUOUS
 90
13
 70
0
 10
-23.2218325431
 20
1.6981369959
 10
-23.2201144941
 20
1.6720407967
 10
-23.2150056276
 20
1.6463909314
 10
-23.2065933217
 20
1.6216261058
 10
-23.1950214555
 20
1.5981698895
 10
-23.1804879478
 20
1.5764234692
 10
-23.1632413714
 20
1.5567587878
 10
-23.1435767027
 20
1.5395121841
 10
-23.1218302781
 20
1.5249786413
 10
-23.0983740419
 20
1.5134067395
 10
-23.0736091818
 20
1.5049944027
 10
-23.0479592666
 20
1.4998855143
 10
-23.0218630041
 20
1.4981674569
  0
LWPOLYLINE
  5
2F6
100
AcDbEntity
  8
ASSI
100
AcDbPolyline
 62
7
  6
CONTINUOUS
 90
16
 70
0
 10
-23.735
 20
4.0849238476
 10
-23.7323032882
 20
4.0330472004
 10
-23.7241949317
 20
3.9815161811
 10
-23.7106956352
 20
3.930902044
 10
-23.6918074185
 20
3.8815963882
 10
-23.6677165209
 20
3.8343678282
 10
-23.6389800191
 20
3.7902601189
 10
-23.6063142863
 20
3.7500301722
 10
-23.5699362959
 20
3.7136499153
 10
-23.5297079968
 20
3.6809828497
 10
-23.4856021346
 20
3.652246112
 10
-23.4383748714
 20
3.6281558856
 10
-23.3890657836
 20
3.6092708614
 10
-23.3384419043
 20
3.5957785285
 10
-23.2868961978
 20
3.5876811359
 10
-23.2350000646
 20
3.5850000704
  0
LINE
  5
2F7
100
AcDbEntity
  8
ASSI
100
AcDbLine
 62
7
  6
CONTINUOUS
 10
-23.735
 20
6.985
 11
-23.7611859216
 21
7.5623502692
  0
LINE
  5
2F8
100
AcDbEntity
  8
ASSI
100
AcDbLine
 62
253
  6
CONTINUOUS
 10
-23.0214418591
 20
2.3571687836
 11
-23.0367150409
 21
2.8623502692
  0
LINE
  5
2F9
100
AcDbEntity
  8
ASSI
100
AcDbLine
 62
253
  6
CONTINUOUS
 10
-23.221370992
 20
2.1825213153
 11
-23.235
 21
2.6334253918
  0
LINE
  5
2FA
100
AcDbEntity
  8
ASSI
100
AcDbLine
 62
253
  6
CONTINUOUS
 10
-23.2212970637
 20
2.1794513642
 11
-23.221370992
 21
2.1825213153
  0
LINE
  5
2FB
100
AcDbEntity
  8
ASSI
100
AcDbLine
 62
7
  6
CONTINUOUS
 10
-23.5855007266
 20
27.2521375469
 11
-23.5841010867
 21
27.1810432517
  0
LINE
  5
2FC
100
AcDbEntity
  8
ASSI
100
AcDbLine
 62
7
  6
CONTINUOUS
 10
-23.5855007266
 20
32.2521375469
 11
-23.5841010867
 21
32.1810432517
  0
LINE
  5
2FD
100
AcDbEntity
  8
ASSI
100
AcDbLine
 62
7
  6
CONTINUOUS
 10
-23.5855007266
 20
37.2521375469
 11
-23.5841010867
 21
37.1810432517
  0
LINE
  5
2FE
100
AcDbEntity
  8
ASSI
100
AcDbLine
 62
7
  6
CONTINUOUS
 10
-23.5855007266
 20
42.2521375469
 11
-23.5841010867
 21
42.1810432517
  0
LINE
  5
2FF
100
AcDbEntity
  8
RACCORDO
100
AcDbLine
 62
7
  6
CONTINUOUS
 10
-23.5855012062
 20
27.2521381382
 11
-23.5838741344
 21
27.1681787817
  0
LINE
  5
300
100
AcDbEntity
  8
RACCORDO
100
AcDbLine
 62
7
  6
CONTINUOUS
 10
-23.5855012062
 20
32.2521381382
 11
-23.5838741344
 21
32.1681787817
  0
LINE
  5
301
100
AcDbEntity
  8
RACCORDO
100
AcDbLine
 62
7
  6
CONTINUOUS
 10
-23.5855012062
 20
37.2521381382
 11
-23.5838741344
 21
37.1681787817
  0
LINE
  5
302
100
AcDbEntity
  8
RACCORDO
100
AcDbLine
 62
7
  6
CONTINUOUS
 10
-23.5855012062
 20
42.2521381382
 11
-23.5838741344
 21
42.1681787817
  0
LINE
  5
303
100
AcDbEntity
  8
ASSI
100
AcDbLine
 62
253
  6
CONTINUOUS
 10
-23.2212033809
 20
2.1743834973
 11
-23.2212970637
 21
2.1794513642
  0
LINE
  5
304
100
AcDbEntity
  8
ASSI
100
AcDbLine
 62
7
  6
CONTINUOUS
 10
-23.5841010867
 20
27.1810432517
 11
-23.5824742789
 21
27.0796800749
  0
LINE
  5
305
100
AcDbEntity
  8
ASSI
100
AcDbLine
 62
7
  6
CONTINUOUS
 10
-23.5841010867
 20
32.1810432517
 11
-23.5824742789
 21
32.0796800749
  0
LINE
  5
306
100
AcDbEntity
  8
ASSI
100
AcDbLine
 62
7
  6
CONTINUOUS
 10
-23.5841010867
 20
37.1810432517
 11
-23.5824742789
 21
37.0796800749
  0
LINE
  5
307
100
AcDbEntity
  8
ASSI
100
AcDbLine
 62
7
  6
CONTINUOUS
 10
-23.5841010867
 20
42.1810432517
 11
-23.5824742789
 21
42.0796800749
  0
LWPOLYLINE
  5
308
100
AcDbEntity
  8
RACCORDO
100
AcDbPolyline
 62
253
  6
CONTINUOUS
 90
10
 70
0
 10
-23.2809190192
 20
26.7207507149
 10
-23.2821505549
 20
26.8049155765
 10
-23.2834443494
 20
26.8803097947
 10
-23.2847828725
 20
26.9465713764
 10
-23.2861670325
 20
27.0033402648
 10
-23.2875959211
 20
27.0502838999
 10
-23.2890492831
 20
27.0871293927
 10
-23.2905203668
 20
27.1136449494
 10
-23.2920159239
 20
27.1296457809
 10
-23.2935359545
 20
27.135
  0
LWPOLYLINE
  5
309
100
AcDbEntity
  8
ASSI
100
AcDbPolyline
 62
253
  6
CONTINUOUS
 90
10
 70
0
 10
-23.2809190192
 20
26.7207507149
 10
-23.2821505549
 20
26.8049155765
 10
-23.2834443494
 20
26.8803097947
 10
-23.2847828725
 20
26.9465713764
 10
-23.2861670325
 20
27.0033402648
 10
-23.2875959211
 20
27.0502838999
 10
-23.2890492831
 20
27.0871293927
 10
-23.2905203668
 20
27.1136449494
 10
-23.2920159239
 20
27.1296457809
 10
-23.2935359545
 20
27.135
  0
LWPOLYLINE
  5
30A
100
AcDbEntity
  8
RACCORDO
100
AcDbPolyline
 62
253
  6
CONTINUOUS
 90
10
 70
0
 10
-23.2809190192
 20
31.7207507149
 10
-23.2821505549
 20
31.8049155765
 10
-23.2834443494
 20
31.8803097947
 10
-23.2847828725
 20
31.9465713764
 10
-23.2861670325
 20
32.0033402648
 10
-23.2875959211
 20
32.0502838999
 10
-23.2890492831
 20
32.0871293927
 10
-23.2905203668
 20
32.1136449494
 10
-23.2920159239
 20
32.1296457809
 10
-23.2935359545
 20
32.135
  0
LWPOLYLINE
  5
30B
100
AcDbEntity
  8
ASSI
100
AcDbPolyline
 62
253
  6
CONTINUOUS
 90
10
 70
0
 10
-23.2809190192
 20
31.7207507149
 10
-23.2821505549
 20
31.8049155765
 10
-23.2834443494
 20
31.8803097947
 10
-23.2847828725
 20
31.9465713764
 10
-23.2861670325
 20
32.0033402648
 10
-23.2875959211
 20
32.0502838999
 10
-23.2890492831
 20
32.0871293927
 10
-23.2905203668
 20
32.1136449494
 10
-23.2920159239
 20
32.1296457809
 10
-23.2935359545
 20
32.135
  0
LINE
  5
30C
100
AcDbEntity
  8
RACCORDO
100
AcDbLine
 62
7
  6
CONTINUOUS
 10
-23.5838741344
 20
27.1681787817
 11
-23.5823053453
 21
27.0678725919
  0
LINE
  5
30D
100
AcDbEntity
  8
RACCORDO
100
AcDbLine
 62
7
  6
CONTINUOUS
 10
-23.5838741344
 20
32.1681787817
 11
-23.5823053453
 21
32.0678725919
  0
LINE
  5
30E
100
AcDbEntity
  8
RACCORDO
100
AcDbLine
 62
7
  6
CONTINUOUS
 10
-23.5838741344
 20
37.1681787817
 11
-23.5823053453
 21
37.0678725919
  0
LINE
  5
30F
100
AcDbEntity
  8
RACCORDO
100
AcDbLine
 62
7
  6
CONTINUOUS
 10
-23.5838741344
 20
42.1681787817
 11
-23.5823053453
 21
42.0678725919
  0
LINE
  5
310
100
AcDbEntity
  8
ASSI
100
AcDbLine
 62
7
  6
CONTINUOUS
 10
-23.5824742789
 20
27.0796800749
 11
-23.5808695659
 21
26.9570278507
  0
LINE
  5
311
100
AcDbEntity
  8
ASSI
100
AcDbLine
 62
7
  6
CONTINUOUS
 10
-23.5824742789
 20
32.0796800749
 11
-23.5808695659
 21
31.9570278507
  0
LINE
  5
312
100
AcDbEntity
  8
ASSI
100
AcDbLine
 62
7
  6
CONTINUOUS
 10
-23.5824742789
 20
37.0796800749
 11
-23.5808695659
 21
36.9570278507
  0
LINE
  5
313
100
AcDbEntity
  8
ASSI
100
AcDbLine
 62
7
  6
CONTINUOUS
 10
-23.5824742789
 20
42.0796800749
 11
-23.5808695659
 21
41.9570278507
  0
LINE
  5
314
100
AcDbEntity
  8
RACCORDO
100
AcDbLine
 62
7
  6
CONTINUOUS
 10
-23.5823053453
 20
27.0678725919
 11
-23.5805431852
 21
26.9290986159
  0
LINE
  5
315
100
AcDbEntity
  8
RACCORDO
100
AcDbLine
 62
7
  6
CONTINUOUS
 10
-23.5823053453
 20
32.0678725919
 11
-23.5805431852
 21
31.9290986159
  0
LINE
  5
316
100
AcDbEntity
  8
ASSI
100
AcDbLine
 62
253
  6
CONTINUOUS
 10
-23.2211076689
 20
2.1671661294
 11
-23.2212033809
 21
2.1743834973
  0
LINE
  5
317
100
AcDbEntity
  8
RACCORDO
100
AcDbLine
 62
7
  6
CONTINUOUS
 10
-23.5823053453
 20
37.0678725919
 11
-23.5805431852
 21
36.9290986159
  0
LINE
  5
318
100
AcDbEntity
  8
RACCORDO
100
AcDbLine
 62
7
  6
CONTINUOUS
 10
-23.5823053453
 20
42.0678725919
 11
-23.5805431852
 21
41.9290986159
  0
LINE
  5
319
100
AcDbEntity
  8
RACCORDO
100
AcDbLine
 62
253
  6
CONTINUOUS
 10
-23.2786445193
 20
26.5278954306
 11
-23.2809190192
 21
26.7207507149
  0
LINE
  5
31A
100
AcDbEntity
  8
ASSI
100
AcDbLine
 62
253
  6
CONTINUOUS
 10
-23.2786445193
 20
26.5278954306
 11
-23.2809190192
 21
26.7207507149
  0
LINE
  5
31B
100
AcDbEntity
  8
RACCORDO
100
AcDbLine
 62
253
  6
CONTINUOUS
 10
-23.2786445193
 20
31.5278954306
 11
-23.2809190192
 21
31.7207507149
  0
LINE
  5
31C
100
AcDbEntity
  8
ASSI
100
AcDbLine
 62
253
  6
CONTINUOUS
 10
-23.2786445193
 20
31.5278954306
 11
-23.2809190192
 21
31.7207507149
  0
LINE
  5
31D
100
AcDbEntity
  8
ASSI
100
AcDbLine
 62
7
  6
CONTINUOUS
 10
-23.5808695659
 20
26.9570278507
 11
-23.5793133873
 21
26.813137898
  0
LINE
  5
31E
100
AcDbEntity
  8
ASSI
100
AcDbLine
 62
7
  6
CONTINUOUS
 10
-23.5808695659
 20
31.9570278507
 11
-23.5793133873
 21
31.813137898
  0
LINE
  5
31F
100
AcDbEntity
  8
ASSI
100
AcDbLine
 62
7
  6
CONTINUOUS
 10
-23.5808695659
 20
36.9570278507
 11
-23.5793133873
 21
36.813137898
  0
LINE
  5
320
100
AcDbEntity
  8
ASSI
100
AcDbLine
 62
7
  6
CONTINUOUS
 10
-23.5808695659
 20
41.9570278507
 11
-23.5793133873
 21
41.813137898
  0
LINE
  5
321
100
AcDbEntity
  8
RACCORDO
100
AcDbLine
 62
253
  6
CONTINUOUS
 10
-23.2776154941
 20
36.420113392
 11
-23.2797506399
 21
36.6282538384
  0
LINE
  5
322
100
AcDbEntity
  8
ASSI
100
AcDbLine
 62
253
  6
CONTINUOUS
 10
-23.2776154941
 20
36.420113392
 11
-23.2797506399
 21
36.6282538384
  0
LINE
  5
323
100
AcDbEntity
  8
RACCORDO
100
AcDbLine
 62
7
  6
CONTINUOUS
 10
-23.5805431852
 20
26.9290986159
 11
-23.578852135
 21
26.764685549
  0
LINE
  5
324
100
AcDbEntity
  8
RACCORDO
100
AcDbLine
 62
7
  6
CONTINUOUS
 10
-23.5805431852
 20
31.9290986159
 11
-23.578852135
 21
31.764685549
  0
LINE
  5
325
100
AcDbEntity
  8
RACCORDO
100
AcDbLine
 62
7
  6
CONTINUOUS
 10
-23.5805431852
 20
36.9290986159
 11
-23.578852135
 21
36.764685549
  0
LINE
  5
326
100
AcDbEntity
  8
RACCORDO
100
AcDbLine
 62
7
  6
CONTINUOUS
 10
-23.5805431852
 20
41.9290986159
 11
-23.578852135
 21
41.764685549
  0
LINE
  5
327
100
AcDbEntity
  8
RACCORDO
100
AcDbLine
 62
253
  6
CONTINUOUS
 10
-23.2766645212
 20
26.3054393538
 11
-23.2786445193
 21
26.5278954306
  0
LINE
  5
328
100
AcDbEntity
  8
ASSI
100
AcDbLine
 62
253
  6
CONTINUOUS
 10
-23.2766645212
 20
26.3054393538
 11
-23.2786445193
 21
26.5278954306
  0
LINE
  5
329
100
AcDbEntity
  8
RACCORDO
100
AcDbLine
 62
253
  6
CONTINUOUS
 10
-23.2766645212
 20
31.3054393538
 11
-23.2786445193
 21
31.5278954306
  0
LINE
  5
32A
100
AcDbEntity
  8
ASSI
100
AcDbLine
 62
253
  6
CONTINUOUS
 10
-23.2766645212
 20
31.3054393538
 11
-23.2786445193
 21
31.5278954306
  0
LINE
  5
32B
100
AcDbEntity
  8
ASSI
100
AcDbLine
 62
7
  6
CONTINUOUS
 10
-23.5793133873
 20
26.813137898
 11
-23.5776439115
 21
26.6228256371
  0
LINE
  5
32C
100
AcDbEntity
  8
ASSI
100
AcDbLine
 62
7
  6
CONTINUOUS
 10
-23.5793133873
 20
31.813137898
 11
-23.5776439115
 21
31.6228256371
  0
LINE
  5
32D
100
AcDbEntity
  8
ASSI
100
AcDbLine
 62
7
  6
CONTINUOUS
 10
-23.5793133873
 20
36.813137898
 11
-23.5776439115
 21
36.6228256371
  0
LINE
  5
32E
100
AcDbEntity
  8
ASSI
100
AcDbLine
 62
7
  6
CONTINUOUS
 10
-23.5793133873
 20
41.813137898
 11
-23.5776439115
 21
41.6228256371
  0
LINE
  5
32F
100
AcDbEntity
  8
RACCORDO
100
AcDbLine
 62
7
  6
CONTINUOUS
 10
-23.578852135
 20
26.764685549
 11
-23.5772748032
 21
26.5747639268
  0
LINE
  5
330
100
AcDbEntity
  8
RACCORDO
100
AcDbLine
 62
7
  6
CONTINUOUS
 10
-23.578852135
 20
31.764685549
 11
-23.5772748032
 21
31.5747639268
  0
LINE
  5
331
100
AcDbEntity
  8
RACCORDO
100
AcDbLine
 62
7
  6
CONTINUOUS
 10
-23.578852135
 20
36.764685549
 11
-23.5772748032
 21
36.5747639268
  0
LINE
  5
332
100
AcDbEntity
  8
RACCORDO
100
AcDbLine
 62
7
  6
CONTINUOUS
 10
-23.578852135
 20
41.764685549
 11
-23.5772748032
 21
41.5747639268
  0
LINE
  5
333
100
AcDbEntity
  8
RACCORDO
100
AcDbLine
 62
253
  6
CONTINUOUS
 10
-23.2757906437
 20
36.1844327256
 11
-23.2776154941
 21
36.420113392
  0
LINE
  5
334
100
AcDbEntity
  8
ASSI
100
AcDbLine
 62
253
  6
CONTINUOUS
 10
-23.2757906437
 20
36.1844327256
 11
-23.2776154941
 21
36.420113392
  0
LINE
  5
335
100
AcDbEntity
  8
ASSI
100
AcDbLine
 62
7
  6
CONTINUOUS
 10
-23.5776439115
 20
26.6228256371
 11
-23.57611911
 21
26.4056222492
  0
LINE
  5
336
100
AcDbEntity
  8
ASSI
100
AcDbLine
 62
7
  6
CONTINUOUS
 10
-23.5776439115
 20
31.6228256371
 11
-23.57611911
 21
31.4056222492
  0
LINE
  5
337
100
AcDbEntity
  8
ASSI
100
AcDbLine
 62
7
  6
CONTINUOUS
 10
-23.5776439115
 20
36.6228256371
 11
-23.57611911
 21
36.4056222492
  0
LINE
  5
338
100
AcDbEntity
  8
ASSI
100
AcDbLine
 62
7
  6
CONTINUOUS
 10
-23.5776439115
 20
41.6228256371
 11
-23.57611911
 21
41.4056222492
  0
LINE
  5
339
100
AcDbEntity
  8
RACCORDO
100
AcDbLine
 62
253
  6
CONTINUOUS
 10
-23.275005827
 20
26.0575938599
 11
-23.2766645212
 21
26.3054393538
  0
LINE
  5
33A
100
AcDbEntity
  8
ASSI
100
AcDbLine
 62
253
  6
CONTINUOUS
 10
-23.275005827
 20
26.0575938599
 11
-23.2766645212
 21
26.3054393538
  0
LINE
  5
33B
100
AcDbEntity
  8
RACCORDO
100
AcDbLine
 62
253
  6
CONTINUOUS
 10
-23.275005827
 20
31.0575938599
 11
-23.2766645212
 21
31.3054393538
  0
LINE
  5
33C
100
AcDbEntity
  8
ASSI
100
AcDbLine
 62
253
  6
CONTINUOUS
 10
-23.275005827
 20
31.0575938599
 11
-23.2766645212
 21
31.3054393538
  0
LINE
  5
33D
100
AcDbEntity
  8
RACCORDO
100
AcDbLine
 62
253
  6
CONTINUOUS
 10
-23.275005827
 20
41.0575938599
 11
-23.2766645212
 21
41.3054393538
  0
LINE
  5
33E
100
AcDbEntity
  8
ASSI
100
AcDbLine
 62
253
  6
CONTINUOUS
 10
-23.275005827
 20
41.0575938599
 11
-23.2766645212
 21
41.3054393538
  0
LINE
  5
33F
100
AcDbEntity
  8
RACCORDO
100
AcDbLine
 62
7
  6
CONTINUOUS
 10
-23.5772748032
 20
26.5747639268
 11
-23.5758429026
 21
26.3600454914
  0
LINE
  5
340
100
AcDbEntity
  8
RACCORDO
100
AcDbLine
 62
7
  6
CONTINUOUS
 10
-23.5772748032
 20
31.5747639268
 11
-23.5758429026
 21
31.3600454914
  0
LINE
  5
341
100
AcDbEntity
  8
RACCORDO
100
AcDbLine
 62
7
  6
CONTINUOUS
 10
-23.5772748032
 20
36.5747639268
 11
-23.5758429026
 21
36.3600454914
  0
LINE
  5
342
100
AcDbEntity
  8
RACCORDO
100
AcDbLine
 62
7
  6
CONTINUOUS
 10
-23.5772748032
 20
41.5747639268
 11
-23.5758429026
 21
41.3600454914
  0
LINE
  5
343
100
AcDbEntity
  8
ASSI
100
AcDbLine
 62
253
  6
CONTINUOUS
 10
-23.2210172443
 20
2.1560343429
 11
-23.2211076689
 21
2.1671661294
  0
LINE
  5
344
100
AcDbEntity
  8
RACCORDO
100
AcDbLine
 62
253
  6
CONTINUOUS
 10
-23.2743110698
 20
35.9255054415
 11
-23.2757906437
 21
36.1844327256
  0
LINE
  5
345
100
AcDbEntity
  8
ASSI
100
AcDbLine
 62
253
  6
CONTINUOUS
 10
-23.2743110698
 20
35.9255054415
 11
-23.2757906437
 21
36.1844327256
  0
LINE
  5
346
100
AcDbEntity
  8
ASSI
100
AcDbLine
 62
7
  6
CONTINUOUS
 10
-23.57611911
 20
26.4056222492
 11
-23.5747920586
 21
26.1630875587
  0
LINE
  5
347
100
AcDbEntity
  8
ASSI
100
AcDbLine
 62
7
  6
CONTINUOUS
 10
-23.57611911
 20
31.4056222492
 11
-23.5747920586
 21
31.1630875587
  0
LINE
  5
348
100
AcDbEntity
  8
ASSI
100
AcDbLine
 62
7
  6
CONTINUOUS
 10
-23.57611911
 20
36.4056222492
 11
-23.5747920586
 21
36.1630875587
  0
LINE
  5
349
100
AcDbEntity
  8
ASSI
100
AcDbLine
 62
7
  6
CONTINUOUS
 10
-23.57611911
 20
41.4056222492
 11
-23.5747920586
 21
41.1630875587
  0
LINE
  5
34A
100
AcDbEntity
  8
RACCORDO
100
AcDbLine
 62
7
  6
CONTINUOUS
 10
-23.5758429026
 20
31.3600454914
 11
-23.5744566949
 21
31.090579406
  0
LINE
  5
34B
100
AcDbEntity
  8
RACCORDO
100
AcDbLine
 62
7
  6
CONTINUOUS
 10
-23.5758429026
 20
36.3600454914
 11
-23.5744566949
 21
36.090579406
  0
LINE
  5
34C
100
AcDbEntity
  8
RACCORDO
100
AcDbLine
 62
7
  6
CONTINUOUS
 10
-23.5758429026
 20
41.3600454914
 11
-23.5744566949
 21
41.090579406
  0
LINE
  5
34D
100
AcDbEntity
  8
RACCORDO
100
AcDbLine
 62
253
  6
CONTINUOUS
 10
-23.2737053736
 20
25.7888242726
 11
-23.275005827
 21
26.0575938599
  0
LINE
  5
34E
100
AcDbEntity
  8
ASSI
100
AcDbLine
 62
253
  6
CONTINUOUS
 10
-23.2737053736
 20
25.7888242726
 11
-23.275005827
 21
26.0575938599
  0
LINE
  5
34F
100
AcDbEntity
  8
RACCORDO
100
AcDbLine
 62
253
  6
CONTINUOUS
 10
-23.2737053736
 20
30.7888242726
 11
-23.275005827
 21
31.0575938599
  0
LINE
  5
350
100
AcDbEntity
  8
ASSI
100
AcDbLine
 62
253
  6
CONTINUOUS
 10
-23.2737053736
 20
30.7888242726
 11
-23.275005827
 21
31.0575938599
  0
LINE
  5
351
100
AcDbEntity
  8
RACCORDO
100
AcDbLine
 62
253
  6
CONTINUOUS
 10
-23.2737053736
 20
40.7888242726
 11
-23.275005827
 21
41.0575938599
  0
LINE
  5
352
100
AcDbEntity
  8
ASSI
100
AcDbLine
 62
253
  6
CONTINUOUS
 10
-23.2737053736
 20
40.7888242726
 11
-23.275005827
 21
41.0575938599
  0
LINE
  5
353
100
AcDbEntity
  8
ASSI
100
AcDbLine
 62
7
  6
CONTINUOUS
 10
-23.5747920586
 20
26.1630875587
 11
-23.5736931655
 21
25.8975757351
  0
LINE
  5
354
100
AcDbEntity
  8
ASSI
100
AcDbLine
 62
7
  6
CONTINUOUS
 10
-23.5747920586
 20
31.1630875587
 11
-23.5736931655
 21
30.8975757351
  0
LINE
  5
355
100
AcDbEntity
  8
ASSI
100
AcDbLine
 62
7
  6
CONTINUOUS
 10
-23.5747920586
 20
36.1630875587
 11
-23.5736931655
 21
35.8975757351
  0
LINE
  5
356
100
AcDbEntity
  8
ASSI
100
AcDbLine
 62
7
  6
CONTINUOUS
 10
-23.5747920586
 20
41.1630875587
 11
-23.5736931655
 21
40.8975757351
  0
LINE
  5
357
100
AcDbEntity
  8
RACCORDO
100
AcDbLine
 62
253
  6
CONTINUOUS
 10
-23.2731977074
 20
35.6481864981
 11
-23.2743110698
 21
35.9255054415
  0
LINE
  5
358
100
AcDbEntity
  8
ASSI
100
AcDbLine
 62
253
  6
CONTINUOUS
 10
-23.2731977074
 20
35.6481864981
 11
-23.2743110698
 21
35.9255054415
  0
LINE
  5
359
100
AcDbEntity
  8
RACCORDO
100
AcDbLine
 62
7
  6
CONTINUOUS
 10
-23.5758429026
 20
26.3600454914
 11
-23.5734630496
 21
25.8285964378
  0
LINE
  5
35A
100
AcDbEntity
  8
RACCORDO
100
AcDbLine
 62
7
  6
CONTINUOUS
 10
-23.5744566949
 20
31.090579406
 11
-23.5734630496
 21
30.8285964378
  0
LINE
  5
35B
100
AcDbEntity
  8
RACCORDO
100
AcDbLine
 62
7
  6
CONTINUOUS
 10
-23.5744566949
 20
36.090579406
 11
-23.5734630496
 21
35.8285964378
  0
LINE
  5
35C
100
AcDbEntity
  8
RACCORDO
100
AcDbLine
 62
7
  6
CONTINUOUS
 10
-23.5744566949
 20
41.090579406
 11
-23.5734630496
 21
40.8285964378
  0
LINE
  5
35D
100
AcDbEntity
  8
RACCORDO
100
AcDbLine
 62
253
  6
CONTINUOUS
 10
-23.2727894311
 20
25.5042572656
 11
-23.2737053736
 21
25.7888242726
  0
LINE
  5
35E
100
AcDbEntity
  8
ASSI
100
AcDbLine
 62
253
  6
CONTINUOUS
 10
-23.2727894311
 20
25.5042572656
 11
-23.2737053736
 21
25.7888242726
  0
LINE
  5
35F
100
AcDbEntity
  8
RACCORDO
100
AcDbLine
 62
253
  6
CONTINUOUS
 10
-23.2727894311
 20
30.5042572656
 11
-23.2737053736
 21
30.7888242726
  0
LINE
  5
360
100
AcDbEntity
  8
ASSI
100
AcDbLine
 62
253
  6
CONTINUOUS
 10
-23.2727894311
 20
30.5042572656
 11
-23.2737053736
 21
30.7888242726
  0
LINE
  5
361
100
AcDbEntity
  8
RACCORDO
100
AcDbLine
 62
253
  6
CONTINUOUS
 10
-23.2727894311
 20
40.5042572656
 11
-23.2737053736
 21
40.7888242726
  0
LINE
  5
362
100
AcDbEntity
  8
ASSI
100
AcDbLine
 62
253
  6
CONTINUOUS
 10
-23.2727894311
 20
40.5042572656
 11
-23.2737053736
 21
40.7888242726
  0
LINE
  5
363
100
AcDbEntity
  8
ASSI
100
AcDbLine
 62
7
  6
CONTINUOUS
 10
-23.5736931655
 20
25.8975757351
 11
-23.572866895
 21
25.6123694904
  0
LINE
  5
364
100
AcDbEntity
  8
ASSI
100
AcDbLine
 62
7
  6
CONTINUOUS
 10
-23.5736931655
 20
30.8975757351
 11
-23.5727837508
 21
30.5755704478
  0
LINE
  5
365
100
AcDbEntity
  8
ASSI
100
AcDbLine
 62
7
  6
CONTINUOUS
 10
-23.5736931655
 20
35.8975757351
 11
-23.5727837508
 21
35.5755704478
  0
LINE
  5
366
100
AcDbEntity
  8
ASSI
100
AcDbLine
 62
7
  6
CONTINUOUS
 10
-23.5736931655
 20
40.8975757351
 11
-23.5727837508
 21
40.5755704478
  0
LINE
  5
367
100
AcDbEntity
  8
RACCORDO
100
AcDbLine
 62
7
  6
CONTINUOUS
 10
-23.5734630496
 20
25.8285964378
 11
-23.5727263633
 21
25.5486397754
  0
LINE
  5
368
100
AcDbEntity
  8
RACCORDO
100
AcDbLine
 62
7
  6
CONTINUOUS
 10
-23.5734630496
 20
30.8285964378
 11
-23.5727263633
 21
30.5486397754
  0
LINE
  5
369
100
AcDbEntity
  8
RACCORDO
100
AcDbLine
 62
7
  6
CONTINUOUS
 10
-23.5734630496
 20
35.8285964378
 11
-23.5727263633
 21
35.5486397754
  0
LINE
  5
36A
100
AcDbEntity
  8
RACCORDO
100
AcDbLine
 62
7
  6
CONTINUOUS
 10
-23.5734630496
 20
40.8285964378
 11
-23.5727263633
 21
40.5486397754
  0
LINE
  5
36B
100
AcDbEntity
  8
RACCORDO
100
AcDbLine
 62
253
  6
CONTINUOUS
 10
-23.2724791849
 20
35.3577408631
 11
-23.2731977074
 21
35.6481864981
  0
LINE
  5
36C
100
AcDbEntity
  8
ASSI
100
AcDbLine
 62
253
  6
CONTINUOUS
 10
-23.2724791849
 20
35.3577408631
 11
-23.2731977074
 21
35.6481864981
  0
LINE
  5
36D
100
AcDbEntity
  8
RACCORDO
100
AcDbLine
 62
253
  6
CONTINUOUS
 10
-23.2722718589
 20
25.2093569571
 11
-23.2727894311
 21
25.5042572656
  0
LINE
  5
36E
100
AcDbEntity
  8
ASSI
100
AcDbLine
 62
253
  6
CONTINUOUS
 10
-23.2722718589
 20
25.2093569571
 11
-23.2727894311
 21
25.5042572656
  0
LINE
  5
36F
100
AcDbEntity
  8
RACCORDO
100
AcDbLine
 62
253
  6
CONTINUOUS
 10
-23.2722718589
 20
30.2093569571
 11
-23.2727894311
 21
30.5042572656
  0
LINE
  5
370
100
AcDbEntity
  8
ASSI
100
AcDbLine
 62
253
  6
CONTINUOUS
 10
-23.2722718589
 20
30.2093569571
 11
-23.2727894311
 21
30.5042572656
  0
LINE
  5
371
100
AcDbEntity
  8
RACCORDO
100
AcDbLine
 62
253
  6
CONTINUOUS
 10
-23.2722718589
 20
40.2093569571
 11
-23.2727894311
 21
40.5042572656
  0
LINE
  5
372
100
AcDbEntity
  8
ASSI
100
AcDbLine
 62
253
  6
CONTINUOUS
 10
-23.2722718589
 20
40.2093569571
 11
-23.2727894311
 21
40.5042572656
  0
LINE
  5
373
100
AcDbEntity
  8
ASSI
100
AcDbLine
 62
7
  6
CONTINUOUS
 10
-23.572866895
 20
25.6123694904
 11
-23.5723467547
 21
25.3128956038
  0
LINE
  5
374
100
AcDbEntity
  8
RACCORDO
100
AcDbLine
 62
7
  6
CONTINUOUS
 10
-23.5727263633
 20
25.5486397754
 11
-23.5722866078
 21
25.2562659339
  0
LINE
  5
375
100
AcDbEntity
  8
ASSI
100
AcDbLine
 62
7
  6
CONTINUOUS
 10
-23.5727837508
 20
30.5755704478
 11
-23.5723050929
 21
30.2748232123
  0
LINE
  5
376
100
AcDbEntity
  8
ASSI
100
AcDbLine
 62
7
  6
CONTINUOUS
 10
-23.5727837508
 20
35.5755704478
 11
-23.5723050929
 21
35.2748232123
  0
LINE
  5
377
100
AcDbEntity
  8
ASSI
100
AcDbLine
 62
7
  6
CONTINUOUS
 10
-23.5727837508
 20
40.5755704478
 11
-23.5723050929
 21
40.2748232123
  0
LINE
  5
378
100
AcDbEntity
  8
ASSI
100
AcDbLine
 62
253
  6
CONTINUOUS
 10
-23.220975861
 20
2.142704666
 11
-23.2210172443
 21
2.1560343429
  0
LINE
  5
379
100
AcDbEntity
  8
RACCORDO
100
AcDbLine
 62
7
  6
CONTINUOUS
 10
-23.5727263633
 20
30.5486397754
 11
-23.5722531202
 21
30.2191939819
  0
LINE
  5
37A
100
AcDbEntity
  8
RACCORDO
100
AcDbLine
 62
7
  6
CONTINUOUS
 10
-23.5727263633
 20
35.5486397754
 11
-23.5722531202
 21
35.2191939819
  0
LINE
  5
37B
100
AcDbEntity
  8
RACCORDO
100
AcDbLine
 62
7
  6
CONTINUOUS
 10
-23.5727263633
 20
40.5486397754
 11
-23.5722531202
 21
40.2191939819
  0
LINE
  5
37C
100
AcDbEntity
  8
RACCORDO
100
AcDbLine
 62
253
  6
CONTINUOUS
 10
-23.2721690793
 20
35.0597907239
 11
-23.2724791849
 21
35.3577408631
  0
LINE
  5
37D
100
AcDbEntity
  8
ASSI
100
AcDbLine
 62
253
  6
CONTINUOUS
 10
-23.2721690793
 20
35.0597907239
 11
-23.2724791849
 21
35.3577408631
  0
LINE
  5
37E
100
AcDbEntity
  8
ASSI
100
AcDbLine
 62
7
  6
CONTINUOUS
 10
-23.5723467547
 20
25.3128956038
 11
-23.5721528517
 21
25.0067326584
  0
LINE
  5
37F
100
AcDbEntity
  8
0
100
AcDbLine
 62
7
  6
CONTINUOUS
 10
-23.785
 20
43.6566990487
 11
-23.785
 21
8.3133009513
  0
LINE
  5
380
100
AcDbEntity
  8
RACCORDO
100
AcDbLine
 62
7
  6
CONTINUOUS
 10
-23.785
 20
43.6566990487
 11
-23.785
 21
8.3133009513
  0
LINE
  5
381
100
AcDbEntity
  8
DRAFT
100
AcDbLine
 62
7
  6
CONTINUOUS
 10
-23.7611859216
 20
7.5623502692
 11
-23.7611859216
 21
8.0173982338
  0
LINE
  5
382
100
AcDbEntity
  8
DRAFT
100
AcDbLine
 62
7
  6
CONTINUOUS
 10
-23.7611859216
 20
43.9526017662
 11
-23.7611859216
 21
44.4076497308
  0
LINE
  5
383
100
AcDbEntity
  8
ASSI
100
AcDbLine
 62
7
  6
CONTINUOUS
 10
-23.735
 20
47.8849997649
 11
-23.735
 21
44.985
  0
LINE
  5
384
100
AcDbEntity
  8
ASSI
100
AcDbLine
 62
7
  6
CONTINUOUS
 10
-23.735
 20
4.0850002351
 11
-23.735
 21
6.985
  0
LINE
  5
385
100
AcDbEntity
  8
ASSI
100
AcDbLine
 62
7
  6
CONTINUOUS
 10
-23.7175449351
 20
4.1023789125
 11
-23.7175449351
 21
7.5623502692
  0
LINE
  5
386
100
AcDbEntity
  8
ASSI
100
AcDbLine
 62
7
  6
CONTINUOUS
 10
-23.7175449351
 20
44.4076497308
 11
-23.7175449351
 21
47.8676210875
  0
LINE
  5
387
100
AcDbEntity
  8
0
100
AcDbLine
 62
7
  6
CONTINUOUS
 10
-23.6628145455
 20
43.6060881763
 11
-23.6628145455
 21
8.3639118237
  0
LINE
  5
388
100
AcDbEntity
  8
RACCORDO
100
AcDbLine
 62
7
  6
CONTINUOUS
 10
-23.6628145455
 20
43.6060881763
 11
-23.6628145455
 21
8.3639118237
  0
LINE
  5
389
100
AcDbEntity
  8
RACCORDO
100
AcDbLine
 62
7
  6
CONTINUOUS
 10
-23.6480903017
 20
42.5762243901
 11
-23.6480903017
 21
42.435
  0
LINE
  5
38A
100
AcDbEntity
  8
ASSI
100
AcDbLine
 62
7
  6
CONTINUOUS
 10
-23.6480903017
 20
42.5762243901
 11
-23.6480903017
 21
42.435
  0
LINE
  5
38B
100
AcDbEntity
  8
RACCORDO
100
AcDbLine
 62
7
  6
CONTINUOUS
 10
-23.6480903017
 20
37.535
 11
-23.6480903017
 21
37.435
  0
LINE
  5
38C
100
AcDbEntity
  8
ASSI
100
AcDbLine
 62
7
  6
CONTINUOUS
 10
-23.6480903017
 20
37.535
 11
-23.6480903017
 21
37.435
  0
LINE
  5
38D
100
AcDbEntity
  8
RACCORDO
100
AcDbLine
 62
7
  6
CONTINUOUS
 10
-23.6480903017
 20
32.535
 11
-23.6480903017
 21
32.435
  0
LINE
  5
38E
100
AcDbEntity
  8
ASSI
100
AcDbLine
 62
7
  6
CONTINUOUS
 10
-23.6480903017
 20
32.535
 11
-23.6480903017
 21
32.435
  0
LINE
  5
38F
100
AcDbEntity
  8
RACCORDO
100
AcDbLine
 62
7
  6
CONTINUOUS
 10
-23.6480903017
 20
27.535
 11
-23.6480903017
 21
27.435
  0
LINE
  5
390
100
AcDbEntity
  8
ASSI
100
AcDbLine
 62
7
  6
CONTINUOUS
 10
-23.6480903017
 20
27.535
 11
-23.6480903017
 21
27.435
  0
LINE
  5
391
100
AcDbEntity
  8
RACCORDO
100
AcDbLine
 62
7
  6
CONTINUOUS
 10
-23.6480903017
 20
22.535
 11
-23.6480903017
 21
9.3937756099
  0
LINE
  5
392
100
AcDbEntity
  8
ASSI
100
AcDbLine
 62
7
  6
CONTINUOUS
 10
-23.6480903017
 20
22.535
 11
-23.6480903017
 21
9.3937756099
  0
LINE
  5
393
100
AcDbEntity
  8
ASSI
100
AcDbLine
 62
7
  6
CONTINUOUS
 10
-23.635
 20
42.348227895
 11
-23.635
 21
37.621772105
  0
LINE
  5
394
100
AcDbEntity
  8
ASSI
100
AcDbLine
 62
7
  6
CONTINUOUS
 10
-23.635
 20
37.348227895
 11
-23.635
 21
32.621772105
  0
LINE
  5
395
100
AcDbEntity
  8
ASSI
100
AcDbLine
 62
7
  6
CONTINUOUS
 10
-23.635
 20
32.348227895
 11
-23.635
 21
27.621772105
  0
LINE
  5
396
100
AcDbEntity
  8
ASSI
100
AcDbLine
 62
7
  6
CONTINUOUS
 10
-23.635
 20
27.348227895
 11
-23.635
 21
22.621772105
  0
LINE
  5
397
100
AcDbEntity
  8
RACCORDO
100
AcDbLine
 62
7
  6
CONTINUOUS
 10
-23.5722866078
 20
25.2562659339
 11
-23.5721531035
 21
24.9586635671
  0
LINE
  5
398
100
AcDbEntity
  8
ASSI
100
AcDbLine
 62
7
  6
CONTINUOUS
 10
-23.5723050929
 20
30.2748232123
 11
-23.5721523524
 21
29.9683963189
  0
LINE
  5
399
100
AcDbEntity
  8
ASSI
100
AcDbLine
 62
7
  6
CONTINUOUS
 10
-23.5723050929
 20
35.2748232123
 11
-23.5721523524
 21
34.9683963189
  0
LINE
  5
39A
100
AcDbEntity
  8
ASSI
100
AcDbLine
 62
7
  6
CONTINUOUS
 10
-23.5723050929
 20
40.2748232123
 11
-23.5721523524
 21
39.9683963189
  0
LINE
  5
39B
100
AcDbEntity
  8
RACCORDO
100
AcDbLine
 62
253
  6
CONTINUOUS
 10
-23.2721692198
 20
39.9098019577
 11
-23.2722718589
 21
40.2093569571
  0
LINE
  5
39C
100
AcDbEntity
  8
ASSI
100
AcDbLine
 62
253
  6
CONTINUOUS
 10
-23.2721692198
 20
39.9098019577
 11
-23.2722718589
 21
40.2093569571
  0
LINE
  5
39D
100
AcDbEntity
  8
RACCORDO
100
AcDbLine
 62
253
  6
CONTINUOUS
 10
-23.2721692198
 20
29.9098019577
 11
-23.2722718589
 21
30.2093569571
  0
LINE
  5
39E
100
AcDbEntity
  8
ASSI
100
AcDbLine
 62
253
  6
CONTINUOUS
 10
-23.2721692198
 20
29.9098019577
 11
-23.2722718589
 21
30.2093569571
  0
LINE
  5
39F
100
AcDbEntity
  8
RACCORDO
100
AcDbLine
 62
253
  6
CONTINUOUS
 10
-23.2721692198
 20
24.9098019577
 11
-23.2722718589
 21
25.2093569571
  0
LINE
  5
3A0
100
AcDbEntity
  8
ASSI
100
AcDbLine
 62
253
  6
CONTINUOUS
 10
-23.2721692198
 20
24.9098019577
 11
-23.2722718589
 21
25.2093569571
  0
LINE
  5
3A1
100
AcDbEntity
  8
ASSI
100
AcDbLine
 62
7
  6
CONTINUOUS
 10
-23.2350000646
 20
3.5850000704
 11
-23.235
 21
1.684969539
  0
LINE
  5
3A2
100
AcDbEntity
  8
ASSI
100
AcDbLine
 62
7
  6
CONTINUOUS
 10
-23.235
 20
48.385
 11
-23.235
 21
50.285030461
  0
LINE
  5
3A3
100
AcDbEntity
  8
RACCORDO
100
AcDbLine
 62
7
  6
CONTINUOUS
 10
-23.5722531202
 20
40.2191939819
 11
-23.5721592482
 21
39.9214741367
  0
LINE
  5
3A4
100
AcDbEntity
  8
RACCORDO
100
AcDbLine
 62
7
  6
CONTINUOUS
 10
-23.5722531202
 20
35.2191939819
 11
-23.5721592482
 21
34.9214741367
  0
LINE
  5
3A5
100
AcDbEntity
  8
RACCORDO
100
AcDbLine
 62
7
  6
CONTINUOUS
 10
-23.5722531202
 20
30.2191939819
 11
-23.5721592482
 21
29.9214741367
  0
LINE
  5
3A6
100
AcDbEntity
  8
RACCORDO
100
AcDbLine
 62
253
  6
CONTINUOUS
 10
-23.272272292
 20
34.7602332117
 11
-23.2721690793
 21
35.0597907239
  0
LINE
  5
3A7
100
AcDbEntity
  8
ASSI
100
AcDbLine
 62
253
  6
CONTINUOUS
 10
-23.272272292
 20
34.7602332117
 11
-23.2721690793
 21
35.0597907239
  0
LINE
  5
3A8
100
AcDbEntity
  8
ASSI
100
AcDbLine
 62
7
  6
CONTINUOUS
 10
-23.5721528517
 20
25.0067326584
 11
-23.5722984282
 21
24.7019713369
  0
LINE
  5
3A9
100
AcDbEntity
  8
RACCORDO
100
AcDbLine
 62
7
  6
CONTINUOUS
 10
-23.5721531035
 20
24.9586635671
 11
-23.5723400752
 21
24.663388319
  0
LINE
  5
3AA
100
AcDbEntity
  8
RACCORDO
100
AcDbLine
 62
7
  6
CONTINUOUS
 10
-23.5721592482
 20
39.9214741367
 11
-23.5723840213
 21
39.6270173722
  0
LINE
  5
3AB
100
AcDbEntity
  8
ASSI
100
AcDbLine
 62
7
  6
CONTINUOUS
 10
-23.5721523524
 20
39.9683963189
 11
-23.5723841085
 21
39.6269488636
  0
LINE
  5
3AC
100
AcDbEntity
  8
RACCORDO
100
AcDbLine
 62
7
  6
CONTINUOUS
 10
-23.5721592482
 20
34.9214741367
 11
-23.5723840213
 21
34.6270173722
  0
LINE
  5
3AD
100
AcDbEntity
  8
ASSI
100
AcDbLine
 62
7
  6
CONTINUOUS
 10
-23.5721523524
 20
34.9683963189
 11
-23.5723841085
 21
34.6269488636
  0
LINE
  5
3AE
100
AcDbEntity
  8
ASSI
100
AcDbLine
 62
7
  6
CONTINUOUS
 10
-23.5721523524
 20
29.9683963189
 11
-23.5723841085
 21
29.6269488636
  0
LINE
  5
3AF
100
AcDbEntity
  8
RACCORDO
100
AcDbLine
 62
253
  6
CONTINUOUS
 10
-23.2724799304
 20
39.6118428474
 11
-23.2721692198
 21
39.9098019577
  0
LINE
  5
3B0
100
AcDbEntity
  8
ASSI
100
AcDbLine
 62
253
  6
CONTINUOUS
 10
-23.2724799304
 20
39.6118428474
 11
-23.2721692198
 21
39.9098019577
  0
LINE
  5
3B1
100
AcDbEntity
  8
RACCORDO
100
AcDbLine
 62
253
  6
CONTINUOUS
 10
-23.2724799304
 20
29.6118428474
 11
-23.2721692198
 21
29.9098019577
  0
LINE
  5
3B2
100
AcDbEntity
  8
ASSI
100
AcDbLine
 62
253
  6
CONTINUOUS
 10
-23.2724799304
 20
29.6118428474
 11
-23.2721692198
 21
29.9098019577
  0
LINE
  5
3B3
100
AcDbEntity
  8
RACCORDO
100
AcDbLine
 62
253
  6
CONTINUOUS
 10
-23.2724799304
 20
24.6118428474
 11
-23.2721692198
 21
24.9098019577
  0
LINE
  5
3B4
100
AcDbEntity
  8
ASSI
100
AcDbLine
 62
253
  6
CONTINUOUS
 10
-23.2724799304
 20
24.6118428474
 11
-23.2721692198
 21
24.9098019577
  0
LINE
  5
3B5
100
AcDbEntity
  8
ASSI
100
AcDbLine
 62
253
  6
CONTINUOUS
 10
-23.2209803037
 20
49.8239686202
 11
-23.2209847241
 21
50.229305039
  0
LINE
  5
3B6
100
AcDbEntity
  8
ASSI
100
AcDbLine
 62
253
  6
CONTINUOUS
 10
-23.2209812212
 20
1.7421848541
 11
-23.220975861
 21
2.142704666
  0
LINE
  5
3B7
100
AcDbEntity
  8
ASSI
100
AcDbLine
 62
7
  6
CONTINUOUS
 10
-23.5722984282
 20
24.7019713369
 11
-23.5727571462
 21
24.4065681496
  0
LINE
  5
3B8
100
AcDbEntity
  8
RACCORDO
100
AcDbLine
 62
253
  6
CONTINUOUS
 10
-23.2727905004
 20
34.4653178775
 11
-23.272272292
 21
34.7602332117
  0
LINE
  5
3B9
100
AcDbEntity
  8
ASSI
100
AcDbLine
 62
253
  6
CONTINUOUS
 10
-23.2727905004
 20
34.4653178775
 11
-23.272272292
 21
34.7602332117
  0
LINE
  5
3BA
100
AcDbEntity
  8
RACCORDO
100
AcDbLine
 62
7
  6
CONTINUOUS
 10
-23.5723400752
 20
24.663388319
 11
-23.5728201102
 21
24.3778038051
  0
LINE
  5
3BB
100
AcDbEntity
  8
ASSI
100
AcDbLine
 62
7
  6
CONTINUOUS
 10
-23.5723841085
 20
39.6269488636
 11
-23.5729199485
 21
39.3350445166
  0
LINE
  5
3BC
100
AcDbEntity
  8
RACCORDO
100
AcDbLine
 62
7
  6
CONTINUOUS
 10
-23.5723840213
 20
39.6270173722
 11
-23.5729005127
 21
39.3431239224
  0
LINE
  5
3BD
100
AcDbEntity
  8
ASSI
100
AcDbLine
 62
7
  6
CONTINUOUS
 10
-23.5723841085
 20
34.6269488636
 11
-23.5729199485
 21
34.3350445166
  0
LINE
  5
3BE
100
AcDbEntity
  8
RACCORDO
100
AcDbLine
 62
7
  6
CONTINUOUS
 10
-23.5723840213
 20
34.6270173722
 11
-23.5729005127
 21
34.3431239224
  0
LINE
  5
3BF
100
AcDbEntity
  8
ASSI
100
AcDbLine
 62
7
  6
CONTINUOUS
 10
-23.5723841085
 20
29.6269488636
 11
-23.5729199485
 21
29.3350445166
  0
LINE
  5
3C0
100
AcDbEntity
  8
RACCORDO
100
AcDbLine
 62
7
  6
CONTINUOUS
 10
-23.5721592482
 20
29.9214741367
 11
-23.5729005127
 21
29.3431239224
  0
LINE
  5
3C1
100
AcDbEntity
  8
RACCORDO
100
AcDbLine
 62
253
  6
CONTINUOUS
 10
-23.27319911
 20
39.3213828404
 11
-23.2724799304
 21
39.6118428474
  0
LINE
  5
3C2
100
AcDbEntity
  8
ASSI
100
AcDbLine
 62
253
  6
CONTINUOUS
 10
-23.27319911
 20
39.3213828404
 11
-23.2724799304
 21
39.6118428474
  0
LINE
  5
3C3
100
AcDbEntity
  8
RACCORDO
100
AcDbLine
 62
253
  6
CONTINUOUS
 10
-23.27319911
 20
29.3213828404
 11
-23.2724799304
 21
29.6118428474
  0
LINE
  5
3C4
100
AcDbEntity
  8
ASSI
100
AcDbLine
 62
253
  6
CONTINUOUS
 10
-23.27319911
 20
29.3213828404
 11
-23.2724799304
 21
29.6118428474
  0
LINE
  5
3C5
100
AcDbEntity
  8
RACCORDO
100
AcDbLine
 62
253
  6
CONTINUOUS
 10
-23.27319911
 20
24.3213828404
 11
-23.2724799304
 21
24.6118428474
  0
LINE
  5
3C6
100
AcDbEntity
  8
ASSI
100
AcDbLine
 62
253
  6
CONTINUOUS
 10
-23.27319911
 20
24.3213828404
 11
-23.2724799304
 21
24.6118428474
  0
LINE
  5
3C7
100
AcDbEntity
  8
ASSI
100
AcDbLine
 62
7
  6
CONTINUOUS
 10
-23.5727571462
 20
24.4065681496
 11
-23.5735076691
 21
24.1277250972
  0
LINE
  5
3C8
100
AcDbEntity
  8
RACCORDO
100
AcDbLine
 62
7
  6
CONTINUOUS
 10
-23.5728201102
 20
24.3778038051
 11
-23.5735707867
 21
24.1085238512
  0
LINE
  5
3C9
100
AcDbEntity
  8
ASSI
100
AcDbLine
 62
7
  6
CONTINUOUS
 10
-23.5729199485
 20
39.3350445166
 11
-23.5737329867
 21
39.0612660163
  0
LINE
  5
3CA
100
AcDbEntity
  8
RACCORDO
100
AcDbLine
 62
7
  6
CONTINUOUS
 10
-23.5729005127
 20
39.3431239224
 11
-23.5736804332
 21
39.0762635171
  0
LINE
  5
3CB
100
AcDbEntity
  8
ASSI
100
AcDbLine
 62
7
  6
CONTINUOUS
 10
-23.5729199485
 20
34.3350445166
 11
-23.5737329867
 21
34.0612660163
  0
LINE
  5
3CC
100
AcDbEntity
  8
RACCORDO
100
AcDbLine
 62
7
  6
CONTINUOUS
 10
-23.5729005127
 20
34.3431239224
 11
-23.5736804332
 21
34.0762635171
  0
LINE
  5
3CD
100
AcDbEntity
  8
RACCORDO
100
AcDbLine
 62
7
  6
CONTINUOUS
 10
-23.5729005127
 20
29.3431239224
 11
-23.5739102221
 21
29.0127201049
  0
LINE
  5
3CE
100
AcDbEntity
  8
RACCORDO
100
AcDbLine
 62
253
  6
CONTINUOUS
 10
-23.2737071286
 20
34.1807425413
 11
-23.2727905004
 21
34.4653178775
  0
LINE
  5
3CF
100
AcDbEntity
  8
ASSI
100
AcDbLine
 62
253
  6
CONTINUOUS
 10
-23.2737071286
 20
34.1807425413
 11
-23.2727905004
 21
34.4653178775
  0
LINE
  5
3D0
100
AcDbEntity
  8
ASSI
100
AcDbLine
 62
7
  6
CONTINUOUS
 10
-23.5729199485
 20
29.3350445166
 11
-23.5744972546
 21
28.8701974435
  0
LINE
  5
3D1
100
AcDbEntity
  8
ASSI
100
AcDbLine
 62
7
  6
CONTINUOUS
 10
-23.5735076691
 20
24.1277250972
 11
-23.5744972546
 21
23.8701974435
  0
LINE
  5
3D2
100
AcDbEntity
  8
RACCORDO
100
AcDbLine
 62
7
  6
CONTINUOUS
 10
-23.5735707867
 20
24.1085238512
 11
-23.5745448378
 21
23.8596469234
  0
LINE
  5
3D3
100
AcDbEntity
  8
RACCORDO
100
AcDbLine
 62
253
  6
CONTINUOUS
 10
-23.2743131867
 20
39.0440618699
 11
-23.27319911
 21
39.3213828404
  0
LINE
  5
3D4
100
AcDbEntity
  8
ASSI
100
AcDbLine
 62
253
  6
CONTINUOUS
 10
-23.2743131867
 20
39.0440618699
 11
-23.27319911
 21
39.3213828404
  0
LINE
  5
3D5
100
AcDbEntity
  8
RACCORDO
100
AcDbLine
 62
253
  6
CONTINUOUS
 10
-23.2743131867
 20
29.0440618699
 11
-23.27319911
 21
29.3213828404
  0
LINE
  5
3D6
100
AcDbEntity
  8
ASSI
100
AcDbLine
 62
253
  6
CONTINUOUS
 10
-23.2743131867
 20
29.0440618699
 11
-23.27319911
 21
29.3213828404
  0
LINE
  5
3D7
100
AcDbEntity
  8
RACCORDO
100
AcDbLine
 62
253
  6
CONTINUOUS
 10
-23.2743131867
 20
24.0440618699
 11
-23.27319911
 21
24.3213828404
  0
LINE
  5
3D8
100
AcDbEntity
  8
ASSI
100
AcDbLine
 62
253
  6
CONTINUOUS
 10
-23.2743131867
 20
24.0440618699
 11
-23.27319911
 21
24.3213828404
  0
LINE
  5
3D9
100
AcDbEntity
  8
ASSI
100
AcDbLine
 62
7
  6
CONTINUOUS
 10
-23.5737329867
 20
39.0612660163
 11
-23.574779782
 21
38.8093333756
  0
LINE
  5
3DA
100
AcDbEntity
  8
RACCORDO
100
AcDbLine
 62
7
  6
CONTINUOUS
 10
-23.5736804332
 20
39.0762635171
 11
-23.5746814894
 21
38.8300377648
  0
LINE
  5
3DB
100
AcDbEntity
  8
ASSI
100
AcDbLine
 62
7
  6
CONTINUOUS
 10
-23.5737329867
 20
34.0612660163
 11
-23.574779782
 21
33.8093333756
  0
LINE
  5
3DC
100
AcDbEntity
  8
RACCORDO
100
AcDbLine
 62
7
  6
CONTINUOUS
 10
-23.5736804332
 20
34.0762635171
 11
-23.5746814894
 21
33.8300377648
  0
LINE
  5
3DD
100
AcDbEntity
  8
RACCORDO
100
AcDbLine
 62
253
  6
CONTINUOUS
 10
-23.2750082841
 20
33.9119801435
 11
-23.2737071286
 21
34.1807425413
  0
LINE
  5
3DE
100
AcDbEntity
  8
ASSI
100
AcDbLine
 62
253
  6
CONTINUOUS
 10
-23.2750082841
 20
33.9119801435
 11
-23.2737071286
 21
34.1807425413
  0
LINE
  5
3DF
100
AcDbEntity
  8
ASSI
100
AcDbLine
 62
7
  6
CONTINUOUS
 10
-23.5744972546
 20
28.8701974435
 11
-23.5756952191
 21
28.6354110416
  0
LINE
  5
3E0
100
AcDbEntity
  8
ASSI
100
AcDbLine
 62
7
  6
CONTINUOUS
 10
-23.5744972546
 20
23.8701974435
 11
-23.5756952191
 21
23.6354110416
  0
LINE
  5
3E1
100
AcDbEntity
  8
RACCORDO
100
AcDbLine
 62
7
  6
CONTINUOUS
 10
-23.5745448378
 20
23.8596469234
 11
-23.5758700651
 21
23.6054745612
  0
LINE
  5
3E2
100
AcDbEntity
  8
ASSI
100
AcDbLine
 62
253
  6
CONTINUOUS
 10
-23.2210290641
 20
49.8120074072
 11
-23.2209803037
 21
49.8239686202
  0
LINE
  5
3E3
100
AcDbEntity
  8
RACCORDO
100
AcDbLine
 62
7
  6
CONTINUOUS
 10
-23.5746814894
 20
38.8300377648
 11
-23.5760297381
 21
38.578955589
  0
LINE
  5
3E4
100
AcDbEntity
  8
ASSI
100
AcDbLine
 62
7
  6
CONTINUOUS
 10
-23.574779782
 20
38.8093333756
 11
-23.5760211867
 21
38.5803566
  0
LINE
  5
3E5
100
AcDbEntity
  8
RACCORDO
100
AcDbLine
 62
7
  6
CONTINUOUS
 10
-23.5746814894
 20
33.8300377648
 11
-23.5760297381
 21
33.578955589
  0
LINE
  5
3E6
100
AcDbEntity
  8
ASSI
100
AcDbLine
 62
7
  6
CONTINUOUS
 10
-23.574779782
 20
33.8093333756
 11
-23.5760211867
 21
33.5803566
  0
LINE
  5
3E7
100
AcDbEntity
  8
RACCORDO
100
AcDbLine
 62
253
  6
CONTINUOUS
 10
-23.275793427
 20
38.7851537949
 11
-23.2743131867
 21
39.0440618699
  0
LINE
  5
3E8
100
AcDbEntity
  8
ASSI
100
AcDbLine
 62
253
  6
CONTINUOUS
 10
-23.275793427
 20
38.7851537949
 11
-23.2743131867
 21
39.0440618699
  0
LINE
  5
3E9
100
AcDbEntity
  8
RACCORDO
100
AcDbLine
 62
253
  6
CONTINUOUS
 10
-23.275793427
 20
28.7851537949
 11
-23.2743131867
 21
29.0440618699
  0
LINE
  5
3EA
100
AcDbEntity
  8
ASSI
100
AcDbLine
 62
253
  6
CONTINUOUS
 10
-23.275793427
 20
28.7851537949
 11
-23.2743131867
 21
29.0440618699
  0
LINE
  5
3EB
100
AcDbEntity
  8
RACCORDO
100
AcDbLine
 62
253
  6
CONTINUOUS
 10
-23.275793427
 20
23.7851537949
 11
-23.2743131867
 21
24.0440618699
  0
LINE
  5
3EC
100
AcDbEntity
  8
ASSI
100
AcDbLine
 62
253
  6
CONTINUOUS
 10
-23.275793427
 20
23.7851537949
 11
-23.2743131867
 21
24.0440618699
  0
LINE
  5
3ED
100
AcDbEntity
  8
RACCORDO
100
AcDbLine
 62
7
  6
CONTINUOUS
 10
-23.5739102221
 20
29.0127201049
 11
-23.5766933664
 21
28.4763467689
  0
LINE
  5
3EE
100
AcDbEntity
  8
ASSI
100
AcDbLine
 62
7
  6
CONTINUOUS
 10
-23.5756952191
 20
28.6354110416
 11
-23.5770621687
 21
28.4240013794
  0
LINE
  5
3EF
100
AcDbEntity
  8
ASSI
100
AcDbLine
 62
7
  6
CONTINUOUS
 10
-23.5756952191
 20
23.6354110416
 11
-23.5770621687
 21
23.4240013794
  0
LINE
  5
3F0
100
AcDbEntity
  8
RACCORDO
100
AcDbLine
 62
7
  6
CONTINUOUS
 10
-23.5758700651
 20
23.6054745612
 11
-23.5772160043
 21
23.4030325665
  0
LINE
  5
3F1
100
AcDbEntity
  8
RACCORDO
100
AcDbLine
 62
253
  6
CONTINUOUS
 10
-23.2766676091
 20
33.6641651496
 11
-23.2750082841
 21
33.9119801435
  0
LINE
  5
3F2
100
AcDbEntity
  8
ASSI
100
AcDbLine
 62
253
  6
CONTINUOUS
 10
-23.2766676091
 20
33.6641651496
 11
-23.2750082841
 21
33.9119801435
  0
LINE
  5
3F3
100
AcDbEntity
  8
RACCORDO
100
AcDbLine
 62
7
  6
CONTINUOUS
 10
-23.5760297381
 20
38.578955589
 11
-23.5773945257
 21
38.379289289
  0
LINE
  5
3F4
100
AcDbEntity
  8
RACCORDO
100
AcDbLine
 62
7
  6
CONTINUOUS
 10
-23.5760297381
 20
33.578955589
 11
-23.5773945257
 21
33.379289289
  0
LINE
  5
3F5
100
AcDbEntity
  8
ASSI
100
AcDbLine
 62
7
  6
CONTINUOUS
 10
-23.5760211867
 20
38.5803566
 11
-23.5774286138
 21
38.3748247797
  0
LINE
  5
3F6
100
AcDbEntity
  8
ASSI
100
AcDbLine
 62
7
  6
CONTINUOUS
 10
-23.5760211867
 20
33.5803566
 11
-23.5774286138
 21
33.3748247797
  0
LINE
  5
3F7
100
AcDbEntity
  8
RACCORDO
100
AcDbLine
 62
7
  6
CONTINUOUS
 10
-23.5766933664
 20
28.4763467689
 11
-23.5781269537
 21
28.2877799417
  0
LINE
  5
3F8
100
AcDbEntity
  8
RACCORDO
100
AcDbLine
 62
253
  6
CONTINUOUS
 10
-23.2776188118
 20
38.5495168339
 11
-23.275793427
 21
38.7851537949
  0
LINE
  5
3F9
100
AcDbEntity
  8
ASSI
100
AcDbLine
 62
253
  6
CONTINUOUS
 10
-23.2776188118
 20
38.5495168339
 11
-23.275793427
 21
38.7851537949
  0
LINE
  5
3FA
100
AcDbEntity
  8
RACCORDO
100
AcDbLine
 62
253
  6
CONTINUOUS
 10
-23.2776188118
 20
28.5495168339
 11
-23.275793427
 21
28.7851537949
  0
LINE
  5
3FB
100
AcDbEntity
  8
ASSI
100
AcDbLine
 62
253
  6
CONTINUOUS
 10
-23.2776188118
 20
28.5495168339
 11
-23.275793427
 21
28.7851537949
  0
LINE
  5
3FC
100
AcDbEntity
  8
RACCORDO
100
AcDbLine
 62
253
  6
CONTINUOUS
 10
-23.2776188118
 20
23.5495168339
 11
-23.275793427
 21
23.7851537949
  0
LINE
  5
3FD
100
AcDbEntity
  8
ASSI
100
AcDbLine
 62
253
  6
CONTINUOUS
 10
-23.2776188118
 20
23.5495168339
 11
-23.275793427
 21
23.7851537949
  0
LINE
  5
3FE
100
AcDbEntity
  8
ASSI
100
AcDbLine
 62
7
  6
CONTINUOUS
 10
-23.5770621687
 20
28.4240013794
 11
-23.5785734387
 21
28.2361243151
  0
LINE
  5
3FF
100
AcDbEntity
  8
ASSI
100
AcDbLine
 62
7
  6
CONTINUOUS
 10
-23.5770621687
 20
23.4240013794
 11
-23.5785734387
 21
23.2361243151
  0
LINE
  5
400
100
AcDbEntity
  8
RACCORDO
100
AcDbLine
 62
7
  6
CONTINUOUS
 10
-23.5772160043
 20
23.4030325665
 11
-23.578693031
 21
23.2227904861
  0
LINE
  5
401
100
AcDbEntity
  8
ASSI
100
AcDbLine
 62
7
  6
CONTINUOUS
 10
-23.5774286138
 20
38.3748247797
 11
-23.5789687821
 21
38.1928308048
  0
LINE
  5
402
100
AcDbEntity
  8
RACCORDO
100
AcDbLine
 62
7
  6
CONTINUOUS
 10
-23.5773945257
 20
38.379289289
 11
-23.5788850062
 21
38.2018185327
  0
LINE
  5
403
100
AcDbEntity
  8
ASSI
100
AcDbLine
 62
7
  6
CONTINUOUS
 10
-23.5774286138
 20
33.3748247797
 11
-23.5789687821
 21
33.1928308048
  0
LINE
  5
404
100
AcDbEntity
  8
RACCORDO
100
AcDbLine
 62
7
  6
CONTINUOUS
 10
-23.5773945257
 20
33.379289289
 11
-23.5788850062
 21
33.2018185327
  0
LINE
  5
405
100
AcDbEntity
  8
RACCORDO
100
AcDbLine
 62
253
  6
CONTINUOUS
 10
-23.2786479793
 20
33.4417682598
 11
-23.2766676091
 21
33.6641651496
  0
LINE
  5
406
100
AcDbEntity
  8
ASSI
100
AcDbLine
 62
253
  6
CONTINUOUS
 10
-23.2786479793
 20
33.4417682598
 11
-23.2766676091
 21
33.6641651496
  0
LINE
  5
407
100
AcDbEntity
  8
RACCORDO
100
AcDbLine
 62
7
  6
CONTINUOUS
 10
-23.5781269537
 20
28.2877799417
 11
-23.5796696605
 21
28.1213718488
  0
LINE
  5
408
100
AcDbEntity
  8
ASSI
100
AcDbLine
 62
7
  6
CONTINUOUS
 10
-23.5785734387
 20
28.2361243151
 11
-23.5801970244
 21
28.0717043263
  0
LINE
  5
409
100
AcDbEntity
  8
ASSI
100
AcDbLine
 62
7
  6
CONTINUOUS
 10
-23.5785734387
 20
23.2361243151
 11
-23.5801970244
 21
23.0717043263
  0
LINE
  5
40A
100
AcDbEntity
  8
ASSI
100
AcDbLine
 62
253
  6
CONTINUOUS
 10
-23.2211147425
 20
49.8022011203
 11
-23.2210290641
 21
49.8120074072
  0
LINE
  5
40B
100
AcDbEntity
  8
RACCORDO
100
AcDbLine
 62
7
  6
CONTINUOUS
 10
-23.578693031
 20
23.2227904861
 11
-23.5802751124
 21
23.0646273268
  0
LINE
  5
40C
100
AcDbEntity
  8
RACCORDO
100
AcDbLine
 62
7
  6
CONTINUOUS
 10
-23.5788850062
 20
38.2018185327
 11
-23.5804798847
 21
38.0463925232
  0
LINE
  5
40D
100
AcDbEntity
  8
RACCORDO
100
AcDbLine
 62
7
  6
CONTINUOUS
 10
-23.5788850062
 20
33.2018185327
 11
-23.5804798847
 21
33.0463925232
  0
LINE
  5
40E
100
AcDbEntity
  8
ASSI
100
AcDbLine
 62
7
  6
CONTINUOUS
 10
-23.5789687821
 20
38.1928308048
 11
-23.580619433
 21
38.0342272176
  0
LINE
  5
40F
100
AcDbEntity
  8
ASSI
100
AcDbLine
 62
7
  6
CONTINUOUS
 10
-23.5789687821
 20
33.1928308048
 11
-23.580619433
 21
33.0342272176
  0
LINE
  5
410
100
AcDbEntity
  8
RACCORDO
100
AcDbLine
 62
7
  6
CONTINUOUS
 10
-23.5796696605
 20
28.1213718488
 11
-23.5813113968
 21
27.9768384075
  0
LINE
  5
411
100
AcDbEntity
  8
ASSI
100
AcDbLine
 62
7
  6
CONTINUOUS
 10
-23.5801970244
 20
28.0717043263
 11
-23.5819152217
 21
27.9304309558
  0
LINE
  5
412
100
AcDbEntity
  8
ASSI
100
AcDbLine
 62
7
  6
CONTINUOUS
 10
-23.5801970244
 20
23.0717043263
 11
-23.5819152217
 21
22.9304309558
  0
LINE
  5
413
100
AcDbEntity
  8
RACCORDO
100
AcDbLine
 62
7
  6
CONTINUOUS
 10
-23.5802751124
 20
23.0646273268
 11
-23.5819449057
 21
22.9282340402
  0
LINE
  5
414
100
AcDbEntity
  8
RACCORDO
100
AcDbLine
 62
7
  6
CONTINUOUS
 10
-23.5804798847
 20
38.0463925232
 11
-23.5821576649
 21
37.912718052
  0
LINE
  5
415
100
AcDbEntity
  8
RACCORDO
100
AcDbLine
 62
7
  6
CONTINUOUS
 10
-23.5804798847
 20
33.0463925232
 11
-23.5821576649
 21
32.912718052
  0
LINE
  5
416
100
AcDbEntity
  8
ASSI
100
AcDbLine
 62
7
  6
CONTINUOUS
 10
-23.580619433
 20
38.0342272176
 11
-23.5823542396
 21
37.8987396632
  0
LINE
  5
417
100
AcDbEntity
  8
ASSI
100
AcDbLine
 62
7
  6
CONTINUOUS
 10
-23.580619433
 20
33.0342272176
 11
-23.5823542396
 21
32.8987396632
  0
LINE
  5
418
100
AcDbEntity
  8
ASSI
100
AcDbLine
 62
253
  6
CONTINUOUS
 10
-23.2212001435
 20
49.7958168705
 11
-23.2211147425
 21
49.8022011203
  0
LINE
  5
419
100
AcDbEntity
  8
RACCORDO
100
AcDbLine
 62
7
  6
CONTINUOUS
 10
-23.5813113968
 20
27.9768384075
 11
-23.5830162903
 21
27.8541380922
  0
LINE
  5
41A
100
AcDbEntity
  8
ASSI
100
AcDbLine
 62
7
  6
CONTINUOUS
 10
-23.5819152217
 20
27.9304309558
 11
-23.5834653277
 21
27.8259947757
  0
LINE
  5
41B
100
AcDbEntity
  8
RACCORDO
100
AcDbLine
 62
7
  6
CONTINUOUS
 10
-23.5819449057
 20
22.9282340402
 11
-23.5834496988
 21
22.8269465483
  0
LINE
  5
41C
100
AcDbEntity
  8
ASSI
100
AcDbLine
 62
7
  6
CONTINUOUS
 10
-23.5819152217
 20
22.9304309558
 11
-23.5834653277
 21
22.8259947757
  0
LINE
  5
41D
100
AcDbEntity
  8
RACCORDO
100
AcDbLine
 62
7
  6
CONTINUOUS
 10
-23.5821576649
 20
37.912718052
 11
-23.5836671815
 21
37.8138785968
  0
LINE
  5
41E
100
AcDbEntity
  8
RACCORDO
100
AcDbLine
 62
7
  6
CONTINUOUS
 10
-23.5821576649
 20
32.912718052
 11
-23.5836671815
 21
32.8138785968
  0
LINE
  5
41F
100
AcDbEntity
  8
ASSI
100
AcDbLine
 62
7
  6
CONTINUOUS
 10
-23.5823542396
 20
37.8987396632
 11
-23.5839139755
 21
37.799503225
  0
LINE
  5
420
100
AcDbEntity
  8
ASSI
100
AcDbLine
 62
7
  6
CONTINUOUS
 10
-23.5823542396
 20
32.8987396632
 11
-23.5839139755
 21
32.799503225
  0
LINE
  5
421
100
AcDbEntity
  8
RACCORDO
100
AcDbLine
 62
7
  6
CONTINUOUS
 10
-23.5830162903
 20
27.8541380922
 11
-23.5845401285
 21
27.7651190822
  0
LINE
  5
422
100
AcDbEntity
  8
RACCORDO
100
AcDbLine
 62
7
  6
CONTINUOUS
 10
-23.5834496988
 20
22.8269465483
 11
-23.5849766584
 21
22.7428430186
  0
LINE
  5
423
100
AcDbEntity
  8
ASSI
100
AcDbLine
 62
7
  6
CONTINUOUS
 10
-23.5834653277
 20
27.8259947757
 11
-23.5850384631
 21
27.7397974339
  0
LINE
  5
424
100
AcDbEntity
  8
ASSI
100
AcDbLine
 62
7
  6
CONTINUOUS
 10
-23.5834653277
 20
22.8259947757
 11
-23.5850384631
 21
22.7397974339
  0
LINE
  5
425
100
AcDbEntity
  8
RACCORDO
100
AcDbLine
 62
7
  6
CONTINUOUS
 10
-23.5836671815
 20
37.8138785968
 11
-23.5851944217
 21
37.7322289844
  0
LINE
  5
426
100
AcDbEntity
  8
RACCORDO
100
AcDbLine
 62
7
  6
CONTINUOUS
 10
-23.5836671815
 20
32.8138785968
 11
-23.5851944217
 21
32.7322289844
  0
LINE
  5
427
100
AcDbEntity
  8
ASSI
100
AcDbLine
 62
253
  6
CONTINUOUS
 10
-23.2212971359
 20
49.7905406811
 11
-23.2212001435
 21
49.7958168705
  0
LINE
  5
428
100
AcDbEntity
  8
RACCORDO
100
AcDbLine
 62
7
  6
CONTINUOUS
 10
-23.5851944217
 20
37.7322289844
 11
-23.5855011364
 21
37.7178619478
  0
LINE
  5
429
100
AcDbEntity
  8
RACCORDO
100
AcDbLine
 62
7
  6
CONTINUOUS
 10
-23.5851944217
 20
32.7322289844
 11
-23.5855011364
 21
32.7178619478
  0
LINE
  5
42A
100
AcDbEntity
  8
RACCORDO
100
AcDbLine
 62
7
  6
CONTINUOUS
 10
-23.5845401285
 20
27.7651190822
 11
-23.5855011364
 21
27.7178619478
  0
LINE
  5
42B
100
AcDbEntity
  8
RACCORDO
100
AcDbLine
 62
7
  6
CONTINUOUS
 10
-23.5849766584
 20
22.7428430186
 11
-23.5855011364
 21
22.7178619478
  0
LINE
  5
42C
100
AcDbEntity
  8
ASSI
100
AcDbLine
 62
7
  6
CONTINUOUS
 10
-23.5839139755
 20
37.799503225
 11
-23.5855005175
 21
37.7178627108
  0
LINE
  5
42D
100
AcDbEntity
  8
ASSI
100
AcDbLine
 62
7
  6
CONTINUOUS
 10
-23.5839139755
 20
32.799503225
 11
-23.5855005175
 21
32.7178627108
  0
LINE
  5
42E
100
AcDbEntity
  8
ASSI
100
AcDbLine
 62
7
  6
CONTINUOUS
 10
-23.5850384631
 20
27.7397974339
 11
-23.5855005175
 21
27.7178627108
  0
LINE
  5
42F
100
AcDbEntity
  8
ASSI
100
AcDbLine
 62
7
  6
CONTINUOUS
 10
-23.5850384631
 20
22.7397974339
 11
-23.5855005175
 21
22.7178627108
  0
LINE
  5
430
100
AcDbEntity
  8
ASSI
100
AcDbLine
 62
253
  6
CONTINUOUS
 10
-23.2213809473
 20
49.7870990299
 11
-23.2212971359
 21
49.7905406811
  0
LINE
  5
431
100
AcDbEntity
  8
ASSI
100
AcDbLine
 62
253
  6
CONTINUOUS
 10
-23.235
 20
49.3365746082
 11
-23.2213809473
 21
49.7870990299
  0
LINE
  5
432
100
AcDbEntity
  8
ASSI
100
AcDbLine
 62
253
  6
CONTINUOUS
 10
-23.0367150409
 20
49.1076497308
 11
-23.0214418984
 21
49.6128299144
  0
LWPOLYLINE
  5
433
100
AcDbEntity
  8
RACCORDO
100
AcDbPolyline
 62
253
  6
CONTINUOUS
 90
9
 70
0
 10
-23.2890508441
 20
37.8828371398
 10
-23.2875979664
 20
37.9196568188
 10
-23.2861695357
 20
37.9665678226
 10
-23.2847857557
 20
38.0232992647
 10
-23.2834475217
 20
38.0895200894
 10
-23.2821539385
 20
38.1648712137
 10
-23.2809225242
 20
38.2489929856
 10
-23.2797541673
 20
38.3414484105
 10
-23.2776188118
 20
38.5495168339
  0
LWPOLYLINE
  5
434
100
AcDbEntity
  8
ASSI
100
AcDbPolyline
 62
253
  6
CONTINUOUS
 90
9
 70
0
 10
-23.2890508441
 20
37.8828371398
 10
-23.2875979664
 20
37.9196568188
 10
-23.2861695357
 20
37.9665678226
 10
-23.2847857557
 20
38.0232992647
 10
-23.2834475217
 20
38.0895200894
 10
-23.2821539385
 20
38.1648712137
 10
-23.2809225242
 20
38.2489929856
 10
-23.2797541673
 20
38.3414484105
 10
-23.2776188118
 20
38.5495168339
  0
LWPOLYLINE
  5
435
100
AcDbEntity
  8
RACCORDO
100
AcDbPolyline
 62
253
  6
CONTINUOUS
 90
8
 70
0
 10
-23.2890508441
 20
32.8828371398
 10
-23.2875979664
 20
32.9196568188
 10
-23.2861695357
 20
32.9665678226
 10
-23.2847857557
 20
33.0232992647
 10
-23.2834475217
 20
33.0895200894
 10
-23.2821539385
 20
33.1648712137
 10
-23.2809225242
 20
33.2489929856
 10
-23.2786479793
 20
33.4417682598
  0
LWPOLYLINE
  5
436
100
AcDbEntity
  8
ASSI
100
AcDbPolyline
 62
253
  6
CONTINUOUS
 90
8
 70
0
 10
-23.2890508441
 20
32.8828371398
 10
-23.2875979664
 20
32.9196568188
 10
-23.2861695357
 20
32.9665678226
 10
-23.2847857557
 20
33.0232992647
 10
-23.2834475217
 20
33.0895200894
 10
-23.2821539385
 20
33.1648712137
 10
-23.2809225242
 20
33.2489929856
 10
-23.2786479793
 20
33.4417682598
  0
LWPOLYLINE
  5
437
100
AcDbEntity
  8
RACCORDO
100
AcDbPolyline
 62
253
  6
CONTINUOUS
 90
9
 70
0
 10
-23.2890508441
 20
27.8828371398
 10
-23.2875979664
 20
27.9196568188
 10
-23.2861695357
 20
27.9665678226
 10
-23.2847857557
 20
28.0232992647
 10
-23.2834475217
 20
28.0895200894
 10
-23.2821539385
 20
28.1648712137
 10
-23.2809225242
 20
28.2489929856
 10
-23.2797541673
 20
28.3414484105
 10
-23.2776188118
 20
28.5495168339
  0
LWPOLYLINE
  5
438
100
AcDbEntity
  8
ASSI
100
AcDbPolyline
 62
253
  6
CONTINUOUS
 90
9
 70
0
 10
-23.2890508441
 20
27.8828371398
 10
-23.2875979664
 20
27.9196568188
 10
-23.2861695357
 20
27.9665678226
 10
-23.2847857557
 20
28.0232992647
 10
-23.2834475217
 20
28.0895200894
 10
-23.2821539385
 20
28.1648712137
 10
-23.2809225242
 20
28.2489929856
 10
-23.2797541673
 20
28.3414484105
 10
-23.2776188118
 20
28.5495168339
  0
LINE
  5
439
100
AcDbEntity
  8
ASSI
100
AcDbLine
 62
7
  6
CONTINUOUS
 10
-23.7611859216
 20
44.4076497308
 11
-23.735
 21
44.985
  0
LWPOLYLINE
  5
43A
100
AcDbEntity
  8
ASSI
100
AcDbPolyline
 62
7
  6
CONTINUOUS
 90
16
 70
0
 10
-23.735
 20
47.8849997649
 10
-23.7323037172
 20
47.9369097908
 10
-23.7241965607
 20
47.9884612067
 10
-23.7107000376
 20
48.0390843526
 10
-23.6918171282
 20
48.0883850542
 10
-23.6677349164
 20
48.1356009559
 10
-23.6390079332
 20
48.1797016025
 10
-23.6063475963
 20
48.2199337381
 10
-23.5699703625
 20
48.2563195516
 10
-23.529740769
 20
48.2889932453
 10
-23.4856316256
 20
48.3177366144
 10
-23.4383981685
 20
48.3418330612
 10
-23.3890825694
 20
48.3607237075
 10
-23.3384529055
 20
48.3742205187
 10
-23.2869014623
 20
48.3823199897
 10
-23.2350000003
 20
48.3849997365
  0
LWPOLYLINE
  5
43B
100
AcDbEntity
  8
ASSI
100
AcDbPolyline
 62
253
  6
CONTINUOUS
 90
13
 70
0
 10
-23.2218325431
 20
50.2718630041
 10
-23.2201144898
 20
50.2979592355
 10
-23.2150056122
 20
50.3236091261
 10
-23.2065932907
 20
50.348373969
 10
-23.1950214066
 20
50.3718301951
 10
-23.1804878816
 20
50.3935766171
 10
-23.1632412918
 20
50.4132412918
 10
-23.1435766171
 20
50.4304878816
 10
-23.1218301951
 20
50.4450214066
 10
-23.098373969
 20
50.4565932907
 10
-23.0736091261
 20
50.4650056122
 10
-23.0479592355
 20
50.4701144898
 10
-23.0218630041
 20
50.4718325431
  0
LWPOLYLINE
  5
43C
100
AcDbEntity
  8
RACCORDO
100
AcDbPolyline
 62
253
  6
CONTINUOUS
 90
4
 70
0
 10
-23.2935359545
 20
32.835
 10
-23.2920164708
 20
32.8403504461
 10
-23.290521434
 20
32.8563400553
 10
-23.2890508441
 20
32.8828371398
  0
LWPOLYLINE
  5
43D
100
AcDbEntity
  8
ASSI
100
AcDbPolyline
 62
253
  6
CONTINUOUS
 90
4
 70
0
 10
-23.2935359545
 20
32.835
 10
-23.2920164708
 20
32.8403504461
 10
-23.290521434
 20
32.8563400553
 10
-23.2890508441
 20
32.8828371398
  0
LWPOLYLINE
  5
43E
100
AcDbEntity
  8
RACCORDO
100
AcDbPolyline
 62
253
  6
CONTINUOUS
 90
4
 70
0
 10
-23.2935359545
 20
27.835
 10
-23.2920164708
 20
27.8403504461
 10
-23.290521434
 20
27.8563400553
 10
-23.2890508441
 20
27.8828371398
  0
LWPOLYLINE
  5
43F
100
AcDbEntity
  8
ASSI
100
AcDbPolyline
 62
253
  6
CONTINUOUS
 90
4
 70
0
 10
-23.2935359545
 20
27.835
 10
-23.2920164708
 20
27.8403504461
 10
-23.290521434
 20
27.8563400553
 10
-23.2890508441
 20
27.8828371398
  0
LINE
  5
440
100
AcDbEntity
  8
0
100
AcDbLine
 62
7
  6
CONTINUOUS
 10
-9.1716556363
 20
45.8483443637
 11
-9.135
 21
45.885
  0
LINE
  5
441
100
AcDbEntity
  8
DRAFT
100
AcDbLine
 62
7
  6
CONTINUOUS
 10
-9.1716556363
 20
45.8483443637
 11
-9.135
 21
45.885
  0
LINE
  5
442
100
AcDbEntity
  8
0
100
AcDbLine
 62
7
  6
CONTINUOUS
 10
-9.135
 20
45.685
 11
-9.1716556363
 21
45.6483443637
  0
LINE
  5
443
100
AcDbEntity
  8
DRAFT
100
AcDbLine
 62
7
  6
CONTINUOUS
 10
-9.135
 20
45.685
 11
-9.1716556363
 21
45.6483443637
  0
LINE
  5
444
100
AcDbEntity
  8
0
100
AcDbLine
 62
253
  6
CONTINUOUS
 10
-1.485
 20
43.6566990487
 11
-1.6071854545
 21
43.6060881763
  0
LINE
  5
445
100
AcDbEntity
  8
RACCORDO
100
AcDbLine
 62
253
  6
CONTINUOUS
 10
-1.485
 20
43.6566990487
 11
-1.6071854545
 21
43.6060881763
  0
LINE
  5
446
100
AcDbEntity
  8
0
100
AcDbLine
 62
253
  6
CONTINUOUS
 10
-1.6071854545
 20
8.3639118237
 11
-1.485
 21
8.3133009513
  0
LINE
  5
447
100
AcDbEntity
  8
RACCORDO
100
AcDbLine
 62
253
  6
CONTINUOUS
 10
-1.6071854545
 20
8.3639118237
 11
-1.485
 21
8.3133009513
  0
LWPOLYLINE
  5
448
100
AcDbEntity
  8
0
100
AcDbPolyline
 62
253
  6
CONTINUOUS
 90
4
 70
0
 10
-10.7421637171
 20
8.6405512938
 10
-10.7051866671
 20
8.6074780148
 10
-10.6751923789
 20
8.5691640786
 10
-10.6530922138
 20
8.5267736348
  0
LWPOLYLINE
  5
449
100
AcDbEntity
  8
RACCORDO
100
AcDbPolyline
 62
253
  6
CONTINUOUS
 90
4
 70
0
 10
-10.7421637171
 20
8.6405512938
 10
-10.7051866671
 20
8.6074780148
 10
-10.6751923789
 20
8.5691640786
 10
-10.6530922138
 20
8.5267736348
  0
LWPOLYLINE
  5
44A
100
AcDbEntity
  8
ASSI
100
AcDbPolyline
 62
7
  6
CONTINUOUS
 90
10
 70
0
 10
-4.0883769702
 20
2.3571687836
 10
-4.0690641034
 20
2.3388761012
 10
-4.0483413164
 20
2.3179344413
 10
-4.026208609
 20
2.2950004224
 10
-4.0023672192
 20
2.2708622483
 10
-3.9771159091
 20
2.2459345389
 10
-3.9513509653
 20
2.2201427787
 10
-3.9253711503
 20
2.1936713676
 10
-3.8988777016
 20
2.1670661373
 10
-3.8718706193
 20
2.1406624327
  0
LINE
  5
44B
100
AcDbEntity
  8
0
100
AcDbLine
 62
7
  6
CONTINUOUS
 10
-9.135
 20
6.085
 11
-9.1716556363
 21
6.1216556363
  0
LINE
  5
44C
100
AcDbEntity
  8
DRAFT
100
AcDbLine
 62
7
  6
CONTINUOUS
 10
-9.135
 20
6.085
 11
-9.1716556363
 21
6.1216556363
  0
LINE
  5
44D
100
AcDbEntity
  8
0
100
AcDbLine
 62
7
  6
CONTINUOUS
 10
-9.135
 20
6.285
 11
-9.1716556363
 21
6.3216556363
  0
LINE
  5
44E
100
AcDbEntity
  8
DRAFT
100
AcDbLine
 62
7
  6
CONTINUOUS
 10
-9.135
 20
6.285
 11
-9.1716556363
 21
6.3216556363
  0
LWPOLYLINE
  5
44F
100
AcDbEntity
  8
ASSI
100
AcDbPolyline
 62
253
  6
CONTINUOUS
 90
4
 70
0
 10
-20.0481369959
 20
1.4981674569
 10
-20.0481798484
 20
1.4986786644
 10
-20.0482234256
 20
1.4998233055
 10
-20.0482677275
 20
1.5016481677
  0
LWPOLYLINE
  5
450
100
AcDbEntity
  8
ASSI
100
AcDbPolyline
 62
253
  6
CONTINUOUS
 90
9
 70
0
 10
-23.2214343387
 20
50.2659036878
 10
-23.2214809601
 20
50.2672388229
 10
-23.221528682
 20
50.2684087594
 10
-23.2215775145
 20
50.2694120159
 10
-23.2216274476
 20
50.2702500739
 10
-23.2216779683
 20
50.2709149954
 10
-23.2217289056
 20
50.2714041347
 10
-23.2217804305
 20
50.2717201376
 10
-23.2218325431
 20
50.2718630041
  0
LINE
  5
451
100
AcDbEntity
  8
ASSI
100
AcDbLine
 62
7
  6
CONTINUOUS
 10
-23.7175449351
 20
44.4076497308
 11
-23.735
 21
44.985
  0
LINE
  5
452
100
AcDbEntity
  8
ASSI
100
AcDbLine
 62
7
  6
CONTINUOUS
 10
-21.935
 20
2.8623502692
 11
-21.9218325431
 21
2.4268185294
  0
LINE
  5
453
100
AcDbEntity
  8
ASSI
100
AcDbLine
 62
253
  6
CONTINUOUS
 10
-23.2213458418
 20
50.2627723488
 11
-23.2214343387
 21
50.2659036878
  0
LINE
  5
454
100
AcDbEntity
  8
ASSI
100
AcDbLine
 62
253
  6
CONTINUOUS
 10
-23.2212641707
 20
50.2590473683
 11
-23.2213458418
 21
50.2627723488
  0
LWPOLYLINE
  5
455
100
AcDbEntity
  8
ASSI
100
AcDbPolyline
 62
253
  6
CONTINUOUS
 90
4
 70
0
 10
-23.0217084839
 20
50.4670932695
 10
-23.0217594084
 20
50.469550524
 10
-23.0218109151
 20
50.4711319439
 10
-23.0218630041
 20
50.4718325431
  0
LWPOLYLINE
  5
456
100
AcDbEntity
  8
RACCORDO
100
AcDbPolyline
 62
253
  6
CONTINUOUS
 90
10
 70
0
 10
-23.2809190192
 20
41.7207507149
 10
-23.2821505549
 20
41.8049155765
 10
-23.2834443494
 20
41.8803097947
 10
-23.2847828725
 20
41.9465713764
 10
-23.2861670325
 20
42.0033402648
 10
-23.2875959211
 20
42.0502838999
 10
-23.2890492831
 20
42.0871293927
 10
-23.2905203668
 20
42.1136449494
 10
-23.2920159239
 20
42.1296457809
 10
-23.2935359545
 20
42.135
  0
LWPOLYLINE
  5
457
100
AcDbEntity
  8
ASSI
100
AcDbPolyline
 62
253
  6
CONTINUOUS
 90
10
 70
0
 10
-23.2809190192
 20
41.7207507149
 10
-23.2821505549
 20
41.8049155765
 10
-23.2834443494
 20
41.8803097947
 10
-23.2847828725
 20
41.9465713764
 10
-23.2861670325
 20
42.0033402648
 10
-23.2875959211
 20
42.0502838999
 10
-23.2890492831
 20
42.0871293927
 10
-23.2905203668
 20
42.1136449494
 10
-23.2920159239
 20
42.1296457809
 10
-23.2935359545
 20
42.135
  0
LINE
  5
458
100
AcDbEntity
  8
ASSI
100
AcDbLine
 62
253
  6
CONTINUOUS
 10
-23.2211577597
 20
50.2524858479
 11
-23.2212641707
 21
50.2590473683
  0
LWPOLYLINE
  5
459
100
AcDbEntity
  8
RACCORDO
100
AcDbPolyline
 62
253
  6
CONTINUOUS
 90
11
 70
0
 10
-23.2797506399
 20
36.6282538384
 10
-23.2809190192
 20
36.7207507149
 10
-23.2821505549
 20
36.8049155765
 10
-23.2834443494
 20
36.8803097947
 10
-23.2847828725
 20
36.9465713764
 10
-23.2861670325
 20
37.0033402648
 10
-23.2875959211
 20
37.0502838999
 10
-23.2890492831
 20
37.0871293927
 10
-23.2905203668
 20
37.1136449494
 10
-23.2920159239
 20
37.1296457809
 10
-23.2935359545
 20
37.135
  0
LWPOLYLINE
  5
45A
100
AcDbEntity
  8
ASSI
100
AcDbPolyline
 62
253
  6
CONTINUOUS
 90
11
 70
0
 10
-23.2797506399
 20
36.6282538384
 10
-23.2809190192
 20
36.7207507149
 10
-23.2821505549
 20
36.8049155765
 10
-23.2834443494
 20
36.8803097947
 10
-23.2847828725
 20
36.9465713764
 10
-23.2861670325
 20
37.0033402648
 10
-23.2875959211
 20
37.0502838999
 10
-23.2890492831
 20
37.0871293927
 10
-23.2905203668
 20
37.1136449494
 10
-23.2920159239
 20
37.1296457809
 10
-23.2935359545
 20
37.135
  0
LINE
  5
45B
100
AcDbEntity
  8
ASSI
100
AcDbLine
 62
253
  6
CONTINUOUS
 10
-23.0216080362
 20
50.4595877918
 11
-23.0217084839
 21
50.4670932695
  0
LINE
  5
45C
100
AcDbEntity
  8
RACCORDO
100
AcDbLine
 62
253
  6
CONTINUOUS
 10
-23.2786445193
 20
41.5278954306
 11
-23.2809190192
 21
41.7207507149
  0
LINE
  5
45D
100
AcDbEntity
  8
ASSI
100
AcDbLine
 62
253
  6
CONTINUOUS
 10
-23.2786445193
 20
41.5278954306
 11
-23.2809190192
 21
41.7207507149
  0
LINE
  5
45E
100
AcDbEntity
  8
ASSI
100
AcDbLine
 62
253
  6
CONTINUOUS
 10
-23.2210524453
 20
50.2424575659
 11
-23.2211577597
 21
50.2524858479
  0
LINE
  5
45F
100
AcDbEntity
  8
RACCORDO
100
AcDbLine
 62
253
  6
CONTINUOUS
 10
-23.2766645212
 20
41.3054393538
 11
-23.2786445193
 21
41.5278954306
  0
LINE
  5
460
100
AcDbEntity
  8
ASSI
100
AcDbLine
 62
253
  6
CONTINUOUS
 10
-23.2766645212
 20
41.3054393538
 11
-23.2786445193
 21
41.5278954306
  0
LINE
  5
461
100
AcDbEntity
  8
ASSI
100
AcDbLine
 62
253
  6
CONTINUOUS
 10
-23.0214198263
 20
50.4345984471
 11
-23.0216080362
 21
50.4595877918
  0
LINE
  5
462
100
AcDbEntity
  8
ASSI
100
AcDbLine
 62
253
  6
CONTINUOUS
 10
-23.2209847241
 20
50.229305039
 11
-23.2210524453
 21
50.2424575659
  0
LINE
  5
463
100
AcDbEntity
  8
ASSI
100
AcDbLine
 62
253
  6
CONTINUOUS
 10
-23.0210715813
 20
2.2360868736
 11
-23.0214418591
 21
2.3571687836
  0
LINE
  5
464
100
AcDbEntity
  8
ASSI
100
AcDbLine
 62
253
  6
CONTINUOUS
 10
-23.021033946
 20
50.2851623603
 11
-23.0214198263
 21
50.4345984471
  0
LINE
  5
465
100
AcDbEntity
  8
ASSI
100
AcDbLine
 62
253
  6
CONTINUOUS
 10
-23.0210164448
 20
2.1802722787
 11
-23.0210715813
 21
2.2360868736
  0
LINE
  5
466
100
AcDbEntity
  8
ASSI
100
AcDbLine
 62
253
  6
CONTINUOUS
 10
-23.0210054819
 20
2.1406598353
 11
-23.0210164448
 21
2.1802722787
  0
LINE
  5
467
100
AcDbEntity
  8
ASSI
100
AcDbLine
 62
7
  6
CONTINUOUS
 10
-22.435
 20
22.835
 11
-22.435
 21
27.135
  0
LINE
  5
468
100
AcDbEntity
  8
ASSI
100
AcDbLine
 62
7
  6
CONTINUOUS
 10
-22.435
 20
27.835
 11
-22.435
 21
32.135
  0
LINE
  5
469
100
AcDbEntity
  8
ASSI
100
AcDbLine
 62
7
  6
CONTINUOUS
 10
-22.435
 20
32.835
 11
-22.435
 21
37.135
  0
LINE
  5
46A
100
AcDbEntity
  8
ASSI
100
AcDbLine
 62
7
  6
CONTINUOUS
 10
-22.435
 20
37.835
 11
-22.435
 21
42.135
  0
LINE
  5
46B
100
AcDbEntity
  8
ASSI
100
AcDbLine
 62
7
  6
CONTINUOUS
 10
-21.935
 20
49.1076497308
 11
-21.935
 21
48.385
  0
LINE
  5
46C
100
AcDbEntity
  8
ASSI
100
AcDbLine
 62
7
  6
CONTINUOUS
 10
-21.935
 20
3.585
 11
-21.935
 21
2.8623502692
  0
LINE
  5
46D
100
AcDbEntity
  8
ASSI
100
AcDbLine
 62
253
  6
CONTINUOUS
 10
-21.9218325431
 20
49.5431814706
 11
-21.9218325431
 21
48.3718325431
  0
LINE
  5
46E
100
AcDbEntity
  8
ASSI
100
AcDbLine
 62
253
  6
CONTINUOUS
 10
-21.9218325431
 20
3.5981674569
 11
-21.9218325431
 21
2.4268185294
  0
LINE
  5
46F
100
AcDbEntity
  8
0
100
AcDbLine
 62
253
  6
CONTINUOUS
 10
-21.835
 20
7.385
 11
-21.835
 21
7.7719096983
  0
LINE
  5
470
100
AcDbEntity
  8
ASSI
100
AcDbLine
 62
253
  6
CONTINUOUS
 10
-21.6718706193
 20
49.8293375673
 11
-21.6718706193
 21
48.3675449351
  0
LINE
  5
471
100
AcDbEntity
  8
ASSI
100
AcDbLine
 62
253
  6
CONTINUOUS
 10
-21.6718706193
 20
3.6024550649
 11
-21.6718706193
 21
2.1406624327
  0
LINE
  5
472
100
AcDbEntity
  8
ASSI
100
AcDbLine
 62
253
  6
CONTINUOUS
 10
-21.3981293807
 20
49.8293375673
 11
-21.3981293807
 21
48.3675449351
  0
LINE
  5
473
100
AcDbEntity
  8
ASSI
100
AcDbLine
 62
253
  6
CONTINUOUS
 10
-21.3981293807
 20
3.6024550649
 11
-21.3981293807
 21
2.1406624327
  0
LINE
  5
474
100
AcDbEntity
  8
ASSI
100
AcDbLine
 62
253
  6
CONTINUOUS
 10
-23.0212776359
 20
49.6479482367
 11
-23.021033946
 21
50.2851623603
  0
LINE
  5
475
100
AcDbEntity
  8
ASSI
100
AcDbLine
 62
253
  6
CONTINUOUS
 10
-23.0213318452
 20
1.5531765164
 11
-23.0210054824
 21
2.1406598353
  0
LINE
  5
476
100
AcDbEntity
  8
ASSI
100
AcDbLine
 62
253
  6
CONTINUOUS
 10
-23.0214418667
 20
49.6128299144
 11
-23.0212776359
 21
49.6479482367
  0
LINE
  5
477
100
AcDbEntity
  8
ASSI
100
AcDbLine
 62
253
  6
CONTINUOUS
 10
-23.2210300038
 20
1.7306634688
 11
-23.2209812212
 21
1.7421848541
  0
LINE
  5
478
100
AcDbEntity
  8
ASSI
100
AcDbLine
 62
253
  6
CONTINUOUS
 10
-23.0215508105
 20
1.5163917409
 11
-23.0213318452
 21
1.5531765164
  0
LINE
  5
479
100
AcDbEntity
  8
ASSI
100
AcDbLine
 62
253
  6
CONTINUOUS
 10
-23.2211251825
 20
1.720091767
 11
-23.2210300038
 21
1.7306634688
  0
LINE
  5
47A
100
AcDbEntity
  8
ASSI
100
AcDbLine
 62
253
  6
CONTINUOUS
 10
-23.02164246
 20
1.5074151063
 11
-23.0215508105
 21
1.5163917409
  0
LINE
  5
47B
100
AcDbEntity
  8
ASSI
100
AcDbLine
 62
253
  6
CONTINUOUS
 10
-23.2212241738
 20
1.713152187
 11
-23.2211251825
 21
1.720091767
  0
LINE
  5
47C
100
AcDbEntity
  8
ASSI
100
AcDbLine
 62
253
  6
CONTINUOUS
 10
-23.2213014246
 20
1.7091386951
 11
-23.2212241738
 21
1.713152187
  0
LINE
  5
47D
100
AcDbEntity
  8
ASSI
100
AcDbLine
 62
7
  6
CONTINUOUS
 10
-23.735
 20
6.985
 11
-23.7175449351
 21
7.5623502692
  0
LINE
  5
47E
100
AcDbEntity
  8
ASSI
100
AcDbLine
 62
7
  6
CONTINUOUS
 10
-21.9218325431
 20
49.5431814706
 11
-21.935
 21
49.1076497308
  0
LWPOLYLINE
  5
47F
100
AcDbEntity
  8
RACCORDO
100
AcDbPolyline
 62
253
  6
CONTINUOUS
 90
9
 70
0
 10
-23.2890508441
 20
22.8828371398
 10
-23.2875979664
 20
22.9196568188
 10
-23.2861695357
 20
22.9665678226
 10
-23.2847857557
 20
23.0232992647
 10
-23.2834475217
 20
23.0895200894
 10
-23.2821539385
 20
23.1648712137
 10
-23.2809225242
 20
23.2489929856
 10
-23.2797541673
 20
23.3414484105
 10
-23.2776188118
 20
23.5495168339
  0
LWPOLYLINE
  5
480
100
AcDbEntity
  8
ASSI
100
AcDbPolyline
 62
253
  6
CONTINUOUS
 90
9
 70
0
 10
-23.2890508441
 20
22.8828371398
 10
-23.2875979664
 20
22.9196568188
 10
-23.2861695357
 20
22.9665678226
 10
-23.2847857557
 20
23.0232992647
 10
-23.2834475217
 20
23.0895200894
 10
-23.2821539385
 20
23.1648712137
 10
-23.2809225242
 20
23.2489929856
 10
-23.2797541673
 20
23.3414484105
 10
-23.2776188118
 20
23.5495168339
  0
LWPOLYLINE
  5
481
100
AcDbEntity
  8
RACCORDO
100
AcDbPolyline
 62
253
  6
CONTINUOUS
 90
4
 70
0
 10
-23.2935359545
 20
22.835
 10
-23.2920164708
 20
22.8403504461
 10
-23.290521434
 20
22.8563400553
 10
-23.2890508441
 20
22.8828371398
  0
LWPOLYLINE
  5
482
100
AcDbEntity
  8
ASSI
100
AcDbPolyline
 62
253
  6
CONTINUOUS
 90
4
 70
0
 10
-23.2935359545
 20
22.835
 10
-23.2920164708
 20
22.8403504461
 10
-23.290521434
 20
22.8563400553
 10
-23.2890508441
 20
22.8828371398
  0
LWPOLYLINE
  5
483
100
AcDbEntity
  8
ASSI
100
AcDbPolyline
 62
7
  6
CONTINUOUS
 90
10
 70
0
 10
-4.0883769702
 20
49.6128312164
 10
-4.0700842877
 20
49.6321440832
 10
-4.0491426279
 20
49.6528668702
 10
-4.026208609
 20
49.6749995776
 10
-4.0020704349
 20
49.6988409674
 10
-3.9771427254
 20
49.7240922775
 10
-3.9513509653
 20
49.7498572213
 10
-3.9248795542
 20
49.7758370363
 10
-3.8982743239
 20
49.802330485
 10
-3.8718706193
 20
49.8293375673
  0
LINE
  5
484
100
AcDbEntity
  8
ASSI
100
AcDbLine
 62
253
  6
CONTINUOUS
 10
-2.234969539
 20
50.485
 11
-2.2481369959
 21
50.4718325431
  0
LINE
  5
485
100
AcDbEntity
  8
ASSI
100
AcDbLine
 62
253
  6
CONTINUOUS
 10
-2.035
 20
50.285030461
 11
-2.0481674569
 21
50.2718630041
  0
LINE
  5
486
100
AcDbEntity
  8
0
100
AcDbLine
 62
7
  6
CONTINUOUS
 10
-6.0477313221
 20
45.7722686779
 11
-6.135
 21
45.685
  0
LINE
  5
487
100
AcDbEntity
  8
ASSI
100
AcDbLine
 62
7
  6
CONTINUOUS
 10
-3.335
 20
48.385
 11
-3.3481674569
 21
48.3718325431
  0
LINE
  5
488
100
AcDbEntity
  8
ASSI
100
AcDbLine
 62
253
  6
CONTINUOUS
 10
-2.2481369959
 20
1.4981674569
 11
-2.234969539
 21
1.485
  0
LINE
  5
489
100
AcDbEntity
  8
ASSI
100
AcDbLine
 62
253
  6
CONTINUOUS
 10
-2.0481674569
 20
1.6981369959
 11
-2.035
 21
1.684969539
  0
LINE
  5
48A
100
AcDbEntity
  8
0
100
AcDbLine
 62
7
  6
CONTINUOUS
 10
-6.0477313221
 20
6.1977313221
 11
-6.135
 21
6.285
  0
LINE
  5
48B
100
AcDbEntity
  8
ASSI
100
AcDbLine
 62
7
  6
CONTINUOUS
 10
-3.335
 20
3.585
 11
-3.3481674569
 21
3.5981674569
  0
LWPOLYLINE
  5
48C
100
AcDbEntity
  8
ASSI
100
AcDbPolyline
 62
253
  6
CONTINUOUS
 90
13
 70
0
 10
-23.2214113981
 20
49.7860362971
 10
-23.2194930442
 20
49.7635525259
 10
-23.2142234736
 20
49.7414492013
 10
-23.2056918522
 20
49.7201003329
 10
-23.1940425432
 20
49.6998671642
 10
-23.1794726639
 20
49.68109206
 10
-23.1622287504
 20
49.664092713
 10
-23.1426025862
 20
49.6491567689
 10
-23.1209262647
 20
49.6365369584
 10
-23.0975665704
 20
49.6264468212
 10
-23.0729187718
 20
49.6190570923
 10
-23.0473999336
 20
49.6144928133
 10
-23.0214418591
 20
49.6128312164
  0
LINE
  5
48D
100
AcDbEntity
  8
ASSI
100
AcDbLine
 62
7
  6
CONTINUOUS
 10
-21.1481674569
 20
49.5431814706
 11
-21.135
 21
49.1076497308
  0
LINE
  5
48E
100
AcDbEntity
  8
ASSI
100
AcDbLine
 62
253
  6
CONTINUOUS
 10
-19.8485718208
 20
1.7042872549
 11
-19.8486584697
 21
1.7074030288
  0
LINE
  5
48F
100
AcDbEntity
  8
ASSI
100
AcDbLine
 62
253
  6
CONTINUOUS
 10
-19.8486584697
 20
1.7074030288
 11
-19.8487388068
 21
1.7111102234
  0
LINE
  5
490
100
AcDbEntity
  8
ASSI
100
AcDbLine
 62
253
  6
CONTINUOUS
 10
-19.8487388068
 20
1.7111102234
 11
-19.8488442889
 21
1.7176682624
  0
LINE
  5
491
100
AcDbEntity
  8
ASSI
100
AcDbLine
 62
253
  6
CONTINUOUS
 10
-20.0482677275
 20
1.5016481677
 11
-20.0483590521
 21
1.5075371581
  0
LINE
  5
492
100
AcDbEntity
  8
ASSI
100
AcDbLine
 62
253
  6
CONTINUOUS
 10
-19.8488442889
 20
1.7176682624
 11
-19.848950272
 21
1.7278916429
  0
LINE
  5
493
100
AcDbEntity
  8
ASSI
100
AcDbLine
 62
253
  6
CONTINUOUS
 10
-19.8488667735
 20
49.8006292973
 11
-19.8489657474
 21
49.8112321816
  0
LINE
  5
494
100
AcDbEntity
  8
ASSI
100
AcDbLine
 62
253
  6
CONTINUOUS
 10
-20.0483590521
 20
1.5075371581
 11
-20.0485413787
 21
1.5289173038
  0
LINE
  5
495
100
AcDbEntity
  8
ASSI
100
AcDbLine
 62
253
  6
CONTINUOUS
 10
-19.848950272
 20
1.7278916429
 11
-19.8490110966
 21
1.7392480435
  0
LINE
  5
496
100
AcDbEntity
  8
ASSI
100
AcDbLine
 62
253
  6
CONTINUOUS
 10
-19.8489657474
 20
49.8112321816
 11
-19.8490182634
 21
49.8231569973
  0
LINE
  5
497
100
AcDbEntity
  8
ASSI
100
AcDbLine
 62
253
  6
CONTINUOUS
 10
-20.0485413787
 20
1.5289173038
 11
-20.0488721346
 21
1.6204761583
  0
LINE
  5
498
100
AcDbEntity
  8
ASSI
100
AcDbLine
 62
253
  6
CONTINUOUS
 10
-20.0485581409
 20
49.6128312164
 11
-20.048890723
 21
49.7111586005
  0
LINE
  5
499
100
AcDbEntity
  8
0
100
AcDbLine
 62
7
  6
CONTINUOUS
 10
-21.235
 20
46.835
 11
-21.235
 21
44.2424425998
  0
LINE
  5
49A
100
AcDbEntity
  8
DRAFT
100
AcDbLine
 62
7
  6
CONTINUOUS
 10
-21.235
 20
46.835
 11
-21.235
 21
44.2424425998
  0
LINE
  5
49B
100
AcDbEntity
  8
0
100
AcDbLine
 62
7
  6
CONTINUOUS
 10
-21.235
 20
7.385
 11
-21.235
 21
5.135
  0
LINE
  5
49C
100
AcDbEntity
  8
DRAFT
100
AcDbLine
 62
7
  6
CONTINUOUS
 10
-21.235
 20
7.385
 11
-21.235
 21
5.135
  0
LINE
  5
49D
100
AcDbEntity
  8
ASSI
100
AcDbLine
 62
253
  6
CONTINUOUS
 10
-21.1481674569
 20
49.5431814706
 11
-21.1481674569
 21
48.3718325431
  0
LINE
  5
49E
100
AcDbEntity
  8
ASSI
100
AcDbLine
 62
253
  6
CONTINUOUS
 10
-21.1481674569
 20
3.5981674569
 11
-21.1481674569
 21
2.4268185294
  0
LINE
  5
49F
100
AcDbEntity
  8
ASSI
100
AcDbLine
 62
7
  6
CONTINUOUS
 10
-21.135
 20
49.1076497308
 11
-21.135
 21
48.385
  0
LINE
  5
4A0
100
AcDbEntity
  8
ASSI
100
AcDbLine
 62
7
  6
CONTINUOUS
 10
-21.135
 20
3.585
 11
-21.135
 21
2.8623502692
  0
LINE
  5
4A1
100
AcDbEntity
  8
ASSI
100
AcDbLine
 62
7
  6
CONTINUOUS
 10
-20.8675449351
 20
47.3901134101
 11
-20.8675449351
 21
46.885
  0
LINE
  5
4A2
100
AcDbEntity
  8
ASSI
100
AcDbLine
 62
7
  6
CONTINUOUS
 10
-20.8675449351
 20
4.5798865899
 11
-20.8675449351
 21
5.085
  0
LINE
  5
4A3
100
AcDbEntity
  8
ASSI
100
AcDbLine
 62
7
  6
CONTINUOUS
 10
-20.6929942858
 20
4.7597029773
 11
-20.6929942858
 21
4.9977313221
  0
LINE
  5
4A4
100
AcDbEntity
  8
ASSI
100
AcDbLine
 62
7
  6
CONTINUOUS
 10
-20.6929942858
 20
46.9722686779
 11
-20.6929942858
 21
47.2102970227
  0
LINE
  5
4A5
100
AcDbEntity
  8
0
100
AcDbLine
 62
7
  6
CONTINUOUS
 10
-20.0891107013
 20
5.135
 11
-20.0891107013
 21
7.385
  0
LINE
  5
4A6
100
AcDbEntity
  8
DRAFT
100
AcDbLine
 62
7
  6
CONTINUOUS
 10
-20.0891107013
 20
5.135
 11
-20.0891107013
 21
7.385
  0
LINE
  5
4A7
100
AcDbEntity
  8
0
100
AcDbLine
 62
7
  6
CONTINUOUS
 10
-20.0891107013
 20
44.2424425998
 11
-20.0891107013
 21
46.835
  0
LINE
  5
4A8
100
AcDbEntity
  8
DRAFT
100
AcDbLine
 62
7
  6
CONTINUOUS
 10
-20.0891107013
 20
44.2424425998
 11
-20.0891107013
 21
46.835
  0
LINE
  5
4A9
100
AcDbEntity
  8
0
100
AcDbLine
 62
7
  6
CONTINUOUS
 10
-20.0716556363
 20
45.6483443637
 11
-20.0716556363
 21
44.2511694676
  0
LINE
  5
4AA
100
AcDbEntity
  8
DRAFT
100
AcDbLine
 62
7
  6
CONTINUOUS
 10
-20.0716556363
 20
45.6483443637
 11
-20.0716556363
 21
44.2511694676
  0
LINE
  5
4AB
100
AcDbEntity
  8
0
100
AcDbLine
 62
7
  6
CONTINUOUS
 10
-20.0716556363
 20
6.3216556363
 11
-20.0716556363
 21
7.385
  0
LINE
  5
4AC
100
AcDbEntity
  8
DRAFT
100
AcDbLine
 62
7
  6
CONTINUOUS
 10
-20.0716556363
 20
6.3216556363
 11
-20.0716556363
 21
7.385
  0
LINE
  5
4AD
100
AcDbEntity
  8
ASSI
100
AcDbLine
 62
253
  6
CONTINUOUS
 10
-20.0488721346
 20
1.6204761583
 11
-20.0489945176
 21
1.7481293807
  0
LINE
  5
4AE
100
AcDbEntity
  8
0
100
AcDbLine
 62
7
  6
CONTINUOUS
 10
-20.035
 20
5.135
 11
-20.035
 21
6.285
  0
LINE
  5
4AF
100
AcDbEntity
  8
DRAFT
100
AcDbLine
 62
7
  6
CONTINUOUS
 10
-20.035
 20
5.135
 11
-20.035
 21
6.285
  0
LINE
  5
4B0
100
AcDbEntity
  8
0
100
AcDbLine
 62
7
  6
CONTINUOUS
 10
-20.035
 20
45.685
 11
-20.035
 21
46.835
  0
LINE
  5
4B1
100
AcDbEntity
  8
DRAFT
100
AcDbLine
 62
7
  6
CONTINUOUS
 10
-20.035
 20
45.685
 11
-20.035
 21
46.835
  0
LINE
  5
4B2
100
AcDbEntity
  8
0
100
AcDbLine
 62
7
  6
CONTINUOUS
 10
-19.935
 20
6.285
 11
-19.935
 21
5.085
  0
LINE
  5
4B3
100
AcDbEntity
  8
0
100
AcDbLine
 62
7
  6
CONTINUOUS
 10
-19.935
 20
45.685
 11
-19.935
 21
46.885
  0
LINE
  5
4B4
100
AcDbEntity
  8
ASSI
100
AcDbLine
 62
7
  6
CONTINUOUS
 10
-19.8477313221
 20
46.9722686779
 11
-19.8477313221
 21
45.7722686779
  0
LINE
  5
4B5
100
AcDbEntity
  8
ASSI
100
AcDbLine
 62
7
  6
CONTINUOUS
 10
-19.8477313221
 20
6.1977313221
 11
-19.8477313221
 21
4.9977313221
  0
LINE
  5
4B6
100
AcDbEntity
  8
ASSI
100
AcDbLine
 62
7
  6
CONTINUOUS
 10
-19.835
 20
50.285030461
 11
-19.835
 21
48.385
  0
LINE
  5
4B7
100
AcDbEntity
  8
ASSI
100
AcDbLine
 62
7
  6
CONTINUOUS
 10
-19.835
 20
3.585
 11
-19.835
 21
1.684969539
  0
LINE
  5
4B8
100
AcDbEntity
  8
ASSI
100
AcDbLine
 62
253
  6
CONTINUOUS
 10
-20.048890723
 20
49.7111586005
 11
-20.0489937389
 21
50.23407783
  0
LINE
  5
4B9
100
AcDbEntity
  8
ASSI
100
AcDbLine
 62
253
  6
CONTINUOUS
 10
-19.8490182634
 20
49.8231569973
 11
-19.8490242063
 21
50.2243257202
  0
LINE
  5
4BA
100
AcDbEntity
  8
ASSI
100
AcDbLine
 62
253
  6
CONTINUOUS
 10
-19.8490110966
 20
1.7392480435
 11
-19.8490241866
 21
2.1431630643
  0
LINE
  5
4BB
100
AcDbEntity
  8
ASSI
100
AcDbLine
 62
253
  6
CONTINUOUS
 10
-20.0489945176
 20
1.7481293807
 11
-20.0488635373
 21
2.2723613001
  0
LINE
  5
4BC
100
AcDbEntity
  8
ASSI
100
AcDbLine
 62
253
  6
CONTINUOUS
 10
-20.0489937389
 20
50.23407783
 11
-20.048810977
 21
50.3752327865
  0
LINE
  5
4BD
100
AcDbEntity
  8
ASSI
100
AcDbLine
 62
253
  6
CONTINUOUS
 10
-19.8490242063
 20
50.2243257202
 11
-19.8489825721
 21
50.2372664869
  0
LINE
  5
4BE
100
AcDbEntity
  8
ASSI
100
AcDbLine
 62
253
  6
CONTINUOUS
 10
-19.8490241866
 20
2.1431630643
 11
-19.8489808437
 21
2.1563609248
  0
LINE
  5
4BF
100
AcDbEntity
  8
ASSI
100
AcDbLine
 62
253
  6
CONTINUOUS
 10
-20.0488635373
 20
2.2723613001
 11
-20.0485581409
 21
2.3571687836
  0
LINE
  5
4C0
100
AcDbEntity
  8
ASSI
100
AcDbLine
 62
253
  6
CONTINUOUS
 10
-20.048810977
 20
50.3752327865
 11
-20.0484888975
 21
50.4486687924
  0
LINE
  5
4C1
100
AcDbEntity
  8
ASSI
100
AcDbLine
 62
253
  6
CONTINUOUS
 10
-19.8489825721
 20
50.2372664869
 11
-19.8488996734
 21
50.2476756128
  0
LWPOLYLINE
  5
4C2
100
AcDbEntity
  8
ASSI
100
AcDbPolyline
 62
253
  6
CONTINUOUS
 90
3
 70
0
 10
-19.8489808437
 20
2.1563609248
 10
-19.8488940047
 20
2.1669978134
 10
-19.848864709
 20
2.1695364148
  0
LWPOLYLINE
  5
4C3
100
AcDbEntity
  8
ASSI
100
AcDbPolyline
 62
253
  6
CONTINUOUS
 90
6
 70
0
 10
-20.0484888975
 20
50.4486687924
 10
-20.0483423917
 20
50.4637506135
 10
-20.048291823
 20
50.4670828606
 10
-20.0482408205
 20
50.469545536
 10
-20.0481892115
 20
50.4711304948
 10
-20.0481369959
 20
50.4718325431
  0
LINE
  5
4C4
100
AcDbEntity
  8
ASSI
100
AcDbLine
 62
253
  6
CONTINUOUS
 10
-19.8488996734
 20
50.2476756128
 11
-19.8488085339
 21
50.2548247944
  0
LINE
  5
4C5
100
AcDbEntity
  8
ASSI
100
AcDbLine
 62
253
  6
CONTINUOUS
 10
-19.8488085339
 20
50.2548247944
 11
-19.8487355415
 21
50.2590621705
  0
LINE
  5
4C6
100
AcDbEntity
  8
ASSI
100
AcDbLine
 62
253
  6
CONTINUOUS
 10
-19.8487355415
 20
50.2590621705
 11
-19.8486542201
 21
50.2627702712
  0
LINE
  5
4C7
100
AcDbEntity
  8
ASSI
100
AcDbLine
 62
7
  6
CONTINUOUS
 10
-21.135
 20
2.8623502692
 11
-21.1481674569
 21
2.4268185294
  0
LWPOLYLINE
  5
4C8
100
AcDbEntity
  8
ASSI
100
AcDbPolyline
 62
253
  6
CONTINUOUS
 90
10
 70
0
 10
-19.8486542201
 20
50.2627702712
 10
-19.8485659337
 20
50.2658948772
 10
-19.848519348
 20
50.267230585
 10
-19.8484716337
 20
50.2684016581
 10
-19.8484227772
 20
50.2694062927
 10
-19.8483727922
 20
50.2702462925
 10
-19.8483222141
 20
50.2709128449
 10
-19.8482712214
 20
50.2714030121
 10
-19.8482196357
 20
50.2717197318
 10
-19.8481674569
 20
50.2718630041
  0
LWPOLYLINE
  5
4C9
100
AcDbEntity
  8
ASSI
100
AcDbPolyline
 62
253
  6
CONTINUOUS
 90
5
 70
0
 10
-23.0218630041
 20
1.4981674569
 10
-23.0218205915
 20
1.4986704538
 10
-23.0217773857
 20
1.4997964915
 10
-23.0217333867
 20
1.501594576
 10
-23.02164246
 20
1.5074151063
  0
LWPOLYLINE
  5
4CA
100
AcDbEntity
  8
ASSI
100
AcDbPolyline
 62
253
  6
CONTINUOUS
 90
13
 70
0
 10
-23.2214113981
 20
2.1839637029
 10
-23.2194930438
 20
2.2064474767
 10
-23.2142234721
 20
2.2285508033
 10
-23.2056918493
 20
2.2498996731
 10
-23.1940425386
 20
2.2701328426
 10
-23.1794726576
 20
2.288907947
 10
-23.1622287429
 20
2.3059072934
 10
-23.1426025781
 20
2.3208432365
 10
-23.1209262569
 20
2.3334630455
 10
-23.0975665635
 20
2.3435531813
 10
-23.0729187666
 20
2.3509429089
 10
-23.0473999306
 20
2.355507187
 10
-23.0214418591
 20
2.3571687836
  0
LINE
  5
4CB
100
AcDbEntity
  8
ASSI
100
AcDbLine
 62
253
  6
CONTINUOUS
 10
-2.0349999354
 20
48.3849999354
 11
-2.0523789125
 21
48.3675449351
  0
LINE
  5
4CC
100
AcDbEntity
  8
SMUSSO
100
AcDbLine
 62
7
  6
CONTINUOUS
 10
-12.885
 20
37.735
 11
-12.385
 21
38.235
  0
LINE
  5
4CD
100
AcDbEntity
  8
ASSI
100
AcDbLine
 62
7
  6
CONTINUOUS
 10
-12.885
 20
37.735
 11
-12.385
 21
38.235
  0
LINE
  5
4CE
100
AcDbEntity
  8
SMUSSO
100
AcDbLine
 62
7
  6
CONTINUOUS
 10
-7.885
 20
42.235
 11
-8.385
 21
41.735
  0
LINE
  5
4CF
100
AcDbEntity
  8
ASSI
100
AcDbLine
 62
7
  6
CONTINUOUS
 10
-7.885
 20
42.235
 11
-8.385
 21
41.735
  0
LINE
  5
4D0
100
AcDbEntity
  8
ASSI
100
AcDbLine
 62
253
  6
CONTINUOUS
 10
-1.535
 20
47.8850761524
 11
-1.5524550649
 21
47.8676210875
  0
LINE
  5
4D1
100
AcDbEntity
  8
CURVE
100
AcDbLine
 62
253
  6
CONTINUOUS
 10
-2.335
 20
36.5135712957
 11
-3.635
 21
36.1421429014
  0
LINE
  5
4D2
100
AcDbEntity
  8
ASSI
100
AcDbLine
 62
253
  6
CONTINUOUS
 10
-1.5524550649
 20
4.1023789125
 11
-1.535
 21
4.0849238476
  0
LINE
  5
4D3
100
AcDbEntity
  8
ASSI
100
AcDbLine
 62
253
  6
CONTINUOUS
 10
-2.0523789125
 20
3.6024550649
 11
-2.035
 21
3.585
  0
LWPOLYLINE
  5
4D4
100
AcDbEntity
  8
RACCORDO
100
AcDbPolyline
 62
7
  6
CONTINUOUS
 90
13
 70
0
 10
-17.085
 20
2.2349619238
 10
-17.0828621698
 20
2.2023342652
 10
-17.0764844493
 20
2.1702652924
 10
-17.0659757228
 20
2.1393033906
 10
-17.0515154214
 20
2.1099778195
 10
-17.0333506875
 20
2.0827905622
 10
-17.0117924653
 20
2.0582075347
 10
-16.9872094378
 20
2.0366493125
 10
-16.9600221805
 20
2.0184845786
 10
-16.9306966094
 20
2.0040242772
 10
-16.8997347076
 20
1.9935155507
 10
-16.8676657348
 20
1.9871378302
 10
-16.8350380762
 20
1.985
  0
LWPOLYLINE
  5
4D5
100
AcDbEntity
  8
ASSI
100
AcDbPolyline
 62
7
  6
CONTINUOUS
 90
13
 70
0
 10
-19.835
 20
50.285030461
 10
-19.8367102642
 20
50.3111325878
 10
-19.8418124405
 20
50.3367877661
 10
-19.8502194218
 20
50.3615572875
 10
-19.8617876629
 20
50.3850177444
 10
-19.87631945
 20
50.4067675502
 10
-19.8935660278
 20
50.4264339722
 10
-19.9132324498
 20
50.44368055
 10
-19.9349822556
 20
50.4582123371
 10
-19.9584427125
 20
50.4697805782
 10
-19.9832122339
 20
50.4781875595
 10
-20.0088674122
 20
50.4832897358
 10
-20.034969539
 20
50.485
  0
LINE
  5
4D6
100
AcDbEntity
  8
ASSI
100
AcDbLine
 62
253
  6
CONTINUOUS
 10
-20.0332849591
 20
49.1076497308
 11
-20.0485581409
 21
49.6128312164
  0
LINE
  5
4D7
100
AcDbEntity
  8
ASSI
100
AcDbLine
 62
253
  6
CONTINUOUS
 10
-19.835
 20
49.3365746082
 11
-19.8486260069
 21
49.7873259074
  0
LINE
  5
4D8
100
AcDbEntity
  8
ASSI
100
AcDbLine
 62
253
  6
CONTINUOUS
 10
-19.8486260069
 20
49.7873259074
 11
-19.8486989788
 21
49.7903653965
  0
LINE
  5
4D9
100
AcDbEntity
  8
ASSI
100
AcDbLine
 62
253
  6
CONTINUOUS
 10
-19.8486989788
 20
49.7903653965
 11
-19.8488038416
 21
49.7960753015
  0
LINE
  5
4DA
100
AcDbEntity
  8
ASSI
100
AcDbLine
 62
253
  6
CONTINUOUS
 10
-19.8488038416
 20
49.7960753015
 11
-19.8488667735
 21
49.8006292973
  0
LINE
  5
4DB
100
AcDbEntity
  8
ASSI
100
AcDbLine
 62
7
  6
CONTINUOUS
 10
-19.2222686779
 20
4.9104493507
 11
-19.2222686779
 21
6.1977313221
  0
LINE
  5
4DC
100
AcDbEntity
  8
ASSI
100
AcDbLine
 62
7
  6
CONTINUOUS
 10
-19.2222686779
 20
45.7722686779
 11
-19.2222686779
 21
47.0595506493
  0
LINE
  5
4DD
100
AcDbEntity
  8
0
100
AcDbLine
 62
7
  6
CONTINUOUS
 10
-19.135
 20
6.285
 11
-19.135
 21
5.085
  0
LINE
  5
4DE
100
AcDbEntity
  8
0
100
AcDbLine
 62
7
  6
CONTINUOUS
 10
-19.135
 20
45.685
 11
-19.135
 21
46.885
  0
LINE
  5
4DF
100
AcDbEntity
  8
CURVE
100
AcDbLine
 62
7
  6
CONTINUOUS
 10
-18.51
 20
35.367444
 11
-18.51
 21
36.827944
  0
LINE
  5
4E0
100
AcDbEntity
  8
ASSI
100
AcDbLine
 62
253
  6
CONTINUOUS
 10
-18.335
 20
7.385
 11
-18.335
 21
7.7719096983
  0
LINE
  5
4E1
100
AcDbEntity
  8
0
100
AcDbLine
 62
7
  6
CONTINUOUS
 10
-17.935
 20
5.985
 11
-17.935
 21
5.085
  0
LINE
  5
4E2
100
AcDbEntity
  8
0
100
AcDbLine
 62
7
  6
CONTINUOUS
 10
-17.935
 20
45.985
 11
-17.935
 21
46.885
  0
LINE
  5
4E3
100
AcDbEntity
  8
ASSI
100
AcDbLine
 62
253
  6
CONTINUOUS
 10
-19.848864709
 20
2.1695364148
 11
-19.8487602181
 21
2.1765295183
  0
LINE
  5
4E4
100
AcDbEntity
  8
ASSI
100
AcDbLine
 62
253
  6
CONTINUOUS
 10
-19.8487602181
 20
2.1765295183
 11
-19.8486786737
 21
2.1805402202
  0
LINE
  5
4E5
100
AcDbEntity
  8
ASSI
100
AcDbLine
 62
253
  6
CONTINUOUS
 10
-19.8486786737
 20
2.1805402202
 11
-19.8485886019
 21
2.1839637029
  0
LINE
  5
4E6
100
AcDbEntity
  8
ASSI
100
AcDbLine
 62
253
  6
CONTINUOUS
 10
-20.0485581409
 20
2.3571687836
 11
-20.0332849591
 21
2.8623502692
  0
LINE
  5
4E7
100
AcDbEntity
  8
ASSI
100
AcDbLine
 62
253
  6
CONTINUOUS
 10
-19.8485886019
 20
2.1839637029
 11
-19.835
 21
2.6334253918
  0
LWPOLYLINE
  5
4E8
100
AcDbEntity
  8
RACCORDO
100
AcDbPolyline
 62
7
  6
CONTINUOUS
 90
13
 70
0
 10
-17.085
 20
49.7350380762
 10
-17.0828621698
 20
49.7676657348
 10
-17.0764844493
 20
49.7997347076
 10
-17.0659757228
 20
49.8306966094
 10
-17.0515154214
 20
49.8600221805
 10
-17.0333506875
 20
49.8872094378
 10
-17.0117924653
 20
49.9117924653
 10
-16.9872094378
 20
49.9333506875
 10
-16.9600221805
 20
49.9515154214
 10
-16.9306966094
 20
49.9659757228
 10
-16.8997347076
 20
49.9764844493
 10
-16.8676657348
 20
49.9828621698
 10
-16.8350380762
 20
49.985
  0
LWPOLYLINE
  5
4E9
100
AcDbEntity
  8
ASSI
100
AcDbPolyline
 62
7
  6
CONTINUOUS
 90
13
 70
0
 10
-19.835
 20
1.684969539
 10
-19.8367102642
 20
1.6588674122
 10
-19.8418124405
 20
1.6332122339
 10
-19.8502194218
 20
1.6084427125
 10
-19.8617876629
 20
1.5849822556
 10
-19.87631945
 20
1.5632324498
 10
-19.8935660278
 20
1.5435660278
 10
-19.9132324498
 20
1.52631945
 10
-19.9349822556
 20
1.5117876629
 10
-19.9584427125
 20
1.5002194218
 10
-19.9832122339
 20
1.4918124405
 10
-20.0088674122
 20
1.4867102642
 10
-20.034969539
 20
1.485
  0
LINE
  5
4EA
100
AcDbEntity
  8
CURVE
100
AcDbLine
 62
253
  6
CONTINUOUS
 10
-3.449285706
 20
37.4421429014
 11
-3.263571412
 21
37.535
  0
LINE
  5
4EB
100
AcDbEntity
  8
CURVE
100
AcDbLine
 62
253
  6
CONTINUOUS
 10
-2.5207142746
 20
36.9778570986
 11
-2.7064285493
 21
36.885
  0
LINE
  5
4EC
100
AcDbEntity
  8
ASSI
100
AcDbLine
 62
7
  6
CONTINUOUS
 10
-17.7604493507
 20
4.9104493507
 11
-17.7604493507
 21
5.8977313221
  0
LINE
  5
4ED
100
AcDbEntity
  8
ASSI
100
AcDbLine
 62
7
  6
CONTINUOUS
 10
-17.7604493507
 20
46.0722686779
 11
-17.7604493507
 21
47.0595506493
  0
LINE
  5
4EE
100
AcDbEntity
  8
CURVE
100
AcDbLine
 62
7
  6
CONTINUOUS
 10
-17.76
 20
36.827944
 11
-17.76
 21
35.367444
  0
LINE
  5
4EF
100
AcDbEntity
  8
ASSI
100
AcDbLine
 62
7
  6
CONTINUOUS
 10
-17.335
 20
7.7719096983
 11
-17.335
 21
7.385
  0
LINE
  5
4F0
100
AcDbEntity
  8
RACCORDO
100
AcDbLine
 62
7
  6
CONTINUOUS
 10
-17.085
 20
2.2349619238
 11
-17.085
 21
2.5670550528
  0
LINE
  5
4F1
100
AcDbEntity
  8
ASSI
100
AcDbLine
 62
7
  6
CONTINUOUS
 10
-17.085
 20
3.0029449472
 11
-17.085
 21
3.585
  0
LINE
  5
4F2
100
AcDbEntity
  8
ASSI
100
AcDbLine
 62
7
  6
CONTINUOUS
 10
-17.085
 20
48.385
 11
-17.085
 21
48.9670550528
  0
LINE
  5
4F3
100
AcDbEntity
  8
RACCORDO
100
AcDbLine
 62
7
  6
CONTINUOUS
 10
-17.085
 20
49.4029449472
 11
-17.085
 21
49.7350380762
  0
LINE
  5
4F4
100
AcDbEntity
  8
ASSI
100
AcDbLine
 62
7
  6
CONTINUOUS
 10
-16.9889971429
 20
49.5243800954
 11
-16.9889971429
 21
48.8456199046
  0
LINE
  5
4F5
100
AcDbEntity
  8
ASSI
100
AcDbLine
 62
7
  6
CONTINUOUS
 10
-16.9889971429
 20
3.1243800954
 11
-16.9889971429
 21
2.4456199046
  0
LINE
  5
4F6
100
AcDbEntity
  8
RACCORDO
100
AcDbLine
 62
253
  6
CONTINUOUS
 10
-16.9875812355
 20
2.3323806883
 11
-16.9875812355
 21
3.6824187645
  0
LINE
  5
4F7
100
AcDbEntity
  8
RACCORDO
100
AcDbLine
 62
253
  6
CONTINUOUS
 10
-16.9875812355
 20
48.2875812355
 11
-16.9875812355
 21
49.6376193117
  0
LINE
  5
4F8
100
AcDbEntity
  8
RACCORDO
100
AcDbLine
 62
7
  6
CONTINUOUS
 10
-16.6480903017
 20
45.2981017248
 11
-16.6480903017
 21
44.4980788786
  0
LINE
  5
4F9
100
AcDbEntity
  8
ASSI
100
AcDbLine
 62
7
  6
CONTINUOUS
 10
-16.6480903017
 20
45.2981017248
 11
-16.6480903017
 21
44.4980788786
  0
LINE
  5
4FA
100
AcDbEntity
  8
RACCORDO
100
AcDbLine
 62
7
  6
CONTINUOUS
 10
-16.6480903017
 20
6.6718982752
 11
-16.6480903017
 21
7.7719096983
  0
LINE
  5
4FB
100
AcDbEntity
  8
ASSI
100
AcDbLine
 62
7
  6
CONTINUOUS
 10
-16.6480903017
 20
6.6718982752
 11
-16.6480903017
 21
7.7719096983
  0
LINE
  5
4FC
100
AcDbEntity
  8
RACCORDO
100
AcDbLine
 62
253
  6
CONTINUOUS
 10
-16.385
 20
2.0024550649
 11
-16.385
 21
2.0823650507
  0
LINE
  5
4FD
100
AcDbEntity
  8
RACCORDO
100
AcDbLine
 62
253
  6
CONTINUOUS
 10
-16.385
 20
49.8876349493
 11
-16.385
 21
49.9675449351
  0
LINE
  5
4FE
100
AcDbEntity
  8
RACCORDO
100
AcDbLine
 62
7
  6
CONTINUOUS
 10
-16.135
 20
46.0295070257
 11
-16.135
 21
45.985
  0
LINE
  5
4FF
100
AcDbEntity
  8
RACCORDO
100
AcDbLine
 62
7
  6
CONTINUOUS
 10
-16.135
 20
2.2524931469
 11
-16.135
 21
3.6914758961
  0
LINE
  5
500
100
AcDbEntity
  8
RACCORDO
100
AcDbLine
 62
7
  6
CONTINUOUS
 10
-16.135
 20
5.9404929743
 11
-16.135
 21
5.985
  0
LINE
  5
501
100
AcDbEntity
  8
0
100
AcDbLine
 62
7
  6
CONTINUOUS
 10
-16.135
 20
6.085
 11
-16.135
 21
6.285
  0
LINE
  5
502
100
AcDbEntity
  8
DRAFT
100
AcDbLine
 62
7
  6
CONTINUOUS
 10
-16.135
 20
6.085
 11
-16.135
 21
6.285
  0
LINE
  5
503
100
AcDbEntity
  8
0
100
AcDbLine
 62
7
  6
CONTINUOUS
 10
-16.135
 20
45.685
 11
-16.135
 21
45.885
  0
LINE
  5
504
100
AcDbEntity
  8
DRAFT
100
AcDbLine
 62
7
  6
CONTINUOUS
 10
-16.135
 20
45.685
 11
-16.135
 21
45.885
  0
LINE
  5
505
100
AcDbEntity
  8
RACCORDO
100
AcDbLine
 62
7
  6
CONTINUOUS
 10
-16.135
 20
48.2785241039
 11
-16.135
 21
49.7175068531
  0
LINE
  5
506
100
AcDbEntity
  8
0
100
AcDbLine
 62
7
  6
CONTINUOUS
 10
-16.0983443637
 20
6.1216556363
 11
-16.0983443637
 21
6.3216556363
  0
LINE
  5
507
100
AcDbEntity
  8
DRAFT
100
AcDbLine
 62
7
  6
CONTINUOUS
 10
-16.0983443637
 20
6.1216556363
 11
-16.0983443637
 21
6.3216556363
  0
LINE
  5
508
100
AcDbEntity
  8
0
100
AcDbLine
 62
7
  6
CONTINUOUS
 10
-16.0983443637
 20
45.6483443637
 11
-16.0983443637
 21
45.8483443637
  0
LINE
  5
509
100
AcDbEntity
  8
DRAFT
100
AcDbLine
 62
7
  6
CONTINUOUS
 10
-16.0983443637
 20
45.6483443637
 11
-16.0983443637
 21
45.8483443637
  0
LINE
  5
50A
100
AcDbEntity
  8
0
100
AcDbLine
 62
7
  6
CONTINUOUS
 10
-10.6444276524
 20
44.2166174985
 11
-10.653996516
 21
44.185
  0
LINE
  5
50B
100
AcDbEntity
  8
RACCORDO
100
AcDbLine
 62
7
  6
CONTINUOUS
 10
-10.6444276524
 20
44.2166174985
 11
-10.653996516
 21
44.185
  0
LINE
  5
50C
100
AcDbEntity
  8
0
100
AcDbLine
 62
7
  6
CONTINUOUS
 10
-6.0477313221
 20
47.0595506493
 11
-6.135
 21
46.885
  0
LINE
  5
50D
100
AcDbEntity
  8
SMUSSO
100
AcDbLine
 62
7
  6
CONTINUOUS
 10
-12.885
 20
32.735
 11
-12.385
 21
33.235
  0
LINE
  5
50E
100
AcDbEntity
  8
ASSI
100
AcDbLine
 62
7
  6
CONTINUOUS
 10
-12.885
 20
32.735
 11
-12.385
 21
33.235
  0
LINE
  5
50F
100
AcDbEntity
  8
SMUSSO
100
AcDbLine
 62
7
  6
CONTINUOUS
 10
-7.885
 20
37.235
 11
-8.385
 21
36.735
  0
LINE
  5
510
100
AcDbEntity
  8
ASSI
100
AcDbLine
 62
7
  6
CONTINUOUS
 10
-7.885
 20
37.235
 11
-8.385
 21
36.735
  0
LINE
  5
511
100
AcDbEntity
  8
SMUSSO
100
AcDbLine
 62
7
  6
CONTINUOUS
 10
-7.885
 20
22.485
 11
-12.885
 21
22.485
  0
LINE
  5
512
100
AcDbEntity
  8
ASSI
100
AcDbLine
 62
7
  6
CONTINUOUS
 10
-7.885
 20
22.485
 11
-12.885
 21
22.485
  0
LINE
  5
513
100
AcDbEntity
  8
0
100
AcDbLine
 62
7
  6
CONTINUOUS
 10
-6.0477313221
 20
4.9104493507
 11
-6.135
 21
5.085
  0
LINE
  5
514
100
AcDbEntity
  8
RACCORDO
100
AcDbLine
 62
7
  6
CONTINUOUS
 10
-15.7108204617
 20
48.2642532588
 11
-15.7098759936
 21
48.2101447178
  0
LINE
  5
515
100
AcDbEntity
  8
ASSI
100
AcDbLine
 62
7
  6
CONTINUOUS
 10
-15.685
 20
46.785
 11
-15.7098759936
 21
48.2101447178
  0
LINE
  5
516
100
AcDbEntity
  8
0
100
AcDbLine
 62
253
  6
CONTINUOUS
 10
-14.136008162
 20
5.9328373736
 11
-14.1365242349
 21
6.1005133204
  0
LINE
  5
517
100
AcDbEntity
  8
0
100
AcDbLine
 62
7
  6
CONTINUOUS
 10
-15.135
 20
7.685
 11
-15.135
 21
9.385
  0
LINE
  5
518
100
AcDbEntity
  8
ASSI
100
AcDbLine
 62
7
  6
CONTINUOUS
 10
-15.135
 20
7.685
 11
-15.135
 21
9.385
  0
LINE
  5
519
100
AcDbEntity
  8
0
100
AcDbLine
 62
7
  6
CONTINUOUS
 10
-15.135
 20
42.585
 11
-15.135
 21
44.285
  0
LINE
  5
51A
100
AcDbEntity
  8
ASSI
100
AcDbLine
 62
7
  6
CONTINUOUS
 10
-15.135
 20
42.585
 11
-15.135
 21
44.285
  0
LINE
  5
51B
100
AcDbEntity
  8
0
100
AcDbLine
 62
253
  6
CONTINUOUS
 10
-14.7814466094
 20
44.2175400167
 11
-14.7814466094
 21
44.285
  0
LINE
  5
51C
100
AcDbEntity
  8
RACCORDO
100
AcDbLine
 62
253
  6
CONTINUOUS
 10
-14.7814466094
 20
44.2175400167
 11
-14.7814466094
 21
44.285
  0
LINE
  5
51D
100
AcDbEntity
  8
0
100
AcDbLine
 62
7
  6
CONTINUOUS
 10
-14.735
 20
44.185
 11
-14.735
 21
44.217181202
  0
LINE
  5
51E
100
AcDbEntity
  8
0
100
AcDbLine
 62
7
  6
CONTINUOUS
 10
-14.635
 20
44.185
 11
-14.635
 21
44.2180485889
  0
LINE
  5
51F
100
AcDbEntity
  8
RACCORDO
100
AcDbLine
 62
7
  6
CONTINUOUS
 10
-14.635
 20
44.185
 11
-14.635
 21
44.2180485889
  0
LINE
  5
520
100
AcDbEntity
  8
RACCORDO
100
AcDbLine
 62
7
  6
CONTINUOUS
 10
-14.6175893107
 20
7.685
 11
-14.6175893107
 21
7.785
  0
LINE
  5
521
100
AcDbEntity
  8
ASSI
100
AcDbLine
 62
7
  6
CONTINUOUS
 10
-14.6175893107
 20
7.685
 11
-14.6175893107
 21
7.785
  0
LINE
  5
522
100
AcDbEntity
  8
RACCORDO
100
AcDbLine
 62
7
  6
CONTINUOUS
 10
-14.5390044543
 20
44.185
 11
-14.5390044543
 21
44.285
  0
LINE
  5
523
100
AcDbEntity
  8
ASSI
100
AcDbLine
 62
7
  6
CONTINUOUS
 10
-14.5390044543
 20
44.185
 11
-14.5390044543
 21
44.285
  0
LINE
  5
524
100
AcDbEntity
  8
0
100
AcDbLine
 62
253
  6
CONTINUOUS
 10
-14.335
 20
8.685
 11
-14.335
 21
8.735
  0
LINE
  5
525
100
AcDbEntity
  8
RACCORDO
100
AcDbLine
 62
253
  6
CONTINUOUS
 10
-14.335
 20
8.685
 11
-14.335
 21
8.735
  0
LINE
  5
526
100
AcDbEntity
  8
0
100
AcDbLine
 62
253
  6
CONTINUOUS
 10
-14.335
 20
43.235
 11
-14.335
 21
43.3009679184
  0
LINE
  5
527
100
AcDbEntity
  8
RACCORDO
100
AcDbLine
 62
253
  6
CONTINUOUS
 10
-14.335
 20
43.235
 11
-14.335
 21
43.3009679184
  0
LINE
  5
528
100
AcDbEntity
  8
0
100
AcDbLine
 62
253
  6
CONTINUOUS
 10
-14.1365242349
 20
45.8694866796
 11
-14.136008162
 21
46.0371626264
  0
LINE
  5
529
100
AcDbEntity
  8
RACCORDO
100
AcDbLine
 62
7
  6
CONTINUOUS
 10
-15.7108204617
 20
3.7057467412
 11
-15.7098759936
 21
3.7598552822
  0
LINE
  5
52A
100
AcDbEntity
  8
ASSI
100
AcDbLine
 62
7
  6
CONTINUOUS
 10
-15.7098759936
 20
3.7598552822
 11
-15.685
 21
5.185
  0
LINE
  5
52B
100
AcDbEntity
  8
RACCORDO
100
AcDbLine
 62
7
  6
CONTINUOUS
 10
-16.1371389594
 20
2.2996990693
 11
-16.135
 21
2.3323269746
  0
LWPOLYLINE
  5
52C
100
AcDbEntity
  8
0
100
AcDbPolyline
 62
253
  6
CONTINUOUS
 90
5
 70
0
 10
-10.6394526381
 20
43.488941282
 10
-10.6527535542
 20
43.4440629059
 10
-10.6746148244
 20
43.4017346696
 10
-10.704540065
 20
43.3632135783
 10
-10.7416778093
 20
43.3298141709
  0
LWPOLYLINE
  5
52D
100
AcDbEntity
  8
RACCORDO
100
AcDbPolyline
 62
253
  6
CONTINUOUS
 90
5
 70
0
 10
-10.6394526381
 20
43.488941282
 10
-10.6527535542
 20
43.4440629059
 10
-10.6746148244
 20
43.4017346696
 10
-10.704540065
 20
43.3632135783
 10
-10.7416778093
 20
43.3298141709
  0
LINE
  5
52E
100
AcDbEntity
  8
CURVE
100
AcDbLine
 62
253
  6
CONTINUOUS
 10
-2.5207142746
 20
38.835
 11
-2.335
 21
39.0207142746
  0
LINE
  5
52F
100
AcDbEntity
  8
CURVE
100
AcDbLine
 62
253
  6
CONTINUOUS
 10
-3.0778571373
 20
37.9064285493
 11
-2.8921428239
 21
38.0921429014
  0
LINE
  5
530
100
AcDbEntity
  8
CURVE
100
AcDbLine
 62
253
  6
CONTINUOUS
 10
-3.635
 20
37.2564285493
 11
-3.449285706
 21
37.4421429014
  0
LINE
  5
531
100
AcDbEntity
  8
CURVE
100
AcDbLine
 62
253
  6
CONTINUOUS
 10
-2.5207142746
 20
37.9373809671
 11
-2.335
 21
38.0921429014
  0
LINE
  5
532
100
AcDbEntity
  8
RACCORDO
100
AcDbLine
 62
7
  6
CONTINUOUS
 10
-23.3480788782
 20
22.835
 11
-22.435
 21
22.835
  0
LINE
  5
533
100
AcDbEntity
  8
ASSI
100
AcDbLine
 62
7
  6
CONTINUOUS
 10
-23.3480788782
 20
22.835
 11
-22.435
 21
22.835
  0
LINE
  5
534
100
AcDbEntity
  8
SMUSSO
100
AcDbLine
 62
7
  6
CONTINUOUS
 10
-8.385
 20
22.985
 11
-12.385
 21
22.985
  0
LINE
  5
535
100
AcDbEntity
  8
ASSI
100
AcDbLine
 62
7
  6
CONTINUOUS
 10
-8.385
 20
22.985
 11
-12.385
 21
22.985
  0
LINE
  5
536
100
AcDbEntity
  8
0
100
AcDbLine
 62
7
  6
CONTINUOUS
 10
-12.035
 20
23.485
 11
-9.095
 21
23.485
  0
LINE
  5
537
100
AcDbEntity
  8
0
100
AcDbLine
 62
253
  6
CONTINUOUS
 10
-10.6530922138
 20
8.5267736348
 11
-10.6395576741
 21
8.4815946955
  0
LINE
  5
538
100
AcDbEntity
  8
RACCORDO
100
AcDbLine
 62
253
  6
CONTINUOUS
 10
-10.6530922138
 20
8.5267736348
 11
-10.6395576741
 21
8.4815946955
  0
LWPOLYLINE
  5
539
100
AcDbEntity
  8
RACCORDO
100
AcDbPolyline
 62
7
  6
CONTINUOUS
 90
13
 70
0
 10
-11.835
 20
2.2349619238
 10
-11.8328621698
 20
2.2023342652
 10
-11.8264844493
 20
2.1702652924
 10
-11.8159757228
 20
2.1393033906
 10
-11.8015154214
 20
2.1099778195
 10
-11.7833506875
 20
2.0827905622
 10
-11.7617924653
 20
2.0582075347
 10
-11.7372094378
 20
2.0366493125
 10
-11.7100221805
 20
2.0184845786
 10
-11.6806966094
 20
2.0040242772
 10
-11.6497347076
 20
1.9935155507
 10
-11.6176657348
 20
1.9871378302
 10
-11.5850380762
 20
1.985
  0
LINE
  5
53A
100
AcDbEntity
  8
RACCORDO
100
AcDbLine
 62
7
  6
CONTINUOUS
 10
-13.4524550649
 20
49.7175830113
 11
-13.4524550649
 21
48.383254669
  0
LINE
  5
53B
100
AcDbEntity
  8
RACCORDO
100
AcDbLine
 62
7
  6
CONTINUOUS
 10
-13.4524550649
 20
3.586745331
 11
-13.4524550649
 21
2.2524169887
  0
LINE
  5
53C
100
AcDbEntity
  8
RACCORDO
100
AcDbLine
 62
7
  6
CONTINUOUS
 10
-13.435
 20
49.7350380762
 11
-13.435
 21
48.385
  0
LINE
  5
53D
100
AcDbEntity
  8
RACCORDO
100
AcDbLine
 62
7
  6
CONTINUOUS
 10
-13.435
 20
3.585
 11
-13.435
 21
2.2349619238
  0
LINE
  5
53E
100
AcDbEntity
  8
SMUSSO
100
AcDbLine
 62
7
  6
CONTINUOUS
 10
-12.885
 20
22.485
 11
-12.885
 21
27.485
  0
LINE
  5
53F
100
AcDbEntity
  8
ASSI
100
AcDbLine
 62
7
  6
CONTINUOUS
 10
-12.885
 20
22.485
 11
-12.885
 21
27.485
  0
LINE
  5
540
100
AcDbEntity
  8
SMUSSO
100
AcDbLine
 62
7
  6
CONTINUOUS
 10
-12.885
 20
27.735
 11
-12.885
 21
32.235
  0
LINE
  5
541
100
AcDbEntity
  8
ASSI
100
AcDbLine
 62
7
  6
CONTINUOUS
 10
-12.885
 20
27.735
 11
-12.885
 21
32.235
  0
LINE
  5
542
100
AcDbEntity
  8
SMUSSO
100
AcDbLine
 62
7
  6
CONTINUOUS
 10
-12.885
 20
32.735
 11
-12.885
 21
37.235
  0
LINE
  5
543
100
AcDbEntity
  8
ASSI
100
AcDbLine
 62
7
  6
CONTINUOUS
 10
-12.885
 20
32.735
 11
-12.885
 21
37.235
  0
LINE
  5
544
100
AcDbEntity
  8
SMUSSO
100
AcDbLine
 62
7
  6
CONTINUOUS
 10
-12.885
 20
37.735
 11
-12.885
 21
42.235
  0
LINE
  5
545
100
AcDbEntity
  8
ASSI
100
AcDbLine
 62
7
  6
CONTINUOUS
 10
-12.885
 20
37.735
 11
-12.885
 21
42.235
  0
LWPOLYLINE
  5
546
100
AcDbEntity
  8
RACCORDO
100
AcDbPolyline
 62
7
  6
CONTINUOUS
 90
13
 70
0
 10
-11.835
 20
49.7350380762
 10
-11.8328621698
 20
49.7676657348
 10
-11.8264844493
 20
49.7997347076
 10
-11.8159757228
 20
49.8306966094
 10
-11.8015154214
 20
49.8600221805
 10
-11.7833506875
 20
49.8872094378
 10
-11.7617924653
 20
49.9117924653
 10
-11.7372094378
 20
49.9333506875
 10
-11.7100221805
 20
49.9515154214
 10
-11.6806966094
 20
49.9659757228
 10
-11.6497347076
 20
49.9764844493
 10
-11.6176657348
 20
49.9828621698
 10
-11.5850380762
 20
49.985
  0
LWPOLYLINE
  5
547
100
AcDbEntity
  8
ASSI
100
AcDbPolyline
 62
253
  6
CONTINUOUS
 90
11
 70
0
 10
-2.0481674569
 20
50.2718630041
 10
-2.0482126196
 20
50.271763612
 10
-2.0482582235
 20
50.2715112551
 10
-2.0483042684
 20
50.2711059333
 10
-2.0483510284
 20
50.270550867
 10
-2.0483982295
 20
50.2698428358
 10
-2.0484450499
 20
50.2689721786
 10
-2.0484914914
 20
50.2679332307
 10
-2.0485375523
 20
50.2667316568
 10
-2.0485824047
 20
50.2653747892
 10
-2.0486683906
 20
50.2621858535
  0
LINE
  5
548
100
AcDbEntity
  8
SMUSSO
100
AcDbLine
 62
7
  6
CONTINUOUS
 10
-12.885
 20
27.735
 11
-12.385
 21
28.235
  0
LINE
  5
549
100
AcDbEntity
  8
ASSI
100
AcDbLine
 62
7
  6
CONTINUOUS
 10
-12.885
 20
27.735
 11
-12.385
 21
28.235
  0
LINE
  5
54A
100
AcDbEntity
  8
SMUSSO
100
AcDbLine
 62
7
  6
CONTINUOUS
 10
-7.885
 20
32.235
 11
-8.385
 21
31.735
  0
LINE
  5
54B
100
AcDbEntity
  8
ASSI
100
AcDbLine
 62
7
  6
CONTINUOUS
 10
-7.885
 20
32.235
 11
-8.385
 21
31.735
  0
LINE
  5
54C
100
AcDbEntity
  8
CURVE
100
AcDbLine
 62
253
  6
CONTINUOUS
 10
-4.735
 20
34.8064285553
 11
-5.0064285553
 21
34.535
  0
LINE
  5
54D
100
AcDbEntity
  8
CURVE
100
AcDbLine
 62
253
  6
CONTINUOUS
 10
-2.335
 20
37.1635714507
 11
-2.5207142746
 21
36.9778570986
  0
LINE
  5
54E
100
AcDbEntity
  8
CURVE
100
AcDbLine
 62
253
  6
CONTINUOUS
 10
-3.449285706
 20
31.3445238686
 11
-3.263571412
 21
31.4373806572
  0
LINE
  5
54F
100
AcDbEntity
  8
CURVE
100
AcDbLine
 62
253
  6
CONTINUOUS
 10
-4.735
 20
30.585
 11
-6.635
 21
29.635
  0
LINE
  5
550
100
AcDbEntity
  8
CURVE
100
AcDbLine
 62
253
  6
CONTINUOUS
 10
-2.5207142746
 20
30.8802380657
 11
-2.7064285493
 21
30.7873806572
  0
LINE
  5
551
100
AcDbEntity
  8
CURVE
100
AcDbLine
 62
253
  6
CONTINUOUS
 10
-6.3635714164
 20
24.535
 11
-6.0921428329
 21
24.535
  0
LINE
  5
552
100
AcDbEntity
  8
CURVE
100
AcDbLine
 62
253
  6
CONTINUOUS
 10
-5.2778571105
 20
25.485
 11
-5.0064285553
 21
25.485
  0
LINE
  5
553
100
AcDbEntity
  8
CURVE
100
AcDbLine
 62
253
  6
CONTINUOUS
 10
-2.635
 20
25.7975
 11
-2.6975
 21
25.7975
  0
LINE
  5
554
100
AcDbEntity
  8
CURVE
100
AcDbLine
 62
253
  6
CONTINUOUS
 10
-3.51
 20
25.985
 11
-3.6975
 21
25.985
  0
LWPOLYLINE
  5
555
100
AcDbEntity
  8
RACCORDO
100
AcDbPolyline
 62
7
  6
CONTINUOUS
 90
13
 70
0
 10
-13.435
 20
49.7350380762
 10
-13.4371378302
 20
49.7676657348
 10
-13.4435155507
 20
49.7997347076
 10
-13.4540242772
 20
49.8306966094
 10
-13.4684845786
 20
49.8600221805
 10
-13.4866493125
 20
49.8872094378
 10
-13.5082075347
 20
49.9117924653
 10
-13.5327905622
 20
49.9333506875
 10
-13.5599778195
 20
49.9515154214
 10
-13.5893033906
 20
49.9659757228
 10
-13.6202652924
 20
49.9764844493
 10
-13.6523342652
 20
49.9828621698
 10
-13.6849619238
 20
49.985
  0
LINE
  5
556
100
AcDbEntity
  8
0
100
AcDbLine
 62
253
  6
CONTINUOUS
 10
-11.133991838
 20
46.0371626264
 11
-11.1334757651
 21
45.8694866796
  0
LINE
  5
557
100
AcDbEntity
  8
SMUSSO
100
AcDbLine
 62
7
  6
CONTINUOUS
 10
-12.385
 20
22.985
 11
-12.385
 21
26.985
  0
LINE
  5
558
100
AcDbEntity
  8
ASSI
100
AcDbLine
 62
7
  6
CONTINUOUS
 10
-12.385
 20
22.985
 11
-12.385
 21
26.985
  0
LINE
  5
559
100
AcDbEntity
  8
SMUSSO
100
AcDbLine
 62
7
  6
CONTINUOUS
 10
-12.385
 20
28.235
 11
-12.385
 21
31.735
  0
LINE
  5
55A
100
AcDbEntity
  8
ASSI
100
AcDbLine
 62
7
  6
CONTINUOUS
 10
-12.385
 20
28.235
 11
-12.385
 21
31.735
  0
LINE
  5
55B
100
AcDbEntity
  8
SMUSSO
100
AcDbLine
 62
7
  6
CONTINUOUS
 10
-12.385
 20
33.235
 11
-12.385
 21
36.735
  0
LINE
  5
55C
100
AcDbEntity
  8
ASSI
100
AcDbLine
 62
7
  6
CONTINUOUS
 10
-12.385
 20
33.235
 11
-12.385
 21
36.735
  0
LINE
  5
55D
100
AcDbEntity
  8
SMUSSO
100
AcDbLine
 62
7
  6
CONTINUOUS
 10
-12.385
 20
38.235
 11
-12.385
 21
41.735
  0
LINE
  5
55E
100
AcDbEntity
  8
ASSI
100
AcDbLine
 62
7
  6
CONTINUOUS
 10
-12.385
 20
38.235
 11
-12.385
 21
41.735
  0
LINE
  5
55F
100
AcDbEntity
  8
0
100
AcDbLine
 62
7
  6
CONTINUOUS
 10
-12.035
 20
41.485
 11
-12.035
 21
38.485
  0
LINE
  5
560
100
AcDbEntity
  8
0
100
AcDbLine
 62
7
  6
CONTINUOUS
 10
-12.035
 20
36.485
 11
-12.035
 21
33.485
  0
LINE
  5
561
100
AcDbEntity
  8
0
100
AcDbLine
 62
7
  6
CONTINUOUS
 10
-12.035
 20
31.485
 11
-12.035
 21
28.485
  0
LINE
  5
562
100
AcDbEntity
  8
0
100
AcDbLine
 62
7
  6
CONTINUOUS
 10
-12.035
 20
26.485
 11
-12.035
 21
23.485
  0
LINE
  5
563
100
AcDbEntity
  8
RACCORDO
100
AcDbLine
 62
7
  6
CONTINUOUS
 10
-11.835
 20
49.7350380762
 11
-11.835
 21
48.385
  0
LINE
  5
564
100
AcDbEntity
  8
RACCORDO
100
AcDbLine
 62
7
  6
CONTINUOUS
 10
-11.835
 20
3.585
 11
-11.835
 21
2.2349619238
  0
LINE
  5
565
100
AcDbEntity
  8
RACCORDO
100
AcDbLine
 62
7
  6
CONTINUOUS
 10
-11.8175449351
 20
49.7175830113
 11
-11.8175449351
 21
48.383254669
  0
LINE
  5
566
100
AcDbEntity
  8
RACCORDO
100
AcDbLine
 62
7
  6
CONTINUOUS
 10
-11.8175449351
 20
3.586745331
 11
-11.8175449351
 21
2.2524169887
  0
LINE
  5
567
100
AcDbEntity
  8
0
100
AcDbLine
 62
253
  6
CONTINUOUS
 10
-10.935
 20
43.3009679184
 11
-10.935
 21
43.235
  0
LINE
  5
568
100
AcDbEntity
  8
RACCORDO
100
AcDbLine
 62
253
  6
CONTINUOUS
 10
-10.935
 20
43.3009679184
 11
-10.935
 21
43.235
  0
LINE
  5
569
100
AcDbEntity
  8
0
100
AcDbLine
 62
253
  6
CONTINUOUS
 10
-10.935
 20
8.685
 11
-10.935
 21
8.735
  0
LINE
  5
56A
100
AcDbEntity
  8
RACCORDO
100
AcDbLine
 62
253
  6
CONTINUOUS
 10
-10.935
 20
8.685
 11
-10.935
 21
8.735
  0
LINE
  5
56B
100
AcDbEntity
  8
RACCORDO
100
AcDbLine
 62
7
  6
CONTINUOUS
 10
-10.7309955457
 20
44.185
 11
-10.7309955457
 21
44.285
  0
LINE
  5
56C
100
AcDbEntity
  8
ASSI
100
AcDbLine
 62
7
  6
CONTINUOUS
 10
-10.7309955457
 20
44.185
 11
-10.7309955457
 21
44.285
  0
LINE
  5
56D
100
AcDbEntity
  8
RACCORDO
100
AcDbLine
 62
7
  6
CONTINUOUS
 10
-10.6524106893
 20
7.685
 11
-10.6524106893
 21
7.785
  0
LINE
  5
56E
100
AcDbEntity
  8
ASSI
100
AcDbLine
 62
7
  6
CONTINUOUS
 10
-10.6524106893
 20
7.685
 11
-10.6524106893
 21
7.785
  0
LINE
  5
56F
100
AcDbEntity
  8
0
100
AcDbLine
 62
7
  6
CONTINUOUS
 10
-10.635
 20
44.2180485889
 11
-10.635
 21
44.185
  0
LINE
  5
570
100
AcDbEntity
  8
RACCORDO
100
AcDbLine
 62
7
  6
CONTINUOUS
 10
-10.635
 20
44.2180485889
 11
-10.635
 21
44.185
  0
LINE
  5
571
100
AcDbEntity
  8
0
100
AcDbLine
 62
253
  6
CONTINUOUS
 10
-11.1334757651
 20
6.1005133204
 11
-11.133991838
 21
5.9328373736
  0
LWPOLYLINE
  5
572
100
AcDbEntity
  8
RACCORDO
100
AcDbPolyline
 62
7
  6
CONTINUOUS
 90
13
 70
0
 10
-13.435
 20
2.2349619238
 10
-13.4371378302
 20
2.2023342652
 10
-13.4435155507
 20
2.1702652924
 10
-13.4540242772
 20
2.1393033906
 10
-13.4684845786
 20
2.1099778195
 10
-13.4866493125
 20
2.0827905622
 10
-13.5082075347
 20
2.0582075347
 10
-13.5327905622
 20
2.0366493125
 10
-13.5599778195
 20
2.0184845786
 10
-13.5893033906
 20
2.0040242772
 10
-13.6202652924
 20
1.9935155507
 10
-13.6523342652
 20
1.9871378302
 10
-13.6849619238
 20
1.985
  0
LINE
  5
573
100
AcDbEntity
  8
RACCORDO
100
AcDbLine
 62
253
  6
CONTINUOUS
 10
-9.1328609008
 20
49.6703019923
 11
-9.135
 21
49.6376730255
  0
LWPOLYLINE
  5
574
100
AcDbEntity
  8
ASSI
100
AcDbPolyline
 62
253
  6
CONTINUOUS
 90
12
 70
0
 10
-23.2218325431
 20
1.6981369959
 10
-23.2217901471
 20
1.6982216259
 10
-23.2217469542
 20
1.6984501341
 10
-23.2217029642
 20
1.6988225205
 10
-23.2216579018
 20
1.6993328392
 10
-23.2216120425
 20
1.6999870362
 10
-23.2215662124
 20
1.7008029494
 10
-23.2215203935
 20
1.7017862082
 10
-23.2214746038
 20
1.7029311832
 10
-23.2214297241
 20
1.7042388244
 10
-23.2213857717
 20
1.705715153
 10
-23.2213014246
 20
1.7091386951
  0
LINE
  5
575
100
AcDbEntity
  8
0
100
AcDbLine
 62
7
  6
CONTINUOUS
 10
-9.095
 20
26.485
 11
-12.035
 21
26.485
  0
LINE
  5
576
100
AcDbEntity
  8
SMUSSO
100
AcDbLine
 62
7
  6
CONTINUOUS
 10
-12.385
 20
26.985
 11
-8.385
 21
26.985
  0
LINE
  5
577
100
AcDbEntity
  8
ASSI
100
AcDbLine
 62
7
  6
CONTINUOUS
 10
-12.385
 20
26.985
 11
-8.385
 21
26.985
  0
LINE
  5
578
100
AcDbEntity
  8
RACCORDO
100
AcDbLine
 62
7
  6
CONTINUOUS
 10
-23.3480788782
 20
27.135
 11
-22.435
 21
27.135
  0
LINE
  5
579
100
AcDbEntity
  8
ASSI
100
AcDbLine
 62
7
  6
CONTINUOUS
 10
-23.3480788782
 20
27.135
 11
-22.435
 21
27.135
  0
LINE
  5
57A
100
AcDbEntity
  8
SMUSSO
100
AcDbLine
 62
7
  6
CONTINUOUS
 10
-12.885
 20
27.485
 11
-7.885
 21
27.485
  0
LINE
  5
57B
100
AcDbEntity
  8
ASSI
100
AcDbLine
 62
7
  6
CONTINUOUS
 10
-12.885
 20
27.485
 11
-7.885
 21
27.485
  0
LINE
  5
57C
100
AcDbEntity
  8
SMUSSO
100
AcDbLine
 62
7
  6
CONTINUOUS
 10
-7.885
 20
27.735
 11
-12.885
 21
27.735
  0
LINE
  5
57D
100
AcDbEntity
  8
ASSI
100
AcDbLine
 62
7
  6
CONTINUOUS
 10
-7.885
 20
27.735
 11
-12.885
 21
27.735
  0
LINE
  5
57E
100
AcDbEntity
  8
RACCORDO
100
AcDbLine
 62
7
  6
CONTINUOUS
 10
-23.3480788782
 20
27.835
 11
-22.435
 21
27.835
  0
LINE
  5
57F
100
AcDbEntity
  8
ASSI
100
AcDbLine
 62
7
  6
CONTINUOUS
 10
-23.3480788782
 20
27.835
 11
-22.435
 21
27.835
  0
LINE
  5
580
100
AcDbEntity
  8
SMUSSO
100
AcDbLine
 62
7
  6
CONTINUOUS
 10
-12.885
 20
27.485
 11
-12.385
 21
26.985
  0
LINE
  5
581
100
AcDbEntity
  8
ASSI
100
AcDbLine
 62
7
  6
CONTINUOUS
 10
-12.885
 20
27.485
 11
-12.385
 21
26.985
  0
LINE
  5
582
100
AcDbEntity
  8
SMUSSO
100
AcDbLine
 62
7
  6
CONTINUOUS
 10
-7.885
 20
22.485
 11
-8.385
 21
22.985
  0
LINE
  5
583
100
AcDbEntity
  8
ASSI
100
AcDbLine
 62
7
  6
CONTINUOUS
 10
-7.885
 20
22.485
 11
-8.385
 21
22.985
  0
LINE
  5
584
100
AcDbEntity
  8
RACCORDO
100
AcDbLine
 62
7
  6
CONTINUOUS
 10
-9.5601240064
 20
3.7598552822
 11
-9.5591795383
 21
3.7057467412
  0
LINE
  5
585
100
AcDbEntity
  8
ASSI
100
AcDbLine
 62
7
  6
CONTINUOUS
 10
-9.5601240064
 20
3.7598552822
 11
-9.585
 21
5.185
  0
LINE
  5
586
100
AcDbEntity
  8
0
100
AcDbLine
 62
7
  6
CONTINUOUS
 10
-10.535
 20
44.185
 11
-10.535
 21
44.217181202
  0
LINE
  5
587
100
AcDbEntity
  8
0
100
AcDbLine
 62
253
  6
CONTINUOUS
 10
-10.4885533906
 20
44.285
 11
-10.4885533906
 21
44.2175400167
  0
LINE
  5
588
100
AcDbEntity
  8
RACCORDO
100
AcDbLine
 62
253
  6
CONTINUOUS
 10
-10.4885533906
 20
44.285
 11
-10.4885533906
 21
44.2175400167
  0
LINE
  5
589
100
AcDbEntity
  8
0
100
AcDbLine
 62
7
  6
CONTINUOUS
 10
-10.135
 20
44.285
 11
-10.135
 21
42.585
  0
LINE
  5
58A
100
AcDbEntity
  8
ASSI
100
AcDbLine
 62
7
  6
CONTINUOUS
 10
-10.135
 20
44.285
 11
-10.135
 21
42.585
  0
LINE
  5
58B
100
AcDbEntity
  8
0
100
AcDbLine
 62
7
  6
CONTINUOUS
 10
-10.135
 20
9.385
 11
-10.135
 21
7.685
  0
LINE
  5
58C
100
AcDbEntity
  8
ASSI
100
AcDbLine
 62
7
  6
CONTINUOUS
 10
-10.135
 20
9.385
 11
-10.135
 21
7.685
  0
LINE
  5
58D
100
AcDbEntity
  8
0
100
AcDbLine
 62
7
  6
CONTINUOUS
 10
-9.1716556363
 20
6.1216556363
 11
-9.1716556363
 21
6.3216556363
  0
LINE
  5
58E
100
AcDbEntity
  8
DRAFT
100
AcDbLine
 62
7
  6
CONTINUOUS
 10
-9.1716556363
 20
6.1216556363
 11
-9.1716556363
 21
6.3216556363
  0
LINE
  5
58F
100
AcDbEntity
  8
0
100
AcDbLine
 62
7
  6
CONTINUOUS
 10
-9.1716556363
 20
45.6483443637
 11
-9.1716556363
 21
45.8483443637
  0
LINE
  5
590
100
AcDbEntity
  8
DRAFT
100
AcDbLine
 62
7
  6
CONTINUOUS
 10
-9.1716556363
 20
45.6483443637
 11
-9.1716556363
 21
45.8483443637
  0
LINE
  5
591
100
AcDbEntity
  8
RACCORDO
100
AcDbLine
 62
7
  6
CONTINUOUS
 10
-9.135
 20
46.0295070257
 11
-9.135
 21
45.985
  0
LINE
  5
592
100
AcDbEntity
  8
RACCORDO
100
AcDbLine
 62
7
  6
CONTINUOUS
 10
-9.135
 20
2.2524931469
 11
-9.135
 21
3.6914758961
  0
LINE
  5
593
100
AcDbEntity
  8
RACCORDO
100
AcDbLine
 62
7
  6
CONTINUOUS
 10
-9.135
 20
5.9404929743
 11
-9.135
 21
5.985
  0
LINE
  5
594
100
AcDbEntity
  8
0
100
AcDbLine
 62
7
  6
CONTINUOUS
 10
-9.135
 20
6.085
 11
-9.135
 21
6.285
  0
LINE
  5
595
100
AcDbEntity
  8
DRAFT
100
AcDbLine
 62
7
  6
CONTINUOUS
 10
-9.135
 20
6.085
 11
-9.135
 21
6.285
  0
LINE
  5
596
100
AcDbEntity
  8
0
100
AcDbLine
 62
7
  6
CONTINUOUS
 10
-9.135
 20
45.685
 11
-9.135
 21
45.885
  0
LINE
  5
597
100
AcDbEntity
  8
DRAFT
100
AcDbLine
 62
7
  6
CONTINUOUS
 10
-9.135
 20
45.685
 11
-9.135
 21
45.885
  0
LINE
  5
598
100
AcDbEntity
  8
RACCORDO
100
AcDbLine
 62
7
  6
CONTINUOUS
 10
-9.135
 20
48.2785241039
 11
-9.135
 21
49.7175068531
  0
LINE
  5
599
100
AcDbEntity
  8
0
100
AcDbLine
 62
7
  6
CONTINUOUS
 10
-9.095
 20
22.985
 11
-9.095
 21
26.985
  0
LINE
  5
59A
100
AcDbEntity
  8
0
100
AcDbLine
 62
7
  6
CONTINUOUS
 10
-9.095
 20
28.235
 11
-9.095
 21
31.735
  0
LINE
  5
59B
100
AcDbEntity
  8
0
100
AcDbLine
 62
7
  6
CONTINUOUS
 10
-9.095
 20
33.235
 11
-9.095
 21
36.735
  0
LINE
  5
59C
100
AcDbEntity
  8
0
100
AcDbLine
 62
7
  6
CONTINUOUS
 10
-9.095
 20
38.235
 11
-9.095
 21
41.735
  0
LINE
  5
59D
100
AcDbEntity
  8
RACCORDO
100
AcDbLine
 62
253
  6
CONTINUOUS
 10
-8.885
 20
49.9675449351
 11
-8.885
 21
49.8876349493
  0
LINE
  5
59E
100
AcDbEntity
  8
RACCORDO
100
AcDbLine
 62
253
  6
CONTINUOUS
 10
-8.885
 20
2.0823650507
 11
-8.885
 21
2.0024550649
  0
LINE
  5
59F
100
AcDbEntity
  8
RACCORDO
100
AcDbLine
 62
7
  6
CONTINUOUS
 10
-9.5591795383
 20
48.2642532588
 11
-9.5601240064
 21
48.2101447178
  0
LINE
  5
5A0
100
AcDbEntity
  8
ASSI
100
AcDbLine
 62
7
  6
CONTINUOUS
 10
-9.585
 20
46.785
 11
-9.5601240064
 21
48.2101447178
  0
LINE
  5
5A1
100
AcDbEntity
  8
0
100
AcDbLine
 62
253
  6
CONTINUOUS
 10
-14.6293792568
 20
8.485
 11
-14.6172464458
 21
8.5259370941
  0
LINE
  5
5A2
100
AcDbEntity
  8
RACCORDO
100
AcDbLine
 62
253
  6
CONTINUOUS
 10
-14.6293792568
 20
8.485
 11
-14.6172464458
 21
8.5259370941
  0
LINE
  5
5A3
100
AcDbEntity
  8
0
100
AcDbLine
 62
7
  6
CONTINUOUS
 10
-19.2222686779
 20
4.9104493507
 11
-19.135
 21
5.085
  0
LINE
  5
5A4
100
AcDbEntity
  8
CURVE
100
AcDbLine
 62
253
  6
CONTINUOUS
 10
-3.1397618955
 20
35.1826190329
 11
-3.3254761896
 21
34.935
  0
LINE
  5
5A5
100
AcDbEntity
  8
SMUSSO
100
AcDbLine
 62
7
  6
CONTINUOUS
 10
-7.885
 20
27.485
 11
-8.385
 21
26.985
  0
LINE
  5
5A6
100
AcDbEntity
  8
ASSI
100
AcDbLine
 62
7
  6
CONTINUOUS
 10
-7.885
 20
27.485
 11
-8.385
 21
26.985
  0
LINE
  5
5A7
100
AcDbEntity
  8
SMUSSO
100
AcDbLine
 62
7
  6
CONTINUOUS
 10
-12.885
 20
22.485
 11
-12.385
 21
22.985
  0
LINE
  5
5A8
100
AcDbEntity
  8
ASSI
100
AcDbLine
 62
7
  6
CONTINUOUS
 10
-12.885
 20
22.485
 11
-12.385
 21
22.985
  0
LINE
  5
5A9
100
AcDbEntity
  8
CURVE
100
AcDbLine
 62
253
  6
CONTINUOUS
 10
-3.0778571373
 20
31.8088096714
 11
-2.8921428239
 21
31.9945238686
  0
LINE
  5
5AA
100
AcDbEntity
  8
CURVE
100
AcDbLine
 62
253
  6
CONTINUOUS
 10
-3.635
 20
31.1588096714
 11
-3.449285706
 21
31.3445238686
  0
LINE
  5
5AB
100
AcDbEntity
  8
CURVE
100
AcDbLine
 62
253
  6
CONTINUOUS
 10
-2.335
 20
31.0659522629
 11
-2.5207142746
 21
30.8802380657
  0
LINE
  5
5AC
100
AcDbEntity
  8
CURVE
100
AcDbLine
 62
253
  6
CONTINUOUS
 10
-3.6975
 20
25.985
 11
-3.885
 21
25.9225
  0
LINE
  5
5AD
100
AcDbEntity
  8
SMUSSO
100
AcDbLine
 62
7
  6
CONTINUOUS
 10
-8.385
 20
28.235
 11
-12.385
 21
28.235
  0
LINE
  5
5AE
100
AcDbEntity
  8
ASSI
100
AcDbLine
 62
7
  6
CONTINUOUS
 10
-8.385
 20
28.235
 11
-12.385
 21
28.235
  0
LINE
  5
5AF
100
AcDbEntity
  8
0
100
AcDbLine
 62
7
  6
CONTINUOUS
 10
-12.035
 20
28.485
 11
-9.095
 21
28.485
  0
LINE
  5
5B0
100
AcDbEntity
  8
CURVE
100
AcDbLine
 62
253
  6
CONTINUOUS
 10
-6.635
 20
29.635
 11
-4.735
 21
29.635
  0
LINE
  5
5B1
100
AcDbEntity
  8
CURVE
100
AcDbLine
 62
253
  6
CONTINUOUS
 10
-2.335
 20
29.7659522629
 11
-3.635
 21
29.7659522629
  0
LINE
  5
5B2
100
AcDbEntity
  8
CURVE
100
AcDbLine
 62
253
  6
CONTINUOUS
 10
-3.3225
 20
25.9225
 11
-3.51
 21
25.985
  0
LINE
  5
5B3
100
AcDbEntity
  8
CURVE
100
AcDbLine
 62
253
  6
CONTINUOUS
 10
-2.4475
 20
25.735
 11
-2.635
 21
25.7975
  0
LINE
  5
5B4
100
AcDbEntity
  8
CURVE
100
AcDbLine
 62
253
  6
CONTINUOUS
 10
-6.635
 20
24.8064285553
 11
-6.3635714164
 21
24.535
  0
LINE
  5
5B5
100
AcDbEntity
  8
0
100
AcDbLine
 62
7
  6
CONTINUOUS
 10
-19.2222686779
 20
47.0595506493
 11
-19.135
 21
46.885
  0
LINE
  5
5B6
100
AcDbEntity
  8
0
100
AcDbLine
 62
7
  6
CONTINUOUS
 10
-14.6160113849
 20
44.185
 11
-14.6255723476
 21
44.2166174985
  0
LINE
  5
5B7
100
AcDbEntity
  8
RACCORDO
100
AcDbLine
 62
7
  6
CONTINUOUS
 10
-14.6160113849
 20
44.185
 11
-14.6255723476
 21
44.2166174985
  0
LWPOLYLINE
  5
5B8
100
AcDbEntity
  8
0
100
AcDbPolyline
 62
253
  6
CONTINUOUS
 90
5
 70
0
 10
-14.6293792568
 20
43.485
 10
-14.6172464458
 20
43.4440629059
 10
-14.5953851756
 20
43.4017346696
 10
-14.565459935
 20
43.3632135783
 10
-14.5283221907
 20
43.3298141709
  0
LWPOLYLINE
  5
5B9
100
AcDbEntity
  8
RACCORDO
100
AcDbPolyline
 62
253
  6
CONTINUOUS
 90
5
 70
0
 10
-14.6293792568
 20
43.485
 10
-14.6172464458
 20
43.4440629059
 10
-14.5953851756
 20
43.4017346696
 10
-14.565459935
 20
43.3632135783
 10
-14.5283221907
 20
43.3298141709
  0
LWPOLYLINE
  5
5BA
100
AcDbEntity
  8
ASSI
100
AcDbPolyline
 62
7
  6
CONTINUOUS
 90
13
 70
0
 10
-5.435
 20
1.684969539
 10
-5.4332897358
 20
1.6588674122
 10
-5.4281875595
 20
1.6332122339
 10
-5.4197805782
 20
1.6084427125
 10
-5.4082123371
 20
1.5849822556
 10
-5.39368055
 20
1.5632324498
 10
-5.3764339722
 20
1.5435660278
 10
-5.3567675502
 20
1.52631945
 10
-5.3350177444
 20
1.5117876629
 10
-5.3115572875
 20
1.5002194218
 10
-5.2867877661
 20
1.4918124405
 10
-5.2611325878
 20
1.4867102642
 10
-5.235030461
 20
1.485
  0
LINE
  5
5BB
100
AcDbEntity
  8
SMUSSO
100
AcDbLine
 62
7
  6
CONTINUOUS
 10
-8.385
 20
41.735
 11
-8.385
 21
38.235
  0
LINE
  5
5BC
100
AcDbEntity
  8
ASSI
100
AcDbLine
 62
7
  6
CONTINUOUS
 10
-8.385
 20
41.735
 11
-8.385
 21
38.235
  0
LINE
  5
5BD
100
AcDbEntity
  8
SMUSSO
100
AcDbLine
 62
7
  6
CONTINUOUS
 10
-8.385
 20
36.735
 11
-8.385
 21
33.235
  0
LINE
  5
5BE
100
AcDbEntity
  8
ASSI
100
AcDbLine
 62
7
  6
CONTINUOUS
 10
-8.385
 20
36.735
 11
-8.385
 21
33.235
  0
LINE
  5
5BF
100
AcDbEntity
  8
SMUSSO
100
AcDbLine
 62
7
  6
CONTINUOUS
 10
-8.385
 20
31.735
 11
-8.385
 21
28.235
  0
LINE
  5
5C0
100
AcDbEntity
  8
ASSI
100
AcDbLine
 62
7
  6
CONTINUOUS
 10
-8.385
 20
31.735
 11
-8.385
 21
28.235
  0
LINE
  5
5C1
100
AcDbEntity
  8
SMUSSO
100
AcDbLine
 62
7
  6
CONTINUOUS
 10
-8.385
 20
26.985
 11
-8.385
 21
22.985
  0
LINE
  5
5C2
100
AcDbEntity
  8
ASSI
100
AcDbLine
 62
7
  6
CONTINUOUS
 10
-8.385
 20
26.985
 11
-8.385
 21
22.985
  0
LINE
  5
5C3
100
AcDbEntity
  8
RACCORDO
100
AcDbLine
 62
253
  6
CONTINUOUS
 10
-8.2824206963
 20
2.3323826201
 11
-8.2824187645
 21
3.6824187645
  0
LINE
  5
5C4
100
AcDbEntity
  8
RACCORDO
100
AcDbLine
 62
253
  6
CONTINUOUS
 10
-8.2824187645
 20
48.2875812355
 11
-8.2824206963
 21
49.6376173799
  0
LINE
  5
5C5
100
AcDbEntity
  8
ASSI
100
AcDbLine
 62
7
  6
CONTINUOUS
 10
-8.2810028571
 20
49.5243800954
 11
-8.2810028571
 21
48.8456199046
  0
LINE
  5
5C6
100
AcDbEntity
  8
ASSI
100
AcDbLine
 62
7
  6
CONTINUOUS
 10
-8.2810028571
 20
3.1243800954
 11
-8.2810028571
 21
2.4456199046
  0
LINE
  5
5C7
100
AcDbEntity
  8
RACCORDO
100
AcDbLine
 62
7
  6
CONTINUOUS
 10
-8.185
 20
2.2349619238
 11
-8.185
 21
2.5670550528
  0
LINE
  5
5C8
100
AcDbEntity
  8
ASSI
100
AcDbLine
 62
7
  6
CONTINUOUS
 10
-8.185
 20
3.0029449472
 11
-8.185
 21
3.585
  0
LINE
  5
5C9
100
AcDbEntity
  8
ASSI
100
AcDbLine
 62
7
  6
CONTINUOUS
 10
-8.185
 20
48.385
 11
-8.185
 21
48.9670550528
  0
LINE
  5
5CA
100
AcDbEntity
  8
RACCORDO
100
AcDbLine
 62
7
  6
CONTINUOUS
 10
-8.185
 20
49.4029449472
 11
-8.185
 21
49.7350380762
  0
LINE
  5
5CB
100
AcDbEntity
  8
SMUSSO
100
AcDbLine
 62
7
  6
CONTINUOUS
 10
-7.885
 20
42.235
 11
-7.885
 21
37.735
  0
LINE
  5
5CC
100
AcDbEntity
  8
ASSI
100
AcDbLine
 62
7
  6
CONTINUOUS
 10
-7.885
 20
42.235
 11
-7.885
 21
37.735
  0
LINE
  5
5CD
100
AcDbEntity
  8
SMUSSO
100
AcDbLine
 62
7
  6
CONTINUOUS
 10
-7.885
 20
37.235
 11
-7.885
 21
32.735
  0
LINE
  5
5CE
100
AcDbEntity
  8
ASSI
100
AcDbLine
 62
7
  6
CONTINUOUS
 10
-7.885
 20
37.235
 11
-7.885
 21
32.735
  0
LINE
  5
5CF
100
AcDbEntity
  8
SMUSSO
100
AcDbLine
 62
7
  6
CONTINUOUS
 10
-7.885
 20
32.235
 11
-7.885
 21
27.735
  0
LINE
  5
5D0
100
AcDbEntity
  8
ASSI
100
AcDbLine
 62
7
  6
CONTINUOUS
 10
-7.885
 20
32.235
 11
-7.885
 21
27.735
  0
LINE
  5
5D1
100
AcDbEntity
  8
SMUSSO
100
AcDbLine
 62
7
  6
CONTINUOUS
 10
-7.885
 20
27.485
 11
-7.885
 21
22.485
  0
LINE
  5
5D2
100
AcDbEntity
  8
ASSI
100
AcDbLine
 62
7
  6
CONTINUOUS
 10
-7.885
 20
27.485
 11
-7.885
 21
22.485
  0
LINE
  5
5D3
100
AcDbEntity
  8
ASSI
100
AcDbLine
 62
7
  6
CONTINUOUS
 10
-7.5095506493
 20
47.0595506493
 11
-7.5095506493
 21
46.0722686779
  0
LINE
  5
5D4
100
AcDbEntity
  8
ASSI
100
AcDbLine
 62
7
  6
CONTINUOUS
 10
-7.5095506493
 20
5.8977313221
 11
-7.5095506493
 21
4.9104493507
  0
LINE
  5
5D5
100
AcDbEntity
  8
0
100
AcDbLine
 62
7
  6
CONTINUOUS
 10
-7.335
 20
5.985
 11
-7.335
 21
5.085
  0
LINE
  5
5D6
100
AcDbEntity
  8
0
100
AcDbLine
 62
7
  6
CONTINUOUS
 10
-7.335
 20
45.985
 11
-7.335
 21
46.885
  0
LWPOLYLINE
  5
5D7
100
AcDbEntity
  8
ASSI
100
AcDbPolyline
 62
7
  6
CONTINUOUS
 90
13
 70
0
 10
-5.435
 20
50.285030461
 10
-5.4332897358
 20
50.3111325878
 10
-5.4281875595
 20
50.3367877661
 10
-5.4197805782
 20
50.3615572875
 10
-5.4082123371
 20
50.3850177444
 10
-5.39368055
 20
50.4067675502
 10
-5.3764339722
 20
50.4264339722
 10
-5.3567675502
 20
50.44368055
 10
-5.3350177444
 20
50.4582123371
 10
-5.3115572875
 20
50.4697805782
 10
-5.2867877661
 20
50.4781875595
 10
-5.2611325878
 20
50.4832897358
 10
-5.235030461
 20
50.485
  0
LINE
  5
5D8
100
AcDbEntity
  8
CURVE
100
AcDbLine
 62
253
  6
CONTINUOUS
 10
-6.4992857082
 20
25.485
 11
-6.635
 21
25.3492857082
  0
LINE
  5
5D9
100
AcDbEntity
  8
CURVE
100
AcDbLine
 62
253
  6
CONTINUOUS
 10
-2.6975
 20
25.7975
 11
-2.8225
 21
25.735
  0
LINE
  5
5DA
100
AcDbEntity
  8
CURVE
100
AcDbLine
 62
253
  6
CONTINUOUS
 10
-3.635
 20
30.4159522629
 11
-2.335
 21
30.4159522629
  0
LINE
  5
5DB
100
AcDbEntity
  8
CURVE
100
AcDbLine
 62
253
  6
CONTINUOUS
 10
-6.635
 20
30.585
 11
-4.735
 21
30.585
  0
LINE
  5
5DC
100
AcDbEntity
  8
CURVE
100
AcDbLine
 62
253
  6
CONTINUOUS
 10
-2.7064285493
 20
30.7873806572
 11
-3.263571412
 21
30.7873806572
  0
LINE
  5
5DD
100
AcDbEntity
  8
CURVE
100
AcDbLine
 62
253
  6
CONTINUOUS
 10
-3.263571412
 20
31.4373806572
 11
-2.7064285493
 21
31.4373806572
  0
LINE
  5
5DE
100
AcDbEntity
  8
0
100
AcDbLine
 62
7
  6
CONTINUOUS
 10
-9.095
 20
31.485
 11
-12.035
 21
31.485
  0
LINE
  5
5DF
100
AcDbEntity
  8
SMUSSO
100
AcDbLine
 62
7
  6
CONTINUOUS
 10
-12.885
 20
32.235
 11
-12.385
 21
31.735
  0
LINE
  5
5E0
100
AcDbEntity
  8
ASSI
100
AcDbLine
 62
7
  6
CONTINUOUS
 10
-12.885
 20
32.235
 11
-12.385
 21
31.735
  0
LINE
  5
5E1
100
AcDbEntity
  8
SMUSSO
100
AcDbLine
 62
7
  6
CONTINUOUS
 10
-7.885
 20
27.735
 11
-8.385
 21
28.235
  0
LINE
  5
5E2
100
AcDbEntity
  8
ASSI
100
AcDbLine
 62
7
  6
CONTINUOUS
 10
-7.885
 20
27.735
 11
-8.385
 21
28.235
  0
LINE
  5
5E3
100
AcDbEntity
  8
CURVE
100
AcDbLine
 62
253
  6
CONTINUOUS
 10
-5.0064285553
 20
25.485
 11
-4.735
 21
25.2135714164
  0
LINE
  5
5E4
100
AcDbEntity
  8
CURVE
100
AcDbLine
 62
253
  6
CONTINUOUS
 10
-3.9475
 20
24.86
 11
-3.8225
 21
24.735
  0
LWPOLYLINE
  5
5E5
100
AcDbEntity
  8
RACCORDO
100
AcDbPolyline
 62
7
  6
CONTINUOUS
 90
13
 70
0
 10
-8.185
 20
49.7350380762
 10
-8.1871378302
 20
49.7676657348
 10
-8.1935155507
 20
49.7997347076
 10
-8.2040242772
 20
49.8306966094
 10
-8.2184845786
 20
49.8600221805
 10
-8.2366493125
 20
49.8872094378
 10
-8.2582075347
 20
49.9117924653
 10
-8.2827905622
 20
49.9333506875
 10
-8.3099778195
 20
49.9515154214
 10
-8.3393033906
 20
49.9659757228
 10
-8.3702652924
 20
49.9764844493
 10
-8.4023342652
 20
49.9828621698
 10
-8.4349619238
 20
49.985
  0
LINE
  5
5E6
100
AcDbEntity
  8
ASSI
100
AcDbLine
 62
253
  6
CONTINUOUS
 10
-5.2367150409
 20
2.8623502692
 11
-5.2214418591
 21
2.3571687836
  0
LINE
  5
5E7
100
AcDbEntity
  8
ASSI
100
AcDbLine
 62
253
  6
CONTINUOUS
 10
-5.435
 20
2.6334253918
 11
-5.4213744371
 21
2.1826915885
  0
LINE
  5
5E8
100
AcDbEntity
  8
ASSI
100
AcDbLine
 62
253
  6
CONTINUOUS
 10
-5.4213744371
 20
2.1826915885
 11
-5.4213021095
 21
2.1796846467
  0
LINE
  5
5E9
100
AcDbEntity
  8
ASSI
100
AcDbLine
 62
253
  6
CONTINUOUS
 10
-5.4213021095
 20
2.1796846467
 11
-5.4211976041
 21
2.1740174516
  0
LINE
  5
5EA
100
AcDbEntity
  8
ASSI
100
AcDbLine
 62
253
  6
CONTINUOUS
 10
-5.4211976041
 20
2.1740174516
 11
-5.421106064
 21
2.1670132988
  0
LINE
  5
5EB
100
AcDbEntity
  8
ASSI
100
AcDbLine
 62
253
  6
CONTINUOUS
 10
-5.421106064
 20
2.1670132988
 11
-5.4210170174
 21
2.1559717943
  0
LINE
  5
5EC
100
AcDbEntity
  8
ASSI
100
AcDbLine
 62
253
  6
CONTINUOUS
 10
-5.4210730512
 20
50.2448915416
 11
-5.420999867
 21
50.2337111874
  0
LINE
  5
5ED
100
AcDbEntity
  8
ASSI
100
AcDbLine
 62
253
  6
CONTINUOUS
 10
-5.2214418591
 20
2.3571687836
 11
-5.2211104105
 21
2.2594195
  0
LINE
  5
5EE
100
AcDbEntity
  8
ASSI
100
AcDbLine
 62
253
  6
CONTINUOUS
 10
-5.4210170174
 20
2.1559717943
 11
-5.4209767933
 21
2.1437969975
  0
LINE
  5
5EF
100
AcDbEntity
  8
CURVE
100
AcDbLine
 62
253
  6
CONTINUOUS
 10
-6.635
 20
40.285
 11
-6.635
 21
39.6064285553
  0
LINE
  5
5F0
100
AcDbEntity
  8
CURVE
100
AcDbLine
 62
253
  6
CONTINUOUS
 10
-6.635
 20
25.3492857082
 11
-6.635
 21
24.8064285553
  0
LINE
  5
5F1
100
AcDbEntity
  8
0
100
AcDbLine
 62
7
  6
CONTINUOUS
 10
-6.135
 20
6.285
 11
-6.135
 21
5.085
  0
LINE
  5
5F2
100
AcDbEntity
  8
0
100
AcDbLine
 62
7
  6
CONTINUOUS
 10
-6.135
 20
45.685
 11
-6.135
 21
46.885
  0
LINE
  5
5F3
100
AcDbEntity
  8
ASSI
100
AcDbLine
 62
7
  6
CONTINUOUS
 10
-6.0477313221
 20
47.0595506493
 11
-6.0477313221
 21
45.7722686779
  0
LINE
  5
5F4
100
AcDbEntity
  8
ASSI
100
AcDbLine
 62
7
  6
CONTINUOUS
 10
-6.0477313221
 20
6.1977313221
 11
-6.0477313221
 21
4.9104493507
  0
LINE
  5
5F5
100
AcDbEntity
  8
CURVE
100
AcDbLine
 62
253
  6
CONTINUOUS
 10
-5.8207142776
 20
34.8064285553
 11
-5.8207142776
 21
35.485
  0
LINE
  5
5F6
100
AcDbEntity
  8
ASSI
100
AcDbLine
 62
7
  6
CONTINUOUS
 10
-5.435
 20
1.684969539
 11
-5.435
 21
3.585
  0
LINE
  5
5F7
100
AcDbEntity
  8
ASSI
100
AcDbLine
 62
7
  6
CONTINUOUS
 10
-5.435
 20
48.385
 11
-5.435
 21
50.285030461
  0
LINE
  5
5F8
100
AcDbEntity
  8
ASSI
100
AcDbLine
 62
7
  6
CONTINUOUS
 10
-5.4222686779
 20
4.9977313221
 11
-5.4222686779
 21
6.1977313221
  0
LINE
  5
5F9
100
AcDbEntity
  8
ASSI
100
AcDbLine
 62
7
  6
CONTINUOUS
 10
-5.4222686779
 20
45.7722686779
 11
-5.4222686779
 21
46.9722686779
  0
LINE
  5
5FA
100
AcDbEntity
  8
0
100
AcDbLine
 62
7
  6
CONTINUOUS
 10
-5.335
 20
5.085
 11
-5.335
 21
6.285
  0
LINE
  5
5FB
100
AcDbEntity
  8
0
100
AcDbLine
 62
7
  6
CONTINUOUS
 10
-5.335
 20
45.685
 11
-5.335
 21
46.885
  0
LINE
  5
5FC
100
AcDbEntity
  8
0
100
AcDbLine
 62
7
  6
CONTINUOUS
 10
-5.235
 20
46.835
 11
-5.235
 21
45.685
  0
LINE
  5
5FD
100
AcDbEntity
  8
DRAFT
100
AcDbLine
 62
7
  6
CONTINUOUS
 10
-5.235
 20
46.835
 11
-5.235
 21
45.685
  0
LINE
  5
5FE
100
AcDbEntity
  8
0
100
AcDbLine
 62
7
  6
CONTINUOUS
 10
-5.235
 20
6.285
 11
-5.235
 21
5.135
  0
LINE
  5
5FF
100
AcDbEntity
  8
DRAFT
100
AcDbLine
 62
7
  6
CONTINUOUS
 10
-5.235
 20
6.285
 11
-5.235
 21
5.135
  0
LINE
  5
600
100
AcDbEntity
  8
ASSI
100
AcDbLine
 62
253
  6
CONTINUOUS
 10
-5.2211104105
 20
2.2594195
 11
-5.2210054824
 21
2.1406624327
  0
LINE
  5
601
100
AcDbEntity
  8
ASSI
100
AcDbLine
 62
253
  6
CONTINUOUS
 10
-5.2210054824
 20
2.1406624327
 11
-5.2210062121
 21
1.7361042548
  0
LINE
  5
602
100
AcDbEntity
  8
ASSI
100
AcDbLine
 62
253
  6
CONTINUOUS
 10
-5.420999867
 20
50.2337111874
 11
-5.4209757709
 21
49.8268677095
  0
LINE
  5
603
100
AcDbEntity
  8
ASSI
100
AcDbLine
 62
253
  6
CONTINUOUS
 10
-5.4209767933
 20
2.1437969975
 11
-5.4209757474
 21
1.7457112379
  0
LINE
  5
604
100
AcDbEntity
  8
ASSI
100
AcDbLine
 62
253
  6
CONTINUOUS
 10
-5.2210071058
 20
50.2368047581
 11
-5.2210859679
 21
49.7244812397
  0
LWPOLYLINE
  5
605
100
AcDbEntity
  8
ASSI
100
AcDbPolyline
 62
253
  6
CONTINUOUS
 90
3
 70
0
 10
-5.2210859679
 20
49.7244812397
 10
-5.2213953051
 20
49.6210388814
 10
-5.2214418591
 20
49.6128312164
  0
LINE
  5
606
100
AcDbEntity
  8
ASSI
100
AcDbLine
 62
253
  6
CONTINUOUS
 10
-5.4209757474
 20
1.7457112379
 11
-5.4210165677
 21
1.7328866099
  0
LINE
  5
607
100
AcDbEntity
  8
ASSI
100
AcDbLine
 62
253
  6
CONTINUOUS
 10
-5.4209757709
 20
49.8268677095
 11
-5.4210184771
 21
49.8137571729
  0
LINE
  5
608
100
AcDbEntity
  8
ASSI
100
AcDbLine
 62
253
  6
CONTINUOUS
 10
-5.4210165677
 20
1.7328866099
 11
-5.4210518712
 21
1.727615405
  0
LINE
  5
609
100
AcDbEntity
  8
ASSI
100
AcDbLine
 62
253
  6
CONTINUOUS
 10
-5.4210184771
 20
49.8137571729
 11
-5.4211047842
 21
49.8031148724
  0
LINE
  5
60A
100
AcDbEntity
  8
ASSI
100
AcDbLine
 62
253
  6
CONTINUOUS
 10
-5.4211047842
 20
49.8031148724
 11
-5.4212009709
 21
49.7957746381
  0
LINE
  5
60B
100
AcDbEntity
  8
ASSI
100
AcDbLine
 62
253
  6
CONTINUOUS
 10
-5.4212009709
 20
49.7957746381
 11
-5.4212786322
 21
49.7914321163
  0
LINE
  5
60C
100
AcDbEntity
  8
ASSI
100
AcDbLine
 62
253
  6
CONTINUOUS
 10
-5.4212786322
 20
49.7914321163
 11
-5.4213648999
 21
49.7876915034
  0
LINE
  5
60D
100
AcDbEntity
  8
ASSI
100
AcDbLine
 62
253
  6
CONTINUOUS
 10
-5.4213648999
 20
49.7876915034
 11
-5.435
 21
49.3365746082
  0
LINE
  5
60E
100
AcDbEntity
  8
ASSI
100
AcDbLine
 62
253
  6
CONTINUOUS
 10
-5.2214418591
 20
49.6128312164
 11
-5.2367150409
 21
49.1076497308
  0
LWPOLYLINE
  5
60F
100
AcDbEntity
  8
RACCORDO
100
AcDbPolyline
 62
7
  6
CONTINUOUS
 90
13
 70
0
 10
-8.185
 20
2.2349619238
 10
-8.1871378302
 20
2.2023342652
 10
-8.1935155507
 20
2.1702652924
 10
-8.2040242772
 20
2.1393033906
 10
-8.2184845786
 20
2.1099778195
 10
-8.2366493125
 20
2.0827905622
 10
-8.2582075347
 20
2.0582075347
 10
-8.2827905622
 20
2.0366493125
 10
-8.3099778195
 20
2.0184845786
 10
-8.3393033906
 20
2.0040242772
 10
-8.3702652924
 20
1.9935155507
 10
-8.4023342652
 20
1.9871378302
 10
-8.4349619238
 20
1.985
  0
LWPOLYLINE
  5
610
100
AcDbEntity
  8
0
100
AcDbPolyline
 62
253
  6
CONTINUOUS
 90
4
 70
0
 10
-14.6172464458
 20
8.5259370941
 10
-14.5953851756
 20
8.5682653304
 10
-14.565459935
 20
8.6067864217
 10
-14.5283221907
 20
8.6401858291
  0
LWPOLYLINE
  5
611
100
AcDbEntity
  8
RACCORDO
100
AcDbPolyline
 62
253
  6
CONTINUOUS
 90
4
 70
0
 10
-14.6172464458
 20
8.5259370941
 10
-14.5953851756
 20
8.5682653304
 10
-14.565459935
 20
8.6067864217
 10
-14.5283221907
 20
8.6401858291
  0
LINE
  5
612
100
AcDbEntity
  8
CURVE
100
AcDbLine
 62
253
  6
CONTINUOUS
 10
-6.0921428329
 20
24.535
 11
-5.2778571105
 21
25.485
  0
LINE
  5
613
100
AcDbEntity
  8
CURVE
100
AcDbLine
 62
253
  6
CONTINUOUS
 10
-3.885
 20
25.9225
 11
-4.01
 21
25.7975
  0
LINE
  5
614
100
AcDbEntity
  8
CURVE
100
AcDbLine
 62
253
  6
CONTINUOUS
 10
-4.735
 20
24.6707142776
 11
-4.8707143342
 21
24.535
  0
LINE
  5
615
100
AcDbEntity
  8
CURVE
100
AcDbLine
 62
253
  6
CONTINUOUS
 10
-2.8225
 20
25.735
 11
-2.885
 21
25.6725
  0
LINE
  5
616
100
AcDbEntity
  8
SMUSSO
100
AcDbLine
 62
7
  6
CONTINUOUS
 10
-12.385
 20
31.735
 11
-8.385
 21
31.735
  0
LINE
  5
617
100
AcDbEntity
  8
ASSI
100
AcDbLine
 62
7
  6
CONTINUOUS
 10
-12.385
 20
31.735
 11
-8.385
 21
31.735
  0
LINE
  5
618
100
AcDbEntity
  8
CURVE
100
AcDbLine
 62
253
  6
CONTINUOUS
 10
-3.449285706
 20
31.8088096714
 11
-3.0778571373
 21
31.8088096714
  0
LINE
  5
619
100
AcDbEntity
  8
RACCORDO
100
AcDbLine
 62
7
  6
CONTINUOUS
 10
-23.3480788782
 20
32.135
 11
-22.435
 21
32.135
  0
LINE
  5
61A
100
AcDbEntity
  8
ASSI
100
AcDbLine
 62
7
  6
CONTINUOUS
 10
-23.3480788782
 20
32.135
 11
-22.435
 21
32.135
  0
LINE
  5
61B
100
AcDbEntity
  8
SMUSSO
100
AcDbLine
 62
7
  6
CONTINUOUS
 10
-12.885
 20
32.235
 11
-7.885
 21
32.235
  0
LINE
  5
61C
100
AcDbEntity
  8
ASSI
100
AcDbLine
 62
7
  6
CONTINUOUS
 10
-12.885
 20
32.235
 11
-7.885
 21
32.235
  0
LINE
  5
61D
100
AcDbEntity
  8
CURVE
100
AcDbLine
 62
253
  6
CONTINUOUS
 10
-2.8921428239
 20
32.3659522629
 11
-2.335
 21
32.3659522629
  0
LINE
  5
61E
100
AcDbEntity
  8
SMUSSO
100
AcDbLine
 62
7
  6
CONTINUOUS
 10
-7.885
 20
32.735
 11
-12.885
 21
32.735
  0
LINE
  5
61F
100
AcDbEntity
  8
ASSI
100
AcDbLine
 62
7
  6
CONTINUOUS
 10
-7.885
 20
32.735
 11
-12.885
 21
32.735
  0
LINE
  5
620
100
AcDbEntity
  8
RACCORDO
100
AcDbLine
 62
7
  6
CONTINUOUS
 10
-23.3480788782
 20
32.835
 11
-22.435
 21
32.835
  0
LINE
  5
621
100
AcDbEntity
  8
ASSI
100
AcDbLine
 62
7
  6
CONTINUOUS
 10
-23.3480788782
 20
32.835
 11
-22.435
 21
32.835
  0
LINE
  5
622
100
AcDbEntity
  8
SMUSSO
100
AcDbLine
 62
7
  6
CONTINUOUS
 10
-8.385
 20
33.235
 11
-12.385
 21
33.235
  0
LINE
  5
623
100
AcDbEntity
  8
ASSI
100
AcDbLine
 62
7
  6
CONTINUOUS
 10
-8.385
 20
33.235
 11
-12.385
 21
33.235
  0
LINE
  5
624
100
AcDbEntity
  8
CURVE
100
AcDbLine
 62
253
  6
CONTINUOUS
 10
-3.1975
 20
25.7975
 11
-3.3225
 21
25.9225
  0
LINE
  5
625
100
AcDbEntity
  8
CURVE
100
AcDbLine
 62
253
  6
CONTINUOUS
 10
-2.3225
 20
25.61
 11
-2.4475
 21
25.735
  0
LINE
  5
626
100
AcDbEntity
  8
CURVE
100
AcDbLine
 62
253
  6
CONTINUOUS
 10
-4.0725
 20
25.0475
 11
-3.9475
 21
24.86
  0
LWPOLYLINE
  5
627
100
AcDbEntity
  8
ASSI
100
AcDbPolyline
 62
253
  6
CONTINUOUS
 90
13
 70
0
 10
-2.0485886019
 20
2.1839637029
 10
-2.0505069563
 20
2.2064474774
 10
-2.0557765283
 20
2.2285508046
 10
-2.0643081516
 20
2.2498996748
 10
-2.0759574627
 20
2.2701328445
 10
-2.0905273441
 20
2.2889079489
 10
-2.1077712592
 20
2.3059072952
 10
-2.1273974242
 20
2.3208432379
 10
-2.1490737453
 20
2.3334630466
 10
-2.1724334384
 20
2.343553182
 10
-2.1970812349
 20
2.3509429092
 10
-2.2226000702
 20
2.3555071871
 10
-2.2485581409
 20
2.3571687836
  0
LINE
  5
628
100
AcDbEntity
  8
ASSI
100
AcDbLine
 62
7
  6
CONTINUOUS
 10
-4.135
 20
2.8623502692
 11
-4.1218325431
 21
2.4268185294
  0
LINE
  5
629
100
AcDbEntity
  8
ASSI
100
AcDbLine
 62
253
  6
CONTINUOUS
 10
-5.4214310799
 20
50.2658034644
 11
-5.4213442312
 21
50.262706925
  0
LINE
  5
62A
100
AcDbEntity
  8
ASSI
100
AcDbLine
 62
253
  6
CONTINUOUS
 10
-5.4213442312
 20
50.262706925
 11
-5.4212634867
 21
50.2590080553
  0
LINE
  5
62B
100
AcDbEntity
  8
ASSI
100
AcDbLine
 62
253
  6
CONTINUOUS
 10
-5.4212634867
 20
50.2590080553
 11
-5.4211572133
 21
50.2524433039
  0
LINE
  5
62C
100
AcDbEntity
  8
ASSI
100
AcDbLine
 62
253
  6
CONTINUOUS
 10
-5.2217340318
 20
50.4684328853
 11
-5.2216434381
 21
50.4626556977
  0
LINE
  5
62D
100
AcDbEntity
  8
ASSI
100
AcDbLine
 62
253
  6
CONTINUOUS
 10
-5.4211572133
 20
50.2524433039
 11
-5.4210730512
 21
50.2448915416
  0
LINE
  5
62E
100
AcDbEntity
  8
ASSI
100
AcDbLine
 62
253
  6
CONTINUOUS
 10
-5.2216434381
 20
50.4626556977
 11
-5.2215063776
 21
50.4480421621
  0
LINE
  5
62F
100
AcDbEntity
  8
ASSI
100
AcDbLine
 62
253
  6
CONTINUOUS
 10
-5.2215063776
 20
50.4480421621
 11
-5.2211569973
 21
50.3626176679
  0
LINE
  5
630
100
AcDbEntity
  8
ASSI
100
AcDbLine
 62
253
  6
CONTINUOUS
 10
-5.2211569973
 20
50.3626176679
 11
-5.2210071058
 21
50.2368047581
  0
LINE
  5
631
100
AcDbEntity
  8
0
100
AcDbLine
 62
7
  6
CONTINUOUS
 10
-5.1983443637
 20
46.835
 11
-5.1983443637
 21
45.6483443637
  0
LINE
  5
632
100
AcDbEntity
  8
DRAFT
100
AcDbLine
 62
7
  6
CONTINUOUS
 10
-5.1983443637
 20
46.835
 11
-5.1983443637
 21
45.6483443637
  0
LINE
  5
633
100
AcDbEntity
  8
0
100
AcDbLine
 62
7
  6
CONTINUOUS
 10
-5.1983443637
 20
6.3216556363
 11
-5.1983443637
 21
5.135
  0
LINE
  5
634
100
AcDbEntity
  8
DRAFT
100
AcDbLine
 62
7
  6
CONTINUOUS
 10
-5.1983443637
 20
6.3216556363
 11
-5.1983443637
 21
5.135
  0
LINE
  5
635
100
AcDbEntity
  8
CURVE
100
AcDbLine
 62
253
  6
CONTINUOUS
 10
-4.735
 20
35.485
 11
-4.735
 21
34.8064285553
  0
LINE
  5
636
100
AcDbEntity
  8
CURVE
100
AcDbLine
 62
253
  6
CONTINUOUS
 10
-4.735
 20
25.2135714164
 11
-4.735
 21
24.6707142776
  0
LINE
  5
637
100
AcDbEntity
  8
ASSI
100
AcDbLine
 62
7
  6
CONTINUOUS
 10
-4.5770057142
 20
47.2102970227
 11
-4.5770057142
 21
46.9722686779
  0
LINE
  5
638
100
AcDbEntity
  8
ASSI
100
AcDbLine
 62
7
  6
CONTINUOUS
 10
-4.5770057142
 20
4.9977313221
 11
-4.5770057142
 21
4.7597029773
  0
LINE
  5
639
100
AcDbEntity
  8
ASSI
100
AcDbLine
 62
7
  6
CONTINUOUS
 10
-4.4024550649
 20
47.3901134101
 11
-4.4024550649
 21
46.885
  0
LINE
  5
63A
100
AcDbEntity
  8
ASSI
100
AcDbLine
 62
7
  6
CONTINUOUS
 10
-4.4024550649
 20
4.5798865899
 11
-4.4024550649
 21
5.085
  0
LINE
  5
63B
100
AcDbEntity
  8
ASSI
100
AcDbLine
 62
7
  6
CONTINUOUS
 10
-4.135
 20
49.1076497308
 11
-4.135
 21
48.385
  0
LINE
  5
63C
100
AcDbEntity
  8
CURVE
100
AcDbLine
 62
253
  6
CONTINUOUS
 10
-4.135
 20
25.485
 11
-4.135
 21
25.2975
  0
LINE
  5
63D
100
AcDbEntity
  8
ASSI
100
AcDbLine
 62
7
  6
CONTINUOUS
 10
-4.135
 20
3.585
 11
-4.135
 21
2.8623502692
  0
LINE
  5
63E
100
AcDbEntity
  8
ASSI
100
AcDbLine
 62
253
  6
CONTINUOUS
 10
-4.1218325431
 20
49.5431814706
 11
-4.1218325431
 21
48.3718325431
  0
LINE
  5
63F
100
AcDbEntity
  8
ASSI
100
AcDbLine
 62
253
  6
CONTINUOUS
 10
-4.1218325431
 20
3.5981674569
 11
-4.1218325431
 21
2.4268185294
  0
LINE
  5
640
100
AcDbEntity
  8
ASSI
100
AcDbLine
 62
253
  6
CONTINUOUS
 10
-3.8718706193
 20
49.8293375673
 11
-3.8718706193
 21
48.3675449351
  0
LINE
  5
641
100
AcDbEntity
  8
ASSI
100
AcDbLine
 62
253
  6
CONTINUOUS
 10
-3.8718706193
 20
3.6024550649
 11
-3.8718706193
 21
2.1406624327
  0
LINE
  5
642
100
AcDbEntity
  8
CURVE
100
AcDbLine
 62
253
  6
CONTINUOUS
 10
-3.635
 20
38.4635714507
 11
-3.635
 21
37.9992856479
  0
LINE
  5
643
100
AcDbEntity
  8
CURVE
100
AcDbLine
 62
253
  6
CONTINUOUS
 10
-3.635
 20
32.3659522629
 11
-3.635
 21
31.9945238686
  0
LINE
  5
644
100
AcDbEntity
  8
CURVE
100
AcDbLine
 62
253
  6
CONTINUOUS
 10
-3.635
 20
29.3945238686
 11
-3.635
 21
28.8373806572
  0
LINE
  5
645
100
AcDbEntity
  8
CURVE
100
AcDbLine
 62
253
  6
CONTINUOUS
 10
-3.635
 20
31.0659522629
 11
-3.635
 21
31.1588096714
  0
LINE
  5
646
100
AcDbEntity
  8
CURVE
100
AcDbLine
 62
253
  6
CONTINUOUS
 10
-3.635
 20
37.1635714507
 11
-3.635
 21
37.2564285493
  0
LINE
  5
647
100
AcDbEntity
  8
CURVE
100
AcDbLine
 62
253
  6
CONTINUOUS
 10
-3.635
 20
38.835
 11
-3.635
 21
39.485
  0
LINE
  5
648
100
AcDbEntity
  8
ASSI
100
AcDbLine
 62
253
  6
CONTINUOUS
 10
-3.5981293807
 20
49.8293375673
 11
-3.5981293807
 21
48.3675449351
  0
LINE
  5
649
100
AcDbEntity
  8
ASSI
100
AcDbLine
 62
253
  6
CONTINUOUS
 10
-3.5981293807
 20
3.6024550649
 11
-3.5981293807
 21
2.1406624327
  0
LINE
  5
64A
100
AcDbEntity
  8
ASSI
100
AcDbLine
 62
253
  6
CONTINUOUS
 10
-5.2210062121
 20
1.7361042548
 11
-5.2211869891
 21
1.5954934574
  0
LINE
  5
64B
100
AcDbEntity
  8
ASSI
100
AcDbLine
 62
253
  6
CONTINUOUS
 10
-5.2211869891
 20
1.5954934574
 11
-5.2215096096
 21
1.5215194593
  0
LWPOLYLINE
  5
64C
100
AcDbEntity
  8
ASSI
100
AcDbPolyline
 62
253
  6
CONTINUOUS
 90
6
 70
0
 10
-5.2215096096
 20
1.5215194593
 10
-5.221656653
 20
1.5063144307
 10
-5.2217074316
 20
1.5029547766
 10
-5.221758664
 20
1.5004720204
 10
-5.2218105215
 20
1.4988744728
 10
-5.2218630041
 20
1.4981674569
  0
LINE
  5
64D
100
AcDbEntity
  8
ASSI
100
AcDbLine
 62
253
  6
CONTINUOUS
 10
-5.4210518712
 20
1.727615405
 11
-5.4211565516
 21
1.7176037252
  0
LINE
  5
64E
100
AcDbEntity
  8
ASSI
100
AcDbLine
 62
253
  6
CONTINUOUS
 10
-5.4211565516
 20
1.7176037252
 11
-5.4212624737
 21
1.7110402763
  0
LINE
  5
64F
100
AcDbEntity
  8
ASSI
100
AcDbLine
 62
253
  6
CONTINUOUS
 10
-5.4212624737
 20
1.7110402763
 11
-5.4213439525
 21
1.7073035876
  0
LINE
  5
650
100
AcDbEntity
  8
ASSI
100
AcDbLine
 62
7
  6
CONTINUOUS
 10
-4.1218325431
 20
49.5431814706
 11
-4.135
 21
49.1076497308
  0
LWPOLYLINE
  5
651
100
AcDbEntity
  8
ASSI
100
AcDbPolyline
 62
253
  6
CONTINUOUS
 90
10
 70
0
 10
-5.4213439525
 20
1.7073035876
 10
-5.4214324854
 20
1.704153971
 10
-5.4214792236
 20
1.7028074124
 10
-5.421527106
 20
1.7016267609
 10
-5.4215761467
 20
1.7006138281
 10
-5.4216263316
 20
1.6997668024
 10
-5.4216771179
 20
1.6990947043
 10
-5.4217283249
 20
1.6986005406
 10
-5.4217801332
 20
1.6982813045
 10
-5.4218325431
 20
1.6981369959
  0
LWPOLYLINE
  5
652
100
AcDbEntity
  8
ASSI
100
AcDbPolyline
 62
253
  6
CONTINUOUS
 90
5
 70
0
 10
-2.2481369959
 20
50.4718325431
 10
-2.2481821509
 20
50.4712764047
 10
-2.2482277481
 20
50.4700272031
 10
-2.2482737876
 20
50.4680474348
 10
-2.2483677415
 20
50.4617384366
  0
LWPOLYLINE
  5
653
100
AcDbEntity
  8
ASSI
100
AcDbPolyline
 62
253
  6
CONTINUOUS
 90
13
 70
0
 10
-2.0485886019
 20
49.7860362971
 10
-2.0505069562
 20
49.7635525233
 10
-2.0557765279
 20
49.7414491967
 10
-2.0643081507
 20
49.7201003269
 10
-2.0759574614
 20
49.6998671574
 10
-2.0905273424
 20
49.681092053
 10
-2.1077712571
 20
49.6640927066
 10
-2.1273974219
 20
49.6491567636
 10
-2.1490737432
 20
49.6365369545
 10
-2.1724334365
 20
49.6264468187
 10
-2.1970812334
 20
49.6190570911
 10
-2.2226000694
 20
49.614492813
 10
-2.2485581409
 20
49.6128312164
  0
LINE
  5
654
100
AcDbEntity
  8
CURVE
100
AcDbLine
 62
253
  6
CONTINUOUS
 10
-4.0725
 20
25.6725
 11
-4.135
 21
25.485
  0
LINE
  5
655
100
AcDbEntity
  8
CURVE
100
AcDbLine
 62
253
  6
CONTINUOUS
 10
-4.01
 20
25.7975
 11
-4.0725
 21
25.6725
  0
LINE
  5
656
100
AcDbEntity
  8
CURVE
100
AcDbLine
 62
253
  6
CONTINUOUS
 10
-2.885
 20
25.6725
 11
-2.9475
 21
25.5475
  0
LINE
  5
657
100
AcDbEntity
  8
ASSI
100
AcDbLine
 62
253
  6
CONTINUOUS
 10
-23.2350000646
 20
3.5850000646
 11
-23.2176210875
 21
3.6024550649
  0
LINE
  5
658
100
AcDbEntity
  8
ASSI
100
AcDbLine
 62
253
  6
CONTINUOUS
 10
-23.735
 20
4.0849238476
 11
-23.7175449351
 21
4.1023789125
  0
LINE
  5
659
100
AcDbEntity
  8
0
100
AcDbLine
 62
7
  6
CONTINUOUS
 10
-12.035
 20
33.485
 11
-9.095
 21
33.485
  0
LINE
  5
65A
100
AcDbEntity
  8
CURVE
100
AcDbLine
 62
253
  6
CONTINUOUS
 10
-5.0064285553
 20
34.535
 11
-5.5492856658
 21
34.535
  0
LINE
  5
65B
100
AcDbEntity
  8
CURVE
100
AcDbLine
 62
7
  6
CONTINUOUS
 10
-15.58696
 20
34.967444
 11
-16.33778
 21
34.967444
  0
LINE
  5
65C
100
AcDbEntity
  8
CURVE
100
AcDbLine
 62
7
  6
CONTINUOUS
 10
-19.93222
 20
34.967444
 11
-20.68304
 21
34.967444
  0
LINE
  5
65D
100
AcDbEntity
  8
CURVE
100
AcDbLine
 62
253
  6
CONTINUOUS
 10
-3.263571412
 20
30.7873806572
 11
-3.449285706
 21
30.8802380657
  0
LINE
  5
65E
100
AcDbEntity
  8
CURVE
100
AcDbLine
 62
253
  6
CONTINUOUS
 10
-2.7064285493
 20
28.8373806572
 11
-3.635
 21
29.3945238686
  0
LINE
  5
65F
100
AcDbEntity
  8
ASSI
100
AcDbLine
 62
253
  6
CONTINUOUS
 10
-23.7175449351
 20
47.8676210875
 11
-23.735
 21
47.8850761524
  0
LINE
  5
660
100
AcDbEntity
  8
SMUSSO
100
AcDbLine
 62
7
  6
CONTINUOUS
 10
-12.885
 20
37.235
 11
-12.385
 21
36.735
  0
LINE
  5
661
100
AcDbEntity
  8
ASSI
100
AcDbLine
 62
7
  6
CONTINUOUS
 10
-12.885
 20
37.235
 11
-12.385
 21
36.735
  0
LINE
  5
662
100
AcDbEntity
  8
SMUSSO
100
AcDbLine
 62
7
  6
CONTINUOUS
 10
-7.885
 20
32.735
 11
-8.385
 21
33.235
  0
LINE
  5
663
100
AcDbEntity
  8
ASSI
100
AcDbLine
 62
7
  6
CONTINUOUS
 10
-7.885
 20
32.735
 11
-8.385
 21
33.235
  0
LINE
  5
664
100
AcDbEntity
  8
ASSI
100
AcDbLine
 62
253
  6
CONTINUOUS
 10
-23.2176210875
 20
48.3675449351
 11
-23.235
 21
48.385
  0
LINE
  5
665
100
AcDbEntity
  8
CURVE
100
AcDbLine
 62
253
  6
CONTINUOUS
 10
-3.0725
 20
25.5475
 11
-3.1975
 21
25.7975
  0
LINE
  5
666
100
AcDbEntity
  8
CURVE
100
AcDbLine
 62
253
  6
CONTINUOUS
 10
-4.135
 20
25.2975
 11
-4.0725
 21
25.0475
  0
LINE
  5
667
100
AcDbEntity
  8
CURVE
100
AcDbLine
 62
253
  6
CONTINUOUS
 10
-3.01
 20
25.2975
 11
-3.0725
 21
25.5475
  0
LWPOLYLINE
  5
668
100
AcDbEntity
  8
ASSI
100
AcDbPolyline
 62
253
  6
CONTINUOUS
 90
4
 70
0
 10
-5.2218630041
 20
50.4718325431
 10
-5.2218208256
 20
50.4713333459
 10
-5.2217778348
 20
50.4702165303
 10
-5.2217340318
 20
50.4684328853
  0
LWPOLYLINE
  5
669
100
AcDbEntity
  8
ASSI
100
AcDbPolyline
 62
253
  6
CONTINUOUS
 90
9
 70
0
 10
-2.0485595101
 20
1.7039085918
 10
-2.0485135499
 20
1.7026166826
 10
-2.0484665307
 20
1.7014843927
 10
-2.0484184442
 20
1.7005131653
 10
-2.0483692985
 20
1.6997015572
 10
-2.0483195785
 20
1.6990573573
 10
-2.0482694457
 20
1.6985831619
 10
-2.0482187385
 20
1.6982763748
 10
-2.0481674569
 20
1.6981369959
  0
LINE
  5
66A
100
AcDbEntity
  8
ASSI
100
AcDbLine
 62
7
  6
CONTINUOUS
 10
-3.3481674569
 20
49.5431814706
 11
-3.335
 21
49.1076497308
  0
LINE
  5
66B
100
AcDbEntity
  8
ASSI
100
AcDbLine
 62
7
  6
CONTINUOUS
 10
-1.535
 20
6.985
 11
-1.5524550649
 21
7.5623502692
  0
LINE
  5
66C
100
AcDbEntity
  8
ASSI
100
AcDbLine
 62
253
  6
CONTINUOUS
 10
-2.0486468603
 20
1.7069361554
 11
-2.0485595101
 21
1.7039085918
  0
LINE
  5
66D
100
AcDbEntity
  8
ASSI
100
AcDbLine
 62
253
  6
CONTINUOUS
 10
-2.0487277027
 20
1.7105391155
 11
-2.0486468603
 21
1.7069361554
  0
LWPOLYLINE
  5
66E
100
AcDbEntity
  8
ASSI
100
AcDbPolyline
 62
253
  6
CONTINUOUS
 90
4
 70
0
 10
-2.2482892414
 20
1.5027681697
 10
-2.2482390875
 20
1.5003855092
 10
-2.248188339
 20
1.4988501321
 10
-2.2481369959
 20
1.4981674569
  0
LINE
  5
66F
100
AcDbEntity
  8
ASSI
100
AcDbLine
 62
253
  6
CONTINUOUS
 10
-2.0488340138
 20
1.7169150894
 11
-2.0487277027
 21
1.7105391155
  0
LINE
  5
670
100
AcDbEntity
  8
ASSI
100
AcDbLine
 62
253
  6
CONTINUOUS
 10
-2.0488757009
 20
49.8013720974
 11
-2.0487707583
 21
49.7940664614
  0
LINE
  5
671
100
AcDbEntity
  8
ASSI
100
AcDbLine
 62
253
  6
CONTINUOUS
 10
-2.2483880717
 20
1.510038109
 11
-2.2482892414
 21
1.5027681697
  0
LINE
  5
672
100
AcDbEntity
  8
ASSI
100
AcDbLine
 62
253
  6
CONTINUOUS
 10
-2.0489418813
 20
1.7268400803
 11
-2.0488340138
 21
1.7169150894
  0
LINE
  5
673
100
AcDbEntity
  8
ASSI
100
AcDbLine
 62
253
  6
CONTINUOUS
 10
-2.0489629654
 20
49.8108296429
 11
-2.0488757009
 21
49.8013720974
  0
LINE
  5
674
100
AcDbEntity
  8
ASSI
100
AcDbLine
 62
253
  6
CONTINUOUS
 10
-2.2485735444
 20
1.5342187013
 11
-2.2483880717
 21
1.510038109
  0
LINE
  5
675
100
AcDbEntity
  8
ASSI
100
AcDbLine
 62
253
  6
CONTINUOUS
 10
-2.0490141533
 20
1.7402793536
 11
-2.0489418813
 21
1.7268400803
  0
LINE
  5
676
100
AcDbEntity
  8
ASSI
100
AcDbLine
 62
253
  6
CONTINUOUS
 10
-2.0490196836
 20
49.823838246
 11
-2.0489629654
 21
49.8108296429
  0
LINE
  5
677
100
AcDbEntity
  8
ASSI
100
AcDbLine
 62
253
  6
CONTINUOUS
 10
-2.2489324998
 20
49.7368043767
 11
-2.2485581409
 21
49.6128312164
  0
LINE
  5
678
100
AcDbEntity
  8
ASSI
100
AcDbLine
 62
253
  6
CONTINUOUS
 10
-2.2489632779
 20
1.6818740346
 11
-2.2485735444
 21
1.5342187013
  0
LINE
  5
679
100
AcDbEntity
  8
ASSI
100
AcDbLine
 62
253
  6
CONTINUOUS
 10
-3.3481674569
 20
49.5431814706
 11
-3.3481674569
 21
48.3718325431
  0
LINE
  5
67A
100
AcDbEntity
  8
ASSI
100
AcDbLine
 62
253
  6
CONTINUOUS
 10
-3.3481674569
 20
3.5981674569
 11
-3.3481674569
 21
2.4268185294
  0
LINE
  5
67B
100
AcDbEntity
  8
ASSI
100
AcDbLine
 62
7
  6
CONTINUOUS
 10
-3.335
 20
49.1076497308
 11
-3.335
 21
48.385
  0
LINE
  5
67C
100
AcDbEntity
  8
ASSI
100
AcDbLine
 62
7
  6
CONTINUOUS
 10
-3.335
 20
3.585
 11
-3.335
 21
2.8623502692
  0
LINE
  5
67D
100
AcDbEntity
  8
CURVE
100
AcDbLine
 62
253
  6
CONTINUOUS
 10
-3.01
 20
25.36
 11
-3.01
 21
25.2975
  0
LINE
  5
67E
100
AcDbEntity
  8
CURVE
100
AcDbLine
 62
253
  6
CONTINUOUS
 10
-2.8921428239
 20
30.4159522629
 11
-2.8921428239
 21
29.7659522629
  0
LINE
  5
67F
100
AcDbEntity
  8
CURVE
100
AcDbLine
 62
253
  6
CONTINUOUS
 10
-2.8921428239
 20
31.9945238686
 11
-2.8921428239
 21
32.3659522629
  0
LINE
  5
680
100
AcDbEntity
  8
CURVE
100
AcDbLine
 62
253
  6
CONTINUOUS
 10
-2.8921428239
 20
38.0921429014
 11
-2.8921428239
 21
38.2778571761
  0
LINE
  5
681
100
AcDbEntity
  8
RACCORDO
100
AcDbLine
 62
7
  6
CONTINUOUS
 10
-2.8376180603
 20
6.4586921253
 11
-2.8376180603
 21
6.3823816577
  0
LINE
  5
682
100
AcDbEntity
  8
ASSI
100
AcDbLine
 62
7
  6
CONTINUOUS
 10
-2.8376180603
 20
6.4586921253
 11
-2.8376180603
 21
6.3823816577
  0
LINE
  5
683
100
AcDbEntity
  8
CURVE
100
AcDbLine
 62
253
  6
CONTINUOUS
 10
-2.7064285493
 20
29.3945238686
 11
-2.7064285493
 21
28.8373806572
  0
LINE
  5
684
100
AcDbEntity
  8
CURVE
100
AcDbLine
 62
253
  6
CONTINUOUS
 10
-2.335
 20
37.2564285493
 11
-2.335
 21
37.1635714507
  0
LINE
  5
685
100
AcDbEntity
  8
CURVE
100
AcDbLine
 62
253
  6
CONTINUOUS
 10
-2.335
 20
32.3659522629
 11
-2.335
 21
31.8088096714
  0
LINE
  5
686
100
AcDbEntity
  8
CURVE
100
AcDbLine
 62
253
  6
CONTINUOUS
 10
-2.335
 20
31.1588096714
 11
-2.335
 21
31.0659522629
  0
LINE
  5
687
100
AcDbEntity
  8
CURVE
100
AcDbLine
 62
253
  6
CONTINUOUS
 10
-2.335
 20
38.0921429014
 11
-2.335
 21
38.4635714507
  0
LINE
  5
688
100
AcDbEntity
  8
CURVE
100
AcDbLine
 62
253
  6
CONTINUOUS
 10
-2.335
 20
39.0207142746
 11
-2.335
 21
39.299285706
  0
LINE
  5
689
100
AcDbEntity
  8
CURVE
100
AcDbLine
 62
253
  6
CONTINUOUS
 10
-2.26
 20
25.2975
 11
-2.26
 21
25.4225
  0
LINE
  5
68A
100
AcDbEntity
  8
ASSI
100
AcDbLine
 62
253
  6
CONTINUOUS
 10
-2.2489945176
 20
1.7481293807
 11
-2.2489632779
 21
1.6818740346
  0
LINE
  5
68B
100
AcDbEntity
  8
ASSI
100
AcDbLine
 62
7
  6
CONTINUOUS
 10
-2.035
 20
3.585
 11
-2.035
 21
1.684969539
  0
LINE
  5
68C
100
AcDbEntity
  8
ASSI
100
AcDbLine
 62
7
  6
CONTINUOUS
 10
-2.035
 20
50.285030461
 11
-2.0349999354
 21
48.3849999296
  0
LINE
  5
68D
100
AcDbEntity
  8
ASSI
100
AcDbLine
 62
253
  6
CONTINUOUS
 10
-2.0490194897
 20
2.1461354375
 11
-2.0490141533
 21
1.7402793536
  0
LINE
  5
68E
100
AcDbEntity
  8
ASSI
100
AcDbLine
 62
253
  6
CONTINUOUS
 10
-2.0490115705
 20
50.2306005086
 11
-2.0490196836
 21
49.823838246
  0
LINE
  5
68F
100
AcDbEntity
  8
ASSI
100
AcDbLine
 62
253
  6
CONTINUOUS
 10
-2.2487877981
 20
50.3834062152
 11
-2.2489324998
 21
49.7368043767
  0
LINE
  5
690
100
AcDbEntity
  8
ASSI
100
AcDbLine
 62
253
  6
CONTINUOUS
 10
-2.2486642372
 20
2.3365036786
 11
-2.2489945176
 21
1.7481293807
  0
LINE
  5
691
100
AcDbEntity
  8
ASSI
100
AcDbLine
 62
253
  6
CONTINUOUS
 10
-2.2485581405
 20
2.3571688638
 11
-2.2486642372
 21
2.3365036786
  0
LINE
  5
692
100
AcDbEntity
  8
ASSI
100
AcDbLine
 62
253
  6
CONTINUOUS
 10
-2.0489687558
 20
2.1583269851
 11
-2.0490194897
 21
2.1461354375
  0
LINE
  5
693
100
AcDbEntity
  8
ASSI
100
AcDbLine
 62
253
  6
CONTINUOUS
 10
-2.248507056
 20
50.446189383
 11
-2.2487877981
 21
50.3834062152
  0
LINE
  5
694
100
AcDbEntity
  8
ASSI
100
AcDbLine
 62
253
  6
CONTINUOUS
 10
-2.0489528357
 20
50.2417736603
 11
-2.0490115705
 21
50.2306005086
  0
LINE
  5
695
100
AcDbEntity
  8
ASSI
100
AcDbLine
 62
253
  6
CONTINUOUS
 10
-2.2483677415
 20
50.4617384366
 11
-2.248507056
 21
50.446189383
  0
LINE
  5
696
100
AcDbEntity
  8
ASSI
100
AcDbLine
 62
253
  6
CONTINUOUS
 10
-2.0488798762
 20
2.1682701153
 11
-2.0489687558
 21
2.1583269851
  0
LINE
  5
697
100
AcDbEntity
  8
ASSI
100
AcDbLine
 62
253
  6
CONTINUOUS
 10
-2.0488502063
 20
50.2518864355
 11
-2.0489528357
 21
50.2417736603
  0
LWPOLYLINE
  5
698
100
AcDbEntity
  8
ASSI
100
AcDbPolyline
 62
253
  6
CONTINUOUS
 90
3
 70
0
 10
-2.0487684159
 20
2.1760705575
 10
-2.0487920422
 20
2.1746711375
 10
-2.0488798762
 20
2.1682701153
  0
LINE
  5
699
100
AcDbEntity
  8
ASSI
100
AcDbLine
 62
253
  6
CONTINUOUS
 10
-2.0487473986
 20
50.2584383608
 11
-2.0488502063
 21
50.2518864355
  0
LINE
  5
69A
100
AcDbEntity
  8
ASSI
100
AcDbLine
 62
253
  6
CONTINUOUS
 10
-2.0486683906
 20
50.2621858535
 11
-2.0487473986
 21
50.2584383608
  0
LINE
  5
69B
100
AcDbEntity
  8
ASSI
100
AcDbLine
 62
7
  6
CONTINUOUS
 10
-3.335
 20
2.8623502692
 11
-3.3481674569
 21
2.4268185294
  0
LINE
  5
69C
100
AcDbEntity
  8
ASSI
100
AcDbLine
 62
7
  6
CONTINUOUS
 10
-1.5524550649
 20
44.4076497308
 11
-1.535
 21
44.985
  0
LINE
  5
69D
100
AcDbEntity
  8
CURVE
100
AcDbLine
 62
253
  6
CONTINUOUS
 10
-2.3225
 20
25.0475
 11
-2.26
 21
25.2975
  0
LINE
  5
69E
100
AcDbEntity
  8
CURVE
100
AcDbLine
 62
253
  6
CONTINUOUS
 10
-2.9475
 20
25.5475
 11
-3.01
 21
25.36
  0
LINE
  5
69F
100
AcDbEntity
  8
CURVE
100
AcDbLine
 62
253
  6
CONTINUOUS
 10
-2.385
 20
24.86
 11
-2.3225
 21
25.0475
  0
LINE
  5
6A0
100
AcDbEntity
  8
CURVE
100
AcDbLine
 62
253
  6
CONTINUOUS
 10
-2.4475
 20
24.735
 11
-2.385
 21
24.86
  0
LWPOLYLINE
  5
6A1
100
AcDbEntity
  8
ASSI
100
AcDbPolyline
 62
7
  6
CONTINUOUS
 90
10
 70
0
 10
-21.1816230298
 20
2.3571687836
 10
-21.1999157123
 20
2.3378559168
 10
-21.2208573721
 20
2.3171331298
 10
-21.243791391
 20
2.2950004224
 10
-21.2679295651
 20
2.2711590326
 10
-21.2928572746
 20
2.2459077225
 10
-21.3186490347
 20
2.2201427787
 10
-21.3451204458
 20
2.1941629637
 10
-21.3717256761
 20
2.167669515
 10
-21.3981293807
 20
2.1406624327
  0
LINE
  5
6A2
100
AcDbEntity
  8
ASSI
100
AcDbLine
 62
7
  6
CONTINUOUS
 10
-21.935
 20
3.585
 11
-21.9218325431
 21
3.5981674569
  0
LINE
  5
6A3
100
AcDbEntity
  8
0
100
AcDbLine
 62
7
  6
CONTINUOUS
 10
-19.2222686779
 20
6.1977313221
 11
-19.135
 21
6.285
  0
LINE
  5
6A4
100
AcDbEntity
  8
ASSI
100
AcDbLine
 62
253
  6
CONTINUOUS
 10
-23.235
 20
1.684969539
 11
-23.2218325431
 21
1.6981369959
  0
LINE
  5
6A5
100
AcDbEntity
  8
ASSI
100
AcDbLine
 62
253
  6
CONTINUOUS
 10
-23.035030461
 20
1.485
 11
-23.0218630041
 21
1.4981674569
  0
LINE
  5
6A6
100
AcDbEntity
  8
CURVE
100
AcDbLine
 62
7
  6
CONTINUOUS
 10
-17.76
 20
35.367444
 11
-18.51
 21
35.367444
  0
LINE
  5
6A7
100
AcDbEntity
  8
CURVE
100
AcDbLine
 62
253
  6
CONTINUOUS
 10
-6.635
 20
35.485
 11
-4.735
 21
35.485
  0
LINE
  5
6A8
100
AcDbEntity
  8
0
100
AcDbLine
 62
7
  6
CONTINUOUS
 10
-9.095
 20
36.485
 11
-12.035
 21
36.485
  0
LINE
  5
6A9
100
AcDbEntity
  8
SMUSSO
100
AcDbLine
 62
7
  6
CONTINUOUS
 10
-12.385
 20
36.735
 11
-8.385
 21
36.735
  0
LINE
  5
6AA
100
AcDbEntity
  8
ASSI
100
AcDbLine
 62
7
  6
CONTINUOUS
 10
-12.385
 20
36.735
 11
-8.385
 21
36.735
  0
LINE
  5
6AB
100
AcDbEntity
  8
CURVE
100
AcDbLine
 62
253
  6
CONTINUOUS
 10
-2.7064285493
 20
36.885
 11
-3.263571412
 21
36.885
  0
LINE
  5
6AC
100
AcDbEntity
  8
CURVE
100
AcDbLine
 62
253
  6
CONTINUOUS
 10
-2.7064285493
 20
31.4373806572
 11
-2.5207142746
 21
31.3445238686
  0
LINE
  5
6AD
100
AcDbEntity
  8
ASSI
100
AcDbLine
 62
7
  6
CONTINUOUS
 10
-21.935
 20
48.385
 11
-21.9218325431
 21
48.3718325431
  0
LINE
  5
6AE
100
AcDbEntity
  8
0
100
AcDbLine
 62
7
  6
CONTINUOUS
 10
-19.2222686779
 20
45.7722686779
 11
-19.135
 21
45.685
  0
LINE
  5
6AF
100
AcDbEntity
  8
ASSI
100
AcDbLine
 62
253
  6
CONTINUOUS
 10
-23.2218325431
 20
50.2718630041
 11
-23.235
 21
50.285030461
  0
LINE
  5
6B0
100
AcDbEntity
  8
CURVE
100
AcDbLine
 62
253
  6
CONTINUOUS
 10
-3.449285706
 20
30.8802380657
 11
-3.635
 21
31.0659522629
  0
LINE
  5
6B1
100
AcDbEntity
  8
ASSI
100
AcDbLine
 62
253
  6
CONTINUOUS
 10
-23.0218630041
 20
50.4718325431
 11
-23.035030461
 21
50.485
  0
LINE
  5
6B2
100
AcDbEntity
  8
CURVE
100
AcDbLine
 62
253
  6
CONTINUOUS
 10
-3.635
 20
31.9945238686
 11
-3.449285706
 21
31.8088096714
  0
LINE
  5
6B3
100
AcDbEntity
  8
CURVE
100
AcDbLine
 62
253
  6
CONTINUOUS
 10
-2.5207142746
 20
31.3445238686
 11
-2.335
 21
31.1588096714
  0
LINE
  5
6B4
100
AcDbEntity
  8
CURVE
100
AcDbLine
 62
253
  6
CONTINUOUS
 10
-2.26
 20
25.4225
 11
-2.3225
 21
25.61
  0
LWPOLYLINE
  5
6B5
100
AcDbEntity
  8
ASSI
100
AcDbPolyline
 62
253
  6
CONTINUOUS
 90
13
 70
0
 10
-2.0481674569
 20
50.2718630041
 10
-2.049885504
 20
50.2979591887
 10
-2.0549943654
 20
50.3236090425
 10
-2.0634066642
 20
50.3483738602
 10
-2.0749785224
 20
50.3718300721
 10
-2.0895120222
 20
50.3935764916
 10
-2.1067585924
 20
50.413241176
 10
-2.1264232585
 20
50.4304877861
 10
-2.1481696842
 20
50.4450213369
 10
-2.171625925
 20
50.4565932467
 10
-2.196390793
 20
50.4650055905
 10
-2.2220407193
 20
50.4701144839
 10
-2.2481369959
 20
50.4718325431
  0
LWPOLYLINE
  5
6B6
100
AcDbEntity
  8
ASSI
100
AcDbPolyline
 62
7
  6
CONTINUOUS
 90
16
 70
0
 10
-1.535
 20
47.8850761524
 10
-1.5376967118
 20
47.9369527996
 10
-1.5458050683
 20
47.9884838189
 10
-1.5593043648
 20
48.039097956
 10
-1.5781925815
 20
48.0884036118
 10
-1.6022834791
 20
48.1356321718
 10
-1.6310199809
 20
48.1797398811
 10
-1.6636857137
 20
48.2199698278
 10
-1.7000637041
 20
48.2563500847
 10
-1.7402920032
 20
48.2890171503
 10
-1.7843978654
 20
48.317753888
 10
-1.8316251286
 20
48.3418441144
 10
-1.8809342164
 20
48.3607291386
 10
-1.9315580957
 20
48.3742214715
 10
-1.9831038022
 20
48.3823188641
 10
-2.0349999354
 20
48.3849999296
  0
LINE
  5
6B7
100
AcDbEntity
  8
ASSI
100
AcDbLine
 62
7
  6
CONTINUOUS
 10
-1.5088140784
 20
44.4076497308
 11
-1.535
 21
44.985
  0
LINE
  5
6B8
100
AcDbEntity
  8
ASSI
100
AcDbLine
 62
253
  6
CONTINUOUS
 10
-2.2485581409
 20
49.6128312164
 11
-2.2332849591
 21
49.1076497308
  0
LINE
  5
6B9
100
AcDbEntity
  8
ASSI
100
AcDbLine
 62
253
  6
CONTINUOUS
 10
-2.048629776
 20
49.787508095
 11
-2.035
 21
49.3365746082
  0
LINE
  5
6BA
100
AcDbEntity
  8
ASSI
100
AcDbLine
 62
253
  6
CONTINUOUS
 10
-2.0487050433
 20
49.7906473132
 11
-2.048629776
 21
49.787508095
  0
LINE
  5
6BB
100
AcDbEntity
  8
ASSI
100
AcDbLine
 62
253
  6
CONTINUOUS
 10
-2.0487707583
 20
49.7940664614
 11
-2.0487050433
 21
49.7906473132
  0
LINE
  5
6BC
100
AcDbEntity
  8
RACCORDO
100
AcDbLine
 62
7
  6
CONTINUOUS
 10
-1.6219096983
 20
7.9937756099
 11
-1.6219096983
 21
43.9762243901
  0
LINE
  5
6BD
100
AcDbEntity
  8
ASSI
100
AcDbLine
 62
7
  6
CONTINUOUS
 10
-1.6219096983
 20
7.9937756099
 11
-1.6219096983
 21
43.9762243901
  0
LINE
  5
6BE
100
AcDbEntity
  8
0
100
AcDbLine
 62
7
  6
CONTINUOUS
 10
-1.6071854545
 20
8.3639118237
 11
-1.6071854545
 21
43.6060881763
  0
LINE
  5
6BF
100
AcDbEntity
  8
RACCORDO
100
AcDbLine
 62
7
  6
CONTINUOUS
 10
-1.6071854545
 20
8.3639118237
 11
-1.6071854545
 21
43.6060881763
  0
LINE
  5
6C0
100
AcDbEntity
  8
ASSI
100
AcDbLine
 62
7
  6
CONTINUOUS
 10
-1.5524550649
 20
47.8676210875
 11
-1.5524550649
 21
44.4076497308
  0
LINE
  5
6C1
100
AcDbEntity
  8
ASSI
100
AcDbLine
 62
7
  6
CONTINUOUS
 10
-1.5524550649
 20
7.5623502692
 11
-1.5524550649
 21
4.1023789125
  0
LINE
  5
6C2
100
AcDbEntity
  8
ASSI
100
AcDbLine
 62
7
  6
CONTINUOUS
 10
-1.535
 20
47.8849997649
 11
-1.535
 21
44.985
  0
LINE
  5
6C3
100
AcDbEntity
  8
ASSI
100
AcDbLine
 62
7
  6
CONTINUOUS
 10
-1.535
 20
4.0850002351
 11
-1.535
 21
6.985
  0
LINE
  5
6C4
100
AcDbEntity
  8
DRAFT
100
AcDbLine
 62
7
  6
CONTINUOUS
 10
-1.5088140784
 20
7.5623502692
 11
-1.5088140784
 21
8.0173982338
  0
LINE
  5
6C5
100
AcDbEntity
  8
DRAFT
100
AcDbLine
 62
7
  6
CONTINUOUS
 10
-1.5088140784
 20
43.9526017662
 11
-1.5088140784
 21
44.4076497308
  0
LINE
  5
6C6
100
AcDbEntity
  8
0
100
AcDbLine
 62
7
  6
CONTINUOUS
 10
-1.485
 20
8.3133009513
 11
-1.485
 21
43.6566990487
  0
LINE
  5
6C7
100
AcDbEntity
  8
RACCORDO
100
AcDbLine
 62
7
  6
CONTINUOUS
 10
-1.485
 20
8.3133009513
 11
-1.485
 21
43.6566990487
  0
LINE
  5
6C8
100
AcDbEntity
  8
ASSI
100
AcDbLine
 62
253
  6
CONTINUOUS
 10
-2.0486947094
 20
2.179831048
 11
-2.0487684159
 21
2.1760705575
  0
LINE
  5
6C9
100
AcDbEntity
  8
ASSI
100
AcDbLine
 62
253
  6
CONTINUOUS
 10
-2.048616015
 20
2.1830197776
 11
-2.0486947094
 21
2.179831048
  0
LINE
  5
6CA
100
AcDbEntity
  8
ASSI
100
AcDbLine
 62
253
  6
CONTINUOUS
 10
-2.2332849591
 20
2.8623502692
 11
-2.2485581385
 21
2.3571688638
  0
LINE
  5
6CB
100
AcDbEntity
  8
ASSI
100
AcDbLine
 62
253
  6
CONTINUOUS
 10
-2.035
 20
2.6334253918
 11
-2.048616015
 21
2.1830197776
  0
LINE
  5
6CC
100
AcDbEntity
  8
ASSI
100
AcDbLine
 62
7
  6
CONTINUOUS
 10
-1.535
 20
6.985
 11
-1.5088140784
 21
7.5623502692
  0
LWPOLYLINE
  5
6CD
100
AcDbEntity
  8
ASSI
100
AcDbPolyline
 62
7
  6
CONTINUOUS
 90
16
 70
0
 10
-1.535
 20
4.0850002351
 10
-1.5376962828
 20
4.0330902092
 10
-1.5458034393
 20
3.9815387933
 10
-1.5592999624
 20
3.9309156474
 10
-1.5781828718
 20
3.8816149458
 10
-1.6022650836
 20
3.8343990441
 10
-1.6309920668
 20
3.7902983975
 10
-1.6636524037
 20
3.7500662619
 10
-1.7000296375
 20
3.7136804484
 10
-1.740259231
 20
3.6810067547
 10
-1.7843683744
 20
3.6522633856
 10
-1.8316018315
 20
3.6281669388
 10
-1.8809174306
 20
3.6092762925
 10
-1.9315470945
 20
3.5957794813
 10
-1.9830985377
 20
3.5876800103
 10
-2.0349999997
 20
3.5850002635
  0
LWPOLYLINE
  5
6CE
100
AcDbEntity
  8
ASSI
100
AcDbPolyline
 62
253
  6
CONTINUOUS
 90
13
 70
0
 10
-2.0481674569
 20
1.6981369959
 10
-2.0498855102
 20
1.6720407645
 10
-2.0549943878
 20
1.6463908739
 10
-2.0634067093
 20
1.621626031
 10
-2.0749785934
 20
1.5981698049
 10
-2.0895121184
 20
1.5764233829
 10
-2.1067587082
 20
1.5567587082
 10
-2.1264233829
 20
1.5395121184
 10
-2.1481698049
 20
1.5249785934
 10
-2.171626031
 20
1.5134067093
 10
-2.1963908739
 20
1.5049943878
 10
-2.2220407645
 20
1.4998855102
 10
-2.2481369959
 20
1.4981674569
  0
LINE
  5
6CF
100
AcDbEntity
  8
0
100
AcDbLine
 62
7
  6
CONTINUOUS
 10
-16.135
 20
6.285
 11
-16.0983443637
 21
6.3216556363
  0
LINE
  5
6D0
100
AcDbEntity
  8
DRAFT
100
AcDbLine
 62
7
  6
CONTINUOUS
 10
-16.135
 20
6.285
 11
-16.0983443637
 21
6.3216556363
  0
LINE
  5
6D1
100
AcDbEntity
  8
0
100
AcDbLine
 62
7
  6
CONTINUOUS
 10
-16.135
 20
6.085
 11
-16.0983443637
 21
6.1216556363
  0
LINE
  5
6D2
100
AcDbEntity
  8
DRAFT
100
AcDbLine
 62
7
  6
CONTINUOUS
 10
-16.135
 20
6.085
 11
-16.0983443637
 21
6.1216556363
  0
LINE
  5
6D3
100
AcDbEntity
  8
RACCORDO
100
AcDbLine
 62
7
  6
CONTINUOUS
 10
-17.085
 20
3.585
 11
-16.9875812355
 21
3.6824187645
  0
LINE
  5
6D4
100
AcDbEntity
  8
0
100
AcDbLine
 62
253
  6
CONTINUOUS
 10
-23.785
 20
8.3133009513
 11
-23.6628145455
 21
8.3639118237
  0
LINE
  5
6D5
100
AcDbEntity
  8
RACCORDO
100
AcDbLine
 62
253
  6
CONTINUOUS
 10
-23.785
 20
8.3133009513
 11
-23.6628145455
 21
8.3639118237
  0
LINE
  5
6D6
100
AcDbEntity
  8
RACCORDO
100
AcDbLine
 62
7
  6
CONTINUOUS
 10
-23.3480788782
 20
37.135
 11
-22.435
 21
37.135
  0
LINE
  5
6D7
100
AcDbEntity
  8
ASSI
100
AcDbLine
 62
7
  6
CONTINUOUS
 10
-23.3480788782
 20
37.135
 11
-22.435
 21
37.135
  0
LINE
  5
6D8
100
AcDbEntity
  8
SMUSSO
100
AcDbLine
 62
7
  6
CONTINUOUS
 10
-12.885
 20
37.235
 11
-7.885
 21
37.235
  0
LINE
  5
6D9
100
AcDbEntity
  8
ASSI
100
AcDbLine
 62
7
  6
CONTINUOUS
 10
-12.885
 20
37.235
 11
-7.885
 21
37.235
  0
LINE
  5
6DA
100
AcDbEntity
  8
CURVE
100
AcDbLine
 62
253
  6
CONTINUOUS
 10
-3.263571412
 20
37.535
 11
-2.7064285493
 21
37.535
  0
LINE
  5
6DB
100
AcDbEntity
  8
SMUSSO
100
AcDbLine
 62
7
  6
CONTINUOUS
 10
-7.885
 20
37.735
 11
-12.885
 21
37.735
  0
LINE
  5
6DC
100
AcDbEntity
  8
ASSI
100
AcDbLine
 62
7
  6
CONTINUOUS
 10
-7.885
 20
37.735
 11
-12.885
 21
37.735
  0
LINE
  5
6DD
100
AcDbEntity
  8
RACCORDO
100
AcDbLine
 62
7
  6
CONTINUOUS
 10
-23.3480788782
 20
37.835
 11
-22.435
 21
37.835
  0
LINE
  5
6DE
100
AcDbEntity
  8
ASSI
100
AcDbLine
 62
7
  6
CONTINUOUS
 10
-23.3480788782
 20
37.835
 11
-22.435
 21
37.835
  0
LINE
  5
6DF
100
AcDbEntity
  8
CURVE
100
AcDbLine
 62
253
  6
CONTINUOUS
 10
-3.542142853
 20
37.9064285493
 11
-3.0778571373
 21
37.9064285493
  0
LINE
  5
6E0
100
AcDbEntity
  8
CURVE
100
AcDbLine
 62
253
  6
CONTINUOUS
 10
-2.7992857254
 20
37.9373809671
 11
-2.5207142746
 21
37.9373809671
  0
LINE
  5
6E1
100
AcDbEntity
  8
SMUSSO
100
AcDbLine
 62
7
  6
CONTINUOUS
 10
-8.385
 20
38.235
 11
-12.385
 21
38.235
  0
LINE
  5
6E2
100
AcDbEntity
  8
ASSI
100
AcDbLine
 62
7
  6
CONTINUOUS
 10
-8.385
 20
38.235
 11
-12.385
 21
38.235
  0
LINE
  5
6E3
100
AcDbEntity
  8
0
100
AcDbLine
 62
7
  6
CONTINUOUS
 10
-12.035
 20
38.485
 11
-9.095
 21
38.485
  0
LINE
  5
6E4
100
AcDbEntity
  8
CURVE
100
AcDbLine
 62
253
  6
CONTINUOUS
 10
-3.635
 20
36.1421429014
 11
-2.335
 21
35.7707141972
  0
LINE
  5
6E5
100
AcDbEntity
  8
0
100
AcDbLine
 62
253
  6
CONTINUOUS
 10
-23.6628145455
 20
43.6060881763
 11
-23.785
 21
43.6566990487
  0
LINE
  5
6E6
100
AcDbEntity
  8
RACCORDO
100
AcDbLine
 62
253
  6
CONTINUOUS
 10
-23.6628145455
 20
43.6060881763
 11
-23.785
 21
43.6566990487
  0
LWPOLYLINE
  5
6E7
100
AcDbEntity
  8
ASSI
100
AcDbPolyline
 62
7
  6
CONTINUOUS
 90
10
 70
0
 10
-21.1816230298
 20
49.6128312164
 10
-21.2009358966
 20
49.6311238988
 10
-21.2216586836
 20
49.6520655587
 10
-21.243791391
 20
49.6749995776
 10
-21.2676327808
 20
49.6991377517
 10
-21.2928840909
 20
49.7240654611
 10
-21.3186490347
 20
49.7498572213
 10
-21.3446288497
 20
49.7763286324
 10
-21.3711222984
 20
49.8029338627
 10
-21.3981293807
 20
49.8293375673
  0
LINE
  5
6E8
100
AcDbEntity
  8
CURVE
100
AcDbLine
 62
253
  6
CONTINUOUS
 10
-5.5492856658
 20
34.535
 11
-5.8207142776
 21
34.8064285553
  0
LINE
  5
6E9
100
AcDbEntity
  8
SMUSSO
100
AcDbLine
 62
7
  6
CONTINUOUS
 10
-12.885
 20
42.235
 11
-12.385
 21
41.735
  0
LINE
  5
6EA
100
AcDbEntity
  8
ASSI
100
AcDbLine
 62
7
  6
CONTINUOUS
 10
-12.885
 20
42.235
 11
-12.385
 21
41.735
  0
LINE
  5
6EB
100
AcDbEntity
  8
0
100
AcDbLine
 62
7
  6
CONTINUOUS
 10
-16.135
 20
45.685
 11
-16.0983443637
 21
45.6483443637
  0
LINE
  5
6EC
100
AcDbEntity
  8
DRAFT
100
AcDbLine
 62
7
  6
CONTINUOUS
 10
-16.135
 20
45.685
 11
-16.0983443637
 21
45.6483443637
  0
LINE
  5
6ED
100
AcDbEntity
  8
0
100
AcDbLine
 62
7
  6
CONTINUOUS
 10
-16.0983443637
 20
45.8483443637
 11
-16.135
 21
45.885
  0
LINE
  5
6EE
100
AcDbEntity
  8
DRAFT
100
AcDbLine
 62
7
  6
CONTINUOUS
 10
-16.0983443637
 20
45.8483443637
 11
-16.135
 21
45.885
  0
LINE
  5
6EF
100
AcDbEntity
  8
SMUSSO
100
AcDbLine
 62
7
  6
CONTINUOUS
 10
-7.885
 20
37.735
 11
-8.385
 21
38.235
  0
LINE
  5
6F0
100
AcDbEntity
  8
ASSI
100
AcDbLine
 62
7
  6
CONTINUOUS
 10
-7.885
 20
37.735
 11
-8.385
 21
38.235
  0
LINE
  5
6F1
100
AcDbEntity
  8
RACCORDO
100
AcDbLine
 62
7
  6
CONTINUOUS
 10
-17.085
 20
48.385
 11
-16.9875812355
 21
48.2875812355
  0
LINE
  5
6F2
100
AcDbEntity
  8
CURVE
100
AcDbLine
 62
253
  6
CONTINUOUS
 10
-3.2326190329
 20
35.3992858028
 11
-3.1397618955
 21
35.1826190329
  0
LINE
  5
6F3
100
AcDbEntity
  8
CURVE
100
AcDbLine
 62
253
  6
CONTINUOUS
 10
-3.3254761896
 20
34.935
 11
-3.2326190329
 21
34.6873809671
  0
LINE
  5
6F4
100
AcDbEntity
  8
ASSI
100
AcDbLine
 62
7
  6
CONTINUOUS
 10
-5.3337766573
 20
3.7598552822
 11
-5.3798865899
 21
3.6024550649
  0
LINE
  5
6F5
100
AcDbEntity
  8
RACCORDO
100
AcDbLine
 62
253
  6
CONTINUOUS
 10
-16.9875812355
 20
2.3323806883
 11
-17.085
 21
2.2349619238
  0
LINE
  5
6F6
100
AcDbEntity
  8
RACCORDO
100
AcDbLine
 62
253
  6
CONTINUOUS
 10
-16.7376193117
 20
2.0824187645
 11
-16.8350380762
 21
1.985
  0
LWPOLYLINE
  5
6F7
100
AcDbEntity
  8
0
100
AcDbPolyline
 62
253
  6
CONTINUOUS
 90
3
 70
0
 10
-14.5283221907
 20
8.6401858291
 10
-14.4852766567
 20
8.6672359601
 10
-14.4377519366
 20
8.6870984562
  0
LWPOLYLINE
  5
6F8
100
AcDbEntity
  8
RACCORDO
100
AcDbPolyline
 62
253
  6
CONTINUOUS
 90
3
 70
0
 10
-14.5283221907
 20
8.6401858291
 10
-14.4852766567
 20
8.6672359601
 10
-14.4377519366
 20
8.6870984562
  0
LINE
  5
6F9
100
AcDbEntity
  8
0
100
AcDbLine
 62
253
  6
CONTINUOUS
 10
-23.1993027805
 20
6.8993027805
 11
-23.077117326
 21
6.9499136529
  0
LINE
  5
6FA
100
AcDbEntity
  8
RACCORDO
100
AcDbLine
 62
253
  6
CONTINUOUS
 10
-23.1993027805
 20
6.8993027805
 11
-23.077117326
 21
6.9499136529
  0
LINE
  5
6FB
100
AcDbEntity
  8
CURVE
100
AcDbLine
 62
253
  6
CONTINUOUS
 10
-2.7064285493
 20
38.835
 11
-2.5207142746
 21
38.835
  0
LINE
  5
6FC
100
AcDbEntity
  8
CURVE
100
AcDbLine
 62
7
  6
CONTINUOUS
 10
-15.58696
 20
39.352554
 11
-16.33778
 21
39.352554
  0
LINE
  5
6FD
100
AcDbEntity
  8
CURVE
100
AcDbLine
 62
7
  6
CONTINUOUS
 10
-19.93222
 20
39.352554
 11
-20.68304
 21
39.352554
  0
LINE
  5
6FE
100
AcDbEntity
  8
CURVE
100
AcDbLine
 62
253
  6
CONTINUOUS
 10
-4.735
 20
40.285
 11
-6.635
 21
40.285
  0
LINE
  5
6FF
100
AcDbEntity
  8
0
100
AcDbLine
 62
253
  6
CONTINUOUS
 10
-22.4945407725
 20
40.5505503016
 11
-22.435
 21
40.5505503016
  0
LINE
  5
700
100
AcDbEntity
  8
RACCORDO
100
AcDbLine
 62
253
  6
CONTINUOUS
 10
-22.4945407725
 20
40.5505503016
 11
-22.435
 21
40.5505503016
  0
LINE
  5
701
100
AcDbEntity
  8
0
100
AcDbLine
 62
253
  6
CONTINUOUS
 10
-23.077117326
 20
45.0200863471
 11
-23.1993027805
 21
45.0706972195
  0
LINE
  5
702
100
AcDbEntity
  8
RACCORDO
100
AcDbLine
 62
253
  6
CONTINUOUS
 10
-23.077117326
 20
45.0200863471
 11
-23.1993027805
 21
45.0706972195
  0
LINE
  5
703
100
AcDbEntity
  8
CURVE
100
AcDbLine
 62
253
  6
CONTINUOUS
 10
-3.263571412
 20
36.885
 11
-3.449285706
 21
36.9778570986
  0
LWPOLYLINE
  5
704
100
AcDbEntity
  8
0
100
AcDbPolyline
 62
253
  6
CONTINUOUS
 90
4
 70
0
 10
-14.5283221907
 20
43.3298141709
 10
-14.4852766567
 20
43.3027640399
 10
-14.4377519366
 20
43.2829015438
 10
-14.3871424653
 20
43.270755926
  0
LWPOLYLINE
  5
705
100
AcDbEntity
  8
RACCORDO
100
AcDbPolyline
 62
253
  6
CONTINUOUS
 90
4
 70
0
 10
-14.5283221907
 20
43.3298141709
 10
-14.4852766567
 20
43.3027640399
 10
-14.4377519366
 20
43.2829015438
 10
-14.3871424653
 20
43.270755926
  0
LINE
  5
706
100
AcDbEntity
  8
RACCORDO
100
AcDbLine
 62
253
  6
CONTINUOUS
 10
-17.085
 20
49.7350380762
 11
-16.9875812355
 21
49.6376193117
  0
LINE
  5
707
100
AcDbEntity
  8
RACCORDO
100
AcDbLine
 62
253
  6
CONTINUOUS
 10
-16.8350380762
 20
49.985
 11
-16.7376193117
 21
49.8875812355
  0
LINE
  5
708
100
AcDbEntity
  8
CURVE
100
AcDbLine
 62
253
  6
CONTINUOUS
 10
-3.449285706
 20
36.9778570986
 11
-3.635
 21
37.1635714507
  0
LINE
  5
709
100
AcDbEntity
  8
CURVE
100
AcDbLine
 62
253
  6
CONTINUOUS
 10
-2.8921428239
 20
38.0921429014
 11
-2.7992857254
 21
37.9373809671
  0
LINE
  5
70A
100
AcDbEntity
  8
ASSI
100
AcDbLine
 62
7
  6
CONTINUOUS
 10
-5.3337766573
 20
48.2101447178
 11
-5.3798865899
 21
48.3675449351
  0
LINE
  5
70B
100
AcDbEntity
  8
0
100
AcDbLine
 62
253
  6
CONTINUOUS
 10
-22.4936133199
 20
40.8505046102
 11
-22.435
 21
40.8505046102
  0
LINE
  5
70C
100
AcDbEntity
  8
RACCORDO
100
AcDbLine
 62
253
  6
CONTINUOUS
 10
-22.4936133199
 20
40.8505046102
 11
-22.435
 21
40.8505046102
  0
LINE
  5
70D
100
AcDbEntity
  8
0
100
AcDbLine
 62
7
  6
CONTINUOUS
 10
-22.4935665218
 20
40.8628145455
 11
-22.435
 21
40.8628145455
  0
LINE
  5
70E
100
AcDbEntity
  8
RACCORDO
100
AcDbLine
 62
7
  6
CONTINUOUS
 10
-22.4935665218
 20
40.8628145455
 11
-22.435
 21
40.8628145455
  0
LINE
  5
70F
100
AcDbEntity
  8
0
100
AcDbLine
 62
7
  6
CONTINUOUS
 10
-9.095
 20
41.485
 11
-12.035
 21
41.485
  0
LINE
  5
710
100
AcDbEntity
  8
SMUSSO
100
AcDbLine
 62
7
  6
CONTINUOUS
 10
-12.385
 20
41.735
 11
-8.385
 21
41.735
  0
LINE
  5
711
100
AcDbEntity
  8
ASSI
100
AcDbLine
 62
7
  6
CONTINUOUS
 10
-12.385
 20
41.735
 11
-8.385
 21
41.735
  0
LINE
  5
712
100
AcDbEntity
  8
RACCORDO
100
AcDbLine
 62
7
  6
CONTINUOUS
 10
-23.3480788782
 20
42.135
 11
-22.435
 21
42.135
  0
LINE
  5
713
100
AcDbEntity
  8
ASSI
100
AcDbLine
 62
7
  6
CONTINUOUS
 10
-23.3480788782
 20
42.135
 11
-22.435
 21
42.135
  0
LINE
  5
714
100
AcDbEntity
  8
SMUSSO
100
AcDbLine
 62
7
  6
CONTINUOUS
 10
-12.885
 20
42.235
 11
-7.885
 21
42.235
  0
LINE
  5
715
100
AcDbEntity
  8
ASSI
100
AcDbLine
 62
7
  6
CONTINUOUS
 10
-12.885
 20
42.235
 11
-7.885
 21
42.235
  0
LINE
  5
716
100
AcDbEntity
  8
CURVE
100
AcDbLine
 62
253
  6
CONTINUOUS
 10
-2.7064285493
 20
37.535
 11
-2.5207142746
 21
37.4421429014
  0
LINE
  5
717
100
AcDbEntity
  8
CURVE
100
AcDbLine
 62
253
  6
CONTINUOUS
 10
-3.635
 20
39.485
 11
-2.7064285493
 21
38.835
  0
LINE
  5
718
100
AcDbEntity
  8
CURVE
100
AcDbLine
 62
253
  6
CONTINUOUS
 10
-3.635
 20
37.9992856479
 11
-3.542142853
 21
37.9064285493
  0
LINE
  5
719
100
AcDbEntity
  8
CURVE
100
AcDbLine
 62
253
  6
CONTINUOUS
 10
-2.5207142746
 20
37.4421429014
 11
-2.335
 21
37.2564285493
  0
LINE
  5
71A
100
AcDbEntity
  8
RACCORDO
100
AcDbLine
 62
253
  6
CONTINUOUS
 10
-11.8175449351
 20
2.2524169887
 11
-11.835
 21
2.2349619238
  0
LINE
  5
71B
100
AcDbEntity
  8
RACCORDO
100
AcDbLine
 62
253
  6
CONTINUOUS
 10
-11.5675830113
 20
2.0024550649
 11
-11.5850380762
 21
1.985
  0
LINE
  5
71C
100
AcDbEntity
  8
0
100
AcDbLine
 62
253
  6
CONTINUOUS
 10
-10.8828575347
 20
43.270755926
 11
-10.935
 21
43.2666718427
  0
LINE
  5
71D
100
AcDbEntity
  8
RACCORDO
100
AcDbLine
 62
253
  6
CONTINUOUS
 10
-10.8828575347
 20
43.270755926
 11
-10.935
 21
43.2666718427
  0
LINE
  5
71E
100
AcDbEntity
  8
0
100
AcDbLine
 62
7
  6
CONTINUOUS
 10
-10.135
 20
42.585
 11
-15.135
 21
42.585
  0
LINE
  5
71F
100
AcDbEntity
  8
ASSI
100
AcDbLine
 62
7
  6
CONTINUOUS
 10
-10.135
 20
42.585
 11
-15.135
 21
42.585
  0
LINE
  5
720
100
AcDbEntity
  8
0
100
AcDbLine
 62
7
  6
CONTINUOUS
 10
-14.335
 20
43.235
 11
-10.935
 21
43.235
  0
LINE
  5
721
100
AcDbEntity
  8
RACCORDO
100
AcDbLine
 62
7
  6
CONTINUOUS
 10
-14.335
 20
43.235
 11
-10.935
 21
43.235
  0
LINE
  5
722
100
AcDbEntity
  8
0
100
AcDbLine
 62
253
  6
CONTINUOUS
 10
-14.335
 20
43.2666718427
 11
-10.935
 21
43.2666718427
  0
LINE
  5
723
100
AcDbEntity
  8
RACCORDO
100
AcDbLine
 62
253
  6
CONTINUOUS
 10
-14.335
 20
43.2666718427
 11
-10.935
 21
43.2666718427
  0
LINE
  5
724
100
AcDbEntity
  8
RACCORDO
100
AcDbLine
 62
7
  6
CONTINUOUS
 10
-11.0310069692
 20
43.285
 11
-14.2389930308
 21
43.285
  0
LINE
  5
725
100
AcDbEntity
  8
ASSI
100
AcDbLine
 62
7
  6
CONTINUOUS
 10
-11.0310069692
 20
43.285
 11
-14.2389930308
 21
43.285
  0
LINE
  5
726
100
AcDbEntity
  8
ASSI
100
AcDbLine
 62
7
  6
CONTINUOUS
 10
-10.135
 20
43.485
 11
-15.135
 21
43.485
  0
LINE
  5
727
100
AcDbEntity
  8
0
100
AcDbLine
 62
253
  6
CONTINUOUS
 10
-14.3871424653
 20
43.270755926
 11
-14.335
 21
43.2666718427
  0
LINE
  5
728
100
AcDbEntity
  8
RACCORDO
100
AcDbLine
 62
253
  6
CONTINUOUS
 10
-14.3871424653
 20
43.270755926
 11
-14.335
 21
43.2666718427
  0
LINE
  5
729
100
AcDbEntity
  8
CURVE
100
AcDbLine
 62
253
  6
CONTINUOUS
 10
-2.335
 20
39.299285706
 11
-2.6135714507
 21
39.485
  0
LINE
  5
72A
100
AcDbEntity
  8
RACCORDO
100
AcDbLine
 62
253
  6
CONTINUOUS
 10
-11.835
 20
49.7350380762
 11
-11.8175449351
 21
49.7175830113
  0
LINE
  5
72B
100
AcDbEntity
  8
RACCORDO
100
AcDbLine
 62
253
  6
CONTINUOUS
 10
-11.5850380762
 20
49.985
 11
-11.5675830113
 21
49.9675449351
  0
LWPOLYLINE
  5
72C
100
AcDbEntity
  8
ASSI
100
AcDbPolyline
 62
253
  6
CONTINUOUS
 90
10
 70
0
 10
-5.4218325431
 20
50.2718630041
 10
-5.4217903534
 20
50.2717792194
 10
-5.4217473531
 20
50.2715525602
 10
-5.4217035422
 20
50.2711830263
 10
-5.4216586457
 20
50.2706766174
 10
-5.4216129386
 20
50.270027334
 10
-5.4215672459
 20
50.2692171768
 10
-5.4215215494
 20
50.2682405102
 10
-5.4214758673
 20
50.2671029699
 10
-5.4214310799
 20
50.2658034644
  0
LINE
  5
72D
100
AcDbEntity
  8
0
100
AcDbLine
 62
7
  6
CONTINUOUS
 10
-7.5095506493
 20
4.9104493507
 11
-7.335
 21
5.085
  0
LINE
  5
72E
100
AcDbEntity
  8
0
100
AcDbLine
 62
7
  6
CONTINUOUS
 10
-5.4222686779
 20
6.1977313221
 11
-5.335
 21
6.285
  0
LINE
  5
72F
100
AcDbEntity
  8
0
100
AcDbLine
 62
7
  6
CONTINUOUS
 10
-5.235
 20
6.285
 11
-5.1983443637
 21
6.3216556363
  0
LINE
  5
730
100
AcDbEntity
  8
DRAFT
100
AcDbLine
 62
7
  6
CONTINUOUS
 10
-5.235
 20
6.285
 11
-5.1983443637
 21
6.3216556363
  0
LINE
  5
731
100
AcDbEntity
  8
ASSI
100
AcDbLine
 62
7
  6
CONTINUOUS
 10
-5.335
 20
5.085
 11
-5.4222686779
 21
4.9977313221
  0
LINE
  5
732
100
AcDbEntity
  8
0
100
AcDbLine
 62
7
  6
CONTINUOUS
 10
-10.4885533906
 20
44.2175400167
 11
-10.1344382544
 21
44.2206303326
  0
LINE
  5
733
100
AcDbEntity
  8
RACCORDO
100
AcDbLine
 62
7
  6
CONTINUOUS
 10
-10.4885533906
 20
44.2175400167
 11
-10.1344382544
 21
44.2206303326
  0
LWPOLYLINE
  5
734
100
AcDbEntity
  8
0
100
AcDbPolyline
 62
7
  6
CONTINUOUS
 90
12
 70
0
 10
-11.0106035386
 20
45.8696288165
 10
-10.8927317104
 20
45.8700092905
 10
-10.7798602807
 20
45.8706281018
 10
-10.6705044982
 20
45.8715000664
 10
-10.5661491141
 20
45.8726103683
 10
-10.4712483817
 20
45.8739145591
 10
-10.3861802974
 20
45.8754245811
 10
-10.3105668649
 20
45.8771284921
 10
-10.2477283489
 20
45.878946017
 10
-10.1987715042
 20
45.8808503974
 10
-10.1625895761
 20
45.8828683918
 10
-10.1391825645
 20
45.885
  0
LINE
  5
735
100
AcDbEntity
  8
ASSI
100
AcDbLine
 62
7
  6
CONTINUOUS
 10
-10.135
 20
44.185
 11
-15.135
 21
44.185
  0
LINE
  5
736
100
AcDbEntity
  8
RACCORDO
100
AcDbLine
 62
7
  6
CONTINUOUS
 10
-22.0262243901
 20
44.1980903017
 11
-16.9480788786
 21
44.1980903017
  0
LINE
  5
737
100
AcDbEntity
  8
ASSI
100
AcDbLine
 62
7
  6
CONTINUOUS
 10
-22.0262243901
 20
44.1980903017
 11
-16.9480788786
 21
44.1980903017
  0
LINE
  5
738
100
AcDbEntity
  8
0
100
AcDbLine
 62
7
  6
CONTINUOUS
 10
-21.235
 20
44.2424425998
 11
-20.0891107013
 21
44.2424425998
  0
LINE
  5
739
100
AcDbEntity
  8
DRAFT
100
AcDbLine
 62
7
  6
CONTINUOUS
 10
-21.235
 20
44.2424425998
 11
-20.0891107013
 21
44.2424425998
  0
LINE
  5
73A
100
AcDbEntity
  8
0
100
AcDbLine
 62
7
  6
CONTINUOUS
 10
-16.7782823548
 20
44.2511694676
 11
-20.0716556363
 21
44.2511694676
  0
LINE
  5
73B
100
AcDbEntity
  8
DRAFT
100
AcDbLine
 62
7
  6
CONTINUOUS
 10
-16.7782823548
 20
44.2511694676
 11
-20.0716556363
 21
44.2511694676
  0
LINE
  5
73C
100
AcDbEntity
  8
0
100
AcDbLine
 62
7
  6
CONTINUOUS
 10
-21.235
 20
44.2511694676
 11
-21.9011885061
 21
44.2511694676
  0
LINE
  5
73D
100
AcDbEntity
  8
RACCORDO
100
AcDbLine
 62
7
  6
CONTINUOUS
 10
-21.235
 20
44.2511694676
 11
-21.9011885061
 21
44.2511694676
  0
LINE
  5
73E
100
AcDbEntity
  8
0
100
AcDbLine
 62
7
  6
CONTINUOUS
 10
-15.135
 20
44.285
 11
-10.135
 21
44.285
  0
LINE
  5
73F
100
AcDbEntity
  8
ASSI
100
AcDbLine
 62
7
  6
CONTINUOUS
 10
-15.135
 20
44.285
 11
-10.135
 21
44.285
  0
LINE
  5
740
100
AcDbEntity
  8
ASSI
100
AcDbLine
 62
7
  6
CONTINUOUS
 10
-23.7611859216
 20
44.4076497308
 11
-23.7175449351
 21
44.4076497308
  0
LINE
  5
741
100
AcDbEntity
  8
ASSI
100
AcDbLine
 62
7
  6
CONTINUOUS
 10
-1.5088140784
 20
44.4076497308
 11
-1.5524550649
 21
44.4076497308
  0
LINE
  5
742
100
AcDbEntity
  8
RACCORDO
100
AcDbLine
 62
7
  6
CONTINUOUS
 10
-3.2437756099
 20
45.5980903017
 11
-16.3481017248
 21
45.5980903017
  0
LINE
  5
743
100
AcDbEntity
  8
ASSI
100
AcDbLine
 62
7
  6
CONTINUOUS
 10
-3.2437756099
 20
45.5980903017
 11
-16.3481017248
 21
45.5980903017
  0
LINE
  5
744
100
AcDbEntity
  8
0
100
AcDbLine
 62
7
  6
CONTINUOUS
 10
-5.1983443637
 20
45.6483443637
 11
-9.1716556363
 21
45.6483443637
  0
LINE
  5
745
100
AcDbEntity
  8
DRAFT
100
AcDbLine
 62
7
  6
CONTINUOUS
 10
-5.1983443637
 20
45.6483443637
 11
-9.1716556363
 21
45.6483443637
  0
LINE
  5
746
100
AcDbEntity
  8
0
100
AcDbLine
 62
7
  6
CONTINUOUS
 10
-16.0983443637
 20
45.6483443637
 11
-20.0716556363
 21
45.6483443637
  0
LINE
  5
747
100
AcDbEntity
  8
DRAFT
100
AcDbLine
 62
7
  6
CONTINUOUS
 10
-16.0983443637
 20
45.6483443637
 11
-20.0716556363
 21
45.6483443637
  0
LINE
  5
748
100
AcDbEntity
  8
0
100
AcDbLine
 62
7
  6
CONTINUOUS
 10
-5.235
 20
45.685
 11
-9.135
 21
45.685
  0
LINE
  5
749
100
AcDbEntity
  8
DRAFT
100
AcDbLine
 62
7
  6
CONTINUOUS
 10
-5.235
 20
45.685
 11
-9.135
 21
45.685
  0
LINE
  5
74A
100
AcDbEntity
  8
0
100
AcDbLine
 62
7
  6
CONTINUOUS
 10
-16.135
 20
45.685
 11
-20.035
 21
45.685
  0
LINE
  5
74B
100
AcDbEntity
  8
DRAFT
100
AcDbLine
 62
7
  6
CONTINUOUS
 10
-16.135
 20
45.685
 11
-20.035
 21
45.685
  0
LINE
  5
74C
100
AcDbEntity
  8
ASSI
100
AcDbLine
 62
7
  6
CONTINUOUS
 10
-19.8477313221
 20
45.7722686779
 11
-19.2222686779
 21
45.7722686779
  0
LINE
  5
74D
100
AcDbEntity
  8
ASSI
100
AcDbLine
 62
7
  6
CONTINUOUS
 10
-6.0477313221
 20
45.7722686779
 11
-5.4222686779
 21
45.7722686779
  0
LINE
  5
74E
100
AcDbEntity
  8
0
100
AcDbLine
 62
7
  6
CONTINUOUS
 10
-9.1716556363
 20
45.8483443637
 11
-16.0983443637
 21
45.8483443637
  0
LINE
  5
74F
100
AcDbEntity
  8
DRAFT
100
AcDbLine
 62
7
  6
CONTINUOUS
 10
-9.1716556363
 20
45.8483443637
 11
-16.0983443637
 21
45.8483443637
  0
LINE
  5
750
100
AcDbEntity
  8
0
100
AcDbLine
 62
7
  6
CONTINUOUS
 10
-11.0106035386
 20
45.8696288165
 11
-14.1365242349
 21
45.8694866796
  0
LINE
  5
751
100
AcDbEntity
  8
0
100
AcDbLine
 62
7
  6
CONTINUOUS
 10
-9.135
 20
45.885
 11
-10.1405217198
 21
45.885
  0
LINE
  5
752
100
AcDbEntity
  8
0
100
AcDbLine
 62
7
  6
CONTINUOUS
 10
-15.1294782802
 20
45.885
 11
-16.135
 21
45.885
  0
LWPOLYLINE
  5
753
100
AcDbEntity
  8
0
100
AcDbPolyline
 62
7
  6
CONTINUOUS
 90
13
 70
0
 10
-14.1365242349
 20
45.8694866796
 10
-14.2593964614
 20
45.8696288165
 10
-14.3772682896
 20
45.8700092905
 10
-14.4901397193
 20
45.8706281018
 10
-14.5994955018
 20
45.8715000664
 10
-14.7038508859
 20
45.8726103683
 10
-14.7987516183
 20
45.8739145591
 10
-14.8838197026
 20
45.8754245811
 10
-14.9594331351
 20
45.8771284921
 10
-15.0222716511
 20
45.878946017
 10
-15.0712284958
 20
45.8808503974
 10
-15.1074104239
 20
45.8828683918
 10
-15.1308174355
 20
45.885
  0
LINE
  5
754
100
AcDbEntity
  8
0
100
AcDbLine
 62
7
  6
CONTINUOUS
 10
-14.7814466094
 20
44.2175400167
 11
-15.1355617456
 21
44.2206303326
  0
LINE
  5
755
100
AcDbEntity
  8
RACCORDO
100
AcDbLine
 62
7
  6
CONTINUOUS
 10
-14.7814466094
 20
44.2175400167
 11
-15.1355617456
 21
44.2206303326
  0
LINE
  5
756
100
AcDbEntity
  8
0
100
AcDbLine
 62
7
  6
CONTINUOUS
 10
-7.5095506493
 20
47.0595506493
 11
-7.335
 21
46.885
  0
LINE
  5
757
100
AcDbEntity
  8
0
100
AcDbLine
 62
7
  6
CONTINUOUS
 10
-5.4222686779
 20
45.7722686779
 11
-5.335
 21
45.685
  0
LINE
  5
758
100
AcDbEntity
  8
0
100
AcDbLine
 62
7
  6
CONTINUOUS
 10
-5.235
 20
45.685
 11
-5.1983443637
 21
45.6483443637
  0
LINE
  5
759
100
AcDbEntity
  8
DRAFT
100
AcDbLine
 62
7
  6
CONTINUOUS
 10
-5.235
 20
45.685
 11
-5.1983443637
 21
45.6483443637
  0
LINE
  5
75A
100
AcDbEntity
  8
ASSI
100
AcDbLine
 62
7
  6
CONTINUOUS
 10
-5.335
 20
46.885
 11
-5.4222686779
 21
46.9722686779
  0
LINE
  5
75B
100
AcDbEntity
  8
RACCORDO
100
AcDbLine
 62
7
  6
CONTINUOUS
 10
-2.6446883272
 20
6.5716092348
 11
-2.8339156123
 21
6.3823820565
  0
LINE
  5
75C
100
AcDbEntity
  8
ASSI
100
AcDbLine
 62
7
  6
CONTINUOUS
 10
-2.6446883272
 20
6.5716092348
 11
-2.8339156123
 21
6.3823820565
  0
LINE
  5
75D
100
AcDbEntity
  8
RACCORDO
100
AcDbLine
 62
7
  6
CONTINUOUS
 10
-1.9147917647
 20
7.2866957532
 11
-2.5366957532
 21
6.6647917647
  0
LINE
  5
75E
100
AcDbEntity
  8
ASSI
100
AcDbLine
 62
7
  6
CONTINUOUS
 10
-1.9147917647
 20
7.2866957532
 11
-2.5366957532
 21
6.6647917647
  0
LINE
  5
75F
100
AcDbEntity
  8
0
100
AcDbLine
 62
7
  6
CONTINUOUS
 10
-4.0077963269
 20
5.135
 11
-2.192882674
 21
6.9499136529
  0
LINE
  5
760
100
AcDbEntity
  8
RACCORDO
100
AcDbLine
 62
7
  6
CONTINUOUS
 10
-4.0077963269
 20
5.135
 11
-2.192882674
 21
6.9499136529
  0
LINE
  5
761
100
AcDbEntity
  8
ASSI
100
AcDbLine
 62
7
  6
CONTINUOUS
 10
-4.4024550649
 20
4.5798865899
 11
-5.3798865899
 21
3.6024550649
  0
LINE
  5
762
100
AcDbEntity
  8
0
100
AcDbLine
 62
7
  6
CONTINUOUS
 10
-3.835
 20
5.135
 11
-2.0706972195
 21
6.8993027805
  0
LINE
  5
763
100
AcDbEntity
  8
RACCORDO
100
AcDbLine
 62
7
  6
CONTINUOUS
 10
-3.835
 20
5.135
 11
-2.0706972195
 21
6.8993027805
  0
LINE
  5
764
100
AcDbEntity
  8
0
100
AcDbLine
 62
7
  6
CONTINUOUS
 10
-7.335
 20
5.985
 11
-7.5095506493
 21
5.8977313221
  0
LINE
  5
765
100
AcDbEntity
  8
DRAFT
100
AcDbLine
 62
7
  6
CONTINUOUS
 10
-5.235
 20
45.985
 11
-5.335
 21
45.985
  0
LINE
  5
766
100
AcDbEntity
  8
0
100
AcDbLine
 62
7
  6
CONTINUOUS
 10
-7.335
 20
45.985
 11
-10.1356478189
 21
45.985
  0
LINE
  5
767
100
AcDbEntity
  8
0
100
AcDbLine
 62
7
  6
CONTINUOUS
 10
-15.1343521811
 20
45.985
 11
-17.935
 21
45.985
  0
LINE
  5
768
100
AcDbEntity
  8
DRAFT
100
AcDbLine
 62
7
  6
CONTINUOUS
 10
-19.935
 20
45.985
 11
-20.035
 21
45.985
  0
LINE
  5
769
100
AcDbEntity
  8
RACCORDO
100
AcDbLine
 62
7
  6
CONTINUOUS
 10
-15.135
 20
46.0382338935
 11
-15.0763111231
 21
46.0382338935
  0
LINE
  5
76A
100
AcDbEntity
  8
RACCORDO
100
AcDbLine
 62
7
  6
CONTINUOUS
 10
-10.1936888769
 20
46.0382338935
 11
-10.135
 21
46.0382338935
  0
LINE
  5
76B
100
AcDbEntity
  8
ASSI
100
AcDbLine
 62
7
  6
CONTINUOUS
 10
-7.5095506493
 20
46.0722686779
 11
-17.7604493507
 21
46.0722686779
  0
LINE
  5
76C
100
AcDbEntity
  8
ASSI
100
AcDbLine
 62
7
  6
CONTINUOUS
 10
-15.685
 20
46.785
 11
-9.585
 21
46.785
  0
LINE
  5
76D
100
AcDbEntity
  8
0
100
AcDbLine
 62
7
  6
CONTINUOUS
 10
-3.835
 20
46.835
 11
-5.235
 21
46.835
  0
LINE
  5
76E
100
AcDbEntity
  8
DRAFT
100
AcDbLine
 62
7
  6
CONTINUOUS
 10
-3.835
 20
46.835
 11
-5.235
 21
46.835
  0
LINE
  5
76F
100
AcDbEntity
  8
0
100
AcDbLine
 62
7
  6
CONTINUOUS
 10
-20.035
 20
46.835
 11
-21.435
 21
46.835
  0
LINE
  5
770
100
AcDbEntity
  8
DRAFT
100
AcDbLine
 62
7
  6
CONTINUOUS
 10
-20.035
 20
46.835
 11
-21.435
 21
46.835
  0
LINE
  5
771
100
AcDbEntity
  8
ASSI
100
AcDbLine
 62
7
  6
CONTINUOUS
 10
-20.8675449351
 20
46.885
 11
-19.935
 21
46.885
  0
LINE
  5
772
100
AcDbEntity
  8
ASSI
100
AcDbLine
 62
7
  6
CONTINUOUS
 10
-5.335
 20
46.885
 11
-4.4024550649
 21
46.885
  0
LINE
  5
773
100
AcDbEntity
  8
0
100
AcDbLine
 62
7
  6
CONTINUOUS
 10
-6.135
 20
46.885
 11
-7.335
 21
46.885
  0
LINE
  5
774
100
AcDbEntity
  8
0
100
AcDbLine
 62
7
  6
CONTINUOUS
 10
-17.935
 20
46.885
 11
-19.135
 21
46.885
  0
LINE
  5
775
100
AcDbEntity
  8
ASSI
100
AcDbLine
 62
7
  6
CONTINUOUS
 10
-20.6929942858
 20
46.9722686779
 11
-19.8477313221
 21
46.9722686779
  0
LINE
  5
776
100
AcDbEntity
  8
ASSI
100
AcDbLine
 62
7
  6
CONTINUOUS
 10
-5.4222686779
 20
46.9722686779
 11
-4.5770057142
 21
46.9722686779
  0
LINE
  5
777
100
AcDbEntity
  8
ASSI
100
AcDbLine
 62
7
  6
CONTINUOUS
 10
-6.0477313221
 20
47.0595506493
 11
-7.5095506493
 21
47.0595506493
  0
LINE
  5
778
100
AcDbEntity
  8
ASSI
100
AcDbLine
 62
7
  6
CONTINUOUS
 10
-17.7604493507
 20
47.0595506493
 11
-19.2222686779
 21
47.0595506493
  0
LINE
  5
779
100
AcDbEntity
  8
ASSI
100
AcDbLine
 62
253
  6
CONTINUOUS
 10
-4.5770057142
 20
47.2102970227
 11
-9.5775764129
 21
47.2102970227
  0
LINE
  5
77A
100
AcDbEntity
  8
ASSI
100
AcDbLine
 62
253
  6
CONTINUOUS
 10
-15.6924235871
 20
47.2102970227
 11
-20.6929942858
 21
47.2102970227
  0
LINE
  5
77B
100
AcDbEntity
  8
ASSI
100
AcDbLine
 62
7
  6
CONTINUOUS
 10
-15.7007095584
 20
47.685
 11
-9.5692904416
 21
47.685
  0
LINE
  5
77C
100
AcDbEntity
  8
0
100
AcDbLine
 62
7
  6
CONTINUOUS
 10
-7.335
 20
45.985
 11
-7.5095506493
 21
46.0722686779
  0
LINE
  5
77D
100
AcDbEntity
  8
RACCORDO
100
AcDbLine
 62
7
  6
CONTINUOUS
 10
-2.5366957532
 20
45.3052082353
 11
-1.9147917647
 21
44.6833042468
  0
LINE
  5
77E
100
AcDbEntity
  8
ASSI
100
AcDbLine
 62
7
  6
CONTINUOUS
 10
-2.5366957532
 20
45.3052082353
 11
-1.9147917647
 21
44.6833042468
  0
LINE
  5
77F
100
AcDbEntity
  8
0
100
AcDbLine
 62
7
  6
CONTINUOUS
 10
-2.192882674
 20
45.0200863471
 11
-4.0077963269
 21
46.835
  0
LINE
  5
780
100
AcDbEntity
  8
RACCORDO
100
AcDbLine
 62
7
  6
CONTINUOUS
 10
-2.192882674
 20
45.0200863471
 11
-4.0077963269
 21
46.835
  0
LINE
  5
781
100
AcDbEntity
  8
ASSI
100
AcDbLine
 62
7
  6
CONTINUOUS
 10
-5.3798865899
 20
48.3675449351
 11
-4.4024550649
 21
47.3901134101
  0
LINE
  5
782
100
AcDbEntity
  8
0
100
AcDbLine
 62
7
  6
CONTINUOUS
 10
-2.0706972195
 20
45.0706972195
 11
-3.835
 21
46.835
  0
LINE
  5
783
100
AcDbEntity
  8
RACCORDO
100
AcDbLine
 62
7
  6
CONTINUOUS
 10
-2.0706972195
 20
45.0706972195
 11
-3.835
 21
46.835
  0
LWPOLYLINE
  5
784
100
AcDbEntity
  8
ASSI
100
AcDbPolyline
 62
7
  6
CONTINUOUS
 90
10
 70
0
 10
-3.3816230298
 20
2.3571687836
 10
-3.3999157123
 20
2.3378559168
 10
-3.4208573721
 20
2.3171331298
 10
-3.443791391
 20
2.2950004224
 10
-3.4679295651
 20
2.2711590326
 10
-3.4928572746
 20
2.2459077225
 10
-3.5186490347
 20
2.2201427787
 10
-3.5451204458
 20
2.1941629637
 10
-3.5717256761
 20
2.167669515
 10
-3.5981293807
 20
2.1406624327
  0
LINE
  5
785
100
AcDbEntity
  8
ASSI
100
AcDbLine
 62
7
  6
CONTINUOUS
 10
-4.135
 20
3.585
 11
-4.1218325431
 21
3.5981674569
  0
LINE
  5
786
100
AcDbEntity
  8
ASSI
100
AcDbLine
 62
253
  6
CONTINUOUS
 10
-5.4218325431
 20
1.6981369959
 11
-5.435
 21
1.684969539
  0
LINE
  5
787
100
AcDbEntity
  8
ASSI
100
AcDbLine
 62
253
  6
CONTINUOUS
 10
-5.2218630041
 20
1.4981674569
 11
-5.235030461
 21
1.485
  0
LINE
  5
788
100
AcDbEntity
  8
ASSI
100
AcDbLine
 62
7
  6
CONTINUOUS
 10
-4.5770057142
 20
4.9977313221
 11
-4.4024550649
 21
5.085
  0
LINE
  5
789
100
AcDbEntity
  8
ASSI
100
AcDbLine
 62
7
  6
CONTINUOUS
 10
-4.5765343972
 20
4.5288905594
 11
-4.4024550649
 21
4.5798865899
  0
LINE
  5
78A
100
AcDbEntity
  8
ASSI
100
AcDbLine
 62
7
  6
CONTINUOUS
 10
-13.4524550649
 20
48.383254669
 11
-13.435
 21
48.385
  0
LWPOLYLINE
  5
78B
100
AcDbEntity
  8
RACCORDO
100
AcDbPolyline
 62
253
  6
CONTINUOUS
 90
4
 70
0
 10
-8.3053390177
 20
49.6366758077
 10
-8.2931746785
 20
49.6369794022
 10
-8.2855088794
 20
49.6372936421
 10
-8.2824207106
 20
49.6376185276
  0
LINE
  5
78C
100
AcDbEntity
  8
ASSI
100
AcDbLine
 62
253
  6
CONTINUOUS
 10
-5.3337766573
 20
48.2101447178
 11
-9.5601240064
 21
48.2101447178
  0
LINE
  5
78D
100
AcDbEntity
  8
ASSI
100
AcDbLine
 62
253
  6
CONTINUOUS
 10
-15.7098759936
 20
48.2101447178
 11
-19.9362233427
 21
48.2101447178
  0
LINE
  5
78E
100
AcDbEntity
  8
ASSI
100
AcDbLine
 62
7
  6
CONTINUOUS
 10
-2.0523789125
 20
48.3675449351
 11
-3.5981293807
 21
48.3675449351
  0
LINE
  5
78F
100
AcDbEntity
  8
ASSI
100
AcDbLine
 62
7
  6
CONTINUOUS
 10
-3.8718706193
 20
48.3675449351
 11
-5.3798865899
 21
48.3675449351
  0
LINE
  5
790
100
AcDbEntity
  8
ASSI
100
AcDbLine
 62
7
  6
CONTINUOUS
 10
-19.8901134101
 20
48.3675449351
 11
-21.3981293807
 21
48.3675449351
  0
LINE
  5
791
100
AcDbEntity
  8
ASSI
100
AcDbLine
 62
7
  6
CONTINUOUS
 10
-21.6718706193
 20
48.3675449351
 11
-23.2176210875
 21
48.3675449351
  0
LINE
  5
792
100
AcDbEntity
  8
ASSI
100
AcDbLine
 62
7
  6
CONTINUOUS
 10
-13.4524550649
 20
48.383254669
 11
-11.8175449351
 21
48.383254669
  0
LINE
  5
793
100
AcDbEntity
  8
ASSI
100
AcDbLine
 62
7
  6
CONTINUOUS
 10
-23.235
 20
48.385
 11
-21.935
 21
48.385
  0
LINE
  5
794
100
AcDbEntity
  8
ASSI
100
AcDbLine
 62
7
  6
CONTINUOUS
 10
-21.135
 20
48.385
 11
-17.085
 21
48.385
  0
LINE
  5
795
100
AcDbEntity
  8
ASSI
100
AcDbLine
 62
7
  6
CONTINUOUS
 10
-8.185
 20
48.385
 11
-4.135
 21
48.385
  0
LINE
  5
796
100
AcDbEntity
  8
ASSI
100
AcDbLine
 62
7
  6
CONTINUOUS
 10
-3.335
 20
48.385
 11
-2.0349999354
 21
48.3849999354
  0
LINE
  5
797
100
AcDbEntity
  8
ASSI
100
AcDbLine
 62
7
  6
CONTINUOUS
 10
-23.0367150409
 20
49.1076497308
 11
-21.935
 21
49.1076497308
  0
LINE
  5
798
100
AcDbEntity
  8
ASSI
100
AcDbLine
 62
7
  6
CONTINUOUS
 10
-21.135
 20
49.1076497308
 11
-20.0332849591
 21
49.1076497308
  0
LINE
  5
799
100
AcDbEntity
  8
ASSI
100
AcDbLine
 62
7
  6
CONTINUOUS
 10
-5.2367150409
 20
49.1076497308
 11
-4.135
 21
49.1076497308
  0
LINE
  5
79A
100
AcDbEntity
  8
ASSI
100
AcDbLine
 62
7
  6
CONTINUOUS
 10
-3.335
 20
49.1076497308
 11
-2.2332849591
 21
49.1076497308
  0
LINE
  5
79B
100
AcDbEntity
  8
ASSI
100
AcDbLine
 62
7
  6
CONTINUOUS
 10
-11.8175449351
 20
48.383254669
 11
-11.835
 21
48.385
  0
LWPOLYLINE
  5
79C
100
AcDbEntity
  8
RACCORDO
100
AcDbPolyline
 62
253
  6
CONTINUOUS
 90
5
 70
0
 10
-16.9875812355
 20
49.6376193117
 10
-16.9844986226
 20
49.6372941982
 10
-16.9768309692
 20
49.6369798194
 10
-16.9646612848
 20
49.6366761753
 10
-16.9273902543
 20
49.6360950327
  0
LWPOLYLINE
  5
79D
100
AcDbEntity
  8
RACCORDO
100
AcDbPolyline
 62
253
  6
CONTINUOUS
 90
9
 70
0
 10
-16.7376193117
 20
49.8875812355
 10
-16.7362891725
 20
49.8872583689
 10
-16.7331601358
 20
49.8869455592
 10
-16.7282322017
 20
49.8866428065
 10
-16.7214129663
 20
49.8863468585
 10
-16.7127948334
 20
49.8860609674
 10
-16.7026550144
 20
49.8857948901
 10
-16.6909452041
 20
49.8855494708
 10
-16.6633826513
 20
49.8851252972
  0
LINE
  5
79E
100
AcDbEntity
  8
ASSI
100
AcDbLine
 62
7
  6
CONTINUOUS
 10
-4.5765343972
 20
47.4411094406
 11
-4.4024550649
 21
47.3901134101
  0
LINE
  5
79F
100
AcDbEntity
  8
ASSI
100
AcDbLine
 62
7
  6
CONTINUOUS
 10
-4.5770057142
 20
46.9722686779
 11
-4.4024550649
 21
46.885
  0
LWPOLYLINE
  5
7A0
100
AcDbEntity
  8
ASSI
100
AcDbPolyline
 62
7
  6
CONTINUOUS
 90
10
 70
0
 10
-3.3816230298
 20
49.6128312164
 10
-3.4009358966
 20
49.6311238988
 10
-3.4216586836
 20
49.6520655587
 10
-3.443791391
 20
49.6749995776
 10
-3.4676327808
 20
49.6991377517
 10
-3.4928840909
 20
49.7240654611
 10
-3.5186490347
 20
49.7498572213
 10
-3.5446288497
 20
49.7763286324
 10
-3.5711222984
 20
49.8029338627
 10
-3.5981293807
 20
49.8293375673
  0
LINE
  5
7A1
100
AcDbEntity
  8
ASSI
100
AcDbLine
 62
7
  6
CONTINUOUS
 10
-4.135
 20
48.385
 11
-4.1218325431
 21
48.3718325431
  0
LINE
  5
7A2
100
AcDbEntity
  8
ASSI
100
AcDbLine
 62
253
  6
CONTINUOUS
 10
-5.435
 20
50.285030461
 11
-5.4218325431
 21
50.2718630041
  0
LINE
  5
7A3
100
AcDbEntity
  8
ASSI
100
AcDbLine
 62
253
  6
CONTINUOUS
 10
-5.235030461
 20
50.485
 11
-5.2218630041
 21
50.4718325431
  0
LWPOLYLINE
  5
7A4
100
AcDbEntity
  8
ASSI
100
AcDbPolyline
 62
253
  6
CONTINUOUS
 90
13
 70
0
 10
-5.2218630041
 20
50.4718325431
 10
-5.2479592744
 20
50.4701144847
 10
-5.2736091959
 20
50.4650055935
 10
-5.2983740604
 20
50.4565932528
 10
-5.3218302992
 20
50.4450213465
 10
-5.3435767244
 20
50.4304877992
 10
-5.3632413916
 20
50.413241192
 10
-5.3804879646
 20
50.3935765089
 10
-5.3950214678
 20
50.3718300891
 10
-5.4065933296
 20
50.3483738752
 10
-5.4150056315
 20
50.323609054
 10
-5.4201144952
 20
50.2979591951
 10
-5.4218325431
 20
50.2718630041
  0
LWPOLYLINE
  5
7A5
100
AcDbEntity
  8
RACCORDO
100
AcDbPolyline
 62
253
  6
CONTINUOUS
 90
13
 70
0
 10
-16.7376193117
 20
49.8875812355
 10
-16.7702369527
 20
49.8854340187
 10
-16.8022972654
 20
49.8790488329
 10
-16.8332519386
 20
49.8685346906
 10
-16.8625715063
 20
49.8540712402
 10
-16.8897544795
 20
49.8359056662
 10
-16.9143359061
 20
49.8143484388
 10
-16.9358952704
 20
49.7897680256
 10
-16.9540635844
 20
49.7625847625
 10
-16.9685298321
 20
49.7332636616
 10
-16.979046421
 20
49.702306258
 10
-16.9854333542
 20
49.6702419894
 10
-16.9875812355
 20
49.6376193117
  0
LWPOLYLINE
  5
7A6
100
AcDbEntity
  8
RACCORDO
100
AcDbPolyline
 62
253
  6
CONTINUOUS
 90
12
 70
0
 10
-8.885
 20
49.8876349493
 10
-8.9176288979
 20
49.8854968396
 10
-8.9497000593
 20
49.8791189636
 10
-8.9806647749
 20
49.868610251
 10
-9.0099932018
 20
49.8541503267
 10
-9.037183505
 20
49.8359864108
 10
-9.0617704269
 20
49.8144290653
 10
-9.0833331948
 20
49.7898469022
 10
-9.1015026193
 20
49.7626604506
 10
-9.1159675449
 20
49.7333349571
 10
-9.1264803058
 20
49.7023722264
 10
-9.1328609008
 20
49.6703019923
  0
LWPOLYLINE
  5
7A7
100
AcDbEntity
  8
ASSI
100
AcDbPolyline
 62
7
  6
CONTINUOUS
 90
13
 70
0
 10
-23.035030461
 20
50.485
 10
-23.0611325878
 20
50.4832897358
 10
-23.0867877661
 20
50.4781875595
 10
-23.1115572875
 20
50.4697805782
 10
-23.1350177444
 20
50.4582123371
 10
-23.1567675502
 20
50.44368055
 10
-23.1764339722
 20
50.4264339722
 10
-23.19368055
 20
50.4067675502
 10
-23.2082123371
 20
50.3850177444
 10
-23.2197805782
 20
50.3615572875
 10
-23.2281875595
 20
50.3367877661
 10
-23.2332897358
 20
50.3111325878
 10
-23.235
 20
50.285030461
  0
LWPOLYLINE
  5
7A8
100
AcDbEntity
  8
ASSI
100
AcDbPolyline
 62
253
  6
CONTINUOUS
 90
13
 70
0
 10
-20.0485581409
 20
49.6128312164
 10
-20.0226000278
 20
49.614492818
 10
-19.997081159
 20
49.6190571088
 10
-19.972433339
 20
49.6264468542
 10
-19.9490736321
 20
49.6365370104
 10
-19.9273973075
 20
49.6491568398
 10
-19.9077711506
 20
49.6640927988
 10
-19.8905272537
 20
49.6810921526
 10
-19.8759573958
 20
49.6998672549
 10
-19.8643081089
 20
49.7201004131
 10
-19.8557765069
 20
49.7414492628
 10
-19.8505069502
 20
49.7635525604
 10
-19.8485886019
 20
49.7860362971
  0
LWPOLYLINE
  5
7A9
100
AcDbEntity
  8
RACCORDO
100
AcDbPolyline
 62
253
  6
CONTINUOUS
 90
7
 70
0
 10
-16.4183176077
 20
49.8858346445
 10
-16.4084219947
 20
49.88610344
 10
-16.4000666572
 20
49.8863916374
 10
-16.3935199532
 20
49.8866898279
 10
-16.3888713353
 20
49.8869948753
 10
-16.3860313509
 20
49.8873099157
 10
-16.385
 20
49.8876349493
  0
LWPOLYLINE
  5
7AA
100
AcDbEntity
  8
RACCORDO
100
AcDbPolyline
 62
253
  6
CONTINUOUS
 90
7
 70
0
 10
-8.5674932026
 20
49.8857913556
 10
-8.5573303498
 20
49.8860570959
 10
-8.5486881364
 20
49.8863427043
 10
-8.5418442908
 20
49.8866388551
 10
-8.5368913889
 20
49.8869424395
 10
-8.5337368548
 20
49.8872565663
 10
-8.5323806883
 20
49.8875812355
  0
LWPOLYLINE
  5
7AB
100
AcDbEntity
  8
RACCORDO
100
AcDbPolyline
 62
253
  6
CONTINUOUS
 90
5
 70
0
 10
-16.1714523228
 20
49.6364286998
 10
-16.1556366164
 20
49.6367267734
 10
-16.1442184713
 20
49.6370318321
 10
-16.1373159949
 20
49.637346987
 10
-16.1350000144
 20
49.6376722383
  0
LINE
  5
7AC
100
AcDbEntity
  8
RACCORDO
100
AcDbLine
 62
253
  6
CONTINUOUS
 10
-16.4428281972
 20
49.8853566423
 11
-16.4183176077
 21
49.8858346445
  0
LINE
  5
7AD
100
AcDbEntity
  8
RACCORDO
100
AcDbLine
 62
253
  6
CONTINUOUS
 10
-8.592477961
 20
49.885320893
 11
-8.5674932026
 21
49.8857913556
  0
LINE
  5
7AE
100
AcDbEntity
  8
RACCORDO
100
AcDbLine
 62
253
  6
CONTINUOUS
 10
-8.3426084849
 20
49.6360943897
 11
-8.3053390177
 21
49.6366758077
  0
LINE
  5
7AF
100
AcDbEntity
  8
RACCORDO
100
AcDbLine
 62
253
  6
CONTINUOUS
 10
-16.4722879327
 20
49.8849791169
 11
-16.4428281972
 21
49.8853566423
  0
LINE
  5
7B0
100
AcDbEntity
  8
RACCORDO
100
AcDbLine
 62
253
  6
CONTINUOUS
 10
-16.2155495547
 20
49.6358721748
 11
-16.1714523228
 21
49.6364286998
  0
LINE
  5
7B1
100
AcDbEntity
  8
RACCORDO
100
AcDbLine
 62
253
  6
CONTINUOUS
 10
-8.6223106477
 20
49.8849523994
 11
-8.592477961
 21
49.885320893
  0
LINE
  5
7B2
100
AcDbEntity
  8
RACCORDO
100
AcDbLine
 62
253
  6
CONTINUOUS
 10
-8.4274915163
 20
49.6353590178
 11
-8.3426084849
 21
49.6360943897
  0
LINE
  5
7B3
100
AcDbEntity
  8
RACCORDO
100
AcDbLine
 62
253
  6
CONTINUOUS
 10
-16.3089366292
 20
49.6351924436
 11
-16.2155495547
 21
49.6358721748
  0
LINE
  5
7B4
100
AcDbEntity
  8
RACCORDO
100
AcDbLine
 62
253
  6
CONTINUOUS
 10
-16.5234051353
 20
49.8846298582
 11
-16.4722879327
 21
49.8849791169
  0
LINE
  5
7B5
100
AcDbEntity
  8
RACCORDO
100
AcDbLine
 62
253
  6
CONTINUOUS
 10
-8.6737692366
 20
49.8846187653
 11
-8.6223106477
 21
49.8849523994
  0
LINE
  5
7B6
100
AcDbEntity
  8
RACCORDO
100
AcDbLine
 62
253
  6
CONTINUOUS
 10
-8.5811906345
 20
49.6347362489
 11
-8.4274915163
 21
49.6353590178
  0
LINE
  5
7B7
100
AcDbEntity
  8
RACCORDO
100
AcDbLine
 62
253
  6
CONTINUOUS
 10
-16.5133095547
 20
49.6346155253
 11
-16.3089366292
 21
49.6351924436
  0
LINE
  5
7B8
100
AcDbEntity
  8
ASSI
100
AcDbLine
 62
253
  6
CONTINUOUS
 10
-21.1816230298
 20
49.6128312164
 11
-20.0485581409
 21
49.6128312164
  0
LINE
  5
7B9
100
AcDbEntity
  8
ASSI
100
AcDbLine
 62
253
  6
CONTINUOUS
 10
-5.2214418591
 20
49.6128312164
 11
-4.0883769702
 21
49.6128312164
  0
LINE
  5
7BA
100
AcDbEntity
  8
ASSI
100
AcDbLine
 62
253
  6
CONTINUOUS
 10
-3.3816230298
 20
49.6128312164
 11
-2.2485581409
 21
49.6128312164
  0
LINE
  5
7BB
100
AcDbEntity
  8
ASSI
100
AcDbLine
 62
253
  6
CONTINUOUS
 10
-23.0214418984
 20
49.6128299144
 11
-21.8883769702
 21
49.6128312164
  0
LINE
  5
7BC
100
AcDbEntity
  8
ASSI
100
AcDbLine
 62
253
  6
CONTINUOUS
 10
-2.0490249785
 20
49.8293375673
 11
-3.5981293807
 21
49.8293375673
  0
LINE
  5
7BD
100
AcDbEntity
  8
ASSI
100
AcDbLine
 62
253
  6
CONTINUOUS
 10
-3.8718706193
 20
49.8293375673
 11
-5.4209750215
 21
49.8293375673
  0
LINE
  5
7BE
100
AcDbEntity
  8
ASSI
100
AcDbLine
 62
253
  6
CONTINUOUS
 10
-19.8490249785
 20
49.8293375673
 11
-21.3981293807
 21
49.8293375673
  0
LINE
  5
7BF
100
AcDbEntity
  8
ASSI
100
AcDbLine
 62
253
  6
CONTINUOUS
 10
-21.6718706193
 20
49.8293375673
 11
-23.2209750215
 21
49.8293375673
  0
LINE
  5
7C0
100
AcDbEntity
  8
RACCORDO
100
AcDbLine
 62
7
  6
CONTINUOUS
 10
-16.385
 20
49.9675449351
 11
-13.7024169887
 21
49.9675449351
  0
LINE
  5
7C1
100
AcDbEntity
  8
RACCORDO
100
AcDbLine
 62
7
  6
CONTINUOUS
 10
-11.5675830113
 20
49.9675449351
 11
-8.885
 21
49.9675449351
  0
LINE
  5
7C2
100
AcDbEntity
  8
RACCORDO
100
AcDbLine
 62
7
  6
CONTINUOUS
 10
-16.8350380762
 20
49.985
 11
-13.6849619238
 21
49.985
  0
LINE
  5
7C3
100
AcDbEntity
  8
RACCORDO
100
AcDbLine
 62
7
  6
CONTINUOUS
 10
-11.5850380762
 20
49.985
 11
-8.4349619238
 21
49.985
  0
LINE
  5
7C4
100
AcDbEntity
  8
ASSI
100
AcDbLine
 62
253
  6
CONTINUOUS
 10
-2.0490249785
 20
50.2218706193
 11
-5.4209750215
 21
50.2218706193
  0
LINE
  5
7C5
100
AcDbEntity
  8
ASSI
100
AcDbLine
 62
253
  6
CONTINUOUS
 10
-19.8490249785
 20
50.2218706193
 11
-23.2209750215
 21
50.2218706193
  0
LINE
  5
7C6
100
AcDbEntity
  8
ASSI
100
AcDbLine
 62
253
  6
CONTINUOUS
 10
-2.2481369959
 20
50.4718325431
 11
-5.2218630041
 21
50.4718325431
  0
LINE
  5
7C7
100
AcDbEntity
  8
ASSI
100
AcDbLine
 62
253
  6
CONTINUOUS
 10
-20.0481369959
 20
50.4718325431
 11
-23.0218630041
 21
50.4718325431
  0
LINE
  5
7C8
100
AcDbEntity
  8
ASSI
100
AcDbLine
 62
7
  6
CONTINUOUS
 10
-23.035030461
 20
50.485
 11
-20.034969539
 21
50.485
  0
LINE
  5
7C9
100
AcDbEntity
  8
ASSI
100
AcDbLine
 62
7
  6
CONTINUOUS
 10
-5.235030461
 20
50.485
 11
-2.234969539
 21
50.485
  0
LINE
  5
7CA
100
AcDbEntity
  8
RACCORDO
100
AcDbLine
 62
253
  6
CONTINUOUS
 10
-16.5781962487
 20
49.8845719672
 11
-16.5234051353
 21
49.8846298582
  0
LINE
  5
7CB
100
AcDbEntity
  8
RACCORDO
100
AcDbLine
 62
253
  6
CONTINUOUS
 10
-8.8004652816
 20
49.6346686481
 11
-8.5811906345
 21
49.6347362489
  0
LINE
  5
7CC
100
AcDbEntity
  8
RACCORDO
100
AcDbLine
 62
253
  6
CONTINUOUS
 10
-8.728609881
 20
49.8845775735
 11
-8.6737692366
 21
49.8846187653
  0
LINE
  5
7CD
100
AcDbEntity
  8
RACCORDO
100
AcDbLine
 62
253
  6
CONTINUOUS
 10
-16.7304077161
 20
49.6348481491
 11
-16.5133095547
 21
49.6346155253
  0
LINE
  5
7CE
100
AcDbEntity
  8
RACCORDO
100
AcDbLine
 62
253
  6
CONTINUOUS
 10
-8.9954126228
 20
49.6353953689
 11
-8.8004652816
 21
49.6346686481
  0
LINE
  5
7CF
100
AcDbEntity
  8
RACCORDO
100
AcDbLine
 62
253
  6
CONTINUOUS
 10
-16.6313501301
 20
49.8848110323
 11
-16.5781962487
 21
49.8845719672
  0
LINE
  5
7D0
100
AcDbEntity
  8
RACCORDO
100
AcDbLine
 62
253
  6
CONTINUOUS
 10
-8.7815166604
 20
49.884832794
 11
-8.728609881
 21
49.8845775735
  0
LINE
  5
7D1
100
AcDbEntity
  8
RACCORDO
100
AcDbLine
 62
253
  6
CONTINUOUS
 10
-16.874296573
 20
49.6355847216
 11
-16.7304077161
 21
49.6348481491
  0
LINE
  5
7D2
100
AcDbEntity
  8
RACCORDO
100
AcDbLine
 62
253
  6
CONTINUOUS
 10
-16.9273902543
 20
49.6360950327
 11
-16.874296573
 21
49.6355847216
  0
LINE
  5
7D3
100
AcDbEntity
  8
RACCORDO
100
AcDbLine
 62
253
  6
CONTINUOUS
 10
-16.6633826513
 20
49.8851252972
 11
-16.6313501301
 21
49.8848110323
  0
LINE
  5
7D4
100
AcDbEntity
  8
RACCORDO
100
AcDbLine
 62
253
  6
CONTINUOUS
 10
-8.8132301199
 20
49.8851567689
 11
-8.7815166604
 21
49.884832794
  0
LWPOLYLINE
  5
7D5
100
AcDbEntity
  8
ASSI
100
AcDbPolyline
 62
253
  6
CONTINUOUS
 90
13
 70
0
 10
-5.2214418591
 20
49.6128312164
 10
-5.2473999306
 20
49.614492813
 10
-5.2729187666
 20
49.6190570911
 10
-5.2975665635
 20
49.6264468187
 10
-5.3209262568
 20
49.6365369545
 10
-5.3426025781
 20
49.6491567636
 10
-5.3622287429
 20
49.6640927066
 10
-5.3794726576
 20
49.681092053
 10
-5.3940425386
 20
49.6998671574
 10
-5.4056918493
 20
49.7201003269
 10
-5.4142234721
 20
49.7414491967
 10
-5.4194930438
 20
49.7635525233
 10
-5.4214113981
 20
49.7860362971
  0
LWPOLYLINE
  5
7D6
100
AcDbEntity
  8
RACCORDO
100
AcDbPolyline
 62
7
  6
CONTINUOUS
 90
13
 70
0
 10
-16.385
 20
49.8876349493
 10
-16.352368452
 20
49.8854964904
 10
-16.3202952389
 20
49.8791177033
 10
-16.2893291421
 20
49.8686077309
 10
-16.2600000003
 20
49.8541464016
 10
-16.2328096431
 20
49.8359811529
 10
-16.2082233051
 20
49.8144227972
 10
-16.1866616653
 20
49.7898402038
 10
-16.1684936494
 20
49.7626539878
 10
-16.1540301171
 20
49.7333293128
 10
-16.1435185435
 20
49.7023679322
 10
-16.1371387847
 20
49.6702996038
 10
-16.135
 20
49.6376730255
  0
LWPOLYLINE
  5
7D7
100
AcDbEntity
  8
ASSI
100
AcDbPolyline
 62
7
  6
CONTINUOUS
 90
13
 70
0
 10
-2.234969539
 20
50.485
 10
-2.2088674122
 20
50.4832897358
 10
-2.1832122339
 20
50.4781875595
 10
-2.1584427125
 20
50.4697805782
 10
-2.1349822556
 20
50.4582123371
 10
-2.1132324498
 20
50.44368055
 10
-2.0935660278
 20
50.4264339722
 10
-2.07631945
 20
50.4067675502
 10
-2.0617876629
 20
50.3850177444
 10
-2.0502194218
 20
50.3615572875
 10
-2.0418124405
 20
50.3367877661
 10
-2.0367102642
 20
50.3111325878
 10
-2.035
 20
50.285030461
  0
LWPOLYLINE
  5
7D8
100
AcDbEntity
  8
ASSI
100
AcDbPolyline
 62
253
  6
CONTINUOUS
 90
13
 70
0
 10
-20.0481369959
 20
50.4718325431
 10
-20.0220407645
 20
50.4701144898
 10
-19.9963908739
 20
50.4650056122
 10
-19.971626031
 20
50.4565932907
 10
-19.9481698049
 20
50.4450214066
 10
-19.9264233829
 20
50.4304878816
 10
-19.9067587082
 20
50.4132412918
 10
-19.8895121184
 20
50.3935766171
 10
-19.8749785934
 20
50.3718301951
 10
-19.8634067093
 20
50.348373969
 10
-19.8549943878
 20
50.3236091261
 10
-19.8498855102
 20
50.2979592355
 10
-19.8481674569
 20
50.2718630041
  0
LWPOLYLINE
  5
7D9
100
AcDbEntity
  8
RACCORDO
100
AcDbPolyline
 62
253
  6
CONTINUOUS
 90
13
 70
0
 10
-8.5323806883
 20
49.8875812355
 10
-8.499760399
 20
49.885433669
 10
-8.4676980359
 20
49.8790475719
 10
-8.4367419823
 20
49.86853217
 10
-8.4074216999
 20
49.8540673151
 10
-8.3802386725
 20
49.8359004088
 10
-8.3556578291
 20
49.8143421717
 10
-8.3340995919
 20
49.7897613283
 10
-8.3159326855
 20
49.7625783008
 10
-8.3014678304
 20
49.7332580183
 10
-8.2909524283
 20
49.7023019645
 10
-8.2845663312
 20
49.6702396012
 10
-8.2824187645
 20
49.6376193117
  0
LWPOLYLINE
  5
7DA
100
AcDbEntity
  8
RACCORDO
100
AcDbPolyline
 62
253
  6
CONTINUOUS
 90
7
 70
0
 10
-9.135
 20
49.6376730255
 10
-9.132690443
 20
49.6373475448
 10
-9.1257867539
 20
49.6370322502
 10
-9.1143636712
 20
49.6367271419
 10
-9.0985448695
 20
49.6364291625
 10
-9.0785017056
 20
49.6361413694
 10
-8.9954126228
 20
49.6353953689
  0
LWPOLYLINE
  5
7DB
100
AcDbEntity
  8
RACCORDO
100
AcDbPolyline
 62
253
  6
CONTINUOUS
 90
9
 70
0
 10
-8.885
 20
49.8876349493
 10
-8.8839928725
 20
49.887311726
 10
-8.881177065
 20
49.8869980103
 10
-8.8765525775
 20
49.8866938021
 10
-8.8700302712
 20
49.8863958217
 10
-8.8616992849
 20
49.8861073488
 10
-8.8518270349
 20
49.8858382231
 10
-8.8403643818
 20
49.8855892741
 10
-8.8132301199
 20
49.8851567689
  0
ARC
  5
7DC
100
AcDbEntity
  8
0
100
AcDbCircle
 62
7
  6
CONTINUOUS
 10
-21.835
 20
8.785
 40
1.4
100
AcDbArc
 50
189.8532892494
 51
270.0
  0
ARC
  5
7DD
100
AcDbEntity
  8
ASSI
100
AcDbCircle
 62
7
  6
CONTINUOUS
 10
-22.1409083707
 20
8.495
 40
0.71
100
AcDbArc
 50
229.7010712477
 51
265.2998279782
  0
ARC
  5
7DE
100
AcDbEntity
  8
ASSI
100
AcDbCircle
 62
7
  6
CONTINUOUS
 10
-22.925
 20
9.2790916293
 40
0.71
100
AcDbArc
 50
184.7001961556
 51
220.2989529286
  0
ARC
  5
7DF
100
AcDbEntity
  8
ASSI
100
AcDbCircle
 62
7
  6
CONTINUOUS
 10
-16.635
 20
2.785
 40
0.5
100
AcDbArc
 50
154.1580672368
 51
205.8419327632
  0
ARC
  5
7E0
100
AcDbEntity
  8
ASSI
100
AcDbCircle
 62
7
  6
CONTINUOUS
 10
-16.635
 20
2.785
 40
0.4904006794
100
AcDbArc
 50
136.2076703059
 51
223.7923296941
  0
ARC
  5
7E1
100
AcDbEntity
  8
0
100
AcDbCircle
 62
7
  6
CONTINUOUS
 10
-14.335
 20
8.435
 40
0.3
100
AcDbArc
 50
90.0
 51
170.0
  0
ARC
  5
7E2
100
AcDbEntity
  8
RACCORDO
100
AcDbCircle
 62
7
  6
CONTINUOUS
 10
-14.335
 20
8.435
 40
0.3
100
AcDbArc
 50
90.0
 51
170.0
  0
ARC
  5
7E3
100
AcDbEntity
  8
CURVE
100
AcDbCircle
 62
7
  6
CONTINUOUS
 10
-18.135
 20
35.067444
 40
2.5499986575
100
AcDbArc
 50
357.7524617393
 51
182.2474682623
  0
ARC
  5
7E4
100
AcDbEntity
  8
CURVE
100
AcDbCircle
 62
7
  6
CONTINUOUS
 10
-18.135
 20
39.452554
 40
2.5499985399
100
AcDbArc
 50
357.7525290943
 51
182.2474682623
  0
ARC
  5
7E5
100
AcDbEntity
  8
CURVE
100
AcDbCircle
 62
7
  6
CONTINUOUS
 10
-18.135
 20
35.067444
 40
1.7999999246
100
AcDbArc
 50
356.8152613297
 51
77.9753174348
  0
ARC
  5
7E6
100
AcDbEntity
  8
CURVE
100
AcDbCircle
 62
7
  6
CONTINUOUS
 10
-18.135
 20
39.452554
 40
1.7999999246
100
AcDbArc
 50
356.8152613297
 51
183.1847351336
  0
ARC
  5
7E7
100
AcDbEntity
  8
CURVE
100
AcDbCircle
 62
7
  6
CONTINUOUS
 10
-18.135
 20
35.067444
 40
1.7999968808
100
AcDbArc
 50
102.0247203293
 51
183.1848322474
  0
ARC
  5
7E8
100
AcDbEntity
  8
ASSI
100
AcDbCircle
 62
7
  6
CONTINUOUS
 10
-22.925
 20
42.6909083707
 40
0.71
100
AcDbArc
 50
139.7020215745
 51
175.2988538673
  0
ARC
  5
7E9
100
AcDbEntity
  8
ASSI
100
AcDbCircle
 62
7
  6
CONTINUOUS
 10
-22.1409083707
 20
43.475
 40
0.71
100
AcDbArc
 50
94.7020215745
 51
130.2988538673
  0
ARC
  5
7EA
100
AcDbEntity
  8
ASSI
100
AcDbCircle
 62
7
  6
CONTINUOUS
 10
-16.635
 20
49.185
 40
0.5
100
AcDbArc
 50
154.1580672368
 51
205.8419327632
  0
ARC
  5
7EB
100
AcDbEntity
  8
ASSI
100
AcDbCircle
 62
7
  6
CONTINUOUS
 10
-16.635
 20
49.185
 40
0.4904006794
100
AcDbArc
 50
136.2076703059
 51
223.7923296941
  0
ARC
  5
7EC
100
AcDbEntity
  8
0
100
AcDbCircle
 62
7
  6
CONTINUOUS
 10
-14.335
 20
43.535
 40
0.3
100
AcDbArc
 50
189.5979508052
 51
270.0
  0
ARC
  5
7ED
100
AcDbEntity
  8
RACCORDO
100
AcDbCircle
 62
7
  6
CONTINUOUS
 10
-14.335
 20
43.535
 40
0.3
100
AcDbArc
 50
189.5979508052
 51
270.0
  0
ARC
  5
7EE
100
AcDbEntity
  8
ASSI
100
AcDbCircle
 62
7
  6
CONTINUOUS
 10
-3.1290916293
 20
7.095
 40
0.71
100
AcDbArc
 50
289.9961491498
 51
294.2412807351
  0
ARC
  5
7EF
100
AcDbEntity
  8
ASSI
100
AcDbCircle
 62
7
  6
CONTINUOUS
 10
-2.345
 20
7.8790916293
 40
0.71
100
AcDbArc
 50
319.7010712477
 51
355.2998279782
  0
ARC
  5
7F0
100
AcDbEntity
  8
ASSI
100
AcDbCircle
 62
7
  6
CONTINUOUS
 10
-8.635
 20
2.785
 40
0.5
100
AcDbArc
 50
334.1580672368
 51
25.8419327632
  0
ARC
  5
7F1
100
AcDbEntity
  8
ASSI
100
AcDbCircle
 62
7
  6
CONTINUOUS
 10
-8.635
 20
2.785
 40
0.4904006794
100
AcDbArc
 50
316.2076703059
 51
43.7923296941
  0
ARC
  5
7F2
100
AcDbEntity
  8
0
100
AcDbCircle
 62
7
  6
CONTINUOUS
 10
-10.935
 20
8.435
 40
0.3
100
AcDbArc
 50
9.8838085533
 51
90.0
  0
ARC
  5
7F3
100
AcDbEntity
  8
RACCORDO
100
AcDbCircle
 62
7
  6
CONTINUOUS
 10
-10.935
 20
8.435
 40
0.3
100
AcDbArc
 50
9.8838085533
 51
90.0
  0
ARC
  5
7F4
100
AcDbEntity
  8
ASSI
100
AcDbCircle
 62
7
  6
CONTINUOUS
 10
-3.1290916293
 20
44.875
 40
0.71
100
AcDbArc
 50
49.7020215745
 51
85.2988538673
  0
ARC
  5
7F5
100
AcDbEntity
  8
ASSI
100
AcDbCircle
 62
7
  6
CONTINUOUS
 10
-2.345
 20
44.0909083707
 40
0.71
100
AcDbArc
 50
4.7020215745
 51
40.2988538673
  0
ARC
  5
7F6
100
AcDbEntity
  8
ASSI
100
AcDbCircle
 62
7
  6
CONTINUOUS
 10
-8.635
 20
49.185
 40
0.5
100
AcDbArc
 50
334.1580672368
 51
25.8419327632
  0
ARC
  5
7F7
100
AcDbEntity
  8
ASSI
100
AcDbCircle
 62
7
  6
CONTINUOUS
 10
-8.635
 20
49.185
 40
0.4904006794
100
AcDbArc
 50
316.2076703059
 51
43.7923296941
  0
ARC
  5
7F8
100
AcDbEntity
  8
0
100
AcDbCircle
 62
7
  6
CONTINUOUS
 10
-10.935
 20
43.535
 40
0.3
100
AcDbArc
 50
270.0
 51
350.0
  0
ARC
  5
7F9
100
AcDbEntity
  8
RACCORDO
100
AcDbCircle
 62
7
  6
CONTINUOUS
 10
-10.935
 20
43.535
 40
0.3
100
AcDbArc
 50
270.0
 51
350.0
  0
ELLIPSE
  5
7FA
100
AcDbEntity
  8
0
100
AcDbEllipse
 62
7
  6
CONTINUOUS
 10
-21.9011504284
 20
43.7511504284
 30
0.0
 11
0.3535803156
 21
-0.3535803156
 31
0.0
 40
0.9999238505
 41
2.3562325664
 42
2.8453801602
  0
ELLIPSE
  5
7FB
100
AcDbEntity
  8
0
100
AcDbEllipse
 62
7
  6
CONTINUOUS
 10
-14.4278932188
 20
44.2206254304
 30
0.0
 11
0.5
 21
0.0
 31
0.0
 40
0.0087268678
 41
-2.3561944902
 42
-1.9981274692
  0
ELLIPSE
  5
7FC
100
AcDbEntity
  8
0
100
AcDbEllipse
 62
7
  6
CONTINUOUS
 10
-10.8421067812
 20
44.2206254304
 30
0.0
 11
0.5
 21
0.0
 31
0.0
 40
0.0087268678
 41
-1.1643384736
 42
-0.7853981634
  0
ELLIPSE
  5
7FD
100
AcDbEntity
  8
0
100
AcDbEllipse
 62
7
  6
CONTINUOUS
 10
-21.7846953439
 20
8.3135533174
 30
0.0
 11
1.8480888181
 21
0.7655034529
 31
0.0
 40
0.9998215708
 41
2.7489566578
 42
3.5342286494
  0
ELLIPSE
  5
7FE
100
AcDbEntity
  8
0
100
AcDbEllipse
 62
7
  6
CONTINUOUS
 10
-21.7846953439
 20
43.6564466826
 30
0.0
 11
1.8480888181
 21
-0.7655034529
 31
0.0
 40
0.9998215708
 41
2.7489566578
 42
3.5342286494
  0
ELLIPSE
  5
7FF
100
AcDbEntity
  8
0
100
AcDbEllipse
 62
7
  6
CONTINUOUS
 10
-3.4853046561
 20
43.6564466826
 30
0.0
 11
1.8480888181
 21
0.7655034529
 31
0.0
 40
0.9998215708
 41
-0.3926359958
 42
0.3926359958
  0
ELLIPSE
  5
800
100
AcDbEntity
  8
0
100
AcDbEllipse
 62
7
  6
CONTINUOUS
 10
-3.4853046561
 20
8.3135533174
 30
0.0
 11
1.8480888181
 21
-0.7655034529
 31
0.0
 40
0.9998215708
 41
-0.3926359958
 42
0.3926359958
  0
ELLIPSE
  5
801
100
AcDbEntity
  8
0
100
AcDbEllipse
 62
7
  6
CONTINUOUS
 10
-21.6625098894
 20
8.3641641898
 30
0.0
 11
-1.8480888181
 21
-0.7655034529
 31
0.0
 40
0.9998215708
 41
-0.3926359958
 42
0.3926359958
  0
ELLIPSE
  5
802
100
AcDbEntity
  8
0
100
AcDbEllipse
 62
7
  6
CONTINUOUS
 10
-21.6625098894
 20
43.6058358102
 30
0.0
 11
1.8480888181
 21
-0.7655034529
 31
0.0
 40
0.9998215708
 41
2.7489566578
 42
3.5342286494
  0
ELLIPSE
  5
803
100
AcDbEntity
  8
0
100
AcDbEllipse
 62
7
  6
CONTINUOUS
 10
-3.6074901106
 20
43.6058358102
 30
0.0
 11
1.8480888181
 21
0.7655034529
 31
0.0
 40
0.9998215708
 41
-0.3926359958
 42
-0.278861721
  0
ELLIPSE
  5
804
100
AcDbEntity
  8
0
100
AcDbEllipse
 62
7
  6
CONTINUOUS
 10
-3.6074901106
 20
43.6058358102
 30
0.0
 11
1.8480888181
 21
0.7655034529
 31
0.0
 40
0.9998215708
 41
6.4756880539
 42
6.675821303
  0
ELLIPSE
  5
805
100
AcDbEntity
  8
0
100
AcDbEllipse
 62
7
  6
CONTINUOUS
 10
-3.6074901106
 20
8.3641641898
 30
0.0
 11
-1.8480888181
 21
0.7655034529
 31
0.0
 40
0.9998215708
 41
9.032141965
 42
9.2322752141
  0
ELLIPSE
  5
806
100
AcDbEntity
  8
0
100
AcDbEllipse
 62
7
  6
CONTINUOUS
 10
-3.6074901106
 20
8.3641641898
 30
0.0
 11
-1.8480888181
 21
0.7655034529
 31
0.0
 40
0.9998215708
 41
3.4204543746
 42
3.5342286494
  0
ELLIPSE
  5
807
100
AcDbEntity
  8
RACCORDO
100
AcDbEllipse
 62
7
  6
CONTINUOUS
 10
-21.9011504284
 20
43.7511504284
 30
0.0
 11
0.3535803156
 21
-0.3535803156
 31
0.0
 40
0.9999238505
 41
2.3562325664
 42
2.8453801602
  0
ELLIPSE
  5
808
100
AcDbEntity
  8
RACCORDO
100
AcDbEllipse
 62
7
  6
CONTINUOUS
 10
-14.4278932188
 20
44.2206254304
 30
0.0
 11
0.5
 21
0.0
 31
0.0
 40
0.0087268678
 41
-2.3561944902
 42
-1.9981274692
  0
ELLIPSE
  5
809
100
AcDbEntity
  8
RACCORDO
100
AcDbEllipse
 62
7
  6
CONTINUOUS
 10
-10.8421067812
 20
44.2206254304
 30
0.0
 11
0.5
 21
0.0
 31
0.0
 40
0.0087268678
 41
-1.1643384736
 42
-0.7853981634
  0
ELLIPSE
  5
80A
100
AcDbEntity
  8
RACCORDO
100
AcDbEllipse
 62
7
  6
CONTINUOUS
 10
-21.7846953439
 20
8.3135533174
 30
0.0
 11
1.8480888181
 21
0.7655034529
 31
0.0
 40
0.9998215708
 41
2.7489566578
 42
3.5342286494
  0
ELLIPSE
  5
80B
100
AcDbEntity
  8
RACCORDO
100
AcDbEllipse
 62
7
  6
CONTINUOUS
 10
-21.7846953439
 20
43.6564466826
 30
0.0
 11
1.8480888181
 21
-0.7655034529
 31
0.0
 40
0.9998215708
 41
2.7489566578
 42
3.5342286494
  0
ELLIPSE
  5
80C
100
AcDbEntity
  8
RACCORDO
100
AcDbEllipse
 62
7
  6
CONTINUOUS
 10
-3.4853046561
 20
43.6564466826
 30
0.0
 11
1.8480888181
 21
0.7655034529
 31
0.0
 40
0.9998215708
 41
-0.3926359958
 42
0.3926359958
  0
ELLIPSE
  5
80D
100
AcDbEntity
  8
RACCORDO
100
AcDbEllipse
 62
7
  6
CONTINUOUS
 10
-3.4853046561
 20
8.3135533174
 30
0.0
 11
1.8480888181
 21
-0.7655034529
 31
0.0
 40
0.9998215708
 41
-0.3926359958
 42
0.3926359958
  0
ELLIPSE
  5
80E
100
AcDbEntity
  8
0
100
AcDbEllipse
 62
7
  6
CONTINUOUS
 10
-10.635076164
 20
167.860642436
 30
0.0
 11
-0.4997620717
 21
162.4815824859
 31
0.0
 40
0.000109066
 41
3.224097589
 42
3.234898768
  0
ELLIPSE
  5
80F
100
AcDbEntity
  8
0
100
AcDbEllipse
 62
7
  6
CONTINUOUS
 10
-10.635076164
 20
-115.890642436
 30
0.0
 11
0.4997620717
 21
162.4815824859
 31
0.0
 40
0.000109066
 41
-0.0933061144
 42
-0.0825049354
  0
ELLIPSE
  5
810
100
AcDbEntity
  8
0
100
AcDbEllipse
 62
7
  6
CONTINUOUS
 10
-14.634923836
 20
167.860642436
 30
0.0
 11
0.4997620717
 21
162.4815824859
 31
0.0
 40
0.000109066
 41
-3.234898768
 42
-3.224097589
  0
ELLIPSE
  5
811
100
AcDbEntity
  8
0
100
AcDbEllipse
 62
7
  6
CONTINUOUS
 10
-14.634923836
 20
-115.890642436
 30
0.0
 11
-0.4997620717
 21
162.4815824859
 31
0.0
 40
0.000109066
 41
6.3656902426
 42
6.3764914216
  0
ELLIPSE
  5
812
100
AcDbEntity
  8
RACCORDO
100
AcDbEllipse
 62
7
  6
CONTINUOUS
 10
-21.6625098894
 20
8.3641641898
 30
0.0
 11
-1.8480888181
 21
-0.7655034529
 31
0.0
 40
0.9998215708
 41
-0.3926359958
 42
0.3926359958
  0
ELLIPSE
  5
813
100
AcDbEntity
  8
RACCORDO
100
AcDbEllipse
 62
7
  6
CONTINUOUS
 10
-21.6625098894
 20
43.6058358102
 30
0.0
 11
1.8480888181
 21
-0.7655034529
 31
0.0
 40
0.9998215708
 41
2.7489566578
 42
3.5342286494
  0
ELLIPSE
  5
814
100
AcDbEntity
  8
RACCORDO
100
AcDbEllipse
 62
7
  6
CONTINUOUS
 10
-3.6074901106
 20
43.6058358102
 30
0.0
 11
1.8480888181
 21
0.7655034529
 31
0.0
 40
0.9998215708
 41
-0.3926359958
 42
-0.278861721
  0
ELLIPSE
  5
815
100
AcDbEntity
  8
RACCORDO
100
AcDbEllipse
 62
7
  6
CONTINUOUS
 10
-3.6074901106
 20
43.6058358102
 30
0.0
 11
1.8480888181
 21
0.7655034529
 31
0.0
 40
0.9998215708
 41
6.4756880539
 42
6.675821303
  0
ELLIPSE
  5
816
100
AcDbEntity
  8
RACCORDO
100
AcDbEllipse
 62
7
  6
CONTINUOUS
 10
-3.6074901106
 20
8.3641641898
 30
0.0
 11
-1.8480888181
 21
0.7655034529
 31
0.0
 40
0.9998215708
 41
9.032141965
 42
9.2322752141
  0
ELLIPSE
  5
817
100
AcDbEntity
  8
RACCORDO
100
AcDbEllipse
 62
7
  6
CONTINUOUS
 10
-3.6074901106
 20
8.3641641898
 30
0.0
 11
-1.8480888181
 21
0.7655034529
 31
0.0
 40
0.9998215708
 41
3.4204543746
 42
3.5342286494
  0
ELLIPSE
  5
818
100
AcDbEntity
  8
RACCORDO
100
AcDbEllipse
 62
7
  6
CONTINUOUS
 10
-10.135
 20
5.9404929743
 30
0.0
 11
1.0
 21
0.0
 31
0.0
 40
0.0087268678
 41
-1.5707963268
 42
0.0
  0
ELLIPSE
  5
819
100
AcDbEntity
  8
RACCORDO
100
AcDbEllipse
 62
7
  6
CONTINUOUS
 10
-10.135
 20
48.2785241039
 30
0.0
 11
1.0
 21
0.0
 31
0.0
 40
0.0174550649
 41
-0.9571890036
 42
-0.0
  0
ELLIPSE
  5
81A
100
AcDbEntity
  8
RACCORDO
100
AcDbEllipse
 62
7
  6
CONTINUOUS
 10
-15.135
 20
3.6914758961
 30
0.0
 11
1.0
 21
-0.0
 31
0.0
 40
0.0174550649
 41
2.18440365
 42
3.1415926536
  0
ELLIPSE
  5
81B
100
AcDbEntity
  8
RACCORDO
100
AcDbEllipse
 62
7
  6
CONTINUOUS
 10
-15.135
 20
5.9404929743
 30
0.0
 11
1.0
 21
-0.0
 31
0.0
 40
0.0087268678
 41
3.1415926536
 42
4.7123889804
  0
ELLIPSE
  5
81C
100
AcDbEntity
  8
RACCORDO
100
AcDbEllipse
 62
7
  6
CONTINUOUS
 10
-10.135
 20
3.6914758961
 30
0.0
 11
1.0
 21
-0.0
 31
0.0
 40
0.0174550649
 41
0.0
 42
0.9571890036
  0
ELLIPSE
  5
81D
100
AcDbEntity
  8
RACCORDO
100
AcDbEllipse
 62
7
  6
CONTINUOUS
 10
-10.135
 20
46.0295070257
 30
0.0
 11
1.0
 21
0.0
 31
0.0
 40
0.0087268678
 41
-0.0
 42
1.5707963268
  0
ELLIPSE
  5
81E
100
AcDbEntity
  8
RACCORDO
100
AcDbEllipse
 62
7
  6
CONTINUOUS
 10
-15.135
 20
46.0295070257
 30
0.0
 11
1.0
 21
0.0
 31
0.0
 40
0.0087268678
 41
1.5707963268
 42
3.1415926536
  0
ELLIPSE
  5
81F
100
AcDbEntity
  8
RACCORDO
100
AcDbEllipse
 62
7
  6
CONTINUOUS
 10
-15.135
 20
48.2785241039
 30
0.0
 11
1.0
 21
0.0
 31
0.0
 40
0.0174550649
 41
-3.1415926536
 42
-2.18440365
  0
ELLIPSE
  5
820
100
AcDbEntity
  8
ASSI
100
AcDbEllipse
 62
7
  6
CONTINUOUS
 10
-12.635
 20
5.8026084632
 30
0.0
 11
15.0
 21
0.0
 31
0.0
 40
0.0087268678
 41
1.4073150204
 42
1.7342776332
  0
ELLIPSE
  5
821
100
AcDbEntity
  8
ASSI
100
AcDbEllipse
 62
7
  6
CONTINUOUS
 10
-12.635
 20
46.1673915368
 30
0.0
 11
15.0
 21
0.0
 31
0.0
 40
0.0087268678
 41
-1.7342776332
 42
-1.4073150204
  0
ELLIPSE
  5
822
100
AcDbEntity
  8
ASSI
100
AcDbEllipse
 62
7
  6
CONTINUOUS
 10
-23.217468771
 20
4.102531229
 30
0.0
 11
-0.3536610946
 21
-0.3536610946
 31
0.0
 40
0.9996954599
 41
-0.7852458701
 42
0.7852458701
  0
ELLIPSE
  5
823
100
AcDbEntity
  8
RACCORDO
100
AcDbEllipse
 62
7
  6
CONTINUOUS
 10
-16.385
 20
2.2524931469
 30
0.0
 11
0.0
 21
0.250038082
 31
0.0
 40
0.9998476952
 41
-3.1415926536
 42
-1.5707963268
  0
ELLIPSE
  5
824
100
AcDbEntity
  8
RACCORDO
100
AcDbEllipse
 62
7
  6
CONTINUOUS
 10
-8.885
 20
49.7175068531
 30
0.0
 11
0.0
 21
0.250038082
 31
0.0
 40
0.9998476952
 41
0.0
 42
1.5707963268
  0
ELLIPSE
  5
825
100
AcDbEntity
  8
ASSI
100
AcDbEllipse
 62
7
  6
CONTINUOUS
 10
-16.6809553394
 20
49.185
 30
0.0
 11
0.4595995956
 21
-0.0
 31
0.0
 40
0.9949884474
 41
2.3053277814
 42
2.644815645
  0
ELLIPSE
  5
826
100
AcDbEntity
  8
ASSI
100
AcDbEllipse
 62
7
  6
CONTINUOUS
 10
-16.6809553394
 20
2.785
 30
0.0
 11
0.4595995956
 21
-0.0
 31
0.0
 40
0.9949884474
 41
2.3053277814
 42
2.644815645
  0
ELLIPSE
  5
827
100
AcDbEntity
  8
ASSI
100
AcDbEllipse
 62
7
  6
CONTINUOUS
 10
-21.6718706193
 20
49.5406624327
 30
0.0
 11
0.25
 21
0.0
 31
0.0
 40
0.5773502692
 41
2.617993878
 42
3.1241393611
  0
ELLIPSE
  5
828
100
AcDbEntity
  8
ASSI
100
AcDbEllipse
 62
7
  6
CONTINUOUS
 10
-3.8718706193
 20
49.5406624327
 30
0.0
 11
0.25
 21
0.0
 31
0.0
 40
0.5773502692
 41
2.617993878
 42
3.1241393611
  0
ELLIPSE
  5
829
100
AcDbEntity
  8
ASSI
100
AcDbEllipse
 62
7
  6
CONTINUOUS
 10
-3.5981293807
 20
2.4293375673
 30
0.0
 11
0.25
 21
-0.0
 31
0.0
 40
0.5773502692
 41
-0.5235987756
 42
-0.0174532925
  0
ELLIPSE
  5
82A
100
AcDbEntity
  8
ASSI
100
AcDbEllipse
 62
7
  6
CONTINUOUS
 10
-21.3981293807
 20
2.4293375673
 30
0.0
 11
0.25
 21
0.0
 31
0.0
 40
0.5773502692
 41
-0.5235987756
 42
-0.0174532925
  0
ELLIPSE
  5
82B
100
AcDbEntity
  8
ASSI
100
AcDbEllipse
 62
7
  6
CONTINUOUS
 10
-2.052531229
 20
47.867468771
 30
0.0
 11
0.3536610946
 21
0.3536610946
 31
0.0
 40
0.9996954599
 41
-0.7852458701
 42
0.7852458701
  0
ELLIPSE
  5
82C
100
AcDbEntity
  8
RACCORDO
100
AcDbEllipse
 62
7
  6
CONTINUOUS
 10
-8.885
 20
2.2524931469
 30
0.0
 11
0.0
 21
0.250038082
 31
0.0
 40
0.9998476952
 41
-4.7123889804
 42
-3.1415926536
  0
ELLIPSE
  5
82D
100
AcDbEntity
  8
ASSI
100
AcDbEllipse
 62
7
  6
CONTINUOUS
 10
-2.052531229
 20
4.102531229
 30
0.0
 11
-0.3536610946
 21
0.3536610946
 31
0.0
 40
0.9996954599
 41
2.3563467834
 42
3.9268385237
  0
ELLIPSE
  5
82E
100
AcDbEntity
  8
RACCORDO
100
AcDbEllipse
 62
7
  6
CONTINUOUS
 10
-13.7024931469
 20
49.7175068531
 30
0.0
 11
-0.1768305473
 21
-0.1768305473
 31
0.0
 40
0.9996954599
 41
2.3563467834
 42
3.9268385237
  0
ELLIPSE
  5
82F
100
AcDbEntity
  8
RACCORDO
100
AcDbEllipse
 62
7
  6
CONTINUOUS
 10
-16.385
 20
49.7175068531
 30
0.0
 11
0.0
 21
0.250038082
 31
0.0
 40
0.9998476952
 41
-1.5707963268
 42
0.0
  0
ELLIPSE
  5
830
100
AcDbEntity
  8
RACCORDO
100
AcDbEllipse
 62
7
  6
CONTINUOUS
 10
-16.5613230833
 20
48.2877111075
 30
0.0
 11
0.4263230833
 21
0.0
 31
0.0
 40
0.0174550649
 41
-3.1241393611
 42
0.0
  0
ELLIPSE
  5
831
100
AcDbEntity
  8
RACCORDO
100
AcDbEllipse
 62
7
  6
CONTINUOUS
 10
-16.5613230833
 20
3.6822888925
 30
0.0
 11
0.4263230833
 21
0.0
 31
0.0
 40
0.0174550649
 41
0.0
 42
3.1241393611
  0
ELLIPSE
  5
832
100
AcDbEntity
  8
RACCORDO
100
AcDbEllipse
 62
7
  6
CONTINUOUS
 10
-11.5675068531
 20
49.7175068531
 30
0.0
 11
-0.1768305473
 21
0.1768305473
 31
0.0
 40
0.9996954599
 41
-0.7852458701
 42
0.7852458701
  0
ELLIPSE
  5
833
100
AcDbEntity
  8
RACCORDO
100
AcDbEllipse
 62
7
  6
CONTINUOUS
 10
-11.5675068531
 20
2.2524931469
 30
0.0
 11
0.1768305473
 21
0.1768305473
 31
0.0
 40
0.9996954599
 41
2.3563467834
 42
3.9268385237
  0
ELLIPSE
  5
834
100
AcDbEntity
  8
ASSI
100
AcDbEllipse
 62
7
  6
CONTINUOUS
 10
-8.5890446606
 20
49.185
 30
0.0
 11
0.4595995956
 21
-0.0
 31
0.0
 40
0.9949884474
 41
0.4967770086
 42
0.8362648721
  0
ELLIPSE
  5
835
100
AcDbEntity
  8
ASSI
100
AcDbEllipse
 62
7
  6
CONTINUOUS
 10
-8.5890446606
 20
49.185
 30
0.0
 11
0.4595995956
 21
-0.0
 31
0.0
 40
0.9949884474
 41
-0.8362648721
 42
-0.4967770086
  0
ELLIPSE
  5
836
100
AcDbEntity
  8
ASSI
100
AcDbEllipse
 62
7
  6
CONTINUOUS
 10
-8.5890446606
 20
2.785
 30
0.0
 11
0.4595995956
 21
-0.0
 31
0.0
 40
0.9949884474
 41
0.4967770086
 42
0.8362648721
  0
ELLIPSE
  5
837
100
AcDbEntity
  8
ASSI
100
AcDbEllipse
 62
7
  6
CONTINUOUS
 10
-8.5890446606
 20
2.785
 30
0.0
 11
0.4595995956
 21
-0.0
 31
0.0
 40
0.9949884474
 41
-0.8362648721
 42
-0.4967770086
  0
ELLIPSE
  5
838
100
AcDbEntity
  8
RACCORDO
100
AcDbEllipse
 62
7
  6
CONTINUOUS
 10
-8.7086769167
 20
48.2877111075
 30
0.0
 11
0.4263230833
 21
0.0
 31
0.0
 40
0.0174550649
 41
-3.1415926536
 42
-0.0174532925
  0
ELLIPSE
  5
839
100
AcDbEntity
  8
RACCORDO
100
AcDbEllipse
 62
7
  6
CONTINUOUS
 10
-8.7086769167
 20
3.6822888925
 30
0.0
 11
0.4263230833
 21
0.0
 31
0.0
 40
0.0174550649
 41
0.0174532925
 42
3.1415926536
  0
ELLIPSE
  5
83A
100
AcDbEntity
  8
RACCORDO
100
AcDbEllipse
 62
7
  6
CONTINUOUS
 10
-13.7024931469
 20
2.2524931469
 30
0.0
 11
0.1768305473
 21
-0.1768305473
 31
0.0
 40
0.9996954599
 41
-0.7852458701
 42
0.7852458701
  0
ELLIPSE
  5
83B
100
AcDbEntity
  8
ASSI
100
AcDbEllipse
 62
7
  6
CONTINUOUS
 10
-23.217468771
 20
47.867468771
 30
0.0
 11
0.3536610946
 21
-0.3536610946
 31
0.0
 40
0.9996954599
 41
2.3563467834
 42
3.9268385237
  0
ELLIPSE
  5
83C
100
AcDbEntity
  8
ASSI
100
AcDbEllipse
 62
7
  6
CONTINUOUS
 10
-20.7104493507
 20
4.7597029773
 30
0.0
 11
-0.0
 21
1.0
 31
0.0
 40
0.0174550649
 41
-1.8037088905
 42
-1.5707963268
  0
ELLIPSE
  5
83D
100
AcDbEntity
  8
ASSI
100
AcDbEllipse
 62
7
  6
CONTINUOUS
 10
-4.5595506493
 20
4.7597029773
 30
0.0
 11
-0.0
 21
1.0
 31
0.0
 40
0.0174550649
 41
-4.7123889804
 42
-4.4794764167
  0
ELLIPSE
  5
83E
100
AcDbEntity
  8
ASSI
100
AcDbEllipse
 62
7
  6
CONTINUOUS
 10
-4.5595506493
 20
47.2102970227
 30
0.0
 11
0.0
 21
1.0
 31
0.0
 40
0.0174550649
 41
1.3378837631
 42
1.5707963268
  0
ELLIPSE
  5
83F
100
AcDbEntity
  8
ASSI
100
AcDbEllipse
 62
7
  6
CONTINUOUS
 10
-20.7104493507
 20
47.2102970227
 30
0.0
 11
-0.0
 21
1.0
 31
0.0
 40
0.0174550649
 41
-1.5707963268
 42
-1.3378837631
  0
ELLIPSE
  5
840
100
AcDbEntity
  8
ASSI
100
AcDbEllipse
 62
7
  6
CONTINUOUS
 10
-4.3337135705
 20
47.2102970227
 30
0.0
 11
1.0000571192
 21
-0.9999809595
 31
0.0
 40
0.0061705924
 41
-3.1303103451
 42
-1.8098798745
  0
ELLIPSE
  5
841
100
AcDbEntity
  8
ASSI
100
AcDbEllipse
 62
7
  6
CONTINUOUS
 10
-20.9362864295
 20
47.2102970227
 30
0.0
 11
1.0000571192
 21
0.9999809595
 31
0.0
 40
0.0061705924
 41
-1.3317127791
 42
-0.0112823085
  0
ELLIPSE
  5
842
100
AcDbEntity
  8
ASSI
100
AcDbEllipse
 62
7
  6
CONTINUOUS
 10
-4.3337135705
 20
4.7597029773
 30
0.0
 11
1.0000571192
 21
0.9999809595
 31
0.0
 40
0.0061705924
 41
1.8098798745
 42
3.1303103451
  0
ELLIPSE
  5
843
100
AcDbEntity
  8
ASSI
100
AcDbEllipse
 62
7
  6
CONTINUOUS
 10
-20.9362864295
 20
4.7597029773
 30
0.0
 11
1.0000571192
 21
-0.9999809595
 31
0.0
 40
0.0061705924
 41
0.0112823085
 42
1.3317127791
  0
ELLIPSE
  5
844
100
AcDbEntity
  8
ASSI
100
AcDbEllipse
 62
7
  6
CONTINUOUS
 10
-3.5981293807
 20
49.5406624327
 30
0.0
 11
0.25
 21
-0.0
 31
0.0
 40
0.5773502692
 41
0.0174532925
 42
0.5235987756
  0
ELLIPSE
  5
845
100
AcDbEntity
  8
ASSI
100
AcDbEllipse
 62
7
  6
CONTINUOUS
 10
-3.5981293807
 20
48.3719087013
 30
0.0
 11
0.25
 21
-0.0
 31
0.0
 40
0.0174550649
 41
-1.5707963268
 42
-0.0174532925
  0
ELLIPSE
  5
846
100
AcDbEntity
  8
ASSI
100
AcDbEllipse
 62
7
  6
CONTINUOUS
 10
-3.8718706193
 20
48.3719087013
 30
0.0
 11
0.25
 21
0.0
 31
0.0
 40
0.0174550649
 41
-3.1241393611
 42
-1.5707963268
  0
ELLIPSE
  5
847
100
AcDbEntity
  8
ASSI
100
AcDbEllipse
 62
7
  6
CONTINUOUS
 10
-21.6718706193
 20
48.3719087013
 30
0.0
 11
0.25
 21
-0.0
 31
0.0
 40
0.0174550649
 41
-3.1241393611
 42
-1.5707963268
  0
ELLIPSE
  5
848
100
AcDbEntity
  8
ASSI
100
AcDbEllipse
 62
7
  6
CONTINUOUS
 10
-21.3981293807
 20
49.5406624327
 30
0.0
 11
0.25
 21
0.0
 31
0.0
 40
0.5773502692
 41
0.0174532925
 42
0.5235987756
  0
ELLIPSE
  5
849
100
AcDbEntity
  8
ASSI
100
AcDbEllipse
 62
7
  6
CONTINUOUS
 10
-21.3981293807
 20
48.3719087013
 30
0.0
 11
0.25
 21
0.0
 31
0.0
 40
0.0174550649
 41
-1.5707963268
 42
-0.0174532925
  0
ELLIPSE
  5
84A
100
AcDbEntity
  8
ASSI
100
AcDbEllipse
 62
7
  6
CONTINUOUS
 10
-3.5981293807
 20
3.5980912987
 30
0.0
 11
0.25
 21
-0.0
 31
0.0
 40
0.0174550649
 41
0.0174532925
 42
1.5707963268
  0
ELLIPSE
  5
84B
100
AcDbEntity
  8
ASSI
100
AcDbEllipse
 62
7
  6
CONTINUOUS
 10
-3.8718706193
 20
2.4293375673
 30
0.0
 11
0.25
 21
0.0
 31
0.0
 40
0.5773502692
 41
-3.1241393611
 42
-2.617993878
  0
ELLIPSE
  5
84C
100
AcDbEntity
  8
ASSI
100
AcDbEllipse
 62
7
  6
CONTINUOUS
 10
-3.8718706193
 20
3.5980912987
 30
0.0
 11
0.25
 21
0.0
 31
0.0
 40
0.0174550649
 41
1.5707963268
 42
3.1241393611
  0
ELLIPSE
  5
84D
100
AcDbEntity
  8
ASSI
100
AcDbEllipse
 62
7
  6
CONTINUOUS
 10
-20.0350304656
 20
2.6314101615
 30
0.0
 11
0.0069796346
 21
0.2308610084
 31
0.0
 40
0.8659264732
 41
-1.535896377
 42
0.026173628
  0
ELLIPSE
  5
84E
100
AcDbEntity
  8
ASSI
100
AcDbEllipse
 62
7
  6
CONTINUOUS
 10
-21.3981293807
 20
3.5980912987
 30
0.0
 11
0.25
 21
0.0
 31
0.0
 40
0.0174550649
 41
0.0174532925
 42
1.5707963268
  0
ELLIPSE
  5
84F
100
AcDbEntity
  8
ASSI
100
AcDbEllipse
 62
7
  6
CONTINUOUS
 10
-21.6718706193
 20
2.4293375673
 30
0.0
 11
0.25
 21
0.0
 31
0.0
 40
0.5773502692
 41
-3.1241393611
 42
-2.617993878
  0
ELLIPSE
  5
850
100
AcDbEntity
  8
ASSI
100
AcDbEllipse
 62
7
  6
CONTINUOUS
 10
-21.6718706193
 20
3.5980912987
 30
0.0
 11
0.25
 21
0.0
 31
0.0
 40
0.0174550649
 41
1.5707963268
 42
3.1241393611
  0
ELLIPSE
  5
851
100
AcDbEntity
  8
ASSI
100
AcDbEllipse
 62
7
  6
CONTINUOUS
 10
-23.0349695344
 20
49.3385898385
 30
0.0
 11
0.0069796346
 21
0.2308610084
 31
0.0
 40
0.8659264732
 41
-4.6774890306
 42
-3.1154190256
  0
ELLIPSE
  5
852
100
AcDbEntity
  8
ASSI
100
AcDbEllipse
 62
7
  6
CONTINUOUS
 10
-20.0350304656
 20
49.3385898385
 30
0.0
 11
-0.0069796346
 21
0.2308610084
 31
0.0
 40
0.8659264732
 41
-3.1677662815
 42
-1.6056962766
  0
ELLIPSE
  5
853
100
AcDbEntity
  8
ASSI
100
AcDbEllipse
 62
7
  6
CONTINUOUS
 10
-2.2350304656
 20
2.6314101615
 30
0.0
 11
0.0069796346
 21
0.2308610084
 31
0.0
 40
0.8659264732
 41
-1.535896377
 42
0.026173628
  0
ELLIPSE
  5
854
100
AcDbEntity
  8
ASSI
100
AcDbEllipse
 62
7
  6
CONTINUOUS
 10
-5.2349695344
 20
49.3385898385
 30
0.0
 11
0.0069796346
 21
0.2308610084
 31
0.0
 40
0.8659264732
 41
-4.6774890306
 42
-3.1154190256
  0
ELLIPSE
  5
855
100
AcDbEntity
  8
ASSI
100
AcDbEllipse
 62
7
  6
CONTINUOUS
 10
-5.2349695344
 20
2.6314101615
 30
0.0
 11
-0.0069796346
 21
0.2308610084
 31
0.0
 40
0.8659264732
 41
-0.026173628
 42
1.535896377
  0
ELLIPSE
  5
856
100
AcDbEntity
  8
ASSI
100
AcDbEllipse
 62
7
  6
CONTINUOUS
 10
-2.2350304656
 20
49.3385898385
 30
0.0
 11
-0.0069796346
 21
0.2308610084
 31
0.0
 40
0.8659264732
 41
-3.1677662815
 42
-1.6056962766
  0
ELLIPSE
  5
857
100
AcDbEntity
  8
ASSI
100
AcDbEllipse
 62
7
  6
CONTINUOUS
 10
-23.0349695344
 20
2.6314101615
 30
0.0
 11
-0.0069796346
 21
0.2308610084
 31
0.0
 40
0.8659264732
 41
-0.026173628
 42
1.535896377
  0
ELLIPSE
  5
858
100
AcDbEntity
  8
RACCORDO
100
AcDbEllipse
 62
7
  6
CONTINUOUS
 10
-14.3175778872
 20
8.385
 30
0.0
 11
0.3000114235
 21
0.0
 31
0.0
 40
0.9999619231
 41
1.5707963268
 42
2.80137059
  0
ELLIPSE
  5
859
100
AcDbEntity
  8
RACCORDO
100
AcDbEllipse
 62
7
  6
CONTINUOUS
 10
-23.3480788782
 20
22.535
 30
0.0
 11
0.3000114235
 21
0.0
 31
0.0
 40
0.9999619231
 41
1.5707963268
 42
3.1415926536
  0
ELLIPSE
  5
85A
100
AcDbEntity
  8
RACCORDO
100
AcDbEllipse
 62
7
  6
CONTINUOUS
 10
-23.3480788782
 20
27.535
 30
0.0
 11
0.3000114235
 21
0.0
 31
0.0
 40
0.9999619231
 41
1.5707963268
 42
3.1415926536
  0
ELLIPSE
  5
85B
100
AcDbEntity
  8
DRAFT
100
AcDbEllipse
 62
7
  6
CONTINUOUS
 10
-22.476452622
 20
24.985
 30
0.0
 11
0.0
 21
2.15
 31
0.0
 40
0.0087268678
 41
0.0
 42
3.1415926536
  0
ELLIPSE
  5
85C
100
AcDbEntity
  8
DRAFT
100
AcDbEllipse
 62
7
  6
CONTINUOUS
 10
-22.476452622
 20
39.985
 30
0.0
 11
0.0
 21
2.15
 31
0.0
 40
0.0087268678
 41
-0.0
 42
3.1415926536
  0
ELLIPSE
  5
85D
100
AcDbEntity
  8
DRAFT
100
AcDbEllipse
 62
7
  6
CONTINUOUS
 10
-22.476452622
 20
34.985
 30
0.0
 11
0.0
 21
2.15
 31
0.0
 40
0.0087268678
 41
0.0
 42
3.1415926536
  0
ELLIPSE
  5
85E
100
AcDbEntity
  8
DRAFT
100
AcDbEllipse
 62
7
  6
CONTINUOUS
 10
-22.476452622
 20
29.985
 30
0.0
 11
0.0
 21
2.15
 31
0.0
 40
0.0087268678
 41
-0.0
 42
3.1415926536
  0
ELLIPSE
  5
85F
100
AcDbEntity
  8
RACCORDO
100
AcDbEllipse
 62
7
  6
CONTINUOUS
 10
-16.3480788782
 20
45.2980788782
 30
0.0
 11
0.2121481893
 21
-0.2121481893
 31
0.0
 40
0.9999238505
 41
2.3562325664
 42
3.9269527408
  0
ELLIPSE
  5
860
100
AcDbEntity
  8
RACCORDO
100
AcDbEllipse
 62
7
  6
CONTINUOUS
 10
-3.2438071545
 20
44.5980522233
 30
0.0
 11
0.3827005044
 21
0.9239207481
 31
0.0
 40
0.9999553905
 41
-0.3926833098
 42
0.3926833098
  0
ELLIPSE
  5
861
100
AcDbEntity
  8
RACCORDO
100
AcDbEllipse
 62
7
  6
CONTINUOUS
 10
-2.6219477767
 20
43.9761928455
 30
0.0
 11
0.9239207481
 21
0.3827005044
 31
0.0
 40
0.9999553905
 41
-0.3926833098
 42
0.3926833098
  0
ELLIPSE
  5
862
100
AcDbEntity
  8
RACCORDO
100
AcDbEllipse
 62
7
  6
CONTINUOUS
 10
-2.6219477767
 20
7.9938071545
 30
0.0
 11
0.9239207481
 21
-0.3827005044
 31
0.0
 40
0.9999553905
 41
-0.3926833098
 42
0.3926833098
  0
ELLIPSE
  5
863
100
AcDbEntity
  8
RACCORDO
100
AcDbEllipse
 62
7
  6
CONTINUOUS
 10
-3.2438071545
 20
7.3719477767
 30
0.0
 11
-0.3827005044
 21
0.9239207481
 31
0.0
 40
0.9999553905
 41
2.7489093438
 42
3.5342759634
  0
ELLIPSE
  5
864
100
AcDbEntity
  8
RACCORDO
100
AcDbEllipse
 62
7
  6
CONTINUOUS
 10
-16.3480788782
 20
6.6719211218
 30
0.0
 11
-0.2121481893
 21
-0.2121481893
 31
0.0
 40
0.9999238505
 41
-0.7853600872
 42
0.7853600872
  0
ELLIPSE
  5
865
100
AcDbEntity
  8
RACCORDO
100
AcDbEllipse
 62
7
  6
CONTINUOUS
 10
-22.0261928455
 20
8.7719477767
 30
0.0
 11
-0.3827005044
 21
-0.9239207481
 31
0.0
 40
0.9999553905
 41
-0.3926833098
 42
0.3926833098
  0
ELLIPSE
  5
866
100
AcDbEntity
  8
RACCORDO
100
AcDbEllipse
 62
7
  6
CONTINUOUS
 10
-22.6480522233
 20
9.3938071545
 30
0.0
 11
0.9239207481
 21
0.3827005044
 31
0.0
 40
0.9999553905
 41
2.7489093438
 42
3.5342759634
  0
ELLIPSE
  5
867
100
AcDbEntity
  8
RACCORDO
100
AcDbEllipse
 62
7
  6
CONTINUOUS
 10
-23.3480788782
 20
27.435
 30
0.0
 11
-0.3000114235
 21
-0.0
 31
0.0
 40
0.9999619231
 41
0.0
 42
1.5707963268
  0
ELLIPSE
  5
868
100
AcDbEntity
  8
RACCORDO
100
AcDbEllipse
 62
7
  6
CONTINUOUS
 10
-23.3480788782
 20
32.435
 30
0.0
 11
-0.3000114235
 21
-0.0
 31
0.0
 40
0.9999619231
 41
0.0
 42
1.5707963268
  0
ELLIPSE
  5
869
100
AcDbEntity
  8
RACCORDO
100
AcDbEllipse
 62
7
  6
CONTINUOUS
 10
-23.3480788782
 20
32.535
 30
0.0
 11
0.3000114235
 21
0.0
 31
0.0
 40
0.9999619231
 41
1.5707963268
 42
3.1415926536
  0
ELLIPSE
  5
86A
100
AcDbEntity
  8
RACCORDO
100
AcDbEllipse
 62
7
  6
CONTINUOUS
 10
-23.3480788782
 20
37.435
 30
0.0
 11
-0.3000114235
 21
-0.0
 31
0.0
 40
0.9999619231
 41
0.0
 42
1.5707963268
  0
ELLIPSE
  5
86B
100
AcDbEntity
  8
RACCORDO
100
AcDbEllipse
 62
7
  6
CONTINUOUS
 10
-23.3480788782
 20
37.535
 30
0.0
 11
0.3000114235
 21
0.0
 31
0.0
 40
0.9999619231
 41
1.5707963268
 42
3.1415926536
  0
ELLIPSE
  5
86C
100
AcDbEntity
  8
RACCORDO
100
AcDbEllipse
 62
7
  6
CONTINUOUS
 10
-23.3480788782
 20
42.435
 30
0.0
 11
-0.3000114235
 21
-0.0
 31
0.0
 40
0.9999619231
 41
0.0
 42
1.5707963268
  0
ELLIPSE
  5
86D
100
AcDbEntity
  8
RACCORDO
100
AcDbEllipse
 62
7
  6
CONTINUOUS
 10
-22.6480522233
 20
42.5761928455
 30
0.0
 11
-0.9239207481
 21
0.3827005044
 31
0.0
 40
0.9999553905
 41
-0.3926833098
 42
0.3926833098
  0
ELLIPSE
  5
86E
100
AcDbEntity
  8
RACCORDO
100
AcDbEllipse
 62
7
  6
CONTINUOUS
 10
-22.0261928455
 20
43.1980522233
 30
0.0
 11
-0.3827005044
 21
0.9239207481
 31
0.0
 40
0.9999553905
 41
-0.3926833098
 42
0.3926833098
  0
ELLIPSE
  5
86F
100
AcDbEntity
  8
RACCORDO
100
AcDbEllipse
 62
7
  6
CONTINUOUS
 10
-16.9481017252
 20
44.4981017252
 30
0.0
 11
0.2121481893
 21
-0.2121481893
 31
0.0
 40
0.9999238505
 41
-0.7853600872
 42
0.7853600872
  0
ELLIPSE
  5
870
100
AcDbEntity
  8
RACCORDO
100
AcDbEllipse
 62
7
  6
CONTINUOUS
 10
-10.9524221128
 20
8.385
 30
0.0
 11
0.3000114235
 21
0.0
 31
0.0
 40
0.9999619231
 41
0.3402220636
 42
1.5707963268
  0
ELLIPSE
  5
871
100
AcDbEntity
  8
RACCORDO
100
AcDbEllipse
 62
7
  6
CONTINUOUS
 10
-11.0310069692
 20
43.585
 30
0.0
 11
-0.3000114235
 21
-0.0
 31
0.0
 40
0.9999619231
 41
1.5707963268
 42
2.80137059
  0
ELLIPSE
  5
872
100
AcDbEntity
  8
RACCORDO
100
AcDbEllipse
 62
7
  6
CONTINUOUS
 10
-14.2389930308
 20
43.585
 30
0.0
 11
-0.3000114235
 21
-0.0
 31
0.0
 40
0.9999619231
 41
0.3402220636
 42
1.5707963268
  0
ELLIPSE
  5
873
100
AcDbEntity
  8
ASSI
100
AcDbEllipse
 62
7
  6
CONTINUOUS
 10
-16.3480788782
 20
45.2980788782
 30
0.0
 11
0.2121481893
 21
-0.2121481893
 31
0.0
 40
0.9999238505
 41
2.3562325664
 42
3.9269527408
  0
ELLIPSE
  5
874
100
AcDbEntity
  8
ASSI
100
AcDbEllipse
 62
7
  6
CONTINUOUS
 10
-3.2438071545
 20
44.5980522233
 30
0.0
 11
0.3827005044
 21
0.9239207481
 31
0.0
 40
0.9999553905
 41
-0.3926833098
 42
0.3926833098
  0
ELLIPSE
  5
875
100
AcDbEntity
  8
ASSI
100
AcDbEllipse
 62
7
  6
CONTINUOUS
 10
-2.6219477767
 20
43.9761928455
 30
0.0
 11
0.9239207481
 21
0.3827005044
 31
0.0
 40
0.9999553905
 41
-0.3926833098
 42
0.3926833098
  0
ELLIPSE
  5
876
100
AcDbEntity
  8
ASSI
100
AcDbEllipse
 62
7
  6
CONTINUOUS
 10
-2.6219477767
 20
7.9938071545
 30
0.0
 11
0.9239207481
 21
-0.3827005044
 31
0.0
 40
0.9999553905
 41
-0.3926833098
 42
0.3926833098
  0
ELLIPSE
  5
877
100
AcDbEntity
  8
ASSI
100
AcDbEllipse
 62
7
  6
CONTINUOUS
 10
-3.2438071545
 20
7.3719477767
 30
0.0
 11
-0.3827005044
 21
0.9239207481
 31
0.0
 40
0.9999553905
 41
2.7489093438
 42
3.5342759634
  0
ELLIPSE
  5
878
100
AcDbEntity
  8
ASSI
100
AcDbEllipse
 62
7
  6
CONTINUOUS
 10
-16.3480788782
 20
6.6719211218
 30
0.0
 11
-0.2121481893
 21
-0.2121481893
 31
0.0
 40
0.9999238505
 41
-0.7853600872
 42
0.7853600872
  0
ELLIPSE
  5
879
100
AcDbEntity
  8
ASSI
100
AcDbEllipse
 62
7
  6
CONTINUOUS
 10
-22.0261928455
 20
8.7719477767
 30
0.0
 11
-0.3827005044
 21
-0.9239207481
 31
0.0
 40
0.9999553905
 41
-0.3926833098
 42
0.3926833098
  0
ELLIPSE
  5
87A
100
AcDbEntity
  8
ASSI
100
AcDbEllipse
 62
7
  6
CONTINUOUS
 10
-22.6480522233
 20
9.3938071545
 30
0.0
 11
0.9239207481
 21
0.3827005044
 31
0.0
 40
0.9999553905
 41
2.7489093438
 42
3.5342759634
  0
ELLIPSE
  5
87B
100
AcDbEntity
  8
ASSI
100
AcDbEllipse
 62
7
  6
CONTINUOUS
 10
-23.3480788782
 20
27.435
 30
0.0
 11
-0.3000114235
 21
-0.0
 31
0.0
 40
0.9999619231
 41
0.0
 42
1.5707963268
  0
ELLIPSE
  5
87C
100
AcDbEntity
  8
ASSI
100
AcDbEllipse
 62
7
  6
CONTINUOUS
 10
-23.3480788782
 20
32.435
 30
0.0
 11
-0.3000114235
 21
-0.0
 31
0.0
 40
0.9999619231
 41
0.0
 42
1.5707963268
  0
ELLIPSE
  5
87D
100
AcDbEntity
  8
ASSI
100
AcDbEllipse
 62
7
  6
CONTINUOUS
 10
-23.3480788782
 20
32.535
 30
0.0
 11
0.3000114235
 21
0.0
 31
0.0
 40
0.9999619231
 41
1.5707963268
 42
3.1415926536
  0
ELLIPSE
  5
87E
100
AcDbEntity
  8
ASSI
100
AcDbEllipse
 62
7
  6
CONTINUOUS
 10
-23.3480788782
 20
37.435
 30
0.0
 11
-0.3000114235
 21
-0.0
 31
0.0
 40
0.9999619231
 41
0.0
 42
1.5707963268
  0
ELLIPSE
  5
87F
100
AcDbEntity
  8
ASSI
100
AcDbEllipse
 62
7
  6
CONTINUOUS
 10
-23.3480788782
 20
37.535
 30
0.0
 11
0.3000114235
 21
0.0
 31
0.0
 40
0.9999619231
 41
1.5707963268
 42
3.1415926536
  0
ELLIPSE
  5
880
100
AcDbEntity
  8
ASSI
100
AcDbEllipse
 62
7
  6
CONTINUOUS
 10
-23.3480788782
 20
42.435
 30
0.0
 11
-0.3000114235
 21
-0.0
 31
0.0
 40
0.9999619231
 41
0.0
 42
1.5707963268
  0
ELLIPSE
  5
881
100
AcDbEntity
  8
ASSI
100
AcDbEllipse
 62
7
  6
CONTINUOUS
 10
-22.6480522233
 20
42.5761928455
 30
0.0
 11
-0.9239207481
 21
0.3827005044
 31
0.0
 40
0.9999553905
 41
-0.3926833098
 42
0.3926833098
  0
ELLIPSE
  5
882
100
AcDbEntity
  8
ASSI
100
AcDbEllipse
 62
7
  6
CONTINUOUS
 10
-22.0261928455
 20
43.1980522233
 30
0.0
 11
-0.3827005044
 21
0.9239207481
 31
0.0
 40
0.9999553905
 41
-0.3926833098
 42
0.3926833098
  0
ELLIPSE
  5
883
100
AcDbEntity
  8
ASSI
100
AcDbEllipse
 62
7
  6
CONTINUOUS
 10
-10.9524221128
 20
8.385
 30
0.0
 11
0.3000114235
 21
0.0
 31
0.0
 40
0.9999619231
 41
0.3402220636
 42
1.5707963268
  0
ELLIPSE
  5
884
100
AcDbEntity
  8
ASSI
100
AcDbEllipse
 62
7
  6
CONTINUOUS
 10
-11.0310069692
 20
43.585
 30
0.0
 11
-0.3000114235
 21
-0.0
 31
0.0
 40
0.9999619231
 41
1.5707963268
 42
2.80137059
  0
ELLIPSE
  5
885
100
AcDbEntity
  8
ASSI
100
AcDbEllipse
 62
7
  6
CONTINUOUS
 10
-14.2389930308
 20
43.585
 30
0.0
 11
-0.3000114235
 21
-0.0
 31
0.0
 40
0.9999619231
 41
0.3402220636
 42
1.5707963268
  0
ELLIPSE
  5
886
100
AcDbEntity
  8
ASSI
100
AcDbEllipse
 62
7
  6
CONTINUOUS
 10
-14.3175778872
 20
8.385
 30
0.0
 11
0.3000114235
 21
0.0
 31
0.0
 40
0.9999619231
 41
1.5707963268
 42
2.80137059
  0
ELLIPSE
  5
887
100
AcDbEntity
  8
ASSI
100
AcDbEllipse
 62
7
  6
CONTINUOUS
 10
-23.3480788782
 20
22.535
 30
0.0
 11
0.3000114235
 21
0.0
 31
0.0
 40
0.9999619231
 41
1.5707963268
 42
3.1415926536
  0
ELLIPSE
  5
888
100
AcDbEntity
  8
ASSI
100
AcDbEllipse
 62
7
  6
CONTINUOUS
 10
-23.3480788782
 20
27.535
 30
0.0
 11
0.3000114235
 21
0.0
 31
0.0
 40
0.9999619231
 41
1.5707963268
 42
3.1415926536
  0
ELLIPSE
  5
889
100
AcDbEntity
  8
ASSI
100
AcDbEllipse
 62
7
  6
CONTINUOUS
 10
-22.476452622
 20
24.985
 30
0.0
 11
0.0
 21
2.15
 31
0.0
 40
0.0087268678
 41
0.0
 42
3.1415926536
  0
ELLIPSE
  5
88A
100
AcDbEntity
  8
ASSI
100
AcDbEllipse
 62
7
  6
CONTINUOUS
 10
-22.476452622
 20
39.985
 30
0.0
 11
0.0
 21
2.15
 31
0.0
 40
0.0087268678
 41
-0.0
 42
3.1415926536
  0
ELLIPSE
  5
88B
100
AcDbEntity
  8
ASSI
100
AcDbEllipse
 62
7
  6
CONTINUOUS
 10
-22.476452622
 20
34.985
 30
0.0
 11
0.0
 21
2.15
 31
0.0
 40
0.0087268678
 41
0.0
 42
3.1415926536
  0
ELLIPSE
  5
88C
100
AcDbEntity
  8
ASSI
100
AcDbEllipse
 62
7
  6
CONTINUOUS
 10
-22.476452622
 20
29.985
 30
0.0
 11
0.0
 21
2.15
 31
0.0
 40
0.0087268678
 41
-0.0
 42
3.1415926536
  0
ELLIPSE
  5
88D
100
AcDbEntity
  8
ASSI
100
AcDbEllipse
 62
7
  6
CONTINUOUS
 10
-16.9481017252
 20
44.4981017252
 30
0.0
 11
0.2121481893
 21
-0.2121481893
 31
0.0
 40
0.9999238505
 41
-0.7853600872
 42
0.7853600872
  0
ENDSEC
  0
SECTION
  2
OBJECTS
  0
DICTIONARY
  5
C
100
AcDbDictionary
280
0
281
1
  3
ACAD_GROUP
350
D
  3
ACAD_MLINESTYLE
350
17
  3
ACAD_LAYOUT
350
1A
  3
ACAD_PLOTSETTINGS
350
19
  3
ACAD_PLOTSTYLENAME
350
E
  0
DICTIONARY
  5
D
102
{ACAD_REACTORS
330
C
102
}
100
AcDbDictionary
280
0
281
1
  0
ACDBDICTIONARYWDFLT
  5
E
102
{ACAD_REACTORS
330
C
102
}
100
AcDbDictionary
281
1
  3
Normal
350
F
100
AcDbDictionaryWithDefault
340
F
  0
DICTIONARY
  5
17
102
{ACAD_REACTORS
330
C
102
}
100
AcDbDictionary
280
0
281
1
  3
Standard
350
18
  0
DICTIONARY
  5
19
102
{ACAD_REACTORS
330
C
102
}
100
AcDbDictionary
281
1
  0
DICTIONARY
  5
1A
102
{ACAD_REACTORS
330
C
102
}
100
AcDbDictionary
281
1
  3
Model
350
88E
  3
Layout1
350
88F
  0
ACDBPLACEHOLDER
  5
F
102
{ACAD_REACTORS
330
E
102
}
  0
MLINESTYLE
  5
18
102
{ACAD_REACTORS
330
17
102
}
100
AcDbMlineStyle
  2
STANDARD
 70
0
  3

 62
256
 51
90.0
 52
90.0
 71
2
 49
0.5
 62
256
  6
BYLAYER
 49
-0.5
 62
256
  6
BYLAYER
  0
LAYOUT
  5
88E
102
{ACAD_REACTORS
330
1A
102
}
100
AcDbPlotSettings
  1

  2
none_device
  4
ISO_A4_(297.00_x_210.00_MM)
  6

 40
0.0
 41
0.0
 42
0.0
 43
0.0
 44
297.0
 45
210.0
 46
0.0
 47
0.0
 48
0.0
 49
0.0
140
0.0
141
0.0
142
1.0
143
1.0
 70
1024
 72
1
 73
0
 74
0
  7

 75
0
147
1.0
148
0.0
149
0.0
100
AcDbLayout
  1
Model
 70
0
 71
0
 10
0.0
 20
0.0
 11
297.0
 21
210.0
 12
0.0
 22
0.0
 32
0.0
 14
0.0
 24
0.0
 34
0.0
 15
0.0
 25
0.0
 35
0.0
146
0.0
 13
0.0
 23
0.0
 33
0.0
 16
1.0
 26
0.0
 36
0.0
 17
0.0
 27
1.0
 37
0.0
 76
0
330
223
345
0
346
0
  0
LAYOUT
  5
88F
102
{ACAD_REACTORS
330
1A
102
}
100
AcDbPlotSettings
  1

  2
none_device
  4
ISO_A4_(297.00_x_210.00_MM)
  6

 40
0.0
 41
0.0
 42
0.0
 43
0.0
 44
297.0
 45
210.0
 46
0.0
 47
0.0
 48
0.0
 49
0.0
140
0.0
141
0.0
142
1.0
143
1.0
 70
0
 72
1
 73
0
 74
0
  7

 75
0
147
1.0
148
0.0
149
0.0
100
AcDbLayout
  1
Layout1
 70
0
 71
1
 10
0.0
 20
0.0
 11
297.0
 21
210.0
 12
0.0
 22
0.0
 32
0.0
 14
0.0
 24
0.0
 34
0.0
 15
0.0
 25
0.0
 35
0.0
146
0.0
 13
0.0
 23
0.0
 33
0.0
 16
1.0
 26
0.0
 36
0.0
 17
0.0
 27
1.0
 37
0.0
 76
0
330
224
345
0
346
0
  0
ENDSEC
  0
EOF
