  0
SECTION
  2
HEADER
  9
$ACADVER
  1
AC1015
  9
$DWGCODEPAGE
  3
ANSI_1252
  9
$EXTMAX
 10
297.0
 20
210.0
 30
0.0
  9
$EXTMIN
 10
0.0
 20
0.0
 30
0.0
  9
$LIMMIN
 10
0.0
 20
0.0
  9
$LIMMAX
 10
297.0
 20
210.0
  9
$VIEWCTR
 10
148.5
 20
105.0
  9
$VIEWSIZE
 40
210.0
  9
$CLAYER
  8
0
  9
$LTSCALE
 40
16.335
  9
$CELTYPE
  6
BYLAYER
  9
$DIMSCALE
 40
1.0
  9
$DIMASZ
 40
3.0
  9
$DIMEXO
 40
1.85625
  9
$DIMDLI
 40
11.286
  9
$DIMEXE
 40
5.346
  9
$DIMCEN
 40
2.673
  9
$DIMLFAC
 40
1.0
  9
$DIMBLK
  1
_FILLED
  9
$DIMTXT
 40
3.0
  9
$DIMTOL
 70
1
  9
$DIMLIM
 70
0
  9
$DIMTFAC
 40
1.0
  9
$DIMTP
 40
0.01
  9
$DIMTM
 40
0.01
  9
$PDMODE
 70
3
  9
$PDSIZE
 40
3.0
  9
$HANDSEED
  5
7F5
  9
$TILEMODE
 70
1
  9
$MEASUREMENT
 70
1
  9
$INSUNITS
 70
4
  0
ENDSEC
  0
SECTION
  2
CLASSES
  0
CLASS
  1
ACDBDICTIONARYWDFLT
  2
AcDbDictionaryWithDefault
  3
AutoCAD 2000
 90
0
280
0
281
0
  0
CLASS
  1
ACDBPLACEHOLDER
  2
AcDbPlaceHolder
  3
AutoCAD 2000
 90
0
280
0
281
0
  0
CLASS
  1
LAYOUT
  2
AcDbLayout
  3
AutoCAD 2000
 90
0
280
0
281
0
  0
ENDSEC
  0
SECTION
  2
TABLES
  0
TABLE
  2
VPORT
  5
8
100
AcDbSymbolTable
 70
2
  0
VPORT
  5
1F4
100
AcDbSymbolTableRecord
100
AcDbViewportTableRecord
  2
*ACTIVE
 70
0
 10
0.0
 20
0.0
 11
1.0
 21
1.0
 12
148.5
 22
105.0
 13
0.0
 23
0.0
 14
1.0
 24
1.0
 15
0.0
 25
0.0
 16
0.0
 26
0.0
 36
1.0
 17
0.0
 27
0.0
 37
0.0
 40
210.0
 41
1.4142857143
 42
50.0
 43
0.0
 44
0.0
 50
0.0
 51
0.0
 71
0
 72
100
 73
1
 74
1
 75
0
 76
0
 77
0
 78
0
  0
ENDTAB
  0
TABLE
  2
LTYPE
  5
5
100
AcDbSymbolTable
 70
6
  0
LTYPE
  5
14
100
AcDbSymbolTableRecord
100
AcDbLinetypeTableRecord
  2
BYBLOCK
 70
0
  3

 72
65
 73
0
 40
0.0
  0
LTYPE
  5
15
100
AcDbSymbolTableRecord
100
AcDbLinetypeTableRecord
  2
BYLAYER
 70
0
  3

 72
65
 73
0
 40
0.0
  0
LTYPE
  5
16
100
AcDbSymbolTableRecord
100
AcDbLinetypeTableRecord
  2
CONTINUOUS
 70
64
  3
Solid line
 72
65
 73
0
 40
0.0
  0
LTYPE
  5
1F5
100
AcDbSymbolTableRecord
100
AcDbLinetypeTableRecord
  2
CENTER
 70
64
  3
____ _ ____ _ ____ _ ____ _ ____ _ ____ _ ____
 72
65
 73
4
 40
0.6
 49
0.375
 74
0
 49
-0.075
 74
0
 49
0.075
 74
0
 49
-0.075
 74
0
  0
LTYPE
  5
1F6
100
AcDbSymbolTableRecord
100
AcDbLinetypeTableRecord
  2
HIDDEN
 70
64
  3
- - - - - - - - - - - - - - - - - - - -
 72
65
 73
2
 40
0.2
 49
0.1
 74
0
 49
-0.1
 74
0
  0
LTYPE
  5
1F7
100
AcDbSymbolTableRecord
100
AcDbLinetypeTableRecord
  2
PHANTOM
 70
64
  3
_____ _ _ _____ _ _ _____ _ _ _____
 72
65
 73
6
 40
0.8
 49
0.45
 74
0
 49
-0.05
 74
0
 49
0.1
 74
0
 49
-0.05
 74
0
 49
0.1
 74
0
 49
-0.05
 74
0
  0
LTYPE
  5
1F8
100
AcDbSymbolTableRecord
100
AcDbLinetypeTableRecord
  2
DOT
 70
64
  3
. . . . . . . . . . . . . . . . . . . .
 72
65
 73
2
 40
0.2
 49
0.1
 74
0
 49
-0.1
 74
0
  0
LTYPE
  5
1F9
100
AcDbSymbolTableRecord
100
AcDbLinetypeTableRecord
  2
DASHED
 70
64
  3
- - - - - - - - - - - - - - - - - - - -
 72
65
 73
2
 40
0.2
 49
0.1
 74
0
 49
-0.1
 74
0
  0
ENDTAB
  0
TABLE
  2
LAYER
  5
2
100
AcDbSymbolTable
 70
36
  0
LAYER
  5
10
100
AcDbSymbolTableRecord
100
AcDbLayerTableRecord
  2
0
 70
0
 62
7
  6
CONTINUOUS
370
-3
390
F
  0
LAYER
  5
1FA
100
AcDbSymbolTableRecord
100
AcDbLayerTableRecord
  2
DEFAULT_1
 70
0
 62
7
  6
CENTER
370
-3
390
F
  0
LAYER
  5
1FB
100
AcDbSymbolTableRecord
100
AcDbLayerTableRecord
  2
DEFAULT_2
 70
0
 62
7
  6
HIDDEN
370
-3
390
F
  0
LAYER
  5
1FC
100
AcDbSymbolTableRecord
100
AcDbLayerTableRecord
  2
DEFAULT_3
 70
0
 62
7
  6
PHANTOM
370
-3
390
F
  0
LAYER
  5
1FD
100
AcDbSymbolTableRecord
100
AcDbLayerTableRecord
  2
ASSI
 70
0
 62
7
  6
CONTINUOUS
370
-3
390
F
  0
LAYER
  5
1FE
100
AcDbSymbolTableRecord
100
AcDbLayerTableRecord
  2
COORDINATE
 70
0
 62
7
  6
CONTINUOUS
370
-3
390
F
  0
LAYER
  5
1FF
100
AcDbSymbolTableRecord
100
AcDbLayerTableRecord
  2
COORD_ORIGINE
 70
0
 62
7
  6
CONTINUOUS
370
-3
390
F
  0
LAYER
  5
200
100
AcDbSymbolTableRecord
100
AcDbLayerTableRecord
  2
COPY_PUBLISH
 70
0
 62
7
  6
CONTINUOUS
370
-3
390
F
  0
LAYER
  5
201
100
AcDbSymbolTableRecord
100
AcDbLayerTableRecord
  2
COSMETIC
 70
0
 62
7
  6
CONTINUOUS
370
-3
390
F
  0
LAYER
  5
202
100
AcDbSymbolTableRecord
100
AcDbLayerTableRecord
  2
CURVE
 70
0
 62
7
  6
CONTINUOUS
370
-3
390
F
  0
LAYER
  5
203
100
AcDbSymbolTableRecord
100
AcDbLayerTableRecord
  2
DRAFT
 70
0
 62
7
  6
CONTINUOUS
370
-3
390
F
  0
LAYER
  5
204
100
AcDbSymbolTableRecord
100
AcDbLayerTableRecord
  2
IMPORT
 70
0
 62
7
  6
CONTINUOUS
370
-3
390
F
  0
LAYER
  5
205
100
AcDbSymbolTableRecord
100
AcDbLayerTableRecord
  2
IMPORT_IGES
 70
0
 62
7
  6
CONTINUOUS
370
-3
390
F
  0
LAYER
  5
206
100
AcDbSymbolTableRecord
100
AcDbLayerTableRecord
  2
INTFCLR_1
 70
0
 62
7
  6
CONTINUOUS
370
-3
390
F
  0
LAYER
  5
207
100
AcDbSymbolTableRecord
100
AcDbLayerTableRecord
  2
INTF_1
 70
0
 62
7
  6
CONTINUOUS
370
-3
390
F
  0
LAYER
  5
208
100
AcDbSymbolTableRecord
100
AcDbLayerTableRecord
  2
INTF_15
 70
0
 62
7
  6
CONTINUOUS
370
-3
390
F
  0
LAYER
  5
209
100
AcDbSymbolTableRecord
100
AcDbLayerTableRecord
  2
INTF_16
 70
0
 62
7
  6
CONTINUOUS
370
-3
390
F
  0
LAYER
  5
20A
100
AcDbSymbolTableRecord
100
AcDbLayerTableRecord
  2
NOTE
 70
0
 62
7
  6
CONTINUOUS
370
-3
390
F
  0
LAYER
  5
20B
100
AcDbSymbolTableRecord
100
AcDbLayerTableRecord
  2
PIANI
 70
0
 62
7
  6
CONTINUOUS
370
-3
390
F
  0
LAYER
  5
20C
100
AcDbSymbolTableRecord
100
AcDbLayerTableRecord
  2
PIANI_ORIGINE
 70
0
 62
7
  6
CONTINUOUS
370
-3
390
F
  0
LAYER
  5
20D
100
AcDbSymbolTableRecord
100
AcDbLayerTableRecord
  2
PIANI_RIFERIMENTO
 70
0
 62
7
  6
CONTINUOUS
370
-3
390
F
  0
LAYER
  5
20E
100
AcDbSymbolTableRecord
100
AcDbLayerTableRecord
  2
PIANI_SFORMO
 70
0
 62
7
  6
CONTINUOUS
370
-3
390
F
  0
LAYER
  5
20F
100
AcDbSymbolTableRecord
100
AcDbLayerTableRecord
  2
PUNTI
 70
0
 62
7
  6
CONTINUOUS
370
-3
390
F
  0
LAYER
  5
210
100
AcDbSymbolTableRecord
100
AcDbLayerTableRecord
  2
RACCORDO
 70
0
 62
7
  6
CONTINUOUS
370
-3
390
F
  0
LAYER
  5
211
100
AcDbSymbolTableRecord
100
AcDbLayerTableRecord
  2
SMUSSO
 70
0
 62
7
  6
CONTINUOUS
370
-3
390
F
  0
LAYER
  5
212
100
AcDbSymbolTableRecord
100
AcDbLayerTableRecord
  2
SNAPLINE
 70
0
 62
7
  6
CONTINUOUS
370
-3
390
F
  0
LAYER
  5
213
100
AcDbSymbolTableRecord
100
AcDbLayerTableRecord
  2
SUPERFICI
 70
0
 62
7
  6
CONTINUOUS
370
-3
390
F
  0
LAYER
  5
214
100
AcDbSymbolTableRecord
100
AcDbLayerTableRecord
  2
SUPERFICI_SKEL
 70
0
 62
7
  6
CONTINUOUS
370
-3
390
F
  0
LAYER
  5
215
100
AcDbSymbolTableRecord
100
AcDbLayerTableRecord
  2
TRASH
 70
0
 62
7
  6
CONTINUOUS
370
-3
390
F
  0
ENDTAB
  0
TABLE
  2
STYLE
  5
3
100
AcDbSymbolTable
 70
1
  0
STYLE
  5
11
100
AcDbSymbolTableRecord
100
AcDbTextStyleTableRecord
  2
STANDARD
 70
0
 40
0.0
 41
0.8
 50
0.0
 71
0
 42
0.2
  3
txt
  4

  0
STYLE
  5
216
100
AcDbSymbolTableRecord
100
AcDbTextStyleTableRecord
  2
TEXTSTYLE_1
 70
0
 40
0.0
 41
0.8
 50
0.0
 71
0
 42
0.2
  3
gdt
  4

  0
ENDTAB
  0
TABLE
  2
VIEW
  5
6
100
AcDbSymbolTable
 70
0
  0
ENDTAB
  0
TABLE
  2
UCS
  5
7
100
AcDbSymbolTable
 70
0
  0
ENDTAB
  0
TABLE
  2
APPID
  5
9
100
AcDbSymbolTable
 70
1
  0
APPID
  5
217
100
AcDbSymbolTableRecord
100
AcDbRegAppTableRecord
  2
ACAD
 70
0
  0
ENDTAB
  0
TABLE
  2
BLOCK_RECORD
  5
1
100
AcDbSymbolTable
 70
0
  0
BLOCK_RECORD
  5
218
100
AcDbSymbolTableRecord
100
AcDbBlockTableRecord
  2
*Model_Space
  0
BLOCK_RECORD
  5
219
100
AcDbSymbolTableRecord
100
AcDbBlockTableRecord
  2
*Paper_Space
  0
ENDTAB
  0
TABLE
  2
DIMSTYLE
  5
A
100
AcDbSymbolTable
 70
1
100
AcDbDimStyleTable
 71
0
  0
DIMSTYLE
105
21A
100
AcDbSymbolTableRecord
100
AcDbDimStyleTableRecord
  2
STANDARD
 70
0
  3

  4

 40
1.0
 41
3.0
 42
0.0625
 43
0.38
 44
0.18
 45
0.0
 46
0.0
 47
0.01
 48
0.01
140
3.0
141
0.09
142
0.0
143
25.4
144
1.0
145
0.0
146
1.0
147
0.09
 71
1.0
 72
0.0
 73
0
 74
0
 75
0
 76
0
 77
1
 78
8
170
0
171
2
172
0
173
0
174
0
175
0
176
0
177
0
178
0
270
2
271
2
272
2
273
2
274
2
275
0
280
0
281
0
282
0
283
1
284
8
285
0
286
0
287
3
288
0
340
11
  0
ENDTAB
  0
ENDSEC
  0
SECTION
  2
BLOCKS
  0
BLOCK
  5
20
100
AcDbEntity
  8
0
100
AcDbBlockBegin
  2
*Model_Space
 70
0
 10
0.0
 20
0.0
 30
0.0
  3
*Model_Space
  1

  0
ENDBLK
  5
21
100
AcDbEntity
  8
0
100
AcDbBlockEnd
  0
BLOCK
  5
1C
100
AcDbEntity
  8
0
100
AcDbBlockBegin
  2
*Paper_Space
 70
0
 10
0.0
 20
0.0
 30
0.0
  3
*Paper_Space
  1

  0
ENDBLK
  5
1D
100
AcDbEntity
  8
0
100
AcDbBlockEnd
  0
ENDSEC
  0
SECTION
  2
ENTITIES
  0
LINE
  5
21B
100
AcDbEntity
  8
ASSI
100
AcDbLine
 62
7
  6
CONTINUOUS
 10
10.400030461
 20
-24.5
 11
7.399969539
 21
-24.5
  0
LINE
  5
21C
100
AcDbEntity
  8
ASSI
100
AcDbLine
 62
7
  6
CONTINUOUS
 10
-7.399969539
 20
-24.5
 11
-10.400030461
 21
-24.5
  0
LINE
  5
21D
100
AcDbEntity
  8
ASSI
100
AcDbLine
 62
253
  6
CONTINUOUS
 10
-10.3868630041
 20
-24.4868325431
 11
-7.4131369959
 21
-24.4868325431
  0
LINE
  5
21E
100
AcDbEntity
  8
ASSI
100
AcDbLine
 62
253
  6
CONTINUOUS
 10
7.4131369959
 20
-24.4868325431
 11
10.3868630041
 21
-24.4868325431
  0
LINE
  5
21F
100
AcDbEntity
  8
ASSI
100
AcDbLine
 62
253
  6
CONTINUOUS
 10
-10.5859750215
 20
-24.2368706193
 11
-7.2140249785
 21
-24.2368706193
  0
LINE
  5
220
100
AcDbEntity
  8
ASSI
100
AcDbLine
 62
253
  6
CONTINUOUS
 10
7.2140249785
 20
-24.2368706193
 11
10.5859750215
 21
-24.2368706193
  0
LINE
  5
221
100
AcDbEntity
  8
ASSI
100
AcDbLine
 62
7
  6
CONTINUOUS
 10
4.2000380762
 20
-24.0
 11
1.0499619238
 21
-24.0
  0
LINE
  5
222
100
AcDbEntity
  8
ASSI
100
AcDbLine
 62
7
  6
CONTINUOUS
 10
-1.0499619238
 20
-24.0
 11
-4.2000380762
 21
-24.0
  0
LINE
  5
223
100
AcDbEntity
  8
ASSI
100
AcDbLine
 62
7
  6
CONTINUOUS
 10
3.8478541563
 20
-23.9835887109
 11
1.0663732129
 21
-23.9835887109
  0
LINE
  5
224
100
AcDbEntity
  8
ASSI
100
AcDbLine
 62
7
  6
CONTINUOUS
 10
-1.0663732129
 20
-23.9835887109
 11
-3.8478541563
 21
-23.9835887109
  0
LINE
  5
225
100
AcDbEntity
  8
ASSI
100
AcDbLine
 62
253
  6
CONTINUOUS
 10
-8.7631293807
 20
-23.8443375673
 11
-7.2140249785
 21
-23.8443375673
  0
LINE
  5
226
100
AcDbEntity
  8
ASSI
100
AcDbLine
 62
253
  6
CONTINUOUS
 10
7.2140249785
 20
-23.8443375673
 11
8.7631293807
 21
-23.8443375673
  0
LINE
  5
227
100
AcDbEntity
  8
ASSI
100
AcDbLine
 62
253
  6
CONTINUOUS
 10
-10.5859750215
 20
-23.8443375673
 11
-9.0368706193
 21
-23.8443375673
  0
LINE
  5
228
100
AcDbEntity
  8
ASSI
100
AcDbLine
 62
253
  6
CONTINUOUS
 10
9.0368706193
 20
-23.8443375673
 11
10.5859750215
 21
-23.8443375673
  0
LINE
  5
229
100
AcDbEntity
  8
ASSI
100
AcDbLine
 62
253
  6
CONTINUOUS
 10
-7.413558172
 20
-23.6278322442
 11
-8.5466230298
 21
-23.6278312164
  0
LINE
  5
22A
100
AcDbEntity
  8
ASSI
100
AcDbLine
 62
253
  6
CONTINUOUS
 10
8.5466230298
 20
-23.6278312164
 11
7.4135581655
 21
-23.6278320282
  0
LINE
  5
22B
100
AcDbEntity
  8
ASSI
100
AcDbLine
 62
253
  6
CONTINUOUS
 10
10.3864405812
 20
-23.6278734826
 11
9.2533769702
 21
-23.6278312164
  0
LINE
  5
22C
100
AcDbEntity
  8
ASSI
100
AcDbLine
 62
253
  6
CONTINUOUS
 10
-9.2533769702
 20
-23.6278312164
 11
-10.3864405814
 21
-23.6278734767
  0
LINE
  5
22D
100
AcDbEntity
  8
ASSI
100
AcDbLine
 62
7
  6
CONTINUOUS
 10
10.4017150409
 20
-23.1226497308
 11
9.3
 21
-23.1226497308
  0
LINE
  5
22E
100
AcDbEntity
  8
ASSI
100
AcDbLine
 62
7
  6
CONTINUOUS
 10
8.5
 20
-23.1226497308
 11
7.3982849591
 21
-23.1226497308
  0
LINE
  5
22F
100
AcDbEntity
  8
ASSI
100
AcDbLine
 62
7
  6
CONTINUOUS
 10
-7.3982849591
 20
-23.1226497308
 11
-8.5
 21
-23.1226497308
  0
LINE
  5
230
100
AcDbEntity
  8
ASSI
100
AcDbLine
 62
7
  6
CONTINUOUS
 10
-9.3
 20
-23.1226497308
 11
-10.4017150409
 21
-23.1226497308
  0
LINE
  5
231
100
AcDbEntity
  8
ASSI
100
AcDbLine
 62
253
  6
CONTINUOUS
 10
-7.4131369959
 20
24.4868325431
 11
-7.399969539
 21
24.5
  0
LINE
  5
232
100
AcDbEntity
  8
ASSI
100
AcDbLine
 62
253
  6
CONTINUOUS
 10
-7.2131674569
 20
24.286863004
 11
-7.2
 21
24.300030461
  0
LINE
  5
233
100
AcDbEntity
  8
ASSI
100
AcDbLine
 62
7
  6
CONTINUOUS
 10
-8.5
 20
22.4
 11
-8.5131674569
 21
22.3868325431
  0
LINE
  5
234
100
AcDbEntity
  8
RACCORDO
100
AcDbLine
 62
7
  6
CONTINUOUS
 10
-8.8
 20
20.85
 11
-10.5643027805
 21
19.0856972195
  0
LINE
  5
235
100
AcDbEntity
  8
SUPERFICI
100
AcDbLine
 62
7
  6
CONTINUOUS
 10
-8.8
 20
20.85
 11
-10.5643027805
 21
19.0856972195
  0
LINE
  5
236
100
AcDbEntity
  8
ASSI
100
AcDbLine
 62
7
  6
CONTINUOUS
 10
-10.5643027805
 20
19.0856972195
 11
-11.0825449351
 21
18.5674550649
  0
LINE
  5
237
100
AcDbEntity
  8
ASSI
100
AcDbLine
 62
7
  6
CONTINUOUS
 10
-7.2551134101
 20
22.3825449351
 11
-8.2325449351
 21
21.4051134101
  0
LINE
  5
238
100
AcDbEntity
  8
ASSI
100
AcDbLine
 62
7
  6
CONTINUOUS
 10
-10.6893878075
 20
18.9482695977
 11
-11.0738174026
 21
18.5638400026
  0
LINE
  5
239
100
AcDbEntity
  8
ASSI
100
AcDbLine
 62
7
  6
CONTINUOUS
 10
-8.0492667533
 20
20.9872686779
 11
-8.2325449351
 21
20.8956365661
  0
LINE
  5
23A
100
AcDbEntity
  8
ASSI
100
AcDbLine
 62
7
  6
CONTINUOUS
 10
-8.0497859431
 20
21.4586521215
 11
-8.2325449351
 21
21.4051134101
  0
LINE
  5
23B
100
AcDbEntity
  8
ASSI
100
AcDbLine
 62
7
  6
CONTINUOUS
 10
0.8171358942
 20
-22.3982865828
 11
0.8
 21
-22.4
  0
LINE
  5
23C
100
AcDbEntity
  8
ASSI
100
AcDbLine
 62
253
  6
CONTINUOUS
 10
3.0573474057
 20
-21.2209325918
 11
3.3073093295
 21
-21.2165694902
  0
LINE
  5
23D
100
AcDbEntity
  8
ASSI
100
AcDbLine
 62
7
  6
CONTINUOUS
 10
10.6000000646
 20
-22.3999999354
 11
9.3
 21
-22.4
  0
LINE
  5
23E
100
AcDbEntity
  8
ASSI
100
AcDbLine
 62
7
  6
CONTINUOUS
 10
8.5
 20
-22.4
 11
4.45
 21
-22.4
  0
LINE
  5
23F
100
AcDbEntity
  8
ASSI
100
AcDbLine
 62
7
  6
CONTINUOUS
 10
-4.45
 20
-22.4
 11
-8.5
 21
-22.4
  0
LINE
  5
240
100
AcDbEntity
  8
ASSI
100
AcDbLine
 62
7
  6
CONTINUOUS
 10
-9.3
 20
-22.4
 11
-10.6
 21
-22.3999999999
  0
LINE
  5
241
100
AcDbEntity
  8
ASSI
100
AcDbLine
 62
7
  6
CONTINUOUS
 10
-0.8171358942
 20
-22.3982865828
 11
0.8171358942
 21
-22.3982865828
  0
LINE
  5
242
100
AcDbEntity
  8
ASSI
100
AcDbLine
 62
7
  6
CONTINUOUS
 10
-10.5826210875
 20
-22.3825449351
 11
-9.0368706193
 21
-22.3825449351
  0
LINE
  5
243
100
AcDbEntity
  8
ASSI
100
AcDbLine
 62
7
  6
CONTINUOUS
 10
-8.7631293807
 20
-22.3825449351
 11
-7.2551134101
 21
-22.3825449351
  0
LINE
  5
244
100
AcDbEntity
  8
ASSI
100
AcDbLine
 62
7
  6
CONTINUOUS
 10
7.2551134101
 20
-22.3825449351
 11
8.7631293807
 21
-22.3825449351
  0
LINE
  5
245
100
AcDbEntity
  8
ASSI
100
AcDbLine
 62
7
  6
CONTINUOUS
 10
9.0368706193
 20
-22.3825449351
 11
10.5826210875
 21
-22.3825449351
  0
LINE
  5
246
100
AcDbEntity
  8
ASSI
100
AcDbLine
 62
253
  6
CONTINUOUS
 10
-7.3037800478
 20
-22.2164171854
 11
-3.3203986343
 21
-22.2164171854
  0
LINE
  5
247
100
AcDbEntity
  8
ASSI
100
AcDbLine
 62
253
  6
CONTINUOUS
 10
3.3203986343
 20
-22.2164171854
 11
7.3037800478
 21
-22.2164171854
  0
LINE
  5
248
100
AcDbEntity
  8
ASSI
100
AcDbLine
 62
7
  6
CONTINUOUS
 10
3.0657095584
 20
-21.7
 11
-3.0657095584
 21
-21.7
  0
LINE
  5
249
100
AcDbEntity
  8
ASSI
100
AcDbLine
 62
253
  6
CONTINUOUS
 10
-8.0492667533
 20
-21.2165694902
 11
-3.3073093295
 21
-21.2165694902
  0
LINE
  5
24A
100
AcDbEntity
  8
ASSI
100
AcDbLine
 62
253
  6
CONTINUOUS
 10
3.3073093295
 20
-21.2165694902
 11
8.0492667533
 21
-21.2165694902
  0
LINE
  5
24B
100
AcDbEntity
  8
ASSI
100
AcDbLine
 62
7
  6
CONTINUOUS
 10
6.5872686779
 20
-21.0745506493
 11
5.1254493507
 21
-21.0745506493
  0
LINE
  5
24C
100
AcDbEntity
  8
ASSI
100
AcDbLine
 62
7
  6
CONTINUOUS
 10
-5.1254493507
 20
-21.0745506493
 11
-6.5872686779
 21
-21.0745506493
  0
LINE
  5
24D
100
AcDbEntity
  8
ASSI
100
AcDbLine
 62
7
  6
CONTINUOUS
 10
-8.0492667533
 20
-20.9872686779
 11
-7.2127313221
 21
-20.9872686779
  0
LINE
  5
24E
100
AcDbEntity
  8
ASSI
100
AcDbLine
 62
7
  6
CONTINUOUS
 10
7.2127313221
 20
-20.9872686779
 11
8.0492667533
 21
-20.9872686779
  0
LINE
  5
24F
100
AcDbEntity
  8
ASSI
100
AcDbLine
 62
7
  6
CONTINUOUS
 10
-9.6369070392
 20
-20.8956365661
 11
-8.2325449351
 21
-20.8956365661
  0
LINE
  5
250
100
AcDbEntity
  8
ASSI
100
AcDbLine
 62
7
  6
CONTINUOUS
 10
8.2325449351
 20
-20.8956365661
 11
9.6369070392
 21
-20.8956365661
  0
LINE
  5
251
100
AcDbEntity
  8
ASSI
100
AcDbLine
 62
253
  6
CONTINUOUS
 10
-3.0573474057
 20
-21.2209325918
 11
-3.3073093295
 21
-21.2165694869
  0
LINE
  5
252
100
AcDbEntity
  8
ASSI
100
AcDbLine
 62
7
  6
CONTINUOUS
 10
-0.8171358942
 20
-22.3982865828
 11
-0.8
 21
-22.4
  0
LINE
  5
253
100
AcDbEntity
  8
ASSI
100
AcDbLine
 62
7
  6
CONTINUOUS
 10
-8.0497859431
 20
-21.4586521215
 11
-8.2325449351
 21
-21.4051134101
  0
LINE
  5
254
100
AcDbEntity
  8
ASSI
100
AcDbLine
 62
7
  6
CONTINUOUS
 10
-8.0492667533
 20
-20.9872686779
 11
-8.2325449351
 21
-20.8956365661
  0
LINE
  5
255
100
AcDbEntity
  8
ASSI
100
AcDbLine
 62
253
  6
CONTINUOUS
 10
-7.399969539
 20
-24.5
 11
-7.4131369959
 21
-24.4868325431
  0
LINE
  5
256
100
AcDbEntity
  8
ASSI
100
AcDbLine
 62
253
  6
CONTINUOUS
 10
-7.2
 20
-24.300030461
 11
-7.2131674569
 21
-24.2868630041
  0
LINE
  5
257
100
AcDbEntity
  8
ASSI
100
AcDbLine
 62
7
  6
CONTINUOUS
 10
-8.5
 20
-22.4
 11
-8.5131674569
 21
-22.3868325431
  0
LINE
  5
258
100
AcDbEntity
  8
ASSI
100
AcDbLine
 62
7
  6
CONTINUOUS
 10
-11.0825449351
 20
-18.5674550649
 11
-10.5643027805
 21
-19.0856972195
  0
LINE
  5
259
100
AcDbEntity
  8
RACCORDO
100
AcDbLine
 62
7
  6
CONTINUOUS
 10
-10.5643027805
 20
-19.0856972195
 11
-8.8
 21
-20.85
  0
LINE
  5
25A
100
AcDbEntity
  8
SUPERFICI
100
AcDbLine
 62
7
  6
CONTINUOUS
 10
-10.5643027805
 20
-19.0856972195
 11
-8.8
 21
-20.85
  0
LINE
  5
25B
100
AcDbEntity
  8
ASSI
100
AcDbLine
 62
7
  6
CONTINUOUS
 10
-8.2325449351
 20
-21.4051134101
 11
-7.2551134101
 21
-22.3825449351
  0
LINE
  5
25C
100
AcDbEntity
  8
ASSI
100
AcDbLine
 62
7
  6
CONTINUOUS
 10
-11.0738174026
 20
-18.5638400026
 11
-10.6893878075
 21
-18.9482695977
  0
LINE
  5
25D
100
AcDbEntity
  8
RACCORDO
100
AcDbLine
 62
7
  6
CONTINUOUS
 10
-10.3897521312
 20
19.0133959733
 11
-8.7276987537
 21
20.6754493507
  0
LINE
  5
25E
100
AcDbEntity
  8
SUPERFICI
100
AcDbLine
 62
7
  6
CONTINUOUS
 10
-10.3897521312
 20
19.0133959733
 11
-8.7276987537
 21
20.6754493507
  0
LINE
  5
25F
100
AcDbEntity
  8
RACCORDO
100
AcDbLine
 62
7
  6
CONTINUOUS
 10
-7.3690382379
 20
20.8309617621
 11
-7.2127313221
 21
20.9872686779
  0
LINE
  5
260
100
AcDbEntity
  8
DRAFT
100
AcDbLine
 62
7
  6
CONTINUOUS
 10
-7.4
 20
20.7644701819
 11
-7.4890208311
 21
20.6754493507
  0
LINE
  5
261
100
AcDbEntity
  8
SUPERFICI
100
AcDbLine
 62
7
  6
CONTINUOUS
 10
-7.4
 20
20.7644701819
 11
-7.4890208311
 21
20.6754493507
  0
LINE
  5
262
100
AcDbEntity
  8
DRAFT
100
AcDbLine
 62
7
  6
CONTINUOUS
 10
-7.4
 20
19.7
 11
-7.4890208311
 21
19.6109791689
  0
LINE
  5
263
100
AcDbEntity
  8
SUPERFICI
100
AcDbLine
 62
7
  6
CONTINUOUS
 10
-7.4
 20
19.7
 11
-7.4890208311
 21
19.6109791689
  0
LINE
  5
264
100
AcDbEntity
  8
0
100
AcDbLine
 62
7
  6
CONTINUOUS
 10
-11.1045546478
 20
15.9769874334
 11
-11.1010361329
 21
15.9805059483
  0
LINE
  5
265
100
AcDbEntity
  8
DRAFT
100
AcDbLine
 62
7
  6
CONTINUOUS
 10
-7.3
 20
19.7
 11
-7.2127313221
 21
19.7872686779
  0
LINE
  5
266
100
AcDbEntity
  8
0
100
AcDbLine
 62
7
  6
CONTINUOUS
 10
-11.1045546478
 20
15.8929831478
 11
-11.1010361329
 21
15.8965016627
  0
LINE
  5
267
100
AcDbEntity
  8
0
100
AcDbLine
 62
7
  6
CONTINUOUS
 10
-11.0804334767
 20
15.9171043188
 11
-11.0769347673
 21
15.9206030283
  0
LINE
  5
268
100
AcDbEntity
  8
0
100
AcDbLine
 62
7
  6
CONTINUOUS
 10
-11.0575156578
 20
15.9400221378
 11
-11.0539971429
 21
15.9435406527
  0
LINE
  5
269
100
AcDbEntity
  8
0
100
AcDbLine
 62
7
  6
CONTINUOUS
 10
-11.1045546478
 20
15.8089788622
 11
-11.1010361329
 21
15.8124973771
  0
LINE
  5
26A
100
AcDbEntity
  8
0
100
AcDbLine
 62
7
  6
CONTINUOUS
 10
-11.0804334767
 20
15.8331000332
 11
-11.0769347673
 21
15.8365987427
  0
LINE
  5
26B
100
AcDbEntity
  8
0
100
AcDbLine
 62
7
  6
CONTINUOUS
 10
-11.0575156578
 20
15.8560178522
 11
-11.0539971429
 21
15.8595363671
  0
LINE
  5
26C
100
AcDbEntity
  8
0
100
AcDbLine
 62
7
  6
CONTINUOUS
 10
-11.1045546478
 20
15.7249745766
 11
-11.1010361329
 21
15.7284930915
  0
LINE
  5
26D
100
AcDbEntity
  8
0
100
AcDbLine
 62
7
  6
CONTINUOUS
 10
-11.0804334767
 20
15.7490957476
 11
-11.0769347673
 21
15.7525944571
  0
LINE
  5
26E
100
AcDbEntity
  8
0
100
AcDbLine
 62
7
  6
CONTINUOUS
 10
-11.0575156578
 20
15.7720135666
 11
-11.0539971429
 21
15.7755320815
  0
LINE
  5
26F
100
AcDbEntity
  8
0
100
AcDbLine
 62
7
  6
CONTINUOUS
 10
-11.1216966
 20
15.6238283388
 11
-11.1203371123
 21
15.6251878265
  0
LINE
  5
270
100
AcDbEntity
  8
0
100
AcDbLine
 62
7
  6
CONTINUOUS
 10
-11.1045546478
 20
15.640970291
 11
-11.1010361329
 21
15.6444888059
  0
LINE
  5
271
100
AcDbEntity
  8
0
100
AcDbLine
 62
7
  6
CONTINUOUS
 10
-11.0804334767
 20
15.665091462
 11
-11.0769347673
 21
15.6685901715
  0
LINE
  5
272
100
AcDbEntity
  8
0
100
AcDbLine
 62
7
  6
CONTINUOUS
 10
-11.0575156578
 20
15.688009281
 11
-11.0539971429
 21
15.6915277959
  0
LINE
  5
273
100
AcDbEntity
  8
0
100
AcDbLine
 62
7
  6
CONTINUOUS
 10
-11.1216966
 20
15.5398240531
 11
-11.1188963522
 21
15.542624301
  0
LINE
  5
274
100
AcDbEntity
  8
0
100
AcDbLine
 62
7
  6
CONTINUOUS
 10
-11.1045546478
 20
15.5569660054
 11
-11.1010361329
 21
15.5604845203
  0
LINE
  5
275
100
AcDbEntity
  8
0
100
AcDbLine
 62
7
  6
CONTINUOUS
 10
-11.0804334767
 20
15.5810871764
 11
-11.0769347673
 21
15.5845858859
  0
LINE
  5
276
100
AcDbEntity
  8
0
100
AcDbLine
 62
7
  6
CONTINUOUS
 10
-11.0575156578
 20
15.6040049954
 11
-11.0539971429
 21
15.6075235103
  0
LINE
  5
277
100
AcDbEntity
  8
0
100
AcDbLine
 62
7
  6
CONTINUOUS
 10
-11.1216966
 20
15.4558197675
 11
-11.1174555921
 21
15.4600607754
  0
LINE
  5
278
100
AcDbEntity
  8
0
100
AcDbLine
 62
7
  6
CONTINUOUS
 10
-11.1045546478
 20
15.4729617198
 11
-11.1010361329
 21
15.4764802347
  0
LINE
  5
279
100
AcDbEntity
  8
0
100
AcDbLine
 62
7
  6
CONTINUOUS
 10
-11.0804334767
 20
15.4970828908
 11
-11.0769347673
 21
15.5005816003
  0
LINE
  5
27A
100
AcDbEntity
  8
0
100
AcDbLine
 62
7
  6
CONTINUOUS
 10
-11.0575156578
 20
15.5200007098
 11
-11.0539971429
 21
15.5235192247
  0
LINE
  5
27B
100
AcDbEntity
  8
ASSI
100
AcDbLine
 62
7
  6
CONTINUOUS
 10
-5.1254493507
 20
20.0872686779
 11
-5.4501643029
 21
19.9249235667
  0
LINE
  5
27C
100
AcDbEntity
  8
DRAFT
100
AcDbLine
 62
7
  6
CONTINUOUS
 10
-8.8
 20
-20.85
 11
-7.4855298181
 21
-20.85
  0
LINE
  5
27D
100
AcDbEntity
  8
SUPERFICI
100
AcDbLine
 62
7
  6
CONTINUOUS
 10
-8.8
 20
-20.85
 11
-7.4855298181
 21
-20.85
  0
LINE
  5
27E
100
AcDbEntity
  8
DRAFT
100
AcDbLine
 62
7
  6
CONTINUOUS
 10
7.4855298181
 20
-20.85
 11
8.8
 21
-20.85
  0
LINE
  5
27F
100
AcDbEntity
  8
SUPERFICI
100
AcDbLine
 62
7
  6
CONTINUOUS
 10
7.4855298181
 20
-20.85
 11
8.8
 21
-20.85
  0
LINE
  5
280
100
AcDbEntity
  8
ASSI
100
AcDbLine
 62
7
  6
CONTINUOUS
 10
-3.300038082
 20
-20.8
 11
3.300038082
 21
-20.8
  0
LINE
  5
281
100
AcDbEntity
  8
DRAFT
100
AcDbLine
 62
7
  6
CONTINUOUS
 10
-8.7276987537
 20
-20.6754493507
 11
-7.4890208311
 21
-20.6754493507
  0
LINE
  5
282
100
AcDbEntity
  8
SUPERFICI
100
AcDbLine
 62
7
  6
CONTINUOUS
 10
-8.7276987537
 20
-20.6754493507
 11
-7.4890208311
 21
-20.6754493507
  0
LINE
  5
283
100
AcDbEntity
  8
DRAFT
100
AcDbLine
 62
7
  6
CONTINUOUS
 10
7.4890208311
 20
-20.6754493507
 11
8.7276987537
 21
-20.6754493507
  0
LINE
  5
284
100
AcDbEntity
  8
SUPERFICI
100
AcDbLine
 62
7
  6
CONTINUOUS
 10
7.4890208311
 20
-20.6754493507
 11
8.7276987537
 21
-20.6754493507
  0
LINE
  5
285
100
AcDbEntity
  8
ASSI
100
AcDbLine
 62
7
  6
CONTINUOUS
 10
-5.1254493507
 20
-20.0872686779
 11
5.1254493507
 21
-20.0872686779
  0
LINE
  5
286
100
AcDbEntity
  8
ASSI
100
AcDbLine
 62
7
  6
CONTINUOUS
 10
-2.5017369722
 20
-20.0532460614
 11
-2.4411968952
 21
-20.0532460614
  0
LINE
  5
287
100
AcDbEntity
  8
ASSI
100
AcDbLine
 62
7
  6
CONTINUOUS
 10
2.4411968952
 20
-20.0532460614
 11
2.5017369722
 21
-20.0532460614
  0
LINE
  5
288
100
AcDbEntity
  8
ASSI
100
AcDbLine
 62
7
  6
CONTINUOUS
 10
3.5
 20
-20.0
 11
3.4
 21
-20.0
  0
LINE
  5
289
100
AcDbEntity
  8
ASSI
100
AcDbLine
 62
7
  6
CONTINUOUS
 10
-3.4
 20
-20.0
 11
-3.5
 21
-20.0
  0
LINE
  5
28A
100
AcDbEntity
  8
RACCORDO
100
AcDbLine
 62
7
  6
CONTINUOUS
 10
5.75
 20
-19.9
 11
3.3932016106
 21
-19.9
  0
LINE
  5
28B
100
AcDbEntity
  8
SUPERFICI
100
AcDbLine
 62
7
  6
CONTINUOUS
 10
5.75
 20
-19.9
 11
3.3932016106
 21
-19.9
  0
LINE
  5
28C
100
AcDbEntity
  8
RACCORDO
100
AcDbLine
 62
7
  6
CONTINUOUS
 10
-3.3932016106
 20
-19.9
 11
-5.75
 21
-19.9
  0
LINE
  5
28D
100
AcDbEntity
  8
SUPERFICI
100
AcDbLine
 62
7
  6
CONTINUOUS
 10
-3.3932016106
 20
-19.9
 11
-5.75
 21
-19.9
  0
LINE
  5
28E
100
AcDbEntity
  8
RACCORDO
100
AcDbLine
 62
7
  6
CONTINUOUS
 10
2.4
 20
-19.8843869511
 11
-2.4
 21
-19.8843869511
  0
LINE
  5
28F
100
AcDbEntity
  8
SUPERFICI
100
AcDbLine
 62
7
  6
CONTINUOUS
 10
2.4
 20
-19.8843869511
 11
-2.4
 21
-19.8843869511
  0
LINE
  5
290
100
AcDbEntity
  8
DRAFT
100
AcDbLine
 62
7
  6
CONTINUOUS
 10
-5.6609791689
 20
-19.8109791689
 11
5.6609791689
 21
-19.8109791689
  0
LINE
  5
291
100
AcDbEntity
  8
SUPERFICI
100
AcDbLine
 62
7
  6
CONTINUOUS
 10
-5.6609791689
 20
-19.8109791689
 11
5.6609791689
 21
-19.8109791689
  0
LINE
  5
292
100
AcDbEntity
  8
ASSI
100
AcDbLine
 62
7
  6
CONTINUOUS
 10
-7.2127313221
 20
-19.7872686779
 11
-6.5872686779
 21
-19.7872686779
  0
LINE
  5
293
100
AcDbEntity
  8
ASSI
100
AcDbLine
 62
7
  6
CONTINUOUS
 10
6.5872686779
 20
-19.7872686779
 11
7.2127313221
 21
-19.7872686779
  0
LINE
  5
294
100
AcDbEntity
  8
DRAFT
100
AcDbLine
 62
7
  6
CONTINUOUS
 10
7.4
 20
-19.7
 11
5.75
 21
-19.7
  0
LINE
  5
295
100
AcDbEntity
  8
SUPERFICI
100
AcDbLine
 62
7
  6
CONTINUOUS
 10
7.4
 20
-19.7
 11
5.75
 21
-19.7
  0
LINE
  5
296
100
AcDbEntity
  8
DRAFT
100
AcDbLine
 62
7
  6
CONTINUOUS
 10
-5.75
 20
-19.7
 11
-7.4
 21
-19.7
  0
LINE
  5
297
100
AcDbEntity
  8
SUPERFICI
100
AcDbLine
 62
7
  6
CONTINUOUS
 10
-5.75
 20
-19.7
 11
-7.4
 21
-19.7
  0
LINE
  5
298
100
AcDbEntity
  8
DRAFT
100
AcDbLine
 62
7
  6
CONTINUOUS
 10
-7.4890208311
 20
-19.6109791689
 11
-5.6609791689
 21
-19.6109791689
  0
LINE
  5
299
100
AcDbEntity
  8
SUPERFICI
100
AcDbLine
 62
7
  6
CONTINUOUS
 10
-7.4890208311
 20
-19.6109791689
 11
-5.6609791689
 21
-19.6109791689
  0
LINE
  5
29A
100
AcDbEntity
  8
DRAFT
100
AcDbLine
 62
7
  6
CONTINUOUS
 10
5.6609791689
 20
-19.6109791689
 11
7.4890208311
 21
-19.6109791689
  0
LINE
  5
29B
100
AcDbEntity
  8
SUPERFICI
100
AcDbLine
 62
7
  6
CONTINUOUS
 10
5.6609791689
 20
-19.6109791689
 11
7.4890208311
 21
-19.6109791689
  0
LINE
  5
29C
100
AcDbEntity
  8
RACCORDO
100
AcDbLine
 62
7
  6
CONTINUOUS
 10
-9.0501523048
 20
-19.5
 11
9.0501523048
 21
-19.5
  0
LINE
  5
29D
100
AcDbEntity
  8
SUPERFICI
100
AcDbLine
 62
7
  6
CONTINUOUS
 10
-9.0501523048
 20
-19.5
 11
9.0501523048
 21
-19.5
  0
LINE
  5
29E
100
AcDbEntity
  8
RACCORDO
100
AcDbLine
 62
253
  6
CONTINUOUS
 10
-8.6728182695
 20
-19.1226659647
 11
8.6728182695
 21
-19.1226659647
  0
LINE
  5
29F
100
AcDbEntity
  8
SUPERFICI
100
AcDbLine
 62
253
  6
CONTINUOUS
 10
-8.6728182695
 20
-19.1226659647
 11
8.6728182695
 21
-19.1226659647
  0
LINE
  5
2A0
100
AcDbEntity
  8
ASSI
100
AcDbLine
 62
7
  6
CONTINUOUS
 10
-5.4501643029
 20
-19.9249235667
 11
-5.1254493507
 21
-20.0872686779
  0
LINE
  5
2A1
100
AcDbEntity
  8
RACCORDO
100
AcDbLine
 62
7
  6
CONTINUOUS
 10
-8.7276987537
 20
-20.6754493507
 11
-10.3897521312
 21
-19.0133959733
  0
LINE
  5
2A2
100
AcDbEntity
  8
SUPERFICI
100
AcDbLine
 62
7
  6
CONTINUOUS
 10
-8.7276987537
 20
-20.6754493507
 11
-10.3897521312
 21
-19.0133959733
  0
LINE
  5
2A3
100
AcDbEntity
  8
RACCORDO
100
AcDbLine
 62
7
  6
CONTINUOUS
 10
-7.2127313221
 20
-20.9872686779
 11
-7.3690382379
 21
-20.8309617621
  0
LINE
  5
2A4
100
AcDbEntity
  8
DRAFT
100
AcDbLine
 62
7
  6
CONTINUOUS
 10
-7.4
 20
-20.7644701819
 11
-7.4890208311
 21
-20.6754493507
  0
LINE
  5
2A5
100
AcDbEntity
  8
SUPERFICI
100
AcDbLine
 62
7
  6
CONTINUOUS
 10
-7.4
 20
-20.7644701819
 11
-7.4890208311
 21
-20.6754493507
  0
LINE
  5
2A6
100
AcDbEntity
  8
DRAFT
100
AcDbLine
 62
7
  6
CONTINUOUS
 10
-7.4
 20
-19.7
 11
-7.4890208311
 21
-19.6109791689
  0
LINE
  5
2A7
100
AcDbEntity
  8
SUPERFICI
100
AcDbLine
 62
7
  6
CONTINUOUS
 10
-7.4
 20
-19.7
 11
-7.4890208311
 21
-19.6109791689
  0
LINE
  5
2A8
100
AcDbEntity
  8
DRAFT
100
AcDbLine
 62
7
  6
CONTINUOUS
 10
-7.2127313221
 20
-19.7872686779
 11
-7.3
 21
-19.7
  0
LINE
  5
2A9
100
AcDbEntity
  8
0
100
AcDbLine
 62
7
  6
CONTINUOUS
 10
-11.1209049605
 20
15.3726071214
 11
-11.1160148321
 21
15.3774972499
  0
LINE
  5
2AA
100
AcDbEntity
  8
0
100
AcDbLine
 62
7
  6
CONTINUOUS
 10
-11.1045546478
 20
15.3889574342
 11
-11.1010361329
 21
15.3924759491
  0
LINE
  5
2AB
100
AcDbEntity
  8
0
100
AcDbLine
 62
7
  6
CONTINUOUS
 10
-11.0804334767
 20
15.4130786052
 11
-11.0769347673
 21
15.4165773147
  0
LINE
  5
2AC
100
AcDbEntity
  8
0
100
AcDbLine
 62
7
  6
CONTINUOUS
 10
-11.0575156578
 20
15.4359964242
 11
-11.0539971429
 21
15.4395149391
  0
LINE
  5
2AD
100
AcDbEntity
  8
0
100
AcDbLine
 62
7
  6
CONTINUOUS
 10
-11.119464249
 20
15.2900435473
 11
-11.114574072
 21
15.2949337244
  0
LINE
  5
2AE
100
AcDbEntity
  8
0
100
AcDbLine
 62
7
  6
CONTINUOUS
 10
-11.1045546478
 20
15.3049531486
 11
-11.1010361329
 21
15.3084716635
  0
LINE
  5
2AF
100
AcDbEntity
  8
0
100
AcDbLine
 62
7
  6
CONTINUOUS
 10
-11.0804334767
 20
15.3290743196
 11
-11.0769347673
 21
15.3325730291
  0
LINE
  5
2B0
100
AcDbEntity
  8
0
100
AcDbLine
 62
7
  6
CONTINUOUS
 10
-11.0575156578
 20
15.3519921386
 11
-11.0539971429
 21
15.3555106535
  0
LINE
  5
2B1
100
AcDbEntity
  8
0
100
AcDbLine
 62
7
  6
CONTINUOUS
 10
-11.1180235375
 20
15.2074799733
 11
-11.1131333119
 21
15.2123701988
  0
LINE
  5
2B2
100
AcDbEntity
  8
0
100
AcDbLine
 62
7
  6
CONTINUOUS
 10
-11.1045546478
 20
15.220948863
 11
-11.1010361329
 21
15.2244673779
  0
LINE
  5
2B3
100
AcDbEntity
  8
0
100
AcDbLine
 62
7
  6
CONTINUOUS
 10
-11.0804334767
 20
15.245070034
 11
-11.0769347673
 21
15.2485687434
  0
LINE
  5
2B4
100
AcDbEntity
  8
0
100
AcDbLine
 62
7
  6
CONTINUOUS
 10
-11.0575156578
 20
15.267987853
 11
-11.0539971429
 21
15.2715063679
  0
LINE
  5
2B5
100
AcDbEntity
  8
0
100
AcDbLine
 62
7
  6
CONTINUOUS
 10
-11.1165828259
 20
15.1249163992
 11
-11.1116925519
 21
15.1298066733
  0
LINE
  5
2B6
100
AcDbEntity
  8
0
100
AcDbLine
 62
7
  6
CONTINUOUS
 10
-11.1045546478
 20
15.1369445774
 11
-11.1010361329
 21
15.1404630923
  0
LINE
  5
2B7
100
AcDbEntity
  8
0
100
AcDbLine
 62
7
  6
CONTINUOUS
 10
-11.0804334767
 20
15.1610657484
 11
-11.0769347673
 21
15.1645644578
  0
LINE
  5
2B8
100
AcDbEntity
  8
0
100
AcDbLine
 62
7
  6
CONTINUOUS
 10
-11.0575156578
 20
15.1839835673
 11
-11.0539971429
 21
15.1875020823
  0
LINE
  5
2B9
100
AcDbEntity
  8
RACCORDO
100
AcDbLine
 62
7
  6
CONTINUOUS
 10
-5.1254493507
 20
21.0745506493
 11
-5.4396649246
 21
20.7603350754
  0
LINE
  5
2BA
100
AcDbEntity
  8
0
100
AcDbLine
 62
7
  6
CONTINUOUS
 10
-11.1151421144
 20
15.0423528251
 11
-11.1102517918
 21
15.0472431477
  0
LINE
  5
2BB
100
AcDbEntity
  8
0
100
AcDbLine
 62
7
  6
CONTINUOUS
 10
-11.1045546478
 20
15.0529402918
 11
-11.1010361329
 21
15.0564588067
  0
LINE
  5
2BC
100
AcDbEntity
  8
0
100
AcDbLine
 62
7
  6
CONTINUOUS
 10
-11.0804334767
 20
15.0770614628
 11
-11.0769347673
 21
15.0805601722
  0
LINE
  5
2BD
100
AcDbEntity
  8
0
100
AcDbLine
 62
7
  6
CONTINUOUS
 10
-11.0575156578
 20
15.0999792817
 11
-11.0539971429
 21
15.1034977966
  0
LINE
  5
2BE
100
AcDbEntity
  8
0
100
AcDbLine
 62
7
  6
CONTINUOUS
 10
-11.1137014029
 20
14.9597892511
 11
-11.1094771345
 21
14.9640135194
  0
LINE
  5
2BF
100
AcDbEntity
  8
0
100
AcDbLine
 62
7
  6
CONTINUOUS
 10
-11.1045546478
 20
14.9689360062
 11
-11.1010361329
 21
14.9724545211
  0
LINE
  5
2C0
100
AcDbEntity
  8
0
100
AcDbLine
 62
7
  6
CONTINUOUS
 10
-11.0804334767
 20
14.9930571772
 11
-11.0769347673
 21
14.9965558866
  0
LINE
  5
2C1
100
AcDbEntity
  8
0
100
AcDbLine
 62
7
  6
CONTINUOUS
 10
-11.0575156578
 20
15.0159749961
 11
-11.0539971429
 21
15.019493511
  0
LINE
  5
2C2
100
AcDbEntity
  8
0
100
AcDbLine
 62
7
  6
CONTINUOUS
 10
-11.1122606913
 20
14.877225677
 11
-11.1094771345
 21
14.8800092338
  0
LINE
  5
2C3
100
AcDbEntity
  8
0
100
AcDbLine
 62
7
  6
CONTINUOUS
 10
-11.1045546478
 20
14.8849317205
 11
-11.1010361329
 21
14.8884502355
  0
LINE
  5
2C4
100
AcDbEntity
  8
0
100
AcDbLine
 62
7
  6
CONTINUOUS
 10
-11.0575156578
 20
14.9319707105
 11
-11.0539971429
 21
14.9354892254
  0
LINE
  5
2C5
100
AcDbEntity
  8
0
100
AcDbLine
 62
7
  6
CONTINUOUS
 10
-11.1108199798
 20
14.7946621029
 11
-11.1094771345
 21
14.7960049482
  0
LINE
  5
2C6
100
AcDbEntity
  8
0
100
AcDbLine
 62
7
  6
CONTINUOUS
 10
-11.1045546478
 20
14.8009274349
 11
-11.1010361329
 21
14.8044459498
  0
LINE
  5
2C7
100
AcDbEntity
  8
0
100
AcDbLine
 62
7
  6
CONTINUOUS
 10
-11.0575156578
 20
14.8479664249
 11
-11.0539971429
 21
14.8514849398
  0
LINE
  5
2C8
100
AcDbEntity
  8
0
100
AcDbLine
 62
7
  6
CONTINUOUS
 10
-11.1045546478
 20
14.7169231493
 11
-11.1010361329
 21
14.7204416642
  0
LINE
  5
2C9
100
AcDbEntity
  8
0
100
AcDbLine
 62
7
  6
CONTINUOUS
 10
-11.0575156578
 20
14.7639621393
 11
-11.0539971429
 21
14.7674806542
  0
LINE
  5
2CA
100
AcDbEntity
  8
0
100
AcDbLine
 62
7
  6
CONTINUOUS
 10
-11.1045546478
 20
14.6329188637
 11
-11.1010361329
 21
14.6364373786
  0
LINE
  5
2CB
100
AcDbEntity
  8
0
100
AcDbLine
 62
7
  6
CONTINUOUS
 10
-11.0575156578
 20
14.6799578537
 11
-11.0539971429
 21
14.6834763686
  0
LINE
  5
2CC
100
AcDbEntity
  8
0
100
AcDbLine
 62
7
  6
CONTINUOUS
 10
-11.1045546478
 20
14.5489145781
 11
-11.1010361329
 21
14.552433093
  0
LINE
  5
2CD
100
AcDbEntity
  8
0
100
AcDbLine
 62
7
  6
CONTINUOUS
 10
-11.0575156578
 20
14.5959535681
 11
-11.0539971429
 21
14.599472083
  0
LINE
  5
2CE
100
AcDbEntity
  8
0
100
AcDbLine
 62
7
  6
CONTINUOUS
 10
-11.1045546478
 20
14.4649102925
 11
-11.1010361329
 21
14.4684288074
  0
LINE
  5
2CF
100
AcDbEntity
  8
0
100
AcDbLine
 62
7
  6
CONTINUOUS
 10
-11.0575156578
 20
14.5119492825
 11
-11.0539971429
 21
14.5154677974
  0
LINE
  5
2D0
100
AcDbEntity
  8
0
100
AcDbLine
 62
7
  6
CONTINUOUS
 10
-11.1045546478
 20
14.3809060069
 11
-11.1010361329
 21
14.3844245218
  0
LINE
  5
2D1
100
AcDbEntity
  8
0
100
AcDbLine
 62
7
  6
CONTINUOUS
 10
-11.0575156578
 20
14.4279449969
 11
-11.0539971429
 21
14.4314635118
  0
LINE
  5
2D2
100
AcDbEntity
  8
0
100
AcDbLine
 62
7
  6
CONTINUOUS
 10
-11.1045546478
 20
14.2969017213
 11
-11.1003383691
 21
14.301118
  0
LINE
  5
2D3
100
AcDbEntity
  8
0
100
AcDbLine
 62
7
  6
CONTINUOUS
 10
-11.0575156578
 20
14.3439407113
 11
-11.0539971429
 21
14.3474592262
  0
LINE
  5
2D4
100
AcDbEntity
  8
0
100
AcDbLine
 62
7
  6
CONTINUOUS
 10
-11.1045546478
 20
14.2128974357
 11
-11.0539971429
 21
14.2634549406
  0
LINE
  5
2D5
100
AcDbEntity
  8
0
100
AcDbLine
 62
7
  6
CONTINUOUS
 10
-11.1045546478
 20
14.1288931501
 11
-11.0539971429
 21
14.179450655
  0
LINE
  5
2D6
100
AcDbEntity
  8
ASSI
100
AcDbLine
 62
253
  6
CONTINUOUS
 10
-1.0663732129
 20
23.9835887109
 11
-1.0499619238
 21
24.0
  0
LINE
  5
2D7
100
AcDbEntity
  8
0
100
AcDbLine
 62
7
  6
CONTINUOUS
 10
-11.1046198575
 20
13.6248022268
 11
-11.1037103605
 21
13.6257117238
  0
LINE
  5
2D8
100
AcDbEntity
  8
0
100
AcDbLine
 62
7
  6
CONTINUOUS
 10
-11.1046198575
 20
13.5407979412
 11
-11.1022696022
 21
13.5431481964
  0
LINE
  5
2D9
100
AcDbEntity
  8
0
100
AcDbLine
 62
7
  6
CONTINUOUS
 10
-11.055340272
 20
13.5900775267
 11
-11.0538700215
 21
13.5915477772
  0
LINE
  5
2DA
100
AcDbEntity
  8
0
100
AcDbLine
 62
7
  6
CONTINUOUS
 10
-11.1046198575
 20
13.4567936556
 11
-11.1008288439
 21
13.4605846691
  0
LINE
  5
2DB
100
AcDbEntity
  8
0
100
AcDbLine
 62
7
  6
CONTINUOUS
 10
-11.0568322088
 20
13.5045813042
 11
-11.0538700215
 21
13.5075434916
  0
LINE
  5
2DC
100
AcDbEntity
  8
ASSI
100
AcDbLine
 62
253
  6
CONTINUOUS
 10
-0.8165255932
 20
23.733512483
 11
-0.8
 21
23.7500380762
  0
LINE
  5
2DD
100
AcDbEntity
  8
0
100
AcDbLine
 62
7
  6
CONTINUOUS
 10
-11.1042782092
 20
13.3731310183
 11
-11.0993880856
 21
13.3780211418
  0
LINE
  5
2DE
100
AcDbEntity
  8
0
100
AcDbLine
 62
7
  6
CONTINUOUS
 10
-11.0583241457
 20
13.4190850817
 11
-11.0538700215
 21
13.423539206
  0
LINE
  5
2DF
100
AcDbEntity
  8
0
100
AcDbLine
 62
7
  6
CONTINUOUS
 10
-11.1028374956
 20
13.2905674462
 11
-11.0979473273
 21
13.2954576145
  0
LINE
  5
2E0
100
AcDbEntity
  8
0
100
AcDbLine
 62
7
  6
CONTINUOUS
 10
-11.0598160826
 20
13.3335888592
 11
-11.0547522347
 21
13.3386527071
  0
LINE
  5
2E1
100
AcDbEntity
  8
0
100
AcDbLine
 62
7
  6
CONTINUOUS
 10
-11.1013967821
 20
13.2080038742
 11
-11.096506569
 21
13.2128940872
  0
LINE
  5
2E2
100
AcDbEntity
  8
0
100
AcDbLine
 62
7
  6
CONTINUOUS
 10
-11.0613080195
 20
13.2480926368
 11
-11.0562441235
 21
13.2531565327
  0
LINE
  5
2E3
100
AcDbEntity
  8
0
100
AcDbLine
 62
7
  6
CONTINUOUS
 10
-11.0999560685
 20
13.1254403021
 11
-11.0950658107
 21
13.1303305599
  0
LINE
  5
2E4
100
AcDbEntity
  8
0
100
AcDbLine
 62
7
  6
CONTINUOUS
 10
-11.0627999563
 20
13.1625964143
 11
-11.0577360123
 21
13.1676603583
  0
LINE
  5
2E5
100
AcDbEntity
  8
0
100
AcDbLine
 62
7
  6
CONTINUOUS
 10
-11.098515355
 20
13.0428767301
 11
-11.0936250524
 21
13.0477670326
  0
LINE
  5
2E6
100
AcDbEntity
  8
0
100
AcDbLine
 62
7
  6
CONTINUOUS
 10
-11.0642918932
 20
13.0771001918
 11
-11.0592279011
 21
13.0821641839
  0
LINE
  5
2E7
100
AcDbEntity
  8
0
100
AcDbLine
 62
7
  6
CONTINUOUS
 10
-11.0970746414
 20
12.960313158
 11
-11.0921842941
 21
12.9652035053
  0
LINE
  5
2E8
100
AcDbEntity
  8
0
100
AcDbLine
 62
7
  6
CONTINUOUS
 10
-11.0657838301
 20
12.9916039693
 11
-11.0607197899
 21
12.9966680096
  0
LINE
  5
2E9
100
AcDbEntity
  8
0
100
AcDbLine
 62
7
  6
CONTINUOUS
 10
-11.0956339279
 20
12.877749586
 11
-11.0907435358
 21
12.882639978
  0
LINE
  5
2EA
100
AcDbEntity
  8
0
100
AcDbLine
 62
7
  6
CONTINUOUS
 10
-11.067275767
 20
12.9061077469
 11
-11.0622116786
 21
12.9111718352
  0
LINE
  5
2EB
100
AcDbEntity
  8
0
100
AcDbLine
 62
7
  6
CONTINUOUS
 10
-11.0941932143
 20
12.7951860139
 11
-11.0893027776
 21
12.8000764507
  0
LINE
  5
2EC
100
AcDbEntity
  8
0
100
AcDbLine
 62
7
  6
CONTINUOUS
 10
-11.0687677038
 20
12.8206115244
 11
-11.0637035674
 21
12.8256756608
  0
LINE
  5
2ED
100
AcDbEntity
  8
0
100
AcDbLine
 62
7
  6
CONTINUOUS
 10
-11.0927525008
 20
12.7126224419
 11
-11.0878620193
 21
12.7175129233
  0
LINE
  5
2EE
100
AcDbEntity
  8
0
100
AcDbLine
 62
7
  6
CONTINUOUS
 10
-11.0702596407
 20
12.7351153019
 11
-11.0651954562
 21
12.7401794864
  0
LINE
  5
2EF
100
AcDbEntity
  8
0
100
AcDbLine
 62
7
  6
CONTINUOUS
 10
-11.0913117872
 20
12.6300588698
 11
-11.086421261
 21
12.634949396
  0
LINE
  5
2F0
100
AcDbEntity
  8
0
100
AcDbLine
 62
7
  6
CONTINUOUS
 10
-11.0717515776
 20
12.6496190794
 11
-11.066687345
 21
12.654683312
  0
LINE
  5
2F1
100
AcDbEntity
  8
0
100
AcDbLine
 62
7
  6
CONTINUOUS
 10
-11.0898710736
 20
12.5474952978
 11
-11.0849805027
 21
12.5523858687
  0
LINE
  5
2F2
100
AcDbEntity
  8
0
100
AcDbLine
 62
7
  6
CONTINUOUS
 10
-11.0732435145
 20
12.5641228569
 11
-11.0681792338
 21
12.5691871376
  0
LINE
  5
2F3
100
AcDbEntity
  8
RACCORDO
100
AcDbLine
 62
7
  6
CONTINUOUS
 10
9.4458719129
 20
20.8319711233
 11
9.6369070392
 21
20.8956365661
  0
LINE
  5
2F4
100
AcDbEntity
  8
RACCORDO
100
AcDbLine
 62
253
  6
CONTINUOUS
 10
9.6726659647
 20
-18.1228182695
 11
-9.6726659647
 21
-18.1228182695
  0
LINE
  5
2F5
100
AcDbEntity
  8
SUPERFICI
100
AcDbLine
 62
253
  6
CONTINUOUS
 10
9.6726659647
 20
-18.1228182695
 11
-9.6726659647
 21
-18.1228182695
  0
LINE
  5
2F6
100
AcDbEntity
  8
0
100
AcDbLine
 62
253
  6
CONTINUOUS
 10
9.8895355881
 20
-17.6
 11
9.894932944
 21
-17.6
  0
LINE
  5
2F7
100
AcDbEntity
  8
RACCORDO
100
AcDbLine
 62
7
  6
CONTINUOUS
 10
9.4458719129
 20
-20.8319711233
 11
9.6369070392
 21
-20.8956365661
  0
LINE
  5
2F8
100
AcDbEntity
  8
RACCORDO
100
AcDbLine
 62
7
  6
CONTINUOUS
 10
-5.1254493507
 20
-21.0745506493
 11
-5.4396649246
 21
-20.7603350754
  0
LINE
  5
2F9
100
AcDbEntity
  8
ASSI
100
AcDbLine
 62
253
  6
CONTINUOUS
 10
-1.0499619238
 20
-24.0
 11
-1.0663732129
 21
-23.9835887109
  0
LINE
  5
2FA
100
AcDbEntity
  8
ASSI
100
AcDbLine
 62
253
  6
CONTINUOUS
 10
-0.8
 20
-23.7500380762
 11
-0.8165255932
 21
-23.733512483
  0
LINE
  5
2FB
100
AcDbEntity
  8
0
100
AcDbLine
 62
7
  6
CONTINUOUS
 10
-11.0884303601
 20
12.4649317257
 11
-11.0835397444
 21
12.4698223414
  0
LINE
  5
2FC
100
AcDbEntity
  8
0
100
AcDbLine
 62
7
  6
CONTINUOUS
 10
-11.0747354513
 20
12.4786266345
 11
-11.0696711226
 21
12.4836909632
  0
LINE
  5
2FD
100
AcDbEntity
  8
0
100
AcDbLine
 62
7
  6
CONTINUOUS
 10
-11.0869896465
 20
12.3823681537
 11
-11.0820989861
 21
12.3872588141
  0
LINE
  5
2FE
100
AcDbEntity
  8
0
100
AcDbLine
 62
7
  6
CONTINUOUS
 10
-11.0762273882
 20
12.393130412
 11
-11.0711630113
 21
12.3981947888
  0
LINE
  5
2FF
100
AcDbEntity
  8
0
100
AcDbLine
 62
7
  6
CONTINUOUS
 10
-11.085548933
 20
12.2998045816
 11
-11.0806582278
 21
12.3046952868
  0
LINE
  5
300
100
AcDbEntity
  8
0
100
AcDbLine
 62
7
  6
CONTINUOUS
 10
-11.0777193251
 20
12.3076341895
 11
-11.0726549001
 21
12.3126986145
  0
LINE
  5
301
100
AcDbEntity
  8
0
100
AcDbLine
 62
7
  6
CONTINUOUS
 10
-11.0841082194
 20
12.2172410096
 11
-11.0741467889
 21
12.2272024401
  0
LINE
  5
302
100
AcDbEntity
  8
0
100
AcDbLine
 62
7
  6
CONTINUOUS
 10
-11.0826675059
 20
12.1346774375
 11
-11.0756386777
 21
12.1417062657
  0
LINE
  5
303
100
AcDbEntity
  8
0
100
AcDbLine
 62
7
  6
CONTINUOUS
 10
-11.0812267923
 20
12.0521138655
 11
-11.0771305665
 21
12.0562100913
  0
LINE
  5
304
100
AcDbEntity
  8
0
100
AcDbLine
 62
7
  6
CONTINUOUS
 10
-11.0797860788
 20
11.9695502934
 11
-11.0786224553
 21
11.9707139169
  0
LINE
  5
305
100
AcDbEntity
  8
0
100
AcDbLine
 62
7
  6
CONTINUOUS
 10
-11.1045175322
 20
11.7768102688
 11
-11.0538700215
 21
11.8274577795
  0
LINE
  5
306
100
AcDbEntity
  8
0
100
AcDbLine
 62
7
  6
CONTINUOUS
 10
-11.1045175322
 20
11.6928059832
 11
-11.0538700215
 21
11.7434534939
  0
LINE
  5
307
100
AcDbEntity
  8
0
100
AcDbLine
 62
7
  6
CONTINUOUS
 10
-11.0826042297
 20
11.630715
 11
-11.0538700215
 21
11.6594492083
  0
LINE
  5
308
100
AcDbEntity
  8
0
100
AcDbLine
 62
7
  6
CONTINUOUS
 10
-11.0969814802
 20
11.1123120359
 11
-11.085132475
 21
11.1241610411
  0
LINE
  5
309
100
AcDbEntity
  8
0
100
AcDbLine
 62
7
  6
CONTINUOUS
 10
-11.0991818679
 20
11.0261073626
 11
-11.0827065868
 21
11.0425826437
  0
LINE
  5
30A
100
AcDbEntity
  8
0
100
AcDbLine
 62
7
  6
CONTINUOUS
 10
-11.055061161
 20
11.0702280695
 11
-11.0538700288
 21
11.0714192017
  0
LINE
  5
30B
100
AcDbEntity
  8
0
100
AcDbLine
 62
7
  6
CONTINUOUS
 10
-11.1006698887
 20
10.9406150562
 11
-11.0948930583
 21
10.9463918866
  0
LINE
  5
30C
100
AcDbEntity
  8
0
100
AcDbLine
 62
7
  6
CONTINUOUS
 10
-11.0871175499
 20
10.954167395
 11
-11.0810527709
 21
10.960232174
  0
LINE
  5
30D
100
AcDbEntity
  8
0
100
AcDbLine
 62
7
  6
CONTINUOUS
 10
-11.0579507341
 20
10.9833342108
 11
-11.0538700288
 21
10.9874149161
  0
LINE
  5
30E
100
AcDbEntity
  8
0
100
AcDbLine
 62
7
  6
CONTINUOUS
 10
-11.1017720356
 20
10.8555086237
 11
-11.0971310687
 21
10.8601495906
  0
LINE
  5
30F
100
AcDbEntity
  8
0
100
AcDbLine
 62
7
  6
CONTINUOUS
 10
-11.0846743036
 20
10.8726063557
 11
-11.0798046936
 21
10.8774759657
  0
LINE
  5
310
100
AcDbEntity
  8
0
100
AcDbLine
 62
7
  6
CONTINUOUS
 10
-11.0608403072
 20
10.8964403521
 11
-11.0538700288
 21
10.9034106305
  0
LINE
  5
311
100
AcDbEntity
  8
0
100
AcDbLine
 62
7
  6
CONTINUOUS
 10
-11.1026091233
 20
10.7706672504
 11
-11.0984783039
 21
10.7747980698
  0
LINE
  5
312
100
AcDbEntity
  8
0
100
AcDbLine
 62
7
  6
CONTINUOUS
 10
-11.0831495586
 20
10.7901268151
 11
-11.0788367503
 21
10.7944396234
  0
LINE
  5
313
100
AcDbEntity
  8
0
100
AcDbLine
 62
7
  6
CONTINUOUS
 10
-11.0637298803
 20
10.8095464934
 11
-11.0558967198
 21
10.8173796539
  0
LINE
  5
314
100
AcDbEntity
  8
0
100
AcDbLine
 62
7
  6
CONTINUOUS
 10
-11.1032348857
 20
10.6860372024
 11
-11.099378755
 21
10.6898933331
  0
LINE
  5
315
100
AcDbEntity
  8
0
100
AcDbLine
 62
7
  6
CONTINUOUS
 10
-11.08207931
 20
10.707192778
 11
-11.0781030735
 21
10.7111690146
  0
LINE
  5
316
100
AcDbEntity
  8
0
100
AcDbLine
 62
7
  6
CONTINUOUS
 10
-11.0666194534
 20
10.7226526347
 11
-11.0587863331
 21
10.730485755
  0
LINE
  5
317
100
AcDbEntity
  8
0
100
AcDbLine
 62
7
  6
CONTINUOUS
 10
-11.1036887792
 20
10.6015790232
 11
-11.099998511
 21
10.6052692915
  0
LINE
  5
318
100
AcDbEntity
  8
0
100
AcDbLine
 62
7
  6
CONTINUOUS
 10
-11.081308216
 20
10.6239595865
 11
-11.0775164084
 21
10.6277513941
  0
LINE
  5
319
100
AcDbEntity
  8
0
100
AcDbLine
 62
7
  6
CONTINUOUS
 10
-11.0695090265
 20
10.635758776
 11
-11.0616759464
 21
10.6435918561
  0
LINE
  5
31A
100
AcDbEntity
  8
0
100
AcDbLine
 62
7
  6
CONTINUOUS
 10
-11.1040174875
 20
10.5172460294
 11
-11.1004047507
 21
10.5208587662
  0
LINE
  5
31B
100
AcDbEntity
  8
0
100
AcDbLine
 62
7
  6
CONTINUOUS
 10
-11.0807562939
 20
10.540507223
 11
-11.0771061444
 21
10.5441573725
  0
LINE
  5
31C
100
AcDbEntity
  8
0
100
AcDbLine
 62
7
  6
CONTINUOUS
 10
-11.0723985996
 20
10.5488649173
 11
-11.0645655596
 21
10.5566979572
  0
LINE
  5
31D
100
AcDbEntity
  8
0
100
AcDbLine
 62
7
  6
CONTINUOUS
 10
-11.1042133132
 20
10.433045918
 11
-11.1006660137
 21
10.4365932176
  0
LINE
  5
31E
100
AcDbEntity
  8
0
100
AcDbLine
 62
7
  6
CONTINUOUS
 10
-11.0803840296
 20
10.4568752017
 11
-11.0768136293
 21
10.460445602
  0
LINE
  5
31F
100
AcDbEntity
  8
0
100
AcDbLine
 62
7
  6
CONTINUOUS
 10
-11.0752881727
 20
10.4619710586
 11
-11.0674551729
 21
10.4698040583
  0
LINE
  5
320
100
AcDbEntity
  8
0
100
AcDbLine
 62
7
  6
CONTINUOUS
 10
-11.1043145052
 20
10.3489404405
 11
-11.1007958433
 21
10.3524591024
  0
LINE
  5
321
100
AcDbEntity
  8
0
100
AcDbLine
 62
7
  6
CONTINUOUS
 10
-11.0801546663
 20
10.3731002793
 11
-11.0703447862
 21
10.3829101594
  0
LINE
  5
322
100
AcDbEntity
  8
0
100
AcDbLine
 62
7
  6
CONTINUOUS
 10
-11.1043499773
 20
10.2649006828
 11
-11.1008314602
 21
10.2684191998
  0
LINE
  5
323
100
AcDbEntity
  8
0
100
AcDbLine
 62
7
  6
CONTINUOUS
 10
-11.0800538668
 20
10.2891967933
 11
-11.0732343995
 21
10.2960162605
  0
LINE
  5
324
100
AcDbEntity
  8
0
100
AcDbLine
 62
7
  6
CONTINUOUS
 10
-11.1043499773
 20
10.1808963972
 11
-11.1008314602
 21
10.1844149142
  0
LINE
  5
325
100
AcDbEntity
  8
0
100
AcDbLine
 62
7
  6
CONTINUOUS
 10
-11.0800323448
 20
10.2052140297
 11
-11.0761240128
 21
10.2091223617
  0
LINE
  5
326
100
AcDbEntity
  8
0
100
AcDbLine
 62
7
  6
CONTINUOUS
 10
-11.1043499773
 20
10.0968921116
 11
-11.1008314602
 21
10.1004106286
  0
LINE
  5
327
100
AcDbEntity
  8
0
100
AcDbLine
 62
7
  6
CONTINUOUS
 10
-11.0800323448
 20
10.1212097441
 11
-11.0790136261
 21
10.1222284628
  0
LINE
  5
328
100
AcDbEntity
  8
0
100
AcDbLine
 62
7
  6
CONTINUOUS
 10
-11.1043499773
 20
10.012887826
 11
-11.1008314602
 21
10.016406343
  0
LINE
  5
329
100
AcDbEntity
  8
0
100
AcDbLine
 62
7
  6
CONTINUOUS
 10
-11.1043499773
 20
9.9288835404
 11
-11.1008314602
 21
9.9324020574
  0
LINE
  5
32A
100
AcDbEntity
  8
0
100
AcDbLine
 62
7
  6
CONTINUOUS
 10
-11.1043499773
 20
9.8448792548
 11
-11.1008314602
 21
9.8483977718
  0
LINE
  5
32B
100
AcDbEntity
  8
0
100
AcDbLine
 62
7
  6
CONTINUOUS
 10
-11.1043499773
 20
9.7608749692
 11
-11.1008314602
 21
9.7643934862
  0
LINE
  5
32C
100
AcDbEntity
  8
0
100
AcDbLine
 62
7
  6
CONTINUOUS
 10
-11.1043499773
 20
9.6768706836
 11
-11.1008314602
 21
9.6803892006
  0
LINE
  5
32D
100
AcDbEntity
  8
0
100
AcDbLine
 62
7
  6
CONTINUOUS
 10
-11.1043499773
 20
9.592866398
 11
-11.1008314602
 21
9.596384915
  0
LINE
  5
32E
100
AcDbEntity
  8
0
100
AcDbLine
 62
7
  6
CONTINUOUS
 10
-11.1043499773
 20
9.5088621124
 11
-11.1008314602
 21
9.5123806294
  0
LINE
  5
32F
100
AcDbEntity
  8
0
100
AcDbLine
 62
253
  6
CONTINUOUS
 10
9.8437621737
 20
-16.3
 11
9.8527577663
 21
-16.3
  0
LINE
  5
330
100
AcDbEntity
  8
0
100
AcDbLine
 62
253
  6
CONTINUOUS
 10
9.8859373499
 20
-16.3
 11
9.8985311807
 21
-16.3
  0
LINE
  5
331
100
AcDbEntity
  8
0
100
AcDbLine
 62
253
  6
CONTINUOUS
 10
9.9057276542
 20
-16.3
 11
9.9147232468
 21
-16.3
  0
LINE
  5
332
100
AcDbEntity
  8
0
100
AcDbLine
 62
253
  6
CONTINUOUS
 10
9.8745765975
 20
-16.3
 11
9.8850496364
 21
-16.3
  0
LINE
  5
333
100
AcDbEntity
  8
0
100
AcDbLine
 62
253
  6
CONTINUOUS
 10
9.8536305196
 20
-16.3
 11
9.8641035585
 21
-16.3
  0
LINE
  5
334
100
AcDbEntity
  8
0
100
AcDbLine
 62
253
  6
CONTINUOUS
 10
11.0233453939
 20
-15.6047613144
 11
11.0103807485
 21
-15.6047613144
  0
LINE
  5
335
100
AcDbEntity
  8
0
100
AcDbLine
 62
253
  6
CONTINUOUS
 10
9.7793542316
 20
-15.6
 11
9.786550705
 21
-15.6
  0
LINE
  5
336
100
AcDbEntity
  8
0
100
AcDbLine
 62
253
  6
CONTINUOUS
 10
9.7973454153
 20
-15.6
 11
9.8117383637
 21
-15.6
  0
LINE
  5
337
100
AcDbEntity
  8
0
100
AcDbLine
 62
253
  6
CONTINUOUS
 10
9.9483317269
 20
-15.6
 11
9.9627246754
 21
-15.6
  0
LINE
  5
338
100
AcDbEntity
  8
ASSI
100
AcDbLine
 62
7
  6
CONTINUOUS
 10
-7.3037800478
 20
22.2164171854
 11
-7.2551134101
 21
22.3825449351
  0
LINE
  5
339
100
AcDbEntity
  8
0
100
AcDbLine
 62
7
  6
CONTINUOUS
 10
-11.1043499773
 20
9.4248578268
 11
-11.1008314602
 21
9.4283763438
  0
LINE
  5
33A
100
AcDbEntity
  8
0
100
AcDbLine
 62
7
  6
CONTINUOUS
 10
-11.1043499773
 20
9.3408535412
 11
-11.1008314602
 21
9.3443720582
  0
LINE
  5
33B
100
AcDbEntity
  8
0
100
AcDbLine
 62
7
  6
CONTINUOUS
 10
-11.1043499773
 20
9.2568492555
 11
-11.1008314602
 21
9.2603677726
  0
LINE
  5
33C
100
AcDbEntity
  8
0
100
AcDbLine
 62
7
  6
CONTINUOUS
 10
-11.1043499773
 20
9.1728449699
 11
-11.1008314602
 21
9.176363487
  0
LINE
  5
33D
100
AcDbEntity
  8
ASSI
100
AcDbLine
 62
253
  6
CONTINUOUS
 10
4.1017910252
 20
23.901752949
 11
4.2000380762
 21
24.0
  0
LINE
  5
33E
100
AcDbEntity
  8
0
100
AcDbLine
 62
7
  6
CONTINUOUS
 10
-11.1046198575
 20
8.6685493761
 11
-11.0538700215
 21
8.7192992121
  0
LINE
  5
33F
100
AcDbEntity
  8
0
100
AcDbLine
 62
7
  6
CONTINUOUS
 10
-11.1046198575
 20
8.5845450905
 11
-11.0538700215
 21
8.6352949265
  0
LINE
  5
340
100
AcDbEntity
  8
0
100
AcDbLine
 62
7
  6
CONTINUOUS
 10
-11.1043645933
 20
8.5007960691
 11
-11.0990823631
 21
8.5060782993
  0
LINE
  5
341
100
AcDbEntity
  8
0
100
AcDbLine
 62
7
  6
CONTINUOUS
 10
-11.0864356624
 20
8.518725
 11
-11.0538700215
 21
8.5512906409
  0
LINE
  5
342
100
AcDbEntity
  8
0
100
AcDbLine
 62
7
  6
CONTINUOUS
 10
-11.1026976963
 20
8.4184586804
 11
-11.0974154494
 21
8.4237409273
  0
LINE
  5
343
100
AcDbEntity
  8
0
100
AcDbLine
 62
7
  6
CONTINUOUS
 10
-11.080435117
 20
8.4407212597
 11
-11.0769166021
 21
8.4442397746
  0
LINE
  5
344
100
AcDbEntity
  8
0
100
AcDbLine
 62
7
  6
CONTINUOUS
 10
-11.1010307994
 20
8.3361212918
 11
-11.0957485358
 21
8.3414035554
  0
LINE
  5
345
100
AcDbEntity
  8
0
100
AcDbLine
 62
7
  6
CONTINUOUS
 10
-11.080435117
 20
8.3567169741
 11
-11.0769166021
 21
8.360235489
  0
LINE
  5
346
100
AcDbEntity
  8
0
100
AcDbLine
 62
7
  6
CONTINUOUS
 10
-11.0993639024
 20
8.2537839031
 11
-11.0940816221
 21
8.2590661834
  0
LINE
  5
347
100
AcDbEntity
  8
0
100
AcDbLine
 62
7
  6
CONTINUOUS
 10
-11.080435117
 20
8.2727126885
 11
-11.0769166021
 21
8.2762312034
  0
LINE
  5
348
100
AcDbEntity
  8
ASSI
100
AcDbLine
 62
253
  6
CONTINUOUS
 10
4.351751166
 20
23.6517892422
 11
4.45
 21
23.7500380762
  0
LINE
  5
349
100
AcDbEntity
  8
0
100
AcDbLine
 62
7
  6
CONTINUOUS
 10
-11.0976970054
 20
8.1714465145
 11
-11.0924147085
 21
8.1767288114
  0
LINE
  5
34A
100
AcDbEntity
  8
0
100
AcDbLine
 62
7
  6
CONTINUOUS
 10
-11.080435117
 20
8.1887084029
 11
-11.0769166021
 21
8.1922269178
  0
LINE
  5
34B
100
AcDbEntity
  8
0
100
AcDbLine
 62
7
  6
CONTINUOUS
 10
-11.0960301085
 20
8.0891091258
 11
-11.0907477949
 21
8.0943914395
  0
LINE
  5
34C
100
AcDbEntity
  8
0
100
AcDbLine
 62
7
  6
CONTINUOUS
 10
-11.080435117
 20
8.1047041173
 11
-11.0769166021
 21
8.1082226322
  0
LINE
  5
34D
100
AcDbEntity
  8
0
100
AcDbLine
 62
7
  6
CONTINUOUS
 10
-11.0943632115
 20
8.0067717372
 11
-11.0890808812
 21
8.0120540675
  0
LINE
  5
34E
100
AcDbEntity
  8
0
100
AcDbLine
 62
7
  6
CONTINUOUS
 10
-11.080435117
 20
8.0206998317
 11
-11.0769166021
 21
8.0242183466
  0
LINE
  5
34F
100
AcDbEntity
  8
0
100
AcDbLine
 62
7
  6
CONTINUOUS
 10
-11.0926963146
 20
7.9244343486
 11
-11.0874139676
 21
7.9297166955
  0
LINE
  5
350
100
AcDbEntity
  8
0
100
AcDbLine
 62
7
  6
CONTINUOUS
 10
-11.080435117
 20
7.9366955461
 11
-11.0769166021
 21
7.940214061
  0
LINE
  5
351
100
AcDbEntity
  8
0
100
AcDbLine
 62
7
  6
CONTINUOUS
 10
-11.0910294176
 20
7.8420969599
 11
-11.0857470539
 21
7.8473793236
  0
LINE
  5
352
100
AcDbEntity
  8
0
100
AcDbLine
 62
7
  6
CONTINUOUS
 10
-11.080435117
 20
7.8526912605
 11
-11.0769166021
 21
7.8562097754
  0
LINE
  5
353
100
AcDbEntity
  8
0
100
AcDbLine
 62
7
  6
CONTINUOUS
 10
-11.0893625206
 20
7.7597595713
 11
-11.0840801403
 21
7.7650419516
  0
LINE
  5
354
100
AcDbEntity
  8
0
100
AcDbLine
 62
7
  6
CONTINUOUS
 10
-11.0876956237
 20
7.6774221826
 11
-11.0824132267
 21
7.6827045796
  0
LINE
  5
355
100
AcDbEntity
  8
0
100
AcDbLine
 62
7
  6
CONTINUOUS
 10
-11.0860287267
 20
7.595084794
 11
-11.080746313
 21
7.6003672077
  0
LINE
  5
356
100
AcDbEntity
  8
0
100
AcDbLine
 62
7
  6
CONTINUOUS
 10
-11.0843618298
 20
7.5127474053
 11
-11.0790793994
 21
7.5180298357
  0
LINE
  5
357
100
AcDbEntity
  8
0
100
AcDbLine
 62
7
  6
CONTINUOUS
 10
-11.0826949328
 20
7.4304100167
 11
-11.0774124858
 21
7.4356924637
  0
LINE
  5
358
100
AcDbEntity
  8
0
100
AcDbLine
 62
7
  6
CONTINUOUS
 10
-11.0810280358
 20
7.3480726281
 11
-11.0757455721
 21
7.3533550918
  0
LINE
  5
359
100
AcDbEntity
  8
0
100
AcDbLine
 62
7
  6
CONTINUOUS
 10
-11.0793611389
 20
7.2657352394
 11
-11.0740786585
 21
7.2710177198
  0
LINE
  5
35A
100
AcDbEntity
  8
0
100
AcDbLine
 62
7
  6
CONTINUOUS
 10
-11.0776942419
 20
7.1833978508
 11
-11.0724117448
 21
7.1886803478
  0
LINE
  5
35B
100
AcDbEntity
  8
0
100
AcDbLine
 62
7
  6
CONTINUOUS
 10
-11.076027345
 20
7.1010604621
 11
-11.0707448312
 21
7.1063429759
  0
LINE
  5
35C
100
AcDbEntity
  8
0
100
AcDbLine
 62
7
  6
CONTINUOUS
 10
-11.074360448
 20
7.0187230735
 11
-11.0690779176
 21
7.0240056039
  0
LINE
  5
35D
100
AcDbEntity
  8
0
100
AcDbLine
 62
7
  6
CONTINUOUS
 10
-11.072693551
 20
6.9363856848
 11
-11.0674110039
 21
6.9416682319
  0
LINE
  5
35E
100
AcDbEntity
  8
ASSI
100
AcDbLine
 62
7
  6
CONTINUOUS
 10
4.45
 20
22.4
 11
4.3520586235
 21
22.3020586235
  0
LINE
  5
35F
100
AcDbEntity
  8
0
100
AcDbLine
 62
7
  6
CONTINUOUS
 10
-11.0710266541
 20
6.8540482962
 11
-11.0657440903
 21
6.85933086
  0
LINE
  5
360
100
AcDbEntity
  8
0
100
AcDbLine
 62
7
  6
CONTINUOUS
 10
-11.0693597571
 20
6.7717109075
 11
-11.0640771767
 21
6.776993488
  0
LINE
  5
361
100
AcDbEntity
  8
0
100
AcDbLine
 62
7
  6
CONTINUOUS
 10
-11.0676928602
 20
6.6893735189
 11
-11.062410263
 21
6.694656116
  0
LINE
  5
362
100
AcDbEntity
  8
0
100
AcDbLine
 62
7
  6
CONTINUOUS
 10
-11.0660259632
 20
6.6070361303
 11
-11.0607433494
 21
6.6123187441
  0
LINE
  5
363
100
AcDbEntity
  8
0
100
AcDbLine
 62
7
  6
CONTINUOUS
 10
-11.0643590662
 20
6.5246987416
 11
-11.0590764357
 21
6.5299813721
  0
LINE
  5
364
100
AcDbEntity
  8
RACCORDO
100
AcDbLine
 62
253
  6
CONTINUOUS
 10
10.5643027805
 20
19.0856972195
 11
10.3897521312
 21
19.0133959733
  0
LINE
  5
365
100
AcDbEntity
  8
SUPERFICI
100
AcDbLine
 62
253
  6
CONTINUOUS
 10
10.5643027805
 20
19.0856972195
 11
10.3897521312
 21
19.0133959733
  0
LINE
  5
366
100
AcDbEntity
  8
ASSI
100
AcDbLine
 62
7
  6
CONTINUOUS
 10
11.0738174026
 20
18.5638400026
 11
11.0825449351
 21
18.5674550649
  0
LINE
  5
367
100
AcDbEntity
  8
0
100
AcDbLine
 62
253
  6
CONTINUOUS
 10
11.0330688769
 20
-14.3976193428
 11
11.0103807485
 21
-14.3976193428
  0
LINE
  5
368
100
AcDbEntity
  8
0
100
AcDbLine
 62
253
  6
CONTINUOUS
 10
9.7811533492
 20
-14.3
 11
9.7883498242
 21
-14.3
  0
LINE
  5
369
100
AcDbEntity
  8
0
100
AcDbLine
 62
253
  6
CONTINUOUS
 10
9.8850496364
 20
-14.3
 11
9.926069039
 21
-14.3
  0
LINE
  5
36A
100
AcDbEntity
  8
0
100
AcDbLine
 62
253
  6
CONTINUOUS
 10
9.812611117
 20
-14.3
 11
9.8536305196
 21
-14.3
  0
LINE
  5
36B
100
AcDbEntity
  8
0
100
AcDbLine
 62
253
  6
CONTINUOUS
 10
9.7676718049
 20
-13.6
 11
9.7820647534
 21
-13.6
  0
LINE
  5
36C
100
AcDbEntity
  8
0
100
AcDbLine
 62
253
  6
CONTINUOUS
 10
9.9607111087
 20
-13.6
 11
9.9661084642
 21
-13.6
  0
LINE
  5
36D
100
AcDbEntity
  8
0
100
AcDbLine
 62
253
  6
CONTINUOUS
 10
11.0103807485
 20
-12.5404761314
 11
11.0330688769
 21
-12.5404761314
  0
LINE
  5
36E
100
AcDbEntity
  8
0
100
AcDbLine
 62
253
  6
CONTINUOUS
 10
-11.1046038212
 20
-13.171006
 11
-11.0539971429
 21
-13.171014
  0
LINE
  5
36F
100
AcDbEntity
  8
0
100
AcDbLine
 62
253
  6
CONTINUOUS
 10
-11.053997265
 20
-12.590992
 11
-11.1046038212
 21
-12.590985
  0
LINE
  5
370
100
AcDbEntity
  8
RACCORDO
100
AcDbLine
 62
253
  6
CONTINUOUS
 10
10.3897521312
 20
-19.0133959733
 11
10.5643027805
 21
-19.0856972195
  0
LINE
  5
371
100
AcDbEntity
  8
SUPERFICI
100
AcDbLine
 62
253
  6
CONTINUOUS
 10
10.3897521312
 20
-19.0133959733
 11
10.5643027805
 21
-19.0856972195
  0
LINE
  5
372
100
AcDbEntity
  8
ASSI
100
AcDbLine
 62
7
  6
CONTINUOUS
 10
11.0738174026
 20
-18.5638400026
 11
11.0825449351
 21
-18.5674550649
  0
LINE
  5
373
100
AcDbEntity
  8
ASSI
100
AcDbLine
 62
253
  6
CONTINUOUS
 10
4.2000380762
 20
-24.0
 11
4.1017910252
 21
-23.901752949
  0
LINE
  5
374
100
AcDbEntity
  8
ASSI
100
AcDbLine
 62
253
  6
CONTINUOUS
 10
4.45
 20
-23.7500380762
 11
4.3517511659
 21
-23.6517892421
  0
LINE
  5
375
100
AcDbEntity
  8
ASSI
100
AcDbLine
 62
7
  6
CONTINUOUS
 10
4.45
 20
-22.4
 11
4.3520586235
 21
-22.3020586235
  0
LINE
  5
376
100
AcDbEntity
  8
ASSI
100
AcDbLine
 62
7
  6
CONTINUOUS
 10
-7.3037800478
 20
-22.2164171854
 11
-7.2551134101
 21
-22.3825449351
  0
LINE
  5
377
100
AcDbEntity
  8
0
100
AcDbLine
 62
253
  6
CONTINUOUS
 10
-11.1046038212
 20
-10.051012
 11
-11.0716470224
 21
-10.59258
  0
LINE
  5
378
100
AcDbEntity
  8
0
100
AcDbLine
 62
253
  6
CONTINUOUS
 10
-11.0539974046
 20
-10.30258
 11
-11.0873688967
 21
-9.754205
  0
LINE
  5
379
100
AcDbEntity
  8
0
100
AcDbLine
 62
253
  6
CONTINUOUS
 10
-11.1046038212
 20
-14.137714
 11
-11.069758471
 21
-14.778839
  0
LINE
  5
37A
100
AcDbEntity
  8
0
100
AcDbLine
 62
253
  6
CONTINUOUS
 10
-11.053997265
 20
-14.488824
 11
-11.1046038212
 21
-13.557685
  0
LINE
  5
37B
100
AcDbEntity
  8
0
100
AcDbLine
 62
253
  6
CONTINUOUS
 10
-11.053997265
 20
-8.787497
 11
-11.1046039433
 21
-7.856372
  0
LINE
  5
37C
100
AcDbEntity
  8
0
100
AcDbLine
 62
253
  6
CONTINUOUS
 10
-11.0888426152
 20
-7.56635
 11
-11.07356468
 21
-7.84744
  0
LINE
  5
37D
100
AcDbEntity
  8
0
100
AcDbLine
 62
253
  6
CONTINUOUS
 10
-11.0639494847
 20
-8.024362
 11
-11.0539974046
 21
-8.207475
  0
LINE
  5
37E
100
AcDbEntity
  8
ASSI
100
AcDbLine
 62
7
  6
CONTINUOUS
 10
-11.1
 20
-18.5
 11
-11.1226506512
 21
-18.0005957871
  0
LINE
  5
37F
100
AcDbEntity
  8
ASSI
100
AcDbLine
 62
253
  6
CONTINUOUS
 10
-10.5864113981
 20
-23.8010362971
 11
-10.6
 21
-23.3515746082
  0
LINE
  5
380
100
AcDbEntity
  8
ASSI
100
AcDbLine
 62
253
  6
CONTINUOUS
 10
-10.3864405814
 20
-23.6278734767
 11
-10.4017150409
 21
-23.1226497308
  0
LINE
  5
381
100
AcDbEntity
  8
ASSI
100
AcDbLine
 62
7
  6
CONTINUOUS
 10
-11.0896827999
 20
18.1587444238
 11
-11.1
 21
18.5
  0
LINE
  5
382
100
AcDbEntity
  8
0
100
AcDbLine
 62
253
  6
CONTINUOUS
 10
-11.0278331549
 20
13.807142663
 11
-11.0207275318
 21
13.535714221
  0
LINE
  5
383
100
AcDbEntity
  8
0
100
AcDbLine
 62
253
  6
CONTINUOUS
 10
-10.9946735827
 20
13.535714221
 11
-11.018358992
 21
14.485714221
  0
LINE
  5
384
100
AcDbEntity
  8
0
100
AcDbLine
 62
253
  6
CONTINUOUS
 10
-11.1046198575
 20
8.513405
 11
-11.0538700215
 21
6.006586
  0
LINE
  5
385
100
AcDbEntity
  8
0
100
AcDbLine
 62
253
  6
CONTINUOUS
 10
-11.0993383945
 20
8.518725
 11
-11.0538700215
 21
6.27281
  0
LINE
  5
386
100
AcDbEntity
  8
0
100
AcDbLine
 62
253
  6
CONTINUOUS
 10
-11.1046198575
 20
13.39271
 11
-11.0792144199
 21
11.93679
  0
LINE
  5
387
100
AcDbEntity
  8
0
100
AcDbLine
 62
253
  6
CONTINUOUS
 10
-11.0792144199
 20
12.221957
 11
-11.1046198575
 21
13.677831
  0
LINE
  5
388
100
AcDbEntity
  8
0
100
AcDbLine
 62
253
  6
CONTINUOUS
 10
-11.1216966
 20
15.417974
 11
-11.1094771345
 21
14.717707
  0
LINE
  5
389
100
AcDbEntity
  8
0
100
AcDbLine
 62
253
  6
CONTINUOUS
 10
-11.018358992
 20
9.6
 11
-11.0278331549
 21
10.1428571671
  0
LINE
  5
38A
100
AcDbEntity
  8
0
100
AcDbLine
 62
253
  6
CONTINUOUS
 10
-11.1094771345
 20
15.002851
 11
-11.1216966
 21
15.703094
  0
LINE
  5
38B
100
AcDbEntity
  8
0
100
AcDbLine
 62
253
  6
CONTINUOUS
 10
-11.0278331549
 20
10.9571428895
 11
-11.0230960735
 21
10.6857143342
  0
LINE
  5
38C
100
AcDbEntity
  8
0
100
AcDbLine
 62
253
  6
CONTINUOUS
 10
-10.9946735827
 20
10.9571428895
 11
-11.0041477466
 21
11.5
  0
LINE
  5
38D
100
AcDbEntity
  8
0
100
AcDbLine
 62
253
  6
CONTINUOUS
 10
-10.9946735827
 20
12.8571428895
 11
-10.9970421237
 21
12.9928571105
  0
LINE
  5
38E
100
AcDbEntity
  8
0
100
AcDbLine
 62
253
  6
CONTINUOUS
 10
-11.018358992
 20
15.028571558
 11
-11.0278331549
 21
15.571428442
  0
LINE
  5
38F
100
AcDbEntity
  8
0
100
AcDbLine
 62
253
  6
CONTINUOUS
 10
-11.0136219105
 20
12.7214286685
 11
-11.0159904503
 21
12.9476189613
  0
LINE
  5
390
100
AcDbEntity
  8
RACCORDO
100
AcDbLine
 62
7
  6
CONTINUOUS
 10
-11.15
 20
17.6716990487
 11
-11.15
 21
-17.6716990487
  0
LINE
  5
391
100
AcDbEntity
  8
SUPERFICI
100
AcDbLine
 62
7
  6
CONTINUOUS
 10
-11.15
 20
17.6716990487
 11
-11.15
 21
-17.6716990487
  0
LINE
  5
392
100
AcDbEntity
  8
0
100
AcDbLine
 62
253
  6
CONTINUOUS
 10
-11.1216966
 20
15.703094
 11
-11.1216966
 21
15.417974
  0
LINE
  5
393
100
AcDbEntity
  8
0
100
AcDbLine
 62
253
  6
CONTINUOUS
 10
-11.1094771345
 20
14.717707
 11
-11.1094771345
 21
15.002851
  0
LINE
  5
394
100
AcDbEntity
  8
0
100
AcDbLine
 62
253
  6
CONTINUOUS
 10
-11.1046198575
 20
13.677831
 11
-11.1046198575
 21
13.39271
  0
LINE
  5
395
100
AcDbEntity
  8
0
100
AcDbLine
 62
253
  6
CONTINUOUS
 10
-11.1046198575
 20
8.720362
 11
-11.1046198575
 21
8.513405
  0
LINE
  5
396
100
AcDbEntity
  8
0
100
AcDbLine
 62
253
  6
CONTINUOUS
 10
-11.1046038212
 20
-9.174176
 11
-11.1046038212
 21
-10.051012
  0
LINE
  5
397
100
AcDbEntity
  8
0
100
AcDbLine
 62
253
  6
CONTINUOUS
 10
-11.1046038212
 20
-11.134148
 11
-11.1046038212
 21
-12.010985
  0
LINE
  5
398
100
AcDbEntity
  8
0
100
AcDbLine
 62
253
  6
CONTINUOUS
 10
-11.1046038212
 20
-12.590985
 11
-11.1046038212
 21
-13.171006
  0
LINE
  5
399
100
AcDbEntity
  8
0
100
AcDbLine
 62
253
  6
CONTINUOUS
 10
-11.1046038212
 20
-13.557685
 11
-11.1046038212
 21
-14.137714
  0
LINE
  5
39A
100
AcDbEntity
  8
0
100
AcDbLine
 62
253
  6
CONTINUOUS
 10
-11.1046038212
 20
-15.419971
 11
-11.1046038212
 21
-16.0
  0
LINE
  5
39B
100
AcDbEntity
  8
0
100
AcDbLine
 62
253
  6
CONTINUOUS
 10
-11.1046039433
 20
-7.856372
 11
-11.1046039433
 21
-7.276321
  0
LINE
  5
39C
100
AcDbEntity
  8
0
100
AcDbLine
 62
253
  6
CONTINUOUS
 10
-11.1046039433
 20
-5.958503
 11
-11.1046039433
 21
-4.600288
  0
LINE
  5
39D
100
AcDbEntity
  8
0
100
AcDbLine
 62
253
  6
CONTINUOUS
 10
-11.1045546478
 20
15.995334
 11
-11.1045546478
 21
14.099481
  0
LINE
  5
39E
100
AcDbEntity
  8
0
100
AcDbLine
 62
253
  6
CONTINUOUS
 10
-11.1045175322
 20
11.832352
 11
-11.1045175322
 21
11.630715
  0
LINE
  5
39F
100
AcDbEntity
  8
0
100
AcDbLine
 62
253
  6
CONTINUOUS
 10
-11.1043499773
 20
10.2968972759
 11
-11.1043499773
 21
9.1517800542
  0
LINE
  5
3A0
100
AcDbEntity
  8
0
100
AcDbLine
 62
253
  6
CONTINUOUS
 10
-11.1010361329
 20
14.301118
 11
-11.1010361329
 21
15.995334
  0
LINE
  5
3A1
100
AcDbEntity
  8
0
100
AcDbLine
 62
253
  6
CONTINUOUS
 10
-11.1008314602
 20
9.1517800542
 11
-11.1008314602
 21
10.2968972759
  0
LINE
  5
3A2
100
AcDbEntity
  8
ASSI
100
AcDbLine
 62
7
  6
CONTINUOUS
 10
-11.1
 20
21.9000761524
 11
-11.1
 21
18.5
  0
LINE
  5
3A3
100
AcDbEntity
  8
ASSI
100
AcDbLine
 62
7
  6
CONTINUOUS
 10
-11.1
 20
-21.9000761524
 11
-11.1
 21
-18.5
  0
LINE
  5
3A4
100
AcDbEntity
  8
0
100
AcDbLine
 62
253
  6
CONTINUOUS
 10
-11.0952417694
 20
-4.680792
 11
-11.0952417694
 21
-5.386478
  0
LINE
  5
3A5
100
AcDbEntity
  8
0
100
AcDbLine
 62
253
  6
CONTINUOUS
 10
-11.082926976
 20
-5.386471
 11
-11.082926976
 21
-4.680792
  0
LINE
  5
3A6
100
AcDbEntity
  8
ASSI
100
AcDbLine
 62
7
  6
CONTINUOUS
 10
-11.0825449351
 20
-21.8826210875
 11
-11.0825449351
 21
-18.5674550649
  0
LINE
  5
3A7
100
AcDbEntity
  8
ASSI
100
AcDbLine
 62
7
  6
CONTINUOUS
 10
-11.0825449351
 20
18.5674550649
 11
-11.0825449351
 21
21.8826210875
  0
LINE
  5
3A8
100
AcDbEntity
  8
0
100
AcDbLine
 62
253
  6
CONTINUOUS
 10
-11.080435117
 20
7.797789
 11
-11.080435117
 21
8.518725
  0
LINE
  5
3A9
100
AcDbEntity
  8
0
100
AcDbLine
 62
253
  6
CONTINUOUS
 10
-11.0804334767
 20
15.940301
 11
-11.0804334767
 21
14.940014
  0
LINE
  5
3AA
100
AcDbEntity
  8
0
100
AcDbLine
 62
253
  6
CONTINUOUS
 10
-11.0800323448
 20
10.2583483071
 11
-11.0800323448
 21
10.0915944548
  0
LINE
  5
3AB
100
AcDbEntity
  8
0
100
AcDbLine
 62
253
  6
CONTINUOUS
 10
-11.0769347673
 20
14.940014
 11
-11.0769347673
 21
15.940301
  0
LINE
  5
3AC
100
AcDbEntity
  8
0
100
AcDbLine
 62
253
  6
CONTINUOUS
 10
-11.0769166021
 20
7.797789
 11
-11.0769166021
 21
8.518725
  0
LINE
  5
3AD
100
AcDbEntity
  8
ASSI
100
AcDbLine
 62
7
  6
CONTINUOUS
 10
-11.0738174026
 20
-18.5638400026
 11
-11.0738174026
 21
-18.218029465
  0
LINE
  5
3AE
100
AcDbEntity
  8
ASSI
100
AcDbLine
 62
7
  6
CONTINUOUS
 10
-11.0738174026
 20
18.218029465
 11
-11.0738174026
 21
18.5638400026
  0
LINE
  5
3AF
100
AcDbEntity
  8
0
100
AcDbLine
 62
253
  6
CONTINUOUS
 10
-11.07356468
 20
-7.84744
 11
-11.07356468
 21
-7.285246
  0
LINE
  5
3B0
100
AcDbEntity
  8
0
100
AcDbLine
 62
253
  6
CONTINUOUS
 10
-11.07356468
 20
-4.872178
 11
-11.0735648021
 21
-5.378409
  0
LINE
  5
3B1
100
AcDbEntity
  8
0
100
AcDbLine
 62
253
  6
CONTINUOUS
 10
-11.0639494847
 20
-7.108317
 11
-11.0639494847
 21
-8.024362
  0
LINE
  5
3B2
100
AcDbEntity
  8
0
100
AcDbLine
 62
253
  6
CONTINUOUS
 10
-11.0575156578
 20
16.02
 11
-11.0575156578
 21
14.301118
  0
LINE
  5
3B3
100
AcDbEntity
  8
0
100
AcDbLine
 62
253
  6
CONTINUOUS
 10
-11.0539971429
 20
-15.068868
 11
-11.053997265
 21
-14.488824
  0
LINE
  5
3B4
100
AcDbEntity
  8
0
100
AcDbLine
 62
253
  6
CONTINUOUS
 10
-11.0539971429
 20
-13.171014
 11
-11.053997265
 21
-12.590992
  0
LINE
  5
3B5
100
AcDbEntity
  8
0
100
AcDbLine
 62
253
  6
CONTINUOUS
 10
-11.0539974046
 20
-8.207475
 11
-11.053997265
 21
-8.787497
  0
LINE
  5
3B6
100
AcDbEntity
  8
0
100
AcDbLine
 62
253
  6
CONTINUOUS
 10
-11.053997265
 20
-10.882587
 11
-11.0539974046
 21
-10.30258
  0
LINE
  5
3B7
100
AcDbEntity
  8
0
100
AcDbLine
 62
253
  6
CONTINUOUS
 10
-11.0539975268
 20
-3.637619
 11
-11.0539974046
 21
-4.290924
  0
LINE
  5
3B8
100
AcDbEntity
  8
0
100
AcDbLine
 62
253
  6
CONTINUOUS
 10
-11.0539974046
 20
-5.378474
 11
-11.0539974046
 21
-5.958503
  0
LINE
  5
3B9
100
AcDbEntity
  8
0
100
AcDbLine
 62
253
  6
CONTINUOUS
 10
-11.053997265
 20
-12.010985
 11
-11.053997265
 21
-11.430963
  0
LINE
  5
3BA
100
AcDbEntity
  8
0
100
AcDbLine
 62
253
  6
CONTINUOUS
 10
-11.053997265
 20
-9.754197
 11
-11.053997265
 21
-9.174176
  0
LINE
  5
3BB
100
AcDbEntity
  8
0
100
AcDbLine
 62
253
  6
CONTINUOUS
 10
-11.0539971429
 20
6.006586
 11
-11.0539971429
 21
6.27281
  0
LINE
  5
3BC
100
AcDbEntity
  8
0
100
AcDbLine
 62
253
  6
CONTINUOUS
 10
-11.0539971429
 20
8.518725
 11
-11.0539971429
 21
8.720362
  0
LINE
  5
3BD
100
AcDbEntity
  8
0
100
AcDbLine
 62
253
  6
CONTINUOUS
 10
-11.0539971429
 20
10.8783245146
 11
-11.0539971429
 21
11.1060472269
  0
LINE
  5
3BE
100
AcDbEntity
  8
0
100
AcDbLine
 62
253
  6
CONTINUOUS
 10
-11.0539971429
 20
11.630715
 11
-11.0539971429
 21
11.832352
  0
LINE
  5
3BF
100
AcDbEntity
  8
0
100
AcDbLine
 62
253
  6
CONTINUOUS
 10
-11.0539971429
 20
13.38921
 11
-11.0539971429
 21
13.674331
  0
LINE
  5
3C0
100
AcDbEntity
  8
0
100
AcDbLine
 62
253
  6
CONTINUOUS
 10
-11.0539971429
 20
14.099481
 11
-11.0539971429
 21
16.02
  0
LINE
  5
3C1
100
AcDbEntity
  8
0
100
AcDbLine
 62
253
  6
CONTINUOUS
 10
-11.053997265
 20
-6.345182
 11
-11.0539974046
 21
-6.925211
  0
LINE
  5
3C2
100
AcDbEntity
  8
0
100
AcDbLine
 62
253
  6
CONTINUOUS
 10
-11.0278331549
 20
14.214285779
 11
-11.0278331549
 21
13.807142663
  0
LINE
  5
3C3
100
AcDbEntity
  8
0
100
AcDbLine
 62
253
  6
CONTINUOUS
 10
-11.0278331549
 20
12.7214286685
 11
-11.0278331549
 21
12.1785713315
  0
LINE
  5
3C4
100
AcDbEntity
  8
0
100
AcDbLine
 62
253
  6
CONTINUOUS
 10
-11.0278331549
 20
11.3642856657
 11
-11.0278331549
 21
10.9571428895
  0
LINE
  5
3C5
100
AcDbEntity
  8
0
100
AcDbLine
 62
253
  6
CONTINUOUS
 10
-11.0136219105
 20
12.7214286685
 11
-11.0136219105
 21
12.45
  0
LINE
  5
3C6
100
AcDbEntity
  8
0
100
AcDbLine
 62
253
  6
CONTINUOUS
 10
-11.0088848281
 20
10.9571428895
 11
-11.0088848281
 21
11.5452381492
  0
LINE
  5
3C7
100
AcDbEntity
  8
0
100
AcDbLine
 62
253
  6
CONTINUOUS
 10
-10.9946735827
 20
14.485714221
 11
-10.9946735827
 21
13.535714221
  0
LINE
  5
3C8
100
AcDbEntity
  8
0
100
AcDbLine
 62
253
  6
CONTINUOUS
 10
-10.9946735827
 20
12.1785713315
 11
-10.9946735827
 21
12.8571428895
  0
LINE
  5
3C9
100
AcDbEntity
  8
RACCORDO
100
AcDbLine
 62
7
  6
CONTINUOUS
 10
-10.9754493507
 20
-17.5993978025
 11
-10.9754493507
 21
17.5993978025
  0
LINE
  5
3CA
100
AcDbEntity
  8
SUPERFICI
100
AcDbLine
 62
7
  6
CONTINUOUS
 10
-10.9754493507
 20
-17.5993978025
 11
-10.9754493507
 21
17.5993978025
  0
LINE
  5
3CB
100
AcDbEntity
  8
ASSI
100
AcDbLine
 62
7
  6
CONTINUOUS
 10
-10.6
 20
-24.300030461
 11
-10.6
 21
-22.3999997358
  0
LINE
  5
3CC
100
AcDbEntity
  8
ASSI
100
AcDbLine
 62
7
  6
CONTINUOUS
 10
-10.6000000646
 20
22.3999999296
 11
-10.6
 21
24.300030461
  0
LINE
  5
3CD
100
AcDbEntity
  8
ASSI
100
AcDbLine
 62
253
  6
CONTINUOUS
 10
-10.5859750215
 20
-24.2368706193
 11
-10.5859750215
 21
-23.8443375673
  0
LINE
  5
3CE
100
AcDbEntity
  8
ASSI
100
AcDbLine
 62
253
  6
CONTINUOUS
 10
-10.5859750215
 20
23.8443375673
 11
-10.5859750215
 21
24.2368706193
  0
LINE
  5
3CF
100
AcDbEntity
  8
ASSI
100
AcDbLine
 62
253
  6
CONTINUOUS
 10
-10.3860054824
 20
-24.2368706193
 11
-10.3860054824
 21
-23.8443575944
  0
LINE
  5
3D0
100
AcDbEntity
  8
ASSI
100
AcDbLine
 62
253
  6
CONTINUOUS
 10
-10.3860054824
 20
23.8442507367
 11
-10.3860054824
 21
24.2368706193
  0
LINE
  5
3D1
100
AcDbEntity
  8
0
100
AcDbLine
 62
253
  6
CONTINUOUS
 10
-11.0538700215
 20
13.674331
 11
-11.0792144199
 21
12.221957
  0
LINE
  5
3D2
100
AcDbEntity
  8
0
100
AcDbLine
 62
253
  6
CONTINUOUS
 10
-11.0792144199
 20
11.93679
 11
-11.0538700215
 21
13.38921
  0
LINE
  5
3D3
100
AcDbEntity
  8
0
100
AcDbLine
 62
253
  6
CONTINUOUS
 10
-11.0230960735
 20
14.485714221
 11
-11.0278331549
 21
14.214285779
  0
LINE
  5
3D4
100
AcDbEntity
  8
0
100
AcDbLine
 62
253
  6
CONTINUOUS
 10
-11.0088848281
 20
12.9928571105
 11
-11.0136219105
 21
12.7214286685
  0
LINE
  5
3D5
100
AcDbEntity
  8
0
100
AcDbLine
 62
253
  6
CONTINUOUS
 10
-11.0230960735
 20
11.635714221
 11
-11.0278331549
 21
11.3642856657
  0
LINE
  5
3D6
100
AcDbEntity
  8
0
100
AcDbLine
 62
253
  6
CONTINUOUS
 10
-11.0136219105
 20
10.6857143342
 11
-11.0088848281
 21
10.9571428895
  0
LINE
  5
3D7
100
AcDbEntity
  8
0
100
AcDbLine
 62
253
  6
CONTINUOUS
 10
-11.0230960735
 20
12.9476189613
 11
-11.0278331549
 21
12.7214286685
  0
LINE
  5
3D8
100
AcDbEntity
  8
ASSI
100
AcDbLine
 62
253
  6
CONTINUOUS
 10
-10.6
 20
23.3515746082
 11
-10.5864113981
 21
23.8010362971
  0
LINE
  5
3D9
100
AcDbEntity
  8
ASSI
100
AcDbLine
 62
253
  6
CONTINUOUS
 10
-10.4017150409
 20
23.1226497308
 11
-10.3864421555
 21
23.6278214108
  0
LINE
  5
3DA
100
AcDbEntity
  8
ASSI
100
AcDbLine
 62
7
  6
CONTINUOUS
 10
-11.1
 20
-18.5
 11
-11.0896827999
 21
-18.1587444238
  0
LINE
  5
3DB
100
AcDbEntity
  8
0
100
AcDbLine
 62
253
  6
CONTINUOUS
 10
-11.0538700288
 20
11.1060472269
 11
-11.0766888044
 21
10.4198519318
  0
LINE
  5
3DC
100
AcDbEntity
  8
0
100
AcDbLine
 62
253
  6
CONTINUOUS
 10
-11.0800323448
 20
10.0915944548
 11
-11.0538700288
 21
10.8783245146
  0
LINE
  5
3DD
100
AcDbEntity
  8
0
100
AcDbLine
 62
253
  6
CONTINUOUS
 10
-11.0747818348
 20
-4.255022
 11
-11.0539975268
 21
-3.637619
  0
LINE
  5
3DE
100
AcDbEntity
  8
0
100
AcDbLine
 62
253
  6
CONTINUOUS
 10
-11.0539974046
 20
-4.290924
 11
-11.07356468
 21
-4.872178
  0
LINE
  5
3DF
100
AcDbEntity
  8
ASSI
100
AcDbLine
 62
7
  6
CONTINUOUS
 10
-11.1226506512
 20
18.0005957871
 11
-11.1
 21
18.5
  0
LINE
  5
3E0
100
AcDbEntity
  8
0
100
AcDbLine
 62
253
  6
CONTINUOUS
 10
-11.1046039433
 20
-7.276321
 11
-11.053997265
 21
-6.345182
  0
LINE
  5
3E1
100
AcDbEntity
  8
0
100
AcDbLine
 62
253
  6
CONTINUOUS
 10
-11.07356468
 20
-7.285246
 11
-11.0888426152
 21
-7.56635
  0
LINE
  5
3E2
100
AcDbEntity
  8
0
100
AcDbLine
 62
253
  6
CONTINUOUS
 10
-11.0539974046
 20
-6.925211
 11
-11.0639494847
 21
-7.108317
  0
LINE
  5
3E3
100
AcDbEntity
  8
0
100
AcDbLine
 62
253
  6
CONTINUOUS
 10
-11.0716470224
 20
-10.59258
 11
-11.1046038212
 21
-11.134148
  0
LINE
  5
3E4
100
AcDbEntity
  8
0
100
AcDbLine
 62
253
  6
CONTINUOUS
 10
-11.0873688967
 20
-11.430963
 11
-11.053997265
 21
-10.882587
  0
LINE
  5
3E5
100
AcDbEntity
  8
0
100
AcDbLine
 62
7
  6
CONTINUOUS
 10
-11.0626921693
 20
6.442361353
 11
-11.0574095221
 21
6.4476440001
  0
LINE
  5
3E6
100
AcDbEntity
  8
0
100
AcDbLine
 62
7
  6
CONTINUOUS
 10
-11.0610252723
 20
6.3600239643
 11
-11.0557426085
 21
6.3653066282
  0
LINE
  5
3E7
100
AcDbEntity
  8
0
100
AcDbLine
 62
7
  6
CONTINUOUS
 10
-11.0593583753
 20
6.2776865757
 11
-11.0540756948
 21
6.2829692562
  0
LINE
  5
3E8
100
AcDbEntity
  8
0
100
AcDbLine
 62
7
  6
CONTINUOUS
 10
-11.0576914784
 20
6.195349187
 11
-11.0538700215
 21
6.1991706439
  0
LINE
  5
3E9
100
AcDbEntity
  8
0
100
AcDbLine
 62
7
  6
CONTINUOUS
 10
-11.0560245814
 20
6.1130117984
 11
-11.0538700215
 21
6.1151663583
  0
LINE
  5
3EA
100
AcDbEntity
  8
0
100
AcDbLine
 62
7
  6
CONTINUOUS
 10
-11.0543576845
 20
6.0306744097
 11
-11.0538700215
 21
6.0311620727
  0
LINE
  5
3EB
100
AcDbEntity
  8
RACCORDO
100
AcDbLine
 62
253
  6
CONTINUOUS
 10
11.15
 20
17.6716990487
 11
10.9754493507
 21
17.5993978025
  0
LINE
  5
3EC
100
AcDbEntity
  8
SUPERFICI
100
AcDbLine
 62
253
  6
CONTINUOUS
 10
11.15
 20
17.6716990487
 11
10.9754493507
 21
17.5993978025
  0
LINE
  5
3ED
100
AcDbEntity
  8
0
100
AcDbLine
 62
253
  6
CONTINUOUS
 10
9.9557426494
 20
-12.3
 11
9.8955226754
 21
-12.3
  0
LINE
  5
3EE
100
AcDbEntity
  8
0
100
AcDbLine
 62
253
  6
CONTINUOUS
 10
9.8431574806
 20
-12.3
 11
9.7829375066
 21
-12.3
  0
LINE
  5
3EF
100
AcDbEntity
  8
0
100
AcDbLine
 62
253
  6
CONTINUOUS
 10
9.957112872
 20
-12.3
 11
9.9697067013
 21
-12.3
  0
LINE
  5
3F0
100
AcDbEntity
  8
0
100
AcDbLine
 62
253
  6
CONTINUOUS
 10
-11.1046038212
 20
-12.010985
 11
-11.053997265
 21
-12.010985
  0
LINE
  5
3F1
100
AcDbEntity
  8
0
100
AcDbLine
 62
253
  6
CONTINUOUS
 10
9.9086139741
 20
-11.6
 11
9.8300661819
 21
-11.6
  0
LINE
  5
3F2
100
AcDbEntity
  8
0
100
AcDbLine
 62
253
  6
CONTINUOUS
 10
11.0103807485
 20
-11.5809522629
 11
11.0330688769
 21
-11.5809522629
  0
LINE
  5
3F3
100
AcDbEntity
  8
0
100
AcDbLine
 62
253
  6
CONTINUOUS
 10
-11.053997265
 20
-11.430963
 11
-11.0873688967
 21
-11.430963
  0
LINE
  5
3F4
100
AcDbEntity
  8
RACCORDO
100
AcDbLine
 62
253
  6
CONTINUOUS
 10
10.9754493507
 20
-17.5993978025
 11
11.15
 21
-17.6716990487
  0
LINE
  5
3F5
100
AcDbEntity
  8
SUPERFICI
100
AcDbLine
 62
253
  6
CONTINUOUS
 10
10.9754493507
 20
-17.5993978025
 11
11.15
 21
-17.6716990487
  0
LINE
  5
3F6
100
AcDbEntity
  8
0
100
AcDbLine
 62
253
  6
CONTINUOUS
 10
-11.0041477466
 20
11.5
 11
-11.0136219105
 21
11.635714221
  0
LINE
  5
3F7
100
AcDbEntity
  8
ASSI
100
AcDbLine
 62
7
  6
CONTINUOUS
 10
-9.2868325431
 20
-23.5581814706
 11
-9.3
 21
-23.1226497308
  0
LINE
  5
3F8
100
AcDbEntity
  8
0
100
AcDbLine
 62
253
  6
CONTINUOUS
 10
-9.8371828615
 20
1.0428571105
 11
-9.8555892253
 21
1.8571428329
  0
LINE
  5
3F9
100
AcDbEntity
  8
0
100
AcDbLine
 62
253
  6
CONTINUOUS
 10
-9.8555892253
 20
0.6357143342
 11
-9.8529597457
 21
0.5
  0
LINE
  5
3FA
100
AcDbEntity
  8
0
100
AcDbLine
 62
253
  6
CONTINUOUS
 10
-9.8398123411
 20
2.4
 11
-9.8371828615
 21
2.2642857082
  0
LINE
  5
3FB
100
AcDbEntity
  8
RACCORDO
100
AcDbLine
 62
7
  6
CONTINUOUS
 10
-10.05
 20
5.1001523048
 11
-10.05
 21
-18.5001523048
  0
LINE
  5
3FC
100
AcDbEntity
  8
SUPERFICI
100
AcDbLine
 62
7
  6
CONTINUOUS
 10
-10.05
 20
5.1001523048
 11
-10.05
 21
-18.5001523048
  0
LINE
  5
3FD
100
AcDbEntity
  8
0
100
AcDbLine
 62
253
  6
CONTINUOUS
 10
-9.9034223395
 20
0.5
 11
-9.9034223395
 21
2.4
  0
LINE
  5
3FE
100
AcDbEntity
  8
0
100
AcDbLine
 62
253
  6
CONTINUOUS
 10
-9.8555892253
 20
1.8571428329
 11
-9.8555892253
 21
2.1285714164
  0
LINE
  5
3FF
100
AcDbEntity
  8
0
100
AcDbLine
 62
253
  6
CONTINUOUS
 10
-9.8371828615
 20
0.7714285552
 11
-9.8371828615
 21
1.0428571105
  0
LINE
  5
400
100
AcDbEntity
  8
0
100
AcDbLine
 62
253
  6
CONTINUOUS
 10
-9.8161470149
 20
0.5
 11
-9.8161470149
 21
2.4
  0
LINE
  5
401
100
AcDbEntity
  8
0
100
AcDbLine
 62
253
  6
CONTINUOUS
 10
-9.7525370165
 20
0.5
 11
-9.7525370165
 21
2.4
  0
LINE
  5
402
100
AcDbEntity
  8
0
100
AcDbLine
 62
253
  6
CONTINUOUS
 10
-9.7183537664
 20
2.4
 11
-9.7183537664
 21
0.5
  0
LINE
  5
403
100
AcDbEntity
  8
RACCORDO
100
AcDbLine
 62
253
  6
CONTINUOUS
 10
-9.6726659647
 20
4.7228182695
 11
-9.6726659647
 21
-1.0053341455
  0
LINE
  5
404
100
AcDbEntity
  8
SUPERFICI
100
AcDbLine
 62
253
  6
CONTINUOUS
 10
-9.6726659647
 20
4.7228182695
 11
-9.6726659647
 21
-1.0053341455
  0
LINE
  5
405
100
AcDbEntity
  8
RACCORDO
100
AcDbLine
 62
253
  6
CONTINUOUS
 10
-9.6726659647
 20
-5.1946658545
 11
-9.6726659647
 21
-18.1228182695
  0
LINE
  5
406
100
AcDbEntity
  8
SUPERFICI
100
AcDbLine
 62
253
  6
CONTINUOUS
 10
-9.6726659647
 20
-5.1946658545
 11
-9.6726659647
 21
-18.1228182695
  0
LINE
  5
407
100
AcDbEntity
  8
ASSI
100
AcDbLine
 62
7
  6
CONTINUOUS
 10
-9.6369070392
 20
-20.8956365661
 11
-9.6369070392
 21
-20.0130929608
  0
LINE
  5
408
100
AcDbEntity
  8
ASSI
100
AcDbLine
 62
7
  6
CONTINUOUS
 10
-9.6369070392
 20
20.0130929608
 11
-9.6369070392
 21
20.8956365661
  0
LINE
  5
409
100
AcDbEntity
  8
ASSI
100
AcDbLine
 62
7
  6
CONTINUOUS
 10
-9.3
 20
-23.1226497308
 11
-9.3
 21
-22.4
  0
LINE
  5
40A
100
AcDbEntity
  8
ASSI
100
AcDbLine
 62
7
  6
CONTINUOUS
 10
-9.3
 20
22.4
 11
-9.3
 21
23.1226497308
  0
LINE
  5
40B
100
AcDbEntity
  8
ASSI
100
AcDbLine
 62
253
  6
CONTINUOUS
 10
-9.2868325431
 20
-23.5581814706
 11
-9.2868325431
 21
-22.3868325431
  0
LINE
  5
40C
100
AcDbEntity
  8
ASSI
100
AcDbLine
 62
253
  6
CONTINUOUS
 10
-9.2868325431
 20
22.3868325431
 11
-9.2868325431
 21
23.5581814706
  0
LINE
  5
40D
100
AcDbEntity
  8
ASSI
100
AcDbLine
 62
253
  6
CONTINUOUS
 10
-9.0368706193
 20
-23.8443375673
 11
-9.0368706193
 21
-22.3825449351
  0
LINE
  5
40E
100
AcDbEntity
  8
ASSI
100
AcDbLine
 62
253
  6
CONTINUOUS
 10
-9.0368706193
 20
22.3825449351
 11
-9.0368706193
 21
23.8443375673
  0
LINE
  5
40F
100
AcDbEntity
  8
ASSI
100
AcDbLine
 62
253
  6
CONTINUOUS
 10
-8.7631293807
 20
-23.8443375673
 11
-8.7631293807
 21
-22.3825449351
  0
LINE
  5
410
100
AcDbEntity
  8
ASSI
100
AcDbLine
 62
253
  6
CONTINUOUS
 10
-8.7631293807
 20
22.3825449351
 11
-8.7631293807
 21
23.8443375673
  0
LINE
  5
411
100
AcDbEntity
  8
RACCORDO
100
AcDbLine
 62
253
  6
CONTINUOUS
 10
-8.6728182695
 20
-4.9353218335
 11
-8.6728182695
 21
-19.1226659647
  0
LINE
  5
412
100
AcDbEntity
  8
SUPERFICI
100
AcDbLine
 62
253
  6
CONTINUOUS
 10
-8.6728182695
 20
-4.9353218335
 11
-8.6728182695
 21
-19.1226659647
  0
LINE
  5
413
100
AcDbEntity
  8
RACCORDO
100
AcDbLine
 62
253
  6
CONTINUOUS
 10
-8.6728182695
 20
-1.2646781665
 11
-8.6728182695
 21
5.7226659647
  0
LINE
  5
414
100
AcDbEntity
  8
SUPERFICI
100
AcDbLine
 62
253
  6
CONTINUOUS
 10
-8.6728182695
 20
-1.2646781665
 11
-8.6728182695
 21
5.7226659647
  0
LINE
  5
415
100
AcDbEntity
  8
ASSI
100
AcDbLine
 62
253
  6
CONTINUOUS
 10
-8.5131674569
 20
-23.5581814706
 11
-8.5131674569
 21
-22.3868325431
  0
LINE
  5
416
100
AcDbEntity
  8
ASSI
100
AcDbLine
 62
253
  6
CONTINUOUS
 10
-8.5131674569
 20
22.3868325431
 11
-8.5131674569
 21
23.5581814706
  0
LINE
  5
417
100
AcDbEntity
  8
ASSI
100
AcDbLine
 62
7
  6
CONTINUOUS
 10
-8.5
 20
-23.1226497308
 11
-8.5
 21
-22.4
  0
LINE
  5
418
100
AcDbEntity
  8
ASSI
100
AcDbLine
 62
7
  6
CONTINUOUS
 10
-8.5
 20
22.4
 11
-8.5
 21
23.1226497308
  0
LINE
  5
419
100
AcDbEntity
  8
0
100
AcDbLine
 62
7
  6
CONTINUOUS
 10
-8.4
 20
-4.8622176149
 11
-8.4
 21
-1.3377823851
  0
LINE
  5
41A
100
AcDbEntity
  8
SUPERFICI
100
AcDbLine
 62
7
  6
CONTINUOUS
 10
-8.4
 20
-4.8622176149
 11
-8.4
 21
-1.3377823851
  0
LINE
  5
41B
100
AcDbEntity
  8
ASSI
100
AcDbLine
 62
7
  6
CONTINUOUS
 10
-8.2325449351
 20
21.4051134101
 11
-8.2325449351
 21
20.8956365661
  0
LINE
  5
41C
100
AcDbEntity
  8
ASSI
100
AcDbLine
 62
7
  6
CONTINUOUS
 10
-8.2325449351
 20
-20.8956365661
 11
-8.2325449351
 21
-21.4051134101
  0
LINE
  5
41D
100
AcDbEntity
  8
0
100
AcDbLine
 62
253
  6
CONTINUOUS
 10
-9.8555892253
 20
2.1285714164
 11
-9.8503302661
 21
2.4
  0
LINE
  5
41E
100
AcDbEntity
  8
0
100
AcDbLine
 62
253
  6
CONTINUOUS
 10
-9.8424418229
 20
0.5
 11
-9.8371828615
 21
0.7714285552
  0
LINE
  5
41F
100
AcDbEntity
  8
0
100
AcDbLine
 62
253
  6
CONTINUOUS
 10
-9.7420190937
 20
1.0428571105
 11
-9.7525370165
 21
0.5
  0
LINE
  5
420
100
AcDbEntity
  8
ASSI
100
AcDbLine
 62
7
  6
CONTINUOUS
 10
-9.3
 20
23.1226497308
 11
-9.2868325431
 21
23.5581814706
  0
LINE
  5
421
100
AcDbEntity
  8
0
100
AcDbLine
 62
253
  6
CONTINUOUS
 10
-11.069758471
 20
-14.778839
 11
-11.1046038212
 21
-15.419971
  0
LINE
  5
422
100
AcDbEntity
  8
0
100
AcDbLine
 62
253
  6
CONTINUOUS
 10
-11.1046038212
 20
-16.0
 11
-11.0539971429
 21
-15.068868
  0
LINE
  5
423
100
AcDbEntity
  8
RACCORDO
100
AcDbLine
 62
7
  6
CONTINUOUS
 10
-6.5810660785
 20
5.7226659647
 11
-6.4127618536
 21
6.0593000519
  0
LINE
  5
424
100
AcDbEntity
  8
SUPERFICI
100
AcDbLine
 62
7
  6
CONTINUOUS
 10
-6.5810660785
 20
5.7226659647
 11
-6.4127618536
 21
6.0593000519
  0
LINE
  5
425
100
AcDbEntity
  8
ASSI
100
AcDbLine
 62
253
  6
CONTINUOUS
 10
10.6
 20
22.3999999999
 11
10.5826210875
 21
22.3825449351
  0
LINE
  5
426
100
AcDbEntity
  8
DRAFT
100
AcDbLine
 62
7
  6
CONTINUOUS
 10
5.75
 20
19.9
 11
5.6609791689
 21
19.8109791689
  0
LINE
  5
427
100
AcDbEntity
  8
SUPERFICI
100
AcDbLine
 62
7
  6
CONTINUOUS
 10
5.75
 20
19.9
 11
5.6609791689
 21
19.8109791689
  0
LINE
  5
428
100
AcDbEntity
  8
ASSI
100
AcDbLine
 62
253
  6
CONTINUOUS
 10
10.400030461
 20
24.5
 11
10.3868630041
 21
24.4868325431
  0
LINE
  5
429
100
AcDbEntity
  8
DRAFT
100
AcDbLine
 62
7
  6
CONTINUOUS
 10
5.75
 20
19.7
 11
5.6609791689
 21
19.6109791689
  0
LINE
  5
42A
100
AcDbEntity
  8
SUPERFICI
100
AcDbLine
 62
7
  6
CONTINUOUS
 10
5.75
 20
19.7
 11
5.6609791689
 21
19.6109791689
  0
LINE
  5
42B
100
AcDbEntity
  8
ASSI
100
AcDbLine
 62
253
  6
CONTINUOUS
 10
10.6
 20
24.300030461
 11
10.5868325431
 21
24.286863004
  0
LINE
  5
42C
100
AcDbEntity
  8
DRAFT
100
AcDbLine
 62
7
  6
CONTINUOUS
 10
7.4855298181
 20
20.85
 11
7.4
 21
20.7644701819
  0
LINE
  5
42D
100
AcDbEntity
  8
SUPERFICI
100
AcDbLine
 62
7
  6
CONTINUOUS
 10
7.4855298181
 20
20.85
 11
7.4
 21
20.7644701819
  0
LINE
  5
42E
100
AcDbEntity
  8
DRAFT
100
AcDbLine
 62
7
  6
CONTINUOUS
 10
6.5
 20
19.7
 11
6.5872686779
 21
19.7872686779
  0
LINE
  5
42F
100
AcDbEntity
  8
ASSI
100
AcDbLine
 62
7
  6
CONTINUOUS
 10
9.3
 20
22.4
 11
9.2868325431
 21
22.3868325431
  0
LINE
  5
430
100
AcDbEntity
  8
0
100
AcDbLine
 62
253
  6
CONTINUOUS
 10
-11.0873688967
 20
-9.754205
 11
-11.053997265
 21
-9.754197
  0
LINE
  5
431
100
AcDbEntity
  8
0
100
AcDbLine
 62
253
  6
CONTINUOUS
 10
11.0103807485
 20
-9.9404761314
 11
11.0330688769
 21
-9.9404761314
  0
LINE
  5
432
100
AcDbEntity
  8
0
100
AcDbLine
 62
253
  6
CONTINUOUS
 10
11.0103807485
 20
-9.2904761314
 11
11.0330688769
 21
-9.2904761314
  0
LINE
  5
433
100
AcDbEntity
  8
0
100
AcDbLine
 62
253
  6
CONTINUOUS
 10
-11.053997265
 20
-9.174176
 11
-11.1046038212
 21
-9.174176
  0
LINE
  5
434
100
AcDbEntity
  8
0
100
AcDbLine
 62
253
  6
CONTINUOUS
 10
11.0103807485
 20
-8.7023806572
 11
11.0330688769
 21
-8.7023806572
  0
LINE
  5
435
100
AcDbEntity
  8
0
100
AcDbLine
 62
7
  6
CONTINUOUS
 10
-8.4
 20
-4.8277217249
 11
-8.5446758185
 21
-4.7218131513
  0
LINE
  5
436
100
AcDbEntity
  8
SUPERFICI
100
AcDbLine
 62
7
  6
CONTINUOUS
 10
-8.4
 20
-4.8277217249
 11
-8.5446758185
 21
-4.7218131513
  0
LINE
  5
437
100
AcDbEntity
  8
DRAFT
100
AcDbLine
 62
7
  6
CONTINUOUS
 10
5.6609791689
 20
-19.8109791689
 11
5.75
 21
-19.9
  0
LINE
  5
438
100
AcDbEntity
  8
SUPERFICI
100
AcDbLine
 62
7
  6
CONTINUOUS
 10
5.6609791689
 20
-19.8109791689
 11
5.75
 21
-19.9
  0
LINE
  5
439
100
AcDbEntity
  8
ASSI
100
AcDbLine
 62
253
  6
CONTINUOUS
 10
10.3868630041
 20
-24.4868325431
 11
10.400030461
 21
-24.5
  0
LINE
  5
43A
100
AcDbEntity
  8
DRAFT
100
AcDbLine
 62
7
  6
CONTINUOUS
 10
5.75
 20
-19.7
 11
5.6609791689
 21
-19.6109791689
  0
LINE
  5
43B
100
AcDbEntity
  8
SUPERFICI
100
AcDbLine
 62
7
  6
CONTINUOUS
 10
5.75
 20
-19.7
 11
5.6609791689
 21
-19.6109791689
  0
LINE
  5
43C
100
AcDbEntity
  8
ASSI
100
AcDbLine
 62
253
  6
CONTINUOUS
 10
10.5868325431
 20
-24.2868630041
 11
10.6
 21
-24.300030461
  0
LINE
  5
43D
100
AcDbEntity
  8
DRAFT
100
AcDbLine
 62
7
  6
CONTINUOUS
 10
7.4855298181
 20
-20.85
 11
7.4
 21
-20.7644701819
  0
LINE
  5
43E
100
AcDbEntity
  8
SUPERFICI
100
AcDbLine
 62
7
  6
CONTINUOUS
 10
7.4855298181
 20
-20.85
 11
7.4
 21
-20.7644701819
  0
LINE
  5
43F
100
AcDbEntity
  8
DRAFT
100
AcDbLine
 62
7
  6
CONTINUOUS
 10
6.5000002033
 20
-19.7000002033
 11
6.5872686779
 21
-19.7872686779
  0
LINE
  5
440
100
AcDbEntity
  8
ASSI
100
AcDbLine
 62
7
  6
CONTINUOUS
 10
9.3
 20
-22.4
 11
9.2868325431
 21
-22.3868325431
  0
LINE
  5
441
100
AcDbEntity
  8
ASSI
100
AcDbLine
 62
253
  6
CONTINUOUS
 10
10.5826210875
 20
-22.3825449351
 11
10.6000000646
 21
-22.3999999354
  0
LINE
  5
442
100
AcDbEntity
  8
ASSI
100
AcDbLine
 62
7
  6
CONTINUOUS
 10
-8.5
 20
23.1226497308
 11
-8.5131674569
 21
23.5581814706
  0
LINE
  5
443
100
AcDbEntity
  8
ASSI
100
AcDbLine
 62
253
  6
CONTINUOUS
 10
-7.3982849591
 20
23.1226497308
 11
-7.4135581409
 21
23.6278312163
  0
LINE
  5
444
100
AcDbEntity
  8
ASSI
100
AcDbLine
 62
253
  6
CONTINUOUS
 10
-7.2
 20
23.3515746082
 11
-7.2135886019
 21
23.8010362971
  0
LINE
  5
445
100
AcDbEntity
  8
ASSI
100
AcDbLine
 62
7
  6
CONTINUOUS
 10
-8.0492667533
 20
-21.2165694902
 11
-8.0492667533
 21
-20.9872686779
  0
LINE
  5
446
100
AcDbEntity
  8
ASSI
100
AcDbLine
 62
7
  6
CONTINUOUS
 10
-8.0492667533
 20
20.9872686779
 11
-8.0492667533
 21
21.2165694902
  0
LINE
  5
447
100
AcDbEntity
  8
DRAFT
100
AcDbLine
 62
7
  6
CONTINUOUS
 10
-7.4890208311
 20
-20.6754493507
 11
-7.4890208311
 21
-19.6109791689
  0
LINE
  5
448
100
AcDbEntity
  8
SUPERFICI
100
AcDbLine
 62
7
  6
CONTINUOUS
 10
-7.4890208311
 20
-20.6754493507
 11
-7.4890208311
 21
-19.6109791689
  0
LINE
  5
449
100
AcDbEntity
  8
DRAFT
100
AcDbLine
 62
7
  6
CONTINUOUS
 10
-7.4890208311
 20
19.6109791689
 11
-7.4890208311
 21
20.6754493507
  0
LINE
  5
44A
100
AcDbEntity
  8
SUPERFICI
100
AcDbLine
 62
7
  6
CONTINUOUS
 10
-7.4890208311
 20
19.6109791689
 11
-7.4890208311
 21
20.6754493507
  0
LINE
  5
44B
100
AcDbEntity
  8
ASSI
100
AcDbLine
 62
253
  6
CONTINUOUS
 10
-7.4139945176
 20
-24.2368706193
 11
-7.4139945176
 21
-23.8443375673
  0
LINE
  5
44C
100
AcDbEntity
  8
ASSI
100
AcDbLine
 62
253
  6
CONTINUOUS
 10
-7.4139945176
 20
23.844335488
 11
-7.4139945176
 21
24.2368706193
  0
LINE
  5
44D
100
AcDbEntity
  8
DRAFT
100
AcDbLine
 62
7
  6
CONTINUOUS
 10
-7.4
 20
20.7644701819
 11
-7.4
 21
19.7
  0
LINE
  5
44E
100
AcDbEntity
  8
SUPERFICI
100
AcDbLine
 62
7
  6
CONTINUOUS
 10
-7.4
 20
20.7644701819
 11
-7.4
 21
19.7
  0
LINE
  5
44F
100
AcDbEntity
  8
DRAFT
100
AcDbLine
 62
7
  6
CONTINUOUS
 10
-7.4
 20
-19.7
 11
-7.4
 21
-20.7644701819
  0
LINE
  5
450
100
AcDbEntity
  8
SUPERFICI
100
AcDbLine
 62
7
  6
CONTINUOUS
 10
-7.4
 20
-19.7
 11
-7.4
 21
-20.7644701819
  0
LINE
  5
451
100
AcDbEntity
  8
ASSI
100
AcDbLine
 62
253
  6
CONTINUOUS
 10
-7.2140249785
 20
-24.2368706193
 11
-7.2140249785
 21
-23.8443375673
  0
LINE
  5
452
100
AcDbEntity
  8
ASSI
100
AcDbLine
 62
253
  6
CONTINUOUS
 10
-7.2140249785
 20
23.8443375673
 11
-7.2140249785
 21
24.2368706193
  0
LINE
  5
453
100
AcDbEntity
  8
ASSI
100
AcDbLine
 62
7
  6
CONTINUOUS
 10
-7.2127313221
 20
-20.9872686779
 11
-7.2127313221
 21
-19.7872686779
  0
LINE
  5
454
100
AcDbEntity
  8
ASSI
100
AcDbLine
 62
7
  6
CONTINUOUS
 10
-7.2127313221
 20
19.7872686779
 11
-7.2127313221
 21
20.9872686779
  0
LINE
  5
455
100
AcDbEntity
  8
ASSI
100
AcDbLine
 62
7
  6
CONTINUOUS
 10
-7.2
 20
-22.4
 11
-7.2
 21
-24.300030461
  0
LINE
  5
456
100
AcDbEntity
  8
ASSI
100
AcDbLine
 62
7
  6
CONTINUOUS
 10
-7.2
 20
22.4
 11
-7.2
 21
24.300030461
  0
LINE
  5
457
100
AcDbEntity
  8
ASSI
100
AcDbLine
 62
7
  6
CONTINUOUS
 10
-6.5872686779
 20
-21.0745506493
 11
-6.5872686779
 21
-19.7872686779
  0
LINE
  5
458
100
AcDbEntity
  8
ASSI
100
AcDbLine
 62
7
  6
CONTINUOUS
 10
-6.5872686779
 20
19.7872686779
 11
-6.5872686779
 21
21.0745506493
  0
LINE
  5
459
100
AcDbEntity
  8
ASSI
100
AcDbLine
 62
7
  6
CONTINUOUS
 10
-8.5131674569
 20
-23.5581814706
 11
-8.5
 21
-23.1226497308
  0
LINE
  5
45A
100
AcDbEntity
  8
ASSI
100
AcDbLine
 62
253
  6
CONTINUOUS
 10
-7.413558172
 20
-23.6278322442
 11
-7.3982849591
 21
-23.1226497308
  0
LINE
  5
45B
100
AcDbEntity
  8
ASSI
100
AcDbLine
 62
253
  6
CONTINUOUS
 10
-7.2135886019
 20
-23.8010362971
 11
-7.2
 21
-23.3515746082
  0
LINE
  5
45C
100
AcDbEntity
  8
SMUSSO
100
AcDbLine
 62
7
  6
CONTINUOUS
 10
-6.0122176149
 20
4.7053632162
 11
-5.8352304926
 21
5.0593644209
  0
LINE
  5
45D
100
AcDbEntity
  8
SUPERFICI
100
AcDbLine
 62
7
  6
CONTINUOUS
 10
-6.0122176149
 20
4.7053632162
 11
-5.8352304926
 21
5.0593644209
  0
LINE
  5
45E
100
AcDbEntity
  8
ASSI
100
AcDbLine
 62
253
  6
CONTINUOUS
 10
11.1
 20
21.9000761524
 11
11.0825449351
 21
21.8826210875
  0
LINE
  5
45F
100
AcDbEntity
  8
DRAFT
100
AcDbLine
 62
7
  6
CONTINUOUS
 10
-6.0
 20
4.3
 11
-5.8352304926
 21
4.4647695074
  0
LINE
  5
460
100
AcDbEntity
  8
SUPERFICI
100
AcDbLine
 62
7
  6
CONTINUOUS
 10
-6.0
 20
4.3
 11
-5.8352304926
 21
4.4647695074
  0
LINE
  5
461
100
AcDbEntity
  8
RACCORDO
100
AcDbLine
 62
7
  6
CONTINUOUS
 10
9.6726659647
 20
-5.1946658545
 11
10.0139462101
 21
-5.1154879757
  0
LINE
  5
462
100
AcDbEntity
  8
SUPERFICI
100
AcDbLine
 62
7
  6
CONTINUOUS
 10
9.6726659647
 20
-5.1946658545
 11
10.0139462101
 21
-5.1154879757
  0
LINE
  5
463
100
AcDbEntity
  8
0
100
AcDbLine
 62
253
  6
CONTINUOUS
 10
9.8300661819
 20
-8.0
 11
9.8475212468
 21
-8.0
  0
LINE
  5
464
100
AcDbEntity
  8
0
100
AcDbLine
 62
253
  6
CONTINUOUS
 10
9.8911589092
 20
-8.0
 11
9.9086139741
 21
-8.0
  0
LINE
  5
465
100
AcDbEntity
  8
0
100
AcDbLine
 62
253
  6
CONTINUOUS
 10
9.8475212468
 20
-7.0
 11
9.8911589092
 21
-7.0
  0
LINE
  5
466
100
AcDbEntity
  8
0
100
AcDbLine
 62
253
  6
CONTINUOUS
 10
11.0103807485
 20
-6.5047619343
 11
11.0330688769
 21
-6.5047619343
  0
LINE
  5
467
100
AcDbEntity
  8
RACCORDO
100
AcDbLine
 62
7
  6
CONTINUOUS
 10
-9.6726659647
 20
-5.1946658545
 11
-10.0139462101
 21
-5.1154879757
  0
LINE
  5
468
100
AcDbEntity
  8
SUPERFICI
100
AcDbLine
 62
7
  6
CONTINUOUS
 10
-9.6726659647
 20
-5.1946658545
 11
-10.0139462101
 21
-5.1154879757
  0
LINE
  5
469
100
AcDbEntity
  8
ASSI
100
AcDbLine
 62
253
  6
CONTINUOUS
 10
11.0825449351
 20
-21.8826210875
 11
11.1
 21
-21.9000761524
  0
LINE
  5
46A
100
AcDbEntity
  8
RACCORDO
100
AcDbLine
 62
253
  6
CONTINUOUS
 10
9.0501523048
 20
-19.5
 11
8.6728182695
 21
-19.1226659647
  0
LINE
  5
46B
100
AcDbEntity
  8
SUPERFICI
100
AcDbLine
 62
253
  6
CONTINUOUS
 10
9.0501523048
 20
-19.5
 11
8.6728182695
 21
-19.1226659647
  0
LINE
  5
46C
100
AcDbEntity
  8
ASSI
100
AcDbLine
 62
253
  6
CONTINUOUS
 10
-4.3520586235
 20
-22.3020586235
 11
-4.351752949
 21
-23.6517910252
  0
LINE
  5
46D
100
AcDbEntity
  8
SMUSSO
100
AcDbLine
 62
7
  6
CONTINUOUS
 10
-6.0122176149
 20
4.7053632162
 11
-6.0122176149
 21
4.3
  0
LINE
  5
46E
100
AcDbEntity
  8
SUPERFICI
100
AcDbLine
 62
7
  6
CONTINUOUS
 10
-6.0122176149
 20
4.7053632162
 11
-6.0122176149
 21
4.3
  0
LINE
  5
46F
100
AcDbEntity
  8
SMUSSO
100
AcDbLine
 62
253
  6
CONTINUOUS
 10
-5.8352304926
 20
4.4647695074
 11
-5.8352304926
 21
5.0593644209
  0
LINE
  5
470
100
AcDbEntity
  8
SUPERFICI
100
AcDbLine
 62
253
  6
CONTINUOUS
 10
-5.8352304926
 20
4.4647695074
 11
-5.8352304926
 21
5.0593644209
  0
LINE
  5
471
100
AcDbEntity
  8
DRAFT
100
AcDbLine
 62
7
  6
CONTINUOUS
 10
-5.75
 20
-19.7
 11
-5.75
 21
-19.9
  0
LINE
  5
472
100
AcDbEntity
  8
SUPERFICI
100
AcDbLine
 62
7
  6
CONTINUOUS
 10
-5.75
 20
-19.7
 11
-5.75
 21
-19.9
  0
LINE
  5
473
100
AcDbEntity
  8
DRAFT
100
AcDbLine
 62
7
  6
CONTINUOUS
 10
-5.75
 20
19.7
 11
-5.75
 21
19.9
  0
LINE
  5
474
100
AcDbEntity
  8
SUPERFICI
100
AcDbLine
 62
7
  6
CONTINUOUS
 10
-5.75
 20
19.7
 11
-5.75
 21
19.9
  0
LINE
  5
475
100
AcDbEntity
  8
DRAFT
100
AcDbLine
 62
7
  6
CONTINUOUS
 10
-5.6609791689
 20
19.8109791689
 11
-5.6609791689
 21
19.6109791689
  0
LINE
  5
476
100
AcDbEntity
  8
SUPERFICI
100
AcDbLine
 62
7
  6
CONTINUOUS
 10
-5.6609791689
 20
19.8109791689
 11
-5.6609791689
 21
19.6109791689
  0
LINE
  5
477
100
AcDbEntity
  8
DRAFT
100
AcDbLine
 62
7
  6
CONTINUOUS
 10
-5.6609791689
 20
-19.8109791689
 11
-5.6609791689
 21
-19.6109791689
  0
LINE
  5
478
100
AcDbEntity
  8
SUPERFICI
100
AcDbLine
 62
7
  6
CONTINUOUS
 10
-5.6609791689
 20
-19.8109791689
 11
-5.6609791689
 21
-19.6109791689
  0
LINE
  5
479
100
AcDbEntity
  8
ASSI
100
AcDbLine
 62
7
  6
CONTINUOUS
 10
-5.1254493507
 20
21.0745506493
 11
-5.1254493507
 21
20.0872686779
  0
LINE
  5
47A
100
AcDbEntity
  8
ASSI
100
AcDbLine
 62
7
  6
CONTINUOUS
 10
-5.1254493507
 20
-20.0872686779
 11
-5.1254493507
 21
-21.0745506493
  0
LINE
  5
47B
100
AcDbEntity
  8
ASSI
100
AcDbLine
 62
7
  6
CONTINUOUS
 10
-4.45
 20
23.7500380762
 11
-4.45
 21
23.4179449472
  0
LINE
  5
47C
100
AcDbEntity
  8
ASSI
100
AcDbLine
 62
7
  6
CONTINUOUS
 10
-4.45
 20
22.9820550528
 11
-4.45
 21
22.4
  0
LINE
  5
47D
100
AcDbEntity
  8
ASSI
100
AcDbLine
 62
7
  6
CONTINUOUS
 10
-4.45
 20
-22.4
 11
-4.45
 21
-22.9820550528
  0
LINE
  5
47E
100
AcDbEntity
  8
ASSI
100
AcDbLine
 62
7
  6
CONTINUOUS
 10
-4.45
 20
-23.4179449472
 11
-4.45
 21
-23.7500380762
  0
LINE
  5
47F
100
AcDbEntity
  8
ASSI
100
AcDbLine
 62
7
  6
CONTINUOUS
 10
-4.3539971429
 20
-23.5393800954
 11
-4.3539971429
 21
-22.8606199046
  0
LINE
  5
480
100
AcDbEntity
  8
ASSI
100
AcDbLine
 62
7
  6
CONTINUOUS
 10
-4.3539971429
 20
22.8606199046
 11
-4.3539971429
 21
23.5393800954
  0
LINE
  5
481
100
AcDbEntity
  8
ASSI
100
AcDbLine
 62
253
  6
CONTINUOUS
 10
-4.3520586235
 20
22.3020586235
 11
-4.351752949
 21
23.6517910252
  0
LINE
  5
482
100
AcDbEntity
  8
RACCORDO
100
AcDbLine
 62
7
  6
CONTINUOUS
 10
-1.9777049703
 20
4.7228182695
 11
-1.9877823851
 21
4.7053632162
  0
LINE
  5
483
100
AcDbEntity
  8
SUPERFICI
100
AcDbLine
 62
7
  6
CONTINUOUS
 10
-1.9777049703
 20
4.7228182695
 11
-1.9877823851
 21
4.7053632162
  0
LINE
  5
484
100
AcDbEntity
  8
SMUSSO
100
AcDbLine
 62
253
  6
CONTINUOUS
 10
-1.5872381464
 20
6.0593000519
 11
-2.1647695074
 21
5.0593644209
  0
LINE
  5
485
100
AcDbEntity
  8
SUPERFICI
100
AcDbLine
 62
253
  6
CONTINUOUS
 10
-1.5872381464
 20
6.0593000519
 11
-2.1647695074
 21
5.0593644209
  0
LINE
  5
486
100
AcDbEntity
  8
0
100
AcDbLine
 62
253
  6
CONTINUOUS
 10
-11.0952417694
 20
-5.386478
 11
-11.082926976
 21
-5.386471
  0
LINE
  5
487
100
AcDbEntity
  8
0
100
AcDbLine
 62
253
  6
CONTINUOUS
 10
11.0298277159
 20
-5.9785712957
 11
11.0136219098
 21
-5.9785712957
  0
LINE
  5
488
100
AcDbEntity
  8
0
100
AcDbLine
 62
253
  6
CONTINUOUS
 10
-11.0539974046
 20
-5.958503
 11
-11.1046039433
 21
-5.958503
  0
LINE
  5
489
100
AcDbEntity
  8
0
100
AcDbLine
 62
253
  6
CONTINUOUS
 10
11.0103807485
 20
-5.3285714507
 11
11.0330688769
 21
-5.3285714507
  0
LINE
  5
48A
100
AcDbEntity
  8
0
100
AcDbLine
 62
253
  6
CONTINUOUS
 10
-11.0735648021
 20
-5.378409
 11
-11.0539974046
 21
-5.378474
  0
LINE
  5
48B
100
AcDbEntity
  8
RACCORDO
100
AcDbLine
 62
253
  6
CONTINUOUS
 10
10.05
 20
-18.5001523048
 11
9.6726659647
 21
-18.1228182695
  0
LINE
  5
48C
100
AcDbEntity
  8
SUPERFICI
100
AcDbLine
 62
253
  6
CONTINUOUS
 10
10.05
 20
-18.5001523048
 11
9.6726659647
 21
-18.1228182695
  0
LINE
  5
48D
100
AcDbEntity
  8
ASSI
100
AcDbLine
 62
253
  6
CONTINUOUS
 10
-3.8478541563
 20
23.9835887109
 11
-3.8457122528
 21
23.901792714
  0
LINE
  5
48E
100
AcDbEntity
  8
ASSI
100
AcDbLine
 62
7
  6
CONTINUOUS
 10
-3.5011658022
 20
20.04452019
 11
-3.5
 21
20.0
  0
LINE
  5
48F
100
AcDbEntity
  8
ASSI
100
AcDbLine
 62
7
  6
CONTINUOUS
 10
-3.5598020131
 20
22.283746742
 11
-3.5979349151
 21
23.7399835196
  0
LINE
  5
490
100
AcDbEntity
  8
ASSI
100
AcDbLine
 62
253
  6
CONTINUOUS
 10
-3.3073093295
 20
21.2165694902
 11
-3.300038082
 21
20.8
  0
LINE
  5
491
100
AcDbEntity
  8
ASSI
100
AcDbLine
 62
253
  6
CONTINUOUS
 10
-3.3213766279
 20
22.2724464007
 11
-3.3203986343
 21
22.2164171854
  0
LINE
  5
492
100
AcDbEntity
  8
ASSI
100
AcDbLine
 62
7
  6
CONTINUOUS
 10
-3.0713521947
 20
22.0232664162
 11
-3.051588281
 21
20.8909925586
  0
LINE
  5
493
100
AcDbEntity
  8
RACCORDO
100
AcDbLine
 62
7
  6
CONTINUOUS
 10
-3.4
 20
-20.0483350603
 11
-3.4
 21
-19.9
  0
LINE
  5
494
100
AcDbEntity
  8
SUPERFICI
100
AcDbLine
 62
7
  6
CONTINUOUS
 10
-3.4
 20
-20.0483350603
 11
-3.4
 21
-19.8979303954
  0
LINE
  5
495
100
AcDbEntity
  8
RACCORDO
100
AcDbLine
 62
7
  6
CONTINUOUS
 10
-3.4
 20
19.9
 11
-3.4
 21
20.0483350603
  0
LINE
  5
496
100
AcDbEntity
  8
SUPERFICI
100
AcDbLine
 62
7
  6
CONTINUOUS
 10
-3.4
 20
19.8979303954
 11
-3.4
 21
20.0483350603
  0
LINE
  5
497
100
AcDbEntity
  8
RACCORDO
100
AcDbLine
 62
253
  6
CONTINUOUS
 10
-2.4
 20
-20.05319349
 11
-2.4
 21
-19.8843869511
  0
LINE
  5
498
100
AcDbEntity
  8
SUPERFICI
100
AcDbLine
 62
253
  6
CONTINUOUS
 10
-2.4
 20
-20.0532460614
 11
-2.4
 21
-19.8843869511
  0
LINE
  5
499
100
AcDbEntity
  8
RACCORDO
100
AcDbLine
 62
253
  6
CONTINUOUS
 10
-2.4
 20
19.8843869511
 11
-2.4
 21
20.05319349
  0
LINE
  5
49A
100
AcDbEntity
  8
SUPERFICI
100
AcDbLine
 62
253
  6
CONTINUOUS
 10
-2.4
 20
19.8843869511
 11
-2.4
 21
20.0532460614
  0
LINE
  5
49B
100
AcDbEntity
  8
SMUSSO
100
AcDbLine
 62
253
  6
CONTINUOUS
 10
-2.1647695074
 20
4.4647695074
 11
-2.1647695074
 21
5.0593644209
  0
LINE
  5
49C
100
AcDbEntity
  8
SUPERFICI
100
AcDbLine
 62
253
  6
CONTINUOUS
 10
-2.1647695074
 20
4.4647695074
 11
-2.1647695074
 21
5.0593644209
  0
LINE
  5
49D
100
AcDbEntity
  8
SMUSSO
100
AcDbLine
 62
7
  6
CONTINUOUS
 10
-1.9877823851
 20
4.7053632162
 11
-1.9877823851
 21
4.3
  0
LINE
  5
49E
100
AcDbEntity
  8
SUPERFICI
100
AcDbLine
 62
7
  6
CONTINUOUS
 10
-1.9877823851
 20
4.7053632162
 11
-1.9877823851
 21
4.3
  0
LINE
  5
49F
100
AcDbEntity
  8
ASSI
100
AcDbLine
 62
253
  6
CONTINUOUS
 10
-3.300038082
 20
-20.8
 11
-3.3073093295
 21
-21.2165694902
  0
LINE
  5
4A0
100
AcDbEntity
  8
ASSI
100
AcDbLine
 62
253
  6
CONTINUOUS
 10
-3.3203986343
 20
-22.2164171854
 11
-3.3213766279
 21
-22.2724464007
  0
LINE
  5
4A1
100
AcDbEntity
  8
ASSI
100
AcDbLine
 62
7
  6
CONTINUOUS
 10
-3.051588281
 20
-20.8909925586
 11
-3.0713521947
 21
-22.0232664162
  0
LINE
  5
4A2
100
AcDbEntity
  8
ASSI
100
AcDbLine
 62
253
  6
CONTINUOUS
 10
-3.8457122528
 20
-23.9017927141
 11
-3.8478541563
 21
-23.9835887109
  0
LINE
  5
4A3
100
AcDbEntity
  8
ASSI
100
AcDbLine
 62
7
  6
CONTINUOUS
 10
-3.5011658022
 20
-20.04452019
 11
-3.5
 21
-20.0
  0
LINE
  5
4A4
100
AcDbEntity
  8
ASSI
100
AcDbLine
 62
7
  6
CONTINUOUS
 10
-3.5598020131
 20
-22.283746742
 11
-3.5979349151
 21
-23.7399835196
  0
LINE
  5
4A5
100
AcDbEntity
  8
RACCORDO
100
AcDbLine
 62
7
  6
CONTINUOUS
 10
6.4305132643
 20
20.7610159438
 11
6.5872686779
 21
21.0745506493
  0
LINE
  5
4A6
100
AcDbEntity
  8
0
100
AcDbLine
 62
7
  6
CONTINUOUS
 10
-8.4
 20
-1.3722782751
 11
-8.5446758185
 21
-1.4781868487
  0
LINE
  5
4A7
100
AcDbEntity
  8
SUPERFICI
100
AcDbLine
 62
7
  6
CONTINUOUS
 10
-8.4
 20
-1.3722782751
 11
-8.5446758185
 21
-1.4781868487
  0
LINE
  5
4A8
100
AcDbEntity
  8
0
100
AcDbLine
 62
253
  6
CONTINUOUS
 10
8.5446758185
 20
-1.4781868487
 11
10.0139462101
 21
-1.0845120243
  0
LINE
  5
4A9
100
AcDbEntity
  8
SUPERFICI
100
AcDbLine
 62
253
  6
CONTINUOUS
 10
8.5446758185
 20
-1.4781868487
 11
10.0139462101
 21
-1.0845120243
  0
LINE
  5
4AA
100
AcDbEntity
  8
RACCORDO
100
AcDbLine
 62
7
  6
CONTINUOUS
 10
8.6728182695
 20
-1.2646781665
 11
8.4
 21
-1.3377823851
  0
LINE
  5
4AB
100
AcDbEntity
  8
SUPERFICI
100
AcDbLine
 62
7
  6
CONTINUOUS
 10
8.6728182695
 20
-1.2646781665
 11
8.4
 21
-1.3377823851
  0
LINE
  5
4AC
100
AcDbEntity
  8
RACCORDO
100
AcDbLine
 62
7
  6
CONTINUOUS
 10
-8.6728182695
 20
-4.9353218335
 11
-8.4
 21
-4.8622176149
  0
LINE
  5
4AD
100
AcDbEntity
  8
SUPERFICI
100
AcDbLine
 62
7
  6
CONTINUOUS
 10
-8.6728182695
 20
-4.9353218335
 11
-8.4
 21
-4.8622176149
  0
LINE
  5
4AE
100
AcDbEntity
  8
0
100
AcDbLine
 62
253
  6
CONTINUOUS
 10
-10.0139462101
 20
-5.1154879757
 11
-8.5446758185
 21
-4.7218131513
  0
LINE
  5
4AF
100
AcDbEntity
  8
SUPERFICI
100
AcDbLine
 62
253
  6
CONTINUOUS
 10
-10.0139462101
 20
-5.1154879757
 11
-8.5446758185
 21
-4.7218131513
  0
LINE
  5
4B0
100
AcDbEntity
  8
0
100
AcDbLine
 62
253
  6
CONTINUOUS
 10
11.0330688769
 20
-3.8428571761
 11
11.0103807485
 21
-3.8428571761
  0
LINE
  5
4B1
100
AcDbEntity
  8
0
100
AcDbLine
 62
253
  6
CONTINUOUS
 10
11.0103807485
 20
-3.1
 11
11.0330688769
 21
-3.1
  0
LINE
  5
4B2
100
AcDbEntity
  8
0
100
AcDbLine
 62
253
  6
CONTINUOUS
 10
-10.0139462101
 20
-1.0845120243
 11
-8.5446758185
 21
-1.4781868487
  0
LINE
  5
4B3
100
AcDbEntity
  8
SUPERFICI
100
AcDbLine
 62
253
  6
CONTINUOUS
 10
-10.0139462101
 20
-1.0845120243
 11
-8.5446758185
 21
-1.4781868487
  0
LINE
  5
4B4
100
AcDbEntity
  8
RACCORDO
100
AcDbLine
 62
7
  6
CONTINUOUS
 10
-8.6728182695
 20
-1.2646781665
 11
-8.4
 21
-1.3377823851
  0
LINE
  5
4B5
100
AcDbEntity
  8
SUPERFICI
100
AcDbLine
 62
7
  6
CONTINUOUS
 10
-8.6728182695
 20
-1.2646781665
 11
-8.4
 21
-1.3377823851
  0
LINE
  5
4B6
100
AcDbEntity
  8
RACCORDO
100
AcDbLine
 62
7
  6
CONTINUOUS
 10
8.6728182695
 20
-4.9353218335
 11
8.4
 21
-4.8622176149
  0
LINE
  5
4B7
100
AcDbEntity
  8
SUPERFICI
100
AcDbLine
 62
7
  6
CONTINUOUS
 10
8.6728182695
 20
-4.9353218335
 11
8.4
 21
-4.8622176149
  0
LINE
  5
4B8
100
AcDbEntity
  8
0
100
AcDbLine
 62
253
  6
CONTINUOUS
 10
8.5446758185
 20
-4.7218131513
 11
10.0139462101
 21
-5.1154879757
  0
LINE
  5
4B9
100
AcDbEntity
  8
SUPERFICI
100
AcDbLine
 62
253
  6
CONTINUOUS
 10
8.5446758185
 20
-4.7218131513
 11
10.0139462101
 21
-5.1154879757
  0
LINE
  5
4BA
100
AcDbEntity
  8
RACCORDO
100
AcDbLine
 62
253
  6
CONTINUOUS
 10
-10.05
 20
5.1001523048
 11
-9.6726659647
 21
4.7228182695
  0
LINE
  5
4BB
100
AcDbEntity
  8
SUPERFICI
100
AcDbLine
 62
253
  6
CONTINUOUS
 10
-10.05
 20
5.1001523048
 11
-9.6726659647
 21
4.7228182695
  0
LINE
  5
4BC
100
AcDbEntity
  8
RACCORDO
100
AcDbLine
 62
253
  6
CONTINUOUS
 10
-9.0501523048
 20
6.1
 11
-8.6728182695
 21
5.7226659647
  0
LINE
  5
4BD
100
AcDbEntity
  8
SUPERFICI
100
AcDbLine
 62
253
  6
CONTINUOUS
 10
-9.0501523048
 20
6.1
 11
-8.6728182695
 21
5.7226659647
  0
LINE
  5
4BE
100
AcDbEntity
  8
SMUSSO
100
AcDbLine
 62
253
  6
CONTINUOUS
 10
-5.8352304926
 20
5.0593644209
 11
-6.4127618536
 21
6.0593000519
  0
LINE
  5
4BF
100
AcDbEntity
  8
SUPERFICI
100
AcDbLine
 62
253
  6
CONTINUOUS
 10
-5.8352304926
 20
5.0593644209
 11
-6.4127618536
 21
6.0593000519
  0
LINE
  5
4C0
100
AcDbEntity
  8
RACCORDO
100
AcDbLine
 62
7
  6
CONTINUOUS
 10
-6.0222950297
 20
4.7228182695
 11
-6.0122176149
 21
4.7053632162
  0
LINE
  5
4C1
100
AcDbEntity
  8
SUPERFICI
100
AcDbLine
 62
7
  6
CONTINUOUS
 10
-6.0222950297
 20
4.7228182695
 11
-6.0122176149
 21
4.7053632162
  0
LINE
  5
4C2
100
AcDbEntity
  8
RACCORDO
100
AcDbLine
 62
7
  6
CONTINUOUS
 10
6.5872686779
 20
-21.0745506493
 11
6.4305132643
 21
-20.7610159438
  0
LINE
  5
4C3
100
AcDbEntity
  8
ASSI
100
AcDbLine
 62
7
  6
CONTINUOUS
 10
-0.8171358942
 20
-22.3982865828
 11
-0.8165255932
 21
-23.733512483
  0
LINE
  5
4C4
100
AcDbEntity
  8
ASSI
100
AcDbLine
 62
7
  6
CONTINUOUS
 10
-0.8
 20
-23.7500380762
 11
-0.8
 21
-22.4
  0
LINE
  5
4C5
100
AcDbEntity
  8
ASSI
100
AcDbLine
 62
7
  6
CONTINUOUS
 10
-0.8
 20
22.4
 11
-0.8
 21
23.7500380762
  0
LINE
  5
4C6
100
AcDbEntity
  8
ASSI
100
AcDbLine
 62
7
  6
CONTINUOUS
 10
-0.8165255932
 20
23.733512483
 11
-0.8171358942
 21
22.3982865828
  0
LINE
  5
4C7
100
AcDbEntity
  8
DRAFT
100
AcDbLine
 62
7
  6
CONTINUOUS
 10
-8.8
 20
-20.85
 11
-8.7276987537
 21
-20.6754493507
  0
LINE
  5
4C8
100
AcDbEntity
  8
SUPERFICI
100
AcDbLine
 62
7
  6
CONTINUOUS
 10
-8.8
 20
-20.85
 11
-8.7276987537
 21
-20.6754493507
  0
LINE
  5
4C9
100
AcDbEntity
  8
DRAFT
100
AcDbLine
 62
7
  6
CONTINUOUS
 10
8.8
 20
20.85
 11
8.7276987537
 21
20.6754493507
  0
LINE
  5
4CA
100
AcDbEntity
  8
SUPERFICI
100
AcDbLine
 62
7
  6
CONTINUOUS
 10
8.8
 20
20.85
 11
8.7276987537
 21
20.6754493507
  0
LINE
  5
4CB
100
AcDbEntity
  8
RACCORDO
100
AcDbLine
 62
7
  6
CONTINUOUS
 10
1.5872381464
 20
6.0593000519
 11
1.4189339215
 21
5.7226659647
  0
LINE
  5
4CC
100
AcDbEntity
  8
SUPERFICI
100
AcDbLine
 62
7
  6
CONTINUOUS
 10
1.5872381464
 20
6.0593000519
 11
1.4189339215
 21
5.7226659647
  0
LINE
  5
4CD
100
AcDbEntity
  8
SMUSSO
100
AcDbLine
 62
7
  6
CONTINUOUS
 10
2.1647695074
 20
5.0593644209
 11
1.9877823851
 21
4.7053632162
  0
LINE
  5
4CE
100
AcDbEntity
  8
SUPERFICI
100
AcDbLine
 62
7
  6
CONTINUOUS
 10
2.1647695074
 20
5.0593644209
 11
1.9877823851
 21
4.7053632162
  0
LINE
  5
4CF
100
AcDbEntity
  8
DRAFT
100
AcDbLine
 62
7
  6
CONTINUOUS
 10
2.0
 20
4.3
 11
2.1647695074
 21
4.4647695074
  0
LINE
  5
4D0
100
AcDbEntity
  8
SUPERFICI
100
AcDbLine
 62
7
  6
CONTINUOUS
 10
2.0
 20
4.3
 11
2.1647695074
 21
4.4647695074
  0
LINE
  5
4D1
100
AcDbEntity
  8
DRAFT
100
AcDbLine
 62
7
  6
CONTINUOUS
 10
-8.8
 20
20.85
 11
-8.7276987537
 21
20.6754493507
  0
LINE
  5
4D2
100
AcDbEntity
  8
SUPERFICI
100
AcDbLine
 62
7
  6
CONTINUOUS
 10
-8.8
 20
20.85
 11
-8.7276987537
 21
20.6754493507
  0
LINE
  5
4D3
100
AcDbEntity
  8
DRAFT
100
AcDbLine
 62
7
  6
CONTINUOUS
 10
8.8
 20
-20.85
 11
8.7276987537
 21
-20.6754493507
  0
LINE
  5
4D4
100
AcDbEntity
  8
SUPERFICI
100
AcDbLine
 62
7
  6
CONTINUOUS
 10
8.8
 20
-20.85
 11
8.7276987537
 21
-20.6754493507
  0
LINE
  5
4D5
100
AcDbEntity
  8
ASSI
100
AcDbLine
 62
7
  6
CONTINUOUS
 10
0.8165255932
 20
23.733512483
 11
0.8171358942
 21
22.3982865828
  0
LINE
  5
4D6
100
AcDbEntity
  8
ASSI
100
AcDbLine
 62
7
  6
CONTINUOUS
 10
0.8
 20
-23.7500380762
 11
0.8
 21
-22.4
  0
LINE
  5
4D7
100
AcDbEntity
  8
ASSI
100
AcDbLine
 62
7
  6
CONTINUOUS
 10
0.8
 20
22.4
 11
0.8
 21
23.7500380762
  0
LINE
  5
4D8
100
AcDbEntity
  8
SMUSSO
100
AcDbLine
 62
7
  6
CONTINUOUS
 10
1.9877823851
 20
4.7053632162
 11
1.9877823851
 21
4.3
  0
LINE
  5
4D9
100
AcDbEntity
  8
SUPERFICI
100
AcDbLine
 62
7
  6
CONTINUOUS
 10
1.9877823851
 20
4.7053632162
 11
1.9877823851
 21
4.3
  0
LINE
  5
4DA
100
AcDbEntity
  8
SMUSSO
100
AcDbLine
 62
253
  6
CONTINUOUS
 10
2.1647695074
 20
5.0593644209
 11
2.1647695074
 21
4.4647695074
  0
LINE
  5
4DB
100
AcDbEntity
  8
SUPERFICI
100
AcDbLine
 62
253
  6
CONTINUOUS
 10
2.1647695074
 20
5.0593644209
 11
2.1647695074
 21
4.4647695074
  0
LINE
  5
4DC
100
AcDbEntity
  8
RACCORDO
100
AcDbLine
 62
253
  6
CONTINUOUS
 10
2.4
 20
-20.05319349
 11
2.4
 21
-19.8843869511
  0
LINE
  5
4DD
100
AcDbEntity
  8
SUPERFICI
100
AcDbLine
 62
253
  6
CONTINUOUS
 10
2.4
 20
-20.0532460614
 11
2.4
 21
-19.8843869511
  0
LINE
  5
4DE
100
AcDbEntity
  8
RACCORDO
100
AcDbLine
 62
253
  6
CONTINUOUS
 10
2.4
 20
19.8843869511
 11
2.4
 21
20.05319349
  0
LINE
  5
4DF
100
AcDbEntity
  8
SUPERFICI
100
AcDbLine
 62
253
  6
CONTINUOUS
 10
2.4
 20
19.8843869511
 11
2.4
 21
20.0532460614
  0
LINE
  5
4E0
100
AcDbEntity
  8
ASSI
100
AcDbLine
 62
7
  6
CONTINUOUS
 10
0.8171358942
 20
-22.3982865828
 11
0.8165255932
 21
-23.733512483
  0
LINE
  5
4E1
100
AcDbEntity
  8
RACCORDO
100
AcDbLine
 62
253
  6
CONTINUOUS
 10
8.6728182695
 20
5.7226659647
 11
9.0501523048
 21
6.1
  0
LINE
  5
4E2
100
AcDbEntity
  8
SUPERFICI
100
AcDbLine
 62
253
  6
CONTINUOUS
 10
8.6728182695
 20
5.7226659647
 11
9.0501523048
 21
6.1
  0
LINE
  5
4E3
100
AcDbEntity
  8
RACCORDO
100
AcDbLine
 62
7
  6
CONTINUOUS
 10
-9.6726659647
 20
-1.0053341455
 11
-10.0139462101
 21
-1.0845120243
  0
LINE
  5
4E4
100
AcDbEntity
  8
SUPERFICI
100
AcDbLine
 62
7
  6
CONTINUOUS
 10
-9.6726659647
 20
-1.0053341455
 11
-10.0139462101
 21
-1.0845120243
  0
LINE
  5
4E5
100
AcDbEntity
  8
0
100
AcDbLine
 62
253
  6
CONTINUOUS
 10
-9.9139402634
 20
0.5
 11
-9.8929044156
 21
0.5
  0
LINE
  5
4E6
100
AcDbEntity
  8
0
100
AcDbLine
 62
253
  6
CONTINUOUS
 10
-9.8529597457
 20
0.5
 11
-9.8424418229
 21
0.5
  0
LINE
  5
4E7
100
AcDbEntity
  8
0
100
AcDbLine
 62
253
  6
CONTINUOUS
 10
-9.8266649388
 20
0.5
 11
-9.805629091
 21
0.5
  0
LINE
  5
4E8
100
AcDbEntity
  8
0
100
AcDbLine
 62
253
  6
CONTINUOUS
 10
9.7236077409
 20
0.5
 11
9.7314961841
 21
0.5
  0
LINE
  5
4E9
100
AcDbEntity
  8
0
100
AcDbLine
 62
253
  6
CONTINUOUS
 10
9.8980848292
 20
0.5
 11
9.9059732719
 21
0.5
  0
LINE
  5
4EA
100
AcDbEntity
  8
0
100
AcDbLine
 62
253
  6
CONTINUOUS
 10
9.8371329887
 20
0.5
 11
9.8581688364
 21
0.5
  0
LINE
  5
4EB
100
AcDbEntity
  8
0
100
AcDbLine
 62
253
  6
CONTINUOUS
 10
-9.8503302661
 20
2.4
 11
-9.8398123411
 21
2.4
  0
LINE
  5
4EC
100
AcDbEntity
  8
0
100
AcDbLine
 62
253
  6
CONTINUOUS
 10
-9.7315011709
 20
2.4
 11
-9.7183537664
 21
2.4
  0
LINE
  5
4ED
100
AcDbEntity
  8
0
100
AcDbLine
 62
253
  6
CONTINUOUS
 10
9.7183487773
 20
2.4
 11
9.7367551455
 21
2.4
  0
LINE
  5
4EE
100
AcDbEntity
  8
0
100
AcDbLine
 62
253
  6
CONTINUOUS
 10
9.7472730683
 20
2.4
 11
9.7604204728
 21
2.4
  0
LINE
  5
4EF
100
AcDbEntity
  8
0
100
AcDbLine
 62
253
  6
CONTINUOUS
 10
9.8928258679
 20
2.4
 11
9.9112322338
 21
2.4
  0
LINE
  5
4F0
100
AcDbEntity
  8
RACCORDO
100
AcDbLine
 62
7
  6
CONTINUOUS
 10
9.6726659647
 20
-1.0053341455
 11
10.0139462101
 21
-1.0845120243
  0
LINE
  5
4F1
100
AcDbEntity
  8
SUPERFICI
100
AcDbLine
 62
7
  6
CONTINUOUS
 10
9.6726659647
 20
-1.0053341455
 11
10.0139462101
 21
-1.0845120243
  0
LINE
  5
4F2
100
AcDbEntity
  8
DRAFT
100
AcDbLine
 62
7
  6
CONTINUOUS
 10
-2.0
 20
4.3
 11
-2.1647695074
 21
4.4647695074
  0
LINE
  5
4F3
100
AcDbEntity
  8
SUPERFICI
100
AcDbLine
 62
7
  6
CONTINUOUS
 10
-2.0
 20
4.3
 11
-2.1647695074
 21
4.4647695074
  0
LINE
  5
4F4
100
AcDbEntity
  8
SMUSSO
100
AcDbLine
 62
7
  6
CONTINUOUS
 10
-1.9877823851
 20
4.7053632162
 11
-2.1647695074
 21
5.0593644209
  0
LINE
  5
4F5
100
AcDbEntity
  8
SUPERFICI
100
AcDbLine
 62
7
  6
CONTINUOUS
 10
-1.9877823851
 20
4.7053632162
 11
-2.1647695074
 21
5.0593644209
  0
LINE
  5
4F6
100
AcDbEntity
  8
RACCORDO
100
AcDbLine
 62
7
  6
CONTINUOUS
 10
-1.4189339215
 20
5.7226659647
 11
-1.5872381464
 21
6.0593000519
  0
LINE
  5
4F7
100
AcDbEntity
  8
SUPERFICI
100
AcDbLine
 62
7
  6
CONTINUOUS
 10
-1.4189339215
 20
5.7226659647
 11
-1.5872381464
 21
6.0593000519
  0
LINE
  5
4F8
100
AcDbEntity
  8
ASSI
100
AcDbLine
 62
7
  6
CONTINUOUS
 10
3.5011658022
 20
-20.04452019
 11
3.5
 21
-20.0
  0
LINE
  5
4F9
100
AcDbEntity
  8
ASSI
100
AcDbLine
 62
7
  6
CONTINUOUS
 10
3.5598020131
 20
-22.283746742
 11
3.5979349151
 21
-23.7399835196
  0
LINE
  5
4FA
100
AcDbEntity
  8
ASSI
100
AcDbLine
 62
253
  6
CONTINUOUS
 10
3.8457122528
 20
-23.9017927141
 11
3.8478541563
 21
-23.9835887109
  0
LINE
  5
4FB
100
AcDbEntity
  8
ASSI
100
AcDbLine
 62
7
  6
CONTINUOUS
 10
3.0713521947
 20
-22.0232664162
 11
3.051588281
 21
-20.8909925586
  0
LINE
  5
4FC
100
AcDbEntity
  8
ASSI
100
AcDbLine
 62
253
  6
CONTINUOUS
 10
3.3213766279
 20
-22.2724464007
 11
3.3203986343
 21
-22.2164171854
  0
LINE
  5
4FD
100
AcDbEntity
  8
ASSI
100
AcDbLine
 62
253
  6
CONTINUOUS
 10
3.3073093295
 20
-21.2165694902
 11
3.300038082
 21
-20.8
  0
LINE
  5
4FE
100
AcDbEntity
  8
ASSI
100
AcDbLine
 62
253
  6
CONTINUOUS
 10
4.3520586235
 20
22.3020586235
 11
4.351751166
 21
23.6517892422
  0
LINE
  5
4FF
100
AcDbEntity
  8
RACCORDO
100
AcDbLine
 62
7
  6
CONTINUOUS
 10
3.4
 20
-20.0483350602
 11
3.4
 21
-19.9
  0
LINE
  5
500
100
AcDbEntity
  8
SUPERFICI
100
AcDbLine
 62
7
  6
CONTINUOUS
 10
3.4
 20
-20.0483350602
 11
3.4
 21
-19.8979303954
  0
LINE
  5
501
100
AcDbEntity
  8
RACCORDO
100
AcDbLine
 62
7
  6
CONTINUOUS
 10
3.4
 20
19.9
 11
3.4
 21
20.0483350602
  0
LINE
  5
502
100
AcDbEntity
  8
SUPERFICI
100
AcDbLine
 62
7
  6
CONTINUOUS
 10
3.4
 20
19.8979303954
 11
3.4
 21
20.0483350602
  0
LINE
  5
503
100
AcDbEntity
  8
ASSI
100
AcDbLine
 62
7
  6
CONTINUOUS
 10
4.3539971429
 20
-23.5393800954
 11
4.3539971429
 21
-22.8606199046
  0
LINE
  5
504
100
AcDbEntity
  8
ASSI
100
AcDbLine
 62
7
  6
CONTINUOUS
 10
4.3539971429
 20
22.8606199046
 11
4.3539971429
 21
23.5393800954
  0
LINE
  5
505
100
AcDbEntity
  8
ASSI
100
AcDbLine
 62
7
  6
CONTINUOUS
 10
4.45
 20
23.7500380762
 11
4.45
 21
23.4179449472
  0
LINE
  5
506
100
AcDbEntity
  8
ASSI
100
AcDbLine
 62
7
  6
CONTINUOUS
 10
4.45
 20
22.9820550528
 11
4.45
 21
22.4
  0
LINE
  5
507
100
AcDbEntity
  8
ASSI
100
AcDbLine
 62
7
  6
CONTINUOUS
 10
4.45
 20
-22.4
 11
4.45
 21
-22.9820550528
  0
LINE
  5
508
100
AcDbEntity
  8
ASSI
100
AcDbLine
 62
7
  6
CONTINUOUS
 10
4.45
 20
-23.4179449472
 11
4.45
 21
-23.7500380762
  0
LINE
  5
509
100
AcDbEntity
  8
ASSI
100
AcDbLine
 62
253
  6
CONTINUOUS
 10
4.3517511659
 20
-23.6517892421
 11
4.3520586235
 21
-22.3020586235
  0
LINE
  5
50A
100
AcDbEntity
  8
ASSI
100
AcDbLine
 62
7
  6
CONTINUOUS
 10
3.051588281
 20
20.8909925586
 11
3.0713521947
 21
22.0232664162
  0
LINE
  5
50B
100
AcDbEntity
  8
ASSI
100
AcDbLine
 62
253
  6
CONTINUOUS
 10
3.3203986343
 20
22.2164171854
 11
3.3213766279
 21
22.2724464007
  0
LINE
  5
50C
100
AcDbEntity
  8
ASSI
100
AcDbLine
 62
253
  6
CONTINUOUS
 10
3.300038082
 20
20.8
 11
3.3073093295
 21
21.2165694902
  0
LINE
  5
50D
100
AcDbEntity
  8
ASSI
100
AcDbLine
 62
7
  6
CONTINUOUS
 10
3.5011658022
 20
20.04452019
 11
3.5
 21
20.0
  0
LINE
  5
50E
100
AcDbEntity
  8
ASSI
100
AcDbLine
 62
7
  6
CONTINUOUS
 10
3.5598020131
 20
22.283746742
 11
3.5979349151
 21
23.7399835196
  0
LINE
  5
50F
100
AcDbEntity
  8
ASSI
100
AcDbLine
 62
253
  6
CONTINUOUS
 10
3.8478541563
 20
23.9835887109
 11
3.8457122528
 21
23.901792714
  0
LINE
  5
510
100
AcDbEntity
  8
RACCORDO
100
AcDbLine
 62
7
  6
CONTINUOUS
 10
-6.4305132643
 20
-20.7610159438
 11
-6.5872686779
 21
-21.0745506493
  0
LINE
  5
511
100
AcDbEntity
  8
RACCORDO
100
AcDbLine
 62
7
  6
CONTINUOUS
 10
6.0222950297
 20
4.7228182695
 11
6.0122176149
 21
4.7053632162
  0
LINE
  5
512
100
AcDbEntity
  8
SUPERFICI
100
AcDbLine
 62
7
  6
CONTINUOUS
 10
6.0222950297
 20
4.7228182695
 11
6.0122176149
 21
4.7053632162
  0
LINE
  5
513
100
AcDbEntity
  8
SMUSSO
100
AcDbLine
 62
253
  6
CONTINUOUS
 10
6.4127618536
 20
6.0593000519
 11
5.8352304926
 21
5.0593644209
  0
LINE
  5
514
100
AcDbEntity
  8
SUPERFICI
100
AcDbLine
 62
253
  6
CONTINUOUS
 10
6.4127618536
 20
6.0593000519
 11
5.8352304926
 21
5.0593644209
  0
LINE
  5
515
100
AcDbEntity
  8
RACCORDO
100
AcDbLine
 62
253
  6
CONTINUOUS
 10
9.6726659647
 20
4.7228182695
 11
10.05
 21
5.1001523048
  0
LINE
  5
516
100
AcDbEntity
  8
SUPERFICI
100
AcDbLine
 62
253
  6
CONTINUOUS
 10
9.6726659647
 20
4.7228182695
 11
10.05
 21
5.1001523048
  0
LINE
  5
517
100
AcDbEntity
  8
DRAFT
100
AcDbLine
 62
7
  6
CONTINUOUS
 10
-6.0122176149
 20
4.3
 11
-1.9877823851
 21
4.3
  0
LINE
  5
518
100
AcDbEntity
  8
SUPERFICI
100
AcDbLine
 62
7
  6
CONTINUOUS
 10
-6.0122176149
 20
4.3
 11
-1.9877823851
 21
4.3
  0
LINE
  5
519
100
AcDbEntity
  8
DRAFT
100
AcDbLine
 62
7
  6
CONTINUOUS
 10
6.0122176149
 20
4.3
 11
1.9877823851
 21
4.3
  0
LINE
  5
51A
100
AcDbEntity
  8
SUPERFICI
100
AcDbLine
 62
7
  6
CONTINUOUS
 10
6.0122176149
 20
4.3
 11
1.9877823851
 21
4.3
  0
LINE
  5
51B
100
AcDbEntity
  8
0
100
AcDbLine
 62
7
  6
CONTINUOUS
 10
8.4
 20
-1.3722782751
 11
8.5446758185
 21
-1.4781868487
  0
LINE
  5
51C
100
AcDbEntity
  8
SUPERFICI
100
AcDbLine
 62
7
  6
CONTINUOUS
 10
8.4
 20
-1.3722782751
 11
8.5446758185
 21
-1.4781868487
  0
LINE
  5
51D
100
AcDbEntity
  8
SMUSSO
100
AcDbLine
 62
253
  6
CONTINUOUS
 10
2.1647695074
 20
5.0593644209
 11
1.5872381464
 21
6.0593000519
  0
LINE
  5
51E
100
AcDbEntity
  8
SUPERFICI
100
AcDbLine
 62
253
  6
CONTINUOUS
 10
2.1647695074
 20
5.0593644209
 11
1.5872381464
 21
6.0593000519
  0
LINE
  5
51F
100
AcDbEntity
  8
RACCORDO
100
AcDbLine
 62
7
  6
CONTINUOUS
 10
1.9777049703
 20
4.7228182695
 11
1.9877823851
 21
4.7053632162
  0
LINE
  5
520
100
AcDbEntity
  8
SUPERFICI
100
AcDbLine
 62
7
  6
CONTINUOUS
 10
1.9777049703
 20
4.7228182695
 11
1.9877823851
 21
4.7053632162
  0
LINE
  5
521
100
AcDbEntity
  8
RACCORDO
100
AcDbLine
 62
7
  6
CONTINUOUS
 10
-6.5872686779
 20
21.0745506493
 11
-6.4305132643
 21
20.7610159438
  0
LINE
  5
522
100
AcDbEntity
  8
ASSI
100
AcDbLine
 62
253
  6
CONTINUOUS
 10
7.2
 20
-23.3515746082
 11
7.2135886019
 21
-23.8010362971
  0
LINE
  5
523
100
AcDbEntity
  8
ASSI
100
AcDbLine
 62
7
  6
CONTINUOUS
 10
5.1254493507
 20
-21.0745506493
 11
5.1254493507
 21
-20.0872686779
  0
LINE
  5
524
100
AcDbEntity
  8
ASSI
100
AcDbLine
 62
7
  6
CONTINUOUS
 10
5.1254493507
 20
20.0872686779
 11
5.1254493507
 21
21.0745506493
  0
LINE
  5
525
100
AcDbEntity
  8
DRAFT
100
AcDbLine
 62
7
  6
CONTINUOUS
 10
5.6609791689
 20
-19.8109791689
 11
5.6609791689
 21
-19.6109791689
  0
LINE
  5
526
100
AcDbEntity
  8
SUPERFICI
100
AcDbLine
 62
7
  6
CONTINUOUS
 10
5.6609791689
 20
-19.8109791689
 11
5.6609791689
 21
-19.6109791689
  0
LINE
  5
527
100
AcDbEntity
  8
DRAFT
100
AcDbLine
 62
7
  6
CONTINUOUS
 10
5.6609791689
 20
19.6109791689
 11
5.6609791689
 21
19.8109791689
  0
LINE
  5
528
100
AcDbEntity
  8
SUPERFICI
100
AcDbLine
 62
7
  6
CONTINUOUS
 10
5.6609791689
 20
19.6109791689
 11
5.6609791689
 21
19.8109791689
  0
LINE
  5
529
100
AcDbEntity
  8
DRAFT
100
AcDbLine
 62
7
  6
CONTINUOUS
 10
5.75
 20
-19.7
 11
5.75
 21
-19.9
  0
LINE
  5
52A
100
AcDbEntity
  8
SUPERFICI
100
AcDbLine
 62
7
  6
CONTINUOUS
 10
5.75
 20
-19.7
 11
5.75
 21
-19.9
  0
LINE
  5
52B
100
AcDbEntity
  8
DRAFT
100
AcDbLine
 62
7
  6
CONTINUOUS
 10
5.75
 20
19.7
 11
5.75
 21
19.9
  0
LINE
  5
52C
100
AcDbEntity
  8
SUPERFICI
100
AcDbLine
 62
7
  6
CONTINUOUS
 10
5.75
 20
19.7
 11
5.75
 21
19.9
  0
LINE
  5
52D
100
AcDbEntity
  8
SMUSSO
100
AcDbLine
 62
253
  6
CONTINUOUS
 10
5.8352304926
 20
5.0593644209
 11
5.8352304926
 21
4.4647695074
  0
LINE
  5
52E
100
AcDbEntity
  8
SUPERFICI
100
AcDbLine
 62
253
  6
CONTINUOUS
 10
5.8352304926
 20
5.0593644209
 11
5.8352304926
 21
4.4647695074
  0
LINE
  5
52F
100
AcDbEntity
  8
SMUSSO
100
AcDbLine
 62
7
  6
CONTINUOUS
 10
6.0122176149
 20
4.3
 11
6.0122176149
 21
4.7053632162
  0
LINE
  5
530
100
AcDbEntity
  8
SUPERFICI
100
AcDbLine
 62
7
  6
CONTINUOUS
 10
6.0122176149
 20
4.3
 11
6.0122176149
 21
4.7053632162
  0
LINE
  5
531
100
AcDbEntity
  8
ASSI
100
AcDbLine
 62
7
  6
CONTINUOUS
 10
6.5872686779
 20
21.0745506493
 11
6.5872686779
 21
19.7872686779
  0
LINE
  5
532
100
AcDbEntity
  8
ASSI
100
AcDbLine
 62
7
  6
CONTINUOUS
 10
6.5872686779
 20
-19.7872686779
 11
6.5872686779
 21
-21.0745506493
  0
LINE
  5
533
100
AcDbEntity
  8
ASSI
100
AcDbLine
 62
253
  6
CONTINUOUS
 10
7.2135886019
 20
23.8010362971
 11
7.2
 21
23.3515746082
  0
LINE
  5
534
100
AcDbEntity
  8
RACCORDO
100
AcDbLine
 62
253
  6
CONTINUOUS
 10
-9.6726659647
 20
-18.1228182695
 11
-10.05
 21
-18.5001523048
  0
LINE
  5
535
100
AcDbEntity
  8
SUPERFICI
100
AcDbLine
 62
253
  6
CONTINUOUS
 10
-9.6726659647
 20
-18.1228182695
 11
-10.05
 21
-18.5001523048
  0
LINE
  5
536
100
AcDbEntity
  8
RACCORDO
100
AcDbLine
 62
253
  6
CONTINUOUS
 10
1.9777049703
 20
4.7228182695
 11
-1.9777049703
 21
4.7228182695
  0
LINE
  5
537
100
AcDbEntity
  8
SUPERFICI
100
AcDbLine
 62
253
  6
CONTINUOUS
 10
1.9777049703
 20
4.7228182695
 11
-1.9777049703
 21
4.7228182695
  0
LINE
  5
538
100
AcDbEntity
  8
RACCORDO
100
AcDbLine
 62
253
  6
CONTINUOUS
 10
6.0222950297
 20
4.7228182695
 11
9.6726659647
 21
4.7228182695
  0
LINE
  5
539
100
AcDbEntity
  8
SUPERFICI
100
AcDbLine
 62
253
  6
CONTINUOUS
 10
6.0222950297
 20
4.7228182695
 11
9.6726659647
 21
4.7228182695
  0
LINE
  5
53A
100
AcDbEntity
  8
RACCORDO
100
AcDbLine
 62
253
  6
CONTINUOUS
 10
-6.0222950297
 20
4.7228182695
 11
-9.6726659647
 21
4.7228182695
  0
LINE
  5
53B
100
AcDbEntity
  8
SUPERFICI
100
AcDbLine
 62
253
  6
CONTINUOUS
 10
-6.0222950297
 20
4.7228182695
 11
-9.6726659647
 21
4.7228182695
  0
LINE
  5
53C
100
AcDbEntity
  8
RACCORDO
100
AcDbLine
 62
253
  6
CONTINUOUS
 10
8.6728182695
 20
5.7226659647
 11
6.5810660785
 21
5.7226659647
  0
LINE
  5
53D
100
AcDbEntity
  8
SUPERFICI
100
AcDbLine
 62
253
  6
CONTINUOUS
 10
8.6728182695
 20
5.7226659647
 11
6.5810660785
 21
5.7226659647
  0
LINE
  5
53E
100
AcDbEntity
  8
RACCORDO
100
AcDbLine
 62
253
  6
CONTINUOUS
 10
1.4189339215
 20
5.7226659647
 11
-1.4189339215
 21
5.7226659647
  0
LINE
  5
53F
100
AcDbEntity
  8
SUPERFICI
100
AcDbLine
 62
253
  6
CONTINUOUS
 10
1.4189339215
 20
5.7226659647
 11
-1.4189339215
 21
5.7226659647
  0
LINE
  5
540
100
AcDbEntity
  8
RACCORDO
100
AcDbLine
 62
253
  6
CONTINUOUS
 10
-6.5810660785
 20
5.7226659647
 11
-8.6728182695
 21
5.7226659647
  0
LINE
  5
541
100
AcDbEntity
  8
SUPERFICI
100
AcDbLine
 62
253
  6
CONTINUOUS
 10
-6.5810660785
 20
5.7226659647
 11
-8.6728182695
 21
5.7226659647
  0
LINE
  5
542
100
AcDbEntity
  8
SMUSSO
100
AcDbLine
 62
7
  6
CONTINUOUS
 10
-9.0501523048
 20
6.1
 11
-4.6058138338
 21
6.1
  0
LINE
  5
543
100
AcDbEntity
  8
SUPERFICI
100
AcDbLine
 62
7
  6
CONTINUOUS
 10
-9.0501523048
 20
6.1
 11
-4.6058138338
 21
6.1
  0
LINE
  5
544
100
AcDbEntity
  8
SMUSSO
100
AcDbLine
 62
7
  6
CONTINUOUS
 10
-3.3941861662
 20
6.1
 11
3.3941861662
 21
6.1
  0
LINE
  5
545
100
AcDbEntity
  8
SUPERFICI
100
AcDbLine
 62
7
  6
CONTINUOUS
 10
-3.3941861662
 20
6.1
 11
3.3941861662
 21
6.1
  0
LINE
  5
546
100
AcDbEntity
  8
SMUSSO
100
AcDbLine
 62
7
  6
CONTINUOUS
 10
4.6058138338
 20
6.1
 11
9.0501523048
 21
6.1
  0
LINE
  5
547
100
AcDbEntity
  8
SUPERFICI
100
AcDbLine
 62
7
  6
CONTINUOUS
 10
4.6058138338
 20
6.1
 11
9.0501523048
 21
6.1
  0
LINE
  5
548
100
AcDbEntity
  8
ASSI
100
AcDbLine
 62
253
  6
CONTINUOUS
 10
7.3982849591
 20
-23.1226497308
 11
7.4135581655
 21
-23.6278320282
  0
LINE
  5
549
100
AcDbEntity
  8
ASSI
100
AcDbLine
 62
7
  6
CONTINUOUS
 10
8.5131674569
 20
-23.5581814706
 11
8.5
 21
-23.1226497308
  0
LINE
  5
54A
100
AcDbEntity
  8
ASSI
100
AcDbLine
 62
7
  6
CONTINUOUS
 10
7.2
 20
-24.300030461
 11
7.2
 21
-22.4
  0
LINE
  5
54B
100
AcDbEntity
  8
ASSI
100
AcDbLine
 62
7
  6
CONTINUOUS
 10
7.2
 20
22.4
 11
7.2
 21
24.300030461
  0
LINE
  5
54C
100
AcDbEntity
  8
ASSI
100
AcDbLine
 62
7
  6
CONTINUOUS
 10
7.2127313221
 20
20.9872686779
 11
7.2127313221
 21
19.7872686779
  0
LINE
  5
54D
100
AcDbEntity
  8
ASSI
100
AcDbLine
 62
7
  6
CONTINUOUS
 10
7.2127313221
 20
-19.7872686779
 11
7.2127313221
 21
-20.9872686779
  0
LINE
  5
54E
100
AcDbEntity
  8
ASSI
100
AcDbLine
 62
253
  6
CONTINUOUS
 10
7.2140249785
 20
24.2368706193
 11
7.2140249785
 21
23.8443375673
  0
LINE
  5
54F
100
AcDbEntity
  8
ASSI
100
AcDbLine
 62
253
  6
CONTINUOUS
 10
7.2140249785
 20
-23.8443375673
 11
7.2140249785
 21
-24.2368706193
  0
LINE
  5
550
100
AcDbEntity
  8
DRAFT
100
AcDbLine
 62
7
  6
CONTINUOUS
 10
7.4
 20
-20.7644701819
 11
7.4
 21
-19.7
  0
LINE
  5
551
100
AcDbEntity
  8
SUPERFICI
100
AcDbLine
 62
7
  6
CONTINUOUS
 10
7.4
 20
-20.7644701819
 11
7.4
 21
-19.7
  0
LINE
  5
552
100
AcDbEntity
  8
DRAFT
100
AcDbLine
 62
7
  6
CONTINUOUS
 10
7.4
 20
19.7
 11
7.4
 21
20.7644701819
  0
LINE
  5
553
100
AcDbEntity
  8
SUPERFICI
100
AcDbLine
 62
7
  6
CONTINUOUS
 10
7.4
 20
19.7
 11
7.4
 21
20.7644701819
  0
LINE
  5
554
100
AcDbEntity
  8
ASSI
100
AcDbLine
 62
253
  6
CONTINUOUS
 10
7.4139945176
 20
24.2368706193
 11
7.4139945176
 21
23.8443359311
  0
LINE
  5
555
100
AcDbEntity
  8
ASSI
100
AcDbLine
 62
253
  6
CONTINUOUS
 10
7.4139945176
 20
-23.8443375673
 11
7.4139945176
 21
-24.2368706193
  0
LINE
  5
556
100
AcDbEntity
  8
DRAFT
100
AcDbLine
 62
7
  6
CONTINUOUS
 10
7.4890208311
 20
20.6754493507
 11
7.4890208311
 21
19.6109791689
  0
LINE
  5
557
100
AcDbEntity
  8
SUPERFICI
100
AcDbLine
 62
7
  6
CONTINUOUS
 10
7.4890208311
 20
20.6754493507
 11
7.4890208311
 21
19.6109791689
  0
LINE
  5
558
100
AcDbEntity
  8
DRAFT
100
AcDbLine
 62
7
  6
CONTINUOUS
 10
7.4890208311
 20
-19.6109791689
 11
7.4890208311
 21
-20.6754493507
  0
LINE
  5
559
100
AcDbEntity
  8
SUPERFICI
100
AcDbLine
 62
7
  6
CONTINUOUS
 10
7.4890208311
 20
-19.6109791689
 11
7.4890208311
 21
-20.6754493507
  0
LINE
  5
55A
100
AcDbEntity
  8
ASSI
100
AcDbLine
 62
7
  6
CONTINUOUS
 10
8.0492667533
 20
21.2165694902
 11
8.0492667533
 21
20.9872686779
  0
LINE
  5
55B
100
AcDbEntity
  8
ASSI
100
AcDbLine
 62
7
  6
CONTINUOUS
 10
8.0492667533
 20
-20.9872686779
 11
8.0492667533
 21
-21.2165694902
  0
LINE
  5
55C
100
AcDbEntity
  8
ASSI
100
AcDbLine
 62
7
  6
CONTINUOUS
 10
8.2325449351
 20
-21.4051134101
 11
8.2325449351
 21
-20.8956365661
  0
LINE
  5
55D
100
AcDbEntity
  8
ASSI
100
AcDbLine
 62
7
  6
CONTINUOUS
 10
8.2325449351
 20
20.8956365661
 11
8.2325449351
 21
21.4051134101
  0
LINE
  5
55E
100
AcDbEntity
  8
0
100
AcDbLine
 62
7
  6
CONTINUOUS
 10
8.4
 20
-1.3377823851
 11
8.4
 21
-4.8622176149
  0
LINE
  5
55F
100
AcDbEntity
  8
SUPERFICI
100
AcDbLine
 62
7
  6
CONTINUOUS
 10
8.4
 20
-1.3377823851
 11
8.4
 21
-4.8622176149
  0
LINE
  5
560
100
AcDbEntity
  8
ASSI
100
AcDbLine
 62
7
  6
CONTINUOUS
 10
8.5
 20
-23.1226497308
 11
8.5
 21
-22.4
  0
LINE
  5
561
100
AcDbEntity
  8
ASSI
100
AcDbLine
 62
7
  6
CONTINUOUS
 10
8.5
 20
22.4
 11
8.5
 21
23.1226497308
  0
LINE
  5
562
100
AcDbEntity
  8
ASSI
100
AcDbLine
 62
253
  6
CONTINUOUS
 10
8.5131674569
 20
-23.5581814706
 11
8.5131674569
 21
-22.3868325431
  0
LINE
  5
563
100
AcDbEntity
  8
ASSI
100
AcDbLine
 62
253
  6
CONTINUOUS
 10
8.5131674569
 20
22.3868325431
 11
8.5131674569
 21
23.5581814706
  0
LINE
  5
564
100
AcDbEntity
  8
RACCORDO
100
AcDbLine
 62
253
  6
CONTINUOUS
 10
8.6728182695
 20
-19.1226659647
 11
8.6728182695
 21
-4.9353218335
  0
LINE
  5
565
100
AcDbEntity
  8
SUPERFICI
100
AcDbLine
 62
253
  6
CONTINUOUS
 10
8.6728182695
 20
-19.1226659647
 11
8.6728182695
 21
-4.9353218335
  0
LINE
  5
566
100
AcDbEntity
  8
RACCORDO
100
AcDbLine
 62
253
  6
CONTINUOUS
 10
8.6728182695
 20
-1.2646781665
 11
8.6728182695
 21
5.7226659647
  0
LINE
  5
567
100
AcDbEntity
  8
SUPERFICI
100
AcDbLine
 62
253
  6
CONTINUOUS
 10
8.6728182695
 20
-1.2646781665
 11
8.6728182695
 21
5.7226659647
  0
LINE
  5
568
100
AcDbEntity
  8
ASSI
100
AcDbLine
 62
253
  6
CONTINUOUS
 10
7.4135581409
 20
23.6278312163
 11
7.3982849591
 21
23.1226497308
  0
LINE
  5
569
100
AcDbEntity
  8
ASSI
100
AcDbLine
 62
7
  6
CONTINUOUS
 10
8.5
 20
23.1226497308
 11
8.5131674569
 21
23.5581814706
  0
LINE
  5
56A
100
AcDbEntity
  8
ASSI
100
AcDbLine
 62
253
  6
CONTINUOUS
 10
-10.6
 20
-22.3999999999
 11
-10.5826210875
 21
-22.3825449351
  0
LINE
  5
56B
100
AcDbEntity
  8
RACCORDO
100
AcDbLine
 62
253
  6
CONTINUOUS
 10
-8.6728182695
 20
-19.1226659647
 11
-9.0501523048
 21
-19.5
  0
LINE
  5
56C
100
AcDbEntity
  8
SUPERFICI
100
AcDbLine
 62
253
  6
CONTINUOUS
 10
-8.6728182695
 20
-19.1226659647
 11
-9.0501523048
 21
-19.5
  0
LINE
  5
56D
100
AcDbEntity
  8
ASSI
100
AcDbLine
 62
253
  6
CONTINUOUS
 10
-11.1
 20
-21.9000761524
 11
-11.0825449351
 21
-21.8826210875
  0
LINE
  5
56E
100
AcDbEntity
  8
0
100
AcDbLine
 62
253
  6
CONTINUOUS
 10
-11.080435117
 20
7.797789
 11
-11.0769166021
 21
7.797789
  0
LINE
  5
56F
100
AcDbEntity
  8
0
100
AcDbLine
 62
253
  6
CONTINUOUS
 10
-11.0769166021
 20
8.518725
 11
-11.0538700215
 21
8.518725
  0
LINE
  5
570
100
AcDbEntity
  8
0
100
AcDbLine
 62
253
  6
CONTINUOUS
 10
-11.0993383945
 20
8.518725
 11
-11.080435117
 21
8.518725
  0
LINE
  5
571
100
AcDbEntity
  8
0
100
AcDbLine
 62
253
  6
CONTINUOUS
 10
-11.0538700215
 20
8.720362
 11
-11.1046198575
 21
8.720362
  0
LINE
  5
572
100
AcDbEntity
  8
DRAFT
100
AcDbLine
 62
7
  6
CONTINUOUS
 10
6.0
 20
4.3
 11
5.8352304926
 21
4.4647695074
  0
LINE
  5
573
100
AcDbEntity
  8
SUPERFICI
100
AcDbLine
 62
7
  6
CONTINUOUS
 10
6.0
 20
4.3
 11
5.8352304926
 21
4.4647695074
  0
LINE
  5
574
100
AcDbEntity
  8
ASSI
100
AcDbLine
 62
253
  6
CONTINUOUS
 10
-11.0825449351
 20
21.8826210875
 11
-11.1
 21
21.9000761524
  0
LINE
  5
575
100
AcDbEntity
  8
ASSI
100
AcDbLine
 62
253
  6
CONTINUOUS
 10
-10.5826210875
 20
22.3825449351
 11
-10.6000000646
 21
22.3999999354
  0
LINE
  5
576
100
AcDbEntity
  8
SMUSSO
100
AcDbLine
 62
7
  6
CONTINUOUS
 10
5.8352304926
 20
5.0593644209
 11
6.0122176149
 21
4.7053632162
  0
LINE
  5
577
100
AcDbEntity
  8
SUPERFICI
100
AcDbLine
 62
7
  6
CONTINUOUS
 10
5.8352304926
 20
5.0593644209
 11
6.0122176149
 21
4.7053632162
  0
LINE
  5
578
100
AcDbEntity
  8
RACCORDO
100
AcDbLine
 62
7
  6
CONTINUOUS
 10
6.4127618536
 20
6.0593000519
 11
6.5810660785
 21
5.7226659647
  0
LINE
  5
579
100
AcDbEntity
  8
SUPERFICI
100
AcDbLine
 62
7
  6
CONTINUOUS
 10
6.4127618536
 20
6.0593000519
 11
6.5810660785
 21
5.7226659647
  0
LINE
  5
57A
100
AcDbEntity
  8
0
100
AcDbLine
 62
253
  6
CONTINUOUS
 10
11.0103807485
 20
-13.28333354
 11
11.0330688769
 21
-13.6547613144
  0
LINE
  5
57B
100
AcDbEntity
  8
0
100
AcDbLine
 62
253
  6
CONTINUOUS
 10
11.0103807485
 20
-4.2142857254
 11
11.0330688769
 21
-4.5857143521
  0
LINE
  5
57C
100
AcDbEntity
  8
ASSI
100
AcDbLine
 62
7
  6
CONTINUOUS
 10
9.3
 20
23.1226497308
 11
9.2868325431
 21
23.5581814706
  0
LINE
  5
57D
100
AcDbEntity
  8
ASSI
100
AcDbLine
 62
7
  6
CONTINUOUS
 10
11.1
 20
-18.5
 11
11.0896827999
 21
-18.1587444238
  0
LINE
  5
57E
100
AcDbEntity
  8
0
100
AcDbLine
 62
253
  6
CONTINUOUS
 10
11.0233453939
 20
-15.6047613144
 11
11.0330688769
 21
-15.9761909485
  0
LINE
  5
57F
100
AcDbEntity
  8
0
100
AcDbLine
 62
253
  6
CONTINUOUS
 10
9.7901489418
 20
-15.2285714507
 11
9.7775551139
 21
-14.671428588
  0
LINE
  5
580
100
AcDbEntity
  8
0
100
AcDbLine
 62
253
  6
CONTINUOUS
 10
9.7775551139
 20
-15.5071428239
 11
9.7793542316
 21
-15.6
  0
LINE
  5
581
100
AcDbEntity
  8
0
100
AcDbLine
 62
253
  6
CONTINUOUS
 10
9.7883498242
 20
-14.3
 11
9.7901489418
 21
-14.392857147
  0
LINE
  5
582
100
AcDbEntity
  8
0
100
AcDbLine
 62
253
  6
CONTINUOUS
 10
9.8859373499
 20
-17.4142857254
 11
9.8895355881
 21
-17.6
  0
LINE
  5
583
100
AcDbEntity
  8
0
100
AcDbLine
 62
253
  6
CONTINUOUS
 10
9.957112872
 20
-13.4142857254
 11
9.9607111087
 21
-13.6
  0
LINE
  5
584
100
AcDbEntity
  8
0
100
AcDbLine
 62
253
  6
CONTINUOUS
 10
9.7183487773
 20
0.7714285552
 11
9.7236077409
 21
0.5
  0
LINE
  5
585
100
AcDbEntity
  8
0
100
AcDbLine
 62
253
  6
CONTINUOUS
 10
9.8928258679
 20
0.7714285552
 11
9.8980848292
 21
0.5
  0
LINE
  5
586
100
AcDbEntity
  8
0
100
AcDbLine
 62
253
  6
CONTINUOUS
 10
9.9267423049
 20
-14.3
 11
9.9411352534
 21
-15.6
  0
LINE
  5
587
100
AcDbEntity
  8
0
100
AcDbLine
 62
253
  6
CONTINUOUS
 10
9.8055792181
 20
2.4
 11
9.8266150659
 21
0.5
  0
LINE
  5
588
100
AcDbEntity
  8
ASSI
100
AcDbLine
 62
253
  6
CONTINUOUS
 10
8.7631293807
 20
-23.8443375673
 11
8.7631293807
 21
-22.3825449351
  0
LINE
  5
589
100
AcDbEntity
  8
ASSI
100
AcDbLine
 62
253
  6
CONTINUOUS
 10
8.7631293807
 20
22.3825449351
 11
8.7631293807
 21
23.8443375673
  0
LINE
  5
58A
100
AcDbEntity
  8
ASSI
100
AcDbLine
 62
253
  6
CONTINUOUS
 10
9.0368706193
 20
-23.8443375673
 11
9.0368706193
 21
-22.3825449351
  0
LINE
  5
58B
100
AcDbEntity
  8
ASSI
100
AcDbLine
 62
253
  6
CONTINUOUS
 10
9.0368706193
 20
22.3825449351
 11
9.0368706193
 21
23.8443375673
  0
LINE
  5
58C
100
AcDbEntity
  8
ASSI
100
AcDbLine
 62
253
  6
CONTINUOUS
 10
9.2868325431
 20
-23.5581814706
 11
9.2868325431
 21
-22.3868325431
  0
LINE
  5
58D
100
AcDbEntity
  8
ASSI
100
AcDbLine
 62
253
  6
CONTINUOUS
 10
9.2868325431
 20
22.3868325431
 11
9.2868325431
 21
23.5581814706
  0
LINE
  5
58E
100
AcDbEntity
  8
ASSI
100
AcDbLine
 62
7
  6
CONTINUOUS
 10
9.3
 20
-23.1226497308
 11
9.3
 21
-22.4
  0
LINE
  5
58F
100
AcDbEntity
  8
ASSI
100
AcDbLine
 62
7
  6
CONTINUOUS
 10
9.3
 20
22.4
 11
9.3
 21
23.1226497308
  0
LINE
  5
590
100
AcDbEntity
  8
ASSI
100
AcDbLine
 62
7
  6
CONTINUOUS
 10
9.6369070392
 20
20.8956365661
 11
9.6369070392
 21
20.0130929608
  0
LINE
  5
591
100
AcDbEntity
  8
ASSI
100
AcDbLine
 62
7
  6
CONTINUOUS
 10
9.6369070392
 20
-20.0130929608
 11
9.6369070392
 21
-20.8956365661
  0
LINE
  5
592
100
AcDbEntity
  8
RACCORDO
100
AcDbLine
 62
253
  6
CONTINUOUS
 10
9.6726659647
 20
-18.1228182695
 11
9.6726659647
 21
-5.1946658545
  0
LINE
  5
593
100
AcDbEntity
  8
SUPERFICI
100
AcDbLine
 62
253
  6
CONTINUOUS
 10
9.6726659647
 20
-18.1228182695
 11
9.6726659647
 21
-5.1946658545
  0
LINE
  5
594
100
AcDbEntity
  8
RACCORDO
100
AcDbLine
 62
253
  6
CONTINUOUS
 10
9.6726659647
 20
-1.0053341455
 11
9.6726659647
 21
4.7228182695
  0
LINE
  5
595
100
AcDbEntity
  8
SUPERFICI
100
AcDbLine
 62
253
  6
CONTINUOUS
 10
9.6726659647
 20
-1.0053341455
 11
9.6726659647
 21
4.7228182695
  0
LINE
  5
596
100
AcDbEntity
  8
0
100
AcDbLine
 62
253
  6
CONTINUOUS
 10
9.7183487773
 20
1.0428571105
 11
9.7183487773
 21
0.7714285552
  0
LINE
  5
597
100
AcDbEntity
  8
0
100
AcDbLine
 62
253
  6
CONTINUOUS
 10
9.7604204728
 20
2.4
 11
9.7604204728
 21
0.5
  0
LINE
  5
598
100
AcDbEntity
  8
0
100
AcDbLine
 62
253
  6
CONTINUOUS
 10
9.7748682791
 20
-13.6
 11
9.7748682791
 21
-12.3
  0
LINE
  5
599
100
AcDbEntity
  8
0
100
AcDbLine
 62
253
  6
CONTINUOUS
 10
9.7775551139
 20
-14.671428588
 11
9.7775551139
 21
-14.485714294
  0
LINE
  5
59A
100
AcDbEntity
  8
0
100
AcDbLine
 62
253
  6
CONTINUOUS
 10
9.7901489418
 20
-15.4142857254
 11
9.7901489418
 21
-15.2285714507
  0
LINE
  5
59B
100
AcDbEntity
  8
0
100
AcDbLine
 62
253
  6
CONTINUOUS
 10
9.8045418895
 20
-15.6
 11
9.8045418895
 21
-14.3
  0
LINE
  5
59C
100
AcDbEntity
  8
0
100
AcDbLine
 62
253
  6
CONTINUOUS
 10
9.8293692267
 20
-17.6
 11
9.8293692267
 21
-16.3
  0
LINE
  5
59D
100
AcDbEntity
  8
0
100
AcDbLine
 62
253
  6
CONTINUOUS
 10
9.8300661819
 20
-11.6
 11
9.8300661819
 21
-8.0
  0
LINE
  5
59E
100
AcDbEntity
  8
0
100
AcDbLine
 62
253
  6
CONTINUOUS
 10
9.8431574806
 20
-10.2
 11
9.8431574806
 21
-12.3
  0
LINE
  5
59F
100
AcDbEntity
  8
0
100
AcDbLine
 62
253
  6
CONTINUOUS
 10
9.8475212468
 20
-8.0
 11
9.8475212468
 21
-7.0
  0
LINE
  5
5A0
100
AcDbEntity
  8
0
100
AcDbLine
 62
253
  6
CONTINUOUS
 10
9.8476509126
 20
0.5
 11
9.8476509126
 21
2.4
  0
LINE
  5
5A1
100
AcDbEntity
  8
0
100
AcDbLine
 62
253
  6
CONTINUOUS
 10
9.8527577663
 20
-16.3
 11
9.8527577663
 21
-17.6
  0
LINE
  5
5A2
100
AcDbEntity
  8
0
100
AcDbLine
 62
253
  6
CONTINUOUS
 10
9.8536305196
 20
-14.3
 11
9.8536305196
 21
-10.1
  0
LINE
  5
5A3
100
AcDbEntity
  8
0
100
AcDbLine
 62
253
  6
CONTINUOUS
 10
9.8641035585
 20
-16.3
 11
9.8641035585
 21
-10.1
  0
LINE
  5
5A4
100
AcDbEntity
  8
0
100
AcDbLine
 62
253
  6
CONTINUOUS
 10
9.8745765975
 20
-10.1
 11
9.8745765975
 21
-16.3
  0
LINE
  5
5A5
100
AcDbEntity
  8
0
100
AcDbLine
 62
253
  6
CONTINUOUS
 10
9.8850496364
 20
-10.1
 11
9.8850496364
 21
-14.3
  0
LINE
  5
5A6
100
AcDbEntity
  8
0
100
AcDbLine
 62
253
  6
CONTINUOUS
 10
9.8859373499
 20
-17.2285714507
 11
9.8859373499
 21
-17.4142857254
  0
LINE
  5
5A7
100
AcDbEntity
  8
0
100
AcDbLine
 62
253
  6
CONTINUOUS
 10
9.8911589092
 20
-7.0
 11
9.8911589092
 21
-8.0
  0
LINE
  5
5A8
100
AcDbEntity
  8
0
100
AcDbLine
 62
253
  6
CONTINUOUS
 10
9.8928258679
 20
1.0428571105
 11
9.8928258679
 21
0.7714285552
  0
LINE
  5
5A9
100
AcDbEntity
  8
0
100
AcDbLine
 62
253
  6
CONTINUOUS
 10
9.8955226754
 20
-12.3
 11
9.8955226754
 21
-10.2
  0
LINE
  5
5AA
100
AcDbEntity
  8
0
100
AcDbLine
 62
253
  6
CONTINUOUS
 10
9.9086139741
 20
-8.0
 11
9.9086139741
 21
-11.6
  0
LINE
  5
5AB
100
AcDbEntity
  8
0
100
AcDbLine
 62
253
  6
CONTINUOUS
 10
9.9147232468
 20
-16.3
 11
9.9147232468
 21
-17.6
  0
LINE
  5
5AC
100
AcDbEntity
  8
0
100
AcDbLine
 62
253
  6
CONTINUOUS
 10
9.9555282011
 20
-15.6
 11
9.9555282011
 21
-14.3
  0
LINE
  5
5AD
100
AcDbEntity
  8
0
100
AcDbLine
 62
253
  6
CONTINUOUS
 10
9.957112872
 20
-13.2285714507
 11
9.957112872
 21
-13.4142857254
  0
LINE
  5
5AE
100
AcDbEntity
  8
RACCORDO
100
AcDbLine
 62
7
  6
CONTINUOUS
 10
10.05
 20
5.1001523048
 11
10.05
 21
-18.5001523048
  0
LINE
  5
5AF
100
AcDbEntity
  8
SUPERFICI
100
AcDbLine
 62
7
  6
CONTINUOUS
 10
10.05
 20
5.1001523048
 11
10.05
 21
-18.5001523048
  0
LINE
  5
5B0
100
AcDbEntity
  8
ASSI
100
AcDbLine
 62
253
  6
CONTINUOUS
 10
10.3860054824
 20
24.2368706193
 11
10.3860054824
 21
23.844250724
  0
LINE
  5
5B1
100
AcDbEntity
  8
ASSI
100
AcDbLine
 62
253
  6
CONTINUOUS
 10
10.3860054824
 20
-23.844357602
 11
10.3860054824
 21
-24.2368706193
  0
LINE
  5
5B2
100
AcDbEntity
  8
ASSI
100
AcDbLine
 62
253
  6
CONTINUOUS
 10
10.5859750215
 20
24.2368706193
 11
10.5859750215
 21
23.8443375673
  0
LINE
  5
5B3
100
AcDbEntity
  8
ASSI
100
AcDbLine
 62
253
  6
CONTINUOUS
 10
10.5859750215
 20
-23.8443375673
 11
10.5859750215
 21
-24.2368706193
  0
LINE
  5
5B4
100
AcDbEntity
  8
ASSI
100
AcDbLine
 62
7
  6
CONTINUOUS
 10
10.6
 20
22.3999997358
 11
10.6
 21
24.300030461
  0
LINE
  5
5B5
100
AcDbEntity
  8
ASSI
100
AcDbLine
 62
7
  6
CONTINUOUS
 10
10.6000000646
 20
-22.3999999296
 11
10.6
 21
-24.300030461
  0
LINE
  5
5B6
100
AcDbEntity
  8
0
100
AcDbLine
 62
253
  6
CONTINUOUS
 10
9.8055792181
 20
0.5
 11
9.8266150659
 21
2.4
  0
LINE
  5
5B7
100
AcDbEntity
  8
0
100
AcDbLine
 62
253
  6
CONTINUOUS
 10
9.9267423049
 20
-15.6
 11
9.9411352534
 21
-14.3
  0
LINE
  5
5B8
100
AcDbEntity
  8
0
100
AcDbLine
 62
253
  6
CONTINUOUS
 10
9.7314961841
 20
0.5
 11
9.7367551455
 21
0.9071428895
  0
LINE
  5
5B9
100
AcDbEntity
  8
0
100
AcDbLine
 62
253
  6
CONTINUOUS
 10
9.9059732719
 20
0.5
 11
9.9112322338
 21
0.9071428895
  0
LINE
  5
5BA
100
AcDbEntity
  8
0
100
AcDbLine
 62
253
  6
CONTINUOUS
 10
9.894932944
 20
-17.6
 11
9.8985311807
 21
-17.3214285493
  0
LINE
  5
5BB
100
AcDbEntity
  8
0
100
AcDbLine
 62
253
  6
CONTINUOUS
 10
9.9661084642
 20
-13.6
 11
9.9697067013
 21
-13.3214285493
  0
LINE
  5
5BC
100
AcDbEntity
  8
0
100
AcDbLine
 62
253
  6
CONTINUOUS
 10
9.7367551455
 20
2.4
 11
9.7183487773
 21
1.0428571105
  0
LINE
  5
5BD
100
AcDbEntity
  8
0
100
AcDbLine
 62
253
  6
CONTINUOUS
 10
9.9112322338
 20
2.4
 11
9.8928258679
 21
1.0428571105
  0
LINE
  5
5BE
100
AcDbEntity
  8
0
100
AcDbLine
 62
253
  6
CONTINUOUS
 10
9.8985311807
 20
-16.3
 11
9.8859373499
 21
-17.2285714507
  0
LINE
  5
5BF
100
AcDbEntity
  8
0
100
AcDbLine
 62
253
  6
CONTINUOUS
 10
9.9697067013
 20
-12.3
 11
9.957112872
 21
-13.2285714507
  0
LINE
  5
5C0
100
AcDbEntity
  8
0
100
AcDbLine
 62
253
  6
CONTINUOUS
 10
9.7775551139
 20
-14.485714294
 11
9.7811533492
 21
-14.3
  0
LINE
  5
5C1
100
AcDbEntity
  8
0
100
AcDbLine
 62
253
  6
CONTINUOUS
 10
9.786550705
 20
-15.6
 11
9.7901489418
 21
-15.4142857254
  0
LINE
  5
5C2
100
AcDbEntity
  8
0
100
AcDbLine
 62
253
  6
CONTINUOUS
 10
9.8365657002
 20
-17.2285714507
 11
9.8293692267
 21
-17.6
  0
LINE
  5
5C3
100
AcDbEntity
  8
ASSI
100
AcDbLine
 62
7
  6
CONTINUOUS
 10
9.2868325431
 20
-23.5581814706
 11
9.3
 21
-23.1226497308
  0
LINE
  5
5C4
100
AcDbEntity
  8
ASSI
100
AcDbLine
 62
7
  6
CONTINUOUS
 10
11.0896827999
 20
18.1587444238
 11
11.1
 21
18.5
  0
LINE
  5
5C5
100
AcDbEntity
  8
ASSI
100
AcDbLine
 62
7
  6
CONTINUOUS
 10
-9.3
 20
-22.4
 11
-9.2868325431
 21
-22.3868325431
  0
LINE
  5
5C6
100
AcDbEntity
  8
DRAFT
100
AcDbLine
 62
7
  6
CONTINUOUS
 10
-6.5
 20
-19.7
 11
-6.5872686779
 21
-19.7872686779
  0
LINE
  5
5C7
100
AcDbEntity
  8
DRAFT
100
AcDbLine
 62
7
  6
CONTINUOUS
 10
-7.4855298181
 20
-20.85
 11
-7.4
 21
-20.7644701819
  0
LINE
  5
5C8
100
AcDbEntity
  8
SUPERFICI
100
AcDbLine
 62
7
  6
CONTINUOUS
 10
-7.4855298181
 20
-20.85
 11
-7.4
 21
-20.7644701819
  0
LINE
  5
5C9
100
AcDbEntity
  8
ASSI
100
AcDbLine
 62
253
  6
CONTINUOUS
 10
-10.6
 20
-24.300030461
 11
-10.5868325431
 21
-24.2868630041
  0
LINE
  5
5CA
100
AcDbEntity
  8
DRAFT
100
AcDbLine
 62
7
  6
CONTINUOUS
 10
-5.75
 20
-19.7
 11
-5.6609791689
 21
-19.6109791689
  0
LINE
  5
5CB
100
AcDbEntity
  8
SUPERFICI
100
AcDbLine
 62
7
  6
CONTINUOUS
 10
-5.75
 20
-19.7
 11
-5.6609791689
 21
-19.6109791689
  0
LINE
  5
5CC
100
AcDbEntity
  8
ASSI
100
AcDbLine
 62
253
  6
CONTINUOUS
 10
-10.400030461
 20
-24.5
 11
-10.3868630041
 21
-24.4868325431
  0
LINE
  5
5CD
100
AcDbEntity
  8
DRAFT
100
AcDbLine
 62
7
  6
CONTINUOUS
 10
-5.75
 20
-19.9
 11
-5.6609791689
 21
-19.8109791689
  0
LINE
  5
5CE
100
AcDbEntity
  8
SUPERFICI
100
AcDbLine
 62
7
  6
CONTINUOUS
 10
-5.75
 20
-19.9
 11
-5.6609791689
 21
-19.8109791689
  0
LINE
  5
5CF
100
AcDbEntity
  8
0
100
AcDbLine
 62
7
  6
CONTINUOUS
 10
8.4
 20
-4.8277217249
 11
8.5446758185
 21
-4.7218131513
  0
LINE
  5
5D0
100
AcDbEntity
  8
SUPERFICI
100
AcDbLine
 62
7
  6
CONTINUOUS
 10
8.4
 20
-4.8277217249
 11
8.5446758185
 21
-4.7218131513
  0
LINE
  5
5D1
100
AcDbEntity
  8
0
100
AcDbLine
 62
253
  6
CONTINUOUS
 10
-11.1043499773
 20
9.1517800542
 11
-11.1008314602
 21
9.1517800542
  0
LINE
  5
5D2
100
AcDbEntity
  8
0
100
AcDbLine
 62
253
  6
CONTINUOUS
 10
-11.0278331549
 20
10.1428571671
 11
-10.9946735827
 21
10.1428571671
  0
LINE
  5
5D3
100
AcDbEntity
  8
0
100
AcDbLine
 62
253
  6
CONTINUOUS
 10
-11.0230960735
 20
10.6857143342
 11
-11.0136219105
 21
10.6857143342
  0
LINE
  5
5D4
100
AcDbEntity
  8
ASSI
100
AcDbLine
 62
7
  6
CONTINUOUS
 10
-9.3
 20
22.4
 11
-9.2868325431
 21
22.3868325431
  0
LINE
  5
5D5
100
AcDbEntity
  8
DRAFT
100
AcDbLine
 62
7
  6
CONTINUOUS
 10
-6.5000002033
 20
19.7000002033
 11
-6.5872686779
 21
19.7872686779
  0
LINE
  5
5D6
100
AcDbEntity
  8
DRAFT
100
AcDbLine
 62
7
  6
CONTINUOUS
 10
-7.4855298181
 20
20.85
 11
-7.4
 21
20.7644701819
  0
LINE
  5
5D7
100
AcDbEntity
  8
SUPERFICI
100
AcDbLine
 62
7
  6
CONTINUOUS
 10
-7.4855298181
 20
20.85
 11
-7.4
 21
20.7644701819
  0
LINE
  5
5D8
100
AcDbEntity
  8
ASSI
100
AcDbLine
 62
253
  6
CONTINUOUS
 10
-10.5868325431
 20
24.286863004
 11
-10.6
 21
24.300030461
  0
LINE
  5
5D9
100
AcDbEntity
  8
DRAFT
100
AcDbLine
 62
7
  6
CONTINUOUS
 10
-5.75
 20
19.7
 11
-5.6609791689
 21
19.6109791689
  0
LINE
  5
5DA
100
AcDbEntity
  8
SUPERFICI
100
AcDbLine
 62
7
  6
CONTINUOUS
 10
-5.75
 20
19.7
 11
-5.6609791689
 21
19.6109791689
  0
LINE
  5
5DB
100
AcDbEntity
  8
ASSI
100
AcDbLine
 62
253
  6
CONTINUOUS
 10
-10.3868630041
 20
24.4868325431
 11
-10.400030461
 21
24.5
  0
LINE
  5
5DC
100
AcDbEntity
  8
DRAFT
100
AcDbLine
 62
7
  6
CONTINUOUS
 10
-5.6609791689
 20
19.8109791689
 11
-5.75
 21
19.9
  0
LINE
  5
5DD
100
AcDbEntity
  8
SUPERFICI
100
AcDbLine
 62
7
  6
CONTINUOUS
 10
-5.6609791689
 20
19.8109791689
 11
-5.75
 21
19.9
  0
LINE
  5
5DE
100
AcDbEntity
  8
ASSI
100
AcDbLine
 62
7
  6
CONTINUOUS
 10
11.1226506512
 20
18.0005957871
 11
11.1
 21
18.5
  0
LINE
  5
5DF
100
AcDbEntity
  8
0
100
AcDbLine
 62
253
  6
CONTINUOUS
 10
11.0201042322
 20
-3.471428588
 11
11.0330688769
 21
-3.8428571761
  0
LINE
  5
5E0
100
AcDbEntity
  8
ASSI
100
AcDbLine
 62
253
  6
CONTINUOUS
 10
10.3864421556
 20
23.6278214068
 11
10.4017150409
 21
23.1226497308
  0
LINE
  5
5E1
100
AcDbEntity
  8
ASSI
100
AcDbLine
 62
253
  6
CONTINUOUS
 10
10.5864113981
 20
23.8010362971
 11
10.6
 21
23.3515746082
  0
LINE
  5
5E2
100
AcDbEntity
  8
0
100
AcDbLine
 62
253
  6
CONTINUOUS
 10
11.0136219098
 20
-5.9785712957
 11
11.0103807485
 21
-5.7928570986
  0
LINE
  5
5E3
100
AcDbEntity
  8
RACCORDO
100
AcDbLine
 62
7
  6
CONTINUOUS
 10
10.9754493507
 20
17.5993978025
 11
10.9754493507
 21
-17.5993978025
  0
LINE
  5
5E4
100
AcDbEntity
  8
SUPERFICI
100
AcDbLine
 62
7
  6
CONTINUOUS
 10
10.9754493507
 20
17.5993978025
 11
10.9754493507
 21
-17.5993978025
  0
LINE
  5
5E5
100
AcDbEntity
  8
0
100
AcDbLine
 62
253
  6
CONTINUOUS
 10
11.0103807485
 20
-6.5047619343
 11
11.0103807485
 21
-7.0619048357
  0
LINE
  5
5E6
100
AcDbEntity
  8
0
100
AcDbLine
 62
253
  6
CONTINUOUS
 10
11.0103807485
 20
-14.3976193428
 11
11.0103807485
 21
-14.8619045258
  0
LINE
  5
5E7
100
AcDbEntity
  8
0
100
AcDbLine
 62
253
  6
CONTINUOUS
 10
11.0103807485
 20
-5.7928570986
 11
11.0103807485
 21
-5.3285714507
  0
LINE
  5
5E8
100
AcDbEntity
  8
0
100
AcDbLine
 62
253
  6
CONTINUOUS
 10
11.0168630712
 20
-4.3380952418
 11
11.0168630712
 21
-4.833333385
  0
LINE
  5
5E9
100
AcDbEntity
  8
0
100
AcDbLine
 62
253
  6
CONTINUOUS
 10
11.0168630712
 20
-13.4071425915
 11
11.0168630712
 21
-13.9023806572
  0
LINE
  5
5EA
100
AcDbEntity
  8
0
100
AcDbLine
 62
253
  6
CONTINUOUS
 10
11.0233453939
 20
-6.8761903286
 11
11.0233453939
 21
-6.5047619343
  0
LINE
  5
5EB
100
AcDbEntity
  8
0
100
AcDbLine
 62
253
  6
CONTINUOUS
 10
11.0330688769
 20
-5.3285714507
 11
11.0330688769
 21
-5.7928570986
  0
LINE
  5
5EC
100
AcDbEntity
  8
0
100
AcDbLine
 62
253
  6
CONTINUOUS
 10
11.0330688769
 20
-6.5047619343
 11
11.0330688769
 21
-7.0619048357
  0
LINE
  5
5ED
100
AcDbEntity
  8
0
100
AcDbLine
 62
253
  6
CONTINUOUS
 10
11.0330688769
 20
-12.1690477371
 11
11.0330688769
 21
-12.9119045258
  0
LINE
  5
5EE
100
AcDbEntity
  8
ASSI
100
AcDbLine
 62
7
  6
CONTINUOUS
 10
11.0738174026
 20
18.5638400026
 11
11.0738174026
 21
18.218029465
  0
LINE
  5
5EF
100
AcDbEntity
  8
ASSI
100
AcDbLine
 62
7
  6
CONTINUOUS
 10
11.0738174026
 20
-18.218029465
 11
11.0738174026
 21
-18.5638400026
  0
LINE
  5
5F0
100
AcDbEntity
  8
ASSI
100
AcDbLine
 62
7
  6
CONTINUOUS
 10
11.0825449351
 20
21.8826210875
 11
11.0825449351
 21
18.5674550649
  0
LINE
  5
5F1
100
AcDbEntity
  8
ASSI
100
AcDbLine
 62
7
  6
CONTINUOUS
 10
11.0825449351
 20
-18.5674550649
 11
11.0825449351
 21
-21.8826210875
  0
LINE
  5
5F2
100
AcDbEntity
  8
ASSI
100
AcDbLine
 62
7
  6
CONTINUOUS
 10
11.1
 20
21.9000761524
 11
11.1
 21
18.5
  0
LINE
  5
5F3
100
AcDbEntity
  8
ASSI
100
AcDbLine
 62
7
  6
CONTINUOUS
 10
11.1
 20
-21.9000761524
 11
11.1
 21
-18.5
  0
LINE
  5
5F4
100
AcDbEntity
  8
RACCORDO
100
AcDbLine
 62
7
  6
CONTINUOUS
 10
11.15
 20
-17.6716990487
 11
11.15
 21
17.6716990487
  0
LINE
  5
5F5
100
AcDbEntity
  8
SUPERFICI
100
AcDbLine
 62
7
  6
CONTINUOUS
 10
11.15
 20
-17.6716990487
 11
11.15
 21
17.6716990487
  0
LINE
  5
5F6
100
AcDbEntity
  8
0
100
AcDbLine
 62
253
  6
CONTINUOUS
 10
11.0330688769
 20
-5.7928570986
 11
11.0298277159
 21
-5.9785712957
  0
LINE
  5
5F7
100
AcDbEntity
  8
0
100
AcDbLine
 62
253
  6
CONTINUOUS
 10
11.0330688769
 20
-15.2333329201
 11
11.0233453939
 21
-15.6047613144
  0
LINE
  5
5F8
100
AcDbEntity
  8
ASSI
100
AcDbLine
 62
253
  6
CONTINUOUS
 10
10.4017150409
 20
-23.1226497308
 11
10.3864405812
 21
-23.6278734826
  0
LINE
  5
5F9
100
AcDbEntity
  8
ASSI
100
AcDbLine
 62
253
  6
CONTINUOUS
 10
10.6
 20
-23.3515746082
 11
10.5864113981
 21
-23.8010362971
  0
LINE
  5
5FA
100
AcDbEntity
  8
0
100
AcDbLine
 62
253
  6
CONTINUOUS
 10
11.0330688769
 20
-3.1
 11
11.0201042322
 21
-3.471428588
  0
LINE
  5
5FB
100
AcDbEntity
  8
0
100
AcDbLine
 62
253
  6
CONTINUOUS
 10
11.0330688769
 20
-9.2904761314
 11
11.0103807485
 21
-9.9404761314
  0
LINE
  5
5FC
100
AcDbEntity
  8
ASSI
100
AcDbLine
 62
7
  6
CONTINUOUS
 10
11.1
 20
-18.5
 11
11.1226506512
 21
-18.0005957871
  0
LINE
  5
5FD
100
AcDbEntity
  8
0
100
AcDbLine
 62
253
  6
CONTINUOUS
 10
11.0330688769
 20
-4.5857143521
 11
11.0103807485
 21
-4.9571429014
  0
LINE
  5
5FE
100
AcDbEntity
  8
0
100
AcDbLine
 62
253
  6
CONTINUOUS
 10
11.0330688769
 20
-13.6547613144
 11
11.0103807485
 21
-14.0261909485
  0
LINE
  5
5FF
100
AcDbEntity
  8
ASSI
100
AcDbLine
 62
7
  6
CONTINUOUS
 10
-4.45
 20
-22.4
 11
-4.3520586235
 21
-22.3020586235
  0
LINE
  5
600
100
AcDbEntity
  8
RACCORDO
100
AcDbLine
 62
253
  6
CONTINUOUS
 10
-11.15
 20
-17.6716990487
 11
-10.9754493507
 21
-17.5993978025
  0
LINE
  5
601
100
AcDbEntity
  8
SUPERFICI
100
AcDbLine
 62
253
  6
CONTINUOUS
 10
-11.15
 20
-17.6716990487
 11
-10.9754493507
 21
-17.5993978025
  0
LINE
  5
602
100
AcDbEntity
  8
ASSI
100
AcDbLine
 62
7
  6
CONTINUOUS
 10
-11.0738174026
 20
-18.5638400026
 11
-11.0825449351
 21
-18.5674550649
  0
LINE
  5
603
100
AcDbEntity
  8
0
100
AcDbLine
 62
253
  6
CONTINUOUS
 10
-11.1045175322
 20
11.630715
 11
-11.0538700215
 21
11.630715
  0
LINE
  5
604
100
AcDbEntity
  8
0
100
AcDbLine
 62
253
  6
CONTINUOUS
 10
-11.0136219105
 20
11.635714221
 11
-11.0230960735
 21
11.635714221
  0
LINE
  5
605
100
AcDbEntity
  8
0
100
AcDbLine
 62
253
  6
CONTINUOUS
 10
-11.0538700215
 20
11.832352
 11
-11.1045175322
 21
11.832352
  0
LINE
  5
606
100
AcDbEntity
  8
0
100
AcDbLine
 62
253
  6
CONTINUOUS
 10
-11.0159904503
 20
12.9476189613
 11
-11.0230960735
 21
12.9476189613
  0
LINE
  5
607
100
AcDbEntity
  8
RACCORDO
100
AcDbLine
 62
253
  6
CONTINUOUS
 10
-10.9754493507
 20
17.5993978025
 11
-11.15
 21
17.6716990487
  0
LINE
  5
608
100
AcDbEntity
  8
SUPERFICI
100
AcDbLine
 62
253
  6
CONTINUOUS
 10
-10.9754493507
 20
17.5993978025
 11
-11.15
 21
17.6716990487
  0
LINE
  5
609
100
AcDbEntity
  8
ASSI
100
AcDbLine
 62
7
  6
CONTINUOUS
 10
-11.0738174026
 20
18.5638400026
 11
-11.0825449351
 21
18.5674550649
  0
LINE
  5
60A
100
AcDbEntity
  8
ASSI
100
AcDbLine
 62
7
  6
CONTINUOUS
 10
-4.45
 20
22.4
 11
-4.3520586235
 21
22.3020586235
  0
LINE
  5
60B
100
AcDbEntity
  8
ASSI
100
AcDbLine
 62
7
  6
CONTINUOUS
 10
7.3037800478
 20
-22.2164171854
 11
7.2551134101
 21
-22.3825449351
  0
LINE
  5
60C
100
AcDbEntity
  8
ASSI
100
AcDbLine
 62
253
  6
CONTINUOUS
 10
-4.45
 20
-23.7500380762
 11
-4.351752949
 21
-23.6517910252
  0
LINE
  5
60D
100
AcDbEntity
  8
ASSI
100
AcDbLine
 62
253
  6
CONTINUOUS
 10
-4.2000380762
 20
-24.0
 11
-4.1017910252
 21
-23.901752949
  0
LINE
  5
60E
100
AcDbEntity
  8
RACCORDO
100
AcDbLine
 62
253
  6
CONTINUOUS
 10
-10.5643027805
 20
-19.0856972195
 11
-10.3897521312
 21
-19.0133959733
  0
LINE
  5
60F
100
AcDbEntity
  8
SUPERFICI
100
AcDbLine
 62
253
  6
CONTINUOUS
 10
-10.5643027805
 20
-19.0856972195
 11
-10.3897521312
 21
-19.0133959733
  0
LINE
  5
610
100
AcDbEntity
  8
0
100
AcDbLine
 62
253
  6
CONTINUOUS
 10
-10.9970421237
 20
12.9928571105
 11
-11.0088848281
 21
12.9928571105
  0
LINE
  5
611
100
AcDbEntity
  8
0
100
AcDbLine
 62
253
  6
CONTINUOUS
 10
-11.1045546478
 20
14.099481
 11
-11.0539971429
 21
14.099481
  0
LINE
  5
612
100
AcDbEntity
  8
0
100
AcDbLine
 62
253
  6
CONTINUOUS
 10
-11.0575156578
 20
14.301118
 11
-11.1010361329
 21
14.301118
  0
LINE
  5
613
100
AcDbEntity
  8
0
100
AcDbLine
 62
253
  6
CONTINUOUS
 10
-11.018358992
 20
14.485714221
 11
-11.0230960735
 21
14.485714221
  0
LINE
  5
614
100
AcDbEntity
  8
0
100
AcDbLine
 62
253
  6
CONTINUOUS
 10
-11.0804334767
 20
14.940014
 11
-11.0769347673
 21
14.940014
  0
LINE
  5
615
100
AcDbEntity
  8
RACCORDO
100
AcDbLine
 62
253
  6
CONTINUOUS
 10
-10.3897521312
 20
19.0133959733
 11
-10.5643027805
 21
19.0856972195
  0
LINE
  5
616
100
AcDbEntity
  8
SUPERFICI
100
AcDbLine
 62
253
  6
CONTINUOUS
 10
-10.3897521312
 20
19.0133959733
 11
-10.5643027805
 21
19.0856972195
  0
LINE
  5
617
100
AcDbEntity
  8
ASSI
100
AcDbLine
 62
253
  6
CONTINUOUS
 10
-4.351752949
 20
23.6517910252
 11
-4.45
 21
23.7500380762
  0
LINE
  5
618
100
AcDbEntity
  8
ASSI
100
AcDbLine
 62
253
  6
CONTINUOUS
 10
-4.1017910252
 20
23.901752949
 11
-4.2000380762
 21
24.0
  0
LINE
  5
619
100
AcDbEntity
  8
ASSI
100
AcDbLine
 62
7
  6
CONTINUOUS
 10
7.3037800478
 20
22.2164171854
 11
7.2551134101
 21
22.3825449351
  0
LINE
  5
61A
100
AcDbEntity
  8
RACCORDO
100
AcDbLine
 62
7
  6
CONTINUOUS
 10
-9.4458719129
 20
-20.8319711233
 11
-9.6369070392
 21
-20.8956365661
  0
LINE
  5
61B
100
AcDbEntity
  8
0
100
AcDbLine
 62
253
  6
CONTINUOUS
 10
-11.0278331549
 20
15.571428442
 11
-10.9946735827
 21
15.571428442
  0
LINE
  5
61C
100
AcDbEntity
  8
0
100
AcDbLine
 62
253
  6
CONTINUOUS
 10
-11.0769347673
 20
15.940301
 11
-11.0804334767
 21
15.940301
  0
LINE
  5
61D
100
AcDbEntity
  8
0
100
AcDbLine
 62
253
  6
CONTINUOUS
 10
-11.1010361329
 20
15.995334
 11
-11.1045546478
 21
15.995334
  0
LINE
  5
61E
100
AcDbEntity
  8
0
100
AcDbLine
 62
253
  6
CONTINUOUS
 10
-11.0539971429
 20
16.02
 11
-11.0575156578
 21
16.02
  0
LINE
  5
61F
100
AcDbEntity
  8
RACCORDO
100
AcDbLine
 62
7
  6
CONTINUOUS
 10
-9.4458719129
 20
20.8319711233
 11
-9.6369070392
 21
20.8956365661
  0
LINE
  5
620
100
AcDbEntity
  8
ASSI
100
AcDbLine
 62
253
  6
CONTINUOUS
 10
0.8165255932
 20
-23.733512483
 11
0.8
 21
-23.7500380762
  0
LINE
  5
621
100
AcDbEntity
  8
ASSI
100
AcDbLine
 62
253
  6
CONTINUOUS
 10
1.0663732129
 20
-23.9835887109
 11
1.0499619238
 21
-24.0
  0
LINE
  5
622
100
AcDbEntity
  8
RACCORDO
100
AcDbLine
 62
7
  6
CONTINUOUS
 10
5.1254493507
 20
-21.0745506493
 11
5.4396649246
 21
-20.7603350754
  0
LINE
  5
623
100
AcDbEntity
  8
DRAFT
100
AcDbLine
 62
7
  6
CONTINUOUS
 10
7.3
 20
-19.7
 11
7.2127313221
 21
-19.7872686779
  0
LINE
  5
624
100
AcDbEntity
  8
DRAFT
100
AcDbLine
 62
7
  6
CONTINUOUS
 10
7.4
 20
-19.7
 11
7.4890208311
 21
-19.6109791689
  0
LINE
  5
625
100
AcDbEntity
  8
SUPERFICI
100
AcDbLine
 62
7
  6
CONTINUOUS
 10
7.4
 20
-19.7
 11
7.4890208311
 21
-19.6109791689
  0
LINE
  5
626
100
AcDbEntity
  8
ASSI
100
AcDbLine
 62
253
  6
CONTINUOUS
 10
0.8
 20
23.7500380762
 11
0.8165255932
 21
23.733512483
  0
LINE
  5
627
100
AcDbEntity
  8
ASSI
100
AcDbLine
 62
253
  6
CONTINUOUS
 10
1.0499619238
 20
24.0
 11
1.0663732129
 21
23.9835887109
  0
LINE
  5
628
100
AcDbEntity
  8
RACCORDO
100
AcDbLine
 62
7
  6
CONTINUOUS
 10
5.1254493507
 20
21.0745506493
 11
5.4396649246
 21
20.7603350754
  0
LINE
  5
629
100
AcDbEntity
  8
DRAFT
100
AcDbLine
 62
7
  6
CONTINUOUS
 10
7.2127313221
 20
19.7872686779
 11
7.3
 21
19.7
  0
LINE
  5
62A
100
AcDbEntity
  8
DRAFT
100
AcDbLine
 62
7
  6
CONTINUOUS
 10
7.4
 20
19.7
 11
7.4890208311
 21
19.6109791689
  0
LINE
  5
62B
100
AcDbEntity
  8
SUPERFICI
100
AcDbLine
 62
7
  6
CONTINUOUS
 10
7.4
 20
19.7
 11
7.4890208311
 21
19.6109791689
  0
LINE
  5
62C
100
AcDbEntity
  8
DRAFT
100
AcDbLine
 62
7
  6
CONTINUOUS
 10
7.4
 20
-20.7644701819
 11
7.4890208311
 21
-20.6754493507
  0
LINE
  5
62D
100
AcDbEntity
  8
SUPERFICI
100
AcDbLine
 62
7
  6
CONTINUOUS
 10
7.4
 20
-20.7644701819
 11
7.4890208311
 21
-20.6754493507
  0
LINE
  5
62E
100
AcDbEntity
  8
RACCORDO
100
AcDbLine
 62
7
  6
CONTINUOUS
 10
7.3690382379
 20
-20.8309617621
 11
7.2127313221
 21
-20.9872686779
  0
LINE
  5
62F
100
AcDbEntity
  8
RACCORDO
100
AcDbLine
 62
7
  6
CONTINUOUS
 10
10.3897521312
 20
-19.0133959733
 11
8.7276987537
 21
-20.6754493507
  0
LINE
  5
630
100
AcDbEntity
  8
SUPERFICI
100
AcDbLine
 62
7
  6
CONTINUOUS
 10
10.3897521312
 20
-19.0133959733
 11
8.7276987537
 21
-20.6754493507
  0
LINE
  5
631
100
AcDbEntity
  8
ASSI
100
AcDbLine
 62
7
  6
CONTINUOUS
 10
10.6893878075
 20
-18.9482695977
 11
11.0738174026
 21
-18.5638400026
  0
LINE
  5
632
100
AcDbEntity
  8
ASSI
100
AcDbLine
 62
7
  6
CONTINUOUS
 10
7.2551134101
 20
-22.3825449351
 11
8.2325449351
 21
-21.4051134101
  0
LINE
  5
633
100
AcDbEntity
  8
RACCORDO
100
AcDbLine
 62
7
  6
CONTINUOUS
 10
8.8
 20
-20.85
 11
10.5643027805
 21
-19.0856972195
  0
LINE
  5
634
100
AcDbEntity
  8
SUPERFICI
100
AcDbLine
 62
7
  6
CONTINUOUS
 10
8.8
 20
-20.85
 11
10.5643027805
 21
-19.0856972195
  0
LINE
  5
635
100
AcDbEntity
  8
ASSI
100
AcDbLine
 62
7
  6
CONTINUOUS
 10
10.5643027805
 20
-19.0856972195
 11
11.0825449351
 21
-18.5674550649
  0
LINE
  5
636
100
AcDbEntity
  8
ASSI
100
AcDbLine
 62
7
  6
CONTINUOUS
 10
5.1254493507
 20
-20.0872686779
 11
5.4501643029
 21
-19.9249235667
  0
LINE
  5
637
100
AcDbEntity
  8
ASSI
100
AcDbLine
 62
253
  6
CONTINUOUS
 10
-3.0573474057
 20
21.2209325918
 11
-3.3073093295
 21
21.2165694902
  0
LINE
  5
638
100
AcDbEntity
  8
DRAFT
100
AcDbLine
 62
7
  6
CONTINUOUS
 10
7.4890208311
 20
19.6109791689
 11
5.6609791689
 21
19.6109791689
  0
LINE
  5
639
100
AcDbEntity
  8
SUPERFICI
100
AcDbLine
 62
7
  6
CONTINUOUS
 10
7.4890208311
 20
19.6109791689
 11
5.6609791689
 21
19.6109791689
  0
LINE
  5
63A
100
AcDbEntity
  8
DRAFT
100
AcDbLine
 62
7
  6
CONTINUOUS
 10
-5.6609791689
 20
19.6109791689
 11
-7.4890208311
 21
19.6109791689
  0
LINE
  5
63B
100
AcDbEntity
  8
SUPERFICI
100
AcDbLine
 62
7
  6
CONTINUOUS
 10
-5.6609791689
 20
19.6109791689
 11
-7.4890208311
 21
19.6109791689
  0
LINE
  5
63C
100
AcDbEntity
  8
DRAFT
100
AcDbLine
 62
7
  6
CONTINUOUS
 10
-7.4
 20
19.7
 11
-5.75
 21
19.7
  0
LINE
  5
63D
100
AcDbEntity
  8
SUPERFICI
100
AcDbLine
 62
7
  6
CONTINUOUS
 10
-7.4
 20
19.7
 11
-5.75
 21
19.7
  0
LINE
  5
63E
100
AcDbEntity
  8
DRAFT
100
AcDbLine
 62
7
  6
CONTINUOUS
 10
5.75
 20
19.7
 11
7.4
 21
19.7
  0
LINE
  5
63F
100
AcDbEntity
  8
SUPERFICI
100
AcDbLine
 62
7
  6
CONTINUOUS
 10
5.75
 20
19.7
 11
7.4
 21
19.7
  0
LINE
  5
640
100
AcDbEntity
  8
ASSI
100
AcDbLine
 62
7
  6
CONTINUOUS
 10
7.2127313221
 20
19.7872686779
 11
6.5872686779
 21
19.7872686779
  0
LINE
  5
641
100
AcDbEntity
  8
ASSI
100
AcDbLine
 62
7
  6
CONTINUOUS
 10
-6.5872686779
 20
19.7872686779
 11
-7.2127313221
 21
19.7872686779
  0
LINE
  5
642
100
AcDbEntity
  8
DRAFT
100
AcDbLine
 62
7
  6
CONTINUOUS
 10
5.6609791689
 20
19.8109791689
 11
-5.6609791689
 21
19.8109791689
  0
LINE
  5
643
100
AcDbEntity
  8
SUPERFICI
100
AcDbLine
 62
7
  6
CONTINUOUS
 10
5.6609791689
 20
19.8109791689
 11
-5.6609791689
 21
19.8109791689
  0
LINE
  5
644
100
AcDbEntity
  8
RACCORDO
100
AcDbLine
 62
7
  6
CONTINUOUS
 10
2.4
 20
19.8843869511
 11
-2.4
 21
19.8843869511
  0
LINE
  5
645
100
AcDbEntity
  8
SUPERFICI
100
AcDbLine
 62
7
  6
CONTINUOUS
 10
2.4
 20
19.8843869511
 11
-2.4
 21
19.8843869511
  0
LINE
  5
646
100
AcDbEntity
  8
RACCORDO
100
AcDbLine
 62
7
  6
CONTINUOUS
 10
5.75
 20
19.9
 11
3.3932016106
 21
19.9
  0
LINE
  5
647
100
AcDbEntity
  8
SUPERFICI
100
AcDbLine
 62
7
  6
CONTINUOUS
 10
5.75
 20
19.9
 11
3.3932016106
 21
19.9
  0
LINE
  5
648
100
AcDbEntity
  8
RACCORDO
100
AcDbLine
 62
7
  6
CONTINUOUS
 10
-3.3932016106
 20
19.9
 11
-5.75
 21
19.9
  0
LINE
  5
649
100
AcDbEntity
  8
SUPERFICI
100
AcDbLine
 62
7
  6
CONTINUOUS
 10
-3.3932016106
 20
19.9
 11
-5.75
 21
19.9
  0
LINE
  5
64A
100
AcDbEntity
  8
ASSI
100
AcDbLine
 62
7
  6
CONTINUOUS
 10
-3.5
 20
20.0
 11
-3.4
 21
20.0
  0
LINE
  5
64B
100
AcDbEntity
  8
ASSI
100
AcDbLine
 62
7
  6
CONTINUOUS
 10
3.4
 20
20.0
 11
3.5
 21
20.0
  0
LINE
  5
64C
100
AcDbEntity
  8
ASSI
100
AcDbLine
 62
7
  6
CONTINUOUS
 10
-2.5017369722
 20
20.0532460614
 11
-2.4411968952
 21
20.0532460614
  0
LINE
  5
64D
100
AcDbEntity
  8
ASSI
100
AcDbLine
 62
7
  6
CONTINUOUS
 10
2.4411968952
 20
20.0532460614
 11
2.5017369722
 21
20.0532460614
  0
LINE
  5
64E
100
AcDbEntity
  8
ASSI
100
AcDbLine
 62
7
  6
CONTINUOUS
 10
5.1254493507
 20
20.0872686779
 11
-5.1254493507
 21
20.0872686779
  0
LINE
  5
64F
100
AcDbEntity
  8
DRAFT
100
AcDbLine
 62
7
  6
CONTINUOUS
 10
8.7276987537
 20
20.6754493507
 11
7.4890208311
 21
20.6754493507
  0
LINE
  5
650
100
AcDbEntity
  8
SUPERFICI
100
AcDbLine
 62
7
  6
CONTINUOUS
 10
8.7276987537
 20
20.6754493507
 11
7.4890208311
 21
20.6754493507
  0
LINE
  5
651
100
AcDbEntity
  8
DRAFT
100
AcDbLine
 62
7
  6
CONTINUOUS
 10
-7.4890208311
 20
20.6754493507
 11
-8.7276987537
 21
20.6754493507
  0
LINE
  5
652
100
AcDbEntity
  8
SUPERFICI
100
AcDbLine
 62
7
  6
CONTINUOUS
 10
-7.4890208311
 20
20.6754493507
 11
-8.7276987537
 21
20.6754493507
  0
LINE
  5
653
100
AcDbEntity
  8
ASSI
100
AcDbLine
 62
7
  6
CONTINUOUS
 10
3.300038082
 20
20.8
 11
-3.300038082
 21
20.8
  0
LINE
  5
654
100
AcDbEntity
  8
DRAFT
100
AcDbLine
 62
7
  6
CONTINUOUS
 10
8.8
 20
20.85
 11
7.4855298181
 21
20.85
  0
LINE
  5
655
100
AcDbEntity
  8
SUPERFICI
100
AcDbLine
 62
7
  6
CONTINUOUS
 10
8.8
 20
20.85
 11
7.4855298181
 21
20.85
  0
LINE
  5
656
100
AcDbEntity
  8
DRAFT
100
AcDbLine
 62
7
  6
CONTINUOUS
 10
-7.4855298181
 20
20.85
 11
-8.8
 21
20.85
  0
LINE
  5
657
100
AcDbEntity
  8
SUPERFICI
100
AcDbLine
 62
7
  6
CONTINUOUS
 10
-7.4855298181
 20
20.85
 11
-8.8
 21
20.85
  0
LINE
  5
658
100
AcDbEntity
  8
ASSI
100
AcDbLine
 62
7
  6
CONTINUOUS
 10
9.6369070392
 20
20.8956365661
 11
8.2325449351
 21
20.8956365661
  0
LINE
  5
659
100
AcDbEntity
  8
ASSI
100
AcDbLine
 62
7
  6
CONTINUOUS
 10
-8.2325449351
 20
20.8956365661
 11
-9.6369070392
 21
20.8956365661
  0
LINE
  5
65A
100
AcDbEntity
  8
ASSI
100
AcDbLine
 62
7
  6
CONTINUOUS
 10
-8.0492667533
 20
20.9872686779
 11
-7.2127313221
 21
20.9872686779
  0
LINE
  5
65B
100
AcDbEntity
  8
ASSI
100
AcDbLine
 62
7
  6
CONTINUOUS
 10
7.2127313221
 20
20.9872686779
 11
8.0492667533
 21
20.9872686779
  0
LINE
  5
65C
100
AcDbEntity
  8
ASSI
100
AcDbLine
 62
7
  6
CONTINUOUS
 10
-6.5872686779
 20
21.0745506493
 11
-5.1254493507
 21
21.0745506493
  0
LINE
  5
65D
100
AcDbEntity
  8
ASSI
100
AcDbLine
 62
7
  6
CONTINUOUS
 10
5.1254493507
 20
21.0745506493
 11
6.5872686779
 21
21.0745506493
  0
LINE
  5
65E
100
AcDbEntity
  8
ASSI
100
AcDbLine
 62
253
  6
CONTINUOUS
 10
8.0492667533
 20
21.2165694902
 11
3.3073093295
 21
21.2165694902
  0
LINE
  5
65F
100
AcDbEntity
  8
ASSI
100
AcDbLine
 62
253
  6
CONTINUOUS
 10
-3.3073093295
 20
21.2165694902
 11
-8.0492667533
 21
21.2165694902
  0
LINE
  5
660
100
AcDbEntity
  8
ASSI
100
AcDbLine
 62
253
  6
CONTINUOUS
 10
3.0573474057
 20
21.2209325918
 11
3.3073093295
 21
21.2165694869
  0
LINE
  5
661
100
AcDbEntity
  8
ASSI
100
AcDbLine
 62
7
  6
CONTINUOUS
 10
5.4501643029
 20
19.9249235667
 11
5.1254493507
 21
20.0872686779
  0
LINE
  5
662
100
AcDbEntity
  8
DRAFT
100
AcDbLine
 62
7
  6
CONTINUOUS
 10
7.4
 20
20.7644701819
 11
7.4890208311
 21
20.6754493507
  0
LINE
  5
663
100
AcDbEntity
  8
SUPERFICI
100
AcDbLine
 62
7
  6
CONTINUOUS
 10
7.4
 20
20.7644701819
 11
7.4890208311
 21
20.6754493507
  0
LINE
  5
664
100
AcDbEntity
  8
RACCORDO
100
AcDbLine
 62
7
  6
CONTINUOUS
 10
7.2127313221
 20
20.9872686779
 11
7.3690382379
 21
20.8309617621
  0
LINE
  5
665
100
AcDbEntity
  8
RACCORDO
100
AcDbLine
 62
7
  6
CONTINUOUS
 10
8.7276987537
 20
20.6754493507
 11
10.3897521312
 21
19.0133959733
  0
LINE
  5
666
100
AcDbEntity
  8
SUPERFICI
100
AcDbLine
 62
7
  6
CONTINUOUS
 10
8.7276987537
 20
20.6754493507
 11
10.3897521312
 21
19.0133959733
  0
LINE
  5
667
100
AcDbEntity
  8
ASSI
100
AcDbLine
 62
7
  6
CONTINUOUS
 10
11.0738174026
 20
18.5638400026
 11
10.6893878075
 21
18.9482695977
  0
LINE
  5
668
100
AcDbEntity
  8
ASSI
100
AcDbLine
 62
7
  6
CONTINUOUS
 10
8.2325449351
 20
21.4051134101
 11
7.2551134101
 21
22.3825449351
  0
LINE
  5
669
100
AcDbEntity
  8
ASSI
100
AcDbLine
 62
7
  6
CONTINUOUS
 10
11.0825449351
 20
18.5674550649
 11
10.5643027805
 21
19.0856972195
  0
LINE
  5
66A
100
AcDbEntity
  8
RACCORDO
100
AcDbLine
 62
7
  6
CONTINUOUS
 10
10.5643027805
 20
19.0856972195
 11
8.8
 21
20.85
  0
LINE
  5
66B
100
AcDbEntity
  8
SUPERFICI
100
AcDbLine
 62
7
  6
CONTINUOUS
 10
10.5643027805
 20
19.0856972195
 11
8.8
 21
20.85
  0
LINE
  5
66C
100
AcDbEntity
  8
ASSI
100
AcDbLine
 62
7
  6
CONTINUOUS
 10
8.5
 20
-22.4
 11
8.5131674569
 21
-22.3868325431
  0
LINE
  5
66D
100
AcDbEntity
  8
ASSI
100
AcDbLine
 62
253
  6
CONTINUOUS
 10
7.2131674569
 20
-24.2868630041
 11
7.2
 21
-24.300030461
  0
LINE
  5
66E
100
AcDbEntity
  8
ASSI
100
AcDbLine
 62
253
  6
CONTINUOUS
 10
7.4131369959
 20
-24.4868325431
 11
7.399969539
 21
-24.5
  0
LINE
  5
66F
100
AcDbEntity
  8
ASSI
100
AcDbLine
 62
7
  6
CONTINUOUS
 10
8.0492667533
 20
-20.9872686779
 11
8.2325449351
 21
-20.8956365661
  0
LINE
  5
670
100
AcDbEntity
  8
ASSI
100
AcDbLine
 62
7
  6
CONTINUOUS
 10
8.0497859431
 20
-21.4586521215
 11
8.2325449351
 21
-21.4051134101
  0
LINE
  5
671
100
AcDbEntity
  8
ASSI
100
AcDbLine
 62
7
  6
CONTINUOUS
 10
-0.8
 20
22.4
 11
-0.8171358942
 21
22.3982865828
  0
LINE
  5
672
100
AcDbEntity
  8
ASSI
100
AcDbLine
 62
7
  6
CONTINUOUS
 10
-3.0657095584
 20
21.7
 11
3.0657095584
 21
21.7
  0
LINE
  5
673
100
AcDbEntity
  8
ASSI
100
AcDbLine
 62
253
  6
CONTINUOUS
 10
7.3037800478
 20
22.2164171854
 11
3.3203986343
 21
22.2164171854
  0
LINE
  5
674
100
AcDbEntity
  8
ASSI
100
AcDbLine
 62
253
  6
CONTINUOUS
 10
-3.3203986343
 20
22.2164171854
 11
-7.3037800478
 21
22.2164171854
  0
LINE
  5
675
100
AcDbEntity
  8
ASSI
100
AcDbLine
 62
7
  6
CONTINUOUS
 10
10.5826210875
 20
22.3825449351
 11
9.0368706193
 21
22.3825449351
  0
LINE
  5
676
100
AcDbEntity
  8
ASSI
100
AcDbLine
 62
7
  6
CONTINUOUS
 10
8.7631293807
 20
22.3825449351
 11
7.2551134101
 21
22.3825449351
  0
LINE
  5
677
100
AcDbEntity
  8
ASSI
100
AcDbLine
 62
7
  6
CONTINUOUS
 10
-7.2551134101
 20
22.3825449351
 11
-8.7631293807
 21
22.3825449351
  0
LINE
  5
678
100
AcDbEntity
  8
ASSI
100
AcDbLine
 62
7
  6
CONTINUOUS
 10
-9.0368706193
 20
22.3825449351
 11
-10.5826210875
 21
22.3825449351
  0
LINE
  5
679
100
AcDbEntity
  8
ASSI
100
AcDbLine
 62
7
  6
CONTINUOUS
 10
0.8171358942
 20
22.3982865828
 11
-0.8171358942
 21
22.3982865828
  0
LINE
  5
67A
100
AcDbEntity
  8
ASSI
100
AcDbLine
 62
7
  6
CONTINUOUS
 10
10.6
 20
22.3999999999
 11
9.3
 21
22.4
  0
LINE
  5
67B
100
AcDbEntity
  8
ASSI
100
AcDbLine
 62
7
  6
CONTINUOUS
 10
8.5
 20
22.4
 11
4.45
 21
22.4
  0
LINE
  5
67C
100
AcDbEntity
  8
ASSI
100
AcDbLine
 62
7
  6
CONTINUOUS
 10
-4.45
 20
22.4
 11
-8.5
 21
22.4
  0
LINE
  5
67D
100
AcDbEntity
  8
ASSI
100
AcDbLine
 62
7
  6
CONTINUOUS
 10
-9.3
 20
22.4
 11
-10.6000000646
 21
22.3999999354
  0
LINE
  5
67E
100
AcDbEntity
  8
ASSI
100
AcDbLine
 62
7
  6
CONTINUOUS
 10
10.4017150409
 20
23.1226497308
 11
9.3
 21
23.1226497308
  0
LINE
  5
67F
100
AcDbEntity
  8
ASSI
100
AcDbLine
 62
7
  6
CONTINUOUS
 10
8.5
 20
23.1226497308
 11
7.3982849591
 21
23.1226497308
  0
LINE
  5
680
100
AcDbEntity
  8
ASSI
100
AcDbLine
 62
7
  6
CONTINUOUS
 10
-7.3982849591
 20
23.1226497308
 11
-8.5
 21
23.1226497308
  0
LINE
  5
681
100
AcDbEntity
  8
ASSI
100
AcDbLine
 62
7
  6
CONTINUOUS
 10
-9.3
 20
23.1226497308
 11
-10.4017150409
 21
23.1226497308
  0
LINE
  5
682
100
AcDbEntity
  8
ASSI
100
AcDbLine
 62
7
  6
CONTINUOUS
 10
0.8
 20
22.4
 11
0.8171358942
 21
22.3982865828
  0
LINE
  5
683
100
AcDbEntity
  8
ASSI
100
AcDbLine
 62
7
  6
CONTINUOUS
 10
8.0497859431
 20
21.4586521215
 11
8.2325449351
 21
21.4051134101
  0
LINE
  5
684
100
AcDbEntity
  8
ASSI
100
AcDbLine
 62
7
  6
CONTINUOUS
 10
8.0492667533
 20
20.9872686779
 11
8.2325449351
 21
20.8956365661
  0
LINE
  5
685
100
AcDbEntity
  8
ASSI
100
AcDbLine
 62
7
  6
CONTINUOUS
 10
8.5
 20
22.4
 11
8.5131674569
 21
22.3868325431
  0
LINE
  5
686
100
AcDbEntity
  8
ASSI
100
AcDbLine
 62
253
  6
CONTINUOUS
 10
7.2
 20
24.300030461
 11
7.2131674569
 21
24.286863004
  0
LINE
  5
687
100
AcDbEntity
  8
ASSI
100
AcDbLine
 62
253
  6
CONTINUOUS
 10
7.399969539
 20
24.5
 11
7.4131369959
 21
24.4868325431
  0
LINE
  5
688
100
AcDbEntity
  8
ASSI
100
AcDbLine
 62
253
  6
CONTINUOUS
 10
-8.5466230298
 20
23.6278312163
 11
-7.4135581409
 21
23.6278312163
  0
LINE
  5
689
100
AcDbEntity
  8
ASSI
100
AcDbLine
 62
253
  6
CONTINUOUS
 10
7.4135581409
 20
23.6278312163
 11
8.5466230298
 21
23.6278312163
  0
LINE
  5
68A
100
AcDbEntity
  8
ASSI
100
AcDbLine
 62
253
  6
CONTINUOUS
 10
-10.3864421555
 20
23.6278214108
 11
-9.2533769702
 21
23.6278312163
  0
LINE
  5
68B
100
AcDbEntity
  8
ASSI
100
AcDbLine
 62
253
  6
CONTINUOUS
 10
9.2533769702
 20
23.6278312163
 11
10.3864421556
 21
23.6278214068
  0
LINE
  5
68C
100
AcDbEntity
  8
ASSI
100
AcDbLine
 62
253
  6
CONTINUOUS
 10
-10.5859750215
 20
23.8443375673
 11
-10.3860054824
 21
23.8443375673
  0
LINE
  5
68D
100
AcDbEntity
  8
ASSI
100
AcDbLine
 62
253
  6
CONTINUOUS
 10
8.7631293807
 20
23.8443375673
 11
7.2140249785
 21
23.8443375673
  0
LINE
  5
68E
100
AcDbEntity
  8
ASSI
100
AcDbLine
 62
253
  6
CONTINUOUS
 10
-8.7631293807
 20
23.8443375673
 11
-7.2140249785
 21
23.8443375673
  0
LINE
  5
68F
100
AcDbEntity
  8
ASSI
100
AcDbLine
 62
253
  6
CONTINUOUS
 10
-10.3860054824
 20
23.8442507367
 11
-9.0368706193
 21
23.8443375673
  0
LINE
  5
690
100
AcDbEntity
  8
ASSI
100
AcDbLine
 62
7
  6
CONTINUOUS
 10
-3.8478541563
 20
23.9835887109
 11
-1.0663732129
 21
23.9835887109
  0
LINE
  5
691
100
AcDbEntity
  8
ASSI
100
AcDbLine
 62
7
  6
CONTINUOUS
 10
1.0663732129
 20
23.9835887109
 11
3.8478541563
 21
23.9835887109
  0
LINE
  5
692
100
AcDbEntity
  8
ASSI
100
AcDbLine
 62
7
  6
CONTINUOUS
 10
4.2000380762
 20
24.0
 11
1.0499619238
 21
24.0
  0
LINE
  5
693
100
AcDbEntity
  8
ASSI
100
AcDbLine
 62
7
  6
CONTINUOUS
 10
-1.0499619238
 20
24.0
 11
-4.2000380762
 21
24.0
  0
LINE
  5
694
100
AcDbEntity
  8
ASSI
100
AcDbLine
 62
253
  6
CONTINUOUS
 10
-10.5859750215
 20
24.2368706193
 11
-7.2140249785
 21
24.2368706193
  0
LINE
  5
695
100
AcDbEntity
  8
ASSI
100
AcDbLine
 62
253
  6
CONTINUOUS
 10
7.2140249785
 20
24.2368706193
 11
10.5859750215
 21
24.2368706193
  0
LINE
  5
696
100
AcDbEntity
  8
ASSI
100
AcDbLine
 62
253
  6
CONTINUOUS
 10
-10.3868630041
 20
24.4868325431
 11
-7.4131369959
 21
24.4868325431
  0
LINE
  5
697
100
AcDbEntity
  8
ASSI
100
AcDbLine
 62
253
  6
CONTINUOUS
 10
7.4131369959
 20
24.4868325431
 11
10.3868630041
 21
24.4868325431
  0
LINE
  5
698
100
AcDbEntity
  8
ASSI
100
AcDbLine
 62
7
  6
CONTINUOUS
 10
10.400030461
 20
24.5
 11
7.399969539
 21
24.5
  0
LINE
  5
699
100
AcDbEntity
  8
ASSI
100
AcDbLine
 62
7
  6
CONTINUOUS
 10
-7.399969539
 20
24.5
 11
-10.400030461
 21
24.5
  0
LINE
  5
69A
100
AcDbEntity
  8
ASSI
100
AcDbLine
 62
253
  6
CONTINUOUS
 10
9.0368706193
 20
23.8443375673
 11
10.5859750215
 21
23.8443375673
  0
ARC
  5
69B
100
AcDbEntity
  8
RACCORDO
100
AcDbCircle
 62
7
  6
CONTINUOUS
 10
-37.5800172861
 20
-20.2831500294
 40
44.9542510116
100
AcDbArc
 50
359.5159872597
 51
0.0311730919
  0
ARC
  5
69C
100
AcDbEntity
  8
ASSI
100
AcDbCircle
 62
253
  6
CONTINUOUS
 10
-27.4472292689
 20
-23.8063479586
 40
34.8612444859
100
AcDbArc
 50
359.9375626227
 51
0.2933989948
  0
ARC
  5
69D
100
AcDbEntity
  8
RACCORDO
100
AcDbCircle
 62
7
  6
CONTINUOUS
 10
-8.9594242332
 20
-20.5194136012
 40
16.3326842589
100
AcDbArc
 50
359.273182086
 51
359.4966307102
  0
ARC
  5
69E
100
AcDbEntity
  8
RACCORDO
100
AcDbCircle
 62
253
  6
CONTINUOUS
 10
-8.672452685
 20
-18.122452685
 40
1.0002157485
100
AcDbArc
 50
180.0209419829
 51
269.9790580171
  0
ARC
  5
69F
100
AcDbEntity
  8
SUPERFICI
100
AcDbCircle
 62
253
  6
CONTINUOUS
 10
-8.672452114
 20
-18.122452114
 40
1.0002157485
100
AcDbArc
 50
180.0209746771
 51
269.9790253229
  0
ARC
  5
6A0
100
AcDbEntity
  8
ASSI
100
AcDbCircle
 62
7
  6
CONTINUOUS
 10
-4.0
 20
-23.2
 40
0.5
100
AcDbArc
 50
154.1580672368
 51
205.8419327632
  0
ARC
  5
6A1
100
AcDbEntity
  8
ASSI
100
AcDbCircle
 62
7
  6
CONTINUOUS
 10
-10.6001595987
 20
-21.9001682181
 40
0.4998372686
100
AcDbArc
 50
179.980690522
 51
270.0182948272
  0
ARC
  5
6A2
100
AcDbEntity
  8
ASSI
100
AcDbCircle
 62
7
  6
CONTINUOUS
 10
-4.0
 20
-23.2
 40
0.4904006794
100
AcDbArc
 50
136.2076703059
 51
223.7923296941
  0
ARC
  5
6A3
100
AcDbEntity
  8
ASSI
100
AcDbCircle
 62
253
  6
CONTINUOUS
 10
-4.1016995626
 20
-23.6516995626
 40
0.2500538593
100
AcDbArc
 50
180.0209572171
 51
269.9790427829
  0
ARC
  5
6A4
100
AcDbEntity
  8
ASSI
100
AcDbCircle
 62
253
  6
CONTINUOUS
 10
-3.3204109965
 20
-21.9663826013
 40
0.2500345843
100
AcDbArc
 50
270.0028328085
 51
336.7388410064
  0
ARC
  5
6A5
100
AcDbEntity
  8
ASSI
100
AcDbCircle
 62
7
  6
CONTINUOUS
 10
-3.8456902238
 20
-23.6518117173
 40
0.2499797382
100
AcDbArc
 50
269.994950951
 51
358.4954977415
  0
ARC
  5
6A6
100
AcDbEntity
  8
ASSI
100
AcDbCircle
 62
7
  6
CONTINUOUS
 10
-1.0499674725
 20
-23.7500325275
 40
0.2499699324
100
AcDbArc
 50
270.0012718308
 51
359.9987281692
  0
ARC
  5
6A7
100
AcDbEntity
  8
ASSI
100
AcDbCircle
 62
7
  6
CONTINUOUS
 10
-4.2000395761
 20
-23.7500395761
 40
0.2499612619
100
AcDbArc
 50
179.9996562068
 51
270.0003437932
  0
ARC
  5
6A8
100
AcDbEntity
  8
ASSI
100
AcDbCircle
 62
253
  6
CONTINUOUS
 10
-7.4132101695
 20
-24.2867898305
 40
0.2000430909
100
AcDbArc
 50
270.0209581889
 51
359.9790418111
  0
ARC
  5
6A9
100
AcDbEntity
  8
ASSI
100
AcDbCircle
 62
253
  6
CONTINUOUS
 10
-10.3867898305
 20
-24.2867898305
 40
0.2000430909
100
AcDbArc
 50
180.020958194
 51
269.979041806
  0
ARC
  5
6AA
100
AcDbEntity
  8
ASSI
100
AcDbCircle
 62
7
  6
CONTINUOUS
 10
-7.3999572982
 20
-24.3000427018
 40
0.1999569277
100
AcDbArc
 50
269.9964925066
 51
0.0035074934
  0
ARC
  5
6AB
100
AcDbEntity
  8
ASSI
100
AcDbCircle
 62
7
  6
CONTINUOUS
 10
-10.4000426585
 20
-24.3000426585
 40
0.1999569277
100
AcDbArc
 50
179.9965049109
 51
270.0034950891
  0
ARC
  5
6AC
100
AcDbEntity
  8
RACCORDO
100
AcDbCircle
 62
7
  6
CONTINUOUS
 10
-46.4364124859
 20
20.2481530737
 40
53.8106405818
100
AcDbArc
 50
0.0112275792
 51
0.4416152793
  0
ARC
  5
6AD
100
AcDbEntity
  8
ASSI
100
AcDbCircle
 62
253
  6
CONTINUOUS
 10
-45.6667535895
 20
23.8071705124
 40
35.2807675404
100
AcDbArc
 50
359.708736756
 51
0.0602180988
  0
ARC
  5
6AE
100
AcDbEntity
  8
RACCORDO
100
AcDbCircle
 62
253
  6
CONTINUOUS
 10
-8.672452685
 20
4.722452685
 40
1.0002157485
100
AcDbArc
 50
90.0209419829
 51
179.9790580171
  0
ARC
  5
6AF
100
AcDbEntity
  8
SUPERFICI
100
AcDbCircle
 62
253
  6
CONTINUOUS
 10
-8.672452114
 20
4.722452114
 40
1.0002157485
100
AcDbArc
 50
90.0209746771
 51
179.9790253229
  0
ARC
  5
6B0
100
AcDbEntity
  8
ASSI
100
AcDbCircle
 62
7
  6
CONTINUOUS
 10
-4.0
 20
23.2
 40
0.5
100
AcDbArc
 50
154.1580672368
 51
205.8419327632
  0
ARC
  5
6B1
100
AcDbEntity
  8
ASSI
100
AcDbCircle
 62
7
  6
CONTINUOUS
 10
-10.6001587126
 20
21.9001678853
 40
0.4998378818
100
AcDbArc
 50
89.9818141664
 51
180.0105151551
  0
ARC
  5
6B2
100
AcDbEntity
  8
ASSI
100
AcDbCircle
 62
7
  6
CONTINUOUS
 10
-4.0
 20
23.2
 40
0.4904006794
100
AcDbArc
 50
136.2076703059
 51
223.7923296941
  0
ARC
  5
6B3
100
AcDbEntity
  8
ASSI
100
AcDbCircle
 62
253
  6
CONTINUOUS
 10
-4.1016995581
 20
23.6516995581
 40
0.2500538638
100
AcDbArc
 50
90.0209582418
 51
179.9790417582
  0
ARC
  5
6B4
100
AcDbEntity
  8
ASSI
100
AcDbCircle
 62
253
  6
CONTINUOUS
 10
-3.3203771606
 20
21.9664357536
 40
0.2499801518
100
AcDbArc
 50
1.0045565035
 51
90.0049217718
  0
ARC
  5
6B5
100
AcDbEntity
  8
ASSI
100
AcDbCircle
 62
7
  6
CONTINUOUS
 10
-3.8456902231
 20
23.6518117206
 40
0.2499797361
100
AcDbArc
 50
1.5045015007
 51
90.0050492235
  0
ARC
  5
6B6
100
AcDbEntity
  8
ASSI
100
AcDbCircle
 62
7
  6
CONTINUOUS
 10
-1.0499674725
 20
23.7500325275
 40
0.2499699324
100
AcDbArc
 50
0.0012718308
 51
89.9987281692
  0
ARC
  5
6B7
100
AcDbEntity
  8
ASSI
100
AcDbCircle
 62
7
  6
CONTINUOUS
 10
-4.2000325275
 20
23.7500325275
 40
0.2499699324
100
AcDbArc
 50
90.0012718308
 51
179.9987281692
  0
ARC
  5
6B8
100
AcDbEntity
  8
ASSI
100
AcDbCircle
 62
253
  6
CONTINUOUS
 10
-7.4132101203
 20
24.2867898797
 40
0.2000430909
100
AcDbArc
 50
0.020944126
 51
89.979055874
  0
ARC
  5
6B9
100
AcDbEntity
  8
ASSI
100
AcDbCircle
 62
253
  6
CONTINUOUS
 10
-10.3867898797
 20
24.2867898797
 40
0.2000430909
100
AcDbArc
 50
90.020944126
 51
179.979055874
  0
ARC
  5
6BA
100
AcDbEntity
  8
ASSI
100
AcDbCircle
 62
7
  6
CONTINUOUS
 10
-7.3999572982
 20
24.3000427018
 40
0.1999569277
100
AcDbArc
 50
359.9964925066
 51
90.0035074934
  0
ARC
  5
6BB
100
AcDbEntity
  8
ASSI
100
AcDbCircle
 62
7
  6
CONTINUOUS
 10
-10.4000427018
 20
24.3000427018
 40
0.1999569277
100
AcDbArc
 50
89.9964925066
 51
180.0035074933
  0
ARC
  5
6BC
100
AcDbEntity
  8
RACCORDO
100
AcDbCircle
 62
7
  6
CONTINUOUS
 10
46.4364100749
 20
-20.2481530876
 40
53.8106381708
100
AcDbArc
 50
180.0112275524
 51
180.4416152873
  0
ARC
  5
6BD
100
AcDbEntity
  8
ASSI
100
AcDbCircle
 62
253
  6
CONTINUOUS
 10
45.2599106764
 20
-23.806377655
 40
34.8739258873
100
AcDbArc
 50
179.7067270348
 51
180.0623987992
  0
ARC
  5
6BE
100
AcDbEntity
  8
RACCORDO
100
AcDbCircle
 62
253
  6
CONTINUOUS
 10
8.6724526065
 20
-18.1224526065
 40
1.0002157485
100
AcDbArc
 50
270.0209464771
 51
359.9790535229
  0
ARC
  5
6BF
100
AcDbEntity
  8
SUPERFICI
100
AcDbCircle
 62
253
  6
CONTINUOUS
 10
8.6724523535
 20
-18.1224523535
 40
1.0002157485
100
AcDbArc
 50
270.0209609646
 51
359.9790390354
  0
ARC
  5
6C0
100
AcDbEntity
  8
ASSI
100
AcDbCircle
 62
7
  6
CONTINUOUS
 10
4.0
 20
-23.2
 40
0.5
100
AcDbArc
 50
334.1580672368
 51
25.8419327632
  0
ARC
  5
6C1
100
AcDbEntity
  8
ASSI
100
AcDbCircle
 62
7
  6
CONTINUOUS
 10
10.6001586991
 20
-21.9001678667
 40
0.4998379147
100
AcDbArc
 50
269.9818157178
 51
0.0105130205
  0
ARC
  5
6C2
100
AcDbEntity
  8
ASSI
100
AcDbCircle
 62
7
  6
CONTINUOUS
 10
4.0
 20
-23.2
 40
0.4904006794
100
AcDbArc
 50
316.2076703059
 51
43.7923296941
  0
ARC
  5
6C3
100
AcDbEntity
  8
ASSI
100
AcDbCircle
 62
253
  6
CONTINUOUS
 10
4.1016996228
 20
-23.6516996229
 40
0.2500538605
100
AcDbArc
 50
270.0209434231
 51
359.9790566095
  0
ARC
  5
6C4
100
AcDbEntity
  8
ASSI
100
AcDbCircle
 62
253
  6
CONTINUOUS
 10
3.3203771606
 20
-21.9664357536
 40
0.2499801518
100
AcDbArc
 50
181.0045565035
 51
270.0049217718
  0
ARC
  5
6C5
100
AcDbEntity
  8
ASSI
100
AcDbCircle
 62
7
  6
CONTINUOUS
 10
3.8456902238
 20
-23.6518117173
 40
0.2499797382
100
AcDbArc
 50
181.5045022556
 51
270.0050490523
  0
ARC
  5
6C6
100
AcDbEntity
  8
ASSI
100
AcDbCircle
 62
7
  6
CONTINUOUS
 10
4.2000325275
 20
-23.7500325275
 40
0.2499699324
100
AcDbArc
 50
270.0012718308
 51
359.9987281692
  0
ARC
  5
6C7
100
AcDbEntity
  8
ASSI
100
AcDbCircle
 62
7
  6
CONTINUOUS
 10
1.0499604239
 20
-23.7500395761
 40
0.2499612619
100
AcDbArc
 50
179.9996562039
 51
270.0003437961
  0
ARC
  5
6C8
100
AcDbEntity
  8
ASSI
100
AcDbCircle
 62
253
  6
CONTINUOUS
 10
10.3867898797
 20
-24.2867898797
 40
0.2000430909
100
AcDbArc
 50
270.0209441258
 51
359.9790558742
  0
ARC
  5
6C9
100
AcDbEntity
  8
ASSI
100
AcDbCircle
 62
253
  6
CONTINUOUS
 10
7.4132101695
 20
-24.2867898305
 40
0.2000430909
100
AcDbArc
 50
180.020958193
 51
269.979041807
  0
ARC
  5
6CA
100
AcDbEntity
  8
ASSI
100
AcDbCircle
 62
7
  6
CONTINUOUS
 10
10.4000427018
 20
-24.3000427018
 40
0.1999569277
100
AcDbArc
 50
269.9964925066
 51
0.0035074934
  0
ARC
  5
6CB
100
AcDbEntity
  8
ASSI
100
AcDbCircle
 62
7
  6
CONTINUOUS
 10
7.3999573415
 20
-24.3000426585
 40
0.1999569277
100
AcDbArc
 50
179.9965049109
 51
270.0034950891
  0
ARC
  5
6CC
100
AcDbEntity
  8
RACCORDO
100
AcDbCircle
 62
7
  6
CONTINUOUS
 10
37.580017577
 20
20.2831500273
 40
44.9542513024
100
AcDbArc
 50
179.5159872607
 51
180.031173089
  0
ARC
  5
6CD
100
AcDbEntity
  8
ASSI
100
AcDbCircle
 62
253
  6
CONTINUOUS
 10
27.4625294393
 20
23.806378427
 40
34.8765446111
100
AcDbArc
 50
179.9376434835
 51
180.2933216697
  0
ARC
  5
6CE
100
AcDbEntity
  8
RACCORDO
100
AcDbCircle
 62
7
  6
CONTINUOUS
 10
8.9594243386
 20
20.5194136001
 40
16.3326843643
100
AcDbArc
 50
179.273182088
 51
179.4966307109
  0
ARC
  5
6CF
100
AcDbEntity
  8
RACCORDO
100
AcDbCircle
 62
253
  6
CONTINUOUS
 10
8.6724526065
 20
4.7224526065
 40
1.0002157485
100
AcDbArc
 50
0.0209464771
 51
89.9790535229
  0
ARC
  5
6D0
100
AcDbEntity
  8
SUPERFICI
100
AcDbCircle
 62
253
  6
CONTINUOUS
 10
8.6724523535
 20
4.7224523535
 40
1.0002157485
100
AcDbArc
 50
0.0209609646
 51
89.9790390354
  0
ARC
  5
6D1
100
AcDbEntity
  8
ASSI
100
AcDbCircle
 62
7
  6
CONTINUOUS
 10
4.0
 20
23.2
 40
0.5
100
AcDbArc
 50
334.1580672368
 51
25.8419327632
  0
ARC
  5
6D2
100
AcDbEntity
  8
ASSI
100
AcDbCircle
 62
7
  6
CONTINUOUS
 10
10.6001595972
 20
21.9001682196
 40
0.4998372686
100
AcDbArc
 50
359.9806903501
 51
90.0182946608
  0
ARC
  5
6D3
100
AcDbEntity
  8
ASSI
100
AcDbCircle
 62
7
  6
CONTINUOUS
 10
4.0
 20
23.2
 40
0.4904006794
100
AcDbArc
 50
316.2076703059
 51
43.7923296941
  0
ARC
  5
6D4
100
AcDbEntity
  8
ASSI
100
AcDbCircle
 62
253
  6
CONTINUOUS
 10
4.1016996196
 20
23.6516996196
 40
0.2500538637
100
AcDbArc
 50
0.0209441608
 51
89.9790558392
  0
ARC
  5
6D5
100
AcDbEntity
  8
ASSI
100
AcDbCircle
 62
253
  6
CONTINUOUS
 10
3.3204109965
 20
21.9663826013
 40
0.2500345843
100
AcDbArc
 50
90.0028328085
 51
156.7388410064
  0
ARC
  5
6D6
100
AcDbEntity
  8
ASSI
100
AcDbCircle
 62
7
  6
CONTINUOUS
 10
3.8456902229
 20
23.651811721
 40
0.2499797358
100
AcDbArc
 50
89.9949507413
 51
178.4954985883
  0
ARC
  5
6D7
100
AcDbEntity
  8
ASSI
100
AcDbCircle
 62
7
  6
CONTINUOUS
 10
4.2000325275
 20
23.7500325275
 40
0.2499699324
100
AcDbArc
 50
0.0012718308
 51
89.9987281692
  0
ARC
  5
6D8
100
AcDbEntity
  8
ASSI
100
AcDbCircle
 62
7
  6
CONTINUOUS
 10
1.0499604239
 20
23.7500395761
 40
0.2499612619
100
AcDbArc
 50
89.9996562036
 51
180.0003437964
  0
ARC
  5
6D9
100
AcDbEntity
  8
ASSI
100
AcDbCircle
 62
253
  6
CONTINUOUS
 10
10.3867898797
 20
24.2867898797
 40
0.2000430909
100
AcDbArc
 50
0.020944123
 51
89.979055877
  0
ARC
  5
6DA
100
AcDbEntity
  8
ASSI
100
AcDbCircle
 62
253
  6
CONTINUOUS
 10
7.4132101203
 20
24.2867898797
 40
0.2000430909
100
AcDbArc
 50
90.0209441227
 51
179.9790558773
  0
ARC
  5
6DB
100
AcDbEntity
  8
ASSI
100
AcDbCircle
 62
7
  6
CONTINUOUS
 10
10.4000427018
 20
24.3000427018
 40
0.1999569277
100
AcDbArc
 50
359.9964925067
 51
90.0035074934
  0
ARC
  5
6DC
100
AcDbEntity
  8
ASSI
100
AcDbCircle
 62
7
  6
CONTINUOUS
 10
7.3999572982
 20
24.3000427018
 40
0.1999569277
100
AcDbArc
 50
89.9964925066
 51
180.0035074934
  0
SPLINE
  5
6DD
100
AcDbEntity
  8
ASSI
100
AcDbSpline
 62
7
  6
CONTINUOUS
 70
0
 71
3
 72
11
 73
7
 74
5
 42
0.0000001
 43
0.0000001
 44
0.0000000001
 12
-0.0067613521
 22
-0.387357604
 32
0.0
 13
-0.3873351987
 23
-0.0079418575
 33
0.0
 40
0.0
 40
0.0
 40
0.0
 40
0.0
 40
0.2887023648
 40
0.5586105117
 40
0.7960077426
 40
1.0
 40
1.0
 40
1.0
 40
1.0
 10
-3.0713521947
 20
-22.0232664162
 30
0.0
 10
-3.0720028675
 20
-22.060543435
 30
0.0
 10
-3.0900073343
 20
-22.1334006817
 30
0.0
 10
-3.156050979
 20
-22.2158628798
 30
0.0
 10
-3.2378741681
 20
-22.26177612
 30
0.0
 10
-3.2950388341
 20
-22.2719063749
 30
0.0
 10
-3.3213766279
 20
-22.2724464007
 30
0.0
 11
-3.0713521947
 21
-22.0232664162
 31
0.0
 11
-3.0981835621
 21
-22.1318485199
 31
0.0
 11
-3.1633529967
 21
-22.2136237067
 31
0.0
 11
-3.2435653191
 21
-22.2586210857
 31
0.0
 11
-3.3213766279
 21
-22.2724464007
 31
0.0
  0
SPLINE
  5
6DE
100
AcDbEntity
  8
ASSI
100
AcDbSpline
 62
7
  6
CONTINUOUS
 70
0
 71
3
 72
11
 73
7
 74
5
 42
0.0000001
 43
0.0000001
 44
0.0000000001
 12
0.0067613521
 22
0.3873576043
 32
0.0
 13
0.3873351991
 23
0.0079418575
 33
0.0
 40
0.0
 40
0.0
 40
0.0
 40
0.0
 40
0.2887024668
 40
0.5586105757
 40
0.7960077999
 40
1.0
 40
1.0
 40
1.0
 40
1.0
 10
3.0713521947
 20
22.0232664162
 30
0.0
 10
3.0720028677
 20
22.0605434482
 30
0.0
 10
3.0900073419
 20
22.1334007041
 30
0.0
 10
3.1560510009
 20
22.2158629001
 30
0.0
 10
3.2378741845
 20
22.2617761224
 30
0.0
 10
3.2950388415
 20
22.2719063751
 30
0.0
 10
3.3213766279
 20
22.2724464007
 30
0.0
 11
3.0713521947
 21
22.0232664162
 31
0.0
 11
3.0981835792
 21
22.1318485565
 31
0.0
 11
3.163353015
 21
22.2136237237
 31
0.0
 11
3.2435653404
 21
22.2586210922
 31
0.0
 11
3.3213766279
 21
22.2724464007
 31
0.0
  0
SPLINE
  5
6DF
100
AcDbEntity
  8
ASSI
100
AcDbSpline
 62
7
  6
CONTINUOUS
 70
0
 71
3
 72
11
 73
7
 74
5
 42
0.0000001
 43
0.0000001
 44
0.0000000001
 12
0.3873351987
 22
-0.0079418575
 32
0.0
 13
0.0067613521
 23
-0.387357604
 33
0.0
 40
0.0
 40
0.0
 40
0.0
 40
0.0
 40
0.2039922574
 40
0.4413894883
 40
0.7112976352
 40
1.0
 40
1.0
 40
1.0
 40
1.0
 10
-3.3213766279
 20
22.2724464007
 30
0.0
 10
-3.2950388341
 20
22.2719063749
 30
0.0
 10
-3.2378741681
 20
22.26177612
 30
0.0
 10
-3.156050979
 20
22.2158628798
 30
0.0
 10
-3.0900073343
 20
22.1334006817
 30
0.0
 10
-3.0720028675
 20
22.0605434349
 30
0.0
 10
-3.0713521947
 20
22.0232664162
 30
0.0
 11
-3.3213766279
 21
22.2724464007
 31
0.0
 11
-3.2435653191
 21
22.2586210857
 31
0.0
 11
-3.1633529967
 21
22.2136237067
 31
0.0
 11
-3.0981835621
 21
22.1318485199
 31
0.0
 11
-3.0713521947
 21
22.0232664162
 31
0.0
  0
SPLINE
  5
6E0
100
AcDbEntity
  8
ASSI
100
AcDbSpline
 62
7
  6
CONTINUOUS
 70
0
 71
3
 72
11
 73
7
 74
5
 42
0.0000001
 43
0.0000001
 44
0.0000000001
 12
-0.3873351991
 22
0.0079418575
 32
0.0
 13
-0.0067613521
 23
0.3873576043
 33
0.0
 40
0.0
 40
0.0
 40
0.0
 40
0.0
 40
0.2039922001
 40
0.4413894243
 40
0.7112975332
 40
1.0
 40
1.0
 40
1.0
 40
1.0
 10
3.3213766279
 20
-22.2724464007
 30
0.0
 10
3.2950388415
 20
-22.2719063751
 30
0.0
 10
3.2378741845
 20
-22.2617761224
 30
0.0
 10
3.1560510009
 20
-22.2158629001
 30
0.0
 10
3.0900073419
 20
-22.1334007041
 30
0.0
 10
3.0720028677
 20
-22.0605434482
 30
0.0
 10
3.0713521947
 20
-22.0232664162
 30
0.0
 11
3.3213766279
 21
-22.2724464007
 31
0.0
 11
3.2435653404
 21
-22.2586210922
 31
0.0
 11
3.163353015
 21
-22.2136237237
 31
0.0
 11
3.0981835792
 21
-22.1318485565
 31
0.0
 11
3.0713521947
 21
-22.0232664162
 31
0.0
  0
SPLINE
  5
6E1
100
AcDbEntity
  8
ASSI
100
AcDbSpline
 62
253
  6
CONTINUOUS
 70
0
 71
3
 72
14
 73
10
 74
8
 42
0.0000001
 43
0.0000001
 44
0.0000000001
 12
0.0353890603
 22
-0.0353419688
 32
0.0
 13
-0.0000000042
 23
-0.0500144013
 33
0.0
 40
0.0
 40
0.0
 40
0.0
 40
0.0
 40
0.0223894589
 40
0.0813316649
 40
0.1747572081
 40
0.2991857903
 40
0.4499513862
 40
0.6213965713
 40
1.0
 40
1.0
 40
1.0
 40
1.0
 10
7.2131674569
 20
24.286863004
 30
0.0
 10
7.2134315709
 20
24.2865992415
 30
0.0
 10
7.2131956378
 20
24.2850244788
 30
0.0
 10
7.2136472506
 20
24.282311764
 30
0.0
 10
7.2136160176
 20
24.2775938181
 30
0.0
 10
7.2138079014
 20
24.2714929827
 30
0.0
 10
7.2138851816
 20
24.2640320071
 30
0.0
 10
7.2140004445
 20
24.252355346
 30
0.0
 10
7.214024979
 20
24.2431824939
 30
0.0
 10
7.2140249785
 20
24.2368706193
 30
0.0
 11
7.2131674569
 21
24.286863004
 31
0.0
 11
7.2133354802
 21
24.2857558862
 31
0.0
 11
7.213496641
 21
24.2828123356
 31
0.0
 11
7.2136448924
 21
24.2781420654
 31
0.0
 11
7.2137746402
 21
24.2719201971
 31
0.0
 11
7.2138809999
 21
24.2643804962
 31
0.0
 11
7.2139599678
 21
24.2558061315
 31
0.0
 11
7.2140249785
 21
24.2368706193
 31
0.0
  0
SPLINE
  5
6E2
100
AcDbEntity
  8
ASSI
100
AcDbSpline
 62
253
  6
CONTINUOUS
 70
0
 71
3
 72
9
 73
5
 74
3
 42
0.0000001
 43
0.0000001
 44
0.0000000001
 12
-0.0000006052
 22
-0.0433040268
 32
0.0
 13
0.0013082134
 23
-0.0432842617
 33
0.0
 40
0.0
 40
0.0
 40
0.0
 40
0.0
 40
0.2986883658
 40
1.0
 40
1.0
 40
1.0
 40
1.0
 10
10.5859750215
 20
23.8443375673
 30
0.0
 10
10.5859749612
 20
23.8400260976
 30
0.0
 10
10.5860182947
 20
23.8255919006
 30
0.0
 10
10.5861055763
 20
23.8111548825
 30
0.0
 10
10.5864113981
 20
23.8010362971
 30
0.0
 11
10.5859750215
 21
23.8443375673
 31
0.0
 11
10.5860047684
 21
23.8314031925
 31
0.0
 11
10.5864113981
 21
23.8010362971
 31
0.0
  0
SPLINE
  5
6E3
100
AcDbEntity
  8
ASSI
100
AcDbSpline
 62
253
  6
CONTINUOUS
 70
0
 71
3
 72
14
 73
10
 74
8
 42
0.0000001
 43
0.0000001
 44
0.0000000001
 12
-0.0353853774
 22
-0.0353456564
 32
0.0
 13
-0.0000000242
 23
-0.0500144015
 33
0.0
 40
0.0
 40
0.0
 40
0.0
 40
0.0
 40
0.0223887472
 40
0.0813299675
 40
0.1747550585
 40
0.2991845911
 40
0.4499510589
 40
0.6213967018
 40
1.0
 40
1.0
 40
1.0
 40
1.0
 10
10.5868325431
 20
24.286863004
 30
0.0
 10
10.586568465
 20
24.2865992224
 30
0.0
 10
10.5868043238
 20
24.2850245561
 30
0.0
 10
10.5863527734
 20
24.2823118193
 30
0.0
 10
10.5863839746
 20
24.2775939108
 30
0.0
 10
10.5861921023
 20
24.271493041
 30
0.0
 10
10.5861148162
 20
24.2640320315
 30
0.0
 10
10.5859995564
 20
24.2523553486
 30
0.0
 10
10.5859750245
 20
24.2431824917
 30
0.0
 10
10.5859750215
 20
24.2368706193
 30
0.0
 11
10.5868325431
 21
24.286863004
 31
0.0
 11
10.586664522
 21
24.2857559219
 31
0.0
 11
10.5865033616
 21
24.2828124206
 31
0.0
 11
10.5863551093
 21
24.278142173
 31
0.0
 11
10.5862253602
 21
24.2719202572
 31
0.0
 11
10.5861189993
 21
24.2643805127
 31
0.0
 11
10.5860400321
 21
24.2558061251
 31
0.0
 11
10.5859750215
 21
24.2368706193
 31
0.0
  0
SPLINE
  5
6E4
100
AcDbEntity
  8
ASSI
100
AcDbSpline
 62
253
  6
CONTINUOUS
 70
0
 71
3
 72
9
 73
5
 74
3
 42
0.0000001
 43
0.0000001
 44
0.0000000001
 12
0.00000001
 22
-0.0433040274
 32
0.0
 13
-0.0013086633
 23
-0.0432842487
 33
0.0
 40
0.0
 40
0.0
 40
0.0
 40
0.0
 40
0.2987935853
 40
1.0
 40
1.0
 40
1.0
 40
1.0
 10
7.2140249785
 20
23.8443375673
 30
0.0
 10
7.2140249795
 20
23.8400245788
 30
0.0
 10
7.2139818319
 20
23.825590382
 30
0.0
 10
7.2138944829
 20
23.8111533614
 30
0.0
 10
7.2135886019
 20
23.8010362971
 30
0.0
 11
7.2140249785
 21
23.8443375673
 31
0.0
 11
7.2139952489
 21
23.8313986359
 31
0.0
 11
7.2135886019
 21
23.8010362971
 31
0.0
  0
SPLINE
  5
6E5
100
AcDbEntity
  8
ASSI
100
AcDbSpline
 62
253
  6
CONTINUOUS
 70
0
 71
3
 72
14
 73
10
 74
8
 42
0.0000001
 43
0.0000001
 44
0.0000000001
 12
-0.0000000171
 22
-0.0500143994
 32
0.0
 13
0.0353374338
 23
-0.0353935859
 33
0.0
 40
0.0
 40
0.0
 40
0.0
 40
0.0
 40
0.3784748159
 40
0.5499130417
 40
0.7006958012
 40
0.8251540306
 40
0.9186156011
 40
0.977592863
 40
1.0
 40
1.0
 40
1.0
 40
1.0
 10
10.5859750215
 20
-24.2368706193
 30
0.0
 10
10.5859750193
 20
-24.2431803495
 30
0.0
 10
10.5859995531
 20
-24.252350929
 30
0.0
 10
10.5861147324
 20
-24.2640256436
 30
0.0
 10
10.5861920462
 20
-24.2714872226
 30
0.0
 10
10.5863837678
 20
-24.2775896023
 30
0.0
 10
10.5863528662
 20
-24.2823088543
 30
0.0
 10
10.5868039632
 20
-24.2850237059
 30
0.0
 10
10.5865686062
 20
-24.2865986477
 30
0.0
 10
10.5868325431
 20
-24.2868630041
 30
0.0
 11
10.5859750215
 21
-24.2368706193
 31
0.0
 11
10.5860399865
 21
-24.2557996984
 31
0.0
 11
10.586118922
 21
-24.264373715
 31
0.0
 11
10.5862252576
 21
-24.2719142744
 31
0.0
 11
10.5863549921
 21
-24.2781376259
 31
0.0
 11
10.5865032502
 21
-24.2828096985
 31
0.0
 11
10.586664448
 21
-24.2857550029
 31
0.0
 11
10.5868325431
 21
-24.2868630041
 31
0.0
  0
SPLINE
  5
6E6
100
AcDbEntity
  8
ASSI
100
AcDbSpline
 62
253
  6
CONTINUOUS
 70
0
 71
3
 72
9
 73
5
 74
3
 42
0.0000001
 43
0.0000001
 44
0.0000000001
 12
-0.0013110427
 22
-0.0432843983
 32
0.0
 13
-0.0000001007
 23
-0.0433042489
 33
0.0
 40
0.0
 40
0.0
 40
0.0
 40
0.0
 40
0.1834520378
 40
1.0
 40
1.0
 40
1.0
 40
1.0
 10
10.5864113981
 20
-23.8010362971
 30
0.0
 10
10.586331227
 20
-23.8036831675
 30
0.0
 10
10.5860359079
 20
-23.8181153116
 30
0.0
 10
10.5859750489
 20
-23.8325509019
 30
0.0
 10
10.5859750215
 20
-23.8443375673
 30
0.0
 11
10.5864113981
 21
-23.8010362971
 31
0.0
 11
10.5862307638
 21
-23.8089784959
 31
0.0
 11
10.5859750215
 21
-23.8443375673
 31
0.0
  0
SPLINE
  5
6E7
100
AcDbEntity
  8
ASSI
100
AcDbSpline
 62
253
  6
CONTINUOUS
 70
0
 71
3
 72
9
 73
5
 74
3
 42
0.0000001
 43
0.0000001
 44
0.0000000001
 12
0.0013086619
 22
-0.0432844713
 32
0.0
 13
-0.000000012
 23
-0.0433042498
 33
0.0
 40
0.0
 40
0.0
 40
0.0
 40
0.0
 40
0.1834851879
 40
1.0
 40
1.0
 40
1.0
 40
1.0
 10
7.2135886019
 20
-23.8010362971
 30
0.0
 10
7.2136686419
 20
-23.8036836502
 30
0.0
 10
7.213964584
 20
-23.818115777
 30
0.0
 10
7.2140249818
 20
-23.8325513802
 30
0.0
 10
7.2140249785
 20
-23.8443375673
 30
0.0
 11
7.2135886019
 21
-23.8010362971
 31
0.0
 11
7.2137693139
 21
-23.8089799302
 31
0.0
 11
7.2140249785
 21
-23.8443375673
 31
0.0
  0
LINE
  5
6E8
100
AcDbEntity
  8
ASSI
100
AcDbLine
 62
253
  6
CONTINUOUS
 10
3.3203986343
 20
-22.2164171854
 11
3.3073093295
 21
-21.2165694902
  0
LINE
  5
6E9
100
AcDbEntity
  8
ASSI
100
AcDbLine
 62
253
  6
CONTINUOUS
 10
-3.3073093295
 20
-21.2165694902
 11
-3.3203986343
 21
-22.2164171854
  0
LINE
  5
6EA
100
AcDbEntity
  8
ASSI
100
AcDbLine
 62
253
  6
CONTINUOUS
 10
-3.3203986343
 20
22.2164171854
 11
-3.3073093295
 21
21.2165694902
  0
LINE
  5
6EB
100
AcDbEntity
  8
ASSI
100
AcDbLine
 62
253
  6
CONTINUOUS
 10
3.3073093295
 20
21.2165694902
 11
3.3203986343
 21
22.2164171854
  0
SPLINE
  5
6EC
100
AcDbEntity
  8
ASSI
100
AcDbSpline
 62
253
  6
CONTINUOUS
 70
0
 71
3
 72
14
 73
10
 74
8
 42
0.0000001
 43
0.0000001
 44
0.0000000001
 12
0.0000000203
 22
-0.0500143983
 32
0.0
 13
-0.0353703491
 23
-0.0353606907
 33
0.0
 40
0.0
 40
0.0
 40
0.0
 40
0.0
 40
0.3784778443
 40
0.5499151366
 40
0.7006962726
 40
0.8251531199
 40
0.9186154914
 40
0.9775909074
 40
1.0
 40
1.0
 40
1.0
 40
1.0
 10
7.2140249785
 20
-24.2368706193
 30
0.0
 10
7.2140249811
 20
-24.2431803999
 30
0.0
 10
7.2140004537
 20
-24.2523510207
 30
0.0
 10
7.2138852554
 20
-24.2640257268
 30
0.0
 10
7.2138079841
 20
-24.2714872784
 30
0.0
 10
7.2136161458
 20
-24.2775895136
 30
0.0
 10
7.2136473317
 20
-24.2823089866
 30
0.0
 10
7.2131957109
 20
-24.2850233636
 30
0.0
 10
7.2134316627
 20
-24.2865988704
 30
0.0
 10
7.2131674569
 20
-24.2868630041
 30
0.0
 11
7.2140249785
 21
-24.2368706193
 31
0.0
 11
7.2139600121
 21
-24.2557998495
 31
0.0
 11
7.2138810762
 21
-24.2643738192
 31
0.0
 11
7.2137747414
 21
-24.2719142972
 31
0.0
 11
7.2136450076
 21
-24.2781375795
 31
0.0
 11
7.2134967499
 21
-24.282809692
 31
0.0
 11
7.2133355515
 21
-24.2857549039
 31
0.0
 11
7.2131674569
 21
-24.2868630041
 31
0.0
  0
SPLINE
  5
6ED
100
AcDbEntity
  8
ASSI
100
AcDbSpline
 62
7
  6
CONTINUOUS
 70
0
 71
3
 72
13
 73
9
 74
7
 42
0.0000001
 43
0.0000001
 44
0.0000000001
 12
0.0008673107
 22
-0.0331212608
 32
0.0
 13
-0.0331060434
 23
-0.0013266636
 33
0.0
 40
0.0
 40
0.0
 40
0.0
 40
0.0
 40
0.0188743615
 40
0.0671588779
 40
0.1462535438
 40
0.2561843746
 40
0.5678964788
 40
1.0
 40
1.0
 40
1.0
 40
1.0
 10
-3.5602847461
 20
22.3021815735
 30
0.0
 10
-3.5602792895
 20
22.3019731927
 30
0.0
 10
-3.5612571442
 20
22.3016941839
 30
0.0
 10
-3.5626011118
 20
22.3014024635
 30
0.0
 10
-3.5653355044
 20
22.301064665
 30
0.0
 10
-3.5707625663
 20
22.3005599732
 30
0.0
 10
-3.5802359015
 20
22.2999791431
 30
0.0
 10
-3.5884208406
 20
22.2996118426
 30
0.0
 10
-3.5931892533
 20
22.2994207572
 30
0.0
 11
-3.5602847461
 21
22.3021815735
 31
0.0
 11
-3.5608004326
 21
22.3018278239
 31
0.0
 11
-3.5623606913
 21
22.3014743721
 31
0.0
 11
-3.5649575483
 21
22.3011223117
 31
0.0
 11
-3.5685830298
 21
22.3007727363
 31
0.0
 11
-3.5788879706
 21
22.3000854148
 31
0.0
 11
-3.5931892533
 21
22.2994207572
 31
0.0
  0
SPLINE
  5
6EE
100
AcDbEntity
  8
ASSI
100
AcDbSpline
 62
7
  6
CONTINUOUS
 70
0
 71
3
 72
22
 73
18
 74
16
 42
0.0000001
 43
0.0000001
 44
0.0000000001
 12
-0.7584980212
 22
-0.030395408
 32
0.0
 13
-0.5367695637
 23
0.5367695637
 33
0.0
 40
0.0
 40
0.0
 40
0.0
 40
0.0
 40
0.0965399979
 40
0.2365668655
 40
0.4041306088
 40
0.5801201751
 40
0.6649975604
 40
0.744526152
 40
0.8164071091
 40
0.8785854794
 40
0.9292764016
 40
0.9498561134
 40
0.9670598132
 40
0.980744119
 40
0.9908198767
 40
0.9972411661
 40
1.0
 40
1.0
 40
1.0
 40
1.0
 10
-3.5931892533
 20
22.2994207572
 30
0.0
 10
-3.6175977191
 20
22.298442633
 30
0.0
 10
-3.6774492003
 20
22.2971400273
 30
0.0
 10
-3.7796990288
 20
22.2958481924
 30
0.0
 10
-3.90206216
 20
22.2952132041
 30
0.0
 10
-4.0104707013
 20
22.2952566065
 30
0.0
 10
-4.0966020872
 20
22.2956839698
 30
0.0
 10
-4.1563888947
 20
22.2961811138
 30
0.0
 10
-4.2104312121
 20
22.2968398252
 30
0.0
 10
-4.2571704948
 20
22.297644714
 30
0.0
 10
-4.2909346082
 20
22.2984424793
 30
0.0
 10
-4.3133007773
 20
22.2991827804
 30
0.0
 10
-4.3263336564
 20
22.2996870951
 30
0.0
 10
-4.3366315712
 20
22.3002824098
 30
0.0
 10
-4.3443775289
 20
22.3006818117
 30
0.0
 10
-4.3489813715
 20
22.3014546206
 30
0.0
 10
-4.3515650041
 20
22.3015650041
 30
0.0
 10
-4.3520586235
 20
22.3020586235
 30
0.0
 11
-3.5931892533
 21
22.2994207572
 31
0.0
 11
-3.6664474662
 21
22.2974704738
 31
0.0
 11
-3.7727334052
 21
22.2960562796
 31
0.0
 11
-3.8999301641
 21
22.2953398632
 31
0.0
 11
-4.0335250252
 21
22.2954028712
 31
0.0
 11
-4.0979552056
 21
22.2957278657
 31
0.0
 11
-4.1583237435
 21
22.2962381435
 31
0.0
 11
-4.2128848211
 21
22.2969187965
 31
0.0
 11
-4.2600775199
 21
22.2977502997
 31
0.0
 11
-4.2985454081
 21
22.2987086309
 31
0.0
 11
-4.3141590023
 21
22.2992270721
 31
0.0
 11
-4.3272072841
 21
22.2997669419
 31
0.0
 11
-4.3375801536
 21
22.3003246115
 31
0.0
 11
-4.3452073785
 21
22.3008957138
 31
0.0
 11
-4.3500472366
 21
22.3014753533
 31
0.0
 11
-4.3520586235
 21
22.3020586235
 31
0.0
  0
SPLINE
  5
6EF
100
AcDbEntity
  8
ASSI
100
AcDbSpline
 62
253
  6
CONTINUOUS
 70
0
 71
3
 72
32
 73
28
 74
26
 42
0.0000001
 43
0.0000001
 44
0.0000000001
 12
0.0244367608
 22
-0.755904266
 32
0.0
 13
-0.5795800495
 23
0.4858758905
 33
0.0
 40
0.0
 40
0.0
 40
0.0
 40
0.0
 40
0.0006902552
 40
0.0025094939
 40
0.0054983076
 40
0.0096552836
 40
0.0214454604
 40
0.0378030363
 40
0.0585590587
 40
0.083504525
 40
0.1124254049
 40
0.1450435977
 40
0.2200597797
 40
0.3057288095
 40
0.3987779737
 40
0.495677802
 40
0.5927446709
 40
0.6862878932
 40
0.7727597036
 40
0.8488573644
 40
0.9117140396
 40
0.9373917234
 40
0.9589201823
 40
0.9760836967
 40
0.9887051155
 40
0.9966943031
 40
1.0
 40
1.0
 40
1.0
 40
1.0
 10
-3.5957979215
 20
23.6583750273
 30
0.0
 10
-3.595792299
 20
23.658201105
 30
0.0
 10
-3.5966592778
 20
23.6580100483
 30
0.0
 10
-3.5977890275
 20
23.6577549144
 30
0.0
 10
-3.6001633994
 20
23.6574906822
 30
0.0
 10
-3.6048400965
 20
23.657057885
 30
0.0
 10
-3.6130266933
 20
23.6565497714
 30
0.0
 10
-3.6253134375
 20
23.6559526942
 30
0.0
 10
-3.6409574561
 20
23.6553450147
 30
0.0
 10
-3.6597559587
 20
23.6547284019
 30
0.0
 10
-3.6815513266
 20
23.6541137525
 30
0.0
 10
-3.7159659171
 20
23.6532638676
 30
0.0
 10
-3.764688085
 20
23.6522727413
 30
0.0
 10
-3.8286459194
 20
23.6512278436
 30
0.0
 10
-3.8981233906
 20
23.6503216723
 30
0.0
 10
-3.9704763682
 20
23.6495893602
 30
0.0
 10
-4.0429557849
 20
23.649060277
 30
0.0
 10
-4.1128072203
 20
23.6487539418
 30
0.0
 10
-4.177374129
 20
23.6486779741
 30
0.0
 10
-4.2342012663
 20
23.6488417232
 30
0.0
 10
-4.2757105293
 20
23.6491624453
 30
0.0
 10
-4.3034440298
 20
23.649584147
 30
0.0
 10
-4.3196912628
 20
23.6498838764
 30
0.0
 10
-4.3325607754
 20
23.6503480471
 30
0.0
 10
-4.3422202244
 20
23.6505462762
 30
0.0
 10
-4.3479621222
 20
23.6513578252
 30
0.0
 10
-4.3511143104
 20
23.6512556391
 30
0.0
 10
-4.351752949
 20
23.6517910252
 30
0.0
 11
-3.5957979215
 21
23.6583750273
 31
0.0
 11
-3.5962426554
 21
23.6581016466
 31
0.0
 11
-3.5975895838
 21
23.6578208382
 31
0.0
 11
-3.5998316693
 21
23.6575333852
 31
0.0
 11
-3.6029618744
 21
23.6572400711
 31
0.0
 11
-3.6118584931
 21
23.6566389923
 31
0.0
 11
-3.6242144096
 21
23.6560238232
 31
0.0
 11
-3.6398997895
 21
23.6554004495
 31
0.0
 11
-3.6587556414
 21
23.6547746063
 31
0.0
 11
-3.6806196164
 21
23.654152035
 31
0.0
 11
-3.7052810995
 21
23.6535385799
 31
0.0
 11
-3.7620035879
 21
23.6523627065
 31
0.0
 11
-3.8267861609
 21
23.6512923323
 31
0.0
 11
-3.8971530932
 21
23.6503678945
 31
0.0
 11
-3.9704345782
 21
23.6496242164
 31
0.0
 11
-4.0438442264
 21
23.6490901069
 31
0.0
 11
-4.1145902305
 21
23.6487854464
 31
0.0
 11
-4.179988757
 21
23.6487219505
 31
0.0
 11
-4.2375410713
 21
23.6489022558
 31
0.0
 11
-4.2850776956
 21
23.6493189212
 31
0.0
 11
-4.3044955012
 21
23.6496115664
 31
0.0
 11
-4.3207737964
 21
23.6499567802
 31
0.0
 11
-4.3337485431
 21
23.6503515696
 31
0.0
 11
-4.3432839318
 21
23.6507922935
 31
0.0
 11
-4.3493069257
 21
23.6512738706
 31
0.0
 11
-4.351752949
 21
23.6517910252
 31
0.0
  0
SPLINE
  5
6F0
100
AcDbEntity
  8
ASSI
100
AcDbSpline
 62
7
  6
CONTINUOUS
 70
0
 71
3
 72
24
 73
20
 74
18
 42
0.0000001
 43
0.0000001
 44
0.0000000001
 12
-0.5585863425
 22
-0.5585863426
 32
0.0
 13
-0.7790681799
 23
0.1307293969
 33
0.0
 40
0.0
 40
0.0
 40
0.0
 40
0.0
 40
0.0031691809
 40
0.0107036956
 40
0.0225788293
 40
0.0387233374
 40
0.0589837042
 40
0.083164288
 40
0.14245078
 40
0.2144759207
 40
0.2967193168
 40
0.3862191747
 40
0.4798069502
 40
0.6659277465
 40
0.8288885266
 40
0.8942752416
 40
0.9456989653
 40
0.9813712234
 40
1.0
 40
1.0
 40
1.0
 40
1.0
 10
4.3520586235
 20
22.3020586235
 30
0.0
 10
4.3514685364
 20
22.3014685364
 30
0.0
 10
4.3483071972
 20
22.3014279198
 30
0.0
 10
4.3427025553
 20
22.3004999692
 30
0.0
 10
4.3331924772
 20
22.3000983554
 30
0.0
 10
4.320563007
 20
22.2994277519
 30
0.0
 10
4.3045934763
 20
22.2988840986
 30
0.0
 10
4.2773031132
 20
22.2980831604
 30
0.0
 10
4.2363595711
 20
22.2972461229
 30
0.0
 10
4.1801349436
 20
22.2964316001
 30
0.0
 10
4.115947568
 20
22.2958141469
 30
0.0
 10
4.0460819551
 20
22.2954089129
 30
0.0
 10
3.9488616653
 20
22.2951777317
 30
0.0
 10
3.8322995806
 20
22.2954716696
 30
0.0
 10
3.7231588738
 20
22.2964382409
 30
0.0
 10
3.6495094218
 20
22.2977716729
 30
0.0
 10
3.6093520302
 20
22.2987102795
 30
0.0
 10
3.5815711267
 20
22.2999677872
 30
0.0
 10
3.5672452084
 20
22.3006547114
 30
0.0
 10
3.5624075127
 20
22.3014664877
 30
0.0
 11
4.3520586235
 21
22.3020586235
 31
0.0
 11
4.3496407187
 21
22.3014094812
 31
0.0
 11
4.3437236884
 21
22.3007655266
 31
0.0
 11
4.3343641168
 21
22.3001335261
 31
0.0
 11
4.321625355
 21
22.2995201214
 31
0.0
 11
4.30563132
 21
22.298930838
 31
0.0
 11
4.2865378338
 21
22.298370614
 31
0.0
 11
4.2397148305
 21
22.2973566961
 31
0.0
 11
4.1828240689
 21
22.2965136556
 31
0.0
 11
4.1178582117
 21
22.2958721348
 31
0.0
 11
4.0471581028
 21
22.2954545811
 31
0.0
 11
3.9732276836
 21
22.2952760713
 31
0.0
 11
3.8262001103
 21
22.2956525776
 31
0.0
 11
3.6974740771
 21
22.2969488676
 31
0.0
 11
3.6458297205
 21
22.2978890745
 31
0.0
 11
3.6052217069
 21
22.2989814745
 31
0.0
 11
3.5770678867
 21
22.3001882247
 31
0.0
 11
3.5624075127
 21
22.3014664877
 31
0.0
  0
SPLINE
  5
6F1
100
AcDbEntity
  8
ASSI
100
AcDbSpline
 62
7
  6
CONTINUOUS
 70
0
 71
3
 72
9
 73
5
 74
3
 42
0.0000001
 43
0.0000001
 44
0.0000000001
 12
-0.0022408387
 22
0.0003760178
 32
0.0
 13
0.0000594784
 23
0.0022713894
 33
0.0
 40
0.0
 40
0.0
 40
0.0
 40
0.0
 40
0.7195401055
 40
1.0
 40
1.0
 40
1.0
 40
1.0
 10
3.5624075127
 20
22.3014664877
 30
0.0
 10
3.5618700549
 20
22.3015566743
 30
0.0
 10
3.5612896217
 20
22.3016894857
 30
0.0
 10
3.5602791857
 20
22.301969229
 30
0.0
 10
3.5602847461
 20
22.3021815735
 30
0.0
 11
3.5624075127
 21
22.3014664877
 31
0.0
 11
3.5608121362
 21
22.3018238728
 31
0.0
 11
3.5602847461
 21
22.3021815735
 31
0.0
  0
SPLINE
  5
6F2
100
AcDbEntity
  8
ASSI
100
AcDbSpline
 62
253
  6
CONTINUOUS
 70
0
 71
3
 72
32
 73
28
 74
26
 42
0.0000001
 43
0.0000001
 44
0.0000000001
 12
-0.0253986138
 22
-0.755870575
 32
0.0
 13
0.5800119736
 23
0.4853571122
 33
0.0
 40
0.0
 40
0.0
 40
0.0
 40
0.0
 40
0.0006898774
 40
0.00250868
 40
0.0054970039
 40
0.0096533931
 40
0.0214419199
 40
0.0377969608
 40
0.0585496025
 40
0.0834909947
 40
0.1124072709
 40
0.1450204867
 40
0.2200258209
 40
0.305683504
 40
0.398721795
 40
0.495612324
 40
0.592672415
 40
0.686212149
 40
0.7726846627
 40
0.8487882607
 40
0.9116544511
 40
0.9373380424
 40
0.9588746482
 40
0.9760500473
 40
0.9886863808
 40
0.9966886091
 40
1.0
 40
1.0
 40
1.0
 40
1.0
 10
3.5957979215
 20
23.6583750273
 30
0.0
 10
3.5957920809
 20
23.658201208
 30
0.0
 10
3.5966590654
 20
23.6580098812
 30
0.0
 10
3.5977882435
 20
23.6577550333
 30
0.0
 10
3.6001623749
 20
23.657490694
 30
0.0
 10
3.604838284
 20
23.6570580372
 30
0.0
 10
3.6130237254
 20
23.6565499384
 30
0.0
 10
3.6253084996
 20
23.6559529604
 30
0.0
 10
3.640949971
 20
23.6553453302
 30
0.0
 10
3.65974538
 20
23.6547287683
 30
0.0
 10
3.6815372493
 20
23.6541141471
 30
0.0
 10
3.7159465977
 20
23.6532642788
 30
0.0
 10
3.7646617864
 20
23.6522731341
 30
0.0
 10
3.8286111148
 20
23.6512281889
 30
0.0
 10
3.898080456
 20
23.6503219292
 30
0.0
 10
3.9704264482
 20
23.6495894865
 30
0.0
 10
4.0429007408
 20
23.6490602205
 30
0.0
 10
4.1127495821
 20
23.6487537025
 30
0.0
 10
4.1773171139
 20
23.648677572
 30
0.0
 10
4.2341481815
 20
23.6488410801
 30
0.0
 10
4.2756627085
 20
23.6491615625
 30
0.0
 10
4.303402102
 20
23.6495831393
 30
0.0
 10
4.3196557929
 20
23.649882803
 30
0.0
 10
4.3325341656
 20
23.6503471496
 30
0.0
 10
4.3422035325
 20
23.6505449943
 30
0.0
 10
4.3479539764
 20
23.6513575212
 30
0.0
 10
4.3511109367
 20
23.6512537423
 30
0.0
 10
4.3517511522
 20
23.651789478
 30
0.0
 11
3.5957979215
 21
23.6583750273
 31
0.0
 11
3.5962423223
 21
23.658101653
 31
0.0
 11
3.5975889141
 21
23.6578208633
 31
0.0
 11
3.5998306237
 21
23.6575334388
 31
0.0
 11
3.6029603781
 21
23.6572401599
 31
0.0
 11
3.611855728
 21
23.6566391615
 31
0.0
 11
3.6242096963
 21
23.6560240691
 31
0.0
 11
3.6398924788
 21
23.6554007603
 31
0.0
 11
3.6587451999
 21
23.6547749671
 31
0.0
 11
3.6806056354
 21
23.6541524277
 31
0.0
 11
3.7052632888
 21
23.6535389871
 31
0.0
 11
3.7619774223
 21
23.6523631034
 31
0.0
 11
3.826751242
 21
23.6512926812
 31
0.0
 11
3.8971097646
 21
23.6503681551
 31
0.0
 11
3.9703840227
 21
23.6496243423
 31
0.0
 11
4.0437883508
 21
23.6490900538
 31
0.0
 11
4.1145315306
 21
23.6487852076
 31
0.0
 11
4.1799304173
 21
23.6487215197
 31
0.0
 11
4.2374870718
 21
23.6489015731
 31
0.0
 11
4.2850307704
 21
23.6493179817
 31
0.0
 11
4.3044529948
 21
23.6496105308
 31
0.0
 11
4.3207374114
 21
23.6499556914
 31
0.0
 11
4.3337211163
 21
23.6503504857
 31
0.0
 11
4.3432677705
 21
23.6507912404
 31
0.0
 11
4.3493006504
 21
23.6512727204
 31
0.0
 11
4.3517511522
 21
23.651789478
 31
0.0
  0
SPLINE
  5
6F3
100
AcDbEntity
  8
ASSI
100
AcDbSpline
 62
7
  6
CONTINUOUS
 70
0
 71
3
 72
24
 73
20
 74
18
 42
0.0000001
 43
0.0000001
 44
0.0000000001
 12
0.558586347
 22
0.558586347
 32
0.0
 13
0.7790681518
 23
-0.1307296029
 33
0.0
 40
0.0
 40
0.0
 40
0.0
 40
0.0
 40
0.0031691813
 40
0.0107037002
 40
0.0225788463
 40
0.0387233835
 40
0.0589837963
 40
0.0831644191
 40
0.1424509339
 40
0.2144760644
 40
0.2967194189
 40
0.3862192359
 40
0.4798069757
 40
0.6659277067
 40
0.8288884117
 40
0.8942751235
 40
0.9456988856
 40
0.9813712206
 40
1.0
 40
1.0
 40
1.0
 40
1.0
 10
-4.3520586235
 20
-22.3020586235
 30
0.0
 10
-4.3514685363
 20
-22.3014685363
 30
0.0
 10
-4.3483071958
 20
-22.3014279198
 30
0.0
 10
-4.3427025496
 20
-22.3004999687
 30
0.0
 10
-4.3331924591
 20
-22.3000983546
 30
0.0
 10
-4.320562966
 20
-22.2994277503
 30
0.0
 10
-4.304593405
 20
-22.2988840968
 30
0.0
 10
-4.2773030133
 20
-22.2980831581
 30
0.0
 10
-4.2363594572
 20
-22.2972461206
 30
0.0
 10
-4.1801348369
 20
-22.296431599
 30
0.0
 10
-4.1159474852
 20
-22.2958141463
 30
0.0
 10
-4.0460819029
 20
-22.2954089127
 30
0.0
 10
-3.9488616496
 20
-22.2951777318
 30
0.0
 10
-3.8322996104
 20
-22.2954716694
 30
0.0
 10
-3.7231589406
 20
-22.2964382408
 30
0.0
 10
-3.6495094985
 20
-22.2977716704
 30
0.0
 10
-3.609352077
 20
-22.2987102787
 30
0.0
 10
-3.5815711425
 20
-22.2999677872
 30
0.0
 10
-3.5672452026
 20
-22.3006547107
 30
0.0
 10
-3.5624075064
 20
-22.3014664884
 30
0.0
 11
-4.3520586235
 21
-22.3020586235
 31
0.0
 11
-4.3496407183
 21
-22.3014094811
 31
0.0
 11
-4.3437236847
 21
-22.3007655264
 31
0.0
 11
-4.3343641033
 21
-22.3001335254
 31
0.0
 11
-4.3216253184
 21
-22.29952012
 31
0.0
 11
-4.3056312469
 21
-22.2989308361
 31
0.0
 11
-4.2865377298
 21
-22.2983706114
 31
0.0
 11
-4.239714708
 21
-22.2973566937
 31
0.0
 11
-4.182823954
 21
-22.2965136542
 31
0.0
 11
-4.1178581292
 21
-22.2958721342
 31
0.0
 11
-4.047158052
 21
-22.2954545809
 31
0.0
 11
-3.9732276603
 21
-22.2952760713
 31
0.0
 11
-3.8262001375
 21
-22.2956525775
 31
0.0
 11
-3.6974741626
 21
-22.2969488663
 31
0.0
 11
-3.6458298081
 21
-22.2978890723
 31
0.0
 11
-3.6052217638
 21
-22.2989814732
 31
0.0
 11
-3.5770678827
 21
-22.3001882249
 31
0.0
 11
-3.5624075064
 21
-22.3014664884
 31
0.0
  0
SPLINE
  5
6F4
100
AcDbEntity
  8
ASSI
100
AcDbSpline
 62
7
  6
CONTINUOUS
 70
0
 71
3
 72
9
 73
5
 74
3
 42
0.0000001
 43
0.0000001
 44
0.0000000001
 12
0.0022408325
 22
-0.0003760173
 32
0.0
 13
-0.0000594783
 23
-0.0022713832
 33
0.0
 40
0.0
 40
0.0
 40
0.0
 40
0.0
 40
0.7195400835
 40
1.0
 40
1.0
 40
1.0
 40
1.0
 10
-3.5624075064
 20
-22.3014664884
 30
0.0
 10
-3.5618700501
 20
-22.3015566749
 30
0.0
 10
-3.5612896181
 20
-22.3016894858
 30
0.0
 10
-3.5602791857
 20
-22.3019692296
 30
0.0
 10
-3.5602847461
 20
-22.3021815735
 30
0.0
 11
-3.5624075064
 21
-22.3014664884
 31
0.0
 11
-3.5608121344
 21
-22.3018238731
 31
0.0
 11
-3.5602847461
 21
-22.3021815735
 31
0.0
  0
SPLINE
  5
6F5
100
AcDbEntity
  8
ASSI
100
AcDbSpline
 62
253
  6
CONTINUOUS
 70
0
 71
3
 72
32
 73
28
 74
26
 42
0.0000001
 43
0.0000001
 44
0.0000000001
 12
0.5803778796
 22
0.4849227702
 32
0.0
 13
-0.0274848972
 23
-0.7557996802
 33
0.0
 40
0.0
 40
0.0
 40
0.0
 40
0.0
 40
0.003307199
 40
0.0112960421
 40
0.023916464
 40
0.0410794276
 40
0.0626079077
 40
0.0882858519
 40
0.1511427304
 40
0.2272402689
 40
0.3137120751
 40
0.4072553036
 40
0.5043221521
 40
0.6012219725
 40
0.6942711034
 40
0.7799401121
 40
0.8549563945
 40
0.8875745565
 40
0.9164952452
 40
0.9414404428
 40
0.9621964366
 40
0.9785545565
 40
0.9903457231
 40
0.994503026
 40
0.997491853
 40
0.9993106482
 40
1.0
 40
1.0
 40
1.0
 40
1.0
 10
-4.351752949
 20
-23.6517910252
 30
0.0
 10
-4.3511131407
 20
-23.6512564465
 30
0.0
 10
-4.3479623937
 20
-23.6513568854
 30
0.0
 10
-4.3422189153
 20
-23.6505468722
 30
0.0
 10
-4.332560766
 20
-23.6503478364
 30
0.0
 10
-4.3196912882
 20
-23.649884063
 30
0.0
 10
-4.3034442489
 20
-23.6495842422
 30
0.0
 10
-4.2757105633
 20
-23.6491626377
 30
0.0
 10
-4.2342012449
 20
-23.648841874
 30
0.0
 10
-4.1773740654
 20
-23.648678131
 30
0.0
 10
-4.1128071828
 20
-23.6487541192
 30
0.0
 10
-4.0429557407
 20
-23.6490604576
 30
0.0
 10
-3.9704763197
 20
-23.6495895216
 30
0.0
 10
-3.8981233471
 20
-23.6503218176
 30
0.0
 10
-3.8286458814
 20
-23.6512279664
 30
0.0
 10
-3.7646880263
 20
-23.6522728328
 30
0.0
 10
-3.7159658373
 20
-23.6532639199
 30
0.0
 10
-3.6815512742
 20
-23.6541137751
 30
0.0
 10
-3.659756021
 20
-23.6547284142
 30
0.0
 10
-3.6409576553
 20
-23.655345012
 30
0.0
 10
-3.6253135254
 20
-23.6559527225
 30
0.0
 10
-3.6130265235
 20
-23.6565497156
 30
0.0
 10
-3.6048391913
 20
-23.6570579712
 30
0.0
 10
-3.6001625114
 20
-23.6574905177
 30
0.0
 10
-3.5977875868
 20
-23.6577551281
 30
0.0
 10
-3.5966591369
 20
-23.6580095127
 30
0.0
 10
-3.5957916059
 20
-23.6582013567
 30
0.0
 10
-3.5957979215
 20
-23.6583750273
 30
0.0
 11
-4.351752949
 21
-23.6517910252
 31
0.0
 11
-4.3493057674
 21
-23.6512738556
 31
0.0
 11
-4.3432830323
 21
-23.6507923005
 31
0.0
 11
-4.3337483951
 21
-23.6503516171
 31
0.0
 11
-4.3207740621
 21
-23.6499568698
 31
0.0
 11
-4.3044957477
 21
-23.6496116916
 31
0.0
 11
-4.2850777421
 21
-23.6493190715
 31
0.0
 11
-4.2375409571
 21
-23.6489024174
 31
0.0
 11
-4.1799887272
 21
-23.648722109
 31
0.0
 11
-4.1145901947
 21
-23.6487856204
 31
0.0
 11
-4.0438441759
 21
-23.6490902839
 31
0.0
 11
-3.9704345327
 21
-23.6496243783
 31
0.0
 11
-3.8971530432
 21
-23.6503680384
 31
0.0
 11
-3.8267861257
 21
-23.6512924524
 31
0.0
 11
-3.762003559
 21
-23.6523627925
 31
0.0
 11
-3.7052809858
 21
-23.6535386239
 31
0.0
 11
-3.6806195222
 21
-23.6541520601
 31
0.0
 11
-3.6587556882
 21
-23.6547746177
 31
0.0
 11
-3.6399000367
 21
-23.6554004521
 31
0.0
 11
-3.6242146759
 21
-23.6560238177
 31
0.0
 11
-3.6118583452
 21
-23.656638975
 31
0.0
 11
-3.602960974
 21
-23.6572400398
 31
0.0
 11
-3.5998305199
 21
-23.657533351
 31
0.0
 11
-3.5975884243
 21
-23.6578208068
 31
0.0
 11
-3.5962418404
 21
-23.6581016259
 31
0.0
 11
-3.5957979215
 21
-23.6583750273
 31
0.0
  0
SPLINE
  5
6F6
100
AcDbEntity
  8
ASSI
100
AcDbSpline
 62
7
  6
CONTINUOUS
 70
0
 71
3
 72
13
 73
9
 74
7
 42
0.0000001
 43
0.0000001
 44
0.0000000001
 12
-0.0008666553
 22
0.0330962309
 32
0.0
 13
0.0330810017
 23
0.0013262404
 33
0.0
 40
0.0
 40
0.0
 40
0.0
 40
0.0
 40
0.0188768012
 40
0.0671627628
 40
0.1462585324
 40
0.2561899447
 40
0.5679003879
 40
1.0
 40
1.0
 40
1.0
 40
1.0
 10
3.5602847461
 20
-22.3021815735
 30
0.0
 10
3.5602792929
 20
-22.3019733232
 30
0.0
 10
3.5612563396
 20
-22.3016943289
 30
0.0
 10
3.5625994122
 20
-22.3014027881
 30
0.0
 10
3.5653317068
 20
-22.3010650748
 30
0.0
 10
3.5707546819
 20
-22.3005605946
 30
0.0
 10
3.5802207649
 20
-22.2999799498
 30
0.0
 10
3.5883994589
 20
-22.2996127776
 30
0.0
 10
3.5931642216
 20
-22.2994217549
 30
0.0
 11
3.5602847461
 21
-22.3021815735
 31
0.0
 11
3.5608000495
 21
-22.3018279582
 31
0.0
 11
3.5623591479
 21
-22.3014746398
 31
0.0
 11
3.5649540611
 21
-22.3011227109
 31
0.0
 11
3.568576809
 21
-22.3007732643
 31
0.0
 11
3.578873889
 21
-22.3000861885
 31
0.0
 11
3.5931642216
 21
-22.2994217549
 31
0.0
  0
SPLINE
  5
6F7
100
AcDbEntity
  8
ASSI
100
AcDbSpline
 62
7
  6
CONTINUOUS
 70
0
 71
3
 72
22
 73
18
 74
16
 42
0.0000001
 43
0.0000001
 44
0.0000000001
 12
0.7585225184
 22
0.0304096964
 32
0.0
 13
0.5367872766
 23
-0.5367872766
 33
0.0
 40
0.0
 40
0.0
 40
0.0
 40
0.0
 40
0.096520142
 40
0.2365365693
 40
0.4040976435
 40
0.5800919048
 40
0.6649735085
 40
0.7445068988
 40
0.8163923812
 40
0.8785749798
 40
0.9292699103
 40
0.9498516576
 40
0.9670571315
 40
0.9807427341
 40
0.9908193096
 40
0.9972410301
 40
1.0
 40
1.0
 40
1.0
 40
1.0
 10
3.5931642216
 20
-22.2994217549
 30
0.0
 10
3.6175684553
 20
-22.2984433722
 30
0.0
 10
3.6774142486
 20
-22.297140657
 30
0.0
 10
3.7796591017
 20
-22.2958484956
 30
0.0
 10
3.9020241423
 20
-22.2952132896
 30
0.0
 10
4.0104378407
 20
-22.2952565168
 30
0.0
 10
4.0965755392
 20
-22.2956837934
 30
0.0
 10
4.156367747
 20
-22.296180895
 30
0.0
 10
4.2104152779
 20
-22.2968395899
 30
0.0
 10
4.2571593331
 20
-22.297644474
 30
0.0
 10
4.2909271611
 20
-22.2984422773
 30
0.0
 10
4.313296046
 20
-22.2991826149
 30
0.0
 10
4.3263306507
 20
-22.2996869544
 30
0.0
 10
4.3366298831
 20
-22.3002823108
 30
0.0
 10
4.3443767555
 20
-22.3006817208
 30
0.0
 10
4.3489810781
 20
-22.3014545971
 30
0.0
 10
4.3515649635
 20
-22.3015649635
 30
0.0
 10
4.3520586235
 20
-22.3020586235
 30
0.0
 11
3.5931642216
 21
-22.2994217549
 31
0.0
 11
3.6664097674
 21
-22.2974711843
 31
0.0
 11
3.7726912838
 21
-22.2960566622
 31
0.0
 11
3.8998902124
 21
-22.2953399631
 31
0.0
 11
4.0334930462
 21
-22.2954027593
 31
0.0
 11
4.0979285555
 21
-22.2957276888
 31
0.0
 11
4.1583027289
 21
-22.2962379266
 31
0.0
 11
4.2128690431
 21
-22.2969185604
 31
0.0
 11
4.2600665101
 21
-22.2977500656
 31
0.0
 11
4.2985387112
 21
-22.2987084363
 31
0.0
 11
4.3141543663
 21
-22.2992269074
 31
0.0
 11
4.3272044259
 21
-22.2997668102
 31
0.0
 11
4.3375786228
 21
-22.3003245133
 31
0.0
 11
4.3452067209
 21
-22.3008956482
 31
0.0
 11
4.3500470667
 21
-22.3014753203
 31
0.0
 11
4.3520586235
 21
-22.3020586235
 31
0.0
  0
SPLINE
  5
6F8
100
AcDbEntity
  8
ASSI
100
AcDbSpline
 62
253
  6
CONTINUOUS
 70
0
 71
3
 72
32
 73
28
 74
26
 42
0.0000001
 43
0.0000001
 44
0.0000000001
 12
-0.5800118443
 22
0.4853572664
 32
0.0
 13
0.0253987174
 23
-0.7558705715
 33
0.0
 40
0.0
 40
0.0
 40
0.0
 40
0.0
 40
0.0033113905
 40
0.0113136186
 40
0.0239499527
 40
0.0411253532
 40
0.0626619603
 40
0.0883455526
 40
0.1512117447
 40
0.2273153429
 40
0.3137878547
 40
0.4073275869
 40
0.5043876774
 40
0.6012782081
 40
0.6943165
 40
0.7799741818
 40
0.8549795147
 40
0.8875927299
 40
0.9165090058
 40
0.941450398
 40
0.9622030398
 40
0.9785580809
 40
0.9903466075
 40
0.9945029966
 40
0.9974913202
 40
0.9993101227
 40
1.0
 40
1.0
 40
1.0
 40
1.0
 10
4.351751152
 20
-23.6517894779
 30
0.0
 10
4.3511109368
 20
-23.6512537421
 30
0.0
 10
4.3479539764
 20
-23.6513575212
 30
0.0
 10
4.3422035327
 20
-23.6505449942
 30
0.0
 10
4.3325341652
 20
-23.6503471496
 30
0.0
 10
4.3196557917
 20
-23.649882803
 30
0.0
 10
4.3034020999
 20
-23.6495831393
 30
0.0
 10
4.2756627055
 20
-23.6491615624
 30
0.0
 10
4.2341481777
 20
-23.64884108
 30
0.0
 10
4.1773171101
 20
-23.648677572
 30
0.0
 10
4.1127495792
 20
-23.6487537025
 30
0.0
 10
4.0429007389
 20
-23.6490602205
 30
0.0
 10
3.9704264465
 20
-23.6495894865
 30
0.0
 10
3.8980804539
 20
-23.6503219293
 30
0.0
 10
3.8286111123
 20
-23.6512281889
 30
0.0
 10
3.7646617844
 20
-23.6522731342
 30
0.0
 10
3.7159465964
 20
-23.6532642789
 30
0.0
 10
3.6815372486
 20
-23.6541141471
 30
0.0
 10
3.6597453796
 20
-23.6547287683
 30
0.0
 10
3.6409499706
 20
-23.6553453303
 30
0.0
 10
3.6253084991
 20
-23.6559529604
 30
0.0
 10
3.6130237249
 20
-23.6565499384
 30
0.0
 10
3.6048382836
 20
-23.6570580372
 30
0.0
 10
3.6001623746
 20
-23.657490694
 30
0.0
 10
3.5977882433
 20
-23.6577550333
 30
0.0
 10
3.5966590653
 20
-23.6580098812
 30
0.0
 10
3.5957920809
 20
-23.658201208
 30
0.0
 10
3.5957979215
 20
-23.6583750273
 30
0.0
 11
4.351751152
 21
-23.6517894779
 31
0.0
 11
4.3493006506
 21
-23.6512727203
 31
0.0
 11
4.3432677709
 21
-23.6507912404
 31
0.0
 11
4.3337211162
 21
-23.6503504858
 31
0.0
 11
4.3207374102
 21
-23.6499556914
 31
0.0
 11
4.3044529926
 21
-23.6496105308
 31
0.0
 11
4.2850307676
 21
-23.6493179816
 31
0.0
 11
4.2374870676
 21
-23.6489015731
 31
0.0
 11
4.179930413
 21
-23.6487215198
 31
0.0
 11
4.1145315276
 21
-23.6487852077
 31
0.0
 11
4.0437883493
 21
-23.6490900538
 31
0.0
 11
3.9703840216
 21
-23.6496243423
 31
0.0
 11
3.8971097622
 21
-23.6503681552
 31
0.0
 11
3.8267512389
 21
-23.6512926812
 31
0.0
 11
3.7619774202
 21
-23.6523631034
 31
0.0
 11
3.7052632878
 21
-23.6535389871
 31
0.0
 11
3.6806056347
 21
-23.6541524277
 31
0.0
 11
3.6587451995
 21
-23.6547749671
 31
0.0
 11
3.6398924785
 21
-23.6554007603
 31
0.0
 11
3.6242096958
 21
-23.6560240691
 31
0.0
 11
3.6118557274
 21
-23.6566391615
 31
0.0
 11
3.6029603776
 21
-23.6572401599
 31
0.0
 11
3.5998306234
 21
-23.6575334388
 31
0.0
 11
3.5975889139
 21
-23.6578208633
 31
0.0
 11
3.5962423222
 21
-23.6581016531
 31
0.0
 11
3.5957979215
 21
-23.6583750273
 31
0.0
  0
SPLINE
  5
6F9
100
AcDbEntity
  8
ASSI
100
AcDbSpline
 62
253
  6
CONTINUOUS
 70
0
 71
3
 72
11
 73
7
 74
5
 42
0.0000001
 43
0.0000001
 44
0.0000000001
 12
-0.0029298744
 22
0.2908179843
 32
0.0
 13
-0.2908244364
 23
0.0021980406
 33
0.0
 40
0.0
 40
0.0
 40
0.0
 40
0.0
 40
0.2330683041
 40
0.4768288064
 40
0.7340987915
 40
1.0
 40
1.0
 40
1.0
 40
1.0
 10
10.5864113981
 20
-23.8010362971
 30
0.0
 10
10.5861837778
 20
-23.7784428123
 30
0.0
 10
10.5747821307
 20
-23.7317691306
 30
0.0
 10
10.5292239105
 20
-23.674634778
 30
0.0
 10
10.4633039672
 20
-23.636974425
 30
0.0
 10
10.4122187154
 20
-23.6280260394
 30
0.0
 10
10.386441859
 20
-23.6278312189
 30
0.0
 11
10.5864113981
 21
-23.8010362971
 31
0.0
 11
10.570691861
 21
-23.7351003247
 31
0.0
 11
10.5272287738
 21
-23.6790927054
 31
0.0
 11
10.4625665866
 21
-23.6414468114
 31
0.0
 11
10.386441859
 21
-23.6278312189
 31
0.0
  0
SPLINE
  5
6FA
100
AcDbEntity
  8
ASSI
100
AcDbSpline
 62
253
  6
CONTINUOUS
 70
0
 71
3
 72
11
 73
7
 74
5
 42
0.0000001
 43
0.0000001
 44
0.0000000001
 12
0.290824418
 22
-0.002198128
 32
0.0
 13
0.0029298796
 23
-0.2908179665
 33
0.0
 40
0.0
 40
0.0
 40
0.0
 40
0.0
 40
0.2659011522
 40
0.5231711191
 40
0.7669316794
 40
1.0
 40
1.0
 40
1.0
 40
1.0
 10
-7.4135581409
 20
-23.6278312164
 30
0.0
 10
-7.3877812917
 20
-23.6280260446
 30
0.0
 10
-7.336696053
 20
-23.6369744364
 30
0.0
 10
-7.2707761173
 20
-23.6746347862
 30
0.0
 10
-7.2252178837
 20
-23.7317691273
 30
0.0
 10
-7.2138162226
 20
-23.7784428121
 30
0.0
 10
-7.2135886019
 20
-23.8010362971
 30
0.0
 11
-7.4135581409
 21
-23.6278312164
 31
0.0
 11
-7.3374334365
 21
-23.6414468187
 31
0.0
 11
-7.2727712571
 21
-23.6790927066
 31
0.0
 11
-7.2293081507
 21
-23.7351003269
 31
0.0
 11
-7.2135886019
 21
-23.8010362971
 31
0.0
  0
SPLINE
  5
6FB
100
AcDbEntity
  8
ASSI
100
AcDbSpline
 62
253
  6
CONTINUOUS
 70
0
 71
3
 72
11
 73
7
 74
5
 42
0.0000001
 43
0.0000001
 44
0.0000000001
 12
-0.290824418
 22
-0.0021981279
 32
0.0
 13
-0.0029298796
 23
-0.2908179665
 33
0.0
 40
0.0
 40
0.0
 40
0.0
 40
0.0
 40
0.2659011524
 40
0.5231711195
 40
0.7669316796
 40
1.0
 40
1.0
 40
1.0
 40
1.0
 10
7.4135581409
 20
-23.6278312164
 30
0.0
 10
7.3877812916
 20
-23.6280260446
 30
0.0
 10
7.336696053
 20
-23.6369744365
 30
0.0
 10
7.2707761173
 20
-23.6746347863
 30
0.0
 10
7.2252178837
 20
-23.7317691274
 30
0.0
 10
7.2138162226
 20
-23.7784428121
 30
0.0
 10
7.2135886019
 20
-23.8010362971
 30
0.0
 11
7.4135581409
 21
-23.6278312164
 31
0.0
 11
7.3374334365
 21
-23.6414468187
 31
0.0
 11
7.272771257
 21
-23.6790927066
 31
0.0
 11
7.2293081507
 21
-23.7351003269
 31
0.0
 11
7.2135886019
 21
-23.8010362971
 31
0.0
  0
SPLINE
  5
6FC
100
AcDbEntity
  8
ASSI
100
AcDbSpline
 62
253
  6
CONTINUOUS
 70
0
 71
3
 72
11
 73
7
 74
5
 42
0.0000001
 43
0.0000001
 44
0.0000000001
 12
0.0029298796
 22
0.290817965
 32
0.0
 13
0.2908244163
 23
0.0021981479
 33
0.0
 40
0.0
 40
0.0
 40
0.0
 40
0.0
 40
0.2330683208
 40
0.4768288792
 40
0.7340988449
 40
1.0
 40
1.0
 40
1.0
 40
1.0
 10
-10.5864113981
 20
-23.8010362971
 30
0.0
 10
-10.5861837774
 20
-23.7784428122
 30
0.0
 10
-10.5747821164
 20
-23.7317691278
 30
0.0
 10
-10.5292238826
 20
-23.6746347873
 30
0.0
 10
-10.4633039461
 20
-23.6369744404
 30
0.0
 10
-10.4122187085
 20
-23.6280260464
 30
0.0
 10
-10.3864418591
 20
-23.6278312164
 30
0.0
 11
-10.5864113981
 21
-23.8010362971
 31
0.0
 11
-10.5706918493
 21
-23.7351003272
 31
0.0
 11
-10.5272287429
 21
-23.6790927081
 31
0.0
 11
-10.4625665634
 21
-23.6414468218
 31
0.0
 11
-10.3864418591
 21
-23.6278312164
 31
0.0
  0
SPLINE
  5
6FD
100
AcDbEntity
  8
ASSI
100
AcDbSpline
 62
253
  6
CONTINUOUS
 70
0
 71
3
 72
14
 73
10
 74
8
 42
0.0000001
 43
0.0000001
 44
0.0000000001
 12
0.0000000098
 22
0.0500143991
 32
0.0
 13
-0.0353803447
 23
0.0353506905
 33
0.0
 40
0.0
 40
0.0
 40
0.0
 40
0.0
 40
0.3785039972
 40
0.5499424932
 40
0.70071832
 40
0.825167532
 40
0.918622656
 40
0.977593597
 40
1.0
 40
1.0
 40
1.0
 40
1.0
 10
-10.5859750215
 20
24.2368706193
 30
0.0
 10
-10.5859750202
 20
24.2431808359
 30
0.0
 10
-10.5859995479
 20
24.2523519153
 30
0.0
 10
-10.5861147614
 20
24.2640269838
 30
0.0
 10
-10.5861920274
 20
24.271488351
 30
0.0
 10
-10.5863838891
 20
24.2775902196
 30
0.0
 10
-10.5863526463
 20
24.2823094405
 30
0.0
 10
-10.5868043615
 20
24.2850234463
 30
0.0
 10
-10.5865682943
 20
24.2865989768
 30
0.0
 10
-10.5868325431
 20
24.286863004
 30
0.0
 11
-10.5859750215
 21
24.2368706193
 31
0.0
 11
-10.5860399978
 21
24.2558011577
 31
0.0
 11
-10.5861189399
 21
24.2643751877
 31
0.0
 11
-10.5862252778
 21
24.2719154003
 31
0.0
 11
-10.5863550106
 21
24.2781383007
 31
0.0
 11
-10.5865032643
 21
24.2828100508
 31
0.0
 11
-10.5866644551
 21
24.285755039
 31
0.0
 11
-10.5868325431
 21
24.286863004
 31
0.0
  0
SPLINE
  5
6FE
100
AcDbEntity
  8
ASSI
100
AcDbSpline
 62
253
  6
CONTINUOUS
 70
0
 71
3
 72
9
 73
5
 74
3
 42
0.0000001
 43
0.0000001
 44
0.0000000001
 12
0.0013082203
 22
0.0432844827
 32
0.0
 13
-0.0000006052
 23
0.0433042479
 33
0.0
 40
0.0
 40
0.0
 40
0.0
 40
0.0
 40
0.1835083404
 40
1.0
 40
1.0
 40
1.0
 40
1.0
 10
-10.5864113981
 20
23.8010362971
 30
0.0
 10
-10.586331375
 20
23.803683985
 30
0.0
 10
-10.5860357894
 20
23.818116118
 30
0.0
 10
-10.5859748568
 20
23.8325517149
 30
0.0
 10
-10.5859750215
 20
23.8443375673
 30
0.0
 11
-10.5864113981
 21
23.8010362971
 31
0.0
 11
-10.5862307922
 21
23.8089809352
 31
0.0
 11
-10.5859750215
 21
23.8443375673
 31
0.0
  0
SPLINE
  5
6FF
100
AcDbEntity
  8
ASSI
100
AcDbSpline
 62
253
  6
CONTINUOUS
 70
0
 71
3
 72
9
 73
5
 74
3
 42
0.0000001
 43
0.0000001
 44
0.0000000001
 12
-0.0000001007
 22
0.0433040262
 32
0.0
 13
-0.0013110356
 23
0.0432841757
 33
0.0
 40
0.0
 40
0.0
 40
0.0
 40
0.0
 40
0.2986840764
 40
1.0
 40
1.0
 40
1.0
 40
1.0
 10
-10.5859750215
 20
-23.8443375673
 30
0.0
 10
-10.5859750315
 20
-23.8400261596
 30
0.0
 10
-10.586018476
 20
-23.8255919674
 30
0.0
 10
-10.5861049147
 20
-23.8111549243
 30
0.0
 10
-10.5864113981
 20
-23.8010362971
 30
0.0
 11
-10.5859750215
 21
-23.8443375673
 31
0.0
 11
-10.5860048195
 21
-23.8314033786
 31
0.0
 11
-10.5864113981
 21
-23.8010362971
 31
0.0
  0
SPLINE
  5
700
100
AcDbEntity
  8
ASSI
100
AcDbSpline
 62
253
  6
CONTINUOUS
 70
0
 71
3
 72
14
 73
10
 74
8
 42
0.0000001
 43
0.0000001
 44
0.0000000001
 12
0.0353768578
 22
0.0353541823
 32
0.0
 13
-0.0000000128
 23
0.0500144006
 33
0.0
 40
0.0
 40
0.0
 40
0.0
 40
0.0
 40
0.0223937944
 40
0.0813434341
 40
0.1747761037
 40
0.2992081645
 40
0.4499725189
 40
0.6214129187
 40
1.0
 40
1.0
 40
1.0
 40
1.0
 10
-10.5868325431
 20
-24.2868630041
 30
0.0
 10
-10.5865684691
 20
-24.2865990993
 30
0.0
 10
-10.586804271
 20
-24.2850243062
 30
0.0
 10
-10.5863527807
 20
-24.2823111184
 30
0.0
 10
-10.5863839354
 20
-24.2775929623
 30
0.0
 10
-10.5861920926
 20
-24.2714919307
 30
0.0
 10
-10.5861148037
 20
-24.2640310127
 30
0.0
 10
-10.585999556
 20
-24.2523547182
 30
0.0
 10
-10.5859750199
 20
-24.2431822213
 30
0.0
 10
-10.5859750215
 20
-24.2368706193
 30
0.0
 11
-10.5868325431
 21
-24.2868630041
 31
0.0
 11
-10.5866645042
 21
-24.2857556693
 31
0.0
 11
-10.5865033363
 21
-24.2828117467
 31
0.0
 11
-10.586355084
 21
-24.2781411201
 31
0.0
 11
-10.5862253409
 21
-24.2719190777
 31
0.0
 11
-10.5861189878
 21
-24.2643794389
 31
0.0
 11
-10.5860400262
 21
-24.2558053137
 31
0.0
 11
-10.5859750215
 21
-24.2368706193
 31
0.0
  0
SPLINE
  5
701
100
AcDbEntity
  8
ASSI
100
AcDbSpline
 62
253
  6
CONTINUOUS
 70
0
 71
3
 72
11
 73
7
 74
5
 42
0.0000001
 43
0.0000001
 44
0.0000000001
 12
-0.0029298796
 22
-0.2908179665
 32
0.0
 13
-0.2908244179
 23
-0.0021981283
 33
0.0
 40
0.0
 40
0.0
 40
0.0
 40
0.0
 40
0.2330683206
 40
0.4768288809
 40
0.7340988478
 40
1.0
 40
1.0
 40
1.0
 40
1.0
 10
10.5864113981
 20
23.8010362971
 30
0.0
 10
10.5861837774
 20
23.7784428121
 30
0.0
 10
10.5747821163
 20
23.7317691273
 30
0.0
 10
10.5292238827
 20
23.6746347862
 30
0.0
 10
10.463303947
 20
23.6369744365
 30
0.0
 10
10.4122187083
 20
23.6280260446
 30
0.0
 10
10.3864418591
 20
23.6278312163
 30
0.0
 11
10.5864113981
 21
23.8010362971
 31
0.0
 11
10.5706918493
 21
23.7351003269
 31
0.0
 11
10.5272287429
 21
23.6790927066
 31
0.0
 11
10.4625665635
 21
23.6414468188
 31
0.0
 11
10.3864418591
 21
23.6278312163
 31
0.0
  0
SPLINE
  5
702
100
AcDbEntity
  8
ASSI
100
AcDbSpline
 62
253
  6
CONTINUOUS
 70
0
 71
3
 72
11
 73
7
 74
5
 42
0.0000001
 43
0.0000001
 44
0.0000000001
 12
-0.290824418
 22
0.002198128
 32
0.0
 13
-0.0029298796
 23
0.2908179665
 33
0.0
 40
0.0
 40
0.0
 40
0.0
 40
0.0
 40
0.2659011522
 40
0.5231711191
 40
0.7669316794
 40
1.0
 40
1.0
 40
1.0
 40
1.0
 10
7.4135581409
 20
23.6278312163
 30
0.0
 10
7.3877812917
 20
23.6280260446
 30
0.0
 10
7.336696053
 20
23.6369744364
 30
0.0
 10
7.2707761173
 20
23.6746347862
 30
0.0
 10
7.2252178837
 20
23.7317691273
 30
0.0
 10
7.2138162226
 20
23.7784428121
 30
0.0
 10
7.2135886019
 20
23.8010362971
 30
0.0
 11
7.4135581409
 21
23.6278312163
 31
0.0
 11
7.3374334365
 21
23.6414468187
 31
0.0
 11
7.2727712571
 21
23.6790927066
 31
0.0
 11
7.2293081507
 21
23.7351003269
 31
0.0
 11
7.2135886019
 21
23.8010362971
 31
0.0
  0
SPLINE
  5
703
100
AcDbEntity
  8
ASSI
100
AcDbSpline
 62
253
  6
CONTINUOUS
 70
0
 71
3
 72
11
 73
7
 74
5
 42
0.0000001
 43
0.0000001
 44
0.0000000001
 12
0.290824418
 22
0.0021981279
 32
0.0
 13
0.0029298796
 23
0.2908179665
 33
0.0
 40
0.0
 40
0.0
 40
0.0
 40
0.0
 40
0.2659011537
 40
0.5231711216
 40
0.7669316808
 40
1.0
 40
1.0
 40
1.0
 40
1.0
 10
-7.4135581409
 20
23.6278312163
 30
0.0
 10
-7.3877812915
 20
23.6280260446
 30
0.0
 10
-7.3366960526
 20
23.6369744366
 30
0.0
 10
-7.2707761169
 20
23.6746347866
 30
0.0
 10
-7.2252178835
 20
23.7317691277
 30
0.0
 10
-7.2138162226
 20
23.7784428122
 30
0.0
 10
-7.2135886019
 20
23.8010362971
 30
0.0
 11
-7.4135581409
 21
23.6278312163
 31
0.0
 11
-7.3374334361
 21
23.6414468189
 31
0.0
 11
-7.2727712565
 21
23.6790927071
 31
0.0
 11
-7.2293081505
 21
23.7351003272
 31
0.0
 11
-7.2135886019
 21
23.8010362971
 31
0.0
  0
SPLINE
  5
704
100
AcDbEntity
  8
ASSI
100
AcDbSpline
 62
253
  6
CONTINUOUS
 70
0
 71
3
 72
11
 73
7
 74
5
 42
0.0000001
 43
0.0000001
 44
0.0000000001
 12
0.0029298877
 22
-0.290817936
 32
0.0
 13
0.2908243864
 23
-0.0021982718
 33
0.0
 40
0.0
 40
0.0
 40
0.0
 40
0.0
 40
0.2330682335
 40
0.4768287988
 40
0.7340988118
 40
1.0
 40
1.0
 40
1.0
 40
1.0
 10
-10.5864113981
 20
23.8010362971
 30
0.0
 10
-10.5861837769
 20
23.7784428229
 30
0.0
 10
-10.5747821072
 20
23.7317691528
 30
0.0
 10
-10.5292238729
 20
23.6746348299
 30
0.0
 10
-10.4633039456
 20
23.6369744694
 30
0.0
 10
-10.412218709
 20
23.6280260574
 30
0.0
 10
-10.3864418591
 20
23.6278312164
 30
0.0
 11
-10.5864113981
 21
23.8010362971
 31
0.0
 11
-10.5706918472
 21
23.7351003607
 31
0.0
 11
-10.5272287389
 21
23.6790927495
 31
0.0
 11
-10.4625665606
 21
23.6414468486
 31
0.0
 11
-10.3864418591
 21
23.6278312164
 31
0.0
  0
LINE
  5
705
100
AcDbEntity
  8
ASSI
100
AcDbLine
 62
7
  6
CONTINUOUS
 10
9.2533769702
 20
23.6278312163
 11
9.0368706193
 21
23.8443375673
  0
SPLINE
  5
706
100
AcDbEntity
  8
ASSI
100
AcDbSpline
 62
253
  6
CONTINUOUS
 70
0
 71
3
 72
9
 73
5
 74
3
 42
0.0000001
 43
0.0000001
 44
0.0000000001
 12
-0.0000041288
 22
-0.2164298683
 32
0.0
 13
0.0012987802
 23
-0.2164259713
 33
0.0
 40
0.0
 40
0.0
 40
0.0
 40
0.0
 40
0.2987119025
 40
1.0
 40
1.0
 40
1.0
 40
1.0
 10
10.3860055349
 20
23.844250724
 30
0.0
 10
10.3860051238
 20
23.8227006648
 30
0.0
 10
10.3860484515
 20
23.750557468
 30
0.0
 10
10.3861383046
 20
23.6784137267
 30
0.0
 10
10.386441911
 20
23.6278214075
 30
0.0
 11
10.3860055349
 21
23.844250724
 31
0.0
 11
10.3860351602
 21
23.7796005531
 31
0.0
 11
10.386441911
 21
23.6278214075
 31
0.0
  0
SPLINE
  5
707
100
AcDbEntity
  8
ASSI
100
AcDbSpline
 62
253
  6
CONTINUOUS
 70
0
 71
3
 72
14
 73
10
 74
8
 42
0.0000001
 43
0.0000001
 44
0.0000000001
 12
-0.0491134197
 22
-0.2450939515
 32
0.0
 13
-0.0000001703
 23
-0.2499663439
 33
0.0
 40
0.0
 40
0.0
 40
0.0
 40
0.0
 40
0.0221565105
 40
0.0810450584
 40
0.1744730098
 40
0.2989360946
 40
0.4497542304
 40
0.6212613331
 40
1.0
 40
1.0
 40
1.0
 40
1.0
 10
10.3868630041
 20
24.4868325431
 30
0.0
 10
10.3865002767
 20
24.4850224008
 30
0.0
 10
10.3869605991
 20
24.4781936534
 30
0.0
 10
10.3863079234
 20
24.463725167
 30
0.0
 10
10.3864468332
 20
24.4406272257
 30
0.0
 10
10.3862105136
 20
24.4099208826
 30
0.0
 10
10.3861491409
 20
24.3726882928
 30
0.0
 10
10.3860272632
 20
24.3142765062
 30
0.0
 10
10.386005504
 20
24.2684279259
 30
0.0
 10
10.3860054824
 20
24.2368706193
 30
0.0
 11
10.3868630041
 21
24.4868325431
 31
0.0
 11
10.3866949038
 21
24.4812967128
 31
0.0
 11
10.3865337258
 21
24.4665774402
 31
0.0
 11
10.3863854758
 21
24.4432240674
 31
0.0
 11
10.3862557434
 21
24.4121127556
 31
0.0
 11
10.3861494083
 21
24.3744134476
 31
0.0
 11
10.3860704692
 21
24.3315425168
 31
0.0
 11
10.3860054824
 21
24.2368706193
 31
0.0
  0
SPLINE
  5
708
100
AcDbEntity
  8
ASSI
100
AcDbSpline
 62
253
  6
CONTINUOUS
 70
0
 71
3
 72
14
 73
10
 74
8
 42
0.0000001
 43
0.0000001
 44
0.0000000001
 12
0.0491043212
 22
-0.2450957745
 32
0.0
 13
-0.0000000526
 23
-0.2499663438
 33
0.0
 40
0.0
 40
0.0
 40
0.0
 40
0.0
 40
0.022157059
 40
0.0810464688
 40
0.1744747522
 40
0.2989370018
 40
0.449754176
 40
0.6212612533
 40
1.0
 40
1.0
 40
1.0
 40
1.0
 10
7.4131369959
 20
24.4868325431
 30
0.0
 10
7.4134996651
 20
24.4850223426
 30
0.0
 10
7.413039502
 20
24.4781935071
 30
0.0
 10
7.4136920061
 20
24.4637248483
 30
0.0
 10
7.4135531668
 20
24.440626892
 30
0.0
 10
7.4137894372
 20
24.4099206646
 30
0.0
 10
7.4138508104
 20
24.3726882289
 30
0.0
 10
7.4139726997
 20
24.314276517
 30
0.0
 10
7.4139945242
 20
24.2684279325
 30
0.0
 10
7.4139945176
 20
24.2368706193
 30
0.0
 11
7.4131369959
 21
24.4868325431
 31
0.0
 11
7.4133051064
 21
24.481296576
 31
0.0
 11
7.413466268
 21
24.4665770877
 31
0.0
 11
7.4136145007
 21
24.4432236318
 31
0.0
 11
7.4137442186
 21
24.4121125288
 31
0.0
 11
7.4138505439
 21
24.3744134611
 31
0.0
 11
7.4139294957
 21
24.3315425367
 31
0.0
 11
7.4139945176
 21
24.2368706193
 31
0.0
  0
SPLINE
  5
709
100
AcDbEntity
  8
ASSI
100
AcDbSpline
 62
253
  6
CONTINUOUS
 70
0
 71
3
 72
14
 73
10
 74
8
 42
0.0000001
 43
0.0000001
 44
0.0000000001
 12
-0.0000000323
 22
0.2499663453
 32
0.0
 13
0.049087989
 23
0.2450990475
 33
0.0
 40
0.0
 40
0.0
 40
0.0
 40
0.0
 40
0.3786065168
 40
0.5501055326
 40
0.7009400823
 40
0.8254330677
 40
0.9188998663
 40
0.9778256462
 40
1.0
 40
1.0
 40
1.0
 40
1.0
 10
-7.4139945176
 20
24.2368706193
 30
0.0
 10
-7.4139945216
 20
24.2684169151
 30
0.0
 10
-7.4139727084
 20
24.3142538091
 30
0.0
 10
-7.4138509227
 20
24.3726552825
 30
0.0
 10
-7.413789518
 20
24.4098910507
 30
0.0
 10
-7.4135533778
 20
24.4406045068
 30
0.0
 10
-7.4136920289
 20
24.4637112467
 30
0.0
 10
-7.4130396904
 20
24.4781876029
 30
0.0
 10
-7.4134998274
 20
24.4850209054
 30
0.0
 10
-7.4131369959
 20
24.4868325431
 30
0.0
 11
-7.4139945176
 21
24.2368706193
 31
0.0
 11
-7.4139295548
 21
24.3315094843
 31
0.0
 11
-7.4138506466
 21
24.3743783938
 31
0.0
 11
-7.4137443438
 21
24.4120818051
 31
0.0
 11
-7.4136146489
 21
24.4432005914
 31
0.0
 11
-7.4134663984
 21
24.4665636751
 31
0.0
 11
-7.413305262
 21
24.4812922556
 31
0.0
 11
-7.4131369959
 21
24.4868325431
 31
0.0
  0
SPLINE
  5
70A
100
AcDbEntity
  8
ASSI
100
AcDbSpline
 62
253
  6
CONTINUOUS
 70
0
 71
3
 72
14
 73
10
 74
8
 42
0.0000001
 43
0.0000001
 44
0.0000000001
 12
0.0000000687
 22
0.2499663444
 32
0.0
 13
-0.0491137667
 23
0.2450938825
 33
0.0
 40
0.0
 40
0.0
 40
0.0
 40
0.0
 40
0.3786395008
 40
0.550139788
 40
0.7009672494
 40
0.8254503747
 40
0.9189081356
 40
0.9778278067
 40
1.0
 40
1.0
 40
1.0
 40
1.0
 10
-10.3860054824
 20
24.2368706193
 30
0.0
 10
-10.3860054738
 20
24.2684196632
 30
0.0
 10
-10.3860272975
 20
24.3142594125
 30
0.0
 10
-10.3861491224
 20
24.3726631466
 30
0.0
 10
-10.3862104998
 20
24.4098976144
 30
0.0
 10
-10.3864467432
 20
24.4406088888
 30
0.0
 10
-10.3863078639
 20
24.4637135837
 30
0.0
 10
-10.386960606
 20
24.4781884258
 30
0.0
 10
-10.3865000174
 20
24.4850211201
 30
0.0
 10
-10.3868630041
 20
24.4868325431
 30
0.0
 11
-10.3860054824
 21
24.2368706193
 31
0.0
 11
-10.3860704682
 21
24.3315177288
 31
0.0
 11
-10.3861493912
 21
24.374386956
 31
0.0
 11
-10.3862557031
 21
24.4120885953
 31
0.0
 11
-10.3863854026
 21
24.4432049167
 31
0.0
 11
-10.3865336466
 21
24.4665657412
 31
0.0
 11
-10.3866947826
 21
24.4812927945
 31
0.0
 11
-10.3868630041
 21
24.4868325431
 31
0.0
  0
LINE
  5
70B
100
AcDbEntity
  8
ASSI
100
AcDbLine
 62
7
  6
CONTINUOUS
 10
-8.5466230298
 20
23.6278312163
 11
-8.7631293807
 21
23.8443375673
  0
SPLINE
  5
70C
100
AcDbEntity
  8
ASSI
100
AcDbSpline
 62
253
  6
CONTINUOUS
 70
0
 71
3
 72
9
 73
5
 74
3
 42
0.0000001
 43
0.0000001
 44
0.0000000001
 12
-0.0000000896
 22
0.2165058745
 32
0.0
 13
0.0013063683
 23
0.2165019332
 33
0.0
 40
0.0
 40
0.0
 40
0.0
 40
0.0
 40
0.2987947629
 40
1.0
 40
1.0
 40
1.0
 40
1.0
 10
-7.4139945176
 20
-23.8443375673
 30
0.0
 10
-7.4139945265
 20
-23.8227739602
 30
0.0
 10
-7.4139514454
 20
-23.7506054304
 30
0.0
 10
-7.4138634909
 20
-23.6784363407
 30
0.0
 10
-7.4135581468
 20
-23.6278322442
 30
0.0
 11
-7.4139945176
 21
-23.8443375673
 31
0.0
 11
-7.4139647755
 21
-23.7796467527
 31
0.0
 11
-7.4135581468
 21
-23.6278322442
 31
0.0
  0
LINE
  5
70D
100
AcDbEntity
  8
ASSI
100
AcDbLine
 62
7
  6
CONTINUOUS
 10
-8.5466230298
 20
-23.6278312164
 11
-8.7631293807
 21
-23.8443375673
  0
SPLINE
  5
70E
100
AcDbEntity
  8
ASSI
100
AcDbSpline
 62
253
  6
CONTINUOUS
 70
0
 71
3
 72
14
 73
10
 74
8
 42
0.0000001
 43
0.0000001
 44
0.0000000001
 12
-0.049160375
 22
0.2450845349
 32
0.0
 13
0.0000001471
 23
0.2499663411
 33
0.0
 40
0.0
 40
0.0
 40
0.0
 40
0.0
 40
0.0221560165
 40
0.0810435119
 40
0.1744698991
 40
0.2989314089
 40
0.4497489564
 40
0.6212570669
 40
1.0
 40
1.0
 40
1.0
 40
1.0
 10
-7.4131369959
 20
-24.4868325431
 30
0.0
 10
-7.413500062
 20
-24.4850225107
 30
0.0
 10
-7.4130387714
 20
-24.4781937303
 30
0.0
 10
-7.4136922938
 20
-24.4637256474
 30
0.0
 10
-7.413552889
 20
-24.4406279784
 30
0.0
 10
-7.413789417
 20
-24.4099219782
 30
0.0
 10
-7.4138507262
 20
-24.3726894737
 30
0.0
 10
-7.4139726907
 20
-24.3142773023
 30
0.0
 10
-7.4139945361
 20
-24.268428281
 30
0.0
 10
-7.4139945176
 20
-24.2368706193
 30
0.0
 11
-7.4131369959
 21
-24.4868325431
 31
0.0
 11
-7.4133050077
 21
-24.4812968337
 31
0.0
 11
-7.4134661723
 21
-24.4665778243
 31
0.0
 11
-7.4136143962
 21
-24.4432248425
 31
0.0
 11
-7.4137441318
 21
-24.4121139248
 31
0.0
 11
-7.4138504802
 21
-24.3744147643
 31
0.0
 11
-7.4139294606
 21
-24.3315435821
 31
0.0
 11
-7.4139945176
 21
-24.2368706193
 31
0.0
  0
SPLINE
  5
70F
100
AcDbEntity
  8
ASSI
100
AcDbSpline
 62
253
  6
CONTINUOUS
 70
0
 71
3
 72
14
 73
10
 74
8
 42
0.0000001
 43
0.0000001
 44
0.0000000001
 12
0.0491706112
 22
0.2450824821
 32
0.0
 13
-0.0000001167
 23
0.2499663418
 33
0.0
 40
0.0
 40
0.0
 40
0.0
 40
0.0
 40
0.0221606293
 40
0.0810577598
 40
0.1744933938
 40
0.2989593438
 40
0.4497753959
 40
0.6212776652
 40
1.0
 40
1.0
 40
1.0
 40
1.0
 10
-10.3868630041
 20
-24.4868325431
 30
0.0
 10
-10.3864997868
 20
-24.4850221491
 30
0.0
 10
-10.3869613057
 20
-24.4781921339
 30
0.0
 10
-10.3863075985
 20
-24.4637221322
 30
0.0
 10
-10.3864470753
 20
-24.4406225019
 30
0.0
 10
-10.3862105356
 20
-24.409915492
 30
0.0
 10
-10.3861492425
 20
-24.3726832268
 30
0.0
 10
-10.3860272975
 20
-24.3142733835
 30
0.0
 10
-10.3860054677
 20
-24.2684265648
 30
0.0
 10
-10.3860054824
 20
-24.2368706193
 30
0.0
 11
-10.3868630041
 21
-24.4868325431
 31
0.0
 11
-10.386694946
 21
-24.4812956816
 31
0.0
 11
-10.3865337749
 21
-24.4665742635
 31
0.0
 11
-10.3863855484
 21
-24.4432189703
 31
0.0
 11
-10.3862558215
 21
-24.4121069425
 31
0.0
 11
-10.3861494862
 21
-24.3744081557
 31
0.0
 11
-10.386070521
 21
-24.3315384335
 31
0.0
 11
-10.3860054824
 21
-24.2368706193
 31
0.0
  0
LINE
  5
710
100
AcDbEntity
  8
ASSI
100
AcDbLine
 62
7
  6
CONTINUOUS
 10
9.2533769702
 20
-23.6278312164
 11
9.0368706193
 21
-23.8443375673
  0
SPLINE
  5
711
100
AcDbEntity
  8
ASSI
100
AcDbSpline
 62
253
  6
CONTINUOUS
 70
0
 71
3
 72
14
 73
10
 74
8
 42
0.0000001
 43
0.0000001
 44
0.0000000001
 12
-0.0000001189
 22
-0.249966339
 32
0.0
 13
0.0492099614
 23
-0.2450745811
 33
0.0
 40
0.0
 40
0.0
 40
0.0
 40
0.0
 40
0.3786100409
 40
0.5501099883
 40
0.7009445796
 40
0.8254365358
 40
0.9189015662
 40
0.9778261556
 40
1.0
 40
1.0
 40
1.0
 40
1.0
 10
10.3860054824
 20
-24.2368706193
 30
0.0
 10
10.3860054674
 20
-24.2684172079
 30
0.0
 10
10.3860272746
 20
-24.3142544772
 30
0.0
 10
10.3861492046
 20
-24.3726563112
 30
0.0
 10
10.3862104419
 20
-24.4098921038
 30
0.0
 10
10.3864471949
 20
-24.4406052452
 30
0.0
 10
10.3863072154
 20
-24.4637118553
 30
0.0
 10
10.3869620337
 20
-24.4781875415
 30
0.0
 10
10.3864992794
 20
-24.4850211279
 30
0.0
 10
10.3868630041
 20
-24.4868325431
 30
0.0
 11
10.3860054824
 21
-24.2368706193
 31
0.0
 11
10.3860704826
 21
-24.3315103628
 31
0.0
 11
10.3861494322
 21
-24.3743795041
 31
0.0
 11
10.3862557753
 21
-24.4120829247
 31
0.0
 11
10.3863855161
 21
-24.4432014527
 31
0.0
 11
10.3865337698
 21
-24.4665640938
 31
0.0
 11
10.386694994
 21
-24.4812923753
 31
0.0
 11
10.3868630041
 21
-24.4868325431
 31
0.0
  0
SPLINE
  5
712
100
AcDbEntity
  8
ASSI
100
AcDbSpline
 62
253
  6
CONTINUOUS
 70
0
 71
3
 72
14
 73
10
 74
8
 42
0.0000001
 43
0.0000001
 44
0.0000000001
 12
0.000000141
 22
-0.2499663422
 32
0.0
 13
-0.0491548559
 23
-0.245085643
 33
0.0
 40
0.0
 40
0.0
 40
0.0
 40
0.0
 40
0.3786133066
 40
0.5501125278
 40
0.7009454954
 40
0.8254364819
 40
0.9189015373
 40
0.9778261401
 40
1.0
 40
1.0
 40
1.0
 40
1.0
 10
7.4139945176
 20
-24.2368706193
 30
0.0
 10
7.4139945353
 20
-24.2684174804
 30
0.0
 10
7.4139727011
 20
-24.3142549596
 30
0.0
 10
7.4138508281
 20
-24.3726568764
 30
0.0
 10
7.4137895106
 20
-24.4098923791
 30
0.0
 10
7.4135530617
 20
-24.4406053457
 30
0.0
 10
7.4136924069
 20
-24.4637117853
 30
0.0
 10
7.4130388117
 20
-24.478187651
 30
0.0
 10
7.4135003136
 20
-24.4850210448
 30
0.0
 10
7.4131369959
 20
-24.4868325431
 30
0.0
 11
7.4139945176
 21
-24.2368706193
 31
0.0
 11
7.4139295164
 21
-24.3315111803
 31
0.0
 11
7.4138505782
 21
-24.3743801407
 31
0.0
 11
7.4137442558
 21
-24.412083156
 31
0.0
 11
7.4136145445
 21
-24.4432014422
 31
0.0
 11
7.4134663063
 21
-24.4665640899
 31
0.0
 11
7.4133051477
 21
-24.4812923757
 31
0.0
 11
7.4131369959
 21
-24.4868325431
 31
0.0
  0
SPLINE
  5
713
100
AcDbEntity
  8
ASSI
100
AcDbSpline
 62
253
  6
CONTINUOUS
 70
0
 71
3
 72
9
 73
5
 74
3
 42
0.0000001
 43
0.0000001
 44
0.0000000001
 12
-0.0013086735
 22
0.0432844709
 32
0.0
 13
0.0000000099
 23
0.0433042498
 33
0.0
 40
0.0
 40
0.0
 40
0.0
 40
0.0
 40
0.1834825616
 40
1.0
 40
1.0
 40
1.0
 40
1.0
 10
-7.2135886019
 20
23.8010362971
 30
0.0
 10
-7.2136686415
 20
23.8036836123
 30
0.0
 10
-7.2139645803
 20
23.8181157392
 30
0.0
 10
-7.2140249812
 20
23.8325513423
 30
0.0
 10
-7.2140249785
 20
23.8443375673
 30
0.0
 11
-7.2135886019
 21
23.8010362971
 31
0.0
 11
-7.2137693111
 21
23.8089798165
 31
0.0
 11
-7.2140249785
 21
23.8443375673
 31
0.0
  0
SPLINE
  5
714
100
AcDbEntity
  8
ASSI
100
AcDbSpline
 62
253
  6
CONTINUOUS
 70
0
 71
3
 72
14
 73
10
 74
8
 42
0.0000001
 43
0.0000001
 44
0.0000000001
 12
-0.0000000047
 22
0.0500143989
 32
0.0
 13
0.0353848757
 23
0.035346155
 33
0.0
 40
0.0
 40
0.0
 40
0.0
 40
0.0
 40
0.3784710411
 40
0.5499082368
 40
0.7006911169
 40
0.825150225
 40
0.9186143814
 40
0.9775915881
 40
1.0
 40
1.0
 40
1.0
 40
1.0
 10
-7.2140249785
 20
24.2368706193
 30
0.0
 10
-7.2140249791
 20
24.2431802865
 30
0.0
 10
-7.214000457
 20
24.2523507953
 30
0.0
 10
-7.213885255
 20
24.2640254086
 30
0.0
 10
-7.2138080007
 20
24.2714870425
 30
0.0
 10
-7.2136161172
 20
24.2775893261
 30
0.0
 10
-7.2136474128
 20
24.2823090139
 30
0.0
 10
-7.2131955826
 20
24.2850232183
 30
0.0
 10
-7.2134317632
 20
24.286598987
 30
0.0
 10
-7.2131674569
 20
24.286863004
 30
0.0
 11
-7.2140249785
 21
24.2368706193
 31
0.0
 11
-7.2139600142
 21
24.2557995094
 31
0.0
 11
-7.2138810802
 21
24.2643734744
 31
0.0
 11
-7.2137747462
 21
24.2719140398
 31
0.0
 11
-7.2136450122
 21
24.2781374352
 31
0.0
 11
-7.2134967536
 21
24.2828096371
 31
0.0
 11
-7.2133355535
 21
24.2857549386
 31
0.0
 11
-7.2131674569
 21
24.286863004
 31
0.0
  0
SPLINE
  5
715
100
AcDbEntity
  8
ASSI
100
AcDbSpline
 62
253
  6
CONTINUOUS
 70
0
 71
3
 72
14
 73
10
 74
8
 42
0.0000001
 43
0.0000001
 44
0.0000000001
 12
-0.0353709844
 22
0.0353600593
 32
0.0
 13
0.0000000167
 23
0.0500144012
 33
0.0
 40
0.0
 40
0.0
 40
0.0
 40
0.0
 40
0.0223888543
 40
0.0813290826
 40
0.1747525517
 40
0.2991802371
 40
0.4499460735
 40
0.6213923018
 40
1.0
 40
1.0
 40
1.0
 40
1.0
 10
-7.2131674569
 20
-24.2868630041
 30
0.0
 10
-7.2134314289
 20
-24.2865991136
 30
0.0
 10
-7.2131958074
 20
-24.2850247052
 30
0.0
 10
-7.2136471431
 20
-24.2823117927
 30
0.0
 10
-7.2136160556
 20
-24.2775940746
 30
0.0
 10
-7.213807882
 20
-24.2714932256
 30
0.0
 10
-7.2138851846
 20
-24.2640322645
 30
0.0
 10
-7.2140004409
 20
-24.2523555021
 30
0.0
 10
-7.2140249806
 20
-24.2431825651
 30
0.0
 10
-7.2140249785
 20
-24.2368706193
 30
0.0
 11
-7.2131674569
 21
-24.2868630041
 31
0.0
 11
-7.213335476
 21
-24.2857559162
 31
0.0
 11
-7.2134966352
 21
-24.2828124645
 31
0.0
 11
-7.2136448865
 21
-24.2781422981
 31
0.0
 11
-7.2137746358
 21
-24.2719204747
 31
0.0
 11
-7.2138809975
 21
-24.2643807618
 31
0.0
 11
-7.2139599669
 21
-24.255806345
 31
0.0
 11
-7.2140249785
 21
-24.2368706193
 31
0.0
  0
SPLINE
  5
716
100
AcDbEntity
  8
ASSI
100
AcDbSpline
 62
253
  6
CONTINUOUS
 70
0
 71
3
 72
9
 73
5
 74
3
 42
0.0000001
 43
0.0000001
 44
0.0000000001
 12
-0.0000000129
 22
0.0433040273
 32
0.0
 13
0.0013086549
 23
0.0432842489
 33
0.0
 40
0.0
 40
0.0
 40
0.0
 40
0.0
 40
0.2987891373
 40
1.0
 40
1.0
 40
1.0
 40
1.0
 10
-7.2140249785
 20
-23.8443375673
 30
0.0
 10
-7.2140249798
 20
-23.840024643
 30
0.0
 10
-7.2139818312
 20
-23.8255904462
 30
0.0
 10
-7.2138944829
 20
-23.8111534256
 30
0.0
 10
-7.2135886019
 20
-23.8010362971
 30
0.0
 11
-7.2140249785
 21
-23.8443375673
 31
0.0
 11
-7.2139952492
 21
-23.8313988285
 31
0.0
 11
-7.2135886019
 21
-23.8010362971
 31
0.0
  0
SPLINE
  5
717
100
AcDbEntity
  8
ASSI
100
AcDbSpline
 62
253
  6
CONTINUOUS
 70
0
 71
3
 72
27
 73
23
 74
21
 42
0.0000001
 43
0.0000001
 44
0.0000000001
 12
-0.0107490528
 22
-0.2559933212
 32
0.0
 13
0.1779199817
 23
0.1843708295
 33
0.0
 40
0.0
 40
0.0
 40
0.0
 40
0.0
 40
0.002508023
 40
0.0096585238
 40
0.0214522314
 40
0.0378118978
 40
0.0585674251
 40
0.0835099134
 40
0.1450343549
 40
0.2200319296
 40
0.305685723
 40
0.3987196678
 40
0.4956033958
 40
0.6861889623
 40
0.7726554285
 40
0.848752064
 40
0.911613964
 40
0.9588365752
 40
0.976016263
 40
0.988658771
 40
0.9966686723
 40
1.0
 40
1.0
 40
1.0
 40
1.0
 10
3.8457122528
 20
23.901792714
 30
0.0
 10
3.8457032665
 20
23.9015787017
 30
0.0
 10
3.8469672354
 20
23.9015944072
 30
0.0
 10
3.8483672772
 20
23.9012496257
 30
0.0
 10
3.851613806
 20
23.9011424673
 30
0.0
 10
3.8556828304
 20
23.9009063381
 30
0.0
 10
3.8610189411
 20
23.9007293503
 30
0.0
 10
3.8701545125
 20
23.9004589591
 30
0.0
 10
3.8839533526
 20
23.900182076
 30
0.0
 10
3.9029220825
 20
23.8999132008
 30
0.0
 10
3.9245890864
 20
23.8997138677
 30
0.0
 10
3.9481239064
 20
23.8995882494
 30
0.0
 10
3.9806212913
 20
23.8995294861
 30
0.0
 10
4.0125586684
 20
23.8996252913
 30
0.0
 10
4.0427170106
 20
23.8998939086
 30
0.0
 10
4.0619721287
 20
23.9001496955
 30
0.0
 10
4.077858743
 20
23.9004792399
 30
0.0
 10
4.0887487742
 20
23.9007652719
 30
0.0
 10
4.0952873594
 20
23.9010994359
 30
0.0
 10
4.0985738047
 20
23.9012267124
 30
0.0
 10
4.1004972344
 20
23.9015497126
 30
0.0
 10
4.1015934553
 20
23.9015482158
 30
0.0
 10
4.1017910252
 20
23.901752949
 30
0.0
 11
3.8457122528
 21
23.901792714
 31
0.0
 11
3.8463169705
 21
23.9015753321
 31
0.0
 11
3.8481362989
 21
23.9013594372
 31
0.0
 11
3.8511506261
 21
23.90114747
 31
0.0
 11
3.8553372334
 21
23.9009418097
 31
0.0
 11
3.8606515266
 21
23.9007444043
 31
0.0
 11
3.8670395155
 21
23.9005570167
 31
0.0
 11
3.8827996193
 21
23.9002191716
 31
0.0
 11
3.9020134009
 21
23.8999409572
 31
0.0
 11
3.923958538
 21
23.8997332118
 31
0.0
 11
3.947795241
 21
23.8996037408
 31
0.0
 11
3.9726186395
 21
23.8995573654
 31
0.0
 11
4.0214499984
 21
23.8997181003
 31
0.0
 11
4.04360343
 21
23.8999189993
 31
0.0
 11
4.0630989259
 21
23.9001911884
 31
0.0
 11
4.0792018924
 21
23.9005240631
 31
0.0
 11
4.0912952146
 21
23.9009051529
 31
0.0
 11
4.0956922301
 21
23.9011094851
 31
0.0
 11
4.0989245999
 21
23.9013204884
 31
0.0
 11
4.1009655635
 21
23.9015357876
 31
0.0
 11
4.1017910252
 21
23.901752949
 31
0.0
  0
SPLINE
  5
718
100
AcDbEntity
  8
ASSI
100
AcDbSpline
 62
253
  6
CONTINUOUS
 70
0
 71
3
 72
27
 73
23
 74
21
 42
0.0000001
 43
0.0000001
 44
0.0000000001
 12
0.0101248298
 22
-0.2560187009
 32
0.0
 13
-0.1792859856
 23
0.1830426802
 33
0.0
 40
0.0
 40
0.0
 40
0.0
 40
0.0
 40
0.0025090875
 40
0.0096593287
 40
0.0214521141
 40
0.0378109411
 40
0.058566012
 40
0.0835083185
 40
0.1450331819
 40
0.2200314167
 40
0.3056855407
 40
0.398719704
 40
0.4956037057
 40
0.6861892722
 40
0.7726552788
 40
0.8487494876
 40
0.9116111516
 40
0.9588361284
 40
0.9760146553
 40
0.9886537051
 40
0.9966623648
 40
1.0
 40
1.0
 40
1.0
 40
1.0
 10
-3.8457122528
 20
23.901792714
 30
0.0
 10
-3.8457037848
 20
23.9015785896
 30
0.0
 10
-3.8469667341
 20
23.9015945738
 30
0.0
 10
-3.8483678893
 20
23.9012495415
 30
0.0
 10
-3.8516135945
 20
23.901142502
 30
0.0
 10
-3.8556827089
 20
23.9009063154
 30
0.0
 10
-3.8610185866
 20
23.9007293491
 30
0.0
 10
-3.8701541851
 20
23.9004589449
 30
0.0
 10
-3.8839530684
 20
23.9001820733
 30
0.0
 10
-3.9029219261
 20
23.8999131971
 30
0.0
 10
-3.9245890236
 20
23.8997138654
 30
0.0
 10
-3.9481239082
 20
23.8995882479
 30
0.0
 10
-3.9806213289
 20
23.8995294883
 30
0.0
 10
-4.0125586643
 20
23.8996253125
 30
0.0
 10
-4.0427167888
 20
23.8998939023
 30
0.0
 10
-4.0619715455
 20
23.9001497697
 30
0.0
 10
-4.0778583802
 20
23.9004791458
 30
0.0
 10
-4.0887479397
 20
23.9007655718
 30
0.0
 10
-4.0952871119
 20
23.9010991163
 30
0.0
 10
-4.0985716827
 20
23.9012274618
 30
0.0
 10
-4.1004978276
 20
23.901548566
 30
0.0
 10
-4.1015915615
 20
23.9015493058
 30
0.0
 10
-4.1017910252
 20
23.901752949
 30
0.0
 11
-3.8457122528
 21
23.901792714
 31
0.0
 11
-3.8463172603
 21
23.9015753324
 31
0.0
 11
-3.8481365211
 21
23.9013594371
 31
0.0
 11
-3.8511506105
 21
23.9011474685
 31
0.0
 11
-3.8553370013
 21
23.9009418061
 31
0.0
 11
-3.8606511759
 21
23.9007443988
 31
0.0
 11
-3.8670391165
 21
23.90055701
 31
0.0
 11
-3.8827993242
 21
23.9002191662
 31
0.0
 11
-3.9020132698
 21
23.8999409534
 31
0.0
 11
-3.9239584857
 21
23.8997332092
 31
0.0
 11
-3.9477952383
 21
23.8996037396
 31
0.0
 11
-3.9726187003
 21
23.899557368
 31
0.0
 11
-4.0214500461
 21
23.899718111
 31
0.0
 11
-4.0436033539
 21
23.8999190143
 31
0.0
 11
-4.0630982227
 21
23.9001912108
 31
0.0
 11
-4.0792011242
 21
23.9005240927
 31
0.0
 11
-4.0912950497
 21
23.9009051784
 31
0.0
 11
-4.0956917666
 21
23.9011095026
 31
0.0
 11
-4.0989232482
 21
23.9013204974
 31
0.0
 11
-4.100963892
 21
23.9015357907
 31
0.0
 11
-4.1017910252
 21
23.901752949
 31
0.0
  0
LINE
  5
719
100
AcDbEntity
  8
ASSI
100
AcDbLine
 62
7
  6
CONTINUOUS
 10
8.5466230298
 20
23.6278312163
 11
8.7631293807
 21
23.8443375673
  0
SPLINE
  5
71A
100
AcDbEntity
  8
ASSI
100
AcDbSpline
 62
253
  6
CONTINUOUS
 70
0
 71
3
 72
9
 73
5
 74
3
 42
0.0000001
 43
0.0000001
 44
0.0000000001
 12
0.0000000792
 22
-0.2165052661
 32
0.0
 13
-0.0013107614
 23
-0.2165012983
 33
0.0
 40
0.0
 40
0.0
 40
0.0
 40
0.0
 40
0.2988001338
 40
1.0
 40
1.0
 40
1.0
 40
1.0
 10
7.4139945172
 20
23.8443359311
 30
0.0
 10
7.4139945251
 20
23.8227719969
 30
0.0
 10
7.4139511999
 20
23.7506036713
 30
0.0
 10
7.4138645095
 20
23.6784347768
 30
0.0
 10
7.4135581409
 20
23.6278312163
 30
0.0
 11
7.4139945172
 21
23.8443359311
 31
0.0
 11
7.4139647622
 21
23.7796441354
 31
0.0
 11
7.4135581409
 21
23.6278312163
 31
0.0
  0
LINE
  5
71B
100
AcDbEntity
  8
ASSI
100
AcDbLine
 62
7
  6
CONTINUOUS
 10
-9.2533769702
 20
23.6278312163
 11
-9.0368706193
 21
23.8443375673
  0
LINE
  5
71C
100
AcDbEntity
  8
ASSI
100
AcDbLine
 62
7
  6
CONTINUOUS
 10
8.5466230298
 20
-23.6278312164
 11
8.7631293807
 21
-23.8443375673
  0
LINE
  5
71D
100
AcDbEntity
  8
ASSI
100
AcDbLine
 62
7
  6
CONTINUOUS
 10
-9.2533769702
 20
-23.6278312164
 11
-9.0368706193
 21
-23.8443375673
  0
SPLINE
  5
71E
100
AcDbEntity
  8
ASSI
100
AcDbSpline
 62
253
  6
CONTINUOUS
 70
0
 71
3
 72
9
 73
5
 74
3
 42
0.0000001
 43
0.0000001
 44
0.0000000001
 12
-0.0000009928
 22
0.2164846565
 32
0.0
 13
-0.0013081016
 23
0.2164807044
 33
0.0
 40
0.0
 40
0.0
 40
0.0
 40
0.0
 40
0.2986608327
 40
1.0
 40
1.0
 40
1.0
 40
1.0
 10
-10.3860054704
 20
-23.8443575944
 30
0.0
 10
-10.3860055693
 20
-23.8228057652
 30
0.0
 10
-10.3860481938
 20
-23.7506443085
 30
0.0
 10
-10.3861358263
 20
-23.6784822881
 30
0.0
 10
-10.386441634
 20
-23.6278734891
 30
0.0
 11
-10.3860054704
 21
-23.8443575944
 31
0.0
 11
-10.3860350445
 21
-23.7797021134
 31
0.0
 11
-10.386441634
 21
-23.6278734891
 31
0.0
  0
SPLINE
  5
71F
100
AcDbEntity
  8
ASSI
100
AcDbSpline
 62
253
  6
CONTINUOUS
 70
0
 71
3
 72
27
 73
23
 74
21
 42
0.0000001
 43
0.0000001
 44
0.0000000001
 12
-0.1779198077
 22
0.1843709974
 32
0.0
 13
0.0107490967
 23
-0.2559933194
 33
0.0
 40
0.0
 40
0.0
 40
0.0
 40
0.0
 40
0.0033313261
 40
0.0113412261
 40
0.0239837339
 40
0.0411634231
 40
0.0883860371
 40
0.1512479379
 40
0.2273445722
 40
0.3138110367
 40
0.5043966015
 40
0.6012803315
 40
0.6943142781
 40
0.7799680714
 40
0.8549656451
 40
0.9164900859
 40
0.9414325743
 40
0.962188102
 40
0.9785477688
 40
0.9903414765
 40
0.9974919772
 40
1.0
 40
1.0
 40
1.0
 40
1.0
 10
4.1017910252
 20
-23.901752949
 30
0.0
 10
4.1015934556
 20
-23.9015482157
 30
0.0
 10
4.1004972347
 20
-23.9015497127
 30
0.0
 10
4.0985738055
 20
-23.9012267123
 30
0.0
 10
4.09528736
 20
-23.901099436
 30
0.0
 10
4.0887487746
 20
-23.9007652719
 30
0.0
 10
4.0778587429
 20
-23.9004792399
 30
0.0
 10
4.0619721284
 20
-23.9001496955
 30
0.0
 10
4.0427170105
 20
-23.8998939086
 30
0.0
 10
4.0125586687
 20
-23.8996252913
 30
0.0
 10
3.9806212916
 20
-23.8995294861
 30
0.0
 10
3.9481239066
 20
-23.8995882494
 30
0.0
 10
3.9245890863
 20
-23.8997138677
 30
0.0
 10
3.9029220823
 20
-23.8999132008
 30
0.0
 10
3.8839533526
 20
-23.900182076
 30
0.0
 10
3.8701545126
 20
-23.9004589591
 30
0.0
 10
3.8610189413
 20
-23.9007293503
 30
0.0
 10
3.8556828304
 20
-23.9009063381
 30
0.0
 10
3.851613806
 20
-23.9011424673
 30
0.0
 10
3.8483672771
 20
-23.9012496257
 30
0.0
 10
3.8469672354
 20
-23.9015944072
 30
0.0
 10
3.8457032665
 20
-23.9015787017
 30
0.0
 10
3.8457122528
 20
-23.9017927141
 30
0.0
 11
4.1017910252
 21
-23.901752949
 31
0.0
 11
4.100965564
 21
-23.9015357877
 31
0.0
 11
4.0989246007
 21
-23.9013204884
 31
0.0
 11
4.0956922309
 21
-23.9011094852
 31
0.0
 11
4.0912952151
 21
-23.9009051529
 31
0.0
 11
4.0792018921
 21
-23.9005240631
 31
0.0
 11
4.0630989254
 21
-23.9001911884
 31
0.0
 11
4.0436034298
 21
-23.8999189993
 31
0.0
 11
4.0214499987
 21
-23.8997181003
 31
0.0
 11
3.9726186402
 21
-23.8995573654
 31
0.0
 11
3.9477952412
 21
-23.8996037408
 31
0.0
 11
3.9239585377
 21
-23.8997332118
 31
0.0
 11
3.9020134006
 21
-23.8999409572
 31
0.0
 11
3.8827996192
 21
-23.9002191716
 31
0.0
 11
3.8670395157
 21
-23.9005570167
 31
0.0
 11
3.8606515267
 21
-23.9007444043
 31
0.0
 11
3.8553372335
 21
-23.9009418097
 31
0.0
 11
3.851150626
 21
-23.90114747
 31
0.0
 11
3.8481362988
 21
-23.9013594372
 31
0.0
 11
3.8463169705
 21
-23.9015753321
 31
0.0
 11
3.8457122528
 21
-23.9017927141
 31
0.0
  0
SPLINE
  5
720
100
AcDbEntity
  8
ASSI
100
AcDbSpline
 62
253
  6
CONTINUOUS
 70
0
 71
3
 72
27
 73
23
 74
21
 42
0.0000001
 43
0.0000001
 44
0.0000000001
 12
0.1799532658
 22
0.1823867324
 32
0.0
 13
-0.0119603878
 23
-0.2559395381
 33
0.0
 40
0.0
 40
0.0
 40
0.0
 40
0.0
 40
0.0033406778
 40
0.011348474
 40
0.0239854505
 40
0.0411630509
 40
0.0883889248
 40
0.1512507531
 40
0.2273442219
 40
0.3138101006
 40
0.5043955998
 40
0.6012796836
 40
0.6943138105
 40
0.7799680531
 40
0.8549670234
 40
0.9164917194
 40
0.9414333512
 40
0.9621881901
 40
0.9785479341
 40
0.9903427826
 40
0.9974938782
 40
1.0
 40
1.0
 40
1.0
 40
1.0
 10
-4.1017910252
 20
-23.901752949
 30
0.0
 10
-4.1015906366
 20
-23.9015498506
 30
0.0
 10
-4.1004981491
 20
-23.9015479933
 30
0.0
 10
-4.0985707319
 20
-23.901227832
 30
0.0
 10
-4.0952871636
 20
-23.9010989517
 30
0.0
 10
-4.0887477886
 20
-23.9007657103
 30
0.0
 10
-4.077858486
 20
-23.9004790901
 30
0.0
 10
-4.0619715005
 20
-23.9001498005
 30
0.0
 10
-4.0427168459
 20
-23.8998938961
 30
0.0
 10
-4.0125587808
 20
-23.8996253204
 30
0.0
 10
-3.9806214616
 20
-23.899529488
 30
0.0
 10
-3.9481240373
 20
-23.8995882463
 30
0.0
 10
-3.9245891407
 20
-23.8997138625
 30
0.0
 10
-3.9029219596
 20
-23.8999131969
 30
0.0
 10
-3.883953078
 20
-23.9001820621
 30
0.0
 10
-3.8701541138
 20
-23.9004589459
 30
0.0
 10
-3.8610187473
 20
-23.9007293264
 30
0.0
 10
-3.8556825622
 20
-23.9009063611
 30
0.0
 10
-3.8516140279
 20
-23.9011423932
 30
0.0
 10
-3.8483660995
 20
-23.9012497909
 30
0.0
 10
-3.846968256
 20
-23.9015940999
 30
0.0
 10
-3.8457022614
 20
-23.9015789088
 30
0.0
 10
-3.8457122528
 20
-23.9017927141
 30
0.0
 11
-4.1017910252
 21
-23.901752949
 31
0.0
 11
-4.1009630858
 21
-23.9015357915
 31
0.0
 11
-4.0989226641
 21
-23.9013204996
 31
0.0
 11
-4.0956917145
 21
-23.9011095068
 31
0.0
 11
-4.0912952348
 21
-23.9009051847
 31
0.0
 11
-4.0792010783
 21
-23.9005240998
 31
0.0
 11
-4.0630981334
 21
-23.900191216
 31
0.0
 11
-4.0436034527
 21
-23.8999190177
 31
0.0
 11
-4.0214501758
 21
-23.8997181133
 31
0.0
 11
-3.9726188434
 21
-23.899557368
 31
0.0
 11
-3.9477953584
 21
-23.899603738
 31
0.0
 11
-3.9239586132
 21
-23.8997332069
 31
0.0
 11
-3.9020133651
 21
-23.89994095
 31
0.0
 11
-3.8827992294
 21
-23.9002191611
 31
0.0
 11
-3.8670390633
 21
-23.9005570029
 31
0.0
 11
-3.8606512951
 21
-23.9007443917
 31
0.0
 11
-3.8553371796
 21
-23.9009417998
 31
0.0
 11
-3.8511505533
 21
-23.9011474643
 31
0.0
 11
-3.8481359339
 21
-23.9013594351
 31
0.0
 11
-3.8463164526
 21
-23.9015753319
 31
0.0
 11
-3.8457122528
 21
-23.9017927141
 31
0.0
  0
LINE
  5
721
100
AcDbEntity
  8
RACCORDO
100
AcDbLine
 62
253
  6
CONTINUOUS
 10
-7.3742271333
 20
-20.2586916197
 11
-7.4000013141
 21
-20.2586830289
  0
LINE
  5
722
100
AcDbEntity
  8
RACCORDO
100
AcDbLine
 62
253
  6
CONTINUOUS
 10
-9.3920731011
 20
-20.2579295172
 11
-9.430256089
 21
-20.2579133495
  0
LINE
  5
723
100
AcDbEntity
  8
RACCORDO
100
AcDbLine
 62
7
  6
CONTINUOUS
 10
-9.4302560933
 20
-20.2579131146
 11
-9.4302127644
 21
-20.2197881117
  0
LINE
  5
724
100
AcDbEntity
  8
RACCORDO
100
AcDbLine
 62
7
  6
CONTINUOUS
 10
-9.4302127801
 20
20.219788385
 11
-9.4302561139
 21
20.2579177361
  0
LINE
  5
725
100
AcDbEntity
  8
RACCORDO
100
AcDbLine
 62
253
  6
CONTINUOUS
 10
-9.4302561956
 20
20.2579133495
 11
-9.3920729663
 21
20.2579295175
  0
LINE
  5
726
100
AcDbEntity
  8
RACCORDO
100
AcDbLine
 62
253
  6
CONTINUOUS
 10
-7.4000013307
 20
20.2586830301
 11
-7.3742271083
 21
20.2586916197
  0
LINE
  5
727
100
AcDbEntity
  8
RACCORDO
100
AcDbLine
 62
253
  6
CONTINUOUS
 10
-6.4253653176
 20
20.1900453526
 11
-5.449945391
 21
20.1886393377
  0
LINE
  5
728
100
AcDbEntity
  8
RACCORDO
100
AcDbLine
 62
7
  6
CONTINUOUS
 10
-5.4499433689
 20
20.1893008195
 11
-5.4501643029
 21
19.9249235667
  0
LINE
  5
729
100
AcDbEntity
  8
RACCORDO
100
AcDbLine
 62
7
  6
CONTINUOUS
 10
5.4501643029
 20
19.9249235667
 11
5.4499433689
 21
20.1893008195
  0
LINE
  5
72A
100
AcDbEntity
  8
RACCORDO
100
AcDbLine
 62
253
  6
CONTINUOUS
 10
5.4499452512
 20
20.1886850414
 11
6.4253651549
 21
20.1900910607
  0
LINE
  5
72B
100
AcDbEntity
  8
RACCORDO
100
AcDbLine
 62
253
  6
CONTINUOUS
 10
7.3742271334
 20
20.2586916197
 11
7.4000013141
 21
20.2586830289
  0
LINE
  5
72C
100
AcDbEntity
  8
RACCORDO
100
AcDbLine
 62
253
  6
CONTINUOUS
 10
9.392073101
 20
20.2579295172
 11
9.4302560891
 21
20.2579133495
  0
LINE
  5
72D
100
AcDbEntity
  8
RACCORDO
100
AcDbLine
 62
7
  6
CONTINUOUS
 10
9.4302560933
 20
20.2579131246
 11
9.4302127648
 21
20.2197884003
  0
LINE
  5
72E
100
AcDbEntity
  8
RACCORDO
100
AcDbLine
 62
7
  6
CONTINUOUS
 10
9.4302127799
 20
-20.2197880962
 11
9.4302561141
 21
-20.257917785
  0
LINE
  5
72F
100
AcDbEntity
  8
RACCORDO
100
AcDbLine
 62
253
  6
CONTINUOUS
 10
9.4302561957
 20
-20.2579133495
 11
9.3920729663
 21
-20.2579295175
  0
LINE
  5
730
100
AcDbEntity
  8
RACCORDO
100
AcDbLine
 62
253
  6
CONTINUOUS
 10
7.4000013307
 20
-20.2586830301
 11
7.3742271083
 21
-20.2586916197
  0
LINE
  5
731
100
AcDbEntity
  8
RACCORDO
100
AcDbLine
 62
253
  6
CONTINUOUS
 10
6.4253653176
 20
-20.1900453527
 11
5.449945391
 21
-20.1886393379
  0
LINE
  5
732
100
AcDbEntity
  8
RACCORDO
100
AcDbLine
 62
7
  6
CONTINUOUS
 10
5.4499433689
 20
-20.1893008195
 11
5.4501643029
 21
-19.9249235667
  0
LINE
  5
733
100
AcDbEntity
  8
RACCORDO
100
AcDbLine
 62
7
  6
CONTINUOUS
 10
-5.4501643029
 20
-19.9249235667
 11
-5.4499433689
 21
-20.1893008195
  0
LINE
  5
734
100
AcDbEntity
  8
RACCORDO
100
AcDbLine
 62
253
  6
CONTINUOUS
 10
-5.4499452512
 20
-20.1886850412
 11
-6.4253651549
 21
-20.1900910605
  0
SPLINE
  5
735
100
AcDbEntity
  8
RACCORDO
100
AcDbSpline
 62
7
  6
CONTINUOUS
 70
0
 71
3
 72
20
 73
16
 74
14
 42
0.0000001
 43
0.0000001
 44
0.0000000001
 12
-0.0006539091
 22
0.5748341348
 32
0.0
 13
-0.5453241082
 23
0.1818139904
 33
0.0
 40
0.0
 40
0.0
 40
0.0
 40
0.0
 40
0.1962882999
 40
0.3839635637
 40
0.5559831465
 40
0.7063159438
 40
0.7716159781
 40
0.8295654003
 40
0.8796449793
 40
0.9214111262
 40
0.9545329048
 40
0.978706973
 40
0.9937825591
 40
0.9979357022
 40
1.0
 40
1.0
 40
1.0
 40
1.0
 10
-9.4302561139
 20
20.2579177361
 30
0.0
 10
-9.4302988988
 20
20.2955288078
 30
0.0
 10
-9.4305638315
 20
20.369100539
 30
0.0
 10
-9.4314985224
 20
20.4756296883
 30
0.0
 10
-9.4329322335
 20
20.5733470926
 30
0.0
 10
-9.434551773
 20
20.6476086713
 30
0.0
 10
-9.4361059858
 20
20.7000082411
 30
0.0
 10
-9.4373003251
 20
20.7331968146
 30
0.0
 10
-9.4385630008
 20
20.7618781036
 30
0.0
 10
-9.4398857681
 20
20.7857698634
 30
0.0
 10
-9.4412304436
 20
20.8047509711
 30
0.0
 10
-9.4426040338
 20
20.8184454359
 30
0.0
 10
-9.4438028951
 20
20.8268709043
 30
0.0
 10
-9.4448921306
 20
20.8306223207
 30
0.0
 10
-9.4454966757
 20
20.8318460173
 30
0.0
 10
-9.4458719129
 20
20.8319711233
 30
0.0
 11
-9.4302561139
 21
20.2579177361
 31
0.0
 11
-9.4306692326
 21
20.3707502679
 31
0.0
 11
-9.4316354836
 21
20.4786281583
 31
0.0
 11
-9.4331186602
 21
20.5774998264
 31
0.0
 11
-9.4350645662
 21
20.6638943943
 31
0.0
 11
-9.4361895939
 21
20.7014142442
 31
0.0
 11
-9.4374023861
 21
20.7347034868
 31
0.0
 11
-9.4386919374
 21
20.7634620593
 31
0.0
 11
-9.4400468969
 21
20.7874324168
 31
0.0
 11
-9.4414554033
 21
20.8064197873
 31
0.0
 11
-9.442905391
 21
20.8202400194
 31
0.0
 11
-9.4443827373
 21
20.8287791314
 31
0.0
 11
-9.4451268187
 21
20.8310475842
 31
0.0
 11
-9.4458719129
 21
20.8319711233
 31
0.0
  0
SPLINE
  5
736
100
AcDbEntity
  8
ASSI
100
AcDbSpline
 62
253
  6
CONTINUOUS
 70
0
 71
3
 72
8
 73
4
 74
2
 42
0.0000001
 43
0.0000001
 44
0.0000000001
 12
-0.0016834778
 22
-0.0964463789
 32
0.0
 13
-0.0380359763
 23
-0.0886453755
 33
0.0
 40
0.0
 40
0.0
 40
0.0
 40
0.0
 40
1.0
 40
1.0
 40
1.0
 40
1.0
 10
-3.0704367105
 20
-21.9708183632
 30
0.0
 10
-3.0709978698
 20
-22.0029671561
 30
0.0
 10
-3.0780219866
 20
-22.0355784994
 30
0.0
 10
-3.0907006454
 20
-22.0651269579
 30
0.0
 11
-3.0704367105
 21
-21.9708183632
 31
0.0
 11
-3.0907006454
 21
-22.0651269579
 31
0.0
  0
SPLINE
  5
737
100
AcDbEntity
  8
RACCORDO
100
AcDbSpline
 62
7
  6
CONTINUOUS
 70
0
 71
3
 72
20
 73
16
 74
14
 42
0.0000001
 43
0.0000001
 44
0.0000000001
 12
0.5453534482
 22
0.1817407033
 32
0.0
 13
0.0006539176
 23
0.574838794
 33
0.0
 40
0.0
 40
0.0
 40
0.0
 40
0.0
 40
0.0020641492
 40
0.0062171258
 40
0.0212924137
 40
0.0454662461
 40
0.0785878516
 40
0.1203538842
 40
0.1704334027
 40
0.2283828144
 40
0.2936828913
 40
0.444015875
 40
0.6160355792
 40
0.8037112591
 40
1.0
 40
1.0
 40
1.0
 40
1.0
 10
-9.4458719129
 20
-20.8319711233
 30
0.0
 10
-9.4454966826
 20
-20.8318460767
 30
0.0
 10
-9.4448920991
 20
-20.8306224147
 30
0.0
 10
-9.4438028905
 20
-20.8268711209
 30
0.0
 10
-9.4426039914
 20
-20.8184456848
 30
0.0
 10
-9.4412304103
 20
-20.8047512653
 30
0.0
 10
-9.4398857182
 20
-20.785770095
 30
0.0
 10
-9.438562944
 20
-20.7618782118
 30
0.0
 10
-9.4373002578
 20
-20.7331967246
 30
0.0
 10
-9.4361059102
 20
-20.7000078878
 30
0.0
 10
-9.4345516881
 20
-20.6476078511
 30
0.0
 10
-9.4329321491
 20
-20.5733456033
 30
0.0
 10
-9.4314984135
 20
-20.4756272683
 30
0.0
 10
-9.4305637532
 20
-20.3690970675
 30
0.0
 10
-9.4302988788
 20
-20.2955245756
 30
0.0
 10
-9.4302560933
 20
-20.2579131146
 30
0.0
 11
-9.4458719129
 21
-20.8319711233
 31
0.0
 11
-9.4451268132
 21
-20.8310476861
 31
0.0
 11
-9.4443827261
 21
-20.8287793154
 31
0.0
 11
-9.4429053683
 21
-20.8202403081
 31
0.0
 11
-9.4414553692
 21
-20.8064201003
 31
0.0
 11
-9.4400468518
 21
-20.7874326756
 31
0.0
 11
-9.4386918818
 21
-20.7634621897
 31
0.0
 11
-9.4374023205
 21
-20.7347034189
 31
0.0
 11
-9.4361895195
 21
-20.7014139124
 31
0.0
 11
-9.4350644854
 21
-20.6638937338
 31
0.0
 11
-9.4331185721
 21
-20.5774983583
 31
0.0
 11
-9.4316353846
 21
-20.4786258191
 31
0.0
 11
-9.4306691628
 21
-20.3707468146
 31
0.0
 11
-9.4302560933
 21
-20.2579131146
 31
0.0
  0
SPLINE
  5
738
100
AcDbEntity
  8
RACCORDO
100
AcDbSpline
 62
7
  6
CONTINUOUS
 70
0
 71
3
 72
20
 73
16
 74
14
 42
0.0000001
 43
0.0000001
 44
0.0000000001
 12
-0.5453533994
 22
-0.1817408181
 32
0.0
 13
-0.0006539176
 23
-0.574838784
 33
0.0
 40
0.0
 40
0.0
 40
0.0
 40
0.0
 40
0.0020641494
 40
0.0062171263
 40
0.0212924146
 40
0.0454662474
 40
0.0785878532
 40
0.1203538859
 40
0.1704334044
 40
0.2283828162
 40
0.2936828929
 40
0.4440158763
 40
0.6160355802
 40
0.8037112596
 40
1.0
 40
1.0
 40
1.0
 40
1.0
 10
9.4458719129
 20
20.8319711233
 30
0.0
 10
9.4454966826
 20
20.8318460766
 30
0.0
 10
9.4448920991
 20
20.8306224145
 30
0.0
 10
9.4438028905
 20
20.8268711206
 30
0.0
 10
9.4426039914
 20
20.8184456845
 30
0.0
 10
9.4412304103
 20
20.804751265
 30
0.0
 10
9.4398857183
 20
20.7857700948
 30
0.0
 10
9.4385629441
 20
20.761878212
 30
0.0
 10
9.4373002579
 20
20.7331967253
 30
0.0
 10
9.4361059103
 20
20.7000078891
 30
0.0
 10
9.4345516882
 20
20.6476078534
 30
0.0
 10
9.4329321493
 20
20.573345607
 30
0.0
 10
9.4314984137
 20
20.4756272739
 30
0.0
 10
9.4305637533
 20
20.3690970753
 30
0.0
 10
9.4302988789
 20
20.2955245849
 30
0.0
 10
9.4302560933
 20
20.2579131246
 30
0.0
 11
9.4458719129
 21
20.8319711233
 31
0.0
 11
9.4451268132
 21
20.8310476859
 31
0.0
 11
9.4443827261
 21
20.8287793152
 31
0.0
 11
9.4429053683
 21
20.8202403078
 31
0.0
 11
9.4414553693
 21
20.8064201
 31
0.0
 11
9.4400468519
 21
20.7874326754
 31
0.0
 11
9.4386918819
 21
20.7634621898
 31
0.0
 11
9.4374023206
 21
20.7347034195
 31
0.0
 11
9.4361895197
 21
20.7014139136
 31
0.0
 11
9.4350644855
 21
20.6638937357
 31
0.0
 11
9.4331185723
 21
20.5774983619
 31
0.0
 11
9.4316353847
 21
20.4786258246
 31
0.0
 11
9.430669163
 21
20.3707468224
 31
0.0
 11
9.4302560933
 21
20.2579131246
 31
0.0
  0
SPLINE
  5
739
100
AcDbEntity
  8
RACCORDO
100
AcDbSpline
 62
7
  6
CONTINUOUS
 70
0
 71
3
 72
20
 73
16
 74
14
 42
0.0000001
 43
0.0000001
 44
0.0000000001
 12
0.0006539091
 22
-0.5748340858
 32
0.0
 13
0.545324031
 23
-0.1818140673
 33
0.0
 40
0.0
 40
0.0
 40
0.0
 40
0.0
 40
0.1962883039
 40
0.3839635687
 40
0.5559831509
 40
0.7063159468
 40
0.7716159803
 40
0.8295654016
 40
0.8796449799
 40
0.9214111263
 40
0.9545329045
 40
0.9787069725
 40
0.9937825588
 40
0.997935702
 40
1.0
 40
1.0
 40
1.0
 40
1.0
 10
9.4302561141
 20
-20.257917785
 30
0.0
 10
9.430298899
 20
-20.2955288543
 30
0.0
 10
9.4305638318
 20
-20.3691005801
 30
0.0
 10
9.4314985229
 20
-20.4756297212
 30
0.0
 10
9.4329322341
 20
-20.5733471171
 30
0.0
 10
9.4345517735
 20
-20.6476086888
 30
0.0
 10
9.4361059862
 20
-20.7000082536
 30
0.0
 10
9.4373003255
 20
-20.7331968239
 30
0.0
 10
9.4385630012
 20
-20.76187811
 30
0.0
 10
9.4398857685
 20
-20.7857698674
 30
0.0
 10
9.4412304438
 20
-20.8047509733
 30
0.0
 10
9.442604034
 20
-20.8184454369
 30
0.0
 10
9.4438028952
 20
-20.8268709045
 30
0.0
 10
9.4448921307
 20
-20.8306223207
 30
0.0
 10
9.4454966758
 20
-20.8318460172
 30
0.0
 10
9.4458719129
 20
-20.8319711233
 30
0.0
 11
9.4302561141
 21
-20.257917785
 31
0.0
 11
9.430669233
 21
-20.3707503095
 31
0.0
 11
9.431635484
 21
-20.4786281913
 31
0.0
 11
9.4331186607
 21
-20.5774998506
 31
0.0
 11
9.4350645668
 21
-20.6638944103
 31
0.0
 11
9.4361895944
 21
-20.7014142566
 31
0.0
 11
9.4374023865
 21
-20.7347034959
 31
0.0
 11
9.4386919378
 21
-20.7634620655
 31
0.0
 11
9.4400468972
 21
-20.7874324206
 31
0.0
 11
9.4414554035
 21
-20.8064197893
 31
0.0
 11
9.4429053912
 21
-20.8202400201
 31
0.0
 11
9.4443827374
 21
-20.8287791314
 31
0.0
 11
9.4451268188
 21
-20.8310475841
 31
0.0
 11
9.4458719129
 21
-20.8319711233
 31
0.0
  0
SPLINE
  5
73A
100
AcDbEntity
  8
RACCORDO
100
AcDbSpline
 62
7
  6
CONTINUOUS
 70
0
 71
3
 72
21
 73
17
 74
15
 42
0.0000001
 43
0.0000001
 44
0.0000000001
 12
0.0004806244
 22
-0.5713532634
 32
0.0
 13
0.4040079111
 23
-0.4040079088
 33
0.0
 40
0.0
 40
0.0
 40
0.0
 40
0.0
 40
0.1952499791
 40
0.3819710229
 40
0.553317199
 40
0.7033866783
 40
0.7687307375
 40
0.8268421093
 40
0.8771990488
 40
0.9193505449
 40
0.9529544069
 40
0.9776904423
 40
0.9866684341
 40
0.9933719063
 40
0.997800296
 40
1.0
 40
1.0
 40
1.0
 40
1.0
 10
-5.4499433689
 20
-20.1893008195
 30
0.0
 10
-5.4499120882
 20
-20.2264863904
 30
0.0
 10
-5.4497331477
 20
-20.2992331445
 30
0.0
 10
-5.4491150941
 20
-20.4046114729
 30
0.0
 10
-5.4481717886
 20
-20.5013823141
 30
0.0
 10
-5.4471084476
 20
-20.5750340033
 30
0.0
 10
-5.4460884614
 20
-20.6271171337
 30
0.0
 10
-5.4453044838
 20
-20.6602110522
 30
0.0
 10
-5.4444727648
 20
-20.688883919
 30
0.0
 10
-5.4436078169
 20
-20.7128895885
 30
0.0
 10
-5.4427085895
 20
-20.7320004916
 30
0.0
 10
-5.4419134011
 20
-20.7448126804
 30
0.0
 10
-5.4411960021
 20
-20.7524578059
 30
0.0
 10
-5.4407571976
 20
-20.7562975939
 30
0.0
 10
-5.4402646476
 20
-20.7587243504
 30
0.0
 10
-5.4399611572
 20
-20.7600388428
 30
0.0
 10
-5.4396649246
 20
-20.7603350754
 30
0.0
 11
-5.4499433689
 21
-20.1893008195
 31
0.0
 11
-5.4496644257
 21
-20.300857223
 31
0.0
 11
-5.4490259252
 21
-20.4075390277
 31
0.0
 11
-5.4480507239
 21
-20.505433402
 31
0.0
 11
-5.4467730839
 21
-20.5911665996
 31
0.0
 11
-5.4460344634
 21
-20.6284938472
 31
0.0
 11
-5.4452380168
 21
-20.661686427
 31
0.0
 11
-5.4443908166
 21
-20.690445563
 31
0.0
 11
-5.44350018
 21
-20.7145124922
 31
0.0
 11
-5.4425737997
 21
-20.7336898134
 31
0.0
 11
-5.4416195054
 21
-20.7477905781
 31
0.0
 11
-5.4411347065
 21
-20.7528972242
 31
0.0
 11
-5.4406464955
 21
-20.7566960331
 31
0.0
 11
-5.4401561443
 21
-20.7591782388
 31
0.0
 11
-5.4396649246
 21
-20.7603350754
 31
0.0
  0
SPLINE
  5
73B
100
AcDbEntity
  8
ASSI
100
AcDbSpline
 62
253
  6
CONTINUOUS
 70
0
 71
3
 72
8
 73
4
 74
2
 42
0.0000001
 43
0.0000001
 44
0.0000000001
 12
0.0016834778
 22
0.0964463789
 32
0.0
 13
0.0380359763
 23
0.0886453755
 33
0.0
 40
0.0
 40
0.0
 40
0.0
 40
0.0
 40
1.0
 40
1.0
 40
1.0
 40
1.0
 10
3.0704367105
 20
21.9708183632
 30
0.0
 10
3.0709978698
 20
22.0029671561
 30
0.0
 10
3.0780219866
 20
22.0355784994
 30
0.0
 10
3.0907006454
 20
22.0651269579
 30
0.0
 11
3.0704367105
 21
21.9708183632
 31
0.0
 11
3.0907006454
 21
22.0651269579
 31
0.0
  0
LINE
  5
73C
100
AcDbEntity
  8
RACCORDO
100
AcDbLine
 62
253
  6
CONTINUOUS
 10
-5.4396649246
 20
-20.7603350754
 11
-6.4305132643
 21
-20.7610159438
  0
LINE
  5
73D
100
AcDbEntity
  8
RACCORDO
100
AcDbLine
 62
253
  6
CONTINUOUS
 10
6.4305132643
 20
-20.7610159438
 11
5.4396649246
 21
-20.7603350754
  0
SPLINE
  5
73E
100
AcDbEntity
  8
RACCORDO
100
AcDbSpline
 62
7
  6
CONTINUOUS
 70
0
 71
3
 72
21
 73
17
 74
15
 42
0.0000001
 43
0.0000001
 44
0.0000000001
 12
0.4040079115
 22
0.4040079085
 32
0.0
 13
0.0004806244
 23
0.5713532634
 33
0.0
 40
0.0
 40
0.0
 40
0.0
 40
0.0
 40
0.002199704
 40
0.0066280937
 40
0.0133315659
 40
0.0223095577
 40
0.0470455931
 40
0.0806494551
 40
0.1228009512
 40
0.1731578907
 40
0.2312692625
 40
0.2966133216
 40
0.446682801
 40
0.6180289771
 40
0.8047500209
 40
1.0
 40
1.0
 40
1.0
 40
1.0
 10
5.4396649246
 20
-20.7603350754
 30
0.0
 10
5.4399611572
 20
-20.7600388428
 30
0.0
 10
5.4402646476
 20
-20.7587243504
 30
0.0
 10
5.4407571976
 20
-20.7562975939
 30
0.0
 10
5.4411960021
 20
-20.7524578059
 30
0.0
 10
5.4419134011
 20
-20.7448126804
 30
0.0
 10
5.4427085895
 20
-20.7320004916
 30
0.0
 10
5.4436078169
 20
-20.7128895885
 30
0.0
 10
5.4444727648
 20
-20.688883919
 30
0.0
 10
5.4453044838
 20
-20.6602110522
 30
0.0
 10
5.4460884614
 20
-20.6271171337
 30
0.0
 10
5.4471084476
 20
-20.5750340033
 30
0.0
 10
5.4481717886
 20
-20.5013823141
 30
0.0
 10
5.4491150941
 20
-20.4046114729
 30
0.0
 10
5.4497331477
 20
-20.2992331444
 30
0.0
 10
5.4499120882
 20
-20.2264863904
 30
0.0
 10
5.4499433689
 20
-20.1893008195
 30
0.0
 11
5.4396649246
 21
-20.7603350754
 31
0.0
 11
5.4401561443
 21
-20.7591782388
 31
0.0
 11
5.4406464955
 21
-20.7566960331
 31
0.0
 11
5.4411347065
 21
-20.7528972242
 31
0.0
 11
5.4416195054
 21
-20.7477905781
 31
0.0
 11
5.4425737997
 21
-20.7336898134
 31
0.0
 11
5.44350018
 21
-20.7145124922
 31
0.0
 11
5.4443908166
 21
-20.690445563
 31
0.0
 11
5.4452380168
 21
-20.661686427
 31
0.0
 11
5.4460344634
 21
-20.6284938472
 31
0.0
 11
5.4467730839
 21
-20.5911665996
 31
0.0
 11
5.4480507239
 21
-20.505433402
 31
0.0
 11
5.4490259252
 21
-20.4075390277
 31
0.0
 11
5.4496644257
 21
-20.300857223
 31
0.0
 11
5.4499433689
 21
-20.1893008195
 31
0.0
  0
LINE
  5
73F
100
AcDbEntity
  8
RACCORDO
100
AcDbLine
 62
253
  6
CONTINUOUS
 10
-6.4305132643
 20
20.7610159438
 11
-5.4396649246
 21
20.7603350754
  0
LINE
  5
740
100
AcDbEntity
  8
RACCORDO
100
AcDbLine
 62
253
  6
CONTINUOUS
 10
-7.3690382379
 20
-20.8309617621
 11
-7.4665380671
 21
-20.8310035533
  0
LINE
  5
741
100
AcDbEntity
  8
RACCORDO
100
AcDbLine
 62
253
  6
CONTINUOUS
 10
-8.8183631944
 20
-20.8316397827
 11
-9.4458719129
 21
-20.8319711233
  0
LINE
  5
742
100
AcDbEntity
  8
RACCORDO
100
AcDbLine
 62
253
  6
CONTINUOUS
 10
9.4458719129
 20
-20.8319711233
 11
8.8183621556
 21
-20.8316397921
  0
LINE
  5
743
100
AcDbEntity
  8
RACCORDO
100
AcDbLine
 62
253
  6
CONTINUOUS
 10
7.4665384604
 20
-20.8310035548
 11
7.3690382379
 21
-20.8309617621
  0
LINE
  5
744
100
AcDbEntity
  8
RACCORDO
100
AcDbLine
 62
7
  6
CONTINUOUS
 10
7.3744495958
 20
-19.6999904743
 11
7.3742270719
 21
-20.2586916323
  0
SPLINE
  5
745
100
AcDbEntity
  8
RACCORDO
100
AcDbSpline
 62
7
  6
CONTINUOUS
 70
0
 71
3
 72
14
 73
10
 74
8
 42
0.0000001
 43
0.0000001
 44
0.0000000001
 12
0.0738283557
 22
0.0738798792
 32
0.0
 13
0.0013364332
 23
0.1044369504
 33
0.0
 40
0.0
 40
0.0
 40
0.0
 40
0.0
 40
0.0196915872
 40
0.0702680315
 40
0.1515917613
 40
0.2633686465
 40
0.4049747438
 40
0.5755488479
 40
1.0
 40
1.0
 40
1.0
 40
1.0
 10
7.3690382379
 20
-20.8309617621
 30
0.0
 10
7.3695228371
 20
-20.8304768247
 30
0.0
 10
7.3692555425
 20
-20.8276637327
 30
0.0
 10
7.3700686561
 20
-20.8227301425
 30
0.0
 10
7.3701639534
 20
-20.8140726316
 30
0.0
 10
7.3706347038
 20
-20.8025030488
 30
0.0
 10
7.370947349
 20
-20.7877175347
 30
0.0
 10
7.3714679178
 20
-20.7620904035
 30
0.0
 10
7.3717568443
 20
-20.7413702446
 30
0.0
 10
7.3719459278
 20
-20.7265941167
 30
0.0
 11
7.3690382379
 21
-20.8309617621
 31
0.0
 11
7.3694236166
 21
-20.8289414926
 31
0.0
 11
7.3698072946
 21
-20.8236729627
 31
0.0
 11
7.3701868196
 21
-20.8151875482
 31
0.0
 11
7.370559762
 21
-20.8035189137
 31
0.0
 11
7.3709240111
 21
-20.78873328
 31
0.0
 11
7.3712776936
 21
-20.7709210933
 31
0.0
 11
7.3719459278
 21
-20.7265941167
 31
0.0
  0
SPLINE
  5
746
100
AcDbEntity
  8
RACCORDO
100
AcDbSpline
 62
7
  6
CONTINUOUS
 70
0
 71
3
 72
11
 73
7
 74
5
 42
0.0000001
 43
0.0000001
 44
0.0000000001
 12
0.0014994973
 22
-0.1655517727
 32
0.0
 13
0.0155125947
 23
-0.1648302077
 33
0.0
 40
0.0
 40
0.0
 40
0.0
 40
0.0
 40
0.3853592038
 40
0.6856879835
 40
0.8925433511
 40
1.0
 40
1.0
 40
1.0
 40
1.0
 10
-7.3726297199
 20
-20.6629020507
 30
0.0
 10
-7.3724371049
 20
-20.6841676838
 30
0.0
 10
-7.3720256509
 20
-20.7220040174
 30
0.0
 10
-7.3713663403
 20
-20.7712624128
 30
0.0
 10
-7.3704928527
 20
-20.8051589864
 30
0.0
 10
-7.3700311734
 20
-20.8225156158
 30
0.0
 10
-7.3694755296
 20
-20.8284196497
 30
0.0
 11
-7.3726297199
 21
-20.6629020507
 31
0.0
 11
-7.3719446046
 21
-20.7266978883
 31
0.0
 11
-7.3711759265
 21
-20.7764139476
 31
0.0
 11
-7.3703450971
 21
-20.8106505456
 31
0.0
 11
-7.3694755296
 21
-20.8284196497
 31
0.0
  0
SPLINE
  5
747
100
AcDbEntity
  8
RACCORDO
100
AcDbSpline
 62
7
  6
CONTINUOUS
 70
0
 71
3
 72
9
 73
5
 74
3
 42
0.0000001
 43
0.0000001
 44
0.0000000001
 12
0.0002420281
 22
-0.0025716873
 32
0.0
 13
0.0018259621
 23
-0.0018270237
 33
0.0
 40
0.0
 40
0.0
 40
0.0
 40
0.0
 40
0.400618403
 40
1.0
 40
1.0
 40
1.0
 40
1.0
 10
-7.3694755296
 20
-20.8284196497
 30
0.0
 10
-7.3694432093
 20
-20.8287630714
 30
0.0
 10
-7.3692965084
 20
-20.829577908
 30
0.0
 10
-7.369403054
 20
-20.8305967339
 30
0.0
 10
-7.3690382379
 20
-20.8309617621
 30
0.0
 11
-7.3694755296
 21
-20.8284196497
 31
0.0
 11
-7.369366312
 21
-20.8294486878
 31
0.0
 11
-7.3690382379
 21
-20.8309617621
 31
0.0
  0
LINE
  5
748
100
AcDbEntity
  8
RACCORDO
100
AcDbLine
 62
7
  6
CONTINUOUS
 10
-7.3742270627
 20
-20.2586976995
 11
-7.3744043007
 21
-19.8149898492
  0
LINE
  5
749
100
AcDbEntity
  8
RACCORDO
100
AcDbLine
 62
7
  6
CONTINUOUS
 10
-7.3744043007
 20
-19.8149898492
 11
-7.3744495947
 21
-19.699990635
  0
SPLINE
  5
74A
100
AcDbEntity
  8
RACCORDO
100
AcDbSpline
 62
7
  6
CONTINUOUS
 70
0
 71
3
 72
18
 73
14
 74
12
 42
0.0000001
 43
0.0000001
 44
0.0000000001
 12
0.0002358088
 22
-0.5717165889
 32
0.0
 13
0.2556638767
 23
-0.5113666941
 33
0.0
 40
0.0
 40
0.0
 40
0.0
 40
0.0
 40
0.195388717
 40
0.3822407977
 40
0.5536827396
 40
0.7037985929
 40
0.8272503475
 40
0.877589395
 40
0.9197137659
 40
0.9532811136
 40
0.9779682215
 40
0.9935738819
 40
1.0
 40
1.0
 40
1.0
 40
1.0
 10
6.425367705
 20
-20.1893749329
 30
0.0
 10
6.4253830631
 20
-20.2266105898
 30
0.0
 10
6.4254720338
 20
-20.2994550949
 30
0.0
 10
6.4257818557
 20
-20.4049710492
 30
0.0
 10
6.4262518719
 20
-20.5018593836
 30
0.0
 10
6.4268711762
 20
-20.5866618467
 30
0.0
 10
6.4275022084
 20
-20.6483908319
 30
0.0
 10
6.4281154647
 20
-20.6895268102
 30
0.0
 10
6.4285116816
 20
-20.7135567052
 30
0.0
 10
6.4290605948
 20
-20.7326388488
 30
0.0
 10
6.4292650111
 20
-20.7468072839
 30
0.0
 10
6.4301496918
 20
-20.7555128246
 30
0.0
 10
6.4299656222
 20
-20.7599205762
 30
0.0
 10
6.4305132643
 20
-20.7610159438
 30
0.0
 11
6.425367705
 21
-20.1893749329
 31
0.0
 11
6.4255066608
 21
-20.3010818267
 31
0.0
 11
6.4258260378
 21
-20.4079077926
 31
0.0
 11
6.4263142908
 21
-20.5059227871
 31
0.0
 11
6.4269541268
 21
-20.5917441329
 31
0.0
 11
6.427722875
 21
-20.6623193682
 31
0.0
 11
6.4281471154
 21
-20.6910959122
 31
0.0
 11
6.4285930797
 21
-20.7151749864
 31
0.0
 11
6.4290569163
 21
-20.7343603914
 31
0.0
 11
6.4295347058
 21
-20.7484663323
 31
0.0
 11
6.4300218467
 21
-20.7573750391
 31
0.0
 11
6.4305132643
 21
-20.7610159438
 31
0.0
  0
LINE
  5
74B
100
AcDbEntity
  8
RACCORDO
100
AcDbLine
 62
7
  6
CONTINUOUS
 10
6.425367705
 20
-20.1893749329
 11
6.4251683113
 21
-19.7000005743
  0
LINE
  5
74C
100
AcDbEntity
  8
RACCORDO
100
AcDbLine
 62
7
  6
CONTINUOUS
 10
-6.4251683113
 20
-19.7000004926
 11
-6.425367705
 21
-20.1893749328
  0
SPLINE
  5
74D
100
AcDbEntity
  8
RACCORDO
100
AcDbSpline
 62
7
  6
CONTINUOUS
 70
0
 71
3
 72
18
 73
14
 74
12
 42
0.0000001
 43
0.0000001
 44
0.0000000001
 12
0.2556638692
 22
0.5113666979
 32
0.0
 13
0.0002358088
 23
0.571716589
 33
0.0
 40
0.0
 40
0.0
 40
0.0
 40
0.0
 40
0.0064261182
 40
0.0220317786
 40
0.0467188866
 40
0.0802862342
 40
0.1224106052
 40
0.1727496528
 40
0.2962014073
 40
0.4463172607
 40
0.6177592025
 40
0.8046112832
 40
1.0
 40
1.0
 40
1.0
 40
1.0
 10
-6.4305132643
 20
-20.7610159438
 30
0.0
 10
-6.4299656222
 20
-20.7599205762
 30
0.0
 10
-6.4301496918
 20
-20.7555128246
 30
0.0
 10
-6.4292650111
 20
-20.7468072838
 30
0.0
 10
-6.4290605948
 20
-20.7326388488
 30
0.0
 10
-6.4285116816
 20
-20.7135567051
 30
0.0
 10
-6.4281154647
 20
-20.68952681
 30
0.0
 10
-6.4275022084
 20
-20.6483908317
 30
0.0
 10
-6.4268711762
 20
-20.5866618465
 30
0.0
 10
-6.4262518719
 20
-20.5018593834
 30
0.0
 10
-6.4257818557
 20
-20.404971049
 30
0.0
 10
-6.4254720338
 20
-20.2994550948
 30
0.0
 10
-6.4253830631
 20
-20.2266105897
 30
0.0
 10
-6.425367705
 20
-20.1893749328
 30
0.0
 11
-6.4305132643
 21
-20.7610159438
 31
0.0
 11
-6.4300218467
 21
-20.7573750391
 31
0.0
 11
-6.4295347058
 21
-20.7484663322
 31
0.0
 11
-6.4290569163
 21
-20.7343603913
 31
0.0
 11
-6.4285930797
 21
-20.7151749863
 31
0.0
 11
-6.4281471154
 21
-20.691095912
 31
0.0
 11
-6.427722875
 21
-20.6623193681
 31
0.0
 11
-6.4269541268
 21
-20.5917441327
 31
0.0
 11
-6.4263142908
 21
-20.5059227869
 31
0.0
 11
-6.4258260378
 21
-20.4079077925
 31
0.0
 11
-6.4255066608
 21
-20.3010818266
 31
0.0
 11
-6.425367705
 21
-20.1893749328
 31
0.0
  0
LINE
  5
74E
100
AcDbEntity
  8
RACCORDO
100
AcDbLine
 62
253
  6
CONTINUOUS
 10
-9.4458719129
 20
20.8319711233
 11
-8.8183621558
 21
20.8316397921
  0
LINE
  5
74F
100
AcDbEntity
  8
RACCORDO
100
AcDbLine
 62
253
  6
CONTINUOUS
 10
-7.4665384603
 20
20.8310035548
 11
-7.3690382379
 21
20.8309617621
  0
LINE
  5
750
100
AcDbEntity
  8
RACCORDO
100
AcDbLine
 62
253
  6
CONTINUOUS
 10
7.3690382379
 20
20.8309617621
 11
7.4665380672
 21
20.8310035533
  0
LINE
  5
751
100
AcDbEntity
  8
RACCORDO
100
AcDbLine
 62
253
  6
CONTINUOUS
 10
8.8183631942
 20
20.8316397827
 11
9.4458719129
 21
20.8319711233
  0
LINE
  5
752
100
AcDbEntity
  8
RACCORDO
100
AcDbLine
 62
7
  6
CONTINUOUS
 10
-7.3744495958
 20
19.6999904743
 11
-7.3742270719
 21
20.2586916323
  0
SPLINE
  5
753
100
AcDbEntity
  8
RACCORDO
100
AcDbSpline
 62
7
  6
CONTINUOUS
 70
0
 71
3
 72
14
 73
10
 74
8
 42
0.0000001
 43
0.0000001
 44
0.0000000001
 12
-0.0738283492
 22
-0.0738798863
 32
0.0
 13
-0.0013364332
 23
-0.1044369508
 33
0.0
 40
0.0
 40
0.0
 40
0.0
 40
0.0
 40
0.0196915878
 40
0.0702680324
 40
0.1515917625
 40
0.2633686478
 40
0.404974745
 40
0.5755488488
 40
1.0
 40
1.0
 40
1.0
 40
1.0
 10
-7.3690382379
 20
20.8309617621
 30
0.0
 10
-7.3695228371
 20
20.8304768246
 30
0.0
 10
-7.3692555425
 20
20.8276637326
 30
0.0
 10
-7.370068656
 20
20.8227301424
 30
0.0
 10
-7.3701639534
 20
20.8140726314
 30
0.0
 10
-7.3706347038
 20
20.8025030485
 30
0.0
 10
-7.370947349
 20
20.7877175344
 30
0.0
 10
-7.3714679178
 20
20.7620904032
 30
0.0
 10
-7.3717568443
 20
20.7413702442
 30
0.0
 10
-7.3719459278
 20
20.7265941163
 30
0.0
 11
-7.3690382379
 21
20.8309617621
 31
0.0
 11
-7.3694236166
 21
20.8289414925
 31
0.0
 11
-7.3698072946
 21
20.8236729625
 31
0.0
 11
-7.3701868196
 21
20.815187548
 31
0.0
 11
-7.370559762
 21
20.8035189135
 31
0.0
 11
-7.3709240111
 21
20.7887332797
 31
0.0
 11
-7.3712776936
 21
20.7709210929
 31
0.0
 11
-7.3719459278
 21
20.7265941163
 31
0.0
  0
SPLINE
  5
754
100
AcDbEntity
  8
RACCORDO
100
AcDbSpline
 62
7
  6
CONTINUOUS
 70
0
 71
3
 72
11
 73
7
 74
5
 42
0.0000001
 43
0.0000001
 44
0.0000000001
 12
-0.0014994973
 22
0.165551775
 32
0.0
 13
-0.0155125933
 23
0.1648302101
 33
0.0
 40
0.0
 40
0.0
 40
0.0
 40
0.0
 40
0.3853592002
 40
0.6856879787
 40
0.8925433474
 40
1.0
 40
1.0
 40
1.0
 40
1.0
 10
7.3726297199
 20
20.662902048
 30
0.0
 10
7.3724371049
 20
20.6841676812
 30
0.0
 10
7.3720256509
 20
20.722004015
 30
0.0
 10
7.3713663403
 20
20.7712624109
 30
0.0
 10
7.3704928527
 20
20.8051589852
 30
0.0
 10
7.3700311734
 20
20.822515615
 30
0.0
 10
7.3694755296
 20
20.8284196492
 30
0.0
 11
7.3726297199
 21
20.662902048
 31
0.0
 11
7.3719446046
 21
20.7266978858
 31
0.0
 11
7.3711759265
 21
20.7764139456
 31
0.0
 11
7.3703450971
 21
20.8106505442
 31
0.0
 11
7.3694755296
 21
20.8284196492
 31
0.0
  0
SPLINE
  5
755
100
AcDbEntity
  8
RACCORDO
100
AcDbSpline
 62
7
  6
CONTINUOUS
 70
0
 71
3
 72
9
 73
5
 74
3
 42
0.0000001
 43
0.0000001
 44
0.0000000001
 12
-0.0002420281
 22
0.0025716877
 32
0.0
 13
-0.0018259614
 23
0.0018270251
 33
0.0
 40
0.0
 40
0.0
 40
0.0
 40
0.0
 40
0.400618375
 40
1.0
 40
1.0
 40
1.0
 40
1.0
 10
7.3694755296
 20
20.8284196492
 30
0.0
 10
7.3694432093
 20
20.828763071
 30
0.0
 10
7.3692965085
 20
20.8295779078
 30
0.0
 10
7.3694030538
 20
20.8305967336
 30
0.0
 10
7.3690382379
 20
20.8309617621
 30
0.0
 11
7.3694755296
 21
20.8284196492
 31
0.0
 11
7.369366312
 21
20.8294486874
 31
0.0
 11
7.3690382379
 21
20.8309617621
 31
0.0
  0
LINE
  5
756
100
AcDbEntity
  8
RACCORDO
100
AcDbLine
 62
7
  6
CONTINUOUS
 10
7.3742270627
 20
20.2586977112
 11
7.3744043007
 21
19.8149898442
  0
LINE
  5
757
100
AcDbEntity
  8
RACCORDO
100
AcDbLine
 62
7
  6
CONTINUOUS
 10
7.3744043007
 20
19.8149898442
 11
7.3744495947
 21
19.699990635
  0
SPLINE
  5
758
100
AcDbEntity
  8
RACCORDO
100
AcDbSpline
 62
7
  6
CONTINUOUS
 70
0
 71
3
 72
18
 73
14
 74
12
 42
0.0000001
 43
0.0000001
 44
0.0000000001
 12
-0.0002358088
 22
0.5717165889
 32
0.0
 13
-0.2556638767
 23
0.5113666941
 33
0.0
 40
0.0
 40
0.0
 40
0.0
 40
0.0
 40
0.195388717
 40
0.3822407977
 40
0.5536827396
 40
0.7037985929
 40
0.8272503475
 40
0.877589395
 40
0.9197137659
 40
0.9532811136
 40
0.9779682215
 40
0.9935738819
 40
1.0
 40
1.0
 40
1.0
 40
1.0
 10
-6.425367705
 20
20.1893749329
 30
0.0
 10
-6.4253830631
 20
20.2266105898
 30
0.0
 10
-6.4254720338
 20
20.2994550949
 30
0.0
 10
-6.4257818557
 20
20.4049710492
 30
0.0
 10
-6.4262518719
 20
20.5018593836
 30
0.0
 10
-6.4268711762
 20
20.5866618467
 30
0.0
 10
-6.4275022084
 20
20.6483908319
 30
0.0
 10
-6.4281154647
 20
20.6895268101
 30
0.0
 10
-6.4285116816
 20
20.7135567052
 30
0.0
 10
-6.4290605948
 20
20.7326388488
 30
0.0
 10
-6.4292650111
 20
20.7468072838
 30
0.0
 10
-6.4301496918
 20
20.7555128246
 30
0.0
 10
-6.4299656222
 20
20.7599205762
 30
0.0
 10
-6.4305132643
 20
20.7610159438
 30
0.0
 11
-6.425367705
 21
20.1893749329
 31
0.0
 11
-6.4255066608
 21
20.3010818267
 31
0.0
 11
-6.4258260378
 21
20.4079077926
 31
0.0
 11
-6.4263142908
 21
20.5059227871
 31
0.0
 11
-6.4269541268
 21
20.5917441329
 31
0.0
 11
-6.427722875
 21
20.6623193682
 31
0.0
 11
-6.4281471154
 21
20.6910959122
 31
0.0
 11
-6.4285930797
 21
20.7151749864
 31
0.0
 11
-6.4290569163
 21
20.7343603914
 31
0.0
 11
-6.4295347058
 21
20.7484663323
 31
0.0
 11
-6.4300218467
 21
20.7573750391
 31
0.0
 11
-6.4305132643
 21
20.7610159438
 31
0.0
  0
LINE
  5
759
100
AcDbEntity
  8
RACCORDO
100
AcDbLine
 62
7
  6
CONTINUOUS
 10
-6.425367705
 20
20.1893749329
 11
-6.4251683113
 21
19.7000005743
  0
LINE
  5
75A
100
AcDbEntity
  8
RACCORDO
100
AcDbLine
 62
7
  6
CONTINUOUS
 10
6.4251683113
 20
19.7000004926
 11
6.425367705
 21
20.1893749328
  0
SPLINE
  5
75B
100
AcDbEntity
  8
RACCORDO
100
AcDbSpline
 62
7
  6
CONTINUOUS
 70
0
 71
3
 72
18
 73
14
 74
12
 42
0.0000001
 43
0.0000001
 44
0.0000000001
 12
-0.2556638692
 22
-0.5113666979
 32
0.0
 13
-0.0002358088
 23
-0.571716589
 33
0.0
 40
0.0
 40
0.0
 40
0.0
 40
0.0
 40
0.0064261182
 40
0.0220317786
 40
0.0467188866
 40
0.0802862342
 40
0.1224106052
 40
0.1727496528
 40
0.2962014073
 40
0.4463172607
 40
0.6177592025
 40
0.8046112832
 40
1.0
 40
1.0
 40
1.0
 40
1.0
 10
6.4305132643
 20
20.7610159438
 30
0.0
 10
6.4299656222
 20
20.7599205762
 30
0.0
 10
6.4301496918
 20
20.7555128246
 30
0.0
 10
6.4292650111
 20
20.7468072838
 30
0.0
 10
6.4290605948
 20
20.7326388488
 30
0.0
 10
6.4285116816
 20
20.7135567051
 30
0.0
 10
6.4281154647
 20
20.68952681
 30
0.0
 10
6.4275022084
 20
20.6483908317
 30
0.0
 10
6.4268711762
 20
20.5866618465
 30
0.0
 10
6.4262518719
 20
20.5018593834
 30
0.0
 10
6.4257818557
 20
20.404971049
 30
0.0
 10
6.4254720338
 20
20.2994550948
 30
0.0
 10
6.4253830631
 20
20.2266105897
 30
0.0
 10
6.425367705
 20
20.1893749328
 30
0.0
 11
6.4305132643
 21
20.7610159438
 31
0.0
 11
6.4300218467
 21
20.7573750391
 31
0.0
 11
6.4295347058
 21
20.7484663322
 31
0.0
 11
6.4290569163
 21
20.7343603913
 31
0.0
 11
6.4285930797
 21
20.7151749863
 31
0.0
 11
6.4281471154
 21
20.691095912
 31
0.0
 11
6.427722875
 21
20.6623193681
 31
0.0
 11
6.4269541268
 21
20.5917441327
 31
0.0
 11
6.4263142908
 21
20.5059227869
 31
0.0
 11
6.4258260378
 21
20.4079077925
 31
0.0
 11
6.4255066608
 21
20.3010818266
 31
0.0
 11
6.425367705
 21
20.1893749328
 31
0.0
  0
LINE
  5
75C
100
AcDbEntity
  8
ASSI
100
AcDbLine
 62
7
  6
CONTINUOUS
 10
-5.4501643029
 20
-19.9249235667
 11
-3.4000178478
 21
-19.9243973741
  0
LINE
  5
75D
100
AcDbEntity
  8
ASSI
100
AcDbLine
 62
7
  6
CONTINUOUS
 10
3.4000178479
 20
-19.9243973741
 11
5.4501643029
 21
-19.9249235667
  0
LINE
  5
75E
100
AcDbEntity
  8
ASSI
100
AcDbLine
 62
7
  6
CONTINUOUS
 10
5.4501643029
 20
19.9249235667
 11
3.4000178479
 21
19.9243973741
  0
LINE
  5
75F
100
AcDbEntity
  8
ASSI
100
AcDbLine
 62
7
  6
CONTINUOUS
 10
-3.4000178478
 20
19.9243973741
 11
-5.4501643029
 21
19.9249235667
  0
LINE
  5
760
100
AcDbEntity
  8
RACCORDO
100
AcDbLine
 62
253
  6
CONTINUOUS
 10
5.4396649246
 20
20.7603350754
 11
6.4305132643
 21
20.7610159438
  0
SPLINE
  5
761
100
AcDbEntity
  8
RACCORDO
100
AcDbSpline
 62
7
  6
CONTINUOUS
 70
0
 71
3
 72
21
 73
17
 74
15
 42
0.0000001
 43
0.0000001
 44
0.0000000001
 12
-0.0004806244
 22
0.5713532634
 32
0.0
 13
-0.4040079111
 23
0.4040079088
 33
0.0
 40
0.0
 40
0.0
 40
0.0
 40
0.0
 40
0.1952499791
 40
0.3819710229
 40
0.553317199
 40
0.7033866783
 40
0.7687307375
 40
0.8268421093
 40
0.8771990488
 40
0.9193505449
 40
0.9529544069
 40
0.9776904423
 40
0.9866684341
 40
0.9933719063
 40
0.997800296
 40
1.0
 40
1.0
 40
1.0
 40
1.0
 10
5.4499433689
 20
20.1893008195
 30
0.0
 10
5.4499120882
 20
20.2264863904
 30
0.0
 10
5.4497331477
 20
20.2992331445
 30
0.0
 10
5.4491150941
 20
20.4046114729
 30
0.0
 10
5.4481717886
 20
20.5013823141
 30
0.0
 10
5.4471084476
 20
20.5750340033
 30
0.0
 10
5.4460884614
 20
20.6271171337
 30
0.0
 10
5.4453044838
 20
20.6602110522
 30
0.0
 10
5.4444727648
 20
20.688883919
 30
0.0
 10
5.4436078169
 20
20.7128895885
 30
0.0
 10
5.4427085895
 20
20.7320004916
 30
0.0
 10
5.4419134011
 20
20.7448126804
 30
0.0
 10
5.4411960021
 20
20.7524578059
 30
0.0
 10
5.4407571976
 20
20.7562975939
 30
0.0
 10
5.4402646476
 20
20.7587243504
 30
0.0
 10
5.4399611572
 20
20.7600388428
 30
0.0
 10
5.4396649246
 20
20.7603350754
 30
0.0
 11
5.4499433689
 21
20.1893008195
 31
0.0
 11
5.4496644257
 21
20.300857223
 31
0.0
 11
5.4490259252
 21
20.4075390277
 31
0.0
 11
5.4480507239
 21
20.505433402
 31
0.0
 11
5.4467730839
 21
20.5911665996
 31
0.0
 11
5.4460344634
 21
20.6284938472
 31
0.0
 11
5.4452380168
 21
20.661686427
 31
0.0
 11
5.4443908166
 21
20.690445563
 31
0.0
 11
5.44350018
 21
20.7145124922
 31
0.0
 11
5.4425737997
 21
20.7336898134
 31
0.0
 11
5.4416195054
 21
20.7477905781
 31
0.0
 11
5.4411347065
 21
20.7528972242
 31
0.0
 11
5.4406464955
 21
20.7566960331
 31
0.0
 11
5.4401561443
 21
20.7591782388
 31
0.0
 11
5.4396649246
 21
20.7603350754
 31
0.0
  0
SPLINE
  5
762
100
AcDbEntity
  8
RACCORDO
100
AcDbSpline
 62
7
  6
CONTINUOUS
 70
0
 71
3
 72
21
 73
17
 74
15
 42
0.0000001
 43
0.0000001
 44
0.0000000001
 12
-0.4040079115
 22
-0.4040079085
 32
0.0
 13
-0.0004806244
 23
-0.5713532634
 33
0.0
 40
0.0
 40
0.0
 40
0.0
 40
0.0
 40
0.002199704
 40
0.0066280937
 40
0.0133315659
 40
0.0223095577
 40
0.0470455931
 40
0.0806494551
 40
0.1228009512
 40
0.1731578907
 40
0.2312692625
 40
0.2966133216
 40
0.446682801
 40
0.6180289771
 40
0.8047500209
 40
1.0
 40
1.0
 40
1.0
 40
1.0
 10
-5.4396649246
 20
20.7603350754
 30
0.0
 10
-5.4399611572
 20
20.7600388428
 30
0.0
 10
-5.4402646476
 20
20.7587243504
 30
0.0
 10
-5.4407571976
 20
20.7562975939
 30
0.0
 10
-5.4411960021
 20
20.7524578059
 30
0.0
 10
-5.4419134011
 20
20.7448126804
 30
0.0
 10
-5.4427085895
 20
20.7320004916
 30
0.0
 10
-5.4436078169
 20
20.7128895885
 30
0.0
 10
-5.4444727649
 20
20.688883919
 30
0.0
 10
-5.4453044838
 20
20.6602110522
 30
0.0
 10
-5.4460884614
 20
20.6271171337
 30
0.0
 10
-5.4471084476
 20
20.5750340033
 30
0.0
 10
-5.4481717886
 20
20.5013823141
 30
0.0
 10
-5.4491150941
 20
20.4046114729
 30
0.0
 10
-5.4497331477
 20
20.2992331444
 30
0.0
 10
-5.4499120882
 20
20.2264863904
 30
0.0
 10
-5.4499433689
 20
20.1893008195
 30
0.0
 11
-5.4396649246
 21
20.7603350754
 31
0.0
 11
-5.4401561443
 21
20.7591782388
 31
0.0
 11
-5.4406464955
 21
20.7566960331
 31
0.0
 11
-5.4411347065
 21
20.7528972242
 31
0.0
 11
-5.4416195054
 21
20.7477905781
 31
0.0
 11
-5.4425737997
 21
20.7336898134
 31
0.0
 11
-5.44350018
 21
20.7145124922
 31
0.0
 11
-5.4443908166
 21
20.6904455629
 31
0.0
 11
-5.4452380168
 21
20.661686427
 31
0.0
 11
-5.4460344634
 21
20.6284938472
 31
0.0
 11
-5.4467730839
 21
20.5911665996
 31
0.0
 11
-5.4480507239
 21
20.505433402
 31
0.0
 11
-5.4490259252
 21
20.4075390277
 31
0.0
 11
-5.4496644257
 21
20.3008572229
 31
0.0
 11
-5.4499433689
 21
20.1893008195
 31
0.0
  0
SPLINE
  5
763
100
AcDbEntity
  8
SMUSSO
100
AcDbSpline
 62
7
  6
CONTINUOUS
 70
0
 71
3
 72
28
 73
24
 74
22
 42
0.0000001
 43
0.0000001
 44
0.0000000001
 12
0.1391935168
 22
1.8032902403
 32
0.0
 13
1.8086358095
 23
0.0081874623
 33
0.0
 40
0.0
 40
0.0
 40
0.0
 40
0.0
 40
0.0005770782
 40
0.0015867644
 40
0.0051895663
 40
0.0109921652
 40
0.0190093733
 40
0.0292377862
 40
0.0416687674
 40
0.0562868881
 40
0.0730626806
 40
0.0919639136
 40
0.1129580478
 40
0.1610938421
 40
0.2171676955
 40
0.2807676942
 40
0.3514627293
 40
0.4287887331
 40
0.512206327
 40
0.6011651815
 40
0.6950805697
 40
0.7933014399
 40
1.0
 40
1.0
 40
1.0
 40
1.0
 10
-6.4127618536
 20
6.0593000519
 30
0.0
 10
-6.4127350784
 20
6.0596469318
 30
0.0
 10
-6.4119951453
 20
6.0604369909
 30
0.0
 10
-6.4091758726
 20
6.0616720942
 30
0.0
 10
-6.4029804885
 20
6.0631410639
 30
0.0
 10
-6.392639082
 20
6.0647480386
 30
0.0
 10
-6.378215091
 20
6.0664058946
 30
0.0
 10
-6.3598014393
 20
6.0680674463
 30
0.0
 10
-6.3373856314
 20
6.0697283359
 30
0.0
 10
-6.3110162314
 20
6.0713773883
 30
0.0
 10
-6.2807375415
 20
6.0730112938
 30
0.0
 10
-6.246609404
 20
6.07462546
 30
0.0
 10
-6.1935831185
 20
6.0768489351
 30
0.0
 10
-6.118145436
 20
6.0794997344
 30
0.0
 10
-6.01701762
 20
6.0824311123
 30
0.0
 10
-5.9022805938
 20
6.0852174633
 30
0.0
 10
-5.7747241319
 20
6.0878362385
 30
0.0
 10
-5.6352142683
 20
6.0902659011
 30
0.0
 10
-5.4846887702
 20
6.0924919393
 30
0.0
 10
-5.3241578742
 20
6.0944971807
 30
0.0
 10
-5.154699036
 20
6.0962667236
 30
0.0
 10
-4.9142563792
 20
6.0983333852
 30
0.0
 10
-4.7304279729
 20
6.0994358878
 30
0.0
 10
-4.6058138338
 20
6.1
 30
0.0
 11
-6.4127618536
 21
6.0593000519
 31
0.0
 11
-6.412180729
 21
6.0601670451
 31
0.0
 11
-6.4105732007
 21
6.0610335101
 31
0.0
 11
-6.4042908042
 21
6.062763441
 31
0.0
 11
-6.3939384072
 21
6.0644870159
 31
0.0
 11
-6.3795397527
 21
6.0662014062
 31
0.0
 11
-6.3611185839
 21
6.0679037831
 31
0.0
 11
-6.3386986559
 21
6.0695913178
 31
0.0
 11
-6.3123123156
 21
6.0712611997
 31
0.0
 11
-6.282015574
 21
6.072910667
 31
0.0
 11
-6.2478684822
 21
6.0745369666
 31
0.0
 11
-6.209931091
 21
6.0761373451
 31
0.0
 11
-6.1229257142
 21
6.0792493272
 31
0.0
 11
-6.0215511662
 21
6.082225238
 31
0.0
 11
-5.9065553303
 21
6.0850454923
 31
0.0
 11
-5.7787198154
 21
6.0876908148
 31
0.0
 11
-5.6388853034
 21
6.0901430549
 31
0.0
 11
-5.4880283929
 21
6.0923866498
 31
0.0
 11
-5.3271452522
 21
6.0944064107
 31
0.0
 11
-5.1572941264
 21
6.0961885075
 31
0.0
 11
-4.9796531396
 21
6.0977217335
 31
0.0
 11
-4.6058138338
 21
6.1
 31
0.0
  0
SPLINE
  5
764
100
AcDbEntity
  8
SMUSSO
100
AcDbSpline
 62
7
  6
CONTINUOUS
 70
0
 71
3
 72
55
 73
51
 74
49
 42
0.0000001
 43
0.0000001
 44
0.0000000001
 12
1.6203833635
 22
3.2959632158
 32
0.0
 13
1.6203833635
 23
-3.2959632158
 33
0.0
 40
0.0
 40
0.0
 40
0.0
 40
0.0
 40
0.0003344656
 40
0.0009330439
 40
0.0018191141
 40
0.0029981334
 40
0.0044715478
 40
0.0062394493
 40
0.0106563812
 40
0.0162424277
 40
0.0229865656
 40
0.0308688928
 40
0.0398675425
 40
0.0499604647
 40
0.0611254959
 40
0.073337229
 40
0.0865621322
 40
0.1159120897
 40
0.1488938535
 40
0.185187966
 40
0.2244469304
 40
0.2663065433
 40
0.3103619203
 40
0.356199705
 40
0.4033844964
 40
0.5
 40
0.5966155036
 40
0.643800295
 40
0.6896380797
 40
0.7336934567
 40
0.7755530696
 40
0.814812034
 40
0.8511061465
 40
0.8840879103
 40
0.9134378678
 40
0.926662771
 40
0.9388745041
 40
0.9500395353
 40
0.9601324575
 40
0.9691311072
 40
0.9770134344
 40
0.9837575723
 40
0.9893436188
 40
0.9937605507
 40
0.9955284522
 40
0.9970018666
 40
0.9981808859
 40
0.9990669561
 40
0.9996655344
 40
1.0
 40
1.0
 40
1.0
 40
1.0
 10
-5.8352304926
 20
5.0593644209
 30
0.0
 10
-5.8350498384
 20
5.0597318831
 30
0.0
 10
-5.8339842951
 20
5.0603650161
 30
0.0
 10
-5.831925734
 20
5.0610752215
 30
0.0
 10
-5.8287239527
 20
5.0618320901
 30
0.0
 10
-5.8244683756
 20
5.0625897007
 30
0.0
 10
-5.819106774
 20
5.0633571712
 30
0.0
 10
-5.8097980197
 20
5.064464239
 30
0.0
 10
-5.7954454574
 20
5.065789262
 30
0.0
 10
-5.7749977695
 20
5.067288625
 30
0.0
 10
-5.750296639
 20
5.0687759407
 30
0.0
 10
-5.7214109494
 20
5.0702477894
 30
0.0
 10
-5.6884198298
 20
5.0716971958
 30
0.0
 10
-5.6514054746
 20
5.0731196785
 30
0.0
 10
-5.6104538241
 20
5.0745105031
 30
0.0
 10
-5.5656647687
 20
5.0758655753
 30
0.0
 10
-5.4986170498
 20
5.0776843959
 30
0.0
 10
-5.4061412186
 20
5.079812922
 30
0.0
 10
-5.2854202761
 20
5.0820984443
 30
0.0
 10
-5.1525628439
 20
5.0841718948
 30
0.0
 10
-5.0088324031
 20
5.0860132662
 30
0.0
 10
-4.8555967247
 20
5.0876018346
 30
0.0
 10
-4.6943041602
 20
5.0889246733
 30
0.0
 10
-4.526490079
 20
5.0899661753
 30
0.0
 10
-4.2943284057
 20
5.0909756964
 30
0.0
 10
-4.0
 20
5.0914714873
 30
0.0
 10
-3.7056715943
 20
5.0909756964
 30
0.0
 10
-3.473509921
 20
5.0899661753
 30
0.0
 10
-3.3056958398
 20
5.0889246733
 30
0.0
 10
-3.1444032753
 20
5.0876018346
 30
0.0
 10
-2.991167597
 20
5.0860132662
 30
0.0
 10
-2.8474371561
 20
5.0841718948
 30
0.0
 10
-2.7145797239
 20
5.0820984443
 30
0.0
 10
-2.5938587814
 20
5.079812922
 30
0.0
 10
-2.5013829502
 20
5.0776843959
 30
0.0
 10
-2.4343352313
 20
5.0758655753
 30
0.0
 10
-2.3895461759
 20
5.0745105031
 30
0.0
 10
-2.3485945254
 20
5.0731196785
 30
0.0
 10
-2.3115801702
 20
5.0716971958
 30
0.0
 10
-2.2785890506
 20
5.0702477894
 30
0.0
 10
-2.249703361
 20
5.0687759407
 30
0.0
 10
-2.2250022305
 20
5.067288625
 30
0.0
 10
-2.2045545426
 20
5.065789262
 30
0.0
 10
-2.1902019803
 20
5.064464239
 30
0.0
 10
-2.180893226
 20
5.0633571712
 30
0.0
 10
-2.1755316244
 20
5.0625897007
 30
0.0
 10
-2.1712760473
 20
5.0618320901
 30
0.0
 10
-2.168074266
 20
5.0610752215
 30
0.0
 10
-2.1660157049
 20
5.0603650161
 30
0.0
 10
-2.1649501616
 20
5.0597318831
 30
0.0
 10
-2.1647695074
 20
5.0593644209
 30
0.0
 11
-5.8352304926
 21
5.0593644209
 31
0.0
 11
-5.8342871582
 21
5.0601512496
 31
0.0
 11
-5.8322340802
 21
5.060937335
 31
0.0
 11
-5.8290758442
 21
5.0617222215
 31
0.0
 11
-5.824817036
 21
5.0625054535
 31
0.0
 11
-5.8194622411
 21
5.0632865754
 31
0.0
 11
-5.8130160452
 21
5.0640651316
 31
0.0
 11
-5.7968677932
 21
5.0656127247
 31
0.0
 11
-5.7764089688
 21
5.0671445878
 31
0.0
 11
-5.7516857297
 21
5.0686570997
 31
0.0
 11
-5.7227743443
 21
5.070146713
 31
0.0
 11
-5.6897570528
 21
5.0716098953
 31
0.0
 11
-5.6527160954
 21
5.0730431141
 31
0.0
 11
-5.6117337401
 21
5.0744428372
 31
0.0
 11
-5.5669039349
 21
5.0758056475
 31
0.0
 11
-5.5183503251
 21
5.0771284208
 31
0.0
 11
-5.4105848751
 21
5.0796415429
 31
0.0
 11
-5.2894735935
 21
5.0819577817
 31
0.0
 11
-5.1561912799
 21
5.0840556075
 31
0.0
 11
-5.0120153268
 21
5.0859156318
 31
0.0
 11
-4.8582842416
 21
5.0875199102
 31
0.0
 11
-4.6964858167
 21
5.0888540431
 31
0.0
 11
-4.52813885
 21
5.0899045673
 31
0.0
 11
-4.3548430561
 21
5.0906620648
 31
0.0
 11
-4.0
 21
5.0912722446
 31
0.0
 11
-3.6451569439
 21
5.0906620648
 31
0.0
 11
-3.47186115
 21
5.0899045673
 31
0.0
 11
-3.3035141833
 21
5.0888540431
 31
0.0
 11
-3.1417157584
 21
5.0875199102
 31
0.0
 11
-2.9879846732
 21
5.0859156318
 31
0.0
 11
-2.8438087201
 21
5.0840556075
 31
0.0
 11
-2.7105264065
 21
5.0819577817
 31
0.0
 11
-2.5894151249
 21
5.0796415429
 31
0.0
 11
-2.4816496749
 21
5.0771284208
 31
0.0
 11
-2.4330960651
 21
5.0758056475
 31
0.0
 11
-2.3882662599
 21
5.0744428372
 31
0.0
 11
-2.3472839046
 21
5.0730431141
 31
0.0
 11
-2.3102429472
 21
5.0716098953
 31
0.0
 11
-2.2772256557
 21
5.070146713
 31
0.0
 11
-2.2483142703
 21
5.0686570997
 31
0.0
 11
-2.2235910312
 21
5.0671445878
 31
0.0
 11
-2.2031322068
 21
5.0656127247
 31
0.0
 11
-2.1869839548
 21
5.0640651316
 31
0.0
 11
-2.1805377589
 21
5.0632865754
 31
0.0
 11
-2.175182964
 21
5.0625054535
 31
0.0
 11
-2.1709241558
 21
5.0617222215
 31
0.0
 11
-2.1677659198
 21
5.060937335
 31
0.0
 11
-2.1657128418
 21
5.0601512496
 31
0.0
 11
-2.1647695074
 21
5.0593644209
 31
0.0
  0
SPLINE
  5
765
100
AcDbEntity
  8
SMUSSO
100
AcDbSpline
 62
7
  6
CONTINUOUS
 70
0
 71
3
 72
28
 73
24
 74
22
 42
0.0000001
 43
0.0000001
 44
0.0000000001
 12
1.8086358095
 22
-0.0081874623
 32
0.0
 13
0.1391935168
 23
-1.8032902403
 33
0.0
 40
0.0
 40
0.0
 40
0.0
 40
0.0
 40
0.2066985601
 40
0.3049194303
 40
0.3988348185
 40
0.487793673
 40
0.5712112669
 40
0.6485372707
 40
0.7192323058
 40
0.7828323045
 40
0.8389061579
 40
0.8870419522
 40
0.9080360864
 40
0.9269373194
 40
0.9437131119
 40
0.9583312326
 40
0.9707622138
 40
0.9809906267
 40
0.9890078348
 40
0.9948104337
 40
0.9984132356
 40
0.9994229218
 40
1.0
 40
1.0
 40
1.0
 40
1.0
 10
-3.3941861662
 20
6.1
 30
0.0
 10
-3.2695720271
 20
6.0994358878
 30
0.0
 10
-3.0857436208
 20
6.0983333852
 30
0.0
 10
-2.845300964
 20
6.0962667236
 30
0.0
 10
-2.6758421259
 20
6.0944971807
 30
0.0
 10
-2.5153112298
 20
6.0924919393
 30
0.0
 10
-2.3647857317
 20
6.0902659011
 30
0.0
 10
-2.2252758681
 20
6.0878362385
 30
0.0
 10
-2.0977194062
 20
6.0852174633
 30
0.0
 10
-1.98298238
 20
6.0824311123
 30
0.0
 10
-1.881854564
 20
6.0794997344
 30
0.0
 10
-1.8064168815
 20
6.0768489351
 30
0.0
 10
-1.753390596
 20
6.07462546
 30
0.0
 10
-1.7192624585
 20
6.0730112938
 30
0.0
 10
-1.6889837686
 20
6.0713773883
 30
0.0
 10
-1.6626143686
 20
6.0697283359
 30
0.0
 10
-1.6401985607
 20
6.0680674463
 30
0.0
 10
-1.621784909
 20
6.0664058946
 30
0.0
 10
-1.607360918
 20
6.0647480386
 30
0.0
 10
-1.5970195115
 20
6.0631410639
 30
0.0
 10
-1.5908241274
 20
6.0616720942
 30
0.0
 10
-1.5880048547
 20
6.0604369909
 30
0.0
 10
-1.5872649216
 20
6.0596469318
 30
0.0
 10
-1.5872381464
 20
6.0593000519
 30
0.0
 11
-3.3941861662
 21
6.1
 31
0.0
 11
-3.0203468604
 21
6.0977217335
 31
0.0
 11
-2.8427058736
 21
6.0961885075
 31
0.0
 11
-2.6728547478
 21
6.0944064107
 31
0.0
 11
-2.5119716071
 21
6.0923866498
 31
0.0
 11
-2.3611146966
 21
6.0901430549
 31
0.0
 11
-2.2212801846
 21
6.0876908148
 31
0.0
 11
-2.0934446697
 21
6.0850454923
 31
0.0
 11
-1.9784488338
 21
6.082225238
 31
0.0
 11
-1.8770742858
 21
6.0792493272
 31
0.0
 11
-1.790068909
 21
6.0761373451
 31
0.0
 11
-1.7521315178
 21
6.0745369666
 31
0.0
 11
-1.717984426
 21
6.072910667
 31
0.0
 11
-1.6876876844
 21
6.0712611997
 31
0.0
 11
-1.6613013441
 21
6.0695913178
 31
0.0
 11
-1.6388814162
 21
6.0679037831
 31
0.0
 11
-1.6204602473
 21
6.0662014062
 31
0.0
 11
-1.6060615928
 21
6.0644870159
 31
0.0
 11
-1.5957091958
 21
6.062763441
 31
0.0
 11
-1.5894267993
 21
6.0610335101
 31
0.0
 11
-1.587819271
 21
6.0601670451
 31
0.0
 11
-1.5872381464
 21
6.0593000519
 31
0.0
  0
SPLINE
  5
766
100
AcDbEntity
  8
SMUSSO
100
AcDbSpline
 62
7
  6
CONTINUOUS
 70
0
 71
3
 72
15
 73
11
 74
9
 42
0.0000001
 43
0.0000001
 44
0.0000000001
 12
1.1456067705
 22
-0.4981562766
 32
0.0
 13
1.1456067705
 23
0.4981562766
 33
0.0
 40
0.0
 40
0.0
 40
0.0
 40
0.0
 40
0.1250133859
 40
0.250016235
 40
0.3750107917
 40
0.5000000002
 40
0.6249892091
 40
0.7499837647
 40
0.8749866138
 40
1.0
 40
1.0
 40
1.0
 40
1.0
 10
-4.6058138338
 20
6.1
 30
0.0
 10
-4.5580751067
 20
6.0792412657
 30
0.0
 10
-4.4608621887
 20
6.0415592283
 30
0.0
 10
-4.3104012905
 20
5.9988411044
 30
0.0
 10
-4.1562266724
 20
5.9721610594
 30
0.0
 10
-3.9999999996
 20
5.9630847038
 30
0.0
 10
-3.8437733273
 20
5.9721610594
 30
0.0
 10
-3.6895987094
 20
5.9988411044
 30
0.0
 10
-3.5391378116
 20
6.0415592283
 30
0.0
 10
-3.4419248934
 20
6.0792412657
 30
0.0
 10
-3.3941861662
 20
6.1
 30
0.0
 11
-4.6058138338
 21
6.1
 31
0.0
 11
-4.4600835328
 21
6.0438583988
 31
0.0
 11
-4.3097773365
 21
6.0015129589
 31
0.0
 11
-4.1558815125
 21
5.9750946118
 31
0.0
 11
-3.9999999998
 21
5.9661101125
 31
0.0
 11
-3.8441184864
 21
5.9750946119
 31
0.0
 11
-3.6902226638
 21
6.0015129588
 31
0.0
 11
-3.5399164676
 21
6.0438583986
 31
0.0
 11
-3.3941861662
 21
6.1
 31
0.0
  0
SPLINE
  5
767
100
AcDbEntity
  8
SMUSSO
100
AcDbSpline
 62
7
  6
CONTINUOUS
 70
0
 71
3
 72
28
 73
24
 74
22
 42
0.0000001
 43
0.0000001
 44
0.0000000001
 12
0.1391935168
 22
1.8032902403
 32
0.0
 13
1.8086358095
 23
0.0081874623
 33
0.0
 40
0.0
 40
0.0
 40
0.0
 40
0.0
 40
0.0005770782
 40
0.0015867644
 40
0.0051895663
 40
0.0109921652
 40
0.0190093733
 40
0.0292377862
 40
0.0416687674
 40
0.0562868881
 40
0.0730626806
 40
0.0919639136
 40
0.1129580478
 40
0.1610938421
 40
0.2171676955
 40
0.2807676942
 40
0.3514627293
 40
0.4287887331
 40
0.512206327
 40
0.6011651815
 40
0.6950805697
 40
0.7933014399
 40
1.0
 40
1.0
 40
1.0
 40
1.0
 10
1.5872381464
 20
6.0593000519
 30
0.0
 10
1.5872649216
 20
6.0596469318
 30
0.0
 10
1.5880048547
 20
6.0604369909
 30
0.0
 10
1.5908241274
 20
6.0616720942
 30
0.0
 10
1.5970195115
 20
6.0631410639
 30
0.0
 10
1.607360918
 20
6.0647480386
 30
0.0
 10
1.621784909
 20
6.0664058946
 30
0.0
 10
1.6401985607
 20
6.0680674463
 30
0.0
 10
1.6626143686
 20
6.0697283359
 30
0.0
 10
1.6889837686
 20
6.0713773883
 30
0.0
 10
1.7192624585
 20
6.0730112938
 30
0.0
 10
1.753390596
 20
6.07462546
 30
0.0
 10
1.8064168815
 20
6.0768489351
 30
0.0
 10
1.881854564
 20
6.0794997344
 30
0.0
 10
1.98298238
 20
6.0824311123
 30
0.0
 10
2.0977194062
 20
6.0852174633
 30
0.0
 10
2.2252758681
 20
6.0878362385
 30
0.0
 10
2.3647857317
 20
6.0902659011
 30
0.0
 10
2.5153112298
 20
6.0924919393
 30
0.0
 10
2.6758421258
 20
6.0944971807
 30
0.0
 10
2.845300964
 20
6.0962667236
 30
0.0
 10
3.0857436208
 20
6.0983333852
 30
0.0
 10
3.2695720271
 20
6.0994358878
 30
0.0
 10
3.3941861662
 20
6.1
 30
0.0
 11
1.5872381464
 21
6.0593000519
 31
0.0
 11
1.587819271
 21
6.0601670451
 31
0.0
 11
1.5894267993
 21
6.0610335101
 31
0.0
 11
1.5957091958
 21
6.062763441
 31
0.0
 11
1.6060615928
 21
6.0644870159
 31
0.0
 11
1.6204602473
 21
6.0662014062
 31
0.0
 11
1.6388814161
 21
6.0679037831
 31
0.0
 11
1.6613013441
 21
6.0695913178
 31
0.0
 11
1.6876876844
 21
6.0712611997
 31
0.0
 11
1.717984426
 21
6.072910667
 31
0.0
 11
1.7521315178
 21
6.0745369666
 31
0.0
 11
1.790068909
 21
6.0761373451
 31
0.0
 11
1.8770742858
 21
6.0792493272
 31
0.0
 11
1.9784488338
 21
6.082225238
 31
0.0
 11
2.0934446697
 21
6.0850454923
 31
0.0
 11
2.2212801846
 21
6.0876908148
 31
0.0
 11
2.3611146966
 21
6.0901430549
 31
0.0
 11
2.5119716071
 21
6.0923866498
 31
0.0
 11
2.6728547478
 21
6.0944064107
 31
0.0
 11
2.8427058736
 21
6.0961885075
 31
0.0
 11
3.0203468604
 21
6.0977217335
 31
0.0
 11
3.3941861662
 21
6.1
 31
0.0
  0
SPLINE
  5
768
100
AcDbEntity
  8
SMUSSO
100
AcDbSpline
 62
7
  6
CONTINUOUS
 70
0
 71
3
 72
55
 73
51
 74
49
 42
0.0000001
 43
0.0000001
 44
0.0000000001
 12
1.6203833635
 22
3.2959632158
 32
0.0
 13
1.6203833635
 23
-3.2959632158
 33
0.0
 40
0.0
 40
0.0
 40
0.0
 40
0.0
 40
0.0003344656
 40
0.0009330439
 40
0.0018191141
 40
0.0029981334
 40
0.0044715478
 40
0.0062394493
 40
0.0106563812
 40
0.0162424277
 40
0.0229865656
 40
0.0308688928
 40
0.0398675425
 40
0.0499604647
 40
0.0611254959
 40
0.073337229
 40
0.0865621322
 40
0.1159120897
 40
0.1488938535
 40
0.185187966
 40
0.2244469304
 40
0.2663065433
 40
0.3103619203
 40
0.356199705
 40
0.4033844964
 40
0.5
 40
0.5966155036
 40
0.643800295
 40
0.6896380797
 40
0.7336934567
 40
0.7755530696
 40
0.814812034
 40
0.8511061465
 40
0.8840879103
 40
0.9134378678
 40
0.926662771
 40
0.9388745041
 40
0.9500395353
 40
0.9601324575
 40
0.9691311072
 40
0.9770134344
 40
0.9837575723
 40
0.9893436188
 40
0.9937605507
 40
0.9955284522
 40
0.9970018666
 40
0.9981808859
 40
0.9990669561
 40
0.9996655344
 40
1.0
 40
1.0
 40
1.0
 40
1.0
 10
2.1647695074
 20
5.0593644209
 30
0.0
 10
2.1649501616
 20
5.0597318831
 30
0.0
 10
2.1660157049
 20
5.0603650161
 30
0.0
 10
2.168074266
 20
5.0610752215
 30
0.0
 10
2.1712760473
 20
5.0618320901
 30
0.0
 10
2.1755316244
 20
5.0625897007
 30
0.0
 10
2.180893226
 20
5.0633571712
 30
0.0
 10
2.1902019803
 20
5.064464239
 30
0.0
 10
2.2045545426
 20
5.065789262
 30
0.0
 10
2.2250022305
 20
5.067288625
 30
0.0
 10
2.249703361
 20
5.0687759407
 30
0.0
 10
2.2785890506
 20
5.0702477894
 30
0.0
 10
2.3115801702
 20
5.0716971958
 30
0.0
 10
2.3485945254
 20
5.0731196785
 30
0.0
 10
2.3895461759
 20
5.0745105031
 30
0.0
 10
2.4343352313
 20
5.0758655753
 30
0.0
 10
2.5013829502
 20
5.0776843959
 30
0.0
 10
2.5938587814
 20
5.079812922
 30
0.0
 10
2.7145797239
 20
5.0820984443
 30
0.0
 10
2.8474371561
 20
5.0841718948
 30
0.0
 10
2.9911675969
 20
5.0860132662
 30
0.0
 10
3.1444032753
 20
5.0876018346
 30
0.0
 10
3.3056958398
 20
5.0889246733
 30
0.0
 10
3.473509921
 20
5.0899661753
 30
0.0
 10
3.7056715943
 20
5.0909756964
 30
0.0
 10
4.0
 20
5.0914714873
 30
0.0
 10
4.2943284057
 20
5.0909756964
 30
0.0
 10
4.526490079
 20
5.0899661753
 30
0.0
 10
4.6943041602
 20
5.0889246733
 30
0.0
 10
4.8555967247
 20
5.0876018346
 30
0.0
 10
5.008832403
 20
5.0860132662
 30
0.0
 10
5.1525628439
 20
5.0841718948
 30
0.0
 10
5.2854202761
 20
5.0820984443
 30
0.0
 10
5.4061412186
 20
5.079812922
 30
0.0
 10
5.4986170498
 20
5.0776843959
 30
0.0
 10
5.5656647687
 20
5.0758655753
 30
0.0
 10
5.6104538241
 20
5.0745105031
 30
0.0
 10
5.6514054746
 20
5.0731196785
 30
0.0
 10
5.6884198298
 20
5.0716971958
 30
0.0
 10
5.7214109494
 20
5.0702477894
 30
0.0
 10
5.750296639
 20
5.0687759407
 30
0.0
 10
5.7749977695
 20
5.067288625
 30
0.0
 10
5.7954454574
 20
5.065789262
 30
0.0
 10
5.8097980197
 20
5.064464239
 30
0.0
 10
5.819106774
 20
5.0633571712
 30
0.0
 10
5.8244683756
 20
5.0625897007
 30
0.0
 10
5.8287239527
 20
5.0618320901
 30
0.0
 10
5.831925734
 20
5.0610752215
 30
0.0
 10
5.8339842951
 20
5.0603650161
 30
0.0
 10
5.8350498384
 20
5.0597318831
 30
0.0
 10
5.8352304926
 20
5.0593644209
 30
0.0
 11
2.1647695074
 21
5.0593644209
 31
0.0
 11
2.1657128418
 21
5.0601512496
 31
0.0
 11
2.1677659198
 21
5.060937335
 31
0.0
 11
2.1709241558
 21
5.0617222215
 31
0.0
 11
2.175182964
 21
5.0625054535
 31
0.0
 11
2.1805377589
 21
5.0632865754
 31
0.0
 11
2.1869839548
 21
5.0640651316
 31
0.0
 11
2.2031322068
 21
5.0656127247
 31
0.0
 11
2.2235910312
 21
5.0671445878
 31
0.0
 11
2.2483142703
 21
5.0686570997
 31
0.0
 11
2.2772256557
 21
5.070146713
 31
0.0
 11
2.3102429472
 21
5.0716098953
 31
0.0
 11
2.3472839046
 21
5.0730431141
 31
0.0
 11
2.3882662599
 21
5.0744428372
 31
0.0
 11
2.4330960651
 21
5.0758056475
 31
0.0
 11
2.4816496749
 21
5.0771284208
 31
0.0
 11
2.5894151249
 21
5.0796415429
 31
0.0
 11
2.7105264065
 21
5.0819577817
 31
0.0
 11
2.8438087201
 21
5.0840556075
 31
0.0
 11
2.9879846732
 21
5.0859156318
 31
0.0
 11
3.1417157584
 21
5.0875199102
 31
0.0
 11
3.3035141833
 21
5.0888540431
 31
0.0
 11
3.47186115
 21
5.0899045673
 31
0.0
 11
3.6451569439
 21
5.0906620648
 31
0.0
 11
4.0
 21
5.0912722446
 31
0.0
 11
4.3548430561
 21
5.0906620648
 31
0.0
 11
4.52813885
 21
5.0899045673
 31
0.0
 11
4.6964858167
 21
5.0888540431
 31
0.0
 11
4.8582842416
 21
5.0875199102
 31
0.0
 11
5.0120153268
 21
5.0859156318
 31
0.0
 11
5.1561912799
 21
5.0840556075
 31
0.0
 11
5.2894735935
 21
5.0819577817
 31
0.0
 11
5.4105848751
 21
5.0796415429
 31
0.0
 11
5.5183503251
 21
5.0771284208
 31
0.0
 11
5.5669039349
 21
5.0758056475
 31
0.0
 11
5.6117337401
 21
5.0744428372
 31
0.0
 11
5.6527160954
 21
5.0730431141
 31
0.0
 11
5.6897570528
 21
5.0716098953
 31
0.0
 11
5.7227743443
 21
5.070146713
 31
0.0
 11
5.7516857297
 21
5.0686570997
 31
0.0
 11
5.7764089688
 21
5.0671445878
 31
0.0
 11
5.7968677932
 21
5.0656127247
 31
0.0
 11
5.8130160452
 21
5.0640651316
 31
0.0
 11
5.8194622411
 21
5.0632865754
 31
0.0
 11
5.824817036
 21
5.0625054535
 31
0.0
 11
5.8290758442
 21
5.0617222215
 31
0.0
 11
5.8322340802
 21
5.060937335
 31
0.0
 11
5.8342871582
 21
5.0601512496
 31
0.0
 11
5.8352304926
 21
5.0593644209
 31
0.0
  0
SPLINE
  5
769
100
AcDbEntity
  8
SMUSSO
100
AcDbSpline
 62
7
  6
CONTINUOUS
 70
0
 71
3
 72
28
 73
24
 74
22
 42
0.0000001
 43
0.0000001
 44
0.0000000001
 12
1.8086358095
 22
-0.0081874623
 32
0.0
 13
0.1391935168
 23
-1.8032902403
 33
0.0
 40
0.0
 40
0.0
 40
0.0
 40
0.0
 40
0.2066985601
 40
0.3049194303
 40
0.3988348185
 40
0.487793673
 40
0.5712112669
 40
0.6485372707
 40
0.7192323058
 40
0.7828323045
 40
0.8389061579
 40
0.8870419522
 40
0.9080360864
 40
0.9269373194
 40
0.9437131119
 40
0.9583312326
 40
0.9707622138
 40
0.9809906267
 40
0.9890078348
 40
0.9948104337
 40
0.9984132356
 40
0.9994229218
 40
1.0
 40
1.0
 40
1.0
 40
1.0
 10
4.6058138338
 20
6.1
 30
0.0
 10
4.7304279729
 20
6.0994358878
 30
0.0
 10
4.9142563792
 20
6.0983333852
 30
0.0
 10
5.154699036
 20
6.0962667236
 30
0.0
 10
5.3241578741
 20
6.0944971807
 30
0.0
 10
5.4846887702
 20
6.0924919393
 30
0.0
 10
5.6352142683
 20
6.0902659011
 30
0.0
 10
5.7747241319
 20
6.0878362385
 30
0.0
 10
5.9022805938
 20
6.0852174633
 30
0.0
 10
6.01701762
 20
6.0824311123
 30
0.0
 10
6.118145436
 20
6.0794997344
 30
0.0
 10
6.1935831185
 20
6.0768489351
 30
0.0
 10
6.246609404
 20
6.07462546
 30
0.0
 10
6.2807375415
 20
6.0730112938
 30
0.0
 10
6.3110162314
 20
6.0713773883
 30
0.0
 10
6.3373856314
 20
6.0697283359
 30
0.0
 10
6.3598014393
 20
6.0680674463
 30
0.0
 10
6.378215091
 20
6.0664058946
 30
0.0
 10
6.392639082
 20
6.0647480386
 30
0.0
 10
6.4029804885
 20
6.0631410639
 30
0.0
 10
6.4091758726
 20
6.0616720942
 30
0.0
 10
6.4119951453
 20
6.0604369909
 30
0.0
 10
6.4127350784
 20
6.0596469318
 30
0.0
 10
6.4127618536
 20
6.0593000519
 30
0.0
 11
4.6058138338
 21
6.1
 31
0.0
 11
4.9796531396
 21
6.0977217335
 31
0.0
 11
5.1572941264
 21
6.0961885075
 31
0.0
 11
5.3271452522
 21
6.0944064107
 31
0.0
 11
5.4880283929
 21
6.0923866498
 31
0.0
 11
5.6388853034
 21
6.0901430549
 31
0.0
 11
5.7787198154
 21
6.0876908148
 31
0.0
 11
5.9065553303
 21
6.0850454923
 31
0.0
 11
6.0215511662
 21
6.082225238
 31
0.0
 11
6.1229257142
 21
6.0792493272
 31
0.0
 11
6.209931091
 21
6.0761373451
 31
0.0
 11
6.2478684822
 21
6.0745369666
 31
0.0
 11
6.282015574
 21
6.072910667
 31
0.0
 11
6.3123123156
 21
6.0712611997
 31
0.0
 11
6.3386986559
 21
6.0695913178
 31
0.0
 11
6.3611185838
 21
6.0679037831
 31
0.0
 11
6.3795397527
 21
6.0662014062
 31
0.0
 11
6.3939384072
 21
6.0644870159
 31
0.0
 11
6.4042908042
 21
6.062763441
 31
0.0
 11
6.4105732007
 21
6.0610335101
 31
0.0
 11
6.412180729
 21
6.0601670451
 31
0.0
 11
6.4127618536
 21
6.0593000519
 31
0.0
  0
SPLINE
  5
76A
100
AcDbEntity
  8
SMUSSO
100
AcDbSpline
 62
7
  6
CONTINUOUS
 70
0
 71
3
 72
15
 73
11
 74
9
 42
0.0000001
 43
0.0000001
 44
0.0000000001
 12
1.1456067705
 22
-0.4981562766
 32
0.0
 13
1.1456067705
 23
0.4981562766
 33
0.0
 40
0.0
 40
0.0
 40
0.0
 40
0.0
 40
0.1250133859
 40
0.250016235
 40
0.3750107917
 40
0.5000000002
 40
0.6249892091
 40
0.7499837647
 40
0.8749866138
 40
1.0
 40
1.0
 40
1.0
 40
1.0
 10
3.3941861662
 20
6.1
 30
0.0
 10
3.4419248933
 20
6.0792412657
 30
0.0
 10
3.5391378113
 20
6.0415592283
 30
0.0
 10
3.6895987095
 20
5.9988411044
 30
0.0
 10
3.8437733276
 20
5.9721610594
 30
0.0
 10
4.0000000004
 20
5.9630847038
 30
0.0
 10
4.1562266727
 20
5.9721610594
 30
0.0
 10
4.3104012906
 20
5.9988411044
 30
0.0
 10
4.4608621884
 20
6.0415592283
 30
0.0
 10
4.5580751066
 20
6.0792412657
 30
0.0
 10
4.6058138338
 20
6.1
 30
0.0
 11
3.3941861662
 21
6.1
 31
0.0
 11
3.5399164672
 21
6.0438583988
 31
0.0
 11
3.6902226635
 21
6.0015129589
 31
0.0
 11
3.8441184875
 21
5.9750946118
 31
0.0
 11
4.0000000002
 21
5.9661101125
 31
0.0
 11
4.1558815136
 21
5.9750946119
 31
0.0
 11
4.3097773362
 21
6.0015129588
 31
0.0
 11
4.4600835324
 21
6.0438583986
 31
0.0
 11
4.6058138338
 21
6.1
 31
0.0
  0
SPLINE
  5
76B
100
AcDbEntity
  8
SUPERFICI
100
AcDbSpline
 62
7
  6
CONTINUOUS
 70
0
 71
3
 72
11
 73
7
 74
5
 42
0.0000001
 43
0.0000001
 44
0.0000000001
 12
1.14408127
 22
-0.4974929271
 32
0.0
 13
1.14408127
 23
0.4974929271
 33
0.0
 40
0.0
 40
0.0
 40
0.0
 40
0.0
 40
0.2500783498
 40
0.5000000002
 40
0.74992165
 40
1.0
 40
1.0
 40
1.0
 40
1.0
 10
3.3941861662
 20
6.1
 30
0.0
 10
3.4895561516
 20
6.0585292633
 30
0.0
 10
3.6875963092
 20
5.9907351919
 30
0.0
 10
4.0
 20
5.9538014316
 30
0.0
 10
4.3124036909
 20
5.9907351918
 30
0.0
 10
4.5104438483
 20
6.0585292632
 30
0.0
 10
4.6058138338
 20
6.1
 30
0.0
 11
3.3941861662
 21
6.1
 31
0.0
 11
3.6902226635
 21
6.0015129589
 31
0.0
 11
4.0000000002
 21
5.9661101125
 31
0.0
 11
4.3097773362
 21
6.0015129588
 31
0.0
 11
4.6058138338
 21
6.1
 31
0.0
  0
SPLINE
  5
76C
100
AcDbEntity
  8
SUPERFICI
100
AcDbSpline
 62
7
  6
CONTINUOUS
 70
0
 71
3
 72
23
 73
19
 74
17
 42
0.0000001
 43
0.0000001
 44
0.0000000001
 12
1.8085566955
 22
-0.0081871042
 32
0.0
 13
0.1391874281
 23
-1.8032113601
 33
0.0
 40
0.0
 40
0.0
 40
0.0
 40
0.0
 40
0.2067076019
 40
0.3988521821
 40
0.5712360553
 40
0.6485654417
 40
0.7192635693
 40
0.7828663502
 40
0.8389426565
 40
0.8870805564
 40
0.9269775222
 40
0.9583725054
 40
0.9708040304
 40
0.9810328907
 40
0.9890504495
 40
0.9948533022
 40
0.9984562617
 40
1.0
 40
1.0
 40
1.0
 40
1.0
 10
4.6058138338
 20
6.1
 30
0.0
 10
4.7304279729
 20
6.0994358878
 30
0.0
 10
4.9708755254
 20
6.0979925824
 30
0.0
 10
5.3152354971
 20
6.0947622367
 30
0.0
 10
5.581590435
 20
6.091198677
 30
0.0
 10
5.7747241554
 20
6.0878364085
 30
0.0
 10
5.9022805194
 20
6.0852174552
 30
0.0
 10
6.0170178549
 20
6.0824310162
 30
0.0
 10
6.1181447166
 20
6.0795000553
 30
0.0
 10
6.2049734986
 20
6.0764478157
 30
0.0
 10
6.276896659
 20
6.073301573
 30
0.0
 10
6.327312352
 20
6.0704700164
 30
0.0
 10
6.3597837366
 20
6.0680713651
 30
0.0
 10
6.3782647617
 20
6.0663958995
 30
0.0
 10
6.3925128837
 20
6.0647732614
 30
0.0
 10
6.4032602851
 20
6.0630851675
 30
0.0
 10
6.4090159089
 20
6.06169219
 30
0.0
 10
6.4126902306
 20
6.0602279474
 30
0.0
 10
6.4127618536
 20
6.0593000519
 30
0.0
 11
4.6058138338
 21
6.1
 31
0.0
 11
4.9796531396
 21
6.0977217335
 31
0.0
 11
5.3271452522
 21
6.0944064107
 31
0.0
 11
5.6388853034
 21
6.0901430549
 31
0.0
 11
5.7787198154
 21
6.0876908148
 31
0.0
 11
5.9065553303
 21
6.0850454923
 31
0.0
 11
6.0215511662
 21
6.082225238
 31
0.0
 11
6.1229257142
 21
6.0792493272
 31
0.0
 11
6.209931091
 21
6.0761373451
 31
0.0
 11
6.282015574
 21
6.072910667
 31
0.0
 11
6.3386986559
 21
6.0695913178
 31
0.0
 11
6.3611185838
 21
6.0679037831
 31
0.0
 11
6.3795397527
 21
6.0662014062
 31
0.0
 11
6.3939384072
 21
6.0644870159
 31
0.0
 11
6.4042908042
 21
6.062763441
 31
0.0
 11
6.4105732007
 21
6.0610335101
 31
0.0
 11
6.4127618536
 21
6.0593000519
 31
0.0
  0
SPLINE
  5
76D
100
AcDbEntity
  8
SUPERFICI
100
AcDbSpline
 62
7
  6
CONTINUOUS
 70
0
 71
3
 72
39
 73
35
 74
33
 42
0.0000001
 43
0.0000001
 44
0.0000000001
 12
1.6203408734
 22
3.2958767882
 32
0.0
 13
1.6203408734
 23
-3.2958767882
 33
0.0
 40
0.0
 40
0.0
 40
0.0
 40
0.0
 40
0.0009214511
 40
0.0029856316
 40
0.0062267882
 40
0.010643836
 40
0.0162300289
 40
0.0229743436
 40
0.0398556546
 40
0.061114111
 40
0.0865513827
 40
0.1159021098
 40
0.1488847386
 40
0.1851798028
 40
0.2244397966
 40
0.310356988
 40
0.4033819629
 40
0.5
 40
0.5966180371
 40
0.689643012
 40
0.7755602034
 40
0.8148201972
 40
0.8511152614
 40
0.8840978902
 40
0.9134486173
 40
0.938885889
 40
0.9601443454
 40
0.9770256564
 40
0.9837699711
 40
0.989356164
 40
0.9937732118
 40
0.9970143684
 40
0.9990785489
 40
1.0
 40
1.0
 40
1.0
 40
1.0
 10
2.1647695074
 20
5.0593644209
 30
0.0
 10
2.1652671957
 20
5.0603767507
 30
0.0
 10
2.1694463106
 20
5.0613120571
 30
0.0
 10
2.1763916487
 20
5.0628961838
 30
0.0
 10
2.1884962948
 20
5.0642643373
 30
0.0
 10
2.2045193896
 20
5.065802429
 30
0.0
 10
2.2250146091
 20
5.0672842674
 30
0.0
 10
2.2606905623
 20
5.0694394741
 30
0.0
 10
2.3155969996
 20
5.0719470943
 30
0.0
 10
2.3933745434
 20
5.0747107054
 30
0.0
 10
2.4864373659
 20
5.0773388553
 30
0.0
 10
2.5938585711
 20
5.0798134217
 30
0.0
 10
2.7145797894
 20
5.082098246
 30
0.0
 10
2.8474371363
 20
5.0841721372
 30
0.0
 10
3.0450978244
 20
5.0867029464
 30
0.0
 10
3.3122139761
 20
5.0891298172
 30
0.0
 10
3.6495549053
 20
5.0908805608
 30
0.0
 10
4.0
 20
5.091471797
 30
0.0
 10
4.3504450947
 20
5.0908805608
 30
0.0
 10
4.6877860239
 20
5.0891298172
 30
0.0
 10
4.9549021756
 20
5.0867029464
 30
0.0
 10
5.1525628637
 20
5.0841721372
 30
0.0
 10
5.2854202106
 20
5.082098246
 30
0.0
 10
5.4061414289
 20
5.0798134217
 30
0.0
 10
5.5135626341
 20
5.0773388553
 30
0.0
 10
5.6066254566
 20
5.0747107054
 30
0.0
 10
5.6844030004
 20
5.0719470943
 30
0.0
 10
5.7393094376
 20
5.0694394741
 30
0.0
 10
5.7749853909
 20
5.0672842674
 30
0.0
 10
5.7954806104
 20
5.065802429
 30
0.0
 10
5.8115037052
 20
5.0642643373
 30
0.0
 10
5.8236083513
 20
5.0628961838
 30
0.0
 10
5.8305536894
 20
5.0613120571
 30
0.0
 10
5.8347328043
 20
5.0603767507
 30
0.0
 10
5.8352304926
 20
5.0593644209
 30
0.0
 11
2.1647695074
 21
5.0593644209
 31
0.0
 11
2.1677659198
 21
5.060937335
 31
0.0
 11
2.175182964
 21
5.0625054535
 31
0.0
 11
2.1869839548
 21
5.0640651316
 31
0.0
 11
2.2031322068
 21
5.0656127247
 31
0.0
 11
2.2235910312
 21
5.0671445878
 31
0.0
 11
2.2483142703
 21
5.0686570997
 31
0.0
 11
2.3102429472
 21
5.0716098953
 31
0.0
 11
2.3882662599
 21
5.0744428372
 31
0.0
 11
2.4816496749
 21
5.0771284208
 31
0.0
 11
2.5894151249
 21
5.0796415429
 31
0.0
 11
2.7105264065
 21
5.0819577817
 31
0.0
 11
2.8438087201
 21
5.0840556075
 31
0.0
 11
2.9879846732
 21
5.0859156318
 31
0.0
 11
3.3035141833
 21
5.0888540431
 31
0.0
 11
3.6451569439
 21
5.0906620648
 31
0.0
 11
4.0
 21
5.0912722446
 31
0.0
 11
4.3548430561
 21
5.0906620648
 31
0.0
 11
4.6964858167
 21
5.0888540431
 31
0.0
 11
5.0120153268
 21
5.0859156318
 31
0.0
 11
5.1561912799
 21
5.0840556075
 31
0.0
 11
5.2894735935
 21
5.0819577817
 31
0.0
 11
5.4105848751
 21
5.0796415429
 31
0.0
 11
5.5183503251
 21
5.0771284208
 31
0.0
 11
5.6117337401
 21
5.0744428372
 31
0.0
 11
5.6897570528
 21
5.0716098953
 31
0.0
 11
5.7516857297
 21
5.0686570997
 31
0.0
 11
5.7764089688
 21
5.0671445878
 31
0.0
 11
5.7968677932
 21
5.0656127247
 31
0.0
 11
5.8130160452
 21
5.0640651316
 31
0.0
 11
5.824817036
 21
5.0625054535
 31
0.0
 11
5.8322340802
 21
5.060937335
 31
0.0
 11
5.8352304926
 21
5.0593644209
 31
0.0
  0
SPLINE
  5
76E
100
AcDbEntity
  8
SUPERFICI
100
AcDbSpline
 62
7
  6
CONTINUOUS
 70
0
 71
3
 72
23
 73
19
 74
17
 42
0.0000001
 43
0.0000001
 44
0.0000000001
 12
0.1391874281
 22
1.8032113601
 32
0.0
 13
1.8085566955
 23
0.0081871042
 33
0.0
 40
0.0
 40
0.0
 40
0.0
 40
0.0
 40
0.0015437383
 40
0.0051466978
 40
0.0109495505
 40
0.0189671093
 40
0.0291959696
 40
0.0416274946
 40
0.0730224778
 40
0.1129194436
 40
0.1610573435
 40
0.2171336498
 40
0.2807364307
 40
0.3514345583
 40
0.4287639447
 40
0.6011478179
 40
0.7932923981
 40
1.0
 40
1.0
 40
1.0
 40
1.0
 10
1.5872381464
 20
6.0593000519
 30
0.0
 10
1.5873097694
 20
6.0602279474
 30
0.0
 10
1.5909840911
 20
6.06169219
 30
0.0
 10
1.5967397149
 20
6.0630851675
 30
0.0
 10
1.6074871163
 20
6.0647732614
 30
0.0
 10
1.6217352383
 20
6.0663958995
 30
0.0
 10
1.6402162634
 20
6.0680713651
 30
0.0
 10
1.672687648
 20
6.0704700164
 30
0.0
 10
1.723103341
 20
6.073301573
 30
0.0
 10
1.7950265014
 20
6.0764478157
 30
0.0
 10
1.8818552834
 20
6.0795000553
 30
0.0
 10
1.9829821451
 20
6.0824310162
 30
0.0
 10
2.0977194806
 20
6.0852174552
 30
0.0
 10
2.2252758446
 20
6.0878364085
 30
0.0
 10
2.418409565
 20
6.091198677
 30
0.0
 10
2.6847645029
 20
6.0947622367
 30
0.0
 10
3.0291244746
 20
6.0979925824
 30
0.0
 10
3.2695720271
 20
6.0994358878
 30
0.0
 10
3.3941861662
 20
6.1
 30
0.0
 11
1.5872381464
 21
6.0593000519
 31
0.0
 11
1.5894267993
 21
6.0610335101
 31
0.0
 11
1.5957091958
 21
6.062763441
 31
0.0
 11
1.6060615928
 21
6.0644870159
 31
0.0
 11
1.6204602473
 21
6.0662014062
 31
0.0
 11
1.6388814161
 21
6.0679037831
 31
0.0
 11
1.6613013441
 21
6.0695913178
 31
0.0
 11
1.717984426
 21
6.072910667
 31
0.0
 11
1.790068909
 21
6.0761373451
 31
0.0
 11
1.8770742858
 21
6.0792493272
 31
0.0
 11
1.9784488338
 21
6.082225238
 31
0.0
 11
2.0934446697
 21
6.0850454923
 31
0.0
 11
2.2212801846
 21
6.0876908148
 31
0.0
 11
2.3611146966
 21
6.0901430549
 31
0.0
 11
2.6728547478
 21
6.0944064107
 31
0.0
 11
3.0203468604
 21
6.0977217335
 31
0.0
 11
3.3941861662
 21
6.1
 31
0.0
  0
SPLINE
  5
76F
100
AcDbEntity
  8
SUPERFICI
100
AcDbSpline
 62
7
  6
CONTINUOUS
 70
0
 71
3
 72
11
 73
7
 74
5
 42
0.0000001
 43
0.0000001
 44
0.0000000001
 12
1.14408127
 22
-0.4974929271
 32
0.0
 13
1.14408127
 23
0.4974929271
 33
0.0
 40
0.0
 40
0.0
 40
0.0
 40
0.0
 40
0.2500783498
 40
0.5000000002
 40
0.74992165
 40
1.0
 40
1.0
 40
1.0
 40
1.0
 10
-4.6058138338
 20
6.1
 30
0.0
 10
-4.5104438484
 20
6.0585292633
 30
0.0
 10
-4.3124036908
 20
5.9907351919
 30
0.0
 10
-4.0
 20
5.9538014316
 30
0.0
 10
-3.6875963091
 20
5.9907351918
 30
0.0
 10
-3.4895561517
 20
6.0585292632
 30
0.0
 10
-3.3941861662
 20
6.1
 30
0.0
 11
-4.6058138338
 21
6.1
 31
0.0
 11
-4.3097773365
 21
6.0015129589
 31
0.0
 11
-3.9999999998
 21
5.9661101125
 31
0.0
 11
-3.6902226638
 21
6.0015129588
 31
0.0
 11
-3.3941861662
 21
6.1
 31
0.0
  0
SPLINE
  5
770
100
AcDbEntity
  8
SUPERFICI
100
AcDbSpline
 62
7
  6
CONTINUOUS
 70
0
 71
3
 72
23
 73
19
 74
17
 42
0.0000001
 43
0.0000001
 44
0.0000000001
 12
1.8085566955
 22
-0.0081871042
 32
0.0
 13
0.1391874281
 23
-1.8032113601
 33
0.0
 40
0.0
 40
0.0
 40
0.0
 40
0.0
 40
0.2067076019
 40
0.3988521821
 40
0.5712360553
 40
0.6485654417
 40
0.7192635693
 40
0.7828663502
 40
0.8389426565
 40
0.8870805564
 40
0.9269775222
 40
0.9583725054
 40
0.9708040304
 40
0.9810328907
 40
0.9890504495
 40
0.9948533022
 40
0.9984562617
 40
1.0
 40
1.0
 40
1.0
 40
1.0
 10
-3.3941861662
 20
6.1
 30
0.0
 10
-3.2695720271
 20
6.0994358878
 30
0.0
 10
-3.0291244746
 20
6.0979925824
 30
0.0
 10
-2.6847645029
 20
6.0947622367
 30
0.0
 10
-2.418409565
 20
6.091198677
 30
0.0
 10
-2.2252758446
 20
6.0878364085
 30
0.0
 10
-2.0977194806
 20
6.0852174552
 30
0.0
 10
-1.9829821451
 20
6.0824310162
 30
0.0
 10
-1.8818552834
 20
6.0795000553
 30
0.0
 10
-1.7950265014
 20
6.0764478157
 30
0.0
 10
-1.723103341
 20
6.073301573
 30
0.0
 10
-1.672687648
 20
6.0704700164
 30
0.0
 10
-1.6402162634
 20
6.0680713651
 30
0.0
 10
-1.6217352383
 20
6.0663958995
 30
0.0
 10
-1.6074871163
 20
6.0647732614
 30
0.0
 10
-1.5967397149
 20
6.0630851675
 30
0.0
 10
-1.5909840911
 20
6.06169219
 30
0.0
 10
-1.5873097694
 20
6.0602279474
 30
0.0
 10
-1.5872381464
 20
6.0593000519
 30
0.0
 11
-3.3941861662
 21
6.1
 31
0.0
 11
-3.0203468604
 21
6.0977217335
 31
0.0
 11
-2.6728547478
 21
6.0944064107
 31
0.0
 11
-2.3611146966
 21
6.0901430549
 31
0.0
 11
-2.2212801846
 21
6.0876908148
 31
0.0
 11
-2.0934446697
 21
6.0850454923
 31
0.0
 11
-1.9784488338
 21
6.082225238
 31
0.0
 11
-1.8770742858
 21
6.0792493272
 31
0.0
 11
-1.790068909
 21
6.0761373451
 31
0.0
 11
-1.717984426
 21
6.072910667
 31
0.0
 11
-1.6613013441
 21
6.0695913178
 31
0.0
 11
-1.6388814162
 21
6.0679037831
 31
0.0
 11
-1.6204602473
 21
6.0662014062
 31
0.0
 11
-1.6060615928
 21
6.0644870159
 31
0.0
 11
-1.5957091958
 21
6.062763441
 31
0.0
 11
-1.5894267993
 21
6.0610335101
 31
0.0
 11
-1.5872381464
 21
6.0593000519
 31
0.0
  0
SPLINE
  5
771
100
AcDbEntity
  8
SUPERFICI
100
AcDbSpline
 62
7
  6
CONTINUOUS
 70
0
 71
3
 72
39
 73
35
 74
33
 42
0.0000001
 43
0.0000001
 44
0.0000000001
 12
1.6203408734
 22
3.2958767882
 32
0.0
 13
1.6203408734
 23
-3.2958767882
 33
0.0
 40
0.0
 40
0.0
 40
0.0
 40
0.0
 40
0.0009214511
 40
0.0029856316
 40
0.0062267882
 40
0.010643836
 40
0.0162300289
 40
0.0229743436
 40
0.0398556546
 40
0.061114111
 40
0.0865513827
 40
0.1159021098
 40
0.1488847386
 40
0.1851798028
 40
0.2244397966
 40
0.310356988
 40
0.4033819629
 40
0.5
 40
0.5966180371
 40
0.689643012
 40
0.7755602034
 40
0.8148201972
 40
0.8511152614
 40
0.8840978902
 40
0.9134486173
 40
0.938885889
 40
0.9601443454
 40
0.9770256564
 40
0.9837699711
 40
0.989356164
 40
0.9937732118
 40
0.9970143684
 40
0.9990785489
 40
1.0
 40
1.0
 40
1.0
 40
1.0
 10
-5.8352304926
 20
5.0593644209
 30
0.0
 10
-5.8347328043
 20
5.0603767507
 30
0.0
 10
-5.8305536894
 20
5.0613120571
 30
0.0
 10
-5.8236083513
 20
5.0628961838
 30
0.0
 10
-5.8115037052
 20
5.0642643373
 30
0.0
 10
-5.7954806104
 20
5.065802429
 30
0.0
 10
-5.7749853909
 20
5.0672842674
 30
0.0
 10
-5.7393094377
 20
5.0694394741
 30
0.0
 10
-5.6844030004
 20
5.0719470943
 30
0.0
 10
-5.6066254566
 20
5.0747107054
 30
0.0
 10
-5.5135626341
 20
5.0773388553
 30
0.0
 10
-5.4061414289
 20
5.0798134217
 30
0.0
 10
-5.2854202106
 20
5.082098246
 30
0.0
 10
-5.1525628637
 20
5.0841721372
 30
0.0
 10
-4.9549021756
 20
5.0867029464
 30
0.0
 10
-4.6877860239
 20
5.0891298172
 30
0.0
 10
-4.3504450947
 20
5.0908805608
 30
0.0
 10
-4.0
 20
5.091471797
 30
0.0
 10
-3.6495549053
 20
5.0908805608
 30
0.0
 10
-3.3122139761
 20
5.0891298172
 30
0.0
 10
-3.0450978244
 20
5.0867029464
 30
0.0
 10
-2.8474371363
 20
5.0841721372
 30
0.0
 10
-2.7145797894
 20
5.082098246
 30
0.0
 10
-2.5938585711
 20
5.0798134217
 30
0.0
 10
-2.4864373659
 20
5.0773388553
 30
0.0
 10
-2.3933745434
 20
5.0747107054
 30
0.0
 10
-2.3155969996
 20
5.0719470943
 30
0.0
 10
-2.2606905624
 20
5.0694394741
 30
0.0
 10
-2.2250146091
 20
5.0672842674
 30
0.0
 10
-2.2045193896
 20
5.065802429
 30
0.0
 10
-2.1884962948
 20
5.0642643373
 30
0.0
 10
-2.1763916487
 20
5.0628961838
 30
0.0
 10
-2.1694463106
 20
5.0613120571
 30
0.0
 10
-2.1652671957
 20
5.0603767507
 30
0.0
 10
-2.1647695074
 20
5.0593644209
 30
0.0
 11
-5.8352304926
 21
5.0593644209
 31
0.0
 11
-5.8322340802
 21
5.060937335
 31
0.0
 11
-5.824817036
 21
5.0625054535
 31
0.0
 11
-5.8130160452
 21
5.0640651316
 31
0.0
 11
-5.7968677932
 21
5.0656127247
 31
0.0
 11
-5.7764089688
 21
5.0671445878
 31
0.0
 11
-5.7516857297
 21
5.0686570997
 31
0.0
 11
-5.6897570528
 21
5.0716098953
 31
0.0
 11
-5.6117337401
 21
5.0744428372
 31
0.0
 11
-5.5183503251
 21
5.0771284208
 31
0.0
 11
-5.4105848751
 21
5.0796415429
 31
0.0
 11
-5.2894735935
 21
5.0819577817
 31
0.0
 11
-5.1561912799
 21
5.0840556075
 31
0.0
 11
-5.0120153268
 21
5.0859156318
 31
0.0
 11
-4.6964858167
 21
5.0888540431
 31
0.0
 11
-4.3548430561
 21
5.0906620648
 31
0.0
 11
-4.0
 21
5.0912722446
 31
0.0
 11
-3.6451569439
 21
5.0906620648
 31
0.0
 11
-3.3035141833
 21
5.0888540431
 31
0.0
 11
-2.9879846732
 21
5.0859156318
 31
0.0
 11
-2.8438087201
 21
5.0840556075
 31
0.0
 11
-2.7105264065
 21
5.0819577817
 31
0.0
 11
-2.5894151249
 21
5.0796415429
 31
0.0
 11
-2.4816496749
 21
5.0771284208
 31
0.0
 11
-2.3882662599
 21
5.0744428372
 31
0.0
 11
-2.3102429472
 21
5.0716098953
 31
0.0
 11
-2.2483142703
 21
5.0686570997
 31
0.0
 11
-2.2235910312
 21
5.0671445878
 31
0.0
 11
-2.2031322068
 21
5.0656127247
 31
0.0
 11
-2.1869839548
 21
5.0640651316
 31
0.0
 11
-2.175182964
 21
5.0625054535
 31
0.0
 11
-2.1677659198
 21
5.060937335
 31
0.0
 11
-2.1647695074
 21
5.0593644209
 31
0.0
  0
SPLINE
  5
772
100
AcDbEntity
  8
SUPERFICI
100
AcDbSpline
 62
7
  6
CONTINUOUS
 70
0
 71
3
 72
23
 73
19
 74
17
 42
0.0000001
 43
0.0000001
 44
0.0000000001
 12
0.1391874281
 22
1.8032113601
 32
0.0
 13
1.8085566955
 23
0.0081871042
 33
0.0
 40
0.0
 40
0.0
 40
0.0
 40
0.0
 40
0.0015437383
 40
0.0051466978
 40
0.0109495505
 40
0.0189671093
 40
0.0291959696
 40
0.0416274946
 40
0.0730224778
 40
0.1129194436
 40
0.1610573435
 40
0.2171336498
 40
0.2807364307
 40
0.3514345583
 40
0.4287639447
 40
0.6011478179
 40
0.7932923981
 40
1.0
 40
1.0
 40
1.0
 40
1.0
 10
-6.4127618536
 20
6.0593000519
 30
0.0
 10
-6.4126902306
 20
6.0602279474
 30
0.0
 10
-6.4090159089
 20
6.06169219
 30
0.0
 10
-6.4032602851
 20
6.0630851675
 30
0.0
 10
-6.3925128837
 20
6.0647732614
 30
0.0
 10
-6.3782647617
 20
6.0663958995
 30
0.0
 10
-6.3597837366
 20
6.0680713651
 30
0.0
 10
-6.327312352
 20
6.0704700164
 30
0.0
 10
-6.276896659
 20
6.073301573
 30
0.0
 10
-6.2049734986
 20
6.0764478157
 30
0.0
 10
-6.1181447166
 20
6.0795000553
 30
0.0
 10
-6.0170178549
 20
6.0824310162
 30
0.0
 10
-5.9022805194
 20
6.0852174552
 30
0.0
 10
-5.7747241554
 20
6.0878364085
 30
0.0
 10
-5.581590435
 20
6.091198677
 30
0.0
 10
-5.3152354971
 20
6.0947622367
 30
0.0
 10
-4.9708755254
 20
6.0979925824
 30
0.0
 10
-4.7304279729
 20
6.0994358878
 30
0.0
 10
-4.6058138338
 20
6.1
 30
0.0
 11
-6.4127618536
 21
6.0593000519
 31
0.0
 11
-6.4105732007
 21
6.0610335101
 31
0.0
 11
-6.4042908042
 21
6.062763441
 31
0.0
 11
-6.3939384072
 21
6.0644870159
 31
0.0
 11
-6.3795397527
 21
6.0662014062
 31
0.0
 11
-6.3611185839
 21
6.0679037831
 31
0.0
 11
-6.3386986559
 21
6.0695913178
 31
0.0
 11
-6.282015574
 21
6.072910667
 31
0.0
 11
-6.209931091
 21
6.0761373451
 31
0.0
 11
-6.1229257142
 21
6.0792493272
 31
0.0
 11
-6.0215511662
 21
6.082225238
 31
0.0
 11
-5.9065553303
 21
6.0850454923
 31
0.0
 11
-5.7787198154
 21
6.0876908148
 31
0.0
 11
-5.6388853034
 21
6.0901430549
 31
0.0
 11
-5.3271452522
 21
6.0944064107
 31
0.0
 11
-4.9796531396
 21
6.0977217335
 31
0.0
 11
-4.6058138338
 21
6.1
 31
0.0
  0
SPLINE
  5
773
100
AcDbEntity
  8
0
100
AcDbSpline
 62
253
  6
CONTINUOUS
 70
0
 71
3
 72
15
 73
11
 74
9
 42
0.0000001
 43
0.0000001
 44
0.0000000001
 12
0.0
 22
2.0772955659
 32
0.0
 13
0.0
 23
-2.0772955659
 33
0.0
 40
0.0
 40
0.0
 40
0.0
 40
0.0
 40
0.1252655343
 40
0.2505793231
 40
0.3752678592
 40
0.4994312422
 40
0.6243838626
 40
0.7493418306
 40
0.8746375061
 40
1.0
 40
1.0
 40
1.0
 40
1.0
 10
-11.1008314602
 20
10.2968972759
 30
0.0
 10
-11.1008314602
 20
10.3836351222
 30
0.0
 10
-11.1005160863
 20
10.5582426983
 30
0.0
 10
-11.0986004275
 20
10.8014155468
 30
0.0
 10
-11.0949231127
 20
10.971007861
 30
0.0
 10
-11.0902930499
 20
11.0162472051
 30
0.0
 10
-11.0858102884
 20
10.940467547
 30
0.0
 10
-11.0823316152
 20
10.7612199233
 30
0.0
 10
-11.0803818194
 20
10.5200023558
 30
0.0
 10
-11.0800323448
 20
10.3451532913
 30
0.0
 10
-11.0800323448
 20
10.2583483071
 30
0.0
 11
-11.1008314602
 21
10.2968972759
 31
0.0
 11
-11.1002752954
 21
10.5551520869
 31
0.0
 11
-11.0983005507
 21
10.7895881689
 31
0.0
 11
-11.0947581206
 21
10.9504895117
 31
0.0
 11
-11.0903277466
 21
10.9961254894
 31
0.0
 11
-11.0859798009
 21
10.9232785443
 31
0.0
 11
-11.0825893436
 21
10.7511197785
 31
0.0
 11
-11.0806199578
 21
10.5165774987
 31
0.0
 11
-11.0800323448
 21
10.2583483071
 31
0.0
  0
SPLINE
  5
774
100
AcDbEntity
  8
0
100
AcDbSpline
 62
253
  6
CONTINUOUS
 70
0
 71
3
 72
15
 73
11
 74
9
 42
0.0000001
 43
0.0000001
 44
0.0000000001
 12
-0.0056453506
 22
2.5288321036
 32
0.0
 13
0.0
 23
-2.5494362934
 33
0.0
 40
0.0
 40
0.0
 40
0.0
 40
0.0
 40
0.1253890519
 40
0.2506289638
 40
0.375720029
 40
0.5007080199
 40
0.6251710816
 40
0.7496752994
 40
0.874484965
 40
1.0
 40
1.0
 40
1.0
 40
1.0
 10
-11.0766888044
 20
10.4198519318
 30
0.0
 10
-11.0769247595
 20
10.5255478851
 30
0.0
 10
-11.0779092636
 20
10.7351431991
 30
0.0
 10
-11.081222656
 20
11.0016429011
 30
0.0
 10
-11.0861065235
 20
11.1725314807
 30
0.0
 10
-11.0917553041
 20
11.2198703085
 30
0.0
 10
-11.0972699709
 20
11.131481269
 30
0.0
 10
-11.1015650011
 20
10.9140384437
 30
0.0
 10
-11.1039333023
 20
10.617812355
 30
0.0
 10
-11.1043499773
 20
10.4035614711
 30
0.0
 10
-11.1043499773
 20
10.2968972759
 30
0.0
 11
-11.0766888044
 21
10.4198519318
 31
0.0
 11
-11.0782166487
 21
10.7273026506
 31
0.0
 11
-11.0814867402
 21
10.985834282
 31
0.0
 11
-11.0862373406
 21
11.1519971811
 31
0.0
 11
-11.0917422434
 21
11.1972190155
 31
0.0
 11
-11.0970667734
 21
11.1100008815
 31
0.0
 11
-11.1012398843
 21
10.9012492467
 31
0.0
 11
-11.1036392434
 21
10.6142878883
 31
0.0
 11
-11.1043499773
 21
10.2968972759
 31
0.0
  0
SPLINE
  5
775
100
AcDbEntity
  8
0
100
AcDbSpline
 62
253
  6
CONTINUOUS
 70
0
 71
3
 72
15
 73
11
 74
9
 42
0.0000001
 43
0.0000001
 44
0.0000000001
 12
-0.0164446264
 22
2.2371977376
 32
0.0
 13
-0.0
 23
-2.4275851575
 33
0.0
 40
0.0
 40
0.0
 40
0.0
 40
0.0
 40
0.125
 40
0.25
 40
0.375
 40
0.5
 40
0.625
 40
0.75
 40
0.875
 40
1.0
 40
1.0
 40
1.0
 40
1.0
 10
-11.0747818697
 20
-4.255024
 30
0.0
 10
-11.0754670625
 20
-4.1618074276
 30
0.0
 10
-11.0774148853
 20
-3.9874746731
 30
0.0
 10
-11.0816859942
 20
-3.7985439798
 30
0.0
 10
-11.0868207589
 20
-3.7026114672
 30
0.0
 10
-11.0922183746
 20
-3.711271507
 30
0.0
 10
-11.097251337
 20
-3.8233713318
 30
0.0
 10
-11.1013335458
 20
-4.0260132192
 30
0.0
 10
-11.1039898566
 20
-4.2951460125
 30
0.0
 10
-11.1046039763
 20
-4.4991396184
 30
0.0
 10
-11.1046039763
 20
-4.600289
 30
0.0
 11
-11.0747818697
 21
-4.255024
 31
0.0
 11
-11.0776397811
 21
-3.9995694128
 31
0.0
 11
-11.0818299368
 21
-3.8140436766
 31
0.0
 11
-11.0868645674
 21
-3.7200435593
 31
0.0
 11
-11.092157599
 21
-3.7285114712
 31
0.0
 11
-11.0970928781
 21
-3.8384616756
 31
0.0
 11
-11.1010958961
 21
-4.0370950369
 31
0.0
 11
-11.103700668
 21
-4.3012889485
 31
0.0
 11
-11.1046039763
 21
-4.600289
 31
0.0
  0
ELLIPSE
  5
776
100
AcDbEntity
  8
ASSI
100
AcDbEllipse
 62
7
  6
CONTINUOUS
 10
-2.500822853
 20
20.0445142067
 30
0.0
 11
1.0003429753
 21
-0.0000079798
 31
0.0
 40
0.0087288573
 41
1.5717102023
 42
3.1418212964
  0
ELLIPSE
  5
777
100
AcDbEntity
  8
ASSI
100
AcDbEllipse
 62
7
  6
CONTINUOUS
 10
-2.5594595337
 20
-22.2837587015
 30
0.0
 11
1.0003425837
 21
-0.0000039869
 31
0.0
 40
0.0174470935
 41
2.4366615671
 42
3.141135855
  0
ELLIPSE
  5
778
100
AcDbEntity
  8
ASSI
100
AcDbEllipse
 62
7
  6
CONTINUOUS
 10
-0.0
 20
-20.1823616323
 30
0.0
 11
14.9952243011
 21
-0.0
 31
0.0
 40
0.008726868
 41
1.4072702062
 42
1.7343224474
  0
ELLIPSE
  5
779
100
AcDbEntity
  8
ASSI
100
AcDbEllipse
 62
7
  6
CONTINUOUS
 10
-2.5594595337
 20
22.2837587015
 30
0.0
 11
1.0003425837
 21
0.0000039869
 31
0.0
 40
0.0174470935
 41
-3.141135855
 42
-2.4366615671
  0
ELLIPSE
  5
77A
100
AcDbEntity
  8
ASSI
100
AcDbEllipse
 62
7
  6
CONTINUOUS
 10
2.5594595337
 20
22.2837587015
 30
0.0
 11
1.0003425837
 21
-0.0000039869
 31
0.0
 40
0.0174470935
 41
-0.7049310865
 42
-0.0004567986
  0
ELLIPSE
  5
77B
100
AcDbEntity
  8
ASSI
100
AcDbEllipse
 62
7
  6
CONTINUOUS
 10
2.500822853
 20
20.0445142067
 30
0.0
 11
1.0003429753
 21
0.0000079798
 31
0.0
 40
0.0087288573
 41
-0.0002286428
 42
1.5698824513
  0
ELLIPSE
  5
77C
100
AcDbEntity
  8
ASSI
100
AcDbEllipse
 62
7
  6
CONTINUOUS
 10
-2.500822853
 20
-20.0445142067
 30
0.0
 11
1.0003429753
 21
0.0000079798
 31
0.0
 40
0.0087288573
 41
3.1413640107
 42
4.7114751049
  0
ELLIPSE
  5
77D
100
AcDbEntity
  8
ASSI
100
AcDbEllipse
 62
7
  6
CONTINUOUS
 10
2.500822853
 20
-20.0445142067
 30
0.0
 11
1.0003429753
 21
-0.0000079798
 31
0.0
 40
0.0087288573
 41
-1.5698824513
 42
0.0002286428
  0
ELLIPSE
  5
77E
100
AcDbEntity
  8
ASSI
100
AcDbEllipse
 62
7
  6
CONTINUOUS
 10
2.5594595337
 20
-22.2837587015
 30
0.0
 11
1.0003425837
 21
0.0000039869
 31
0.0
 40
0.0174470935
 41
0.0004567986
 42
0.7049310865
  0
ELLIPSE
  5
77F
100
AcDbEntity
  8
ASSI
100
AcDbEllipse
 62
7
  6
CONTINUOUS
 10
-0.0
 20
20.1823616323
 30
0.0
 11
14.9952243011
 21
-0.0
 31
0.0
 40
0.008726868
 41
-1.7343224474
 42
-1.4072702062
  0
ELLIPSE
  5
780
100
AcDbEntity
  8
ASSI
100
AcDbEllipse
 62
7
  6
CONTINUOUS
 10
3.301626363
 20
-20.8909925586
 30
0.0
 11
0.2500430089
 21
-0.0006662079
 31
0.0
 40
0.3638978753
 41
1.5781179573
 42
3.1489142841
  0
ELLIPSE
  5
781
100
AcDbEntity
  8
ASSI
100
AcDbEllipse
 62
7
  6
CONTINUOUS
 10
-10.5824687711
 20
21.882468771
 30
0.0
 11
0.3536610946
 21
-0.3536610946
 31
0.0
 40
0.9996954599
 41
2.3563467834
 42
3.9268385237
  0
ELLIPSE
  5
782
100
AcDbEntity
  8
ASSI
100
AcDbEllipse
 62
7
  6
CONTINUOUS
 10
10.582468771
 20
21.882468771
 30
0.0
 11
0.3536610946
 21
0.3536610946
 31
0.0
 40
0.9996954599
 41
-0.7852458701
 42
0.7852458701
  0
ELLIPSE
  5
783
100
AcDbEntity
  8
ASSI
100
AcDbEllipse
 62
7
  6
CONTINUOUS
 10
-10.5824687711
 20
-21.8824687711
 30
0.0
 11
-0.3536610946
 21
-0.3536610946
 31
0.0
 40
0.9996954599
 41
-0.7852458701
 42
0.7852458701
  0
ELLIPSE
  5
784
100
AcDbEntity
  8
ASSI
100
AcDbEllipse
 62
7
  6
CONTINUOUS
 10
10.582468771
 20
-21.8824687711
 30
0.0
 11
-0.3536610946
 21
0.3536610946
 31
0.0
 40
0.9996954599
 41
2.3563467834
 42
3.9268385237
  0
ELLIPSE
  5
785
100
AcDbEntity
  8
ASSI
100
AcDbEllipse
 62
7
  6
CONTINUOUS
 10
-3.301626363
 20
-20.8909925586
 30
0.0
 11
0.2500430089
 21
0.0006662079
 31
0.0
 40
0.3638978753
 41
-0.0073216305
 42
1.5634746963
  0
ELLIPSE
  5
786
100
AcDbEntity
  8
ASSI
100
AcDbEllipse
 62
7
  6
CONTINUOUS
 10
3.301626363
 20
20.8909925586
 30
0.0
 11
0.2500430089
 21
0.0006662079
 31
0.0
 40
0.3638978753
 41
3.134271023
 42
4.7050673498
  0
ELLIPSE
  5
787
100
AcDbEntity
  8
ASSI
100
AcDbEllipse
 62
7
  6
CONTINUOUS
 10
-3.847849168
 20
-23.7334362899
 30
0.0
 11
0.0040937266
 21
0.2501189627
 31
0.0
 40
0.999390466
 41
-3.1252369704
 42
-1.5806165942
  0
ELLIPSE
  5
788
100
AcDbEntity
  8
ASSI
100
AcDbEllipse
 62
7
  6
CONTINUOUS
 10
3.847849168
 20
-23.7334362899
 30
0.0
 11
-0.0040937266
 21
0.2501189627
 31
0.0
 40
0.999390466
 41
-4.702568713
 42
-3.1579483368
  0
ELLIPSE
  5
789
100
AcDbEntity
  8
ASSI
100
AcDbEllipse
 62
7
  6
CONTINUOUS
 10
-3.847849168
 20
23.7334362899
 30
0.0
 11
-0.0040937266
 21
0.2501189627
 31
0.0
 40
0.999390466
 41
-1.5609760594
 42
-0.0163556832
  0
ELLIPSE
  5
78A
100
AcDbEntity
  8
ASSI
100
AcDbEllipse
 62
7
  6
CONTINUOUS
 10
3.847849168
 20
23.7334362899
 30
0.0
 11
0.0040937266
 21
0.2501189627
 31
0.0
 40
0.999390466
 41
0.0163556832
 42
1.5609760594
  0
ELLIPSE
  5
78B
100
AcDbEntity
  8
ASSI
100
AcDbEllipse
 62
7
  6
CONTINUOUS
 10
10.3999695344
 20
-23.3535898385
 30
0.0
 11
0.0069796346
 21
0.2308610084
 31
0.0
 40
0.8659264732
 41
-1.5358963758
 42
0.026173628
  0
ELLIPSE
  5
78C
100
AcDbEntity
  8
ASSI
100
AcDbEllipse
 62
7
  6
CONTINUOUS
 10
-7.4000304656
 20
-23.3535898385
 30
0.0
 11
0.0069796346
 21
0.2308610084
 31
0.0
 40
0.8659264732
 41
-1.5358963758
 42
0.026173628
  0
ELLIPSE
  5
78D
100
AcDbEntity
  8
ASSI
100
AcDbEllipse
 62
7
  6
CONTINUOUS
 10
7.4000304656
 20
-23.3535898385
 30
0.0
 11
-0.0069796346
 21
0.2308610084
 31
0.0
 40
0.8659264732
 41
-0.026173628
 42
1.5358963756
  0
ELLIPSE
  5
78E
100
AcDbEntity
  8
ASSI
100
AcDbEllipse
 62
7
  6
CONTINUOUS
 10
-10.3999695344
 20
-23.3535898385
 30
0.0
 11
-0.0069796346
 21
0.2308610084
 31
0.0
 40
0.8659264732
 41
-0.026173628
 42
1.5358963756
  0
ELLIPSE
  5
78F
100
AcDbEntity
  8
ASSI
100
AcDbEllipse
 62
7
  6
CONTINUOUS
 10
-8.7631293807
 20
-23.5556624327
 30
0.0
 11
0.25
 21
0.0
 31
0.0
 40
0.5773502692
 41
-0.5235987756
 42
-0.0174532925
  0
ELLIPSE
  5
790
100
AcDbEntity
  8
ASSI
100
AcDbEllipse
 62
7
  6
CONTINUOUS
 10
9.0368706193
 20
-23.5556624327
 30
0.0
 11
0.25
 21
0.0
 31
0.0
 40
0.5773502692
 41
-0.5235987756
 42
-0.0174532925
  0
ELLIPSE
  5
791
100
AcDbEntity
  8
ASSI
100
AcDbEllipse
 62
7
  6
CONTINUOUS
 10
-9.0368706193
 20
23.5556624327
 30
0.0
 11
0.25
 21
-0.0
 31
0.0
 40
0.5773502692
 41
2.617993878
 42
3.1241393611
  0
ELLIPSE
  5
792
100
AcDbEntity
  8
ASSI
100
AcDbEllipse
 62
7
  6
CONTINUOUS
 10
8.7631293807
 20
23.5556624327
 30
0.0
 11
0.25
 21
-0.0
 31
0.0
 40
0.5773502692
 41
2.617993878
 42
3.1241393611
  0
ELLIPSE
  5
793
100
AcDbEntity
  8
ASSI
100
AcDbEllipse
 62
7
  6
CONTINUOUS
 10
10.3999695344
 20
23.3535898385
 30
0.0
 11
-0.0069796346
 21
0.2308610084
 31
0.0
 40
0.8659264732
 41
-3.1677662815
 42
-1.6056962779
  0
ELLIPSE
  5
794
100
AcDbEntity
  8
ASSI
100
AcDbEllipse
 62
7
  6
CONTINUOUS
 10
7.4000304656
 20
23.3535898385
 30
0.0
 11
0.0069796346
 21
0.2308610084
 31
0.0
 40
0.8659264732
 41
-4.6774890294
 42
-3.1154190256
  0
ELLIPSE
  5
795
100
AcDbEntity
  8
ASSI
100
AcDbEllipse
 62
7
  6
CONTINUOUS
 10
-7.4000304656
 20
23.3535898385
 30
0.0
 11
-0.0069796346
 21
0.2308610084
 31
0.0
 40
0.8659264732
 41
-3.1677662815
 42
-1.6056962779
  0
ELLIPSE
  5
796
100
AcDbEntity
  8
ASSI
100
AcDbEllipse
 62
7
  6
CONTINUOUS
 10
-10.3999695344
 20
23.3535898385
 30
0.0
 11
0.0069796346
 21
0.2308610084
 31
0.0
 40
0.8659264732
 41
-4.6774890294
 42
-3.1154190256
  0
ELLIPSE
  5
797
100
AcDbEntity
  8
ASSI
100
AcDbEllipse
 62
7
  6
CONTINUOUS
 10
9.0368706193
 20
22.3869087013
 30
0.0
 11
0.25
 21
0.0
 31
0.0
 40
0.0174550649
 41
-1.5707963268
 42
-0.0174532925
  0
ELLIPSE
  5
798
100
AcDbEntity
  8
ASSI
100
AcDbEllipse
 62
7
  6
CONTINUOUS
 10
9.0368706193
 20
23.5556624327
 30
0.0
 11
0.25
 21
-0.0
 31
0.0
 40
0.5773502692
 41
0.0174532925
 42
0.5235987756
  0
ELLIPSE
  5
799
100
AcDbEntity
  8
ASSI
100
AcDbEllipse
 62
7
  6
CONTINUOUS
 10
-8.7631293807
 20
22.3869087013
 30
0.0
 11
0.25
 21
-0.0
 31
0.0
 40
0.0174550649
 41
-1.5707963268
 42
-0.0174532925
  0
ELLIPSE
  5
79A
100
AcDbEntity
  8
ASSI
100
AcDbEllipse
 62
7
  6
CONTINUOUS
 10
-8.7631293807
 20
23.5556624327
 30
0.0
 11
0.25
 21
0.0
 31
0.0
 40
0.5773502692
 41
0.0174532925
 42
0.5235987756
  0
ELLIPSE
  5
79B
100
AcDbEntity
  8
ASSI
100
AcDbEllipse
 62
7
  6
CONTINUOUS
 10
-8.7631293807
 20
-22.3869087013
 30
0.0
 11
0.25
 21
0.0
 31
0.0
 40
0.0174550649
 41
0.0174532925
 42
1.5707963268
  0
ELLIPSE
  5
79C
100
AcDbEntity
  8
ASSI
100
AcDbEllipse
 62
7
  6
CONTINUOUS
 10
9.0368706193
 20
-22.3869087013
 30
0.0
 11
0.25
 21
0.0
 31
0.0
 40
0.0174550649
 41
0.0174532925
 42
1.5707963268
  0
ELLIPSE
  5
79D
100
AcDbEntity
  8
ASSI
100
AcDbEllipse
 62
7
  6
CONTINUOUS
 10
8.7631293807
 20
22.3869087013
 30
0.0
 11
0.25
 21
-0.0
 31
0.0
 40
0.0174550649
 41
-3.1241393611
 42
-1.5707963268
  0
ELLIPSE
  5
79E
100
AcDbEntity
  8
ASSI
100
AcDbEllipse
 62
7
  6
CONTINUOUS
 10
-9.0368706193
 20
22.3869087013
 30
0.0
 11
0.25
 21
-0.0
 31
0.0
 40
0.0174550649
 41
-3.1241393611
 42
-1.5707963268
  0
ELLIPSE
  5
79F
100
AcDbEntity
  8
ASSI
100
AcDbEllipse
 62
7
  6
CONTINUOUS
 10
8.7631293807
 20
-22.3869087013
 30
0.0
 11
0.25
 21
-0.0
 31
0.0
 40
0.0174550649
 41
1.5707963268
 42
3.1241393611
  0
ELLIPSE
  5
7A0
100
AcDbEntity
  8
ASSI
100
AcDbEllipse
 62
7
  6
CONTINUOUS
 10
8.7631293807
 20
-23.5556624327
 30
0.0
 11
0.25
 21
0.0
 31
0.0
 40
0.5773502692
 41
-3.1241393611
 42
-2.617993878
  0
ELLIPSE
  5
7A1
100
AcDbEntity
  8
ASSI
100
AcDbEllipse
 62
7
  6
CONTINUOUS
 10
-9.0368706193
 20
-22.3869087013
 30
0.0
 11
0.25
 21
0.0
 31
0.0
 40
0.0174550649
 41
1.5707963268
 42
3.1241393611
  0
ELLIPSE
  5
7A2
100
AcDbEntity
  8
ASSI
100
AcDbEllipse
 62
7
  6
CONTINUOUS
 10
-9.0368706193
 20
-23.5556624327
 30
0.0
 11
0.25
 21
0.0
 31
0.0
 40
0.5773502692
 41
-3.1241393611
 42
-2.617993878
  0
ELLIPSE
  5
7A3
100
AcDbEntity
  8
ASSI
100
AcDbEllipse
 62
7
  6
CONTINUOUS
 10
4.0459553394
 20
23.2
 30
0.0
 11
0.4595995956
 21
-0.0
 31
0.0
 40
0.9949884474
 41
-0.8362648721
 42
-0.4967770086
  0
ELLIPSE
  5
7A4
100
AcDbEntity
  8
ASSI
100
AcDbEllipse
 62
7
  6
CONTINUOUS
 10
-1.0665637101
 20
-23.7334362899
 30
0.0
 11
-0.1232958913
 21
0.2177184957
 31
0.0
 40
0.9991120018
 41
-3.6564898567
 42
-2.0859981164
  0
ELLIPSE
  5
7A5
100
AcDbEntity
  8
ASSI
100
AcDbEllipse
 62
7
  6
CONTINUOUS
 10
1.0665637101
 20
-23.7334362899
 30
0.0
 11
0.1232958913
 21
0.2177184957
 31
0.0
 40
0.9991120018
 41
-4.1971871908
 42
-2.6266954505
  0
ELLIPSE
  5
7A6
100
AcDbEntity
  8
ASSI
100
AcDbEllipse
 62
7
  6
CONTINUOUS
 10
4.0459553394
 20
-23.2
 30
0.0
 11
0.4595995956
 21
-0.0
 31
0.0
 40
0.9949884474
 41
-0.8362648721
 42
-0.4967770086
  0
ELLIPSE
  5
7A7
100
AcDbEntity
  8
ASSI
100
AcDbEllipse
 62
7
  6
CONTINUOUS
 10
8.3038431345
 20
21.2165694902
 30
0.0
 11
1.0000571192
 21
-0.9999809595
 31
0.0
 40
0.0061705924
 41
-3.1303103451
 42
-1.8214790659
  0
ELLIPSE
  5
7A8
100
AcDbEntity
  8
ASSI
100
AcDbEllipse
 62
7
  6
CONTINUOUS
 10
-8.3038431345
 20
21.2165694902
 30
0.0
 11
1.0000571192
 21
0.9999809595
 31
0.0
 40
0.0061705924
 41
-1.3201135877
 42
-0.0112823085
  0
ELLIPSE
  5
7A9
100
AcDbEntity
  8
ASSI
100
AcDbEllipse
 62
7
  6
CONTINUOUS
 10
8.3038431345
 20
-21.2165694902
 30
0.0
 11
1.0000571192
 21
0.9999809595
 31
0.0
 40
0.0061705924
 41
1.8214790659
 42
3.1303103451
  0
ELLIPSE
  5
7AA
100
AcDbEntity
  8
ASSI
100
AcDbEllipse
 62
7
  6
CONTINUOUS
 10
-8.3038431345
 20
-21.2165694902
 30
0.0
 11
1.0000571192
 21
-0.9999809595
 31
0.0
 40
0.0061705924
 41
0.0112823085
 42
1.3201135877
  0
ELLIPSE
  5
7AB
100
AcDbEntity
  8
ASSI
100
AcDbEllipse
 62
7
  6
CONTINUOUS
 10
8.0667218183
 20
-21.2165694902
 30
0.0
 11
-0.0
 21
1.0
 31
0.0
 40
0.0174550649
 41
-4.7123889804
 42
-4.4678772253
  0
ELLIPSE
  5
7AC
100
AcDbEntity
  8
ASSI
100
AcDbEllipse
 62
7
  6
CONTINUOUS
 10
-8.0667218183
 20
-21.2165694902
 30
0.0
 11
0.0
 21
1.0
 31
0.0
 40
0.0174550649
 41
-1.8153080819
 42
-1.5707963268
  0
ELLIPSE
  5
7AD
100
AcDbEntity
  8
ASSI
100
AcDbEllipse
 62
7
  6
CONTINUOUS
 10
-8.0667218183
 20
21.2165694902
 30
0.0
 11
-0.0
 21
1.0
 31
0.0
 40
0.0174550649
 41
-1.5707963268
 42
-1.3262845717
  0
ELLIPSE
  5
7AE
100
AcDbEntity
  8
ASSI
100
AcDbEllipse
 62
7
  6
CONTINUOUS
 10
-1.0665637101
 20
23.7334362899
 30
0.0
 11
0.1232958913
 21
0.2177184957
 31
0.0
 40
0.9991120018
 41
-1.0555945372
 42
0.5148972031
  0
ELLIPSE
  5
7AF
100
AcDbEntity
  8
ASSI
100
AcDbEllipse
 62
7
  6
CONTINUOUS
 10
8.0667218183
 20
21.2165694902
 30
0.0
 11
-0.0
 21
1.0
 31
0.0
 40
0.0174550649
 41
1.3262845717
 42
1.5707963268
  0
ELLIPSE
  5
7B0
100
AcDbEntity
  8
ASSI
100
AcDbEllipse
 62
7
  6
CONTINUOUS
 10
1.0665637101
 20
23.7334362899
 30
0.0
 11
-0.1232958913
 21
0.2177184957
 31
0.0
 40
0.9991120018
 41
-0.5148972031
 42
1.0555945372
  0
ELLIPSE
  5
7B1
100
AcDbEntity
  8
ASSI
100
AcDbEllipse
 62
7
  6
CONTINUOUS
 10
-4.0459553394
 20
23.2
 30
0.0
 11
0.4595995956
 21
0.0
 31
0.0
 40
0.9949884474
 41
-2.644815645
 42
-2.3053277814
  0
ELLIPSE
  5
7B2
100
AcDbEntity
  8
ASSI
100
AcDbEllipse
 62
7
  6
CONTINUOUS
 10
-4.0459553394
 20
23.2
 30
0.0
 11
0.4595995956
 21
0.0
 31
0.0
 40
0.9949884474
 41
2.3053277814
 42
2.644815645
  0
ELLIPSE
  5
7B3
100
AcDbEntity
  8
ASSI
100
AcDbEllipse
 62
7
  6
CONTINUOUS
 10
-4.0459553394
 20
-23.2
 30
0.0
 11
0.4595995956
 21
0.0
 31
0.0
 40
0.9949884474
 41
-2.644815645
 42
-2.3053277814
  0
ELLIPSE
  5
7B4
100
AcDbEntity
  8
ASSI
100
AcDbEllipse
 62
7
  6
CONTINUOUS
 10
-4.0459553394
 20
-23.2
 30
0.0
 11
0.4595995956
 21
0.0
 31
0.0
 40
0.9949884474
 41
2.3053277814
 42
2.644815645
  0
ELLIPSE
  5
7B5
100
AcDbEntity
  8
ASSI
100
AcDbEllipse
 62
7
  6
CONTINUOUS
 10
-3.301626363
 20
20.8909925586
 30
0.0
 11
0.2500430089
 21
-0.0006662079
 31
0.0
 40
0.3638978753
 41
-1.5634746963
 42
0.0073216305
  0
ELLIPSE
  5
7B6
100
AcDbEntity
  8
RACCORDO
100
AcDbEllipse
 62
7
  6
CONTINUOUS
 10
9.1496953439
 20
-17.6714466826
 30
0.0
 11
1.8480888181
 21
-0.7655034529
 31
0.0
 40
0.9998215708
 41
-0.3926359958
 42
0.3926359958
  0
ELLIPSE
  5
7B7
100
AcDbEntity
  8
RACCORDO
100
AcDbEllipse
 62
7
  6
CONTINUOUS
 10
9.1496953439
 20
17.6714466826
 30
0.0
 11
1.8480888181
 21
0.7655034529
 31
0.0
 40
0.9998215708
 41
-0.3926359958
 42
0.3926359958
  0
ELLIPSE
  5
7B8
100
AcDbEntity
  8
RACCORDO
100
AcDbEllipse
 62
7
  6
CONTINUOUS
 10
-9.1496953439
 20
17.6714466826
 30
0.0
 11
1.8480888181
 21
-0.7655034529
 31
0.0
 40
0.9998215708
 41
2.7489566578
 42
3.5342286494
  0
ELLIPSE
  5
7B9
100
AcDbEntity
  8
RACCORDO
100
AcDbEllipse
 62
7
  6
CONTINUOUS
 10
-9.1496953439
 20
-17.6714466826
 30
0.0
 11
1.8480888181
 21
0.7655034529
 31
0.0
 40
0.9998215708
 41
2.7489566578
 42
3.5342286494
  0
ELLIPSE
  5
7BA
100
AcDbEntity
  8
DRAFT
100
AcDbEllipse
 62
7
  6
CONTINUOUS
 10
4.0
 20
4.4646297395
 30
0.0
 11
1.8353003752
 21
-0.0
 31
0.0
 40
0.0087268678
 41
0.0087266463
 42
3.1328660073
  0
ELLIPSE
  5
7BB
100
AcDbEntity
  8
DRAFT
100
AcDbEllipse
 62
7
  6
CONTINUOUS
 10
-4.0
 20
4.4646297395
 30
0.0
 11
1.8353003752
 21
-0.0
 31
0.0
 40
0.0087268678
 41
0.0087266463
 42
3.1328660073
  0
ELLIPSE
  5
7BC
100
AcDbEntity
  8
0
100
AcDbEllipse
 62
7
  6
CONTINUOUS
 10
8.5445854004
 20
-3.1
 30
0.0
 11
-0.0
 21
1.6218462458
 31
0.0
 40
0.0087268916
 41
-3.1352043015
 42
-0.0063883521
  0
ELLIPSE
  5
7BD
100
AcDbEntity
  8
0
100
AcDbEllipse
 62
7
  6
CONTINUOUS
 10
-8.5445854004
 20
-3.1
 30
0.0
 11
-0.0
 21
1.6218462458
 31
0.0
 40
0.0087268916
 41
0.0063883521
 42
3.1352043015
  0
ELLIPSE
  5
7BE
100
AcDbEntity
  8
RACCORDO
100
AcDbEllipse
 62
7
  6
CONTINUOUS
 10
-6.0034907404
 20
4.7228182695
 30
0.0
 11
-0.5774690812
 21
0.9999668392
 31
0.0
 40
0.0141024672
 41
0.0093094637
 42
1.562652498
  0
ELLIPSE
  5
7BF
100
AcDbEntity
  8
RACCORDO
100
AcDbEllipse
 62
7
  6
CONTINUOUS
 10
6.0034907404
 20
4.7228182695
 30
0.0
 11
0.5774690812
 21
0.9999668392
 31
0.0
 40
0.0141024672
 41
-1.562652498
 42
-0.0093094637
  0
ELLIPSE
  5
7C0
100
AcDbEntity
  8
RACCORDO
100
AcDbEllipse
 62
7
  6
CONTINUOUS
 10
8.6728182695
 20
-4.9265949657
 30
0.0
 11
0.9999976196
 21
-0.2679777991
 31
0.0
 40
0.0081421982
 41
-1.5686143967
 42
-0.0152713624
  0
ELLIPSE
  5
7C1
100
AcDbEntity
  8
RACCORDO
100
AcDbEllipse
 62
7
  6
CONTINUOUS
 10
1.9965092596
 20
4.7228182695
 30
0.0
 11
-0.5774690812
 21
0.9999668392
 31
0.0
 40
0.0141024672
 41
0.0093094637
 42
1.562652498
  0
ELLIPSE
  5
7C2
100
AcDbEntity
  8
RACCORDO
100
AcDbEllipse
 62
7
  6
CONTINUOUS
 10
-8.6728182695
 20
-4.9265949657
 30
0.0
 11
0.9999976196
 21
0.2679777991
 31
0.0
 40
0.0081421982
 41
-3.1263212912
 42
-1.5729782569
  0
ELLIPSE
  5
7C3
100
AcDbEntity
  8
RACCORDO
100
AcDbEllipse
 62
7
  6
CONTINUOUS
 10
8.9751446946
 20
-17.5991454363
 30
0.0
 11
1.8480888181
 21
-0.7655034529
 31
0.0
 40
0.9998215708
 41
-0.3926359958
 42
0.3926359958
  0
ELLIPSE
  5
7C4
100
AcDbEntity
  8
RACCORDO
100
AcDbEllipse
 62
7
  6
CONTINUOUS
 10
8.9751446946
 20
17.5991454363
 30
0.0
 11
-1.8480888181
 21
-0.7655034529
 31
0.0
 40
0.9998215708
 41
2.7489566578
 42
3.5342286494
  0
ELLIPSE
  5
7C5
100
AcDbEntity
  8
RACCORDO
100
AcDbEllipse
 62
7
  6
CONTINUOUS
 10
-8.9751446946
 20
17.5991454363
 30
0.0
 11
-1.8480888181
 21
0.7655034529
 31
0.0
 40
0.9998215708
 41
-0.3926359958
 42
0.3926359958
  0
ELLIPSE
  5
7C6
100
AcDbEntity
  8
RACCORDO
100
AcDbEllipse
 62
7
  6
CONTINUOUS
 10
-2.4
 20
19.902056904
 30
0.0
 11
1.0
 21
-0.0
 31
0.0
 40
0.0176699529
 41
-3.0249212651
 42
-1.5707963268
  0
ELLIPSE
  5
7C7
100
AcDbEntity
  8
RACCORDO
100
AcDbEllipse
 62
7
  6
CONTINUOUS
 10
2.4
 20
19.902056904
 30
0.0
 11
1.0
 21
-0.0
 31
0.0
 40
0.0176699529
 41
-1.5707963268
 42
-0.1166713885
  0
ELLIPSE
  5
7C8
100
AcDbEntity
  8
RACCORDO
100
AcDbEllipse
 62
7
  6
CONTINUOUS
 10
-2.4
 20
-19.902056904
 30
0.0
 11
1.0
 21
0.0
 31
0.0
 40
0.0176699529
 41
1.5707963268
 42
3.0249212651
  0
ELLIPSE
  5
7C9
100
AcDbEntity
  8
RACCORDO
100
AcDbEllipse
 62
7
  6
CONTINUOUS
 10
2.4
 20
-19.902056904
 30
0.0
 11
1.0
 21
-0.0
 31
0.0
 40
0.0176699529
 41
0.1166713885
 42
1.5707963268
  0
ELLIPSE
  5
7CA
100
AcDbEntity
  8
RACCORDO
100
AcDbEllipse
 62
7
  6
CONTINUOUS
 10
-8.9751446946
 20
-17.5991454363
 30
0.0
 11
1.8480888181
 21
0.7655034529
 31
0.0
 40
0.9998215708
 41
2.7489566578
 42
3.5342286494
  0
ELLIPSE
  5
7CB
100
AcDbEntity
  8
RACCORDO
100
AcDbEllipse
 62
7
  6
CONTINUOUS
 10
-8.6728182695
 20
-1.2734050343
 30
0.0
 11
0.9999976196
 21
-0.2679777991
 31
0.0
 40
0.0081421982
 41
1.5729782569
 42
3.1263212912
  0
ELLIPSE
  5
7CC
100
AcDbEntity
  8
RACCORDO
100
AcDbEllipse
 62
7
  6
CONTINUOUS
 10
8.6728182695
 20
-1.2734050343
 30
0.0
 11
0.9999976196
 21
0.2679777991
 31
0.0
 40
0.0081421982
 41
0.0152713624
 42
1.5686143967
  0
ELLIPSE
  5
7CD
100
AcDbEntity
  8
RACCORDO
100
AcDbEllipse
 62
7
  6
CONTINUOUS
 10
-1.9965092596
 20
4.7228182695
 30
0.0
 11
0.5774690812
 21
0.9999668392
 31
0.0
 40
0.0141024672
 41
-1.562652498
 42
-0.0093094637
  0
ELLIPSE
  5
7CE
100
AcDbEntity
  8
0
100
AcDbEllipse
 62
7
  6
CONTINUOUS
 10
10.0138037394
 20
-3.1
 30
0.0
 11
-0.0
 21
2.0155045024
 31
0.0
 40
0.0174552558
 41
-3.1375430123
 42
-0.0040496413
  0
ELLIPSE
  5
7CF
100
AcDbEntity
  8
0
100
AcDbEllipse
 62
7
  6
CONTINUOUS
 10
-10.0138037394
 20
-3.1
 30
0.0
 11
0.0
 21
2.0155045024
 31
0.0
 40
0.0174552558
 41
0.0040496413
 42
3.1375430123
  0
ELLIPSE
  5
7D0
100
AcDbEntity
  8
RACCORDO
100
AcDbEllipse
 62
7
  6
CONTINUOUS
 10
-9.049847672
 20
5.099847672
 30
0.0
 11
0.7073221892
 21
-0.7073221892
 31
0.0
 40
0.9996954599
 41
2.3563467834
 42
3.9268385237
  0
ELLIPSE
  5
7D1
100
AcDbEntity
  8
RACCORDO
100
AcDbEllipse
 62
7
  6
CONTINUOUS
 10
9.049847672
 20
-18.499847672
 30
0.0
 11
0.7073221892
 21
-0.7073221892
 31
0.0
 40
0.9996954599
 41
-0.7852458701
 42
0.7852458702
  0
ELLIPSE
  5
7D2
100
AcDbEntity
  8
RACCORDO
100
AcDbEllipse
 62
7
  6
CONTINUOUS
 10
-9.049847672
 20
-18.499847672
 30
0.0
 11
0.7073221892
 21
0.7073221892
 31
0.0
 40
0.9996954599
 41
-3.9268385237
 42
-2.3563467834
  0
ELLIPSE
  5
7D3
100
AcDbEntity
  8
RACCORDO
100
AcDbEllipse
 62
7
  6
CONTINUOUS
 10
9.049847672
 20
5.099847672
 30
0.0
 11
0.7073221892
 21
0.7073221892
 31
0.0
 40
0.9996954599
 41
-0.7852458702
 42
0.7852458701
  0
ELLIPSE
  5
7D4
100
AcDbEntity
  8
SUPERFICI
100
AcDbEllipse
 62
7
  6
CONTINUOUS
 10
-8.5445854004
 20
-3.1
 30
0.0
 11
-0.0
 21
1.6218462458
 31
0.0
 40
0.0087268916
 41
0.0063883521
 42
3.1352043015
  0
ELLIPSE
  5
7D5
100
AcDbEntity
  8
SUPERFICI
100
AcDbEllipse
 62
7
  6
CONTINUOUS
 10
8.5445854004
 20
-3.1
 30
0.0
 11
-0.0
 21
1.6218462458
 31
0.0
 40
0.0087268916
 41
-3.1352043015
 42
-0.0063883521
  0
ELLIPSE
  5
7D6
100
AcDbEntity
  8
SUPERFICI
100
AcDbEllipse
 62
7
  6
CONTINUOUS
 10
-4.0
 20
4.4646297395
 30
0.0
 11
1.8353003752
 21
-0.0
 31
0.0
 40
0.0087268678
 41
0.0087266463
 42
3.1328660073
  0
ELLIPSE
  5
7D7
100
AcDbEntity
  8
SUPERFICI
100
AcDbEllipse
 62
7
  6
CONTINUOUS
 10
4.0
 20
4.4646297395
 30
0.0
 11
1.8353003752
 21
-0.0
 31
0.0
 40
0.0087268678
 41
0.0087266463
 42
3.1328660073
  0
ELLIPSE
  5
7D8
100
AcDbEntity
  8
SUPERFICI
100
AcDbEllipse
 62
7
  6
CONTINUOUS
 10
-9.1496953439
 20
-17.6714466826
 30
0.0
 11
1.8480888181
 21
0.7655034529
 31
0.0
 40
0.9998215708
 41
2.7489566578
 42
3.5342286494
  0
ELLIPSE
  5
7D9
100
AcDbEntity
  8
SUPERFICI
100
AcDbEllipse
 62
7
  6
CONTINUOUS
 10
-9.1496953439
 20
17.6714466826
 30
0.0
 11
1.8480888181
 21
-0.7655034529
 31
0.0
 40
0.9998215708
 41
2.7489566578
 42
3.5342286494
  0
ELLIPSE
  5
7DA
100
AcDbEntity
  8
SUPERFICI
100
AcDbEllipse
 62
7
  6
CONTINUOUS
 10
9.1496953439
 20
17.6714466826
 30
0.0
 11
1.8480888181
 21
0.7655034529
 31
0.0
 40
0.9998215708
 41
-0.3926359958
 42
0.3926359958
  0
ELLIPSE
  5
7DB
100
AcDbEntity
  8
SUPERFICI
100
AcDbEllipse
 62
7
  6
CONTINUOUS
 10
9.1496953439
 20
-17.6714466826
 30
0.0
 11
1.8480888181
 21
-0.7655034529
 31
0.0
 40
0.9998215708
 41
-0.3926359958
 42
0.3926359958
  0
ELLIPSE
  5
7DC
100
AcDbEntity
  8
SUPERFICI
100
AcDbEllipse
 62
7
  6
CONTINUOUS
 10
2.4
 20
19.902056904
 30
0.0
 11
1.0
 21
-0.0
 31
0.0
 40
0.0176699529
 41
-1.5707963268
 42
-0.1166713885
  0
ELLIPSE
  5
7DD
100
AcDbEntity
  8
SUPERFICI
100
AcDbEllipse
 62
7
  6
CONTINUOUS
 10
-2.4
 20
-19.902056904
 30
0.0
 11
1.0
 21
-0.0
 31
0.0
 40
0.0176699529
 41
1.5707963268
 42
3.0249212651
  0
ELLIPSE
  5
7DE
100
AcDbEntity
  8
SUPERFICI
100
AcDbEllipse
 62
7
  6
CONTINUOUS
 10
2.4
 20
-19.902056904
 30
0.0
 11
1.0
 21
-0.0
 31
0.0
 40
0.0176699529
 41
0.1166713885
 42
1.5707963268
  0
ELLIPSE
  5
7DF
100
AcDbEntity
  8
SUPERFICI
100
AcDbEllipse
 62
7
  6
CONTINUOUS
 10
10.0138037394
 20
-3.1
 30
0.0
 11
-0.0
 21
2.0155045024
 31
0.0
 40
0.0174552558
 41
-3.1375430123
 42
-0.0040496413
  0
ELLIPSE
  5
7E0
100
AcDbEntity
  8
SUPERFICI
100
AcDbEllipse
 62
7
  6
CONTINUOUS
 10
-10.0138037394
 20
-3.1
 30
0.0
 11
0.0
 21
2.0155045024
 31
0.0
 40
0.0174552558
 41
0.0040496413
 42
3.1375430123
  0
ELLIPSE
  5
7E1
100
AcDbEntity
  8
SUPERFICI
100
AcDbEllipse
 62
7
  6
CONTINUOUS
 10
-8.9751446946
 20
-17.5991454363
 30
0.0
 11
1.8480888181
 21
0.7655034529
 31
0.0
 40
0.9998215708
 41
2.7489566578
 42
3.5342286494
  0
ELLIPSE
  5
7E2
100
AcDbEntity
  8
SUPERFICI
100
AcDbEllipse
 62
7
  6
CONTINUOUS
 10
-8.9751446946
 20
17.5991454363
 30
0.0
 11
-1.8480888181
 21
0.7655034529
 31
0.0
 40
0.9998215708
 41
-0.3926359958
 42
0.3926359958
  0
ELLIPSE
  5
7E3
100
AcDbEntity
  8
SUPERFICI
100
AcDbEllipse
 62
7
  6
CONTINUOUS
 10
8.9751446946
 20
17.5991454363
 30
0.0
 11
-1.8480888181
 21
-0.7655034529
 31
0.0
 40
0.9998215708
 41
2.7489566578
 42
3.5342286494
  0
ELLIPSE
  5
7E4
100
AcDbEntity
  8
SUPERFICI
100
AcDbEllipse
 62
7
  6
CONTINUOUS
 10
8.9751446946
 20
-17.5991454363
 30
0.0
 11
1.8480888181
 21
-0.7655034529
 31
0.0
 40
0.9998215708
 41
-0.3926359958
 42
0.3926359958
  0
ELLIPSE
  5
7E5
100
AcDbEntity
  8
SUPERFICI
100
AcDbEllipse
 62
7
  6
CONTINUOUS
 10
-8.6728182695
 20
-4.9265949657
 30
0.0
 11
0.9999976196
 21
0.2679777991
 31
0.0
 40
0.0081421982
 41
-3.1263212912
 42
-1.5729782569
  0
ELLIPSE
  5
7E6
100
AcDbEntity
  8
SUPERFICI
100
AcDbEllipse
 62
7
  6
CONTINUOUS
 10
8.6728182695
 20
-4.9265949657
 30
0.0
 11
0.9999976196
 21
-0.2679777991
 31
0.0
 40
0.0081421982
 41
-1.5686143967
 42
-0.0152713624
  0
ELLIPSE
  5
7E7
100
AcDbEntity
  8
SUPERFICI
100
AcDbEllipse
 62
7
  6
CONTINUOUS
 10
6.0034907404
 20
4.7228182695
 30
0.0
 11
0.5774690812
 21
0.9999668392
 31
0.0
 40
0.0141024672
 41
-1.562652498
 42
-0.0093094637
  0
ELLIPSE
  5
7E8
100
AcDbEntity
  8
SUPERFICI
100
AcDbEllipse
 62
7
  6
CONTINUOUS
 10
8.6728182695
 20
-1.2734050343
 30
0.0
 11
0.9999976196
 21
0.2679777991
 31
0.0
 40
0.0081421982
 41
0.0152713624
 42
1.5686143967
  0
ELLIPSE
  5
7E9
100
AcDbEntity
  8
SUPERFICI
100
AcDbEllipse
 62
7
  6
CONTINUOUS
 10
-8.6728182695
 20
-1.2734050343
 30
0.0
 11
0.9999976196
 21
-0.2679777991
 31
0.0
 40
0.0081421982
 41
1.5729782569
 42
3.1263212912
  0
ELLIPSE
  5
7EA
100
AcDbEntity
  8
SUPERFICI
100
AcDbEllipse
 62
7
  6
CONTINUOUS
 10
-6.0034907404
 20
4.7228182695
 30
0.0
 11
-0.5774690812
 21
0.9999668392
 31
0.0
 40
0.0141024672
 41
0.0093094637
 42
1.562652498
  0
ELLIPSE
  5
7EB
100
AcDbEntity
  8
SUPERFICI
100
AcDbEllipse
 62
7
  6
CONTINUOUS
 10
-1.9965092596
 20
4.7228182695
 30
0.0
 11
0.5774690812
 21
0.9999668392
 31
0.0
 40
0.0141024672
 41
-1.562652498
 42
-0.0093094637
  0
ELLIPSE
  5
7EC
100
AcDbEntity
  8
SUPERFICI
100
AcDbEllipse
 62
7
  6
CONTINUOUS
 10
1.9965092596
 20
4.7228182695
 30
0.0
 11
-0.5774690812
 21
0.9999668392
 31
0.0
 40
0.0141024672
 41
0.0093094637
 42
1.562652498
  0
ELLIPSE
  5
7ED
100
AcDbEntity
  8
SUPERFICI
100
AcDbEllipse
 62
7
  6
CONTINUOUS
 10
-2.4
 20
19.902056904
 30
0.0
 11
1.0
 21
-0.0
 31
0.0
 40
0.0176699529
 41
-3.0249212651
 42
-1.5707963268
  0
ELLIPSE
  5
7EE
100
AcDbEntity
  8
SUPERFICI
100
AcDbEllipse
 62
7
  6
CONTINUOUS
 10
9.049847672
 20
5.099847672
 30
0.0
 11
0.7073221892
 21
0.7073221892
 31
0.0
 40
0.9996954599
 41
-0.7852458702
 42
0.7852458701
  0
ELLIPSE
  5
7EF
100
AcDbEntity
  8
SUPERFICI
100
AcDbEllipse
 62
7
  6
CONTINUOUS
 10
-9.049847672
 20
-18.499847672
 30
0.0
 11
0.7073221892
 21
0.7073221892
 31
0.0
 40
0.9996954599
 41
-3.9268385237
 42
-2.3563467834
  0
ELLIPSE
  5
7F0
100
AcDbEntity
  8
SUPERFICI
100
AcDbEllipse
 62
7
  6
CONTINUOUS
 10
9.049847672
 20
-18.499847672
 30
0.0
 11
0.7073221892
 21
-0.7073221892
 31
0.0
 40
0.9996954599
 41
-0.7852458701
 42
0.7852458702
  0
ELLIPSE
  5
7F1
100
AcDbEntity
  8
SUPERFICI
100
AcDbEllipse
 62
7
  6
CONTINUOUS
 10
-9.049847672
 20
5.099847672
 30
0.0
 11
0.7073221892
 21
-0.7073221892
 31
0.0
 40
0.9996954599
 41
2.3563467834
 42
3.9268385237
  0
ELLIPSE
  5
7F2
100
AcDbEntity
  8
0
100
AcDbEllipse
 62
253
  6
CONTINUOUS
 10
-11.0890843465
 20
-4.680795
 30
0.0
 11
-0.0
 21
0.352865
 31
0.0
 40
0.0174497484
 41
-1.5707963268
 42
1.5707963268
  0
ENDSEC
  0
SECTION
  2
OBJECTS
  0
DICTIONARY
  5
C
100
AcDbDictionary
280
0
281
1
  3
ACAD_GROUP
350
D
  3
ACAD_MLINESTYLE
350
17
  3
ACAD_LAYOUT
350
1A
  3
ACAD_PLOTSETTINGS
350
19
  3
ACAD_PLOTSTYLENAME
350
E
  0
DICTIONARY
  5
D
102
{ACAD_REACTORS
330
C
102
}
100
AcDbDictionary
280
0
281
1
  0
ACDBDICTIONARYWDFLT
  5
E
102
{ACAD_REACTORS
330
C
102
}
100
AcDbDictionary
281
1
  3
Normal
350
F
100
AcDbDictionaryWithDefault
340
F
  0
DICTIONARY
  5
17
102
{ACAD_REACTORS
330
C
102
}
100
AcDbDictionary
280
0
281
1
  3
Standard
350
18
  0
DICTIONARY
  5
19
102
{ACAD_REACTORS
330
C
102
}
100
AcDbDictionary
281
1
  0
DICTIONARY
  5
1A
102
{ACAD_REACTORS
330
C
102
}
100
AcDbDictionary
281
1
  3
Model
350
7F3
  3
Layout1
350
7F4
  0
ACDBPLACEHOLDER
  5
F
102
{ACAD_REACTORS
330
E
102
}
  0
MLINESTYLE
  5
18
102
{ACAD_REACTORS
330
17
102
}
100
AcDbMlineStyle
  2
STANDARD
 70
0
  3

 62
256
 51
90.0
 52
90.0
 71
2
 49
0.5
 62
256
  6
BYLAYER
 49
-0.5
 62
256
  6
BYLAYER
  0
LAYOUT
  5
7F3
102
{ACAD_REACTORS
330
1A
102
}
100
AcDbPlotSettings
  1

  2
none_device
  4
ISO_A4_(297.00_x_210.00_MM)
  6

 40
0.0
 41
0.0
 42
0.0
 43
0.0
 44
297.0
 45
210.0
 46
0.0
 47
0.0
 48
0.0
 49
0.0
140
0.0
141
0.0
142
1.0
143
1.0
 70
1024
 72
1
 73
0
 74
0
  7

 75
0
147
1.0
148
0.0
149
0.0
100
AcDbLayout
  1
Model
 70
0
 71
0
 10
0.0
 20
0.0
 11
297.0
 21
210.0
 12
0.0
 22
0.0
 32
0.0
 14
0.0
 24
0.0
 34
0.0
 15
0.0
 25
0.0
 35
0.0
146
0.0
 13
0.0
 23
0.0
 33
0.0
 16
1.0
 26
0.0
 36
0.0
 17
0.0
 27
1.0
 37
0.0
 76
0
330
218
345
0
346
0
  0
LAYOUT
  5
7F4
102
{ACAD_REACTORS
330
1A
102
}
100
AcDbPlotSettings
  1

  2
none_device
  4
ISO_A4_(297.00_x_210.00_MM)
  6

 40
0.0
 41
0.0
 42
0.0
 43
0.0
 44
297.0
 45
210.0
 46
0.0
 47
0.0
 48
0.0
 49
0.0
140
0.0
141
0.0
142
1.0
143
1.0
 70
0
 72
1
 73
0
 74
0
  7

 75
0
147
1.0
148
0.0
149
0.0
100
AcDbLayout
  1
Layout1
 70
0
 71
1
 10
0.0
 20
0.0
 11
297.0
 21
210.0
 12
0.0
 22
0.0
 32
0.0
 14
0.0
 24
0.0
 34
0.0
 15
0.0
 25
0.0
 35
0.0
146
0.0
 13
0.0
 23
0.0
 33
0.0
 16
1.0
 26
0.0
 36
0.0
 17
0.0
 27
1.0
 37
0.0
 76
0
330
219
345
0
346
0
  0
ENDSEC
  0
EOF
