  0
SECTION
  2
HEADER
  9
$ACADVER
  1
AC1021
  9
$DWGCODEPAGE
  3
ANSI_1252
  9
$EXTMAX
 10
297.0
 20
210.0
 30
0.0
  9
$EXTMIN
 10
0.0
 20
0.0
 30
0.0
  9
$LIMMIN
 10
0.0
 20
0.0
  9
$LIMMAX
 10
297.0
 20
210.0
  9
$VIEWCTR
 10
148.5
 20
105.0
  9
$VIEWSIZE
 40
210.0
  9
$CLAYER
  8
0
  9
$LTSCALE
 40
16.335
  9
$CELTYPE
  6
BYLAYER
  9
$DIMSCALE
 40
1.0
  9
$DIMASZ
 40
3.0
  9
$DIMEXO
 40
0.5
  9
$DIMDLI
 40
11.286
  9
$DIMEXE
 40
1.5
  9
$DIMCEN
 40
2.673
  9
$DIMLFAC
 40
1.0
  9
$DIMBLK
  1
_FILLED
  9
$DIMALT
 70
0
  9
$DIMALTF
 40
25.4
  9
$DIMTXT
 40
3.0
  9
$DIMTOL
 70
1
  9
$DIMLIM
 70
0
  9
$DIMTFAC
 40
1.0
  9
$DIMTP
 40
0.01
  9
$DIMTM
 40
0.01
  9
$DIMGAP
 40
0.625
  9
$DIMDSEP
 70
44
  9
$AUNITS
 70
0
  9
$PDMODE
 70
3
  9
$PDSIZE
 40
3.0
  9
$HANDSEED
  5
8F0
  9
$TILEMODE
 70
1
  9
$MEASUREMENT
 70
1
  9
$INSUNITS
 70
4
  0
ENDSEC
  0
SECTION
  2
CLASSES
  0
CLASS
  1
ACDBDICTIONARYWDFLT
  2
AcDbDictionaryWithDefault
  3
AutoCAD 2000
 90
0
 91
1
280
0
281
0
  0
CLASS
  1
ACDBPLACEHOLDER
  2
AcDbPlaceHolder
  3
AutoCAD 2000
 90
0
 91
1
280
0
281
0
  0
CLASS
  1
LAYOUT
  2
AcDbLayout
  3
AutoCAD 2000
 90
0
 91
0
280
0
281
0
  0
ENDSEC
  0
SECTION
  2
TABLES
  0
TABLE
  2
VPORT
  5
8
100
AcDbSymbolTable
 70
2
  0
VPORT
  5
1F4
100
AcDbSymbolTableRecord
100
AcDbViewportTableRecord
  2
*ACTIVE
 70
0
 10
0.0
 20
0.0
 11
1.0
 21
1.0
 12
148.5
 22
105.0
 13
0.0
 23
0.0
 14
1.0
 24
1.0
 15
0.0
 25
0.0
 16
0.0
 26
0.0
 36
1.0
 17
0.0
 27
0.0
 37
0.0
 40
210.0
 41
1.4142857143
 42
50.0
 43
0.0
 44
0.0
 50
0.0
 51
0.0
 71
0
 72
100
 73
1
 74
1
 75
0
 76
0
 77
0
 78
0
  0
ENDTAB
  0
TABLE
  2
LTYPE
  5
5
100
AcDbSymbolTable
 70
6
  0
LTYPE
  5
14
100
AcDbSymbolTableRecord
100
AcDbLinetypeTableRecord
  2
BYBLOCK
 70
0
  3

 72
65
 73
0
 40
0.0
  0
LTYPE
  5
15
100
AcDbSymbolTableRecord
100
AcDbLinetypeTableRecord
  2
BYLAYER
 70
0
  3

 72
65
 73
0
 40
0.0
  0
LTYPE
  5
16
100
AcDbSymbolTableRecord
100
AcDbLinetypeTableRecord
  2
CONTINUOUS
 70
64
  3
Solid line
 72
65
 73
0
 40
0.0
  0
LTYPE
  5
1F5
100
AcDbSymbolTableRecord
100
AcDbLinetypeTableRecord
  2
CENTER
 70
64
  3
____ _ ____ _ ____ _ ____ _ ____ _ ____ _ ____
 72
65
 73
4
 40
0.6
 49
0.375
 74
0
 49
-0.075
 74
0
 49
0.075
 74
0
 49
-0.075
 74
0
  0
LTYPE
  5
1F6
100
AcDbSymbolTableRecord
100
AcDbLinetypeTableRecord
  2
HIDDEN
 70
64
  3
- - - - - - - - - - - - - - - - - - - -
 72
65
 73
2
 40
0.2
 49
0.1
 74
0
 49
-0.1
 74
0
  0
LTYPE
  5
1F7
100
AcDbSymbolTableRecord
100
AcDbLinetypeTableRecord
  2
PHANTOM
 70
64
  3
_____ _ _ _____ _ _ _____ _ _ _____
 72
65
 73
6
 40
0.8
 49
0.45
 74
0
 49
-0.05
 74
0
 49
0.1
 74
0
 49
-0.05
 74
0
 49
0.1
 74
0
 49
-0.05
 74
0
  0
LTYPE
  5
1F8
100
AcDbSymbolTableRecord
100
AcDbLinetypeTableRecord
  2
DOT
 70
64
  3
. . . . . . . . . . . . . . . . . . . .
 72
65
 73
2
 40
0.2
 49
0.1
 74
0
 49
-0.1
 74
0
  0
LTYPE
  5
1F9
100
AcDbSymbolTableRecord
100
AcDbLinetypeTableRecord
  2
DASHED
 70
64
  3
- - - - - - - - - - - - - - - - - - - -
 72
65
 73
2
 40
0.2
 49
0.1
 74
0
 49
-0.1
 74
0
  0
ENDTAB
  0
TABLE
  2
LAYER
  5
2
100
AcDbSymbolTable
 70
36
  0
LAYER
  5
10
100
AcDbSymbolTableRecord
100
AcDbLayerTableRecord
  2
0
 70
0
 62
7
  6
CONTINUOUS
370
-3
390
F
  0
LAYER
  5
1FA
100
AcDbSymbolTableRecord
100
AcDbLayerTableRecord
  2
DEFAULT_1
 70
0
 62
7
  6
CENTER
370
-3
390
F
  0
LAYER
  5
1FB
100
AcDbSymbolTableRecord
100
AcDbLayerTableRecord
  2
DEFAULT_2
 70
0
 62
7
  6
HIDDEN
370
-3
390
F
  0
LAYER
  5
1FC
100
AcDbSymbolTableRecord
100
AcDbLayerTableRecord
  2
DEFAULT_3
 70
0
 62
7
  6
PHANTOM
370
-3
390
F
  0
LAYER
  5
1FD
100
AcDbSymbolTableRecord
100
AcDbLayerTableRecord
  2
ASSI
 70
0
 62
7
  6
CONTINUOUS
370
-3
390
F
  0
LAYER
  5
1FE
100
AcDbSymbolTableRecord
100
AcDbLayerTableRecord
  2
COORDINATE
 70
0
 62
7
  6
CONTINUOUS
370
-3
390
F
  0
LAYER
  5
1FF
100
AcDbSymbolTableRecord
100
AcDbLayerTableRecord
  2
COORD_ORIGINE
 70
0
 62
7
  6
CONTINUOUS
370
-3
390
F
  0
LAYER
  5
200
100
AcDbSymbolTableRecord
100
AcDbLayerTableRecord
  2
COPY_PUBLISH
 70
0
 62
7
  6
CONTINUOUS
370
-3
390
F
  0
LAYER
  5
201
100
AcDbSymbolTableRecord
100
AcDbLayerTableRecord
  2
COSMETIC
 70
0
 62
7
  6
CONTINUOUS
370
-3
390
F
  0
LAYER
  5
202
100
AcDbSymbolTableRecord
100
AcDbLayerTableRecord
  2
COSMETICI
 70
0
 62
7
  6
CONTINUOUS
370
-3
390
F
  0
LAYER
  5
203
100
AcDbSymbolTableRecord
100
AcDbLayerTableRecord
  2
CURVE
 70
0
 62
7
  6
CONTINUOUS
370
-3
390
F
  0
LAYER
  5
204
100
AcDbSymbolTableRecord
100
AcDbLayerTableRecord
  2
DRAFT
 70
0
 62
7
  6
CONTINUOUS
370
-3
390
F
  0
LAYER
  5
205
100
AcDbSymbolTableRecord
100
AcDbLayerTableRecord
  2
IMPORT_IGES
 70
0
 62
7
  6
CONTINUOUS
370
-3
390
F
  0
LAYER
  5
206
100
AcDbSymbolTableRecord
100
AcDbLayerTableRecord
  2
INTFCLR_1
 70
0
 62
7
  6
CONTINUOUS
370
-3
390
F
  0
LAYER
  5
207
100
AcDbSymbolTableRecord
100
AcDbLayerTableRecord
  2
INTF_1
 70
0
 62
7
  6
CONTINUOUS
370
-3
390
F
  0
LAYER
  5
208
100
AcDbSymbolTableRecord
100
AcDbLayerTableRecord
  2
INTF_15
 70
0
 62
7
  6
CONTINUOUS
370
-3
390
F
  0
LAYER
  5
209
100
AcDbSymbolTableRecord
100
AcDbLayerTableRecord
  2
INTF_16
 70
0
 62
7
  6
CONTINUOUS
370
-3
390
F
  0
LAYER
  5
20A
100
AcDbSymbolTableRecord
100
AcDbLayerTableRecord
  2
INTF_5
 70
0
 62
7
  6
CONTINUOUS
370
-3
390
F
  0
LAYER
  5
20B
100
AcDbSymbolTableRecord
100
AcDbLayerTableRecord
  2
INTF_CYAN
 70
0
 62
7
  6
CONTINUOUS
370
-3
390
F
  0
LAYER
  5
20C
100
AcDbSymbolTableRecord
100
AcDbLayerTableRecord
  2
NOTE
 70
0
 62
7
  6
CONTINUOUS
370
-3
390
F
  0
LAYER
  5
20D
100
AcDbSymbolTableRecord
100
AcDbLayerTableRecord
  2
PIANI
 70
0
 62
7
  6
CONTINUOUS
370
-3
390
F
  0
LAYER
  5
20E
100
AcDbSymbolTableRecord
100
AcDbLayerTableRecord
  2
PIANI_COSTRUZIONE_PROFILO
 70
0
 62
7
  6
CONTINUOUS
370
-3
390
F
  0
LAYER
  5
20F
100
AcDbSymbolTableRecord
100
AcDbLayerTableRecord
  2
PIANI_ORIGINE
 70
0
 62
7
  6
CONTINUOUS
370
-3
390
F
  0
LAYER
  5
210
100
AcDbSymbolTableRecord
100
AcDbLayerTableRecord
  2
PUNTI
 70
0
 62
7
  6
CONTINUOUS
370
-3
390
F
  0
LAYER
  5
211
100
AcDbSymbolTableRecord
100
AcDbLayerTableRecord
  2
RACCORDO
 70
0
 62
7
  6
CONTINUOUS
370
-3
390
F
  0
LAYER
  5
212
100
AcDbSymbolTableRecord
100
AcDbLayerTableRecord
  2
RGB____0____0____0__
 70
0
 62
7
  6
CONTINUOUS
370
-3
390
F
  0
LAYER
  5
213
100
AcDbSymbolTableRecord
100
AcDbLayerTableRecord
  2
SCRITTE
 70
0
 62
7
  6
CONTINUOUS
370
-3
390
F
  0
LAYER
  5
214
100
AcDbSymbolTableRecord
100
AcDbLayerTableRecord
  2
SIMBOLI
 70
0
 62
7
  6
CONTINUOUS
370
-3
390
F
  0
LAYER
  5
215
100
AcDbSymbolTableRecord
100
AcDbLayerTableRecord
  2
SKEL
 70
0
 62
7
  6
CONTINUOUS
370
-3
390
F
  0
LAYER
  5
216
100
AcDbSymbolTableRecord
100
AcDbLayerTableRecord
  2
SMUSSO
 70
0
 62
7
  6
CONTINUOUS
370
-3
390
F
  0
LAYER
  5
217
100
AcDbSymbolTableRecord
100
AcDbLayerTableRecord
  2
SNAPLINE
 70
0
 62
7
  6
CONTINUOUS
370
-3
390
F
  0
LAYER
  5
218
100
AcDbSymbolTableRecord
100
AcDbLayerTableRecord
  2
SUPERFICI
 70
0
 62
7
  6
CONTINUOUS
370
-3
390
F
  0
LAYER
  5
219
100
AcDbSymbolTableRecord
100
AcDbLayerTableRecord
  2
SUPERFICI_ESTETICHE
 70
0
 62
7
  6
CONTINUOUS
370
-3
390
F
  0
LAYER
  5
21A
100
AcDbSymbolTableRecord
100
AcDbLayerTableRecord
  2
SUPERFICI_SKEL
 70
0
 62
7
  6
CONTINUOUS
370
-3
390
F
  0
LAYER
  5
21B
100
AcDbSymbolTableRecord
100
AcDbLayerTableRecord
  2
TRASH
 70
0
 62
7
  6
CONTINUOUS
370
-3
390
F
  0
LAYER
  5
21C
100
AcDbSymbolTableRecord
100
AcDbLayerTableRecord
  2
XSEC_DATUMS
 70
0
 62
7
  6
CONTINUOUS
370
-3
390
F
  0
ENDTAB
  0
TABLE
  2
STYLE
  5
3
100
AcDbSymbolTable
 70
1
  0
STYLE
  5
11
100
AcDbSymbolTableRecord
100
AcDbTextStyleTableRecord
  2
STANDARD
 70
0
 40
0.0
 41
0.8
 50
0.0
 71
0
 42
0.2
  3
txt
  4

  0
STYLE
  5
21D
100
AcDbSymbolTableRecord
100
AcDbTextStyleTableRecord
  2
TEXTSTYLE_1
 70
0
 40
0.0
 41
0.8
 50
0.0
 71
0
 42
0.2
  3
gdt
  4

  0
ENDTAB
  0
TABLE
  2
VIEW
  5
6
100
AcDbSymbolTable
 70
0
  0
ENDTAB
  0
TABLE
  2
UCS
  5
7
100
AcDbSymbolTable
 70
0
  0
ENDTAB
  0
TABLE
  2
APPID
  5
9
100
AcDbSymbolTable
 70
1
  0
APPID
  5
21E
100
AcDbSymbolTableRecord
100
AcDbRegAppTableRecord
  2
ACAD
 70
0
  0
ENDTAB
  0
TABLE
  2
BLOCK_RECORD
  5
1
100
AcDbSymbolTable
 70
0
  0
BLOCK_RECORD
  5
21F
100
AcDbSymbolTableRecord
100
AcDbBlockTableRecord
  2
*Model_Space
  0
BLOCK_RECORD
  5
220
100
AcDbSymbolTableRecord
100
AcDbBlockTableRecord
  2
*Paper_Space
  0
ENDTAB
  0
TABLE
  2
DIMSTYLE
  5
A
100
AcDbSymbolTable
 70
1
100
AcDbDimStyleTable
 71
0
  0
DIMSTYLE
105
221
100
AcDbSymbolTableRecord
100
AcDbDimStyleTableRecord
  2
STANDARD
 70
0
  3

  4

 40
1.0
 41
3.0
 42
0.5
 43
0.38
 44
1.5
 45
0.0
 46
0.0
 47
0.01
 48
0.01
140
3.0
141
0.09
142
0.0
143
25.4
144
1.0
145
0.0
146
1.0
147
0.625
 71
1.0
 72
0.0
 73
0
 74
0
 75
0
 76
0
 77
1
 78
8
170
0
171
1
172
0
173
0
174
0
175
0
176
0
177
0
178
0
270
2
271
2
272
2
273
2
274
2
275
0
280
0
281
0
282
0
283
1
284
8
285
0
286
0
287
3
288
0
340
11
278
44
  0
ENDTAB
  0
ENDSEC
  0
SECTION
  2
BLOCKS
  0
BLOCK
  5
20
100
AcDbEntity
  8
0
100
AcDbBlockBegin
  2
*Model_Space
 70
0
 10
0.0
 20
0.0
 30
0.0
  3
*Model_Space
  1

  0
ENDBLK
  5
21
100
AcDbEntity
  8
0
100
AcDbBlockEnd
  0
BLOCK
  5
1C
100
AcDbEntity
  8
0
100
AcDbBlockBegin
  2
*Paper_Space
 70
0
 10
0.0
 20
0.0
 30
0.0
  3
*Paper_Space
  1

  0
ENDBLK
  5
1D
100
AcDbEntity
  8
0
100
AcDbBlockEnd
  0
ENDSEC
  0
SECTION
  2
ENTITIES
  0
LWPOLYLINE
  5
222
100
AcDbEntity
  8
ASSI
100
AcDbPolyline
 62
253
  6
CONTINUOUS
 90
13
 70
0
 10
4.1019220988
 20
-23.9018840226
 10
4.1345415651
 20
-23.899736565
 10
4.1666032887
 20
-23.8933507519
 10
4.1975589091
 20
-23.8828357438
 10
4.226878962
 20
-23.8683713309
 10
4.2540619646
 20
-23.8502048476
 10
4.2786429859
 20
-23.8286469328
 10
4.3002015752
 20
-23.8040662286
 10
4.3183689234
 20
-23.7768831303
 10
4.3328342174
 20
-23.7475625918
 10
4.3433499945
 20
-23.7166061122
 10
4.3497363563
 20
-23.6845431458
 10
4.3518840225
 20
-23.6519220987
  0
LWPOLYLINE
  5
223
100
AcDbEntity
  8
ASSI
100
AcDbPolyline
 62
253
  6
CONTINUOUS
 90
13
 70
0
 10
-7.4131369959
 20
-24.4868325431
 10
-7.3870407425
 20
-24.4851144869
 10
-7.3613908344
 20
-24.4800056016
 10
-7.3366259793
 20
-24.4715932692
 10
-7.3131697461
 20
-24.4600213726
 10
-7.2914233223
 20
-24.445487835
 10
-7.2717586517
 20
-24.4282412354
 10
-7.2545120715
 20
-24.4085765559
 10
-7.2399785588
 20
-24.3868301351
 10
-7.2284066873
 20
-24.363373916
 10
-7.2199943769
 20
-24.3386090853
 10
-7.2148855071
 20
-24.3129592126
 10
-7.2131674569
 20
-24.286863004
  0
LWPOLYLINE
  5
224
100
AcDbEntity
  8
ASSI
100
AcDbPolyline
 62
253
  6
CONTINUOUS
 90
13
 70
0
 10
-3.8306228363
 20
-23.9018840226
 10
-3.79800337
 20
-23.899736565
 10
-3.7659416463
 20
-23.8933507519
 10
-3.734986026
 20
-23.8828357438
 10
-3.7056659731
 20
-23.8683713309
 10
-3.6784829705
 20
-23.8502048476
 10
-3.6539019491
 20
-23.8286469328
 10
-3.6323433599
 20
-23.8040662286
 10
-3.6141760117
 20
-23.7768831303
 10
-3.5997107177
 20
-23.7475625918
 10
-3.5891949405
 20
-23.7166061122
 10
-3.5828085788
 20
-23.6845431458
 10
-3.5806609125
 20
-23.6519220987
  0
LWPOLYLINE
  5
225
100
AcDbEntity
  8
ASSI
100
AcDbPolyline
 62
7
  6
CONTINUOUS
 90
13
 70
0
 10
10.400030461
 20
-24.5
 10
10.4261325878
 20
-24.4982897358
 10
10.4517877661
 20
-24.4931875594
 10
10.4765572875
 20
-24.4847805782
 10
10.5000177444
 20
-24.4732123371
 10
10.5217675502
 20
-24.45868055
 10
10.5414339722
 20
-24.4414339722
 10
10.55868055
 20
-24.4217675502
 10
10.5732123371
 20
-24.4000177444
 10
10.5847805782
 20
-24.3765572875
 10
10.5931875595
 20
-24.3517877661
 10
10.5982897358
 20
-24.3261325878
 10
10.6
 20
-24.300030461
  0
LWPOLYLINE
  5
226
100
AcDbEntity
  8
ASSI
100
AcDbPolyline
 62
253
  6
CONTINUOUS
 90
13
 70
0
 10
7.4135581409
 20
-23.6278312163
 10
7.3876000527
 20
-23.629492815
 10
7.3620812035
 20
-23.6340570982
 10
7.3374333974
 20
-23.6414468329
 10
7.3140736986
 20
-23.6515369769
 10
7.292397376
 20
-23.6641567942
 10
7.2727712143
 20
-23.6790927436
 10
7.2555273067
 20
-23.696092093
 10
7.2409574351
 20
-23.7148671965
 10
7.2293081339
 20
-23.7351003615
 10
7.2207765195
 20
-23.7564492233
 10
7.2155069538
 20
-23.7785525382
 10
7.2135886019
 20
-23.8010362971
  0
LWPOLYLINE
  5
227
100
AcDbEntity
  8
ASSI
100
AcDbPolyline
 62
253
  6
CONTINUOUS
 90
7
 70
0
 10
3.857249806
 20
-23.9005160208
 10
3.8495290892
 20
-23.9007199567
 10
3.8429685348
 20
-23.9009388928
 10
3.8377767697
 20
-23.9011655004
 10
3.834023336
 20
-23.9013973364
 10
3.8316386915
 20
-23.9016368438
 10
3.8306228363
 20
-23.9018840226
  0
LWPOLYLINE
  5
228
100
AcDbEntity
  8
ASSI
100
AcDbPolyline
 62
253
  6
CONTINUOUS
 90
7
 70
0
 10
-4.0752951291
 20
-23.9005160208
 10
-4.0830158459
 20
-23.9007199567
 10
-4.0895764002
 20
-23.9009388928
 10
-4.0947681654
 20
-23.9011655004
 10
-4.0985215991
 20
-23.9013973364
 10
-4.1009062435
 20
-23.9016368438
 10
-4.1019220988
 20
-23.9018840226
  0
LWPOLYLINE
  5
229
100
AcDbEntity
  8
ASSI
100
AcDbPolyline
 62
253
  6
CONTINUOUS
 90
4
 70
0
 10
3.6011778334
 20
-23.6512002451
 10
3.5902859035
 20
-23.6514327255
 10
3.5834224345
 20
-23.6516733434
 10
3.5806609125
 20
-23.6519220988
  0
LWPOLYLINE
  5
22A
100
AcDbEntity
  8
ASSI
100
AcDbPolyline
 62
253
  6
CONTINUOUS
 90
4
 70
0
 10
-4.3313671017
 20
-23.6512002451
 10
-4.3422590315
 20
-23.6514327255
 10
-4.3491225006
 20
-23.6516733434
 10
-4.3518840226
 20
-23.6519220988
  0
LINE
  5
22B
100
AcDbEntity
  8
ASSI
100
AcDbLine
 62
253
  6
CONTINUOUS
 10
3.8762444571
 20
-23.9001543788
 11
3.857249806
 21
-23.9005160208
  0
LINE
  5
22C
100
AcDbEntity
  8
ASSI
100
AcDbLine
 62
253
  6
CONTINUOUS
 10
-4.0563004779
 20
-23.9001543788
 11
-4.0752951291
 21
-23.9005160208
  0
LINE
  5
22D
100
AcDbEntity
  8
ASSI
100
AcDbLine
 62
253
  6
CONTINUOUS
 10
3.6345386313
 20
-23.650755106
 11
3.6011778334
 21
-23.6512002451
  0
LINE
  5
22E
100
AcDbEntity
  8
ASSI
100
AcDbLine
 62
253
  6
CONTINUOUS
 10
-4.2980063038
 20
-23.650755106
 11
-4.3313671017
 21
-23.6512002451
  0
LINE
  5
22F
100
AcDbEntity
  8
ASSI
100
AcDbLine
 62
253
  6
CONTINUOUS
 10
3.8989537614
 20
-23.8998698501
 11
3.8762444571
 21
-23.9001543788
  0
LINE
  5
230
100
AcDbEntity
  8
ASSI
100
AcDbLine
 62
253
  6
CONTINUOUS
 10
-4.0335911737
 20
-23.8998698501
 11
-4.0563004779
 21
-23.9001543788
  0
LINE
  5
231
100
AcDbEntity
  8
ASSI
100
AcDbLine
 62
253
  6
CONTINUOUS
 10
3.7417660033
 20
-23.6500382272
 11
3.6345386313
 21
-23.650755106
  0
LINE
  5
232
100
AcDbEntity
  8
ASSI
100
AcDbLine
 62
253
  6
CONTINUOUS
 10
-4.1907789318
 20
-23.6500382272
 11
-4.2980063038
 21
-23.650755106
  0
LINE
  5
233
100
AcDbEntity
  8
ASSI
100
AcDbLine
 62
253
  6
CONTINUOUS
 10
3.9381932186
 20
-23.8996089776
 11
3.8989537614
 21
-23.8998698501
  0
LINE
  5
234
100
AcDbEntity
  8
ASSI
100
AcDbLine
 62
253
  6
CONTINUOUS
 10
-3.9943517165
 20
-23.8996089776
 11
-4.0335911737
 21
-23.8998698501
  0
LINE
  5
235
100
AcDbEntity
  8
ASSI
100
AcDbLine
 62
7
  6
CONTINUOUS
 10
-10.400030461
 20
-24.5
 11
-7.399969539
 21
-24.5
  0
LINE
  5
236
100
AcDbEntity
  8
ASSI
100
AcDbLine
 62
7
  6
CONTINUOUS
 10
7.399969539
 20
-24.5
 11
10.400030461
 21
-24.5
  0
LINE
  5
237
100
AcDbEntity
  8
ASSI
100
AcDbLine
 62
253
  6
CONTINUOUS
 10
10.3868630041
 20
-24.4868325431
 11
7.4131369959
 21
-24.4868325431
  0
LINE
  5
238
100
AcDbEntity
  8
ASSI
100
AcDbLine
 62
253
  6
CONTINUOUS
 10
-7.4131370461
 20
-24.486832493
 11
-10.3868630041
 21
-24.4868325431
  0
LINE
  5
239
100
AcDbEntity
  8
ASSI
100
AcDbLine
 62
253
  6
CONTINUOUS
 10
10.5859750215
 20
-24.2368706193
 11
7.2140249785
 21
-24.2368706193
  0
LINE
  5
23A
100
AcDbEntity
  8
ASSI
100
AcDbLine
 62
253
  6
CONTINUOUS
 10
-7.2140249785
 20
-24.2368706193
 11
-10.5859750215
 21
-24.2368706193
  0
LINE
  5
23B
100
AcDbEntity
  8
ASSI
100
AcDbLine
 62
7
  6
CONTINUOUS
 10
-4.2000380762
 20
-24.0
 11
-1.0499619238
 21
-24.0
  0
LINE
  5
23C
100
AcDbEntity
  8
ASSI
100
AcDbLine
 62
7
  6
CONTINUOUS
 10
1.0499619238
 20
-24.0
 11
4.2000380762
 21
-24.0
  0
LINE
  5
23D
100
AcDbEntity
  8
ASSI
100
AcDbLine
 62
7
  6
CONTINUOUS
 10
3.7499619238
 20
-23.9825449351
 11
1.0674169887
 21
-23.9825449351
  0
LINE
  5
23E
100
AcDbEntity
  8
ASSI
100
AcDbLine
 62
7
  6
CONTINUOUS
 10
-1.0674169887
 20
-23.9825449351
 11
-3.7499619238
 21
-23.9825449351
  0
LINE
  5
23F
100
AcDbEntity
  8
ASSI
100
AcDbLine
 62
253
  6
CONTINUOUS
 10
10.5859750215
 20
-23.8443375673
 11
9.0368706193
 21
-23.8443375673
  0
LINE
  5
240
100
AcDbEntity
  8
ASSI
100
AcDbLine
 62
253
  6
CONTINUOUS
 10
-7.2140249785
 20
-23.8443375673
 11
-8.7631293807
 21
-23.8443375673
  0
LINE
  5
241
100
AcDbEntity
  8
ASSI
100
AcDbLine
 62
253
  6
CONTINUOUS
 10
8.7631293807
 20
-23.8443375673
 11
7.2140249785
 21
-23.8443375673
  0
LINE
  5
242
100
AcDbEntity
  8
ASSI
100
AcDbLine
 62
253
  6
CONTINUOUS
 10
10.3864421555
 20
-23.6278214108
 11
9.2533769702
 21
-23.6278312163
  0
LINE
  5
243
100
AcDbEntity
  8
ASSI
100
AcDbLine
 62
253
  6
CONTINUOUS
 10
-9.2533769702
 20
-23.6278312163
 11
-10.3864421556
 21
-23.6278214068
  0
LINE
  5
244
100
AcDbEntity
  8
ASSI
100
AcDbLine
 62
253
  6
CONTINUOUS
 10
8.5466230298
 20
-23.6278312163
 11
7.4135581409
 21
-23.6278312163
  0
LINE
  5
245
100
AcDbEntity
  8
ASSI
100
AcDbLine
 62
253
  6
CONTINUOUS
 10
-7.4135581409
 20
-23.6278312163
 11
-8.5466230298
 21
-23.6278312163
  0
LINE
  5
246
100
AcDbEntity
  8
ASSI
100
AcDbLine
 62
7
  6
CONTINUOUS
 10
-10.4017150409
 20
-23.1226497308
 11
-9.3
 21
-23.1226497308
  0
LINE
  5
247
100
AcDbEntity
  8
ASSI
100
AcDbLine
 62
7
  6
CONTINUOUS
 10
-8.5
 20
-23.1226497308
 11
-7.3982849591
 21
-23.1226497308
  0
LINE
  5
248
100
AcDbEntity
  8
ASSI
100
AcDbLine
 62
7
  6
CONTINUOUS
 10
7.3982849591
 20
-23.1226497308
 11
8.5
 21
-23.1226497308
  0
LINE
  5
249
100
AcDbEntity
  8
ASSI
100
AcDbLine
 62
7
  6
CONTINUOUS
 10
9.3
 20
-23.1226497308
 11
10.4017150409
 21
-23.1226497308
  0
LINE
  5
24A
100
AcDbEntity
  8
ASSI
100
AcDbLine
 62
253
  6
CONTINUOUS
 10
-9.0368706193
 20
-23.8443375673
 11
-10.5859750215
 21
-23.8443375673
  0
LINE
  5
24B
100
AcDbEntity
  8
ASSI
100
AcDbLine
 62
253
  6
CONTINUOUS
 10
-3.9264059456
 20
-23.6496085116
 11
-4.1907789318
 21
-23.6500382272
  0
LINE
  5
24C
100
AcDbEntity
  8
ASSI
100
AcDbLine
 62
253
  6
CONTINUOUS
 10
4.0061389895
 20
-23.6496085116
 11
3.7417660033
 21
-23.6500382272
  0
LINE
  5
24D
100
AcDbEntity
  8
ASSI
100
AcDbLine
 62
253
  6
CONTINUOUS
 10
-3.9524196508
 20
-23.8995700635
 11
-3.9943517165
 21
-23.8996089776
  0
LINE
  5
24E
100
AcDbEntity
  8
ASSI
100
AcDbLine
 62
253
  6
CONTINUOUS
 10
3.9801252843
 20
-23.8995700635
 11
3.9381932186
 21
-23.8996089776
  0
LINE
  5
24F
100
AcDbEntity
  8
ASSI
100
AcDbLine
 62
253
  6
CONTINUOUS
 10
-3.7105530695
 20
-23.6501900177
 11
-3.9264059456
 21
-23.6496085116
  0
LINE
  5
250
100
AcDbEntity
  8
ASSI
100
AcDbLine
 62
253
  6
CONTINUOUS
 10
4.2219918655
 20
-23.6501900177
 11
4.0061389895
 21
-23.6496085116
  0
LINE
  5
251
100
AcDbEntity
  8
ASSI
100
AcDbLine
 62
253
  6
CONTINUOUS
 10
-3.9118119457
 20
-23.8997568901
 11
-3.9524196508
 21
-23.8995700635
  0
LINE
  5
252
100
AcDbEntity
  8
ASSI
100
AcDbLine
 62
253
  6
CONTINUOUS
 10
4.0207329894
 20
-23.8997568901
 11
3.9801252843
 21
-23.8995700635
  0
LINE
  5
253
100
AcDbEntity
  8
ASSI
100
AcDbLine
 62
253
  6
CONTINUOUS
 10
-3.6345373037
 20
-23.6507544435
 11
-3.7105530695
 21
-23.6501900177
  0
LINE
  5
254
100
AcDbEntity
  8
ASSI
100
AcDbLine
 62
253
  6
CONTINUOUS
 10
4.2980076314
 20
-23.6507544435
 11
4.2219918655
 21
-23.6501900177
  0
LINE
  5
255
100
AcDbEntity
  8
ASSI
100
AcDbLine
 62
253
  6
CONTINUOUS
 10
-3.887359746
 20
-23.8999990711
 11
-3.9118119457
 21
-23.8997568901
  0
LINE
  5
256
100
AcDbEntity
  8
ASSI
100
AcDbLine
 62
253
  6
CONTINUOUS
 10
4.0451851891
 20
-23.8999990711
 11
4.0207329894
 21
-23.8997568901
  0
LWPOLYLINE
  5
257
100
AcDbEntity
  8
ASSI
100
AcDbPolyline
 62
253
  6
CONTINUOUS
 90
13
 70
0
 10
-7.4135581409
 20
-23.6278312163
 10
-7.3876000694
 20
-23.629492813
 10
-7.3620812334
 20
-23.6340570911
 10
-7.3374334365
 20
-23.6414468187
 10
-7.3140737432
 20
-23.6515369545
 10
-7.2923974219
 20
-23.6641567636
 10
-7.2727712571
 20
-23.6790927066
 10
-7.2555273424
 20
-23.696092053
 10
-7.2409574614
 20
-23.7148671574
 10
-7.2293081507
 20
-23.7351003269
 10
-7.2207765279
 20
-23.7564491967
 10
-7.2155069562
 20
-23.7785525233
 10
-7.2135886019
 20
-23.8010362971
  0
LWPOLYLINE
  5
258
100
AcDbEntity
  8
ASSI
100
AcDbPolyline
 62
7
  6
CONTINUOUS
 90
13
 70
0
 10
-10.400030461
 20
-24.5
 10
-10.4261325878
 20
-24.4982897358
 10
-10.4517877661
 20
-24.4931875594
 10
-10.4765572875
 20
-24.4847805782
 10
-10.5000177444
 20
-24.4732123371
 10
-10.5217675502
 20
-24.45868055
 10
-10.5414339722
 20
-24.4414339722
 10
-10.55868055
 20
-24.4217675502
 10
-10.5732123371
 20
-24.4000177444
 10
-10.5847805782
 20
-24.3765572875
 10
-10.5931875595
 20
-24.3517877661
 10
-10.5982897358
 20
-24.3261325878
 10
-10.6
 20
-24.300030461
  0
LWPOLYLINE
  5
259
100
AcDbEntity
  8
ASSI
100
AcDbPolyline
 62
253
  6
CONTINUOUS
 90
13
 70
0
 10
-4.1019220988
 20
-23.9018840226
 10
-4.134542388
 20
-23.8997364561
 10
-4.1666047511
 20
-23.8933503591
 10
-4.1975608045
 20
-23.8828349573
 10
-4.2268810868
 20
-23.8683701024
 10
-4.2540641141
 20
-23.8502031964
 10
-4.2786449575
 20
-23.8286449595
 10
-4.3002031947
 20
-23.8040641162
 10
-4.3183701012
 20
-23.7768810888
 10
-4.3328349564
 20
-23.7475608062
 10
-4.3433503587
 20
-23.7166047523
 10
-4.3497364559
 20
-23.6845423887
 10
-4.3518840226
 20
-23.6519220988
  0
LWPOLYLINE
  5
25A
100
AcDbEntity
  8
ASSI
100
AcDbPolyline
 62
253
  6
CONTINUOUS
 90
13
 70
0
 10
7.4131369959
 20
-24.4868325431
 10
7.3870407645
 20
-24.4851144898
 10
7.3613908739
 20
-24.4800056122
 10
7.336626031
 20
-24.4715932907
 10
7.3131698049
 20
-24.4600214066
 10
7.2914233829
 20
-24.4454878816
 10
7.2717587082
 20
-24.4282412918
 10
7.2545121184
 20
-24.4085766171
 10
7.2399785934
 20
-24.3868301951
 10
7.2284067093
 20
-24.363373969
 10
7.2199943878
 20
-24.3386091261
 10
7.2148855102
 20
-24.3129592355
 10
7.2131674569
 20
-24.286863004
  0
LWPOLYLINE
  5
25B
100
AcDbEntity
  8
ASSI
100
AcDbPolyline
 62
253
  6
CONTINUOUS
 90
13
 70
0
 10
3.8306228363
 20
-23.9018840226
 10
3.7980025471
 20
-23.8997364561
 10
3.765940184
 20
-23.8933503591
 10
3.7349841305
 20
-23.8828349573
 10
3.7056638482
 20
-23.8683701024
 10
3.678480821
 20
-23.8502031964
 10
3.6538999776
 20
-23.8286449595
 10
3.6323417404
 20
-23.8040641162
 10
3.6141748339
 20
-23.7768810888
 10
3.5997099786
 20
-23.7475608062
 10
3.5891945764
 20
-23.7166047523
 10
3.5828084792
 20
-23.6845423887
 10
3.5806609125
 20
-23.6519220988
  0
LWPOLYLINE
  5
25C
100
AcDbEntity
  8
ASSI
100
AcDbPolyline
 62
253
  6
CONTINUOUS
 90
5
 70
0
 10
-3.5806627131
 20
-23.6519214817
 10
-3.5834293393
 20
-23.6516729273
 10
-3.5902910893
 20
-23.6514324171
 10
-3.6011780763
 20
-23.651199951
 10
-3.6345373037
 20
-23.6507544435
  0
LWPOLYLINE
  5
25D
100
AcDbEntity
  8
ASSI
100
AcDbPolyline
 62
253
  6
CONTINUOUS
 90
5
 70
0
 10
4.351882222
 20
-23.6519214817
 10
4.3491155958
 20
-23.6516729273
 10
4.3422538457
 20
-23.6514324171
 10
4.3313668587
 20
-23.651199951
 10
4.2980076314
 20
-23.6507544435
  0
LWPOLYLINE
  5
25E
100
AcDbEntity
  8
ASSI
100
AcDbPolyline
 62
253
  6
CONTINUOUS
 90
9
 70
0
 10
-3.8306228363
 20
-23.9018840226
 10
-3.8316605721
 20
-23.9016352869
 10
-3.8340672475
 20
-23.9013946307
 10
-3.8378428626
 20
-23.9011620538
 10
-3.843057215
 20
-23.9009352302
 10
-3.849640507
 20
-23.900716486
 10
-3.8573833454
 20
-23.9005128001
 10
-3.8663223659
 20
-23.9003246759
 10
-3.887359746
 20
-23.8999990711
  0
LWPOLYLINE
  5
25F
100
AcDbEntity
  8
ASSI
100
AcDbPolyline
 62
7
  6
CONTINUOUS
 90
10
 70
0
 10
-9.2533769702
 20
-23.6278312163
 10
-9.2340641034
 20
-23.6461238988
 10
-9.2133413164
 20
-23.6670655587
 10
-9.191208609
 20
-23.6899995776
 10
-9.1673672192
 20
-23.7141377517
 10
-9.1421159091
 20
-23.7390654611
 10
-9.1163509653
 20
-23.7648572212
 10
-9.0903711503
 20
-23.7913286324
 10
-9.0638777016
 20
-23.8179338627
 10
-9.0368706193
 20
-23.8443375673
  0
LWPOLYLINE
  5
260
100
AcDbEntity
  8
ASSI
100
AcDbPolyline
 62
7
  6
CONTINUOUS
 90
10
 70
0
 10
-9.2533769702
 20
23.6278312164
 10
-9.2350842877
 20
23.6471440832
 10
-9.2141426279
 20
23.6678668702
 10
-9.191208609
 20
23.6899995776
 10
-9.1670704349
 20
23.7138409674
 10
-9.1421427254
 20
23.7390922775
 10
-9.1163509653
 20
23.7648572213
 10
-9.0898795542
 20
23.7908370363
 10
-9.0632743239
 20
23.817330485
 10
-9.0368706193
 20
23.8443375673
  0
LINE
  5
261
100
AcDbEntity
  8
ASSI
100
AcDbLine
 62
253
  6
CONTINUOUS
 10
-7.4131369959
 20
24.4868325431
 11
-7.399969539
 21
24.5
  0
LINE
  5
262
100
AcDbEntity
  8
ASSI
100
AcDbLine
 62
253
  6
CONTINUOUS
 10
-7.2131674569
 20
24.2868630041
 11
-7.2
 21
24.300030461
  0
LINE
  5
263
100
AcDbEntity
  8
ASSI
100
AcDbLine
 62
7
  6
CONTINUOUS
 10
-8.5
 20
22.4
 11
-8.5131674569
 21
22.3868325431
  0
LINE
  5
264
100
AcDbEntity
  8
ASSI
100
AcDbLine
 62
7
  6
CONTINUOUS
 10
-7.2551134101
 20
22.3825449351
 11
-8.2325449351
 21
21.4051134101
  0
LINE
  5
265
100
AcDbEntity
  8
RACCORDO
100
AcDbLine
 62
7
  6
CONTINUOUS
 10
-8.0263346661
 20
21.4894504866
 11
-7.9778347017
 21
21.5375022933
  0
LWPOLYLINE
  5
266
100
AcDbEntity
  8
RACCORDO
100
AcDbPolyline
 62
7
  6
CONTINUOUS
 90
7
 70
0
 10
-8.0620127384
 20
21.4550703176
 10
-8.0611484759
 20
21.4557280534
 10
-8.0588740626
 20
21.457802407
 10
-8.0551894983
 20
21.4612933783
 10
-8.0500766715
 20
21.4662167357
 10
-8.0435536937
 20
21.4725567108
 10
-8.0263346661
 20
21.4894504866
  0
LWPOLYLINE
  5
267
100
AcDbEntity
  8
RACCORDO
100
AcDbPolyline
 62
253
  6
CONTINUOUS
 90
13
 70
0
 10
-6.5714059779
 20
21.2252970227
 10
-6.6030465646
 20
21.2067220645
 10
-6.6324564263
 20
21.1857661206
 10
-6.6596355631
 20
21.1624291909
 10
-6.6847736832
 20
21.1364729562
 10
-6.7076810784
 20
21.1081357358
 10
-6.7277886233
 20
21.0781324871
 10
-6.7450165307
 20
21.0464595371
 10
-6.7594445878
 20
21.0131205589
 10
-6.7707430316
 20
20.9788415283
 10
-6.7788019411
 20
20.9438644377
 10
-6.7837312372
 20
20.9079472947
 10
-6.78553092
 20
20.8710900996
  0
LWPOLYLINE
  5
268
100
AcDbEntity
  8
RACCORDO
100
AcDbPolyline
 62
253
  6
CONTINUOUS
 90
13
 70
0
 10
-6.4784948813
 20
21.0482311979
 10
-6.4941158608
 20
21.0391099242
 10
-6.5088531445
 20
21.0286100969
 10
-6.5225851611
 20
21.016816343
 10
-6.5352019296
 20
21.0038199496
 10
-6.5465945881
 20
20.9897297172
 10
-6.5566600674
 20
20.9746741862
 10
-6.5653092372
 20
20.9587964829
 10
-6.5724858792
 20
20.9422112712
 10
-6.5781460804
 20
20.9250120646
 10
-6.5822373081
 20
20.9073221697
 10
-6.5847113867
 20
20.8892989655
 10
-6.5855385354
 20
20.8710900996
  0
LINE
  5
269
100
AcDbEntity
  8
RACCORDO
100
AcDbLine
 62
253
  6
CONTINUOUS
 10
-8.0614243722
 20
21.18553092
 11
-8.2325449351
 21
21.0999771547
  0
LINE
  5
26A
100
AcDbEntity
  8
RACCORDO
100
AcDbLine
 62
253
  6
CONTINUOUS
 10
-7.8614548332
 20
20.9855385354
 11
-8.0325449339
 21
20.9
  0
LINE
  5
26B
100
AcDbEntity
  8
RACCORDO
100
AcDbLine
 62
7
  6
CONTINUOUS
 10
-8.0620127384
 20
21.4550703176
 11
-8.2325449351
 21
21.4051134101
  0
LINE
  5
26C
100
AcDbEntity
  8
ASSI
100
AcDbLine
 62
7
  6
CONTINUOUS
 10
0.8
 20
-22.4
 11
0.8174550649
 21
-22.398254669
  0
LWPOLYLINE
  5
26D
100
AcDbEntity
  8
ASSI
100
AcDbPolyline
 62
253
  6
CONTINUOUS
 90
13
 70
0
 10
-3.3786655583
 20
-22.2251447178
 10
-3.3460374312
 20
-22.2230015771
 10
-3.3139676388
 20
-22.2166187926
 10
-3.2830048154
 20
-22.2061056129
 10
-3.2536786203
 20
-22.1916419302
 10
-3.226490759
 20
-22.1734752392
 10
-3.2019063798
 20
-22.1519164339
 10
-3.1803460088
 20
-22.1273344113
 10
-3.1621783917
 20
-22.1001497384
 10
-3.1477142491
 20
-22.0708275208
 10
-3.1372009266
 20
-22.0398694056
 10
-3.1308181731
 20
-22.0078049933
 10
-3.1286750776
 20
-21.975182794
  0
LWPOLYLINE
  5
26E
100
AcDbEntity
  8
ASSI
100
AcDbPolyline
 62
7
  6
CONTINUOUS
 90
16
 70
0
 10
10.6000000646
 20
-22.3999999296
 10
10.6518961978
 20
-22.3973188641
 10
10.7034419043
 20
-22.3892214715
 10
10.7540657836
 20
-22.3757291386
 10
10.8033748714
 20
-22.3568441144
 10
10.8506021346
 20
-22.332753888
 10
10.8947079968
 20
-22.3040171503
 10
10.9349362959
 20
-22.2713500847
 10
10.9713142863
 20
-22.2349698278
 10
11.0039800191
 20
-22.1947398811
 10
11.0327165209
 20
-22.1506321718
 10
11.0568074185
 20
-22.1034036118
 10
11.0756956352
 20
-22.054097956
 10
11.0891949317
 20
-22.0034838189
 10
11.0973032882
 20
-21.9519527996
 10
11.1
 20
-21.9000761524
  0
LWPOLYLINE
  5
26F
100
AcDbEntity
  8
RACCORDO
100
AcDbPolyline
 62
253
  6
CONTINUOUS
 90
10
 70
0
 10
6.385565175
 20
-21.2825097805
 10
6.4065626009
 20
-21.2818397004
 10
6.4274872639
 20
-21.27977344
 10
6.4483391639
 20
-21.2763105323
 10
6.4691374329
 20
-21.2714822744
 10
6.489862939
 20
-21.2652558087
 10
6.5104582861
 20
-21.2575341793
 10
6.5309043423
 20
-21.2482845845
 10
6.5512202396
 20
-21.2375387228
 10
6.5714059779
 20
-21.2252970227
  0
LWPOLYLINE
  5
270
100
AcDbEntity
  8
RACCORDO
100
AcDbPolyline
 62
253
  6
CONTINUOUS
 90
10
 70
0
 10
-5.3288718492
 20
-21.2825097805
 10
-5.3078679529
 20
-21.2818392029
 10
-5.2869374311
 20
-21.2797723687
 10
-5.2660802836
 20
-21.2763088107
 10
-5.2452769883
 20
-21.2714795582
 10
-5.2245470673
 20
-21.2652520208
 10
-5.2039490872
 20
-21.2575300463
 10
-5.1835025702
 20
-21.2482811012
 10
-5.1631879941
 20
-21.2375366171
 10
-5.1430053589
 20
-21.2252970227
  0
LWPOLYLINE
  5
271
100
AcDbEntity
  8
RACCORDO
100
AcDbPolyline
 62
253
  6
CONTINUOUS
 90
10
 70
0
 10
6.3855783932
 20
-21.0710976928
 10
6.3960348549
 20
-21.070825944
 10
6.4065158694
 20
-21.070002878
 10
6.4169918286
 20
-21.0686224102
 10
6.4274122625
 20
-21.0666847649
 10
6.4377668512
 20
-21.0641845222
 10
6.4480829049
 20
-21.0610999169
 10
6.4583443504
 20
-21.0574140948
 10
6.4684944235
 20
-21.0531260418
 10
6.4784948813
 20
-21.0482311979
  0
LWPOLYLINE
  5
272
100
AcDbEntity
  8
RACCORDO
100
AcDbPolyline
 62
253
  6
CONTINUOUS
 90
10
 70
0
 10
-5.3288718492
 20
-21.0710976899
 10
-5.3184034944
 20
-21.0708278284
 10
-5.307912417
 20
-21.0700060129
 10
-5.2974282468
 20
-21.0686264701
 10
-5.2870017095
 20
-21.0666898443
 10
-5.2766428032
 20
-21.0641909724
 10
-5.2663233763
 20
-21.061107937
 10
-5.2560592191
 20
-21.0574237966
 10
-5.2459073125
 20
-21.0531377571
 10
-5.2359058453
 20
-21.0482453455
  0
LINE
  5
273
100
AcDbEntity
  8
ASSI
100
AcDbLine
 62
7
  6
CONTINUOUS
 10
-10.6
 20
-22.3999999999
 11
-9.3
 21
-22.4
  0
LINE
  5
274
100
AcDbEntity
  8
ASSI
100
AcDbLine
 62
7
  6
CONTINUOUS
 10
-8.5
 20
-22.4
 11
-4.45
 21
-22.4
  0
LINE
  5
275
100
AcDbEntity
  8
ASSI
100
AcDbLine
 62
7
  6
CONTINUOUS
 10
4.45
 20
-22.4
 11
8.5
 21
-22.4
  0
LINE
  5
276
100
AcDbEntity
  8
ASSI
100
AcDbLine
 62
7
  6
CONTINUOUS
 10
9.3
 20
-22.4
 11
10.6000000646
 21
-22.3999999354
  0
LINE
  5
277
100
AcDbEntity
  8
ASSI
100
AcDbLine
 62
7
  6
CONTINUOUS
 10
-0.8174550649
 20
-22.398254669
 11
0.8174550649
 21
-22.398254669
  0
LINE
  5
278
100
AcDbEntity
  8
ASSI
100
AcDbLine
 62
7
  6
CONTINUOUS
 10
-10.5826210875
 20
-22.3825449351
 11
-9.0368706193
 21
-22.3825449351
  0
LINE
  5
279
100
AcDbEntity
  8
ASSI
100
AcDbLine
 62
7
  6
CONTINUOUS
 10
-8.7631293807
 20
-22.3825449351
 11
-7.2551134101
 21
-22.3825449351
  0
LINE
  5
27A
100
AcDbEntity
  8
ASSI
100
AcDbLine
 62
7
  6
CONTINUOUS
 10
-3.5
 20
-22.3825449351
 11
-3.2999714434
 21
-22.3825449351
  0
LINE
  5
27B
100
AcDbEntity
  8
ASSI
100
AcDbLine
 62
7
  6
CONTINUOUS
 10
3.2999714434
 20
-22.3825449351
 11
3.5
 21
-22.3825449351
  0
LINE
  5
27C
100
AcDbEntity
  8
ASSI
100
AcDbLine
 62
7
  6
CONTINUOUS
 10
7.2551134101
 20
-22.3825449351
 11
8.7631293807
 21
-22.3825449351
  0
LINE
  5
27D
100
AcDbEntity
  8
ASSI
100
AcDbLine
 62
7
  6
CONTINUOUS
 10
9.0368706193
 20
-22.3825449351
 11
10.5826210875
 21
-22.3825449351
  0
LINE
  5
27E
100
AcDbEntity
  8
ASSI
100
AcDbLine
 62
253
  6
CONTINUOUS
 10
-7.3012233427
 20
-22.2251447178
 11
-3.3786655583
 21
-22.2251447178
  0
LINE
  5
27F
100
AcDbEntity
  8
ASSI
100
AcDbLine
 62
253
  6
CONTINUOUS
 10
3.3786655583
 20
-22.2251447178
 11
7.3012233427
 21
-22.2251447178
  0
LINE
  5
280
100
AcDbEntity
  8
ASSI
100
AcDbLine
 62
7
  6
CONTINUOUS
 10
3.05
 20
-21.7
 11
-3.05
 21
-21.7
  0
LINE
  5
281
100
AcDbEntity
  8
ASSI
100
AcDbLine
 62
7
  6
CONTINUOUS
 10
3.1173032135
 20
-21.6326967865
 11
-3.1173032135
 21
-21.6326967865
  0
LINE
  5
282
100
AcDbEntity
  8
RACCORDO
100
AcDbLine
 62
253
  6
CONTINUOUS
 10
-6.385565175
 20
-21.2825097805
 11
-5.3288718492
 21
-21.2825097805
  0
LINE
  5
283
100
AcDbEntity
  8
RACCORDO
100
AcDbLine
 62
253
  6
CONTINUOUS
 10
5.3288718492
 20
-21.2825097805
 11
6.385565175
 21
-21.2825097805
  0
LINE
  5
284
100
AcDbEntity
  8
RACCORDO
100
AcDbLine
 62
253
  6
CONTINUOUS
 10
-8.0614243722
 20
-21.2252970227
 11
-6.5714059779
 21
-21.2252970227
  0
LINE
  5
285
100
AcDbEntity
  8
RACCORDO
100
AcDbLine
 62
253
  6
CONTINUOUS
 10
-5.1430053589
 20
-21.2252970227
 11
-3.3850964806
 21
-21.2252970227
  0
LINE
  5
286
100
AcDbEntity
  8
ASSI
100
AcDbLine
 62
253
  6
CONTINUOUS
 10
-3.3850964806
 20
-21.2252970227
 11
-3.1351059998
 21
-21.2252970227
  0
LINE
  5
287
100
AcDbEntity
  8
ASSI
100
AcDbLine
 62
253
  6
CONTINUOUS
 10
3.3850964806
 20
-21.2252970227
 11
3.1351059998
 21
-21.2252970227
  0
LINE
  5
288
100
AcDbEntity
  8
RACCORDO
100
AcDbLine
 62
253
  6
CONTINUOUS
 10
3.3850964806
 20
-21.2252970227
 11
5.1430053589
 21
-21.2252970227
  0
LINE
  5
289
100
AcDbEntity
  8
RACCORDO
100
AcDbLine
 62
253
  6
CONTINUOUS
 10
6.5714059779
 20
-21.2252970227
 11
8.0614243722
 21
-21.2252970227
  0
LINE
  5
28A
100
AcDbEntity
  8
RACCORDO
100
AcDbLine
 62
253
  6
CONTINUOUS
 10
-8.0614243722
 20
-21.18553092
 11
-7.4144538492
 21
-21.18553092
  0
LINE
  5
28B
100
AcDbEntity
  8
RACCORDO
100
AcDbLine
 62
253
  6
CONTINUOUS
 10
7.4144538492
 20
-21.18553092
 11
8.0614243722
 21
-21.18553092
  0
LINE
  5
28C
100
AcDbEntity
  8
RACCORDO
100
AcDbLine
 62
253
  6
CONTINUOUS
 10
-6.3855790746
 20
-21.0710976899
 11
-5.3288718492
 21
-21.0710976899
  0
LINE
  5
28D
100
AcDbEntity
  8
RACCORDO
100
AcDbLine
 62
253
  6
CONTINUOUS
 10
5.3288983544
 20
-21.0710976899
 11
6.3855783915
 21
-21.0710976899
  0
LINE
  5
28E
100
AcDbEntity
  8
RACCORDO
100
AcDbLine
 62
7
  6
CONTINUOUS
 10
-7.8614548332
 20
-20.9855385354
 11
-7.414255367
 21
-20.9855385354
  0
LINE
  5
28F
100
AcDbEntity
  8
RACCORDO
100
AcDbLine
 62
7
  6
CONTINUOUS
 10
7.4144655397
 20
-20.9855385354
 11
7.8614548332
 21
-20.9855385354
  0
LINE
  5
290
100
AcDbEntity
  8
RACCORDO
100
AcDbLine
 62
7
  6
CONTINUOUS
 10
-9.6465076573
 20
-20.9
 11
-8.0325449339
 21
-20.9
  0
LINE
  5
291
100
AcDbEntity
  8
RACCORDO
100
AcDbLine
 62
7
  6
CONTINUOUS
 10
8.0325449339
 20
-20.9
 11
9.6465076573
 21
-20.9
  0
LWPOLYLINE
  5
292
100
AcDbEntity
  8
ASSI
100
AcDbPolyline
 62
7
  6
CONTINUOUS
 90
16
 70
0
 10
-10.6
 20
-22.3999997358
 10
-10.6519014622
 20
-22.3973199893
 10
-10.7034529055
 20
-22.3892205185
 10
-10.7540825694
 20
-22.3757237075
 10
-10.8033981686
 20
-22.3568330612
 10
-10.8506316256
 20
-22.3327366144
 10
-10.8947407691
 20
-22.3039932453
 10
-10.9349703626
 20
-22.2713195516
 10
-10.9713475963
 20
-22.2349337381
 10
-11.0040079332
 20
-22.1947016024
 10
-11.0327349164
 20
-22.1506009559
 10
-11.0568171282
 20
-22.1033850541
 10
-11.0757000376
 20
-22.0540843526
 10
-11.0891965607
 20
-22.0034612067
 10
-11.0973037172
 20
-21.9519097908
 10
-11.1
 20
-21.8999997649
  0
LWPOLYLINE
  5
293
100
AcDbEntity
  8
ASSI
100
AcDbPolyline
 62
253
  6
CONTINUOUS
 90
13
 70
0
 10
3.3786655583
 20
-22.2251447178
 10
3.3460383978
 20
-22.2230017045
 10
3.313969389
 20
-22.2166192618
 10
3.2830071354
 20
-22.2061065741
 10
3.2536813069
 20
-22.1916434815
 10
3.2264935797
 20
-22.1734774037
 10
3.2019090531
 20
-22.1519191071
 10
3.1803482937
 20
-22.1273373888
 10
3.1621801408
 20
-22.1001527673
 10
3.147715396
 20
-22.0708302889
 10
3.1372015075
 20
-22.0398715723
 10
3.1308183358
 20
-22.0078062271
 10
3.1286750776
 20
-21.975182794
  0
LINE
  5
294
100
AcDbEntity
  8
ASSI
100
AcDbLine
 62
7
  6
CONTINUOUS
 10
-0.8
 20
-22.4
 11
-0.8174550649
 21
-22.398254669
  0
LWPOLYLINE
  5
295
100
AcDbEntity
  8
ASSI
100
AcDbPolyline
 62
253
  6
CONTINUOUS
 90
9
 70
0
 10
4.1019220988
 20
-23.9018840226
 10
4.100884363
 20
-23.9016352869
 10
4.0984776875
 20
-23.9013946307
 10
4.0947020725
 20
-23.9011620538
 10
4.0894877201
 20
-23.9009352302
 10
4.0829044281
 20
-23.900716486
 10
4.0751615897
 20
-23.9005128001
 10
4.0662225692
 20
-23.9003246759
 10
4.0451851891
 20
-23.8999990711
  0
LINE
  5
296
100
AcDbEntity
  8
RACCORDO
100
AcDbLine
 62
7
  6
CONTINUOUS
 10
-8.0620127384
 20
-21.4550703176
 11
-8.2325449351
 21
-21.4051134101
  0
LWPOLYLINE
  5
297
100
AcDbEntity
  8
RACCORDO
100
AcDbPolyline
 62
253
  6
CONTINUOUS
 90
10
 70
0
 10
-6.4784948813
 20
-21.0482311979
 10
-6.4685483358
 20
-21.0531015011
 10
-6.4584371453
 20
-21.0573778703
 10
-6.4481979798
 20
-21.0610620732
 10
-6.4378811314
 20
-21.0641536459
 10
-6.4275068833
 20
-21.0666645415
 10
-6.4170634815
 20
-21.0686110303
 10
-6.4065667716
 20
-21.0699975327
 10
-6.3960620443
 20
-21.0708245285
 10
-6.3855790764
 20
-21.0710976929
  0
LINE
  5
298
100
AcDbEntity
  8
RACCORDO
100
AcDbLine
 62
253
  6
CONTINUOUS
 10
-8.2325449351
 20
-21.0999771547
 11
-8.0614243722
 21
-21.18553092
  0
LINE
  5
299
100
AcDbEntity
  8
RACCORDO
100
AcDbLine
 62
253
  6
CONTINUOUS
 10
-8.0325449339
 20
-20.9
 11
-7.8614548332
 21
-20.9855385354
  0
LWPOLYLINE
  5
29A
100
AcDbEntity
  8
RACCORDO
100
AcDbPolyline
 62
253
  6
CONTINUOUS
 90
10
 70
0
 10
-6.5714059779
 20
-21.2252970227
 10
-6.5513343652
 20
-21.2374883071
 10
-6.5310972618
 20
-21.2482018656
 10
-6.5106946678
 20
-21.2574372658
 10
-6.4900983839
 20
-21.2651701128
 10
-6.4693366093
 20
-21.271425868
 10
-6.4484939414
 20
-21.2762795287
 10
-6.4275985793
 20
-21.279756644
 10
-6.4066223238
 20
-21.2818332378
 10
-6.385565175
 20
-21.2825097805
  0
LWPOLYLINE
  5
29B
100
AcDbEntity
  8
RACCORDO
100
AcDbPolyline
 62
7
  6
CONTINUOUS
 90
5
 70
0
 10
-8.049455854
 20
-21.4668163882
 10
-8.0546995029
 20
-21.4617619751
 10
-8.0585187913
 20
-21.4581401679
 10
-8.0609565365
 20
-21.4559096154
 10
-8.0620127384
 20
-21.4550703176
  0
LINE
  5
29C
100
AcDbEntity
  8
RACCORDO
100
AcDbLine
 62
7
  6
CONTINUOUS
 10
-8.0349523779
 20
-21.4809749247
 11
-8.049455854
 21
-21.4668163882
  0
LWPOLYLINE
  5
29D
100
AcDbEntity
  8
RACCORDO
100
AcDbPolyline
 62
7
  6
CONTINUOUS
 90
3
 70
0
 10
-7.9779147861
 20
-21.5374228738
 10
-7.9914450373
 20
-21.523974683
 10
-8.0349523779
 20
-21.4809749247
  0
LINE
  5
29E
100
AcDbEntity
  8
ASSI
100
AcDbLine
 62
253
  6
CONTINUOUS
 10
-7.399969539
 20
-24.5
 11
-7.4131370461
 21
-24.486832493
  0
LINE
  5
29F
100
AcDbEntity
  8
ASSI
100
AcDbLine
 62
253
  6
CONTINUOUS
 10
-7.2
 20
-24.300030461
 11
-7.2131674569
 21
-24.286863004
  0
LINE
  5
2A0
100
AcDbEntity
  8
ASSI
100
AcDbLine
 62
7
  6
CONTINUOUS
 10
-8.5
 20
-22.4
 11
-8.5131674569
 21
-22.3868325431
  0
LINE
  5
2A1
100
AcDbEntity
  8
ASSI
100
AcDbLine
 62
7
  6
CONTINUOUS
 10
-8.2325449351
 20
-21.4051134101
 11
-7.2551134101
 21
-22.3825449351
  0
LWPOLYLINE
  5
2A2
100
AcDbEntity
  8
RACCORDO
100
AcDbPolyline
 62
7
  6
CONTINUOUS
 90
6
 70
0
 10
-7.3307894207
 20
22.19266478
 10
-7.3202420417
 20
22.2037964519
 10
-7.3120322913
 20
22.2125899363
 10
-7.3060916798
 20
22.219113051
 10
-7.3024886969
 20
22.2232979782
 10
-7.3012233427
 20
22.2251447178
  0
LINE
  5
2A3
100
AcDbEntity
  8
RACCORDO
100
AcDbLine
 62
7
  6
CONTINUOUS
 10
-7.3595272516
 20
22.1627616216
 11
-7.3307894207
 21
22.19266478
  0
LINE
  5
2A4
100
AcDbEntity
  8
RACCORDO
100
AcDbLine
 62
7
  6
CONTINUOUS
 10
-7.422256369
 20
22.0983092905
 11
-7.3595272516
 21
22.1627616216
  0
LINE
  5
2A5
100
AcDbEntity
  8
RACCORDO
100
AcDbLine
 62
7
  6
CONTINUOUS
 10
-7.5816845896
 20
21.9362193403
 11
-7.422256369
 21
22.0983092905
  0
LINE
  5
2A6
100
AcDbEntity
  8
RACCORDO
100
AcDbLine
 62
7
  6
CONTINUOUS
 10
-7.8977482634
 20
21.6175252389
 11
-7.5816845896
 21
21.9362193403
  0
LINE
  5
2A7
100
AcDbEntity
  8
RACCORDO
100
AcDbLine
 62
253
  6
CONTINUOUS
 10
-7.5712884313
 20
20.8287039533
 11
-7.4144655397
 21
20.9855385354
  0
LINE
  5
2A8
100
AcDbEntity
  8
RACCORDO
100
AcDbLine
 62
253
  6
CONTINUOUS
 10
-7.3714633245
 20
20.6285442909
 11
-7.2144614646
 21
20.7855366255
  0
LINE
  5
2A9
100
AcDbEntity
  8
ASSI
100
AcDbLine
 62
253
  6
CONTINUOUS
 10
-3.8306228363
 20
23.9018840226
 11
-3.7499619238
 21
23.9825449351
  0
LINE
  5
2AA
100
AcDbEntity
  8
ASSI
100
AcDbLine
 62
253
  6
CONTINUOUS
 10
-3.5806626995
 20
23.6519203118
 11
-3.5
 21
23.7325830113
  0
LINE
  5
2AB
100
AcDbEntity
  8
DRAFT
100
AcDbLine
 62
7
  6
CONTINUOUS
 10
-7.75
 20
19.0
 11
-7.7979977728
 21
18.9520022272
  0
LINE
  5
2AC
100
AcDbEntity
  8
RACCORDO
100
AcDbLine
 62
7
  6
CONTINUOUS
 10
-7.9778347017
 20
21.5375022933
 11
-7.8977482634
 21
21.6175252389
  0
LINE
  5
2AD
100
AcDbEntity
  8
RACCORDO
100
AcDbLine
 62
253
  6
CONTINUOUS
 10
-5.4447682533
 20
20.1275985407
 11
-5.1288794371
 21
20.28553092
  0
LINE
  5
2AE
100
AcDbEntity
  8
RACCORDO
100
AcDbLine
 62
253
  6
CONTINUOUS
 10
-5.2450589658
 20
19.9274760402
 11
-4.9289098981
 21
20.0855385354
  0
LWPOLYLINE
  5
2AF
100
AcDbEntity
  8
RACCORDO
100
AcDbPolyline
 62
253
  6
CONTINUOUS
 90
13
 70
0
 10
-4.6105528707
 20
-19.4681025177
 10
-4.5844670149
 20
-19.4663720641
 10
-4.55882692
 20
-19.4612578593
 10
-4.5340707798
 20
-19.4528472871
 10
-4.5106216939
 20
-19.4412840723
 10
-4.4888804097
 20
-19.426765813
 10
-4.4692184799
 20
-19.4095405932
 10
-4.4519719475
 20
-19.3899027677
 10
-4.4374355929
 20
-19.3681879411
 10
-4.4258578743
 20
-19.3447672128
 10
-4.4174366898
 20
-19.3200408435
 10
-4.4123159931
 20
-19.2944314159
 10
-4.4105833317
 20
-19.2683766108
  0
LWPOLYLINE
  5
2B0
100
AcDbEntity
  8
RACCORDO
100
AcDbPolyline
 62
253
  6
CONTINUOUS
 90
13
 70
0
 10
-4.5444671447
 20
-20.0044548162
 10
-4.5183670498
 20
-20.0027400319
 10
-4.4927137537
 20
-19.9976330373
 10
-4.4679461226
 20
-19.9892213075
 10
-4.4444878539
 20
-19.9776488528
 10
-4.4227402118
 20
-19.9631137435
 10
-4.4030751692
 20
-19.9458647104
 10
-4.3858290881
 20
-19.9261969271
 10
-4.3712968966
 20
-19.9044468916
 10
-4.3597270684
 20
-19.8809866299
 10
-4.3513174568
 20
-19.8562174504
 10
-4.3462118769
 20
-19.8305631014
 10
-4.3444976057
 20
-19.8044624316
  0
LINE
  5
2B1
100
AcDbEntity
  8
RACCORDO
100
AcDbLine
 62
7
  6
CONTINUOUS
 10
-4.5827349556
 20
-19.9725083879
 11
-4.6057426505
 21
-19.9738193966
  0
LWPOLYLINE
  5
2B2
100
AcDbEntity
  8
RACCORDO
100
AcDbPolyline
 62
253
  6
CONTINUOUS
 90
19
 70
0
 10
-7.4144538492
 20
-21.18553092
 10
-7.3790854477
 20
-21.1838948779
 10
-7.3445238028
 20
-21.179336393
 10
-7.3107689143
 20
-21.1718554654
 10
-7.2775847811
 20
-21.1613515683
 10
-7.2452074043
 20
-21.1479252286
 10
-7.2143447882
 20
-21.1318780261
 10
-7.1850246143
 20
-21.113150711
 10
-7.157219201
 20
-21.0918025332
 10
-7.131553508
 20
-21.0683128229
 10
-7.1080724215
 20
-21.0426228188
 10
-7.0867310553
 20
-21.0147912821
 10
-7.0680197102
 20
-20.9854738268
 10
-7.05200899
 20
-20.9546715788
 10
-7.0386282907
 20
-20.9223834121
 10
-7.0281561013
 20
-20.8892615624
 10
-7.0206852511
 20
-20.8555234415
 10
-7.0161229107
 20
-20.8209516377
 10
-7.01446908
 20
-20.7855461508
  0
LWPOLYLINE
  5
2B3
100
AcDbEntity
  8
RACCORDO
100
AcDbPolyline
 62
253
  6
CONTINUOUS
 90
19
 70
0
 10
-7.414255356
 20
-20.9855384478
 10
-7.3968622429
 20
-20.9847648133
 10
-7.3795965187
 20
-20.9824804731
 10
-7.3625892854
 20
-20.9787011498
 10
-7.3459667356
 20
-20.9734527983
 10
-7.3298589417
 20
-20.9667743194
 10
-7.3143977581
 20
-20.9587200162
 10
-7.2997055421
 20
-20.9493557337
 10
-7.2858873036
 20
-20.9387506339
 10
-7.2730405365
 20
-20.9269792438
 10
-7.2612583582
 20
-20.9141234085
 10
-7.2506378301
 20
-20.900285264
 10
-7.2412687207
 20
-20.8855827402
 10
-7.2332280123
 20
-20.8701460568
 10
-7.2265634549
 20
-20.8540778584
 10
-7.2213123856
 20
-20.837461116
 10
-7.217519988
 20
-20.8204060811
 10
-7.2152278112
 20
-20.8030539487
 10
-7.2144614653
 20
-20.7855365128
  0
LWPOLYLINE
  5
2B4
100
AcDbEntity
  8
RACCORDO
100
AcDbPolyline
 62
253
  6
CONTINUOUS
 90
6
 70
0
 10
4.2950006873
 20
-19.8070088065
 10
4.3120298947
 20
-19.8065223478
 10
4.3255820908
 20
-19.806023511
 10
4.3355556571
 20
-19.8055158783
 10
4.3418761978
 20
-19.8049958675
 10
4.3444960821
 20
-19.8044634786
  0
LWPOLYLINE
  5
2B5
100
AcDbEntity
  8
RACCORDO
100
AcDbPolyline
 62
7
  6
CONTINUOUS
 90
5
 70
0
 10
4.4989918432
 20
-20.0065149653
 10
4.5179887708
 20
-20.0060157022
 10
4.5318105529
 20
-20.0055077314
 10
4.5406366775
 20
-20.0049874361
 10
4.5444671447
 20
-20.0044548162
  0
LINE
  5
2B6
100
AcDbEntity
  8
RACCORDO
100
AcDbLine
 62
253
  6
CONTINUOUS
 10
4.2510533962
 20
-19.8079117964
 11
4.2950006873
 21
-19.8070088065
  0
LINE
  5
2B7
100
AcDbEntity
  8
RACCORDO
100
AcDbLine
 62
7
  6
CONTINUOUS
 10
4.4465494797
 20
-20.0074656677
 11
4.4989918432
 21
-20.0065149653
  0
LINE
  5
2B8
100
AcDbEntity
  8
RACCORDO
100
AcDbLine
 62
253
  6
CONTINUOUS
 10
4.1950514094
 20
-19.8087126497
 11
4.2510533962
 21
-19.8079117964
  0
LINE
  5
2B9
100
AcDbEntity
  8
RACCORDO
100
AcDbLine
 62
7
  6
CONTINUOUS
 10
4.3349954466
 20
-20.0087070621
 11
4.4465494797
 21
-20.0074656677
  0
LINE
  5
2BA
100
AcDbEntity
  8
RACCORDO
100
AcDbLine
 62
253
  6
CONTINUOUS
 10
4.0921242565
 20
-19.8096632776
 11
4.1950514094
 21
-19.8087126497
  0
LWPOLYLINE
  5
2BB
100
AcDbEntity
  8
RACCORDO
100
AcDbPolyline
 62
253
  6
CONTINUOUS
 90
12
 70
0
 10
-4.6260250561
 20
-19.1510307272
 10
-4.6005437533
 20
-19.1508396644
 10
-4.5759226418
 20
-19.1505352682
 10
-4.5525755045
 20
-19.1501225326
 10
-4.5309006551
 20
-19.1496083701
 10
-4.5112721054
 20
-19.1490016099
 10
-4.4939917095
 20
-19.148311186
 10
-4.4793899557
 20
-19.1475498509
 10
-4.4677730757
 20
-19.1467354487
 10
-4.4592962171
 20
-19.1458842342
 10
-4.4540178822
 20
-19.1450093466
 10
-4.4519667385
 20
-19.1441254286
  0
LINE
  5
2BC
100
AcDbEntity
  8
RACCORDO
100
AcDbLine
 62
7
  6
CONTINUOUS
 10
4.0807227654
 20
-20.0100980929
 11
4.3349954466
 21
-20.0087070621
  0
LINE
  5
2BD
100
AcDbEntity
  8
RACCORDO
100
AcDbLine
 62
253
  6
CONTINUOUS
 10
3.9304721899
 20
-19.8103725777
 11
4.0921242565
 21
-19.8096632776
  0
LINE
  5
2BE
100
AcDbEntity
  8
RACCORDO
100
AcDbLine
 62
7
  6
CONTINUOUS
 10
3.8445737581
 20
-20.0104570103
 11
4.0807227654
 21
-20.0100980929
  0
LINE
  5
2BF
100
AcDbEntity
  8
RACCORDO
100
AcDbLine
 62
7
  6
CONTINUOUS
 10
9.5941424626
 20
-20.8738193966
 11
7.526172988
 21
-20.8738193966
  0
LINE
  5
2C0
100
AcDbEntity
  8
RACCORDO
100
AcDbLine
 62
7
  6
CONTINUOUS
 10
-7.526172988
 20
-20.8738193966
 11
-9.5941424626
 21
-20.8738193966
  0
LINE
  5
2C1
100
AcDbEntity
  8
RACCORDO
100
AcDbLine
 62
253
  6
CONTINUOUS
 10
-5.1288794371
 20
-20.8711510238
 11
-4.9289098981
 21
-20.8711510238
  0
LINE
  5
2C2
100
AcDbEntity
  8
RACCORDO
100
AcDbLine
 62
253
  6
CONTINUOUS
 10
5.1288794371
 20
-20.8711510238
 11
4.9289098981
 21
-20.8711510237
  0
LINE
  5
2C3
100
AcDbEntity
  8
RACCORDO
100
AcDbLine
 62
253
  6
CONTINUOUS
 10
6.5855385354
 20
-20.8710900996
 11
6.78553092
 21
-20.8710900996
  0
LINE
  5
2C4
100
AcDbEntity
  8
RACCORDO
100
AcDbLine
 62
253
  6
CONTINUOUS
 10
-6.5855385354
 20
-20.8710900996
 11
-6.78553092
 21
-20.8710900996
  0
LINE
  5
2C5
100
AcDbEntity
  8
RACCORDO
100
AcDbLine
 62
7
  6
CONTINUOUS
 10
6.2738422419
 20
-20.8476348052
 11
5.5523347338
 21
-20.8476348052
  0
LINE
  5
2C6
100
AcDbEntity
  8
RACCORDO
100
AcDbLine
 62
7
  6
CONTINUOUS
 10
-5.5523347338
 20
-20.8476348052
 11
-6.2738422419
 21
-20.8476348052
  0
LINE
  5
2C7
100
AcDbEntity
  8
ASSI
100
AcDbLine
 62
7
  6
CONTINUOUS
 10
-3.3850964806
 20
-20.8
 11
3.3850964806
 21
-20.8
  0
LINE
  5
2C8
100
AcDbEntity
  8
RACCORDO
100
AcDbLine
 62
253
  6
CONTINUOUS
 10
-7.2144614646
 20
-20.7855461508
 11
-7.01446908
 21
-20.7855461508
  0
LINE
  5
2C9
100
AcDbEntity
  8
RACCORDO
100
AcDbLine
 62
253
  6
CONTINUOUS
 10
7.2144614646
 20
-20.7855461508
 11
7.01446908
 21
-20.7855461507
  0
LINE
  5
2CA
100
AcDbEntity
  8
ASSI
100
AcDbLine
 62
7
  6
CONTINUOUS
 10
11.1261859216
 20
-20.4226497308
 11
11.0825449351
 21
-20.4226497308
  0
LINE
  5
2CB
100
AcDbEntity
  8
ASSI
100
AcDbLine
 62
7
  6
CONTINUOUS
 10
-11.1261859216
 20
-20.4226497308
 11
-11.0825449351
 21
-20.4226497308
  0
LINE
  5
2CC
100
AcDbEntity
  8
RACCORDO
100
AcDbLine
 62
253
  6
CONTINUOUS
 10
5.1288794371
 20
-20.28553092
 11
-5.1288794371
 21
-20.28553092
  0
LINE
  5
2CD
100
AcDbEntity
  8
RACCORDO
100
AcDbLine
 62
7
  6
CONTINUOUS
 10
-4.9289098981
 20
-20.0855385354
 11
4.9289098981
 21
-20.0855385354
  0
LINE
  5
2CE
100
AcDbEntity
  8
RACCORDO
100
AcDbLine
 62
7
  6
CONTINUOUS
 10
-5.1523651936
 20
-19.9738193966
 11
-4.6057426505
 21
-19.9738193966
  0
LINE
  5
2CF
100
AcDbEntity
  8
RACCORDO
100
AcDbLine
 62
7
  6
CONTINUOUS
 10
4.6057426505
 20
-19.9738193966
 11
5.1523651936
 21
-19.9738193966
  0
LINE
  5
2D0
100
AcDbEntity
  8
RACCORDO
100
AcDbLine
 62
253
  6
CONTINUOUS
 10
6.5855385354
 20
-19.9705349127
 11
7.2144614646
 21
-19.9705349127
  0
LINE
  5
2D1
100
AcDbEntity
  8
RACCORDO
100
AcDbLine
 62
253
  6
CONTINUOUS
 10
-6.5855385354
 20
-19.9705349127
 11
-7.2144614646
 21
-19.9705349127
  0
LINE
  5
2D2
100
AcDbEntity
  8
RACCORDO
100
AcDbLine
 62
253
  6
CONTINUOUS
 10
-7.01446908
 20
-19.7712959731
 11
-6.78553092
 21
-19.7712959731
  0
LINE
  5
2D3
100
AcDbEntity
  8
RACCORDO
100
AcDbLine
 62
253
  6
CONTINUOUS
 10
6.78553092
 20
-19.7712959731
 11
7.01446908
 21
-19.7712959731
  0
LINE
  5
2D4
100
AcDbEntity
  8
RACCORDO
100
AcDbLine
 62
253
  6
CONTINUOUS
 10
-9.5941424626
 20
-19.7676913781
 11
-7.3261806034
 21
-19.7676913781
  0
LINE
  5
2D5
100
AcDbEntity
  8
RACCORDO
100
AcDbLine
 62
253
  6
CONTINUOUS
 10
7.3261806034
 20
-19.7676913781
 11
9.5941424626
 21
-19.7676913781
  0
LINE
  5
2D6
100
AcDbEntity
  8
RACCORDO
100
AcDbLine
 62
253
  6
CONTINUOUS
 10
-6.4738193966
 20
-19.7676913781
 11
-4.402312563
 21
-19.7676913766
  0
LINE
  5
2D7
100
AcDbEntity
  8
RACCORDO
100
AcDbLine
 62
253
  6
CONTINUOUS
 10
4.402312563
 20
-19.7676913781
 11
6.4738193966
 21
-19.7676913781
  0
LINE
  5
2D8
100
AcDbEntity
  8
RACCORDO
100
AcDbLine
 62
253
  6
CONTINUOUS
 10
-9.5891800013
 20
-19.4681025177
 11
-7.3261806034
 21
-19.4681025177
  0
LINE
  5
2D9
100
AcDbEntity
  8
RACCORDO
100
AcDbLine
 62
253
  6
CONTINUOUS
 10
-6.4738193966
 20
-19.4681025177
 11
-4.6105528707
 21
-19.4681025177
  0
LINE
  5
2DA
100
AcDbEntity
  8
RACCORDO
100
AcDbLine
 62
253
  6
CONTINUOUS
 10
4.6105528707
 20
-19.4681025177
 11
6.4738193966
 21
-19.4681025177
  0
LINE
  5
2DB
100
AcDbEntity
  8
RACCORDO
100
AcDbLine
 62
253
  6
CONTINUOUS
 10
7.3261806034
 20
-19.4681025177
 11
9.5891800013
 21
-19.4681025177
  0
LINE
  5
2DC
100
AcDbEntity
  8
RACCORDO
100
AcDbLine
 62
253
  6
CONTINUOUS
 10
9.5477965945
 20
-19.3438513356
 11
7.3261806034
 21
-19.3438513356
  0
LINE
  5
2DD
100
AcDbEntity
  8
RACCORDO
100
AcDbLine
 62
253
  6
CONTINUOUS
 10
6.4738193966
 20
-19.3438513356
 11
4.6519362776
 21
-19.3438513356
  0
LINE
  5
2DE
100
AcDbEntity
  8
RACCORDO
100
AcDbLine
 62
253
  6
CONTINUOUS
 10
-4.6519362775
 20
-19.3438513356
 11
-6.4738193966
 21
-19.3438513356
  0
LINE
  5
2DF
100
AcDbEntity
  8
RACCORDO
100
AcDbLine
 62
253
  6
CONTINUOUS
 10
-7.3261806034
 20
-19.3438513356
 11
-9.5477965945
 21
-19.3438513356
  0
LINE
  5
2E0
100
AcDbEntity
  8
RACCORDO
100
AcDbLine
 62
253
  6
CONTINUOUS
 10
9.5444904137
 20
-19.151105328
 11
7.3261806034
 21
-19.151105328
  0
LINE
  5
2E1
100
AcDbEntity
  8
RACCORDO
100
AcDbLine
 62
253
  6
CONTINUOUS
 10
-4.6260250561
 20
-19.1510307272
 11
-6.4738193966
 21
-19.151105328
  0
LINE
  5
2E2
100
AcDbEntity
  8
RACCORDO
100
AcDbLine
 62
253
  6
CONTINUOUS
 10
-7.3261806034
 20
-19.151105328
 11
-9.5444904136
 21
-19.151105328
  0
LINE
  5
2E3
100
AcDbEntity
  8
RACCORDO
100
AcDbLine
 62
253
  6
CONTINUOUS
 10
-3.9723638438
 20
-19.810261719
 11
3.9304721899
 21
-19.8103725777
  0
LWPOLYLINE
  5
2E4
100
AcDbEntity
  8
RACCORDO
100
AcDbPolyline
 62
253
  6
CONTINUOUS
 90
13
 70
0
 10
6.4738193966
 20
-19.151105328
 10
4.626025057
 20
-19.1510307272
 10
4.6005437544
 20
-19.1508396644
 10
4.5759226426
 20
-19.1505352683
 10
4.5525755038
 20
-19.1501225325
 10
4.5309006525
 20
-19.1496083701
 10
4.5112721024
 20
-19.1490016098
 10
4.493991708
 20
-19.1483111859
 10
4.4793899562
 20
-19.1475498509
 10
4.4677730769
 20
-19.1467354488
 10
4.4592962179
 20
-19.1458842343
 10
4.4540178825
 20
-19.1450093467
 10
4.4519667385
 20
-19.1441254286
  0
LINE
  5
2E5
100
AcDbEntity
  8
RACCORDO
100
AcDbLine
 62
7
  6
CONTINUOUS
 10
-4.1367866311
 20
-20.0098983295
 11
3.8445737581
 21
-20.0104570103
  0
LINE
  5
2E6
100
AcDbEntity
  8
RACCORDO
100
AcDbLine
 62
253
  6
CONTINUOUS
 10
-4.128521126
 20
-19.809384335
 11
-3.9723638438
 21
-19.810261719
  0
LINE
  5
2E7
100
AcDbEntity
  8
RACCORDO
100
AcDbLine
 62
7
  6
CONTINUOUS
 10
-4.3348245622
 20
-20.0087085243
 11
-4.1367866311
 21
-20.0098983295
  0
LINE
  5
2E8
100
AcDbEntity
  8
RACCORDO
100
AcDbLine
 62
253
  6
CONTINUOUS
 10
-4.2243576243
 20
-19.8083298285
 11
-4.128521126
 21
-19.809384335
  0
LINE
  5
2E9
100
AcDbEntity
  8
RACCORDO
100
AcDbLine
 62
7
  6
CONTINUOUS
 10
-4.4464817217
 20
-20.0074666564
 11
-4.3348245622
 21
-20.0087085243
  0
LWPOLYLINE
  5
2EA
100
AcDbEntity
  8
RACCORDO
100
AcDbPolyline
 62
253
  6
CONTINUOUS
 90
13
 70
0
 10
7.8614548332
 20
-20.9855385354
 10
7.8875534756
 20
-20.9872531282
 10
7.9132056561
 20
-20.9923596258
 10
7.9379725471
 20
-21.0007706733
 10
7.9614304484
 20
-21.0123423761
 10
7.9831780879
 20
-21.0268767852
 10
8.0028434723
 20
-21.0441253045
 10
8.0200901951
 20
-21.0637929126
 10
8.0346231689
 20
-21.085543148
 10
8.0461937362
 20
-21.1090038897
 10
8.0546039514
 20
-21.1337737757
 10
8.059709947
 20
-21.1594290817
 10
8.0614243722
 20
-21.18553092
  0
LWPOLYLINE
  5
2EB
100
AcDbEntity
  8
RACCORDO
100
AcDbPolyline
 62
253
  6
CONTINUOUS
 90
13
 70
0
 10
4.9289098981
 20
-20.0855385354
 10
4.9550085405
 20
-20.0872531282
 10
4.9806607198
 20
-20.0923596255
 10
5.0054276084
 20
-20.1007706719
 10
5.0288855063
 20
-20.1123423721
 10
5.0506331421
 20
-20.126876777
 10
5.0702985238
 20
-20.1441252911
 10
5.0875452445
 20
-20.1637928923
 10
5.1020782178
 20
-20.1855431202
 10
5.1136487884
 20
-20.209003859
 10
5.1220590092
 20
-20.2337737492
 10
5.1271650098
 20
-20.2594290654
 10
5.1288794371
 20
-20.28553092
  0
LWPOLYLINE
  5
2EC
100
AcDbEntity
  8
RACCORDO
100
AcDbPolyline
 62
253
  6
CONTINUOUS
 90
13
 70
0
 10
4.5444671447
 20
-20.0044548162
 10
4.5183683981
 20
-20.0027402097
 10
4.4927161218
 20
-19.9976336722
 10
4.4679491485
 20
-19.9892225613
 10
4.4444911658
 20
-19.9776507655
 10
4.4227434687
 20
-19.9631162431
 10
4.4030780941
 20
-19.9458676356
 10
4.3858314569
 20
-19.9262000144
 10
4.3712985947
 20
-19.9044498326
 10
4.3597281206
 20
-19.8809891699
 10
4.3513179705
 20
-19.856219367
 10
4.3462120164
 20
-19.83056416
 10
4.3444976056
 20
-19.8044624316
  0
LWPOLYLINE
  5
2ED
100
AcDbEntity
  8
RACCORDO
100
AcDbPolyline
 62
253
  6
CONTINUOUS
 90
13
 70
0
 10
-6.78553092
 20
-19.7712959731
 10
-6.7594393394
 20
-19.773018598
 10
-6.7337937546
 20
-19.7781174883
 10
-6.7090325415
 20
-19.7865054869
 10
-6.6855789752
 20
-19.7980392042
 10
-6.6638339436
 20
-19.8125214939
 10
-6.6441691077
 20
-19.8297048426
 10
-6.6269206045
 20
-19.849295571
 10
-6.6123833236
 20
-19.8709587919
 10
-6.6008058038
 20
-19.8943241597
 10
-6.5923859567
 20
-19.9189922531
 10
-6.5872677029
 20
-19.9445414153
 10
-6.5855385354
 20
-19.9705349127
  0
LWPOLYLINE
  5
2EE
100
AcDbEntity
  8
RACCORDO
100
AcDbPolyline
 62
253
  6
CONTINUOUS
 90
13
 70
0
 10
7.01446908
 20
-19.7712959731
 10
7.0405606606
 20
-19.773018598
 10
7.0662062454
 20
-19.7781174883
 10
7.0909674585
 20
-19.7865054869
 10
7.1144210248
 20
-19.7980392042
 10
7.1361660564
 20
-19.8125214939
 10
7.1558308923
 20
-19.8297048426
 10
7.1730793955
 20
-19.849295571
 10
7.1876166764
 20
-19.8709587919
 10
7.1991941962
 20
-19.8943241597
 10
7.2076140433
 20
-19.9189922531
 10
7.2127322971
 20
-19.9445414153
 10
7.2144614646
 20
-19.9705349127
  0
LWPOLYLINE
  5
2EF
100
AcDbEntity
  8
RACCORDO
100
AcDbPolyline
 62
253
  6
CONTINUOUS
 90
13
 70
0
 10
4.6105528707
 20
-19.4681025177
 10
4.584466688
 20
-19.4663720208
 10
4.558826329
 20
-19.4612577007
 10
4.5340699978
 20
-19.452846963
 10
4.5106207906
 20
-19.4412835509
 10
4.4888794639
 20
-19.4267650878
 10
4.4692175859
 20
-19.4095397003
 10
4.4519711863
 20
-19.3899017773
 10
4.4374350131
 20
-19.368186939
 10
4.4258574956
 20
-19.344766301
 10
4.4174364983
 20
-19.3200401317
 10
4.4123159395
 20
-19.2944310115
 10
4.4105833317
 20
-19.2683766108
  0
LWPOLYLINE
  5
2F0
100
AcDbEntity
  8
RACCORDO
100
AcDbPolyline
 62
253
  6
CONTINUOUS
 90
13
 70
0
 10
4.6519362776
 20
-19.3438513356
 10
4.6258501653
 20
-19.342120848
 10
4.6002098733
 20
-19.3370065554
 10
4.5754536023
 20
-19.3285958628
 10
4.5520044575
 20
-19.3170325189
 10
4.5302631777
 20
-19.3025141411
 10
4.5106012971
 20
-19.2852888221
 10
4.4933548395
 20
-19.2656509157
 10
4.4788185878
 20
-19.243936047
 10
4.4672410009
 20
-19.2205153561
 10
4.458819952
 20
-19.1957891239
 10
4.4536993588
 20
-19.1701799234
 10
4.4519667385
 20
-19.1441254286
  0
LINE
  5
2F1
100
AcDbEntity
  8
RACCORDO
100
AcDbLine
 62
7
  6
CONTINUOUS
 10
4.580541121
 20
-19.9718293151
 11
4.602282102
 21
-19.9738193966
  0
LWPOLYLINE
  5
2F2
100
AcDbEntity
  8
RACCORDO
100
AcDbPolyline
 62
7
  6
CONTINUOUS
 90
6
 70
0
 10
-4.5444671447
 20
-20.0044548162
 10
-4.5406367769
 20
-20.0049875607
 10
-4.5318061946
 20
-20.0055079967
 10
-4.517975398
 20
-20.0060161242
 10
-4.4989651852
 20
-20.0065155689
 10
-4.4464817217
 20
-20.0074666564
  0
LWPOLYLINE
  5
2F3
100
AcDbEntity
  8
RACCORDO
100
AcDbPolyline
 62
253
  6
CONTINUOUS
 90
8
 70
0
 10
-4.3444960412
 20
-19.8044635065
 10
-4.3418744162
 20
-19.8049960819
 10
-4.33554943
 20
-19.8055162762
 10
-4.3255685492
 20
-19.8060240893
 10
-4.3120062402
 20
-19.8065231048
 10
-4.294963955
 20
-19.8070097392
 10
-4.2745698493
 20
-19.8074732421
 10
-4.2243576243
 20
-19.8083298285
  0
LINE
  5
2F4
100
AcDbEntity
  8
RACCORDO
100
AcDbLine
 62
253
  6
CONTINUOUS
 10
-5.1288794371
 20
-20.28553092
 11
-5.3523651948
 21
-20.1737965513
  0
LINE
  5
2F5
100
AcDbEntity
  8
RACCORDO
100
AcDbLine
 62
253
  6
CONTINUOUS
 10
-4.9289098981
 20
-20.0855385354
 11
-5.1523651936
 21
-19.9738193966
  0
LINE
  5
2F6
100
AcDbEntity
  8
RACCORDO
100
AcDbLine
 62
253
  6
CONTINUOUS
 10
-4.6057426505
 20
-19.9738193966
 11
-4.5444671447
 21
-20.0044548162
  0
LINE
  5
2F7
100
AcDbEntity
  8
RACCORDO
100
AcDbLine
 62
253
  6
CONTINUOUS
 10
-4.402312563
 20
-19.7755571545
 11
-4.3444960492
 21
-19.8044632098
  0
LINE
  5
2F8
100
AcDbEntity
  8
RACCORDO
100
AcDbLine
 62
253
  6
CONTINUOUS
 10
-7.414255367
 20
-20.9855385354
 11
-7.526172988
 21
-20.8738193966
  0
LINE
  5
2F9
100
AcDbEntity
  8
RACCORDO
100
AcDbLine
 62
253
  6
CONTINUOUS
 10
-7.2144614646
 20
-20.7855365134
 11
-7.3261806034
 21
-20.673827012
  0
LINE
  5
2FA
100
AcDbEntity
  8
ASSI
100
AcDbLine
 62
253
  6
CONTINUOUS
 10
-3.7499619238
 20
-23.9825449351
 11
-3.8306228363
 21
-23.9018840226
  0
LINE
  5
2FB
100
AcDbEntity
  8
ASSI
100
AcDbLine
 62
253
  6
CONTINUOUS
 10
-3.5
 20
-23.7325830113
 11
-3.5806626995
 21
-23.6519203118
  0
LINE
  5
2FC
100
AcDbEntity
  8
RACCORDO
100
AcDbLine
 62
7
  6
CONTINUOUS
 10
-7.8805013715
 20
-21.6348351518
 11
-7.9779147861
 21
-21.5374228738
  0
LINE
  5
2FD
100
AcDbEntity
  8
RACCORDO
100
AcDbLine
 62
7
  6
CONTINUOUS
 10
-7.544285177
 20
-21.9741180033
 11
-7.8805013715
 21
-21.6348351518
  0
LINE
  5
2FE
100
AcDbEntity
  8
RACCORDO
100
AcDbLine
 62
7
  6
CONTINUOUS
 10
-7.4222559615
 20
-22.0983097071
 11
-7.544285177
 21
-21.9741180033
  0
LINE
  5
2FF
100
AcDbEntity
  8
RACCORDO
100
AcDbLine
 62
7
  6
CONTINUOUS
 10
-7.3595270589
 20
-22.1627618209
 11
-7.4222559615
 21
-22.0983097071
  0
LINE
  5
300
100
AcDbEntity
  8
RACCORDO
100
AcDbLine
 62
253
  6
CONTINUOUS
 10
-5.6440771199
 20
20.7558924191
 11
-5.3288983544
 21
21.0710976899
  0
LINE
  5
301
100
AcDbEntity
  8
RACCORDO
100
AcDbLine
 62
253
  6
CONTINUOUS
 10
-5.4444055569
 20
20.5556249041
 11
-5.1288794371
 21
20.8711415107
  0
LINE
  5
302
100
AcDbEntity
  8
DRAFT
100
AcDbLine
 62
7
  6
CONTINUOUS
 10
-8.7831563161
 20
17.2168436839
 11
-8.7746920834
 21
17.2253079166
  0
LINE
  5
303
100
AcDbEntity
  8
ASSI
100
AcDbLine
 62
7
  6
CONTINUOUS
 10
-3.5806609125
 20
22.3018840226
 11
-3.5
 21
22.3825449351
  0
LINE
  5
304
100
AcDbEntity
  8
ASSI
100
AcDbLine
 62
253
  6
CONTINUOUS
 10
-1.0674169887
 20
23.9825449351
 11
-1.0499619238
 21
24.0
  0
LINE
  5
305
100
AcDbEntity
  8
ASSI
100
AcDbLine
 62
7
  6
CONTINUOUS
 10
-3.1173032135
 20
21.6326967865
 11
-3.05
 21
21.7
  0
LINE
  5
306
100
AcDbEntity
  8
DRAFT
100
AcDbLine
 62
7
  6
CONTINUOUS
 10
-9.8414773842
 20
14.8085226158
 11
-9.55
 21
15.1
  0
LINE
  5
307
100
AcDbEntity
  8
ASSI
100
AcDbLine
 62
253
  6
CONTINUOUS
 10
-0.8174550649
 20
23.7325830113
 11
-0.8
 21
23.7500380762
  0
LINE
  5
308
100
AcDbEntity
  8
DRAFT
100
AcDbLine
 62
7
  6
CONTINUOUS
 10
-9.5872686779
 20
14.8085226158
 11
-9.5
 21
14.8957912937
  0
LWPOLYLINE
  5
309
100
AcDbEntity
  8
RACCORDO
100
AcDbPolyline
 62
253
  6
CONTINUOUS
 90
19
 70
0
 10
-3.9532603211
 20
-17.1538261917
 10
-4.0146970082
 20
-17.1565890067
 10
-4.0748525682
 20
-17.1644830528
 10
-4.1337270009
 20
-17.17750833
 10
-4.1917800924
 20
-17.1958449924
 10
-4.2485520567
 20
-17.2193128858
 10
-4.302663536
 20
-17.247371548
 10
-4.3540167234
 20
-17.2801181767
 10
-4.4027094257
 20
-17.3174555741
 10
-4.447655706
 20
-17.3585516852
 10
-4.4887735071
 20
-17.4034901712
 10
-4.5261448861
 20
-17.4521873709
 10
-4.5589300775
 20
-17.503560245
 10
-4.5870315641
 20
-17.5576801557
 10
-4.610546863
 20
-17.6144757409
 10
-4.6289287606
 20
-17.6726498759
 10
-4.6419948522
 20
-17.7317701857
 10
-4.6499275425
 20
-17.7922690452
 10
-4.6527268314
 20
-17.8541464545
  0
LWPOLYLINE
  5
30A
100
AcDbEntity
  8
RACCORDO
100
AcDbPolyline
 62
253
  6
CONTINUOUS
 90
19
 70
0
 10
-3.8445737581
 20
-17.4555023943
 10
-3.8881365671
 20
-17.4574172869
 10
-3.9313679653
 20
-17.4631208596
 10
-3.9739390632
 20
-17.4725697215
 10
-4.0155259945
 20
-17.485691989
 10
-4.0558123803
 20
-17.5023878324
 10
-4.0944917356
 20
-17.5225302355
 10
-4.1312698013
 20
-17.5459659618
 10
-4.1658667826
 20
-17.5725167205
 10
-4.1980194775
 20
-17.6019805225
 10
-4.2274832795
 20
-17.6341332174
 10
-4.2540340382
 20
-17.6687301987
 10
-4.2774697645
 20
-17.7055082644
 10
-4.2976121676
 20
-17.7441876197
 10
-4.314308011
 20
-17.7844740055
 10
-4.3274302785
 20
-17.8260609368
 10
-4.3368791404
 20
-17.8686320347
 10
-4.3425827131
 20
-17.9118634329
 10
-4.3444976057
 20
-17.9554262419
  0
LWPOLYLINE
  5
30B
100
AcDbEntity
  8
RACCORDO
100
AcDbPolyline
 62
253
  6
CONTINUOUS
 90
19
 70
0
 10
-3.953279883
 20
-17.3468158327
 10
-3.9968422822
 20
-17.3487147637
 10
-4.0400706261
 20
-17.354404979
 10
-4.0826362725
 20
-17.3638437173
 10
-4.1242189153
 20
-17.3769610331
 10
-4.1644985405
 20
-17.3936570441
 10
-4.2031590614
 20
-17.4137997131
 10
-4.2399014041
 20
-17.4372298344
 10
-4.2744542881
 20
-17.4637705636
 10
-4.3065647303
 20
-17.4932259868
 10
-4.3359881322
 20
-17.5253730326
 10
-4.3625005043
 20
-17.5599680542
 10
-4.3859060492
 20
-17.5967577689
 10
-4.406025971
 20
-17.6354699646
 10
-4.4227005913
 20
-17.675807243
 10
-4.4357988443
 20
-17.717457344
 10
-4.4452187888
 20
-17.7601016997
 10
-4.4508867885
 20
-17.8034185065
 10
-4.4527573644
 20
-17.8470783544
  0
LWPOLYLINE
  5
30C
100
AcDbEntity
  8
RACCORDO
100
AcDbPolyline
 62
253
  6
CONTINUOUS
 90
13
 70
0
 10
-4.6527268314
 20
-17.8541464545
 10
-4.6269098492
 20
-17.85407234
 10
-4.6015248604
 20
-17.8538826716
 10
-4.5769966299
 20
-17.853580623
 10
-4.5537355868
 20
-17.8531712483
 10
-4.532130956
 20
-17.8526613976
 10
-4.5125442462
 20
-17.8520596021
 10
-4.4953032001
 20
-17.8513759316
 10
-4.4806963107
 20
-17.850621826
 10
-4.4689679939
 20
-17.8498099037
 10
-4.4603144987
 20
-17.8489537504
 10
-4.4548806234
 20
-17.8480676921
 10
-4.4527572924
 20
-17.8471665552
  0
LINE
  5
30D
100
AcDbEntity
  8
RACCORDO
100
AcDbLine
 62
7
  6
CONTINUOUS
 10
7.126325107
 20
-18.6499160521
 11
6.673674893
 21
-18.6499160521
  0
LINE
  5
30E
100
AcDbEntity
  8
RACCORDO
100
AcDbLine
 62
7
  6
CONTINUOUS
 10
-6.673674893
 20
-18.6499160521
 11
-7.126325107
 21
-18.6499160521
  0
LINE
  5
30F
100
AcDbEntity
  8
RACCORDO
100
AcDbLine
 62
253
  6
CONTINUOUS
 10
4.3444976057
 20
-17.9554262419
 11
-4.3444976057
 21
-17.9554262419
  0
LINE
  5
310
100
AcDbEntity
  8
RACCORDO
100
AcDbLine
 62
253
  6
CONTINUOUS
 10
3.8445737581
 20
-17.4555023943
 11
-3.8445737581
 21
-17.4555023943
  0
LINE
  5
311
100
AcDbEntity
  8
RACCORDO
100
AcDbLine
 62
253
  6
CONTINUOUS
 10
3.9532603211
 20
-17.3468158314
 11
-3.9532798839
 21
-17.3468158314
  0
LINE
  5
312
100
AcDbEntity
  8
RACCORDO
100
AcDbLine
 62
253
  6
CONTINUOUS
 10
3.9532603211
 20
-17.1538261917
 11
-3.9532603211
 21
-17.1538261917
  0
LINE
  5
313
100
AcDbEntity
  8
DRAFT
100
AcDbLine
 62
7
  6
CONTINUOUS
 10
9.5432634574
 20
-17.1381978935
 11
7.3471895691
 21
-17.1381978935
  0
LINE
  5
314
100
AcDbEntity
  8
DRAFT
100
AcDbLine
 62
7
  6
CONTINUOUS
 10
-7.3471895691
 20
-17.1381978935
 11
-9.5432634574
 21
-17.1381978935
  0
LINE
  5
315
100
AcDbEntity
  8
DRAFT
100
AcDbLine
 62
7
  6
CONTINUOUS
 10
4.0511995689
 20
-16.8765870314
 11
-4.0511995689
 21
-16.8765870314
  0
LINE
  5
316
100
AcDbEntity
  8
DRAFT
100
AcDbLine
 62
7
  6
CONTINUOUS
 10
-9.4925054846
 20
-16.8514272135
 11
-7.6339602491
 21
-16.8514272135
  0
LINE
  5
317
100
AcDbEntity
  8
DRAFT
100
AcDbLine
 62
7
  6
CONTINUOUS
 10
7.6339602491
 20
-16.8514272135
 11
9.4925054846
 21
-16.8514272135
  0
LWPOLYLINE
  5
318
100
AcDbEntity
  8
RACCORDO
100
AcDbPolyline
 62
253
  6
CONTINUOUS
 90
13
 70
0
 10
4.6527268314
 20
-17.8541464545
 10
4.6269077415
 20
-17.8540723293
 10
4.6015211755
 20
-17.8538826355
 10
4.5769919473
 20
-17.8535805535
 10
4.5537305123
 20
-17.8531711446
 10
4.5321260246
 20
-17.8526612647
 10
4.5125398472
 20
-17.8520594488
 10
4.495299635
 20
-17.8513757707
 10
4.4806937419
 20
-17.8506216731
 10
4.4689663861
 20
-17.8498097718
 10
4.4603136979
 20
-17.848953651
 10
4.4548803925
 20
-17.8480676373
 10
4.4527572924
 20
-17.8471665552
  0
LWPOLYLINE
  5
319
100
AcDbEntity
  8
RACCORDO
100
AcDbPolyline
 62
253
  6
CONTINUOUS
 90
6
 70
0
 10
5.1730036969
 20
-21.2428404216
 10
5.203393799
 20
-21.2571787652
 10
5.2341756652
 20
-21.2683122877
 10
5.2653492957
 20
-21.2762434428
 10
5.2969146903
 20
-21.2809751913
 10
5.3288718492
 20
-21.2825097805
  0
LWPOLYLINE
  5
31A
100
AcDbEntity
  8
RACCORDO
100
AcDbPolyline
 62
253
  6
CONTINUOUS
 90
7
 70
0
 10
5.2359058453
 20
-21.0482453455
 10
5.2507215464
 20
-21.055250351
 10
5.2659558446
 20
-21.0609843448
 10
5.2814983482
 20
-21.0654347615
 10
5.2972401813
 20
-21.0685984498
 10
5.3130747361
 20
-21.0704812761
 10
5.3288983659
 20
-21.0710976766
  0
LINE
  5
31B
100
AcDbEntity
  8
RACCORDO
100
AcDbLine
 62
253
  6
CONTINUOUS
 10
-5.5523347338
 20
-20.8476348052
 11
-5.3288718492
 21
-21.0710976899
  0
LINE
  5
31C
100
AcDbEntity
  8
RACCORDO
100
AcDbLine
 62
253
  6
CONTINUOUS
 10
-5.3523651948
 20
-20.6476652662
 11
-5.1288794371
 21
-20.871139329
  0
LINE
  5
31D
100
AcDbEntity
  8
ASSI
100
AcDbLine
 62
7
  6
CONTINUOUS
 10
-3.5
 20
-22.3825449351
 11
-3.5806609125
 21
-22.3018840226
  0
LINE
  5
31E
100
AcDbEntity
  8
ASSI
100
AcDbLine
 62
253
  6
CONTINUOUS
 10
-1.0499619238
 20
-24.0
 11
-1.0674169887
 21
-23.9825449351
  0
LINE
  5
31F
100
AcDbEntity
  8
ASSI
100
AcDbLine
 62
7
  6
CONTINUOUS
 10
-3.1173032135
 20
-21.6326967865
 11
-3.05
 21
-21.7
  0
LINE
  5
320
100
AcDbEntity
  8
ASSI
100
AcDbLine
 62
253
  6
CONTINUOUS
 10
-0.8
 20
-23.7500380762
 11
-0.8174550649
 21
-23.7325830113
  0
LINE
  5
321
100
AcDbEntity
  8
DRAFT
100
AcDbLine
 62
7
  6
CONTINUOUS
 10
-7.6339602491
 20
-16.8514272135
 11
-7.3471895691
 21
-17.1381978935
  0
LWPOLYLINE
  5
322
100
AcDbEntity
  8
RACCORDO
100
AcDbPolyline
 62
7
  6
CONTINUOUS
 90
7
 70
0
 10
-7.3012233427
 20
-22.2251447178
 10
-7.3024886934
 20
-22.2232979827
 10
-7.3060916649
 20
-22.2191130679
 10
-7.312032257
 20
-22.2125899734
 10
-7.3202419806
 20
-22.2037965168
 10
-7.3307893249
 20
-22.1926648806
 10
-7.3595270589
 20
-22.1627618209
  0
LWPOLYLINE
  5
323
100
AcDbEntity
  8
ASSI
100
AcDbPolyline
 62
253
  6
CONTINUOUS
 90
10
 70
0
 10
-7.2131674569
 20
-24.286863004
 10
-7.2132092571
 20
-24.2867801752
 10
-7.2132518534
 20
-24.2865573861
 10
-7.2132952457
 20
-24.2861946369
 10
-7.2133396932
 20
-24.2856980068
 10
-7.2133849368
 20
-24.2850614166
 10
-7.2134301993
 20
-24.2842666281
 10
-7.2134755016
 20
-24.2833085273
 10
-7.2135208229
 20
-24.2821922282
 10
-7.2135653227
 20
-24.2809148341
  0
LWPOLYLINE
  5
324
100
AcDbEntity
  8
RACCORDO
100
AcDbPolyline
 62
7
  6
CONTINUOUS
 90
18
 70
0
 10
-9.2486707983
 20
11.4729589635
 10
-9.2713550551
 20
11.4478357462
 10
-9.293378329
 20
11.4231932794
 10
-9.3147199919
 20
11.3990299695
 10
-9.335259452
 20
11.3753474101
 10
-9.354975865
 20
11.352140119
 10
-9.3738379005
 20
11.3294546596
 10
-9.3917805271
 20
11.3072444686
 10
-9.4087426865
 20
11.2853643739
 10
-9.424740465
 20
11.2639125275
 10
-9.43969364
 20
11.2427907773
 10
-9.4534003501
 20
11.2215594952
 10
-9.4660712667
 20
11.2001398829
 10
-9.4774533291
 20
11.1786107387
 10
-9.4866429107
 20
11.156768829
 10
-9.4933244156
 20
11.1345464093
 10
-9.4977795344
 20
11.1120112242
 10
-9.5
 20
11.0891632737
  0
LWPOLYLINE
  5
325
100
AcDbEntity
  8
RACCORDO
100
AcDbPolyline
 62
7
  6
CONTINUOUS
 90
4
 70
0
 10
-8.8690493006
 20
11.8782823323
 10
-8.8917225136
 20
11.853435236
 10
-8.90813009
 20
11.8356355989
 10
-8.9486592218
 20
11.7928979288
  0
LWPOLYLINE
  5
326
100
AcDbEntity
  8
RACCORDO
100
AcDbPolyline
 62
7
  6
CONTINUOUS
 90
3
 70
0
 10
-9.1764509717
 20
11.5514299552
 10
-9.2011049776
 20
11.524756068
 10
-9.2486707983
 20
11.4729589635
  0
LINE
  5
327
100
AcDbEntity
  8
RACCORDO
100
AcDbLine
 62
7
  6
CONTINUOUS
 10
-9.0999433148
 20
11.6331432353
 11
-9.1764509717
 21
11.5514299552
  0
LINE
  5
328
100
AcDbEntity
  8
RACCORDO
100
AcDbLine
 62
7
  6
CONTINUOUS
 10
-8.9486592218
 20
11.7928979288
 11
-8.9720336307
 21
11.7679598959
  0
LWPOLYLINE
  5
329
100
AcDbEntity
  8
RACCORDO
100
AcDbPolyline
 62
7
  6
CONTINUOUS
 90
3
 70
0
 10
-9.0220265641
 20
11.7155688859
 10
-9.0739114916
 20
11.6605867816
 10
-9.0999433148
 20
11.6331432353
  0
LINE
  5
32A
100
AcDbEntity
  8
RACCORDO
100
AcDbLine
 62
7
  6
CONTINUOUS
 10
-8.9720336307
 20
11.7679598959
 11
-9.0220265641
 21
11.7155688859
  0
LINE
  5
32B
100
AcDbEntity
  8
DRAFT
100
AcDbLine
 62
7
  6
CONTINUOUS
 10
-7.9542087063
 20
14.8957912937
 11
-7.7255647702
 21
15.1244352298
  0
LINE
  5
32C
100
AcDbEntity
  8
DRAFT
100
AcDbLine
 62
7
  6
CONTINUOUS
 10
-7.6932753594
 20
13.7322894108
 11
-7.7255647702
 21
13.7
  0
LINE
  5
32D
100
AcDbEntity
  8
RACCORDO
100
AcDbLine
 62
7
  6
CONTINUOUS
 10
-8.75
 20
12.0
 11
-8.8608443418
 21
11.8891556582
  0
LWPOLYLINE
  5
32E
100
AcDbEntity
  8
RACCORDO
100
AcDbPolyline
 62
253
  6
CONTINUOUS
 90
13
 70
0
 10
5.1430053589
 20
21.2252970227
 10
5.1113671674
 20
21.2067238792
 10
5.081960039
 20
21.1857706637
 10
5.0547839735
 20
21.1624373761
 10
5.0296494986
 20
21.1364858591
 10
5.0067460868
 20
21.10815427
 10
4.9866421554
 20
21.0781570809
 10
4.9694173473
 20
21.0464907553
 10
4.9549920198
 20
21.0131588296
 10
4.9436956621
 20
20.9788863855
 10
4.9356381042
 20
20.9439151168
 10
4.9307095162
 20
20.9080033296
 10
4.9289098981
 20
20.8711510238
  0
LWPOLYLINE
  5
32F
100
AcDbEntity
  8
RACCORDO
100
AcDbPolyline
 62
253
  6
CONTINUOUS
 90
13
 70
0
 10
5.2359058453
 20
21.0482453455
 10
5.2202837009
 20
21.0391274438
 10
5.2055460534
 20
21.0286312044
 10
5.1918143795
 20
21.0168413022
 10
5.1791985992
 20
21.0038491395
 10
5.1678074207
 20
20.989763462
 10
5.1577437201
 20
20.9747125445
 10
5.1490967896
 20
20.9588398604
 10
5.1419225122
 20
20.942259662
 10
5.1362643022
 20
20.9250638435
 10
5.1321749629
 20
20.9073750141
 10
5.1297032743
 20
20.8893509649
 10
5.12887944
 20
20.8711393265
  0
LINE
  5
330
100
AcDbEntity
  8
DRAFT
100
AcDbLine
 62
7
  6
CONTINUOUS
 10
6.0
 20
-15.3839326584
 11
6.7019074668
 21
-15.2085226158
  0
LWPOLYLINE
  5
331
100
AcDbEntity
  8
RACCORDO
100
AcDbPolyline
 62
7
  6
CONTINUOUS
 90
25
 70
0
 10
-9.15
 20
-15.7
 10
-9.1697589393
 20
-15.7006641928
 10
-9.1892679715
 20
-15.7025830315
 10
-9.2085270966
 20
-15.7057565159
 10
-9.2276164158
 20
-15.7102089113
 10
-9.2464558279
 20
-15.7159159525
 10
-9.2648050297
 20
-15.7228048441
 10
-9.2826577417
 20
-15.7308907256
 10
-9.3000202433
 20
-15.7401584575
 10
-9.3166710699
 20
-15.7504898268
 10
-9.332601105
 20
-15.7618984584
 10
-9.3478194649
 20
-15.7743707274
 10
-9.3621320344
 20
-15.7877475456
 10
-9.3755272102
 20
-15.8020405002
 10
-9.3880165955
 20
-15.8172380039
 10
-9.3994408837
 20
-15.8331462074
 10
-9.4097864312
 20
-15.8497742146
 10
-9.4190668817
 20
-15.8671129216
 10
-9.4271638598
 20
-15.884941167
 10
-9.4340622054
 20
-15.9032652219
 10
-9.4397770785
 20
-15.9220788152
 10
-9.4442355841
 20
-15.9411419732
 10
-9.4474134237
 20
-15.9603747044
 10
-9.4493348956
 20
-15.9798570001
 10
-9.45
 20
-15.9995888604
  0
LINE
  5
332
100
AcDbEntity
  8
DRAFT
100
AcDbLine
 62
7
  6
CONTINUOUS
 10
-3.7636147059
 20
-16.5890021684
 11
3.7636147059
 21
-16.5890021684
  0
LINE
  5
333
100
AcDbEntity
  8
DRAFT
100
AcDbLine
 62
7
  6
CONTINUOUS
 10
-11.1261859216
 20
-16.0
 11
-9.6465076573
 21
-16.0
  0
LINE
  5
334
100
AcDbEntity
  8
DRAFT
100
AcDbLine
 62
7
  6
CONTINUOUS
 10
11.1261859216
 20
-16.0
 11
9.6465076573
 21
-16.0
  0
LINE
  5
335
100
AcDbEntity
  8
RACCORDO
100
AcDbLine
 62
253
  6
CONTINUOUS
 10
7.3558076463
 20
-15.7385854114
 11
4.0441923537
 21
-15.7385854114
  0
LINE
  5
336
100
AcDbEntity
  8
RACCORDO
100
AcDbLine
 62
253
  6
CONTINUOUS
 10
-4.0441923537
 20
-15.7385854114
 11
-6.0819118713
 21
-15.7385854114
  0
LINE
  5
337
100
AcDbEntity
  8
RACCORDO
100
AcDbLine
 62
7
  6
CONTINUOUS
 10
9.15
 20
-15.7
 11
7.6446004791
 21
-15.7
  0
LINE
  5
338
100
AcDbEntity
  8
RACCORDO
100
AcDbLine
 62
7
  6
CONTINUOUS
 10
3.7553995209
 20
-15.7
 11
3.4
 21
-15.7
  0
LINE
  5
339
100
AcDbEntity
  8
RACCORDO
100
AcDbLine
 62
7
  6
CONTINUOUS
 10
-3.4
 20
-15.7
 11
-3.7553995209
 21
-15.7
  0
LINE
  5
33A
100
AcDbEntity
  8
RACCORDO
100
AcDbLine
 62
7
  6
CONTINUOUS
 10
-7.6446004791
 20
-15.7
 11
-9.15
 21
-15.7
  0
LINE
  5
33B
100
AcDbEntity
  8
RACCORDO
100
AcDbLine
 62
253
  6
CONTINUOUS
 10
-6.081967806
 20
-15.6468205087
 11
-7.3563726863
 21
-15.6468205087
  0
LINE
  5
33C
100
AcDbEntity
  8
DRAFT
100
AcDbLine
 62
7
  6
CONTINUOUS
 10
-11.1
 20
-15.5
 11
11.1
 21
-15.5
  0
LINE
  5
33D
100
AcDbEntity
  8
DRAFT
100
AcDbLine
 62
7
  6
CONTINUOUS
 10
-6.0
 20
-15.3839326584
 11
6.0
 21
-15.3839326584
  0
LINE
  5
33E
100
AcDbEntity
  8
DRAFT
100
AcDbLine
 62
7
  6
CONTINUOUS
 10
-10.8085226158
 20
-15.2085226158
 11
-6.7019074668
 21
-15.2085226158
  0
LINE
  5
33F
100
AcDbEntity
  8
DRAFT
100
AcDbLine
 62
7
  6
CONTINUOUS
 10
6.7019074668
 20
-15.2085226158
 11
10.8085226158
 21
-15.2085226158
  0
LINE
  5
340
100
AcDbEntity
  8
DRAFT
100
AcDbLine
 62
7
  6
CONTINUOUS
 10
-6.0
 20
-15.3839326584
 11
-6.7019074668
 21
-15.2085226158
  0
LINE
  5
341
100
AcDbEntity
  8
RACCORDO
100
AcDbLine
 62
253
  6
CONTINUOUS
 10
-3.9532798839
 20
-17.3468158314
 11
-3.8445737581
 21
-17.4555023943
  0
LINE
  5
342
100
AcDbEntity
  8
RACCORDO
100
AcDbLine
 62
253
  6
CONTINUOUS
 10
-4.4527573462
 20
-17.8470783805
 11
-4.3444976057
 21
-17.9554262419
  0
LINE
  5
343
100
AcDbEntity
  8
ASSI
100
AcDbLine
 62
7
  6
CONTINUOUS
 10
-7.3012233427
 20
22.2251447178
 11
-7.2551134101
 21
22.3825449351
  0
LINE
  5
344
100
AcDbEntity
  8
DRAFT
100
AcDbLine
 62
7
  6
CONTINUOUS
 10
-10.9926595262
 20
10.3570955844
 11
-10.8085226158
 21
10.7253974543
  0
LINE
  5
345
100
AcDbEntity
  8
ASSI
100
AcDbLine
 62
253
  6
CONTINUOUS
 10
-3.3786655583
 20
22.2251447178
 11
-3.2999714434
 21
22.3825449351
  0
LINE
  5
346
100
AcDbEntity
  8
ASSI
100
AcDbLine
 62
253
  6
CONTINUOUS
 10
-3.1286750776
 20
21.975182794
 11
-3.05
 21
22.1325449336
  0
LINE
  5
347
100
AcDbEntity
  8
RACCORDO
100
AcDbLine
 62
253
  6
CONTINUOUS
 10
-5.2359067843
 20
21.048243558
 11
-5.1430053616
 21
21.2252970239
  0
LINE
  5
348
100
AcDbEntity
  8
0
100
AcDbLine
 62
7
  6
CONTINUOUS
 10
-6.715
 20
14.8
 11
-7.315
 21
13.8
  0
LWPOLYLINE
  5
349
100
AcDbEntity
  8
RACCORDO
100
AcDbPolyline
 62
7
  6
CONTINUOUS
 90
3
 70
0
 10
-8.860915679
 20
11.8889172239
 10
-8.863095712
 20
11.8853297916
 10
-8.8690493006
 20
11.8782823323
  0
LINE
  5
34A
100
AcDbEntity
  8
ASSI
100
AcDbLine
 62
253
  6
CONTINUOUS
 10
4.1019220988
 20
23.9018840226
 11
4.2000380762
 21
24.0
  0
LINE
  5
34B
100
AcDbEntity
  8
ASSI
100
AcDbLine
 62
253
  6
CONTINUOUS
 10
4.3518822356
 20
23.6519203118
 11
4.45
 21
23.7500380762
  0
LINE
  5
34C
100
AcDbEntity
  8
ASSI
100
AcDbLine
 62
7
  6
CONTINUOUS
 10
4.45
 20
22.4
 11
4.3518840226
 21
22.3018840226
  0
LINE
  5
34D
100
AcDbEntity
  8
DRAFT
100
AcDbLine
 62
7
  6
CONTINUOUS
 10
9.505776808
 20
20.8296399342
 11
9.6465076573
 21
20.9
  0
LINE
  5
34E
100
AcDbEntity
  8
DRAFT
100
AcDbLine
 62
7
  6
CONTINUOUS
 10
9.5
 20
-14.1914773842
 11
6.7019074668
 21
-14.1914773842
  0
LINE
  5
34F
100
AcDbEntity
  8
DRAFT
100
AcDbLine
 62
7
  6
CONTINUOUS
 10
-6.7019074668
 20
-14.1914773842
 11
-9.5
 21
-14.1914773842
  0
LINE
  5
350
100
AcDbEntity
  8
DRAFT
100
AcDbLine
 62
7
  6
CONTINUOUS
 10
-6.0
 20
-14.0160673416
 11
6.0
 21
-14.0160673416
  0
LINE
  5
351
100
AcDbEntity
  8
DRAFT
100
AcDbLine
 62
7
  6
CONTINUOUS
 10
-9.2216129175
 20
-13.9130903017
 11
-8.3198149423
 21
-13.9130903017
  0
LINE
  5
352
100
AcDbEntity
  8
DRAFT
100
AcDbLine
 62
7
  6
CONTINUOUS
 10
8.3198149423
 20
-13.9130903017
 11
9.2216129175
 21
-13.9130903017
  0
LINE
  5
353
100
AcDbEntity
  8
DRAFT
100
AcDbLine
 62
7
  6
CONTINUOUS
 10
-5.5
 20
-13.8755647702
 11
-8.2822894108
 21
-13.8755647702
  0
LINE
  5
354
100
AcDbEntity
  8
DRAFT
100
AcDbLine
 62
7
  6
CONTINUOUS
 10
-5.4825462644
 20
-13.8502568536
 11
8.2569814942
 21
-13.8502568536
  0
LINE
  5
355
100
AcDbEntity
  8
DRAFT
100
AcDbLine
 62
7
  6
CONTINUOUS
 10
9.6465076573
 20
-20.9
 11
9.5941424626
 21
-20.8738193966
  0
LINE
  5
356
100
AcDbEntity
  8
ASSI
100
AcDbLine
 62
253
  6
CONTINUOUS
 10
4.2000380762
 20
-24.0
 11
4.1019220988
 21
-23.9018840226
  0
LINE
  5
357
100
AcDbEntity
  8
ASSI
100
AcDbLine
 62
253
  6
CONTINUOUS
 10
4.45
 20
-23.7500380762
 11
4.3518822356
 21
-23.6519203118
  0
LINE
  5
358
100
AcDbEntity
  8
DRAFT
100
AcDbLine
 62
7
  6
CONTINUOUS
 10
-8.7831563161
 20
-10.3168436839
 11
-8.7746920834
 21
-10.3253079166
  0
LINE
  5
359
100
AcDbEntity
  8
ASSI
100
AcDbLine
 62
7
  6
CONTINUOUS
 10
4.45
 20
-22.4
 11
4.3518840226
 21
-22.3018840226
  0
LINE
  5
35A
100
AcDbEntity
  8
DRAFT
100
AcDbLine
 62
7
  6
CONTINUOUS
 10
-9.8414773842
 20
-7.9085226158
 11
-9.55
 21
-8.2
  0
LINE
  5
35B
100
AcDbEntity
  8
RACCORDO
100
AcDbLine
 62
253
  6
CONTINUOUS
 10
-5.2359058371
 20
-21.0482453611
 11
-5.1430053589
 21
-21.2252970227
  0
LINE
  5
35C
100
AcDbEntity
  8
ASSI
100
AcDbLine
 62
253
  6
CONTINUOUS
 10
-3.2999714434
 20
-22.3825449351
 11
-3.3786655583
 21
-22.2251447178
  0
LINE
  5
35D
100
AcDbEntity
  8
ASSI
100
AcDbLine
 62
253
  6
CONTINUOUS
 10
-3.05
 20
-22.1325449336
 11
-3.1286750776
 21
-21.975182794
  0
LINE
  5
35E
100
AcDbEntity
  8
ASSI
100
AcDbLine
 62
7
  6
CONTINUOUS
 10
-7.3012233427
 20
-22.2251447178
 11
-7.2551134101
 21
-22.3825449351
  0
LWPOLYLINE
  5
35F
100
AcDbEntity
  8
ASSI
100
AcDbPolyline
 62
253
  6
CONTINUOUS
 90
13
 70
0
 10
-10.5868325431
 20
-24.286863004
 10
-10.5851144928
 20
-24.3129592131
 10
-10.5800056229
 20
-24.3386090862
 10
-10.5715933122
 20
-24.3633739171
 10
-10.5600214405
 20
-24.3868301364
 10
-10.5454879275
 20
-24.4085765572
 10
-10.5282413471
 20
-24.4282412366
 10
-10.5085766765
 20
-24.445487836
 10
-10.4868302527
 20
-24.4600213733
 10
-10.4633740196
 20
-24.4715932697
 10
-10.4386091647
 20
-24.4800056019
 10
-10.4129592571
 20
-24.485114487
 10
-10.386863004
 20
-24.4868325431
  0
LINE
  5
360
100
AcDbEntity
  8
RACCORDO
100
AcDbLine
 62
7
  6
CONTINUOUS
 10
-9.4998851464
 20
-16.7023206249
 11
-9.5000023792
 21
-16.6999519285
  0
LINE
  5
361
100
AcDbEntity
  8
DRAFT
100
AcDbLine
 62
7
  6
CONTINUOUS
 10
-9.4925054846
 20
-16.8514272135
 11
-9.4998851464
 21
-16.7023206249
  0
LINE
  5
362
100
AcDbEntity
  8
ASSI
100
AcDbLine
 62
7
  6
CONTINUOUS
 10
-11.1261859216
 20
-20.4226497308
 11
-11.1
 21
-21.0
  0
LINE
  5
363
100
AcDbEntity
  8
ASSI
100
AcDbLine
 62
253
  6
CONTINUOUS
 10
-10.3864421556
 20
-23.6278214068
 11
-10.4017150409
 21
-23.1226497308
  0
LINE
  5
364
100
AcDbEntity
  8
ASSI
100
AcDbLine
 62
7
  6
CONTINUOUS
 10
-11.1
 20
21.0
 11
-11.0825449351
 21
20.4226497308
  0
LINE
  5
365
100
AcDbEntity
  8
ASSI
100
AcDbLine
 62
253
  6
CONTINUOUS
 10
-10.5863250262
 20
-23.8043279271
 11
-10.6
 21
-23.3515746082
  0
LINE
  5
366
100
AcDbEntity
  8
ASSI
100
AcDbLine
 62
253
  6
CONTINUOUS
 10
-10.5861791646
 20
-23.8122036402
 11
-10.5863250262
 21
-23.8043279271
  0
LINE
  5
367
100
AcDbEntity
  8
ASSI
100
AcDbLine
 62
253
  6
CONTINUOUS
 10
-10.5860677841
 20
-23.8219383899
 11
-10.5861791646
 21
-23.8122036402
  0
LINE
  5
368
100
AcDbEntity
  8
ASSI
100
AcDbLine
 62
253
  6
CONTINUOUS
 10
-10.586031118
 20
24.2544922535
 11
-10.5861228276
 21
24.264708349
  0
LINE
  5
369
100
AcDbEntity
  8
ASSI
100
AcDbLine
 62
253
  6
CONTINUOUS
 10
-10.5859990554
 20
-23.8327175818
 11
-10.5860677841
 21
-23.8219383899
  0
LINE
  5
36A
100
AcDbEntity
  8
ASSI
100
AcDbLine
 62
253
  6
CONTINUOUS
 10
-10.5859788011
 20
24.2416682173
 11
-10.586031118
 21
24.2544922535
  0
LINE
  5
36B
100
AcDbEntity
  8
ASSI
100
AcDbLine
 62
253
  6
CONTINUOUS
 10
-10.3860295614
 20
-23.7866654689
 11
-10.386441911
 21
-23.6278214075
  0
LINE
  5
36C
100
AcDbEntity
  8
0
100
AcDbLine
 62
7
  6
CONTINUOUS
 10
-11.1261859216
 20
20.4226497308
 11
-11.1261859216
 21
19.5
  0
LINE
  5
36D
100
AcDbEntity
  8
0
100
AcDbLine
 62
7
  6
CONTINUOUS
 10
-11.1261859216
 20
-16.0
 11
-11.1261859216
 21
-20.4226497308
  0
LINE
  5
36E
100
AcDbEntity
  8
0
100
AcDbLine
 62
7
  6
CONTINUOUS
 10
-11.1157115529
 20
19.5
 11
-11.1157115529
 21
-16.0
  0
LINE
  5
36F
100
AcDbEntity
  8
ASSI
100
AcDbLine
 62
7
  6
CONTINUOUS
 10
-11.1
 20
21.9000761524
 11
-11.1
 21
21.0
  0
LINE
  5
370
100
AcDbEntity
  8
ASSI
100
AcDbLine
 62
7
  6
CONTINUOUS
 10
-11.1
 20
-21.9000761524
 11
-11.1
 21
-21.0
  0
LINE
  5
371
100
AcDbEntity
  8
DRAFT
100
AcDbLine
 62
7
  6
CONTINUOUS
 10
-11.1
 20
-15.5
 11
-11.1
 21
19.0
  0
LINE
  5
372
100
AcDbEntity
  8
ASSI
100
AcDbLine
 62
7
  6
CONTINUOUS
 10
-11.0825449351
 20
-21.8826210875
 11
-11.0825449351
 21
-20.4226497308
  0
LINE
  5
373
100
AcDbEntity
  8
ASSI
100
AcDbLine
 62
7
  6
CONTINUOUS
 10
-11.0825449351
 20
20.4226497308
 11
-11.0825449351
 21
21.8826210875
  0
LINE
  5
374
100
AcDbEntity
  8
DRAFT
100
AcDbLine
 62
7
  6
CONTINUOUS
 10
-11.0712013363
 20
-3.2
 11
-11.0712013363
 21
4.2
  0
LINE
  5
375
100
AcDbEntity
  8
DRAFT
100
AcDbLine
 62
7
  6
CONTINUOUS
 10
-10.9926595262
 20
6.2
 11
-10.9926595262
 21
10.3570955844
  0
LINE
  5
376
100
AcDbEntity
  8
DRAFT
100
AcDbLine
 62
7
  6
CONTINUOUS
 10
-10.8085226158
 20
-15.2085226158
 11
-10.8085226158
 21
-3.7253974543
  0
LINE
  5
377
100
AcDbEntity
  8
DRAFT
100
AcDbLine
 62
7
  6
CONTINUOUS
 10
-10.8085226158
 20
10.7253974543
 11
-10.8085226158
 21
18.7085226158
  0
LINE
  5
378
100
AcDbEntity
  8
ASSI
100
AcDbLine
 62
7
  6
CONTINUOUS
 10
-10.6
 20
24.300030461
 11
-10.6000000646
 21
22.3999999296
  0
LINE
  5
379
100
AcDbEntity
  8
ASSI
100
AcDbLine
 62
7
  6
CONTINUOUS
 10
-10.6
 20
-22.3999997358
 11
-10.6
 21
-24.300030461
  0
LINE
  5
37A
100
AcDbEntity
  8
ASSI
100
AcDbLine
 62
253
  6
CONTINUOUS
 10
-10.585976663
 20
-24.2399084859
 11
-10.5859990554
 21
-23.8327175818
  0
LINE
  5
37B
100
AcDbEntity
  8
ASSI
100
AcDbLine
 62
253
  6
CONTINUOUS
 10
-10.3860578242
 20
23.7588328534
 11
-10.3862511462
 21
24.4107025027
  0
LINE
  5
37C
100
AcDbEntity
  8
ASSI
100
AcDbLine
 62
253
  6
CONTINUOUS
 10
-10.5859991582
 20
23.8327045444
 11
-10.5859788011
 21
24.2416682173
  0
LINE
  5
37D
100
AcDbEntity
  8
ASSI
100
AcDbLine
 62
253
  6
CONTINUOUS
 10
-10.3862604525
 20
-24.4134831556
 11
-10.3860295614
 21
-23.7866654689
  0
LINE
  5
37E
100
AcDbEntity
  8
ASSI
100
AcDbLine
 62
253
  6
CONTINUOUS
 10
-10.5860146122
 20
-24.251754735
 11
-10.585976663
 21
-24.2399084859
  0
LINE
  5
37F
100
AcDbEntity
  8
ASSI
100
AcDbLine
 62
253
  6
CONTINUOUS
 10
-10.3864416339
 20
23.627873495
 11
-10.3860578242
 21
23.7588328534
  0
LINE
  5
380
100
AcDbEntity
  8
ASSI
100
AcDbLine
 62
253
  6
CONTINUOUS
 10
-10.586067952
 20
23.8219204628
 11
-10.5859991582
 21
23.8327045444
  0
LWPOLYLINE
  5
381
100
AcDbEntity
  8
ASSI
100
AcDbPolyline
 62
253
  6
CONTINUOUS
 90
3
 70
0
 10
-10.5861294421
 20
-24.2652654557
 10
-10.5861008901
 20
-24.2627373892
 10
-10.5860146122
 20
-24.251754735
  0
LINE
  5
382
100
AcDbEntity
  8
ASSI
100
AcDbLine
 62
253
  6
CONTINUOUS
 10
-10.5861793458
 20
23.8121884985
 11
-10.586067952
 21
23.8219204628
  0
LINE
  5
383
100
AcDbEntity
  8
ASSI
100
AcDbLine
 62
253
  6
CONTINUOUS
 10
-10.5863251115
 20
23.804321355
 11
-10.5861793458
 21
23.8121884985
  0
LINE
  5
384
100
AcDbEntity
  8
ASSI
100
AcDbLine
 62
253
  6
CONTINUOUS
 10
-10.6
 20
23.3515746082
 11
-10.5863251115
 21
23.804321355
  0
LINE
  5
385
100
AcDbEntity
  8
ASSI
100
AcDbLine
 62
253
  6
CONTINUOUS
 10
-10.4017150409
 20
23.1226497308
 11
-10.3864405812
 21
23.6278734826
  0
LINE
  5
386
100
AcDbEntity
  8
ASSI
100
AcDbLine
 62
7
  6
CONTINUOUS
 10
-11.0825449351
 20
-20.4226497308
 11
-11.1
 21
-21.0
  0
LINE
  5
387
100
AcDbEntity
  8
DRAFT
100
AcDbLine
 62
7
  6
CONTINUOUS
 10
-11.0712013363
 20
4.2
 11
-10.9926595262
 21
6.2
  0
LINE
  5
388
100
AcDbEntity
  8
ASSI
100
AcDbLine
 62
7
  6
CONTINUOUS
 10
-11.1
 20
21.0
 11
-11.1261859216
 21
20.4226497308
  0
LWPOLYLINE
  5
389
100
AcDbEntity
  8
ASSI
100
AcDbPolyline
 62
253
  6
CONTINUOUS
 90
13
 70
0
 10
-10.5868325431
 20
24.2868630041
 10
-10.5851144898
 20
24.3129592355
 10
-10.5800056122
 20
24.3386091261
 10
-10.5715932907
 20
24.363373969
 10
-10.5600214066
 20
24.3868301951
 10
-10.5454878816
 20
24.4085766171
 10
-10.5282412918
 20
24.4282412918
 10
-10.5085766171
 20
24.4454878816
 10
-10.4868301951
 20
24.4600214066
 10
-10.463373969
 20
24.4715932907
 10
-10.4386091261
 20
24.4800056122
 10
-10.4129592355
 20
24.4851144898
 10
-10.3868630041
 20
24.4868325431
  0
LINE
  5
38A
100
AcDbEntity
  8
DRAFT
100
AcDbLine
 62
7
  6
CONTINUOUS
 10
-6.0
 20
-14.0160673416
 11
-6.7019074668
 21
-14.1914773842
  0
LINE
  5
38B
100
AcDbEntity
  8
DRAFT
100
AcDbLine
 62
7
  6
CONTINUOUS
 10
8.7831563161
 20
-10.3168436839
 11
9.55
 21
-10.3048866753
  0
LINE
  5
38C
100
AcDbEntity
  8
DRAFT
100
AcDbLine
 62
7
  6
CONTINUOUS
 10
8.2569814942
 20
-11.4825462644
 11
-5.4746920834
 21
-11.4825462644
  0
LINE
  5
38D
100
AcDbEntity
  8
DRAFT
100
AcDbLine
 62
7
  6
CONTINUOUS
 10
8.2569814942
 20
-10.9930185058
 11
-5.4746920834
 21
-10.9930185058
  0
LINE
  5
38E
100
AcDbEntity
  8
DRAFT
100
AcDbLine
 62
7
  6
CONTINUOUS
 10
8.2822894108
 20
-10.9677105892
 11
-5.5
 21
-10.9677105892
  0
LINE
  5
38F
100
AcDbEntity
  8
DRAFT
100
AcDbLine
 62
7
  6
CONTINUOUS
 10
-9.8414773842
 20
-10.815912614
 11
-9.5
 21
-10.815912614
  0
LINE
  5
390
100
AcDbEntity
  8
DRAFT
100
AcDbLine
 62
7
  6
CONTINUOUS
 10
9.5
 20
-10.815912614
 11
9.8414773842
 21
-10.815912614
  0
LINE
  5
391
100
AcDbEntity
  8
DRAFT
100
AcDbLine
 62
7
  6
CONTINUOUS
 10
-9.2216129175
 20
-10.5375255315
 11
-8.3198149423
 21
-10.5375255315
  0
LINE
  5
392
100
AcDbEntity
  8
DRAFT
100
AcDbLine
 62
7
  6
CONTINUOUS
 10
9.2216129175
 20
-10.5375255315
 11
8.3198149423
 21
-10.5375255315
  0
LINE
  5
393
100
AcDbEntity
  8
DRAFT
100
AcDbLine
 62
7
  6
CONTINUOUS
 10
-9.4522218454
 20
-10.5
 11
-8.2822894108
 21
-10.5
  0
LINE
  5
394
100
AcDbEntity
  8
DRAFT
100
AcDbLine
 62
7
  6
CONTINUOUS
 10
8.2822894108
 20
-10.5
 11
9.4522218454
 21
-10.5
  0
LINE
  5
395
100
AcDbEntity
  8
DRAFT
100
AcDbLine
 62
7
  6
CONTINUOUS
 10
-8.7746920834
 20
-10.3253079166
 11
-9.55
 21
-10.3253669627
  0
LINE
  5
396
100
AcDbEntity
  8
DRAFT
100
AcDbLine
 62
7
  6
CONTINUOUS
 10
9.55
 20
-10.3253669627
 11
8.7746920834
 21
-10.3253079166
  0
LINE
  5
397
100
AcDbEntity
  8
DRAFT
100
AcDbLine
 62
7
  6
CONTINUOUS
 10
-9.55
 20
-10.3048866753
 11
-8.7831563161
 21
-10.3168436839
  0
LINE
  5
398
100
AcDbEntity
  8
DRAFT
100
AcDbLine
 62
7
  6
CONTINUOUS
 10
6.0
 20
-14.0160673416
 11
6.7019074668
 21
-14.1914773842
  0
LWPOLYLINE
  5
399
100
AcDbEntity
  8
ASSI
100
AcDbPolyline
 62
7
  6
CONTINUOUS
 90
10
 70
0
 10
8.5466230298
 20
-23.6278312163
 10
8.5659358966
 20
-23.6461238988
 10
8.5866586836
 20
-23.6670655587
 10
8.608791391
 20
-23.6899995776
 10
8.6326327808
 20
-23.7141377517
 10
8.6578840909
 20
-23.7390654611
 10
8.6836490347
 20
-23.7648572212
 10
8.7096288497
 20
-23.7913286324
 10
8.7361222984
 20
-23.8179338627
 10
8.7631293807
 20
-23.8443375673
  0
LINE
  5
39A
100
AcDbEntity
  8
DRAFT
100
AcDbLine
 62
7
  6
CONTINUOUS
 10
-9.5872686779
 20
-7.9085226158
 11
-9.5
 21
-7.9957912937
  0
LINE
  5
39B
100
AcDbEntity
  8
DRAFT
100
AcDbLine
 62
7
  6
CONTINUOUS
 10
-8.5109333469
 20
-7.9957912937
 11
-8.2822894108
 21
-8.2244352298
  0
LINE
  5
39C
100
AcDbEntity
  8
DRAFT
100
AcDbLine
 62
7
  6
CONTINUOUS
 10
-5.5
 20
-10.9677105892
 11
-5.4746920834
 21
-10.9930185058
  0
LINE
  5
39D
100
AcDbEntity
  8
DRAFT
100
AcDbLine
 62
7
  6
CONTINUOUS
 10
-8.2726898563
 20
-6.7
 11
-8.25
 21
-6.7226898563
  0
LINE
  5
39E
100
AcDbEntity
  8
DRAFT
100
AcDbLine
 62
7
  6
CONTINUOUS
 10
-11.0712013363
 20
-3.2
 11
-10.8085226158
 21
-3.7253974543
  0
LINE
  5
39F
100
AcDbEntity
  8
RACCORDO
100
AcDbLine
 62
7
  6
CONTINUOUS
 10
-9.4
 20
-4.8659652156
 11
-9.4966110309
 21
-4.6686770793
  0
LINE
  5
3A0
100
AcDbEntity
  8
RACCORDO
100
AcDbLine
 62
253
  6
CONTINUOUS
 10
-4.6519362775
 20
-19.3438513356
 11
-4.6105528707
 21
-19.4681025177
  0
LINE
  5
3A1
100
AcDbEntity
  8
RACCORDO
100
AcDbLine
 62
253
  6
CONTINUOUS
 10
-7.3261806034
 20
-18.850527325
 11
-7.2144614646
 21
-19.9705349127
  0
LINE
  5
3A2
100
AcDbEntity
  8
RACCORDO
100
AcDbLine
 62
253
  6
CONTINUOUS
 10
-7.126325107
 20
-18.6499160521
 11
-7.01446908
 21
-19.7712959731
  0
LWPOLYLINE
  5
3A3
100
AcDbEntity
  8
ASSI
100
AcDbPolyline
 62
253
  6
CONTINUOUS
 90
13
 70
0
 10
-10.5864113981
 20
23.8010362971
 10
-10.5844931699
 20
23.7785532945
 10
-10.5792239148
 20
23.7564505722
 10
-10.5706927301
 20
23.7351021181
 10
-10.5590439164
 20
23.7148691803
 10
-10.5444745183
 20
23.696094117
 10
-10.527230975
 20
23.679094612
 10
-10.5076049743
 20
23.6641583365
 10
-10.4859285811
 20
23.6515381048
 10
-10.4625686032
 20
23.6414475446
 10
-10.4379203238
 20
23.6340574509
 10
-10.4124007994
 20
23.6294929132
 10
-10.386441859
 20
23.6278312189
  0
LWPOLYLINE
  5
3A4
100
AcDbEntity
  8
ASSI
100
AcDbPolyline
 62
253
  6
CONTINUOUS
 90
4
 70
0
 10
-7.4131370059
 20
-24.486832493
 10
-7.4131788263
 20
-24.4863405365
 10
-7.4132214372
 20
-24.4852428763
 10
-7.4132648385
 20
-24.483491763
  0
LINE
  5
3A5
100
AcDbEntity
  8
DRAFT
100
AcDbLine
 62
7
  6
CONTINUOUS
 10
-9.55
 20
4.2
 11
-9.6285418101
 21
6.2
  0
LWPOLYLINE
  5
3A6
100
AcDbEntity
  8
ASSI
100
AcDbPolyline
 62
253
  6
CONTINUOUS
 90
9
 70
0
 10
-10.5864286554
 20
24.2807262754
 10
-10.5864757248
 20
24.2820985489
 10
-10.5865239913
 20
24.2833023007
 10
-10.5865734717
 20
24.2843354633
 10
-10.5866241493
 20
24.2852001042
 10
-10.5866754523
 20
24.2858861827
 10
-10.5867271904
 20
24.2863903521
 10
-10.586779554
 20
24.2867159592
 10
-10.5868325431
 20
24.2868630041
  0
LINE
  5
3A7
100
AcDbEntity
  8
ASSI
100
AcDbLine
 62
7
  6
CONTINUOUS
 10
-9.3
 20
-23.1226497308
 11
-9.2868325431
 21
-23.5581814706
  0
LINE
  5
3A8
100
AcDbEntity
  8
ASSI
100
AcDbLine
 62
253
  6
CONTINUOUS
 10
-10.5863396816
 20
24.277522117
 11
-10.5864286554
 21
24.2807262754
  0
LWPOLYLINE
  5
3A9
100
AcDbEntity
  8
ASSI
100
AcDbPolyline
 62
253
  6
CONTINUOUS
 90
4
 70
0
 10
-10.3867059924
 20
24.4819489583
 10
-10.3867577122
 20
24.4844829512
 10
-10.3868100494
 20
24.4861127574
 10
-10.3868630041
 20
24.4868325431
  0
LINE
  5
3AA
100
AcDbEntity
  8
ASSI
100
AcDbLine
 62
253
  6
CONTINUOUS
 10
-10.5862580809
 20
24.2737306275
 11
-10.5863396816
 21
24.277522117
  0
LWPOLYLINE
  5
3AB
100
AcDbEntity
  8
ASSI
100
AcDbPolyline
 62
253
  6
CONTINUOUS
 90
3
 70
0
 10
-10.5861228276
 20
24.264708349
 10
-10.5861527288
 20
24.2671100558
 10
-10.5862580809
 20
24.2737306275
  0
LINE
  5
3AC
100
AcDbEntity
  8
ASSI
100
AcDbLine
 62
253
  6
CONTINUOUS
 10
-10.3866040192
 20
24.4742068523
 11
-10.3867059924
 21
24.4819489583
  0
LINE
  5
3AD
100
AcDbEntity
  8
ASSI
100
AcDbLine
 62
253
  6
CONTINUOUS
 10
-10.3864138486
 20
24.4485264403
 11
-10.3866040192
 21
24.4742068523
  0
LINE
  5
3AE
100
AcDbEntity
  8
ASSI
100
AcDbLine
 62
253
  6
CONTINUOUS
 10
-10.3862511462
 20
24.4107025027
 11
-10.3864138486
 21
24.4485264403
  0
LINE
  5
3AF
100
AcDbEntity
  8
DRAFT
100
AcDbLine
 62
7
  6
CONTINUOUS
 10
-9.505776808
 20
20.8296399342
 11
-9.5044195935
 21
19.0000324501
  0
LINE
  5
3B0
100
AcDbEntity
  8
DRAFT
100
AcDbLine
 62
7
  6
CONTINUOUS
 10
-9.5020947702
 20
15.3746366857
 11
-9.5019454841
 21
15.112009054
  0
LINE
  5
3B1
100
AcDbEntity
  8
DRAFT
100
AcDbLine
 62
7
  6
CONTINUOUS
 10
-9.5033242507
 20
17.3883355064
 11
-9.5032196903
 21
17.2253634
  0
LINE
  5
3B2
100
AcDbEntity
  8
DRAFT
100
AcDbLine
 62
7
  6
CONTINUOUS
 10
-10.0
 20
2.5
 11
-10.0
 21
0.5
  0
LINE
  5
3B3
100
AcDbEntity
  8
DRAFT
100
AcDbLine
 62
7
  6
CONTINUOUS
 10
-10.0
 20
-0.5
 11
-10.0
 21
-2.5
  0
LINE
  5
3B4
100
AcDbEntity
  8
DRAFT
100
AcDbLine
 62
7
  6
CONTINUOUS
 10
-9.8414773842
 20
-10.815912614
 11
-9.8414773842
 21
-7.9085226158
  0
LINE
  5
3B5
100
AcDbEntity
  8
DRAFT
100
AcDbLine
 62
7
  6
CONTINUOUS
 10
-9.8414773842
 20
14.8085226158
 11
-9.8414773842
 21
17.6914773842
  0
LINE
  5
3B6
100
AcDbEntity
  8
DRAFT
100
AcDbLine
 62
7
  6
CONTINUOUS
 10
-9.7730841559
 20
-2.2730841559
 11
-9.7730841559
 21
2.2730841559
  0
LINE
  5
3B7
100
AcDbEntity
  8
DRAFT
100
AcDbLine
 62
7
  6
CONTINUOUS
 10
-9.6465076573
 20
-20.9
 11
-9.6465076573
 21
-16.0
  0
LINE
  5
3B8
100
AcDbEntity
  8
DRAFT
100
AcDbLine
 62
7
  6
CONTINUOUS
 10
-9.6465076573
 20
19.5
 11
-9.6465076573
 21
20.9
  0
LINE
  5
3B9
100
AcDbEntity
  8
DRAFT
100
AcDbLine
 62
7
  6
CONTINUOUS
 10
-9.6395256314
 20
19.5
 11
-9.6395256314
 21
19.0
  0
LINE
  5
3BA
100
AcDbEntity
  8
DRAFT
100
AcDbLine
 62
7
  6
CONTINUOUS
 10
-9.6395256314
 20
-16.0
 11
-9.6395256314
 21
-15.5
  0
LINE
  5
3BB
100
AcDbEntity
  8
DRAFT
100
AcDbLine
 62
7
  6
CONTINUOUS
 10
-9.6285418101
 20
6.2
 11
-9.6285418101
 21
10.3570955844
  0
LINE
  5
3BC
100
AcDbEntity
  8
RACCORDO
100
AcDbLine
 62
7
  6
CONTINUOUS
 10
-9.5941424626
 20
-20.8738193966
 11
-9.5941424626
 21
-19.7676913781
  0
LINE
  5
3BD
100
AcDbEntity
  8
DRAFT
100
AcDbLine
 62
7
  6
CONTINUOUS
 10
-9.5872686779
 20
14.8085226158
 11
-9.5872686779
 21
10.7253974543
  0
LINE
  5
3BE
100
AcDbEntity
  8
DRAFT
100
AcDbLine
 62
7
  6
CONTINUOUS
 10
-9.5872686779
 20
-3.7253974543
 11
-9.5872686779
 21
-7.9085226158
  0
LINE
  5
3BF
100
AcDbEntity
  8
DRAFT
100
AcDbLine
 62
7
  6
CONTINUOUS
 10
-9.55
 20
10.2
 11
-9.55
 21
4.2
  0
LINE
  5
3C0
100
AcDbEntity
  8
DRAFT
100
AcDbLine
 62
7
  6
CONTINUOUS
 10
-9.55
 20
-8.2
 11
-9.55
 21
-10.5244352298
  0
LINE
  5
3C1
100
AcDbEntity
  8
DRAFT
100
AcDbLine
 62
7
  6
CONTINUOUS
 10
-9.55
 20
15.1
 11
-9.55
 21
17.4
  0
LINE
  5
3C2
100
AcDbEntity
  8
DRAFT
100
AcDbLine
 62
7
  6
CONTINUOUS
 10
-9.5016306184
 20
-10.5123474894
 11
-9.5016306184
 21
-10.3253632789
  0
LINE
  5
3C3
100
AcDbEntity
  8
DRAFT
100
AcDbLine
 62
7
  6
CONTINUOUS
 10
-9.5016306184
 20
-8.4746367211
 11
-9.5016306184
 21
-8.2120877405
  0
LINE
  5
3C4
100
AcDbEntity
  8
DRAFT
100
AcDbLine
 62
7
  6
CONTINUOUS
 10
-9.5001148706
 20
-16.7023213212
 11
-9.5001148706
 21
-15.5
  0
LINE
  5
3C5
100
AcDbEntity
  8
RACCORDO
100
AcDbLine
 62
7
  6
CONTINUOUS
 10
-9.5
 20
14.8957912937
 11
-9.5
 21
10.5508468051
  0
LINE
  5
3C6
100
AcDbEntity
  8
DRAFT
100
AcDbLine
 62
7
  6
CONTINUOUS
 10
-9.5
 20
-10.815912614
 11
-9.5
 21
-14.1914773842
  0
LINE
  5
3C7
100
AcDbEntity
  8
RACCORDO
100
AcDbLine
 62
7
  6
CONTINUOUS
 10
-9.5
 20
-16.6999543077
 11
-9.5
 21
-15.5
  0
LINE
  5
3C8
100
AcDbEntity
  8
RACCORDO
100
AcDbLine
 62
7
  6
CONTINUOUS
 10
-9.5
 20
-7.9957912937
 11
-9.5
 21
-3.5508468051
  0
LINE
  5
3C9
100
AcDbEntity
  8
DRAFT
100
AcDbLine
 62
7
  6
CONTINUOUS
 10
-9.4522218454
 20
-10.5
 11
-9.4522218454
 21
-10.3253595161
  0
LINE
  5
3CA
100
AcDbEntity
  8
DRAFT
100
AcDbLine
 62
7
  6
CONTINUOUS
 10
-9.4522218454
 20
-8.4746404839
 11
-9.4522218454
 21
-8.2244352298
  0
LINE
  5
3CB
100
AcDbEntity
  8
DRAFT
100
AcDbLine
 62
7
  6
CONTINUOUS
 10
-9.4522218454
 20
15.1244352298
 11
-9.4522218454
 21
15.3746404839
  0
LINE
  5
3CC
100
AcDbEntity
  8
DRAFT
100
AcDbLine
 62
7
  6
CONTINUOUS
 10
-9.4522218454
 20
17.2253595161
 11
-9.4522218454
 21
17.3755647702
  0
LINE
  5
3CD
100
AcDbEntity
  8
RACCORDO
100
AcDbLine
 62
7
  6
CONTINUOUS
 10
-9.45
 20
-15.9995888604
 11
-9.45
 21
-16.8514272135
  0
LINE
  5
3CE
100
AcDbEntity
  8
0
100
AcDbLine
 62
7
  6
CONTINUOUS
 10
-9.4
 20
-6.7340347844
 11
-9.4
 21
-4.8659652156
  0
LINE
  5
3CF
100
AcDbEntity
  8
ASSI
100
AcDbLine
 62
7
  6
CONTINUOUS
 10
-9.3
 20
23.1226497308
 11
-9.3
 21
22.4
  0
LINE
  5
3D0
100
AcDbEntity
  8
ASSI
100
AcDbLine
 62
7
  6
CONTINUOUS
 10
-9.3
 20
-22.4
 11
-9.3
 21
-23.1226497308
  0
LINE
  5
3D1
100
AcDbEntity
  8
ASSI
100
AcDbLine
 62
253
  6
CONTINUOUS
 10
-9.2868325431
 20
23.5581814706
 11
-9.2868325431
 21
22.3868325431
  0
LINE
  5
3D2
100
AcDbEntity
  8
ASSI
100
AcDbLine
 62
253
  6
CONTINUOUS
 10
-9.2868325431
 20
-22.3868325431
 11
-9.2868325431
 21
-23.5581814706
  0
LINE
  5
3D3
100
AcDbEntity
  8
DRAFT
100
AcDbLine
 62
7
  6
CONTINUOUS
 10
-9.2216129175
 20
-13.9130903017
 11
-9.2216129175
 21
-10.5375255315
  0
LINE
  5
3D4
100
AcDbEntity
  8
RACCORDO
100
AcDbLine
 62
253
  6
CONTINUOUS
 10
-9.05
 20
2.2730841559
 11
-9.05
 21
-2.2730841559
  0
LINE
  5
3D5
100
AcDbEntity
  8
ASSI
100
AcDbLine
 62
253
  6
CONTINUOUS
 10
-9.0368706193
 20
23.8443375673
 11
-9.0368706193
 21
22.3825449351
  0
LINE
  5
3D6
100
AcDbEntity
  8
ASSI
100
AcDbLine
 62
253
  6
CONTINUOUS
 10
-9.0368706193
 20
-22.3825449351
 11
-9.0368706193
 21
-23.8443375673
  0
LINE
  5
3D7
100
AcDbEntity
  8
RACCORDO
100
AcDbLine
 62
7
  6
CONTINUOUS
 10
-8.860915679
 20
13.7110827761
 11
-8.860915679
 21
11.8889172239
  0
LINE
  5
3D8
100
AcDbEntity
  8
DRAFT
100
AcDbLine
 62
7
  6
CONTINUOUS
 10
-8.7831563161
 20
-10.3168436839
 11
-8.7831563161
 21
-8.4831563161
  0
LINE
  5
3D9
100
AcDbEntity
  8
DRAFT
100
AcDbLine
 62
7
  6
CONTINUOUS
 10
-8.7831563161
 20
15.3831563161
 11
-8.7831563161
 21
17.2168436839
  0
LINE
  5
3DA
100
AcDbEntity
  8
DRAFT
100
AcDbLine
 62
7
  6
CONTINUOUS
 10
-8.7746920834
 20
-10.3253079166
 11
-8.7746920834
 21
-8.4746920834
  0
LINE
  5
3DB
100
AcDbEntity
  8
DRAFT
100
AcDbLine
 62
7
  6
CONTINUOUS
 10
-8.7746920834
 20
15.3746920834
 11
-8.7746920834
 21
17.2253079166
  0
LINE
  5
3DC
100
AcDbEntity
  8
ASSI
100
AcDbLine
 62
253
  6
CONTINUOUS
 10
-8.7631293807
 20
23.8443375673
 11
-8.7631293807
 21
22.3825449351
  0
LINE
  5
3DD
100
AcDbEntity
  8
ASSI
100
AcDbLine
 62
253
  6
CONTINUOUS
 10
-8.7631293807
 20
-22.3825449351
 11
-8.7631293807
 21
-23.8443375673
  0
LINE
  5
3DE
100
AcDbEntity
  8
DRAFT
100
AcDbLine
 62
7
  6
CONTINUOUS
 10
-8.75
 20
13.6
 11
-8.75
 21
12.0
  0
LINE
  5
3DF
100
AcDbEntity
  8
DRAFT
100
AcDbLine
 62
7
  6
CONTINUOUS
 10
-8.75
 20
2.5
 11
-8.75
 21
8.0
  0
LINE
  5
3E0
100
AcDbEntity
  8
ASSI
100
AcDbLine
 62
253
  6
CONTINUOUS
 10
-8.5131674569
 20
23.5581814706
 11
-8.5131674569
 21
22.3868325431
  0
LINE
  5
3E1
100
AcDbEntity
  8
ASSI
100
AcDbLine
 62
253
  6
CONTINUOUS
 10
-8.5131674569
 20
-22.3868325431
 11
-8.5131674569
 21
-23.5581814706
  0
LINE
  5
3E2
100
AcDbEntity
  8
RACCORDO
100
AcDbLine
 62
7
  6
CONTINUOUS
 10
-8.5109333469
 20
-7.9957912937
 11
-8.5109333469
 21
-7.7312924592
  0
LINE
  5
3E3
100
AcDbEntity
  8
RACCORDO
100
AcDbLine
 62
7
  6
CONTINUOUS
 10
-8.5109333469
 20
-3.8687075408
 11
-8.5109333469
 21
-3.5508468051
  0
LINE
  5
3E4
100
AcDbEntity
  8
ASSI
100
AcDbLine
 62
7
  6
CONTINUOUS
 10
-8.5
 20
23.1226497308
 11
-8.5
 21
22.4
  0
LINE
  5
3E5
100
AcDbEntity
  8
ASSI
100
AcDbLine
 62
7
  6
CONTINUOUS
 10
-8.5
 20
12.8
 11
-8.5
 21
11.3
  0
LINE
  5
3E6
100
AcDbEntity
  8
ASSI
100
AcDbLine
 62
7
  6
CONTINUOUS
 10
-8.5
 20
-22.4
 11
-8.5
 21
-23.1226497308
  0
LINE
  5
3E7
100
AcDbEntity
  8
DRAFT
100
AcDbLine
 62
7
  6
CONTINUOUS
 10
-8.3355233043
 20
-3.2
 11
-8.3355233043
 21
-2.5
  0
LINE
  5
3E8
100
AcDbEntity
  8
RACCORDO
100
AcDbLine
 62
7
  6
CONTINUOUS
 10
-8.3355233043
 20
8.0
 11
-8.3355233043
 21
9.9768345149
  0
LINE
  5
3E9
100
AcDbEntity
  8
DRAFT
100
AcDbLine
 62
7
  6
CONTINUOUS
 10
-8.3198149423
 20
-13.9130903017
 11
-8.3198149423
 21
-10.5375255315
  0
LINE
  5
3EA
100
AcDbEntity
  8
DRAFT
100
AcDbLine
 62
7
  6
CONTINUOUS
 10
-8.2822894108
 20
-13.8755647702
 11
-8.2822894108
 21
-10.5
  0
LINE
  5
3EB
100
AcDbEntity
  8
DRAFT
100
AcDbLine
 62
7
  6
CONTINUOUS
 10
-8.2822894108
 20
-10.0322894108
 11
-8.2822894108
 21
-9.95
  0
LINE
  5
3EC
100
AcDbEntity
  8
DRAFT
100
AcDbLine
 62
7
  6
CONTINUOUS
 10
-8.2822894108
 20
-8.75
 11
-8.2822894108
 21
-8.2244352298
  0
LINE
  5
3ED
100
AcDbEntity
  8
DRAFT
100
AcDbLine
 62
7
  6
CONTINUOUS
 10
-8.2726898563
 20
-4.9
 11
-8.2726898563
 21
-5.2
  0
LINE
  5
3EE
100
AcDbEntity
  8
DRAFT
100
AcDbLine
 62
7
  6
CONTINUOUS
 10
-8.25
 20
-10.0
 11
-8.25
 21
-6.7226898563
  0
LINE
  5
3EF
100
AcDbEntity
  8
DRAFT
100
AcDbLine
 62
7
  6
CONTINUOUS
 10
-8.25
 20
-5.1773101437
 11
-8.25
 21
-2.6710596363
  0
LINE
  5
3F0
100
AcDbEntity
  8
RACCORDO
100
AcDbLine
 62
7
  6
CONTINUOUS
 10
-8.25
 20
-2.3047941508
 11
-8.25
 21
2.3047941508
  0
LINE
  5
3F1
100
AcDbEntity
  8
DRAFT
100
AcDbLine
 62
7
  6
CONTINUOUS
 10
-8.25
 20
8.0
 11
-8.25
 21
8.9
  0
LINE
  5
3F2
100
AcDbEntity
  8
RACCORDO
100
AcDbLine
 62
7
  6
CONTINUOUS
 10
-8.2325449351
 20
21.4051134101
 11
-8.2325449351
 21
21.0999771547
  0
LINE
  5
3F3
100
AcDbEntity
  8
RACCORDO
100
AcDbLine
 62
7
  6
CONTINUOUS
 10
-8.2325449351
 20
-21.4051134101
 11
-8.2325449351
 21
-21.0999771547
  0
LINE
  5
3F4
100
AcDbEntity
  8
RACCORDO
100
AcDbLine
 62
7
  6
CONTINUOUS
 10
-9.5432634574
 20
-17.1381978935
 11
-9.5444904136
 21
-19.151105328
  0
LINE
  5
3F5
100
AcDbEntity
  8
ASSI
100
AcDbLine
 62
253
  6
CONTINUOUS
 10
-10.3865110349
 20
-24.4636851301
 11
-10.3862604525
 21
-24.4134831556
  0
LINE
  5
3F6
100
AcDbEntity
  8
ASSI
100
AcDbLine
 62
253
  6
CONTINUOUS
 10
-10.3866468237
 20
-24.4779339864
 11
-10.3865110349
 21
-24.4636851301
  0
LINE
  5
3F7
100
AcDbEntity
  8
ASSI
100
AcDbLine
 62
253
  6
CONTINUOUS
 10
-10.5862300433
 20
-24.2721886633
 11
-10.5861294421
 21
-24.2652654557
  0
LINE
  5
3F8
100
AcDbEntity
  8
ASSI
100
AcDbLine
 62
253
  6
CONTINUOUS
 10
-10.5863078951
 20
-24.2761560292
 11
-10.5862300433
 21
-24.2721886633
  0
LINE
  5
3F9
100
AcDbEntity
  8
ASSI
100
AcDbLine
 62
7
  6
CONTINUOUS
 10
-9.2868325431
 20
23.5581814706
 11
-9.3
 21
23.1226497308
  0
LWPOLYLINE
  5
3FA
100
AcDbEntity
  8
ASSI
100
AcDbPolyline
 62
253
  6
CONTINUOUS
 90
13
 70
0
 10
-10.5864113981
 20
-23.8010362971
 10
-10.5844930438
 20
-23.7785525233
 10
-10.5792234721
 20
-23.7564491967
 10
-10.5706918493
 20
-23.7351003269
 10
-10.5590425386
 20
-23.7148671574
 10
-10.5444726576
 20
-23.696092053
 10
-10.5272287429
 20
-23.6790927066
 10
-10.5076025781
 20
-23.6641567636
 10
-10.4859262568
 20
-23.6515369545
 10
-10.4625665635
 20
-23.6414468188
 10
-10.4379187666
 20
-23.6340570911
 10
-10.4123999306
 20
-23.629492813
 10
-10.3864418591
 20
-23.6278312163
  0
LWPOLYLINE
  5
3FB
100
AcDbEntity
  8
ASSI
100
AcDbPolyline
 62
253
  6
CONTINUOUS
 90
5
 70
0
 10
-10.3868630041
 20
-24.4868325431
 10
-10.3868215773
 20
-24.4863479399
 10
-10.3867792978
 20
-24.48526668
 10
-10.3867361655
 20
-24.4835390394
 10
-10.3866468237
 20
-24.4779339864
  0
LINE
  5
3FC
100
AcDbEntity
  8
RACCORDO
100
AcDbLine
 62
253
  6
CONTINUOUS
 10
-7.2144614646
 20
19.9705349127
 11
-7.3160586285
 21
18.9520022272
  0
LINE
  5
3FD
100
AcDbEntity
  8
RACCORDO
100
AcDbLine
 62
253
  6
CONTINUOUS
 10
-7.01446908
 20
19.7712959731
 11
-7.0961924475
 21
18.9520022272
  0
LWPOLYLINE
  5
3FE
100
AcDbEntity
  8
ASSI
100
AcDbPolyline
 62
7
  6
CONTINUOUS
 90
10
 70
0
 10
8.5466230298
 20
23.6278312164
 10
8.5649157123
 20
23.6471440832
 10
8.5858573721
 20
23.6678668702
 10
8.608791391
 20
23.6899995776
 10
8.6329295651
 20
23.7138409674
 10
8.6578572746
 20
23.7390922775
 10
8.6836490347
 20
23.7648572213
 10
8.7101204458
 20
23.7908370363
 10
8.7367256761
 20
23.817330485
 10
8.7631293807
 20
23.8443375673
  0
LINE
  5
3FF
100
AcDbEntity
  8
ASSI
100
AcDbLine
 62
253
  6
CONTINUOUS
 10
10.6
 20
22.3999999999
 11
10.5826210875
 21
22.3825449351
  0
LINE
  5
400
100
AcDbEntity
  8
ASSI
100
AcDbLine
 62
253
  6
CONTINUOUS
 10
10.400030461
 20
24.5
 11
10.3868630041
 21
24.4868325431
  0
LINE
  5
401
100
AcDbEntity
  8
ASSI
100
AcDbLine
 62
253
  6
CONTINUOUS
 10
10.6
 20
24.300030461
 11
10.5868325431
 21
24.2868630041
  0
LINE
  5
402
100
AcDbEntity
  8
ASSI
100
AcDbLine
 62
7
  6
CONTINUOUS
 10
9.3
 20
22.4
 11
9.2868325431
 21
22.3868325431
  0
LINE
  5
403
100
AcDbEntity
  8
RACCORDO
100
AcDbLine
 62
7
  6
CONTINUOUS
 10
7.9472576745
 20
13.7108443418
 11
7.7255647702
 21
13.6
  0
LINE
  5
404
100
AcDbEntity
  8
DRAFT
100
AcDbLine
 62
7
  6
CONTINUOUS
 10
9.4522218454
 20
-8.2244352298
 11
9.55
 21
-8.2
  0
LINE
  5
405
100
AcDbEntity
  8
DRAFT
100
AcDbLine
 62
7
  6
CONTINUOUS
 10
-9.55
 20
-8.4951133247
 11
-8.7831563161
 21
-8.4831563161
  0
LINE
  5
406
100
AcDbEntity
  8
DRAFT
100
AcDbLine
 62
7
  6
CONTINUOUS
 10
8.2822894108
 20
-10.0322894108
 11
-8.2822894108
 21
-10.0322894108
  0
LINE
  5
407
100
AcDbEntity
  8
DRAFT
100
AcDbLine
 62
7
  6
CONTINUOUS
 10
-8.25
 20
-10.0
 11
8.25
 21
-10.0
  0
LINE
  5
408
100
AcDbEntity
  8
DRAFT
100
AcDbLine
 62
7
  6
CONTINUOUS
 10
8.7746920834
 20
-9.95
 11
8.2822894108
 21
-9.95
  0
LINE
  5
409
100
AcDbEntity
  8
DRAFT
100
AcDbLine
 62
7
  6
CONTINUOUS
 10
-8.2822894108
 20
-9.95
 11
-8.7746920834
 21
-9.95
  0
LINE
  5
40A
100
AcDbEntity
  8
DRAFT
100
AcDbLine
 62
7
  6
CONTINUOUS
 10
8.7746920834
 20
-8.75
 11
8.2822894108
 21
-8.75
  0
LINE
  5
40B
100
AcDbEntity
  8
DRAFT
100
AcDbLine
 62
7
  6
CONTINUOUS
 10
-8.2822894108
 20
-8.75
 11
-8.7746920834
 21
-8.75
  0
LINE
  5
40C
100
AcDbEntity
  8
DRAFT
100
AcDbLine
 62
7
  6
CONTINUOUS
 10
9.55
 20
-8.4746330373
 11
8.7746920834
 21
-8.4746920834
  0
LINE
  5
40D
100
AcDbEntity
  8
DRAFT
100
AcDbLine
 62
7
  6
CONTINUOUS
 10
-9.4522218454
 20
-8.2244352298
 11
-8.2822894108
 21
-8.2244352298
  0
LINE
  5
40E
100
AcDbEntity
  8
DRAFT
100
AcDbLine
 62
7
  6
CONTINUOUS
 10
9.4522218454
 20
-8.2244352298
 11
8.2822894108
 21
-8.2244352298
  0
LINE
  5
40F
100
AcDbEntity
  8
DRAFT
100
AcDbLine
 62
7
  6
CONTINUOUS
 10
-8.7746920834
 20
-8.4746920834
 11
-9.55
 21
-8.4746330373
  0
LINE
  5
410
100
AcDbEntity
  8
DRAFT
100
AcDbLine
 62
7
  6
CONTINUOUS
 10
8.7831563161
 20
-8.4831563161
 11
9.55
 21
-8.4951133247
  0
LINE
  5
411
100
AcDbEntity
  8
DRAFT
100
AcDbLine
 62
7
  6
CONTINUOUS
 10
-9.4522218454
 20
-8.2244352298
 11
-9.55
 21
-8.2
  0
LINE
  5
412
100
AcDbEntity
  8
ASSI
100
AcDbLine
 62
253
  6
CONTINUOUS
 10
10.3868630041
 20
-24.4868325431
 11
10.400030461
 21
-24.5
  0
LINE
  5
413
100
AcDbEntity
  8
ASSI
100
AcDbLine
 62
253
  6
CONTINUOUS
 10
10.5868325431
 20
-24.286863004
 11
10.6
 21
-24.300030461
  0
LINE
  5
414
100
AcDbEntity
  8
RACCORDO
100
AcDbLine
 62
7
  6
CONTINUOUS
 10
-8.504012777
 20
-4.6686770793
 11
-8.2726898563
 21
-4.9
  0
LINE
  5
415
100
AcDbEntity
  8
ASSI
100
AcDbLine
 62
7
  6
CONTINUOUS
 10
9.3
 20
-22.4
 11
9.2868325431
 21
-22.3868325431
  0
LINE
  5
416
100
AcDbEntity
  8
DRAFT
100
AcDbLine
 62
7
  6
CONTINUOUS
 10
4.0511995689
 20
-16.8765870314
 11
3.7636147059
 21
-16.5890021684
  0
LINE
  5
417
100
AcDbEntity
  8
ASSI
100
AcDbLine
 62
253
  6
CONTINUOUS
 10
10.5826210875
 20
-22.3825449351
 11
10.6000000646
 21
-22.3999999354
  0
LINE
  5
418
100
AcDbEntity
  8
DRAFT
100
AcDbLine
 62
7
  6
CONTINUOUS
 10
-8.25
 20
-2.6710596363
 11
-8.3355233043
 21
-2.5
  0
LINE
  5
419
100
AcDbEntity
  8
RACCORDO
100
AcDbLine
 62
253
  6
CONTINUOUS
 10
-4.4519667385
 20
-19.1441254286
 11
-4.4105833317
 21
-19.2683766108
  0
LWPOLYLINE
  5
41A
100
AcDbEntity
  8
RACCORDO
100
AcDbPolyline
 62
253
  6
CONTINUOUS
 90
10
 70
0
 10
-4.6105528707
 20
-19.4681025177
 10
-4.6098107056
 20
-19.4704954594
 10
-4.6090874108
 20
-19.4750056835
 10
-4.6083829864
 20
-19.4815986457
 10
-4.6076927807
 20
-19.490224049
 10
-4.6070214455
 20
-19.5008188135
 10
-4.6063829349
 20
-19.5133095667
 10
-4.605777892
 20
-19.5276094322
 10
-4.6052056738
 20
-19.5436146282
 10
-4.6046783066
 20
-19.5612083791
  0
LWPOLYLINE
  5
41B
100
AcDbEntity
  8
RACCORDO
100
AcDbPolyline
 62
7
  6
CONTINUOUS
 90
20
 70
0
 10
-9.5
 20
14.5108367263
 10
-9.4977229319
 20
14.4877235978
 10
-9.4931661328
 20
14.4649224859
 10
-9.4863382404
 20
14.4424333908
 10
-9.4769508818
 20
14.4203258674
 10
-9.4653278902
 20
14.3985303607
 10
-9.4523955974
 20
14.3768382057
 10
-9.438396003
 20
14.3553068205
 10
-9.4231316799
 20
14.333878787
 10
-9.4068623924
 20
14.3121731849
 10
-9.3896808877
 20
14.2901091947
 10
-9.3715586995
 20
14.2677676359
 10
-9.3525756446
 20
14.2450100473
 10
-9.3327966098
 20
14.2217897814
 10
-9.312251027
 20
14.1981534858
 10
-9.290974183
 20
14.1741026417
 10
-9.269089315
 20
14.149646394
 10
-9.2466078305
 20
14.1247755978
 10
-9.223420607
 20
14.0994643
 10
-9.1753513893
 20
14.0473889412
  0
LWPOLYLINE
  5
41C
100
AcDbEntity
  8
RACCORDO
100
AcDbPolyline
 62
253
  6
CONTINUOUS
 90
13
 70
0
 10
-6.78553092
 20
-20.8710900996
 10
-6.783754968
 20
-20.9078616431
 10
-6.7788401462
 20
-20.9437270533
 10
-6.7707864546
 20
-20.9786863301
 10
-6.7594767975
 20
-21.0130007179
 10
-6.7450282705
 20
-21.0464089723
 10
-6.7277921612
 20
-21.0781273603
 10
-6.7077053013
 20
-21.108120045
 10
-6.6848308589
 20
-21.1364228633
 10
-6.6597096262
 20
-21.1623595925
 10
-6.6325218671
 20
-21.185704825
 10
-6.6030873177
 20
-21.2066839684
 10
-6.5714059779
 20
-21.2252970227
  0
LWPOLYLINE
  5
41D
100
AcDbEntity
  8
RACCORDO
100
AcDbPolyline
 62
253
  6
CONTINUOUS
 90
13
 70
0
 10
-6.5855384613
 20
-20.8712898479
 10
-6.5847054283
 20
-20.8893641849
 10
-6.5822425008
 20
-20.9072939357
 10
-6.5781683743
 20
-20.9249322722
 10
-6.572513896
 20
-20.9421375001
 10
-6.5653245341
 20
-20.9587650883
 10
-6.5566626269
 20
-20.9746699563
 10
-6.5466037297
 20
-20.9897173052
 10
-6.5352283922
 20
-21.0037900958
 10
-6.522623844
 20
-21.016779941
 10
-6.508889881
 20
-21.0285813198
 10
-6.4941401797
 20
-21.0390942
 10
-6.4784948813
 20
-21.0482311979
  0
LWPOLYLINE
  5
41E
100
AcDbEntity
  8
RACCORDO
100
AcDbPolyline
 62
253
  6
CONTINUOUS
 90
19
 70
0
 10
-7.2144614653
 20
20.785536625
 10
-7.2152244725
 20
20.8030158898
 10
-7.2175092883
 20
20.8203455543
 10
-7.2212943191
 20
20.8373938307
 10
-7.2265451368
 20
20.8540275983
 10
-7.2332185986
 20
20.8701258813
 10
-7.2412667501
 20
20.8855793284
 10
-7.2506287411
 20
20.9002722878
 10
-7.2612322266
 20
20.914092268
 10
-7.2730020918
 20
20.9269407941
 10
-7.2858563013
 20
20.9387246112
 10
-7.2996928553
 20
20.9493468445
 10
-7.314393423
 20
20.9587175114
 10
-7.3298259871
 20
20.9667589382
 10
-7.34588948
 20
20.9734246325
 10
-7.3625060845
 20
20.9786787983
 10
-7.379567652
 20
20.9824753626
 10
-7.396931438
 20
20.9847709048
 10
-7.4144655404
 20
20.9855385344
  0
LINE
  5
41F
100
AcDbEntity
  8
ASSI
100
AcDbLine
 62
7
  6
CONTINUOUS
 10
-8.5131674569
 20
23.5581814706
 11
-8.5
 21
23.1226497308
  0
LINE
  5
420
100
AcDbEntity
  8
ASSI
100
AcDbLine
 62
253
  6
CONTINUOUS
 10
-7.3982849591
 20
23.1226497308
 11
-7.4135581657
 21
23.6278320349
  0
LINE
  5
421
100
AcDbEntity
  8
ASSI
100
AcDbLine
 62
253
  6
CONTINUOUS
 10
-7.2135653227
 20
-24.2809148341
 11
-7.2136518311
 21
-24.2778659474
  0
LINE
  5
422
100
AcDbEntity
  8
ASSI
100
AcDbLine
 62
253
  6
CONTINUOUS
 10
-7.2
 20
23.3515746082
 11
-7.2136512619
 21
23.803306087
  0
LINE
  5
423
100
AcDbEntity
  8
ASSI
100
AcDbLine
 62
253
  6
CONTINUOUS
 10
-7.2136518311
 20
-24.2778659474
 11
-7.2137325895
 21
-24.2742093653
  0
LINE
  5
424
100
AcDbEntity
  8
ASSI
100
AcDbLine
 62
253
  6
CONTINUOUS
 10
-7.2136512619
 20
23.803306087
 11
-7.2137434171
 21
23.8075546465
  0
LINE
  5
425
100
AcDbEntity
  8
ASSI
100
AcDbLine
 62
253
  6
CONTINUOUS
 10
-7.2137434171
 20
23.8075546465
 11
-7.2138297068
 21
23.8128159526
  0
LINE
  5
426
100
AcDbEntity
  8
ASSI
100
AcDbLine
 62
253
  6
CONTINUOUS
 10
-7.2137325895
 20
-24.2742093653
 11
-7.2138395669
 21
-24.2676794682
  0
LINE
  5
427
100
AcDbEntity
  8
ASSI
100
AcDbLine
 62
253
  6
CONTINUOUS
 10
-7.4132648385
 20
-24.483491763
 11
-7.4133545273
 21
-24.4778273329
  0
LINE
  5
428
100
AcDbEntity
  8
ASSI
100
AcDbLine
 62
253
  6
CONTINUOUS
 10
-7.2138297068
 20
23.8128159526
 11
-7.2139267188
 21
23.8212891561
  0
LINE
  5
429
100
AcDbEntity
  8
DRAFT
100
AcDbLine
 62
7
  6
CONTINUOUS
 10
-7.6463850867
 20
-15.5068795788
 11
-7.6339602491
 21
-16.8514272135
  0
LINE
  5
42A
100
AcDbEntity
  8
ASSI
100
AcDbLine
 62
253
  6
CONTINUOUS
 10
-7.2138395669
 20
-24.2676794682
 11
-7.2139481065
 21
-24.2573857657
  0
LINE
  5
42B
100
AcDbEntity
  8
ASSI
100
AcDbLine
 62
253
  6
CONTINUOUS
 10
-7.4133545273
 20
-24.4778273329
 11
-7.4134903997
 21
-24.4634923985
  0
LINE
  5
42C
100
AcDbEntity
  8
RACCORDO
100
AcDbLine
 62
7
  6
CONTINUOUS
 10
-7.3563726863
 20
-15.6468205087
 11
-7.3471895691
 21
-17.1381978935
  0
LINE
  5
42D
100
AcDbEntity
  8
ASSI
100
AcDbLine
 62
253
  6
CONTINUOUS
 10
-7.2139267188
 20
23.8212891561
 11
-7.2140049359
 21
23.8336902665
  0
LINE
  5
42E
100
AcDbEntity
  8
ASSI
100
AcDbLine
 62
253
  6
CONTINUOUS
 10
-7.2139481065
 20
-24.2573857657
 11
-7.2140107016
 21
-24.245876294
  0
LINE
  5
42F
100
AcDbEntity
  8
ASSI
100
AcDbLine
 62
253
  6
CONTINUOUS
 10
-7.4134903997
 20
-24.4634923985
 11
-7.4138090971
 21
-24.3909111467
  0
LINE
  5
430
100
AcDbEntity
  8
RACCORDO
100
AcDbLine
 62
253
  6
CONTINUOUS
 10
-7.8616005005
 20
21.3693648495
 11
-7.8627940773
 21
21.6526319267
  0
LINE
  5
431
100
AcDbEntity
  8
ASSI
100
AcDbLine
 62
253
  6
CONTINUOUS
 10
-7.4135581457
 20
23.6278320349
 11
-7.4139340696
 21
23.7529212894
  0
LINE
  5
432
100
AcDbEntity
  8
RACCORDO
100
AcDbLine
 62
7
  6
CONTINUOUS
 10
-6.0819118713
 20
-15.7385854114
 11
-6.081967806
 21
-15.6468205087
  0
LINE
  5
433
100
AcDbEntity
  8
RACCORDO
100
AcDbLine
 62
253
  6
CONTINUOUS
 10
-8.0614243722
 20
21.2252970227
 11
-8.0620127384
 21
21.4550703176
  0
LINE
  5
434
100
AcDbEntity
  8
RACCORDO
100
AcDbLine
 62
7
  6
CONTINUOUS
 10
-6.428135869
 20
20.5562607898
 11
-6.4274888285
 21
18.9520022272
  0
LINE
  5
435
100
AcDbEntity
  8
RACCORDO
100
AcDbLine
 62
253
  6
CONTINUOUS
 10
-8.0614243722
 20
21.18553092
 11
-8.0614243722
 21
21.2252970227
  0
LINE
  5
436
100
AcDbEntity
  8
RACCORDO
100
AcDbLine
 62
7
  6
CONTINUOUS
 10
-8.0
 20
-10.0
 11
-8.0
 21
-6.7226898563
  0
LINE
  5
437
100
AcDbEntity
  8
RACCORDO
100
AcDbLine
 62
7
  6
CONTINUOUS
 10
-8.0
 20
-5.1773101437
 11
-8.0
 21
-2.4057426494
  0
LINE
  5
438
100
AcDbEntity
  8
RACCORDO
100
AcDbLine
 62
7
  6
CONTINUOUS
 10
-7.9542087063
 20
14.8957912937
 11
-7.9542087063
 21
14.5108367263
  0
LINE
  5
439
100
AcDbEntity
  8
RACCORDO
100
AcDbLine
 62
7
  6
CONTINUOUS
 10
-7.9542087063
 20
11.0891632737
 11
-7.9542087063
 21
10.5508468051
  0
LINE
  5
43A
100
AcDbEntity
  8
RACCORDO
100
AcDbLine
 62
253
  6
CONTINUOUS
 10
-7.8614548332
 20
20.9855385354
 11
-7.8616005005
 21
21.3693648495
  0
LINE
  5
43B
100
AcDbEntity
  8
RACCORDO
100
AcDbLine
 62
7
  6
CONTINUOUS
 10
-7.7787986637
 20
10.2
 11
-7.7787986637
 21
9.9768345149
  0
LINE
  5
43C
100
AcDbEntity
  8
DRAFT
100
AcDbLine
 62
7
  6
CONTINUOUS
 10
-7.7255647702
 20
17.3755647702
 11
-7.7255647702
 21
16.85
  0
LINE
  5
43D
100
AcDbEntity
  8
DRAFT
100
AcDbLine
 62
7
  6
CONTINUOUS
 10
-7.7255647702
 20
15.65
 11
-7.7255647702
 21
15.1244352298
  0
LINE
  5
43E
100
AcDbEntity
  8
DRAFT
100
AcDbLine
 62
7
  6
CONTINUOUS
 10
-7.7255647702
 20
13.7
 11
-7.7255647702
 21
13.6
  0
LINE
  5
43F
100
AcDbEntity
  8
DRAFT
100
AcDbLine
 62
7
  6
CONTINUOUS
 10
-7.6932753594
 20
17.4479977729
 11
-7.6932753594
 21
13.7322894108
  0
LINE
  5
440
100
AcDbEntity
  8
DRAFT
100
AcDbLine
 62
7
  6
CONTINUOUS
 10
-7.6932753594
 20
11.3
 11
-7.6932753594
 21
8.9
  0
LINE
  5
441
100
AcDbEntity
  8
ASSI
100
AcDbLine
 62
7
  6
CONTINUOUS
 10
-7.5
 20
12.8
 11
-7.5
 21
11.3
  0
LINE
  5
442
100
AcDbEntity
  8
0
100
AcDbLine
 62
7
  6
CONTINUOUS
 10
-7.5
 20
2.3586139741
 11
-7.5
 21
11.3
  0
LINE
  5
443
100
AcDbEntity
  8
ASSI
100
AcDbLine
 62
253
  6
CONTINUOUS
 10
-7.4138090971
 20
-24.3909111467
 11
-7.4139945176
 21
-24.2368706193
  0
LINE
  5
444
100
AcDbEntity
  8
RACCORDO
100
AcDbLine
 62
253
  6
CONTINUOUS
 10
-7.4144538492
 20
-20.9855385354
 11
-7.4144538492
 21
-21.18553092
  0
LINE
  5
445
100
AcDbEntity
  8
RACCORDO
100
AcDbLine
 62
253
  6
CONTINUOUS
 10
-7.4144538492
 20
20.9855385354
 11
-7.4144538492
 21
21.18553092
  0
LINE
  5
446
100
AcDbEntity
  8
RACCORDO
100
AcDbLine
 62
7
  6
CONTINUOUS
 10
-7.3261806034
 20
-20.673827012
 11
-7.3261806034
 21
-18.850527325
  0
LINE
  5
447
100
AcDbEntity
  8
0
100
AcDbLine
 62
7
  6
CONTINUOUS
 10
-7.315
 20
13.8
 11
-7.315
 21
13.3
  0
LINE
  5
448
100
AcDbEntity
  8
0
100
AcDbLine
 62
7
  6
CONTINUOUS
 10
-7.265
 20
13.3
 11
-7.265
 21
12.8
  0
LINE
  5
449
100
AcDbEntity
  8
RACCORDO
100
AcDbLine
 62
7
  6
CONTINUOUS
 10
-7.2144614646
 20
-20.7855365134
 11
-7.2144614646
 21
-19.9705349127
  0
LINE
  5
44A
100
AcDbEntity
  8
RACCORDO
100
AcDbLine
 62
7
  6
CONTINUOUS
 10
-7.2144614646
 20
19.9705349127
 11
-7.2144614646
 21
20.7855366255
  0
LINE
  5
44B
100
AcDbEntity
  8
ASSI
100
AcDbLine
 62
7
  6
CONTINUOUS
 10
-7.2
 20
24.300030461
 11
-7.2
 21
22.4
  0
LINE
  5
44C
100
AcDbEntity
  8
ASSI
100
AcDbLine
 62
7
  6
CONTINUOUS
 10
-7.2
 20
-22.4
 11
-7.2
 21
-24.300030461
  0
LINE
  5
44D
100
AcDbEntity
  8
RACCORDO
100
AcDbLine
 62
253
  6
CONTINUOUS
 10
-7.01446908
 20
-20.7855461508
 11
-7.01446908
 21
-19.7712959731
  0
LINE
  5
44E
100
AcDbEntity
  8
RACCORDO
100
AcDbLine
 62
253
  6
CONTINUOUS
 10
-7.01446908
 20
19.7712959731
 11
-7.01446908
 21
20.7855461508
  0
LINE
  5
44F
100
AcDbEntity
  8
RACCORDO
100
AcDbLine
 62
253
  6
CONTINUOUS
 10
-6.78553092
 20
-19.7712959731
 11
-6.78553092
 21
-20.8710900996
  0
LINE
  5
450
100
AcDbEntity
  8
RACCORDO
100
AcDbLine
 62
253
  6
CONTINUOUS
 10
-6.78553092
 20
19.7712959731
 11
-6.78553092
 21
20.8710900996
  0
LINE
  5
451
100
AcDbEntity
  8
DRAFT
100
AcDbLine
 62
7
  6
CONTINUOUS
 10
-6.7019074668
 20
18.7085226158
 11
-6.7019074668
 21
17.6914773842
  0
LINE
  5
452
100
AcDbEntity
  8
DRAFT
100
AcDbLine
 62
7
  6
CONTINUOUS
 10
-6.7019074668
 20
-15.2085226158
 11
-6.7019074668
 21
-14.1914773842
  0
LINE
  5
453
100
AcDbEntity
  8
0
100
AcDbLine
 62
7
  6
CONTINUOUS
 10
-6.65
 20
12.85
 11
-6.65
 21
12.8
  0
LINE
  5
454
100
AcDbEntity
  8
RACCORDO
100
AcDbLine
 62
7
  6
CONTINUOUS
 10
-6.5855385354
 20
20.8710900996
 11
-6.5855385354
 21
19.9705349127
  0
LINE
  5
455
100
AcDbEntity
  8
RACCORDO
100
AcDbLine
 62
7
  6
CONTINUOUS
 10
-6.5855385354
 20
-19.9705349127
 11
-6.5855385354
 21
-20.8712897967
  0
LINE
  5
456
100
AcDbEntity
  8
RACCORDO
100
AcDbLine
 62
7
  6
CONTINUOUS
 10
-6.4738193966
 20
-20.6476348041
 11
-6.4738193966
 21
-18.850527325
  0
LINE
  5
457
100
AcDbEntity
  8
RACCORDO
100
AcDbLine
 62
253
  6
CONTINUOUS
 10
-6.385565175
 20
-21.0710976899
 11
-6.385565175
 21
-21.2825097805
  0
LINE
  5
458
100
AcDbEntity
  8
RACCORDO
100
AcDbLine
 62
253
  6
CONTINUOUS
 10
-6.385565175
 20
21.0710976899
 11
-6.385565175
 21
21.2825097805
  0
LINE
  5
459
100
AcDbEntity
  8
RACCORDO
100
AcDbLine
 62
253
  6
CONTINUOUS
 10
-6.1875959918
 20
-2.1464160515
 11
-6.1875959918
 21
1.4877056967
  0
LINE
  5
45A
100
AcDbEntity
  8
RACCORDO
100
AcDbLine
 62
7
  6
CONTINUOUS
 10
-6.0780483897
 20
-2.1496415963
 11
-6.0780483897
 21
1.3
  0
LINE
  5
45B
100
AcDbEntity
  8
ASSI
100
AcDbLine
 62
253
  6
CONTINUOUS
 10
-7.4139945176
 20
-24.2368706193
 11
-7.4139915321
 21
-23.8231604515
  0
LINE
  5
45C
100
AcDbEntity
  8
RACCORDO
100
AcDbLine
 62
7
  6
CONTINUOUS
 10
-7.3721245332
 20
18.9520022272
 11
-7.3714633245
 21
20.6285442909
  0
LINE
  5
45D
100
AcDbEntity
  8
ASSI
100
AcDbLine
 62
253
  6
CONTINUOUS
 10
-7.2140049359
 20
23.8336902665
 11
-7.2140242625
 21
24.2392664356
  0
LINE
  5
45E
100
AcDbEntity
  8
ASSI
100
AcDbLine
 62
253
  6
CONTINUOUS
 10
-7.2140107016
 20
-24.245876294
 11
-7.2140244114
 21
-23.842236497
  0
LINE
  5
45F
100
AcDbEntity
  8
ASSI
100
AcDbLine
 62
253
  6
CONTINUOUS
 10
-7.4139340696
 20
23.7529212894
 11
-7.4139850671
 21
24.2735238833
  0
LINE
  5
460
100
AcDbEntity
  8
RACCORDO
100
AcDbLine
 62
253
  6
CONTINUOUS
 10
-7.8620789906
 20
-21.5209225819
 11
-7.8614548332
 21
-20.9855385354
  0
LINE
  5
461
100
AcDbEntity
  8
ASSI
100
AcDbLine
 62
253
  6
CONTINUOUS
 10
-7.4139915321
 20
-23.8231604515
 11
-7.4136368776
 21
-23.6424887067
  0
LINE
  5
462
100
AcDbEntity
  8
ASSI
100
AcDbLine
 62
253
  6
CONTINUOUS
 10
-7.4139850671
 20
24.2735238833
 11
-7.41362962
 21
24.4401659459
  0
LWPOLYLINE
  5
463
100
AcDbEntity
  8
RACCORDO
100
AcDbPolyline
 62
253
  6
CONTINUOUS
 90
3
 70
0
 10
-8.0620127384
 20
-21.4550703176
 10
-8.0618407686
 20
-21.4202780224
 10
-8.0614243722
 20
-21.18553092
  0
LINE
  5
464
100
AcDbEntity
  8
ASSI
100
AcDbLine
 62
253
  6
CONTINUOUS
 10
-7.2140242625
 20
24.2392664356
 11
-7.2139842507
 21
24.2519661943
  0
LINE
  5
465
100
AcDbEntity
  8
ASSI
100
AcDbLine
 62
253
  6
CONTINUOUS
 10
-7.2140244114
 20
-23.842236497
 11
-7.2139817247
 21
-23.8288029425
  0
LINE
  5
466
100
AcDbEntity
  8
ASSI
100
AcDbLine
 62
253
  6
CONTINUOUS
 10
-7.4136368776
 20
-23.6424887067
 11
-7.4135581409
 21
-23.6278312163
  0
LINE
  5
467
100
AcDbEntity
  8
RACCORDO
100
AcDbLine
 62
253
  6
CONTINUOUS
 10
-7.862794076
 20
-21.6526316835
 11
-7.8620789906
 21
-21.5209225819
  0
LINE
  5
468
100
AcDbEntity
  8
ASSI
100
AcDbLine
 62
253
  6
CONTINUOUS
 10
-7.41362962
 20
24.4401659459
 11
-7.4134454249
 21
24.4690437923
  0
LINE
  5
469
100
AcDbEntity
  8
ASSI
100
AcDbLine
 62
253
  6
CONTINUOUS
 10
-7.2139817247
 20
-23.8288029425
 11
-7.2139111249
 21
-23.8196453289
  0
LINE
  5
46A
100
AcDbEntity
  8
ASSI
100
AcDbLine
 62
253
  6
CONTINUOUS
 10
-7.2139842507
 20
24.2519661943
 11
-7.2139036739
 21
24.2622911606
  0
LWPOLYLINE
  5
46B
100
AcDbEntity
  8
ASSI
100
AcDbPolyline
 62
253
  6
CONTINUOUS
 90
6
 70
0
 10
-7.4134454249
 20
24.4690437923
 10
-7.4133452648
 20
24.4785319625
 10
-7.413293971
 20
24.4819586472
 10
-7.4132422594
 20
24.4844883764
 10
-7.4131899344
 20
24.4861145463
 10
-7.4131369959
 20
24.4868325431
  0
LINE
  5
46C
100
AcDbEntity
  8
ASSI
100
AcDbLine
 62
253
  6
CONTINUOUS
 10
-7.2139036739
 20
24.2622911606
 11
-7.2138140032
 21
24.2694630725
  0
LINE
  5
46D
100
AcDbEntity
  8
ASSI
100
AcDbLine
 62
253
  6
CONTINUOUS
 10
-7.2139111249
 20
-23.8196453289
 11
-7.2138049974
 21
-23.811149738
  0
LINE
  5
46E
100
AcDbEntity
  8
ASSI
100
AcDbLine
 62
253
  6
CONTINUOUS
 10
-7.2138140032
 20
24.2694630725
 11
-7.2137019072
 21
24.2757048168
  0
LINE
  5
46F
100
AcDbEntity
  8
ASSI
100
AcDbLine
 62
253
  6
CONTINUOUS
 10
-7.2138049974
 20
-23.811149738
 11
-7.2137041652
 21
-23.8056061647
  0
LINE
  5
470
100
AcDbEntity
  8
ASSI
100
AcDbLine
 62
253
  6
CONTINUOUS
 10
-7.2137041652
 20
-23.8056061647
 11
-7.2136287598
 21
-23.8024513968
  0
LWPOLYLINE
  5
471
100
AcDbEntity
  8
ASSI
100
AcDbPolyline
 62
253
  6
CONTINUOUS
 90
11
 70
0
 10
-7.2137019072
 20
24.2757048168
 10
-7.2136165449
 20
24.2792071049
 10
-7.213571221
 20
24.2807297652
 10
-7.2135241517
 20
24.2821017052
 10
-7.2134758785
 20
24.2833052692
 10
-7.2134263814
 20
24.2843379958
 10
-7.2133756803
 20
24.2852023465
 10
-7.2133243772
 20
24.2858880498
 10
-7.2132726725
 20
24.2863916819
 10
-7.2132203658
 20
24.2867166667
 10
-7.2131674569
 20
24.2868630041
  0
LINE
  5
472
100
AcDbEntity
  8
ASSI
100
AcDbLine
 62
7
  6
CONTINUOUS
 10
-8.5
 20
-23.1226497308
 11
-8.5131674569
 21
-23.5581814706
  0
LINE
  5
473
100
AcDbEntity
  8
ASSI
100
AcDbLine
 62
253
  6
CONTINUOUS
 10
-7.4135581409
 20
-23.6278312163
 11
-7.3982849591
 21
-23.1226497308
  0
LINE
  5
474
100
AcDbEntity
  8
ASSI
100
AcDbLine
 62
253
  6
CONTINUOUS
 10
-7.2136287598
 20
-23.8024513968
 11
-7.2
 21
-23.3515746082
  0
LWPOLYLINE
  5
475
100
AcDbEntity
  8
RACCORDO
100
AcDbPolyline
 62
253
  6
CONTINUOUS
 90
13
 70
0
 10
-8.0614243722
 20
-21.18553092
 10
-8.0597099752
 20
-21.159429296
 10
-8.0546040613
 20
-21.133774186
 10
-8.0461939757
 20
-21.1090044679
 10
-8.0346235974
 20
-21.08554389
 10
-8.0200908528
 20
-21.0637937697
 10
-8.002844309
 20
-21.0441261413
 10
-7.9831789544
 20
-21.0268774503
 10
-7.9614312111
 20
-21.0123428166
 10
-7.9379731523
 20
-21.0007709241
 10
-7.9132060916
 20
-20.9923597426
 10
-7.8875537061
 20
-20.9872531586
 10
-7.8614548332
 20
-20.9855385354
  0
LWPOLYLINE
  5
476
100
AcDbEntity
  8
RACCORDO
100
AcDbPolyline
 62
253
  6
CONTINUOUS
 90
13
 70
0
 10
-6.5855385354
 20
19.9705349127
 10
-6.5872676745
 20
19.9445416291
 10
-6.5923858468
 20
19.918992661
 10
-6.6008055653
 20
19.8943247326
 10
-6.6123828987
 20
19.8709595245
 10
-6.6269199548
 20
19.8492964142
 10
-6.6441682844
 20
19.8297056628
 10
-6.6638330975
 20
19.8125221409
 10
-6.6855782405
 20
19.7980396271
 10
-6.7090319673
 20
19.7865057241
 10
-6.733793346
 20
19.7781175976
 10
-6.7594391253
 20
19.7730186262
 10
-6.78553092
 20
19.7712959731
  0
LINE
  5
477
100
AcDbEntity
  8
DRAFT
100
AcDbLine
 62
7
  6
CONTINUOUS
 10
-9.5432634574
 20
-17.1381978935
 11
-9.5001148706
 21
-16.7023209677
  0
LINE
  5
478
100
AcDbEntity
  8
DRAFT
100
AcDbLine
 62
7
  6
CONTINUOUS
 10
-9.5872686779
 20
-3.7253974543
 11
-9.5
 21
-3.5508468051
  0
LINE
  5
479
100
AcDbEntity
  8
DRAFT
100
AcDbLine
 62
7
  6
CONTINUOUS
 10
-8.1173516096
 20
-2.4057426494
 11
-8.25
 21
-2.6710596363
  0
LINE
  5
47A
100
AcDbEntity
  8
RACCORDO
100
AcDbLine
 62
7
  6
CONTINUOUS
 10
7.7162893387
 20
18.9662893387
 11
7.75
 21
19.0
  0
LINE
  5
47B
100
AcDbEntity
  8
ASSI
100
AcDbLine
 62
253
  6
CONTINUOUS
 10
11.1
 20
21.9000761524
 11
11.0825449351
 21
21.8826210875
  0
LINE
  5
47C
100
AcDbEntity
  8
DRAFT
100
AcDbLine
 62
7
  6
CONTINUOUS
 10
7.7979977728
 20
17.4479977729
 11
7.7255647702
 21
17.3755647702
  0
LINE
  5
47D
100
AcDbEntity
  8
DRAFT
100
AcDbLine
 62
7
  6
CONTINUOUS
 10
-10.0
 20
-0.5
 11
-9.7730841559
 21
-0.2730841559
  0
LINE
  5
47E
100
AcDbEntity
  8
DRAFT
100
AcDbLine
 62
7
  6
CONTINUOUS
 10
-9.55
 20
-10.5244352298
 11
-9.4522218454
 21
-10.5
  0
LINE
  5
47F
100
AcDbEntity
  8
DRAFT
100
AcDbLine
 62
7
  6
CONTINUOUS
 10
-9.5
 20
-7.9957912937
 11
-8.5109333469
 21
-7.9957912937
  0
LINE
  5
480
100
AcDbEntity
  8
DRAFT
100
AcDbLine
 62
7
  6
CONTINUOUS
 10
9.5
 20
-7.9957912937
 11
8.5109333469
 21
-7.9957912937
  0
LINE
  5
481
100
AcDbEntity
  8
DRAFT
100
AcDbLine
 62
7
  6
CONTINUOUS
 10
-9.8414773842
 20
-7.9085226158
 11
-9.5872686779
 21
-7.9085226158
  0
LINE
  5
482
100
AcDbEntity
  8
DRAFT
100
AcDbLine
 62
7
  6
CONTINUOUS
 10
9.5872686779
 20
-7.9085226158
 11
9.8414773842
 21
-7.9085226158
  0
LINE
  5
483
100
AcDbEntity
  8
RACCORDO
100
AcDbLine
 62
253
  6
CONTINUOUS
 10
-9.5
 20
-7.7312924592
 11
-8.5109333469
 21
-7.7312924592
  0
LINE
  5
484
100
AcDbEntity
  8
RACCORDO
100
AcDbLine
 62
253
  6
CONTINUOUS
 10
8.5109333469
 20
-7.7312924592
 11
9.5
 21
-7.7312924592
  0
LINE
  5
485
100
AcDbEntity
  8
RACCORDO
100
AcDbLine
 62
253
  6
CONTINUOUS
 10
-9.4966110309
 20
-6.9313229207
 11
-8.504012777
 21
-6.9313229207
  0
LINE
  5
486
100
AcDbEntity
  8
RACCORDO
100
AcDbLine
 62
253
  6
CONTINUOUS
 10
8.504012777
 20
-6.9313229207
 11
9.4966110309
 21
-6.9313229207
  0
LINE
  5
487
100
AcDbEntity
  8
DRAFT
100
AcDbLine
 62
7
  6
CONTINUOUS
 10
8.25
 20
-6.7226898563
 11
-8.25
 21
-6.7226898563
  0
LINE
  5
488
100
AcDbEntity
  8
DRAFT
100
AcDbLine
 62
7
  6
CONTINUOUS
 10
-9.4
 20
-6.7
 11
9.4
 21
-6.7
  0
LINE
  5
489
100
AcDbEntity
  8
DRAFT
100
AcDbLine
 62
7
  6
CONTINUOUS
 10
9.55
 20
-10.5244352298
 11
9.4522218454
 21
-10.5
  0
LINE
  5
48A
100
AcDbEntity
  8
ASSI
100
AcDbLine
 62
253
  6
CONTINUOUS
 10
11.0825449351
 20
-21.8826210875
 11
11.1
 21
-21.9000761524
  0
LINE
  5
48B
100
AcDbEntity
  8
DRAFT
100
AcDbLine
 62
7
  6
CONTINUOUS
 10
-10.0
 20
0.5
 11
-9.7730841559
 21
0.2730841559
  0
LINE
  5
48C
100
AcDbEntity
  8
RACCORDO
100
AcDbLine
 62
253
  6
CONTINUOUS
 10
-6.2780407743
 20
-2.3496111353
 11
-6.2499771547
 21
-2.4057426494
  0
LINE
  5
48D
100
AcDbEntity
  8
DRAFT
100
AcDbLine
 62
7
  6
CONTINUOUS
 10
-8.75
 20
2.6710596363
 11
-8.5937890665
 21
2.3586139741
  0
LINE
  5
48E
100
AcDbEntity
  8
RACCORDO
100
AcDbLine
 62
253
  6
CONTINUOUS
 10
-6.0780483897
 20
-2.1496415963
 11
-6.05
 21
-2.2057426482
  0
LWPOLYLINE
  5
48F
100
AcDbEntity
  8
RACCORDO
100
AcDbPolyline
 62
7
  6
CONTINUOUS
 90
7
 70
0
 10
-4.4105833317
 20
-19.2683766108
 10
-4.409840372
 20
-19.2725116849
 10
-4.4091164849
 20
-19.2800213719
 10
-4.4084116701
 20
-19.2909056717
 10
-4.4077213247
 20
-19.3052922003
 10
-4.4070500517
 20
-19.3230533416
 10
-4.4064116607
 20
-19.3438062481
  0
LWPOLYLINE
  5
490
100
AcDbEntity
  8
ASSI
100
AcDbPolyline
 62
253
  6
CONTINUOUS
 90
6
 70
0
 10
-3.1286750776
 20
-21.975182794
 10
-3.1291601022
 20
-21.9721266543
 10
-3.1296374951
 20
-21.9650871366
 10
-3.1301072563
 20
-21.9540642408
 10
-3.1305721233
 20
-21.9389548805
 10
-3.1310293586
 20
-21.9198621423
  0
LINE
  5
491
100
AcDbEntity
  8
RACCORDO
100
AcDbLine
 62
253
  6
CONTINUOUS
 10
-6.78553092
 20
19.7712959731
 11
-6.7038075525
 21
18.9520022272
  0
LINE
  5
492
100
AcDbEntity
  8
RACCORDO
100
AcDbLine
 62
253
  6
CONTINUOUS
 10
-6.5855385354
 20
19.9705349127
 11
-6.4839413715
 21
18.9520022272
  0
LWPOLYLINE
  5
493
100
AcDbEntity
  8
ASSI
100
AcDbPolyline
 62
7
  6
CONTINUOUS
 90
13
 70
0
 10
-7.2
 20
24.300030461
 10
-7.2017102642
 20
24.3261325878
 10
-7.2068124405
 20
24.3517877661
 10
-7.2152194218
 20
24.3765572875
 10
-7.2267876629
 20
24.4000177444
 10
-7.24131945
 20
24.4217675502
 10
-7.2585660278
 20
24.4414339722
 10
-7.2782324498
 20
24.45868055
 10
-7.2999822556
 20
24.4732123371
 10
-7.3234427125
 20
24.4847805782
 10
-7.3482122339
 20
24.4931875595
 10
-7.3738674122
 20
24.4982897358
 10
-7.399969539
 20
24.5
  0
LWPOLYLINE
  5
494
100
AcDbEntity
  8
RACCORDO
100
AcDbPolyline
 62
7
  6
CONTINUOUS
 90
13
 70
0
 10
-7.3714633245
 20
20.6285442909
 10
-7.3731558961
 20
20.6546116211
 10
-7.3782293871
 20
20.6802422787
 10
-7.3865997741
 20
20.7049988821
 10
-7.3981255963
 20
20.7284572893
 10
-7.4126130153
 20
20.7502173474
 10
-7.4298207275
 20
20.769908666
 10
-7.4494590705
 20
20.7871928197
 10
-7.4711937911
 20
20.8017695772
 10
-7.4946555453
 20
20.8133849107
 10
-7.5194441201
 20
20.8218355897
 10
-7.5451352495
 20
20.8269727732
 10
-7.5712884313
 20
20.8287039533
  0
LWPOLYLINE
  5
495
100
AcDbEntity
  8
RACCORDO
100
AcDbPolyline
 62
7
  6
CONTINUOUS
 90
13
 70
0
 10
-5.4444055569
 20
20.5556249041
 10
-5.4460871027
 20
20.5817165161
 10
-5.4511517367
 20
20.6073675727
 10
-5.4595142543
 20
20.6321406081
 10
-5.4710316026
 20
20.6556115486
 10
-5.4855092396
 20
20.677380867
 10
-5.50270655
 20
20.697079033
 10
-5.5223344565
 20
20.7143687474
 10
-5.5440576601
 20
20.7289495441
 10
-5.5675052007
 20
20.7405667464
 10
-5.592276102
 20
20.74901822
 10
-5.6179467224
 20
20.7541571263
 10
-5.6440771199
 20
20.7558924191
  0
LWPOLYLINE
  5
496
100
AcDbEntity
  8
ASSI
100
AcDbPolyline
 62
7
  6
CONTINUOUS
 90
16
 70
0
 10
-4.45
 20
-23.7500380762
 10
-4.4486505878
 20
-23.7759809831
 10
-4.4445943169
 20
-23.8017480173
 10
-4.4378423144
 20
-23.8270535846
 10
-4.4283964102
 20
-23.8517009881
 10
-4.4163505324
 20
-23.8753074461
 10
-4.4019831437
 20
-23.897354591
 10
-4.385651735
 20
-23.9174650114
 10
-4.3674650114
 20
-23.935651735
 10
-4.347354591
 20
-23.9519831437
 10
-4.3253074461
 20
-23.9663505324
 10
-4.3017009881
 20
-23.9783964102
 10
-4.2770535846
 20
-23.9878423144
 10
-4.2517480173
 20
-23.9945943169
 10
-4.2259809831
 20
-23.9986505878
 10
-4.2000380762
 20
-24.0
  0
LWPOLYLINE
  5
497
100
AcDbEntity
  8
RACCORDO
100
AcDbPolyline
 62
253
  6
CONTINUOUS
 90
19
 70
0
 10
-7.01446908
 20
20.7855461508
 10
-7.0161040146
 20
20.8208819105
 10
-7.0206553146
 20
20.855412454
 10
-7.0281229802
 20
20.8891377812
 10
-7.0386061523
 20
20.9222921503
 10
-7.0520056899
 20
20.9546413032
 10
-7.0680241697
 20
20.9854824654
 10
-7.0867172158
 20
21.0147876697
 10
-7.1080292041
 20
21.0425848833
 10
-7.1314958392
 20
21.068255234
 10
-7.1571844797
 20
21.0917613505
 10
-7.185027767
 20
21.1131406041
 10
-7.2143593298
 20
21.1318862361
 10
-7.2451724477
 20
21.1479222727
 10
-7.2774738411
 20
21.1613246877
 10
-7.3106172991
 20
21.1718146436
 10
-7.3443874179
 20
21.1792991948
 10
-7.3789996013
 20
21.1838712869
 10
-7.4144538492
 20
21.18553092
  0
LWPOLYLINE
  5
498
100
AcDbEntity
  8
RACCORDO
100
AcDbPolyline
 62
253
  6
CONTINUOUS
 90
13
 70
0
 10
-5.1288794394
 20
20.8711415087
 10
-5.1296988454
 20
20.889302328
 10
-5.1321603835
 20
20.9072956407
 10
-5.136239174
 20
20.9249738793
 10
-5.1418954109
 20
20.9421882893
 10
-5.149079216
 20
20.9588037844
 10
-5.1577351301
 20
20.9746983398
 10
-5.1677931991
 20
20.9897441508
 10
-5.1791693753
 20
21.0038161771
 10
-5.1917750704
 20
21.0168043198
 10
-5.205509735
 20
21.0286027619
 10
-5.2202600687
 20
21.0391121676
 10
-5.2359058453
 20
21.0482453455
  0
LINE
  5
499
100
AcDbEntity
  8
RACCORDO
100
AcDbLine
 62
253
  6
CONTINUOUS
 10
-4.6046783066
 20
-19.5612083791
 11
-4.6037601728
 21
-19.6006383491
  0
LINE
  5
49A
100
AcDbEntity
  8
RACCORDO
100
AcDbLine
 62
7
  6
CONTINUOUS
 10
-4.4064116607
 20
-19.3438062481
 11
-4.4052347466
 21
-19.3944112228
  0
LINE
  5
49B
100
AcDbEntity
  8
RACCORDO
100
AcDbLine
 62
7
  6
CONTINUOUS
 10
-4.4052347466
 20
-19.3944112228
 11
-4.4042263071
 21
-19.4553203855
  0
LINE
  5
49C
100
AcDbEntity
  8
RACCORDO
100
AcDbLine
 62
253
  6
CONTINUOUS
 10
-4.6037601728
 20
-19.6006383491
 11
-4.6030492864
 21
-19.6448215918
  0
LINE
  5
49D
100
AcDbEntity
  8
RACCORDO
100
AcDbLine
 62
253
  6
CONTINUOUS
 10
-4.6030492864
 20
-19.6448215918
 11
-4.6025606211
 21
-19.6925173864
  0
LINE
  5
49E
100
AcDbEntity
  8
RACCORDO
100
AcDbLine
 62
7
  6
CONTINUOUS
 10
-4.4042263071
 20
-19.4553203855
 11
-4.4030793517
 21
-19.5628710535
  0
LINE
  5
49F
100
AcDbEntity
  8
RACCORDO
100
AcDbLine
 62
253
  6
CONTINUOUS
 10
-4.6025606211
 20
-19.6925173864
 11
-4.6023152672
 21
-19.7423509543
  0
LINE
  5
4A0
100
AcDbEntity
  8
RACCORDO
100
AcDbLine
 62
7
  6
CONTINUOUS
 10
-4.4030793517
 20
-19.5628710535
 11
-4.4024383518
 21
-19.683283266
  0
LINE
  5
4A1
100
AcDbEntity
  8
RACCORDO
100
AcDbLine
 62
7
  6
CONTINUOUS
 10
-4.4024383518
 20
-19.683283266
 11
-4.402312563
 21
-19.7676913781
  0
LINE
  5
4A2
100
AcDbEntity
  8
RACCORDO
100
AcDbLine
 62
253
  6
CONTINUOUS
 10
-4.4527573462
 20
-17.8470783805
 11
-4.4519667385
 21
-19.1441254286
  0
LINE
  5
4A3
100
AcDbEntity
  8
RACCORDO
100
AcDbLine
 62
7
  6
CONTINUOUS
 10
-6.05
 20
-2.2057426482
 11
-6.05
 21
-1.2
  0
LINE
  5
4A4
100
AcDbEntity
  8
0
100
AcDbLine
 62
7
  6
CONTINUOUS
 10
-6.015
 20
12.85
 11
-6.015
 21
14.8
  0
LINE
  5
4A5
100
AcDbEntity
  8
DRAFT
100
AcDbLine
 62
7
  6
CONTINUOUS
 10
-6.0
 20
-15.3839326584
 11
-6.0
 21
-14.0160673416
  0
LINE
  5
4A6
100
AcDbEntity
  8
DRAFT
100
AcDbLine
 62
7
  6
CONTINUOUS
 10
-6.0
 20
17.5160673416
 11
-6.0
 21
18.8839326584
  0
LINE
  5
4A7
100
AcDbEntity
  8
0
100
AcDbLine
 62
7
  6
CONTINUOUS
 10
-5.87
 20
12.85
 11
-5.87
 21
12.8
  0
LINE
  5
4A8
100
AcDbEntity
  8
DRAFT
100
AcDbLine
 62
7
  6
CONTINUOUS
 10
-5.5
 20
-13.8755647702
 11
-5.5
 21
-10.9677105892
  0
LINE
  5
4A9
100
AcDbEntity
  8
DRAFT
100
AcDbLine
 62
7
  6
CONTINUOUS
 10
-5.492145819
 20
-11.5
 11
-5.4921463174
 21
-13.8677107886
  0
LINE
  5
4AA
100
AcDbEntity
  8
DRAFT
100
AcDbLine
 62
7
  6
CONTINUOUS
 10
-5.4746920834
 20
-11.4825462644
 11
-5.4746920834
 21
-10.9930185058
  0
LINE
  5
4AB
100
AcDbEntity
  8
0
100
AcDbLine
 62
7
  6
CONTINUOUS
 10
-5.415
 20
14.8
 11
-5.415
 21
13.1931031957
  0
LINE
  5
4AC
100
AcDbEntity
  8
RACCORDO
100
AcDbLine
 62
7
  6
CONTINUOUS
 10
-5.3523651948
 20
-20.1737965513
 11
-5.3523651948
 21
-20.6476652662
  0
LINE
  5
4AD
100
AcDbEntity
  8
RACCORDO
100
AcDbLine
 62
253
  6
CONTINUOUS
 10
-5.3288718492
 20
-21.0710976899
 11
-5.3288718492
 21
-21.2825097805
  0
LINE
  5
4AE
100
AcDbEntity
  8
RACCORDO
100
AcDbLine
 62
253
  6
CONTINUOUS
 10
-5.3288718492
 20
21.0710976899
 11
-5.3288718492
 21
21.2825097805
  0
LINE
  5
4AF
100
AcDbEntity
  8
RACCORDO
100
AcDbLine
 62
253
  6
CONTINUOUS
 10
-5.1288794371
 20
-20.871139329
 11
-5.1288794371
 21
-20.28553092
  0
LINE
  5
4B0
100
AcDbEntity
  8
RACCORDO
100
AcDbLine
 62
253
  6
CONTINUOUS
 10
-5.1288794371
 20
20.28553092
 11
-5.1288794371
 21
20.8711415107
  0
LINE
  5
4B1
100
AcDbEntity
  8
RACCORDO
100
AcDbLine
 62
253
  6
CONTINUOUS
 10
-4.9289098981
 20
-20.0855385354
 11
-4.9289098981
 21
-20.8711510238
  0
LINE
  5
4B2
100
AcDbEntity
  8
RACCORDO
100
AcDbLine
 62
253
  6
CONTINUOUS
 10
-4.9289098981
 20
20.0855385354
 11
-4.9289098981
 21
20.8711510238
  0
LINE
  5
4B3
100
AcDbEntity
  8
RACCORDO
100
AcDbLine
 62
253
  6
CONTINUOUS
 10
-4.6527268314
 20
-17.8541464545
 11
-4.6519362775
 21
-19.3438513356
  0
LINE
  5
4B4
100
AcDbEntity
  8
ASSI
100
AcDbLine
 62
7
  6
CONTINUOUS
 10
-4.65
 20
13.7211646096
 11
-4.65
 21
14.4
  0
LINE
  5
4B5
100
AcDbEntity
  8
RACCORDO
100
AcDbLine
 62
253
  6
CONTINUOUS
 10
-4.6023152672
 20
-19.7423509543
 11
-4.602282102
 21
-19.9738193966
  0
LINE
  5
4B6
100
AcDbEntity
  8
ASSI
100
AcDbLine
 62
7
  6
CONTINUOUS
 10
-4.45
 20
-23.7500380762
 11
-4.45
 21
-23.4179449472
  0
LINE
  5
4B7
100
AcDbEntity
  8
ASSI
100
AcDbLine
 62
7
  6
CONTINUOUS
 10
-4.45
 20
-22.9820550528
 11
-4.45
 21
-22.4
  0
LINE
  5
4B8
100
AcDbEntity
  8
ASSI
100
AcDbLine
 62
7
  6
CONTINUOUS
 10
-4.45
 20
22.4
 11
-4.45
 21
22.9820550528
  0
LINE
  5
4B9
100
AcDbEntity
  8
ASSI
100
AcDbLine
 62
7
  6
CONTINUOUS
 10
-4.45
 20
23.4179449472
 11
-4.45
 21
23.7500380762
  0
LINE
  5
4BA
100
AcDbEntity
  8
RACCORDO
100
AcDbLine
 62
253
  6
CONTINUOUS
 10
-4.402312563
 20
-19.7676913781
 11
-4.402312563
 21
-19.7755571545
  0
LINE
  5
4BB
100
AcDbEntity
  8
ASSI
100
AcDbLine
 62
7
  6
CONTINUOUS
 10
-4.3539971429
 20
23.5393800954
 11
-4.3539971429
 21
22.8606199046
  0
LINE
  5
4BC
100
AcDbEntity
  8
ASSI
100
AcDbLine
 62
7
  6
CONTINUOUS
 10
-4.3539971429
 20
-22.8606199046
 11
-4.3539971429
 21
-23.5393800954
  0
LINE
  5
4BD
100
AcDbEntity
  8
ASSI
100
AcDbLine
 62
253
  6
CONTINUOUS
 10
-4.3518840226
 20
-23.6519220988
 11
-4.3518840226
 21
-22.3018840226
  0
LINE
  5
4BE
100
AcDbEntity
  8
ASSI
100
AcDbLine
 62
253
  6
CONTINUOUS
 10
-4.3518840226
 20
22.3018840226
 11
-4.3518840226
 21
23.6519220988
  0
LINE
  5
4BF
100
AcDbEntity
  8
RACCORDO
100
AcDbLine
 62
253
  6
CONTINUOUS
 10
-4.3444976057
 20
-17.9554262419
 11
-4.3444960492
 21
-19.8044632098
  0
LINE
  5
4C0
100
AcDbEntity
  8
RACCORDO
100
AcDbLine
 62
253
  6
CONTINUOUS
 10
-3.9532603211
 20
-17.1538261917
 11
-3.9532603211
 21
-17.3468158314
  0
LINE
  5
4C1
100
AcDbEntity
  8
RACCORDO
100
AcDbLine
 62
7
  6
CONTINUOUS
 10
-5.4447682533
 20
20.1275985407
 11
-5.4444055569
 21
20.5556249041
  0
LWPOLYLINE
  5
4C2
100
AcDbEntity
  8
ASSI
100
AcDbPolyline
 62
7
  6
CONTINUOUS
 90
16
 70
0
 10
-4.45
 20
23.7500380762
 10
-4.4486505878
 20
23.7759809831
 10
-4.4445943169
 20
23.8017480173
 10
-4.4378423144
 20
23.8270535846
 10
-4.4283964102
 20
23.8517009881
 10
-4.4163505324
 20
23.8753074461
 10
-4.4019831437
 20
23.897354591
 10
-4.385651735
 20
23.9174650114
 10
-4.3674650114
 20
23.935651735
 10
-4.347354591
 20
23.9519831437
 10
-4.3253074461
 20
23.9663505324
 10
-4.3017009881
 20
23.9783964102
 10
-4.2770535846
 20
23.9878423144
 10
-4.2517480173
 20
23.9945943169
 10
-4.2259809831
 20
23.9986505878
 10
-4.2000380762
 20
24.0
  0
LWPOLYLINE
  5
4C3
100
AcDbEntity
  8
RACCORDO
100
AcDbPolyline
 62
253
  6
CONTINUOUS
 90
13
 70
0
 10
-6.1875959918
 20
-2.1464160515
 10
-6.1891344207
 20
-2.1723393773
 10
-6.1932822584
 20
-2.1978251556
 10
-6.1999694818
 20
-2.2224433304
 10
-6.2090832258
 20
-2.24577851
 10
-6.2204696705
 20
-2.2674369264
 10
-6.2339366221
 20
-2.2870530921
 10
-6.2492567903
 20
-2.3042960288
 10
-6.2661716439
 20
-2.3188748433
 10
-6.2843957473
 20
-2.33054359
 10
-6.3036215792
 20
-2.3391054285
 10
-6.3235247206
 20
-2.344415945
 10
-6.3437693356
 20
-2.3463855905
  0
LWPOLYLINE
  5
4C4
100
AcDbEntity
  8
ASSI
100
AcDbPolyline
 62
7
  6
CONTINUOUS
 90
13
 70
0
 10
-7.2
 20
-24.300030461
 10
-7.2017102642
 20
-24.3261325878
 10
-7.2068124405
 20
-24.3517877661
 10
-7.2152194218
 20
-24.3765572875
 10
-7.2267876629
 20
-24.4000177444
 10
-7.24131945
 20
-24.4217675502
 10
-7.2585660278
 20
-24.4414339722
 10
-7.2782324498
 20
-24.45868055
 10
-7.2999822556
 20
-24.4732123371
 10
-7.3234427125
 20
-24.4847805782
 10
-7.3482122339
 20
-24.4931875594
 10
-7.3738674122
 20
-24.4982897358
 10
-7.399969539
 20
-24.5
  0
LWPOLYLINE
  5
4C5
100
AcDbEntity
  8
RACCORDO
100
AcDbPolyline
 62
253
  6
CONTINUOUS
 90
13
 70
0
 10
-6.0780483897
 20
-2.1496415963
 10
-6.0797629963
 20
-2.1757403429
 10
-6.0848695337
 20
-2.2013926192
 10
-6.0932806447
 20
-2.2261595926
 10
-6.1048524405
 20
-2.2496175753
 10
-6.1193869631
 20
-2.2713652726
 10
-6.1366355706
 20
-2.2910306472
 10
-6.156303192
 20
-2.3082772844
 10
-6.1780533738
 20
-2.3228101465
 10
-6.2015140364
 20
-2.3343806205
 10
-6.2262838392
 20
-2.3427907706
 10
-6.2519390461
 20
-2.3478967246
 10
-6.2780407743
 20
-2.3496111353
  0
LWPOLYLINE
  5
4C6
100
AcDbEntity
  8
RACCORDO
100
AcDbPolyline
 62
253
  6
CONTINUOUS
 90
13
 70
0
 10
-7.2144614646
 20
-19.9705349127
 10
-7.2127323254
 20
-19.9445416287
 10
-7.2076141534
 20
-19.9189926615
 10
-7.1991944358
 20
-19.8943247352
 10
-7.1876171049
 20
-19.8709595306
 10
-7.173080053
 20
-19.8492964243
 10
-7.1558317286
 20
-19.8297056758
 10
-7.1361669225
 20
-19.8125221562
 10
-7.1144217871
 20
-19.798039643
 10
-7.0909680633
 20
-19.7865057368
 10
-7.0662066805
 20
-19.7781176047
 10
-7.0405608909
 20
-19.7730186283
 10
-7.01446908
 20
-19.7712959731
  0
LINE
  5
4C7
100
AcDbEntity
  8
RACCORDO
100
AcDbLine
 62
253
  6
CONTINUOUS
 10
-6.78553092
 20
-19.7712959731
 11
-6.673674893
 21
-18.6499160521
  0
LINE
  5
4C8
100
AcDbEntity
  8
RACCORDO
100
AcDbLine
 62
253
  6
CONTINUOUS
 10
-6.5855385354
 20
-19.9705349127
 11
-6.4738193966
 21
-18.850527325
  0
LINE
  5
4C9
100
AcDbEntity
  8
RACCORDO
100
AcDbLine
 62
7
  6
CONTINUOUS
 10
-9.4
 20
-6.7340347844
 11
-9.4966110309
 21
-6.9313229207
  0
LINE
  5
4CA
100
AcDbEntity
  8
DRAFT
100
AcDbLine
 62
7
  6
CONTINUOUS
 10
-8.5109333469
 20
-3.5508468051
 11
-8.3355233043
 21
-3.2
  0
LINE
  5
4CB
100
AcDbEntity
  8
RACCORDO
100
AcDbLine
 62
253
  6
CONTINUOUS
 10
6.4784950055
 20
21.0482314347
 11
6.5714059782
 21
21.2252970225
  0
LINE
  5
4CC
100
AcDbEntity
  8
DRAFT
100
AcDbLine
 62
7
  6
CONTINUOUS
 10
10.8085226158
 20
18.7085226158
 11
11.1
 21
19.0
  0
LINE
  5
4CD
100
AcDbEntity
  8
DRAFT
100
AcDbLine
 62
7
  6
CONTINUOUS
 10
9.8414773842
 20
17.6914773842
 11
9.55
 21
17.4
  0
LINE
  5
4CE
100
AcDbEntity
  8
DRAFT
100
AcDbLine
 62
7
  6
CONTINUOUS
 10
-10.0
 20
-2.5
 11
-9.7730841559
 21
-2.2730841559
  0
LINE
  5
4CF
100
AcDbEntity
  8
DRAFT
100
AcDbLine
 62
7
  6
CONTINUOUS
 10
8.7746920834
 20
15.3746920834
 11
8.7831563161
 21
15.3831563161
  0
LINE
  5
4D0
100
AcDbEntity
  8
DRAFT
100
AcDbLine
 62
7
  6
CONTINUOUS
 10
8.2726898563
 20
-5.2
 11
-8.2726898563
 21
-5.2
  0
LINE
  5
4D1
100
AcDbEntity
  8
DRAFT
100
AcDbLine
 62
7
  6
CONTINUOUS
 10
-8.25
 20
-5.1773101437
 11
8.25
 21
-5.1773101437
  0
LINE
  5
4D2
100
AcDbEntity
  8
DRAFT
100
AcDbLine
 62
7
  6
CONTINUOUS
 10
-9.4
 20
-4.9
 11
-8.2726898563
 21
-4.9
  0
LINE
  5
4D3
100
AcDbEntity
  8
DRAFT
100
AcDbLine
 62
7
  6
CONTINUOUS
 10
8.2726898563
 20
-4.9
 11
9.4
 21
-4.9
  0
LINE
  5
4D4
100
AcDbEntity
  8
RACCORDO
100
AcDbLine
 62
253
  6
CONTINUOUS
 10
9.4966110309
 20
-4.6686770793
 11
8.504012777
 21
-4.6686770793
  0
LINE
  5
4D5
100
AcDbEntity
  8
RACCORDO
100
AcDbLine
 62
253
  6
CONTINUOUS
 10
-8.504012777
 20
-4.6686770793
 11
-9.4966110309
 21
-4.6686770793
  0
LINE
  5
4D6
100
AcDbEntity
  8
DRAFT
100
AcDbLine
 62
7
  6
CONTINUOUS
 10
-10.0
 20
2.5
 11
-9.7730841559
 21
2.2730841559
  0
LINE
  5
4D7
100
AcDbEntity
  8
DRAFT
100
AcDbLine
 62
7
  6
CONTINUOUS
 10
8.3198149423
 20
-13.9130903017
 11
8.2569814942
 21
-13.8502568536
  0
LINE
  5
4D8
100
AcDbEntity
  8
RACCORDO
100
AcDbLine
 62
253
  6
CONTINUOUS
 10
6.4784948896
 20
-21.0482312138
 11
6.5714059779
 21
-21.2252970227
  0
LINE
  5
4D9
100
AcDbEntity
  8
DRAFT
100
AcDbLine
 62
7
  6
CONTINUOUS
 10
-9.55
 20
10.2
 11
-9.6285418101
 21
10.3570955844
  0
LINE
  5
4DA
100
AcDbEntity
  8
0
100
AcDbLine
 62
7
  6
CONTINUOUS
 10
-6.1
 20
1.3
 11
-7.5
 21
4.3
  0
LWPOLYLINE
  5
4DB
100
AcDbEntity
  8
ASSI
100
AcDbPolyline
 62
253
  6
CONTINUOUS
 90
5
 70
0
 10
-3.3786655583
 20
-22.2251447178
 10
-3.3791531838
 20
-22.2211208594
 10
-3.379632348
 20
-22.2116508462
 10
-3.380103051
 20
-22.1967864891
 10
-3.3805677578
 20
-22.1766091187
  0
LWPOLYLINE
  5
4DC
100
AcDbEntity
  8
RACCORDO
100
AcDbPolyline
 62
253
  6
CONTINUOUS
 90
13
 70
0
 10
-4.9289098981
 20
20.8711510238
 10
-4.9306866278
 20
20.9079145537
 10
-4.9356012523
 20
20.9437724277
 10
-4.9436537715
 20
20.9787246457
 10
-4.9549607455
 20
21.0130322062
 10
-4.9694056143
 20
21.0464341108
 10
-4.9866386976
 20
21.0781473638
 10
-5.0067243603
 20
21.1081369737
 10
-5.0295982374
 20
21.1364379321
 10
-5.0547175534
 20
21.1623722182
 10
-5.0819013831
 20
21.1857138252
 10
-5.1113306516
 20
21.2066887601
 10
-5.1730036969
 20
21.2428404216
  0
LINE
  5
4DD
100
AcDbEntity
  8
ASSI
100
AcDbLine
 62
7
  6
CONTINUOUS
 10
-3.1173032135
 20
-21.6326967865
 11
-3.1351059998
 21
-20.8901985088
  0
LINE
  5
4DE
100
AcDbEntity
  8
ASSI
100
AcDbLine
 62
253
  6
CONTINUOUS
 10
-3.1310293586
 20
-21.9198621423
 11
-3.1318957974
 21
-21.8705942406
  0
LINE
  5
4DF
100
AcDbEntity
  8
ASSI
100
AcDbLine
 62
253
  6
CONTINUOUS
 10
-3.3805677578
 20
-22.1766091187
 11
-3.3814643926
 21
-22.1207851486
  0
LINE
  5
4E0
100
AcDbEntity
  8
ASSI
100
AcDbLine
 62
253
  6
CONTINUOUS
 10
-3.1318957974
 20
-21.8705942406
 11
-3.133055364
 21
-21.7704586097
  0
LINE
  5
4E1
100
AcDbEntity
  8
ASSI
100
AcDbLine
 62
253
  6
CONTINUOUS
 10
-3.3814643926
 20
-22.1207851486
 11
-3.3826830282
 21
-22.0008673253
  0
LINE
  5
4E2
100
AcDbEntity
  8
ASSI
100
AcDbLine
 62
253
  6
CONTINUOUS
 10
-3.133055364
 20
-21.7704586097
 11
-3.1342498387
 21
-21.5960791546
  0
LINE
  5
4E3
100
AcDbEntity
  8
ASSI
100
AcDbLine
 62
253
  6
CONTINUOUS
 10
-3.3826830282
 20
-22.0008673253
 11
-3.3839828705
 21
-21.7831062644
  0
LINE
  5
4E4
100
AcDbEntity
  8
ASSI
100
AcDbLine
 62
253
  6
CONTINUOUS
 10
-3.3839828705
 20
-21.7831062644
 11
-3.3848120715
 21
-21.5168699062
  0
LINE
  5
4E5
100
AcDbEntity
  8
ASSI
100
AcDbLine
 62
253
  6
CONTINUOUS
 10
-3.1342498387
 20
-21.5960791546
 11
-3.1349467658
 21
-21.3897296761
  0
LINE
  5
4E6
100
AcDbEntity
  8
ASSI
100
AcDbLine
 62
253
  6
CONTINUOUS
 10
-3.1349467658
 20
-21.3897296761
 11
-3.1351059998
 21
-21.2252970227
  0
LINE
  5
4E7
100
AcDbEntity
  8
RACCORDO
100
AcDbLine
 62
253
  6
CONTINUOUS
 10
-3.8445737581
 20
-17.4555023943
 11
-3.8445737581
 21
-20.0104570103
  0
LINE
  5
4E8
100
AcDbEntity
  8
ASSI
100
AcDbLine
 62
7
  6
CONTINUOUS
 10
-3.65
 20
13.7211646096
 11
-3.65
 21
14.4
  0
LINE
  5
4E9
100
AcDbEntity
  8
ASSI
100
AcDbLine
 62
253
  6
CONTINUOUS
 10
-3.5806626995
 20
-23.6519203118
 11
-3.5806609125
 21
-22.3018840226
  0
LINE
  5
4EA
100
AcDbEntity
  8
ASSI
100
AcDbLine
 62
253
  6
CONTINUOUS
 10
-3.5806609125
 20
22.3018840226
 11
-3.5806626995
 21
23.6519203118
  0
LINE
  5
4EB
100
AcDbEntity
  8
ASSI
100
AcDbLine
 62
7
  6
CONTINUOUS
 10
-3.5
 20
23.7325830113
 11
-3.5
 21
22.3825449351
  0
LINE
  5
4EC
100
AcDbEntity
  8
ASSI
100
AcDbLine
 62
7
  6
CONTINUOUS
 10
-3.5
 20
-22.3825449351
 11
-3.5
 21
-23.7325830113
  0
LINE
  5
4ED
100
AcDbEntity
  8
RACCORDO
100
AcDbLine
 62
7
  6
CONTINUOUS
 10
-3.4
 20
-15.5
 11
-3.4
 21
-15.7
  0
LINE
  5
4EE
100
AcDbEntity
  8
ASSI
100
AcDbLine
 62
253
  6
CONTINUOUS
 10
-3.3848120715
 20
-21.5168699062
 11
-3.3850964806
 21
-20.8
  0
LINE
  5
4EF
100
AcDbEntity
  8
ASSI
100
AcDbLine
 62
7
  6
CONTINUOUS
 10
-3.1351059998
 20
-21.2252970227
 11
-3.1351059998
 21
-20.8901985088
  0
LINE
  5
4F0
100
AcDbEntity
  8
ASSI
100
AcDbLine
 62
7
  6
CONTINUOUS
 10
-3.1351059998
 20
20.8901985088
 11
-3.1351059998
 21
21.2252970227
  0
LINE
  5
4F1
100
AcDbEntity
  8
ASSI
100
AcDbLine
 62
7
  6
CONTINUOUS
 10
-3.05
 20
22.1325449336
 11
-3.05
 21
21.7
  0
LINE
  5
4F2
100
AcDbEntity
  8
ASSI
100
AcDbLine
 62
7
  6
CONTINUOUS
 10
-3.05
 20
-21.7
 11
-3.05
 21
-22.1325449336
  0
LINE
  5
4F3
100
AcDbEntity
  8
ASSI
100
AcDbLine
 62
7
  6
CONTINUOUS
 10
-2.2
 20
12.85
 11
-2.2
 21
14.4
  0
LINE
  5
4F4
100
AcDbEntity
  8
ASSI
100
AcDbLine
 62
253
  6
CONTINUOUS
 10
-3.3850964806
 20
20.8
 11
-3.3848120715
 21
21.5168699062
  0
LINE
  5
4F5
100
AcDbEntity
  8
ASSI
100
AcDbLine
 62
253
  6
CONTINUOUS
 10
-3.1351059998
 20
21.2252970227
 11
-3.1348230709
 21
21.4432475361
  0
LINE
  5
4F6
100
AcDbEntity
  8
ASSI
100
AcDbLine
 62
253
  6
CONTINUOUS
 10
-3.3848120715
 20
21.5168699062
 11
-3.3839828705
 21
21.7831062644
  0
LINE
  5
4F7
100
AcDbEntity
  8
ASSI
100
AcDbLine
 62
253
  6
CONTINUOUS
 10
-3.1348230709
 20
21.4432475361
 11
-3.1339937609
 21
21.643483578
  0
LINE
  5
4F8
100
AcDbEntity
  8
RACCORDO
100
AcDbLine
 62
7
  6
CONTINUOUS
 10
-4.0441923537
 20
-15.7385854114
 11
-4.0511995689
 21
-16.8765870314
  0
LINE
  5
4F9
100
AcDbEntity
  8
ASSI
100
AcDbLine
 62
253
  6
CONTINUOUS
 10
-3.3839828705
 20
21.7831062644
 11
-3.3826830282
 21
22.0008673253
  0
LINE
  5
4FA
100
AcDbEntity
  8
DRAFT
100
AcDbLine
 62
7
  6
CONTINUOUS
 10
-3.7536149133
 20
-15.5068795788
 11
-3.7636147059
 21
-16.5890021684
  0
LINE
  5
4FB
100
AcDbEntity
  8
ASSI
100
AcDbLine
 62
253
  6
CONTINUOUS
 10
-3.1339937609
 20
21.643483578
 11
-3.1326916435
 21
21.8070592633
  0
LINE
  5
4FC
100
AcDbEntity
  8
ASSI
100
AcDbLine
 62
253
  6
CONTINUOUS
 10
-3.3826830282
 20
22.0008673253
 11
-3.3814643926
 21
22.1207851486
  0
LINE
  5
4FD
100
AcDbEntity
  8
ASSI
100
AcDbLine
 62
253
  6
CONTINUOUS
 10
-3.1326916435
 20
21.8070592633
 11
-3.1318957974
 21
21.8705942406
  0
LWPOLYLINE
  5
4FE
100
AcDbEntity
  8
ASSI
100
AcDbPolyline
 62
253
  6
CONTINUOUS
 90
6
 70
0
 10
-3.3814643926
 20
22.1207851486
 10
-3.3805677578
 20
22.1766091187
 10
-3.380103051
 20
22.1967864891
 10
-3.379632348
 20
22.2116508462
 10
-3.3791531838
 20
22.2211208594
 10
-3.3786655583
 20
22.2251447178
  0
LWPOLYLINE
  5
4FF
100
AcDbEntity
  8
ASSI
100
AcDbPolyline
 62
253
  6
CONTINUOUS
 90
7
 70
0
 10
-3.1318957974
 20
21.8705942406
 10
-3.1310293586
 20
21.9198621423
 10
-3.1305721233
 20
21.9389548805
 10
-3.1301072563
 20
21.9540642408
 10
-3.1296374951
 20
21.9650871366
 10
-3.1291601022
 20
21.9721266543
 10
-3.1286750776
 20
21.975182794
  0
LINE
  5
500
100
AcDbEntity
  8
ASSI
100
AcDbLine
 62
7
  6
CONTINUOUS
 10
-3.1351059998
 20
20.8901985088
 11
-3.1173032135
 21
21.6326967865
  0
LWPOLYLINE
  5
501
100
AcDbEntity
  8
RACCORDO
100
AcDbPolyline
 62
7
  6
CONTINUOUS
 90
3
 70
0
 10
-4.402312563
 20
-19.7755571545
 10
-4.4030682093
 20
-19.7896384633
 10
-4.4048733693
 20
-19.8039343473
  0
LWPOLYLINE
  5
502
100
AcDbEntity
  8
RACCORDO
100
AcDbPolyline
 62
253
  6
CONTINUOUS
 90
13
 70
0
 10
-5.1288794371
 20
-20.28553092
 10
-5.1271650402
 20
-20.259429296
 10
-5.1220591259
 20
-20.2337741847
 10
-5.1136490392
 20
-20.2090044643
 10
-5.1020786583
 20
-20.1855438831
 10
-5.0875459095
 20
-20.163793759
 10
-5.0702993605
 20
-20.1441261279
 10
-5.0506339991
 20
-20.1268774347
 10
-5.0288862483
 20
-20.1123428006
 10
-5.0054281865
 20
-20.1007709114
 10
-4.9806611301
 20
-20.0923597355
 10
-4.9550087548
 20
-20.0872531565
 10
-4.9289098981
 20
-20.0855385354
  0
LWPOLYLINE
  5
503
100
AcDbEntity
  8
RACCORDO
100
AcDbPolyline
 62
253
  6
CONTINUOUS
 90
13
 70
0
 10
-4.4519667385
 20
-19.1441254286
 10
-4.4536993357
 20
-19.1701797494
 10
-4.4588198654
 20
-19.1957888021
 10
-4.4672408195
 20
-19.2205149193
 10
-4.4788182798
 20
-19.2439355147
 10
-4.4933543891
 20
-19.2656503297
 10
-4.5106007415
 20
-19.2852882673
 10
-4.5302626167
 20
-19.3025137109
 10
-4.5520039807
 20
-19.3170322437
 10
-4.5754532384
 20
-19.328595712
 10
-4.6002096194
 20
-19.3370064873
 10
-4.6258500349
 20
-19.3421208308
 10
-4.6519362775
 20
-19.3438513356
  0
LINE
  5
504
100
AcDbEntity
  8
RACCORDO
100
AcDbLine
 62
7
  6
CONTINUOUS
 10
-9.5477965945
 20
-19.3438513356
 11
-9.5891800013
 21
-19.4681025177
  0
LINE
  5
505
100
AcDbEntity
  8
RACCORDO
100
AcDbLine
 62
253
  6
CONTINUOUS
 10
6.5855385354
 20
20.8712897968
 11
6.428135869
 21
20.5562607898
  0
LINE
  5
506
100
AcDbEntity
  8
RACCORDO
100
AcDbLine
 62
253
  6
CONTINUOUS
 10
6.3855790746
 20
21.0710976899
 11
6.2281713117
 21
20.7562859877
  0
LINE
  5
507
100
AcDbEntity
  8
0
100
AcDbLine
 62
7
  6
CONTINUOUS
 10
4.475
 20
14.4
 11
4.715
 21
14.8
  0
LINE
  5
508
100
AcDbEntity
  8
0
100
AcDbLine
 62
7
  6
CONTINUOUS
 10
0.0
 20
4.3
 11
-2.0
 21
1.3
  0
LWPOLYLINE
  5
509
100
AcDbEntity
  8
RACCORDO
100
AcDbPolyline
 62
7
  6
CONTINUOUS
 90
18
 70
0
 10
9.2486707983
 20
14.1270410365
 10
9.2713550551
 20
14.1521642538
 10
9.293378329
 20
14.1768067206
 10
9.3147199919
 20
14.2009700305
 10
9.335259452
 20
14.2246525899
 10
9.354975865
 20
14.247859881
 10
9.3738379005
 20
14.2705453404
 10
9.3917805271
 20
14.2927555314
 10
9.4087426865
 20
14.3146356261
 10
9.424740465
 20
14.3360874725
 10
9.43969364
 20
14.3572092227
 10
9.4534003501
 20
14.3784405048
 10
9.4660712667
 20
14.3998601171
 10
9.4774533291
 20
14.4213892613
 10
9.4866429107
 20
14.443231171
 10
9.4933244156
 20
14.4654535907
 10
9.4977795344
 20
14.4879887758
 10
9.5
 20
14.5108367263
  0
LWPOLYLINE
  5
50A
100
AcDbEntity
  8
RACCORDO
100
AcDbPolyline
 62
7
  6
CONTINUOUS
 90
4
 70
0
 10
8.8690493006
 20
13.7217176677
 10
8.8917225136
 20
13.746564764
 10
8.90813009
 20
13.7643644011
 10
8.9486592218
 20
13.8071020712
  0
LWPOLYLINE
  5
50B
100
AcDbEntity
  8
RACCORDO
100
AcDbPolyline
 62
7
  6
CONTINUOUS
 90
3
 70
0
 10
9.1764509717
 20
14.0485700448
 10
9.2011049776
 20
14.075243932
 10
9.2486707983
 20
14.1270410365
  0
LINE
  5
50C
100
AcDbEntity
  8
RACCORDO
100
AcDbLine
 62
7
  6
CONTINUOUS
 10
8.9486592218
 20
13.8071020712
 11
8.9720336307
 21
13.8320401041
  0
LINE
  5
50D
100
AcDbEntity
  8
RACCORDO
100
AcDbLine
 62
7
  6
CONTINUOUS
 10
9.0999433148
 20
13.9668567647
 11
9.1764509717
 21
14.0485700448
  0
LWPOLYLINE
  5
50E
100
AcDbEntity
  8
RACCORDO
100
AcDbPolyline
 62
7
  6
CONTINUOUS
 90
3
 70
0
 10
9.0220265641
 20
13.8844311141
 10
9.0739114916
 20
13.9394132184
 10
9.0999433148
 20
13.9668567647
  0
LINE
  5
50F
100
AcDbEntity
  8
RACCORDO
100
AcDbLine
 62
7
  6
CONTINUOUS
 10
8.9720336307
 20
13.8320401041
 11
9.0220265641
 21
13.8844311141
  0
LINE
  5
510
100
AcDbEntity
  8
RACCORDO
100
AcDbLine
 62
7
  6
CONTINUOUS
 10
8.75
 20
13.6
 11
8.8608443418
 21
13.7108443418
  0
LINE
  5
511
100
AcDbEntity
  8
DRAFT
100
AcDbLine
 62
7
  6
CONTINUOUS
 10
-8.25
 20
-5.1773101437
 11
-8.2726898563
 21
-5.2
  0
LINE
  5
512
100
AcDbEntity
  8
RACCORDO
100
AcDbLine
 62
253
  6
CONTINUOUS
 10
6.3585073414
 20
-2.3462456657
 11
6.40859237
 21
-2.3449712374
  0
LINE
  5
513
100
AcDbEntity
  8
RACCORDO
100
AcDbLine
 62
253
  6
CONTINUOUS
 10
6.40859237
 20
-2.3449712374
 11
8.25
 21
-2.3047941508
  0
LINE
  5
514
100
AcDbEntity
  8
RACCORDO
100
AcDbLine
 62
253
  6
CONTINUOUS
 10
6.1577326005
 20
-2.1469623919
 11
8.25
 21
-2.1014171154
  0
LWPOLYLINE
  5
515
100
AcDbEntity
  8
DRAFT
100
AcDbPolyline
 62
7
  6
CONTINUOUS
 90
4
 70
0
 10
0.8892384741
 20
-2.2085640087
 10
2.6674532333
 20
-2.2081077265
 10
4.4452310111
 20
-2.2071951622
 10
6.0500001669
 20
-2.2059593458
  0
LINE
  5
516
100
AcDbEntity
  8
RACCORDO
100
AcDbLine
 62
253
  6
CONTINUOUS
 10
9.5
 20
-3.8687075408
 11
8.5109333469
 21
-3.8687075408
  0
LINE
  5
517
100
AcDbEntity
  8
RACCORDO
100
AcDbLine
 62
253
  6
CONTINUOUS
 10
-8.5109333469
 20
-3.8687075408
 11
-9.5
 21
-3.8687075408
  0
LINE
  5
518
100
AcDbEntity
  8
DRAFT
100
AcDbLine
 62
7
  6
CONTINUOUS
 10
-10.8085226158
 20
-3.7253974543
 11
-9.5872686779
 21
-3.7253974543
  0
LINE
  5
519
100
AcDbEntity
  8
DRAFT
100
AcDbLine
 62
7
  6
CONTINUOUS
 10
9.5872686779
 20
-3.7253974543
 11
10.8085226158
 21
-3.7253974543
  0
LINE
  5
51A
100
AcDbEntity
  8
DRAFT
100
AcDbLine
 62
7
  6
CONTINUOUS
 10
-9.5
 20
-3.5508468051
 11
-8.5109333469
 21
-3.5508468051
  0
LINE
  5
51B
100
AcDbEntity
  8
DRAFT
100
AcDbLine
 62
7
  6
CONTINUOUS
 10
8.5109333469
 20
-3.5508468051
 11
9.5
 21
-3.5508468051
  0
LINE
  5
51C
100
AcDbEntity
  8
DRAFT
100
AcDbLine
 62
7
  6
CONTINUOUS
 10
-11.0712013363
 20
-3.2
 11
-8.3355233043
 21
-3.2
  0
LINE
  5
51D
100
AcDbEntity
  8
DRAFT
100
AcDbLine
 62
7
  6
CONTINUOUS
 10
8.3355233044
 20
-3.2
 11
11.0712013363
 21
-3.2
  0
LINE
  5
51E
100
AcDbEntity
  8
DRAFT
100
AcDbLine
 62
7
  6
CONTINUOUS
 10
-10.0
 20
-2.5
 11
-8.3355233043
 21
-2.5
  0
LINE
  5
51F
100
AcDbEntity
  8
DRAFT
100
AcDbLine
 62
7
  6
CONTINUOUS
 10
8.3355233044
 20
-2.5
 11
10.0
 21
-2.5
  0
LINE
  5
520
100
AcDbEntity
  8
RACCORDO
100
AcDbLine
 62
7
  6
CONTINUOUS
 10
8.1173516096
 20
-2.4057426494
 11
6.2499771547
 21
-2.4057426494
  0
LINE
  5
521
100
AcDbEntity
  8
RACCORDO
100
AcDbLine
 62
7
  6
CONTINUOUS
 10
-6.2499771547
 20
-2.4057426494
 11
-8.1173516096
 21
-2.4057426494
  0
LINE
  5
522
100
AcDbEntity
  8
RACCORDO
100
AcDbLine
 62
7
  6
CONTINUOUS
 10
9.7730841559
 20
-2.2730841559
 11
9.05
 21
-2.2730841559
  0
LINE
  5
523
100
AcDbEntity
  8
RACCORDO
100
AcDbLine
 62
7
  6
CONTINUOUS
 10
-9.05
 20
-2.2730841559
 11
-9.7730841559
 21
-2.2730841559
  0
LINE
  5
524
100
AcDbEntity
  8
DRAFT
100
AcDbLine
 62
7
  6
CONTINUOUS
 10
-6.05
 20
-2.2
 11
-1.3853828047
 21
-2.2
  0
LINE
  5
525
100
AcDbEntity
  8
DRAFT
100
AcDbLine
 62
7
  6
CONTINUOUS
 10
-0.9529612658
 20
-2.2
 11
6.05
 21
-2.2
  0
LINE
  5
526
100
AcDbEntity
  8
DRAFT
100
AcDbLine
 62
7
  6
CONTINUOUS
 10
-0.9606840056
 20
-2.2085456761
 11
0.8892384741
 21
-2.2085640087
  0
LWPOLYLINE
  5
527
100
AcDbEntity
  8
DRAFT
100
AcDbPolyline
 62
7
  6
CONTINUOUS
 90
3
 70
0
 10
-6.0500001669
 20
-2.2059593458
 10
-4.4452310111
 20
-2.2071951622
 10
-1.3905595107
 20
-2.2084353719
  0
LINE
  5
528
100
AcDbEntity
  8
RACCORDO
100
AcDbLine
 62
253
  6
CONTINUOUS
 10
-6.1875959918
 20
-2.1464160515
 11
-6.1458107678
 21
-2.1470572182
  0
LINE
  5
529
100
AcDbEntity
  8
RACCORDO
100
AcDbLine
 62
253
  6
CONTINUOUS
 10
-8.25
 20
-2.1014171154
 11
-6.1875959918
 21
-2.1464160515
  0
LWPOLYLINE
  5
52A
100
AcDbEntity
  8
RACCORDO
100
AcDbPolyline
 62
253
  6
CONTINUOUS
 90
10
 70
0
 10
-8.25
 20
-2.3047941508
 10
-6.3304738416
 20
-2.3466994152
 10
-6.3186429065
 20
-2.3470260375
 10
-6.3082765302
 20
-2.3473654573
 10
-6.2993300175
 20
-2.3477198816
 10
-6.2918480636
 20
-2.3480871034
 10
-6.2859647538
 20
-2.3484605018
 10
-6.2817247832
 20
-2.3488378697
 10
-6.2790834567
 20
-2.3492214143
 10
-6.2780407743
 20
-2.3496111353
  0
LWPOLYLINE
  5
52B
100
AcDbEntity
  8
RACCORDO
100
AcDbPolyline
 62
253
  6
CONTINUOUS
 90
7
 70
0
 10
-6.1458107678
 20
-2.1470572182
 10
-6.1134702967
 20
-2.1477503856
 10
-6.101072123
 20
-2.1481167176
 10
-6.0912840845
 20
-2.1484896001
 10
-6.0841602207
 20
-2.1488670484
 10
-6.0797400876
 20
-2.1492510471
 10
-6.0780483897
 20
-2.1496415963
  0
LINE
  5
52C
100
AcDbEntity
  8
0
100
AcDbLine
 62
253
  6
CONTINUOUS
 10
-1.3959472809
 20
-2.21721467
 11
-1.0928383895
 21
-2.39221467
  0
LINE
  5
52D
100
AcDbEntity
  8
DRAFT
100
AcDbLine
 62
7
  6
CONTINUOUS
 10
9.2216129175
 20
-13.9130903017
 11
9.5
 21
-14.1914773842
  0
LINE
  5
52E
100
AcDbEntity
  8
DRAFT
100
AcDbLine
 62
7
  6
CONTINUOUS
 10
10.8085226158
 20
-15.2085226158
 11
11.1
 21
-15.5
  0
LINE
  5
52F
100
AcDbEntity
  8
DRAFT
100
AcDbLine
 62
7
  6
CONTINUOUS
 10
-9.5872686779
 20
10.7253974543
 11
-9.5
 21
10.5508468051
  0
LINE
  5
530
100
AcDbEntity
  8
RACCORDO
100
AcDbLine
 62
253
  6
CONTINUOUS
 10
6.2738422419
 20
-20.8476348052
 11
6.3855783915
 21
-21.0710976899
  0
LINE
  5
531
100
AcDbEntity
  8
RACCORDO
100
AcDbLine
 62
253
  6
CONTINUOUS
 10
6.4738193966
 20
-20.6476348041
 11
6.5855385354
 21
-20.8710900996
  0
LINE
  5
532
100
AcDbEntity
  8
DRAFT
100
AcDbLine
 62
7
  6
CONTINUOUS
 10
-7.7787986637
 20
10.2
 11
-7.9542087063
 21
10.5508468051
  0
LWPOLYLINE
  5
533
100
AcDbEntity
  8
ASSI
100
AcDbPolyline
 62
7
  6
CONTINUOUS
 90
16
 70
0
 10
0.8
 20
-23.7500380762
 10
0.8013494122
 20
-23.7759809831
 10
0.8054056831
 20
-23.8017480173
 10
0.8121576856
 20
-23.8270535846
 10
0.8216035898
 20
-23.8517009881
 10
0.8336494676
 20
-23.8753074461
 10
0.8480168563
 20
-23.897354591
 10
0.864348265
 20
-23.9174650114
 10
0.8825349886
 20
-23.935651735
 10
0.902645409
 20
-23.9519831437
 10
0.9246925539
 20
-23.9663505324
 10
0.9482990119
 20
-23.9783964102
 10
0.9729464154
 20
-23.9878423144
 10
0.9982519827
 20
-23.9945943169
 10
1.0240190169
 20
-23.9986505878
 10
1.0499619238
 20
-24.0
  0
LINE
  5
534
100
AcDbEntity
  8
ASSI
100
AcDbLine
 62
7
  6
CONTINUOUS
 10
-1.8
 20
12.85
 11
-1.8
 21
14.4
  0
LINE
  5
535
100
AcDbEntity
  8
0
100
AcDbLine
 62
7
  6
CONTINUOUS
 10
-0.9777568136
 20
12.85
 11
-0.9777568136
 21
12.8
  0
LINE
  5
536
100
AcDbEntity
  8
ASSI
100
AcDbLine
 62
7
  6
CONTINUOUS
 10
-0.95
 20
12.85
 11
-0.95
 21
14.4
  0
LINE
  5
537
100
AcDbEntity
  8
ASSI
100
AcDbLine
 62
7
  6
CONTINUOUS
 10
-0.8174550649
 20
23.7325830113
 11
-0.8174550649
 21
22.398254669
  0
LINE
  5
538
100
AcDbEntity
  8
ASSI
100
AcDbLine
 62
7
  6
CONTINUOUS
 10
-0.8174550649
 20
-23.7325830113
 11
-0.8174550649
 21
-22.398254669
  0
LINE
  5
539
100
AcDbEntity
  8
ASSI
100
AcDbLine
 62
7
  6
CONTINUOUS
 10
-0.8
 20
23.7500380762
 11
-0.8
 21
22.4
  0
LINE
  5
53A
100
AcDbEntity
  8
ASSI
100
AcDbLine
 62
7
  6
CONTINUOUS
 10
-0.8
 20
-22.4
 11
-0.8
 21
-23.7500380762
  0
LINE
  5
53B
100
AcDbEntity
  8
ASSI
100
AcDbLine
 62
7
  6
CONTINUOUS
 10
-0.55
 20
12.85
 11
-0.55
 21
14.4
  0
LINE
  5
53C
100
AcDbEntity
  8
0
100
AcDbLine
 62
7
  6
CONTINUOUS
 10
-0.4777568136
 20
12.85
 11
-0.4777568136
 21
12.8
  0
LINE
  5
53D
100
AcDbEntity
  8
0
100
AcDbLine
 62
7
  6
CONTINUOUS
 10
0.1248190955
 20
12.85
 11
0.1248190955
 21
12.8
  0
LINE
  5
53E
100
AcDbEntity
  8
ASSI
100
AcDbLine
 62
7
  6
CONTINUOUS
 10
0.25
 20
12.8
 11
0.25
 21
12.85
  0
LWPOLYLINE
  5
53F
100
AcDbEntity
  8
ASSI
100
AcDbPolyline
 62
7
  6
CONTINUOUS
 90
16
 70
0
 10
0.8
 20
23.7500380762
 10
0.8013494122
 20
23.7759809831
 10
0.8054056831
 20
23.8017480173
 10
0.8121576856
 20
23.8270535846
 10
0.8216035898
 20
23.8517009881
 10
0.8336494676
 20
23.8753074461
 10
0.8480168563
 20
23.897354591
 10
0.864348265
 20
23.9174650114
 10
0.8825349886
 20
23.935651735
 10
0.902645409
 20
23.9519831437
 10
0.9246925539
 20
23.9663505324
 10
0.9482990119
 20
23.9783964102
 10
0.9729464154
 20
23.9878423144
 10
0.9982519827
 20
23.9945943169
 10
1.0240190169
 20
23.9986505878
 10
1.0499619238
 20
24.0
  0
LWPOLYLINE
  5
540
100
AcDbEntity
  8
RACCORDO
100
AcDbPolyline
 62
7
  6
CONTINUOUS
 90
16
 70
0
 10
-4.4048733693
 20
-19.8039343473
 10
-4.4077823793
 20
-19.8183621785
 10
-4.4118451971
 20
-19.8328284844
 10
-4.417101771
 20
-19.8472360495
 10
-4.4235818771
 20
-19.8614838896
 10
-4.4312954329
 20
-19.8754304541
 10
-4.4402676776
 20
-19.8889815894
 10
-4.4505556444
 20
-19.9020842897
 10
-4.4621493026
 20
-19.9145703982
 10
-4.475053817
 20
-19.9263043211
 10
-4.4893739659
 20
-19.9372257426
 10
-4.5050166127
 20
-19.9470851238
 10
-4.5219966564
 20
-19.9557242073
 10
-4.5406248028
 20
-19.9630675537
 10
-4.5609591522
 20
-19.9688030467
 10
-4.5827349556
 20
-19.9725083879
  0
LWPOLYLINE
  5
541
100
AcDbEntity
  8
ASSI
100
AcDbPolyline
 62
253
  6
CONTINUOUS
 90
11
 70
0
 10
10.5868325431
 20
24.2868630041
 10
10.5867883651
 20
24.2867680455
 10
10.5867436739
 20
24.2865248561
 10
10.5866984697
 20
24.2861334356
 10
10.5866524924
 20
24.2855977708
 10
10.5866060019
 20
24.2849138751
 10
10.5865597786
 20
24.2840697885
 10
10.5865138136
 20
24.2830603002
 10
10.5864681157
 20
24.2818906211
 10
10.5864234918
 20
24.2805644247
 10
10.5863375338
 20
24.2774332593
  0
LINE
  5
542
100
AcDbEntity
  8
0
100
AcDbLine
 62
7
  6
CONTINUOUS
 10
-5.8893404862
 20
-10.0
 11
-3.9971845924
 21
-6.7226898563
  0
LINE
  5
543
100
AcDbEntity
  8
0
100
AcDbLine
 62
7
  6
CONTINUOUS
 10
-3.1049591994
 20
-5.1773101437
 11
-1.3959472809
 21
-2.21721467
  0
LINE
  5
544
100
AcDbEntity
  8
0
100
AcDbLine
 62
7
  6
CONTINUOUS
 10
-5.4851952977
 20
-10.0
 11
-3.593039404
 21
-6.7226898563
  0
LINE
  5
545
100
AcDbEntity
  8
0
100
AcDbLine
 62
7
  6
CONTINUOUS
 10
-2.700814011
 20
-5.1773101437
 11
-1.0928383895
 21
-2.39221467
  0
LINE
  5
546
100
AcDbEntity
  8
RACCORDO
100
AcDbLine
 62
7
  6
CONTINUOUS
 10
-8.504012777
 20
-6.9313229207
 11
-8.2726898563
 21
-6.7
  0
LINE
  5
547
100
AcDbEntity
  8
RACCORDO
100
AcDbLine
 62
7
  6
CONTINUOUS
 10
7.6932753594
 20
8.9
 11
7.7701479512
 21
8.9768725919
  0
LINE
  5
548
100
AcDbEntity
  8
RACCORDO
100
AcDbLine
 62
7
  6
CONTINUOUS
 10
8.3268725919
 20
8.9768725919
 11
8.25
 21
8.9
  0
LINE
  5
549
100
AcDbEntity
  8
DRAFT
100
AcDbLine
 62
7
  6
CONTINUOUS
 10
-8.7831563161
 20
-8.4831563161
 11
-8.7746920834
 21
-8.4746920834
  0
LINE
  5
54A
100
AcDbEntity
  8
DRAFT
100
AcDbLine
 62
7
  6
CONTINUOUS
 10
9.7730841559
 20
0.2730841559
 11
11.0712013363
 21
0.5
  0
LINE
  5
54B
100
AcDbEntity
  8
DRAFT
100
AcDbLine
 62
7
  6
CONTINUOUS
 10
-6.05
 20
-1.7895277586
 11
6.05
 21
-1.7895277586
  0
LINE
  5
54C
100
AcDbEntity
  8
0
100
AcDbLine
 62
7
  6
CONTINUOUS
 10
7.5
 20
-1.2
 11
-6.0780483897
 21
-1.2
  0
LINE
  5
54D
100
AcDbEntity
  8
DRAFT
100
AcDbLine
 62
7
  6
CONTINUOUS
 10
-11.0712013363
 20
-0.5
 11
-10.0
 21
-0.5
  0
LINE
  5
54E
100
AcDbEntity
  8
DRAFT
100
AcDbLine
 62
7
  6
CONTINUOUS
 10
10.0
 20
-0.5
 11
11.0712013363
 21
-0.5
  0
LINE
  5
54F
100
AcDbEntity
  8
DRAFT
100
AcDbLine
 62
7
  6
CONTINUOUS
 10
-11.0712013363
 20
0.5
 11
-9.7730841559
 21
0.2730841559
  0
LINE
  5
550
100
AcDbEntity
  8
DRAFT
100
AcDbLine
 62
7
  6
CONTINUOUS
 10
8.3198149423
 20
-10.5375255315
 11
8.2822894108
 21
-10.5
  0
LINE
  5
551
100
AcDbEntity
  8
DRAFT
100
AcDbLine
 62
7
  6
CONTINUOUS
 10
8.2822894108
 20
-10.0322894108
 11
8.25
 21
-10.0
  0
LINE
  5
552
100
AcDbEntity
  8
DRAFT
100
AcDbLine
 62
7
  6
CONTINUOUS
 10
9.2216129175
 20
-10.5375255315
 11
9.5
 21
-10.815912614
  0
LINE
  5
553
100
AcDbEntity
  8
DRAFT
100
AcDbLine
 62
7
  6
CONTINUOUS
 10
9.8414773842
 20
-10.815912614
 11
9.55
 21
-10.5244352298
  0
LINE
  5
554
100
AcDbEntity
  8
DRAFT
100
AcDbLine
 62
7
  6
CONTINUOUS
 10
8.7746920834
 20
-8.4746920834
 11
8.7831563161
 21
-8.4831563161
  0
LWPOLYLINE
  5
555
100
AcDbEntity
  8
ASSI
100
AcDbPolyline
 62
7
  6
CONTINUOUS
 90
16
 70
0
 10
-0.8
 20
23.7500380762
 10
-0.8013494122
 20
23.7759809831
 10
-0.8054056831
 20
23.8017480173
 10
-0.8121576856
 20
23.8270535846
 10
-0.8216035898
 20
23.8517009881
 10
-0.8336494676
 20
23.8753074461
 10
-0.8480168563
 20
23.897354591
 10
-0.864348265
 20
23.9174650114
 10
-0.8825349886
 20
23.935651735
 10
-0.902645409
 20
23.9519831437
 10
-0.9246925539
 20
23.9663505324
 10
-0.9482990119
 20
23.9783964102
 10
-0.9729464154
 20
23.9878423144
 10
-0.9982519827
 20
23.9945943169
 10
-1.0240190169
 20
23.9986505878
 10
-1.0499619238
 20
24.0
  0
LINE
  5
556
100
AcDbEntity
  8
ASSI
100
AcDbLine
 62
7
  6
CONTINUOUS
 10
0.3
 20
12.85
 11
0.3
 21
14.4
  0
LINE
  5
557
100
AcDbEntity
  8
ASSI
100
AcDbLine
 62
7
  6
CONTINUOUS
 10
0.7
 20
12.85
 11
0.7
 21
14.4
  0
LINE
  5
558
100
AcDbEntity
  8
ASSI
100
AcDbLine
 62
7
  6
CONTINUOUS
 10
0.75
 20
12.8
 11
0.75
 21
12.85
  0
LINE
  5
559
100
AcDbEntity
  8
ASSI
100
AcDbLine
 62
7
  6
CONTINUOUS
 10
0.8
 20
23.7500380762
 11
0.8
 21
22.4
  0
LINE
  5
55A
100
AcDbEntity
  8
ASSI
100
AcDbLine
 62
7
  6
CONTINUOUS
 10
0.8
 20
-22.4
 11
0.8
 21
-23.7500380762
  0
LINE
  5
55B
100
AcDbEntity
  8
ASSI
100
AcDbLine
 62
7
  6
CONTINUOUS
 10
0.8174550649
 20
23.7325830113
 11
0.8174550649
 21
22.398254669
  0
LINE
  5
55C
100
AcDbEntity
  8
ASSI
100
AcDbLine
 62
7
  6
CONTINUOUS
 10
0.8174550649
 20
-23.7325830113
 11
0.8174550649
 21
-22.398254669
  0
LINE
  5
55D
100
AcDbEntity
  8
0
100
AcDbLine
 62
7
  6
CONTINUOUS
 10
1.15
 20
12.85
 11
1.15
 21
12.8
  0
LINE
  5
55E
100
AcDbEntity
  8
ASSI
100
AcDbLine
 62
7
  6
CONTINUOUS
 10
1.55
 20
12.85
 11
1.55
 21
14.4
  0
LINE
  5
55F
100
AcDbEntity
  8
ASSI
100
AcDbLine
 62
7
  6
CONTINUOUS
 10
1.95
 20
12.85
 11
1.95
 21
14.4
  0
LWPOLYLINE
  5
560
100
AcDbEntity
  8
ASSI
100
AcDbPolyline
 62
7
  6
CONTINUOUS
 90
16
 70
0
 10
-0.8
 20
-23.7500380762
 10
-0.8013494122
 20
-23.7759809831
 10
-0.8054056831
 20
-23.8017480173
 10
-0.8121576856
 20
-23.8270535846
 10
-0.8216035898
 20
-23.8517009881
 10
-0.8336494676
 20
-23.8753074461
 10
-0.8480168563
 20
-23.897354591
 10
-0.864348265
 20
-23.9174650114
 10
-0.8825349886
 20
-23.935651735
 10
-0.902645409
 20
-23.9519831437
 10
-0.9246925539
 20
-23.9663505324
 10
-0.9482990119
 20
-23.9783964102
 10
-0.9729464154
 20
-23.9878423144
 10
-0.9982519827
 20
-23.9945943169
 10
-1.0240190169
 20
-23.9986505878
 10
-1.0499619238
 20
-24.0
  0
LINE
  5
561
100
AcDbEntity
  8
0
100
AcDbLine
 62
7
  6
CONTINUOUS
 10
0.4053177162
 20
-1.7903928298
 11
0.3555735139
 21
-1.9075828264
  0
LINE
  5
562
100
AcDbEntity
  8
DRAFT
100
AcDbLine
 62
7
  6
CONTINUOUS
 10
7.7787986637
 20
10.2
 11
7.9542087063
 21
10.5508468051
  0
LWPOLYLINE
  5
563
100
AcDbEntity
  8
ASSI
100
AcDbPolyline
 62
253
  6
CONTINUOUS
 90
12
 70
0
 10
-10.5868325431
 20
-24.286863004
 10
-10.5867911404
 20
-24.2867823786
 10
-10.5867488795
 20
-24.2865627718
 10
-10.5867057604
 20
-24.2862041836
 10
-10.586661522
 20
-24.2857131476
 10
-10.5866164255
 20
-24.2850831302
 10
-10.5865712537
 20
-24.2842945307
 10
-10.586525983
 20
-24.2833422036
 10
-10.5864806371
 20
-24.2822312944
 10
-10.58643607
 20
-24.2809576387
 10
-10.58639229
 20
-24.2795155482
 10
-10.5863078951
 20
-24.2761560292
  0
LWPOLYLINE
  5
564
100
AcDbEntity
  8
RACCORDO
100
AcDbPolyline
 62
7
  6
CONTINUOUS
 90
3
 70
0
 10
8.860915679
 20
13.7110827761
 10
8.863095712
 20
13.7146702084
 10
8.8690493006
 20
13.7217176677
  0
LINE
  5
565
100
AcDbEntity
  8
DRAFT
100
AcDbLine
 62
7
  6
CONTINUOUS
 10
-9.8414773842
 20
-10.815912614
 11
-9.55
 21
-10.5244352298
  0
LINE
  5
566
100
AcDbEntity
  8
DRAFT
100
AcDbLine
 62
7
  6
CONTINUOUS
 10
-9.5
 20
-10.815912614
 11
-9.2216129175
 21
-10.5375255315
  0
LINE
  5
567
100
AcDbEntity
  8
DRAFT
100
AcDbLine
 62
7
  6
CONTINUOUS
 10
-8.25
 20
-10.0
 11
-8.2822894108
 21
-10.0322894108
  0
LINE
  5
568
100
AcDbEntity
  8
DRAFT
100
AcDbLine
 62
7
  6
CONTINUOUS
 10
-8.3198149423
 20
-10.5375255315
 11
-8.2822894108
 21
-10.5
  0
LINE
  5
569
100
AcDbEntity
  8
DRAFT
100
AcDbLine
 62
7
  6
CONTINUOUS
 10
-11.0712013363
 20
-0.5
 11
-9.7730841559
 21
-0.2730841559
  0
LINE
  5
56A
100
AcDbEntity
  8
RACCORDO
100
AcDbLine
 62
253
  6
CONTINUOUS
 10
-6.4918957615
 20
2.1397766317
 11
-8.25
 21
2.1014171154
  0
LINE
  5
56B
100
AcDbEntity
  8
DRAFT
100
AcDbLine
 62
7
  6
CONTINUOUS
 10
-11.0712013363
 20
0.5
 11
-10.0
 21
0.5
  0
LINE
  5
56C
100
AcDbEntity
  8
DRAFT
100
AcDbLine
 62
7
  6
CONTINUOUS
 10
10.0
 20
0.5
 11
11.0712013363
 21
0.5
  0
LINE
  5
56D
100
AcDbEntity
  8
0
100
AcDbLine
 62
7
  6
CONTINUOUS
 10
6.1
 20
1.3
 11
2.0
 21
1.3
  0
LINE
  5
56E
100
AcDbEntity
  8
0
100
AcDbLine
 62
7
  6
CONTINUOUS
 10
-2.0
 20
1.3
 11
-6.1
 21
1.3
  0
LINE
  5
56F
100
AcDbEntity
  8
RACCORDO
100
AcDbLine
 62
7
  6
CONTINUOUS
 10
9.7730841559
 20
2.2730841559
 11
9.05
 21
2.2730841559
  0
LINE
  5
570
100
AcDbEntity
  8
RACCORDO
100
AcDbLine
 62
7
  6
CONTINUOUS
 10
-9.05
 20
2.2730841559
 11
-9.7730841559
 21
2.2730841559
  0
LINE
  5
571
100
AcDbEntity
  8
RACCORDO
100
AcDbLine
 62
7
  6
CONTINUOUS
 10
-8.5937890665
 20
2.3586139741
 11
-6.5940198546
 21
2.3586139741
  0
LINE
  5
572
100
AcDbEntity
  8
RACCORDO
100
AcDbLine
 62
7
  6
CONTINUOUS
 10
6.5940198546
 20
2.3586139741
 11
8.5937890665
 21
2.3586139741
  0
LINE
  5
573
100
AcDbEntity
  8
RACCORDO
100
AcDbLine
 62
253
  6
CONTINUOUS
 10
8.25
 20
2.1014171154
 11
6.4918957615
 21
2.1397766317
  0
LINE
  5
574
100
AcDbEntity
  8
DRAFT
100
AcDbLine
 62
7
  6
CONTINUOUS
 10
9.7730841559
 20
-0.2730841559
 11
11.0712013363
 21
-0.5
  0
LINE
  5
575
100
AcDbEntity
  8
RACCORDO
100
AcDbLine
 62
7
  6
CONTINUOUS
 10
-8.25
 20
8.9
 11
-8.3268725919
 21
8.9768725919
  0
LINE
  5
576
100
AcDbEntity
  8
RACCORDO
100
AcDbLine
 62
7
  6
CONTINUOUS
 10
-7.6932753594
 20
8.9
 11
-7.7701479512
 21
8.9768725919
  0
LINE
  5
577
100
AcDbEntity
  8
RACCORDO
100
AcDbLine
 62
7
  6
CONTINUOUS
 10
8.504012777
 20
-6.9313229207
 11
8.2726898563
 21
-6.7
  0
LINE
  5
578
100
AcDbEntity
  8
DRAFT
100
AcDbLine
 62
7
  6
CONTINUOUS
 10
8.25
 20
-5.1773101437
 11
8.2726898563
 21
-5.2
  0
LINE
  5
579
100
AcDbEntity
  8
0
100
AcDbLine
 62
7
  6
CONTINUOUS
 10
2.0
 20
1.3
 11
0.0
 21
4.3
  0
LWPOLYLINE
  5
57A
100
AcDbEntity
  8
RACCORDO
100
AcDbPolyline
 62
7
  6
CONTINUOUS
 90
16
 70
0
 10
4.4049324129
 20
-19.8044292089
 10
4.4078945674
 20
-19.8188259711
 10
4.4120025921
 20
-19.8332910415
 10
4.4172845235
 20
-19.8477299351
 10
4.4237710184
 20
-19.8618591971
 10
4.4314604154
 20
-19.8756802266
 10
4.4403699557
 20
-19.8891916244
 10
4.4505739569
 20
-19.9021057382
 10
4.4620563141
 20
-19.9144601445
 10
4.4748225765
 20
-19.9262172668
 10
4.4890165843
 20
-19.9369767232
 10
4.5046534478
 20
-19.9468258797
 10
4.5216571288
 20
-19.9556773702
 10
4.5400403125
 20
-19.9628687151
 10
4.5597282125
 20
-19.9681790879
 10
4.580541121
 20
-19.9718293151
  0
LWPOLYLINE
  5
57B
100
AcDbEntity
  8
RACCORDO
100
AcDbPolyline
 62
7
  6
CONTINUOUS
 90
3
 70
0
 10
4.402312563
 20
-19.7755571545
 10
4.4030851182
 20
-19.7900062701
 10
4.4049324129
 20
-19.8044292089
  0
LWPOLYLINE
  5
57C
100
AcDbEntity
  8
RACCORDO
100
AcDbPolyline
 62
253
  6
CONTINUOUS
 90
13
 70
0
 10
4.9289098981
 20
-20.8711510238
 10
4.9306866278
 20
-20.9079145537
 10
4.9356012523
 20
-20.9437724277
 10
4.9436537715
 20
-20.9787246457
 10
4.9549607455
 20
-21.0130322062
 10
4.9694056144
 20
-21.0464341108
 10
4.9866386976
 20
-21.0781473638
 10
5.0067243603
 20
-21.1081369737
 10
5.0295982374
 20
-21.1364379321
 10
5.0547175534
 20
-21.1623722182
 10
5.0819013831
 20
-21.1857138252
 10
5.1113306516
 20
-21.20668876
 10
5.1730036969
 20
-21.2428404216
  0
LWPOLYLINE
  5
57D
100
AcDbEntity
  8
RACCORDO
100
AcDbPolyline
 62
253
  6
CONTINUOUS
 90
13
 70
0
 10
5.1288794394
 20
-20.8711415087
 10
5.1296988454
 20
-20.8893023279
 10
5.1321603835
 20
-20.9072956407
 10
5.136239174
 20
-20.9249738793
 10
5.1418954109
 20
-20.9421882893
 10
5.149079216
 20
-20.9588037844
 10
5.1577351301
 20
-20.9746983398
 10
5.1677931991
 20
-20.9897441508
 10
5.1791693753
 20
-21.0038161771
 10
5.1917750704
 20
-21.0168043198
 10
5.2055097351
 20
-21.0286027619
 10
5.2202600687
 20
-21.0391121676
 10
5.2359058453
 20
-21.0482453455
  0
LWPOLYLINE
  5
57E
100
AcDbEntity
  8
RACCORDO
100
AcDbPolyline
 62
253
  6
CONTINUOUS
 90
19
 70
0
 10
4.6527268314
 20
-17.8541464545
 10
4.6499913362
 20
-17.7925746147
 10
4.6421165485
 20
-17.7322936177
 10
4.6291024685
 20
-17.6733034634
 10
4.6107653277
 20
-17.615141908
 10
4.5872888945
 20
-17.5582711953
 10
4.5592244742
 20
-17.5040780571
 10
4.5264748405
 20
-17.4526638659
 10
4.4891372196
 20
-17.4039272493
 10
4.4480545957
 20
-17.3589508214
 10
4.4031456569
 20
-17.3178191103
 10
4.3544917151
 20
-17.280447588
 10
4.3031796895
 20
-17.2476652848
 10
4.249142305
 20
-17.2195699122
 10
4.1924468368
 20
-17.1960637588
 10
4.1343820298
 20
-17.1776827205
 10
4.0753774656
 20
-17.1646054292
 10
4.0150035627
 20
-17.1566532529
 10
3.9532603211
 20
-17.1538261917
  0
LWPOLYLINE
  5
57F
100
AcDbEntity
  8
RACCORDO
100
AcDbPolyline
 62
253
  6
CONTINUOUS
 90
19
 70
0
 10
4.3444976057
 20
-17.9554262419
 10
4.3425827131
 20
-17.9118634329
 10
4.3368791404
 20
-17.8686320347
 10
4.3274302785
 20
-17.8260609368
 10
4.314308011
 20
-17.7844740055
 10
4.2976121676
 20
-17.7441876197
 10
4.2774697645
 20
-17.7055082644
 10
4.2540340382
 20
-17.6687301987
 10
4.2274832795
 20
-17.6341332174
 10
4.1980194775
 20
-17.6019805225
 10
4.1658667826
 20
-17.5725167205
 10
4.1312698013
 20
-17.5459659618
 10
4.0944917356
 20
-17.5225302355
 10
4.0558123803
 20
-17.5023878324
 10
4.0155259945
 20
-17.485691989
 10
3.9739390632
 20
-17.4725697215
 10
3.9313679653
 20
-17.4631208596
 10
3.8881365671
 20
-17.4574172869
 10
3.8445737581
 20
-17.4555023943
  0
LWPOLYLINE
  5
580
100
AcDbEntity
  8
RACCORDO
100
AcDbPolyline
 62
253
  6
CONTINUOUS
 90
19
 70
0
 10
4.4527573092
 20
-17.8471475825
 10
4.4508919241
 20
-17.8034777593
 10
4.4452266653
 20
-17.7601465994
 10
4.4358059482
 20
-17.7174839728
 10
4.4227013594
 20
-17.6758094033
 10
4.406014513
 20
-17.6354453976
 10
4.3858803984
 20
-17.5967133196
 10
4.3624615981
 20
-17.5599124581
 10
4.3359372356
 20
-17.5253123375
 10
4.3065056906
 20
-17.4931669042
 10
4.2743932618
 20
-17.4637193169
 10
4.2398450449
 20
-17.4371903416
 10
4.2031136966
 20
-17.4137735007
 10
4.1644765609
 20
-17.3936467797
 10
4.1242277815
 20
-17.3769642532
 10
4.0826640335
 20
-17.3638511577
 10
4.0400972348
 20
-17.3544096775
 10
3.9968531591
 20
-17.3487157211
 10
3.9532603211
 20
-17.3468158314
  0
LINE
  5
581
100
AcDbEntity
  8
ASSI
100
AcDbLine
 62
7
  6
CONTINUOUS
 10
3.1351059998
 20
20.8901985088
 11
3.1173032135
 21
21.6326967865
  0
LINE
  5
582
100
AcDbEntity
  8
ASSI
100
AcDbLine
 62
253
  6
CONTINUOUS
 10
3.1310293586
 20
21.9198621423
 11
3.1318957974
 21
21.8705942406
  0
LINE
  5
583
100
AcDbEntity
  8
ASSI
100
AcDbLine
 62
253
  6
CONTINUOUS
 10
3.3805677578
 20
22.1766091187
 11
3.3814643926
 21
22.1207851486
  0
LINE
  5
584
100
AcDbEntity
  8
ASSI
100
AcDbLine
 62
253
  6
CONTINUOUS
 10
3.1318957974
 20
21.8705942406
 11
3.133055364
 21
21.7704586098
  0
LINE
  5
585
100
AcDbEntity
  8
DRAFT
100
AcDbLine
 62
7
  6
CONTINUOUS
 10
3.7536149133
 20
-15.5068795788
 11
3.7636147059
 21
-16.5890021684
  0
LINE
  5
586
100
AcDbEntity
  8
ASSI
100
AcDbLine
 62
253
  6
CONTINUOUS
 10
3.3814643926
 20
22.1207851486
 11
3.3826830282
 21
22.0008673253
  0
LINE
  5
587
100
AcDbEntity
  8
RACCORDO
100
AcDbLine
 62
7
  6
CONTINUOUS
 10
4.0441923537
 20
-15.7385854114
 11
4.0511995689
 21
-16.8765870314
  0
LINE
  5
588
100
AcDbEntity
  8
ASSI
100
AcDbLine
 62
253
  6
CONTINUOUS
 10
3.133055364
 20
21.7704586098
 11
3.1342498387
 21
21.5960791546
  0
LINE
  5
589
100
AcDbEntity
  8
ASSI
100
AcDbLine
 62
253
  6
CONTINUOUS
 10
3.3826830282
 20
22.0008673253
 11
3.3839828705
 21
21.7831062644
  0
LINE
  5
58A
100
AcDbEntity
  8
ASSI
100
AcDbLine
 62
253
  6
CONTINUOUS
 10
3.1342498387
 20
21.5960791546
 11
3.1349467658
 21
21.3897296762
  0
LINE
  5
58B
100
AcDbEntity
  8
ASSI
100
AcDbLine
 62
253
  6
CONTINUOUS
 10
3.3839828705
 20
21.7831062644
 11
3.3848120715
 21
21.5168699062
  0
LINE
  5
58C
100
AcDbEntity
  8
ASSI
100
AcDbLine
 62
253
  6
CONTINUOUS
 10
3.1349467658
 20
21.3897296762
 11
3.1351059998
 21
21.2252970227
  0
LINE
  5
58D
100
AcDbEntity
  8
ASSI
100
AcDbLine
 62
7
  6
CONTINUOUS
 10
3.05
 20
-22.1325449336
 11
3.05
 21
-21.7
  0
LINE
  5
58E
100
AcDbEntity
  8
ASSI
100
AcDbLine
 62
7
  6
CONTINUOUS
 10
3.05
 20
21.7
 11
3.05
 21
22.1325449336
  0
LINE
  5
58F
100
AcDbEntity
  8
ASSI
100
AcDbLine
 62
7
  6
CONTINUOUS
 10
3.1351059998
 20
21.2252970227
 11
3.1351059998
 21
20.8901985088
  0
LINE
  5
590
100
AcDbEntity
  8
ASSI
100
AcDbLine
 62
7
  6
CONTINUOUS
 10
3.1351059998
 20
-20.8901985088
 11
3.1351059998
 21
-21.2252970227
  0
LINE
  5
591
100
AcDbEntity
  8
ASSI
100
AcDbLine
 62
253
  6
CONTINUOUS
 10
3.3848120715
 20
21.5168699062
 11
3.3850964806
 21
20.8
  0
LINE
  5
592
100
AcDbEntity
  8
RACCORDO
100
AcDbLine
 62
7
  6
CONTINUOUS
 10
3.4
 20
-15.7
 11
3.4
 21
-15.5
  0
LINE
  5
593
100
AcDbEntity
  8
ASSI
100
AcDbLine
 62
7
  6
CONTINUOUS
 10
3.5
 20
23.7325830113
 11
3.5
 21
22.3825449351
  0
LINE
  5
594
100
AcDbEntity
  8
ASSI
100
AcDbLine
 62
7
  6
CONTINUOUS
 10
3.5
 20
-22.3825449351
 11
3.5
 21
-23.7325830113
  0
LINE
  5
595
100
AcDbEntity
  8
ASSI
100
AcDbLine
 62
253
  6
CONTINUOUS
 10
3.5806609125
 20
-23.6519220988
 11
3.5806609125
 21
-22.3018840226
  0
LINE
  5
596
100
AcDbEntity
  8
ASSI
100
AcDbLine
 62
253
  6
CONTINUOUS
 10
3.5806609125
 20
22.3018840226
 11
3.5806609125
 21
23.6519220988
  0
LINE
  5
597
100
AcDbEntity
  8
ASSI
100
AcDbLine
 62
7
  6
CONTINUOUS
 10
3.65
 20
14.4
 11
3.65
 21
13.7211646096
  0
LINE
  5
598
100
AcDbEntity
  8
RACCORDO
100
AcDbLine
 62
253
  6
CONTINUOUS
 10
3.8445737581
 20
-20.0104570103
 11
3.8445737581
 21
-17.4555023943
  0
LINE
  5
599
100
AcDbEntity
  8
RACCORDO
100
AcDbLine
 62
253
  6
CONTINUOUS
 10
3.9532603211
 20
-17.1538261917
 11
3.9532603211
 21
-17.3468158314
  0
LINE
  5
59A
100
AcDbEntity
  8
RACCORDO
100
AcDbLine
 62
253
  6
CONTINUOUS
 10
4.3444960896
 20
-19.8044631896
 11
4.3444976057
 21
-17.9554262419
  0
LINE
  5
59B
100
AcDbEntity
  8
ASSI
100
AcDbLine
 62
253
  6
CONTINUOUS
 10
4.3518822356
 20
-23.6519203118
 11
4.3518840226
 21
-22.3018840226
  0
LINE
  5
59C
100
AcDbEntity
  8
ASSI
100
AcDbLine
 62
253
  6
CONTINUOUS
 10
4.3518840226
 20
22.3018840226
 11
4.3518822356
 21
23.6519203118
  0
LINE
  5
59D
100
AcDbEntity
  8
ASSI
100
AcDbLine
 62
7
  6
CONTINUOUS
 10
4.3539971429
 20
23.5393800954
 11
4.3539971429
 21
22.8606199046
  0
LINE
  5
59E
100
AcDbEntity
  8
ASSI
100
AcDbLine
 62
7
  6
CONTINUOUS
 10
4.3539971429
 20
-22.8606199046
 11
4.3539971429
 21
-23.5393800954
  0
LINE
  5
59F
100
AcDbEntity
  8
RACCORDO
100
AcDbLine
 62
253
  6
CONTINUOUS
 10
4.402312563
 20
-19.7755571545
 11
4.402312563
 21
-19.7676913781
  0
LINE
  5
5A0
100
AcDbEntity
  8
ASSI
100
AcDbLine
 62
7
  6
CONTINUOUS
 10
4.45
 20
-23.7500380762
 11
4.45
 21
-23.4179449472
  0
LINE
  5
5A1
100
AcDbEntity
  8
ASSI
100
AcDbLine
 62
7
  6
CONTINUOUS
 10
4.45
 20
-22.9820550528
 11
4.45
 21
-22.4
  0
LINE
  5
5A2
100
AcDbEntity
  8
ASSI
100
AcDbLine
 62
7
  6
CONTINUOUS
 10
4.45
 20
22.4
 11
4.45
 21
22.9820550528
  0
LINE
  5
5A3
100
AcDbEntity
  8
ASSI
100
AcDbLine
 62
7
  6
CONTINUOUS
 10
4.45
 20
23.4179449472
 11
4.45
 21
23.7500380762
  0
LINE
  5
5A4
100
AcDbEntity
  8
RACCORDO
100
AcDbLine
 62
253
  6
CONTINUOUS
 10
4.4519667385
 20
-19.1441254286
 11
4.452757304
 21
-17.8471475881
  0
LINE
  5
5A5
100
AcDbEntity
  8
ASSI
100
AcDbLine
 62
253
  6
CONTINUOUS
 10
3.3850964806
 20
-20.8
 11
3.3848120715
 21
-21.5168699062
  0
LINE
  5
5A6
100
AcDbEntity
  8
ASSI
100
AcDbLine
 62
253
  6
CONTINUOUS
 10
3.1351059998
 20
-21.2252970227
 11
3.1348230709
 21
-21.4432475361
  0
LWPOLYLINE
  5
5A7
100
AcDbEntity
  8
RACCORDO
100
AcDbPolyline
 62
7
  6
CONTINUOUS
 90
3
 70
0
 10
4.402312563
 20
-19.7676913781
 10
4.4025906901
 20
-19.6424765357
 10
4.4028049297
 20
-19.6022517445
  0
LINE
  5
5A8
100
AcDbEntity
  8
ASSI
100
AcDbLine
 62
253
  6
CONTINUOUS
 10
3.3848120715
 20
-21.5168699062
 11
3.3839828705
 21
-21.7831062644
  0
LINE
  5
5A9
100
AcDbEntity
  8
ASSI
100
AcDbLine
 62
253
  6
CONTINUOUS
 10
3.1348230709
 20
-21.4432475361
 11
3.1339937609
 21
-21.643483578
  0
LINE
  5
5AA
100
AcDbEntity
  8
ASSI
100
AcDbLine
 62
253
  6
CONTINUOUS
 10
3.3839828705
 20
-21.7831062644
 11
3.3826830282
 21
-22.0008673253
  0
LINE
  5
5AB
100
AcDbEntity
  8
ASSI
100
AcDbLine
 62
253
  6
CONTINUOUS
 10
3.1339937609
 20
-21.643483578
 11
3.1326916435
 21
-21.8070592633
  0
LINE
  5
5AC
100
AcDbEntity
  8
ASSI
100
AcDbLine
 62
253
  6
CONTINUOUS
 10
3.3826830282
 20
-22.0008673253
 11
3.3814643926
 21
-22.1207851486
  0
LINE
  5
5AD
100
AcDbEntity
  8
ASSI
100
AcDbLine
 62
253
  6
CONTINUOUS
 10
3.1326916435
 20
-21.8070592633
 11
3.1318957974
 21
-21.8705942406
  0
LWPOLYLINE
  5
5AE
100
AcDbEntity
  8
ASSI
100
AcDbPolyline
 62
253
  6
CONTINUOUS
 90
6
 70
0
 10
3.3814643926
 20
-22.1207851486
 10
3.3805677578
 20
-22.1766091187
 10
3.380103051
 20
-22.1967864891
 10
3.379632348
 20
-22.2116508462
 10
3.3791531838
 20
-22.2211208594
 10
3.3786655583
 20
-22.2251447178
  0
LWPOLYLINE
  5
5AF
100
AcDbEntity
  8
ASSI
100
AcDbPolyline
 62
253
  6
CONTINUOUS
 90
7
 70
0
 10
3.1318957974
 20
-21.8705942406
 10
3.1310293586
 20
-21.9198621423
 10
3.1305721233
 20
-21.9389548805
 10
3.1301072563
 20
-21.9540642408
 10
3.1296374951
 20
-21.9650871366
 10
3.1291601022
 20
-21.9721266543
 10
3.1286750776
 20
-21.975182794
  0
LINE
  5
5B0
100
AcDbEntity
  8
ASSI
100
AcDbLine
 62
7
  6
CONTINUOUS
 10
3.1173032135
 20
-21.6326967865
 11
3.1351059998
 21
-20.8901985088
  0
LWPOLYLINE
  5
5B1
100
AcDbEntity
  8
RACCORDO
100
AcDbPolyline
 62
7
  6
CONTINUOUS
 90
13
 70
0
 10
5.4447682533
 20
20.1275985407
 10
5.4430865754
 20
20.1015257492
 10
5.4380225601
 20
20.0758918785
 10
5.42966085
 20
20.0511344135
 10
5.4181438345
 20
20.027677726
 10
5.4036656467
 20
20.0059214652
 10
5.3864669208
 20
19.9862349957
 10
5.3668368208
 20
19.9689561081
 10
5.3451102437
 20
19.9543853981
 10
5.3216575361
 20
19.9427770237
 10
5.2968794216
 20
19.9343334877
 10
5.2711998236
 20
19.9292026047
 10
5.2450589658
 20
19.9274760402
  0
LWPOLYLINE
  5
5B2
100
AcDbEntity
  8
RACCORDO
100
AcDbPolyline
 62
253
  6
CONTINUOUS
 90
13
 70
0
 10
5.1288794371
 20
20.28553092
 10
5.1271650402
 20
20.259429296
 10
5.1220591259
 20
20.2337741847
 10
5.1136490392
 20
20.2090044643
 10
5.1020786583
 20
20.1855438831
 10
5.0875459095
 20
20.163793759
 10
5.0702993605
 20
20.1441261279
 10
5.0506339991
 20
20.1268774347
 10
5.0288862483
 20
20.1123428006
 10
5.0054281865
 20
20.1007709114
 10
4.9806611301
 20
20.0923597355
 10
4.9550087548
 20
20.0872531565
 10
4.9289098981
 20
20.0855385354
  0
LINE
  5
5B3
100
AcDbEntity
  8
RACCORDO
100
AcDbLine
 62
253
  6
CONTINUOUS
 10
-6.5855385354
 20
-20.8712897967
 11
-6.4738193966
 21
-20.6476348041
  0
LINE
  5
5B4
100
AcDbEntity
  8
RACCORDO
100
AcDbLine
 62
253
  6
CONTINUOUS
 10
-6.3855790746
 20
-21.0710976899
 11
-6.2738422419
 21
-20.8476348052
  0
LINE
  5
5B5
100
AcDbEntity
  8
DRAFT
100
AcDbLine
 62
7
  6
CONTINUOUS
 10
9.5872686779
 20
10.7253974543
 11
9.5
 21
10.5508468051
  0
LINE
  5
5B6
100
AcDbEntity
  8
DRAFT
100
AcDbLine
 62
7
  6
CONTINUOUS
 10
9.55
 20
10.2
 11
9.6285418101
 21
10.3570955844
  0
LINE
  5
5B7
100
AcDbEntity
  8
RACCORDO
100
AcDbLine
 62
253
  6
CONTINUOUS
 10
-6.4784950055
 20
-21.0482314347
 11
-6.5714059782
 21
-21.2252970225
  0
LINE
  5
5B8
100
AcDbEntity
  8
DRAFT
100
AcDbLine
 62
7
  6
CONTINUOUS
 10
-10.8085226158
 20
-15.2085226158
 11
-11.1
 21
-15.5
  0
LINE
  5
5B9
100
AcDbEntity
  8
DRAFT
100
AcDbLine
 62
7
  6
CONTINUOUS
 10
-9.2216129175
 20
-13.9130903017
 11
-9.5
 21
-14.1914773842
  0
LINE
  5
5BA
100
AcDbEntity
  8
DRAFT
100
AcDbLine
 62
7
  6
CONTINUOUS
 10
-8.2822894108
 20
-13.8755647702
 11
-8.3198149423
 21
-13.9130903017
  0
LINE
  5
5BB
100
AcDbEntity
  8
DRAFT
100
AcDbLine
 62
7
  6
CONTINUOUS
 10
-5.492145819
 20
-11.5
 11
-5.4746920834
 21
-11.4825462644
  0
LWPOLYLINE
  5
5BC
100
AcDbEntity
  8
RACCORDO
100
AcDbPolyline
 62
253
  6
CONTINUOUS
 90
8
 70
0
 10
6.2771352474
 20
-2.351422327
 10
6.2791677408
 20
-2.3506458005
 10
6.2844307675
 20
-2.3498800085
 10
6.2929243275
 20
-2.3491249507
 10
6.304764514
 20
-2.3483750268
 10
6.3198352339
 20
-2.3476358373
 10
6.3377882075
 20
-2.3469241834
 10
6.3585073414
 20
-2.3462456657
  0
LWPOLYLINE
  5
5BD
100
AcDbEntity
  8
RACCORDO
100
AcDbPolyline
 62
253
  6
CONTINUOUS
 90
7
 70
0
 10
6.0771428628
 20
-2.1514527879
 10
6.0798519582
 20
-2.1506712016
 10
6.0869292273
 20
-2.1499028901
 10
6.0983329037
 20
-2.1491478533
 10
6.1139963912
 20
-2.1484021916
 10
6.1338316742
 20
-2.1476698047
 10
6.1577326005
 20
-2.1469623919
  0
LINE
  5
5BE
100
AcDbEntity
  8
RACCORDO
100
AcDbLine
 62
253
  6
CONTINUOUS
 10
-6.585848414
 20
2.3411037442
 11
-8.25
 21
2.3047941508
  0
LINE
  5
5BF
100
AcDbEntity
  8
DRAFT
100
AcDbLine
 62
7
  6
CONTINUOUS
 10
10.0
 20
2.5
 11
8.75
 21
2.5
  0
LINE
  5
5C0
100
AcDbEntity
  8
DRAFT
100
AcDbLine
 62
7
  6
CONTINUOUS
 10
-8.75
 20
2.5
 11
-10.0
 21
2.5
  0
LINE
  5
5C1
100
AcDbEntity
  8
DRAFT
100
AcDbLine
 62
7
  6
CONTINUOUS
 10
-11.0712013363
 20
4.2
 11
-9.55
 21
4.2
  0
LINE
  5
5C2
100
AcDbEntity
  8
DRAFT
100
AcDbLine
 62
7
  6
CONTINUOUS
 10
11.0712013363
 20
4.2
 11
9.55
 21
4.2
  0
LINE
  5
5C3
100
AcDbEntity
  8
RACCORDO
100
AcDbLine
 62
253
  6
CONTINUOUS
 10
8.25
 20
2.3047941508
 11
6.585848414
 21
2.3411037442
  0
LINE
  5
5C4
100
AcDbEntity
  8
RACCORDO
100
AcDbLine
 62
7
  6
CONTINUOUS
 10
-8.75
 20
13.6
 11
-8.8608443418
 21
13.7108443418
  0
LWPOLYLINE
  5
5C5
100
AcDbEntity
  8
RACCORDO
100
AcDbPolyline
 62
7
  6
CONTINUOUS
 90
4
 70
0
 10
-9.0229379187
 20
13.8853865798
 10
-8.9731694126
 20
13.8332300569
 10
-8.949797001
 20
13.8082854778
 10
-8.9089886078
 20
13.7652903362
  0
LWPOLYLINE
  5
5C6
100
AcDbEntity
  8
RACCORDO
100
AcDbPolyline
 62
7
  6
CONTINUOUS
 90
3
 70
0
 10
-9.1000020174
 20
13.9669173151
 10
-9.0485118538
 20
13.9125985234
 10
-9.0229379187
 20
13.8853865798
  0
LINE
  5
5C7
100
AcDbEntity
  8
RACCORDO
100
AcDbLine
 62
7
  6
CONTINUOUS
 10
-9.1753513893
 20
14.0473889412
 11
-9.1253730673
 21
13.994024163
  0
LINE
  5
5C8
100
AcDbEntity
  8
RACCORDO
100
AcDbLine
 62
7
  6
CONTINUOUS
 10
-9.1253730673
 20
13.994024163
 11
-9.1000020174
 21
13.9669173151
  0
LWPOLYLINE
  5
5C9
100
AcDbEntity
  8
RACCORDO
100
AcDbPolyline
 62
7
  6
CONTINUOUS
 90
4
 70
0
 10
-8.9089886078
 20
13.7652903362
 10
-8.8692534282
 20
13.7219926032
 10
-8.8631539344
 20
13.7147959949
 10
-8.860915679
 20
13.7110827761
  0
LINE
  5
5CA
100
AcDbEntity
  8
0
100
AcDbLine
 62
7
  6
CONTINUOUS
 10
-4.715
 20
14.8
 11
-4.475
 21
14.4
  0
LWPOLYLINE
  5
5CB
100
AcDbEntity
  8
0
100
AcDbPolyline
 62
7
  6
CONTINUOUS
 90
7
 70
0
 10
-2.8522790166
 20
12.8
 10
-2.8571798976
 20
12.808513894
 10
-2.8621265567
 20
12.8169555637
 10
-2.8671189938
 20
12.8253250091
 10
-2.872157209
 20
12.8336222303
 10
-2.8772412022
 20
12.8418472273
 10
-2.8823709735
 20
12.85
  0
LINE
  5
5CC
100
AcDbEntity
  8
RACCORDO
100
AcDbLine
 62
253
  6
CONTINUOUS
 10
-6.4784948896
 20
21.0482312138
 11
-6.5714059779
 21
21.2252970227
  0
LINE
  5
5CD
100
AcDbEntity
  8
RACCORDO
100
AcDbLine
 62
253
  6
CONTINUOUS
 10
-6.428135869
 20
20.5562607898
 11
-6.5855385354
 21
20.8710900996
  0
LINE
  5
5CE
100
AcDbEntity
  8
RACCORDO
100
AcDbLine
 62
253
  6
CONTINUOUS
 10
-6.2281713117
 20
20.7562859877
 11
-6.3855783915
 21
21.0710976899
  0
LINE
  5
5CF
100
AcDbEntity
  8
RACCORDO
100
AcDbLine
 62
7
  6
CONTINUOUS
 10
9.5477965945
 20
-19.3438513356
 11
9.5891800013
 21
-19.4681025177
  0
LINE
  5
5D0
100
AcDbEntity
  8
RACCORDO
100
AcDbLine
 62
253
  6
CONTINUOUS
 10
6.5855385354
 20
-19.9705349127
 11
6.4738193966
 21
-18.850527325
  0
LINE
  5
5D1
100
AcDbEntity
  8
RACCORDO
100
AcDbLine
 62
253
  6
CONTINUOUS
 10
6.78553092
 20
-19.7712959731
 11
6.673674893
 21
-18.6499160521
  0
LWPOLYLINE
  5
5D2
100
AcDbEntity
  8
RACCORDO
100
AcDbPolyline
 62
253
  6
CONTINUOUS
 90
13
 70
0
 10
6.0771428628
 20
-2.1514527879
 10
6.0788576757
 20
-2.1775530987
 10
6.083964766
 20
-2.2032066414
 10
6.0923766718
 20
-2.2279745335
 10
6.1039494195
 20
-2.2514331049
 10
6.1184849289
 20
-2.273181014
 10
6.135734353
 20
-2.2928461465
 10
6.155402458
 20
-2.3100921526
 10
6.1771527134
 20
-2.3246241471
 10
6.2006129502
 20
-2.3361936511
 10
6.2253817852
 20
-2.3446028926
 10
6.2510354954
 20
-2.3497081765
 10
6.2771352474
 20
-2.351422327
  0
LWPOLYLINE
  5
5D3
100
AcDbEntity
  8
ASSI
100
AcDbPolyline
 62
7
  6
CONTINUOUS
 90
13
 70
0
 10
7.2
 20
-24.300030461
 10
7.2017102642
 20
-24.3261325878
 10
7.2068124405
 20
-24.3517877661
 10
7.2152194218
 20
-24.3765572875
 10
7.2267876629
 20
-24.4000177444
 10
7.24131945
 20
-24.4217675502
 10
7.2585660278
 20
-24.4414339722
 10
7.2782324498
 20
-24.45868055
 10
7.2999822556
 20
-24.4732123371
 10
7.3234427125
 20
-24.4847805782
 10
7.3482122339
 20
-24.4931875594
 10
7.3738674122
 20
-24.4982897358
 10
7.399969539
 20
-24.5
  0
LWPOLYLINE
  5
5D4
100
AcDbEntity
  8
RACCORDO
100
AcDbPolyline
 62
253
  6
CONTINUOUS
 90
13
 70
0
 10
6.2524190262
 20
-2.1450016983
 10
6.2539573803
 20
-2.170924362
 10
6.2581050311
 20
-2.1964096086
 10
6.2647919916
 20
-2.2210274024
 10
6.2739054263
 20
-2.2443623447
 10
6.285291556
 20
-2.2660206839
 10
6.2987582532
 20
-2.2856369589
 10
6.3140782821
 20
-2.3028801664
 10
6.3309931335
 20
-2.3174593461
 10
6.349217388
 20
-2.3291284903
 10
6.3684435311
 20
-2.3376906948
 10
6.3883471424
 20
-2.3430014817
 10
6.40859237
 20
-2.3449712374
  0
LWPOLYLINE
  5
5D5
100
AcDbEntity
  8
ASSI
100
AcDbPolyline
 62
7
  6
CONTINUOUS
 90
16
 70
0
 10
4.45
 20
23.7500380762
 10
4.4486505878
 20
23.7759809831
 10
4.4445943169
 20
23.8017480173
 10
4.4378423144
 20
23.8270535846
 10
4.4283964102
 20
23.8517009881
 10
4.4163505324
 20
23.8753074461
 10
4.4019831437
 20
23.897354591
 10
4.385651735
 20
23.9174650114
 10
4.3674650114
 20
23.935651735
 10
4.347354591
 20
23.9519831437
 10
4.3253074461
 20
23.9663505324
 10
4.3017009881
 20
23.9783964102
 10
4.2770535846
 20
23.9878423144
 10
4.2517480173
 20
23.9945943169
 10
4.2259809831
 20
23.9986505878
 10
4.2000380762
 20
24.0
  0
LWPOLYLINE
  5
5D6
100
AcDbEntity
  8
RACCORDO
100
AcDbPolyline
 62
253
  6
CONTINUOUS
 90
19
 70
0
 10
7.01446908
 20
-20.7855461508
 10
7.0161040146
 20
-20.8208819105
 10
7.0206553146
 20
-20.855412454
 10
7.0281229802
 20
-20.8891377812
 10
7.0386061523
 20
-20.9222921503
 10
7.0520056899
 20
-20.9546413032
 10
7.0680241697
 20
-20.9854824654
 10
7.0867172158
 20
-21.0147876697
 10
7.1080292041
 20
-21.0425848833
 10
7.1314958392
 20
-21.068255234
 10
7.1571844797
 20
-21.0917613505
 10
7.185027767
 20
-21.1131406041
 10
7.2143593298
 20
-21.1318862361
 10
7.2451724477
 20
-21.1479222727
 10
7.2774738411
 20
-21.1613246876
 10
7.3106172991
 20
-21.1718146436
 10
7.3443874179
 20
-21.1792991948
 10
7.3789996013
 20
-21.1838712869
 10
7.4144538492
 20
-21.18553092
  0
LWPOLYLINE
  5
5D7
100
AcDbEntity
  8
RACCORDO
100
AcDbPolyline
 62
253
  6
CONTINUOUS
 90
19
 70
0
 10
7.2144614653
 20
-20.785536625
 10
7.2152244725
 20
-20.8030158898
 10
7.2175092883
 20
-20.8203455543
 10
7.2212943191
 20
-20.8373938307
 10
7.2265451368
 20
-20.8540275983
 10
7.2332185986
 20
-20.8701258813
 10
7.2412667501
 20
-20.8855793284
 10
7.2506287411
 20
-20.9002722878
 10
7.2612322266
 20
-20.914092268
 10
7.2730020918
 20
-20.9269407941
 10
7.2858563013
 20
-20.9387246112
 10
7.2996928553
 20
-20.9493468445
 10
7.314393423
 20
-20.9587175114
 10
7.3298259871
 20
-20.9667589382
 10
7.34588948
 20
-20.9734246325
 10
7.3625060845
 20
-20.9786787983
 10
7.379567652
 20
-20.9824753626
 10
7.396931438
 20
-20.9847709048
 10
7.4144655404
 20
-20.9855385344
  0
LINE
  5
5D8
100
AcDbEntity
  8
ASSI
100
AcDbLine
 62
253
  6
CONTINUOUS
 10
7.2
 20
-23.3515746082
 11
7.2136505197
 21
-23.8032759805
  0
LINE
  5
5D9
100
AcDbEntity
  8
RACCORDO
100
AcDbLine
 62
7
  6
CONTINUOUS
 10
5.4444055569
 20
20.5556249041
 11
5.4447682533
 21
20.1275985407
  0
LINE
  5
5DA
100
AcDbEntity
  8
ASSI
100
AcDbLine
 62
7
  6
CONTINUOUS
 10
4.65
 20
14.4
 11
4.65
 21
13.7211646096
  0
LINE
  5
5DB
100
AcDbEntity
  8
RACCORDO
100
AcDbLine
 62
253
  6
CONTINUOUS
 10
4.9289098981
 20
-20.0855385354
 11
4.9289098981
 21
-20.8711510238
  0
LINE
  5
5DC
100
AcDbEntity
  8
RACCORDO
100
AcDbLine
 62
253
  6
CONTINUOUS
 10
4.9289098981
 20
20.0855385354
 11
4.9289098981
 21
20.8711510238
  0
LINE
  5
5DD
100
AcDbEntity
  8
RACCORDO
100
AcDbLine
 62
253
  6
CONTINUOUS
 10
5.1288794371
 20
20.871139329
 11
5.1288794371
 21
20.28553092
  0
LINE
  5
5DE
100
AcDbEntity
  8
RACCORDO
100
AcDbLine
 62
253
  6
CONTINUOUS
 10
5.1288794371
 20
-20.28553092
 11
5.1288794371
 21
-20.8711415107
  0
LINE
  5
5DF
100
AcDbEntity
  8
RACCORDO
100
AcDbLine
 62
253
  6
CONTINUOUS
 10
5.3288718492
 20
-21.0710976899
 11
5.3288718492
 21
-21.2825097805
  0
LINE
  5
5E0
100
AcDbEntity
  8
RACCORDO
100
AcDbLine
 62
253
  6
CONTINUOUS
 10
5.3288718492
 20
21.0710976899
 11
5.3288718492
 21
21.2825097805
  0
LINE
  5
5E1
100
AcDbEntity
  8
RACCORDO
100
AcDbLine
 62
7
  6
CONTINUOUS
 10
5.3523651948
 20
-20.6476652662
 11
5.3523651948
 21
-20.1737965513
  0
LINE
  5
5E2
100
AcDbEntity
  8
0
100
AcDbLine
 62
7
  6
CONTINUOUS
 10
5.415
 20
13.1931031957
 11
5.415
 21
14.8
  0
LINE
  5
5E3
100
AcDbEntity
  8
DRAFT
100
AcDbLine
 62
7
  6
CONTINUOUS
 10
6.0
 20
18.8839326584
 11
6.0
 21
17.5160673416
  0
LINE
  5
5E4
100
AcDbEntity
  8
DRAFT
100
AcDbLine
 62
7
  6
CONTINUOUS
 10
6.0
 20
-14.0160673416
 11
6.0
 21
-15.3839326584
  0
LINE
  5
5E5
100
AcDbEntity
  8
0
100
AcDbLine
 62
7
  6
CONTINUOUS
 10
6.015
 20
12.85
 11
6.015
 21
14.8
  0
LINE
  5
5E6
100
AcDbEntity
  8
RACCORDO
100
AcDbLine
 62
7
  6
CONTINUOUS
 10
6.05
 20
-2.2057426482
 11
6.05
 21
-1.2
  0
LINE
  5
5E7
100
AcDbEntity
  8
RACCORDO
100
AcDbLine
 62
253
  6
CONTINUOUS
 10
6.0771428628
 20
1.3
 11
6.0771428628
 21
-2.1514527879
  0
LINE
  5
5E8
100
AcDbEntity
  8
RACCORDO
100
AcDbLine
 62
253
  6
CONTINUOUS
 10
6.2524190262
 20
1.626612199
 11
6.2524190262
 21
-2.1450016983
  0
LINE
  5
5E9
100
AcDbEntity
  8
0
100
AcDbLine
 62
7
  6
CONTINUOUS
 10
6.2820508076
 20
12.85
 11
6.2820508076
 21
12.8
  0
LINE
  5
5EA
100
AcDbEntity
  8
RACCORDO
100
AcDbLine
 62
253
  6
CONTINUOUS
 10
6.385565175
 20
-21.0710976899
 11
6.385565175
 21
-21.2825097805
  0
LINE
  5
5EB
100
AcDbEntity
  8
RACCORDO
100
AcDbLine
 62
253
  6
CONTINUOUS
 10
6.385565175
 20
21.0710976899
 11
6.385565175
 21
21.2825097805
  0
LINE
  5
5EC
100
AcDbEntity
  8
RACCORDO
100
AcDbLine
 62
7
  6
CONTINUOUS
 10
6.4738193966
 20
-20.6476348041
 11
6.4738193966
 21
-18.850527325
  0
LINE
  5
5ED
100
AcDbEntity
  8
RACCORDO
100
AcDbLine
 62
7
  6
CONTINUOUS
 10
6.5855385354
 20
-20.8710900996
 11
6.5855385354
 21
-19.9705349127
  0
LINE
  5
5EE
100
AcDbEntity
  8
RACCORDO
100
AcDbLine
 62
7
  6
CONTINUOUS
 10
6.5855385354
 20
19.9705349127
 11
6.5855385354
 21
20.8712897968
  0
LINE
  5
5EF
100
AcDbEntity
  8
RACCORDO
100
AcDbLine
 62
7
  6
CONTINUOUS
 10
6.4274888285
 20
18.9520022272
 11
6.428135869
 21
20.5562607898
  0
LINE
  5
5F0
100
AcDbEntity
  8
RACCORDO
100
AcDbLine
 62
253
  6
CONTINUOUS
 10
4.6519362776
 20
-19.3438513356
 11
4.6527268314
 21
-17.8541464545
  0
LINE
  5
5F1
100
AcDbEntity
  8
RACCORDO
100
AcDbLine
 62
253
  6
CONTINUOUS
 10
4.602282102
 20
-19.9738193966
 11
4.6024079476
 21
-19.7172652525
  0
LINE
  5
5F2
100
AcDbEntity
  8
RACCORDO
100
AcDbLine
 62
253
  6
CONTINUOUS
 10
4.6024079476
 20
-19.7172652525
 11
4.6027748528
 21
-19.6683327624
  0
LINE
  5
5F3
100
AcDbEntity
  8
RACCORDO
100
AcDbLine
 62
7
  6
CONTINUOUS
 10
4.4028049297
 20
-19.6022517445
 11
4.4037896396
 21
-19.4894586535
  0
LINE
  5
5F4
100
AcDbEntity
  8
RACCORDO
100
AcDbLine
 62
253
  6
CONTINUOUS
 10
4.6027748528
 20
-19.6683327624
 11
4.6033771112
 21
-19.6222216798
  0
LINE
  5
5F5
100
AcDbEntity
  8
RACCORDO
100
AcDbLine
 62
7
  6
CONTINUOUS
 10
4.4037896396
 20
-19.4894586535
 11
4.4047076897
 21
-19.423626531
  0
LWPOLYLINE
  5
5F6
100
AcDbEntity
  8
RACCORDO
100
AcDbPolyline
 62
7
  6
CONTINUOUS
 90
9
 70
0
 10
4.4047076897
 20
-19.423626531
 10
4.4058063397
 20
-19.3676279299
 10
4.4064108882
 20
-19.3438333868
 10
4.4070488638
 20
-19.3230854799
 10
4.4077197109
 20
-19.3053261448
 10
4.4084099311
 20
-19.2909373896
 10
4.4091150249
 20
-19.2800465502
 10
4.4098394917
 20
-19.2725262906
 10
4.4105833317
 20
-19.2683766108
  0
LWPOLYLINE
  5
5F7
100
AcDbEntity
  8
RACCORDO
100
AcDbPolyline
 62
253
  6
CONTINUOUS
 90
12
 70
0
 10
4.6033771112
 20
-19.6222216798
 10
4.6041970901
 20
-19.5802504974
 10
4.6046787084
 20
-19.5611932836
 10
4.6052059032
 20
-19.5436058696
 10
4.6057777836
 20
-19.5276111756
 10
4.6063824748
 20
-19.5133192808
 10
4.6070205754
 20
-19.5008338683
 10
4.6076914869
 20
-19.4902418931
 10
4.6083815392
 20
-19.481614143
 10
4.6090861756
 20
-19.4750152832
 10
4.6098099528
 20
-19.4704990842
 10
4.6105528707
 20
-19.4681025177
  0
LINE
  5
5F8
100
AcDbEntity
  8
ASSI
100
AcDbLine
 62
253
  6
CONTINUOUS
 10
7.2136679048
 20
23.8040013026
 11
7.2135886019
 21
23.8010362971
  0
LINE
  5
5F9
100
AcDbEntity
  8
ASSI
100
AcDbLine
 62
253
  6
CONTINUOUS
 10
7.2135886019
 20
23.8010362971
 11
7.2
 21
23.3515746082
  0
LWPOLYLINE
  5
5FA
100
AcDbEntity
  8
ASSI
100
AcDbPolyline
 62
7
  6
CONTINUOUS
 90
16
 70
0
 10
4.45
 20
-23.7500380762
 10
4.4486505878
 20
-23.7759809831
 10
4.4445943169
 20
-23.8017480173
 10
4.4378423144
 20
-23.8270535846
 10
4.4283964102
 20
-23.8517009881
 10
4.4163505324
 20
-23.8753074461
 10
4.4019831437
 20
-23.897354591
 10
4.385651735
 20
-23.9174650114
 10
4.3674650114
 20
-23.935651735
 10
4.347354591
 20
-23.9519831437
 10
4.3253074461
 20
-23.9663505324
 10
4.3017009881
 20
-23.9783964102
 10
4.2770535846
 20
-23.9878423144
 10
4.2517480173
 20
-23.9945943169
 10
4.2259809831
 20
-23.9986505878
 10
4.2000380762
 20
-24.0
  0
LWPOLYLINE
  5
5FB
100
AcDbEntity
  8
ASSI
100
AcDbPolyline
 62
7
  6
CONTINUOUS
 90
13
 70
0
 10
7.2
 20
24.300030461
 10
7.2017102642
 20
24.3261325878
 10
7.2068124405
 20
24.3517877661
 10
7.2152194218
 20
24.3765572875
 10
7.2267876629
 20
24.4000177444
 10
7.24131945
 20
24.4217675502
 10
7.2585660278
 20
24.4414339722
 10
7.2782324498
 20
24.45868055
 10
7.2999822556
 20
24.4732123371
 10
7.3234427125
 20
24.4847805782
 10
7.3482122339
 20
24.4931875595
 10
7.3738674122
 20
24.4982897358
 10
7.399969539
 20
24.5
  0
LWPOLYLINE
  5
5FC
100
AcDbEntity
  8
RACCORDO
100
AcDbPolyline
 62
253
  6
CONTINUOUS
 90
13
 70
0
 10
7.2144614646
 20
19.9705349127
 10
7.2127323254
 20
19.9445416287
 10
7.2076141534
 20
19.9189926615
 10
7.1991944358
 20
19.8943247352
 10
7.1876171049
 20
19.8709595306
 10
7.173080053
 20
19.8492964243
 10
7.1558317286
 20
19.8297056758
 10
7.1361669225
 20
19.8125221562
 10
7.1144217871
 20
19.798039643
 10
7.0909680633
 20
19.7865057368
 10
7.0662066805
 20
19.7781176047
 10
7.0405608909
 20
19.7730186283
 10
7.01446908
 20
19.7712959731
  0
LINE
  5
5FD
100
AcDbEntity
  8
RACCORDO
100
AcDbLine
 62
253
  6
CONTINUOUS
 10
6.5855385354
 20
19.9705349127
 11
6.4839413715
 21
18.9520022272
  0
LINE
  5
5FE
100
AcDbEntity
  8
RACCORDO
100
AcDbLine
 62
253
  6
CONTINUOUS
 10
6.78553092
 20
19.7712959731
 11
6.7038075525
 21
18.9520022272
  0
LINE
  5
5FF
100
AcDbEntity
  8
0
100
AcDbLine
 62
7
  6
CONTINUOUS
 10
7.5
 20
4.3
 11
6.1
 21
1.3
  0
LINE
  5
600
100
AcDbEntity
  8
RACCORDO
100
AcDbLine
 62
253
  6
CONTINUOUS
 10
6.05
 20
-2.2057426482
 11
6.0771428628
 21
-2.1514527879
  0
LINE
  5
601
100
AcDbEntity
  8
DRAFT
100
AcDbLine
 62
7
  6
CONTINUOUS
 10
8.5937890665
 20
2.3586139741
 11
8.75
 21
2.6710596363
  0
LINE
  5
602
100
AcDbEntity
  8
DRAFT
100
AcDbLine
 62
7
  6
CONTINUOUS
 10
10.0
 20
2.5
 11
9.7730841559
 21
2.2730841559
  0
LINE
  5
603
100
AcDbEntity
  8
DRAFT
100
AcDbLine
 62
7
  6
CONTINUOUS
 10
-5.4825462644
 20
-13.8502568536
 11
-5.4921463158
 21
-13.8598570694
  0
LINE
  5
604
100
AcDbEntity
  8
DRAFT
100
AcDbLine
 62
7
  6
CONTINUOUS
 10
-5.5
 20
-13.8755647702
 11
-5.4921463174
 21
-13.8677107886
  0
LINE
  5
605
100
AcDbEntity
  8
DRAFT
100
AcDbLine
 62
7
  6
CONTINUOUS
 10
-10.9926595262
 20
6.2
 11
-9.6285418101
 21
6.2
  0
LINE
  5
606
100
AcDbEntity
  8
DRAFT
100
AcDbLine
 62
7
  6
CONTINUOUS
 10
10.9926595262
 20
6.2
 11
9.6285418101
 21
6.2
  0
LINE
  5
607
100
AcDbEntity
  8
DRAFT
100
AcDbLine
 62
7
  6
CONTINUOUS
 10
-8.7831563161
 20
15.3831563161
 11
-8.7746920834
 21
15.3746920834
  0
LINE
  5
608
100
AcDbEntity
  8
DRAFT
100
AcDbLine
 62
7
  6
CONTINUOUS
 10
10.0
 20
-2.5
 11
9.7730841559
 21
-2.2730841559
  0
LINE
  5
609
100
AcDbEntity
  8
DRAFT
100
AcDbLine
 62
7
  6
CONTINUOUS
 10
-9.8414773842
 20
17.6914773842
 11
-9.55
 21
17.4
  0
LINE
  5
60A
100
AcDbEntity
  8
DRAFT
100
AcDbLine
 62
7
  6
CONTINUOUS
 10
-10.8085226158
 20
18.7085226158
 11
-11.1
 21
19.0
  0
LINE
  5
60B
100
AcDbEntity
  8
DRAFT
100
AcDbLine
 62
7
  6
CONTINUOUS
 10
8.5109333469
 20
-3.5508468051
 11
8.3355233044
 21
-3.2
  0
LINE
  5
60C
100
AcDbEntity
  8
DRAFT
100
AcDbLine
 62
7
  6
CONTINUOUS
 10
8.25
 20
-2.6710596363
 11
8.1173516096
 21
-2.4057426494
  0
LINE
  5
60D
100
AcDbEntity
  8
RACCORDO
100
AcDbLine
 62
7
  6
CONTINUOUS
 10
9.4966110309
 20
-6.9313229207
 11
9.4
 21
-6.7340347844
  0
LWPOLYLINE
  5
60E
100
AcDbEntity
  8
ASSI
100
AcDbPolyline
 62
253
  6
CONTINUOUS
 90
6
 70
0
 10
3.1286750776
 20
21.975182794
 10
3.1291601022
 20
21.9721266543
 10
3.1296374951
 20
21.9650871366
 10
3.1301072563
 20
21.9540642408
 10
3.1305721233
 20
21.9389548805
 10
3.1310293586
 20
21.9198621423
  0
LWPOLYLINE
  5
60F
100
AcDbEntity
  8
ASSI
100
AcDbPolyline
 62
253
  6
CONTINUOUS
 90
5
 70
0
 10
3.3786655583
 20
22.2251447178
 10
3.3791531838
 20
22.2211208594
 10
3.379632348
 20
22.2116508462
 10
3.380103051
 20
22.1967864891
 10
3.3805677578
 20
22.1766091187
  0
LINE
  5
610
100
AcDbEntity
  8
DRAFT
100
AcDbLine
 62
7
  6
CONTINUOUS
 10
9.5432634574
 20
-17.1381978935
 11
9.5001148706
 21
-16.7023209677
  0
LWPOLYLINE
  5
611
100
AcDbEntity
  8
ASSI
100
AcDbPolyline
 62
253
  6
CONTINUOUS
 90
13
 70
0
 10
10.5864113981
 20
-23.8010362971
 10
10.5844930317
 20
-23.7785524661
 10
10.5792234307
 20
-23.7564490956
 10
10.5706917678
 20
-23.735100197
 10
10.5590424128
 20
-23.7148670137
 10
10.5444724898
 20
-23.6960919105
 10
10.5272285433
 20
-23.6790925801
 10
10.5076023651
 20
-23.664156665
 10
10.4859260514
 20
-23.651536889
 10
10.462566384
 20
-23.6414467844
 10
10.43791863
 20
-23.634057081
 10
10.4123998547
 20
-23.6294928159
 10
10.3864418591
 20
-23.6278312164
  0
LWPOLYLINE
  5
612
100
AcDbEntity
  8
RACCORDO
100
AcDbPolyline
 62
7
  6
CONTINUOUS
 90
13
 70
0
 10
6.428135869
 20
20.5562607898
 10
6.4264260978
 20
20.582461929
 10
6.4213066093
 20
20.6081961771
 10
6.4128705323
 20
20.6330226523
 10
6.4012675147
 20
20.6565176327
 10
6.3867012575
 20
20.6782799729
 10
6.3694263324
 20
20.6979382117
 10
6.3497428274
 20
20.7151591774
 10
6.3279909108
 20
20.7296531113
 10
6.3045455983
 20
20.7411770241
 10
6.2798095063
 20
20.7495392905
 10
6.2542057971
 20
20.7546025814
 10
6.2281713117
 20
20.7562859877
  0
LWPOLYLINE
  5
613
100
AcDbEntity
  8
RACCORDO
100
AcDbPolyline
 62
253
  6
CONTINUOUS
 90
13
 70
0
 10
6.78553092
 20
20.8710900996
 10
6.783754968
 20
20.9078616431
 10
6.7788401462
 20
20.9437270533
 10
6.7707864546
 20
20.9786863301
 10
6.7594767975
 20
21.0130007179
 10
6.7450282705
 20
21.0464089723
 10
6.7277921612
 20
21.0781273603
 10
6.7077053013
 20
21.108120045
 10
6.6848308589
 20
21.1364228633
 10
6.6597096262
 20
21.1623595925
 10
6.6325218671
 20
21.185704825
 10
6.6030873177
 20
21.2066839684
 10
6.5714059779
 20
21.2252970227
  0
LWPOLYLINE
  5
614
100
AcDbEntity
  8
RACCORDO
100
AcDbPolyline
 62
253
  6
CONTINUOUS
 90
13
 70
0
 10
6.5855384613
 20
20.8712898479
 10
6.5847054283
 20
20.8893641849
 10
6.5822425008
 20
20.9072939357
 10
6.5781683743
 20
20.9249322722
 10
6.572513896
 20
20.9421375001
 10
6.5653245341
 20
20.9587650883
 10
6.5566626269
 20
20.9746699563
 10
6.5466037297
 20
20.9897173052
 10
6.5352283922
 20
21.0037900958
 10
6.522623844
 20
21.016779941
 10
6.508889881
 20
21.0285813198
 10
6.4941401797
 20
21.0390942
 10
6.4784948813
 20
21.0482311979
  0
LINE
  5
615
100
AcDbEntity
  8
ASSI
100
AcDbLine
 62
253
  6
CONTINUOUS
 10
7.3982849591
 20
-23.1226497308
 11
7.4135581409
 21
-23.6278312163
  0
LINE
  5
616
100
AcDbEntity
  8
ASSI
100
AcDbLine
 62
7
  6
CONTINUOUS
 10
8.5
 20
-23.1226497308
 11
8.5131674569
 21
-23.5581814706
  0
LINE
  5
617
100
AcDbEntity
  8
ASSI
100
AcDbLine
 62
253
  6
CONTINUOUS
 10
7.2135623006
 20
24.2810074149
 11
7.2136489605
 21
24.2779804699
  0
LINE
  5
618
100
AcDbEntity
  8
ASSI
100
AcDbLine
 62
253
  6
CONTINUOUS
 10
7.2136489605
 20
24.2779804699
 11
7.2137300847
 21
24.2743361488
  0
LINE
  5
619
100
AcDbEntity
  8
ASSI
100
AcDbLine
 62
253
  6
CONTINUOUS
 10
7.2136505197
 20
-23.8032759805
 11
7.2137420411
 21
-23.8074820549
  0
LINE
  5
61A
100
AcDbEntity
  8
ASSI
100
AcDbLine
 62
253
  6
CONTINUOUS
 10
7.2137420411
 20
-23.8074820549
 11
7.213828208
 21
-23.8127103245
  0
LINE
  5
61B
100
AcDbEntity
  8
ASSI
100
AcDbLine
 62
253
  6
CONTINUOUS
 10
7.2137300847
 20
24.2743361488
 11
7.2138378339
 21
24.2678057374
  0
LINE
  5
61C
100
AcDbEntity
  8
ASSI
100
AcDbLine
 62
253
  6
CONTINUOUS
 10
7.4132630744
 20
24.4835719291
 11
7.4133520058
 21
24.4780193433
  0
LINE
  5
61D
100
AcDbEntity
  8
ASSI
100
AcDbLine
 62
253
  6
CONTINUOUS
 10
7.2138378339
 20
24.2678057374
 11
7.2139239864
 21
24.2602144454
  0
LINE
  5
61E
100
AcDbEntity
  8
ASSI
100
AcDbLine
 62
253
  6
CONTINUOUS
 10
7.213828208
 20
-23.8127103245
 11
7.2139256179
 21
-23.8211681223
  0
LINE
  5
61F
100
AcDbEntity
  8
ASSI
100
AcDbLine
 62
253
  6
CONTINUOUS
 10
7.4133520058
 20
24.4780193433
 11
7.4134873423
 21
24.4638859608
  0
LINE
  5
620
100
AcDbEntity
  8
ASSI
100
AcDbLine
 62
253
  6
CONTINUOUS
 10
7.2139239864
 20
24.2602144454
 11
7.2139993578
 21
24.2488902721
  0
LINE
  5
621
100
AcDbEntity
  8
ASSI
100
AcDbLine
 62
253
  6
CONTINUOUS
 10
7.2139256179
 20
-23.8211681223
 11
7.2140046354
 21
-23.8336110348
  0
LINE
  5
622
100
AcDbEntity
  8
ASSI
100
AcDbLine
 62
253
  6
CONTINUOUS
 10
7.4134873423
 20
24.4638859608
 11
7.4138073165
 21
24.3915347321
  0
LINE
  5
623
100
AcDbEntity
  8
RACCORDO
100
AcDbLine
 62
253
  6
CONTINUOUS
 10
7.8616005005
 20
-21.3693648495
 11
7.8627940773
 21
-21.6526319267
  0
LINE
  5
624
100
AcDbEntity
  8
ASSI
100
AcDbLine
 62
253
  6
CONTINUOUS
 10
7.4135581409
 20
-23.6278312163
 11
7.4139332902
 21
-23.7523750309
  0
LINE
  5
625
100
AcDbEntity
  8
RACCORDO
100
AcDbLine
 62
7
  6
CONTINUOUS
 10
7.3714633245
 20
20.6285442909
 11
7.3721245332
 21
18.9520022272
  0
LINE
  5
626
100
AcDbEntity
  8
RACCORDO
100
AcDbLine
 62
253
  6
CONTINUOUS
 10
8.0614243722
 20
-21.2252970227
 11
8.0620127384
 21
-21.4550703176
  0
LINE
  5
627
100
AcDbEntity
  8
DRAFT
100
AcDbLine
 62
7
  6
CONTINUOUS
 10
6.7019074668
 20
18.7085226158
 11
6.7019074668
 21
17.6914773842
  0
LINE
  5
628
100
AcDbEntity
  8
DRAFT
100
AcDbLine
 62
7
  6
CONTINUOUS
 10
6.7019074668
 20
-15.2085226158
 11
6.7019074668
 21
-14.1914773842
  0
LINE
  5
629
100
AcDbEntity
  8
RACCORDO
100
AcDbLine
 62
253
  6
CONTINUOUS
 10
6.78553092
 20
-20.8710900996
 11
6.78553092
 21
-19.7712959731
  0
LINE
  5
62A
100
AcDbEntity
  8
RACCORDO
100
AcDbLine
 62
253
  6
CONTINUOUS
 10
6.78553092
 20
19.7712959731
 11
6.78553092
 21
20.8710900996
  0
LINE
  5
62B
100
AcDbEntity
  8
RACCORDO
100
AcDbLine
 62
253
  6
CONTINUOUS
 10
7.01446908
 20
-19.7712959731
 11
7.01446908
 21
-20.7855461508
  0
LINE
  5
62C
100
AcDbEntity
  8
RACCORDO
100
AcDbLine
 62
253
  6
CONTINUOUS
 10
7.01446908
 20
19.7712959731
 11
7.01446908
 21
20.7855461508
  0
LINE
  5
62D
100
AcDbEntity
  8
ASSI
100
AcDbLine
 62
7
  6
CONTINUOUS
 10
7.2
 20
-22.4
 11
7.2
 21
-24.300030461
  0
LINE
  5
62E
100
AcDbEntity
  8
ASSI
100
AcDbLine
 62
7
  6
CONTINUOUS
 10
7.2
 20
22.4
 11
7.2
 21
24.300030461
  0
LINE
  5
62F
100
AcDbEntity
  8
RACCORDO
100
AcDbLine
 62
7
  6
CONTINUOUS
 10
7.2144614646
 20
20.7855365134
 11
7.2144614646
 21
19.9705349127
  0
LINE
  5
630
100
AcDbEntity
  8
RACCORDO
100
AcDbLine
 62
7
  6
CONTINUOUS
 10
7.2144614646
 20
-19.9705349127
 11
7.2144614646
 21
-20.7855366255
  0
LINE
  5
631
100
AcDbEntity
  8
0
100
AcDbLine
 62
7
  6
CONTINUOUS
 10
7.265
 20
12.85
 11
7.265
 21
13.3
  0
LINE
  5
632
100
AcDbEntity
  8
0
100
AcDbLine
 62
7
  6
CONTINUOUS
 10
7.315
 20
13.3
 11
7.315
 21
13.8
  0
LINE
  5
633
100
AcDbEntity
  8
RACCORDO
100
AcDbLine
 62
7
  6
CONTINUOUS
 10
7.3261806034
 20
-20.673827012
 11
7.3261806034
 21
-18.850527325
  0
LINE
  5
634
100
AcDbEntity
  8
ASSI
100
AcDbLine
 62
253
  6
CONTINUOUS
 10
7.4139332902
 20
-23.7523750309
 11
7.413994517
 21
-23.8443354981
  0
LINE
  5
635
100
AcDbEntity
  8
RACCORDO
100
AcDbLine
 62
253
  6
CONTINUOUS
 10
7.4144538492
 20
-20.9855385354
 11
7.4144538492
 21
-21.18553092
  0
LINE
  5
636
100
AcDbEntity
  8
RACCORDO
100
AcDbLine
 62
253
  6
CONTINUOUS
 10
7.4144538492
 20
20.9855385354
 11
7.4144538492
 21
21.18553092
  0
LINE
  5
637
100
AcDbEntity
  8
ASSI
100
AcDbLine
 62
7
  6
CONTINUOUS
 10
7.5
 20
12.8
 11
7.5
 21
11.3
  0
LINE
  5
638
100
AcDbEntity
  8
0
100
AcDbLine
 62
7
  6
CONTINUOUS
 10
7.5
 20
11.3
 11
7.5
 21
2.3586139741
  0
LINE
  5
639
100
AcDbEntity
  8
DRAFT
100
AcDbLine
 62
7
  6
CONTINUOUS
 10
7.6932753594
 20
8.9
 11
7.6932753594
 21
11.3
  0
LINE
  5
63A
100
AcDbEntity
  8
DRAFT
100
AcDbLine
 62
7
  6
CONTINUOUS
 10
7.6932753594
 20
13.7322894108
 11
7.6932753594
 21
17.4479977729
  0
LINE
  5
63B
100
AcDbEntity
  8
DRAFT
100
AcDbLine
 62
7
  6
CONTINUOUS
 10
7.7255647702
 20
13.7
 11
7.7255647702
 21
13.6
  0
LINE
  5
63C
100
AcDbEntity
  8
DRAFT
100
AcDbLine
 62
7
  6
CONTINUOUS
 10
7.7255647702
 20
15.1244352298
 11
7.7255647702
 21
15.65
  0
LINE
  5
63D
100
AcDbEntity
  8
DRAFT
100
AcDbLine
 62
7
  6
CONTINUOUS
 10
7.7255647702
 20
16.85
 11
7.7255647702
 21
17.3755647702
  0
LINE
  5
63E
100
AcDbEntity
  8
RACCORDO
100
AcDbLine
 62
7
  6
CONTINUOUS
 10
7.7787986637
 20
10.2
 11
7.7787986637
 21
9.9768345149
  0
LINE
  5
63F
100
AcDbEntity
  8
RACCORDO
100
AcDbLine
 62
253
  6
CONTINUOUS
 10
7.8614548332
 20
-20.9855385354
 11
7.8616005005
 21
-21.3693648495
  0
LINE
  5
640
100
AcDbEntity
  8
RACCORDO
100
AcDbLine
 62
7
  6
CONTINUOUS
 10
7.9542087063
 20
14.8957912937
 11
7.9542087063
 21
14.5108367263
  0
LINE
  5
641
100
AcDbEntity
  8
RACCORDO
100
AcDbLine
 62
7
  6
CONTINUOUS
 10
7.9542087063
 20
10.5508468051
 11
7.9542087063
 21
11.0891632737
  0
LINE
  5
642
100
AcDbEntity
  8
RACCORDO
100
AcDbLine
 62
7
  6
CONTINUOUS
 10
8.0
 20
-2.4057426494
 11
8.0
 21
-5.1773101437
  0
LINE
  5
643
100
AcDbEntity
  8
RACCORDO
100
AcDbLine
 62
7
  6
CONTINUOUS
 10
8.0
 20
-6.7226898563
 11
8.0
 21
-10.0
  0
LINE
  5
644
100
AcDbEntity
  8
RACCORDO
100
AcDbLine
 62
7
  6
CONTINUOUS
 10
8.0
 20
-11.4825462644
 11
8.0
 21
-13.8502568536
  0
LINE
  5
645
100
AcDbEntity
  8
RACCORDO
100
AcDbLine
 62
253
  6
CONTINUOUS
 10
8.0614243722
 20
-21.18553092
 11
8.0614243722
 21
-21.2252970227
  0
LINE
  5
646
100
AcDbEntity
  8
0
100
AcDbLine
 62
7
  6
CONTINUOUS
 10
8.15
 20
12.85
 11
8.15
 21
12.8
  0
LINE
  5
647
100
AcDbEntity
  8
RACCORDO
100
AcDbLine
 62
7
  6
CONTINUOUS
 10
8.2325449351
 20
21.4051134101
 11
8.2325449351
 21
21.0999771547
  0
LINE
  5
648
100
AcDbEntity
  8
RACCORDO
100
AcDbLine
 62
7
  6
CONTINUOUS
 10
8.2325449351
 20
-21.4051134101
 11
8.2325449351
 21
-21.0999771547
  0
LINE
  5
649
100
AcDbEntity
  8
DRAFT
100
AcDbLine
 62
7
  6
CONTINUOUS
 10
8.25
 20
-10.0
 11
8.25
 21
-6.7226898563
  0
LINE
  5
64A
100
AcDbEntity
  8
DRAFT
100
AcDbLine
 62
7
  6
CONTINUOUS
 10
8.25
 20
-5.1773101437
 11
8.25
 21
-2.6710596363
  0
LINE
  5
64B
100
AcDbEntity
  8
RACCORDO
100
AcDbLine
 62
7
  6
CONTINUOUS
 10
8.25
 20
-2.3047941508
 11
8.25
 21
2.3047941508
  0
LINE
  5
64C
100
AcDbEntity
  8
DRAFT
100
AcDbLine
 62
7
  6
CONTINUOUS
 10
8.25
 20
8.0
 11
8.25
 21
8.9
  0
LINE
  5
64D
100
AcDbEntity
  8
DRAFT
100
AcDbLine
 62
7
  6
CONTINUOUS
 10
8.2569814942
 20
-13.8502568536
 11
8.2569814942
 21
-10.9930185058
  0
LINE
  5
64E
100
AcDbEntity
  8
DRAFT
100
AcDbLine
 62
7
  6
CONTINUOUS
 10
8.2726898563
 20
-4.9
 11
8.2726898563
 21
-5.2
  0
LINE
  5
64F
100
AcDbEntity
  8
DRAFT
100
AcDbLine
 62
7
  6
CONTINUOUS
 10
8.2822894108
 20
-10.9677105892
 11
8.2822894108
 21
-10.5
  0
LINE
  5
650
100
AcDbEntity
  8
DRAFT
100
AcDbLine
 62
7
  6
CONTINUOUS
 10
8.2822894108
 20
-10.0322894108
 11
8.2822894108
 21
-9.95
  0
LINE
  5
651
100
AcDbEntity
  8
DRAFT
100
AcDbLine
 62
7
  6
CONTINUOUS
 10
8.2822894108
 20
-8.75
 11
8.2822894108
 21
-8.2244352298
  0
LINE
  5
652
100
AcDbEntity
  8
DRAFT
100
AcDbLine
 62
7
  6
CONTINUOUS
 10
8.3198149423
 20
-10.5375255315
 11
8.3198149423
 21
-13.9130903017
  0
LINE
  5
653
100
AcDbEntity
  8
RACCORDO
100
AcDbLine
 62
7
  6
CONTINUOUS
 10
8.3355233044
 20
9.9768345149
 11
8.3355233044
 21
8.0
  0
LINE
  5
654
100
AcDbEntity
  8
DRAFT
100
AcDbLine
 62
7
  6
CONTINUOUS
 10
8.3355233044
 20
-3.2
 11
8.3355233044
 21
-2.5
  0
LINE
  5
655
100
AcDbEntity
  8
ASSI
100
AcDbLine
 62
7
  6
CONTINUOUS
 10
8.5
 20
23.1226497308
 11
8.5
 21
22.4
  0
LINE
  5
656
100
AcDbEntity
  8
ASSI
100
AcDbLine
 62
7
  6
CONTINUOUS
 10
8.5
 20
12.8
 11
8.5
 21
11.3
  0
LINE
  5
657
100
AcDbEntity
  8
ASSI
100
AcDbLine
 62
7
  6
CONTINUOUS
 10
8.5
 20
-22.4
 11
8.5
 21
-23.1226497308
  0
LINE
  5
658
100
AcDbEntity
  8
RACCORDO
100
AcDbLine
 62
7
  6
CONTINUOUS
 10
8.5109333469
 20
-7.9957912937
 11
8.5109333469
 21
-7.7312924592
  0
LINE
  5
659
100
AcDbEntity
  8
RACCORDO
100
AcDbLine
 62
7
  6
CONTINUOUS
 10
8.5109333469
 20
-3.8687075408
 11
8.5109333469
 21
-3.5508468051
  0
LINE
  5
65A
100
AcDbEntity
  8
ASSI
100
AcDbLine
 62
253
  6
CONTINUOUS
 10
8.5131674569
 20
23.5581814706
 11
8.5131674569
 21
22.3868325431
  0
LINE
  5
65B
100
AcDbEntity
  8
ASSI
100
AcDbLine
 62
253
  6
CONTINUOUS
 10
8.5131674569
 20
-22.3868325431
 11
8.5131674569
 21
-23.5581814706
  0
LINE
  5
65C
100
AcDbEntity
  8
DRAFT
100
AcDbLine
 62
7
  6
CONTINUOUS
 10
8.75
 20
13.6
 11
8.75
 21
12.0
  0
LINE
  5
65D
100
AcDbEntity
  8
DRAFT
100
AcDbLine
 62
7
  6
CONTINUOUS
 10
8.75
 20
8.0
 11
8.75
 21
2.5
  0
LINE
  5
65E
100
AcDbEntity
  8
ASSI
100
AcDbLine
 62
253
  6
CONTINUOUS
 10
7.2139993578
 20
24.2488902721
 11
7.214024441
 21
23.8422641062
  0
LINE
  5
65F
100
AcDbEntity
  8
ASSI
100
AcDbLine
 62
253
  6
CONTINUOUS
 10
7.2140046354
 20
-23.8336110348
 11
7.2140243068
 21
-24.2392293031
  0
LINE
  5
660
100
AcDbEntity
  8
ASSI
100
AcDbLine
 62
253
  6
CONTINUOUS
 10
7.4138073165
 20
24.3915347321
 11
7.4139916129
 21
23.8234155659
  0
LINE
  5
661
100
AcDbEntity
  8
ASSI
100
AcDbLine
 62
253
  6
CONTINUOUS
 10
7.4139945176
 20
-23.8443354981
 11
7.4136736598
 21
-24.4305572642
  0
LINE
  5
662
100
AcDbEntity
  8
RACCORDO
100
AcDbLine
 62
253
  6
CONTINUOUS
 10
7.8620789906
 20
21.5209225819
 11
7.8614548332
 21
20.9855385354
  0
LINE
  5
663
100
AcDbEntity
  8
ASSI
100
AcDbLine
 62
253
  6
CONTINUOUS
 10
7.4139916129
 20
23.8234155659
 11
7.4136375234
 21
23.6426155712
  0
LINE
  5
664
100
AcDbEntity
  8
ASSI
100
AcDbLine
 62
253
  6
CONTINUOUS
 10
7.2140243068
 20
-24.2392293031
 11
7.2139851106
 21
-24.2518096753
  0
LWPOLYLINE
  5
665
100
AcDbEntity
  8
RACCORDO
100
AcDbPolyline
 62
253
  6
CONTINUOUS
 90
3
 70
0
 10
8.0620127384
 20
21.4550703176
 10
8.0618407686
 20
21.4202780225
 10
8.0614243722
 20
21.18553092
  0
LINE
  5
666
100
AcDbEntity
  8
ASSI
100
AcDbLine
 62
253
  6
CONTINUOUS
 10
7.214024441
 20
23.8422641062
 11
7.2139824207
 21
23.8289259115
  0
LINE
  5
667
100
AcDbEntity
  8
ASSI
100
AcDbLine
 62
253
  6
CONTINUOUS
 10
7.4136375234
 20
23.6426155712
 11
7.4135581468
 21
23.6278322393
  0
LINE
  5
668
100
AcDbEntity
  8
RACCORDO
100
AcDbLine
 62
7
  6
CONTINUOUS
 10
7.3558076463
 20
-15.7385854114
 11
7.3471895691
 21
-17.1381978935
  0
LINE
  5
669
100
AcDbEntity
  8
RACCORDO
100
AcDbLine
 62
253
  6
CONTINUOUS
 10
7.862794076
 20
21.6526316835
 11
7.8620789906
 21
21.5209225819
  0
LINE
  5
66A
100
AcDbEntity
  8
ASSI
100
AcDbLine
 62
253
  6
CONTINUOUS
 10
7.4136736598
 20
-24.4305572642
 11
7.4134470366
 21
-24.4688695194
  0
LINE
  5
66B
100
AcDbEntity
  8
DRAFT
100
AcDbLine
 62
7
  6
CONTINUOUS
 10
7.6463850867
 20
-15.5068795788
 11
7.6339602491
 21
-16.8514272135
  0
LINE
  5
66C
100
AcDbEntity
  8
ASSI
100
AcDbLine
 62
253
  6
CONTINUOUS
 10
7.2139851106
 20
-24.2518096753
 11
7.21390544
 21
-24.2621185858
  0
LINE
  5
66D
100
AcDbEntity
  8
ASSI
100
AcDbLine
 62
253
  6
CONTINUOUS
 10
7.2139824207
 20
23.8289259115
 11
7.2138891638
 21
23.8175508107
  0
LWPOLYLINE
  5
66E
100
AcDbEntity
  8
ASSI
100
AcDbPolyline
 62
253
  6
CONTINUOUS
 90
6
 70
0
 10
7.4134470366
 20
-24.4688695194
 10
7.413346456
 20
-24.4784493791
 10
7.4132949106
 20
-24.4819102988
 10
7.4132429156
 20
-24.4844655636
 10
7.4131902774
 20
-24.486108024
 10
7.4131369959
 20
-24.4868325431
  0
LINE
  5
66F
100
AcDbEntity
  8
ASSI
100
AcDbLine
 62
253
  6
CONTINUOUS
 10
7.21390544
 20
-24.2621185858
 11
7.2138161726
 21
-24.2693173493
  0
LINE
  5
670
100
AcDbEntity
  8
ASSI
100
AcDbLine
 62
253
  6
CONTINUOUS
 10
7.2138891638
 20
23.8175508107
 11
7.2138062723
 21
23.8112321817
  0
LWPOLYLINE
  5
671
100
AcDbEntity
  8
ASSI
100
AcDbPolyline
 62
253
  6
CONTINUOUS
 90
3
 70
0
 10
7.2138062723
 20
23.8112321817
 10
7.2137050264
 20
23.8056464138
 10
7.2136679048
 20
23.8040013026
  0
LINE
  5
672
100
AcDbEntity
  8
ASSI
100
AcDbLine
 62
253
  6
CONTINUOUS
 10
7.2138161726
 20
-24.2693173493
 11
7.2137040813
 21
-24.2756033194
  0
LWPOLYLINE
  5
673
100
AcDbEntity
  8
ASSI
100
AcDbPolyline
 62
253
  6
CONTINUOUS
 90
11
 70
0
 10
7.2137040813
 20
-24.2756033194
 10
7.2136185489
 20
-24.2791347782
 10
7.2135730984
 20
-24.2806707049
 10
7.2135258738
 20
-24.2820551484
 10
7.2134774198
 20
-24.2832699455
 10
7.2134277148
 20
-24.284312628
 10
7.2133767804
 20
-24.2851856641
 10
7.2133252264
 20
-24.2858782955
 10
7.2132732561
 20
-24.2863869363
 10
7.2132206663
 20
-24.2867151725
 10
7.2131674569
 20
-24.286863004
  0
LINE
  5
674
100
AcDbEntity
  8
ASSI
100
AcDbLine
 62
253
  6
CONTINUOUS
 10
7.4135581719
 20
23.6278322392
 11
7.3982849591
 21
23.1226497308
  0
LINE
  5
675
100
AcDbEntity
  8
ASSI
100
AcDbLine
 62
7
  6
CONTINUOUS
 10
8.5131674569
 20
23.5581814706
 11
8.5
 21
23.1226497308
  0
LWPOLYLINE
  5
676
100
AcDbEntity
  8
RACCORDO
100
AcDbPolyline
 62
253
  6
CONTINUOUS
 90
13
 70
0
 10
8.0614243722
 20
21.18553092
 10
8.0597099752
 20
21.159429296
 10
8.0546040613
 20
21.133774186
 10
8.0461939757
 20
21.1090044679
 10
8.0346235974
 20
21.0855438901
 10
8.0200908528
 20
21.0637937697
 10
8.002844309
 20
21.0441261413
 10
7.9831789544
 20
21.0268774503
 10
7.9614312111
 20
21.0123428166
 10
7.9379731523
 20
21.0007709241
 10
7.9132060916
 20
20.9923597426
 10
7.8875537061
 20
20.9872531586
 10
7.8614548332
 20
20.9855385354
  0
LWPOLYLINE
  5
677
100
AcDbEntity
  8
RACCORDO
100
AcDbPolyline
 62
253
  6
CONTINUOUS
 90
13
 70
0
 10
6.5855385354
 20
-19.9705349127
 10
6.5872676745
 20
-19.9445416291
 10
6.5923858468
 20
-19.918992661
 10
6.6008055653
 20
-19.8943247326
 10
6.6123828987
 20
-19.8709595245
 10
6.6269199548
 20
-19.8492964142
 10
6.6441682844
 20
-19.8297056628
 10
6.6638330975
 20
-19.8125221409
 10
6.6855782405
 20
-19.7980396271
 10
6.7090319673
 20
-19.7865057241
 10
6.733793346
 20
-19.7781175976
 10
6.7594391253
 20
-19.7730186262
 10
6.78553092
 20
-19.7712959731
  0
LWPOLYLINE
  5
678
100
AcDbEntity
  8
ASSI
100
AcDbPolyline
 62
253
  6
CONTINUOUS
 90
5
 70
0
 10
10.3868630041
 20
24.4868325431
 10
10.3868188154
 20
24.4862955583
 10
10.3867741174
 20
24.4850928442
 10
10.3867289103
 20
24.4831852977
 10
10.3866364509
 20
24.4770921573
  0
LWPOLYLINE
  5
679
100
AcDbEntity
  8
ASSI
100
AcDbPolyline
 62
253
  6
CONTINUOUS
 90
13
 70
0
 10
10.5864113981
 20
23.8010362971
 10
10.5844930438
 20
23.7785525233
 10
10.5792234721
 20
23.7564491968
 10
10.5706918493
 20
23.7351003272
 10
10.5590425386
 20
23.7148671581
 10
10.5444726577
 20
23.6960920541
 10
10.527228743
 20
23.6790927082
 10
10.5076025782
 20
23.6641567658
 10
10.485926257
 20
23.6515369574
 10
10.4625665636
 20
23.6414468218
 10
10.4379187667
 20
23.6340570937
 10
10.4123999307
 20
23.6294928145
 10
10.3864418591
 20
23.6278312164
  0
LINE
  5
67A
100
AcDbEntity
  8
RACCORDO
100
AcDbLine
 62
253
  6
CONTINUOUS
 10
6.2499771547
 20
-2.4057426494
 11
6.2771352474
 21
-2.351422327
  0
LINE
  5
67B
100
AcDbEntity
  8
DRAFT
100
AcDbLine
 62
7
  6
CONTINUOUS
 10
8.25
 20
-2.6710596363
 11
8.3355233044
 21
-2.5
  0
LINE
  5
67C
100
AcDbEntity
  8
ASSI
100
AcDbLine
 62
253
  6
CONTINUOUS
 10
-10.6
 20
-22.3999999999
 11
-10.5826210875
 21
-22.3825449351
  0
LINE
  5
67D
100
AcDbEntity
  8
DRAFT
100
AcDbLine
 62
7
  6
CONTINUOUS
 10
10.0
 20
0.5
 11
9.7730841559
 21
0.2730841559
  0
LINE
  5
67E
100
AcDbEntity
  8
ASSI
100
AcDbLine
 62
253
  6
CONTINUOUS
 10
-11.1
 20
-21.9000761524
 11
-11.0825449351
 21
-21.8826210875
  0
LINE
  5
67F
100
AcDbEntity
  8
DRAFT
100
AcDbLine
 62
7
  6
CONTINUOUS
 10
-8.75
 20
8.0
 11
-8.25
 21
8.0
  0
LINE
  5
680
100
AcDbEntity
  8
DRAFT
100
AcDbLine
 62
7
  6
CONTINUOUS
 10
8.25
 20
8.0
 11
8.75
 21
8.0
  0
LINE
  5
681
100
AcDbEntity
  8
RACCORDO
100
AcDbLine
 62
7
  6
CONTINUOUS
 10
-7.7255647702
 20
13.6
 11
-7.9472576745
 21
13.7108443418
  0
LINE
  5
682
100
AcDbEntity
  8
DRAFT
100
AcDbLine
 62
7
  6
CONTINUOUS
 10
10.0
 20
-0.5
 11
9.7730841559
 21
-0.2730841559
  0
LINE
  5
683
100
AcDbEntity
  8
DRAFT
100
AcDbLine
 62
7
  6
CONTINUOUS
 10
-7.7255647702
 20
17.3755647702
 11
-7.7979977728
 21
17.4479977729
  0
LINE
  5
684
100
AcDbEntity
  8
ASSI
100
AcDbLine
 62
253
  6
CONTINUOUS
 10
-11.0825449351
 20
21.8826210875
 11
-11.1
 21
21.9000761524
  0
LINE
  5
685
100
AcDbEntity
  8
RACCORDO
100
AcDbLine
 62
7
  6
CONTINUOUS
 10
-7.7162893387
 20
18.9662893387
 11
-7.75
 21
19.0
  0
LINE
  5
686
100
AcDbEntity
  8
ASSI
100
AcDbLine
 62
253
  6
CONTINUOUS
 10
-10.5826210875
 20
22.3825449351
 11
-10.6000000646
 21
22.3999999354
  0
LINE
  5
687
100
AcDbEntity
  8
DRAFT
100
AcDbLine
 62
7
  6
CONTINUOUS
 10
9.5872686779
 20
-3.7253974543
 11
9.5
 21
-3.5508468051
  0
LINE
  5
688
100
AcDbEntity
  8
RACCORDO
100
AcDbLine
 62
253
  6
CONTINUOUS
 10
7.0961924475
 20
18.9520022272
 11
7.01446908
 21
19.7712959731
  0
LINE
  5
689
100
AcDbEntity
  8
RACCORDO
100
AcDbLine
 62
253
  6
CONTINUOUS
 10
7.3160586285
 20
18.9520022272
 11
7.2144614646
 21
19.9705349127
  0
LWPOLYLINE
  5
68A
100
AcDbEntity
  8
RACCORDO
100
AcDbPolyline
 62
7
  6
CONTINUOUS
 90
20
 70
0
 10
9.5
 20
11.0891632737
 10
9.4977229319
 20
11.1122764022
 10
9.4931661328
 20
11.1350775141
 10
9.4863382404
 20
11.1575666092
 10
9.4769508818
 20
11.1796741326
 10
9.4653278902
 20
11.2014696393
 10
9.4523955974
 20
11.2231617943
 10
9.438396003
 20
11.2446931795
 10
9.42313168
 20
11.266121213
 10
9.4068623924
 20
11.2878268151
 10
9.3896808877
 20
11.3098908053
 10
9.3715586995
 20
11.3322323641
 10
9.3525756446
 20
11.3549899527
 10
9.3327966098
 20
11.3782102186
 10
9.312251027
 20
11.4018465142
 10
9.290974183
 20
11.4258973583
 10
9.269089315
 20
11.450353606
 10
9.2466078305
 20
11.4752244022
 10
9.223420607
 20
11.5005357
 10
9.1753513893
 20
11.5526110588
  0
LWPOLYLINE
  5
68B
100
AcDbEntity
  8
ASSI
100
AcDbPolyline
 62
253
  6
CONTINUOUS
 90
4
 70
0
 10
7.4131369959
 20
24.4868325431
 10
7.4131781497
 20
24.4863524902
 10
7.4132201758
 20
24.4852822607
 10
7.4132630744
 20
24.4835719291
  0
LWPOLYLINE
  5
68C
100
AcDbEntity
  8
ASSI
100
AcDbPolyline
 62
253
  6
CONTINUOUS
 90
9
 70
0
 10
10.586435956
 20
-24.2809528283
 10
10.5864823549
 20
-24.2822756404
 10
10.5865298704
 20
-24.2834354682
 10
10.5865785159
 20
-24.2844303293
 10
10.586628278
 20
-24.2852622061
 10
10.5866786159
 20
-24.2859222925
 10
10.5867293492
 20
-24.2864076534
 10
10.5867806583
 20
-24.2867212239
 10
10.5868325431
 20
-24.286863004
  0
LWPOLYLINE
  5
68D
100
AcDbEntity
  8
RACCORDO
100
AcDbPolyline
 62
7
  6
CONTINUOUS
 90
25
 70
0
 10
9.45
 20
-15.9995888604
 10
9.4493348957
 20
-15.9798570001
 10
9.4474134237
 20
-15.9603747044
 10
9.4442355841
 20
-15.9411419732
 10
9.4397770785
 20
-15.9220788152
 10
9.4340622054
 20
-15.9032652219
 10
9.4271638598
 20
-15.884941167
 10
9.4190668817
 20
-15.8671129216
 10
9.4097864312
 20
-15.8497742146
 10
9.3994408837
 20
-15.8331462074
 10
9.3880165955
 20
-15.8172380039
 10
9.3755272102
 20
-15.8020405002
 10
9.3621320344
 20
-15.7877475456
 10
9.3478194649
 20
-15.7743707274
 10
9.332601105
 20
-15.7618984584
 10
9.3166710699
 20
-15.7504898268
 10
9.3000202433
 20
-15.7401584575
 10
9.2826577417
 20
-15.7308907256
 10
9.2648050297
 20
-15.7228048441
 10
9.2464558279
 20
-15.7159159525
 10
9.2276164158
 20
-15.7102089113
 10
9.2085270966
 20
-15.7057565159
 10
9.1892679715
 20
-15.7025830315
 10
9.1697589393
 20
-15.7006641928
 10
9.15
 20
-15.7
  0
LINE
  5
68E
100
AcDbEntity
  8
ASSI
100
AcDbLine
 62
7
  6
CONTINUOUS
 10
9.2868325431
 20
23.5581814706
 11
9.3
 21
23.1226497308
  0
LINE
  5
68F
100
AcDbEntity
  8
ASSI
100
AcDbLine
 62
7
  6
CONTINUOUS
 10
11.0825449351
 20
-20.4226497308
 11
11.1
 21
-21.0
  0
LINE
  5
690
100
AcDbEntity
  8
ASSI
100
AcDbLine
 62
253
  6
CONTINUOUS
 10
10.5863480303
 20
-24.2778608241
 11
10.586435956
 21
-24.2809528283
  0
LWPOLYLINE
  5
691
100
AcDbEntity
  8
ASSI
100
AcDbPolyline
 62
253
  6
CONTINUOUS
 90
4
 70
0
 10
10.3867089617
 20
-24.4821301469
 10
10.3867597139
 20
-24.4845678952
 10
10.3868110614
 20
-24.4861369086
 10
10.3868630041
 20
-24.4868325431
  0
LINE
  5
692
100
AcDbEntity
  8
ASSI
100
AcDbLine
 62
253
  6
CONTINUOUS
 10
10.5862670299
 20
-24.2741940257
 11
10.5863480303
 21
-24.2778608241
  0
LINE
  5
693
100
AcDbEntity
  8
ASSI
100
AcDbLine
 62
253
  6
CONTINUOUS
 10
10.5861613631
 20
-24.2677505393
 11
10.5862670299
 21
-24.2741940257
  0
LINE
  5
694
100
AcDbEntity
  8
ASSI
100
AcDbLine
 62
253
  6
CONTINUOUS
 10
10.3866088988
 20
-24.4746810802
 11
10.3867089617
 21
-24.4821301469
  0
LINE
  5
695
100
AcDbEntity
  8
ASSI
100
AcDbLine
 62
253
  6
CONTINUOUS
 10
10.5860554431
 20
-24.2578324656
 11
10.5861613631
 21
-24.2677505393
  0
LINE
  5
696
100
AcDbEntity
  8
ASSI
100
AcDbLine
 62
253
  6
CONTINUOUS
 10
10.5860277157
 20
23.8272318035
 11
10.586119181
 21
23.8168383136
  0
LINE
  5
697
100
AcDbEntity
  8
ASSI
100
AcDbLine
 62
253
  6
CONTINUOUS
 10
10.3864215976
 20
-24.4499293573
 11
10.3866088988
 21
-24.4746810802
  0
LINE
  5
698
100
AcDbEntity
  8
ASSI
100
AcDbLine
 62
253
  6
CONTINUOUS
 10
10.5859854145
 20
-24.2445633142
 11
10.5860554431
 21
-24.2578324656
  0
LINE
  5
699
100
AcDbEntity
  8
ASSI
100
AcDbLine
 62
253
  6
CONTINUOUS
 10
10.386057824
 20
23.7588329549
 11
10.386441634
 21
23.6278734891
  0
LINE
  5
69A
100
AcDbEntity
  8
ASSI
100
AcDbLine
 62
253
  6
CONTINUOUS
 10
10.3860355659
 20
-24.3019042279
 11
10.3864215976
 21
-24.4499293573
  0
LINE
  5
69B
100
AcDbEntity
  8
ASSI
100
AcDbLine
 62
253
  6
CONTINUOUS
 10
10.5859750215
 20
23.8443375673
 11
10.5860277157
 21
23.8272318035
  0
LINE
  5
69C
100
AcDbEntity
  8
RACCORDO
100
AcDbLine
 62
7
  6
CONTINUOUS
 10
9.5444904137
 20
-19.151105328
 11
9.5432634574
 21
-17.1381978935
  0
LINE
  5
69D
100
AcDbEntity
  8
ASSI
100
AcDbLine
 62
253
  6
CONTINUOUS
 10
8.7631293807
 20
23.8443375673
 11
8.7631293807
 21
22.3825449351
  0
LINE
  5
69E
100
AcDbEntity
  8
ASSI
100
AcDbLine
 62
253
  6
CONTINUOUS
 10
8.7631293807
 20
-22.3825449351
 11
8.7631293807
 21
-23.8443375673
  0
LINE
  5
69F
100
AcDbEntity
  8
DRAFT
100
AcDbLine
 62
7
  6
CONTINUOUS
 10
8.7746920834
 20
-10.3253079166
 11
8.7746920834
 21
-8.4746920834
  0
LINE
  5
6A0
100
AcDbEntity
  8
DRAFT
100
AcDbLine
 62
7
  6
CONTINUOUS
 10
8.7746920834
 20
15.3746920834
 11
8.7746920834
 21
17.2253079166
  0
LINE
  5
6A1
100
AcDbEntity
  8
DRAFT
100
AcDbLine
 62
7
  6
CONTINUOUS
 10
8.7831563161
 20
-10.3168436839
 11
8.7831563161
 21
-8.4831563161
  0
LINE
  5
6A2
100
AcDbEntity
  8
DRAFT
100
AcDbLine
 62
7
  6
CONTINUOUS
 10
8.7831563161
 20
15.3831563161
 11
8.7831563161
 21
17.2168436839
  0
LINE
  5
6A3
100
AcDbEntity
  8
RACCORDO
100
AcDbLine
 62
7
  6
CONTINUOUS
 10
8.860915679
 20
11.8889172239
 11
8.860915679
 21
13.7110827761
  0
LINE
  5
6A4
100
AcDbEntity
  8
ASSI
100
AcDbLine
 62
253
  6
CONTINUOUS
 10
9.0368706193
 20
23.8443375673
 11
9.0368706193
 21
22.3825449351
  0
LINE
  5
6A5
100
AcDbEntity
  8
ASSI
100
AcDbLine
 62
253
  6
CONTINUOUS
 10
9.0368706193
 20
-22.3825449351
 11
9.0368706193
 21
-23.8443375673
  0
LINE
  5
6A6
100
AcDbEntity
  8
RACCORDO
100
AcDbLine
 62
253
  6
CONTINUOUS
 10
9.05
 20
-2.2730841559
 11
9.05
 21
2.2730841559
  0
LINE
  5
6A7
100
AcDbEntity
  8
DRAFT
100
AcDbLine
 62
7
  6
CONTINUOUS
 10
9.2216129175
 20
-13.9130903017
 11
9.2216129175
 21
-10.5375255315
  0
LINE
  5
6A8
100
AcDbEntity
  8
ASSI
100
AcDbLine
 62
253
  6
CONTINUOUS
 10
9.2868325431
 20
23.5581814706
 11
9.2868325431
 21
22.3868325431
  0
LINE
  5
6A9
100
AcDbEntity
  8
ASSI
100
AcDbLine
 62
253
  6
CONTINUOUS
 10
9.2868325431
 20
-22.3868325431
 11
9.2868325431
 21
-23.5581814706
  0
LINE
  5
6AA
100
AcDbEntity
  8
ASSI
100
AcDbLine
 62
7
  6
CONTINUOUS
 10
9.3
 20
23.1226497308
 11
9.3
 21
22.4
  0
LINE
  5
6AB
100
AcDbEntity
  8
ASSI
100
AcDbLine
 62
7
  6
CONTINUOUS
 10
9.3
 20
-22.4
 11
9.3
 21
-23.1226497308
  0
LINE
  5
6AC
100
AcDbEntity
  8
0
100
AcDbLine
 62
7
  6
CONTINUOUS
 10
9.4
 20
-6.7340347844
 11
9.4
 21
-4.8659652156
  0
LINE
  5
6AD
100
AcDbEntity
  8
RACCORDO
100
AcDbLine
 62
7
  6
CONTINUOUS
 10
9.45
 20
-16.8514272135
 11
9.45
 21
-15.9995888604
  0
LINE
  5
6AE
100
AcDbEntity
  8
DRAFT
100
AcDbLine
 62
7
  6
CONTINUOUS
 10
9.4522218454
 20
-10.5
 11
9.4522218454
 21
-10.3253595161
  0
LINE
  5
6AF
100
AcDbEntity
  8
DRAFT
100
AcDbLine
 62
7
  6
CONTINUOUS
 10
9.4522218454
 20
-8.4746404839
 11
9.4522218454
 21
-8.2244352298
  0
LINE
  5
6B0
100
AcDbEntity
  8
DRAFT
100
AcDbLine
 62
7
  6
CONTINUOUS
 10
9.4522218454
 20
15.1244352298
 11
9.4522218454
 21
15.3746404839
  0
LINE
  5
6B1
100
AcDbEntity
  8
DRAFT
100
AcDbLine
 62
7
  6
CONTINUOUS
 10
9.4522218454
 20
17.2253595161
 11
9.4522218454
 21
17.3755647702
  0
LINE
  5
6B2
100
AcDbEntity
  8
RACCORDO
100
AcDbLine
 62
7
  6
CONTINUOUS
 10
9.5
 20
-15.5
 11
9.5
 21
-16.6999543077
  0
LINE
  5
6B3
100
AcDbEntity
  8
DRAFT
100
AcDbLine
 62
7
  6
CONTINUOUS
 10
9.5
 20
-14.1914773842
 11
9.5
 21
-10.815912614
  0
LINE
  5
6B4
100
AcDbEntity
  8
RACCORDO
100
AcDbLine
 62
7
  6
CONTINUOUS
 10
9.5
 20
-7.9957912937
 11
9.5
 21
-3.5508468051
  0
LINE
  5
6B5
100
AcDbEntity
  8
RACCORDO
100
AcDbLine
 62
7
  6
CONTINUOUS
 10
9.5
 20
10.5508468051
 11
9.5
 21
14.8957912937
  0
LINE
  5
6B6
100
AcDbEntity
  8
DRAFT
100
AcDbLine
 62
7
  6
CONTINUOUS
 10
9.5001148706
 20
-15.5
 11
9.5001148706
 21
-16.7023213212
  0
LINE
  5
6B7
100
AcDbEntity
  8
DRAFT
100
AcDbLine
 62
7
  6
CONTINUOUS
 10
9.5016306184
 20
-10.5123474894
 11
9.5016306184
 21
-10.3253632789
  0
LINE
  5
6B8
100
AcDbEntity
  8
DRAFT
100
AcDbLine
 62
7
  6
CONTINUOUS
 10
9.5016306184
 20
-8.4746367211
 11
9.5016306184
 21
-8.2120877405
  0
LINE
  5
6B9
100
AcDbEntity
  8
DRAFT
100
AcDbLine
 62
7
  6
CONTINUOUS
 10
9.55
 20
17.4
 11
9.55
 21
15.1
  0
LINE
  5
6BA
100
AcDbEntity
  8
DRAFT
100
AcDbLine
 62
7
  6
CONTINUOUS
 10
9.55
 20
10.2
 11
9.55
 21
4.2
  0
LINE
  5
6BB
100
AcDbEntity
  8
DRAFT
100
AcDbLine
 62
7
  6
CONTINUOUS
 10
9.55
 20
-10.5244352298
 11
9.55
 21
-8.2
  0
LINE
  5
6BC
100
AcDbEntity
  8
DRAFT
100
AcDbLine
 62
7
  6
CONTINUOUS
 10
9.5872686779
 20
-7.9085226158
 11
9.5872686779
 21
-3.7253974543
  0
LINE
  5
6BD
100
AcDbEntity
  8
DRAFT
100
AcDbLine
 62
7
  6
CONTINUOUS
 10
9.5872686779
 20
10.7253974543
 11
9.5872686779
 21
14.8085226158
  0
LINE
  5
6BE
100
AcDbEntity
  8
RACCORDO
100
AcDbLine
 62
7
  6
CONTINUOUS
 10
9.5941424626
 20
-20.8738193966
 11
9.5941424626
 21
-19.7676913781
  0
LINE
  5
6BF
100
AcDbEntity
  8
DRAFT
100
AcDbLine
 62
7
  6
CONTINUOUS
 10
9.6285418101
 20
10.3570955844
 11
9.6285418101
 21
6.2
  0
LINE
  5
6C0
100
AcDbEntity
  8
DRAFT
100
AcDbLine
 62
7
  6
CONTINUOUS
 10
9.6395256314
 20
19.5
 11
9.6395256314
 21
19.0
  0
LINE
  5
6C1
100
AcDbEntity
  8
DRAFT
100
AcDbLine
 62
7
  6
CONTINUOUS
 10
9.6395256314
 20
-15.5
 11
9.6395256314
 21
-16.0
  0
LINE
  5
6C2
100
AcDbEntity
  8
DRAFT
100
AcDbLine
 62
7
  6
CONTINUOUS
 10
9.6465076573
 20
20.9
 11
9.6465076573
 21
19.5
  0
LINE
  5
6C3
100
AcDbEntity
  8
DRAFT
100
AcDbLine
 62
7
  6
CONTINUOUS
 10
9.6465076573
 20
-16.0
 11
9.6465076573
 21
-20.9
  0
LINE
  5
6C4
100
AcDbEntity
  8
DRAFT
100
AcDbLine
 62
7
  6
CONTINUOUS
 10
9.7730841559
 20
-2.2730841559
 11
9.7730841559
 21
2.2730841559
  0
LINE
  5
6C5
100
AcDbEntity
  8
DRAFT
100
AcDbLine
 62
7
  6
CONTINUOUS
 10
9.8414773842
 20
17.6914773842
 11
9.8414773842
 21
14.8085226158
  0
LINE
  5
6C6
100
AcDbEntity
  8
DRAFT
100
AcDbLine
 62
7
  6
CONTINUOUS
 10
9.8414773842
 20
-7.9085226158
 11
9.8414773842
 21
-10.815912614
  0
LINE
  5
6C7
100
AcDbEntity
  8
DRAFT
100
AcDbLine
 62
7
  6
CONTINUOUS
 10
10.0
 20
-2.5
 11
10.0
 21
-0.5
  0
LINE
  5
6C8
100
AcDbEntity
  8
DRAFT
100
AcDbLine
 62
7
  6
CONTINUOUS
 10
10.0
 20
0.5
 11
10.0
 21
2.5
  0
LINE
  5
6C9
100
AcDbEntity
  8
ASSI
100
AcDbLine
 62
253
  6
CONTINUOUS
 10
10.3860054824
 20
-24.2368706193
 11
10.3860355659
 21
-24.3019042279
  0
LINE
  5
6CA
100
AcDbEntity
  8
ASSI
100
AcDbLine
 62
7
  6
CONTINUOUS
 10
10.6
 20
24.300030461
 11
10.6
 21
22.3999997358
  0
LINE
  5
6CB
100
AcDbEntity
  8
ASSI
100
AcDbLine
 62
7
  6
CONTINUOUS
 10
10.6000000646
 20
-22.3999999296
 11
10.6
 21
-24.300030461
  0
LINE
  5
6CC
100
AcDbEntity
  8
DRAFT
100
AcDbLine
 62
7
  6
CONTINUOUS
 10
10.8085226158
 20
-15.2085226158
 11
10.8085226158
 21
-3.7253974543
  0
LINE
  5
6CD
100
AcDbEntity
  8
DRAFT
100
AcDbLine
 62
7
  6
CONTINUOUS
 10
10.8085226158
 20
10.7253974543
 11
10.8085226158
 21
18.7085226158
  0
LINE
  5
6CE
100
AcDbEntity
  8
DRAFT
100
AcDbLine
 62
7
  6
CONTINUOUS
 10
9.5019454841
 20
15.112009054
 11
9.5020947702
 21
15.3746366857
  0
LINE
  5
6CF
100
AcDbEntity
  8
DRAFT
100
AcDbLine
 62
7
  6
CONTINUOUS
 10
9.5044195935
 20
19.0000324501
 11
9.505776808
 21
20.8296399342
  0
LINE
  5
6D0
100
AcDbEntity
  8
DRAFT
100
AcDbLine
 62
7
  6
CONTINUOUS
 10
9.5032196903
 20
17.2253634
 11
9.5033242507
 21
17.3883355064
  0
LINE
  5
6D1
100
AcDbEntity
  8
ASSI
100
AcDbLine
 62
253
  6
CONTINUOUS
 10
10.5859815367
 20
-23.8384139942
 11
10.5859854145
 21
-24.2445633142
  0
LINE
  5
6D2
100
AcDbEntity
  8
ASSI
100
AcDbLine
 62
253
  6
CONTINUOUS
 10
10.3862515113
 20
24.4108500274
 11
10.386057824
 21
23.7588329549
  0
LINE
  5
6D3
100
AcDbEntity
  8
ASSI
100
AcDbLine
 62
253
  6
CONTINUOUS
 10
10.585999395
 20
24.2485992579
 11
10.5859750215
 21
23.8443375673
  0
LINE
  5
6D4
100
AcDbEntity
  8
ASSI
100
AcDbLine
 62
253
  6
CONTINUOUS
 10
10.5860275776
 20
-23.827248347
 11
10.5859815367
 21
-23.8384139942
  0
LWPOLYLINE
  5
6D5
100
AcDbEntity
  8
ASSI
100
AcDbPolyline
 62
253
  6
CONTINUOUS
 90
3
 70
0
 10
10.386441911
 20
-23.6278214115
 10
10.3863561707
 20
-23.6438001539
 10
10.3860054824
 20
-24.2368706193
  0
LINE
  5
6D6
100
AcDbEntity
  8
ASSI
100
AcDbLine
 62
253
  6
CONTINUOUS
 10
10.3865442736
 20
24.4678356755
 11
10.3862515113
 21
24.4108500274
  0
LINE
  5
6D7
100
AcDbEntity
  8
ASSI
100
AcDbLine
 62
253
  6
CONTINUOUS
 10
10.5860712491
 20
24.2596910079
 11
10.585999395
 21
24.2485992579
  0
LINE
  5
6D8
100
AcDbEntity
  8
ASSI
100
AcDbLine
 62
253
  6
CONTINUOUS
 10
10.5861189941
 20
-23.8168555943
 11
10.5860275776
 21
-23.827248347
  0
LINE
  5
6D9
100
AcDbEntity
  8
ASSI
100
AcDbLine
 62
253
  6
CONTINUOUS
 10
10.3866364509
 20
24.4770921573
 11
10.3865442736
 21
24.4678356755
  0
LINE
  5
6DA
100
AcDbEntity
  8
ASSI
100
AcDbLine
 62
253
  6
CONTINUOUS
 10
10.5861538307
 20
24.2671910597
 11
10.5860712491
 21
24.2596910079
  0
LINE
  5
6DB
100
AcDbEntity
  8
ASSI
100
AcDbLine
 62
253
  6
CONTINUOUS
 10
10.5862580555
 20
24.2737264919
 11
10.5861538307
 21
24.2671910597
  0
LINE
  5
6DC
100
AcDbEntity
  8
ASSI
100
AcDbLine
 62
253
  6
CONTINUOUS
 10
10.5863375338
 20
24.2774332593
 11
10.5862580555
 21
24.2737264919
  0
LINE
  5
6DD
100
AcDbEntity
  8
ASSI
100
AcDbLine
 62
7
  6
CONTINUOUS
 10
9.3
 20
-23.1226497308
 11
9.2868325431
 21
-23.5581814706
  0
LINE
  5
6DE
100
AcDbEntity
  8
ASSI
100
AcDbLine
 62
7
  6
CONTINUOUS
 10
11.1
 20
21.0
 11
11.0825449351
 21
20.4226497308
  0
LINE
  5
6DF
100
AcDbEntity
  8
DRAFT
100
AcDbLine
 62
7
  6
CONTINUOUS
 10
9.6285418101
 20
6.2
 11
9.55
 21
4.2
  0
LINE
  5
6E0
100
AcDbEntity
  8
DRAFT
100
AcDbLine
 62
7
  6
CONTINUOUS
 10
9.4925054846
 20
-16.8514272135
 11
9.4998851464
 21
-16.7023206249
  0
LINE
  5
6E1
100
AcDbEntity
  8
RACCORDO
100
AcDbLine
 62
7
  6
CONTINUOUS
 10
9.4998851464
 20
-16.7023206249
 11
9.5000023792
 21
-16.6999519285
  0
LINE
  5
6E2
100
AcDbEntity
  8
RACCORDO
100
AcDbLine
 62
253
  6
CONTINUOUS
 10
7.01446908
 20
-19.7712959731
 11
7.126325107
 21
-18.6499160521
  0
LINE
  5
6E3
100
AcDbEntity
  8
RACCORDO
100
AcDbLine
 62
253
  6
CONTINUOUS
 10
7.2144614646
 20
-19.9705349127
 11
7.3261806034
 21
-18.850527325
  0
LINE
  5
6E4
100
AcDbEntity
  8
RACCORDO
100
AcDbLine
 62
253
  6
CONTINUOUS
 10
4.4105833317
 20
-19.2683766108
 11
4.4519667385
 21
-19.1441254286
  0
LINE
  5
6E5
100
AcDbEntity
  8
RACCORDO
100
AcDbLine
 62
253
  6
CONTINUOUS
 10
4.6105528707
 20
-19.4681025177
 11
4.6519362776
 21
-19.3438513356
  0
LINE
  5
6E6
100
AcDbEntity
  8
RACCORDO
100
AcDbLine
 62
7
  6
CONTINUOUS
 10
9.4966110309
 20
-4.6686770793
 11
9.4
 21
-4.8659652156
  0
LWPOLYLINE
  5
6E7
100
AcDbEntity
  8
ASSI
100
AcDbPolyline
 62
7
  6
CONTINUOUS
 90
10
 70
0
 10
-8.5466230298
 20
-23.6278312163
 10
-8.5649157123
 20
-23.6471440832
 10
-8.5858573721
 20
-23.6678668702
 10
-8.608791391
 20
-23.6899995776
 10
-8.6329295651
 20
-23.7138409674
 10
-8.6578572746
 20
-23.7390922775
 10
-8.6836490347
 20
-23.7648572212
 10
-8.7101204458
 20
-23.7908370363
 10
-8.7367256761
 20
-23.817330485
 10
-8.7631293807
 20
-23.8443375673
  0
LINE
  5
6E8
100
AcDbEntity
  8
DRAFT
100
AcDbLine
 62
7
  6
CONTINUOUS
 10
-4.0511995689
 20
-16.8765870314
 11
-3.7636147059
 21
-16.5890021684
  0
LINE
  5
6E9
100
AcDbEntity
  8
ASSI
100
AcDbLine
 62
7
  6
CONTINUOUS
 10
-9.3
 20
-22.4
 11
-9.2868325431
 21
-22.3868325431
  0
LINE
  5
6EA
100
AcDbEntity
  8
RACCORDO
100
AcDbLine
 62
7
  6
CONTINUOUS
 10
8.504012777
 20
-4.6686770793
 11
8.2726898563
 21
-4.9
  0
LINE
  5
6EB
100
AcDbEntity
  8
ASSI
100
AcDbLine
 62
253
  6
CONTINUOUS
 10
-10.6
 20
-24.300030461
 11
-10.5868325431
 21
-24.286863004
  0
LINE
  5
6EC
100
AcDbEntity
  8
ASSI
100
AcDbLine
 62
253
  6
CONTINUOUS
 10
-10.400030461
 20
-24.5
 11
-10.3868630041
 21
-24.4868325431
  0
LINE
  5
6ED
100
AcDbEntity
  8
DRAFT
100
AcDbLine
 62
7
  6
CONTINUOUS
 10
8.25
 20
-6.7226898563
 11
8.2726898563
 21
-6.7
  0
LINE
  5
6EE
100
AcDbEntity
  8
DRAFT
100
AcDbLine
 62
7
  6
CONTINUOUS
 10
8.25
 20
8.9
 11
7.6932753594
 21
8.9
  0
LINE
  5
6EF
100
AcDbEntity
  8
CURVE
100
AcDbLine
 62
7
  6
DASHED
 10
7.7255647702
 20
8.9
 11
7.5
 21
8.9
  0
LINE
  5
6F0
100
AcDbEntity
  8
CURVE
100
AcDbLine
 62
7
  6
DASHED
 10
-7.5
 20
8.9
 11
-7.7255647702
 21
8.9
  0
LINE
  5
6F1
100
AcDbEntity
  8
DRAFT
100
AcDbLine
 62
7
  6
CONTINUOUS
 10
-7.6932753594
 20
8.9
 11
-8.25
 21
8.9
  0
LINE
  5
6F2
100
AcDbEntity
  8
RACCORDO
100
AcDbLine
 62
253
  6
CONTINUOUS
 10
-8.3268725919
 20
8.9768725919
 11
-7.7701479512
 21
8.9768725919
  0
LINE
  5
6F3
100
AcDbEntity
  8
RACCORDO
100
AcDbLine
 62
253
  6
CONTINUOUS
 10
7.7701479512
 20
8.9768725919
 11
8.3268725919
 21
8.9768725919
  0
LINE
  5
6F4
100
AcDbEntity
  8
RACCORDO
100
AcDbLine
 62
253
  6
CONTINUOUS
 10
-8.3355233043
 20
9.9768345149
 11
-7.7787986637
 21
9.9768345149
  0
LINE
  5
6F5
100
AcDbEntity
  8
RACCORDO
100
AcDbLine
 62
253
  6
CONTINUOUS
 10
7.7787986637
 20
9.9768345149
 11
8.3355233044
 21
9.9768345149
  0
LINE
  5
6F6
100
AcDbEntity
  8
DRAFT
100
AcDbLine
 62
7
  6
CONTINUOUS
 10
9.55
 20
10.2
 11
7.7787986637
 21
10.2
  0
LINE
  5
6F7
100
AcDbEntity
  8
DRAFT
100
AcDbLine
 62
7
  6
CONTINUOUS
 10
-7.7787986637
 20
10.2
 11
-9.55
 21
10.2
  0
LINE
  5
6F8
100
AcDbEntity
  8
DRAFT
100
AcDbLine
 62
7
  6
CONTINUOUS
 10
-10.9926595262
 20
10.3570955844
 11
-9.6285418101
 21
10.3570955844
  0
LINE
  5
6F9
100
AcDbEntity
  8
DRAFT
100
AcDbLine
 62
7
  6
CONTINUOUS
 10
10.9926595262
 20
10.3570955844
 11
9.6285418101
 21
10.3570955844
  0
LINE
  5
6FA
100
AcDbEntity
  8
DRAFT
100
AcDbLine
 62
7
  6
CONTINUOUS
 10
-7.6932753594
 20
10.5333333333
 11
-7.5
 21
10.5333333333
  0
LINE
  5
6FB
100
AcDbEntity
  8
DRAFT
100
AcDbLine
 62
7
  6
CONTINUOUS
 10
7.5
 20
10.5333333333
 11
7.6932753594
 21
10.5333333333
  0
LINE
  5
6FC
100
AcDbEntity
  8
DRAFT
100
AcDbLine
 62
7
  6
CONTINUOUS
 10
-9.5
 20
10.5508468051
 11
-7.9542087063
 21
10.5508468051
  0
LINE
  5
6FD
100
AcDbEntity
  8
DRAFT
100
AcDbLine
 62
7
  6
CONTINUOUS
 10
7.9542087063
 20
10.5508468051
 11
9.5
 21
10.5508468051
  0
LINE
  5
6FE
100
AcDbEntity
  8
DRAFT
100
AcDbLine
 62
7
  6
CONTINUOUS
 10
-10.8085226158
 20
10.7253974543
 11
-9.5872686779
 21
10.7253974543
  0
LINE
  5
6FF
100
AcDbEntity
  8
DRAFT
100
AcDbLine
 62
7
  6
CONTINUOUS
 10
9.5872686779
 20
10.7253974543
 11
10.8085226158
 21
10.7253974543
  0
LINE
  5
700
100
AcDbEntity
  8
ASSI
100
AcDbLine
 62
7
  6
CONTINUOUS
 10
-9.3
 20
22.4
 11
-9.2868325431
 21
22.3868325431
  0
LINE
  5
701
100
AcDbEntity
  8
ASSI
100
AcDbLine
 62
253
  6
CONTINUOUS
 10
-10.5868325431
 20
24.2868630041
 11
-10.6
 21
24.300030461
  0
LINE
  5
702
100
AcDbEntity
  8
ASSI
100
AcDbLine
 62
253
  6
CONTINUOUS
 10
-10.3868630041
 20
24.4868325431
 11
-10.400030461
 21
24.5
  0
LWPOLYLINE
  5
703
100
AcDbEntity
  8
ASSI
100
AcDbPolyline
 62
253
  6
CONTINUOUS
 90
13
 70
0
 10
10.5868325431
 20
24.2868630041
 10
10.5851144952
 20
24.3129591946
 10
10.5800056318
 20
24.3386090532
 10
10.57159333
 20
24.3633738741
 10
10.5600214685
 20
24.3868300878
 10
10.5454879655
 20
24.4085765077
 10
10.5282413928
 20
24.4282411908
 10
10.5085767256
 20
24.4454877983
 10
10.4868303004
 20
24.4600213458
 10
10.4633740615
 20
24.4715932523
 10
10.4386091967
 20
24.4800055933
 10
10.4129592749
 20
24.4851144846
 10
10.3868630041
 20
24.4868325431
  0
LINE
  5
704
100
AcDbEntity
  8
ASSI
100
AcDbLine
 62
7
  6
CONTINUOUS
 10
11.1
 20
21.0
 11
11.1261859216
 21
20.4226497308
  0
LINE
  5
705
100
AcDbEntity
  8
DRAFT
100
AcDbLine
 62
7
  6
CONTINUOUS
 10
10.9926595262
 20
6.2
 11
11.0712013363
 21
4.2
  0
LINE
  5
706
100
AcDbEntity
  8
ASSI
100
AcDbLine
 62
253
  6
CONTINUOUS
 10
10.3864405814
 20
23.6278734767
 11
10.4017150409
 21
23.1226497308
  0
LINE
  5
707
100
AcDbEntity
  8
ASSI
100
AcDbLine
 62
253
  6
CONTINUOUS
 10
10.5863251115
 20
23.8043213509
 11
10.6
 21
23.3515746082
  0
LWPOLYLINE
  5
708
100
AcDbEntity
  8
ASSI
100
AcDbPolyline
 62
253
  6
CONTINUOUS
 90
3
 70
0
 10
10.586119181
 20
23.8168383136
 10
10.5861793458
 20
23.8121884951
 10
10.5863251115
 20
23.8043213509
  0
LINE
  5
709
100
AcDbEntity
  8
DRAFT
100
AcDbLine
 62
7
  6
CONTINUOUS
 10
10.9926595262
 20
10.3570955844
 11
10.9926595262
 21
6.2
  0
LINE
  5
70A
100
AcDbEntity
  8
DRAFT
100
AcDbLine
 62
7
  6
CONTINUOUS
 10
11.0712013363
 20
-3.2
 11
11.0712013363
 21
4.2
  0
LINE
  5
70B
100
AcDbEntity
  8
ASSI
100
AcDbLine
 62
7
  6
CONTINUOUS
 10
11.0825449351
 20
21.8826210875
 11
11.0825449351
 21
20.4226497308
  0
LINE
  5
70C
100
AcDbEntity
  8
ASSI
100
AcDbLine
 62
7
  6
CONTINUOUS
 10
11.0825449351
 20
-20.4226497308
 11
11.0825449351
 21
-21.8826210875
  0
LINE
  5
70D
100
AcDbEntity
  8
ASSI
100
AcDbLine
 62
7
  6
CONTINUOUS
 10
11.1
 20
21.9000761524
 11
11.1
 21
21.0
  0
LINE
  5
70E
100
AcDbEntity
  8
ASSI
100
AcDbLine
 62
7
  6
CONTINUOUS
 10
11.1
 20
-21.9000761524
 11
11.1
 21
-21.0
  0
LINE
  5
70F
100
AcDbEntity
  8
DRAFT
100
AcDbLine
 62
7
  6
CONTINUOUS
 10
11.1
 20
-15.5
 11
11.1
 21
19.0
  0
LINE
  5
710
100
AcDbEntity
  8
0
100
AcDbLine
 62
7
  6
CONTINUOUS
 10
11.1157115529
 20
19.5
 11
11.1157115529
 21
-16.0
  0
LINE
  5
711
100
AcDbEntity
  8
0
100
AcDbLine
 62
7
  6
CONTINUOUS
 10
11.1261859216
 20
20.4226497308
 11
11.1261859216
 21
19.5
  0
LINE
  5
712
100
AcDbEntity
  8
0
100
AcDbLine
 62
7
  6
CONTINUOUS
 10
11.1261859216
 20
-16.0
 11
11.1261859216
 21
-20.4226497308
  0
LWPOLYLINE
  5
713
100
AcDbEntity
  8
ASSI
100
AcDbPolyline
 62
253
  6
CONTINUOUS
 90
3
 70
0
 10
10.5863250264
 20
-23.8043279171
 10
10.5862476153
 20
-23.8080503592
 10
10.5861189941
 20
-23.8168555943
  0
LINE
  5
714
100
AcDbEntity
  8
ASSI
100
AcDbLine
 62
253
  6
CONTINUOUS
 10
10.4017150409
 20
-23.1226497308
 11
10.3864421555
 21
-23.6278214108
  0
LINE
  5
715
100
AcDbEntity
  8
ASSI
100
AcDbLine
 62
253
  6
CONTINUOUS
 10
10.6
 20
-23.3515746082
 11
10.5863250264
 21
-23.8043279171
  0
LINE
  5
716
100
AcDbEntity
  8
ASSI
100
AcDbLine
 62
7
  6
CONTINUOUS
 10
11.1261859216
 20
-20.4226497308
 11
11.1
 21
-21.0
  0
LWPOLYLINE
  5
717
100
AcDbEntity
  8
ASSI
100
AcDbPolyline
 62
253
  6
CONTINUOUS
 90
13
 70
0
 10
10.5868325431
 20
-24.286863004
 10
10.5851144898
 20
-24.3129592355
 10
10.5800056122
 20
-24.3386091261
 10
10.5715932907
 20
-24.363373969
 10
10.5600214066
 20
-24.3868301951
 10
10.5454878816
 20
-24.4085766171
 10
10.5282412918
 20
-24.4282412918
 10
10.5085766171
 20
-24.4454878816
 10
10.4868301951
 20
-24.4600214066
 10
10.463373969
 20
-24.4715932907
 10
10.4386091261
 20
-24.4800056122
 10
10.4129592355
 20
-24.4851144898
 10
10.3868630041
 20
-24.4868325431
  0
LINE
  5
718
100
AcDbEntity
  8
DRAFT
100
AcDbLine
 62
7
  6
CONTINUOUS
 10
11.0712013363
 20
-3.2
 11
10.8085226158
 21
-3.7253974543
  0
LINE
  5
719
100
AcDbEntity
  8
ASSI
100
AcDbLine
 62
253
  6
CONTINUOUS
 10
3.1286750776
 20
-21.975182794
 11
3.05
 21
-22.1325449336
  0
LINE
  5
71A
100
AcDbEntity
  8
ASSI
100
AcDbLine
 62
253
  6
CONTINUOUS
 10
3.3786655583
 20
-22.2251447178
 11
3.2999714434
 21
-22.3825449351
  0
LINE
  5
71B
100
AcDbEntity
  8
DRAFT
100
AcDbLine
 62
7
  6
CONTINUOUS
 10
8.2822894108
 20
-8.2244352298
 11
8.5109333469
 21
-7.9957912937
  0
LINE
  5
71C
100
AcDbEntity
  8
DRAFT
100
AcDbLine
 62
7
  6
CONTINUOUS
 10
9.5872686779
 20
-7.9085226158
 11
9.5
 21
-7.9957912937
  0
LINE
  5
71D
100
AcDbEntity
  8
DRAFT
100
AcDbLine
 62
7
  6
CONTINUOUS
 10
9.8414773842
 20
-7.9085226158
 11
9.55
 21
-8.2
  0
LINE
  5
71E
100
AcDbEntity
  8
ASSI
100
AcDbLine
 62
7
  6
CONTINUOUS
 10
-4.45
 20
-22.4
 11
-4.3518840226
 21
-22.3018840226
  0
LINE
  5
71F
100
AcDbEntity
  8
RACCORDO
100
AcDbLine
 62
253
  6
CONTINUOUS
 10
9.5
 20
11.0891632737
 11
7.9542087063
 21
11.0891632737
  0
LINE
  5
720
100
AcDbEntity
  8
RACCORDO
100
AcDbLine
 62
253
  6
CONTINUOUS
 10
-7.9542087063
 20
11.0891632737
 11
-9.5
 21
11.0891632737
  0
LINE
  5
721
100
AcDbEntity
  8
ASSI
100
AcDbLine
 62
7
  6
CONTINUOUS
 10
-8.5
 20
11.3
 11
8.5
 21
11.3
  0
LINE
  5
722
100
AcDbEntity
  8
RACCORDO
100
AcDbLine
 62
7
  6
CONTINUOUS
 10
8.8608443418
 20
11.8891556582
 11
8.5
 21
11.8891556582
  0
LINE
  5
723
100
AcDbEntity
  8
RACCORDO
100
AcDbLine
 62
7
  6
CONTINUOUS
 10
-8.5
 20
11.8891556582
 11
-8.8608443418
 21
11.8891556582
  0
LINE
  5
724
100
AcDbEntity
  8
DRAFT
100
AcDbLine
 62
7
  6
CONTINUOUS
 10
-8.75
 20
12.0
 11
-8.5
 21
12.0
  0
LINE
  5
725
100
AcDbEntity
  8
DRAFT
100
AcDbLine
 62
7
  6
CONTINUOUS
 10
8.5
 20
12.0
 11
8.75
 21
12.0
  0
LINE
  5
726
100
AcDbEntity
  8
ASSI
100
AcDbLine
 62
7
  6
CONTINUOUS
 10
-8.5
 20
12.8
 11
8.5
 21
12.8
  0
LINE
  5
727
100
AcDbEntity
  8
0
100
AcDbLine
 62
7
  6
CONTINUOUS
 10
-6.65
 20
12.85
 11
-5.6270229771
 21
12.85
  0
LINE
  5
728
100
AcDbEntity
  8
0
100
AcDbLine
 62
7
  6
CONTINUOUS
 10
-2.8823709735
 20
12.85
 11
2.6729770229
 21
12.85
  0
LINE
  5
729
100
AcDbEntity
  8
0
100
AcDbLine
 62
7
  6
CONTINUOUS
 10
5.4277281493
 20
12.85
 11
8.15
 21
12.85
  0
LWPOLYLINE
  5
72A
100
AcDbEntity
  8
ASSI
100
AcDbPolyline
 62
7
  6
CONTINUOUS
 90
10
 70
0
 10
-8.5466230298
 20
23.6278312164
 10
-8.5659358966
 20
23.6461238989
 10
-8.5866586836
 20
23.6670655587
 10
-8.608791391
 20
23.6899995776
 10
-8.6326327808
 20
23.7141377517
 10
-8.6578840909
 20
23.7390654611
 10
-8.6836490347
 20
23.7648572213
 10
-8.7096288497
 20
23.7913286324
 10
-8.7361222984
 20
23.8179338627
 10
-8.7631293807
 20
23.8443375673
  0
LINE
  5
72B
100
AcDbEntity
  8
ASSI
100
AcDbLine
 62
7
  6
CONTINUOUS
 10
-4.45
 20
22.4
 11
-4.3518840226
 21
22.3018840226
  0
LWPOLYLINE
  5
72C
100
AcDbEntity
  8
0
100
AcDbPolyline
 62
7
  6
CONTINUOUS
 90
7
 70
0
 10
5.4649380703
 20
12.8
 10
5.4588611909
 20
12.8086298479
 10
5.4527344018
 20
12.8171410899
 10
5.4465577031
 20
12.8255337262
 10
5.4403310948
 20
12.8338077566
 10
5.4340545769
 20
12.8419631812
 10
5.4277281493
 20
12.85
  0
LINE
  5
72D
100
AcDbEntity
  8
ASSI
100
AcDbLine
 62
253
  6
CONTINUOUS
 10
3.05
 20
22.1325449336
 11
3.1286750776
 21
21.975182794
  0
LINE
  5
72E
100
AcDbEntity
  8
ASSI
100
AcDbLine
 62
253
  6
CONTINUOUS
 10
3.2999714434
 20
22.3825449351
 11
3.3786655583
 21
22.2251447178
  0
LINE
  5
72F
100
AcDbEntity
  8
ASSI
100
AcDbLine
 62
7
  6
CONTINUOUS
 10
7.3012233427
 20
-22.2251447178
 11
7.2551134101
 21
-22.3825449351
  0
LINE
  5
730
100
AcDbEntity
  8
RACCORDO
100
AcDbLine
 62
253
  6
CONTINUOUS
 10
5.2359067843
 20
-21.0482435579
 11
5.1430053616
 21
-21.2252970239
  0
LINE
  5
731
100
AcDbEntity
  8
DRAFT
100
AcDbLine
 62
7
  6
CONTINUOUS
 10
8.7746920834
 20
-10.3253079166
 11
8.7831563161
 21
-10.3168436839
  0
LINE
  5
732
100
AcDbEntity
  8
DRAFT
100
AcDbLine
 62
7
  6
CONTINUOUS
 10
8.2569814942
 20
-10.9930185058
 11
8.2822894108
 21
-10.9677105892
  0
LINE
  5
733
100
AcDbEntity
  8
ASSI
100
AcDbLine
 62
253
  6
CONTINUOUS
 10
-4.3518840226
 20
-23.6519220988
 11
-4.45
 21
-23.7500380762
  0
LINE
  5
734
100
AcDbEntity
  8
ASSI
100
AcDbLine
 62
253
  6
CONTINUOUS
 10
-4.1019220988
 20
-23.9018840226
 11
-4.2000380762
 21
-24.0
  0
LINE
  5
735
100
AcDbEntity
  8
RACCORDO
100
AcDbLine
 62
253
  6
CONTINUOUS
 10
3.9532603211
 20
-17.3468158314
 11
3.8445737581
 21
-17.4555023943
  0
LINE
  5
736
100
AcDbEntity
  8
DRAFT
100
AcDbLine
 62
7
  6
CONTINUOUS
 10
-9.5941424626
 20
-20.8738193966
 11
-9.6465076573
 21
-20.9
  0
LINE
  5
737
100
AcDbEntity
  8
DRAFT
100
AcDbLine
 62
7
  6
CONTINUOUS
 10
9.4522218454
 20
17.3755647702
 11
9.55
 21
17.4
  0
LINE
  5
738
100
AcDbEntity
  8
0
100
AcDbLine
 62
7
  6
CONTINUOUS
 10
-5.415
 20
13.3
 11
-5.3212251762
 21
13.3
  0
LINE
  5
739
100
AcDbEntity
  8
0
100
AcDbLine
 62
7
  6
CONTINUOUS
 10
5.415
 20
13.3
 11
5.3212251762
 21
13.3
  0
LINE
  5
73A
100
AcDbEntity
  8
0
100
AcDbLine
 62
7
  6
CONTINUOUS
 10
-6.015
 20
13.3
 11
-7.3148511084
 21
13.3
  0
LINE
  5
73B
100
AcDbEntity
  8
0
100
AcDbLine
 62
7
  6
CONTINUOUS
 10
6.015
 20
13.3
 11
7.3148511084
 21
13.3
  0
LINE
  5
73C
100
AcDbEntity
  8
DRAFT
100
AcDbLine
 62
7
  6
CONTINUOUS
 10
8.75
 20
13.6
 11
7.7255647702
 21
13.6
  0
LINE
  5
73D
100
AcDbEntity
  8
DRAFT
100
AcDbLine
 62
7
  6
CONTINUOUS
 10
-7.7255647702
 20
13.6
 11
-8.75
 21
13.6
  0
LINE
  5
73E
100
AcDbEntity
  8
DRAFT
100
AcDbLine
 62
7
  6
CONTINUOUS
 10
-7.7255647702
 20
13.7
 11
-7.315
 21
13.7
  0
LINE
  5
73F
100
AcDbEntity
  8
DRAFT
100
AcDbLine
 62
7
  6
CONTINUOUS
 10
-6.015
 20
13.7
 11
-5.415
 21
13.7
  0
LINE
  5
740
100
AcDbEntity
  8
DRAFT
100
AcDbLine
 62
7
  6
CONTINUOUS
 10
-3.5923642724
 20
13.7
 11
-2.2
 21
13.7
  0
LINE
  5
741
100
AcDbEntity
  8
DRAFT
100
AcDbLine
 62
7
  6
CONTINUOUS
 10
-1.8
 20
13.7
 11
-0.95
 21
13.7
  0
LINE
  5
742
100
AcDbEntity
  8
DRAFT
100
AcDbLine
 62
7
  6
CONTINUOUS
 10
-0.55
 20
13.7
 11
0.3
 21
13.7
  0
LINE
  5
743
100
AcDbEntity
  8
DRAFT
100
AcDbLine
 62
7
  6
CONTINUOUS
 10
0.7
 20
13.7
 11
1.55
 21
13.7
  0
LINE
  5
744
100
AcDbEntity
  8
DRAFT
100
AcDbLine
 62
7
  6
CONTINUOUS
 10
1.95
 20
13.7
 11
3.5917907969
 21
13.7
  0
LINE
  5
745
100
AcDbEntity
  8
DRAFT
100
AcDbLine
 62
7
  6
CONTINUOUS
 10
5.415
 20
13.7
 11
6.015
 21
13.7
  0
LINE
  5
746
100
AcDbEntity
  8
DRAFT
100
AcDbLine
 62
7
  6
CONTINUOUS
 10
7.315
 20
13.7
 11
7.7255647702
 21
13.7
  0
LINE
  5
747
100
AcDbEntity
  8
RACCORDO
100
AcDbLine
 62
7
  6
CONTINUOUS
 10
-8.8608443418
 20
13.7108443418
 11
-7.9472576745
 21
13.7108443418
  0
LINE
  5
748
100
AcDbEntity
  8
RACCORDO
100
AcDbLine
 62
7
  6
CONTINUOUS
 10
7.9472576745
 20
13.7108443418
 11
8.8608443418
 21
13.7108443418
  0
LINE
  5
749
100
AcDbEntity
  8
0
100
AcDbLine
 62
7
  6
CONTINUOUS
 10
-4.65
 20
13.7211646096
 11
-3.65
 21
13.7211646096
  0
LINE
  5
74A
100
AcDbEntity
  8
0
100
AcDbLine
 62
7
  6
CONTINUOUS
 10
4.65
 20
13.7211646096
 11
3.65
 21
13.7211646096
  0
LINE
  5
74B
100
AcDbEntity
  8
DRAFT
100
AcDbLine
 62
7
  6
CONTINUOUS
 10
-7.6932753594
 20
13.7322894108
 11
-7.315
 21
13.7322894108
  0
LINE
  5
74C
100
AcDbEntity
  8
DRAFT
100
AcDbLine
 62
7
  6
CONTINUOUS
 10
-6.015
 20
13.7322894108
 11
-5.415
 21
13.7322894108
  0
LINE
  5
74D
100
AcDbEntity
  8
DRAFT
100
AcDbLine
 62
7
  6
CONTINUOUS
 10
-3.65
 20
13.7322894108
 11
-2.2
 21
13.7322894108
  0
LINE
  5
74E
100
AcDbEntity
  8
DRAFT
100
AcDbLine
 62
7
  6
CONTINUOUS
 10
-1.8
 20
13.7322894108
 11
-0.95
 21
13.7322894108
  0
LINE
  5
74F
100
AcDbEntity
  8
DRAFT
100
AcDbLine
 62
7
  6
CONTINUOUS
 10
-0.55
 20
13.7322894108
 11
0.3
 21
13.7322894108
  0
LINE
  5
750
100
AcDbEntity
  8
DRAFT
100
AcDbLine
 62
7
  6
CONTINUOUS
 10
0.7
 20
13.7322894108
 11
1.55
 21
13.7322894108
  0
LINE
  5
751
100
AcDbEntity
  8
DRAFT
100
AcDbLine
 62
7
  6
CONTINUOUS
 10
1.95
 20
13.7322894108
 11
3.65
 21
13.7322894108
  0
LINE
  5
752
100
AcDbEntity
  8
DRAFT
100
AcDbLine
 62
7
  6
CONTINUOUS
 10
5.415
 20
13.7322894108
 11
6.015
 21
13.7322894108
  0
LINE
  5
753
100
AcDbEntity
  8
DRAFT
100
AcDbLine
 62
7
  6
CONTINUOUS
 10
7.315
 20
13.7322894108
 11
7.6932753594
 21
13.7322894108
  0
LINE
  5
754
100
AcDbEntity
  8
0
100
AcDbLine
 62
7
  6
CONTINUOUS
 10
-5.415
 20
13.8
 11
-4.65
 21
13.8
  0
LINE
  5
755
100
AcDbEntity
  8
0
100
AcDbLine
 62
7
  6
CONTINUOUS
 10
5.415
 20
13.8
 11
4.65
 21
13.8
  0
LINE
  5
756
100
AcDbEntity
  8
0
100
AcDbLine
 62
7
  6
CONTINUOUS
 10
6.015
 20
13.8
 11
7.315
 21
13.8
  0
LINE
  5
757
100
AcDbEntity
  8
0
100
AcDbLine
 62
7
  6
CONTINUOUS
 10
-6.015
 20
13.8
 11
-7.315
 21
13.8
  0
LINE
  5
758
100
AcDbEntity
  8
ASSI
100
AcDbLine
 62
7
  6
CONTINUOUS
 10
4.6498277733
 20
14.4
 11
3.6501722267
 21
14.4
  0
LINE
  5
759
100
AcDbEntity
  8
ASSI
100
AcDbLine
 62
7
  6
CONTINUOUS
 10
1.9498129932
 20
14.4
 11
1.5501870068
 21
14.4
  0
LINE
  5
75A
100
AcDbEntity
  8
ASSI
100
AcDbLine
 62
7
  6
CONTINUOUS
 10
0.6998129932
 20
14.4
 11
0.3001870068
 21
14.4
  0
LINE
  5
75B
100
AcDbEntity
  8
ASSI
100
AcDbLine
 62
7
  6
CONTINUOUS
 10
-0.5501870068
 20
14.4
 11
-0.9498129932
 21
14.4
  0
LINE
  5
75C
100
AcDbEntity
  8
ASSI
100
AcDbLine
 62
7
  6
CONTINUOUS
 10
-1.8001870068
 20
14.4
 11
-2.1998129932
 21
14.4
  0
LINE
  5
75D
100
AcDbEntity
  8
ASSI
100
AcDbLine
 62
7
  6
CONTINUOUS
 10
-3.6501722267
 20
14.4
 11
-4.6498277733
 21
14.4
  0
LINE
  5
75E
100
AcDbEntity
  8
RACCORDO
100
AcDbLine
 62
253
  6
CONTINUOUS
 10
-9.5
 20
14.5108367263
 11
-7.9542087063
 21
14.5108367263
  0
LINE
  5
75F
100
AcDbEntity
  8
RACCORDO
100
AcDbLine
 62
253
  6
CONTINUOUS
 10
7.9542087063
 20
14.5108367263
 11
9.5
 21
14.5108367263
  0
LINE
  5
760
100
AcDbEntity
  8
0
100
AcDbLine
 62
7
  6
CONTINUOUS
 10
-5.415
 20
14.8
 11
-4.7151461204
 21
14.8
  0
LINE
  5
761
100
AcDbEntity
  8
0
100
AcDbLine
 62
7
  6
CONTINUOUS
 10
5.415
 20
14.8
 11
4.7151461204
 21
14.8
  0
LINE
  5
762
100
AcDbEntity
  8
0
100
AcDbLine
 62
7
  6
CONTINUOUS
 10
6.015
 20
14.8
 11
6.7148538796
 21
14.8
  0
LINE
  5
763
100
AcDbEntity
  8
0
100
AcDbLine
 62
7
  6
CONTINUOUS
 10
-6.015
 20
14.8
 11
-6.7148538796
 21
14.8
  0
LINE
  5
764
100
AcDbEntity
  8
DRAFT
100
AcDbLine
 62
7
  6
CONTINUOUS
 10
9.8414773842
 20
14.8085226158
 11
9.5872686779
 21
14.8085226158
  0
LINE
  5
765
100
AcDbEntity
  8
DRAFT
100
AcDbLine
 62
7
  6
CONTINUOUS
 10
-9.5872686779
 20
14.8085226158
 11
-9.8414773842
 21
14.8085226158
  0
LINE
  5
766
100
AcDbEntity
  8
DRAFT
100
AcDbLine
 62
7
  6
CONTINUOUS
 10
-9.5
 20
14.8957912937
 11
-7.9542087063
 21
14.8957912937
  0
LINE
  5
767
100
AcDbEntity
  8
DRAFT
100
AcDbLine
 62
7
  6
CONTINUOUS
 10
9.5
 20
14.8957912937
 11
7.9542087063
 21
14.8957912937
  0
LINE
  5
768
100
AcDbEntity
  8
DRAFT
100
AcDbLine
 62
7
  6
CONTINUOUS
 10
-9.4522218454
 20
17.3755647702
 11
-9.55
 21
17.4
  0
LINE
  5
769
100
AcDbEntity
  8
DRAFT
100
AcDbLine
 62
7
  6
CONTINUOUS
 10
-9.6465076573
 20
20.9
 11
-9.505776808
 21
20.8296399342
  0
LINE
  5
76A
100
AcDbEntity
  8
ASSI
100
AcDbLine
 62
253
  6
CONTINUOUS
 10
-4.45
 20
23.7500380762
 11
-4.3518840226
 21
23.6519220988
  0
LINE
  5
76B
100
AcDbEntity
  8
ASSI
100
AcDbLine
 62
253
  6
CONTINUOUS
 10
-4.2000380762
 20
24.0
 11
-4.1019220988
 21
23.9018840226
  0
LINE
  5
76C
100
AcDbEntity
  8
RACCORDO
100
AcDbLine
 62
7
  6
CONTINUOUS
 10
8.75
 20
12.0
 11
8.8608443418
 21
11.8891556582
  0
LWPOLYLINE
  5
76D
100
AcDbEntity
  8
RACCORDO
100
AcDbPolyline
 62
7
  6
CONTINUOUS
 90
4
 70
0
 10
9.0229379187
 20
11.7146134202
 10
8.9731694126
 20
11.7667699431
 10
8.949797001
 20
11.7917145222
 10
8.9089886078
 20
11.8347096638
  0
LWPOLYLINE
  5
76E
100
AcDbEntity
  8
RACCORDO
100
AcDbPolyline
 62
7
  6
CONTINUOUS
 90
3
 70
0
 10
9.1000020174
 20
11.6330826849
 10
9.0485118538
 20
11.6874014766
 10
9.0229379187
 20
11.7146134202
  0
LINE
  5
76F
100
AcDbEntity
  8
RACCORDO
100
AcDbLine
 62
7
  6
CONTINUOUS
 10
9.1753513893
 20
11.5526110588
 11
9.1000020174
 21
11.6330826849
  0
LWPOLYLINE
  5
770
100
AcDbEntity
  8
RACCORDO
100
AcDbPolyline
 62
7
  6
CONTINUOUS
 90
4
 70
0
 10
8.9089886078
 20
11.8347096638
 10
8.8692534282
 20
11.8780073968
 10
8.8631539344
 20
11.8852040051
 10
8.860915679
 20
11.8889172239
  0
LINE
  5
771
100
AcDbEntity
  8
0
100
AcDbLine
 62
7
  6
CONTINUOUS
 10
7.315
 20
13.8
 11
6.715
 21
14.8
  0
LINE
  5
772
100
AcDbEntity
  8
RACCORDO
100
AcDbLine
 62
253
  6
CONTINUOUS
 10
5.2359058371
 20
21.0482453611
 11
5.1430053589
 21
21.2252970227
  0
LINE
  5
773
100
AcDbEntity
  8
DRAFT
100
AcDbLine
 62
7
  6
CONTINUOUS
 10
10.9926595262
 20
10.3570955844
 11
10.8085226158
 21
10.7253974543
  0
LINE
  5
774
100
AcDbEntity
  8
ASSI
100
AcDbLine
 62
7
  6
CONTINUOUS
 10
7.3012233427
 20
22.2251447178
 11
7.2551134101
 21
22.3825449351
  0
LINE
  5
775
100
AcDbEntity
  8
RACCORDO
100
AcDbLine
 62
253
  6
CONTINUOUS
 10
4.452757304
 20
-17.8471475881
 11
4.3444976057
 21
-17.9554262419
  0
LWPOLYLINE
  5
776
100
AcDbEntity
  8
RACCORDO
100
AcDbPolyline
 62
253
  6
CONTINUOUS
 90
13
 70
0
 10
-5.1430053589
 20
-21.2252970227
 10
-5.1113671674
 20
-21.2067238792
 10
-5.081960039
 20
-21.1857706637
 10
-5.0547839735
 20
-21.1624373761
 10
-5.0296494986
 20
-21.1364858591
 10
-5.0067460868
 20
-21.10815427
 10
-4.9866421554
 20
-21.0781570809
 10
-4.9694173473
 20
-21.0464907552
 10
-4.9549920198
 20
-21.0131588296
 10
-4.9436956621
 20
-20.9788863855
 10
-4.9356381042
 20
-20.9439151168
 10
-4.9307095162
 20
-20.9080033296
 10
-4.9289098981
 20
-20.8711510238
  0
LWPOLYLINE
  5
777
100
AcDbEntity
  8
RACCORDO
100
AcDbPolyline
 62
253
  6
CONTINUOUS
 90
13
 70
0
 10
-5.2359058453
 20
-21.0482453455
 10
-5.2202837008
 20
-21.0391274438
 10
-5.2055460534
 20
-21.0286312044
 10
-5.1918143795
 20
-21.0168413022
 10
-5.1791985991
 20
-21.0038491395
 10
-5.1678074207
 20
-20.989763462
 10
-5.1577437201
 20
-20.9747125445
 10
-5.1490967895
 20
-20.9588398604
 10
-5.1419225122
 20
-20.9422596619
 10
-5.1362643022
 20
-20.9250638435
 10
-5.1321749629
 20
-20.9073750141
 10
-5.1297032743
 20
-20.8893509649
 10
-5.12887944
 20
-20.8711393265
  0
LINE
  5
778
100
AcDbEntity
  8
DRAFT
100
AcDbLine
 62
7
  6
CONTINUOUS
 10
6.0
 20
17.5160673416
 11
6.7019074668
 21
17.6914773842
  0
LINE
  5
779
100
AcDbEntity
  8
DRAFT
100
AcDbLine
 62
7
  6
CONTINUOUS
 10
-9.4522218454
 20
15.1244352298
 11
-9.55
 21
15.1
  0
LINE
  5
77A
100
AcDbEntity
  8
DRAFT
100
AcDbLine
 62
7
  6
CONTINUOUS
 10
8.7831563161
 20
15.3831563161
 11
9.55
 21
15.3951133247
  0
LINE
  5
77B
100
AcDbEntity
  8
DRAFT
100
AcDbLine
 62
7
  6
CONTINUOUS
 10
9.4522218454
 20
15.1244352298
 11
7.7255647702
 21
15.1244352298
  0
LINE
  5
77C
100
AcDbEntity
  8
DRAFT
100
AcDbLine
 62
7
  6
CONTINUOUS
 10
-7.7255647702
 20
15.1244352298
 11
-9.4522218454
 21
15.1244352298
  0
LINE
  5
77D
100
AcDbEntity
  8
DRAFT
100
AcDbLine
 62
7
  6
CONTINUOUS
 10
-8.7746920834
 20
15.3746920834
 11
-9.55
 21
15.3746330373
  0
LINE
  5
77E
100
AcDbEntity
  8
DRAFT
100
AcDbLine
 62
7
  6
CONTINUOUS
 10
8.7746920834
 20
15.65
 11
7.7255647702
 21
15.65
  0
LINE
  5
77F
100
AcDbEntity
  8
DRAFT
100
AcDbLine
 62
7
  6
CONTINUOUS
 10
-7.7255647702
 20
15.65
 11
-8.7746920834
 21
15.65
  0
LINE
  5
780
100
AcDbEntity
  8
DRAFT
100
AcDbLine
 62
7
  6
CONTINUOUS
 10
-8.7746920834
 20
16.85
 11
-7.7255647702
 21
16.85
  0
LINE
  5
781
100
AcDbEntity
  8
DRAFT
100
AcDbLine
 62
7
  6
CONTINUOUS
 10
7.7255647702
 20
16.85
 11
8.7746920834
 21
16.85
  0
LINE
  5
782
100
AcDbEntity
  8
DRAFT
100
AcDbLine
 62
7
  6
CONTINUOUS
 10
9.55
 20
17.2253669627
 11
8.7746920834
 21
17.2253079166
  0
LINE
  5
783
100
AcDbEntity
  8
DRAFT
100
AcDbLine
 62
7
  6
CONTINUOUS
 10
9.55
 20
15.3746330373
 11
8.7746920834
 21
15.3746920834
  0
LINE
  5
784
100
AcDbEntity
  8
DRAFT
100
AcDbLine
 62
7
  6
CONTINUOUS
 10
-8.7746920834
 20
17.2253079166
 11
-9.55
 21
17.2253669627
  0
LINE
  5
785
100
AcDbEntity
  8
DRAFT
100
AcDbLine
 62
7
  6
CONTINUOUS
 10
-9.55
 20
15.3951133247
 11
-8.7831563161
 21
15.3831563161
  0
LINE
  5
786
100
AcDbEntity
  8
DRAFT
100
AcDbLine
 62
7
  6
CONTINUOUS
 10
-6.0
 20
17.5160673416
 11
-6.7019074668
 21
17.6914773842
  0
LINE
  5
787
100
AcDbEntity
  8
DRAFT
100
AcDbLine
 62
7
  6
CONTINUOUS
 10
9.4522218454
 20
15.1244352298
 11
9.55
 21
15.1
  0
LWPOLYLINE
  5
788
100
AcDbEntity
  8
RACCORDO
100
AcDbPolyline
 62
253
  6
CONTINUOUS
 90
6
 70
0
 10
-5.1730036969
 20
21.2428404216
 10
-5.203393799
 20
21.2571787652
 10
-5.2341756652
 20
21.2683122877
 10
-5.2653492957
 20
21.2762434428
 10
-5.2969146903
 20
21.2809751913
 10
-5.3288718492
 20
21.2825097805
  0
LWPOLYLINE
  5
789
100
AcDbEntity
  8
RACCORDO
100
AcDbPolyline
 62
253
  6
CONTINUOUS
 90
7
 70
0
 10
-5.2359058453
 20
21.0482453455
 10
-5.2507215464
 20
21.055250351
 10
-5.2659558446
 20
21.0609843448
 10
-5.2814983482
 20
21.0654347615
 10
-5.2972401813
 20
21.0685984498
 10
-5.3130747361
 20
21.0704812761
 10
-5.3288983659
 20
21.0710976766
  0
LINE
  5
78A
100
AcDbEntity
  8
DRAFT
100
AcDbLine
 62
7
  6
CONTINUOUS
 10
7.6932753594
 20
13.7322894108
 11
7.7255647702
 21
13.7
  0
LINE
  5
78B
100
AcDbEntity
  8
DRAFT
100
AcDbLine
 62
7
  6
CONTINUOUS
 10
7.7255647702
 20
15.1244352298
 11
7.9542087063
 21
14.8957912937
  0
LINE
  5
78C
100
AcDbEntity
  8
DRAFT
100
AcDbLine
 62
7
  6
CONTINUOUS
 10
7.6339602491
 20
-16.8514272135
 11
7.3471895691
 21
-17.1381978935
  0
LINE
  5
78D
100
AcDbEntity
  8
ASSI
100
AcDbLine
 62
253
  6
CONTINUOUS
 10
0.8174550649
 20
-23.7325830113
 11
0.8
 21
-23.7500380762
  0
LINE
  5
78E
100
AcDbEntity
  8
ASSI
100
AcDbLine
 62
7
  6
CONTINUOUS
 10
3.1173032135
 20
-21.6326967865
 11
3.05
 21
-21.7
  0
LINE
  5
78F
100
AcDbEntity
  8
ASSI
100
AcDbLine
 62
253
  6
CONTINUOUS
 10
1.0674169887
 20
-23.9825449351
 11
1.0499619238
 21
-24.0
  0
LINE
  5
790
100
AcDbEntity
  8
ASSI
100
AcDbLine
 62
7
  6
CONTINUOUS
 10
3.5
 20
-22.3825449351
 11
3.5806609125
 21
-22.3018840226
  0
LINE
  5
791
100
AcDbEntity
  8
RACCORDO
100
AcDbLine
 62
253
  6
CONTINUOUS
 10
5.3523651948
 20
-20.6476652662
 11
5.1288794371
 21
-20.8711415107
  0
LINE
  5
792
100
AcDbEntity
  8
RACCORDO
100
AcDbLine
 62
253
  6
CONTINUOUS
 10
5.5523347338
 20
-20.8476348052
 11
5.3288983544
 21
-21.0710976899
  0
LINE
  5
793
100
AcDbEntity
  8
ASSI
100
AcDbLine
 62
253
  6
CONTINUOUS
 10
3.5806609125
 20
-23.6519220988
 11
3.5
 21
-23.7325830113
  0
LINE
  5
794
100
AcDbEntity
  8
DRAFT
100
AcDbLine
 62
7
  6
CONTINUOUS
 10
-9.55
 20
17.2048866753
 11
-8.7831563161
 21
17.2168436839
  0
LINE
  5
795
100
AcDbEntity
  8
DRAFT
100
AcDbLine
 62
7
  6
CONTINUOUS
 10
9.4522218454
 20
17.3755647702
 11
7.7255647702
 21
17.3755647702
  0
LINE
  5
796
100
AcDbEntity
  8
DRAFT
100
AcDbLine
 62
7
  6
CONTINUOUS
 10
-7.7255647702
 20
17.3755647702
 11
-9.4522218454
 21
17.3755647702
  0
LINE
  5
797
100
AcDbEntity
  8
DRAFT
100
AcDbLine
 62
7
  6
CONTINUOUS
 10
-7.7979977728
 20
17.4479977729
 11
7.7979977728
 21
17.4479977729
  0
LINE
  5
798
100
AcDbEntity
  8
DRAFT
100
AcDbLine
 62
7
  6
CONTINUOUS
 10
-6.0
 20
17.5160673416
 11
6.0
 21
17.5160673416
  0
LINE
  5
799
100
AcDbEntity
  8
DRAFT
100
AcDbLine
 62
7
  6
CONTINUOUS
 10
-9.8414773842
 20
17.6914773842
 11
-6.7019074668
 21
17.6914773842
  0
LINE
  5
79A
100
AcDbEntity
  8
DRAFT
100
AcDbLine
 62
7
  6
CONTINUOUS
 10
6.7019074668
 20
17.6914773842
 11
9.8414773842
 21
17.6914773842
  0
LINE
  5
79B
100
AcDbEntity
  8
DRAFT
100
AcDbLine
 62
7
  6
CONTINUOUS
 10
-10.8085226158
 20
18.7085226158
 11
-6.7019074668
 21
18.7085226158
  0
LINE
  5
79C
100
AcDbEntity
  8
DRAFT
100
AcDbLine
 62
7
  6
CONTINUOUS
 10
6.7019074668
 20
18.7085226158
 11
10.8085226158
 21
18.7085226158
  0
LINE
  5
79D
100
AcDbEntity
  8
DRAFT
100
AcDbLine
 62
7
  6
CONTINUOUS
 10
-6.0
 20
18.8839326584
 11
6.0
 21
18.8839326584
  0
LINE
  5
79E
100
AcDbEntity
  8
DRAFT
100
AcDbLine
 62
7
  6
CONTINUOUS
 10
7.7979977728
 20
18.9520022272
 11
-7.7979977728
 21
18.9520022272
  0
LINE
  5
79F
100
AcDbEntity
  8
DRAFT
100
AcDbLine
 62
7
  6
CONTINUOUS
 10
11.1
 20
19.0
 11
7.75
 21
19.0
  0
LINE
  5
7A0
100
AcDbEntity
  8
DRAFT
100
AcDbLine
 62
7
  6
CONTINUOUS
 10
-7.75
 20
19.0
 11
-11.1
 21
19.0
  0
LINE
  5
7A1
100
AcDbEntity
  8
DRAFT
100
AcDbLine
 62
7
  6
CONTINUOUS
 10
8.7831563161
 20
17.2168436839
 11
9.55
 21
17.2048866753
  0
LWPOLYLINE
  5
7A2
100
AcDbEntity
  8
RACCORDO
100
AcDbPolyline
 62
253
  6
CONTINUOUS
 90
13
 70
0
 10
-7.01446908
 20
19.7712959731
 10
-7.0405606606
 20
19.773018598
 10
-7.0662062454
 20
19.7781174883
 10
-7.0909674585
 20
19.7865054869
 10
-7.1144210248
 20
19.7980392042
 10
-7.1361660564
 20
19.8125214939
 10
-7.1558308923
 20
19.8297048426
 10
-7.1730793955
 20
19.849295571
 10
-7.1876166764
 20
19.8709587919
 10
-7.1991941962
 20
19.8943241597
 10
-7.2076140433
 20
19.9189922531
 10
-7.2127322971
 20
19.9445414153
 10
-7.2144614646
 20
19.9705349127
  0
LINE
  5
7A3
100
AcDbEntity
  8
DRAFT
100
AcDbLine
 62
7
  6
CONTINUOUS
 10
9.5872686779
 20
14.8085226158
 11
9.5
 21
14.8957912937
  0
LINE
  5
7A4
100
AcDbEntity
  8
ASSI
100
AcDbLine
 62
253
  6
CONTINUOUS
 10
0.8
 20
23.7500380762
 11
0.8174550649
 21
23.7325830113
  0
LINE
  5
7A5
100
AcDbEntity
  8
DRAFT
100
AcDbLine
 62
7
  6
CONTINUOUS
 10
9.8414773842
 20
14.8085226158
 11
9.55
 21
15.1
  0
LINE
  5
7A6
100
AcDbEntity
  8
ASSI
100
AcDbLine
 62
7
  6
CONTINUOUS
 10
3.1173032135
 20
21.6326967865
 11
3.05
 21
21.7
  0
LINE
  5
7A7
100
AcDbEntity
  8
ASSI
100
AcDbLine
 62
253
  6
CONTINUOUS
 10
1.0499619238
 20
24.0
 11
1.0674169887
 21
23.9825449351
  0
LINE
  5
7A8
100
AcDbEntity
  8
ASSI
100
AcDbLine
 62
7
  6
CONTINUOUS
 10
3.5806609125
 20
22.3018840226
 11
3.5
 21
22.3825449351
  0
LINE
  5
7A9
100
AcDbEntity
  8
DRAFT
100
AcDbLine
 62
7
  6
CONTINUOUS
 10
8.7746920834
 20
17.2253079166
 11
8.7831563161
 21
17.2168436839
  0
LINE
  5
7AA
100
AcDbEntity
  8
RACCORDO
100
AcDbLine
 62
253
  6
CONTINUOUS
 10
5.4444055569
 20
20.5556249041
 11
5.1288794371
 21
20.871139329
  0
LINE
  5
7AB
100
AcDbEntity
  8
RACCORDO
100
AcDbLine
 62
253
  6
CONTINUOUS
 10
5.6440771199
 20
20.7558924191
 11
5.3288718492
 21
21.0710976899
  0
LINE
  5
7AC
100
AcDbEntity
  8
DRAFT
100
AcDbLine
 62
7
  6
CONTINUOUS
 10
7.75
 20
19.0
 11
7.7979977728
 21
18.9520022272
  0
LINE
  5
7AD
100
AcDbEntity
  8
ASSI
100
AcDbLine
 62
253
  6
CONTINUOUS
 10
3.5
 20
23.7325830113
 11
3.5806609125
 21
23.6519220988
  0
LWPOLYLINE
  5
7AE
100
AcDbEntity
  8
RACCORDO
100
AcDbPolyline
 62
7
  6
CONTINUOUS
 90
7
 70
0
 10
7.3012233427
 20
22.2251447178
 10
7.3024886934
 20
22.2232979827
 10
7.3060916649
 20
22.2191130679
 10
7.312032257
 20
22.2125899734
 10
7.3202419806
 20
22.2037965168
 10
7.3307893249
 20
22.1926648806
 10
7.3595270589
 20
22.1627618209
  0
LWPOLYLINE
  5
7AF
100
AcDbEntity
  8
ASSI
100
AcDbPolyline
 62
253
  6
CONTINUOUS
 90
10
 70
0
 10
7.2131674569
 20
24.2868630041
 10
7.2132086099
 20
24.2867833641
 10
7.2132506367
 20
24.2865659538
 10
7.2132935375
 20
24.2862107732
 10
7.2133375711
 20
24.2857244556
 10
7.2133824786
 20
24.2851003676
 10
7.213427483
 20
24.2843186096
 10
7.2134726087
 20
24.2833740935
 10
7.2135178313
 20
24.2822719073
 10
7.2135623006
 20
24.2810074149
  0
LWPOLYLINE
  5
7B0
100
AcDbEntity
  8
RACCORDO
100
AcDbPolyline
 62
7
  6
CONTINUOUS
 90
6
 70
0
 10
7.3307894207
 20
-22.19266478
 10
7.3202420417
 20
-22.2037964519
 10
7.3120322913
 20
-22.2125899363
 10
7.3060916798
 20
-22.219113051
 10
7.3024886969
 20
-22.2232979782
 10
7.3012233427
 20
-22.2251447178
  0
LINE
  5
7B1
100
AcDbEntity
  8
RACCORDO
100
AcDbLine
 62
7
  6
CONTINUOUS
 10
7.3595272516
 20
-22.1627616216
 11
7.3307894207
 21
-22.19266478
  0
LINE
  5
7B2
100
AcDbEntity
  8
RACCORDO
100
AcDbLine
 62
7
  6
CONTINUOUS
 10
7.422256369
 20
-22.0983092905
 11
7.3595272516
 21
-22.1627616216
  0
LINE
  5
7B3
100
AcDbEntity
  8
RACCORDO
100
AcDbLine
 62
7
  6
CONTINUOUS
 10
7.5816845896
 20
-21.9362193403
 11
7.422256369
 21
-22.0983092905
  0
LINE
  5
7B4
100
AcDbEntity
  8
RACCORDO
100
AcDbLine
 62
7
  6
CONTINUOUS
 10
7.8977482709
 20
-21.6175252314
 11
7.5816845896
 21
-21.9362193403
  0
LINE
  5
7B5
100
AcDbEntity
  8
ASSI
100
AcDbLine
 62
253
  6
CONTINUOUS
 10
3.8306228363
 20
-23.9018840226
 11
3.7499619238
 21
-23.9825449351
  0
LINE
  5
7B6
100
AcDbEntity
  8
RACCORDO
100
AcDbLine
 62
253
  6
CONTINUOUS
 10
7.3261806034
 20
-20.673827012
 11
7.2144614646
 21
-20.7855366255
  0
LINE
  5
7B7
100
AcDbEntity
  8
RACCORDO
100
AcDbLine
 62
253
  6
CONTINUOUS
 10
7.526172988
 20
-20.8738193966
 11
7.4144655397
 21
-20.9855385354
  0
LINE
  5
7B8
100
AcDbEntity
  8
ASSI
100
AcDbLine
 62
7
  6
CONTINUOUS
 10
7.2551134101
 20
-22.3825449351
 11
8.2325449351
 21
-21.4051134101
  0
LINE
  5
7B9
100
AcDbEntity
  8
RACCORDO
100
AcDbLine
 62
7
  6
CONTINUOUS
 10
7.9913886475
 20
-21.5240301773
 11
7.8977482709
 21
-21.6175252314
  0
LINE
  5
7BA
100
AcDbEntity
  8
RACCORDO
100
AcDbLine
 62
7
  6
CONTINUOUS
 10
8.0356749064
 20
-21.4802659925
 11
7.9913886475
 21
-21.5240301773
  0
LWPOLYLINE
  5
7BB
100
AcDbEntity
  8
RACCORDO
100
AcDbPolyline
 62
253
  6
CONTINUOUS
 90
13
 70
0
 10
6.4784948813
 20
-21.0482311979
 10
6.4941158608
 20
-21.0391099242
 10
6.5088531445
 20
-21.0286100969
 10
6.5225851611
 20
-21.016816343
 10
6.5352019296
 20
-21.0038199496
 10
6.5465945881
 20
-20.9897297172
 10
6.5566600674
 20
-20.9746741862
 10
6.5653092372
 20
-20.9587964829
 10
6.5724858792
 20
-20.9422112712
 10
6.5781460804
 20
-20.9250120646
 10
6.5822373081
 20
-20.9073221697
 10
6.5847113867
 20
-20.8892989655
 10
6.5855385354
 20
-20.8710900996
  0
LINE
  5
7BC
100
AcDbEntity
  8
RACCORDO
100
AcDbLine
 62
253
  6
CONTINUOUS
 10
4.3444960896
 20
-19.8044631896
 11
4.402312563
 21
-19.7755571545
  0
LINE
  5
7BD
100
AcDbEntity
  8
RACCORDO
100
AcDbLine
 62
253
  6
CONTINUOUS
 10
4.5444671447
 20
-20.0044548162
 11
4.6057426505
 21
-19.9738193966
  0
LINE
  5
7BE
100
AcDbEntity
  8
RACCORDO
100
AcDbLine
 62
253
  6
CONTINUOUS
 10
5.1523651936
 20
-19.9738193966
 11
4.9289098981
 21
-20.0855385354
  0
LINE
  5
7BF
100
AcDbEntity
  8
RACCORDO
100
AcDbLine
 62
253
  6
CONTINUOUS
 10
5.3523651948
 20
-20.1737965513
 11
5.1288794371
 21
-20.28553092
  0
LINE
  5
7C0
100
AcDbEntity
  8
DRAFT
100
AcDbLine
 62
7
  6
CONTINUOUS
 10
-6.0
 20
18.8839326584
 11
-6.7019074668
 21
18.7085226158
  0
LWPOLYLINE
  5
7C1
100
AcDbEntity
  8
RACCORDO
100
AcDbPolyline
 62
7
  6
CONTINUOUS
 90
13
 70
0
 10
7.5712884313
 20
20.8287039533
 10
7.5451352495
 20
20.8269727732
 10
7.5194441201
 20
20.8218355897
 10
7.4946555453
 20
20.8133849107
 10
7.4711937911
 20
20.8017695772
 10
7.4494590705
 20
20.7871928197
 10
7.4298207275
 20
20.769908666
 10
7.4126130153
 20
20.7502173474
 10
7.3981255963
 20
20.7284572893
 10
7.3865997741
 20
20.7049988821
 10
7.3782293871
 20
20.6802422787
 10
7.3731558961
 20
20.6546116211
 10
7.3714633245
 20
20.6285442909
  0
LWPOLYLINE
  5
7C2
100
AcDbEntity
  8
RACCORDO
100
AcDbPolyline
 62
7
  6
CONTINUOUS
 90
13
 70
0
 10
5.6440771199
 20
20.7558924191
 10
5.6180738002
 20
20.7541739722
 10
5.5925021932
 20
20.7490790205
 10
5.5677986967
 20
20.7406886369
 10
5.5443868827
 20
20.7291400648
 10
5.5226679276
 20
20.7146252178
 10
5.503013963
 20
20.6973871581
 10
5.4857656974
 20
20.6777158783
 10
5.4712226186
 20
20.655943241
 10
5.4596366752
 20
20.6324370466
 10
5.4512127761
 20
20.6075963087
 10
5.4461039224
 20
20.5818452574
 10
5.4444055569
 20
20.5556249041
  0
LWPOLYLINE
  5
7C3
100
AcDbEntity
  8
RACCORDO
100
AcDbPolyline
 62
7
  6
CONTINUOUS
 90
13
 70
0
 10
-6.2281713117
 20
20.7562859877
 10
-6.2542057971
 20
20.7546025814
 10
-6.2798095062
 20
20.7495392905
 10
-6.3045455983
 20
20.7411770241
 10
-6.3279909108
 20
20.7296531113
 10
-6.3497428274
 20
20.7151591774
 10
-6.3694263324
 20
20.6979382117
 10
-6.3867012575
 20
20.6782799729
 10
-6.4012675147
 20
20.6565176327
 10
-6.4128705323
 20
20.6330226523
 10
-6.4213066093
 20
20.6081961771
 10
-6.4264260978
 20
20.582461929
 10
-6.428135869
 20
20.5562607898
  0
LWPOLYLINE
  5
7C4
100
AcDbEntity
  8
RACCORDO
100
AcDbPolyline
 62
253
  6
CONTINUOUS
 90
19
 70
0
 10
7.4144538492
 20
21.18553092
 10
7.3790854477
 20
21.1838948779
 10
7.3445238028
 20
21.179336393
 10
7.3107689143
 20
21.1718554654
 10
7.2775847811
 20
21.1613515683
 10
7.2452074043
 20
21.1479252286
 10
7.2143447882
 20
21.1318780261
 10
7.1850246143
 20
21.113150711
 10
7.157219201
 20
21.0918025332
 10
7.131553508
 20
21.0683128229
 10
7.1080724215
 20
21.0426228188
 10
7.0867310553
 20
21.0147912821
 10
7.0680197102
 20
20.9854738268
 10
7.05200899
 20
20.9546715788
 10
7.0386282907
 20
20.9223834121
 10
7.0281561013
 20
20.8892615624
 10
7.0206852511
 20
20.8555234415
 10
7.0161229107
 20
20.8209516377
 10
7.01446908
 20
20.7855461508
  0
LWPOLYLINE
  5
7C5
100
AcDbEntity
  8
RACCORDO
100
AcDbPolyline
 62
253
  6
CONTINUOUS
 90
19
 70
0
 10
7.414255356
 20
20.9855384478
 10
7.3968622429
 20
20.9847648133
 10
7.3795965187
 20
20.9824804731
 10
7.3625892854
 20
20.9787011498
 10
7.3459667356
 20
20.9734527983
 10
7.3298589417
 20
20.9667743194
 10
7.3143977581
 20
20.9587200162
 10
7.2997055421
 20
20.9493557337
 10
7.2858873036
 20
20.938750634
 10
7.2730405365
 20
20.9269792438
 10
7.2612583582
 20
20.9141234085
 10
7.2506378301
 20
20.900285264
 10
7.2412687207
 20
20.8855827402
 10
7.2332280123
 20
20.8701460568
 10
7.2265634549
 20
20.8540778584
 10
7.2213123856
 20
20.837461116
 10
7.217519988
 20
20.8204060811
 10
7.2152278112
 20
20.8030539488
 10
7.2144614653
 20
20.7855365128
  0
LWPOLYLINE
  5
7C6
100
AcDbEntity
  8
RACCORDO
100
AcDbPolyline
 62
253
  6
CONTINUOUS
 90
10
 70
0
 10
5.3288718492
 20
21.2825097805
 10
5.3078679529
 20
21.2818392029
 10
5.2869374311
 20
21.2797723687
 10
5.2660802836
 20
21.2763088107
 10
5.2452769883
 20
21.2714795582
 10
5.2245470673
 20
21.2652520208
 10
5.2039490872
 20
21.2575300463
 10
5.1835025702
 20
21.2482811012
 10
5.1631879941
 20
21.2375366171
 10
5.1430053589
 20
21.2252970227
  0
LWPOLYLINE
  5
7C7
100
AcDbEntity
  8
RACCORDO
100
AcDbPolyline
 62
253
  6
CONTINUOUS
 90
10
 70
0
 10
-6.3855783932
 20
21.0710976928
 10
-6.3960348549
 20
21.070825944
 10
-6.4065158694
 20
21.070002878
 10
-6.4169918286
 20
21.0686224103
 10
-6.4274122625
 20
21.0666847649
 10
-6.4377668512
 20
21.0641845222
 10
-6.4480829049
 20
21.0610999169
 10
-6.4583443504
 20
21.0574140948
 10
-6.4684944235
 20
21.0531260418
 10
-6.4784948813
 20
21.0482311979
  0
LWPOLYLINE
  5
7C8
100
AcDbEntity
  8
RACCORDO
100
AcDbPolyline
 62
253
  6
CONTINUOUS
 90
10
 70
0
 10
5.3288718492
 20
21.0710976899
 10
5.3184034944
 20
21.0708278284
 10
5.307912417
 20
21.0700060129
 10
5.2974282468
 20
21.0686264701
 10
5.2870017095
 20
21.0666898443
 10
5.2766428032
 20
21.0641909724
 10
5.2663233763
 20
21.061107937
 10
5.2560592191
 20
21.0574237966
 10
5.2459073125
 20
21.0531377571
 10
5.2359058453
 20
21.0482453455
  0
LINE
  5
7C9
100
AcDbEntity
  8
RACCORDO
100
AcDbLine
 62
7
  6
CONTINUOUS
 10
6.2281713117
 20
20.7562859877
 11
5.6440771199
 21
20.7558924191
  0
LINE
  5
7CA
100
AcDbEntity
  8
RACCORDO
100
AcDbLine
 62
7
  6
CONTINUOUS
 10
9.505776808
 20
20.8296399342
 11
7.5712884313
 21
20.8287039533
  0
LINE
  5
7CB
100
AcDbEntity
  8
RACCORDO
100
AcDbLine
 62
7
  6
CONTINUOUS
 10
5.2450589658
 20
19.9274760402
 11
1.748673248
 21
19.9267677729
  0
LINE
  5
7CC
100
AcDbEntity
  8
DRAFT
100
AcDbLine
 62
7
  6
CONTINUOUS
 10
-11.1261859216
 20
19.5
 11
-9.6465076573
 21
19.5
  0
LINE
  5
7CD
100
AcDbEntity
  8
DRAFT
100
AcDbLine
 62
7
  6
CONTINUOUS
 10
11.1261859216
 20
19.5
 11
9.6465076573
 21
19.5
  0
LINE
  5
7CE
100
AcDbEntity
  8
RACCORDO
100
AcDbLine
 62
253
  6
CONTINUOUS
 10
7.01446908
 20
19.7712959731
 11
6.78553092
 21
19.7712959731
  0
LINE
  5
7CF
100
AcDbEntity
  8
RACCORDO
100
AcDbLine
 62
253
  6
CONTINUOUS
 10
-6.78553092
 20
19.7712959731
 11
-7.01446908
 21
19.7712959731
  0
LINE
  5
7D0
100
AcDbEntity
  8
RACCORDO
100
AcDbLine
 62
253
  6
CONTINUOUS
 10
6.5855385354
 20
19.9705349127
 11
7.2144614646
 21
19.9705349127
  0
LINE
  5
7D1
100
AcDbEntity
  8
RACCORDO
100
AcDbLine
 62
253
  6
CONTINUOUS
 10
-6.5855385354
 20
19.9705349127
 11
-7.2144614646
 21
19.9705349127
  0
LINE
  5
7D2
100
AcDbEntity
  8
RACCORDO
100
AcDbLine
 62
7
  6
CONTINUOUS
 10
4.9289098981
 20
20.0855385354
 11
-4.9289098981
 21
20.0855385354
  0
LINE
  5
7D3
100
AcDbEntity
  8
RACCORDO
100
AcDbLine
 62
253
  6
CONTINUOUS
 10
5.1288794371
 20
20.28553092
 11
-5.1288794371
 21
20.28553092
  0
LINE
  5
7D4
100
AcDbEntity
  8
ASSI
100
AcDbLine
 62
7
  6
CONTINUOUS
 10
-11.1261859216
 20
20.4226497308
 11
-11.0825449351
 21
20.4226497308
  0
LINE
  5
7D5
100
AcDbEntity
  8
ASSI
100
AcDbLine
 62
7
  6
CONTINUOUS
 10
11.1261859216
 20
20.4226497308
 11
11.0825449351
 21
20.4226497308
  0
LINE
  5
7D6
100
AcDbEntity
  8
RACCORDO
100
AcDbLine
 62
253
  6
CONTINUOUS
 10
-7.2144614646
 20
20.7855461508
 11
-7.01446908
 21
20.7855461507
  0
LINE
  5
7D7
100
AcDbEntity
  8
RACCORDO
100
AcDbLine
 62
253
  6
CONTINUOUS
 10
7.2144614646
 20
20.7855461508
 11
7.01446908
 21
20.7855461508
  0
LINE
  5
7D8
100
AcDbEntity
  8
ASSI
100
AcDbLine
 62
7
  6
CONTINUOUS
 10
3.3850964806
 20
20.8
 11
-3.3850964806
 21
20.8
  0
LINE
  5
7D9
100
AcDbEntity
  8
RACCORDO
100
AcDbLine
 62
253
  6
CONTINUOUS
 10
6.5855385354
 20
20.8710900996
 11
6.78553092
 21
20.8710900996
  0
LINE
  5
7DA
100
AcDbEntity
  8
RACCORDO
100
AcDbLine
 62
253
  6
CONTINUOUS
 10
-6.5855385354
 20
20.8710900996
 11
-6.78553092
 21
20.8710900996
  0
LINE
  5
7DB
100
AcDbEntity
  8
RACCORDO
100
AcDbLine
 62
253
  6
CONTINUOUS
 10
-5.1288794371
 20
20.8711510238
 11
-4.9289098981
 21
20.8711510237
  0
LINE
  5
7DC
100
AcDbEntity
  8
RACCORDO
100
AcDbLine
 62
253
  6
CONTINUOUS
 10
5.1288794371
 20
20.8711510238
 11
4.9289098981
 21
20.8711510238
  0
LINE
  5
7DD
100
AcDbEntity
  8
RACCORDO
100
AcDbLine
 62
7
  6
CONTINUOUS
 10
9.6465076573
 20
20.9
 11
8.0325449339
 21
20.9
  0
LINE
  5
7DE
100
AcDbEntity
  8
RACCORDO
100
AcDbLine
 62
7
  6
CONTINUOUS
 10
-8.0325449339
 20
20.9
 11
-9.6465076573
 21
20.9
  0
LINE
  5
7DF
100
AcDbEntity
  8
RACCORDO
100
AcDbLine
 62
7
  6
CONTINUOUS
 10
7.8614548332
 20
20.9855385354
 11
7.414255367
 21
20.9855385354
  0
LINE
  5
7E0
100
AcDbEntity
  8
RACCORDO
100
AcDbLine
 62
7
  6
CONTINUOUS
 10
-7.4144655397
 20
20.9855385354
 11
-7.8614548332
 21
20.9855385354
  0
LINE
  5
7E1
100
AcDbEntity
  8
RACCORDO
100
AcDbLine
 62
253
  6
CONTINUOUS
 10
6.3855790746
 20
21.0710976899
 11
5.3288718492
 21
21.0710976899
  0
LINE
  5
7E2
100
AcDbEntity
  8
RACCORDO
100
AcDbLine
 62
253
  6
CONTINUOUS
 10
-5.3288983544
 20
21.0710976899
 11
-6.3855783915
 21
21.0710976899
  0
LINE
  5
7E3
100
AcDbEntity
  8
RACCORDO
100
AcDbLine
 62
253
  6
CONTINUOUS
 10
8.0614243722
 20
21.18553092
 11
7.4144538492
 21
21.18553092
  0
LINE
  5
7E4
100
AcDbEntity
  8
RACCORDO
100
AcDbLine
 62
253
  6
CONTINUOUS
 10
-7.4144538492
 20
21.18553092
 11
-8.0614243722
 21
21.18553092
  0
LINE
  5
7E5
100
AcDbEntity
  8
RACCORDO
100
AcDbLine
 62
253
  6
CONTINUOUS
 10
8.0614243722
 20
21.2252970227
 11
6.5714059779
 21
21.2252970227
  0
LINE
  5
7E6
100
AcDbEntity
  8
RACCORDO
100
AcDbLine
 62
253
  6
CONTINUOUS
 10
5.1430053589
 20
21.2252970227
 11
3.3850964806
 21
21.2252970227
  0
LINE
  5
7E7
100
AcDbEntity
  8
ASSI
100
AcDbLine
 62
253
  6
CONTINUOUS
 10
-3.3850964806
 20
21.2252970227
 11
-3.1351059998
 21
21.2252970227
  0
LINE
  5
7E8
100
AcDbEntity
  8
ASSI
100
AcDbLine
 62
253
  6
CONTINUOUS
 10
3.3850964806
 20
21.2252970227
 11
3.1351059998
 21
21.2252970227
  0
LINE
  5
7E9
100
AcDbEntity
  8
RACCORDO
100
AcDbLine
 62
253
  6
CONTINUOUS
 10
-3.3850964806
 20
21.2252970227
 11
-5.1430053589
 21
21.2252970227
  0
LINE
  5
7EA
100
AcDbEntity
  8
RACCORDO
100
AcDbLine
 62
253
  6
CONTINUOUS
 10
-6.5714059779
 20
21.2252970227
 11
-8.0614243722
 21
21.2252970227
  0
LINE
  5
7EB
100
AcDbEntity
  8
RACCORDO
100
AcDbLine
 62
253
  6
CONTINUOUS
 10
6.385565175
 20
21.2825097805
 11
5.3288718492
 21
21.2825097805
  0
LINE
  5
7EC
100
AcDbEntity
  8
RACCORDO
100
AcDbLine
 62
253
  6
CONTINUOUS
 10
-5.3288718492
 20
21.2825097805
 11
-6.385565175
 21
21.2825097805
  0
LINE
  5
7ED
100
AcDbEntity
  8
RACCORDO
100
AcDbLine
 62
7
  6
CONTINUOUS
 10
1.748673248
 20
19.9267677729
 11
-1.7486691537
 21
19.9267677724
  0
LINE
  5
7EE
100
AcDbEntity
  8
RACCORDO
100
AcDbLine
 62
7
  6
CONTINUOUS
 10
-1.7486691537
 20
19.9267677724
 11
-5.2450589658
 21
19.9274760402
  0
LINE
  5
7EF
100
AcDbEntity
  8
RACCORDO
100
AcDbLine
 62
7
  6
CONTINUOUS
 10
-7.5712884313
 20
20.8287039533
 11
-9.505776808
 21
20.8296399342
  0
LINE
  5
7F0
100
AcDbEntity
  8
RACCORDO
100
AcDbLine
 62
7
  6
CONTINUOUS
 10
-5.6440771199
 20
20.7558924191
 11
-6.2281713117
 21
20.7562859877
  0
LWPOLYLINE
  5
7F1
100
AcDbEntity
  8
RACCORDO
100
AcDbPolyline
 62
253
  6
CONTINUOUS
 90
13
 70
0
 10
-4.9289098981
 20
20.0855385354
 10
-4.9550085405
 20
20.0872531282
 10
-4.9806607198
 20
20.0923596255
 10
-5.0054276084
 20
20.1007706719
 10
-5.0288855063
 20
20.1123423721
 10
-5.0506331421
 20
20.126876777
 10
-5.0702985238
 20
20.1441252911
 10
-5.0875452445
 20
20.1637928923
 10
-5.1020782178
 20
20.1855431202
 10
-5.1136487884
 20
20.209003859
 10
-5.1220590092
 20
20.2337737492
 10
-5.1271650098
 20
20.2594290654
 10
-5.1288794371
 20
20.28553092
  0
LWPOLYLINE
  5
7F2
100
AcDbEntity
  8
RACCORDO
100
AcDbPolyline
 62
253
  6
CONTINUOUS
 90
13
 70
0
 10
-7.8614548332
 20
20.9855385354
 10
-7.8875534756
 20
20.9872531282
 10
-7.9132056561
 20
20.9923596258
 10
-7.9379725471
 20
21.0007706733
 10
-7.9614304484
 20
21.0123423761
 10
-7.9831780879
 20
21.0268767852
 10
-8.0028434723
 20
21.0441253045
 10
-8.0200901951
 20
21.0637929126
 10
-8.0346231689
 20
21.085543148
 10
-8.0461937362
 20
21.1090038897
 10
-8.0546039514
 20
21.1337737757
 10
-8.059709947
 20
21.1594290817
 10
-8.0614243722
 20
21.18553092
  0
LWPOLYLINE
  5
7F3
100
AcDbEntity
  8
RACCORDO
100
AcDbPolyline
 62
7
  6
CONTINUOUS
 90
13
 70
0
 10
-5.2450589658
 20
19.9274760402
 10
-5.2711998236
 20
19.9292026047
 10
-5.2968794216
 20
19.9343334877
 10
-5.3216575361
 20
19.9427770237
 10
-5.3451102437
 20
19.9543853981
 10
-5.3668368208
 20
19.9689561081
 10
-5.3864669208
 20
19.9862349957
 10
-5.4036656467
 20
20.0059214652
 10
-5.4181438345
 20
20.027677726
 10
-5.42966085
 20
20.0511344135
 10
-5.4380225601
 20
20.0758918785
 10
-5.4430865754
 20
20.1015257492
 10
-5.4447682533
 20
20.1275985407
  0
LWPOLYLINE
  5
7F4
100
AcDbEntity
  8
RACCORDO
100
AcDbPolyline
 62
253
  6
CONTINUOUS
 90
13
 70
0
 10
6.78553092
 20
19.7712959731
 10
6.7594393394
 20
19.773018598
 10
6.7337937546
 20
19.7781174883
 10
6.7090325415
 20
19.7865054869
 10
6.6855789752
 20
19.7980392042
 10
6.6638339436
 20
19.8125214939
 10
6.6441691077
 20
19.8297048426
 10
6.6269206045
 20
19.849295571
 10
6.6123833236
 20
19.8709587919
 10
6.6008058038
 20
19.8943241597
 10
6.5923859567
 20
19.9189922531
 10
6.5872677029
 20
19.9445414153
 10
6.5855385354
 20
19.9705349127
  0
LINE
  5
7F5
100
AcDbEntity
  8
DRAFT
100
AcDbLine
 62
7
  6
CONTINUOUS
 10
6.0
 20
18.8839326584
 11
6.7019074668
 21
18.7085226158
  0
LINE
  5
7F6
100
AcDbEntity
  8
RACCORDO
100
AcDbLine
 62
253
  6
CONTINUOUS
 10
4.9289098981
 20
20.0855385354
 11
5.2450589658
 21
19.9274760402
  0
LINE
  5
7F7
100
AcDbEntity
  8
RACCORDO
100
AcDbLine
 62
253
  6
CONTINUOUS
 10
5.1288794371
 20
20.28553092
 11
5.4447682533
 21
20.1275985407
  0
LWPOLYLINE
  5
7F8
100
AcDbEntity
  8
RACCORDO
100
AcDbPolyline
 62
7
  6
CONTINUOUS
 90
5
 70
0
 10
8.049455854
 20
21.4668163882
 10
8.0546995029
 20
21.4617619751
 10
8.0585187913
 20
21.4581401679
 10
8.0609565365
 20
21.4559096154
 10
8.0620127384
 20
21.4550703176
  0
LINE
  5
7F9
100
AcDbEntity
  8
RACCORDO
100
AcDbLine
 62
7
  6
CONTINUOUS
 10
8.0349523779
 20
21.4809749247
 11
8.049455854
 21
21.4668163882
  0
LINE
  5
7FA
100
AcDbEntity
  8
RACCORDO
100
AcDbLine
 62
7
  6
CONTINUOUS
 10
7.9914450373
 20
21.523974683
 11
8.0349523779
 21
21.4809749247
  0
LINE
  5
7FB
100
AcDbEntity
  8
RACCORDO
100
AcDbLine
 62
253
  6
CONTINUOUS
 10
7.414255367
 20
20.9855385354
 11
7.5712884313
 21
20.8287039533
  0
LINE
  5
7FC
100
AcDbEntity
  8
ASSI
100
AcDbLine
 62
253
  6
CONTINUOUS
 10
3.7499619238
 20
23.9825449351
 11
3.8306228363
 21
23.9018840226
  0
LINE
  5
7FD
100
AcDbEntity
  8
RACCORDO
100
AcDbLine
 62
253
  6
CONTINUOUS
 10
7.2144614646
 20
20.7855365134
 11
7.3714633245
 21
20.6285442909
  0
LINE
  5
7FE
100
AcDbEntity
  8
ASSI
100
AcDbLine
 62
7
  6
CONTINUOUS
 10
8.2325449351
 20
21.4051134101
 11
7.2551134101
 21
22.3825449351
  0
LINE
  5
7FF
100
AcDbEntity
  8
RACCORDO
100
AcDbLine
 62
7
  6
CONTINUOUS
 10
7.8978361157
 20
21.6174372236
 11
7.9914450373
 21
21.523974683
  0
LINE
  5
800
100
AcDbEntity
  8
RACCORDO
100
AcDbLine
 62
7
  6
CONTINUOUS
 10
7.5816836418
 20
21.9362203
 11
7.8978361157
 21
21.6174372236
  0
LINE
  5
801
100
AcDbEntity
  8
RACCORDO
100
AcDbLine
 62
7
  6
CONTINUOUS
 10
7.4222559615
 20
22.0983097071
 11
7.5816836418
 21
21.9362203
  0
LINE
  5
802
100
AcDbEntity
  8
RACCORDO
100
AcDbLine
 62
7
  6
CONTINUOUS
 10
7.3595270589
 20
22.1627618209
 11
7.4222559615
 21
22.0983097071
  0
LWPOLYLINE
  5
803
100
AcDbEntity
  8
ASSI
100
AcDbPolyline
 62
7
  6
CONTINUOUS
 90
10
 70
0
 10
9.2533769702
 20
-23.6278312163
 10
9.2350842877
 20
-23.6471440832
 10
9.2141426279
 20
-23.6678668702
 10
9.191208609
 20
-23.6899995776
 10
9.1670704349
 20
-23.7138409674
 10
9.1421427254
 20
-23.7390922775
 10
9.1163509653
 20
-23.7648572212
 10
9.0898795542
 20
-23.7908370363
 10
9.0632743239
 20
-23.817330485
 10
9.0368706193
 20
-23.8443375673
  0
LINE
  5
804
100
AcDbEntity
  8
ASSI
100
AcDbLine
 62
7
  6
CONTINUOUS
 10
8.5
 20
-22.4
 11
8.5131674569
 21
-22.3868325431
  0
LINE
  5
805
100
AcDbEntity
  8
ASSI
100
AcDbLine
 62
253
  6
CONTINUOUS
 10
7.2131674569
 20
-24.286863004
 11
7.2
 21
-24.300030461
  0
LINE
  5
806
100
AcDbEntity
  8
ASSI
100
AcDbLine
 62
253
  6
CONTINUOUS
 10
7.4131369959
 20
-24.4868325431
 11
7.399969539
 21
-24.5
  0
LWPOLYLINE
  5
807
100
AcDbEntity
  8
RACCORDO
100
AcDbPolyline
 62
7
  6
CONTINUOUS
 90
6
 70
0
 10
8.0620127384
 20
-21.4550703176
 10
8.061148476
 20
-21.4557280534
 10
8.0588740631
 20
-21.4578024065
 10
8.0551894997
 20
-21.461293377
 10
8.0500766742
 20
-21.466216733
 10
8.0356749064
 20
-21.4802659925
  0
LWPOLYLINE
  5
808
100
AcDbEntity
  8
RACCORDO
100
AcDbPolyline
 62
253
  6
CONTINUOUS
 90
13
 70
0
 10
6.5714059779
 20
-21.2252970227
 10
6.6030465646
 20
-21.2067220645
 10
6.6324564263
 20
-21.1857661206
 10
6.6596355631
 20
-21.1624291909
 10
6.6847736832
 20
-21.1364729562
 10
6.7076810784
 20
-21.1081357358
 10
6.7277886233
 20
-21.0781324871
 10
6.7450165307
 20
-21.0464595371
 10
6.7594445878
 20
-21.0131205589
 10
6.7707430316
 20
-20.9788415283
 10
6.7788019411
 20
-20.9438644376
 10
6.7837312372
 20
-20.9079472947
 10
6.78553092
 20
-20.8710900996
  0
LINE
  5
809
100
AcDbEntity
  8
RACCORDO
100
AcDbLine
 62
253
  6
CONTINUOUS
 10
7.8614548332
 20
-20.9855385354
 11
8.0325449339
 21
-20.9
  0
LINE
  5
80A
100
AcDbEntity
  8
RACCORDO
100
AcDbLine
 62
253
  6
CONTINUOUS
 10
8.0614243722
 20
-21.18553092
 11
8.2325449351
 21
-21.0999771547
  0
LINE
  5
80B
100
AcDbEntity
  8
RACCORDO
100
AcDbLine
 62
7
  6
CONTINUOUS
 10
8.0620127384
 20
-21.4550703176
 11
8.2325449351
 21
-21.4051134101
  0
LINE
  5
80C
100
AcDbEntity
  8
ASSI
100
AcDbLine
 62
7
  6
CONTINUOUS
 10
-0.8174550649
 20
22.398254669
 11
-0.8
 21
22.4
  0
LWPOLYLINE
  5
80D
100
AcDbEntity
  8
ASSI
100
AcDbPolyline
 62
253
  6
CONTINUOUS
 90
13
 70
0
 10
3.3786655583
 20
22.2251447178
 10
3.3460374312
 20
22.2230015771
 10
3.3139676388
 20
22.2166187926
 10
3.2830048154
 20
22.2061056129
 10
3.2536786203
 20
22.1916419302
 10
3.226490759
 20
22.1734752392
 10
3.2019063798
 20
22.1519164339
 10
3.1803460088
 20
22.1273344113
 10
3.1621783917
 20
22.1001497384
 10
3.1477142491
 20
22.0708275208
 10
3.1372009266
 20
22.0398694056
 10
3.1308181731
 20
22.0078049933
 10
3.1286750776
 20
21.975182794
  0
LWPOLYLINE
  5
80E
100
AcDbEntity
  8
ASSI
100
AcDbPolyline
 62
7
  6
CONTINUOUS
 90
16
 70
0
 10
-10.6000000646
 20
22.3999999296
 10
-10.6518961978
 20
22.3973188641
 10
-10.7034419043
 20
22.3892214715
 10
-10.7540657836
 20
22.3757291386
 10
-10.8033748714
 20
22.3568441144
 10
-10.8506021346
 20
22.332753888
 10
-10.8947079968
 20
22.3040171503
 10
-10.9349362959
 20
22.2713500847
 10
-10.9713142863
 20
22.2349698278
 10
-11.0039800191
 20
22.1947398811
 10
-11.0327165209
 20
22.1506321718
 10
-11.0568074185
 20
22.1034036118
 10
-11.0756956352
 20
22.054097956
 10
-11.0891949317
 20
22.0034838189
 10
-11.0973032882
 20
21.9519527996
 10
-11.1
 20
21.9000761524
  0
LWPOLYLINE
  5
80F
100
AcDbEntity
  8
RACCORDO
100
AcDbPolyline
 62
253
  6
CONTINUOUS
 90
10
 70
0
 10
-6.385565175
 20
21.2825097805
 10
-6.4065626009
 20
21.2818397004
 10
-6.4274872639
 20
21.27977344
 10
-6.4483391639
 20
21.2763105323
 10
-6.4691374329
 20
21.2714822744
 10
-6.489862939
 20
21.2652558087
 10
-6.5104582861
 20
21.2575341793
 10
-6.5309043423
 20
21.2482845845
 10
-6.5512202396
 20
21.2375387228
 10
-6.5714059779
 20
21.2252970227
  0
LWPOLYLINE
  5
810
100
AcDbEntity
  8
ASSI
100
AcDbPolyline
 62
253
  6
CONTINUOUS
 90
4
 70
0
 10
4.3313668587
 20
23.651199951
 10
4.3422538457
 20
23.6514324171
 10
4.3491155958
 20
23.6516729273
 10
4.351882222
 20
23.6519214817
  0
LINE
  5
811
100
AcDbEntity
  8
ASSI
100
AcDbLine
 62
7
  6
CONTINUOUS
 10
-3.1173032135
 20
21.6326967865
 11
3.1173032135
 21
21.6326967865
  0
LINE
  5
812
100
AcDbEntity
  8
ASSI
100
AcDbLine
 62
7
  6
CONTINUOUS
 10
-3.05
 20
21.7
 11
3.05
 21
21.7
  0
LINE
  5
813
100
AcDbEntity
  8
ASSI
100
AcDbLine
 62
253
  6
CONTINUOUS
 10
7.3012233427
 20
22.2251447178
 11
3.3786655583
 21
22.2251447178
  0
LINE
  5
814
100
AcDbEntity
  8
ASSI
100
AcDbLine
 62
253
  6
CONTINUOUS
 10
-3.3786655583
 20
22.2251447178
 11
-7.3012233427
 21
22.2251447178
  0
LINE
  5
815
100
AcDbEntity
  8
ASSI
100
AcDbLine
 62
7
  6
CONTINUOUS
 10
10.5826210875
 20
22.3825449351
 11
9.0368706193
 21
22.3825449351
  0
LINE
  5
816
100
AcDbEntity
  8
ASSI
100
AcDbLine
 62
7
  6
CONTINUOUS
 10
8.7631293807
 20
22.3825449351
 11
7.2551134101
 21
22.3825449351
  0
LINE
  5
817
100
AcDbEntity
  8
ASSI
100
AcDbLine
 62
7
  6
CONTINUOUS
 10
-3.5
 20
22.3825449351
 11
-3.2999714434
 21
22.3825449351
  0
LINE
  5
818
100
AcDbEntity
  8
ASSI
100
AcDbLine
 62
7
  6
CONTINUOUS
 10
3.2999714434
 20
22.3825449351
 11
3.5
 21
22.3825449351
  0
LINE
  5
819
100
AcDbEntity
  8
ASSI
100
AcDbLine
 62
7
  6
CONTINUOUS
 10
-7.2551134101
 20
22.3825449351
 11
-8.7631293807
 21
22.3825449351
  0
LINE
  5
81A
100
AcDbEntity
  8
ASSI
100
AcDbLine
 62
7
  6
CONTINUOUS
 10
-9.0368706193
 20
22.3825449351
 11
-10.5826210875
 21
22.3825449351
  0
LINE
  5
81B
100
AcDbEntity
  8
ASSI
100
AcDbLine
 62
7
  6
CONTINUOUS
 10
-0.8174550649
 20
22.398254669
 11
0.8174550649
 21
22.398254669
  0
LINE
  5
81C
100
AcDbEntity
  8
ASSI
100
AcDbLine
 62
7
  6
CONTINUOUS
 10
-10.6000000646
 20
22.3999999354
 11
-9.3
 21
22.4
  0
LINE
  5
81D
100
AcDbEntity
  8
ASSI
100
AcDbLine
 62
7
  6
CONTINUOUS
 10
-8.5
 20
22.4
 11
-4.45
 21
22.4
  0
LINE
  5
81E
100
AcDbEntity
  8
ASSI
100
AcDbLine
 62
7
  6
CONTINUOUS
 10
4.45
 20
22.4
 11
8.5
 21
22.4
  0
LINE
  5
81F
100
AcDbEntity
  8
ASSI
100
AcDbLine
 62
7
  6
CONTINUOUS
 10
9.3
 20
22.4
 11
10.6
 21
22.3999999999
  0
LINE
  5
820
100
AcDbEntity
  8
ASSI
100
AcDbLine
 62
7
  6
CONTINUOUS
 10
-10.4017150409
 20
23.1226497308
 11
-9.3
 21
23.1226497308
  0
LINE
  5
821
100
AcDbEntity
  8
ASSI
100
AcDbLine
 62
7
  6
CONTINUOUS
 10
-8.5
 20
23.1226497308
 11
-7.3982849591
 21
23.1226497308
  0
LINE
  5
822
100
AcDbEntity
  8
ASSI
100
AcDbLine
 62
7
  6
CONTINUOUS
 10
7.3982849591
 20
23.1226497308
 11
8.5
 21
23.1226497308
  0
LINE
  5
823
100
AcDbEntity
  8
ASSI
100
AcDbLine
 62
7
  6
CONTINUOUS
 10
9.3
 20
23.1226497308
 11
10.4017150409
 21
23.1226497308
  0
LWPOLYLINE
  5
824
100
AcDbEntity
  8
ASSI
100
AcDbPolyline
 62
7
  6
CONTINUOUS
 90
16
 70
0
 10
10.6
 20
22.3999997358
 10
10.6519014622
 20
22.3973199893
 10
10.7034529055
 20
22.3892205185
 10
10.7540825694
 20
22.3757237075
 10
10.8033981686
 20
22.3568330612
 10
10.8506316256
 20
22.3327366144
 10
10.8947407691
 20
22.3039932453
 10
10.9349703626
 20
22.2713195516
 10
10.9713475964
 20
22.2349337381
 10
11.0040079332
 20
22.1947016024
 10
11.0327349164
 20
22.1506009559
 10
11.0568171282
 20
22.1033850541
 10
11.0757000376
 20
22.0540843526
 10
11.0891965607
 20
22.0034612067
 10
11.0973037172
 20
21.9519097908
 10
11.1
 20
21.8999997649
  0
LWPOLYLINE
  5
825
100
AcDbEntity
  8
ASSI
100
AcDbPolyline
 62
253
  6
CONTINUOUS
 90
13
 70
0
 10
-3.3786655583
 20
22.2251447178
 10
-3.3460383978
 20
22.2230017045
 10
-3.313969389
 20
22.2166192618
 10
-3.2830071354
 20
22.2061065741
 10
-3.2536813069
 20
22.1916434815
 10
-3.2264935797
 20
22.1734774037
 10
-3.2019090531
 20
22.1519191071
 10
-3.1803482937
 20
22.1273373888
 10
-3.1621801408
 20
22.1001527673
 10
-3.147715396
 20
22.0708302889
 10
-3.1372015075
 20
22.0398715723
 10
-3.1308183358
 20
22.0078062271
 10
-3.1286750776
 20
21.975182794
  0
LWPOLYLINE
  5
826
100
AcDbEntity
  8
ASSI
100
AcDbPolyline
 62
253
  6
CONTINUOUS
 90
5
 70
0
 10
-4.3518840226
 20
23.6519220988
 10
-4.3491225006
 20
23.6516733434
 10
-4.3422590315
 20
23.6514327255
 10
-4.3313671017
 20
23.6512002451
 10
-4.2980063038
 20
23.650755106
  0
LINE
  5
827
100
AcDbEntity
  8
ASSI
100
AcDbLine
 62
7
  6
CONTINUOUS
 10
0.8174550649
 20
22.398254669
 11
0.8
 21
22.4
  0
LWPOLYLINE
  5
828
100
AcDbEntity
  8
ASSI
100
AcDbPolyline
 62
253
  6
CONTINUOUS
 90
9
 70
0
 10
-4.1019220988
 20
23.9018840226
 10
-4.1009062435
 20
23.9016368438
 10
-4.0985215991
 20
23.9013973364
 10
-4.0947681654
 20
23.9011655004
 10
-4.0895764002
 20
23.9009388928
 10
-4.0830158459
 20
23.9007199567
 10
-4.0752951291
 20
23.9005160208
 10
-4.0663778848
 20
23.9003276997
 10
-4.04538063
 20
23.9000015429
  0
LINE
  5
829
100
AcDbEntity
  8
RACCORDO
100
AcDbLine
 62
7
  6
CONTINUOUS
 10
8.0620127384
 20
21.4550703176
 11
8.2325449351
 21
21.4051134101
  0
LWPOLYLINE
  5
82A
100
AcDbEntity
  8
RACCORDO
100
AcDbPolyline
 62
253
  6
CONTINUOUS
 90
10
 70
0
 10
6.4784948813
 20
21.0482311979
 10
6.4685483358
 20
21.0531015011
 10
6.4584371453
 20
21.0573778703
 10
6.4481979798
 20
21.0610620732
 10
6.4378811315
 20
21.0641536459
 10
6.4275068833
 20
21.0666645415
 10
6.4170634815
 20
21.0686110303
 10
6.4065667716
 20
21.0699975327
 10
6.3960620443
 20
21.0708245285
 10
6.3855790764
 20
21.0710976929
  0
LINE
  5
82B
100
AcDbEntity
  8
RACCORDO
100
AcDbLine
 62
253
  6
CONTINUOUS
 10
8.0325449339
 20
20.9
 11
7.8614548332
 21
20.9855385354
  0
LINE
  5
82C
100
AcDbEntity
  8
RACCORDO
100
AcDbLine
 62
253
  6
CONTINUOUS
 10
8.2325449351
 20
21.0999771547
 11
8.0614243722
 21
21.18553092
  0
LWPOLYLINE
  5
82D
100
AcDbEntity
  8
RACCORDO
100
AcDbPolyline
 62
253
  6
CONTINUOUS
 90
10
 70
0
 10
6.5714059779
 20
21.2252970227
 10
6.5513343652
 20
21.2374883071
 10
6.5310972618
 20
21.2482018656
 10
6.5106946678
 20
21.2574372658
 10
6.4900983839
 20
21.2651701128
 10
6.4693366093
 20
21.271425868
 10
6.4484939414
 20
21.2762795287
 10
6.4275985793
 20
21.279756644
 10
6.4066223238
 20
21.2818332378
 10
6.385565175
 20
21.2825097805
  0
LWPOLYLINE
  5
82E
100
AcDbEntity
  8
ASSI
100
AcDbPolyline
 62
7
  6
CONTINUOUS
 90
10
 70
0
 10
9.2533769702
 20
23.6278312164
 10
9.2340641034
 20
23.6461238989
 10
9.2133413164
 20
23.6670655587
 10
9.191208609
 20
23.6899995776
 10
9.1673672192
 20
23.7141377517
 10
9.1421159091
 20
23.7390654611
 10
9.1163509653
 20
23.7648572213
 10
9.0903711503
 20
23.7913286324
 10
9.0638777016
 20
23.8179338627
 10
9.0368706193
 20
23.8443375673
  0
LINE
  5
82F
100
AcDbEntity
  8
ASSI
100
AcDbLine
 62
7
  6
CONTINUOUS
 10
8.5
 20
22.4
 11
8.5131674569
 21
22.3868325431
  0
LINE
  5
830
100
AcDbEntity
  8
ASSI
100
AcDbLine
 62
253
  6
CONTINUOUS
 10
7.2
 20
24.300030461
 11
7.2131674569
 21
24.2868630041
  0
LINE
  5
831
100
AcDbEntity
  8
ASSI
100
AcDbLine
 62
253
  6
CONTINUOUS
 10
7.399969539
 20
24.5
 11
7.4131369959
 21
24.4868325431
  0
LWPOLYLINE
  5
832
100
AcDbEntity
  8
ASSI
100
AcDbPolyline
 62
253
  6
CONTINUOUS
 90
13
 70
0
 10
3.8306228363
 20
23.9018840226
 10
3.7980049686
 20
23.899736776
 10
3.7659444868
 20
23.8933515141
 10
3.7349897076
 20
23.8828372701
 10
3.7056700997
 20
23.8683737147
 10
3.6784871443
 20
23.8502080515
 10
3.6539057771
 20
23.8286507617
 10
3.6323465045
 20
23.8040703271
 10
3.6141782986
 20
23.7768870913
 10
3.599712153
 20
23.7475660561
 10
3.5891956479
 20
23.7166087507
 10
3.5828087724
 20
23.6845446147
 10
3.5806609125
 20
23.6519220987
  0
LWPOLYLINE
  5
833
100
AcDbEntity
  8
ASSI
100
AcDbPolyline
 62
253
  6
CONTINUOUS
 90
13
 70
0
 10
7.4131369959
 20
24.4868325431
 10
7.3870407301
 20
24.4851144853
 10
7.3613908123
 20
24.4800055957
 10
7.3366259503
 20
24.4715932572
 10
7.313169713
 20
24.4600213535
 10
7.2914232882
 20
24.4454878089
 10
7.2717586201
 20
24.4282412037
 10
7.2545120452
 20
24.4085765216
 10
7.2399785393
 20
24.3868301015
 10
7.228406675
 20
24.3633738862
 10
7.2199943707
 20
24.3386090625
 10
7.2148855055
 20
24.3129591998
 10
7.2131674569
 20
24.2868630041
  0
LWPOLYLINE
  5
834
100
AcDbEntity
  8
ASSI
100
AcDbPolyline
 62
253
  6
CONTINUOUS
 90
13
 70
0
 10
-4.1019220988
 20
23.9018840226
 10
-4.1345399665
 20
23.899736776
 10
-4.1666004483
 20
23.8933515141
 10
-4.1975552274
 20
23.8828372701
 10
-4.2268748353
 20
23.8683737147
 10
-4.2540577907
 20
23.8502080515
 10
-4.2786391579
 20
23.8286507617
 10
-4.3001984306
 20
23.8040703271
 10
-4.3183666365
 20
23.7768870913
 10
-4.3328327821
 20
23.7475660561
 10
-4.3433492872
 20
23.7166087507
 10
-4.3497361626
 20
23.6845446147
 10
-4.3518840225
 20
23.6519220987
  0
LWPOLYLINE
  5
835
100
AcDbEntity
  8
ASSI
100
AcDbPolyline
 62
7
  6
CONTINUOUS
 90
13
 70
0
 10
-10.400030461
 20
24.5
 10
-10.4261325878
 20
24.4982897358
 10
-10.4517877661
 20
24.4931875595
 10
-10.4765572875
 20
24.4847805782
 10
-10.5000177444
 20
24.4732123371
 10
-10.5217675502
 20
24.45868055
 10
-10.5414339722
 20
24.4414339722
 10
-10.55868055
 20
24.4217675502
 10
-10.5732123371
 20
24.4000177444
 10
-10.5847805782
 20
24.3765572875
 10
-10.5931875595
 20
24.3517877661
 10
-10.5982897358
 20
24.3261325878
 10
-10.6
 20
24.300030461
  0
LWPOLYLINE
  5
836
100
AcDbEntity
  8
ASSI
100
AcDbPolyline
 62
253
  6
CONTINUOUS
 90
13
 70
0
 10
-7.4135581409
 20
23.6278312164
 10
-7.3876000668
 20
23.6294928133
 10
-7.3620812288
 20
23.6340570922
 10
-7.3374334305
 20
23.6414468209
 10
-7.3140737363
 20
23.6515369579
 10
-7.2923974148
 20
23.6641567683
 10
-7.2727712505
 20
23.6790927123
 10
-7.2555273369
 20
23.6960920591
 10
-7.2409574574
 20
23.7148671634
 10
-7.2293081481
 20
23.7351003322
 10
-7.2207765266
 20
23.7564492008
 10
-7.2155069558
 20
23.7785525256
 10
-7.2135886019
 20
23.8010362971
  0
LWPOLYLINE
  5
837
100
AcDbEntity
  8
ASSI
100
AcDbPolyline
 62
253
  6
CONTINUOUS
 90
7
 70
0
 10
4.0751615897
 20
23.9005128001
 10
4.0829044281
 20
23.900716486
 10
4.0894877201
 20
23.9009352302
 10
4.0947020725
 20
23.9011620538
 10
4.0984776875
 20
23.9013946307
 10
4.100884363
 20
23.9016352869
 10
4.1019220988
 20
23.9018840226
  0
LWPOLYLINE
  5
838
100
AcDbEntity
  8
ASSI
100
AcDbPolyline
 62
253
  6
CONTINUOUS
 90
7
 70
0
 10
-3.8573833454
 20
23.9005128001
 10
-3.849640507
 20
23.900716486
 10
-3.843057215
 20
23.9009352302
 10
-3.8378428626
 20
23.9011620538
 10
-3.8340672475
 20
23.9013946307
 10
-3.8316605721
 20
23.9016352869
 10
-3.8306228363
 20
23.9018840226
  0
LWPOLYLINE
  5
839
100
AcDbEntity
  8
ASSI
100
AcDbPolyline
 62
253
  6
CONTINUOUS
 90
4
 70
0
 10
-3.6011780763
 20
23.651199951
 10
-3.5902910893
 20
23.6514324171
 10
-3.5834293393
 20
23.6516729273
 10
-3.5806627131
 20
23.6519214817
  0
LINE
  5
83A
100
AcDbEntity
  8
ASSI
100
AcDbLine
 62
253
  6
CONTINUOUS
 10
4.0561240023
 20
23.9001516101
 11
4.0751615897
 21
23.9005128001
  0
LINE
  5
83B
100
AcDbEntity
  8
ASSI
100
AcDbLine
 62
253
  6
CONTINUOUS
 10
-3.8764209328
 20
23.9001516101
 11
-3.8573833454
 21
23.9005128001
  0
LINE
  5
83C
100
AcDbEntity
  8
ASSI
100
AcDbLine
 62
253
  6
CONTINUOUS
 10
4.2980076314
 20
23.6507544435
 11
4.3313668587
 21
23.651199951
  0
LINE
  5
83D
100
AcDbEntity
  8
ASSI
100
AcDbLine
 62
253
  6
CONTINUOUS
 10
-3.6345373037
 20
23.6507544435
 11
-3.6011780763
 21
23.651199951
  0
LINE
  5
83E
100
AcDbEntity
  8
ASSI
100
AcDbLine
 62
253
  6
CONTINUOUS
 10
4.0333792124
 20
23.8998677172
 11
4.0561240023
 21
23.9001516101
  0
LINE
  5
83F
100
AcDbEntity
  8
ASSI
100
AcDbLine
 62
253
  6
CONTINUOUS
 10
-3.8991657227
 20
23.8998677172
 11
-3.8764209328
 21
23.9001516101
  0
LINE
  5
840
100
AcDbEntity
  8
ASSI
100
AcDbLine
 62
253
  6
CONTINUOUS
 10
4.1907784993
 20
23.6500376417
 11
4.2980076314
 21
23.6507544435
  0
LINE
  5
841
100
AcDbEntity
  8
ASSI
100
AcDbLine
 62
253
  6
CONTINUOUS
 10
-3.7417664358
 20
23.6500376417
 11
-3.6345373037
 21
23.6507544435
  0
LINE
  5
842
100
AcDbEntity
  8
ASSI
100
AcDbLine
 62
253
  6
CONTINUOUS
 10
3.9941060253
 20
23.8996080633
 11
4.0333792124
 21
23.8998677172
  0
LINE
  5
843
100
AcDbEntity
  8
ASSI
100
AcDbLine
 62
253
  6
CONTINUOUS
 10
-3.9384389098
 20
23.8996080633
 11
-3.8991657227
 21
23.8998677172
  0
LINE
  5
844
100
AcDbEntity
  8
ASSI
100
AcDbLine
 62
253
  6
CONTINUOUS
 10
-10.3864405812
 20
23.6278734826
 11
-9.2533769702
 21
23.6278312164
  0
LINE
  5
845
100
AcDbEntity
  8
ASSI
100
AcDbLine
 62
253
  6
CONTINUOUS
 10
9.2533769702
 20
23.6278312164
 11
10.3864405814
 21
23.6278734767
  0
LINE
  5
846
100
AcDbEntity
  8
ASSI
100
AcDbLine
 62
253
  6
CONTINUOUS
 10
-8.5466230298
 20
23.6278312164
 11
-7.4135581657
 21
23.6278320349
  0
LINE
  5
847
100
AcDbEntity
  8
ASSI
100
AcDbLine
 62
253
  6
CONTINUOUS
 10
7.4135581719
 20
23.6278322392
 11
8.5466230298
 21
23.6278312164
  0
LINE
  5
848
100
AcDbEntity
  8
ASSI
100
AcDbLine
 62
253
  6
CONTINUOUS
 10
-10.5859750215
 20
23.8443375673
 11
-9.0368706193
 21
23.8443375673
  0
LINE
  5
849
100
AcDbEntity
  8
ASSI
100
AcDbLine
 62
253
  6
CONTINUOUS
 10
10.5859750215
 20
23.8443375673
 11
9.0368706193
 21
23.8443375673
  0
LINE
  5
84A
100
AcDbEntity
  8
ASSI
100
AcDbLine
 62
253
  6
CONTINUOUS
 10
8.7631293807
 20
23.8443375673
 11
7.2140249785
 21
23.8443375673
  0
LINE
  5
84B
100
AcDbEntity
  8
ASSI
100
AcDbLine
 62
253
  6
CONTINUOUS
 10
-7.2140249785
 20
23.8443375673
 11
-8.7631293807
 21
23.8443375673
  0
LINE
  5
84C
100
AcDbEntity
  8
ASSI
100
AcDbLine
 62
7
  6
CONTINUOUS
 10
-3.7499619238
 20
23.9825449351
 11
-1.0674169887
 21
23.9825449351
  0
LINE
  5
84D
100
AcDbEntity
  8
ASSI
100
AcDbLine
 62
7
  6
CONTINUOUS
 10
1.0674169887
 20
23.9825449351
 11
3.7499619238
 21
23.9825449351
  0
LINE
  5
84E
100
AcDbEntity
  8
ASSI
100
AcDbLine
 62
7
  6
CONTINUOUS
 10
-4.2000380762
 20
24.0
 11
-1.0499619238
 21
24.0
  0
LINE
  5
84F
100
AcDbEntity
  8
ASSI
100
AcDbLine
 62
7
  6
CONTINUOUS
 10
1.0499619238
 20
24.0
 11
4.2000380762
 21
24.0
  0
LINE
  5
850
100
AcDbEntity
  8
ASSI
100
AcDbLine
 62
253
  6
CONTINUOUS
 10
10.5859750215
 20
24.2368706193
 11
7.2140249785
 21
24.2368706193
  0
LINE
  5
851
100
AcDbEntity
  8
ASSI
100
AcDbLine
 62
253
  6
CONTINUOUS
 10
-7.2140249785
 20
24.2368706193
 11
-10.5859750215
 21
24.2368706193
  0
LINE
  5
852
100
AcDbEntity
  8
ASSI
100
AcDbLine
 62
253
  6
CONTINUOUS
 10
10.3868630041
 20
24.4868325431
 11
7.4131369959
 21
24.4868325431
  0
LINE
  5
853
100
AcDbEntity
  8
ASSI
100
AcDbLine
 62
253
  6
CONTINUOUS
 10
-7.4131369959
 20
24.4868325431
 11
-10.3868630041
 21
24.4868325431
  0
LINE
  5
854
100
AcDbEntity
  8
ASSI
100
AcDbLine
 62
7
  6
CONTINUOUS
 10
-10.400030461
 20
24.5
 11
-7.399969539
 21
24.5
  0
LINE
  5
855
100
AcDbEntity
  8
ASSI
100
AcDbLine
 62
7
  6
CONTINUOUS
 10
7.399969539
 20
24.5
 11
10.400030461
 21
24.5
  0
LINE
  5
856
100
AcDbEntity
  8
ASSI
100
AcDbLine
 62
253
  6
CONTINUOUS
 10
-4.0061397907
 20
23.6496086404
 11
-3.7417664358
 21
23.6500376417
  0
LINE
  5
857
100
AcDbEntity
  8
ASSI
100
AcDbLine
 62
253
  6
CONTINUOUS
 10
3.9264051443
 20
23.6496086404
 11
4.1907784993
 21
23.6500376417
  0
LINE
  5
858
100
AcDbEntity
  8
ASSI
100
AcDbLine
 62
253
  6
CONTINUOUS
 10
-3.9803760542
 20
23.8995705207
 11
-3.9384389098
 21
23.8996080633
  0
LINE
  5
859
100
AcDbEntity
  8
ASSI
100
AcDbLine
 62
253
  6
CONTINUOUS
 10
3.9521688809
 20
23.8995705207
 11
3.9941060253
 21
23.8996080633
  0
LINE
  5
85A
100
AcDbEntity
  8
ASSI
100
AcDbLine
 62
253
  6
CONTINUOUS
 10
-4.2219924175
 20
23.6501907052
 11
-4.0061397907
 21
23.6496086404
  0
LINE
  5
85B
100
AcDbEntity
  8
ASSI
100
AcDbLine
 62
253
  6
CONTINUOUS
 10
3.7105525176
 20
23.6501907052
 11
3.9264051443
 21
23.6496086404
  0
LINE
  5
85C
100
AcDbEntity
  8
ASSI
100
AcDbLine
 62
253
  6
CONTINUOUS
 10
-4.0209592762
 20
23.8997586423
 11
-3.9803760542
 21
23.8995705207
  0
LINE
  5
85D
100
AcDbEntity
  8
ASSI
100
AcDbLine
 62
253
  6
CONTINUOUS
 10
3.9115856588
 20
23.8997586423
 11
3.9521688809
 21
23.8995705207
  0
LINE
  5
85E
100
AcDbEntity
  8
ASSI
100
AcDbLine
 62
253
  6
CONTINUOUS
 10
-4.2980063038
 20
23.650755106
 11
-4.2219924175
 21
23.6501907052
  0
LINE
  5
85F
100
AcDbEntity
  8
ASSI
100
AcDbLine
 62
253
  6
CONTINUOUS
 10
3.6345386313
 20
23.650755106
 11
3.7105525176
 21
23.6501907052
  0
LINE
  5
860
100
AcDbEntity
  8
ASSI
100
AcDbLine
 62
253
  6
CONTINUOUS
 10
-4.04538063
 20
23.9000015429
 11
-4.0209592762
 21
23.8997586423
  0
LINE
  5
861
100
AcDbEntity
  8
ASSI
100
AcDbLine
 62
253
  6
CONTINUOUS
 10
3.8871643051
 20
23.9000015429
 11
3.9115856588
 21
23.8997586423
  0
LWPOLYLINE
  5
862
100
AcDbEntity
  8
ASSI
100
AcDbPolyline
 62
253
  6
CONTINUOUS
 90
13
 70
0
 10
7.4135581409
 20
23.6278312164
 10
7.3876000694
 20
23.629492813
 10
7.3620812334
 20
23.6340570911
 10
7.3374334365
 20
23.6414468187
 10
7.3140737432
 20
23.6515369545
 10
7.2923974219
 20
23.6641567636
 10
7.2727712571
 20
23.6790927066
 10
7.2555273424
 20
23.696092053
 10
7.2409574614
 20
23.7148671574
 10
7.2293081507
 20
23.7351003269
 10
7.2207765279
 20
23.7564491967
 10
7.2155069562
 20
23.7785525233
 10
7.2135886019
 20
23.8010362971
  0
LWPOLYLINE
  5
863
100
AcDbEntity
  8
ASSI
100
AcDbPolyline
 62
7
  6
CONTINUOUS
 90
13
 70
0
 10
10.400030461
 20
24.5
 10
10.4261325878
 20
24.4982897358
 10
10.4517877661
 20
24.4931875595
 10
10.4765572875
 20
24.4847805782
 10
10.5000177444
 20
24.4732123371
 10
10.5217675502
 20
24.45868055
 10
10.5414339722
 20
24.4414339722
 10
10.55868055
 20
24.4217675502
 10
10.5732123371
 20
24.4000177444
 10
10.5847805782
 20
24.3765572875
 10
10.5931875595
 20
24.3517877661
 10
10.5982897358
 20
24.3261325878
 10
10.6
 20
24.300030461
  0
LWPOLYLINE
  5
864
100
AcDbEntity
  8
ASSI
100
AcDbPolyline
 62
253
  6
CONTINUOUS
 90
13
 70
0
 10
-3.8306228363
 20
23.9018840226
 10
-3.798002547
 20
23.8997364561
 10
-3.7659401837
 20
23.893350359
 10
-3.7349841301
 20
23.8828349571
 10
-3.7056638476
 20
23.8683701021
 10
-3.6784808201
 20
23.8502031958
 10
-3.6538999767
 20
23.8286449586
 10
-3.6323417395
 20
23.8040641152
 10
-3.6141748332
 20
23.7768810877
 10
-3.5997099781
 20
23.7475608051
 10
-3.5891945762
 20
23.7166047514
 10
-3.5828084791
 20
23.6845423882
 10
-3.5806609125
 20
23.6519220988
  0
LWPOLYLINE
  5
865
100
AcDbEntity
  8
ASSI
100
AcDbPolyline
 62
253
  6
CONTINUOUS
 90
13
 70
0
 10
-7.4131369959
 20
24.4868325431
 10
-7.3870407645
 20
24.4851144898
 10
-7.3613908739
 20
24.4800056122
 10
-7.336626031
 20
24.4715932907
 10
-7.3131698049
 20
24.4600214066
 10
-7.2914233829
 20
24.4454878816
 10
-7.2717587082
 20
24.4282412918
 10
-7.2545121184
 20
24.4085766171
 10
-7.2399785934
 20
24.3868301951
 10
-7.2284067093
 20
24.363373969
 10
-7.2199943878
 20
24.3386091261
 10
-7.2148855102
 20
24.3129592355
 10
-7.2131674569
 20
24.2868630041
  0
LWPOLYLINE
  5
866
100
AcDbEntity
  8
ASSI
100
AcDbPolyline
 62
253
  6
CONTINUOUS
 90
13
 70
0
 10
4.1019220988
 20
23.9018840226
 10
4.1345423881
 20
23.8997364561
 10
4.1666047513
 20
23.893350359
 10
4.197560805
 20
23.8828349571
 10
4.2268810875
 20
23.8683701021
 10
4.2540641149
 20
23.8502031958
 10
4.2786449584
 20
23.8286449586
 10
4.3002031955
 20
23.8040641152
 10
4.3183701019
 20
23.7768810877
 10
4.3328349569
 20
23.7475608051
 10
4.3433503589
 20
23.7166047514
 10
4.349736456
 20
23.6845423882
 10
4.3518840226
 20
23.6519220988
  0
LWPOLYLINE
  5
867
100
AcDbEntity
  8
ASSI
100
AcDbPolyline
 62
253
  6
CONTINUOUS
 90
5
 70
0
 10
3.5806609125
 20
23.6519220988
 10
3.5834224345
 20
23.6516733434
 10
3.5902859035
 20
23.6514327255
 10
3.6011778334
 20
23.6512002451
 10
3.6345386313
 20
23.650755106
  0
LWPOLYLINE
  5
868
100
AcDbEntity
  8
ASSI
100
AcDbPolyline
 62
253
  6
CONTINUOUS
 90
9
 70
0
 10
3.8306228363
 20
23.9018840226
 10
3.8316386915
 20
23.9016368438
 10
3.834023336
 20
23.9013973364
 10
3.8377767697
 20
23.9011655004
 10
3.8429685348
 20
23.9009388928
 10
3.8495290892
 20
23.9007199567
 10
3.857249806
 20
23.9005160208
 10
3.8661670503
 20
23.9003276997
 10
3.8871643051
 20
23.9000015429
  0
ARC
  5
869
100
AcDbEntity
  8
0
100
AcDbCircle
 62
7
  6
CONTINUOUS
 10
4.15
 20
12.175
 40
1.625
100
AcDbArc
 50
24.543539879
 51
72.0797868606
  0
ARC
  5
86A
100
AcDbEntity
  8
0
100
AcDbCircle
 62
7
  6
CONTINUOUS
 10
4.15
 20
12.175
 40
1.625
100
AcDbArc
 50
107.9202131394
 51
157.380135052
  0
ARC
  5
86B
100
AcDbEntity
  8
0
100
AcDbCircle
 62
7
  6
CONTINUOUS
 10
-4.15
 20
12.175
 40
1.625
100
AcDbArc
 50
107.9202131394
 51
157.380135052
  0
ARC
  5
86C
100
AcDbEntity
  8
0
100
AcDbCircle
 62
7
  6
CONTINUOUS
 10
-4.15
 20
12.175
 40
1.625
100
AcDbArc
 50
24.543539879
 51
72.0797868606
  0
ARC
  5
86D
100
AcDbEntity
  8
0
100
AcDbCircle
 62
7
  6
CONTINUOUS
 10
-0.0947441117
 20
-2.96846467
 40
1.5025
100
AcDbArc
 50
128.3527225147
 51
150.0
  0
ARC
  5
86E
100
AcDbEntity
  8
0
100
AcDbCircle
 62
7
  6
CONTINUOUS
 10
-0.0947441117
 20
-2.96846467
 40
1.1525
100
AcDbArc
 50
67.0
 51
150.0
  0
ARC
  5
86F
100
AcDbEntity
  8
ASSI
100
AcDbCircle
 62
7
  6
CONTINUOUS
 10
4.0
 20
-23.2
 40
0.5
100
AcDbArc
 50
334.1580672368
 51
25.8419327632
  0
ARC
  5
870
100
AcDbEntity
  8
ASSI
100
AcDbCircle
 62
7
  6
CONTINUOUS
 10
-4.0
 20
-23.2
 40
0.5
100
AcDbArc
 50
154.1580672368
 51
205.8419327632
  0
ARC
  5
871
100
AcDbEntity
  8
ASSI
100
AcDbCircle
 62
7
  6
CONTINUOUS
 10
4.0
 20
23.2
 40
0.5
100
AcDbArc
 50
334.1580672368
 51
25.8419327632
  0
ARC
  5
872
100
AcDbEntity
  8
ASSI
100
AcDbCircle
 62
7
  6
CONTINUOUS
 10
-4.0
 20
23.2
 40
0.5
100
AcDbArc
 50
154.1580672368
 51
205.8419327632
  0
ARC
  5
873
100
AcDbEntity
  8
ASSI
100
AcDbCircle
 62
7
  6
CONTINUOUS
 10
4.0
 20
-23.2
 40
0.4904006794
100
AcDbArc
 50
316.2076703059
 51
43.7923296941
  0
ARC
  5
874
100
AcDbEntity
  8
ASSI
100
AcDbCircle
 62
7
  6
CONTINUOUS
 10
-4.0
 20
-23.2
 40
0.4904006794
100
AcDbArc
 50
136.2076703059
 51
223.7923296941
  0
ARC
  5
875
100
AcDbEntity
  8
ASSI
100
AcDbCircle
 62
7
  6
CONTINUOUS
 10
4.0
 20
23.2
 40
0.4904006794
100
AcDbArc
 50
316.2076703059
 51
43.7923296941
  0
ARC
  5
876
100
AcDbEntity
  8
ASSI
100
AcDbCircle
 62
7
  6
CONTINUOUS
 10
-4.0
 20
23.2
 40
0.4904006794
100
AcDbArc
 50
136.2076703059
 51
223.7923296941
  0
ELLIPSE
  5
877
100
AcDbEntity
  8
DRAFT
100
AcDbEllipse
 62
7
  6
CONTINUOUS
 10
-8.15
 20
-16.7005517582
 30
0.0
 11
0.0
 21
1.2064091397
 31
0.0
 40
0.9999998954
 41
0.0930546213
 42
0.5925996137
  0
ELLIPSE
  5
878
100
AcDbEntity
  8
DRAFT
100
AcDbEllipse
 62
7
  6
CONTINUOUS
 10
8.15
 20
-16.7005517582
 30
0.0
 11
0.0
 21
1.2064091397
 31
0.0
 40
0.9999998954
 41
-0.5925996135
 42
-0.0930546222
  0
ELLIPSE
  5
879
100
AcDbEntity
  8
RACCORDO
100
AcDbEllipse
 62
7
  6
CONTINUOUS
 10
8.2999543059
 20
-16.7000456941
 30
0.0
 11
0.8485927574
 21
0.8485927574
 31
0.0
 40
0.9999238505
 41
0.2003851568
 42
0.7853600872
  0
ELLIPSE
  5
87A
100
AcDbEntity
  8
RACCORDO
100
AcDbEllipse
 62
7
  6
CONTINUOUS
 10
8.2999543059
 20
-16.7000456941
 30
0.0
 11
0.8485927574
 21
0.8485927574
 31
0.0
 40
0.9999238505
 41
-0.7853600872
 42
-0.4969597335
  0
ELLIPSE
  5
87B
100
AcDbEntity
  8
RACCORDO
100
AcDbEllipse
 62
7
  6
CONTINUOUS
 10
-8.2999543059
 20
-16.7000456941
 30
0.0
 11
0.8485927574
 21
-0.8485927574
 31
0.0
 40
0.9999238505
 41
-2.6446329201
 42
-2.3562325664
  0
ELLIPSE
  5
87C
100
AcDbEntity
  8
RACCORDO
100
AcDbEllipse
 62
7
  6
CONTINUOUS
 10
-8.2999543059
 20
-16.7000456941
 30
0.0
 11
0.8485927574
 21
-0.8485927574
 31
0.0
 40
0.9999238505
 41
2.3562325664
 42
2.9412074968
  0
ELLIPSE
  5
87D
100
AcDbEntity
  8
RACCORDO
100
AcDbEllipse
 62
7
  6
CONTINUOUS
 10
-6.0889455787
 20
-15.6607803073
 30
0.0
 11
-0.0
 21
0.4
 31
0.0
 40
0.0174550649
 41
-1.5358897418
 42
-1.1570011183
  0
ELLIPSE
  5
87E
100
AcDbEntity
  8
RACCORDO
100
AcDbEllipse
 62
7
  6
CONTINUOUS
 10
-6.6738270123
 20
-18.8506800196
 30
0.0
 11
0.0199277794
 21
0.1997801306
 31
0.0
 40
0.9961570542
 41
-1.4709956341
 42
0.0990401249
  0
ELLIPSE
  5
87F
100
AcDbEntity
  8
RACCORDO
100
AcDbEllipse
 62
7
  6
CONTINUOUS
 10
-7.1261729877
 20
-18.8506800196
 30
0.0
 11
-0.0199277794
 21
0.1997801306
 31
0.0
 40
0.9961570542
 41
-0.0990401249
 42
1.4709956341
  0
ELLIPSE
  5
880
100
AcDbEntity
  8
RACCORDO
100
AcDbEllipse
 62
7
  6
CONTINUOUS
 10
7.1261729877
 20
-18.8506800196
 30
0.0
 11
0.0199277794
 21
0.1997801306
 31
0.0
 40
0.9961570542
 41
-1.4709956341
 42
0.0990401249
  0
ELLIPSE
  5
881
100
AcDbEntity
  8
RACCORDO
100
AcDbEllipse
 62
7
  6
CONTINUOUS
 10
6.6738270123
 20
-18.8506800196
 30
0.0
 11
-0.0199277794
 21
0.1997801306
 31
0.0
 40
0.9961570542
 41
-0.0990401249
 42
1.4709956341
  0
ELLIPSE
  5
882
100
AcDbEntity
  8
ASSI
100
AcDbEllipse
 62
7
  6
CONTINUOUS
 10
10.5824687711
 20
21.8824687711
 30
0.0
 11
0.3536610946
 21
0.3536610946
 31
0.0
 40
0.9996954599
 41
-0.7852458701
 42
0.7852458701
  0
ELLIPSE
  5
883
100
AcDbEntity
  8
RACCORDO
100
AcDbEllipse
 62
7
  6
CONTINUOUS
 10
-8.0325144695
 20
-21.1000076157
 30
0.0
 11
0.1789222233
 21
-0.0894542984
 31
0.0
 40
0.9998096356
 41
2.0344896259
 42
3.6051336537
  0
ELLIPSE
  5
884
100
AcDbEntity
  8
RACCORDO
100
AcDbEllipse
 62
7
  6
CONTINUOUS
 10
-5.1523347292
 20
-20.1738270123
 30
0.0
 11
0.1789222233
 21
-0.0894542984
 31
0.0
 40
0.9998096356
 41
2.0344896259
 42
3.6051336537
  0
ELLIPSE
  5
885
100
AcDbEntity
  8
RACCORDO
100
AcDbEllipse
 62
7
  6
CONTINUOUS
 10
5.1523347292
 20
-20.1738270123
 30
0.0
 11
0.1789222233
 21
0.0894542984
 31
0.0
 40
0.9998096356
 41
-0.4635410001
 42
1.1071030277
  0
ELLIPSE
  5
886
100
AcDbEntity
  8
RACCORDO
100
AcDbEllipse
 62
7
  6
CONTINUOUS
 10
8.0325144695
 20
-21.1000076157
 30
0.0
 11
0.1789222233
 21
0.0894542984
 31
0.0
 40
0.9998096356
 41
-0.4635410001
 42
1.1071030277
  0
ELLIPSE
  5
887
100
AcDbEntity
  8
RACCORDO
100
AcDbEllipse
 62
7
  6
CONTINUOUS
 10
8.0325144695
 20
21.1000076157
 30
0.0
 11
0.1789222233
 21
-0.0894542984
 31
0.0
 40
0.9998096356
 41
-1.1071030277
 42
0.4635410001
  0
ELLIPSE
  5
888
100
AcDbEntity
  8
RACCORDO
100
AcDbEllipse
 62
7
  6
CONTINUOUS
 10
-8.0325144695
 20
21.1000076157
 30
0.0
 11
0.1789222233
 21
0.0894542984
 31
0.0
 40
0.9998096356
 41
2.6780516535
 42
4.2486956813
  0
ELLIPSE
  5
889
100
AcDbEntity
  8
ASSI
100
AcDbEllipse
 62
7
  6
CONTINUOUS
 10
10.5824687711
 20
-21.882468771
 30
0.0
 11
-0.3536610946
 21
0.3536610946
 31
0.0
 40
0.9996954599
 41
2.3563467834
 42
3.9268385237
  0
ELLIPSE
  5
88A
100
AcDbEntity
  8
RACCORDO
100
AcDbEllipse
 62
7
  6
CONTINUOUS
 10
9.5889059431
 20
-19.7676913781
 30
0.0
 11
-0.0
 21
0.3
 31
0.0
 40
0.0174550649
 41
-1.5707963268
 42
-0.0523598776
  0
ELLIPSE
  5
88B
100
AcDbEntity
  8
RACCORDO
100
AcDbEllipse
 62
7
  6
CONTINUOUS
 10
-9.5889059431
 20
-19.7676913781
 30
0.0
 11
0.0
 21
0.3
 31
0.0
 40
0.0174550649
 41
0.0523598776
 42
1.5707963268
  0
ELLIPSE
  5
88C
100
AcDbEntity
  8
ASSI
100
AcDbEllipse
 62
7
  6
CONTINUOUS
 10
8.7631293807
 20
23.5556624327
 30
0.0
 11
0.25
 21
-0.0
 31
0.0
 40
0.5773502692
 41
2.617993878
 42
3.1241393611
  0
ELLIPSE
  5
88D
100
AcDbEntity
  8
ASSI
100
AcDbEllipse
 62
7
  6
CONTINUOUS
 10
-9.0368706193
 20
23.5556624327
 30
0.0
 11
0.25
 21
-0.0
 31
0.0
 40
0.5773502692
 41
2.617993878
 42
3.1241393611
  0
ELLIPSE
  5
88E
100
AcDbEntity
  8
ASSI
100
AcDbEllipse
 62
7
  6
CONTINUOUS
 10
-10.582468771
 20
-21.882468771
 30
0.0
 11
-0.3536610946
 21
-0.3536610946
 31
0.0
 40
0.9996954599
 41
-0.7852458701
 42
0.7852458701
  0
ELLIPSE
  5
88F
100
AcDbEntity
  8
ASSI
100
AcDbEllipse
 62
7
  6
CONTINUOUS
 10
-10.582468771
 20
21.8824687711
 30
0.0
 11
0.3536610946
 21
-0.3536610946
 31
0.0
 40
0.9996954599
 41
2.3563467834
 42
3.9268385237
  0
ELLIPSE
  5
890
100
AcDbEntity
  8
ASSI
100
AcDbEllipse
 62
7
  6
CONTINUOUS
 10
9.0368706193
 20
-23.5556624327
 30
0.0
 11
0.25
 21
0.0
 31
0.0
 40
0.5773502692
 41
-0.5235987756
 42
-0.0174532925
  0
ELLIPSE
  5
891
100
AcDbEntity
  8
ASSI
100
AcDbEllipse
 62
7
  6
CONTINUOUS
 10
-8.7631293807
 20
-23.5556624327
 30
0.0
 11
0.25
 21
0.0
 31
0.0
 40
0.5773502692
 41
-0.5235987756
 42
-0.0174532925
  0
ELLIPSE
  5
892
100
AcDbEntity
  8
RACCORDO
100
AcDbEllipse
 62
7
  6
CONTINUOUS
 10
-7.4268605131
 20
-15.6607803073
 30
0.0
 11
-0.0
 21
0.4
 31
0.0
 40
0.1763269807
 41
-1.5358897418
 42
-1.1567046143
  0
ELLIPSE
  5
893
100
AcDbEntity
  8
RACCORDO
100
AcDbEllipse
 62
7
  6
CONTINUOUS
 10
7.5320272134
 20
-15.7734849081
 30
0.0
 11
-0.0
 21
1.0
 31
0.0
 40
0.1763269807
 41
1.2937164767
 42
1.5358897418
  0
ELLIPSE
  5
894
100
AcDbEntity
  8
RACCORDO
100
AcDbEllipse
 62
7
  6
CONTINUOUS
 10
3.8679727866
 20
-15.7734849081
 30
0.0
 11
0.0
 21
1.0
 31
0.0
 40
0.1763269807
 41
-1.5358897418
 42
-1.2937164767
  0
ELLIPSE
  5
895
100
AcDbEntity
  8
RACCORDO
100
AcDbEllipse
 62
7
  6
CONTINUOUS
 10
-3.8679727866
 20
-15.7734849081
 30
0.0
 11
0.0
 21
1.0
 31
0.0
 40
0.1763269807
 41
1.2937164767
 42
1.5358897418
  0
ELLIPSE
  5
896
100
AcDbEntity
  8
ASSI
100
AcDbEllipse
 62
7
  6
CONTINUOUS
 10
1.0674931469
 20
-23.7325068531
 30
0.0
 11
0.1768305473
 21
0.1768305473
 31
0.0
 40
0.9996954599
 41
2.3563467834
 42
3.9268385237
  0
ELLIPSE
  5
897
100
AcDbEntity
  8
ASSI
100
AcDbEllipse
 62
7
  6
CONTINUOUS
 10
-1.0674931469
 20
-23.7325068531
 30
0.0
 11
0.1768305473
 21
-0.1768305473
 31
0.0
 40
0.9996954599
 41
-0.7852458701
 42
0.7852458701
  0
ELLIPSE
  5
898
100
AcDbEntity
  8
ASSI
100
AcDbEllipse
 62
7
  6
CONTINUOUS
 10
-1.0674931469
 20
23.7325068531
 30
0.0
 11
-0.1768305473
 21
-0.1768305473
 31
0.0
 40
0.9996954599
 41
2.3563467834
 42
3.9268385237
  0
ELLIPSE
  5
899
100
AcDbEntity
  8
ASSI
100
AcDbEllipse
 62
7
  6
CONTINUOUS
 10
1.0674931469
 20
23.7325068531
 30
0.0
 11
-0.1768305473
 21
0.1768305473
 31
0.0
 40
0.9996954599
 41
-0.7852458701
 42
0.7852458701
  0
ELLIPSE
  5
89A
100
AcDbEntity
  8
RACCORDO
100
AcDbEllipse
 62
7
  6
CONTINUOUS
 10
-9.5479793
 20
-19.1441254286
 30
0.0
 11
0.0
 21
0.2
 31
0.0
 40
0.0174550649
 41
-3.089232776
 42
-1.6057029118
  0
ELLIPSE
  5
89B
100
AcDbEntity
  8
RACCORDO
100
AcDbEllipse
 62
7
  6
CONTINUOUS
 10
9.5479793
 20
-19.1441254286
 30
0.0
 11
-0.0
 21
0.2
 31
0.0
 40
0.0174550649
 41
-4.6774823953
 42
-3.1939525311
  0
ELLIPSE
  5
89C
100
AcDbEntity
  8
ASSI
100
AcDbEllipse
 62
7
  6
CONTINUOUS
 10
4.0459553394
 20
23.2
 30
0.0
 11
0.4595995956
 21
-0.0
 31
0.0
 40
0.9949884474
 41
0.4967770086
 42
0.8362648721
  0
ELLIPSE
  5
89D
100
AcDbEntity
  8
ASSI
100
AcDbEllipse
 62
7
  6
CONTINUOUS
 10
4.0459553394
 20
23.2
 30
0.0
 11
0.4595995956
 21
0.0
 31
0.0
 40
0.9949884474
 41
-0.8362648721
 42
-0.4967770086
  0
ELLIPSE
  5
89E
100
AcDbEntity
  8
ASSI
100
AcDbEllipse
 62
7
  6
CONTINUOUS
 10
4.0459553394
 20
-23.2
 30
0.0
 11
0.4595995956
 21
-0.0
 31
0.0
 40
0.9949884474
 41
0.4967770086
 42
0.8362648721
  0
ELLIPSE
  5
89F
100
AcDbEntity
  8
ASSI
100
AcDbEllipse
 62
7
  6
CONTINUOUS
 10
4.0459553394
 20
-23.2
 30
0.0
 11
0.4595995956
 21
0.0
 31
0.0
 40
0.9949884474
 41
-0.8362648721
 42
-0.4967770086
  0
ELLIPSE
  5
8A0
100
AcDbEntity
  8
ASSI
100
AcDbEllipse
 62
7
  6
CONTINUOUS
 10
9.0368706193
 20
23.5556624327
 30
0.0
 11
0.25
 21
0.0
 31
0.0
 40
0.5773502692
 41
0.0174532925
 42
0.5235987756
  0
ELLIPSE
  5
8A1
100
AcDbEntity
  8
ASSI
100
AcDbEllipse
 62
7
  6
CONTINUOUS
 10
9.0368706193
 20
22.3869087013
 30
0.0
 11
0.25
 21
0.0
 31
0.0
 40
0.0174550649
 41
-1.5707963268
 42
-0.0174532925
  0
ELLIPSE
  5
8A2
100
AcDbEntity
  8
ASSI
100
AcDbEllipse
 62
7
  6
CONTINUOUS
 10
-8.7631293807
 20
23.5556624327
 30
0.0
 11
0.25
 21
0.0
 31
0.0
 40
0.5773502692
 41
0.0174532925
 42
0.5235987756
  0
ELLIPSE
  5
8A3
100
AcDbEntity
  8
ASSI
100
AcDbEllipse
 62
7
  6
CONTINUOUS
 10
-8.7631293807
 20
22.3869087013
 30
0.0
 11
0.25
 21
-0.0
 31
0.0
 40
0.0174550649
 41
-1.5707963268
 42
-0.0174532925
  0
ELLIPSE
  5
8A4
100
AcDbEntity
  8
ASSI
100
AcDbEllipse
 62
7
  6
CONTINUOUS
 10
9.0368706193
 20
-22.3869087013
 30
0.0
 11
0.25
 21
-0.0
 31
0.0
 40
0.0174550649
 41
0.0174532925
 42
1.5707963268
  0
ELLIPSE
  5
8A5
100
AcDbEntity
  8
ASSI
100
AcDbEllipse
 62
7
  6
CONTINUOUS
 10
-8.7631293807
 20
-22.3869087013
 30
0.0
 11
0.25
 21
-0.0
 31
0.0
 40
0.0174550649
 41
0.0174532925
 42
1.5707963268
  0
ELLIPSE
  5
8A6
100
AcDbEntity
  8
ASSI
100
AcDbEllipse
 62
7
  6
CONTINUOUS
 10
-4.0459553394
 20
23.2
 30
0.0
 11
0.4595995956
 21
-0.0
 31
0.0
 40
0.9949884474
 41
-2.644815645
 42
-2.3053277814
  0
ELLIPSE
  5
8A7
100
AcDbEntity
  8
ASSI
100
AcDbEllipse
 62
7
  6
CONTINUOUS
 10
-4.0459553394
 20
23.2
 30
0.0
 11
0.4595995956
 21
0.0
 31
0.0
 40
0.9949884474
 41
2.3053277814
 42
2.644815645
  0
ELLIPSE
  5
8A8
100
AcDbEntity
  8
ASSI
100
AcDbEllipse
 62
7
  6
CONTINUOUS
 10
-4.0459553394
 20
-23.2
 30
0.0
 11
0.4595995956
 21
0.0
 31
0.0
 40
0.9949884474
 41
-2.644815645
 42
-2.3053277814
  0
ELLIPSE
  5
8A9
100
AcDbEntity
  8
ASSI
100
AcDbEllipse
 62
7
  6
CONTINUOUS
 10
-9.0368706193
 20
22.3869087013
 30
0.0
 11
0.25
 21
-0.0
 31
0.0
 40
0.0174550649
 41
-3.1241393611
 42
-1.5707963268
  0
ELLIPSE
  5
8AA
100
AcDbEntity
  8
ASSI
100
AcDbEllipse
 62
7
  6
CONTINUOUS
 10
-4.0459553394
 20
-23.2
 30
0.0
 11
0.4595995956
 21
-0.0
 31
0.0
 40
0.9949884474
 41
2.3053277814
 42
2.644815645
  0
ELLIPSE
  5
8AB
100
AcDbEntity
  8
ASSI
100
AcDbEllipse
 62
7
  6
CONTINUOUS
 10
8.7631293807
 20
22.3869087013
 30
0.0
 11
0.25
 21
-0.0
 31
0.0
 40
0.0174550649
 41
-3.1241393611
 42
-1.5707963268
  0
ELLIPSE
  5
8AC
100
AcDbEntity
  8
ASSI
100
AcDbEllipse
 62
7
  6
CONTINUOUS
 10
8.7631293807
 20
-22.3869087013
 30
0.0
 11
0.25
 21
-0.0
 31
0.0
 40
0.0174550649
 41
1.5707963268
 42
3.1241393611
  0
ELLIPSE
  5
8AD
100
AcDbEntity
  8
ASSI
100
AcDbEllipse
 62
7
  6
CONTINUOUS
 10
8.7631293807
 20
-23.5556624327
 30
0.0
 11
0.25
 21
0.0
 31
0.0
 40
0.5773502692
 41
-3.1241393611
 42
-2.617993878
  0
ELLIPSE
  5
8AE
100
AcDbEntity
  8
ASSI
100
AcDbEllipse
 62
7
  6
CONTINUOUS
 10
-9.0368706193
 20
-23.5556624327
 30
0.0
 11
0.25
 21
0.0
 31
0.0
 40
0.5773502692
 41
-3.1241393611
 42
-2.617993878
  0
ELLIPSE
  5
8AF
100
AcDbEntity
  8
ASSI
100
AcDbEllipse
 62
7
  6
CONTINUOUS
 10
-9.0368706193
 20
-22.3869087013
 30
0.0
 11
0.25
 21
-0.0
 31
0.0
 40
0.0174550649
 41
1.5707963268
 42
3.1241393611
  0
ELLIPSE
  5
8B0
100
AcDbEntity
  8
ASSI
100
AcDbEllipse
 62
7
  6
CONTINUOUS
 10
10.3999695344
 20
-23.3535898385
 30
0.0
 11
0.0069796346
 21
0.2308610084
 31
0.0
 40
0.8659264732
 41
-1.5358963758
 42
0.026173628
  0
ELLIPSE
  5
8B1
100
AcDbEntity
  8
RACCORDO
100
AcDbEllipse
 62
7
  6
CONTINUOUS
 10
-6.2738117809
 20
-20.6476043396
 30
0.0
 11
-0.0894542984
 21
-0.1789222233
 31
0.0
 40
0.9998096356
 41
-1.1071030277
 42
0.4635410001
  0
ELLIPSE
  5
8B2
100
AcDbEntity
  8
ASSI
100
AcDbEllipse
 62
7
  6
CONTINUOUS
 10
7.4000304656
 20
-23.3535898385
 30
0.0
 11
-0.0069796346
 21
0.2308610084
 31
0.0
 40
0.8659264732
 41
-0.026173628
 42
1.5358963756
  0
ELLIPSE
  5
8B3
100
AcDbEntity
  8
RACCORDO
100
AcDbEllipse
 62
7
  6
CONTINUOUS
 10
-5.5523956604
 20
-20.6476043396
 30
0.0
 11
-0.1414644378
 21
0.1414644378
 31
0.0
 40
0.9996954599
 41
2.3563467834
 42
3.9268385237
  0
ELLIPSE
  5
8B4
100
AcDbEntity
  8
RACCORDO
100
AcDbEllipse
 62
7
  6
CONTINUOUS
 10
5.5523956604
 20
-20.6476043396
 30
0.0
 11
0.1414644378
 21
0.1414644378
 31
0.0
 40
0.9996954599
 41
2.3563467834
 42
3.9268385237
  0
ELLIPSE
  5
8B5
100
AcDbEntity
  8
RACCORDO
100
AcDbEllipse
 62
7
  6
CONTINUOUS
 10
6.273811781
 20
-20.6476043396
 30
0.0
 11
-0.0894542984
 21
0.1789222233
 31
0.0
 40
0.9998096356
 41
2.6780516535
 42
4.2486956813
  0
ELLIPSE
  5
8B6
100
AcDbEntity
  8
ASSI
100
AcDbEllipse
 62
7
  6
CONTINUOUS
 10
-7.4000304656
 20
-23.3535898385
 30
0.0
 11
0.0069796346
 21
0.2308610084
 31
0.0
 40
0.8659264732
 41
-1.5358963758
 42
0.026173628
  0
ELLIPSE
  5
8B7
100
AcDbEntity
  8
RACCORDO
100
AcDbEllipse
 62
7
  6
CONTINUOUS
 10
-7.526188219
 20
-20.6738117809
 30
0.0
 11
0.1414321262
 21
-0.1414321262
 31
0.0
 40
0.9999238505
 41
-0.7853600872
 42
0.7853600872
  0
ELLIPSE
  5
8B8
100
AcDbEntity
  8
RACCORDO
100
AcDbEllipse
 62
7
  6
CONTINUOUS
 10
7.5261882191
 20
-20.6738117809
 30
0.0
 11
0.1414321262
 21
0.1414321262
 31
0.0
 40
0.9999238505
 41
2.3562325664
 42
3.9269527408
  0
ELLIPSE
  5
8B9
100
AcDbEntity
  8
ASSI
100
AcDbEllipse
 62
7
  6
CONTINUOUS
 10
-10.3999695344
 20
-23.3535898385
 30
0.0
 11
-0.0069796346
 21
0.2308610084
 31
0.0
 40
0.8659264732
 41
-0.026173628
 42
1.5358963756
  0
ELLIPSE
  5
8BA
100
AcDbEntity
  8
ASSI
100
AcDbEllipse
 62
7
  6
CONTINUOUS
 10
10.3999695344
 20
23.3535898385
 30
0.0
 11
-0.0069796346
 21
0.2308610084
 31
0.0
 40
0.8659264732
 41
-3.1677662815
 42
-1.6056962779
  0
ELLIPSE
  5
8BB
100
AcDbEntity
  8
ASSI
100
AcDbEllipse
 62
7
  6
CONTINUOUS
 10
-7.4000304656
 20
23.3535898385
 30
0.0
 11
-0.0069796346
 21
0.2308610084
 31
0.0
 40
0.8659264732
 41
-3.1677662815
 42
-1.6056962779
  0
ELLIPSE
  5
8BC
100
AcDbEntity
  8
ASSI
100
AcDbEllipse
 62
7
  6
CONTINUOUS
 10
7.4000304656
 20
23.3535898385
 30
0.0
 11
0.0069796346
 21
0.2308610084
 31
0.0
 40
0.8659264732
 41
-4.6774890294
 42
-3.1154190256
  0
ELLIPSE
  5
8BD
100
AcDbEntity
  8
ASSI
100
AcDbEllipse
 62
7
  6
CONTINUOUS
 10
-10.3999695344
 20
23.3535898385
 30
0.0
 11
0.0069796346
 21
0.2308610084
 31
0.0
 40
0.8659264732
 41
-4.6774890294
 42
-3.1154190256
  0
ELLIPSE
  5
8BE
100
AcDbEntity
  8
ASSI
100
AcDbEllipse
 62
7
  6
CONTINUOUS
 10
3.3850964806
 20
-20.8909925586
 30
0.0
 11
0.25
 21
-0.0
 31
0.0
 40
0.3639702343
 41
1.5707963268
 42
3.1328660073
  0
ELLIPSE
  5
8BF
100
AcDbEntity
  8
ASSI
100
AcDbEllipse
 62
7
  6
CONTINUOUS
 10
3.3000095196
 20
-22.1325068531
 30
0.0
 11
0.1118178731
 21
0.2236527791
 31
0.0
 40
0.9998096356
 41
-4.2486956813
 42
-2.6780516535
  0
ELLIPSE
  5
8C0
100
AcDbEntity
  8
ASSI
100
AcDbEllipse
 62
7
  6
CONTINUOUS
 10
-3.3000095196
 20
-22.1325068531
 30
0.0
 11
-0.1118178731
 21
0.2236527791
 31
0.0
 40
0.9998096356
 41
-3.6051336537
 42
-2.0344896259
  0
ELLIPSE
  5
8C1
100
AcDbEntity
  8
ASSI
100
AcDbEllipse
 62
7
  6
CONTINUOUS
 10
3.9662724675
 20
-22.3020015105
 30
0.0
 11
0.3856702945
 21
-0.0
 31
0.0
 40
0.0174550649
 41
0.0174532925
 42
3.1241393611
  0
ELLIPSE
  5
8C2
100
AcDbEntity
  8
ASSI
100
AcDbEllipse
 62
7
  6
CONTINUOUS
 10
3.9662724675
 20
22.3020015105
 30
0.0
 11
0.3856702945
 21
0.0
 31
0.0
 40
0.0174550649
 41
-3.1241393611
 42
-0.0174532925
  0
ELLIPSE
  5
8C3
100
AcDbEntity
  8
ASSI
100
AcDbEllipse
 62
7
  6
CONTINUOUS
 10
-3.9662724675
 20
-22.3020015105
 30
0.0
 11
0.3856702945
 21
-0.0
 31
0.0
 40
0.0174550649
 41
0.0174532925
 42
3.1241393611
  0
ELLIPSE
  5
8C4
100
AcDbEntity
  8
ASSI
100
AcDbEllipse
 62
7
  6
CONTINUOUS
 10
-3.9662724675
 20
22.3020015105
 30
0.0
 11
0.3856702945
 21
0.0
 31
0.0
 40
0.0174550649
 41
-3.1241393611
 42
-0.0174532925
  0
ELLIPSE
  5
8C5
100
AcDbEntity
  8
ASSI
100
AcDbEllipse
 62
7
  6
CONTINUOUS
 10
3.750038082
 20
23.7325068531
 30
0.0
 11
-0.1768305473
 21
0.1768305473
 31
0.0
 40
0.9996954599
 41
-0.7852458701
 42
0.7852458701
  0
ELLIPSE
  5
8C6
100
AcDbEntity
  8
ASSI
100
AcDbEllipse
 62
7
  6
CONTINUOUS
 10
-3.750038082
 20
23.7325068531
 30
0.0
 11
0.1768305473
 21
0.1768305473
 31
0.0
 40
0.9996954599
 41
-0.7852458701
 42
0.7852458701
  0
ELLIPSE
  5
8C7
100
AcDbEntity
  8
ASSI
100
AcDbEllipse
 62
7
  6
CONTINUOUS
 10
-3.3850964806
 20
-20.8909925586
 30
0.0
 11
0.25
 21
0.0
 31
0.0
 40
0.3639702343
 41
0.0087266463
 42
1.5707963268
  0
ELLIPSE
  5
8C8
100
AcDbEntity
  8
ASSI
100
AcDbEllipse
 62
7
  6
CONTINUOUS
 10
-3.3850964806
 20
20.8909925586
 30
0.0
 11
0.25
 21
-0.0
 31
0.0
 40
0.3639702343
 41
-1.5707963268
 42
-0.0087266463
  0
ELLIPSE
  5
8C9
100
AcDbEntity
  8
ASSI
100
AcDbEllipse
 62
7
  6
CONTINUOUS
 10
-3.750038082
 20
-23.7325068531
 30
0.0
 11
0.1768305473
 21
-0.1768305473
 31
0.0
 40
0.9996954599
 41
-0.7852458701
 42
0.7852458701
  0
ELLIPSE
  5
8CA
100
AcDbEntity
  8
ASSI
100
AcDbEllipse
 62
7
  6
CONTINUOUS
 10
-3.3000095196
 20
22.1325068531
 30
0.0
 11
0.1118178731
 21
0.2236527791
 31
0.0
 40
0.9998096356
 41
-1.1071030277
 42
0.4635410001
  0
ELLIPSE
  5
8CB
100
AcDbEntity
  8
ASSI
100
AcDbEllipse
 62
7
  6
CONTINUOUS
 10
3.3000095196
 20
22.1325068531
 30
0.0
 11
-0.1118178731
 21
0.2236527791
 31
0.0
 40
0.9998096356
 41
-0.4635410001
 42
1.1071030277
  0
ELLIPSE
  5
8CC
100
AcDbEntity
  8
ASSI
100
AcDbEllipse
 62
7
  6
CONTINUOUS
 10
3.750038082
 20
-23.7325068531
 30
0.0
 11
0.1768305473
 21
0.1768305473
 31
0.0
 40
0.9996954599
 41
-3.9268385237
 42
-2.3563467834
  0
ELLIPSE
  5
8CD
100
AcDbEntity
  8
ASSI
100
AcDbEllipse
 62
7
  6
CONTINUOUS
 10
3.3850964806
 20
20.8909925586
 30
0.0
 11
0.25
 21
-0.0
 31
0.0
 40
0.3639702343
 41
-3.1328660073
 42
-1.5707963268
  0
ELLIPSE
  5
8CE
100
AcDbEntity
  8
RACCORDO
100
AcDbEllipse
 62
7
  6
CONTINUOUS
 10
-7.7164416493
 20
16.9663654925
 30
0.0
 11
0.0
 21
2.0
 31
0.0
 40
0.0087268678
 41
-0.1192661309
 42
-0.0087266463
  0
ELLIPSE
  5
8CF
100
AcDbEntity
  8
RACCORDO
100
AcDbEllipse
 62
7
  6
CONTINUOUS
 10
7.7164416493
 20
16.9663654925
 30
0.0
 11
0.0
 21
2.0
 31
0.0
 40
0.0087268678
 41
0.0087266463
 42
0.1192661309
  0
ELLIPSE
  5
8D0
100
AcDbEntity
  8
RACCORDO
100
AcDbEllipse
 62
7
  6
CONTINUOUS
 10
6.2500076157
 20
-2.2057121838
 30
0.0
 11
0.0894542984
 21
0.1789222233
 31
0.0
 40
0.9998096356
 41
-4.2486956813
 42
-2.6780516535
  0
ELLIPSE
  5
8D1
100
AcDbEntity
  8
RACCORDO
100
AcDbEllipse
 62
7
  6
CONTINUOUS
 10
-6.2500076157
 20
-2.2057121838
 30
0.0
 11
-0.0894542984
 21
0.1789222233
 31
0.0
 40
0.9998096356
 41
-3.6051336537
 42
-2.0344896259
  0
ELLIPSE
  5
8D2
100
AcDbEntity
  8
DRAFT
100
AcDbEllipse
 62
7
  6
CONTINUOUS
 10
-7.718583276
 20
16.25
 30
0.0
 11
0.0
 21
1.0
 31
0.0
 40
0.0087268678
 41
0.927295218
 42
2.2142974356
  0
ELLIPSE
  5
8D3
100
AcDbEntity
  8
RACCORDO
100
AcDbEllipse
 62
7
  6
CONTINUOUS
 10
-7.9472272121
 20
14.5108367263
 30
0.0
 11
-0.0
 21
0.8
 31
0.0
 40
0.0087268678
 41
-4.7123889804
 42
-3.1459559767
  0
ELLIPSE
  5
8D4
100
AcDbEntity
  8
DRAFT
100
AcDbEllipse
 62
7
  6
CONTINUOUS
 10
7.718583276
 20
16.25
 30
0.0
 11
-0.0
 21
1.0
 31
0.0
 40
0.0087268678
 41
-2.2142974356
 42
-0.927295218
  0
ELLIPSE
  5
8D5
100
AcDbEntity
  8
RACCORDO
100
AcDbEllipse
 62
7
  6
CONTINUOUS
 10
-8.8608291108
 20
14.5108367263
 30
0.0
 11
0.0
 21
0.8
 31
0.0
 40
0.0043633508
 41
-3.1663949907
 42
-3.1459559767
  0
ELLIPSE
  5
8D6
100
AcDbEntity
  8
RACCORDO
100
AcDbEllipse
 62
7
  6
CONTINUOUS
 10
-8.8608291108
 20
11.0891632737
 30
0.0
 11
-0.0
 21
0.8
 31
0.0
 40
0.0043633508
 41
0.0043633231
 42
0.0248023372
  0
ELLIPSE
  5
8D7
100
AcDbEntity
  8
RACCORDO
100
AcDbEllipse
 62
7
  6
CONTINUOUS
 10
7.9472272121
 20
14.5108367263
 30
0.0
 11
-0.0
 21
0.8
 31
0.0
 40
0.0087268678
 41
-3.1372293305
 42
-1.5707963268
  0
ELLIPSE
  5
8D8
100
AcDbEntity
  8
RACCORDO
100
AcDbEllipse
 62
7
  6
CONTINUOUS
 10
7.7700717959
 20
9.9768345149
 30
0.0
 11
-0.0
 21
1.0
 31
0.0
 40
0.0087268678
 41
-3.1328660073
 42
-1.5707963268
  0
ELLIPSE
  5
8D9
100
AcDbEntity
  8
RACCORDO
100
AcDbEllipse
 62
7
  6
CONTINUOUS
 10
7.9472272121
 20
11.0891632737
 30
0.0
 11
0.0
 21
0.8
 31
0.0
 40
0.0087268678
 41
-1.5707963268
 42
-1.3040354267
  0
ELLIPSE
  5
8DA
100
AcDbEntity
  8
RACCORDO
100
AcDbEllipse
 62
7
  6
CONTINUOUS
 10
-7.7700717959
 20
9.9768345149
 30
0.0
 11
0.0
 21
1.0
 31
0.0
 40
0.0087268678
 41
-4.7123889804
 42
-3.1503192998
  0
ELLIPSE
  5
8DB
100
AcDbEntity
  8
RACCORDO
100
AcDbEllipse
 62
7
  6
CONTINUOUS
 10
-7.9472272121
 20
11.0891632737
 30
0.0
 11
-0.0
 21
0.8
 31
0.0
 40
0.0087268678
 41
1.3040354267
 42
1.5707963268
  0
ELLIPSE
  5
8DC
100
AcDbEntity
  8
RACCORDO
100
AcDbEllipse
 62
7
  6
CONTINUOUS
 10
9.05
 20
2.2870482079
 30
0.0
 11
0.8
 21
0.0
 31
0.0
 40
0.0174550649
 41
3.1415926536
 42
4.7123889804
  0
ELLIPSE
  5
8DD
100
AcDbEntity
  8
RACCORDO
100
AcDbEllipse
 62
7
  6
CONTINUOUS
 10
8.8608291108
 20
14.5108367263
 30
0.0
 11
-0.0
 21
0.8
 31
0.0
 40
0.0043633508
 41
-3.1372293305
 42
-3.1167903164
  0
ELLIPSE
  5
8DE
100
AcDbEntity
  8
RACCORDO
100
AcDbEllipse
 62
7
  6
CONTINUOUS
 10
-9.05
 20
-2.2870482079
 30
0.0
 11
0.8
 21
0.0
 31
0.0
 40
0.0174550649
 41
-0.0
 42
1.5707963268
  0
ELLIPSE
  5
8DF
100
AcDbEntity
  8
RACCORDO
100
AcDbEllipse
 62
7
  6
CONTINUOUS
 10
8.8608291108
 20
11.0891632737
 30
0.0
 11
0.0
 21
0.8
 31
0.0
 40
0.0043633508
 41
-0.0248023372
 42
-0.0043633231
  0
ELLIPSE
  5
8E0
100
AcDbEntity
  8
RACCORDO
100
AcDbEllipse
 62
7
  6
CONTINUOUS
 10
-9.4965811966
 20
-7.7312924592
 30
0.0
 11
-0.0
 21
0.8
 31
0.0
 40
0.0042735043
 41
0.0087266463
 42
1.5707889242
  0
ELLIPSE
  5
8E1
100
AcDbEntity
  8
RACCORDO
100
AcDbEllipse
 62
7
  6
CONTINUOUS
 10
9.4965811966
 20
-3.8687075408
 30
0.0
 11
0.0
 21
0.8
 31
0.0
 40
0.0042735043
 41
-3.1328660073
 42
-1.5708036749
  0
ELLIPSE
  5
8E2
100
AcDbEntity
  8
RACCORDO
100
AcDbEllipse
 62
7
  6
CONTINUOUS
 10
9.4965811966
 20
-7.7312924592
 30
0.0
 11
0.0
 21
0.8
 31
0.0
 40
0.0042735043
 41
-1.5707889809
 42
-0.0087266463
  0
ELLIPSE
  5
8E3
100
AcDbEntity
  8
RACCORDO
100
AcDbEllipse
 62
7
  6
CONTINUOUS
 10
-9.4965811966
 20
-3.8687075408
 30
0.0
 11
0.0
 21
0.8
 31
0.0
 40
0.0042735043
 41
-4.7123816029
 42
-3.1503192998
  0
ELLIPSE
  5
8E4
100
AcDbEntity
  8
RACCORDO
100
AcDbEllipse
 62
7
  6
CONTINUOUS
 10
8.3267964366
 20
9.9768345149
 30
0.0
 11
0.0
 21
1.0
 31
0.0
 40
0.0087268678
 41
-3.1328660073
 42
-1.5707963268
  0
ELLIPSE
  5
8E5
100
AcDbEntity
  8
RACCORDO
100
AcDbEllipse
 62
7
  6
CONTINUOUS
 10
-8.3267964366
 20
9.9768345149
 30
0.0
 11
0.0
 21
1.0
 31
0.0
 40
0.0087268678
 41
-4.7123889804
 42
-3.1503192998
  0
ELLIPSE
  5
8E6
100
AcDbEntity
  8
DRAFT
100
AcDbEllipse
 62
7
  6
CONTINUOUS
 10
-8.2753079166
 20
-9.35
 30
0.0
 11
0.0
 21
1.0
 31
0.0
 40
0.0087268678
 41
0.927295218
 42
2.2142974356
  0
ELLIPSE
  5
8E7
100
AcDbEntity
  8
DRAFT
100
AcDbEllipse
 62
7
  6
CONTINUOUS
 10
8.2753079166
 20
-9.35
 30
0.0
 11
-0.0
 21
1.0
 31
0.0
 40
0.0087268678
 41
-2.2142974356
 42
-0.927295218
  0
ELLIPSE
  5
8E8
100
AcDbEntity
  8
RACCORDO
100
AcDbEllipse
 62
7
  6
CONTINUOUS
 10
9.05
 20
-2.2870482079
 30
0.0
 11
0.8
 21
-0.0
 31
0.0
 40
0.0174550649
 41
1.5707963268
 42
3.1415926536
  0
ELLIPSE
  5
8E9
100
AcDbEntity
  8
RACCORDO
100
AcDbEllipse
 62
7
  6
CONTINUOUS
 10
-9.05
 20
2.2870482079
 30
0.0
 11
0.8
 21
-0.0
 31
0.0
 40
0.0174550649
 41
-1.5707963268
 42
-0.0
  0
ELLIPSE
  5
8EA
100
AcDbEntity
  8
RACCORDO
100
AcDbEllipse
 62
7
  6
CONTINUOUS
 10
-8.5039518527
 20
-3.8687075408
 30
0.0
 11
-0.0
 21
0.8
 31
0.0
 40
0.0087268678
 41
1.5707963268
 42
3.1328660073
  0
ELLIPSE
  5
8EB
100
AcDbEntity
  8
RACCORDO
100
AcDbEllipse
 62
7
  6
CONTINUOUS
 10
-8.5039518527
 20
-7.7312924592
 30
0.0
 11
-0.0
 21
0.8
 31
0.0
 40
0.0087268678
 41
0.0087266463
 42
1.5707963268
  0
ELLIPSE
  5
8EC
100
AcDbEntity
  8
RACCORDO
100
AcDbEllipse
 62
7
  6
CONTINUOUS
 10
8.5039518527
 20
-7.7312924592
 30
0.0
 11
-0.0
 21
0.8
 31
0.0
 40
0.0087268678
 41
-1.5707963268
 42
-0.0087266463
  0
ELLIPSE
  5
8ED
100
AcDbEntity
  8
RACCORDO
100
AcDbEllipse
 62
7
  6
CONTINUOUS
 10
8.5039518527
 20
-3.8687075408
 30
0.0
 11
-0.0
 21
0.8
 31
0.0
 40
0.0087268678
 41
-3.1328660073
 42
-1.5707963268
  0
ENDSEC
  0
SECTION
  2
OBJECTS
  0
DICTIONARY
  5
C
100
AcDbDictionary
280
0
281
1
  3
ACAD_GROUP
350
D
  3
ACAD_MLINESTYLE
350
17
  3
ACAD_LAYOUT
350
1A
  3
ACAD_PLOTSETTINGS
350
19
  3
ACAD_PLOTSTYLENAME
350
E
  0
DICTIONARY
  5
D
102
{ACAD_REACTORS
330
C
102
}
100
AcDbDictionary
280
0
281
1
  0
ACDBDICTIONARYWDFLT
  5
E
102
{ACAD_REACTORS
330
C
102
}
100
AcDbDictionary
281
1
  3
Normal
350
F
100
AcDbDictionaryWithDefault
340
F
  0
DICTIONARY
  5
17
102
{ACAD_REACTORS
330
C
102
}
100
AcDbDictionary
280
0
281
1
  3
Standard
350
18
  0
DICTIONARY
  5
19
102
{ACAD_REACTORS
330
C
102
}
100
AcDbDictionary
281
1
  0
DICTIONARY
  5
1A
102
{ACAD_REACTORS
330
C
102
}
100
AcDbDictionary
281
1
  3
Model
350
8EE
  3
Layout1
350
8EF
  0
ACDBPLACEHOLDER
  5
F
102
{ACAD_REACTORS
330
E
102
}
  0
MLINESTYLE
  5
18
102
{ACAD_REACTORS
330
17
102
}
100
AcDbMlineStyle
  2
STANDARD
 70
0
  3

 62
256
 51
90.0
 52
90.0
 71
2
 49
0.5
 62
256
  6
BYLAYER
 49
-0.5
 62
256
  6
BYLAYER
  0
LAYOUT
  5
8EE
102
{ACAD_REACTORS
330
1A
102
}
100
AcDbPlotSettings
  1

  2
none_device
  4
ISO_A4_(297.00_x_210.00_MM)
  6

 40
0.0
 41
0.0
 42
0.0
 43
0.0
 44
297.0
 45
210.0
 46
0.0
 47
0.0
 48
0.0
 49
0.0
140
0.0
141
0.0
142
1.0
143
1.0
 70
1024
 72
1
 73
0
 74
0
  7

 75
0
147
1.0
148
0.0
149
0.0
100
AcDbLayout
  1
Model
 70
0
 71
0
 10
0.0
 20
0.0
 11
297.0
 21
210.0
 12
0.0
 22
0.0
 32
0.0
 14
0.0
 24
0.0
 34
0.0
 15
0.0
 25
0.0
 35
0.0
146
0.0
 13
0.0
 23
0.0
 33
0.0
 16
1.0
 26
0.0
 36
0.0
 17
0.0
 27
1.0
 37
0.0
 76
0
330
21F
345
0
346
0
  0
LAYOUT
  5
8EF
102
{ACAD_REACTORS
330
1A
102
}
100
AcDbPlotSettings
  1

  2
none_device
  4
ISO_A4_(297.00_x_210.00_MM)
  6

 40
0.0
 41
0.0
 42
0.0
 43
0.0
 44
297.0
 45
210.0
 46
0.0
 47
0.0
 48
0.0
 49
0.0
140
0.0
141
0.0
142
1.0
143
1.0
 70
0
 72
1
 73
0
 74
0
  7

 75
0
147
1.0
148
0.0
149
0.0
100
AcDbLayout
  1
Layout1
 70
0
 71
1
 10
0.0
 20
0.0
 11
297.0
 21
210.0
 12
0.0
 22
0.0
 32
0.0
 14
0.0
 24
0.0
 34
0.0
 15
0.0
 25
0.0
 35
0.0
146
0.0
 13
0.0
 23
0.0
 33
0.0
 16
1.0
 26
0.0
 36
0.0
 17
0.0
 27
1.0
 37
0.0
 76
0
330
220
345
0
346
0
  0
ENDSEC
  0
EOF
