  0
SECTION
  2
HEADER
  9
$ACADVER
  1
AC1015
  9
$DWGCODEPAGE
  3
ANSI_1252
  9
$EXTMAX
 10
297.0
 20
210.0
 30
0.0
  9
$EXTMIN
 10
0.0
 20
0.0
 30
0.0
  9
$LIMMIN
 10
0.0
 20
0.0
  9
$LIMMAX
 10
297.0
 20
210.0
  9
$VIEWCTR
 10
148.5
 20
105.0
  9
$VIEWSIZE
 40
210.0
  9
$CLAYER
  8
0
  9
$LTSCALE
 40
16.335
  9
$CELTYPE
  6
BYLAYER
  9
$DIMSCALE
 40
1.0
  9
$DIMASZ
 40
3.0
  9
$DIMEXO
 40
1.85625
  9
$DIMDLI
 40
11.286
  9
$DIMEXE
 40
5.346
  9
$DIMCEN
 40
2.673
  9
$DIMLFAC
 40
1.0
  9
$DIMBLK
  1
_FILLED
  9
$DIMTXT
 40
3.0
  9
$DIMTOL
 70
1
  9
$DIMLIM
 70
0
  9
$DIMTFAC
 40
1.0
  9
$DIMTP
 40
0.01
  9
$DIMTM
 40
0.01
  9
$PDMODE
 70
3
  9
$PDSIZE
 40
3.0
  9
$HANDSEED
  5
723
  9
$TILEMODE
 70
1
  9
$MEASUREMENT
 70
1
  9
$INSUNITS
 70
4
  0
ENDSEC
  0
SECTION
  2
CLASSES
  0
CLASS
  1
ACDBDICTIONARYWDFLT
  2
AcDbDictionaryWithDefault
  3
AutoCAD 2000
 90
0
280
0
281
0
  0
CLASS
  1
ACDBPLACEHOLDER
  2
AcDbPlaceHolder
  3
AutoCAD 2000
 90
0
280
0
281
0
  0
CLASS
  1
LAYOUT
  2
AcDbLayout
  3
AutoCAD 2000
 90
0
280
0
281
0
  0
ENDSEC
  0
SECTION
  2
TABLES
  0
TABLE
  2
VPORT
  5
8
100
AcDbSymbolTable
 70
2
  0
VPORT
  5
1F4
100
AcDbSymbolTableRecord
100
AcDbViewportTableRecord
  2
*ACTIVE
 70
0
 10
0.0
 20
0.0
 11
1.0
 21
1.0
 12
148.5
 22
105.0
 13
0.0
 23
0.0
 14
1.0
 24
1.0
 15
0.0
 25
0.0
 16
0.0
 26
0.0
 36
1.0
 17
0.0
 27
0.0
 37
0.0
 40
210.0
 41
1.4142857143
 42
50.0
 43
0.0
 44
0.0
 50
0.0
 51
0.0
 71
0
 72
100
 73
1
 74
1
 75
0
 76
0
 77
0
 78
0
  0
ENDTAB
  0
TABLE
  2
LTYPE
  5
5
100
AcDbSymbolTable
 70
6
  0
LTYPE
  5
14
100
AcDbSymbolTableRecord
100
AcDbLinetypeTableRecord
  2
BYBLOCK
 70
0
  3

 72
65
 73
0
 40
0.0
  0
LTYPE
  5
15
100
AcDbSymbolTableRecord
100
AcDbLinetypeTableRecord
  2
BYLAYER
 70
0
  3

 72
65
 73
0
 40
0.0
  0
LTYPE
  5
16
100
AcDbSymbolTableRecord
100
AcDbLinetypeTableRecord
  2
CONTINUOUS
 70
64
  3
Solid line
 72
65
 73
0
 40
0.0
  0
LTYPE
  5
1F5
100
AcDbSymbolTableRecord
100
AcDbLinetypeTableRecord
  2
CENTER
 70
64
  3
____ _ ____ _ ____ _ ____ _ ____ _ ____ _ ____
 72
65
 73
4
 40
0.6
 49
0.375
 74
0
 49
-0.075
 74
0
 49
0.075
 74
0
 49
-0.075
 74
0
  0
LTYPE
  5
1F6
100
AcDbSymbolTableRecord
100
AcDbLinetypeTableRecord
  2
HIDDEN
 70
64
  3
- - - - - - - - - - - - - - - - - - - -
 72
65
 73
2
 40
0.2
 49
0.1
 74
0
 49
-0.1
 74
0
  0
LTYPE
  5
1F7
100
AcDbSymbolTableRecord
100
AcDbLinetypeTableRecord
  2
PHANTOM
 70
64
  3
_____ _ _ _____ _ _ _____ _ _ _____
 72
65
 73
6
 40
0.8
 49
0.45
 74
0
 49
-0.05
 74
0
 49
0.1
 74
0
 49
-0.05
 74
0
 49
0.1
 74
0
 49
-0.05
 74
0
  0
LTYPE
  5
1F8
100
AcDbSymbolTableRecord
100
AcDbLinetypeTableRecord
  2
DOT
 70
64
  3
. . . . . . . . . . . . . . . . . . . .
 72
65
 73
2
 40
0.2
 49
0.1
 74
0
 49
-0.1
 74
0
  0
LTYPE
  5
1F9
100
AcDbSymbolTableRecord
100
AcDbLinetypeTableRecord
  2
DASHED
 70
64
  3
- - - - - - - - - - - - - - - - - - - -
 72
65
 73
2
 40
0.2
 49
0.1
 74
0
 49
-0.1
 74
0
  0
ENDTAB
  0
TABLE
  2
LAYER
  5
2
100
AcDbSymbolTable
 70
36
  0
LAYER
  5
10
100
AcDbSymbolTableRecord
100
AcDbLayerTableRecord
  2
0
 70
0
 62
7
  6
CONTINUOUS
370
-3
390
F
  0
LAYER
  5
1FA
100
AcDbSymbolTableRecord
100
AcDbLayerTableRecord
  2
DEFAULT_1
 70
0
 62
7
  6
CENTER
370
-3
390
F
  0
LAYER
  5
1FB
100
AcDbSymbolTableRecord
100
AcDbLayerTableRecord
  2
DEFAULT_2
 70
0
 62
7
  6
HIDDEN
370
-3
390
F
  0
LAYER
  5
1FC
100
AcDbSymbolTableRecord
100
AcDbLayerTableRecord
  2
DEFAULT_3
 70
0
 62
7
  6
PHANTOM
370
-3
390
F
  0
LAYER
  5
1FD
100
AcDbSymbolTableRecord
100
AcDbLayerTableRecord
  2
ASSI
 70
0
 62
7
  6
CONTINUOUS
370
-3
390
F
  0
LAYER
  5
1FE
100
AcDbSymbolTableRecord
100
AcDbLayerTableRecord
  2
COORDINATE
 70
0
 62
7
  6
CONTINUOUS
370
-3
390
F
  0
LAYER
  5
1FF
100
AcDbSymbolTableRecord
100
AcDbLayerTableRecord
  2
COORD_ORIGINE
 70
0
 62
7
  6
CONTINUOUS
370
-3
390
F
  0
LAYER
  5
200
100
AcDbSymbolTableRecord
100
AcDbLayerTableRecord
  2
COPY_PUBLISH
 70
0
 62
7
  6
CONTINUOUS
370
-3
390
F
  0
LAYER
  5
201
100
AcDbSymbolTableRecord
100
AcDbLayerTableRecord
  2
COSMETIC
 70
0
 62
7
  6
CONTINUOUS
370
-3
390
F
  0
LAYER
  5
202
100
AcDbSymbolTableRecord
100
AcDbLayerTableRecord
  2
COSMETICHE
 70
0
 62
7
  6
CONTINUOUS
370
-3
390
F
  0
LAYER
  5
203
100
AcDbSymbolTableRecord
100
AcDbLayerTableRecord
  2
COSMETICI
 70
0
 62
7
  6
CONTINUOUS
370
-3
390
F
  0
LAYER
  5
204
100
AcDbSymbolTableRecord
100
AcDbLayerTableRecord
  2
CURVE
 70
0
 62
7
  6
CONTINUOUS
370
-3
390
F
  0
LAYER
  5
205
100
AcDbSymbolTableRecord
100
AcDbLayerTableRecord
  2
DRAFT
 70
0
 62
7
  6
CONTINUOUS
370
-3
390
F
  0
LAYER
  5
206
100
AcDbSymbolTableRecord
100
AcDbLayerTableRecord
  2
IMPORT
 70
0
 62
7
  6
CONTINUOUS
370
-3
390
F
  0
LAYER
  5
207
100
AcDbSymbolTableRecord
100
AcDbLayerTableRecord
  2
IMPORT_IGES
 70
0
 62
7
  6
CONTINUOUS
370
-3
390
F
  0
LAYER
  5
208
100
AcDbSymbolTableRecord
100
AcDbLayerTableRecord
  2
INTFCLR_1
 70
0
 62
7
  6
CONTINUOUS
370
-3
390
F
  0
LAYER
  5
209
100
AcDbSymbolTableRecord
100
AcDbLayerTableRecord
  2
INTF_1
 70
0
 62
7
  6
CONTINUOUS
370
-3
390
F
  0
LAYER
  5
20A
100
AcDbSymbolTableRecord
100
AcDbLayerTableRecord
  2
INTF_15
 70
0
 62
7
  6
CONTINUOUS
370
-3
390
F
  0
LAYER
  5
20B
100
AcDbSymbolTableRecord
100
AcDbLayerTableRecord
  2
INTF_16
 70
0
 62
7
  6
CONTINUOUS
370
-3
390
F
  0
LAYER
  5
20C
100
AcDbSymbolTableRecord
100
AcDbLayerTableRecord
  2
LAY0001
 70
0
 62
7
  6
CONTINUOUS
370
-3
390
F
  0
LAYER
  5
20D
100
AcDbSymbolTableRecord
100
AcDbLayerTableRecord
  2
NOTE
 70
0
 62
7
  6
CONTINUOUS
370
-3
390
F
  0
LAYER
  5
20E
100
AcDbSymbolTableRecord
100
AcDbLayerTableRecord
  2
PIANI
 70
0
 62
7
  6
CONTINUOUS
370
-3
390
F
  0
LAYER
  5
20F
100
AcDbSymbolTableRecord
100
AcDbLayerTableRecord
  2
PIANI_ORIGINE
 70
0
 62
7
  6
CONTINUOUS
370
-3
390
F
  0
LAYER
  5
210
100
AcDbSymbolTableRecord
100
AcDbLayerTableRecord
  2
PIANI_SFORMO
 70
0
 62
7
  6
CONTINUOUS
370
-3
390
F
  0
LAYER
  5
211
100
AcDbSymbolTableRecord
100
AcDbLayerTableRecord
  2
PUNTI
 70
0
 62
7
  6
CONTINUOUS
370
-3
390
F
  0
LAYER
  5
212
100
AcDbSymbolTableRecord
100
AcDbLayerTableRecord
  2
RACCORDO
 70
0
 62
7
  6
CONTINUOUS
370
-3
390
F
  0
LAYER
  5
213
100
AcDbSymbolTableRecord
100
AcDbLayerTableRecord
  2
SIMBOLI
 70
0
 62
7
  6
CONTINUOUS
370
-3
390
F
  0
LAYER
  5
214
100
AcDbSymbolTableRecord
100
AcDbLayerTableRecord
  2
SMUSSO
 70
0
 62
7
  6
CONTINUOUS
370
-3
390
F
  0
LAYER
  5
215
100
AcDbSymbolTableRecord
100
AcDbLayerTableRecord
  2
SNAPLINE
 70
0
 62
7
  6
CONTINUOUS
370
-3
390
F
  0
LAYER
  5
216
100
AcDbSymbolTableRecord
100
AcDbLayerTableRecord
  2
SUPERFICI
 70
0
 62
7
  6
CONTINUOUS
370
-3
390
F
  0
LAYER
  5
217
100
AcDbSymbolTableRecord
100
AcDbLayerTableRecord
  2
SUPERFICI_SKEL
 70
0
 62
7
  6
CONTINUOUS
370
-3
390
F
  0
LAYER
  5
218
100
AcDbSymbolTableRecord
100
AcDbLayerTableRecord
  2
TRASH
 70
0
 62
7
  6
CONTINUOUS
370
-3
390
F
  0
LAYER
  5
219
100
AcDbSymbolTableRecord
100
AcDbLayerTableRecord
  2
XSEC_DATUMS
 70
0
 62
7
  6
CONTINUOUS
370
-3
390
F
  0
ENDTAB
  0
TABLE
  2
STYLE
  5
3
100
AcDbSymbolTable
 70
1
  0
STYLE
  5
11
100
AcDbSymbolTableRecord
100
AcDbTextStyleTableRecord
  2
STANDARD
 70
0
 40
0.0
 41
0.8
 50
0.0
 71
0
 42
0.2
  3
txt
  4

  0
STYLE
  5
21A
100
AcDbSymbolTableRecord
100
AcDbTextStyleTableRecord
  2
TEXTSTYLE_1
 70
0
 40
0.0
 41
0.8
 50
0.0
 71
0
 42
0.2
  3
gdt
  4

  0
ENDTAB
  0
TABLE
  2
VIEW
  5
6
100
AcDbSymbolTable
 70
0
  0
ENDTAB
  0
TABLE
  2
UCS
  5
7
100
AcDbSymbolTable
 70
0
  0
ENDTAB
  0
TABLE
  2
APPID
  5
9
100
AcDbSymbolTable
 70
1
  0
APPID
  5
21B
100
AcDbSymbolTableRecord
100
AcDbRegAppTableRecord
  2
ACAD
 70
0
  0
ENDTAB
  0
TABLE
  2
BLOCK_RECORD
  5
1
100
AcDbSymbolTable
 70
0
  0
BLOCK_RECORD
  5
21C
100
AcDbSymbolTableRecord
100
AcDbBlockTableRecord
  2
*Model_Space
  0
BLOCK_RECORD
  5
21D
100
AcDbSymbolTableRecord
100
AcDbBlockTableRecord
  2
*Paper_Space
  0
ENDTAB
  0
TABLE
  2
DIMSTYLE
  5
A
100
AcDbSymbolTable
 70
1
100
AcDbDimStyleTable
 71
0
  0
DIMSTYLE
105
21E
100
AcDbSymbolTableRecord
100
AcDbDimStyleTableRecord
  2
STANDARD
 70
0
  3

  4

 40
1.0
 41
3.0
 42
0.0625
 43
0.38
 44
0.18
 45
0.0
 46
0.0
 47
0.01
 48
0.01
140
3.0
141
0.09
142
0.0
143
25.4
144
1.0
145
0.0
146
1.0
147
0.09
 71
1.0
 72
0.0
 73
0
 74
0
 75
0
 76
0
 77
1
 78
8
170
0
171
2
172
0
173
0
174
0
175
0
176
0
177
0
178
0
270
2
271
2
272
2
273
2
274
2
275
0
280
0
281
0
282
0
283
1
284
8
285
0
286
0
287
3
288
0
340
11
  0
ENDTAB
  0
ENDSEC
  0
SECTION
  2
BLOCKS
  0
BLOCK
  5
20
100
AcDbEntity
  8
0
100
AcDbBlockBegin
  2
*Model_Space
 70
0
 10
0.0
 20
0.0
 30
0.0
  3
*Model_Space
  1

  0
ENDBLK
  5
21
100
AcDbEntity
  8
0
100
AcDbBlockEnd
  0
BLOCK
  5
1C
100
AcDbEntity
  8
0
100
AcDbBlockBegin
  2
*Paper_Space
 70
0
 10
0.0
 20
0.0
 30
0.0
  3
*Paper_Space
  1

  0
ENDBLK
  5
1D
100
AcDbEntity
  8
0
100
AcDbBlockEnd
  0
ENDSEC
  0
SECTION
  2
ENTITIES
  0
LINE
  5
21F
100
AcDbEntity
  8
ASSI
100
AcDbLine
 62
7
  6
CONTINUOUS
 10
-10.400030461
 20
-24.5
 11
-7.399969539
 21
-24.5
  0
LINE
  5
220
100
AcDbEntity
  8
ASSI
100
AcDbLine
 62
7
  6
CONTINUOUS
 10
7.399969539
 20
-24.5
 11
10.400030461
 21
-24.5
  0
LINE
  5
221
100
AcDbEntity
  8
ASSI
100
AcDbLine
 62
253
  6
CONTINUOUS
 10
10.3868630041
 20
-24.4868325431
 11
7.413136996
 21
-24.4868325431
  0
LINE
  5
222
100
AcDbEntity
  8
ASSI
100
AcDbLine
 62
253
  6
CONTINUOUS
 10
-7.4131369959
 20
-24.4868325431
 11
-10.3868630041
 21
-24.4868325431
  0
LINE
  5
223
100
AcDbEntity
  8
ASSI
100
AcDbLine
 62
253
  6
CONTINUOUS
 10
10.5859750215
 20
-24.2368706193
 11
7.2140249785
 21
-24.2368706193
  0
LINE
  5
224
100
AcDbEntity
  8
ASSI
100
AcDbLine
 62
253
  6
CONTINUOUS
 10
-7.2140249785
 20
-24.2368706193
 11
-10.5859750215
 21
-24.2368706193
  0
LINE
  5
225
100
AcDbEntity
  8
ASSI
100
AcDbLine
 62
7
  6
CONTINUOUS
 10
-4.2000380762
 20
-24.0
 11
-1.0499619238
 21
-24.0
  0
LINE
  5
226
100
AcDbEntity
  8
ASSI
100
AcDbLine
 62
7
  6
CONTINUOUS
 10
1.0499619238
 20
-24.0
 11
4.2000380762
 21
-24.0
  0
LINE
  5
227
100
AcDbEntity
  8
ASSI
100
AcDbLine
 62
7
  6
CONTINUOUS
 10
3.8478541563
 20
-23.9835887109
 11
1.0663732129
 21
-23.9835887109
  0
LINE
  5
228
100
AcDbEntity
  8
ASSI
100
AcDbLine
 62
7
  6
CONTINUOUS
 10
-1.0663732129
 20
-23.9835887109
 11
-3.8478541563
 21
-23.9835887109
  0
LINE
  5
229
100
AcDbEntity
  8
ASSI
100
AcDbLine
 62
253
  6
CONTINUOUS
 10
10.3860054824
 20
-23.8442507367
 11
9.0368706193
 21
-23.8443375673
  0
LINE
  5
22A
100
AcDbEntity
  8
ASSI
100
AcDbLine
 62
253
  6
CONTINUOUS
 10
10.5859750215
 20
-23.8443375673
 11
10.3860054824
 21
-23.8443375673
  0
LINE
  5
22B
100
AcDbEntity
  8
ASSI
100
AcDbLine
 62
253
  6
CONTINUOUS
 10
-7.2140249785
 20
-23.8443375673
 11
-8.7631293807
 21
-23.8443375673
  0
LINE
  5
22C
100
AcDbEntity
  8
ASSI
100
AcDbLine
 62
253
  6
CONTINUOUS
 10
8.7631293807
 20
-23.8443375673
 11
7.2140249785
 21
-23.8443375673
  0
LINE
  5
22D
100
AcDbEntity
  8
ASSI
100
AcDbLine
 62
253
  6
CONTINUOUS
 10
10.3864421555
 20
-23.6278214108
 11
9.2533769702
 21
-23.6278312163
  0
LINE
  5
22E
100
AcDbEntity
  8
ASSI
100
AcDbLine
 62
253
  6
CONTINUOUS
 10
-9.2533769702
 20
-23.6278312163
 11
-10.3864421556
 21
-23.6278214068
  0
LINE
  5
22F
100
AcDbEntity
  8
ASSI
100
AcDbLine
 62
253
  6
CONTINUOUS
 10
8.5466230298
 20
-23.6278312163
 11
7.4135581409
 21
-23.6278312163
  0
LINE
  5
230
100
AcDbEntity
  8
ASSI
100
AcDbLine
 62
253
  6
CONTINUOUS
 10
-7.4135581409
 20
-23.6278312163
 11
-8.5466230298
 21
-23.6278312163
  0
LINE
  5
231
100
AcDbEntity
  8
ASSI
100
AcDbLine
 62
7
  6
CONTINUOUS
 10
-10.4017150409
 20
-23.1226497308
 11
-9.3
 21
-23.1226497308
  0
LINE
  5
232
100
AcDbEntity
  8
ASSI
100
AcDbLine
 62
7
  6
CONTINUOUS
 10
-8.5
 20
-23.1226497308
 11
-7.3982849591
 21
-23.1226497308
  0
LINE
  5
233
100
AcDbEntity
  8
ASSI
100
AcDbLine
 62
7
  6
CONTINUOUS
 10
7.3982849591
 20
-23.1226497308
 11
8.5
 21
-23.1226497308
  0
LINE
  5
234
100
AcDbEntity
  8
ASSI
100
AcDbLine
 62
7
  6
CONTINUOUS
 10
9.3
 20
-23.1226497308
 11
10.4017150409
 21
-23.1226497308
  0
LINE
  5
235
100
AcDbEntity
  8
ASSI
100
AcDbLine
 62
253
  6
CONTINUOUS
 10
-9.0368706193
 20
-23.8443375673
 11
-10.5859750215
 21
-23.8443375673
  0
LINE
  5
236
100
AcDbEntity
  8
ASSI
100
AcDbLine
 62
253
  6
CONTINUOUS
 10
-7.4131369959
 20
24.4868325431
 11
-7.399969539
 21
24.5
  0
LINE
  5
237
100
AcDbEntity
  8
ASSI
100
AcDbLine
 62
253
  6
CONTINUOUS
 10
-7.2131674569
 20
24.2868630041
 11
-7.2
 21
24.300030461
  0
LINE
  5
238
100
AcDbEntity
  8
ASSI
100
AcDbLine
 62
7
  6
CONTINUOUS
 10
-8.5
 20
22.4
 11
-8.5131674569
 21
22.3868325431
  0
LINE
  5
239
100
AcDbEntity
  8
RACCORDO
100
AcDbLine
 62
7
  6
CONTINUOUS
 10
-8.8
 20
20.85
 11
-10.5643027805
 21
19.0856972195
  0
LINE
  5
23A
100
AcDbEntity
  8
ASSI
100
AcDbLine
 62
7
  6
CONTINUOUS
 10
-10.5643027805
 20
19.0856972195
 11
-11.0825449351
 21
18.5674550649
  0
LINE
  5
23B
100
AcDbEntity
  8
ASSI
100
AcDbLine
 62
7
  6
CONTINUOUS
 10
-7.2551134101
 20
22.3825449351
 11
-8.2325449351
 21
21.4051134101
  0
LINE
  5
23C
100
AcDbEntity
  8
ASSI
100
AcDbLine
 62
7
  6
CONTINUOUS
 10
-10.6897603707
 20
18.9478970345
 11
-11.0738174026
 21
18.5638400026
  0
LINE
  5
23D
100
AcDbEntity
  8
ASSI
100
AcDbLine
 62
7
  6
CONTINUOUS
 10
-8.0492667533
 20
20.9872686779
 11
-8.2325449351
 21
20.8956365661
  0
LINE
  5
23E
100
AcDbEntity
  8
ASSI
100
AcDbLine
 62
7
  6
CONTINUOUS
 10
-8.0497859431
 20
21.4586521215
 11
-8.2325449351
 21
21.4051134101
  0
LINE
  5
23F
100
AcDbEntity
  8
ASSI
100
AcDbLine
 62
7
  6
CONTINUOUS
 10
0.8
 20
-22.4
 11
0.8171358942
 21
-22.3982865828
  0
LINE
  5
240
100
AcDbEntity
  8
ASSI
100
AcDbLine
 62
253
  6
CONTINUOUS
 10
3.0573474057
 20
-21.2209325918
 11
3.3073093295
 21
-21.2165694902
  0
LINE
  5
241
100
AcDbEntity
  8
ASSI
100
AcDbLine
 62
7
  6
CONTINUOUS
 10
-10.6
 20
-22.3999999999
 11
-9.3
 21
-22.4
  0
LINE
  5
242
100
AcDbEntity
  8
ASSI
100
AcDbLine
 62
7
  6
CONTINUOUS
 10
-8.5
 20
-22.4
 11
-4.45
 21
-22.4
  0
LINE
  5
243
100
AcDbEntity
  8
ASSI
100
AcDbLine
 62
7
  6
CONTINUOUS
 10
4.45
 20
-22.4
 11
8.5
 21
-22.4
  0
LINE
  5
244
100
AcDbEntity
  8
ASSI
100
AcDbLine
 62
7
  6
CONTINUOUS
 10
9.3
 20
-22.4
 11
10.6000000646
 21
-22.3999999354
  0
LINE
  5
245
100
AcDbEntity
  8
ASSI
100
AcDbLine
 62
7
  6
CONTINUOUS
 10
-0.8171358942
 20
-22.3982865828
 11
0.8171358942
 21
-22.3982865828
  0
LINE
  5
246
100
AcDbEntity
  8
ASSI
100
AcDbLine
 62
7
  6
CONTINUOUS
 10
-10.5826210875
 20
-22.3825449351
 11
-9.0368706193
 21
-22.3825449351
  0
LINE
  5
247
100
AcDbEntity
  8
ASSI
100
AcDbLine
 62
7
  6
CONTINUOUS
 10
-8.7631293807
 20
-22.3825449351
 11
-7.2551134101
 21
-22.3825449351
  0
LINE
  5
248
100
AcDbEntity
  8
ASSI
100
AcDbLine
 62
7
  6
CONTINUOUS
 10
7.2551134101
 20
-22.3825449351
 11
8.7631293807
 21
-22.3825449351
  0
LINE
  5
249
100
AcDbEntity
  8
ASSI
100
AcDbLine
 62
7
  6
CONTINUOUS
 10
9.0368706193
 20
-22.3825449351
 11
10.5826210875
 21
-22.3825449351
  0
LINE
  5
24A
100
AcDbEntity
  8
ASSI
100
AcDbLine
 62
253
  6
CONTINUOUS
 10
-7.3037800478
 20
-22.2164171854
 11
-3.3203986343
 21
-22.2164171854
  0
LINE
  5
24B
100
AcDbEntity
  8
ASSI
100
AcDbLine
 62
253
  6
CONTINUOUS
 10
3.3203986343
 20
-22.2164171854
 11
7.3037800478
 21
-22.2164171854
  0
LINE
  5
24C
100
AcDbEntity
  8
ASSI
100
AcDbLine
 62
7
  6
CONTINUOUS
 10
3.0657095584
 20
-21.7
 11
-3.0657095584
 21
-21.7
  0
LINE
  5
24D
100
AcDbEntity
  8
RACCORDO
100
AcDbLine
 62
253
  6
CONTINUOUS
 10
6.3855603982
 20
-21.2846797207
 11
5.3288814035
 21
-21.2846797207
  0
LINE
  5
24E
100
AcDbEntity
  8
RACCORDO
100
AcDbLine
 62
253
  6
CONTINUOUS
 10
-5.3288814035
 20
-21.2846797207
 11
-6.3855603982
 21
-21.2846797207
  0
LINE
  5
24F
100
AcDbEntity
  8
RACCORDO
100
AcDbLine
 62
253
  6
CONTINUOUS
 10
-5.1271447135
 20
-21.2164914911
 11
-3.3073093295
 21
-21.2165694902
  0
LINE
  5
250
100
AcDbEntity
  8
RACCORDO
100
AcDbLine
 62
253
  6
CONTINUOUS
 10
3.3073093295
 20
-21.2165694902
 11
5.1272455623
 21
-21.2165694902
  0
LINE
  5
251
100
AcDbEntity
  8
RACCORDO
100
AcDbLine
 62
253
  6
CONTINUOUS
 10
-8.0492667533
 20
-21.2165694902
 11
-6.5872827295
 21
-21.2164786834
  0
LINE
  5
252
100
AcDbEntity
  8
RACCORDO
100
AcDbLine
 62
253
  6
CONTINUOUS
 10
6.3855304799
 20
-21.0710881356
 11
5.3288693584
 21
-21.0710881356
  0
LINE
  5
253
100
AcDbEntity
  8
RACCORDO
100
AcDbLine
 62
253
  6
CONTINUOUS
 10
-5.3289109031
 20
-21.0710881356
 11
-6.3855330453
 21
-21.0710881356
  0
LINE
  5
254
100
AcDbEntity
  8
RACCORDO
100
AcDbLine
 62
7
  6
CONTINUOUS
 10
8.0492667533
 20
-20.9872686779
 11
7.01446908
 21
-20.9872686779
  0
LINE
  5
255
100
AcDbEntity
  8
RACCORDO
100
AcDbLine
 62
7
  6
CONTINUOUS
 10
-7.01446908
 20
-20.9872686779
 11
-8.0492667533
 21
-20.9872686779
  0
LINE
  5
256
100
AcDbEntity
  8
RACCORDO
100
AcDbLine
 62
7
  6
CONTINUOUS
 10
-9.4368841832
 20
-20.8956365661
 11
-8.2325449351
 21
-20.8956365661
  0
LINE
  5
257
100
AcDbEntity
  8
RACCORDO
100
AcDbLine
 62
7
  6
CONTINUOUS
 10
8.2325449351
 20
-20.8956365661
 11
9.4368841832
 21
-20.8956365661
  0
LINE
  5
258
100
AcDbEntity
  8
RACCORDO
100
AcDbLine
 62
253
  6
CONTINUOUS
 10
6.5872663246
 20
-21.2164913559
 11
8.0492667533
 21
-21.2165694902
  0
LINE
  5
259
100
AcDbEntity
  8
ASSI
100
AcDbLine
 62
253
  6
CONTINUOUS
 10
-3.0573474057
 20
-21.2209325918
 11
-3.3073093295
 21
-21.2165694869
  0
LINE
  5
25A
100
AcDbEntity
  8
ASSI
100
AcDbLine
 62
7
  6
CONTINUOUS
 10
-8.0497859431
 20
-21.4586521215
 11
-8.2325449351
 21
-21.4051134101
  0
LINE
  5
25B
100
AcDbEntity
  8
ASSI
100
AcDbLine
 62
7
  6
CONTINUOUS
 10
-8.0492667533
 20
-20.9872686779
 11
-8.2325449351
 21
-20.8956365661
  0
LINE
  5
25C
100
AcDbEntity
  8
ASSI
100
AcDbLine
 62
253
  6
CONTINUOUS
 10
-7.399969539
 20
-24.5
 11
-7.4131369959
 21
-24.4868325431
  0
LINE
  5
25D
100
AcDbEntity
  8
ASSI
100
AcDbLine
 62
253
  6
CONTINUOUS
 10
-7.2
 20
-24.300030461
 11
-7.2131674569
 21
-24.286863004
  0
LINE
  5
25E
100
AcDbEntity
  8
ASSI
100
AcDbLine
 62
7
  6
CONTINUOUS
 10
-8.5
 20
-22.4
 11
-8.5131674569
 21
-22.3868325431
  0
LINE
  5
25F
100
AcDbEntity
  8
ASSI
100
AcDbLine
 62
7
  6
CONTINUOUS
 10
-11.0825449351
 20
-18.5674550649
 11
-10.5643027805
 21
-19.0856972195
  0
LINE
  5
260
100
AcDbEntity
  8
RACCORDO
100
AcDbLine
 62
7
  6
CONTINUOUS
 10
-10.5643027805
 20
-19.0856972195
 11
-8.8
 21
-20.85
  0
LINE
  5
261
100
AcDbEntity
  8
ASSI
100
AcDbLine
 62
7
  6
CONTINUOUS
 10
-8.2325449351
 20
-21.4051134101
 11
-7.2551134101
 21
-22.3825449351
  0
LINE
  5
262
100
AcDbEntity
  8
ASSI
100
AcDbLine
 62
7
  6
CONTINUOUS
 10
-11.0738174026
 20
-18.5638400026
 11
-10.6897603707
 21
-18.9478970345
  0
LINE
  5
263
100
AcDbEntity
  8
0
100
AcDbLine
 62
7
  6
CONTINUOUS
 10
-10.3897521312
 20
19.0133959733
 11
-8.7276987537
 21
20.6754493507
  0
LINE
  5
264
100
AcDbEntity
  8
RACCORDO
100
AcDbLine
 62
7
  6
CONTINUOUS
 10
-7.3721758223
 20
20.8278241777
 11
-7.2144614646
 21
20.9855385354
  0
LINE
  5
265
100
AcDbEntity
  8
DRAFT
100
AcDbLine
 62
7
  6
CONTINUOUS
 10
-7.4
 20
20.7644701819
 11
-7.4890208311
 21
20.6754493507
  0
LINE
  5
266
100
AcDbEntity
  8
RACCORDO
100
AcDbLine
 62
253
  6
CONTINUOUS
 10
-7.2144614646
 20
19.98553092
 11
-7.3725791191
 21
19.8274028385
  0
LINE
  5
267
100
AcDbEntity
  8
0
100
AcDbLine
 62
7
  6
CONTINUOUS
 10
-7.4
 20
19.7
 11
-7.4890208311
 21
19.6109791689
  0
LINE
  5
268
100
AcDbEntity
  8
RACCORDO
100
AcDbLine
 62
253
  6
CONTINUOUS
 10
-7.01446908
 20
19.7855385354
 11
-7.100058845
 21
19.7
  0
LINE
  5
269
100
AcDbEntity
  8
RACCORDO
100
AcDbLine
 62
253
  6
CONTINUOUS
 10
-5.4464336239
 20
20.1267659188
 11
-5.1288794371
 21
20.28553092
  0
LINE
  5
26A
100
AcDbEntity
  8
RACCORDO
100
AcDbLine
 62
253
  6
CONTINUOUS
 10
-5.2469883547
 20
19.9265114192
 11
-4.9289098981
 21
20.0855385354
  0
LINE
  5
26B
100
AcDbEntity
  8
RACCORDO
100
AcDbLine
 62
253
  6
CONTINUOUS
 10
4.9289098981
 20
-20.8711510238
 11
5.1288794371
 21
-20.8711510238
  0
LINE
  5
26C
100
AcDbEntity
  8
RACCORDO
100
AcDbLine
 62
253
  6
CONTINUOUS
 10
-4.9289098981
 20
-20.8711510238
 11
-5.1288794371
 21
-20.8711510239
  0
LINE
  5
26D
100
AcDbEntity
  8
RACCORDO
100
AcDbLine
 62
253
  6
CONTINUOUS
 10
-6.78553092
 20
-20.8710900996
 11
-6.5855385354
 21
-20.8710900996
  0
LINE
  5
26E
100
AcDbEntity
  8
RACCORDO
100
AcDbLine
 62
253
  6
CONTINUOUS
 10
6.78553092
 20
-20.8710900996
 11
6.5855385354
 21
-20.8710900996
  0
LINE
  5
26F
100
AcDbEntity
  8
DRAFT
100
AcDbLine
 62
7
  6
CONTINUOUS
 10
-8.8
 20
-20.85
 11
-7.4855298181
 21
-20.85
  0
LINE
  5
270
100
AcDbEntity
  8
DRAFT
100
AcDbLine
 62
7
  6
CONTINUOUS
 10
7.4855298181
 20
-20.85
 11
8.8
 21
-20.85
  0
LINE
  5
271
100
AcDbEntity
  8
ASSI
100
AcDbLine
 62
7
  6
CONTINUOUS
 10
-3.300038082
 20
-20.8
 11
3.300038082
 21
-20.8
  0
LINE
  5
272
100
AcDbEntity
  8
DRAFT
100
AcDbLine
 62
7
  6
CONTINUOUS
 10
-8.7276987537
 20
-20.6754493507
 11
-7.4890208311
 21
-20.6754493507
  0
LINE
  5
273
100
AcDbEntity
  8
DRAFT
100
AcDbLine
 62
7
  6
CONTINUOUS
 10
7.4890208311
 20
-20.6754493507
 11
8.7276987537
 21
-20.6754493507
  0
LINE
  5
274
100
AcDbEntity
  8
RACCORDO
100
AcDbLine
 62
253
  6
CONTINUOUS
 10
5.1288794371
 20
-20.28553092
 11
-5.1288794371
 21
-20.28553092
  0
LINE
  5
275
100
AcDbEntity
  8
RACCORDO
100
AcDbLine
 62
7
  6
CONTINUOUS
 10
4.9289098981
 20
-20.0855385354
 11
-4.9289098981
 21
-20.0855385354
  0
LINE
  5
276
100
AcDbEntity
  8
ASSI
100
AcDbLine
 62
7
  6
CONTINUOUS
 10
2.5017369722
 20
-20.0532460614
 11
2.4411968952
 21
-20.0532460614
  0
LINE
  5
277
100
AcDbEntity
  8
ASSI
100
AcDbLine
 62
7
  6
CONTINUOUS
 10
-2.4411968952
 20
-20.0532460614
 11
-2.5017369722
 21
-20.0532460614
  0
LINE
  5
278
100
AcDbEntity
  8
DRAFT
100
AcDbLine
 62
7
  6
CONTINUOUS
 10
4.95
 20
-20.0
 11
4.25
 21
-20.0
  0
LINE
  5
279
100
AcDbEntity
  8
DRAFT
100
AcDbLine
 62
7
  6
CONTINUOUS
 10
-3.5
 20
-20.0
 11
-3.4
 21
-20.0
  0
LINE
  5
27A
100
AcDbEntity
  8
DRAFT
100
AcDbLine
 62
7
  6
CONTINUOUS
 10
3.4
 20
-20.0
 11
3.5
 21
-20.0
  0
LINE
  5
27B
100
AcDbEntity
  8
DRAFT
100
AcDbLine
 62
7
  6
CONTINUOUS
 10
-4.25
 20
-20.0
 11
-4.95
 21
-20.0
  0
LINE
  5
27C
100
AcDbEntity
  8
RACCORDO
100
AcDbLine
 62
253
  6
CONTINUOUS
 10
6.5855385354
 20
-19.98553092
 11
7.2144614646
 21
-19.98553092
  0
LINE
  5
27D
100
AcDbEntity
  8
RACCORDO
100
AcDbLine
 62
253
  6
CONTINUOUS
 10
-6.5855385354
 20
-19.98553092
 11
-7.2144614646
 21
-19.98553092
  0
LINE
  5
27E
100
AcDbEntity
  8
RACCORDO
100
AcDbLine
 62
7
  6
CONTINUOUS
 10
5.75
 20
-19.9
 11
3.3932016106
 21
-19.9
  0
LINE
  5
27F
100
AcDbEntity
  8
RACCORDO
100
AcDbLine
 62
7
  6
CONTINUOUS
 10
-3.3932016106
 20
-19.9
 11
-5.75
 21
-19.9
  0
LINE
  5
280
100
AcDbEntity
  8
RACCORDO
100
AcDbLine
 62
7
  6
CONTINUOUS
 10
2.4
 20
-19.8843869511
 11
-2.4
 21
-19.8843869511
  0
LINE
  5
281
100
AcDbEntity
  8
DRAFT
100
AcDbLine
 62
7
  6
CONTINUOUS
 10
-5.6609791689
 20
-19.8109791689
 11
5.6609791689
 21
-19.8109791689
  0
LINE
  5
282
100
AcDbEntity
  8
RACCORDO
100
AcDbLine
 62
7
  6
CONTINUOUS
 10
7.01446908
 20
-19.7855385354
 11
6.78553092
 21
-19.7855385354
  0
LINE
  5
283
100
AcDbEntity
  8
RACCORDO
100
AcDbLine
 62
7
  6
CONTINUOUS
 10
-6.78553092
 20
-19.7855385354
 11
-7.01446908
 21
-19.7855385354
  0
LINE
  5
284
100
AcDbEntity
  8
DRAFT
100
AcDbLine
 62
7
  6
CONTINUOUS
 10
7.4
 20
-19.7
 11
5.75
 21
-19.7
  0
LINE
  5
285
100
AcDbEntity
  8
DRAFT
100
AcDbLine
 62
7
  6
CONTINUOUS
 10
-5.75
 20
-19.7
 11
-7.4
 21
-19.7
  0
LINE
  5
286
100
AcDbEntity
  8
0
100
AcDbLine
 62
7
  6
CONTINUOUS
 10
-7.4890208311
 20
-19.6109791689
 11
-5.6609791689
 21
-19.6109791689
  0
LINE
  5
287
100
AcDbEntity
  8
0
100
AcDbLine
 62
7
  6
CONTINUOUS
 10
5.6609791689
 20
-19.6109791689
 11
7.4890208311
 21
-19.6109791689
  0
LINE
  5
288
100
AcDbEntity
  8
RACCORDO
100
AcDbLine
 62
253
  6
CONTINUOUS
 10
-5.1288794371
 20
-20.28553092
 11
-5.4464336159
 21
-20.1267754405
  0
LINE
  5
289
100
AcDbEntity
  8
RACCORDO
100
AcDbLine
 62
253
  6
CONTINUOUS
 10
-4.9289098981
 20
-20.0855385354
 11
-5.2469883547
 21
-19.9265114192
  0
LINE
  5
28A
100
AcDbEntity
  8
0
100
AcDbLine
 62
7
  6
CONTINUOUS
 10
-8.7276987537
 20
-20.6754493507
 11
-10.3897521312
 21
-19.0133959733
  0
LINE
  5
28B
100
AcDbEntity
  8
RACCORDO
100
AcDbLine
 62
7
  6
CONTINUOUS
 10
-7.2144614646
 20
-20.9855385354
 11
-7.3721758223
 21
-20.8278241777
  0
LINE
  5
28C
100
AcDbEntity
  8
DRAFT
100
AcDbLine
 62
7
  6
CONTINUOUS
 10
-7.4
 20
-20.7644701819
 11
-7.4890208311
 21
-20.6754493507
  0
LINE
  5
28D
100
AcDbEntity
  8
0
100
AcDbLine
 62
7
  6
CONTINUOUS
 10
-7.4
 20
-19.7
 11
-7.4890208311
 21
-19.6109791689
  0
LINE
  5
28E
100
AcDbEntity
  8
RACCORDO
100
AcDbLine
 62
253
  6
CONTINUOUS
 10
-7.1000022559
 20
-19.7
 11
-7.01446908
 21
-19.7855385354
  0
LINE
  5
28F
100
AcDbEntity
  8
RACCORDO
100
AcDbLine
 62
253
  6
CONTINUOUS
 10
-7.372579203
 20
-19.8271912776
 11
-7.2144614646
 21
-19.98553092
  0
LINE
  5
290
100
AcDbEntity
  8
RACCORDO
100
AcDbLine
 62
253
  6
CONTINUOUS
 10
-5.3288693584
 20
21.0710881356
 11
-5.6460423798
 21
20.7539271592
  0
LINE
  5
291
100
AcDbEntity
  8
RACCORDO
100
AcDbLine
 62
253
  6
CONTINUOUS
 10
-5.1288794371
 20
20.8711634826
 11
-5.4460728408
 21
20.5539576202
  0
LINE
  5
292
100
AcDbEntity
  8
ASSI
100
AcDbLine
 62
253
  6
CONTINUOUS
 10
-1.0663732129
 20
23.9835887109
 11
-1.0499619238
 21
24.0
  0
LINE
  5
293
100
AcDbEntity
  8
RACCORDO
100
AcDbLine
 62
7
  6
CONTINUOUS
 10
-5.0234127252
 20
19.9265872748
 11
-4.95
 21
20.0
  0
LINE
  5
294
100
AcDbEntity
  8
ASSI
100
AcDbLine
 62
253
  6
CONTINUOUS
 10
-0.8165255932
 20
23.733512483
 11
-0.8
 21
23.7500380762
  0
LINE
  5
295
100
AcDbEntity
  8
RACCORDO
100
AcDbLine
 62
253
  6
CONTINUOUS
 10
9.4368841832
 20
20.8956365661
 11
9.2355533032
 21
20.8285399025
  0
LINE
  5
296
100
AcDbEntity
  8
RACCORDO
100
AcDbLine
 62
253
  6
CONTINUOUS
 10
9.2355533032
 20
-20.8285399025
 11
9.4368841832
 21
-20.8956365661
  0
LINE
  5
297
100
AcDbEntity
  8
RACCORDO
100
AcDbLine
 62
253
  6
CONTINUOUS
 10
-5.3289109031
 20
-21.0710881356
 11
-5.6460423798
 21
-20.7539271592
  0
LINE
  5
298
100
AcDbEntity
  8
RACCORDO
100
AcDbLine
 62
253
  6
CONTINUOUS
 10
-5.1288794371
 20
-20.8711510238
 11
-5.4460728408
 21
-20.5539576202
  0
LINE
  5
299
100
AcDbEntity
  8
ASSI
100
AcDbLine
 62
253
  6
CONTINUOUS
 10
-1.0499619238
 20
-24.0
 11
-1.0663732129
 21
-23.9835887109
  0
LINE
  5
29A
100
AcDbEntity
  8
RACCORDO
100
AcDbLine
 62
7
  6
CONTINUOUS
 10
-5.0234127252
 20
-19.9265872748
 11
-4.95
 21
-20.0
  0
LINE
  5
29B
100
AcDbEntity
  8
ASSI
100
AcDbLine
 62
253
  6
CONTINUOUS
 10
-0.8
 20
-23.7500380762
 11
-0.8165255932
 21
-23.733512483
  0
LINE
  5
29C
100
AcDbEntity
  8
RACCORDO
100
AcDbLine
 62
253
  6
CONTINUOUS
 10
-5.127245562
 20
21.21656949
 11
-5.228025264
 21
21.0438819853
  0
LINE
  5
29D
100
AcDbEntity
  8
RACCORDO
100
AcDbLine
 62
253
  6
CONTINUOUS
 10
9.6369070392
 20
20.695674639
 11
9.4354847682
 21
20.6285475178
  0
LINE
  5
29E
100
AcDbEntity
  8
RACCORDO
100
AcDbLine
 62
253
  6
CONTINUOUS
 10
9.9670264395
 20
-16.4508094107
 11
-9.9670264395
 21
-16.4508094107
  0
LINE
  5
29F
100
AcDbEntity
  8
RACCORDO
100
AcDbLine
 62
253
  6
CONTINUOUS
 10
9.9670264395
 20
-15.9508855631
 11
-9.9670264395
 21
-15.9508855631
  0
LINE
  5
2A0
100
AcDbEntity
  8
RACCORDO
100
AcDbLine
 62
253
  6
CONTINUOUS
 10
-9.7832913085
 20
-15.767150432
 11
-3.2394222772
 21
-15.767150432
  0
LINE
  5
2A1
100
AcDbEntity
  8
RACCORDO
100
AcDbLine
 62
253
  6
CONTINUOUS
 10
3.2394222772
 20
-15.767150432
 11
9.7832913085
 21
-15.767150432
  0
LINE
  5
2A2
100
AcDbEntity
  8
RACCORDO
100
AcDbLine
 62
253
  6
CONTINUOUS
 10
-10.7831390036
 20
-14.7673027369
 11
-2.8024659223
 21
-14.7673027369
  0
LINE
  5
2A3
100
AcDbEntity
  8
RACCORDO
100
AcDbLine
 62
253
  6
CONTINUOUS
 10
2.8024659223
 20
-14.7673027369
 11
10.7831390036
 21
-14.7673027369
  0
LINE
  5
2A4
100
AcDbEntity
  8
RACCORDO
100
AcDbLine
 62
253
  6
CONTINUOUS
 10
9.4354847682
 20
-20.6285475178
 11
9.6369070392
 21
-20.695674639
  0
LINE
  5
2A5
100
AcDbEntity
  8
RACCORDO
100
AcDbLine
 62
253
  6
CONTINUOUS
 10
-5.1272455641
 20
-21.2165694912
 11
-5.2280254793
 21
-21.0438816176
  0
LINE
  5
2A6
100
AcDbEntity
  8
ASSI
100
AcDbLine
 62
7
  6
CONTINUOUS
 10
-7.3037800478
 20
22.2164171854
 11
-7.2551134101
 21
22.3825449351
  0
LINE
  5
2A7
100
AcDbEntity
  8
ASSI
100
AcDbLine
 62
253
  6
CONTINUOUS
 10
4.2000380762
 20
24.0
 11
4.1017910252
 21
23.901752949
  0
LINE
  5
2A8
100
AcDbEntity
  8
ASSI
100
AcDbLine
 62
253
  6
CONTINUOUS
 10
4.45
 20
23.7500380762
 11
4.351752949
 21
23.6517910252
  0
LINE
  5
2A9
100
AcDbEntity
  8
ASSI
100
AcDbLine
 62
7
  6
CONTINUOUS
 10
4.45
 20
22.4
 11
4.3520586235
 21
22.3020586235
  0
LINE
  5
2AA
100
AcDbEntity
  8
RACCORDO
100
AcDbLine
 62
7
  6
CONTINUOUS
 10
-2.7499333682
 20
15.0395272527
 11
-2.8022522851
 21
14.9872152382
  0
LINE
  5
2AB
100
AcDbEntity
  8
0
100
AcDbLine
 62
253
  6
CONTINUOUS
 10
10.5643027805
 20
19.0856972195
 11
10.3897521312
 21
19.0133959733
  0
LINE
  5
2AC
100
AcDbEntity
  8
ASSI
100
AcDbLine
 62
7
  6
CONTINUOUS
 10
11.0738174026
 20
18.5638400026
 11
11.0825449351
 21
18.5674550649
  0
LINE
  5
2AD
100
AcDbEntity
  8
DRAFT
100
AcDbLine
 62
7
  6
CONTINUOUS
 10
2.8024659223
 20
-14.4869096983
 11
-2.8024659223
 21
-14.4869096983
  0
LINE
  5
2AE
100
AcDbEntity
  8
0
100
AcDbLine
 62
253
  6
CONTINUOUS
 10
10.3897521312
 20
-19.0133959733
 11
10.5643027805
 21
-19.0856972195
  0
LINE
  5
2AF
100
AcDbEntity
  8
ASSI
100
AcDbLine
 62
7
  6
CONTINUOUS
 10
11.0738174026
 20
-18.5638400026
 11
11.0825449351
 21
-18.5674550649
  0
LINE
  5
2B0
100
AcDbEntity
  8
ASSI
100
AcDbLine
 62
253
  6
CONTINUOUS
 10
4.1017910252
 20
-23.901752949
 11
4.2000380762
 21
-24.0
  0
LINE
  5
2B1
100
AcDbEntity
  8
ASSI
100
AcDbLine
 62
253
  6
CONTINUOUS
 10
4.351752949
 20
-23.6517910252
 11
4.45
 21
-23.7500380762
  0
LINE
  5
2B2
100
AcDbEntity
  8
ASSI
100
AcDbLine
 62
7
  6
CONTINUOUS
 10
4.45
 20
-22.4
 11
4.3520586235
 21
-22.3020586235
  0
LINE
  5
2B3
100
AcDbEntity
  8
RACCORDO
100
AcDbLine
 62
7
  6
CONTINUOUS
 10
-2.8022524288
 20
-14.9871422029
 11
-2.7499333627
 21
-15.0394543679
  0
LINE
  5
2B4
100
AcDbEntity
  8
ASSI
100
AcDbLine
 62
7
  6
CONTINUOUS
 10
-7.3037800478
 20
-22.2164171854
 11
-7.2551134101
 21
-22.3825449351
  0
LINE
  5
2B5
100
AcDbEntity
  8
ASSI
100
AcDbLine
 62
7
  6
CONTINUOUS
 10
-11.1226153273
 20
-18.0013746117
 11
-11.1
 21
-18.5
  0
LINE
  5
2B6
100
AcDbEntity
  8
ASSI
100
AcDbLine
 62
253
  6
CONTINUOUS
 10
-10.5864113981
 20
-23.8010362971
 11
-10.6
 21
-23.3515746082
  0
LINE
  5
2B7
100
AcDbEntity
  8
ASSI
100
AcDbLine
 62
253
  6
CONTINUOUS
 10
-10.3864421556
 20
-23.6278214068
 11
-10.4017150409
 21
-23.1226497308
  0
LINE
  5
2B8
100
AcDbEntity
  8
ASSI
100
AcDbLine
 62
7
  6
CONTINUOUS
 10
-11.1
 20
18.5
 11
-11.0896792631
 21
18.1586274394
  0
LINE
  5
2B9
100
AcDbEntity
  8
RACCORDO
100
AcDbLine
 62
7
  6
CONTINUOUS
 10
-11.15
 20
17.6716990487
 11
-11.15
 21
-17.6716990487
  0
LINE
  5
2BA
100
AcDbEntity
  8
ASSI
100
AcDbLine
 62
7
  6
CONTINUOUS
 10
-11.1
 20
21.9000761524
 11
-11.1
 21
18.5
  0
LINE
  5
2BB
100
AcDbEntity
  8
ASSI
100
AcDbLine
 62
7
  6
CONTINUOUS
 10
-11.1
 20
-21.9000761524
 11
-11.1
 21
-18.5
  0
LINE
  5
2BC
100
AcDbEntity
  8
ASSI
100
AcDbLine
 62
7
  6
CONTINUOUS
 10
-11.0825449351
 20
-21.8826210875
 11
-11.0825449351
 21
-18.5674550649
  0
LINE
  5
2BD
100
AcDbEntity
  8
ASSI
100
AcDbLine
 62
7
  6
CONTINUOUS
 10
-11.0825449351
 20
18.5674550649
 11
-11.0825449351
 21
21.8826210875
  0
LINE
  5
2BE
100
AcDbEntity
  8
ASSI
100
AcDbLine
 62
7
  6
CONTINUOUS
 10
-11.0738174026
 20
-18.5638400026
 11
-11.0738174026
 21
-18.2179158172
  0
LINE
  5
2BF
100
AcDbEntity
  8
ASSI
100
AcDbLine
 62
7
  6
CONTINUOUS
 10
-11.0738174026
 20
18.2179158172
 11
-11.0738174026
 21
18.5638400026
  0
LINE
  5
2C0
100
AcDbEntity
  8
RACCORDO
100
AcDbLine
 62
7
  6
CONTINUOUS
 10
-10.9754493507
 20
-17.5993978025
 11
-10.9754493507
 21
-16.0612245737
  0
LINE
  5
2C1
100
AcDbEntity
  8
RACCORDO
100
AcDbLine
 62
7
  6
CONTINUOUS
 10
-10.9754493507
 20
16.0612245738
 11
-10.9754493507
 21
17.5993978025
  0
LINE
  5
2C2
100
AcDbEntity
  8
RACCORDO
100
AcDbLine
 62
253
  6
CONTINUOUS
 10
-10.7831390036
 20
-14.7673027369
 11
-10.7831390036
 21
14.7673027369
  0
LINE
  5
2C3
100
AcDbEntity
  8
ASSI
100
AcDbLine
 62
7
  6
CONTINUOUS
 10
-10.6
 20
24.300030461
 11
-10.6000000646
 21
22.3999999296
  0
LINE
  5
2C4
100
AcDbEntity
  8
ASSI
100
AcDbLine
 62
7
  6
CONTINUOUS
 10
-10.6
 20
-22.3999997358
 11
-10.6
 21
-24.300030461
  0
LINE
  5
2C5
100
AcDbEntity
  8
ASSI
100
AcDbLine
 62
253
  6
CONTINUOUS
 10
-10.5859750215
 20
-24.2368706193
 11
-10.5859750215
 21
-23.8443375673
  0
LINE
  5
2C6
100
AcDbEntity
  8
ASSI
100
AcDbLine
 62
253
  6
CONTINUOUS
 10
-10.5859750215
 20
23.8443375673
 11
-10.5859750215
 21
24.2368706193
  0
LINE
  5
2C7
100
AcDbEntity
  8
ASSI
100
AcDbLine
 62
253
  6
CONTINUOUS
 10
-10.3860054824
 20
-24.2368706193
 11
-10.3860054824
 21
-23.844250724
  0
LINE
  5
2C8
100
AcDbEntity
  8
ASSI
100
AcDbLine
 62
253
  6
CONTINUOUS
 10
-10.3860054824
 20
23.844357602
 11
-10.3860054824
 21
24.2368706193
  0
LINE
  5
2C9
100
AcDbEntity
  8
ASSI
100
AcDbLine
 62
253
  6
CONTINUOUS
 10
-10.6
 20
23.3515746082
 11
-10.5864113981
 21
23.8010362971
  0
LINE
  5
2CA
100
AcDbEntity
  8
ASSI
100
AcDbLine
 62
253
  6
CONTINUOUS
 10
-10.4017150409
 20
23.1226497308
 11
-10.3864405812
 21
23.6278734826
  0
LINE
  5
2CB
100
AcDbEntity
  8
ASSI
100
AcDbLine
 62
7
  6
CONTINUOUS
 10
-11.0896792631
 20
-18.1586274394
 11
-11.1
 21
-18.5
  0
LINE
  5
2CC
100
AcDbEntity
  8
ASSI
100
AcDbLine
 62
7
  6
CONTINUOUS
 10
-11.1
 20
18.5
 11
-11.1226153273
 21
18.0013746117
  0
LINE
  5
2CD
100
AcDbEntity
  8
DRAFT
100
AcDbLine
 62
7
  6
CONTINUOUS
 10
-2.8024659223
 20
14.4869096983
 11
-2.7498952884
 21
14.5394803322
  0
LINE
  5
2CE
100
AcDbEntity
  8
RACCORDO
100
AcDbLine
 62
7
  6
CONTINUOUS
 10
4.1762170214
 20
19.9262170214
 11
4.25
 21
20.0
  0
LINE
  5
2CF
100
AcDbEntity
  8
0
100
AcDbLine
 62
253
  6
CONTINUOUS
 10
11.15
 20
17.6716990487
 11
10.9754493507
 21
17.5993978025
  0
LINE
  5
2D0
100
AcDbEntity
  8
0
100
AcDbLine
 62
253
  6
CONTINUOUS
 10
10.9754493507
 20
-17.5993978025
 11
11.15
 21
-17.6716990487
  0
LINE
  5
2D1
100
AcDbEntity
  8
DRAFT
100
AcDbLine
 62
7
  6
CONTINUOUS
 10
-2.8024659223
 20
-14.4869096983
 11
-2.7498952884
 21
-14.5394803322
  0
LINE
  5
2D2
100
AcDbEntity
  8
RACCORDO
100
AcDbLine
 62
7
  6
CONTINUOUS
 10
4.1762170214
 20
-19.9262170214
 11
4.25
 21
-20.0
  0
LINE
  5
2D3
100
AcDbEntity
  8
ASSI
100
AcDbLine
 62
7
  6
CONTINUOUS
 10
-9.3
 20
-23.1226497308
 11
-9.2868325431
 21
-23.5581814706
  0
LINE
  5
2D4
100
AcDbEntity
  8
RACCORDO
100
AcDbLine
 62
253
  6
CONTINUOUS
 10
-9.9670264395
 20
-15.9508855631
 11
-9.9670264395
 21
-16.4508094107
  0
LINE
  5
2D5
100
AcDbEntity
  8
RACCORDO
100
AcDbLine
 62
253
  6
CONTINUOUS
 10
-9.9670264395
 20
15.9508855631
 11
-9.9670264395
 21
16.4508094107
  0
LINE
  5
2D6
100
AcDbEntity
  8
RACCORDO
100
AcDbLine
 62
253
  6
CONTINUOUS
 10
-9.7832913085
 20
-15.767150432
 11
-9.7832913085
 21
15.767150432
  0
LINE
  5
2D7
100
AcDbEntity
  8
RACCORDO
100
AcDbLine
 62
7
  6
CONTINUOUS
 10
-9.6369070392
 20
-20.695674639
 11
-9.6369070392
 21
-20.0130929608
  0
LINE
  5
2D8
100
AcDbEntity
  8
RACCORDO
100
AcDbLine
 62
7
  6
CONTINUOUS
 10
-9.6369070392
 20
20.0130929608
 11
-9.6369070392
 21
20.695674639
  0
LINE
  5
2D9
100
AcDbEntity
  8
ASSI
100
AcDbLine
 62
7
  6
CONTINUOUS
 10
-9.3
 20
23.1226497308
 11
-9.3
 21
22.4
  0
LINE
  5
2DA
100
AcDbEntity
  8
ASSI
100
AcDbLine
 62
7
  6
CONTINUOUS
 10
-9.3
 20
-22.4
 11
-9.3
 21
-23.1226497308
  0
LINE
  5
2DB
100
AcDbEntity
  8
ASSI
100
AcDbLine
 62
253
  6
CONTINUOUS
 10
-9.2868325431
 20
23.5581814706
 11
-9.2868325431
 21
22.3868325431
  0
LINE
  5
2DC
100
AcDbEntity
  8
ASSI
100
AcDbLine
 62
253
  6
CONTINUOUS
 10
-9.2868325431
 20
-22.3868325431
 11
-9.2868325431
 21
-23.5581814706
  0
LINE
  5
2DD
100
AcDbEntity
  8
ASSI
100
AcDbLine
 62
253
  6
CONTINUOUS
 10
-9.0368706193
 20
23.8443375673
 11
-9.0368706193
 21
22.3825449351
  0
LINE
  5
2DE
100
AcDbEntity
  8
ASSI
100
AcDbLine
 62
253
  6
CONTINUOUS
 10
-9.0368706193
 20
-22.3825449351
 11
-9.0368706193
 21
-23.8443375673
  0
LINE
  5
2DF
100
AcDbEntity
  8
ASSI
100
AcDbLine
 62
253
  6
CONTINUOUS
 10
-8.7631293807
 20
23.8443375673
 11
-8.7631293807
 21
22.3825449351
  0
LINE
  5
2E0
100
AcDbEntity
  8
ASSI
100
AcDbLine
 62
253
  6
CONTINUOUS
 10
-8.7631293807
 20
-22.3825449351
 11
-8.7631293807
 21
-23.8443375673
  0
LINE
  5
2E1
100
AcDbEntity
  8
ASSI
100
AcDbLine
 62
253
  6
CONTINUOUS
 10
-8.5131674569
 20
23.5581814706
 11
-8.5131674569
 21
22.3868325431
  0
LINE
  5
2E2
100
AcDbEntity
  8
ASSI
100
AcDbLine
 62
253
  6
CONTINUOUS
 10
-8.5131674569
 20
-22.3868325431
 11
-8.5131674569
 21
-23.5581814706
  0
LINE
  5
2E3
100
AcDbEntity
  8
ASSI
100
AcDbLine
 62
7
  6
CONTINUOUS
 10
-8.5
 20
23.1226497308
 11
-8.5
 21
22.4
  0
LINE
  5
2E4
100
AcDbEntity
  8
ASSI
100
AcDbLine
 62
7
  6
CONTINUOUS
 10
-8.5
 20
-22.4
 11
-8.5
 21
-23.1226497308
  0
LINE
  5
2E5
100
AcDbEntity
  8
ASSI
100
AcDbLine
 62
7
  6
CONTINUOUS
 10
-8.2325449351
 20
21.4051134101
 11
-8.2325449351
 21
20.8956365661
  0
LINE
  5
2E6
100
AcDbEntity
  8
ASSI
100
AcDbLine
 62
7
  6
CONTINUOUS
 10
-8.2325449351
 20
-20.8956365661
 11
-8.2325449351
 21
-21.4051134101
  0
LINE
  5
2E7
100
AcDbEntity
  8
ASSI
100
AcDbLine
 62
7
  6
CONTINUOUS
 10
-9.2868325431
 20
23.5581814706
 11
-9.3
 21
23.1226497308
  0
LINE
  5
2E8
100
AcDbEntity
  8
ASSI
100
AcDbLine
 62
253
  6
CONTINUOUS
 10
10.6
 20
22.3999999999
 11
10.5826210875
 21
22.3825449351
  0
LINE
  5
2E9
100
AcDbEntity
  8
DRAFT
100
AcDbLine
 62
7
  6
CONTINUOUS
 10
5.75
 20
19.9
 11
5.6609791689
 21
19.8109791689
  0
LINE
  5
2EA
100
AcDbEntity
  8
ASSI
100
AcDbLine
 62
253
  6
CONTINUOUS
 10
10.400030461
 20
24.5
 11
10.3868630041
 21
24.4868325431
  0
LINE
  5
2EB
100
AcDbEntity
  8
0
100
AcDbLine
 62
7
  6
CONTINUOUS
 10
5.75
 20
19.7
 11
5.6609791689
 21
19.6109791689
  0
LINE
  5
2EC
100
AcDbEntity
  8
ASSI
100
AcDbLine
 62
253
  6
CONTINUOUS
 10
10.6
 20
24.300030461
 11
10.5868325431
 21
24.2868630041
  0
LINE
  5
2ED
100
AcDbEntity
  8
RACCORDO
100
AcDbLine
 62
253
  6
CONTINUOUS
 10
6.5855385354
 20
19.98553092
 11
6.4268801279
 21
19.8268843232
  0
LINE
  5
2EE
100
AcDbEntity
  8
DRAFT
100
AcDbLine
 62
7
  6
CONTINUOUS
 10
7.4855298181
 20
20.85
 11
7.4
 21
20.7644701819
  0
LINE
  5
2EF
100
AcDbEntity
  8
ASSI
100
AcDbLine
 62
7
  6
CONTINUOUS
 10
9.3
 20
22.4
 11
9.2868325431
 21
22.3868325431
  0
LINE
  5
2F0
100
AcDbEntity
  8
RACCORDO
100
AcDbLine
 62
253
  6
CONTINUOUS
 10
6.78553092
 20
19.7855385354
 11
6.6999974788
 21
19.7
  0
LINE
  5
2F1
100
AcDbEntity
  8
0
100
AcDbLine
 62
7
  6
CONTINUOUS
 10
2.9223036322
 20
-9.5911112606
 11
2.0202332625
 21
-9.8328202876
  0
LINE
  5
2F2
100
AcDbEntity
  8
0
100
AcDbLine
 62
253
  6
CONTINUOUS
 10
2.8058857162
 20
-9.5705415381
 11
1.931304163
 21
-9.804884959
  0
LINE
  5
2F3
100
AcDbEntity
  8
0
100
AcDbLine
 62
7
  6
CONTINUOUS
 10
-2.8003816276
 20
-9.55
 11
-1.75
 21
-9.55
  0
LINE
  5
2F4
100
AcDbEntity
  8
0
100
AcDbLine
 62
7
  6
CONTINUOUS
 10
2.8003816276
 20
-9.55
 11
1.75
 21
-9.55
  0
LINE
  5
2F5
100
AcDbEntity
  8
0
100
AcDbLine
 62
7
  6
CONTINUOUS
 10
3.5630120243
 20
-9.54
 11
3.3105321998
 21
-9.54
  0
LINE
  5
2F6
100
AcDbEntity
  8
0
100
AcDbLine
 62
7
  6
CONTINUOUS
 10
-3.3105321998
 20
-9.54
 11
-3.5630120243
 21
-9.54
  0
LINE
  5
2F7
100
AcDbEntity
  8
0
100
AcDbLine
 62
7
  6
CONTINUOUS
 10
-3.9361067391
 20
-9.15
 11
-3.65
 21
-9.15
  0
LINE
  5
2F8
100
AcDbEntity
  8
0
100
AcDbLine
 62
253
  6
CONTINUOUS
 10
-2.1304508474
 20
-9.15
 11
-1.75
 21
-9.15
  0
LINE
  5
2F9
100
AcDbEntity
  8
0
100
AcDbLine
 62
253
  6
CONTINUOUS
 10
1.75
 20
-9.15
 11
2.1304417793
 21
-9.15
  0
LINE
  5
2FA
100
AcDbEntity
  8
0
100
AcDbLine
 62
7
  6
CONTINUOUS
 10
3.65
 20
-9.15
 11
3.9361067391
 21
-9.15
  0
LINE
  5
2FB
100
AcDbEntity
  8
0
100
AcDbLine
 62
7
  6
CONTINUOUS
 10
-1.0571187256
 20
-8.95
 11
-0.9435646726
 21
-8.95
  0
LINE
  5
2FC
100
AcDbEntity
  8
0
100
AcDbLine
 62
7
  6
CONTINUOUS
 10
0.9435646726
 20
-8.95
 11
1.0571187256
 21
-8.95
  0
LINE
  5
2FD
100
AcDbEntity
  8
0
100
AcDbLine
 62
7
  6
CONTINUOUS
 10
-2.0202332625
 20
-9.8328202876
 11
-2.9223036322
 21
-9.5911112606
  0
LINE
  5
2FE
100
AcDbEntity
  8
0
100
AcDbLine
 62
253
  6
CONTINUOUS
 10
-1.931304163
 20
-9.804884959
 11
-2.8058857162
 21
-9.5705415381
  0
LINE
  5
2FF
100
AcDbEntity
  8
DRAFT
100
AcDbLine
 62
7
  6
CONTINUOUS
 10
5.6609791689
 20
-19.8109791689
 11
5.75
 21
-19.9
  0
LINE
  5
300
100
AcDbEntity
  8
ASSI
100
AcDbLine
 62
253
  6
CONTINUOUS
 10
10.3868630041
 20
-24.4868325431
 11
10.400030461
 21
-24.5
  0
LINE
  5
301
100
AcDbEntity
  8
0
100
AcDbLine
 62
7
  6
CONTINUOUS
 10
5.75
 20
-19.7
 11
5.6609791689
 21
-19.6109791689
  0
LINE
  5
302
100
AcDbEntity
  8
ASSI
100
AcDbLine
 62
253
  6
CONTINUOUS
 10
10.5868325431
 20
-24.286863004
 11
10.6
 21
-24.300030461
  0
LINE
  5
303
100
AcDbEntity
  8
RACCORDO
100
AcDbLine
 62
253
  6
CONTINUOUS
 10
6.5855385354
 20
-19.98553092
 11
6.4268801289
 21
-19.8268866791
  0
LINE
  5
304
100
AcDbEntity
  8
DRAFT
100
AcDbLine
 62
7
  6
CONTINUOUS
 10
7.4855298181
 20
-20.85
 11
7.4
 21
-20.7644701819
  0
LINE
  5
305
100
AcDbEntity
  8
ASSI
100
AcDbLine
 62
7
  6
CONTINUOUS
 10
9.3
 20
-22.4
 11
9.2868325431
 21
-22.3868325431
  0
LINE
  5
306
100
AcDbEntity
  8
RACCORDO
100
AcDbLine
 62
253
  6
CONTINUOUS
 10
6.78553092
 20
-19.7855385354
 11
6.6999866721
 21
-19.7
  0
LINE
  5
307
100
AcDbEntity
  8
ASSI
100
AcDbLine
 62
253
  6
CONTINUOUS
 10
10.5826210875
 20
-22.3825449351
 11
10.6000000646
 21
-22.3999999354
  0
LINE
  5
308
100
AcDbEntity
  8
ASSI
100
AcDbLine
 62
7
  6
CONTINUOUS
 10
-8.5131674569
 20
23.5581814706
 11
-8.5
 21
23.1226497308
  0
LINE
  5
309
100
AcDbEntity
  8
ASSI
100
AcDbLine
 62
253
  6
CONTINUOUS
 10
-7.3982849591
 20
23.1226497308
 11
-7.4135581655
 21
23.6278320282
  0
LINE
  5
30A
100
AcDbEntity
  8
ASSI
100
AcDbLine
 62
253
  6
CONTINUOUS
 10
-7.2
 20
23.3515746082
 11
-7.2135886019
 21
23.8010362971
  0
LINE
  5
30B
100
AcDbEntity
  8
ASSI
100
AcDbLine
 62
7
  6
CONTINUOUS
 10
-8.0492667533
 20
-21.2165694902
 11
-8.0492667533
 21
-20.9872686779
  0
LINE
  5
30C
100
AcDbEntity
  8
ASSI
100
AcDbLine
 62
7
  6
CONTINUOUS
 10
-8.0492667533
 20
20.9872686779
 11
-8.0492667533
 21
21.2165694902
  0
LINE
  5
30D
100
AcDbEntity
  8
0
100
AcDbLine
 62
7
  6
CONTINUOUS
 10
-7.4890208311
 20
-20.6754493507
 11
-7.4890208311
 21
-19.6109791689
  0
LINE
  5
30E
100
AcDbEntity
  8
0
100
AcDbLine
 62
7
  6
CONTINUOUS
 10
-7.4890208311
 20
19.6109791689
 11
-7.4890208311
 21
20.6754493507
  0
LINE
  5
30F
100
AcDbEntity
  8
ASSI
100
AcDbLine
 62
253
  6
CONTINUOUS
 10
-7.4139945176
 20
-24.2368706193
 11
-7.4139945176
 21
-23.8443359311
  0
LINE
  5
310
100
AcDbEntity
  8
ASSI
100
AcDbLine
 62
253
  6
CONTINUOUS
 10
-7.4139945176
 20
23.8443375673
 11
-7.4139945176
 21
24.2368706193
  0
LINE
  5
311
100
AcDbEntity
  8
DRAFT
100
AcDbLine
 62
7
  6
CONTINUOUS
 10
-7.4
 20
20.7644701819
 11
-7.4
 21
19.7
  0
LINE
  5
312
100
AcDbEntity
  8
DRAFT
100
AcDbLine
 62
7
  6
CONTINUOUS
 10
-7.4
 20
-19.7
 11
-7.4
 21
-20.7644701819
  0
LINE
  5
313
100
AcDbEntity
  8
RACCORDO
100
AcDbLine
 62
7
  6
CONTINUOUS
 10
-7.2144614646
 20
20.9855385354
 11
-7.2144614646
 21
19.98553092
  0
LINE
  5
314
100
AcDbEntity
  8
RACCORDO
100
AcDbLine
 62
7
  6
CONTINUOUS
 10
-7.2144614646
 20
-19.98553092
 11
-7.2144614646
 21
-20.9855385354
  0
LINE
  5
315
100
AcDbEntity
  8
ASSI
100
AcDbLine
 62
253
  6
CONTINUOUS
 10
-7.2140249785
 20
-24.2368706193
 11
-7.2140249785
 21
-23.8443375673
  0
LINE
  5
316
100
AcDbEntity
  8
ASSI
100
AcDbLine
 62
253
  6
CONTINUOUS
 10
-7.2140249785
 20
23.8443375673
 11
-7.2140249785
 21
24.2368706193
  0
LINE
  5
317
100
AcDbEntity
  8
ASSI
100
AcDbLine
 62
7
  6
CONTINUOUS
 10
-7.2
 20
24.300030461
 11
-7.2
 21
22.4
  0
LINE
  5
318
100
AcDbEntity
  8
ASSI
100
AcDbLine
 62
7
  6
CONTINUOUS
 10
-7.2
 20
-22.4
 11
-7.2
 21
-24.300030461
  0
LINE
  5
319
100
AcDbEntity
  8
RACCORDO
100
AcDbLine
 62
253
  6
CONTINUOUS
 10
-7.01446908
 20
20.9872686779
 11
-7.01446908
 21
19.7855385354
  0
LINE
  5
31A
100
AcDbEntity
  8
RACCORDO
100
AcDbLine
 62
253
  6
CONTINUOUS
 10
-7.01446908
 20
-20.9872686779
 11
-7.01446908
 21
-19.7855385354
  0
LINE
  5
31B
100
AcDbEntity
  8
RACCORDO
100
AcDbLine
 62
253
  6
CONTINUOUS
 10
-6.78553092
 20
-20.8710900996
 11
-6.78553092
 21
-19.7855385354
  0
LINE
  5
31C
100
AcDbEntity
  8
RACCORDO
100
AcDbLine
 62
253
  6
CONTINUOUS
 10
-6.78553092
 20
19.7855385354
 11
-6.78553092
 21
20.8710900996
  0
LINE
  5
31D
100
AcDbEntity
  8
RACCORDO
100
AcDbLine
 62
7
  6
CONTINUOUS
 10
-6.5855385354
 20
-20.8711361841
 11
-6.5855385354
 21
-19.98553092
  0
LINE
  5
31E
100
AcDbEntity
  8
RACCORDO
100
AcDbLine
 62
7
  6
CONTINUOUS
 10
-6.5855385354
 20
19.98553092
 11
-6.5855385354
 21
20.8710900996
  0
LINE
  5
31F
100
AcDbEntity
  8
RACCORDO
100
AcDbLine
 62
253
  6
CONTINUOUS
 10
-6.3855603982
 20
21.2846797207
 11
-6.3855603982
 21
21.0710881356
  0
LINE
  5
320
100
AcDbEntity
  8
RACCORDO
100
AcDbLine
 62
253
  6
CONTINUOUS
 10
-6.3855603982
 20
-21.2846797207
 11
-6.385560398
 21
-21.0710881356
  0
LINE
  5
321
100
AcDbEntity
  8
ASSI
100
AcDbLine
 62
7
  6
CONTINUOUS
 10
-8.5
 20
-23.1226497308
 11
-8.5131674569
 21
-23.5581814706
  0
LINE
  5
322
100
AcDbEntity
  8
ASSI
100
AcDbLine
 62
253
  6
CONTINUOUS
 10
-7.4135581409
 20
-23.6278312163
 11
-7.3982849591
 21
-23.1226497308
  0
LINE
  5
323
100
AcDbEntity
  8
ASSI
100
AcDbLine
 62
253
  6
CONTINUOUS
 10
-7.2135886019
 20
-23.8010362971
 11
-7.2
 21
-23.3515746082
  0
LINE
  5
324
100
AcDbEntity
  8
RACCORDO
100
AcDbLine
 62
7
  6
CONTINUOUS
 10
-3.2393018509
 20
15.767150432
 11
-3.220737984
 21
15.8550205673
  0
LINE
  5
325
100
AcDbEntity
  8
RACCORDO
100
AcDbLine
 62
253
  6
CONTINUOUS
 10
-0.1393615328
 20
10.5619145382
 11
-0.3484038205
 21
10.3483315857
  0
LINE
  5
326
100
AcDbEntity
  8
ASSI
100
AcDbLine
 62
253
  6
CONTINUOUS
 10
11.1
 20
21.9000761524
 11
11.0825449351
 21
21.8826210875
  0
LINE
  5
327
100
AcDbEntity
  8
RACCORDO
100
AcDbLine
 62
253
  6
CONTINUOUS
 10
-0.5779935412
 20
9.9745670411
 11
-0.3612459851
 21
10.1803262066
  0
LINE
  5
328
100
AcDbEntity
  8
RACCORDO
100
AcDbLine
 62
253
  6
CONTINUOUS
 10
2.1482107338
 20
-7.4973319608
 11
3.65
 21
-7.4973319608
  0
LINE
  5
329
100
AcDbEntity
  8
RACCORDO
100
AcDbLine
 62
253
  6
CONTINUOUS
 10
-2.1482107338
 20
-7.4973319608
 11
-3.65
 21
-7.4973319608
  0
LINE
  5
32A
100
AcDbEntity
  8
RACCORDO
100
AcDbLine
 62
7
  6
CONTINUOUS
 10
1.6915110017
 20
-7.45
 11
0.8962351931
 21
-7.45
  0
LINE
  5
32B
100
AcDbEntity
  8
RACCORDO
100
AcDbLine
 62
7
  6
CONTINUOUS
 10
1.767766953
 20
-7.45
 11
3.65
 21
-7.45
  0
LINE
  5
32C
100
AcDbEntity
  8
RACCORDO
100
AcDbLine
 62
7
  6
CONTINUOUS
 10
-0.8962351931
 20
-7.45
 11
-3.65
 21
-7.45
  0
LINE
  5
32D
100
AcDbEntity
  8
RACCORDO
100
AcDbLine
 62
253
  6
CONTINUOUS
 10
-0.577993541
 20
-9.9745670414
 11
-0.3612459853
 21
-10.1803262057
  0
LINE
  5
32E
100
AcDbEntity
  8
ASSI
100
AcDbLine
 62
253
  6
CONTINUOUS
 10
11.0825449351
 20
-21.8826210875
 11
11.1
 21
-21.9000761524
  0
LINE
  5
32F
100
AcDbEntity
  8
RACCORDO
100
AcDbLine
 62
253
  6
CONTINUOUS
 10
-0.1393615327
 20
-10.5619145383
 11
-0.3484038205
 21
-10.3483315857
  0
LINE
  5
330
100
AcDbEntity
  8
RACCORDO
100
AcDbLine
 62
7
  6
CONTINUOUS
 10
-3.2394222772
 20
-15.767150432
 11
-3.2208628675
 21
-15.8550205863
  0
LINE
  5
331
100
AcDbEntity
  8
ASSI
100
AcDbLine
 62
253
  6
CONTINUOUS
 10
-4.3520586235
 20
-22.3020586235
 11
-4.351751166
 21
-23.6517892422
  0
LINE
  5
332
100
AcDbEntity
  8
DRAFT
100
AcDbLine
 62
7
  6
CONTINUOUS
 10
-5.75
 20
-19.7
 11
-5.75
 21
-19.9
  0
LINE
  5
333
100
AcDbEntity
  8
DRAFT
100
AcDbLine
 62
7
  6
CONTINUOUS
 10
-5.75
 20
19.7
 11
-5.75
 21
19.9
  0
LINE
  5
334
100
AcDbEntity
  8
0
100
AcDbLine
 62
7
  6
CONTINUOUS
 10
-5.6609791689
 20
19.8109791689
 11
-5.6609791689
 21
19.6109791689
  0
LINE
  5
335
100
AcDbEntity
  8
0
100
AcDbLine
 62
7
  6
CONTINUOUS
 10
-5.6609791689
 20
-19.8109791689
 11
-5.6609791689
 21
-19.6109791689
  0
LINE
  5
336
100
AcDbEntity
  8
RACCORDO
100
AcDbLine
 62
253
  6
CONTINUOUS
 10
-5.3288814035
 20
21.2846797207
 11
-5.3288814033
 21
21.0710881356
  0
LINE
  5
337
100
AcDbEntity
  8
RACCORDO
100
AcDbLine
 62
253
  6
CONTINUOUS
 10
-5.3288814035
 20
-21.2846797207
 11
-5.3288814035
 21
-21.0710881356
  0
LINE
  5
338
100
AcDbEntity
  8
RACCORDO
100
AcDbLine
 62
253
  6
CONTINUOUS
 10
-5.1288794371
 20
20.8711634826
 11
-5.1288794371
 21
20.28553092
  0
LINE
  5
339
100
AcDbEntity
  8
RACCORDO
100
AcDbLine
 62
253
  6
CONTINUOUS
 10
-5.1288794371
 20
-20.28553092
 11
-5.1288794371
 21
-20.8711510238
  0
LINE
  5
33A
100
AcDbEntity
  8
RACCORDO
100
AcDbLine
 62
7
  6
CONTINUOUS
 10
-4.95
 20
20.0
 11
-4.95
 21
19.9
  0
LINE
  5
33B
100
AcDbEntity
  8
RACCORDO
100
AcDbLine
 62
7
  6
CONTINUOUS
 10
-4.95
 20
-20.0
 11
-4.95
 21
-19.9
  0
LINE
  5
33C
100
AcDbEntity
  8
RACCORDO
100
AcDbLine
 62
253
  6
CONTINUOUS
 10
-4.9289098981
 20
20.8711510238
 11
-4.9289098981
 21
20.0855385354
  0
LINE
  5
33D
100
AcDbEntity
  8
RACCORDO
100
AcDbLine
 62
253
  6
CONTINUOUS
 10
-4.9289098981
 20
-20.8711510238
 11
-4.9289098981
 21
-20.0855385354
  0
LINE
  5
33E
100
AcDbEntity
  8
ASSI
100
AcDbLine
 62
7
  6
CONTINUOUS
 10
-4.45
 20
-23.7500380762
 11
-4.45
 21
-23.4179449472
  0
LINE
  5
33F
100
AcDbEntity
  8
ASSI
100
AcDbLine
 62
7
  6
CONTINUOUS
 10
-4.45
 20
-22.9820550528
 11
-4.45
 21
-22.4
  0
LINE
  5
340
100
AcDbEntity
  8
ASSI
100
AcDbLine
 62
7
  6
CONTINUOUS
 10
-4.45
 20
22.4
 11
-4.45
 21
22.9820550528
  0
LINE
  5
341
100
AcDbEntity
  8
ASSI
100
AcDbLine
 62
7
  6
CONTINUOUS
 10
-4.45
 20
23.4179449472
 11
-4.45
 21
23.7500380762
  0
LINE
  5
342
100
AcDbEntity
  8
ASSI
100
AcDbLine
 62
7
  6
CONTINUOUS
 10
-4.3539971429
 20
23.5393800954
 11
-4.3539971429
 21
22.8606199046
  0
LINE
  5
343
100
AcDbEntity
  8
ASSI
100
AcDbLine
 62
7
  6
CONTINUOUS
 10
-4.3539971429
 20
-22.8606199046
 11
-4.3539971429
 21
-23.5393800954
  0
LINE
  5
344
100
AcDbEntity
  8
RACCORDO
100
AcDbLine
 62
7
  6
CONTINUOUS
 10
-4.25
 20
20.0
 11
-4.25
 21
19.9
  0
LINE
  5
345
100
AcDbEntity
  8
RACCORDO
100
AcDbLine
 62
7
  6
CONTINUOUS
 10
-4.25
 20
-20.0
 11
-4.25
 21
-19.9
  0
LINE
  5
346
100
AcDbEntity
  8
DRAFT
100
AcDbLine
 62
7
  6
CONTINUOUS
 10
-4.0
 20
-9.0513878189
 11
-4.0
 21
-7.2486121811
  0
LINE
  5
347
100
AcDbEntity
  8
RACCORDO
100
AcDbLine
 62
7
  6
CONTINUOUS
 10
-4.0
 20
-0.7000114231
 11
-4.0
 21
0.7000114231
  0
LINE
  5
348
100
AcDbEntity
  8
DRAFT
100
AcDbLine
 62
7
  6
CONTINUOUS
 10
-4.0
 20
7.2486121811
 11
-4.0
 21
9.0513878189
  0
LINE
  5
349
100
AcDbEntity
  8
RACCORDO
100
AcDbLine
 62
253
  6
CONTINUOUS
 10
-3.9764146104
 20
-0.6764260334
 11
-3.9764146104
 21
0.6764260335
  0
LINE
  5
34A
100
AcDbEntity
  8
ASSI
100
AcDbLine
 62
253
  6
CONTINUOUS
 10
-4.3517511659
 20
23.6517892421
 11
-4.3520586235
 21
22.3020586235
  0
LINE
  5
34B
100
AcDbEntity
  8
0
100
AcDbLine
 62
253
  6
CONTINUOUS
 10
2.7499333682
 20
15.0395272527
 11
3.220737984
 21
15.8550205673
  0
LINE
  5
34C
100
AcDbEntity
  8
RACCORDO
100
AcDbLine
 62
253
  6
CONTINUOUS
 10
6.5871653028
 20
21.2165694903
 11
6.4863722261
 21
21.0438634419
  0
LINE
  5
34D
100
AcDbEntity
  8
RACCORDO
100
AcDbLine
 62
253
  6
CONTINUOUS
 10
9.9670264395
 20
15.9508855631
 11
9.7832913085
 21
15.767150432
  0
LINE
  5
34E
100
AcDbEntity
  8
RACCORDO
100
AcDbLine
 62
253
  6
CONTINUOUS
 10
0.5779935412
 20
6.3254329589
 11
0.3612459851
 21
6.1196737934
  0
LINE
  5
34F
100
AcDbEntity
  8
RACCORDO
100
AcDbLine
 62
253
  6
CONTINUOUS
 10
0.577993541
 20
-6.3254329586
 11
0.3612459853
 21
-6.1196737943
  0
LINE
  5
350
100
AcDbEntity
  8
RACCORDO
100
AcDbLine
 62
253
  6
CONTINUOUS
 10
9.7832913085
 20
-15.767150432
 11
9.9670264395
 21
-15.9508855631
  0
LINE
  5
351
100
AcDbEntity
  8
RACCORDO
100
AcDbLine
 62
253
  6
CONTINUOUS
 10
6.5871653019
 20
-21.2165694912
 11
6.4863738771
 21
-21.043866271
  0
LINE
  5
352
100
AcDbEntity
  8
0
100
AcDbLine
 62
253
  6
CONTINUOUS
 10
2.7499333627
 20
-15.0394543679
 11
3.2208628675
 21
-15.8550205863
  0
LINE
  5
353
100
AcDbEntity
  8
ASSI
100
AcDbLine
 62
253
  6
CONTINUOUS
 10
-3.8457122528
 20
23.9017927141
 11
-3.8478541563
 21
23.9835887109
  0
LINE
  5
354
100
AcDbEntity
  8
DRAFT
100
AcDbLine
 62
7
  6
CONTINUOUS
 10
-3.5011658022
 20
20.04452019
 11
-3.5
 21
20.0
  0
LINE
  5
355
100
AcDbEntity
  8
ASSI
100
AcDbLine
 62
7
  6
CONTINUOUS
 10
-3.5598020131
 20
22.283746742
 11
-3.5979349151
 21
23.7399835196
  0
LINE
  5
356
100
AcDbEntity
  8
ASSI
100
AcDbLine
 62
253
  6
CONTINUOUS
 10
-3.3073093295
 20
21.2165694902
 11
-3.300038082
 21
20.8
  0
LINE
  5
357
100
AcDbEntity
  8
ASSI
100
AcDbLine
 62
253
  6
CONTINUOUS
 10
-3.3213766279
 20
22.2724464007
 11
-3.3203986343
 21
22.2164171854
  0
LINE
  5
358
100
AcDbEntity
  8
ASSI
100
AcDbLine
 62
7
  6
CONTINUOUS
 10
-3.0713521947
 20
22.0232664162
 11
-3.051588281
 21
20.8909925586
  0
LINE
  5
359
100
AcDbEntity
  8
RACCORDO
100
AcDbLine
 62
253
  6
CONTINUOUS
 10
-3.6764260334
 20
-0.9764146104
 11
-3.6764260334
 21
0.9764146104
  0
LINE
  5
35A
100
AcDbEntity
  8
0
100
AcDbLine
 62
7
  6
CONTINUOUS
 10
-3.65
 20
9.4689547888
 11
-3.65
 21
7.8666114973
  0
LINE
  5
35B
100
AcDbEntity
  8
0
100
AcDbLine
 62
7
  6
CONTINUOUS
 10
-3.65
 20
-9.4689547887
 11
-3.65
 21
-7.8666114973
  0
LINE
  5
35C
100
AcDbEntity
  8
RACCORDO
100
AcDbLine
 62
7
  6
CONTINUOUS
 10
-3.65
 20
-9.4689547887
 11
-3.65
 21
-7.45
  0
LINE
  5
35D
100
AcDbEntity
  8
RACCORDO
100
AcDbLine
 62
7
  6
CONTINUOUS
 10
-3.65
 20
7.45
 11
-3.65
 21
7.8666114973
  0
LINE
  5
35E
100
AcDbEntity
  8
0
100
AcDbLine
 62
253
  6
CONTINUOUS
 10
-3.45
 20
9.5234547798
 11
-3.45
 21
7.8666114973
  0
LINE
  5
35F
100
AcDbEntity
  8
0
100
AcDbLine
 62
253
  6
CONTINUOUS
 10
-3.45
 20
-9.5234547798
 11
-3.45
 21
-7.8666114973
  0
LINE
  5
360
100
AcDbEntity
  8
RACCORDO
100
AcDbLine
 62
7
  6
CONTINUOUS
 10
-3.4
 20
-20.0483350602
 11
-3.4
 21
-19.9
  0
LINE
  5
361
100
AcDbEntity
  8
RACCORDO
100
AcDbLine
 62
7
  6
CONTINUOUS
 10
-3.4
 20
19.9
 11
-3.4
 21
20.0483350602
  0
LINE
  5
362
100
AcDbEntity
  8
0
100
AcDbLine
 62
253
  6
CONTINUOUS
 10
-3.3105321998
 20
-9.54
 11
-3.3105321998
 21
-9.7009567884
  0
LINE
  5
363
100
AcDbEntity
  8
0
100
AcDbLine
 62
253
  6
CONTINUOUS
 10
-3.3105321998
 20
9.54
 11
-3.3105321998
 21
9.7009567884
  0
LINE
  5
364
100
AcDbEntity
  8
0
100
AcDbLine
 62
253
  6
CONTINUOUS
 10
-3.0
 20
-6.4730556454
 11
-3.0
 21
-7.45
  0
LINE
  5
365
100
AcDbEntity
  8
0
100
AcDbLine
 62
253
  6
CONTINUOUS
 10
-3.0
 20
6.4730556454
 11
-3.0
 21
7.45
  0
LINE
  5
366
100
AcDbEntity
  8
RACCORDO
100
AcDbLine
 62
7
  6
CONTINUOUS
 10
-2.8024659223
 20
14.7673027369
 11
-2.8024659223
 21
14.4869096983
  0
LINE
  5
367
100
AcDbEntity
  8
RACCORDO
100
AcDbLine
 62
7
  6
CONTINUOUS
 10
-2.8024659223
 20
-14.7673027369
 11
-2.8024659223
 21
-14.4869096983
  0
LINE
  5
368
100
AcDbEntity
  8
0
100
AcDbLine
 62
7
  6
CONTINUOUS
 10
-2.8003816276
 20
-9.325677092
 11
-2.8003816276
 21
-9.55
  0
LINE
  5
369
100
AcDbEntity
  8
0
100
AcDbLine
 62
7
  6
CONTINUOUS
 10
-2.8003816276
 20
9.3256778267
 11
-2.8003816276
 21
9.55
  0
LINE
  5
36A
100
AcDbEntity
  8
0
100
AcDbLine
 62
253
  6
CONTINUOUS
 10
-2.7498952884
 20
15.0395713322
 11
-2.7498952884
 21
14.5394803322
  0
LINE
  5
36B
100
AcDbEntity
  8
0
100
AcDbLine
 62
253
  6
CONTINUOUS
 10
-2.7498952879
 20
-15.0394984397
 11
-2.7498952884
 21
-14.5394803322
  0
LINE
  5
36C
100
AcDbEntity
  8
RACCORDO
100
AcDbLine
 62
253
  6
CONTINUOUS
 10
-2.4
 20
-20.05319349
 11
-2.4
 21
-19.8843869511
  0
LINE
  5
36D
100
AcDbEntity
  8
RACCORDO
100
AcDbLine
 62
253
  6
CONTINUOUS
 10
-2.4
 20
19.8843869511
 11
-2.4
 21
20.05319349
  0
LINE
  5
36E
100
AcDbEntity
  8
ASSI
100
AcDbLine
 62
253
  6
CONTINUOUS
 10
-3.300038082
 20
-20.8
 11
-3.3073093295
 21
-21.2165694902
  0
LINE
  5
36F
100
AcDbEntity
  8
ASSI
100
AcDbLine
 62
253
  6
CONTINUOUS
 10
-3.3203986343
 20
-22.2164171854
 11
-3.3213766279
 21
-22.2724464007
  0
LINE
  5
370
100
AcDbEntity
  8
ASSI
100
AcDbLine
 62
7
  6
CONTINUOUS
 10
-3.051588281
 20
-20.8909925586
 11
-3.0713521947
 21
-22.0232664162
  0
LINE
  5
371
100
AcDbEntity
  8
ASSI
100
AcDbLine
 62
253
  6
CONTINUOUS
 10
-3.8478541563
 20
-23.9835887109
 11
-3.8457122528
 21
-23.901792714
  0
LINE
  5
372
100
AcDbEntity
  8
DRAFT
100
AcDbLine
 62
7
  6
CONTINUOUS
 10
-3.5011658022
 20
-20.04452019
 11
-3.5
 21
-20.0
  0
LINE
  5
373
100
AcDbEntity
  8
ASSI
100
AcDbLine
 62
7
  6
CONTINUOUS
 10
-3.5598020131
 20
-22.283746742
 11
-3.5979349151
 21
-23.7399835196
  0
LINE
  5
374
100
AcDbEntity
  8
RACCORDO
100
AcDbLine
 62
253
  6
CONTINUOUS
 10
6.2271892401
 20
20.754321695
 11
6.3855330453
 21
21.0710881356
  0
LINE
  5
375
100
AcDbEntity
  8
RACCORDO
100
AcDbLine
 62
253
  6
CONTINUOUS
 10
6.4271816247
 20
20.554352156
 11
6.5855385354
 21
20.8711361841
  0
LINE
  5
376
100
AcDbEntity
  8
RACCORDO
100
AcDbLine
 62
253
  6
CONTINUOUS
 10
0.1393615328
 20
5.7380854618
 11
0.3484038205
 21
5.9516684143
  0
LINE
  5
377
100
AcDbEntity
  8
RACCORDO
100
AcDbLine
 62
253
  6
CONTINUOUS
 10
10.9668741341
 20
14.9510378674
 11
10.7831390036
 21
14.7673027369
  0
LINE
  5
378
100
AcDbEntity
  8
RACCORDO
100
AcDbLine
 62
253
  6
CONTINUOUS
 10
-3.9764146104
 20
-0.6764260334
 11
-4.0
 21
-0.7000114231
  0
LINE
  5
379
100
AcDbEntity
  8
RACCORDO
100
AcDbLine
 62
253
  6
CONTINUOUS
 10
-3.6764260334
 20
-0.9764146104
 11
-3.7000114231
 21
-1.0
  0
LINE
  5
37A
100
AcDbEntity
  8
RACCORDO
100
AcDbLine
 62
253
  6
CONTINUOUS
 10
10.7831390036
 20
-14.7673027369
 11
10.9668741341
 21
-14.9510378674
  0
LINE
  5
37B
100
AcDbEntity
  8
RACCORDO
100
AcDbLine
 62
253
  6
CONTINUOUS
 10
-3.9764146104
 20
0.6764260335
 11
-4.0
 21
0.7000114231
  0
LINE
  5
37C
100
AcDbEntity
  8
RACCORDO
100
AcDbLine
 62
253
  6
CONTINUOUS
 10
-3.6764260334
 20
0.9764146104
 11
-3.7000114231
 21
1.0
  0
LINE
  5
37D
100
AcDbEntity
  8
RACCORDO
100
AcDbLine
 62
253
  6
CONTINUOUS
 10
0.1393615327
 20
-5.7380854617
 11
0.3484038205
 21
-5.9516684143
  0
LINE
  5
37E
100
AcDbEntity
  8
RACCORDO
100
AcDbLine
 62
253
  6
CONTINUOUS
 10
6.3855304799
 20
-21.0710881356
 11
6.2271892401
 21
-20.754321695
  0
LINE
  5
37F
100
AcDbEntity
  8
RACCORDO
100
AcDbLine
 62
253
  6
CONTINUOUS
 10
6.5855385354
 20
-20.8710900996
 11
6.4271816247
 21
-20.554352156
  0
LINE
  5
380
100
AcDbEntity
  8
ASSI
100
AcDbLine
 62
7
  6
CONTINUOUS
 10
-0.8165255932
 20
-23.733512483
 11
-0.8171358942
 21
-22.3982865828
  0
LINE
  5
381
100
AcDbEntity
  8
0
100
AcDbLine
 62
7
  6
CONTINUOUS
 10
-1.75
 20
9.7310513336
 11
-1.75
 21
9.0665008265
  0
LINE
  5
382
100
AcDbEntity
  8
0
100
AcDbLine
 62
7
  6
CONTINUOUS
 10
-1.75
 20
7.45
 11
-1.75
 21
6.5689486664
  0
LINE
  5
383
100
AcDbEntity
  8
0
100
AcDbLine
 62
7
  6
CONTINUOUS
 10
-1.75
 20
-6.5689486664
 11
-1.75
 21
-7.45
  0
LINE
  5
384
100
AcDbEntity
  8
0
100
AcDbLine
 62
7
  6
CONTINUOUS
 10
-1.75
 20
-9.0665003775
 11
-1.75
 21
-9.7310513336
  0
LINE
  5
385
100
AcDbEntity
  8
0
100
AcDbLine
 62
7
  6
CONTINUOUS
 10
-1.5107603059
 20
14.5593228724
 11
-1.5107603059
 21
14.5108414285
  0
LINE
  5
386
100
AcDbEntity
  8
0
100
AcDbLine
 62
7
  6
CONTINUOUS
 10
-1.5107603059
 20
-14.5108414285
 11
-1.5107603059
 21
-14.5593228724
  0
LINE
  5
387
100
AcDbEntity
  8
0
100
AcDbLine
 62
7
  6
CONTINUOUS
 10
-1.381939
 20
9.4960987494
 11
-1.381939
 21
8.9985057413
  0
LINE
  5
388
100
AcDbEntity
  8
0
100
AcDbLine
 62
7
  6
CONTINUOUS
 10
-1.381939
 20
7.45
 11
-1.381939
 21
6.8039012506
  0
LINE
  5
389
100
AcDbEntity
  8
0
100
AcDbLine
 62
7
  6
CONTINUOUS
 10
-1.381939
 20
-9.4960987494
 11
-1.381939
 21
-8.9985056746
  0
LINE
  5
38A
100
AcDbEntity
  8
0
100
AcDbLine
 62
7
  6
CONTINUOUS
 10
-1.381939
 20
-7.45
 11
-1.381939
 21
-6.8039012506
  0
LINE
  5
38B
100
AcDbEntity
  8
0
100
AcDbLine
 62
7
  6
CONTINUOUS
 10
-0.8229597563
 20
14.5621699176
 11
-0.8229597563
 21
14.5080051484
  0
LINE
  5
38C
100
AcDbEntity
  8
0
100
AcDbLine
 62
7
  6
CONTINUOUS
 10
-0.8229597563
 20
-14.5080051483
 11
-0.8229597563
 21
-14.5621699176
  0
LINE
  5
38D
100
AcDbEntity
  8
ASSI
100
AcDbLine
 62
7
  6
CONTINUOUS
 10
-0.8
 20
23.7500380762
 11
-0.8
 21
22.4
  0
LINE
  5
38E
100
AcDbEntity
  8
ASSI
100
AcDbLine
 62
7
  6
CONTINUOUS
 10
-0.8
 20
-22.4
 11
-0.8
 21
-23.7500380762
  0
LINE
  5
38F
100
AcDbEntity
  8
0
100
AcDbLine
 62
7
  6
CONTINUOUS
 10
-0.1187662117
 20
14.5632473424
 11
-0.1187662117
 21
14.5069307065
  0
LINE
  5
390
100
AcDbEntity
  8
0
100
AcDbLine
 62
7
  6
CONTINUOUS
 10
-0.1187662117
 20
-14.5069307065
 11
-0.1187662117
 21
-14.5632473424
  0
LINE
  5
391
100
AcDbEntity
  8
0
100
AcDbLine
 62
7
  6
CONTINUOUS
 10
0.1187662117
 20
-14.5632473424
 11
0.1187662117
 21
-14.5069307065
  0
LINE
  5
392
100
AcDbEntity
  8
0
100
AcDbLine
 62
7
  6
CONTINUOUS
 10
0.1187662117
 20
14.5069307065
 11
0.1187662117
 21
14.5632473424
  0
LINE
  5
393
100
AcDbEntity
  8
ASSI
100
AcDbLine
 62
7
  6
CONTINUOUS
 10
-0.8171358942
 20
22.3982865828
 11
-0.8165255932
 21
23.733512483
  0
LINE
  5
394
100
AcDbEntity
  8
0
100
AcDbLine
 62
253
  6
CONTINUOUS
 10
-2.9223036322
 20
-9.5911112606
 11
-2.9865544654
 21
-9.8308986348
  0
LINE
  5
395
100
AcDbEntity
  8
0
100
AcDbLine
 62
7
  6
CONTINUOUS
 10
-2.8188266684
 20
-9.6188378294
 11
-2.8003816276
 21
-9.55
  0
LINE
  5
396
100
AcDbEntity
  8
0
100
AcDbLine
 62
7
  6
CONTINUOUS
 10
2.8188266684
 20
9.6188378294
 11
2.8003816276
 21
9.55
  0
LINE
  5
397
100
AcDbEntity
  8
DRAFT
100
AcDbLine
 62
7
  6
CONTINUOUS
 10
-8.8
 20
-20.85
 11
-8.7276987537
 21
-20.6754493507
  0
LINE
  5
398
100
AcDbEntity
  8
DRAFT
100
AcDbLine
 62
7
  6
CONTINUOUS
 10
8.8
 20
20.85
 11
8.7276987537
 21
20.6754493507
  0
LINE
  5
399
100
AcDbEntity
  8
RACCORDO
100
AcDbLine
 62
7
  6
CONTINUOUS
 10
3.7000114231
 20
-1.0
 11
-3.7000114231
 21
-1.0
  0
LINE
  5
39A
100
AcDbEntity
  8
RACCORDO
100
AcDbLine
 62
253
  6
CONTINUOUS
 10
3.6764260334
 20
-0.9764146104
 11
-3.6764260334
 21
-0.9764146104
  0
LINE
  5
39B
100
AcDbEntity
  8
RACCORDO
100
AcDbLine
 62
253
  6
CONTINUOUS
 10
3.9764146104
 20
-0.6764260334
 11
-3.9764146104
 21
-0.6764260334
  0
LINE
  5
39C
100
AcDbEntity
  8
DRAFT
100
AcDbLine
 62
7
  6
CONTINUOUS
 10
-8.8
 20
20.85
 11
-8.7276987537
 21
20.6754493507
  0
LINE
  5
39D
100
AcDbEntity
  8
DRAFT
100
AcDbLine
 62
7
  6
CONTINUOUS
 10
8.8
 20
-20.85
 11
8.7276987537
 21
-20.6754493507
  0
LINE
  5
39E
100
AcDbEntity
  8
0
100
AcDbLine
 62
253
  6
CONTINUOUS
 10
-2.9223036322
 20
9.5911112606
 11
-2.9865544654
 21
9.8308986348
  0
LINE
  5
39F
100
AcDbEntity
  8
0
100
AcDbLine
 62
7
  6
CONTINUOUS
 10
-2.8188266684
 20
9.6188378294
 11
-2.8003816276
 21
9.55
  0
LINE
  5
3A0
100
AcDbEntity
  8
0
100
AcDbLine
 62
7
  6
CONTINUOUS
 10
2.8188266684
 20
-9.6188378294
 11
2.8003816276
 21
-9.55
  0
LINE
  5
3A1
100
AcDbEntity
  8
ASSI
100
AcDbLine
 62
7
  6
CONTINUOUS
 10
0.8171358942
 20
22.3982865828
 11
0.8165255932
 21
23.733512483
  0
LINE
  5
3A2
100
AcDbEntity
  8
ASSI
100
AcDbLine
 62
7
  6
CONTINUOUS
 10
0.8
 20
23.7500380762
 11
0.8
 21
22.4
  0
LINE
  5
3A3
100
AcDbEntity
  8
ASSI
100
AcDbLine
 62
7
  6
CONTINUOUS
 10
0.8
 20
-22.4
 11
0.8
 21
-23.7500380762
  0
LINE
  5
3A4
100
AcDbEntity
  8
0
100
AcDbLine
 62
7
  6
CONTINUOUS
 10
0.8229597563
 20
-14.5621699176
 11
0.8229597563
 21
-14.5080051483
  0
LINE
  5
3A5
100
AcDbEntity
  8
0
100
AcDbLine
 62
7
  6
CONTINUOUS
 10
0.8229597563
 20
14.5080051484
 11
0.8229597563
 21
14.5621699176
  0
LINE
  5
3A6
100
AcDbEntity
  8
0
100
AcDbLine
 62
7
  6
CONTINUOUS
 10
1.381939
 20
9.4960987494
 11
1.381939
 21
8.9985056746
  0
LINE
  5
3A7
100
AcDbEntity
  8
0
100
AcDbLine
 62
7
  6
CONTINUOUS
 10
1.381939
 20
7.45
 11
1.381939
 21
6.8039012506
  0
LINE
  5
3A8
100
AcDbEntity
  8
0
100
AcDbLine
 62
7
  6
CONTINUOUS
 10
1.381939
 20
-9.4960987494
 11
1.381939
 21
-8.9985057413
  0
LINE
  5
3A9
100
AcDbEntity
  8
0
100
AcDbLine
 62
7
  6
CONTINUOUS
 10
1.381939
 20
-7.45
 11
1.381939
 21
-6.8039012506
  0
LINE
  5
3AA
100
AcDbEntity
  8
0
100
AcDbLine
 62
7
  6
CONTINUOUS
 10
1.5107603059
 20
-14.5593228724
 11
1.5107603059
 21
-14.5108414285
  0
LINE
  5
3AB
100
AcDbEntity
  8
0
100
AcDbLine
 62
7
  6
CONTINUOUS
 10
1.5107603059
 20
14.5108414285
 11
1.5107603059
 21
14.5593228724
  0
LINE
  5
3AC
100
AcDbEntity
  8
0
100
AcDbLine
 62
7
  6
CONTINUOUS
 10
1.75
 20
9.7310513336
 11
1.75
 21
9.0665003775
  0
LINE
  5
3AD
100
AcDbEntity
  8
0
100
AcDbLine
 62
7
  6
CONTINUOUS
 10
1.75
 20
7.45
 11
1.75
 21
6.5689486664
  0
LINE
  5
3AE
100
AcDbEntity
  8
0
100
AcDbLine
 62
7
  6
CONTINUOUS
 10
1.75
 20
-6.5689486664
 11
1.75
 21
-7.45
  0
LINE
  5
3AF
100
AcDbEntity
  8
0
100
AcDbLine
 62
7
  6
CONTINUOUS
 10
1.75
 20
-9.0665008265
 11
1.75
 21
-9.7310513336
  0
LINE
  5
3B0
100
AcDbEntity
  8
RACCORDO
100
AcDbLine
 62
253
  6
CONTINUOUS
 10
2.4
 20
-20.05319349
 11
2.4
 21
-19.8843869511
  0
LINE
  5
3B1
100
AcDbEntity
  8
RACCORDO
100
AcDbLine
 62
253
  6
CONTINUOUS
 10
2.4
 20
19.8843869511
 11
2.4
 21
20.05319349
  0
LINE
  5
3B2
100
AcDbEntity
  8
ASSI
100
AcDbLine
 62
7
  6
CONTINUOUS
 10
0.8165255932
 20
-23.733512483
 11
0.8171358942
 21
-22.3982865828
  0
LINE
  5
3B3
100
AcDbEntity
  8
0
100
AcDbLine
 62
253
  6
CONTINUOUS
 10
2.9223036322
 20
9.5911112606
 11
2.9865544654
 21
9.8308986348
  0
LINE
  5
3B4
100
AcDbEntity
  8
RACCORDO
100
AcDbLine
 62
253
  6
CONTINUOUS
 10
3.6764260334
 20
0.9764146104
 11
3.7000114231
 21
1.0
  0
LINE
  5
3B5
100
AcDbEntity
  8
RACCORDO
100
AcDbLine
 62
253
  6
CONTINUOUS
 10
3.9764146104
 20
0.6764260335
 11
4.0
 21
0.7000114231
  0
LINE
  5
3B6
100
AcDbEntity
  8
RACCORDO
100
AcDbLine
 62
253
  6
CONTINUOUS
 10
3.9764146104
 20
0.6764260335
 11
-3.9764146104
 21
0.6764260335
  0
LINE
  5
3B7
100
AcDbEntity
  8
RACCORDO
100
AcDbLine
 62
253
  6
CONTINUOUS
 10
-3.6764260334
 20
0.9764146104
 11
3.6764260334
 21
0.9764146104
  0
LINE
  5
3B8
100
AcDbEntity
  8
RACCORDO
100
AcDbLine
 62
7
  6
CONTINUOUS
 10
-3.7000114231
 20
1.0
 11
3.7000114231
 21
1.0
  0
LINE
  5
3B9
100
AcDbEntity
  8
RACCORDO
100
AcDbLine
 62
253
  6
CONTINUOUS
 10
3.6764260334
 20
-0.9764146104
 11
3.7000114231
 21
-1.0
  0
LINE
  5
3BA
100
AcDbEntity
  8
RACCORDO
100
AcDbLine
 62
253
  6
CONTINUOUS
 10
3.9764146104
 20
-0.6764260334
 11
4.0
 21
-0.7000114231
  0
LINE
  5
3BB
100
AcDbEntity
  8
0
100
AcDbLine
 62
253
  6
CONTINUOUS
 10
2.9223036322
 20
-9.5911112606
 11
2.9865544654
 21
-9.8308986348
  0
LINE
  5
3BC
100
AcDbEntity
  8
DRAFT
100
AcDbLine
 62
7
  6
CONTINUOUS
 10
3.5011658022
 20
-20.04452019
 11
3.5
 21
-20.0
  0
LINE
  5
3BD
100
AcDbEntity
  8
ASSI
100
AcDbLine
 62
7
  6
CONTINUOUS
 10
3.5598020131
 20
-22.283746742
 11
3.5979349151
 21
-23.7399835196
  0
LINE
  5
3BE
100
AcDbEntity
  8
ASSI
100
AcDbLine
 62
253
  6
CONTINUOUS
 10
3.8478541563
 20
-23.9835887109
 11
3.8457122528
 21
-23.901792714
  0
LINE
  5
3BF
100
AcDbEntity
  8
ASSI
100
AcDbLine
 62
7
  6
CONTINUOUS
 10
3.0713521947
 20
-22.0232664162
 11
3.051588281
 21
-20.8909925586
  0
LINE
  5
3C0
100
AcDbEntity
  8
ASSI
100
AcDbLine
 62
253
  6
CONTINUOUS
 10
3.3213766279
 20
-22.2724464007
 11
3.3203986343
 21
-22.2164171854
  0
LINE
  5
3C1
100
AcDbEntity
  8
ASSI
100
AcDbLine
 62
253
  6
CONTINUOUS
 10
3.3073093295
 20
-21.2165694902
 11
3.300038082
 21
-20.8
  0
LINE
  5
3C2
100
AcDbEntity
  8
ASSI
100
AcDbLine
 62
253
  6
CONTINUOUS
 10
4.3520586235
 20
22.3020586235
 11
4.351752949
 21
23.6517910252
  0
LINE
  5
3C3
100
AcDbEntity
  8
0
100
AcDbLine
 62
253
  6
CONTINUOUS
 10
2.7498952875
 20
15.0395713334
 11
2.7498952884
 21
14.5394803322
  0
LINE
  5
3C4
100
AcDbEntity
  8
0
100
AcDbLine
 62
253
  6
CONTINUOUS
 10
2.7498952884
 20
-15.039498439
 11
2.7498952884
 21
-14.5394803322
  0
LINE
  5
3C5
100
AcDbEntity
  8
0
100
AcDbLine
 62
7
  6
CONTINUOUS
 10
2.8003816276
 20
-9.3256778267
 11
2.8003816276
 21
-9.55
  0
LINE
  5
3C6
100
AcDbEntity
  8
0
100
AcDbLine
 62
7
  6
CONTINUOUS
 10
2.8003816276
 20
9.325677092
 11
2.8003816276
 21
9.55
  0
LINE
  5
3C7
100
AcDbEntity
  8
RACCORDO
100
AcDbLine
 62
7
  6
CONTINUOUS
 10
2.8024659223
 20
14.7673027369
 11
2.8024659223
 21
14.4869096983
  0
LINE
  5
3C8
100
AcDbEntity
  8
RACCORDO
100
AcDbLine
 62
7
  6
CONTINUOUS
 10
2.8024659223
 20
-14.7673027369
 11
2.8024659223
 21
-14.4869096983
  0
LINE
  5
3C9
100
AcDbEntity
  8
0
100
AcDbLine
 62
253
  6
CONTINUOUS
 10
3.0
 20
-6.4730556454
 11
3.0
 21
-7.45
  0
LINE
  5
3CA
100
AcDbEntity
  8
0
100
AcDbLine
 62
253
  6
CONTINUOUS
 10
3.0
 20
6.4730556454
 11
3.0
 21
7.45
  0
LINE
  5
3CB
100
AcDbEntity
  8
0
100
AcDbLine
 62
253
  6
CONTINUOUS
 10
3.3105321998
 20
-9.54
 11
3.3105321998
 21
-9.7009567884
  0
LINE
  5
3CC
100
AcDbEntity
  8
0
100
AcDbLine
 62
253
  6
CONTINUOUS
 10
3.3105321998
 20
9.54
 11
3.3105321998
 21
9.7009567884
  0
LINE
  5
3CD
100
AcDbEntity
  8
RACCORDO
100
AcDbLine
 62
7
  6
CONTINUOUS
 10
3.4
 20
-20.0483350603
 11
3.4
 21
-19.9
  0
LINE
  5
3CE
100
AcDbEntity
  8
RACCORDO
100
AcDbLine
 62
7
  6
CONTINUOUS
 10
3.4
 20
19.9
 11
3.4
 21
20.0483350603
  0
LINE
  5
3CF
100
AcDbEntity
  8
0
100
AcDbLine
 62
253
  6
CONTINUOUS
 10
3.45
 20
9.5234547798
 11
3.45
 21
7.8666114973
  0
LINE
  5
3D0
100
AcDbEntity
  8
0
100
AcDbLine
 62
253
  6
CONTINUOUS
 10
3.45
 20
-9.5234547798
 11
3.45
 21
-7.8666114973
  0
LINE
  5
3D1
100
AcDbEntity
  8
0
100
AcDbLine
 62
7
  6
CONTINUOUS
 10
3.65
 20
9.4689547888
 11
3.65
 21
7.8666114973
  0
LINE
  5
3D2
100
AcDbEntity
  8
0
100
AcDbLine
 62
7
  6
CONTINUOUS
 10
3.65
 20
-9.4689547887
 11
3.65
 21
-7.8666114973
  0
LINE
  5
3D3
100
AcDbEntity
  8
RACCORDO
100
AcDbLine
 62
7
  6
CONTINUOUS
 10
3.65
 20
-7.8666114973
 11
3.65
 21
-7.45
  0
LINE
  5
3D4
100
AcDbEntity
  8
RACCORDO
100
AcDbLine
 62
7
  6
CONTINUOUS
 10
3.65
 20
7.45
 11
3.65
 21
7.8666114973
  0
LINE
  5
3D5
100
AcDbEntity
  8
RACCORDO
100
AcDbLine
 62
253
  6
CONTINUOUS
 10
3.6764260334
 20
-0.9764146104
 11
3.6764260334
 21
0.9764146104
  0
LINE
  5
3D6
100
AcDbEntity
  8
RACCORDO
100
AcDbLine
 62
253
  6
CONTINUOUS
 10
3.9764146104
 20
0.6764260335
 11
3.9764146104
 21
-0.6764260334
  0
LINE
  5
3D7
100
AcDbEntity
  8
RACCORDO
100
AcDbLine
 62
7
  6
CONTINUOUS
 10
4.0
 20
0.7000114231
 11
4.0
 21
-0.7000114231
  0
LINE
  5
3D8
100
AcDbEntity
  8
DRAFT
100
AcDbLine
 62
7
  6
CONTINUOUS
 10
4.0
 20
-9.0513878189
 11
4.0
 21
-7.2486121811
  0
LINE
  5
3D9
100
AcDbEntity
  8
DRAFT
100
AcDbLine
 62
7
  6
CONTINUOUS
 10
4.0
 20
7.2486121811
 11
4.0
 21
9.0513878189
  0
LINE
  5
3DA
100
AcDbEntity
  8
RACCORDO
100
AcDbLine
 62
7
  6
CONTINUOUS
 10
4.25
 20
20.0
 11
4.25
 21
19.9
  0
LINE
  5
3DB
100
AcDbEntity
  8
RACCORDO
100
AcDbLine
 62
7
  6
CONTINUOUS
 10
4.25
 20
-20.0
 11
4.25
 21
-19.9
  0
LINE
  5
3DC
100
AcDbEntity
  8
ASSI
100
AcDbLine
 62
7
  6
CONTINUOUS
 10
4.3539971429
 20
23.5393800954
 11
4.3539971429
 21
22.8606199046
  0
LINE
  5
3DD
100
AcDbEntity
  8
ASSI
100
AcDbLine
 62
7
  6
CONTINUOUS
 10
4.3539971429
 20
-22.8606199046
 11
4.3539971429
 21
-23.5393800954
  0
LINE
  5
3DE
100
AcDbEntity
  8
ASSI
100
AcDbLine
 62
7
  6
CONTINUOUS
 10
4.45
 20
-23.7500380762
 11
4.45
 21
-23.4179449472
  0
LINE
  5
3DF
100
AcDbEntity
  8
ASSI
100
AcDbLine
 62
7
  6
CONTINUOUS
 10
4.45
 20
-22.9820550528
 11
4.45
 21
-22.4
  0
LINE
  5
3E0
100
AcDbEntity
  8
ASSI
100
AcDbLine
 62
7
  6
CONTINUOUS
 10
4.45
 20
22.4
 11
4.45
 21
22.9820550528
  0
LINE
  5
3E1
100
AcDbEntity
  8
ASSI
100
AcDbLine
 62
7
  6
CONTINUOUS
 10
4.45
 20
23.4179449472
 11
4.45
 21
23.7500380762
  0
LINE
  5
3E2
100
AcDbEntity
  8
ASSI
100
AcDbLine
 62
253
  6
CONTINUOUS
 10
4.3520586235
 20
-22.3020586235
 11
4.351752949
 21
-23.6517910252
  0
LINE
  5
3E3
100
AcDbEntity
  8
ASSI
100
AcDbLine
 62
7
  6
CONTINUOUS
 10
3.051588281
 20
20.8909925586
 11
3.0713521947
 21
22.0232664162
  0
LINE
  5
3E4
100
AcDbEntity
  8
ASSI
100
AcDbLine
 62
253
  6
CONTINUOUS
 10
3.3203986343
 20
22.2164171854
 11
3.3213766279
 21
22.2724464007
  0
LINE
  5
3E5
100
AcDbEntity
  8
ASSI
100
AcDbLine
 62
253
  6
CONTINUOUS
 10
3.300038082
 20
20.8
 11
3.3073093295
 21
21.2165694902
  0
LINE
  5
3E6
100
AcDbEntity
  8
DRAFT
100
AcDbLine
 62
7
  6
CONTINUOUS
 10
3.5011658022
 20
20.04452019
 11
3.5
 21
20.0
  0
LINE
  5
3E7
100
AcDbEntity
  8
ASSI
100
AcDbLine
 62
7
  6
CONTINUOUS
 10
3.5598020131
 20
22.283746742
 11
3.5979349151
 21
23.7399835196
  0
LINE
  5
3E8
100
AcDbEntity
  8
ASSI
100
AcDbLine
 62
253
  6
CONTINUOUS
 10
3.8457122528
 20
23.9017927141
 11
3.8478541563
 21
23.9835887109
  0
LINE
  5
3E9
100
AcDbEntity
  8
RACCORDO
100
AcDbLine
 62
253
  6
CONTINUOUS
 10
-6.4271816247
 20
-20.554352156
 11
-6.5855385354
 21
-20.8711361841
  0
LINE
  5
3EA
100
AcDbEntity
  8
RACCORDO
100
AcDbLine
 62
253
  6
CONTINUOUS
 10
-6.2271892401
 20
-20.754321695
 11
-6.3855330453
 21
-21.0710881356
  0
LINE
  5
3EB
100
AcDbEntity
  8
RACCORDO
100
AcDbLine
 62
253
  6
CONTINUOUS
 10
-0.1393615328
 20
-5.7380854618
 11
-0.3484038205
 21
-5.9516684143
  0
LINE
  5
3EC
100
AcDbEntity
  8
RACCORDO
100
AcDbLine
 62
253
  6
CONTINUOUS
 10
-10.9668741341
 20
-14.9510378674
 11
-10.7831390036
 21
-14.7673027369
  0
LINE
  5
3ED
100
AcDbEntity
  8
RACCORDO
100
AcDbLine
 62
253
  6
CONTINUOUS
 10
-9.9670264395
 20
-15.9508855631
 11
-9.7832913085
 21
-15.767150432
  0
LINE
  5
3EE
100
AcDbEntity
  8
RACCORDO
100
AcDbLine
 62
253
  6
CONTINUOUS
 10
-0.5779935412
 20
-6.3254329589
 11
-0.3612459851
 21
-6.1196737934
  0
LINE
  5
3EF
100
AcDbEntity
  8
RACCORDO
100
AcDbLine
 62
253
  6
CONTINUOUS
 10
-0.577993541
 20
6.3254329586
 11
-0.3612459853
 21
6.1196737943
  0
LINE
  5
3F0
100
AcDbEntity
  8
RACCORDO
100
AcDbLine
 62
253
  6
CONTINUOUS
 10
-10.7831390036
 20
14.7673027369
 11
-10.9668741341
 21
14.9510378674
  0
LINE
  5
3F1
100
AcDbEntity
  8
RACCORDO
100
AcDbLine
 62
253
  6
CONTINUOUS
 10
-9.7832913085
 20
15.767150432
 11
-9.9670264395
 21
15.9508855631
  0
LINE
  5
3F2
100
AcDbEntity
  8
RACCORDO
100
AcDbLine
 62
253
  6
CONTINUOUS
 10
-0.1393615327
 20
5.7380854617
 11
-0.3484038205
 21
5.9516684143
  0
LINE
  5
3F3
100
AcDbEntity
  8
RACCORDO
100
AcDbLine
 62
253
  6
CONTINUOUS
 10
-6.5855385354
 20
20.8710900996
 11
-6.4271816247
 21
20.554352156
  0
LINE
  5
3F4
100
AcDbEntity
  8
RACCORDO
100
AcDbLine
 62
253
  6
CONTINUOUS
 10
-6.3855304799
 20
21.0710881356
 11
-6.2271892401
 21
20.754321695
  0
LINE
  5
3F5
100
AcDbEntity
  8
ASSI
100
AcDbLine
 62
253
  6
CONTINUOUS
 10
7.2
 20
-23.3515746082
 11
7.2135886019
 21
-23.8010362971
  0
LINE
  5
3F6
100
AcDbEntity
  8
RACCORDO
100
AcDbLine
 62
253
  6
CONTINUOUS
 10
4.9289098981
 20
-20.8711510238
 11
4.9289098981
 21
-20.0855385354
  0
LINE
  5
3F7
100
AcDbEntity
  8
RACCORDO
100
AcDbLine
 62
253
  6
CONTINUOUS
 10
4.9289098981
 20
20.0855385354
 11
4.9289098981
 21
20.8711510238
  0
LINE
  5
3F8
100
AcDbEntity
  8
RACCORDO
100
AcDbLine
 62
7
  6
CONTINUOUS
 10
4.95
 20
20.0
 11
4.95
 21
19.9
  0
LINE
  5
3F9
100
AcDbEntity
  8
RACCORDO
100
AcDbLine
 62
7
  6
CONTINUOUS
 10
4.95
 20
-20.0
 11
4.95
 21
-19.9
  0
LINE
  5
3FA
100
AcDbEntity
  8
RACCORDO
100
AcDbLine
 62
253
  6
CONTINUOUS
 10
5.1288794371
 20
-20.8711634826
 11
5.1288794371
 21
-20.28553092
  0
LINE
  5
3FB
100
AcDbEntity
  8
RACCORDO
100
AcDbLine
 62
253
  6
CONTINUOUS
 10
5.1288794371
 20
20.28553092
 11
5.1288794371
 21
20.8711510238
  0
LINE
  5
3FC
100
AcDbEntity
  8
RACCORDO
100
AcDbLine
 62
253
  6
CONTINUOUS
 10
5.3288814035
 20
21.2846797207
 11
5.3288814035
 21
21.0710881356
  0
LINE
  5
3FD
100
AcDbEntity
  8
RACCORDO
100
AcDbLine
 62
253
  6
CONTINUOUS
 10
5.3288814035
 20
-21.2846797207
 11
5.3288814033
 21
-21.0710881356
  0
LINE
  5
3FE
100
AcDbEntity
  8
0
100
AcDbLine
 62
7
  6
CONTINUOUS
 10
5.6609791689
 20
-19.8109791689
 11
5.6609791689
 21
-19.6109791689
  0
LINE
  5
3FF
100
AcDbEntity
  8
0
100
AcDbLine
 62
7
  6
CONTINUOUS
 10
5.6609791689
 20
19.6109791689
 11
5.6609791689
 21
19.8109791689
  0
LINE
  5
400
100
AcDbEntity
  8
DRAFT
100
AcDbLine
 62
7
  6
CONTINUOUS
 10
5.75
 20
-19.7
 11
5.75
 21
-19.9
  0
LINE
  5
401
100
AcDbEntity
  8
DRAFT
100
AcDbLine
 62
7
  6
CONTINUOUS
 10
5.75
 20
19.7
 11
5.75
 21
19.9
  0
LINE
  5
402
100
AcDbEntity
  8
RACCORDO
100
AcDbLine
 62
253
  6
CONTINUOUS
 10
6.3855603982
 20
21.2846797207
 11
6.385560398
 21
21.0710881356
  0
LINE
  5
403
100
AcDbEntity
  8
RACCORDO
100
AcDbLine
 62
253
  6
CONTINUOUS
 10
6.3855603982
 20
-21.2846797207
 11
6.3855603982
 21
-21.0710881356
  0
LINE
  5
404
100
AcDbEntity
  8
RACCORDO
100
AcDbLine
 62
7
  6
CONTINUOUS
 10
6.5855385354
 20
20.8711361841
 11
6.5855385354
 21
19.98553092
  0
LINE
  5
405
100
AcDbEntity
  8
RACCORDO
100
AcDbLine
 62
7
  6
CONTINUOUS
 10
6.5855385354
 20
-19.98553092
 11
6.5855385354
 21
-20.8710900996
  0
LINE
  5
406
100
AcDbEntity
  8
ASSI
100
AcDbLine
 62
253
  6
CONTINUOUS
 10
7.2135886019
 20
23.8010362971
 11
7.2
 21
23.3515746082
  0
LINE
  5
407
100
AcDbEntity
  8
RACCORDO
100
AcDbLine
 62
7
  6
CONTINUOUS
 10
3.2394222772
 20
-15.767150432
 11
3.2208628675
 21
-15.8550205863
  0
LINE
  5
408
100
AcDbEntity
  8
0
100
AcDbLine
 62
253
  6
CONTINUOUS
 10
-2.7499333627
 20
-15.0394543679
 11
-3.2208628675
 21
-15.8550205863
  0
LINE
  5
409
100
AcDbEntity
  8
RACCORDO
100
AcDbLine
 62
253
  6
CONTINUOUS
 10
-6.5871653028
 20
-21.2165694903
 11
-6.4863722261
 21
-21.0438634419
  0
LINE
  5
40A
100
AcDbEntity
  8
RACCORDO
100
AcDbLine
 62
253
  6
CONTINUOUS
 10
-6.5871653019
 20
21.2165694912
 11
-6.4863738771
 21
21.043866271
  0
LINE
  5
40B
100
AcDbEntity
  8
0
100
AcDbLine
 62
253
  6
CONTINUOUS
 10
-2.7499333682
 20
15.0395272527
 11
-3.220737984
 21
15.8550205673
  0
LINE
  5
40C
100
AcDbEntity
  8
RACCORDO
100
AcDbLine
 62
7
  6
CONTINUOUS
 10
3.2393018509
 20
15.767150432
 11
3.220737984
 21
15.8550205673
  0
LINE
  5
40D
100
AcDbEntity
  8
ASSI
100
AcDbLine
 62
253
  6
CONTINUOUS
 10
7.3982849591
 20
-23.1226497308
 11
7.4135581409
 21
-23.6278312163
  0
LINE
  5
40E
100
AcDbEntity
  8
ASSI
100
AcDbLine
 62
7
  6
CONTINUOUS
 10
8.5
 20
-23.1226497308
 11
8.5131674569
 21
-23.5581814706
  0
LINE
  5
40F
100
AcDbEntity
  8
RACCORDO
100
AcDbLine
 62
253
  6
CONTINUOUS
 10
6.78553092
 20
20.8710900996
 11
6.78553092
 21
19.7855385354
  0
LINE
  5
410
100
AcDbEntity
  8
RACCORDO
100
AcDbLine
 62
253
  6
CONTINUOUS
 10
6.78553092
 20
-20.8710900996
 11
6.78553092
 21
-19.7855385354
  0
LINE
  5
411
100
AcDbEntity
  8
RACCORDO
100
AcDbLine
 62
253
  6
CONTINUOUS
 10
7.01446908
 20
-20.9872686779
 11
7.01446908
 21
-19.7855385354
  0
LINE
  5
412
100
AcDbEntity
  8
RACCORDO
100
AcDbLine
 62
253
  6
CONTINUOUS
 10
7.01446908
 20
19.7855385354
 11
7.01446908
 21
20.9872686779
  0
LINE
  5
413
100
AcDbEntity
  8
ASSI
100
AcDbLine
 62
7
  6
CONTINUOUS
 10
7.2
 20
-22.4
 11
7.2
 21
-24.300030461
  0
LINE
  5
414
100
AcDbEntity
  8
ASSI
100
AcDbLine
 62
7
  6
CONTINUOUS
 10
7.2
 20
22.4
 11
7.2
 21
24.300030461
  0
LINE
  5
415
100
AcDbEntity
  8
ASSI
100
AcDbLine
 62
253
  6
CONTINUOUS
 10
7.2140249785
 20
24.2368706193
 11
7.2140249785
 21
23.8443375673
  0
LINE
  5
416
100
AcDbEntity
  8
ASSI
100
AcDbLine
 62
253
  6
CONTINUOUS
 10
7.2140249785
 20
-23.8443375673
 11
7.2140249785
 21
-24.2368706193
  0
LINE
  5
417
100
AcDbEntity
  8
RACCORDO
100
AcDbLine
 62
7
  6
CONTINUOUS
 10
7.2144614646
 20
-20.9855385354
 11
7.2144614646
 21
-19.98553092
  0
LINE
  5
418
100
AcDbEntity
  8
RACCORDO
100
AcDbLine
 62
7
  6
CONTINUOUS
 10
7.2144614646
 20
19.98553092
 11
7.2144614646
 21
20.9855385354
  0
LINE
  5
419
100
AcDbEntity
  8
DRAFT
100
AcDbLine
 62
7
  6
CONTINUOUS
 10
7.4
 20
-20.7644701819
 11
7.4
 21
-19.7
  0
LINE
  5
41A
100
AcDbEntity
  8
DRAFT
100
AcDbLine
 62
7
  6
CONTINUOUS
 10
7.4
 20
19.7
 11
7.4
 21
20.7644701819
  0
LINE
  5
41B
100
AcDbEntity
  8
ASSI
100
AcDbLine
 62
253
  6
CONTINUOUS
 10
7.4139945176
 20
24.2368706193
 11
7.4139945176
 21
23.8443375673
  0
LINE
  5
41C
100
AcDbEntity
  8
ASSI
100
AcDbLine
 62
253
  6
CONTINUOUS
 10
7.4139945176
 20
-23.844335488
 11
7.4139945176
 21
-24.2368706193
  0
LINE
  5
41D
100
AcDbEntity
  8
0
100
AcDbLine
 62
7
  6
CONTINUOUS
 10
7.4890208311
 20
20.6754493507
 11
7.4890208311
 21
19.6109791689
  0
LINE
  5
41E
100
AcDbEntity
  8
0
100
AcDbLine
 62
7
  6
CONTINUOUS
 10
7.4890208311
 20
-19.6109791689
 11
7.4890208311
 21
-20.6754493507
  0
LINE
  5
41F
100
AcDbEntity
  8
ASSI
100
AcDbLine
 62
7
  6
CONTINUOUS
 10
8.0492667533
 20
21.2165694902
 11
8.0492667533
 21
20.9872686779
  0
LINE
  5
420
100
AcDbEntity
  8
ASSI
100
AcDbLine
 62
7
  6
CONTINUOUS
 10
8.0492667533
 20
-20.9872686779
 11
8.0492667533
 21
-21.2165694902
  0
LINE
  5
421
100
AcDbEntity
  8
ASSI
100
AcDbLine
 62
7
  6
CONTINUOUS
 10
8.2325449351
 20
-21.4051134101
 11
8.2325449351
 21
-20.8956365661
  0
LINE
  5
422
100
AcDbEntity
  8
ASSI
100
AcDbLine
 62
7
  6
CONTINUOUS
 10
8.2325449351
 20
20.8956365661
 11
8.2325449351
 21
21.4051134101
  0
LINE
  5
423
100
AcDbEntity
  8
ASSI
100
AcDbLine
 62
7
  6
CONTINUOUS
 10
8.5
 20
23.1226497308
 11
8.5
 21
22.4
  0
LINE
  5
424
100
AcDbEntity
  8
ASSI
100
AcDbLine
 62
7
  6
CONTINUOUS
 10
8.5
 20
-22.4
 11
8.5
 21
-23.1226497308
  0
LINE
  5
425
100
AcDbEntity
  8
ASSI
100
AcDbLine
 62
253
  6
CONTINUOUS
 10
8.5131674569
 20
23.5581814706
 11
8.5131674569
 21
22.3868325431
  0
LINE
  5
426
100
AcDbEntity
  8
ASSI
100
AcDbLine
 62
253
  6
CONTINUOUS
 10
8.5131674569
 20
-22.3868325431
 11
8.5131674569
 21
-23.5581814706
  0
LINE
  5
427
100
AcDbEntity
  8
ASSI
100
AcDbLine
 62
253
  6
CONTINUOUS
 10
7.413558172
 20
23.6278322442
 11
7.3982849591
 21
23.1226497308
  0
LINE
  5
428
100
AcDbEntity
  8
ASSI
100
AcDbLine
 62
7
  6
CONTINUOUS
 10
8.5131674569
 20
23.5581814706
 11
8.5
 21
23.1226497308
  0
LINE
  5
429
100
AcDbEntity
  8
RACCORDO
100
AcDbLine
 62
253
  6
CONTINUOUS
 10
0.1393615328
 20
-10.5619145382
 11
0.3484038205
 21
-10.3483315857
  0
LINE
  5
42A
100
AcDbEntity
  8
ASSI
100
AcDbLine
 62
253
  6
CONTINUOUS
 10
-10.6
 20
-22.3999999999
 11
-10.5826210875
 21
-22.3825449351
  0
LINE
  5
42B
100
AcDbEntity
  8
ASSI
100
AcDbLine
 62
253
  6
CONTINUOUS
 10
-11.1
 20
-21.9000761524
 11
-11.0825449351
 21
-21.8826210875
  0
LINE
  5
42C
100
AcDbEntity
  8
RACCORDO
100
AcDbLine
 62
253
  6
CONTINUOUS
 10
0.5779935412
 20
-9.9745670411
 11
0.3612459851
 21
-10.1803262066
  0
LINE
  5
42D
100
AcDbEntity
  8
RACCORDO
100
AcDbLine
 62
7
  6
CONTINUOUS
 10
-1.6915110017
 20
7.45
 11
-0.8962351931
 21
7.45
  0
LINE
  5
42E
100
AcDbEntity
  8
RACCORDO
100
AcDbLine
 62
7
  6
CONTINUOUS
 10
0.8962351931
 20
7.45
 11
3.65
 21
7.45
  0
LINE
  5
42F
100
AcDbEntity
  8
RACCORDO
100
AcDbLine
 62
7
  6
CONTINUOUS
 10
-1.767766953
 20
7.45
 11
-3.65
 21
7.45
  0
LINE
  5
430
100
AcDbEntity
  8
RACCORDO
100
AcDbLine
 62
253
  6
CONTINUOUS
 10
2.1482107338
 20
7.4973319608
 11
3.65
 21
7.4973319608
  0
LINE
  5
431
100
AcDbEntity
  8
RACCORDO
100
AcDbLine
 62
253
  6
CONTINUOUS
 10
-2.1482107338
 20
7.4973319608
 11
-3.65
 21
7.4973319608
  0
LINE
  5
432
100
AcDbEntity
  8
RACCORDO
100
AcDbLine
 62
253
  6
CONTINUOUS
 10
0.577993541
 20
9.9745670414
 11
0.3612459853
 21
10.1803262057
  0
LINE
  5
433
100
AcDbEntity
  8
ASSI
100
AcDbLine
 62
253
  6
CONTINUOUS
 10
-11.0825449351
 20
21.8826210875
 11
-11.1
 21
21.9000761524
  0
LINE
  5
434
100
AcDbEntity
  8
ASSI
100
AcDbLine
 62
253
  6
CONTINUOUS
 10
-10.5826210875
 20
22.3825449351
 11
-10.6000000646
 21
22.3999999354
  0
LINE
  5
435
100
AcDbEntity
  8
RACCORDO
100
AcDbLine
 62
253
  6
CONTINUOUS
 10
0.1393615327
 20
10.5619145383
 11
0.3484038205
 21
10.3483315857
  0
LINE
  5
436
100
AcDbEntity
  8
ASSI
100
AcDbLine
 62
7
  6
CONTINUOUS
 10
9.2868325431
 20
23.5581814706
 11
9.3
 21
23.1226497308
  0
LINE
  5
437
100
AcDbEntity
  8
ASSI
100
AcDbLine
 62
7
  6
CONTINUOUS
 10
11.0896792631
 20
-18.1586274394
 11
11.1
 21
-18.5
  0
LINE
  5
438
100
AcDbEntity
  8
ASSI
100
AcDbLine
 62
253
  6
CONTINUOUS
 10
8.7631293807
 20
23.8443375673
 11
8.7631293807
 21
22.3825449351
  0
LINE
  5
439
100
AcDbEntity
  8
ASSI
100
AcDbLine
 62
253
  6
CONTINUOUS
 10
8.7631293807
 20
-22.3825449351
 11
8.7631293807
 21
-23.8443375673
  0
LINE
  5
43A
100
AcDbEntity
  8
ASSI
100
AcDbLine
 62
253
  6
CONTINUOUS
 10
9.0368706193
 20
23.8443375673
 11
9.0368706193
 21
22.3825449351
  0
LINE
  5
43B
100
AcDbEntity
  8
ASSI
100
AcDbLine
 62
253
  6
CONTINUOUS
 10
9.0368706193
 20
-22.3825449351
 11
9.0368706193
 21
-23.8443375673
  0
LINE
  5
43C
100
AcDbEntity
  8
ASSI
100
AcDbLine
 62
253
  6
CONTINUOUS
 10
9.2868325431
 20
23.5581814706
 11
9.2868325431
 21
22.3868325431
  0
LINE
  5
43D
100
AcDbEntity
  8
ASSI
100
AcDbLine
 62
253
  6
CONTINUOUS
 10
9.2868325431
 20
-22.3868325431
 11
9.2868325431
 21
-23.5581814706
  0
LINE
  5
43E
100
AcDbEntity
  8
ASSI
100
AcDbLine
 62
7
  6
CONTINUOUS
 10
9.3
 20
23.1226497308
 11
9.3
 21
22.4
  0
LINE
  5
43F
100
AcDbEntity
  8
ASSI
100
AcDbLine
 62
7
  6
CONTINUOUS
 10
9.3
 20
-22.4
 11
9.3
 21
-23.1226497308
  0
LINE
  5
440
100
AcDbEntity
  8
RACCORDO
100
AcDbLine
 62
7
  6
CONTINUOUS
 10
9.6369070392
 20
20.695674639
 11
9.6369070392
 21
20.0130929608
  0
LINE
  5
441
100
AcDbEntity
  8
RACCORDO
100
AcDbLine
 62
7
  6
CONTINUOUS
 10
9.6369070392
 20
-20.0130929608
 11
9.6369070392
 21
-20.695674639
  0
LINE
  5
442
100
AcDbEntity
  8
RACCORDO
100
AcDbLine
 62
253
  6
CONTINUOUS
 10
9.7832913085
 20
-15.767150432
 11
9.7832913085
 21
15.767150432
  0
LINE
  5
443
100
AcDbEntity
  8
RACCORDO
100
AcDbLine
 62
253
  6
CONTINUOUS
 10
9.9670264395
 20
-15.9508855631
 11
9.9670264395
 21
-16.4508094107
  0
LINE
  5
444
100
AcDbEntity
  8
RACCORDO
100
AcDbLine
 62
253
  6
CONTINUOUS
 10
9.9670264395
 20
15.9508855631
 11
9.9670264395
 21
16.4508094107
  0
LINE
  5
445
100
AcDbEntity
  8
ASSI
100
AcDbLine
 62
253
  6
CONTINUOUS
 10
10.3860054824
 20
24.2368706193
 11
10.3860054824
 21
23.8443575944
  0
LINE
  5
446
100
AcDbEntity
  8
ASSI
100
AcDbLine
 62
253
  6
CONTINUOUS
 10
10.3860054824
 20
-23.8442507367
 11
10.3860054824
 21
-24.2368706193
  0
LINE
  5
447
100
AcDbEntity
  8
ASSI
100
AcDbLine
 62
253
  6
CONTINUOUS
 10
10.5859750215
 20
24.2368706193
 11
10.5859750215
 21
23.8443375673
  0
LINE
  5
448
100
AcDbEntity
  8
ASSI
100
AcDbLine
 62
253
  6
CONTINUOUS
 10
10.5859750215
 20
-23.8443375673
 11
10.5859750215
 21
-24.2368706193
  0
LINE
  5
449
100
AcDbEntity
  8
ASSI
100
AcDbLine
 62
7
  6
CONTINUOUS
 10
10.6
 20
24.300030461
 11
10.6
 21
22.3999997358
  0
LINE
  5
44A
100
AcDbEntity
  8
ASSI
100
AcDbLine
 62
7
  6
CONTINUOUS
 10
10.6000000646
 20
-22.3999999296
 11
10.6
 21
-24.300030461
  0
LINE
  5
44B
100
AcDbEntity
  8
RACCORDO
100
AcDbLine
 62
253
  6
CONTINUOUS
 10
10.7831390036
 20
14.7673027369
 11
10.7831390036
 21
-14.7673027369
  0
LINE
  5
44C
100
AcDbEntity
  8
ASSI
100
AcDbLine
 62
7
  6
CONTINUOUS
 10
9.3
 20
-23.1226497308
 11
9.2868325431
 21
-23.5581814706
  0
LINE
  5
44D
100
AcDbEntity
  8
ASSI
100
AcDbLine
 62
7
  6
CONTINUOUS
 10
11.1
 20
18.5
 11
11.0896792631
 21
18.1586274394
  0
LINE
  5
44E
100
AcDbEntity
  8
RACCORDO
100
AcDbLine
 62
253
  6
CONTINUOUS
 10
-6.78553092
 20
-19.7855385354
 11
-6.6999974788
 21
-19.7
  0
LINE
  5
44F
100
AcDbEntity
  8
ASSI
100
AcDbLine
 62
7
  6
CONTINUOUS
 10
-9.3
 20
-22.4
 11
-9.2868325431
 21
-22.3868325431
  0
LINE
  5
450
100
AcDbEntity
  8
DRAFT
100
AcDbLine
 62
7
  6
CONTINUOUS
 10
-7.4855298181
 20
-20.85
 11
-7.4
 21
-20.7644701819
  0
LINE
  5
451
100
AcDbEntity
  8
RACCORDO
100
AcDbLine
 62
253
  6
CONTINUOUS
 10
-6.5855385354
 20
-19.98553092
 11
-6.4268801279
 21
-19.8268843232
  0
LINE
  5
452
100
AcDbEntity
  8
ASSI
100
AcDbLine
 62
253
  6
CONTINUOUS
 10
-10.6
 20
-24.300030461
 11
-10.5868325431
 21
-24.286863004
  0
LINE
  5
453
100
AcDbEntity
  8
0
100
AcDbLine
 62
7
  6
CONTINUOUS
 10
-5.75
 20
-19.7
 11
-5.6609791689
 21
-19.6109791689
  0
LINE
  5
454
100
AcDbEntity
  8
ASSI
100
AcDbLine
 62
253
  6
CONTINUOUS
 10
-10.400030461
 20
-24.5
 11
-10.3868630041
 21
-24.4868325431
  0
LINE
  5
455
100
AcDbEntity
  8
DRAFT
100
AcDbLine
 62
7
  6
CONTINUOUS
 10
-5.75
 20
-19.9
 11
-5.6609791689
 21
-19.8109791689
  0
LINE
  5
456
100
AcDbEntity
  8
0
100
AcDbLine
 62
253
  6
CONTINUOUS
 10
-2.8058857162
 20
9.5705415381
 11
-1.931304163
 21
9.804884959
  0
LINE
  5
457
100
AcDbEntity
  8
0
100
AcDbLine
 62
7
  6
CONTINUOUS
 10
-2.9223036322
 20
9.5911112606
 11
-2.0202332625
 21
9.8328202876
  0
LINE
  5
458
100
AcDbEntity
  8
0
100
AcDbLine
 62
7
  6
CONTINUOUS
 10
1.0571187256
 20
8.95
 11
0.9435646726
 21
8.95
  0
LINE
  5
459
100
AcDbEntity
  8
0
100
AcDbLine
 62
7
  6
CONTINUOUS
 10
-0.9435646726
 20
8.95
 11
-1.0571187256
 21
8.95
  0
LINE
  5
45A
100
AcDbEntity
  8
0
100
AcDbLine
 62
7
  6
CONTINUOUS
 10
3.9361067391
 20
9.15
 11
3.65
 21
9.15
  0
LINE
  5
45B
100
AcDbEntity
  8
0
100
AcDbLine
 62
253
  6
CONTINUOUS
 10
2.1304508474
 20
9.15
 11
1.75
 21
9.15
  0
LINE
  5
45C
100
AcDbEntity
  8
0
100
AcDbLine
 62
253
  6
CONTINUOUS
 10
-1.75
 20
9.15
 11
-2.1304417793
 21
9.15
  0
LINE
  5
45D
100
AcDbEntity
  8
0
100
AcDbLine
 62
7
  6
CONTINUOUS
 10
-3.65
 20
9.15
 11
-3.9361067391
 21
9.15
  0
LINE
  5
45E
100
AcDbEntity
  8
0
100
AcDbLine
 62
7
  6
CONTINUOUS
 10
-3.5630120243
 20
9.54
 11
-3.3105321998
 21
9.54
  0
LINE
  5
45F
100
AcDbEntity
  8
0
100
AcDbLine
 62
7
  6
CONTINUOUS
 10
3.3105321998
 20
9.54
 11
3.5630120243
 21
9.54
  0
LINE
  5
460
100
AcDbEntity
  8
0
100
AcDbLine
 62
7
  6
CONTINUOUS
 10
-2.8003816276
 20
9.55
 11
-1.75
 21
9.55
  0
LINE
  5
461
100
AcDbEntity
  8
0
100
AcDbLine
 62
7
  6
CONTINUOUS
 10
2.8003816276
 20
9.55
 11
1.75
 21
9.55
  0
LINE
  5
462
100
AcDbEntity
  8
0
100
AcDbLine
 62
253
  6
CONTINUOUS
 10
1.931304163
 20
9.804884959
 11
2.8058857162
 21
9.5705415381
  0
LINE
  5
463
100
AcDbEntity
  8
0
100
AcDbLine
 62
7
  6
CONTINUOUS
 10
2.0202332625
 20
9.8328202876
 11
2.9223036322
 21
9.5911112606
  0
LINE
  5
464
100
AcDbEntity
  8
RACCORDO
100
AcDbLine
 62
253
  6
CONTINUOUS
 10
-6.78553092
 20
19.7855385354
 11
-6.6999866721
 21
19.7
  0
LINE
  5
465
100
AcDbEntity
  8
ASSI
100
AcDbLine
 62
7
  6
CONTINUOUS
 10
-9.3
 20
22.4
 11
-9.2868325431
 21
22.3868325431
  0
LINE
  5
466
100
AcDbEntity
  8
DRAFT
100
AcDbLine
 62
7
  6
CONTINUOUS
 10
-7.4855298181
 20
20.85
 11
-7.4
 21
20.7644701819
  0
LINE
  5
467
100
AcDbEntity
  8
RACCORDO
100
AcDbLine
 62
253
  6
CONTINUOUS
 10
-6.5855385354
 20
19.98553092
 11
-6.4268801289
 21
19.8268866791
  0
LINE
  5
468
100
AcDbEntity
  8
ASSI
100
AcDbLine
 62
253
  6
CONTINUOUS
 10
-10.5868325431
 20
24.2868630041
 11
-10.6
 21
24.300030461
  0
LINE
  5
469
100
AcDbEntity
  8
0
100
AcDbLine
 62
7
  6
CONTINUOUS
 10
-5.75
 20
19.7
 11
-5.6609791689
 21
19.6109791689
  0
LINE
  5
46A
100
AcDbEntity
  8
ASSI
100
AcDbLine
 62
253
  6
CONTINUOUS
 10
-10.386863004
 20
24.4868325431
 11
-10.400030461
 21
24.5
  0
LINE
  5
46B
100
AcDbEntity
  8
DRAFT
100
AcDbLine
 62
7
  6
CONTINUOUS
 10
-5.6609791689
 20
19.8109791689
 11
-5.75
 21
19.9
  0
LINE
  5
46C
100
AcDbEntity
  8
ASSI
100
AcDbLine
 62
7
  6
CONTINUOUS
 10
11.1
 20
18.5
 11
11.1226153273
 21
18.0013746117
  0
LINE
  5
46D
100
AcDbEntity
  8
ASSI
100
AcDbLine
 62
253
  6
CONTINUOUS
 10
10.3864405814
 20
23.6278734767
 11
10.4017150409
 21
23.1226497308
  0
LINE
  5
46E
100
AcDbEntity
  8
ASSI
100
AcDbLine
 62
253
  6
CONTINUOUS
 10
10.5864113981
 20
23.8010362971
 11
10.6
 21
23.3515746082
  0
LINE
  5
46F
100
AcDbEntity
  8
RACCORDO
100
AcDbLine
 62
7
  6
CONTINUOUS
 10
10.9754493507
 20
17.5993978025
 11
10.9754493507
 21
16.0612245738
  0
LINE
  5
470
100
AcDbEntity
  8
RACCORDO
100
AcDbLine
 62
7
  6
CONTINUOUS
 10
10.9754493507
 20
-16.0612245737
 11
10.9754493507
 21
-17.5993978025
  0
LINE
  5
471
100
AcDbEntity
  8
ASSI
100
AcDbLine
 62
7
  6
CONTINUOUS
 10
11.0738174026
 20
18.5638400026
 11
11.0738174026
 21
18.2179158172
  0
LINE
  5
472
100
AcDbEntity
  8
ASSI
100
AcDbLine
 62
7
  6
CONTINUOUS
 10
11.0738174026
 20
-18.2179158172
 11
11.0738174026
 21
-18.5638400026
  0
LINE
  5
473
100
AcDbEntity
  8
ASSI
100
AcDbLine
 62
7
  6
CONTINUOUS
 10
11.0825449351
 20
21.8826210875
 11
11.0825449351
 21
18.5674550649
  0
LINE
  5
474
100
AcDbEntity
  8
ASSI
100
AcDbLine
 62
7
  6
CONTINUOUS
 10
11.0825449351
 20
-18.5674550649
 11
11.0825449351
 21
-21.8826210875
  0
LINE
  5
475
100
AcDbEntity
  8
ASSI
100
AcDbLine
 62
7
  6
CONTINUOUS
 10
11.1
 20
21.9000761524
 11
11.1
 21
18.5
  0
LINE
  5
476
100
AcDbEntity
  8
ASSI
100
AcDbLine
 62
7
  6
CONTINUOUS
 10
11.1
 20
-21.9000761524
 11
11.1
 21
-18.5
  0
LINE
  5
477
100
AcDbEntity
  8
RACCORDO
100
AcDbLine
 62
7
  6
CONTINUOUS
 10
11.15
 20
-17.6716990487
 11
11.15
 21
17.6716990487
  0
LINE
  5
478
100
AcDbEntity
  8
ASSI
100
AcDbLine
 62
253
  6
CONTINUOUS
 10
10.4017150409
 20
-23.1226497308
 11
10.3864421555
 21
-23.6278214108
  0
LINE
  5
479
100
AcDbEntity
  8
ASSI
100
AcDbLine
 62
253
  6
CONTINUOUS
 10
10.6
 20
-23.3515746082
 11
10.5864113981
 21
-23.8010362971
  0
LINE
  5
47A
100
AcDbEntity
  8
ASSI
100
AcDbLine
 62
7
  6
CONTINUOUS
 10
11.1226153273
 20
-18.0013746117
 11
11.1
 21
-18.5
  0
LINE
  5
47B
100
AcDbEntity
  8
RACCORDO
100
AcDbLine
 62
7
  6
CONTINUOUS
 10
-4.1762170214
 20
-19.9262170214
 11
-4.25
 21
-20.0
  0
LINE
  5
47C
100
AcDbEntity
  8
DRAFT
100
AcDbLine
 62
7
  6
CONTINUOUS
 10
2.7498952884
 20
-14.5394803322
 11
2.8024659223
 21
-14.4869096983
  0
LINE
  5
47D
100
AcDbEntity
  8
ASSI
100
AcDbLine
 62
7
  6
CONTINUOUS
 10
-4.45
 20
-22.4
 11
-4.3520586235
 21
-22.3020586235
  0
LINE
  5
47E
100
AcDbEntity
  8
RACCORDO
100
AcDbLine
 62
7
  6
CONTINUOUS
 10
2.8022524288
 20
-14.9871422029
 11
2.7499333627
 21
-15.0394543679
  0
LINE
  5
47F
100
AcDbEntity
  8
0
100
AcDbLine
 62
253
  6
CONTINUOUS
 10
-11.15
 20
-17.6716990487
 11
-10.9754493507
 21
-17.5993978025
  0
LINE
  5
480
100
AcDbEntity
  8
ASSI
100
AcDbLine
 62
7
  6
CONTINUOUS
 10
-11.0738174026
 20
-18.5638400026
 11
-11.0825449351
 21
-18.5674550649
  0
LINE
  5
481
100
AcDbEntity
  8
0
100
AcDbLine
 62
253
  6
CONTINUOUS
 10
-10.9754493507
 20
17.5993978025
 11
-11.15
 21
17.6716990487
  0
LINE
  5
482
100
AcDbEntity
  8
ASSI
100
AcDbLine
 62
7
  6
CONTINUOUS
 10
-11.0738174026
 20
18.5638400026
 11
-11.0825449351
 21
18.5674550649
  0
LINE
  5
483
100
AcDbEntity
  8
DRAFT
100
AcDbLine
 62
7
  6
CONTINUOUS
 10
2.8024659223
 20
14.4869096983
 11
2.7498952884
 21
14.5394803322
  0
LINE
  5
484
100
AcDbEntity
  8
RACCORDO
100
AcDbLine
 62
7
  6
CONTINUOUS
 10
2.8022522851
 20
14.9872152382
 11
2.7499333682
 21
15.0395272527
  0
LINE
  5
485
100
AcDbEntity
  8
ASSI
100
AcDbLine
 62
7
  6
CONTINUOUS
 10
-4.45
 20
22.4
 11
-4.3520586235
 21
22.3020586235
  0
LINE
  5
486
100
AcDbEntity
  8
ASSI
100
AcDbLine
 62
7
  6
CONTINUOUS
 10
7.3037800478
 20
-22.2164171854
 11
7.2551134101
 21
-22.3825449351
  0
LINE
  5
487
100
AcDbEntity
  8
ASSI
100
AcDbLine
 62
253
  6
CONTINUOUS
 10
-4.351751166
 20
-23.6517892422
 11
-4.45
 21
-23.7500380762
  0
LINE
  5
488
100
AcDbEntity
  8
ASSI
100
AcDbLine
 62
253
  6
CONTINUOUS
 10
-4.1017910252
 20
-23.901752949
 11
-4.2000380762
 21
-24.0
  0
LINE
  5
489
100
AcDbEntity
  8
0
100
AcDbLine
 62
253
  6
CONTINUOUS
 10
-10.5643027805
 20
-19.0856972195
 11
-10.3897521312
 21
-19.0133959733
  0
LINE
  5
48A
100
AcDbEntity
  8
DRAFT
100
AcDbLine
 62
7
  6
CONTINUOUS
 10
-2.8024659223
 20
14.4869096983
 11
2.8024659223
 21
14.4869096983
  0
LINE
  5
48B
100
AcDbEntity
  8
RACCORDO
100
AcDbLine
 62
253
  6
CONTINUOUS
 10
10.7831390036
 20
14.7673027369
 11
2.8024659223
 21
14.7673027369
  0
LINE
  5
48C
100
AcDbEntity
  8
RACCORDO
100
AcDbLine
 62
253
  6
CONTINUOUS
 10
-2.8024659223
 20
14.7673027369
 11
-10.7831390036
 21
14.7673027369
  0
LINE
  5
48D
100
AcDbEntity
  8
0
100
AcDbLine
 62
253
  6
CONTINUOUS
 10
-10.3897521312
 20
19.0133959733
 11
-10.5643027805
 21
19.0856972195
  0
LINE
  5
48E
100
AcDbEntity
  8
ASSI
100
AcDbLine
 62
253
  6
CONTINUOUS
 10
-4.45
 20
23.7500380762
 11
-4.3517511659
 21
23.6517892421
  0
LINE
  5
48F
100
AcDbEntity
  8
ASSI
100
AcDbLine
 62
253
  6
CONTINUOUS
 10
-4.2000380762
 20
24.0
 11
-4.1017910252
 21
23.901752949
  0
LINE
  5
490
100
AcDbEntity
  8
ASSI
100
AcDbLine
 62
7
  6
CONTINUOUS
 10
7.3037800478
 20
22.2164171854
 11
7.2551134101
 21
22.3825449351
  0
LINE
  5
491
100
AcDbEntity
  8
RACCORDO
100
AcDbLine
 62
253
  6
CONTINUOUS
 10
5.127245562
 20
-21.21656949
 11
5.228025264
 21
-21.0438819853
  0
LINE
  5
492
100
AcDbEntity
  8
RACCORDO
100
AcDbLine
 62
253
  6
CONTINUOUS
 10
-9.6369070392
 20
-20.695674639
 11
-9.4354847682
 21
-20.6285475178
  0
LINE
  5
493
100
AcDbEntity
  8
RACCORDO
100
AcDbLine
 62
253
  6
CONTINUOUS
 10
-9.4368841832
 20
-20.8956365661
 11
-9.2355533032
 21
-20.8285399025
  0
LINE
  5
494
100
AcDbEntity
  8
RACCORDO
100
AcDbLine
 62
253
  6
CONTINUOUS
 10
9.7832913085
 20
15.767150432
 11
3.2393018509
 21
15.767150432
  0
LINE
  5
495
100
AcDbEntity
  8
RACCORDO
100
AcDbLine
 62
253
  6
CONTINUOUS
 10
-3.2393018509
 20
15.767150432
 11
-9.7832913085
 21
15.767150432
  0
LINE
  5
496
100
AcDbEntity
  8
RACCORDO
100
AcDbLine
 62
253
  6
CONTINUOUS
 10
-9.9670264395
 20
15.9508855631
 11
9.9670264395
 21
15.9508855631
  0
LINE
  5
497
100
AcDbEntity
  8
RACCORDO
100
AcDbLine
 62
253
  6
CONTINUOUS
 10
-9.9670264395
 20
16.4508094107
 11
9.9670264395
 21
16.4508094107
  0
LINE
  5
498
100
AcDbEntity
  8
RACCORDO
100
AcDbLine
 62
253
  6
CONTINUOUS
 10
-9.4354847682
 20
20.6285475178
 11
-9.6369070392
 21
20.695674639
  0
LINE
  5
499
100
AcDbEntity
  8
RACCORDO
100
AcDbLine
 62
253
  6
CONTINUOUS
 10
-9.2355533032
 20
20.8285399025
 11
-9.4368841832
 21
20.8956365661
  0
LINE
  5
49A
100
AcDbEntity
  8
RACCORDO
100
AcDbLine
 62
253
  6
CONTINUOUS
 10
5.1272455641
 20
21.2165694912
 11
5.2280254793
 21
21.0438816176
  0
LINE
  5
49B
100
AcDbEntity
  8
ASSI
100
AcDbLine
 62
253
  6
CONTINUOUS
 10
0.8165255932
 20
-23.733512483
 11
0.8
 21
-23.7500380762
  0
LINE
  5
49C
100
AcDbEntity
  8
RACCORDO
100
AcDbLine
 62
7
  6
CONTINUOUS
 10
5.0234127252
 20
-19.9265872748
 11
4.95
 21
-20.0
  0
LINE
  5
49D
100
AcDbEntity
  8
ASSI
100
AcDbLine
 62
253
  6
CONTINUOUS
 10
1.0663732129
 20
-23.9835887109
 11
1.0499619238
 21
-24.0
  0
LINE
  5
49E
100
AcDbEntity
  8
RACCORDO
100
AcDbLine
 62
253
  6
CONTINUOUS
 10
5.1288794371
 20
-20.8711634826
 11
5.4460728408
 21
-20.5539576202
  0
LINE
  5
49F
100
AcDbEntity
  8
RACCORDO
100
AcDbLine
 62
253
  6
CONTINUOUS
 10
5.3288693584
 20
-21.0710881356
 11
5.6460423798
 21
-20.7539271592
  0
LINE
  5
4A0
100
AcDbEntity
  8
0
100
AcDbLine
 62
7
  6
CONTINUOUS
 10
7.4
 20
-19.7
 11
7.4890208311
 21
-19.6109791689
  0
LINE
  5
4A1
100
AcDbEntity
  8
RACCORDO
100
AcDbLine
 62
253
  6
CONTINUOUS
 10
7.2144614646
 20
-19.98553092
 11
7.3725791191
 21
-19.8274028385
  0
LINE
  5
4A2
100
AcDbEntity
  8
RACCORDO
100
AcDbLine
 62
253
  6
CONTINUOUS
 10
7.01446908
 20
-19.7855385354
 11
7.100058845
 21
-19.7
  0
LINE
  5
4A3
100
AcDbEntity
  8
ASSI
100
AcDbLine
 62
253
  6
CONTINUOUS
 10
0.8
 20
23.7500380762
 11
0.8165255932
 21
23.733512483
  0
LINE
  5
4A4
100
AcDbEntity
  8
RACCORDO
100
AcDbLine
 62
7
  6
CONTINUOUS
 10
5.0234127252
 20
19.9265872748
 11
4.95
 21
20.0
  0
LINE
  5
4A5
100
AcDbEntity
  8
ASSI
100
AcDbLine
 62
253
  6
CONTINUOUS
 10
1.0499619238
 20
24.0
 11
1.0663732129
 21
23.9835887109
  0
LINE
  5
4A6
100
AcDbEntity
  8
RACCORDO
100
AcDbLine
 62
253
  6
CONTINUOUS
 10
5.1288794371
 20
20.8711510238
 11
5.4460728408
 21
20.5539576202
  0
LINE
  5
4A7
100
AcDbEntity
  8
RACCORDO
100
AcDbLine
 62
253
  6
CONTINUOUS
 10
5.3289109031
 20
21.0710881356
 11
5.6460423798
 21
20.7539271592
  0
LINE
  5
4A8
100
AcDbEntity
  8
RACCORDO
100
AcDbLine
 62
253
  6
CONTINUOUS
 10
7.1000022559
 20
19.7
 11
7.01446908
 21
19.7855385354
  0
LINE
  5
4A9
100
AcDbEntity
  8
0
100
AcDbLine
 62
7
  6
CONTINUOUS
 10
7.4
 20
19.7
 11
7.4890208311
 21
19.6109791689
  0
LINE
  5
4AA
100
AcDbEntity
  8
RACCORDO
100
AcDbLine
 62
253
  6
CONTINUOUS
 10
7.372579203
 20
19.8271912776
 11
7.2144614646
 21
19.98553092
  0
LINE
  5
4AB
100
AcDbEntity
  8
DRAFT
100
AcDbLine
 62
7
  6
CONTINUOUS
 10
7.4
 20
-20.7644701819
 11
7.4890208311
 21
-20.6754493507
  0
LINE
  5
4AC
100
AcDbEntity
  8
RACCORDO
100
AcDbLine
 62
7
  6
CONTINUOUS
 10
7.3721758223
 20
-20.8278241777
 11
7.2144614646
 21
-20.9855385354
  0
LINE
  5
4AD
100
AcDbEntity
  8
0
100
AcDbLine
 62
7
  6
CONTINUOUS
 10
10.3897521312
 20
-19.0133959733
 11
8.7276987537
 21
-20.6754493507
  0
LINE
  5
4AE
100
AcDbEntity
  8
ASSI
100
AcDbLine
 62
7
  6
CONTINUOUS
 10
10.6897603708
 20
-18.9478970345
 11
11.0738174026
 21
-18.5638400026
  0
LINE
  5
4AF
100
AcDbEntity
  8
ASSI
100
AcDbLine
 62
7
  6
CONTINUOUS
 10
7.2551134101
 20
-22.3825449351
 11
8.2325449351
 21
-21.4051134101
  0
LINE
  5
4B0
100
AcDbEntity
  8
RACCORDO
100
AcDbLine
 62
7
  6
CONTINUOUS
 10
8.8
 20
-20.85
 11
10.5643027805
 21
-19.0856972195
  0
LINE
  5
4B1
100
AcDbEntity
  8
ASSI
100
AcDbLine
 62
7
  6
CONTINUOUS
 10
10.5643027805
 20
-19.0856972195
 11
11.0825449351
 21
-18.5674550649
  0
LINE
  5
4B2
100
AcDbEntity
  8
RACCORDO
100
AcDbLine
 62
253
  6
CONTINUOUS
 10
5.2469883547
 20
-19.9265114192
 11
4.9289098981
 21
-20.0855385354
  0
LINE
  5
4B3
100
AcDbEntity
  8
RACCORDO
100
AcDbLine
 62
253
  6
CONTINUOUS
 10
5.4464336239
 20
-20.1267659188
 11
5.1288794371
 21
-20.28553092
  0
LINE
  5
4B4
100
AcDbEntity
  8
ASSI
100
AcDbLine
 62
253
  6
CONTINUOUS
 10
-3.0573474057
 20
21.2209325918
 11
-3.3073093295
 21
21.2165694902
  0
LINE
  5
4B5
100
AcDbEntity
  8
0
100
AcDbLine
 62
7
  6
CONTINUOUS
 10
7.4890208311
 20
19.6109791689
 11
5.6609791689
 21
19.6109791689
  0
LINE
  5
4B6
100
AcDbEntity
  8
0
100
AcDbLine
 62
7
  6
CONTINUOUS
 10
-5.6609791689
 20
19.6109791689
 11
-7.4890208311
 21
19.6109791689
  0
LINE
  5
4B7
100
AcDbEntity
  8
DRAFT
100
AcDbLine
 62
7
  6
CONTINUOUS
 10
-7.4
 20
19.7
 11
-5.75
 21
19.7
  0
LINE
  5
4B8
100
AcDbEntity
  8
DRAFT
100
AcDbLine
 62
7
  6
CONTINUOUS
 10
5.75
 20
19.7
 11
7.4
 21
19.7
  0
LINE
  5
4B9
100
AcDbEntity
  8
RACCORDO
100
AcDbLine
 62
7
  6
CONTINUOUS
 10
-7.01446908
 20
19.7855385354
 11
-6.78553092
 21
19.7855385354
  0
LINE
  5
4BA
100
AcDbEntity
  8
RACCORDO
100
AcDbLine
 62
7
  6
CONTINUOUS
 10
6.78553092
 20
19.7855385354
 11
7.01446908
 21
19.7855385354
  0
LINE
  5
4BB
100
AcDbEntity
  8
DRAFT
100
AcDbLine
 62
7
  6
CONTINUOUS
 10
5.6609791689
 20
19.8109791689
 11
-5.6609791689
 21
19.8109791689
  0
LINE
  5
4BC
100
AcDbEntity
  8
RACCORDO
100
AcDbLine
 62
7
  6
CONTINUOUS
 10
2.4
 20
19.8843869511
 11
-2.4
 21
19.8843869511
  0
LINE
  5
4BD
100
AcDbEntity
  8
RACCORDO
100
AcDbLine
 62
7
  6
CONTINUOUS
 10
5.75
 20
19.9
 11
3.3932016106
 21
19.9
  0
LINE
  5
4BE
100
AcDbEntity
  8
RACCORDO
100
AcDbLine
 62
7
  6
CONTINUOUS
 10
-3.3932016106
 20
19.9
 11
-5.75
 21
19.9
  0
LINE
  5
4BF
100
AcDbEntity
  8
RACCORDO
100
AcDbLine
 62
253
  6
CONTINUOUS
 10
6.5855385354
 20
19.98553092
 11
7.2144614646
 21
19.98553092
  0
LINE
  5
4C0
100
AcDbEntity
  8
RACCORDO
100
AcDbLine
 62
253
  6
CONTINUOUS
 10
-6.5855385354
 20
19.98553092
 11
-7.2144614646
 21
19.98553092
  0
LINE
  5
4C1
100
AcDbEntity
  8
DRAFT
100
AcDbLine
 62
7
  6
CONTINUOUS
 10
4.95
 20
20.0
 11
4.25
 21
20.0
  0
LINE
  5
4C2
100
AcDbEntity
  8
DRAFT
100
AcDbLine
 62
7
  6
CONTINUOUS
 10
-3.5
 20
20.0
 11
-3.4
 21
20.0
  0
LINE
  5
4C3
100
AcDbEntity
  8
DRAFT
100
AcDbLine
 62
7
  6
CONTINUOUS
 10
3.4
 20
20.0
 11
3.5
 21
20.0
  0
LINE
  5
4C4
100
AcDbEntity
  8
DRAFT
100
AcDbLine
 62
7
  6
CONTINUOUS
 10
-4.25
 20
20.0
 11
-4.95
 21
20.0
  0
LINE
  5
4C5
100
AcDbEntity
  8
ASSI
100
AcDbLine
 62
7
  6
CONTINUOUS
 10
2.5017369722
 20
20.0532460614
 11
2.4411968952
 21
20.0532460614
  0
LINE
  5
4C6
100
AcDbEntity
  8
ASSI
100
AcDbLine
 62
7
  6
CONTINUOUS
 10
-2.4411968952
 20
20.0532460614
 11
-2.5017369722
 21
20.0532460614
  0
LINE
  5
4C7
100
AcDbEntity
  8
RACCORDO
100
AcDbLine
 62
7
  6
CONTINUOUS
 10
-4.9289098981
 20
20.0855385354
 11
4.9289098981
 21
20.0855385354
  0
LINE
  5
4C8
100
AcDbEntity
  8
RACCORDO
100
AcDbLine
 62
253
  6
CONTINUOUS
 10
5.1288794371
 20
20.28553092
 11
-5.1288794371
 21
20.28553092
  0
LINE
  5
4C9
100
AcDbEntity
  8
DRAFT
100
AcDbLine
 62
7
  6
CONTINUOUS
 10
8.7276987537
 20
20.6754493507
 11
7.4890208311
 21
20.6754493507
  0
LINE
  5
4CA
100
AcDbEntity
  8
DRAFT
100
AcDbLine
 62
7
  6
CONTINUOUS
 10
-7.4890208311
 20
20.6754493507
 11
-8.7276987537
 21
20.6754493507
  0
LINE
  5
4CB
100
AcDbEntity
  8
ASSI
100
AcDbLine
 62
7
  6
CONTINUOUS
 10
3.300038082
 20
20.8
 11
-3.300038082
 21
20.8
  0
LINE
  5
4CC
100
AcDbEntity
  8
DRAFT
100
AcDbLine
 62
7
  6
CONTINUOUS
 10
8.8
 20
20.85
 11
7.4855298181
 21
20.85
  0
LINE
  5
4CD
100
AcDbEntity
  8
DRAFT
100
AcDbLine
 62
7
  6
CONTINUOUS
 10
-7.4855298181
 20
20.85
 11
-8.8
 21
20.85
  0
LINE
  5
4CE
100
AcDbEntity
  8
RACCORDO
100
AcDbLine
 62
253
  6
CONTINUOUS
 10
-6.78553092
 20
20.8710900996
 11
-6.5855385354
 21
20.8710900996
  0
LINE
  5
4CF
100
AcDbEntity
  8
RACCORDO
100
AcDbLine
 62
253
  6
CONTINUOUS
 10
6.78553092
 20
20.8710900996
 11
6.5855385354
 21
20.8710900996
  0
LINE
  5
4D0
100
AcDbEntity
  8
RACCORDO
100
AcDbLine
 62
253
  6
CONTINUOUS
 10
4.9289098981
 20
20.8711510238
 11
5.1288794371
 21
20.8711510239
  0
LINE
  5
4D1
100
AcDbEntity
  8
RACCORDO
100
AcDbLine
 62
253
  6
CONTINUOUS
 10
-4.9289098981
 20
20.8711510238
 11
-5.1288794371
 21
20.8711510238
  0
LINE
  5
4D2
100
AcDbEntity
  8
RACCORDO
100
AcDbLine
 62
7
  6
CONTINUOUS
 10
9.4368841832
 20
20.8956365661
 11
8.2325449351
 21
20.8956365661
  0
LINE
  5
4D3
100
AcDbEntity
  8
RACCORDO
100
AcDbLine
 62
7
  6
CONTINUOUS
 10
-8.2325449351
 20
20.8956365661
 11
-9.4368841832
 21
20.8956365661
  0
LINE
  5
4D4
100
AcDbEntity
  8
RACCORDO
100
AcDbLine
 62
7
  6
CONTINUOUS
 10
-8.0492667533
 20
20.9872686779
 11
-7.01446908
 21
20.9872686779
  0
LINE
  5
4D5
100
AcDbEntity
  8
RACCORDO
100
AcDbLine
 62
7
  6
CONTINUOUS
 10
7.01446908
 20
20.9872686779
 11
8.0492667533
 21
20.9872686779
  0
LINE
  5
4D6
100
AcDbEntity
  8
RACCORDO
100
AcDbLine
 62
253
  6
CONTINUOUS
 10
-6.3855304799
 20
21.0710881356
 11
-5.3288693584
 21
21.0710881356
  0
LINE
  5
4D7
100
AcDbEntity
  8
RACCORDO
100
AcDbLine
 62
253
  6
CONTINUOUS
 10
5.3289109031
 20
21.0710881356
 11
6.3855330453
 21
21.0710881356
  0
LINE
  5
4D8
100
AcDbEntity
  8
RACCORDO
100
AcDbLine
 62
253
  6
CONTINUOUS
 10
8.0492667533
 20
21.2165694902
 11
6.5872827295
 21
21.2164786834
  0
LINE
  5
4D9
100
AcDbEntity
  8
RACCORDO
100
AcDbLine
 62
253
  6
CONTINUOUS
 10
-3.3073093295
 20
21.2165694902
 11
-5.1272455623
 21
21.2165694902
  0
LINE
  5
4DA
100
AcDbEntity
  8
RACCORDO
100
AcDbLine
 62
253
  6
CONTINUOUS
 10
5.1271447135
 20
21.2164914911
 11
3.3073093295
 21
21.2165694902
  0
LINE
  5
4DB
100
AcDbEntity
  8
RACCORDO
100
AcDbLine
 62
253
  6
CONTINUOUS
 10
-6.3855603982
 20
21.2846797207
 11
-5.3288814035
 21
21.2846797207
  0
LINE
  5
4DC
100
AcDbEntity
  8
RACCORDO
100
AcDbLine
 62
253
  6
CONTINUOUS
 10
5.3288814035
 20
21.2846797207
 11
6.3855603982
 21
21.2846797207
  0
LINE
  5
4DD
100
AcDbEntity
  8
RACCORDO
100
AcDbLine
 62
253
  6
CONTINUOUS
 10
-6.5872663246
 20
21.2164913559
 11
-8.0492667533
 21
21.2165694902
  0
LINE
  5
4DE
100
AcDbEntity
  8
ASSI
100
AcDbLine
 62
253
  6
CONTINUOUS
 10
3.0573474057
 20
21.2209325918
 11
3.3073093295
 21
21.2165694869
  0
LINE
  5
4DF
100
AcDbEntity
  8
RACCORDO
100
AcDbLine
 62
253
  6
CONTINUOUS
 10
5.1288794371
 20
20.28553092
 11
5.4464336159
 21
20.1267754405
  0
LINE
  5
4E0
100
AcDbEntity
  8
RACCORDO
100
AcDbLine
 62
253
  6
CONTINUOUS
 10
4.9289098981
 20
20.0855385354
 11
5.2469883547
 21
19.9265114192
  0
LINE
  5
4E1
100
AcDbEntity
  8
DRAFT
100
AcDbLine
 62
7
  6
CONTINUOUS
 10
7.4
 20
20.7644701819
 11
7.4890208311
 21
20.6754493507
  0
LINE
  5
4E2
100
AcDbEntity
  8
RACCORDO
100
AcDbLine
 62
7
  6
CONTINUOUS
 10
7.2144614646
 20
20.9855385354
 11
7.3721758223
 21
20.8278241777
  0
LINE
  5
4E3
100
AcDbEntity
  8
0
100
AcDbLine
 62
7
  6
CONTINUOUS
 10
8.7276987537
 20
20.6754493507
 11
10.3897521312
 21
19.0133959733
  0
LINE
  5
4E4
100
AcDbEntity
  8
ASSI
100
AcDbLine
 62
7
  6
CONTINUOUS
 10
11.0738174026
 20
18.5638400026
 11
10.6897603708
 21
18.9478970345
  0
LINE
  5
4E5
100
AcDbEntity
  8
ASSI
100
AcDbLine
 62
7
  6
CONTINUOUS
 10
8.2325449351
 20
21.4051134101
 11
7.2551134101
 21
22.3825449351
  0
LINE
  5
4E6
100
AcDbEntity
  8
ASSI
100
AcDbLine
 62
7
  6
CONTINUOUS
 10
11.0825449351
 20
18.5674550649
 11
10.5643027805
 21
19.0856972195
  0
LINE
  5
4E7
100
AcDbEntity
  8
RACCORDO
100
AcDbLine
 62
7
  6
CONTINUOUS
 10
10.5643027805
 20
19.0856972195
 11
8.8
 21
20.85
  0
LINE
  5
4E8
100
AcDbEntity
  8
ASSI
100
AcDbLine
 62
7
  6
CONTINUOUS
 10
8.5
 20
-22.4
 11
8.5131674569
 21
-22.3868325431
  0
LINE
  5
4E9
100
AcDbEntity
  8
ASSI
100
AcDbLine
 62
253
  6
CONTINUOUS
 10
7.2131674569
 20
-24.286863004
 11
7.2
 21
-24.300030461
  0
LINE
  5
4EA
100
AcDbEntity
  8
ASSI
100
AcDbLine
 62
253
  6
CONTINUOUS
 10
7.413136996
 20
-24.4868325431
 11
7.399969539
 21
-24.5
  0
LINE
  5
4EB
100
AcDbEntity
  8
ASSI
100
AcDbLine
 62
7
  6
CONTINUOUS
 10
8.0492667533
 20
-20.9872686779
 11
8.2325449351
 21
-20.8956365661
  0
LINE
  5
4EC
100
AcDbEntity
  8
ASSI
100
AcDbLine
 62
7
  6
CONTINUOUS
 10
8.0497859431
 20
-21.4586521215
 11
8.2325449351
 21
-21.4051134101
  0
LINE
  5
4ED
100
AcDbEntity
  8
ASSI
100
AcDbLine
 62
7
  6
CONTINUOUS
 10
-0.8171358942
 20
22.3982865828
 11
-0.8
 21
22.4
  0
LINE
  5
4EE
100
AcDbEntity
  8
ASSI
100
AcDbLine
 62
7
  6
CONTINUOUS
 10
-3.0657095584
 20
21.7
 11
3.0657095584
 21
21.7
  0
LINE
  5
4EF
100
AcDbEntity
  8
ASSI
100
AcDbLine
 62
253
  6
CONTINUOUS
 10
7.3037800478
 20
22.2164171854
 11
3.3203986343
 21
22.2164171854
  0
LINE
  5
4F0
100
AcDbEntity
  8
ASSI
100
AcDbLine
 62
253
  6
CONTINUOUS
 10
-3.3203986343
 20
22.2164171854
 11
-7.3037800478
 21
22.2164171854
  0
LINE
  5
4F1
100
AcDbEntity
  8
ASSI
100
AcDbLine
 62
7
  6
CONTINUOUS
 10
10.5826210875
 20
22.3825449351
 11
9.0368706193
 21
22.3825449351
  0
LINE
  5
4F2
100
AcDbEntity
  8
ASSI
100
AcDbLine
 62
7
  6
CONTINUOUS
 10
8.7631293807
 20
22.3825449351
 11
7.2551134101
 21
22.3825449351
  0
LINE
  5
4F3
100
AcDbEntity
  8
ASSI
100
AcDbLine
 62
7
  6
CONTINUOUS
 10
-7.2551134101
 20
22.3825449351
 11
-8.7631293807
 21
22.3825449351
  0
LINE
  5
4F4
100
AcDbEntity
  8
ASSI
100
AcDbLine
 62
7
  6
CONTINUOUS
 10
-9.0368706193
 20
22.3825449351
 11
-10.5826210875
 21
22.3825449351
  0
LINE
  5
4F5
100
AcDbEntity
  8
ASSI
100
AcDbLine
 62
7
  6
CONTINUOUS
 10
0.8171358942
 20
22.3982865828
 11
-0.8171358942
 21
22.3982865828
  0
LINE
  5
4F6
100
AcDbEntity
  8
ASSI
100
AcDbLine
 62
7
  6
CONTINUOUS
 10
-10.6000000646
 20
22.3999999354
 11
-9.3
 21
22.4
  0
LINE
  5
4F7
100
AcDbEntity
  8
ASSI
100
AcDbLine
 62
7
  6
CONTINUOUS
 10
-8.5
 20
22.4
 11
-4.45
 21
22.4
  0
LINE
  5
4F8
100
AcDbEntity
  8
ASSI
100
AcDbLine
 62
7
  6
CONTINUOUS
 10
4.45
 20
22.4
 11
8.5
 21
22.4
  0
LINE
  5
4F9
100
AcDbEntity
  8
ASSI
100
AcDbLine
 62
7
  6
CONTINUOUS
 10
9.3
 20
22.4
 11
10.6
 21
22.3999999999
  0
LINE
  5
4FA
100
AcDbEntity
  8
ASSI
100
AcDbLine
 62
7
  6
CONTINUOUS
 10
-10.4017150409
 20
23.1226497308
 11
-9.3
 21
23.1226497308
  0
LINE
  5
4FB
100
AcDbEntity
  8
ASSI
100
AcDbLine
 62
7
  6
CONTINUOUS
 10
-8.5
 20
23.1226497308
 11
-7.3982849591
 21
23.1226497308
  0
LINE
  5
4FC
100
AcDbEntity
  8
ASSI
100
AcDbLine
 62
7
  6
CONTINUOUS
 10
7.3982849591
 20
23.1226497308
 11
8.5
 21
23.1226497308
  0
LINE
  5
4FD
100
AcDbEntity
  8
ASSI
100
AcDbLine
 62
7
  6
CONTINUOUS
 10
9.3
 20
23.1226497308
 11
10.4017150409
 21
23.1226497308
  0
LINE
  5
4FE
100
AcDbEntity
  8
ASSI
100
AcDbLine
 62
7
  6
CONTINUOUS
 10
0.8171358942
 20
22.3982865828
 11
0.8
 21
22.4
  0
LINE
  5
4FF
100
AcDbEntity
  8
ASSI
100
AcDbLine
 62
7
  6
CONTINUOUS
 10
8.0497859431
 20
21.4586521215
 11
8.2325449351
 21
21.4051134101
  0
LINE
  5
500
100
AcDbEntity
  8
ASSI
100
AcDbLine
 62
7
  6
CONTINUOUS
 10
8.0492667533
 20
20.9872686779
 11
8.2325449351
 21
20.8956365661
  0
LINE
  5
501
100
AcDbEntity
  8
ASSI
100
AcDbLine
 62
7
  6
CONTINUOUS
 10
8.5
 20
22.4
 11
8.5131674569
 21
22.3868325431
  0
LINE
  5
502
100
AcDbEntity
  8
ASSI
100
AcDbLine
 62
253
  6
CONTINUOUS
 10
7.2
 20
24.300030461
 11
7.2131674569
 21
24.2868630041
  0
LINE
  5
503
100
AcDbEntity
  8
ASSI
100
AcDbLine
 62
253
  6
CONTINUOUS
 10
7.399969539
 20
24.5
 11
7.413136996
 21
24.4868325431
  0
LINE
  5
504
100
AcDbEntity
  8
ASSI
100
AcDbLine
 62
253
  6
CONTINUOUS
 10
-10.3864405812
 20
23.6278734826
 11
-9.2533769702
 21
23.6278312164
  0
LINE
  5
505
100
AcDbEntity
  8
ASSI
100
AcDbLine
 62
253
  6
CONTINUOUS
 10
9.2533769702
 20
23.6278312164
 11
10.3864405814
 21
23.6278734767
  0
LINE
  5
506
100
AcDbEntity
  8
ASSI
100
AcDbLine
 62
253
  6
CONTINUOUS
 10
-8.5466230298
 20
23.6278312164
 11
-7.4135581655
 21
23.6278320282
  0
LINE
  5
507
100
AcDbEntity
  8
ASSI
100
AcDbLine
 62
253
  6
CONTINUOUS
 10
7.413558172
 20
23.6278322442
 11
8.5466230298
 21
23.6278312164
  0
LINE
  5
508
100
AcDbEntity
  8
ASSI
100
AcDbLine
 62
253
  6
CONTINUOUS
 10
-10.5859750215
 20
23.8443375673
 11
-9.0368706193
 21
23.8443375673
  0
LINE
  5
509
100
AcDbEntity
  8
ASSI
100
AcDbLine
 62
253
  6
CONTINUOUS
 10
10.5859750215
 20
23.8443375673
 11
9.0368706193
 21
23.8443375673
  0
LINE
  5
50A
100
AcDbEntity
  8
ASSI
100
AcDbLine
 62
253
  6
CONTINUOUS
 10
8.7631293807
 20
23.8443375673
 11
7.2140249785
 21
23.8443375673
  0
LINE
  5
50B
100
AcDbEntity
  8
ASSI
100
AcDbLine
 62
253
  6
CONTINUOUS
 10
-7.2140249785
 20
23.8443375673
 11
-8.7631293807
 21
23.8443375673
  0
LINE
  5
50C
100
AcDbEntity
  8
ASSI
100
AcDbLine
 62
7
  6
CONTINUOUS
 10
-3.8478541563
 20
23.9835887109
 11
-1.0663732129
 21
23.9835887109
  0
LINE
  5
50D
100
AcDbEntity
  8
ASSI
100
AcDbLine
 62
7
  6
CONTINUOUS
 10
1.0663732129
 20
23.9835887109
 11
3.8478541563
 21
23.9835887109
  0
LINE
  5
50E
100
AcDbEntity
  8
ASSI
100
AcDbLine
 62
7
  6
CONTINUOUS
 10
-4.2000380762
 20
24.0
 11
-1.0499619238
 21
24.0
  0
LINE
  5
50F
100
AcDbEntity
  8
ASSI
100
AcDbLine
 62
7
  6
CONTINUOUS
 10
1.0499619238
 20
24.0
 11
4.2000380762
 21
24.0
  0
LINE
  5
510
100
AcDbEntity
  8
ASSI
100
AcDbLine
 62
253
  6
CONTINUOUS
 10
10.5859750215
 20
24.2368706193
 11
7.2140249785
 21
24.2368706193
  0
LINE
  5
511
100
AcDbEntity
  8
ASSI
100
AcDbLine
 62
253
  6
CONTINUOUS
 10
-7.2140249785
 20
24.2368706193
 11
-10.5859750215
 21
24.2368706193
  0
LINE
  5
512
100
AcDbEntity
  8
ASSI
100
AcDbLine
 62
253
  6
CONTINUOUS
 10
10.3868630041
 20
24.4868325431
 11
7.413136996
 21
24.4868325431
  0
LINE
  5
513
100
AcDbEntity
  8
ASSI
100
AcDbLine
 62
253
  6
CONTINUOUS
 10
-7.4131369959
 20
24.4868325431
 11
-10.386863004
 21
24.4868325431
  0
LINE
  5
514
100
AcDbEntity
  8
ASSI
100
AcDbLine
 62
7
  6
CONTINUOUS
 10
-10.400030461
 20
24.5
 11
-7.399969539
 21
24.5
  0
LINE
  5
515
100
AcDbEntity
  8
ASSI
100
AcDbLine
 62
7
  6
CONTINUOUS
 10
7.399969539
 20
24.5
 11
10.400030461
 21
24.5
  0
ARC
  5
516
100
AcDbEntity
  8
RACCORDO
100
AcDbCircle
 62
253
  6
CONTINUOUS
 10
-51.3649838894
 20
-14.1634949236
 40
51.1590354993
100
AcDbArc
 50
4.2767788029
 51
4.4654861239
  0
ARC
  5
517
100
AcDbEntity
  8
ASSI
100
AcDbCircle
 62
253
  6
CONTINUOUS
 10
-27.4625294389
 20
-23.806378427
 40
34.8765446107
100
AcDbArc
 50
359.9376434835
 51
0.2933216697
  0
ARC
  5
518
100
AcDbEntity
  8
RACCORDO
100
AcDbCircle
 62
253
  6
CONTINUOUS
 10
-51.3650072853
 20
-2.1365032948
 40
51.1590589629
100
AcDbArc
 50
355.534513927
 51
355.7232211615
  0
ARC
  5
519
100
AcDbEntity
  8
RACCORDO
100
AcDbCircle
 62
253
  6
CONTINUOUS
 10
-9.9670809851
 20
-14.9510196937
 40
1.4997882917
100
AcDbArc
 50
227.7520005715
 51
270.0020837791
  0
ARC
  5
51A
100
AcDbEntity
  8
RACCORDO
100
AcDbCircle
 62
253
  6
CONTINUOUS
 10
-9.7829257239
 20
-14.7669371524
 40
1.0002157485
100
AcDbArc
 50
180.0209419829
 51
269.9790580171
  0
ARC
  5
51B
100
AcDbEntity
  8
RACCORDO
100
AcDbCircle
 62
253
  6
CONTINUOUS
 10
-9.9672998631
 20
-14.9513112915
 40
0.9995696661
100
AcDbArc
 50
179.9843273121
 51
270.0156726879
  0
ARC
  5
51C
100
AcDbEntity
  8
ASSI
100
AcDbCircle
 62
7
  6
CONTINUOUS
 10
-4.0
 20
-23.2
 40
0.5
100
AcDbArc
 50
154.1580672368
 51
205.8419327632
  0
ARC
  5
51D
100
AcDbEntity
  8
ASSI
100
AcDbCircle
 62
7
  6
CONTINUOUS
 10
-10.6001595987
 20
-21.9001682181
 40
0.4998372686
100
AcDbArc
 50
179.9806905213
 51
270.0182948314
  0
ARC
  5
51E
100
AcDbEntity
  8
ASSI
100
AcDbCircle
 62
7
  6
CONTINUOUS
 10
-4.0
 20
-23.2
 40
0.4904006794
100
AcDbArc
 50
136.2076703059
 51
223.7923296941
  0
ARC
  5
51F
100
AcDbEntity
  8
RACCORDO
100
AcDbCircle
 62
253
  6
CONTINUOUS
 10
-6.638228028
 20
-19.8366406062
 40
0.4030504478
100
AcDbArc
 50
0.0658139295
 51
19.8199391828
  0
ARC
  5
520
100
AcDbEntity
  8
RACCORDO
100
AcDbCircle
 62
253
  6
CONTINUOUS
 10
-5.2537944959
 20
-20.1359023832
 40
0.4000690907
100
AcDbArc
 50
143.8356622658
 51
180.0611478876
  0
ARC
  5
521
100
AcDbEntity
  8
RACCORDO
100
AcDbCircle
 62
253
  6
CONTINUOUS
 10
-6.3855952329
 20
-20.8711227675
 40
0.3999356885
100
AcDbArc
 50
179.9953199204
 51
239.715115974
  0
ARC
  5
522
100
AcDbEntity
  8
RACCORDO
100
AcDbCircle
 62
253
  6
CONTINUOUS
 10
-5.3287790379
 20
-20.871181588
 40
0.399869141
100
AcDbArc
 50
300.2816297829
 51
0.0043794313
  0
ARC
  5
523
100
AcDbEntity
  8
ASSI
100
AcDbCircle
 62
253
  6
CONTINUOUS
 10
-4.1016995582
 20
-23.6516995582
 40
0.2500538637
100
AcDbArc
 50
180.0209582291
 51
269.9790417709
  0
ARC
  5
524
100
AcDbEntity
  8
ASSI
100
AcDbCircle
 62
253
  6
CONTINUOUS
 10
-3.3204109965
 20
-21.9663826013
 40
0.2500345843
100
AcDbArc
 50
270.0028328085
 51
336.7388410064
  0
ARC
  5
525
100
AcDbEntity
  8
ASSI
100
AcDbCircle
 62
7
  6
CONTINUOUS
 10
-3.8456902229
 20
-23.651811721
 40
0.2499797358
100
AcDbArc
 50
269.9949507413
 51
358.4954985883
  0
ARC
  5
526
100
AcDbEntity
  8
ASSI
100
AcDbCircle
 62
7
  6
CONTINUOUS
 10
-1.0499674725
 20
-23.7500325275
 40
0.2499699324
100
AcDbArc
 50
270.0012718308
 51
359.9987281692
  0
ARC
  5
527
100
AcDbEntity
  8
ASSI
100
AcDbCircle
 62
7
  6
CONTINUOUS
 10
-4.2000395761
 20
-23.7500395761
 40
0.2499612619
100
AcDbArc
 50
179.9996562037
 51
270.0003437963
  0
ARC
  5
528
100
AcDbEntity
  8
RACCORDO
100
AcDbCircle
 62
253
  6
CONTINUOUS
 10
-7.1722304546
 20
-19.8272193095
 40
0.2003487489
100
AcDbArc
 50
140.5660860308
 51
179.9919485647
  0
ARC
  5
529
100
AcDbEntity
  8
RACCORDO
100
AcDbCircle
 62
253
  6
CONTINUOUS
 10
-5.6461155042
 20
-20.5538844958
 40
0.2000430909
100
AcDbArc
 50
270.020944126
 51
359.979055874
  0
ARC
  5
52A
100
AcDbEntity
  8
ASSI
100
AcDbCircle
 62
253
  6
CONTINUOUS
 10
-7.4132101695
 20
-24.2867898305
 40
0.2000430909
100
AcDbArc
 50
270.0209581897
 51
359.9790418103
  0
ARC
  5
52B
100
AcDbEntity
  8
ASSI
100
AcDbCircle
 62
253
  6
CONTINUOUS
 10
-10.3867898305
 20
-24.2867898305
 40
0.2000430909
100
AcDbArc
 50
180.02095819
 51
269.97904181
  0
ARC
  5
52C
100
AcDbEntity
  8
RACCORDO
100
AcDbCircle
 62
253
  6
CONTINUOUS
 10
-4.9288610996
 20
-20.2855552817
 40
0.2000177349
100
AcDbArc
 50
90.0139785692
 51
179.9930215477
  0
ARC
  5
52D
100
AcDbEntity
  8
RACCORDO
100
AcDbCircle
 62
253
  6
CONTINUOUS
 10
-6.2271648776
 20
-20.5543033584
 40
0.2000177349
100
AcDbArc
 50
180.0139783049
 51
269.9930212847
  0
ARC
  5
52E
100
AcDbEntity
  8
RACCORDO
100
AcDbCircle
 62
253
  6
CONTINUOUS
 10
-9.2354658353
 20
-20.6285252131
 40
0.2000170866
100
AcDbArc
 50
180.0063892307
 51
269.9749441385
  0
ARC
  5
52F
100
AcDbEntity
  8
RACCORDO
100
AcDbCircle
 62
253
  6
CONTINUOUS
 10
-6.7855493051
 20
-19.9855493051
 40
0.2000107706
100
AcDbArc
 50
0.0052666627
 51
89.9947333373
  0
ARC
  5
530
100
AcDbEntity
  8
RACCORDO
100
AcDbCircle
 62
253
  6
CONTINUOUS
 10
-7.0144506949
 20
-19.9855493051
 40
0.2000107706
100
AcDbArc
 50
90.0052666627
 51
179.9947333373
  0
ARC
  5
531
100
AcDbEntity
  8
RACCORDO
100
AcDbCircle
 62
253
  6
CONTINUOUS
 10
-6.3855421431
 20
-20.8711496216
 40
0.1999963934
100
AcDbArc
 50
179.9961537649
 51
239.7236780185
  0
ARC
  5
532
100
AcDbEntity
  8
ASSI
100
AcDbCircle
 62
7
  6
CONTINUOUS
 10
-7.3999572982
 20
-24.3000427018
 40
0.1999569277
100
AcDbArc
 50
269.9964925066
 51
0.0035074934
  0
ARC
  5
533
100
AcDbEntity
  8
ASSI
100
AcDbCircle
 62
7
  6
CONTINUOUS
 10
-10.4000426585
 20
-24.3000426585
 40
0.1999569277
100
AcDbArc
 50
179.9965049109
 51
270.0034950891
  0
ARC
  5
534
100
AcDbEntity
  8
RACCORDO
100
AcDbCircle
 62
253
  6
CONTINUOUS
 10
-5.3287550703
 20
-20.8712451522
 40
0.1998756554
100
AcDbArc
 50
300.2626241469
 51
0.0269825596
  0
ARC
  5
535
100
AcDbEntity
  8
RACCORDO
100
AcDbCircle
 62
253
  6
CONTINUOUS
 10
-6.6267135066
 20
-19.8266510374
 40
0.1998335104
100
AcDbArc
 50
359.9331116565
 51
39.3489882168
  0
ARC
  5
536
100
AcDbEntity
  8
RACCORDO
100
AcDbCircle
 62
253
  6
CONTINUOUS
 10
-5.2467641231
 20
-20.1261570921
 40
0.1996575045
100
AcDbArc
 50
90.064351601
 51
180.1774378607
  0
ARC
  5
537
100
AcDbEntity
  8
RACCORDO
100
AcDbCircle
 62
253
  6
CONTINUOUS
 10
-2.5
 20
-8.15
 40
3.3748992496
100
AcDbArc
 50
45.6155593075
 51
314.3844406927
  0
ARC
  5
538
100
AcDbEntity
  8
RACCORDO
100
AcDbCircle
 62
253
  6
CONTINUOUS
 10
-2.5
 20
-8.15
 40
3.076040942
100
AcDbArc
 50
45.6155593034
 51
314.384440697
  0
ARC
  5
539
100
AcDbEntity
  8
RACCORDO
100
AcDbCircle
 62
253
  6
CONTINUOUS
 10
-2.5
 20
-8.15
 40
2.9489817301
100
AcDbArc
 50
43.5102096089
 51
316.4897903912
  0
ARC
  5
53A
100
AcDbEntity
  8
RACCORDO
100
AcDbCircle
 62
253
  6
CONTINUOUS
 10
-2.5
 20
-8.15
 40
2.6501233091
100
AcDbArc
 50
43.5102096202
 51
316.4897903789
  0
CIRCLE
  5
53B
100
AcDbEntity
  8
RACCORDO
100
AcDbCircle
 62
253
  6
CONTINUOUS
 10
-2.5
 20
-8.15
 40
2.4451635398
  0
CIRCLE
  5
53C
100
AcDbEntity
  8
RACCORDO
100
AcDbCircle
 62
253
  6
CONTINUOUS
 10
-2.5
 20
-8.15
 40
2.147399697
  0
CIRCLE
  5
53D
100
AcDbEntity
  8
DRAFT
100
AcDbCircle
 62
7
  6
CONTINUOUS
 10
-2.5
 20
-8.15
 40
1.75
  0
ARC
  5
53E
100
AcDbEntity
  8
0
100
AcDbCircle
 62
7
  6
CONTINUOUS
 10
-3.3105321998
 20
-11.04
 40
1.5
100
AcDbArc
 50
75.0
 51
90.0
  0
ARC
  5
53F
100
AcDbEntity
  8
RACCORDO
100
AcDbCircle
 62
253
  6
CONTINUOUS
 10
-0.0000000649
 20
-5.5923136531
 40
0.5005260243
100
AcDbArc
 50
225.8864553717
 51
314.1135552108
  0
ARC
  5
540
100
AcDbEntity
  8
RACCORDO
100
AcDbCircle
 62
253
  6
CONTINUOUS
 10
-3.6763984558
 20
-0.6763984558
 40
0.3000161559
100
AcDbArc
 50
180.0052666628
 51
269.9947333372
  0
ARC
  5
541
100
AcDbEntity
  8
RACCORDO
100
AcDbCircle
 62
253
  6
CONTINUOUS
 10
-51.3649838886
 20
2.1365050764
 40
51.1590354986
100
AcDbArc
 50
4.2767788029
 51
4.4654861239
  0
ARC
  5
542
100
AcDbEntity
  8
RACCORDO
100
AcDbCircle
 62
253
  6
CONTINUOUS
 10
-51.3650072864
 20
14.1634967053
 40
51.159058964
100
AcDbArc
 50
355.534513927
 51
355.7232211615
  0
ARC
  5
543
100
AcDbEntity
  8
ASSI
100
AcDbCircle
 62
253
  6
CONTINUOUS
 10
-45.2599106771
 20
23.806377655
 40
34.873925888
100
AcDbArc
 50
359.7067270348
 51
0.0623987992
  0
ARC
  5
544
100
AcDbEntity
  8
RACCORDO
100
AcDbCircle
 62
253
  6
CONTINUOUS
 10
-2.5
 20
8.15
 40
3.3748992496
100
AcDbArc
 50
45.6155593075
 51
314.3844406927
  0
ARC
  5
545
100
AcDbEntity
  8
RACCORDO
100
AcDbCircle
 62
253
  6
CONTINUOUS
 10
-2.5
 20
8.15
 40
3.076040942
100
AcDbArc
 50
45.6155593034
 51
314.384440697
  0
ARC
  5
546
100
AcDbEntity
  8
RACCORDO
100
AcDbCircle
 62
253
  6
CONTINUOUS
 10
-2.5
 20
8.15
 40
2.9489817301
100
AcDbArc
 50
43.5102096089
 51
316.4897903912
  0
ARC
  5
547
100
AcDbEntity
  8
RACCORDO
100
AcDbCircle
 62
253
  6
CONTINUOUS
 10
-2.5
 20
8.15
 40
2.6501233091
100
AcDbArc
 50
43.5102096202
 51
316.4897903789
  0
CIRCLE
  5
548
100
AcDbEntity
  8
RACCORDO
100
AcDbCircle
 62
253
  6
CONTINUOUS
 10
-2.5
 20
8.15
 40
2.4451635398
  0
CIRCLE
  5
549
100
AcDbEntity
  8
RACCORDO
100
AcDbCircle
 62
253
  6
CONTINUOUS
 10
-2.5
 20
8.15
 40
2.147399697
  0
CIRCLE
  5
54A
100
AcDbEntity
  8
DRAFT
100
AcDbCircle
 62
7
  6
CONTINUOUS
 10
-2.5
 20
8.15
 40
1.75
  0
ARC
  5
54B
100
AcDbEntity
  8
0
100
AcDbCircle
 62
7
  6
CONTINUOUS
 10
-3.3105321998
 20
11.04
 40
1.5
100
AcDbArc
 50
270.0
 51
285.0
  0
ARC
  5
54C
100
AcDbEntity
  8
RACCORDO
100
AcDbCircle
 62
253
  6
CONTINUOUS
 10
-0.0000000649
 20
10.7076863469
 40
0.5005260243
100
AcDbArc
 50
225.8864553717
 51
314.1135552108
  0
ARC
  5
54D
100
AcDbEntity
  8
RACCORDO
100
AcDbCircle
 62
253
  6
CONTINUOUS
 10
-3.6763984558
 20
0.6763984558
 40
0.3000161559
100
AcDbArc
 50
90.0052666628
 51
179.9947333372
  0
ARC
  5
54E
100
AcDbEntity
  8
RACCORDO
100
AcDbCircle
 62
253
  6
CONTINUOUS
 10
-9.9670809812
 20
14.9510196836
 40
1.4997882917
100
AcDbArc
 50
89.9979163693
 51
132.2479992803
  0
ARC
  5
54F
100
AcDbEntity
  8
RACCORDO
100
AcDbCircle
 62
253
  6
CONTINUOUS
 10
-9.7829256454
 20
14.7669370739
 40
1.0002157485
100
AcDbArc
 50
90.0209464775
 51
179.9790535225
  0
ARC
  5
550
100
AcDbEntity
  8
RACCORDO
100
AcDbCircle
 62
253
  6
CONTINUOUS
 10
-9.9672997593
 20
14.9513111878
 40
0.9995696661
100
AcDbArc
 50
89.9843332614
 51
180.0156667386
  0
ARC
  5
551
100
AcDbEntity
  8
ASSI
100
AcDbCircle
 62
7
  6
CONTINUOUS
 10
-4.0
 20
23.2
 40
0.5
100
AcDbArc
 50
154.1580672368
 51
205.8419327632
  0
ARC
  5
552
100
AcDbEntity
  8
ASSI
100
AcDbCircle
 62
7
  6
CONTINUOUS
 10
-10.6001587126
 20
21.9001678853
 40
0.4998378818
100
AcDbArc
 50
89.9818141664
 51
180.0105151551
  0
ARC
  5
553
100
AcDbEntity
  8
ASSI
100
AcDbCircle
 62
7
  6
CONTINUOUS
 10
-4.0
 20
23.2
 40
0.4904006794
100
AcDbArc
 50
136.2076703059
 51
223.7923296941
  0
ARC
  5
554
100
AcDbEntity
  8
RACCORDO
100
AcDbCircle
 62
253
  6
CONTINUOUS
 10
-6.6382221741
 20
19.8366339809
 40
0.4030445863
100
AcDbArc
 50
340.1806695396
 51
359.9351269553
  0
ARC
  5
555
100
AcDbEntity
  8
RACCORDO
100
AcDbCircle
 62
253
  6
CONTINUOUS
 10
-5.32888932
 20
20.8711373939
 40
0.3999794222
100
AcDbArc
 50
0.0019524411
 51
59.7260295932
  0
ARC
  5
556
100
AcDbEntity
  8
RACCORDO
100
AcDbCircle
 62
253
  6
CONTINUOUS
 10
-6.3855814066
 20
20.8711179233
 40
0.3999495144
100
AcDbArc
 50
120.2832995449
 51
180.0039859514
  0
ARC
  5
557
100
AcDbEntity
  8
RACCORDO
100
AcDbCircle
 62
253
  6
CONTINUOUS
 10
-5.2539228798
 20
20.1358652584
 40
0.3999407482
100
AcDbArc
 50
179.9335139611
 51
216.1704914336
  0
ARC
  5
558
100
AcDbEntity
  8
ASSI
100
AcDbCircle
 62
253
  6
CONTINUOUS
 10
-4.1016995614
 20
23.6516995615
 40
0.2500538605
100
AcDbArc
 50
90.0209574946
 51
179.979042538
  0
ARC
  5
559
100
AcDbEntity
  8
ASSI
100
AcDbCircle
 62
253
  6
CONTINUOUS
 10
-3.3203771606
 20
21.9664357536
 40
0.2499801518
100
AcDbArc
 50
1.0045565035
 51
90.0049217718
  0
ARC
  5
55A
100
AcDbEntity
  8
ASSI
100
AcDbCircle
 62
7
  6
CONTINUOUS
 10
-3.8456902238
 20
23.6518117173
 40
0.2499797382
100
AcDbArc
 50
1.5045022556
 51
90.0050490523
  0
ARC
  5
55B
100
AcDbEntity
  8
ASSI
100
AcDbCircle
 62
7
  6
CONTINUOUS
 10
-1.0499674725
 20
23.7500325275
 40
0.2499699324
100
AcDbArc
 50
0.0012718308
 51
89.9987281692
  0
ARC
  5
55C
100
AcDbEntity
  8
ASSI
100
AcDbCircle
 62
7
  6
CONTINUOUS
 10
-4.2000395761
 20
23.7500395761
 40
0.2499612619
100
AcDbArc
 50
89.9996562052
 51
180.0003437948
  0
ARC
  5
55D
100
AcDbEntity
  8
RACCORDO
100
AcDbCircle
 62
253
  6
CONTINUOUS
 10
-7.1722480523
 20
19.8272133533
 40
0.2003311619
100
AcDbArc
 50
179.9458078663
 51
219.4351106989
  0
ARC
  5
55E
100
AcDbEntity
  8
RACCORDO
100
AcDbCircle
 62
253
  6
CONTINUOUS
 10
-5.6461155042
 20
20.5538844958
 40
0.2000430909
100
AcDbArc
 50
0.020944126
 51
89.979055874
  0
ARC
  5
55F
100
AcDbEntity
  8
ASSI
100
AcDbCircle
 62
253
  6
CONTINUOUS
 10
-7.4132101203
 20
24.2867898797
 40
0.2000430909
100
AcDbArc
 50
0.020944126
 51
89.979055874
  0
ARC
  5
560
100
AcDbEntity
  8
ASSI
100
AcDbCircle
 62
253
  6
CONTINUOUS
 10
-10.3867898305
 20
24.2867898305
 40
0.2000430909
100
AcDbArc
 50
90.0209581928
 51
179.9790418072
  0
ARC
  5
561
100
AcDbEntity
  8
RACCORDO
100
AcDbCircle
 62
253
  6
CONTINUOUS
 10
-4.9288611006
 20
20.2855552827
 40
0.2000177349
100
AcDbArc
 50
180.0069787563
 51
269.9860217258
  0
ARC
  5
562
100
AcDbEntity
  8
RACCORDO
100
AcDbCircle
 62
253
  6
CONTINUOUS
 10
-6.2271648723
 20
20.5543033532
 40
0.2000177349
100
AcDbArc
 50
90.0069802122
 51
179.9860202076
  0
ARC
  5
563
100
AcDbEntity
  8
RACCORDO
100
AcDbCircle
 62
253
  6
CONTINUOUS
 10
-9.2354658345
 20
20.6285252139
 40
0.2000170866
100
AcDbArc
 50
90.0250560847
 51
179.9936109973
  0
ARC
  5
564
100
AcDbEntity
  8
RACCORDO
100
AcDbCircle
 62
253
  6
CONTINUOUS
 10
-6.7855493051
 20
19.9855493051
 40
0.2000107706
100
AcDbArc
 50
270.0052666627
 51
359.9947333373
  0
ARC
  5
565
100
AcDbEntity
  8
RACCORDO
100
AcDbCircle
 62
253
  6
CONTINUOUS
 10
-7.0144506949
 20
19.9855493051
 40
0.2000107706
100
AcDbArc
 50
180.0052666627
 51
269.9947333373
  0
ARC
  5
566
100
AcDbEntity
  8
RACCORDO
100
AcDbCircle
 62
253
  6
CONTINUOUS
 10
-6.3855421185
 20
20.8711495985
 40
0.1999964257
100
AcDbArc
 50
120.2763247179
 51
180.0170455001
  0
ARC
  5
567
100
AcDbEntity
  8
ASSI
100
AcDbCircle
 62
7
  6
CONTINUOUS
 10
-7.3999572982
 20
24.3000427018
 40
0.1999569277
100
AcDbArc
 50
359.9964925066
 51
90.0035074934
  0
ARC
  5
568
100
AcDbEntity
  8
ASSI
100
AcDbCircle
 62
7
  6
CONTINUOUS
 10
-10.4000426585
 20
24.3000426585
 40
0.1999569277
100
AcDbArc
 50
89.9965049109
 51
180.0034950891
  0
ARC
  5
569
100
AcDbEntity
  8
RACCORDO
100
AcDbCircle
 62
253
  6
CONTINUOUS
 10
-5.3287551579
 20
20.8712451055
 40
0.1998757398
100
AcDbArc
 50
359.9766030048
 51
59.7373609059
  0
ARC
  5
56A
100
AcDbEntity
  8
RACCORDO
100
AcDbCircle
 62
253
  6
CONTINUOUS
 10
-6.6267120609
 20
19.8266505837
 40
0.1998320661
100
AcDbArc
 50
320.6504383073
 51
0.0676946226
  0
ARC
  5
56B
100
AcDbEntity
  8
RACCORDO
100
AcDbCircle
 62
253
  6
CONTINUOUS
 10
-5.2467640695
 20
20.1261573155
 40
0.1996576118
100
AcDbArc
 50
179.8253599902
 51
269.9356330803
  0
ARC
  5
56C
100
AcDbEntity
  8
RACCORDO
100
AcDbCircle
 62
253
  6
CONTINUOUS
 10
9.9670809901
 20
-14.9510196917
 40
1.4997882917
100
AcDbArc
 50
269.9979160282
 51
312.2479992359
  0
ARC
  5
56D
100
AcDbEntity
  8
RACCORDO
100
AcDbCircle
 62
253
  6
CONTINUOUS
 10
9.7829256454
 20
-14.7669370739
 40
1.0002157485
100
AcDbArc
 50
270.0209464775
 51
359.9790535225
  0
ARC
  5
56E
100
AcDbEntity
  8
RACCORDO
100
AcDbCircle
 62
253
  6
CONTINUOUS
 10
9.9672998631
 20
-14.9513112915
 40
0.9995696661
100
AcDbArc
 50
269.9843273121
 51
0.0156726879
  0
ARC
  5
56F
100
AcDbEntity
  8
ASSI
100
AcDbCircle
 62
7
  6
CONTINUOUS
 10
4.0
 20
-23.2
 40
0.5
100
AcDbArc
 50
334.1580672368
 51
25.8419327632
  0
ARC
  5
570
100
AcDbEntity
  8
ASSI
100
AcDbCircle
 62
7
  6
CONTINUOUS
 10
10.600158699
 20
-21.9001678666
 40
0.4998379148
100
AcDbArc
 50
269.9818157278
 51
0.0105130105
  0
ARC
  5
571
100
AcDbEntity
  8
ASSI
100
AcDbCircle
 62
7
  6
CONTINUOUS
 10
4.0
 20
-23.2
 40
0.4904006794
100
AcDbArc
 50
316.2076703059
 51
43.7923296941
  0
ARC
  5
572
100
AcDbEntity
  8
RACCORDO
100
AcDbCircle
 62
253
  6
CONTINUOUS
 10
6.6382221741
 20
-19.8366339809
 40
0.4030445863
100
AcDbArc
 50
160.1806695396
 51
179.9351269553
  0
ARC
  5
573
100
AcDbEntity
  8
RACCORDO
100
AcDbCircle
 62
253
  6
CONTINUOUS
 10
5.32888932
 20
-20.8711373939
 40
0.3999794222
100
AcDbArc
 50
180.0019524411
 51
239.7260295932
  0
ARC
  5
574
100
AcDbEntity
  8
RACCORDO
100
AcDbCircle
 62
253
  6
CONTINUOUS
 10
6.3855814066
 20
-20.8711179233
 40
0.3999495144
100
AcDbArc
 50
300.2832995449
 51
0.0039859514
  0
ARC
  5
575
100
AcDbEntity
  8
RACCORDO
100
AcDbCircle
 62
253
  6
CONTINUOUS
 10
5.2539228798
 20
-20.1358652583
 40
0.3999407482
100
AcDbArc
 50
359.9335139611
 51
36.1704914337
  0
ARC
  5
576
100
AcDbEntity
  8
ASSI
100
AcDbCircle
 62
253
  6
CONTINUOUS
 10
4.1016996196
 20
-23.6516996195
 40
0.2500538638
100
AcDbArc
 50
270.020944173
 51
359.979055827
  0
ARC
  5
577
100
AcDbEntity
  8
ASSI
100
AcDbCircle
 62
253
  6
CONTINUOUS
 10
3.3203771606
 20
-21.9664357536
 40
0.2499801518
100
AcDbArc
 50
181.0045565035
 51
270.0049217718
  0
ARC
  5
578
100
AcDbEntity
  8
ASSI
100
AcDbCircle
 62
7
  6
CONTINUOUS
 10
3.8456902231
 20
-23.6518117206
 40
0.2499797361
100
AcDbArc
 50
181.5045015007
 51
270.0050492235
  0
ARC
  5
579
100
AcDbEntity
  8
ASSI
100
AcDbCircle
 62
7
  6
CONTINUOUS
 10
4.2000325275
 20
-23.7500325275
 40
0.2499699324
100
AcDbArc
 50
270.0012718308
 51
359.9987281692
  0
ARC
  5
57A
100
AcDbEntity
  8
ASSI
100
AcDbCircle
 62
7
  6
CONTINUOUS
 10
1.0499604239
 20
-23.7500395761
 40
0.2499612619
100
AcDbArc
 50
179.9996562056
 51
270.0003437944
  0
ARC
  5
57B
100
AcDbEntity
  8
RACCORDO
100
AcDbCircle
 62
253
  6
CONTINUOUS
 10
7.1722480523
 20
-19.8272133533
 40
0.2003311619
100
AcDbArc
 50
359.9458078664
 51
39.4351106989
  0
ARC
  5
57C
100
AcDbEntity
  8
RACCORDO
100
AcDbCircle
 62
253
  6
CONTINUOUS
 10
5.6461155533
 20
-20.5538844467
 40
0.2000430909
100
AcDbArc
 50
180.0209581942
 51
269.9790418058
  0
ARC
  5
57D
100
AcDbEntity
  8
ASSI
100
AcDbCircle
 62
253
  6
CONTINUOUS
 10
10.3867898305
 20
-24.2867898305
 40
0.2000430909
100
AcDbArc
 50
270.020958193
 51
359.979041807
  0
ARC
  5
57E
100
AcDbEntity
  8
ASSI
100
AcDbCircle
 62
253
  6
CONTINUOUS
 10
7.4132101695
 20
-24.2867898305
 40
0.2000430909
100
AcDbArc
 50
180.020958193
 51
269.979041807
  0
ARC
  5
57F
100
AcDbEntity
  8
RACCORDO
100
AcDbCircle
 62
253
  6
CONTINUOUS
 10
4.9288610945
 20
-20.285555287
 40
0.2000177349
100
AcDbArc
 50
0.0069799735
 51
89.9860199648
  0
ARC
  5
580
100
AcDbEntity
  8
RACCORDO
100
AcDbCircle
 62
253
  6
CONTINUOUS
 10
6.2271648785
 20
-20.5543033575
 40
0.2000177349
100
AcDbArc
 50
270.0069784493
 51
359.9860214273
  0
ARC
  5
581
100
AcDbEntity
  8
RACCORDO
100
AcDbCircle
 62
253
  6
CONTINUOUS
 10
9.2354658354
 20
-20.628525213
 40
0.2000170866
100
AcDbArc
 50
270.0250558284
 51
359.9936107466
  0
ARC
  5
582
100
AcDbEntity
  8
RACCORDO
100
AcDbCircle
 62
253
  6
CONTINUOUS
 10
7.0144506949
 20
-19.9855493051
 40
0.2000107706
100
AcDbArc
 50
0.0052666627
 51
89.9947333373
  0
ARC
  5
583
100
AcDbEntity
  8
RACCORDO
100
AcDbCircle
 62
253
  6
CONTINUOUS
 10
6.7855493051
 20
-19.9855493051
 40
0.2000107706
100
AcDbArc
 50
90.0052666627
 51
179.9947333373
  0
ARC
  5
584
100
AcDbEntity
  8
RACCORDO
100
AcDbCircle
 62
253
  6
CONTINUOUS
 10
6.3855421185
 20
-20.8711495985
 40
0.1999964257
100
AcDbArc
 50
300.2763247179
 51
0.0170455001
  0
ARC
  5
585
100
AcDbEntity
  8
ASSI
100
AcDbCircle
 62
7
  6
CONTINUOUS
 10
10.4000426585
 20
-24.3000426585
 40
0.1999569277
100
AcDbArc
 50
269.9965049109
 51
0.0034950891
  0
ARC
  5
586
100
AcDbEntity
  8
ASSI
100
AcDbCircle
 62
7
  6
CONTINUOUS
 10
7.3999573415
 20
-24.3000426585
 40
0.1999569277
100
AcDbArc
 50
179.9965049109
 51
270.0034950891
  0
ARC
  5
587
100
AcDbEntity
  8
RACCORDO
100
AcDbCircle
 62
253
  6
CONTINUOUS
 10
5.3287551579
 20
-20.8712451055
 40
0.1998757398
100
AcDbArc
 50
179.9766030048
 51
239.7373609059
  0
ARC
  5
588
100
AcDbEntity
  8
RACCORDO
100
AcDbCircle
 62
253
  6
CONTINUOUS
 10
6.6267120609
 20
-19.8266505837
 40
0.1998320661
100
AcDbArc
 50
140.6504383073
 51
180.0676946226
  0
ARC
  5
589
100
AcDbEntity
  8
RACCORDO
100
AcDbCircle
 62
253
  6
CONTINUOUS
 10
5.2467641269
 20
-20.1261572582
 40
0.1996575143
100
AcDbArc
 50
359.8253434915
 51
89.9356495223
  0
ARC
  5
58A
100
AcDbEntity
  8
RACCORDO
100
AcDbCircle
 62
253
  6
CONTINUOUS
 10
2.5
 20
-8.15
 40
3.3748992496
100
AcDbArc
 50
225.6155593075
 51
134.3844406927
  0
ARC
  5
58B
100
AcDbEntity
  8
RACCORDO
100
AcDbCircle
 62
253
  6
CONTINUOUS
 10
2.5
 20
-8.15
 40
3.076040942
100
AcDbArc
 50
225.6155593034
 51
134.384440697
  0
ARC
  5
58C
100
AcDbEntity
  8
RACCORDO
100
AcDbCircle
 62
253
  6
CONTINUOUS
 10
2.5
 20
-8.15
 40
2.9489817301
100
AcDbArc
 50
223.5102096089
 51
136.4897903912
  0
ARC
  5
58D
100
AcDbEntity
  8
RACCORDO
100
AcDbCircle
 62
253
  6
CONTINUOUS
 10
2.5
 20
-8.15
 40
2.6501233091
100
AcDbArc
 50
223.5102096202
 51
136.4897903789
  0
CIRCLE
  5
58E
100
AcDbEntity
  8
RACCORDO
100
AcDbCircle
 62
253
  6
CONTINUOUS
 10
2.5
 20
-8.15
 40
2.4451635398
  0
CIRCLE
  5
58F
100
AcDbEntity
  8
RACCORDO
100
AcDbCircle
 62
253
  6
CONTINUOUS
 10
2.5
 20
-8.15
 40
2.147399697
  0
CIRCLE
  5
590
100
AcDbEntity
  8
DRAFT
100
AcDbCircle
 62
7
  6
CONTINUOUS
 10
2.5
 20
-8.15
 40
1.75
  0
ARC
  5
591
100
AcDbEntity
  8
0
100
AcDbCircle
 62
7
  6
CONTINUOUS
 10
3.3105321998
 20
-11.04
 40
1.5
100
AcDbArc
 50
90.0
 51
105.0
  0
ARC
  5
592
100
AcDbEntity
  8
RACCORDO
100
AcDbCircle
 62
253
  6
CONTINUOUS
 10
0.0000000649
 20
-10.7076863771
 40
0.5005260243
100
AcDbArc
 50
45.8864577792
 51
134.1135528033
  0
ARC
  5
593
100
AcDbEntity
  8
RACCORDO
100
AcDbCircle
 62
253
  6
CONTINUOUS
 10
3.6763984558
 20
-0.6763984558
 40
0.3000161559
100
AcDbArc
 50
270.0052666628
 51
359.9947333372
  0
ARC
  5
594
100
AcDbEntity
  8
RACCORDO
100
AcDbCircle
 62
253
  6
CONTINUOUS
 10
51.3650072855
 20
-14.1634967052
 40
51.1590589631
100
AcDbArc
 50
175.534513927
 51
175.7232211615
  0
ARC
  5
595
100
AcDbEntity
  8
ASSI
100
AcDbCircle
 62
253
  6
CONTINUOUS
 10
45.6667535895
 20
-23.8071705124
 40
35.2807675404
100
AcDbArc
 50
179.708736756
 51
180.0602180988
  0
ARC
  5
596
100
AcDbEntity
  8
RACCORDO
100
AcDbCircle
 62
253
  6
CONTINUOUS
 10
51.3649838889
 20
-2.1365050764
 40
51.1590354988
100
AcDbArc
 50
184.2767788029
 51
184.4654861239
  0
ARC
  5
597
100
AcDbEntity
  8
RACCORDO
100
AcDbCircle
 62
253
  6
CONTINUOUS
 10
2.5
 20
8.15
 40
3.3748992496
100
AcDbArc
 50
225.6155593075
 51
134.3844406927
  0
ARC
  5
598
100
AcDbEntity
  8
RACCORDO
100
AcDbCircle
 62
253
  6
CONTINUOUS
 10
2.5
 20
8.15
 40
3.076040942
100
AcDbArc
 50
225.6155593034
 51
134.384440697
  0
ARC
  5
599
100
AcDbEntity
  8
RACCORDO
100
AcDbCircle
 62
253
  6
CONTINUOUS
 10
2.5
 20
8.15
 40
2.9489817301
100
AcDbArc
 50
223.5102096089
 51
136.4897903912
  0
ARC
  5
59A
100
AcDbEntity
  8
RACCORDO
100
AcDbCircle
 62
253
  6
CONTINUOUS
 10
2.5
 20
8.15
 40
2.6501233091
100
AcDbArc
 50
223.5102096202
 51
136.4897903789
  0
CIRCLE
  5
59B
100
AcDbEntity
  8
RACCORDO
100
AcDbCircle
 62
253
  6
CONTINUOUS
 10
2.5
 20
8.15
 40
2.4451635398
  0
CIRCLE
  5
59C
100
AcDbEntity
  8
RACCORDO
100
AcDbCircle
 62
253
  6
CONTINUOUS
 10
2.5
 20
8.15
 40
2.147399697
  0
CIRCLE
  5
59D
100
AcDbEntity
  8
DRAFT
100
AcDbCircle
 62
7
  6
CONTINUOUS
 10
2.5
 20
8.15
 40
1.75
  0
ARC
  5
59E
100
AcDbEntity
  8
0
100
AcDbCircle
 62
7
  6
CONTINUOUS
 10
3.3105321998
 20
11.04
 40
1.5
100
AcDbArc
 50
255.0
 51
270.0
  0
ARC
  5
59F
100
AcDbEntity
  8
RACCORDO
100
AcDbCircle
 62
253
  6
CONTINUOUS
 10
0.0000000649
 20
5.5923136229
 40
0.5005260243
100
AcDbArc
 50
45.8864577792
 51
134.1135528033
  0
ARC
  5
5A0
100
AcDbEntity
  8
RACCORDO
100
AcDbCircle
 62
253
  6
CONTINUOUS
 10
3.6763984558
 20
0.6763984558
 40
0.3000161559
100
AcDbArc
 50
0.0052666628
 51
89.9947333372
  0
ARC
  5
5A1
100
AcDbEntity
  8
RACCORDO
100
AcDbCircle
 62
253
  6
CONTINUOUS
 10
9.9670809863
 20
14.9510196817
 40
1.4997882917
100
AcDbArc
 50
47.7520009125
 51
90.0020838236
  0
ARC
  5
5A2
100
AcDbEntity
  8
RACCORDO
100
AcDbCircle
 62
253
  6
CONTINUOUS
 10
9.7829256455
 20
14.7669370739
 40
1.0002157485
100
AcDbArc
 50
0.0209464771
 51
89.9790535229
  0
ARC
  5
5A3
100
AcDbEntity
  8
RACCORDO
100
AcDbCircle
 62
253
  6
CONTINUOUS
 10
9.9672997593
 20
14.9513111878
 40
0.9995696661
100
AcDbArc
 50
359.9843332614
 51
90.0156667386
  0
ARC
  5
5A4
100
AcDbEntity
  8
ASSI
100
AcDbCircle
 62
7
  6
CONTINUOUS
 10
4.0
 20
23.2
 40
0.5
100
AcDbArc
 50
334.1580672368
 51
25.8419327632
  0
ARC
  5
5A5
100
AcDbEntity
  8
ASSI
100
AcDbCircle
 62
7
  6
CONTINUOUS
 10
10.6001595972
 20
21.9001682195
 40
0.4998372687
100
AcDbArc
 50
359.9806903571
 51
90.0182946538
  0
ARC
  5
5A6
100
AcDbEntity
  8
ASSI
100
AcDbCircle
 62
7
  6
CONTINUOUS
 10
4.0
 20
23.2
 40
0.4904006794
100
AcDbArc
 50
316.2076703059
 51
43.7923296941
  0
ARC
  5
5A7
100
AcDbEntity
  8
RACCORDO
100
AcDbCircle
 62
253
  6
CONTINUOUS
 10
6.638228028
 20
19.8366406062
 40
0.4030504478
100
AcDbArc
 50
180.0658139295
 51
199.8199391828
  0
ARC
  5
5A8
100
AcDbEntity
  8
RACCORDO
100
AcDbCircle
 62
253
  6
CONTINUOUS
 10
5.2537944959
 20
20.1359023832
 40
0.4000690907
100
AcDbArc
 50
323.8356622658
 51
0.0611478876
  0
ARC
  5
5A9
100
AcDbEntity
  8
RACCORDO
100
AcDbCircle
 62
253
  6
CONTINUOUS
 10
6.3855952329
 20
20.8711227675
 40
0.3999356885
100
AcDbArc
 50
359.9953199204
 51
59.715115974
  0
ARC
  5
5AA
100
AcDbEntity
  8
RACCORDO
100
AcDbCircle
 62
253
  6
CONTINUOUS
 10
5.3287790379
 20
20.871181588
 40
0.399869141
100
AcDbArc
 50
120.2816297829
 51
180.0043794313
  0
ARC
  5
5AB
100
AcDbEntity
  8
ASSI
100
AcDbCircle
 62
253
  6
CONTINUOUS
 10
4.101699624
 20
23.651699624
 40
0.2500538593
100
AcDbArc
 50
0.0209431467
 51
89.9790568533
  0
ARC
  5
5AC
100
AcDbEntity
  8
ASSI
100
AcDbCircle
 62
253
  6
CONTINUOUS
 10
3.3204109965
 20
21.9663826013
 40
0.2500345843
100
AcDbArc
 50
90.0028328085
 51
156.7388410064
  0
ARC
  5
5AD
100
AcDbEntity
  8
ASSI
100
AcDbCircle
 62
7
  6
CONTINUOUS
 10
3.8456902238
 20
23.6518117173
 40
0.2499797382
100
AcDbArc
 50
89.994950951
 51
178.4954977415
  0
ARC
  5
5AE
100
AcDbEntity
  8
ASSI
100
AcDbCircle
 62
7
  6
CONTINUOUS
 10
4.2000325275
 20
23.7500325275
 40
0.2499699324
100
AcDbArc
 50
0.0012718308
 51
89.9987281692
  0
ARC
  5
5AF
100
AcDbEntity
  8
ASSI
100
AcDbCircle
 62
7
  6
CONTINUOUS
 10
1.0499604239
 20
23.7500395761
 40
0.2499612619
100
AcDbArc
 50
89.9996562034
 51
180.0003437966
  0
ARC
  5
5B0
100
AcDbEntity
  8
RACCORDO
100
AcDbCircle
 62
253
  6
CONTINUOUS
 10
7.1722304546
 20
19.8272193095
 40
0.2003487489
100
AcDbArc
 50
320.5660860308
 51
359.9919485647
  0
ARC
  5
5B1
100
AcDbEntity
  8
RACCORDO
100
AcDbCircle
 62
253
  6
CONTINUOUS
 10
5.6461155533
 20
20.5538844467
 40
0.2000430909
100
AcDbArc
 50
90.0209581941
 51
179.9790418059
  0
ARC
  5
5B2
100
AcDbEntity
  8
ASSI
100
AcDbCircle
 62
253
  6
CONTINUOUS
 10
10.3867898797
 20
24.2867898797
 40
0.2000430909
100
AcDbArc
 50
0.0209441271
 51
89.979055873
  0
ARC
  5
5B3
100
AcDbEntity
  8
ASSI
100
AcDbCircle
 62
253
  6
CONTINUOUS
 10
7.4132101203
 20
24.2867898797
 40
0.2000430909
100
AcDbArc
 50
90.0209441219
 51
179.9790558781
  0
ARC
  5
5B4
100
AcDbEntity
  8
RACCORDO
100
AcDbCircle
 62
253
  6
CONTINUOUS
 10
4.9288610953
 20
20.2855552878
 40
0.2000177349
100
AcDbArc
 50
270.0139797892
 51
359.9930197846
  0
ARC
  5
5B5
100
AcDbEntity
  8
RACCORDO
100
AcDbCircle
 62
253
  6
CONTINUOUS
 10
6.2271648733
 20
20.5543033523
 40
0.2000177349
100
AcDbArc
 50
0.0139800689
 51
89.9930200644
  0
ARC
  5
5B6
100
AcDbEntity
  8
RACCORDO
100
AcDbCircle
 62
253
  6
CONTINUOUS
 10
9.2354658344
 20
20.628525214
 40
0.2000170866
100
AcDbArc
 50
0.0063889738
 51
89.9749438888
  0
ARC
  5
5B7
100
AcDbEntity
  8
RACCORDO
100
AcDbCircle
 62
253
  6
CONTINUOUS
 10
7.0144506949
 20
19.9855493051
 40
0.2000107706
100
AcDbArc
 50
270.0052666627
 51
359.9947333373
  0
ARC
  5
5B8
100
AcDbEntity
  8
RACCORDO
100
AcDbCircle
 62
253
  6
CONTINUOUS
 10
6.7855493051
 20
19.9855493051
 40
0.2000107706
100
AcDbArc
 50
180.0052666627
 51
269.9947333373
  0
ARC
  5
5B9
100
AcDbEntity
  8
RACCORDO
100
AcDbCircle
 62
253
  6
CONTINUOUS
 10
6.3855421431
 20
20.8711496216
 40
0.1999963934
100
AcDbArc
 50
359.9961537657
 51
59.7236780185
  0
ARC
  5
5BA
100
AcDbEntity
  8
ASSI
100
AcDbCircle
 62
7
  6
CONTINUOUS
 10
10.4000427018
 20
24.3000427018
 40
0.1999569277
100
AcDbArc
 50
359.9964925066
 51
90.0035074934
  0
ARC
  5
5BB
100
AcDbEntity
  8
ASSI
100
AcDbCircle
 62
7
  6
CONTINUOUS
 10
7.3999573415
 20
24.3000426585
 40
0.1999569277
100
AcDbArc
 50
89.9965049109
 51
180.0034950891
  0
ARC
  5
5BC
100
AcDbEntity
  8
RACCORDO
100
AcDbCircle
 62
253
  6
CONTINUOUS
 10
5.3287550703
 20
20.8712451522
 40
0.1998756554
100
AcDbArc
 50
120.2626241469
 51
180.0269825596
  0
ARC
  5
5BD
100
AcDbEntity
  8
RACCORDO
100
AcDbCircle
 62
253
  6
CONTINUOUS
 10
6.6267135066
 20
19.8266510374
 40
0.1998335104
100
AcDbArc
 50
179.9331116565
 51
219.3489882168
  0
ARC
  5
5BE
100
AcDbEntity
  8
RACCORDO
100
AcDbCircle
 62
253
  6
CONTINUOUS
 10
5.2467641239
 20
20.1261570929
 40
0.1996575045
100
AcDbArc
 50
270.0643513829
 51
0.1774376246
  0
ARC
  5
5BF
100
AcDbEntity
  8
RACCORDO
100
AcDbCircle
 62
253
  6
CONTINUOUS
 10
51.365007287
 20
2.1365032946
 40
51.1590589647
100
AcDbArc
 50
175.534513927
 51
175.7232211615
  0
ARC
  5
5C0
100
AcDbEntity
  8
RACCORDO
100
AcDbCircle
 62
253
  6
CONTINUOUS
 10
51.3649838876
 20
14.1634949235
 40
51.1590354975
100
AcDbArc
 50
184.2767788029
 51
184.4654861239
  0
ARC
  5
5C1
100
AcDbEntity
  8
ASSI
100
AcDbCircle
 62
253
  6
CONTINUOUS
 10
27.4472292693
 20
23.8063479586
 40
34.8612444862
100
AcDbArc
 50
179.9375626227
 51
180.2933989948
  0
SPLINE
  5
5C2
100
AcDbEntity
  8
0
100
AcDbSpline
 62
7
  6
CONTINUOUS
 70
0
 71
3
 72
10
 73
6
 74
4
 42
0.0000001
 43
0.0000001
 44
0.0000000001
 12
-2.442598528
 22
0.3187575455
 32
0.0
 13
-2.344590094
 23
0.7555072687
 33
0.0
 40
0.0
 40
0.0
 40
0.0
 40
0.0
 40
0.4998891578
 40
0.749942799
 40
1.0
 40
1.0
 40
1.0
 40
1.0
 10
-1.0571187256
 20
8.95
 30
0.0
 10
-1.4641282326
 20
9.0031144803
 30
0.0
 10
-2.0695279429
 20
9.1247776195
 30
0.0
 10
-2.8620144844
 20
9.3396065768
 30
0.0
 10
-3.2545727878
 20
9.4604814355
 30
0.0
 10
-3.45
 20
9.5234547798
 30
0.0
 11
-1.0571187256
 21
8.95
 31
0.0
 11
-2.266287385
 21
9.1828349941
 31
0.0
 11
-2.8610684746
 21
9.3429649062
 31
0.0
 11
-3.45
 21
9.5234547798
 31
0.0
  0
SPLINE
  5
5C3
100
AcDbEntity
  8
0
100
AcDbSpline
 62
7
  6
CONTINUOUS
 70
0
 71
3
 72
10
 73
6
 74
4
 42
0.0000001
 43
0.0000001
 44
0.0000000001
 12
-2.3445900938
 22
-0.7555072687
 32
0.0
 13
-2.4425985278
 23
-0.3187575455
 33
0.0
 40
0.0
 40
0.0
 40
0.0
 40
0.0
 40
0.2500572114
 40
0.5001108599
 40
1.0
 40
1.0
 40
1.0
 40
1.0
 10
3.45
 20
9.5234547798
 30
0.0
 10
3.2545727798
 20
9.4604814329
 30
0.0
 10
2.8620144614
 20
9.3396065731
 30
0.0
 10
2.0695279197
 20
9.1247776172
 30
0.0
 10
1.4641282182
 20
9.0031144784
 30
0.0
 10
1.0571187256
 20
8.95
 30
0.0
 11
3.45
 21
9.5234547798
 31
0.0
 11
2.8610684495
 21
9.3429649013
 31
0.0
 11
2.266287342
 21
9.1828349862
 31
0.0
 11
1.0571187256
 21
8.95
 31
0.0
  0
SPLINE
  5
5C4
100
AcDbEntity
  8
0
100
AcDbSpline
 62
7
  6
CONTINUOUS
 70
0
 71
3
 72
9
 73
5
 74
3
 42
0.0000001
 43
0.0000001
 44
0.0000000001
 12
-0.0605940228
 22
0.0195254705
 32
0.0
 13
-0.0622187547
 23
0.0134798426
 33
0.0
 40
0.0
 40
0.0
 40
0.0
 40
0.0
 40
0.2532248186
 40
1.0
 40
1.0
 40
1.0
 40
1.0
 10
-3.45
 20
9.5234547798
 30
0.0
 10
-3.4551146368
 20
9.5251028911
 30
0.0
 10
-3.4753875174
 20
9.5313745724
 30
0.0
 10
-3.4959515354
 20
9.5367222447
 30
0.0
 10
-3.5114393427
 20
9.5400777154
 30
0.0
 11
-3.45
 21
9.5234547798
 31
0.0
 11
-3.4654004984
 21
9.5282199318
 31
0.0
 11
-3.5114393427
 21
9.5400777154
 31
0.0
  0
SPLINE
  5
5C5
100
AcDbEntity
  8
0
100
AcDbSpline
 62
7
  6
CONTINUOUS
 70
0
 71
3
 72
9
 73
5
 74
3
 42
0.0000001
 43
0.0000001
 44
0.0000000001
 12
-0.0622193021
 22
-0.0134799778
 32
0.0
 13
-0.0605945593
 23
-0.0195256433
 33
0.0
 40
0.0
 40
0.0
 40
0.0
 40
0.0
 40
0.2450520474
 40
1.0
 40
1.0
 40
1.0
 40
1.0
 10
3.5114392214
 20
9.5400776894
 30
0.0
 10
3.5063568989
 20
9.5389765907
 30
0.0
 10
3.4856797201
 20
9.5341972052
 30
0.0
 10
3.4652485795
 20
9.5283683947
 30
0.0
 10
3.45
 20
9.5234547798
 30
0.0
 11
3.5114392214
 21
9.5400776894
 31
0.0
 11
3.4962377036
 21
9.5365711758
 31
0.0
 11
3.45
 21
9.5234547798
 31
0.0
  0
SPLINE
  5
5C6
100
AcDbEntity
  8
RACCORDO
100
AcDbSpline
 62
7
  6
CONTINUOUS
 70
0
 71
3
 72
9
 73
5
 74
3
 42
0.0000001
 43
0.0000001
 44
0.0000000001
 12
-1.2881802646
 22
-0.4150958225
 32
0.0
 13
-1.3166498177
 23
-0.3132829287
 33
0.0
 40
0.0
 40
0.0
 40
0.0
 40
0.0
 40
0.5000064705
 40
1.0
 40
1.0
 40
1.0
 40
1.0
 10
3.45
 20
7.8666114973
 30
0.0
 10
3.2353005108
 20
7.7974279649
 30
0.0
 10
2.8039000482
 20
7.6651797101
 30
0.0
 10
2.3676495302
 20
7.5495451065
 30
0.0
 10
2.1482107338
 20
7.4973319608
 30
0.0
 11
3.45
 21
7.8666114973
 31
0.0
 11
2.8026819202
 21
7.669331519
 31
0.0
 11
2.1482107338
 21
7.4973319608
 31
0.0
  0
SPLINE
  5
5C7
100
AcDbEntity
  8
RACCORDO
100
AcDbSpline
 62
7
  6
CONTINUOUS
 70
0
 71
3
 72
9
 73
5
 74
3
 42
0.0000001
 43
0.0000001
 44
0.0000000001
 12
0.4474194637
 22
-0.1064587395
 32
0.0
 13
0.4599104692
 23
0.0
 33
0.0
 40
0.0
 40
0.0
 40
0.0
 40
0.0
 40
0.499933166
 40
1.0
 40
1.0
 40
1.0
 40
1.0
 10
-2.1482107338
 20
7.4973319608
 30
0.0
 10
-2.0736507908
 20
7.4795912092
 30
0.0
 10
-1.9215629017
 20
7.4561718647
 30
0.0
 10
-1.7681729925
 20
7.45
 30
0.0
 10
-1.6915110017
 20
7.45
 30
0.0
 11
-2.1482107338
 21
7.4973319608
 31
0.0
 11
-1.9212578129
 21
7.4604857124
 31
0.0
 11
-1.6915110017
 21
7.45
 31
0.0
  0
SPLINE
  5
5C8
100
AcDbEntity
  8
0
100
AcDbSpline
 62
7
  6
CONTINUOUS
 70
0
 71
3
 72
16
 73
12
 74
10
 42
0.0000001
 43
0.0000001
 44
0.0000000001
 12
-0.2043791185
 22
0.0658579553
 32
0.0
 13
0.0
 23
-0.2147279543
 33
0.0
 40
0.0
 40
0.0
 40
0.0
 40
0.0
 40
0.1850761897
 40
0.3636895095
 40
0.5283651721
 40
0.6723721201
 40
0.7902301514
 40
0.8798002426
 40
0.9448569401
 40
0.9724672439
 40
1.0
 40
1.0
 40
1.0
 40
1.0
 10
-3.45
 20
7.8666114973
 30
0.0
 10
-3.4626085695
 20
7.8706744104
 30
0.0
 10
-3.4876173655
 20
7.8779608232
 30
0.0
 10
-3.5245204974
 20
7.8863425098
 30
0.0
 10
-3.5590249171
 20
7.8916759848
 30
0.0
 10
-3.5895316331
 20
7.8937277576
 30
0.0
 10
-3.6147533233
 20
7.8923259763
 30
0.0
 10
-3.6338273894
 20
7.8877808837
 30
0.0
 10
-3.6452588366
 20
7.8802963975
 30
0.0
 10
-3.6494123398
 20
7.8725674244
 30
0.0
 10
-3.65
 20
7.8685821814
 30
0.0
 10
-3.65
 20
7.8666114973
 30
0.0
 11
-3.45
 21
7.8666114973
 31
0.0
 11
-3.4881634823
 21
7.877697444
 31
0.0
 11
-3.5255835411
 21
7.8861065303
 31
0.0
 11
-3.5605510906
 21
7.8913632583
 31
0.0
 11
-3.5914213548
 21
7.8931567174
 31
0.0
 11
-3.6166651401
 21
7.8913632558
 31
0.0
 11
-3.6351660292
 21
7.8861065288
 31
0.0
 11
-3.6463210271
 21
7.8776974434
 31
0.0
 11
-3.6490846401
 21
7.8724522575
 31
0.0
 11
-3.65
 21
7.8666114973
 31
0.0
  0
SPLINE
  5
5C9
100
AcDbEntity
  8
RACCORDO
100
AcDbSpline
 62
7
  6
CONTINUOUS
 70
0
 71
3
 72
9
 73
5
 74
3
 42
0.0000001
 43
0.0000001
 44
0.0000000001
 12
-1.3166498177
 22
0.3132829287
 32
0.0
 13
-1.2881802646
 23
0.4150958225
 33
0.0
 40
0.0
 40
0.0
 40
0.0
 40
0.0
 40
0.4999935306
 40
1.0
 40
1.0
 40
1.0
 40
1.0
 10
-2.1482107338
 20
7.4973319608
 30
0.0
 10
-2.3676495308
 20
7.5495451067
 30
0.0
 10
-2.8039000488
 20
7.6651797102
 30
0.0
 10
-3.2353005113
 20
7.7974279651
 30
0.0
 10
-3.45
 20
7.8666114973
 30
0.0
 11
-2.1482107338
 21
7.4973319608
 31
0.0
 11
-2.8026819218
 21
7.6693315194
 31
0.0
 11
-3.45
 21
7.8666114973
 31
0.0
  0
SPLINE
  5
5CA
100
AcDbEntity
  8
RACCORDO
100
AcDbSpline
 62
7
  6
CONTINUOUS
 70
0
 71
3
 72
9
 73
5
 74
3
 42
0.0000001
 43
0.0000001
 44
0.0000000001
 12
0.4599104692
 22
0.0
 32
0.0
 13
0.4474194637
 23
0.1064587395
 33
0.0
 40
0.0
 40
0.0
 40
0.0
 40
0.0
 40
0.500066834
 40
1.0
 40
1.0
 40
1.0
 40
1.0
 10
1.6915110017
 20
7.45
 30
0.0
 10
1.7681729925
 20
7.45
 30
0.0
 10
1.9215629017
 20
7.4561718647
 30
0.0
 10
2.0736507908
 20
7.4795912092
 30
0.0
 10
2.1482107338
 20
7.4973319608
 30
0.0
 11
1.6915110017
 21
7.45
 31
0.0
 11
1.9212578129
 21
7.4604857124
 31
0.0
 11
2.1482107338
 21
7.4973319608
 31
0.0
  0
SPLINE
  5
5CB
100
AcDbEntity
  8
0
100
AcDbSpline
 62
7
  6
CONTINUOUS
 70
0
 71
3
 72
16
 73
12
 74
10
 42
0.0000001
 43
0.0000001
 44
0.0000000001
 12
0.2043791183
 22
0.0658579552
 32
0.0
 13
0.0
 23
-0.2147279541
 33
0.0
 40
0.0
 40
0.0
 40
0.0
 40
0.0
 40
0.1850761803
 40
0.363689453
 40
0.5283651144
 40
0.6723721336
 40
0.7902301308
 40
0.8798002085
 40
0.944856937
 40
0.9724672433
 40
1.0
 40
1.0
 40
1.0
 40
1.0
 10
3.45
 20
7.8666114973
 30
0.0
 10
3.4626085689
 20
7.8706744102
 30
0.0
 10
3.487617361
 20
7.8779608211
 30
0.0
 10
3.5245204883
 20
7.8863425099
 30
0.0
 10
3.5590249102
 20
7.8916759823
 30
0.0
 10
3.589531628
 20
7.8937277566
 30
0.0
 10
3.6147533213
 20
7.8923259807
 30
0.0
 10
3.6338273832
 20
7.8877808816
 30
0.0
 10
3.6452588358
 20
7.8802964004
 30
0.0
 10
3.6494123401
 20
7.8725674247
 30
0.0
 10
3.65
 20
7.8685821814
 30
0.0
 10
3.65
 20
7.8666114973
 30
0.0
 11
3.45
 21
7.8666114973
 31
0.0
 11
3.4881634803
 21
7.8776974434
 31
0.0
 11
3.5255835289
 21
7.8861065288
 31
0.0
 11
3.5605510783
 21
7.8913632558
 31
0.0
 11
3.5914213576
 21
7.8931567174
 31
0.0
 11
3.6166651358
 21
7.8913632583
 31
0.0
 11
3.6351660216
 21
7.8861065303
 31
0.0
 11
3.6463210271
 21
7.877697444
 31
0.0
 11
3.6490846403
 21
7.8724522576
 31
0.0
 11
3.65
 21
7.8666114973
 31
0.0
  0
SPLINE
  5
5CC
100
AcDbEntity
  8
0
100
AcDbSpline
 62
7
  6
CONTINUOUS
 70
0
 71
3
 72
9
 73
5
 74
3
 42
0.0000001
 43
0.0000001
 44
0.0000000001
 12
0.0622193021
 22
0.0134799778
 32
0.0
 13
0.0605945593
 23
0.0195256433
 33
0.0
 40
0.0
 40
0.0
 40
0.0
 40
0.0
 40
0.2450520474
 40
1.0
 40
1.0
 40
1.0
 40
1.0
 10
-3.5114392214
 20
-9.5400776894
 30
0.0
 10
-3.5063568989
 20
-9.5389765907
 30
0.0
 10
-3.4856797201
 20
-9.5341972052
 30
0.0
 10
-3.4652485795
 20
-9.5283683947
 30
0.0
 10
-3.45
 20
-9.5234547798
 30
0.0
 11
-3.5114392214
 21
-9.5400776894
 31
0.0
 11
-3.4962377036
 21
-9.5365711758
 31
0.0
 11
-3.45
 21
-9.5234547798
 31
0.0
  0
SPLINE
  5
5CD
100
AcDbEntity
  8
0
100
AcDbSpline
 62
7
  6
CONTINUOUS
 70
0
 71
3
 72
10
 73
6
 74
4
 42
0.0000001
 43
0.0000001
 44
0.0000000001
 12
2.442598528
 22
-0.3187575455
 32
0.0
 13
2.344590094
 23
-0.7555072687
 33
0.0
 40
0.0
 40
0.0
 40
0.0
 40
0.0
 40
0.4998891578
 40
0.749942799
 40
1.0
 40
1.0
 40
1.0
 40
1.0
 10
1.0571187256
 20
-8.95
 30
0.0
 10
1.4641282326
 20
-9.0031144803
 30
0.0
 10
2.0695279429
 20
-9.1247776195
 30
0.0
 10
2.8620144844
 20
-9.3396065768
 30
0.0
 10
3.2545727878
 20
-9.4604814355
 30
0.0
 10
3.45
 20
-9.5234547798
 30
0.0
 11
1.0571187256
 21
-8.95
 31
0.0
 11
2.266287385
 21
-9.1828349941
 31
0.0
 11
2.8610684746
 21
-9.3429649062
 31
0.0
 11
3.45
 21
-9.5234547798
 31
0.0
  0
SPLINE
  5
5CE
100
AcDbEntity
  8
0
100
AcDbSpline
 62
7
  6
CONTINUOUS
 70
0
 71
3
 72
10
 73
6
 74
4
 42
0.0000001
 43
0.0000001
 44
0.0000000001
 12
2.3445900938
 22
0.7555072687
 32
0.0
 13
2.4425985278
 23
0.3187575455
 33
0.0
 40
0.0
 40
0.0
 40
0.0
 40
0.0
 40
0.2500572114
 40
0.5001108599
 40
1.0
 40
1.0
 40
1.0
 40
1.0
 10
-3.45
 20
-9.5234547798
 30
0.0
 10
-3.2545727798
 20
-9.4604814329
 30
0.0
 10
-2.8620144614
 20
-9.3396065731
 30
0.0
 10
-2.0695279197
 20
-9.1247776172
 30
0.0
 10
-1.4641282182
 20
-9.0031144784
 30
0.0
 10
-1.0571187256
 20
-8.95
 30
0.0
 11
-3.45
 21
-9.5234547798
 31
0.0
 11
-2.8610684495
 21
-9.3429649013
 31
0.0
 11
-2.266287342
 21
-9.1828349862
 31
0.0
 11
-1.0571187256
 21
-8.95
 31
0.0
  0
SPLINE
  5
5CF
100
AcDbEntity
  8
0
100
AcDbSpline
 62
7
  6
CONTINUOUS
 70
0
 71
3
 72
9
 73
5
 74
3
 42
0.0000001
 43
0.0000001
 44
0.0000000001
 12
0.0605940228
 22
-0.0195254705
 32
0.0
 13
0.0622187547
 23
-0.0134798426
 33
0.0
 40
0.0
 40
0.0
 40
0.0
 40
0.0
 40
0.2532248186
 40
1.0
 40
1.0
 40
1.0
 40
1.0
 10
3.45
 20
-9.5234547798
 30
0.0
 10
3.4551146368
 20
-9.5251028911
 30
0.0
 10
3.4753875174
 20
-9.5313745724
 30
0.0
 10
3.4959515354
 20
-9.5367222447
 30
0.0
 10
3.5114393427
 20
-9.5400777154
 30
0.0
 11
3.45
 21
-9.5234547798
 31
0.0
 11
3.4654004984
 21
-9.5282199318
 31
0.0
 11
3.5114393427
 21
-9.5400777154
 31
0.0
  0
SPLINE
  5
5D0
100
AcDbEntity
  8
RACCORDO
100
AcDbSpline
 62
7
  6
CONTINUOUS
 70
0
 71
3
 72
9
 73
5
 74
3
 42
0.0000001
 43
0.0000001
 44
0.0000000001
 12
1.2881802646
 22
0.4150958225
 32
0.0
 13
1.3166498177
 23
0.3132829287
 33
0.0
 40
0.0
 40
0.0
 40
0.0
 40
0.0
 40
0.5000064705
 40
1.0
 40
1.0
 40
1.0
 40
1.0
 10
-3.45
 20
-7.8666114973
 30
0.0
 10
-3.2353005108
 20
-7.7974279649
 30
0.0
 10
-2.8039000482
 20
-7.6651797101
 30
0.0
 10
-2.3676495302
 20
-7.5495451065
 30
0.0
 10
-2.1482107338
 20
-7.4973319608
 30
0.0
 11
-3.45
 21
-7.8666114973
 31
0.0
 11
-2.8026819202
 21
-7.669331519
 31
0.0
 11
-2.1482107338
 21
-7.4973319608
 31
0.0
  0
SPLINE
  5
5D1
100
AcDbEntity
  8
RACCORDO
100
AcDbSpline
 62
7
  6
CONTINUOUS
 70
0
 71
3
 72
9
 73
5
 74
3
 42
0.0000001
 43
0.0000001
 44
0.0000000001
 12
-0.4599104692
 22
0.0
 32
0.0
 13
-0.4474194637
 23
-0.1064587395
 33
0.0
 40
0.0
 40
0.0
 40
0.0
 40
0.0
 40
0.500066834
 40
1.0
 40
1.0
 40
1.0
 40
1.0
 10
-1.6915110017
 20
-7.45
 30
0.0
 10
-1.7681729925
 20
-7.45
 30
0.0
 10
-1.9215629017
 20
-7.4561718647
 30
0.0
 10
-2.0736507908
 20
-7.4795912092
 30
0.0
 10
-2.1482107338
 20
-7.4973319608
 30
0.0
 11
-1.6915110017
 21
-7.45
 31
0.0
 11
-1.9212578129
 21
-7.4604857124
 31
0.0
 11
-2.1482107338
 21
-7.4973319608
 31
0.0
  0
SPLINE
  5
5D2
100
AcDbEntity
  8
0
100
AcDbSpline
 62
7
  6
CONTINUOUS
 70
0
 71
3
 72
16
 73
12
 74
10
 42
0.0000001
 43
0.0000001
 44
0.0000000001
 12
0.2043791185
 22
-0.0658579553
 32
0.0
 13
0.0
 23
0.2147279543
 33
0.0
 40
0.0
 40
0.0
 40
0.0
 40
0.0
 40
0.1850761897
 40
0.3636895095
 40
0.5283651721
 40
0.6723721201
 40
0.7902301514
 40
0.8798002426
 40
0.9448569401
 40
0.9724672439
 40
1.0
 40
1.0
 40
1.0
 40
1.0
 10
3.45
 20
-7.8666114973
 30
0.0
 10
3.4626085695
 20
-7.8706744104
 30
0.0
 10
3.4876173655
 20
-7.8779608232
 30
0.0
 10
3.5245204974
 20
-7.8863425098
 30
0.0
 10
3.5590249171
 20
-7.8916759848
 30
0.0
 10
3.5895316331
 20
-7.8937277576
 30
0.0
 10
3.6147533233
 20
-7.8923259763
 30
0.0
 10
3.6338273894
 20
-7.8877808837
 30
0.0
 10
3.6452588366
 20
-7.8802963975
 30
0.0
 10
3.6494123398
 20
-7.8725674244
 30
0.0
 10
3.65
 20
-7.8685821814
 30
0.0
 10
3.65
 20
-7.8666114973
 30
0.0
 11
3.45
 21
-7.8666114973
 31
0.0
 11
3.4881634823
 21
-7.877697444
 31
0.0
 11
3.5255835411
 21
-7.8861065303
 31
0.0
 11
3.5605510906
 21
-7.8913632583
 31
0.0
 11
3.5914213548
 21
-7.8931567174
 31
0.0
 11
3.6166651401
 21
-7.8913632558
 31
0.0
 11
3.6351660292
 21
-7.8861065288
 31
0.0
 11
3.6463210271
 21
-7.8776974434
 31
0.0
 11
3.6490846401
 21
-7.8724522575
 31
0.0
 11
3.65
 21
-7.8666114973
 31
0.0
  0
SPLINE
  5
5D3
100
AcDbEntity
  8
RACCORDO
100
AcDbSpline
 62
7
  6
CONTINUOUS
 70
0
 71
3
 72
9
 73
5
 74
3
 42
0.0000001
 43
0.0000001
 44
0.0000000001
 12
-0.4474194637
 22
0.1064587395
 32
0.0
 13
-0.4599104692
 23
0.0
 33
0.0
 40
0.0
 40
0.0
 40
0.0
 40
0.0
 40
0.499933166
 40
1.0
 40
1.0
 40
1.0
 40
1.0
 10
2.1482107338
 20
-7.4973319608
 30
0.0
 10
2.0736507908
 20
-7.4795912092
 30
0.0
 10
1.9215629017
 20
-7.4561718647
 30
0.0
 10
1.7681729925
 20
-7.45
 30
0.0
 10
1.6915110017
 20
-7.45
 30
0.0
 11
2.1482107338
 21
-7.4973319608
 31
0.0
 11
1.9212578129
 21
-7.4604857124
 31
0.0
 11
1.6915110017
 21
-7.45
 31
0.0
  0
SPLINE
  5
5D4
100
AcDbEntity
  8
RACCORDO
100
AcDbSpline
 62
7
  6
CONTINUOUS
 70
0
 71
3
 72
9
 73
5
 74
3
 42
0.0000001
 43
0.0000001
 44
0.0000000001
 12
1.3166498177
 22
-0.3132829287
 32
0.0
 13
1.2881802646
 23
-0.4150958225
 33
0.0
 40
0.0
 40
0.0
 40
0.0
 40
0.0
 40
0.4999935306
 40
1.0
 40
1.0
 40
1.0
 40
1.0
 10
2.1482107338
 20
-7.4973319608
 30
0.0
 10
2.3676495308
 20
-7.5495451067
 30
0.0
 10
2.8039000488
 20
-7.6651797102
 30
0.0
 10
3.2353005113
 20
-7.7974279651
 30
0.0
 10
3.45
 20
-7.8666114973
 30
0.0
 11
2.1482107338
 21
-7.4973319608
 31
0.0
 11
2.8026819218
 21
-7.6693315194
 31
0.0
 11
3.45
 21
-7.8666114973
 31
0.0
  0
SPLINE
  5
5D5
100
AcDbEntity
  8
0
100
AcDbSpline
 62
7
  6
CONTINUOUS
 70
0
 71
3
 72
16
 73
12
 74
10
 42
0.0000001
 43
0.0000001
 44
0.0000000001
 12
-0.2043791183
 22
-0.0658579552
 32
0.0
 13
0.0
 23
0.2147279541
 33
0.0
 40
0.0
 40
0.0
 40
0.0
 40
0.0
 40
0.1850761803
 40
0.363689453
 40
0.5283651144
 40
0.6723721336
 40
0.7902301308
 40
0.8798002085
 40
0.944856937
 40
0.9724672433
 40
1.0
 40
1.0
 40
1.0
 40
1.0
 10
-3.45
 20
-7.8666114973
 30
0.0
 10
-3.4626085688
 20
-7.8706744102
 30
0.0
 10
-3.487617361
 20
-7.8779608211
 30
0.0
 10
-3.5245204883
 20
-7.8863425099
 30
0.0
 10
-3.5590249102
 20
-7.8916759823
 30
0.0
 10
-3.589531628
 20
-7.8937277566
 30
0.0
 10
-3.6147533213
 20
-7.8923259807
 30
0.0
 10
-3.6338273832
 20
-7.8877808816
 30
0.0
 10
-3.6452588358
 20
-7.8802964004
 30
0.0
 10
-3.6494123401
 20
-7.8725674247
 30
0.0
 10
-3.65
 20
-7.8685821814
 30
0.0
 10
-3.65
 20
-7.8666114973
 30
0.0
 11
-3.45
 21
-7.8666114973
 31
0.0
 11
-3.4881634803
 21
-7.8776974434
 31
0.0
 11
-3.5255835289
 21
-7.8861065288
 31
0.0
 11
-3.5605510783
 21
-7.8913632558
 31
0.0
 11
-3.5914213576
 21
-7.8931567174
 31
0.0
 11
-3.6166651358
 21
-7.8913632583
 31
0.0
 11
-3.6351660216
 21
-7.8861065303
 31
0.0
 11
-3.6463210271
 21
-7.877697444
 31
0.0
 11
-3.6490846403
 21
-7.8724522576
 31
0.0
 11
-3.65
 21
-7.8666114973
 31
0.0
  0
SPLINE
  5
5D6
100
AcDbEntity
  8
ASSI
100
AcDbSpline
 62
7
  6
CONTINUOUS
 70
0
 71
3
 72
11
 73
7
 74
5
 42
0.0000001
 43
0.0000001
 44
0.0000000001
 12
0.0067613521
 22
0.387357604
 32
0.0
 13
0.3873351987
 23
0.0079418575
 33
0.0
 40
0.0
 40
0.0
 40
0.0
 40
0.0
 40
0.2887023648
 40
0.5586105117
 40
0.7960077426
 40
1.0
 40
1.0
 40
1.0
 40
1.0
 10
3.0713521947
 20
22.0232664162
 30
0.0
 10
3.0720028675
 20
22.060543435
 30
0.0
 10
3.0900073343
 20
22.1334006817
 30
0.0
 10
3.156050979
 20
22.2158628798
 30
0.0
 10
3.2378741681
 20
22.26177612
 30
0.0
 10
3.2950388341
 20
22.2719063749
 30
0.0
 10
3.3213766279
 20
22.2724464007
 30
0.0
 11
3.0713521947
 21
22.0232664162
 31
0.0
 11
3.0981835621
 21
22.1318485199
 31
0.0
 11
3.1633529967
 21
22.2136237067
 31
0.0
 11
3.2435653191
 21
22.2586210857
 31
0.0
 11
3.3213766279
 21
22.2724464007
 31
0.0
  0
SPLINE
  5
5D7
100
AcDbEntity
  8
ASSI
100
AcDbSpline
 62
7
  6
CONTINUOUS
 70
0
 71
3
 72
11
 73
7
 74
5
 42
0.0000001
 43
0.0000001
 44
0.0000000001
 12
-0.0067613521
 22
-0.3873576043
 32
0.0
 13
-0.3873351991
 23
-0.0079418575
 33
0.0
 40
0.0
 40
0.0
 40
0.0
 40
0.0
 40
0.2887024668
 40
0.5586105757
 40
0.7960077999
 40
1.0
 40
1.0
 40
1.0
 40
1.0
 10
-3.0713521947
 20
-22.0232664162
 30
0.0
 10
-3.0720028677
 20
-22.0605434482
 30
0.0
 10
-3.0900073419
 20
-22.1334007041
 30
0.0
 10
-3.1560510009
 20
-22.2158629001
 30
0.0
 10
-3.2378741845
 20
-22.2617761224
 30
0.0
 10
-3.2950388415
 20
-22.2719063751
 30
0.0
 10
-3.3213766279
 20
-22.2724464007
 30
0.0
 11
-3.0713521947
 21
-22.0232664162
 31
0.0
 11
-3.0981835792
 21
-22.1318485565
 31
0.0
 11
-3.163353015
 21
-22.2136237237
 31
0.0
 11
-3.2435653404
 21
-22.2586210922
 31
0.0
 11
-3.3213766279
 21
-22.2724464007
 31
0.0
  0
SPLINE
  5
5D8
100
AcDbEntity
  8
ASSI
100
AcDbSpline
 62
7
  6
CONTINUOUS
 70
0
 71
3
 72
11
 73
7
 74
5
 42
0.0000001
 43
0.0000001
 44
0.0000000001
 12
0.3873351991
 22
-0.0079418575
 32
0.0
 13
0.0067613521
 23
-0.3873576043
 33
0.0
 40
0.0
 40
0.0
 40
0.0
 40
0.0
 40
0.2039922001
 40
0.4413894243
 40
0.7112975332
 40
1.0
 40
1.0
 40
1.0
 40
1.0
 10
-3.3213766279
 20
22.2724464007
 30
0.0
 10
-3.2950388415
 20
22.2719063751
 30
0.0
 10
-3.2378741845
 20
22.2617761224
 30
0.0
 10
-3.1560510009
 20
22.2158629001
 30
0.0
 10
-3.0900073419
 20
22.1334007041
 30
0.0
 10
-3.0720028677
 20
22.0605434482
 30
0.0
 10
-3.0713521947
 20
22.0232664162
 30
0.0
 11
-3.3213766279
 21
22.2724464007
 31
0.0
 11
-3.2435653404
 21
22.2586210922
 31
0.0
 11
-3.163353015
 21
22.2136237237
 31
0.0
 11
-3.0981835792
 21
22.1318485565
 31
0.0
 11
-3.0713521947
 21
22.0232664162
 31
0.0
  0
SPLINE
  5
5D9
100
AcDbEntity
  8
ASSI
100
AcDbSpline
 62
7
  6
CONTINUOUS
 70
0
 71
3
 72
11
 73
7
 74
5
 42
0.0000001
 43
0.0000001
 44
0.0000000001
 12
-0.3873351987
 22
0.0079418575
 32
0.0
 13
-0.0067613521
 23
0.387357604
 33
0.0
 40
0.0
 40
0.0
 40
0.0
 40
0.0
 40
0.2039922574
 40
0.4413894883
 40
0.7112976352
 40
1.0
 40
1.0
 40
1.0
 40
1.0
 10
3.3213766279
 20
-22.2724464007
 30
0.0
 10
3.2950388341
 20
-22.2719063749
 30
0.0
 10
3.2378741681
 20
-22.26177612
 30
0.0
 10
3.156050979
 20
-22.2158628798
 30
0.0
 10
3.0900073343
 20
-22.1334006817
 30
0.0
 10
3.0720028675
 20
-22.0605434349
 30
0.0
 10
3.0713521947
 20
-22.0232664162
 30
0.0
 11
3.3213766279
 21
-22.2724464007
 31
0.0
 11
3.2435653191
 21
-22.2586210857
 31
0.0
 11
3.1633529967
 21
-22.2136237067
 31
0.0
 11
3.0981835621
 21
-22.1318485199
 31
0.0
 11
3.0713521947
 21
-22.0232664162
 31
0.0
  0
SPLINE
  5
5DA
100
AcDbEntity
  8
ASSI
100
AcDbSpline
 62
253
  6
CONTINUOUS
 70
0
 71
3
 72
14
 73
10
 74
8
 42
0.0000001
 43
0.0000001
 44
0.0000000001
 12
-0.0353890603
 22
0.0353419688
 32
0.0
 13
0.0000000042
 23
0.0500144013
 33
0.0
 40
0.0
 40
0.0
 40
0.0
 40
0.0
 40
0.0223894589
 40
0.0813316649
 40
0.1747572081
 40
0.2991857903
 40
0.4499513862
 40
0.6213965713
 40
1.0
 40
1.0
 40
1.0
 40
1.0
 10
-7.2131674569
 20
-24.286863004
 30
0.0
 10
-7.2134315709
 20
-24.2865992415
 30
0.0
 10
-7.2131956378
 20
-24.2850244788
 30
0.0
 10
-7.2136472506
 20
-24.282311764
 30
0.0
 10
-7.2136160176
 20
-24.2775938181
 30
0.0
 10
-7.2138079014
 20
-24.2714929827
 30
0.0
 10
-7.2138851816
 20
-24.2640320071
 30
0.0
 10
-7.2140004445
 20
-24.252355346
 30
0.0
 10
-7.214024979
 20
-24.2431824939
 30
0.0
 10
-7.2140249785
 20
-24.2368706193
 30
0.0
 11
-7.2131674569
 21
-24.286863004
 31
0.0
 11
-7.2133354802
 21
-24.2857558862
 31
0.0
 11
-7.213496641
 21
-24.2828123356
 31
0.0
 11
-7.2136448924
 21
-24.2781420654
 31
0.0
 11
-7.2137746402
 21
-24.2719201971
 31
0.0
 11
-7.2138809999
 21
-24.2643804962
 31
0.0
 11
-7.2139599678
 21
-24.2558061315
 31
0.0
 11
-7.2140249785
 21
-24.2368706193
 31
0.0
  0
SPLINE
  5
5DB
100
AcDbEntity
  8
ASSI
100
AcDbSpline
 62
253
  6
CONTINUOUS
 70
0
 71
3
 72
9
 73
5
 74
3
 42
0.0000001
 43
0.0000001
 44
0.0000000001
 12
0.0000006052
 22
0.0433040268
 32
0.0
 13
-0.0013082134
 23
0.0432842617
 33
0.0
 40
0.0
 40
0.0
 40
0.0
 40
0.0
 40
0.2986883658
 40
1.0
 40
1.0
 40
1.0
 40
1.0
 10
-10.5859750215
 20
-23.8443375673
 30
0.0
 10
-10.5859749612
 20
-23.8400260976
 30
0.0
 10
-10.5860182947
 20
-23.8255919006
 30
0.0
 10
-10.5861055763
 20
-23.8111548825
 30
0.0
 10
-10.5864113981
 20
-23.8010362971
 30
0.0
 11
-10.5859750215
 21
-23.8443375673
 31
0.0
 11
-10.5860047684
 21
-23.8314031925
 31
0.0
 11
-10.5864113981
 21
-23.8010362971
 31
0.0
  0
SPLINE
  5
5DC
100
AcDbEntity
  8
ASSI
100
AcDbSpline
 62
253
  6
CONTINUOUS
 70
0
 71
3
 72
14
 73
10
 74
8
 42
0.0000001
 43
0.0000001
 44
0.0000000001
 12
0.0353853774
 22
0.0353456564
 32
0.0
 13
0.0000000242
 23
0.0500144015
 33
0.0
 40
0.0
 40
0.0
 40
0.0
 40
0.0
 40
0.0223887472
 40
0.0813299675
 40
0.1747550585
 40
0.2991845911
 40
0.4499510589
 40
0.6213967018
 40
1.0
 40
1.0
 40
1.0
 40
1.0
 10
-10.5868325431
 20
-24.286863004
 30
0.0
 10
-10.586568465
 20
-24.2865992224
 30
0.0
 10
-10.5868043238
 20
-24.2850245561
 30
0.0
 10
-10.5863527734
 20
-24.2823118193
 30
0.0
 10
-10.5863839746
 20
-24.2775939108
 30
0.0
 10
-10.5861921023
 20
-24.271493041
 30
0.0
 10
-10.5861148162
 20
-24.2640320315
 30
0.0
 10
-10.5859995564
 20
-24.2523553486
 30
0.0
 10
-10.5859750245
 20
-24.2431824917
 30
0.0
 10
-10.5859750215
 20
-24.2368706193
 30
0.0
 11
-10.5868325431
 21
-24.286863004
 31
0.0
 11
-10.586664522
 21
-24.2857559219
 31
0.0
 11
-10.5865033616
 21
-24.2828124206
 31
0.0
 11
-10.5863551093
 21
-24.278142173
 31
0.0
 11
-10.5862253602
 21
-24.2719202572
 31
0.0
 11
-10.5861189993
 21
-24.2643805127
 31
0.0
 11
-10.5860400321
 21
-24.2558061251
 31
0.0
 11
-10.5859750215
 21
-24.2368706193
 31
0.0
  0
SPLINE
  5
5DD
100
AcDbEntity
  8
ASSI
100
AcDbSpline
 62
253
  6
CONTINUOUS
 70
0
 71
3
 72
9
 73
5
 74
3
 42
0.0000001
 43
0.0000001
 44
0.0000000001
 12
-0.00000001
 22
0.0433040274
 32
0.0
 13
0.0013086633
 23
0.0432842487
 33
0.0
 40
0.0
 40
0.0
 40
0.0
 40
0.0
 40
0.2987935853
 40
1.0
 40
1.0
 40
1.0
 40
1.0
 10
-7.2140249785
 20
-23.8443375673
 30
0.0
 10
-7.2140249795
 20
-23.8400245788
 30
0.0
 10
-7.2139818319
 20
-23.825590382
 30
0.0
 10
-7.2138944829
 20
-23.8111533614
 30
0.0
 10
-7.2135886019
 20
-23.8010362971
 30
0.0
 11
-7.2140249785
 21
-23.8443375673
 31
0.0
 11
-7.2139952489
 21
-23.8313986359
 31
0.0
 11
-7.2135886019
 21
-23.8010362971
 31
0.0
  0
SPLINE
  5
5DE
100
AcDbEntity
  8
ASSI
100
AcDbSpline
 62
253
  6
CONTINUOUS
 70
0
 71
3
 72
14
 73
10
 74
8
 42
0.0000001
 43
0.0000001
 44
0.0000000001
 12
0.0000000171
 22
0.0500143994
 32
0.0
 13
-0.0353374338
 23
0.0353935859
 33
0.0
 40
0.0
 40
0.0
 40
0.0
 40
0.0
 40
0.3784748159
 40
0.5499130417
 40
0.7006958012
 40
0.8251540306
 40
0.9186156011
 40
0.977592863
 40
1.0
 40
1.0
 40
1.0
 40
1.0
 10
-10.5859750215
 20
24.2368706193
 30
0.0
 10
-10.5859750193
 20
24.2431803495
 30
0.0
 10
-10.5859995531
 20
24.252350929
 30
0.0
 10
-10.5861147324
 20
24.2640256436
 30
0.0
 10
-10.5861920462
 20
24.2714872226
 30
0.0
 10
-10.5863837678
 20
24.2775896023
 30
0.0
 10
-10.5863528662
 20
24.2823088543
 30
0.0
 10
-10.5868039632
 20
24.2850237059
 30
0.0
 10
-10.5865686062
 20
24.2865986477
 30
0.0
 10
-10.5868325431
 20
24.2868630041
 30
0.0
 11
-10.5859750215
 21
24.2368706193
 31
0.0
 11
-10.5860399865
 21
24.2557996984
 31
0.0
 11
-10.586118922
 21
24.264373715
 31
0.0
 11
-10.5862252576
 21
24.2719142744
 31
0.0
 11
-10.5863549921
 21
24.2781376259
 31
0.0
 11
-10.5865032502
 21
24.2828096985
 31
0.0
 11
-10.586664448
 21
24.2857550029
 31
0.0
 11
-10.5868325431
 21
24.2868630041
 31
0.0
  0
SPLINE
  5
5DF
100
AcDbEntity
  8
ASSI
100
AcDbSpline
 62
253
  6
CONTINUOUS
 70
0
 71
3
 72
9
 73
5
 74
3
 42
0.0000001
 43
0.0000001
 44
0.0000000001
 12
0.0013110427
 22
0.0432843983
 32
0.0
 13
0.0000001007
 23
0.0433042489
 33
0.0
 40
0.0
 40
0.0
 40
0.0
 40
0.0
 40
0.1834520378
 40
1.0
 40
1.0
 40
1.0
 40
1.0
 10
-10.5864113981
 20
23.8010362971
 30
0.0
 10
-10.586331227
 20
23.8036831675
 30
0.0
 10
-10.5860359079
 20
23.8181153116
 30
0.0
 10
-10.5859750489
 20
23.8325509019
 30
0.0
 10
-10.5859750215
 20
23.8443375673
 30
0.0
 11
-10.5864113981
 21
23.8010362971
 31
0.0
 11
-10.5862307638
 21
23.8089784959
 31
0.0
 11
-10.5859750215
 21
23.8443375673
 31
0.0
  0
SPLINE
  5
5E0
100
AcDbEntity
  8
ASSI
100
AcDbSpline
 62
253
  6
CONTINUOUS
 70
0
 71
3
 72
9
 73
5
 74
3
 42
0.0000001
 43
0.0000001
 44
0.0000000001
 12
-0.0013086619
 22
0.0432844713
 32
0.0
 13
0.000000012
 23
0.0433042498
 33
0.0
 40
0.0
 40
0.0
 40
0.0
 40
0.0
 40
0.1834851879
 40
1.0
 40
1.0
 40
1.0
 40
1.0
 10
-7.2135886019
 20
23.8010362971
 30
0.0
 10
-7.2136686419
 20
23.8036836502
 30
0.0
 10
-7.213964584
 20
23.818115777
 30
0.0
 10
-7.2140249818
 20
23.8325513802
 30
0.0
 10
-7.2140249785
 20
23.8443375673
 30
0.0
 11
-7.2135886019
 21
23.8010362971
 31
0.0
 11
-7.2137693139
 21
23.8089799302
 31
0.0
 11
-7.2140249785
 21
23.8443375673
 31
0.0
  0
SPLINE
  5
5E1
100
AcDbEntity
  8
RACCORDO
100
AcDbSpline
 62
7
  6
CONTINUOUS
 70
0
 71
3
 72
11
 73
7
 74
5
 42
0.0000001
 43
0.0000001
 44
0.0000000001
 12
-0.0276768164
 22
0.0267098646
 32
0.0
 13
-0.0368738953
 23
0.0109425262
 33
0.0
 40
0.0
 40
0.0
 40
0.0
 40
0.0
 40
0.3986116727
 40
0.7092783886
 40
0.9149590608
 40
1.0
 40
1.0
 40
1.0
 40
1.0
 10
-4.2217402622
 20
19.9000693252
 30
0.0
 10
-4.2254176962
 20
19.9036182798
 30
0.0
 10
-4.232007324
 20
19.9098421391
 30
0.0
 10
-4.2404152283
 20
19.9181651354
 30
0.0
 10
-4.2463031022
 20
19.9228855275
 30
0.0
 10
-4.248868033
 20
19.9259249501
 30
0.0
 10
-4.2499132966
 20
19.9262351377
 30
0.0
 11
-4.2217402622
 21
19.9000693252
 31
0.0
 11
-4.2328017086
 21
19.9106859066
 31
0.0
 11
-4.2414923386
 21
19.9188869859
 31
0.0
 11
-4.2473433869
 21
19.9242116026
 31
0.0
 11
-4.2499132966
 21
19.9262351377
 31
0.0
  0
SPLINE
  5
5E2
100
AcDbEntity
  8
RACCORDO
100
AcDbSpline
 62
7
  6
CONTINUOUS
 70
0
 71
3
 72
10
 73
6
 74
4
 42
0.0000001
 43
0.0000001
 44
0.0000000001
 12
-0.0272481741
 22
-0.0272469757
 32
0.0
 13
-0.0276914672
 23
-0.0267963304
 33
0.0
 40
0.0
 40
0.0
 40
0.0
 40
0.0
 40
0.0743690861
 40
0.2735281263
 40
1.0
 40
1.0
 40
1.0
 40
1.0
 10
4.1762541906
 20
19.9262541906
 30
0.0
 10
4.1755787166
 20
19.9255787463
 30
0.0
 10
4.1727667239
 20
19.9234512881
 30
0.0
 10
4.1632988209
 20
19.9147722672
 30
0.0
 10
4.1546656546
 20
19.906594655
 30
0.0
 10
4.1479599639
 20
19.9001057282
 30
0.0
 11
4.1762541906
 21
19.9262541906
 31
0.0
 11
4.1740660508
 21
19.9244036626
 31
0.0
 11
4.1682974144
 21
19.919342158
 31
0.0
 11
4.1479599639
 21
19.9001057282
 31
0.0
  0
SPLINE
  5
5E3
100
AcDbEntity
  8
RACCORDO
100
AcDbSpline
 62
7
  6
CONTINUOUS
 70
0
 71
3
 72
10
 73
6
 74
4
 42
0.0000001
 43
0.0000001
 44
0.0000000001
 12
0.0276914358
 22
-0.0267963249
 32
0.0
 13
0.0272476664
 23
-0.027247446
 33
0.0
 40
0.0
 40
0.0
 40
0.0
 40
0.0
 40
0.7264717581
 40
0.9256308156
 40
1.0
 40
1.0
 40
1.0
 40
1.0
 10
4.1479599997
 20
-19.9001057279
 30
0.0
 10
4.1546656817
 20
-19.9065946524
 30
0.0
 10
4.1632988566
 20
-19.9147722436
 30
0.0
 10
4.1727667179
 20
-19.9234512928
 30
0.0
 10
4.1755787283
 20
-19.9255787338
 30
0.0
 10
4.1762541906
 20
-19.9262541906
 30
0.0
 11
4.1479599997
 21
-19.9001057279
 31
0.0
 11
4.1682974247
 21
-19.9193421504
 31
0.0
 11
4.1740660536
 21
-19.9244036564
 31
0.0
 11
4.1762541906
 21
-19.9262541906
 31
0.0
  0
SPLINE
  5
5E4
100
AcDbEntity
  8
RACCORDO
100
AcDbSpline
 62
7
  6
CONTINUOUS
 70
0
 71
3
 72
10
 73
6
 74
4
 42
0.0000001
 43
0.0000001
 44
0.0000000001
 12
0.0272481867
 22
0.0272469638
 32
0.0
 13
0.0276914677
 23
0.0267963306
 33
0.0
 40
0.0
 40
0.0
 40
0.0
 40
0.0
 40
0.0743690836
 40
0.2735281231
 40
1.0
 40
1.0
 40
1.0
 40
1.0
 10
-4.1762541906
 20
-19.9262541906
 30
0.0
 10
-4.1755787163
 20
-19.9255787466
 30
0.0
 10
-4.172766724
 20
-19.923451288
 30
0.0
 10
-4.1632988201
 20
-19.9147722678
 30
0.0
 10
-4.154665654
 20
-19.9065946551
 30
0.0
 10
-4.1479599632
 20
-19.9001057283
 30
0.0
 11
-4.1762541906
 21
-19.9262541906
 31
0.0
 11
-4.1740660507
 21
-19.9244036627
 31
0.0
 11
-4.1682974142
 21
-19.9193421582
 31
0.0
 11
-4.1479599632
 21
-19.9001057283
 31
0.0
  0
SPLINE
  5
5E5
100
AcDbEntity
  8
RACCORDO
100
AcDbSpline
 62
7
  6
CONTINUOUS
 70
0
 71
3
 72
12
 73
8
 74
6
 42
0.0000001
 43
0.0000001
 44
0.0000000001
 12
0.0639406388
 22
-0.0053280475
 32
0.0
 13
0.0479678815
 23
-0.0426130934
 33
0.0
 40
0.0
 40
0.0
 40
0.0
 40
0.0
 40
0.0407137114
 40
0.1096209858
 40
0.3253274611
 40
0.6290976167
 40
1.0
 40
1.0
 40
1.0
 40
1.0
 10
7.373259377
 20
20.8276571029
 30
0.0
 10
7.3741271306
 20
20.8275847947
 30
0.0
 10
7.3763123444
 20
20.8265443198
 30
0.0
 10
7.3822163074
 20
20.8229702164
 30
0.0
 10
7.3922499522
 20
20.8152504133
 30
0.0
 10
7.4068878392
 20
20.8031204567
 30
0.0
 10
7.4177469373
 20
20.7936009125
 30
0.0
 10
7.4236774045
 20
20.7883324799
 30
0.0
 11
7.373259377
 21
20.8276571029
 31
0.0
 11
7.3757233122
 21
20.8267893206
 31
0.0
 11
7.3795339658
 21
20.8245473731
 31
0.0
 11
7.3906933216
 21
20.816360785
 31
0.0
 11
7.4057370356
 21
20.8039684824
 31
0.0
 11
7.4236774045
 21
20.7883324799
 31
0.0
  0
SPLINE
  5
5E6
100
AcDbEntity
  8
RACCORDO
100
AcDbSpline
 62
253
  6
CONTINUOUS
 70
0
 71
3
 72
11
 73
7
 74
5
 42
0.0000001
 43
0.0000001
 44
0.0000000001
 12
0.0052876778
 22
0.0273001962
 32
0.0
 13
0.0277244684
 23
0.0021480457
 33
0.0
 40
0.0
 40
0.0
 40
0.0
 40
0.0
 40
0.0806208572
 40
0.2736255322
 40
0.5810925357
 40
1.0
 40
1.0
 40
1.0
 40
1.0
 10
7.3725794066
 20
19.8274132696
 30
0.0
 10
7.3727215057
 20
19.8281469247
 30
0.0
 10
7.3758753469
 20
19.8289096256
 30
0.0
 10
7.3805456299
 20
19.8299933839
 30
0.0
 10
7.389348465
 20
19.8309843617
 30
0.0
 10
7.3959477628
 20
19.8315812225
 30
0.0
 10
7.3998190917
 20
19.8318811666
 30
0.0
 11
7.3725794066
 21
19.8274132696
 31
0.0
 11
7.3744971182
 21
19.8285744585
 31
0.0
 11
7.3797401401
 21
19.8297213183
 31
0.0
 11
7.3882177414
 21
19.8308309015
 31
0.0
 11
7.3998190917
 21
19.8318811666
 31
0.0
  0
SPLINE
  5
5E7
100
AcDbEntity
  8
RACCORDO
100
AcDbSpline
 62
253
  6
CONTINUOUS
 70
0
 71
3
 72
17
 73
13
 74
11
 42
0.0000001
 43
0.0000001
 44
0.0000000001
 12
-0.0353948423
 22
0.1891512299
 32
0.0
 13
-0.192433833
 23
0.0004500275
 33
0.0
 40
0.0
 40
0.0
 40
0.0
 40
0.0
 40
0.0072146621
 40
0.0227962746
 40
0.0472618663
 40
0.0805757391
 40
0.1727852308
 40
0.2960280659
 40
0.4460921322
 40
0.6177259706
 40
0.8049596282
 40
1.0
 40
1.0
 40
1.0
 40
1.0
 10
6.426880123
 20
19.8268725077
 30
0.0
 10
6.4267950024
 20
19.8273273951
 30
0.0
 10
6.4251865459
 20
19.8280605832
 30
0.0
 10
6.4224745057
 20
19.8287913795
 30
0.0
 10
6.4177211333
 20
19.8296276426
 30
0.0
 10
6.4082410359
 20
19.8308230596
 30
0.0
 10
6.3922837523
 20
19.832130298
 30
0.0
 10
6.3688968116
 20
19.8334525951
 30
0.0
 10
6.3403683246
 20
19.8345626626
 30
0.0
 10
6.307736413
 20
19.8354217221
 30
0.0
 10
6.2722091289
 20
19.8359823428
 30
0.0
 10
6.2476886349
 20
19.8361483766
 30
0.0
 10
6.2351778461
 20
19.8361776345
 30
0.0
 11
6.426880123
 21
19.8268725077
 31
0.0
 11
6.425806982
 21
19.8277533487
 31
0.0
 11
6.4229393686
 21
19.8286293745
 31
0.0
 11
6.4183109108
 21
19.8294912534
 31
0.0
 11
6.4119552367
 21
19.8303296536
 31
0.0
 11
6.3942808177
 21
19.831902608
 31
0.0
 11
6.3706054636
 21
19.8332931705
 31
0.0
 11
6.3417512566
 21
19.8344523651
 31
0.0
 11
6.3087349362
 21
19.8353399122
 31
0.0
 11
6.2727094408
 21
19.8359214555
 31
0.0
 11
6.2351778461
 21
19.8361776345
 31
0.0
  0
SPLINE
  5
5E8
100
AcDbEntity
  8
RACCORDO
100
AcDbSpline
 62
253
  6
CONTINUOUS
 70
0
 71
3
 72
14
 73
10
 74
8
 42
0.0000001
 43
0.0000001
 44
0.0000000001
 12
-0.019092196
 22
0.1917638334
 32
0.0
 13
-0.1925334058
 23
0.0082926102
 33
0.0
 40
0.0
 40
0.0
 40
0.0
 40
0.0
 40
0.0236834934
 40
0.0811297125
 40
0.1732530962
 40
0.2964963612
 40
0.4465070541
 40
0.6180283968
 40
1.0
 40
1.0
 40
1.0
 40
1.0
 10
6.4271816247
 20
20.554352156
 30
0.0
 10
6.4270309014
 20
20.5558660351
 30
0.0
 10
6.4201939727
 20
20.5573865478
 30
0.0
 10
6.410562843
 20
20.5580046094
 30
0.0
 10
6.3923269931
 20
20.5596828722
 30
0.0
 10
6.3692290224
 20
20.561173926
 30
0.0
 10
6.3405718222
 20
20.5625608238
 30
0.0
 10
6.2954387339
 20
20.5635718909
 30
0.0
 10
6.2598402622
 20
20.5629433615
 30
0.0
 10
6.2353261643
 20
20.5639992087
 30
0.0
 11
6.4271816247
 21
20.554352156
 31
0.0
 11
6.4232375075
 21
20.5566488641
 31
0.0
 11
6.4122422421
 21
20.5579379219
 31
0.0
 11
6.3945500914
 21
20.5594098287
 31
0.0
 11
6.370853693
 21
20.561011182
 31
0.0
 11
6.341977086
 21
20.5623760997
 31
0.0
 11
6.3089315406
 21
20.5631326856
 31
0.0
 11
6.2353261643
 21
20.5639992087
 31
0.0
  0
SPLINE
  5
5E9
100
AcDbEntity
  8
RACCORDO
100
AcDbSpline
 62
253
  6
CONTINUOUS
 70
0
 71
3
 72
14
 73
10
 74
8
 42
0.0000001
 43
0.0000001
 44
0.0000000001
 12
0.1863615676
 22
-0.0414986326
 32
0.0
 13
0.0082274561
 23
-0.1907487336
 33
0.0
 40
0.0
 40
0.0
 40
0.0
 40
0.0
 40
0.0242486136
 40
0.082543605
 40
0.1750698358
 40
0.2983124632
 40
0.4480150904
 40
0.6190387078
 40
1.0
 40
1.0
 40
1.0
 40
1.0
 10
6.2271892401
 20
20.754321695
 30
0.0
 10
6.2286955767
 20
20.7539862669
 30
0.0
 10
6.2295618212
 20
20.7470845353
 30
0.0
 10
6.2303346446
 20
20.7374038469
 30
0.0
 10
6.2315707124
 20
20.7192507692
 30
0.0
 10
6.2329183617
 20
20.6963414662
 30
0.0
 10
6.2340934245
 20
20.6679968381
 30
0.0
 10
6.2349412088
 20
20.6233941748
 30
0.0
 10
6.2342813836
 20
20.5882218367
 30
0.0
 10
6.2353261643
 20
20.5639992087
 30
0.0
 11
6.2271892401
 21
20.754321695
 31
0.0
 11
6.2291612147
 21
20.7501329753
 31
0.0
 11
6.2301856932
 21
20.7390501908
 31
0.0
 11
6.2313995339
 21
20.7214262716
 31
0.0
 11
6.2327628798
 21
20.6979355686
 31
0.0
 11
6.2339364769
 21
20.6693775363
 31
0.0
 11
6.2345601976
 21
20.6367306239
 31
0.0
 11
6.2353261643
 21
20.5639992087
 31
0.0
  0
SPLINE
  5
5EA
100
AcDbEntity
  8
RACCORDO
100
AcDbSpline
 62
253
  6
CONTINUOUS
 70
0
 71
3
 72
14
 73
10
 74
8
 42
0.0000001
 43
0.0000001
 44
0.0000000001
 12
0.0269570546
 22
-0.188632174
 32
0.0
 13
-0.0075466016
 23
-0.1903991299
 33
0.0
 40
0.0
 40
0.0
 40
0.0
 40
0.0
 40
0.0225449184
 40
0.0813829984
 40
0.1740877651
 40
0.2973802842
 40
0.4472030705
 40
0.6184867861
 40
1.0
 40
1.0
 40
1.0
 40
1.0
 10
5.6460423798
 20
20.7539271592
 30
0.0
 10
5.6462449613
 20
20.7525095936
 30
0.0
 10
5.6477386835
 20
20.7475362476
 30
0.0
 10
5.6490913101
 20
20.7365267375
 30
0.0
 10
5.65038459
 20
20.7191278058
 30
0.0
 10
5.6511879619
 20
20.6958973698
 30
0.0
 10
5.651881033
 20
20.6676806996
 30
0.0
 10
5.6530207027
 20
20.6230761919
 30
0.0
 10
5.6543793952
 20
20.5879376457
 30
0.0
 10
5.6534196858
 20
20.5637243844
 30
0.0
 11
5.6460423798
 21
20.7539271592
 31
0.0
 11
5.647006446
 21
20.7497408289
 31
0.0
 11
5.648758174
 21
20.7386670072
 31
0.0
 11
5.6501408031
 21
20.7210564336
 31
0.0
 11
5.651094272
 21
20.6975825694
 31
0.0
 11
5.6518519294
 21
20.6690440985
 31
0.0
 11
5.6527240632
 21
20.6364178759
 31
0.0
 11
5.6534196858
 21
20.5637243844
 31
0.0
  0
SPLINE
  5
5EB
100
AcDbEntity
  8
RACCORDO
100
AcDbSpline
 62
253
  6
CONTINUOUS
 70
0
 71
3
 72
14
 73
10
 74
8
 42
0.0000001
 43
0.0000001
 44
0.0000000001
 12
0.0386757721
 22
0.2045641535
 32
0.0
 13
0.2080022954
 23
0.0087950771
 33
0.0
 40
0.0
 40
0.0
 40
0.0
 40
0.0
 40
0.0252364308
 40
0.0846995374
 40
0.1788713838
 40
0.3037716212
 40
0.4545816312
 40
0.6255285658
 40
1.0
 40
1.0
 40
1.0
 40
1.0
 10
5.4460728408
 20
20.5539576202
 30
0.0
 10
5.4463981869
 20
20.5556784433
 30
0.0
 10
5.4539971934
 20
20.5570976959
 30
0.0
 10
5.4648712593
 20
20.5578414085
 30
0.0
 10
5.4849233305
 20
20.5595160217
 30
0.0
 10
5.5102180648
 20
20.5611089647
 30
0.0
 10
5.5413007059
 20
20.5625161385
 30
0.0
 10
5.5895613358
 20
20.5634725251
 30
0.0
 10
5.6274560465
 20
20.5626265494
 30
0.0
 10
5.6534196858
 20
20.5637243844
 30
0.0
 11
5.4460728408
 21
20.5539576202
 31
0.0
 11
5.4507089803
 21
20.5564294513
 31
0.0
 11
5.4630189531
 21
20.5577397749
 31
0.0
 11
5.4825652138
 21
20.5592622314
 31
0.0
 11
5.5085142987
 21
20.5609319635
 31
0.0
 11
5.5398801443
 21
20.5623271042
 31
0.0
 11
5.5754622055
 21
20.5630362467
 31
0.0
 11
5.6534196858
 21
20.5637243844
 31
0.0
  0
SPLINE
  5
5EC
100
AcDbEntity
  8
RACCORDO
100
AcDbSpline
 62
253
  6
CONTINUOUS
 70
0
 71
3
 72
17
 73
13
 74
11
 42
0.0000001
 43
0.0000001
 44
0.0000000001
 12
0.0712797399
 22
0.1955625133
 32
0.0
 13
0.2081476848
 23
-0.0001980459
 33
0.0
 40
0.0
 40
0.0
 40
0.0
 40
0.0
 40
0.0078751751
 40
0.0243608972
 40
0.0498250016
 40
0.0841870673
 40
0.1784761058
 40
0.3034028687
 40
0.4542835556
 40
0.6253340159
 40
0.8100302594
 40
1.0
 40
1.0
 40
1.0
 40
1.0
 10
5.4464332354
 20
20.1267659188
 30
0.0
 10
5.4466203489
 20
20.1272792818
 30
0.0
 10
5.448448784
 20
20.1279972995
 30
0.0
 10
5.4515962212
 20
20.1288382826
 30
0.0
 10
5.4569284363
 20
20.1297090892
 30
0.0
 10
5.4674846053
 20
20.1309988235
 30
0.0
 10
5.4850731817
 20
20.1323737278
 30
0.0
 10
5.5106948124
 20
20.1337626839
 30
0.0
 10
5.5416867725
 20
20.134896493
 30
0.0
 10
5.5768260853
 20
20.135741039
 30
0.0
 10
5.6146873508
 20
20.1362418881
 30
0.0
 10
5.6406827288
 20
20.1363418358
 30
0.0
 10
5.653863316
 20
20.1363292949
 30
0.0
 11
5.4464332354
 21
20.1267659188
 31
0.0
 11
5.4477722491
 21
20.1277114449
 31
0.0
 11
5.4510724921
 21
20.1286513162
 31
0.0
 11
5.4562917579
 21
20.1295745772
 31
0.0
 11
5.4633878398
 21
20.1304702725
 31
0.0
 11
5.4829427439
 21
20.1321399196
 31
0.0
 11
5.5089051451
 21
20.133596491
 31
0.0
 11
5.5402881744
 21
20.1347837744
 31
0.0
 11
5.5758812457
 21
20.1356566727
 31
0.0
 11
5.6143218268
 21
20.1361777741
 31
0.0
 11
5.653863316
 21
20.1363292949
 31
0.0
  0
SPLINE
  5
5ED
100
AcDbEntity
  8
RACCORDO
100
AcDbSpline
 62
253
  6
CONTINUOUS
 70
0
 71
3
 72
11
 73
7
 74
5
 42
0.0000001
 43
0.0000001
 44
0.0000000001
 12
0.02600501
 22
-0.0064672279
 32
0.0
 13
0.0016445848
 23
-0.0267466058
 33
0.0
 40
0.0
 40
0.0
 40
0.0
 40
0.0
 40
0.0770266987
 40
0.2696955869
 40
0.5785158724
 40
1.0
 40
1.0
 40
1.0
 40
1.0
 10
5.2469883547
 20
19.9265114192
 30
0.0
 10
5.2476560481
 20
19.9263453695
 30
0.0
 10
5.2480353324
 20
19.9232267157
 30
0.0
 10
5.2490359602
 20
19.9187932856
 30
0.0
 10
5.2497002307
 20
19.9102115419
 30
0.0
 10
5.2501899288
 20
19.9038230981
 30
0.0
 10
5.2504209842
 20
19.9000653415
 30
0.0
 11
5.2469883547
 21
19.9265114192
 31
0.0
 11
5.2478798124
 21
19.9246497572
 31
0.0
 11
5.2487603015
 21
19.919562419
 31
0.0
 11
5.249612725
 21
19.9113309444
 31
0.0
 11
5.2504209842
 21
19.9000653415
 31
0.0
  0
SPLINE
  5
5EE
100
AcDbEntity
  8
RACCORDO
100
AcDbSpline
 62
253
  6
CONTINUOUS
 70
0
 71
3
 72
14
 73
10
 74
8
 42
0.0000001
 43
0.0000001
 44
0.0000000001
 12
-0.0083299207
 22
0.1921950989
 32
0.0
 13
-0.1916557432
 23
0.0166258743
 33
0.0
 40
0.0
 40
0.0
 40
0.0
 40
0.0
 40
0.3814530804
 40
0.5526466283
 40
0.7023764789
 40
0.8254330532
 40
0.9174935881
 40
0.9750762125
 40
1.0
 40
1.0
 40
1.0
 40
1.0
 10
9.2476013917
 20
20.63741881
 30
0.0
 10
9.2465422337
 20
20.6618566142
 30
0.0
 10
9.2470480987
 20
20.6973338858
 30
0.0
 10
9.2457351476
 20
20.7423199911
 30
0.0
 10
9.2440441942
 20
20.7708377248
 30
0.0
 10
9.2422665981
 20
20.7939032306
 30
0.0
 10
9.2400840435
 20
20.8119056218
 30
0.0
 10
9.2393464653
 20
20.8218539632
 30
0.0
 10
9.2371455655
 20
20.8284017759
 30
0.0
 10
9.2355533032
 20
20.8285399025
 30
0.0
 11
9.2476013917
 21
20.63741881
 31
0.0
 11
9.2465073891
 21
20.7107928923
 31
0.0
 11
9.2455179231
 21
20.7437114741
 31
0.0
 11
9.2438551981
 21
20.7724678028
 31
0.0
 11
9.2418951532
 21
20.7960595944
 31
0.0
 11
9.240022087
 21
20.8136704602
 31
0.0
 11
9.2383062449
 21
20.8246142539
 31
0.0
 11
9.2355533032
 21
20.8285399025
 31
0.0
  0
SPLINE
  5
5EF
100
AcDbEntity
  8
RACCORDO
100
AcDbSpline
 62
253
  6
CONTINUOUS
 70
0
 71
3
 72
14
 73
10
 74
8
 42
0.0000001
 43
0.0000001
 44
0.0000000001
 12
0.1883664377
 22
-0.0081936247
 32
0.0
 13
0.0578868863
 23
-0.1794384539
 33
0.0
 40
0.0
 40
0.0
 40
0.0
 40
0.0
 40
0.3796456929
 40
0.5499166039
 40
0.6990754743
 40
0.8221439424
 40
0.9149875104
 40
0.9741919958
 40
1.0
 40
1.0
 40
1.0
 40
1.0
 10
9.2476013917
 20
20.63741881
 30
0.0
 10
9.2714388939
 20
20.6363819186
 30
0.0
 10
9.3060385039
 20
20.6369524002
 30
0.0
 10
9.3499272576
 20
20.6359882109
 30
0.0
 10
9.3778013684
 20
20.6347314851
 30
0.0
 10
9.4004490427
 20
20.6332867722
 30
0.0
 10
9.418302866
 20
20.6319593716
 30
0.0
 10
9.428255386
 20
20.6310370042
 30
0.0
 10
9.4349867865
 20
20.6300911671
 30
0.0
 10
9.4354847682
 20
20.6285475176
 30
0.0
 11
9.2476013917
 21
20.63741881
 31
0.0
 11
9.3191760795
 21
20.6365362158
 31
0.0
 11
9.3512718874
 21
20.6358265038
 31
0.0
 11
9.3793667214
 21
20.6345660745
 31
0.0
 11
9.4025246484
 21
20.6331063069
 31
0.0
 11
9.4199792214
 21
20.6317765922
 31
0.0
 11
9.4310817102
 21
20.6306189024
 31
0.0
 11
9.4354847682
 21
20.6285475176
 31
0.0
  0
SPLINE
  5
5F0
100
AcDbEntity
  8
RACCORDO
100
AcDbSpline
 62
253
  6
CONTINUOUS
 70
0
 71
3
 72
14
 73
10
 74
8
 42
0.0000001
 43
0.0000001
 44
0.0000000001
 12
0.1883664385
 22
0.0081936251
 32
0.0
 13
0.057886755
 23
0.1794384971
 33
0.0
 40
0.0
 40
0.0
 40
0.0
 40
0.0
 40
0.3796456884
 40
0.5499165975
 40
0.6990754675
 40
0.8221439364
 40
0.9149875045
 40
0.9741919891
 40
1.0
 40
1.0
 40
1.0
 40
1.0
 10
9.2476013917
 20
-20.63741881
 30
0.0
 10
9.2714388937
 20
-20.6363819186
 30
0.0
 10
9.3060385034
 20
-20.6369524011
 30
0.0
 10
9.349927257
 20
-20.6359882105
 30
0.0
 10
9.3778013677
 20
-20.6347314842
 30
0.0
 10
9.4004490422
 20
-20.6332867714
 30
0.0
 10
9.4183028655
 20
-20.6319593697
 30
0.0
 10
9.4282553863
 20
-20.6310370094
 30
0.0
 10
9.4349867875
 20
-20.6300911681
 30
0.0
 10
9.4354847682
 20
-20.6285475178
 30
0.0
 11
9.2476013917
 21
-20.63741881
 31
0.0
 11
9.319176079
 21
-20.6365362162
 31
0.0
 11
9.3512718867
 21
-20.6358265034
 31
0.0
 11
9.3793667206
 21
-20.6345660737
 31
0.0
 11
9.4025246479
 21
-20.6331063058
 31
0.0
 11
9.4199792211
 21
-20.6317765927
 31
0.0
 11
9.4310817101
 21
-20.6306189054
 31
0.0
 11
9.4354847682
 21
-20.6285475178
 31
0.0
  0
SPLINE
  5
5F1
100
AcDbEntity
  8
RACCORDO
100
AcDbSpline
 62
7
  6
CONTINUOUS
 70
0
 71
3
 72
12
 73
8
 74
6
 42
0.0000001
 43
0.0000001
 44
0.0000000001
 12
0.0639406162
 22
0.0053278735
 32
0.0
 13
0.0479681031
 23
0.0426127883
 33
0.0
 40
0.0
 40
0.0
 40
0.0
 40
0.0
 40
0.0407143828
 40
0.1096220729
 40
0.3253287511
 40
0.6290984608
 40
1.0
 40
1.0
 40
1.0
 40
1.0
 10
7.3732594469
 20
-20.8276570971
 30
0.0
 10
7.3741272145
 20
-20.8275847901
 30
0.0
 10
7.3763124582
 20
-20.8265443318
 30
0.0
 10
7.3822164682
 20
-20.8229702534
 30
0.0
 10
7.3922501484
 20
-20.8152505059
 30
0.0
 10
7.406888051
 20
-20.8031206195
 30
0.0
 10
7.4177471696
 20
-20.7936011542
 30
0.0
 10
7.4236776506
 20
-20.7883327713
 30
0.0
 11
7.3732594469
 21
-20.8276570971
 31
0.0
 11
7.3757234283
 21
-20.8267893208
 31
0.0
 11
7.3795341194
 21
-20.8245473894
 31
0.0
 11
7.3906935224
 21
-20.8163608571
 31
0.0
 11
7.4057372547
 21
-20.8039686394
 31
0.0
 11
7.4236776506
 21
-20.7883327713
 31
0.0
  0
SPLINE
  5
5F2
100
AcDbEntity
  8
RACCORDO
100
AcDbSpline
 62
253
  6
CONTINUOUS
 70
0
 71
3
 72
14
 73
10
 74
8
 42
0.0000001
 43
0.0000001
 44
0.0000000001
 12
-0.0083299262
 22
-0.192195097
 32
0.0
 13
-0.1916557385
 23
-0.0166259099
 33
0.0
 40
0.0
 40
0.0
 40
0.0
 40
0.0
 40
0.3814530861
 40
0.5526466366
 40
0.7023764881
 40
0.8254330622
 40
0.9174935974
 40
0.9750762231
 40
1.0
 40
1.0
 40
1.0
 40
1.0
 10
9.2476013917
 20
-20.63741881
 30
0.0
 10
9.246542233
 20
-20.6618566143
 30
0.0
 10
9.2470480969
 20
-20.6973338862
 30
0.0
 10
9.2457351464
 20
-20.7423199916
 30
0.0
 10
9.2440441935
 20
-20.7708377255
 30
0.0
 10
9.2422665972
 20
-20.7939032307
 30
0.0
 10
9.2400840443
 20
-20.8119056231
 30
0.0
 10
9.2393464593
 20
-20.8218539612
 30
0.0
 10
9.2371455648
 20
-20.8284017756
 30
0.0
 10
9.2355533032
 20
-20.8285399025
 30
0.0
 11
9.2476013917
 21
-20.63741881
 31
0.0
 11
9.2465073877
 21
-20.7107928928
 31
0.0
 11
9.245517922
 21
-20.7437114748
 31
0.0
 11
9.2438551972
 21
-20.7724678035
 31
0.0
 11
9.2418951527
 21
-20.7960595948
 31
0.0
 11
9.2400220854
 21
-20.8136704604
 31
0.0
 11
9.2383062415
 21
-20.824614254
 31
0.0
 11
9.2355533032
 21
-20.8285399025
 31
0.0
  0
SPLINE
  5
5F3
100
AcDbEntity
  8
RACCORDO
100
AcDbSpline
 62
253
  6
CONTINUOUS
 70
0
 71
3
 72
11
 73
7
 74
5
 42
0.0000001
 43
0.0000001
 44
0.0000000001
 12
-0.0277255097
 22
0.0021480629
 32
0.0
 13
-0.0052876497
 23
0.0273012604
 33
0.0
 40
0.0
 40
0.0
 40
0.0
 40
0.0
 40
0.4189077099
 40
0.7263750711
 40
0.9193797922
 40
1.0
 40
1.0
 40
1.0
 40
1.0
 10
7.3998191677
 20
-19.831881228
 30
0.0
 10
7.3959476911
 20
-19.8315812813
 30
0.0
 10
7.3893481438
 20
-19.8309844122
 30
0.0
 10
7.3805449573
 20
-19.8299934299
 30
0.0
 10
7.3758745211
 20
-19.8289096428
 30
0.0
 10
7.3727205377
 20
-19.8281469473
 30
0.0
 10
7.3725784406
 20
-19.8274132696
 30
0.0
 11
7.3998191677
 21
-19.831881228
 31
0.0
 11
7.3882173742
 21
-19.8308309525
 31
0.0
 11
7.3797394424
 21
-19.8297213545
 31
0.0
 11
7.3744962177
 21
-19.8285744771
 31
0.0
 11
7.3725784406
 21
-19.8274132696
 31
0.0
  0
SPLINE
  5
5F4
100
AcDbEntity
  8
RACCORDO
100
AcDbSpline
 62
253
  6
CONTINUOUS
 70
0
 71
3
 72
17
 73
13
 74
11
 42
0.0000001
 43
0.0000001
 44
0.0000000001
 12
0.192433833
 22
0.0004500275
 32
0.0
 13
0.0353948423
 23
0.1891512299
 33
0.0
 40
0.0
 40
0.0
 40
0.0
 40
0.0
 40
0.1950403718
 40
0.3822740294
 40
0.5539078678
 40
0.7039719341
 40
0.8272147692
 40
0.9194242609
 40
0.9527381337
 40
0.9772037254
 40
0.9927853379
 40
1.0
 40
1.0
 40
1.0
 40
1.0
 10
6.2351778461
 20
-19.8361776345
 30
0.0
 10
6.2476886349
 20
-19.8361483766
 30
0.0
 10
6.2722091289
 20
-19.8359823428
 30
0.0
 10
6.307736413
 20
-19.8354217221
 30
0.0
 10
6.3403683246
 20
-19.8345626626
 30
0.0
 10
6.3688968116
 20
-19.8334525951
 30
0.0
 10
6.3922837523
 20
-19.832130298
 30
0.0
 10
6.4082410359
 20
-19.8308230596
 30
0.0
 10
6.4177211333
 20
-19.8296276426
 30
0.0
 10
6.4224745057
 20
-19.8287913795
 30
0.0
 10
6.4251865459
 20
-19.8280605832
 30
0.0
 10
6.4267950024
 20
-19.8273273951
 30
0.0
 10
6.426880123
 20
-19.8268725077
 30
0.0
 11
6.2351778461
 21
-19.8361776345
 31
0.0
 11
6.2727094408
 21
-19.8359214555
 31
0.0
 11
6.3087349362
 21
-19.8353399122
 31
0.0
 11
6.3417512566
 21
-19.834452365
 31
0.0
 11
6.3706054636
 21
-19.8332931705
 31
0.0
 11
6.3942808177
 21
-19.831902608
 31
0.0
 11
6.4119552367
 21
-19.8303296536
 31
0.0
 11
6.4183109108
 21
-19.8294912534
 31
0.0
 11
6.4229393686
 21
-19.8286293745
 31
0.0
 11
6.425806982
 21
-19.8277533487
 31
0.0
 11
6.426880123
 21
-19.8268725077
 31
0.0
  0
SPLINE
  5
5F5
100
AcDbEntity
  8
RACCORDO
100
AcDbSpline
 62
253
  6
CONTINUOUS
 70
0
 71
3
 72
14
 73
10
 74
8
 42
0.0000001
 43
0.0000001
 44
0.0000000001
 12
0.1925334056
 22
0.0082926105
 32
0.0
 13
0.0190922053
 23
0.1917638322
 33
0.0
 40
0.0
 40
0.0
 40
0.0
 40
0.0
 40
0.3819716043
 40
0.5534929475
 40
0.7035036405
 40
0.8267469054
 40
0.918870289
 40
0.9763165083
 40
1.0
 40
1.0
 40
1.0
 40
1.0
 10
6.2353261643
 20
-20.5639992087
 30
0.0
 10
6.2598402623
 20
-20.5629433614
 30
0.0
 10
6.295438734
 20
-20.5635718906
 30
0.0
 10
6.3405718224
 20
-20.5625608238
 30
0.0
 10
6.3692290226
 20
-20.5611739261
 30
0.0
 10
6.3923269931
 20
-20.5596828722
 30
0.0
 10
6.4105628432
 20
-20.5580046098
 30
0.0
 10
6.4201939724
 20
-20.5573865466
 30
0.0
 10
6.4270309014
 20
-20.555866035
 30
0.0
 10
6.4271816247
 20
-20.554352156
 30
0.0
 11
6.2353261643
 21
-20.5639992087
 31
0.0
 11
6.3089315408
 21
-20.5631326855
 31
0.0
 11
6.3419770862
 21
-20.5623760996
 31
0.0
 11
6.3708536932
 21
-20.5610111821
 31
0.0
 11
6.3945500915
 21
-20.5594098289
 31
0.0
 11
6.4122422421
 21
-20.5579379218
 31
0.0
 11
6.4232375075
 21
-20.5566488634
 31
0.0
 11
6.4271816247
 21
-20.554352156
 31
0.0
  0
SPLINE
  5
5F6
100
AcDbEntity
  8
RACCORDO
100
AcDbSpline
 62
253
  6
CONTINUOUS
 70
0
 71
3
 72
14
 73
10
 74
8
 42
0.0000001
 43
0.0000001
 44
0.0000000001
 12
-0.0082274561
 22
-0.1907487336
 32
0.0
 13
-0.1863615677
 23
-0.0414986322
 33
0.0
 40
0.0
 40
0.0
 40
0.0
 40
0.0
 40
0.3809612921
 40
0.5519849095
 40
0.7016875368
 40
0.8249301641
 40
0.917456395
 40
0.9757513863
 40
1.0
 40
1.0
 40
1.0
 40
1.0
 10
6.2353261643
 20
-20.5639992087
 30
0.0
 10
6.2342813836
 20
-20.5882218367
 30
0.0
 10
6.2349412088
 20
-20.6233941748
 30
0.0
 10
6.2340934245
 20
-20.667996838
 30
0.0
 10
6.2329183616
 20
-20.6963414662
 30
0.0
 10
6.2315707123
 20
-20.7192507692
 30
0.0
 10
6.2303346445
 20
-20.7374038469
 30
0.0
 10
6.229561821
 20
-20.7470845353
 30
0.0
 10
6.2286955764
 20
-20.7539862669
 30
0.0
 10
6.2271892399
 20
-20.754321695
 30
0.0
 11
6.2353261643
 21
-20.5639992087
 31
0.0
 11
6.2345601976
 21
-20.6367306239
 31
0.0
 11
6.2339364768
 21
-20.6693775363
 31
0.0
 11
6.2327628797
 21
-20.6979355686
 31
0.0
 11
6.2313995337
 21
-20.7214262716
 31
0.0
 11
6.230185693
 21
-20.7390501908
 31
0.0
 11
6.2291612145
 21
-20.7501329753
 31
0.0
 11
6.2271892399
 21
-20.754321695
 31
0.0
  0
SPLINE
  5
5F7
100
AcDbEntity
  8
RACCORDO
100
AcDbSpline
 62
253
  6
CONTINUOUS
 70
0
 71
3
 72
14
 73
10
 74
8
 42
0.0000001
 43
0.0000001
 44
0.0000000001
 12
0.0075466019
 22
-0.1903991298
 32
0.0
 13
-0.0269559945
 23
-0.1886323254
 33
0.0
 40
0.0
 40
0.0
 40
0.0
 40
0.0
 40
0.3815132127
 40
0.5527969277
 40
0.7026197142
 40
0.8259122339
 40
0.9186170016
 40
0.977455083
 40
1.0
 40
1.0
 40
1.0
 40
1.0
 10
5.6534196858
 20
-20.5637243844
 30
0.0
 10
5.6543793952
 20
-20.5879376456
 30
0.0
 10
5.6530207019
 20
-20.6230761916
 30
0.0
 10
5.6518810333
 20
-20.6676806993
 30
0.0
 10
5.6511879614
 20
-20.6958973694
 30
0.0
 10
5.6503845925
 20
-20.7191278058
 30
0.0
 10
5.6490913055
 20
-20.7365267369
 30
0.0
 10
5.6477386902
 20
-20.7475362484
 30
0.0
 10
5.6462449534
 20
-20.7525095925
 30
0.0
 10
5.6460423798
 20
-20.7539271592
 30
0.0
 11
5.6534196858
 21
-20.5637243844
 31
0.0
 11
5.6527240628
 21
-20.6364178756
 31
0.0
 11
5.6518519294
 21
-20.6690440981
 31
0.0
 11
5.6510942723
 21
-20.697582569
 31
0.0
 11
5.6501408034
 21
-20.7210564334
 31
0.0
 11
5.6487581737
 21
-20.738667007
 31
0.0
 11
5.6470064446
 21
-20.7497408289
 31
0.0
 11
5.6460423798
 21
-20.7539271592
 31
0.0
  0
SPLINE
  5
5F8
100
AcDbEntity
  8
RACCORDO
100
AcDbSpline
 62
253
  6
CONTINUOUS
 70
0
 71
3
 72
14
 73
10
 74
8
 42
0.0000001
 43
0.0000001
 44
0.0000000001
 12
-0.2080022954
 22
0.0087950771
 32
0.0
 13
-0.0386757719
 23
0.2045641536
 33
0.0
 40
0.0
 40
0.0
 40
0.0
 40
0.0
 40
0.3744714341
 40
0.5454183688
 40
0.6962283788
 40
0.8211286161
 40
0.9153004626
 40
0.9747635692
 40
1.0
 40
1.0
 40
1.0
 40
1.0
 10
5.6534196858
 20
-20.5637243844
 30
0.0
 10
5.6274560465
 20
-20.5626265494
 30
0.0
 10
5.5895613358
 20
-20.5634725251
 30
0.0
 10
5.5413007059
 20
-20.5625161385
 30
0.0
 10
5.5102180648
 20
-20.5611089646
 30
0.0
 10
5.4849233305
 20
-20.5595160216
 30
0.0
 10
5.4648712593
 20
-20.5578414083
 30
0.0
 10
5.4539971934
 20
-20.5570976957
 30
0.0
 10
5.4463981869
 20
-20.555678443
 30
0.0
 10
5.4460728408
 20
-20.55395762
 30
0.0
 11
5.6534196858
 21
-20.5637243844
 31
0.0
 11
5.5754622055
 21
-20.5630362467
 31
0.0
 11
5.5398801443
 21
-20.5623271042
 31
0.0
 11
5.5085142987
 21
-20.5609319634
 31
0.0
 11
5.4825652138
 21
-20.5592622313
 31
0.0
 11
5.4630189531
 21
-20.5577397747
 31
0.0
 11
5.4507089803
 21
-20.5564294511
 31
0.0
 11
5.4460728408
 21
-20.55395762
 31
0.0
  0
SPLINE
  5
5F9
100
AcDbEntity
  8
RACCORDO
100
AcDbSpline
 62
253
  6
CONTINUOUS
 70
0
 71
3
 72
17
 73
13
 74
11
 42
0.0000001
 43
0.0000001
 44
0.0000000001
 12
-0.2081468104
 22
-0.0001979375
 32
0.0
 13
-0.0712802544
 23
0.1955613949
 33
0.0
 40
0.0
 40
0.0
 40
0.0
 40
0.0
 40
0.1899706037
 40
0.374667331
 40
0.5457178884
 40
0.6965983638
 40
0.8215247178
 40
0.9158133131
 40
0.9501751978
 40
0.9756391703
 40
0.9921248216
 40
1.0
 40
1.0
 40
1.0
 40
1.0
 10
5.653863384
 20
-20.1363293819
 30
0.0
 10
5.6406827923
 20
-20.136341916
 30
0.0
 10
5.61468743
 20
-20.1362419553
 30
0.0
 10
5.5768262237
 20
-20.1357410876
 30
0.0
 10
5.5416870334
 20
-20.1348965252
 30
0.0
 10
5.5106952407
 20
-20.1337627027
 30
0.0
 10
5.4850737917
 20
-20.1323737372
 30
0.0
 10
5.4674853633
 20
-20.1309988267
 30
0.0
 10
5.4569292906
 20
-20.1297090904
 30
0.0
 10
5.4515971289
 20
-20.1288382821
 30
0.0
 10
5.448449714
 20
-20.1279972995
 30
0.0
 10
5.4466213005
 20
-20.127279279
 30
0.0
 10
5.4464341856
 20
-20.1267659187
 30
0.0
 11
5.653863384
 21
-20.1363293819
 31
0.0
 11
5.6143218813
 21
-20.1361778409
 31
0.0
 11
5.5758813614
 21
-20.1356567203
 31
0.0
 11
5.5402884198
 21
-20.1347838052
 31
0.0
 11
5.5089055672
 21
-20.1335965082
 31
0.0
 11
5.4829433612
 21
-20.1321399273
 31
0.0
 11
5.4633886329
 21
-20.1304702748
 31
0.0
 11
5.4562926194
 21
-20.1295745782
 31
0.0
 11
5.4510734043
 21
-20.1286513165
 31
0.0
 11
5.4477731917
 21
-20.1277114449
 31
0.0
 11
5.4464341856
 21
-20.1267659187
 31
0.0
  0
SPLINE
  5
5FA
100
AcDbEntity
  8
RACCORDO
100
AcDbSpline
 62
7
  6
CONTINUOUS
 70
0
 71
3
 72
11
 73
7
 74
5
 42
0.0000001
 43
0.0000001
 44
0.0000000001
 12
0.0431929372
 22
0.0041625388
 32
0.0
 13
0.0326238222
 23
0.0286119342
 33
0.0
 40
0.0
 40
0.0
 40
0.0
 40
0.0
 40
0.1076044101
 40
0.3191488549
 40
0.6216753064
 40
1.0
 40
1.0
 40
1.0
 40
1.0
 10
5.0242226309
 20
-19.9264446552
 30
0.0
 10
5.025771881
 20
-19.9262953527
 30
0.0
 10
5.0297505419
 20
-19.9234497618
 30
0.0
 10
5.0369596862
 20
-19.9184068438
 30
0.0
 10
5.0469456529
 20
-19.910064304
 30
0.0
 10
5.0543966464
 20
-19.9036706131
 30
0.0
 10
5.0585107789
 20
-19.9000624127
 30
0.0
 11
5.0242226309
 21
-19.9264446552
 31
0.0
 11
5.0284232069
 21
-19.924405693
 31
0.0
 11
5.0358692649
 21
-19.9190372196
 31
0.0
 11
5.0460643406
 21
-19.9107672221
 31
0.0
 11
5.0585107789
 21
-19.9000624127
 31
0.0
  0
SPLINE
  5
5FB
100
AcDbEntity
  8
RACCORDO
100
AcDbSpline
 62
253
  6
CONTINUOUS
 70
0
 71
3
 72
11
 73
7
 74
5
 42
0.0000001
 43
0.0000001
 44
0.0000000001
 12
-0.0016445848
 22
-0.0267466058
 32
0.0
 13
-0.0260050096
 23
-0.0064672294
 33
0.0
 40
0.0
 40
0.0
 40
0.0
 40
0.0
 40
0.4214841268
 40
0.7303044123
 40
0.9229733009
 40
1.0
 40
1.0
 40
1.0
 40
1.0
 10
5.2504209842
 20
-19.9000653415
 30
0.0
 10
5.2501899288
 20
-19.9038230981
 30
0.0
 10
5.2497002307
 20
-19.9102115418
 30
0.0
 10
5.2490359602
 20
-19.9187932856
 30
0.0
 10
5.2480353325
 20
-19.9232267157
 30
0.0
 10
5.2476560482
 20
-19.9263453695
 30
0.0
 10
5.2469883549
 20
-19.9265114192
 30
0.0
 11
5.2504209842
 21
-19.9000653415
 31
0.0
 11
5.249612725
 21
-19.9113309444
 31
0.0
 11
5.2487603016
 21
-19.919562419
 31
0.0
 11
5.2478798125
 21
-19.9246497571
 31
0.0
 11
5.2469883549
 21
-19.9265114192
 31
0.0
  0
SPLINE
  5
5FC
100
AcDbEntity
  8
RACCORDO
100
AcDbSpline
 62
7
  6
CONTINUOUS
 70
0
 71
3
 72
11
 73
7
 74
5
 42
0.0000001
 43
0.0000001
 44
0.0000000001
 12
-0.0431675472
 22
0.0041600919
 32
0.0
 13
-0.0326053403
 23
0.0285943226
 33
0.0
 40
0.0
 40
0.0
 40
0.0
 40
0.0
 40
0.1076102542
 40
0.319151165
 40
0.6216728259
 40
1.0
 40
1.0
 40
1.0
 40
1.0
 10
-5.0242226309
 20
-19.9264446552
 30
0.0
 10
-5.0257710545
 20
-19.9262954324
 30
0.0
 10
-5.0297476158
 20
-19.9234519449
 30
0.0
 10
-5.036952683
 20
-19.9184121566
 30
0.0
 10
-5.0469330095
 20
-19.910074986
 30
0.0
 10
-5.0543797594
 20
-19.9036852464
 30
0.0
 10
-5.0584915881
 20
-19.9000792433
 30
0.0
 11
-5.0242226309
 21
-19.9264446552
 31
0.0
 11
-5.0284210933
 21
-19.9244070438
 31
0.0
 11
-5.0358628924
 21
-19.919042152
 31
0.0
 11
-5.0460520973
 21
-19.9107774961
 31
0.0
 11
-5.0584915881
 21
-19.9000792433
 31
0.0
  0
SPLINE
  5
5FD
100
AcDbEntity
  8
RACCORDO
100
AcDbSpline
 62
7
  6
CONTINUOUS
 70
0
 71
3
 72
12
 73
8
 74
6
 42
0.0000001
 43
0.0000001
 44
0.0000000001
 12
-0.0639406387
 22
0.0053280497
 32
0.0
 13
-0.0479678781
 23
0.0426130973
 33
0.0
 40
0.0
 40
0.0
 40
0.0
 40
0.0
 40
0.0407137027
 40
0.1096209717
 40
0.3253274444
 40
0.6290976059
 40
1.0
 40
1.0
 40
1.0
 40
1.0
 10
-7.3732593761
 20
-20.827657103
 30
0.0
 10
-7.3741271295
 20
-20.8275847948
 30
0.0
 10
-7.3763123429
 20
-20.8265443196
 30
0.0
 10
-7.3822163052
 20
-20.8229702159
 30
0.0
 10
-7.3922499495
 20
-20.8152504121
 30
0.0
 10
-7.4068878362
 20
-20.8031204548
 30
0.0
 10
-7.4177469339
 20
-20.7936009096
 30
0.0
 10
-7.4236774009
 20
-20.7883324763
 30
0.0
 11
-7.3732593761
 21
-20.827657103
 31
0.0
 11
-7.3757233107
 21
-20.8267893206
 31
0.0
 11
-7.3795339638
 21
-20.8245473729
 31
0.0
 11
-7.3906933189
 21
-20.8163607842
 31
0.0
 11
-7.4057370325
 21
-20.8039684805
 31
0.0
 11
-7.4236774009
 21
-20.7883324763
 31
0.0
  0
SPLINE
  5
5FE
100
AcDbEntity
  8
RACCORDO
100
AcDbSpline
 62
253
  6
CONTINUOUS
 70
0
 71
3
 72
11
 73
7
 74
5
 42
0.0000001
 43
0.0000001
 44
0.0000000001
 12
-0.0052876778
 22
-0.0273001962
 32
0.0
 13
-0.0277244684
 23
-0.0021480457
 33
0.0
 40
0.0
 40
0.0
 40
0.0
 40
0.0
 40
0.0806208572
 40
0.2736255322
 40
0.5810925357
 40
1.0
 40
1.0
 40
1.0
 40
1.0
 10
-7.3725794066
 20
-19.8274132696
 30
0.0
 10
-7.3727215057
 20
-19.8281469247
 30
0.0
 10
-7.3758753469
 20
-19.8289096256
 30
0.0
 10
-7.3805456299
 20
-19.8299933839
 30
0.0
 10
-7.389348465
 20
-19.8309843617
 30
0.0
 10
-7.3959477628
 20
-19.8315812225
 30
0.0
 10
-7.3998190917
 20
-19.8318811666
 30
0.0
 11
-7.3725794066
 21
-19.8274132696
 31
0.0
 11
-7.3744971182
 21
-19.8285744585
 31
0.0
 11
-7.3797401401
 21
-19.8297213183
 31
0.0
 11
-7.3882177414
 21
-19.8308309015
 31
0.0
 11
-7.3998190917
 21
-19.8318811666
 31
0.0
  0
SPLINE
  5
5FF
100
AcDbEntity
  8
RACCORDO
100
AcDbSpline
 62
253
  6
CONTINUOUS
 70
0
 71
3
 72
17
 73
13
 74
11
 42
0.0000001
 43
0.0000001
 44
0.0000000001
 12
0.0353948423
 22
-0.1891512299
 32
0.0
 13
0.192433833
 23
-0.0004500275
 33
0.0
 40
0.0
 40
0.0
 40
0.0
 40
0.0
 40
0.0072146621
 40
0.0227962746
 40
0.0472618663
 40
0.0805757391
 40
0.1727852308
 40
0.2960280659
 40
0.4460921322
 40
0.6177259706
 40
0.8049596282
 40
1.0
 40
1.0
 40
1.0
 40
1.0
 10
-6.426880123
 20
-19.8268725077
 30
0.0
 10
-6.4267950024
 20
-19.8273273951
 30
0.0
 10
-6.4251865459
 20
-19.8280605832
 30
0.0
 10
-6.4224745057
 20
-19.8287913795
 30
0.0
 10
-6.4177211333
 20
-19.8296276426
 30
0.0
 10
-6.4082410359
 20
-19.8308230596
 30
0.0
 10
-6.3922837523
 20
-19.832130298
 30
0.0
 10
-6.3688968116
 20
-19.8334525951
 30
0.0
 10
-6.3403683246
 20
-19.8345626626
 30
0.0
 10
-6.307736413
 20
-19.8354217221
 30
0.0
 10
-6.2722091289
 20
-19.8359823428
 30
0.0
 10
-6.2476886349
 20
-19.8361483766
 30
0.0
 10
-6.2351778461
 20
-19.8361776345
 30
0.0
 11
-6.426880123
 21
-19.8268725077
 31
0.0
 11
-6.425806982
 21
-19.8277533487
 31
0.0
 11
-6.4229393686
 21
-19.8286293745
 31
0.0
 11
-6.4183109108
 21
-19.8294912534
 31
0.0
 11
-6.4119552367
 21
-19.8303296536
 31
0.0
 11
-6.3942808177
 21
-19.831902608
 31
0.0
 11
-6.3706054636
 21
-19.8332931705
 31
0.0
 11
-6.3417512566
 21
-19.834452365
 31
0.0
 11
-6.3087349362
 21
-19.8353399122
 31
0.0
 11
-6.2727094408
 21
-19.8359214555
 31
0.0
 11
-6.2351778461
 21
-19.8361776345
 31
0.0
  0
SPLINE
  5
600
100
AcDbEntity
  8
RACCORDO
100
AcDbSpline
 62
253
  6
CONTINUOUS
 70
0
 71
3
 72
14
 73
10
 74
8
 42
0.0000001
 43
0.0000001
 44
0.0000000001
 12
0.019092196
 22
-0.1917638334
 32
0.0
 13
0.1925334058
 23
-0.0082926102
 33
0.0
 40
0.0
 40
0.0
 40
0.0
 40
0.0
 40
0.0236834934
 40
0.0811297125
 40
0.1732530962
 40
0.2964963612
 40
0.4465070541
 40
0.6180283968
 40
1.0
 40
1.0
 40
1.0
 40
1.0
 10
-6.4271816247
 20
-20.554352156
 30
0.0
 10
-6.4270309014
 20
-20.5558660351
 30
0.0
 10
-6.4201939727
 20
-20.5573865478
 30
0.0
 10
-6.410562843
 20
-20.5580046094
 30
0.0
 10
-6.392326993
 20
-20.5596828722
 30
0.0
 10
-6.3692290224
 20
-20.561173926
 30
0.0
 10
-6.3405718222
 20
-20.5625608238
 30
0.0
 10
-6.2954387339
 20
-20.5635718909
 30
0.0
 10
-6.2598402622
 20
-20.5629433615
 30
0.0
 10
-6.2353261643
 20
-20.5639992087
 30
0.0
 11
-6.4271816247
 21
-20.554352156
 31
0.0
 11
-6.4232375075
 21
-20.5566488641
 31
0.0
 11
-6.4122422421
 21
-20.5579379219
 31
0.0
 11
-6.3945500914
 21
-20.5594098287
 31
0.0
 11
-6.370853693
 21
-20.561011182
 31
0.0
 11
-6.341977086
 21
-20.5623760997
 31
0.0
 11
-6.3089315406
 21
-20.5631326856
 31
0.0
 11
-6.2353261643
 21
-20.5639992087
 31
0.0
  0
SPLINE
  5
601
100
AcDbEntity
  8
RACCORDO
100
AcDbSpline
 62
253
  6
CONTINUOUS
 70
0
 71
3
 72
14
 73
10
 74
8
 42
0.0000001
 43
0.0000001
 44
0.0000000001
 12
-0.1863615676
 22
0.0414986326
 32
0.0
 13
-0.0082274561
 23
0.1907487336
 33
0.0
 40
0.0
 40
0.0
 40
0.0
 40
0.0
 40
0.0242486136
 40
0.082543605
 40
0.1750698358
 40
0.2983124632
 40
0.4480150904
 40
0.6190387078
 40
1.0
 40
1.0
 40
1.0
 40
1.0
 10
-6.2271892401
 20
-20.754321695
 30
0.0
 10
-6.2286955767
 20
-20.7539862669
 30
0.0
 10
-6.2295618212
 20
-20.7470845353
 30
0.0
 10
-6.2303346446
 20
-20.7374038469
 30
0.0
 10
-6.2315707124
 20
-20.7192507692
 30
0.0
 10
-6.2329183617
 20
-20.6963414662
 30
0.0
 10
-6.2340934245
 20
-20.667996838
 30
0.0
 10
-6.2349412088
 20
-20.6233941748
 30
0.0
 10
-6.2342813836
 20
-20.5882218367
 30
0.0
 10
-6.2353261643
 20
-20.5639992087
 30
0.0
 11
-6.2271892401
 21
-20.754321695
 31
0.0
 11
-6.2291612147
 21
-20.7501329753
 31
0.0
 11
-6.2301856932
 21
-20.7390501908
 31
0.0
 11
-6.2313995339
 21
-20.7214262716
 31
0.0
 11
-6.2327628798
 21
-20.6979355686
 31
0.0
 11
-6.2339364769
 21
-20.6693775363
 31
0.0
 11
-6.2345601976
 21
-20.6367306239
 31
0.0
 11
-6.2353261643
 21
-20.5639992087
 31
0.0
  0
SPLINE
  5
602
100
AcDbEntity
  8
RACCORDO
100
AcDbSpline
 62
253
  6
CONTINUOUS
 70
0
 71
3
 72
14
 73
10
 74
8
 42
0.0000001
 43
0.0000001
 44
0.0000000001
 12
-0.0269570546
 22
0.188632174
 32
0.0
 13
0.0075466016
 23
0.1903991299
 33
0.0
 40
0.0
 40
0.0
 40
0.0
 40
0.0
 40
0.0225449184
 40
0.0813829984
 40
0.1740877651
 40
0.2973802842
 40
0.4472030705
 40
0.6184867861
 40
1.0
 40
1.0
 40
1.0
 40
1.0
 10
-5.6460423798
 20
-20.7539271592
 30
0.0
 10
-5.6462449613
 20
-20.7525095936
 30
0.0
 10
-5.6477386835
 20
-20.7475362476
 30
0.0
 10
-5.6490913101
 20
-20.7365267375
 30
0.0
 10
-5.65038459
 20
-20.7191278058
 30
0.0
 10
-5.6511879619
 20
-20.6958973698
 30
0.0
 10
-5.651881033
 20
-20.6676806996
 30
0.0
 10
-5.6530207027
 20
-20.6230761919
 30
0.0
 10
-5.6543793952
 20
-20.5879376457
 30
0.0
 10
-5.6534196858
 20
-20.5637243844
 30
0.0
 11
-5.6460423798
 21
-20.7539271592
 31
0.0
 11
-5.647006446
 21
-20.7497408289
 31
0.0
 11
-5.648758174
 21
-20.7386670072
 31
0.0
 11
-5.6501408031
 21
-20.7210564336
 31
0.0
 11
-5.651094272
 21
-20.6975825694
 31
0.0
 11
-5.6518519294
 21
-20.6690440985
 31
0.0
 11
-5.6527240632
 21
-20.6364178759
 31
0.0
 11
-5.6534196858
 21
-20.5637243844
 31
0.0
  0
SPLINE
  5
603
100
AcDbEntity
  8
RACCORDO
100
AcDbSpline
 62
253
  6
CONTINUOUS
 70
0
 71
3
 72
14
 73
10
 74
8
 42
0.0000001
 43
0.0000001
 44
0.0000000001
 12
-0.0386757721
 22
-0.2045641535
 32
0.0
 13
-0.2080022954
 23
-0.0087950771
 33
0.0
 40
0.0
 40
0.0
 40
0.0
 40
0.0
 40
0.0252364308
 40
0.0846995374
 40
0.1788713838
 40
0.3037716212
 40
0.4545816312
 40
0.6255285658
 40
1.0
 40
1.0
 40
1.0
 40
1.0
 10
-5.4460728408
 20
-20.5539576202
 30
0.0
 10
-5.4463981869
 20
-20.5556784433
 30
0.0
 10
-5.4539971934
 20
-20.5570976959
 30
0.0
 10
-5.4648712593
 20
-20.5578414085
 30
0.0
 10
-5.4849233305
 20
-20.5595160217
 30
0.0
 10
-5.5102180648
 20
-20.5611089647
 30
0.0
 10
-5.5413007059
 20
-20.5625161385
 30
0.0
 10
-5.5895613358
 20
-20.5634725251
 30
0.0
 10
-5.6274560465
 20
-20.5626265494
 30
0.0
 10
-5.6534196858
 20
-20.5637243844
 30
0.0
 11
-5.4460728408
 21
-20.5539576202
 31
0.0
 11
-5.4507089803
 21
-20.5564294513
 31
0.0
 11
-5.4630189531
 21
-20.5577397749
 31
0.0
 11
-5.4825652138
 21
-20.5592622314
 31
0.0
 11
-5.5085142987
 21
-20.5609319635
 31
0.0
 11
-5.5398801443
 21
-20.5623271042
 31
0.0
 11
-5.5754622055
 21
-20.5630362467
 31
0.0
 11
-5.6534196858
 21
-20.5637243844
 31
0.0
  0
SPLINE
  5
604
100
AcDbEntity
  8
RACCORDO
100
AcDbSpline
 62
253
  6
CONTINUOUS
 70
0
 71
3
 72
17
 73
13
 74
11
 42
0.0000001
 43
0.0000001
 44
0.0000000001
 12
-0.0712797399
 22
-0.1955625133
 32
0.0
 13
-0.2081476848
 23
0.0001980459
 33
0.0
 40
0.0
 40
0.0
 40
0.0
 40
0.0
 40
0.0078751751
 40
0.0243608972
 40
0.0498250016
 40
0.0841870673
 40
0.1784761058
 40
0.3034028687
 40
0.4542835556
 40
0.6253340159
 40
0.8100302594
 40
1.0
 40
1.0
 40
1.0
 40
1.0
 10
-5.4464332354
 20
-20.1267659188
 30
0.0
 10
-5.4466203489
 20
-20.1272792818
 30
0.0
 10
-5.448448784
 20
-20.1279972995
 30
0.0
 10
-5.4515962212
 20
-20.1288382826
 30
0.0
 10
-5.4569284363
 20
-20.1297090892
 30
0.0
 10
-5.4674846053
 20
-20.1309988235
 30
0.0
 10
-5.4850731816
 20
-20.1323737278
 30
0.0
 10
-5.5106948124
 20
-20.1337626839
 30
0.0
 10
-5.5416867725
 20
-20.134896493
 30
0.0
 10
-5.5768260853
 20
-20.135741039
 30
0.0
 10
-5.6146873508
 20
-20.1362418881
 30
0.0
 10
-5.6406827288
 20
-20.1363418358
 30
0.0
 10
-5.653863316
 20
-20.1363292949
 30
0.0
 11
-5.4464332354
 21
-20.1267659188
 31
0.0
 11
-5.4477722491
 21
-20.1277114449
 31
0.0
 11
-5.4510724921
 21
-20.1286513162
 31
0.0
 11
-5.4562917579
 21
-20.1295745772
 31
0.0
 11
-5.4633878398
 21
-20.1304702725
 31
0.0
 11
-5.4829427439
 21
-20.1321399196
 31
0.0
 11
-5.5089051451
 21
-20.133596491
 31
0.0
 11
-5.5402881744
 21
-20.1347837744
 31
0.0
 11
-5.5758812457
 21
-20.1356566727
 31
0.0
 11
-5.6143218268
 21
-20.1361777741
 31
0.0
 11
-5.653863316
 21
-20.1363292949
 31
0.0
  0
SPLINE
  5
605
100
AcDbEntity
  8
RACCORDO
100
AcDbSpline
 62
253
  6
CONTINUOUS
 70
0
 71
3
 72
11
 73
7
 74
5
 42
0.0000001
 43
0.0000001
 44
0.0000000001
 12
-0.02600501
 22
0.0064672279
 32
0.0
 13
-0.0016445848
 23
0.0267466058
 33
0.0
 40
0.0
 40
0.0
 40
0.0
 40
0.0
 40
0.0770266986
 40
0.2696955868
 40
0.5785158724
 40
1.0
 40
1.0
 40
1.0
 40
1.0
 10
-5.2469883547
 20
-19.9265114192
 30
0.0
 10
-5.2476560481
 20
-19.9263453695
 30
0.0
 10
-5.2480353324
 20
-19.9232267157
 30
0.0
 10
-5.2490359602
 20
-19.9187932856
 30
0.0
 10
-5.2497002307
 20
-19.9102115419
 30
0.0
 10
-5.2501899288
 20
-19.9038230981
 30
0.0
 10
-5.2504209842
 20
-19.9000653415
 30
0.0
 11
-5.2469883547
 21
-19.9265114192
 31
0.0
 11
-5.2478798124
 21
-19.9246497572
 31
0.0
 11
-5.2487603015
 21
-19.919562419
 31
0.0
 11
-5.249612725
 21
-19.9113309444
 31
0.0
 11
-5.2504209842
 21
-19.9000653415
 31
0.0
  0
SPLINE
  5
606
100
AcDbEntity
  8
RACCORDO
100
AcDbSpline
 62
253
  6
CONTINUOUS
 70
0
 71
3
 72
14
 73
10
 74
8
 42
0.0000001
 43
0.0000001
 44
0.0000000001
 12
0.0083299207
 22
-0.1921950989
 32
0.0
 13
0.1916557432
 23
-0.0166258743
 33
0.0
 40
0.0
 40
0.0
 40
0.0
 40
0.0
 40
0.3814530804
 40
0.5526466283
 40
0.7023764789
 40
0.8254330532
 40
0.9174935881
 40
0.9750762125
 40
1.0
 40
1.0
 40
1.0
 40
1.0
 10
-9.2476013917
 20
-20.63741881
 30
0.0
 10
-9.2465422337
 20
-20.6618566142
 30
0.0
 10
-9.2470480987
 20
-20.6973338858
 30
0.0
 10
-9.2457351476
 20
-20.7423199911
 30
0.0
 10
-9.2440441942
 20
-20.7708377248
 30
0.0
 10
-9.2422665981
 20
-20.7939032306
 30
0.0
 10
-9.2400840435
 20
-20.8119056218
 30
0.0
 10
-9.2393464653
 20
-20.8218539632
 30
0.0
 10
-9.2371455655
 20
-20.8284017759
 30
0.0
 10
-9.2355533032
 20
-20.8285399025
 30
0.0
 11
-9.2476013917
 21
-20.63741881
 31
0.0
 11
-9.2465073891
 21
-20.7107928923
 31
0.0
 11
-9.2455179231
 21
-20.7437114741
 31
0.0
 11
-9.2438551981
 21
-20.7724678028
 31
0.0
 11
-9.2418951532
 21
-20.7960595944
 31
0.0
 11
-9.240022087
 21
-20.8136704602
 31
0.0
 11
-9.2383062449
 21
-20.8246142539
 31
0.0
 11
-9.2355533032
 21
-20.8285399025
 31
0.0
  0
SPLINE
  5
607
100
AcDbEntity
  8
RACCORDO
100
AcDbSpline
 62
253
  6
CONTINUOUS
 70
0
 71
3
 72
14
 73
10
 74
8
 42
0.0000001
 43
0.0000001
 44
0.0000000001
 12
-0.1883664377
 22
0.0081936247
 32
0.0
 13
-0.0578868863
 23
0.1794384539
 33
0.0
 40
0.0
 40
0.0
 40
0.0
 40
0.0
 40
0.3796456929
 40
0.5499166039
 40
0.6990754743
 40
0.8221439424
 40
0.9149875104
 40
0.9741919958
 40
1.0
 40
1.0
 40
1.0
 40
1.0
 10
-9.2476013917
 20
-20.63741881
 30
0.0
 10
-9.2714388939
 20
-20.6363819186
 30
0.0
 10
-9.3060385039
 20
-20.6369524002
 30
0.0
 10
-9.3499272576
 20
-20.6359882109
 30
0.0
 10
-9.3778013684
 20
-20.6347314851
 30
0.0
 10
-9.4004490427
 20
-20.6332867722
 30
0.0
 10
-9.418302866
 20
-20.6319593716
 30
0.0
 10
-9.428255386
 20
-20.6310370042
 30
0.0
 10
-9.4349867865
 20
-20.6300911671
 30
0.0
 10
-9.4354847682
 20
-20.6285475176
 30
0.0
 11
-9.2476013917
 21
-20.63741881
 31
0.0
 11
-9.3191760795
 21
-20.6365362158
 31
0.0
 11
-9.3512718874
 21
-20.6358265038
 31
0.0
 11
-9.3793667214
 21
-20.6345660745
 31
0.0
 11
-9.4025246484
 21
-20.6331063069
 31
0.0
 11
-9.4199792214
 21
-20.6317765922
 31
0.0
 11
-9.4310817102
 21
-20.6306189024
 31
0.0
 11
-9.4354847682
 21
-20.6285475176
 31
0.0
  0
SPLINE
  5
608
100
AcDbEntity
  8
RACCORDO
100
AcDbSpline
 62
253
  6
CONTINUOUS
 70
0
 71
3
 72
14
 73
10
 74
8
 42
0.0000001
 43
0.0000001
 44
0.0000000001
 12
-0.1883664385
 22
-0.0081936251
 32
0.0
 13
-0.057886755
 23
-0.1794384971
 33
0.0
 40
0.0
 40
0.0
 40
0.0
 40
0.0
 40
0.3796456884
 40
0.5499165975
 40
0.6990754675
 40
0.8221439364
 40
0.9149875045
 40
0.9741919891
 40
1.0
 40
1.0
 40
1.0
 40
1.0
 10
-9.2476013917
 20
20.63741881
 30
0.0
 10
-9.2714388937
 20
20.6363819186
 30
0.0
 10
-9.3060385034
 20
20.6369524011
 30
0.0
 10
-9.349927257
 20
20.6359882105
 30
0.0
 10
-9.3778013677
 20
20.6347314842
 30
0.0
 10
-9.4004490422
 20
20.6332867714
 30
0.0
 10
-9.4183028655
 20
20.6319593697
 30
0.0
 10
-9.4282553862
 20
20.6310370094
 30
0.0
 10
-9.4349867875
 20
20.6300911681
 30
0.0
 10
-9.4354847682
 20
20.6285475178
 30
0.0
 11
-9.2476013917
 21
20.63741881
 31
0.0
 11
-9.319176079
 21
20.6365362162
 31
0.0
 11
-9.3512718867
 21
20.6358265034
 31
0.0
 11
-9.3793667206
 21
20.6345660737
 31
0.0
 11
-9.4025246479
 21
20.6331063058
 31
0.0
 11
-9.4199792211
 21
20.6317765927
 31
0.0
 11
-9.4310817101
 21
20.6306189054
 31
0.0
 11
-9.4354847682
 21
20.6285475178
 31
0.0
  0
SPLINE
  5
609
100
AcDbEntity
  8
ASSI
100
AcDbSpline
 62
253
  6
CONTINUOUS
 70
0
 71
3
 72
14
 73
10
 74
8
 42
0.0000001
 43
0.0000001
 44
0.0000000001
 12
-0.0000000203
 22
0.0500143983
 32
0.0
 13
0.0353703491
 23
0.0353606907
 33
0.0
 40
0.0
 40
0.0
 40
0.0
 40
0.0
 40
0.3784778443
 40
0.5499151366
 40
0.7006962726
 40
0.8251531199
 40
0.9186154914
 40
0.9775909074
 40
1.0
 40
1.0
 40
1.0
 40
1.0
 10
-7.2140249785
 20
24.2368706193
 30
0.0
 10
-7.2140249811
 20
24.2431803999
 30
0.0
 10
-7.2140004537
 20
24.2523510207
 30
0.0
 10
-7.2138852554
 20
24.2640257268
 30
0.0
 10
-7.2138079841
 20
24.2714872784
 30
0.0
 10
-7.2136161458
 20
24.2775895136
 30
0.0
 10
-7.2136473317
 20
24.2823089866
 30
0.0
 10
-7.2131957109
 20
24.2850233636
 30
0.0
 10
-7.2134316627
 20
24.2865988704
 30
0.0
 10
-7.2131674569
 20
24.2868630041
 30
0.0
 11
-7.2140249785
 21
24.2368706193
 31
0.0
 11
-7.2139600121
 21
24.2557998495
 31
0.0
 11
-7.2138810762
 21
24.2643738192
 31
0.0
 11
-7.2137747414
 21
24.2719142972
 31
0.0
 11
-7.2136450076
 21
24.2781375795
 31
0.0
 11
-7.2134967499
 21
24.282809692
 31
0.0
 11
-7.2133355515
 21
24.2857549039
 31
0.0
 11
-7.2131674569
 21
24.2868630041
 31
0.0
  0
SPLINE
  5
60A
100
AcDbEntity
  8
RACCORDO
100
AcDbSpline
 62
7
  6
CONTINUOUS
 70
0
 71
3
 72
12
 73
8
 74
6
 42
0.0000001
 43
0.0000001
 44
0.0000000001
 12
-0.0639406161
 22
-0.0053278753
 32
0.0
 13
-0.0479681004
 23
-0.0426127914
 33
0.0
 40
0.0
 40
0.0
 40
0.0
 40
0.0
 40
0.0407143759
 40
0.1096220619
 40
0.325328738
 40
0.6290984523
 40
1.0
 40
1.0
 40
1.0
 40
1.0
 10
-7.3732594462
 20
20.8276570972
 30
0.0
 10
-7.3741272137
 20
20.8275847901
 30
0.0
 10
-7.376312457
 20
20.8265443317
 30
0.0
 10
-7.3822164665
 20
20.822970253
 30
0.0
 10
-7.3922501463
 20
20.815250505
 30
0.0
 10
-7.4068880486
 20
20.8031206179
 30
0.0
 10
-7.4177471669
 20
20.7936011519
 30
0.0
 10
-7.4236776478
 20
20.7883327684
 30
0.0
 11
-7.3732594462
 21
20.8276570972
 31
0.0
 11
-7.3757234271
 21
20.8267893208
 31
0.0
 11
-7.3795341178
 21
20.8245473892
 31
0.0
 11
-7.3906935203
 21
20.8163608564
 31
0.0
 11
-7.4057372522
 21
20.8039686379
 31
0.0
 11
-7.4236776478
 21
20.7883327684
 31
0.0
  0
SPLINE
  5
60B
100
AcDbEntity
  8
RACCORDO
100
AcDbSpline
 62
253
  6
CONTINUOUS
 70
0
 71
3
 72
14
 73
10
 74
8
 42
0.0000001
 43
0.0000001
 44
0.0000000001
 12
0.0083299262
 22
0.192195097
 32
0.0
 13
0.1916557385
 23
0.0166259102
 33
0.0
 40
0.0
 40
0.0
 40
0.0
 40
0.0
 40
0.3814530861
 40
0.5526466366
 40
0.7023764882
 40
0.8254330623
 40
0.9174935975
 40
0.9750762232
 40
1.0
 40
1.0
 40
1.0
 40
1.0
 10
-9.2476013917
 20
20.63741881
 30
0.0
 10
-9.246542233
 20
20.6618566143
 30
0.0
 10
-9.2470480969
 20
20.6973338862
 30
0.0
 10
-9.2457351464
 20
20.7423199916
 30
0.0
 10
-9.2440441935
 20
20.7708377255
 30
0.0
 10
-9.2422665972
 20
20.7939032307
 30
0.0
 10
-9.2400840443
 20
20.8119056231
 30
0.0
 10
-9.2393464593
 20
20.8218539611
 30
0.0
 10
-9.2371455648
 20
20.8284017756
 30
0.0
 10
-9.2355533032
 20
20.8285399025
 30
0.0
 11
-9.2476013917
 21
20.63741881
 31
0.0
 11
-9.2465073876
 21
20.7107928928
 31
0.0
 11
-9.245517922
 21
20.7437114748
 31
0.0
 11
-9.2438551972
 21
20.7724678035
 31
0.0
 11
-9.2418951527
 21
20.7960595949
 31
0.0
 11
-9.2400220854
 21
20.8136704604
 31
0.0
 11
-9.2383062415
 21
20.824614254
 31
0.0
 11
-9.2355533032
 21
20.8285399025
 31
0.0
  0
SPLINE
  5
60C
100
AcDbEntity
  8
RACCORDO
100
AcDbSpline
 62
253
  6
CONTINUOUS
 70
0
 71
3
 72
11
 73
7
 74
5
 42
0.0000001
 43
0.0000001
 44
0.0000000001
 12
0.0277255097
 22
-0.0021480629
 32
0.0
 13
0.0052876497
 23
-0.0273012604
 33
0.0
 40
0.0
 40
0.0
 40
0.0
 40
0.0
 40
0.4189077099
 40
0.7263750711
 40
0.9193797922
 40
1.0
 40
1.0
 40
1.0
 40
1.0
 10
-7.3998191677
 20
19.831881228
 30
0.0
 10
-7.3959476911
 20
19.8315812813
 30
0.0
 10
-7.3893481438
 20
19.8309844122
 30
0.0
 10
-7.3805449573
 20
19.8299934299
 30
0.0
 10
-7.3758745211
 20
19.8289096428
 30
0.0
 10
-7.3727205377
 20
19.8281469473
 30
0.0
 10
-7.3725784406
 20
19.8274132696
 30
0.0
 11
-7.3998191677
 21
19.831881228
 31
0.0
 11
-7.3882173742
 21
19.8308309525
 31
0.0
 11
-7.3797394424
 21
19.8297213545
 31
0.0
 11
-7.3744962177
 21
19.8285744771
 31
0.0
 11
-7.3725784406
 21
19.8274132696
 31
0.0
  0
SPLINE
  5
60D
100
AcDbEntity
  8
RACCORDO
100
AcDbSpline
 62
253
  6
CONTINUOUS
 70
0
 71
3
 72
17
 73
13
 74
11
 42
0.0000001
 43
0.0000001
 44
0.0000000001
 12
-0.192433833
 22
-0.0004500275
 32
0.0
 13
-0.0353948423
 23
-0.1891512299
 33
0.0
 40
0.0
 40
0.0
 40
0.0
 40
0.0
 40
0.1950403718
 40
0.3822740294
 40
0.5539078678
 40
0.7039719341
 40
0.8272147692
 40
0.9194242609
 40
0.9527381337
 40
0.9772037254
 40
0.9927853379
 40
1.0
 40
1.0
 40
1.0
 40
1.0
 10
-6.2351778461
 20
19.8361776345
 30
0.0
 10
-6.2476886349
 20
19.8361483766
 30
0.0
 10
-6.2722091289
 20
19.8359823428
 30
0.0
 10
-6.307736413
 20
19.8354217221
 30
0.0
 10
-6.3403683246
 20
19.8345626626
 30
0.0
 10
-6.3688968116
 20
19.8334525951
 30
0.0
 10
-6.3922837523
 20
19.832130298
 30
0.0
 10
-6.4082410359
 20
19.8308230596
 30
0.0
 10
-6.4177211333
 20
19.8296276426
 30
0.0
 10
-6.4224745057
 20
19.8287913795
 30
0.0
 10
-6.4251865459
 20
19.8280605832
 30
0.0
 10
-6.4267950024
 20
19.8273273951
 30
0.0
 10
-6.426880123
 20
19.8268725077
 30
0.0
 11
-6.2351778461
 21
19.8361776345
 31
0.0
 11
-6.2727094408
 21
19.8359214555
 31
0.0
 11
-6.3087349362
 21
19.8353399122
 31
0.0
 11
-6.3417512566
 21
19.8344523651
 31
0.0
 11
-6.3706054636
 21
19.8332931705
 31
0.0
 11
-6.3942808177
 21
19.831902608
 31
0.0
 11
-6.4119552367
 21
19.8303296536
 31
0.0
 11
-6.4183109108
 21
19.8294912534
 31
0.0
 11
-6.4229393686
 21
19.8286293745
 31
0.0
 11
-6.425806982
 21
19.8277533487
 31
0.0
 11
-6.426880123
 21
19.8268725077
 31
0.0
  0
SPLINE
  5
60E
100
AcDbEntity
  8
RACCORDO
100
AcDbSpline
 62
253
  6
CONTINUOUS
 70
0
 71
3
 72
14
 73
10
 74
8
 42
0.0000001
 43
0.0000001
 44
0.0000000001
 12
-0.1925334056
 22
-0.0082926105
 32
0.0
 13
-0.0190922053
 23
-0.1917638322
 33
0.0
 40
0.0
 40
0.0
 40
0.0
 40
0.0
 40
0.3819716043
 40
0.5534929475
 40
0.7035036405
 40
0.8267469054
 40
0.918870289
 40
0.9763165083
 40
1.0
 40
1.0
 40
1.0
 40
1.0
 10
-6.2353261643
 20
20.5639992087
 30
0.0
 10
-6.2598402623
 20
20.5629433614
 30
0.0
 10
-6.295438734
 20
20.5635718906
 30
0.0
 10
-6.3405718224
 20
20.5625608238
 30
0.0
 10
-6.3692290226
 20
20.5611739261
 30
0.0
 10
-6.3923269931
 20
20.5596828722
 30
0.0
 10
-6.4105628432
 20
20.5580046098
 30
0.0
 10
-6.4201939724
 20
20.5573865466
 30
0.0
 10
-6.4270309013
 20
20.555866035
 30
0.0
 10
-6.4271816247
 20
20.554352156
 30
0.0
 11
-6.2353261643
 21
20.5639992087
 31
0.0
 11
-6.3089315408
 21
20.5631326855
 31
0.0
 11
-6.3419770862
 21
20.5623760997
 31
0.0
 11
-6.3708536932
 21
20.5610111821
 31
0.0
 11
-6.3945500915
 21
20.5594098289
 31
0.0
 11
-6.4122422421
 21
20.5579379218
 31
0.0
 11
-6.4232375075
 21
20.5566488635
 31
0.0
 11
-6.4271816247
 21
20.554352156
 31
0.0
  0
SPLINE
  5
60F
100
AcDbEntity
  8
RACCORDO
100
AcDbSpline
 62
253
  6
CONTINUOUS
 70
0
 71
3
 72
14
 73
10
 74
8
 42
0.0000001
 43
0.0000001
 44
0.0000000001
 12
0.0082274561
 22
0.1907487336
 32
0.0
 13
0.1863615677
 23
0.0414986322
 33
0.0
 40
0.0
 40
0.0
 40
0.0
 40
0.0
 40
0.3809612921
 40
0.5519849095
 40
0.7016875368
 40
0.8249301641
 40
0.917456395
 40
0.9757513863
 40
1.0
 40
1.0
 40
1.0
 40
1.0
 10
-6.2353261643
 20
20.5639992087
 30
0.0
 10
-6.2342813836
 20
20.5882218367
 30
0.0
 10
-6.2349412088
 20
20.6233941748
 30
0.0
 10
-6.2340934245
 20
20.6679968381
 30
0.0
 10
-6.2329183616
 20
20.6963414662
 30
0.0
 10
-6.2315707123
 20
20.7192507692
 30
0.0
 10
-6.2303346445
 20
20.7374038469
 30
0.0
 10
-6.229561821
 20
20.7470845354
 30
0.0
 10
-6.2286955764
 20
20.7539862669
 30
0.0
 10
-6.2271892399
 20
20.754321695
 30
0.0
 11
-6.2353261643
 21
20.5639992087
 31
0.0
 11
-6.2345601976
 21
20.6367306239
 31
0.0
 11
-6.2339364768
 21
20.6693775363
 31
0.0
 11
-6.2327628797
 21
20.6979355686
 31
0.0
 11
-6.2313995337
 21
20.7214262716
 31
0.0
 11
-6.230185693
 21
20.7390501908
 31
0.0
 11
-6.2291612145
 21
20.7501329753
 31
0.0
 11
-6.2271892399
 21
20.754321695
 31
0.0
  0
SPLINE
  5
610
100
AcDbEntity
  8
RACCORDO
100
AcDbSpline
 62
253
  6
CONTINUOUS
 70
0
 71
3
 72
14
 73
10
 74
8
 42
0.0000001
 43
0.0000001
 44
0.0000000001
 12
-0.0075466019
 22
0.1903991298
 32
0.0
 13
0.0269559945
 23
0.1886323254
 33
0.0
 40
0.0
 40
0.0
 40
0.0
 40
0.0
 40
0.3815132127
 40
0.5527969277
 40
0.7026197142
 40
0.8259122339
 40
0.9186170016
 40
0.977455083
 40
1.0
 40
1.0
 40
1.0
 40
1.0
 10
-5.6534196858
 20
20.5637243844
 30
0.0
 10
-5.6543793952
 20
20.5879376456
 30
0.0
 10
-5.6530207019
 20
20.6230761916
 30
0.0
 10
-5.6518810333
 20
20.6676806993
 30
0.0
 10
-5.6511879614
 20
20.6958973694
 30
0.0
 10
-5.6503845925
 20
20.7191278058
 30
0.0
 10
-5.6490913055
 20
20.7365267369
 30
0.0
 10
-5.6477386902
 20
20.7475362484
 30
0.0
 10
-5.6462449534
 20
20.7525095925
 30
0.0
 10
-5.6460423798
 20
20.7539271592
 30
0.0
 11
-5.6534196858
 21
20.5637243844
 31
0.0
 11
-5.6527240628
 21
20.6364178756
 31
0.0
 11
-5.6518519294
 21
20.6690440981
 31
0.0
 11
-5.6510942723
 21
20.697582569
 31
0.0
 11
-5.6501408034
 21
20.7210564334
 31
0.0
 11
-5.6487581737
 21
20.738667007
 31
0.0
 11
-5.6470064446
 21
20.7497408289
 31
0.0
 11
-5.6460423798
 21
20.7539271592
 31
0.0
  0
SPLINE
  5
611
100
AcDbEntity
  8
RACCORDO
100
AcDbSpline
 62
253
  6
CONTINUOUS
 70
0
 71
3
 72
14
 73
10
 74
8
 42
0.0000001
 43
0.0000001
 44
0.0000000001
 12
0.2080022954
 22
-0.0087950771
 32
0.0
 13
0.0386757719
 23
-0.2045641536
 33
0.0
 40
0.0
 40
0.0
 40
0.0
 40
0.0
 40
0.3744714341
 40
0.5454183688
 40
0.6962283788
 40
0.8211286161
 40
0.9153004626
 40
0.9747635692
 40
1.0
 40
1.0
 40
1.0
 40
1.0
 10
-5.6534196858
 20
20.5637243844
 30
0.0
 10
-5.6274560465
 20
20.5626265494
 30
0.0
 10
-5.5895613358
 20
20.5634725251
 30
0.0
 10
-5.5413007059
 20
20.5625161385
 30
0.0
 10
-5.5102180648
 20
20.5611089646
 30
0.0
 10
-5.4849233305
 20
20.5595160216
 30
0.0
 10
-5.4648712593
 20
20.5578414083
 30
0.0
 10
-5.4539971934
 20
20.5570976957
 30
0.0
 10
-5.4463981869
 20
20.555678443
 30
0.0
 10
-5.4460728408
 20
20.55395762
 30
0.0
 11
-5.6534196858
 21
20.5637243844
 31
0.0
 11
-5.5754622055
 21
20.5630362467
 31
0.0
 11
-5.5398801443
 21
20.5623271042
 31
0.0
 11
-5.5085142987
 21
20.5609319634
 31
0.0
 11
-5.4825652138
 21
20.5592622313
 31
0.0
 11
-5.4630189531
 21
20.5577397747
 31
0.0
 11
-5.4507089803
 21
20.5564294511
 31
0.0
 11
-5.4460728408
 21
20.55395762
 31
0.0
  0
SPLINE
  5
612
100
AcDbEntity
  8
RACCORDO
100
AcDbSpline
 62
253
  6
CONTINUOUS
 70
0
 71
3
 72
17
 73
13
 74
11
 42
0.0000001
 43
0.0000001
 44
0.0000000001
 12
0.2081468104
 22
0.0001979375
 32
0.0
 13
0.0712802544
 23
-0.1955613949
 33
0.0
 40
0.0
 40
0.0
 40
0.0
 40
0.0
 40
0.1899706037
 40
0.374667331
 40
0.5457178884
 40
0.6965983638
 40
0.8215247178
 40
0.9158133131
 40
0.9501751978
 40
0.9756391703
 40
0.9921248216
 40
1.0
 40
1.0
 40
1.0
 40
1.0
 10
-5.653863384
 20
20.1363293819
 30
0.0
 10
-5.6406827923
 20
20.136341916
 30
0.0
 10
-5.61468743
 20
20.1362419553
 30
0.0
 10
-5.5768262237
 20
20.1357410876
 30
0.0
 10
-5.5416870334
 20
20.1348965252
 30
0.0
 10
-5.5106952407
 20
20.1337627027
 30
0.0
 10
-5.4850737917
 20
20.1323737372
 30
0.0
 10
-5.4674853633
 20
20.1309988268
 30
0.0
 10
-5.4569292906
 20
20.1297090904
 30
0.0
 10
-5.4515971289
 20
20.1288382821
 30
0.0
 10
-5.448449714
 20
20.1279972995
 30
0.0
 10
-5.4466213005
 20
20.127279279
 30
0.0
 10
-5.4464341856
 20
20.1267659187
 30
0.0
 11
-5.653863384
 21
20.1363293819
 31
0.0
 11
-5.6143218813
 21
20.1361778409
 31
0.0
 11
-5.5758813614
 21
20.1356567203
 31
0.0
 11
-5.5402884198
 21
20.1347838052
 31
0.0
 11
-5.5089055672
 21
20.1335965082
 31
0.0
 11
-5.4829433612
 21
20.1321399273
 31
0.0
 11
-5.4633886329
 21
20.1304702748
 31
0.0
 11
-5.4562926194
 21
20.1295745782
 31
0.0
 11
-5.4510734043
 21
20.1286513165
 31
0.0
 11
-5.4477731916
 21
20.1277114449
 31
0.0
 11
-5.4464341856
 21
20.1267659187
 31
0.0
  0
SPLINE
  5
613
100
AcDbEntity
  8
RACCORDO
100
AcDbSpline
 62
7
  6
CONTINUOUS
 70
0
 71
3
 72
11
 73
7
 74
5
 42
0.0000001
 43
0.0000001
 44
0.0000000001
 12
-0.0431929372
 22
-0.0041625388
 32
0.0
 13
-0.0326238222
 23
-0.0286119342
 33
0.0
 40
0.0
 40
0.0
 40
0.0
 40
0.0
 40
0.1076044101
 40
0.3191488549
 40
0.6216753064
 40
1.0
 40
1.0
 40
1.0
 40
1.0
 10
-5.0242226309
 20
19.9264446552
 30
0.0
 10
-5.025771881
 20
19.9262953527
 30
0.0
 10
-5.0297505419
 20
19.9234497618
 30
0.0
 10
-5.0369596862
 20
19.9184068438
 30
0.0
 10
-5.0469456529
 20
19.910064304
 30
0.0
 10
-5.0543966464
 20
19.9036706132
 30
0.0
 10
-5.0585107789
 20
19.9000624127
 30
0.0
 11
-5.0242226309
 21
19.9264446552
 31
0.0
 11
-5.0284232069
 21
19.924405693
 31
0.0
 11
-5.0358692649
 21
19.9190372196
 31
0.0
 11
-5.0460643406
 21
19.9107672221
 31
0.0
 11
-5.0585107789
 21
19.9000624127
 31
0.0
  0
SPLINE
  5
614
100
AcDbEntity
  8
RACCORDO
100
AcDbSpline
 62
253
  6
CONTINUOUS
 70
0
 71
3
 72
11
 73
7
 74
5
 42
0.0000001
 43
0.0000001
 44
0.0000000001
 12
0.0016445848
 22
0.0267466058
 32
0.0
 13
0.0260050096
 23
0.0064672294
 33
0.0
 40
0.0
 40
0.0
 40
0.0
 40
0.0
 40
0.4214841268
 40
0.7303044122
 40
0.9229733008
 40
1.0
 40
1.0
 40
1.0
 40
1.0
 10
-5.2504209842
 20
19.9000653415
 30
0.0
 10
-5.2501899288
 20
19.9038230981
 30
0.0
 10
-5.2497002307
 20
19.9102115418
 30
0.0
 10
-5.2490359602
 20
19.9187932856
 30
0.0
 10
-5.2480353325
 20
19.9232267157
 30
0.0
 10
-5.2476560482
 20
19.9263453695
 30
0.0
 10
-5.2469883549
 20
19.9265114192
 30
0.0
 11
-5.2504209842
 21
19.9000653415
 31
0.0
 11
-5.249612725
 21
19.9113309444
 31
0.0
 11
-5.2487603016
 21
19.919562419
 31
0.0
 11
-5.2478798125
 21
19.9246497571
 31
0.0
 11
-5.2469883549
 21
19.9265114192
 31
0.0
  0
SPLINE
  5
615
100
AcDbEntity
  8
RACCORDO
100
AcDbSpline
 62
7
  6
CONTINUOUS
 70
0
 71
3
 72
11
 73
7
 74
5
 42
0.0000001
 43
0.0000001
 44
0.0000000001
 12
0.0431675472
 22
-0.0041600919
 32
0.0
 13
0.0326053403
 23
-0.0285943226
 33
0.0
 40
0.0
 40
0.0
 40
0.0
 40
0.0
 40
0.1076102541
 40
0.3191511649
 40
0.6216728258
 40
1.0
 40
1.0
 40
1.0
 40
1.0
 10
5.0242226309
 20
19.9264446552
 30
0.0
 10
5.0257710544
 20
19.9262954324
 30
0.0
 10
5.0297476158
 20
19.9234519449
 30
0.0
 10
5.036952683
 20
19.9184121566
 30
0.0
 10
5.0469330095
 20
19.910074986
 30
0.0
 10
5.0543797594
 20
19.9036852464
 30
0.0
 10
5.0584915881
 20
19.9000792433
 30
0.0
 11
5.0242226309
 21
19.9264446552
 31
0.0
 11
5.0284210933
 21
19.9244070438
 31
0.0
 11
5.0358628924
 21
19.919042152
 31
0.0
 11
5.0460520973
 21
19.9107774961
 31
0.0
 11
5.0584915881
 21
19.9000792433
 31
0.0
  0
SPLINE
  5
616
100
AcDbEntity
  8
ASSI
100
AcDbSpline
 62
253
  6
CONTINUOUS
 70
0
 71
3
 72
9
 73
5
 74
3
 42
0.0000001
 43
0.0000001
 44
0.0000000001
 12
0.0013086735
 22
-0.0432844709
 32
0.0
 13
-0.0000000099
 23
-0.0433042498
 33
0.0
 40
0.0
 40
0.0
 40
0.0
 40
0.0
 40
0.1834825616
 40
1.0
 40
1.0
 40
1.0
 40
1.0
 10
7.2135886019
 20
-23.8010362971
 30
0.0
 10
7.2136686415
 20
-23.8036836123
 30
0.0
 10
7.2139645803
 20
-23.8181157392
 30
0.0
 10
7.2140249812
 20
-23.8325513423
 30
0.0
 10
7.2140249785
 20
-23.8443375673
 30
0.0
 11
7.2135886019
 21
-23.8010362971
 31
0.0
 11
7.2137693111
 21
-23.8089798165
 31
0.0
 11
7.2140249785
 21
-23.8443375673
 31
0.0
  0
SPLINE
  5
617
100
AcDbEntity
  8
ASSI
100
AcDbSpline
 62
253
  6
CONTINUOUS
 70
0
 71
3
 72
14
 73
10
 74
8
 42
0.0000001
 43
0.0000001
 44
0.0000000001
 12
0.0000000047
 22
-0.0500143989
 32
0.0
 13
-0.0353848757
 23
-0.035346155
 33
0.0
 40
0.0
 40
0.0
 40
0.0
 40
0.0
 40
0.3784710411
 40
0.5499082368
 40
0.7006911169
 40
0.825150225
 40
0.9186143814
 40
0.9775915881
 40
1.0
 40
1.0
 40
1.0
 40
1.0
 10
7.2140249785
 20
-24.2368706193
 30
0.0
 10
7.2140249791
 20
-24.2431802865
 30
0.0
 10
7.214000457
 20
-24.2523507953
 30
0.0
 10
7.213885255
 20
-24.2640254086
 30
0.0
 10
7.2138080007
 20
-24.2714870425
 30
0.0
 10
7.2136161172
 20
-24.2775893261
 30
0.0
 10
7.2136474128
 20
-24.2823090139
 30
0.0
 10
7.2131955826
 20
-24.2850232183
 30
0.0
 10
7.2134317632
 20
-24.286598987
 30
0.0
 10
7.2131674569
 20
-24.286863004
 30
0.0
 11
7.2140249785
 21
-24.2368706193
 31
0.0
 11
7.2139600142
 21
-24.2557995094
 31
0.0
 11
7.2138810802
 21
-24.2643734744
 31
0.0
 11
7.2137747462
 21
-24.2719140398
 31
0.0
 11
7.2136450122
 21
-24.2781374352
 31
0.0
 11
7.2134967536
 21
-24.2828096371
 31
0.0
 11
7.2133355535
 21
-24.2857549386
 31
0.0
 11
7.2131674569
 21
-24.286863004
 31
0.0
  0
SPLINE
  5
618
100
AcDbEntity
  8
ASSI
100
AcDbSpline
 62
253
  6
CONTINUOUS
 70
0
 71
3
 72
14
 73
10
 74
8
 42
0.0000001
 43
0.0000001
 44
0.0000000001
 12
0.0353709844
 22
-0.0353600593
 32
0.0
 13
-0.0000000167
 23
-0.0500144012
 33
0.0
 40
0.0
 40
0.0
 40
0.0
 40
0.0
 40
0.0223888543
 40
0.0813290826
 40
0.1747525517
 40
0.2991802371
 40
0.4499460735
 40
0.6213923018
 40
1.0
 40
1.0
 40
1.0
 40
1.0
 10
7.2131674569
 20
24.2868630041
 30
0.0
 10
7.2134314289
 20
24.2865991136
 30
0.0
 10
7.2131958074
 20
24.2850247052
 30
0.0
 10
7.2136471431
 20
24.2823117927
 30
0.0
 10
7.2136160556
 20
24.2775940746
 30
0.0
 10
7.213807882
 20
24.2714932256
 30
0.0
 10
7.2138851846
 20
24.2640322645
 30
0.0
 10
7.2140004409
 20
24.2523555021
 30
0.0
 10
7.2140249806
 20
24.2431825651
 30
0.0
 10
7.2140249785
 20
24.2368706193
 30
0.0
 11
7.2131674569
 21
24.2868630041
 31
0.0
 11
7.213335476
 21
24.2857559162
 31
0.0
 11
7.2134966352
 21
24.2828124645
 31
0.0
 11
7.2136448865
 21
24.2781422981
 31
0.0
 11
7.2137746358
 21
24.2719204747
 31
0.0
 11
7.2138809975
 21
24.2643807618
 31
0.0
 11
7.2139599669
 21
24.255806345
 31
0.0
 11
7.2140249785
 21
24.2368706193
 31
0.0
  0
SPLINE
  5
619
100
AcDbEntity
  8
ASSI
100
AcDbSpline
 62
253
  6
CONTINUOUS
 70
0
 71
3
 72
9
 73
5
 74
3
 42
0.0000001
 43
0.0000001
 44
0.0000000001
 12
0.0000000129
 22
-0.0433040273
 32
0.0
 13
-0.0013086549
 23
-0.0432842489
 33
0.0
 40
0.0
 40
0.0
 40
0.0
 40
0.0
 40
0.2987891373
 40
1.0
 40
1.0
 40
1.0
 40
1.0
 10
7.2140249785
 20
23.8443375673
 30
0.0
 10
7.2140249798
 20
23.840024643
 30
0.0
 10
7.2139818312
 20
23.8255904462
 30
0.0
 10
7.2138944829
 20
23.8111534256
 30
0.0
 10
7.2135886019
 20
23.8010362971
 30
0.0
 11
7.2140249785
 21
23.8443375673
 31
0.0
 11
7.2139952492
 21
23.8313988285
 31
0.0
 11
7.2135886019
 21
23.8010362971
 31
0.0
  0
SPLINE
  5
61A
100
AcDbEntity
  8
ASSI
100
AcDbSpline
 62
253
  6
CONTINUOUS
 70
0
 71
3
 72
27
 73
23
 74
21
 42
0.0000001
 43
0.0000001
 44
0.0000000001
 12
0.0107490528
 22
0.2559933213
 32
0.0
 13
-0.1779199817
 23
-0.1843708295
 33
0.0
 40
0.0
 40
0.0
 40
0.0
 40
0.0
 40
0.002508023
 40
0.0096585238
 40
0.0214522314
 40
0.0378118978
 40
0.0585674251
 40
0.0835099134
 40
0.1450343549
 40
0.2200319296
 40
0.305685723
 40
0.3987196678
 40
0.4956033958
 40
0.6861889623
 40
0.7726554285
 40
0.848752064
 40
0.911613964
 40
0.9588365752
 40
0.976016263
 40
0.988658771
 40
0.9966686723
 40
1.0
 40
1.0
 40
1.0
 40
1.0
 10
-3.8457122528
 20
-23.901792714
 30
0.0
 10
-3.8457032665
 20
-23.9015787017
 30
0.0
 10
-3.8469672354
 20
-23.9015944072
 30
0.0
 10
-3.8483672772
 20
-23.9012496257
 30
0.0
 10
-3.851613806
 20
-23.9011424673
 30
0.0
 10
-3.8556828304
 20
-23.9009063381
 30
0.0
 10
-3.8610189411
 20
-23.9007293503
 30
0.0
 10
-3.8701545125
 20
-23.9004589591
 30
0.0
 10
-3.8839533526
 20
-23.900182076
 30
0.0
 10
-3.9029220825
 20
-23.8999132008
 30
0.0
 10
-3.9245890864
 20
-23.8997138677
 30
0.0
 10
-3.9481239064
 20
-23.8995882494
 30
0.0
 10
-3.9806212913
 20
-23.8995294861
 30
0.0
 10
-4.0125586684
 20
-23.8996252913
 30
0.0
 10
-4.0427170106
 20
-23.8998939086
 30
0.0
 10
-4.0619721287
 20
-23.9001496955
 30
0.0
 10
-4.077858743
 20
-23.9004792399
 30
0.0
 10
-4.0887487742
 20
-23.9007652719
 30
0.0
 10
-4.0952873594
 20
-23.9010994359
 30
0.0
 10
-4.0985738047
 20
-23.9012267124
 30
0.0
 10
-4.1004972344
 20
-23.9015497126
 30
0.0
 10
-4.1015934553
 20
-23.9015482158
 30
0.0
 10
-4.1017910252
 20
-23.901752949
 30
0.0
 11
-3.8457122528
 21
-23.901792714
 31
0.0
 11
-3.8463169705
 21
-23.9015753321
 31
0.0
 11
-3.8481362989
 21
-23.9013594372
 31
0.0
 11
-3.8511506261
 21
-23.90114747
 31
0.0
 11
-3.8553372334
 21
-23.9009418097
 31
0.0
 11
-3.8606515266
 21
-23.9007444043
 31
0.0
 11
-3.8670395155
 21
-23.9005570167
 31
0.0
 11
-3.8827996193
 21
-23.9002191716
 31
0.0
 11
-3.9020134009
 21
-23.8999409572
 31
0.0
 11
-3.923958538
 21
-23.8997332118
 31
0.0
 11
-3.947795241
 21
-23.8996037408
 31
0.0
 11
-3.9726186395
 21
-23.8995573654
 31
0.0
 11
-4.0214499984
 21
-23.8997181003
 31
0.0
 11
-4.04360343
 21
-23.8999189993
 31
0.0
 11
-4.0630989259
 21
-23.9001911884
 31
0.0
 11
-4.0792018924
 21
-23.9005240631
 31
0.0
 11
-4.0912952146
 21
-23.9009051529
 31
0.0
 11
-4.0956922301
 21
-23.9011094851
 31
0.0
 11
-4.0989245999
 21
-23.9013204884
 31
0.0
 11
-4.1009655635
 21
-23.9015357876
 31
0.0
 11
-4.1017910252
 21
-23.901752949
 31
0.0
  0
SPLINE
  5
61B
100
AcDbEntity
  8
ASSI
100
AcDbSpline
 62
253
  6
CONTINUOUS
 70
0
 71
3
 72
27
 73
23
 74
21
 42
0.0000001
 43
0.0000001
 44
0.0000000001
 12
-0.0101248298
 22
0.2560187009
 32
0.0
 13
0.1792859856
 23
-0.1830426802
 33
0.0
 40
0.0
 40
0.0
 40
0.0
 40
0.0
 40
0.0025090875
 40
0.0096593287
 40
0.0214521141
 40
0.0378109411
 40
0.058566012
 40
0.0835083185
 40
0.1450331819
 40
0.2200314167
 40
0.3056855407
 40
0.398719704
 40
0.4956037057
 40
0.6861892722
 40
0.7726552788
 40
0.8487494876
 40
0.9116111516
 40
0.9588361284
 40
0.9760146553
 40
0.9886537051
 40
0.9966623648
 40
1.0
 40
1.0
 40
1.0
 40
1.0
 10
3.8457122528
 20
-23.901792714
 30
0.0
 10
3.8457037848
 20
-23.9015785896
 30
0.0
 10
3.8469667341
 20
-23.9015945738
 30
0.0
 10
3.8483678893
 20
-23.9012495415
 30
0.0
 10
3.8516135945
 20
-23.901142502
 30
0.0
 10
3.8556827089
 20
-23.9009063154
 30
0.0
 10
3.8610185866
 20
-23.9007293491
 30
0.0
 10
3.8701541851
 20
-23.9004589449
 30
0.0
 10
3.8839530684
 20
-23.9001820733
 30
0.0
 10
3.9029219261
 20
-23.8999131971
 30
0.0
 10
3.9245890236
 20
-23.8997138654
 30
0.0
 10
3.9481239082
 20
-23.8995882479
 30
0.0
 10
3.9806213289
 20
-23.8995294883
 30
0.0
 10
4.0125586643
 20
-23.8996253125
 30
0.0
 10
4.0427167888
 20
-23.8998939023
 30
0.0
 10
4.0619715455
 20
-23.9001497697
 30
0.0
 10
4.0778583802
 20
-23.9004791458
 30
0.0
 10
4.0887479397
 20
-23.9007655718
 30
0.0
 10
4.0952871119
 20
-23.9010991163
 30
0.0
 10
4.0985716827
 20
-23.9012274618
 30
0.0
 10
4.1004978276
 20
-23.901548566
 30
0.0
 10
4.1015915615
 20
-23.9015493058
 30
0.0
 10
4.1017910252
 20
-23.901752949
 30
0.0
 11
3.8457122528
 21
-23.901792714
 31
0.0
 11
3.8463172603
 21
-23.9015753324
 31
0.0
 11
3.8481365211
 21
-23.9013594371
 31
0.0
 11
3.8511506105
 21
-23.9011474685
 31
0.0
 11
3.8553370013
 21
-23.9009418061
 31
0.0
 11
3.8606511759
 21
-23.9007443988
 31
0.0
 11
3.8670391165
 21
-23.90055701
 31
0.0
 11
3.8827993242
 21
-23.9002191662
 31
0.0
 11
3.9020132698
 21
-23.8999409534
 31
0.0
 11
3.9239584857
 21
-23.8997332092
 31
0.0
 11
3.9477952383
 21
-23.8996037396
 31
0.0
 11
3.9726187003
 21
-23.899557368
 31
0.0
 11
4.0214500461
 21
-23.899718111
 31
0.0
 11
4.0436033539
 21
-23.8999190143
 31
0.0
 11
4.0630982227
 21
-23.9001912108
 31
0.0
 11
4.0792011242
 21
-23.9005240927
 31
0.0
 11
4.0912950497
 21
-23.9009051784
 31
0.0
 11
4.0956917666
 21
-23.9011095026
 31
0.0
 11
4.0989232482
 21
-23.9013204974
 31
0.0
 11
4.100963892
 21
-23.9015357907
 31
0.0
 11
4.1017910252
 21
-23.901752949
 31
0.0
  0
SPLINE
  5
61C
100
AcDbEntity
  8
ASSI
100
AcDbSpline
 62
253
  6
CONTINUOUS
 70
0
 71
3
 72
14
 73
10
 74
8
 42
0.0000001
 43
0.0000001
 44
0.0000000001
 12
-0.0000000098
 22
-0.0500143991
 32
0.0
 13
0.0353803448
 23
-0.0353506905
 33
0.0
 40
0.0
 40
0.0
 40
0.0
 40
0.0
 40
0.3785039972
 40
0.5499424932
 40
0.70071832
 40
0.825167532
 40
0.918622656
 40
0.977593597
 40
1.0
 40
1.0
 40
1.0
 40
1.0
 10
10.5859750215
 20
-24.2368706193
 30
0.0
 10
10.5859750202
 20
-24.2431808359
 30
0.0
 10
10.5859995479
 20
-24.2523519153
 30
0.0
 10
10.5861147614
 20
-24.2640269838
 30
0.0
 10
10.5861920274
 20
-24.271488351
 30
0.0
 10
10.5863838891
 20
-24.2775902196
 30
0.0
 10
10.5863526463
 20
-24.2823094405
 30
0.0
 10
10.5868043615
 20
-24.2850234463
 30
0.0
 10
10.5865682943
 20
-24.2865989768
 30
0.0
 10
10.5868325431
 20
-24.286863004
 30
0.0
 11
10.5859750215
 21
-24.2368706193
 31
0.0
 11
10.5860399978
 21
-24.2558011577
 31
0.0
 11
10.5861189399
 21
-24.2643751877
 31
0.0
 11
10.5862252778
 21
-24.2719154003
 31
0.0
 11
10.5863550106
 21
-24.2781383007
 31
0.0
 11
10.5865032643
 21
-24.2828100508
 31
0.0
 11
10.5866644551
 21
-24.285755039
 31
0.0
 11
10.5868325431
 21
-24.286863004
 31
0.0
  0
SPLINE
  5
61D
100
AcDbEntity
  8
ASSI
100
AcDbSpline
 62
253
  6
CONTINUOUS
 70
0
 71
3
 72
9
 73
5
 74
3
 42
0.0000001
 43
0.0000001
 44
0.0000000001
 12
-0.0013082203
 22
-0.0432844827
 32
0.0
 13
0.0000006052
 23
-0.0433042479
 33
0.0
 40
0.0
 40
0.0
 40
0.0
 40
0.0
 40
0.1835083404
 40
1.0
 40
1.0
 40
1.0
 40
1.0
 10
10.5864113981
 20
-23.8010362971
 30
0.0
 10
10.586331375
 20
-23.803683985
 30
0.0
 10
10.5860357894
 20
-23.818116118
 30
0.0
 10
10.5859748568
 20
-23.8325517149
 30
0.0
 10
10.5859750215
 20
-23.8443375673
 30
0.0
 11
10.5864113981
 21
-23.8010362971
 31
0.0
 11
10.5862307922
 21
-23.8089809352
 31
0.0
 11
10.5859750215
 21
-23.8443375673
 31
0.0
  0
SPLINE
  5
61E
100
AcDbEntity
  8
RACCORDO
100
AcDbSpline
 62
253
  6
CONTINUOUS
 70
0
 71
3
 72
8
 73
4
 74
2
 42
0.0000001
 43
0.0000001
 44
0.0000000001
 12
-0.0902018808
 22
-0.0526697929
 32
0.0
 13
-0.1044532734
 23
0.0000084049
 33
0.0
 40
0.0
 40
0.0
 40
0.0
 40
0.0
 40
1.0
 40
1.0
 40
1.0
 40
1.0
 10
6.4863744796
 20
-21.0438673025
 30
0.0
 10
6.456307186
 20
-21.0614239001
 30
0.0
 10
6.4203482326
 20
-21.0710909248
 30
0.0
 10
6.3855304748
 20
-21.0710881232
 30
0.0
 11
6.4863744796
 21
-21.0438673025
 31
0.0
 11
6.3855304748
 21
-21.0710881232
 31
0.0
  0
SPLINE
  5
61F
100
AcDbEntity
  8
RACCORDO
100
AcDbSpline
 62
253
  6
CONTINUOUS
 70
0
 71
3
 72
8
 73
4
 74
2
 42
0.0000001
 43
0.0000001
 44
0.0000000001
 12
-0.1044497297
 22
-0.0000344767
 32
0.0
 13
-0.0902185326
 23
0.0526342435
 33
0.0
 40
0.0
 40
0.0
 40
0.0
 40
0.0
 40
1.0
 40
1.0
 40
1.0
 40
1.0
 10
5.3288693531
 20
-21.0710881406
 30
0.0
 10
5.2940527765
 20
-21.0710996328
 30
0.0
 10
5.2580977205
 20
-21.0614273978
 30
0.0
 10
5.2280248763
 20
-21.0438826499
 30
0.0
 11
5.3288693531
 21
-21.0710881406
 31
0.0
 11
5.2280248763
 21
-21.0438826499
 31
0.0
  0
SPLINE
  5
620
100
AcDbEntity
  8
ASSI
100
AcDbSpline
 62
253
  6
CONTINUOUS
 70
0
 71
3
 72
9
 73
5
 74
3
 42
0.0000001
 43
0.0000001
 44
0.0000000001
 12
0.0000001007
 22
-0.0433040262
 32
0.0
 13
0.0013110356
 23
-0.0432841757
 33
0.0
 40
0.0
 40
0.0
 40
0.0
 40
0.0
 40
0.2986840764
 40
1.0
 40
1.0
 40
1.0
 40
1.0
 10
10.5859750215
 20
23.8443375673
 30
0.0
 10
10.5859750315
 20
23.8400261596
 30
0.0
 10
10.586018476
 20
23.8255919674
 30
0.0
 10
10.5861049147
 20
23.8111549243
 30
0.0
 10
10.5864113981
 20
23.8010362971
 30
0.0
 11
10.5859750215
 21
23.8443375673
 31
0.0
 11
10.5860048195
 21
23.8314033786
 31
0.0
 11
10.5864113981
 21
23.8010362971
 31
0.0
  0
SPLINE
  5
621
100
AcDbEntity
  8
ASSI
100
AcDbSpline
 62
253
  6
CONTINUOUS
 70
0
 71
3
 72
14
 73
10
 74
8
 42
0.0000001
 43
0.0000001
 44
0.0000000001
 12
-0.0353768578
 22
-0.0353541823
 32
0.0
 13
0.0000000128
 23
-0.0500144006
 33
0.0
 40
0.0
 40
0.0
 40
0.0
 40
0.0
 40
0.0223937944
 40
0.0813434341
 40
0.1747761037
 40
0.2992081645
 40
0.4499725189
 40
0.6214129187
 40
1.0
 40
1.0
 40
1.0
 40
1.0
 10
10.5868325431
 20
24.2868630041
 30
0.0
 10
10.5865684691
 20
24.2865990993
 30
0.0
 10
10.586804271
 20
24.2850243062
 30
0.0
 10
10.5863527807
 20
24.2823111184
 30
0.0
 10
10.5863839354
 20
24.2775929623
 30
0.0
 10
10.5861920926
 20
24.2714919307
 30
0.0
 10
10.5861148037
 20
24.2640310127
 30
0.0
 10
10.585999556
 20
24.2523547182
 30
0.0
 10
10.5859750199
 20
24.2431822213
 30
0.0
 10
10.5859750215
 20
24.2368706193
 30
0.0
 11
10.5868325431
 21
24.2868630041
 31
0.0
 11
10.5866645042
 21
24.2857556693
 31
0.0
 11
10.5865033363
 21
24.2828117467
 31
0.0
 11
10.586355084
 21
24.2781411201
 31
0.0
 11
10.5862253409
 21
24.2719190777
 31
0.0
 11
10.5861189878
 21
24.2643794389
 31
0.0
 11
10.5860400262
 21
24.2558053137
 31
0.0
 11
10.5859750215
 21
24.2368706193
 31
0.0
  0
SPLINE
  5
622
100
AcDbEntity
  8
RACCORDO
100
AcDbSpline
 62
253
  6
CONTINUOUS
 70
0
 71
3
 72
8
 73
4
 74
2
 42
0.0000001
 43
0.0000001
 44
0.0000000001
 12
-0.0902430304
 22
-0.0526718742
 32
0.0
 13
-0.1044898573
 23
0.0000243132
 33
0.0
 40
0.0
 40
0.0
 40
0.0
 40
0.0
 40
1.0
 40
1.0
 40
1.0
 40
1.0
 10
-5.2280248763
 20
-21.0438826499
 30
0.0
 10
-5.2581058865
 20
-21.0614399413
 30
0.0
 10
-5.2940809651
 20
-21.0710962234
 30
0.0
 10
-5.3289109176
 20
-21.071088119
 30
0.0
 11
-5.2280248763
 21
-21.0438826499
 31
0.0
 11
-5.3289109176
 21
-21.071088119
 31
0.0
  0
SPLINE
  5
623
100
AcDbEntity
  8
RACCORDO
100
AcDbSpline
 62
253
  6
CONTINUOUS
 70
0
 71
3
 72
8
 73
4
 74
2
 42
0.0000001
 43
0.0000001
 44
0.0000000001
 12
-0.1044507964
 22
-0.0000089728
 32
0.0
 13
-0.0902002344
 23
0.0526677004
 33
0.0
 40
0.0
 40
0.0
 40
0.0
 40
0.0
 40
1.0
 40
1.0
 40
1.0
 40
1.0
 10
-6.3855330407
 20
-21.0710881244
 30
0.0
 10
-6.4203499728
 20
-21.0710911154
 30
0.0
 10
-6.4563077348
 20
-21.0614232026
 30
0.0
 10
-6.4863744796
 20
-21.0438673025
 30
0.0
 11
-6.3855330407
 21
-21.0710881244
 31
0.0
 11
-6.4863744796
 21
-21.0438673025
 31
0.0
  0
SPLINE
  5
624
100
AcDbEntity
  8
RACCORDO
100
AcDbSpline
 62
253
  6
CONTINUOUS
 70
0
 71
3
 72
8
 73
4
 74
2
 42
0.0000001
 43
0.0000001
 44
0.0000000001
 12
0.1044507964
 22
0.0000089728
 32
0.0
 13
0.0902002344
 23
-0.0526677004
 33
0.0
 40
0.0
 40
0.0
 40
0.0
 40
0.0
 40
1.0
 40
1.0
 40
1.0
 40
1.0
 10
6.3855330407
 20
21.0710881244
 30
0.0
 10
6.4203499728
 20
21.0710911154
 30
0.0
 10
6.4563077348
 20
21.0614232026
 30
0.0
 10
6.4863744796
 20
21.0438673025
 30
0.0
 11
6.3855330407
 21
21.0710881244
 31
0.0
 11
6.4863744796
 21
21.0438673025
 31
0.0
  0
LINE
  5
625
100
AcDbEntity
  8
RACCORDO
100
AcDbLine
 62
253
  6
CONTINUOUS
 10
5.6539498781
 20
20.5637226626
 11
5.6533386924
 21
20.1363310284
  0
LINE
  5
626
100
AcDbEntity
  8
RACCORDO
100
AcDbLine
 62
253
  6
CONTINUOUS
 10
6.2353251057
 20
20.5642998304
 11
5.6534206064
 21
20.5634380705
  0
LINE
  5
627
100
AcDbEntity
  8
RACCORDO
100
AcDbLine
 62
253
  6
CONTINUOUS
 10
6.2346870166
 20
19.8361793365
 11
6.2358259194
 21
20.5639974307
  0
LINE
  5
628
100
AcDbEntity
  8
RACCORDO
100
AcDbLine
 62
253
  6
CONTINUOUS
 10
9.0126310079
 20
20.6373711395
 11
9.2476013917
 21
20.63741881
  0
LINE
  5
629
100
AcDbEntity
  8
RACCORDO
100
AcDbLine
 62
253
  6
CONTINUOUS
 10
9.2476013917
 20
20.63741881
 11
9.2474031979
 21
20.4026170299
  0
LINE
  5
62A
100
AcDbEntity
  8
RACCORDO
100
AcDbLine
 62
253
  6
CONTINUOUS
 10
9.2474031977
 20
-20.4026170299
 11
9.2476013917
 21
-20.63741881
  0
LINE
  5
62B
100
AcDbEntity
  8
RACCORDO
100
AcDbLine
 62
253
  6
CONTINUOUS
 10
9.2476013917
 20
-20.63741881
 11
9.0126308579
 21
-20.6373711357
  0
LINE
  5
62C
100
AcDbEntity
  8
RACCORDO
100
AcDbLine
 62
253
  6
CONTINUOUS
 10
6.2346870167
 20
-19.8361793365
 11
6.2358259194
 21
-20.5639974306
  0
LINE
  5
62D
100
AcDbEntity
  8
RACCORDO
100
AcDbLine
 62
253
  6
CONTINUOUS
 10
6.2353251057
 20
-20.5642998304
 11
5.6534206064
 21
-20.5634380705
  0
LINE
  5
62E
100
AcDbEntity
  8
RACCORDO
100
AcDbLine
 62
253
  6
CONTINUOUS
 10
5.6539498781
 20
-20.5637226626
 11
5.6533386924
 21
-20.1363310284
  0
LINE
  5
62F
100
AcDbEntity
  8
RACCORDO
100
AcDbLine
 62
253
  6
CONTINUOUS
 10
-5.653949878
 20
-20.5637226626
 11
-5.6533386924
 21
-20.1363310284
  0
LINE
  5
630
100
AcDbEntity
  8
RACCORDO
100
AcDbLine
 62
253
  6
CONTINUOUS
 10
-6.2353251057
 20
-20.5642998304
 11
-5.6534206064
 21
-20.5634380705
  0
LINE
  5
631
100
AcDbEntity
  8
RACCORDO
100
AcDbLine
 62
253
  6
CONTINUOUS
 10
-6.2346870166
 20
-19.8361793365
 11
-6.2358259194
 21
-20.5639974306
  0
LINE
  5
632
100
AcDbEntity
  8
RACCORDO
100
AcDbLine
 62
253
  6
CONTINUOUS
 10
-9.0126310077
 20
-20.6373711396
 11
-9.2476013917
 21
-20.63741881
  0
LINE
  5
633
100
AcDbEntity
  8
RACCORDO
100
AcDbLine
 62
253
  6
CONTINUOUS
 10
-9.2476013917
 20
-20.63741881
 11
-9.2474031979
 21
-20.4026170299
  0
LINE
  5
634
100
AcDbEntity
  8
RACCORDO
100
AcDbLine
 62
253
  6
CONTINUOUS
 10
-9.2474031977
 20
20.4026170299
 11
-9.2476013917
 21
20.63741881
  0
LINE
  5
635
100
AcDbEntity
  8
RACCORDO
100
AcDbLine
 62
253
  6
CONTINUOUS
 10
-9.2476013917
 20
20.63741881
 11
-9.0126308576
 21
20.6373711358
  0
LINE
  5
636
100
AcDbEntity
  8
RACCORDO
100
AcDbLine
 62
253
  6
CONTINUOUS
 10
-6.2346870167
 20
19.8361793365
 11
-6.2358259194
 21
20.5639974307
  0
LINE
  5
637
100
AcDbEntity
  8
RACCORDO
100
AcDbLine
 62
253
  6
CONTINUOUS
 10
-6.2353251057
 20
20.5642998305
 11
-5.6534206064
 21
20.5634380705
  0
LINE
  5
638
100
AcDbEntity
  8
RACCORDO
100
AcDbLine
 62
253
  6
CONTINUOUS
 10
-5.6539498781
 20
20.5637226626
 11
-5.6533386924
 21
20.1363310284
  0
SPLINE
  5
639
100
AcDbEntity
  8
RACCORDO
100
AcDbSpline
 62
253
  6
CONTINUOUS
 70
0
 71
3
 72
8
 73
4
 74
2
 42
0.0000001
 43
0.0000001
 44
0.0000000001
 12
0.0902430304
 22
0.0526718742
 32
0.0
 13
0.1044898573
 23
-0.0000243132
 33
0.0
 40
0.0
 40
0.0
 40
0.0
 40
0.0
 40
1.0
 40
1.0
 40
1.0
 40
1.0
 10
5.2280248763
 20
21.0438826499
 30
0.0
 10
5.2581058865
 20
21.0614399413
 30
0.0
 10
5.2940809651
 20
21.0710962234
 30
0.0
 10
5.3289109176
 20
21.071088119
 30
0.0
 11
5.2280248763
 21
21.0438826499
 31
0.0
 11
5.3289109176
 21
21.071088119
 31
0.0
  0
SPLINE
  5
63A
100
AcDbEntity
  8
RACCORDO
100
AcDbSpline
 62
253
  6
CONTINUOUS
 70
0
 71
3
 72
8
 73
4
 74
2
 42
0.0000001
 43
0.0000001
 44
0.0000000001
 12
0.1044497297
 22
0.0000344767
 32
0.0
 13
0.0902185326
 23
-0.0526342435
 33
0.0
 40
0.0
 40
0.0
 40
0.0
 40
0.0
 40
1.0
 40
1.0
 40
1.0
 40
1.0
 10
-5.3288693531
 20
21.0710881406
 30
0.0
 10
-5.2940527765
 20
21.0710996328
 30
0.0
 10
-5.2580977205
 20
21.0614273978
 30
0.0
 10
-5.2280248763
 20
21.0438826499
 30
0.0
 11
-5.3288693531
 21
21.0710881406
 31
0.0
 11
-5.2280248763
 21
21.0438826499
 31
0.0
  0
SPLINE
  5
63B
100
AcDbEntity
  8
RACCORDO
100
AcDbSpline
 62
253
  6
CONTINUOUS
 70
0
 71
3
 72
8
 73
4
 74
2
 42
0.0000001
 43
0.0000001
 44
0.0000000001
 12
0.0902018808
 22
0.0526697929
 32
0.0
 13
0.1044532734
 23
-0.0000084049
 33
0.0
 40
0.0
 40
0.0
 40
0.0
 40
0.0
 40
1.0
 40
1.0
 40
1.0
 40
1.0
 10
-6.4863744796
 20
21.0438673025
 30
0.0
 10
-6.456307186
 20
21.0614239001
 30
0.0
 10
-6.4203482326
 20
21.0710909248
 30
0.0
 10
-6.3855304748
 20
21.0710881232
 30
0.0
 11
-6.4863744796
 21
21.0438673025
 31
0.0
 11
-6.3855304748
 21
21.0710881232
 31
0.0
  0
LINE
  5
63C
100
AcDbEntity
  8
RACCORDO
100
AcDbLine
 62
253
  6
CONTINUOUS
 10
4.1762541906
 20
19.9262541906
 11
4.1762430214
 21
19.9000002138
  0
LINE
  5
63D
100
AcDbEntity
  8
RACCORDO
100
AcDbLine
 62
253
  6
CONTINUOUS
 10
-4.1762541906
 20
-19.9262541906
 11
-4.1762430214
 21
-19.9000002138
  0
LINE
  5
63E
100
AcDbEntity
  8
RACCORDO
100
AcDbLine
 62
253
  6
CONTINUOUS
 10
4.1762430215
 20
-19.9000002898
 11
4.1762541906
 21
-19.9262541906
  0
SPLINE
  5
63F
100
AcDbEntity
  8
ASSI
100
AcDbSpline
 62
253
  6
CONTINUOUS
 70
0
 71
3
 72
27
 73
23
 74
21
 42
0.0000001
 43
0.0000001
 44
0.0000000001
 12
0.1779198077
 22
-0.1843709974
 32
0.0
 13
-0.0107490967
 23
0.2559933194
 33
0.0
 40
0.0
 40
0.0
 40
0.0
 40
0.0
 40
0.0033313261
 40
0.0113412261
 40
0.0239837339
 40
0.0411634231
 40
0.0883860371
 40
0.1512479379
 40
0.2273445722
 40
0.3138110367
 40
0.5043966015
 40
0.6012803315
 40
0.6943142781
 40
0.7799680714
 40
0.8549656451
 40
0.9164900859
 40
0.9414325743
 40
0.962188102
 40
0.9785477688
 40
0.9903414765
 40
0.9974919772
 40
1.0
 40
1.0
 40
1.0
 40
1.0
 10
-4.1017910252
 20
23.901752949
 30
0.0
 10
-4.1015934556
 20
23.9015482157
 30
0.0
 10
-4.1004972347
 20
23.9015497127
 30
0.0
 10
-4.0985738055
 20
23.9012267123
 30
0.0
 10
-4.09528736
 20
23.901099436
 30
0.0
 10
-4.0887487746
 20
23.9007652719
 30
0.0
 10
-4.0778587429
 20
23.9004792399
 30
0.0
 10
-4.0619721284
 20
23.9001496955
 30
0.0
 10
-4.0427170105
 20
23.8998939086
 30
0.0
 10
-4.0125586687
 20
23.8996252913
 30
0.0
 10
-3.9806212916
 20
23.8995294861
 30
0.0
 10
-3.9481239066
 20
23.8995882494
 30
0.0
 10
-3.9245890863
 20
23.8997138677
 30
0.0
 10
-3.9029220823
 20
23.8999132008
 30
0.0
 10
-3.8839533526
 20
23.900182076
 30
0.0
 10
-3.8701545126
 20
23.9004589591
 30
0.0
 10
-3.8610189413
 20
23.9007293503
 30
0.0
 10
-3.8556828304
 20
23.9009063381
 30
0.0
 10
-3.851613806
 20
23.9011424673
 30
0.0
 10
-3.8483672771
 20
23.9012496257
 30
0.0
 10
-3.8469672354
 20
23.9015944072
 30
0.0
 10
-3.8457032665
 20
23.9015787017
 30
0.0
 10
-3.8457122528
 20
23.9017927141
 30
0.0
 11
-4.1017910252
 21
23.901752949
 31
0.0
 11
-4.100965564
 21
23.9015357877
 31
0.0
 11
-4.0989246007
 21
23.9013204884
 31
0.0
 11
-4.0956922309
 21
23.9011094852
 31
0.0
 11
-4.0912952151
 21
23.9009051529
 31
0.0
 11
-4.0792018921
 21
23.9005240631
 31
0.0
 11
-4.0630989254
 21
23.9001911884
 31
0.0
 11
-4.0436034298
 21
23.8999189993
 31
0.0
 11
-4.0214499987
 21
23.8997181003
 31
0.0
 11
-3.9726186402
 21
23.8995573654
 31
0.0
 11
-3.9477952412
 21
23.8996037408
 31
0.0
 11
-3.9239585377
 21
23.8997332118
 31
0.0
 11
-3.9020134006
 21
23.8999409572
 31
0.0
 11
-3.8827996192
 21
23.9002191716
 31
0.0
 11
-3.8670395157
 21
23.9005570167
 31
0.0
 11
-3.8606515267
 21
23.9007444043
 31
0.0
 11
-3.8553372335
 21
23.9009418097
 31
0.0
 11
-3.851150626
 21
23.90114747
 31
0.0
 11
-3.8481362988
 21
23.9013594372
 31
0.0
 11
-3.8463169705
 21
23.9015753321
 31
0.0
 11
-3.8457122528
 21
23.9017927141
 31
0.0
  0
LINE
  5
640
100
AcDbEntity
  8
RACCORDO
100
AcDbLine
 62
253
  6
CONTINUOUS
 10
5.0234127252
 20
-19.9265872748
 11
5.0234238078
 21
-19.9000003321
  0
LINE
  5
641
100
AcDbEntity
  8
RACCORDO
100
AcDbLine
 62
7
  6
CONTINUOUS
 10
-7.3732594462
 20
20.8276570972
 11
-7.3721758223
 21
20.8278241777
  0
LINE
  5
642
100
AcDbEntity
  8
RACCORDO
100
AcDbLine
 62
253
  6
CONTINUOUS
 10
-9.2355533032
 20
20.8285399025
 11
-8.8216772583
 21
20.8283265416
  0
LINE
  5
643
100
AcDbEntity
  8
RACCORDO
100
AcDbLine
 62
253
  6
CONTINUOUS
 10
-7.4632285606
 20
20.8276951828
 11
-7.3732594462
 21
20.8276570972
  0
LINE
  5
644
100
AcDbEntity
  8
RACCORDO
100
AcDbLine
 62
253
  6
CONTINUOUS
 10
7.373259377
 20
20.8276571029
 11
7.4632284512
 21
20.8276951882
  0
LINE
  5
645
100
AcDbEntity
  8
RACCORDO
100
AcDbLine
 62
253
  6
CONTINUOUS
 10
8.821677498
 20
20.8283265427
 11
9.2355533032
 21
20.8285399025
  0
LINE
  5
646
100
AcDbEntity
  8
RACCORDO
100
AcDbLine
 62
7
  6
CONTINUOUS
 10
7.3721758223
 20
20.8278241777
 11
7.373259377
 21
20.8276571029
  0
SPLINE
  5
647
100
AcDbEntity
  8
ASSI
100
AcDbSpline
 62
253
  6
CONTINUOUS
 70
0
 71
3
 72
27
 73
23
 74
21
 42
0.0000001
 43
0.0000001
 44
0.0000000001
 12
-0.1799532658
 22
-0.1823867324
 32
0.0
 13
0.0119603878
 23
0.2559395381
 33
0.0
 40
0.0
 40
0.0
 40
0.0
 40
0.0
 40
0.0033406778
 40
0.011348474
 40
0.0239854505
 40
0.0411630509
 40
0.0883889248
 40
0.1512507531
 40
0.2273442219
 40
0.3138101006
 40
0.5043955998
 40
0.6012796836
 40
0.6943138105
 40
0.7799680531
 40
0.8549670234
 40
0.9164917194
 40
0.9414333512
 40
0.9621881901
 40
0.9785479341
 40
0.9903427826
 40
0.9974938782
 40
1.0
 40
1.0
 40
1.0
 40
1.0
 10
4.1017910252
 20
23.901752949
 30
0.0
 10
4.1015906366
 20
23.9015498506
 30
0.0
 10
4.1004981491
 20
23.9015479933
 30
0.0
 10
4.0985707319
 20
23.901227832
 30
0.0
 10
4.0952871636
 20
23.9010989517
 30
0.0
 10
4.0887477886
 20
23.9007657103
 30
0.0
 10
4.077858486
 20
23.9004790901
 30
0.0
 10
4.0619715005
 20
23.9001498005
 30
0.0
 10
4.0427168459
 20
23.8998938961
 30
0.0
 10
4.0125587808
 20
23.8996253204
 30
0.0
 10
3.9806214616
 20
23.899529488
 30
0.0
 10
3.9481240373
 20
23.8995882463
 30
0.0
 10
3.9245891407
 20
23.8997138625
 30
0.0
 10
3.9029219596
 20
23.8999131969
 30
0.0
 10
3.883953078
 20
23.9001820621
 30
0.0
 10
3.8701541138
 20
23.9004589459
 30
0.0
 10
3.8610187473
 20
23.9007293264
 30
0.0
 10
3.8556825622
 20
23.9009063611
 30
0.0
 10
3.8516140279
 20
23.9011423932
 30
0.0
 10
3.8483660995
 20
23.9012497909
 30
0.0
 10
3.846968256
 20
23.9015940999
 30
0.0
 10
3.8457022614
 20
23.9015789088
 30
0.0
 10
3.8457122528
 20
23.9017927141
 30
0.0
 11
4.1017910252
 21
23.901752949
 31
0.0
 11
4.1009630858
 21
23.9015357915
 31
0.0
 11
4.0989226641
 21
23.9013204996
 31
0.0
 11
4.0956917145
 21
23.9011095068
 31
0.0
 11
4.0912952348
 21
23.9009051847
 31
0.0
 11
4.0792010783
 21
23.9005240998
 31
0.0
 11
4.0630981334
 21
23.900191216
 31
0.0
 11
4.0436034527
 21
23.8999190177
 31
0.0
 11
4.0214501758
 21
23.8997181133
 31
0.0
 11
3.9726188434
 21
23.899557368
 31
0.0
 11
3.9477953584
 21
23.899603738
 31
0.0
 11
3.9239586132
 21
23.8997332069
 31
0.0
 11
3.9020133651
 21
23.89994095
 31
0.0
 11
3.8827992294
 21
23.9002191611
 31
0.0
 11
3.8670390633
 21
23.9005570029
 31
0.0
 11
3.8606512951
 21
23.9007443917
 31
0.0
 11
3.8553371796
 21
23.9009417998
 31
0.0
 11
3.8511505533
 21
23.9011474643
 31
0.0
 11
3.8481359339
 21
23.9013594351
 31
0.0
 11
3.8463164526
 21
23.9015753319
 31
0.0
 11
3.8457122528
 21
23.9017927141
 31
0.0
  0
LINE
  5
648
100
AcDbEntity
  8
RACCORDO
100
AcDbLine
 62
253
  6
CONTINUOUS
 10
-7.3721758223
 20
20.8278241777
 11
-7.3725791191
 21
19.8274028385
  0
LINE
  5
649
100
AcDbEntity
  8
RACCORDO
100
AcDbLine
 62
253
  6
CONTINUOUS
 10
7.3721758223
 20
20.8278241777
 11
7.372579203
 21
19.8271912776
  0
LINE
  5
64A
100
AcDbEntity
  8
RACCORDO
100
AcDbLine
 62
253
  6
CONTINUOUS
 10
-6.4268801289
 20
19.8268866791
 11
-6.4271816247
 21
20.554352156
  0
LINE
  5
64B
100
AcDbEntity
  8
RACCORDO
100
AcDbLine
 62
253
  6
CONTINUOUS
 10
6.4268801279
 20
19.8268843232
 11
6.4271816247
 21
20.554352156
  0
LINE
  5
64C
100
AcDbEntity
  8
RACCORDO
100
AcDbLine
 62
7
  6
CONTINUOUS
 10
7.3732594469
 20
-20.8276570971
 11
7.3721758223
 21
-20.8278241777
  0
LINE
  5
64D
100
AcDbEntity
  8
RACCORDO
100
AcDbLine
 62
253
  6
CONTINUOUS
 10
9.2355533032
 20
-20.8285399025
 11
8.8216772585
 21
-20.8283265416
  0
LINE
  5
64E
100
AcDbEntity
  8
RACCORDO
100
AcDbLine
 62
253
  6
CONTINUOUS
 10
7.4632285605
 20
-20.8276951827
 11
7.3732594469
 21
-20.8276570971
  0
LINE
  5
64F
100
AcDbEntity
  8
RACCORDO
100
AcDbLine
 62
253
  6
CONTINUOUS
 10
-7.3732593761
 20
-20.827657103
 11
-7.4632284513
 21
-20.8276951883
  0
LINE
  5
650
100
AcDbEntity
  8
RACCORDO
100
AcDbLine
 62
253
  6
CONTINUOUS
 10
-8.821677498
 20
-20.8283265427
 11
-9.2355533032
 21
-20.8285399025
  0
LINE
  5
651
100
AcDbEntity
  8
RACCORDO
100
AcDbLine
 62
7
  6
CONTINUOUS
 10
-7.3721758223
 20
-20.8278241777
 11
-7.3732593761
 21
-20.827657103
  0
LINE
  5
652
100
AcDbEntity
  8
RACCORDO
100
AcDbLine
 62
253
  6
CONTINUOUS
 10
7.3721758223
 20
-20.8278241777
 11
7.3725791191
 21
-19.8274028385
  0
LINE
  5
653
100
AcDbEntity
  8
RACCORDO
100
AcDbLine
 62
253
  6
CONTINUOUS
 10
-7.3721758223
 20
-20.8278241777
 11
-7.372579203
 21
-19.8271912776
  0
LINE
  5
654
100
AcDbEntity
  8
RACCORDO
100
AcDbLine
 62
253
  6
CONTINUOUS
 10
6.4268801289
 20
-19.8268866791
 11
6.4271816247
 21
-20.554352156
  0
LINE
  5
655
100
AcDbEntity
  8
RACCORDO
100
AcDbLine
 62
253
  6
CONTINUOUS
 10
-6.4268801279
 20
-19.8268843232
 11
-6.4271816247
 21
-20.554352156
  0
LINE
  5
656
100
AcDbEntity
  8
RACCORDO
100
AcDbLine
 62
253
  6
CONTINUOUS
 10
5.2469883547
 20
19.9265114192
 11
5.0242226309
 21
19.9264446552
  0
LINE
  5
657
100
AcDbEntity
  8
RACCORDO
100
AcDbLine
 62
7
  6
CONTINUOUS
 10
5.0234127252
 20
19.9265872748
 11
5.0242226309
 21
19.9264446552
  0
LINE
  5
658
100
AcDbEntity
  8
RACCORDO
100
AcDbLine
 62
253
  6
CONTINUOUS
 10
-4.2499132966
 20
19.9262351377
 11
-3.3999984796
 21
19.9260454629
  0
LINE
  5
659
100
AcDbEntity
  8
RACCORDO
100
AcDbLine
 62
253
  6
CONTINUOUS
 10
3.4000062615
 20
19.9260454648
 11
4.1762170214
 21
19.9262170214
  0
LINE
  5
65A
100
AcDbEntity
  8
RACCORDO
100
AcDbLine
 62
7
  6
CONTINUOUS
 10
-5.0242226309
 20
19.9264446552
 11
-5.0234127252
 21
19.9265872748
  0
LINE
  5
65B
100
AcDbEntity
  8
RACCORDO
100
AcDbLine
 62
253
  6
CONTINUOUS
 10
-5.2469883547
 20
19.9265114192
 11
-5.0242226309
 21
19.9264446552
  0
LINE
  5
65C
100
AcDbEntity
  8
RACCORDO
100
AcDbLine
 62
253
  6
CONTINUOUS
 10
-5.2469883547
 20
-19.9265114192
 11
-5.0242226309
 21
-19.9264446552
  0
LINE
  5
65D
100
AcDbEntity
  8
RACCORDO
100
AcDbLine
 62
7
  6
CONTINUOUS
 10
-5.0234127252
 20
-19.9265872748
 11
-5.0242226309
 21
-19.9264446552
  0
LINE
  5
65E
100
AcDbEntity
  8
RACCORDO
100
AcDbLine
 62
253
  6
CONTINUOUS
 10
4.1762170214
 20
-19.9262170214
 11
3.3999979929
 21
-19.9260454629
  0
LINE
  5
65F
100
AcDbEntity
  8
RACCORDO
100
AcDbLine
 62
253
  6
CONTINUOUS
 10
-3.4000068721
 20
-19.9260454646
 11
-4.1762170214
 21
-19.9262170214
  0
LINE
  5
660
100
AcDbEntity
  8
RACCORDO
100
AcDbLine
 62
7
  6
CONTINUOUS
 10
5.0242226309
 20
-19.9264446552
 11
5.0234127252
 21
-19.9265872748
  0
LINE
  5
661
100
AcDbEntity
  8
RACCORDO
100
AcDbLine
 62
253
  6
CONTINUOUS
 10
5.2469883547
 20
-19.9265114192
 11
5.0242226309
 21
-19.9264446552
  0
LINE
  5
662
100
AcDbEntity
  8
RACCORDO
100
AcDbLine
 62
253
  6
CONTINUOUS
 10
-6.2271892401
 20
-20.754321695
 11
-5.6460423798
 21
-20.7539271592
  0
LINE
  5
663
100
AcDbEntity
  8
RACCORDO
100
AcDbLine
 62
253
  6
CONTINUOUS
 10
-5.4460728408
 20
-20.5539576202
 11
-5.4464336159
 21
-20.1267754405
  0
LINE
  5
664
100
AcDbEntity
  8
RACCORDO
100
AcDbLine
 62
253
  6
CONTINUOUS
 10
5.4460728408
 20
-20.5539576202
 11
5.4464336239
 21
-20.1267659188
  0
LINE
  5
665
100
AcDbEntity
  8
RACCORDO
100
AcDbLine
 62
253
  6
CONTINUOUS
 10
6.2271892401
 20
-20.754321695
 11
5.6460423798
 21
-20.7539271592
  0
LINE
  5
666
100
AcDbEntity
  8
RACCORDO
100
AcDbLine
 62
253
  6
CONTINUOUS
 10
-5.4460728408
 20
20.5539576202
 11
-5.4464336239
 21
20.1267659188
  0
LINE
  5
667
100
AcDbEntity
  8
RACCORDO
100
AcDbLine
 62
253
  6
CONTINUOUS
 10
-6.2271892401
 20
20.754321695
 11
-5.6460423798
 21
20.7539271592
  0
LINE
  5
668
100
AcDbEntity
  8
RACCORDO
100
AcDbLine
 62
253
  6
CONTINUOUS
 10
6.2271892401
 20
20.754321695
 11
5.6460423798
 21
20.7539271592
  0
LINE
  5
669
100
AcDbEntity
  8
RACCORDO
100
AcDbLine
 62
253
  6
CONTINUOUS
 10
5.4460728408
 20
20.5539576202
 11
5.4464336159
 21
20.1267754405
  0
LINE
  5
66A
100
AcDbEntity
  8
RACCORDO
100
AcDbLine
 62
253
  6
CONTINUOUS
 10
-9.4354847682
 20
-20.6285475178
 11
-9.4350071812
 21
-20.215016422
  0
LINE
  5
66B
100
AcDbEntity
  8
RACCORDO
100
AcDbLine
 62
253
  6
CONTINUOUS
 10
-9.4350071811
 20
20.2150164222
 11
-9.4354847682
 21
20.6285475178
  0
LINE
  5
66C
100
AcDbEntity
  8
RACCORDO
100
AcDbLine
 62
253
  6
CONTINUOUS
 10
9.4354847682
 20
20.6285475178
 11
9.4350071812
 21
20.215016422
  0
LINE
  5
66D
100
AcDbEntity
  8
RACCORDO
100
AcDbLine
 62
253
  6
CONTINUOUS
 10
9.4350071811
 20
-20.2150164222
 11
9.4354847682
 21
-20.6285475178
  0
LINE
  5
66E
100
AcDbEntity
  8
RACCORDO
100
AcDbLine
 62
253
  6
CONTINUOUS
 10
-5.0234238077
 20
-19.9000004608
 11
-5.0234127252
 21
-19.9265872748
  0
SPLINE
  5
66F
100
AcDbEntity
  8
ASSI
100
AcDbSpline
 62
253
  6
CONTINUOUS
 70
0
 71
3
 72
8
 73
4
 74
2
 42
0.0000001
 43
0.0000001
 44
0.0000000001
 12
0.0016834778
 22
0.0964463789
 32
0.0
 13
0.0380359763
 23
0.0886453755
 33
0.0
 40
0.0
 40
0.0
 40
0.0
 40
0.0
 40
1.0
 40
1.0
 40
1.0
 40
1.0
 10
3.0704367105
 20
21.9708183632
 30
0.0
 10
3.0709978698
 20
22.0029671561
 30
0.0
 10
3.0780219866
 20
22.0355784994
 30
0.0
 10
3.0907006454
 20
22.0651269579
 30
0.0
 11
3.0704367105
 21
21.9708183632
 31
0.0
 11
3.0907006454
 21
22.0651269579
 31
0.0
  0
LINE
  5
670
100
AcDbEntity
  8
RACCORDO
100
AcDbLine
 62
253
  6
CONTINUOUS
 10
-5.0234127252
 20
19.9265872748
 11
-5.0234238078
 21
19.900000332
  0
LINE
  5
671
100
AcDbEntity
  8
RACCORDO
100
AcDbLine
 62
253
  6
CONTINUOUS
 10
5.0234238077
 20
19.9000004609
 11
5.0234127252
 21
19.9265872748
  0
SPLINE
  5
672
100
AcDbEntity
  8
ASSI
100
AcDbSpline
 62
253
  6
CONTINUOUS
 70
0
 71
3
 72
9
 73
5
 74
3
 42
0.0000001
 43
0.0000001
 44
0.0000000001
 12
0.0000009928
 22
-0.2164846565
 32
0.0
 13
0.0013081016
 23
-0.2164807044
 33
0.0
 40
0.0
 40
0.0
 40
0.0
 40
0.0
 40
0.2986608327
 40
1.0
 40
1.0
 40
1.0
 40
1.0
 10
10.3860054704
 20
23.8443575944
 30
0.0
 10
10.3860055693
 20
23.8228057652
 30
0.0
 10
10.3860481938
 20
23.7506443085
 30
0.0
 10
10.3861358263
 20
23.6784822881
 30
0.0
 10
10.386441634
 20
23.6278734891
 30
0.0
 11
10.3860054704
 21
23.8443575944
 31
0.0
 11
10.3860350445
 21
23.7797021134
 31
0.0
 11
10.386441634
 21
23.6278734891
 31
0.0
  0
LINE
  5
673
100
AcDbEntity
  8
ASSI
100
AcDbLine
 62
7
  6
CONTINUOUS
 10
9.2533769702
 20
23.6278312164
 11
9.0368706193
 21
23.8443375673
  0
LINE
  5
674
100
AcDbEntity
  8
ASSI
100
AcDbLine
 62
7
  6
CONTINUOUS
 10
-8.5466230298
 20
23.6278312164
 11
-8.7631293807
 21
23.8443375673
  0
LINE
  5
675
100
AcDbEntity
  8
ASSI
100
AcDbLine
 62
7
  6
CONTINUOUS
 10
9.2533769702
 20
-23.6278312163
 11
9.0368706193
 21
-23.8443375673
  0
SPLINE
  5
676
100
AcDbEntity
  8
ASSI
100
AcDbSpline
 62
253
  6
CONTINUOUS
 70
0
 71
3
 72
9
 73
5
 74
3
 42
0.0000001
 43
0.0000001
 44
0.0000000001
 12
-0.0000000792
 22
0.2165052661
 32
0.0
 13
0.0013107614
 23
0.2165012983
 33
0.0
 40
0.0
 40
0.0
 40
0.0
 40
0.0
 40
0.2988001338
 40
1.0
 40
1.0
 40
1.0
 40
1.0
 10
-7.4139945172
 20
-23.8443359311
 30
0.0
 10
-7.4139945251
 20
-23.8227719969
 30
0.0
 10
-7.4139511999
 20
-23.7506036713
 30
0.0
 10
-7.4138645095
 20
-23.6784347768
 30
0.0
 10
-7.4135581409
 20
-23.6278312163
 30
0.0
 11
-7.4139945172
 21
-23.8443359311
 31
0.0
 11
-7.4139647622
 21
-23.7796441354
 31
0.0
 11
-7.4135581409
 21
-23.6278312163
 31
0.0
  0
LINE
  5
677
100
AcDbEntity
  8
ASSI
100
AcDbLine
 62
7
  6
CONTINUOUS
 10
-8.5466230298
 20
-23.6278312163
 11
-8.7631293807
 21
-23.8443375673
  0
SPLINE
  5
678
100
AcDbEntity
  8
ASSI
100
AcDbSpline
 62
253
  6
CONTINUOUS
 70
0
 71
3
 72
14
 73
10
 74
8
 42
0.0000001
 43
0.0000001
 44
0.0000000001
 12
-0.000000141
 22
0.2499663422
 32
0.0
 13
0.0491548559
 23
0.245085643
 33
0.0
 40
0.0
 40
0.0
 40
0.0
 40
0.0
 40
0.3786133066
 40
0.5501125278
 40
0.7009454954
 40
0.8254364819
 40
0.9189015373
 40
0.9778261401
 40
1.0
 40
1.0
 40
1.0
 40
1.0
 10
-7.4139945176
 20
24.2368706193
 30
0.0
 10
-7.4139945353
 20
24.2684174804
 30
0.0
 10
-7.4139727011
 20
24.3142549596
 30
0.0
 10
-7.4138508281
 20
24.3726568764
 30
0.0
 10
-7.4137895106
 20
24.4098923791
 30
0.0
 10
-7.4135530617
 20
24.4406053457
 30
0.0
 10
-7.4136924069
 20
24.4637117853
 30
0.0
 10
-7.4130388117
 20
24.478187651
 30
0.0
 10
-7.4135003136
 20
24.4850210448
 30
0.0
 10
-7.4131369959
 20
24.4868325431
 30
0.0
 11
-7.4139945176
 21
24.2368706193
 31
0.0
 11
-7.4139295164
 21
24.3315111803
 31
0.0
 11
-7.4138505782
 21
24.3743801407
 31
0.0
 11
-7.4137442558
 21
24.412083156
 31
0.0
 11
-7.4136145445
 21
24.4432014422
 31
0.0
 11
-7.4134663063
 21
24.4665640899
 31
0.0
 11
-7.4133051477
 21
24.4812923757
 31
0.0
 11
-7.4131369959
 21
24.4868325431
 31
0.0
  0
SPLINE
  5
679
100
AcDbEntity
  8
ASSI
100
AcDbSpline
 62
253
  6
CONTINUOUS
 70
0
 71
3
 72
14
 73
10
 74
8
 42
0.0000001
 43
0.0000001
 44
0.0000000001
 12
0.0000001189
 22
0.249966339
 32
0.0
 13
-0.0492099614
 23
0.2450745811
 33
0.0
 40
0.0
 40
0.0
 40
0.0
 40
0.0
 40
0.3786100409
 40
0.5501099883
 40
0.7009445796
 40
0.8254365358
 40
0.9189015662
 40
0.9778261556
 40
1.0
 40
1.0
 40
1.0
 40
1.0
 10
-10.3860054824
 20
24.2368706193
 30
0.0
 10
-10.3860054674
 20
24.2684172079
 30
0.0
 10
-10.3860272746
 20
24.3142544772
 30
0.0
 10
-10.3861492046
 20
24.3726563112
 30
0.0
 10
-10.3862104419
 20
24.4098921038
 30
0.0
 10
-10.3864471949
 20
24.4406052452
 30
0.0
 10
-10.3863072154
 20
24.4637118553
 30
0.0
 10
-10.3869620337
 20
24.4781875415
 30
0.0
 10
-10.3864992794
 20
24.4850211279
 30
0.0
 10
-10.386863004
 20
24.4868325431
 30
0.0
 11
-10.3860054824
 21
24.2368706193
 31
0.0
 11
-10.3860704826
 21
24.3315103628
 31
0.0
 11
-10.3861494322
 21
24.3743795041
 31
0.0
 11
-10.3862557753
 21
24.4120829247
 31
0.0
 11
-10.3863855161
 21
24.4432014527
 31
0.0
 11
-10.3865337698
 21
24.4665640938
 31
0.0
 11
-10.386694994
 21
24.4812923753
 31
0.0
 11
-10.386863004
 21
24.4868325431
 31
0.0
  0
LINE
  5
67A
100
AcDbEntity
  8
ASSI
100
AcDbLine
 62
7
  6
CONTINUOUS
 10
-9.2533769702
 20
23.6278312164
 11
-9.0368706193
 21
23.8443375673
  0
SPLINE
  5
67B
100
AcDbEntity
  8
ASSI
100
AcDbSpline
 62
253
  6
CONTINUOUS
 70
0
 71
3
 72
14
 73
10
 74
8
 42
0.0000001
 43
0.0000001
 44
0.0000000001
 12
-0.0491706112
 22
-0.2450824821
 32
0.0
 13
0.0000001167
 23
-0.2499663418
 33
0.0
 40
0.0
 40
0.0
 40
0.0
 40
0.0
 40
0.0221606293
 40
0.0810577598
 40
0.1744933938
 40
0.2989593438
 40
0.4497753959
 40
0.6212776652
 40
1.0
 40
1.0
 40
1.0
 40
1.0
 10
10.3868630041
 20
24.4868325431
 30
0.0
 10
10.3864997868
 20
24.4850221491
 30
0.0
 10
10.3869613057
 20
24.4781921339
 30
0.0
 10
10.3863075985
 20
24.4637221322
 30
0.0
 10
10.3864470753
 20
24.4406225019
 30
0.0
 10
10.3862105356
 20
24.409915492
 30
0.0
 10
10.3861492425
 20
24.3726832268
 30
0.0
 10
10.3860272975
 20
24.3142733835
 30
0.0
 10
10.3860054677
 20
24.2684265648
 30
0.0
 10
10.3860054824
 20
24.2368706193
 30
0.0
 11
10.3868630041
 21
24.4868325431
 31
0.0
 11
10.386694946
 21
24.4812956816
 31
0.0
 11
10.3865337749
 21
24.4665742635
 31
0.0
 11
10.3863855484
 21
24.4432189703
 31
0.0
 11
10.3862558215
 21
24.4121069425
 31
0.0
 11
10.3861494862
 21
24.3744081557
 31
0.0
 11
10.386070521
 21
24.3315384335
 31
0.0
 11
10.3860054824
 21
24.2368706193
 31
0.0
  0
SPLINE
  5
67C
100
AcDbEntity
  8
ASSI
100
AcDbSpline
 62
253
  6
CONTINUOUS
 70
0
 71
3
 72
14
 73
10
 74
8
 42
0.0000001
 43
0.0000001
 44
0.0000000001
 12
0.049160375
 22
-0.2450845349
 32
0.0
 13
-0.0000001471
 23
-0.2499663411
 33
0.0
 40
0.0
 40
0.0
 40
0.0
 40
0.0
 40
0.0221560165
 40
0.0810435119
 40
0.1744698991
 40
0.2989314089
 40
0.4497489564
 40
0.6212570669
 40
1.0
 40
1.0
 40
1.0
 40
1.0
 10
7.413136996
 20
24.4868325431
 30
0.0
 10
7.413500062
 20
24.4850225107
 30
0.0
 10
7.4130387714
 20
24.4781937303
 30
0.0
 10
7.4136922938
 20
24.4637256474
 30
0.0
 10
7.413552889
 20
24.4406279784
 30
0.0
 10
7.413789417
 20
24.4099219782
 30
0.0
 10
7.4138507262
 20
24.3726894737
 30
0.0
 10
7.4139726907
 20
24.3142773023
 30
0.0
 10
7.4139945361
 20
24.268428281
 30
0.0
 10
7.4139945176
 20
24.2368706193
 30
0.0
 11
7.413136996
 21
24.4868325431
 31
0.0
 11
7.4133050077
 21
24.4812968337
 31
0.0
 11
7.4134661723
 21
24.4665778243
 31
0.0
 11
7.4136143962
 21
24.4432248425
 31
0.0
 11
7.4137441318
 21
24.4121139248
 31
0.0
 11
7.4138504802
 21
24.3744147643
 31
0.0
 11
7.4139294606
 21
24.3315435821
 31
0.0
 11
7.4139945176
 21
24.2368706193
 31
0.0
  0
LINE
  5
67D
100
AcDbEntity
  8
ASSI
100
AcDbLine
 62
7
  6
CONTINUOUS
 10
8.5466230298
 20
23.6278312164
 11
8.7631293807
 21
23.8443375673
  0
SPLINE
  5
67E
100
AcDbEntity
  8
ASSI
100
AcDbSpline
 62
253
  6
CONTINUOUS
 70
0
 71
3
 72
9
 73
5
 74
3
 42
0.0000001
 43
0.0000001
 44
0.0000000001
 12
0.0000000896
 22
-0.2165058745
 32
0.0
 13
-0.0013063683
 23
-0.2165019332
 33
0.0
 40
0.0
 40
0.0
 40
0.0
 40
0.0
 40
0.2987947629
 40
1.0
 40
1.0
 40
1.0
 40
1.0
 10
7.4139945176
 20
23.8443375673
 30
0.0
 10
7.4139945265
 20
23.8227739602
 30
0.0
 10
7.4139514454
 20
23.7506054304
 30
0.0
 10
7.4138634909
 20
23.6784363407
 30
0.0
 10
7.4135581468
 20
23.6278322442
 30
0.0
 11
7.4139945176
 21
23.8443375673
 31
0.0
 11
7.4139647755
 21
23.7796467527
 31
0.0
 11
7.4135581468
 21
23.6278322442
 31
0.0
  0
LINE
  5
67F
100
AcDbEntity
  8
ASSI
100
AcDbLine
 62
7
  6
CONTINUOUS
 10
8.5466230298
 20
-23.6278312163
 11
8.7631293807
 21
-23.8443375673
  0
SPLINE
  5
680
100
AcDbEntity
  8
ASSI
100
AcDbSpline
 62
253
  6
CONTINUOUS
 70
0
 71
3
 72
14
 73
10
 74
8
 42
0.0000001
 43
0.0000001
 44
0.0000000001
 12
-0.0000000687
 22
-0.2499663444
 32
0.0
 13
0.0491137667
 23
-0.2450938825
 33
0.0
 40
0.0
 40
0.0
 40
0.0
 40
0.0
 40
0.3786395008
 40
0.550139788
 40
0.7009672494
 40
0.8254503747
 40
0.9189081356
 40
0.9778278067
 40
1.0
 40
1.0
 40
1.0
 40
1.0
 10
10.3860054824
 20
-24.2368706193
 30
0.0
 10
10.3860054738
 20
-24.2684196632
 30
0.0
 10
10.3860272975
 20
-24.3142594125
 30
0.0
 10
10.3861491224
 20
-24.3726631466
 30
0.0
 10
10.3862104998
 20
-24.4098976144
 30
0.0
 10
10.3864467432
 20
-24.4406088888
 30
0.0
 10
10.3863078639
 20
-24.4637135837
 30
0.0
 10
10.386960606
 20
-24.4781884258
 30
0.0
 10
10.3865000174
 20
-24.4850211201
 30
0.0
 10
10.3868630041
 20
-24.4868325431
 30
0.0
 11
10.3860054824
 21
-24.2368706193
 31
0.0
 11
10.3860704682
 21
-24.3315177288
 31
0.0
 11
10.3861493912
 21
-24.374386956
 31
0.0
 11
10.3862557031
 21
-24.4120885953
 31
0.0
 11
10.3863854026
 21
-24.4432049167
 31
0.0
 11
10.3865336466
 21
-24.4665657412
 31
0.0
 11
10.3866947826
 21
-24.4812927945
 31
0.0
 11
10.3868630041
 21
-24.4868325431
 31
0.0
  0
SPLINE
  5
681
100
AcDbEntity
  8
ASSI
100
AcDbSpline
 62
253
  6
CONTINUOUS
 70
0
 71
3
 72
14
 73
10
 74
8
 42
0.0000001
 43
0.0000001
 44
0.0000000001
 12
0.0000000323
 22
-0.2499663453
 32
0.0
 13
-0.049087989
 23
-0.2450990475
 33
0.0
 40
0.0
 40
0.0
 40
0.0
 40
0.0
 40
0.3786065168
 40
0.5501055326
 40
0.7009400823
 40
0.8254330677
 40
0.9188998663
 40
0.9778256462
 40
1.0
 40
1.0
 40
1.0
 40
1.0
 10
7.4139945176
 20
-24.2368706193
 30
0.0
 10
7.4139945216
 20
-24.2684169151
 30
0.0
 10
7.4139727084
 20
-24.3142538091
 30
0.0
 10
7.4138509227
 20
-24.3726552825
 30
0.0
 10
7.413789518
 20
-24.4098910507
 30
0.0
 10
7.4135533778
 20
-24.4406045068
 30
0.0
 10
7.4136920289
 20
-24.4637112467
 30
0.0
 10
7.4130396904
 20
-24.4781876029
 30
0.0
 10
7.4134998274
 20
-24.4850209054
 30
0.0
 10
7.413136996
 20
-24.4868325431
 30
0.0
 11
7.4139945176
 21
-24.2368706193
 31
0.0
 11
7.4139295548
 21
-24.3315094843
 31
0.0
 11
7.4138506466
 21
-24.3743783938
 31
0.0
 11
7.4137443438
 21
-24.4120818051
 31
0.0
 11
7.4136146489
 21
-24.4432005914
 31
0.0
 11
7.4134663984
 21
-24.4665636751
 31
0.0
 11
7.413305262
 21
-24.4812922556
 31
0.0
 11
7.413136996
 21
-24.4868325431
 31
0.0
  0
SPLINE
  5
682
100
AcDbEntity
  8
ASSI
100
AcDbSpline
 62
253
  6
CONTINUOUS
 70
0
 71
3
 72
14
 73
10
 74
8
 42
0.0000001
 43
0.0000001
 44
0.0000000001
 12
-0.0491043212
 22
0.2450957745
 32
0.0
 13
0.0000000526
 23
0.2499663438
 33
0.0
 40
0.0
 40
0.0
 40
0.0
 40
0.0
 40
0.022157059
 40
0.0810464688
 40
0.1744747522
 40
0.2989370018
 40
0.449754176
 40
0.6212612533
 40
1.0
 40
1.0
 40
1.0
 40
1.0
 10
-7.4131369959
 20
-24.4868325431
 30
0.0
 10
-7.4134996651
 20
-24.4850223426
 30
0.0
 10
-7.413039502
 20
-24.4781935071
 30
0.0
 10
-7.4136920061
 20
-24.4637248483
 30
0.0
 10
-7.4135531668
 20
-24.440626892
 30
0.0
 10
-7.4137894372
 20
-24.4099206646
 30
0.0
 10
-7.4138508104
 20
-24.3726882289
 30
0.0
 10
-7.4139726997
 20
-24.314276517
 30
0.0
 10
-7.4139945242
 20
-24.2684279325
 30
0.0
 10
-7.4139945176
 20
-24.2368706193
 30
0.0
 11
-7.4131369959
 21
-24.4868325431
 31
0.0
 11
-7.4133051064
 21
-24.481296576
 31
0.0
 11
-7.413466268
 21
-24.4665770877
 31
0.0
 11
-7.4136145007
 21
-24.4432236318
 31
0.0
 11
-7.4137442186
 21
-24.4121125288
 31
0.0
 11
-7.4138505439
 21
-24.3744134611
 31
0.0
 11
-7.4139294957
 21
-24.3315425367
 31
0.0
 11
-7.4139945176
 21
-24.2368706193
 31
0.0
  0
SPLINE
  5
683
100
AcDbEntity
  8
ASSI
100
AcDbSpline
 62
253
  6
CONTINUOUS
 70
0
 71
3
 72
14
 73
10
 74
8
 42
0.0000001
 43
0.0000001
 44
0.0000000001
 12
0.0491134197
 22
0.2450939515
 32
0.0
 13
0.0000001703
 23
0.2499663439
 33
0.0
 40
0.0
 40
0.0
 40
0.0
 40
0.0
 40
0.0221565105
 40
0.0810450584
 40
0.1744730098
 40
0.2989360946
 40
0.4497542304
 40
0.6212613331
 40
1.0
 40
1.0
 40
1.0
 40
1.0
 10
-10.386863004
 20
-24.4868325431
 30
0.0
 10
-10.3865002767
 20
-24.4850224008
 30
0.0
 10
-10.3869605991
 20
-24.4781936534
 30
0.0
 10
-10.3863079234
 20
-24.463725167
 30
0.0
 10
-10.3864468332
 20
-24.4406272257
 30
0.0
 10
-10.3862105136
 20
-24.4099208826
 30
0.0
 10
-10.3861491409
 20
-24.3726882928
 30
0.0
 10
-10.3860272632
 20
-24.3142765062
 30
0.0
 10
-10.386005504
 20
-24.2684279259
 30
0.0
 10
-10.3860054824
 20
-24.2368706193
 30
0.0
 11
-10.386863004
 21
-24.4868325431
 31
0.0
 11
-10.3866949038
 21
-24.4812967128
 31
0.0
 11
-10.3865337258
 21
-24.4665774402
 31
0.0
 11
-10.3863854758
 21
-24.4432240674
 31
0.0
 11
-10.3862557434
 21
-24.4121127556
 31
0.0
 11
-10.3861494083
 21
-24.3744134476
 31
0.0
 11
-10.3860704692
 21
-24.3315425168
 31
0.0
 11
-10.3860054824
 21
-24.2368706193
 31
0.0
  0
SPLINE
  5
684
100
AcDbEntity
  8
ASSI
100
AcDbSpline
 62
253
  6
CONTINUOUS
 70
0
 71
3
 72
9
 73
5
 74
3
 42
0.0000001
 43
0.0000001
 44
0.0000000001
 12
0.0000041288
 22
0.2164298683
 32
0.0
 13
-0.0012987802
 23
0.2164259713
 33
0.0
 40
0.0
 40
0.0
 40
0.0
 40
0.0
 40
0.2987119025
 40
1.0
 40
1.0
 40
1.0
 40
1.0
 10
-10.3860055349
 20
-23.844250724
 30
0.0
 10
-10.3860051238
 20
-23.8227006648
 30
0.0
 10
-10.3860484515
 20
-23.750557468
 30
0.0
 10
-10.3861383046
 20
-23.6784137267
 30
0.0
 10
-10.386441911
 20
-23.6278214075
 30
0.0
 11
-10.3860055349
 21
-23.844250724
 31
0.0
 11
-10.3860351602
 21
-23.7796005531
 31
0.0
 11
-10.386441911
 21
-23.6278214075
 31
0.0
  0
LINE
  5
685
100
AcDbEntity
  8
ASSI
100
AcDbLine
 62
7
  6
CONTINUOUS
 10
-9.2533769702
 20
-23.6278312163
 11
-9.0368706193
 21
-23.8443375673
  0
SPLINE
  5
686
100
AcDbEntity
  8
ASSI
100
AcDbSpline
 62
253
  6
CONTINUOUS
 70
0
 71
3
 72
8
 73
4
 74
2
 42
0.0000001
 43
0.0000001
 44
0.0000000001
 12
-0.0016834778
 22
-0.0964463789
 32
0.0
 13
-0.0380359763
 23
-0.0886453755
 33
0.0
 40
0.0
 40
0.0
 40
0.0
 40
0.0
 40
1.0
 40
1.0
 40
1.0
 40
1.0
 10
-3.0704367105
 20
-21.9708183632
 30
0.0
 10
-3.0709978698
 20
-22.0029671561
 30
0.0
 10
-3.0780219866
 20
-22.0355784994
 30
0.0
 10
-3.0907006454
 20
-22.0651269579
 30
0.0
 11
-3.0704367105
 21
-21.9708183632
 31
0.0
 11
-3.0907006454
 21
-22.0651269579
 31
0.0
  0
SPLINE
  5
687
100
AcDbEntity
  8
ASSI
100
AcDbSpline
 62
253
  6
CONTINUOUS
 70
0
 71
3
 72
11
 73
7
 74
5
 42
0.0000001
 43
0.0000001
 44
0.0000000001
 12
-0.0029298877
 22
0.290817936
 32
0.0
 13
-0.2908243864
 23
0.0021982718
 33
0.0
 40
0.0
 40
0.0
 40
0.0
 40
0.0
 40
0.2330682335
 40
0.4768287988
 40
0.7340988118
 40
1.0
 40
1.0
 40
1.0
 40
1.0
 10
10.5864113981
 20
-23.8010362971
 30
0.0
 10
10.5861837769
 20
-23.7784428229
 30
0.0
 10
10.5747821072
 20
-23.7317691528
 30
0.0
 10
10.5292238729
 20
-23.6746348299
 30
0.0
 10
10.4633039456
 20
-23.6369744694
 30
0.0
 10
10.412218709
 20
-23.6280260574
 30
0.0
 10
10.3864418591
 20
-23.6278312164
 30
0.0
 11
10.5864113981
 21
-23.8010362971
 31
0.0
 11
10.5706918472
 21
-23.7351003607
 31
0.0
 11
10.5272287389
 21
-23.6790927495
 31
0.0
 11
10.4625665606
 21
-23.6414468486
 31
0.0
 11
10.3864418591
 21
-23.6278312164
 31
0.0
  0
SPLINE
  5
688
100
AcDbEntity
  8
ASSI
100
AcDbSpline
 62
253
  6
CONTINUOUS
 70
0
 71
3
 72
11
 73
7
 74
5
 42
0.0000001
 43
0.0000001
 44
0.0000000001
 12
-0.290824418
 22
-0.0021981279
 32
0.0
 13
-0.0029298796
 23
-0.2908179665
 33
0.0
 40
0.0
 40
0.0
 40
0.0
 40
0.0
 40
0.2659011537
 40
0.5231711216
 40
0.7669316808
 40
1.0
 40
1.0
 40
1.0
 40
1.0
 10
7.4135581409
 20
-23.6278312163
 30
0.0
 10
7.3877812915
 20
-23.6280260446
 30
0.0
 10
7.3366960526
 20
-23.6369744366
 30
0.0
 10
7.2707761169
 20
-23.6746347866
 30
0.0
 10
7.2252178835
 20
-23.7317691277
 30
0.0
 10
7.2138162226
 20
-23.7784428122
 30
0.0
 10
7.2135886019
 20
-23.8010362971
 30
0.0
 11
7.4135581409
 21
-23.6278312163
 31
0.0
 11
7.3374334361
 21
-23.6414468189
 31
0.0
 11
7.2727712565
 21
-23.6790927071
 31
0.0
 11
7.2293081505
 21
-23.7351003272
 31
0.0
 11
7.2135886019
 21
-23.8010362971
 31
0.0
  0
SPLINE
  5
689
100
AcDbEntity
  8
ASSI
100
AcDbSpline
 62
253
  6
CONTINUOUS
 70
0
 71
3
 72
11
 73
7
 74
5
 42
0.0000001
 43
0.0000001
 44
0.0000000001
 12
0.290824418
 22
-0.002198128
 32
0.0
 13
0.0029298796
 23
-0.2908179665
 33
0.0
 40
0.0
 40
0.0
 40
0.0
 40
0.0
 40
0.2659011522
 40
0.5231711191
 40
0.7669316794
 40
1.0
 40
1.0
 40
1.0
 40
1.0
 10
-7.4135581409
 20
-23.6278312163
 30
0.0
 10
-7.3877812917
 20
-23.6280260446
 30
0.0
 10
-7.336696053
 20
-23.6369744364
 30
0.0
 10
-7.2707761173
 20
-23.6746347862
 30
0.0
 10
-7.2252178837
 20
-23.7317691273
 30
0.0
 10
-7.2138162226
 20
-23.7784428121
 30
0.0
 10
-7.2135886019
 20
-23.8010362971
 30
0.0
 11
-7.4135581409
 21
-23.6278312163
 31
0.0
 11
-7.3374334365
 21
-23.6414468187
 31
0.0
 11
-7.2727712571
 21
-23.6790927066
 31
0.0
 11
-7.2293081507
 21
-23.7351003269
 31
0.0
 11
-7.2135886019
 21
-23.8010362971
 31
0.0
  0
SPLINE
  5
68A
100
AcDbEntity
  8
ASSI
100
AcDbSpline
 62
253
  6
CONTINUOUS
 70
0
 71
3
 72
11
 73
7
 74
5
 42
0.0000001
 43
0.0000001
 44
0.0000000001
 12
0.0029298796
 22
0.2908179665
 32
0.0
 13
0.2908244179
 23
0.0021981283
 33
0.0
 40
0.0
 40
0.0
 40
0.0
 40
0.0
 40
0.2330683206
 40
0.4768288809
 40
0.7340988478
 40
1.0
 40
1.0
 40
1.0
 40
1.0
 10
-10.5864113981
 20
-23.8010362971
 30
0.0
 10
-10.5861837774
 20
-23.7784428121
 30
0.0
 10
-10.5747821163
 20
-23.7317691273
 30
0.0
 10
-10.5292238827
 20
-23.6746347862
 30
0.0
 10
-10.463303947
 20
-23.6369744365
 30
0.0
 10
-10.4122187083
 20
-23.6280260446
 30
0.0
 10
-10.3864418591
 20
-23.6278312163
 30
0.0
 11
-10.5864113981
 21
-23.8010362971
 31
0.0
 11
-10.5706918493
 21
-23.7351003269
 31
0.0
 11
-10.5272287429
 21
-23.6790927066
 31
0.0
 11
-10.4625665635
 21
-23.6414468188
 31
0.0
 11
-10.3864418591
 21
-23.6278312163
 31
0.0
  0
SPLINE
  5
68B
100
AcDbEntity
  8
ASSI
100
AcDbSpline
 62
253
  6
CONTINUOUS
 70
0
 71
3
 72
11
 73
7
 74
5
 42
0.0000001
 43
0.0000001
 44
0.0000000001
 12
-0.0029298796
 22
-0.290817965
 32
0.0
 13
-0.2908244163
 23
-0.0021981479
 33
0.0
 40
0.0
 40
0.0
 40
0.0
 40
0.0
 40
0.2330683208
 40
0.4768288792
 40
0.7340988449
 40
1.0
 40
1.0
 40
1.0
 40
1.0
 10
10.5864113981
 20
23.8010362971
 30
0.0
 10
10.5861837774
 20
23.7784428122
 30
0.0
 10
10.5747821164
 20
23.7317691278
 30
0.0
 10
10.5292238826
 20
23.6746347873
 30
0.0
 10
10.4633039461
 20
23.6369744404
 30
0.0
 10
10.4122187085
 20
23.6280260464
 30
0.0
 10
10.3864418591
 20
23.6278312164
 30
0.0
 11
10.5864113981
 21
23.8010362971
 31
0.0
 11
10.5706918493
 21
23.7351003272
 31
0.0
 11
10.5272287429
 21
23.6790927081
 31
0.0
 11
10.4625665634
 21
23.6414468218
 31
0.0
 11
10.3864418591
 21
23.6278312164
 31
0.0
  0
SPLINE
  5
68C
100
AcDbEntity
  8
ASSI
100
AcDbSpline
 62
253
  6
CONTINUOUS
 70
0
 71
3
 72
11
 73
7
 74
5
 42
0.0000001
 43
0.0000001
 44
0.0000000001
 12
0.290824418
 22
0.0021981279
 32
0.0
 13
0.0029298796
 23
0.2908179665
 33
0.0
 40
0.0
 40
0.0
 40
0.0
 40
0.0
 40
0.2659011524
 40
0.5231711195
 40
0.7669316796
 40
1.0
 40
1.0
 40
1.0
 40
1.0
 10
-7.4135581409
 20
23.6278312164
 30
0.0
 10
-7.3877812916
 20
23.6280260446
 30
0.0
 10
-7.336696053
 20
23.6369744365
 30
0.0
 10
-7.2707761173
 20
23.6746347863
 30
0.0
 10
-7.2252178837
 20
23.7317691274
 30
0.0
 10
-7.2138162226
 20
23.7784428121
 30
0.0
 10
-7.2135886019
 20
23.8010362971
 30
0.0
 11
-7.4135581409
 21
23.6278312164
 31
0.0
 11
-7.3374334365
 21
23.6414468187
 31
0.0
 11
-7.272771257
 21
23.6790927066
 31
0.0
 11
-7.2293081507
 21
23.7351003269
 31
0.0
 11
-7.2135886019
 21
23.8010362971
 31
0.0
  0
SPLINE
  5
68D
100
AcDbEntity
  8
ASSI
100
AcDbSpline
 62
253
  6
CONTINUOUS
 70
0
 71
3
 72
11
 73
7
 74
5
 42
0.0000001
 43
0.0000001
 44
0.0000000001
 12
-0.290824418
 22
0.002198128
 32
0.0
 13
-0.0029298796
 23
0.2908179665
 33
0.0
 40
0.0
 40
0.0
 40
0.0
 40
0.0
 40
0.2659011522
 40
0.5231711191
 40
0.7669316794
 40
1.0
 40
1.0
 40
1.0
 40
1.0
 10
7.4135581409
 20
23.6278312164
 30
0.0
 10
7.3877812917
 20
23.6280260446
 30
0.0
 10
7.336696053
 20
23.6369744364
 30
0.0
 10
7.2707761173
 20
23.6746347862
 30
0.0
 10
7.2252178837
 20
23.7317691273
 30
0.0
 10
7.2138162226
 20
23.7784428121
 30
0.0
 10
7.2135886019
 20
23.8010362971
 30
0.0
 11
7.4135581409
 21
23.6278312164
 31
0.0
 11
7.3374334365
 21
23.6414468187
 31
0.0
 11
7.2727712571
 21
23.6790927066
 31
0.0
 11
7.2293081507
 21
23.7351003269
 31
0.0
 11
7.2135886019
 21
23.8010362971
 31
0.0
  0
SPLINE
  5
68E
100
AcDbEntity
  8
ASSI
100
AcDbSpline
 62
253
  6
CONTINUOUS
 70
0
 71
3
 72
11
 73
7
 74
5
 42
0.0000001
 43
0.0000001
 44
0.0000000001
 12
0.0029298744
 22
-0.2908179843
 32
0.0
 13
0.2908244364
 23
-0.0021980406
 33
0.0
 40
0.0
 40
0.0
 40
0.0
 40
0.0
 40
0.2330683041
 40
0.4768288064
 40
0.7340987915
 40
1.0
 40
1.0
 40
1.0
 40
1.0
 10
-10.5864113981
 20
23.8010362971
 30
0.0
 10
-10.5861837778
 20
23.7784428123
 30
0.0
 10
-10.5747821307
 20
23.7317691306
 30
0.0
 10
-10.5292239105
 20
23.674634778
 30
0.0
 10
-10.4633039672
 20
23.636974425
 30
0.0
 10
-10.4122187154
 20
23.6280260394
 30
0.0
 10
-10.386441859
 20
23.6278312189
 30
0.0
 11
-10.5864113981
 21
23.8010362971
 31
0.0
 11
-10.570691861
 21
23.7351003247
 31
0.0
 11
-10.5272287738
 21
23.6790927054
 31
0.0
 11
-10.4625665866
 21
23.6414468114
 31
0.0
 11
-10.386441859
 21
23.6278312189
 31
0.0
  0
SPLINE
  5
68F
100
AcDbEntity
  8
ASSI
100
AcDbSpline
 62
253
  6
CONTINUOUS
 70
0
 71
3
 72
32
 73
28
 74
26
 42
0.0000001
 43
0.0000001
 44
0.0000000001
 12
0.5800118443
 22
-0.4853572664
 32
0.0
 13
-0.0253987174
 23
0.7558705714
 33
0.0
 40
0.0
 40
0.0
 40
0.0
 40
0.0
 40
0.0033113905
 40
0.0113136186
 40
0.0239499527
 40
0.0411253532
 40
0.0626619603
 40
0.0883455526
 40
0.1512117447
 40
0.2273153429
 40
0.3137878547
 40
0.4073275869
 40
0.5043876774
 40
0.6012782081
 40
0.6943165
 40
0.7799741818
 40
0.8549795147
 40
0.8875927299
 40
0.9165090058
 40
0.941450398
 40
0.9622030398
 40
0.9785580809
 40
0.9903466075
 40
0.9945029966
 40
0.9974913202
 40
0.9993101227
 40
1.0
 40
1.0
 40
1.0
 40
1.0
 10
-4.351751152
 20
23.6517894779
 30
0.0
 10
-4.3511109368
 20
23.6512537421
 30
0.0
 10
-4.3479539764
 20
23.6513575212
 30
0.0
 10
-4.3422035327
 20
23.6505449942
 30
0.0
 10
-4.3325341652
 20
23.6503471496
 30
0.0
 10
-4.3196557917
 20
23.649882803
 30
0.0
 10
-4.3034020999
 20
23.6495831393
 30
0.0
 10
-4.2756627055
 20
23.6491615624
 30
0.0
 10
-4.2341481777
 20
23.64884108
 30
0.0
 10
-4.1773171101
 20
23.648677572
 30
0.0
 10
-4.1127495792
 20
23.6487537025
 30
0.0
 10
-4.0429007389
 20
23.6490602205
 30
0.0
 10
-3.9704264465
 20
23.6495894865
 30
0.0
 10
-3.8980804539
 20
23.6503219293
 30
0.0
 10
-3.8286111123
 20
23.6512281889
 30
0.0
 10
-3.7646617844
 20
23.6522731342
 30
0.0
 10
-3.7159465964
 20
23.6532642789
 30
0.0
 10
-3.6815372486
 20
23.6541141471
 30
0.0
 10
-3.6597453796
 20
23.6547287683
 30
0.0
 10
-3.6409499706
 20
23.6553453303
 30
0.0
 10
-3.6253084991
 20
23.6559529604
 30
0.0
 10
-3.6130237249
 20
23.6565499384
 30
0.0
 10
-3.6048382836
 20
23.6570580372
 30
0.0
 10
-3.6001623746
 20
23.657490694
 30
0.0
 10
-3.5977882433
 20
23.6577550333
 30
0.0
 10
-3.5966590653
 20
23.6580098812
 30
0.0
 10
-3.5957920809
 20
23.658201208
 30
0.0
 10
-3.5957979215
 20
23.6583750273
 30
0.0
 11
-4.351751152
 21
23.6517894779
 31
0.0
 11
-4.3493006506
 21
23.6512727203
 31
0.0
 11
-4.3432677709
 21
23.6507912404
 31
0.0
 11
-4.3337211162
 21
23.6503504858
 31
0.0
 11
-4.3207374102
 21
23.6499556914
 31
0.0
 11
-4.3044529926
 21
23.6496105308
 31
0.0
 11
-4.2850307676
 21
23.6493179816
 31
0.0
 11
-4.2374870676
 21
23.6489015731
 31
0.0
 11
-4.179930413
 21
23.6487215198
 31
0.0
 11
-4.1145315276
 21
23.6487852077
 31
0.0
 11
-4.0437883493
 21
23.6490900538
 31
0.0
 11
-3.9703840216
 21
23.6496243423
 31
0.0
 11
-3.8971097622
 21
23.6503681552
 31
0.0
 11
-3.8267512389
 21
23.6512926812
 31
0.0
 11
-3.7619774202
 21
23.6523631034
 31
0.0
 11
-3.7052632878
 21
23.6535389871
 31
0.0
 11
-3.6806056347
 21
23.6541524277
 31
0.0
 11
-3.6587451995
 21
23.6547749671
 31
0.0
 11
-3.6398924785
 21
23.6554007603
 31
0.0
 11
-3.6242096958
 21
23.6560240691
 31
0.0
 11
-3.6118557274
 21
23.6566391615
 31
0.0
 11
-3.6029603776
 21
23.6572401599
 31
0.0
 11
-3.5998306234
 21
23.6575334388
 31
0.0
 11
-3.5975889139
 21
23.6578208633
 31
0.0
 11
-3.5962423222
 21
23.6581016531
 31
0.0
 11
-3.5957979215
 21
23.6583750273
 31
0.0
  0
SPLINE
  5
690
100
AcDbEntity
  8
ASSI
100
AcDbSpline
 62
7
  6
CONTINUOUS
 70
0
 71
3
 72
13
 73
9
 74
7
 42
0.0000001
 43
0.0000001
 44
0.0000000001
 12
0.0008666553
 22
-0.0330962309
 32
0.0
 13
-0.0330810017
 23
-0.0013262404
 33
0.0
 40
0.0
 40
0.0
 40
0.0
 40
0.0
 40
0.0188768012
 40
0.0671627628
 40
0.1462585324
 40
0.2561899447
 40
0.5679003879
 40
1.0
 40
1.0
 40
1.0
 40
1.0
 10
-3.5602847461
 20
22.3021815735
 30
0.0
 10
-3.5602792929
 20
22.3019733232
 30
0.0
 10
-3.5612563396
 20
22.3016943289
 30
0.0
 10
-3.5625994122
 20
22.3014027881
 30
0.0
 10
-3.5653317068
 20
22.3010650748
 30
0.0
 10
-3.5707546819
 20
22.3005605946
 30
0.0
 10
-3.5802207649
 20
22.2999799498
 30
0.0
 10
-3.5883994589
 20
22.2996127776
 30
0.0
 10
-3.5931642216
 20
22.2994217549
 30
0.0
 11
-3.5602847461
 21
22.3021815735
 31
0.0
 11
-3.5608000495
 21
22.3018279582
 31
0.0
 11
-3.5623591479
 21
22.3014746398
 31
0.0
 11
-3.5649540611
 21
22.3011227109
 31
0.0
 11
-3.568576809
 21
22.3007732643
 31
0.0
 11
-3.578873889
 21
22.3000861885
 31
0.0
 11
-3.5931642216
 21
22.2994217549
 31
0.0
  0
SPLINE
  5
691
100
AcDbEntity
  8
ASSI
100
AcDbSpline
 62
7
  6
CONTINUOUS
 70
0
 71
3
 72
22
 73
18
 74
16
 42
0.0000001
 43
0.0000001
 44
0.0000000001
 12
-0.7585225184
 22
-0.0304096964
 32
0.0
 13
-0.5367872766
 23
0.5367872766
 33
0.0
 40
0.0
 40
0.0
 40
0.0
 40
0.0
 40
0.096520142
 40
0.2365365693
 40
0.4040976435
 40
0.5800919048
 40
0.6649735085
 40
0.7445068988
 40
0.8163923812
 40
0.8785749798
 40
0.9292699103
 40
0.9498516576
 40
0.9670571315
 40
0.9807427341
 40
0.9908193096
 40
0.9972410301
 40
1.0
 40
1.0
 40
1.0
 40
1.0
 10
-3.5931642216
 20
22.2994217549
 30
0.0
 10
-3.6175684553
 20
22.2984433722
 30
0.0
 10
-3.6774142486
 20
22.297140657
 30
0.0
 10
-3.7796591017
 20
22.2958484956
 30
0.0
 10
-3.9020241423
 20
22.2952132896
 30
0.0
 10
-4.0104378407
 20
22.2952565168
 30
0.0
 10
-4.0965755392
 20
22.2956837934
 30
0.0
 10
-4.156367747
 20
22.296180895
 30
0.0
 10
-4.2104152779
 20
22.2968395899
 30
0.0
 10
-4.2571593331
 20
22.297644474
 30
0.0
 10
-4.2909271611
 20
22.2984422773
 30
0.0
 10
-4.313296046
 20
22.2991826149
 30
0.0
 10
-4.3263306507
 20
22.2996869544
 30
0.0
 10
-4.3366298831
 20
22.3002823108
 30
0.0
 10
-4.3443767555
 20
22.3006817208
 30
0.0
 10
-4.3489810781
 20
22.3014545971
 30
0.0
 10
-4.3515649635
 20
22.3015649635
 30
0.0
 10
-4.3520586235
 20
22.3020586235
 30
0.0
 11
-3.5931642216
 21
22.2994217549
 31
0.0
 11
-3.6664097674
 21
22.2974711843
 31
0.0
 11
-3.7726912838
 21
22.2960566622
 31
0.0
 11
-3.8998902124
 21
22.2953399631
 31
0.0
 11
-4.0334930462
 21
22.2954027593
 31
0.0
 11
-4.0979285555
 21
22.2957276888
 31
0.0
 11
-4.1583027289
 21
22.2962379266
 31
0.0
 11
-4.2128690431
 21
22.2969185604
 31
0.0
 11
-4.2600665101
 21
22.2977500656
 31
0.0
 11
-4.2985387112
 21
22.2987084363
 31
0.0
 11
-4.3141543663
 21
22.2992269074
 31
0.0
 11
-4.3272044259
 21
22.2997668102
 31
0.0
 11
-4.3375786228
 21
22.3003245133
 31
0.0
 11
-4.3452067209
 21
22.3008956482
 31
0.0
 11
-4.3500470667
 21
22.3014753203
 31
0.0
 11
-4.3520586235
 21
22.3020586235
 31
0.0
  0
SPLINE
  5
692
100
AcDbEntity
  8
ASSI
100
AcDbSpline
 62
253
  6
CONTINUOUS
 70
0
 71
3
 72
32
 73
28
 74
26
 42
0.0000001
 43
0.0000001
 44
0.0000000001
 12
-0.5803778796
 22
-0.4849227702
 32
0.0
 13
0.0274848972
 23
0.7557996802
 33
0.0
 40
0.0
 40
0.0
 40
0.0
 40
0.0
 40
0.003307199
 40
0.0112960421
 40
0.023916464
 40
0.0410794276
 40
0.0626079077
 40
0.0882858519
 40
0.1511427304
 40
0.2272402689
 40
0.3137120751
 40
0.4072553036
 40
0.5043221521
 40
0.6012219725
 40
0.6942711034
 40
0.7799401121
 40
0.8549563945
 40
0.8875745565
 40
0.9164952452
 40
0.9414404428
 40
0.9621964366
 40
0.9785545565
 40
0.9903457231
 40
0.994503026
 40
0.997491853
 40
0.9993106482
 40
1.0
 40
1.0
 40
1.0
 40
1.0
 10
4.351752949
 20
23.6517910252
 30
0.0
 10
4.3511131407
 20
23.6512564465
 30
0.0
 10
4.3479623937
 20
23.6513568854
 30
0.0
 10
4.3422189153
 20
23.6505468722
 30
0.0
 10
4.332560766
 20
23.6503478364
 30
0.0
 10
4.3196912882
 20
23.649884063
 30
0.0
 10
4.3034442489
 20
23.6495842422
 30
0.0
 10
4.2757105633
 20
23.6491626377
 30
0.0
 10
4.2342012449
 20
23.648841874
 30
0.0
 10
4.1773740654
 20
23.648678131
 30
0.0
 10
4.1128071828
 20
23.6487541192
 30
0.0
 10
4.0429557407
 20
23.6490604576
 30
0.0
 10
3.9704763197
 20
23.6495895216
 30
0.0
 10
3.8981233471
 20
23.6503218176
 30
0.0
 10
3.8286458814
 20
23.6512279664
 30
0.0
 10
3.7646880263
 20
23.6522728328
 30
0.0
 10
3.7159658373
 20
23.6532639199
 30
0.0
 10
3.6815512742
 20
23.6541137751
 30
0.0
 10
3.659756021
 20
23.6547284142
 30
0.0
 10
3.6409576553
 20
23.655345012
 30
0.0
 10
3.6253135254
 20
23.6559527225
 30
0.0
 10
3.6130265235
 20
23.6565497156
 30
0.0
 10
3.6048391913
 20
23.6570579712
 30
0.0
 10
3.6001625114
 20
23.6574905177
 30
0.0
 10
3.5977875868
 20
23.6577551281
 30
0.0
 10
3.5966591369
 20
23.6580095127
 30
0.0
 10
3.5957916059
 20
23.6582013567
 30
0.0
 10
3.5957979215
 20
23.6583750273
 30
0.0
 11
4.351752949
 21
23.6517910252
 31
0.0
 11
4.3493057674
 21
23.6512738556
 31
0.0
 11
4.3432830323
 21
23.6507923005
 31
0.0
 11
4.3337483951
 21
23.6503516171
 31
0.0
 11
4.3207740621
 21
23.6499568698
 31
0.0
 11
4.3044957477
 21
23.6496116916
 31
0.0
 11
4.2850777421
 21
23.6493190715
 31
0.0
 11
4.2375409571
 21
23.6489024174
 31
0.0
 11
4.1799887272
 21
23.648722109
 31
0.0
 11
4.1145901947
 21
23.6487856204
 31
0.0
 11
4.0438441759
 21
23.6490902839
 31
0.0
 11
3.9704345327
 21
23.6496243783
 31
0.0
 11
3.8971530432
 21
23.6503680384
 31
0.0
 11
3.8267861257
 21
23.6512924524
 31
0.0
 11
3.762003559
 21
23.6523627925
 31
0.0
 11
3.7052809858
 21
23.6535386239
 31
0.0
 11
3.6806195222
 21
23.6541520601
 31
0.0
 11
3.6587556882
 21
23.6547746177
 31
0.0
 11
3.6399000367
 21
23.6554004521
 31
0.0
 11
3.6242146759
 21
23.6560238177
 31
0.0
 11
3.6118583452
 21
23.656638975
 31
0.0
 11
3.602960974
 21
23.6572400398
 31
0.0
 11
3.5998305199
 21
23.657533351
 31
0.0
 11
3.5975884243
 21
23.6578208068
 31
0.0
 11
3.5962418404
 21
23.6581016259
 31
0.0
 11
3.5957979215
 21
23.6583750273
 31
0.0
  0
SPLINE
  5
693
100
AcDbEntity
  8
ASSI
100
AcDbSpline
 62
7
  6
CONTINUOUS
 70
0
 71
3
 72
24
 73
20
 74
18
 42
0.0000001
 43
0.0000001
 44
0.0000000001
 12
-0.558586347
 22
-0.558586347
 32
0.0
 13
-0.7790681518
 23
0.1307296029
 33
0.0
 40
0.0
 40
0.0
 40
0.0
 40
0.0
 40
0.0031691813
 40
0.0107037002
 40
0.0225788463
 40
0.0387233835
 40
0.0589837963
 40
0.0831644191
 40
0.1424509339
 40
0.2144760644
 40
0.2967194189
 40
0.3862192359
 40
0.4798069757
 40
0.6659277067
 40
0.8288884117
 40
0.8942751235
 40
0.9456988856
 40
0.9813712206
 40
1.0
 40
1.0
 40
1.0
 40
1.0
 10
4.3520586235
 20
22.3020586235
 30
0.0
 10
4.3514685363
 20
22.3014685363
 30
0.0
 10
4.3483071958
 20
22.3014279198
 30
0.0
 10
4.3427025496
 20
22.3004999687
 30
0.0
 10
4.3331924591
 20
22.3000983546
 30
0.0
 10
4.320562966
 20
22.2994277503
 30
0.0
 10
4.304593405
 20
22.2988840968
 30
0.0
 10
4.2773030133
 20
22.2980831581
 30
0.0
 10
4.2363594572
 20
22.2972461206
 30
0.0
 10
4.1801348369
 20
22.296431599
 30
0.0
 10
4.1159474852
 20
22.2958141463
 30
0.0
 10
4.0460819029
 20
22.2954089127
 30
0.0
 10
3.9488616496
 20
22.2951777318
 30
0.0
 10
3.8322996104
 20
22.2954716694
 30
0.0
 10
3.7231589406
 20
22.2964382408
 30
0.0
 10
3.6495094985
 20
22.2977716704
 30
0.0
 10
3.609352077
 20
22.2987102787
 30
0.0
 10
3.5815711425
 20
22.2999677872
 30
0.0
 10
3.5672452026
 20
22.3006547107
 30
0.0
 10
3.5624075064
 20
22.3014664884
 30
0.0
 11
4.3520586235
 21
22.3020586235
 31
0.0
 11
4.3496407183
 21
22.3014094811
 31
0.0
 11
4.3437236847
 21
22.3007655264
 31
0.0
 11
4.3343641033
 21
22.3001335254
 31
0.0
 11
4.3216253184
 21
22.29952012
 31
0.0
 11
4.3056312469
 21
22.2989308361
 31
0.0
 11
4.2865377298
 21
22.2983706114
 31
0.0
 11
4.239714708
 21
22.2973566937
 31
0.0
 11
4.182823954
 21
22.2965136542
 31
0.0
 11
4.1178581292
 21
22.2958721342
 31
0.0
 11
4.047158052
 21
22.2954545809
 31
0.0
 11
3.9732276603
 21
22.2952760713
 31
0.0
 11
3.8262001375
 21
22.2956525775
 31
0.0
 11
3.6974741626
 21
22.2969488663
 31
0.0
 11
3.6458298081
 21
22.2978890723
 31
0.0
 11
3.6052217638
 21
22.2989814732
 31
0.0
 11
3.5770678827
 21
22.3001882249
 31
0.0
 11
3.5624075064
 21
22.3014664884
 31
0.0
  0
SPLINE
  5
694
100
AcDbEntity
  8
ASSI
100
AcDbSpline
 62
7
  6
CONTINUOUS
 70
0
 71
3
 72
9
 73
5
 74
3
 42
0.0000001
 43
0.0000001
 44
0.0000000001
 12
-0.0022408325
 22
0.0003760173
 32
0.0
 13
0.0000594783
 23
0.0022713832
 33
0.0
 40
0.0
 40
0.0
 40
0.0
 40
0.0
 40
0.7195400835
 40
1.0
 40
1.0
 40
1.0
 40
1.0
 10
3.5624075064
 20
22.3014664884
 30
0.0
 10
3.5618700501
 20
22.3015566749
 30
0.0
 10
3.5612896181
 20
22.3016894858
 30
0.0
 10
3.5602791857
 20
22.3019692296
 30
0.0
 10
3.5602847461
 20
22.3021815735
 30
0.0
 11
3.5624075064
 21
22.3014664884
 31
0.0
 11
3.5608121344
 21
22.3018238731
 31
0.0
 11
3.5602847461
 21
22.3021815735
 31
0.0
  0
SPLINE
  5
695
100
AcDbEntity
  8
ASSI
100
AcDbSpline
 62
253
  6
CONTINUOUS
 70
0
 71
3
 72
32
 73
28
 74
26
 42
0.0000001
 43
0.0000001
 44
0.0000000001
 12
0.0253986138
 22
0.755870575
 32
0.0
 13
-0.5800119736
 23
-0.4853571122
 33
0.0
 40
0.0
 40
0.0
 40
0.0
 40
0.0
 40
0.0006898774
 40
0.00250868
 40
0.0054970039
 40
0.0096533931
 40
0.0214419199
 40
0.0377969608
 40
0.0585496025
 40
0.0834909947
 40
0.1124072709
 40
0.1450204867
 40
0.2200258209
 40
0.305683504
 40
0.398721795
 40
0.495612324
 40
0.592672415
 40
0.686212149
 40
0.7726846627
 40
0.8487882607
 40
0.9116544511
 40
0.9373380424
 40
0.9588746482
 40
0.9760500473
 40
0.9886863808
 40
0.9966886091
 40
1.0
 40
1.0
 40
1.0
 40
1.0
 10
-3.5957979215
 20
-23.6583750273
 30
0.0
 10
-3.5957920809
 20
-23.658201208
 30
0.0
 10
-3.5966590654
 20
-23.6580098812
 30
0.0
 10
-3.5977882435
 20
-23.6577550333
 30
0.0
 10
-3.6001623749
 20
-23.657490694
 30
0.0
 10
-3.604838284
 20
-23.6570580372
 30
0.0
 10
-3.6130237254
 20
-23.6565499384
 30
0.0
 10
-3.6253084996
 20
-23.6559529604
 30
0.0
 10
-3.640949971
 20
-23.6553453302
 30
0.0
 10
-3.65974538
 20
-23.6547287683
 30
0.0
 10
-3.6815372493
 20
-23.6541141471
 30
0.0
 10
-3.7159465977
 20
-23.6532642788
 30
0.0
 10
-3.7646617864
 20
-23.6522731341
 30
0.0
 10
-3.8286111148
 20
-23.6512281889
 30
0.0
 10
-3.898080456
 20
-23.6503219292
 30
0.0
 10
-3.9704264482
 20
-23.6495894865
 30
0.0
 10
-4.0429007408
 20
-23.6490602205
 30
0.0
 10
-4.1127495821
 20
-23.6487537025
 30
0.0
 10
-4.1773171139
 20
-23.648677572
 30
0.0
 10
-4.2341481815
 20
-23.6488410801
 30
0.0
 10
-4.2756627085
 20
-23.6491615625
 30
0.0
 10
-4.303402102
 20
-23.6495831393
 30
0.0
 10
-4.3196557929
 20
-23.649882803
 30
0.0
 10
-4.3325341656
 20
-23.6503471496
 30
0.0
 10
-4.3422035325
 20
-23.6505449943
 30
0.0
 10
-4.3479539764
 20
-23.6513575212
 30
0.0
 10
-4.3511109367
 20
-23.6512537423
 30
0.0
 10
-4.3517511522
 20
-23.651789478
 30
0.0
 11
-3.5957979215
 21
-23.6583750273
 31
0.0
 11
-3.5962423223
 21
-23.658101653
 31
0.0
 11
-3.5975889141
 21
-23.6578208633
 31
0.0
 11
-3.5998306237
 21
-23.6575334388
 31
0.0
 11
-3.6029603781
 21
-23.6572401599
 31
0.0
 11
-3.611855728
 21
-23.6566391615
 31
0.0
 11
-3.6242096963
 21
-23.6560240691
 31
0.0
 11
-3.6398924788
 21
-23.6554007603
 31
0.0
 11
-3.6587451999
 21
-23.6547749671
 31
0.0
 11
-3.6806056354
 21
-23.6541524277
 31
0.0
 11
-3.7052632888
 21
-23.6535389871
 31
0.0
 11
-3.7619774223
 21
-23.6523631034
 31
0.0
 11
-3.826751242
 21
-23.6512926812
 31
0.0
 11
-3.8971097646
 21
-23.6503681551
 31
0.0
 11
-3.9703840227
 21
-23.6496243423
 31
0.0
 11
-4.0437883508
 21
-23.6490900538
 31
0.0
 11
-4.1145315306
 21
-23.6487852076
 31
0.0
 11
-4.1799304173
 21
-23.6487215197
 31
0.0
 11
-4.2374870718
 21
-23.6489015731
 31
0.0
 11
-4.2850307704
 21
-23.6493179817
 31
0.0
 11
-4.3044529948
 21
-23.6496105308
 31
0.0
 11
-4.3207374114
 21
-23.6499556914
 31
0.0
 11
-4.3337211163
 21
-23.6503504857
 31
0.0
 11
-4.3432677705
 21
-23.6507912404
 31
0.0
 11
-4.3493006504
 21
-23.6512727204
 31
0.0
 11
-4.3517511522
 21
-23.651789478
 31
0.0
  0
SPLINE
  5
696
100
AcDbEntity
  8
ASSI
100
AcDbSpline
 62
7
  6
CONTINUOUS
 70
0
 71
3
 72
24
 73
20
 74
18
 42
0.0000001
 43
0.0000001
 44
0.0000000001
 12
0.5585863425
 22
0.5585863425
 32
0.0
 13
0.7790681799
 23
-0.1307293969
 33
0.0
 40
0.0
 40
0.0
 40
0.0
 40
0.0
 40
0.0031691809
 40
0.0107036956
 40
0.0225788293
 40
0.0387233374
 40
0.0589837042
 40
0.083164288
 40
0.14245078
 40
0.2144759207
 40
0.2967193168
 40
0.3862191747
 40
0.4798069502
 40
0.6659277465
 40
0.8288885266
 40
0.8942752416
 40
0.9456989653
 40
0.9813712234
 40
1.0
 40
1.0
 40
1.0
 40
1.0
 10
-4.3520586235
 20
-22.3020586235
 30
0.0
 10
-4.3514685364
 20
-22.3014685364
 30
0.0
 10
-4.3483071972
 20
-22.3014279198
 30
0.0
 10
-4.3427025553
 20
-22.3004999692
 30
0.0
 10
-4.3331924772
 20
-22.3000983554
 30
0.0
 10
-4.320563007
 20
-22.2994277519
 30
0.0
 10
-4.3045934763
 20
-22.2988840986
 30
0.0
 10
-4.2773031132
 20
-22.2980831604
 30
0.0
 10
-4.2363595711
 20
-22.2972461229
 30
0.0
 10
-4.1801349436
 20
-22.2964316001
 30
0.0
 10
-4.115947568
 20
-22.2958141469
 30
0.0
 10
-4.0460819551
 20
-22.2954089129
 30
0.0
 10
-3.9488616653
 20
-22.2951777317
 30
0.0
 10
-3.8322995806
 20
-22.2954716696
 30
0.0
 10
-3.7231588738
 20
-22.2964382409
 30
0.0
 10
-3.6495094218
 20
-22.2977716729
 30
0.0
 10
-3.6093520302
 20
-22.2987102795
 30
0.0
 10
-3.5815711267
 20
-22.2999677872
 30
0.0
 10
-3.5672452084
 20
-22.3006547114
 30
0.0
 10
-3.5624075127
 20
-22.3014664877
 30
0.0
 11
-4.3520586235
 21
-22.3020586235
 31
0.0
 11
-4.3496407187
 21
-22.3014094812
 31
0.0
 11
-4.3437236884
 21
-22.3007655266
 31
0.0
 11
-4.3343641168
 21
-22.3001335261
 31
0.0
 11
-4.321625355
 21
-22.2995201214
 31
0.0
 11
-4.30563132
 21
-22.298930838
 31
0.0
 11
-4.2865378338
 21
-22.298370614
 31
0.0
 11
-4.2397148305
 21
-22.2973566961
 31
0.0
 11
-4.1828240689
 21
-22.2965136556
 31
0.0
 11
-4.1178582117
 21
-22.2958721348
 31
0.0
 11
-4.0471581028
 21
-22.2954545811
 31
0.0
 11
-3.9732276836
 21
-22.2952760713
 31
0.0
 11
-3.8262001103
 21
-22.2956525776
 31
0.0
 11
-3.6974740771
 21
-22.2969488676
 31
0.0
 11
-3.6458297205
 21
-22.2978890745
 31
0.0
 11
-3.6052217069
 21
-22.2989814745
 31
0.0
 11
-3.5770678867
 21
-22.3001882247
 31
0.0
 11
-3.5624075127
 21
-22.3014664877
 31
0.0
  0
SPLINE
  5
697
100
AcDbEntity
  8
ASSI
100
AcDbSpline
 62
7
  6
CONTINUOUS
 70
0
 71
3
 72
9
 73
5
 74
3
 42
0.0000001
 43
0.0000001
 44
0.0000000001
 12
0.0022408387
 22
-0.0003760178
 32
0.0
 13
-0.0000594784
 23
-0.0022713894
 33
0.0
 40
0.0
 40
0.0
 40
0.0
 40
0.0
 40
0.7195401055
 40
1.0
 40
1.0
 40
1.0
 40
1.0
 10
-3.5624075127
 20
-22.3014664877
 30
0.0
 10
-3.5618700549
 20
-22.3015566743
 30
0.0
 10
-3.5612896217
 20
-22.3016894857
 30
0.0
 10
-3.5602791857
 20
-22.301969229
 30
0.0
 10
-3.5602847461
 20
-22.3021815735
 30
0.0
 11
-3.5624075127
 21
-22.3014664877
 31
0.0
 11
-3.5608121362
 21
-22.3018238728
 31
0.0
 11
-3.5602847461
 21
-22.3021815735
 31
0.0
  0
SPLINE
  5
698
100
AcDbEntity
  8
ASSI
100
AcDbSpline
 62
253
  6
CONTINUOUS
 70
0
 71
3
 72
32
 73
28
 74
26
 42
0.0000001
 43
0.0000001
 44
0.0000000001
 12
-0.0244367608
 22
0.755904266
 32
0.0
 13
0.5795800495
 23
-0.4858758905
 33
0.0
 40
0.0
 40
0.0
 40
0.0
 40
0.0
 40
0.0006902552
 40
0.0025094939
 40
0.0054983076
 40
0.0096552836
 40
0.0214454604
 40
0.0378030363
 40
0.0585590587
 40
0.083504525
 40
0.1124254049
 40
0.1450435977
 40
0.2200597797
 40
0.3057288095
 40
0.3987779737
 40
0.495677802
 40
0.5927446709
 40
0.6862878932
 40
0.7727597036
 40
0.8488573644
 40
0.9117140396
 40
0.9373917234
 40
0.9589201823
 40
0.9760836967
 40
0.9887051155
 40
0.9966943031
 40
1.0
 40
1.0
 40
1.0
 40
1.0
 10
3.5957979215
 20
-23.6583750273
 30
0.0
 10
3.595792299
 20
-23.658201105
 30
0.0
 10
3.5966592778
 20
-23.6580100483
 30
0.0
 10
3.5977890275
 20
-23.6577549144
 30
0.0
 10
3.6001633994
 20
-23.6574906822
 30
0.0
 10
3.6048400965
 20
-23.657057885
 30
0.0
 10
3.6130266933
 20
-23.6565497714
 30
0.0
 10
3.6253134375
 20
-23.6559526942
 30
0.0
 10
3.6409574561
 20
-23.6553450147
 30
0.0
 10
3.6597559587
 20
-23.6547284019
 30
0.0
 10
3.6815513266
 20
-23.6541137525
 30
0.0
 10
3.7159659171
 20
-23.6532638676
 30
0.0
 10
3.764688085
 20
-23.6522727413
 30
0.0
 10
3.8286459194
 20
-23.6512278436
 30
0.0
 10
3.8981233906
 20
-23.6503216723
 30
0.0
 10
3.9704763682
 20
-23.6495893602
 30
0.0
 10
4.0429557849
 20
-23.649060277
 30
0.0
 10
4.1128072203
 20
-23.6487539418
 30
0.0
 10
4.177374129
 20
-23.6486779741
 30
0.0
 10
4.2342012663
 20
-23.6488417232
 30
0.0
 10
4.2757105293
 20
-23.6491624453
 30
0.0
 10
4.3034440298
 20
-23.649584147
 30
0.0
 10
4.3196912628
 20
-23.6498838764
 30
0.0
 10
4.3325607754
 20
-23.6503480471
 30
0.0
 10
4.3422202244
 20
-23.6505462762
 30
0.0
 10
4.3479621222
 20
-23.6513578252
 30
0.0
 10
4.3511143104
 20
-23.6512556391
 30
0.0
 10
4.351752949
 20
-23.6517910252
 30
0.0
 11
3.5957979215
 21
-23.6583750273
 31
0.0
 11
3.5962426554
 21
-23.6581016466
 31
0.0
 11
3.5975895838
 21
-23.6578208382
 31
0.0
 11
3.5998316693
 21
-23.6575333852
 31
0.0
 11
3.6029618744
 21
-23.6572400711
 31
0.0
 11
3.6118584931
 21
-23.6566389923
 31
0.0
 11
3.6242144096
 21
-23.6560238232
 31
0.0
 11
3.6398997895
 21
-23.6554004495
 31
0.0
 11
3.6587556414
 21
-23.6547746063
 31
0.0
 11
3.6806196164
 21
-23.654152035
 31
0.0
 11
3.7052810995
 21
-23.6535385799
 31
0.0
 11
3.7620035879
 21
-23.6523627065
 31
0.0
 11
3.8267861609
 21
-23.6512923323
 31
0.0
 11
3.8971530932
 21
-23.6503678945
 31
0.0
 11
3.9704345782
 21
-23.6496242164
 31
0.0
 11
4.0438442264
 21
-23.6490901069
 31
0.0
 11
4.1145902305
 21
-23.6487854464
 31
0.0
 11
4.179988757
 21
-23.6487219505
 31
0.0
 11
4.2375410713
 21
-23.6489022558
 31
0.0
 11
4.2850776956
 21
-23.6493189212
 31
0.0
 11
4.3044955012
 21
-23.6496115664
 31
0.0
 11
4.3207737964
 21
-23.6499567802
 31
0.0
 11
4.3337485431
 21
-23.6503515696
 31
0.0
 11
4.3432839318
 21
-23.6507922935
 31
0.0
 11
4.3493069257
 21
-23.6512738706
 31
0.0
 11
4.351752949
 21
-23.6517910252
 31
0.0
  0
SPLINE
  5
699
100
AcDbEntity
  8
ASSI
100
AcDbSpline
 62
7
  6
CONTINUOUS
 70
0
 71
3
 72
13
 73
9
 74
7
 42
0.0000001
 43
0.0000001
 44
0.0000000001
 12
-0.0008673107
 22
0.0331212608
 32
0.0
 13
0.0331060434
 23
0.0013266636
 33
0.0
 40
0.0
 40
0.0
 40
0.0
 40
0.0
 40
0.0188743615
 40
0.0671588779
 40
0.1462535438
 40
0.2561843746
 40
0.5678964788
 40
1.0
 40
1.0
 40
1.0
 40
1.0
 10
3.5602847461
 20
-22.3021815735
 30
0.0
 10
3.5602792895
 20
-22.3019731927
 30
0.0
 10
3.5612571442
 20
-22.3016941839
 30
0.0
 10
3.5626011118
 20
-22.3014024635
 30
0.0
 10
3.5653355044
 20
-22.301064665
 30
0.0
 10
3.5707625663
 20
-22.3005599732
 30
0.0
 10
3.5802359015
 20
-22.2999791431
 30
0.0
 10
3.5884208406
 20
-22.2996118426
 30
0.0
 10
3.5931892533
 20
-22.2994207572
 30
0.0
 11
3.5602847461
 21
-22.3021815735
 31
0.0
 11
3.5608004326
 21
-22.3018278239
 31
0.0
 11
3.5623606913
 21
-22.3014743721
 31
0.0
 11
3.5649575483
 21
-22.3011223117
 31
0.0
 11
3.5685830298
 21
-22.3007727363
 31
0.0
 11
3.5788879706
 21
-22.3000854148
 31
0.0
 11
3.5931892533
 21
-22.2994207572
 31
0.0
  0
SPLINE
  5
69A
100
AcDbEntity
  8
ASSI
100
AcDbSpline
 62
7
  6
CONTINUOUS
 70
0
 71
3
 72
22
 73
18
 74
16
 42
0.0000001
 43
0.0000001
 44
0.0000000001
 12
0.7584980212
 22
0.030395408
 32
0.0
 13
0.5367695637
 23
-0.5367695637
 33
0.0
 40
0.0
 40
0.0
 40
0.0
 40
0.0
 40
0.0965399979
 40
0.2365668655
 40
0.4041306088
 40
0.5801201751
 40
0.6649975604
 40
0.744526152
 40
0.8164071091
 40
0.8785854794
 40
0.9292764016
 40
0.9498561134
 40
0.9670598132
 40
0.980744119
 40
0.9908198767
 40
0.9972411661
 40
1.0
 40
1.0
 40
1.0
 40
1.0
 10
3.5931892533
 20
-22.2994207572
 30
0.0
 10
3.6175977191
 20
-22.298442633
 30
0.0
 10
3.6774492003
 20
-22.2971400273
 30
0.0
 10
3.7796990288
 20
-22.2958481924
 30
0.0
 10
3.90206216
 20
-22.2952132041
 30
0.0
 10
4.0104707013
 20
-22.2952566065
 30
0.0
 10
4.0966020872
 20
-22.2956839698
 30
0.0
 10
4.1563888947
 20
-22.2961811138
 30
0.0
 10
4.2104312121
 20
-22.2968398252
 30
0.0
 10
4.2571704948
 20
-22.297644714
 30
0.0
 10
4.2909346082
 20
-22.2984424793
 30
0.0
 10
4.3133007773
 20
-22.2991827804
 30
0.0
 10
4.3263336564
 20
-22.2996870951
 30
0.0
 10
4.3366315712
 20
-22.3002824098
 30
0.0
 10
4.3443775289
 20
-22.3006818117
 30
0.0
 10
4.3489813715
 20
-22.3014546206
 30
0.0
 10
4.3515650041
 20
-22.3015650041
 30
0.0
 10
4.3520586235
 20
-22.3020586235
 30
0.0
 11
3.5931892533
 21
-22.2994207572
 31
0.0
 11
3.6664474662
 21
-22.2974704738
 31
0.0
 11
3.7727334052
 21
-22.2960562796
 31
0.0
 11
3.8999301641
 21
-22.2953398632
 31
0.0
 11
4.0335250252
 21
-22.2954028712
 31
0.0
 11
4.0979552056
 21
-22.2957278657
 31
0.0
 11
4.1583237435
 21
-22.2962381435
 31
0.0
 11
4.2128848211
 21
-22.2969187965
 31
0.0
 11
4.2600775199
 21
-22.2977502997
 31
0.0
 11
4.2985454081
 21
-22.2987086309
 31
0.0
 11
4.3141590023
 21
-22.2992270721
 31
0.0
 11
4.3272072841
 21
-22.2997669419
 31
0.0
 11
4.3375801536
 21
-22.3003246115
 31
0.0
 11
4.3452073785
 21
-22.3008957138
 31
0.0
 11
4.3500472366
 21
-22.3014753533
 31
0.0
 11
4.3520586235
 21
-22.3020586235
 31
0.0
  0
LINE
  5
69B
100
AcDbEntity
  8
ASSI
100
AcDbLine
 62
253
  6
CONTINUOUS
 10
-3.3203986343
 20
22.2164171854
 11
-3.3073093295
 21
21.2165694902
  0
SPLINE
  5
69C
100
AcDbEntity
  8
RACCORDO
100
AcDbSpline
 62
253
  6
CONTINUOUS
 70
0
 71
3
 72
9
 73
5
 74
3
 42
0.0000001
 43
0.0000001
 44
0.0000000001
 12
0.1741883433
 22
0.1271732806
 32
0.0
 13
0.2156724786
 23
0.0000651667
 33
0.0
 40
0.0
 40
0.0
 40
0.0
 40
0.0
 40
0.5001135412
 40
1.0
 40
1.0
 40
1.0
 40
1.0
 10
-6.5873156292
 20
21.2164913585
 30
0.0
 10
-6.5582776461
 20
21.2376917184
 30
0.0
 10
-6.4938765419
 20
21.2722589387
 30
0.0
 10
-6.4214976487
 20
21.2846688621
 30
0.0
 10
-6.3855603982
 20
21.2846797207
 30
0.0
 11
-6.5873156292
 21
21.2164913585
 31
0.0
 11
-6.4918665644
 21
21.266724948
 31
0.0
 11
-6.3855603982
 21
21.2846797207
 31
0.0
  0
SPLINE
  5
69D
100
AcDbEntity
  8
RACCORDO
100
AcDbSpline
 62
253
  6
CONTINUOUS
 70
0
 71
3
 72
9
 73
5
 74
3
 42
0.0000001
 43
0.0000001
 44
0.0000000001
 12
0.2155288526
 22
0.0000306826
 32
0.0
 13
0.174101513
 23
-0.1270486144
 33
0.0
 40
0.0
 40
0.0
 40
0.0
 40
0.0
 40
0.4998098817
 40
1.0
 40
1.0
 40
1.0
 40
1.0
 10
-5.3288814035
 20
21.2846797207
 30
0.0
 10
-5.2929735867
 20
21.2846848325
 30
0.0
 10
-5.2206460944
 20
21.2722606264
 30
0.0
 10
-5.1562735144
 20
21.2377523107
 30
0.0
 10
-5.1272455623
 20
21.2165694902
 30
0.0
 11
-5.3288814035
 21
21.2846797207
 31
0.0
 11
-5.222660812
 21
21.266748521
 31
0.0
 11
-5.1272455623
 21
21.2165694902
 31
0.0
  0
LINE
  5
69E
100
AcDbEntity
  8
ASSI
100
AcDbLine
 62
253
  6
CONTINUOUS
 10
3.3073093295
 20
21.2165694902
 11
3.3203986343
 21
22.2164171854
  0
SPLINE
  5
69F
100
AcDbEntity
  8
RACCORDO
100
AcDbSpline
 62
253
  6
CONTINUOUS
 70
0
 71
3
 72
9
 73
5
 74
3
 42
0.0000001
 43
0.0000001
 44
0.0000000001
 12
0.1742140361
 22
0.1271871308
 32
0.0
 13
0.2157013964
 23
0.0000646831
 33
0.0
 40
0.0
 40
0.0
 40
0.0
 40
0.0
 40
0.5001129462
 40
1.0
 40
1.0
 40
1.0
 40
1.0
 10
5.1270954821
 20
21.2164914932
 30
0.0
 10
5.1561377137
 20
21.2376941368
 30
0.0
 10
5.2205511402
 20
21.2722598074
 30
0.0
 10
5.2929392916
 20
21.2846689426
 30
0.0
 10
5.3288814035
 20
21.2846797207
 30
0.0
 11
5.1270954821
 21
21.2164914932
 31
0.0
 11
5.2225602727
 21
21.2667259789
 31
0.0
 11
5.3288814035
 21
21.2846797207
 31
0.0
  0
SPLINE
  5
6A0
100
AcDbEntity
  8
RACCORDO
100
AcDbSpline
 62
253
  6
CONTINUOUS
 70
0
 71
3
 72
9
 73
5
 74
3
 42
0.0000001
 43
0.0000001
 44
0.0000000001
 12
0.2157001416
 22
-0.0000588669
 32
0.0
 13
0.1742116512
 23
-0.1271882666
 33
0.0
 40
0.0
 40
0.0
 40
0.0
 40
0.0
 40
0.4998729159
 40
1.0
 40
1.0
 40
1.0
 40
1.0
 10
6.3855603982
 20
21.2846797207
 30
0.0
 10
6.4215012845
 20
21.284669912
 30
0.0
 10
6.4938893418
 20
21.2722546356
 30
0.0
 10
6.5582976047
 20
21.2376821192
 30
0.0
 10
6.5873402597
 20
21.2164786869
 30
0.0
 11
6.3855603982
 21
21.2846797207
 31
0.0
 11
6.4918770084
 21
21.2667212966
 31
0.0
 11
6.5873402597
 21
21.2164786869
 31
0.0
  0
SPLINE
  5
6A1
100
AcDbEntity
  8
RACCORDO
100
AcDbSpline
 62
253
  6
CONTINUOUS
 70
0
 71
3
 72
9
 73
5
 74
3
 42
0.0000001
 43
0.0000001
 44
0.0000000001
 12
-0.2157001416
 22
0.0000588669
 32
0.0
 13
-0.1742116512
 23
0.1271882666
 33
0.0
 40
0.0
 40
0.0
 40
0.0
 40
0.0
 40
0.4998729159
 40
1.0
 40
1.0
 40
1.0
 40
1.0
 10
-6.3855603982
 20
-21.2846797207
 30
0.0
 10
-6.4215012845
 20
-21.284669912
 30
0.0
 10
-6.4938893418
 20
-21.2722546356
 30
0.0
 10
-6.5582976047
 20
-21.2376821192
 30
0.0
 10
-6.5873402597
 20
-21.2164786869
 30
0.0
 11
-6.3855603982
 21
-21.2846797207
 31
0.0
 11
-6.4918770084
 21
-21.2667212966
 31
0.0
 11
-6.5873402597
 21
-21.2164786869
 31
0.0
  0
SPLINE
  5
6A2
100
AcDbEntity
  8
RACCORDO
100
AcDbSpline
 62
253
  6
CONTINUOUS
 70
0
 71
3
 72
9
 73
5
 74
3
 42
0.0000001
 43
0.0000001
 44
0.0000000001
 12
-0.1742140361
 22
-0.1271871308
 32
0.0
 13
-0.2157013964
 23
-0.0000646831
 33
0.0
 40
0.0
 40
0.0
 40
0.0
 40
0.0
 40
0.5001129462
 40
1.0
 40
1.0
 40
1.0
 40
1.0
 10
-5.1270954821
 20
-21.2164914932
 30
0.0
 10
-5.1561377137
 20
-21.2376941368
 30
0.0
 10
-5.2205511402
 20
-21.2722598074
 30
0.0
 10
-5.2929392916
 20
-21.2846689426
 30
0.0
 10
-5.3288814035
 20
-21.2846797207
 30
0.0
 11
-5.1270954821
 21
-21.2164914932
 31
0.0
 11
-5.2225602727
 21
-21.2667259789
 31
0.0
 11
-5.3288814035
 21
-21.2846797207
 31
0.0
  0
LINE
  5
6A3
100
AcDbEntity
  8
ASSI
100
AcDbLine
 62
253
  6
CONTINUOUS
 10
-3.3073093295
 20
-21.2165694902
 11
-3.3203986343
 21
-22.2164171854
  0
SPLINE
  5
6A4
100
AcDbEntity
  8
RACCORDO
100
AcDbSpline
 62
253
  6
CONTINUOUS
 70
0
 71
3
 72
9
 73
5
 74
3
 42
0.0000001
 43
0.0000001
 44
0.0000000001
 12
-0.2155288526
 22
-0.0000306826
 32
0.0
 13
-0.174101513
 23
0.1270486144
 33
0.0
 40
0.0
 40
0.0
 40
0.0
 40
0.0
 40
0.4998098817
 40
1.0
 40
1.0
 40
1.0
 40
1.0
 10
5.3288814035
 20
-21.2846797207
 30
0.0
 10
5.2929735867
 20
-21.2846848325
 30
0.0
 10
5.2206460944
 20
-21.2722606264
 30
0.0
 10
5.1562735144
 20
-21.2377523107
 30
0.0
 10
5.1272455623
 20
-21.2165694902
 30
0.0
 11
5.3288814035
 21
-21.2846797207
 31
0.0
 11
5.222660812
 21
-21.2667485209
 31
0.0
 11
5.1272455623
 21
-21.2165694902
 31
0.0
  0
SPLINE
  5
6A5
100
AcDbEntity
  8
RACCORDO
100
AcDbSpline
 62
253
  6
CONTINUOUS
 70
0
 71
3
 72
9
 73
5
 74
3
 42
0.0000001
 43
0.0000001
 44
0.0000000001
 12
-0.1741883433
 22
-0.1271732806
 32
0.0
 13
-0.2156724786
 23
-0.0000651667
 33
0.0
 40
0.0
 40
0.0
 40
0.0
 40
0.0
 40
0.5001135412
 40
1.0
 40
1.0
 40
1.0
 40
1.0
 10
6.5873156292
 20
-21.2164913585
 30
0.0
 10
6.5582776461
 20
-21.2376917184
 30
0.0
 10
6.4938765419
 20
-21.2722589387
 30
0.0
 10
6.4214976487
 20
-21.2846688621
 30
0.0
 10
6.3855603982
 20
-21.2846797207
 30
0.0
 11
6.5873156292
 21
-21.2164913585
 31
0.0
 11
6.4918665644
 21
-21.266724948
 31
0.0
 11
6.3855603982
 21
-21.2846797207
 31
0.0
  0
LINE
  5
6A6
100
AcDbEntity
  8
ASSI
100
AcDbLine
 62
253
  6
CONTINUOUS
 10
3.3203986343
 20
-22.2164171854
 11
3.3073093295
 21
-21.2165694902
  0
SPLINE
  5
6A7
100
AcDbEntity
  8
RACCORDO
100
AcDbSpline
 62
7
  6
CONTINUOUS
 70
0
 71
3
 72
9
 73
5
 74
3
 42
0.0000001
 43
0.0000001
 44
0.0000000001
 12
0.0000000282
 22
-1.110224009
 32
0.0
 13
-0.0136940831
 23
-1.1101395508
 33
0.0
 40
0.0
 40
0.0
 40
0.0
 40
0.0
 40
0.5312689629
 40
1.0
 40
1.0
 40
1.0
 40
1.0
 10
10.9754493507
 20
16.0612232482
 30
0.0
 10
10.9754493557
 20
15.8646140623
 30
0.0
 10
10.9734539517
 20
15.4945384219
 30
0.0
 10
10.9690137481
 20
15.1244901551
 30
0.0
 10
10.9668741341
 20
14.9510378674
 30
0.0
 11
10.9754493507
 21
16.0612232482
 31
0.0
 11
10.9726391266
 21
15.471402385
 31
0.0
 11
10.9668741341
 21
14.9510378674
 31
0.0
  0
SPLINE
  5
6A8
100
AcDbEntity
  8
RACCORDO
100
AcDbSpline
 62
7
  6
CONTINUOUS
 70
0
 71
3
 72
9
 73
5
 74
3
 42
0.0000001
 43
0.0000001
 44
0.0000000001
 12
-0.0136940911
 22
1.1101395507
 32
0.0
 13
0.0000000282
 23
1.110224009
 33
0.0
 40
0.0
 40
0.0
 40
0.0
 40
0.0
 40
0.4687310371
 40
1.0
 40
1.0
 40
1.0
 40
1.0
 10
-10.9668741341
 20
14.9510378674
 30
0.0
 10
-10.9690137493
 20
15.124490155
 30
0.0
 10
-10.973453951
 20
15.4945384219
 30
0.0
 10
-10.9754493557
 20
15.8646140623
 30
0.0
 10
-10.9754493507
 20
16.0612232482
 30
0.0
 11
-10.9668741341
 21
14.9510378674
 31
0.0
 11
-10.9726391266
 21
15.4714023851
 31
0.0
 11
-10.9754493507
 21
16.0612232482
 31
0.0
  0
SPLINE
  5
6A9
100
AcDbEntity
  8
0
100
AcDbSpline
 62
7
  6
CONTINUOUS
 70
0
 71
3
 72
55
 73
51
 74
49
 42
0.0000001
 43
0.0000001
 44
0.0000000001
 12
1.3323660475
 22
6.3066162625
 32
0.0
 13
1.3323660475
 23
-6.3066162625
 33
0.0
 40
0.0
 40
0.0
 40
0.0
 40
0.0
 40
0.0002890961
 40
0.0008275464
 40
0.001649141
 40
0.0027617512
 40
0.0041678727
 40
0.0058682904
 40
0.0101507384
 40
0.0156028007
 40
0.0222127882
 40
0.0299659458
 40
0.0388444037
 40
0.048827142
 40
0.0598903649
 40
0.0720080038
 40
0.0851511353
 40
0.1143854461
 40
0.1473142725
 40
0.1836221659
 40
0.2229618593
 40
0.2649563009
 40
0.3092033948
 40
0.3552790738
 40
0.4027418094
 40
0.4999999973
 40
0.5972581855
 40
0.6447209215
 40
0.690796601
 40
0.7350436956
 40
0.7770381379
 40
0.8163778318
 40
0.8526857256
 40
0.8856145525
 40
0.9148488637
 40
0.9279919955
 40
0.9401096346
 40
0.9511728576
 40
0.9611555961
 40
0.970034054
 40
0.9777872117
 40
0.9843971993
 40
0.9898492616
 40
0.9941317097
 40
0.9958321273
 40
0.9972382488
 40
0.998350859
 40
0.9991724537
 40
0.9997109039
 40
1.0
 40
1.0
 40
1.0
 40
1.0
 10
-3.220737984
 20
15.8550205673
 30
0.0
 10
-3.2206095901
 20
15.8556283066
 30
0.0
 10
-3.2189953106
 20
15.8568363294
 30
0.0
 10
-3.2157744079
 20
15.8580083549
 30
0.0
 10
-3.2105673752
 20
15.8593581504
 30
0.0
 10
-3.2035332377
 20
15.8606671996
 30
0.0
 10
-3.194557935
 20
15.8620138773
 30
0.0
 10
-3.1788039112
 20
15.8639537771
 30
0.0
 10
-3.1543381755
 20
15.8662750794
 30
0.0
 10
-3.119318696
 20
15.8688987232
 30
0.0
 10
-3.076821922
 20
15.8715048688
 30
0.0
 10
-3.0269511672
 20
15.8740841203
 30
0.0
 10
-2.969823385
 20
15.8766245498
 30
0.0
 10
-2.9055756999
 20
15.8791182724
 30
0.0
 10
-2.8343617171
 20
15.8815576618
 30
0.0
 10
-2.7563518251
 20
15.8839360189
 30
0.0
 10
-2.6393067622
 20
15.8871314044
 30
0.0
 10
-2.477545677
 20
15.8908698293
 30
0.0
 10
-2.2660078275
 20
15.8948861844
 30
0.0
 10
-2.0327478978
 20
15.8985318896
 30
0.0
 10
-1.7800018686
 20
15.9017696388
 30
0.0
 10
-1.5101914153
 20
15.9045661573
 30
0.0
 10
-1.2259030446
 20
15.9068931325
 30
0.0
 10
-0.9298616345
 20
15.9087275565
 30
0.0
 10
-0.5199183829
 20
15.9105057734
 30
0.0
 10
-0.0000000168
 20
15.9113789003
 30
0.0
 10
0.5199183502
 20
15.9105057735
 30
0.0
 10
0.9298616044
 20
15.9087275567
 30
0.0
 10
1.2259030181
 20
15.9068931327
 30
0.0
 10
1.510191393
 20
15.9045661575
 30
0.0
 10
1.7800018503
 20
15.901769639
 30
0.0
 10
2.0327478829
 20
15.8985318898
 30
0.0
 10
2.2660078156
 20
15.8948861846
 30
0.0
 10
2.477545668
 20
15.8908698295
 30
0.0
 10
2.6393067557
 20
15.8871314046
 30
0.0
 10
2.7563518204
 20
15.8839360191
 30
0.0
 10
2.8343617136
 20
15.881557662
 30
0.0
 10
2.9055756974
 20
15.8791182725
 30
0.0
 10
2.9698233833
 20
15.8766245499
 30
0.0
 10
3.0269511661
 20
15.8740841203
 30
0.0
 10
3.0768219213
 20
15.8715048688
 30
0.0
 10
3.1193186957
 20
15.8688987232
 30
0.0
 10
3.1543381754
 20
15.8662750794
 30
0.0
 10
3.1788039114
 20
15.8639537771
 30
0.0
 10
3.1945579352
 20
15.8620138773
 30
0.0
 10
3.203533238
 20
15.8606671996
 30
0.0
 10
3.2105673754
 20
15.8593581504
 30
0.0
 10
3.215774408
 20
15.8580083548
 30
0.0
 10
3.2189953107
 20
15.8568363294
 30
0.0
 10
3.2206095901
 20
15.8556283066
 30
0.0
 10
3.220737984
 20
15.8550205673
 30
0.0
 11
-3.220737984
 21
15.8550205673
 31
0.0
 11
-3.2194814791
 21
15.8563966794
 31
0.0
 11
-3.2162948449
 21
15.8577719962
 31
0.0
 11
-3.2111802174
 21
15.859145545
 31
0.0
 11
-3.2041407762
 21
15.8605164392
 31
0.0
 11
-3.1951809187
 21
15.8618838924
 31
0.0
 11
-3.1843054372
 21
15.8632471187
 31
0.0
 11
-3.1568349416
 21
15.865957617
 31
0.0
 11
-3.12179455
 21
15.8686413878
 31
0.0
 11
-3.0792702834
 21
15.8712920137
 31
0.0
 11
-3.0293630772
 21
15.8739031374
 31
0.0
 11
-2.9721916535
 21
15.876468492
 31
0.0
 11
-2.9078938165
 21
15.8789819323
 31
0.0
 11
-2.8366245511
 21
15.8814374404
 31
0.0
 11
-2.7585530455
 21
15.8838291137
 31
0.0
 11
-2.6738666026
 21
15.8861512195
 31
0.0
 11
-2.4854791602
 21
15.8905646698
 31
0.0
 11
-2.2732648806
 21
15.8946354492
 31
0.0
 11
-2.0392597778
 21
15.8983245684
 31
0.0
 11
-1.7857042688
 21
15.9015966131
 31
0.0
 11
-1.5150303436
 21
15.9044202473
 31
0.0
 11
-1.2298311643
 21
15.9067683605
 31
0.0
 11
-0.9328413489
 21
15.9086184488
 31
0.0
 11
-0.6269079625
 21
15.9099527742
 31
0.0
 11
-0.0000000173
 21
15.9110279661
 31
0.0
 11
0.6269079294
 21
15.9099527743
 31
0.0
 11
0.9328413185
 21
15.9086184489
 31
0.0
 11
1.2298311375
 21
15.9067683606
 31
0.0
 11
1.5150303214
 21
15.9044202475
 31
0.0
 11
1.7857042508
 21
15.9015966133
 31
0.0
 11
2.039259763
 21
15.8983245686
 31
0.0
 11
2.2732648686
 21
15.8946354494
 31
0.0
 11
2.4854791511
 21
15.89056467
 31
0.0
 11
2.6738665966
 21
15.8861512196
 31
0.0
 11
2.7585530408
 21
15.8838291139
 31
0.0
 11
2.8366245477
 21
15.8814374405
 31
0.0
 11
2.907893814
 21
15.8789819323
 31
0.0
 11
2.9721916519
 21
15.8764684921
 31
0.0
 11
3.0293630761
 21
15.8739031375
 31
0.0
 11
3.0792702827
 21
15.8712920137
 31
0.0
 11
3.1217945497
 21
15.8686413878
 31
0.0
 11
3.1568349417
 21
15.865957617
 31
0.0
 11
3.1843054374
 21
15.8632471186
 31
0.0
 11
3.195180919
 21
15.8618838923
 31
0.0
 11
3.2041407765
 21
15.8605164391
 31
0.0
 11
3.2111802176
 21
15.8591455449
 31
0.0
 11
3.216294845
 21
15.8577719962
 31
0.0
 11
3.2194814792
 21
15.8563966794
 31
0.0
 11
3.220737984
 21
15.8550205673
 31
0.0
  0
SPLINE
  5
6AA
100
AcDbEntity
  8
0
100
AcDbSpline
 62
7
  6
CONTINUOUS
 70
0
 71
3
 72
55
 73
51
 74
49
 42
0.0000001
 43
0.0000001
 44
0.0000000001
 12
-1.3321111984
 22
-6.3069256218
 32
0.0
 13
-1.3321111984
 23
6.3069256218
 33
0.0
 40
0.0
 40
0.0
 40
0.0
 40
0.0
 40
0.000289089
 40
0.0008275299
 40
0.001649115
 40
0.0027617158
 40
0.0041678281
 40
0.0058682369
 40
0.0101506684
 40
0.0156027156
 40
0.0222126894
 40
0.0299658349
 40
0.0388442823
 40
0.0488270116
 40
0.0598902269
 40
0.0720078598
 40
0.0851509869
 40
0.114385293
 40
0.1473141205
 40
0.1836220203
 40
0.2229617248
 40
0.264956182
 40
0.309203295
 40
0.3552789962
 40
0.4027417564
 40
0.4999999973
 40
0.5972582385
 40
0.644720999
 40
0.6907967008
 40
0.7350438146
 40
0.7770382724
 40
0.8163779775
 40
0.8526858776
 40
0.8856147056
 40
0.9148490122
 40
0.9279921395
 40
0.9401097726
 40
0.951172988
 40
0.9611557175
 40
0.9700341649
 40
0.9777873104
 40
0.9843972844
 40
0.9898493316
 40
0.9941317631
 40
0.9958321719
 40
0.9972382843
 40
0.9983508851
 40
0.9991724701
 40
0.999710911
 40
1.0
 40
1.0
 40
1.0
 40
1.0
 10
3.2208628675
 20
-15.8550205863
 30
0.0
 10
3.2207345013
 20
-15.8556283406
 30
0.0
 10
3.2191202049
 20
-15.8568364342
 30
0.0
 10
3.2158992354
 20
-15.8580084893
 30
0.0
 10
3.2106920635
 20
-15.8593583446
 30
0.0
 10
3.2036577147
 20
-15.8606674413
 30
0.0
 10
3.1946821232
 20
-15.862014173
 30
0.0
 10
3.1789275634
 20
-15.8639541493
 30
0.0
 10
3.1544609662
 20
-15.8662755435
 30
0.0
 10
3.1194402262
 20
-15.8688992904
 30
0.0
 10
3.076941892
 20
-15.8715055388
 30
0.0
 10
3.0270692812
 20
-15.8740848923
 30
0.0
 10
2.9699393515
 20
-15.8766254223
 30
0.0
 10
2.9056892329
 20
-15.8791192437
 30
0.0
 10
2.8344725366
 20
-15.8815587298
 30
0.0
 10
2.7564596577
 20
-15.8839371812
 30
0.0
 10
2.6394100876
 20
-15.8871326937
 30
0.0
 10
2.4776427456
 20
-15.8908712672
 30
0.0
 10
2.2660966854
 20
-15.8948877819
 30
0.0
 10
2.0328276685
 20
-15.8985336321
 30
0.0
 10
1.7800717654
 20
-15.9017715102
 30
0.0
 10
1.5102507487
 20
-15.9045681401
 30
0.0
 10
1.2259512293
 20
-15.9068952081
 30
0.0
 10
0.9298981952
 20
-15.9087297052
 30
0.0
 10
0.5199388291
 20
-15.9105079931
 30
0.0
 10
0.0000000168
 20
-15.9113811548
 30
0.0
 10
-0.5199387964
 20
-15.9105079931
 30
0.0
 10
-0.9298981652
 20
-15.9087297054
 30
0.0
 10
-1.2259512029
 20
-15.9068952083
 30
0.0
 10
-1.5102507264
 20
-15.9045681404
 30
0.0
 10
-1.7800717471
 20
-15.9017715104
 30
0.0
 10
-2.0328276536
 20
-15.8985336324
 30
0.0
 10
-2.2660966735
 20
-15.8948877821
 30
0.0
 10
-2.4776427366
 20
-15.8908712674
 30
0.0
 10
-2.6394100811
 20
-15.8871326938
 30
0.0
 10
-2.7564596531
 20
-15.8839371813
 30
0.0
 10
-2.8344725331
 20
-15.8815587299
 30
0.0
 10
-2.9056892304
 20
-15.8791192438
 30
0.0
 10
-2.9699393498
 20
-15.8766254224
 30
0.0
 10
-3.02706928
 20
-15.8740848923
 30
0.0
 10
-3.0769418912
 20
-15.8715055389
 30
0.0
 10
-3.1194402258
 20
-15.8688992904
 30
0.0
 10
-3.1544609661
 20
-15.8662755435
 30
0.0
 10
-3.1789275636
 20
-15.8639541493
 30
0.0
 10
-3.1946821235
 20
-15.8620141729
 30
0.0
 10
-3.2036577149
 20
-15.8606674412
 30
0.0
 10
-3.2106920637
 20
-15.8593583445
 30
0.0
 10
-3.2158992355
 20
-15.8580084893
 30
0.0
 10
-3.219120205
 20
-15.8568364342
 30
0.0
 10
-3.2207345013
 20
-15.8556283406
 30
0.0
 10
-3.2208628675
 20
-15.8550205863
 30
0.0
 11
3.2208628675
 21
-15.8550205863
 31
0.0
 11
3.2196063825
 21
-15.8563967526
 31
0.0
 11
3.216419691
 21
-15.8577721235
 31
0.0
 11
3.2113049293
 21
-15.8591457264
 31
0.0
 11
3.204265277
 21
-15.8605166746
 31
0.0
 11
3.1953051317
 21
-15.8618841818
 31
0.0
 11
3.1844292857
 21
-15.8632474618
 31
0.0
 11
3.1569578322
 21
-15.8659580672
 31
0.0
 11
3.1219161792
 21
-15.868641944
 31
0.0
 11
3.0793903515
 21
-15.8712926747
 31
0.0
 11
3.029481288
 21
-15.8739039018
 31
0.0
 11
2.9723077152
 21
-15.8764693579
 31
0.0
 11
2.9080074427
 21
-15.8789828978
 31
0.0
 11
2.8367354617
 21
-15.8814385034
 31
0.0
 11
2.7586609667
 21
-15.8838302716
 31
0.0
 11
2.6739712682
 21
-15.8861524695
 31
0.0
 11
2.4855765486
 21
-15.8905660952
 31
0.0
 11
2.2733540312
 21
-15.8946370365
 31
0.0
 11
2.0393398115
 21
-15.8983263025
 31
0.0
 11
1.785774396
 21
-15.9015984775
 31
0.0
 11
1.5150898726
 21
-15.9044222243
 31
0.0
 11
1.2298795079
 21
-15.906770431
 31
0.0
 11
0.9328780302
 21
-15.9086205931
 31
0.0
 11
0.6269326196
 21
-15.9099549718
 31
0.0
 11
0.0000000173
 21
-15.9110302066
 31
0.0
 11
-0.6269325865
 21
-15.9099549719
 31
0.0
 11
-0.9328779998
 21
-15.9086205933
 31
0.0
 11
-1.2298794811
 21
-15.9067704312
 31
0.0
 11
-1.5150898504
 21
-15.9044222245
 31
0.0
 11
-1.785774378
 21
-15.9015984778
 31
0.0
 11
-2.0393397967
 21
-15.8983263027
 31
0.0
 11
-2.2733540192
 21
-15.8946370367
 31
0.0
 11
-2.4855765396
 21
-15.8905660954
 31
0.0
 11
-2.6739712622
 21
-15.8861524697
 31
0.0
 11
-2.7586609621
 21
-15.8838302717
 31
0.0
 11
-2.8367354583
 21
-15.8814385035
 31
0.0
 11
-2.9080074402
 21
-15.8789828979
 31
0.0
 11
-2.9723077135
 21
-15.876469358
 31
0.0
 11
-3.0294812869
 21
-15.8739039019
 31
0.0
 11
-3.0793903508
 21
-15.8712926747
 31
0.0
 11
-3.1219161789
 21
-15.868641944
 31
0.0
 11
-3.1569578323
 21
-15.8659580672
 31
0.0
 11
-3.1844292859
 21
-15.8632474618
 31
0.0
 11
-3.1953051319
 21
-15.8618841817
 31
0.0
 11
-3.2042652773
 21
-15.8605166746
 31
0.0
 11
-3.2113049295
 21
-15.8591457264
 31
0.0
 11
-3.2164196911
 21
-15.8577721235
 31
0.0
 11
-3.2196063825
 21
-15.8563967526
 31
0.0
 11
-3.2208628675
 21
-15.8550205863
 31
0.0
  0
SPLINE
  5
6AB
100
AcDbEntity
  8
RACCORDO
100
AcDbSpline
 62
253
  6
CONTINUOUS
 70
0
 71
3
 72
15
 73
11
 74
9
 42
0.0000001
 43
0.0000001
 44
0.0000000001
 12
0.5540134829
 22
0.5891685398
 32
0.0
 13
0.5540103519
 23
-0.589171484
 33
0.0
 40
0.0
 40
0.0
 40
0.0
 40
0.0
 40
0.1249232069
 40
0.2499081884
 40
0.374940832
 40
0.4999999604
 40
0.6250590875
 40
0.7500917338
 40
0.8750767045
 40
1.0
 40
1.0
 40
1.0
 40
1.0
 10
-0.3612459052
 20
-10.1803262817
 30
0.0
 10
-0.3381761916
 20
-10.1557926739
 30
0.0
 10
-0.2869479462
 20
-10.1112143292
 30
0.0
 10
-0.1983183281
 20
-10.0612463125
 30
0.0
 10
-0.1013092844
 20
-10.0302760205
 30
0.0
 10
-0.0000000514
 20
-10.0197906849
 30
0.0
 10
0.1013091737
 20
-10.0302760417
 30
0.0
 10
0.198318232
 20
-10.0612463163
 30
0.0
 10
0.2869478087
 20
-10.1112143921
 30
0.0
 10
0.3381762384
 20
-10.1557925985
 30
0.0
 10
0.3612458381
 20
-10.1803263463
 30
0.0
 11
-0.3612459052
 21
-10.1803262817
 31
0.0
 11
-0.2850001318
 21
-10.1140422834
 31
0.0
 11
-0.1969390955
 21
-10.0644203376
 31
0.0
 11
-0.1006028086
 21
-10.0336925433
 31
0.0
 11
-0.0000000524
 21
-10.023286047
 31
0.0
 11
0.1006027011
 21
-10.0336925581
 31
0.0
 11
0.1969389899
 21
-10.0644203536
 31
0.0
 11
0.2850000239
 21
-10.1140422856
 31
0.0
 11
0.3612458381
 21
-10.1803263463
 31
0.0
  0
SPLINE
  5
6AC
100
AcDbEntity
  8
RACCORDO
100
AcDbSpline
 62
253
  6
CONTINUOUS
 70
0
 71
3
 72
15
 73
11
 74
9
 42
0.0000001
 43
0.0000001
 44
0.0000000001
 12
0.8892622356
 22
0.9367328269
 32
0.0
 13
0.8892559422
 23
-0.9367388014
 33
0.0
 40
0.0
 40
0.0
 40
0.0
 40
0.0
 40
0.1250018259
 40
0.2500026251
 40
0.3750016656
 40
0.499999964
 40
0.6249982601
 40
0.7499973
 40
0.8749980824
 40
1.0
 40
1.0
 40
1.0
 40
1.0
 10
-0.577993541
 20
-9.9745670414
 30
0.0
 10
-0.5409404066
 20
-9.9355359368
 30
0.0
 10
-0.4587231457
 20
-9.8647373321
 30
0.0
 10
-0.3167732742
 20
-9.785618515
 30
0.0
 10
-0.1617253634
 20
-9.7367072021
 30
0.0
 10
-0.0000000701
 20
-9.720171672
 30
0.0
 10
0.161725201
 20
-9.736707242
 30
0.0
 10
0.3167731534
 20
-9.7856185083
 30
0.0
 10
0.4587228606
 20
-9.8647375254
 30
0.0
 10
0.5409406419
 20
-9.9355356589
 30
0.0
 10
0.5779935412
 20
-9.9745670411
 30
0.0
 11
-0.577993541
 21
-9.9745670414
 31
0.0
 11
-0.4556186426
 21
-9.8692501802
 31
0.0
 11
-0.3145893392
 21
-9.7906526966
 31
0.0
 11
-0.1606119792
 21
-9.7421030521
 31
0.0
 11
-0.0000000728
 21
-9.7256835111
 31
0.0
 11
0.1606118281
 21
-9.7421030778
 31
0.0
 11
0.3145891847
 21
-9.7906527303
 31
0.0
 11
0.4556184741
 21
-9.8692501942
 31
0.0
 11
0.5779935412
 21
-9.9745670411
 31
0.0
  0
SPLINE
  5
6AD
100
AcDbEntity
  8
RACCORDO
100
AcDbSpline
 62
253
  6
CONTINUOUS
 70
0
 71
3
 72
15
 73
11
 74
9
 42
0.0000001
 43
0.0000001
 44
0.0000000001
 12
-0.5540134829
 22
-0.5891685398
 32
0.0
 13
-0.5540103519
 23
0.589171484
 33
0.0
 40
0.0
 40
0.0
 40
0.0
 40
0.0
 40
0.1249232069
 40
0.2499081884
 40
0.374940832
 40
0.4999999604
 40
0.6250590875
 40
0.7500917338
 40
0.8750767045
 40
1.0
 40
1.0
 40
1.0
 40
1.0
 10
0.3612459052
 20
-6.1196737183
 30
0.0
 10
0.3381761916
 20
-6.1442073261
 30
0.0
 10
0.2869479462
 20
-6.1887856708
 30
0.0
 10
0.1983183281
 20
-6.2387536875
 30
0.0
 10
0.1013092844
 20
-6.2697239795
 30
0.0
 10
0.0000000514
 20
-6.2802093151
 30
0.0
 10
-0.1013091737
 20
-6.2697239583
 30
0.0
 10
-0.198318232
 20
-6.2387536837
 30
0.0
 10
-0.2869478087
 20
-6.1887856079
 30
0.0
 10
-0.3381762384
 20
-6.1442074015
 30
0.0
 10
-0.3612458381
 20
-6.1196736537
 30
0.0
 11
0.3612459052
 21
-6.1196737183
 31
0.0
 11
0.2850001318
 21
-6.1859577166
 31
0.0
 11
0.1969390955
 21
-6.2355796624
 31
0.0
 11
0.1006028086
 21
-6.2663074567
 31
0.0
 11
0.0000000524
 21
-6.2767139529
 31
0.0
 11
-0.1006027011
 21
-6.2663074419
 31
0.0
 11
-0.1969389899
 21
-6.2355796464
 31
0.0
 11
-0.2850000239
 21
-6.1859577144
 31
0.0
 11
-0.3612458381
 21
-6.1196736537
 31
0.0
  0
SPLINE
  5
6AE
100
AcDbEntity
  8
RACCORDO
100
AcDbSpline
 62
253
  6
CONTINUOUS
 70
0
 71
3
 72
15
 73
11
 74
9
 42
0.0000001
 43
0.0000001
 44
0.0000000001
 12
-0.8892622356
 22
-0.9367328269
 32
0.0
 13
-0.8892559422
 23
0.9367388014
 33
0.0
 40
0.0
 40
0.0
 40
0.0
 40
0.0
 40
0.1250018259
 40
0.2500026251
 40
0.3750016656
 40
0.499999964
 40
0.6249982601
 40
0.7499973
 40
0.8749980824
 40
1.0
 40
1.0
 40
1.0
 40
1.0
 10
0.577993541
 20
-6.3254329586
 30
0.0
 10
0.5409404066
 20
-6.3644640632
 30
0.0
 10
0.4587231457
 20
-6.4352626679
 30
0.0
 10
0.3167732742
 20
-6.514381485
 30
0.0
 10
0.1617253634
 20
-6.5632927979
 30
0.0
 10
0.0000000701
 20
-6.579828328
 30
0.0
 10
-0.161725201
 20
-6.563292758
 30
0.0
 10
-0.3167731534
 20
-6.5143814917
 30
0.0
 10
-0.4587228606
 20
-6.4352624746
 30
0.0
 10
-0.5409406419
 20
-6.3644643411
 30
0.0
 10
-0.5779935412
 20
-6.3254329589
 30
0.0
 11
0.577993541
 21
-6.3254329586
 31
0.0
 11
0.4556186426
 21
-6.4307498198
 31
0.0
 11
0.3145893392
 21
-6.5093473034
 31
0.0
 11
0.1606119792
 21
-6.5578969479
 31
0.0
 11
0.0000000728
 21
-6.5743164889
 31
0.0
 11
-0.1606118281
 21
-6.5578969222
 31
0.0
 11
-0.3145891847
 21
-6.5093472697
 31
0.0
 11
-0.4556184741
 21
-6.4307498058
 31
0.0
 11
-0.5779935412
 21
-6.3254329589
 31
0.0
  0
SPLINE
  5
6AF
100
AcDbEntity
  8
RACCORDO
100
AcDbSpline
 62
253
  6
CONTINUOUS
 70
0
 71
3
 72
15
 73
11
 74
9
 42
0.0000001
 43
0.0000001
 44
0.0000000001
 12
0.5540134829
 22
0.5891685398
 32
0.0
 13
0.5540103519
 23
-0.589171484
 33
0.0
 40
0.0
 40
0.0
 40
0.0
 40
0.0
 40
0.1249232069
 40
0.2499081884
 40
0.374940832
 40
0.4999999604
 40
0.6250590875
 40
0.7500917338
 40
0.8750767045
 40
1.0
 40
1.0
 40
1.0
 40
1.0
 10
-0.3612459052
 20
6.1196737183
 30
0.0
 10
-0.3381761916
 20
6.1442073261
 30
0.0
 10
-0.2869479462
 20
6.1887856708
 30
0.0
 10
-0.1983183281
 20
6.2387536875
 30
0.0
 10
-0.1013092844
 20
6.2697239795
 30
0.0
 10
-0.0000000514
 20
6.2802093151
 30
0.0
 10
0.1013091737
 20
6.2697239583
 30
0.0
 10
0.198318232
 20
6.2387536837
 30
0.0
 10
0.2869478087
 20
6.1887856079
 30
0.0
 10
0.3381762384
 20
6.1442074015
 30
0.0
 10
0.3612458381
 20
6.1196736537
 30
0.0
 11
-0.3612459052
 21
6.1196737183
 31
0.0
 11
-0.2850001318
 21
6.1859577166
 31
0.0
 11
-0.1969390955
 21
6.2355796624
 31
0.0
 11
-0.1006028086
 21
6.2663074567
 31
0.0
 11
-0.0000000524
 21
6.276713953
 31
0.0
 11
0.1006027011
 21
6.2663074419
 31
0.0
 11
0.1969389899
 21
6.2355796464
 31
0.0
 11
0.2850000239
 21
6.1859577144
 31
0.0
 11
0.3612458381
 21
6.1196736537
 31
0.0
  0
SPLINE
  5
6B0
100
AcDbEntity
  8
RACCORDO
100
AcDbSpline
 62
253
  6
CONTINUOUS
 70
0
 71
3
 72
15
 73
11
 74
9
 42
0.0000001
 43
0.0000001
 44
0.0000000001
 12
0.8892622356
 22
0.9367328269
 32
0.0
 13
0.8892559422
 23
-0.9367388014
 33
0.0
 40
0.0
 40
0.0
 40
0.0
 40
0.0
 40
0.1250018259
 40
0.2500026251
 40
0.3750016656
 40
0.499999964
 40
0.6249982601
 40
0.7499973
 40
0.8749980824
 40
1.0
 40
1.0
 40
1.0
 40
1.0
 10
-0.577993541
 20
6.3254329586
 30
0.0
 10
-0.5409404066
 20
6.3644640632
 30
0.0
 10
-0.4587231457
 20
6.4352626679
 30
0.0
 10
-0.3167732742
 20
6.514381485
 30
0.0
 10
-0.1617253634
 20
6.5632927979
 30
0.0
 10
-0.0000000701
 20
6.579828328
 30
0.0
 10
0.161725201
 20
6.563292758
 30
0.0
 10
0.3167731534
 20
6.5143814917
 30
0.0
 10
0.4587228606
 20
6.4352624746
 30
0.0
 10
0.5409406419
 20
6.3644643411
 30
0.0
 10
0.5779935412
 20
6.3254329589
 30
0.0
 11
-0.577993541
 21
6.3254329586
 31
0.0
 11
-0.4556186426
 21
6.4307498198
 31
0.0
 11
-0.3145893392
 21
6.5093473034
 31
0.0
 11
-0.1606119792
 21
6.5578969479
 31
0.0
 11
-0.0000000728
 21
6.5743164889
 31
0.0
 11
0.1606118281
 21
6.5578969222
 31
0.0
 11
0.3145891847
 21
6.5093472697
 31
0.0
 11
0.4556184741
 21
6.4307498058
 31
0.0
 11
0.5779935412
 21
6.3254329589
 31
0.0
  0
SPLINE
  5
6B1
100
AcDbEntity
  8
RACCORDO
100
AcDbSpline
 62
253
  6
CONTINUOUS
 70
0
 71
3
 72
15
 73
11
 74
9
 42
0.0000001
 43
0.0000001
 44
0.0000000001
 12
-0.5540134829
 22
-0.5891685398
 32
0.0
 13
-0.5540103519
 23
0.589171484
 33
0.0
 40
0.0
 40
0.0
 40
0.0
 40
0.0
 40
0.1249232069
 40
0.2499081884
 40
0.374940832
 40
0.4999999604
 40
0.6250590875
 40
0.7500917338
 40
0.8750767045
 40
1.0
 40
1.0
 40
1.0
 40
1.0
 10
0.3612459052
 20
10.1803262817
 30
0.0
 10
0.3381761916
 20
10.1557926739
 30
0.0
 10
0.2869479462
 20
10.1112143292
 30
0.0
 10
0.1983183281
 20
10.0612463125
 30
0.0
 10
0.1013092844
 20
10.0302760205
 30
0.0
 10
0.0000000514
 20
10.0197906849
 30
0.0
 10
-0.1013091737
 20
10.0302760417
 30
0.0
 10
-0.198318232
 20
10.0612463163
 30
0.0
 10
-0.2869478087
 20
10.1112143921
 30
0.0
 10
-0.3381762384
 20
10.1557925985
 30
0.0
 10
-0.3612458381
 20
10.1803263463
 30
0.0
 11
0.3612459052
 21
10.1803262817
 31
0.0
 11
0.2850001318
 21
10.1140422834
 31
0.0
 11
0.1969390955
 21
10.0644203376
 31
0.0
 11
0.1006028086
 21
10.0336925433
 31
0.0
 11
0.0000000524
 21
10.0232860471
 31
0.0
 11
-0.1006027011
 21
10.0336925581
 31
0.0
 11
-0.1969389899
 21
10.0644203536
 31
0.0
 11
-0.2850000239
 21
10.1140422856
 31
0.0
 11
-0.3612458381
 21
10.1803263463
 31
0.0
  0
SPLINE
  5
6B2
100
AcDbEntity
  8
RACCORDO
100
AcDbSpline
 62
253
  6
CONTINUOUS
 70
0
 71
3
 72
15
 73
11
 74
9
 42
0.0000001
 43
0.0000001
 44
0.0000000001
 12
-0.8892622356
 22
-0.9367328269
 32
0.0
 13
-0.8892559422
 23
0.9367388014
 33
0.0
 40
0.0
 40
0.0
 40
0.0
 40
0.0
 40
0.1250018259
 40
0.2500026251
 40
0.3750016656
 40
0.499999964
 40
0.6249982601
 40
0.7499973
 40
0.8749980824
 40
1.0
 40
1.0
 40
1.0
 40
1.0
 10
0.577993541
 20
9.9745670414
 30
0.0
 10
0.5409404066
 20
9.9355359368
 30
0.0
 10
0.4587231457
 20
9.8647373321
 30
0.0
 10
0.3167732742
 20
9.785618515
 30
0.0
 10
0.1617253634
 20
9.7367072021
 30
0.0
 10
0.0000000701
 20
9.720171672
 30
0.0
 10
-0.161725201
 20
9.736707242
 30
0.0
 10
-0.3167731534
 20
9.7856185083
 30
0.0
 10
-0.4587228606
 20
9.8647375254
 30
0.0
 10
-0.5409406419
 20
9.9355356589
 30
0.0
 10
-0.5779935412
 20
9.9745670411
 30
0.0
 11
0.577993541
 21
9.9745670414
 31
0.0
 11
0.4556186426
 21
9.8692501802
 31
0.0
 11
0.3145893392
 21
9.7906526966
 31
0.0
 11
0.1606119792
 21
9.7421030521
 31
0.0
 11
0.0000000728
 21
9.7256835111
 31
0.0
 11
-0.1606118281
 21
9.7421030778
 31
0.0
 11
-0.3145891847
 21
9.7906527303
 31
0.0
 11
-0.4556184741
 21
9.8692501942
 31
0.0
 11
-0.5779935412
 21
9.9745670411
 31
0.0
  0
SPLINE
  5
6B3
100
AcDbEntity
  8
RACCORDO
100
AcDbSpline
 62
253
  6
CONTINUOUS
 70
0
 71
3
 72
15
 73
11
 74
9
 42
0.0000001
 43
0.0000001
 44
0.0000000001
 12
-0.2203328288
 22
-0.2156417232
 32
0.0
 13
-0.2203292703
 23
0.215645359
 33
0.0
 40
0.0
 40
0.0
 40
0.0
 40
0.0
 40
0.1250015764
 40
0.2500018811
 40
0.3750011995
 40
0.4999999784
 40
0.6249987578
 40
0.7499980771
 40
0.8749983843
 40
1.0
 40
1.0
 40
1.0
 40
1.0
 10
0.1393615327
 20
-5.7380854617
 30
0.0
 10
0.1301808824
 20
-5.7470706468
 30
0.0
 10
0.1100346859
 20
-5.7633158152
 30
0.0
 10
0.07574278
 20
-5.7813987551
 30
0.0
 10
0.0385969567
 20
-5.7925467866
 30
0.0
 10
0.0000000033
 20
-5.7963106961
 30
0.0
 10
-0.038596944
 20
-5.7925467868
 30
0.0
 10
-0.0757427888
 20
-5.7813987769
 30
0.0
 10
-0.1100346278
 20
-5.7633157731
 30
0.0
 10
-0.1301810279
 20
-5.7470708013
 30
0.0
 10
-0.1393615328
 20
-5.7380854618
 30
0.0
 11
0.1393615327
 21
-5.7380854617
 31
0.0
 11
0.1093557833
 21
-5.7622684314
 31
0.0
 11
0.0752669892
 21
-5.7802429948
 31
0.0
 11
0.0383550219
 21
-5.791316117
 31
0.0
 11
0.0000000044
 21
-5.7950560614
 31
0.0
 11
-0.0383550137
 21
-5.7913161207
 31
0.0
 11
-0.0752669825
 21
-5.7802430027
 31
0.0
 11
-0.1093557838
 21
-5.7622684513
 31
0.0
 11
-0.1393615328
 21
-5.7380854618
 31
0.0
  0
SPLINE
  5
6B4
100
AcDbEntity
  8
RACCORDO
100
AcDbSpline
 62
253
  6
CONTINUOUS
 70
0
 71
3
 72
15
 73
11
 74
9
 42
0.0000001
 43
0.0000001
 44
0.0000000001
 12
0.2203328288
 22
0.2156417232
 32
0.0
 13
0.2203292703
 23
-0.215645359
 33
0.0
 40
0.0
 40
0.0
 40
0.0
 40
0.0
 40
0.1250015764
 40
0.2500018811
 40
0.3750011995
 40
0.4999999784
 40
0.6249987578
 40
0.7499980771
 40
0.8749983843
 40
1.0
 40
1.0
 40
1.0
 40
1.0
 10
-0.1393615327
 20
-10.5619145383
 30
0.0
 10
-0.1301808824
 20
-10.5529293532
 30
0.0
 10
-0.1100346859
 20
-10.5366841848
 30
0.0
 10
-0.07574278
 20
-10.5186012449
 30
0.0
 10
-0.0385969567
 20
-10.5074532134
 30
0.0
 10
-0.0000000033
 20
-10.5036893039
 30
0.0
 10
0.038596944
 20
-10.5074532132
 30
0.0
 10
0.0757427888
 20
-10.5186012231
 30
0.0
 10
0.1100346278
 20
-10.5366842269
 30
0.0
 10
0.1301810279
 20
-10.5529291987
 30
0.0
 10
0.1393615328
 20
-10.5619145382
 30
0.0
 11
-0.1393615327
 21
-10.5619145383
 31
0.0
 11
-0.1093557833
 21
-10.5377315686
 31
0.0
 11
-0.0752669892
 21
-10.5197570052
 31
0.0
 11
-0.0383550219
 21
-10.508683883
 31
0.0
 11
-0.0000000044
 21
-10.5049439386
 31
0.0
 11
0.0383550137
 21
-10.5086838792
 31
0.0
 11
0.0752669825
 21
-10.5197569973
 31
0.0
 11
0.1093557838
 21
-10.5377315487
 31
0.0
 11
0.1393615328
 21
-10.5619145382
 31
0.0
  0
SPLINE
  5
6B5
100
AcDbEntity
  8
RACCORDO
100
AcDbSpline
 62
253
  6
CONTINUOUS
 70
0
 71
3
 72
15
 73
11
 74
9
 42
0.0000001
 43
0.0000001
 44
0.0000000001
 12
-0.2203328288
 22
-0.2156417232
 32
0.0
 13
-0.2203292703
 23
0.215645359
 33
0.0
 40
0.0
 40
0.0
 40
0.0
 40
0.0
 40
0.1250015764
 40
0.2500018811
 40
0.3750011995
 40
0.4999999784
 40
0.6249987578
 40
0.7499980771
 40
0.8749983843
 40
1.0
 40
1.0
 40
1.0
 40
1.0
 10
0.1393615327
 20
10.5619145383
 30
0.0
 10
0.1301808824
 20
10.5529293532
 30
0.0
 10
0.1100346859
 20
10.5366841848
 30
0.0
 10
0.07574278
 20
10.5186012449
 30
0.0
 10
0.0385969567
 20
10.5074532134
 30
0.0
 10
0.0000000033
 20
10.5036893039
 30
0.0
 10
-0.038596944
 20
10.5074532132
 30
0.0
 10
-0.0757427888
 20
10.5186012231
 30
0.0
 10
-0.1100346278
 20
10.5366842269
 30
0.0
 10
-0.1301810279
 20
10.5529291987
 30
0.0
 10
-0.1393615328
 20
10.5619145382
 30
0.0
 11
0.1393615327
 21
10.5619145383
 31
0.0
 11
0.1093557833
 21
10.5377315686
 31
0.0
 11
0.0752669892
 21
10.5197570052
 31
0.0
 11
0.0383550219
 21
10.508683883
 31
0.0
 11
0.0000000044
 21
10.5049439386
 31
0.0
 11
-0.0383550137
 21
10.5086838793
 31
0.0
 11
-0.0752669825
 21
10.5197569973
 31
0.0
 11
-0.1093557838
 21
10.5377315487
 31
0.0
 11
-0.1393615328
 21
10.5619145382
 31
0.0
  0
SPLINE
  5
6B6
100
AcDbEntity
  8
RACCORDO
100
AcDbSpline
 62
253
  6
CONTINUOUS
 70
0
 71
3
 72
15
 73
11
 74
9
 42
0.0000001
 43
0.0000001
 44
0.0000000001
 12
0.2203328288
 22
0.2156417232
 32
0.0
 13
0.2203292703
 23
-0.215645359
 33
0.0
 40
0.0
 40
0.0
 40
0.0
 40
0.0
 40
0.1250015764
 40
0.2500018811
 40
0.3750011995
 40
0.4999999784
 40
0.6249987578
 40
0.7499980771
 40
0.8749983843
 40
1.0
 40
1.0
 40
1.0
 40
1.0
 10
-0.1393615327
 20
5.7380854617
 30
0.0
 10
-0.1301808824
 20
5.7470706468
 30
0.0
 10
-0.1100346859
 20
5.7633158152
 30
0.0
 10
-0.07574278
 20
5.7813987551
 30
0.0
 10
-0.0385969567
 20
5.7925467866
 30
0.0
 10
-0.0000000033
 20
5.7963106961
 30
0.0
 10
0.038596944
 20
5.7925467868
 30
0.0
 10
0.0757427888
 20
5.7813987769
 30
0.0
 10
0.1100346278
 20
5.7633157731
 30
0.0
 10
0.1301810279
 20
5.7470708013
 30
0.0
 10
0.1393615328
 20
5.7380854618
 30
0.0
 11
-0.1393615327
 21
5.7380854617
 31
0.0
 11
-0.1093557833
 21
5.7622684314
 31
0.0
 11
-0.0752669892
 21
5.7802429948
 31
0.0
 11
-0.0383550219
 21
5.791316117
 31
0.0
 11
-0.0000000044
 21
5.7950560614
 31
0.0
 11
0.0383550137
 21
5.7913161208
 31
0.0
 11
0.0752669825
 21
5.7802430027
 31
0.0
 11
0.1093557838
 21
5.7622684513
 31
0.0
 11
0.1393615328
 21
5.7380854618
 31
0.0
  0
SPLINE
  5
6B7
100
AcDbEntity
  8
RACCORDO
100
AcDbSpline
 62
7
  6
CONTINUOUS
 70
0
 71
3
 72
9
 73
5
 74
3
 42
0.0000001
 43
0.0000001
 44
0.0000000001
 12
0.0136940911
 22
-1.1101395507
 32
0.0
 13
-0.0000000282
 23
-1.110224009
 33
0.0
 40
0.0
 40
0.0
 40
0.0
 40
0.0
 40
0.4687310371
 40
1.0
 40
1.0
 40
1.0
 40
1.0
 10
10.9668741341
 20
-14.9510378674
 30
0.0
 10
10.9690137493
 20
-15.124490155
 30
0.0
 10
10.973453951
 20
-15.4945384219
 30
0.0
 10
10.9754493557
 20
-15.8646140623
 30
0.0
 10
10.9754493507
 20
-16.0612232482
 30
0.0
 11
10.9668741341
 21
-14.9510378674
 31
0.0
 11
10.9726391266
 21
-15.471402385
 31
0.0
 11
10.9754493507
 21
-16.0612232482
 31
0.0
  0
SPLINE
  5
6B8
100
AcDbEntity
  8
0
100
AcDbSpline
 62
7
  6
CONTINUOUS
 70
0
 71
3
 72
59
 73
55
 74
53
 42
0.0000001
 43
0.0000001
 44
0.0000000001
 12
3.3300620791
 22
-4.3789547188
 32
0.0
 13
3.3300636212
 23
4.3789535461
 33
0.0
 40
0.0
 40
0.0
 40
0.0
 40
0.0
 40
0.0001143686
 40
0.0002934906
 40
0.000863827
 40
0.0017254063
 40
0.0028808066
 40
0.0043304821
 40
0.0060742318
 40
0.0081113287
 40
0.0104407399
 40
0.0159714174
 40
0.0226537935
 40
0.0304723311
 40
0.0394086715
 40
0.0494417157
 40
0.0605476486
 40
0.0727000884
 40
0.0858701787
 40
0.1151357447
 40
0.1480659156
 40
0.1843473986
 40
0.2236348306
 40
0.2655542121
 40
0.3097063657
 40
0.3556709139
 40
0.4030100624
 40
0.5000000026
 40
0.596989943
 40
0.6443290913
 40
0.6902936397
 40
0.7344457929
 40
0.7763651745
 40
0.8156526064
 40
0.8519340889
 40
0.8848642598
 40
0.9141298254
 40
0.9272999153
 40
0.939452355
 40
0.9505582877
 40
0.9605913317
 40
0.9695276718
 40
0.977346209
 40
0.9840285847
 40
0.9895592619
 40
0.9918886729
 40
0.9939257696
 40
0.9956695191
 40
0.9971191943
 40
0.9982745945
 40
0.9991361735
 40
0.9997065097
 40
0.9998856316
 40
1.0
 40
1.0
 40
1.0
 40
1.0
 10
-2.7498952879
 20
-15.0394984396
 30
0.0
 10
-2.7497683364
 20
-15.039665378
 30
0.0
 10
-2.7492983817
 20
-15.0399657005
 30
0.0
 10
-2.7478300084
 20
-15.0405400722
 30
0.0
 10
-2.7449248118
 20
-15.0411787579
 30
0.0
 10
-2.7402455474
 20
-15.0419168164
 30
0.0
 10
-2.7339269998
 20
-15.0426577751
 30
0.0
 10
-2.7259887744
 20
-15.0434091237
 30
0.0
 10
-2.7164258685
 20
-15.0441609257
 30
0.0
 10
-2.7052463376
 20
-15.0449134094
 30
0.0
 10
-2.6871280365
 20
-15.0459762969
 30
0.0
 10
-2.6604909098
 20
-15.0472626284
 30
0.0
 10
-2.6237863035
 20
-15.0487237281
 30
0.0
 10
-2.5808317274
 20
-15.050168136
 30
0.0
 10
-2.5317292172
 20
-15.0515914764
 30
0.0
 10
-2.4765954695
 20
-15.0529886077
 30
0.0
 10
-2.4155617531
 20
-15.0543554761
 30
0.0
 10
-2.3487734116
 20
-15.0556883521
 30
0.0
 10
-2.2486871127
 20
-15.0574787917
 30
0.0
 10
-2.11049882
 20
-15.059574388
 30
0.0
 10
-1.9299277075
 20
-15.0618271344
 30
0.0
 10
-1.7309752328
 20
-15.0638724009
 30
0.0
 10
-1.5155357576
 20
-15.0656893925
 30
0.0
 10
-1.2856609602
 20
-15.0672590382
 30
0.0
 10
-1.0435400172
 20
-15.068565471
 30
0.0
 10
-0.7914790296
 20
-15.0695955257
 30
0.0
 10
-0.4425247813
 20
-15.070594083
 30
0.0
 10
0.0000000149
 20
-15.0710845864
 30
0.0
 10
0.4425248106
 20
-15.0705940829
 30
0.0
 10
0.7914790595
 20
-15.0695955256
 30
0.0
 10
1.0435400464
 20
-15.0685654709
 30
0.0
 10
1.2856609892
 20
-15.067259038
 30
0.0
 10
1.5155357858
 20
-15.0656893924
 30
0.0
 10
1.7309752599
 20
-15.0638724007
 30
0.0
 10
1.9299277336
 20
-15.0618271342
 30
0.0
 10
2.1104988443
 20
-15.0595743878
 30
0.0
 10
2.2486871357
 20
-15.0574787913
 30
0.0
 10
2.3487734328
 20
-15.0556883518
 30
0.0
 10
2.4155617731
 20
-15.0543554758
 30
0.0
 10
2.4765954885
 20
-15.0529886073
 30
0.0
 10
2.531729235
 20
-15.051591476
 30
0.0
 10
2.5808317434
 20
-15.0501681355
 30
0.0
 10
2.6237863175
 20
-15.0487237276
 30
0.0
 10
2.6604909218
 20
-15.0472626279
 30
0.0
 10
2.6871280469
 20
-15.0459762964
 30
0.0
 10
2.7052463468
 20
-15.0449134088
 30
0.0
 10
2.7164258767
 20
-15.044160925
 30
0.0
 10
2.7259887814
 20
-15.0434091231
 30
0.0
 10
2.7339270055
 20
-15.0426577748
 30
0.0
 10
2.7402455519
 20
-15.0419168161
 30
0.0
 10
2.744924815
 20
-15.041178757
 30
0.0
 10
2.7478300104
 20
-15.0405400705
 30
0.0
 10
2.7492983827
 20
-15.039965699
 30
0.0
 10
2.749768337
 20
-15.039665377
 30
0.0
 10
2.7498952884
 20
-15.039498439
 30
0.0
 11
-2.7498952879
 21
-15.0394984396
 31
0.0
 11
-2.7493976749
 21
-15.0398834684
 31
0.0
 11
-2.7484905837
 21
-15.0402684544
 31
0.0
 11
-2.7454488237
 21
-15.0410380393
 31
0.0
 11
-2.7407717363
 21
-15.0418066785
 31
0.0
 11
-2.7344619767
 21
-15.0425738832
 31
0.0
 11
-2.72652365
 21
-15.0433392075
 31
0.0
 11
-2.7169611108
 21
-15.0441022086
 31
0.0
 11
-2.7057801975
 21
-15.0448624348
 31
0.0
 11
-2.6929877315
 21
-15.0456194289
 31
0.0
 11
-2.6625988062
 21
-15.0471219016
 31
0.0
 11
-2.6258668652
 21
-15.0486060255
 31
0.0
 11
-2.582879424
 21
-15.0500682534
 31
0.0
 11
-2.5337387281
 21
-15.0515050859
 31
0.0
 11
-2.4785616696
 21
-15.0529130685
 31
0.0
 11
-2.4174798333
 21
-15.0542888103
 31
0.0
 11
-2.3506387675
 21
-15.0556290154
 31
0.0
 11
-2.2781975331
 21
-15.0569304647
 31
0.0
 11
-2.1172172049
 21
-15.0594046043
 31
0.0
 11
-1.9360720725
 21
-15.0616874032
 31
0.0
 11
-1.736486633
 21
-15.0637567691
 31
0.0
 11
-1.5203615661
 21
-15.0655927302
 31
0.0
 11
-1.2897549417
 21
-15.0671774546
 31
0.0
 11
-1.046863248
 21
-15.0684956039
 31
0.0
 11
-0.7939995422
 21
-15.0695343613
 31
0.0
 11
-0.5335726604
 21
-15.0702836256
 31
0.0
 11
0.0000000144
 21
-15.0708874453
 31
0.0
 11
0.5335726905
 21
-15.0702836255
 31
0.0
 11
0.7939995713
 21
-15.0695343612
 31
0.0
 11
1.0468632781
 21
-15.0684956038
 31
0.0
 11
1.2897549699
 21
-15.0671774545
 31
0.0
 11
1.5203615947
 21
-15.06559273
 31
0.0
 11
1.7364866609
 21
-15.0637567689
 31
0.0
 11
1.9360720976
 21
-15.0616874029
 31
0.0
 11
2.1172172301
 21
-15.059404604
 31
0.0
 11
2.2781975559
 21
-15.0569304644
 31
0.0
 11
2.3506387885
 21
-15.055629015
 31
0.0
 11
2.4174798531
 21
-15.05428881
 31
0.0
 11
2.4785616888
 21
-15.0529130681
 31
0.0
 11
2.533738746
 21
-15.0515050855
 31
0.0
 11
2.5828794401
 21
-15.0500682529
 31
0.0
 11
2.625866879
 21
-15.048606025
 31
0.0
 11
2.662598818
 21
-15.0471219011
 31
0.0
 11
2.6929877418
 21
-15.0456194284
 31
0.0
 11
2.7057802068
 21
-15.0448624342
 31
0.0
 11
2.7169611189
 21
-15.0441022079
 31
0.0
 11
2.726523657
 21
-15.043339207
 31
0.0
 11
2.7344619824
 21
-15.0425738829
 31
0.0
 11
2.7407717408
 21
-15.0418066781
 31
0.0
 11
2.7454488269
 21
-15.0410380382
 31
0.0
 11
2.7484905855
 21
-15.0402684527
 31
0.0
 11
2.749397676
 21
-15.039883467
 31
0.0
 11
2.7498952884
 21
-15.039498439
 31
0.0
  0
SPLINE
  5
6B9
100
AcDbEntity
  8
0
100
AcDbSpline
 62
7
  6
CONTINUOUS
 70
0
 71
3
 72
59
 73
55
 74
53
 42
0.0000001
 43
0.0000001
 44
0.0000000001
 12
-3.3298564294
 22
4.3791113992
 32
0.0
 13
-3.3298466951
 23
-4.3791188011
 33
0.0
 40
0.0
 40
0.0
 40
0.0
 40
0.0
 40
0.0001143726
 40
0.0002934968
 40
0.0008638354
 40
0.0017254163
 40
0.0028808178
 40
0.0043304942
 40
0.0060742448
 40
0.0081113422
 40
0.0104407539
 40
0.0159714321
 40
0.0226538088
 40
0.0304723468
 40
0.0394086873
 40
0.0494417316
 40
0.0605476645
 40
0.0727001043
 40
0.0858701943
 40
0.1151357598
 40
0.1480659299
 40
0.184347412
 40
0.223634843
 40
0.2655542233
 40
0.3097063757
 40
0.3556709226
 40
0.4030100697
 40
0.5000000071
 40
0.5969899445
 40
0.6443290912
 40
0.6902936381
 40
0.7344457897
 40
0.7763651696
 40
0.8156526
 40
0.8519340809
 40
0.8848642504
 40
0.9141298147
 40
0.9272999041
 40
0.9394523433
 40
0.9505582757
 40
0.9605913193
 40
0.969527659
 40
0.9773461962
 40
0.9840285721
 40
0.9895592496
 40
0.9918886609
 40
0.9939257579
 40
0.9956695081
 40
0.997119184
 40
0.998274585
 40
0.9991361654
 40
0.9997065036
 40
0.9998856275
 40
1.0
 40
1.0
 40
1.0
 40
1.0
 10
2.7498952875
 20
15.0395713334
 30
0.0
 10
2.7497683394
 20
15.0397382836
 30
0.0
 10
2.7492983887
 20
15.0400386355
 30
0.0
 10
2.7478300145
 20
15.0406130517
 30
0.0
 10
2.7449248157
 20
15.0412517834
 30
0.0
 10
2.7402455499
 20
15.0419898926
 30
0.0
 10
2.733927002
 20
15.0427309098
 30
0.0
 10
2.7259887765
 20
15.0434823183
 30
0.0
 10
2.7164258705
 20
15.0442341795
 30
0.0
 10
2.7052463395
 20
15.0449867214
 30
0.0
 10
2.6871280391
 20
15.0460496905
 30
0.0
 10
2.6604909127
 20
15.0473361223
 30
0.0
 10
2.6237863062
 20
15.0487973358
 30
0.0
 10
2.5808317299
 20
15.0502418562
 30
0.0
 10
2.5317292197
 20
15.0516653079
 30
0.0
 10
2.4765954719
 20
15.0530625484
 30
0.0
 10
2.4155617553
 20
15.054429524
 30
0.0
 10
2.3487734135
 20
15.0557625046
 30
0.0
 10
2.2486871143
 20
15.0575530849
 30
0.0
 10
2.110498821
 20
15.0596488464
 30
0.0
 10
1.929927707
 20
15.0619017708
 30
0.0
 10
1.7309752303
 20
15.0639471995
 30
0.0
 10
1.5155357527
 20
15.0657643354
 30
0.0
 10
1.2856609525
 20
15.0673341059
 30
0.0
 10
1.0435400064
 20
15.0686406429
 30
0.0
 10
0.7914790153
 20
15.0696707798
 30
0.0
 10
0.4425247622
 20
15.0706694169
 30
0.0
 10
-0.0000000399
 20
15.0711599595
 30
0.0
 10
-0.4425248412
 20
15.0706694168
 30
0.0
 10
-0.7914790936
 20
15.0696707796
 30
0.0
 10
-1.0435400824
 20
15.0686406426
 30
0.0
 10
-1.2856610262
 20
15.0673341055
 30
0.0
 10
-1.5155358231
 20
15.0657643349
 30
0.0
 10
-1.7309752967
 20
15.0639471989
 30
0.0
 10
-1.9299277689
 20
15.0619017702
 30
0.0
 10
-2.1104988776
 20
15.0596488457
 30
0.0
 10
-2.2486871664
 20
15.0575530841
 30
0.0
 10
-2.348773461
 20
15.0557625038
 30
0.0
 10
-2.4155617995
 20
15.0544295231
 30
0.0
 10
-2.4765955129
 20
15.0530625475
 30
0.0
 10
-2.5317292572
 20
15.0516653069
 30
0.0
 10
-2.5808317633
 20
15.0502418552
 30
0.0
 10
-2.6237863352
 20
15.0487973348
 30
0.0
 10
-2.6604909373
 20
15.0473361212
 30
0.0
 10
-2.6871280602
 20
15.0460496894
 30
0.0
 10
-2.7052463577
 20
15.0449867202
 30
0.0
 10
-2.7164258865
 20
15.0442341784
 30
0.0
 10
-2.7259887901
 20
15.0434823171
 30
0.0
 10
-2.7339270131
 20
15.0427309086
 30
0.0
 10
-2.7402455585
 20
15.0419898914
 30
0.0
 10
-2.7449248218
 20
15.0412517823
 30
0.0
 10
-2.7478300185
 20
15.0406130507
 30
0.0
 10
-2.749298391
 20
15.0400386345
 30
0.0
 10
-2.7497683408
 20
15.0397382824
 30
0.0
 10
-2.7498952884
 20
15.0395713322
 30
0.0
 11
2.7498952875
 21
15.0395713334
 31
0.0
 11
2.7493976742
 21
15.0399563979
 31
0.0
 11
2.7484905833
 21
15.0403414152
 31
0.0
 11
2.7454488243
 21
15.0411110553
 31
0.0
 11
2.7407717367
 21
15.0418797483
 31
0.0
 11
2.7344619776
 21
15.0426470115
 31
0.0
 11
2.7265236514
 21
15.0434123965
 31
0.0
 11
2.7169611117
 21
15.0441754577
 31
0.0
 11
2.7057801991
 21
15.0449357428
 31
0.0
 11
2.6929877331
 21
15.0456927952
 31
0.0
 11
2.6625988083
 21
15.0471953845
 31
0.0
 11
2.6258668671
 21
15.048679624
 31
0.0
 11
2.5828794258
 21
15.0501419659
 31
0.0
 11
2.5337387302
 21
15.0515789106
 31
0.0
 11
2.4785616719
 21
15.0529870034
 31
0.0
 11
2.4174798352
 21
15.054362853
 31
0.0
 11
2.3506387691
 21
15.0557031632
 31
0.0
 11
2.2781975346
 21
15.0570047149
 31
0.0
 11
2.1172172055
 21
15.0594790494
 31
0.0
 11
1.9360720718
 21
15.0617620286
 31
0.0
 11
1.7364866304
 21
15.0638315585
 31
0.0
 11
1.5203615612
 21
15.0656676654
 31
0.0
 11
1.289754934
 21
15.0672525159
 31
0.0
 11
1.0468632371
 21
15.0685707702
 31
0.0
 11
0.7939995278
 21
15.0696096105
 31
0.0
 11
0.5335726424
 21
15.0703589347
 31
0.0
 11
-0.0000000398
 21
15.0709628027
 31
0.0
 11
-0.5335727223
 21
15.0703589345
 31
0.0
 11
-0.7939996055
 21
15.0696096103
 31
0.0
 11
-1.0468633142
 21
15.0685707699
 31
0.0
 11
-1.289755007
 21
15.0672525155
 31
0.0
 11
-1.520361632
 21
15.0656676649
 31
0.0
 11
-1.7364866976
 21
15.0638315579
 31
0.0
 11
-1.9360721329
 21
15.061762028
 31
0.0
 11
-2.1172172631
 21
15.0594790486
 31
0.0
 11
-2.2781975858
 21
15.057004714
 31
0.0
 11
-2.3506388164
 21
15.0557031624
 31
0.0
 11
-2.4174798793
 21
15.0543628521
 31
0.0
 11
-2.4785617131
 21
15.0529870024
 31
0.0
 11
-2.5337387679
 21
15.0515789096
 31
0.0
 11
-2.5828794593
 21
15.0501419648
 31
0.0
 11
-2.6258668961
 21
15.048679623
 31
0.0
 11
-2.6625988328
 21
15.0471953834
 31
0.0
 11
-2.6929877536
 21
15.0456927941
 31
0.0
 11
-2.7057802174
 21
15.0449357417
 31
0.0
 11
-2.7169611277
 21
15.0441754566
 31
0.0
 11
-2.726523665
 21
15.0434123953
 31
0.0
 11
-2.7344619888
 21
15.0426470102
 31
0.0
 11
-2.7407717453
 21
15.0418797471
 31
0.0
 11
-2.7454488304
 21
15.0411110541
 31
0.0
 11
-2.7484905868
 21
15.0403414141
 31
0.0
 11
-2.7493976764
 21
15.0399563968
 31
0.0
 11
-2.7498952884
 21
15.0395713322
 31
0.0
  0
SPLINE
  5
6BA
100
AcDbEntity
  8
RACCORDO
100
AcDbSpline
 62
7
  6
CONTINUOUS
 70
0
 71
3
 72
9
 73
5
 74
3
 42
0.0000001
 43
0.0000001
 44
0.0000000001
 12
-0.0000000282
 22
1.110224009
 32
0.0
 13
0.0136940831
 23
1.1101395508
 33
0.0
 40
0.0
 40
0.0
 40
0.0
 40
0.0
 40
0.5312689629
 40
1.0
 40
1.0
 40
1.0
 40
1.0
 10
-10.9754493507
 20
-16.0612232482
 30
0.0
 10
-10.9754493557
 20
-15.8646140623
 30
0.0
 10
-10.9734539517
 20
-15.4945384219
 30
0.0
 10
-10.9690137481
 20
-15.1244901551
 30
0.0
 10
-10.9668741341
 20
-14.9510378674
 30
0.0
 11
-10.9754493507
 21
-16.0612232482
 31
0.0
 11
-10.9726391266
 21
-15.471402385
 31
0.0
 11
-10.9668741341
 21
-14.9510378674
 31
0.0
  0
ELLIPSE
  5
6BB
100
AcDbEntity
  8
ASSI
100
AcDbEllipse
 62
7
  6
CONTINUOUS
 10
2.500822853
 20
-20.0445142067
 30
0.0
 11
1.0003429753
 21
-0.0000079798
 31
0.0
 40
0.0087288573
 41
-1.5698824513
 42
0.0002286428
  0
ELLIPSE
  5
6BC
100
AcDbEntity
  8
ASSI
100
AcDbEllipse
 62
7
  6
CONTINUOUS
 10
2.5594595337
 20
22.2837587015
 30
0.0
 11
1.0003425837
 21
-0.0000039869
 31
0.0
 40
0.0174470935
 41
-0.7049310865
 42
-0.0004567986
  0
ELLIPSE
  5
6BD
100
AcDbEntity
  8
ASSI
100
AcDbEllipse
 62
7
  6
CONTINUOUS
 10
0.0
 20
20.1823616323
 30
0.0
 11
14.9952243011
 21
-0.0
 31
0.0
 40
0.008726868
 41
-1.7343224474
 42
-1.4072702062
  0
ELLIPSE
  5
6BE
100
AcDbEntity
  8
ASSI
100
AcDbEllipse
 62
7
  6
CONTINUOUS
 10
0.0
 20
-20.1823616323
 30
0.0
 11
14.9952243011
 21
-0.0
 31
0.0
 40
0.008726868
 41
1.4072702062
 42
1.7343224474
  0
ELLIPSE
  5
6BF
100
AcDbEntity
  8
ASSI
100
AcDbEllipse
 62
7
  6
CONTINUOUS
 10
-2.5594595337
 20
22.2837587015
 30
0.0
 11
1.0003425837
 21
0.0000039869
 31
0.0
 40
0.0174470935
 41
-3.141135855
 42
-2.4366615671
  0
ELLIPSE
  5
6C0
100
AcDbEntity
  8
ASSI
100
AcDbEllipse
 62
7
  6
CONTINUOUS
 10
-2.500822853
 20
20.0445142067
 30
0.0
 11
1.0003429753
 21
-0.0000079798
 31
0.0
 40
0.0087288573
 41
1.5717102023
 42
3.1418212964
  0
ELLIPSE
  5
6C1
100
AcDbEntity
  8
ASSI
100
AcDbEllipse
 62
7
  6
CONTINUOUS
 10
2.500822853
 20
20.0445142067
 30
0.0
 11
1.0003429753
 21
0.0000079798
 31
0.0
 40
0.0087288573
 41
-0.0002286428
 42
1.5698824513
  0
ELLIPSE
  5
6C2
100
AcDbEntity
  8
ASSI
100
AcDbEllipse
 62
7
  6
CONTINUOUS
 10
-2.500822853
 20
-20.0445142067
 30
0.0
 11
1.0003429753
 21
0.0000079798
 31
0.0
 40
0.0087288573
 41
3.1413640107
 42
4.7114751049
  0
ELLIPSE
  5
6C3
100
AcDbEntity
  8
ASSI
100
AcDbEllipse
 62
7
  6
CONTINUOUS
 10
-2.5594595337
 20
-22.2837587015
 30
0.0
 11
1.0003425837
 21
-0.0000039869
 31
0.0
 40
0.0174470935
 41
2.4366615671
 42
3.141135855
  0
ELLIPSE
  5
6C4
100
AcDbEntity
  8
ASSI
100
AcDbEllipse
 62
7
  6
CONTINUOUS
 10
2.5594595337
 20
-22.2837587015
 30
0.0
 11
1.0003425837
 21
0.0000039869
 31
0.0
 40
0.0174470935
 41
0.0004567986
 42
0.7049310865
  0
ELLIPSE
  5
6C5
100
AcDbEntity
  8
ASSI
100
AcDbEllipse
 62
7
  6
CONTINUOUS
 10
-3.301626363
 20
20.8909925586
 30
0.0
 11
0.2500430089
 21
-0.0006662079
 31
0.0
 40
0.3638978753
 41
-1.5634746963
 42
0.0073216305
  0
ELLIPSE
  5
6C6
100
AcDbEntity
  8
RACCORDO
100
AcDbEllipse
 62
7
  6
CONTINUOUS
 10
-7.01446908
 20
-20.9855233043
 30
0.0
 11
0.2
 21
-0.0
 31
0.0
 40
0.0087268678
 41
-3.1328660073
 42
-1.5707963268
  0
ELLIPSE
  5
6C7
100
AcDbEntity
  8
ASSI
100
AcDbEllipse
 62
7
  6
CONTINUOUS
 10
10.5824687711
 20
-21.882468771
 30
0.0
 11
-0.3536610946
 21
0.3536610946
 31
0.0
 40
0.9996954599
 41
2.3563467834
 42
3.9268385237
  0
ELLIPSE
  5
6C8
100
AcDbEntity
  8
ASSI
100
AcDbEllipse
 62
7
  6
CONTINUOUS
 10
-10.582468771
 20
-21.882468771
 30
0.0
 11
-0.3536610946
 21
-0.3536610946
 31
0.0
 40
0.9996954599
 41
-0.7852458701
 42
0.7852458701
  0
ELLIPSE
  5
6C9
100
AcDbEntity
  8
ASSI
100
AcDbEllipse
 62
7
  6
CONTINUOUS
 10
-10.582468771
 20
21.8824687711
 30
0.0
 11
0.3536610946
 21
-0.3536610946
 31
0.0
 40
0.9996954599
 41
2.3563467834
 42
3.9268385237
  0
ELLIPSE
  5
6CA
100
AcDbEntity
  8
ASSI
100
AcDbEllipse
 62
7
  6
CONTINUOUS
 10
10.5824687711
 20
21.8824687711
 30
0.0
 11
0.3536610946
 21
0.3536610946
 31
0.0
 40
0.9996954599
 41
-0.7852458701
 42
0.7852458701
  0
ELLIPSE
  5
6CB
100
AcDbEntity
  8
RACCORDO
100
AcDbEllipse
 62
7
  6
CONTINUOUS
 10
-7.01446908
 20
20.9855233044
 30
0.0
 11
0.2
 21
-0.0
 31
0.0
 40
0.0087268678
 41
1.5707963268
 42
3.1328660073
  0
ELLIPSE
  5
6CC
100
AcDbEntity
  8
ASSI
100
AcDbEllipse
 62
7
  6
CONTINUOUS
 10
8.7631293807
 20
23.5556624327
 30
0.0
 11
0.25
 21
-0.0
 31
0.0
 40
0.5773502692
 41
2.617993878
 42
3.1241393611
  0
ELLIPSE
  5
6CD
100
AcDbEntity
  8
ASSI
100
AcDbEllipse
 62
7
  6
CONTINUOUS
 10
-9.0368706193
 20
23.5556624327
 30
0.0
 11
0.25
 21
-0.0
 31
0.0
 40
0.5773502692
 41
2.617993878
 42
3.1241393611
  0
ELLIPSE
  5
6CE
100
AcDbEntity
  8
ASSI
100
AcDbEllipse
 62
7
  6
CONTINUOUS
 10
9.0368706193
 20
-23.5556624327
 30
0.0
 11
0.25
 21
0.0
 31
0.0
 40
0.5773502692
 41
-0.5235987756
 42
-0.0174532925
  0
ELLIPSE
  5
6CF
100
AcDbEntity
  8
ASSI
100
AcDbEllipse
 62
7
  6
CONTINUOUS
 10
-8.7631293807
 20
-23.5556624327
 30
0.0
 11
0.25
 21
-0.0
 31
0.0
 40
0.5773502692
 41
-0.5235987756
 42
-0.0174532925
  0
ELLIPSE
  5
6D0
100
AcDbEntity
  8
RACCORDO
100
AcDbEllipse
 62
7
  6
CONTINUOUS
 10
9.4368384807
 20
-20.6956289504
 30
0.0
 11
0.1898127769
 21
-0.0632580757
 31
0.0
 40
0.9996192872
 41
-1.2489924673
 42
0.3215754254
  0
ELLIPSE
  5
6D1
100
AcDbEntity
  8
RACCORDO
100
AcDbEllipse
 62
7
  6
CONTINUOUS
 10
-9.4368384807
 20
-20.6956289504
 30
0.0
 11
0.1898127769
 21
0.0632580757
 31
0.0
 40
0.9996192872
 41
2.8200172282
 42
4.3905851209
  0
ELLIPSE
  5
6D2
100
AcDbEntity
  8
RACCORDO
100
AcDbEllipse
 62
7
  6
CONTINUOUS
 10
-9.4368384807
 20
20.6956289504
 30
0.0
 11
0.1898127769
 21
-0.0632580757
 31
0.0
 40
0.9996192872
 41
1.8926001862
 42
3.463168079
  0
ELLIPSE
  5
6D3
100
AcDbEntity
  8
RACCORDO
100
AcDbEllipse
 62
7
  6
CONTINUOUS
 10
9.4368384807
 20
20.6956289504
 30
0.0
 11
0.1898127769
 21
0.0632580757
 31
0.0
 40
0.9996192872
 41
-0.3215754254
 42
1.2489924673
  0
ELLIPSE
  5
6D4
100
AcDbEntity
  8
ASSI
100
AcDbEllipse
 62
7
  6
CONTINUOUS
 10
4.0459553394
 20
-23.2
 30
0.0
 11
0.4595995956
 21
-0.0
 31
0.0
 40
0.9949884474
 41
0.4967770086
 42
0.8362648721
  0
ELLIPSE
  5
6D5
100
AcDbEntity
  8
ASSI
100
AcDbEllipse
 62
7
  6
CONTINUOUS
 10
4.0459553394
 20
-23.2
 30
0.0
 11
0.4595995956
 21
-0.0
 31
0.0
 40
0.9949884474
 41
-0.8362648721
 42
-0.4967770086
  0
ELLIPSE
  5
6D6
100
AcDbEntity
  8
ASSI
100
AcDbEllipse
 62
7
  6
CONTINUOUS
 10
4.0459553394
 20
23.2
 30
0.0
 11
0.4595995956
 21
0.0
 31
0.0
 40
0.9949884474
 41
0.4967770086
 42
0.8362648721
  0
ELLIPSE
  5
6D7
100
AcDbEntity
  8
ASSI
100
AcDbEllipse
 62
7
  6
CONTINUOUS
 10
4.0459553394
 20
23.2
 30
0.0
 11
0.4595995956
 21
-0.0
 31
0.0
 40
0.9949884474
 41
-0.8362648721
 42
-0.4967770086
  0
ELLIPSE
  5
6D8
100
AcDbEntity
  8
RACCORDO
100
AcDbEllipse
 62
7
  6
CONTINUOUS
 10
7.01446908
 20
20.9855233044
 30
0.0
 11
0.2
 21
-0.0
 31
0.0
 40
0.0087268678
 41
0.0087266463
 42
1.5707963268
  0
ELLIPSE
  5
6D9
100
AcDbEntity
  8
RACCORDO
100
AcDbEllipse
 62
7
  6
CONTINUOUS
 10
7.01446908
 20
-20.9855233043
 30
0.0
 11
0.2
 21
0.0
 31
0.0
 40
0.0087268678
 41
-1.5707963268
 42
-0.0087266463
  0
ELLIPSE
  5
6DA
100
AcDbEntity
  8
ASSI
100
AcDbEllipse
 62
7
  6
CONTINUOUS
 10
-4.0459553394
 20
-23.2
 30
0.0
 11
0.4595995956
 21
0.0
 31
0.0
 40
0.9949884474
 41
-2.644815645
 42
-2.3053277814
  0
ELLIPSE
  5
6DB
100
AcDbEntity
  8
ASSI
100
AcDbEllipse
 62
7
  6
CONTINUOUS
 10
-4.0459553394
 20
-23.2
 30
0.0
 11
0.4595995956
 21
0.0
 31
0.0
 40
0.9949884474
 41
2.3053277814
 42
2.644815645
  0
ELLIPSE
  5
6DC
100
AcDbEntity
  8
ASSI
100
AcDbEllipse
 62
7
  6
CONTINUOUS
 10
-4.0459553394
 20
23.2
 30
0.0
 11
0.4595995956
 21
-0.0
 31
0.0
 40
0.9949884474
 41
-2.644815645
 42
-2.3053277814
  0
ELLIPSE
  5
6DD
100
AcDbEntity
  8
ASSI
100
AcDbEllipse
 62
7
  6
CONTINUOUS
 10
-4.0459553394
 20
23.2
 30
0.0
 11
0.4595995956
 21
0.0
 31
0.0
 40
0.9949884474
 41
2.3053277814
 42
2.644815645
  0
ELLIPSE
  5
6DE
100
AcDbEntity
  8
ASSI
100
AcDbEllipse
 62
7
  6
CONTINUOUS
 10
1.0665637101
 20
-23.7334362899
 30
0.0
 11
0.1232958913
 21
0.2177184957
 31
0.0
 40
0.9991120018
 41
-4.1971871908
 42
-2.6266954505
  0
ELLIPSE
  5
6DF
100
AcDbEntity
  8
ASSI
100
AcDbEllipse
 62
7
  6
CONTINUOUS
 10
-1.0665637101
 20
-23.7334362899
 30
0.0
 11
-0.1232958913
 21
0.2177184957
 31
0.0
 40
0.9991120018
 41
-3.6564898567
 42
-2.0859981164
  0
ELLIPSE
  5
6E0
100
AcDbEntity
  8
ASSI
100
AcDbEllipse
 62
7
  6
CONTINUOUS
 10
-8.0667218183
 20
-21.2165694902
 30
0.0
 11
0.0
 21
1.0
 31
0.0
 40
0.0174550649
 41
-1.8153080819
 42
-1.5707963268
  0
ELLIPSE
  5
6E1
100
AcDbEntity
  8
ASSI
100
AcDbEllipse
 62
7
  6
CONTINUOUS
 10
8.0667218183
 20
-21.2165694902
 30
0.0
 11
-0.0
 21
1.0
 31
0.0
 40
0.0174550649
 41
-4.7123889804
 42
-4.4678772253
  0
ELLIPSE
  5
6E2
100
AcDbEntity
  8
ASSI
100
AcDbEllipse
 62
7
  6
CONTINUOUS
 10
8.0667218183
 20
21.2165694902
 30
0.0
 11
-0.0
 21
1.0
 31
0.0
 40
0.0174550649
 41
1.3262845717
 42
1.5707963268
  0
ELLIPSE
  5
6E3
100
AcDbEntity
  8
ASSI
100
AcDbEllipse
 62
7
  6
CONTINUOUS
 10
-8.0667218183
 20
21.2165694902
 30
0.0
 11
-0.0
 21
1.0
 31
0.0
 40
0.0174550649
 41
-1.5707963268
 42
-1.3262845717
  0
ELLIPSE
  5
6E4
100
AcDbEntity
  8
ASSI
100
AcDbEllipse
 62
7
  6
CONTINUOUS
 10
8.3038431345
 20
21.2165694902
 30
0.0
 11
1.0000571192
 21
-0.9999809595
 31
0.0
 40
0.0061705924
 41
-3.1303103451
 42
-1.8214790659
  0
ELLIPSE
  5
6E5
100
AcDbEntity
  8
ASSI
100
AcDbEllipse
 62
7
  6
CONTINUOUS
 10
-8.3038431345
 20
21.2165694902
 30
0.0
 11
1.0000571192
 21
0.9999809595
 31
0.0
 40
0.0061705924
 41
-1.3201135877
 42
-0.0112823085
  0
ELLIPSE
  5
6E6
100
AcDbEntity
  8
ASSI
100
AcDbEllipse
 62
7
  6
CONTINUOUS
 10
8.3038431345
 20
-21.2165694902
 30
0.0
 11
1.0000571192
 21
0.9999809595
 31
0.0
 40
0.0061705924
 41
1.8214790659
 42
3.1303103451
  0
ELLIPSE
  5
6E7
100
AcDbEntity
  8
ASSI
100
AcDbEllipse
 62
7
  6
CONTINUOUS
 10
-8.3038431345
 20
-21.2165694902
 30
0.0
 11
1.0000571192
 21
-0.9999809595
 31
0.0
 40
0.0061705924
 41
0.0112823085
 42
1.3201135877
  0
ELLIPSE
  5
6E8
100
AcDbEntity
  8
ASSI
100
AcDbEllipse
 62
7
  6
CONTINUOUS
 10
-1.0665637101
 20
23.7334362899
 30
0.0
 11
0.1232958913
 21
0.2177184957
 31
0.0
 40
0.9991120018
 41
-1.0555945372
 42
0.5148972031
  0
ELLIPSE
  5
6E9
100
AcDbEntity
  8
ASSI
100
AcDbEllipse
 62
7
  6
CONTINUOUS
 10
1.0665637101
 20
23.7334362899
 30
0.0
 11
-0.1232958913
 21
0.2177184957
 31
0.0
 40
0.9991120018
 41
-0.5148972031
 42
1.0555945372
  0
ELLIPSE
  5
6EA
100
AcDbEntity
  8
ASSI
100
AcDbEllipse
 62
7
  6
CONTINUOUS
 10
3.301626363
 20
-20.8909925586
 30
0.0
 11
0.2500430089
 21
-0.0006662079
 31
0.0
 40
0.3638978753
 41
1.5781179573
 42
3.1489142841
  0
ELLIPSE
  5
6EB
100
AcDbEntity
  8
ASSI
100
AcDbEllipse
 62
7
  6
CONTINUOUS
 10
9.0368706193
 20
23.5556624327
 30
0.0
 11
0.25
 21
-0.0
 31
0.0
 40
0.5773502692
 41
0.0174532925
 42
0.5235987756
  0
ELLIPSE
  5
6EC
100
AcDbEntity
  8
ASSI
100
AcDbEllipse
 62
7
  6
CONTINUOUS
 10
9.0368706193
 20
22.3869087013
 30
0.0
 11
0.25
 21
0.0
 31
0.0
 40
0.0174550649
 41
-1.5707963268
 42
-0.0174532925
  0
ELLIPSE
  5
6ED
100
AcDbEntity
  8
ASSI
100
AcDbEllipse
 62
7
  6
CONTINUOUS
 10
-8.7631293807
 20
23.5556624327
 30
0.0
 11
0.25
 21
0.0
 31
0.0
 40
0.5773502692
 41
0.0174532925
 42
0.5235987756
  0
ELLIPSE
  5
6EE
100
AcDbEntity
  8
ASSI
100
AcDbEllipse
 62
7
  6
CONTINUOUS
 10
-8.7631293807
 20
22.3869087013
 30
0.0
 11
0.25
 21
0.0
 31
0.0
 40
0.0174550649
 41
-1.5707963268
 42
-0.0174532925
  0
ELLIPSE
  5
6EF
100
AcDbEntity
  8
ASSI
100
AcDbEllipse
 62
7
  6
CONTINUOUS
 10
9.0368706193
 20
-22.3869087013
 30
0.0
 11
0.25
 21
0.0
 31
0.0
 40
0.0174550649
 41
0.0174532925
 42
1.5707963268
  0
ELLIPSE
  5
6F0
100
AcDbEntity
  8
ASSI
100
AcDbEllipse
 62
7
  6
CONTINUOUS
 10
-8.7631293807
 20
-22.3869087013
 30
0.0
 11
0.25
 21
0.0
 31
0.0
 40
0.0174550649
 41
0.0174532925
 42
1.5707963268
  0
ELLIPSE
  5
6F1
100
AcDbEntity
  8
ASSI
100
AcDbEllipse
 62
7
  6
CONTINUOUS
 10
-9.0368706193
 20
22.3869087013
 30
0.0
 11
0.25
 21
0.0
 31
0.0
 40
0.0174550649
 41
-3.1241393611
 42
-1.5707963268
  0
ELLIPSE
  5
6F2
100
AcDbEntity
  8
ASSI
100
AcDbEllipse
 62
7
  6
CONTINUOUS
 10
8.7631293807
 20
22.3869087013
 30
0.0
 11
0.25
 21
0.0
 31
0.0
 40
0.0174550649
 41
-3.1241393611
 42
-1.5707963268
  0
ELLIPSE
  5
6F3
100
AcDbEntity
  8
ASSI
100
AcDbEllipse
 62
7
  6
CONTINUOUS
 10
8.7631293807
 20
-23.5556624327
 30
0.0
 11
0.25
 21
0.0
 31
0.0
 40
0.5773502692
 41
-3.1241393611
 42
-2.617993878
  0
ELLIPSE
  5
6F4
100
AcDbEntity
  8
ASSI
100
AcDbEllipse
 62
7
  6
CONTINUOUS
 10
8.7631293807
 20
-22.3869087013
 30
0.0
 11
0.25
 21
0.0
 31
0.0
 40
0.0174550649
 41
1.5707963268
 42
3.1241393611
  0
ELLIPSE
  5
6F5
100
AcDbEntity
  8
ASSI
100
AcDbEllipse
 62
7
  6
CONTINUOUS
 10
-9.0368706193
 20
-23.5556624327
 30
0.0
 11
0.25
 21
-0.0
 31
0.0
 40
0.5773502692
 41
-3.1241393611
 42
-2.617993878
  0
ELLIPSE
  5
6F6
100
AcDbEntity
  8
ASSI
100
AcDbEllipse
 62
7
  6
CONTINUOUS
 10
-9.0368706193
 20
-22.3869087013
 30
0.0
 11
0.25
 21
0.0
 31
0.0
 40
0.0174550649
 41
1.5707963268
 42
3.1241393611
  0
ELLIPSE
  5
6F7
100
AcDbEntity
  8
ASSI
100
AcDbEllipse
 62
7
  6
CONTINUOUS
 10
10.3999695344
 20
-23.3535898385
 30
0.0
 11
0.0069796346
 21
0.2308610084
 31
0.0
 40
0.8659264732
 41
-1.5358963758
 42
0.026173628
  0
ELLIPSE
  5
6F8
100
AcDbEntity
  8
ASSI
100
AcDbEllipse
 62
7
  6
CONTINUOUS
 10
7.4000304656
 20
-23.3535898385
 30
0.0
 11
-0.0069796346
 21
0.2308610084
 31
0.0
 40
0.8659264732
 41
-0.026173628
 42
1.5358963756
  0
ELLIPSE
  5
6F9
100
AcDbEntity
  8
ASSI
100
AcDbEllipse
 62
7
  6
CONTINUOUS
 10
-7.4000304656
 20
-23.3535898385
 30
0.0
 11
0.0069796346
 21
0.2308610084
 31
0.0
 40
0.8659264732
 41
-1.5358963758
 42
0.026173628
  0
ELLIPSE
  5
6FA
100
AcDbEntity
  8
ASSI
100
AcDbEllipse
 62
7
  6
CONTINUOUS
 10
-10.3999695344
 20
-23.3535898385
 30
0.0
 11
-0.0069796346
 21
0.2308610084
 31
0.0
 40
0.8659264732
 41
-0.026173628
 42
1.5358963756
  0
ELLIPSE
  5
6FB
100
AcDbEntity
  8
ASSI
100
AcDbEllipse
 62
7
  6
CONTINUOUS
 10
10.3999695344
 20
23.3535898385
 30
0.0
 11
-0.0069796346
 21
0.2308610084
 31
0.0
 40
0.8659264732
 41
-3.1677662815
 42
-1.6056962779
  0
ELLIPSE
  5
6FC
100
AcDbEntity
  8
ASSI
100
AcDbEllipse
 62
7
  6
CONTINUOUS
 10
-7.4000304656
 20
23.3535898385
 30
0.0
 11
-0.0069796346
 21
0.2308610084
 31
0.0
 40
0.8659264732
 41
-3.1677662815
 42
-1.6056962779
  0
ELLIPSE
  5
6FD
100
AcDbEntity
  8
ASSI
100
AcDbEllipse
 62
7
  6
CONTINUOUS
 10
7.4000304656
 20
23.3535898385
 30
0.0
 11
0.0069796346
 21
0.2308610084
 31
0.0
 40
0.8659264732
 41
-4.6774890294
 42
-3.1154190256
  0
ELLIPSE
  5
6FE
100
AcDbEntity
  8
ASSI
100
AcDbEllipse
 62
7
  6
CONTINUOUS
 10
-10.3999695344
 20
23.3535898385
 30
0.0
 11
0.0069796346
 21
0.2308610084
 31
0.0
 40
0.8659264732
 41
-4.6774890294
 42
-3.1154190256
  0
ELLIPSE
  5
6FF
100
AcDbEntity
  8
ASSI
100
AcDbEllipse
 62
7
  6
CONTINUOUS
 10
-3.847849168
 20
-23.7334362899
 30
0.0
 11
0.0040937266
 21
0.2501189627
 31
0.0
 40
0.999390466
 41
-3.1252369704
 42
-1.5806165942
  0
ELLIPSE
  5
700
100
AcDbEntity
  8
ASSI
100
AcDbEllipse
 62
7
  6
CONTINUOUS
 10
3.847849168
 20
-23.7334362899
 30
0.0
 11
-0.0040937266
 21
0.2501189627
 31
0.0
 40
0.999390466
 41
-4.702568713
 42
-3.1579483368
  0
ELLIPSE
  5
701
100
AcDbEntity
  8
ASSI
100
AcDbEllipse
 62
7
  6
CONTINUOUS
 10
-3.847849168
 20
23.7334362899
 30
0.0
 11
-0.0040937266
 21
0.2501189627
 31
0.0
 40
0.999390466
 41
-1.5609760594
 42
-0.0163556832
  0
ELLIPSE
  5
702
100
AcDbEntity
  8
ASSI
100
AcDbEllipse
 62
7
  6
CONTINUOUS
 10
3.847849168
 20
23.7334362899
 30
0.0
 11
0.0040937266
 21
0.2501189627
 31
0.0
 40
0.999390466
 41
0.0163556832
 42
1.5609760594
  0
ELLIPSE
  5
703
100
AcDbEntity
  8
ASSI
100
AcDbEllipse
 62
7
  6
CONTINUOUS
 10
3.301626363
 20
20.8909925586
 30
0.0
 11
0.2500430089
 21
0.0006662079
 31
0.0
 40
0.3638978753
 41
3.134271023
 42
4.7050673498
  0
ELLIPSE
  5
704
100
AcDbEntity
  8
ASSI
100
AcDbEllipse
 62
7
  6
CONTINUOUS
 10
-3.301626363
 20
-20.8909925586
 30
0.0
 11
0.2500430089
 21
0.0006662079
 31
0.0
 40
0.3638978753
 41
-0.0073216305
 42
1.5634746963
  0
ELLIPSE
  5
705
100
AcDbEntity
  8
DRAFT
100
AcDbEllipse
 62
7
  6
CONTINUOUS
 10
0.0
 20
-14.5309803807
 30
0.0
 11
2.75839524
 21
-0.0
 31
0.0
 40
0.0087268678
 41
0.0
 42
3.1415926536
  0
ELLIPSE
  5
706
100
AcDbEntity
  8
DRAFT
100
AcDbEllipse
 62
7
  6
CONTINUOUS
 10
0.0
 20
14.5309803807
 30
0.0
 11
2.75839524
 21
-0.0
 31
0.0
 40
0.0087268678
 41
-3.1415926536
 42
-0.0
  0
ELLIPSE
  5
707
100
AcDbEntity
  8
RACCORDO
100
AcDbEllipse
 62
7
  6
CONTINUOUS
 10
-9.1496953439
 20
17.6714466826
 30
0.0
 11
1.8480888181
 21
-0.7655034529
 31
0.0
 40
0.9998215708
 41
2.7489566578
 42
3.5342286494
  0
ELLIPSE
  5
708
100
AcDbEntity
  8
RACCORDO
100
AcDbEllipse
 62
7
  6
CONTINUOUS
 10
-9.1496953439
 20
-17.6714466826
 30
0.0
 11
1.8480888181
 21
0.7655034529
 31
0.0
 40
0.9998215708
 41
2.7489566578
 42
3.5342286494
  0
ELLIPSE
  5
709
100
AcDbEntity
  8
RACCORDO
100
AcDbEllipse
 62
7
  6
CONTINUOUS
 10
9.1496953439
 20
-17.6714466826
 30
0.0
 11
1.8480888181
 21
-0.7655034529
 31
0.0
 40
0.9998215708
 41
-0.3926359958
 42
0.3926359958
  0
ELLIPSE
  5
70A
100
AcDbEntity
  8
RACCORDO
100
AcDbEllipse
 62
7
  6
CONTINUOUS
 10
9.1496953439
 20
17.6714466826
 30
0.0
 11
1.8480888181
 21
0.7655034529
 31
0.0
 40
0.9998215708
 41
-0.3926359958
 42
0.3926359958
  0
ELLIPSE
  5
70B
100
AcDbEntity
  8
DRAFT
100
AcDbEllipse
 62
7
  6
CONTINUOUS
 10
0.0
 20
14.5392709051
 30
0.0
 11
2.75
 21
0.0
 31
0.0
 40
0.0087268678
 41
0.0087266463
 42
3.1328660073
  0
ELLIPSE
  5
70C
100
AcDbEntity
  8
DRAFT
100
AcDbEllipse
 62
7
  6
CONTINUOUS
 10
0.0
 20
-14.5392709051
 30
0.0
 11
2.75
 21
-0.0
 31
0.0
 40
0.0087268678
 41
-3.1328660073
 42
-0.0087266463
  0
ELLIPSE
  5
70D
100
AcDbEntity
  8
RACCORDO
100
AcDbEllipse
 62
7
  6
CONTINUOUS
 10
2.7937390545
 20
-14.7673027369
 30
0.0
 11
0.0
 21
1.0
 31
0.0
 40
0.0087268678
 41
-1.7924462345
 42
-1.5707963268
  0
ELLIPSE
  5
70E
100
AcDbEntity
  8
RACCORDO
100
AcDbEllipse
 62
7
  6
CONTINUOUS
 10
2.6618943331
 20
-14.7673027369
 30
0.0
 11
-0.5774474454
 21
0.9999822329
 31
0.0
 40
0.0103230694
 41
-3.1301004264
 42
-1.7984072998
  0
ELLIPSE
  5
70F
100
AcDbEntity
  8
0
100
AcDbEllipse
 62
7
  6
CONTINUOUS
 10
8.9751446946
 20
-17.5991454363
 30
0.0
 11
1.8480888181
 21
-0.7655034529
 31
0.0
 40
0.9998215708
 41
-0.3926359958
 42
0.3926359958
  0
ELLIPSE
  5
710
100
AcDbEntity
  8
0
100
AcDbEllipse
 62
7
  6
CONTINUOUS
 10
-8.9751446946
 20
-17.5991454363
 30
0.0
 11
-1.8480888181
 21
-0.7655034529
 31
0.0
 40
0.9998215708
 41
-0.3926359958
 42
0.3926359958
  0
ELLIPSE
  5
711
100
AcDbEntity
  8
0
100
AcDbEllipse
 62
7
  6
CONTINUOUS
 10
-8.9751446946
 20
17.5991454363
 30
0.0
 11
1.8480888181
 21
-0.7655034529
 31
0.0
 40
0.9998215708
 41
2.7489566578
 42
3.5342286494
  0
ELLIPSE
  5
712
100
AcDbEntity
  8
0
100
AcDbEllipse
 62
7
  6
CONTINUOUS
 10
8.9751446946
 20
17.5991454363
 30
0.0
 11
1.8480888181
 21
0.7655034529
 31
0.0
 40
0.9998215708
 41
-0.3926359958
 42
0.3926359958
  0
ELLIPSE
  5
713
100
AcDbEntity
  8
RACCORDO
100
AcDbEllipse
 62
7
  6
CONTINUOUS
 10
-2.7937390545
 20
14.7673027369
 30
0.0
 11
-0.0
 21
1.0
 31
0.0
 40
0.0087268678
 41
1.3490715517
 42
1.5707963268
  0
ELLIPSE
  5
714
100
AcDbEntity
  8
RACCORDO
100
AcDbEllipse
 62
7
  6
CONTINUOUS
 10
-2.6618754401
 20
14.7673027369
 30
0.0
 11
-0.5773458993
 21
0.9999822383
 31
0.0
 40
0.0103233127
 41
0.011493135
 42
1.3431113942
  0
ELLIPSE
  5
715
100
AcDbEntity
  8
RACCORDO
100
AcDbEllipse
 62
7
  6
CONTINUOUS
 10
-2.4
 20
19.902056904
 30
0.0
 11
1.0
 21
-0.0
 31
0.0
 40
0.0176699529
 41
-3.0249212651
 42
-1.5707963268
  0
ELLIPSE
  5
716
100
AcDbEntity
  8
RACCORDO
100
AcDbEllipse
 62
7
  6
CONTINUOUS
 10
2.4
 20
19.902056904
 30
0.0
 11
1.0
 21
-0.0
 31
0.0
 40
0.0176699529
 41
-1.5707963268
 42
-0.1166713885
  0
ELLIPSE
  5
717
100
AcDbEntity
  8
RACCORDO
100
AcDbEllipse
 62
7
  6
CONTINUOUS
 10
-2.4
 20
-19.902056904
 30
0.0
 11
1.0
 21
-0.0
 31
0.0
 40
0.0176699529
 41
1.5707963268
 42
3.0249212651
  0
ELLIPSE
  5
718
100
AcDbEntity
  8
RACCORDO
100
AcDbEllipse
 62
7
  6
CONTINUOUS
 10
2.4
 20
-19.902056904
 30
0.0
 11
1.0
 21
-0.0
 31
0.0
 40
0.0176699529
 41
0.1166713885
 42
1.5707963268
  0
ELLIPSE
  5
719
100
AcDbEntity
  8
RACCORDO
100
AcDbEllipse
 62
7
  6
CONTINUOUS
 10
-2.6618943331
 20
-14.7673027369
 30
0.0
 11
0.5774474454
 21
0.9999822329
 31
0.0
 40
0.0103230694
 41
-4.4847780074
 42
-3.1530848808
  0
ELLIPSE
  5
71A
100
AcDbEntity
  8
RACCORDO
100
AcDbEllipse
 62
7
  6
CONTINUOUS
 10
-2.7937390545
 20
-14.7673027369
 30
0.0
 11
0.0
 21
1.0
 31
0.0
 40
0.0087268678
 41
-4.7123889804
 42
-4.4907390727
  0
ELLIPSE
  5
71B
100
AcDbEntity
  8
RACCORDO
100
AcDbEllipse
 62
7
  6
CONTINUOUS
 10
3.6999885765
 20
0.6999885765
 30
0.0
 11
0.2121481893
 21
0.2121481893
 31
0.0
 40
0.9999238505
 41
-0.7853600872
 42
0.7853600872
  0
ELLIPSE
  5
71C
100
AcDbEntity
  8
RACCORDO
100
AcDbEllipse
 62
7
  6
CONTINUOUS
 10
-3.6999885765
 20
-0.6999885765
 30
0.0
 11
0.2121481893
 21
0.2121481893
 31
0.0
 40
0.9999238505
 41
-3.9269527408
 42
-2.3562325664
  0
ELLIPSE
  5
71D
100
AcDbEntity
  8
RACCORDO
100
AcDbEllipse
 62
7
  6
CONTINUOUS
 10
3.6999885765
 20
-0.6999885765
 30
0.0
 11
0.2121481893
 21
-0.2121481893
 31
0.0
 40
0.9999238505
 41
-0.7853600872
 42
0.7853600871
  0
ELLIPSE
  5
71E
100
AcDbEntity
  8
RACCORDO
100
AcDbEllipse
 62
7
  6
CONTINUOUS
 10
-3.6999885765
 20
0.6999885765
 30
0.0
 11
0.2121481893
 21
-0.2121481893
 31
0.0
 40
0.9999238505
 41
2.3562325664
 42
3.9269527408
  0
ELLIPSE
  5
71F
100
AcDbEntity
  8
RACCORDO
100
AcDbEllipse
 62
7
  6
CONTINUOUS
 10
2.6618754401
 20
14.7673027369
 30
0.0
 11
0.5773458993
 21
0.9999822383
 31
0.0
 40
0.0103233127
 41
-1.3431113942
 42
-0.011493135
  0
ELLIPSE
  5
720
100
AcDbEntity
  8
RACCORDO
100
AcDbEllipse
 62
7
  6
CONTINUOUS
 10
2.7937390545
 20
14.7673027369
 30
0.0
 11
-0.0
 21
1.0
 31
0.0
 40
0.0087268678
 41
-1.5707963268
 42
-1.3490715517
  0
ENDSEC
  0
SECTION
  2
OBJECTS
  0
DICTIONARY
  5
C
100
AcDbDictionary
280
0
281
1
  3
ACAD_GROUP
350
D
  3
ACAD_MLINESTYLE
350
17
  3
ACAD_LAYOUT
350
1A
  3
ACAD_PLOTSETTINGS
350
19
  3
ACAD_PLOTSTYLENAME
350
E
  0
DICTIONARY
  5
D
102
{ACAD_REACTORS
330
C
102
}
100
AcDbDictionary
280
0
281
1
  0
ACDBDICTIONARYWDFLT
  5
E
102
{ACAD_REACTORS
330
C
102
}
100
AcDbDictionary
281
1
  3
Normal
350
F
100
AcDbDictionaryWithDefault
340
F
  0
DICTIONARY
  5
17
102
{ACAD_REACTORS
330
C
102
}
100
AcDbDictionary
280
0
281
1
  3
Standard
350
18
  0
DICTIONARY
  5
19
102
{ACAD_REACTORS
330
C
102
}
100
AcDbDictionary
281
1
  0
DICTIONARY
  5
1A
102
{ACAD_REACTORS
330
C
102
}
100
AcDbDictionary
281
1
  3
Model
350
721
  3
Layout1
350
722
  0
ACDBPLACEHOLDER
  5
F
102
{ACAD_REACTORS
330
E
102
}
  0
MLINESTYLE
  5
18
102
{ACAD_REACTORS
330
17
102
}
100
AcDbMlineStyle
  2
STANDARD
 70
0
  3

 62
256
 51
90.0
 52
90.0
 71
2
 49
0.5
 62
256
  6
BYLAYER
 49
-0.5
 62
256
  6
BYLAYER
  0
LAYOUT
  5
721
102
{ACAD_REACTORS
330
1A
102
}
100
AcDbPlotSettings
  1

  2
none_device
  4
ISO_A4_(297.00_x_210.00_MM)
  6

 40
0.0
 41
0.0
 42
0.0
 43
0.0
 44
297.0
 45
210.0
 46
0.0
 47
0.0
 48
0.0
 49
0.0
140
0.0
141
0.0
142
1.0
143
1.0
 70
1024
 72
1
 73
0
 74
0
  7

 75
0
147
1.0
148
0.0
149
0.0
100
AcDbLayout
  1
Model
 70
0
 71
0
 10
0.0
 20
0.0
 11
297.0
 21
210.0
 12
0.0
 22
0.0
 32
0.0
 14
0.0
 24
0.0
 34
0.0
 15
0.0
 25
0.0
 35
0.0
146
0.0
 13
0.0
 23
0.0
 33
0.0
 16
1.0
 26
0.0
 36
0.0
 17
0.0
 27
1.0
 37
0.0
 76
0
330
21C
345
0
346
0
  0
LAYOUT
  5
722
102
{ACAD_REACTORS
330
1A
102
}
100
AcDbPlotSettings
  1

  2
none_device
  4
ISO_A4_(297.00_x_210.00_MM)
  6

 40
0.0
 41
0.0
 42
0.0
 43
0.0
 44
297.0
 45
210.0
 46
0.0
 47
0.0
 48
0.0
 49
0.0
140
0.0
141
0.0
142
1.0
143
1.0
 70
0
 72
1
 73
0
 74
0
  7

 75
0
147
1.0
148
0.0
149
0.0
100
AcDbLayout
  1
Layout1
 70
0
 71
1
 10
0.0
 20
0.0
 11
297.0
 21
210.0
 12
0.0
 22
0.0
 32
0.0
 14
0.0
 24
0.0
 34
0.0
 15
0.0
 25
0.0
 35
0.0
146
0.0
 13
0.0
 23
0.0
 33
0.0
 16
1.0
 26
0.0
 36
0.0
 17
0.0
 27
1.0
 37
0.0
 76
0
330
21D
345
0
346
0
  0
ENDSEC
  0
EOF
