  0
SECTION
  2
HEADER
  9
$ACADVER
  1
AC1021
  9
$DWGCODEPAGE
  3
ANSI_1252
  9
$EXTMAX
 10
558.8
 20
431.8
 30
0.0
  9
$EXTMIN
 10
0.0
 20
0.0
 30
0.0
  9
$LIMMIN
 10
0.0
 20
0.0
  9
$LIMMAX
 10
558.8
 20
431.8
  9
$VIEWCTR
 10
279.4
 20
215.9
  9
$VIEWSIZE
 40
431.8
  9
$CLAYER
  8
0
  9
$LTSCALE
 40
30.734
  9
$CELTYPE
  6
BYLAYER
  9
$DIMSCALE
 40
1.0
  9
$DIMASZ
 40
3.0
  9
$DIMEXO
 40
0.5
  9
$DIMDLI
 40
21.2344
  9
$DIMEXE
 40
1.5
  9
$DIMCEN
 40
5.0292
  9
$DIMLFAC
 40
1.0
  9
$DIMBLK
  1
_FILLED
  9
$DIMALT
 70
0
  9
$DIMALTF
 40
25.4
  9
$DIMTXT
 40
3.0
  9
$DIMTOL
 70
1
  9
$DIMLIM
 70
0
  9
$DIMTFAC
 40
1.0
  9
$DIMTP
 40
0.01
  9
$DIMTM
 40
0.01
  9
$DIMGAP
 40
0.625
  9
$DIMDSEP
 70
44
  9
$AUNITS
 70
0
  9
$PDMODE
 70
3
  9
$PDSIZE
 40
3.0
  9
$HANDSEED
  5
5A9
  9
$TILEMODE
 70
1
  9
$MEASUREMENT
 70
1
  9
$INSUNITS
 70
4
  0
ENDSEC
  0
SECTION
  2
CLASSES
  0
CLASS
  1
ACDBDICTIONARYWDFLT
  2
AcDbDictionaryWithDefault
  3
AutoCAD 2000
 90
0
 91
1
280
0
281
0
  0
CLASS
  1
ACDBPLACEHOLDER
  2
AcDbPlaceHolder
  3
AutoCAD 2000
 90
0
 91
1
280
0
281
0
  0
CLASS
  1
LAYOUT
  2
AcDbLayout
  3
AutoCAD 2000
 90
0
 91
0
280
0
281
0
  0
ENDSEC
  0
SECTION
  2
TABLES
  0
TABLE
  2
VPORT
  5
8
100
AcDbSymbolTable
 70
2
  0
VPORT
  5
1F4
100
AcDbSymbolTableRecord
100
AcDbViewportTableRecord
  2
*ACTIVE
 70
0
 10
0.0
 20
0.0
 11
1.0
 21
1.0
 12
279.4
 22
215.9
 13
0.0
 23
0.0
 14
1.0
 24
1.0
 15
0.0
 25
0.0
 16
0.0
 26
0.0
 36
1.0
 17
0.0
 27
0.0
 37
0.0
 40
431.8
 41
1.2941176471
 42
50.0
 43
0.0
 44
0.0
 50
0.0
 51
0.0
 71
0
 72
100
 73
1
 74
1
 75
0
 76
0
 77
0
 78
0
  0
ENDTAB
  0
TABLE
  2
LTYPE
  5
5
100
AcDbSymbolTable
 70
6
  0
LTYPE
  5
14
100
AcDbSymbolTableRecord
100
AcDbLinetypeTableRecord
  2
BYBLOCK
 70
0
  3

 72
65
 73
0
 40
0.0
  0
LTYPE
  5
15
100
AcDbSymbolTableRecord
100
AcDbLinetypeTableRecord
  2
BYLAYER
 70
0
  3

 72
65
 73
0
 40
0.0
  0
LTYPE
  5
16
100
AcDbSymbolTableRecord
100
AcDbLinetypeTableRecord
  2
CONTINUOUS
 70
64
  3
Solid line
 72
65
 73
0
 40
0.0
  0
LTYPE
  5
1F5
100
AcDbSymbolTableRecord
100
AcDbLinetypeTableRecord
  2
CENTER
 70
64
  3
____ _ ____ _ ____ _ ____ _ ____ _ ____ _ ____
 72
65
 73
4
 40
0.6
 49
0.375
 74
0
 49
-0.075
 74
0
 49
0.075
 74
0
 49
-0.075
 74
0
  0
LTYPE
  5
1F6
100
AcDbSymbolTableRecord
100
AcDbLinetypeTableRecord
  2
HIDDEN
 70
64
  3
- - - - - - - - - - - - - - - - - - - -
 72
65
 73
2
 40
0.2
 49
0.1
 74
0
 49
-0.1
 74
0
  0
LTYPE
  5
1F7
100
AcDbSymbolTableRecord
100
AcDbLinetypeTableRecord
  2
PHANTOM
 70
64
  3
_____ _ _ _____ _ _ _____ _ _ _____
 72
65
 73
6
 40
0.8
 49
0.45
 74
0
 49
-0.05
 74
0
 49
0.1
 74
0
 49
-0.05
 74
0
 49
0.1
 74
0
 49
-0.05
 74
0
  0
LTYPE
  5
1F8
100
AcDbSymbolTableRecord
100
AcDbLinetypeTableRecord
  2
DOT
 70
64
  3
. . . . . . . . . . . . . . . . . . . .
 72
65
 73
2
 40
0.2
 49
0.1
 74
0
 49
-0.1
 74
0
  0
LTYPE
  5
1F9
100
AcDbSymbolTableRecord
100
AcDbLinetypeTableRecord
  2
DASHED
 70
64
  3
- - - - - - - - - - - - - - - - - - - -
 72
65
 73
2
 40
0.2
 49
0.1
 74
0
 49
-0.1
 74
0
  0
ENDTAB
  0
TABLE
  2
LAYER
  5
2
100
AcDbSymbolTable
 70
36
  0
LAYER
  5
10
100
AcDbSymbolTableRecord
100
AcDbLayerTableRecord
  2
0
 70
0
 62
7
  6
CONTINUOUS
370
-3
390
F
  0
LAYER
  5
1FA
100
AcDbSymbolTableRecord
100
AcDbLayerTableRecord
  2
DEFAULT_1
 70
0
 62
7
  6
CENTER
370
-3
390
F
  0
LAYER
  5
1FB
100
AcDbSymbolTableRecord
100
AcDbLayerTableRecord
  2
DEFAULT_2
 70
0
 62
7
  6
HIDDEN
370
-3
390
F
  0
LAYER
  5
1FC
100
AcDbSymbolTableRecord
100
AcDbLayerTableRecord
  2
DEFAULT_3
 70
0
 62
7
  6
PHANTOM
370
-3
390
F
  0
LAYER
  5
1FD
100
AcDbSymbolTableRecord
100
AcDbLayerTableRecord
  2
ASSI
 70
0
 62
7
  6
CONTINUOUS
370
-3
390
F
  0
LAYER
  5
1FE
100
AcDbSymbolTableRecord
100
AcDbLayerTableRecord
  2
COLOR17
 70
0
 62
7
  6
CONTINUOUS
370
-3
390
F
  0
LAYER
  5
1FF
100
AcDbSymbolTableRecord
100
AcDbLayerTableRecord
  2
COLOR3
 70
0
 62
7
  6
CONTINUOUS
370
-3
390
F
  0
LAYER
  5
200
100
AcDbSymbolTableRecord
100
AcDbLayerTableRecord
  2
COLOR5
 70
0
 62
7
  6
CONTINUOUS
370
-3
390
F
  0
LAYER
  5
201
100
AcDbSymbolTableRecord
100
AcDbLayerTableRecord
  2
COORDINATE
 70
0
 62
7
  6
CONTINUOUS
370
-3
390
F
  0
LAYER
  5
202
100
AcDbSymbolTableRecord
100
AcDbLayerTableRecord
  2
COORD_ORIGINE
 70
0
 62
7
  6
CONTINUOUS
370
-3
390
F
  0
LAYER
  5
203
100
AcDbSymbolTableRecord
100
AcDbLayerTableRecord
  2
COPY_PUBLISH
 70
0
 62
7
  6
CONTINUOUS
370
-3
390
F
  0
LAYER
  5
204
100
AcDbSymbolTableRecord
100
AcDbLayerTableRecord
  2
COSMETIC
 70
0
 62
7
  6
CONTINUOUS
370
-3
390
F
  0
LAYER
  5
205
100
AcDbSymbolTableRecord
100
AcDbLayerTableRecord
  2
COSMETICI
 70
0
 62
7
  6
CONTINUOUS
370
-3
390
F
  0
LAYER
  5
206
100
AcDbSymbolTableRecord
100
AcDbLayerTableRecord
  2
CURVE
 70
0
 62
7
  6
CONTINUOUS
370
-3
390
F
  0
LAYER
  5
207
100
AcDbSymbolTableRecord
100
AcDbLayerTableRecord
  2
DRAFT
 70
0
 62
7
  6
CONTINUOUS
370
-3
390
F
  0
LAYER
  5
208
100
AcDbSymbolTableRecord
100
AcDbLayerTableRecord
  2
IMPORT_IGES
 70
0
 62
7
  6
CONTINUOUS
370
-3
390
F
  0
LAYER
  5
209
100
AcDbSymbolTableRecord
100
AcDbLayerTableRecord
  2
INCISIONI
 70
0
 62
7
  6
CONTINUOUS
370
-3
390
F
  0
LAYER
  5
20A
100
AcDbSymbolTableRecord
100
AcDbLayerTableRecord
  2
INTFCLR_1
 70
0
 62
7
  6
CONTINUOUS
370
-3
390
F
  0
LAYER
  5
20B
100
AcDbSymbolTableRecord
100
AcDbLayerTableRecord
  2
INTF_1
 70
0
 62
7
  6
CONTINUOUS
370
-3
390
F
  0
LAYER
  5
20C
100
AcDbSymbolTableRecord
100
AcDbLayerTableRecord
  2
INTF_15
 70
0
 62
7
  6
CONTINUOUS
370
-3
390
F
  0
LAYER
  5
20D
100
AcDbSymbolTableRecord
100
AcDbLayerTableRecord
  2
INTF_16
 70
0
 62
7
  6
CONTINUOUS
370
-3
390
F
  0
LAYER
  5
20E
100
AcDbSymbolTableRecord
100
AcDbLayerTableRecord
  2
NOTE
 70
0
 62
7
  6
CONTINUOUS
370
-3
390
F
  0
LAYER
  5
20F
100
AcDbSymbolTableRecord
100
AcDbLayerTableRecord
  2
PIANI
 70
0
 62
7
  6
CONTINUOUS
370
-3
390
F
  0
LAYER
  5
210
100
AcDbSymbolTableRecord
100
AcDbLayerTableRecord
  2
PIANI_COSTRUZIONE_PROFILO
 70
0
 62
7
  6
CONTINUOUS
370
-3
390
F
  0
LAYER
  5
211
100
AcDbSymbolTableRecord
100
AcDbLayerTableRecord
  2
PIANI_ORIGINE
 70
0
 62
7
  6
CONTINUOUS
370
-3
390
F
  0
LAYER
  5
212
100
AcDbSymbolTableRecord
100
AcDbLayerTableRecord
  2
PIANI_RIFERIMENTO
 70
0
 62
7
  6
CONTINUOUS
370
-3
390
F
  0
LAYER
  5
213
100
AcDbSymbolTableRecord
100
AcDbLayerTableRecord
  2
PUNTI
 70
0
 62
7
  6
CONTINUOUS
370
-3
390
F
  0
LAYER
  5
214
100
AcDbSymbolTableRecord
100
AcDbLayerTableRecord
  2
RACCORDO
 70
0
 62
7
  6
CONTINUOUS
370
-3
390
F
  0
LAYER
  5
215
100
AcDbSymbolTableRecord
100
AcDbLayerTableRecord
  2
SIMBOLI
 70
0
 62
7
  6
CONTINUOUS
370
-3
390
F
  0
LAYER
  5
216
100
AcDbSymbolTableRecord
100
AcDbLayerTableRecord
  2
SMUSSO
 70
0
 62
7
  6
CONTINUOUS
370
-3
390
F
  0
LAYER
  5
217
100
AcDbSymbolTableRecord
100
AcDbLayerTableRecord
  2
SNAPLINE
 70
0
 62
7
  6
CONTINUOUS
370
-3
390
F
  0
LAYER
  5
218
100
AcDbSymbolTableRecord
100
AcDbLayerTableRecord
  2
SUPERFICI
 70
0
 62
7
  6
CONTINUOUS
370
-3
390
F
  0
LAYER
  5
219
100
AcDbSymbolTableRecord
100
AcDbLayerTableRecord
  2
SUPERFICI_ESTETICHE
 70
0
 62
7
  6
CONTINUOUS
370
-3
390
F
  0
LAYER
  5
21A
100
AcDbSymbolTableRecord
100
AcDbLayerTableRecord
  2
SUPERFICI_SKEL
 70
0
 62
7
  6
CONTINUOUS
370
-3
390
F
  0
LAYER
  5
21B
100
AcDbSymbolTableRecord
100
AcDbLayerTableRecord
  2
TRASH
 70
0
 62
7
  6
CONTINUOUS
370
-3
390
F
  0
LAYER
  5
21C
100
AcDbSymbolTableRecord
100
AcDbLayerTableRecord
  2
___SHELL
 70
0
 62
7
  6
CONTINUOUS
370
-3
390
F
  0
ENDTAB
  0
TABLE
  2
STYLE
  5
3
100
AcDbSymbolTable
 70
1
  0
STYLE
  5
11
100
AcDbSymbolTableRecord
100
AcDbTextStyleTableRecord
  2
STANDARD
 70
0
 40
0.0
 41
0.8
 50
0.0
 71
0
 42
0.2
  3
txt
  4

  0
STYLE
  5
21D
100
AcDbSymbolTableRecord
100
AcDbTextStyleTableRecord
  2
TEXTSTYLE_1
 70
0
 40
0.0
 41
0.8
 50
0.0
 71
0
 42
0.2
  3
gdt
  4

  0
ENDTAB
  0
TABLE
  2
VIEW
  5
6
100
AcDbSymbolTable
 70
0
  0
ENDTAB
  0
TABLE
  2
UCS
  5
7
100
AcDbSymbolTable
 70
0
  0
ENDTAB
  0
TABLE
  2
APPID
  5
9
100
AcDbSymbolTable
 70
1
  0
APPID
  5
21E
100
AcDbSymbolTableRecord
100
AcDbRegAppTableRecord
  2
ACAD
 70
0
  0
ENDTAB
  0
TABLE
  2
BLOCK_RECORD
  5
1
100
AcDbSymbolTable
 70
0
  0
BLOCK_RECORD
  5
21F
100
AcDbSymbolTableRecord
100
AcDbBlockTableRecord
  2
*Model_Space
  0
BLOCK_RECORD
  5
220
100
AcDbSymbolTableRecord
100
AcDbBlockTableRecord
  2
*Paper_Space
  0
ENDTAB
  0
TABLE
  2
DIMSTYLE
  5
A
100
AcDbSymbolTable
 70
1
100
AcDbDimStyleTable
 71
0
  0
DIMSTYLE
105
221
100
AcDbSymbolTableRecord
100
AcDbDimStyleTableRecord
  2
STANDARD
 70
0
  3

  4

 40
1.0
 41
3.0
 42
0.5
 43
0.38
 44
1.5
 45
0.0
 46
0.0
 47
0.01
 48
0.01
140
3.0
141
0.09
142
0.0
143
25.4
144
1.0
145
0.0
146
1.0
147
0.625
 71
1.0
 72
0.0
 73
0
 74
0
 75
0
 76
0
 77
1
 78
8
170
0
171
1
172
0
173
0
174
0
175
0
176
0
177
0
178
0
270
2
271
2
272
2
273
2
274
2
275
0
280
0
281
0
282
0
283
1
284
8
285
0
286
0
287
3
288
0
340
11
278
44
  0
ENDTAB
  0
ENDSEC
  0
SECTION
  2
BLOCKS
  0
BLOCK
  5
20
100
AcDbEntity
  8
0
100
AcDbBlockBegin
  2
*Model_Space
 70
0
 10
0.0
 20
0.0
 30
0.0
  3
*Model_Space
  1

  0
ENDBLK
  5
21
100
AcDbEntity
  8
0
100
AcDbBlockEnd
  0
BLOCK
  5
1C
100
AcDbEntity
  8
0
100
AcDbBlockBegin
  2
*Paper_Space
 70
0
 10
0.0
 20
0.0
 30
0.0
  3
*Paper_Space
  1

  0
ENDBLK
  5
1D
100
AcDbEntity
  8
0
100
AcDbBlockEnd
  0
ENDSEC
  0
SECTION
  2
ENTITIES
  0
LWPOLYLINE
  5
222
100
AcDbEntity
  8
ASSI
100
AcDbPolyline
 62
7
  6
CONTINUOUS
 90
13
 70
0
 10
10.400030461
 20
-24.5
 10
10.4261325878
 20
-24.4982897358
 10
10.4517877661
 20
-24.4931875594
 10
10.4765572875
 20
-24.4847805782
 10
10.5000177444
 20
-24.4732123371
 10
10.5217675502
 20
-24.45868055
 10
10.5414339722
 20
-24.4414339722
 10
10.55868055
 20
-24.4217675502
 10
10.5732123371
 20
-24.4000177444
 10
10.5847805782
 20
-24.3765572875
 10
10.5931875595
 20
-24.3517877661
 10
10.5982897358
 20
-24.3261325878
 10
10.6
 20
-24.300030461
  0
LINE
  5
223
100
AcDbEntity
  8
ASSI
100
AcDbLine
 62
7
  6
CONTINUOUS
 10
-10.400030461
 20
-24.5
 11
-7.399969539
 21
-24.5
  0
LINE
  5
224
100
AcDbEntity
  8
ASSI
100
AcDbLine
 62
7
  6
CONTINUOUS
 10
7.399969539
 20
-24.5
 11
10.400030461
 21
-24.5
  0
LINE
  5
225
100
AcDbEntity
  8
ASSI
100
AcDbLine
 62
253
  6
CONTINUOUS
 10
10.3868630041
 20
-24.4868325431
 11
7.4131369959
 21
-24.4868325431
  0
LINE
  5
226
100
AcDbEntity
  8
ASSI
100
AcDbLine
 62
253
  6
CONTINUOUS
 10
-7.4131370461
 20
-24.486832493
 11
-10.3868630041
 21
-24.4868325431
  0
LINE
  5
227
100
AcDbEntity
  8
ASSI
100
AcDbLine
 62
7
  6
CONTINUOUS
 10
-4.2000380762
 20
-24.0
 11
-1.0499619238
 21
-24.0
  0
LINE
  5
228
100
AcDbEntity
  8
ASSI
100
AcDbLine
 62
7
  6
CONTINUOUS
 10
1.0499619238
 20
-24.0
 11
4.2000380762
 21
-24.0
  0
LWPOLYLINE
  5
229
100
AcDbEntity
  8
ASSI
100
AcDbPolyline
 62
7
  6
CONTINUOUS
 90
13
 70
0
 10
-10.400030461
 20
-24.5
 10
-10.4261325878
 20
-24.4982897358
 10
-10.4517877661
 20
-24.4931875594
 10
-10.4765572875
 20
-24.4847805782
 10
-10.5000177444
 20
-24.4732123371
 10
-10.5217675502
 20
-24.45868055
 10
-10.5414339722
 20
-24.4414339722
 10
-10.55868055
 20
-24.4217675502
 10
-10.5732123371
 20
-24.4000177444
 10
-10.5847805782
 20
-24.3765572875
 10
-10.5931875595
 20
-24.3517877661
 10
-10.5982897358
 20
-24.3261325878
 10
-10.6
 20
-24.300030461
  0
LWPOLYLINE
  5
22A
100
AcDbEntity
  8
ASSI
100
AcDbPolyline
 62
7
  6
CONTINUOUS
 90
16
 70
0
 10
10.6000000646
 20
-22.3999999296
 10
10.6518961978
 20
-22.3973188641
 10
10.7034419043
 20
-22.3892214715
 10
10.7540657836
 20
-22.3757291386
 10
10.8033748714
 20
-22.3568441144
 10
10.8506021346
 20
-22.332753888
 10
10.8947079968
 20
-22.3040171503
 10
10.9349362959
 20
-22.2713500847
 10
10.9713142863
 20
-22.2349698278
 10
11.0039800191
 20
-22.1947398811
 10
11.0327165209
 20
-22.1506321718
 10
11.0568074185
 20
-22.1034036118
 10
11.0756956352
 20
-22.054097956
 10
11.0891949317
 20
-22.0034838189
 10
11.0973032882
 20
-21.9519527996
 10
11.1
 20
-21.9000761524
  0
LINE
  5
22B
100
AcDbEntity
  8
ASSI
100
AcDbLine
 62
7
  6
CONTINUOUS
 10
-7.2
 20
-22.4
 11
-4.45
 21
-22.4
  0
LINE
  5
22C
100
AcDbEntity
  8
ASSI
100
AcDbLine
 62
7
  6
CONTINUOUS
 10
4.45
 20
-22.4
 11
7.2
 21
-22.4
  0
LINE
  5
22D
100
AcDbEntity
  8
ASSI
100
AcDbLine
 62
253
  6
CONTINUOUS
 10
3.3850964806
 20
-21.2252970227
 11
3.1351059998
 21
-21.2252970227
  0
LWPOLYLINE
  5
22E
100
AcDbEntity
  8
ASSI
100
AcDbPolyline
 62
7
  6
CONTINUOUS
 90
16
 70
0
 10
-10.6
 20
-22.3999997358
 10
-10.6519014622
 20
-22.3973199893
 10
-10.7034529055
 20
-22.3892205185
 10
-10.7540825694
 20
-22.3757237075
 10
-10.8033981686
 20
-22.3568330612
 10
-10.8506316256
 20
-22.3327366144
 10
-10.8947407691
 20
-22.3039932453
 10
-10.9349703626
 20
-22.2713195516
 10
-10.9713475963
 20
-22.2349337381
 10
-11.0040079332
 20
-22.1947016024
 10
-11.0327349164
 20
-22.1506009559
 10
-11.0568171282
 20
-22.1033850541
 10
-11.0757000376
 20
-22.0540843526
 10
-11.0891965607
 20
-22.0034612067
 10
-11.0973037172
 20
-21.9519097908
 10
-11.1
 20
-21.8999997649
  0
LINE
  5
22F
100
AcDbEntity
  8
ASSI
100
AcDbLine
 62
7
  6
CONTINUOUS
 10
11.1261859216
 20
-20.4226497308
 11
11.0825449351
 21
-20.4226497308
  0
LINE
  5
230
100
AcDbEntity
  8
ASSI
100
AcDbLine
 62
7
  6
CONTINUOUS
 10
-11.1261859216
 20
-20.4226497308
 11
-11.0825449351
 21
-20.4226497308
  0
LINE
  5
231
100
AcDbEntity
  8
ASSI
100
AcDbLine
 62
7
  6
CONTINUOUS
 10
-9.4925054846
 20
-16.8514272135
 11
-9.45
 21
-16.8514272135
  0
LINE
  5
232
100
AcDbEntity
  8
ASSI
100
AcDbLine
 62
7
  6
CONTINUOUS
 10
9.45
 20
-16.8514272135
 11
9.4925054846
 21
-16.8514272135
  0
LINE
  5
233
100
AcDbEntity
  8
RACCORDO
100
AcDbLine
 62
7
  6
CONTINUOUS
 10
9.15
 20
-15.5
 11
7.6513850867
 21
-15.5
  0
LINE
  5
234
100
AcDbEntity
  8
RACCORDO
100
AcDbLine
 62
7
  6
CONTINUOUS
 10
3.7536149133
 20
-15.5
 11
3.4
 21
-15.5
  0
LINE
  5
235
100
AcDbEntity
  8
RACCORDO
100
AcDbLine
 62
7
  6
CONTINUOUS
 10
-3.4
 20
-15.5
 11
-3.7536149133
 21
-15.5
  0
LINE
  5
236
100
AcDbEntity
  8
RACCORDO
100
AcDbLine
 62
7
  6
CONTINUOUS
 10
-7.6513850867
 20
-15.5
 11
-9.15
 21
-15.5
  0
LINE
  5
237
100
AcDbEntity
  8
DRAFT
100
AcDbLine
 62
7
  6
CONTINUOUS
 10
8.15
 20
-15.4941426185
 11
7.7903874625
 21
-15.4941426185
  0
LINE
  5
238
100
AcDbEntity
  8
DRAFT
100
AcDbLine
 62
7
  6
CONTINUOUS
 10
3.7536149133
 20
-15.4941426185
 11
3.4
 21
-15.4941426185
  0
LINE
  5
239
100
AcDbEntity
  8
DRAFT
100
AcDbLine
 62
7
  6
CONTINUOUS
 10
-3.4
 20
-15.4941426185
 11
-3.7536149133
 21
-15.4941426185
  0
LINE
  5
23A
100
AcDbEntity
  8
DRAFT
100
AcDbLine
 62
7
  6
CONTINUOUS
 10
-7.6513850867
 20
-15.4941426185
 11
-8.15
 21
-15.4941426185
  0
LINE
  5
23B
100
AcDbEntity
  8
IMPORT_IGES
100
AcDbLine
 62
7
  6
CONTINUOUS
 10
-8.1686835105
 20
9.4843765662
 11
-7.0909283053
 21
10.5621317713
  0
LWPOLYLINE
  5
23C
100
AcDbEntity
  8
IMPORT_IGES
100
AcDbPolyline
 62
253
  6
CONTINUOUS
 90
10
 70
0
 10
-7.3444213567
 20
10.3086387199
 10
-7.3347286622
 20
10.313826999
 10
-7.3228603244
 20
10.312206609
 10
-7.3091715077
 20
10.3035460237
 10
-7.294446819
 20
10.2875664772
 10
-7.2788084777
 20
10.2643527646
 10
-7.261506597
 20
10.233956627
 10
-7.2425289036
 20
10.1960369264
 10
-7.2228099736
 20
10.1502760229
 10
-7.2030032824
 20
10.0965277092
  0
LINE
  5
23D
100
AcDbEntity
  8
ASSI
100
AcDbLine
 62
7
  6
CONTINUOUS
 10
-6.5123099353
 20
10.8126856306
 11
-6.5
 21
10.8188401295
  0
LINE
  5
23E
100
AcDbEntity
  8
ASSI
100
AcDbLine
 62
7
  6
CONTINUOUS
 10
2.0
 20
-13.2
 11
-2.0
 21
-13.2
  0
LINE
  5
23F
100
AcDbEntity
  8
ASSI
100
AcDbLine
 62
253
  6
CONTINUOUS
 10
2.0
 20
-13.1876900647
 11
-2.0
 21
-13.1876900647
  0
LINE
  5
240
100
AcDbEntity
  8
ASSI
100
AcDbLine
 62
253
  6
CONTINUOUS
 10
2.0
 20
-12.8877357561
 11
-2.0
 21
-12.8877357561
  0
LINE
  5
241
100
AcDbEntity
  8
IMPORT_IGES
100
AcDbLine
 62
253
  6
CONTINUOUS
 10
-6.2731433759
 20
-11.0375492881
 11
-7.050005001
 21
-10.5911911821
  0
LINE
  5
242
100
AcDbEntity
  8
IMPORT_IGES
100
AcDbLine
 62
7
  6
CONTINUOUS
 10
-6.3731434264
 20
-11.2098076293
 11
-8.1051681369
 21
-10.2098226964
  0
LINE
  5
243
100
AcDbEntity
  8
IMPORT_IGES
100
AcDbLine
 62
253
  6
CONTINUOUS
 10
-7.4499999671
 20
-10.4812645708
 11
-7.9552052355
 21
-10.1895904447
  0
LINE
  5
244
100
AcDbEntity
  8
ASSI
100
AcDbLine
 62
7
  6
CONTINUOUS
 10
-9.5000023792
 20
-16.6999519285
 11
-9.4925054846
 21
-16.8514272135
  0
LINE
  5
245
100
AcDbEntity
  8
ASSI
100
AcDbLine
 62
7
  6
CONTINUOUS
 10
-11.1261859216
 20
-20.4226497308
 11
-11.1
 21
-21.0
  0
LINE
  5
246
100
AcDbEntity
  8
ASSI
100
AcDbLine
 62
7
  6
CONTINUOUS
 10
-11.1
 20
21.0
 11
-11.0825449351
 21
20.4226497308
  0
LINE
  5
247
100
AcDbEntity
  8
ASSI
100
AcDbLine
 62
7
  6
CONTINUOUS
 10
-11.1261859216
 20
20.4226497308
 11
-11.1261859216
 21
-20.4226497308
  0
LINE
  5
248
100
AcDbEntity
  8
ASSI
100
AcDbLine
 62
7
  6
CONTINUOUS
 10
-11.1
 20
21.9000761524
 11
-11.1
 21
21.0
  0
LINE
  5
249
100
AcDbEntity
  8
ASSI
100
AcDbLine
 62
7
  6
CONTINUOUS
 10
-11.1
 20
-21.9000761524
 11
-11.1
 21
-21.0
  0
LINE
  5
24A
100
AcDbEntity
  8
ASSI
100
AcDbLine
 62
7
  6
CONTINUOUS
 10
-11.0825449351
 20
-21.0
 11
-11.0825449351
 21
-20.4226497308
  0
LINE
  5
24B
100
AcDbEntity
  8
ASSI
100
AcDbLine
 62
7
  6
CONTINUOUS
 10
-11.0825449351
 20
20.4226497308
 11
-11.0825449351
 21
21.0
  0
LINE
  5
24C
100
AcDbEntity
  8
ASSI
100
AcDbLine
 62
7
  6
CONTINUOUS
 10
-10.6
 20
24.300030461
 11
-10.6000000646
 21
22.3999999296
  0
LINE
  5
24D
100
AcDbEntity
  8
ASSI
100
AcDbLine
 62
7
  6
CONTINUOUS
 10
-10.6
 20
-22.3999997358
 11
-10.6
 21
-24.300030461
  0
LINE
  5
24E
100
AcDbEntity
  8
ASSI
100
AcDbLine
 62
7
  6
CONTINUOUS
 10
-11.0825449351
 20
-20.4226497308
 11
-11.1
 21
-21.0
  0
LINE
  5
24F
100
AcDbEntity
  8
ASSI
100
AcDbLine
 62
7
  6
CONTINUOUS
 10
-11.1
 20
21.0
 11
-11.1261859216
 21
20.4226497308
  0
LWPOLYLINE
  5
250
100
AcDbEntity
  8
IMPORT_IGES
100
AcDbPolyline
 62
253
  6
CONTINUOUS
 90
5
 70
0
 10
-6.9892942213
 20
10.1958030965
 10
-6.9978579063
 20
10.1780698167
 10
-7.0006559813
 20
10.1725413774
 10
-7.0023996503
 20
10.1689248829
 10
-7.003
 20
10.1672173636
  0
LWPOLYLINE
  5
251
100
AcDbEntity
  8
IMPORT_IGES
100
AcDbPolyline
 62
253
  6
CONTINUOUS
 90
3
 70
0
 10
-6.8767659922
 20
10.4226887176
 10
-6.902677254
 20
10.3694864987
 10
-6.9144581933
 20
10.3456130758
  0
LWPOLYLINE
  5
252
100
AcDbEntity
  8
IMPORT_IGES
100
AcDbPolyline
 62
253
  6
CONTINUOUS
 90
4
 70
0
 10
-6.9677834705
 20
10.2389253483
 10
-6.9788718736
 20
10.2162416455
 10
-6.9840577006
 20
10.2061514334
 10
-6.9892942213
 20
10.1958030965
  0
LINE
  5
253
100
AcDbEntity
  8
IMPORT_IGES
100
AcDbLine
 62
253
  6
CONTINUOUS
 10
-6.944905682
 20
10.2848943826
 11
-6.9677834705
 21
10.2389253483
  0
LINE
  5
254
100
AcDbEntity
  8
IMPORT_IGES
100
AcDbLine
 62
253
  6
CONTINUOUS
 10
-6.9144581933
 20
10.3456130758
 11
-6.944905682
 21
10.2848943826
  0
LWPOLYLINE
  5
255
100
AcDbEntity
  8
IMPORT_IGES
100
AcDbPolyline
 62
253
  6
CONTINUOUS
 90
10
 70
0
 10
-6.8767659922
 20
10.4226887176
 10
-6.8734996927
 20
10.4279486638
 10
-6.8701257238
 20
10.4327144886
 10
-6.8666434815
 20
10.43698617
 10
-6.8631440907
 20
10.4408013616
 10
-6.8595367086
 20
10.4441223451
 10
-6.8555431947
 20
10.4468361568
 10
-6.8510656379
 20
10.4489052627
 10
-6.8461919432
 20
10.4503674366
 10
-6.8409186905
 20
10.4512228026
  0
LINE
  5
256
100
AcDbEntity
  8
IMPORT_IGES
100
AcDbLine
 62
253
  6
CONTINUOUS
 10
-7.9590625132
 20
9.3404371128
 11
-7.2030016412
 21
10.0965277095
  0
LINE
  5
257
100
AcDbEntity
  8
ASSI
100
AcDbLine
 62
7
  6
CONTINUOUS
 10
-8.2995166723
 20
7.9004833277
 11
-8.2802042546
 21
7.9197957454
  0
LINE
  5
258
100
AcDbEntity
  8
ASSI
100
AcDbLine
 62
7
  6
CONTINUOUS
 10
-4.6
 20
10.9
 11
-4.65
 21
10.85
  0
LINE
  5
259
100
AcDbEntity
  8
IMPORT_IGES
100
AcDbLine
 62
253
  6
CONTINUOUS
 10
8.030949602
 20
-10.1823041024
 11
8.0675461267
 21
-10.1728625734
  0
LWPOLYLINE
  5
25A
100
AcDbEntity
  8
IMPORT_IGES
100
AcDbPolyline
 62
253
  6
CONTINUOUS
 90
3
 70
0
 10
-3.9734360037
 20
-11.0524018817
 10
-3.9751619832
 20
-11.0524929589
 10
-3.980297493
 20
-11.0525418203
  0
LWPOLYLINE
  5
25B
100
AcDbEntity
  8
IMPORT_IGES
100
AcDbPolyline
 62
253
  6
CONTINUOUS
 90
3
 70
0
 10
7.9551942481
 20
-10.189590653
 10
7.9932891353
 20
-10.1878917596
 10
8.030949602
 20
-10.1823041024
  0
LWPOLYLINE
  5
25C
100
AcDbEntity
  8
IMPORT_IGES
100
AcDbPolyline
 62
253
  6
CONTINUOUS
 90
3
 70
0
 10
4.1734473905
 20
-11.050882232
 10
4.0515891359
 20
-11.0521534949
 10
4.0001965846
 20
-11.0525790528
  0
LINE
  5
25D
100
AcDbEntity
  8
0
100
AcDbLine
 62
7
  6
CONTINUOUS
 10
3.7340925511
 20
-11.6117237174
 11
2.9637011241
 21
-11.6117237174
  0
LINE
  5
25E
100
AcDbEntity
  8
0
100
AcDbLine
 62
7
  6
CONTINUOUS
 10
2.8680427503
 20
-11.6117237174
 11
0.8259075832
 21
-11.6117237174
  0
LINE
  5
25F
100
AcDbEntity
  8
0
100
AcDbLine
 62
7
  6
CONTINUOUS
 10
0.8206800276
 20
-11.6117237174
 11
-3.7340923596
 21
-11.6117237174
  0
LINE
  5
260
100
AcDbEntity
  8
ASSI
100
AcDbLine
 62
7
  6
CONTINUOUS
 10
8.7483942934
 20
-11.5711353958
 11
6.5148596535
 21
-11.5711353958
  0
LINE
  5
261
100
AcDbEntity
  8
ASSI
100
AcDbLine
 62
7
  6
CONTINUOUS
 10
-6.5148596535
 20
-11.5711353958
 11
-8.7483942934
 21
-11.5711353958
  0
LINE
  5
262
100
AcDbEntity
  8
ASSI
100
AcDbLine
 62
7
  6
CONTINUOUS
 10
6.5122185455
 20
-11.5698149423
 11
6.5
 21
-11.5698149423
  0
LINE
  5
263
100
AcDbEntity
  8
ASSI
100
AcDbLine
 62
7
  6
CONTINUOUS
 10
-6.5122185454
 20
-11.5698149423
 11
-6.5
 21
-11.5698149423
  0
LINE
  5
264
100
AcDbEntity
  8
0
100
AcDbLine
 62
7
  6
CONTINUOUS
 10
5.4226866561
 20
-11.5117237174
 11
-5.4226866561
 21
-11.5117237174
  0
LINE
  5
265
100
AcDbEntity
  8
IMPORT_IGES
100
AcDbLine
 62
7
  6
CONTINUOUS
 10
5.8999973641
 20
-11.45
 11
-5.9467065296
 21
-11.45
  0
LINE
  5
266
100
AcDbEntity
  8
IMPORT_IGES
100
AcDbLine
 62
253
  6
CONTINUOUS
 10
6.0
 20
-11.35
 11
-6.0
 21
-11.35
  0
LINE
  5
267
100
AcDbEntity
  8
ASSI
100
AcDbLine
 62
7
  6
CONTINUOUS
 10
6.5
 20
-11.3
 11
6.0133976154
 21
-11.3
  0
LINE
  5
268
100
AcDbEntity
  8
ASSI
100
AcDbLine
 62
7
  6
CONTINUOUS
 10
-6.0133975644
 20
-11.3
 11
-6.5
 21
-11.3
  0
LINE
  5
269
100
AcDbEntity
  8
IMPORT_IGES
100
AcDbLine
 62
7
  6
CONTINUOUS
 10
6.2231434338
 20
-11.25
 11
-6.2231472947
 21
-11.25
  0
LINE
  5
26A
100
AcDbEntity
  8
ASSI
100
AcDbLine
 62
7
  6
CONTINUOUS
 10
6.5
 20
-11.2
 11
6.3901307386
 21
-11.2
  0
LINE
  5
26B
100
AcDbEntity
  8
ASSI
100
AcDbLine
 62
7
  6
CONTINUOUS
 10
-6.3901307386
 20
-11.2
 11
-6.5
 21
-11.2
  0
LINE
  5
26C
100
AcDbEntity
  8
IMPORT_IGES
100
AcDbLine
 62
253
  6
CONTINUOUS
 10
-6.2231434278
 20
-11.0508823024
 11
-4.1734520392
 21
-11.0508823024
  0
LINE
  5
26D
100
AcDbEntity
  8
IMPORT_IGES
100
AcDbLine
 62
253
  6
CONTINUOUS
 10
4.1734421839
 20
-11.0508821734
 11
6.2231434353
 21
-11.0508821734
  0
LINE
  5
26E
100
AcDbEntity
  8
IMPORT_IGES
100
AcDbLine
 62
253
  6
CONTINUOUS
 10
3.7778043935
 20
-10.8472710107
 11
-3.7778043933
 21
-10.8472710152
  0
LWPOLYLINE
  5
26F
100
AcDbEntity
  8
IMPORT_IGES
100
AcDbPolyline
 62
253
  6
CONTINUOUS
 90
5
 70
0
 10
4.0001965846
 20
-11.0525790528
 10
3.9886424345
 20
-11.0525484639
 10
3.9802449342
 20
-11.0523322918
 10
3.9751503538
 20
-11.0519691892
 10
3.9734473379
 20
-11.0514586912
  0
LINE
  5
270
100
AcDbEntity
  8
IMPORT_IGES
100
AcDbLine
 62
253
  6
CONTINUOUS
 10
-3.980297493
 20
-11.0525418203
 11
-4.0003126872
 21
-11.0525111471
  0
LINE
  5
271
100
AcDbEntity
  8
IMPORT_IGES
100
AcDbLine
 62
253
  6
CONTINUOUS
 10
-4.0003126872
 20
-11.0525111471
 11
-4.1215170525
 21
-11.0514862945
  0
LINE
  5
272
100
AcDbEntity
  8
IMPORT_IGES
100
AcDbLine
 62
253
  6
CONTINUOUS
 10
-4.1215170525
 20
-11.0514862945
 11
-4.1735008954
 21
-11.0508906715
  0
LWPOLYLINE
  5
273
100
AcDbEntity
  8
IMPORT_IGES
100
AcDbPolyline
 62
253
  6
CONTINUOUS
 90
10
 70
0
 10
-6.2231434278
 20
-11.0508823024
 10
-6.2290011224
 20
-11.0507083201
 10
-6.2347972175
 20
-11.0502033906
 10
-6.2405317131
 20
-11.049367514
 10
-6.2462231913
 20
-11.0481952488
 10
-6.25185307
 20
-11.0466920367
 10
-6.2573656025
 20
-11.044874202
 10
-6.2627422066
 20
-11.0427471862
 10
-6.2680014644
 20
-11.0403055481
 10
-6.2731433759
 20
-11.0375492881
  0
LWPOLYLINE
  5
274
100
AcDbEntity
  8
IMPORT_IGES
100
AcDbPolyline
 62
253
  6
CONTINUOUS
 90
13
 70
0
 10
-3.7777713647
 20
-10.8472708738
 10
-3.8041281066
 20
-10.8459958849
 10
-3.8300871126
 20
-10.8419439172
 10
-3.8551884314
 20
-10.8351662905
 10
-3.8791222075
 20
-10.825698087
 10
-3.9012911662
 20
-10.8137239779
 10
-3.9209412538
 20
-10.7997206576
 10
-3.9376529168
 20
-10.7842320893
 10
-3.9515211721
 20
-10.7674446536
 10
-3.9626325529
 20
-10.7493625669
 10
-3.9708393405
 20
-10.7301542378
 10
-3.9759230585
 20
-10.7102325628
 10
-3.9777902871
 20
-10.6899191862
  0
LWPOLYLINE
  5
275
100
AcDbEntity
  8
IMPORT_IGES
100
AcDbPolyline
 62
253
  6
CONTINUOUS
 90
3
 70
0
 10
-8.0307892718
 20
-10.1823364101
 10
-7.9931584808
 20
-10.187904116
 10
-7.9550789366
 20
-10.1895896286
  0
LINE
  5
276
100
AcDbEntity
  8
IMPORT_IGES
100
AcDbLine
 62
253
  6
CONTINUOUS
 10
-8.0673446812
 20
-10.17292622
 11
-8.0307892718
 21
-10.1823364101
  0
LWPOLYLINE
  5
277
100
AcDbEntity
  8
IMPORT_IGES
100
AcDbPolyline
 62
253
  6
CONTINUOUS
 90
3
 70
0
 10
-7.0931125571
 20
-10.5414126579
 10
-7.1335359344
 20
-10.4956655886
 10
-7.1695264272
 20
-10.4544494947
  0
LWPOLYLINE
  5
278
100
AcDbEntity
  8
IMPORT_IGES
100
AcDbPolyline
 62
253
  6
CONTINUOUS
 90
3
 70
0
 10
-7.1695264272
 20
-10.4544494947
 10
-7.1852273397
 20
-10.4362740556
 10
-7.2121084085
 20
-10.4046674797
  0
LWPOLYLINE
  5
279
100
AcDbEntity
  8
IMPORT_IGES
100
AcDbPolyline
 62
253
  6
CONTINUOUS
 90
3
 70
0
 10
-7.050005001
 20
-10.5911911821
 10
-7.0717794515
 20
-10.5657783284
 10
-7.0931125571
 20
-10.5414126579
  0
LWPOLYLINE
  5
27A
100
AcDbEntity
  8
IMPORT_IGES
100
AcDbPolyline
 62
253
  6
CONTINUOUS
 90
4
 70
0
 10
-7.2121084085
 20
-10.4046674797
 10
-7.2234443137
 20
-10.3911456203
 10
-7.2329848651
 20
-10.3792881848
 10
-7.245758356
 20
-10.3632021024
  0
LWPOLYLINE
  5
27B
100
AcDbEntity
  8
IMPORT_IGES
100
AcDbPolyline
 62
253
  6
CONTINUOUS
 90
3
 70
0
 10
-7.245758356
 20
-10.3632021024
 10
-7.2489423782
 20
-10.358957061
 10
-7.25
 20
-10.3571443343
  0
LINE
  5
27C
100
AcDbEntity
  8
IMPORT_IGES
100
AcDbLine
 62
7
  6
CONTINUOUS
 10
-7.3800828182
 20
-8.2542999891
 11
-7.45
 21
-8.1451539777
  0
LWPOLYLINE
  5
27D
100
AcDbEntity
  8
IMPORT_IGES
100
AcDbPolyline
 62
253
  6
CONTINUOUS
 90
10
 70
0
 10
-8.2551485566
 20
-9.9552357219
 10
-8.2520254636
 20
-9.9865184208
 10
-8.2438139931
 20
-10.0171442733
 10
-8.230669641
 20
-10.0465908303
 10
-8.2128195255
 20
-10.0743742886
 10
-8.1905885822
 20
-10.1000072758
 10
-8.1644187057
 20
-10.1230205932
 10
-8.1347873591
 20
-10.1430452747
 10
-8.1022202749
 20
-10.1597707232
 10
-8.0673446812
 20
-10.17292622
  0
LINE
  5
27E
100
AcDbEntity
  8
IMPORT_IGES
100
AcDbLine
 62
7
  6
CONTINUOUS
 10
-8.2551485566
 20
-9.9552357234
 11
-8.4227212944
 21
-0.355
  0
LINE
  5
27F
100
AcDbEntity
  8
RACCORDO
100
AcDbLine
 62
7
  6
CONTINUOUS
 10
-9.45
 20
-15.8
 11
-9.45
 21
-16.8514272135
  0
LINE
  5
280
100
AcDbEntity
  8
ASSI
100
AcDbLine
 62
253
  6
CONTINUOUS
 10
-8.7483942934
 20
3.6614108686
 11
-8.7483942934
 21
3.5114165802
  0
LINE
  5
281
100
AcDbEntity
  8
ASSI
100
AcDbLine
 62
253
  6
CONTINUOUS
 10
-8.7483942934
 20
-3.8385891314
 11
-8.7483942934
 21
-3.9885834198
  0
LINE
  5
282
100
AcDbEntity
  8
ASSI
100
AcDbLine
 62
253
  6
CONTINUOUS
 10
-8.7483942934
 20
-7.2885891314
 11
-8.7483942934
 21
-7.4385834198
  0
LINE
  5
283
100
AcDbEntity
  8
ASSI
100
AcDbLine
 62
7
  6
CONTINUOUS
 10
-8.3325462644
 20
-8.1825462644
 11
-8.3325462644
 21
-9.5825462644
  0
LINE
  5
284
100
AcDbEntity
  8
ASSI
100
AcDbLine
 62
7
  6
CONTINUOUS
 10
-8.2995839055
 20
7.4481305422
 11
-8.2995166723
 21
7.9004833277
  0
LINE
  5
285
100
AcDbEntity
  8
IMPORT_IGES
100
AcDbLine
 62
7
  6
CONTINUOUS
 10
-8.3119351922
 20
6.101931547
 11
-8.2565057833
 21
9.2774802551
  0
LINE
  5
286
100
AcDbEntity
  8
IMPORT_IGES
100
AcDbLine
 62
7
  6
CONTINUOUS
 10
-8.4227212944
 20
-0.355
 11
-8.3100157199
 21
6.1018980425
  0
LWPOLYLINE
  5
287
100
AcDbEntity
  8
ASSI
100
AcDbPolyline
 62
7
  6
CONTINUOUS
 90
5
 70
0
 10
4.9489945279
 20
10.8851232783
 10
4.9210158058
 20
10.8752264154
 10
4.8946148374
 20
10.8635767535
 10
4.8698692824
 20
10.8504173446
 10
4.8692208904
 20
10.85
  0
LWPOLYLINE
  5
288
100
AcDbEntity
  8
IMPORT_IGES
100
AcDbPolyline
 62
7
  6
CONTINUOUS
 90
3
 70
0
 10
4.1194300774
 20
-8.6933606307
 10
4.1424140095
 20
-8.6876924639
 10
4.1668419728
 20
-8.6835896712
  0
LINE
  5
289
100
AcDbEntity
  8
IMPORT_IGES
100
AcDbLine
 62
7
  6
CONTINUOUS
 10
4.1668419728
 20
-8.6835896712
 11
4.1917652349
 21
-8.6813216186
  0
LWPOLYLINE
  5
28A
100
AcDbEntity
  8
IMPORT_IGES
100
AcDbPolyline
 62
253
  6
CONTINUOUS
 90
13
 70
0
 10
-7.4499999671
 20
-8.9420020066
 10
-7.4241893026
 20
-8.9406663084
 10
-7.3988971938
 20
-8.936699918
 10
-7.374537065
 20
-8.930195792
 10
-7.3516132241
 20
-8.9213385165
 10
-7.3303564857
 20
-8.9102696141
 10
-7.3108094817
 20
-8.8969729731
 10
-7.2932638616
 20
-8.8814916084
 10
-7.2782424901
 20
-8.8641081862
 10
-7.2661520943
 20
-8.8451592578
 10
-7.2572824015
 20
-8.8249845581
 10
-7.2518413568
 20
-8.8038993755
 10
-7.25
 20
-8.7822748902
  0
LWPOLYLINE
  5
28B
100
AcDbEntity
  8
IMPORT_IGES
100
AcDbPolyline
 62
253
  6
CONTINUOUS
 90
8
 70
0
 10
4.1526328103
 20
-8.481501764
 10
4.1335472466
 20
-8.4824187905
 10
4.1147996988
 20
-8.4852637602
 10
4.0966924419
 20
-8.4899832617
 10
4.0795867786
 20
-8.4964622612
 10
4.0636733295
 20
-8.5046067582
 10
4.0490239786
 20
-8.5144154651
 10
4.0358633713
 20
-8.5258481306
  0
LWPOLYLINE
  5
28C
100
AcDbEntity
  8
IMPORT_IGES
100
AcDbPolyline
 62
253
  6
CONTINUOUS
 90
13
 70
0
 10
4.1511435655
 20
-8.643813051
 10
4.1318509117
 20
-8.6446967782
 10
4.1129485116
 20
-8.6475418698
 10
4.0947423488
 20
-8.6522785884
 10
4.0776072123
 20
-8.6587697238
 10
4.0617102222
 20
-8.66690948
 10
4.0470749834
 20
-8.6767104332
 10
4.0339146967
 20
-8.6881427763
 10
4.0226172147
 20
-8.70100023
 10
4.0134828106
 20
-8.7150382698
 10
4.0067268235
 20
-8.7300090488
 10
4.0025047968
 20
-8.745681552
 10
4.0009454464
 20
-8.7617837821
  0
LWPOLYLINE
  5
28D
100
AcDbEntity
  8
IMPORT_IGES
100
AcDbPolyline
 62
7
  6
CONTINUOUS
 90
13
 70
0
 10
4.1542761933
 20
-8.3830942709
 10
4.1347030825
 20
-8.3837965114
 10
4.1155015359
 20
-8.3861820365
 10
4.0969958896
 20
-8.390196752
 10
4.0795055182
 20
-8.3957409287
 10
4.0633084407
 20
-8.4027191581
 10
4.0486447762
 20
-8.4110512251
 10
4.0357624321
 20
-8.4205842488
 10
4.0248741262
 20
-8.4311471277
 10
4.016143968
 20
-8.4426153725
 10
4.0097293205
 20
-8.4548098127
 10
4.0057616603
 20
-8.4674921086
 10
4.0043241996
 20
-8.480434159
  0
LINE
  5
28E
100
AcDbEntity
  8
IMPORT_IGES
100
AcDbLine
 62
7
  6
CONTINUOUS
 10
4.1917652349
 20
-8.6813216186
 11
4.2094838091
 21
-8.6808530221
  0
LWPOLYLINE
  5
28F
100
AcDbEntity
  8
IMPORT_IGES
100
AcDbPolyline
 62
253
  6
CONTINUOUS
 90
10
 70
0
 10
4.2094903074
 20
-8.6405803557
 10
4.2029156326
 20
-8.6406181796
 10
4.1963564566
 20
-8.6407368835
 10
4.1898127793
 20
-8.6409364676
 10
4.1832746979
 20
-8.6412176547
 10
4.1767521152
 20
-8.6415797219
 10
4.1702747403
 20
-8.6420205003
 10
4.1638524764
 20
-8.6425392671
 10
4.1574754203
 20
-8.6431367452
 10
4.1511435721
 20
-8.6438129345
  0
LINE
  5
290
100
AcDbEntity
  8
ASSI
100
AcDbLine
 62
7
  6
CONTINUOUS
 10
-8.3325462644
 20
-9.5825462644
 11
-8.2616538753
 21
-9.5825462644
  0
LINE
  5
291
100
AcDbEntity
  8
ASSI
100
AcDbLine
 62
7
  6
CONTINUOUS
 10
8.2616538753
 20
-9.5825462644
 11
8.3325462644
 21
-9.5825462644
  0
LINE
  5
292
100
AcDbEntity
  8
IMPORT_IGES
100
AcDbLine
 62
7
  6
CONTINUOUS
 10
7.0500000525
 20
-8.6808532807
 11
4.2094854821
 21
-8.6808532807
  0
LINE
  5
293
100
AcDbEntity
  8
IMPORT_IGES
100
AcDbLine
 62
7
  6
CONTINUOUS
 10
-4.2094905981
 20
-8.6808532807
 11
-7.0500035661
 21
-8.6808532807
  0
LINE
  5
294
100
AcDbEntity
  8
IMPORT_IGES
100
AcDbLine
 62
253
  6
CONTINUOUS
 10
-7.0500029293
 20
-8.6405804277
 11
-4.2094905995
 21
-8.6405803827
  0
LINE
  5
295
100
AcDbEntity
  8
IMPORT_IGES
100
AcDbLine
 62
253
  6
CONTINUOUS
 10
4.2094903074
 20
-8.6405803557
 11
7.0499991095
 21
-8.6405803359
  0
LINE
  5
296
100
AcDbEntity
  8
IMPORT_IGES
100
AcDbLine
 62
253
  6
CONTINUOUS
 10
4.1526328089
 20
-8.4815015967
 11
7.9850090078
 21
-8.481503443
  0
LINE
  5
297
100
AcDbEntity
  8
IMPORT_IGES
100
AcDbLine
 62
253
  6
CONTINUOUS
 10
-4.1526247022
 20
-8.481501341
 11
-7.9849870784
 21
-8.4815039995
  0
LINE
  5
298
100
AcDbEntity
  8
IMPORT_IGES
100
AcDbLine
 62
7
  6
CONTINUOUS
 10
-4.55
 20
-8.3830938817
 11
-4.1543131955
 21
-8.3830946273
  0
LINE
  5
299
100
AcDbEntity
  8
IMPORT_IGES
100
AcDbLine
 62
7
  6
CONTINUOUS
 10
4.55
 20
-8.3830940215
 11
4.154313196
 21
-8.3830942548
  0
LINE
  5
29A
100
AcDbEntity
  8
IMPORT_IGES
100
AcDbLine
 62
7
  6
CONTINUOUS
 10
7.3800828182
 20
-8.2542999891
 11
5.6199171818
 21
-8.2542999891
  0
LINE
  5
29B
100
AcDbEntity
  8
IMPORT_IGES
100
AcDbLine
 62
7
  6
CONTINUOUS
 10
-5.6199171818
 20
-8.2542999891
 11
-7.3800828182
 21
-8.2542999891
  0
LWPOLYLINE
  5
29C
100
AcDbEntity
  8
IMPORT_IGES
100
AcDbPolyline
 62
253
  6
CONTINUOUS
 90
10
 70
0
 10
-4.2094905995
 20
-8.6405803827
 10
-4.2029474105
 20
-8.6406170632
 10
-4.1964116726
 20
-8.6407348913
 10
-4.189883386
 20
-8.640933867
 10
-4.1833528618
 20
-8.6412147043
 10
-4.1768297889
 20
-8.6415766893
 10
-4.1703432334
 20
-8.6420176799
 10
-4.1639028843
 20
-8.6425369621
 10
-4.1574990526
 20
-8.6431352501
 10
-4.1511317385
 20
-8.6438125438
  0
LWPOLYLINE
  5
29D
100
AcDbEntity
  8
IMPORT_IGES
100
AcDbPolyline
 62
253
  6
CONTINUOUS
 90
11
 70
0
 10
4.2008301237
 20
-8.7751640381
 10
4.1749990626
 20
-8.7749533788
 10
4.1496951288
 20
-8.7749454415
 10
4.1253314999
 20
-8.7751380041
 10
4.1024185234
 20
-8.7755229494
 10
4.0811764568
 20
-8.7760923007
 10
4.0616264516
 20
-8.7768483893
 10
4.0440538891
 20
-8.7777916518
 10
4.0289983059
 20
-8.7789079099
 10
4.0168797777
 20
-8.7801784191
 10
4.0126980967
 20
-8.780838374
  0
LWPOLYLINE
  5
29E
100
AcDbEntity
  8
IMPORT_IGES
100
AcDbPolyline
 62
7
  6
CONTINUOUS
 90
5
 70
0
 10
7.0499999482
 20
-8.680851355
 10
7.05779188
 20
-8.6809421832
 10
7.0827268652
 20
-8.6824791553
 10
7.1070041902
 20
-8.6858493842
 10
7.1300620629
 20
-8.6908798701
  0
LWPOLYLINE
  5
29F
100
AcDbEntity
  8
IMPORT_IGES
100
AcDbPolyline
 62
7
  6
CONTINUOUS
 90
3
 70
0
 10
-4.2094906466
 20
-8.6808520753
 10
-4.1978987556
 20
-8.681051574
 10
-4.1759847362
 20
-8.6825380693
  0
LWPOLYLINE
  5
2A0
100
AcDbEntity
  8
IMPORT_IGES
100
AcDbPolyline
 62
7
  6
CONTINUOUS
 90
13
 70
0
 10
-4.1542796108
 20
-8.3830944316
 10
-4.1347007713
 20
-8.3837977383
 10
-4.1154947956
 20
-8.386184841
 10
-4.0969861659
 20
-8.3902013073
 10
-4.0794944935
 20
-8.3957467317
 10
-4.0632974612
 20
-8.402725677
 10
-4.0486344614
 20
-8.4110587487
 10
-4.0357527747
 20
-8.4205940061
 10
-4.0248657216
 20
-8.4311592928
 10
-4.0161380327
 20
-8.442627846
 10
-4.0097263989
 20
-8.4548195006
 10
-4.005761046
 20
-8.4674965445
 10
-4.0043242378
 20
-8.4804309723
  0
LWPOLYLINE
  5
2A1
100
AcDbEntity
  8
IMPORT_IGES
100
AcDbPolyline
 62
253
  6
CONTINUOUS
 90
13
 70
0
 10
-7.9848772364
 20
-8.481503282
 10
-8.0231841385
 20
-8.479797508
 10
-8.060775797
 20
-8.4742152234
 10
-8.0970464738
 20
-8.4648752703
 10
-8.1312650177
 20
-8.4520238567
 10
-8.163070427
 20
-8.4358572911
 10
-8.1923589235
 20
-8.4163666524
 10
-8.2187019942
 20
-8.3936140376
 10
-8.2413315395
 20
-8.3680070655
 10
-8.2596318561
 20
-8.3400629897
 10
-8.2731859397
 20
-8.3102903636
 10
-8.2817092336
 20
-8.2791396084
 10
-8.2849633281
 20
-8.2471486054
  0
LWPOLYLINE
  5
2A2
100
AcDbEntity
  8
IMPORT_IGES
100
AcDbPolyline
 62
253
  6
CONTINUOUS
 90
13
 70
0
 10
-4.1508963433
 20
-8.6438016609
 10
-4.1318458656
 20
-8.6446928184
 10
-4.1130988907
 20
-8.6475109966
 10
-4.0949596684
 20
-8.6522122694
 10
-4.0777558275
 20
-8.6587075988
 10
-4.0617300591
 20
-8.666901017
 10
-4.0470614584
 20
-8.6767234339
 10
-4.0340301535
 20
-8.6880311691
 10
-4.0228715313
 20
-8.7006698178
 10
-4.0137435209
 20
-8.7145682431
 10
-4.0068863687
 20
-8.729569988
 10
-4.0025566634
 20
-8.7454015212
 10
-4.0009453436
 20
-8.7617923
  0
LWPOLYLINE
  5
2A3
100
AcDbEntity
  8
IMPORT_IGES
100
AcDbPolyline
 62
253
  6
CONTINUOUS
 90
13
 70
0
 10
7.4499999999
 20
-8.9420018257
 10
7.4244560413
 20
-8.9406937073
 10
7.3993209066
 20
-8.9367887762
 10
7.3750073342
 20
-8.9303480795
 10
7.351999164
 20
-8.9215120464
 10
7.3305799464
 20
-8.9104024716
 10
7.310893658
 20
-8.8970379119
 10
7.2932457251
 20
-8.8814731413
 10
7.2781540116
 20
-8.8639894201
 10
7.2660544978
 20
-8.8449767784
 10
7.2572200456
 20
-8.8248045923
 10
7.2518209783
 20
-8.8037799556
 10
7.2499999999
 20
-8.7822750739
  0
LWPOLYLINE
  5
2A4
100
AcDbEntity
  8
IMPORT_IGES
100
AcDbPolyline
 62
253
  6
CONTINUOUS
 90
6
 70
0
 10
7.4499999846
 20
-10.4812646504
 10
7.4241893122
 20
-10.4799289717
 10
7.3988971975
 20
-10.4759625949
 10
7.374537065
 20
-10.4694584775
 10
7.3516132228
 20
-10.4606012045
 10
7.3303564851
 20
-10.4495323007
  0
LWPOLYLINE
  5
2A5
100
AcDbEntity
  8
IMPORT_IGES
100
AcDbPolyline
 62
253
  6
CONTINUOUS
 90
8
 70
0
 10
-4.0404556842
 20
-8.7780275707
 10
-4.0571021262
 20
-8.7770634089
 10
-4.0765044583
 20
-8.7762502145
 10
-4.0983016993
 20
-8.7756158798
 10
-4.1220485856
 20
-8.775180278
 10
-4.147307419
 20
-8.7749552981
 10
-4.1736898295
 20
-8.7749480632
 10
-4.200730978
 20
-8.7751628453
  0
LWPOLYLINE
  5
2A6
100
AcDbEntity
  8
IMPORT_IGES
100
AcDbPolyline
 62
7
  6
CONTINUOUS
 90
5
 70
0
 10
-4.1759847362
 20
-8.6825380693
 10
-4.1542740464
 20
-8.6854635279
 10
-4.1334760453
 20
-8.6896773756
 10
-4.113775667
 20
-8.6950449199
 10
-4.0954676437
 20
-8.7013765366
  0
LWPOLYLINE
  5
2A7
100
AcDbEntity
  8
IMPORT_IGES
100
AcDbPolyline
 62
253
  6
CONTINUOUS
 90
4
 70
0
 10
-4.0127656373
 20
-8.7808118157
 10
-4.0155057043
 20
-8.7803575025
 10
-4.0266014777
 20
-8.7791262097
 10
-4.0404556842
 20
-8.7780275707
  0
LINE
  5
2A8
100
AcDbEntity
  8
IMPORT_IGES
100
AcDbLine
 62
7
  6
CONTINUOUS
 10
-4.0954676437
 20
-8.7013765366
 11
-4.0882289359
 21
-8.7043394369
  0
LWPOLYLINE
  5
2A9
100
AcDbEntity
  8
IMPORT_IGES
100
AcDbPolyline
 62
7
  6
CONTINUOUS
 90
6
 70
0
 10
-4.0882697864
 20
-8.7044392394
 10
-4.0836943795
 20
-8.706599632
 10
-4.070835408
 20
-8.7137433196
 10
-4.0589401885
 20
-8.7219581309
 10
-4.048186807
 20
-8.7310064057
 10
-4.038637621
 20
-8.7406773203
  0
LWPOLYLINE
  5
2AA
100
AcDbEntity
  8
IMPORT_IGES
100
AcDbPolyline
 62
253
  6
CONTINUOUS
 90
6
 70
0
 10
-4.0601743447
 20
-8.5067231028
 10
-4.0764482093
 20
-8.4978925827
 10
-4.0941449657
 20
-8.4908160639
 10
-4.1129391743
 20
-8.4856558943
 10
-4.132545878
 20
-8.482521018
 10
-4.1526247031
 20
-8.4815015194
  0
LWPOLYLINE
  5
2AB
100
AcDbEntity
  8
IMPORT_IGES
100
AcDbPolyline
 62
7
  6
CONTINUOUS
 90
8
 70
0
 10
-4.038637621
 20
-8.7406773203
 10
-4.030261442
 20
-8.7508302544
 10
-4.0230292869
 20
-8.7613260553
 10
-4.0169708112
 20
-8.7719050201
 10
-4.0120783745
 20
-8.7822674771
 10
-4.0082073985
 20
-8.7923464705
 10
-4.0052774699
 20
-8.8019207
 10
-4.0032425541
 20
-8.8104679139
  0
LWPOLYLINE
  5
2AC
100
AcDbEntity
  8
IMPORT_IGES
100
AcDbPolyline
 62
253
  6
CONTINUOUS
 90
13
 70
0
 10
-8.35297906
 20
-4.3505299365
 10
-8.3502030866
 20
-4.3663988954
 10
-8.3425196972
 20
-4.381852287
 10
-8.3301168962
 20
-4.3966408583
 10
-8.313357631
 20
-4.4104602873
 10
-8.2925131088
 20
-4.4231805314
 10
-8.2675407076
 20
-4.434787263
 10
-8.2385123402
 20
-4.4451075311
 10
-8.2059612155
 20
-4.4538276226
 10
-8.1705150269
 20
-4.4607088839
 10
-8.1328046399
 20
-4.465584943
 10
-8.0934124988
 20
-4.468338965
 10
-8.0530248924
 20
-4.4688776093
  0
LWPOLYLINE
  5
2AD
100
AcDbEntity
  8
IMPORT_IGES
100
AcDbPolyline
 62
253
  6
CONTINUOUS
 90
13
 70
0
 10
-8.4066864272
 20
-1.2736369292
 10
-8.4039101247
 20
-1.2895068083
 10
-8.3962260483
 20
-1.3049606939
 10
-8.3838225907
 20
-1.3197493413
 10
-8.3670632528
 20
-1.3335683515
 10
-8.3462194599
 20
-1.3462879099
 10
-8.3212480741
 20
-1.3578941066
 10
-8.2922207808
 20
-1.3682139274
 10
-8.2596708129
 20
-1.376933724
 10
-8.2242252575
 20
-1.3838152659
 10
-8.1865146447
 20
-1.3886922131
 10
-8.1471215055
 20
-1.3914474641
 10
-8.1067321259
 20
-1.3919875572
  0
LINE
  5
2AE
100
AcDbEntity
  8
IMPORT_IGES
100
AcDbLine
 62
253
  6
CONTINUOUS
 10
-8.0415782852
 20
-5.0388371703
 11
-8.0530247281
 21
-4.4688776069
  0
LINE
  5
2AF
100
AcDbEntity
  8
IMPORT_IGES
100
AcDbLine
 62
253
  6
CONTINUOUS
 10
-7.9554304026
 20
-10.1493180328
 11
-7.9849870784
 21
-8.4815039995
  0
LINE
  5
2B0
100
AcDbEntity
  8
IMPORT_IGES
100
AcDbLine
 62
253
  6
CONTINUOUS
 10
-8.0530247281
 20
-4.4688776069
 11
-8.1067323708
 21
-1.3919876444
  0
LINE
  5
2B1
100
AcDbEntity
  8
IMPORT_IGES
100
AcDbLine
 62
253
  6
CONTINUOUS
 10
-7.9873574003
 20
-8.1451539726
 11
-8.0415782852
 21
-5.0388371703
  0
LINE
  5
2B2
100
AcDbEntity
  8
IMPORT_IGES
100
AcDbLine
 62
7
  6
CONTINUOUS
 10
-8.1189111452
 20
-0.5710841037
 11
-8.1067323708
 21
-1.3919876444
  0
LINE
  5
2B3
100
AcDbEntity
  8
IMPORT_IGES
100
AcDbLine
 62
253
  6
CONTINUOUS
 10
-8.1220539415
 20
-0.3549999076
 11
-8.1189112984
 21
-0.5710854105
  0
LINE
  5
2B4
100
AcDbEntity
  8
ASSI
100
AcDbLine
 62
7
  6
CONTINUOUS
 10
-6.502617861
 20
-11.2000228457
 11
-6.5031728161
 21
-11.1364312893
  0
LINE
  5
2B5
100
AcDbEntity
  8
IMPORT_IGES
100
AcDbLine
 62
7
  6
CONTINUOUS
 10
-7.9873574003
 20
-8.1451539726
 11
-7.9849870784
 21
-8.4815036063
  0
LINE
  5
2B6
100
AcDbEntity
  8
IMPORT_IGES
100
AcDbLine
 62
253
  6
CONTINUOUS
 10
-7.9552052355
 20
-10.1895904447
 11
-7.9554304026
 21
-10.1493180328
  0
LINE
  5
2B7
100
AcDbEntity
  8
IMPORT_IGES
100
AcDbLine
 62
253
  6
CONTINUOUS
 10
-7.0501577587
 20
-0.3710831898
 11
-7.0499999767
 21
-0.5710540577
  0
LINE
  5
2B8
100
AcDbEntity
  8
ASSI
100
AcDbLine
 62
7
  6
CONTINUOUS
 10
-7.2996003126
 20
-10.4368709186
 11
-7.2995501161
 21
-10.6749464776
  0
LINE
  5
2B9
100
AcDbEntity
  8
IMPORT_IGES
100
AcDbLine
 62
253
  6
CONTINUOUS
 10
-7.4499999671
 20
-10.4812645708
 11
-7.45
 21
-8.9420020066
  0
LINE
  5
2BA
100
AcDbEntity
  8
IMPORT_IGES
100
AcDbLine
 62
253
  6
CONTINUOUS
 10
-7.45
 20
-8.1451539777
 11
-7.44998952
 21
-0.7528334326
  0
LINE
  5
2BB
100
AcDbEntity
  8
ASSI
100
AcDbLine
 62
7
  6
CONTINUOUS
 10
-7.4101132618
 20
10.3101323002
 11
-7.4101132618
 21
10.2429468149
  0
LINE
  5
2BC
100
AcDbEntity
  8
ASSI
100
AcDbLine
 62
7
  6
CONTINUOUS
 10
-7.2825462644
 20
-10.3571442482
 11
-7.2825462644
 21
-10.4658676112
  0
LINE
  5
2BD
100
AcDbEntity
  8
IMPORT_IGES
100
AcDbLine
 62
7
  6
CONTINUOUS
 10
-7.25
 20
-10.3571442482
 11
-7.25
 21
-8.7822748882
  0
LINE
  5
2BE
100
AcDbEntity
  8
IMPORT_IGES
100
AcDbLine
 62
253
  6
CONTINUOUS
 10
-7.2030016412
 20
10.0965277095
 11
-7.203
 21
7.7698972393
  0
LINE
  5
2BF
100
AcDbEntity
  8
ASSI
100
AcDbLine
 62
7
  6
CONTINUOUS
 10
-7.2
 20
24.300030461
 11
-7.2
 21
22.4
  0
LINE
  5
2C0
100
AcDbEntity
  8
ASSI
100
AcDbLine
 62
7
  6
CONTINUOUS
 10
-7.2
 20
-22.4
 11
-7.2
 21
-24.300030461
  0
LINE
  5
2C1
100
AcDbEntity
  8
IMPORT_IGES
100
AcDbLine
 62
253
  6
CONTINUOUS
 10
-7.0500035661
 20
-8.6405803827
 11
-7.050005001
 21
-10.5911911821
  0
LINE
  5
2C2
100
AcDbEntity
  8
IMPORT_IGES
100
AcDbLine
 62
7
  6
CONTINUOUS
 10
-7.003
 20
7.8480535311
 11
-7.003
 21
10.1672173642
  0
LINE
  5
2C3
100
AcDbEntity
  8
ASSI
100
AcDbLine
 62
253
  6
CONTINUOUS
 10
-6.8122642439
 20
10.65
 11
-6.8122642439
 21
10.8101132618
  0
LINE
  5
2C4
100
AcDbEntity
  8
IMPORT_IGES
100
AcDbLine
 62
253
  6
CONTINUOUS
 10
-6.803
 20
7.9019103351
 11
-6.8030000072
 21
10.65
  0
LINE
  5
2C5
100
AcDbEntity
  8
ASSI
100
AcDbLine
 62
253
  6
CONTINUOUS
 10
-6.5123099353
 20
10.7023322033
 11
-6.5123099353
 21
10.8126856306
  0
LINE
  5
2C6
100
AcDbEntity
  8
ASSI
100
AcDbLine
 62
7
  6
CONTINUOUS
 10
-6.5
 20
10.8188401295
 11
-6.5
 21
10.75
  0
LINE
  5
2C7
100
AcDbEntity
  8
ASSI
100
AcDbLine
 62
7
  6
CONTINUOUS
 10
-6.5
 20
-11.5698149423
 11
-6.5
 21
-11.2
  0
LINE
  5
2C8
100
AcDbEntity
  8
IMPORT_IGES
100
AcDbLine
 62
253
  6
CONTINUOUS
 10
-6.35
 20
0.245
 11
-6.35
 21
1.645
  0
LINE
  5
2C9
100
AcDbEntity
  8
IMPORT_IGES
100
AcDbLine
 62
253
  6
CONTINUOUS
 10
-6.2231434278
 20
-11.0508823024
 11
-6.2231434153
 21
-11.25
  0
LINE
  5
2CA
100
AcDbEntity
  8
IMPORT_IGES
100
AcDbLine
 62
253
  6
CONTINUOUS
 10
-6.1500004232
 20
10.85
 11
-6.1500005306
 21
10.65
  0
LINE
  5
2CB
100
AcDbEntity
  8
ASSI
100
AcDbLine
 62
7
  6
CONTINUOUS
 10
-7.4995066553
 20
10.3995256938
 11
-7.4995567585
 21
10.1535033182
  0
LINE
  5
2CC
100
AcDbEntity
  8
IMPORT_IGES
100
AcDbLine
 62
7
  6
CONTINUOUS
 10
-7.9884829208
 20
7.4428932188
 11
-7.9860142604
 21
7.7964466088
  0
LINE
  5
2CD
100
AcDbEntity
  8
IMPORT_IGES
100
AcDbLine
 62
253
  6
CONTINUOUS
 10
-7.9860144018
 20
7.7964466092
 11
-7.9590625132
 21
9.3404371128
  0
LINE
  5
2CE
100
AcDbEntity
  8
IMPORT_IGES
100
AcDbLine
 62
253
  6
CONTINUOUS
 10
-7.9946610119
 20
7.0889506127
 11
-7.9884829208
 21
7.4428932181
  0
LINE
  5
2CF
100
AcDbEntity
  8
IMPORT_IGES
100
AcDbLine
 62
253
  6
CONTINUOUS
 10
-8.1220539415
 20
-0.3549999076
 11
-8.0100943144
 21
6.0952710701
  0
LWPOLYLINE
  5
2D0
100
AcDbEntity
  8
ASSI
100
AcDbPolyline
 62
7
  6
CONTINUOUS
 90
34
 70
0
 10
-5.4995447753
 20
13.7889513116
 10
-5.4974542873
 20
13.8343550363
 10
-5.4912139246
 20
13.8793561871
 10
-5.4808698769
 20
13.9235786298
 10
-5.4664612785
 20
13.9668108868
 10
-5.4481344513
 20
14.0085213922
 10
-5.4262505761
 20
14.047908122
 10
-5.4012800742
 20
14.0844380148
 10
-5.373384392
 20
14.1181526564
 10
-5.3424792233
 20
14.1491104082
 10
-5.3085934409
 20
14.1771824941
 10
-5.2721799873
 20
14.2019123468
 10
-5.233764496
 20
14.2228586966
 10
-5.1936645793
 20
14.2398581886
 10
-5.1522925193
 20
14.2527860633
 10
-5.1104027831
 20
14.2614608188
 10
-5.0687896075
 20
14.2658984956
 10
-5.0274382238
 20
14.2662786957
 10
-4.9858942089
 20
14.2626027343
 10
-4.9441384274
 20
14.2547106344
 10
-4.9029646715
 20
14.2425927104
 10
-4.8631300902
 20
14.2264152933
 10
-4.8250477389
 20
14.2063215475
 10
-4.7890095197
 20
14.1824840779
 10
-4.7555034323
 20
14.1553081162
 10
-4.7249691148
 20
14.1252467992
 10
-4.6974257567
 20
14.0924326382
 10
-4.6727656584
 20
14.0567697431
 10
-4.6511528422
 20
14.0182311355
 10
-4.6330395062
 20
13.9773245883
 10
-4.6187595018
 20
13.9347412511
 10
-4.6084732712
 20
13.8909641004
 10
-4.6022509581
 20
13.8462289508
 10
-4.6001610877
 20
13.8009067479
  0
LWPOLYLINE
  5
2D1
100
AcDbEntity
  8
ASSI
100
AcDbPolyline
 62
7
  6
CONTINUOUS
 90
16
 70
0
 10
-7.4995066553
 20
10.3995256938
 10
-7.4967837856
 20
10.4515375131
 10
-7.4886438905
 20
10.503092757
 10
-7.4751423779
 20
10.5536242638
 10
-7.4563594709
 20
10.6026490814
 10
-7.4324884033
 20
10.6495302945
 10
-7.403915005
 20
10.6935244172
 10
-7.3711268977
 20
10.7340248165
 10
-7.3344168946
 20
10.7707938326
 10
-7.2939395876
 20
10.8036674527
 10
-7.2499070997
 20
10.8323531353
 10
-7.2029375229
 20
10.8563361038
 10
-7.1538330383
 20
10.8751962811
 10
-7.1032576081
 20
10.8887416676
 10
-7.0516790143
 20
10.8969081545
 10
-6.9996669794
 20
10.8996479409
  0
LWPOLYLINE
  5
2D2
100
AcDbEntity
  8
IMPORT_IGES
100
AcDbPolyline
 62
253
  6
CONTINUOUS
 90
8
 70
0
 10
-7.25
 20
-10.3215376356
 10
-7.2516724706
 20
-10.3421508702
 10
-7.2566389285
 20
-10.3623499873
 10
-7.2647829774
 20
-10.3818048116
 10
-7.2758734889
 20
-10.4001125916
 10
-7.289733256
 20
-10.4170889844
 10
-7.3063824537
 20
-10.4326999226
 10
-7.3257672229
 20
-10.4467124779
  0
LWPOLYLINE
  5
2D3
100
AcDbEntity
  8
IMPORT_IGES
100
AcDbPolyline
 62
7
  6
CONTINUOUS
 90
14
 70
0
 10
-7.2499968274
 20
-8.780809703
 10
-7.2498372845
 20
-8.7790763907
 10
-7.2492995524
 20
-8.7759898339
 10
-7.2481038592
 20
-8.771744807
 10
-7.2456167452
 20
-8.7658260378
 10
-7.2417892754
 20
-8.7590845116
 10
-7.2364326504
 20
-8.7516456081
 10
-7.2289806967
 20
-8.7432547129
 10
-7.2193763674
 20
-8.7343653855
 10
-7.2076720395
 20
-8.7253721702
 10
-7.1936806674
 20
-8.7164490866
 10
-7.1771764992
 20
-8.7077976474
 10
-7.1583026485
 20
-8.6998082438
 10
-7.1374136803
 20
-8.6928916726
  0
LWPOLYLINE
  5
2D4
100
AcDbEntity
  8
IMPORT_IGES
100
AcDbPolyline
 62
253
  6
CONTINUOUS
 90
10
 70
0
 10
-7.45
 20
-8.9420020066
 10
-7.4456277255
 20
-8.9048034418
 10
-7.4373596655
 20
-8.8701289095
 10
-7.4251958199
 20
-8.8379784098
 10
-7.4088844911
 20
-8.808507501
 10
-7.3886773766
 20
-8.7815606248
 10
-7.3653295696
 20
-8.7566711058
 10
-7.3387735958
 20
-8.7334901921
 10
-7.3090769293
 20
-8.7123666357
 10
-7.2771970861
 20
-8.6938800171
  0
LWPOLYLINE
  5
2D5
100
AcDbEntity
  8
IMPORT_IGES
100
AcDbPolyline
 62
253
  6
CONTINUOUS
 90
13
 70
0
 10
-7.250000001
 20
-1.3096048809
 10
-7.2516739682
 20
-1.3202341318
 10
-7.25664023
 20
-1.3306506586
 10
-7.2647832581
 20
-1.3406842151
 10
-7.2758731302
 20
-1.3501272818
 10
-7.2897332302
 20
-1.3588843669
 10
-7.3063829055
 20
-1.3669370759
 10
-7.325767735
 20
-1.3741650726
 10
-7.3475341964
 20
-1.380353188
 10
-7.3712608157
 20
-1.3853338561
 10
-7.3965221658
 20
-1.38898773
 10
-7.4229234815
 20
-1.3912291618
 10
-7.4499999999
 20
-1.3919877028
  0
LWPOLYLINE
  5
2D6
100
AcDbEntity
  8
IMPORT_IGES
100
AcDbPolyline
 62
253
  6
CONTINUOUS
 90
19
 70
0
 10
-7.3974980996
 20
-0.5710854105
 10
-7.40412836
 20
-0.5843720104
 10
-7.4101157182
 20
-0.597001862
 10
-7.4154601745
 20
-0.6089745785
 10
-7.4200554793
 20
-0.6201194809
 10
-7.424007882
 20
-0.6306069303
 10
-7.4276361307
 20
-0.6409480627
 10
-7.4310236578
 20
-0.6512619807
 10
-7.4340870308
 20
-0.6614291404
 10
-7.4368946999
 20
-0.6716024207
 10
-7.4394819328
 20
-0.6819214886
 10
-7.4418134617
 20
-0.6922460477
 10
-7.4438519331
 20
-0.7023091693
 10
-7.445579871
 20
-0.7121642336
 10
-7.4470147514
 20
-0.7217578364
 10
-7.448171649
 20
-0.7306636119
 10
-7.4490555888
 20
-0.738740006
 10
-7.4496615458
 20
-0.7461297611
 10
-7.44998952
 20
-0.7528334326
  0
LWPOLYLINE
  5
2D7
100
AcDbEntity
  8
IMPORT_IGES
100
AcDbPolyline
 62
253
  6
CONTINUOUS
 90
13
 70
0
 10
6.8787955869
 20
10.6499974091
 10
6.8740033893
 20
10.6483923246
 10
6.8692142099
 20
10.6435008113
 10
6.8645547975
 20
10.6353415953
 10
6.8602061351
 20
10.6242861769
 10
6.8562106168
 20
10.6106058452
 10
6.852501904
 20
10.594034525
 10
6.8491721745
 20
10.5747431385
 10
6.8463386012
 20
10.5532570471
 10
6.8440253908
 20
10.5295691956
 10
6.8423090661
 20
10.5040867242
 10
6.8412625597
 20
10.4777157085
 10
6.8408975954
 20
10.4512228488
  0
LWPOLYLINE
  5
2D8
100
AcDbEntity
  8
IMPORT_IGES
100
AcDbPolyline
 62
7
  6
CONTINUOUS
 90
5
 70
0
 10
-7.1374136803
 20
-8.6928916726
 10
-7.1148036621
 20
-8.68734287
 10
-7.0908738516
 20
-8.6833993114
 10
-7.0664495864
 20
-8.6812630301
 10
-7.0500035625
 20
-8.6808547176
  0
LWPOLYLINE
  5
2D9
100
AcDbEntity
  8
IMPORT_IGES
100
AcDbPolyline
 62
253
  6
CONTINUOUS
 90
3
 70
0
 10
-7.1309040964
 20
-8.6473168656
 10
-7.0910997355
 20
-8.6425698851
 10
-7.0500029293
 20
-8.6405804277
  0
LWPOLYLINE
  5
2DA
100
AcDbEntity
  8
IMPORT_IGES
100
AcDbPolyline
 62
253
  6
CONTINUOUS
 90
13
 70
0
 10
3.8128962508
 20
-7.922413084
 10
3.8392529971
 20
-7.9211377719
 10
3.8652120064
 20
-7.9170855618
 10
3.8903133274
 20
-7.9103077736
 10
3.9142471042
 20
-7.9008395161
 10
3.9364160625
 20
-7.8888654339
 10
3.9560661498
 20
-7.8748621406
 10
3.9727778127
 20
-7.8593735723
 10
3.9866460681
 20
-7.8425861367
 10
3.9977574489
 20
-7.82450405
 10
4.0059642365
 20
-7.8052957208
 10
4.0110479545
 20
-7.7853740458
 10
4.0129151831
 20
-7.7650606693
  0
LWPOLYLINE
  5
2DB
100
AcDbEntity
  8
IMPORT_IGES
100
AcDbPolyline
 62
253
  6
CONTINUOUS
 90
13
 70
0
 10
4.1756020189
 20
-6.6038303399
 10
4.1563715238
 20
-6.6045897925
 10
4.1375207217
 20
-6.6070761535
 10
4.1193539669
 20
-6.6112315332
 10
4.1022467511
 20
-6.6169375972
 10
4.0863654942
 20
-6.6241048495
 10
4.0717324914
 20
-6.6327505532
 10
4.0585604212
 20
-6.6428557446
 10
4.0472477147
 20
-6.6542380933
 10
4.0381071328
 20
-6.6666737276
 10
4.0313559126
 20
-6.6799390372
 10
4.0271468015
 20
-6.6938315491
 10
4.0256082094
 20
-6.7081095572
  0
LINE
  5
2DC
100
AcDbEntity
  8
IMPORT_IGES
100
AcDbLine
 62
253
  6
CONTINUOUS
 10
4.6742327771
 20
-6.1672804328
 11
4.6287397459
 21
-6.1678694368
  0
LINE
  5
2DD
100
AcDbEntity
  8
IMPORT_IGES
100
AcDbLine
 62
253
  6
CONTINUOUS
 10
4.0051398378
 20
-7.1454496887
 11
3.9618153315
 21
-7.1459027196
  0
LWPOLYLINE
  5
2DE
100
AcDbEntity
  8
IMPORT_IGES
100
AcDbPolyline
 62
253
  6
CONTINUOUS
 90
13
 70
0
 10
-7.9873573621
 20
-8.1451539719
 10
-8.0261114514
 20
-8.1455030495
 10
-8.0640565075
 20
-8.1452155447
 10
-8.1005740584
 20
-8.144304285
 10
-8.1349033956
 20
-8.142801845
 10
-8.1667155098
 20
-8.1407368584
 10
-8.1959780859
 20
-8.1381032355
 10
-8.2222639525
 20
-8.1349024062
 10
-8.2447826436
 20
-8.1311880701
 10
-8.262924996
 20
-8.1270291684
 10
-8.2762582463
 20
-8.1224982516
 10
-8.284472425
 20
-8.1176639632
 10
-8.2873117235
 20
-8.1126091258
  0
LWPOLYLINE
  5
2DF
100
AcDbEntity
  8
IMPORT_IGES
100
AcDbPolyline
 62
253
  6
CONTINUOUS
 90
5
 70
0
 10
-3.8203866402
 20
-7.145501943
 10
-3.8722469961
 20
-7.1460093473
 10
-3.8970405994
 20
-7.1461000504
 10
-3.920505035
 20
-7.146032071
 10
-3.9936171357
 20
-7.1455245698
  0
LWPOLYLINE
  5
2E0
100
AcDbEntity
  8
IMPORT_IGES
100
AcDbPolyline
 62
253
  6
CONTINUOUS
 90
5
 70
0
 10
-3.9936171357
 20
-7.1455245698
 10
-4.005162705
 20
-7.1456104625
 10
-4.0135514929
 20
-7.1458975027
 10
-4.018638902
 20
-7.1463549221
 10
-4.020337639
 20
-7.1469911819
  0
LWPOLYLINE
  5
2E1
100
AcDbEntity
  8
IMPORT_IGES
100
AcDbPolyline
 62
253
  6
CONTINUOUS
 90
3
 70
0
 10
3.9618153315
 20
-7.1459027196
 10
3.9204171662
 20
-7.1461666689
 10
3.8969589939
 20
-7.1461797309
  0
LINE
  5
2E2
100
AcDbEntity
  8
IMPORT_IGES
100
AcDbLine
 62
253
  6
CONTINUOUS
 10
4.6287397459
 20
-6.1678694368
 11
4.5770767832
 21
-6.168180338
  0
LINE
  5
2E3
100
AcDbEntity
  8
ASSI
100
AcDbLine
 62
7
  6
CONTINUOUS
 10
-8.3325462644
 20
-8.1825462644
 11
-8.2860909662
 21
-8.1825462644
  0
LINE
  5
2E4
100
AcDbEntity
  8
ASSI
100
AcDbLine
 62
7
  6
CONTINUOUS
 10
8.3325462644
 20
-8.1825462644
 11
8.2860909662
 21
-8.1825462644
  0
LINE
  5
2E5
100
AcDbEntity
  8
IMPORT_IGES
100
AcDbLine
 62
253
  6
CONTINUOUS
 10
7.9873573988
 20
-8.1451539653
 11
7.45
 21
-8.1451539698
  0
LINE
  5
2E6
100
AcDbEntity
  8
IMPORT_IGES
100
AcDbLine
 62
253
  6
CONTINUOUS
 10
-7.45
 20
-8.1451539777
 11
-7.9873574003
 21
-8.1451539726
  0
LINE
  5
2E7
100
AcDbEntity
  8
IMPORT_IGES
100
AcDbLine
 62
253
  6
CONTINUOUS
 10
5.55
 20
-8.1451319631
 11
4.7231303335
 21
-8.1451457132
  0
LINE
  5
2E8
100
AcDbEntity
  8
IMPORT_IGES
100
AcDbLine
 62
253
  6
CONTINUOUS
 10
-5.55
 20
-8.1451489625
 11
-4.7231303336
 21
-8.1451552779
  0
LINE
  5
2E9
100
AcDbEntity
  8
ASSI
100
AcDbLine
 62
7
  6
CONTINUOUS
 10
8.7483942934
 20
-8.1114108686
 11
8.2873117281
 21
-8.1114108686
  0
LINE
  5
2EA
100
AcDbEntity
  8
ASSI
100
AcDbLine
 62
7
  6
CONTINUOUS
 10
-8.2873117254
 20
-8.1114108686
 11
-8.7483942934
 21
-8.1114108686
  0
LINE
  5
2EB
100
AcDbEntity
  8
ASSI
100
AcDbLine
 62
253
  6
CONTINUOUS
 10
-8.2899507992
 20
-7.9614165802
 11
-8.74846397
 21
-7.9614165802
  0
LINE
  5
2EC
100
AcDbEntity
  8
IMPORT_IGES
100
AcDbLine
 62
253
  6
CONTINUOUS
 10
-3.8129292279
 20
-7.9224178635
 11
3.8129292811
 21
-7.9224132299
  0
LINE
  5
2ED
100
AcDbEntity
  8
ASSI
100
AcDbLine
 62
253
  6
CONTINUOUS
 10
8.2990768859
 20
-7.4385834198
 11
8.74846397
 21
-7.4385834198
  0
LINE
  5
2EE
100
AcDbEntity
  8
ASSI
100
AcDbLine
 62
7
  6
CONTINUOUS
 10
-8.7483942934
 20
-7.2885891314
 11
-8.301695046
 21
-7.2885891314
  0
LINE
  5
2EF
100
AcDbEntity
  8
ASSI
100
AcDbLine
 62
7
  6
CONTINUOUS
 10
8.301695046
 20
-7.2885891314
 11
8.7483942934
 21
-7.2885891314
  0
LINE
  5
2F0
100
AcDbEntity
  8
IMPORT_IGES
100
AcDbLine
 62
253
  6
CONTINUOUS
 10
-3.8203932811
 20
-7.1455020228
 11
3.8203932811
 21
-7.1455020228
  0
LINE
  5
2F1
100
AcDbEntity
  8
IMPORT_IGES
100
AcDbLine
 62
253
  6
CONTINUOUS
 10
-4.0964593868
 20
-6.3738283964
 11
-4.55
 21
-6.373834867
  0
LINE
  5
2F2
100
AcDbEntity
  8
IMPORT_IGES
100
AcDbLine
 62
253
  6
CONTINUOUS
 10
4.55
 20
-6.373834867
 11
4.096458952
 21
-6.3738215284
  0
LINE
  5
2F3
100
AcDbEntity
  8
IMPORT_IGES
100
AcDbLine
 62
253
  6
CONTINUOUS
 10
3.832129547
 20
-6.1682203415
 11
4.5770767832
 21
-6.168180338
  0
LINE
  5
2F4
100
AcDbEntity
  8
IMPORT_IGES
100
AcDbLine
 62
253
  6
CONTINUOUS
 10
-4.5770767832
 20
-6.168180338
 11
-3.832129547
 21
-6.1682203415
  0
LINE
  5
2F5
100
AcDbEntity
  8
IMPORT_IGES
100
AcDbLine
 62
253
  6
CONTINUOUS
 10
-4.6287397459
 20
-6.1678694368
 11
-4.5770767832
 21
-6.168180338
  0
LWPOLYLINE
  5
2F6
100
AcDbEntity
  8
IMPORT_IGES
100
AcDbPolyline
 62
253
  6
CONTINUOUS
 90
3
 70
0
 10
3.8969589939
 20
-7.1461797309
 10
3.8465119352
 20
-7.1458308306
 10
3.82038664
 20
-7.1455019433
  0
LWPOLYLINE
  5
2F7
100
AcDbEntity
  8
IMPORT_IGES
100
AcDbPolyline
 62
253
  6
CONTINUOUS
 90
13
 70
0
 10
7.987357413
 20
-8.1451540964
 10
8.025923033
 20
-8.1455030168
 10
8.0637573473
 20
-8.1452204676
 10
8.100242314
 20
-8.1443157027
 10
8.134632537
 20
-8.1428165569
 10
8.1665606122
 20
-8.1407488564
 10
8.1959202394
 20
-8.1381094068
 10
8.2222728598
 20
-8.1349012648
 10
8.2448360377
 20
-8.1311778612
 10
8.2629847266
 20
-8.1270127969
 10
8.2762968562
 20
-8.1224815734
 10
8.284485254
 20
-8.1176525612
 10
8.2873117256
 20
-8.1126090012
  0
LWPOLYLINE
  5
2F8
100
AcDbEntity
  8
IMPORT_IGES
100
AcDbPolyline
 62
253
  6
CONTINUOUS
 90
13
 70
0
 10
-4.1756469517
 20
-6.6038308302
 10
-4.1564301139
 20
-6.6045851839
 10
-4.1375800999
 20
-6.6070660134
 10
-4.1194020489
 20
-6.6112186752
 10
-4.1022656407
 20
-6.6169308501
 10
-4.0863491085
 20
-6.6241139395
 10
-4.0716980789
 20
-6.6327743064
 10
-4.0585315851
 20
-6.6428819789
 10
-4.0472322938
 20
-6.6542573577
 10
-4.0381012243
 20
-6.6666838639
 10
-4.0313541726
 20
-6.6799417734
 10
-4.0271469499
 20
-6.693826174
 10
-4.0256083757
 20
-6.7080956972
  0
LWPOLYLINE
  5
2F9
100
AcDbEntity
  8
IMPORT_IGES
100
AcDbPolyline
 62
253
  6
CONTINUOUS
 90
13
 70
0
 10
-4.55
 20
-6.3738348672
 10
-4.5758106793
 20
-6.3726522517
 10
-4.6011027992
 20
-6.3691404357
 10
-4.6254629351
 20
-6.3633817236
 10
-4.6483867782
 20
-6.3555395478
 10
-4.6696435154
 20
-6.3457392124
 10
-4.6891905184
 20
-6.3339664518
 10
-4.7067361386
 20
-6.32025935
 10
-4.7217575101
 20
-6.3048681786
 10
-4.7338479058
 20
-6.288090919
 10
-4.7427175985
 20
-6.2702283708
 10
-4.7481586431
 20
-6.2515596878
 10
-4.75
 20
-6.2324135107
  0
LINE
  5
2FA
100
AcDbEntity
  8
IMPORT_IGES
100
AcDbLine
 62
253
  6
CONTINUOUS
 10
7.0499991095
 20
-8.6405803359
 11
7.0942545051
 21
-8.6433907123
  0
LWPOLYLINE
  5
2FB
100
AcDbEntity
  8
IMPORT_IGES
100
AcDbPolyline
 62
253
  6
CONTINUOUS
 90
4
 70
0
 10
4.0203546963
 20
-7.1455708167
 10
4.0186464619
 20
-7.1454543133
 10
4.0135452681
 20
-7.145416758
 10
4.0051398378
 20
-7.1454496887
  0
LINE
  5
2FC
100
AcDbEntity
  8
IMPORT_IGES
100
AcDbLine
 62
253
  6
CONTINUOUS
 10
7.0942545051
 20
-8.6433907123
 11
7.1363196299
 21
-8.6488095358
  0
LWPOLYLINE
  5
2FD
100
AcDbEntity
  8
IMPORT_IGES
100
AcDbPolyline
 62
253
  6
CONTINUOUS
 90
5
 70
0
 10
7.1363196299
 20
-8.6488095358
 10
7.1761944839
 20
-8.6568368062
 10
7.2139563799
 20
-8.6675228595
 10
7.2495280051
 20
-8.6808173598
 10
7.2826774215
 20
-8.6965692993
  0
LWPOLYLINE
  5
2FE
100
AcDbEntity
  8
IMPORT_IGES
100
AcDbPolyline
 62
7
  6
CONTINUOUS
 90
15
 70
0
 10
7.1300620629
 20
-8.6908798701
 10
7.151351842
 20
-8.6973002012
 10
7.1704772716
 20
-8.7047520919
 10
7.1873569976
 20
-8.7129226638
 10
7.2018286368
 20
-8.721438601
 10
7.213888316
 20
-8.7299424825
 10
7.2239014711
 20
-8.7383431026
 10
7.2320864728
 20
-8.7465487491
 10
7.2384241207
 20
-8.7542289253
 10
7.2429800455
 20
-8.7610018023
 10
7.2462490554
 20
-8.7671510007
 10
7.248384974
 20
-8.7725931268
 10
7.2494159034
 20
-8.7765510499
 10
7.2498786128
 20
-8.779504827
 10
7.2499971737
 20
-8.7809606773
  0
LWPOLYLINE
  5
2FF
100
AcDbEntity
  8
IMPORT_IGES
100
AcDbPolyline
 62
253
  6
CONTINUOUS
 90
9
 70
0
 10
-4.75
 20
-6.1638753356
 10
-4.7483275292
 20
-6.1644360734
 10
-4.7433610714
 20
-6.1649855454
 10
-4.7352170226
 20
-6.1655147701
 10
-4.7241265112
 20
-6.1660127912
 10
-4.7102667441
 20
-6.1664745945
 10
-4.6936175463
 20
-6.1668992537
 10
-4.6742327771
 20
-6.1672804328
 10
-4.6287397459
 20
-6.1678694368
  0
LWPOLYLINE
  5
300
100
AcDbEntity
  8
IMPORT_IGES
100
AcDbPolyline
 62
253
  6
CONTINUOUS
 90
10
 70
0
 10
-3.9816024459
 20
-6.4764277373
 10
-3.9897549398
 20
-6.4622977486
 10
-3.999523038
 20
-6.4483092844
 10
-4.0107086705
 20
-6.4347769067
 10
-4.0228752287
 20
-6.4221620776
 10
-4.0358645914
 20
-6.4105267686
 10
-4.0499488624
 20
-6.3996382362
 10
-4.0650609864
 20
-6.389655738
 10
-4.0806837752
 20
-6.3809864481
 10
-4.0964593881
 20
-6.3738233983
  0
LWPOLYLINE
  5
301
100
AcDbEntity
  8
IMPORT_IGES
100
AcDbPolyline
 62
253
  6
CONTINUOUS
 90
13
 70
0
 10
-5.749999996
 20
-5.0136529364
 10
-5.7483246567
 20
-5.0169011451
 10
-5.7433587973
 20
-5.020084619
 10
-5.7352170226
 20
-5.0231513346
 10
-5.7241279705
 20
-5.0260379287
 10
-5.7102676313
 20
-5.0287150762
 10
-5.6936175463
 20
-5.0311768821
 10
-5.6742327771
 20
-5.0333864937
 10
-5.6524663738
 20
-5.0352782135
 10
-5.6287397459
 20
-5.0368008201
 10
-5.6034782879
 20
-5.0379178269
 10
-5.5770767832
 20
-5.0386030461
 10
-5.55
 20
-5.0388349378
  0
LWPOLYLINE
  5
302
100
AcDbEntity
  8
IMPORT_IGES
100
AcDbPolyline
 62
7
  6
CONTINUOUS
 90
46
 70
0
 10
-4.7231303336
 20
-8.1451565739
 10
-4.7186423261
 20
-8.1571441225
 10
-4.7141228123
 20
-8.1686507345
 10
-4.7095717921
 20
-8.1796751497
 10
-4.7049720938
 20
-8.1901956805
 10
-4.700340889
 20
-8.2002351413
 10
-4.6957296931
 20
-8.2098596843
 10
-4.6911471138
 20
-8.2190739549
 10
-4.6865845434
 20
-8.2278773461
 10
-4.6820676731
 20
-8.2363272665
 10
-4.6776009917
 20
-8.2444301334
 10
-4.6731800106
 20
-8.2521847451
 10
-4.6688169549
 20
-8.2596360281
 10
-4.6645141715
 20
-8.2667901962
 10
-4.6602693136
 20
-8.2736465696
 10
-4.6560875666
 20
-8.2802387882
 10
-4.651970696
 20
-8.2865717297
 10
-4.6479169363
 20
-8.2926460137
 10
-4.6439261765
 20
-8.2984881046
 10
-4.6399997701
 20
-8.3041022677
 10
-4.6361363635
 20
-8.3094894809
 10
-4.6323317849
 20
-8.3146706225
 10
-4.6285868401
 20
-8.319650062
 10
-4.6249007233
 20
-8.3244283192
 10
-4.6212668445
 20
-8.3290199985
 10
-4.6176860046
 20
-8.3334293215
 10
-4.6141574027
 20
-8.3376566393
 10
-4.6106720464
 20
-8.341710435
 10
-4.6072314302
 20
-8.3455946933
 10
-4.6038340597
 20
-8.349309761
 10
-4.6004664595
 20
-8.3528585208
 10
-4.5971313044
 20
-8.3562455557
 10
-4.5938259195
 20
-8.3594704269
 10
-4.5905288048
 20
-8.3625285198
 10
-4.587239174
 20
-8.3654299808
 10
-4.5839578133
 20
-8.3681686651
 10
-4.5806655812
 20
-8.370715954
 10
-4.5773715809
 20
-8.3730800333
 10
-4.5740667092
 20
-8.3752570413
 10
-4.5707045145
 20
-8.3772010791
 10
-4.5672411672
 20
-8.3789320309
 10
-4.563720497
 20
-8.3804342964
 10
-4.5602275415
 20
-8.3816097602
 10
-4.5567906464
 20
-8.3824272617
 10
-4.5533814659
 20
-8.3829216697
 10
-4.55
 20
-8.3830938817
  0
LWPOLYLINE
  5
303
100
AcDbEntity
  8
IMPORT_IGES
100
AcDbPolyline
 62
7
  6
CONTINUOUS
 90
14
 70
0
 10
-4.1511317379
 20
-8.6438150819
 10
-4.1491739437
 20
-8.6508090635
 10
-4.146425507
 20
-8.6575086278
 10
-4.1430169855
 20
-8.6638595824
 10
-4.1392166028
 20
-8.6697971052
 10
-4.1349840443
 20
-8.6752875787
 10
-4.1300253293
 20
-8.6803511048
 10
-4.1244013189
 20
-8.6849913068
 10
-4.1183018119
 20
-8.689226532
 10
-4.1116736864
 20
-8.6931439574
 10
-4.1045299655
 20
-8.6968276813
 10
-4.0969945996
 20
-8.7003590309
 10
-4.0891766046
 20
-8.7038292126
 10
-4.0882115755
 20
-8.7042507179
  0
LWPOLYLINE
  5
304
100
AcDbEntity
  8
IMPORT_IGES
100
AcDbPolyline
 62
253
  6
CONTINUOUS
 90
13
 70
0
 10
-5.75
 20
-4.3864896401
 10
-5.7483275524
 20
-4.3971223269
 10
-5.7433611969
 20
-4.4075414422
 10
-5.7352172825
 20
-4.4175766762
 10
-5.724126872
 20
-4.4270202879
 10
-5.7102671415
 20
-4.4357771694
 10
-5.6936179648
 20
-4.4438297136
 10
-5.6742332514
 20
-4.4510576903
 10
-5.6524669019
 20
-4.45724579
 10
-5.6287402659
 20
-4.4622266729
 10
-5.6034787081
 20
-4.4658810447
 10
-5.5770770284
 20
-4.4681231583
 10
-5.55
 20
-4.468882542
  0
LWPOLYLINE
  5
305
100
AcDbEntity
  8
IMPORT_IGES
100
AcDbPolyline
 62
253
  6
CONTINUOUS
 90
13
 70
0
 10
-4.0129151831
 20
-7.7650606693
 10
-4.0109225409
 20
-7.7860876844
 10
-4.0054589755
 20
-7.8067553488
 10
-3.9965956576
 20
-7.826697157
 10
-3.9843811705
 20
-7.8456662134
 10
-3.9690557116
 20
-7.8631883631
 10
-3.951227462
 20
-7.8786686515
 10
-3.9315837962
 20
-7.8917802388
 10
-3.9103566429
 20
-7.9026017997
 10
-3.8875499799
 20
-7.9112024956
 10
-3.8633768836
 20
-7.9174669032
 10
-3.838357604
 20
-7.9212267748
 10
-3.8128962593
 20
-7.9224123498
  0
LWPOLYLINE
  5
306
100
AcDbEntity
  8
IMPORT_IGES
100
AcDbPolyline
 62
253
  6
CONTINUOUS
 90
8
 70
0
 10
-4.002894374
 20
-8.5994960772
 10
-4.0043123023
 20
-8.5841805008
 10
-4.0081600687
 20
-8.5691868726
 10
-4.0143551083
 20
-8.5547571699
 10
-4.0227324542
 20
-8.5411837874
 10
-4.0331640075
 20
-8.5286071491
 10
-4.0456578189
 20
-8.5170636882
 10
-4.0601743447
 20
-8.5067231028
  0
LWPOLYLINE
  5
307
100
AcDbEntity
  8
ASSI
100
AcDbPolyline
 62
7
  6
CONTINUOUS
 90
13
 70
0
 10
-7.2
 20
24.300030461
 10
-7.2017102642
 20
24.3261325878
 10
-7.2068124405
 20
24.3517877661
 10
-7.2152194218
 20
24.3765572875
 10
-7.2267876629
 20
24.4000177444
 10
-7.24131945
 20
24.4217675502
 10
-7.2585660278
 20
24.4414339722
 10
-7.2782324498
 20
24.45868055
 10
-7.2999822556
 20
24.4732123371
 10
-7.3234427125
 20
24.4847805782
 10
-7.3482122339
 20
24.4931875595
 10
-7.3738674122
 20
24.4982897358
 10
-7.399969539
 20
24.5
  0
LWPOLYLINE
  5
308
100
AcDbEntity
  8
ASSI
100
AcDbPolyline
 62
7
  6
CONTINUOUS
 90
16
 70
0
 10
-4.45
 20
-23.7500380762
 10
-4.4486505878
 20
-23.7759809831
 10
-4.4445943169
 20
-23.8017480173
 10
-4.4378423144
 20
-23.8270535846
 10
-4.4283964102
 20
-23.8517009881
 10
-4.4163505324
 20
-23.8753074461
 10
-4.4019831437
 20
-23.897354591
 10
-4.385651735
 20
-23.9174650114
 10
-4.3674650114
 20
-23.935651735
 10
-4.347354591
 20
-23.9519831437
 10
-4.3253074461
 20
-23.9663505324
 10
-4.3017009881
 20
-23.9783964102
 10
-4.2770535846
 20
-23.9878423144
 10
-4.2517480173
 20
-23.9945943169
 10
-4.2259809831
 20
-23.9986505878
 10
-4.2000380762
 20
-24.0
  0
LINE
  5
309
100
AcDbEntity
  8
IMPORT_IGES
100
AcDbLine
 62
253
  6
CONTINUOUS
 10
-4.2039117447
 20
-8.6806626415
 11
-4.2007029653
 21
-8.7751625089
  0
LINE
  5
30A
100
AcDbEntity
  8
ASSI
100
AcDbLine
 62
253
  6
CONTINUOUS
 10
-5.4995447753
 20
13.7889513116
 11
-5.4272384075
 21
10.85
  0
LWPOLYLINE
  5
30B
100
AcDbEntity
  8
IMPORT_IGES
100
AcDbPolyline
 62
7
  6
CONTINUOUS
 90
10
 70
0
 10
-4.75
 20
-7.9829598037
 10
-4.7495709781
 20
-8.0024399887
 10
-4.7484788268
 20
-8.0216225365
 10
-4.746723546
 20
-8.0405074474
 10
-4.7442731286
 20
-8.0591840269
 10
-4.7411595818
 20
-8.0775629695
 10
-4.7374789267
 20
-8.0953763575
 10
-4.7332631705
 20
-8.1125348854
 10
-4.7284803062
 20
-8.1291278589
 10
-4.7231303336
 20
-8.1451552779
  0
LINE
  5
30C
100
AcDbEntity
  8
IMPORT_IGES
100
AcDbLine
 62
253
  6
CONTINUOUS
 10
-4.1543131955
 20
-8.3830942834
 11
-4.1526247022
 21
-8.481501341
  0
LINE
  5
30D
100
AcDbEntity
  8
IMPORT_IGES
100
AcDbLine
 62
7
  6
CONTINUOUS
 10
-3.9734352694
 20
-11.052562784
 11
-4.0256082762
 21
-6.708103982
  0
LINE
  5
30E
100
AcDbEntity
  8
IMPORT_IGES
100
AcDbLine
 62
7
  6
CONTINUOUS
 10
-4.2007029653
 20
-8.7751625089
 11
-4.1734520392
 21
-11.0508823024
  0
LINE
  5
30F
100
AcDbEntity
  8
IMPORT_IGES
100
AcDbLine
 62
253
  6
CONTINUOUS
 10
-4.1756133673
 20
-6.6038306226
 11
-4.1543131955
 21
-8.3830946273
  0
LINE
  5
310
100
AcDbEntity
  8
IMPORT_IGES
100
AcDbLine
 62
253
  6
CONTINUOUS
 10
-4.1511317385
 20
-8.6438125438
 11
-4.1526247022
 21
-8.481501341
  0
LINE
  5
311
100
AcDbEntity
  8
IMPORT_IGES
100
AcDbLine
 62
7
  6
CONTINUOUS
 10
-6.05
 20
-0.755
 11
-6.05
 21
1.645
  0
LINE
  5
312
100
AcDbEntity
  8
IMPORT_IGES
100
AcDbLine
 62
7
  6
CONTINUOUS
 10
-5.9467065296
 20
-11.45
 11
-5.9467065296
 21
-11.4381387631
  0
LINE
  5
313
100
AcDbEntity
  8
IMPORT_IGES
100
AcDbLine
 62
7
  6
CONTINUOUS
 10
-5.75
 20
-1.2743342048
 11
-5.75
 21
-6.7663853498
  0
LINE
  5
314
100
AcDbEntity
  8
IMPORT_IGES
100
AcDbLine
 62
253
  6
CONTINUOUS
 10
-5.75
 20
-0.755
 11
-5.75
 21
1.645
  0
LINE
  5
315
100
AcDbEntity
  8
IMPORT_IGES
100
AcDbLine
 62
253
  6
CONTINUOUS
 10
-5.6500001411
 20
-11.45
 11
-5.6500013496
 21
-11.25
  0
LINE
  5
316
100
AcDbEntity
  8
IMPORT_IGES
100
AcDbLine
 62
253
  6
CONTINUOUS
 10
-5.55
 20
-1.3458098149
 11
-5.55
 21
-8.1451489625
  0
LINE
  5
317
100
AcDbEntity
  8
IMPORT_IGES
100
AcDbLine
 62
253
  6
CONTINUOUS
 10
-5.45
 20
-1.355
 11
-5.45
 21
-1.055
  0
LINE
  5
318
100
AcDbEntity
  8
IMPORT_IGES
100
AcDbLine
 62
253
  6
CONTINUOUS
 10
-5.1
 20
-1.055
 11
-5.1
 21
-1.355
  0
LINE
  5
319
100
AcDbEntity
  8
IMPORT_IGES
100
AcDbLine
 62
253
  6
CONTINUOUS
 10
-5.05
 20
2.345
 11
-5.05
 21
2.945
  0
LINE
  5
31A
100
AcDbEntity
  8
IMPORT_IGES
100
AcDbLine
 62
253
  6
CONTINUOUS
 10
-4.8
 20
-0.755
 11
-4.7999991816
 21
6.0440525646
  0
LINE
  5
31B
100
AcDbEntity
  8
IMPORT_IGES
100
AcDbLine
 62
7
  6
CONTINUOUS
 10
-4.75
 20
-7.9829598037
 11
-4.75
 21
-1.4904696055
  0
LINE
  5
31C
100
AcDbEntity
  8
ASSI
100
AcDbLine
 62
7
  6
CONTINUOUS
 10
-4.6
 20
10.9
 11
-4.6001610877
 21
13.8009067479
  0
LINE
  5
31D
100
AcDbEntity
  8
IMPORT_IGES
100
AcDbLine
 62
253
  6
CONTINUOUS
 10
-4.55
 20
-8.3830938817
 11
-4.55
 21
-1.2360899655
  0
LINE
  5
31E
100
AcDbEntity
  8
IMPORT_IGES
100
AcDbLine
 62
7
  6
CONTINUOUS
 10
-4.55
 20
-1.2360899655
 11
-4.55
 21
-0.9933071266
  0
LINE
  5
31F
100
AcDbEntity
  8
IMPORT_IGES
100
AcDbLine
 62
7
  6
CONTINUOUS
 10
-4.5
 20
-0.7550000001
 11
-4.5
 21
2.978408475
  0
LINE
  5
320
100
AcDbEntity
  8
IMPORT_IGES
100
AcDbLine
 62
7
  6
CONTINUOUS
 10
-4.5
 20
4.2605817051
 11
-4.5
 21
6.044603557
  0
LINE
  5
321
100
AcDbEntity
  8
ASSI
100
AcDbLine
 62
7
  6
CONTINUOUS
 10
-4.45
 20
-23.7500380762
 11
-4.45
 21
-23.4179449472
  0
LINE
  5
322
100
AcDbEntity
  8
ASSI
100
AcDbLine
 62
7
  6
CONTINUOUS
 10
-4.45
 20
-22.9820550528
 11
-4.45
 21
-22.4
  0
LINE
  5
323
100
AcDbEntity
  8
ASSI
100
AcDbLine
 62
7
  6
CONTINUOUS
 10
-4.45
 20
22.4
 11
-4.45
 21
22.9820550528
  0
LINE
  5
324
100
AcDbEntity
  8
ASSI
100
AcDbLine
 62
7
  6
CONTINUOUS
 10
-4.45
 20
23.4179449472
 11
-4.45
 21
23.7500380762
  0
LINE
  5
325
100
AcDbEntity
  8
ASSI
100
AcDbLine
 62
7
  6
CONTINUOUS
 10
-4.3539971429
 20
23.5393800954
 11
-4.3539971429
 21
22.8606199046
  0
LINE
  5
326
100
AcDbEntity
  8
ASSI
100
AcDbLine
 62
7
  6
CONTINUOUS
 10
-4.3539971429
 20
-22.8606199046
 11
-4.3539971429
 21
-23.5393800954
  0
LINE
  5
327
100
AcDbEntity
  8
IMPORT_IGES
100
AcDbLine
 62
253
  6
CONTINUOUS
 10
-4.2094905981
 20
-8.6808532807
 11
-4.2094905995
 21
-8.6405804277
  0
LINE
  5
328
100
AcDbEntity
  8
IMPORT_IGES
100
AcDbLine
 62
253
  6
CONTINUOUS
 10
-4.2
 20
8.2748812075
 11
-4.1999999992
 21
10.65
  0
LINE
  5
329
100
AcDbEntity
  8
IMPORT_IGES
100
AcDbLine
 62
253
  6
CONTINUOUS
 10
-4.1734520392
 20
-11.0508823024
 11
-4.1734592499
 21
-11.25
  0
LINE
  5
32A
100
AcDbEntity
  8
IMPORT_IGES
100
AcDbLine
 62
7
  6
CONTINUOUS
 10
-4.1048535023
 20
7.3358577305
 11
-4.1048535023
 21
7.2676759124
  0
LINE
  5
32B
100
AcDbEntity
  8
IMPORT_IGES
100
AcDbLine
 62
253
  6
CONTINUOUS
 10
-4.0877513367
 20
2.8132052805
 11
-4.087751337
 21
3.0132052805
  0
LINE
  5
32C
100
AcDbEntity
  8
IMPORT_IGES
100
AcDbLine
 62
7
  6
CONTINUOUS
 10
-4.0
 20
10.45
 11
-4.0
 21
8.2866771736
  0
LINE
  5
32D
100
AcDbEntity
  8
ASSI
100
AcDbLine
 62
7
  6
CONTINUOUS
 10
-5.5
 20
10.9
 11
-5.4995447753
 21
13.7889513116
  0
LWPOLYLINE
  5
32E
100
AcDbEntity
  8
IMPORT_IGES
100
AcDbPolyline
 62
253
  6
CONTINUOUS
 90
10
 70
0
 10
-4.0256082779
 20
-6.7081038204
 10
-4.0253274971
 20
-6.6792684516
 10
-4.0238075542
 20
-6.6511815178
 10
-4.021092188
 20
-6.6238415365
 10
-4.0172538695
 20
-6.5972097392
 10
-4.0123360477
 20
-6.5713227586
 10
-4.006301257
 20
-6.5462916039
 10
-3.9991334238
 20
-6.5221517712
 10
-3.990889146
 20
-6.4988642784
 10
-3.9816050143
 20
-6.4764276556
  0
LWPOLYLINE
  5
32F
100
AcDbEntity
  8
IMPORT_IGES
100
AcDbPolyline
 62
253
  6
CONTINUOUS
 90
7
 70
0
 10
-4.2
 20
8.2748812075
 10
-4.2080748485
 20
7.8863345751
 10
-4.2326904938
 20
7.4988011896
 10
-4.2738469358
 20
7.112313853
 10
-4.3316661424
 20
6.7259106829
 10
-4.4060261458
 20
6.3406197805
 10
-4.4137885998
 20
6.3079382964
  0
LINE
  5
330
100
AcDbEntity
  8
ASSI
100
AcDbLine
 62
253
  6
CONTINUOUS
 10
-4.6001610877
 20
13.8009067479
 11
-4.6727615925
 21
10.85
  0
LINE
  5
331
100
AcDbEntity
  8
IMPORT_IGES
100
AcDbLine
 62
253
  6
CONTINUOUS
 10
-3.8210480159
 20
7.796447098
 11
-3.8253537172
 21
7.6929399047
  0
LINE
  5
332
100
AcDbEntity
  8
IMPORT_IGES
100
AcDbLine
 62
253
  6
CONTINUOUS
 10
-3.8253537172
 20
7.6929399047
 11
-3.8330646792
 21
7.5297602697
  0
LWPOLYLINE
  5
333
100
AcDbEntity
  8
ASSI
100
AcDbPolyline
 62
7
  6
CONTINUOUS
 90
16
 70
0
 10
-4.45
 20
23.7500380762
 10
-4.4486505878
 20
23.7759809831
 10
-4.4445943169
 20
23.8017480173
 10
-4.4378423144
 20
23.8270535846
 10
-4.4283964102
 20
23.8517009881
 10
-4.4163505324
 20
23.8753074461
 10
-4.4019831437
 20
23.897354591
 10
-4.385651735
 20
23.9174650114
 10
-4.3674650114
 20
23.935651735
 10
-4.347354591
 20
23.9519831437
 10
-4.3253074461
 20
23.9663505324
 10
-4.3017009881
 20
23.9783964102
 10
-4.2770535846
 20
23.9878423144
 10
-4.2517480173
 20
23.9945943169
 10
-4.2259809831
 20
23.9986505878
 10
-4.2000380762
 20
24.0
  0
LINE
  5
334
100
AcDbEntity
  8
IMPORT_IGES
100
AcDbLine
 62
253
  6
CONTINUOUS
 10
-3.8330646792
 20
7.5297602697
 11
-3.8375463848
 21
7.4428932182
  0
LWPOLYLINE
  5
335
100
AcDbEntity
  8
IMPORT_IGES
100
AcDbPolyline
 62
253
  6
CONTINUOUS
 90
10
 70
0
 10
-3.8210224345
 20
7.7964466623
 10
-3.8166100489
 20
7.8665898451
 10
-3.8127167693
 20
7.9367445714
 10
-3.8093425956
 20
8.0069108412
 10
-3.8064874891
 20
8.0770905884
 10
-3.8041514885
 20
8.1472818791
 10
-3.8023347102
 20
8.2174789117
 10
-3.8010371927
 20
8.2876797523
 10
-3.8002588975
 20
8.3578863348
 10
-3.8
 20
10.65
  0
LWPOLYLINE
  5
336
100
AcDbEntity
  8
ASSI
100
AcDbPolyline
 62
7
  6
CONTINUOUS
 90
13
 70
0
 10
-7.2
 20
-24.300030461
 10
-7.2017102642
 20
-24.3261325878
 10
-7.2068124405
 20
-24.3517877661
 10
-7.2152194218
 20
-24.3765572875
 10
-7.2267876629
 20
-24.4000177444
 10
-7.24131945
 20
-24.4217675502
 10
-7.2585660278
 20
-24.4414339722
 10
-7.2782324498
 20
-24.45868055
 10
-7.2999822556
 20
-24.4732123371
 10
-7.3234427125
 20
-24.4847805782
 10
-7.3482122339
 20
-24.4931875594
 10
-7.3738674122
 20
-24.4982897358
 10
-7.399969539
 20
-24.5
  0
LWPOLYLINE
  5
337
100
AcDbEntity
  8
IMPORT_IGES
100
AcDbPolyline
 62
7
  6
CONTINUOUS
 90
10
 70
0
 10
-4.7454596355
 20
-1.3919876275
 10
-4.7464154558
 20
-1.4029098869
 10
-4.7472584759
 20
-1.4138379198
 10
-4.7479886957
 20
-1.4247717261
 10
-4.7486061602
 20
-1.4357122763
 10
-4.7491108244
 20
-1.4466585999
 10
-4.7495025539
 20
-1.4576077858
 10
-4.749781304
 20
-1.4685588635
 10
-4.7499471193
 20
-1.4795128034
 10
-4.75
 20
-1.4904696055
  0
LWPOLYLINE
  5
338
100
AcDbEntity
  8
IMPORT_IGES
100
AcDbPolyline
 62
253
  6
CONTINUOUS
 90
13
 70
0
 10
-4.0
 20
8.2866771729
 10
-3.9983309363
 20
8.3049096152
 10
-3.9933724381
 20
8.3227819842
 10
-3.9852374924
 20
8.3400021161
 10
-3.9741524536
 20
8.3562147949
 10
-3.9602924049
 20
8.3712537375
 10
-3.9436409406
 20
8.385082791
 10
-3.9242548253
 20
8.3974941301
 10
-3.9024863108
 20
8.4081197915
 10
-3.8787563157
 20
8.416672385
 10
-3.8534901281
 20
8.4229469
 10
-3.8270830045
 20
8.426796022
 10
-3.8
 20
8.4280986591
  0
LWPOLYLINE
  5
339
100
AcDbEntity
  8
IMPORT_IGES
100
AcDbPolyline
 62
253
  6
CONTINUOUS
 90
13
 70
0
 10
-4.0
 20
10.3621320344
 10
-3.9982889723
 20
10.3805912255
 10
-3.9931851653
 20
10.3987345747
 10
-3.9847759065
 20
10.4162516444
 10
-3.9732050808
 20
10.4328427125
 10
-3.9586706681
 20
10.4482239013
 10
-3.9414213562
 20
10.4621320344
 10
-3.9217522858
 20
10.4743291397
 10
-3.9
 20
10.4846065215
 10
-3.8765366865
 20
10.4927883308
 10
-3.851763809
 20
10.4987345747
 10
-3.8261052384
 20
10.5023435113
 10
-3.8
 20
10.5035533906
  0
LWPOLYLINE
  5
33A
100
AcDbEntity
  8
IMPORT_IGES
100
AcDbPolyline
 62
7
  6
CONTINUOUS
 90
4
 70
0
 10
-4.7168113532
 20
-1.2159371538
 10
-4.7189925263
 20
-1.2265975866
 10
-4.7333362446
 20
-1.3088068398
 10
-4.7454596355
 20
-1.3919876754
  0
LWPOLYLINE
  5
33B
100
AcDbEntity
  8
IMPORT_IGES
100
AcDbPolyline
 62
7
  6
CONTINUOUS
 90
31
 70
0
 10
-7.3800828182
 20
-8.2542999891
 10
-7.3705262163
 20
-8.2227560858
 10
-7.3615845778
 20
-8.1901063649
 10
-7.3532579028
 20
-8.1563508266
 10
-7.3456304309
 20
-8.1214984454
 10
-7.3386179225
 20
-8.0855402468
 10
-7.3319676586
 20
-8.0484493063
 10
-7.3256249465
 20
-8.0102202249
 10
-7.3196444789
 20
-7.9708584017
 10
-7.3139376149
 20
-7.9303531097
 10
-7.308489045
 20
-7.8887301105
 10
-7.3033140787
 20
-7.8459636426
 10
-7.2983700032
 20
-7.8019656948
 10
-7.2936473549
 20
-7.7567452191
 10
-7.2891555975
 20
-7.7102932634
 10
-7.284880409
 20
-7.662494961
 10
-7.2808145687
 20
-7.6133426428
 10
-7.2769652973
 20
-7.5628439779
 10
-7.2733399351
 20
-7.5109071062
 10
-7.269933612
 20
-7.4575333275
 10
-7.2667511981
 20
-7.4027213422
 10
-7.2638146443
 20
-7.3463753914
 10
-7.2611190239
 20
-7.2884971036
 10
-7.2586692636
 20
-7.2290848504
 10
-7.2565020942
 20
-7.1680379879
 10
-7.2546114983
 20
-7.1053542047
 10
-7.2530034935
 20
-7.0410358121
 10
-7.2517328628
 20
-6.9749891013
 10
-7.2508178676
 20
-6.9071828358
 10
-7.2502402467
 20
-6.8376482519
 10
-7.25
 20
-0.771063294
  0
LWPOLYLINE
  5
33C
100
AcDbEntity
  8
IMPORT_IGES
100
AcDbPolyline
 62
253
  6
CONTINUOUS
 90
3
 70
0
 10
-2.6375594702
 20
6.4779419294
 10
-2.6032155077
 20
6.585524281
 10
-2.5000473188
 20
6.9213177878
  0
LINE
  5
33D
100
AcDbEntity
  8
IMPORT_IGES
100
AcDbLine
 62
253
  6
CONTINUOUS
 10
-5.0968568176
 20
-1.3548340622
 11
-5.1100095844
 21
-1.3919875797
  0
LWPOLYLINE
  5
33E
100
AcDbEntity
  8
IMPORT_IGES
100
AcDbPolyline
 62
253
  6
CONTINUOUS
 90
15
 70
0
 10
-4.3658805718
 20
4.603248457
 10
-4.3146407254
 20
4.7451953736
 10
-4.2387940202
 20
4.9201533469
 10
-4.1491582866
 20
5.0993850448
 10
-4.0467045904
 20
5.2789696712
 10
-3.9344920234
 20
5.4543322964
 10
-3.811909703
 20
5.6245550639
 10
-3.6795685118
 20
5.7905558303
 10
-3.5423601886
 20
5.9505132356
 10
-3.4066055591
 20
6.0985752181
 10
-3.2659837976
 20
6.2405938395
 10
-3.1064241666
 20
6.3923039247
 10
-2.9232364202
 20
6.5589504153
 10
-2.7211108043
 20
6.7352883697
 10
-2.5000473188
 20
6.9213177878
  0
LINE
  5
33F
100
AcDbEntity
  8
IMPORT_IGES
100
AcDbLine
 62
253
  6
CONTINUOUS
 10
-2.5759347913
 20
6.8058531341
 11
-2.5000316096
 21
6.9213468442
  0
LINE
  5
340
100
AcDbEntity
  8
IMPORT_IGES
100
AcDbLine
 62
253
  6
CONTINUOUS
 10
-2.9021484348
 20
6.3149581552
 11
-2.8051029622
 21
6.4618542326
  0
LINE
  5
341
100
AcDbEntity
  8
IMPORT_IGES
100
AcDbLine
 62
253
  6
CONTINUOUS
 10
-2.8051029622
 20
6.4618542326
 11
-2.5759347913
 21
6.8058531341
  0
LWPOLYLINE
  5
342
100
AcDbEntity
  8
IMPORT_IGES
100
AcDbPolyline
 62
253
  6
CONTINUOUS
 90
10
 70
0
 10
-7.3974980996
 20
-0.571086715
 10
-7.3696300248
 20
-0.5312287525
 10
-7.3385846811
 20
-0.4955827491
 10
-7.3043620685
 20
-0.4641487049
 10
-7.2663009562
 20
-0.4366641518
 10
-7.225062575
 20
-0.4133915579
 10
-7.182630617
 20
-0.3951183274
 10
-7.139666313
 20
-0.3821069282
 10
-7.0955084323
 20
-0.3740948923
 10
-7.0501569748
 20
-0.3710822198
  0
LWPOLYLINE
  5
343
100
AcDbEntity
  8
IMPORT_IGES
100
AcDbPolyline
 62
253
  6
CONTINUOUS
 90
6
 70
0
 10
-7.2275189665
 20
-0.6710813008
 10
-7.2395103758
 20
-0.6864668702
 10
-7.2515534456
 20
-0.7007696309
 10
-7.2644613129
 20
-0.713597917
 10
-7.2791899012
 20
-0.7243329929
 10
-7.2963732994
 20
-0.7328161965
  0
LWPOLYLINE
  5
344
100
AcDbEntity
  8
IMPORT_IGES
100
AcDbPolyline
 62
253
  6
CONTINUOUS
 90
13
 70
0
 10
5.55
 20
-4.4688807149
 10
5.5758109926
 20
-4.4681917139
 10
5.6011033267
 20
-4.4661457118
 10
5.6254635731
 20
-4.4627906733
 10
5.648387401
 20
-4.4582218341
 10
5.6696440406
 20
-4.452512205
 10
5.6891909502
 20
-4.4456534593
 10
5.7067369808
 20
-4.4376675243
 10
5.7217585943
 20
-4.4287004156
 10
5.7338481285
 20
-4.4189266262
 10
5.7427165107
 20
-4.4085218491
 10
5.7481571519
 20
-4.397648474
 10
5.749999999
 20
-4.3864978885
  0
LWPOLYLINE
  5
345
100
AcDbEntity
  8
IMPORT_IGES
100
AcDbPolyline
 62
253
  6
CONTINUOUS
 90
13
 70
0
 10
-7.45
 20
-4.4688807149
 10
-7.4241890074
 20
-4.4681917139
 10
-7.3988966733
 20
-4.4661457118
 10
-7.3745364269
 20
-4.4627906733
 10
-7.351612599
 20
-4.4582218341
 10
-7.3303559594
 20
-4.452512205
 10
-7.3108090498
 20
-4.4456534593
 10
-7.2932630192
 20
-4.4376675243
 10
-7.2782414057
 20
-4.4287004156
 10
-7.2661518715
 20
-4.4189266262
 10
-7.2572834893
 20
-4.4085218491
 10
-7.2518428481
 20
-4.397648474
 10
-7.250000001
 20
-4.3864978885
  0
LWPOLYLINE
  5
346
100
AcDbEntity
  8
IMPORT_IGES
100
AcDbPolyline
 62
253
  6
CONTINUOUS
 90
13
 70
0
 10
8.0530247561
 20
-4.4688807123
 10
8.0916624141
 20
-4.4684111395
 10
8.1294972132
 20
-4.4659053059
 10
8.1659162394
 20
-4.4614302995
 10
8.2001650463
 20
-4.4551229573
 10
8.2319176595
 20
-4.4470895137
 10
8.2611433091
 20
-4.4373114349
 10
8.2874192061
 20
-4.4258107769
 10
8.3099613534
 20
-4.4127935669
 10
8.328165202
 20
-4.3985073628
 10
8.3416001186
 20
-4.3832042937
 10
8.3499568142
 20
-4.3671190113
 10
8.3529790623
 20
-4.3505298058
  0
LWPOLYLINE
  5
347
100
AcDbEntity
  8
IMPORT_IGES
100
AcDbPolyline
 62
253
  6
CONTINUOUS
 90
13
 70
0
 10
-8.0415784153
 20
-5.0388349419
 10
-8.0803322919
 20
-5.0391840145
 10
-8.1182771703
 20
-5.0388965122
 10
-8.1547945857
 20
-5.0379852612
 10
-8.1891238257
 20
-5.0364828352
 10
-8.2209358907
 20
-5.0344178657
 10
-8.2501984834
 20
-5.0317842587
 10
-8.2764844252
 20
-5.028583441
 10
-8.2990032302
 20
-5.0248691104
 10
-8.3171457195
 20
-5.0207102048
 10
-8.3304791042
 20
-5.016179273
 10
-8.3386933848
 20
-5.0113449583
 10
-8.341532724
 20
-5.0062900837
  0
LWPOLYLINE
  5
348
100
AcDbEntity
  8
IMPORT_IGES
100
AcDbPolyline
 62
253
  6
CONTINUOUS
 90
13
 70
0
 10
-7.45
 20
-5.0388362272
 10
-7.4241893207
 20
-5.0386250311
 10
-7.3988972009
 20
-5.0379991493
 10
-7.374537065
 20
-5.0369732402
 10
-7.3516132219
 20
-5.0355764587
 10
-7.3303564847
 20
-5.0338310735
 10
-7.3108094817
 20
-5.0317344009
 10
-7.2932638616
 20
-5.0292931756
 10
-7.27824249
 20
-5.0265520187
 10
-7.2661520943
 20
-5.0235640006
 10
-7.2572824016
 20
-5.0203826932
 10
-7.251841357
 20
-5.0170578138
 10
-7.25
 20
-5.0136478931
  0
LWPOLYLINE
  5
349
100
AcDbEntity
  8
IMPORT_IGES
100
AcDbPolyline
 62
253
  6
CONTINUOUS
 90
13
 70
0
 10
5.55
 20
-5.0388338308
 10
5.5758106793
 20
-5.0386236998
 10
5.6011027991
 20
-5.0379986168
 10
5.625462935
 20
-5.0369732402
 10
5.6483867781
 20
-5.0355766362
 10
5.6696435153
 20
-5.0338311623
 10
5.6891905183
 20
-5.0317344009
 10
5.7067361384
 20
-5.0292931756
 10
5.72175751
 20
-5.0265520187
 10
5.7338479057
 20
-5.0235640006
 10
5.7427175984
 20
-5.0203826932
 10
5.748158643
 20
-5.0170578138
 10
5.75
 20
-5.0136478931
  0
LINE
  5
34A
100
AcDbEntity
  8
IMPORT_IGES
100
AcDbLine
 62
253
  6
CONTINUOUS
 10
5.55
 20
-5.0388340209
 11
4.75
 21
-5.0388401477
  0
LINE
  5
34B
100
AcDbEntity
  8
IMPORT_IGES
100
AcDbLine
 62
253
  6
CONTINUOUS
 10
-7.45
 20
-5.0388366987
 11
-8.0415782852
 21
-5.0388371703
  0
LINE
  5
34C
100
AcDbEntity
  8
IMPORT_IGES
100
AcDbLine
 62
253
  6
CONTINUOUS
 10
-5.55
 20
-5.0388340414
 11
-4.75
 21
-5.038841877
  0
LINE
  5
34D
100
AcDbEntity
  8
IMPORT_IGES
100
AcDbLine
 62
253
  6
CONTINUOUS
 10
7.45
 20
-5.038839919
 11
8.041578185
 21
-5.0388424615
  0
LINE
  5
34E
100
AcDbEntity
  8
IMPORT_IGES
100
AcDbLine
 62
7
  6
CONTINUOUS
 10
-1.1048535023
 20
-4.6165189879
 11
1.1048535023
 21
-4.6165189879
  0
LINE
  5
34F
100
AcDbEntity
  8
ASSI
100
AcDbLine
 62
7
  6
CONTINUOUS
 10
8.7483942934
 20
-4.5614108686
 11
8.3492981196
 21
-4.5614108686
  0
LINE
  5
350
100
AcDbEntity
  8
ASSI
100
AcDbLine
 62
7
  6
CONTINUOUS
 10
-8.3492981196
 20
-4.5614108686
 11
-8.7483942934
 21
-4.5614108686
  0
LINE
  5
351
100
AcDbEntity
  8
IMPORT_IGES
100
AcDbLine
 62
253
  6
CONTINUOUS
 10
-8.0530247281
 20
-4.4688776069
 11
-7.4499999999
 21
-4.4688786577
  0
LINE
  5
352
100
AcDbEntity
  8
IMPORT_IGES
100
AcDbLine
 62
253
  6
CONTINUOUS
 10
7.45
 20
-4.4688799861
 11
8.0530246782
 21
-4.4688797904
  0
LINE
  5
353
100
AcDbEntity
  8
IMPORT_IGES
100
AcDbLine
 62
253
  6
CONTINUOUS
 10
-5.55
 20
-4.4688827651
 11
-4.75
 21
-4.4688773296
  0
LINE
  5
354
100
AcDbEntity
  8
IMPORT_IGES
100
AcDbLine
 62
253
  6
CONTINUOUS
 10
4.75
 20
-4.4688751909
 11
5.55
 21
-4.468881256
  0
LINE
  5
355
100
AcDbEntity
  8
ASSI
100
AcDbLine
 62
253
  6
CONTINUOUS
 10
-8.3519162797
 20
-4.4114165802
 11
-8.74846397
 21
-4.4114165802
  0
LINE
  5
356
100
AcDbEntity
  8
IMPORT_IGES
100
AcDbLine
 62
7
  6
CONTINUOUS
 10
-1.4048535023
 20
-4.0459970184
 11
1.4048535023
 21
-4.0459970184
  0
LINE
  5
357
100
AcDbEntity
  8
ASSI
100
AcDbLine
 62
253
  6
CONTINUOUS
 10
8.3592968599
 20
-3.9885834198
 11
8.74846397
 21
-3.9885834198
  0
LWPOLYLINE
  5
358
100
AcDbEntity
  8
IMPORT_IGES
100
AcDbPolyline
 62
253
  6
CONTINUOUS
 90
13
 70
0
 10
7.45
 20
-5.0388349378
 10
7.4241890074
 20
-5.0386243096
 10
7.3988966734
 20
-5.0379988452
 10
7.3745364269
 20
-5.0369732074
 10
7.3516125991
 20
-5.0355765098
 10
7.3303559594
 20
-5.0338310719
 10
7.3108090498
 20
-5.0317343481
 10
7.2932625642
 20
-5.0292929695
 10
7.2782406551
 20
-5.0265516314
 10
7.2661518715
 20
-5.023563935
 10
7.2572846648
 20
-5.0203837202
 10
7.2518443367
 20
-5.0170605589
 10
7.250000004
 20
-5.0136529364
  0
LWPOLYLINE
  5
359
100
AcDbEntity
  8
IMPORT_IGES
100
AcDbPolyline
 62
253
  6
CONTINUOUS
 90
13
 70
0
 10
8.0415782264
 20
-5.0388424622
 10
8.0803324584
 20
-5.0391881913
 10
8.1182776378
 20
-5.0388981723
 10
8.1547952885
 20
-5.037985233
 10
8.1891246927
 20
-5.0364822273
 10
8.220936844
 20
-5.03441751
 10
8.2501994415
 20
-5.0317841542
 10
8.276485317
 20
-5.0285833107
 10
8.299003993
 20
-5.0248689587
 10
8.3171462999
 20
-5.0207100406
 10
8.3304794747
 20
-5.0161791084
 10
8.3386935519
 20
-5.0113448058
 10
8.3415327263
 20
-5.0062899562
  0
LWPOLYLINE
  5
35A
100
AcDbEntity
  8
IMPORT_IGES
100
AcDbPolyline
 62
253
  6
CONTINUOUS
 90
13
 70
0
 10
7.45
 20
-4.4688801819
 10
7.4241893207
 20
-4.4681914346
 10
7.3988972009
 20
-4.4661456508
 10
7.374537065
 20
-4.4627907804
 10
7.3516132219
 20
-4.4582220186
 10
7.3303564847
 20
-4.4525123863
 10
7.3108094817
 20
-4.4456536317
 10
7.2932638559
 20
-4.4376679592
 10
7.2782424807
 20
-4.4287011579
 10
7.2661520943
 20
-4.4189268405
 10
7.2572824161
 20
-4.408520256
 10
7.2518413753
 20
-4.3976440348
 10
7.25
 20
-4.3864896401
  0
LINE
  5
35B
100
AcDbEntity
  8
IMPORT_IGES
100
AcDbLine
 62
253
  6
CONTINUOUS
 10
-7.2275187086
 20
-0.6710814526
 11
-7.3974980996
 21
-0.571086715
  0
LWPOLYLINE
  5
35C
100
AcDbEntity
  8
IMPORT_IGES
100
AcDbPolyline
 62
253
  6
CONTINUOUS
 90
7
 70
0
 10
7.3303564851
 20
-10.4495323007
 10
7.3108094816
 20
-10.4362356585
 10
7.2932638615
 20
-10.4207542906
 10
7.2782424899
 20
-10.4033708651
 10
7.2661520942
 20
-10.3844219433
 10
7.2572824015
 20
-10.3642472634
 10
7.2518413568
 20
-10.3431621104
  0
LWPOLYLINE
  5
35D
100
AcDbEntity
  8
IMPORT_IGES
100
AcDbPolyline
 62
7
  6
CONTINUOUS
 90
10
 70
0
 10
-6.1060818204
 20
-0.371081606
 10
-6.1550996671
 20
-0.3128983375
 10
-6.1987747816
 20
-0.251803718
 10
-6.2371071638
 20
-0.1877977473
 10
-6.2702784461
 20
-0.1204220384
 10
-6.2981069962
 20
-0.0501349785
 10
-6.3200479164
 20
0.0216882715
 10
-6.3359195741
 20
0.0945893243
 10
-6.345903602
 20
0.1690265671
 10
-6.35
 20
0.245
  0
LWPOLYLINE
  5
35E
100
AcDbEntity
  8
IMPORT_IGES
100
AcDbPolyline
 62
253
  6
CONTINUOUS
 90
13
 70
0
 10
-5.75
 20
-1.3095966325
 10
-5.7483275117
 20
-1.3202294483
 10
-5.7433610575
 20
-1.3306486519
 10
-5.7352170226
 20
-1.3406839314
 10
-5.7241265201
 20
-1.3501275368
 10
-5.7102667495
 20
-1.3588843781
 10
-5.6936175463
 20
-1.3669368839
 10
-5.6742327771
 20
-1.3741649052
 10
-5.6524663738
 20
-1.3803530475
 10
-5.6287397459
 20
-1.3853337571
 10
-5.6034782879
 20
-1.3889876791
 10
-5.5770767832
 20
-1.3912291494
 10
-5.55
 20
-1.3919877073
  0
LINE
  5
35F
100
AcDbEntity
  8
IMPORT_IGES
100
AcDbLine
 62
253
  6
CONTINUOUS
 10
-3.7778043933
 20
-10.8472710152
 11
-3.8129292279
 21
-7.9224178635
  0
LINE
  5
360
100
AcDbEntity
  8
IMPORT_IGES
100
AcDbLine
 62
253
  6
CONTINUOUS
 10
-3.8203932811
 20
-7.1455020228
 11
-3.832129547
 21
-6.1682203415
  0
LINE
  5
361
100
AcDbEntity
  8
IMPORT_IGES
100
AcDbLine
 62
7
  6
CONTINUOUS
 10
-3.773451163
 20
-11.2499999999
 11
-3.7778050669
 21
-10.8472710223
  0
LINE
  5
362
100
AcDbEntity
  8
IMPORT_IGES
100
AcDbLine
 62
7
  6
CONTINUOUS
 10
-3.8203930427
 20
-7.1455020204
 11
-3.8129292279
 21
-7.9224155467
  0
LINE
  5
363
100
AcDbEntity
  8
0
100
AcDbLine
 62
7
  6
CONTINUOUS
 10
-3.7340923596
 20
-11.5117237174
 11
-3.7340923596
 21
-11.6117237174
  0
LINE
  5
364
100
AcDbEntity
  8
0
100
AcDbLine
 62
253
  6
CONTINUOUS
 10
-3.644625439
 20
-11.5117237174
 11
-3.644625439
 21
-11.6117237174
  0
LINE
  5
365
100
AcDbEntity
  8
0
100
AcDbLine
 62
253
  6
CONTINUOUS
 10
-3.556441145
 20
-11.5117237174
 11
-3.556441145
 21
-11.6117237174
  0
LINE
  5
366
100
AcDbEntity
  8
RACCORDO
100
AcDbLine
 62
7
  6
CONTINUOUS
 10
-3.4
 20
-14.1
 11
-3.4
 21
-15.5
  0
LINE
  5
367
100
AcDbEntity
  8
0
100
AcDbLine
 62
7
  6
CONTINUOUS
 10
-3.2387188245
 20
-11.5117237174
 11
-3.2387188245
 21
-11.6117237174
  0
LINE
  5
368
100
AcDbEntity
  8
0
100
AcDbLine
 62
7
  6
CONTINUOUS
 10
-3.203701048
 20
-11.5117237174
 11
-3.203701048
 21
-11.6117237174
  0
LINE
  5
369
100
AcDbEntity
  8
ASSI
100
AcDbLine
 62
7
  6
CONTINUOUS
 10
-3.1351059998
 20
-21.2252970227
 11
-3.1351059998
 21
-20.8901985088
  0
LINE
  5
36A
100
AcDbEntity
  8
ASSI
100
AcDbLine
 62
7
  6
CONTINUOUS
 10
-3.1351059998
 20
20.8901985088
 11
-3.1351059998
 21
21.2252970227
  0
LINE
  5
36B
100
AcDbEntity
  8
0
100
AcDbLine
 62
7
  6
CONTINUOUS
 10
-2.9372242261
 20
-11.5117237174
 11
-2.9372242261
 21
-11.6117237174
  0
LINE
  5
36C
100
AcDbEntity
  8
IMPORT_IGES
100
AcDbLine
 62
7
  6
CONTINUOUS
 10
-2.9048535023
 20
3.3144957592
 11
-2.9048535023
 21
3.3227891219
  0
LINE
  5
36D
100
AcDbEntity
  8
0
100
AcDbLine
 62
7
  6
CONTINUOUS
 10
-2.6758720685
 20
-11.5117237174
 11
-2.6758720685
 21
-11.6117237174
  0
LINE
  5
36E
100
AcDbEntity
  8
0
100
AcDbLine
 62
7
  6
CONTINUOUS
 10
-2.640854292
 20
-11.5117237174
 11
-2.640854292
 21
-11.6117237174
  0
LINE
  5
36F
100
AcDbEntity
  8
IMPORT_IGES
100
AcDbLine
 62
253
  6
CONTINUOUS
 10
-2.6048535023
 20
3.5543080906
 11
-2.6048535023
 21
3.3097338544
  0
LINE
  5
370
100
AcDbEntity
  8
IMPORT_IGES
100
AcDbLine
 62
253
  6
CONTINUOUS
 10
-2.6048535023
 20
-3.9438955742
 11
-2.6048535023
 21
-4.148729959
  0
LINE
  5
371
100
AcDbEntity
  8
0
100
AcDbLine
 62
253
  6
CONTINUOUS
 10
-2.2958006192
 20
-11.5117237174
 11
-2.2958006192
 21
-11.6117237174
  0
LINE
  5
372
100
AcDbEntity
  8
0
100
AcDbLine
 62
253
  6
CONTINUOUS
 10
-2.2172242017
 20
-11.5117237174
 11
-2.2172242017
 21
-11.6117237174
  0
LINE
  5
373
100
AcDbEntity
  8
0
100
AcDbLine
 62
7
  6
CONTINUOUS
 10
-2.1326690961
 20
-11.5117237174
 11
-2.1326690961
 21
-11.6117237174
  0
LINE
  5
374
100
AcDbEntity
  8
0
100
AcDbLine
 62
7
  6
CONTINUOUS
 10
-2.0891100217
 20
-11.5117237174
 11
-2.0891100217
 21
-11.6117237174
  0
LINE
  5
375
100
AcDbEntity
  8
ASSI
100
AcDbLine
 62
7
  6
CONTINUOUS
 10
-2.0
 20
-13.1929265842
 11
-2.0
 21
-11.6117237174
  0
LINE
  5
376
100
AcDbEntity
  8
0
100
AcDbLine
 62
253
  6
CONTINUOUS
 10
-1.9996432454
 20
-11.5117237174
 11
-1.9996432454
 21
-11.6117237174
  0
LINE
  5
377
100
AcDbEntity
  8
0
100
AcDbLine
 62
253
  6
CONTINUOUS
 10
-1.9114588071
 20
-11.5117237174
 11
-1.9114588071
 21
-11.6117237174
  0
LWPOLYLINE
  5
378
100
AcDbEntity
  8
IMPORT_IGES
100
AcDbPolyline
 62
253
  6
CONTINUOUS
 90
5
 70
0
 10
-3.8
 20
2.8132052805
 10
-3.799917264
 20
2.4665843596
 10
-3.8003542982
 20
2.416270204
 10
-3.8010297546
 20
2.3649577753
 10
-3.801943633
 20
2.3132065629
  0
LINE
  5
379
100
AcDbEntity
  8
ASSI
100
AcDbLine
 62
7
  6
CONTINUOUS
 10
5.5
 20
10.9
 11
5.45
 21
10.85
  0
LINE
  5
37A
100
AcDbEntity
  8
ASSI
100
AcDbLine
 62
253
  6
CONTINUOUS
 10
6.9101323002
 20
10.8101132618
 11
6.9996669794
 21
10.8996479409
  0
LINE
  5
37B
100
AcDbEntity
  8
ASSI
100
AcDbLine
 62
253
  6
CONTINUOUS
 10
7.4101132618
 20
10.3101323002
 11
7.4995066553
 21
10.3995256938
  0
LINE
  5
37C
100
AcDbEntity
  8
IMPORT_IGES
100
AcDbLine
 62
253
  6
CONTINUOUS
 10
-6.05
 20
-0.3184195839
 11
-6.1060815424
 21
-0.3710819827
  0
LWPOLYLINE
  5
37D
100
AcDbEntity
  8
IMPORT_IGES
100
AcDbPolyline
 62
253
  6
CONTINUOUS
 90
6
 70
0
 10
-7.1382769103
 20
-0.5914377203
 10
-7.159806067
 20
-0.6035946131
 10
-7.1795652202
 20
-0.6180600262
 10
-7.1972573212
 20
-0.6342461277
 10
-7.2131808947
 20
-0.6520182944
 10
-7.2275187086
 20
-0.6710814526
  0
LINE
  5
37E
100
AcDbEntity
  8
IMPORT_IGES
100
AcDbLine
 62
253
  6
CONTINUOUS
 10
-7.1160787858
 20
-0.5822188579
 11
-7.1382769103
 21
-0.5914377203
  0
LINE
  5
37F
100
AcDbEntity
  8
IMPORT_IGES
100
AcDbLine
 62
7
  6
CONTINUOUS
 10
2.6048535023
 20
-3.9438955742
 11
1.7048535023
 21
-3.9438955742
  0
LINE
  5
380
100
AcDbEntity
  8
IMPORT_IGES
100
AcDbLine
 62
7
  6
CONTINUOUS
 10
-1.7048535023
 20
-3.9438955742
 11
-2.6048535023
 21
-3.9438955742
  0
LINE
  5
381
100
AcDbEntity
  8
IMPORT_IGES
100
AcDbLine
 62
7
  6
CONTINUOUS
 10
2.9101124963
 20
-3.911752717
 11
-2.9101124337
 21
-3.911752717
  0
LINE
  5
382
100
AcDbEntity
  8
ASSI
100
AcDbLine
 62
7
  6
CONTINUOUS
 10
-8.7483942934
 20
-3.8385891314
 11
-8.36191502
 21
-3.8385891314
  0
LINE
  5
383
100
AcDbEntity
  8
ASSI
100
AcDbLine
 62
7
  6
CONTINUOUS
 10
8.36191502
 20
-3.8385891314
 11
8.7483942934
 21
-3.8385891314
  0
LWPOLYLINE
  5
384
100
AcDbEntity
  8
IMPORT_IGES
100
AcDbPolyline
 62
253
  6
CONTINUOUS
 90
5
 70
0
 10
-6.1060818204
 20
-0.371081606
 10
-6.0898726437
 20
-0.3777916958
 10
-6.0733633753
 20
-0.3843033495
 10
-6.0565540152
 20
-0.3906105702
 10
-6.05
 20
-0.3929432846
  0
LWPOLYLINE
  5
385
100
AcDbEntity
  8
IMPORT_IGES
100
AcDbPolyline
 62
253
  6
CONTINUOUS
 90
10
 70
0
 10
7.2826774215
 20
-8.6965692993
 10
7.3135187943
 20
-8.7148895158
 10
7.3419379583
 20
-8.7356671716
 10
7.36736048
 20
-8.7584187459
 10
7.389810336
 20
-8.7827390492
 10
7.4092635497
 20
-8.809033271
 10
7.4250737577
 20
-8.8380334592
 10
7.4370255057
 20
-8.86998363
 10
7.445334248
 20
-8.9046397672
 10
7.4499999846
 20
-8.9420018708
  0
LWPOLYLINE
  5
386
100
AcDbEntity
  8
IMPORT_IGES
100
AcDbPolyline
 62
253
  6
CONTINUOUS
 90
4
 70
0
 10
3.9940451936
 20
-6.2924647942
 10
3.9009924543
 20
-6.220646814
 10
3.867253338
 20
-6.1947568546
 10
3.832129547
 20
-6.1682203415
  0
LINE
  5
387
100
AcDbEntity
  8
IMPORT_IGES
100
AcDbLine
 62
253
  6
CONTINUOUS
 10
4.0221021721
 20
-6.3144137004
 11
3.9940451936
 21
-6.2924647942
  0
LINE
  5
388
100
AcDbEntity
  8
IMPORT_IGES
100
AcDbLine
 62
253
  6
CONTINUOUS
 10
4.096458952
 20
-6.3738281976
 11
4.0221021721
 21
-6.3144137004
  0
LWPOLYLINE
  5
389
100
AcDbEntity
  8
ASSI
100
AcDbPolyline
 62
7
  6
CONTINUOUS
 90
16
 70
0
 10
0.8
 20
-23.7500380762
 10
0.8013494122
 20
-23.7759809831
 10
0.8054056831
 20
-23.8017480173
 10
0.8121576856
 20
-23.8270535846
 10
0.8216035898
 20
-23.8517009881
 10
0.8336494676
 20
-23.8753074461
 10
0.8480168563
 20
-23.897354591
 10
0.864348265
 20
-23.9174650114
 10
0.8825349886
 20
-23.935651735
 10
0.902645409
 20
-23.9519831437
 10
0.9246925539
 20
-23.9663505324
 10
0.9482990119
 20
-23.9783964102
 10
0.9729464154
 20
-23.9878423144
 10
0.9982519827
 20
-23.9945943169
 10
1.0240190169
 20
-23.9986505878
 10
1.0499619238
 20
-24.0
  0
LINE
  5
38A
100
AcDbEntity
  8
IMPORT_IGES
100
AcDbLine
 62
253
  6
CONTINUOUS
 10
-1.7048533252
 20
-4.6439402966
 11
-1.7048535023
 21
-3.9438955742
  0
LINE
  5
38B
100
AcDbEntity
  8
IMPORT_IGES
100
AcDbLine
 62
253
  6
CONTINUOUS
 10
-1.704853018
 20
3.3097338544
 11
-1.7048528342
 21
4.0455690933
  0
LINE
  5
38C
100
AcDbEntity
  8
0
100
AcDbLine
 62
7
  6
CONTINUOUS
 10
-1.5937364865
 20
-11.5117237174
 11
-1.5937364865
 21
-11.6117237174
  0
LINE
  5
38D
100
AcDbEntity
  8
0
100
AcDbLine
 62
7
  6
CONTINUOUS
 10
-1.55871871
 20
-11.5117237174
 11
-1.55871871
 21
-11.6117237174
  0
LINE
  5
38E
100
AcDbEntity
  8
IMPORT_IGES
100
AcDbLine
 62
7
  6
CONTINUOUS
 10
-1.4048535023
 20
-4.7544239426
 11
-1.4048535023
 21
-3.9510384313
  0
LINE
  5
38F
100
AcDbEntity
  8
IMPORT_IGES
100
AcDbLine
 62
7
  6
CONTINUOUS
 10
-1.4048535023
 20
3.3144957592
 11
-1.4048535023
 21
4.1548352763
  0
LINE
  5
390
100
AcDbEntity
  8
0
100
AcDbLine
 62
7
  6
CONTINUOUS
 10
-1.2922418881
 20
-11.5117237174
 11
-1.2922418881
 21
-11.6117237174
  0
LINE
  5
391
100
AcDbEntity
  8
IMPORT_IGES
100
AcDbLine
 62
7
  6
CONTINUOUS
 10
-1.1048535023
 20
-4.8416269429
 11
-1.1048535023
 21
-4.6165189879
  0
LINE
  5
392
100
AcDbEntity
  8
IMPORT_IGES
100
AcDbLine
 62
7
  6
CONTINUOUS
 10
-1.1048535023
 20
4.0755287456
 11
-1.1048535023
 21
4.2412935651
  0
LINE
  5
393
100
AcDbEntity
  8
0
100
AcDbLine
 62
7
  6
CONTINUOUS
 10
-1.0308897305
 20
-11.5117237174
 11
-1.0308897305
 21
-11.6117237174
  0
LINE
  5
394
100
AcDbEntity
  8
0
100
AcDbLine
 62
7
  6
CONTINUOUS
 10
-0.995871954
 20
-11.5117237174
 11
-0.995871954
 21
-11.6117237174
  0
LINE
  5
395
100
AcDbEntity
  8
ASSI
100
AcDbLine
 62
7
  6
CONTINUOUS
 10
-0.8
 20
23.7500380762
 11
-0.8
 21
22.4
  0
LINE
  5
396
100
AcDbEntity
  8
ASSI
100
AcDbLine
 62
7
  6
CONTINUOUS
 10
-0.8
 20
-22.4
 11
-0.8
 21
-23.7500380762
  0
LINE
  5
397
100
AcDbEntity
  8
0
100
AcDbLine
 62
253
  6
CONTINUOUS
 10
-0.6508185673
 20
-11.5117237174
 11
-0.6508185673
 21
-11.6117237174
  0
LINE
  5
398
100
AcDbEntity
  8
IMPORT_IGES
100
AcDbLine
 62
7
  6
CONTINUOUS
 10
-0.6
 20
3.588305283
 11
-0.6
 21
4.3402476745
  0
LINE
  5
399
100
AcDbEntity
  8
0
100
AcDbLine
 62
253
  6
CONTINUOUS
 10
-0.5722419243
 20
-11.5117237174
 11
-0.5722419243
 21
-11.6117237174
  0
LINE
  5
39A
100
AcDbEntity
  8
0
100
AcDbLine
 62
7
  6
CONTINUOUS
 10
-0.4876867581
 20
-11.5117237174
 11
-0.4876867581
 21
-11.6117237174
  0
LINE
  5
39B
100
AcDbEntity
  8
0
100
AcDbLine
 62
7
  6
CONTINUOUS
 10
-0.4321708966
 20
-11.5117237174
 11
-0.4321708966
 21
-11.6117237174
  0
LINE
  5
39C
100
AcDbEntity
  8
0
100
AcDbLine
 62
253
  6
CONTINUOUS
 10
-0.308327469
 20
-11.5117237174
 11
-0.308327469
 21
-11.6117237174
  0
LINE
  5
39D
100
AcDbEntity
  8
0
100
AcDbLine
 62
253
  6
CONTINUOUS
 10
-0.2152312566
 20
-11.5117237174
 11
-0.2152312566
 21
-11.6117237174
  0
LINE
  5
39E
100
AcDbEntity
  8
0
100
AcDbLine
 62
7
  6
CONTINUOUS
 10
-0.089679556
 20
-11.5117237174
 11
-0.089679556
 21
-11.6117237174
  0
LWPOLYLINE
  5
39F
100
AcDbEntity
  8
ASSI
100
AcDbPolyline
 62
7
  6
CONTINUOUS
 90
16
 70
0
 10
0.8
 20
23.7500380762
 10
0.8013494122
 20
23.7759809831
 10
0.8054056831
 20
23.8017480173
 10
0.8121576856
 20
23.8270535846
 10
0.8216035898
 20
23.8517009881
 10
0.8336494676
 20
23.8753074461
 10
0.8480168563
 20
23.897354591
 10
0.864348265
 20
23.9174650114
 10
0.8825349886
 20
23.935651735
 10
0.902645409
 20
23.9519831437
 10
0.9246925539
 20
23.9663505324
 10
0.9482990119
 20
23.9783964102
 10
0.9729464154
 20
23.9878423144
 10
0.9982519827
 20
23.9945943169
 10
1.0240190169
 20
23.9986505878
 10
1.0499619238
 20
24.0
  0
LWPOLYLINE
  5
3A0
100
AcDbEntity
  8
IMPORT_IGES
100
AcDbPolyline
 62
253
  6
CONTINUOUS
 90
3
 70
0
 10
-3.9816050143
 20
-6.4764276556
 10
-3.9685482183
 20
-6.4478097709
 10
-3.9542745489
 20
-6.4176966325
  0
LINE
  5
3A1
100
AcDbEntity
  8
IMPORT_IGES
100
AcDbLine
 62
253
  6
CONTINUOUS
 10
-3.9542745489
 20
-6.4176966325
 11
-3.9060659871
 21
-6.3181562904
  0
LINE
  5
3A2
100
AcDbEntity
  8
IMPORT_IGES
100
AcDbLine
 62
253
  6
CONTINUOUS
 10
-3.851281826
 20
-6.2073903514
 11
-3.8321229061
 21
-6.1682202618
  0
LWPOLYLINE
  5
3A3
100
AcDbEntity
  8
IMPORT_IGES
100
AcDbPolyline
 62
253
  6
CONTINUOUS
 90
3
 70
0
 10
-3.9060659871
 20
-6.3181562904
 10
-3.8884724252
 20
-6.2823005675
 10
-3.851281826
 20
-6.2073903514
  0
LINE
  5
3A4
100
AcDbEntity
  8
IMPORT_IGES
100
AcDbLine
 62
253
  6
CONTINUOUS
 10
-6.2731431955
 20
-11.0375490169
 11
-6.3587864358
 21
-11.185426135
  0
LINE
  5
3A5
100
AcDbEntity
  8
IMPORT_IGES
100
AcDbLine
 62
253
  6
CONTINUOUS
 10
-7.0500050012
 20
-10.5911912295
 11
-7.0984607427
 21
-10.6747148007
  0
LWPOLYLINE
  5
3A6
100
AcDbEntity
  8
IMPORT_IGES
100
AcDbPolyline
 62
253
  6
CONTINUOUS
 90
4
 70
0
 10
-6.3587864358
 20
-11.185426135
 10
-6.3694163513
 20
-11.203604567
 10
-6.3721779702
 20
-11.2082629183
 10
-6.3731422926
 20
-11.2098077498
  0
LINE
  5
3A7
100
AcDbEntity
  8
IMPORT_IGES
100
AcDbLine
 62
253
  6
CONTINUOUS
 10
-7.0984607427
 20
-10.6747148007
 11
-7.1278329477
 21
-10.7248177683
  0
LWPOLYLINE
  5
3A8
100
AcDbEntity
  8
IMPORT_IGES
100
AcDbPolyline
 62
253
  6
CONTINUOUS
 90
5
 70
0
 10
-7.1278329477
 20
-10.7248177683
 10
-7.1414329069
 20
-10.7476812761
 10
-7.146077989
 20
-10.7553303032
 10
-7.1489597006
 20
-10.7599074685
 10
-7.1499995977
 20
-10.7612885539
  0
LINE
  5
3A9
100
AcDbEntity
  8
IMPORT_IGES
100
AcDbLine
 62
7
  6
CONTINUOUS
 10
-5.55
 20
-8.1451400551
 11
-5.6199171818
 21
-8.2542999891
  0
LINE
  5
3AA
100
AcDbEntity
  8
IMPORT_IGES
100
AcDbLine
 62
253
  6
CONTINUOUS
 10
2.814383876
 20
6.1342446924
 11
2.9247518712
 21
6.301034697
  0
LINE
  5
3AB
100
AcDbEntity
  8
IMPORT_IGES
100
AcDbLine
 62
7
  6
CONTINUOUS
 10
4.4048535023
 20
6.6398543419
 11
4.2296286832
 21
6.4630773917
  0
LINE
  5
3AC
100
AcDbEntity
  8
ASSI
100
AcDbLine
 62
7
  6
CONTINUOUS
 10
-8.3494408837
 20
-8.1994408837
 11
-8.3325462644
 21
-8.1825462644
  0
LWPOLYLINE
  5
3AD
100
AcDbEntity
  8
IMPORT_IGES
100
AcDbPolyline
 62
253
  6
CONTINUOUS
 90
7
 70
0
 10
-7.2963732994
 20
-0.7328161965
 10
-7.3156482986
 20
-0.7395297214
 10
-7.336690874
 20
-0.7446746459
 10
-7.3592657172
 20
-0.7479775681
 10
-7.3824532046
 20
-0.7501238207
 10
-7.405578662
 20
-0.7519019248
 10
-7.4282474259
 20
-0.7529734833
  0
LWPOLYLINE
  5
3AE
100
AcDbEntity
  8
IMPORT_IGES
100
AcDbPolyline
 62
7
  6
CONTINUOUS
 90
3
 70
0
 10
-7.0501577719
 20
-0.5710562344
 10
-7.0718368765
 20
-0.5722539046
 10
-7.0905383879
 20
-0.5751951466
  0
LINE
  5
3AF
100
AcDbEntity
  8
IMPORT_IGES
100
AcDbLine
 62
253
  6
CONTINUOUS
 10
-8.1189112984
 20
-0.571084106
 11
-8.4188581795
 21
-0.5763177048
  0
LWPOLYLINE
  5
3B0
100
AcDbEntity
  8
IMPORT_IGES
100
AcDbPolyline
 62
253
  6
CONTINUOUS
 90
13
 70
0
 10
8.1067321136
 20
-1.3919872869
 10
8.1453672975
 20
-1.3915179981
 10
8.1832007226
 20
-1.3890125707
 10
8.2196194701
 20
-1.3845379268
 10
8.2538693266
 20
-1.3782306544
 10
8.2856237345
 20
-1.3701969009
 10
8.3148507987
 20
-1.360418383
 10
8.3411275758
 20
-1.3489172691
 10
8.3636702122
 20
-1.3358995633
 10
8.3818739357
 20
-1.3216130809
 10
8.3953083129
 20
-1.3063100992
 10
8.4036644489
 20
-1.2902252403
 10
8.4066864295
 20
-1.2736368005
  0
LWPOLYLINE
  5
3B1
100
AcDbEntity
  8
IMPORT_IGES
100
AcDbPolyline
 62
253
  6
CONTINUOUS
 90
13
 70
0
 10
7.4499999999
 20
-0.7528325501
 10
7.4238776111
 20
-0.7530700157
 10
7.3982331391
 20
-0.7535383855
 10
7.3735025031
 20
-0.7542378162
 10
7.3501179524
 20
-0.755168961
 10
7.3284551742
 20
-0.756332203
 10
7.3088389349
 20
-0.7577262543
 10
7.2916082972
 20
-0.7593544192
 10
7.2770598126
 20
-0.7612177672
 10
7.2654252551
 20
-0.7633119685
 10
7.2569252475
 20
-0.7656422697
 10
7.251743847
 20
-0.7682258113
 10
7.25
 20
-0.7710819857
  0
LINE
  5
3B2
100
AcDbEntity
  8
IMPORT_IGES
100
AcDbLine
 62
253
  6
CONTINUOUS
 10
7.45
 20
-1.3919877069
 11
8.1067321905
 21
-1.391987288
  0
LINE
  5
3B3
100
AcDbEntity
  8
IMPORT_IGES
100
AcDbLine
 62
253
  6
CONTINUOUS
 10
-8.1067323708
 20
-1.3919876444
 11
-7.4499999998
 21
-1.3919876736
  0
LINE
  5
3B4
100
AcDbEntity
  8
IMPORT_IGES
100
AcDbLine
 62
253
  6
CONTINUOUS
 10
-5.55
 20
-1.3919875574
 11
-4.7454596355
 21
-1.3919876275
  0
LINE
  5
3B5
100
AcDbEntity
  8
IMPORT_IGES
100
AcDbLine
 62
253
  6
CONTINUOUS
 10
4.7454596355
 20
-1.3919869261
 11
5.55
 21
-1.3919856479
  0
LINE
  5
3B6
100
AcDbEntity
  8
IMPORT_IGES
100
AcDbLine
 62
7
  6
CONTINUOUS
 10
-5.45
 20
-1.355
 11
-5.1
 21
-1.355
  0
LINE
  5
3B7
100
AcDbEntity
  8
IMPORT_IGES
100
AcDbLine
 62
7
  6
CONTINUOUS
 10
5.1
 20
-1.355
 11
5.45
 21
-1.355
  0
LINE
  5
3B8
100
AcDbEntity
  8
IMPORT_IGES
100
AcDbLine
 62
7
  6
CONTINUOUS
 10
-4.4360261456
 20
-1.2360899655
 11
-4.55
 21
-1.2360899655
  0
LINE
  5
3B9
100
AcDbEntity
  8
IMPORT_IGES
100
AcDbLine
 62
253
  6
CONTINUOUS
 10
-5.45
 20
-1.055
 11
-5.1
 21
-1.055
  0
LINE
  5
3BA
100
AcDbEntity
  8
IMPORT_IGES
100
AcDbLine
 62
253
  6
CONTINUOUS
 10
5.1
 20
-1.055
 11
5.45
 21
-1.055
  0
LINE
  5
3BB
100
AcDbEntity
  8
IMPORT_IGES
100
AcDbLine
 62
253
  6
CONTINUOUS
 10
-6.05
 20
-0.755
 11
-5.75
 21
-0.755
  0
LINE
  5
3BC
100
AcDbEntity
  8
IMPORT_IGES
100
AcDbLine
 62
253
  6
CONTINUOUS
 10
-4.8
 20
-0.755
 11
-4.5
 21
-0.7550000001
  0
LINE
  5
3BD
100
AcDbEntity
  8
IMPORT_IGES
100
AcDbLine
 62
253
  6
CONTINUOUS
 10
4.8
 20
-0.755
 11
4.5
 21
-0.755
  0
LINE
  5
3BE
100
AcDbEntity
  8
IMPORT_IGES
100
AcDbLine
 62
253
  6
CONTINUOUS
 10
5.75
 20
-0.755
 11
6.05
 21
-0.7550000001
  0
LINE
  5
3BF
100
AcDbEntity
  8
IMPORT_IGES
100
AcDbLine
 62
253
  6
CONTINUOUS
 10
7.3974982454
 20
-0.571084954
 11
8.119384815
 21
-0.5710821499
  0
LINE
  5
3C0
100
AcDbEntity
  8
IMPORT_IGES
100
AcDbLine
 62
253
  6
CONTINUOUS
 10
-8.1189112984
 20
-0.5710854105
 11
-7.3974980996
 21
-0.571086715
  0
LINE
  5
3C1
100
AcDbEntity
  8
IMPORT_IGES
100
AcDbLine
 62
7
  6
CONTINUOUS
 10
6.05
 20
-0.5710819831
 11
7.0501548037
 21
-0.5710819831
  0
LINE
  5
3C2
100
AcDbEntity
  8
IMPORT_IGES
100
AcDbLine
 62
7
  6
CONTINUOUS
 10
-6.05
 20
-0.5710819831
 11
-7.0499999767
 21
-0.571081983
  0
LINE
  5
3C3
100
AcDbEntity
  8
IMPORT_IGES
100
AcDbLine
 62
253
  6
CONTINUOUS
 10
6.1060730709
 20
-0.3710827939
 11
7.050154201
 21
-0.3710822837
  0
LINE
  5
3C4
100
AcDbEntity
  8
IMPORT_IGES
100
AcDbLine
 62
253
  6
CONTINUOUS
 10
-7.0501569748
 20
-0.3710822198
 11
-6.1060818204
 21
-0.371081606
  0
LINE
  5
3C5
100
AcDbEntity
  8
IMPORT_IGES
100
AcDbLine
 62
7
  6
CONTINUOUS
 10
-8.4227212944
 20
-0.355
 11
-8.1220539428
 21
-0.3549999076
  0
LINE
  5
3C6
100
AcDbEntity
  8
IMPORT_IGES
100
AcDbLine
 62
7
  6
CONTINUOUS
 10
8.4227212945
 20
-0.355
 11
8.1223723772
 21
-0.3549943904
  0
LINE
  5
3C7
100
AcDbEntity
  8
IMPORT_IGES
100
AcDbLine
 62
253
  6
CONTINUOUS
 10
6.3499999999
 20
0.245
 11
6.05
 21
0.245
  0
LINE
  5
3C8
100
AcDbEntity
  8
IMPORT_IGES
100
AcDbLine
 62
253
  6
CONTINUOUS
 10
-6.05
 20
0.245
 11
-6.35
 21
0.245
  0
LINE
  5
3C9
100
AcDbEntity
  8
IMPORT_IGES
100
AcDbLine
 62
7
  6
CONTINUOUS
 10
4.4353662579
 20
-1.2359777403
 11
4.55
 21
-1.2360899655
  0
LWPOLYLINE
  5
3CA
100
AcDbEntity
  8
IMPORT_IGES
100
AcDbPolyline
 62
253
  6
CONTINUOUS
 90
9
 70
0
 10
7.4499993728
 20
-0.7528329011
 10
7.4278590833
 20
-0.7526583091
 10
7.405245357
 20
-0.751392598
 10
7.382657096
 20
-0.7497438115
 10
7.360600801
 20
-0.7478799586
 10
7.3394771423
 20
-0.74518751
 10
7.3196043439
 20
-0.7410119659
 10
7.3013180762
 20
-0.7353411247
 10
7.2847416503
 20
-0.7278857813
  0
LWPOLYLINE
  5
3CB
100
AcDbEntity
  8
IMPORT_IGES
100
AcDbPolyline
 62
253
  6
CONTINUOUS
 90
13
 70
0
 10
-7.4499895162
 20
-0.752834058
 10
-7.4238311189
 20
-0.7530724962
 10
-7.3981572412
 20
-0.7535412842
 10
-7.3734050035
 20
-0.7542401356
 10
-7.3500060574
 20
-0.7551692652
 10
-7.3283376003
 20
-0.7563298674
 10
-7.3087270344
 20
-0.7577228234
 10
-7.291512289
 20
-0.7593541319
 10
-7.2769857024
 20
-0.7612226647
 10
-7.2653753591
 20
-0.7633191257
 10
-7.2568982382
 20
-0.7656473806
 10
-7.2517347258
 20
-0.7682265698
 10
-7.2500000018
 20
-0.7710762711
  0
LINE
  5
3CC
100
AcDbEntity
  8
IMPORT_IGES
100
AcDbLine
 62
253
  6
CONTINUOUS
 10
8.118903875
 20
-0.5710817554
 11
8.4188581795
 21
-0.576317705
  0
LWPOLYLINE
  5
3CD
100
AcDbEntity
  8
IMPORT_IGES
100
AcDbPolyline
 62
253
  6
CONTINUOUS
 90
13
 70
0
 10
7.45
 20
-1.3919877073
 10
7.4241896804
 20
-1.3912987424
 10
7.3988978066
 20
-1.3892528275
 10
7.3745377977
 20
-1.3858978958
 10
7.351613937
 20
-1.3813291379
 10
7.3303570878
 20
-1.3756195444
 10
7.3108099775
 20
-1.368760822
 10
7.2932642876
 20
-1.3607751759
 10
7.2782428425
 20
-1.3518084001
 10
7.2661523501
 20
-1.3420340789
 10
7.25728255
 20
-1.3316274471
 10
7.2518414138
 20
-1.3207511432
 10
7.25
 20
-1.3095966325
  0
LINE
  5
3CE
100
AcDbEntity
  8
IMPORT_IGES
100
AcDbLine
 62
7
  6
CONTINUOUS
 10
7.073183609
 20
-0.5724040746
 11
7.050155296
 21
-0.5710540368
  0
LWPOLYLINE
  5
3CF
100
AcDbEntity
  8
IMPORT_IGES
100
AcDbPolyline
 62
253
  6
CONTINUOUS
 90
10
 70
0
 10
7.050154201
 20
-0.3710822837
 10
7.0955816184
 20
-0.374113944
 10
7.1397938333
 20
-0.3821442184
 10
7.1827908457
 20
-0.395173107
 10
7.2252302636
 20
-0.4134684757
 10
7.2664544789
 20
-0.4367624586
 10
7.3044906673
 20
-0.4642514576
 10
7.3386812203
 20
-0.4956676069
 10
7.3696837464
 20
-0.5312787723
 10
7.3974982454
 20
-0.571084954
  0
LINE
  5
3D0
100
AcDbEntity
  8
ASSI
100
AcDbLine
 62
7
  6
CONTINUOUS
 10
8.3494408837
 20
-8.1994408837
 11
8.3325462644
 21
-8.1825462644
  0
LWPOLYLINE
  5
3D1
100
AcDbEntity
  8
IMPORT_IGES
100
AcDbPolyline
 62
253
  6
CONTINUOUS
 90
10
 70
0
 10
7.4499999683
 20
-10.4812646504
 10
7.4625092043
 20
-10.4957745145
 10
7.4749669553
 20
-10.5080969659
 10
7.487222205
 20
-10.5181796791
 10
7.4990889108
 20
-10.5260191056
 10
7.5104674896
 20
-10.5315672194
 10
7.5213492925
 20
-10.5347426751
 10
7.5316566121
 20
-10.5355492
 10
7.5412399235
 20
-10.5340633499
 10
7.5500012733
 20
-10.5303484345
  0
LWPOLYLINE
  5
3D2
100
AcDbEntity
  8
IMPORT_IGES
100
AcDbPolyline
 62
253
  6
CONTINUOUS
 90
10
 70
0
 10
4.096458952
 20
-6.3738215284
 10
4.1122099268
 20
-6.3946714365
 10
4.1263105252
 20
-6.4167310993
 10
4.1387607472
 20
-6.440000517
 10
4.1496793561
 20
-6.4645238222
 10
4.1589475887
 20
-6.4902568822
 10
4.1662091551
 20
-6.5170672988
 10
4.1713452922
 20
-6.5449109393
 10
4.1744747632
 20
-6.5738319363
 10
4.1755975682
 20
-6.6038302899
  0
LWPOLYLINE
  5
3D3
100
AcDbEntity
  8
IMPORT_IGES
100
AcDbPolyline
 62
253
  6
CONTINUOUS
 90
10
 70
0
 10
-7.9590672199
 20
9.3404394662
 10
-7.9864052188
 20
9.3814350506
 10
-8.0142355166
 20
9.4169034296
 10
-8.0418879157
 20
9.4464639041
 10
-8.0687697818
 20
9.4702214226
 10
-8.0940124994
 20
9.4873692746
 10
-8.1168222711
 20
9.4968683549
 10
-8.1369286744
 20
9.4989925144
 10
-8.1542349937
 20
9.4946390452
 10
-8.1686835105
 20
9.4843765662
  0
LINE
  5
3D4
100
AcDbEntity
  8
IMPORT_IGES
100
AcDbLine
 62
7
  6
CONTINUOUS
 10
5.6199171818
 20
-8.2542999891
 11
5.55
 21
-8.1451319631
  0
LWPOLYLINE
  5
3D5
100
AcDbEntity
  8
IMPORT_IGES
100
AcDbPolyline
 62
253
  6
CONTINUOUS
 90
3
 70
0
 10
6.3731434186
 20
-11.2098076322
 10
6.3722867496
 20
-11.208443823
 10
6.3697804221
 20
-11.2042226165
  0
LINE
  5
3D6
100
AcDbEntity
  8
IMPORT_IGES
100
AcDbLine
 62
253
  6
CONTINUOUS
 10
6.3697804221
 20
-11.2042226165
 11
6.3448042906
 21
-11.1613805393
  0
LINE
  5
3D7
100
AcDbEntity
  8
IMPORT_IGES
100
AcDbLine
 62
253
  6
CONTINUOUS
 10
6.3448042906
 20
-11.1613805393
 11
6.2731428441
 21
-11.0375484859
  0
LWPOLYLINE
  5
3D8
100
AcDbEntity
  8
ASSI
100
AcDbPolyline
 62
7
  6
CONTINUOUS
 90
16
 70
0
 10
-0.8
 20
23.7500380762
 10
-0.8013494122
 20
23.7759809831
 10
-0.8054056831
 20
23.8017480173
 10
-0.8121576856
 20
23.8270535846
 10
-0.8216035898
 20
23.8517009881
 10
-0.8336494676
 20
23.8753074461
 10
-0.8480168563
 20
23.897354591
 10
-0.864348265
 20
23.9174650114
 10
-0.8825349886
 20
23.935651735
 10
-0.902645409
 20
23.9519831437
 10
-0.9246925539
 20
23.9663505324
 10
-0.9482990119
 20
23.9783964102
 10
-0.9729464154
 20
23.9878423144
 10
-0.9982519827
 20
23.9945943169
 10
-1.0240190169
 20
23.9986505878
 10
-1.0499619238
 20
24.0
  0
LINE
  5
3D9
100
AcDbEntity
  8
0
100
AcDbLine
 62
7
  6
CONTINUOUS
 10
0.4005693149
 20
-11.5117237174
 11
0.4005693149
 21
-11.6117237174
  0
LINE
  5
3DA
100
AcDbEntity
  8
0
100
AcDbLine
 62
253
  6
CONTINUOUS
 10
0.5517437648
 20
-11.5117237174
 11
0.5517437648
 21
-11.6117237174
  0
LINE
  5
3DB
100
AcDbEntity
  8
IMPORT_IGES
100
AcDbLine
 62
7
  6
CONTINUOUS
 10
0.6
 20
4.3402502532
 11
0.6
 21
3.588305283
  0
LINE
  5
3DC
100
AcDbEntity
  8
0
100
AcDbLine
 62
253
  6
CONTINUOUS
 10
0.6405693542
 20
-11.5117237174
 11
0.6405693542
 21
-11.6117237174
  0
LINE
  5
3DD
100
AcDbEntity
  8
0
100
AcDbLine
 62
7
  6
CONTINUOUS
 10
0.7430606555
 20
-11.5117237174
 11
0.7430606555
 21
-11.6117237174
  0
LINE
  5
3DE
100
AcDbEntity
  8
0
100
AcDbLine
 62
7
  6
CONTINUOUS
 10
0.7868476528
 20
-11.6117237174
 11
0.7868476528
 21
-11.5117237174
  0
LINE
  5
3DF
100
AcDbEntity
  8
ASSI
100
AcDbLine
 62
7
  6
CONTINUOUS
 10
0.8
 20
23.7500380762
 11
0.8
 21
22.4
  0
LINE
  5
3E0
100
AcDbEntity
  8
ASSI
100
AcDbLine
 62
7
  6
CONTINUOUS
 10
0.8
 20
-22.4
 11
0.8
 21
-23.7500380762
  0
LINE
  5
3E1
100
AcDbEntity
  8
0
100
AcDbLine
 62
7
  6
CONTINUOUS
 10
0.8077819983
 20
-11.5117237174
 11
0.8077819983
 21
-11.6117237174
  0
LINE
  5
3E2
100
AcDbEntity
  8
0
100
AcDbLine
 62
7
  6
CONTINUOUS
 10
0.8206800276
 20
-11.5117237174
 11
0.8206800276
 21
-11.6117237174
  0
LINE
  5
3E3
100
AcDbEntity
  8
0
100
AcDbLine
 62
7
  6
CONTINUOUS
 10
0.8259075832
 20
-11.5117237174
 11
0.8259075832
 21
-11.6117237174
  0
LINE
  5
3E4
100
AcDbEntity
  8
0
100
AcDbLine
 62
253
  6
CONTINUOUS
 10
0.9497509492
 20
-11.5117237174
 11
0.9497509492
 21
-11.6117237174
  0
LINE
  5
3E5
100
AcDbEntity
  8
0
100
AcDbLine
 62
253
  6
CONTINUOUS
 10
1.0428469371
 20
-11.5117237174
 11
1.0428469371
 21
-11.6117237174
  0
LINE
  5
3E6
100
AcDbEntity
  8
IMPORT_IGES
100
AcDbLine
 62
7
  6
CONTINUOUS
 10
1.1048535023
 20
-4.8416273916
 11
1.1048535023
 21
-4.6165189879
  0
LINE
  5
3E7
100
AcDbEntity
  8
IMPORT_IGES
100
AcDbLine
 62
7
  6
CONTINUOUS
 10
1.1048535023
 20
4.0755287456
 11
1.1048535023
 21
4.2412944342
  0
LINE
  5
3E8
100
AcDbEntity
  8
0
100
AcDbLine
 62
7
  6
CONTINUOUS
 10
1.1683986377
 20
-11.5117237174
 11
1.1683986377
 21
-11.6117237174
  0
LINE
  5
3E9
100
AcDbEntity
  8
IMPORT_IGES
100
AcDbLine
 62
7
  6
CONTINUOUS
 10
1.4048535023
 20
-4.754423556
 11
1.4048535023
 21
-3.9510384313
  0
LINE
  5
3EA
100
AcDbEntity
  8
IMPORT_IGES
100
AcDbLine
 62
7
  6
CONTINUOUS
 10
1.4048535023
 20
3.3144957592
 11
1.4048535023
 21
4.1548363717
  0
LINE
  5
3EB
100
AcDbEntity
  8
0
100
AcDbLine
 62
7
  6
CONTINUOUS
 10
1.6586476516
 20
-11.5117237174
 11
1.6586476516
 21
-11.6117237174
  0
LINE
  5
3EC
100
AcDbEntity
  8
IMPORT_IGES
100
AcDbLine
 62
253
  6
CONTINUOUS
 10
1.7048530175
 20
-3.9438955742
 11
1.7048530175
 21
-4.6439411682
  0
LINE
  5
3ED
100
AcDbEntity
  8
IMPORT_IGES
100
AcDbLine
 62
253
  6
CONTINUOUS
 10
1.704853015
 20
3.3097338544
 11
1.704853015
 21
4.0455703013
  0
LINE
  5
3EE
100
AcDbEntity
  8
0
100
AcDbLine
 62
253
  6
CONTINUOUS
 10
1.8098221015
 20
-11.5117237174
 11
1.8098221015
 21
-11.6117237174
  0
LINE
  5
3EF
100
AcDbEntity
  8
0
100
AcDbLine
 62
253
  6
CONTINUOUS
 10
1.8986476909
 20
-11.5117237174
 11
1.8986476909
 21
-11.6117237174
  0
LINE
  5
3F0
100
AcDbEntity
  8
ASSI
100
AcDbLine
 62
7
  6
CONTINUOUS
 10
2.0
 20
-13.1929265842
 11
2.0
 21
-11.6117237174
  0
LINE
  5
3F1
100
AcDbEntity
  8
0
100
AcDbLine
 62
7
  6
CONTINUOUS
 10
2.0011388492
 20
-11.5117237174
 11
2.0011388492
 21
-11.6117237174
  0
LINE
  5
3F2
100
AcDbEntity
  8
0
100
AcDbLine
 62
7
  6
CONTINUOUS
 10
2.1360854339
 20
-11.5117237174
 11
2.1360854339
 21
-11.6117237174
  0
LINE
  5
3F3
100
AcDbEntity
  8
0
100
AcDbLine
 62
7
  6
CONTINUOUS
 10
2.1574376773
 20
-11.5117237174
 11
2.1574376773
 21
-11.6117237174
  0
LINE
  5
3F4
100
AcDbEntity
  8
0
100
AcDbLine
 62
253
  6
CONTINUOUS
 10
2.2966548022
 20
-11.5117237174
 11
2.2966548022
 21
-11.6117237174
  0
LWPOLYLINE
  5
3F5
100
AcDbEntity
  8
ASSI
100
AcDbPolyline
 62
7
  6
CONTINUOUS
 90
16
 70
0
 10
-0.8
 20
-23.7500380762
 10
-0.8013494122
 20
-23.7759809831
 10
-0.8054056831
 20
-23.8017480173
 10
-0.8121576856
 20
-23.8270535846
 10
-0.8216035898
 20
-23.8517009881
 10
-0.8336494676
 20
-23.8753074461
 10
-0.8480168563
 20
-23.897354591
 10
-0.864348265
 20
-23.9174650114
 10
-0.8825349886
 20
-23.935651735
 10
-0.902645409
 20
-23.9519831437
 10
-0.9246925539
 20
-23.9663505324
 10
-0.9482990119
 20
-23.9783964102
 10
-0.9729464154
 20
-23.9878423144
 10
-0.9982519827
 20
-23.9945943169
 10
-1.0240190169
 20
-23.9986505878
 10
-1.0499619238
 20
-24.0
  0
LWPOLYLINE
  5
3F6
100
AcDbEntity
  8
IMPORT_IGES
100
AcDbPolyline
 62
253
  6
CONTINUOUS
 90
10
 70
0
 10
-4.0964593868
 20
-6.3738283964
 10
-4.1123536853
 20
-6.3949308187
 10
-4.1265499721
 20
-6.4171836886
 10
-4.1390482473
 20
-6.4405870062
 10
-4.1499509658
 20
-6.4651902413
 10
-4.1591556727
 20
-6.4909439242
 10
-4.1663550028
 20
-6.5176996447
 10
-4.1714465011
 20
-6.545407933
 10
-4.1745326226
 20
-6.5741182589
 10
-4.1756133673
 20
-6.6038306226
  0
LWPOLYLINE
  5
3F7
100
AcDbEntity
  8
IMPORT_IGES
100
AcDbPolyline
 62
253
  6
CONTINUOUS
 90
10
 70
0
 10
-7.4499999342
 20
-10.4812645708
 10
-7.4624791043
 20
-10.4957424578
 10
-7.4749149
 20
-10.5080497922
 10
-7.4871567079
 20
-10.5181308401
 10
-7.4990179268
 20
-10.5259785808
 10
-7.5103986751
 20
-10.5315408155
 10
-7.5212902942
 20
-10.5347314447
 10
-7.5316137986
 20
-10.5355499646
 10
-7.5412171686
 20
-10.5340693152
 10
-7.5500000001
 20
-10.5303491697
  0
LWPOLYLINE
  5
3F8
100
AcDbEntity
  8
IMPORT_IGES
100
AcDbPolyline
 62
253
  6
CONTINUOUS
 90
5
 70
0
 10
6.05
 20
-0.392939914
 10
6.0565477205
 20
-0.3906093979
 10
6.0733564977
 20
-0.3843027143
 10
6.0898649478
 20
-0.3777920177
 10
6.1060730709
 20
-0.3710833041
  0
LINE
  5
3F9
100
AcDbEntity
  8
IMPORT_IGES
100
AcDbLine
 62
253
  6
CONTINUOUS
 10
-7.0939110894
 20
-0.575918836
 11
-7.1160787858
 21
-0.5822188579
  0
LINE
  5
3FA
100
AcDbEntity
  8
IMPORT_IGES
100
AcDbLine
 62
253
  6
CONTINUOUS
 10
-7.0905383879
 20
-0.5751951466
 11
-7.0939110894
 21
-0.575918836
  0
LINE
  5
3FB
100
AcDbEntity
  8
IMPORT_IGES
100
AcDbLine
 62
253
  6
CONTINUOUS
 10
6.35
 20
1.645
 11
5.75
 21
1.645
  0
LINE
  5
3FC
100
AcDbEntity
  8
IMPORT_IGES
100
AcDbLine
 62
253
  6
CONTINUOUS
 10
-5.75
 20
1.645
 11
-6.35
 21
1.645
  0
LINE
  5
3FD
100
AcDbEntity
  8
IMPORT_IGES
100
AcDbLine
 62
7
  6
CONTINUOUS
 10
4.0960746081
 20
1.785
 11
4.5
 21
1.785
  0
LINE
  5
3FE
100
AcDbEntity
  8
IMPORT_IGES
100
AcDbLine
 62
7
  6
CONTINUOUS
 10
-4.0960746081
 20
1.785
 11
-4.5
 21
1.785
  0
LINE
  5
3FF
100
AcDbEntity
  8
IMPORT_IGES
100
AcDbLine
 62
253
  6
CONTINUOUS
 10
5.05
 20
2.345
 11
4.5
 21
2.345
  0
LINE
  5
400
100
AcDbEntity
  8
IMPORT_IGES
100
AcDbLine
 62
253
  6
CONTINUOUS
 10
-4.5
 20
2.345
 11
-5.05
 21
2.345
  0
LINE
  5
401
100
AcDbEntity
  8
IMPORT_IGES
100
AcDbLine
 62
7
  6
CONTINUOUS
 10
7.0904989525
 20
-0.5751857273
 11
7.073183609
 21
-0.5724040746
  0
LWPOLYLINE
  5
402
100
AcDbEntity
  8
IMPORT_IGES
100
AcDbPolyline
 62
253
  6
CONTINUOUS
 90
3
 70
0
 10
7.1191745654
 20
-0.5833193988
 10
7.0962991826
 20
-0.5764668192
 10
7.0904989525
 20
-0.5751857273
  0
LINE
  5
403
100
AcDbEntity
  8
IMPORT_IGES
100
AcDbLine
 62
253
  6
CONTINUOUS
 10
7.1418267973
 20
-0.5932029753
 11
7.1191745654
 21
-0.5833193988
  0
LINE
  5
404
100
AcDbEntity
  8
ASSI
100
AcDbLine
 62
253
  6
CONTINUOUS
 10
-7.4101132618
 20
10.3101323002
 11
-7.4995066553
 21
10.3995256938
  0
LINE
  5
405
100
AcDbEntity
  8
IMPORT_IGES
100
AcDbLine
 62
7
  6
CONTINUOUS
 10
-4.2296286832
 20
6.4630773917
 11
-4.4048535023
 21
6.6398543419
  0
LWPOLYLINE
  5
406
100
AcDbEntity
  8
IMPORT_IGES
100
AcDbPolyline
 62
253
  6
CONTINUOUS
 90
13
 70
0
 10
-6.8767996593
 20
10.4226299935
 10
-6.8967532269
 20
10.4446350939
 10
-6.9184023801
 20
10.4665806359
 10
-6.9409900147
 20
10.4876133843
 10
-6.9633302876
 20
10.506659099
 10
-6.9848983821
 20
10.5233762792
 10
-7.0059090386
 20
10.5379562377
 10
-7.0256574836
 20
10.5498766759
 10
-7.0434735326
 20
10.558761511
 10
-7.0594449165
 20
10.5646358314
 10
-7.0730658103
 20
10.5671950402
 10
-7.0836334755
 20
10.5662883829
 10
-7.0909282315
 20
10.5621318774
  0
LINE
  5
407
100
AcDbEntity
  8
IMPORT_IGES
100
AcDbLine
 62
253
  6
CONTINUOUS
 10
-2.9247518712
 20
6.301034697
 11
-2.814383876
 21
6.1342446924
  0
LWPOLYLINE
  5
408
100
AcDbEntity
  8
IMPORT_IGES
100
AcDbPolyline
 62
253
  6
CONTINUOUS
 90
4
 70
0
 10
7.1415022765
 20
-10.7477958596
 10
7.1461163334
 20
-10.7553912056
 10
7.1489722693
 20
-10.7599247336
 10
7.1499997817
 20
-10.7612870004
  0
LINE
  5
409
100
AcDbEntity
  8
IMPORT_IGES
100
AcDbLine
 62
253
  6
CONTINUOUS
 10
7.1280145723
 20
-10.7251263737
 11
7.1415022765
 21
-10.7477958596
  0
LINE
  5
40A
100
AcDbEntity
  8
IMPORT_IGES
100
AcDbLine
 62
253
  6
CONTINUOUS
 10
7.0989296291
 20
-10.675521083
 11
7.1280145723
 21
-10.7251263737
  0
LINE
  5
40B
100
AcDbEntity
  8
IMPORT_IGES
100
AcDbLine
 62
253
  6
CONTINUOUS
 10
7.0500038541
 20
-10.5911914861
 11
7.0989296291
 21
-10.675521083
  0
LWPOLYLINE
  5
40C
100
AcDbEntity
  8
IMPORT_IGES
100
AcDbPolyline
 62
253
  6
CONTINUOUS
 90
3
 70
0
 10
3.8884515608
 20
-6.2822580694
 10
3.9060430917
 20
-6.3181097247
 10
3.9542605079
 20
-6.4176657832
  0
LWPOLYLINE
  5
40D
100
AcDbEntity
  8
IMPORT_IGES
100
AcDbPolyline
 62
253
  6
CONTINUOUS
 90
3
 70
0
 10
3.832122906
 20
-6.1682202618
 10
3.8512723474
 20
-6.2073712031
 10
3.8884515608
 20
-6.2822580694
  0
LWPOLYLINE
  5
40E
100
AcDbEntity
  8
IMPORT_IGES
100
AcDbPolyline
 62
253
  6
CONTINUOUS
 90
3
 70
0
 10
3.9542605079
 20
-6.4176657832
 10
3.9685411253
 20
-6.4477928477
 10
3.9816056377
 20
-6.4764290221
  0
LWPOLYLINE
  5
40F
100
AcDbEntity
  8
IMPORT_IGES
100
AcDbPolyline
 62
253
  6
CONTINUOUS
 90
10
 70
0
 10
3.9816056377
 20
-6.4764290221
 10
3.9908770727
 20
-6.4988306047
 10
3.9991136338
 20
-6.5220886315
 10
4.0062780788
 20
-6.5462045469
 10
4.0123123197
 20
-6.5712128893
 10
4.0172326271
 20
-6.5970825657
 10
4.0210769399
 20
-6.6237157871
 10
4.0237997844
 20
-6.6510802907
 10
4.0253256359
 20
-6.6792103941
 10
4.0256082329
 20
-6.708107553
  0
LINE
  5
410
100
AcDbEntity
  8
IMPORT_IGES
100
AcDbLine
 62
253
  6
CONTINUOUS
 10
3.8309538368
 20
7.5723459288
 11
3.8375209569
 21
7.4428918817
  0
LINE
  5
411
100
AcDbEntity
  8
IMPORT_IGES
100
AcDbLine
 62
253
  6
CONTINUOUS
 10
3.8253265995
 20
7.6929302822
 11
3.8309538368
 21
7.5723459288
  0
LINE
  5
412
100
AcDbEntity
  8
IMPORT_IGES
100
AcDbLine
 62
253
  6
CONTINUOUS
 10
3.821022297
 20
7.7964466064
 11
3.8253265995
 21
7.6929302822
  0
LWPOLYLINE
  5
413
100
AcDbEntity
  8
IMPORT_IGES
100
AcDbPolyline
 62
253
  6
CONTINUOUS
 90
9
 70
0
 10
3.8002589938
 20
8.3578863295
 10
3.8010367154
 20
8.2876797428
 10
3.8023338504
 20
8.2174788991
 10
3.8041504631
 20
8.1472818658
 10
3.8064864892
 20
8.0770905754
 10
3.8093417357
 20
8.0069108254
 10
3.8127161382
 20
7.9367445483
 10
3.8166097612
 20
7.8665898115
 10
3.8210226047
 20
7.7964466152
  0
LINE
  5
414
100
AcDbEntity
  8
IMPORT_IGES
100
AcDbLine
 62
253
  6
CONTINUOUS
 10
2.6048535023
 20
-4.1487304332
 11
2.6048535023
 21
-3.9438955742
  0
LINE
  5
415
100
AcDbEntity
  8
IMPORT_IGES
100
AcDbLine
 62
253
  6
CONTINUOUS
 10
2.6048535023
 20
3.3097338544
 11
2.6048535023
 21
3.5543071337
  0
LINE
  5
416
100
AcDbEntity
  8
0
100
AcDbLine
 62
253
  6
CONTINUOUS
 10
2.6408541393
 20
-11.5117237174
 11
2.6408541393
 21
-11.6117237174
  0
LINE
  5
417
100
AcDbEntity
  8
0
100
AcDbLine
 62
253
  6
CONTINUOUS
 10
2.8065480662
 20
-11.5117237174
 11
2.8065480662
 21
-11.6117237174
  0
LINE
  5
418
100
AcDbEntity
  8
0
100
AcDbLine
 62
7
  6
CONTINUOUS
 10
2.8680427503
 20
-11.5117237174
 11
2.8680427503
 21
-11.6117237174
  0
LINE
  5
419
100
AcDbEntity
  8
IMPORT_IGES
100
AcDbLine
 62
7
  6
CONTINUOUS
 10
2.9048535023
 20
3.3227884036
 11
2.9048535023
 21
3.3144957592
  0
LINE
  5
41A
100
AcDbEntity
  8
0
100
AcDbLine
 62
7
  6
CONTINUOUS
 10
2.9637011241
 20
-11.5117237174
 11
2.9637011241
 21
-11.6117237174
  0
LINE
  5
41B
100
AcDbEntity
  8
ASSI
100
AcDbLine
 62
7
  6
CONTINUOUS
 10
3.1351059998
 20
21.2252970227
 11
3.1351059998
 21
20.8901985088
  0
LINE
  5
41C
100
AcDbEntity
  8
ASSI
100
AcDbLine
 62
7
  6
CONTINUOUS
 10
3.1351059998
 20
-20.8901985088
 11
3.1351059998
 21
-21.2252970227
  0
LINE
  5
41D
100
AcDbEntity
  8
0
100
AcDbLine
 62
253
  6
CONTINUOUS
 10
3.1832028715
 20
-11.5117237174
 11
3.1832028715
 21
-11.6117237174
  0
LINE
  5
41E
100
AcDbEntity
  8
RACCORDO
100
AcDbLine
 62
7
  6
CONTINUOUS
 10
3.4
 20
-15.5
 11
3.4
 21
-14.1
  0
LINE
  5
41F
100
AcDbEntity
  8
0
100
AcDbLine
 62
253
  6
CONTINUOUS
 10
3.6734519761
 20
-11.5117237174
 11
3.6734519761
 21
-11.6117237174
  0
LINE
  5
420
100
AcDbEntity
  8
0
100
AcDbLine
 62
7
  6
CONTINUOUS
 10
3.7016370308
 20
-11.5117237174
 11
3.7016370308
 21
-11.6117237174
  0
LINE
  5
421
100
AcDbEntity
  8
0
100
AcDbLine
 62
7
  6
CONTINUOUS
 10
3.7340925511
 20
-11.5117237174
 11
3.7340925511
 21
-11.6117237174
  0
LINE
  5
422
100
AcDbEntity
  8
IMPORT_IGES
100
AcDbLine
 62
253
  6
CONTINUOUS
 10
3.8
 20
10.65
 11
3.8002589938
 21
8.3578863295
  0
LINE
  5
423
100
AcDbEntity
  8
IMPORT_IGES
100
AcDbLine
 62
7
  6
CONTINUOUS
 10
4.0
 20
8.2866771736
 11
4.0
 21
10.45
  0
LINE
  5
424
100
AcDbEntity
  8
IMPORT_IGES
100
AcDbLine
 62
253
  6
CONTINUOUS
 10
4.087751337
 20
2.8132052805
 11
4.087751337
 21
3.0132052805
  0
LINE
  5
425
100
AcDbEntity
  8
IMPORT_IGES
100
AcDbLine
 62
7
  6
CONTINUOUS
 10
4.1048535023
 20
7.888305283
 11
4.1048535023
 21
7.3484451431
  0
LINE
  5
426
100
AcDbEntity
  8
IMPORT_IGES
100
AcDbLine
 62
7
  6
CONTINUOUS
 10
4.1048535023
 20
7.2676759124
 11
4.1048535023
 21
7.3358577305
  0
LINE
  5
427
100
AcDbEntity
  8
IMPORT_IGES
100
AcDbLine
 62
253
  6
CONTINUOUS
 10
4.1734592793
 20
-11.25
 11
4.1734421839
 21
-11.0508821734
  0
LINE
  5
428
100
AcDbEntity
  8
IMPORT_IGES
100
AcDbLine
 62
253
  6
CONTINUOUS
 10
4.2
 20
8.2748812075
 11
4.1999999452
 21
10.65
  0
LINE
  5
429
100
AcDbEntity
  8
IMPORT_IGES
100
AcDbLine
 62
253
  6
CONTINUOUS
 10
4.2094854821
 20
-8.6808532807
 11
4.2094854821
 21
-8.6405803829
  0
LINE
  5
42A
100
AcDbEntity
  8
ASSI
100
AcDbLine
 62
7
  6
CONTINUOUS
 10
4.3539971429
 20
23.5393800954
 11
4.3539971429
 21
22.8606199046
  0
LINE
  5
42B
100
AcDbEntity
  8
ASSI
100
AcDbLine
 62
7
  6
CONTINUOUS
 10
4.3539971429
 20
-22.8606199046
 11
4.3539971429
 21
-23.5393800954
  0
LINE
  5
42C
100
AcDbEntity
  8
ASSI
100
AcDbLine
 62
7
  6
CONTINUOUS
 10
4.45
 20
-23.7500380762
 11
4.45
 21
-23.4179449472
  0
LINE
  5
42D
100
AcDbEntity
  8
ASSI
100
AcDbLine
 62
7
  6
CONTINUOUS
 10
4.45
 20
-22.9820550528
 11
4.45
 21
-22.4
  0
LINE
  5
42E
100
AcDbEntity
  8
ASSI
100
AcDbLine
 62
7
  6
CONTINUOUS
 10
4.45
 20
22.4
 11
4.45
 21
22.9820550528
  0
LINE
  5
42F
100
AcDbEntity
  8
ASSI
100
AcDbLine
 62
7
  6
CONTINUOUS
 10
4.45
 20
23.4179449472
 11
4.45
 21
23.7500380762
  0
LINE
  5
430
100
AcDbEntity
  8
IMPORT_IGES
100
AcDbLine
 62
7
  6
CONTINUOUS
 10
4.5
 20
-0.755
 11
4.5
 21
2.9772667053
  0
LINE
  5
431
100
AcDbEntity
  8
IMPORT_IGES
100
AcDbLine
 62
7
  6
CONTINUOUS
 10
4.5
 20
4.2605817051
 11
4.5
 21
6.044599476
  0
LWPOLYLINE
  5
432
100
AcDbEntity
  8
IMPORT_IGES
100
AcDbPolyline
 62
253
  6
CONTINUOUS
 90
6
 70
0
 10
3.8
 20
2.8132052805
 10
3.7998032311
 20
2.5153509188
 10
3.7999158822
 20
2.4666182959
 10
3.8003530373
 20
2.416296733
 10
3.8010289542
 20
2.3649729196
 10
3.801943633
 20
2.3132065629
  0
LINE
  5
433
100
AcDbEntity
  8
IMPORT_IGES
100
AcDbLine
 62
253
  6
CONTINUOUS
 10
4.1511435721
 20
-8.6438129345
 11
4.1526328089
 21
-8.4815015967
  0
LINE
  5
434
100
AcDbEntity
  8
IMPORT_IGES
100
AcDbLine
 62
7
  6
CONTINUOUS
 10
3.8129295204
 20
-7.9224132307
 11
3.8203932808
 21
-7.145502023
  0
LINE
  5
435
100
AcDbEntity
  8
IMPORT_IGES
100
AcDbLine
 62
7
  6
CONTINUOUS
 10
3.7778043677
 20
-10.8472710106
 11
3.7734528562
 21
-11.2499999995
  0
LINE
  5
436
100
AcDbEntity
  8
IMPORT_IGES
100
AcDbLine
 62
253
  6
CONTINUOUS
 10
3.832129547
 20
-6.1682203415
 11
3.8203932811
 21
-7.1455020228
  0
LINE
  5
437
100
AcDbEntity
  8
IMPORT_IGES
100
AcDbLine
 62
253
  6
CONTINUOUS
 10
3.8129292811
 20
-7.9224132299
 11
3.7778043935
 21
-10.8472710107
  0
LINE
  5
438
100
AcDbEntity
  8
IMPORT_IGES
100
AcDbLine
 62
7
  6
CONTINUOUS
 10
3.9734237032
 20
-11.0535258999
 11
4.0256082316
 21
-6.7081076972
  0
LINE
  5
439
100
AcDbEntity
  8
IMPORT_IGES
100
AcDbLine
 62
253
  6
CONTINUOUS
 10
4.154313196
 20
-8.3830942548
 11
4.1755975682
 21
-6.6038302899
  0
LINE
  5
43A
100
AcDbEntity
  8
IMPORT_IGES
100
AcDbLine
 62
253
  6
CONTINUOUS
 10
4.1526328089
 20
-8.4815023568
 11
4.154313196
 21
-8.3830942858
  0
LWPOLYLINE
  5
43B
100
AcDbEntity
  8
IMPORT_IGES
100
AcDbPolyline
 62
7
  6
CONTINUOUS
 90
10
 70
0
 10
4.1734421839
 20
-11.0508821734
 10
4.1794419457
 20
-10.7980825262
 10
4.1839548752
 20
-10.5452464476
 10
4.1869809723
 20
-10.2923834491
 10
4.1875280555
 20
-10.0395034842
 10
4.1865883063
 20
-9.786615655
 10
4.1871382693
 20
-9.5337282129
 10
4.190170126
 20
-9.2808502815
 10
4.1946916949
 20
-9.0279918557
 10
4.200702976
 20
-8.775162509
  0
LWPOLYLINE
  5
43C
100
AcDbEntity
  8
IMPORT_IGES
100
AcDbPolyline
 62
7
  6
CONTINUOUS
 90
17
 70
0
 10
4.0002229525
 20
-8.8363548107
 10
4.0002804408
 20
-8.8341091557
 10
4.0004165021
 20
-8.8311922897
 10
4.0006622316
 20
-8.8277354311
 10
4.001068795
 20
-8.8236257718
 10
4.001751141
 20
-8.8184644148
 10
4.002875243
 20
-8.8119888271
 10
4.0045477886
 20
-8.804510915
 10
4.0067954611
 20
-8.796504746
 10
4.0097102767
 20
-8.7880359285
 10
4.0133911116
 20
-8.7791689253
 10
4.0177341362
 20
-8.7703649545
 10
4.0226589758
 20
-8.7618402333
 10
4.0282343922
 20
-8.753515459
 10
4.0345074086
 20
-8.7453952618
 10
4.0414641361
 20
-8.7375727522
 10
4.0490813743
 20
-8.7301345729
  0
LINE
  5
43D
100
AcDbEntity
  8
IMPORT_IGES
100
AcDbLine
 62
253
  6
CONTINUOUS
 10
4.200702976
 20
-8.775162509
 11
4.2039088854
 21
-8.6806640917
  0
LWPOLYLINE
  5
43E
100
AcDbEntity
  8
ASSI
100
AcDbPolyline
 62
7
  6
CONTINUOUS
 90
34
 70
0
 10
4.6001610877
 20
13.8009067479
 10
4.6022520909
 20
13.8462412332
 10
4.6084775376
 20
13.8909870013
 10
4.6187684913
 20
13.9347728851
 10
4.6330572682
 20
13.9773700649
 10
4.6511814321
 20
14.0182877605
 10
4.6727940053
 20
14.0568151306
 10
4.6974243264
 20
14.0924314082
 10
4.724913198
 20
14.1251867867
 10
4.7553931779
 20
14.1552093826
 10
4.7888575732
 20
14.1823725682
 10
4.8248627229
 20
14.2062122234
 10
4.8629287957
 20
14.2263214744
 10
4.9027783381
 20
14.2425268096
 10
4.9439891538
 20
14.2546740356
 10
4.9857737427
 20
14.2625861399
 10
5.0273261105
 20
14.2662744307
 10
5.0686752051
 20
14.265904977
 10
5.1102765187
 20
14.2614804713
 10
5.1521374664
 20
14.2528266607
 10
5.1934734515
 20
14.2399289196
 10
5.2335553803
 20
14.2229597421
 10
5.2719790418
 20
14.202034588
 10
5.3084150251
 20
14.1773164117
 10
5.3423308204
 20
14.1492457686
 10
5.3732759338
 20
14.1182716467
 10
5.4012131782
 20
14.0845264751
 10
5.4262096449
 20
14.0479743449
 10
5.4480982401
 20
14.0085945888
 10
5.4664244975
 20
13.96690648
 10
5.4808405411
 20
13.9236824034
 10
5.4911979986
 20
13.8794419094
 10
5.4974495835
 20
13.8344060592
 10
5.4995447753
 20
13.7889513116
  0
LWPOLYLINE
  5
43F
100
AcDbEntity
  8
IMPORT_IGES
100
AcDbPolyline
 62
253
  6
CONTINUOUS
 90
10
 70
0
 10
7.2030000003
 20
10.0965066857
 10
7.222862755
 20
10.1503990741
 10
7.2426231746
 20
10.1962397086
 10
7.2616254139
 20
10.2341853627
 10
7.2789417858
 20
10.2645639725
 10
7.2945814329
 20
10.2877286801
 10
7.3092829812
 20
10.3036461236
 10
7.3229295592
 20
10.3122502146
 10
7.3347556827
 20
10.313832836
 10
7.3444213565
 20
10.3086387202
  0
LWPOLYLINE
  5
440
100
AcDbEntity
  8
IMPORT_IGES
100
AcDbPolyline
 62
253
  6
CONTINUOUS
 90
4
 70
0
 10
-4.0964593868
 20
-6.3738219254
 10
-4.0223076782
 20
-6.3145894082
 10
-3.9942763128
 20
-6.2926604625
 10
-3.9011597893
 20
-6.2207761773
  0
LWPOLYLINE
  5
441
100
AcDbEntity
  8
IMPORT_IGES
100
AcDbPolyline
 62
253
  6
CONTINUOUS
 90
3
 70
0
 10
-3.9011597893
 20
-6.2207761773
 10
-3.8673493596
 20
-6.194830359
 10
-3.832129547
 20
-6.1682203415
  0
LINE
  5
442
100
AcDbEntity
  8
IMPORT_IGES
100
AcDbLine
 62
253
  6
CONTINUOUS
 10
7.2275165383
 20
-0.6710818598
 11
7.3974982454
 21
-0.571087758
  0
LINE
  5
443
100
AcDbEntity
  8
IMPORT_IGES
100
AcDbLine
 62
253
  6
CONTINUOUS
 10
4.6825206373
 20
3.4922589292
 11
4.4842642038
 21
3.465907713
  0
LINE
  5
444
100
AcDbEntity
  8
IMPORT_IGES
100
AcDbLine
 62
253
  6
CONTINUOUS
 10
-4.5025898749
 20
2.9451045053
 11
-4.5
 21
2.9451623704
  0
LINE
  5
445
100
AcDbEntity
  8
IMPORT_IGES
100
AcDbLine
 62
253
  6
CONTINUOUS
 10
-4.5229591699
 20
2.9450127055
 11
-4.5025898749
 21
2.9451045053
  0
LINE
  5
446
100
AcDbEntity
  8
IMPORT_IGES
100
AcDbLine
 62
7
  6
CONTINUOUS
 10
5.0499999999
 20
2.645
 11
4.8
 21
2.645
  0
LINE
  5
447
100
AcDbEntity
  8
IMPORT_IGES
100
AcDbLine
 62
7
  6
CONTINUOUS
 10
-4.7999999999
 20
2.645
 11
-5.05
 21
2.645
  0
LINE
  5
448
100
AcDbEntity
  8
IMPORT_IGES
100
AcDbLine
 62
7
  6
CONTINUOUS
 10
4.0877513367
 20
2.8132052805
 11
3.4266717018
 21
2.8132052805
  0
LINE
  5
449
100
AcDbEntity
  8
IMPORT_IGES
100
AcDbLine
 62
7
  6
CONTINUOUS
 10
-3.4266717018
 20
2.8132052805
 11
-4.0877513364
 21
2.8132052805
  0
LINE
  5
44A
100
AcDbEntity
  8
ASSI
100
AcDbLine
 62
7
  6
CONTINUOUS
 10
8.3652314823
 20
2.9385891314
 11
8.7483942934
 21
2.9385891314
  0
LINE
  5
44B
100
AcDbEntity
  8
ASSI
100
AcDbLine
 62
7
  6
CONTINUOUS
 10
-8.3652314823
 20
2.9385891314
 11
-8.7483942934
 21
2.9385891314
  0
LINE
  5
44C
100
AcDbEntity
  8
IMPORT_IGES
100
AcDbLine
 62
253
  6
CONTINUOUS
 10
4.5
 20
2.944999947
 11
5.05
 21
2.945
  0
LINE
  5
44D
100
AcDbEntity
  8
IMPORT_IGES
100
AcDbLine
 62
253
  6
CONTINUOUS
 10
-4.087751337
 20
3.0132052805
 11
-3.2429794848
 21
3.0132052805
  0
LINE
  5
44E
100
AcDbEntity
  8
IMPORT_IGES
100
AcDbLine
 62
253
  6
CONTINUOUS
 10
3.2429794848
 20
3.0132052805
 11
4.087751337
 21
3.0132052805
  0
LINE
  5
44F
100
AcDbEntity
  8
ASSI
100
AcDbLine
 62
253
  6
CONTINUOUS
 10
-8.3626133223
 20
3.0885834198
 11
-8.74846397
 21
3.0885834198
  0
LINE
  5
450
100
AcDbEntity
  8
IMPORT_IGES
100
AcDbLine
 62
7
  6
CONTINUOUS
 10
-2.9459638002
 20
3.288305283
 11
-0.9
 21
3.288305283
  0
LINE
  5
451
100
AcDbEntity
  8
IMPORT_IGES
100
AcDbLine
 62
7
  6
CONTINUOUS
 10
0.9
 20
3.288305283
 11
2.9459632556
 21
3.288305283
  0
LINE
  5
452
100
AcDbEntity
  8
IMPORT_IGES
100
AcDbLine
 62
7
  6
CONTINUOUS
 10
-2.6048535023
 20
3.3097338544
 11
-1.7048535023
 21
3.3097338544
  0
LINE
  5
453
100
AcDbEntity
  8
IMPORT_IGES
100
AcDbLine
 62
7
  6
CONTINUOUS
 10
1.7048535023
 20
3.3097338544
 11
2.6048535023
 21
3.3097338544
  0
LINE
  5
454
100
AcDbEntity
  8
IMPORT_IGES
100
AcDbLine
 62
7
  6
CONTINUOUS
 10
-1.4048535023
 20
3.3760253122
 11
-0.6880160053
 21
3.3760253122
  0
LINE
  5
455
100
AcDbEntity
  8
IMPORT_IGES
100
AcDbLine
 62
7
  6
CONTINUOUS
 10
0.6880160053
 20
3.3760253122
 11
1.4048535023
 21
3.3760253122
  0
LINE
  5
456
100
AcDbEntity
  8
ASSI
100
AcDbLine
 62
253
  6
CONTINUOUS
 10
8.355232742
 20
3.5114165802
 11
8.74846397
 21
3.5114165802
  0
LINE
  5
457
100
AcDbEntity
  8
ASSI
100
AcDbLine
 62
7
  6
CONTINUOUS
 10
-8.7483942934
 20
3.6614108686
 11
-8.352614582
 21
3.6614108686
  0
LINE
  5
458
100
AcDbEntity
  8
ASSI
100
AcDbLine
 62
7
  6
CONTINUOUS
 10
8.352614582
 20
3.6614108686
 11
8.7483942934
 21
3.6614108686
  0
LINE
  5
459
100
AcDbEntity
  8
IMPORT_IGES
100
AcDbLine
 62
253
  6
CONTINUOUS
 10
-1.1048535023
 20
4.0755287456
 11
-0.6
 21
4.0755287456
  0
LINE
  5
45A
100
AcDbEntity
  8
IMPORT_IGES
100
AcDbLine
 62
253
  6
CONTINUOUS
 10
0.6
 20
4.0755287456
 11
1.1048535023
 21
4.0755287456
  0
LINE
  5
45B
100
AcDbEntity
  8
IMPORT_IGES
100
AcDbLine
 62
253
  6
CONTINUOUS
 10
-5.05
 20
2.945
 11
-4.5229591699
 21
2.9450127055
  0
LINE
  5
45C
100
AcDbEntity
  8
IMPORT_IGES
100
AcDbLine
 62
253
  6
CONTINUOUS
 10
-4.6825206373
 20
3.4922589293
 11
-4.4842642038
 21
3.465907713
  0
LINE
  5
45D
100
AcDbEntity
  8
IMPORT_IGES
100
AcDbLine
 62
253
  6
CONTINUOUS
 10
7.1634669754
 20
-0.606008553
 11
7.1418267973
 21
-0.5932029753
  0
LWPOLYLINE
  5
45E
100
AcDbEntity
  8
IMPORT_IGES
100
AcDbPolyline
 62
253
  6
CONTINUOUS
 90
4
 70
0
 10
7.2847416503
 20
-0.7278857813
 10
7.269562279
 20
-0.7175263293
 10
7.2552917889
 20
-0.7040770689
 10
7.2414975422
 20
-0.6884053443
  0
LINE
  5
45F
100
AcDbEntity
  8
IMPORT_IGES
100
AcDbLine
 62
253
  6
CONTINUOUS
 10
7.1828084687
 20
-0.6207883686
 11
7.1634669754
 21
-0.606008553
  0
LINE
  5
460
100
AcDbEntity
  8
IMPORT_IGES
100
AcDbLine
 62
253
  6
CONTINUOUS
 10
6.05
 20
-0.3184368386
 11
6.1060730709
 21
-0.3710833041
  0
LINE
  5
461
100
AcDbEntity
  8
ASSI
100
AcDbLine
 62
253
  6
CONTINUOUS
 10
-6.9101323002
 20
10.8101132618
 11
-6.9996669794
 21
10.8996479409
  0
LINE
  5
462
100
AcDbEntity
  8
ASSI
100
AcDbLine
 62
7
  6
CONTINUOUS
 10
-5.5
 20
10.9
 11
-5.45
 21
10.85
  0
LINE
  5
463
100
AcDbEntity
  8
IMPORT_IGES
100
AcDbLine
 62
253
  6
CONTINUOUS
 10
5.0973054311
 20
-1.3548577458
 11
5.1100082658
 21
-1.3919857543
  0
LINE
  5
464
100
AcDbEntity
  8
IMPORT_IGES
100
AcDbLine
 62
253
  6
CONTINUOUS
 10
2.6374021122
 20
6.4780388601
 11
2.6012829937
 21
6.5913800612
  0
LINE
  5
465
100
AcDbEntity
  8
IMPORT_IGES
100
AcDbLine
 62
253
  6
CONTINUOUS
 10
2.6012829937
 20
6.5913800612
 11
2.5000473188
 21
6.9213177878
  0
LWPOLYLINE
  5
466
100
AcDbEntity
  8
IMPORT_IGES
100
AcDbPolyline
 62
7
  6
CONTINUOUS
 90
11
 70
0
 10
4.7454596355
 20
-1.3919857543
 10
4.743257353
 20
-1.3711090777
 10
4.7408743966
 20
-1.3507995411
 10
4.7383107665
 20
-1.3310692954
 10
4.7355363879
 20
-1.3119587304
 10
4.7325813356
 20
-1.2934496706
 10
4.7295358332
 20
-1.2754642635
 10
4.7264113484
 20
-1.2580059509
 10
4.7231964135
 20
-1.2410873133
 10
4.7199468497
 20
-1.2246416498
 10
4.7184210188
 20
-1.2172060215
  0
LWPOLYLINE
  5
467
100
AcDbEntity
  8
IMPORT_IGES
100
AcDbPolyline
 62
253
  6
CONTINUOUS
 90
13
 70
0
 10
4.0
 20
10.3621320344
 10
3.9982889723
 20
10.3805912255
 10
3.9931851653
 20
10.3987345747
 10
3.9847759065
 20
10.4162516444
 10
3.9732050808
 20
10.4328427125
 10
3.9586706681
 20
10.4482239013
 10
3.9414213562
 20
10.4621320344
 10
3.9217522858
 20
10.4743291397
 10
3.9
 20
10.4846065215
 10
3.8765366865
 20
10.4927883308
 10
3.851763809
 20
10.4987345748
 10
3.8261052384
 20
10.5023435114
 10
3.8
 20
10.5035533907
  0
LINE
  5
468
100
AcDbEntity
  8
IMPORT_IGES
100
AcDbLine
 62
253
  6
CONTINUOUS
 10
7.2518413568
 20
-10.3431621104
 11
7.2499999999
 21
-10.3215376648
  0
LWPOLYLINE
  5
469
100
AcDbEntity
  8
ASSI
100
AcDbPolyline
 62
7
  6
CONTINUOUS
 90
13
 70
0
 10
7.2
 20
-24.300030461
 10
7.2017102642
 20
-24.3261325878
 10
7.2068124405
 20
-24.3517877661
 10
7.2152194218
 20
-24.3765572875
 10
7.2267876629
 20
-24.4000177444
 10
7.24131945
 20
-24.4217675502
 10
7.2585660278
 20
-24.4414339722
 10
7.2782324498
 20
-24.45868055
 10
7.2999822556
 20
-24.4732123371
 10
7.3234427125
 20
-24.4847805782
 10
7.3482122339
 20
-24.4931875594
 10
7.3738674122
 20
-24.4982897358
 10
7.399969539
 20
-24.5
  0
LWPOLYLINE
  5
46A
100
AcDbEntity
  8
ASSI
100
AcDbPolyline
 62
7
  6
CONTINUOUS
 90
16
 70
0
 10
4.45
 20
23.7500380762
 10
4.4486505878
 20
23.7759809831
 10
4.4445943169
 20
23.8017480173
 10
4.4378423144
 20
23.8270535846
 10
4.4283964102
 20
23.8517009881
 10
4.4163505324
 20
23.8753074461
 10
4.4019831437
 20
23.897354591
 10
4.385651735
 20
23.9174650114
 10
4.3674650114
 20
23.935651735
 10
4.347354591
 20
23.9519831437
 10
4.3253074461
 20
23.9663505324
 10
4.3017009881
 20
23.9783964102
 10
4.2770535846
 20
23.9878423144
 10
4.2517480173
 20
23.9945943169
 10
4.2259809831
 20
23.9986505878
 10
4.2000380762
 20
24.0
  0
LINE
  5
46B
100
AcDbEntity
  8
ASSI
100
AcDbLine
 62
253
  6
CONTINUOUS
 10
4.6001610877
 20
13.8009067479
 11
4.6727615925
 21
10.85
  0
LWPOLYLINE
  5
46C
100
AcDbEntity
  8
IMPORT_IGES
100
AcDbPolyline
 62
7
  6
CONTINUOUS
 90
10
 70
0
 10
4.75
 20
-1.4904696055
 10
4.7499471052
 20
-1.4795127206
 10
4.7497812793
 20
-1.4685586979
 10
4.7495025223
 20
-1.4576075373
 10
4.7491107892
 20
-1.4466582667
 10
4.748606125
 20
-1.4357118583
 10
4.7479886641
 20
-1.4247712284
 10
4.7472584513
 20
-1.4138373491
 10
4.7464154417
 20
-1.4029092483
 10
4.7454596355
 20
-1.3919869261
  0
LINE
  5
46D
100
AcDbEntity
  8
IMPORT_IGES
100
AcDbLine
 62
7
  6
CONTINUOUS
 10
4.55
 20
-0.9933071266
 11
4.55
 21
-1.2360899655
  0
LINE
  5
46E
100
AcDbEntity
  8
IMPORT_IGES
100
AcDbLine
 62
253
  6
CONTINUOUS
 10
4.55
 20
-8.3830940215
 11
4.55
 21
-1.2360899655
  0
LINE
  5
46F
100
AcDbEntity
  8
IMPORT_IGES
100
AcDbLine
 62
7
  6
CONTINUOUS
 10
4.75
 20
-7.9829598037
 11
4.75
 21
-1.4904696055
  0
LINE
  5
470
100
AcDbEntity
  8
IMPORT_IGES
100
AcDbLine
 62
253
  6
CONTINUOUS
 10
4.8000027839
 20
6.0443620484
 11
4.8
 21
-0.755
  0
LINE
  5
471
100
AcDbEntity
  8
IMPORT_IGES
100
AcDbLine
 62
253
  6
CONTINUOUS
 10
5.05
 20
2.945
 11
5.05
 21
2.345
  0
LINE
  5
472
100
AcDbEntity
  8
IMPORT_IGES
100
AcDbLine
 62
253
  6
CONTINUOUS
 10
5.1
 20
-1.355
 11
5.1
 21
-1.055
  0
LINE
  5
473
100
AcDbEntity
  8
IMPORT_IGES
100
AcDbLine
 62
253
  6
CONTINUOUS
 10
5.45
 20
-1.355
 11
5.45
 21
-1.055
  0
LINE
  5
474
100
AcDbEntity
  8
ASSI
100
AcDbLine
 62
7
  6
CONTINUOUS
 10
5.5
 20
10.9
 11
5.4995447753
 21
13.7889513116
  0
LINE
  5
475
100
AcDbEntity
  8
IMPORT_IGES
100
AcDbLine
 62
253
  6
CONTINUOUS
 10
5.55
 20
-8.1451319631
 11
5.5500000001
 21
-1.3458098149
  0
LINE
  5
476
100
AcDbEntity
  8
IMPORT_IGES
100
AcDbLine
 62
253
  6
CONTINUOUS
 10
5.6500001766
 20
-11.25
 11
5.6500001407
 21
-11.45
  0
LINE
  5
477
100
AcDbEntity
  8
IMPORT_IGES
100
AcDbLine
 62
253
  6
CONTINUOUS
 10
5.75
 20
1.645
 11
5.75
 21
-0.755
  0
LINE
  5
478
100
AcDbEntity
  8
IMPORT_IGES
100
AcDbLine
 62
7
  6
CONTINUOUS
 10
6.05
 20
1.645
 11
6.05
 21
-0.7550000001
  0
LINE
  5
479
100
AcDbEntity
  8
IMPORT_IGES
100
AcDbLine
 62
253
  6
CONTINUOUS
 10
6.15
 20
10.65
 11
6.1500004232
 21
10.85
  0
LINE
  5
47A
100
AcDbEntity
  8
IMPORT_IGES
100
AcDbLine
 62
253
  6
CONTINUOUS
 10
6.2231434353
 20
-11.0508821734
 11
6.2231434947
 21
-11.25
  0
LINE
  5
47B
100
AcDbEntity
  8
IMPORT_IGES
100
AcDbLine
 62
253
  6
CONTINUOUS
 10
6.3499999999
 20
0.245
 11
6.3499999999
 21
1.645
  0
LINE
  5
47C
100
AcDbEntity
  8
ASSI
100
AcDbLine
 62
7
  6
CONTINUOUS
 10
6.5
 20
-11.5698149423
 11
6.5
 21
-11.2
  0
LINE
  5
47D
100
AcDbEntity
  8
ASSI
100
AcDbLine
 62
7
  6
CONTINUOUS
 10
6.5
 20
10.75
 11
6.5
 21
10.8188401295
  0
LINE
  5
47E
100
AcDbEntity
  8
ASSI
100
AcDbLine
 62
253
  6
CONTINUOUS
 10
6.5123099353
 20
10.8126856306
 11
6.5123099353
 21
10.7023322034
  0
LINE
  5
47F
100
AcDbEntity
  8
ASSI
100
AcDbLine
 62
7
  6
CONTINUOUS
 10
4.6
 20
10.9
 11
4.6001610877
 21
13.8009067479
  0
LINE
  5
480
100
AcDbEntity
  8
ASSI
100
AcDbLine
 62
7
  6
CONTINUOUS
 10
6.5031876932
 20
-11.1347265368
 11
6.502617861
 21
-11.2000228457
  0
LINE
  5
481
100
AcDbEntity
  8
ASSI
100
AcDbLine
 62
253
  6
CONTINUOUS
 10
5.4995447753
 20
13.7889513116
 11
5.4272384075
 21
10.85
  0
LWPOLYLINE
  5
482
100
AcDbEntity
  8
ASSI
100
AcDbPolyline
 62
7
  6
CONTINUOUS
 90
16
 70
0
 10
4.45
 20
-23.7500380762
 10
4.4486505878
 20
-23.7759809831
 10
4.4445943169
 20
-23.8017480173
 10
4.4378423144
 20
-23.8270535846
 10
4.4283964102
 20
-23.8517009881
 10
4.4163505324
 20
-23.8753074461
 10
4.4019831437
 20
-23.897354591
 10
4.385651735
 20
-23.9174650114
 10
4.3674650114
 20
-23.935651735
 10
4.347354591
 20
-23.9519831437
 10
4.3253074461
 20
-23.9663505324
 10
4.3017009881
 20
-23.9783964102
 10
4.2770535846
 20
-23.9878423144
 10
4.2517480173
 20
-23.9945943169
 10
4.2259809831
 20
-23.9986505878
 10
4.2000380762
 20
-24.0
  0
LWPOLYLINE
  5
483
100
AcDbEntity
  8
ASSI
100
AcDbPolyline
 62
7
  6
CONTINUOUS
 90
13
 70
0
 10
7.2
 20
24.300030461
 10
7.2017102642
 20
24.3261325878
 10
7.2068124405
 20
24.3517877661
 10
7.2152194218
 20
24.3765572875
 10
7.2267876629
 20
24.4000177444
 10
7.24131945
 20
24.4217675502
 10
7.2585660278
 20
24.4414339722
 10
7.2782324498
 20
24.45868055
 10
7.2999822556
 20
24.4732123371
 10
7.3234427125
 20
24.4847805782
 10
7.3482122339
 20
24.4931875595
 10
7.3738674122
 20
24.4982897358
 10
7.399969539
 20
24.5
  0
LWPOLYLINE
  5
484
100
AcDbEntity
  8
IMPORT_IGES
100
AcDbPolyline
 62
253
  6
CONTINUOUS
 90
13
 70
0
 10
4.75
 20
-6.2324135107
 10
4.7483275292
 20
-6.2506644171
 10
4.7433610714
 20
-6.2685486465
 10
4.7352170226
 20
-6.2857738638
 10
4.7241265112
 20
-6.3019834687
 10
4.7102667441
 20
-6.3170142517
 10
4.6936175463
 20
-6.3308360701
 10
4.6742327771
 20
-6.3432426971
 10
4.6524663738
 20
-6.3538644108
 10
4.6287397459
 20
-6.3624136116
 10
4.6034782879
 20
-6.3686854314
 10
4.5770767832
 20
-6.372532831
 10
4.55
 20
-6.373834867
  0
LWPOLYLINE
  5
485
100
AcDbEntity
  8
IMPORT_IGES
100
AcDbPolyline
 62
253
  6
CONTINUOUS
 90
13
 70
0
 10
3.9777902871
 20
-10.6899191862
 10
3.9757976447
 20
-10.7109462125
 10
3.9703340793
 20
-10.7316138852
 10
3.9614707613
 20
-10.751555699
 10
3.9492562742
 20
-10.7705247572
 10
3.9339308155
 20
-10.7880469059
 10
3.9161025659
 20
-10.8035271935
 10
3.8964589002
 20
-10.8166387807
 10
3.8752317469
 20
-10.8274603417
 10
3.852425084
 20
-10.8360610375
 10
3.8282519876
 20
-10.8423254452
 10
3.8032327082
 20
-10.8460853169
 10
3.7777713635
 20
-10.8472708919
  0
LWPOLYLINE
  5
486
100
AcDbEntity
  8
IMPORT_IGES
100
AcDbPolyline
 62
253
  6
CONTINUOUS
 90
13
 70
0
 10
5.749999999
 20
-1.3096048809
 10
5.7483260318
 20
-1.3202341318
 10
5.74335977
 20
-1.3306506586
 10
5.7352167419
 20
-1.3406842151
 10
5.7241268698
 20
-1.3501272818
 10
5.7102667698
 20
-1.3588843669
 10
5.6936170945
 20
-1.3669370759
 10
5.674232265
 20
-1.3741651093
 10
5.6524658036
 20
-1.3803532613
 10
5.6287391843
 20
-1.3853338561
 10
5.6034778342
 20
-1.3889875101
 10
5.5770765184
 20
-1.3912286121
 10
5.55
 20
-1.3919867132
  0
LINE
  5
487
100
AcDbEntity
  8
IMPORT_IGES
100
AcDbLine
 62
7
  6
CONTINUOUS
 10
4.1491793417
 20
-8.6508013435
 11
4.1511435712
 21
-8.6438166698
  0
LWPOLYLINE
  5
488
100
AcDbEntity
  8
IMPORT_IGES
100
AcDbPolyline
 62
7
  6
CONTINUOUS
 90
10
 70
0
 10
6.1060730709
 20
-0.3710827939
 10
6.1549759495
 20
-0.3130890465
 10
6.1985743046
 20
-0.2521402242
 10
6.236868136
 20
-0.1882363269
 10
6.2700513744
 20
-0.1209238867
 10
6.2979300893
 20
-0.0506563715
 10
6.3199224885
 20
0.0212058151
 10
6.3358346413
 20
0.0942092053
 10
6.3458604784
 20
0.1688072669
 10
6.3499999999
 20
0.245
  0
LWPOLYLINE
  5
489
100
AcDbEntity
  8
IMPORT_IGES
100
AcDbPolyline
 62
253
  6
CONTINUOUS
 90
10
 70
0
 10
-7.955194248
 20
-10.189590653
 10
-7.97358297
 20
-10.200185218
 10
-7.991941438
 20
-10.2088625867
 10
-8.0101195042
 20
-10.2155157566
 10
-8.0280429835
 20
-10.2200672399
 10
-8.0454715556
 20
-10.2224040141
 10
-8.0620303499
 20
-10.2224794655
 10
-8.0775328604
 20
-10.2203564886
 10
-8.0919511889
 20
-10.2161056004
 10
-8.105194248
 20
-10.2098076212
  0
LWPOLYLINE
  5
48A
100
AcDbEntity
  8
IMPORT_IGES
100
AcDbPolyline
 62
253
  6
CONTINUOUS
 90
6
 70
0
 10
-7.3257672229
 20
-10.4467124779
 10
-7.3475336262
 20
-10.4587090787
 10
-7.3712602541
 20
-10.468364898
 10
-7.3965217121
 20
-10.4754485495
 10
-7.4229232168
 20
-10.479793961
 10
-7.45
 20
-10.4812645341
  0
LWPOLYLINE
  5
48B
100
AcDbEntity
  8
IMPORT_IGES
100
AcDbPolyline
 62
253
  6
CONTINUOUS
 90
5
 70
0
 10
-7.2771970861
 20
-8.6938800171
 10
-7.2431563277
 20
-8.6781833348
 10
-7.2069323925
 20
-8.6651235904
 10
-7.1694160119
 20
-8.654821369
 10
-7.1309040964
 20
-8.6473168656
  0
LINE
  5
48C
100
AcDbEntity
  8
IMPORT_IGES
100
AcDbLine
 62
253
  6
CONTINUOUS
 10
4.1416667458
 20
6.669602164
 11
3.9447133433
 21
6.6348263547
  0
LINE
  5
48D
100
AcDbEntity
  8
IMPORT_IGES
100
AcDbLine
 62
7
  6
CONTINUOUS
 10
8.3074277517
 20
6.101794473
 11
8.310015322
 21
6.1019208396
  0
LWPOLYLINE
  5
48E
100
AcDbEntity
  8
IMPORT_IGES
100
AcDbPolyline
 62
7
  6
CONTINUOUS
 90
3
 70
0
 10
4.5
 20
6.044599476
 10
4.502589799
 20
6.044697702
 10
4.5102959886
 20
6.0447576036
  0
LINE
  5
48F
100
AcDbEntity
  8
IMPORT_IGES
100
AcDbLine
 62
7
  6
CONTINUOUS
 10
8.1603353552
 20
6.0970812158
 11
8.3074277517
 21
6.101794473
  0
LINE
  5
490
100
AcDbEntity
  8
IMPORT_IGES
100
AcDbLine
 62
7
  6
CONTINUOUS
 10
8.0098316646
 20
6.0924587123
 11
8.1603353552
 21
6.0970812158
  0
LINE
  5
491
100
AcDbEntity
  8
IMPORT_IGES
100
AcDbLine
 62
7
  6
CONTINUOUS
 10
-4.5025898608
 20
6.044593207
 11
-4.5
 21
6.0446238705
  0
LINE
  5
492
100
AcDbEntity
  8
IMPORT_IGES
100
AcDbLine
 62
7
  6
CONTINUOUS
 10
-4.7999991816
 20
6.0440525646
 11
-4.5025898608
 21
6.044593207
  0
LWPOLYLINE
  5
493
100
AcDbEntity
  8
IMPORT_IGES
100
AcDbPolyline
 62
7
  6
CONTINUOUS
 90
3
 70
0
 10
4.5102959886
 20
6.0447576036
 10
4.5403226642
 20
6.0447526878
 10
4.799998684
 20
6.0440741648
  0
LINE
  5
494
100
AcDbEntity
  8
IMPORT_IGES
100
AcDbLine
 62
7
  6
CONTINUOUS
 10
-8.0100852125
 20
6.0966544877
 11
-8.3100157199
 21
6.1018980425
  0
LINE
  5
495
100
AcDbEntity
  8
IMPORT_IGES
100
AcDbLine
 62
253
  6
CONTINUOUS
 10
-3.9447133425
 20
6.6348263546
 11
-4.1416667458
 21
6.669602164
  0
LINE
  5
496
100
AcDbEntity
  8
IMPORT_IGES
100
AcDbLine
 62
253
  6
CONTINUOUS
 10
7.2414975422
 20
-0.6884053443
 11
7.2275165383
 21
-0.6710818598
  0
LWPOLYLINE
  5
497
100
AcDbEntity
  8
IMPORT_IGES
100
AcDbPolyline
 62
253
  6
CONTINUOUS
 90
4
 70
0
 10
7.227516464
 20
-0.6710819036
 10
7.2144158377
 20
-0.6536102175
 10
7.1996181837
 20
-0.6367174541
 10
7.1828084687
 20
-0.6207883686
  0
LWPOLYLINE
  5
498
100
AcDbEntity
  8
IMPORT_IGES
100
AcDbPolyline
 62
253
  6
CONTINUOUS
 90
3
 70
0
 10
2.5000316096
 20
6.9213468442
 10
2.5764514029
 20
6.8050523934
 10
2.8071979173
 20
6.4586795433
  0
LINE
  5
499
100
AcDbEntity
  8
IMPORT_IGES
100
AcDbLine
 62
253
  6
CONTINUOUS
 10
2.8071979173
 20
6.4586795433
 11
2.9021403837
 21
6.3149631146
  0
LWPOLYLINE
  5
49A
100
AcDbEntity
  8
IMPORT_IGES
100
AcDbPolyline
 62
253
  6
CONTINUOUS
 90
7
 70
0
 10
4.4137891563
 20
6.3079380564
 10
4.4060208731
 20
6.3406444692
 10
4.3316621444
 20
6.7259348534
 10
4.2738442175
 20
7.1123350882
 10
4.2326886766
 20
7.4988177732
 10
4.2080739375
 20
7.8863440813
 10
4.2
 20
8.2748812075
  0
LWPOLYLINE
  5
49B
100
AcDbEntity
  8
IMPORT_IGES
100
AcDbPolyline
 62
253
  6
CONTINUOUS
 90
13
 70
0
 10
7.4499999999
 20
-0.7528306519
 10
7.4494976219
 20
-0.7444636679
 10
7.4481913327
 20
-0.7338755363
 10
7.4460811323
 20
-0.7210635747
 10
7.4430235597
 20
-0.7050793375
 10
7.4391620758
 20
-0.6868646595
 10
7.4349270634
 20
-0.6692572668
 10
7.4306484803
 20
-0.6536161067
 10
7.4259963686
 20
-0.6385872428
 10
7.4204112383
 20
-0.6229423423
 10
7.4137065926
 20
-0.6062719569
 10
7.4060689283
 20
-0.5889867318
 10
7.3974982454
 20
-0.571087758
  0
LINE
  5
49C
100
AcDbEntity
  8
IMPORT_IGES
100
AcDbLine
 62
253
  6
CONTINUOUS
 10
7.9884829207
 20
7.4428932182
 11
7.9946373592
 21
7.0903056731
  0
LINE
  5
49D
100
AcDbEntity
  8
IMPORT_IGES
100
AcDbLine
 62
253
  6
CONTINUOUS
 10
7.9590625198
 20
9.3404371412
 11
7.9860144018
 21
7.7964466092
  0
LINE
  5
49E
100
AcDbEntity
  8
IMPORT_IGES
100
AcDbLine
 62
7
  6
CONTINUOUS
 10
8.4227212945
 20
-0.355
 11
8.3100156476
 21
6.1019021835
  0
LINE
  5
49F
100
AcDbEntity
  8
IMPORT_IGES
100
AcDbLine
 62
7
  6
CONTINUOUS
 10
8.3119351768
 20
6.1019324319
 11
8.2565057833
 21
9.2774802551
  0
LINE
  5
4A0
100
AcDbEntity
  8
IMPORT_IGES
100
AcDbLine
 62
253
  6
CONTINUOUS
 10
8.010149868
 20
6.0924136332
 11
8.1220555343
 21
-0.354999921
  0
LINE
  5
4A1
100
AcDbEntity
  8
IMPORT_IGES
100
AcDbLine
 62
7
  6
CONTINUOUS
 10
7.9860144018
 20
7.7964466092
 11
7.9884830685
 21
7.4428932188
  0
LINE
  5
4A2
100
AcDbEntity
  8
ASSI
100
AcDbLine
 62
7
  6
CONTINUOUS
 10
7.4995567585
 20
10.1535033182
 11
7.4995066553
 21
10.3995256938
  0
LINE
  5
4A3
100
AcDbEntity
  8
ASSI
100
AcDbLine
 62
7
  6
CONTINUOUS
 10
8.2995166723
 20
7.9004833277
 11
8.2996728045
 21
6.8044432701
  0
LINE
  5
4A4
100
AcDbEntity
  8
IMPORT_IGES
100
AcDbLine
 62
253
  6
CONTINUOUS
 10
6.8030000015
 20
10.65
 11
6.8029981805
 21
7.9029284683
  0
LINE
  5
4A5
100
AcDbEntity
  8
ASSI
100
AcDbLine
 62
253
  6
CONTINUOUS
 10
6.8122642439
 20
10.8101132618
 11
6.8122642439
 21
10.65
  0
LINE
  5
4A6
100
AcDbEntity
  8
IMPORT_IGES
100
AcDbLine
 62
7
  6
CONTINUOUS
 10
7.003
 20
10.1672162206
 11
7.003
 21
7.8483151131
  0
LINE
  5
4A7
100
AcDbEntity
  8
IMPORT_IGES
100
AcDbLine
 62
253
  6
CONTINUOUS
 10
7.0499991095
 20
-8.6405803557
 11
7.0500033344
 21
-10.5911905861
  0
LINE
  5
4A8
100
AcDbEntity
  8
IMPORT_IGES
100
AcDbLine
 62
253
  6
CONTINUOUS
 10
7.050154201
 20
-0.3710827939
 11
7.0501548138
 21
-0.5710819827
  0
LINE
  5
4A9
100
AcDbEntity
  8
ASSI
100
AcDbLine
 62
7
  6
CONTINUOUS
 10
7.2
 20
-22.4
 11
7.2
 21
-24.300030461
  0
LINE
  5
4AA
100
AcDbEntity
  8
ASSI
100
AcDbLine
 62
7
  6
CONTINUOUS
 10
7.2
 20
22.4
 11
7.2
 21
24.300030461
  0
LINE
  5
4AB
100
AcDbEntity
  8
IMPORT_IGES
100
AcDbLine
 62
253
  6
CONTINUOUS
 10
7.203
 20
10.0965066856
 11
7.203
 21
7.768725494
  0
LINE
  5
4AC
100
AcDbEntity
  8
IMPORT_IGES
100
AcDbLine
 62
7
  6
CONTINUOUS
 10
7.25
 20
-0.7710819846
 11
7.25
 21
-6.7663853498
  0
LINE
  5
4AD
100
AcDbEntity
  8
IMPORT_IGES
100
AcDbLine
 62
7
  6
CONTINUOUS
 10
7.2499999999
 20
-8.7822750736
 11
7.2499999999
 21
-10.3571440889
  0
LINE
  5
4AE
100
AcDbEntity
  8
ASSI
100
AcDbLine
 62
7
  6
CONTINUOUS
 10
7.4101132618
 20
10.2429468149
 11
7.4101132618
 21
10.3101323002
  0
LINE
  5
4AF
100
AcDbEntity
  8
IMPORT_IGES
100
AcDbLine
 62
253
  6
CONTINUOUS
 10
7.4499999846
 20
-8.9420018708
 11
7.4499999683
 21
-10.4812646504
  0
LINE
  5
4B0
100
AcDbEntity
  8
IMPORT_IGES
100
AcDbLine
 62
253
  6
CONTINUOUS
 10
7.45
 20
-8.1451539698
 11
7.4499999999
 21
-0.7528306519
  0
LINE
  5
4B1
100
AcDbEntity
  8
ASSI
100
AcDbLine
 62
7
  6
CONTINUOUS
 10
8.3325462644
 20
-9.5825462644
 11
8.3325462644
 21
-8.1825462644
  0
LINE
  5
4B2
100
AcDbEntity
  8
ASSI
100
AcDbLine
 62
253
  6
CONTINUOUS
 10
8.7483942934
 20
8.1385834198
 11
8.7483942934
 21
7.9885891314
  0
LINE
  5
4B3
100
AcDbEntity
  8
ASSI
100
AcDbLine
 62
253
  6
CONTINUOUS
 10
8.7483942934
 20
3.0885834198
 11
8.7483942934
 21
2.9385891314
  0
LINE
  5
4B4
100
AcDbEntity
  8
ASSI
100
AcDbLine
 62
253
  6
CONTINUOUS
 10
8.7483942934
 20
-8.1114108686
 11
8.7483942934
 21
-7.9614165802
  0
LINE
  5
4B5
100
AcDbEntity
  8
ASSI
100
AcDbLine
 62
253
  6
CONTINUOUS
 10
8.7483942934
 20
-4.5614108686
 11
8.7483942934
 21
-4.4114165802
  0
LINE
  5
4B6
100
AcDbEntity
  8
IMPORT_IGES
100
AcDbLine
 62
7
  6
CONTINUOUS
 10
7.9873573988
 20
-8.1451539698
 11
7.9850089773
 21
-8.481503769
  0
LINE
  5
4B7
100
AcDbEntity
  8
IMPORT_IGES
100
AcDbLine
 62
253
  6
CONTINUOUS
 10
7.9559191794
 20
-10.1493178939
 11
7.9556144928
 21
-10.1895873508
  0
LINE
  5
4B8
100
AcDbEntity
  8
IMPORT_IGES
100
AcDbLine
 62
253
  6
CONTINUOUS
 10
8.119384815
 20
-0.5710821499
 11
8.1220555343
 21
-0.354999921
  0
LINE
  5
4B9
100
AcDbEntity
  8
IMPORT_IGES
100
AcDbLine
 62
7
  6
CONTINUOUS
 10
8.119384815
 20
-0.5710821499
 11
8.1067321905
 21
-1.391987288
  0
LINE
  5
4BA
100
AcDbEntity
  8
IMPORT_IGES
100
AcDbLine
 62
253
  6
CONTINUOUS
 10
8.041578185
 20
-5.0388424615
 11
7.9873573988
 21
-8.1451539653
  0
LINE
  5
4BB
100
AcDbEntity
  8
IMPORT_IGES
100
AcDbLine
 62
253
  6
CONTINUOUS
 10
8.1067321905
 20
-1.391987288
 11
8.0530246782
 21
-4.4688797904
  0
LINE
  5
4BC
100
AcDbEntity
  8
IMPORT_IGES
100
AcDbLine
 62
253
  6
CONTINUOUS
 10
7.9850090078
 20
-8.481503443
 11
7.9559191794
 21
-10.1493178939
  0
LINE
  5
4BD
100
AcDbEntity
  8
IMPORT_IGES
100
AcDbLine
 62
7
  6
CONTINUOUS
 10
8.2551485567
 20
-9.9552357183
 11
8.4227212944
 21
-0.355
  0
LINE
  5
4BE
100
AcDbEntity
  8
IMPORT_IGES
100
AcDbLine
 62
253
  6
CONTINUOUS
 10
8.0530246782
 20
-4.4688797904
 11
8.041578185
 21
-5.0388424615
  0
LWPOLYLINE
  5
4BF
100
AcDbEntity
  8
IMPORT_IGES
100
AcDbPolyline
 62
7
  6
CONTINUOUS
 90
31
 70
0
 10
5.6199171818
 20
-8.2542999891
 10
5.6294737764
 20
-8.222756117
 10
5.6384154101
 20
-8.1901064173
 10
5.6467420828
 20
-8.1563508899
 10
5.6543695557
 20
-8.1214985076
 10
5.6613820677
 20
-8.0855402977
 10
5.6680323354
 20
-8.0484493415
 10
5.674375051
 20
-8.0102202397
 10
5.6803555224
 20
-7.9708583916
 10
5.6860623896
 20
-7.9303530767
 10
5.6915109613
 20
-7.8887300614
 10
5.6966859289
 20
-7.8459635792
 10
5.701630006
 20
-7.8019656105
 10
5.7063526567
 20
-7.7567451013
 10
5.710844417
 20
-7.7102931056
 10
5.7151196078
 20
-7.662494765
 10
5.7191854496
 20
-7.6133424125
 10
5.7230347218
 20
-7.5628437151
 10
5.7266600843
 20
-7.5109068165
 10
5.730066407
 20
-7.457533017
 10
5.7332488198
 20
-7.4027210163
 10
5.7361853723
 20
-7.3463750565
 10
5.7388809909
 20
-7.2884967653
 10
5.7413307492
 20
-7.2290845151
 10
5.7434979164
 20
-7.1680376657
 10
5.7453885099
 20
-7.1053539058
 10
5.7469965123
 20
-7.0410355467
 10
5.7482671408
 20
-6.9749888822
 10
5.7491821344
 20
-6.9071826768
 10
5.7497597542
 20
-6.837648166
 10
5.75
 20
-1.2743342048
  0
LWPOLYLINE
  5
4C0
100
AcDbEntity
  8
IMPORT_IGES
100
AcDbPolyline
 62
7
  6
CONTINUOUS
 90
10
 70
0
 10
4.7231303335
 20
-8.1451457132
 10
4.7284769271
 20
-8.1291356317
 10
4.7332575448
 20
-8.1125556476
 10
4.7374721866
 20
-8.0954057609
 10
4.741153243
 20
-8.0775962931
 10
4.7442683234
 20
-8.0592169227
 10
4.7467202565
 20
-8.040536685
 10
4.7484766517
 20
-8.0216452585
 10
4.7495698996
 20
-8.0024529647
 10
4.75
 20
-7.9829598037
  0
LWPOLYLINE
  5
4C1
100
AcDbEntity
  8
IMPORT_IGES
100
AcDbPolyline
 62
7
  6
CONTINUOUS
 90
46
 70
0
 10
4.7231314396
 20
-8.1451502999
 10
4.7187133083
 20
-8.1571450121
 10
4.7141837171
 20
-8.168640328
 10
4.709584909
 20
-8.1796445046
 10
4.7049703182
 20
-8.1901540533
 10
4.7003636517
 20
-8.2001936533
 10
4.6957528784
 20
-8.2098122758
 10
4.691160918
 20
-8.2190190752
 10
4.6866152163
 20
-8.2278235151
 10
4.6820987674
 20
-8.2362700543
 10
4.6776260826
 20
-8.244368224
 10
4.6732167346
 20
-8.2521243319
 10
4.6688538076
 20
-8.2595739769
 10
4.6645468881
 20
-8.266725628
 10
4.6603099483
 20
-8.2735839962
 10
4.656127917
 20
-8.2801759843
 10
4.6520078948
 20
-8.2865079987
 10
4.6479594378
 20
-8.2925845858
 10
4.6439680778
 20
-8.2984274983
 10
4.6400390472
 20
-8.304041913
 10
4.6361790115
 20
-8.3094316416
 10
4.6323735308
 20
-8.3146144484
 10
4.6286262235
 20
-8.3195950546
 10
4.6249420107
 20
-8.3243759717
 10
4.6213069085
 20
-8.3289700111
 10
4.6177237577
 20
-8.3333812298
 10
4.614195901
 20
-8.3376113
 10
4.6107090287
 20
-8.3416680315
 10
4.6072661421
 20
-8.3455545943
 10
4.6038687451
 20
-8.3492722084
 10
4.6004994434
 20
-8.3528243598
 10
4.5971619209
 20
-8.3562140128
 10
4.5938557467
 20
-8.3594411838
 10
4.5905566255
 20
-8.3625032959
 10
4.5872644633
 20
-8.3654077877
 10
4.5839816241
 20
-8.3681483232
 10
4.5806869449
 20
-8.3706999722
 10
4.5773901492
 20
-8.3730667097
 10
4.5740833552
 20
-8.3752443982
 10
4.5707184835
 20
-8.3771934376
 10
4.5672523604
 20
-8.3789297888
 10
4.5637294689
 20
-8.3804325374
 10
4.5602333672
 20
-8.3816080857
 10
4.5567928025
 20
-8.3824273391
 10
4.5533813354
 20
-8.3829222817
 10
4.55
 20
-8.3830940215
  0
LWPOLYLINE
  5
4C2
100
AcDbEntity
  8
IMPORT_IGES
100
AcDbPolyline
 62
253
  6
CONTINUOUS
 90
6
 70
0
 10
4.0358633713
 20
-8.5258481306
 10
4.0245656439
 20
-8.5387060172
 10
4.0154310845
 20
-8.5527446387
 10
4.0086750888
 20
-8.5677161561
 10
4.004453274
 20
-8.5833895183
 10
4.0028944147
 20
-8.5994926932
  0
LWPOLYLINE
  5
4C3
100
AcDbEntity
  8
IMPORT_IGES
100
AcDbPolyline
 62
253
  6
CONTINUOUS
 90
10
 70
0
 10
4.0964589533
 20
-6.3738230025
 10
4.0812992697
 20
-6.3806768718
 10
4.0661055904
 20
-6.3890249051
 10
4.0512065321
 20
-6.3987433064
 10
4.0370762299
 20
-6.4095241416
 10
4.023851969
 20
-6.4212274948
 10
4.0114113949
 20
-6.433995988
 10
3.9999706828
 20
-6.4477248566
 10
3.9899588874
 20
-6.4619801113
 10
3.9816030646
 20
-6.4764291034
  0
LWPOLYLINE
  5
4C4
100
AcDbEntity
  8
IMPORT_IGES
100
AcDbPolyline
 62
253
  6
CONTINUOUS
 90
8
 70
0
 10
4.75
 20
-6.1638753356
 10
4.7483275292
 20
-6.1644360734
 10
4.7433610714
 20
-6.1649855454
 10
4.7352170226
 20
-6.1655147701
 10
4.7241265112
 20
-6.1660127912
 10
4.7102667441
 20
-6.1664745945
 10
4.6936175463
 20
-6.1668992537
 10
4.6742327771
 20
-6.1672804328
  0
LWPOLYLINE
  5
4C5
100
AcDbEntity
  8
IMPORT_IGES
100
AcDbPolyline
 62
253
  6
CONTINUOUS
 90
3
 70
0
 10
7.1525570357
 20
7.7918135733
 10
7.1768947616
 20
7.79523673
 10
7.203
 20
7.7964466093
  0
LINE
  5
4C6
100
AcDbEntity
  8
IMPORT_IGES
100
AcDbLine
 62
253
  6
CONTINUOUS
 10
4.0367559346
 20
7.4606570943
 11
3.8375463848
 21
7.4428932188
  0
LWPOLYLINE
  5
4C7
100
AcDbEntity
  8
IMPORT_IGES
100
AcDbPolyline
 62
253
  6
CONTINUOUS
 90
13
 70
0
 10
-7.9860136848
 20
7.796446603
 10
-8.0248629986
 20
7.7949992437
 10
-8.0630579034
 20
7.7900033089
 10
-8.0999550862
 20
7.781542967
 10
-8.1349330747
 20
7.7697607453
 10
-8.1674027773
 20
7.7548551056
 10
-8.196817386
 20
7.7370770805
 10
-8.2226814919
 20
7.7167260876
 10
-8.2445594484
 20
7.6941449068
 10
-8.2620827682
 20
7.6697138697
 10
-8.2749563087
 20
7.6438444647
 10
-8.2829632426
 20
7.6169724064
 10
-8.2859687103
 20
7.589550297
  0
LINE
  5
4C8
100
AcDbEntity
  8
IMPORT_IGES
100
AcDbLine
 62
253
  6
CONTINUOUS
 10
8.2884372293
 20
7.4481289397
 11
7.9884829207
 21
7.4428932184
  0
LWPOLYLINE
  5
4C9
100
AcDbEntity
  8
IMPORT_IGES
100
AcDbPolyline
 62
253
  6
CONTINUOUS
 90
13
 70
0
 10
-3.8210217456
 20
7.7964465866
 10
-3.8457184103
 20
7.796184745
 10
-3.8703774095
 20
7.7937074191
 10
-3.8943815398
 20
7.7890112794
 10
-3.9168450576
 20
7.7823099053
 10
-3.9375677844
 20
7.773771392
 10
-3.9568889154
 20
7.7632326831
 10
-3.9743600857
 20
7.7507856678
 10
-3.9893982608
 20
7.7367491435
 10
-4.0018868771
 20
7.7211156318
 10
-4.0114485644
 20
7.7041331511
 10
-4.0177068759
 20
7.6863710385
 10
-4.0205798567
 20
7.6683231794
  0
LWPOLYLINE
  5
4CA
100
AcDbEntity
  8
IMPORT_IGES
100
AcDbPolyline
 62
253
  6
CONTINUOUS
 90
13
 70
0
 10
-4.2
 20
8.2748812076
 10
-4.1742155415
 20
8.2749796495
 10
-4.1489402748
 20
8.2752721036
 10
-4.1245873815
 20
8.275751906
 10
-4.1016592051
 20
8.2764057063
 10
-4.0803909146
 20
8.2772231783
 10
-4.0608336631
 20
8.2782052895
 10
-4.0432813678
 20
8.2793453122
 10
-4.0282544019
 20
8.2806258538
 10
-4.0161592
 20
8.2820322167
 10
-4.0072856909
 20
8.2835426728
 10
-4.0018422079
 20
8.2851305111
 10
-4.0
 20
8.2867682816
  0
LINE
  5
4CB
100
AcDbEntity
  8
IMPORT_IGES
100
AcDbLine
 62
7
  6
CONTINUOUS
 10
4.121597376
 20
6.788305283
 11
4.2648630836
 21
6.788305283
  0
LINE
  5
4CC
100
AcDbEntity
  8
IMPORT_IGES
100
AcDbLine
 62
7
  6
CONTINUOUS
 10
-4.121597376
 20
6.788305283
 11
-4.2648630836
 21
6.788305283
  0
LINE
  5
4CD
100
AcDbEntity
  8
IMPORT_IGES
100
AcDbLine
 62
7
  6
CONTINUOUS
 10
4.1048535023
 20
7.388305283
 11
4.0435555709
 21
7.388305283
  0
LINE
  5
4CE
100
AcDbEntity
  8
IMPORT_IGES
100
AcDbLine
 62
7
  6
CONTINUOUS
 10
-4.0435555709
 20
7.388305283
 11
-4.1048535023
 21
7.388305283
  0
LINE
  5
4CF
100
AcDbEntity
  8
IMPORT_IGES
100
AcDbLine
 62
253
  6
CONTINUOUS
 10
7.9884829207
 20
7.4428932182
 11
7.6937225984
 21
7.4428932181
  0
LINE
  5
4D0
100
AcDbEntity
  8
IMPORT_IGES
100
AcDbLine
 62
253
  6
CONTINUOUS
 10
3.8375463848
 20
7.4428932182
 11
-3.8375463848
 21
7.4428932188
  0
LINE
  5
4D1
100
AcDbEntity
  8
IMPORT_IGES
100
AcDbLine
 62
253
  6
CONTINUOUS
 10
-7.6939528007
 20
7.4428932181
 11
-7.9884829208
 21
7.4428932181
  0
LINE
  5
4D2
100
AcDbEntity
  8
IMPORT_IGES
100
AcDbLine
 62
253
  6
CONTINUOUS
 10
7.203
 20
7.7964466093
 11
7.9860144018
 21
7.7964466092
  0
LINE
  5
4D3
100
AcDbEntity
  8
IMPORT_IGES
100
AcDbLine
 62
253
  6
CONTINUOUS
 10
-7.2030016412
 20
7.7964466091
 11
-7.9860144018
 21
7.7964466092
  0
LINE
  5
4D4
100
AcDbEntity
  8
IMPORT_IGES
100
AcDbLine
 62
253
  6
CONTINUOUS
 10
3.8210226047
 20
7.7964466152
 11
-3.8210224345
 21
7.7964466623
  0
LINE
  5
4D5
100
AcDbEntity
  8
ASSI
100
AcDbLine
 62
7
  6
CONTINUOUS
 10
8.2790034616
 20
7.9885891314
 11
8.7483942934
 21
7.9885891314
  0
LINE
  5
4D6
100
AcDbEntity
  8
ASSI
100
AcDbLine
 62
7
  6
CONTINUOUS
 10
-8.2790034616
 20
7.9885891314
 11
-8.7483942934
 21
7.9885891314
  0
LINE
  5
4D7
100
AcDbEntity
  8
ASSI
100
AcDbLine
 62
253
  6
CONTINUOUS
 10
-8.2763853015
 20
8.1385834198
 11
-8.74846397
 21
8.1385834198
  0
LWPOLYLINE
  5
4D8
100
AcDbEntity
  8
IMPORT_IGES
100
AcDbPolyline
 62
253
  6
CONTINUOUS
 90
13
 70
0
 10
4.2
 20
8.2748812075
 10
4.1738947616
 20
8.2749821256
 10
4.148236191
 20
8.2752831512
 10
4.1234633135
 20
8.2757791336
 10
4.1
 20
8.2764615866
 10
4.0782477142
 20
8.2773188331
 10
4.0585786438
 20
8.2783362057
 10
4.0413293319
 20
8.2794962968
 10
4.0267949192
 20
8.280779257
 10
4.0152240935
 20
8.2821631344
 10
4.0068148347
 20
8.2836242506
 10
4.0017110277
 20
8.2851376053
 10
4.0
 20
8.2866773047
  0
LWPOLYLINE
  5
4D9
100
AcDbEntity
  8
IMPORT_IGES
100
AcDbPolyline
 62
253
  6
CONTINUOUS
 90
13
 70
0
 10
3.8210222866
 20
7.7964390047
 10
3.8457183831
 20
7.7961772403
 10
3.8703768541
 20
7.7937001276
 10
3.8943805374
 20
7.789004325
 10
3.916843771
 20
7.7823033656
 10
3.9375663399
 20
7.7737653239
 10
3.9568873223
 20
7.7632272043
 10
3.9743583754
 20
7.7507809182
 10
3.9893965424
 20
7.7367452301
 10
4.0018852893
 20
7.7211126761
 10
4.0114473002
 20
7.7041312477
 10
4.0177061664
 20
7.6863702098
 10
4.0205799357
 20
7.6683233834
  0
LINE
  5
4DA
100
AcDbEntity
  8
IMPORT_IGES
100
AcDbLine
 62
253
  6
CONTINUOUS
 10
-7.9884829213
 20
7.4428931884
 11
-8.2884372293
 21
7.4481289407
  0
LWPOLYLINE
  5
4DB
100
AcDbEntity
  8
IMPORT_IGES
100
AcDbPolyline
 62
253
  6
CONTINUOUS
 90
13
 70
0
 10
3.8
 20
8.4280986591
 10
3.8257844852
 20
8.4269184529
 10
3.8510597702
 20
8.4234122652
 10
3.8754126732
 20
8.4176599901
 10
3.8983408497
 20
8.4098216842
 10
3.9196091331
 20
8.4000211498
 10
3.9391663751
 20
8.3882467866
 10
3.9567186593
 20
8.3745387379
 10
3.9717456139
 20
8.3591460785
 10
3.9838408078
 20
8.3423664284
 10
3.9927143122
 20
8.3245005068
 10
3.9981577928
 20
8.3058278071
 10
4.0
 20
8.2866771729
  0
LINE
  5
4DC
100
AcDbEntity
  8
IMPORT_IGES
100
AcDbLine
 62
253
  6
CONTINUOUS
 10
-4.0367559346
 20
7.4606570943
 11
-3.8375463895
 21
7.4428931668
  0
LWPOLYLINE
  5
4DD
100
AcDbEntity
  8
IMPORT_IGES
100
AcDbPolyline
 62
253
  6
CONTINUOUS
 90
3
 70
0
 10
-7.1523589466
 20
7.7917857117
 10
-7.1768947616
 20
7.7952367301
 10
-7.203
 20
7.7964466094
  0
LWPOLYLINE
  5
4DE
100
AcDbEntity
  8
IMPORT_IGES
100
AcDbPolyline
 62
253
  6
CONTINUOUS
 90
13
 70
0
 10
-6.8787973437
 20
10.6499999605
 10
-6.8739364091
 20
10.6483482818
 10
-6.8690728908
 20
10.6433050758
 10
-6.8643364117
 20
10.634870884
 10
-6.859892486
 20
10.6233474054
 10
-6.8558101063
 20
10.6090230944
 10
-6.85208265
 20
10.5918768852
 10
-6.8488118088
 20
10.5723311633
 10
-6.8460723086
 20
10.5508931723
 10
-6.8438615323
 20
10.5274819445
 10
-6.8422380208
 20
10.5024811356
 10
-6.8412584921
 20
10.4768212403
 10
-6.8409186903
 20
10.4512228026
  0
LWPOLYLINE
  5
4DF
100
AcDbEntity
  8
ASSI
100
AcDbPolyline
 62
7
  6
CONTINUOUS
 90
14
 70
0
 10
-4.8711985943
 20
10.85
 10
-4.8892102005
 20
10.8605541382
 10
-4.9223354589
 20
10.8758098295
 10
-4.956709102
 20
10.8871984994
 10
-4.9917999952
 20
10.8948529606
 10
-5.0260147349
 20
10.8991716511
 10
-5.0589802129
 20
10.9000016392
 10
-5.0910695373
 20
10.8974958567
 10
-5.1218086282
 20
10.8925115365
 10
-5.1511154418
 20
10.8850911139
 10
-5.1790720218
 20
10.8751921537
 10
-5.2054504192
 20
10.8635445824
 10
-5.2301746508
 20
10.8503917091
 10
-5.2307830813
 20
10.85
  0
LWPOLYLINE
  5
4E0
100
AcDbEntity
  8
IMPORT_IGES
100
AcDbPolyline
 62
253
  6
CONTINUOUS
 90
15
 70
0
 10
2.5000316096
 20
6.9213468442
 10
2.7211342096
 20
6.735276942
 10
2.9232910377
 20
6.5589051878
 10
3.1065020939
 20
6.3922315817
 10
3.2660752293
 20
6.2405031184
 10
3.4067025928
 20
6.0984728032
 10
3.5424606306
 20
5.9503996519
 10
3.6796727183
 20
5.7904283039
 10
3.8120154802
 20
5.6244141198
 10
3.9345952358
 20
5.4541821976
 10
4.0467995038
 20
5.2788155462
 10
4.1492407654
 20
5.0992311567
 10
4.2388627843
 20
4.9200050999
 10
4.3146941613
 20
4.7450586035
 10
4.3658631859
 20
4.603284227
  0
LWPOLYLINE
  5
4E1
100
AcDbEntity
  8
IMPORT_IGES
100
AcDbPolyline
 62
253
  6
CONTINUOUS
 90
13
 70
0
 10
8.2859687103
 20
7.589550297
 10
8.2829632423
 20
7.616972422
 10
8.2749563082
 20
7.6438444921
 10
8.2620827676
 20
7.6697139049
 10
8.2445594477
 20
7.6941449447
 10
8.2226814913
 20
7.7167261241
 10
8.1968173854
 20
7.7370771158
 10
8.1674027555
 20
7.754855152
 10
8.134933028
 20
7.7697607987
 10
8.0999550856
 20
7.7815430022
 10
8.0630580568
 20
7.7900033166
 10
8.024863393
 20
7.794999246
 10
7.9860144012
 20
7.7964466446
  0
LWPOLYLINE
  5
4E2
100
AcDbEntity
  8
IMPORT_IGES
100
AcDbPolyline
 62
253
  6
CONTINUOUS
 90
13
 70
0
 10
8.2590181559
 20
9.1335465263
 10
8.2560603585
 20
9.1607326598
 10
8.248229725
 20
9.1872718948
 10
8.2357155188
 20
9.212738074
 10
8.2188806837
 20
9.2366088502
 10
8.197995146
 20
9.2586597544
 10
8.1730166023
 20
9.2788677695
 10
8.1440179695
 20
9.2969383215
 10
8.11152975
 20
9.3123309637
 10
8.0761741684
 20
9.3246314847
 10
8.0385761441
 20
9.3335479015
 10
7.9993126979
 20
9.3388728427
 10
7.9590632332
 20
9.3404371474
  0
LINE
  5
4E3
100
AcDbEntity
  8
ASSI
100
AcDbLine
 62
7
  6
CONTINUOUS
 10
11.0825449351
 20
-20.4226497308
 11
11.1
 21
-21.0
  0
LINE
  5
4E4
100
AcDbEntity
  8
RACCORDO
100
AcDbLine
 62
7
  6
CONTINUOUS
 10
9.45
 20
-16.8514272135
 11
9.45
 21
-15.8
  0
LINE
  5
4E5
100
AcDbEntity
  8
ASSI
100
AcDbLine
 62
7
  6
CONTINUOUS
 10
10.6
 20
24.300030461
 11
10.6
 21
22.3999997358
  0
LINE
  5
4E6
100
AcDbEntity
  8
ASSI
100
AcDbLine
 62
7
  6
CONTINUOUS
 10
10.6000000646
 20
-22.3999999296
 11
10.6
 21
-24.300030461
  0
LINE
  5
4E7
100
AcDbEntity
  8
ASSI
100
AcDbLine
 62
7
  6
CONTINUOUS
 10
11.1
 20
21.0
 11
11.0825449351
 21
20.4226497308
  0
LINE
  5
4E8
100
AcDbEntity
  8
ASSI
100
AcDbLine
 62
7
  6
CONTINUOUS
 10
9.5000023792
 20
-16.6999519285
 11
9.4925054846
 21
-16.8514272135
  0
LWPOLYLINE
  5
4E9
100
AcDbEntity
  8
IMPORT_IGES
100
AcDbPolyline
 62
253
  6
CONTINUOUS
 90
13
 70
0
 10
8.2849633251
 20
-8.2471487778
 10
8.2819739583
 20
-8.2776936873
 10
8.2741533865
 20
-8.3075637696
 10
8.2616720688
 20
-8.3362803816
 10
8.2448655339
 20
-8.3632639468
 10
8.2239913865
 20
-8.3882419742
 10
8.1990294433
 20
-8.4111512626
 10
8.170079385
 20
-8.431644537
 10
8.137651717
 20
-8.4491330585
 10
8.1023264895
 20
-8.4631639067
 10
8.0647063846
 20
-8.473397706
 10
8.0253775865
 20
-8.4795798105
 10
7.9850199943
 20
-8.4815038383
  0
LINE
  5
4EA
100
AcDbEntity
  8
IMPORT_IGES
100
AcDbLine
 62
7
  6
CONTINUOUS
 10
7.45
 20
-8.1451539743
 11
7.3800828182
 21
-8.2542999891
  0
LWPOLYLINE
  5
4EB
100
AcDbEntity
  8
IMPORT_IGES
100
AcDbPolyline
 62
7
  6
CONTINUOUS
 90
6
 70
0
 10
4.0490813743
 20
-8.7301345729
 10
4.0573990664
 20
-8.7231045648
 10
4.0663535977
 20
-8.7165966108
 10
4.0758972401
 20
-8.710690801
 10
4.0860907862
 20
-8.705404148
 10
4.0890211489
 20
-8.7040623165
  0
LWPOLYLINE
  5
4EC
100
AcDbEntity
  8
IMPORT_IGES
100
AcDbPolyline
 62
7
  6
CONTINUOUS
 90
12
 70
0
 10
4.0889741044
 20
-8.7039198069
 10
4.0973338614
 20
-8.7002149053
 10
4.1048588494
 20
-8.6966888266
 10
4.1119858765
 20
-8.6930093955
 10
4.1185710294
 20
-8.6890997327
 10
4.1246066094
 20
-8.6848752866
 10
4.1301709357
 20
-8.6802468276
 10
4.1350865715
 20
-8.6751999237
 10
4.1392830966
 20
-8.6697330298
 10
4.1430533083
 20
-8.6638189632
 10
4.1464399968
 20
-8.6574864738
 10
4.1491793417
 20
-8.6508013435
  0
LWPOLYLINE
  5
4ED
100
AcDbEntity
  8
IMPORT_IGES
100
AcDbPolyline
 62
7
  6
CONTINUOUS
 90
3
 70
0
 10
4.0845593115
 20
-8.7058408926
 10
4.0981739246
 20
-8.7003505412
 10
4.1194300774
 20
-8.6933606307
  0
LINE
  5
4EE
100
AcDbEntity
  8
ASSI
100
AcDbLine
 62
7
  6
CONTINUOUS
 10
4.9783180256
 20
10.8925381855
 11
4.9489945279
 21
10.8851232783
  0
LWPOLYLINE
  5
4EF
100
AcDbEntity
  8
IMPORT_IGES
100
AcDbPolyline
 62
253
  6
CONTINUOUS
 90
4
 70
0
 10
4.0000000012
 20
10.450000765
 10
4.0017138088
 20
10.4501726076
 10
4.0068201191
 20
10.4503310733
 10
4.015231479
 20
10.45047887
  0
LWPOLYLINE
  5
4F0
100
AcDbEntity
  8
IMPORT_IGES
100
AcDbPolyline
 62
253
  6
CONTINUOUS
 90
13
 70
0
 10
7.203
 20
10.096506661
 10
7.1775608255
 20
10.0953579827
 10
7.1524907659
 20
10.0919224657
 10
7.1282018426
 20
10.0862440552
 10
7.1051709402
 20
10.0784333389
 10
7.0836991056
 20
10.0685914645
 10
7.063964123
 20
10.0567441088
 10
7.0462769558
 20
10.0429428232
 10
7.0311542911
 20
10.0274353282
 10
7.0190422015
 20
10.0105809278
 10
7.0102097334
 20
9.9927145083
 10
7.0048171702
 20
9.9741059125
 10
7.003
 20
9.9550853298
  0
LWPOLYLINE
  5
4F1
100
AcDbEntity
  8
IMPORT_IGES
100
AcDbPolyline
 62
253
  6
CONTINUOUS
 90
13
 70
0
 10
-7.9590638468
 20
9.3404428721
 10
-7.9975767299
 20
9.3390234464
 10
-8.0352954098
 20
9.3341442085
 10
-8.0716126671
 20
9.3259283488
 10
-8.105780924
 20
9.3146194488
 10
-8.1374761594
 20
9.3004026806
 10
-8.1666669501
 20
9.2832474631
 10
-8.1929346562
 20
9.2631979404
 10
-8.2155021218
 20
9.2406156959
 10
-8.2337690156
 20
9.2159303233
 10
-8.2473072452
 20
9.1895763192
 10
-8.2558089769
 20
9.1619563741
 10
-8.2590181559
 20
9.1335465263
  0
LINE
  5
4F2
100
AcDbEntity
  8
IMPORT_IGES
100
AcDbLine
 62
253
  6
CONTINUOUS
 10
4.015231479
 20
10.45047887
 11
4.0413392571
 21
10.4507617447
  0
LINE
  5
4F3
100
AcDbEntity
  8
IMPORT_IGES
100
AcDbLine
 62
253
  6
CONTINUOUS
 10
4.0413392571
 20
10.4507617447
 11
4.1234712879
 21
10.4511525828
  0
LINE
  5
4F4
100
AcDbEntity
  8
IMPORT_IGES
100
AcDbLine
 62
253
  6
CONTINUOUS
 10
-6.8409186905
 20
10.4512228026
 11
-4.1999999996
 21
10.4512452069
  0
LINE
  5
4F5
100
AcDbEntity
  8
IMPORT_IGES
100
AcDbLine
 62
253
  6
CONTINUOUS
 10
3.8
 20
10.5035533907
 11
-3.8
 21
10.5035533909
  0
LINE
  5
4F6
100
AcDbEntity
  8
IMPORT_IGES
100
AcDbLine
 62
7
  6
CONTINUOUS
 10
6.878796659
 20
10.65
 11
-6.8787973436
 21
10.65
  0
LINE
  5
4F7
100
AcDbEntity
  8
IMPORT_IGES
100
AcDbLine
 62
253
  6
CONTINUOUS
 10
6.5
 20
10.75
 11
-6.5
 21
10.75
  0
LINE
  5
4F8
100
AcDbEntity
  8
ASSI
100
AcDbLine
 62
7
  6
CONTINUOUS
 10
6.9101323002
 20
10.8101132618
 11
6.8122642439
 21
10.8101132618
  0
LINE
  5
4F9
100
AcDbEntity
  8
ASSI
100
AcDbLine
 62
7
  6
CONTINUOUS
 10
-6.8122642439
 20
10.8101132618
 11
-6.9101323002
 21
10.8101132618
  0
LINE
  5
4FA
100
AcDbEntity
  8
ASSI
100
AcDbLine
 62
7
  6
CONTINUOUS
 10
6.5
 20
10.8188401295
 11
6.4720430992
 21
10.8188401295
  0
LINE
  5
4FB
100
AcDbEntity
  8
ASSI
100
AcDbLine
 62
7
  6
CONTINUOUS
 10
-6.4720430992
 20
10.8188401295
 11
-6.5
 21
10.8188401295
  0
LINE
  5
4FC
100
AcDbEntity
  8
IMPORT_IGES
100
AcDbLine
 62
7
  6
CONTINUOUS
 10
6.3997278128
 20
10.85
 11
-6.3997278128
 21
10.85
  0
LINE
  5
4FD
100
AcDbEntity
  8
IMPORT_IGES
100
AcDbLine
 62
253
  6
CONTINUOUS
 10
6.8409281986
 20
10.4512225932
 11
4.1234712879
 21
10.4511525828
  0
LINE
  5
4FE
100
AcDbEntity
  8
IMPORT_IGES
100
AcDbLine
 62
253
  6
CONTINUOUS
 10
-4.1999999996
 20
10.451244565
 11
-4.0782503761
 21
10.4509878203
  0
LWPOLYLINE
  5
4FF
100
AcDbEntity
  8
IMPORT_IGES
100
AcDbPolyline
 62
253
  6
CONTINUOUS
 90
6
 70
0
 10
-4.0782503761
 20
10.4509878203
 10
-4.0267966659
 20
10.450622144
 10
-4.0152252923
 20
10.4504779297
 10
-4.0068154557
 20
10.4503301769
 10
-4.0017112046
 20
10.4501717698
 10
-4.0
 20
10.45
  0
LWPOLYLINE
  5
500
100
AcDbEntity
  8
IMPORT_IGES
100
AcDbPolyline
 62
253
  6
CONTINUOUS
 90
13
 70
0
 10
-7.2030016412
 20
10.0965277095
 10
-7.1768956655
 20
10.0953085706
 10
-7.1512365433
 20
10.0916926088
 10
-7.1264633135
 20
10.0857416263
 10
-7.1029998947
 20
10.0775582167
 10
-7.081247666
 20
10.0672816304
 10
-7.0615786438
 20
10.0550853298
 10
-7.0443293319
 20
10.0411771967
 10
-7.0297949192
 20
10.025796008
 10
-7.0182240935
 20
10.0092049398
 10
-7.0098148347
 20
9.9916878702
 10
-7.0047110277
 20
9.973544521
 10
-7.003
 20
9.9550853298
  0
LWPOLYLINE
  5
501
100
AcDbEntity
  8
IMPORT_IGES
100
AcDbPolyline
 62
253
  6
CONTINUOUS
 90
8
 70
0
 10
6.9713906808
 20
10.2314272108
 10
6.9785254693
 20
10.2173262597
 10
6.9850740733
 20
10.2040593513
 10
6.9908092253
 20
10.1921806508
 10
6.9957184783
 20
10.1824801697
 10
6.9995863679
 20
10.1752196791
 10
7.0021026565
 20
10.1701325895
 10
7.0029999987
 20
10.167215077
  0
LWPOLYLINE
  5
502
100
AcDbEntity
  8
IMPORT_IGES
100
AcDbPolyline
 62
253
  6
CONTINUOUS
 90
3
 70
0
 10
6.8764383616
 20
10.4216618726
 10
6.9549667537
 20
10.2646709268
 10
6.9713906808
 20
10.2314272108
  0
LINE
  5
503
100
AcDbEntity
  8
ASSI
100
AcDbLine
 62
7
  6
CONTINUOUS
 10
11.1
 20
21.0
 11
11.1261859216
 21
20.4226497308
  0
LINE
  5
504
100
AcDbEntity
  8
ASSI
100
AcDbLine
 62
7
  6
CONTINUOUS
 10
11.0825449351
 20
21.0
 11
11.0825449351
 21
20.4226497308
  0
LINE
  5
505
100
AcDbEntity
  8
ASSI
100
AcDbLine
 62
7
  6
CONTINUOUS
 10
11.0825449351
 20
-20.4226497308
 11
11.0825449351
 21
-21.0
  0
LINE
  5
506
100
AcDbEntity
  8
ASSI
100
AcDbLine
 62
7
  6
CONTINUOUS
 10
11.1
 20
21.9000761524
 11
11.1
 21
21.0
  0
LINE
  5
507
100
AcDbEntity
  8
ASSI
100
AcDbLine
 62
7
  6
CONTINUOUS
 10
11.1
 20
-21.9000761524
 11
11.1
 21
-21.0
  0
LINE
  5
508
100
AcDbEntity
  8
ASSI
100
AcDbLine
 62
7
  6
CONTINUOUS
 10
11.1261859216
 20
20.4226497308
 11
11.1261859216
 21
-20.4226497308
  0
LINE
  5
509
100
AcDbEntity
  8
ASSI
100
AcDbLine
 62
7
  6
CONTINUOUS
 10
11.1261859216
 20
-20.4226497308
 11
11.1
 21
-21.0
  0
LWPOLYLINE
  5
50A
100
AcDbEntity
  8
IMPORT_IGES
100
AcDbPolyline
 62
253
  6
CONTINUOUS
 90
3
 70
0
 10
7.2458235581
 20
-10.363103835
 10
7.2489602943
 20
-10.3589133251
 10
7.2499999999
 20
-10.357144341
  0
LWPOLYLINE
  5
50B
100
AcDbEntity
  8
IMPORT_IGES
100
AcDbPolyline
 62
253
  6
CONTINUOUS
 90
5
 70
0
 10
7.1857015087
 20
-10.4357011747
 10
7.2124518621
 20
-10.4042422498
 10
7.2237195434
 20
-10.3908052313
 10
7.2331896988
 20
-10.3790415899
 10
7.2458235581
 20
-10.363103835
  0
LWPOLYLINE
  5
50C
100
AcDbEntity
  8
IMPORT_IGES
100
AcDbPolyline
 62
253
  6
CONTINUOUS
 90
4
 70
0
 10
7.05
 20
-10.5911905861
 10
7.0719398469
 20
-10.5655927769
 10
7.093409389
 20
-10.5410759594
 10
7.1340082922
 20
-10.4951263278
  0
LWPOLYLINE
  5
50D
100
AcDbEntity
  8
IMPORT_IGES
100
AcDbPolyline
 62
253
  6
CONTINUOUS
 90
3
 70
0
 10
7.1340082922
 20
-10.4951263278
 10
7.1700371421
 20
-10.4538439367
 10
7.1857015087
 20
-10.4357011747
  0
LINE
  5
50E
100
AcDbEntity
  8
IMPORT_IGES
100
AcDbLine
 62
7
  6
CONTINUOUS
 10
6.3731378189
 20
-11.2098108667
 11
8.1051942481
 21
-10.2098076211
  0
LINE
  5
50F
100
AcDbEntity
  8
IMPORT_IGES
100
AcDbLine
 62
253
  6
CONTINUOUS
 10
7.9556144928
 20
-10.1895873508
 11
7.4499999683
 21
-10.4812646504
  0
LINE
  5
510
100
AcDbEntity
  8
IMPORT_IGES
100
AcDbLine
 62
253
  6
CONTINUOUS
 10
7.0500033344
 20
-10.5911905861
 11
6.2731434312
 21
-11.0375493447
  0
LWPOLYLINE
  5
511
100
AcDbEntity
  8
IMPORT_IGES
100
AcDbPolyline
 62
253
  6
CONTINUOUS
 90
10
 70
0
 10
6.2731434312
 20
-11.0375493447
 10
6.2680009158
 20
-11.0403058168
 10
6.2627411999
 20
-11.0427475945
 10
6.2573642838
 20
-11.0448746774
 10
6.2518515799
 20
-11.0466924873
 10
6.2462216757
 20
-11.048195602
 10
6.2405303329
 20
-11.0493677556
 10
6.2347961389
 20
-11.0502035262
 10
6.2290005064
 20
-11.0507083356
 10
6.2231434353
 20
-11.0508821837
  0
LWPOLYLINE
  5
512
100
AcDbEntity
  8
IMPORT_IGES
100
AcDbPolyline
 62
253
  6
CONTINUOUS
 90
10
 70
0
 10
8.1051942481
 20
-10.2098076211
 10
8.0919566719
 20
-10.2161035055
 10
8.077543651
 20
-10.220354183
 10
8.0620459601
 20
-10.2224784544
 10
8.0454887381
 20
-10.2224067337
 10
8.0280607166
 20
-10.2200743005
 10
8.0101440484
 20
-10.2155233871
 10
7.9919814513
 20
-10.2088654439
 10
7.9736445579
 20
-10.2001790123
 10
7.9552834855
 20
-10.1895708374
  0
LWPOLYLINE
  5
513
100
AcDbEntity
  8
IMPORT_IGES
100
AcDbPolyline
 62
253
  6
CONTINUOUS
 90
10
 70
0
 10
8.0675461267
 20
-10.1728625734
 10
8.1024822216
 20
-10.1596545859
 10
8.1351088276
 20
-10.1428551285
 10
8.1647604422
 20
-10.1227566963
 10
8.1909137279
 20
-10.0996800112
 10
8.2130997073
 20
-10.0740001626
 10
8.2308711639
 20
-10.0462178779
 10
8.2439228931
 20
-10.0168372377
 10
8.2520586906
 20
-9.9863365307
 10
8.2551485584
 20
-9.9552356185
  0
LINE
  5
514
100
AcDbEntity
  8
ASSI
100
AcDbLine
 62
7
  6
CONTINUOUS
 10
-5.5000001203
 20
10.9002837145
 11
-6.9996669794
 21
10.8996479409
  0
LINE
  5
515
100
AcDbEntity
  8
ASSI
100
AcDbLine
 62
7
  6
CONTINUOUS
 10
4.600000183
 20
10.9005756993
 11
-4.600000183
 21
10.9005756993
  0
LINE
  5
516
100
AcDbEntity
  8
ASSI
100
AcDbLine
 62
7
  6
CONTINUOUS
 10
6.9996669794
 20
10.8996479409
 11
5.5000001203
 21
10.9002837145
  0
LWPOLYLINE
  5
517
100
AcDbEntity
  8
ASSI
100
AcDbPolyline
 62
7
  6
CONTINUOUS
 90
16
 70
0
 10
6.9996669794
 20
10.8996479409
 10
7.051711522
 20
10.8969047403
 10
7.1032882731
 20
10.8887351578
 10
7.1538292166
 20
10.8751975225
 10
7.2028495349
 20
10.8563753104
 10
7.2497143672
 20
10.8324646657
 10
7.2936855342
 20
10.8038525501
 10
7.334158309
 20
10.7710270691
 10
7.3708944346
 20
10.7342830102
 10
7.4037313135
 20
10.6937770089
 10
7.4323782769
 20
10.6497209764
 10
7.4563213694
 20
10.6027347764
 10
7.475141856
 20
10.5536258744
 10
7.4886507637
 20
10.5030602767
 10
7.4967872944
 20
10.4515039317
 10
7.4995066553
 20
10.3995256938
  0
LWPOLYLINE
  5
518
100
AcDbEntity
  8
IMPORT_IGES
100
AcDbPolyline
 62
253
  6
CONTINUOUS
 90
10
 70
0
 10
6.8409281986
 20
10.4512225932
 10
6.8458939432
 20
10.4505064906
 10
6.8505406993
 20
10.4491783277
 10
6.8548706615
 20
10.4472380218
 10
6.8588081732
 20
10.4447253994
 10
6.8624359126
 20
10.4416004688
 10
6.8659902379
 20
10.4377435435
 10
6.8695479294
 20
10.4331148174
 10
6.8730306887
 20
10.4277542387
 10
6.8764383616
 20
10.4216618726
  0
LWPOLYLINE
  5
519
100
AcDbEntity
  8
ASSI
100
AcDbPolyline
 62
7
  6
CONTINUOUS
 90
6
 70
0
 10
5.1434279278
 20
10.8871569321
 10
5.1083395687
 20
10.8948274781
 10
5.0741241932
 20
10.899162017
 10
5.0411585565
 20
10.9000053965
 10
5.0090659033
 20
10.8975127688
 10
4.9783180256
 20
10.8925381855
  0
LINE
  5
51A
100
AcDbEntity
  8
ASSI
100
AcDbLine
 62
7
  6
CONTINUOUS
 10
5.1777872128
 20
10.8757617837
 11
5.1434279278
 21
10.8871569321
  0
LINE
  5
51B
100
AcDbEntity
  8
ASSI
100
AcDbLine
 62
7
  6
CONTINUOUS
 10
6.5123099353
 20
10.8126856306
 11
6.5
 21
10.8188401295
  0
LWPOLYLINE
  5
51C
100
AcDbEntity
  8
IMPORT_IGES
100
AcDbPolyline
 62
253
  6
CONTINUOUS
 90
13
 70
0
 10
7.0909264735
 20
10.5621336307
 10
7.0835914189
 20
10.5663011091
 10
7.0729527122
 20
10.5671878381
 10
7.0592333366
 20
10.5645750658
 10
7.0431476297
 20
10.558617984
 10
7.0252095224
 20
10.5496273747
 10
7.0053296989
 20
10.5375773491
 10
6.9841616439
 20
10.5228314657
 10
6.9624478066
 20
10.5059373548
 10
6.9400558765
 20
10.4867764813
 10
6.9175343178
 20
10.4657322328
 10
6.8960279652
 20
10.4438633822
 10
6.8762646594
 20
10.4220094336
  0
LWPOLYLINE
  5
51D
100
AcDbEntity
  8
ASSI
100
AcDbPolyline
 62
7
  6
CONTINUOUS
 90
3
 70
0
 10
5.2288164411
 20
10.85
 10
5.2108834046
 20
10.8605125013
 10
5.1777872128
 20
10.8757617837
  0
LWPOLYLINE
  5
51E
100
AcDbEntity
  8
IMPORT_IGES
100
AcDbPolyline
 62
253
  6
CONTINUOUS
 90
10
 70
0
 10
8.1686821363
 20
9.4843779403
 10
8.1547035484
 20
9.4944589806
 10
8.1379600292
 20
9.4989793195
 10
8.1183889338
 20
9.4972746144
 10
8.0959472372
 20
9.4883662675
 10
8.0708306505
 20
9.4718118221
 10
8.0438356336
 20
9.4483982236
 10
8.015815949
 20
9.4187543029
 10
7.9873283363
 20
9.3826791741
 10
7.9590672032
 20
9.3404394829
  0
LINE
  5
51F
100
AcDbEntity
  8
ASSI
100
AcDbLine
 62
7
  6
CONTINUOUS
 10
4.6
 20
10.9
 11
4.65
 21
10.85
  0
LINE
  5
520
100
AcDbEntity
  8
ASSI
100
AcDbLine
 62
7
  6
CONTINUOUS
 10
8.2995166723
 20
7.9004833277
 11
8.2802042546
 21
7.9197957454
  0
LINE
  5
521
100
AcDbEntity
  8
IMPORT_IGES
100
AcDbLine
 62
253
  6
CONTINUOUS
 10
7.203
 20
10.0965066856
 11
7.9590625198
 21
9.3404371412
  0
LINE
  5
522
100
AcDbEntity
  8
IMPORT_IGES
100
AcDbLine
 62
7
  6
CONTINUOUS
 10
8.168684219
 20
9.4843758577
 11
7.0909282199
 21
10.5621318567
  0
LINE
  5
523
100
AcDbEntity
  8
ASSI
100
AcDbLine
 62
7
  6
CONTINUOUS
 10
-11.1261859216
 20
20.4226497308
 11
-11.0825449351
 21
20.4226497308
  0
LINE
  5
524
100
AcDbEntity
  8
ASSI
100
AcDbLine
 62
7
  6
CONTINUOUS
 10
11.1261859216
 20
20.4226497308
 11
11.0825449351
 21
20.4226497308
  0
LINE
  5
525
100
AcDbEntity
  8
ASSI
100
AcDbLine
 62
253
  6
CONTINUOUS
 10
-3.3850964806
 20
21.2252970227
 11
-3.1351059998
 21
21.2252970227
  0
LWPOLYLINE
  5
526
100
AcDbEntity
  8
ASSI
100
AcDbPolyline
 62
7
  6
CONTINUOUS
 90
16
 70
0
 10
-10.6000000646
 20
22.3999999296
 10
-10.6518961978
 20
22.3973188641
 10
-10.7034419043
 20
22.3892214715
 10
-10.7540657836
 20
22.3757291386
 10
-10.8033748714
 20
22.3568441144
 10
-10.8506021346
 20
22.332753888
 10
-10.8947079968
 20
22.3040171503
 10
-10.9349362959
 20
22.2713500847
 10
-10.9713142863
 20
22.2349698278
 10
-11.0039800191
 20
22.1947398811
 10
-11.0327165209
 20
22.1506321718
 10
-11.0568074185
 20
22.1034036118
 10
-11.0756956352
 20
22.054097956
 10
-11.0891949317
 20
22.0034838189
 10
-11.0973032882
 20
21.9519527996
 10
-11.1
 20
21.9000761524
  0
LINE
  5
527
100
AcDbEntity
  8
ASSI
100
AcDbLine
 62
7
  6
CONTINUOUS
 10
-7.2
 20
22.4
 11
-4.45
 21
22.4
  0
LINE
  5
528
100
AcDbEntity
  8
ASSI
100
AcDbLine
 62
7
  6
CONTINUOUS
 10
4.45
 20
22.4
 11
7.2
 21
22.4
  0
LWPOLYLINE
  5
529
100
AcDbEntity
  8
ASSI
100
AcDbPolyline
 62
7
  6
CONTINUOUS
 90
16
 70
0
 10
10.6
 20
22.3999997358
 10
10.6519014622
 20
22.3973199893
 10
10.7034529055
 20
22.3892205185
 10
10.7540825694
 20
22.3757237075
 10
10.8033981686
 20
22.3568330612
 10
10.8506316256
 20
22.3327366144
 10
10.8947407691
 20
22.3039932453
 10
10.9349703626
 20
22.2713195516
 10
10.9713475964
 20
22.2349337381
 10
11.0040079332
 20
22.1947016024
 10
11.0327349164
 20
22.1506009559
 10
11.0568171282
 20
22.1033850541
 10
11.0757000376
 20
22.0540843526
 10
11.0891965607
 20
22.0034612067
 10
11.0973037172
 20
21.9519097908
 10
11.1
 20
21.8999997649
  0
LWPOLYLINE
  5
52A
100
AcDbEntity
  8
ASSI
100
AcDbPolyline
 62
7
  6
CONTINUOUS
 90
13
 70
0
 10
-10.400030461
 20
24.5
 10
-10.4261325878
 20
24.4982897358
 10
-10.4517877661
 20
24.4931875595
 10
-10.4765572875
 20
24.4847805782
 10
-10.5000177444
 20
24.4732123371
 10
-10.5217675502
 20
24.45868055
 10
-10.5414339722
 20
24.4414339722
 10
-10.55868055
 20
24.4217675502
 10
-10.5732123371
 20
24.4000177444
 10
-10.5847805782
 20
24.3765572875
 10
-10.5931875595
 20
24.3517877661
 10
-10.5982897358
 20
24.3261325878
 10
-10.6
 20
24.300030461
  0
LINE
  5
52B
100
AcDbEntity
  8
ASSI
100
AcDbLine
 62
7
  6
CONTINUOUS
 10
-4.2000380762
 20
24.0
 11
-1.0499619238
 21
24.0
  0
LINE
  5
52C
100
AcDbEntity
  8
ASSI
100
AcDbLine
 62
7
  6
CONTINUOUS
 10
1.0499619238
 20
24.0
 11
4.2000380762
 21
24.0
  0
LINE
  5
52D
100
AcDbEntity
  8
ASSI
100
AcDbLine
 62
253
  6
CONTINUOUS
 10
10.3868630041
 20
24.4868325431
 11
7.413136996
 21
24.4868325431
  0
LINE
  5
52E
100
AcDbEntity
  8
ASSI
100
AcDbLine
 62
253
  6
CONTINUOUS
 10
-7.4131369959
 20
24.4868325431
 11
-10.3868630041
 21
24.4868325431
  0
LINE
  5
52F
100
AcDbEntity
  8
ASSI
100
AcDbLine
 62
7
  6
CONTINUOUS
 10
-10.400030461
 20
24.5
 11
-7.399969539
 21
24.5
  0
LINE
  5
530
100
AcDbEntity
  8
ASSI
100
AcDbLine
 62
7
  6
CONTINUOUS
 10
7.399969539
 20
24.5
 11
10.400030461
 21
24.5
  0
LWPOLYLINE
  5
531
100
AcDbEntity
  8
ASSI
100
AcDbPolyline
 62
7
  6
CONTINUOUS
 90
13
 70
0
 10
10.400030461
 20
24.5
 10
10.4261325878
 20
24.4982897358
 10
10.4517877661
 20
24.4931875595
 10
10.4765572875
 20
24.4847805782
 10
10.5000177444
 20
24.4732123371
 10
10.5217675502
 20
24.45868055
 10
10.5414339722
 20
24.4414339722
 10
10.55868055
 20
24.4217675502
 10
10.5732123371
 20
24.4000177444
 10
10.5847805782
 20
24.3765572875
 10
10.5931875595
 20
24.3517877661
 10
10.5982897358
 20
24.3261325878
 10
10.6
 20
24.300030461
  0
ARC
  5
532
100
AcDbEntity
  8
IMPORT_IGES
100
AcDbCircle
 62
7
  6
CONTINUOUS
 10
-5.1
 20
-0.755
 40
0.6
100
AcDbArc
 50
269.9999999999
 51
360.0
  0
ARC
  5
533
100
AcDbEntity
  8
IMPORT_IGES
100
AcDbCircle
 62
7
  6
CONTINUOUS
 10
-5.45
 20
-0.755
 40
0.6
100
AcDbArc
 50
180.0
 51
270.0
  0
ARC
  5
534
100
AcDbEntity
  8
ASSI
100
AcDbCircle
 62
7
  6
CONTINUOUS
 10
-4.0
 20
-23.2
 40
0.5
100
AcDbArc
 50
154.1580672368
 51
205.8419327632
  0
ARC
  5
535
100
AcDbEntity
  8
ASSI
100
AcDbCircle
 62
7
  6
CONTINUOUS
 10
-4.0
 20
-23.2
 40
0.4904006794
100
AcDbArc
 50
136.2076703059
 51
223.7923296941
  0
ARC
  5
536
100
AcDbEntity
  8
RACCORDO
100
AcDbCircle
 62
7
  6
CONTINUOUS
 10
-9.15
 20
-15.8
 40
0.3
100
AcDbArc
 50
90.0
 51
180.0
  0
ARC
  5
537
100
AcDbEntity
  8
IMPORT_IGES
100
AcDbCircle
 62
7
  6
CONTINUOUS
 10
-6.2231434405
 20
-10.95
 40
0.3
100
AcDbArc
 50
240.0000120939
 51
270.0000000642
  0
ARC
  5
538
100
AcDbEntity
  8
IMPORT_IGES
100
AcDbCircle
 62
253
  6
CONTINUOUS
 10
-5.1
 20
-0.755
 40
0.3
100
AcDbArc
 50
270.0
 51
359.9999999999
  0
ARC
  5
539
100
AcDbEntity
  8
IMPORT_IGES
100
AcDbCircle
 62
253
  6
CONTINUOUS
 10
-5.45
 20
-0.755
 40
0.3
100
AcDbArc
 50
180.0
 51
270.0
  0
ARC
  5
53A
100
AcDbEntity
  8
IMPORT_IGES
100
AcDbCircle
 62
7
  6
CONTINUOUS
 10
-7.9551964078
 20
-9.9500003659
 40
0.2999990457
100
AcDbArc
 50
180.9999373172
 51
240.0057583378
  0
ARC
  5
53B
100
AcDbEntity
  8
IMPORT_IGES
100
AcDbCircle
 62
7
  6
CONTINUOUS
 10
-3.7734516248
 20
-11.05
 40
0.2
100
AcDbArc
 50
180.6880383849
 51
270.0002473357
  0
ARC
  5
53C
100
AcDbEntity
  8
IMPORT_IGES
100
AcDbCircle
 62
7
  6
CONTINUOUS
 10
-7.45
 20
-10.3571440889
 40
0.2
100
AcDbArc
 50
240.0000032026
 51
359.9999543684
  0
ARC
  5
53D
100
AcDbEntity
  8
IMPORT_IGES
100
AcDbCircle
 62
7
  6
CONTINUOUS
 10
-7.05
 20
-0.771081983
 40
0.2
100
AcDbArc
 50
90.0000000761
 51
179.9990411618
  0
ARC
  5
53E
100
AcDbEntity
  8
IMPORT_IGES
100
AcDbCircle
 62
7
  6
CONTINUOUS
 10
-5.9
 20
-11.35
 40
0.1
100
AcDbArc
 50
179.9999999998
 51
270.0012717494
  0
ARC
  5
53F
100
AcDbEntity
  8
IMPORT_IGES
100
AcDbCircle
 62
7
  6
CONTINUOUS
 10
-6.1
 20
-11.35
 40
0.1
100
AcDbArc
 50
0.0000000003
 51
89.9982893908
  0
ARC
  5
540
100
AcDbEntity
  8
IMPORT_IGES
100
AcDbCircle
 62
253
  6
CONTINUOUS
 10
-13.3
 20
8.2866773029
 40
9.5
100
AcDbArc
 50
349.9865678122
 51
354.9043096237
  0
ARC
  5
541
100
AcDbEntity
  8
IMPORT_IGES
100
AcDbCircle
 62
7
  6
CONTINUOUS
 10
-13.3
 20
8.2866773029
 40
9.3
100
AcDbArc
 50
349.9865678122
 51
0.0001398085
  0
ARC
  5
542
100
AcDbEntity
  8
IMPORT_IGES
100
AcDbCircle
 62
7
  6
CONTINUOUS
 10
-7.9565514748
 20
9.2722445332
 40
0.3
100
AcDbArc
 50
135.0000018621
 51
179.0
  0
ARC
  5
543
100
AcDbEntity
  8
IMPORT_IGES
100
AcDbCircle
 62
7
  6
CONTINUOUS
 10
-7.203
 20
10.1672173642
 40
0.2
100
AcDbArc
 50
0.0
 51
135.000001097
  0
ARC
  5
544
100
AcDbEntity
  8
IMPORT_IGES
100
AcDbCircle
 62
7
  6
CONTINUOUS
 10
-0.7173919684
 20
2.9652346042
 40
4.0
100
AcDbArc
 50
123.4933347856
 51
172.4289186646
  0
ARC
  5
545
100
AcDbEntity
  8
IMPORT_IGES
100
AcDbCircle
 62
253
  6
CONTINUOUS
 10
-0.7173919684
 20
2.9652346042
 40
3.8
100
AcDbArc
 50
123.4933347857
 51
172.4289186646
  0
ARC
  5
546
100
AcDbEntity
  8
IMPORT_IGES
100
AcDbCircle
 62
7
  6
CONTINUOUS
 10
-6.4055080062
 20
6.0399886066
 40
1.905513565
100
AcDbArc
 50
0.1395634649
 51
178.1372298283
  0
ARC
  5
547
100
AcDbEntity
  8
IMPORT_IGES
100
AcDbCircle
 62
253
  6
CONTINUOUS
 10
-6.4055080062
 20
6.0399886066
 40
1.6054856081
100
AcDbArc
 50
0.1450301271
 51
178.0267814416
  0
ARC
  5
548
100
AcDbEntity
  8
IMPORT_IGES
100
AcDbCircle
 62
253
  6
CONTINUOUS
 10
-5.05
 20
1.645
 40
1.3
100
AcDbArc
 50
89.999999999
 51
180.0
  0
ARC
  5
549
100
AcDbEntity
  8
IMPORT_IGES
100
AcDbCircle
 62
7
  6
CONTINUOUS
 10
-5.05
 20
1.645
 40
1.0
100
AcDbArc
 50
90.0
 51
180.0000000078
  0
ARC
  5
54A
100
AcDbEntity
  8
IMPORT_IGES
100
AcDbCircle
 62
253
  6
CONTINUOUS
 10
-3.8
 20
3.0132052805
 40
0.7
100
AcDbArc
 50
186.1256577714
 51
269.8387858744
  0
ARC
  5
54B
100
AcDbEntity
  8
IMPORT_IGES
100
AcDbCircle
 62
253
  6
CONTINUOUS
 10
-4.6340502541
 20
6.7565416876
 40
0.7
100
AcDbArc
 50
280.7609054582
 51
349.9865678122
  0
ARC
  5
54C
100
AcDbEntity
  8
IMPORT_IGES
100
AcDbCircle
 62
253
  6
CONTINUOUS
 10
-5.05
 20
1.645
 40
0.7
100
AcDbArc
 50
90.0
 51
180.0
  0
ARC
  5
54D
100
AcDbEntity
  8
IMPORT_IGES
100
AcDbCircle
 62
7
  6
CONTINUOUS
 10
-4.6446828416
 20
2.0283292674
 40
0.6
100
AcDbArc
 50
283.9720463854
 51
334.8767063357
  0
ARC
  5
54E
100
AcDbEntity
  8
IMPORT_IGES
100
AcDbCircle
 62
7
  6
CONTINUOUS
 10
-4.087751337
 20
3.4132052805
 40
0.6
100
AcDbArc
 50
172.4289186645
 51
269.9999999999
  0
ARC
  5
54F
100
AcDbEntity
  8
IMPORT_IGES
100
AcDbCircle
 62
7
  6
CONTINUOUS
 10
-4.6340502541
 20
6.7565416876
 40
0.5
100
AcDbArc
 50
283.8109467865
 51
349.9865678122
  0
ARC
  5
550
100
AcDbEntity
  8
IMPORT_IGES
100
AcDbCircle
 62
253
  6
CONTINUOUS
 10
-4.087751337
 20
3.4132052805
 40
0.4
100
AcDbArc
 50
172.4289186646
 51
269.9999999999
  0
ARC
  5
551
100
AcDbEntity
  8
IMPORT_IGES
100
AcDbCircle
 62
7
  6
CONTINUOUS
 10
-6.8787960079
 20
10.35
 40
0.3
100
AcDbArc
 50
90.0
 51
135.000071038
  0
ARC
  5
552
100
AcDbEntity
  8
IMPORT_IGES
100
AcDbCircle
 62
7
  6
CONTINUOUS
 10
-0.9
 20
3.588305283
 40
0.3
100
AcDbArc
 50
270.0
 51
360.0
  0
ARC
  5
553
100
AcDbEntity
  8
IMPORT_IGES
100
AcDbCircle
 62
7
  6
CONTINUOUS
 10
-4.8
 20
2.345
 40
0.3
100
AcDbArc
 50
0.0
 51
90.0000000002
  0
ARC
  5
554
100
AcDbEntity
  8
IMPORT_IGES
100
AcDbCircle
 62
7
  6
CONTINUOUS
 10
-3.8
 20
10.45
 40
0.2
100
AcDbArc
 50
90.000000014
 51
179.9999999998
  0
ARC
  5
555
100
AcDbEntity
  8
IMPORT_IGES
100
AcDbCircle
 62
7
  6
CONTINUOUS
 10
-6.4
 20
10.75
 40
0.1
100
AcDbArc
 50
89.9985366611
 51
179.9999999999
  0
ARC
  5
556
100
AcDbEntity
  8
IMPORT_IGES
100
AcDbCircle
 62
7
  6
CONTINUOUS
 10
-6.6
 20
10.75
 40
0.1
100
AcDbArc
 50
270.0028894103
 51
360.0
  0
ARC
  5
557
100
AcDbEntity
  8
ASSI
100
AcDbCircle
 62
7
  6
CONTINUOUS
 10
-4.0
 20
23.2
 40
0.5
100
AcDbArc
 50
154.1580672368
 51
205.8419327632
  0
ARC
  5
558
100
AcDbEntity
  8
ASSI
100
AcDbCircle
 62
7
  6
CONTINUOUS
 10
-4.0
 20
23.2
 40
0.4904006794
100
AcDbArc
 50
136.2076703059
 51
223.7923296941
  0
ARC
  5
559
100
AcDbEntity
  8
ASSI
100
AcDbCircle
 62
7
  6
CONTINUOUS
 10
4.0
 20
-23.2
 40
0.5
100
AcDbArc
 50
334.1580672368
 51
25.8419327632
  0
ARC
  5
55A
100
AcDbEntity
  8
ASSI
100
AcDbCircle
 62
7
  6
CONTINUOUS
 10
4.0
 20
-23.2
 40
0.4904006794
100
AcDbArc
 50
316.2076703059
 51
43.7923296941
  0
ARC
  5
55B
100
AcDbEntity
  8
IMPORT_IGES
100
AcDbCircle
 62
253
  6
CONTINUOUS
 10
0.0
 20
-0.1497022524
 40
7.4999707336
100
AcDbArc
 50
70.5285040378
 51
109.4716831012
  0
ARC
  5
55C
100
AcDbEntity
  8
IMPORT_IGES
100
AcDbCircle
 62
7
  6
CONTINUOUS
 10
0.0
 20
-0.1497022523
 40
4.53
100
AcDbArc
 50
25.1232936643
 51
154.8767063357
  0
ARC
  5
55D
100
AcDbEntity
  8
IMPORT_IGES
100
AcDbCircle
 62
7
  6
CONTINUOUS
 10
0.0
 20
-0.48
 40
4.5
100
AcDbArc
 50
183.051925112
 51
356.9480150513
  0
ARC
  5
55E
100
AcDbEntity
  8
IMPORT_IGES
100
AcDbCircle
 62
7
  6
CONTINUOUS
 10
3.7734516248
 20
-11.05
 40
0.2
100
AcDbArc
 50
270.000000011
 51
359.4199982135
  0
ARC
  5
55F
100
AcDbEntity
  8
RACCORDO
100
AcDbCircle
 62
7
  6
CONTINUOUS
 10
9.15
 20
-15.8
 40
0.3
100
AcDbArc
 50
0.0
 51
90.0
  0
ARC
  5
560
100
AcDbEntity
  8
IMPORT_IGES
100
AcDbCircle
 62
7
  6
CONTINUOUS
 10
5.45
 20
-0.755
 40
0.6
100
AcDbArc
 50
269.9999999999
 51
360.0
  0
ARC
  5
561
100
AcDbEntity
  8
IMPORT_IGES
100
AcDbCircle
 62
7
  6
CONTINUOUS
 10
5.1
 20
-0.755
 40
0.6
100
AcDbArc
 50
180.0
 51
270.0
  0
ARC
  5
562
100
AcDbEntity
  8
IMPORT_IGES
100
AcDbCircle
 62
7
  6
CONTINUOUS
 10
6.2231434405
 20
-10.95
 40
0.3
100
AcDbArc
 50
269.9999717711
 51
299.9999553967
  0
ARC
  5
563
100
AcDbEntity
  8
IMPORT_IGES
100
AcDbCircle
 62
253
  6
CONTINUOUS
 10
5.45
 20
-0.755
 40
0.3
100
AcDbArc
 50
270.0000000001
 51
359.9999999999
  0
ARC
  5
564
100
AcDbEntity
  8
IMPORT_IGES
100
AcDbCircle
 62
253
  6
CONTINUOUS
 10
5.1
 20
-0.755
 40
0.3
100
AcDbArc
 50
180.0
 51
270.0
  0
ARC
  5
565
100
AcDbEntity
  8
IMPORT_IGES
100
AcDbCircle
 62
7
  6
CONTINUOUS
 10
7.9551966713
 20
-9.9500005556
 40
0.2999989024
100
AcDbArc
 50
299.9939330954
 51
359.0002593113
  0
ARC
  5
566
100
AcDbEntity
  8
IMPORT_IGES
100
AcDbCircle
 62
7
  6
CONTINUOUS
 10
7.4499999999
 20
-10.357144089
 40
0.2
100
AcDbArc
 50
180.0000360725
 51
300.0000003414
  0
ARC
  5
567
100
AcDbEntity
  8
IMPORT_IGES
100
AcDbCircle
 62
7
  6
CONTINUOUS
 10
7.05
 20
-0.7710819831
 40
0.2
100
AcDbArc
 50
0.0
 51
89.9855208623
  0
ARC
  5
568
100
AcDbEntity
  8
IMPORT_IGES
100
AcDbCircle
 62
7
  6
CONTINUOUS
 10
6.1
 20
-11.35
 40
0.1
100
AcDbArc
 50
90.0025347004
 51
179.9999999998
  0
ARC
  5
569
100
AcDbEntity
  8
IMPORT_IGES
100
AcDbCircle
 62
7
  6
CONTINUOUS
 10
5.9
 20
-11.35
 40
0.1
100
AcDbArc
 50
269.9984899776
 51
360.0
  0
ARC
  5
56A
100
AcDbEntity
  8
IMPORT_IGES
100
AcDbCircle
 62
7
  6
CONTINUOUS
 10
0.0
 20
1.881099574
 40
5.3
100
AcDbArc
 50
56.5066652144
 51
123.4933347856
  0
ARC
  5
56B
100
AcDbEntity
  8
IMPORT_IGES
100
AcDbCircle
 62
253
  6
CONTINUOUS
 10
0.0
 20
1.881099574
 40
5.0999439942
100
AcDbArc
 50
56.5066652143
 51
123.4933347857
  0
ARC
  5
56C
100
AcDbEntity
  8
IMPORT_IGES
100
AcDbCircle
 62
7
  6
CONTINUOUS
 10
0.7173919684
 20
2.9652346042
 40
4.0
100
AcDbArc
 50
7.571081337
 51
56.5066652144
  0
ARC
  5
56D
100
AcDbEntity
  8
IMPORT_IGES
100
AcDbCircle
 62
253
  6
CONTINUOUS
 10
0.7173919684
 20
2.9652346042
 40
3.8
100
AcDbArc
 50
7.5710813354
 51
56.5066652143
  0
ARC
  5
56E
100
AcDbEntity
  8
IMPORT_IGES
100
AcDbCircle
 62
7
  6
CONTINUOUS
 10
0.9
 20
3.588305283
 40
0.3
100
AcDbArc
 50
180.0
 51
270.0
  0
ARC
  5
56F
100
AcDbEntity
  8
IMPORT_IGES
100
AcDbCircle
 62
7
  6
CONTINUOUS
 10
6.4055080062
 20
6.0399886066
 40
1.905513565
100
AcDbArc
 50
1.8627701719
 51
179.8604365352
  0
ARC
  5
570
100
AcDbEntity
  8
IMPORT_IGES
100
AcDbCircle
 62
253
  6
CONTINUOUS
 10
6.4055080062
 20
6.0399886066
 40
1.605485616
100
AcDbArc
 50
1.8712366982
 51
179.8439250555
  0
ARC
  5
571
100
AcDbEntity
  8
IMPORT_IGES
100
AcDbCircle
 62
253
  6
CONTINUOUS
 10
5.05
 20
1.645
 40
1.3
100
AcDbArc
 50
0.0
 51
90.0
  0
ARC
  5
572
100
AcDbEntity
  8
IMPORT_IGES
100
AcDbCircle
 62
7
  6
CONTINUOUS
 10
5.05
 20
1.645
 40
1.0
100
AcDbArc
 50
0.0
 51
90.0
  0
ARC
  5
573
100
AcDbEntity
  8
IMPORT_IGES
100
AcDbCircle
 62
253
  6
CONTINUOUS
 10
3.8
 20
3.0132052805
 40
0.7
100
AcDbArc
 50
270.1612141257
 51
354.4162937363
  0
ARC
  5
574
100
AcDbEntity
  8
IMPORT_IGES
100
AcDbCircle
 62
253
  6
CONTINUOUS
 10
5.05
 20
1.645
 40
0.7
100
AcDbArc
 50
0.0
 51
90.0
  0
ARC
  5
575
100
AcDbEntity
  8
IMPORT_IGES
100
AcDbCircle
 62
7
  6
CONTINUOUS
 10
4.087751337
 20
3.4132052805
 40
0.6
100
AcDbArc
 50
269.9999999428
 51
7.5710813447
  0
ARC
  5
576
100
AcDbEntity
  8
IMPORT_IGES
100
AcDbCircle
 62
7
  6
CONTINUOUS
 10
4.6446828416
 20
2.0283292674
 40
0.6
100
AcDbArc
 50
205.1232936644
 51
256.0468877463
  0
ARC
  5
577
100
AcDbEntity
  8
IMPORT_IGES
100
AcDbCircle
 62
253
  6
CONTINUOUS
 10
4.087751337
 20
3.4132052805
 40
0.4
100
AcDbArc
 50
270.0000000002
 51
7.5710813353
  0
ARC
  5
578
100
AcDbEntity
  8
IMPORT_IGES
100
AcDbCircle
 62
7
  6
CONTINUOUS
 10
4.8
 20
2.345
 40
0.3
100
AcDbArc
 50
90.0
 51
180.0
  0
ARC
  5
579
100
AcDbEntity
  8
IMPORT_IGES
100
AcDbCircle
 62
253
  6
CONTINUOUS
 10
4.6340502541
 20
6.7565416876
 40
0.7
100
AcDbArc
 50
190.0134321878
 51
259.2439469407
  0
ARC
  5
57A
100
AcDbEntity
  8
IMPORT_IGES
100
AcDbCircle
 62
7
  6
CONTINUOUS
 10
4.6340502541
 20
6.7565416876
 40
0.5
100
AcDbArc
 50
190.0134321878
 51
256.3076144804
  0
ARC
  5
57B
100
AcDbEntity
  8
IMPORT_IGES
100
AcDbCircle
 62
7
  6
CONTINUOUS
 10
3.8
 20
10.45
 40
0.2
100
AcDbArc
 50
0.0000000002
 51
90.0
  0
ARC
  5
57C
100
AcDbEntity
  8
IMPORT_IGES
100
AcDbCircle
 62
7
  6
CONTINUOUS
 10
6.4
 20
10.75
 40
0.1
100
AcDbArc
 50
0.0000000001
 51
90.0014633388
  0
ARC
  5
57D
100
AcDbEntity
  8
IMPORT_IGES
100
AcDbCircle
 62
7
  6
CONTINUOUS
 10
6.6
 20
10.75
 40
0.1
100
AcDbArc
 50
179.9999999999
 51
269.9971105898
  0
ARC
  5
57E
100
AcDbEntity
  8
ASSI
100
AcDbCircle
 62
7
  6
CONTINUOUS
 10
4.0
 20
23.2
 40
0.5
100
AcDbArc
 50
334.1580672368
 51
25.8419327632
  0
ARC
  5
57F
100
AcDbEntity
  8
ASSI
100
AcDbCircle
 62
7
  6
CONTINUOUS
 10
4.0
 20
23.2
 40
0.4904006794
100
AcDbArc
 50
316.2076703059
 51
43.7923296941
  0
ARC
  5
580
100
AcDbEntity
  8
IMPORT_IGES
100
AcDbCircle
 62
253
  6
CONTINUOUS
 10
13.3
 20
8.2866773029
 40
9.5
100
AcDbArc
 50
185.0956903802
 51
190.0134321878
  0
ARC
  5
581
100
AcDbEntity
  8
IMPORT_IGES
100
AcDbCircle
 62
7
  6
CONTINUOUS
 10
13.3
 20
8.2866773029
 40
9.3
100
AcDbArc
 50
180.0000007965
 51
190.0134321859
  0
ARC
  5
582
100
AcDbEntity
  8
IMPORT_IGES
100
AcDbCircle
 62
7
  6
CONTINUOUS
 10
6.8787960079
 20
10.35
 40
0.3
100
AcDbArc
 50
44.9999520207
 51
89.9997513231
  0
ARC
  5
583
100
AcDbEntity
  8
IMPORT_IGES
100
AcDbCircle
 62
7
  6
CONTINUOUS
 10
7.9565514748
 20
9.2722445332
 40
0.3
100
AcDbArc
 50
1.0
 51
44.9999963826
  0
ARC
  5
584
100
AcDbEntity
  8
IMPORT_IGES
100
AcDbCircle
 62
7
  6
CONTINUOUS
 10
7.203
 20
10.1672173642
 40
0.2
100
AcDbArc
 50
44.9999998017
 51
180.0
  0
ELLIPSE
  5
585
100
AcDbEntity
  8
DRAFT
100
AcDbEllipse
 62
7
  6
CONTINUOUS
 10
-8.15
 20
-16.7005517582
 30
0.0
 11
-0.0
 21
1.2064091397
 31
0.0
 40
0.9999998954
 41
0.0
 42
0.0930546213
  0
ELLIPSE
  5
586
100
AcDbEntity
  8
DRAFT
100
AcDbEllipse
 62
7
  6
CONTINUOUS
 10
8.15
 20
-16.7005517582
 30
0.0
 11
-0.0
 21
1.2064091397
 31
0.0
 40
0.9999998954
 41
-0.0930546222
 42
-0.0
  0
ELLIPSE
  5
587
100
AcDbEntity
  8
IMPORT_IGES
100
AcDbEllipse
 62
7
  6
CONTINUOUS
 10
-5.4226866561
 20
-9.5117237174
 30
0.0
 11
0.0
 21
2.0
 31
0.0
 40
0.0633224816
 41
-3.3881354374
 42
-3.1415926536
  0
ELLIPSE
  5
588
100
AcDbEntity
  8
IMPORT_IGES
100
AcDbEllipse
 62
7
  6
CONTINUOUS
 10
5.4226866561
 20
-9.5117237174
 30
0.0
 11
0.0
 21
2.0
 31
0.0
 40
0.0633224816
 41
-3.1415926536
 42
-2.8950499539
  0
ELLIPSE
  5
589
100
AcDbEntity
  8
IMPORT_IGES
100
AcDbEllipse
 62
7
  6
CONTINUOUS
 10
-2.6048535023
 20
-3.9510384313
 30
0.0
 11
0.3
 21
-0.0
 31
0.0
 40
0.0238095238
 41
1.5707963268
 42
2.6364764424
  0
ELLIPSE
  5
58A
100
AcDbEntity
  8
IMPORT_IGES
100
AcDbEllipse
 62
7
  6
CONTINUOUS
 10
-1.7048535023
 20
-3.9510384313
 30
0.0
 11
0.3
 21
0.0
 31
0.0
 40
0.0238095238
 41
-0.0
 42
1.5707963268
  0
ELLIPSE
  5
58B
100
AcDbEntity
  8
IMPORT_IGES
100
AcDbEllipse
 62
7
  6
CONTINUOUS
 10
1.7048535023
 20
3.3144957592
 30
0.0
 11
0.3
 21
-0.0
 31
0.0
 40
0.0158730159
 41
-3.1415926536
 42
-1.5707963268
  0
ELLIPSE
  5
58C
100
AcDbEntity
  8
IMPORT_IGES
100
AcDbEllipse
 62
7
  6
CONTINUOUS
 10
1.7048535023
 20
-3.9510384313
 30
0.0
 11
0.3
 21
-0.0
 31
0.0
 40
0.0238095238
 41
1.5707963268
 42
3.1415926536
  0
ELLIPSE
  5
58D
100
AcDbEntity
  8
IMPORT_IGES
100
AcDbEllipse
 62
7
  6
CONTINUOUS
 10
4.4048535023
 20
7.3484451431
 30
0.0
 11
0.3
 21
0.0
 31
0.0
 40
0.020979021
 41
-3.1415926536
 42
-3.0070370125
  0
ELLIPSE
  5
58E
100
AcDbEntity
  8
IMPORT_IGES
100
AcDbEllipse
 62
7
  6
CONTINUOUS
 10
2.6048535023
 20
-3.9510384313
 30
0.0
 11
0.3
 21
0.0
 31
0.0
 40
0.0238095238
 41
0.5051222331
 42
1.5707963268
  0
ELLIPSE
  5
58F
100
AcDbEntity
  8
IMPORT_IGES
100
AcDbEllipse
 62
7
  6
CONTINUOUS
 10
1.8048535023
 20
4.0755287456
 30
0.0
 11
0.7
 21
-0.0
 31
0.0
 40
1.0
 41
-3.1415926536
 42
-2.1790419057
  0
ELLIPSE
  5
590
100
AcDbEntity
  8
IMPORT_IGES
100
AcDbEllipse
 62
7
  6
CONTINUOUS
 10
-1.8048535023
 20
4.0755287456
 30
0.0
 11
0.7
 21
0.0
 31
0.0
 40
1.0
 41
-0.9625507479
 42
-0.0
  0
ELLIPSE
  5
591
100
AcDbEntity
  8
IMPORT_IGES
100
AcDbEllipse
 62
7
  6
CONTINUOUS
 10
2.6048535023
 20
3.3144957592
 30
0.0
 11
0.3
 21
-0.0
 31
0.0
 40
0.0158730159
 41
-1.5707963268
 42
0.0
  0
ELLIPSE
  5
592
100
AcDbEntity
  8
IMPORT_IGES
100
AcDbEllipse
 62
7
  6
CONTINUOUS
 10
-1.7048535023
 20
3.3144957592
 30
0.0
 11
0.3
 21
-0.0
 31
0.0
 40
0.0158730159
 41
-1.5707963268
 42
0.0
  0
ELLIPSE
  5
593
100
AcDbEntity
  8
IMPORT_IGES
100
AcDbEllipse
 62
7
  6
CONTINUOUS
 10
-4.4048535023
 20
7.3484451431
 30
0.0
 11
0.3
 21
0.0
 31
0.0
 40
0.020979021
 41
-0.5228872352
 42
-0.0
  0
ELLIPSE
  5
594
100
AcDbEntity
  8
IMPORT_IGES
100
AcDbEllipse
 62
7
  6
CONTINUOUS
 10
-1.7949012909
 20
-4.7341372239
 30
0.0
 11
-0.0
 21
0.7
 31
0.0
 40
1.0
 41
-1.4019694187
 42
-0.5910234126
  0
ELLIPSE
  5
595
100
AcDbEntity
  8
IMPORT_IGES
100
AcDbEllipse
 62
7
  6
CONTINUOUS
 10
1.7949012909
 20
-4.7341372239
 30
0.0
 11
0.0
 21
0.7
 31
0.0
 40
1.0
 41
0.5910234126
 42
1.4019694187
  0
ELLIPSE
  5
596
100
AcDbEntity
  8
IMPORT_IGES
100
AcDbEllipse
 62
7
  6
CONTINUOUS
 10
-2.6048535023
 20
3.3144957592
 30
0.0
 11
0.3
 21
0.0
 31
0.0
 40
0.0158730159
 41
3.1415926536
 42
4.7123889804
  0
ELLIPSE
  5
597
100
AcDbEntity
  8
IMPORT_IGES
100
AcDbEllipse
 62
7
  6
CONTINUOUS
 10
-5.55
 20
-6.7663853496
 30
0.0
 11
0.0
 21
1.5881180375
 31
0.0
 40
0.1259352235
 41
-4.7123889803
 42
-3.4987217427
  0
ELLIPSE
  5
598
100
AcDbEntity
  8
IMPORT_IGES
100
AcDbEllipse
 62
7
  6
CONTINUOUS
 10
7.45
 20
-6.7663853496
 30
0.0
 11
0.0
 21
1.5881180375
 31
0.0
 40
0.1259352235
 41
-4.7123889803
 42
-3.4987217427
  0
ELLIPSE
  5
599
100
AcDbEntity
  8
ASSI
100
AcDbEllipse
 62
7
  6
CONTINUOUS
 10
-8.2999543059
 20
-16.7000456941
 30
0.0
 11
0.8485927574
 21
-0.8485927574
 31
0.0
 40
0.9999238505
 41
-2.6446328336
 42
-2.3562337003
  0
ELLIPSE
  5
59A
100
AcDbEntity
  8
ASSI
100
AcDbEllipse
 62
7
  6
CONTINUOUS
 10
8.2999543059
 20
-16.7000456941
 30
0.0
 11
0.8485927574
 21
0.8485927574
 31
0.0
 40
0.9999238505
 41
-0.7853600872
 42
-0.4969597335
  0
ELLIPSE
  5
59B
100
AcDbEntity
  8
ASSI
100
AcDbEllipse
 62
7
  6
CONTINUOUS
 10
4.0459553394
 20
23.2
 30
0.0
 11
0.4595995956
 21
-0.0
 31
0.0
 40
0.9949884474
 41
0.4967770086
 42
0.8362648721
  0
ELLIPSE
  5
59C
100
AcDbEntity
  8
ASSI
100
AcDbEllipse
 62
7
  6
CONTINUOUS
 10
4.0459553394
 20
23.2
 30
0.0
 11
0.4595995956
 21
-0.0
 31
0.0
 40
0.9949884474
 41
-0.8362648721
 42
-0.4967770086
  0
ELLIPSE
  5
59D
100
AcDbEntity
  8
ASSI
100
AcDbEllipse
 62
7
  6
CONTINUOUS
 10
4.0459553394
 20
-23.2
 30
0.0
 11
0.4595995956
 21
-0.0
 31
0.0
 40
0.9949884474
 41
0.4967770086
 42
0.8362648721
  0
ELLIPSE
  5
59E
100
AcDbEntity
  8
ASSI
100
AcDbEllipse
 62
7
  6
CONTINUOUS
 10
4.0459553394
 20
-23.2
 30
0.0
 11
0.4595995956
 21
-0.0
 31
0.0
 40
0.9949884474
 41
-0.8362648721
 42
-0.4967770086
  0
ELLIPSE
  5
59F
100
AcDbEntity
  8
ASSI
100
AcDbEllipse
 62
7
  6
CONTINUOUS
 10
-6.9100942226
 20
10.3100942226
 30
0.0
 11
-0.3535803156
 21
0.3535803156
 31
0.0
 40
0.9999238505
 41
5.49782522
 42
7.0685453944
  0
ELLIPSE
  5
5A0
100
AcDbEntity
  8
ASSI
100
AcDbEllipse
 62
7
  6
CONTINUOUS
 10
6.9100942226
 20
10.3100942226
 30
0.0
 11
0.3535803156
 21
0.3535803156
 31
0.0
 40
0.9999238505
 41
5.49782522
 42
7.0685453944
  0
ELLIPSE
  5
5A1
100
AcDbEntity
  8
ASSI
100
AcDbEllipse
 62
7
  6
CONTINUOUS
 10
-6.8122642439
 20
10.8127313221
 30
0.0
 11
0.3
 21
-0.0
 31
0.0
 40
0.0087268678
 41
-1.5707963268
 42
-0.0174532925
  0
ELLIPSE
  5
5A2
100
AcDbEntity
  8
ASSI
100
AcDbEllipse
 62
7
  6
CONTINUOUS
 10
6.8122642439
 20
10.8127313221
 30
0.0
 11
0.3
 21
-0.0
 31
0.0
 40
0.0087268678
 41
-3.1241393611
 42
-1.5707963268
  0
ELLIPSE
  5
5A3
100
AcDbEntity
  8
ASSI
100
AcDbEllipse
 62
7
  6
CONTINUOUS
 10
-4.0459553394
 20
23.2
 30
0.0
 11
0.4595995956
 21
0.0
 31
0.0
 40
0.9949884474
 41
-2.644815645
 42
-2.3053277814
  0
ELLIPSE
  5
5A4
100
AcDbEntity
  8
ASSI
100
AcDbEllipse
 62
7
  6
CONTINUOUS
 10
-4.0459553394
 20
23.2
 30
0.0
 11
0.4595995956
 21
0.0
 31
0.0
 40
0.9949884474
 41
2.3053277814
 42
2.644815645
  0
ELLIPSE
  5
5A5
100
AcDbEntity
  8
ASSI
100
AcDbEllipse
 62
7
  6
CONTINUOUS
 10
-4.0459553394
 20
-23.2
 30
0.0
 11
0.4595995956
 21
0.0
 31
0.0
 40
0.9949884474
 41
-2.644815645
 42
-2.3053277814
  0
ELLIPSE
  5
5A6
100
AcDbEntity
  8
ASSI
100
AcDbEllipse
 62
7
  6
CONTINUOUS
 10
-4.0459553394
 20
-23.2
 30
0.0
 11
0.4595995956
 21
0.0
 31
0.0
 40
0.9949884474
 41
2.3053277814
 42
2.644815645
  0
ENDSEC
  0
SECTION
  2
OBJECTS
  0
DICTIONARY
  5
C
100
AcDbDictionary
280
0
281
1
  3
ACAD_GROUP
350
D
  3
ACAD_MLINESTYLE
350
17
  3
ACAD_LAYOUT
350
1A
  3
ACAD_PLOTSETTINGS
350
19
  3
ACAD_PLOTSTYLENAME
350
E
  0
DICTIONARY
  5
D
102
{ACAD_REACTORS
330
C
102
}
100
AcDbDictionary
280
0
281
1
  0
ACDBDICTIONARYWDFLT
  5
E
102
{ACAD_REACTORS
330
C
102
}
100
AcDbDictionary
281
1
  3
Normal
350
F
100
AcDbDictionaryWithDefault
340
F
  0
DICTIONARY
  5
17
102
{ACAD_REACTORS
330
C
102
}
100
AcDbDictionary
280
0
281
1
  3
Standard
350
18
  0
DICTIONARY
  5
19
102
{ACAD_REACTORS
330
C
102
}
100
AcDbDictionary
281
1
  0
DICTIONARY
  5
1A
102
{ACAD_REACTORS
330
C
102
}
100
AcDbDictionary
281
1
  3
Model
350
5A7
  3
Layout1
350
5A8
  0
ACDBPLACEHOLDER
  5
F
102
{ACAD_REACTORS
330
E
102
}
  0
MLINESTYLE
  5
18
102
{ACAD_REACTORS
330
17
102
}
100
AcDbMlineStyle
  2
STANDARD
 70
0
  3

 62
256
 51
90.0
 52
90.0
 71
2
 49
0.5
 62
256
  6
BYLAYER
 49
-0.5
 62
256
  6
BYLAYER
  0
LAYOUT
  5
5A7
102
{ACAD_REACTORS
330
1A
102
}
100
AcDbPlotSettings
  1

  2
none_device
  4
ANSI_C_(22.00_x_17.00_Inches)
  6

 40
0.0
 41
0.0
 42
0.0
 43
0.0
 44
558.8
 45
431.8
 46
0.0
 47
0.0
 48
0.0
 49
0.0
140
0.0
141
0.0
142
1.0
143
1.0
 70
1024
 72
1
 73
0
 74
0
  7

 75
0
147
1.0
148
0.0
149
0.0
100
AcDbLayout
  1
Model
 70
0
 71
0
 10
0.0
 20
0.0
 11
558.8
 21
431.8
 12
0.0
 22
0.0
 32
0.0
 14
0.0
 24
0.0
 34
0.0
 15
0.0
 25
0.0
 35
0.0
146
0.0
 13
0.0
 23
0.0
 33
0.0
 16
1.0
 26
0.0
 36
0.0
 17
0.0
 27
1.0
 37
0.0
 76
0
330
21F
345
0
346
0
  0
LAYOUT
  5
5A8
102
{ACAD_REACTORS
330
1A
102
}
100
AcDbPlotSettings
  1

  2
none_device
  4
ANSI_C_(22.00_x_17.00_Inches)
  6

 40
0.0
 41
0.0
 42
0.0
 43
0.0
 44
558.8
 45
431.8
 46
0.0
 47
0.0
 48
0.0
 49
0.0
140
0.0
141
0.0
142
1.0
143
1.0
 70
0
 72
1
 73
0
 74
0
  7

 75
0
147
1.0
148
0.0
149
0.0
100
AcDbLayout
  1
Layout1
 70
0
 71
1
 10
0.0
 20
0.0
 11
558.8
 21
431.8
 12
0.0
 22
0.0
 32
0.0
 14
0.0
 24
0.0
 34
0.0
 15
0.0
 25
0.0
 35
0.0
146
0.0
 13
0.0
 23
0.0
 33
0.0
 16
1.0
 26
0.0
 36
0.0
 17
0.0
 27
1.0
 37
0.0
 76
0
330
220
345
0
346
0
  0
ENDSEC
  0
EOF
