  0
SECTION
  2
HEADER
  9
$ACADVER
  1
AC1015
  9
$DWGCODEPAGE
  3
ANSI_1252
  9
$EXTMAX
 10
297.0
 20
210.0
 30
0.0
  9
$EXTMIN
 10
0.0
 20
0.0
 30
0.0
  9
$LIMMIN
 10
0.0
 20
0.0
  9
$LIMMAX
 10
297.0
 20
210.0
  9
$VIEWCTR
 10
148.5
 20
105.0
  9
$VIEWSIZE
 40
210.0
  9
$CLAYER
  8
0
  9
$LTSCALE
 40
16.335
  9
$CELTYPE
  6
BYLAYER
  9
$DIMSCALE
 40
1.0
  9
$DIMASZ
 40
3.0
  9
$DIMEXO
 40
1.85625
  9
$DIMDLI
 40
11.286
  9
$DIMEXE
 40
5.346
  9
$DIMCEN
 40
2.673
  9
$DIMLFAC
 40
1.0
  9
$DIMBLK
  1
_FILLED
  9
$DIMTXT
 40
3.0
  9
$DIMTOL
 70
1
  9
$DIMLIM
 70
0
  9
$DIMTFAC
 40
1.0
  9
$DIMTP
 40
0.01
  9
$DIMTM
 40
0.01
  9
$PDMODE
 70
3
  9
$PDSIZE
 40
3.0
  9
$HANDSEED
  5
873
  9
$TILEMODE
 70
1
  9
$MEASUREMENT
 70
1
  9
$INSUNITS
 70
4
  0
ENDSEC
  0
SECTION
  2
CLASSES
  0
CLASS
  1
ACDBDICTIONARYWDFLT
  2
AcDbDictionaryWithDefault
  3
AutoCAD 2000
 90
0
280
0
281
0
  0
CLASS
  1
ACDBPLACEHOLDER
  2
AcDbPlaceHolder
  3
AutoCAD 2000
 90
0
280
0
281
0
  0
CLASS
  1
LAYOUT
  2
AcDbLayout
  3
AutoCAD 2000
 90
0
280
0
281
0
  0
ENDSEC
  0
SECTION
  2
TABLES
  0
TABLE
  2
VPORT
  5
8
100
AcDbSymbolTable
 70
2
  0
VPORT
  5
1F4
100
AcDbSymbolTableRecord
100
AcDbViewportTableRecord
  2
*ACTIVE
 70
0
 10
0.0
 20
0.0
 11
1.0
 21
1.0
 12
148.5
 22
105.0
 13
0.0
 23
0.0
 14
1.0
 24
1.0
 15
0.0
 25
0.0
 16
0.0
 26
0.0
 36
1.0
 17
0.0
 27
0.0
 37
0.0
 40
210.0
 41
1.4142857143
 42
50.0
 43
0.0
 44
0.0
 50
0.0
 51
0.0
 71
0
 72
100
 73
1
 74
1
 75
0
 76
0
 77
0
 78
0
  0
ENDTAB
  0
TABLE
  2
LTYPE
  5
5
100
AcDbSymbolTable
 70
6
  0
LTYPE
  5
14
100
AcDbSymbolTableRecord
100
AcDbLinetypeTableRecord
  2
BYBLOCK
 70
0
  3

 72
65
 73
0
 40
0.0
  0
LTYPE
  5
15
100
AcDbSymbolTableRecord
100
AcDbLinetypeTableRecord
  2
BYLAYER
 70
0
  3

 72
65
 73
0
 40
0.0
  0
LTYPE
  5
16
100
AcDbSymbolTableRecord
100
AcDbLinetypeTableRecord
  2
CONTINUOUS
 70
64
  3
Solid line
 72
65
 73
0
 40
0.0
  0
LTYPE
  5
1F5
100
AcDbSymbolTableRecord
100
AcDbLinetypeTableRecord
  2
CENTER
 70
64
  3
____ _ ____ _ ____ _ ____ _ ____ _ ____ _ ____
 72
65
 73
4
 40
0.6
 49
0.375
 74
0
 49
-0.075
 74
0
 49
0.075
 74
0
 49
-0.075
 74
0
  0
LTYPE
  5
1F6
100
AcDbSymbolTableRecord
100
AcDbLinetypeTableRecord
  2
HIDDEN
 70
64
  3
- - - - - - - - - - - - - - - - - - - -
 72
65
 73
2
 40
0.2
 49
0.1
 74
0
 49
-0.1
 74
0
  0
LTYPE
  5
1F7
100
AcDbSymbolTableRecord
100
AcDbLinetypeTableRecord
  2
PHANTOM
 70
64
  3
_____ _ _ _____ _ _ _____ _ _ _____
 72
65
 73
6
 40
0.8
 49
0.45
 74
0
 49
-0.05
 74
0
 49
0.1
 74
0
 49
-0.05
 74
0
 49
0.1
 74
0
 49
-0.05
 74
0
  0
LTYPE
  5
1F8
100
AcDbSymbolTableRecord
100
AcDbLinetypeTableRecord
  2
DOT
 70
64
  3
. . . . . . . . . . . . . . . . . . . .
 72
65
 73
2
 40
0.2
 49
0.1
 74
0
 49
-0.1
 74
0
  0
LTYPE
  5
1F9
100
AcDbSymbolTableRecord
100
AcDbLinetypeTableRecord
  2
DASHED
 70
64
  3
- - - - - - - - - - - - - - - - - - - -
 72
65
 73
2
 40
0.2
 49
0.1
 74
0
 49
-0.1
 74
0
  0
ENDTAB
  0
TABLE
  2
LAYER
  5
2
100
AcDbSymbolTable
 70
36
  0
LAYER
  5
10
100
AcDbSymbolTableRecord
100
AcDbLayerTableRecord
  2
0
 70
0
 62
7
  6
CONTINUOUS
370
-3
390
F
  0
LAYER
  5
1FA
100
AcDbSymbolTableRecord
100
AcDbLayerTableRecord
  2
DEFAULT_1
 70
0
 62
7
  6
CENTER
370
-3
390
F
  0
LAYER
  5
1FB
100
AcDbSymbolTableRecord
100
AcDbLayerTableRecord
  2
DEFAULT_2
 70
0
 62
7
  6
HIDDEN
370
-3
390
F
  0
LAYER
  5
1FC
100
AcDbSymbolTableRecord
100
AcDbLayerTableRecord
  2
DEFAULT_3
 70
0
 62
7
  6
PHANTOM
370
-3
390
F
  0
LAYER
  5
1FD
100
AcDbSymbolTableRecord
100
AcDbLayerTableRecord
  2
ASSI
 70
0
 62
7
  6
CONTINUOUS
370
-3
390
F
  0
LAYER
  5
1FE
100
AcDbSymbolTableRecord
100
AcDbLayerTableRecord
  2
COORDINATE
 70
0
 62
7
  6
CONTINUOUS
370
-3
390
F
  0
LAYER
  5
1FF
100
AcDbSymbolTableRecord
100
AcDbLayerTableRecord
  2
COORD_ORIGINE
 70
0
 62
7
  6
CONTINUOUS
370
-3
390
F
  0
LAYER
  5
200
100
AcDbSymbolTableRecord
100
AcDbLayerTableRecord
  2
COPY_PUBLISH
 70
0
 62
7
  6
CONTINUOUS
370
-3
390
F
  0
LAYER
  5
201
100
AcDbSymbolTableRecord
100
AcDbLayerTableRecord
  2
COSMETIC
 70
0
 62
7
  6
CONTINUOUS
370
-3
390
F
  0
LAYER
  5
202
100
AcDbSymbolTableRecord
100
AcDbLayerTableRecord
  2
CURVE
 70
0
 62
7
  6
CONTINUOUS
370
-3
390
F
  0
LAYER
  5
203
100
AcDbSymbolTableRecord
100
AcDbLayerTableRecord
  2
DRAFT
 70
0
 62
7
  6
CONTINUOUS
370
-3
390
F
  0
LAYER
  5
204
100
AcDbSymbolTableRecord
100
AcDbLayerTableRecord
  2
IMPORT_IGES
 70
0
 62
7
  6
CONTINUOUS
370
-3
390
F
  0
LAYER
  5
205
100
AcDbSymbolTableRecord
100
AcDbLayerTableRecord
  2
INCISIONI
 70
0
 62
7
  6
CONTINUOUS
370
-3
390
F
  0
LAYER
  5
206
100
AcDbSymbolTableRecord
100
AcDbLayerTableRecord
  2
INTFCLR_1
 70
0
 62
7
  6
CONTINUOUS
370
-3
390
F
  0
LAYER
  5
207
100
AcDbSymbolTableRecord
100
AcDbLayerTableRecord
  2
INTF_1
 70
0
 62
7
  6
CONTINUOUS
370
-3
390
F
  0
LAYER
  5
208
100
AcDbSymbolTableRecord
100
AcDbLayerTableRecord
  2
INTF_15
 70
0
 62
7
  6
CONTINUOUS
370
-3
390
F
  0
LAYER
  5
209
100
AcDbSymbolTableRecord
100
AcDbLayerTableRecord
  2
INTF_16
 70
0
 62
7
  6
CONTINUOUS
370
-3
390
F
  0
LAYER
  5
20A
100
AcDbSymbolTableRecord
100
AcDbLayerTableRecord
  2
NOTE
 70
0
 62
7
  6
CONTINUOUS
370
-3
390
F
  0
LAYER
  5
20B
100
AcDbSymbolTableRecord
100
AcDbLayerTableRecord
  2
PIANI
 70
0
 62
7
  6
CONTINUOUS
370
-3
390
F
  0
LAYER
  5
20C
100
AcDbSymbolTableRecord
100
AcDbLayerTableRecord
  2
PIANI_COSTRUZIONE_PROFILO
 70
0
 62
7
  6
CONTINUOUS
370
-3
390
F
  0
LAYER
  5
20D
100
AcDbSymbolTableRecord
100
AcDbLayerTableRecord
  2
PIANI_ORIGINE
 70
0
 62
7
  6
CONTINUOUS
370
-3
390
F
  0
LAYER
  5
20E
100
AcDbSymbolTableRecord
100
AcDbLayerTableRecord
  2
PIANI_RIFERIMENTO
 70
0
 62
7
  6
CONTINUOUS
370
-3
390
F
  0
LAYER
  5
20F
100
AcDbSymbolTableRecord
100
AcDbLayerTableRecord
  2
PUNTI
 70
0
 62
7
  6
CONTINUOUS
370
-3
390
F
  0
LAYER
  5
210
100
AcDbSymbolTableRecord
100
AcDbLayerTableRecord
  2
RACCORDO
 70
0
 62
7
  6
CONTINUOUS
370
-3
390
F
  0
LAYER
  5
211
100
AcDbSymbolTableRecord
100
AcDbLayerTableRecord
  2
SKEL
 70
0
 62
7
  6
CONTINUOUS
370
-3
390
F
  0
LAYER
  5
212
100
AcDbSymbolTableRecord
100
AcDbLayerTableRecord
  2
SMUSSO
 70
0
 62
7
  6
CONTINUOUS
370
-3
390
F
  0
LAYER
  5
213
100
AcDbSymbolTableRecord
100
AcDbLayerTableRecord
  2
SNAPLINE
 70
0
 62
7
  6
CONTINUOUS
370
-3
390
F
  0
LAYER
  5
214
100
AcDbSymbolTableRecord
100
AcDbLayerTableRecord
  2
SUPERFICI
 70
0
 62
7
  6
CONTINUOUS
370
-3
390
F
  0
LAYER
  5
215
100
AcDbSymbolTableRecord
100
AcDbLayerTableRecord
  2
SUPERFICI_ESTETICHE
 70
0
 62
7
  6
CONTINUOUS
370
-3
390
F
  0
LAYER
  5
216
100
AcDbSymbolTableRecord
100
AcDbLayerTableRecord
  2
SUPERFICI_SKEL
 70
0
 62
7
  6
CONTINUOUS
370
-3
390
F
  0
LAYER
  5
217
100
AcDbSymbolTableRecord
100
AcDbLayerTableRecord
  2
TRASH
 70
0
 62
7
  6
CONTINUOUS
370
-3
390
F
  0
LAYER
  5
218
100
AcDbSymbolTableRecord
100
AcDbLayerTableRecord
  2
XSEC_DATUMS
 70
0
 62
7
  6
CONTINUOUS
370
-3
390
F
  0
ENDTAB
  0
TABLE
  2
STYLE
  5
3
100
AcDbSymbolTable
 70
1
  0
STYLE
  5
11
100
AcDbSymbolTableRecord
100
AcDbTextStyleTableRecord
  2
STANDARD
 70
0
 40
0.0
 41
0.8
 50
0.0
 71
0
 42
0.2
  3
txt
  4

  0
STYLE
  5
219
100
AcDbSymbolTableRecord
100
AcDbTextStyleTableRecord
  2
TEXTSTYLE_1
 70
0
 40
0.0
 41
0.8
 50
0.0
 71
0
 42
0.2
  3
gdt
  4

  0
ENDTAB
  0
TABLE
  2
VIEW
  5
6
100
AcDbSymbolTable
 70
0
  0
ENDTAB
  0
TABLE
  2
UCS
  5
7
100
AcDbSymbolTable
 70
0
  0
ENDTAB
  0
TABLE
  2
APPID
  5
9
100
AcDbSymbolTable
 70
1
  0
APPID
  5
21A
100
AcDbSymbolTableRecord
100
AcDbRegAppTableRecord
  2
ACAD
 70
0
  0
ENDTAB
  0
TABLE
  2
BLOCK_RECORD
  5
1
100
AcDbSymbolTable
 70
0
  0
BLOCK_RECORD
  5
21B
100
AcDbSymbolTableRecord
100
AcDbBlockTableRecord
  2
*Model_Space
  0
BLOCK_RECORD
  5
21C
100
AcDbSymbolTableRecord
100
AcDbBlockTableRecord
  2
*Paper_Space
  0
ENDTAB
  0
TABLE
  2
DIMSTYLE
  5
A
100
AcDbSymbolTable
 70
1
100
AcDbDimStyleTable
 71
0
  0
DIMSTYLE
105
21D
100
AcDbSymbolTableRecord
100
AcDbDimStyleTableRecord
  2
STANDARD
 70
0
  3

  4

 40
1.0
 41
3.0
 42
0.0625
 43
0.38
 44
0.18
 45
0.0
 46
0.0
 47
0.01
 48
0.01
140
3.0
141
0.09
142
0.0
143
25.4
144
1.0
145
0.0
146
1.0
147
0.09
 71
1.0
 72
0.0
 73
0
 74
0
 75
0
 76
0
 77
1
 78
8
170
0
171
2
172
0
173
0
174
0
175
0
176
0
177
0
178
0
270
2
271
2
272
2
273
2
274
2
275
0
280
0
281
0
282
0
283
1
284
8
285
0
286
0
287
3
288
0
340
11
  0
ENDTAB
  0
ENDSEC
  0
SECTION
  2
BLOCKS
  0
BLOCK
  5
20
100
AcDbEntity
  8
0
100
AcDbBlockBegin
  2
*Model_Space
 70
0
 10
0.0
 20
0.0
 30
0.0
  3
*Model_Space
  1

  0
ENDBLK
  5
21
100
AcDbEntity
  8
0
100
AcDbBlockEnd
  0
BLOCK
  5
1C
100
AcDbEntity
  8
0
100
AcDbBlockBegin
  2
*Paper_Space
 70
0
 10
0.0
 20
0.0
 30
0.0
  3
*Paper_Space
  1

  0
ENDBLK
  5
1D
100
AcDbEntity
  8
0
100
AcDbBlockEnd
  0
ENDSEC
  0
SECTION
  2
ENTITIES
  0
LINE
  5
21E
100
AcDbEntity
  8
ASSI
100
AcDbLine
 62
7
  6
CONTINUOUS
 10
10.400030461
 20
-24.5
 11
7.399969539
 21
-24.5
  0
LINE
  5
21F
100
AcDbEntity
  8
ASSI
100
AcDbLine
 62
7
  6
CONTINUOUS
 10
-7.399969539
 20
-24.5
 11
-10.400030461
 21
-24.5
  0
LINE
  5
220
100
AcDbEntity
  8
ASSI
100
AcDbLine
 62
253
  6
CONTINUOUS
 10
-10.3868630041
 20
-24.4868325431
 11
-7.413136996
 21
-24.4868325431
  0
LINE
  5
221
100
AcDbEntity
  8
ASSI
100
AcDbLine
 62
253
  6
CONTINUOUS
 10
7.4131369959
 20
-24.4868325431
 11
10.386863004
 21
-24.4868325431
  0
LINE
  5
222
100
AcDbEntity
  8
ASSI
100
AcDbLine
 62
253
  6
CONTINUOUS
 10
10.5859750215
 20
-24.2368706193
 11
7.2140249785
 21
-24.2368706193
  0
LINE
  5
223
100
AcDbEntity
  8
ASSI
100
AcDbLine
 62
253
  6
CONTINUOUS
 10
-10.5859750215
 20
-24.2368706193
 11
-7.2140249785
 21
-24.2368706193
  0
LINE
  5
224
100
AcDbEntity
  8
ASSI
100
AcDbLine
 62
7
  6
CONTINUOUS
 10
4.2000380762
 20
-24.0
 11
1.0499619238
 21
-24.0
  0
LINE
  5
225
100
AcDbEntity
  8
ASSI
100
AcDbLine
 62
7
  6
CONTINUOUS
 10
-1.0499619238
 20
-24.0
 11
-4.2000380762
 21
-24.0
  0
LINE
  5
226
100
AcDbEntity
  8
ASSI
100
AcDbLine
 62
7
  6
CONTINUOUS
 10
3.7499619238
 20
-23.9825449351
 11
1.0674169887
 21
-23.9825449351
  0
LINE
  5
227
100
AcDbEntity
  8
ASSI
100
AcDbLine
 62
7
  6
CONTINUOUS
 10
-1.0674169887
 20
-23.9825449351
 11
-3.7499619238
 21
-23.9825449351
  0
LINE
  5
228
100
AcDbEntity
  8
ASSI
100
AcDbLine
 62
253
  6
CONTINUOUS
 10
-8.7631293807
 20
-23.8443375673
 11
-7.2140249785
 21
-23.8443375673
  0
LINE
  5
229
100
AcDbEntity
  8
ASSI
100
AcDbLine
 62
253
  6
CONTINUOUS
 10
7.2140249785
 20
-23.8443375673
 11
8.7631293807
 21
-23.8443375673
  0
LINE
  5
22A
100
AcDbEntity
  8
ASSI
100
AcDbLine
 62
253
  6
CONTINUOUS
 10
-10.5859750215
 20
-23.8443375673
 11
-9.0368706193
 21
-23.8443375673
  0
LINE
  5
22B
100
AcDbEntity
  8
ASSI
100
AcDbLine
 62
253
  6
CONTINUOUS
 10
9.0368706193
 20
-23.8443375673
 11
10.5859750215
 21
-23.8443375673
  0
LINE
  5
22C
100
AcDbEntity
  8
ASSI
100
AcDbLine
 62
253
  6
CONTINUOUS
 10
-7.4135581719
 20
-23.6278322392
 11
-8.5466230298
 21
-23.6278312164
  0
LINE
  5
22D
100
AcDbEntity
  8
ASSI
100
AcDbLine
 62
253
  6
CONTINUOUS
 10
8.5466230298
 20
-23.6278312164
 11
7.4135581657
 21
-23.6278320349
  0
LINE
  5
22E
100
AcDbEntity
  8
ASSI
100
AcDbLine
 62
253
  6
CONTINUOUS
 10
10.3864405812
 20
-23.6278734826
 11
9.2533769702
 21
-23.6278312164
  0
LINE
  5
22F
100
AcDbEntity
  8
ASSI
100
AcDbLine
 62
253
  6
CONTINUOUS
 10
-9.2533769702
 20
-23.6278312164
 11
-10.3864405814
 21
-23.6278734767
  0
LINE
  5
230
100
AcDbEntity
  8
ASSI
100
AcDbLine
 62
7
  6
CONTINUOUS
 10
10.4017150409
 20
-23.1226497308
 11
9.3
 21
-23.1226497308
  0
LINE
  5
231
100
AcDbEntity
  8
ASSI
100
AcDbLine
 62
7
  6
CONTINUOUS
 10
8.5
 20
-23.1226497308
 11
7.3982849591
 21
-23.1226497308
  0
LINE
  5
232
100
AcDbEntity
  8
ASSI
100
AcDbLine
 62
7
  6
CONTINUOUS
 10
-7.3982849591
 20
-23.1226497308
 11
-8.5
 21
-23.1226497308
  0
LINE
  5
233
100
AcDbEntity
  8
ASSI
100
AcDbLine
 62
7
  6
CONTINUOUS
 10
-9.3
 20
-23.1226497308
 11
-10.4017150409
 21
-23.1226497308
  0
LINE
  5
234
100
AcDbEntity
  8
ASSI
100
AcDbLine
 62
253
  6
CONTINUOUS
 10
-7.413136996
 20
24.4868325431
 11
-7.399969539
 21
24.5
  0
LINE
  5
235
100
AcDbEntity
  8
ASSI
100
AcDbLine
 62
253
  6
CONTINUOUS
 10
-7.2131674569
 20
24.286863004
 11
-7.2
 21
24.300030461
  0
LINE
  5
236
100
AcDbEntity
  8
ASSI
100
AcDbLine
 62
7
  6
CONTINUOUS
 10
-8.5
 20
22.4
 11
-8.5131674569
 21
22.3868325431
  0
LINE
  5
237
100
AcDbEntity
  8
ASSI
100
AcDbLine
 62
7
  6
CONTINUOUS
 10
-7.2551134101
 20
22.3825449351
 11
-8.2325449351
 21
21.4051134101
  0
LINE
  5
238
100
AcDbEntity
  8
ASSI
100
AcDbLine
 62
7
  6
CONTINUOUS
 10
-8.0579942858
 20
20.9872686779
 11
-8.2325449351
 21
20.9
  0
LINE
  5
239
100
AcDbEntity
  8
ASSI
100
AcDbLine
 62
7
  6
CONTINUOUS
 10
-8.0584656028
 20
21.4561094406
 11
-8.2325449351
 21
21.4051134101
  0
LINE
  5
23A
100
AcDbEntity
  8
ASSI
100
AcDbLine
 62
7
  6
CONTINUOUS
 10
0.8174550649
 20
-22.398254669
 11
0.8
 21
-22.4
  0
LINE
  5
23B
100
AcDbEntity
  8
ASSI
100
AcDbLine
 62
7
  6
CONTINUOUS
 10
10.6000000646
 20
-22.3999999354
 11
9.3
 21
-22.4
  0
LINE
  5
23C
100
AcDbEntity
  8
ASSI
100
AcDbLine
 62
7
  6
CONTINUOUS
 10
8.5
 20
-22.4
 11
4.45
 21
-22.4
  0
LINE
  5
23D
100
AcDbEntity
  8
ASSI
100
AcDbLine
 62
7
  6
CONTINUOUS
 10
-4.45
 20
-22.4
 11
-8.5
 21
-22.4
  0
LINE
  5
23E
100
AcDbEntity
  8
ASSI
100
AcDbLine
 62
7
  6
CONTINUOUS
 10
-9.3
 20
-22.4
 11
-10.6
 21
-22.3999999999
  0
LINE
  5
23F
100
AcDbEntity
  8
ASSI
100
AcDbLine
 62
7
  6
CONTINUOUS
 10
0.8174550649
 20
-22.398254669
 11
-0.8174550649
 21
-22.398254669
  0
LINE
  5
240
100
AcDbEntity
  8
ASSI
100
AcDbLine
 62
7
  6
CONTINUOUS
 10
-10.5826210875
 20
-22.3825449351
 11
-9.0368706193
 21
-22.3825449351
  0
LINE
  5
241
100
AcDbEntity
  8
ASSI
100
AcDbLine
 62
7
  6
CONTINUOUS
 10
-8.7631293807
 20
-22.3825449351
 11
-7.2551134101
 21
-22.3825449351
  0
LINE
  5
242
100
AcDbEntity
  8
ASSI
100
AcDbLine
 62
7
  6
CONTINUOUS
 10
3.5
 20
-22.3825449351
 11
3.2999714434
 21
-22.3825449351
  0
LINE
  5
243
100
AcDbEntity
  8
ASSI
100
AcDbLine
 62
7
  6
CONTINUOUS
 10
-3.2999714434
 20
-22.3825449351
 11
-3.5
 21
-22.3825449351
  0
LINE
  5
244
100
AcDbEntity
  8
ASSI
100
AcDbLine
 62
7
  6
CONTINUOUS
 10
7.2551134101
 20
-22.3825449351
 11
8.7631293807
 21
-22.3825449351
  0
LINE
  5
245
100
AcDbEntity
  8
ASSI
100
AcDbLine
 62
7
  6
CONTINUOUS
 10
9.0368706193
 20
-22.3825449351
 11
10.5826210875
 21
-22.3825449351
  0
LINE
  5
246
100
AcDbEntity
  8
ASSI
100
AcDbLine
 62
253
  6
CONTINUOUS
 10
-7.3012233427
 20
-22.2251447178
 11
-3.3786655583
 21
-22.2251447178
  0
LINE
  5
247
100
AcDbEntity
  8
ASSI
100
AcDbLine
 62
253
  6
CONTINUOUS
 10
3.3786655583
 20
-22.2251447178
 11
7.3012233427
 21
-22.2251447178
  0
LINE
  5
248
100
AcDbEntity
  8
ASSI
100
AcDbLine
 62
7
  6
CONTINUOUS
 10
3.05
 20
-21.7
 11
-3.05
 21
-21.7
  0
LINE
  5
249
100
AcDbEntity
  8
ASSI
100
AcDbLine
 62
7
  6
CONTINUOUS
 10
3.1173032135
 20
-21.6326967865
 11
-3.1173032135
 21
-21.6326967865
  0
LINE
  5
24A
100
AcDbEntity
  8
ASSI
100
AcDbLine
 62
253
  6
CONTINUOUS
 10
-8.0579942858
 20
-21.2252970227
 11
-3.1351059998
 21
-21.2252970227
  0
LINE
  5
24B
100
AcDbEntity
  8
ASSI
100
AcDbLine
 62
253
  6
CONTINUOUS
 10
3.1351059998
 20
-21.2252970227
 11
8.0579942858
 21
-21.2252970227
  0
LINE
  5
24C
100
AcDbEntity
  8
ASSI
100
AcDbLine
 62
7
  6
CONTINUOUS
 10
6.5872686779
 20
-21.0745506493
 11
5.1254493507
 21
-21.0745506493
  0
LINE
  5
24D
100
AcDbEntity
  8
ASSI
100
AcDbLine
 62
7
  6
CONTINUOUS
 10
-5.1254493507
 20
-21.0745506493
 11
-6.5872686779
 21
-21.0745506493
  0
LINE
  5
24E
100
AcDbEntity
  8
ASSI
100
AcDbLine
 62
7
  6
CONTINUOUS
 10
-8.0579942858
 20
-20.9872686779
 11
-7.2127313221
 21
-20.9872686779
  0
LINE
  5
24F
100
AcDbEntity
  8
ASSI
100
AcDbLine
 62
7
  6
CONTINUOUS
 10
7.2127313221
 20
-20.9872686779
 11
8.0579942858
 21
-20.9872686779
  0
LINE
  5
250
100
AcDbEntity
  8
ASSI
100
AcDbLine
 62
7
  6
CONTINUOUS
 10
-9.65
 20
-20.9
 11
-8.2325449351
 21
-20.9
  0
LINE
  5
251
100
AcDbEntity
  8
ASSI
100
AcDbLine
 62
7
  6
CONTINUOUS
 10
8.2325449351
 20
-20.9
 11
9.65
 21
-20.9
  0
LINE
  5
252
100
AcDbEntity
  8
ASSI
100
AcDbLine
 62
7
  6
CONTINUOUS
 10
-0.8174550649
 20
-22.398254669
 11
-0.8
 21
-22.4
  0
LINE
  5
253
100
AcDbEntity
  8
ASSI
100
AcDbLine
 62
7
  6
CONTINUOUS
 10
-8.0584656028
 20
-21.4561094406
 11
-8.2325449351
 21
-21.4051134101
  0
LINE
  5
254
100
AcDbEntity
  8
ASSI
100
AcDbLine
 62
7
  6
CONTINUOUS
 10
-8.0579942858
 20
-20.9872686779
 11
-8.2325449351
 21
-20.9
  0
LINE
  5
255
100
AcDbEntity
  8
ASSI
100
AcDbLine
 62
253
  6
CONTINUOUS
 10
-7.399969539
 20
-24.5
 11
-7.413136996
 21
-24.4868325431
  0
LINE
  5
256
100
AcDbEntity
  8
ASSI
100
AcDbLine
 62
253
  6
CONTINUOUS
 10
-7.2
 20
-24.300030461
 11
-7.2131674569
 21
-24.2868630041
  0
LINE
  5
257
100
AcDbEntity
  8
ASSI
100
AcDbLine
 62
7
  6
CONTINUOUS
 10
-8.5
 20
-22.4
 11
-8.5131674569
 21
-22.3868325431
  0
LINE
  5
258
100
AcDbEntity
  8
ASSI
100
AcDbLine
 62
7
  6
CONTINUOUS
 10
-8.2325449351
 20
-21.4051134101
 11
-7.2551134101
 21
-22.3825449351
  0
LINE
  5
259
100
AcDbEntity
  8
0
100
AcDbLine
 62
7
  6
CONTINUOUS
 10
-7.3261806034
 20
20.8738193966
 11
-7.2127313221
 21
20.9872686779
  0
LINE
  5
25A
100
AcDbEntity
  8
ASSI
100
AcDbLine
 62
7
  6
CONTINUOUS
 10
-7.3261806034
 20
20.8738193966
 11
-7.2127313221
 21
20.9872686779
  0
LINE
  5
25B
100
AcDbEntity
  8
ASSI
100
AcDbLine
 62
253
  6
CONTINUOUS
 10
-3.8306228363
 20
23.9018840226
 11
-3.7499619238
 21
23.9825449351
  0
LINE
  5
25C
100
AcDbEntity
  8
ASSI
100
AcDbLine
 62
253
  6
CONTINUOUS
 10
-3.5806609125
 20
23.6519220988
 11
-3.5
 21
23.7325830113
  0
LINE
  5
25D
100
AcDbEntity
  8
0
100
AcDbLine
 62
7
  6
CONTINUOUS
 10
-5.1254493507
 20
20.0872686779
 11
-5.3523651948
 21
19.9738193966
  0
LINE
  5
25E
100
AcDbEntity
  8
ASSI
100
AcDbLine
 62
7
  6
CONTINUOUS
 10
-5.1254493507
 20
20.0872686779
 11
-5.3523651948
 21
19.9738193966
  0
LINE
  5
25F
100
AcDbEntity
  8
RACCORDO
100
AcDbLine
 62
7
  6
CONTINUOUS
 10
-4.4057426494
 20
19.9738193966
 11
-4.3444976057
 21
20.0044395863
  0
LINE
  5
260
100
AcDbEntity
  8
ASSI
100
AcDbLine
 62
7
  6
CONTINUOUS
 10
-4.4057426494
 20
19.9738193966
 11
-4.3444976057
 21
20.0044395863
  0
LINE
  5
261
100
AcDbEntity
  8
ASSI
100
AcDbLine
 62
7
  6
CONTINUOUS
 10
-3.3850964806
 20
-20.8
 11
3.3850964806
 21
-20.8
  0
LINE
  5
262
100
AcDbEntity
  8
ASSI
100
AcDbLine
 62
7
  6
CONTINUOUS
 10
-11.1261859216
 20
-20.4226497308
 11
-11.0825449351
 21
-20.4226497308
  0
LINE
  5
263
100
AcDbEntity
  8
ASSI
100
AcDbLine
 62
7
  6
CONTINUOUS
 10
11.1261859216
 20
-20.4226497308
 11
11.0825449351
 21
-20.4226497308
  0
LINE
  5
264
100
AcDbEntity
  8
ASSI
100
AcDbLine
 62
7
  6
CONTINUOUS
 10
-5.1254493507
 20
-20.0872686779
 11
5.1254493507
 21
-20.0872686779
  0
LINE
  5
265
100
AcDbEntity
  8
RACCORDO
100
AcDbLine
 62
7
  6
CONTINUOUS
 10
6.91317452
 20
-19.7872686779
 11
6.88682548
 21
-19.7872686779
  0
LINE
  5
266
100
AcDbEntity
  8
ASSI
100
AcDbLine
 62
7
  6
CONTINUOUS
 10
6.91317452
 20
-19.7872686779
 11
6.88682548
 21
-19.7872686779
  0
LINE
  5
267
100
AcDbEntity
  8
RACCORDO
100
AcDbLine
 62
7
  6
CONTINUOUS
 10
-6.88682548
 20
-19.7872686779
 11
-6.91317452
 21
-19.7872686779
  0
LINE
  5
268
100
AcDbEntity
  8
ASSI
100
AcDbLine
 62
7
  6
CONTINUOUS
 10
-6.88682548
 20
-19.7872686779
 11
-6.91317452
 21
-19.7872686779
  0
LINE
  5
269
100
AcDbEntity
  8
ASSI
100
AcDbLine
 62
7
  6
CONTINUOUS
 10
-5.4414386569
 20
-19.9292860574
 11
-5.1254493507
 21
-20.0872686779
  0
LINE
  5
26A
100
AcDbEntity
  8
RACCORDO
100
AcDbLine
 62
7
  6
CONTINUOUS
 10
-7.2127313221
 20
-20.9872686779
 11
-7.3655014363
 21
-20.8344985637
  0
LINE
  5
26B
100
AcDbEntity
  8
ASSI
100
AcDbLine
 62
7
  6
CONTINUOUS
 10
-7.2127313221
 20
-20.9872686779
 11
-7.3650648943
 21
-20.8349351057
  0
LINE
  5
26C
100
AcDbEntity
  8
ASSI
100
AcDbLine
 62
253
  6
CONTINUOUS
 10
-3.7499619238
 20
-23.9825449351
 11
-3.8306228363
 21
-23.9018840226
  0
LINE
  5
26D
100
AcDbEntity
  8
ASSI
100
AcDbLine
 62
253
  6
CONTINUOUS
 10
-3.5
 20
-23.7325830113
 11
-3.5806609125
 21
-23.6519220988
  0
LINE
  5
26E
100
AcDbEntity
  8
0
100
AcDbLine
 62
7
  6
CONTINUOUS
 10
-5.3523651948
 20
20.8476348052
 11
-5.1254493507
 21
21.0745506493
  0
LINE
  5
26F
100
AcDbEntity
  8
ASSI
100
AcDbLine
 62
7
  6
CONTINUOUS
 10
-5.3523651948
 20
20.8476348052
 11
-5.1254493507
 21
21.0745506493
  0
LINE
  5
270
100
AcDbEntity
  8
ASSI
100
AcDbLine
 62
7
  6
CONTINUOUS
 10
-3.5
 20
22.3825449351
 11
-3.5806609125
 21
22.3018840226
  0
LINE
  5
271
100
AcDbEntity
  8
ASSI
100
AcDbLine
 62
253
  6
CONTINUOUS
 10
-1.0674169887
 20
23.9825449351
 11
-1.0499619238
 21
24.0
  0
LINE
  5
272
100
AcDbEntity
  8
ASSI
100
AcDbLine
 62
7
  6
CONTINUOUS
 10
-3.1173032135
 20
21.6326967865
 11
-3.05
 21
21.7
  0
LINE
  5
273
100
AcDbEntity
  8
ASSI
100
AcDbLine
 62
253
  6
CONTINUOUS
 10
-0.8174550649
 20
23.7325830113
 11
-0.8
 21
23.7500380762
  0
LINE
  5
274
100
AcDbEntity
  8
RACCORDO
100
AcDbLine
 62
7
  6
CONTINUOUS
 10
-7.3497113198
 20
17.1406761428
 11
-7.6389602491
 21
16.8514272135
  0
LINE
  5
275
100
AcDbEntity
  8
ASSI
100
AcDbLine
 62
7
  6
CONTINUOUS
 10
-7.3232622727
 20
17.1406761428
 11
-7.6257357255
 21
16.8382026899
  0
LINE
  5
276
100
AcDbEntity
  8
DRAFT
100
AcDbLine
 62
7
  6
CONTINUOUS
 10
-9.639870208
 20
14.1487839997
 11
-9.5
 21
14.2886542078
  0
LINE
  5
277
100
AcDbEntity
  8
ASSI
100
AcDbLine
 62
7
  6
CONTINUOUS
 10
-9.639870208
 20
14.14616574
 11
-9.5
 21
14.2860359481
  0
LINE
  5
278
100
AcDbEntity
  8
DRAFT
100
AcDbLine
 62
7
  6
CONTINUOUS
 10
-9.4375805259
 20
14.283626668
 11
-9.639870208
 21
14.1487839997
  0
LINE
  5
279
100
AcDbEntity
  8
ASSI
100
AcDbLine
 62
7
  6
CONTINUOUS
 10
-9.4384974973
 20
14.2803971717
 11
-9.639870208
 21
14.14616574
  0
LINE
  5
27A
100
AcDbEntity
  8
0
100
AcDbLine
 62
7
  6
CONTINUOUS
 10
9.5714422353
 20
20.8738193966
 11
9.65
 21
20.9
  0
LINE
  5
27B
100
AcDbEntity
  8
ASSI
100
AcDbLine
 62
7
  6
CONTINUOUS
 10
9.5714422353
 20
20.8738193966
 11
9.65
 21
20.9
  0
LINE
  5
27C
100
AcDbEntity
  8
RACCORDO
100
AcDbLine
 62
7
  6
CONTINUOUS
 10
9.4564965907
 20
-20.8355119633
 11
9.65
 21
-20.9
  0
LINE
  5
27D
100
AcDbEntity
  8
ASSI
100
AcDbLine
 62
7
  6
CONTINUOUS
 10
9.4570325893
 20
-20.8356905933
 11
9.65
 21
-20.9
  0
LINE
  5
27E
100
AcDbEntity
  8
RACCORDO
100
AcDbLine
 62
7
  6
CONTINUOUS
 10
-5.432569703
 20
-20.767430297
 11
-5.1254493507
 21
-21.0745506493
  0
LINE
  5
27F
100
AcDbEntity
  8
ASSI
100
AcDbLine
 62
7
  6
CONTINUOUS
 10
-5.4313247554
 20
-20.7686752446
 11
-5.1254493507
 21
-21.0745506493
  0
LINE
  5
280
100
AcDbEntity
  8
ASSI
100
AcDbLine
 62
7
  6
CONTINUOUS
 10
-3.5806609125
 20
-22.3018840226
 11
-3.5
 21
-22.3825449351
  0
LINE
  5
281
100
AcDbEntity
  8
ASSI
100
AcDbLine
 62
253
  6
CONTINUOUS
 10
-1.0499619238
 20
-24.0
 11
-1.0674169887
 21
-23.9825449351
  0
LINE
  5
282
100
AcDbEntity
  8
ASSI
100
AcDbLine
 62
7
  6
CONTINUOUS
 10
-3.1173032135
 20
-21.6326967865
 11
-3.05
 21
-21.7
  0
LINE
  5
283
100
AcDbEntity
  8
ASSI
100
AcDbLine
 62
253
  6
CONTINUOUS
 10
-0.8
 20
-23.7500380762
 11
-0.8174550649
 21
-23.7325830113
  0
LINE
  5
284
100
AcDbEntity
  8
RACCORDO
100
AcDbLine
 62
253
  6
CONTINUOUS
 10
-4.3444976057
 20
17.9554262419
 11
-4.4559476337
 21
17.8439762139
  0
LINE
  5
285
100
AcDbEntity
  8
ASSI
100
AcDbLine
 62
253
  6
CONTINUOUS
 10
-4.3444976057
 20
17.9554262419
 11
-4.4559476337
 21
17.8439762139
  0
LINE
  5
286
100
AcDbEntity
  8
RACCORDO
100
AcDbLine
 62
253
  6
CONTINUOUS
 10
-3.8445737581
 20
17.4555023943
 11
-3.9563286977
 21
17.3437474547
  0
LINE
  5
287
100
AcDbEntity
  8
ASSI
100
AcDbLine
 62
253
  6
CONTINUOUS
 10
-3.8445737581
 20
17.4555023943
 11
-3.9563286977
 21
17.3437474547
  0
LINE
  5
288
100
AcDbEntity
  8
ASSI
100
AcDbLine
 62
7
  6
CONTINUOUS
 10
-7.3012233427
 20
22.2251447178
 11
-7.2551134101
 21
22.3825449351
  0
LINE
  5
289
100
AcDbEntity
  8
ASSI
100
AcDbLine
 62
253
  6
CONTINUOUS
 10
-3.3786655583
 20
22.2251447178
 11
-3.2999714434
 21
22.3825449351
  0
LINE
  5
28A
100
AcDbEntity
  8
ASSI
100
AcDbLine
 62
253
  6
CONTINUOUS
 10
-3.1286750776
 20
21.975182794
 11
-3.05
 21
22.1325449336
  0
LINE
  5
28B
100
AcDbEntity
  8
ASSI
100
AcDbLine
 62
253
  6
CONTINUOUS
 10
4.1019220988
 20
23.9018840226
 11
4.2000380762
 21
24.0
  0
LINE
  5
28C
100
AcDbEntity
  8
ASSI
100
AcDbLine
 62
253
  6
CONTINUOUS
 10
4.3518840226
 20
23.6519220988
 11
4.45
 21
23.7500380762
  0
LINE
  5
28D
100
AcDbEntity
  8
ASSI
100
AcDbLine
 62
7
  6
CONTINUOUS
 10
4.45
 20
22.4
 11
4.3518840226
 21
22.3018840226
  0
LINE
  5
28E
100
AcDbEntity
  8
RACCORDO
100
AcDbLine
 62
7
  6
CONTINUOUS
 10
-9.4348819595
 20
-10.3832932322
 11
-9.5295904633
 21
-10.3517301425
  0
LINE
  5
28F
100
AcDbEntity
  8
ASSI
100
AcDbLine
 62
7
  6
CONTINUOUS
 10
-9.4359688737
 20
-10.382931001
 11
-9.5295904633
 21
-10.3517301425
  0
LINE
  5
290
100
AcDbEntity
  8
ASSI
100
AcDbLine
 62
253
  6
CONTINUOUS
 10
4.2000380762
 20
-24.0
 11
4.1019220988
 21
-23.9018840226
  0
LINE
  5
291
100
AcDbEntity
  8
ASSI
100
AcDbLine
 62
253
  6
CONTINUOUS
 10
4.45
 20
-23.7500380762
 11
4.3518840226
 21
-23.6519220988
  0
LINE
  5
292
100
AcDbEntity
  8
ASSI
100
AcDbLine
 62
7
  6
CONTINUOUS
 10
4.45
 20
-22.4
 11
4.3518840226
 21
-22.3018840226
  0
LINE
  5
293
100
AcDbEntity
  8
ASSI
100
AcDbLine
 62
253
  6
CONTINUOUS
 10
-3.2999714434
 20
-22.3825449351
 11
-3.3786655583
 21
-22.2251447178
  0
LINE
  5
294
100
AcDbEntity
  8
ASSI
100
AcDbLine
 62
253
  6
CONTINUOUS
 10
-3.05
 20
-22.1325449336
 11
-3.1286750776
 21
-21.975182794
  0
LINE
  5
295
100
AcDbEntity
  8
ASSI
100
AcDbLine
 62
7
  6
CONTINUOUS
 10
-7.3012233427
 20
-22.2251447178
 11
-7.2551134101
 21
-22.3825449351
  0
LINE
  5
296
100
AcDbEntity
  8
ASSI
100
AcDbLine
 62
7
  6
CONTINUOUS
 10
-11.1
 20
-21.0
 11
-11.1261859216
 21
-20.4226497308
  0
LINE
  5
297
100
AcDbEntity
  8
ASSI
100
AcDbLine
 62
253
  6
CONTINUOUS
 10
-10.5864113981
 20
-23.8010362971
 11
-10.6
 21
-23.3515746082
  0
LINE
  5
298
100
AcDbEntity
  8
ASSI
100
AcDbLine
 62
253
  6
CONTINUOUS
 10
-10.3864405814
 20
-23.6278734767
 11
-10.4017150409
 21
-23.1226497308
  0
LINE
  5
299
100
AcDbEntity
  8
ASSI
100
AcDbLine
 62
7
  6
CONTINUOUS
 10
-11.0825449351
 20
20.4226497308
 11
-11.1
 21
21.0
  0
LINE
  5
29A
100
AcDbEntity
  8
ASSI
100
AcDbLine
 62
7
  6
CONTINUOUS
 10
-11.1261859216
 20
-20.4226497308
 11
-11.1261859216
 21
20.4226497308
  0
LINE
  5
29B
100
AcDbEntity
  8
ASSI
100
AcDbLine
 62
7
  6
CONTINUOUS
 10
-11.1
 20
21.9000761524
 11
-11.1
 21
21.0
  0
LINE
  5
29C
100
AcDbEntity
  8
ASSI
100
AcDbLine
 62
7
  6
CONTINUOUS
 10
-11.1
 20
-21.9000761524
 11
-11.1
 21
-21.0
  0
LINE
  5
29D
100
AcDbEntity
  8
ASSI
100
AcDbLine
 62
7
  6
CONTINUOUS
 10
-11.0825449351
 20
-21.8826210875
 11
-11.0825449351
 21
-20.4226497308
  0
LINE
  5
29E
100
AcDbEntity
  8
ASSI
100
AcDbLine
 62
7
  6
CONTINUOUS
 10
-11.0825449351
 20
20.4226497308
 11
-11.0825449351
 21
21.8826210875
  0
LINE
  5
29F
100
AcDbEntity
  8
ASSI
100
AcDbLine
 62
7
  6
CONTINUOUS
 10
-10.6
 20
-24.300030461
 11
-10.6
 21
-22.3999997358
  0
LINE
  5
2A0
100
AcDbEntity
  8
ASSI
100
AcDbLine
 62
7
  6
CONTINUOUS
 10
-10.6000000646
 20
22.3999999296
 11
-10.6
 21
24.300030461
  0
LINE
  5
2A1
100
AcDbEntity
  8
ASSI
100
AcDbLine
 62
253
  6
CONTINUOUS
 10
-10.5859750215
 20
-24.2368706193
 11
-10.5859750215
 21
-23.8443375673
  0
LINE
  5
2A2
100
AcDbEntity
  8
ASSI
100
AcDbLine
 62
253
  6
CONTINUOUS
 10
-10.5859750215
 20
23.8443375673
 11
-10.5859750215
 21
24.2368706193
  0
LINE
  5
2A3
100
AcDbEntity
  8
ASSI
100
AcDbLine
 62
253
  6
CONTINUOUS
 10
-10.3860054824
 20
-24.2368706193
 11
-10.3860054824
 21
-23.8443575944
  0
LINE
  5
2A4
100
AcDbEntity
  8
ASSI
100
AcDbLine
 62
253
  6
CONTINUOUS
 10
-10.3860054824
 20
23.8442507367
 11
-10.3860054824
 21
24.2368706193
  0
LINE
  5
2A5
100
AcDbEntity
  8
ASSI
100
AcDbLine
 62
253
  6
CONTINUOUS
 10
-10.6
 20
23.3515746082
 11
-10.5864113981
 21
23.8010362971
  0
LINE
  5
2A6
100
AcDbEntity
  8
ASSI
100
AcDbLine
 62
253
  6
CONTINUOUS
 10
-10.4017150409
 20
23.1226497308
 11
-10.3864421555
 21
23.6278214108
  0
LINE
  5
2A7
100
AcDbEntity
  8
ASSI
100
AcDbLine
 62
7
  6
CONTINUOUS
 10
-11.1
 20
-21.0
 11
-11.0825449351
 21
-20.4226497308
  0
LINE
  5
2A8
100
AcDbEntity
  8
ASSI
100
AcDbLine
 62
7
  6
CONTINUOUS
 10
-11.1261859216
 20
20.4226497308
 11
-11.1
 21
21.0
  0
LINE
  5
2A9
100
AcDbEntity
  8
RACCORDO
100
AcDbLine
 62
7
  6
CONTINUOUS
 10
-9.4925054846
 20
16.8514272135
 11
-9.5000023792
 21
16.6999519285
  0
LINE
  5
2AA
100
AcDbEntity
  8
ASSI
100
AcDbLine
 62
7
  6
CONTINUOUS
 10
-9.4938991482
 20
16.8232681423
 11
-9.5000023792
 21
16.6999519285
  0
LINE
  5
2AB
100
AcDbEntity
  8
RACCORDO
100
AcDbLine
 62
7
  6
CONTINUOUS
 10
-7.3508267979
 20
19.3349933121
 11
-7.328661645
 21
19.4681025177
  0
LINE
  5
2AC
100
AcDbEntity
  8
ASSI
100
AcDbLine
 62
7
  6
CONTINUOUS
 10
-7.3508267979
 20
19.3349933121
 11
-7.328661645
 21
19.4681025177
  0
LINE
  5
2AD
100
AcDbEntity
  8
RACCORDO
100
AcDbLine
 62
7
  6
CONTINUOUS
 10
-4.4550387927
 20
19.3349933121
 11
-4.4107051106
 21
19.4681025177
  0
LINE
  5
2AE
100
AcDbEntity
  8
ASSI
100
AcDbLine
 62
7
  6
CONTINUOUS
 10
-4.4550387927
 20
19.3349933121
 11
-4.4107051106
 21
19.4681025177
  0
LINE
  5
2AF
100
AcDbEntity
  8
0
100
AcDbLine
 62
7
  6
CONTINUOUS
 10
-7.25
 20
8.8079357678
 11
-7.05
 21
9.0
  0
LINE
  5
2B0
100
AcDbEntity
  8
DRAFT
100
AcDbLine
 62
7
  6
CONTINUOUS
 10
-2.7
 20
-11.4690591992
 11
-1.5343884837
 21
-11.4690591992
  0
LINE
  5
2B1
100
AcDbEntity
  8
ASSI
100
AcDbLine
 62
7
  6
CONTINUOUS
 10
2.6312177944
 20
-11.4690591992
 11
1.5343884837
 21
-11.4690591992
  0
LINE
  5
2B2
100
AcDbEntity
  8
DRAFT
100
AcDbLine
 62
7
  6
CONTINUOUS
 10
1.5343884837
 20
-11.4690591992
 11
2.6312177944
 21
-11.4690591992
  0
LINE
  5
2B3
100
AcDbEntity
  8
ASSI
100
AcDbLine
 62
7
  6
CONTINUOUS
 10
-1.5343884837
 20
-11.4690591992
 11
-2.6312177944
 21
-11.4690591992
  0
LINE
  5
2B4
100
AcDbEntity
  8
RACCORDO
100
AcDbLine
 62
7
  6
CONTINUOUS
 10
-9.5295904633
 20
-10.3517301425
 11
-2.940984317
 21
-10.3517301425
  0
LINE
  5
2B5
100
AcDbEntity
  8
ASSI
100
AcDbLine
 62
7
  6
CONTINUOUS
 10
-9.5295904633
 20
-10.3517301425
 11
-2.940984317
 21
-10.3517301425
  0
LINE
  5
2B6
100
AcDbEntity
  8
RACCORDO
100
AcDbLine
 62
7
  6
CONTINUOUS
 10
2.940984317
 20
-10.3517301425
 11
9.5295904633
 21
-10.3517301425
  0
LINE
  5
2B7
100
AcDbEntity
  8
ASSI
100
AcDbLine
 62
7
  6
CONTINUOUS
 10
2.940984317
 20
-10.3517301425
 11
9.5295904633
 21
-10.3517301425
  0
LINE
  5
2B8
100
AcDbEntity
  8
DRAFT
100
AcDbLine
 62
7
  6
CONTINUOUS
 10
-1.5513442426
 20
-10.3473036936
 11
1.5513442426
 21
-10.3473036936
  0
LINE
  5
2B9
100
AcDbEntity
  8
ASSI
100
AcDbLine
 62
7
  6
CONTINUOUS
 10
-1.5513442426
 20
-10.3473036936
 11
1.5513442426
 21
-10.3473036936
  0
LINE
  5
2BA
100
AcDbEntity
  8
DRAFT
100
AcDbLine
 62
7
  6
CONTINUOUS
 10
-7.2273084156
 20
-9.426437457
 11
-7.2496557953
 21
-9.4152646181
  0
LINE
  5
2BB
100
AcDbEntity
  8
ASSI
100
AcDbLine
 62
7
  6
CONTINUOUS
 10
-7.2273084156
 20
-9.426437457
 11
-7.2479450442
 21
-9.4161199285
  0
LINE
  5
2BC
100
AcDbEntity
  8
ASSI
100
AcDbLine
 62
7
  6
CONTINUOUS
 10
-8.7273084156
 20
-7.6043634339
 11
-8.7411810777
 21
-7.5974276311
  0
LINE
  5
2BD
100
AcDbEntity
  8
RACCORDO
100
AcDbLine
 62
253
  6
CONTINUOUS
 10
-7.3711122677
 20
-16.8913368402
 11
-7.2127313221
 21
-20.0914350444
  0
LINE
  5
2BE
100
AcDbEntity
  8
ASSI
100
AcDbLine
 62
253
  6
CONTINUOUS
 10
-7.3705143312
 20
-16.9034181896
 11
-7.2127313221
 21
-20.0914350444
  0
LINE
  5
2BF
100
AcDbEntity
  8
ASSI
100
AcDbLine
 62
7
  6
CONTINUOUS
 10
-9.2868325431
 20
-23.5581814706
 11
-9.3
 21
-23.1226497308
  0
LINE
  5
2C0
100
AcDbEntity
  8
DRAFT
100
AcDbLine
 62
7
  6
CONTINUOUS
 10
-9.4974886323
 20
19.3349933121
 11
-9.4954820773
 21
17.1406761428
  0
LINE
  5
2C1
100
AcDbEntity
  8
ASSI
100
AcDbLine
 62
7
  6
CONTINUOUS
 10
-9.4974886323
 20
19.3349933121
 11
-9.4954820773
 21
17.1406761428
  0
LINE
  5
2C2
100
AcDbEntity
  8
ASSI
100
AcDbLine
 62
7
  6
CONTINUOUS
 10
-9.65
 20
-20.9
 11
-9.65
 21
20.9
  0
LINE
  5
2C3
100
AcDbEntity
  8
DRAFT
100
AcDbLine
 62
7
  6
CONTINUOUS
 10
-9.639870208
 20
14.1487839997
 11
-9.639870208
 21
18.1129361064
  0
LINE
  5
2C4
100
AcDbEntity
  8
ASSI
100
AcDbLine
 62
7
  6
CONTINUOUS
 10
-9.639870208
 20
14.14616574
 11
-9.639870208
 21
18.1129361064
  0
LINE
  5
2C5
100
AcDbEntity
  8
RACCORDO
100
AcDbLine
 62
7
  6
CONTINUOUS
 10
-9.5714422353
 20
20.8738193966
 11
-9.5714422353
 21
19.7676913781
  0
LINE
  5
2C6
100
AcDbEntity
  8
ASSI
100
AcDbLine
 62
7
  6
CONTINUOUS
 10
-9.5714422353
 20
20.8738193966
 11
-9.5714422353
 21
19.7676913781
  0
LINE
  5
2C7
100
AcDbEntity
  8
RACCORDO
100
AcDbLine
 62
7
  6
CONTINUOUS
 10
-9.5347819451
 20
-10.1517377579
 11
-9.5347819451
 21
-9.6482622421
  0
LINE
  5
2C8
100
AcDbEntity
  8
ASSI
100
AcDbLine
 62
7
  6
CONTINUOUS
 10
-9.5347819451
 20
-10.1517377579
 11
-9.5347819451
 21
-9.6482622421
  0
LINE
  5
2C9
100
AcDbEntity
  8
DRAFT
100
AcDbLine
 62
7
  6
CONTINUOUS
 10
-9.5
 20
16.7
 11
-9.5
 21
14.2886542078
  0
LINE
  5
2CA
100
AcDbEntity
  8
ASSI
100
AcDbLine
 62
7
  6
CONTINUOUS
 10
-9.5
 20
16.7
 11
-9.5
 21
14.2860359481
  0
LINE
  5
2CB
100
AcDbEntity
  8
ASSI
100
AcDbLine
 62
7
  6
CONTINUOUS
 10
-9.3
 20
-23.1226497308
 11
-9.3
 21
-22.4
  0
LINE
  5
2CC
100
AcDbEntity
  8
ASSI
100
AcDbLine
 62
7
  6
CONTINUOUS
 10
-9.3
 20
22.4
 11
-9.3
 21
23.1226497308
  0
LINE
  5
2CD
100
AcDbEntity
  8
ASSI
100
AcDbLine
 62
253
  6
CONTINUOUS
 10
-9.2868325431
 20
-23.5581814706
 11
-9.2868325431
 21
-22.3868325431
  0
LINE
  5
2CE
100
AcDbEntity
  8
ASSI
100
AcDbLine
 62
253
  6
CONTINUOUS
 10
-9.2868325431
 20
22.3868325431
 11
-9.2868325431
 21
23.5581814706
  0
LINE
  5
2CF
100
AcDbEntity
  8
ASSI
100
AcDbLine
 62
253
  6
CONTINUOUS
 10
-9.0368706193
 20
-23.8443375673
 11
-9.0368706193
 21
-22.3825449351
  0
LINE
  5
2D0
100
AcDbEntity
  8
ASSI
100
AcDbLine
 62
253
  6
CONTINUOUS
 10
-9.0368706193
 20
22.3825449351
 11
-9.0368706193
 21
23.8443375673
  0
LINE
  5
2D1
100
AcDbEntity
  8
ASSI
100
AcDbLine
 62
253
  6
CONTINUOUS
 10
-8.7631293807
 20
-23.8443375673
 11
-8.7631293807
 21
-22.3825449351
  0
LINE
  5
2D2
100
AcDbEntity
  8
ASSI
100
AcDbLine
 62
253
  6
CONTINUOUS
 10
-8.7631293807
 20
22.3825449351
 11
-8.7631293807
 21
23.8443375673
  0
LINE
  5
2D3
100
AcDbEntity
  8
ASSI
100
AcDbLine
 62
253
  6
CONTINUOUS
 10
-8.7411810777
 20
9.4912572301
 11
-8.7411810777
 21
-7.5974276311
  0
LINE
  5
2D4
100
AcDbEntity
  8
ASSI
100
AcDbLine
 62
7
  6
CONTINUOUS
 10
-8.7273084156
 20
-7.6043634339
 11
-8.7273084156
 21
-8.077384568
  0
LINE
  5
2D5
100
AcDbEntity
  8
ASSI
100
AcDbLine
 62
253
  6
CONTINUOUS
 10
-8.5131674569
 20
-23.5581814706
 11
-8.5131674569
 21
-22.3868325431
  0
LINE
  5
2D6
100
AcDbEntity
  8
ASSI
100
AcDbLine
 62
253
  6
CONTINUOUS
 10
-8.5131674569
 20
22.3868325431
 11
-8.5131674569
 21
23.5581814706
  0
LINE
  5
2D7
100
AcDbEntity
  8
ASSI
100
AcDbLine
 62
7
  6
CONTINUOUS
 10
-8.5
 20
-23.1226497308
 11
-8.5
 21
-22.4
  0
LINE
  5
2D8
100
AcDbEntity
  8
ASSI
100
AcDbLine
 62
7
  6
CONTINUOUS
 10
-8.5
 20
22.4
 11
-8.5
 21
23.1226497308
  0
LINE
  5
2D9
100
AcDbEntity
  8
ASSI
100
AcDbLine
 62
253
  6
CONTINUOUS
 10
-8.4412267691
 20
9.4912572301
 11
-8.4412267691
 21
-7.6
  0
LINE
  5
2DA
100
AcDbEntity
  8
ASSI
100
AcDbLine
 62
253
  6
CONTINUOUS
 10
-8.2412572301
 20
9.6912267691
 11
-8.2412572329
 21
9.9911810777
  0
LINE
  5
2DB
100
AcDbEntity
  8
ASSI
100
AcDbLine
 62
7
  6
CONTINUOUS
 10
-8.2325449351
 20
21.4051134101
 11
-8.2325449351
 21
20.9
  0
LINE
  5
2DC
100
AcDbEntity
  8
ASSI
100
AcDbLine
 62
7
  6
CONTINUOUS
 10
-8.2325449351
 20
-21.4051134101
 11
-8.2325449351
 21
-20.9
  0
LINE
  5
2DD
100
AcDbEntity
  8
ASSI
100
AcDbLine
 62
7
  6
CONTINUOUS
 10
-9.3
 20
23.1226497308
 11
-9.2868325431
 21
23.5581814706
  0
LINE
  5
2DE
100
AcDbEntity
  8
RACCORDO
100
AcDbLine
 62
253
  6
CONTINUOUS
 10
-7.2127313221
 20
20.0914350444
 11
-7.3514504324
 21
17.288605614
  0
LINE
  5
2DF
100
AcDbEntity
  8
ASSI
100
AcDbLine
 62
253
  6
CONTINUOUS
 10
-7.2127313221
 20
20.0914350444
 11
-7.3514504324
 21
17.288605614
  0
LINE
  5
2E0
100
AcDbEntity
  8
ASSI
100
AcDbLine
 62
253
  6
CONTINUOUS
 10
10.6
 20
22.3999999999
 11
10.5826210875
 21
22.3825449351
  0
LINE
  5
2E1
100
AcDbEntity
  8
ASSI
100
AcDbLine
 62
253
  6
CONTINUOUS
 10
10.400030461
 20
24.5
 11
10.386863004
 21
24.4868325431
  0
LINE
  5
2E2
100
AcDbEntity
  8
ASSI
100
AcDbLine
 62
253
  6
CONTINUOUS
 10
10.6
 20
24.300030461
 11
10.5868325431
 21
24.286863004
  0
LINE
  5
2E3
100
AcDbEntity
  8
ASSI
100
AcDbLine
 62
7
  6
CONTINUOUS
 10
9.3
 20
22.4
 11
9.2868325431
 21
22.3868325431
  0
LINE
  5
2E4
100
AcDbEntity
  8
DRAFT
100
AcDbLine
 62
7
  6
CONTINUOUS
 10
4.0536778182
 20
16.8790652807
 11
3.7636147059
 21
16.5890021684
  0
LINE
  5
2E5
100
AcDbEntity
  8
ASSI
100
AcDbLine
 62
7
  6
CONTINUOUS
 10
4.0801268653
 20
16.8790652807
 11
3.7768392294
 21
16.5757776449
  0
LINE
  5
2E6
100
AcDbEntity
  8
ASSI
100
AcDbLine
 62
253
  6
CONTINUOUS
 10
10.3001218439
 20
22.4
 11
10.2826667789
 21
22.3825449351
  0
LINE
  5
2E7
100
AcDbEntity
  8
RACCORDO
100
AcDbLine
 62
7
  6
CONTINUOUS
 10
3.0982991226
 20
-9.4220740231
 11
2.940984317
 21
-9.4482698575
  0
LINE
  5
2E8
100
AcDbEntity
  8
ASSI
100
AcDbLine
 62
7
  6
CONTINUOUS
 10
3.0982991226
 20
-9.4220740231
 11
2.940984317
 21
-9.4482698575
  0
LINE
  5
2E9
100
AcDbEntity
  8
RACCORDO
100
AcDbLine
 62
7
  6
CONTINUOUS
 10
-3.140225346
 20
-10.3849074712
 11
-2.940984317
 21
-10.3517301425
  0
LINE
  5
2EA
100
AcDbEntity
  8
ASSI
100
AcDbLine
 62
7
  6
CONTINUOUS
 10
-3.1385317241
 20
-10.3846254517
 11
-2.940984317
 21
-10.3517301425
  0
LINE
  5
2EB
100
AcDbEntity
  8
DRAFT
100
AcDbLine
 62
7
  6
CONTINUOUS
 10
-3.0982991226
 20
-9.25
 11
-2.7
 21
-9.1836758048
  0
LINE
  5
2EC
100
AcDbEntity
  8
ASSI
100
AcDbLine
 62
7
  6
CONTINUOUS
 10
-3.0982991226
 20
-9.25
 11
-2.7
 21
-9.1836758048
  0
LINE
  5
2ED
100
AcDbEntity
  8
RACCORDO
100
AcDbLine
 62
253
  6
CONTINUOUS
 10
-9.5347819451
 20
-10.1517377579
 11
-2.9305942288
 21
-10.1517377579
  0
LINE
  5
2EE
100
AcDbEntity
  8
ASSI
100
AcDbLine
 62
253
  6
CONTINUOUS
 10
-9.5347819451
 20
-10.1517377579
 11
-2.9305942288
 21
-10.1517377579
  0
LINE
  5
2EF
100
AcDbEntity
  8
RACCORDO
100
AcDbLine
 62
253
  6
CONTINUOUS
 10
2.9305942288
 20
-10.1517377579
 11
9.5347819451
 21
-10.1517377579
  0
LINE
  5
2F0
100
AcDbEntity
  8
ASSI
100
AcDbLine
 62
253
  6
CONTINUOUS
 10
2.9305942288
 20
-10.1517377579
 11
9.5347819451
 21
-10.1517377579
  0
LINE
  5
2F1
100
AcDbEntity
  8
ASSI
100
AcDbLine
 62
253
  6
CONTINUOUS
 10
2.5813055585
 20
-9.8181433797
 11
-2.5813055585
 21
-9.8181433797
  0
LINE
  5
2F2
100
AcDbEntity
  8
DRAFT
100
AcDbLine
 62
253
  6
CONTINUOUS
 10
2.5813055585
 20
-9.8181433797
 11
-2.7
 21
-9.8181433797
  0
LINE
  5
2F3
100
AcDbEntity
  8
RACCORDO
100
AcDbLine
 62
253
  6
CONTINUOUS
 10
9.5347819451
 20
-9.6482622421
 11
2.9305942288
 21
-9.6482622421
  0
LINE
  5
2F4
100
AcDbEntity
  8
ASSI
100
AcDbLine
 62
253
  6
CONTINUOUS
 10
9.5347819451
 20
-9.6482622421
 11
2.9305942288
 21
-9.6482622421
  0
LINE
  5
2F5
100
AcDbEntity
  8
RACCORDO
100
AcDbLine
 62
253
  6
CONTINUOUS
 10
-2.9305942288
 20
-9.6482622421
 11
-9.5347819451
 21
-9.6482622421
  0
LINE
  5
2F6
100
AcDbEntity
  8
ASSI
100
AcDbLine
 62
253
  6
CONTINUOUS
 10
-2.9305942288
 20
-9.6482622421
 11
-9.5347819451
 21
-9.6482622421
  0
LINE
  5
2F7
100
AcDbEntity
  8
RACCORDO
100
AcDbLine
 62
7
  6
CONTINUOUS
 10
9.5295904633
 20
-9.4482698575
 11
2.940984317
 21
-9.4482698575
  0
LINE
  5
2F8
100
AcDbEntity
  8
ASSI
100
AcDbLine
 62
7
  6
CONTINUOUS
 10
9.5295904633
 20
-9.4482698575
 11
2.940984317
 21
-9.4482698575
  0
LINE
  5
2F9
100
AcDbEntity
  8
RACCORDO
100
AcDbLine
 62
7
  6
CONTINUOUS
 10
-2.940984317
 20
-9.4482698575
 11
-9.5295904633
 21
-9.4482698575
  0
LINE
  5
2FA
100
AcDbEntity
  8
ASSI
100
AcDbLine
 62
7
  6
CONTINUOUS
 10
-2.940984317
 20
-9.4482698575
 11
-9.5295904633
 21
-9.4482698575
  0
LINE
  5
2FB
100
AcDbEntity
  8
DRAFT
100
AcDbLine
 62
7
  6
CONTINUOUS
 10
7.2273084156
 20
-9.426437457
 11
6.2543634339
 21
-9.426437457
  0
LINE
  5
2FC
100
AcDbEntity
  8
ASSI
100
AcDbLine
 62
7
  6
CONTINUOUS
 10
7.2273084156
 20
-9.426437457
 11
6.2543634339
 21
-9.426437457
  0
LINE
  5
2FD
100
AcDbEntity
  8
DRAFT
100
AcDbLine
 62
7
  6
CONTINUOUS
 10
-6.2543634339
 20
-9.426437457
 11
-7.2273084156
 21
-9.426437457
  0
LINE
  5
2FE
100
AcDbEntity
  8
ASSI
100
AcDbLine
 62
7
  6
CONTINUOUS
 10
-6.2543634339
 20
-9.426437457
 11
-7.2273084156
 21
-9.426437457
  0
LINE
  5
2FF
100
AcDbEntity
  8
DRAFT
100
AcDbLine
 62
7
  6
CONTINUOUS
 10
6.25
 20
-9.4220740231
 11
3.0982991226
 21
-9.4220740231
  0
LINE
  5
300
100
AcDbEntity
  8
ASSI
100
AcDbLine
 62
7
  6
CONTINUOUS
 10
6.25
 20
-9.4220740231
 11
3.0982991226
 21
-9.4220740231
  0
LINE
  5
301
100
AcDbEntity
  8
DRAFT
100
AcDbLine
 62
7
  6
CONTINUOUS
 10
-3.0982991226
 20
-9.4220740231
 11
-6.25
 21
-9.4220740231
  0
LINE
  5
302
100
AcDbEntity
  8
ASSI
100
AcDbLine
 62
7
  6
CONTINUOUS
 10
-3.0982991226
 20
-9.4220740231
 11
-6.25
 21
-9.4220740231
  0
LINE
  5
303
100
AcDbEntity
  8
DRAFT
100
AcDbLine
 62
7
  6
CONTINUOUS
 10
-6.25
 20
-9.25
 11
-3.0982991226
 21
-9.25
  0
LINE
  5
304
100
AcDbEntity
  8
ASSI
100
AcDbLine
 62
7
  6
CONTINUOUS
 10
-6.25
 20
-9.25
 11
-3.0982991226
 21
-9.25
  0
LINE
  5
305
100
AcDbEntity
  8
DRAFT
100
AcDbLine
 62
7
  6
CONTINUOUS
 10
3.0982991226
 20
-9.25
 11
6.25
 21
-9.25
  0
LINE
  5
306
100
AcDbEntity
  8
ASSI
100
AcDbLine
 62
7
  6
CONTINUOUS
 10
3.0982991226
 20
-9.25
 11
6.25
 21
-9.25
  0
LINE
  5
307
100
AcDbEntity
  8
0
100
AcDbLine
 62
7
  6
CONTINUOUS
 10
7.8
 20
-9.2
 11
3.8
 21
-9.2
  0
LINE
  5
308
100
AcDbEntity
  8
0
100
AcDbLine
 62
7
  6
CONTINUOUS
 10
-3.8
 20
-9.2
 11
-7.8
 21
-9.2
  0
LINE
  5
309
100
AcDbEntity
  8
DRAFT
100
AcDbLine
 62
7
  6
CONTINUOUS
 10
1.2164024351
 20
-9.0164024351
 11
-1.2164024351
 21
-9.0164024351
  0
LINE
  5
30A
100
AcDbEntity
  8
ASSI
100
AcDbLine
 62
7
  6
CONTINUOUS
 10
1.2164024351
 20
-9.0164024351
 11
-1.2164024351
 21
-9.0164024351
  0
LINE
  5
30B
100
AcDbEntity
  8
RACCORDO
100
AcDbLine
 62
253
  6
CONTINUOUS
 10
-1.2086507125
 20
-9.0086507125
 11
1.2086507125
 21
-9.0086507125
  0
LINE
  5
30C
100
AcDbEntity
  8
ASSI
100
AcDbLine
 62
253
  6
CONTINUOUS
 10
-1.2086507125
 20
-9.0086507125
 11
1.2086507125
 21
-9.0086507125
  0
LINE
  5
30D
100
AcDbEntity
  8
0
100
AcDbLine
 62
7
  6
CONTINUOUS
 10
7.0936363636
 20
-8.9884076232
 11
3.8
 21
-8.9884076232
  0
LINE
  5
30E
100
AcDbEntity
  8
0
100
AcDbLine
 62
7
  6
CONTINUOUS
 10
-3.8
 20
-8.9884076232
 11
-7.0936363636
 21
-8.9884076232
  0
LINE
  5
30F
100
AcDbEntity
  8
DRAFT
100
AcDbLine
 62
253
  6
CONTINUOUS
 10
2.5791365211
 20
-8.8742640687
 11
1.215483768
 21
-8.8742640687
  0
LINE
  5
310
100
AcDbEntity
  8
ASSI
100
AcDbLine
 62
253
  6
CONTINUOUS
 10
2.5791365211
 20
-8.8742640687
 11
1.215483768
 21
-8.8742640687
  0
LINE
  5
311
100
AcDbEntity
  8
ASSI
100
AcDbLine
 62
253
  6
CONTINUOUS
 10
-1.215483768
 20
-8.8742640687
 11
-2.5791365211
 21
-8.8742640687
  0
LINE
  5
312
100
AcDbEntity
  8
DRAFT
100
AcDbLine
 62
253
  6
CONTINUOUS
 10
-1.215483768
 20
-8.8742640687
 11
-2.7
 21
-8.8742640687
  0
LINE
  5
313
100
AcDbEntity
  8
ASSI
100
AcDbLine
 62
7
  6
CONTINUOUS
 10
-8.227384568
 20
-8.5773084156
 11
-7.8
 21
-8.5773084156
  0
LINE
  5
314
100
AcDbEntity
  8
ASSI
100
AcDbLine
 62
7
  6
CONTINUOUS
 10
7.8
 20
-8.5773084156
 11
8.227384568
 21
-8.5773084156
  0
LINE
  5
315
100
AcDbEntity
  8
0
100
AcDbLine
 62
7
  6
CONTINUOUS
 10
3.8
 20
-8.4559919581
 11
7.1772727273
 21
-8.4559919581
  0
LINE
  5
316
100
AcDbEntity
  8
0
100
AcDbLine
 62
7
  6
CONTINUOUS
 10
-3.8
 20
-8.4559919581
 11
-7.1772727273
 21
-8.4559919581
  0
LINE
  5
317
100
AcDbEntity
  8
0
100
AcDbLine
 62
7
  6
CONTINUOUS
 10
7.8
 20
-8.2302016061
 11
7.25
 21
-8.2302016061
  0
LINE
  5
318
100
AcDbEntity
  8
0
100
AcDbLine
 62
7
  6
CONTINUOUS
 10
-7.25
 20
-8.2302016061
 11
-7.8
 21
-8.2302016061
  0
LINE
  5
319
100
AcDbEntity
  8
RACCORDO
100
AcDbLine
 62
7
  6
CONTINUOUS
 10
-3.0982991226
 20
-9.4220740231
 11
-2.940984317
 21
-9.4482698575
  0
LINE
  5
31A
100
AcDbEntity
  8
ASSI
100
AcDbLine
 62
7
  6
CONTINUOUS
 10
-3.0982991226
 20
-9.4220740231
 11
-2.940984317
 21
-9.4482698575
  0
LINE
  5
31B
100
AcDbEntity
  8
RACCORDO
100
AcDbLine
 62
7
  6
CONTINUOUS
 10
3.140225346
 20
-10.3849074712
 11
2.940984317
 21
-10.3517301425
  0
LINE
  5
31C
100
AcDbEntity
  8
ASSI
100
AcDbLine
 62
7
  6
CONTINUOUS
 10
3.1385317241
 20
-10.3846254517
 11
2.940984317
 21
-10.3517301425
  0
LINE
  5
31D
100
AcDbEntity
  8
DRAFT
100
AcDbLine
 62
7
  6
CONTINUOUS
 10
2.7
 20
-9.1836758048
 11
3.0982991226
 21
-9.25
  0
LINE
  5
31E
100
AcDbEntity
  8
ASSI
100
AcDbLine
 62
7
  6
CONTINUOUS
 10
2.7
 20
-9.1836758048
 11
3.0982991226
 21
-9.25
  0
LINE
  5
31F
100
AcDbEntity
  8
0
100
AcDbLine
 62
7
  6
CONTINUOUS
 10
-7.25
 20
-7.2574468085
 11
-7.2427272727
 21
-7.2617021277
  0
LINE
  5
320
100
AcDbEntity
  8
ASSI
100
AcDbLine
 62
253
  6
CONTINUOUS
 10
10.386863004
 20
-24.4868325431
 11
10.400030461
 21
-24.5
  0
LINE
  5
321
100
AcDbEntity
  8
ASSI
100
AcDbLine
 62
253
  6
CONTINUOUS
 10
10.5868325431
 20
-24.2868630041
 11
10.6
 21
-24.300030461
  0
LINE
  5
322
100
AcDbEntity
  8
ASSI
100
AcDbLine
 62
7
  6
CONTINUOUS
 10
9.3
 20
-22.4
 11
9.2868325431
 21
-22.3868325431
  0
LINE
  5
323
100
AcDbEntity
  8
ASSI
100
AcDbLine
 62
253
  6
CONTINUOUS
 10
10.2826667789
 20
-22.3825449351
 11
10.3001218439
 21
-22.4
  0
LINE
  5
324
100
AcDbEntity
  8
ASSI
100
AcDbLine
 62
253
  6
CONTINUOUS
 10
10.59038167
 20
-22.3903027019
 11
10.5980944005
 21
-22.3980604833
  0
LINE
  5
325
100
AcDbEntity
  8
0
100
AcDbLine
 62
7
  6
CONTINUOUS
 10
-7.1772727273
 20
-8.4559919581
 11
-7.2427272727
 21
-8.1873013235
  0
LINE
  5
326
100
AcDbEntity
  8
0
100
AcDbLine
 62
7
  6
CONTINUOUS
 10
-7.0936363636
 20
-8.9884076232
 11
-7.25
 21
-8.2302016061
  0
LINE
  5
327
100
AcDbEntity
  8
RACCORDO
100
AcDbLine
 62
7
  6
CONTINUOUS
 10
-9.5
 20
16.7
 11
-9.639870208
 21
18.1129361064
  0
LINE
  5
328
100
AcDbEntity
  8
ASSI
100
AcDbLine
 62
7
  6
CONTINUOUS
 10
-9.5
 20
16.7
 11
-9.639870208
 21
18.1129361064
  0
LINE
  5
329
100
AcDbEntity
  8
RACCORDO
100
AcDbLine
 62
253
  6
CONTINUOUS
 10
-7.0717935951
 20
-16.5823590509
 11
-6.91317452
 21
-19.7872686779
  0
LINE
  5
32A
100
AcDbEntity
  8
ASSI
100
AcDbLine
 62
253
  6
CONTINUOUS
 10
-7.0711403853
 20
-16.5955571999
 11
-6.91317452
 21
-19.7872686779
  0
LINE
  5
32B
100
AcDbEntity
  8
ASSI
100
AcDbLine
 62
7
  6
CONTINUOUS
 10
-8.5
 20
23.1226497308
 11
-8.5131674569
 21
23.5581814706
  0
LINE
  5
32C
100
AcDbEntity
  8
ASSI
100
AcDbLine
 62
253
  6
CONTINUOUS
 10
-7.3982849591
 20
23.1226497308
 11
-7.4135581409
 21
23.6278312163
  0
LINE
  5
32D
100
AcDbEntity
  8
ASSI
100
AcDbLine
 62
253
  6
CONTINUOUS
 10
-7.2
 20
23.3515746082
 11
-7.2135886019
 21
23.8010362971
  0
LINE
  5
32E
100
AcDbEntity
  8
RACCORDO
100
AcDbLine
 62
7
  6
CONTINUOUS
 10
-6.4491732021
 20
19.3349933121
 11
-6.4485495676
 21
17.288605614
  0
LINE
  5
32F
100
AcDbEntity
  8
ASSI
100
AcDbLine
 62
7
  6
CONTINUOUS
 10
-6.4491732021
 20
19.3349933121
 11
-6.4485495676
 21
17.288605614
  0
LINE
  5
330
100
AcDbEntity
  8
ASSI
100
AcDbLine
 62
7
  6
CONTINUOUS
 10
-8.0579942858
 20
-21.2252970227
 11
-8.0579942858
 21
-20.9872686779
  0
LINE
  5
331
100
AcDbEntity
  8
ASSI
100
AcDbLine
 62
7
  6
CONTINUOUS
 10
-8.0579942858
 20
20.9872686779
 11
-8.0579942858
 21
21.2252970227
  0
LINE
  5
332
100
AcDbEntity
  8
DRAFT
100
AcDbLine
 62
7
  6
CONTINUOUS
 10
-7.95
 20
9.2
 11
-7.95
 21
-7.6
  0
LINE
  5
333
100
AcDbEntity
  8
ASSI
100
AcDbLine
 62
7
  6
CONTINUOUS
 10
-7.95
 20
9.2
 11
-7.95
 21
-7.6
  0
LINE
  5
334
100
AcDbEntity
  8
RACCORDO
100
AcDbLine
 62
7
  6
CONTINUOUS
 10
-7.9
 20
-5.6
 11
-7.9
 21
8.4
  0
LINE
  5
335
100
AcDbEntity
  8
0
100
AcDbLine
 62
7
  6
CONTINUOUS
 10
-7.8
 20
-9.2
 11
-7.8
 21
-5.6
  0
LINE
  5
336
100
AcDbEntity
  8
0
100
AcDbLine
 62
7
  6
CONTINUOUS
 10
-7.8
 20
8.6233218642
 11
-7.8
 21
9.0
  0
LINE
  5
337
100
AcDbEntity
  8
DRAFT
100
AcDbLine
 62
7
  6
CONTINUOUS
 10
-7.7903874625
 20
15.5
 11
-7.7903874625
 21
14.2886542078
  0
LINE
  5
338
100
AcDbEntity
  8
ASSI
100
AcDbLine
 62
7
  6
CONTINUOUS
 10
-7.7639384154
 20
15.5
 11
-7.7639384154
 21
14.2860359481
  0
LINE
  5
339
100
AcDbEntity
  8
0
100
AcDbLine
 62
7
  6
CONTINUOUS
 10
-7.7
 20
8.7
 11
-7.7
 21
8.6817955469
  0
LINE
  5
33A
100
AcDbEntity
  8
0
100
AcDbLine
 62
7
  6
CONTINUOUS
 10
-7.7
 20
-5.6
 11
-7.7
 21
-7.2574468085
  0
LINE
  5
33B
100
AcDbEntity
  8
RACCORDO
100
AcDbLine
 62
253
  6
CONTINUOUS
 10
-7.6
 20
-5.6
 11
-7.6
 21
8.7
  0
LINE
  5
33C
100
AcDbEntity
  8
ASSI
100
AcDbLine
 62
253
  6
CONTINUOUS
 10
-7.4139945176
 20
-24.2368706193
 11
-7.4139945176
 21
-23.8443375673
  0
LINE
  5
33D
100
AcDbEntity
  8
ASSI
100
AcDbLine
 62
253
  6
CONTINUOUS
 10
-7.4139945176
 20
23.8443354981
 11
-7.4139945176
 21
24.2368706193
  0
LINE
  5
33E
100
AcDbEntity
  8
0
100
AcDbLine
 62
7
  6
CONTINUOUS
 10
-7.4
 20
-7.2361702128
 11
-7.4
 21
-7.1191489362
  0
LINE
  5
33F
100
AcDbEntity
  8
RACCORDO
100
AcDbLine
 62
7
  6
CONTINUOUS
 10
-7.3261806034
 20
20.8738193966
 11
-7.3261806034
 21
19.7676913781
  0
LINE
  5
340
100
AcDbEntity
  8
ASSI
100
AcDbLine
 62
7
  6
CONTINUOUS
 10
-7.3261806034
 20
20.8738193966
 11
-7.3261806034
 21
19.7676913781
  0
LINE
  5
341
100
AcDbEntity
  8
0
100
AcDbLine
 62
7
  6
CONTINUOUS
 10
-7.25
 20
8.8079357678
 11
-7.25
 21
8.7
  0
LINE
  5
342
100
AcDbEntity
  8
0
100
AcDbLine
 62
7
  6
CONTINUOUS
 10
-7.25
 20
-8.2302016061
 11
-7.25
 21
-7.2574468085
  0
LINE
  5
343
100
AcDbEntity
  8
0
100
AcDbLine
 62
7
  6
CONTINUOUS
 10
-7.2427272727
 20
-8.1873013235
 11
-7.2427272727
 21
-7.2617021277
  0
LINE
  5
344
100
AcDbEntity
  8
ASSI
100
AcDbLine
 62
7
  6
CONTINUOUS
 10
-7.2273084156
 20
-9.2
 11
-7.2273084156
 21
-9.426437457
  0
LINE
  5
345
100
AcDbEntity
  8
ASSI
100
AcDbLine
 62
253
  6
CONTINUOUS
 10
-7.2140249785
 20
-24.2368706193
 11
-7.2140249785
 21
-23.8443375673
  0
LINE
  5
346
100
AcDbEntity
  8
ASSI
100
AcDbLine
 62
253
  6
CONTINUOUS
 10
-7.2140249785
 20
23.8443375673
 11
-7.2140249785
 21
24.2368706193
  0
LINE
  5
347
100
AcDbEntity
  8
RACCORDO
100
AcDbLine
 62
7
  6
CONTINUOUS
 10
-7.2127313221
 20
-20.9872686779
 11
-7.2127313221
 21
-20.0914350444
  0
LINE
  5
348
100
AcDbEntity
  8
ASSI
100
AcDbLine
 62
7
  6
CONTINUOUS
 10
-7.2127313221
 20
-20.9872686779
 11
-7.2127313221
 21
-20.0914350444
  0
LINE
  5
349
100
AcDbEntity
  8
RACCORDO
100
AcDbLine
 62
7
  6
CONTINUOUS
 10
-7.2127313221
 20
20.0914350444
 11
-7.2127313221
 21
20.9872686779
  0
LINE
  5
34A
100
AcDbEntity
  8
ASSI
100
AcDbLine
 62
7
  6
CONTINUOUS
 10
-7.2127313221
 20
20.0914350444
 11
-7.2127313221
 21
20.9872686779
  0
LINE
  5
34B
100
AcDbEntity
  8
ASSI
100
AcDbLine
 62
7
  6
CONTINUOUS
 10
-7.2
 20
-22.4
 11
-7.2
 21
-24.300030461
  0
LINE
  5
34C
100
AcDbEntity
  8
ASSI
100
AcDbLine
 62
7
  6
CONTINUOUS
 10
-7.2
 20
22.4
 11
-7.2
 21
24.300030461
  0
LINE
  5
34D
100
AcDbEntity
  8
0
100
AcDbLine
 62
7
  6
CONTINUOUS
 10
-7.0936363636
 20
-8.9884076232
 11
-7.0936363636
 21
-8.4559919581
  0
LINE
  5
34E
100
AcDbEntity
  8
0
100
AcDbLine
 62
7
  6
CONTINUOUS
 10
-7.05
 20
8.7
 11
-7.05
 21
9.0
  0
LINE
  5
34F
100
AcDbEntity
  8
RACCORDO
100
AcDbLine
 62
7
  6
CONTINUOUS
 10
-6.5872686779
 20
-21.0745506493
 11
-6.5872686779
 21
-20.0914350444
  0
LINE
  5
350
100
AcDbEntity
  8
ASSI
100
AcDbLine
 62
7
  6
CONTINUOUS
 10
-6.5872686779
 20
-21.0745506493
 11
-6.5872686779
 21
-20.0914350444
  0
LINE
  5
351
100
AcDbEntity
  8
RACCORDO
100
AcDbLine
 62
7
  6
CONTINUOUS
 10
-6.5872686779
 20
20.0914350444
 11
-6.5872686779
 21
21.0745506493
  0
LINE
  5
352
100
AcDbEntity
  8
ASSI
100
AcDbLine
 62
7
  6
CONTINUOUS
 10
-6.5872686779
 20
20.0914350444
 11
-6.5872686779
 21
21.0745506493
  0
LINE
  5
353
100
AcDbEntity
  8
0
100
AcDbLine
 62
7
  6
CONTINUOUS
 10
-6.5
 20
9.0
 11
-6.5
 21
8.8
  0
LINE
  5
354
100
AcDbEntity
  8
RACCORDO
100
AcDbLine
 62
7
  6
CONTINUOUS
 10
-6.4738193966
 20
20.8476348052
 11
-6.4738193966
 21
19.7676913781
  0
LINE
  5
355
100
AcDbEntity
  8
ASSI
100
AcDbLine
 62
7
  6
CONTINUOUS
 10
-6.4738193966
 20
20.8476348052
 11
-6.4738193966
 21
19.7676913781
  0
LINE
  5
356
100
AcDbEntity
  8
ASSI
100
AcDbLine
 62
7
  6
CONTINUOUS
 10
-6.2543634339
 20
-9.426437457
 11
-6.2543634339
 21
-9.2
  0
LINE
  5
357
100
AcDbEntity
  8
0
100
AcDbLine
 62
7
  6
CONTINUOUS
 10
-6.25
 20
-3.1
 11
-6.25
 21
3.4
  0
LINE
  5
358
100
AcDbEntity
  8
RACCORDO
100
AcDbLine
 62
7
  6
CONTINUOUS
 10
-6.25
 20
3.4
 11
-6.25
 21
4.8024315771
  0
LINE
  5
359
100
AcDbEntity
  8
0
100
AcDbLine
 62
7
  6
CONTINUOUS
 10
-6.15
 20
2.4
 11
-6.15
 21
-1.1
  0
LINE
  5
35A
100
AcDbEntity
  8
RACCORDO
100
AcDbLine
 62
7
  6
CONTINUOUS
 10
-7.3514504324
 20
17.288605614
 11
-7.3508267979
 21
19.3349933121
  0
LINE
  5
35B
100
AcDbEntity
  8
ASSI
100
AcDbLine
 62
7
  6
CONTINUOUS
 10
-7.3514504324
 20
17.288605614
 11
-7.3508267979
 21
19.3349933121
  0
LINE
  5
35C
100
AcDbEntity
  8
ASSI
100
AcDbLine
 62
7
  6
CONTINUOUS
 10
-7.7194499734
 20
14.3367473524
 11
-7.7197270663
 21
14.281659352
  0
LINE
  5
35D
100
AcDbEntity
  8
DRAFT
100
AcDbLine
 62
7
  6
CONTINUOUS
 10
-7.7583308322
 20
14.3290471724
 11
-7.7585765101
 21
14.2855051591
  0
LINE
  5
35E
100
AcDbEntity
  8
ASSI
100
AcDbLine
 62
7
  6
CONTINUOUS
 10
-7.3343263063
 20
15.3438299223
 11
-7.3232622727
 21
17.1406761428
  0
LINE
  5
35F
100
AcDbEntity
  8
DRAFT
100
AcDbLine
 62
7
  6
CONTINUOUS
 10
-7.6513850867
 20
15.5068795788
 11
-7.6389602491
 21
16.8514272135
  0
LINE
  5
360
100
AcDbEntity
  8
ASSI
100
AcDbLine
 62
7
  6
CONTINUOUS
 10
-8.5131674569
 20
-23.5581814706
 11
-8.5
 21
-23.1226497308
  0
LINE
  5
361
100
AcDbEntity
  8
ASSI
100
AcDbLine
 62
253
  6
CONTINUOUS
 10
-7.4135581719
 20
-23.6278322392
 11
-7.3982849591
 21
-23.1226497308
  0
LINE
  5
362
100
AcDbEntity
  8
ASSI
100
AcDbLine
 62
253
  6
CONTINUOUS
 10
-7.2135886019
 20
-23.8010362971
 11
-7.2
 21
-23.3515746082
  0
LINE
  5
363
100
AcDbEntity
  8
RACCORDO
100
AcDbLine
 62
253
  6
CONTINUOUS
 10
-6.91317452
 20
19.7872686779
 11
-7.0519868989
 21
16.9825547473
  0
LINE
  5
364
100
AcDbEntity
  8
ASSI
100
AcDbLine
 62
253
  6
CONTINUOUS
 10
-6.91317452
 20
19.7872686779
 11
-7.0519868989
 21
16.9825547473
  0
LINE
  5
365
100
AcDbEntity
  8
ASSI
100
AcDbLine
 62
7
  6
CONTINUOUS
 10
-1.3901461176
 20
9.9668353766
 11
-1.3570655786
 21
9.9999159157
  0
LINE
  5
366
100
AcDbEntity
  8
ASSI
100
AcDbLine
 62
253
  6
CONTINUOUS
 10
11.1
 20
21.9000761524
 11
11.0825449351
 21
21.8826210875
  0
LINE
  5
367
100
AcDbEntity
  8
ASSI
100
AcDbLine
 62
253
  6
CONTINUOUS
 10
11.1
 20
21.6001218439
 11
11.0825449351
 21
21.5826667789
  0
LINE
  5
368
100
AcDbEntity
  8
0
100
AcDbLine
 62
7
  6
CONTINUOUS
 10
3.8
 20
-8.1873013235
 11
7.2427272727
 21
-8.1873013235
  0
LINE
  5
369
100
AcDbEntity
  8
0
100
AcDbLine
 62
7
  6
CONTINUOUS
 10
-3.8
 20
-8.1873013235
 11
-7.2427272727
 21
-8.1873013235
  0
LINE
  5
36A
100
AcDbEntity
  8
RACCORDO
100
AcDbLine
 62
253
  6
CONTINUOUS
 10
-1.2
 20
-8.0086887894
 11
1.2
 21
-8.0086887894
  0
LINE
  5
36B
100
AcDbEntity
  8
ASSI
100
AcDbLine
 62
253
  6
CONTINUOUS
 10
-1.2
 20
-8.0086887894
 11
1.2
 21
-8.0086887894
  0
LINE
  5
36C
100
AcDbEntity
  8
0
100
AcDbLine
 62
7
  6
CONTINUOUS
 10
3.8
 20
-7.7
 11
2.6346037191
 21
-7.7
  0
LINE
  5
36D
100
AcDbEntity
  8
0
100
AcDbLine
 62
7
  6
CONTINUOUS
 10
-2.7
 20
-7.7
 11
-3.8
 21
-7.7
  0
LINE
  5
36E
100
AcDbEntity
  8
ASSI
100
AcDbLine
 62
7
  6
CONTINUOUS
 10
8.7273084156
 20
-7.6043634339
 11
7.8
 21
-7.6043634339
  0
LINE
  5
36F
100
AcDbEntity
  8
ASSI
100
AcDbLine
 62
7
  6
CONTINUOUS
 10
-7.8
 20
-7.6043634339
 11
-8.7273084156
 21
-7.6043634339
  0
LINE
  5
370
100
AcDbEntity
  8
ASSI
100
AcDbLine
 62
7
  6
CONTINUOUS
 10
-8.4412267691
 20
-7.6
 11
-7.95
 21
-7.6
  0
LINE
  5
371
100
AcDbEntity
  8
ASSI
100
AcDbLine
 62
7
  6
CONTINUOUS
 10
8.4412267691
 20
-7.6
 11
7.95
 21
-7.6
  0
LINE
  5
372
100
AcDbEntity
  8
0
100
AcDbLine
 62
7
  6
CONTINUOUS
 10
-3.8
 20
-7.3
 11
3.8
 21
-7.3
  0
LINE
  5
373
100
AcDbEntity
  8
0
100
AcDbLine
 62
7
  6
CONTINUOUS
 10
-7.2427272727
 20
-7.2617021277
 11
-3.8
 21
-7.2617021277
  0
LINE
  5
374
100
AcDbEntity
  8
0
100
AcDbLine
 62
7
  6
CONTINUOUS
 10
3.8
 20
-7.2617021277
 11
7.2427272727
 21
-7.2617021277
  0
LINE
  5
375
100
AcDbEntity
  8
0
100
AcDbLine
 62
7
  6
CONTINUOUS
 10
-7.7
 20
-7.2574468085
 11
-7.25
 21
-7.2574468085
  0
LINE
  5
376
100
AcDbEntity
  8
0
100
AcDbLine
 62
7
  6
CONTINUOUS
 10
7.25
 20
-7.2574468085
 11
7.7
 21
-7.2574468085
  0
LINE
  5
377
100
AcDbEntity
  8
0
100
AcDbLine
 62
7
  6
CONTINUOUS
 10
-7.7
 20
-7.2361702128
 11
-7.4
 21
-7.2361702128
  0
LINE
  5
378
100
AcDbEntity
  8
0
100
AcDbLine
 62
7
  6
CONTINUOUS
 10
7.7
 20
-7.2361702128
 11
7.4
 21
-7.2361702128
  0
LINE
  5
379
100
AcDbEntity
  8
0
100
AcDbLine
 62
7
  6
CONTINUOUS
 10
-7.7
 20
-7.1191489362
 11
-7.4
 21
-7.1191489362
  0
LINE
  5
37A
100
AcDbEntity
  8
0
100
AcDbLine
 62
7
  6
CONTINUOUS
 10
7.7
 20
-7.1191489362
 11
7.4
 21
-7.1191489362
  0
LINE
  5
37B
100
AcDbEntity
  8
0
100
AcDbLine
 62
7
  6
CONTINUOUS
 10
-1.9
 20
-7.0319148936
 11
1.9
 21
-7.0319148936
  0
LINE
  5
37C
100
AcDbEntity
  8
0
100
AcDbLine
 62
7
  6
CONTINUOUS
 10
-4.4
 20
-7.0127659574
 11
-2.9
 21
-7.0127659574
  0
LINE
  5
37D
100
AcDbEntity
  8
0
100
AcDbLine
 62
7
  6
CONTINUOUS
 10
2.9
 20
-7.0127659574
 11
4.4
 21
-7.0127659574
  0
LINE
  5
37E
100
AcDbEntity
  8
0
100
AcDbLine
 62
7
  6
CONTINUOUS
 10
-7.7
 20
-7.0
 11
-4.4
 21
-7.0
  0
LINE
  5
37F
100
AcDbEntity
  8
0
100
AcDbLine
 62
7
  6
CONTINUOUS
 10
4.4
 20
-7.0
 11
7.7
 21
-7.0
  0
LINE
  5
380
100
AcDbEntity
  8
DRAFT
100
AcDbLine
 62
7
  6
CONTINUOUS
 10
2.7
 20
-11.6066655363
 11
3.140225346
 21
-11.9
  0
LINE
  5
381
100
AcDbEntity
  8
ASSI
100
AcDbLine
 62
7
  6
CONTINUOUS
 10
2.7
 20
-11.6066655363
 11
3.1367604091
 21
-11.8976912156
  0
LINE
  5
382
100
AcDbEntity
  8
ASSI
100
AcDbLine
 62
253
  6
CONTINUOUS
 10
11.0825449351
 20
-21.8826210875
 11
11.1
 21
-21.9000761524
  0
LINE
  5
383
100
AcDbEntity
  8
ASSI
100
AcDbLine
 62
253
  6
CONTINUOUS
 10
11.0825449351
 20
-21.5826667789
 11
11.1
 21
-21.6001218439
  0
LINE
  5
384
100
AcDbEntity
  8
0
100
AcDbLine
 62
7
  6
CONTINUOUS
 10
-5.35
 20
-5.05
 11
-5.1
 21
-5.3
  0
LINE
  5
385
100
AcDbEntity
  8
0
100
AcDbLine
 62
7
  6
CONTINUOUS
 10
-5.35
 20
-4.35
 11
-5.1
 21
-4.6
  0
LINE
  5
386
100
AcDbEntity
  8
0
100
AcDbLine
 62
7
  6
CONTINUOUS
 10
-5.35
 20
-3.65
 11
-5.1
 21
-3.9
  0
LINE
  5
387
100
AcDbEntity
  8
0
100
AcDbLine
 62
7
  6
CONTINUOUS
 10
-4.75
 20
-3.85
 11
-5.0
 21
-3.6
  0
LINE
  5
388
100
AcDbEntity
  8
ASSI
100
AcDbLine
 62
253
  6
CONTINUOUS
 10
10.5980944005
 20
-22.3980604833
 11
10.6000000646
 21
-22.3999999354
  0
LINE
  5
389
100
AcDbEntity
  8
RACCORDO
100
AcDbLine
 62
7
  6
CONTINUOUS
 10
-2.9
 20
-7.0127659574
 11
-2.7566802188
 21
-7.1835299521
  0
LINE
  5
38A
100
AcDbEntity
  8
DRAFT
100
AcDbLine
 62
7
  6
CONTINUOUS
 10
-9.4954820773
 20
17.1406761428
 11
-9.639870208
 21
18.1129361064
  0
LINE
  5
38B
100
AcDbEntity
  8
ASSI
100
AcDbLine
 62
7
  6
CONTINUOUS
 10
-9.4954820773
 20
17.1406761428
 11
-9.639870208
 21
18.1129361064
  0
LINE
  5
38C
100
AcDbEntity
  8
RACCORDO
100
AcDbLine
 62
253
  6
CONTINUOUS
 10
-6.88682548
 20
19.7872686779
 11
-6.7480131011
 21
16.9825547473
  0
LINE
  5
38D
100
AcDbEntity
  8
ASSI
100
AcDbLine
 62
253
  6
CONTINUOUS
 10
-6.88682548
 20
19.7872686779
 11
-6.7480131011
 21
16.9825547473
  0
LINE
  5
38E
100
AcDbEntity
  8
RACCORDO
100
AcDbLine
 62
253
  6
CONTINUOUS
 10
-6.5872686779
 20
20.0914350444
 11
-6.4485495676
 21
17.288605614
  0
LINE
  5
38F
100
AcDbEntity
  8
ASSI
100
AcDbLine
 62
253
  6
CONTINUOUS
 10
-6.5872686779
 20
20.0914350444
 11
-6.4485495676
 21
17.288605614
  0
LINE
  5
390
100
AcDbEntity
  8
DRAFT
100
AcDbLine
 62
7
  6
CONTINUOUS
 10
-4.1076796437
 20
-5.6
 11
-4.1052361207
 21
-5.7272727273
  0
LINE
  5
391
100
AcDbEntity
  8
ASSI
100
AcDbLine
 62
7
  6
CONTINUOUS
 10
-4.0706736937
 20
15.3438299223
 11
-4.0801268653
 21
16.8790652807
  0
LINE
  5
392
100
AcDbEntity
  8
0
100
AcDbLine
 62
7
  6
CONTINUOUS
 10
-5.9
 20
2.1
 11
-5.9
 21
0.6
  0
LINE
  5
393
100
AcDbEntity
  8
DRAFT
100
AcDbLine
 62
7
  6
CONTINUOUS
 10
-5.8996410204
 20
-6.0
 11
-5.8996410204
 21
-5.6
  0
LINE
  5
394
100
AcDbEntity
  8
0
100
AcDbLine
 62
7
  6
CONTINUOUS
 10
-5.8230544373
 20
-1.1
 11
-5.8230544373
 21
0.6
  0
LINE
  5
395
100
AcDbEntity
  8
0
100
AcDbLine
 62
7
  6
CONTINUOUS
 10
-5.8230544373
 20
2.1
 11
-5.8230544373
 21
2.4
  0
LINE
  5
396
100
AcDbEntity
  8
0
100
AcDbLine
 62
7
  6
CONTINUOUS
 10
-5.6730544373
 20
-1.1
 11
-5.6730544373
 21
0.6
  0
LINE
  5
397
100
AcDbEntity
  8
0
100
AcDbLine
 62
7
  6
CONTINUOUS
 10
-5.6730544373
 20
2.1
 11
-5.6730544373
 21
2.4
  0
LINE
  5
398
100
AcDbEntity
  8
0
100
AcDbLine
 62
7
  6
CONTINUOUS
 10
-5.4730544373
 20
0.55
 11
-5.4730544373
 21
0.6
  0
LINE
  5
399
100
AcDbEntity
  8
0
100
AcDbLine
 62
7
  6
CONTINUOUS
 10
-5.4730544373
 20
1.1
 11
-5.4730544373
 21
2.4
  0
LINE
  5
39A
100
AcDbEntity
  8
0
100
AcDbLine
 62
7
  6
CONTINUOUS
 10
-5.3523651948
 20
20.8476348052
 11
-5.3523651948
 21
19.9738193966
  0
LINE
  5
39B
100
AcDbEntity
  8
ASSI
100
AcDbLine
 62
7
  6
CONTINUOUS
 10
-5.3523651948
 20
20.8476348052
 11
-5.3523651948
 21
19.9738193966
  0
LINE
  5
39C
100
AcDbEntity
  8
ASSI
100
AcDbLine
 62
7
  6
CONTINUOUS
 10
-5.1254493507
 20
21.0745506493
 11
-5.1254493507
 21
20.0872686779
  0
LINE
  5
39D
100
AcDbEntity
  8
ASSI
100
AcDbLine
 62
7
  6
CONTINUOUS
 10
-5.1254493507
 20
-20.0872686779
 11
-5.1254493507
 21
-21.0745506493
  0
LINE
  5
39E
100
AcDbEntity
  8
0
100
AcDbLine
 62
7
  6
CONTINUOUS
 10
-5.1
 20
-1.1
 11
-5.1
 21
-1.3
  0
LINE
  5
39F
100
AcDbEntity
  8
0
100
AcDbLine
 62
7
  6
CONTINUOUS
 10
-5.1
 20
-1.8
 11
-5.1
 21
-2.0
  0
LINE
  5
3A0
100
AcDbEntity
  8
0
100
AcDbLine
 62
7
  6
CONTINUOUS
 10
-5.1
 20
-2.5
 11
-5.1
 21
-2.7
  0
LINE
  5
3A1
100
AcDbEntity
  8
0
100
AcDbLine
 62
7
  6
CONTINUOUS
 10
-5.1
 20
-5.6
 11
-5.1
 21
-5.3
  0
LINE
  5
3A2
100
AcDbEntity
  8
0
100
AcDbLine
 62
7
  6
CONTINUOUS
 10
-5.1
 20
-4.8
 11
-5.1
 21
-4.6
  0
LINE
  5
3A3
100
AcDbEntity
  8
0
100
AcDbLine
 62
7
  6
CONTINUOUS
 10
-5.1
 20
-4.1
 11
-5.1
 21
-3.9
  0
LINE
  5
3A4
100
AcDbEntity
  8
0
100
AcDbLine
 62
7
  6
CONTINUOUS
 10
-5.1
 20
-3.4
 11
-5.1
 21
-3.2
  0
LINE
  5
3A5
100
AcDbEntity
  8
ASSI
100
AcDbLine
 62
7
  6
CONTINUOUS
 10
-5.0
 20
-5.6
 11
-5.0
 21
-4.3
  0
LINE
  5
3A6
100
AcDbEntity
  8
0
100
AcDbLine
 62
7
  6
CONTINUOUS
 10
-5.0
 20
-4.3
 11
-5.0
 21
-1.1
  0
LINE
  5
3A7
100
AcDbEntity
  8
0
100
AcDbLine
 62
7
  6
CONTINUOUS
 10
-4.85
 20
-4.8
 11
-4.85
 21
-4.3
  0
LINE
  5
3A8
100
AcDbEntity
  8
0
100
AcDbLine
 62
7
  6
CONTINUOUS
 10
-4.85
 20
-3.95
 11
-4.85
 21
-3.75
  0
LINE
  5
3A9
100
AcDbEntity
  8
0
100
AcDbLine
 62
7
  6
CONTINUOUS
 10
-4.85
 20
-3.25
 11
-4.85
 21
-3.1
  0
LINE
  5
3AA
100
AcDbEntity
  8
ASSI
100
AcDbLine
 62
7
  6
CONTINUOUS
 10
-4.45
 20
23.7500380762
 11
-4.45
 21
23.4179449472
  0
LINE
  5
3AB
100
AcDbEntity
  8
ASSI
100
AcDbLine
 62
7
  6
CONTINUOUS
 10
-4.45
 20
22.9820550528
 11
-4.45
 21
22.4
  0
LINE
  5
3AC
100
AcDbEntity
  8
ASSI
100
AcDbLine
 62
7
  6
CONTINUOUS
 10
-4.45
 20
-22.4
 11
-4.45
 21
-22.9820550528
  0
LINE
  5
3AD
100
AcDbEntity
  8
ASSI
100
AcDbLine
 62
7
  6
CONTINUOUS
 10
-4.45
 20
-23.4179449472
 11
-4.45
 21
-23.7500380762
  0
LINE
  5
3AE
100
AcDbEntity
  8
RACCORDO
100
AcDbLine
 62
7
  6
CONTINUOUS
 10
-4.4057426494
 20
19.7676913781
 11
-4.4057426494
 21
19.9738193966
  0
LINE
  5
3AF
100
AcDbEntity
  8
ASSI
100
AcDbLine
 62
7
  6
CONTINUOUS
 10
-4.4057426494
 20
19.7676913781
 11
-4.4057426494
 21
19.9738193966
  0
LINE
  5
3B0
100
AcDbEntity
  8
0
100
AcDbLine
 62
7
  6
CONTINUOUS
 10
-4.4
 20
-6.0
 11
-4.4
 21
-7.0127659574
  0
LINE
  5
3B1
100
AcDbEntity
  8
0
100
AcDbLine
 62
7
  6
CONTINUOUS
 10
-4.4
 20
-2.0
 11
-4.4
 21
-1.6
  0
LINE
  5
3B2
100
AcDbEntity
  8
ASSI
100
AcDbLine
 62
7
  6
CONTINUOUS
 10
-4.3539971429
 20
-23.5393800954
 11
-4.3539971429
 21
-22.8606199046
  0
LINE
  5
3B3
100
AcDbEntity
  8
ASSI
100
AcDbLine
 62
7
  6
CONTINUOUS
 10
-4.3539971429
 20
22.8606199046
 11
-4.3539971429
 21
23.5393800954
  0
LINE
  5
3B4
100
AcDbEntity
  8
ASSI
100
AcDbLine
 62
253
  6
CONTINUOUS
 10
-4.3518822356
 20
23.6519203118
 11
-4.3518840226
 21
22.3018840226
  0
LINE
  5
3B5
100
AcDbEntity
  8
ASSI
100
AcDbLine
 62
253
  6
CONTINUOUS
 10
-4.3518840226
 20
-22.3018840226
 11
-4.3518822356
 21
-23.6519203118
  0
LINE
  5
3B6
100
AcDbEntity
  8
RACCORDO
100
AcDbLine
 62
253
  6
CONTINUOUS
 10
-4.3444976057
 20
20.0044395863
 11
-4.3444976057
 21
17.9554262419
  0
LINE
  5
3B7
100
AcDbEntity
  8
ASSI
100
AcDbLine
 62
253
  6
CONTINUOUS
 10
-4.3444976057
 20
20.0044395863
 11
-4.3444976057
 21
17.9554262419
  0
LINE
  5
3B8
100
AcDbEntity
  8
DRAFT
100
AcDbLine
 62
7
  6
CONTINUOUS
 10
-4.2003589796
 20
-6.0
 11
-4.2003589796
 21
-5.6
  0
LINE
  5
3B9
100
AcDbEntity
  8
DRAFT
100
AcDbLine
 62
7
  6
CONTINUOUS
 10
-4.1052361207
 20
-5.7272727273
 11
-4.1052361207
 21
-6.0
  0
LINE
  5
3BA
100
AcDbEntity
  8
0
100
AcDbLine
 62
7
  6
CONTINUOUS
 10
-4.0
 20
-3.5
 11
-4.0
 21
-2.0
  0
LINE
  5
3BB
100
AcDbEntity
  8
RACCORDO
100
AcDbLine
 62
7
  6
CONTINUOUS
 10
-4.4559476337
 20
17.8439762139
 11
-4.4550387927
 21
19.3349933121
  0
LINE
  5
3BC
100
AcDbEntity
  8
ASSI
100
AcDbLine
 62
7
  6
CONTINUOUS
 10
-4.4559476337
 20
17.8439762139
 11
-4.4550387927
 21
19.3349933121
  0
LINE
  5
3BD
100
AcDbEntity
  8
DRAFT
100
AcDbLine
 62
7
  6
CONTINUOUS
 10
-5.9923203563
 20
-5.6
 11
-6.0
 21
-6.0
  0
LINE
  5
3BE
100
AcDbEntity
  8
RACCORDO
100
AcDbLine
 62
253
  6
CONTINUOUS
 10
-6.88682548
 20
-19.7872686779
 11
-6.7280572421
 21
-16.5793452061
  0
LINE
  5
3BF
100
AcDbEntity
  8
ASSI
100
AcDbLine
 62
253
  6
CONTINUOUS
 10
-6.88682548
 20
-19.7872686779
 11
-6.7287578995
 21
-16.5935020372
  0
LINE
  5
3C0
100
AcDbEntity
  8
RACCORDO
100
AcDbLine
 62
253
  6
CONTINUOUS
 10
-6.5872686779
 20
-20.0914350444
 11
-6.4284810881
 21
-16.8831205658
  0
LINE
  5
3C1
100
AcDbEntity
  8
ASSI
100
AcDbLine
 62
253
  6
CONTINUOUS
 10
-6.5872686779
 20
-20.0914350444
 11
-6.4292059967
 21
-16.8977673961
  0
LINE
  5
3C2
100
AcDbEntity
  8
DRAFT
100
AcDbLine
 62
7
  6
CONTINUOUS
 10
-7.7
 20
-6.0
 11
-4.1052361207
 21
-6.0
  0
LINE
  5
3C3
100
AcDbEntity
  8
0
100
AcDbLine
 62
7
  6
CONTINUOUS
 10
-1.9
 20
-6.0
 11
1.9
 21
-6.0
  0
LINE
  5
3C4
100
AcDbEntity
  8
0
100
AcDbLine
 62
7
  6
CONTINUOUS
 10
-2.7566802188
 20
-6.0
 11
-1.95
 21
-6.0
  0
LINE
  5
3C5
100
AcDbEntity
  8
0
100
AcDbLine
 62
7
  6
CONTINUOUS
 10
1.95
 20
-6.0
 11
2.7566802188
 21
-6.0
  0
LINE
  5
3C6
100
AcDbEntity
  8
DRAFT
100
AcDbLine
 62
7
  6
CONTINUOUS
 10
4.1052361207
 20
-6.0
 11
7.7
 21
-6.0
  0
LINE
  5
3C7
100
AcDbEntity
  8
DRAFT
100
AcDbLine
 62
7
  6
CONTINUOUS
 10
-4.1052361207
 20
-5.7272727273
 11
-2.9
 21
-5.7272727273
  0
LINE
  5
3C8
100
AcDbEntity
  8
DRAFT
100
AcDbLine
 62
7
  6
CONTINUOUS
 10
2.9
 20
-5.7272727273
 11
4.1052361207
 21
-5.7272727273
  0
LINE
  5
3C9
100
AcDbEntity
  8
RACCORDO
100
AcDbLine
 62
7
  6
CONTINUOUS
 10
7.9
 20
-5.6
 11
5.1
 21
-5.6
  0
LINE
  5
3CA
100
AcDbEntity
  8
0
100
AcDbLine
 62
7
  6
CONTINUOUS
 10
5.1
 20
-5.6
 11
-5.1
 21
-5.6
  0
LINE
  5
3CB
100
AcDbEntity
  8
RACCORDO
100
AcDbLine
 62
7
  6
CONTINUOUS
 10
-5.1
 20
-5.6
 11
-7.9
 21
-5.6
  0
LINE
  5
3CC
100
AcDbEntity
  8
ASSI
100
AcDbLine
 62
7
  6
CONTINUOUS
 10
-5.0
 20
-4.8
 11
-1.44
 21
-4.8
  0
LINE
  5
3CD
100
AcDbEntity
  8
ASSI
100
AcDbLine
 62
7
  6
CONTINUOUS
 10
5.0
 20
-4.8
 11
1.44
 21
-4.8
  0
LINE
  5
3CE
100
AcDbEntity
  8
0
100
AcDbLine
 62
7
  6
CONTINUOUS
 10
1.94
 20
-4.3
 11
5.0
 21
-4.3
  0
LINE
  5
3CF
100
AcDbEntity
  8
0
100
AcDbLine
 62
7
  6
CONTINUOUS
 10
-1.94
 20
-4.3
 11
-5.0
 21
-4.3
  0
LINE
  5
3D0
100
AcDbEntity
  8
RACCORDO
100
AcDbLine
 62
7
  6
CONTINUOUS
 10
9.4343451125
 20
-9.4165278552
 11
9.5295904633
 21
-9.4482698575
  0
LINE
  5
3D1
100
AcDbEntity
  8
ASSI
100
AcDbLine
 62
7
  6
CONTINUOUS
 10
9.435465772
 20
-9.4169013325
 11
9.5295904633
 21
-9.4482698575
  0
LINE
  5
3D2
100
AcDbEntity
  8
0
100
AcDbLine
 62
7
  6
CONTINUOUS
 10
-5.35
 20
-2.95
 11
-5.1
 21
-3.2
  0
LINE
  5
3D3
100
AcDbEntity
  8
0
100
AcDbLine
 62
7
  6
CONTINUOUS
 10
-4.75
 20
-3.15
 11
-5.0
 21
-2.9
  0
LINE
  5
3D4
100
AcDbEntity
  8
RACCORDO
100
AcDbLine
 62
7
  6
CONTINUOUS
 10
1.2086507125
 20
-9.0086507125
 11
1.2164024351
 21
-9.0164024351
  0
LINE
  5
3D5
100
AcDbEntity
  8
ASSI
100
AcDbLine
 62
7
  6
CONTINUOUS
 10
1.2086507125
 20
-9.0086507125
 11
1.2164024351
 21
-9.0164024351
  0
LINE
  5
3D6
100
AcDbEntity
  8
0
100
AcDbLine
 62
7
  6
CONTINUOUS
 10
-5.35
 20
-2.25
 11
-5.1
 21
-2.5
  0
LINE
  5
3D7
100
AcDbEntity
  8
0
100
AcDbLine
 62
7
  6
CONTINUOUS
 10
-4.75
 20
-2.45
 11
-5.0
 21
-2.2
  0
LINE
  5
3D8
100
AcDbEntity
  8
0
100
AcDbLine
 62
7
  6
CONTINUOUS
 10
-5.35
 20
-1.55
 11
-5.1
 21
-1.8
  0
LINE
  5
3D9
100
AcDbEntity
  8
RACCORDO
100
AcDbLine
 62
7
  6
CONTINUOUS
 10
-1.5513442426
 20
-10.3473036936
 11
-1.4280188314
 21
-10.5939733021
  0
LINE
  5
3DA
100
AcDbEntity
  8
ASSI
100
AcDbLine
 62
7
  6
CONTINUOUS
 10
-1.5513442426
 20
-10.3473036936
 11
-1.4294767141
 21
-10.5910573144
  0
LINE
  5
3DB
100
AcDbEntity
  8
DRAFT
100
AcDbLine
 62
7
  6
CONTINUOUS
 10
-1.4256965084
 20
-11.9039927292
 11
-1.5343884837
 21
-11.4690591992
  0
LINE
  5
3DC
100
AcDbEntity
  8
ASSI
100
AcDbLine
 62
7
  6
CONTINUOUS
 10
-1.4271045151
 20
-11.8983585566
 11
-1.5343884837
 21
-11.4690591992
  0
LINE
  5
3DD
100
AcDbEntity
  8
0
100
AcDbLine
 62
7
  6
CONTINUOUS
 10
-1.904
 20
-6.0
 11
-1.9274666667
 21
-5.6
  0
LINE
  5
3DE
100
AcDbEntity
  8
ASSI
100
AcDbLine
 62
7
  6
CONTINUOUS
 10
-3.1270760019
 20
-21.2251044884
 11
-3.1173032135
 21
-21.6326967865
  0
LINE
  5
3DF
100
AcDbEntity
  8
ASSI
100
AcDbLine
 62
7
  6
CONTINUOUS
 10
-2.5791365211
 20
-8.8742640687
 11
-2.6066154026
 21
-7.3
  0
LINE
  5
3E0
100
AcDbEntity
  8
ASSI
100
AcDbLine
 62
7
  6
CONTINUOUS
 10
-2.1904004454
 20
10.0
 11
-2.2065810529
 21
11.5557863506
  0
LINE
  5
3E1
100
AcDbEntity
  8
DRAFT
100
AcDbLine
 62
7
  6
CONTINUOUS
 10
-3.7636147059
 20
16.5890021684
 11
-3.7536149133
 21
15.5068795788
  0
LINE
  5
3E2
100
AcDbEntity
  8
RACCORDO
100
AcDbLine
 62
7
  6
CONTINUOUS
 10
-4.0441923537
 20
15.3385854114
 11
-4.0536778182
 21
16.8790652807
  0
LINE
  5
3E3
100
AcDbEntity
  8
DRAFT
100
AcDbLine
 62
7
  6
CONTINUOUS
 10
-3.89
 20
-0.3
 11
-3.89
 21
0.05
  0
LINE
  5
3E4
100
AcDbEntity
  8
DRAFT
100
AcDbLine
 62
7
  6
CONTINUOUS
 10
-3.89
 20
1.05
 11
-3.89
 21
1.4
  0
LINE
  5
3E5
100
AcDbEntity
  8
RACCORDO
100
AcDbLine
 62
253
  6
CONTINUOUS
 10
-3.8445737581
 20
17.4555023943
 11
-3.8445737581
 21
20.0087268678
  0
LINE
  5
3E6
100
AcDbEntity
  8
ASSI
100
AcDbLine
 62
253
  6
CONTINUOUS
 10
-3.8445737581
 20
17.4555023943
 11
-3.8445737581
 21
20.0087268678
  0
LINE
  5
3E7
100
AcDbEntity
  8
0
100
AcDbLine
 62
7
  6
CONTINUOUS
 10
-3.8
 20
-9.2
 11
-3.8
 21
-7.2617021277
  0
LINE
  5
3E8
100
AcDbEntity
  8
ASSI
100
AcDbLine
 62
253
  6
CONTINUOUS
 10
-3.5806609125
 20
23.6519220988
 11
-3.5806609125
 21
22.3018840226
  0
LINE
  5
3E9
100
AcDbEntity
  8
ASSI
100
AcDbLine
 62
253
  6
CONTINUOUS
 10
-3.5806609125
 20
-22.3018840226
 11
-3.5806609125
 21
-23.6519220988
  0
LINE
  5
3EA
100
AcDbEntity
  8
DRAFT
100
AcDbLine
 62
7
  6
CONTINUOUS
 10
-3.5440817452
 20
15.4965092529
 11
-3.5440817452
 21
15.1
  0
LINE
  5
3EB
100
AcDbEntity
  8
ASSI
100
AcDbLine
 62
7
  6
CONTINUOUS
 10
-3.5440817452
 20
15.4952002227
 11
-3.5440817452
 21
15.1
  0
LINE
  5
3EC
100
AcDbEntity
  8
DRAFT
100
AcDbLine
 62
7
  6
CONTINUOUS
 10
-3.5
 20
14.85
 11
-3.5
 21
14.0
  0
LINE
  5
3ED
100
AcDbEntity
  8
ASSI
100
AcDbLine
 62
7
  6
CONTINUOUS
 10
-3.5
 20
-23.7325830113
 11
-3.5
 21
-22.3825449351
  0
LINE
  5
3EE
100
AcDbEntity
  8
ASSI
100
AcDbLine
 62
7
  6
CONTINUOUS
 10
-3.5
 20
14.0
 11
-3.5
 21
14.85
  0
LINE
  5
3EF
100
AcDbEntity
  8
ASSI
100
AcDbLine
 62
7
  6
CONTINUOUS
 10
-3.5
 20
22.3825449351
 11
-3.5
 21
23.7325830113
  0
LINE
  5
3F0
100
AcDbEntity
  8
ASSI
100
AcDbLine
 62
7
  6
CONTINUOUS
 10
-3.44
 20
-3.0
 11
-3.44
 21
-1.9
  0
LINE
  5
3F1
100
AcDbEntity
  8
RACCORDO
100
AcDbLine
 62
7
  6
CONTINUOUS
 10
-3.4
 20
14.1019186513
 11
-3.4
 21
15.5
  0
LINE
  5
3F2
100
AcDbEntity
  8
ASSI
100
AcDbLine
 62
253
  6
CONTINUOUS
 10
-3.3850964806
 20
-21.2252970227
 11
-3.3850964806
 21
-20.8
  0
LINE
  5
3F3
100
AcDbEntity
  8
ASSI
100
AcDbLine
 62
253
  6
CONTINUOUS
 10
-3.3850964806
 20
20.8
 11
-3.3850964806
 21
21.2252970227
  0
LINE
  5
3F4
100
AcDbEntity
  8
ASSI
100
AcDbLine
 62
7
  6
CONTINUOUS
 10
-3.1351059998
 20
-21.2252970227
 11
-3.1351059998
 21
-20.8901985088
  0
LINE
  5
3F5
100
AcDbEntity
  8
ASSI
100
AcDbLine
 62
7
  6
CONTINUOUS
 10
-3.1351059998
 20
20.8901985088
 11
-3.1351059998
 21
21.2252970227
  0
LINE
  5
3F6
100
AcDbEntity
  8
DRAFT
100
AcDbLine
 62
7
  6
CONTINUOUS
 10
-3.0982991226
 20
-9.4220740231
 11
-3.0982991226
 21
-9.25
  0
LINE
  5
3F7
100
AcDbEntity
  8
ASSI
100
AcDbLine
 62
7
  6
CONTINUOUS
 10
-3.0982991226
 20
-9.4220740231
 11
-3.0982991226
 21
-9.25
  0
LINE
  5
3F8
100
AcDbEntity
  8
ASSI
100
AcDbLine
 62
7
  6
CONTINUOUS
 10
-3.05
 20
22.1325449336
 11
-3.05
 21
21.7
  0
LINE
  5
3F9
100
AcDbEntity
  8
ASSI
100
AcDbLine
 62
7
  6
CONTINUOUS
 10
-3.05
 20
-21.7
 11
-3.05
 21
-22.1325449336
  0
LINE
  5
3FA
100
AcDbEntity
  8
RACCORDO
100
AcDbLine
 62
7
  6
CONTINUOUS
 10
-3.0
 20
4.2
 11
-3.0
 21
2.9
  0
LINE
  5
3FB
100
AcDbEntity
  8
RACCORDO
100
AcDbLine
 62
7
  6
CONTINUOUS
 10
-2.9305942288
 20
-10.1517377579
 11
-2.9305942288
 21
-9.6482622421
  0
LINE
  5
3FC
100
AcDbEntity
  8
ASSI
100
AcDbLine
 62
7
  6
CONTINUOUS
 10
-2.9305942288
 20
-10.1517377579
 11
-2.9305942288
 21
-9.6482622421
  0
LINE
  5
3FD
100
AcDbEntity
  8
0
100
AcDbLine
 62
7
  6
CONTINUOUS
 10
-2.9
 20
-7.0127659574
 11
-2.9
 21
-5.7272727273
  0
LINE
  5
3FE
100
AcDbEntity
  8
DRAFT
100
AcDbLine
 62
7
  6
CONTINUOUS
 10
-2.89
 20
-0.3
 11
-2.89
 21
0.05
  0
LINE
  5
3FF
100
AcDbEntity
  8
DRAFT
100
AcDbLine
 62
7
  6
CONTINUOUS
 10
-2.89
 20
1.05
 11
-2.89
 21
1.4
  0
LINE
  5
400
100
AcDbEntity
  8
RACCORDO
100
AcDbLine
 62
7
  6
CONTINUOUS
 10
-2.8
 20
6.7
 11
-2.8
 21
4.2
  0
LINE
  5
401
100
AcDbEntity
  8
0
100
AcDbLine
 62
253
  6
CONTINUOUS
 10
-2.7566802188
 20
-6.0
 11
-2.7566802188
 21
-7.1835299521
  0
LINE
  5
402
100
AcDbEntity
  8
0
100
AcDbLine
 62
7
  6
CONTINUOUS
 10
-2.75
 20
-4.3
 11
-2.75
 21
-3.5
  0
LINE
  5
403
100
AcDbEntity
  8
0
100
AcDbLine
 62
7
  6
CONTINUOUS
 10
-2.7053571429
 20
-5.6
 11
-2.7053571429
 21
-6.0
  0
LINE
  5
404
100
AcDbEntity
  8
DRAFT
100
AcDbLine
 62
7
  6
CONTINUOUS
 10
-2.7
 20
-11.6066655363
 11
-2.7
 21
-9.8181433797
  0
LINE
  5
405
100
AcDbEntity
  8
ASSI
100
AcDbLine
 62
7
  6
CONTINUOUS
 10
-2.7
 20
-9.8181433797
 11
-2.7
 21
-8.8742640687
  0
LINE
  5
406
100
AcDbEntity
  8
RACCORDO
100
AcDbLine
 62
7
  6
CONTINUOUS
 10
-2.7
 20
-8.8742640687
 11
-2.7
 21
-7.3
  0
LINE
  5
407
100
AcDbEntity
  8
DRAFT
100
AcDbLine
 62
7
  6
CONTINUOUS
 10
-2.2
 20
9.0
 11
-2.2
 21
9.2
  0
LINE
  5
408
100
AcDbEntity
  8
ASSI
100
AcDbLine
 62
7
  6
CONTINUOUS
 10
-2.2
 20
9.0
 11
-2.2
 21
9.6912267691
  0
LINE
  5
409
100
AcDbEntity
  8
ASSI
100
AcDbLine
 62
7
  6
CONTINUOUS
 10
-2.1904004454
 20
9.0
 11
-2.1904004454
 21
10.0
  0
LINE
  5
40A
100
AcDbEntity
  8
ASSI
100
AcDbLine
 62
7
  6
CONTINUOUS
 10
-2.0
 20
-6.0
 11
-2.0
 21
-5.6
  0
LINE
  5
40B
100
AcDbEntity
  8
0
100
AcDbLine
 62
253
  6
CONTINUOUS
 10
-1.9949891373
 20
-6.0
 11
-1.9949891373
 21
-7.1834933042
  0
LINE
  5
40C
100
AcDbEntity
  8
0
100
AcDbLine
 62
7
  6
CONTINUOUS
 10
-1.95
 20
-6.4
 11
-1.95
 21
-5.6
  0
LINE
  5
40D
100
AcDbEntity
  8
0
100
AcDbLine
 62
7
  6
CONTINUOUS
 10
-1.94
 20
-3.5
 11
-1.94
 21
-4.3
  0
LINE
  5
40E
100
AcDbEntity
  8
0
100
AcDbLine
 62
7
  6
CONTINUOUS
 10
-1.9
 20
-7.0319148936
 11
-1.9
 21
-6.0
  0
LINE
  5
40F
100
AcDbEntity
  8
ASSI
100
AcDbLine
 62
7
  6
CONTINUOUS
 10
-3.1173032135
 20
21.6326967865
 11
-3.1270760019
 21
21.2251044884
  0
LINE
  5
410
100
AcDbEntity
  8
ASSI
100
AcDbLine
 62
7
  6
CONTINUOUS
 10
-2.6312177944
 20
-11.4690591992
 11
-2.5813055585
 21
-9.8181433797
  0
LINE
  5
411
100
AcDbEntity
  8
0
100
AcDbLine
 62
7
  6
CONTINUOUS
 10
-2.895
 20
-5.6
 11
-2.9
 21
-5.7272727273
  0
LINE
  5
412
100
AcDbEntity
  8
0
100
AcDbLine
 62
7
  6
CONTINUOUS
 10
-3.44
 20
-1.9
 11
-3.7221231691
 21
-3.5
  0
LINE
  5
413
100
AcDbEntity
  8
0
100
AcDbLine
 62
7
  6
CONTINUOUS
 10
6.4738193966
 20
20.8476348052
 11
6.5872686779
 21
21.0745506493
  0
LINE
  5
414
100
AcDbEntity
  8
ASSI
100
AcDbLine
 62
7
  6
CONTINUOUS
 10
6.4738193966
 20
20.8476348052
 11
6.5872686779
 21
21.0745506493
  0
LINE
  5
415
100
AcDbEntity
  8
ASSI
100
AcDbLine
 62
7
  6
CONTINUOUS
 10
2.2025723689
 20
9.9911810777
 11
2.2046871368
 21
9.9954109357
  0
LINE
  5
416
100
AcDbEntity
  8
0
100
AcDbLine
 62
7
  6
CONTINUOUS
 10
-5.1
 20
-1.3
 11
-5.35
 21
-1.55
  0
LINE
  5
417
100
AcDbEntity
  8
0
100
AcDbLine
 62
7
  6
CONTINUOUS
 10
-5.1
 20
-2.0
 11
-5.35
 21
-2.25
  0
LINE
  5
418
100
AcDbEntity
  8
0
100
AcDbLine
 62
7
  6
CONTINUOUS
 10
4.0
 20
-3.5
 11
1.94
 21
-3.5
  0
LINE
  5
419
100
AcDbEntity
  8
0
100
AcDbLine
 62
7
  6
CONTINUOUS
 10
-1.94
 20
-3.5
 11
-4.0
 21
-3.5
  0
LINE
  5
41A
100
AcDbEntity
  8
0
100
AcDbLine
 62
7
  6
CONTINUOUS
 10
-6.25
 20
-3.1
 11
-5.2
 21
-3.1
  0
LINE
  5
41B
100
AcDbEntity
  8
0
100
AcDbLine
 62
7
  6
CONTINUOUS
 10
-3.6515923769
 20
-3.1
 11
-1.44
 21
-3.1
  0
LINE
  5
41C
100
AcDbEntity
  8
0
100
AcDbLine
 62
7
  6
CONTINUOUS
 10
1.44
 20
-3.1
 11
3.6515923768
 21
-3.1
  0
LINE
  5
41D
100
AcDbEntity
  8
0
100
AcDbLine
 62
7
  6
CONTINUOUS
 10
4.8
 20
-3.1
 11
5.0
 21
-3.1
  0
LINE
  5
41E
100
AcDbEntity
  8
0
100
AcDbLine
 62
7
  6
CONTINUOUS
 10
-4.8
 20
-3.1
 11
-5.0
 21
-3.1
  0
LINE
  5
41F
100
AcDbEntity
  8
0
100
AcDbLine
 62
7
  6
CONTINUOUS
 10
5.2
 20
-3.1
 11
6.25
 21
-3.1
  0
LINE
  5
420
100
AcDbEntity
  8
ASSI
100
AcDbLine
 62
7
  6
CONTINUOUS
 10
3.44
 20
-3.0
 11
1.44
 21
-3.0
  0
LINE
  5
421
100
AcDbEntity
  8
ASSI
100
AcDbLine
 62
7
  6
CONTINUOUS
 10
-1.44
 20
-3.0
 11
-3.44
 21
-3.0
  0
LINE
  5
422
100
AcDbEntity
  8
0
100
AcDbLine
 62
7
  6
CONTINUOUS
 10
5.0
 20
-2.0
 11
4.0
 21
-2.0
  0
LINE
  5
423
100
AcDbEntity
  8
0
100
AcDbLine
 62
7
  6
CONTINUOUS
 10
-4.0
 20
-2.0
 11
-5.0
 21
-2.0
  0
LINE
  5
424
100
AcDbEntity
  8
RACCORDO
100
AcDbLine
 62
7
  6
CONTINUOUS
 10
-0.6114438179
 20
-1.9391256665
 11
0.6114438179
 21
-1.9391256665
  0
LINE
  5
425
100
AcDbEntity
  8
RACCORDO
100
AcDbLine
 62
7
  6
CONTINUOUS
 10
1.9
 20
-7.0319148936
 11
1.9949891373
 21
-7.1834933042
  0
LINE
  5
426
100
AcDbEntity
  8
RACCORDO
100
AcDbLine
 62
7
  6
CONTINUOUS
 10
6.5872686779
 20
-21.0745506493
 11
6.4340630273
 21
-20.7681160106
  0
LINE
  5
427
100
AcDbEntity
  8
ASSI
100
AcDbLine
 62
7
  6
CONTINUOUS
 10
6.5872686779
 20
-21.0745506493
 11
6.4345981693
 21
-20.769186376
  0
LINE
  5
428
100
AcDbEntity
  8
DRAFT
100
AcDbLine
 62
7
  6
CONTINUOUS
 10
2.6312177944
 20
-11.4690591992
 11
2.7
 21
-11.6066655363
  0
LINE
  5
429
100
AcDbEntity
  8
ASSI
100
AcDbLine
 62
7
  6
CONTINUOUS
 10
2.6312177944
 20
-11.4690591992
 11
2.7
 21
-11.6066655363
  0
LINE
  5
42A
100
AcDbEntity
  8
DRAFT
100
AcDbLine
 62
7
  6
CONTINUOUS
 10
2.8466225454
 20
-11.9
 11
2.8482096865
 21
-11.9031752497
  0
LINE
  5
42B
100
AcDbEntity
  8
RACCORDO
100
AcDbLine
 62
7
  6
CONTINUOUS
 10
-6.4491732021
 20
19.3349933121
 11
-6.471338355
 21
19.4681025177
  0
LINE
  5
42C
100
AcDbEntity
  8
ASSI
100
AcDbLine
 62
7
  6
CONTINUOUS
 10
-6.4491732021
 20
19.3349933121
 11
-6.471338355
 21
19.4681025177
  0
LINE
  5
42D
100
AcDbEntity
  8
DRAFT
100
AcDbLine
 62
7
  6
CONTINUOUS
 10
-1.5343884837
 20
-11.4690591992
 11
-1.5513442426
 21
-10.3473036936
  0
LINE
  5
42E
100
AcDbEntity
  8
ASSI
100
AcDbLine
 62
7
  6
CONTINUOUS
 10
-1.5343884837
 20
-11.4690591992
 11
-1.5513442426
 21
-10.3473036936
  0
LINE
  5
42F
100
AcDbEntity
  8
ASSI
100
AcDbLine
 62
7
  6
CONTINUOUS
 10
-1.44
 20
-4.8
 11
-1.44
 21
-3.0
  0
LINE
  5
430
100
AcDbEntity
  8
ASSI
100
AcDbLine
 62
7
  6
CONTINUOUS
 10
-1.3901461176
 20
9.9668353766
 11
-1.3901461176
 21
10.0
  0
LINE
  5
431
100
AcDbEntity
  8
RACCORDO
100
AcDbLine
 62
7
  6
CONTINUOUS
 10
-1.2
 20
-7.3
 11
-1.2
 21
-8.0086887894
  0
LINE
  5
432
100
AcDbEntity
  8
ASSI
100
AcDbLine
 62
7
  6
CONTINUOUS
 10
-1.2
 20
-7.3
 11
-1.2
 21
-8.0086887894
  0
LINE
  5
433
100
AcDbEntity
  8
ASSI
100
AcDbLine
 62
7
  6
CONTINUOUS
 10
-0.8174550649
 20
23.7325830113
 11
-0.8174550649
 21
22.398254669
  0
LINE
  5
434
100
AcDbEntity
  8
ASSI
100
AcDbLine
 62
7
  6
CONTINUOUS
 10
-0.8174550649
 20
-23.7325830113
 11
-0.8174550649
 21
-22.398254669
  0
LINE
  5
435
100
AcDbEntity
  8
ASSI
100
AcDbLine
 62
7
  6
CONTINUOUS
 10
-0.8
 20
-23.7500380762
 11
-0.8
 21
-22.4
  0
LINE
  5
436
100
AcDbEntity
  8
ASSI
100
AcDbLine
 62
7
  6
CONTINUOUS
 10
-0.8
 20
22.4
 11
-0.8
 21
23.7500380762
  0
LINE
  5
437
100
AcDbEntity
  8
0
100
AcDbLine
 62
7
  6
CONTINUOUS
 10
-0.35
 20
-1.9391256665
 11
-0.35
 21
0.05
  0
LINE
  5
438
100
AcDbEntity
  8
0
100
AcDbLine
 62
7
  6
CONTINUOUS
 10
-0.35
 20
1.05
 11
-0.35
 21
3.3404436016
  0
LINE
  5
439
100
AcDbEntity
  8
RACCORDO
100
AcDbLine
 62
7
  6
CONTINUOUS
 10
-1.215483768
 20
-8.8742640687
 11
-1.2017453736
 21
-7.3
  0
LINE
  5
43A
100
AcDbEntity
  8
ASSI
100
AcDbLine
 62
7
  6
CONTINUOUS
 10
-1.215483768
 20
-8.8742640687
 11
-1.2017453736
 21
-7.3
  0
LINE
  5
43B
100
AcDbEntity
  8
ASSI
100
AcDbLine
 62
7
  6
CONTINUOUS
 10
-1.3901461176
 20
10.0
 11
-1.3576554492
 21
11.5618909435
  0
LINE
  5
43C
100
AcDbEntity
  8
RACCORDO
100
AcDbLine
 62
7
  6
CONTINUOUS
 10
9.4974886323
 20
19.3349933121
 11
9.5639975984
 21
19.4681025177
  0
LINE
  5
43D
100
AcDbEntity
  8
ASSI
100
AcDbLine
 62
7
  6
CONTINUOUS
 10
9.4974886323
 20
19.3349933121
 11
9.5639975984
 21
19.4681025177
  0
LINE
  5
43E
100
AcDbEntity
  8
ASSI
100
AcDbLine
 62
253
  6
CONTINUOUS
 10
8.7411810777
 20
9.4912572302
 11
8.7424140934
 21
9.4925811579
  0
LINE
  5
43F
100
AcDbEntity
  8
0
100
AcDbLine
 62
7
  6
CONTINUOUS
 10
-5.1
 20
-2.7
 11
-5.35
 21
-2.95
  0
LINE
  5
440
100
AcDbEntity
  8
0
100
AcDbLine
 62
7
  6
CONTINUOUS
 10
-5.0
 20
-2.7
 11
-4.75
 21
-2.45
  0
LINE
  5
441
100
AcDbEntity
  8
0
100
AcDbLine
 62
7
  6
CONTINUOUS
 10
-5.1
 20
-3.4
 11
-5.35
 21
-3.65
  0
LINE
  5
442
100
AcDbEntity
  8
0
100
AcDbLine
 62
7
  6
CONTINUOUS
 10
-5.0
 20
-3.4
 11
-4.75
 21
-3.15
  0
LINE
  5
443
100
AcDbEntity
  8
0
100
AcDbLine
 62
7
  6
CONTINUOUS
 10
-5.1
 20
-4.1
 11
-5.35
 21
-4.35
  0
LINE
  5
444
100
AcDbEntity
  8
0
100
AcDbLine
 62
7
  6
CONTINUOUS
 10
-5.0
 20
-4.1
 11
-4.75
 21
-3.85
  0
LINE
  5
445
100
AcDbEntity
  8
ASSI
100
AcDbLine
 62
253
  6
CONTINUOUS
 10
-8.7273084156
 20
-8.077384568
 11
-8.7473226375
 21
-8.0973987899
  0
LINE
  5
446
100
AcDbEntity
  8
0
100
AcDbLine
 62
7
  6
CONTINUOUS
 10
-5.1
 20
-4.8
 11
-5.35
 21
-5.05
  0
LINE
  5
447
100
AcDbEntity
  8
ASSI
100
AcDbLine
 62
253
  6
CONTINUOUS
 10
-8.227384568
 20
-8.5773084156
 11
-8.2476162192
 21
-8.5975400668
  0
LINE
  5
448
100
AcDbEntity
  8
ASSI
100
AcDbLine
 62
253
  6
CONTINUOUS
 10
8.2412572301
 20
9.9911810777
 11
8.2428039717
 21
9.9927086052
  0
LINE
  5
449
100
AcDbEntity
  8
RACCORDO
100
AcDbLine
 62
7
  6
CONTINUOUS
 10
7.6
 20
-1.6
 11
6.25
 21
-1.6
  0
LINE
  5
44A
100
AcDbEntity
  8
0
100
AcDbLine
 62
7
  6
CONTINUOUS
 10
-5.0
 20
-1.6
 11
-4.4
 21
-1.6
  0
LINE
  5
44B
100
AcDbEntity
  8
0
100
AcDbLine
 62
7
  6
CONTINUOUS
 10
5.0
 20
-1.6
 11
4.4
 21
-1.6
  0
LINE
  5
44C
100
AcDbEntity
  8
RACCORDO
100
AcDbLine
 62
7
  6
CONTINUOUS
 10
-6.25
 20
-1.6
 11
-7.6
 21
-1.6
  0
LINE
  5
44D
100
AcDbEntity
  8
0
100
AcDbLine
 62
7
  6
CONTINUOUS
 10
6.25
 20
-1.1
 11
5.1
 21
-1.1
  0
LINE
  5
44E
100
AcDbEntity
  8
RACCORDO
100
AcDbLine
 62
7
  6
CONTINUOUS
 10
5.0
 20
-1.1
 11
2.6990254643
 21
-1.1
  0
LINE
  5
44F
100
AcDbEntity
  8
RACCORDO
100
AcDbLine
 62
7
  6
CONTINUOUS
 10
-2.6990254643
 20
-1.1
 11
-5.0
 21
-1.1
  0
LINE
  5
450
100
AcDbEntity
  8
0
100
AcDbLine
 62
7
  6
CONTINUOUS
 10
-5.1
 20
-1.1
 11
-6.25
 21
-1.1
  0
LINE
  5
451
100
AcDbEntity
  8
DRAFT
100
AcDbLine
 62
7
  6
CONTINUOUS
 10
3.89
 20
-0.3
 11
2.89
 21
-0.3
  0
LINE
  5
452
100
AcDbEntity
  8
DRAFT
100
AcDbLine
 62
7
  6
CONTINUOUS
 10
-2.89
 20
-0.3
 11
-3.89
 21
-0.3
  0
LINE
  5
453
100
AcDbEntity
  8
RACCORDO
100
AcDbLine
 62
7
  6
CONTINUOUS
 10
-6.25
 20
0.05
 11
-6.15
 21
0.05
  0
LINE
  5
454
100
AcDbEntity
  8
RACCORDO
100
AcDbLine
 62
7
  6
CONTINUOUS
 10
-5.3882038597
 20
0.05
 11
5.3882038597
 21
0.05
  0
LINE
  5
455
100
AcDbEntity
  8
RACCORDO
100
AcDbLine
 62
7
  6
CONTINUOUS
 10
6.15
 20
0.05
 11
6.25
 21
0.05
  0
LINE
  5
456
100
AcDbEntity
  8
ASSI
100
AcDbLine
 62
253
  6
CONTINUOUS
 10
8.227384568
 20
-8.5773084156
 11
8.2433429652
 21
-8.5931762128
  0
LINE
  5
457
100
AcDbEntity
  8
0
100
AcDbLine
 62
7
  6
CONTINUOUS
 10
5.35
 20
-5.05
 11
5.1
 21
-4.8
  0
LINE
  5
458
100
AcDbEntity
  8
RACCORDO
100
AcDbLine
 62
7
  6
CONTINUOUS
 10
-9.4974886323
 20
19.3349933121
 11
-9.5639975984
 21
19.4681025177
  0
LINE
  5
459
100
AcDbEntity
  8
ASSI
100
AcDbLine
 62
7
  6
CONTINUOUS
 10
-9.4974886323
 20
19.3349933121
 11
-9.5639975984
 21
19.4681025177
  0
LINE
  5
45A
100
AcDbEntity
  8
ASSI
100
AcDbLine
 62
7
  6
CONTINUOUS
 10
-2.3
 20
4.7
 11
-1.790441672
 21
3.3
  0
LINE
  5
45B
100
AcDbEntity
  8
DRAFT
100
AcDbLine
 62
7
  6
CONTINUOUS
 10
-3.5440817452
 20
15.1
 11
-3.5
 21
14.85
  0
LINE
  5
45C
100
AcDbEntity
  8
ASSI
100
AcDbLine
 62
7
  6
CONTINUOUS
 10
-3.5440817452
 20
15.1
 11
-3.5
 21
14.85
  0
LINE
  5
45D
100
AcDbEntity
  8
DRAFT
100
AcDbLine
 62
7
  6
CONTINUOUS
 10
2.6312177944
 20
-11.4690591992
 11
2.5813055585
 21
-9.8181433797
  0
LINE
  5
45E
100
AcDbEntity
  8
ASSI
100
AcDbLine
 62
7
  6
CONTINUOUS
 10
2.6312177944
 20
-11.4690591992
 11
2.5813055585
 21
-9.8181433797
  0
LINE
  5
45F
100
AcDbEntity
  8
ASSI
100
AcDbLine
 62
7
  6
CONTINUOUS
 10
1.3831646234
 20
10.0
 11
1.3506731614
 21
11.5619290954
  0
LINE
  5
460
100
AcDbEntity
  8
RACCORDO
100
AcDbLine
 62
7
  6
CONTINUOUS
 10
1.215483768
 20
-8.8742640687
 11
1.2017453736
 21
-7.3
  0
LINE
  5
461
100
AcDbEntity
  8
ASSI
100
AcDbLine
 62
7
  6
CONTINUOUS
 10
1.215483768
 20
-8.8742640687
 11
1.2017453736
 21
-7.3
  0
LINE
  5
462
100
AcDbEntity
  8
0
100
AcDbLine
 62
7
  6
CONTINUOUS
 10
0.35
 20
-1.9391256665
 11
0.35
 21
0.05
  0
LINE
  5
463
100
AcDbEntity
  8
0
100
AcDbLine
 62
7
  6
CONTINUOUS
 10
0.35
 20
1.05
 11
0.35
 21
3.3404436016
  0
LINE
  5
464
100
AcDbEntity
  8
ASSI
100
AcDbLine
 62
7
  6
CONTINUOUS
 10
0.8
 20
-23.7500380762
 11
0.8
 21
-22.4
  0
LINE
  5
465
100
AcDbEntity
  8
ASSI
100
AcDbLine
 62
7
  6
CONTINUOUS
 10
0.8
 20
22.4
 11
0.8
 21
23.7500380762
  0
LINE
  5
466
100
AcDbEntity
  8
ASSI
100
AcDbLine
 62
7
  6
CONTINUOUS
 10
0.8174550649
 20
23.7325830113
 11
0.8174550649
 21
22.398254669
  0
LINE
  5
467
100
AcDbEntity
  8
ASSI
100
AcDbLine
 62
7
  6
CONTINUOUS
 10
0.8174550649
 20
-23.7325830113
 11
0.8174550649
 21
-22.398254669
  0
LINE
  5
468
100
AcDbEntity
  8
RACCORDO
100
AcDbLine
 62
7
  6
CONTINUOUS
 10
1.2
 20
-7.3
 11
1.2
 21
-8.0086887894
  0
LINE
  5
469
100
AcDbEntity
  8
ASSI
100
AcDbLine
 62
7
  6
CONTINUOUS
 10
1.2
 20
-7.3
 11
1.2
 21
-8.0086887894
  0
LINE
  5
46A
100
AcDbEntity
  8
ASSI
100
AcDbLine
 62
7
  6
CONTINUOUS
 10
1.3831646234
 20
9.9668353766
 11
1.3831646234
 21
10.0
  0
LINE
  5
46B
100
AcDbEntity
  8
ASSI
100
AcDbLine
 62
7
  6
CONTINUOUS
 10
1.44
 20
-3.0
 11
1.44
 21
-4.8
  0
LINE
  5
46C
100
AcDbEntity
  8
0
100
AcDbLine
 62
7
  6
CONTINUOUS
 10
1.9
 20
-7.0319148936
 11
1.9
 21
-6.0
  0
LINE
  5
46D
100
AcDbEntity
  8
0
100
AcDbLine
 62
7
  6
CONTINUOUS
 10
1.94
 20
-4.3
 11
1.94
 21
-3.5
  0
LINE
  5
46E
100
AcDbEntity
  8
0
100
AcDbLine
 62
7
  6
CONTINUOUS
 10
1.95
 20
-6.4
 11
1.95
 21
-5.6
  0
LINE
  5
46F
100
AcDbEntity
  8
0
100
AcDbLine
 62
253
  6
CONTINUOUS
 10
1.9949891373
 20
-6.0
 11
1.9949891373
 21
-7.1834933042
  0
LINE
  5
470
100
AcDbEntity
  8
ASSI
100
AcDbLine
 62
7
  6
CONTINUOUS
 10
2.0
 20
-6.0
 11
2.0
 21
-5.6
  0
LINE
  5
471
100
AcDbEntity
  8
ASSI
100
AcDbLine
 62
7
  6
CONTINUOUS
 10
2.1904004454
 20
9.0
 11
2.1904004454
 21
10.0
  0
LINE
  5
472
100
AcDbEntity
  8
DRAFT
100
AcDbLine
 62
7
  6
CONTINUOUS
 10
2.2
 20
9.0
 11
2.2
 21
9.2
  0
LINE
  5
473
100
AcDbEntity
  8
ASSI
100
AcDbLine
 62
7
  6
CONTINUOUS
 10
2.2
 20
9.0
 11
2.2
 21
9.6912267691
  0
LINE
  5
474
100
AcDbEntity
  8
ASSI
100
AcDbLine
 62
7
  6
CONTINUOUS
 10
2.1904004454
 20
10.0
 11
2.2065810529
 21
11.5557863506
  0
LINE
  5
475
100
AcDbEntity
  8
DRAFT
100
AcDbLine
 62
7
  6
CONTINUOUS
 10
1.5513442426
 20
-10.3473036936
 11
1.5343884837
 21
-11.4690591992
  0
LINE
  5
476
100
AcDbEntity
  8
ASSI
100
AcDbLine
 62
7
  6
CONTINUOUS
 10
1.5513442426
 20
-10.3473036936
 11
1.5343884837
 21
-11.4690591992
  0
LINE
  5
477
100
AcDbEntity
  8
0
100
AcDbLine
 62
7
  6
CONTINUOUS
 10
1.904
 20
-6.0
 11
1.9274666667
 21
-5.6
  0
LINE
  5
478
100
AcDbEntity
  8
DRAFT
100
AcDbLine
 62
7
  6
CONTINUOUS
 10
3.5440817452
 20
15.1
 11
3.5
 21
14.85
  0
LINE
  5
479
100
AcDbEntity
  8
ASSI
100
AcDbLine
 62
7
  6
CONTINUOUS
 10
3.5440817452
 20
15.1
 11
3.5
 21
14.85
  0
LINE
  5
47A
100
AcDbEntity
  8
ASSI
100
AcDbLine
 62
7
  6
CONTINUOUS
 10
1.790441672
 20
3.3
 11
2.3
 21
4.7
  0
LINE
  5
47B
100
AcDbEntity
  8
RACCORDO
100
AcDbLine
 62
7
  6
CONTINUOUS
 10
-1.9949891373
 20
-7.1834933042
 11
-1.9
 21
-7.0319148936
  0
LINE
  5
47C
100
AcDbEntity
  8
RACCORDO
100
AcDbLine
 62
253
  6
CONTINUOUS
 10
-6.25
 20
0.35
 11
-6.15
 21
0.35
  0
LINE
  5
47D
100
AcDbEntity
  8
RACCORDO
100
AcDbLine
 62
253
  6
CONTINUOUS
 10
-5.4522618275
 20
0.35
 11
5.4522618275
 21
0.35
  0
LINE
  5
47E
100
AcDbEntity
  8
RACCORDO
100
AcDbLine
 62
253
  6
CONTINUOUS
 10
6.15
 20
0.35
 11
6.25
 21
0.35
  0
LINE
  5
47F
100
AcDbEntity
  8
0
100
AcDbLine
 62
7
  6
CONTINUOUS
 10
-5.4730544373
 20
0.6
 11
-5.9
 21
0.6
  0
LINE
  5
480
100
AcDbEntity
  8
0
100
AcDbLine
 62
7
  6
CONTINUOUS
 10
5.4730544373
 20
0.6
 11
5.9
 21
0.6
  0
LINE
  5
481
100
AcDbEntity
  8
RACCORDO
100
AcDbLine
 62
253
  6
CONTINUOUS
 10
6.25
 20
0.75
 11
6.15
 21
0.75
  0
LINE
  5
482
100
AcDbEntity
  8
RACCORDO
100
AcDbLine
 62
253
  6
CONTINUOUS
 10
5.9
 20
0.75
 11
-5.9
 21
0.75
  0
LINE
  5
483
100
AcDbEntity
  8
RACCORDO
100
AcDbLine
 62
253
  6
CONTINUOUS
 10
-6.15
 20
0.75
 11
-6.25
 21
0.75
  0
LINE
  5
484
100
AcDbEntity
  8
RACCORDO
100
AcDbLine
 62
7
  6
CONTINUOUS
 10
6.25
 20
1.05
 11
6.15
 21
1.05
  0
LINE
  5
485
100
AcDbEntity
  8
RACCORDO
100
AcDbLine
 62
7
  6
CONTINUOUS
 10
5.9
 20
1.05
 11
-5.9
 21
1.05
  0
LINE
  5
486
100
AcDbEntity
  8
RACCORDO
100
AcDbLine
 62
7
  6
CONTINUOUS
 10
-6.15
 20
1.05
 11
-6.25
 21
1.05
  0
LINE
  5
487
100
AcDbEntity
  8
0
100
AcDbLine
 62
7
  6
CONTINUOUS
 10
-5.9
 20
1.1
 11
-5.4730544373
 21
1.1
  0
LINE
  5
488
100
AcDbEntity
  8
0
100
AcDbLine
 62
7
  6
CONTINUOUS
 10
5.9
 20
1.1
 11
5.4730544373
 21
1.1
  0
LINE
  5
489
100
AcDbEntity
  8
DRAFT
100
AcDbLine
 62
7
  6
CONTINUOUS
 10
3.89
 20
1.4
 11
2.89
 21
1.4
  0
LINE
  5
48A
100
AcDbEntity
  8
DRAFT
100
AcDbLine
 62
7
  6
CONTINUOUS
 10
-2.89
 20
1.4
 11
-3.89
 21
1.4
  0
LINE
  5
48B
100
AcDbEntity
  8
0
100
AcDbLine
 62
7
  6
CONTINUOUS
 10
-5.4730544373
 20
2.1
 11
-5.9
 21
2.1
  0
LINE
  5
48C
100
AcDbEntity
  8
0
100
AcDbLine
 62
7
  6
CONTINUOUS
 10
5.4730544373
 20
2.1
 11
5.9
 21
2.1
  0
LINE
  5
48D
100
AcDbEntity
  8
0
100
AcDbLine
 62
7
  6
CONTINUOUS
 10
-6.15
 20
2.4
 11
-5.4730544373
 21
2.4
  0
LINE
  5
48E
100
AcDbEntity
  8
0
100
AcDbLine
 62
7
  6
CONTINUOUS
 10
5.4730544373
 20
2.4
 11
6.15
 21
2.4
  0
LINE
  5
48F
100
AcDbEntity
  8
ASSI
100
AcDbLine
 62
253
  6
CONTINUOUS
 10
-8.7411810777
 20
9.4912572301
 11
-8.7468917584
 21
9.4969679108
  0
LINE
  5
490
100
AcDbEntity
  8
0
100
AcDbLine
 62
7
  6
CONTINUOUS
 10
4.75
 20
-3.85
 11
5.0
 21
-4.1
  0
LINE
  5
491
100
AcDbEntity
  8
0
100
AcDbLine
 62
7
  6
CONTINUOUS
 10
5.35
 20
-4.35
 11
5.1
 21
-4.1
  0
LINE
  5
492
100
AcDbEntity
  8
0
100
AcDbLine
 62
7
  6
CONTINUOUS
 10
4.75
 20
-3.15
 11
5.0
 21
-3.4
  0
LINE
  5
493
100
AcDbEntity
  8
0
100
AcDbLine
 62
7
  6
CONTINUOUS
 10
5.35
 20
-3.65
 11
5.1
 21
-3.4
  0
LINE
  5
494
100
AcDbEntity
  8
ASSI
100
AcDbLine
 62
253
  6
CONTINUOUS
 10
-8.2412572301
 20
9.9911810777
 11
-8.2471608239
 21
9.9970846715
  0
LINE
  5
495
100
AcDbEntity
  8
0
100
AcDbLine
 62
7
  6
CONTINUOUS
 10
4.75
 20
-2.45
 11
5.0
 21
-2.7
  0
LINE
  5
496
100
AcDbEntity
  8
0
100
AcDbLine
 62
7
  6
CONTINUOUS
 10
5.35
 20
-2.95
 11
5.1
 21
-2.7
  0
LINE
  5
497
100
AcDbEntity
  8
0
100
AcDbLine
 62
7
  6
CONTINUOUS
 10
5.35
 20
-2.25
 11
5.1
 21
-2.0
  0
LINE
  5
498
100
AcDbEntity
  8
ASSI
100
AcDbLine
 62
253
  6
CONTINUOUS
 10
8.7273084156
 20
-8.077384568
 11
8.7428449799
 21
-8.0929407248
  0
LINE
  5
499
100
AcDbEntity
  8
0
100
AcDbLine
 62
7
  6
CONTINUOUS
 10
2.895
 20
-5.6
 11
2.9
 21
-5.7272727273
  0
LINE
  5
49A
100
AcDbEntity
  8
ASSI
100
AcDbLine
 62
7
  6
CONTINUOUS
 10
3.1173032135
 20
21.6326967865
 11
3.1270760019
 21
21.2251044884
  0
LINE
  5
49B
100
AcDbEntity
  8
RACCORDO
100
AcDbLine
 62
7
  6
CONTINUOUS
 10
4.4550387927
 20
19.3349933121
 11
4.4559476337
 21
17.8439762139
  0
LINE
  5
49C
100
AcDbEntity
  8
ASSI
100
AcDbLine
 62
7
  6
CONTINUOUS
 10
4.4550387927
 20
19.3349933121
 11
4.4559476337
 21
17.8439762139
  0
LINE
  5
49D
100
AcDbEntity
  8
DRAFT
100
AcDbLine
 62
7
  6
CONTINUOUS
 10
2.639780026
 20
-7.3
 11
2.639780026
 21
-7.4
  0
LINE
  5
49E
100
AcDbEntity
  8
ASSI
100
AcDbLine
 62
7
  6
CONTINUOUS
 10
2.639780026
 20
-7.3
 11
2.639780026
 21
-7.4
  0
LINE
  5
49F
100
AcDbEntity
  8
DRAFT
100
AcDbLine
 62
7
  6
CONTINUOUS
 10
2.7
 20
-11.6066655363
 11
2.7
 21
-9.1836758048
  0
LINE
  5
4A0
100
AcDbEntity
  8
ASSI
100
AcDbLine
 62
7
  6
CONTINUOUS
 10
2.7
 20
-11.6066655363
 11
2.7
 21
-9.1836758048
  0
LINE
  5
4A1
100
AcDbEntity
  8
0
100
AcDbLine
 62
7
  6
CONTINUOUS
 10
2.7053571429
 20
-5.6
 11
2.7053571429
 21
-6.0
  0
LINE
  5
4A2
100
AcDbEntity
  8
0
100
AcDbLine
 62
7
  6
CONTINUOUS
 10
2.75
 20
-4.3
 11
2.75
 21
-3.5
  0
LINE
  5
4A3
100
AcDbEntity
  8
0
100
AcDbLine
 62
253
  6
CONTINUOUS
 10
2.7566802188
 20
-6.0
 11
2.7566802188
 21
-7.1835299521
  0
LINE
  5
4A4
100
AcDbEntity
  8
RACCORDO
100
AcDbLine
 62
7
  6
CONTINUOUS
 10
2.8
 20
4.2
 11
2.8
 21
6.7
  0
LINE
  5
4A5
100
AcDbEntity
  8
DRAFT
100
AcDbLine
 62
7
  6
CONTINUOUS
 10
2.89
 20
-0.3
 11
2.89
 21
0.05
  0
LINE
  5
4A6
100
AcDbEntity
  8
DRAFT
100
AcDbLine
 62
7
  6
CONTINUOUS
 10
2.89
 20
1.05
 11
2.89
 21
1.4
  0
LINE
  5
4A7
100
AcDbEntity
  8
0
100
AcDbLine
 62
7
  6
CONTINUOUS
 10
2.9
 20
-7.0127659574
 11
2.9
 21
-5.7272727273
  0
LINE
  5
4A8
100
AcDbEntity
  8
RACCORDO
100
AcDbLine
 62
7
  6
CONTINUOUS
 10
2.9305942288
 20
-10.1517377579
 11
2.9305942288
 21
-9.6482622421
  0
LINE
  5
4A9
100
AcDbEntity
  8
ASSI
100
AcDbLine
 62
7
  6
CONTINUOUS
 10
2.9305942288
 20
-10.1517377579
 11
2.9305942288
 21
-9.6482622421
  0
LINE
  5
4AA
100
AcDbEntity
  8
RACCORDO
100
AcDbLine
 62
7
  6
CONTINUOUS
 10
3.0
 20
2.9
 11
3.0
 21
4.2
  0
LINE
  5
4AB
100
AcDbEntity
  8
ASSI
100
AcDbLine
 62
7
  6
CONTINUOUS
 10
3.05
 20
-22.1325449336
 11
3.05
 21
-21.7
  0
LINE
  5
4AC
100
AcDbEntity
  8
ASSI
100
AcDbLine
 62
7
  6
CONTINUOUS
 10
3.05
 20
21.7
 11
3.05
 21
22.1325449336
  0
LINE
  5
4AD
100
AcDbEntity
  8
DRAFT
100
AcDbLine
 62
7
  6
CONTINUOUS
 10
3.0982991226
 20
-9.4220740231
 11
3.0982991226
 21
-9.25
  0
LINE
  5
4AE
100
AcDbEntity
  8
ASSI
100
AcDbLine
 62
7
  6
CONTINUOUS
 10
3.0982991226
 20
-9.4220740231
 11
3.0982991226
 21
-9.25
  0
LINE
  5
4AF
100
AcDbEntity
  8
ASSI
100
AcDbLine
 62
7
  6
CONTINUOUS
 10
3.1351059998
 20
21.2252970227
 11
3.1351059998
 21
20.8901985088
  0
LINE
  5
4B0
100
AcDbEntity
  8
ASSI
100
AcDbLine
 62
7
  6
CONTINUOUS
 10
3.1351059998
 20
-20.8901985088
 11
3.1351059998
 21
-21.2252970227
  0
LINE
  5
4B1
100
AcDbEntity
  8
ASSI
100
AcDbLine
 62
253
  6
CONTINUOUS
 10
3.3850964806
 20
21.2252970227
 11
3.3850964806
 21
20.8
  0
LINE
  5
4B2
100
AcDbEntity
  8
ASSI
100
AcDbLine
 62
253
  6
CONTINUOUS
 10
3.3850964806
 20
-20.8
 11
3.3850964806
 21
-21.2252970227
  0
LINE
  5
4B3
100
AcDbEntity
  8
RACCORDO
100
AcDbLine
 62
7
  6
CONTINUOUS
 10
3.4
 20
15.5
 11
3.4
 21
14.1019186513
  0
LINE
  5
4B4
100
AcDbEntity
  8
ASSI
100
AcDbLine
 62
7
  6
CONTINUOUS
 10
3.44
 20
-1.9
 11
3.44
 21
-3.0
  0
LINE
  5
4B5
100
AcDbEntity
  8
ASSI
100
AcDbLine
 62
7
  6
CONTINUOUS
 10
3.5
 20
-23.7325830113
 11
3.5
 21
-22.3825449351
  0
LINE
  5
4B6
100
AcDbEntity
  8
DRAFT
100
AcDbLine
 62
7
  6
CONTINUOUS
 10
3.5
 20
14.0
 11
3.5
 21
14.85
  0
LINE
  5
4B7
100
AcDbEntity
  8
ASSI
100
AcDbLine
 62
7
  6
CONTINUOUS
 10
3.5
 20
14.0
 11
3.5
 21
14.85
  0
LINE
  5
4B8
100
AcDbEntity
  8
ASSI
100
AcDbLine
 62
7
  6
CONTINUOUS
 10
3.5
 20
22.3825449351
 11
3.5
 21
23.7325830113
  0
LINE
  5
4B9
100
AcDbEntity
  8
DRAFT
100
AcDbLine
 62
7
  6
CONTINUOUS
 10
3.5440817452
 20
15.4965092529
 11
3.5440817452
 21
15.1
  0
LINE
  5
4BA
100
AcDbEntity
  8
ASSI
100
AcDbLine
 62
7
  6
CONTINUOUS
 10
3.5440817452
 20
15.4952002227
 11
3.5440817452
 21
15.1
  0
LINE
  5
4BB
100
AcDbEntity
  8
ASSI
100
AcDbLine
 62
253
  6
CONTINUOUS
 10
3.5806626995
 20
23.6519203118
 11
3.5806609125
 21
22.3018840226
  0
LINE
  5
4BC
100
AcDbEntity
  8
ASSI
100
AcDbLine
 62
253
  6
CONTINUOUS
 10
3.5806609125
 20
-22.3018840226
 11
3.5806626995
 21
-23.6519203118
  0
LINE
  5
4BD
100
AcDbEntity
  8
0
100
AcDbLine
 62
7
  6
CONTINUOUS
 10
3.8
 20
-9.2
 11
3.8
 21
-7.2617021277
  0
LINE
  5
4BE
100
AcDbEntity
  8
RACCORDO
100
AcDbLine
 62
253
  6
CONTINUOUS
 10
3.8445737581
 20
17.4555023943
 11
3.8445737581
 21
20.0087268678
  0
LINE
  5
4BF
100
AcDbEntity
  8
ASSI
100
AcDbLine
 62
253
  6
CONTINUOUS
 10
3.8445737581
 20
17.4555023943
 11
3.8445737581
 21
20.0087268678
  0
LINE
  5
4C0
100
AcDbEntity
  8
DRAFT
100
AcDbLine
 62
7
  6
CONTINUOUS
 10
3.89
 20
-0.3
 11
3.89
 21
0.05
  0
LINE
  5
4C1
100
AcDbEntity
  8
DRAFT
100
AcDbLine
 62
7
  6
CONTINUOUS
 10
3.89
 20
1.05
 11
3.89
 21
1.4
  0
LINE
  5
4C2
100
AcDbEntity
  8
0
100
AcDbLine
 62
7
  6
CONTINUOUS
 10
4.0
 20
-2.0
 11
4.0
 21
-3.5
  0
LINE
  5
4C3
100
AcDbEntity
  8
DRAFT
100
AcDbLine
 62
7
  6
CONTINUOUS
 10
4.1052361207
 20
-5.7272727273
 11
4.1052361207
 21
-6.0
  0
LINE
  5
4C4
100
AcDbEntity
  8
DRAFT
100
AcDbLine
 62
7
  6
CONTINUOUS
 10
4.2003589796
 20
-6.0
 11
4.2003589796
 21
-5.6
  0
LINE
  5
4C5
100
AcDbEntity
  8
RACCORDO
100
AcDbLine
 62
253
  6
CONTINUOUS
 10
4.3444976057
 20
17.9554262419
 11
4.3444976057
 21
20.0044395863
  0
LINE
  5
4C6
100
AcDbEntity
  8
ASSI
100
AcDbLine
 62
253
  6
CONTINUOUS
 10
4.3444976057
 20
17.9554262419
 11
4.3444976057
 21
20.0044395863
  0
LINE
  5
4C7
100
AcDbEntity
  8
ASSI
100
AcDbLine
 62
253
  6
CONTINUOUS
 10
4.3518840226
 20
23.6519220988
 11
4.3518840226
 21
22.3018840226
  0
LINE
  5
4C8
100
AcDbEntity
  8
ASSI
100
AcDbLine
 62
253
  6
CONTINUOUS
 10
4.3518840226
 20
-22.3018840226
 11
4.3518840226
 21
-23.6519220988
  0
LINE
  5
4C9
100
AcDbEntity
  8
ASSI
100
AcDbLine
 62
7
  6
CONTINUOUS
 10
4.3539971429
 20
-23.5393800954
 11
4.3539971429
 21
-22.8606199046
  0
LINE
  5
4CA
100
AcDbEntity
  8
ASSI
100
AcDbLine
 62
7
  6
CONTINUOUS
 10
4.3539971429
 20
22.8606199046
 11
4.3539971429
 21
23.5393800954
  0
LINE
  5
4CB
100
AcDbEntity
  8
0
100
AcDbLine
 62
7
  6
CONTINUOUS
 10
4.4
 20
-1.6
 11
4.4
 21
-2.0
  0
LINE
  5
4CC
100
AcDbEntity
  8
0
100
AcDbLine
 62
7
  6
CONTINUOUS
 10
4.4
 20
-6.0
 11
4.4
 21
-7.0127659574
  0
LINE
  5
4CD
100
AcDbEntity
  8
RACCORDO
100
AcDbLine
 62
7
  6
CONTINUOUS
 10
4.4057426494
 20
19.7676913781
 11
4.4057426494
 21
19.9738193966
  0
LINE
  5
4CE
100
AcDbEntity
  8
ASSI
100
AcDbLine
 62
7
  6
CONTINUOUS
 10
4.4057426494
 20
19.7676913781
 11
4.4057426494
 21
19.9738193966
  0
LINE
  5
4CF
100
AcDbEntity
  8
ASSI
100
AcDbLine
 62
7
  6
CONTINUOUS
 10
4.45
 20
23.7500380762
 11
4.45
 21
23.4179449472
  0
LINE
  5
4D0
100
AcDbEntity
  8
ASSI
100
AcDbLine
 62
7
  6
CONTINUOUS
 10
4.45
 20
22.9820550528
 11
4.45
 21
22.4
  0
LINE
  5
4D1
100
AcDbEntity
  8
ASSI
100
AcDbLine
 62
7
  6
CONTINUOUS
 10
4.45
 20
-22.4
 11
4.45
 21
-22.9820550528
  0
LINE
  5
4D2
100
AcDbEntity
  8
ASSI
100
AcDbLine
 62
7
  6
CONTINUOUS
 10
4.45
 20
-23.4179449472
 11
4.45
 21
-23.7500380762
  0
LINE
  5
4D3
100
AcDbEntity
  8
RACCORDO
100
AcDbLine
 62
7
  6
CONTINUOUS
 10
4.0536778182
 20
16.8790652807
 11
4.0441923537
 21
15.3385854114
  0
LINE
  5
4D4
100
AcDbEntity
  8
ASSI
100
AcDbLine
 62
7
  6
CONTINUOUS
 10
4.0706736937
 20
15.3438299223
 11
4.0801268653
 21
16.8790652807
  0
LINE
  5
4D5
100
AcDbEntity
  8
DRAFT
100
AcDbLine
 62
7
  6
CONTINUOUS
 10
3.7536149133
 20
15.5068795788
 11
3.7636147059
 21
16.5890021684
  0
LINE
  5
4D6
100
AcDbEntity
  8
RACCORDO
100
AcDbLine
 62
7
  6
CONTINUOUS
 10
2.5791365211
 20
-8.8742640687
 11
2.6066154026
 21
-7.3
  0
LINE
  5
4D7
100
AcDbEntity
  8
ASSI
100
AcDbLine
 62
7
  6
CONTINUOUS
 10
2.5791365211
 20
-8.8742640687
 11
2.6066154026
 21
-7.3
  0
LINE
  5
4D8
100
AcDbEntity
  8
DRAFT
100
AcDbLine
 62
7
  6
CONTINUOUS
 10
4.1076796437
 20
-5.6
 11
4.1052361207
 21
-5.7272727273
  0
LINE
  5
4D9
100
AcDbEntity
  8
ASSI
100
AcDbLine
 62
7
  6
CONTINUOUS
 10
3.1270760019
 20
-21.2251044884
 11
3.1173032135
 21
-21.6326967865
  0
LINE
  5
4DA
100
AcDbEntity
  8
RACCORDO
100
AcDbLine
 62
7
  6
CONTINUOUS
 10
6.4491732021
 20
19.3349933121
 11
6.471338355
 21
19.4681025177
  0
LINE
  5
4DB
100
AcDbEntity
  8
ASSI
100
AcDbLine
 62
7
  6
CONTINUOUS
 10
6.4491732021
 20
19.3349933121
 11
6.471338355
 21
19.4681025177
  0
LINE
  5
4DC
100
AcDbEntity
  8
DRAFT
100
AcDbLine
 62
7
  6
CONTINUOUS
 10
1.5343884837
 20
-11.4690591992
 11
1.4256965084
 21
-11.9039927292
  0
LINE
  5
4DD
100
AcDbEntity
  8
ASSI
100
AcDbLine
 62
7
  6
CONTINUOUS
 10
1.5343884837
 20
-11.4690591992
 11
1.4271045151
 21
-11.8983585566
  0
LINE
  5
4DE
100
AcDbEntity
  8
ASSI
100
AcDbLine
 62
7
  6
CONTINUOUS
 10
-2.6312177944
 20
-11.4690591992
 11
-2.7
 21
-11.6066655363
  0
LINE
  5
4DF
100
AcDbEntity
  8
DRAFT
100
AcDbLine
 62
7
  6
CONTINUOUS
 10
-2.8482096865
 20
-11.9031752497
 11
-2.8466225454
 21
-11.9
  0
LINE
  5
4E0
100
AcDbEntity
  8
RACCORDO
100
AcDbLine
 62
7
  6
CONTINUOUS
 10
-6.4340630273
 20
-20.7681160106
 11
-6.5872686779
 21
-21.0745506493
  0
LINE
  5
4E1
100
AcDbEntity
  8
ASSI
100
AcDbLine
 62
7
  6
CONTINUOUS
 10
-6.4345981693
 20
-20.769186376
 11
-6.5872686779
 21
-21.0745506493
  0
LINE
  5
4E2
100
AcDbEntity
  8
RACCORDO
100
AcDbLine
 62
7
  6
CONTINUOUS
 10
-2.7
 20
2.6
 11
-1.9232885654
 21
2.6
  0
LINE
  5
4E3
100
AcDbEntity
  8
RACCORDO
100
AcDbLine
 62
7
  6
CONTINUOUS
 10
1.9232885654
 20
2.6
 11
2.7
 21
2.6
  0
LINE
  5
4E4
100
AcDbEntity
  8
RACCORDO
100
AcDbLine
 62
7
  6
CONTINUOUS
 10
7.6
 20
3.4
 11
6.25
 21
3.4
  0
LINE
  5
4E5
100
AcDbEntity
  8
RACCORDO
100
AcDbLine
 62
7
  6
CONTINUOUS
 10
-6.25
 20
3.4
 11
-7.6
 21
3.4
  0
LINE
  5
4E6
100
AcDbEntity
  8
RACCORDO
100
AcDbLine
 62
7
  6
CONTINUOUS
 10
-6.25
 20
4.2
 11
-2.8
 21
4.2
  0
LINE
  5
4E7
100
AcDbEntity
  8
RACCORDO
100
AcDbLine
 62
7
  6
CONTINUOUS
 10
2.8
 20
4.2
 11
6.25
 21
4.2
  0
LINE
  5
4E8
100
AcDbEntity
  8
0
100
AcDbLine
 62
7
  6
CONTINUOUS
 10
5.35
 20
-1.55
 11
5.1
 21
-1.3
  0
LINE
  5
4E9
100
AcDbEntity
  8
ASSI
100
AcDbLine
 62
7
  6
CONTINUOUS
 10
-2.2025723689
 20
9.9911810777
 11
-2.2068746908
 21
9.9997863769
  0
LINE
  5
4EA
100
AcDbEntity
  8
0
100
AcDbLine
 62
7
  6
CONTINUOUS
 10
-6.5872686779
 20
21.0745506493
 11
-6.4738193966
 21
20.8476348052
  0
LINE
  5
4EB
100
AcDbEntity
  8
ASSI
100
AcDbLine
 62
7
  6
CONTINUOUS
 10
-6.5872686779
 20
21.0745506493
 11
-6.4738193966
 21
20.8476348052
  0
LINE
  5
4EC
100
AcDbEntity
  8
0
100
AcDbLine
 62
7
  6
CONTINUOUS
 10
3.7221231691
 20
-3.5
 11
3.44
 21
-1.9
  0
LINE
  5
4ED
100
AcDbEntity
  8
RACCORDO
100
AcDbLine
 62
253
  6
CONTINUOUS
 10
6.5872686779
 20
-20.0914350444
 11
6.4284810881
 21
-16.8831205658
  0
LINE
  5
4EE
100
AcDbEntity
  8
ASSI
100
AcDbLine
 62
253
  6
CONTINUOUS
 10
6.5872686779
 20
-20.0914350444
 11
6.4292059967
 21
-16.8977673961
  0
LINE
  5
4EF
100
AcDbEntity
  8
RACCORDO
100
AcDbLine
 62
253
  6
CONTINUOUS
 10
6.88682548
 20
-19.7872686779
 11
6.7280572421
 21
-16.5793452061
  0
LINE
  5
4F0
100
AcDbEntity
  8
ASSI
100
AcDbLine
 62
253
  6
CONTINUOUS
 10
6.88682548
 20
-19.7872686779
 11
6.7287578995
 21
-16.5935020372
  0
LINE
  5
4F1
100
AcDbEntity
  8
ASSI
100
AcDbLine
 62
253
  6
CONTINUOUS
 10
7.2
 20
-23.3515746082
 11
7.2135886019
 21
-23.8010362971
  0
LINE
  5
4F2
100
AcDbEntity
  8
DRAFT
100
AcDbLine
 62
7
  6
CONTINUOUS
 10
5.9923203563
 20
-5.6
 11
6.0
 21
-6.0
  0
LINE
  5
4F3
100
AcDbEntity
  8
0
100
AcDbLine
 62
7
  6
CONTINUOUS
 10
4.85
 20
-4.8
 11
4.85
 21
-4.3
  0
LINE
  5
4F4
100
AcDbEntity
  8
0
100
AcDbLine
 62
7
  6
CONTINUOUS
 10
4.85
 20
-3.95
 11
4.85
 21
-3.75
  0
LINE
  5
4F5
100
AcDbEntity
  8
0
100
AcDbLine
 62
7
  6
CONTINUOUS
 10
4.85
 20
-3.25
 11
4.85
 21
-3.1
  0
LINE
  5
4F6
100
AcDbEntity
  8
ASSI
100
AcDbLine
 62
7
  6
CONTINUOUS
 10
5.0
 20
-5.6
 11
5.0
 21
-4.3
  0
LINE
  5
4F7
100
AcDbEntity
  8
0
100
AcDbLine
 62
7
  6
CONTINUOUS
 10
5.0
 20
-4.3
 11
5.0
 21
-1.1
  0
LINE
  5
4F8
100
AcDbEntity
  8
0
100
AcDbLine
 62
7
  6
CONTINUOUS
 10
5.1
 20
-5.6
 11
5.1
 21
-5.3
  0
LINE
  5
4F9
100
AcDbEntity
  8
0
100
AcDbLine
 62
7
  6
CONTINUOUS
 10
5.1
 20
-4.8
 11
5.1
 21
-4.6
  0
LINE
  5
4FA
100
AcDbEntity
  8
0
100
AcDbLine
 62
7
  6
CONTINUOUS
 10
5.1
 20
-4.1
 11
5.1
 21
-3.9
  0
LINE
  5
4FB
100
AcDbEntity
  8
0
100
AcDbLine
 62
7
  6
CONTINUOUS
 10
5.1
 20
-3.4
 11
5.1
 21
-3.2
  0
LINE
  5
4FC
100
AcDbEntity
  8
0
100
AcDbLine
 62
7
  6
CONTINUOUS
 10
5.1
 20
-2.7
 11
5.1
 21
-2.5
  0
LINE
  5
4FD
100
AcDbEntity
  8
0
100
AcDbLine
 62
7
  6
CONTINUOUS
 10
5.1
 20
-2.0
 11
5.1
 21
-1.8
  0
LINE
  5
4FE
100
AcDbEntity
  8
0
100
AcDbLine
 62
7
  6
CONTINUOUS
 10
5.1
 20
-1.3
 11
5.1
 21
-1.1
  0
LINE
  5
4FF
100
AcDbEntity
  8
ASSI
100
AcDbLine
 62
7
  6
CONTINUOUS
 10
5.1254493507
 20
-21.0745506493
 11
5.1254493507
 21
-20.0872686779
  0
LINE
  5
500
100
AcDbEntity
  8
ASSI
100
AcDbLine
 62
7
  6
CONTINUOUS
 10
5.1254493507
 20
20.0872686779
 11
5.1254493507
 21
21.0745506493
  0
LINE
  5
501
100
AcDbEntity
  8
0
100
AcDbLine
 62
7
  6
CONTINUOUS
 10
5.3523651948
 20
19.9738193966
 11
5.3523651948
 21
20.8476348052
  0
LINE
  5
502
100
AcDbEntity
  8
ASSI
100
AcDbLine
 62
7
  6
CONTINUOUS
 10
5.3523651948
 20
19.9738193966
 11
5.3523651948
 21
20.8476348052
  0
LINE
  5
503
100
AcDbEntity
  8
0
100
AcDbLine
 62
7
  6
CONTINUOUS
 10
5.4730544373
 20
0.55
 11
5.4730544373
 21
0.6
  0
LINE
  5
504
100
AcDbEntity
  8
0
100
AcDbLine
 62
7
  6
CONTINUOUS
 10
5.4730544373
 20
1.1
 11
5.4730544373
 21
2.4
  0
LINE
  5
505
100
AcDbEntity
  8
0
100
AcDbLine
 62
7
  6
CONTINUOUS
 10
5.6730544373
 20
-1.1
 11
5.6730544373
 21
0.6
  0
LINE
  5
506
100
AcDbEntity
  8
0
100
AcDbLine
 62
7
  6
CONTINUOUS
 10
5.6730544373
 20
2.1
 11
5.6730544373
 21
2.4
  0
LINE
  5
507
100
AcDbEntity
  8
0
100
AcDbLine
 62
7
  6
CONTINUOUS
 10
5.8230544373
 20
-1.1
 11
5.8230544373
 21
0.6
  0
LINE
  5
508
100
AcDbEntity
  8
0
100
AcDbLine
 62
7
  6
CONTINUOUS
 10
5.8230544373
 20
2.1
 11
5.8230544373
 21
2.4
  0
LINE
  5
509
100
AcDbEntity
  8
DRAFT
100
AcDbLine
 62
7
  6
CONTINUOUS
 10
5.8996410204
 20
-6.0
 11
5.8996410204
 21
-5.6
  0
LINE
  5
50A
100
AcDbEntity
  8
0
100
AcDbLine
 62
7
  6
CONTINUOUS
 10
5.9
 20
0.6
 11
5.9
 21
2.1
  0
LINE
  5
50B
100
AcDbEntity
  8
0
100
AcDbLine
 62
7
  6
CONTINUOUS
 10
6.15
 20
2.4
 11
6.15
 21
-1.1
  0
LINE
  5
50C
100
AcDbEntity
  8
RACCORDO
100
AcDbLine
 62
7
  6
CONTINUOUS
 10
6.25
 20
4.8024315771
 11
6.25
 21
3.4
  0
LINE
  5
50D
100
AcDbEntity
  8
0
100
AcDbLine
 62
7
  6
CONTINUOUS
 10
6.25
 20
-3.1
 11
6.25
 21
3.4
  0
LINE
  5
50E
100
AcDbEntity
  8
ASSI
100
AcDbLine
 62
7
  6
CONTINUOUS
 10
6.2543634339
 20
-9.2
 11
6.2543634339
 21
-9.426437457
  0
LINE
  5
50F
100
AcDbEntity
  8
RACCORDO
100
AcDbLine
 62
7
  6
CONTINUOUS
 10
6.4738193966
 20
20.8476348052
 11
6.4738193966
 21
19.7676913781
  0
LINE
  5
510
100
AcDbEntity
  8
ASSI
100
AcDbLine
 62
7
  6
CONTINUOUS
 10
6.4738193966
 20
20.8476348052
 11
6.4738193966
 21
19.7676913781
  0
LINE
  5
511
100
AcDbEntity
  8
0
100
AcDbLine
 62
7
  6
CONTINUOUS
 10
6.5
 20
9.0
 11
6.5
 21
8.8
  0
LINE
  5
512
100
AcDbEntity
  8
RACCORDO
100
AcDbLine
 62
7
  6
CONTINUOUS
 10
6.5872686779
 20
21.0745506493
 11
6.5872686779
 21
20.0914350444
  0
LINE
  5
513
100
AcDbEntity
  8
ASSI
100
AcDbLine
 62
7
  6
CONTINUOUS
 10
6.5872686779
 20
21.0745506493
 11
6.5872686779
 21
20.0914350444
  0
LINE
  5
514
100
AcDbEntity
  8
RACCORDO
100
AcDbLine
 62
7
  6
CONTINUOUS
 10
6.5872686779
 20
-20.0914350444
 11
6.5872686779
 21
-21.0745506493
  0
LINE
  5
515
100
AcDbEntity
  8
ASSI
100
AcDbLine
 62
7
  6
CONTINUOUS
 10
6.5872686779
 20
-20.0914350444
 11
6.5872686779
 21
-21.0745506493
  0
LINE
  5
516
100
AcDbEntity
  8
RACCORDO
100
AcDbLine
 62
7
  6
CONTINUOUS
 10
6.4485495676
 20
17.288605614
 11
6.4491732021
 21
19.3349933121
  0
LINE
  5
517
100
AcDbEntity
  8
ASSI
100
AcDbLine
 62
7
  6
CONTINUOUS
 10
6.4485495676
 20
17.288605614
 11
6.4491732021
 21
19.3349933121
  0
LINE
  5
518
100
AcDbEntity
  8
ASSI
100
AcDbLine
 62
253
  6
CONTINUOUS
 10
7.2135886019
 20
23.8010362971
 11
7.2
 21
23.3515746082
  0
LINE
  5
519
100
AcDbEntity
  8
RACCORDO
100
AcDbLine
 62
253
  6
CONTINUOUS
 10
6.5872686779
 20
20.0914350444
 11
6.4485495676
 21
17.288605614
  0
LINE
  5
51A
100
AcDbEntity
  8
ASSI
100
AcDbLine
 62
253
  6
CONTINUOUS
 10
6.5872686779
 20
20.0914350444
 11
6.4485495676
 21
17.288605614
  0
LINE
  5
51B
100
AcDbEntity
  8
RACCORDO
100
AcDbLine
 62
253
  6
CONTINUOUS
 10
6.88682548
 20
19.7872686779
 11
6.7480131011
 21
16.9825547473
  0
LINE
  5
51C
100
AcDbEntity
  8
ASSI
100
AcDbLine
 62
253
  6
CONTINUOUS
 10
6.88682548
 20
19.7872686779
 11
6.7480131011
 21
16.9825547473
  0
LINE
  5
51D
100
AcDbEntity
  8
RACCORDO
100
AcDbLine
 62
7
  6
CONTINUOUS
 10
1.4280188313
 20
-10.5939733021
 11
1.5513442426
 21
-10.3473036936
  0
LINE
  5
51E
100
AcDbEntity
  8
ASSI
100
AcDbLine
 62
7
  6
CONTINUOUS
 10
1.4294767141
 20
-10.5910573144
 11
1.5513442426
 21
-10.3473036936
  0
LINE
  5
51F
100
AcDbEntity
  8
0
100
AcDbLine
 62
7
  6
CONTINUOUS
 10
5.1
 20
-1.8
 11
5.35
 21
-1.55
  0
LINE
  5
520
100
AcDbEntity
  8
0
100
AcDbLine
 62
7
  6
CONTINUOUS
 10
5.0
 20
-2.2
 11
4.75
 21
-2.45
  0
LINE
  5
521
100
AcDbEntity
  8
0
100
AcDbLine
 62
7
  6
CONTINUOUS
 10
5.1
 20
-2.5
 11
5.35
 21
-2.25
  0
LINE
  5
522
100
AcDbEntity
  8
RACCORDO
100
AcDbLine
 62
7
  6
CONTINUOUS
 10
-1.2086507125
 20
-9.0086507125
 11
-1.2164024351
 21
-9.0164024351
  0
LINE
  5
523
100
AcDbEntity
  8
ASSI
100
AcDbLine
 62
7
  6
CONTINUOUS
 10
-1.2086507125
 20
-9.0086507125
 11
-1.2164024351
 21
-9.0164024351
  0
LINE
  5
524
100
AcDbEntity
  8
0
100
AcDbLine
 62
7
  6
CONTINUOUS
 10
5.0
 20
-2.9
 11
4.75
 21
-3.15
  0
LINE
  5
525
100
AcDbEntity
  8
0
100
AcDbLine
 62
7
  6
CONTINUOUS
 10
5.1
 20
-3.2
 11
5.35
 21
-2.95
  0
LINE
  5
526
100
AcDbEntity
  8
0
100
AcDbLine
 62
7
  6
CONTINUOUS
 10
5.0
 20
-3.6
 11
4.75
 21
-3.85
  0
LINE
  5
527
100
AcDbEntity
  8
0
100
AcDbLine
 62
7
  6
CONTINUOUS
 10
5.1
 20
-3.9
 11
5.35
 21
-3.65
  0
LINE
  5
528
100
AcDbEntity
  8
RACCORDO
100
AcDbLine
 62
7
  6
CONTINUOUS
 10
-9.4343451125
 20
-9.4165278552
 11
-9.5295904633
 21
-9.4482698575
  0
LINE
  5
529
100
AcDbEntity
  8
ASSI
100
AcDbLine
 62
7
  6
CONTINUOUS
 10
-9.435465772
 20
-9.4169013325
 11
-9.5295904633
 21
-9.4482698575
  0
LINE
  5
52A
100
AcDbEntity
  8
ASSI
100
AcDbLine
 62
7
  6
CONTINUOUS
 10
2.3
 20
4.7
 11
-2.3
 21
4.7
  0
LINE
  5
52B
100
AcDbEntity
  8
RACCORDO
100
AcDbLine
 62
253
  6
CONTINUOUS
 10
-6.25
 20
4.8024315771
 11
-2.8
 21
4.8024315771
  0
LINE
  5
52C
100
AcDbEntity
  8
RACCORDO
100
AcDbLine
 62
253
  6
CONTINUOUS
 10
2.8
 20
4.8024315771
 11
6.25
 21
4.8024315771
  0
LINE
  5
52D
100
AcDbEntity
  8
RACCORDO
100
AcDbLine
 62
253
  6
CONTINUOUS
 10
7.0519868989
 20
16.9825547473
 11
6.91317452
 21
19.7872686779
  0
LINE
  5
52E
100
AcDbEntity
  8
ASSI
100
AcDbLine
 62
253
  6
CONTINUOUS
 10
7.0519868989
 20
16.9825547473
 11
6.91317452
 21
19.7872686779
  0
LINE
  5
52F
100
AcDbEntity
  8
RACCORDO
100
AcDbLine
 62
253
  6
CONTINUOUS
 10
7.3514504324
 20
17.288605614
 11
7.2127313221
 21
20.0914350444
  0
LINE
  5
530
100
AcDbEntity
  8
ASSI
100
AcDbLine
 62
253
  6
CONTINUOUS
 10
7.3514504324
 20
17.288605614
 11
7.2127313221
 21
20.0914350444
  0
LINE
  5
531
100
AcDbEntity
  8
ASSI
100
AcDbLine
 62
253
  6
CONTINUOUS
 10
7.3982849591
 20
-23.1226497308
 11
7.4135581657
 21
-23.6278320349
  0
LINE
  5
532
100
AcDbEntity
  8
ASSI
100
AcDbLine
 62
7
  6
CONTINUOUS
 10
8.5131674569
 20
-23.5581814706
 11
8.5
 21
-23.1226497308
  0
LINE
  5
533
100
AcDbEntity
  8
DRAFT
100
AcDbLine
 62
7
  6
CONTINUOUS
 10
7.6389602491
 20
16.8514272135
 11
7.6513850867
 21
15.5068795788
  0
LINE
  5
534
100
AcDbEntity
  8
ASSI
100
AcDbLine
 62
7
  6
CONTINUOUS
 10
7.3232622727
 20
17.1406761428
 11
7.3343263063
 21
15.3438299223
  0
LINE
  5
535
100
AcDbEntity
  8
DRAFT
100
AcDbLine
 62
7
  6
CONTINUOUS
 10
7.7585765101
 20
14.2855051591
 11
7.7583308322
 21
14.3290471724
  0
LINE
  5
536
100
AcDbEntity
  8
ASSI
100
AcDbLine
 62
7
  6
CONTINUOUS
 10
7.7197270663
 20
14.281659352
 11
7.7194499734
 21
14.3367473524
  0
LINE
  5
537
100
AcDbEntity
  8
RACCORDO
100
AcDbLine
 62
7
  6
CONTINUOUS
 10
7.3508267979
 20
19.3349933121
 11
7.3514504324
 21
17.288605614
  0
LINE
  5
538
100
AcDbEntity
  8
ASSI
100
AcDbLine
 62
7
  6
CONTINUOUS
 10
7.3508267979
 20
19.3349933121
 11
7.3514504324
 21
17.288605614
  0
LINE
  5
539
100
AcDbEntity
  8
0
100
AcDbLine
 62
7
  6
CONTINUOUS
 10
7.05
 20
8.7
 11
7.05
 21
9.0
  0
LINE
  5
53A
100
AcDbEntity
  8
0
100
AcDbLine
 62
7
  6
CONTINUOUS
 10
7.0936363636
 20
-8.9884076232
 11
7.0936363636
 21
-8.4559919581
  0
LINE
  5
53B
100
AcDbEntity
  8
ASSI
100
AcDbLine
 62
7
  6
CONTINUOUS
 10
7.2
 20
-24.300030461
 11
7.2
 21
-22.4
  0
LINE
  5
53C
100
AcDbEntity
  8
ASSI
100
AcDbLine
 62
7
  6
CONTINUOUS
 10
7.2
 20
22.4
 11
7.2
 21
24.300030461
  0
LINE
  5
53D
100
AcDbEntity
  8
RACCORDO
100
AcDbLine
 62
7
  6
CONTINUOUS
 10
7.2127313221
 20
20.9872686779
 11
7.2127313221
 21
20.0914350444
  0
LINE
  5
53E
100
AcDbEntity
  8
ASSI
100
AcDbLine
 62
7
  6
CONTINUOUS
 10
7.2127313221
 20
20.9872686779
 11
7.2127313221
 21
20.0914350444
  0
LINE
  5
53F
100
AcDbEntity
  8
RACCORDO
100
AcDbLine
 62
7
  6
CONTINUOUS
 10
7.2127313221
 20
-20.0914350444
 11
7.2127313221
 21
-20.9872686779
  0
LINE
  5
540
100
AcDbEntity
  8
ASSI
100
AcDbLine
 62
7
  6
CONTINUOUS
 10
7.2127313221
 20
-20.0914350444
 11
7.2127313221
 21
-20.9872686779
  0
LINE
  5
541
100
AcDbEntity
  8
ASSI
100
AcDbLine
 62
253
  6
CONTINUOUS
 10
7.2140249785
 20
24.2368706193
 11
7.2140249785
 21
23.8443375673
  0
LINE
  5
542
100
AcDbEntity
  8
ASSI
100
AcDbLine
 62
253
  6
CONTINUOUS
 10
7.2140249785
 20
-23.8443375673
 11
7.2140249785
 21
-24.2368706193
  0
LINE
  5
543
100
AcDbEntity
  8
ASSI
100
AcDbLine
 62
7
  6
CONTINUOUS
 10
7.2273084156
 20
-9.426437457
 11
7.2273084156
 21
-9.2
  0
LINE
  5
544
100
AcDbEntity
  8
0
100
AcDbLine
 62
7
  6
CONTINUOUS
 10
7.2427272727
 20
-8.1873013235
 11
7.2427272727
 21
-7.2617021277
  0
LINE
  5
545
100
AcDbEntity
  8
0
100
AcDbLine
 62
7
  6
CONTINUOUS
 10
7.25
 20
8.8079357678
 11
7.25
 21
8.7
  0
LINE
  5
546
100
AcDbEntity
  8
0
100
AcDbLine
 62
7
  6
CONTINUOUS
 10
7.25
 20
-7.2574468085
 11
7.25
 21
-8.2302016061
  0
LINE
  5
547
100
AcDbEntity
  8
RACCORDO
100
AcDbLine
 62
7
  6
CONTINUOUS
 10
7.3261806034
 20
20.8738193966
 11
7.3261806034
 21
19.7676913781
  0
LINE
  5
548
100
AcDbEntity
  8
ASSI
100
AcDbLine
 62
7
  6
CONTINUOUS
 10
7.3261806034
 20
20.8738193966
 11
7.3261806034
 21
19.7676913781
  0
LINE
  5
549
100
AcDbEntity
  8
0
100
AcDbLine
 62
7
  6
CONTINUOUS
 10
7.4
 20
-7.2361702128
 11
7.4
 21
-7.1191489362
  0
LINE
  5
54A
100
AcDbEntity
  8
ASSI
100
AcDbLine
 62
253
  6
CONTINUOUS
 10
7.4139945176
 20
24.2368706193
 11
7.4139945176
 21
23.8443359174
  0
LINE
  5
54B
100
AcDbEntity
  8
ASSI
100
AcDbLine
 62
253
  6
CONTINUOUS
 10
7.4139945176
 20
-23.8443375673
 11
7.4139945176
 21
-24.2368735057
  0
LINE
  5
54C
100
AcDbEntity
  8
RACCORDO
100
AcDbLine
 62
253
  6
CONTINUOUS
 10
7.6
 20
8.7
 11
7.6
 21
-5.6
  0
LINE
  5
54D
100
AcDbEntity
  8
0
100
AcDbLine
 62
7
  6
CONTINUOUS
 10
7.7
 20
8.7
 11
7.7
 21
8.6822402879
  0
LINE
  5
54E
100
AcDbEntity
  8
0
100
AcDbLine
 62
7
  6
CONTINUOUS
 10
7.7
 20
-5.6
 11
7.7
 21
-7.2574468085
  0
LINE
  5
54F
100
AcDbEntity
  8
ASSI
100
AcDbLine
 62
7
  6
CONTINUOUS
 10
7.7639384154
 20
15.5
 11
7.7639384154
 21
14.2860359481
  0
LINE
  5
550
100
AcDbEntity
  8
DRAFT
100
AcDbLine
 62
7
  6
CONTINUOUS
 10
7.7903874625
 20
15.5
 11
7.7903874625
 21
14.2886542078
  0
LINE
  5
551
100
AcDbEntity
  8
0
100
AcDbLine
 62
7
  6
CONTINUOUS
 10
7.8
 20
-9.2
 11
7.8
 21
-5.6
  0
LINE
  5
552
100
AcDbEntity
  8
0
100
AcDbLine
 62
7
  6
CONTINUOUS
 10
7.8
 20
8.6232550923
 11
7.8
 21
9.0
  0
LINE
  5
553
100
AcDbEntity
  8
RACCORDO
100
AcDbLine
 62
7
  6
CONTINUOUS
 10
7.9
 20
8.4
 11
7.9
 21
-5.6
  0
LINE
  5
554
100
AcDbEntity
  8
DRAFT
100
AcDbLine
 62
7
  6
CONTINUOUS
 10
7.95
 20
-7.6
 11
7.95
 21
9.2
  0
LINE
  5
555
100
AcDbEntity
  8
ASSI
100
AcDbLine
 62
7
  6
CONTINUOUS
 10
7.95
 20
-7.6
 11
7.95
 21
9.2
  0
LINE
  5
556
100
AcDbEntity
  8
ASSI
100
AcDbLine
 62
7
  6
CONTINUOUS
 10
8.0579942858
 20
21.2252970227
 11
8.0579942858
 21
20.9872686779
  0
LINE
  5
557
100
AcDbEntity
  8
ASSI
100
AcDbLine
 62
7
  6
CONTINUOUS
 10
8.0579942858
 20
-20.9872686779
 11
8.0579942858
 21
-21.2252970227
  0
LINE
  5
558
100
AcDbEntity
  8
ASSI
100
AcDbLine
 62
7
  6
CONTINUOUS
 10
8.2325449351
 20
21.4051134101
 11
8.2325449351
 21
20.9
  0
LINE
  5
559
100
AcDbEntity
  8
ASSI
100
AcDbLine
 62
7
  6
CONTINUOUS
 10
8.2325449351
 20
-21.4051134101
 11
8.2325449351
 21
-20.9
  0
LINE
  5
55A
100
AcDbEntity
  8
ASSI
100
AcDbLine
 62
253
  6
CONTINUOUS
 10
8.2412572301
 20
9.6912267691
 11
8.2412572301
 21
9.9911810777
  0
LINE
  5
55B
100
AcDbEntity
  8
ASSI
100
AcDbLine
 62
253
  6
CONTINUOUS
 10
8.4412267691
 20
-7.6
 11
8.4412267691
 21
9.4912572301
  0
LINE
  5
55C
100
AcDbEntity
  8
ASSI
100
AcDbLine
 62
7
  6
CONTINUOUS
 10
8.5
 20
-23.1226497308
 11
8.5
 21
-22.4
  0
LINE
  5
55D
100
AcDbEntity
  8
ASSI
100
AcDbLine
 62
7
  6
CONTINUOUS
 10
8.5
 20
22.4
 11
8.5
 21
23.1226497308
  0
LINE
  5
55E
100
AcDbEntity
  8
ASSI
100
AcDbLine
 62
253
  6
CONTINUOUS
 10
8.5131674569
 20
-23.5581814706
 11
8.5131674569
 21
-22.3868325431
  0
LINE
  5
55F
100
AcDbEntity
  8
ASSI
100
AcDbLine
 62
253
  6
CONTINUOUS
 10
8.5131674569
 20
22.3868325431
 11
8.5131674569
 21
23.5581814706
  0
LINE
  5
560
100
AcDbEntity
  8
ASSI
100
AcDbLine
 62
7
  6
CONTINUOUS
 10
8.7273084156
 20
-8.077384568
 11
8.7273084156
 21
-7.6043634339
  0
LINE
  5
561
100
AcDbEntity
  8
ASSI
100
AcDbLine
 62
253
  6
CONTINUOUS
 10
8.7411810777
 20
-7.5974276311
 11
8.7411810777
 21
9.4912572302
  0
LINE
  5
562
100
AcDbEntity
  8
ASSI
100
AcDbLine
 62
253
  6
CONTINUOUS
 10
7.4135581409
 20
23.6278312163
 11
7.3982849591
 21
23.1226497308
  0
LINE
  5
563
100
AcDbEntity
  8
ASSI
100
AcDbLine
 62
7
  6
CONTINUOUS
 10
8.5
 20
23.1226497308
 11
8.5131674569
 21
23.5581814706
  0
LINE
  5
564
100
AcDbEntity
  8
RACCORDO
100
AcDbLine
 62
253
  6
CONTINUOUS
 10
6.91317452
 20
-19.7872686779
 11
7.0717935951
 21
-16.5823590509
  0
LINE
  5
565
100
AcDbEntity
  8
ASSI
100
AcDbLine
 62
253
  6
CONTINUOUS
 10
6.91317452
 20
-19.7872686779
 11
7.0711403853
 21
-16.5955571999
  0
LINE
  5
566
100
AcDbEntity
  8
RACCORDO
100
AcDbLine
 62
253
  6
CONTINUOUS
 10
7.2127313221
 20
-20.0914350444
 11
7.3711122677
 21
-16.8913368402
  0
LINE
  5
567
100
AcDbEntity
  8
ASSI
100
AcDbLine
 62
253
  6
CONTINUOUS
 10
7.2127313221
 20
-20.0914350444
 11
7.3705143312
 21
-16.9034181896
  0
LINE
  5
568
100
AcDbEntity
  8
RACCORDO
100
AcDbLine
 62
7
  6
CONTINUOUS
 10
9.639870208
 20
18.1129361064
 11
9.5
 21
16.7
  0
LINE
  5
569
100
AcDbEntity
  8
ASSI
100
AcDbLine
 62
7
  6
CONTINUOUS
 10
9.639870208
 20
18.1129361064
 11
9.5
 21
16.7
  0
LINE
  5
56A
100
AcDbEntity
  8
DRAFT
100
AcDbLine
 62
7
  6
CONTINUOUS
 10
9.4954820773
 20
17.1406761428
 11
9.639870208
 21
18.1129361064
  0
LINE
  5
56B
100
AcDbEntity
  8
ASSI
100
AcDbLine
 62
7
  6
CONTINUOUS
 10
9.4954820773
 20
17.1406761428
 11
9.639870208
 21
18.1129361064
  0
LINE
  5
56C
100
AcDbEntity
  8
RACCORDO
100
AcDbLine
 62
7
  6
CONTINUOUS
 10
2.7566802188
 20
-7.1835299521
 11
2.9
 21
-7.0127659574
  0
LINE
  5
56D
100
AcDbEntity
  8
ASSI
100
AcDbLine
 62
253
  6
CONTINUOUS
 10
-10.6
 20
-22.3999999999
 11
-10.5826210875
 21
-22.3825449351
  0
LINE
  5
56E
100
AcDbEntity
  8
0
100
AcDbLine
 62
7
  6
CONTINUOUS
 10
5.1
 20
-4.6
 11
5.35
 21
-4.35
  0
LINE
  5
56F
100
AcDbEntity
  8
0
100
AcDbLine
 62
7
  6
CONTINUOUS
 10
5.1
 20
-5.3
 11
5.35
 21
-5.05
  0
LINE
  5
570
100
AcDbEntity
  8
ASSI
100
AcDbLine
 62
253
  6
CONTINUOUS
 10
-11.1
 20
-21.6001218439
 11
-11.0825449351
 21
-21.5826667789
  0
LINE
  5
571
100
AcDbEntity
  8
ASSI
100
AcDbLine
 62
253
  6
CONTINUOUS
 10
-11.1
 20
-21.9000761524
 11
-11.0825449351
 21
-21.8826210875
  0
LINE
  5
572
100
AcDbEntity
  8
ASSI
100
AcDbLine
 62
253
  6
CONTINUOUS
 10
-10.3001218439
 20
-22.4
 11
-10.2826667789
 21
-22.3825449351
  0
LINE
  5
573
100
AcDbEntity
  8
ASSI
100
AcDbLine
 62
7
  6
CONTINUOUS
 10
-2.7
 20
-11.6066655363
 11
-3.1367604091
 21
-11.8976912156
  0
LINE
  5
574
100
AcDbEntity
  8
DRAFT
100
AcDbLine
 62
7
  6
CONTINUOUS
 10
-3.140225346
 20
-11.9
 11
-2.7
 21
-11.6066655363
  0
LINE
  5
575
100
AcDbEntity
  8
0
100
AcDbLine
 62
7
  6
CONTINUOUS
 10
2.8
 20
6.7
 11
-2.8
 21
6.7
  0
LINE
  5
576
100
AcDbEntity
  8
RACCORDO
100
AcDbLine
 62
7
  6
CONTINUOUS
 10
7.6
 20
7.7
 11
-7.6
 21
7.7
  0
LINE
  5
577
100
AcDbEntity
  8
RACCORDO
100
AcDbLine
 62
7
  6
CONTINUOUS
 10
7.6
 20
8.7
 11
-7.6
 21
8.7
  0
LINE
  5
578
100
AcDbEntity
  8
ASSI
100
AcDbLine
 62
253
  6
CONTINUOUS
 10
-11.0825449351
 20
21.5826667789
 11
-11.1
 21
21.6001218439
  0
LINE
  5
579
100
AcDbEntity
  8
ASSI
100
AcDbLine
 62
253
  6
CONTINUOUS
 10
-11.0825449351
 20
21.8826210875
 11
-11.1
 21
21.9000761524
  0
LINE
  5
57A
100
AcDbEntity
  8
ASSI
100
AcDbLine
 62
7
  6
CONTINUOUS
 10
1.3831646234
 20
9.9668353766
 11
1.3500832759
 21
9.9999167241
  0
LINE
  5
57B
100
AcDbEntity
  8
ASSI
100
AcDbLine
 62
253
  6
CONTINUOUS
 10
-10.2826667789
 20
22.3825449351
 11
-10.3001218439
 21
22.4
  0
LINE
  5
57C
100
AcDbEntity
  8
ASSI
100
AcDbLine
 62
253
  6
CONTINUOUS
 10
-10.59038167
 20
22.3903027019
 11
-10.5980944005
 21
22.3980604833
  0
LINE
  5
57D
100
AcDbEntity
  8
ASSI
100
AcDbLine
 62
253
  6
CONTINUOUS
 10
-10.5980944005
 20
22.3980604833
 11
-10.6000000646
 21
22.3999999354
  0
LINE
  5
57E
100
AcDbEntity
  8
RACCORDO
100
AcDbLine
 62
7
  6
CONTINUOUS
 10
9.4925054846
 20
16.8514272135
 11
9.5000023792
 21
16.6999519285
  0
LINE
  5
57F
100
AcDbEntity
  8
ASSI
100
AcDbLine
 62
7
  6
CONTINUOUS
 10
9.4938991482
 20
16.8232681423
 11
9.5000023792
 21
16.6999519285
  0
LINE
  5
580
100
AcDbEntity
  8
ASSI
100
AcDbLine
 62
7
  6
CONTINUOUS
 10
9.3
 20
23.1226497308
 11
9.2868325431
 21
23.5581814706
  0
LINE
  5
581
100
AcDbEntity
  8
ASSI
100
AcDbLine
 62
7
  6
CONTINUOUS
 10
11.1
 20
-21.0
 11
11.0825449351
 21
-20.4226497308
  0
LINE
  5
582
100
AcDbEntity
  8
ASSI
100
AcDbLine
 62
253
  6
CONTINUOUS
 10
8.7631293807
 20
-23.8443375673
 11
8.7631293807
 21
-22.3825449351
  0
LINE
  5
583
100
AcDbEntity
  8
ASSI
100
AcDbLine
 62
253
  6
CONTINUOUS
 10
8.7631293807
 20
22.3825449351
 11
8.7631293807
 21
23.8443375673
  0
LINE
  5
584
100
AcDbEntity
  8
ASSI
100
AcDbLine
 62
253
  6
CONTINUOUS
 10
9.0368706193
 20
-23.8443375673
 11
9.0368706193
 21
-22.3825449351
  0
LINE
  5
585
100
AcDbEntity
  8
ASSI
100
AcDbLine
 62
253
  6
CONTINUOUS
 10
9.0368706193
 20
22.3825449351
 11
9.0368706193
 21
23.8443375673
  0
LINE
  5
586
100
AcDbEntity
  8
ASSI
100
AcDbLine
 62
253
  6
CONTINUOUS
 10
9.2868325431
 20
-23.5581814706
 11
9.2868325431
 21
-22.3868325431
  0
LINE
  5
587
100
AcDbEntity
  8
ASSI
100
AcDbLine
 62
253
  6
CONTINUOUS
 10
9.2868325431
 20
22.3868325431
 11
9.2868325431
 21
23.5581814706
  0
LINE
  5
588
100
AcDbEntity
  8
ASSI
100
AcDbLine
 62
7
  6
CONTINUOUS
 10
9.3
 20
-23.1226497308
 11
9.3
 21
-22.4
  0
LINE
  5
589
100
AcDbEntity
  8
ASSI
100
AcDbLine
 62
7
  6
CONTINUOUS
 10
9.3
 20
22.4
 11
9.3
 21
23.1226497308
  0
LINE
  5
58A
100
AcDbEntity
  8
DRAFT
100
AcDbLine
 62
7
  6
CONTINUOUS
 10
9.5
 20
14.2886542078
 11
9.5
 21
16.7
  0
LINE
  5
58B
100
AcDbEntity
  8
ASSI
100
AcDbLine
 62
7
  6
CONTINUOUS
 10
9.5
 20
14.2860359481
 11
9.5
 21
16.7
  0
LINE
  5
58C
100
AcDbEntity
  8
RACCORDO
100
AcDbLine
 62
7
  6
CONTINUOUS
 10
9.5347819451
 20
-10.1517377579
 11
9.5347819451
 21
-9.6482622421
  0
LINE
  5
58D
100
AcDbEntity
  8
ASSI
100
AcDbLine
 62
7
  6
CONTINUOUS
 10
9.5347819451
 20
-10.1517377579
 11
9.5347819451
 21
-9.6482622421
  0
LINE
  5
58E
100
AcDbEntity
  8
RACCORDO
100
AcDbLine
 62
7
  6
CONTINUOUS
 10
9.5714422353
 20
20.8738193966
 11
9.5714422353
 21
19.7676913781
  0
LINE
  5
58F
100
AcDbEntity
  8
ASSI
100
AcDbLine
 62
7
  6
CONTINUOUS
 10
9.5714422353
 20
20.8738193966
 11
9.5714422353
 21
19.7676913781
  0
LINE
  5
590
100
AcDbEntity
  8
DRAFT
100
AcDbLine
 62
7
  6
CONTINUOUS
 10
9.639870208
 20
18.1129361064
 11
9.639870208
 21
14.1487839997
  0
LINE
  5
591
100
AcDbEntity
  8
ASSI
100
AcDbLine
 62
7
  6
CONTINUOUS
 10
9.639870208
 20
18.1129361064
 11
9.639870208
 21
14.14616574
  0
LINE
  5
592
100
AcDbEntity
  8
ASSI
100
AcDbLine
 62
7
  6
CONTINUOUS
 10
9.65
 20
20.9
 11
9.65
 21
-20.9
  0
LINE
  5
593
100
AcDbEntity
  8
ASSI
100
AcDbLine
 62
253
  6
CONTINUOUS
 10
10.3860054824
 20
24.2368706193
 11
10.3860054824
 21
23.844250724
  0
LINE
  5
594
100
AcDbEntity
  8
ASSI
100
AcDbLine
 62
253
  6
CONTINUOUS
 10
10.3860054824
 20
-23.844357602
 11
10.3860054824
 21
-24.2368706193
  0
LINE
  5
595
100
AcDbEntity
  8
ASSI
100
AcDbLine
 62
253
  6
CONTINUOUS
 10
10.5859750215
 20
24.2368706193
 11
10.5859750215
 21
23.8443375673
  0
LINE
  5
596
100
AcDbEntity
  8
ASSI
100
AcDbLine
 62
253
  6
CONTINUOUS
 10
10.5859750215
 20
-23.8443375673
 11
10.5859750215
 21
-24.2368706193
  0
LINE
  5
597
100
AcDbEntity
  8
ASSI
100
AcDbLine
 62
7
  6
CONTINUOUS
 10
10.6
 20
-22.3999999296
 11
10.6
 21
-24.300030461
  0
LINE
  5
598
100
AcDbEntity
  8
ASSI
100
AcDbLine
 62
7
  6
CONTINUOUS
 10
10.6
 20
22.3999997358
 11
10.6
 21
24.300030461
  0
LINE
  5
599
100
AcDbEntity
  8
DRAFT
100
AcDbLine
 62
7
  6
CONTINUOUS
 10
9.4954820773
 20
17.1406761428
 11
9.4974886323
 21
19.3349933121
  0
LINE
  5
59A
100
AcDbEntity
  8
ASSI
100
AcDbLine
 62
7
  6
CONTINUOUS
 10
9.4954820773
 20
17.1406761428
 11
9.4974886323
 21
19.3349933121
  0
LINE
  5
59B
100
AcDbEntity
  8
ASSI
100
AcDbLine
 62
7
  6
CONTINUOUS
 10
9.2868325431
 20
-23.5581814706
 11
9.3
 21
-23.1226497308
  0
LINE
  5
59C
100
AcDbEntity
  8
ASSI
100
AcDbLine
 62
7
  6
CONTINUOUS
 10
11.0825449351
 20
20.4226497308
 11
11.1
 21
21.0
  0
LINE
  5
59D
100
AcDbEntity
  8
0
100
AcDbLine
 62
7
  6
CONTINUOUS
 10
7.0936363636
 20
-8.9884076232
 11
7.25
 21
-8.2302016061
  0
LINE
  5
59E
100
AcDbEntity
  8
0
100
AcDbLine
 62
7
  6
CONTINUOUS
 10
7.1772727273
 20
-8.4559919581
 11
7.2427272727
 21
-8.1873013235
  0
LINE
  5
59F
100
AcDbEntity
  8
ASSI
100
AcDbLine
 62
7
  6
CONTINUOUS
 10
-9.3
 20
-22.4
 11
-9.2868325431
 21
-22.3868325431
  0
LINE
  5
5A0
100
AcDbEntity
  8
ASSI
100
AcDbLine
 62
253
  6
CONTINUOUS
 10
-10.6
 20
-24.300030461
 11
-10.5868325431
 21
-24.2868630041
  0
LINE
  5
5A1
100
AcDbEntity
  8
ASSI
100
AcDbLine
 62
253
  6
CONTINUOUS
 10
-10.400030461
 20
-24.5
 11
-10.3868630041
 21
-24.4868325431
  0
LINE
  5
5A2
100
AcDbEntity
  8
0
100
AcDbLine
 62
7
  6
CONTINUOUS
 10
7.2427272727
 20
-7.2617021277
 11
7.25
 21
-7.2574468085
  0
LINE
  5
5A3
100
AcDbEntity
  8
ASSI
100
AcDbLine
 62
7
  6
CONTINUOUS
 10
8.7411810777
 20
-7.5974276311
 11
8.7273084156
 21
-7.6043634339
  0
LINE
  5
5A4
100
AcDbEntity
  8
0
100
AcDbLine
 62
7
  6
CONTINUOUS
 10
-6.5
 20
8.8
 11
6.5
 21
8.8
  0
LINE
  5
5A5
100
AcDbEntity
  8
0
100
AcDbLine
 62
7
  6
CONTINUOUS
 10
7.8
 20
8.8079357678
 11
7.25
 21
8.8079357678
  0
LINE
  5
5A6
100
AcDbEntity
  8
0
100
AcDbLine
 62
7
  6
CONTINUOUS
 10
-7.25
 20
8.8079357678
 11
-7.8
 21
8.8079357678
  0
LINE
  5
5A7
100
AcDbEntity
  8
0
100
AcDbLine
 62
7
  6
CONTINUOUS
 10
-7.8
 20
9.0
 11
7.8
 21
9.0
  0
LINE
  5
5A8
100
AcDbEntity
  8
DRAFT
100
AcDbLine
 62
7
  6
CONTINUOUS
 10
7.95
 20
9.2
 11
2.2
 21
9.2
  0
LINE
  5
5A9
100
AcDbEntity
  8
ASSI
100
AcDbLine
 62
7
  6
CONTINUOUS
 10
7.95
 20
9.2
 11
2.2
 21
9.2
  0
LINE
  5
5AA
100
AcDbEntity
  8
DRAFT
100
AcDbLine
 62
7
  6
CONTINUOUS
 10
-2.2
 20
9.2
 11
-7.95
 21
9.2
  0
LINE
  5
5AB
100
AcDbEntity
  8
ASSI
100
AcDbLine
 62
7
  6
CONTINUOUS
 10
-2.2
 20
9.2
 11
-7.95
 21
9.2
  0
LINE
  5
5AC
100
AcDbEntity
  8
ASSI
100
AcDbLine
 62
253
  6
CONTINUOUS
 10
8.4412267691
 20
9.4912572301
 11
8.7411810777
 21
9.4912572329
  0
LINE
  5
5AD
100
AcDbEntity
  8
ASSI
100
AcDbLine
 62
253
  6
CONTINUOUS
 10
-8.4412267691
 20
9.4912572301
 11
-8.7411810777
 21
9.4912572301
  0
LINE
  5
5AE
100
AcDbEntity
  8
ASSI
100
AcDbLine
 62
253
  6
CONTINUOUS
 10
8.2412572301
 20
9.6912267691
 11
2.2
 21
9.6912267691
  0
LINE
  5
5AF
100
AcDbEntity
  8
ASSI
100
AcDbLine
 62
253
  6
CONTINUOUS
 10
-2.2
 20
9.6912267691
 11
-8.2412572301
 21
9.6912267691
  0
LINE
  5
5B0
100
AcDbEntity
  8
ASSI
100
AcDbLine
 62
7
  6
CONTINUOUS
 10
1.3831646234
 20
9.9668353766
 11
-1.3901461176
 21
9.9668353766
  0
LINE
  5
5B1
100
AcDbEntity
  8
ASSI
100
AcDbLine
 62
253
  6
CONTINUOUS
 10
8.2412572301
 20
9.9911810777
 11
2.2025723689
 21
9.9911810777
  0
LINE
  5
5B2
100
AcDbEntity
  8
ASSI
100
AcDbLine
 62
253
  6
CONTINUOUS
 10
-2.2025723689
 20
9.9911810777
 11
-8.2412572301
 21
9.9911810777
  0
LINE
  5
5B3
100
AcDbEntity
  8
ASSI
100
AcDbLine
 62
7
  6
CONTINUOUS
 10
2.1904004454
 20
10.0
 11
1.3831646234
 21
10.0
  0
LINE
  5
5B4
100
AcDbEntity
  8
ASSI
100
AcDbLine
 62
7
  6
CONTINUOUS
 10
-1.3901461176
 20
10.0
 11
-2.1904004454
 21
10.0
  0
LINE
  5
5B5
100
AcDbEntity
  8
ASSI
100
AcDbLine
 62
7
  6
CONTINUOUS
 10
-4.0801268653
 20
16.8790652807
 11
-3.7768392294
 21
16.5757776449
  0
LINE
  5
5B6
100
AcDbEntity
  8
DRAFT
100
AcDbLine
 62
7
  6
CONTINUOUS
 10
-4.0536778182
 20
16.8790652807
 11
-3.7636147059
 21
16.5890021684
  0
LINE
  5
5B7
100
AcDbEntity
  8
ASSI
100
AcDbLine
 62
7
  6
CONTINUOUS
 10
-9.3
 20
22.4
 11
-9.2868325431
 21
22.3868325431
  0
LINE
  5
5B8
100
AcDbEntity
  8
ASSI
100
AcDbLine
 62
253
  6
CONTINUOUS
 10
-10.5868325431
 20
24.286863004
 11
-10.6
 21
24.300030461
  0
LINE
  5
5B9
100
AcDbEntity
  8
ASSI
100
AcDbLine
 62
253
  6
CONTINUOUS
 10
-10.3868630041
 20
24.4868325431
 11
-10.400030461
 21
24.5
  0
LINE
  5
5BA
100
AcDbEntity
  8
RACCORDO
100
AcDbLine
 62
7
  6
CONTINUOUS
 10
4.4550387927
 20
19.3349933121
 11
4.4107051106
 21
19.4681025177
  0
LINE
  5
5BB
100
AcDbEntity
  8
ASSI
100
AcDbLine
 62
7
  6
CONTINUOUS
 10
4.4550387927
 20
19.3349933121
 11
4.4107051106
 21
19.4681025177
  0
LINE
  5
5BC
100
AcDbEntity
  8
RACCORDO
100
AcDbLine
 62
7
  6
CONTINUOUS
 10
7.3508267979
 20
19.3349933121
 11
7.328661645
 21
19.4681025177
  0
LINE
  5
5BD
100
AcDbEntity
  8
ASSI
100
AcDbLine
 62
7
  6
CONTINUOUS
 10
7.3508267979
 20
19.3349933121
 11
7.328661645
 21
19.4681025177
  0
LINE
  5
5BE
100
AcDbEntity
  8
ASSI
100
AcDbLine
 62
7
  6
CONTINUOUS
 10
11.1261859216
 20
20.4226497308
 11
11.1
 21
21.0
  0
LINE
  5
5BF
100
AcDbEntity
  8
ASSI
100
AcDbLine
 62
253
  6
CONTINUOUS
 10
10.3864421556
 20
23.6278214068
 11
10.4017150409
 21
23.1226497308
  0
LINE
  5
5C0
100
AcDbEntity
  8
ASSI
100
AcDbLine
 62
253
  6
CONTINUOUS
 10
10.5864113981
 20
23.8010362971
 11
10.6
 21
23.3515746082
  0
LINE
  5
5C1
100
AcDbEntity
  8
ASSI
100
AcDbLine
 62
7
  6
CONTINUOUS
 10
11.0825449351
 20
21.8826210875
 11
11.0825449351
 21
20.4226497308
  0
LINE
  5
5C2
100
AcDbEntity
  8
ASSI
100
AcDbLine
 62
7
  6
CONTINUOUS
 10
11.0825449351
 20
-20.4226497308
 11
11.0825449351
 21
-21.8826210875
  0
LINE
  5
5C3
100
AcDbEntity
  8
ASSI
100
AcDbLine
 62
7
  6
CONTINUOUS
 10
11.1
 20
21.9000761524
 11
11.1
 21
21.0
  0
LINE
  5
5C4
100
AcDbEntity
  8
ASSI
100
AcDbLine
 62
7
  6
CONTINUOUS
 10
11.1
 20
-21.9000761524
 11
11.1
 21
-21.0
  0
LINE
  5
5C5
100
AcDbEntity
  8
ASSI
100
AcDbLine
 62
7
  6
CONTINUOUS
 10
11.1261859216
 20
-20.4226497308
 11
11.1261859216
 21
20.4226497308
  0
LINE
  5
5C6
100
AcDbEntity
  8
ASSI
100
AcDbLine
 62
253
  6
CONTINUOUS
 10
10.4017150409
 20
-23.1226497308
 11
10.3864405812
 21
-23.6278734826
  0
LINE
  5
5C7
100
AcDbEntity
  8
ASSI
100
AcDbLine
 62
253
  6
CONTINUOUS
 10
10.6
 20
-23.3515746082
 11
10.5864113981
 21
-23.8010362971
  0
LINE
  5
5C8
100
AcDbEntity
  8
ASSI
100
AcDbLine
 62
7
  6
CONTINUOUS
 10
11.1
 20
-21.0
 11
11.1261859216
 21
-20.4226497308
  0
LINE
  5
5C9
100
AcDbEntity
  8
ASSI
100
AcDbLine
 62
253
  6
CONTINUOUS
 10
3.1286750776
 20
-21.975182794
 11
3.05
 21
-22.1325449336
  0
LINE
  5
5CA
100
AcDbEntity
  8
ASSI
100
AcDbLine
 62
253
  6
CONTINUOUS
 10
3.3786655583
 20
-22.2251447178
 11
3.2999714434
 21
-22.3825449351
  0
LINE
  5
5CB
100
AcDbEntity
  8
ASSI
100
AcDbLine
 62
7
  6
CONTINUOUS
 10
-4.45
 20
-22.4
 11
-4.3518840226
 21
-22.3018840226
  0
LINE
  5
5CC
100
AcDbEntity
  8
DRAFT
100
AcDbLine
 62
7
  6
CONTINUOUS
 10
7.2496557953
 20
-9.4152646181
 11
7.2273084156
 21
-9.426437457
  0
LINE
  5
5CD
100
AcDbEntity
  8
ASSI
100
AcDbLine
 62
7
  6
CONTINUOUS
 10
7.2479450442
 20
-9.4161199285
 11
7.2273084156
 21
-9.426437457
  0
LINE
  5
5CE
100
AcDbEntity
  8
RACCORDO
100
AcDbLine
 62
7
  6
CONTINUOUS
 10
9.4348819595
 20
-10.3832932322
 11
9.5295904633
 21
-10.3517301425
  0
LINE
  5
5CF
100
AcDbEntity
  8
ASSI
100
AcDbLine
 62
7
  6
CONTINUOUS
 10
9.4359688737
 20
-10.382931001
 11
9.5295904633
 21
-10.3517301425
  0
LINE
  5
5D0
100
AcDbEntity
  8
0
100
AcDbLine
 62
7
  6
CONTINUOUS
 10
7.25
 20
8.8079357678
 11
7.05
 21
9.0
  0
LINE
  5
5D1
100
AcDbEntity
  8
ASSI
100
AcDbLine
 62
7
  6
CONTINUOUS
 10
-4.45
 20
22.4
 11
-4.3518840226
 21
22.3018840226
  0
LINE
  5
5D2
100
AcDbEntity
  8
ASSI
100
AcDbLine
 62
253
  6
CONTINUOUS
 10
3.05
 20
22.1325449336
 11
3.1286750776
 21
21.975182794
  0
LINE
  5
5D3
100
AcDbEntity
  8
ASSI
100
AcDbLine
 62
253
  6
CONTINUOUS
 10
3.2999714434
 20
22.3825449351
 11
3.3786655583
 21
22.2251447178
  0
LINE
  5
5D4
100
AcDbEntity
  8
ASSI
100
AcDbLine
 62
7
  6
CONTINUOUS
 10
7.3012233427
 20
-22.2251447178
 11
7.2551134101
 21
-22.3825449351
  0
LINE
  5
5D5
100
AcDbEntity
  8
ASSI
100
AcDbLine
 62
253
  6
CONTINUOUS
 10
-4.3518822356
 20
-23.6519203118
 11
-4.45
 21
-23.7500380762
  0
LINE
  5
5D6
100
AcDbEntity
  8
ASSI
100
AcDbLine
 62
253
  6
CONTINUOUS
 10
-4.1019220988
 20
-23.9018840226
 11
-4.2000380762
 21
-24.0
  0
LINE
  5
5D7
100
AcDbEntity
  8
RACCORDO
100
AcDbLine
 62
7
  6
CONTINUOUS
 10
3.6156939816
 20
14.3229126753
 11
3.8741265095
 21
14.374094081
  0
LINE
  5
5D8
100
AcDbEntity
  8
ASSI
100
AcDbLine
 62
7
  6
CONTINUOUS
 10
3.6655751458
 20
14.3327914167
 11
3.9006078495
 21
14.3793385919
  0
LINE
  5
5D9
100
AcDbEntity
  8
ASSI
100
AcDbLine
 62
7
  6
CONTINUOUS
 10
7.7639384154
 20
14.2860359481
 11
7.7197270663
 21
14.281659352
  0
LINE
  5
5DA
100
AcDbEntity
  8
DRAFT
100
AcDbLine
 62
7
  6
CONTINUOUS
 10
7.7585765101
 20
14.2855051591
 11
7.7903874625
 21
14.2886542078
  0
LINE
  5
5DB
100
AcDbEntity
  8
DRAFT
100
AcDbLine
 62
7
  6
CONTINUOUS
 10
-3.5
 20
14.0
 11
-3.6136352726
 21
13.9887509498
  0
LINE
  5
5DC
100
AcDbEntity
  8
ASSI
100
AcDbLine
 62
7
  6
CONTINUOUS
 10
-3.5
 20
14.0
 11
-3.6638210018
 21
13.9837829343
  0
LINE
  5
5DD
100
AcDbEntity
  8
RACCORDO
100
AcDbLine
 62
7
  6
CONTINUOUS
 10
3.1
 20
13.8023297909
 11
-3.1
 21
13.8023297909
  0
LINE
  5
5DE
100
AcDbEntity
  8
DRAFT
100
AcDbLine
 62
7
  6
CONTINUOUS
 10
-3.5
 20
14.0
 11
-3.3819558849
 21
14.0
  0
LINE
  5
5DF
100
AcDbEntity
  8
ASSI
100
AcDbLine
 62
7
  6
CONTINUOUS
 10
-3.5
 20
14.0
 11
-3.3819558849
 21
14.0
  0
LINE
  5
5E0
100
AcDbEntity
  8
DRAFT
100
AcDbLine
 62
7
  6
CONTINUOUS
 10
3.3819558849
 20
14.0
 11
3.5
 21
14.0
  0
LINE
  5
5E1
100
AcDbEntity
  8
ASSI
100
AcDbLine
 62
7
  6
CONTINUOUS
 10
3.3819558849
 20
14.0
 11
3.5
 21
14.0
  0
LINE
  5
5E2
100
AcDbEntity
  8
ASSI
100
AcDbLine
 62
7
  6
CONTINUOUS
 10
9.5
 20
14.2860359481
 11
7.7639384154
 21
14.2860359481
  0
LINE
  5
5E3
100
AcDbEntity
  8
ASSI
100
AcDbLine
 62
7
  6
CONTINUOUS
 10
-7.7639384154
 20
14.2860359481
 11
-9.5
 21
14.2860359481
  0
LINE
  5
5E4
100
AcDbEntity
  8
DRAFT
100
AcDbLine
 62
7
  6
CONTINUOUS
 10
-9.5
 20
14.2886542078
 11
-7.7903874625
 21
14.2886542078
  0
LINE
  5
5E5
100
AcDbEntity
  8
DRAFT
100
AcDbLine
 62
7
  6
CONTINUOUS
 10
7.7903874625
 20
14.2886542078
 11
9.5
 21
14.2886542078
  0
LINE
  5
5E6
100
AcDbEntity
  8
RACCORDO
100
AcDbLine
 62
253
  6
CONTINUOUS
 10
-7.5308734905
 20
14.374094081
 11
-3.8741265095
 21
14.374094081
  0
LINE
  5
5E7
100
AcDbEntity
  8
RACCORDO
100
AcDbLine
 62
253
  6
CONTINUOUS
 10
3.8741265095
 20
14.374094081
 11
7.5308734905
 21
14.374094081
  0
LINE
  5
5E8
100
AcDbEntity
  8
ASSI
100
AcDbLine
 62
253
  6
CONTINUOUS
 10
-7.5043921505
 20
14.3793385919
 11
-3.9006078495
 21
14.3793385919
  0
LINE
  5
5E9
100
AcDbEntity
  8
ASSI
100
AcDbLine
 62
253
  6
CONTINUOUS
 10
3.9006078495
 20
14.3793385919
 11
7.5043921505
 21
14.3793385919
  0
LINE
  5
5EA
100
AcDbEntity
  8
DRAFT
100
AcDbLine
 62
7
  6
CONTINUOUS
 10
-3.5
 20
14.85
 11
-3.4
 21
14.85
  0
LINE
  5
5EB
100
AcDbEntity
  8
ASSI
100
AcDbLine
 62
7
  6
CONTINUOUS
 10
-3.5
 20
14.85
 11
-3.4
 21
14.85
  0
LINE
  5
5EC
100
AcDbEntity
  8
DRAFT
100
AcDbLine
 62
7
  6
CONTINUOUS
 10
3.4
 20
14.85
 11
3.5
 21
14.85
  0
LINE
  5
5ED
100
AcDbEntity
  8
ASSI
100
AcDbLine
 62
7
  6
CONTINUOUS
 10
3.4
 20
14.85
 11
3.5
 21
14.85
  0
LINE
  5
5EE
100
AcDbEntity
  8
DRAFT
100
AcDbLine
 62
7
  6
CONTINUOUS
 10
-3.5440817452
 20
15.1
 11
-3.4
 21
15.1
  0
LINE
  5
5EF
100
AcDbEntity
  8
ASSI
100
AcDbLine
 62
7
  6
CONTINUOUS
 10
3.5440817452
 20
15.1
 11
3.4
 21
15.1
  0
LINE
  5
5F0
100
AcDbEntity
  8
DRAFT
100
AcDbLine
 62
7
  6
CONTINUOUS
 10
3.4
 20
15.1
 11
3.5440817452
 21
15.1
  0
LINE
  5
5F1
100
AcDbEntity
  8
ASSI
100
AcDbLine
 62
7
  6
CONTINUOUS
 10
-3.4
 20
15.1
 11
-3.5440817452
 21
15.1
  0
LINE
  5
5F2
100
AcDbEntity
  8
DRAFT
100
AcDbLine
 62
7
  6
CONTINUOUS
 10
-7.7585765101
 20
14.2855051591
 11
-7.7903874625
 21
14.2886542078
  0
LINE
  5
5F3
100
AcDbEntity
  8
ASSI
100
AcDbLine
 62
7
  6
CONTINUOUS
 10
-7.7197270663
 20
14.281659352
 11
-7.7639384154
 21
14.2860359481
  0
LINE
  5
5F4
100
AcDbEntity
  8
DRAFT
100
AcDbLine
 62
7
  6
CONTINUOUS
 10
3.5
 20
14.0
 11
3.6136352726
 21
13.9887509498
  0
LINE
  5
5F5
100
AcDbEntity
  8
ASSI
100
AcDbLine
 62
7
  6
CONTINUOUS
 10
3.5
 20
14.0
 11
3.6638210018
 21
13.9837829343
  0
LINE
  5
5F6
100
AcDbEntity
  8
RACCORDO
100
AcDbLine
 62
7
  6
CONTINUOUS
 10
-3.6156939816
 20
14.3229126753
 11
-3.8741265095
 21
14.374094081
  0
LINE
  5
5F7
100
AcDbEntity
  8
ASSI
100
AcDbLine
 62
7
  6
CONTINUOUS
 10
-3.6655751458
 20
14.3327914167
 11
-3.9006078495
 21
14.3793385919
  0
LINE
  5
5F8
100
AcDbEntity
  8
ASSI
100
AcDbLine
 62
253
  6
CONTINUOUS
 10
-4.45
 20
23.7500380762
 11
-4.3518822356
 21
23.6519203118
  0
LINE
  5
5F9
100
AcDbEntity
  8
ASSI
100
AcDbLine
 62
253
  6
CONTINUOUS
 10
-4.2000380762
 20
24.0
 11
-4.1019220988
 21
23.9018840226
  0
LINE
  5
5FA
100
AcDbEntity
  8
RACCORDO
100
AcDbLine
 62
253
  6
CONTINUOUS
 10
3.8445737581
 20
17.4555023943
 11
3.9563286977
 21
17.3437474547
  0
LINE
  5
5FB
100
AcDbEntity
  8
ASSI
100
AcDbLine
 62
253
  6
CONTINUOUS
 10
3.8445737581
 20
17.4555023943
 11
3.9563286977
 21
17.3437474547
  0
LINE
  5
5FC
100
AcDbEntity
  8
ASSI
100
AcDbLine
 62
7
  6
CONTINUOUS
 10
7.3012233427
 20
22.2251447178
 11
7.2551134101
 21
22.3825449351
  0
LINE
  5
5FD
100
AcDbEntity
  8
RACCORDO
100
AcDbLine
 62
7
  6
CONTINUOUS
 10
-9.4564965907
 20
-20.8355119633
 11
-9.65
 21
-20.9
  0
LINE
  5
5FE
100
AcDbEntity
  8
ASSI
100
AcDbLine
 62
7
  6
CONTINUOUS
 10
-9.4570325893
 20
-20.8356905933
 11
-9.65
 21
-20.9
  0
LINE
  5
5FF
100
AcDbEntity
  8
RACCORDO
100
AcDbLine
 62
7
  6
CONTINUOUS
 10
-7.7583308322
 20
14.3290471724
 11
-7.5308734905
 21
14.374094081
  0
LINE
  5
600
100
AcDbEntity
  8
ASSI
100
AcDbLine
 62
7
  6
CONTINUOUS
 10
-7.7194499734
 20
14.3367473524
 11
-7.5043921505
 21
14.3793385919
  0
LINE
  5
601
100
AcDbEntity
  8
DRAFT
100
AcDbLine
 62
7
  6
CONTINUOUS
 10
3.7521644412
 20
15.5068077913
 11
3.7536149133
 21
15.5068795788
  0
LINE
  5
602
100
AcDbEntity
  8
DRAFT
100
AcDbLine
 62
7
  6
CONTINUOUS
 10
-7.6528355588
 20
15.5068077913
 11
-7.6513850867
 21
15.5068795788
  0
LINE
  5
603
100
AcDbEntity
  8
RACCORDO
100
AcDbLine
 62
253
  6
CONTINUOUS
 10
-7.3608076463
 20
15.3385854114
 11
-4.0441923537
 21
15.3385854114
  0
LINE
  5
604
100
AcDbEntity
  8
RACCORDO
100
AcDbLine
 62
253
  6
CONTINUOUS
 10
4.0441923537
 20
15.3385854114
 11
7.3608076463
 21
15.3385854114
  0
LINE
  5
605
100
AcDbEntity
  8
ASSI
100
AcDbLine
 62
253
  6
CONTINUOUS
 10
-7.3343263063
 20
15.3438299223
 11
-4.0706736937
 21
15.3438299223
  0
LINE
  5
606
100
AcDbEntity
  8
ASSI
100
AcDbLine
 62
253
  6
CONTINUOUS
 10
4.0706736937
 20
15.3438299223
 11
7.3343263063
 21
15.3438299223
  0
LINE
  5
607
100
AcDbEntity
  8
DRAFT
100
AcDbLine
 62
7
  6
CONTINUOUS
 10
3.7636147059
 20
16.5890021684
 11
-3.7636147059
 21
16.5890021684
  0
LINE
  5
608
100
AcDbEntity
  8
DRAFT
100
AcDbLine
 62
7
  6
CONTINUOUS
 10
9.4925054846
 20
16.8514272135
 11
7.6389602491
 21
16.8514272135
  0
LINE
  5
609
100
AcDbEntity
  8
DRAFT
100
AcDbLine
 62
7
  6
CONTINUOUS
 10
-7.6389602491
 20
16.8514272135
 11
-9.4925054846
 21
16.8514272135
  0
LINE
  5
60A
100
AcDbEntity
  8
ASSI
100
AcDbLine
 62
7
  6
CONTINUOUS
 10
-4.0801268653
 20
16.8790652807
 11
4.0801268653
 21
16.8790652807
  0
LINE
  5
60B
100
AcDbEntity
  8
DRAFT
100
AcDbLine
 62
7
  6
CONTINUOUS
 10
4.0536778182
 20
16.8790652807
 11
-4.0536778182
 21
16.8790652807
  0
LINE
  5
60C
100
AcDbEntity
  8
RACCORDO
100
AcDbLine
 62
7
  6
CONTINUOUS
 10
-7.0519868989
 20
16.9825547473
 11
-6.7480131011
 21
16.9825547473
  0
LINE
  5
60D
100
AcDbEntity
  8
ASSI
100
AcDbLine
 62
7
  6
CONTINUOUS
 10
-7.0519868989
 20
16.9825547473
 11
-6.7480131011
 21
16.9825547473
  0
LINE
  5
60E
100
AcDbEntity
  8
RACCORDO
100
AcDbLine
 62
7
  6
CONTINUOUS
 10
6.7480131011
 20
16.9825547473
 11
7.0519868989
 21
16.9825547473
  0
LINE
  5
60F
100
AcDbEntity
  8
ASSI
100
AcDbLine
 62
7
  6
CONTINUOUS
 10
6.7480131011
 20
16.9825547473
 11
7.0519868989
 21
16.9825547473
  0
LINE
  5
610
100
AcDbEntity
  8
RACCORDO
100
AcDbLine
 62
7
  6
CONTINUOUS
 10
9.4954820773
 20
17.1406761428
 11
7.3514955137
 21
17.1406761428
  0
LINE
  5
611
100
AcDbEntity
  8
ASSI
100
AcDbLine
 62
7
  6
CONTINUOUS
 10
9.4954820773
 20
17.1406761428
 11
7.3232622727
 21
17.1406761428
  0
LINE
  5
612
100
AcDbEntity
  8
RACCORDO
100
AcDbLine
 62
7
  6
CONTINUOUS
 10
-7.3514955137
 20
17.1406761428
 11
-9.4954820773
 21
17.1406761428
  0
LINE
  5
613
100
AcDbEntity
  8
ASSI
100
AcDbLine
 62
7
  6
CONTINUOUS
 10
-7.3232622727
 20
17.1406761428
 11
-9.4954820773
 21
17.1406761428
  0
LINE
  5
614
100
AcDbEntity
  8
DRAFT
100
AcDbLine
 62
7
  6
CONTINUOUS
 10
-3.7536149133
 20
15.5068795788
 11
-3.7521644412
 21
15.5068077913
  0
LINE
  5
615
100
AcDbEntity
  8
DRAFT
100
AcDbLine
 62
7
  6
CONTINUOUS
 10
7.6513850867
 20
15.5068795788
 11
7.6528355588
 21
15.5068077913
  0
LINE
  5
616
100
AcDbEntity
  8
RACCORDO
100
AcDbLine
 62
7
  6
CONTINUOUS
 10
7.7583308322
 20
14.3290471724
 11
7.5308734905
 21
14.374094081
  0
LINE
  5
617
100
AcDbEntity
  8
ASSI
100
AcDbLine
 62
7
  6
CONTINUOUS
 10
7.7194499734
 20
14.3367473524
 11
7.5043921505
 21
14.3793385919
  0
LINE
  5
618
100
AcDbEntity
  8
0
100
AcDbLine
 62
7
  6
CONTINUOUS
 10
-9.5714422353
 20
20.8738193966
 11
-9.65
 21
20.9
  0
LINE
  5
619
100
AcDbEntity
  8
ASSI
100
AcDbLine
 62
7
  6
CONTINUOUS
 10
-9.5714422353
 20
20.8738193966
 11
-9.65
 21
20.9
  0
LINE
  5
61A
100
AcDbEntity
  8
ASSI
100
AcDbLine
 62
7
  6
CONTINUOUS
 10
9.4384974973
 20
14.2803971717
 11
9.639870208
 21
14.14616574
  0
LINE
  5
61B
100
AcDbEntity
  8
DRAFT
100
AcDbLine
 62
7
  6
CONTINUOUS
 10
9.4375805259
 20
14.283626668
 11
9.639870208
 21
14.1487839997
  0
LINE
  5
61C
100
AcDbEntity
  8
RACCORDO
100
AcDbLine
 62
253
  6
CONTINUOUS
 10
4.3444976057
 20
17.9554262419
 11
4.4559476337
 21
17.8439762139
  0
LINE
  5
61D
100
AcDbEntity
  8
ASSI
100
AcDbLine
 62
253
  6
CONTINUOUS
 10
4.3444976057
 20
17.9554262419
 11
4.4559476337
 21
17.8439762139
  0
LINE
  5
61E
100
AcDbEntity
  8
ASSI
100
AcDbLine
 62
7
  6
CONTINUOUS
 10
9.5
 20
14.2860359481
 11
9.639870208
 21
14.14616574
  0
LINE
  5
61F
100
AcDbEntity
  8
DRAFT
100
AcDbLine
 62
7
  6
CONTINUOUS
 10
9.5
 20
14.2886542078
 11
9.639870208
 21
14.1487839997
  0
LINE
  5
620
100
AcDbEntity
  8
ASSI
100
AcDbLine
 62
253
  6
CONTINUOUS
 10
0.8174550649
 20
-23.7325830113
 11
0.8
 21
-23.7500380762
  0
LINE
  5
621
100
AcDbEntity
  8
ASSI
100
AcDbLine
 62
7
  6
CONTINUOUS
 10
3.1173032135
 20
-21.6326967865
 11
3.05
 21
-21.7
  0
LINE
  5
622
100
AcDbEntity
  8
ASSI
100
AcDbLine
 62
253
  6
CONTINUOUS
 10
1.0674169887
 20
-23.9825449351
 11
1.0499619238
 21
-24.0
  0
LINE
  5
623
100
AcDbEntity
  8
ASSI
100
AcDbLine
 62
7
  6
CONTINUOUS
 10
3.5806609125
 20
-22.3018840226
 11
3.5
 21
-22.3825449351
  0
LINE
  5
624
100
AcDbEntity
  8
RACCORDO
100
AcDbLine
 62
7
  6
CONTINUOUS
 10
5.432569703
 20
-20.767430297
 11
5.1254493507
 21
-21.0745506493
  0
LINE
  5
625
100
AcDbEntity
  8
ASSI
100
AcDbLine
 62
7
  6
CONTINUOUS
 10
5.4313247554
 20
-20.7686752446
 11
5.1254493507
 21
-21.0745506493
  0
LINE
  5
626
100
AcDbEntity
  8
ASSI
100
AcDbLine
 62
253
  6
CONTINUOUS
 10
3.5806626995
 20
-23.6519203118
 11
3.5
 21
-23.7325830113
  0
LINE
  5
627
100
AcDbEntity
  8
RACCORDO
100
AcDbLine
 62
7
  6
CONTINUOUS
 10
-3.9563286977
 20
17.3437474547
 11
3.9563286977
 21
17.3437474547
  0
LINE
  5
628
100
AcDbEntity
  8
ASSI
100
AcDbLine
 62
7
  6
CONTINUOUS
 10
-3.9563286977
 20
17.3437474547
 11
3.9563286977
 21
17.3437474547
  0
LINE
  5
629
100
AcDbEntity
  8
RACCORDO
100
AcDbLine
 62
253
  6
CONTINUOUS
 10
-3.8445737581
 20
17.4555023943
 11
3.8445737581
 21
17.4555023943
  0
LINE
  5
62A
100
AcDbEntity
  8
ASSI
100
AcDbLine
 62
253
  6
CONTINUOUS
 10
-3.8445737581
 20
17.4555023943
 11
3.8445737581
 21
17.4555023943
  0
LINE
  5
62B
100
AcDbEntity
  8
RACCORDO
100
AcDbLine
 62
253
  6
CONTINUOUS
 10
4.3444976057
 20
17.9554262419
 11
-4.3444976057
 21
17.9554262419
  0
LINE
  5
62C
100
AcDbEntity
  8
ASSI
100
AcDbLine
 62
253
  6
CONTINUOUS
 10
4.3444976057
 20
17.9554262419
 11
-4.3444976057
 21
17.9554262419
  0
LINE
  5
62D
100
AcDbEntity
  8
DRAFT
100
AcDbLine
 62
7
  6
CONTINUOUS
 10
9.4974886323
 20
19.3349933121
 11
7.3508267979
 21
19.3349933121
  0
LINE
  5
62E
100
AcDbEntity
  8
ASSI
100
AcDbLine
 62
7
  6
CONTINUOUS
 10
9.4974886323
 20
19.3349933121
 11
7.3508267979
 21
19.3349933121
  0
LINE
  5
62F
100
AcDbEntity
  8
DRAFT
100
AcDbLine
 62
7
  6
CONTINUOUS
 10
6.4491732021
 20
19.3349933121
 11
4.4550387927
 21
19.3349933121
  0
LINE
  5
630
100
AcDbEntity
  8
ASSI
100
AcDbLine
 62
7
  6
CONTINUOUS
 10
6.4491732021
 20
19.3349933121
 11
4.4550387927
 21
19.3349933121
  0
LINE
  5
631
100
AcDbEntity
  8
DRAFT
100
AcDbLine
 62
7
  6
CONTINUOUS
 10
-4.4550387927
 20
19.3349933121
 11
-6.4491732021
 21
19.3349933121
  0
LINE
  5
632
100
AcDbEntity
  8
ASSI
100
AcDbLine
 62
7
  6
CONTINUOUS
 10
-4.4550387927
 20
19.3349933121
 11
-6.4491732021
 21
19.3349933121
  0
LINE
  5
633
100
AcDbEntity
  8
DRAFT
100
AcDbLine
 62
7
  6
CONTINUOUS
 10
-7.3508267979
 20
19.3349933121
 11
-9.4974886323
 21
19.3349933121
  0
LINE
  5
634
100
AcDbEntity
  8
ASSI
100
AcDbLine
 62
7
  6
CONTINUOUS
 10
-7.3508267979
 20
19.3349933121
 11
-9.4974886323
 21
19.3349933121
  0
LINE
  5
635
100
AcDbEntity
  8
ASSI
100
AcDbLine
 62
7
  6
CONTINUOUS
 10
7.3232622727
 20
17.1406761428
 11
7.6257357255
 21
16.8382026899
  0
LINE
  5
636
100
AcDbEntity
  8
RACCORDO
100
AcDbLine
 62
7
  6
CONTINUOUS
 10
7.3497113198
 20
17.1406761428
 11
7.6389602491
 21
16.8514272135
  0
LINE
  5
637
100
AcDbEntity
  8
ASSI
100
AcDbLine
 62
253
  6
CONTINUOUS
 10
0.8
 20
23.7500380762
 11
0.8174550649
 21
23.7325830113
  0
LINE
  5
638
100
AcDbEntity
  8
ASSI
100
AcDbLine
 62
7
  6
CONTINUOUS
 10
3.1173032135
 20
21.6326967865
 11
3.05
 21
21.7
  0
LINE
  5
639
100
AcDbEntity
  8
ASSI
100
AcDbLine
 62
253
  6
CONTINUOUS
 10
1.0499619238
 20
24.0
 11
1.0674169887
 21
23.9825449351
  0
LINE
  5
63A
100
AcDbEntity
  8
ASSI
100
AcDbLine
 62
7
  6
CONTINUOUS
 10
3.5
 20
22.3825449351
 11
3.5806609125
 21
22.3018840226
  0
LINE
  5
63B
100
AcDbEntity
  8
0
100
AcDbLine
 62
7
  6
CONTINUOUS
 10
5.3523651948
 20
20.8476348052
 11
5.1254493507
 21
21.0745506493
  0
LINE
  5
63C
100
AcDbEntity
  8
ASSI
100
AcDbLine
 62
7
  6
CONTINUOUS
 10
5.3523651948
 20
20.8476348052
 11
5.1254493507
 21
21.0745506493
  0
LINE
  5
63D
100
AcDbEntity
  8
ASSI
100
AcDbLine
 62
253
  6
CONTINUOUS
 10
3.5
 20
23.7325830113
 11
3.5806626995
 21
23.6519203118
  0
LINE
  5
63E
100
AcDbEntity
  8
ASSI
100
AcDbLine
 62
253
  6
CONTINUOUS
 10
3.8306228363
 20
-23.9018840226
 11
3.7499619238
 21
-23.9825449351
  0
LINE
  5
63F
100
AcDbEntity
  8
RACCORDO
100
AcDbLine
 62
7
  6
CONTINUOUS
 10
7.3655014363
 20
-20.8344985637
 11
7.2127313221
 21
-20.9872686779
  0
LINE
  5
640
100
AcDbEntity
  8
ASSI
100
AcDbLine
 62
7
  6
CONTINUOUS
 10
7.3650648943
 20
-20.8349351057
 11
7.2127313221
 21
-20.9872686779
  0
LINE
  5
641
100
AcDbEntity
  8
ASSI
100
AcDbLine
 62
7
  6
CONTINUOUS
 10
7.2551134101
 20
-22.3825449351
 11
8.2325449351
 21
-21.4051134101
  0
LINE
  5
642
100
AcDbEntity
  8
ASSI
100
AcDbLine
 62
7
  6
CONTINUOUS
 10
5.1254493507
 20
-20.0872686779
 11
5.4414386569
 21
-19.9292860574
  0
LINE
  5
643
100
AcDbEntity
  8
RACCORDO
100
AcDbLine
 62
253
  6
CONTINUOUS
 10
-9.5639975984
 20
19.4681025177
 11
-7.328661645
 21
19.4681025177
  0
LINE
  5
644
100
AcDbEntity
  8
ASSI
100
AcDbLine
 62
253
  6
CONTINUOUS
 10
-9.5639975984
 20
19.4681025177
 11
-7.328661645
 21
19.4681025177
  0
LINE
  5
645
100
AcDbEntity
  8
RACCORDO
100
AcDbLine
 62
253
  6
CONTINUOUS
 10
6.471338355
 20
19.4681025177
 11
4.4107051106
 21
19.4681025177
  0
LINE
  5
646
100
AcDbEntity
  8
ASSI
100
AcDbLine
 62
253
  6
CONTINUOUS
 10
6.471338355
 20
19.4681025177
 11
4.4107051106
 21
19.4681025177
  0
LINE
  5
647
100
AcDbEntity
  8
RACCORDO
100
AcDbLine
 62
253
  6
CONTINUOUS
 10
-4.4107051106
 20
19.4681025177
 11
-6.471338355
 21
19.4681025177
  0
LINE
  5
648
100
AcDbEntity
  8
ASSI
100
AcDbLine
 62
253
  6
CONTINUOUS
 10
-4.4107051106
 20
19.4681025177
 11
-6.471338355
 21
19.4681025177
  0
LINE
  5
649
100
AcDbEntity
  8
RACCORDO
100
AcDbLine
 62
253
  6
CONTINUOUS
 10
7.328661645
 20
19.4681025177
 11
9.5639975984
 21
19.4681025177
  0
LINE
  5
64A
100
AcDbEntity
  8
ASSI
100
AcDbLine
 62
253
  6
CONTINUOUS
 10
7.328661645
 20
19.4681025177
 11
9.5639975984
 21
19.4681025177
  0
LINE
  5
64B
100
AcDbEntity
  8
RACCORDO
100
AcDbLine
 62
253
  6
CONTINUOUS
 10
-9.5714422353
 20
19.7676913781
 11
-7.3261806034
 21
19.7676913781
  0
LINE
  5
64C
100
AcDbEntity
  8
ASSI
100
AcDbLine
 62
253
  6
CONTINUOUS
 10
-9.5714422353
 20
19.7676913781
 11
-7.3261806034
 21
19.7676913781
  0
LINE
  5
64D
100
AcDbEntity
  8
RACCORDO
100
AcDbLine
 62
253
  6
CONTINUOUS
 10
6.4738193966
 20
19.7676913781
 11
4.4057426494
 21
19.7676913781
  0
LINE
  5
64E
100
AcDbEntity
  8
ASSI
100
AcDbLine
 62
253
  6
CONTINUOUS
 10
6.4738193966
 20
19.7676913781
 11
4.4057426494
 21
19.7676913781
  0
LINE
  5
64F
100
AcDbEntity
  8
RACCORDO
100
AcDbLine
 62
253
  6
CONTINUOUS
 10
-4.4057426494
 20
19.7676913781
 11
-6.4738193966
 21
19.7676913781
  0
LINE
  5
650
100
AcDbEntity
  8
ASSI
100
AcDbLine
 62
253
  6
CONTINUOUS
 10
-4.4057426494
 20
19.7676913781
 11
-6.4738193966
 21
19.7676913781
  0
LINE
  5
651
100
AcDbEntity
  8
RACCORDO
100
AcDbLine
 62
253
  6
CONTINUOUS
 10
7.3261806034
 20
19.7676913781
 11
9.5714422353
 21
19.7676913781
  0
LINE
  5
652
100
AcDbEntity
  8
ASSI
100
AcDbLine
 62
253
  6
CONTINUOUS
 10
7.3261806034
 20
19.7676913781
 11
9.5714422353
 21
19.7676913781
  0
LINE
  5
653
100
AcDbEntity
  8
RACCORDO
100
AcDbLine
 62
7
  6
CONTINUOUS
 10
-6.91317452
 20
19.7872686779
 11
-6.88682548
 21
19.7872686779
  0
LINE
  5
654
100
AcDbEntity
  8
ASSI
100
AcDbLine
 62
7
  6
CONTINUOUS
 10
-6.91317452
 20
19.7872686779
 11
-6.88682548
 21
19.7872686779
  0
LINE
  5
655
100
AcDbEntity
  8
RACCORDO
100
AcDbLine
 62
7
  6
CONTINUOUS
 10
6.88682548
 20
19.7872686779
 11
6.91317452
 21
19.7872686779
  0
LINE
  5
656
100
AcDbEntity
  8
ASSI
100
AcDbLine
 62
7
  6
CONTINUOUS
 10
6.88682548
 20
19.7872686779
 11
6.91317452
 21
19.7872686779
  0
LINE
  5
657
100
AcDbEntity
  8
DRAFT
100
AcDbLine
 62
7
  6
CONTINUOUS
 10
5.3523651948
 20
19.9738193966
 11
4.4057426494
 21
19.9738193966
  0
LINE
  5
658
100
AcDbEntity
  8
ASSI
100
AcDbLine
 62
7
  6
CONTINUOUS
 10
5.3523651948
 20
19.9738193966
 11
4.4057426494
 21
19.9738193966
  0
LINE
  5
659
100
AcDbEntity
  8
DRAFT
100
AcDbLine
 62
7
  6
CONTINUOUS
 10
-4.4057426494
 20
19.9738193966
 11
-5.3523651948
 21
19.9738193966
  0
LINE
  5
65A
100
AcDbEntity
  8
ASSI
100
AcDbLine
 62
7
  6
CONTINUOUS
 10
-4.4057426494
 20
19.9738193966
 11
-5.3523651948
 21
19.9738193966
  0
LINE
  5
65B
100
AcDbEntity
  8
RACCORDO
100
AcDbLine
 62
7
  6
CONTINUOUS
 10
3.8445737581
 20
20.0087268678
 11
-3.8445737581
 21
20.0087268678
  0
LINE
  5
65C
100
AcDbEntity
  8
ASSI
100
AcDbLine
 62
7
  6
CONTINUOUS
 10
3.8445737581
 20
20.0087268678
 11
-3.8445737581
 21
20.0087268678
  0
LINE
  5
65D
100
AcDbEntity
  8
ASSI
100
AcDbLine
 62
7
  6
CONTINUOUS
 10
5.1254493507
 20
20.0872686779
 11
-5.1254493507
 21
20.0872686779
  0
LINE
  5
65E
100
AcDbEntity
  8
ASSI
100
AcDbLine
 62
7
  6
CONTINUOUS
 10
11.1261859216
 20
20.4226497308
 11
11.0825449351
 21
20.4226497308
  0
LINE
  5
65F
100
AcDbEntity
  8
ASSI
100
AcDbLine
 62
7
  6
CONTINUOUS
 10
-11.1261859216
 20
20.4226497308
 11
-11.0825449351
 21
20.4226497308
  0
LINE
  5
660
100
AcDbEntity
  8
ASSI
100
AcDbLine
 62
7
  6
CONTINUOUS
 10
3.3850964806
 20
20.8
 11
-3.3850964806
 21
20.8
  0
LINE
  5
661
100
AcDbEntity
  8
0
100
AcDbLine
 62
7
  6
CONTINUOUS
 10
-6.4738193966
 20
20.8476348052
 11
-5.3523651948
 21
20.8476348052
  0
LINE
  5
662
100
AcDbEntity
  8
ASSI
100
AcDbLine
 62
7
  6
CONTINUOUS
 10
-6.4738193966
 20
20.8476348052
 11
-5.3523651948
 21
20.8476348052
  0
LINE
  5
663
100
AcDbEntity
  8
0
100
AcDbLine
 62
7
  6
CONTINUOUS
 10
5.3523651948
 20
20.8476348052
 11
6.4738193966
 21
20.8476348052
  0
LINE
  5
664
100
AcDbEntity
  8
ASSI
100
AcDbLine
 62
7
  6
CONTINUOUS
 10
5.3523651948
 20
20.8476348052
 11
6.4738193966
 21
20.8476348052
  0
LINE
  5
665
100
AcDbEntity
  8
0
100
AcDbLine
 62
7
  6
CONTINUOUS
 10
-9.5714422353
 20
20.8738193966
 11
-7.3261806034
 21
20.8738193966
  0
LINE
  5
666
100
AcDbEntity
  8
ASSI
100
AcDbLine
 62
7
  6
CONTINUOUS
 10
-9.5714422353
 20
20.8738193966
 11
-7.3261806034
 21
20.8738193966
  0
LINE
  5
667
100
AcDbEntity
  8
0
100
AcDbLine
 62
7
  6
CONTINUOUS
 10
7.3261806034
 20
20.8738193966
 11
9.5714422353
 21
20.8738193966
  0
LINE
  5
668
100
AcDbEntity
  8
ASSI
100
AcDbLine
 62
7
  6
CONTINUOUS
 10
7.3261806034
 20
20.8738193966
 11
9.5714422353
 21
20.8738193966
  0
LINE
  5
669
100
AcDbEntity
  8
ASSI
100
AcDbLine
 62
7
  6
CONTINUOUS
 10
9.65
 20
20.9
 11
8.2325449351
 21
20.9
  0
LINE
  5
66A
100
AcDbEntity
  8
ASSI
100
AcDbLine
 62
7
  6
CONTINUOUS
 10
-8.2325449351
 20
20.9
 11
-9.65
 21
20.9
  0
LINE
  5
66B
100
AcDbEntity
  8
ASSI
100
AcDbLine
 62
7
  6
CONTINUOUS
 10
-8.0579942858
 20
20.9872686779
 11
-7.2127313221
 21
20.9872686779
  0
LINE
  5
66C
100
AcDbEntity
  8
ASSI
100
AcDbLine
 62
7
  6
CONTINUOUS
 10
7.2127313221
 20
20.9872686779
 11
8.0579942858
 21
20.9872686779
  0
LINE
  5
66D
100
AcDbEntity
  8
ASSI
100
AcDbLine
 62
7
  6
CONTINUOUS
 10
-6.5872686779
 20
21.0745506493
 11
-5.1254493507
 21
21.0745506493
  0
LINE
  5
66E
100
AcDbEntity
  8
ASSI
100
AcDbLine
 62
7
  6
CONTINUOUS
 10
5.1254493507
 20
21.0745506493
 11
6.5872686779
 21
21.0745506493
  0
LINE
  5
66F
100
AcDbEntity
  8
ASSI
100
AcDbLine
 62
253
  6
CONTINUOUS
 10
8.0579942858
 20
21.2252970227
 11
3.1351059998
 21
21.2252970227
  0
LINE
  5
670
100
AcDbEntity
  8
ASSI
100
AcDbLine
 62
253
  6
CONTINUOUS
 10
-3.1351059998
 20
21.2252970227
 11
-8.0579942858
 21
21.2252970227
  0
LINE
  5
671
100
AcDbEntity
  8
RACCORDO
100
AcDbLine
 62
7
  6
CONTINUOUS
 10
4.4057426494
 20
19.9738193966
 11
4.3444976057
 21
20.0044395863
  0
LINE
  5
672
100
AcDbEntity
  8
ASSI
100
AcDbLine
 62
7
  6
CONTINUOUS
 10
4.4057426494
 20
19.9738193966
 11
4.3444976057
 21
20.0044395863
  0
LINE
  5
673
100
AcDbEntity
  8
0
100
AcDbLine
 62
7
  6
CONTINUOUS
 10
5.3523651948
 20
19.9738193966
 11
5.1254493507
 21
20.0872686779
  0
LINE
  5
674
100
AcDbEntity
  8
ASSI
100
AcDbLine
 62
7
  6
CONTINUOUS
 10
5.3523651948
 20
19.9738193966
 11
5.1254493507
 21
20.0872686779
  0
LINE
  5
675
100
AcDbEntity
  8
ASSI
100
AcDbLine
 62
253
  6
CONTINUOUS
 10
3.7499619238
 20
23.9825449351
 11
3.8306228363
 21
23.9018840226
  0
LINE
  5
676
100
AcDbEntity
  8
0
100
AcDbLine
 62
7
  6
CONTINUOUS
 10
7.2127313221
 20
20.9872686779
 11
7.3261806034
 21
20.8738193966
  0
LINE
  5
677
100
AcDbEntity
  8
ASSI
100
AcDbLine
 62
7
  6
CONTINUOUS
 10
7.2127313221
 20
20.9872686779
 11
7.3261806034
 21
20.8738193966
  0
LINE
  5
678
100
AcDbEntity
  8
ASSI
100
AcDbLine
 62
7
  6
CONTINUOUS
 10
8.2325449351
 20
21.4051134101
 11
7.2551134101
 21
22.3825449351
  0
LINE
  5
679
100
AcDbEntity
  8
ASSI
100
AcDbLine
 62
7
  6
CONTINUOUS
 10
8.5
 20
-22.4
 11
8.5131674569
 21
-22.3868325431
  0
LINE
  5
67A
100
AcDbEntity
  8
ASSI
100
AcDbLine
 62
253
  6
CONTINUOUS
 10
7.2131674569
 20
-24.2868630041
 11
7.2
 21
-24.300030461
  0
LINE
  5
67B
100
AcDbEntity
  8
ASSI
100
AcDbLine
 62
253
  6
CONTINUOUS
 10
7.4131369959
 20
-24.4868325431
 11
7.399969539
 21
-24.5
  0
LINE
  5
67C
100
AcDbEntity
  8
ASSI
100
AcDbLine
 62
7
  6
CONTINUOUS
 10
8.0579942858
 20
-20.9872686779
 11
8.2325449351
 21
-20.9
  0
LINE
  5
67D
100
AcDbEntity
  8
ASSI
100
AcDbLine
 62
7
  6
CONTINUOUS
 10
8.0584656028
 20
-21.4561094406
 11
8.2325449351
 21
-21.4051134101
  0
LINE
  5
67E
100
AcDbEntity
  8
ASSI
100
AcDbLine
 62
7
  6
CONTINUOUS
 10
-0.8
 20
22.4
 11
-0.8174550649
 21
22.398254669
  0
LINE
  5
67F
100
AcDbEntity
  8
ASSI
100
AcDbLine
 62
7
  6
CONTINUOUS
 10
-3.1173032135
 20
21.6326967865
 11
3.1173032135
 21
21.6326967865
  0
LINE
  5
680
100
AcDbEntity
  8
ASSI
100
AcDbLine
 62
7
  6
CONTINUOUS
 10
-3.05
 20
21.7
 11
3.05
 21
21.7
  0
LINE
  5
681
100
AcDbEntity
  8
ASSI
100
AcDbLine
 62
253
  6
CONTINUOUS
 10
7.3012233427
 20
22.2251447178
 11
3.3786655583
 21
22.2251447178
  0
LINE
  5
682
100
AcDbEntity
  8
ASSI
100
AcDbLine
 62
253
  6
CONTINUOUS
 10
-3.3786655583
 20
22.2251447178
 11
-7.3012233427
 21
22.2251447178
  0
LINE
  5
683
100
AcDbEntity
  8
ASSI
100
AcDbLine
 62
7
  6
CONTINUOUS
 10
10.5826210875
 20
22.3825449351
 11
9.0368706193
 21
22.3825449351
  0
LINE
  5
684
100
AcDbEntity
  8
ASSI
100
AcDbLine
 62
7
  6
CONTINUOUS
 10
8.7631293807
 20
22.3825449351
 11
7.2551134101
 21
22.3825449351
  0
LINE
  5
685
100
AcDbEntity
  8
ASSI
100
AcDbLine
 62
7
  6
CONTINUOUS
 10
3.5
 20
22.3825449351
 11
3.2999714434
 21
22.3825449351
  0
LINE
  5
686
100
AcDbEntity
  8
ASSI
100
AcDbLine
 62
7
  6
CONTINUOUS
 10
-3.2999714434
 20
22.3825449351
 11
-3.5
 21
22.3825449351
  0
LINE
  5
687
100
AcDbEntity
  8
ASSI
100
AcDbLine
 62
7
  6
CONTINUOUS
 10
-7.2551134101
 20
22.3825449351
 11
-8.7631293807
 21
22.3825449351
  0
LINE
  5
688
100
AcDbEntity
  8
ASSI
100
AcDbLine
 62
7
  6
CONTINUOUS
 10
-9.0368706193
 20
22.3825449351
 11
-10.5826210875
 21
22.3825449351
  0
LINE
  5
689
100
AcDbEntity
  8
ASSI
100
AcDbLine
 62
7
  6
CONTINUOUS
 10
0.8174550649
 20
22.398254669
 11
-0.8174550649
 21
22.398254669
  0
LINE
  5
68A
100
AcDbEntity
  8
ASSI
100
AcDbLine
 62
7
  6
CONTINUOUS
 10
10.6
 20
22.3999999999
 11
9.3
 21
22.4
  0
LINE
  5
68B
100
AcDbEntity
  8
ASSI
100
AcDbLine
 62
7
  6
CONTINUOUS
 10
8.5
 20
22.4
 11
4.45
 21
22.4
  0
LINE
  5
68C
100
AcDbEntity
  8
ASSI
100
AcDbLine
 62
7
  6
CONTINUOUS
 10
-4.45
 20
22.4
 11
-8.5
 21
22.4
  0
LINE
  5
68D
100
AcDbEntity
  8
ASSI
100
AcDbLine
 62
7
  6
CONTINUOUS
 10
-9.3
 20
22.4
 11
-10.6000000646
 21
22.3999999354
  0
LINE
  5
68E
100
AcDbEntity
  8
ASSI
100
AcDbLine
 62
7
  6
CONTINUOUS
 10
10.4017150409
 20
23.1226497308
 11
9.3
 21
23.1226497308
  0
LINE
  5
68F
100
AcDbEntity
  8
ASSI
100
AcDbLine
 62
7
  6
CONTINUOUS
 10
8.5
 20
23.1226497308
 11
7.3982849591
 21
23.1226497308
  0
LINE
  5
690
100
AcDbEntity
  8
ASSI
100
AcDbLine
 62
7
  6
CONTINUOUS
 10
-7.3982849591
 20
23.1226497308
 11
-8.5
 21
23.1226497308
  0
LINE
  5
691
100
AcDbEntity
  8
ASSI
100
AcDbLine
 62
7
  6
CONTINUOUS
 10
-9.3
 20
23.1226497308
 11
-10.4017150409
 21
23.1226497308
  0
LINE
  5
692
100
AcDbEntity
  8
ASSI
100
AcDbLine
 62
7
  6
CONTINUOUS
 10
0.8
 20
22.4
 11
0.8174550649
 21
22.398254669
  0
LINE
  5
693
100
AcDbEntity
  8
ASSI
100
AcDbLine
 62
7
  6
CONTINUOUS
 10
8.0584656028
 20
21.4561094406
 11
8.2325449351
 21
21.4051134101
  0
LINE
  5
694
100
AcDbEntity
  8
ASSI
100
AcDbLine
 62
7
  6
CONTINUOUS
 10
8.0579942858
 20
20.9872686779
 11
8.2325449351
 21
20.9
  0
LINE
  5
695
100
AcDbEntity
  8
ASSI
100
AcDbLine
 62
7
  6
CONTINUOUS
 10
8.5
 20
22.4
 11
8.5131674569
 21
22.3868325431
  0
LINE
  5
696
100
AcDbEntity
  8
ASSI
100
AcDbLine
 62
253
  6
CONTINUOUS
 10
7.2
 20
24.300030461
 11
7.2131674569
 21
24.286863004
  0
LINE
  5
697
100
AcDbEntity
  8
ASSI
100
AcDbLine
 62
253
  6
CONTINUOUS
 10
7.399969539
 20
24.5
 11
7.4131370461
 21
24.486832493
  0
LINE
  5
698
100
AcDbEntity
  8
ASSI
100
AcDbLine
 62
253
  6
CONTINUOUS
 10
-8.5466230298
 20
23.6278312163
 11
-7.4135581409
 21
23.6278312163
  0
LINE
  5
699
100
AcDbEntity
  8
ASSI
100
AcDbLine
 62
253
  6
CONTINUOUS
 10
7.4135581409
 20
23.6278312163
 11
8.5466230298
 21
23.6278312163
  0
LINE
  5
69A
100
AcDbEntity
  8
ASSI
100
AcDbLine
 62
253
  6
CONTINUOUS
 10
-10.3864421555
 20
23.6278214108
 11
-9.2533769702
 21
23.6278312163
  0
LINE
  5
69B
100
AcDbEntity
  8
ASSI
100
AcDbLine
 62
253
  6
CONTINUOUS
 10
9.2533769702
 20
23.6278312163
 11
10.3864421556
 21
23.6278214068
  0
LINE
  5
69C
100
AcDbEntity
  8
ASSI
100
AcDbLine
 62
253
  6
CONTINUOUS
 10
-8.7631293807
 20
23.8443375673
 11
-7.2140249785
 21
23.8443375673
  0
LINE
  5
69D
100
AcDbEntity
  8
ASSI
100
AcDbLine
 62
253
  6
CONTINUOUS
 10
8.7631293807
 20
23.8443375673
 11
7.2140249785
 21
23.8443375673
  0
LINE
  5
69E
100
AcDbEntity
  8
ASSI
100
AcDbLine
 62
253
  6
CONTINUOUS
 10
-10.5859750215
 20
23.8443375673
 11
-9.0368706193
 21
23.8443375673
  0
LINE
  5
69F
100
AcDbEntity
  8
ASSI
100
AcDbLine
 62
7
  6
CONTINUOUS
 10
-3.7499619238
 20
23.9825449351
 11
-1.0674169887
 21
23.9825449351
  0
LINE
  5
6A0
100
AcDbEntity
  8
ASSI
100
AcDbLine
 62
7
  6
CONTINUOUS
 10
1.0674169887
 20
23.9825449351
 11
3.7499619238
 21
23.9825449351
  0
LINE
  5
6A1
100
AcDbEntity
  8
ASSI
100
AcDbLine
 62
7
  6
CONTINUOUS
 10
4.2000380762
 20
24.0
 11
1.0499619238
 21
24.0
  0
LINE
  5
6A2
100
AcDbEntity
  8
ASSI
100
AcDbLine
 62
7
  6
CONTINUOUS
 10
-1.0499619238
 20
24.0
 11
-4.2000380762
 21
24.0
  0
LINE
  5
6A3
100
AcDbEntity
  8
ASSI
100
AcDbLine
 62
253
  6
CONTINUOUS
 10
-10.5859750215
 20
24.2368706193
 11
-7.2140249785
 21
24.2368706193
  0
LINE
  5
6A4
100
AcDbEntity
  8
ASSI
100
AcDbLine
 62
253
  6
CONTINUOUS
 10
7.2140249785
 20
24.2368706193
 11
10.5859750215
 21
24.2368706193
  0
LINE
  5
6A5
100
AcDbEntity
  8
ASSI
100
AcDbLine
 62
253
  6
CONTINUOUS
 10
-10.3868630041
 20
24.4868325431
 11
-7.413136996
 21
24.4868325431
  0
LINE
  5
6A6
100
AcDbEntity
  8
ASSI
100
AcDbLine
 62
253
  6
CONTINUOUS
 10
7.4131370461
 20
24.486832493
 11
10.386863004
 21
24.4868325431
  0
LINE
  5
6A7
100
AcDbEntity
  8
ASSI
100
AcDbLine
 62
7
  6
CONTINUOUS
 10
10.400030461
 20
24.5
 11
7.399969539
 21
24.5
  0
LINE
  5
6A8
100
AcDbEntity
  8
ASSI
100
AcDbLine
 62
7
  6
CONTINUOUS
 10
-7.399969539
 20
24.5
 11
-10.400030461
 21
24.5
  0
LINE
  5
6A9
100
AcDbEntity
  8
ASSI
100
AcDbLine
 62
253
  6
CONTINUOUS
 10
9.0368706193
 20
23.8443375673
 11
10.5859750215
 21
23.8443375673
  0
ARC
  5
6AA
100
AcDbEntity
  8
ASSI
100
AcDbCircle
 62
253
  6
CONTINUOUS
 10
-27.4472628223
 20
-23.8063480255
 40
34.8612780391
100
AcDbArc
 50
359.9375627928
 51
0.2933988113
  0
ARC
  5
6AB
100
AcDbEntity
  8
ASSI
100
AcDbCircle
 62
253
  6
CONTINUOUS
 10
-45.6667535895
 20
23.8071705124
 40
35.2807675403
100
AcDbArc
 50
359.708736756
 51
0.0602180988
  0
ARC
  5
6AC
100
AcDbEntity
  8
ASSI
100
AcDbCircle
 62
7
  6
CONTINUOUS
 10
-0.6114438179
 20
-0.4391256665
 40
1.5
100
AcDbArc
 50
262.4701015338
 51
270.0
  0
ARC
  5
6AD
100
AcDbEntity
  8
ASSI
100
AcDbCircle
 62
7
  6
CONTINUOUS
 10
-0.6114438179
 20
-0.4391256665
 40
1.5
100
AcDbArc
 50
232.306026227
 51
239.5134196248
  0
ARC
  5
6AE
100
AcDbEntity
  8
RACCORDO
100
AcDbCircle
 62
7
  6
CONTINUOUS
 10
-2.6990254643
 20
-2.6
 40
1.5
100
AcDbArc
 50
47.5647665111
 51
90.0
  0
ARC
  5
6AF
100
AcDbEntity
  8
ASSI
100
AcDbCircle
 62
7
  6
CONTINUOUS
 10
-3.8
 20
-0.7
 40
0.75
100
AcDbArc
 50
103.619772738
 51
198.979663255
  0
ARC
  5
6B0
100
AcDbEntity
  8
ASSI
100
AcDbCircle
 62
7
  6
CONTINUOUS
 10
-3.8
 20
-0.7
 40
0.75
100
AcDbArc
 50
327.7515527084
 51
32.2484472916
  0
ARC
  5
6B1
100
AcDbEntity
  8
ASSI
100
AcDbCircle
 62
7
  6
CONTINUOUS
 10
-8.2470535958
 20
-8.0972870349
 40
0.5002641236
100
AcDbArc
 50
180.0127992885
 51
269.9355607449
  0
ARC
  5
6B2
100
AcDbEntity
  8
ASSI
100
AcDbCircle
 62
7
  6
CONTINUOUS
 10
-4.0
 20
-23.2
 40
0.5
100
AcDbArc
 50
154.1580672368
 51
205.8419327632
  0
ARC
  5
6B3
100
AcDbEntity
  8
ASSI
100
AcDbCircle
 62
7
  6
CONTINUOUS
 10
-10.6001965633
 20
-21.9001876088
 40
0.4997987011
100
AcDbArc
 50
179.9784662102
 51
264.0622656342
  0
ARC
  5
6B4
100
AcDbEntity
  8
ASSI
100
AcDbCircle
 62
7
  6
CONTINUOUS
 10
-10.6000775033
 20
-21.9017571384
 40
0.4982426035
100
AcDbArc
 50
264.02997652
 51
270.0089125496
  0
ARC
  5
6B5
100
AcDbEntity
  8
ASSI
100
AcDbCircle
 62
7
  6
CONTINUOUS
 10
-4.0
 20
-23.2
 40
0.4904006794
100
AcDbArc
 50
136.2076703059
 51
223.7923296941
  0
ARC
  5
6B6
100
AcDbEntity
  8
ASSI
100
AcDbCircle
 62
7
  6
CONTINUOUS
 10
-1.1
 20
-1.8573332877
 40
0.3
100
AcDbArc
 50
346.7309310566
 51
155.252590102
  0
ARC
  5
6B7
100
AcDbEntity
  8
ASSI
100
AcDbCircle
 62
253
  6
CONTINUOUS
 10
-4.1018306318
 20
-23.6518306318
 40
0.2500538637
100
AcDbArc
 50
180.0209582276
 51
269.9790417724
  0
ARC
  5
6B8
100
AcDbEntity
  8
ASSI
100
AcDbCircle
 62
253
  6
CONTINUOUS
 10
-3.8307142369
 20
-23.6518306982
 40
0.2500538587
100
AcDbArc
 50
270.0209430227
 51
359.979057015
  0
ARC
  5
6B9
100
AcDbEntity
  8
ASSI
100
AcDbCircle
 62
253
  6
CONTINUOUS
 10
-3.3786960099
 20
-21.9751217953
 40
0.2500221687
100
AcDbArc
 50
270.0069783445
 51
359.9860212836
  0
ARC
  5
6BA
100
AcDbEntity
  8
ASSI
100
AcDbCircle
 62
7
  6
CONTINUOUS
 10
-1.0499674725
 20
-23.7500325275
 40
0.2499699324
100
AcDbArc
 50
270.0012718308
 51
359.9987281692
  0
ARC
  5
6BB
100
AcDbEntity
  8
ASSI
100
AcDbCircle
 62
7
  6
CONTINUOUS
 10
-4.200039576
 20
-23.750039576
 40
0.2499612619
100
AcDbArc
 50
179.9996562094
 51
270.0003437906
  0
ARC
  5
6BC
100
AcDbEntity
  8
ASSI
100
AcDbCircle
 62
253
  6
CONTINUOUS
 10
-10.3867898305
 20
-24.2867898305
 40
0.2000430909
100
AcDbArc
 50
180.020958194
 51
269.979041806
  0
ARC
  5
6BD
100
AcDbEntity
  8
ASSI
100
AcDbCircle
 62
253
  6
CONTINUOUS
 10
-7.4132101695
 20
-24.2867898305
 40
0.2000430909
100
AcDbArc
 50
270.0209581889
 51
359.9790418111
  0
ARC
  5
6BE
100
AcDbEntity
  8
ASSI
100
AcDbCircle
 62
7
  6
CONTINUOUS
 10
-10.4000426585
 20
-24.3000426585
 40
0.1999569277
100
AcDbArc
 50
179.9965049109
 51
270.0034950891
  0
ARC
  5
6BF
100
AcDbEntity
  8
ASSI
100
AcDbCircle
 62
7
  6
CONTINUOUS
 10
-7.3999572982
 20
-24.3000427018
 40
0.1999569277
100
AcDbArc
 50
269.9964925066
 51
0.0035074934
  0
ARC
  5
6C0
100
AcDbEntity
  8
ASSI
100
AcDbCircle
 62
7
  6
CONTINUOUS
 10
-3.8230544373
 20
0.55
 40
1.65
100
AcDbArc
 50
180.0
 51
270.0
  0
ARC
  5
6C1
100
AcDbEntity
  8
ASSI
100
AcDbCircle
 62
7
  6
CONTINUOUS
 10
-8.246606861
 20
9.4968139551
 40
0.5002809426
100
AcDbArc
 50
90.0634451044
 51
179.9823680274
  0
ARC
  5
6C2
100
AcDbEntity
  8
RACCORDO
100
AcDbCircle
 62
253
  6
CONTINUOUS
 10
-3.8443906022
 20
17.9556093978
 40
0.5001077272
100
AcDbArc
 50
180.020983631
 51
269.979016369
  0
ARC
  5
6C3
100
AcDbEntity
  8
ASSI
100
AcDbCircle
 62
253
  6
CONTINUOUS
 10
-3.8443906022
 20
17.9556093978
 40
0.5001077272
100
AcDbArc
 50
180.020983631
 51
269.979016369
  0
ARC
  5
6C4
100
AcDbEntity
  8
ASSI
100
AcDbCircle
 62
253
  6
CONTINUOUS
 10
-8.2411595482
 20
9.4911595482
 40
0.5000215391
100
AcDbArc
 50
90.0111930432
 51
179.9888069568
  0
ARC
  5
6C5
100
AcDbEntity
  8
ASSI
100
AcDbCircle
 62
7
  6
CONTINUOUS
 10
-4.0
 20
23.2
 40
0.5
100
AcDbArc
 50
154.1580672368
 51
205.8419327632
  0
ARC
  5
6C6
100
AcDbEntity
  8
ASSI
100
AcDbCircle
 62
7
  6
CONTINUOUS
 10
-10.6001958398
 20
21.9001874063
 40
0.4997991979
100
AcDbArc
 50
95.9372642395
 51
180.0127537484
  0
ARC
  5
6C7
100
AcDbEntity
  8
ASSI
100
AcDbCircle
 62
7
  6
CONTINUOUS
 10
-10.6000774723
 20
21.9017624593
 40
0.4982374763
100
AcDbArc
 50
89.9910983444
 51
95.9695387208
  0
ARC
  5
6C8
100
AcDbEntity
  8
ASSI
100
AcDbCircle
 62
7
  6
CONTINUOUS
 10
-4.0
 20
23.2
 40
0.4904006794
100
AcDbArc
 50
136.2076703059
 51
223.7923296941
  0
ARC
  5
6C9
100
AcDbEntity
  8
RACCORDO
100
AcDbCircle
 62
7
  6
CONTINUOUS
 10
-7.6
 20
8.4
 40
0.3
100
AcDbArc
 50
90.0
 51
180.0
  0
ARC
  5
6CA
100
AcDbEntity
  8
RACCORDO
100
AcDbCircle
 62
7
  6
CONTINUOUS
 10
-2.7
 20
2.9
 40
0.3
100
AcDbArc
 50
180.0
 51
270.0
  0
ARC
  5
6CB
100
AcDbEntity
  8
RACCORDO
100
AcDbCircle
 62
7
  6
CONTINUOUS
 10
-1.9232885654
 20
2.9
 40
0.3
100
AcDbArc
 50
270.0
 51
313.3843301092
  0
ARC
  5
6CC
100
AcDbEntity
  8
RACCORDO
100
AcDbCircle
 62
7
  6
CONTINUOUS
 10
-3.1002197165
 20
14.1021386278
 40
0.2997946417
100
AcDbArc
 50
180.0420431968
 51
270.0419895132
  0
ARC
  5
6CD
100
AcDbEntity
  8
ASSI
100
AcDbCircle
 62
253
  6
CONTINUOUS
 10
-3.8307142419
 20
23.6518306931
 40
0.2500538638
100
AcDbArc
 50
0.0209441674
 51
89.9790558326
  0
ARC
  5
6CE
100
AcDbEntity
  8
ASSI
100
AcDbCircle
 62
253
  6
CONTINUOUS
 10
-4.1018306349
 20
23.651830635
 40
0.2500538605
100
AcDbArc
 50
90.0209574986
 51
179.9790425324
  0
ARC
  5
6CF
100
AcDbEntity
  8
ASSI
100
AcDbCircle
 62
253
  6
CONTINUOUS
 10
-3.3786960169
 20
21.9751217896
 40
0.2500221685
100
AcDbArc
 50
0.0139800263
 51
89.993020061
  0
ARC
  5
6D0
100
AcDbEntity
  8
ASSI
100
AcDbCircle
 62
7
  6
CONTINUOUS
 10
-1.0499674725
 20
23.7500325275
 40
0.2499699324
100
AcDbArc
 50
0.0012718308
 51
89.9987281692
  0
ARC
  5
6D1
100
AcDbEntity
  8
ASSI
100
AcDbCircle
 62
7
  6
CONTINUOUS
 10
-4.2000325275
 20
23.7500325275
 40
0.2499699324
100
AcDbArc
 50
90.0012718308
 51
179.9987281692
  0
ARC
  5
6D2
100
AcDbEntity
  8
ASSI
100
AcDbCircle
 62
253
  6
CONTINUOUS
 10
-10.3867898797
 20
24.2867898797
 40
0.2000430909
100
AcDbArc
 50
90.020944126
 51
179.979055874
  0
ARC
  5
6D3
100
AcDbEntity
  8
ASSI
100
AcDbCircle
 62
253
  6
CONTINUOUS
 10
-7.4132101203
 20
24.2867898797
 40
0.2000430909
100
AcDbArc
 50
0.020944126
 51
89.979055874
  0
ARC
  5
6D4
100
AcDbEntity
  8
ASSI
100
AcDbCircle
 62
253
  6
CONTINUOUS
 10
-8.2412637492
 20
9.4912637492
 40
0.1999621671
100
AcDbArc
 50
89.9981320655
 51
180.0018679348
  0
ARC
  5
6D5
100
AcDbEntity
  8
ASSI
100
AcDbCircle
 62
7
  6
CONTINUOUS
 10
-10.4000427018
 20
24.3000427018
 40
0.1999569277
100
AcDbArc
 50
89.9964925066
 51
180.0035074934
  0
ARC
  5
6D6
100
AcDbEntity
  8
ASSI
100
AcDbCircle
 62
7
  6
CONTINUOUS
 10
-7.3999572982
 20
24.3000427018
 40
0.1999569277
100
AcDbArc
 50
359.9964925066
 51
90.0035074934
  0
ARC
  5
6D7
100
AcDbEntity
  8
ASSI
100
AcDbCircle
 62
7
  6
CONTINUOUS
 10
-0.0000209391
 20
-236.2715399325
 40
247.8371496466
100
AcDbArc
 50
89.4898640022
 51
89.6877407016
  0
ARC
  5
6D8
100
AcDbEntity
  8
ASSI
100
AcDbCircle
 62
7
  6
CONTINUOUS
 10
0.0000208063
 20
-236.2715228655
 40
247.8371325791
100
AcDbArc
 50
90.3138735009
 51
90.5101360022
  0
ARC
  5
6D9
100
AcDbEntity
  8
ASSI
100
AcDbCircle
 62
7
  6
CONTINUOUS
 10
0.6114438179
 20
-0.4391256665
 40
1.5
100
AcDbArc
 50
300.4865803752
 51
307.693973773
  0
ARC
  5
6DA
100
AcDbEntity
  8
ASSI
100
AcDbCircle
 62
7
  6
CONTINUOUS
 10
0.6114438179
 20
-0.4391256665
 40
1.5
100
AcDbArc
 50
270.0
 51
277.5298984662
  0
ARC
  5
6DB
100
AcDbEntity
  8
RACCORDO
100
AcDbCircle
 62
7
  6
CONTINUOUS
 10
2.6990254643
 20
-2.6
 40
1.5
100
AcDbArc
 50
90.0
 51
132.4352334889
  0
ARC
  5
6DC
100
AcDbEntity
  8
ASSI
100
AcDbCircle
 62
253
  6
CONTINUOUS
 10
8.2528149461
 20
-8.0965343035
 40
0.7510325203
100
AcDbArc
 50
270.041981506
 51
359.9661494544
  0
ARC
  5
6DD
100
AcDbEntity
  8
ASSI
100
AcDbCircle
 62
7
  6
CONTINUOUS
 10
3.8
 20
-0.7
 40
0.75
100
AcDbArc
 50
147.7515527084
 51
212.2484472916
  0
ARC
  5
6DE
100
AcDbEntity
  8
ASSI
100
AcDbCircle
 62
7
  6
CONTINUOUS
 10
3.8
 20
-0.7
 40
0.75
100
AcDbArc
 50
341.020336745
 51
83.0932935909
  0
ARC
  5
6DF
100
AcDbEntity
  8
ASSI
100
AcDbCircle
 62
253
  6
CONTINUOUS
 10
8.2425250236
 20
-8.092880691
 40
0.5003101056
100
AcDbArc
 50
270.0936714567
 51
359.9931250188
  0
ARC
  5
6E0
100
AcDbEntity
  8
ASSI
100
AcDbCircle
 62
7
  6
CONTINUOUS
 10
4.0
 20
-23.2
 40
0.5
100
AcDbArc
 50
334.1580672368
 51
25.8419327632
  0
ARC
  5
6E1
100
AcDbEntity
  8
ASSI
100
AcDbCircle
 62
7
  6
CONTINUOUS
 10
10.6001958906
 20
-21.9001874477
 40
0.4997992483
100
AcDbArc
 50
275.9372589344
 51
0.0127584994
  0
ARC
  5
6E2
100
AcDbEntity
  8
ASSI
100
AcDbCircle
 62
7
  6
CONTINUOUS
 10
10.6000774723
 20
-21.9017624593
 40
0.4982374763
100
AcDbArc
 50
269.9910983444
 51
275.9695387207
  0
ARC
  5
6E3
100
AcDbEntity
  8
ASSI
100
AcDbCircle
 62
7
  6
CONTINUOUS
 10
4.0
 20
-23.2
 40
0.4904006794
100
AcDbArc
 50
316.2076703059
 51
43.7923296941
  0
ARC
  5
6E4
100
AcDbEntity
  8
ASSI
100
AcDbCircle
 62
7
  6
CONTINUOUS
 10
1.1
 20
-1.8573332877
 40
0.3
100
AcDbArc
 50
24.747409898
 51
193.2690689434
  0
ARC
  5
6E5
100
AcDbEntity
  8
ASSI
100
AcDbCircle
 62
253
  6
CONTINUOUS
 10
3.8307143033
 20
-23.6518306318
 40
0.2500538637
100
AcDbArc
 50
180.0209582276
 51
269.9790417724
  0
ARC
  5
6E6
100
AcDbEntity
  8
ASSI
100
AcDbCircle
 62
253
  6
CONTINUOUS
 10
4.1018306981
 20
-23.6518306982
 40
0.2500538587
100
AcDbArc
 50
270.0209430227
 51
359.979057015
  0
ARC
  5
6E7
100
AcDbEntity
  8
ASSI
100
AcDbCircle
 62
253
  6
CONTINUOUS
 10
3.3786960115
 20
-21.9751217973
 40
0.2500221685
100
AcDbArc
 50
180.0139782614
 51
269.9930212821
  0
ARC
  5
6E8
100
AcDbEntity
  8
ASSI
100
AcDbCircle
 62
7
  6
CONTINUOUS
 10
4.2000325275
 20
-23.7500325275
 40
0.2499699324
100
AcDbArc
 50
270.0012718308
 51
359.9987281692
  0
ARC
  5
6E9
100
AcDbEntity
  8
ASSI
100
AcDbCircle
 62
7
  6
CONTINUOUS
 10
1.0499604239
 20
-23.7500395761
 40
0.2499612619
100
AcDbArc
 50
179.9996562072
 51
270.0003437928
  0
ARC
  5
6EA
100
AcDbEntity
  8
ASSI
100
AcDbCircle
 62
253
  6
CONTINUOUS
 10
7.4132101695
 20
-24.2867898305
 40
0.2000430909
100
AcDbArc
 50
180.020958193
 51
269.979041807
  0
ARC
  5
6EB
100
AcDbEntity
  8
ASSI
100
AcDbCircle
 62
253
  6
CONTINUOUS
 10
10.3867898797
 20
-24.2867898797
 40
0.2000430909
100
AcDbArc
 50
270.0209441258
 51
359.9790558742
  0
ARC
  5
6EC
100
AcDbEntity
  8
ASSI
100
AcDbCircle
 62
7
  6
CONTINUOUS
 10
7.3999573415
 20
-24.3000426585
 40
0.1999569277
100
AcDbArc
 50
179.9965049109
 51
270.0034950891
  0
ARC
  5
6ED
100
AcDbEntity
  8
ASSI
100
AcDbCircle
 62
7
  6
CONTINUOUS
 10
10.4000427018
 20
-24.3000427018
 40
0.1999569277
100
AcDbArc
 50
269.9964925066
 51
0.0035074934
  0
ARC
  5
6EE
100
AcDbEntity
  8
ASSI
100
AcDbCircle
 62
7
  6
CONTINUOUS
 10
-0.0
 20
0.8928609057
 40
3.0
100
AcDbArc
 50
53.3579514426
 51
126.6420485574
  0
ARC
  5
6EF
100
AcDbEntity
  8
RACCORDO
100
AcDbCircle
 62
7
  6
CONTINUOUS
 10
-0.0
 20
0.352162181
 40
2.5
100
AcDbArc
 50
307.693973773
 51
312.4352334889
  0
ARC
  5
6F0
100
AcDbEntity
  8
RACCORDO
100
AcDbCircle
 62
7
  6
CONTINUOUS
 10
-0.0
 20
0.352162181
 40
2.5
100
AcDbArc
 50
227.5647665111
 51
232.306026227
  0
ARC
  5
6F1
100
AcDbEntity
  8
RACCORDO
100
AcDbCircle
 62
7
  6
CONTINUOUS
 10
-0.0
 20
0.8650648427
 40
2.5
100
AcDbArc
 50
46.6156698908
 51
133.3843301092
  0
ARC
  5
6F2
100
AcDbEntity
  8
ASSI
100
AcDbCircle
 62
7
  6
CONTINUOUS
 10
3.8230544373
 20
0.55
 40
1.65
100
AcDbArc
 50
270.0
 51
360.0
  0
ARC
  5
6F3
100
AcDbEntity
  8
RACCORDO
100
AcDbCircle
 62
7
  6
CONTINUOUS
 10
2.7
 20
2.9
 40
0.3
100
AcDbArc
 50
270.0
 51
360.0
  0
ARC
  5
6F4
100
AcDbEntity
  8
RACCORDO
100
AcDbCircle
 62
7
  6
CONTINUOUS
 10
1.9232885654
 20
2.9
 40
0.3
100
AcDbArc
 50
226.6156698908
 51
270.0
  0
ARC
  5
6F5
100
AcDbEntity
  8
RACCORDO
100
AcDbCircle
 62
253
  6
CONTINUOUS
 10
3.8443905525
 20
17.9556094475
 40
0.5001077435
100
AcDbArc
 50
270.0209893195
 51
359.9790106804
  0
ARC
  5
6F6
100
AcDbEntity
  8
ASSI
100
AcDbCircle
 62
253
  6
CONTINUOUS
 10
3.8443905525
 20
17.9556094475
 40
0.5001077435
100
AcDbArc
 50
270.0209893195
 51
359.9790106804
  0
ARC
  5
6F7
100
AcDbEntity
  8
ASSI
100
AcDbCircle
 62
7
  6
CONTINUOUS
 10
4.0
 20
23.2
 40
0.5
100
AcDbArc
 50
334.1580672368
 51
25.8419327632
  0
ARC
  5
6F8
100
AcDbEntity
  8
ASSI
100
AcDbCircle
 62
7
  6
CONTINUOUS
 10
4.0
 20
23.2
 40
0.4904006794
100
AcDbArc
 50
316.2076703059
 51
43.7923296941
  0
ARC
  5
6F9
100
AcDbEntity
  8
RACCORDO
100
AcDbCircle
 62
7
  6
CONTINUOUS
 10
3.1002197165
 20
14.1021386278
 40
0.2997946417
100
AcDbArc
 50
269.9580104868
 51
359.9579568032
  0
ARC
  5
6FA
100
AcDbEntity
  8
ASSI
100
AcDbCircle
 62
253
  6
CONTINUOUS
 10
4.1018306931
 20
23.6518306931
 40
0.2500538638
100
AcDbArc
 50
0.0209441674
 51
89.9790558326
  0
ARC
  5
6FB
100
AcDbEntity
  8
ASSI
100
AcDbCircle
 62
253
  6
CONTINUOUS
 10
3.8307143001
 20
23.651830635
 40
0.2500538605
100
AcDbArc
 50
90.0209574986
 51
179.9790425324
  0
ARC
  5
6FC
100
AcDbEntity
  8
ASSI
100
AcDbCircle
 62
253
  6
CONTINUOUS
 10
3.3786960177
 20
21.9751217899
 40
0.2500221687
100
AcDbArc
 50
90.0069801199
 51
179.9860200517
  0
ARC
  5
6FD
100
AcDbEntity
  8
ASSI
100
AcDbCircle
 62
7
  6
CONTINUOUS
 10
4.2000325275
 20
23.7500325275
 40
0.2499699324
100
AcDbArc
 50
0.0012718308
 51
89.9987281692
  0
ARC
  5
6FE
100
AcDbEntity
  8
ASSI
100
AcDbCircle
 62
7
  6
CONTINUOUS
 10
1.0499674725
 20
23.7500325275
 40
0.2499699324
100
AcDbArc
 50
90.0012718308
 51
179.9987281692
  0
ARC
  5
6FF
100
AcDbEntity
  8
ASSI
100
AcDbCircle
 62
253
  6
CONTINUOUS
 10
8.2523587156
 20
9.4967407746
 40
0.7510587427
100
AcDbArc
 50
0.0387520831
 51
89.9589774569
  0
ARC
  5
700
100
AcDbEntity
  8
ASSI
100
AcDbCircle
 62
253
  6
CONTINUOUS
 10
8.242075885
 20
9.4923930681
 40
0.5003279271
100
AcDbArc
 50
0.0215389954
 51
89.9166208082
  0
ARC
  5
701
100
AcDbEntity
  8
RACCORDO
100
AcDbCircle
 62
253
  6
CONTINUOUS
 10
8.2411595482
 20
9.4911595482
 40
0.5000215391
100
AcDbArc
 50
0.0111930432
 51
89.988806954
  0
ARC
  5
702
100
AcDbEntity
  8
ASSI
100
AcDbCircle
 62
253
  6
CONTINUOUS
 10
8.2411595482
 20
9.4911595482
 40
0.5000215391
100
AcDbArc
 50
0.0111930606
 51
89.9888069516
  0
ARC
  5
703
100
AcDbEntity
  8
RACCORDO
100
AcDbCircle
 62
7
  6
CONTINUOUS
 10
7.6
 20
8.4
 40
0.3
100
AcDbArc
 50
0.0
 51
90.0
  0
ARC
  5
704
100
AcDbEntity
  8
ASSI
100
AcDbCircle
 62
253
  6
CONTINUOUS
 10
8.2412613065
 20
9.4912613065
 40
0.1999651719
100
AcDbArc
 50
359.9988319974
 51
90.0011680035
  0
ARC
  5
705
100
AcDbEntity
  8
ASSI
100
AcDbCircle
 62
7
  6
CONTINUOUS
 10
10.6001965613
 20
21.9001876111
 40
0.499798701
100
AcDbArc
 50
359.9784659399
 51
84.0622653798
  0
ARC
  5
706
100
AcDbEntity
  8
ASSI
100
AcDbCircle
 62
7
  6
CONTINUOUS
 10
10.6000775033
 20
21.9017571384
 40
0.4982426035
100
AcDbArc
 50
84.0299765199
 51
90.0089125496
  0
ARC
  5
707
100
AcDbEntity
  8
ASSI
100
AcDbCircle
 62
253
  6
CONTINUOUS
 10
7.4132101203
 20
24.2867898797
 40
0.2000430909
100
AcDbArc
 50
90.0209441226
 51
179.9790558774
  0
ARC
  5
708
100
AcDbEntity
  8
ASSI
100
AcDbCircle
 62
253
  6
CONTINUOUS
 10
10.3867898797
 20
24.2867898797
 40
0.2000430909
100
AcDbArc
 50
0.020944123
 51
89.979055877
  0
ARC
  5
709
100
AcDbEntity
  8
ASSI
100
AcDbCircle
 62
7
  6
CONTINUOUS
 10
7.3999572982
 20
24.3000427018
 40
0.1999569277
100
AcDbArc
 50
89.9964925066
 51
180.0035074934
  0
ARC
  5
70A
100
AcDbEntity
  8
ASSI
100
AcDbCircle
 62
7
  6
CONTINUOUS
 10
10.4000427018
 20
24.3000427018
 40
0.1999569277
100
AcDbArc
 50
359.9964925066
 51
90.0035074934
  0
ARC
  5
70B
100
AcDbEntity
  8
ASSI
100
AcDbCircle
 62
253
  6
CONTINUOUS
 10
45.2599106764
 20
-23.806377655
 40
34.8739258873
100
AcDbArc
 50
179.7067270348
 51
180.0623987992
  0
ARC
  5
70C
100
AcDbEntity
  8
ASSI
100
AcDbCircle
 62
253
  6
CONTINUOUS
 10
27.4626192193
 20
23.8063786102
 40
34.8766343908
100
AcDbArc
 50
179.9376439284
 51
180.2933212156
  0
SPLINE
  5
70D
100
AcDbEntity
  8
RACCORDO
100
AcDbSpline
 62
7
  6
CONTINUOUS
 70
0
 71
3
 72
14
 73
10
 74
8
 42
0.0000001
 43
0.0000001
 44
0.0000000001
 12
0.302515938
 22
0.0
 32
0.0
 13
0.0
 23
0.3025159379
 33
0.0
 40
0.0
 40
0.0
 40
0.0
 40
0.0
 40
0.3795248484
 40
0.5518023909
 40
0.7022913246
 40
0.8259366642
 40
0.9180928463
 40
0.9760382884
 40
1.0
 40
1.0
 40
1.0
 40
1.0
 10
7.6
 20
-1.6
 30
0.0
 10
7.6382707718
 20
-1.6
 30
0.0
 10
7.6939515014
 20
-1.5992213354
 30
0.0
 10
7.7646436764
 20
-1.5965067959
 30
0.0
 10
7.8097654108
 20
-1.5938052361
 30
0.0
 10
7.8460645194
 20
-1.5906759092
 30
0.0
 10
7.8746644002
 20
-1.5869412369
 30
0.0
 10
7.8895727301
 20
-1.58361676
 30
0.0
 10
7.9
 20
-1.5800414249
 30
0.0
 10
7.9
 20
-1.5776251584
 30
0.0
 11
7.6
 21
-1.6
 31
0.0
 11
7.7147995548
 21
-1.5982882711
 31
0.0
 11
7.7668752614
 21
-1.5962215243
 31
0.0
 11
7.8123153228
 21
-1.5934369511
 31
0.0
 11
7.8495659524
 21
-1.5900456211
 31
0.0
 11
7.8771733703
 21
-1.5861657808
 31
0.0
 11
7.8941910754
 21
-1.581961227
 31
0.0
 11
7.9
 21
-1.5776251584
 31
0.0
  0
SPLINE
  5
70E
100
AcDbEntity
  8
RACCORDO
100
AcDbSpline
 62
7
  6
CONTINUOUS
 70
0
 71
3
 72
13
 73
9
 74
7
 42
0.0000001
 43
0.0000001
 44
0.0000000001
 12
0.3046039315
 22
0.0
 32
0.0
 13
-0.0
 23
-0.3046039315
 33
0.0
 40
0.0
 40
0.0
 40
0.0
 40
0.0
 40
0.3773990101
 40
0.6983385037
 40
0.8214756931
 40
0.9136628584
 40
0.9725947008
 40
1.0
 40
1.0
 40
1.0
 40
1.0
 10
7.6
 20
3.4
 30
0.0
 10
7.6383190741
 20
3.4
 30
0.0
 10
7.7091464342
 20
3.3986366082
 30
0.0
 10
7.7927036801
 20
3.3933739735
 30
0.0
 10
7.8464082508
 20
3.3870901996
 30
0.0
 10
7.8745074064
 20
3.3816889766
 30
0.0
 10
7.8906256763
 20
3.3773756467
 30
0.0
 10
7.9
 20
3.3717237449
 30
0.0
 10
7.9
 20
3.3689411576
 30
0.0
 11
7.6
 21
3.4
 31
0.0
 11
7.7149325404
 21
3.3976179659
 31
0.0
 11
7.8124591348
 21
3.3908748332
 31
0.0
 11
7.8496704365
 21
3.3861658534
 31
0.0
 11
7.8772302207
 21
3.3807828363
 31
0.0
 11
7.8942078914
 21
3.3749525307
 31
0.0
 11
7.9
 21
3.3689411576
 31
0.0
  0
SPLINE
  5
70F
100
AcDbEntity
  8
RACCORDO
100
AcDbSpline
 62
7
  6
CONTINUOUS
 70
0
 71
3
 72
11
 73
7
 74
5
 42
0.0000001
 43
0.0000001
 44
0.0000000001
 12
0.3603298723
 22
0.0
 32
0.0
 13
0.0
 23
-0.3603298723
 33
0.0
 40
0.0
 40
0.0
 40
0.0
 40
0.0
 40
0.3260753647
 40
0.6120865973
 40
0.8334553685
 40
1.0
 40
1.0
 40
1.0
 40
1.0
 10
7.6
 20
7.7
 30
0.0
 10
7.6391648982
 20
7.7
 30
0.0
 10
7.7129614503
 20
7.692935155
 30
0.0
 10
7.8091470442
 20
7.6625707362
 30
0.0
 10
7.8783027025
 20
7.6170571238
 30
0.0
 10
7.9
 20
7.5710676282
 30
0.0
 10
7.9
 20
7.5510639596
 30
0.0
 11
7.6
 21
7.7
 31
0.0
 11
7.7168955111
 21
7.6881491465
 31
0.0
 11
7.8145451701
 21
7.6552010657
 31
0.0
 11
7.878031212
 21
7.6069092206
 31
0.0
 11
7.9
 21
7.5510639596
 31
0.0
  0
SPLINE
  5
710
100
AcDbEntity
  8
RACCORDO
100
AcDbSpline
 62
7
  6
CONTINUOUS
 70
0
 71
3
 72
14
 73
10
 74
8
 42
0.0000001
 43
0.0000001
 44
0.0000000001
 12
-0.302515938
 22
0.0
 32
0.0
 13
0.0
 23
0.3025159379
 33
0.0
 40
0.0
 40
0.0
 40
0.0
 40
0.0
 40
0.3795248484
 40
0.5518023909
 40
0.7022913246
 40
0.8259366642
 40
0.9180928463
 40
0.9760382884
 40
1.0
 40
1.0
 40
1.0
 40
1.0
 10
-7.6
 20
-1.6
 30
0.0
 10
-7.6382707718
 20
-1.6
 30
0.0
 10
-7.6939515014
 20
-1.5992213354
 30
0.0
 10
-7.7646436764
 20
-1.5965067959
 30
0.0
 10
-7.8097654108
 20
-1.5938052361
 30
0.0
 10
-7.8460645194
 20
-1.5906759092
 30
0.0
 10
-7.8746644002
 20
-1.5869412369
 30
0.0
 10
-7.8895727301
 20
-1.58361676
 30
0.0
 10
-7.9
 20
-1.5800414249
 30
0.0
 10
-7.9
 20
-1.5776251584
 30
0.0
 11
-7.6
 21
-1.6
 31
0.0
 11
-7.7147995548
 21
-1.5982882711
 31
0.0
 11
-7.7668752614
 21
-1.5962215243
 31
0.0
 11
-7.8123153228
 21
-1.5934369511
 31
0.0
 11
-7.8495659524
 21
-1.5900456211
 31
0.0
 11
-7.8771733703
 21
-1.5861657808
 31
0.0
 11
-7.8941910754
 21
-1.581961227
 31
0.0
 11
-7.9
 21
-1.5776251584
 31
0.0
  0
SPLINE
  5
711
100
AcDbEntity
  8
RACCORDO
100
AcDbSpline
 62
7
  6
CONTINUOUS
 70
0
 71
3
 72
13
 73
9
 74
7
 42
0.0000001
 43
0.0000001
 44
0.0000000001
 12
-0.3046039315
 22
0.0
 32
0.0
 13
-0.0
 23
-0.3046039315
 33
0.0
 40
0.0
 40
0.0
 40
0.0
 40
0.0
 40
0.3773990101
 40
0.6983385037
 40
0.8214756931
 40
0.9136628584
 40
0.9725947008
 40
1.0
 40
1.0
 40
1.0
 40
1.0
 10
-7.6
 20
3.4
 30
0.0
 10
-7.6383190741
 20
3.4
 30
0.0
 10
-7.7091464342
 20
3.3986366082
 30
0.0
 10
-7.7927036801
 20
3.3933739735
 30
0.0
 10
-7.8464082508
 20
3.3870901996
 30
0.0
 10
-7.8745074064
 20
3.3816889766
 30
0.0
 10
-7.8906256763
 20
3.3773756467
 30
0.0
 10
-7.9
 20
3.3717237449
 30
0.0
 10
-7.9
 20
3.3689411576
 30
0.0
 11
-7.6
 21
3.4
 31
0.0
 11
-7.7149325404
 21
3.3976179659
 31
0.0
 11
-7.8124591348
 21
3.3908748332
 31
0.0
 11
-7.8496704365
 21
3.3861658534
 31
0.0
 11
-7.8772302207
 21
3.3807828363
 31
0.0
 11
-7.8942078914
 21
3.3749525307
 31
0.0
 11
-7.9
 21
3.3689411576
 31
0.0
  0
SPLINE
  5
712
100
AcDbEntity
  8
RACCORDO
100
AcDbSpline
 62
7
  6
CONTINUOUS
 70
0
 71
3
 72
11
 73
7
 74
5
 42
0.0000001
 43
0.0000001
 44
0.0000000001
 12
-0.3603298723
 22
0.0
 32
0.0
 13
0.0
 23
-0.3603298723
 33
0.0
 40
0.0
 40
0.0
 40
0.0
 40
0.0
 40
0.3260753647
 40
0.6120865973
 40
0.8334553685
 40
1.0
 40
1.0
 40
1.0
 40
1.0
 10
-7.6
 20
7.7
 30
0.0
 10
-7.6391648982
 20
7.7
 30
0.0
 10
-7.7129614503
 20
7.692935155
 30
0.0
 10
-7.8091470442
 20
7.6625707362
 30
0.0
 10
-7.8783027025
 20
7.6170571238
 30
0.0
 10
-7.9
 20
7.5710676282
 30
0.0
 10
-7.9
 20
7.5510639596
 30
0.0
 11
-7.6
 21
7.7
 31
0.0
 11
-7.7168955111
 21
7.6881491465
 31
0.0
 11
-7.8145451701
 21
7.6552010657
 31
0.0
 11
-7.878031212
 21
7.6069092206
 31
0.0
 11
-7.9
 21
7.5510639596
 31
0.0
  0
SPLINE
  5
713
100
AcDbEntity
  8
RACCORDO
100
AcDbSpline
 62
7
  6
CONTINUOUS
 70
0
 71
3
 72
11
 73
7
 74
5
 42
0.0000001
 43
0.0000001
 44
0.0000000001
 12
-0.0001595685
 22
0.474051557
 32
0.0
 13
0.4740324445
 23
0.0042597813
 33
0.0
 40
0.0
 40
0.0
 40
0.0
 40
0.0
 40
0.2502290637
 40
0.500200234
 40
0.7500508129
 40
1.0
 40
1.0
 40
1.0
 40
1.0
 10
-7.3711122677
 20
-16.8913368402
 30
0.0
 10
-7.3711255773
 20
-16.8517963478
 30
0.0
 10
-7.3558950446
 20
-16.7719392364
 30
0.0
 10
-7.2902982698
 20
-16.6698333657
 30
0.0
 10
-7.1910123817
 20
-16.599848958
 30
0.0
 10
-7.1112882698
 20
-16.5827139605
 30
0.0
 10
-7.0717935951
 20
-16.5823590509
 30
0.0
 11
-7.3711122677
 21
-16.8913368402
 31
0.0
 11
-7.3487510393
 21
-16.7748420681
 31
0.0
 11
-7.2846663672
 21
-16.6751664837
 31
0.0
 11
-7.1876418218
 21
-16.6072344603
 31
0.0
 11
-7.0717935951
 21
-16.5823590509
 31
0.0
  0
SPLINE
  5
714
100
AcDbEntity
  8
RACCORDO
100
AcDbSpline
 62
7
  6
CONTINUOUS
 70
0
 71
3
 72
11
 73
7
 74
5
 42
0.0000001
 43
0.0000001
 44
0.0000000001
 12
0.4715662214
 22
0.0040316689
 32
0.0
 13
-0.0001625781
 23
-0.4715834275
 33
0.0
 40
0.0
 40
0.0
 40
0.0
 40
0.0
 40
0.2498632247
 40
0.4998405181
 40
0.7499113661
 40
1.0
 40
1.0
 40
1.0
 40
1.0
 10
-6.7280572421
 20
-16.5793452061
 30
0.0
 10
-6.6887815565
 20
-16.5790094175
 30
0.0
 10
-6.6091428274
 20
-16.5945536637
 30
0.0
 10
-6.5093179164
 20
-16.6629340063
 30
0.0
 10
-6.4435437551
 20
-16.7643422382
 30
0.0
 10
-6.4284675351
 20
-16.843808014
 30
0.0
 10
-6.4284810881
 20
-16.8831205658
 30
0.0
 11
-6.7280572421
 21
-16.5793452061
 31
0.0
 11
-6.612435045
 21
-16.6020550634
 31
0.0
 11
-6.5150078819
 21
-16.6684241666
 31
0.0
 11
-6.4507396053
 21
-16.7673023868
 31
0.0
 11
-6.4284810881
 21
-16.8831205658
 31
0.0
  0
SPLINE
  5
715
100
AcDbEntity
  8
RACCORDO
100
AcDbSpline
 62
7
  6
CONTINUOUS
 70
0
 71
3
 72
11
 73
7
 74
5
 42
0.0000001
 43
0.0000001
 44
0.0000000001
 12
-0.0001625781
 22
0.4715834067
 32
0.0
 13
0.4715662006
 23
-0.0040316687
 33
0.0
 40
0.0
 40
0.0
 40
0.0
 40
0.0
 40
0.2500857441
 40
0.5001522776
 40
0.7501342335
 40
1.0
 40
1.0
 40
1.0
 40
1.0
 10
6.4284810881
 20
-16.8831205658
 30
0.0
 10
6.4284675353
 20
-16.84380847
 30
0.0
 10
6.4435432042
 20
-16.7643438185
 30
0.0
 10
6.509316441
 20
-16.6629355925
 30
0.0
 10
6.6091412932
 20
-16.5945541915
 30
0.0
 10
6.6887811587
 20
-16.5790094141
 30
0.0
 10
6.7280572421
 20
-16.5793452061
 30
0.0
 11
6.4284810881
 21
-16.8831205658
 31
0.0
 11
6.4507390012
 21
-16.7673036638
 31
0.0
 11
6.5150054623
 21
-16.6684266963
 31
0.0
 11
6.6124339391
 21
-16.6020556254
 31
0.0
 11
6.7280572421
 21
-16.5793452061
 31
0.0
  0
SPLINE
  5
716
100
AcDbEntity
  8
RACCORDO
100
AcDbSpline
 62
7
  6
CONTINUOUS
 70
0
 71
3
 72
11
 73
7
 74
5
 42
0.0000001
 43
0.0000001
 44
0.0000000001
 12
0.4740324445
 22
-0.0042597813
 32
0.0
 13
-0.0001595685
 23
-0.474051557
 33
0.0
 40
0.0
 40
0.0
 40
0.0
 40
0.0
 40
0.2499491871
 40
0.499799766
 40
0.7497709363
 40
1.0
 40
1.0
 40
1.0
 40
1.0
 10
7.0717935951
 20
-16.5823590509
 30
0.0
 10
7.1112882698
 20
-16.5827139605
 30
0.0
 10
7.1910123817
 20
-16.599848958
 30
0.0
 10
7.2902982698
 20
-16.6698333657
 30
0.0
 10
7.3558950446
 20
-16.7719392364
 30
0.0
 10
7.3711255773
 20
-16.8517963478
 30
0.0
 10
7.3711122677
 20
-16.8913368402
 30
0.0
 11
7.0717935951
 21
-16.5823590509
 31
0.0
 11
7.1876418218
 21
-16.6072344603
 31
0.0
 11
7.2846663672
 21
-16.6751664837
 31
0.0
 11
7.3487510393
 21
-16.7748420681
 31
0.0
 11
7.3711122677
 21
-16.8913368402
 31
0.0
  0
SPLINE
  5
717
100
AcDbEntity
  8
RACCORDO
100
AcDbSpline
 62
253
  6
CONTINUOUS
 70
0
 71
3
 72
8
 73
4
 74
2
 42
0.0000001
 43
0.0000001
 44
0.0000000001
 12
2.8560376085
 22
-0.0005566157
 32
0.0
 13
2.8560376085
 23
0.0005566158
 33
0.0
 40
0.0
 40
0.0
 40
0.0
 40
0.0
 40
1.0
 40
1.0
 40
1.0
 40
1.0
 10
-1.4280188314
 20
-10.5939733021
 30
0.0
 10
-0.4760062952
 20
-10.5941588406
 30
0.0
 10
0.4760062952
 20
-10.5941588406
 30
0.0
 10
1.4280188313
 20
-10.5939733021
 30
0.0
 11
-1.4280188314
 21
-10.5939733021
 31
0.0
 11
1.4280188313
 21
-10.5939733021
 31
0.0
  0
SPLINE
  5
718
100
AcDbEntity
  8
RACCORDO
100
AcDbSpline
 62
7
  6
CONTINUOUS
 70
0
 71
3
 72
18
 73
14
 74
12
 42
0.0000001
 43
0.0000001
 44
0.0000000001
 12
0.0000733663
 22
0.3081725297
 32
0.0
 13
-0.1378105139
 23
0.2756421152
 33
0.0
 40
0.0
 40
0.0
 40
0.0
 40
0.0
 40
0.1913877145
 40
0.3767221661
 40
0.548191903
 40
0.6993438108
 40
0.8243861325
 40
0.8754970274
 40
0.9183566596
 40
0.9525246745
 40
0.9776381963
 40
0.9935109327
 40
1.0
 40
1.0
 40
1.0
 40
1.0
 10
-1.4254470233
 20
-10.9021084145
 30
0.0
 10
-1.4254423428
 20
-10.8824482691
 30
0.0
 10
-1.4254662589
 20
-10.8437497546
 30
0.0
 10
-1.4255989945
 20
-10.7874374208
 30
0.0
 10
-1.4258220187
 20
-10.7352581535
 30
0.0
 10
-1.4261304296
 20
-10.6892742316
 30
0.0
 10
-1.4264501075
 20
-10.6556510518
 30
0.0
 10
-1.4267672499
 20
-10.6331592164
 30
0.0
 10
-1.4269705885
 20
-10.6199893513
 30
0.0
 10
-1.4272616799
 20
-10.6095231005
 30
0.0
 10
-1.4273571144
 20
-10.6017506574
 30
0.0
 10
-1.4278414904
 20
-10.5969836978
 30
0.0
 10
-1.4277207441
 20
-10.5945695221
 30
0.0
 10
-1.4280188314
 20
-10.5939733021
 30
0.0
 11
-1.4254470233
 21
-10.9021084145
 31
0.0
 11
-1.4254840135
 21
-10.8431279883
 31
0.0
 11
-1.4256213095
 21
-10.7860131649
 31
0.0
 11
-1.4258537114
 21
-10.7331714119
 31
0.0
 11
-1.4261722212
 21
-10.6865916338
 31
0.0
 11
-1.4265641544
 21
-10.6480590173
 31
0.0
 11
-1.4267830571
 21
-10.6323095643
 31
0.0
 11
-1.4270145015
 21
-10.6191034305
 31
0.0
 11
-1.4272563678
 21
-10.6085765649
 31
0.0
 11
-1.4275063057
 21
-10.600841304
 31
0.0
 11
-1.427761442
 21
-10.5959564208
 31
0.0
 11
-1.4280188314
 21
-10.5939733021
 31
0.0
  0
SPLINE
  5
719
100
AcDbEntity
  8
RACCORDO
100
AcDbSpline
 62
7
  6
CONTINUOUS
 70
0
 71
3
 72
18
 73
14
 74
12
 42
0.0000001
 43
0.0000001
 44
0.0000000001
 12
-0.1378105286
 22
-0.2756421079
 32
0.0
 13
0.0000733663
 23
-0.3081725297
 33
0.0
 40
0.0
 40
0.0
 40
0.0
 40
0.0
 40
0.0064890671
 40
0.0223618033
 40
0.0474753249
 40
0.0816433397
 40
0.1245029718
 40
0.1756138666
 40
0.3006561883
 40
0.451808096
 40
0.6232778331
 40
0.8086122851
 40
1.0
 40
1.0
 40
1.0
 40
1.0
 10
1.4280188313
 20
-10.5939733021
 30
0.0
 10
1.4277207441
 20
-10.5945695221
 30
0.0
 10
1.4278414904
 20
-10.5969836978
 30
0.0
 10
1.4273571144
 20
-10.6017506573
 30
0.0
 10
1.4272616799
 20
-10.6095231003
 30
0.0
 10
1.4269705885
 20
-10.6199893511
 30
0.0
 10
1.4267672499
 20
-10.6331592161
 30
0.0
 10
1.4264501075
 20
-10.6556510515
 30
0.0
 10
1.4261304296
 20
-10.6892742313
 30
0.0
 10
1.4258220187
 20
-10.7352581532
 30
0.0
 10
1.4255989945
 20
-10.7874374206
 30
0.0
 10
1.4254662589
 20
-10.8437497544
 30
0.0
 10
1.4254423428
 20
-10.8824482691
 30
0.0
 10
1.4254470233
 20
-10.9021084145
 30
0.0
 11
1.4280188313
 21
-10.5939733021
 31
0.0
 11
1.427761442
 21
-10.5959564208
 31
0.0
 11
1.4275063057
 21
-10.6008413039
 31
0.0
 11
1.4272563678
 21
-10.6085765647
 31
0.0
 11
1.4270145015
 21
-10.6191034303
 31
0.0
 11
1.4267830571
 21
-10.632309564
 31
0.0
 11
1.4265641544
 21
-10.648059017
 31
0.0
 11
1.4261722212
 21
-10.6865916335
 31
0.0
 11
1.4258537114
 21
-10.7331714116
 31
0.0
 11
1.4256213095
 21
-10.7860131647
 31
0.0
 11
1.4254840135
 21
-10.8431279882
 31
0.0
 11
1.4254470233
 21
-10.9021084145
 31
0.0
  0
LINE
  5
71A
100
AcDbEntity
  8
DRAFT
100
AcDbLine
 62
7
  6
CONTINUOUS
 10
-1.4256965084
 20
-11.9039927292
 11
-2.8482096865
 21
-11.9031752497
  0
LINE
  5
71B
100
AcDbEntity
  8
DRAFT
100
AcDbLine
 62
7
  6
CONTINUOUS
 10
2.8482096865
 20
-11.9031752497
 11
1.4256965084
 21
-11.9039927292
  0
SPLINE
  5
71C
100
AcDbEntity
  8
RACCORDO
100
AcDbSpline
 62
253
  6
CONTINUOUS
 70
0
 71
3
 72
8
 73
4
 74
2
 42
0.0000001
 43
0.0000001
 44
0.0000000001
 12
2.8508937781
 22
0.0004581181
 32
0.0
 13
2.8508937781
 23
-0.0004581181
 33
0.0
 40
0.0
 40
0.0
 40
0.0
 40
0.0
 40
1.0
 40
1.0
 40
1.0
 40
1.0
 10
-1.4254469075
 20
-10.902357908
 30
0.0
 10
-0.4751489814
 20
-10.9022052019
 30
0.0
 10
0.4751489814
 20
-10.9022052019
 30
0.0
 10
1.4254469075
 20
-10.902357908
 30
0.0
 11
-1.4254469075
 21
-10.902357908
 31
0.0
 11
1.4254469075
 21
-10.902357908
 31
0.0
  0
LINE
  5
71D
100
AcDbEntity
  8
RACCORDO
100
AcDbLine
 62
7
  6
CONTINUOUS
 10
1.4254697954
 20
-10.9021084032
 11
1.4256728287
 21
-11.9039927419
  0
SPLINE
  5
71E
100
AcDbEntity
  8
RACCORDO
100
AcDbSpline
 62
7
  6
CONTINUOUS
 70
0
 71
3
 72
9
 73
5
 74
3
 42
0.0000001
 43
0.0000001
 44
0.0000000001
 12
0.0058091035
 22
-9.973935153
 32
0.0
 13
0.0113962601
 23
-9.973930334
 33
0.0
 40
0.0
 40
0.0
 40
0.0
 40
0.0
 40
0.250062356
 40
1.0
 40
1.0
 40
1.0
 40
1.0
 10
9.4348819595
 20
-10.3832932322
 30
0.0
 10
9.4353661722
 20
-11.2146618066
 30
0.0
 10
9.4375352146
 20
-14.539306718
 30
0.0
 10
9.440634807
 20
-17.8639510225
 30
0.0
 10
9.4434836352
 20
-20.3572262944
 30
0.0
 11
9.4348819595
 21
-10.3832932322
 31
0.0
 11
9.4365091523
 21
-12.8773988477
 31
0.0
 11
9.4434836352
 21
-20.3572262944
 31
0.0
  0
LINE
  5
71F
100
AcDbEntity
  8
RACCORDO
100
AcDbLine
 62
253
  6
CONTINUOUS
 10
9.4434836856
 20
-20.3572262632
 11
7.3698254249
 21
-20.3577227842
  0
LINE
  5
720
100
AcDbEntity
  8
RACCORDO
100
AcDbLine
 62
7
  6
CONTINUOUS
 10
7.0717935951
 20
-16.5823590509
 11
6.7280572421
 21
-16.5793452061
  0
LINE
  5
721
100
AcDbEntity
  8
RACCORDO
100
AcDbLine
 62
253
  6
CONTINUOUS
 10
6.429772855
 20
-20.2925021651
 11
5.4411368641
 21
-20.2910674656
  0
LINE
  5
722
100
AcDbEntity
  8
RACCORDO
100
AcDbLine
 62
7
  6
CONTINUOUS
 10
5.4411349407
 20
-20.2916947997
 11
5.4414386569
 21
-19.9292860574
  0
LINE
  5
723
100
AcDbEntity
  8
RACCORDO
100
AcDbLine
 62
7
  6
CONTINUOUS
 10
-5.4414386569
 20
-19.9292860574
 11
-5.4411349407
 21
-20.2916947997
  0
LINE
  5
724
100
AcDbEntity
  8
RACCORDO
100
AcDbLine
 62
253
  6
CONTINUOUS
 10
-5.4411367297
 20
-20.2911112939
 11
-6.4297726981
 21
-20.2925459977
  0
LINE
  5
725
100
AcDbEntity
  8
RACCORDO
100
AcDbLine
 62
7
  6
CONTINUOUS
 10
-6.7280572421
 20
-16.5793452061
 11
-7.0717935951
 21
-16.5823590509
  0
LINE
  5
726
100
AcDbEntity
  8
RACCORDO
100
AcDbLine
 62
253
  6
CONTINUOUS
 10
-7.3698254192
 20
-20.3577227842
 11
-9.4434836318
 21
-20.3572262632
  0
SPLINE
  5
727
100
AcDbEntity
  8
RACCORDO
100
AcDbSpline
 62
7
  6
CONTINUOUS
 70
0
 71
3
 72
9
 73
5
 74
3
 42
0.0000001
 43
0.0000001
 44
0.0000000001
 12
0.0113962601
 22
9.9739303009
 32
0.0
 13
0.0058091035
 23
9.9739351199
 33
0.0
 40
0.0
 40
0.0
 40
0.0
 40
0.0
 40
0.2499304059
 40
1.0
 40
1.0
 40
1.0
 40
1.0
 10
-9.443483635
 20
-20.3572262613
 30
0.0
 10
-9.442534211
 20
-19.5262967786
 30
0.0
 10
-9.4389685127
 20
-16.2016530827
 30
0.0
 10
-9.4363343701
 20
-12.8770083879
 30
0.0
 10
-9.4348819595
 20
-10.3832932322
 30
0.0
 11
-9.443483635
 21
-20.3572262613
 31
0.0
 11
-9.440810048
 21
-17.8644376196
 31
0.0
 11
-9.4348819595
 21
-10.3832932322
 31
0.0
  0
LINE
  5
728
100
AcDbEntity
  8
RACCORDO
100
AcDbLine
 62
7
  6
CONTINUOUS
 10
-1.4256728287
 20
-11.9039927419
 11
-1.4254697954
 21
-10.9021084032
  0
SPLINE
  5
729
100
AcDbEntity
  8
DRAFT
100
AcDbSpline
 62
7
  6
CONTINUOUS
 70
0
 71
3
 72
9
 73
5
 74
3
 42
0.0000001
 43
0.0000001
 44
0.0000000001
 12
0.0125178614
 22
23.7001524199
 32
0.0
 13
-0.0189921233
 23
23.700148116
 33
0.0
 40
0.0
 40
0.0
 40
0.0
 40
0.0
 40
0.7500452329
 40
1.0
 40
1.0
 40
1.0
 40
1.0
 10
-9.4343451125
 20
-9.4165278552
 30
0.0
 10
-9.4312154584
 20
-3.4911324082
 30
0.0
 10
-9.43098136
 20
4.4089212967
 30
0.0
 10
-9.4359981354
 20
12.308971667
 30
0.0
 10
-9.4375805259
 20
14.283626668
 30
0.0
 11
-9.4343451125
 21
-9.4165278552
 31
0.0
 11
-9.4338182624
 21
8.3596609576
 31
0.0
 11
-9.4375805259
 21
14.283626668
 31
0.0
  0
LINE
  5
72A
100
AcDbEntity
  8
DRAFT
100
AcDbLine
 62
7
  6
CONTINUOUS
 10
-7.7585765101
 20
14.2855051591
 11
-9.4375805259
 21
14.283626668
  0
SPLINE
  5
72B
100
AcDbEntity
  8
DRAFT
100
AcDbSpline
 62
7
  6
CONTINUOUS
 70
0
 71
3
 72
9
 73
5
 74
3
 42
0.0000001
 43
0.0000001
 44
0.0000000001
 12
4.1426330456
 22
-0.0083723076
 32
0.0
 13
4.1426396713
 23
-0.0038987035
 33
0.0
 40
0.0
 40
0.0
 40
0.0
 40
0.0
 40
0.2498697563
 40
1.0
 40
1.0
 40
1.0
 40
1.0
 10
-7.7583308322
 20
14.3290471724
 30
0.0
 10
-7.4132912624
 20
14.3283498435
 30
0.0
 10
-6.0324132097
 20
14.3257456672
 30
0.0
 10
-4.6515337504
 20
14.3238875205
 30
0.0
 10
-3.6156939816
 20
14.3229126753
 30
0.0
 11
-7.7583308322
 21
14.3290471724
 31
0.0
 11
-6.7232118496
 21
14.327095012
 31
0.0
 11
-3.6156939816
 21
14.3229126753
 31
0.0
  0
LINE
  5
72C
100
AcDbEntity
  8
DRAFT
100
AcDbLine
 62
7
  6
CONTINUOUS
 10
-3.6156939816
 20
14.3229126753
 11
-3.6136352726
 21
13.9887509498
  0
LINE
  5
72D
100
AcDbEntity
  8
DRAFT
100
AcDbLine
 62
7
  6
CONTINUOUS
 10
3.6136352726
 20
13.9887509498
 11
3.3777709004
 21
13.9888585928
  0
LINE
  5
72E
100
AcDbEntity
  8
DRAFT
100
AcDbLine
 62
7
  6
CONTINUOUS
 10
-3.3777709004
 20
13.9888585928
 11
-3.6136352726
 21
13.9887509498
  0
LINE
  5
72F
100
AcDbEntity
  8
DRAFT
100
AcDbLine
 62
7
  6
CONTINUOUS
 10
3.6136352726
 20
13.9887509498
 11
3.6156939816
 21
14.3229126753
  0
SPLINE
  5
730
100
AcDbEntity
  8
DRAFT
100
AcDbSpline
 62
7
  6
CONTINUOUS
 70
0
 71
3
 72
9
 73
5
 74
3
 42
0.0000001
 43
0.0000001
 44
0.0000000001
 12
4.1426396712
 22
0.0038987035
 32
0.0
 13
4.1426330455
 23
0.0083723076
 33
0.0
 40
0.0
 40
0.0
 40
0.0
 40
0.0
 40
0.2501151699
 40
1.0
 40
1.0
 40
1.0
 40
1.0
 10
3.6156939816
 20
14.3229126753
 30
0.0
 10
3.96107299
 20
14.323237717
 30
0.0
 10
5.3419526988
 20
14.3247235599
 30
0.0
 10
6.7228316064
 20
14.3269544169
 30
0.0
 10
7.7583308322
 20
14.3290471724
 30
0.0
 11
3.6156939816
 21
14.3229126753
 31
0.0
 11
4.6518308659
 21
14.324027587
 31
0.0
 11
7.7583308322
 21
14.3290471724
 31
0.0
  0
LINE
  5
731
100
AcDbEntity
  8
DRAFT
100
AcDbLine
 62
7
  6
CONTINUOUS
 10
9.4375805259
 20
14.283626668
 11
7.7585765101
 21
14.2855051591
  0
SPLINE
  5
732
100
AcDbEntity
  8
DRAFT
100
AcDbSpline
 62
7
  6
CONTINUOUS
 70
0
 71
3
 72
9
 73
5
 74
3
 42
0.0000001
 43
0.0000001
 44
0.0000000001
 12
-0.0189921233
 22
-23.700148116
 32
0.0
 13
0.0125178614
 23
-23.7001524199
 33
0.0
 40
0.0
 40
0.0
 40
0.0
 40
0.0
 40
0.2499547671
 40
1.0
 40
1.0
 40
1.0
 40
1.0
 10
9.4375805259
 20
14.283626668
 30
0.0
 10
9.4359981354
 20
12.308971667
 30
0.0
 10
9.43098136
 20
4.4089212967
 30
0.0
 10
9.4312154584
 20
-3.4911324082
 30
0.0
 10
9.4343451125
 20
-9.4165278552
 30
0.0
 11
9.4375805259
 21
14.283626668
 31
0.0
 11
9.4338182624
 21
8.3596609576
 31
0.0
 11
9.4343451125
 21
-9.4165278552
 31
0.0
  0
LINE
  5
733
100
AcDbEntity
  8
RACCORDO
100
AcDbLine
 62
253
  6
CONTINUOUS
 10
9.4564965907
 20
-20.8355119633
 11
7.3655014363
 21
-20.8344985637
  0
LINE
  5
734
100
AcDbEntity
  8
RACCORDO
100
AcDbLine
 62
253
  6
CONTINUOUS
 10
-7.3655014363
 20
-20.8344985637
 11
-9.4564965907
 21
-20.8355119633
  0
LINE
  5
735
100
AcDbEntity
  8
RACCORDO
100
AcDbLine
 62
7
  6
CONTINUOUS
 10
7.3711122677
 20
-16.8913368402
 11
7.3698253887
 21
-20.3577227954
  0
SPLINE
  5
736
100
AcDbEntity
  8
RACCORDO
100
AcDbSpline
 62
7
  6
CONTINUOUS
 70
0
 71
3
 72
21
 73
17
 74
15
 42
0.0000001
 43
0.0000001
 44
0.0000000001
 12
0.3370432997
 22
0.3373260792
 32
0.0
 13
0.0001935549
 23
0.4768511635
 33
0.0
 40
0.0
 40
0.0
 40
0.0
 40
0.0
 40
0.0016703366
 40
0.0056579817
 40
0.0119699477
 40
0.0205932794
 40
0.0447091929
 40
0.077847484
 40
0.1196839742
 40
0.1698240382
 40
0.2278643776
 40
0.2932773354
 40
0.4437143533
 40
0.6158450818
 40
0.8037046959
 40
1.0
 40
1.0
 40
1.0
 40
1.0
 10
7.3655014363
 20
-20.8344985637
 30
0.0
 10
7.3656890949
 20
-20.8343107477
 30
0.0
 10
7.3657012371
 20
-20.8333019779
 30
0.0
 10
7.3659986345
 20
-20.8315084822
 30
0.0
 10
7.3661302782
 20
-20.8284535818
 30
0.0
 10
7.3664624129
 20
-20.8222842176
 30
0.0
 10
7.3667747385
 20
-20.8117955365
 30
0.0
 10
7.3671629216
 20
-20.7960601052
 30
0.0
 10
7.3675223834
 20
-20.7761722511
 30
0.0
 10
7.3678740842
 20
-20.7523309703
 30
0.0
 10
7.3682034924
 20
-20.7247397076
 30
0.0
 10
7.3686331859
 20
-20.6812070212
 30
0.0
 10
7.369081603
 20
-20.619538754
 30
0.0
 10
7.3694785447
 20
-20.5384070807
 30
0.0
 10
7.369737889
 20
-20.4499855721
 30
0.0
 10
7.369812724
 20
-20.3889240101
 30
0.0
 10
7.3698253887
 20
-20.3577227954
 30
0.0
 11
7.3655014363
 21
-20.8344985637
 31
0.0
 11
7.3657074574
 21
-20.8337291674
 31
0.0
 11
7.3659132684
 21
-20.8318388248
 31
0.0
 11
7.3661183285
 21
-20.8288359497
 31
0.0
 11
7.3663220973
 21
-20.8247289555
 31
0.0
 11
7.3667235979
 21
-20.8132362642
 31
0.0
 11
7.3671135496
 21
-20.7974390425
 31
0.0
 11
7.3674884668
 21
-20.777492785
 31
0.0
 11
7.3678451789
 21
-20.7535860963
 31
0.0
 11
7.3681805321
 21
-20.7259115224
 31
0.0
 11
7.3684916071
 21
-20.694720826
 31
0.0
 11
7.3690300021
 21
-20.6229867735
 31
0.0
 11
7.3694406783
 21
-20.540907056
 31
0.0
 11
7.3697090232
 21
-20.4513263749
 31
0.0
 11
7.3698253887
 21
-20.3577227954
 31
0.0
  0
SPLINE
  5
737
100
AcDbEntity
  8
RACCORDO
100
AcDbSpline
 62
7
  6
CONTINUOUS
 70
0
 71
3
 72
21
 73
17
 74
15
 42
0.0000001
 43
0.0000001
 44
0.0000000001
 12
0.0001935551
 22
-0.4768511666
 32
0.0
 13
0.3370670897
 23
-0.3373023119
 33
0.0
 40
0.0
 40
0.0
 40
0.0
 40
0.0
 40
0.1962955548
 40
0.3841553936
 40
0.5562861554
 40
0.7067231687
 40
0.772136118
 40
0.8301764345
 40
0.8803164574
 40
0.9221528896
 40
0.9552911075
 40
0.9794069338
 40
0.9880302167
 40
0.9943421306
 40
0.9983297204
 40
1.0
 40
1.0
 40
1.0
 40
1.0
 10
-7.3698253887
 20
-20.3577227936
 30
0.0
 10
-7.369812724
 20
-20.3889240484
 30
0.0
 10
-7.3697378917
 20
-20.4499856863
 30
0.0
 10
-7.3694785506
 20
-20.5384072764
 30
0.0
 10
-7.3690816067
 20
-20.6195389905
 30
0.0
 10
-7.3686331887
 20
-20.6812072614
 30
0.0
 10
-7.3682034949
 20
-20.7247399422
 30
0.0
 10
-7.3678740865
 20
-20.7523311937
 30
0.0
 10
-7.3675223852
 20
-20.776172455
 30
0.0
 10
-7.3671629235
 20
-20.7960602827
 30
0.0
 10
-7.3667747387
 20
-20.8117956771
 30
0.0
 10
-7.366462416
 20
-20.8222843297
 30
0.0
 10
-7.3661302767
 20
-20.8284536576
 30
0.0
 10
-7.3659986402
 20
-20.8315085438
 30
0.0
 10
-7.3657012306
 20
-20.8333019938
 30
0.0
 10
-7.3656891017
 20
-20.8343107673
 30
0.0
 10
-7.3655014363
 20
-20.8344985637
 30
0.0
 11
-7.3698253887
 21
-20.3577227936
 31
0.0
 11
-7.3697090258
 21
-20.4513264933
 31
0.0
 11
-7.3694406832
 21
-20.5409072821
 31
0.0
 11
-7.3690300059
 21
-20.6229870161
 31
0.0
 11
-7.3684916098
 21
-20.6947210668
 31
0.0
 11
-7.3681805345
 21
-20.7259117594
 31
0.0
 11
-7.3678451811
 21
-20.7535863225
 31
0.0
 11
-7.3674884685
 21
-20.7774929918
 31
0.0
 11
-7.367113551
 21
-20.7974392217
 31
0.0
 11
-7.3667235989
 21
-20.8132364086
 31
0.0
 11
-7.3663220979
 21
-20.8247290583
 31
0.0
 11
-7.366118329
 21
-20.8288360292
 31
0.0
 11
-7.3659132686
 21
-20.8318388795
 31
0.0
 11
-7.3657074575
 21
-20.8337291955
 31
0.0
 11
-7.3655014363
 21
-20.8344985637
 31
0.0
  0
LINE
  5
738
100
AcDbEntity
  8
RACCORDO
100
AcDbLine
 62
7
  6
CONTINUOUS
 10
-7.3698253887
 20
-20.3577227936
 11
-7.3711122677
 21
-16.8913368402
  0
SPLINE
  5
739
100
AcDbEntity
  8
RACCORDO
100
AcDbSpline
 62
7
  6
CONTINUOUS
 70
0
 71
3
 72
18
 73
14
 74
12
 42
0.0000001
 43
0.0000001
 44
0.0000000001
 12
0.000197439
 22
-0.4763128957
 32
0.0
 13
0.2130006444
 23
-0.42603373
 33
0.0
 40
0.0
 40
0.0
 40
0.0
 40
0.0
 40
0.1953093805
 40
0.3822735635
 40
0.5537197844
 40
0.7037832147
 40
0.8272585231
 40
0.8775802629
 40
0.9197192913
 40
0.9532852541
 40
0.9779558887
 40
0.9935677602
 40
1.0
 40
1.0
 40
1.0
 40
1.0
 10
6.4297751319
 20
-20.2918660329
 30
0.0
 10
6.4297879858
 20
-20.3228754918
 30
0.0
 10
6.4298624582
 20
-20.3835694647
 30
0.0
 10
6.4301204411
 20
-20.4714836047
 30
0.0
 10
6.4305120199
 20
-20.5522141112
 30
0.0
 10
6.4310288777
 20
-20.6228614749
 30
0.0
 10
6.4315537979
 20
-20.6742822783
 30
0.0
 10
6.4320652255
 20
-20.7085571084
 30
0.0
 10
6.4323950887
 20
-20.728576451
 30
0.0
 10
6.4328526419
 20
-20.7444737854
 30
0.0
 10
6.4330234165
 20
-20.7562760368
 30
0.0
 10
6.433761253
 20
-20.7635280705
 30
0.0
 10
6.4336063369
 20
-20.7672025602
 30
0.0
 10
6.4340630273
 20
-20.7681160106
 30
0.0
 11
6.4297751319
 21
-20.2918660329
 31
0.0
 11
6.4298911355
 21
-20.3848943452
 31
0.0
 11
6.4301573393
 21
-20.4739474063
 31
0.0
 11
6.4305642714
 21
-20.5556084454
 31
0.0
 11
6.4310975724
 21
-20.627083609
 31
0.0
 11
6.4317379491
 21
-20.6858930093
 31
0.0
 11
6.4320914247
 21
-20.7098592985
 31
0.0
 11
6.4324630551
 21
-20.7299272221
 31
0.0
 11
6.43284974
 21
-20.7459104475
 31
0.0
 11
6.4332480685
 21
-20.7576546368
 31
0.0
 11
6.4336539088
 21
-20.7650796902
 31
0.0
 11
6.4340630273
 21
-20.7681160106
 31
0.0
  0
LINE
  5
73A
100
AcDbEntity
  8
RACCORDO
100
AcDbLine
 62
7
  6
CONTINUOUS
 10
6.4297751319
 20
-20.2918660329
 11
6.4284810881
 21
-16.8831205658
  0
LINE
  5
73B
100
AcDbEntity
  8
RACCORDO
100
AcDbLine
 62
7
  6
CONTINUOUS
 10
-6.4284810881
 20
-16.8831205658
 11
-6.4297751319
 21
-20.2918660329
  0
SPLINE
  5
73C
100
AcDbEntity
  8
RACCORDO
100
AcDbSpline
 62
7
  6
CONTINUOUS
 70
0
 71
3
 72
18
 73
14
 74
12
 42
0.0000001
 43
0.0000001
 44
0.0000000001
 12
0.2130006369
 22
0.4260337338
 32
0.0
 13
0.000197439
 23
0.4763128957
 33
0.0
 40
0.0
 40
0.0
 40
0.0
 40
0.0
 40
0.0064322399
 40
0.0220441114
 40
0.0467147461
 40
0.0802807089
 40
0.1224197373
 40
0.1727414772
 40
0.2962167856
 40
0.4462802159
 40
0.6177264368
 40
0.8046906197
 40
1.0
 40
1.0
 40
1.0
 40
1.0
 10
-6.4340630273
 20
-20.7681160106
 30
0.0
 10
-6.4336063369
 20
-20.7672025602
 30
0.0
 10
-6.433761253
 20
-20.7635280704
 30
0.0
 10
-6.4330234165
 20
-20.7562760367
 30
0.0
 10
-6.4328526419
 20
-20.7444737853
 30
0.0
 10
-6.4323950887
 20
-20.7285764509
 30
0.0
 10
-6.4320652255
 20
-20.7085571083
 30
0.0
 10
-6.4315537979
 20
-20.6742822782
 30
0.0
 10
-6.4310288777
 20
-20.6228614747
 30
0.0
 10
-6.4305120199
 20
-20.552214111
 30
0.0
 10
-6.4301204411
 20
-20.4714836045
 30
0.0
 10
-6.4298624582
 20
-20.3835694646
 30
0.0
 10
-6.4297879858
 20
-20.3228754918
 30
0.0
 10
-6.4297751319
 20
-20.2918660329
 30
0.0
 11
-6.4340630273
 21
-20.7681160106
 31
0.0
 11
-6.4336539089
 21
-20.7650796902
 31
0.0
 11
-6.4332480685
 21
-20.7576546368
 31
0.0
 11
-6.43284974
 21
-20.7459104474
 31
0.0
 11
-6.4324630551
 21
-20.729927222
 31
0.0
 11
-6.4320914247
 21
-20.7098592984
 31
0.0
 11
-6.4317379491
 21
-20.6858930092
 31
0.0
 11
-6.4310975724
 21
-20.6270836089
 31
0.0
 11
-6.4305642714
 21
-20.5556084453
 31
0.0
 11
-6.4301573393
 21
-20.4739474062
 31
0.0
 11
-6.4298911356
 21
-20.3848943451
 31
0.0
 11
-6.4297751319
 21
-20.2918660329
 31
0.0
  0
SPLINE
  5
73D
100
AcDbEntity
  8
ASSI
100
AcDbSpline
 62
7
  6
CONTINUOUS
 70
0
 71
3
 72
9
 73
5
 74
3
 42
0.0000001
 43
0.0000001
 44
0.0000000001
 12
10.8828768733
 22
0.0034349542
 32
0.0
 13
10.8828768733
 23
-0.0034349542
 33
0.0
 40
0.0
 40
0.0
 40
0.0
 40
0.0
 40
0.2499585467
 40
1.0
 40
1.0
 40
1.0
 40
1.0
 10
-5.4414386569
 20
-19.9292860574
 30
0.0
 10
-4.5346826279
 20
-19.9289998587
 30
0.0
 10
-0.9070569187
 20
-19.9281414234
 30
0.0
 10
2.7205690614
 20
-19.9284272714
 30
0.0
 10
5.4414386569
 20
-19.9292860574
 30
0.0
 11
-5.4414386569
 21
-19.9292860574
 31
0.0
 11
-2.7211705107
 21
-19.9286422062
 31
0.0
 11
5.4414386569
 21
-19.9292860574
 31
0.0
  0
LINE
  5
73E
100
AcDbEntity
  8
RACCORDO
100
AcDbLine
 62
253
  6
CONTINUOUS
 10
6.4340630273
 20
-20.7681160106
 11
5.432569703
 21
-20.767430297
  0
SPLINE
  5
73F
100
AcDbEntity
  8
RACCORDO
100
AcDbSpline
 62
7
  6
CONTINUOUS
 70
0
 71
3
 72
19
 73
15
 74
13
 42
0.0000001
 43
0.0000001
 44
0.0000000001
 12
0.3365724729
 22
0.33657247
 32
0.0
 13
0.0004025055
 23
0.4759851837
 33
0.0
 40
0.0
 40
0.0
 40
0.0
 40
0.0
 40
0.0066027829
 40
0.0222888255
 40
0.0470090898
 40
0.0806126807
 40
0.1227801291
 40
0.1731212895
 40
0.2312363713
 40
0.2966039113
 40
0.4466260702
 40
0.6179823007
 40
0.804821795
 40
1.0
 40
1.0
 40
1.0
 40
1.0
 10
5.432569703
 20
-20.767430297
 30
0.0
 10
5.4333104746
 20
-20.7666895254
 30
0.0
 10
5.4333658522
 20
-20.7627241805
 30
0.0
 10
5.4345303914
 20
-20.7556925543
 30
0.0
 10
5.4350378853
 20
-20.743765056
 30
0.0
 10
5.4358814193
 20
-20.7279257862
 30
0.0
 10
5.4365662
 20
-20.7078962842
 30
0.0
 10
5.4372721605
 20
-20.6840195443
 30
0.0
 10
5.4379209146
 20
-20.6564441604
 30
0.0
 10
5.4387717305
 20
-20.6130591788
 30
0.0
 10
5.4396580994
 20
-20.551702517
 30
0.0
 10
5.4404444018
 20
-20.4710717235
 30
0.0
 10
5.440958935
 20
-20.3832736384
 30
0.0
 10
5.4411087539
 20
-20.322662111
 30
0.0
 10
5.4411349407
 20
-20.2916947997
 30
0.0
 11
5.432569703
 21
-20.767430297
 31
0.0
 11
5.4333868797
 21
-20.7643955665
 31
0.0
 11
5.4341974943
 21
-20.7569733743
 31
0.0
 11
5.4349930753
 21
-20.7452338177
 31
0.0
 11
5.435765359
 21
-20.7292576556
 31
0.0
 11
5.4365075359
 21
-20.7092002944
 31
0.0
 11
5.4372134177
 21
-20.6852490388
 31
0.0
 11
5.437876849
 21
-20.6575950679
 31
0.0
 11
5.4384921418
 21
-20.6264871607
 31
0.0
 11
5.4395570529
 21
-20.5550867512
 31
0.0
 11
5.4403698383
 21
-20.4735277451
 31
0.0
 11
5.4409020524
 21
-20.3845964748
 31
0.0
 11
5.4411349407
 21
-20.2916947997
 31
0.0
  0
SPLINE
  5
740
100
AcDbEntity
  8
RACCORDO
100
AcDbSpline
 62
7
  6
CONTINUOUS
 70
0
 71
3
 72
19
 73
15
 74
13
 42
0.0000001
 43
0.0000001
 44
0.0000000001
 12
0.0004025055
 22
-0.4759851837
 32
0.0
 13
0.3365724725
 23
-0.3365724704
 33
0.0
 40
0.0
 40
0.0
 40
0.0
 40
0.0
 40
0.195178205
 40
0.3820176993
 40
0.5533739298
 40
0.7033960887
 40
0.7687636287
 40
0.8268787105
 40
0.8772198709
 40
0.9193873193
 40
0.9529909102
 40
0.9777111745
 40
0.9933972171
 40
1.0
 40
1.0
 40
1.0
 40
1.0
 10
-5.4411349407
 20
-20.2916947997
 30
0.0
 10
-5.4411087539
 20
-20.322662111
 30
0.0
 10
-5.440958935
 20
-20.3832736384
 30
0.0
 10
-5.4404444018
 20
-20.4710717235
 30
0.0
 10
-5.4396580994
 20
-20.551702517
 30
0.0
 10
-5.4387717305
 20
-20.6130591788
 30
0.0
 10
-5.4379209146
 20
-20.6564441604
 30
0.0
 10
-5.4372721605
 20
-20.6840195443
 30
0.0
 10
-5.4365662
 20
-20.7078962841
 30
0.0
 10
-5.4358814193
 20
-20.7279257862
 30
0.0
 10
-5.4350378853
 20
-20.743765056
 30
0.0
 10
-5.4345303914
 20
-20.7556925543
 30
0.0
 10
-5.4333658522
 20
-20.7627241805
 30
0.0
 10
-5.4333104746
 20
-20.7666895254
 30
0.0
 10
-5.432569703
 20
-20.767430297
 30
0.0
 11
-5.4411349407
 21
-20.2916947997
 31
0.0
 11
-5.4409020524
 21
-20.3845964748
 31
0.0
 11
-5.4403698383
 21
-20.4735277451
 31
0.0
 11
-5.4395570529
 21
-20.5550867512
 31
0.0
 11
-5.4384921418
 21
-20.6264871607
 31
0.0
 11
-5.437876849
 21
-20.6575950679
 31
0.0
 11
-5.4372134177
 21
-20.6852490388
 31
0.0
 11
-5.4365075359
 21
-20.7092002944
 31
0.0
 11
-5.435765359
 21
-20.7292576556
 31
0.0
 11
-5.4349930753
 21
-20.7452338177
 31
0.0
 11
-5.4341974943
 21
-20.7569733743
 31
0.0
 11
-5.4333868797
 21
-20.7643955665
 31
0.0
 11
-5.432569703
 21
-20.767430297
 31
0.0
  0
LINE
  5
741
100
AcDbEntity
  8
RACCORDO
100
AcDbLine
 62
253
  6
CONTINUOUS
 10
-5.432569703
 20
-20.767430297
 11
-6.4340630273
 21
-20.7681160106
  0
SPLINE
  5
742
100
AcDbEntity
  8
RACCORDO
100
AcDbSpline
 62
7
  6
CONTINUOUS
 70
0
 71
3
 72
20
 73
16
 74
14
 42
0.0000001
 43
0.0000001
 44
0.0000000001
 12
0.0005472309
 22
-0.4789354998
 32
0.0
 13
0.4543445955
 23
-0.1514942277
 33
0.0
 40
0.0
 40
0.0
 40
0.0
 40
0.0
 40
0.1962050879
 40
0.3839940276
 40
0.5560183007
 40
0.7062978987
 40
0.771621438
 40
0.8295732281
 40
0.8796357926
 40
0.9214173413
 40
0.9545376332
 40
0.9786951631
 40
0.9937772017
 40
0.9979348601
 40
1.0
 40
1.0
 40
1.0
 40
1.0
 10
9.4434836352
 20
-20.3572262944
 30
0.0
 10
9.443519425
 20
-20.3885494883
 30
0.0
 10
9.4437411618
 20
-20.4498522282
 30
0.0
 10
9.4445193628
 20
-20.5386149078
 30
0.0
 10
9.4457138263
 20
-20.6200406939
 30
0.0
 10
9.4470653381
 20
-20.681909289
 30
0.0
 10
9.4483591917
 20
-20.7255627919
 30
0.0
 10
9.4493538083
 20
-20.7532159986
 30
0.0
 10
9.4504067442
 20
-20.7771125382
 30
0.0
 10
9.4515083036
 20
-20.7970179316
 30
0.0
 10
9.4526287924
 20
-20.8128322137
 30
0.0
 10
9.453775703
 20
-20.8242396136
 30
0.0
 10
9.4547740848
 20
-20.8312593005
 30
0.0
 10
9.4556811678
 20
-20.8343860315
 30
0.0
 10
9.456183829
 20
-20.8354076778
 30
0.0
 10
9.4564965907
 20
-20.8355119633
 30
0.0
 11
9.4434836352
 21
-20.3572262944
 31
0.0
 11
9.4438284442
 21
-20.4511953049
 31
0.0
 11
9.444633757
 21
-20.5411305479
 31
0.0
 11
9.4458698701
 21
-20.6235098594
 31
0.0
 11
9.4474917654
 21
-20.6954658643
 31
0.0
 11
9.4484289587
 21
-20.7267376062
 31
0.0
 11
9.4494392205
 21
-20.7544744016
 31
0.0
 11
9.4505136852
 21
-20.7784270696
 31
0.0
 11
9.4516428324
 21
-20.7984058669
 31
0.0
 11
9.4528170975
 21
-20.814224837
 31
0.0
 11
9.4540259708
 21
-20.8257314157
 31
0.0
 11
9.455256789
 21
-20.8328491092
 31
0.0
 11
9.455876377
 21
-20.8347415133
 31
0.0
 11
9.4564965907
 21
-20.8355119633
 31
0.0
  0
SPLINE
  5
743
100
AcDbEntity
  8
RACCORDO
100
AcDbSpline
 62
7
  6
CONTINUOUS
 70
0
 71
3
 72
20
 73
16
 74
14
 42
0.0000001
 43
0.0000001
 44
0.0000000001
 12
0.4543698742
 22
0.151418619
 32
0.0
 13
0.0005472342
 23
0.4789355711
 33
0.0
 40
0.0
 40
0.0
 40
0.0
 40
0.0
 40
0.002064961
 40
0.0062224115
 40
0.0213040545
 40
0.0454612353
 40
0.0785812291
 40
0.1203625369
 40
0.1704249258
 40
0.2283766122
 40
0.293700105
 40
0.4439796596
 40
0.6160040443
 40
0.803793891
 40
1.0
 40
1.0
 40
1.0
 40
1.0
 10
-9.4564965907
 20
-20.8355119633
 30
0.0
 10
-9.4561838387
 20
-20.8354077388
 30
0.0
 10
-9.4556811412
 20
-20.8343861402
 30
0.0
 10
-9.4547740917
 20
-20.831259569
 30
0.0
 10
-9.4537756772
 20
-20.8242400013
 30
0.0
 10
-9.4526287825
 20
-20.8128327868
 30
0.0
 10
-9.4515082822
 20
-20.797018636
 30
0.0
 10
-9.450406721
 20
-20.7771133576
 30
0.0
 10
-9.4493537796
 20
-20.7532168965
 30
0.0
 10
-9.4483591601
 20
-20.7255637382
 30
0.0
 10
-9.4470653023
 20
-20.6819102597
 30
0.0
 10
-9.4457137786
 20
-20.6200416523
 30
0.0
 10
-9.4445192882
 20
-20.5386156987
 30
0.0
 10
-9.4437411276
 20
-20.4498526798
 30
0.0
 10
-9.4435194252
 20
-20.3885496229
 30
0.0
 10
-9.443483635
 20
-20.3572262613
 30
0.0
 11
-9.4564965907
 21
-20.8355119633
 31
0.0
 11
-9.4558763753
 21
-20.8347416244
 31
0.0
 11
-9.4552567855
 21
-20.8328493254
 31
0.0
 11
-9.4540259633
 21
-20.8257318238
 31
0.0
 11
-9.4528170856
 21
-20.8142254119
 31
0.0
 11
-9.4516428154
 21
-20.798406583
 31
0.0
 11
-9.450513663
 21
-20.7784278986
 31
0.0
 11
-9.4494391935
 21
-20.7544753114
 31
0.0
 11
-9.4484289279
 21
-20.7267385618
 31
0.0
 11
-9.447491731
 21
-20.6954668375
 31
0.0
 11
-9.4458698223
 21
-20.6235108431
 31
0.0
 11
-9.4446336952
 21
-20.541131466
 31
0.0
 11
-9.4438284112
 21
-20.451195775
 31
0.0
 11
-9.443483635
 21
-20.3572262613
 31
0.0
  0
SPLINE
  5
744
100
AcDbEntity
  8
ASSI
100
AcDbSpline
 62
253
  6
CONTINUOUS
 70
0
 71
3
 72
9
 73
5
 74
3
 42
0.0000001
 43
0.0000001
 44
0.0000000001
 12
0.0000000798
 22
-0.2165052525
 32
0.0
 13
-0.0013107489
 23
-0.2165012847
 33
0.0
 40
0.0
 40
0.0
 40
0.0
 40
0.0
 40
0.2988002074
 40
1.0
 40
1.0
 40
1.0
 40
1.0
 10
7.4139945172
 20
23.8443359174
 30
0.0
 10
7.4139945251
 20
23.8227719793
 30
0.0
 10
7.4139512004
 20
23.7506036582
 30
0.0
 10
7.4138645065
 20
23.6784347683
 30
0.0
 10
7.4135581409
 20
23.6278312163
 30
0.0
 11
7.4139945172
 21
23.8443359174
 31
0.0
 11
7.4139647622
 21
23.7796441099
 31
0.0
 11
7.4135581409
 21
23.6278312163
 31
0.0
  0
SPLINE
  5
745
100
AcDbEntity
  8
RACCORDO
100
AcDbSpline
 62
7
  6
CONTINUOUS
 70
0
 71
3
 72
14
 73
10
 74
8
 42
0.0000001
 43
0.0000001
 44
0.0000000001
 12
0.0110963146
 22
1.8020887865
 32
0.0
 13
0.0110963146
 23
1.8020887865
 33
0.0
 40
0.0
 40
0.0
 40
0.0
 40
0.0
 40
0.2499999149
 40
0.4999998092
 40
0.6249998349
 40
0.749999547
 40
0.8125002698
 40
0.8750003689
 40
1.0
 40
1.0
 40
1.0
 40
1.0
 10
-7.3608076463
 20
15.3385854114
 30
0.0
 10
-7.3598829538
 20
15.4887594258
 30
0.0
 10
-7.3580042339
 20
15.7891072354
 30
0.0
 10
-7.3557937859
 20
16.164543022
 30
0.0
 10
-7.3537621144
 20
16.464889613
 30
0.0
 10
-7.3529327181
 20
16.6526099739
 30
0.0
 10
-7.3516508648
 20
16.8027810889
 30
0.0
 10
-7.3502292456
 20
16.9529548087
 30
0.0
 10
-7.3519578588
 20
17.0655893316
 30
0.0
 10
-7.3514955137
 20
17.1406761428
 30
0.0
 11
-7.3608076463
 21
15.3385854114
 31
0.0
 11
-7.3580318242
 21
15.7891074439
 31
0.0
 11
-7.3552639253
 21
16.2396294879
 31
0.0
 11
-7.3538501933
 21
16.4648904667
 31
0.0
 11
-7.3525607317
 21
16.6901516259
 31
0.0
 11
-7.3516333906
 21
16.8027817951
 31
0.0
 11
-7.350895185
 21
16.915412239
 31
0.0
 11
-7.3514955137
 21
17.1406761428
 31
0.0
  0
SPLINE
  5
746
100
AcDbEntity
  8
RACCORDO
100
AcDbSpline
 62
7
  6
CONTINUOUS
 70
0
 71
3
 72
13
 73
9
 74
7
 42
0.0000001
 43
0.0000001
 44
0.0000000001
 12
0.0110962958
 22
-1.802085736
 32
0.0
 13
0.0110962958
 23
-1.802085736
 33
0.0
 40
0.0
 40
0.0
 40
0.0
 40
0.0
 40
0.1250000253
 40
0.2499994985
 40
0.3750000479
 40
0.4999998881
 40
0.7499999734
 40
1.0
 40
1.0
 40
1.0
 40
1.0
 10
7.3514955137
 20
17.1406761428
 30
0.0
 10
7.3519578595
 20
17.0655892219
 30
0.0
 10
7.3507383762
 20
16.9154105283
 30
0.0
 10
7.3522884113
 20
16.6901479874
 30
0.0
 10
7.35405152
 20
16.4648906065
 30
0.0
 10
7.3555807512
 20
16.1645404609
 30
0.0
 10
7.3580930976
 20
15.7891073309
 30
0.0
 10
7.3598829549
 20
15.4887592387
 30
0.0
 10
7.3608076463
 20
15.3385854114
 30
0.0
 11
7.3514955137
 21
17.1406761428
 31
0.0
 11
7.3513015854
 21
16.9154111933
 31
0.0
 11
7.352323919
 21
16.6901494754
 31
0.0
 11
7.3539488247
 21
16.4648893586
 31
0.0
 11
7.3552384969
 21
16.239628351
 31
0.0
 11
7.3580380927
 21
15.7891069211
 31
0.0
 11
7.3608076463
 21
15.3385854114
 31
0.0
  0
LINE
  5
747
100
AcDbEntity
  8
ASSI
100
AcDbLine
 62
7
  6
CONTINUOUS
 10
1.3506731614
 20
11.5619290954
 11
1.3500832759
 21
9.9999167241
  0
LINE
  5
748
100
AcDbEntity
  8
ASSI
100
AcDbLine
 62
7
  6
CONTINUOUS
 10
1.3500832759
 20
9.9999167241
 11
-1.3570655786
 21
9.9999159157
  0
LINE
  5
749
100
AcDbEntity
  8
ASSI
100
AcDbLine
 62
7
  6
CONTINUOUS
 10
-1.3570655786
 20
9.9999159157
 11
-1.3576554492
 21
11.5618909435
  0
LINE
  5
74A
100
AcDbEntity
  8
ASSI
100
AcDbLine
 62
7
  6
CONTINUOUS
 10
-2.2065810529
 20
11.5557863506
 11
-2.2068746908
 21
9.9997863769
  0
SPLINE
  5
74B
100
AcDbEntity
  8
ASSI
100
AcDbSpline
 62
7
  6
CONTINUOUS
 70
0
 71
3
 72
9
 73
5
 74
3
 42
0.0000001
 43
0.0000001
 44
0.0000000001
 12
-6.0402866675
 22
-0.0011402908
 32
0.0
 13
-6.0402852699
 23
-0.004264378
 33
0.0
 40
0.0
 40
0.0
 40
0.0
 40
0.0
 40
0.2500641808
 40
1.0
 40
1.0
 40
1.0
 40
1.0
 10
-2.2068746908
 20
9.9997863769
 30
0.0
 10
-2.7103611366
 20
9.9996913283
 30
0.0
 10
-4.7237899991
 20
9.9991811448
 30
0.0
 10
-6.7372187299
 20
9.9981506748
 30
0.0
 10
-8.2471608239
 20
9.9970846715
 30
0.0
 11
-2.2068746908
 21
9.9997863769
 31
0.0
 11
-3.7173340065
 21
9.9994036365
 31
0.0
 11
-8.2471608239
 21
9.9970846715
 31
0.0
  0
SPLINE
  5
74C
100
AcDbEntity
  8
ASSI
100
AcDbSpline
 62
7
  6
CONTINUOUS
 70
0
 71
3
 72
9
 73
5
 74
3
 42
0.0000001
 43
0.0000001
 44
0.0000000001
 12
-0.0058477284
 22
-17.5943658905
 32
0.0
 13
0.0049856844
 23
-17.5943661559
 33
0.0
 40
0.0
 40
0.0
 40
0.0
 40
0.0
 40
0.2499854985
 40
1.0
 40
1.0
 40
1.0
 40
1.0
 10
-8.7468917584
 20
9.4969679108
 30
0.0
 10
-8.7473790408
 20
8.0308558015
 30
0.0
 10
-8.7488766915
 20
2.1660670299
 30
0.0
 10
-8.7485690827
 20
-3.6987222027
 30
0.0
 10
-8.7473226375
 20
-8.0973987899
 30
0.0
 11
-8.7468917584
 21
9.4969679108
 31
0.0
 11
-8.7480150071
 21
5.0986314834
 31
0.0
 11
-8.7473226375
 21
-8.0973987899
 31
0.0
  0
LINE
  5
74D
100
AcDbEntity
  8
ASSI
100
AcDbLine
 62
7
  6
CONTINUOUS
 10
-8.2476162192
 20
-8.5975400668
 11
-7.8000000349
 21
-8.5978475224
  0
LINE
  5
74E
100
AcDbEntity
  8
ASSI
100
AcDbLine
 62
7
  6
CONTINUOUS
 10
-7.2480154544
 20
-9.2000000359
 11
-7.2479450442
 21
-9.4161199285
  0
LINE
  5
74F
100
AcDbEntity
  8
ASSI
100
AcDbLine
 62
7
  6
CONTINUOUS
 10
-7.2479450442
 20
-9.4161199285
 11
-9.435465772
 21
-9.4169013325
  0
LINE
  5
750
100
AcDbEntity
  8
ASSI
100
AcDbLine
 62
253
  6
CONTINUOUS
 10
9.4570325893
 20
-20.8356905933
 11
7.3650648943
 21
-20.8349351057
  0
LINE
  5
751
100
AcDbEntity
  8
ASSI
100
AcDbLine
 62
253
  6
CONTINUOUS
 10
-7.3650648943
 20
-20.8349351057
 11
-9.4570325893
 21
-20.8356905933
  0
LINE
  5
752
100
AcDbEntity
  8
ASSI
100
AcDbLine
 62
7
  6
CONTINUOUS
 10
7.3705143312
 20
-16.9034181896
 11
7.3693881054
 21
-20.3553531072
  0
SPLINE
  5
753
100
AcDbEntity
  8
ASSI
100
AcDbSpline
 62
7
  6
CONTINUOUS
 70
0
 71
3
 72
21
 73
17
 74
15
 42
0.0000001
 43
0.0000001
 44
0.0000000001
 12
0.3391682082
 22
0.3391697185
 32
0.0
 13
0.0001710127
 23
0.4796573174
 33
0.0
 40
0.0
 40
0.0
 40
0.0
 40
0.0
 40
0.0016710022
 40
0.0056640528
 40
0.0119858408
 40
0.0206231672
 40
0.0447786817
 40
0.0779702176
 40
0.1198695833
 40
0.1700775749
 40
0.2281861895
 40
0.2936620828
 40
0.4441852479
 40
0.6163100851
 40
0.8040272118
 40
1.0
 40
1.0
 40
1.0
 40
1.0
 10
7.3650648943
 20
-20.8349351057
 30
0.0
 10
7.3652538113
 20
-20.8347461879
 30
0.0
 10
7.3652647475
 20
-20.8337299227
 30
0.0
 10
7.3655642445
 20
-20.8319237754
 30
0.0
 10
7.3656957325
 20
-20.8288459089
 30
0.0
 10
7.3660293389
 20
-20.8226302188
 30
0.0
 10
7.3663423999
 20
-20.8120625764
 30
0.0
 10
7.3667318486
 20
-20.7962096712
 30
0.0
 10
7.3670921972
 20
-20.7761753087
 30
0.0
 10
7.3674446775
 20
-20.752161883
 30
0.0
 10
7.3677746014
 20
-20.7243763923
 30
0.0
 10
7.36820461
 20
-20.6805527525
 30
0.0
 10
7.3686526637
 20
-20.6184986669
 30
0.0
 10
7.3690480718
 20
-20.5368994863
 30
0.0
 10
7.3693046422
 20
-20.4480329173
 30
0.0
 10
7.3693769341
 20
-20.3866863678
 30
0.0
 10
7.3693881054
 20
-20.3553531072
 30
0.0
 11
7.3650648943
 21
-20.8349351057
 31
0.0
 11
7.3652716305
 21
-20.8341607182
 31
0.0
 11
7.3654781542
 21
-20.8322565892
 31
0.0
 11
7.3656839183
 21
-20.8292312865
 31
0.0
 11
7.3658883756
 21
-20.8250933776
 31
0.0
 11
7.3662911813
 21
-20.8135140116
 31
0.0
 11
7.366682301
 21
-20.7975982525
 31
0.0
 11
7.3670582116
 21
-20.7775044298
 31
0.0
 11
7.3674157099
 21
-20.7534244513
 31
0.0
 11
7.3677516095
 21
-20.7255542514
 31
0.0
 11
7.3680629675
 21
-20.6941498015
 31
0.0
 11
7.3686010662
 21
-20.6219522646
 31
0.0
 11
7.3690102094
 21
-20.5393923355
 31
0.0
 11
7.369275741
 21
-20.4493528279
 31
0.0
 11
7.3693881054
 21
-20.3553531072
 31
0.0
  0
SPLINE
  5
754
100
AcDbEntity
  8
ASSI
100
AcDbSpline
 62
7
  6
CONTINUOUS
 70
0
 71
3
 72
21
 73
17
 74
15
 42
0.0000001
 43
0.0000001
 44
0.0000000001
 12
0.0001710127
 22
-0.4796573173
 32
0.0
 13
0.339166949
 23
-0.3391709775
 33
0.0
 40
0.0
 40
0.0
 40
0.0
 40
0.0
 40
0.1959727751
 40
0.38368989
 40
0.5558147254
 40
0.7063378907
 40
0.7718137844
 40
0.8299224003
 40
0.880130394
 40
0.9220297628
 40
0.9552213025
 40
0.9793768216
 40
0.9880141505
 40
0.9943359414
 40
0.9983289948
 40
1.0
 40
1.0
 40
1.0
 40
1.0
 10
-7.3693881054
 20
-20.3553531072
 30
0.0
 10
-7.3693769341
 20
-20.3866863657
 30
0.0
 10
-7.3693046421
 20
-20.4480329113
 30
0.0
 10
-7.3690480715
 20
-20.5368994759
 30
0.0
 10
-7.3686526635
 20
-20.6184986544
 30
0.0
 10
-7.3682046098
 20
-20.6805527398
 30
0.0
 10
-7.3677746012
 20
-20.7243763799
 30
0.0
 10
-7.3674446774
 20
-20.7521618712
 30
0.0
 10
-7.3670921971
 20
-20.776175298
 30
0.0
 10
-7.3667318485
 20
-20.7962096618
 30
0.0
 10
-7.3663423999
 20
-20.8120625689
 30
0.0
 10
-7.3660293388
 20
-20.8226302129
 30
0.0
 10
-7.3656957326
 20
-20.8288459049
 30
0.0
 10
-7.3655642442
 20
-20.8319237721
 30
0.0
 10
-7.3652647478
 20
-20.8337299218
 30
0.0
 10
-7.3652538109
 20
-20.8347461868
 30
0.0
 10
-7.3650648943
 20
-20.8349351057
 30
0.0
 11
-7.3693881054
 21
-20.3553531072
 31
0.0
 11
-7.3692757408
 21
-20.4493528216
 31
0.0
 11
-7.3690102092
 21
-20.5393923236
 31
0.0
 11
-7.368601066
 21
-20.6219522518
 31
0.0
 11
-7.3680629674
 21
-20.6941497888
 31
0.0
 11
-7.3677516094
 21
-20.7255542389
 31
0.0
 11
-7.3674157098
 21
-20.7534244394
 31
0.0
 11
-7.3670582115
 21
-20.7775044188
 31
0.0
 11
-7.3666823009
 21
-20.797598243
 31
0.0
 11
-7.3662911813
 21
-20.8135140039
 31
0.0
 11
-7.3658883755
 21
-20.8250933722
 31
0.0
 11
-7.3656839182
 21
-20.8292312823
 31
0.0
 11
-7.3654781542
 21
-20.8322565864
 31
0.0
 11
-7.3652716305
 21
-20.8341607167
 31
0.0
 11
-7.3650648943
 21
-20.8349351057
 31
0.0
  0
LINE
  5
755
100
AcDbEntity
  8
ASSI
100
AcDbLine
 62
7
  6
CONTINUOUS
 10
-7.3693881054
 20
-20.3553531072
 11
-7.3705143312
 21
-16.9034181896
  0
SPLINE
  5
756
100
AcDbEntity
  8
ASSI
100
AcDbSpline
 62
7
  6
CONTINUOUS
 70
0
 71
3
 72
18
 73
14
 74
12
 42
0.0000001
 43
0.0000001
 44
0.0000000001
 12
0.00017056
 22
-0.4796571705
 32
0.0
 13
0.2144961533
 23
-0.4290249766
 33
0.0
 40
0.0
 40
0.0
 40
0.0
 40
0.0
 40
0.1949299815
 40
0.3817269315
 40
0.5531673132
 40
0.7033332103
 40
0.8269635527
 40
0.8773652944
 40
0.9195781866
 40
0.9532064294
 40
0.9779229852
 40
0.9935618747
 40
1.0
 40
1.0
 40
1.0
 40
1.0
 10
6.4303111401
 20
-20.2895920342
 30
0.0
 10
6.4303222225
 20
-20.3207585553
 30
0.0
 10
6.4303936977
 20
-20.3817912752
 30
0.0
 10
6.4306484162
 20
-20.4702343555
 30
0.0
 10
6.4310381444
 20
-20.5515204166
 30
0.0
 10
6.4315546102
 20
-20.6227040697
 30
0.0
 10
6.4320800793
 20
-20.6745399132
 30
0.0
 10
6.4325929097
 20
-20.7091047976
 30
0.0
 10
6.4329234846
 20
-20.729299338
 30
0.0
 10
6.4333834527
 20
-20.7453373
 30
0.0
 10
6.433553017
 20
-20.7572444078
 30
0.0
 10
6.4342971382
 20
-20.764559446
 30
0.0
 10
6.4341378516
 20
-20.7682656705
 30
0.0
 10
6.4345981693
 20
-20.769186376
 30
0.0
 11
6.4303111401
 21
-20.2895920342
 31
0.0
 11
6.4304224184
 21
-20.3830915372
 31
0.0
 11
6.4306853023
 21
-20.4726896537
 31
0.0
 11
6.4310904066
 21
-20.5549212695
 31
0.0
 11
6.4316233462
 21
-20.6269474517
 31
0.0
 11
6.4322647006
 21
-20.6862441673
 31
0.0
 11
6.4326191058
 21
-20.7104171278
 31
0.0
 11
6.4329919121
 21
-20.7306614131
 31
0.0
 11
6.4333799808
 21
-20.746786773
 31
0.0
 11
6.4337798574
 21
-20.7586355013
 31
0.0
 11
6.4341873518
 21
-20.7661257309
 31
0.0
 11
6.4345981693
 21
-20.769186376
 31
0.0
  0
LINE
  5
757
100
AcDbEntity
  8
ASSI
100
AcDbLine
 62
7
  6
CONTINUOUS
 10
6.4303111401
 20
-20.2895920342
 11
6.4292059967
 21
-16.8977673961
  0
LINE
  5
758
100
AcDbEntity
  8
ASSI
100
AcDbLine
 62
7
  6
CONTINUOUS
 10
-6.4292059967
 20
-16.8977673961
 11
-6.4303111401
 21
-20.2895920342
  0
SPLINE
  5
759
100
AcDbEntity
  8
ASSI
100
AcDbSpline
 62
7
  6
CONTINUOUS
 70
0
 71
3
 72
18
 73
14
 74
12
 42
0.0000001
 43
0.0000001
 44
0.0000000001
 12
0.2144961507
 22
0.4290249779
 32
0.0
 13
0.00017056
 23
0.4796571705
 33
0.0
 40
0.0
 40
0.0
 40
0.0
 40
0.0
 40
0.0064381253
 40
0.0220770148
 40
0.0467935706
 40
0.0804218134
 40
0.1226347057
 40
0.1730364474
 40
0.2966667898
 40
0.4468326869
 40
0.6182730686
 40
0.8050700185
 40
1.0
 40
1.0
 40
1.0
 40
1.0
 10
-6.4345981693
 20
-20.769186376
 30
0.0
 10
-6.4341378516
 20
-20.7682656705
 30
0.0
 10
-6.4342971382
 20
-20.764559446
 30
0.0
 10
-6.433553017
 20
-20.7572444078
 30
0.0
 10
-6.4333834527
 20
-20.7453373
 30
0.0
 10
-6.4329234846
 20
-20.729299338
 30
0.0
 10
-6.4325929097
 20
-20.7091047976
 30
0.0
 10
-6.4320800793
 20
-20.6745399131
 30
0.0
 10
-6.4315546102
 20
-20.6227040696
 30
0.0
 10
-6.4310381444
 20
-20.5515204166
 30
0.0
 10
-6.4306484162
 20
-20.4702343555
 30
0.0
 10
-6.4303936977
 20
-20.3817912752
 30
0.0
 10
-6.4303222225
 20
-20.3207585553
 30
0.0
 10
-6.4303111401
 20
-20.2895920342
 30
0.0
 11
-6.4345981693
 21
-20.769186376
 31
0.0
 11
-6.4341873518
 21
-20.7661257309
 31
0.0
 11
-6.4337798574
 21
-20.7586355013
 31
0.0
 11
-6.4333799808
 21
-20.746786773
 31
0.0
 11
-6.4329919121
 21
-20.7306614131
 31
0.0
 11
-6.4326191058
 21
-20.7104171277
 31
0.0
 11
-6.4322647006
 21
-20.6862441673
 31
0.0
 11
-6.4316233462
 21
-20.6269474516
 31
0.0
 11
-6.4310904066
 21
-20.5549212694
 31
0.0
 11
-6.4306853023
 21
-20.4726896537
 31
0.0
 11
-6.4304224184
 21
-20.3830915372
 31
0.0
 11
-6.4303111401
 21
-20.2895920342
 31
0.0
  0
SPLINE
  5
75A
100
AcDbEntity
  8
ASSI
100
AcDbSpline
 62
7
  6
CONTINUOUS
 70
0
 71
3
 72
9
 73
5
 74
3
 42
0.0000001
 43
0.0000001
 44
0.0000000001
 12
10.8802894536
 22
0.0025338226
 32
0.0
 13
10.8802894536
 23
-0.0025338226
 33
0.0
 40
0.0
 40
0.0
 40
0.0
 40
0.0
 40
0.249977426
 40
1.0
 40
1.0
 40
1.0
 40
1.0
 10
-5.4401448467
 20
-19.9299329132
 30
0.0
 10
-4.5335359293
 20
-19.9297217804
 30
0.0
 10
-0.9067727319
 20
-19.9290884578
 30
0.0
 10
2.7199906129
 20
-19.9292994385
 30
0.0
 10
5.4401448467
 20
-19.9299329132
 30
0.0
 11
-5.4401448467
 21
-19.9299329132
 31
0.0
 11
-2.7203180622
 21
-19.9294579071
 31
0.0
 11
5.4401448467
 21
-19.9299329132
 31
0.0
  0
SPLINE
  5
75B
100
AcDbEntity
  8
ASSI
100
AcDbSpline
 62
253
  6
CONTINUOUS
 70
0
 71
3
 72
25
 73
21
 74
19
 42
0.0000001
 43
0.0000001
 44
0.0000000001
 12
0.1885513154
 22
-0.1952558163
 32
0.0
 13
0.1903870649
 23
0.1934662706
 33
0.0
 40
0.0
 40
0.0
 40
0.0
 40
0.0
 40
0.0032993224
 40
0.0112229513
 40
0.0237271288
 40
0.0407190122
 40
0.0874357045
 40
0.1496533678
 40
0.2250209446
 40
0.3107340552
 40
0.5000006095
 40
0.6892666206
 40
0.7749788229
 40
0.8503426385
 40
0.9125597899
 40
0.9592803118
 40
0.9762710712
 40
0.9887708994
 40
0.9966927945
 40
1.0
 40
1.0
 40
1.0
 40
1.0
 10
3.8306228363
 20
23.9018840226
 30
0.0
 10
3.8308302001
 20
23.9016692853
 30
0.0
 10
3.8319787547
 20
23.9016688371
 30
0.0
 10
3.8339950011
 20
23.9013302221
 30
0.0
 10
3.8374383151
 20
23.9011950848
 30
0.0
 10
3.8442904436
 20
23.9008432663
 30
0.0
 10
3.8557057013
 20
23.9005408964
 30
0.0
 10
3.8723658356
 20
23.9001926342
 30
0.0
 10
3.8925718869
 20
23.8999212826
 30
0.0
 10
3.9242676949
 20
23.8996345298
 30
0.0
 10
3.9662725553
 20
23.8995040986
 30
0.0
 10
4.0082772989
 20
23.8996345596
 30
0.0
 10
4.039972685
 20
23.8999212766
 30
0.0
 10
4.0601781483
 20
23.9001927377
 30
0.0
 10
4.0768385747
 20
23.9005407828
 30
0.0
 10
4.088253299
 20
23.9008436703
 30
0.0
 10
4.0951063157
 20
23.9011946585
 30
0.0
 10
4.0985471548
 20
23.901331217
 30
0.0
 10
4.1005669907
 20
23.9016673067
 30
0.0
 10
4.1017122158
 20
23.901670745
 30
0.0
 10
4.1019220988
 20
23.9018840226
 30
0.0
 11
3.8306228363
 21
23.9018840226
 31
0.0
 11
3.8314886627
 21
23.9016552184
 31
0.0
 11
3.8336274068
 21
23.9014283546
 31
0.0
 11
3.8370141724
 21
23.901205965
 31
0.0
 11
3.8416213132
 21
23.9009905227
 31
0.0
 11
3.8542954345
 21
23.9005883653
 31
0.0
 11
3.8711797587
 21
23.9002364582
 31
0.0
 11
3.8916350477
 21
23.8999478441
 31
0.0
 11
3.9148995167
 21
23.8997336478
 31
0.0
 11
3.9662725974
 21
23.8995572797
 31
0.0
 11
4.0176455306
 21
23.8997336642
 31
0.0
 11
4.040909753
 21
23.8999478674
 31
0.0
 11
4.0613640208
 21
23.9002364928
 31
0.0
 11
4.0782482058
 21
23.9005884107
 31
0.0
 11
4.0909233674
 21
23.9009905596
 31
0.0
 11
4.0955302034
 21
23.901205989
 31
0.0
 11
4.0989157867
 21
23.9014283662
 31
0.0
 11
4.1010540584
 21
23.9016552219
 31
0.0
 11
4.1019220988
 21
23.9018840226
 31
0.0
  0
SPLINE
  5
75C
100
AcDbEntity
  8
ASSI
100
AcDbSpline
 62
253
  6
CONTINUOUS
 70
0
 71
3
 72
25
 73
21
 74
19
 42
0.0000001
 43
0.0000001
 44
0.0000000001
 12
0.1885513154
 22
-0.1952558163
 32
0.0
 13
0.1903870649
 23
0.1934662706
 33
0.0
 40
0.0
 40
0.0
 40
0.0
 40
0.0
 40
0.0032993224
 40
0.0112229513
 40
0.0237271288
 40
0.0407190122
 40
0.0874357045
 40
0.1496533678
 40
0.2250209446
 40
0.3107340552
 40
0.5000006095
 40
0.6892666206
 40
0.7749788229
 40
0.8503426385
 40
0.9125597899
 40
0.9592803118
 40
0.9762710712
 40
0.9887708994
 40
0.9966927945
 40
1.0
 40
1.0
 40
1.0
 40
1.0
 10
-4.1019220988
 20
23.9018840226
 30
0.0
 10
-4.101714735
 20
23.9016692853
 30
0.0
 10
-4.1005661804
 20
23.9016688371
 30
0.0
 10
-4.098549934
 20
23.9013302221
 30
0.0
 10
-4.09510662
 20
23.9011950848
 30
0.0
 10
-4.0882544915
 20
23.9008432663
 30
0.0
 10
-4.0768392338
 20
23.9005408964
 30
0.0
 10
-4.0601790994
 20
23.9001926342
 30
0.0
 10
-4.0399730481
 20
23.8999212826
 30
0.0
 10
-4.0082772402
 20
23.8996345298
 30
0.0
 10
-3.9662723797
 20
23.8995040986
 30
0.0
 10
-3.9242676361
 20
23.8996345596
 30
0.0
 10
-3.89257225
 20
23.8999212766
 30
0.0
 10
-3.8723667868
 20
23.9001927377
 30
0.0
 10
-3.8557063604
 20
23.9005407828
 30
0.0
 10
-3.844291636
 20
23.9008436703
 30
0.0
 10
-3.8374386194
 20
23.9011946585
 30
0.0
 10
-3.8339977802
 20
23.901331217
 30
0.0
 10
-3.8319779444
 20
23.9016673067
 30
0.0
 10
-3.8308327193
 20
23.901670745
 30
0.0
 10
-3.8306228363
 20
23.9018840226
 30
0.0
 11
-4.1019220988
 21
23.9018840226
 31
0.0
 11
-4.1010562723
 21
23.9016552184
 31
0.0
 11
-4.0989175283
 21
23.9014283546
 31
0.0
 11
-4.0955307626
 21
23.901205965
 31
0.0
 11
-4.0909236219
 21
23.9009905227
 31
0.0
 11
-4.0782495006
 21
23.9005883653
 31
0.0
 11
-4.0613651764
 21
23.9002364582
 31
0.0
 11
-4.0409098873
 21
23.8999478441
 31
0.0
 11
-4.0176454184
 21
23.8997336478
 31
0.0
 11
-3.9662723376
 21
23.8995572797
 31
0.0
 11
-3.9148994044
 21
23.8997336642
 31
0.0
 11
-3.8916351821
 21
23.8999478674
 31
0.0
 11
-3.8711809142
 21
23.9002364928
 31
0.0
 11
-3.8542967292
 21
23.9005884107
 31
0.0
 11
-3.8416215677
 21
23.9009905596
 31
0.0
 11
-3.8370147317
 21
23.901205989
 31
0.0
 11
-3.8336291484
 21
23.9014283662
 31
0.0
 11
-3.8314908767
 21
23.9016552219
 31
0.0
 11
-3.8306228363
 21
23.9018840226
 31
0.0
  0
SPLINE
  5
75D
100
AcDbEntity
  8
ASSI
100
AcDbSpline
 62
253
  6
CONTINUOUS
 70
0
 71
3
 72
9
 73
5
 74
3
 42
0.0000001
 43
0.0000001
 44
0.0000000001
 12
-0.0000006052
 22
-0.0433040268
 32
0.0
 13
0.0013082134
 23
-0.0432842617
 33
0.0
 40
0.0
 40
0.0
 40
0.0
 40
0.0
 40
0.2986883658
 40
1.0
 40
1.0
 40
1.0
 40
1.0
 10
10.5859750215
 20
23.8443375673
 30
0.0
 10
10.5859749612
 20
23.8400260976
 30
0.0
 10
10.5860182947
 20
23.8255919006
 30
0.0
 10
10.5861055763
 20
23.8111548825
 30
0.0
 10
10.5864113981
 20
23.8010362971
 30
0.0
 11
10.5859750215
 21
23.8443375673
 31
0.0
 11
10.5860047684
 21
23.8314031925
 31
0.0
 11
10.5864113981
 21
23.8010362971
 31
0.0
  0
SPLINE
  5
75E
100
AcDbEntity
  8
ASSI
100
AcDbSpline
 62
253
  6
CONTINUOUS
 70
0
 71
3
 72
14
 73
10
 74
8
 42
0.0000001
 43
0.0000001
 44
0.0000000001
 12
-0.0353853193
 22
-0.0353457146
 32
0.0
 13
-0.000000024
 23
-0.0500144015
 33
0.0
 40
0.0
 40
0.0
 40
0.0
 40
0.0
 40
0.022388784
 40
0.0813300812
 40
0.1747552681
 40
0.2991848748
 40
0.449951357
 40
0.6213969483
 40
1.0
 40
1.0
 40
1.0
 40
1.0
 10
10.5868325431
 20
24.286863004
 30
0.0
 10
10.586568465
 20
24.2865992215
 30
0.0
 10
10.5868043235
 20
24.285024554
 30
0.0
 10
10.5863527733
 20
24.2823118131
 30
0.0
 10
10.5863839743
 20
24.2775939008
 30
0.0
 10
10.5861921021
 20
24.2714930278
 30
0.0
 10
10.5861148161
 20
24.2640320177
 30
0.0
 10
10.5859995564
 20
24.2523553395
 30
0.0
 10
10.5859750245
 20
24.2431824876
 30
0.0
 10
10.5859750215
 20
24.2368706193
 30
0.0
 11
10.5868325431
 21
24.286863004
 31
0.0
 11
10.5866645219
 21
24.28575592
 31
0.0
 11
10.5865033614
 21
24.2828124149
 31
0.0
 11
10.5863551091
 21
24.2781421626
 31
0.0
 11
10.58622536
 21
24.271920243
 31
0.0
 11
10.5861189991
 21
24.2643804978
 31
0.0
 11
10.586040032
 21
24.2558061127
 31
0.0
 11
10.5859750215
 21
24.2368706193
 31
0.0
  0
SPLINE
  5
75F
100
AcDbEntity
  8
ASSI
100
AcDbSpline
 62
253
  6
CONTINUOUS
 70
0
 71
3
 72
14
 73
10
 74
8
 42
0.0000001
 43
0.0000001
 44
0.0000000001
 12
-0.0000000171
 22
-0.0500143994
 32
0.0
 13
0.0353376598
 23
-0.0353933602
 33
0.0
 40
0.0
 40
0.0
 40
0.0
 40
0.0
 40
0.378475055
 40
0.5499133298
 40
0.7006960665
 40
0.8251542211
 40
0.918615699
 40
0.9775928883
 40
1.0
 40
1.0
 40
1.0
 40
1.0
 10
10.5859750215
 20
-24.2368706193
 30
0.0
 10
10.5859750193
 20
-24.2431803535
 30
0.0
 10
10.5859995531
 20
-24.2523509378
 30
0.0
 10
10.5861147326
 20
-24.2640256567
 30
0.0
 10
10.5861920462
 20
-24.2714872352
 30
0.0
 10
10.5863837686
 20
-24.277589611
 30
0.0
 10
10.5863528653
 20
-24.2823088606
 30
0.0
 10
10.5868039651
 20
-24.285023706
 30
0.0
 10
10.5865686048
 20
-24.2865986497
 30
0.0
 10
10.5868325431
 20
-24.2868630041
 30
0.0
 11
10.5859750215
 21
-24.2368706193
 31
0.0
 11
10.5860399866
 21
-24.2557997104
 31
0.0
 11
10.5861189221
 21
-24.2643737294
 31
0.0
 11
10.5862252578
 21
-24.2719142877
 31
0.0
 11
10.5863549923
 21
-24.2781376354
 31
0.0
 11
10.5865032504
 21
-24.2828097034
 31
0.0
 11
10.5866644481
 21
-24.2857550042
 31
0.0
 11
10.5868325431
 21
-24.2868630041
 31
0.0
  0
SPLINE
  5
760
100
AcDbEntity
  8
ASSI
100
AcDbSpline
 62
253
  6
CONTINUOUS
 70
0
 71
3
 72
9
 73
5
 74
3
 42
0.0000001
 43
0.0000001
 44
0.0000000001
 12
-0.0013110427
 22
-0.0432843983
 32
0.0
 13
-0.0000001007
 23
-0.0433042489
 33
0.0
 40
0.0
 40
0.0
 40
0.0
 40
0.0
 40
0.1834520378
 40
1.0
 40
1.0
 40
1.0
 40
1.0
 10
10.5864113981
 20
-23.8010362971
 30
0.0
 10
10.586331227
 20
-23.8036831675
 30
0.0
 10
10.5860359079
 20
-23.8181153116
 30
0.0
 10
10.5859750489
 20
-23.8325509019
 30
0.0
 10
10.5859750215
 20
-23.8443375673
 30
0.0
 11
10.5864113981
 21
-23.8010362971
 31
0.0
 11
10.5862307638
 21
-23.8089784959
 31
0.0
 11
10.5859750215
 21
-23.8443375673
 31
0.0
  0
SPLINE
  5
761
100
AcDbEntity
  8
ASSI
100
AcDbSpline
 62
253
  6
CONTINUOUS
 70
0
 71
3
 72
18
 73
14
 74
12
 42
0.0000001
 43
0.0000001
 44
0.0000000001
 12
0.0000036815
 22
0.2550569528
 32
0.0
 13
-0.2342196184
 23
0.1009713796
 33
0.0
 40
0.0
 40
0.0
 40
0.0
 40
0.0
 40
0.1911716522
 40
0.3764502338
 40
0.547627144
 40
0.6983289438
 40
0.8229109167
 40
0.873961139
 40
0.9168035
 40
0.9509691969
 40
0.9762370924
 40
0.9925006056
 40
1.0
 40
1.0
 40
1.0
 40
1.0
 10
8.2533648835
 20
-8.8475716954
 30
0.0
 10
8.2533651181
 20
-8.8313184757
 30
0.0
 10
8.253237864
 20
-8.7993128551
 30
0.0
 10
8.2526846132
 20
-8.7527572073
 30
0.0
 10
8.2517814904
 20
-8.7096470331
 30
0.0
 10
8.2505747443
 20
-8.6717105201
 30
0.0
 10
8.2492978298
 20
-8.6439869618
 30
0.0
 10
8.248102667
 20
-8.6254607455
 30
0.0
 10
8.2472335006
 20
-8.614584774
 30
0.0
 10
8.2463185609
 20
-8.6059969025
 30
0.0
 10
8.2454390058
 20
-8.5994762882
 30
0.0
 10
8.2445097601
 20
-8.5956811414
 30
0.0
 10
8.2438379331
 20
-8.5934189404
 30
0.0
 10
8.2432524313
 20
-8.5931665323
 30
0.0
 11
8.2533648835
 21
-8.8475716954
 31
0.0
 11
8.2531706102
 21
-8.7988124234
 31
0.0
 11
8.2525961658
 21
-8.7515593245
 31
0.0
 11
8.2516610822
 21
-8.7079094781
 31
0.0
 11
8.2504043199
 21
-8.6694924874
 31
0.0
 11
8.2488724628
 21
-8.637753935
 31
0.0
 11
8.2480212167
 21
-8.6247610763
 31
0.0
 11
8.2471231619
 21
-8.6138708001
 31
0.0
 11
8.2461864525
 21
-8.6052070924
 31
0.0
 11
8.2452216511
 21
-8.5988349662
 31
0.0
 11
8.2442399225
 21
-8.59480469
 31
0.0
 11
8.2432524313
 21
-8.5931665323
 31
0.0
  0
SPLINE
  5
762
100
AcDbEntity
  8
ASSI
100
AcDbSpline
 62
253
  6
CONTINUOUS
 70
0
 71
3
 72
18
 73
14
 74
12
 42
0.0000001
 43
0.0000001
 44
0.0000000001
 12
-0.2611026094
 22
-0.0001132409
 32
0.0
 13
-0.1911724849
 23
0.1778416894
 33
0.0
 40
0.0
 40
0.0
 40
0.0
 40
0.0
 40
0.190178683
 40
0.375270537
 40
0.5467992496
 40
0.6981441117
 40
0.8234208475
 40
0.8747680931
 40
0.9178346191
 40
0.9521170115
 40
0.9773550611
 40
0.9933580951
 40
1.0
 40
1.0
 40
1.0
 40
1.0
 10
9.0038395759
 20
-8.0969780115
 30
0.0
 10
8.9872875257
 20
-8.0969851902
 30
0.0
 10
8.9546260603
 20
-8.096946005
 30
0.0
 10
8.9070363989
 20
-8.0967363658
 30
0.0
 10
8.8628266737
 20
-8.0963814494
 30
0.0
 10
8.8238271627
 20
-8.095896024
 30
0.0
 10
8.7952820011
 20
-8.095386541
 30
0.0
 10
8.7761754953
 20
-8.0948921547
 30
0.0
 10
8.7649623246
 20
-8.0945601859
 30
0.0
 10
8.7560884438
 20
-8.0941314848
 30
0.0
 10
8.7494134516
 20
-8.0939078126
 30
0.0
 10
8.7454719986
 20
-8.0932822621
 30
0.0
 10
8.7432682335
 20
-8.093314872
 30
0.0
 10
8.7428449837
 20
-8.0929211361
 30
0.0
 11
9.0038395759
 21
-8.0969780115
 31
0.0
 11
8.9541834564
 21
-8.0969185867
 31
0.0
 11
8.9058559761
 21
-8.0967008754
 31
0.0
 11
8.861070894
 21
-8.0963323115
 31
0.0
 11
8.8215575592
 21
-8.0958288473
 31
0.0
 11
8.7888533325
 21
-8.0952097685
 31
0.0
 11
8.7754508824
 21
-8.0948643297
 31
0.0
 11
8.7642120294
 21
-8.0944991753
 31
0.0
 11
8.7552689378
 21
-8.0941177256
 31
0.0
 11
8.7486909635
 21
-8.0937244308
 31
0.0
 11
8.7445317608
 21
-8.0933239984
 31
0.0
 11
8.7428449837
 21
-8.0929211361
 31
0.0
  0
SPLINE
  5
763
100
AcDbEntity
  8
ASSI
100
AcDbSpline
 62
253
  6
CONTINUOUS
 70
0
 71
3
 72
18
 73
14
 74
12
 42
0.0000001
 43
0.0000001
 44
0.0000000001
 12
-0.2611510566
 22
0.0001331053
 32
0.0
 13
-0.1764314592
 23
-0.1925404691
 33
0.0
 40
0.0
 40
0.0
 40
0.0
 40
0.0
 40
0.1901454146
 40
0.3752074132
 40
0.5467116436
 40
0.6980389126
 40
0.8233066622
 40
0.8746534052
 40
0.917722747
 40
0.9520122941
 40
0.9772638451
 40
0.9932922244
 40
1.0
 40
1.0
 40
1.0
 40
1.0
 10
9.0034072412
 20
9.4972485819
 30
0.0
 10
8.9868550159
 20
9.4972570184
 30
0.0
 10
8.95419296
 20
9.4972110739
 30
0.0
 10
8.9066022678
 20
9.4969652744
 30
0.0
 10
8.8623909808
 20
9.4965488323
 30
0.0
 10
8.8233900881
 20
9.4959800237
 30
0.0
 10
8.7948427996
 20
9.495381089
 30
0.0
 10
8.7757369151
 20
9.4948033856
 30
0.0
 10
8.764520002
 20
9.4944092186
 30
0.0
 10
8.755652979
 20
9.4939190905
 30
0.0
 10
8.7489580269
 20
9.4936265946
 30
0.0
 10
8.7450474614
 20
9.4929487676
 30
0.0
 10
8.7427989122
 20
9.4929207796
 30
0.0
 10
8.7424044246
 20
9.4924902735
 30
0.0
 11
9.0034072412
 21
9.4972485819
 31
0.0
 11
8.9537506077
 21
9.4971789275
 31
0.0
 11
8.9054221393
 21
9.4969236076
 31
0.0
 11
8.8606357086
 21
9.4964913391
 31
0.0
 11
8.8211208393
 21
9.4959008319
 31
0.0
 11
8.7884150895
 21
9.4951747062
 31
0.0
 11
8.7750119543
 21
9.4947695318
 31
0.0
 11
8.7637725065
 21
9.4943412295
 31
0.0
 11
8.7548289383
 21
9.4938938114
 31
0.0
 11
8.7482506236
 21
9.4934324977
 31
0.0
 11
8.7440912298
 21
9.492962811
 31
0.0
 11
8.7424044246
 21
9.4924902735
 31
0.0
  0
SPLINE
  5
764
100
AcDbEntity
  8
ASSI
100
AcDbSpline
 62
253
  6
CONTINUOUS
 70
0
 71
3
 72
18
 73
14
 74
12
 42
0.0000001
 43
0.0000001
 44
0.0000000001
 12
0.0000321102
 22
-0.2557488065
 32
0.0
 13
-0.2348514052
 23
-0.1012534965
 33
0.0
 40
0.0
 40
0.0
 40
0.0
 40
0.0
 40
0.1910300382
 40
0.3762521335
 40
0.5474325022
 40
0.69817488
 40
0.8228131357
 40
0.8738916867
 40
0.9167596144
 40
0.9509461595
 40
0.9762290848
 40
0.992500796
 40
1.0
 40
1.0
 40
1.0
 40
1.0
 10
8.2528964614
 20
10.2478058721
 30
0.0
 10
8.2528985061
 20
10.2315206374
 30
0.0
 10
8.2527742766
 20
10.1994450737
 30
0.0
 10
8.2522242655
 20
10.1527796797
 30
0.0
 10
8.2513228808
 20
10.1095535396
 30
0.0
 10
8.250116477
 20
10.0715054571
 30
0.0
 10
8.248838827
 20
10.043695875
 30
0.0
 10
8.2476423868
 20
10.025109896
 30
0.0
 10
8.2467721628
 20
10.0141978648
 30
0.0
 10
8.2458557558
 20
10.005581494
 30
0.0
 10
8.2449752005
 20
9.9990388277
 30
0.0
 10
8.2440438644
 20
9.9952319511
 30
0.0
 10
8.2433718362
 20
9.9929617231
 30
0.0
 10
8.24278477
 20
9.9927086162
 30
0.0
 11
8.2528964614
 21
10.2478058721
 31
0.0
 11
8.2527069363
 21
10.1989505351
 31
0.0
 11
8.2521357815
 21
10.1515836483
 31
0.0
 11
8.251202433
 21
10.1078144233
 31
0.0
 11
8.2499459368
 21
10.0692827212
 31
0.0
 11
8.2484130309
 21
10.0374435155
 31
0.0
 11
8.247560843
 21
10.0244080629
 31
0.0
 11
8.246661613
 21
10.0134815816
 31
0.0
 11
8.2457235327
 21
10.0047888838
 31
0.0
 11
8.2447572178
 21
9.9983954183
 31
0.0
 11
8.2437738897
 21
9.9943517932
 31
0.0
 11
8.24278477
 21
9.9927086162
 31
0.0
  0
SPLINE
  5
765
100
AcDbEntity
  8
ASSI
100
AcDbSpline
 62
7
  6
CONTINUOUS
 70
0
 71
3
 72
11
 73
7
 74
5
 42
0.0000001
 43
0.0000001
 44
0.0000000001
 12
-0.0001401366
 22
0.4734412042
 32
0.0
 13
0.473432267
 23
0.0029123882
 33
0.0
 40
0.0
 40
0.0
 40
0.0
 40
0.0
 40
0.2501423754
 40
0.5001103315
 40
0.750011089
 40
1.0
 40
1.0
 40
1.0
 40
1.0
 10
-7.3705143312
 20
-16.9034181896
 30
0.0
 10
-7.3705260159
 20
-16.8639422871
 30
0.0
 10
-7.3553092165
 20
-16.7841966744
 30
0.0
 10
-7.2896581628
 20
-16.6822912719
 30
0.0
 10
-7.1902802334
 20
-16.6126511216
 30
0.0
 10
-7.1105913243
 20
-16.5957998882
 30
0.0
 10
-7.0711403853
 20
-16.5955571999
 30
0.0
 11
-7.3705143312
 21
-16.9034181896
 31
0.0
 11
-7.3481590333
 21
-16.7871195921
 31
0.0
 11
-7.284027793
 21
-16.6876572622
 31
0.0
 11
-7.1869333514
 21
-16.6200502266
 31
0.0
 11
-7.0711403853
 21
-16.5955571999
 31
0.0
  0
SPLINE
  5
766
100
AcDbEntity
  8
ASSI
100
AcDbSpline
 62
7
  6
CONTINUOUS
 70
0
 71
3
 72
11
 73
7
 74
5
 42
0.0000001
 43
0.0000001
 44
0.0000000001
 12
0.471717689
 22
0.0027611676
 32
0.0
 13
-0.0001396646
 23
-0.4717257494
 33
0.0
 40
0.0
 40
0.0
 40
0.0
 40
0.0
 40
0.2499357051
 40
0.4999075685
 40
0.7499347444
 40
1.0
 40
1.0
 40
1.0
 40
1.0
 10
-6.7287578995
 20
-16.5935020372
 30
0.0
 10
-6.6894582017
 20
-16.5932719991
 30
0.0
 10
-6.6098345382
 20
-16.6090318751
 30
0.0
 10
-6.5100910913
 20
-16.6775581135
 30
0.0
 10
-6.4443096505
 20
-16.7789711742
 30
0.0
 10
-6.429194355
 20
-16.858446656
 30
0.0
 10
-6.4292059967
 20
-16.8977673961
 30
0.0
 11
-6.7287578995
 21
-16.5935020372
 31
0.0
 11
-6.6131234573
 21
-16.6165096062
 31
0.0
 11
-6.515759905
 21
-16.683030531
 31
0.0
 11
-6.4514977322
 21
-16.7819305923
 31
0.0
 11
-6.4292059967
 21
-16.8977673961
 31
0.0
  0
SPLINE
  5
767
100
AcDbEntity
  8
ASSI
100
AcDbSpline
 62
253
  6
CONTINUOUS
 70
0
 71
3
 72
9
 73
5
 74
3
 42
0.0000001
 43
0.0000001
 44
0.0000000001
 12
-0.0013086734
 22
0.0432844709
 32
0.0
 13
0.0000000098
 23
0.0433042498
 33
0.0
 40
0.0
 40
0.0
 40
0.0
 40
0.0
 40
0.1834826385
 40
1.0
 40
1.0
 40
1.0
 40
1.0
 10
-7.2135886019
 20
23.8010362971
 30
0.0
 10
-7.2136686415
 20
23.8036836134
 30
0.0
 10
-7.2139645803
 20
23.8181157403
 30
0.0
 10
-7.2140249812
 20
23.8325513434
 30
0.0
 10
-7.2140249785
 20
23.8443375673
 30
0.0
 11
-7.2135886019
 21
23.8010362971
 31
0.0
 11
-7.2137693112
 21
23.8089798199
 31
0.0
 11
-7.2140249785
 21
23.8443375673
 31
0.0
  0
SPLINE
  5
768
100
AcDbEntity
  8
ASSI
100
AcDbSpline
 62
253
  6
CONTINUOUS
 70
0
 71
3
 72
14
 73
10
 74
8
 42
0.0000001
 43
0.0000001
 44
0.0000000001
 12
-0.0000000046
 22
0.0500143989
 32
0.0
 13
0.0353848582
 23
0.0353461725
 33
0.0
 40
0.0
 40
0.0
 40
0.0
 40
0.0
 40
0.3784712957
 40
0.5499085429
 40
0.7006913968
 40
0.8251504238
 40
0.9186144833
 40
0.9775916224
 40
1.0
 40
1.0
 40
1.0
 40
1.0
 10
-7.2140249785
 20
24.2368706193
 30
0.0
 10
-7.2140249791
 20
24.2431802907
 30
0.0
 10
-7.2140004569
 20
24.2523508047
 30
0.0
 10
-7.2138852549
 20
24.2640254226
 30
0.0
 10
-7.2138080004
 20
24.2714870555
 30
0.0
 10
-7.2136161171
 20
24.2775893359
 30
0.0
 10
-7.2136474123
 20
24.2823090193
 30
0.0
 10
-7.2131955831
 20
24.2850232209
 30
0.0
 10
-7.2134317627
 20
24.2865989873
 30
0.0
 10
-7.2131674569
 20
24.286863004
 30
0.0
 11
-7.2140249785
 21
24.2368706193
 31
0.0
 11
-7.2139600141
 21
24.2557995222
 31
0.0
 11
-7.21388108
 21
24.2643734897
 31
0.0
 11
-7.2137747459
 21
24.2719140538
 31
0.0
 11
-7.213645012
 21
24.2781374452
 31
0.0
 11
-7.2134967534
 21
24.2828096422
 31
0.0
 11
-7.2133355534
 21
24.2857549403
 31
0.0
 11
-7.2131674569
 21
24.286863004
 31
0.0
  0
SPLINE
  5
769
100
AcDbEntity
  8
ASSI
100
AcDbSpline
 62
253
  6
CONTINUOUS
 70
0
 71
3
 72
14
 73
10
 74
8
 42
0.0000001
 43
0.0000001
 44
0.0000000001
 12
-0.0353708222
 22
0.0353602216
 32
0.0
 13
0.0000000167
 23
0.0500144012
 33
0.0
 40
0.0
 40
0.0
 40
0.0
 40
0.0
 40
0.0223888869
 40
0.0813291951
 40
0.1747527612
 40
0.2991805194
 40
0.4499463624
 40
0.6213925343
 40
1.0
 40
1.0
 40
1.0
 40
1.0
 10
-7.2131674569
 20
-24.2868630041
 30
0.0
 10
-7.213431428
 20
-24.2865991121
 30
0.0
 10
-7.2131958087
 20
-24.2850247041
 30
0.0
 10
-7.2136471426
 20
-24.2823117859
 30
0.0
 10
-7.2136160562
 20
-24.2775940649
 30
0.0
 10
-7.2138078821
 20
-24.2714932124
 30
0.0
 10
-7.2138851848
 20
-24.2640322511
 30
0.0
 10
-7.2140004409
 20
-24.2523554934
 30
0.0
 10
-7.2140249806
 20
-24.2431825612
 30
0.0
 10
-7.2140249785
 20
-24.2368706193
 30
0.0
 11
-7.2131674569
 21
-24.2868630041
 31
0.0
 11
-7.2133354762
 21
-24.2857559146
 31
0.0
 11
-7.2134966354
 21
-24.2828124589
 31
0.0
 11
-7.2136448868
 21
-24.2781422877
 31
0.0
 11
-7.213774636
 21
-24.2719204606
 31
0.0
 11
-7.2138809976
 21
-24.2643807474
 31
0.0
 11
-7.213959967
 21
-24.2558063334
 31
0.0
 11
-7.2140249785
 21
-24.2368706193
 31
0.0
  0
SPLINE
  5
76A
100
AcDbEntity
  8
ASSI
100
AcDbSpline
 62
253
  6
CONTINUOUS
 70
0
 71
3
 72
9
 73
5
 74
3
 42
0.0000001
 43
0.0000001
 44
0.0000000001
 12
-0.0000000129
 22
0.0433040273
 32
0.0
 13
0.0013086546
 23
0.043284249
 33
0.0
 40
0.0
 40
0.0
 40
0.0
 40
0.0
 40
0.2987892399
 40
1.0
 40
1.0
 40
1.0
 40
1.0
 10
-7.2140249785
 20
-23.8443375673
 30
0.0
 10
-7.2140249798
 20
-23.8400246415
 30
0.0
 10
-7.2139818312
 20
-23.8255904447
 30
0.0
 10
-7.2138944828
 20
-23.8111534241
 30
0.0
 10
-7.2135886019
 20
-23.8010362971
 30
0.0
 11
-7.2140249785
 21
-23.8443375673
 31
0.0
 11
-7.2139952492
 21
-23.831398824
 31
0.0
 11
-7.2135886019
 21
-23.8010362971
 31
0.0
  0
SPLINE
  5
76B
100
AcDbEntity
  8
ASSI
100
AcDbSpline
 62
7
  6
CONTINUOUS
 70
0
 71
3
 72
11
 73
7
 74
5
 42
0.0000001
 43
0.0000001
 44
0.0000000001
 12
-0.0001396646
 22
0.47172573
 32
0.0
 13
0.4717176696
 23
-0.0027611674
 33
0.0
 40
0.0
 40
0.0
 40
0.0
 40
0.0
 40
0.2500624752
 40
0.5000853968
 40
0.7500618389
 40
1.0
 40
1.0
 40
1.0
 40
1.0
 10
6.4292059967
 20
-16.8977673961
 30
0.0
 10
6.4291943551
 20
-16.8584470949
 30
0.0
 10
6.4443091138
 20
-16.7789727103
 30
0.0
 10
6.5100896588
 20
-16.677559655
 30
0.0
 10
6.6098330455
 20
-16.6090323922
 30
0.0
 10
6.6894578172
 20
-16.5932719968
 30
0.0
 10
6.7287578995
 20
-16.5935020372
 30
0.0
 11
6.4292059967
 21
-16.8977673961
 31
0.0
 11
6.451497149
 21
-16.7819318206
 31
0.0
 11
6.5157575431
 21
-16.6830330028
 31
0.0
 11
6.6131223896
 21
-16.6165101521
 31
0.0
 11
6.7287578995
 21
-16.5935020372
 31
0.0
  0
SPLINE
  5
76C
100
AcDbEntity
  8
ASSI
100
AcDbSpline
 62
7
  6
CONTINUOUS
 70
0
 71
3
 72
11
 73
7
 74
5
 42
0.0000001
 43
0.0000001
 44
0.0000000001
 12
0.473432267
 22
-0.0029123882
 32
0.0
 13
-0.0001401366
 23
-0.4734412042
 33
0.0
 40
0.0
 40
0.0
 40
0.0
 40
0.0
 40
0.249988911
 40
0.4998896685
 40
0.7498576246
 40
1.0
 40
1.0
 40
1.0
 40
1.0
 10
7.0711403853
 20
-16.5955571999
 30
0.0
 10
7.1105913243
 20
-16.5957998882
 30
0.0
 10
7.1902802334
 20
-16.6126511216
 30
0.0
 10
7.2896581628
 20
-16.6822912719
 30
0.0
 10
7.3553092165
 20
-16.7841966744
 30
0.0
 10
7.3705260159
 20
-16.8639422871
 30
0.0
 10
7.3705143312
 20
-16.9034181896
 30
0.0
 11
7.0711403853
 21
-16.5955571999
 31
0.0
 11
7.1869333514
 21
-16.6200502266
 31
0.0
 11
7.284027793
 21
-16.6876572622
 31
0.0
 11
7.3481590333
 21
-16.7871195921
 31
0.0
 11
7.3705143312
 21
-16.9034181896
 31
0.0
  0
LINE
  5
76D
100
AcDbEntity
  8
ASSI
100
AcDbLine
 62
253
  6
CONTINUOUS
 10
6.4345981693
 20
-20.769186376
 11
5.4313247554
 21
-20.7686752446
  0
SPLINE
  5
76E
100
AcDbEntity
  8
ASSI
100
AcDbSpline
 62
7
  6
CONTINUOUS
 70
0
 71
3
 72
19
 73
15
 74
13
 42
0.0000001
 43
0.0000001
 44
0.0000000001
 12
0.3392929911
 22
0.3392929905
 32
0.0
 13
0.0003410099
 23
0.479832628
 33
0.0
 40
0.0
 40
0.0
 40
0.0
 40
0.0
 40
0.0066067761
 40
0.0223179389
 40
0.0470820306
 40
0.0807458305
 40
0.1229855379
 40
0.1734059171
 40
0.2316019994
 40
0.2970459454
 40
0.4471784414
 40
0.618539141
 40
0.8052157863
 40
1.0
 40
1.0
 40
1.0
 40
1.0
 10
5.4313247554
 20
-20.7686752446
 30
0.0
 10
5.4320719663
 20
-20.7679280337
 30
0.0
 10
5.4321220213
 20
-20.7639238224
 30
0.0
 10
5.4332970636
 20
-20.7568251847
 30
0.0
 10
5.4338042126
 20
-20.7447794389
 30
0.0
 10
5.4346525884
 20
-20.7287842045
 30
0.0
 10
5.4353396006
 20
-20.7085586627
 30
0.0
 10
5.4360481054
 20
-20.6844516861
 30
0.0
 10
5.436698509
 20
-20.656615453
 30
0.0
 10
5.4375506601
 20
-20.6128368559
 30
0.0
 10
5.4384365709
 20
-20.5509535503
 30
0.0
 10
5.4392192198
 20
-20.4696786056
 30
0.0
 10
5.439726657
 20
-20.3812591323
 30
0.0
 10
5.4398697193
 20
-20.320246725
 30
0.0
 10
5.4398918604
 20
-20.289092118
 30
0.0
 11
5.4313247554
 21
-20.7686752446
 31
0.0
 11
5.432146027
 21
-20.7656133255
 31
0.0
 11
5.43296064
 21
-20.7581187367
 31
0.0
 11
5.4337599911
 21
-20.7462630313
 31
0.0
 11
5.4345356887
 21
-20.7301286737
 31
0.0
 11
5.4352808238
 21
-20.7098743805
 31
0.0
 11
5.4359891194
 21
-20.6856914018
 31
0.0
 11
5.4366543326
 21
-20.6577749401
 31
0.0
 11
5.4372707042
 21
-20.6263788413
 31
0.0
 11
5.4383354268
 21
-20.5543482217
 31
0.0
 11
5.4391445991
 21
-20.4721277277
 31
0.0
 11
5.4396696217
 21
-20.3825556985
 31
0.0
 11
5.4398918604
 21
-20.289092118
 31
0.0
  0
SPLINE
  5
76F
100
AcDbEntity
  8
ASSI
100
AcDbSpline
 62
7
  6
CONTINUOUS
 70
0
 71
3
 72
19
 73
15
 74
13
 42
0.0000001
 43
0.0000001
 44
0.0000000001
 12
0.0003410099
 22
-0.479832628
 32
0.0
 13
0.3392929912
 23
-0.3392929904
 33
0.0
 40
0.0
 40
0.0
 40
0.0
 40
0.0
 40
0.1947842137
 40
0.381460859
 40
0.5528215586
 40
0.7029540546
 40
0.7683980006
 40
0.8265940829
 40
0.8770144621
 40
0.9192541695
 40
0.9529179694
 40
0.9776820611
 40
0.9933932239
 40
1.0
 40
1.0
 40
1.0
 40
1.0
 10
-5.4398918604
 20
-20.289092118
 30
0.0
 10
-5.4398697193
 20
-20.320246725
 30
0.0
 10
-5.439726657
 20
-20.3812591323
 30
0.0
 10
-5.4392192198
 20
-20.4696786056
 30
0.0
 10
-5.4384365709
 20
-20.5509535503
 30
0.0
 10
-5.4375506601
 20
-20.6128368559
 30
0.0
 10
-5.436698509
 20
-20.656615453
 30
0.0
 10
-5.4360481054
 20
-20.6844516861
 30
0.0
 10
-5.4353396006
 20
-20.7085586627
 30
0.0
 10
-5.4346525884
 20
-20.7287842045
 30
0.0
 10
-5.4338042126
 20
-20.7447794389
 30
0.0
 10
-5.4332970636
 20
-20.7568251847
 30
0.0
 10
-5.4321220213
 20
-20.7639238224
 30
0.0
 10
-5.4320719663
 20
-20.7679280337
 30
0.0
 10
-5.4313247554
 20
-20.7686752446
 30
0.0
 11
-5.4398918604
 21
-20.289092118
 31
0.0
 11
-5.4396696217
 21
-20.3825556985
 31
0.0
 11
-5.4391445991
 21
-20.4721277277
 31
0.0
 11
-5.4383354268
 21
-20.5543482217
 31
0.0
 11
-5.4372707042
 21
-20.6263788413
 31
0.0
 11
-5.4366543326
 21
-20.6577749401
 31
0.0
 11
-5.4359891194
 21
-20.6856914018
 31
0.0
 11
-5.4352808238
 21
-20.7098743805
 31
0.0
 11
-5.4345356887
 21
-20.7301286737
 31
0.0
 11
-5.4337599911
 21
-20.7462630314
 31
0.0
 11
-5.43296064
 21
-20.7581187367
 31
0.0
 11
-5.432146027
 21
-20.7656133255
 31
0.0
 11
-5.4313247554
 21
-20.7686752446
 31
0.0
  0
LINE
  5
770
100
AcDbEntity
  8
ASSI
100
AcDbLine
 62
253
  6
CONTINUOUS
 10
-5.4313247554
 20
-20.7686752446
 11
-6.4345981693
 21
-20.769186376
  0
SPLINE
  5
771
100
AcDbEntity
  8
ASSI
100
AcDbSpline
 62
7
  6
CONTINUOUS
 70
0
 71
3
 72
20
 73
16
 74
14
 42
0.0000001
 43
0.0000001
 44
0.0000000001
 12
0.0005145791
 22
-0.480248412
 32
0.0
 13
0.4556132136
 23
-0.1518400525
 33
0.0
 40
0.0
 40
0.0
 40
0.0
 40
0.0
 40
0.1959524359
 40
0.3836034675
 40
0.5555984446
 40
0.7059378953
 40
0.771314139
 40
0.829327063
 40
0.8794532491
 40
0.9212955887
 40
0.9544686935
 40
0.9786661278
 40
0.9937722397
 40
0.997935062
 40
1.0
 40
1.0
 40
1.0
 40
1.0
 10
9.4440348677
 20
-20.3560904491
 30
0.0
 10
9.4440684787
 20
-20.3874590645
 30
0.0
 10
9.4442861725
 20
-20.448867343
 30
0.0
 10
9.4450589419
 20
-20.5378061915
 30
0.0
 10
9.4462491721
 20
-20.6194381065
 30
0.0
 10
9.4475980967
 20
-20.68148976
 30
0.0
 10
9.4488906653
 20
-20.7252908904
 30
0.0
 10
9.4498849168
 20
-20.7530484262
 30
0.0
 10
9.4509378853
 20
-20.7770403626
 30
0.0
 10
9.4520398874
 20
-20.7970287702
 30
0.0
 10
9.4531609519
 20
-20.8129114915
 30
0.0
 10
9.4543090287
 20
-20.8243684788
 30
0.0
 10
9.4553079269
 20
-20.8314200424
 30
0.0
 10
9.4562162385
 20
-20.8345593097
 30
0.0
 10
9.456718985
 20
-20.8355860798
 30
0.0
 10
9.4570325893
 20
-20.8356905933
 30
0.0
 11
9.4440348677
 21
-20.3560904491
 31
0.0
 11
9.444373301
 21
-20.4501957407
 31
0.0
 11
9.445173044
 21
-20.5403113538
 31
0.0
 11
9.4464048277
 21
-20.6229025307
 31
0.0
 11
9.4480239254
 21
-20.6950846982
 31
0.0
 11
9.4489603503
 21
-20.7264675857
 31
0.0
 11
9.4499702745
 21
-20.7543099058
 31
0.0
 11
9.451044821
 21
-20.7783589467
 31
0.0
 11
9.4521744258
 21
-20.7984219005
 31
0.0
 11
9.4533494777
 21
-20.8143098471
 31
0.0
 11
9.4545594121
 21
-20.8258674735
 31
0.0
 11
9.4557914711
 21
-20.8330167786
 31
0.0
 11
9.4564117144
 21
-20.8349173203
 31
0.0
 11
9.4570325893
 21
-20.8356905933
 31
0.0
  0
SPLINE
  5
772
100
AcDbEntity
  8
ASSI
100
AcDbSpline
 62
7
  6
CONTINUOUS
 70
0
 71
3
 72
20
 73
16
 74
14
 42
0.0000001
 43
0.0000001
 44
0.0000000001
 12
0.45561327
 22
0.1518398838
 32
0.0
 13
0.0005145791
 23
0.4802484121
 33
0.0
 40
0.0
 40
0.0
 40
0.0
 40
0.0
 40
0.0020649376
 40
0.0062277595
 40
0.0213338705
 40
0.0455313042
 40
0.0787044084
 40
0.1205467476
 40
0.1706729335
 40
0.2286858573
 40
0.2940621011
 40
0.444401552
 40
0.6163965294
 40
0.8040475625
 40
1.0
 40
1.0
 40
1.0
 40
1.0
 10
-9.4570325893
 20
-20.8356905933
 30
0.0
 10
-9.456718985
 20
-20.83558608
 30
0.0
 10
-9.4562162384
 20
-20.8345593099
 30
0.0
 10
-9.4553079269
 20
-20.831420043
 30
0.0
 10
-9.4543090286
 20
-20.8243684796
 30
0.0
 10
-9.4531609518
 20
-20.8129114927
 30
0.0
 10
-9.4520398874
 20
-20.7970287717
 30
0.0
 10
-9.4509378853
 20
-20.7770403642
 30
0.0
 10
-9.4498849168
 20
-20.7530484279
 30
0.0
 10
-9.4488906652
 20
-20.7252908922
 30
0.0
 10
-9.4475980966
 20
-20.6814897617
 30
0.0
 10
-9.446249172
 20
-20.6194381081
 30
0.0
 10
-9.4450589418
 20
-20.5378061929
 30
0.0
 10
-9.4442861725
 20
-20.4488673438
 30
0.0
 10
-9.4440684787
 20
-20.3874590647
 30
0.0
 10
-9.4440348677
 20
-20.3560904491
 30
0.0
 11
-9.4570325893
 21
-20.8356905933
 31
0.0
 11
-9.4564117144
 21
-20.8349173206
 31
0.0
 11
-9.4557914711
 21
-20.8330167791
 31
0.0
 11
-9.4545594121
 21
-20.8258674744
 31
0.0
 11
-9.4533494777
 21
-20.8143098483
 31
0.0
 11
-9.4521744258
 21
-20.7984219019
 31
0.0
 11
-9.451044821
 21
-20.7783589484
 31
0.0
 11
-9.4499702744
 21
-20.7543099076
 31
0.0
 11
-9.4489603502
 21
-20.7264675875
 31
0.0
 11
-9.4480239253
 21
-20.6950846999
 31
0.0
 11
-9.4464048277
 21
-20.6229025324
 31
0.0
 11
-9.4451730439
 21
-20.5403113553
 31
0.0
 11
-9.444373301
 21
-20.4501957415
 31
0.0
 11
-9.4440348677
 21
-20.3560904491
 31
0.0
  0
SPLINE
  5
773
100
AcDbEntity
  8
ASSI
100
AcDbSpline
 62
253
  6
CONTINUOUS
 70
0
 71
3
 72
21
 73
17
 74
15
 42
0.0000001
 43
0.0000001
 44
0.0000000001
 12
-0.3322042724
 22
0.6723986115
 32
0.0
 13
-0.0000012325
 23
0.7499863808
 33
0.0
 40
0.0
 40
0.0
 40
0.0
 40
0.0
 40
0.0020761064
 40
0.0064748838
 40
0.0131999047
 40
0.0222423331
 40
0.047220383
 40
0.0811680064
 40
0.1237648977
 40
0.1746133032
 40
0.2332250225
 40
0.2990673435
 40
0.4498729336
 40
0.621332998
 40
0.8070628718
 40
1.0
 40
1.0
 40
1.0
 40
1.0
 10
-3.1286750776
 20
-21.975182794
 30
0.0
 10
-3.1289049747
 20
-21.9747174704
 30
0.0
 10
-3.1290323071
 20
-21.9730542087
 30
0.0
 10
-3.1293993086
 20
-21.9698120037
 30
0.0
 10
-3.1296553819
 20
-21.9647559773
 30
0.0
 10
-3.1301325644
 20
-21.9545927577
 30
0.0
 10
-3.1306325941
 20
-21.9375989641
 30
0.0
 10
-3.1312153759
 20
-21.9122296448
 30
0.0
 10
-3.1317670658
 20
-21.8803850302
 30
0.0
 10
-3.1322988145
 20
-21.8423757134
 30
0.0
 10
-3.1327969291
 20
-21.7985534981
 30
0.0
 10
-3.1334403343
 20
-21.7297428911
 30
0.0
 10
-3.1341028526
 20
-21.6327197305
 30
0.0
 10
-3.1346745702
 20
-21.5057243778
 30
0.0
 10
-3.135026982
 20
-21.3681954785
 30
0.0
 10
-3.1351059205
 20
-21.2735304288
 30
0.0
 10
-3.1351059998
 20
-21.2252970227
 30
0.0
 11
-3.1286750776
 21
-21.975182794
 31
0.0
 11
-3.1289920476
 21
-21.9736583468
 31
0.0
 11
-3.1293083566
 21
-21.9703745224
 31
0.0
 11
-3.1296231247
 21
-21.9653406801
 31
0.0
 11
-3.1299354721
 21
-21.9585661787
 31
0.0
 11
-3.130549492
 21
-21.939843047
 31
0.0
 11
-3.1311444998
 21
-21.9143897454
 31
0.0
 11
-3.1317151454
 21
-21.882447754
 31
0.0
 11
-3.1322561805
 21
-21.8443159804
 31
0.0
 11
-3.1327624714
 21
-21.800360905
 31
0.0
 11
-3.1332291225
 21
-21.7509822659
 31
0.0
 11
-3.1340265503
 21
-21.6378829383
 31
0.0
 11
-3.1346186058
 21
-21.5092915881
 31
0.0
 11
-3.1349829985
 21
-21.3699971889
 31
0.0
 11
-3.1351059998
 21
-21.2252970227
 31
0.0
  0
SPLINE
  5
774
100
AcDbEntity
  8
ASSI
100
AcDbSpline
 62
253
  6
CONTINUOUS
 70
0
 71
3
 72
21
 73
17
 74
15
 42
0.0000001
 43
0.0000001
 44
0.0000000001
 12
0.0000012325
 22
0.7499863808
 32
0.0
 13
0.3322042713
 23
0.6723986121
 33
0.0
 40
0.0
 40
0.0
 40
0.0
 40
0.0
 40
0.1929371282
 40
0.378667002
 40
0.5501270664
 40
0.7009326565
 40
0.7667749775
 40
0.8253866968
 40
0.8762351023
 40
0.9188319936
 40
0.952779617
 40
0.9777576669
 40
0.9868000953
 40
0.9935251162
 40
0.9979238936
 40
1.0
 40
1.0
 40
1.0
 40
1.0
 10
-3.1351059998
 20
21.2252970227
 30
0.0
 10
-3.1351059205
 20
21.2735304288
 30
0.0
 10
-3.135026982
 20
21.3681954785
 30
0.0
 10
-3.1346745702
 20
21.5057243778
 30
0.0
 10
-3.1341028526
 20
21.6327197305
 30
0.0
 10
-3.1334403343
 20
21.7297428911
 30
0.0
 10
-3.1327969291
 20
21.7985534981
 30
0.0
 10
-3.1322988145
 20
21.8423757134
 30
0.0
 10
-3.1317670658
 20
21.8803850302
 30
0.0
 10
-3.1312153759
 20
21.9122296448
 30
0.0
 10
-3.1306325941
 20
21.9375989641
 30
0.0
 10
-3.1301325644
 20
21.9545927577
 30
0.0
 10
-3.1296553819
 20
21.9647559773
 30
0.0
 10
-3.1293993086
 20
21.9698120037
 30
0.0
 10
-3.1290323071
 20
21.9730542087
 30
0.0
 10
-3.1289049747
 20
21.9747174703
 30
0.0
 10
-3.1286750776
 20
21.975182794
 30
0.0
 11
-3.1351059998
 21
21.2252970227
 31
0.0
 11
-3.1349829985
 21
21.3699971889
 31
0.0
 11
-3.1346186058
 21
21.5092915881
 31
0.0
 11
-3.1340265503
 21
21.6378829383
 31
0.0
 11
-3.1332291225
 21
21.7509822659
 31
0.0
 11
-3.1327624714
 21
21.800360905
 31
0.0
 11
-3.1322561805
 21
21.8443159804
 31
0.0
 11
-3.1317151454
 21
21.882447754
 31
0.0
 11
-3.1311444998
 21
21.9143897454
 31
0.0
 11
-3.130549492
 21
21.939843047
 31
0.0
 11
-3.1299354721
 21
21.9585661787
 31
0.0
 11
-3.1296231247
 21
21.9653406801
 31
0.0
 11
-3.1293083566
 21
21.9703745224
 31
0.0
 11
-3.1289920476
 21
21.9736583468
 31
0.0
 11
-3.1286750776
 21
21.975182794
 31
0.0
  0
SPLINE
  5
775
100
AcDbEntity
  8
ASSI
100
AcDbSpline
 62
7
  6
CONTINUOUS
 70
0
 71
3
 72
17
 73
13
 74
11
 42
0.0000001
 43
0.0000001
 44
0.0000000001
 12
0.1140876729
 22
0.2282044169
 32
0.0
 13
-0.0000457907
 23
0.2551337902
 33
0.0
 40
0.0
 40
0.0
 40
0.0
 40
0.0
 40
0.0064853465
 40
0.0223386992
 40
0.0474174868
 40
0.0815365958
 40
0.1243373464
 40
0.1753833967
 40
0.300295079
 40
0.4513498284
 40
0.6228061005
 40
1.0
 40
1.0
 40
1.0
 40
1.0
 10
2.2046871368
 20
9.9954109357
 30
0.0
 10
2.2049337695
 20
9.995904264
 30
0.0
 10
2.2048351142
 20
9.9979007126
 30
0.0
 10
2.2052356812
 20
10.0018425349
 30
0.0
 10
2.2053156846
 20
10.008268369
 30
0.0
 10
2.2055570029
 20
10.0169212245
 30
0.0
 10
2.2057260044
 20
10.0278097449
 30
0.0
 10
2.2059894656
 20
10.0464089331
 30
0.0
 10
2.2062554391
 20
10.0742204109
 30
0.0
 10
2.2065126196
 20
10.1122696412
 30
0.0
 10
2.2067693911
 20
10.1717755946
 30
0.0
 10
2.2068359989
 20
10.2184352698
 30
0.0
 10
2.2068302416
 20
10.2505135729
 30
0.0
 11
2.2046871368
 21
9.9954109357
 31
0.0
 11
2.2049007071
 21
9.9970517257
 31
0.0
 11
2.2051124233
 21
10.0010909069
 31
0.0
 11
2.2053198586
 21
10.0074859898
 31
0.0
 11
2.2055206445
 21
10.0161886116
 31
0.0
 11
2.2057128443
 21
10.0271068379
 31
0.0
 11
2.2058947155
 21
10.0401291404
 31
0.0
 11
2.206220689
 21
10.0719966648
 31
0.0
 11
2.2064861886
 21
10.1105349216
 31
0.0
 11
2.2066807335
 21
10.1542787782
 31
0.0
 11
2.2068302416
 21
10.2505135729
 31
0.0
  0
SPLINE
  5
776
100
AcDbEntity
  8
ASSI
100
AcDbSpline
 62
253
  6
CONTINUOUS
 70
0
 71
3
 72
21
 73
17
 74
15
 42
0.0000001
 43
0.0000001
 44
0.0000000001
 12
-0.0000012325
 22
-0.7499863808
 32
0.0
 13
-0.3322042713
 23
-0.6723986121
 33
0.0
 40
0.0
 40
0.0
 40
0.0
 40
0.0
 40
0.1929371282
 40
0.378667002
 40
0.5501270664
 40
0.7009326565
 40
0.7667749775
 40
0.8253866968
 40
0.8762351023
 40
0.9188319936
 40
0.952779617
 40
0.9777576669
 40
0.9868000953
 40
0.9935251162
 40
0.9979238936
 40
1.0
 40
1.0
 40
1.0
 40
1.0
 10
3.1351059998
 20
-21.2252970227
 30
0.0
 10
3.1351059205
 20
-21.2735304288
 30
0.0
 10
3.135026982
 20
-21.3681954785
 30
0.0
 10
3.1346745702
 20
-21.5057243778
 30
0.0
 10
3.1341028526
 20
-21.6327197305
 30
0.0
 10
3.1334403343
 20
-21.7297428911
 30
0.0
 10
3.1327969291
 20
-21.7985534981
 30
0.0
 10
3.1322988145
 20
-21.8423757134
 30
0.0
 10
3.1317670658
 20
-21.8803850302
 30
0.0
 10
3.1312153759
 20
-21.9122296448
 30
0.0
 10
3.1306325941
 20
-21.9375989641
 30
0.0
 10
3.1301325644
 20
-21.9545927577
 30
0.0
 10
3.1296553819
 20
-21.9647559773
 30
0.0
 10
3.1293993086
 20
-21.9698120037
 30
0.0
 10
3.1290323071
 20
-21.9730542087
 30
0.0
 10
3.1289049747
 20
-21.9747174704
 30
0.0
 10
3.1286750776
 20
-21.975182794
 30
0.0
 11
3.1351059998
 21
-21.2252970227
 31
0.0
 11
3.1349829985
 21
-21.3699971889
 31
0.0
 11
3.1346186058
 21
-21.5092915881
 31
0.0
 11
3.1340265503
 21
-21.6378829383
 31
0.0
 11
3.1332291225
 21
-21.7509822659
 31
0.0
 11
3.1327624714
 21
-21.800360905
 31
0.0
 11
3.1322561805
 21
-21.8443159804
 31
0.0
 11
3.1317151454
 21
-21.882447754
 31
0.0
 11
3.1311444998
 21
-21.9143897454
 31
0.0
 11
3.130549492
 21
-21.939843047
 31
0.0
 11
3.1299354721
 21
-21.9585661787
 31
0.0
 11
3.1296231247
 21
-21.9653406801
 31
0.0
 11
3.1293083566
 21
-21.9703745224
 31
0.0
 11
3.1289920476
 21
-21.9736583468
 31
0.0
 11
3.1286750776
 21
-21.975182794
 31
0.0
  0
SPLINE
  5
777
100
AcDbEntity
  8
ASSI
100
AcDbSpline
 62
253
  6
CONTINUOUS
 70
0
 71
3
 72
21
 73
17
 74
15
 42
0.0000001
 43
0.0000001
 44
0.0000000001
 12
0.3322042724
 22
-0.6723986115
 32
0.0
 13
0.0000012325
 23
-0.7499863808
 33
0.0
 40
0.0
 40
0.0
 40
0.0
 40
0.0
 40
0.0020761064
 40
0.0064748838
 40
0.0131999047
 40
0.0222423331
 40
0.047220383
 40
0.0811680064
 40
0.1237648977
 40
0.1746133032
 40
0.2332250225
 40
0.2990673435
 40
0.4498729336
 40
0.621332998
 40
0.8070628718
 40
1.0
 40
1.0
 40
1.0
 40
1.0
 10
3.1286750776
 20
21.975182794
 30
0.0
 10
3.1289049747
 20
21.9747174704
 30
0.0
 10
3.1290323071
 20
21.9730542087
 30
0.0
 10
3.1293993086
 20
21.9698120037
 30
0.0
 10
3.1296553819
 20
21.9647559773
 30
0.0
 10
3.1301325644
 20
21.9545927577
 30
0.0
 10
3.1306325941
 20
21.9375989641
 30
0.0
 10
3.1312153759
 20
21.9122296448
 30
0.0
 10
3.1317670658
 20
21.8803850302
 30
0.0
 10
3.1322988145
 20
21.8423757134
 30
0.0
 10
3.1327969291
 20
21.7985534981
 30
0.0
 10
3.1334403343
 20
21.7297428911
 30
0.0
 10
3.1341028526
 20
21.6327197305
 30
0.0
 10
3.1346745702
 20
21.5057243778
 30
0.0
 10
3.135026982
 20
21.3681954785
 30
0.0
 10
3.1351059205
 20
21.2735304288
 30
0.0
 10
3.1351059998
 20
21.2252970227
 30
0.0
 11
3.1286750776
 21
21.975182794
 31
0.0
 11
3.1289920476
 21
21.9736583468
 31
0.0
 11
3.1293083566
 21
21.9703745224
 31
0.0
 11
3.1296231247
 21
21.9653406801
 31
0.0
 11
3.1299354721
 21
21.9585661787
 31
0.0
 11
3.130549492
 21
21.939843047
 31
0.0
 11
3.1311444998
 21
21.9143897454
 31
0.0
 11
3.1317151454
 21
21.882447754
 31
0.0
 11
3.1322561805
 21
21.8443159804
 31
0.0
 11
3.1327624714
 21
21.800360905
 31
0.0
 11
3.1332291225
 21
21.7509822659
 31
0.0
 11
3.1340265503
 21
21.6378829383
 31
0.0
 11
3.1346186058
 21
21.5092915881
 31
0.0
 11
3.1349829985
 21
21.3699971889
 31
0.0
 11
3.1351059998
 21
21.2252970227
 31
0.0
  0
SPLINE
  5
778
100
AcDbEntity
  8
ASSI
100
AcDbSpline
 62
253
  6
CONTINUOUS
 70
0
 71
3
 72
9
 73
5
 74
3
 42
0.0000001
 43
0.0000001
 44
0.0000000001
 12
-0.0000009928
 22
0.2164846565
 32
0.0
 13
-0.0013081016
 23
0.2164807044
 33
0.0
 40
0.0
 40
0.0
 40
0.0
 40
0.0
 40
0.2986608327
 40
1.0
 40
1.0
 40
1.0
 40
1.0
 10
-10.3860054704
 20
-23.8443575944
 30
0.0
 10
-10.3860055693
 20
-23.8228057652
 30
0.0
 10
-10.3860481938
 20
-23.7506443085
 30
0.0
 10
-10.3861358263
 20
-23.6784822881
 30
0.0
 10
-10.386441634
 20
-23.6278734891
 30
0.0
 11
-10.3860054704
 21
-23.8443575944
 31
0.0
 11
-10.3860350445
 21
-23.7797021134
 31
0.0
 11
-10.386441634
 21
-23.6278734891
 31
0.0
  0
LINE
  5
779
100
AcDbEntity
  8
ASSI
100
AcDbLine
 62
7
  6
CONTINUOUS
 10
-9.2533769702
 20
-23.6278312164
 11
-9.0368706193
 21
-23.8443375673
  0
LINE
  5
77A
100
AcDbEntity
  8
ASSI
100
AcDbLine
 62
7
  6
CONTINUOUS
 10
8.5466230298
 20
-23.6278312164
 11
8.7631293807
 21
-23.8443375673
  0
LINE
  5
77B
100
AcDbEntity
  8
ASSI
100
AcDbLine
 62
7
  6
CONTINUOUS
 10
-9.2533769702
 20
23.6278312163
 11
-9.0368706193
 21
23.8443375673
  0
LINE
  5
77C
100
AcDbEntity
  8
ASSI
100
AcDbLine
 62
7
  6
CONTINUOUS
 10
8.5466230298
 20
23.6278312163
 11
8.7631293807
 21
23.8443375673
  0
SPLINE
  5
77D
100
AcDbEntity
  8
ASSI
100
AcDbSpline
 62
253
  6
CONTINUOUS
 70
0
 71
3
 72
14
 73
10
 74
8
 42
0.0000001
 43
0.0000001
 44
0.0000000001
 12
0.0000001609
 22
-0.2499634571
 32
0.0
 13
-0.0491541079
 23
-0.2450828504
 33
0.0
 40
0.0
 40
0.0
 40
0.0
 40
0.0
 40
0.3786143867
 40
0.5501136491
 40
0.7009464212
 40
0.8254370904
 40
0.9189018276
 40
0.9778262091
 40
1.0
 40
1.0
 40
1.0
 40
1.0
 10
7.4139945168
 20
-24.2368735044
 30
0.0
 10
7.4139945371
 20
-24.2684200914
 30
0.0
 10
7.4139726979
 20
-24.314257135
 30
0.0
 10
7.4138508251
 20
-24.3726584549
 30
0.0
 10
7.4137895065
 20
-24.4098934884
 30
0.0
 10
7.4135530608
 20
-24.4406060315
 30
0.0
 10
7.4136923999
 20
-24.4637121326
 30
0.0
 10
7.4130388184
 20
-24.4781877813
 30
0.0
 10
7.4135003069
 20
-24.4850210711
 30
0.0
 10
7.4131369959
 20
-24.4868325431
 30
0.0
 11
7.4139945168
 21
-24.2368735044
 31
0.0
 11
7.4139295136
 21
-24.3315132431
 31
0.0
 11
7.4138505748
 21
-24.374381719
 31
0.0
 11
7.4137442524
 21
-24.4120842502
 31
0.0
 11
7.4136145417
 21
-24.4432020979
 31
0.0
 11
7.4134663042
 21
-24.4665643965
 31
0.0
 11
7.4133051468
 21
-24.4812924569
 31
0.0
 11
7.4131369959
 21
-24.4868325431
 31
0.0
  0
SPLINE
  5
77E
100
AcDbEntity
  8
ASSI
100
AcDbSpline
 62
253
  6
CONTINUOUS
 70
0
 71
3
 72
14
 73
10
 74
8
 42
0.0000001
 43
0.0000001
 44
0.0000000001
 12
-0.0000001186
 22
-0.249966339
 32
0.0
 13
0.0492104439
 23
-0.2450744842
 33
0.0
 40
0.0
 40
0.0
 40
0.0
 40
0.0
 40
0.3786102828
 40
0.5501102802
 40
0.7009448483
 40
0.8254367284
 40
0.9189016647
 40
0.9778261818
 40
1.0
 40
1.0
 40
1.0
 40
1.0
 10
10.3860054824
 20
-24.2368706193
 30
0.0
 10
10.3860054675
 20
-24.2684172281
 30
0.0
 10
10.3860272745
 20
-24.3142545217
 30
0.0
 10
10.3861492046
 20
-24.3726563781
 30
0.0
 10
10.3862104414
 20
-24.4098921666
 30
0.0
 10
10.3864471957
 20
-24.4406052917
 30
0.0
 10
10.3863072129
 20
-24.4637118823
 30
0.0
 10
10.3869620369
 20
-24.4781875511
 30
0.0
 10
10.3864992762
 20
-24.4850211307
 30
0.0
 10
10.386863004
 20
-24.4868325431
 30
0.0
 11
10.3860054824
 21
-24.2368706193
 31
0.0
 11
10.3860704826
 21
-24.3315104233
 31
0.0
 11
10.3861494321
 21
-24.374379577
 31
0.0
 11
10.3862557751
 21
-24.4120829919
 31
0.0
 11
10.3863855159
 21
-24.4432015009
 31
0.0
 11
10.3865337695
 21
-24.4665641185
 31
0.0
 11
10.3866949936
 21
-24.4812923819
 31
0.0
 11
10.386863004
 21
-24.4868325431
 31
0.0
  0
LINE
  5
77F
100
AcDbEntity
  8
ASSI
100
AcDbLine
 62
7
  6
CONTINUOUS
 10
9.2533769702
 20
-23.6278312164
 11
9.0368706193
 21
-23.8443375673
  0
SPLINE
  5
780
100
AcDbEntity
  8
ASSI
100
AcDbSpline
 62
253
  6
CONTINUOUS
 70
0
 71
3
 72
14
 73
10
 74
8
 42
0.0000001
 43
0.0000001
 44
0.0000000001
 12
0.0491708928
 22
0.2450824256
 32
0.0
 13
-0.0000001167
 23
0.2499663418
 33
0.0
 40
0.0
 40
0.0
 40
0.0
 40
0.0
 40
0.0221606571
 40
0.081057861
 40
0.1744935808
 40
0.2989595893
 40
0.4497756413
 40
0.621277855
 40
1.0
 40
1.0
 40
1.0
 40
1.0
 10
-10.3868630041
 20
-24.4868325431
 30
0.0
 10
-10.3864997843
 20
-24.4850221472
 30
0.0
 10
-10.3869613108
 20
-24.4781921225
 30
0.0
 10
-10.3863075964
 20
-24.4637221062
 30
0.0
 10
-10.3864470768
 20
-24.4406224573
 30
0.0
 10
-10.3862105354
 20
-24.4099154355
 30
0.0
 10
-10.3861492428
 20
-24.3726831701
 30
0.0
 10
-10.3860272974
 20
-24.3142733472
 30
0.0
 10
-10.3860054677
 20
-24.268426549
 30
0.0
 10
-10.3860054824
 20
-24.2368706193
 30
0.0
 11
-10.3868630041
 21
-24.4868325431
 31
0.0
 11
-10.3866949468
 21
-24.4812956746
 31
0.0
 11
-10.3865337755
 21
-24.4665742382
 31
0.0
 11
-10.3863855489
 21
-24.4432189235
 31
0.0
 11
-10.3862558218
 21
-24.4121068811
 31
0.0
 11
-10.3861494863
 21
-24.3744080943
 31
0.0
 11
-10.386070521
 21
-24.3315383861
 31
0.0
 11
-10.3860054824
 21
-24.2368706193
 31
0.0
  0
SPLINE
  5
781
100
AcDbEntity
  8
ASSI
100
AcDbSpline
 62
253
  6
CONTINUOUS
 70
0
 71
3
 72
14
 73
10
 74
8
 42
0.0000001
 43
0.0000001
 44
0.0000000001
 12
-0.0491604784
 22
0.2450845141
 32
0.0
 13
0.000000147
 23
0.2499663411
 33
0.0
 40
0.0
 40
0.0
 40
0.0
 40
0.0
 40
0.0221560472
 40
0.0810436238
 40
0.1744701103
 40
0.2989316943
 40
0.4497492489
 40
0.6212573018
 40
1.0
 40
1.0
 40
1.0
 40
1.0
 10
-7.413136996
 20
-24.4868325431
 30
0.0
 10
-7.4135000632
 20
-24.4850225084
 30
0.0
 10
-7.4130387684
 20
-24.4781937181
 30
0.0
 10
-7.4136922949
 20
-24.4637256181
 30
0.0
 10
-7.4135528882
 20
-24.4406279277
 30
0.0
 10
-7.4137894171
 20
-24.4099219125
 30
0.0
 10
-7.4138507262
 20
-24.372689406
 30
0.0
 10
-7.4139726909
 20
-24.3142772584
 30
0.0
 10
-7.4139945361
 20
-24.2684282615
 30
0.0
 10
-7.4139945176
 20
-24.2368706193
 30
0.0
 11
-7.413136996
 21
-24.4868325431
 31
0.0
 11
-7.4133050071
 21
-24.4812968261
 31
0.0
 11
-7.413466172
 21
-24.4665777963
 31
0.0
 11
-7.4136143959
 21
-24.4432247897
 31
0.0
 11
-7.4137441317
 21
-24.4121138534
 31
0.0
 11
-7.4138504802
 21
-24.3744146911
 31
0.0
 11
-7.4139294606
 21
-24.3315435234
 31
0.0
 11
-7.4139945176
 21
-24.2368706193
 31
0.0
  0
LINE
  5
782
100
AcDbEntity
  8
ASSI
100
AcDbLine
 62
7
  6
CONTINUOUS
 10
-8.5466230298
 20
-23.6278312164
 11
-8.7631293807
 21
-23.8443375673
  0
SPLINE
  5
783
100
AcDbEntity
  8
ASSI
100
AcDbSpline
 62
253
  6
CONTINUOUS
 70
0
 71
3
 72
9
 73
5
 74
3
 42
0.0000001
 43
0.0000001
 44
0.0000000001
 12
-0.0000000894
 22
0.2165058815
 32
0.0
 13
0.0013063356
 23
0.2165019404
 33
0.0
 40
0.0
 40
0.0
 40
0.0
 40
0.0
 40
0.2987948714
 40
1.0
 40
1.0
 40
1.0
 40
1.0
 10
-7.4139945176
 20
-23.8443375673
 30
0.0
 10
-7.4139945265
 20
-23.8227739516
 30
0.0
 10
-7.4139514473
 20
-23.7506054196
 30
0.0
 10
-7.4138634832
 20
-23.6784363275
 30
0.0
 10
-7.4135581468
 20
-23.6278322372
 30
0.0
 11
-7.4139945176
 21
-23.8443375673
 31
0.0
 11
-7.4139647756
 21
-23.7796467271
 31
0.0
 11
-7.4135581468
 21
-23.6278322372
 31
0.0
  0
LINE
  5
784
100
AcDbEntity
  8
ASSI
100
AcDbLine
 62
253
  6
CONTINUOUS
 10
-1.4294767141
 20
-10.5910573144
 11
1.4294767141
 21
-10.5910573144
  0
SPLINE
  5
785
100
AcDbEntity
  8
ASSI
100
AcDbSpline
 62
7
  6
CONTINUOUS
 70
0
 71
3
 72
18
 73
14
 74
12
 42
0.0000001
 43
0.0000001
 44
0.0000000001
 12
0.0000585025
 22
0.3065506515
 32
0.0
 13
-0.1370853242
 23
0.2741913917
 33
0.0
 40
0.0
 40
0.0
 40
0.0
 40
0.0
 40
0.1916663379
 40
0.3771131165
 40
0.5485771443
 40
0.6996504863
 40
0.8245832471
 40
0.875639588
 40
0.9184496429
 40
0.9525764134
 40
0.9776597758
 40
0.9935148378
 40
1.0
 40
1.0
 40
1.0
 40
1.0
 10
-1.4269047495
 20
-10.8975705317
 30
0.0
 10
-1.4269010119
 20
-10.8779853848
 30
0.0
 10
-1.4269265055
 20
-10.8394505891
 30
0.0
 10
-1.4270609034
 20
-10.7833952618
 30
0.0
 10
-1.4272848242
 20
-10.7314877514
 30
0.0
 10
-1.4275933633
 20
-10.6857656558
 30
0.0
 10
-1.4279126826
 20
-10.6523442476
 30
0.0
 10
-1.4282290573
 20
-10.6299926264
 30
0.0
 10
-1.4284319866
 20
-10.6169069607
 30
0.0
 10
-1.4287218616
 20
-10.6065081126
 30
0.0
 10
-1.4288177865
 20
-10.5987858295
 30
0.0
 10
-1.4292991317
 20
-10.5940490312
 30
0.0
 10
-1.429180374
 20
-10.5916500396
 30
0.0
 10
-1.4294767141
 20
-10.5910573144
 30
0.0
 11
-1.4269047495
 21
-10.8975705317
 31
0.0
 11
-1.4269442063
 21
-10.8388151031
 31
0.0
 11
-1.4270831965
 21
-10.7819664412
 31
0.0
 11
-1.4273164834
 21
-10.7294045485
 31
0.0
 11
-1.427635104
 21
-10.6830940123
 31
0.0
 11
-1.4280264612
 21
-10.644797792
 31
0.0
 11
-1.4282448555
 21
-10.6291479609
 31
0.0
 11
-1.4284756698
 21
-10.6160265404
 31
0.0
 11
-1.4287168045
 21
-10.6055677358
 31
0.0
 11
-1.4289659317
 21
-10.5978824514
 31
0.0
 11
-1.4292202069
 21
-10.5930287276
 31
0.0
 11
-1.4294767141
 21
-10.5910573144
 31
0.0
  0
LINE
  5
786
100
AcDbEntity
  8
ASSI
100
AcDbLine
 62
7
  6
CONTINUOUS
 10
-8.5466230298
 20
23.6278312163
 11
-8.7631293807
 21
23.8443375673
  0
SPLINE
  5
787
100
AcDbEntity
  8
ASSI
100
AcDbSpline
 62
253
  6
CONTINUOUS
 70
0
 71
3
 72
14
 73
10
 74
8
 42
0.0000001
 43
0.0000001
 44
0.0000000001
 12
0.0000000673
 22
0.2499663444
 32
0.0
 13
-0.049113402
 23
0.2450939556
 33
0.0
 40
0.0
 40
0.0
 40
0.0
 40
0.0
 40
0.3786397368
 40
0.5501400624
 40
0.7009674896
 40
0.8254505359
 40
0.9189082124
 40
0.9778278257
 40
1.0
 40
1.0
 40
1.0
 40
1.0
 10
-10.3860054824
 20
24.2368706193
 30
0.0
 10
-10.386005474
 20
24.2684196829
 30
0.0
 10
-10.3860272973
 20
24.314259455
 30
0.0
 10
-10.3861491219
 20
24.3726632091
 30
0.0
 10
-10.3862104998
 20
24.4098976707
 30
0.0
 10
-10.3864467418
 20
24.4406089289
 30
0.0
 10
-10.3863078662
 20
24.4637136047
 30
0.0
 10
-10.3869606017
 20
24.4781884345
 30
0.0
 10
-10.3865000204
 20
24.4850211211
 30
0.0
 10
-10.3868630041
 20
24.4868325431
 30
0.0
 11
-10.3860054824
 21
24.2368706193
 31
0.0
 11
-10.386070468
 21
24.3315177878
 31
0.0
 11
-10.3861493909
 21
24.3743870246
 31
0.0
 11
-10.3862557028
 21
24.4120886553
 31
0.0
 11
-10.3863854023
 21
24.4432049571
 31
0.0
 11
-10.3865336465
 21
24.4665657604
 31
0.0
 11
-10.3866947824
 21
24.4812927993
 31
0.0
 11
-10.3868630041
 21
24.4868325431
 31
0.0
  0
SPLINE
  5
788
100
AcDbEntity
  8
ASSI
100
AcDbSpline
 62
253
  6
CONTINUOUS
 70
0
 71
3
 72
14
 73
10
 74
8
 42
0.0000001
 43
0.0000001
 44
0.0000000001
 12
-0.0000000313
 22
0.2499663453
 32
0.0
 13
0.0490874812
 23
0.2450991492
 33
0.0
 40
0.0
 40
0.0
 40
0.0
 40
0.0
 40
0.3786067701
 40
0.5501058356
 40
0.7009403568
 40
0.8254332587
 40
0.9188999604
 40
0.9778256703
 40
1.0
 40
1.0
 40
1.0
 40
1.0
 10
-7.4139945176
 20
24.2368706193
 30
0.0
 10
-7.4139945215
 20
24.2684169362
 30
0.0
 10
-7.4139727085
 20
24.3142538554
 30
0.0
 10
-7.4138509231
 20
24.3726553518
 30
0.0
 10
-7.4137895177
 20
24.4098911146
 30
0.0
 10
-7.4135533793
 20
24.4406045537
 30
0.0
 10
-7.4136920257
 20
24.4637112719
 30
0.0
 10
-7.4130396958
 20
24.4781876137
 30
0.0
 10
-7.4134998233
 20
24.4850209066
 30
0.0
 10
-7.413136996
 20
24.4868325431
 30
0.0
 11
-7.4139945176
 21
24.2368706193
 31
0.0
 11
-7.413929555
 21
24.3315095476
 31
0.0
 11
-7.4138506468
 21
24.3743784696
 31
0.0
 11
-7.4137443439
 21
24.4120818737
 31
0.0
 11
-7.413614649
 21
24.4432006392
 31
0.0
 11
-7.4134663983
 21
24.4665636987
 31
0.0
 11
-7.4133052621
 21
24.4812922616
 31
0.0
 11
-7.413136996
 21
24.4868325431
 31
0.0
  0
SPLINE
  5
789
100
AcDbEntity
  8
ASSI
100
AcDbSpline
 62
253
  6
CONTINUOUS
 70
0
 71
3
 72
14
 73
10
 74
8
 42
0.0000001
 43
0.0000001
 44
0.0000000001
 12
0.0491053715
 22
-0.245095564
 32
0.0
 13
-0.0000000529
 23
-0.2499663438
 33
0.0
 40
0.0
 40
0.0
 40
0.0
 40
0.0
 40
0.0221570897
 40
0.081046579
 40
0.1744749591
 40
0.298937278
 40
0.4497544554
 40
0.621261474
 40
1.0
 40
1.0
 40
1.0
 40
1.0
 10
7.4131369959
 20
24.4868325431
 30
0.0
 10
7.4134996733
 20
24.4850223416
 30
0.0
 10
7.4130394907
 20
24.4781934933
 30
0.0
 10
7.4136920124
 20
24.4637248205
 30
0.0
 10
7.4135531637
 20
24.440626842
 30
0.0
 10
7.413789438
 20
24.4099206012
 30
0.0
 10
7.4138508099
 20
24.3726881641
 30
0.0
 10
7.4139726999
 20
24.3142764754
 30
0.0
 10
7.4139945242
 20
24.2684279142
 30
0.0
 10
7.4139945176
 20
24.2368706193
 30
0.0
 11
7.4131369959
 21
24.4868325431
 31
0.0
 11
7.413305106
 21
24.4812965683
 31
0.0
 11
7.4134662678
 21
24.4665770602
 31
0.0
 11
7.4136145004
 21
24.4432235801
 31
0.0
 11
7.4137442183
 21
24.4121124597
 31
0.0
 11
7.4138505438
 21
24.3744133912
 31
0.0
 11
7.4139294956
 21
24.3315424815
 31
0.0
 11
7.4139945176
 21
24.2368706193
 31
0.0
  0
SPLINE
  5
78A
100
AcDbEntity
  8
ASSI
100
AcDbSpline
 62
253
  6
CONTINUOUS
 70
0
 71
3
 72
14
 73
10
 74
8
 42
0.0000001
 43
0.0000001
 44
0.0000000001
 12
-0.0491143031
 22
-0.2450937745
 32
0.0
 13
-0.000000169
 23
-0.2499663439
 33
0.0
 40
0.0
 40
0.0
 40
0.0
 40
0.0
 40
0.02215654
 40
0.081045165
 40
0.174473213
 40
0.2989363738
 40
0.4497545259
 40
0.6212615784
 40
1.0
 40
1.0
 40
1.0
 40
1.0
 10
10.386863004
 20
24.4868325431
 30
0.0
 10
10.3865002697
 20
24.4850223997
 30
0.0
 10
10.3869606087
 20
24.4781936403
 30
0.0
 10
10.386307918
 20
24.4637251397
 30
0.0
 10
10.3864468359
 20
24.4406271762
 30
0.0
 10
10.386210513
 20
24.4099208179
 30
0.0
 10
10.3861491414
 20
24.3726882245
 30
0.0
 10
10.3860272632
 20
24.3142764612
 30
0.0
 10
10.3860055038
 20
24.2684279055
 30
0.0
 10
10.3860054824
 20
24.2368706193
 30
0.0
 11
10.386863004
 21
24.4868325431
 31
0.0
 11
10.3866949041
 21
24.4812967054
 31
0.0
 11
10.3865337259
 21
24.4665774136
 31
0.0
 11
10.386385476
 21
24.4432240166
 31
0.0
 11
10.3862557437
 21
24.4121126858
 31
0.0
 11
10.3861494085
 21
24.3744133737
 31
0.0
 11
10.3860704693
 21
24.3315424555
 31
0.0
 11
10.3860054824
 21
24.2368706193
 31
0.0
  0
SPLINE
  5
78B
100
AcDbEntity
  8
ASSI
100
AcDbSpline
 62
253
  6
CONTINUOUS
 70
0
 71
3
 72
9
 73
5
 74
3
 42
0.0000001
 43
0.0000001
 44
0.0000000001
 12
-0.0000041288
 22
-0.2164298683
 32
0.0
 13
0.0012987802
 23
-0.2164259713
 33
0.0
 40
0.0
 40
0.0
 40
0.0
 40
0.0
 40
0.2987119025
 40
1.0
 40
1.0
 40
1.0
 40
1.0
 10
10.3860055349
 20
23.844250724
 30
0.0
 10
10.3860051238
 20
23.8227006648
 30
0.0
 10
10.3860484515
 20
23.750557468
 30
0.0
 10
10.3861383046
 20
23.6784137267
 30
0.0
 10
10.386441911
 20
23.6278214075
 30
0.0
 11
10.3860055349
 21
23.844250724
 31
0.0
 11
10.3860351602
 21
23.7796005531
 31
0.0
 11
10.386441911
 21
23.6278214075
 31
0.0
  0
LINE
  5
78C
100
AcDbEntity
  8
ASSI
100
AcDbLine
 62
7
  6
CONTINUOUS
 10
9.2533769702
 20
23.6278312163
 11
9.0368706193
 21
23.8443375673
  0
SPLINE
  5
78D
100
AcDbEntity
  8
ASSI
100
AcDbSpline
 62
7
  6
CONTINUOUS
 70
0
 71
3
 72
18
 73
14
 74
12
 42
0.0000001
 43
0.0000001
 44
0.0000000001
 12
-0.1370853012
 22
-0.2741914032
 32
0.0
 13
0.0000585025
 23
-0.3065506515
 33
0.0
 40
0.0
 40
0.0
 40
0.0
 40
0.0
 40
0.0064851625
 40
0.0223402248
 40
0.0474235874
 40
0.0815503582
 40
0.1243604132
 40
0.1754167542
 40
0.3003495151
 40
0.451422857
 40
0.6228868847
 40
0.8083336627
 40
1.0
 40
1.0
 40
1.0
 40
1.0
 10
1.4294767141
 20
-10.5910573144
 30
0.0
 10
1.429180374
 20
-10.5916500397
 30
0.0
 10
1.4292991317
 20
-10.5940490313
 30
0.0
 10
1.4288177865
 20
-10.5987858297
 30
0.0
 10
1.4287218615
 20
-10.6065081129
 30
0.0
 10
1.4284319866
 20
-10.6169069611
 30
0.0
 10
1.4282290573
 20
-10.6299926267
 30
0.0
 10
1.4279126826
 20
-10.652344248
 30
0.0
 10
1.4275933633
 20
-10.6857656562
 30
0.0
 10
1.4272848242
 20
-10.7314877518
 30
0.0
 10
1.4270609034
 20
-10.7833952621
 30
0.0
 10
1.4269265055
 20
-10.8394505893
 30
0.0
 10
1.4269010119
 20
-10.8779853848
 30
0.0
 10
1.4269047495
 20
-10.8975705317
 30
0.0
 11
1.4294767141
 21
-10.5910573144
 31
0.0
 11
1.4292202069
 21
-10.5930287277
 31
0.0
 11
1.4289659317
 21
-10.5978824516
 31
0.0
 11
1.4287168045
 21
-10.6055677361
 31
0.0
 11
1.4284756698
 21
-10.6160265407
 31
0.0
 11
1.4282448555
 21
-10.6291479613
 31
0.0
 11
1.4280264612
 21
-10.6447977924
 31
0.0
 11
1.427635104
 21
-10.6830940127
 31
0.0
 11
1.4273164834
 21
-10.7294045489
 31
0.0
 11
1.4270831965
 21
-10.7819664416
 31
0.0
 11
1.4269442063
 21
-10.8388151033
 31
0.0
 11
1.4269047495
 21
-10.8975705317
 31
0.0
  0
SPLINE
  5
78E
100
AcDbEntity
  8
ASSI
100
AcDbSpline
 62
253
  6
CONTINUOUS
 70
0
 71
3
 72
11
 73
7
 74
5
 42
0.0000001
 43
0.0000001
 44
0.0000000001
 12
0.0029298877
 22
-0.290817936
 32
0.0
 13
0.2908243864
 23
-0.0021982718
 33
0.0
 40
0.0
 40
0.0
 40
0.0
 40
0.0
 40
0.2330682335
 40
0.4768287988
 40
0.7340988118
 40
1.0
 40
1.0
 40
1.0
 40
1.0
 10
-10.5864113981
 20
23.8010362971
 30
0.0
 10
-10.5861837769
 20
23.7784428229
 30
0.0
 10
-10.5747821072
 20
23.7317691528
 30
0.0
 10
-10.5292238729
 20
23.6746348299
 30
0.0
 10
-10.4633039456
 20
23.6369744694
 30
0.0
 10
-10.412218709
 20
23.6280260574
 30
0.0
 10
-10.3864418591
 20
23.6278312164
 30
0.0
 11
-10.5864113981
 21
23.8010362971
 31
0.0
 11
-10.5706918472
 21
23.7351003607
 31
0.0
 11
-10.5272287389
 21
23.6790927495
 31
0.0
 11
-10.4625665606
 21
23.6414468486
 31
0.0
 11
-10.3864418591
 21
23.6278312164
 31
0.0
  0
LINE
  5
78F
100
AcDbEntity
  8
ASSI
100
AcDbLine
 62
7
  6
CONTINUOUS
 10
-1.4271045151
 20
-11.8983585566
 11
-2.8466217987
 21
-11.8978396954
  0
LINE
  5
790
100
AcDbEntity
  8
ASSI
100
AcDbLine
 62
7
  6
CONTINUOUS
 10
-2.8466217987
 20
-11.8978396954
 11
-3.1367604091
 21
-11.8976912156
  0
LINE
  5
791
100
AcDbEntity
  8
ASSI
100
AcDbLine
 62
7
  6
CONTINUOUS
 10
3.1367604091
 20
-11.8976912156
 11
2.8466217987
 21
-11.8978396954
  0
LINE
  5
792
100
AcDbEntity
  8
ASSI
100
AcDbLine
 62
7
  6
CONTINUOUS
 10
2.8466217987
 20
-11.8978396954
 11
1.4271045151
 21
-11.8983585566
  0
SPLINE
  5
793
100
AcDbEntity
  8
ASSI
100
AcDbSpline
 62
253
  6
CONTINUOUS
 70
0
 71
3
 72
11
 73
7
 74
5
 42
0.0000001
 43
0.0000001
 44
0.0000000001
 12
0.290824418
 22
0.0021981279
 32
0.0
 13
0.0029298796
 23
0.2908179665
 33
0.0
 40
0.0
 40
0.0
 40
0.0
 40
0.0
 40
0.2659011538
 40
0.5231711216
 40
0.7669316808
 40
1.0
 40
1.0
 40
1.0
 40
1.0
 10
-7.4135581409
 20
23.6278312163
 30
0.0
 10
-7.3877812915
 20
23.6280260446
 30
0.0
 10
-7.3366960526
 20
23.6369744366
 30
0.0
 10
-7.2707761169
 20
23.6746347866
 30
0.0
 10
-7.2252178835
 20
23.7317691277
 30
0.0
 10
-7.2138162226
 20
23.7784428122
 30
0.0
 10
-7.2135886019
 20
23.8010362971
 30
0.0
 11
-7.4135581409
 21
23.6278312163
 31
0.0
 11
-7.3374334361
 21
23.6414468189
 31
0.0
 11
-7.2727712565
 21
23.6790927071
 31
0.0
 11
-7.2293081505
 21
23.7351003272
 31
0.0
 11
-7.2135886019
 21
23.8010362971
 31
0.0
  0
SPLINE
  5
794
100
AcDbEntity
  8
ASSI
100
AcDbSpline
 62
253
  6
CONTINUOUS
 70
0
 71
3
 72
11
 73
7
 74
5
 42
0.0000001
 43
0.0000001
 44
0.0000000001
 12
-0.290824418
 22
0.002198128
 32
0.0
 13
-0.0029298796
 23
0.2908179665
 33
0.0
 40
0.0
 40
0.0
 40
0.0
 40
0.0
 40
0.2659011522
 40
0.5231711191
 40
0.7669316794
 40
1.0
 40
1.0
 40
1.0
 40
1.0
 10
7.4135581409
 20
23.6278312163
 30
0.0
 10
7.3877812917
 20
23.6280260446
 30
0.0
 10
7.336696053
 20
23.6369744364
 30
0.0
 10
7.2707761173
 20
23.6746347862
 30
0.0
 10
7.2252178837
 20
23.7317691273
 30
0.0
 10
7.2138162226
 20
23.7784428121
 30
0.0
 10
7.2135886019
 20
23.8010362971
 30
0.0
 11
7.4135581409
 21
23.6278312163
 31
0.0
 11
7.3374334365
 21
23.6414468187
 31
0.0
 11
7.2727712571
 21
23.6790927066
 31
0.0
 11
7.2293081507
 21
23.7351003269
 31
0.0
 11
7.2135886019
 21
23.8010362971
 31
0.0
  0
SPLINE
  5
795
100
AcDbEntity
  8
ASSI
100
AcDbSpline
 62
253
  6
CONTINUOUS
 70
0
 71
3
 72
11
 73
7
 74
5
 42
0.0000001
 43
0.0000001
 44
0.0000000001
 12
-0.0029298796
 22
-0.2908179665
 32
0.0
 13
-0.2908244179
 23
-0.0021981283
 33
0.0
 40
0.0
 40
0.0
 40
0.0
 40
0.0
 40
0.2330683206
 40
0.4768288809
 40
0.7340988478
 40
1.0
 40
1.0
 40
1.0
 40
1.0
 10
10.5864113981
 20
23.8010362971
 30
0.0
 10
10.5861837774
 20
23.7784428121
 30
0.0
 10
10.5747821163
 20
23.7317691273
 30
0.0
 10
10.5292238827
 20
23.6746347862
 30
0.0
 10
10.463303947
 20
23.6369744365
 30
0.0
 10
10.4122187083
 20
23.6280260446
 30
0.0
 10
10.3864418591
 20
23.6278312163
 30
0.0
 11
10.5864113981
 21
23.8010362971
 31
0.0
 11
10.5706918493
 21
23.7351003269
 31
0.0
 11
10.5272287429
 21
23.6790927066
 31
0.0
 11
10.4625665635
 21
23.6414468188
 31
0.0
 11
10.3864418591
 21
23.6278312163
 31
0.0
  0
SPLINE
  5
796
100
AcDbEntity
  8
ASSI
100
AcDbSpline
 62
253
  6
CONTINUOUS
 70
0
 71
3
 72
11
 73
7
 74
5
 42
0.0000001
 43
0.0000001
 44
0.0000000001
 12
0.0029298796
 22
0.290817965
 32
0.0
 13
0.2908244163
 23
0.0021981479
 33
0.0
 40
0.0
 40
0.0
 40
0.0
 40
0.0
 40
0.2330683208
 40
0.4768288792
 40
0.7340988449
 40
1.0
 40
1.0
 40
1.0
 40
1.0
 10
-10.5864113981
 20
-23.8010362971
 30
0.0
 10
-10.5861837774
 20
-23.7784428122
 30
0.0
 10
-10.5747821164
 20
-23.7317691278
 30
0.0
 10
-10.5292238826
 20
-23.6746347873
 30
0.0
 10
-10.4633039461
 20
-23.6369744404
 30
0.0
 10
-10.4122187085
 20
-23.6280260464
 30
0.0
 10
-10.3864418591
 20
-23.6278312164
 30
0.0
 11
-10.5864113981
 21
-23.8010362971
 31
0.0
 11
-10.5706918493
 21
-23.7351003272
 31
0.0
 11
-10.5272287429
 21
-23.6790927081
 31
0.0
 11
-10.4625665634
 21
-23.6414468218
 31
0.0
 11
-10.3864418591
 21
-23.6278312164
 31
0.0
  0
SPLINE
  5
797
100
AcDbEntity
  8
ASSI
100
AcDbSpline
 62
253
  6
CONTINUOUS
 70
0
 71
3
 72
11
 73
7
 74
5
 42
0.0000001
 43
0.0000001
 44
0.0000000001
 12
-0.290824418
 22
-0.0021981279
 32
0.0
 13
-0.0029298796
 23
-0.2908179665
 33
0.0
 40
0.0
 40
0.0
 40
0.0
 40
0.0
 40
0.2659011524
 40
0.5231711195
 40
0.7669316796
 40
1.0
 40
1.0
 40
1.0
 40
1.0
 10
7.4135581409
 20
-23.6278312164
 30
0.0
 10
7.3877812916
 20
-23.6280260446
 30
0.0
 10
7.336696053
 20
-23.6369744365
 30
0.0
 10
7.2707761173
 20
-23.6746347863
 30
0.0
 10
7.2252178837
 20
-23.7317691274
 30
0.0
 10
7.2138162226
 20
-23.7784428121
 30
0.0
 10
7.2135886019
 20
-23.8010362971
 30
0.0
 11
7.4135581409
 21
-23.6278312164
 31
0.0
 11
7.3374334365
 21
-23.6414468187
 31
0.0
 11
7.272771257
 21
-23.6790927066
 31
0.0
 11
7.2293081507
 21
-23.7351003269
 31
0.0
 11
7.2135886019
 21
-23.8010362971
 31
0.0
  0
SPLINE
  5
798
100
AcDbEntity
  8
ASSI
100
AcDbSpline
 62
253
  6
CONTINUOUS
 70
0
 71
3
 72
11
 73
7
 74
5
 42
0.0000001
 43
0.0000001
 44
0.0000000001
 12
0.290824418
 22
-0.002198128
 32
0.0
 13
0.0029298796
 23
-0.2908179665
 33
0.0
 40
0.0
 40
0.0
 40
0.0
 40
0.0
 40
0.2659011522
 40
0.5231711191
 40
0.7669316794
 40
1.0
 40
1.0
 40
1.0
 40
1.0
 10
-7.4135581409
 20
-23.6278312164
 30
0.0
 10
-7.3877812917
 20
-23.6280260446
 30
0.0
 10
-7.336696053
 20
-23.6369744364
 30
0.0
 10
-7.2707761173
 20
-23.6746347862
 30
0.0
 10
-7.2252178837
 20
-23.7317691273
 30
0.0
 10
-7.2138162226
 20
-23.7784428121
 30
0.0
 10
-7.2135886019
 20
-23.8010362971
 30
0.0
 11
-7.4135581409
 21
-23.6278312164
 31
0.0
 11
-7.3374334365
 21
-23.6414468187
 31
0.0
 11
-7.2727712571
 21
-23.6790927066
 31
0.0
 11
-7.2293081507
 21
-23.7351003269
 31
0.0
 11
-7.2135886019
 21
-23.8010362971
 31
0.0
  0
SPLINE
  5
799
100
AcDbEntity
  8
ASSI
100
AcDbSpline
 62
253
  6
CONTINUOUS
 70
0
 71
3
 72
11
 73
7
 74
5
 42
0.0000001
 43
0.0000001
 44
0.0000000001
 12
-0.0029298744
 22
0.2908179843
 32
0.0
 13
-0.2908244364
 23
0.0021980406
 33
0.0
 40
0.0
 40
0.0
 40
0.0
 40
0.0
 40
0.2330683041
 40
0.4768288064
 40
0.7340987915
 40
1.0
 40
1.0
 40
1.0
 40
1.0
 10
10.5864113981
 20
-23.8010362971
 30
0.0
 10
10.5861837778
 20
-23.7784428123
 30
0.0
 10
10.5747821307
 20
-23.7317691306
 30
0.0
 10
10.5292239105
 20
-23.674634778
 30
0.0
 10
10.4633039672
 20
-23.636974425
 30
0.0
 10
10.4122187154
 20
-23.6280260394
 30
0.0
 10
10.386441859
 20
-23.6278312189
 30
0.0
 11
10.5864113981
 21
-23.8010362971
 31
0.0
 11
10.570691861
 21
-23.7351003247
 31
0.0
 11
10.5272287738
 21
-23.6790927054
 31
0.0
 11
10.4625665866
 21
-23.6414468114
 31
0.0
 11
10.386441859
 21
-23.6278312189
 31
0.0
  0
SPLINE
  5
79A
100
AcDbEntity
  8
ASSI
100
AcDbSpline
 62
253
  6
CONTINUOUS
 70
0
 71
3
 72
21
 73
17
 74
15
 42
0.0000001
 43
0.0000001
 44
0.0000000001
 12
0.3493460813
 22
-0.9369119276
 32
0.0
 13
0.0000017991
 23
-0.9999233193
 33
0.0
 40
0.0
 40
0.0
 40
0.0
 40
0.0
 40
0.0020543828
 40
0.0064449151
 40
0.0131667489
 40
0.0222079328
 40
0.0471826218
 40
0.0811258233
 40
0.1237210341
 40
0.1745719804
 40
0.2331875095
 40
0.2990327518
 40
0.4498428938
 40
0.6213092194
 40
0.8070507576
 40
1.0
 40
1.0
 40
1.0
 40
1.0
 10
3.3786655583
 20
22.2251447178
 30
0.0
 10
3.3789047885
 20
22.2245031259
 30
0.0
 10
3.379014647
 20
22.2223159522
 30
0.0
 10
3.3793948843
 20
22.2179751779
 30
0.0
 10
3.3796438709
 20
22.2112446031
 30
0.0
 10
3.3801249242
 20
22.1976849519
 30
0.0
 10
3.3806220981
 20
22.1750311627
 30
0.0
 10
3.3812062018
 20
22.141204643
 30
0.0
 10
3.3817574022
 20
22.098746892
 30
0.0
 10
3.3822893409
 20
22.0480667933
 30
0.0
 10
3.3827874221
 20
21.9896359664
 30
0.0
 10
3.3834308525
 20
21.8978883273
 30
0.0
 10
3.3840933472
 20
21.7685258935
 30
0.0
 10
3.384665085
 20
21.5992004624
 30
0.0
 10
3.385017461
 20
21.4158290992
 30
0.0
 10
3.3850963648
 20
21.289608505
 30
0.0
 10
3.3850964806
 20
21.2252970227
 30
0.0
 11
3.3786655583
 21
22.2251447178
 31
0.0
 11
3.3789825744
 21
22.2231151015
 31
0.0
 11
3.379298895
 21
22.2187363164
 31
0.0
 11
3.3796136517
 21
22.2120223721
 31
0.0
 11
3.3799259761
 21
22.2029872781
 31
0.0
 11
3.3805399523
 21
22.1780220528
 31
0.0
 11
3.3811349364
 21
22.1440866696
 31
0.0
 11
3.3817055901
 21
22.1014985481
 31
0.0
 11
3.3822466579
 21
22.0506543799
 31
0.0
 11
3.3827529776
 21
21.9920455325
 31
0.0
 11
3.3832196342
 21
21.9262069931
 31
0.0
 11
3.3840170513
 21
21.7754105236
 31
0.0
 11
3.3846091063
 21
21.6039583684
 31
0.0
 11
3.3849734751
 21
21.4182314304
 31
0.0
 11
3.3850964806
 21
21.2252970227
 31
0.0
  0
SPLINE
  5
79B
100
AcDbEntity
  8
ASSI
100
AcDbSpline
 62
253
  6
CONTINUOUS
 70
0
 71
3
 72
21
 73
17
 74
15
 42
0.0000001
 43
0.0000001
 44
0.0000000001
 12
0.0000017991
 22
0.9999233193
 32
0.0
 13
0.3493460799
 23
0.9369119281
 33
0.0
 40
0.0
 40
0.0
 40
0.0
 40
0.0
 40
0.1929492424
 40
0.3786907806
 40
0.5501571062
 40
0.7009672482
 40
0.7668124905
 40
0.8254280196
 40
0.8762789659
 40
0.9188741767
 40
0.9528173782
 40
0.9777920672
 40
0.9868332511
 40
0.9935550849
 40
0.9979456172
 40
1.0
 40
1.0
 40
1.0
 40
1.0
 10
-3.3850964806
 20
21.2252970227
 30
0.0
 10
-3.3850963648
 20
21.289608505
 30
0.0
 10
-3.385017461
 20
21.4158290992
 30
0.0
 10
-3.384665085
 20
21.5992004624
 30
0.0
 10
-3.3840933472
 20
21.7685258935
 30
0.0
 10
-3.3834308525
 20
21.8978883273
 30
0.0
 10
-3.3827874221
 20
21.9896359664
 30
0.0
 10
-3.3822893409
 20
22.0480667933
 30
0.0
 10
-3.3817574022
 20
22.098746892
 30
0.0
 10
-3.3812062018
 20
22.141204643
 30
0.0
 10
-3.3806220981
 20
22.1750311627
 30
0.0
 10
-3.3801249242
 20
22.1976849519
 30
0.0
 10
-3.3796438709
 20
22.2112446031
 30
0.0
 10
-3.3793948843
 20
22.2179751779
 30
0.0
 10
-3.379014647
 20
22.2223159522
 30
0.0
 10
-3.3789047885
 20
22.2245031259
 30
0.0
 10
-3.3786655583
 20
22.2251447178
 30
0.0
 11
-3.3850964806
 21
21.2252970227
 31
0.0
 11
-3.3849734751
 21
21.4182314304
 31
0.0
 11
-3.3846091063
 21
21.6039583684
 31
0.0
 11
-3.3840170513
 21
21.7754105236
 31
0.0
 11
-3.3832196342
 21
21.9262069931
 31
0.0
 11
-3.3827529776
 21
21.9920455325
 31
0.0
 11
-3.3822466579
 21
22.0506543799
 31
0.0
 11
-3.3817055901
 21
22.1014985481
 31
0.0
 11
-3.3811349364
 21
22.1440866696
 31
0.0
 11
-3.3805399523
 21
22.1780220528
 31
0.0
 11
-3.3799259761
 21
22.2029872781
 31
0.0
 11
-3.3796136517
 21
22.2120223721
 31
0.0
 11
-3.379298895
 21
22.2187363164
 31
0.0
 11
-3.3789825744
 21
22.2231151015
 31
0.0
 11
-3.3786655583
 21
22.2251447178
 31
0.0
  0
SPLINE
  5
79C
100
AcDbEntity
  8
ASSI
100
AcDbSpline
 62
253
  6
CONTINUOUS
 70
0
 71
3
 72
21
 73
17
 74
15
 42
0.0000001
 43
0.0000001
 44
0.0000000001
 12
-0.3493460813
 22
0.9369119276
 32
0.0
 13
-0.0000017991
 23
0.9999233193
 33
0.0
 40
0.0
 40
0.0
 40
0.0
 40
0.0
 40
0.0020543828
 40
0.0064449151
 40
0.0131667489
 40
0.0222079328
 40
0.0471826218
 40
0.0811258233
 40
0.1237210341
 40
0.1745719804
 40
0.2331875095
 40
0.2990327518
 40
0.4498428938
 40
0.6213092194
 40
0.8070507576
 40
1.0
 40
1.0
 40
1.0
 40
1.0
 10
-3.3786655583
 20
-22.2251447178
 30
0.0
 10
-3.3789047885
 20
-22.2245031259
 30
0.0
 10
-3.379014647
 20
-22.2223159522
 30
0.0
 10
-3.3793948843
 20
-22.2179751779
 30
0.0
 10
-3.3796438709
 20
-22.2112446031
 30
0.0
 10
-3.3801249242
 20
-22.1976849519
 30
0.0
 10
-3.3806220981
 20
-22.1750311627
 30
0.0
 10
-3.3812062018
 20
-22.141204643
 30
0.0
 10
-3.3817574022
 20
-22.098746892
 30
0.0
 10
-3.3822893409
 20
-22.0480667933
 30
0.0
 10
-3.3827874221
 20
-21.9896359664
 30
0.0
 10
-3.3834308525
 20
-21.8978883273
 30
0.0
 10
-3.3840933472
 20
-21.7685258935
 30
0.0
 10
-3.384665085
 20
-21.5992004624
 30
0.0
 10
-3.385017461
 20
-21.4158290992
 30
0.0
 10
-3.3850963648
 20
-21.289608505
 30
0.0
 10
-3.3850964806
 20
-21.2252970227
 30
0.0
 11
-3.3786655583
 21
-22.2251447178
 31
0.0
 11
-3.3789825744
 21
-22.2231151015
 31
0.0
 11
-3.379298895
 21
-22.2187363164
 31
0.0
 11
-3.3796136517
 21
-22.2120223721
 31
0.0
 11
-3.3799259761
 21
-22.2029872781
 31
0.0
 11
-3.3805399523
 21
-22.1780220528
 31
0.0
 11
-3.3811349364
 21
-22.1440866696
 31
0.0
 11
-3.3817055901
 21
-22.1014985481
 31
0.0
 11
-3.3822466579
 21
-22.0506543799
 31
0.0
 11
-3.3827529776
 21
-21.9920455325
 31
0.0
 11
-3.3832196342
 21
-21.9262069931
 31
0.0
 11
-3.3840170513
 21
-21.7754105236
 31
0.0
 11
-3.3846091063
 21
-21.6039583684
 31
0.0
 11
-3.3849734751
 21
-21.4182314304
 31
0.0
 11
-3.3850964806
 21
-21.2252970227
 31
0.0
  0
SPLINE
  5
79D
100
AcDbEntity
  8
ASSI
100
AcDbSpline
 62
253
  6
CONTINUOUS
 70
0
 71
3
 72
21
 73
17
 74
15
 42
0.0000001
 43
0.0000001
 44
0.0000000001
 12
-0.0000017991
 22
-0.9999233193
 32
0.0
 13
-0.3493460799
 23
-0.9369119281
 33
0.0
 40
0.0
 40
0.0
 40
0.0
 40
0.0
 40
0.1929492424
 40
0.3786907806
 40
0.5501571062
 40
0.7009672482
 40
0.7668124905
 40
0.8254280196
 40
0.8762789659
 40
0.9188741767
 40
0.9528173782
 40
0.9777920672
 40
0.9868332511
 40
0.9935550849
 40
0.9979456172
 40
1.0
 40
1.0
 40
1.0
 40
1.0
 10
3.3850964806
 20
-21.2252970227
 30
0.0
 10
3.3850963648
 20
-21.289608505
 30
0.0
 10
3.385017461
 20
-21.4158290992
 30
0.0
 10
3.384665085
 20
-21.5992004624
 30
0.0
 10
3.3840933472
 20
-21.7685258935
 30
0.0
 10
3.3834308525
 20
-21.8978883273
 30
0.0
 10
3.3827874221
 20
-21.9896359664
 30
0.0
 10
3.3822893409
 20
-22.0480667933
 30
0.0
 10
3.3817574022
 20
-22.098746892
 30
0.0
 10
3.3812062018
 20
-22.141204643
 30
0.0
 10
3.3806220981
 20
-22.1750311627
 30
0.0
 10
3.3801249242
 20
-22.1976849519
 30
0.0
 10
3.3796438709
 20
-22.2112446031
 30
0.0
 10
3.3793948843
 20
-22.2179751779
 30
0.0
 10
3.379014647
 20
-22.2223159522
 30
0.0
 10
3.3789047885
 20
-22.2245031259
 30
0.0
 10
3.3786655583
 20
-22.2251447178
 30
0.0
 11
3.3850964806
 21
-21.2252970227
 31
0.0
 11
3.3849734751
 21
-21.4182314304
 31
0.0
 11
3.3846091063
 21
-21.6039583684
 31
0.0
 11
3.3840170513
 21
-21.7754105236
 31
0.0
 11
3.3832196342
 21
-21.9262069931
 31
0.0
 11
3.3827529776
 21
-21.9920455325
 31
0.0
 11
3.3822466579
 21
-22.0506543799
 31
0.0
 11
3.3817055901
 21
-22.1014985481
 31
0.0
 11
3.3811349364
 21
-22.1440866696
 31
0.0
 11
3.3805399523
 21
-22.1780220528
 31
0.0
 11
3.3799259761
 21
-22.2029872781
 31
0.0
 11
3.3796136517
 21
-22.2120223721
 31
0.0
 11
3.379298895
 21
-22.2187363164
 31
0.0
 11
3.3789825744
 21
-22.2231151015
 31
0.0
 11
3.3786655583
 21
-22.2251447178
 31
0.0
  0
SPLINE
  5
79E
100
AcDbEntity
  8
ASSI
100
AcDbSpline
 62
253
  6
CONTINUOUS
 70
0
 71
3
 72
29
 73
25
 74
23
 42
0.0000001
 43
0.0000001
 44
0.0000000001
 12
0.727109997
 22
-0.2572297694
 32
0.0
 13
0.7263583895
 23
0.2593445431
 33
0.0
 40
0.0
 40
0.0
 40
0.0
 40
0.0
 40
0.0032231171
 40
0.0111232113
 40
0.0236176136
 40
0.0406082266
 40
0.0619191072
 40
0.0873397501
 40
0.149586798
 40
0.2249889815
 40
0.3107352647
 40
0.4035878127
 40
0.5000646111
 40
0.5965389168
 40
0.6893842172
 40
0.7751186269
 40
0.8505041667
 40
0.9127325955
 40
0.938143639
 40
0.9594431793
 40
0.9764191147
 40
0.9888962758
 40
0.9967820666
 40
1.0
 40
1.0
 40
1.0
 40
1.0
 10
-4.351882222
 20
23.6519214817
 30
0.0
 10
-4.3511010351
 20
23.6516451211
 30
0.0
 10
-4.3481608997
 20
23.6517775988
 30
0.0
 10
-4.3421641191
 20
23.6513253656
 30
0.0
 10
-4.3325168189
 20
23.6512513621
 30
0.0
 10
-4.319475483
 20
23.6509871158
 30
0.0
 10
-4.3030883441
 20
23.6508072777
 30
0.0
 10
-4.2750751508
 20
23.650522861
 30
0.0
 10
-4.2331508011
 20
23.6502362193
 30
0.0
 10
-4.1757194513
 20
23.649956869
 30
0.0
 10
-4.1104184735
 20
23.6497515729
 30
0.0
 10
-4.0396995221
 20
23.6496239558
 30
0.0
 10
-3.966222323
 20
23.649581034
 30
0.0
 10
-3.8927469869
 20
23.6496243194
 30
0.0
 10
-3.8220335941
 20
23.6497522438
 30
0.0
 10
-3.7567418079
 20
23.649957762
 30
0.0
 10
-3.6993225894
 20
23.6502372817
 30
0.0
 10
-3.6574097452
 20
23.6505241103
 30
0.0
 10
-3.6294067721
 20
23.6508088207
 30
0.0
 10
-3.6130286875
 20
23.6509884274
 30
0.0
 10
-3.599998733
 20
23.6512524891
 30
0.0
 10
-3.5903626937
 20
23.6513246894
 30
0.0
 10
-3.5843764427
 20
23.6517775732
 30
0.0
 10
-3.5814400368
 20
23.6516439143
 30
0.0
 10
-3.5806609125
 20
23.6519220988
 30
0.0
 11
-4.351882222
 21
23.6519214817
 31
0.0
 11
-4.3494068637
 21
23.6516928893
 31
0.0
 11
-4.3433179951
 21
23.6514658777
 31
0.0
 11
-4.3336840213
 21
23.6512431999
 31
0.0
 11
-4.3205814605
 21
23.6510275278
 31
0.0
 11
-4.304146334
 21
23.6508209404
 31
0.0
 11
-4.284541153
 21
23.6506252526
 31
0.0
 11
-4.236533213
 21
23.6502736235
 31
0.0
 11
-4.1783785492
 21
23.6499854062
 31
0.0
 11
-4.1122454322
 21
23.649771491
 31
0.0
 11
-4.0406312472
 21
23.6496399248
 31
0.0
 11
-3.9662216821
 21
23.6495955842
 31
0.0
 11
-3.8918140398
 21
23.6496402878
 31
0.0
 11
-3.8202054453
 21
23.6497721635
 31
0.0
 11
-3.7540814868
 21
23.6499863128
 31
0.0
 11
-3.6959396609
 21
23.650274723
 31
0.0
 11
-3.6479460836
 21
23.6506266247
 31
0.0
 11
-3.6283483077
 21
23.6508224232
 31
0.0
 11
-3.6119219266
 21
23.6510288629
 31
0.0
 11
-3.5988306774
 21
23.6512439079
 31
0.0
 11
-3.5892099822
 21
23.6514656152
 31
0.0
 11
-3.583132139
 21
23.6516922484
 31
0.0
 11
-3.5806609125
 21
23.6519220988
 31
0.0
  0
SPLINE
  5
79F
100
AcDbEntity
  8
ASSI
100
AcDbSpline
 62
253
  6
CONTINUOUS
 70
0
 71
3
 72
29
 73
25
 74
23
 42
0.0000001
 43
0.0000001
 44
0.0000000001
 12
-0.7263583892
 22
0.2593445439
 32
0.0
 13
-0.7271099964
 23
-0.2572297712
 33
0.0
 40
0.0
 40
0.0
 40
0.0
 40
0.0
 40
0.0032179334
 40
0.0111037242
 40
0.0235808853
 40
0.0405568207
 40
0.061856361
 40
0.0872674045
 40
0.1494958333
 40
0.2248813731
 40
0.3106157828
 40
0.4034610831
 40
0.4999353888
 40
0.5964121872
 40
0.6892647352
 40
0.7750110185
 40
0.850413202
 40
0.9126602499
 40
0.9380808928
 40
0.9593917734
 40
0.9763823864
 40
0.9888767887
 40
0.9967768829
 40
1.0
 40
1.0
 40
1.0
 40
1.0
 10
-3.5806609125
 20
-23.6519220988
 30
0.0
 10
-3.5814400368
 20
-23.6516439143
 30
0.0
 10
-3.5843764427
 20
-23.6517775732
 30
0.0
 10
-3.5903626937
 20
-23.6513246894
 30
0.0
 10
-3.599998733
 20
-23.6512524891
 30
0.0
 10
-3.6130286875
 20
-23.6509884274
 30
0.0
 10
-3.6294067721
 20
-23.6508088207
 30
0.0
 10
-3.6574097452
 20
-23.6505241103
 30
0.0
 10
-3.6993225893
 20
-23.6502372817
 30
0.0
 10
-3.7567418079
 20
-23.649957762
 30
0.0
 10
-3.8220335941
 20
-23.6497522438
 30
0.0
 10
-3.8927469869
 20
-23.6496243194
 30
0.0
 10
-3.966222323
 20
-23.649581034
 30
0.0
 10
-4.0396995221
 20
-23.6496239558
 30
0.0
 10
-4.1104184735
 20
-23.6497515729
 30
0.0
 10
-4.1757194512
 20
-23.649956869
 30
0.0
 10
-4.2331508011
 20
-23.6502362193
 30
0.0
 10
-4.2750751508
 20
-23.650522861
 30
0.0
 10
-4.3030883441
 20
-23.6508072777
 30
0.0
 10
-4.319475483
 20
-23.6509871158
 30
0.0
 10
-4.3325168189
 20
-23.6512513621
 30
0.0
 10
-4.3421641191
 20
-23.6513253656
 30
0.0
 10
-4.3481608997
 20
-23.6517775988
 30
0.0
 10
-4.3511010351
 20
-23.6516451211
 30
0.0
 10
-4.351882222
 20
-23.6519214817
 30
0.0
 11
-3.5806609125
 21
-23.6519220988
 31
0.0
 11
-3.583132139
 21
-23.6516922484
 31
0.0
 11
-3.5892099822
 21
-23.6514656152
 31
0.0
 11
-3.5988306774
 21
-23.6512439079
 31
0.0
 11
-3.6119219266
 21
-23.6510288629
 31
0.0
 11
-3.6283483077
 21
-23.6508224232
 31
0.0
 11
-3.6479460836
 21
-23.6506266247
 31
0.0
 11
-3.6959396609
 21
-23.650274723
 31
0.0
 11
-3.7540814868
 21
-23.6499863128
 31
0.0
 11
-3.8202054453
 21
-23.6497721635
 31
0.0
 11
-3.8918140398
 21
-23.6496402878
 31
0.0
 11
-3.9662216821
 21
-23.6495955842
 31
0.0
 11
-4.0406312472
 21
-23.6496399248
 31
0.0
 11
-4.1122454321
 21
-23.649771491
 31
0.0
 11
-4.1783785492
 21
-23.6499854062
 31
0.0
 11
-4.236533213
 21
-23.6502736235
 31
0.0
 11
-4.284541153
 21
-23.6506252526
 31
0.0
 11
-4.304146334
 21
-23.6508209404
 31
0.0
 11
-4.3205814605
 21
-23.6510275278
 31
0.0
 11
-4.3336840212
 21
-23.6512431999
 31
0.0
 11
-4.3433179951
 21
-23.6514658777
 31
0.0
 11
-4.3494068637
 21
-23.6516928893
 31
0.0
 11
-4.351882222
 21
-23.6519214817
 31
0.0
  0
SPLINE
  5
7A0
100
AcDbEntity
  8
ASSI
100
AcDbSpline
 62
253
  6
CONTINUOUS
 70
0
 71
3
 72
29
 73
25
 74
23
 42
0.0000001
 43
0.0000001
 44
0.0000000001
 12
0.727109997
 22
-0.2572297694
 32
0.0
 13
0.7263583895
 23
0.2593445431
 33
0.0
 40
0.0
 40
0.0
 40
0.0
 40
0.0
 40
0.0032231171
 40
0.0111232113
 40
0.0236176136
 40
0.0406082266
 40
0.0619191072
 40
0.0873397501
 40
0.149586798
 40
0.2249889815
 40
0.3107352647
 40
0.4035878127
 40
0.5000646111
 40
0.5965389168
 40
0.6893842172
 40
0.7751186269
 40
0.8505041667
 40
0.9127325955
 40
0.938143639
 40
0.9594431793
 40
0.9764191147
 40
0.9888962758
 40
0.9967820666
 40
1.0
 40
1.0
 40
1.0
 40
1.0
 10
3.5806627131
 20
23.6519214817
 30
0.0
 10
3.5814439
 20
23.6516451211
 30
0.0
 10
3.5843840353
 20
23.6517775988
 30
0.0
 10
3.590380816
 20
23.6513253656
 30
0.0
 10
3.6000281162
 20
23.6512513621
 30
0.0
 10
3.613069452
 20
23.6509871158
 30
0.0
 10
3.629456591
 20
23.6508072777
 30
0.0
 10
3.6574697843
 20
23.650522861
 30
0.0
 10
3.699394134
 20
23.6502362193
 30
0.0
 10
3.7568254838
 20
23.649956869
 30
0.0
 10
3.8221264616
 20
23.6497515729
 30
0.0
 10
3.8928454129
 20
23.6496239558
 30
0.0
 10
3.9663226121
 20
23.649581034
 30
0.0
 10
4.0397979481
 20
23.6496243194
 30
0.0
 10
4.110511341
 20
23.6497522438
 30
0.0
 10
4.1758031271
 20
23.649957762
 30
0.0
 10
4.2332223457
 20
23.6502372817
 30
0.0
 10
4.2751351899
 20
23.6505241103
 30
0.0
 10
4.303138163
 20
23.6508088207
 30
0.0
 10
4.3195162475
 20
23.6509884274
 30
0.0
 10
4.3325462021
 20
23.6512524891
 30
0.0
 10
4.3421822413
 20
23.6513246894
 30
0.0
 10
4.3481684923
 20
23.6517775732
 30
0.0
 10
4.3511048983
 20
23.6516439143
 30
0.0
 10
4.3518840226
 20
23.6519220988
 30
0.0
 11
3.5806627131
 21
23.6519214817
 31
0.0
 11
3.5831380714
 21
23.6516928893
 31
0.0
 11
3.5892269399
 21
23.6514658777
 31
0.0
 11
3.5988609138
 21
23.6512431999
 31
0.0
 11
3.6119634746
 21
23.6510275278
 31
0.0
 11
3.628398601
 21
23.6508209404
 31
0.0
 11
3.6480037821
 21
23.6506252526
 31
0.0
 11
3.6960117221
 21
23.6502736235
 31
0.0
 11
3.7541663859
 21
23.6499854062
 31
0.0
 11
3.8202995029
 21
23.649771491
 31
0.0
 11
3.8919136879
 21
23.6496399248
 31
0.0
 11
3.9663232529
 21
23.6495955842
 31
0.0
 11
4.0407308953
 21
23.6496402878
 31
0.0
 11
4.1123394898
 21
23.6497721635
 31
0.0
 11
4.1784634483
 21
23.6499863128
 31
0.0
 11
4.2366052742
 21
23.650274723
 31
0.0
 11
4.2845988515
 21
23.6506266247
 31
0.0
 11
4.3041966274
 21
23.6508224232
 31
0.0
 11
4.3206230085
 21
23.6510288629
 31
0.0
 11
4.3337142577
 21
23.6512439079
 31
0.0
 11
4.3433349528
 21
23.6514656152
 31
0.0
 11
4.3494127961
 21
23.6516922484
 31
0.0
 11
4.3518840226
 21
23.6519220988
 31
0.0
  0
SPLINE
  5
7A1
100
AcDbEntity
  8
ASSI
100
AcDbSpline
 62
253
  6
CONTINUOUS
 70
0
 71
3
 72
29
 73
25
 74
23
 42
0.0000001
 43
0.0000001
 44
0.0000000001
 12
-0.7263583892
 22
0.2593445439
 32
0.0
 13
-0.7271099964
 23
-0.2572297712
 33
0.0
 40
0.0
 40
0.0
 40
0.0
 40
0.0
 40
0.0032179334
 40
0.0111037242
 40
0.0235808853
 40
0.0405568207
 40
0.061856361
 40
0.0872674045
 40
0.1494958333
 40
0.2248813731
 40
0.3106157828
 40
0.4034610831
 40
0.4999353888
 40
0.5964121872
 40
0.6892647352
 40
0.7750110185
 40
0.850413202
 40
0.9126602499
 40
0.9380808928
 40
0.9593917734
 40
0.9763823864
 40
0.9888767887
 40
0.9967768829
 40
1.0
 40
1.0
 40
1.0
 40
1.0
 10
4.3518840226
 20
-23.6519220988
 30
0.0
 10
4.3511048983
 20
-23.6516439143
 30
0.0
 10
4.3481684923
 20
-23.6517775732
 30
0.0
 10
4.3421822413
 20
-23.6513246894
 30
0.0
 10
4.3325462021
 20
-23.6512524891
 30
0.0
 10
4.3195162475
 20
-23.6509884274
 30
0.0
 10
4.303138163
 20
-23.6508088207
 30
0.0
 10
4.2751351899
 20
-23.6505241103
 30
0.0
 10
4.2332223457
 20
-23.6502372817
 30
0.0
 10
4.1758031272
 20
-23.649957762
 30
0.0
 10
4.110511341
 20
-23.6497522438
 30
0.0
 10
4.0397979481
 20
-23.6496243194
 30
0.0
 10
3.9663226121
 20
-23.649581034
 30
0.0
 10
3.8928454129
 20
-23.6496239558
 30
0.0
 10
3.8221264616
 20
-23.6497515729
 30
0.0
 10
3.7568254838
 20
-23.649956869
 30
0.0
 10
3.699394134
 20
-23.6502362193
 30
0.0
 10
3.6574697843
 20
-23.650522861
 30
0.0
 10
3.629456591
 20
-23.6508072777
 30
0.0
 10
3.613069452
 20
-23.6509871158
 30
0.0
 10
3.6000281162
 20
-23.6512513621
 30
0.0
 10
3.590380816
 20
-23.6513253656
 30
0.0
 10
3.5843840353
 20
-23.6517775988
 30
0.0
 10
3.5814439
 20
-23.6516451211
 30
0.0
 10
3.5806627131
 20
-23.6519214817
 30
0.0
 11
4.3518840226
 21
-23.6519220988
 31
0.0
 11
4.3494127961
 21
-23.6516922484
 31
0.0
 11
4.3433349529
 21
-23.6514656152
 31
0.0
 11
4.3337142577
 21
-23.6512439079
 31
0.0
 11
4.3206230085
 21
-23.6510288629
 31
0.0
 11
4.3041966274
 21
-23.6508224232
 31
0.0
 11
4.2845988515
 21
-23.6506266247
 31
0.0
 11
4.2366052742
 21
-23.650274723
 31
0.0
 11
4.1784634483
 21
-23.6499863128
 31
0.0
 11
4.1123394898
 21
-23.6497721635
 31
0.0
 11
4.0407308953
 21
-23.6496402878
 31
0.0
 11
3.966323253
 21
-23.6495955842
 31
0.0
 11
3.8919136879
 21
-23.6496399248
 31
0.0
 11
3.8202995029
 21
-23.649771491
 31
0.0
 11
3.7541663859
 21
-23.6499854062
 31
0.0
 11
3.6960117221
 21
-23.6502736235
 31
0.0
 11
3.6480037821
 21
-23.6506252526
 31
0.0
 11
3.6283986011
 21
-23.6508209404
 31
0.0
 11
3.6119634746
 21
-23.6510275278
 31
0.0
 11
3.5988609138
 21
-23.6512431999
 31
0.0
 11
3.58922694
 21
-23.6514658777
 31
0.0
 11
3.5831380714
 21
-23.6516928893
 31
0.0
 11
3.5806627131
 21
-23.6519214817
 31
0.0
  0
SPLINE
  5
7A2
100
AcDbEntity
  8
ASSI
100
AcDbSpline
 62
253
  6
CONTINUOUS
 70
0
 71
3
 72
14
 73
10
 74
8
 42
0.0000001
 43
0.0000001
 44
0.0000000001
 12
0.0353890263
 22
-0.0353420028
 32
0.0
 13
-0.0000000042
 23
-0.0500144013
 33
0.0
 40
0.0
 40
0.0
 40
0.0
 40
0.0
 40
0.0223894975
 40
0.0813317816
 40
0.1747574197
 40
0.2991860683
 40
0.4499516653
 40
0.6213967915
 40
1.0
 40
1.0
 40
1.0
 40
1.0
 10
7.2131674569
 20
24.286863004
 30
0.0
 10
7.2134315711
 20
24.2865992408
 30
0.0
 10
7.2131956378
 20
24.2850244763
 30
0.0
 10
7.2136472508
 20
24.2823117577
 30
0.0
 10
7.2136160178
 20
24.2775938081
 30
0.0
 10
7.2138079016
 20
24.2714929699
 30
0.0
 10
7.2138851817
 20
24.2640319941
 30
0.0
 10
7.2140004446
 20
24.2523553376
 30
0.0
 10
7.214024979
 20
24.2431824902
 30
0.0
 10
7.2140249785
 20
24.2368706193
 30
0.0
 11
7.2131674569
 21
24.286863004
 31
0.0
 11
7.2133354804
 21
24.2857558843
 31
0.0
 11
7.2134966413
 21
24.2828123298
 31
0.0
 11
7.2136448927
 21
24.2781420548
 31
0.0
 11
7.2137746404
 21
24.2719201832
 31
0.0
 11
7.2138810001
 21
24.2643804822
 31
0.0
 11
7.2139599679
 21
24.2558061205
 31
0.0
 11
7.2140249785
 21
24.2368706193
 31
0.0
  0
SPLINE
  5
7A3
100
AcDbEntity
  8
ASSI
100
AcDbSpline
 62
253
  6
CONTINUOUS
 70
0
 71
3
 72
9
 73
5
 74
3
 42
0.0000001
 43
0.0000001
 44
0.0000000001
 12
0.0000000101
 22
-0.0433040274
 32
0.0
 13
-0.0013086635
 23
-0.0432842487
 33
0.0
 40
0.0
 40
0.0
 40
0.0
 40
0.0
 40
0.2987936858
 40
1.0
 40
1.0
 40
1.0
 40
1.0
 10
7.2140249785
 20
23.8443375673
 30
0.0
 10
7.2140249795
 20
23.8400245773
 30
0.0
 10
7.2139818319
 20
23.8255903806
 30
0.0
 10
7.2138944829
 20
23.8111533599
 30
0.0
 10
7.2135886019
 20
23.8010362971
 30
0.0
 11
7.2140249785
 21
23.8443375673
 31
0.0
 11
7.2139952488
 21
23.8313986315
 31
0.0
 11
7.2135886019
 21
23.8010362971
 31
0.0
  0
SPLINE
  5
7A4
100
AcDbEntity
  8
ASSI
100
AcDbSpline
 62
253
  6
CONTINUOUS
 70
0
 71
3
 72
9
 73
5
 74
3
 42
0.0000001
 43
0.0000001
 44
0.0000000001
 12
0.0013086624
 22
-0.0432844713
 32
0.0
 13
-0.0000000121
 23
-0.0433042498
 33
0.0
 40
0.0
 40
0.0
 40
0.0
 40
0.0
 40
0.1834852671
 40
1.0
 40
1.0
 40
1.0
 40
1.0
 10
7.2135886019
 20
-23.8010362971
 30
0.0
 10
7.213668642
 20
-23.8036836514
 30
0.0
 10
7.2139645839
 20
-23.8181157781
 30
0.0
 10
7.2140249818
 20
-23.8325513813
 30
0.0
 10
7.2140249785
 20
-23.8443375673
 30
0.0
 11
7.2135886019
 21
-23.8010362971
 31
0.0
 11
7.2137693139
 21
-23.8089799337
 31
0.0
 11
7.2140249785
 21
-23.8443375673
 31
0.0
  0
SPLINE
  5
7A5
100
AcDbEntity
  8
ASSI
100
AcDbSpline
 62
253
  6
CONTINUOUS
 70
0
 71
3
 72
14
 73
10
 74
8
 42
0.0000001
 43
0.0000001
 44
0.0000000001
 12
0.0000000202
 22
-0.0500143984
 32
0.0
 13
-0.0353703931
 23
-0.0353606467
 33
0.0
 40
0.0
 40
0.0
 40
0.0
 40
0.0
 40
0.3784780939
 40
0.5499154336
 40
0.70069654
 40
0.8251533062
 40
0.9186155849
 40
0.9775909374
 40
1.0
 40
1.0
 40
1.0
 40
1.0
 10
7.2140249785
 20
-24.2368706193
 30
0.0
 10
7.2140249811
 20
-24.243180404
 30
0.0
 10
7.2140004536
 20
-24.2523510299
 30
0.0
 10
7.2138852552
 20
-24.2640257404
 30
0.0
 10
7.2138079839
 20
-24.2714872909
 30
0.0
 10
7.2136161455
 20
-24.2775895227
 30
0.0
 10
7.2136473315
 20
-24.282308992
 30
0.0
 10
7.2131957107
 20
-24.2850233654
 30
0.0
 10
7.2134316627
 20
-24.2865988711
 30
0.0
 10
7.2131674569
 20
-24.2868630041
 30
0.0
 11
7.2140249785
 21
-24.2368706193
 31
0.0
 11
7.213960012
 21
-24.255799862
 31
0.0
 11
7.213881076
 21
-24.264373834
 31
0.0
 11
7.2137747412
 21
-24.2719143106
 31
0.0
 11
7.2136450074
 21
-24.2781375888
 31
0.0
 11
7.2134967497
 21
-24.2828096967
 31
0.0
 11
7.2133355514
 21
-24.2857549054
 31
0.0
 11
7.2131674569
 21
-24.2868630041
 31
0.0
  0
LINE
  5
7A6
100
AcDbEntity
  8
ASSI
100
AcDbLine
 62
7
  6
CONTINUOUS
 10
3.6638210018
 20
13.9837829343
 11
3.3756223256
 21
13.9838696995
  0
LINE
  5
7A7
100
AcDbEntity
  8
ASSI
100
AcDbLine
 62
7
  6
CONTINUOUS
 10
-3.3756223256
 20
13.9838696995
 11
-3.6638210018
 21
13.9837829343
  0
SPLINE
  5
7A8
100
AcDbEntity
  8
ASSI
100
AcDbSpline
 62
253
  6
CONTINUOUS
 70
0
 71
3
 72
14
 73
10
 74
8
 42
0.0000001
 43
0.0000001
 44
0.0000000001
 12
0.0000000096
 22
0.0500143991
 32
0.0
 13
-0.0353803504
 23
0.0353506849
 33
0.0
 40
0.0
 40
0.0
 40
0.0
 40
0.0
 40
0.378504234
 40
0.5499427703
 40
0.700718565
 40
0.8251677004
 40
0.9186227395
 40
0.9775936253
 40
1.0
 40
1.0
 40
1.0
 40
1.0
 10
-10.5859750215
 20
24.2368706193
 30
0.0
 10
-10.5859750203
 20
24.2431808399
 30
0.0
 10
-10.585999548
 20
24.2523519239
 30
0.0
 10
-10.5861147616
 20
24.2640269965
 30
0.0
 10
-10.5861920276
 20
24.2714883625
 30
0.0
 10
-10.5863838892
 20
24.2775902279
 30
0.0
 10
-10.5863526466
 20
24.2823094452
 30
0.0
 10
-10.5868043613
 20
24.2850234483
 30
0.0
 10
-10.5865682946
 20
24.2865989772
 30
0.0
 10
-10.5868325431
 20
24.286863004
 30
0.0
 11
-10.5859750215
 21
24.2368706193
 31
0.0
 11
-10.5860399979
 21
24.2558011696
 31
0.0
 11
-10.5861189401
 21
24.2643752016
 31
0.0
 11
-10.586225278
 21
24.2719154125
 31
0.0
 11
-10.5863550108
 21
24.2781383091
 31
0.0
 11
-10.5865032645
 21
24.282810055
 31
0.0
 11
-10.5866644551
 21
24.2857550404
 31
0.0
 11
-10.5868325431
 21
24.286863004
 31
0.0
  0
SPLINE
  5
7A9
100
AcDbEntity
  8
ASSI
100
AcDbSpline
 62
253
  6
CONTINUOUS
 70
0
 71
3
 72
9
 73
5
 74
3
 42
0.0000001
 43
0.0000001
 44
0.0000000001
 12
-6.0381159707
 22
0.004265748
 32
0.0
 13
-6.0381173699
 23
0.0011400957
 33
0.0
 40
0.0
 40
0.0
 40
0.0
 40
0.0
 40
0.2499211039
 40
1.0
 40
1.0
 40
1.0
 40
1.0
 10
8.2428039717
 20
9.9927086052
 30
0.0
 10
7.7397864355
 20
9.993063972
 30
0.0
 10
5.7270810219
 20
9.9943554964
 30
0.0
 10
3.714375274
 20
9.9951258818
 30
0.0
 10
2.2046871368
 20
9.9954109357
 30
0.0
 11
8.2428039717
 21
9.9927086052
 31
0.0
 11
6.7337512971
 21
9.9936769798
 31
0.0
 11
2.2046871368
 21
9.9954109357
 31
0.0
  0
SPLINE
  5
7AA
100
AcDbEntity
  8
ASSI
100
AcDbSpline
 62
253
  6
CONTINUOUS
 70
0
 71
3
 72
9
 73
5
 74
3
 42
0.0000001
 43
0.0000001
 44
0.0000000001
 12
0.0013082203
 22
0.0432844827
 32
0.0
 13
-0.0000006052
 23
0.0433042479
 33
0.0
 40
0.0
 40
0.0
 40
0.0
 40
0.0
 40
0.1835083404
 40
1.0
 40
1.0
 40
1.0
 40
1.0
 10
-10.5864113981
 20
23.8010362971
 30
0.0
 10
-10.586331375
 20
23.803683985
 30
0.0
 10
-10.5860357894
 20
23.818116118
 30
0.0
 10
-10.5859748568
 20
23.8325517149
 30
0.0
 10
-10.5859750215
 20
23.8443375673
 30
0.0
 11
-10.5864113981
 21
23.8010362971
 31
0.0
 11
-10.5862307922
 21
23.8089809352
 31
0.0
 11
-10.5859750215
 21
23.8443375673
 31
0.0
  0
SPLINE
  5
7AB
100
AcDbEntity
  8
ASSI
100
AcDbSpline
 62
253
  6
CONTINUOUS
 70
0
 71
3
 72
9
 73
5
 74
3
 42
0.0000001
 43
0.0000001
 44
0.0000000001
 12
0.0049828038
 22
17.5855213382
 32
0.0
 13
-0.0058448317
 23
17.5855210729
 33
0.0
 40
0.0
 40
0.0
 40
0.0
 40
0.0
 40
0.750014563
 40
1.0
 40
1.0
 40
1.0
 40
1.0
 10
8.7428449799
 20
-8.0929407248
 30
0.0
 10
8.744090705
 20
-3.696475024
 30
0.0
 10
8.7443980793
 20
2.1653659358
 30
0.0
 10
8.7429011343
 20
8.0272064347
 30
0.0
 10
8.7424140934
 20
9.4925811579
 30
0.0
 11
8.7428449799
 21
-8.0929407248
 31
0.0
 11
8.7435368064
 21
5.0964568889
 31
0.0
 11
8.7424140934
 21
9.4925811579
 31
0.0
  0
LINE
  5
7AC
100
AcDbEntity
  8
ASSI
100
AcDbLine
 62
253
  6
CONTINUOUS
 10
7.8000000931
 20
-8.5934810219
 11
8.2433429652
 21
-8.5931762128
  0
SPLINE
  5
7AD
100
AcDbEntity
  8
ASSI
100
AcDbSpline
 62
253
  6
CONTINUOUS
 70
0
 71
3
 72
9
 73
5
 74
3
 42
0.0000001
 43
0.0000001
 44
0.0000000001
 12
-0.0000001007
 22
0.0433040262
 32
0.0
 13
-0.0013110356
 23
0.0432841757
 33
0.0
 40
0.0
 40
0.0
 40
0.0
 40
0.0
 40
0.2986840764
 40
1.0
 40
1.0
 40
1.0
 40
1.0
 10
-10.5859750215
 20
-23.8443375673
 30
0.0
 10
-10.5859750315
 20
-23.8400261596
 30
0.0
 10
-10.586018476
 20
-23.8255919674
 30
0.0
 10
-10.5861049147
 20
-23.8111549243
 30
0.0
 10
-10.5864113981
 20
-23.8010362971
 30
0.0
 11
-10.5859750215
 21
-23.8443375673
 31
0.0
 11
-10.5860048195
 21
-23.8314033786
 31
0.0
 11
-10.5864113981
 21
-23.8010362971
 31
0.0
  0
SPLINE
  5
7AE
100
AcDbEntity
  8
ASSI
100
AcDbSpline
 62
253
  6
CONTINUOUS
 70
0
 71
3
 72
14
 73
10
 74
8
 42
0.0000001
 43
0.0000001
 44
0.0000000001
 12
0.0353766335
 22
0.0353544067
 32
0.0
 13
-0.0000000128
 23
0.0500144006
 33
0.0
 40
0.0
 40
0.0
 40
0.0
 40
0.0
 40
0.0223938262
 40
0.0813435371
 40
0.1747762899
 40
0.2992084076
 40
0.4499727612
 40
0.6214131066
 40
1.0
 40
1.0
 40
1.0
 40
1.0
 10
-10.5868325431
 20
-24.2868630041
 30
0.0
 10
-10.5865684704
 20
-24.2865990972
 30
0.0
 10
-10.5868042691
 20
-24.2850243059
 30
0.0
 10
-10.5863527816
 20
-24.2823111119
 30
0.0
 10
-10.5863839347
 20
-24.2775929539
 30
0.0
 10
-10.5861920926
 20
-24.2714919193
 30
0.0
 10
-10.5861148036
 20
-24.2640310015
 30
0.0
 10
-10.585999556
 20
-24.2523547109
 30
0.0
 10
-10.5859750199
 20
-24.2431822181
 30
0.0
 10
-10.5859750215
 20
-24.2368706193
 30
0.0
 11
-10.5868325431
 21
-24.2868630041
 31
0.0
 11
-10.5866645041
 21
-24.2857556677
 31
0.0
 11
-10.5865033361
 21
-24.2828117416
 31
0.0
 11
-10.5863550837
 21
-24.2781411107
 31
0.0
 11
-10.5862253407
 21
-24.2719190655
 31
0.0
 11
-10.5861189877
 21
-24.2643794268
 31
0.0
 11
-10.5860400261
 21
-24.2558053043
 31
0.0
 11
-10.5859750215
 21
-24.2368706193
 31
0.0
  0
SPLINE
  5
7AF
100
AcDbEntity
  8
ASSI
100
AcDbSpline
 62
253
  6
CONTINUOUS
 70
0
 71
3
 72
25
 73
21
 74
19
 42
0.0000001
 43
0.0000001
 44
0.0000000001
 12
-0.1903870567
 22
0.1934662786
 32
0.0
 13
-0.1885513186
 23
-0.1952558131
 33
0.0
 40
0.0
 40
0.0
 40
0.0
 40
0.0
 40
0.0033072054
 40
0.0112291006
 40
0.0237289288
 40
0.0407196882
 40
0.0874402101
 40
0.1496573615
 40
0.2250211771
 40
0.3107333794
 40
0.4999993905
 40
0.6892659448
 40
0.7749790554
 40
0.8503466322
 40
0.9125642955
 40
0.9592809878
 40
0.9762728712
 40
0.9887770487
 40
0.9967006776
 40
1.0
 40
1.0
 40
1.0
 40
1.0
 10
-3.8306228363
 20
-23.9018840226
 30
0.0
 10
-3.8308327193
 20
-23.901670745
 30
0.0
 10
-3.8319779444
 20
-23.9016673067
 30
0.0
 10
-3.8339977802
 20
-23.901331217
 30
0.0
 10
-3.8374386194
 20
-23.9011946585
 30
0.0
 10
-3.844291636
 20
-23.9008436703
 30
0.0
 10
-3.8557063604
 20
-23.9005407828
 30
0.0
 10
-3.8723667868
 20
-23.9001927377
 30
0.0
 10
-3.89257225
 20
-23.8999212766
 30
0.0
 10
-3.9242676361
 20
-23.8996345596
 30
0.0
 10
-3.9662723797
 20
-23.8995040986
 30
0.0
 10
-4.0082772402
 20
-23.8996345298
 30
0.0
 10
-4.0399730481
 20
-23.8999212826
 30
0.0
 10
-4.0601790994
 20
-23.9001926342
 30
0.0
 10
-4.0768392338
 20
-23.9005408964
 30
0.0
 10
-4.0882544915
 20
-23.9008432663
 30
0.0
 10
-4.09510662
 20
-23.9011950848
 30
0.0
 10
-4.098549934
 20
-23.9013302221
 30
0.0
 10
-4.1005661804
 20
-23.9016688371
 30
0.0
 10
-4.101714735
 20
-23.9016692853
 30
0.0
 10
-4.1019220988
 20
-23.9018840226
 30
0.0
 11
-3.8306228363
 21
-23.9018840226
 31
0.0
 11
-3.8314908767
 21
-23.9016552219
 31
0.0
 11
-3.8336291484
 21
-23.9014283662
 31
0.0
 11
-3.8370147317
 21
-23.901205989
 31
0.0
 11
-3.8416215677
 21
-23.9009905596
 31
0.0
 11
-3.8542967292
 21
-23.9005884107
 31
0.0
 11
-3.8711809142
 21
-23.9002364928
 31
0.0
 11
-3.8916351821
 21
-23.8999478674
 31
0.0
 11
-3.9148994044
 21
-23.8997336642
 31
0.0
 11
-3.9662723376
 21
-23.8995572797
 31
0.0
 11
-4.0176454184
 21
-23.8997336478
 31
0.0
 11
-4.0409098873
 21
-23.8999478441
 31
0.0
 11
-4.0613651764
 21
-23.9002364582
 31
0.0
 11
-4.0782495006
 21
-23.9005883653
 31
0.0
 11
-4.0909236219
 21
-23.9009905227
 31
0.0
 11
-4.0955307626
 21
-23.901205965
 31
0.0
 11
-4.0989175283
 21
-23.9014283546
 31
0.0
 11
-4.1010562723
 21
-23.9016552184
 31
0.0
 11
-4.1019220988
 21
-23.9018840226
 31
0.0
  0
SPLINE
  5
7B0
100
AcDbEntity
  8
ASSI
100
AcDbSpline
 62
253
  6
CONTINUOUS
 70
0
 71
3
 72
25
 73
21
 74
19
 42
0.0000001
 43
0.0000001
 44
0.0000000001
 12
-0.1903870567
 22
0.1934662786
 32
0.0
 13
-0.1885513186
 23
-0.1952558131
 33
0.0
 40
0.0
 40
0.0
 40
0.0
 40
0.0
 40
0.0033072054
 40
0.0112291006
 40
0.0237289288
 40
0.0407196882
 40
0.0874402101
 40
0.1496573615
 40
0.2250211771
 40
0.3107333794
 40
0.4999993905
 40
0.6892659448
 40
0.7749790554
 40
0.8503466322
 40
0.9125642955
 40
0.9592809878
 40
0.9762728712
 40
0.9887770487
 40
0.9967006776
 40
1.0
 40
1.0
 40
1.0
 40
1.0
 10
4.1019220988
 20
-23.9018840226
 30
0.0
 10
4.1017122158
 20
-23.901670745
 30
0.0
 10
4.1005669907
 20
-23.9016673067
 30
0.0
 10
4.0985471548
 20
-23.901331217
 30
0.0
 10
4.0951063157
 20
-23.9011946585
 30
0.0
 10
4.088253299
 20
-23.9008436703
 30
0.0
 10
4.0768385747
 20
-23.9005407828
 30
0.0
 10
4.0601781483
 20
-23.9001927377
 30
0.0
 10
4.039972685
 20
-23.8999212766
 30
0.0
 10
4.0082772989
 20
-23.8996345596
 30
0.0
 10
3.9662725553
 20
-23.8995040986
 30
0.0
 10
3.9242676949
 20
-23.8996345298
 30
0.0
 10
3.8925718869
 20
-23.8999212826
 30
0.0
 10
3.8723658356
 20
-23.9001926342
 30
0.0
 10
3.8557057013
 20
-23.9005408964
 30
0.0
 10
3.8442904436
 20
-23.9008432663
 30
0.0
 10
3.8374383151
 20
-23.9011950848
 30
0.0
 10
3.8339950011
 20
-23.9013302221
 30
0.0
 10
3.8319787547
 20
-23.9016688371
 30
0.0
 10
3.8308302001
 20
-23.9016692853
 30
0.0
 10
3.8306228363
 20
-23.9018840226
 30
0.0
 11
4.1019220988
 21
-23.9018840226
 31
0.0
 11
4.1010540584
 21
-23.9016552219
 31
0.0
 11
4.0989157867
 21
-23.9014283662
 31
0.0
 11
4.0955302034
 21
-23.901205989
 31
0.0
 11
4.0909233674
 21
-23.9009905596
 31
0.0
 11
4.0782482058
 21
-23.9005884107
 31
0.0
 11
4.0613640208
 21
-23.9002364928
 31
0.0
 11
4.040909753
 21
-23.8999478674
 31
0.0
 11
4.0176455306
 21
-23.8997336642
 31
0.0
 11
3.9662725974
 21
-23.8995572797
 31
0.0
 11
3.9148995167
 21
-23.8997336478
 31
0.0
 11
3.8916350477
 21
-23.8999478441
 31
0.0
 11
3.8711797587
 21
-23.9002364582
 31
0.0
 11
3.8542954345
 21
-23.9005883653
 31
0.0
 11
3.8416213132
 21
-23.9009905227
 31
0.0
 11
3.8370141724
 21
-23.901205965
 31
0.0
 11
3.8336274068
 21
-23.9014283546
 31
0.0
 11
3.8314886627
 21
-23.9016552184
 31
0.0
 11
3.8306228363
 21
-23.9018840226
 31
0.0
  0
LINE
  5
7B1
100
AcDbEntity
  8
ASSI
100
AcDbLine
 62
253
  6
CONTINUOUS
 10
-1.4269047375
 20
-10.8976486722
 11
1.4269047375
 21
-10.8976486722
  0
LINE
  5
7B2
100
AcDbEntity
  8
ASSI
100
AcDbLine
 62
7
  6
CONTINUOUS
 10
1.4269047495
 20
-10.8975705317
 11
1.4271045151
 21
-11.8983585566
  0
LINE
  5
7B3
100
AcDbEntity
  8
ASSI
100
AcDbLine
 62
7
  6
CONTINUOUS
 10
3.1367604091
 20
-11.8976912156
 11
3.1385317241
 21
-10.3846254517
  0
SPLINE
  5
7B4
100
AcDbEntity
  8
ASSI
100
AcDbSpline
 62
7
  6
CONTINUOUS
 70
0
 71
3
 72
9
 73
5
 74
3
 42
0.0000001
 43
0.0000001
 44
0.0000000001
 12
6.2974373315
 22
0.0008454665
 32
0.0
 13
6.2974368743
 23
0.0025442779
 33
0.0
 40
0.0
 40
0.0
 40
0.0
 40
0.0
 40
0.2500817002
 40
1.0
 40
1.0
 40
1.0
 40
1.0
 10
3.1385317241
 20
-10.3846254517
 30
0.0
 10
3.6634896691
 20
-10.3845549731
 30
0.0
 10
5.7626354361
 20
-10.3842024308
 30
0.0
 10
7.8617811557
 20
-10.3835670012
 30
0.0
 10
9.4359688737
 20
-10.382931001
 30
0.0
 11
3.1385317241
 21
-10.3846254517
 31
0.0
 11
4.7134055509
 21
-10.3843609523
 31
0.0
 11
9.4359688737
 21
-10.382931001
 31
0.0
  0
SPLINE
  5
7B5
100
AcDbEntity
  8
ASSI
100
AcDbSpline
 62
7
  6
CONTINUOUS
 70
0
 71
3
 72
9
 73
5
 74
3
 42
0.0000001
 43
0.0000001
 44
0.0000000001
 12
0.0054474665
 22
-9.9731612866
 32
0.0
 13
0.0106860916
 23
-9.9731570493
 33
0.0
 40
0.0
 40
0.0
 40
0.0
 40
0.0
 40
0.2500548425
 40
1.0
 40
1.0
 40
1.0
 40
1.0
 10
9.4359688737
 20
-10.382931001
 30
0.0
 10
9.4364229288
 20
-11.2142100927
 30
0.0
 10
9.4384569118
 20
-14.5385970655
 30
0.0
 10
9.4413635401
 20
-17.8629835045
 30
0.0
 10
9.4440348677
 20
-20.3560904491
 30
0.0
 11
9.4359688737
 21
-10.382931001
 31
0.0
 11
9.4374947077
 21
-12.8767681814
 31
0.0
 11
9.4440348677
 21
-20.3560904491
 31
0.0
  0
LINE
  5
7B6
100
AcDbEntity
  8
ASSI
100
AcDbLine
 62
253
  6
CONTINUOUS
 10
9.4440355868
 20
-20.3557126458
 11
7.3693876093
 21
-20.3556869964
  0
LINE
  5
7B7
100
AcDbEntity
  8
ASSI
100
AcDbLine
 62
7
  6
CONTINUOUS
 10
7.0711403853
 20
-16.5955571999
 11
6.7287578995
 21
-16.5935020372
  0
LINE
  5
7B8
100
AcDbEntity
  8
ASSI
100
AcDbLine
 62
253
  6
CONTINUOUS
 10
6.4303114599
 20
-20.2893446452
 11
5.4398915936
 21
-20.2893360326
  0
LINE
  5
7B9
100
AcDbEntity
  8
ASSI
100
AcDbLine
 62
7
  6
CONTINUOUS
 10
5.4398918604
 20
-20.289092118
 11
5.4401448467
 21
-19.9299329132
  0
LINE
  5
7BA
100
AcDbEntity
  8
ASSI
100
AcDbLine
 62
7
  6
CONTINUOUS
 10
-5.4401448467
 20
-19.9299329132
 11
-5.4398918604
 21
-20.289092118
  0
LINE
  5
7BB
100
AcDbEntity
  8
ASSI
100
AcDbLine
 62
253
  6
CONTINUOUS
 10
-5.4398916121
 20
-20.289319113
 11
-6.4303114818
 21
-20.2893277257
  0
LINE
  5
7BC
100
AcDbEntity
  8
ASSI
100
AcDbLine
 62
7
  6
CONTINUOUS
 10
-6.7287578995
 20
-16.5935020372
 11
-7.0711403853
 21
-16.5955571999
  0
LINE
  5
7BD
100
AcDbEntity
  8
ASSI
100
AcDbLine
 62
253
  6
CONTINUOUS
 10
-7.3693876197
 20
-20.3556801653
 11
-9.4440355998
 21
-20.3557058148
  0
SPLINE
  5
7BE
100
AcDbEntity
  8
ASSI
100
AcDbSpline
 62
7
  6
CONTINUOUS
 70
0
 71
3
 72
9
 73
5
 74
3
 42
0.0000001
 43
0.0000001
 44
0.0000000001
 12
0.0106860916
 22
9.9731570493
 32
0.0
 13
0.0054474665
 23
9.9731612866
 33
0.0
 40
0.0
 40
0.0
 40
0.0
 40
0.0
 40
0.2499387924
 40
1.0
 40
1.0
 40
1.0
 40
1.0
 10
-9.4440348677
 20
-20.3560904491
 30
0.0
 10
-9.443144578
 20
-19.5251975059
 30
0.0
 10
-9.4398009996
 20
-16.2008115923
 30
0.0
 10
-9.4373308515
 20
-12.8764248004
 30
0.0
 10
-9.4359688737
 20
-10.382931001
 30
0.0
 11
-9.4440348677
 21
-20.3560904491
 31
0.0
 11
-9.4415277608
 21
-17.8634114496
 31
0.0
 11
-9.4359688737
 21
-10.382931001
 31
0.0
  0
SPLINE
  5
7BF
100
AcDbEntity
  8
ASSI
100
AcDbSpline
 62
7
  6
CONTINUOUS
 70
0
 71
3
 72
9
 73
5
 74
3
 42
0.0000001
 43
0.0000001
 44
0.0000000001
 12
6.2974368743
 22
-0.0025442779
 32
0.0
 13
6.2974373315
 23
-0.0008454665
 33
0.0
 40
0.0
 40
0.0
 40
0.0
 40
0.0
 40
0.2499031769
 40
1.0
 40
1.0
 40
1.0
 40
1.0
 10
-9.4359688737
 20
-10.382931001
 30
0.0
 10
-8.9113857133
 20
-10.3831429421
 30
0.0
 10
-6.8122400605
 20
-10.3839201588
 30
0.0
 10
-4.7130943028
 20
-10.3844140578
 30
0.0
 10
-3.1385317241
 20
-10.3846254517
 30
0.0
 11
-9.4359688737
 21
-10.382931001
 31
0.0
 11
-7.8622193719
 21
-10.3835137063
 31
0.0
 11
-3.1385317241
 21
-10.3846254517
 31
0.0
  0
LINE
  5
7C0
100
AcDbEntity
  8
ASSI
100
AcDbLine
 62
7
  6
CONTINUOUS
 10
-3.1385317241
 20
-10.3846254517
 11
-3.1367604091
 21
-11.8976912156
  0
LINE
  5
7C1
100
AcDbEntity
  8
ASSI
100
AcDbLine
 62
7
  6
CONTINUOUS
 10
-1.4271045151
 20
-11.8983585566
 11
-1.4269047495
 21
-10.8975705317
  0
SPLINE
  5
7C2
100
AcDbEntity
  8
ASSI
100
AcDbSpline
 62
7
  6
CONTINUOUS
 70
0
 71
3
 72
9
 73
5
 74
3
 42
0.0000001
 43
0.0000001
 44
0.0000000001
 12
0.0117390352
 22
23.6972966536
 32
0.0
 13
-0.0178056237
 23
23.6972928719
 33
0.0
 40
0.0
 40
0.0
 40
0.0
 40
0.0
 40
0.7500397633
 40
1.0
 40
1.0
 40
1.0
 40
1.0
 10
-9.435465772
 20
-9.4169013325
 30
0.0
 10
-9.4325308576
 20
-3.4922630746
 30
0.0
 10
-9.4323106816
 20
4.4068383585
 30
0.0
 10
-9.4370139313
 20
12.3059368601
 30
0.0
 10
-9.4384974973
 20
14.2803971717
 30
0.0
 11
-9.435465772
 21
-9.4169013325
 31
0.0
 11
-9.4349702967
 21
8.357015615
 31
0.0
 11
-9.4384974973
 21
14.2803971717
 31
0.0
  0
LINE
  5
7C3
100
AcDbEntity
  8
ASSI
100
AcDbLine
 62
7
  6
CONTINUOUS
 10
-7.7197270663
 20
14.281659352
 11
-9.4384974973
 21
14.2803971717
  0
SPLINE
  5
7C4
100
AcDbEntity
  8
ASSI
100
AcDbSpline
 62
7
  6
CONTINUOUS
 70
0
 71
3
 72
9
 73
5
 74
3
 42
0.0000001
 43
0.0000001
 44
0.0000000001
 12
4.0538732523
 22
-0.0053660562
 32
0.0
 13
4.0538760038
 23
-0.0025466721
 33
0.0
 40
0.0
 40
0.0
 40
0.0
 40
0.0
 40
0.2499447283
 40
1.0
 40
1.0
 40
1.0
 40
1.0
 10
-7.7194499734
 20
14.3367473524
 30
0.0
 10
-7.3817018906
 20
14.33630028
 30
0.0
 10
-6.0304106534
 20
14.3346291658
 30
0.0
 10
-4.679118835
 20
14.3334281317
 30
0.0
 10
-3.6655751458
 20
14.3327914167
 30
0.0
 11
-7.7194499734
 21
14.3367473524
 31
0.0
 11
-6.7062056121
 21
14.3354942746
 31
0.0
 11
-3.6655751458
 21
14.3327914167
 31
0.0
  0
LINE
  5
7C5
100
AcDbEntity
  8
ASSI
100
AcDbLine
 62
7
  6
CONTINUOUS
 10
-3.6655751458
 20
14.3327914167
 11
-3.6638210018
 21
13.9837829343
  0
LINE
  5
7C6
100
AcDbEntity
  8
ASSI
100
AcDbLine
 62
7
  6
CONTINUOUS
 10
3.6638210018
 20
13.9837829343
 11
3.6655751458
 21
14.3327914167
  0
SPLINE
  5
7C7
100
AcDbEntity
  8
ASSI
100
AcDbSpline
 62
7
  6
CONTINUOUS
 70
0
 71
3
 72
9
 73
5
 74
3
 42
0.0000001
 43
0.0000001
 44
0.0000000001
 12
4.0538760038
 22
0.0025466721
 32
0.0
 13
4.0538732522
 23
0.0053660562
 33
0.0
 40
0.0
 40
0.0
 40
0.0
 40
0.0
 40
0.2500489948
 40
1.0
 40
1.0
 40
1.0
 40
1.0
 10
3.6655751458
 20
14.3327914167
 30
0.0
 10
4.0034643525
 20
14.333003681
 30
0.0
 10
5.3547562774
 20
14.3339699787
 30
0.0
 10
6.7060478666
 20
14.335405926
 30
0.0
 10
7.7194499734
 20
14.3367473524
 30
0.0
 11
3.6655751458
 21
14.3327914167
 31
0.0
 11
4.6792427065
 21
14.3335162891
 31
0.0
 11
7.7194499734
 21
14.3367473524
 31
0.0
  0
LINE
  5
7C8
100
AcDbEntity
  8
ASSI
100
AcDbLine
 62
7
  6
CONTINUOUS
 10
9.4384974973
 20
14.2803971717
 11
7.7197270663
 21
14.281659352
  0
SPLINE
  5
7C9
100
AcDbEntity
  8
ASSI
100
AcDbSpline
 62
7
  6
CONTINUOUS
 70
0
 71
3
 72
9
 73
5
 74
3
 42
0.0000001
 43
0.0000001
 44
0.0000000001
 12
-0.0178056237
 22
-23.6972928719
 32
0.0
 13
0.0117390352
 23
-23.6972966536
 33
0.0
 40
0.0
 40
0.0
 40
0.0
 40
0.0
 40
0.2499602367
 40
1.0
 40
1.0
 40
1.0
 40
1.0
 10
9.4384974973
 20
14.2803971717
 30
0.0
 10
9.4370139313
 20
12.3059368601
 30
0.0
 10
9.4323106816
 20
4.4068383585
 30
0.0
 10
9.4325308576
 20
-3.4922630746
 30
0.0
 10
9.435465772
 20
-9.4169013325
 30
0.0
 11
9.4384974973
 21
14.2803971717
 31
0.0
 11
9.4349702967
 21
8.357015615
 31
0.0
 11
9.435465772
 21
-9.4169013325
 31
0.0
  0
LINE
  5
7CA
100
AcDbEntity
  8
ASSI
100
AcDbLine
 62
7
  6
CONTINUOUS
 10
9.435465772
 20
-9.4169013325
 11
7.2479450442
 21
-9.4161199285
  0
LINE
  5
7CB
100
AcDbEntity
  8
ASSI
100
AcDbLine
 62
7
  6
CONTINUOUS
 10
7.2479450442
 20
-9.4161199285
 11
7.2480154544
 21
-9.200000018
  0
LINE
  5
7CC
100
AcDbEntity
  8
ASSI
100
AcDbLine
 62
253
  6
CONTINUOUS
 10
7.8000000827
 20
-8.847926007
 11
8.2533649853
 21
-8.8479283363
  0
LINE
  5
7CD
100
AcDbEntity
  8
ASSI
100
AcDbLine
 62
253
  6
CONTINUOUS
 10
9.0047363765
 20
-8.0969773661
 11
9.0047396526
 21
9.4972476233
  0
SPLINE
  5
7CE
100
AcDbEntity
  8
ASSI
100
AcDbSpline
 62
253
  6
CONTINUOUS
 70
0
 71
3
 72
9
 73
5
 74
3
 42
0.0000001
 43
0.0000001
 44
0.0000000001
 12
-6.0460653537
 22
0.0042744737
 32
0.0
 13
-6.0460667568
 23
0.0011421584
 33
0.0
 40
0.0
 40
0.0
 40
0.0
 40
0.0
 40
0.2499210984
 40
1.0
 40
1.0
 40
1.0
 40
1.0
 10
8.2528964621
 20
10.2478058728
 30
0.0
 10
7.7492166974
 20
10.2481619665
 30
0.0
 10
5.7338614893
 20
10.2494561258
 30
0.0
 10
3.7185059458
 20
10.2502280033
 30
0.0
 10
2.2068302417
 20
10.2505135729
 30
0.0
 11
8.2528964621
 21
10.2478058728
 31
0.0
 11
6.7418571021
 21
10.2487762199
 31
0.0
 11
2.2068302417
 21
10.2505135729
 31
0.0
  0
LINE
  5
7CF
100
AcDbEntity
  8
ASSI
100
AcDbLine
 62
7
  6
CONTINUOUS
 10
2.2068302416
 20
10.2505135729
 11
2.2065810529
 21
11.5557863506
  0
ELLIPSE
  5
7D0
100
AcDbEntity
  8
RACCORDO
100
AcDbEllipse
 62
7
  6
CONTINUOUS
 10
2.375848109
 20
-7.1833852591
 30
0.0
 11
0.3808928243
 21
0.0
 31
0.0
 40
0.0212765957
 41
-3.1282601103
 42
-0.0178552451
  0
ELLIPSE
  5
7D1
100
AcDbEntity
  8
RACCORDO
100
AcDbEllipse
 62
7
  6
CONTINUOUS
 10
-2.375848109
 20
-7.1833852591
 30
0.0
 11
0.3808928243
 21
0.0
 31
0.0
 40
0.0212765957
 41
-3.1237374085
 42
-0.0133325433
  0
ELLIPSE
  5
7D2
100
AcDbEntity
  8
DRAFT
100
AcDbEllipse
 62
7
  6
CONTINUOUS
 10
2.646762052
 20
-8.092820323
 30
0.0
 11
-0.0
 21
0.8
 31
0.0
 40
0.0174550649
 41
0.5235987756
 42
1.0573052387
  0
ELLIPSE
  5
7D3
100
AcDbEntity
  8
RACCORDO
100
AcDbEllipse
 62
7
  6
CONTINUOUS
 10
3.8445737581
 20
20.0043634339
 30
0.0
 11
0.5
 21
0.0
 31
0.0
 40
0.0087268678
 41
0.0174532925
 42
1.5707963268
  0
ELLIPSE
  5
7D4
100
AcDbEntity
  8
RACCORDO
100
AcDbEllipse
 62
7
  6
CONTINUOUS
 10
3.9558713768
 20
17.8441286232
 30
0.0
 11
-0.236218315
 21
0.4412535831
 31
0.0
 40
0.9989016803
 41
-3.6326496608
 42
-2.0621579205
  0
ELLIPSE
  5
7D5
100
AcDbEntity
  8
RACCORDO
100
AcDbEllipse
 62
7
  6
CONTINUOUS
 10
-3.8445737581
 20
20.0043634339
 30
0.0
 11
0.5
 21
0.0
 31
0.0
 40
0.0087268678
 41
1.5707963268
 42
3.1241393611
  0
ELLIPSE
  5
7D6
100
AcDbEntity
  8
RACCORDO
100
AcDbEllipse
 62
7
  6
CONTINUOUS
 10
-3.9558713768
 20
17.8441286232
 30
0.0
 11
0.236218315
 21
0.4412535831
 31
0.0
 40
0.9989016803
 41
-4.2210273867
 42
-2.6505356464
  0
ELLIPSE
  5
7D7
100
AcDbEntity
  8
RACCORDO
100
AcDbEllipse
 62
7
  6
CONTINUOUS
 10
4.4109791689
 20
19.7676913781
 30
0.0
 11
-0.0
 21
0.3
 31
0.0
 40
0.0174550649
 41
-4.7123889804
 42
-3.1939525311
  0
ELLIPSE
  5
7D8
100
AcDbEntity
  8
RACCORDO
100
AcDbEllipse
 62
7
  6
CONTINUOUS
 10
6.4712013363
 20
19.7676913781
 30
0.0
 11
0.0
 21
0.3
 31
0.0
 40
0.0087268678
 41
-3.089232776
 42
-1.5707963268
  0
ELLIPSE
  5
7D9
100
AcDbEntity
  8
RACCORDO
100
AcDbEllipse
 62
7
  6
CONTINUOUS
 10
9.5635864588
 20
19.7676913781
 30
0.0
 11
0.0
 21
0.3
 31
0.0
 40
0.0261859216
 41
-3.089232776
 42
-1.5707963268
  0
ELLIPSE
  5
7DA
100
AcDbEntity
  8
RACCORDO
100
AcDbEllipse
 62
7
  6
CONTINUOUS
 10
7.3287986637
 20
19.7676913781
 30
0.0
 11
0.0
 21
0.3
 31
0.0
 40
0.0087268678
 41
-4.7123889804
 42
-3.1939525311
  0
ELLIPSE
  5
7DB
100
AcDbEntity
  8
RACCORDO
100
AcDbEllipse
 62
7
  6
CONTINUOUS
 10
-7.3287986637
 20
19.7676913781
 30
0.0
 11
0.0
 21
0.3
 31
0.0
 40
0.0087268678
 41
-3.089232776
 42
-1.5707963268
  0
ELLIPSE
  5
7DC
100
AcDbEntity
  8
RACCORDO
100
AcDbEllipse
 62
7
  6
CONTINUOUS
 10
-9.5635864588
 20
19.7676913781
 30
0.0
 11
0.0
 21
0.3
 31
0.0
 40
0.0261859216
 41
-4.7123889804
 42
-3.1939525311
  0
ELLIPSE
  5
7DD
100
AcDbEntity
  8
RACCORDO
100
AcDbEllipse
 62
7
  6
CONTINUOUS
 10
-6.4712013363
 20
19.7676913781
 30
0.0
 11
0.0
 21
0.3
 31
0.0
 40
0.0087268678
 41
-4.7123889804
 42
-3.1939525311
  0
ELLIPSE
  5
7DE
100
AcDbEntity
  8
RACCORDO
100
AcDbEllipse
 62
7
  6
CONTINUOUS
 10
-4.4109791689
 20
19.7676913781
 30
0.0
 11
0.0
 21
0.3
 31
0.0
 40
0.0174550649
 41
-3.089232776
 42
-1.5707963268
  0
ELLIPSE
  5
7DF
100
AcDbEntity
  8
RACCORDO
100
AcDbEllipse
 62
7
  6
CONTINUOUS
 10
6.9127198986
 20
-20.0918966615
 30
0.0
 11
-0.0150589332
 21
-0.3042668091
 31
0.0
 40
0.9847713852
 41
1.6210119607
 42
3.1902929399
  0
ELLIPSE
  5
7E0
100
AcDbEntity
  8
RACCORDO
100
AcDbEllipse
 62
7
  6
CONTINUOUS
 10
-6.9127198986
 20
-20.0918966615
 30
0.0
 11
-0.0150589332
 21
0.3042668091
 31
0.0
 40
0.9847713852
 41
-0.0487002863
 42
1.5205806929
  0
ELLIPSE
  5
7E1
100
AcDbEntity
  8
RACCORDO
100
AcDbEllipse
 62
7
  6
CONTINUOUS
 10
-6.8872801014
 20
-20.0918966615
 30
0.0
 11
-0.0150589332
 21
-0.3042668091
 31
0.0
 40
0.9847713852
 41
1.6210119607
 42
3.1902929399
  0
ELLIPSE
  5
7E2
100
AcDbEntity
  8
RACCORDO
100
AcDbEllipse
 62
7
  6
CONTINUOUS
 10
6.8872801014
 20
-20.0918966615
 30
0.0
 11
0.0150589332
 21
-0.3042668091
 31
0.0
 40
0.9847713852
 41
3.0928923672
 42
4.6621733465
  0
ELLIPSE
  5
7E3
100
AcDbEntity
  8
RACCORDO
100
AcDbEllipse
 62
7
  6
CONTINUOUS
 10
-6.9127198986
 20
20.0918966615
 30
0.0
 11
0.0150589332
 21
0.3042668091
 31
0.0
 40
0.9847713852
 41
1.6210119607
 42
3.1902929399
  0
ELLIPSE
  5
7E4
100
AcDbEntity
  8
RACCORDO
100
AcDbEllipse
 62
7
  6
CONTINUOUS
 10
6.9127198986
 20
20.0918966615
 30
0.0
 11
0.0150589332
 21
-0.3042668091
 31
0.0
 40
0.9847713852
 41
-0.0487002863
 42
1.5205806929
  0
ELLIPSE
  5
7E5
100
AcDbEntity
  8
RACCORDO
100
AcDbEllipse
 62
7
  6
CONTINUOUS
 10
6.8872801014
 20
20.0918966615
 30
0.0
 11
0.0150589332
 21
0.3042668091
 31
0.0
 40
0.9847713852
 41
1.6210119607
 42
3.1902929399
  0
ELLIPSE
  5
7E6
100
AcDbEntity
  8
RACCORDO
100
AcDbEllipse
 62
7
  6
CONTINUOUS
 10
-6.8872801014
 20
20.0918966615
 30
0.0
 11
-0.0150589332
 21
0.3042668091
 31
0.0
 40
0.9847713852
 41
3.0928923672
 42
4.6621733465
  0
ELLIPSE
  5
7E7
100
AcDbEntity
  8
ASSI
100
AcDbEllipse
 62
7
  6
CONTINUOUS
 10
-10.5824687711
 20
-21.8824687711
 30
0.0
 11
-0.3536610946
 21
-0.3536610946
 31
0.0
 40
0.9996954599
 41
-0.7852458701
 42
0.7852458701
  0
ELLIPSE
  5
7E8
100
AcDbEntity
  8
ASSI
100
AcDbEllipse
 62
7
  6
CONTINUOUS
 10
-10.5824687711
 20
21.882468771
 30
0.0
 11
0.3536610946
 21
-0.3536610946
 31
0.0
 40
0.9996954599
 41
2.3563467834
 42
3.9268385237
  0
ELLIPSE
  5
7E9
100
AcDbEntity
  8
ASSI
100
AcDbEllipse
 62
7
  6
CONTINUOUS
 10
10.582468771
 20
21.882468771
 30
0.0
 11
0.3536610946
 21
0.3536610946
 31
0.0
 40
0.9996954599
 41
-0.7852458701
 42
0.7852458701
  0
ELLIPSE
  5
7EA
100
AcDbEntity
  8
ASSI
100
AcDbEllipse
 62
7
  6
CONTINUOUS
 10
10.582468771
 20
-21.8824687711
 30
0.0
 11
-0.3536610946
 21
0.3536610946
 31
0.0
 40
0.9996954599
 41
2.3563467834
 42
3.9268385237
  0
ELLIPSE
  5
7EB
100
AcDbEntity
  8
RACCORDO
100
AcDbEllipse
 62
7
  6
CONTINUOUS
 10
-1.2087268678
 20
-8.0086887894
 30
0.0
 11
0.0
 21
1.0
 31
0.0
 40
0.0087268678
 41
-3.1328660073
 42
-1.5707963268
  0
ELLIPSE
  5
7EC
100
AcDbEntity
  8
RACCORDO
100
AcDbEllipse
 62
7
  6
CONTINUOUS
 10
1.2087268678
 20
-8.0086887894
 30
0.0
 11
-0.0
 21
1.0
 31
0.0
 40
0.0087268678
 41
-4.7123889804
 42
-3.1503192998
  0
ELLIPSE
  5
7ED
100
AcDbEntity
  8
DRAFT
100
AcDbEllipse
 62
7
  6
CONTINUOUS
 10
1.2117812715
 20
-9.2985281374
 30
0.0
 11
-0.0
 21
0.6
 31
0.0
 40
0.0087268678
 41
-1.0812681804
 42
-0.7853981634
  0
ELLIPSE
  5
7EE
100
AcDbEntity
  8
DRAFT
100
AcDbEllipse
 62
7
  6
CONTINUOUS
 10
-1.2117812715
 20
-9.2985281374
 30
0.0
 11
-0.0
 21
0.6
 31
0.0
 40
0.0087268678
 41
0.7853981634
 42
1.0812681804
  0
ELLIPSE
  5
7EF
100
AcDbEntity
  8
DRAFT
100
AcDbEllipse
 62
7
  6
CONTINUOUS
 10
2.586542078
 20
-9.2985281374
 30
0.0
 11
-0.0
 21
0.6
 31
0.0
 40
0.0174550649
 41
0.7853981634
 42
2.617993878
  0
ELLIPSE
  5
7F0
100
AcDbEntity
  8
RACCORDO
100
AcDbEllipse
 62
7
  6
CONTINUOUS
 10
7.5370272134
 20
15.3734849081
 30
0.0
 11
0.0
 21
1.0
 31
0.0
 40
0.1763269807
 41
-4.6774823953
 42
-3.1764992386
  0
ELLIPSE
  5
7F1
100
AcDbEntity
  8
RACCORDO
100
AcDbEllipse
 62
7
  6
CONTINUOUS
 10
-7.5370272134
 20
15.3734849081
 30
0.0
 11
0.0
 21
1.0
 31
0.0
 40
0.1763269807
 41
-3.1066860685
 42
-1.6057029118
  0
ELLIPSE
  5
7F2
100
AcDbEntity
  8
RACCORDO
100
AcDbEllipse
 62
7
  6
CONTINUOUS
 10
-2.9410757847
 20
-10.1517377579
 30
0.0
 11
0.0
 21
0.2
 31
0.0
 40
0.0524077793
 41
-3.1328660073
 42
-1.5707963268
  0
ELLIPSE
  5
7F3
100
AcDbEntity
  8
RACCORDO
100
AcDbEllipse
 62
7
  6
CONTINUOUS
 10
-9.5295447608
 20
-10.1517377579
 30
0.0
 11
0.0
 21
0.2
 31
0.0
 40
0.0261859216
 41
1.5707963268
 42
3.1328660073
  0
ELLIPSE
  5
7F4
100
AcDbEntity
  8
RACCORDO
100
AcDbEllipse
 62
7
  6
CONTINUOUS
 10
-9.5295447608
 20
-9.6482622421
 30
0.0
 11
-0.0
 21
0.2
 31
0.0
 40
0.0261859216
 41
0.0087266463
 42
1.5707963268
  0
ELLIPSE
  5
7F5
100
AcDbEntity
  8
RACCORDO
100
AcDbEllipse
 62
7
  6
CONTINUOUS
 10
-2.9410757847
 20
-9.6482622421
 30
0.0
 11
0.0
 21
0.2
 31
0.0
 40
0.0524077793
 41
-1.5707963268
 42
-0.0087266463
  0
ELLIPSE
  5
7F6
100
AcDbEntity
  8
RACCORDO
100
AcDbEllipse
 62
7
  6
CONTINUOUS
 10
9.5295447608
 20
-10.1517377579
 30
0.0
 11
0.0
 21
0.2
 31
0.0
 40
0.0261859216
 41
-3.1328660073
 42
-1.5707963268
  0
ELLIPSE
  5
7F7
100
AcDbEntity
  8
RACCORDO
100
AcDbEllipse
 62
7
  6
CONTINUOUS
 10
2.9410757847
 20
-10.1517377579
 30
0.0
 11
0.0
 21
0.2
 31
0.0
 40
0.0524077793
 41
-4.7123889804
 42
-3.1503192998
  0
ELLIPSE
  5
7F8
100
AcDbEntity
  8
RACCORDO
100
AcDbEllipse
 62
7
  6
CONTINUOUS
 10
2.9410757847
 20
-9.6482622421
 30
0.0
 11
0.0
 21
0.2
 31
0.0
 40
0.0524077793
 41
0.0087266463
 42
1.5707963268
  0
ELLIPSE
  5
7F9
100
AcDbEntity
  8
RACCORDO
100
AcDbEllipse
 62
7
  6
CONTINUOUS
 10
9.5295447608
 20
-9.6482622421
 30
0.0
 11
-0.0
 21
0.2
 31
0.0
 40
0.0261859216
 41
-1.5707963268
 42
-0.0087266463
  0
ELLIPSE
  5
7FA
100
AcDbEntity
  8
RACCORDO
100
AcDbEllipse
 62
7
  6
CONTINUOUS
 10
3.8679727866
 20
15.3734849081
 30
0.0
 11
-0.0
 21
1.0
 31
0.0
 40
0.1763269807
 41
-3.1066860685
 42
-1.6057029118
  0
ELLIPSE
  5
7FB
100
AcDbEntity
  8
RACCORDO
100
AcDbEllipse
 62
7
  6
CONTINUOUS
 10
6.7485611327
 20
17.2890700911
 30
0.0
 11
0.0130177014
 21
0.306250446
 31
0.0
 40
0.9787055891
 41
-4.6692960451
 42
-3.1000150659
  0
ELLIPSE
  5
7FC
100
AcDbEntity
  8
RACCORDO
100
AcDbEllipse
 62
7
  6
CONTINUOUS
 10
-6.7485611327
 20
17.2890700911
 30
0.0
 11
-0.0130177014
 21
0.306250446
 31
0.0
 40
0.9787055891
 41
-3.1831702413
 42
-1.613889262
  0
ELLIPSE
  5
7FD
100
AcDbEntity
  8
RACCORDO
100
AcDbEllipse
 62
7
  6
CONTINUOUS
 10
-3.8679727866
 20
15.3734849081
 30
0.0
 11
-0.0
 21
1.0
 31
0.0
 40
0.1763269807
 41
-4.6774823953
 42
-3.1764992386
  0
ELLIPSE
  5
7FE
100
AcDbEntity
  8
RACCORDO
100
AcDbEllipse
 62
7
  6
CONTINUOUS
 10
-7.0514388673
 20
17.2890700911
 30
0.0
 11
0.0130177014
 21
0.306250446
 31
0.0
 40
0.9787055891
 41
-4.6692960451
 42
-3.1000150659
  0
ELLIPSE
  5
7FF
100
AcDbEntity
  8
RACCORDO
100
AcDbEllipse
 62
7
  6
CONTINUOUS
 10
7.0514388673
 20
17.2890700911
 30
0.0
 11
-0.0130177014
 21
0.306250446
 31
0.0
 40
0.9787055891
 41
-3.1831702413
 42
-1.613889262
  0
ELLIPSE
  5
800
100
AcDbEntity
  8
ASSI
100
AcDbEllipse
 62
7
  6
CONTINUOUS
 10
2.646762052
 20
-8.092820323
 30
0.0
 11
-0.0
 21
0.8
 31
0.0
 40
0.0174550649
 41
0.5235987756
 42
1.0573052387
  0
ELLIPSE
  5
801
100
AcDbEntity
  8
ASSI
100
AcDbEllipse
 62
7
  6
CONTINUOUS
 10
-1.0674931469
 20
23.7325068531
 30
0.0
 11
-0.1768305473
 21
-0.1768305473
 31
0.0
 40
0.9996954599
 41
2.3563467834
 42
3.9268385237
  0
ELLIPSE
  5
802
100
AcDbEntity
  8
ASSI
100
AcDbEllipse
 62
7
  6
CONTINUOUS
 10
1.0674931469
 20
23.7325068531
 30
0.0
 11
-0.1768305473
 21
0.1768305473
 31
0.0
 40
0.9996954599
 41
-0.7852458701
 42
0.7852458701
  0
ELLIPSE
  5
803
100
AcDbEntity
  8
ASSI
100
AcDbEllipse
 62
7
  6
CONTINUOUS
 10
1.0674931469
 20
-23.7325068531
 30
0.0
 11
0.1768305473
 21
0.1768305473
 31
0.0
 40
0.9996954599
 41
2.3563467834
 42
3.9268385237
  0
ELLIPSE
  5
804
100
AcDbEntity
  8
ASSI
100
AcDbEllipse
 62
7
  6
CONTINUOUS
 10
-1.0674931469
 20
-23.7325068531
 30
0.0
 11
0.1768305473
 21
-0.1768305473
 31
0.0
 40
0.9996954599
 41
-0.7852458701
 42
0.7852458701
  0
ELLIPSE
  5
805
100
AcDbEntity
  8
ASSI
100
AcDbEllipse
 62
7
  6
CONTINUOUS
 10
10.2824230726
 20
21.5824230726
 30
0.0
 11
0.5658577513
 21
0.5658577513
 31
0.0
 40
0.9996954599
 41
-0.7852458701
 42
0.7852458701
  0
ELLIPSE
  5
806
100
AcDbEntity
  8
ASSI
100
AcDbEllipse
 62
7
  6
CONTINUOUS
 10
10.2824230726
 20
-21.5824230726
 30
0.0
 11
-0.5658577513
 21
0.5658577513
 31
0.0
 40
0.9996954599
 41
2.3563467834
 42
3.9268385237
  0
ELLIPSE
  5
807
100
AcDbEntity
  8
ASSI
100
AcDbEllipse
 62
7
  6
CONTINUOUS
 10
-2.9410757847
 20
-10.1517377579
 30
0.0
 11
0.0
 21
0.2
 31
0.0
 40
0.0524077793
 41
-3.1328660073
 42
-1.5707963268
  0
ELLIPSE
  5
808
100
AcDbEntity
  8
ASSI
100
AcDbEllipse
 62
7
  6
CONTINUOUS
 10
-9.5295447608
 20
-10.1517377579
 30
0.0
 11
0.0
 21
0.2
 31
0.0
 40
0.0261859216
 41
1.5707963268
 42
3.1328660073
  0
ELLIPSE
  5
809
100
AcDbEntity
  8
ASSI
100
AcDbEllipse
 62
7
  6
CONTINUOUS
 10
-9.5295447608
 20
-9.6482622421
 30
0.0
 11
-0.0
 21
0.2
 31
0.0
 40
0.0261859216
 41
0.0087266463
 42
1.5707963268
  0
ELLIPSE
  5
80A
100
AcDbEntity
  8
ASSI
100
AcDbEllipse
 62
7
  6
CONTINUOUS
 10
-2.9410757847
 20
-9.6482622421
 30
0.0
 11
0.0
 21
0.2
 31
0.0
 40
0.0524077793
 41
-1.5707963268
 42
-0.0087266463
  0
ELLIPSE
  5
80B
100
AcDbEntity
  8
ASSI
100
AcDbEllipse
 62
7
  6
CONTINUOUS
 10
9.5295447608
 20
-10.1517377579
 30
0.0
 11
0.0
 21
0.2
 31
0.0
 40
0.0261859216
 41
-3.1328660073
 42
-1.5707963268
  0
ELLIPSE
  5
80C
100
AcDbEntity
  8
ASSI
100
AcDbEllipse
 62
7
  6
CONTINUOUS
 10
2.9410757847
 20
-10.1517377579
 30
0.0
 11
0.0
 21
0.2
 31
0.0
 40
0.0524077793
 41
-4.7123889804
 42
-3.1503192998
  0
ELLIPSE
  5
80D
100
AcDbEntity
  8
ASSI
100
AcDbEllipse
 62
7
  6
CONTINUOUS
 10
-4.0459553394
 20
-23.2
 30
0.0
 11
0.4595995956
 21
0.0
 31
0.0
 40
0.9949884474
 41
-2.644815645
 42
-2.3053277814
  0
ELLIPSE
  5
80E
100
AcDbEntity
  8
ASSI
100
AcDbEllipse
 62
7
  6
CONTINUOUS
 10
-4.0459553394
 20
-23.2
 30
0.0
 11
0.4595995956
 21
0.0
 31
0.0
 40
0.9949884474
 41
2.3053277814
 42
2.644815645
  0
ELLIPSE
  5
80F
100
AcDbEntity
  8
ASSI
100
AcDbEllipse
 62
7
  6
CONTINUOUS
 10
-4.0459553394
 20
23.2
 30
0.0
 11
0.4595995956
 21
-0.0
 31
0.0
 40
0.9949884474
 41
-2.644815645
 42
-2.3053277814
  0
ELLIPSE
  5
810
100
AcDbEntity
  8
ASSI
100
AcDbEllipse
 62
7
  6
CONTINUOUS
 10
-4.0459553394
 20
23.2
 30
0.0
 11
0.4595995956
 21
0.0
 31
0.0
 40
0.9949884474
 41
2.3053277814
 42
2.644815645
  0
ELLIPSE
  5
811
100
AcDbEntity
  8
ASSI
100
AcDbEllipse
 62
7
  6
CONTINUOUS
 10
2.9410757847
 20
-9.6482622421
 30
0.0
 11
0.0
 21
0.2
 31
0.0
 40
0.0524077793
 41
0.0087266463
 42
1.5707963268
  0
ELLIPSE
  5
812
100
AcDbEntity
  8
ASSI
100
AcDbEllipse
 62
7
  6
CONTINUOUS
 10
9.5295447608
 20
-9.6482622421
 30
0.0
 11
0.0
 21
0.2
 31
0.0
 40
0.0261859216
 41
-1.5707963268
 42
-0.0087266463
  0
ELLIPSE
  5
813
100
AcDbEntity
  8
ASSI
100
AcDbEllipse
 62
7
  6
CONTINUOUS
 10
6.7485611327
 20
17.2890700911
 30
0.0
 11
0.0130177014
 21
0.306250446
 31
0.0
 40
0.9787055891
 41
-4.6692960451
 42
-3.1000150659
  0
ELLIPSE
  5
814
100
AcDbEntity
  8
ASSI
100
AcDbEllipse
 62
7
  6
CONTINUOUS
 10
-6.7485611327
 20
17.2890700911
 30
0.0
 11
-0.0130177014
 21
0.306250446
 31
0.0
 40
0.9787055891
 41
-3.1831702413
 42
-1.613889262
  0
ELLIPSE
  5
815
100
AcDbEntity
  8
ASSI
100
AcDbEllipse
 62
7
  6
CONTINUOUS
 10
-2.2026180603
 20
9.6912267691
 30
0.0
 11
0.0
 21
0.3
 31
0.0
 40
0.0087268678
 41
-1.5707963268
 42
-0.0174532925
  0
ELLIPSE
  5
816
100
AcDbEntity
  8
ASSI
100
AcDbEllipse
 62
7
  6
CONTINUOUS
 10
-8.4412267691
 20
-7.5973819397
 30
0.0
 11
0.3
 21
0.0
 31
0.0
 40
0.0087268678
 41
-3.1241393611
 42
-1.5707963268
  0
ELLIPSE
  5
817
100
AcDbEntity
  8
ASSI
100
AcDbEllipse
 62
7
  6
CONTINUOUS
 10
8.4412267691
 20
-7.5973819397
 30
0.0
 11
0.3
 21
0.0
 31
0.0
 40
0.0087268678
 41
-1.5707963268
 42
-0.0174532925
  0
ELLIPSE
  5
818
100
AcDbEntity
  8
ASSI
100
AcDbEllipse
 62
7
  6
CONTINUOUS
 10
2.2026180603
 20
9.6912267691
 30
0.0
 11
0.0
 21
0.3
 31
0.0
 40
0.0087268678
 41
0.0174532925
 42
1.5707963268
  0
ELLIPSE
  5
819
100
AcDbEntity
  8
ASSI
100
AcDbEllipse
 62
7
  6
CONTINUOUS
 10
8.0754493507
 20
21.2252970227
 30
0.0
 11
-0.0
 21
1.0
 31
0.0
 40
0.0174550649
 41
1.3378837631
 42
1.5707963268
  0
ELLIPSE
  5
81A
100
AcDbEntity
  8
ASSI
100
AcDbEllipse
 62
7
  6
CONTINUOUS
 10
-8.0754493507
 20
21.2252970227
 30
0.0
 11
0.0
 21
1.0
 31
0.0
 40
0.0174550649
 41
-1.5707963268
 42
-1.3378837631
  0
ELLIPSE
  5
81B
100
AcDbEntity
  8
ASSI
100
AcDbEllipse
 62
7
  6
CONTINUOUS
 10
-8.0754493507
 20
-21.2252970227
 30
0.0
 11
0.0
 21
1.0
 31
0.0
 40
0.0174550649
 41
-1.8037088905
 42
-1.5707963268
  0
ELLIPSE
  5
81C
100
AcDbEntity
  8
ASSI
100
AcDbEllipse
 62
7
  6
CONTINUOUS
 10
8.0754493507
 20
-21.2252970227
 30
0.0
 11
-0.0
 21
1.0
 31
0.0
 40
0.0174550649
 41
-4.7123889804
 42
-4.4794764167
  0
ELLIPSE
  5
81D
100
AcDbEntity
  8
ASSI
100
AcDbEllipse
 62
7
  6
CONTINUOUS
 10
-8.3012864295
 20
-21.2252970227
 30
0.0
 11
1.0000571192
 21
-0.9999809595
 31
0.0
 40
0.0061705924
 41
0.0112823085
 42
1.3317127791
  0
ELLIPSE
  5
81E
100
AcDbEntity
  8
ASSI
100
AcDbEllipse
 62
7
  6
CONTINUOUS
 10
8.3012864295
 20
-21.2252970227
 30
0.0
 11
1.0000571192
 21
0.9999809595
 31
0.0
 40
0.0061705924
 41
1.8098798745
 42
3.1303103451
  0
ELLIPSE
  5
81F
100
AcDbEntity
  8
ASSI
100
AcDbEllipse
 62
7
  6
CONTINUOUS
 10
-8.3012864295
 20
21.2252970227
 30
0.0
 11
1.0000571192
 21
0.9999809595
 31
0.0
 40
0.0061705924
 41
-1.3317127791
 42
-0.0112823085
  0
ELLIPSE
  5
820
100
AcDbEntity
  8
ASSI
100
AcDbEllipse
 62
7
  6
CONTINUOUS
 10
8.3012864295
 20
21.2252970227
 30
0.0
 11
1.0000571192
 21
-0.9999809595
 31
0.0
 40
0.0061705924
 41
-3.1303103451
 42
-1.8098798745
  0
ELLIPSE
  5
821
100
AcDbEntity
  8
ASSI
100
AcDbEllipse
 62
7
  6
CONTINUOUS
 10
3.8445737581
 20
20.0043634339
 30
0.0
 11
0.5
 21
0.0
 31
0.0
 40
0.0087268678
 41
0.0174532925
 42
1.5707963268
  0
ELLIPSE
  5
822
100
AcDbEntity
  8
ASSI
100
AcDbEllipse
 62
7
  6
CONTINUOUS
 10
3.9558713768
 20
17.8441286232
 30
0.0
 11
-0.236218315
 21
0.4412535831
 31
0.0
 40
0.9989016803
 41
-3.6326496608
 42
-2.0621579205
  0
ELLIPSE
  5
823
100
AcDbEntity
  8
ASSI
100
AcDbEllipse
 62
7
  6
CONTINUOUS
 10
-9.0368706193
 20
-23.5556624327
 30
0.0
 11
0.25
 21
-0.0
 31
0.0
 40
0.5773502692
 41
-3.1241393611
 42
-2.617993878
  0
ELLIPSE
  5
824
100
AcDbEntity
  8
ASSI
100
AcDbEllipse
 62
7
  6
CONTINUOUS
 10
-9.0368706193
 20
-22.3869087013
 30
0.0
 11
0.25
 21
0.0
 31
0.0
 40
0.0174550649
 41
1.5707963268
 42
3.1241393611
  0
ELLIPSE
  5
825
100
AcDbEntity
  8
ASSI
100
AcDbEllipse
 62
7
  6
CONTINUOUS
 10
8.7631293807
 20
-23.5556624327
 30
0.0
 11
0.25
 21
0.0
 31
0.0
 40
0.5773502692
 41
-3.1241393611
 42
-2.617993878
  0
ELLIPSE
  5
826
100
AcDbEntity
  8
ASSI
100
AcDbEllipse
 62
7
  6
CONTINUOUS
 10
8.7631293807
 20
-22.3869087013
 30
0.0
 11
0.25
 21
0.0
 31
0.0
 40
0.0174550649
 41
1.5707963268
 42
3.1241393611
  0
ELLIPSE
  5
827
100
AcDbEntity
  8
ASSI
100
AcDbEllipse
 62
7
  6
CONTINUOUS
 10
-9.0368706193
 20
22.3869087013
 30
0.0
 11
0.25
 21
-0.0
 31
0.0
 40
0.0174550649
 41
-3.1241393611
 42
-1.5707963268
  0
ELLIPSE
  5
828
100
AcDbEntity
  8
ASSI
100
AcDbEllipse
 62
7
  6
CONTINUOUS
 10
-3.8445737581
 20
20.0043634339
 30
0.0
 11
0.5
 21
0.0
 31
0.0
 40
0.0087268678
 41
1.5707963268
 42
3.1241393611
  0
ELLIPSE
  5
829
100
AcDbEntity
  8
ASSI
100
AcDbEllipse
 62
7
  6
CONTINUOUS
 10
-3.9558713768
 20
17.8441286232
 30
0.0
 11
0.236218315
 21
0.4412535831
 31
0.0
 40
0.9989016803
 41
-4.2210273867
 42
-2.6505356464
  0
ELLIPSE
  5
82A
100
AcDbEntity
  8
ASSI
100
AcDbEllipse
 62
7
  6
CONTINUOUS
 10
4.4109791689
 20
19.7676913781
 30
0.0
 11
-0.0
 21
0.3
 31
0.0
 40
0.0174550649
 41
-4.7123889804
 42
-3.1939525311
  0
ELLIPSE
  5
82B
100
AcDbEntity
  8
ASSI
100
AcDbEllipse
 62
7
  6
CONTINUOUS
 10
6.4712013363
 20
19.7676913781
 30
0.0
 11
0.0
 21
0.3
 31
0.0
 40
0.0087268678
 41
-3.089232776
 42
-1.5707963268
  0
ELLIPSE
  5
82C
100
AcDbEntity
  8
ASSI
100
AcDbEllipse
 62
7
  6
CONTINUOUS
 10
9.5635864588
 20
19.7676913781
 30
0.0
 11
0.0
 21
0.3
 31
0.0
 40
0.0261859216
 41
-3.089232776
 42
-1.5707963268
  0
ELLIPSE
  5
82D
100
AcDbEntity
  8
ASSI
100
AcDbEllipse
 62
7
  6
CONTINUOUS
 10
7.3287986637
 20
19.7676913781
 30
0.0
 11
-0.0
 21
0.3
 31
0.0
 40
0.0087268678
 41
-4.7123889804
 42
-3.1939525311
  0
ELLIPSE
  5
82E
100
AcDbEntity
  8
ASSI
100
AcDbEllipse
 62
7
  6
CONTINUOUS
 10
-7.3287986637
 20
19.7676913781
 30
0.0
 11
-0.0
 21
0.3
 31
0.0
 40
0.0087268678
 41
-3.089232776
 42
-1.5707963268
  0
ELLIPSE
  5
82F
100
AcDbEntity
  8
ASSI
100
AcDbEllipse
 62
7
  6
CONTINUOUS
 10
-9.5635864588
 20
19.7676913781
 30
0.0
 11
0.0
 21
0.3
 31
0.0
 40
0.0261859216
 41
-4.7123889804
 42
-3.1939525311
  0
ELLIPSE
  5
830
100
AcDbEntity
  8
ASSI
100
AcDbEllipse
 62
7
  6
CONTINUOUS
 10
8.7631293807
 20
22.3869087013
 30
0.0
 11
0.25
 21
-0.0
 31
0.0
 40
0.0174550649
 41
-3.1241393611
 42
-1.5707963268
  0
ELLIPSE
  5
831
100
AcDbEntity
  8
ASSI
100
AcDbEllipse
 62
7
  6
CONTINUOUS
 10
-6.4712013363
 20
19.7676913781
 30
0.0
 11
0.0
 21
0.3
 31
0.0
 40
0.0087268678
 41
-4.7123889804
 42
-3.1939525311
  0
ELLIPSE
  5
832
100
AcDbEntity
  8
ASSI
100
AcDbEllipse
 62
7
  6
CONTINUOUS
 10
-4.4109791689
 20
19.7676913781
 30
0.0
 11
0.0
 21
0.3
 31
0.0
 40
0.0174550649
 41
-3.089232776
 42
-1.5707963268
  0
ELLIPSE
  5
833
100
AcDbEntity
  8
ASSI
100
AcDbEllipse
 62
7
  6
CONTINUOUS
 10
7.5105458734
 20
15.378729419
 30
0.0
 11
-0.0
 21
1.0
 31
0.0
 40
0.1763269807
 41
-4.6774823953
 42
-3.1764992386
  0
ELLIPSE
  5
834
100
AcDbEntity
  8
ASSI
100
AcDbEllipse
 62
7
  6
CONTINUOUS
 10
-7.5105458734
 20
15.378729419
 30
0.0
 11
-0.0
 21
1.0
 31
0.0
 40
0.1763269807
 41
-3.1066860685
 42
-1.6057029118
  0
ELLIPSE
  5
835
100
AcDbEntity
  8
ASSI
100
AcDbEllipse
 62
7
  6
CONTINUOUS
 10
3.8944541266
 20
15.378729419
 30
0.0
 11
0.0
 21
1.0
 31
0.0
 40
0.1763269807
 41
-3.1066860685
 42
-1.6057029118
  0
ELLIPSE
  5
836
100
AcDbEntity
  8
ASSI
100
AcDbEllipse
 62
7
  6
CONTINUOUS
 10
-3.8944541266
 20
15.378729419
 30
0.0
 11
-0.0
 21
1.0
 31
0.0
 40
0.1763269807
 41
-4.6774823953
 42
-3.1764992386
  0
ELLIPSE
  5
837
100
AcDbEntity
  8
ASSI
100
AcDbEllipse
 62
7
  6
CONTINUOUS
 10
9.0368706193
 20
-22.3869087013
 30
0.0
 11
0.25
 21
0.0
 31
0.0
 40
0.0174550649
 41
0.0174532925
 42
1.5707963268
  0
ELLIPSE
  5
838
100
AcDbEntity
  8
ASSI
100
AcDbEllipse
 62
7
  6
CONTINUOUS
 10
-8.7631293807
 20
-22.3869087013
 30
0.0
 11
0.25
 21
0.0
 31
0.0
 40
0.0174550649
 41
0.0174532925
 42
1.5707963268
  0
ELLIPSE
  5
839
100
AcDbEntity
  8
ASSI
100
AcDbEllipse
 62
7
  6
CONTINUOUS
 10
-8.7631293807
 20
22.3869087013
 30
0.0
 11
0.25
 21
0.0
 31
0.0
 40
0.0174550649
 41
-1.5707963268
 42
-0.0174532925
  0
ELLIPSE
  5
83A
100
AcDbEntity
  8
ASSI
100
AcDbEllipse
 62
7
  6
CONTINUOUS
 10
-8.7631293807
 20
23.5556624327
 30
0.0
 11
0.25
 21
0.0
 31
0.0
 40
0.5773502692
 41
0.0174532925
 42
0.5235987756
  0
ELLIPSE
  5
83B
100
AcDbEntity
  8
ASSI
100
AcDbEllipse
 62
7
  6
CONTINUOUS
 10
9.0368706193
 20
23.5556624327
 30
0.0
 11
0.25
 21
0.0
 31
0.0
 40
0.5773502692
 41
0.0174532925
 42
0.5235987756
  0
ELLIPSE
  5
83C
100
AcDbEntity
  8
ASSI
100
AcDbEllipse
 62
7
  6
CONTINUOUS
 10
9.0368706193
 20
22.3869087013
 30
0.0
 11
0.25
 21
0.0
 31
0.0
 40
0.0174550649
 41
-1.5707963268
 42
-0.0174532925
  0
ELLIPSE
  5
83D
100
AcDbEntity
  8
ASSI
100
AcDbEllipse
 62
7
  6
CONTINUOUS
 10
-10.3999695344
 20
23.3535898385
 30
0.0
 11
0.0069796346
 21
0.2308610084
 31
0.0
 40
0.8659264732
 41
-4.6774890294
 42
-3.1154190256
  0
ELLIPSE
  5
83E
100
AcDbEntity
  8
ASSI
100
AcDbEllipse
 62
7
  6
CONTINUOUS
 10
-7.4000304656
 20
23.3535898385
 30
0.0
 11
-0.0069796346
 21
0.2308610084
 31
0.0
 40
0.8659264732
 41
-3.1677662815
 42
-1.6056962779
  0
ELLIPSE
  5
83F
100
AcDbEntity
  8
ASSI
100
AcDbEllipse
 62
7
  6
CONTINUOUS
 10
7.4000304656
 20
23.3535898385
 30
0.0
 11
0.0069796346
 21
0.2308610084
 31
0.0
 40
0.8659264732
 41
-4.6774890294
 42
-3.1154190256
  0
ELLIPSE
  5
840
100
AcDbEntity
  8
ASSI
100
AcDbEllipse
 62
7
  6
CONTINUOUS
 10
10.3999695344
 20
23.3535898385
 30
0.0
 11
-0.0069796346
 21
0.2308610084
 31
0.0
 40
0.8659264732
 41
-3.1677662815
 42
-1.6056962779
  0
ELLIPSE
  5
841
100
AcDbEntity
  8
ASSI
100
AcDbEllipse
 62
7
  6
CONTINUOUS
 10
-10.3999695344
 20
-23.3535898385
 30
0.0
 11
-0.0069796346
 21
0.2308610084
 31
0.0
 40
0.8659264732
 41
-0.026173628
 42
1.5358963756
  0
ELLIPSE
  5
842
100
AcDbEntity
  8
ASSI
100
AcDbEllipse
 62
7
  6
CONTINUOUS
 10
7.4000304656
 20
-23.3535898385
 30
0.0
 11
-0.0069796346
 21
0.2308610084
 31
0.0
 40
0.8659264732
 41
-0.026173628
 42
1.5358963756
  0
ELLIPSE
  5
843
100
AcDbEntity
  8
ASSI
100
AcDbEllipse
 62
7
  6
CONTINUOUS
 10
-7.4000304656
 20
-23.3535898385
 30
0.0
 11
0.0069796346
 21
0.2308610084
 31
0.0
 40
0.8659264732
 41
-1.5358963758
 42
0.026173628
  0
ELLIPSE
  5
844
100
AcDbEntity
  8
ASSI
100
AcDbEllipse
 62
7
  6
CONTINUOUS
 10
-8.2272322516
 20
-8.0772322516
 30
0.0
 11
-0.3536610946
 21
-0.3536610946
 31
0.0
 40
0.9996954599
 41
-0.7852458701
 42
0.7852458701
  0
ELLIPSE
  5
845
100
AcDbEntity
  8
ASSI
100
AcDbEllipse
 62
7
  6
CONTINUOUS
 10
10.3999695344
 20
-23.3535898385
 30
0.0
 11
0.0069796346
 21
0.2308610084
 31
0.0
 40
0.8659264732
 41
-1.5358963758
 42
0.026173628
  0
ELLIPSE
  5
846
100
AcDbEntity
  8
ASSI
100
AcDbEllipse
 62
7
  6
CONTINUOUS
 10
8.2272322516
 20
-8.0772322516
 30
0.0
 11
0.3536610946
 21
-0.3536610946
 31
0.0
 40
0.9996954599
 41
-0.7852458701
 42
0.7852458701
  0
ELLIPSE
  5
847
100
AcDbEntity
  8
ASSI
100
AcDbEllipse
 62
7
  6
CONTINUOUS
 10
-3.9662724675
 20
22.3020015105
 30
0.0
 11
0.3856702945
 21
0.0
 31
0.0
 40
0.0174550649
 41
-3.1241393611
 42
-0.0174532925
  0
ELLIPSE
  5
848
100
AcDbEntity
  8
ASSI
100
AcDbEllipse
 62
7
  6
CONTINUOUS
 10
-3.9662724675
 20
-22.3020015105
 30
0.0
 11
0.3856702945
 21
0.0
 31
0.0
 40
0.0174550649
 41
0.0174532925
 42
3.1241393611
  0
ELLIPSE
  5
849
100
AcDbEntity
  8
ASSI
100
AcDbEllipse
 62
7
  6
CONTINUOUS
 10
3.9662724675
 20
22.3020015105
 30
0.0
 11
0.3856702945
 21
0.0
 31
0.0
 40
0.0174550649
 41
-3.1241393611
 42
-0.0174532925
  0
ELLIPSE
  5
84A
100
AcDbEntity
  8
ASSI
100
AcDbEllipse
 62
7
  6
CONTINUOUS
 10
3.9662724675
 20
-22.3020015105
 30
0.0
 11
0.3856702945
 21
0.0
 31
0.0
 40
0.0174550649
 41
0.0174532925
 42
3.1241393611
  0
ELLIPSE
  5
84B
100
AcDbEntity
  8
ASSI
100
AcDbEllipse
 62
7
  6
CONTINUOUS
 10
-3.750038082
 20
-23.7325068531
 30
0.0
 11
0.1768305473
 21
-0.1768305473
 31
0.0
 40
0.9996954599
 41
-0.7852458701
 42
0.7852458702
  0
ELLIPSE
  5
84C
100
AcDbEntity
  8
ASSI
100
AcDbEllipse
 62
7
  6
CONTINUOUS
 10
3.750038082
 20
-23.7325068531
 30
0.0
 11
0.1768305473
 21
0.1768305473
 31
0.0
 40
0.9996954599
 41
-3.9268385237
 42
-2.3563467834
  0
ELLIPSE
  5
84D
100
AcDbEntity
  8
ASSI
100
AcDbEllipse
 62
7
  6
CONTINUOUS
 10
3.750038082
 20
23.7325068531
 30
0.0
 11
-0.1768305473
 21
0.1768305473
 31
0.0
 40
0.9996954599
 41
-0.7852458702
 42
0.7852458701
  0
ELLIPSE
  5
84E
100
AcDbEntity
  8
ASSI
100
AcDbEllipse
 62
7
  6
CONTINUOUS
 10
-10.2824230726
 20
-21.5824230726
 30
0.0
 11
-0.5658577513
 21
-0.5658577513
 31
0.0
 40
0.9996954599
 41
-0.7852458701
 42
0.7852458701
  0
ELLIPSE
  5
84F
100
AcDbEntity
  8
ASSI
100
AcDbEllipse
 62
7
  6
CONTINUOUS
 10
-6.9127198986
 20
-20.0918966615
 30
0.0
 11
-0.0150589332
 21
0.3042668091
 31
0.0
 40
0.9847713852
 41
-0.0487002863
 42
1.5205806929
  0
ELLIPSE
  5
850
100
AcDbEntity
  8
ASSI
100
AcDbEllipse
 62
7
  6
CONTINUOUS
 10
-1.2087268678
 20
-8.0086887894
 30
0.0
 11
0.0
 21
1.0
 31
0.0
 40
0.0087268678
 41
-3.1328660073
 42
-1.5707963268
  0
ELLIPSE
  5
851
100
AcDbEntity
  8
ASSI
100
AcDbEllipse
 62
7
  6
CONTINUOUS
 10
-6.8872801014
 20
-20.0918966615
 30
0.0
 11
-0.0150589332
 21
-0.3042668091
 31
0.0
 40
0.9847713852
 41
1.6210119607
 42
3.1902929399
  0
ELLIPSE
  5
852
100
AcDbEntity
  8
ASSI
100
AcDbEllipse
 62
7
  6
CONTINUOUS
 10
-3.750038082
 20
23.7325068531
 30
0.0
 11
0.1768305473
 21
0.1768305473
 31
0.0
 40
0.9996954599
 41
-0.7852458702
 42
0.7852458701
  0
ELLIPSE
  5
853
100
AcDbEntity
  8
ASSI
100
AcDbEllipse
 62
7
  6
CONTINUOUS
 10
1.2087268678
 20
-8.0086887894
 30
0.0
 11
-0.0
 21
1.0
 31
0.0
 40
0.0087268678
 41
-4.7123889804
 42
-3.1503192998
  0
ELLIPSE
  5
854
100
AcDbEntity
  8
ASSI
100
AcDbEllipse
 62
7
  6
CONTINUOUS
 10
2.586542078
 20
-9.2985281374
 30
0.0
 11
-0.0
 21
0.6
 31
0.0
 40
0.0174550649
 41
0.7853981634
 42
2.617993878
  0
ELLIPSE
  5
855
100
AcDbEntity
  8
ASSI
100
AcDbEllipse
 62
7
  6
CONTINUOUS
 10
1.2117812715
 20
-9.2985281374
 30
0.0
 11
-0.0
 21
0.6
 31
0.0
 40
0.0087268678
 41
-1.0812681804
 42
-0.7853981634
  0
ELLIPSE
  5
856
100
AcDbEntity
  8
ASSI
100
AcDbEllipse
 62
7
  6
CONTINUOUS
 10
-3.3850964806
 20
-20.8909925586
 30
0.0
 11
0.25
 21
-0.0
 31
0.0
 40
0.3639702343
 41
0.0087266463
 42
1.5707963268
  0
ELLIPSE
  5
857
100
AcDbEntity
  8
ASSI
100
AcDbEllipse
 62
7
  6
CONTINUOUS
 10
-3.3000095196
 20
-22.1325068531
 30
0.0
 11
-0.1118178731
 21
0.2236527791
 31
0.0
 40
0.9998096356
 41
-3.6051336537
 42
-2.0344896259
  0
ELLIPSE
  5
858
100
AcDbEntity
  8
ASSI
100
AcDbEllipse
 62
7
  6
CONTINUOUS
 10
3.3000095196
 20
-22.1325068531
 30
0.0
 11
0.1118178731
 21
0.2236527791
 31
0.0
 40
0.9998096356
 41
-4.2486956813
 42
-2.6780516535
  0
ELLIPSE
  5
859
100
AcDbEntity
  8
ASSI
100
AcDbEllipse
 62
7
  6
CONTINUOUS
 10
3.3850964806
 20
-20.8909925586
 30
0.0
 11
0.25
 21
-0.0
 31
0.0
 40
0.3639702343
 41
1.5707963268
 42
3.1328660073
  0
ELLIPSE
  5
85A
100
AcDbEntity
  8
ASSI
100
AcDbEllipse
 62
7
  6
CONTINUOUS
 10
3.3850964806
 20
20.8909925586
 30
0.0
 11
0.25
 21
-0.0
 31
0.0
 40
0.3639702343
 41
-3.1328660073
 42
-1.5707963268
  0
ELLIPSE
  5
85B
100
AcDbEntity
  8
ASSI
100
AcDbEllipse
 62
7
  6
CONTINUOUS
 10
3.3000095196
 20
22.1325068531
 30
0.0
 11
-0.1118178731
 21
0.2236527791
 31
0.0
 40
0.9998096356
 41
-0.4635410001
 42
1.1071030277
  0
ELLIPSE
  5
85C
100
AcDbEntity
  8
ASSI
100
AcDbEllipse
 62
7
  6
CONTINUOUS
 10
-3.3000095196
 20
22.1325068531
 30
0.0
 11
0.1118178731
 21
0.2236527791
 31
0.0
 40
0.9998096356
 41
-1.1071030277
 42
0.4635410001
  0
ELLIPSE
  5
85D
100
AcDbEntity
  8
ASSI
100
AcDbEllipse
 62
7
  6
CONTINUOUS
 10
-3.3850964806
 20
20.8909925586
 30
0.0
 11
0.25
 21
0.0
 31
0.0
 40
0.3639702343
 41
-1.5707963268
 42
-0.0087266463
  0
ELLIPSE
  5
85E
100
AcDbEntity
  8
ASSI
100
AcDbEllipse
 62
7
  6
CONTINUOUS
 10
-7.0514388673
 20
17.2890700911
 30
0.0
 11
0.0130177014
 21
0.306250446
 31
0.0
 40
0.9787055891
 41
-4.6692960451
 42
-3.1000150659
  0
ELLIPSE
  5
85F
100
AcDbEntity
  8
ASSI
100
AcDbEllipse
 62
7
  6
CONTINUOUS
 10
7.0514388673
 20
17.2890700911
 30
0.0
 11
-0.0130177014
 21
0.306250446
 31
0.0
 40
0.9787055891
 41
-3.1831702413
 42
-1.613889262
  0
ELLIPSE
  5
860
100
AcDbEntity
  8
ASSI
100
AcDbEllipse
 62
7
  6
CONTINUOUS
 10
-1.2117812715
 20
-9.2985281374
 30
0.0
 11
-0.0
 21
0.6
 31
0.0
 40
0.0087268678
 41
0.7853981634
 42
1.0812681804
  0
ELLIPSE
  5
861
100
AcDbEntity
  8
ASSI
100
AcDbEllipse
 62
7
  6
CONTINUOUS
 10
-2.586542078
 20
-9.2985281374
 30
0.0
 11
-0.0
 21
0.6
 31
0.0
 40
0.0174550649
 41
-2.617993878
 42
-0.7853981634
  0
ELLIPSE
  5
862
100
AcDbEntity
  8
ASSI
100
AcDbEllipse
 62
7
  6
CONTINUOUS
 10
6.8872801014
 20
-20.0918966615
 30
0.0
 11
0.0150589332
 21
-0.3042668091
 31
0.0
 40
0.9847713852
 41
3.0928923672
 42
4.6621733465
  0
ELLIPSE
  5
863
100
AcDbEntity
  8
ASSI
100
AcDbEllipse
 62
7
  6
CONTINUOUS
 10
-6.9127198986
 20
20.0918966615
 30
0.0
 11
0.0150589332
 21
0.3042668091
 31
0.0
 40
0.9847713852
 41
1.6210119607
 42
3.1902929399
  0
ELLIPSE
  5
864
100
AcDbEntity
  8
ASSI
100
AcDbEllipse
 62
7
  6
CONTINUOUS
 10
6.9127198986
 20
20.0918966615
 30
0.0
 11
0.0150589332
 21
-0.3042668091
 31
0.0
 40
0.9847713852
 41
-0.0487002863
 42
1.5205806929
  0
ELLIPSE
  5
865
100
AcDbEntity
  8
ASSI
100
AcDbEllipse
 62
7
  6
CONTINUOUS
 10
6.8872801014
 20
20.0918966615
 30
0.0
 11
0.0150589332
 21
0.3042668091
 31
0.0
 40
0.9847713852
 41
1.6210119607
 42
3.1902929399
  0
ELLIPSE
  5
866
100
AcDbEntity
  8
ASSI
100
AcDbEllipse
 62
7
  6
CONTINUOUS
 10
-6.8872801014
 20
20.0918966615
 30
0.0
 11
-0.0150589332
 21
0.3042668091
 31
0.0
 40
0.9847713852
 41
3.0928923672
 42
4.6621733465
  0
ELLIPSE
  5
867
100
AcDbEntity
  8
ASSI
100
AcDbEllipse
 62
7
  6
CONTINUOUS
 10
4.0459553394
 20
23.2
 30
0.0
 11
0.4595995956
 21
0.0
 31
0.0
 40
0.9949884474
 41
0.4967770086
 42
0.8362648721
  0
ELLIPSE
  5
868
100
AcDbEntity
  8
ASSI
100
AcDbEllipse
 62
7
  6
CONTINUOUS
 10
4.0459553394
 20
23.2
 30
0.0
 11
0.4595995956
 21
-0.0
 31
0.0
 40
0.9949884474
 41
-0.8362648721
 42
-0.4967770086
  0
ELLIPSE
  5
869
100
AcDbEntity
  8
ASSI
100
AcDbEllipse
 62
7
  6
CONTINUOUS
 10
4.0459553394
 20
-23.2
 30
0.0
 11
0.4595995956
 21
0.0
 31
0.0
 40
0.9949884474
 41
0.4967770086
 42
0.8362648721
  0
ELLIPSE
  5
86A
100
AcDbEntity
  8
ASSI
100
AcDbEllipse
 62
7
  6
CONTINUOUS
 10
4.0459553394
 20
-23.2
 30
0.0
 11
0.4595995956
 21
-0.0
 31
0.0
 40
0.9949884474
 41
-0.8362648721
 42
-0.4967770086
  0
ELLIPSE
  5
86B
100
AcDbEntity
  8
ASSI
100
AcDbEllipse
 62
7
  6
CONTINUOUS
 10
-8.7631293807
 20
-23.5556624327
 30
0.0
 11
0.25
 21
0.0
 31
0.0
 40
0.5773502692
 41
-0.5235987756
 42
-0.0174532925
  0
ELLIPSE
  5
86C
100
AcDbEntity
  8
ASSI
100
AcDbEllipse
 62
7
  6
CONTINUOUS
 10
9.0368706193
 20
-23.5556624327
 30
0.0
 11
0.25
 21
0.0
 31
0.0
 40
0.5773502692
 41
-0.5235987756
 42
-0.0174532925
  0
ELLIPSE
  5
86D
100
AcDbEntity
  8
ASSI
100
AcDbEllipse
 62
7
  6
CONTINUOUS
 10
-10.2824230726
 20
21.5824230726
 30
0.0
 11
0.5658577513
 21
-0.5658577513
 31
0.0
 40
0.9996954599
 41
2.3563467834
 42
3.9268385237
  0
ELLIPSE
  5
86E
100
AcDbEntity
  8
ASSI
100
AcDbEllipse
 62
7
  6
CONTINUOUS
 10
-9.0368706193
 20
23.5556624327
 30
0.0
 11
0.25
 21
0.0
 31
0.0
 40
0.5773502692
 41
2.617993878
 42
3.1241393611
  0
ELLIPSE
  5
86F
100
AcDbEntity
  8
ASSI
100
AcDbEllipse
 62
7
  6
CONTINUOUS
 10
8.7631293807
 20
23.5556624327
 30
0.0
 11
0.25
 21
0.0
 31
0.0
 40
0.5773502692
 41
2.617993878
 42
3.1241393611
  0
ELLIPSE
  5
870
100
AcDbEntity
  8
ASSI
100
AcDbEllipse
 62
7
  6
CONTINUOUS
 10
6.9127198986
 20
-20.0918966615
 30
0.0
 11
-0.0150589332
 21
-0.3042668091
 31
0.0
 40
0.9847713852
 41
1.6210119607
 42
3.1902929399
  0
ENDSEC
  0
SECTION
  2
OBJECTS
  0
DICTIONARY
  5
C
100
AcDbDictionary
280
0
281
1
  3
ACAD_GROUP
350
D
  3
ACAD_MLINESTYLE
350
17
  3
ACAD_LAYOUT
350
1A
  3
ACAD_PLOTSETTINGS
350
19
  3
ACAD_PLOTSTYLENAME
350
E
  0
DICTIONARY
  5
D
102
{ACAD_REACTORS
330
C
102
}
100
AcDbDictionary
280
0
281
1
  0
ACDBDICTIONARYWDFLT
  5
E
102
{ACAD_REACTORS
330
C
102
}
100
AcDbDictionary
281
1
  3
Normal
350
F
100
AcDbDictionaryWithDefault
340
F
  0
DICTIONARY
  5
17
102
{ACAD_REACTORS
330
C
102
}
100
AcDbDictionary
280
0
281
1
  3
Standard
350
18
  0
DICTIONARY
  5
19
102
{ACAD_REACTORS
330
C
102
}
100
AcDbDictionary
281
1
  0
DICTIONARY
  5
1A
102
{ACAD_REACTORS
330
C
102
}
100
AcDbDictionary
281
1
  3
Model
350
871
  3
Layout1
350
872
  0
ACDBPLACEHOLDER
  5
F
102
{ACAD_REACTORS
330
E
102
}
  0
MLINESTYLE
  5
18
102
{ACAD_REACTORS
330
17
102
}
100
AcDbMlineStyle
  2
STANDARD
 70
0
  3

 62
256
 51
90.0
 52
90.0
 71
2
 49
0.5
 62
256
  6
BYLAYER
 49
-0.5
 62
256
  6
BYLAYER
  0
LAYOUT
  5
871
102
{ACAD_REACTORS
330
1A
102
}
100
AcDbPlotSettings
  1

  2
none_device
  4
ISO_A4_(297.00_x_210.00_MM)
  6

 40
0.0
 41
0.0
 42
0.0
 43
0.0
 44
297.0
 45
210.0
 46
0.0
 47
0.0
 48
0.0
 49
0.0
140
0.0
141
0.0
142
1.0
143
1.0
 70
1024
 72
1
 73
0
 74
0
  7

 75
0
147
1.0
148
0.0
149
0.0
100
AcDbLayout
  1
Model
 70
0
 71
0
 10
0.0
 20
0.0
 11
297.0
 21
210.0
 12
0.0
 22
0.0
 32
0.0
 14
0.0
 24
0.0
 34
0.0
 15
0.0
 25
0.0
 35
0.0
146
0.0
 13
0.0
 23
0.0
 33
0.0
 16
1.0
 26
0.0
 36
0.0
 17
0.0
 27
1.0
 37
0.0
 76
0
330
21B
345
0
346
0
  0
LAYOUT
  5
872
102
{ACAD_REACTORS
330
1A
102
}
100
AcDbPlotSettings
  1

  2
none_device
  4
ISO_A4_(297.00_x_210.00_MM)
  6

 40
0.0
 41
0.0
 42
0.0
 43
0.0
 44
297.0
 45
210.0
 46
0.0
 47
0.0
 48
0.0
 49
0.0
140
0.0
141
0.0
142
1.0
143
1.0
 70
0
 72
1
 73
0
 74
0
  7

 75
0
147
1.0
148
0.0
149
0.0
100
AcDbLayout
  1
Layout1
 70
0
 71
1
 10
0.0
 20
0.0
 11
297.0
 21
210.0
 12
0.0
 22
0.0
 32
0.0
 14
0.0
 24
0.0
 34
0.0
 15
0.0
 25
0.0
 35
0.0
146
0.0
 13
0.0
 23
0.0
 33
0.0
 16
1.0
 26
0.0
 36
0.0
 17
0.0
 27
1.0
 37
0.0
 76
0
330
21C
345
0
346
0
  0
ENDSEC
  0
EOF
