  0
SECTION
  2
HEADER
  9
$ACADVER
  1
AC1021
  9
$DWGCODEPAGE
  3
ANSI_1252
  9
$EXTMAX
 10
558.8
 20
431.8
 30
0.0
  9
$EXTMIN
 10
0.0
 20
0.0
 30
0.0
  9
$LIMMIN
 10
0.0
 20
0.0
  9
$LIMMAX
 10
558.8
 20
431.8
  9
$VIEWCTR
 10
279.4
 20
215.9
  9
$VIEWSIZE
 40
431.8
  9
$CLAYER
  8
0
  9
$LTSCALE
 40
30.734
  9
$CELTYPE
  6
BYLAYER
  9
$DIMSCALE
 40
1.0
  9
$DIMASZ
 40
3.0
  9
$DIMEXO
 40
0.5
  9
$DIMDLI
 40
21.2344
  9
$DIMEXE
 40
1.5
  9
$DIMCEN
 40
5.0292
  9
$DIMLFAC
 40
1.0
  9
$DIMBLK
  1
_FILLED
  9
$DIMALT
 70
0
  9
$DIMALTF
 40
25.4
  9
$DIMTXT
 40
3.0
  9
$DIMTOL
 70
1
  9
$DIMLIM
 70
0
  9
$DIMTFAC
 40
1.0
  9
$DIMTP
 40
0.01
  9
$DIMTM
 40
0.01
  9
$DIMGAP
 40
0.625
  9
$DIMDSEP
 70
44
  9
$AUNITS
 70
0
  9
$PDMODE
 70
3
  9
$PDSIZE
 40
3.0
  9
$HANDSEED
  5
8F4
  9
$TILEMODE
 70
1
  9
$MEASUREMENT
 70
1
  9
$INSUNITS
 70
4
  0
ENDSEC
  0
SECTION
  2
CLASSES
  0
CLASS
  1
ACDBDICTIONARYWDFLT
  2
AcDbDictionaryWithDefault
  3
AutoCAD 2000
 90
0
 91
1
280
0
281
0
  0
CLASS
  1
ACDBPLACEHOLDER
  2
AcDbPlaceHolder
  3
AutoCAD 2000
 90
0
 91
1
280
0
281
0
  0
CLASS
  1
LAYOUT
  2
AcDbLayout
  3
AutoCAD 2000
 90
0
 91
0
280
0
281
0
  0
ENDSEC
  0
SECTION
  2
TABLES
  0
TABLE
  2
VPORT
  5
8
100
AcDbSymbolTable
 70
2
  0
VPORT
  5
1F4
100
AcDbSymbolTableRecord
100
AcDbViewportTableRecord
  2
*ACTIVE
 70
0
 10
0.0
 20
0.0
 11
1.0
 21
1.0
 12
279.4
 22
215.9
 13
0.0
 23
0.0
 14
1.0
 24
1.0
 15
0.0
 25
0.0
 16
0.0
 26
0.0
 36
1.0
 17
0.0
 27
0.0
 37
0.0
 40
431.8
 41
1.2941176471
 42
50.0
 43
0.0
 44
0.0
 50
0.0
 51
0.0
 71
0
 72
100
 73
1
 74
1
 75
0
 76
0
 77
0
 78
0
  0
ENDTAB
  0
TABLE
  2
LTYPE
  5
5
100
AcDbSymbolTable
 70
6
  0
LTYPE
  5
14
100
AcDbSymbolTableRecord
100
AcDbLinetypeTableRecord
  2
BYBLOCK
 70
0
  3

 72
65
 73
0
 40
0.0
  0
LTYPE
  5
15
100
AcDbSymbolTableRecord
100
AcDbLinetypeTableRecord
  2
BYLAYER
 70
0
  3

 72
65
 73
0
 40
0.0
  0
LTYPE
  5
16
100
AcDbSymbolTableRecord
100
AcDbLinetypeTableRecord
  2
CONTINUOUS
 70
64
  3
Solid line
 72
65
 73
0
 40
0.0
  0
LTYPE
  5
1F5
100
AcDbSymbolTableRecord
100
AcDbLinetypeTableRecord
  2
CENTER
 70
64
  3
____ _ ____ _ ____ _ ____ _ ____ _ ____ _ ____
 72
65
 73
4
 40
0.6
 49
0.375
 74
0
 49
-0.075
 74
0
 49
0.075
 74
0
 49
-0.075
 74
0
  0
LTYPE
  5
1F6
100
AcDbSymbolTableRecord
100
AcDbLinetypeTableRecord
  2
HIDDEN
 70
64
  3
- - - - - - - - - - - - - - - - - - - -
 72
65
 73
2
 40
0.2
 49
0.1
 74
0
 49
-0.1
 74
0
  0
LTYPE
  5
1F7
100
AcDbSymbolTableRecord
100
AcDbLinetypeTableRecord
  2
PHANTOM
 70
64
  3
_____ _ _ _____ _ _ _____ _ _ _____
 72
65
 73
6
 40
0.8
 49
0.45
 74
0
 49
-0.05
 74
0
 49
0.1
 74
0
 49
-0.05
 74
0
 49
0.1
 74
0
 49
-0.05
 74
0
  0
LTYPE
  5
1F8
100
AcDbSymbolTableRecord
100
AcDbLinetypeTableRecord
  2
DOT
 70
64
  3
. . . . . . . . . . . . . . . . . . . .
 72
65
 73
2
 40
0.2
 49
0.1
 74
0
 49
-0.1
 74
0
  0
LTYPE
  5
1F9
100
AcDbSymbolTableRecord
100
AcDbLinetypeTableRecord
  2
DASHED
 70
64
  3
- - - - - - - - - - - - - - - - - - - -
 72
65
 73
2
 40
0.2
 49
0.1
 74
0
 49
-0.1
 74
0
  0
ENDTAB
  0
TABLE
  2
LAYER
  5
2
100
AcDbSymbolTable
 70
36
  0
LAYER
  5
10
100
AcDbSymbolTableRecord
100
AcDbLayerTableRecord
  2
0
 70
0
 62
7
  6
CONTINUOUS
370
-3
390
F
  0
LAYER
  5
1FA
100
AcDbSymbolTableRecord
100
AcDbLayerTableRecord
  2
DEFAULT_1
 70
0
 62
7
  6
CENTER
370
-3
390
F
  0
LAYER
  5
1FB
100
AcDbSymbolTableRecord
100
AcDbLayerTableRecord
  2
DEFAULT_2
 70
0
 62
7
  6
HIDDEN
370
-3
390
F
  0
LAYER
  5
1FC
100
AcDbSymbolTableRecord
100
AcDbLayerTableRecord
  2
DEFAULT_3
 70
0
 62
7
  6
PHANTOM
370
-3
390
F
  0
LAYER
  5
1FD
100
AcDbSymbolTableRecord
100
AcDbLayerTableRecord
  2
ASSI
 70
0
 62
7
  6
CONTINUOUS
370
-3
390
F
  0
LAYER
  5
1FE
100
AcDbSymbolTableRecord
100
AcDbLayerTableRecord
  2
COORDINATE
 70
0
 62
7
  6
CONTINUOUS
370
-3
390
F
  0
LAYER
  5
1FF
100
AcDbSymbolTableRecord
100
AcDbLayerTableRecord
  2
COORD_ORIGINE
 70
0
 62
7
  6
CONTINUOUS
370
-3
390
F
  0
LAYER
  5
200
100
AcDbSymbolTableRecord
100
AcDbLayerTableRecord
  2
COPY_PUBLISH
 70
0
 62
7
  6
CONTINUOUS
370
-3
390
F
  0
LAYER
  5
201
100
AcDbSymbolTableRecord
100
AcDbLayerTableRecord
  2
COSMETIC
 70
0
 62
7
  6
CONTINUOUS
370
-3
390
F
  0
LAYER
  5
202
100
AcDbSymbolTableRecord
100
AcDbLayerTableRecord
  2
COSMETICI
 70
0
 62
7
  6
CONTINUOUS
370
-3
390
F
  0
LAYER
  5
203
100
AcDbSymbolTableRecord
100
AcDbLayerTableRecord
  2
CURVE
 70
0
 62
7
  6
CONTINUOUS
370
-3
390
F
  0
LAYER
  5
204
100
AcDbSymbolTableRecord
100
AcDbLayerTableRecord
  2
DRAFT
 70
0
 62
7
  6
CONTINUOUS
370
-3
390
F
  0
LAYER
  5
205
100
AcDbSymbolTableRecord
100
AcDbLayerTableRecord
  2
IMPORT_IGES
 70
0
 62
7
  6
CONTINUOUS
370
-3
390
F
  0
LAYER
  5
206
100
AcDbSymbolTableRecord
100
AcDbLayerTableRecord
  2
INTFCLR_1
 70
0
 62
7
  6
CONTINUOUS
370
-3
390
F
  0
LAYER
  5
207
100
AcDbSymbolTableRecord
100
AcDbLayerTableRecord
  2
INTF_1
 70
0
 62
7
  6
CONTINUOUS
370
-3
390
F
  0
LAYER
  5
208
100
AcDbSymbolTableRecord
100
AcDbLayerTableRecord
  2
INTF_15
 70
0
 62
7
  6
CONTINUOUS
370
-3
390
F
  0
LAYER
  5
209
100
AcDbSymbolTableRecord
100
AcDbLayerTableRecord
  2
INTF_16
 70
0
 62
7
  6
CONTINUOUS
370
-3
390
F
  0
LAYER
  5
20A
100
AcDbSymbolTableRecord
100
AcDbLayerTableRecord
  2
NOTE
 70
0
 62
7
  6
CONTINUOUS
370
-3
390
F
  0
LAYER
  5
20B
100
AcDbSymbolTableRecord
100
AcDbLayerTableRecord
  2
PIANI
 70
0
 62
7
  6
CONTINUOUS
370
-3
390
F
  0
LAYER
  5
20C
100
AcDbSymbolTableRecord
100
AcDbLayerTableRecord
  2
PIANI_COSTRUZIONE_PROFILO
 70
0
 62
7
  6
CONTINUOUS
370
-3
390
F
  0
LAYER
  5
20D
100
AcDbSymbolTableRecord
100
AcDbLayerTableRecord
  2
PIANI_ORIGINE
 70
0
 62
7
  6
CONTINUOUS
370
-3
390
F
  0
LAYER
  5
20E
100
AcDbSymbolTableRecord
100
AcDbLayerTableRecord
  2
PIANI_RIFERIMENTO
 70
0
 62
7
  6
CONTINUOUS
370
-3
390
F
  0
LAYER
  5
20F
100
AcDbSymbolTableRecord
100
AcDbLayerTableRecord
  2
PUNTI
 70
0
 62
7
  6
CONTINUOUS
370
-3
390
F
  0
LAYER
  5
210
100
AcDbSymbolTableRecord
100
AcDbLayerTableRecord
  2
RACCORDO
 70
0
 62
7
  6
CONTINUOUS
370
-3
390
F
  0
LAYER
  5
211
100
AcDbSymbolTableRecord
100
AcDbLayerTableRecord
  2
SIMBOLI
 70
0
 62
7
  6
CONTINUOUS
370
-3
390
F
  0
LAYER
  5
212
100
AcDbSymbolTableRecord
100
AcDbLayerTableRecord
  2
SMUSSO
 70
0
 62
7
  6
CONTINUOUS
370
-3
390
F
  0
LAYER
  5
213
100
AcDbSymbolTableRecord
100
AcDbLayerTableRecord
  2
SNAPLINE
 70
0
 62
7
  6
CONTINUOUS
370
-3
390
F
  0
LAYER
  5
214
100
AcDbSymbolTableRecord
100
AcDbLayerTableRecord
  2
SUPERFICI
 70
0
 62
7
  6
CONTINUOUS
370
-3
390
F
  0
LAYER
  5
215
100
AcDbSymbolTableRecord
100
AcDbLayerTableRecord
  2
SUPERFICI_ESTETICHE
 70
0
 62
7
  6
CONTINUOUS
370
-3
390
F
  0
LAYER
  5
216
100
AcDbSymbolTableRecord
100
AcDbLayerTableRecord
  2
SUPERFICI_SKEL
 70
0
 62
7
  6
CONTINUOUS
370
-3
390
F
  0
LAYER
  5
217
100
AcDbSymbolTableRecord
100
AcDbLayerTableRecord
  2
TRASH
 70
0
 62
7
  6
CONTINUOUS
370
-3
390
F
  0
ENDTAB
  0
TABLE
  2
STYLE
  5
3
100
AcDbSymbolTable
 70
1
  0
STYLE
  5
11
100
AcDbSymbolTableRecord
100
AcDbTextStyleTableRecord
  2
STANDARD
 70
0
 40
0.0
 41
0.8
 50
0.0
 71
0
 42
0.2
  3
txt
  4

  0
STYLE
  5
218
100
AcDbSymbolTableRecord
100
AcDbTextStyleTableRecord
  2
TEXTSTYLE_1
 70
0
 40
0.0
 41
0.8
 50
0.0
 71
0
 42
0.2
  3
gdt
  4

  0
ENDTAB
  0
TABLE
  2
VIEW
  5
6
100
AcDbSymbolTable
 70
0
  0
ENDTAB
  0
TABLE
  2
UCS
  5
7
100
AcDbSymbolTable
 70
0
  0
ENDTAB
  0
TABLE
  2
APPID
  5
9
100
AcDbSymbolTable
 70
1
  0
APPID
  5
219
100
AcDbSymbolTableRecord
100
AcDbRegAppTableRecord
  2
ACAD
 70
0
  0
ENDTAB
  0
TABLE
  2
BLOCK_RECORD
  5
1
100
AcDbSymbolTable
 70
0
  0
BLOCK_RECORD
  5
21A
100
AcDbSymbolTableRecord
100
AcDbBlockTableRecord
  2
*Model_Space
  0
BLOCK_RECORD
  5
21B
100
AcDbSymbolTableRecord
100
AcDbBlockTableRecord
  2
*Paper_Space
  0
ENDTAB
  0
TABLE
  2
DIMSTYLE
  5
A
100
AcDbSymbolTable
 70
1
100
AcDbDimStyleTable
 71
0
  0
DIMSTYLE
105
21C
100
AcDbSymbolTableRecord
100
AcDbDimStyleTableRecord
  2
STANDARD
 70
0
  3

  4

 40
1.0
 41
3.0
 42
0.5
 43
0.38
 44
1.5
 45
0.0
 46
0.0
 47
0.01
 48
0.01
140
3.0
141
0.09
142
0.0
143
25.4
144
1.0
145
0.0
146
1.0
147
0.625
 71
1.0
 72
0.0
 73
0
 74
0
 75
0
 76
0
 77
1
 78
8
170
0
171
1
172
0
173
0
174
0
175
0
176
0
177
0
178
0
270
2
271
2
272
2
273
2
274
2
275
0
280
0
281
0
282
0
283
1
284
8
285
0
286
0
287
3
288
0
340
11
278
44
  0
ENDTAB
  0
ENDSEC
  0
SECTION
  2
BLOCKS
  0
BLOCK
  5
20
100
AcDbEntity
  8
0
100
AcDbBlockBegin
  2
*Model_Space
 70
0
 10
0.0
 20
0.0
 30
0.0
  3
*Model_Space
  1

  0
ENDBLK
  5
21
100
AcDbEntity
  8
0
100
AcDbBlockEnd
  0
BLOCK
  5
1C
100
AcDbEntity
  8
0
100
AcDbBlockBegin
  2
*Paper_Space
 70
0
 10
0.0
 20
0.0
 30
0.0
  3
*Paper_Space
  1

  0
ENDBLK
  5
1D
100
AcDbEntity
  8
0
100
AcDbBlockEnd
  0
ENDSEC
  0
SECTION
  2
ENTITIES
  0
LWPOLYLINE
  5
21D
100
AcDbEntity
  8
ASSI
100
AcDbPolyline
 62
253
  6
CONTINUOUS
 90
13
 70
0
 10
4.1019220988
 20
-23.9018840226
 10
4.1345399665
 20
-23.899736776
 10
4.1666004483
 20
-23.8933515141
 10
4.1975552274
 20
-23.8828372701
 10
4.2268748353
 20
-23.8683737147
 10
4.2540577907
 20
-23.8502080515
 10
4.2786391579
 20
-23.8286507617
 10
4.3001984306
 20
-23.8040703271
 10
4.3183666365
 20
-23.7768870913
 10
4.3328327821
 20
-23.7475660561
 10
4.3433492872
 20
-23.7166087507
 10
4.3497361626
 20
-23.6845446147
 10
4.3518840225
 20
-23.6519220987
  0
LWPOLYLINE
  5
21E
100
AcDbEntity
  8
ASSI
100
AcDbPolyline
 62
253
  6
CONTINUOUS
 90
13
 70
0
 10
-7.4131369959
 20
-24.4868325431
 10
-7.3870407301
 20
-24.4851144853
 10
-7.3613908123
 20
-24.4800055957
 10
-7.3366259503
 20
-24.4715932572
 10
-7.313169713
 20
-24.4600213535
 10
-7.2914232882
 20
-24.4454878089
 10
-7.2717586201
 20
-24.4282412037
 10
-7.2545120452
 20
-24.4085765216
 10
-7.2399785393
 20
-24.3868301015
 10
-7.228406675
 20
-24.3633738862
 10
-7.2199943707
 20
-24.3386090625
 10
-7.2148855055
 20
-24.3129591998
 10
-7.2131674569
 20
-24.2868630041
  0
LWPOLYLINE
  5
21F
100
AcDbEntity
  8
ASSI
100
AcDbPolyline
 62
253
  6
CONTINUOUS
 90
13
 70
0
 10
-3.8306228363
 20
-23.9018840226
 10
-3.7980049686
 20
-23.899736776
 10
-3.7659444868
 20
-23.8933515141
 10
-3.7349897076
 20
-23.8828372701
 10
-3.7056700997
 20
-23.8683737147
 10
-3.6784871443
 20
-23.8502080515
 10
-3.6539057771
 20
-23.8286507617
 10
-3.6323465045
 20
-23.8040703271
 10
-3.6141782986
 20
-23.7768870913
 10
-3.599712153
 20
-23.7475660561
 10
-3.5891956479
 20
-23.7166087507
 10
-3.5828087724
 20
-23.6845446147
 10
-3.5806609125
 20
-23.6519220987
  0
LWPOLYLINE
  5
220
100
AcDbEntity
  8
ASSI
100
AcDbPolyline
 62
7
  6
CONTINUOUS
 90
13
 70
0
 10
10.400030461
 20
-24.5
 10
10.4261325878
 20
-24.4982897358
 10
10.4517877661
 20
-24.4931875595
 10
10.4765572875
 20
-24.4847805782
 10
10.5000177444
 20
-24.4732123371
 10
10.5217675502
 20
-24.45868055
 10
10.5414339722
 20
-24.4414339722
 10
10.55868055
 20
-24.4217675502
 10
10.5732123371
 20
-24.4000177444
 10
10.5847805782
 20
-24.3765572875
 10
10.5931875595
 20
-24.3517877661
 10
10.5982897358
 20
-24.3261325878
 10
10.6
 20
-24.300030461
  0
LWPOLYLINE
  5
221
100
AcDbEntity
  8
ASSI
100
AcDbPolyline
 62
253
  6
CONTINUOUS
 90
13
 70
0
 10
7.4135581409
 20
-23.6278312164
 10
7.3876000668
 20
-23.6294928133
 10
7.3620812288
 20
-23.6340570922
 10
7.3374334305
 20
-23.6414468209
 10
7.3140737363
 20
-23.6515369579
 10
7.2923974148
 20
-23.6641567683
 10
7.2727712505
 20
-23.6790927123
 10
7.2555273369
 20
-23.6960920591
 10
7.2409574574
 20
-23.7148671634
 10
7.2293081481
 20
-23.7351003322
 10
7.2207765266
 20
-23.7564492008
 10
7.2155069558
 20
-23.7785525256
 10
7.2135886019
 20
-23.8010362971
  0
LWPOLYLINE
  5
222
100
AcDbEntity
  8
ASSI
100
AcDbPolyline
 62
253
  6
CONTINUOUS
 90
7
 70
0
 10
3.8573833454
 20
-23.9005128001
 10
3.849640507
 20
-23.900716486
 10
3.843057215
 20
-23.9009352302
 10
3.8378428626
 20
-23.9011620538
 10
3.8340672475
 20
-23.9013946307
 10
3.8316605721
 20
-23.9016352869
 10
3.8306228363
 20
-23.9018840226
  0
LWPOLYLINE
  5
223
100
AcDbEntity
  8
ASSI
100
AcDbPolyline
 62
253
  6
CONTINUOUS
 90
7
 70
0
 10
-4.0751615897
 20
-23.9005128001
 10
-4.0829044281
 20
-23.900716486
 10
-4.0894877201
 20
-23.9009352302
 10
-4.0947020725
 20
-23.9011620538
 10
-4.0984776875
 20
-23.9013946307
 10
-4.100884363
 20
-23.9016352869
 10
-4.1019220988
 20
-23.9018840226
  0
LWPOLYLINE
  5
224
100
AcDbEntity
  8
ASSI
100
AcDbPolyline
 62
253
  6
CONTINUOUS
 90
4
 70
0
 10
3.6011780763
 20
-23.651199951
 10
3.5902910893
 20
-23.6514324171
 10
3.5834293393
 20
-23.6516729273
 10
3.5806627131
 20
-23.6519214817
  0
LWPOLYLINE
  5
225
100
AcDbEntity
  8
ASSI
100
AcDbPolyline
 62
253
  6
CONTINUOUS
 90
4
 70
0
 10
-4.3313668587
 20
-23.651199951
 10
-4.3422538457
 20
-23.6514324171
 10
-4.3491155958
 20
-23.6516729273
 10
-4.351882222
 20
-23.6519214817
  0
LINE
  5
226
100
AcDbEntity
  8
ASSI
100
AcDbLine
 62
253
  6
CONTINUOUS
 10
3.8764209328
 20
-23.9001516101
 11
3.8573833454
 21
-23.9005128001
  0
LINE
  5
227
100
AcDbEntity
  8
ASSI
100
AcDbLine
 62
253
  6
CONTINUOUS
 10
-4.0561240023
 20
-23.9001516101
 11
-4.0751615897
 21
-23.9005128001
  0
LINE
  5
228
100
AcDbEntity
  8
ASSI
100
AcDbLine
 62
253
  6
CONTINUOUS
 10
3.6345373037
 20
-23.6507544435
 11
3.6011780763
 21
-23.651199951
  0
LINE
  5
229
100
AcDbEntity
  8
ASSI
100
AcDbLine
 62
253
  6
CONTINUOUS
 10
-4.2980076314
 20
-23.6507544435
 11
-4.3313668587
 21
-23.651199951
  0
LINE
  5
22A
100
AcDbEntity
  8
ASSI
100
AcDbLine
 62
253
  6
CONTINUOUS
 10
3.8991657227
 20
-23.8998677172
 11
3.8764209328
 21
-23.9001516101
  0
LINE
  5
22B
100
AcDbEntity
  8
ASSI
100
AcDbLine
 62
253
  6
CONTINUOUS
 10
-4.0333792124
 20
-23.8998677172
 11
-4.0561240023
 21
-23.9001516101
  0
LINE
  5
22C
100
AcDbEntity
  8
ASSI
100
AcDbLine
 62
253
  6
CONTINUOUS
 10
3.7417664358
 20
-23.6500376417
 11
3.6345373037
 21
-23.6507544435
  0
LINE
  5
22D
100
AcDbEntity
  8
ASSI
100
AcDbLine
 62
253
  6
CONTINUOUS
 10
-4.1907784993
 20
-23.6500376417
 11
-4.2980076314
 21
-23.6507544435
  0
LINE
  5
22E
100
AcDbEntity
  8
ASSI
100
AcDbLine
 62
253
  6
CONTINUOUS
 10
3.9384389098
 20
-23.8996080633
 11
3.8991657227
 21
-23.8998677172
  0
LINE
  5
22F
100
AcDbEntity
  8
ASSI
100
AcDbLine
 62
253
  6
CONTINUOUS
 10
-3.9941060253
 20
-23.8996080633
 11
-4.0333792124
 21
-23.8998677172
  0
LINE
  5
230
100
AcDbEntity
  8
ASSI
100
AcDbLine
 62
7
  6
CONTINUOUS
 10
10.400030461
 20
-24.5
 11
7.399969539
 21
-24.5
  0
LINE
  5
231
100
AcDbEntity
  8
ASSI
100
AcDbLine
 62
7
  6
CONTINUOUS
 10
-7.399969539
 20
-24.5
 11
-10.400030461
 21
-24.5
  0
LINE
  5
232
100
AcDbEntity
  8
ASSI
100
AcDbLine
 62
253
  6
CONTINUOUS
 10
-10.3868630041
 20
-24.4868325431
 11
-7.4131369959
 21
-24.4868325431
  0
LINE
  5
233
100
AcDbEntity
  8
ASSI
100
AcDbLine
 62
253
  6
CONTINUOUS
 10
7.4131369959
 20
-24.4868325431
 11
10.3868630041
 21
-24.4868325431
  0
LINE
  5
234
100
AcDbEntity
  8
ASSI
100
AcDbLine
 62
253
  6
CONTINUOUS
 10
-10.5859750215
 20
-24.2368706193
 11
-7.2140249785
 21
-24.2368706193
  0
LINE
  5
235
100
AcDbEntity
  8
ASSI
100
AcDbLine
 62
253
  6
CONTINUOUS
 10
10.5859750215
 20
-24.2368706193
 11
7.2140249785
 21
-24.2368706193
  0
LINE
  5
236
100
AcDbEntity
  8
ASSI
100
AcDbLine
 62
7
  6
CONTINUOUS
 10
4.2000380762
 20
-24.0
 11
1.0499619238
 21
-24.0
  0
LINE
  5
237
100
AcDbEntity
  8
ASSI
100
AcDbLine
 62
7
  6
CONTINUOUS
 10
-1.0499619238
 20
-24.0
 11
-4.2000380762
 21
-24.0
  0
LINE
  5
238
100
AcDbEntity
  8
ASSI
100
AcDbLine
 62
7
  6
CONTINUOUS
 10
3.7499619238
 20
-23.9825449351
 11
1.0674169887
 21
-23.9825449351
  0
LINE
  5
239
100
AcDbEntity
  8
ASSI
100
AcDbLine
 62
7
  6
CONTINUOUS
 10
-1.0674169887
 20
-23.9825449351
 11
-3.7499619238
 21
-23.9825449351
  0
LINE
  5
23A
100
AcDbEntity
  8
ASSI
100
AcDbLine
 62
253
  6
CONTINUOUS
 10
-8.7631293807
 20
-23.8443375673
 11
-7.2140249785
 21
-23.8443375673
  0
LINE
  5
23B
100
AcDbEntity
  8
ASSI
100
AcDbLine
 62
253
  6
CONTINUOUS
 10
7.2140249785
 20
-23.8443375673
 11
8.7631293807
 21
-23.8443375673
  0
LINE
  5
23C
100
AcDbEntity
  8
ASSI
100
AcDbLine
 62
253
  6
CONTINUOUS
 10
-10.5859750215
 20
-23.8443375673
 11
-9.0368706193
 21
-23.8443375673
  0
LINE
  5
23D
100
AcDbEntity
  8
ASSI
100
AcDbLine
 62
253
  6
CONTINUOUS
 10
9.0368706193
 20
-23.8443375673
 11
10.5859750215
 21
-23.8443375673
  0
LINE
  5
23E
100
AcDbEntity
  8
ASSI
100
AcDbLine
 62
253
  6
CONTINUOUS
 10
-7.4135581719
 20
-23.6278322392
 11
-8.5466230298
 21
-23.6278312164
  0
LINE
  5
23F
100
AcDbEntity
  8
ASSI
100
AcDbLine
 62
253
  6
CONTINUOUS
 10
8.5466230298
 20
-23.6278312164
 11
7.4135581657
 21
-23.6278320349
  0
LINE
  5
240
100
AcDbEntity
  8
ASSI
100
AcDbLine
 62
253
  6
CONTINUOUS
 10
10.3864405812
 20
-23.6278734826
 11
9.2533769702
 21
-23.6278312164
  0
LINE
  5
241
100
AcDbEntity
  8
ASSI
100
AcDbLine
 62
253
  6
CONTINUOUS
 10
-9.2533769702
 20
-23.6278312164
 11
-10.3864405814
 21
-23.6278734767
  0
LINE
  5
242
100
AcDbEntity
  8
ASSI
100
AcDbLine
 62
7
  6
CONTINUOUS
 10
10.4017150409
 20
-23.1226497308
 11
9.3
 21
-23.1226497308
  0
LINE
  5
243
100
AcDbEntity
  8
ASSI
100
AcDbLine
 62
7
  6
CONTINUOUS
 10
8.5
 20
-23.1226497308
 11
7.3982849591
 21
-23.1226497308
  0
LINE
  5
244
100
AcDbEntity
  8
ASSI
100
AcDbLine
 62
7
  6
CONTINUOUS
 10
-7.3982849591
 20
-23.1226497308
 11
-8.5
 21
-23.1226497308
  0
LINE
  5
245
100
AcDbEntity
  8
ASSI
100
AcDbLine
 62
7
  6
CONTINUOUS
 10
-9.3
 20
-23.1226497308
 11
-10.4017150409
 21
-23.1226497308
  0
LINE
  5
246
100
AcDbEntity
  8
ASSI
100
AcDbLine
 62
253
  6
CONTINUOUS
 10
-3.9264051443
 20
-23.6496086404
 11
-4.1907784993
 21
-23.6500376417
  0
LINE
  5
247
100
AcDbEntity
  8
ASSI
100
AcDbLine
 62
253
  6
CONTINUOUS
 10
4.0061397907
 20
-23.6496086404
 11
3.7417664358
 21
-23.6500376417
  0
LINE
  5
248
100
AcDbEntity
  8
ASSI
100
AcDbLine
 62
253
  6
CONTINUOUS
 10
-3.9521688809
 20
-23.8995705207
 11
-3.9941060253
 21
-23.8996080633
  0
LINE
  5
249
100
AcDbEntity
  8
ASSI
100
AcDbLine
 62
253
  6
CONTINUOUS
 10
3.9803760542
 20
-23.8995705207
 11
3.9384389098
 21
-23.8996080633
  0
LINE
  5
24A
100
AcDbEntity
  8
ASSI
100
AcDbLine
 62
253
  6
CONTINUOUS
 10
-3.7105525176
 20
-23.6501907052
 11
-3.9264051443
 21
-23.6496086404
  0
LINE
  5
24B
100
AcDbEntity
  8
ASSI
100
AcDbLine
 62
253
  6
CONTINUOUS
 10
4.2219924175
 20
-23.6501907052
 11
4.0061397907
 21
-23.6496086404
  0
LINE
  5
24C
100
AcDbEntity
  8
ASSI
100
AcDbLine
 62
253
  6
CONTINUOUS
 10
-3.9115856588
 20
-23.8997586423
 11
-3.9521688809
 21
-23.8995705207
  0
LINE
  5
24D
100
AcDbEntity
  8
ASSI
100
AcDbLine
 62
253
  6
CONTINUOUS
 10
4.0209592762
 20
-23.8997586423
 11
3.9803760542
 21
-23.8995705207
  0
LINE
  5
24E
100
AcDbEntity
  8
ASSI
100
AcDbLine
 62
253
  6
CONTINUOUS
 10
-3.6345386313
 20
-23.650755106
 11
-3.7105525176
 21
-23.6501907052
  0
LINE
  5
24F
100
AcDbEntity
  8
ASSI
100
AcDbLine
 62
253
  6
CONTINUOUS
 10
4.2980063038
 20
-23.650755106
 11
4.2219924175
 21
-23.6501907052
  0
LINE
  5
250
100
AcDbEntity
  8
ASSI
100
AcDbLine
 62
253
  6
CONTINUOUS
 10
-3.8871643051
 20
-23.9000015429
 11
-3.9115856588
 21
-23.8997586423
  0
LINE
  5
251
100
AcDbEntity
  8
ASSI
100
AcDbLine
 62
253
  6
CONTINUOUS
 10
4.04538063
 20
-23.9000015429
 11
4.0209592762
 21
-23.8997586423
  0
LWPOLYLINE
  5
252
100
AcDbEntity
  8
ASSI
100
AcDbPolyline
 62
253
  6
CONTINUOUS
 90
13
 70
0
 10
-7.4135581409
 20
-23.6278312164
 10
-7.3876000694
 20
-23.629492813
 10
-7.3620812334
 20
-23.6340570911
 10
-7.3374334365
 20
-23.6414468187
 10
-7.3140737432
 20
-23.6515369545
 10
-7.2923974219
 20
-23.6641567636
 10
-7.2727712571
 20
-23.6790927066
 10
-7.2555273424
 20
-23.696092053
 10
-7.2409574614
 20
-23.7148671574
 10
-7.2293081507
 20
-23.7351003269
 10
-7.2207765279
 20
-23.7564491967
 10
-7.2155069562
 20
-23.7785525233
 10
-7.2135886019
 20
-23.8010362971
  0
LWPOLYLINE
  5
253
100
AcDbEntity
  8
ASSI
100
AcDbPolyline
 62
7
  6
CONTINUOUS
 90
13
 70
0
 10
-10.400030461
 20
-24.5
 10
-10.4261325878
 20
-24.4982897358
 10
-10.4517877661
 20
-24.4931875595
 10
-10.4765572875
 20
-24.4847805782
 10
-10.5000177444
 20
-24.4732123371
 10
-10.5217675502
 20
-24.45868055
 10
-10.5414339722
 20
-24.4414339722
 10
-10.55868055
 20
-24.4217675502
 10
-10.5732123371
 20
-24.4000177444
 10
-10.5847805782
 20
-24.3765572875
 10
-10.5931875595
 20
-24.3517877661
 10
-10.5982897358
 20
-24.3261325878
 10
-10.6
 20
-24.300030461
  0
LWPOLYLINE
  5
254
100
AcDbEntity
  8
ASSI
100
AcDbPolyline
 62
253
  6
CONTINUOUS
 90
13
 70
0
 10
-4.1019220988
 20
-23.9018840226
 10
-4.1345423881
 20
-23.8997364561
 10
-4.1666047513
 20
-23.893350359
 10
-4.197560805
 20
-23.8828349571
 10
-4.2268810875
 20
-23.8683701021
 10
-4.2540641149
 20
-23.8502031958
 10
-4.2786449584
 20
-23.8286449586
 10
-4.3002031955
 20
-23.8040641152
 10
-4.3183701019
 20
-23.7768810877
 10
-4.3328349569
 20
-23.7475608051
 10
-4.3433503589
 20
-23.7166047514
 10
-4.349736456
 20
-23.6845423882
 10
-4.3518840226
 20
-23.6519220988
  0
LWPOLYLINE
  5
255
100
AcDbEntity
  8
ASSI
100
AcDbPolyline
 62
253
  6
CONTINUOUS
 90
13
 70
0
 10
7.4131369959
 20
-24.4868325431
 10
7.3870407645
 20
-24.4851144898
 10
7.3613908739
 20
-24.4800056122
 10
7.336626031
 20
-24.4715932907
 10
7.3131698049
 20
-24.4600214066
 10
7.2914233829
 20
-24.4454878816
 10
7.2717587082
 20
-24.4282412918
 10
7.2545121184
 20
-24.4085766171
 10
7.2399785934
 20
-24.3868301951
 10
7.2284067093
 20
-24.363373969
 10
7.2199943878
 20
-24.3386091261
 10
7.2148855102
 20
-24.3129592355
 10
7.2131674569
 20
-24.2868630041
  0
LWPOLYLINE
  5
256
100
AcDbEntity
  8
ASSI
100
AcDbPolyline
 62
253
  6
CONTINUOUS
 90
13
 70
0
 10
3.8306228363
 20
-23.9018840226
 10
3.798002547
 20
-23.8997364561
 10
3.7659401837
 20
-23.893350359
 10
3.7349841301
 20
-23.8828349571
 10
3.7056638476
 20
-23.8683701021
 10
3.6784808201
 20
-23.8502031958
 10
3.6538999767
 20
-23.8286449586
 10
3.6323417395
 20
-23.8040641152
 10
3.6141748332
 20
-23.7768810877
 10
3.5997099781
 20
-23.7475608051
 10
3.5891945762
 20
-23.7166047514
 10
3.5828084791
 20
-23.6845423882
 10
3.5806609125
 20
-23.6519220988
  0
LWPOLYLINE
  5
257
100
AcDbEntity
  8
ASSI
100
AcDbPolyline
 62
253
  6
CONTINUOUS
 90
5
 70
0
 10
-3.5806609125
 20
-23.6519220988
 10
-3.5834224345
 20
-23.6516733434
 10
-3.5902859035
 20
-23.6514327255
 10
-3.6011778334
 20
-23.6512002451
 10
-3.6345386313
 20
-23.650755106
  0
LWPOLYLINE
  5
258
100
AcDbEntity
  8
ASSI
100
AcDbPolyline
 62
253
  6
CONTINUOUS
 90
5
 70
0
 10
4.3518840226
 20
-23.6519220988
 10
4.3491225006
 20
-23.6516733434
 10
4.3422590315
 20
-23.6514327255
 10
4.3313671017
 20
-23.6512002451
 10
4.2980063038
 20
-23.650755106
  0
LWPOLYLINE
  5
259
100
AcDbEntity
  8
ASSI
100
AcDbPolyline
 62
253
  6
CONTINUOUS
 90
9
 70
0
 10
-3.8306228363
 20
-23.9018840226
 10
-3.8316386915
 20
-23.9016368438
 10
-3.834023336
 20
-23.9013973364
 10
-3.8377767697
 20
-23.9011655004
 10
-3.8429685348
 20
-23.9009388928
 10
-3.8495290892
 20
-23.9007199567
 10
-3.857249806
 20
-23.9005160208
 10
-3.8661670503
 20
-23.9003276997
 10
-3.8871643051
 20
-23.9000015429
  0
LWPOLYLINE
  5
25A
100
AcDbEntity
  8
ASSI
100
AcDbPolyline
 62
7
  6
CONTINUOUS
 90
10
 70
0
 10
-9.2533769702
 20
-23.6278312164
 10
-9.2340641034
 20
-23.6461238989
 10
-9.2133413164
 20
-23.6670655587
 10
-9.191208609
 20
-23.6899995776
 10
-9.1673672192
 20
-23.7141377517
 10
-9.1421159091
 20
-23.7390654611
 10
-9.1163509653
 20
-23.7648572213
 10
-9.0903711503
 20
-23.7913286324
 10
-9.0638777016
 20
-23.8179338627
 10
-9.0368706193
 20
-23.8443375673
  0
LWPOLYLINE
  5
25B
100
AcDbEntity
  8
ASSI
100
AcDbPolyline
 62
7
  6
CONTINUOUS
 90
10
 70
0
 10
-9.2533769702
 20
23.6278312163
 10
-9.2350842877
 20
23.6471440832
 10
-9.2141426279
 20
23.6678668702
 10
-9.191208609
 20
23.6899995776
 10
-9.1670704349
 20
23.7138409674
 10
-9.1421427254
 20
23.7390922775
 10
-9.1163509653
 20
23.7648572212
 10
-9.0898795542
 20
23.7908370363
 10
-9.0632743239
 20
23.817330485
 10
-9.0368706193
 20
23.8443375673
  0
LINE
  5
25C
100
AcDbEntity
  8
ASSI
100
AcDbLine
 62
253
  6
CONTINUOUS
 10
-7.4131369959
 20
24.4868325431
 11
-7.399969539
 21
24.5
  0
LINE
  5
25D
100
AcDbEntity
  8
ASSI
100
AcDbLine
 62
253
  6
CONTINUOUS
 10
-7.2131674569
 20
24.286863004
 11
-7.2
 21
24.300030461
  0
LINE
  5
25E
100
AcDbEntity
  8
ASSI
100
AcDbLine
 62
7
  6
CONTINUOUS
 10
-8.5
 20
22.4
 11
-8.5131674569
 21
22.3868325431
  0
LINE
  5
25F
100
AcDbEntity
  8
ASSI
100
AcDbLine
 62
7
  6
CONTINUOUS
 10
-7.2551134101
 20
22.3825449351
 11
-8.2325449351
 21
21.4051134101
  0
LINE
  5
260
100
AcDbEntity
  8
ASSI
100
AcDbLine
 62
7
  6
CONTINUOUS
 10
-8.0579942858
 20
20.9872686779
 11
-8.2325449351
 21
20.9
  0
LINE
  5
261
100
AcDbEntity
  8
ASSI
100
AcDbLine
 62
7
  6
CONTINUOUS
 10
-8.0584656028
 20
21.4561094406
 11
-8.2325449351
 21
21.4051134101
  0
LINE
  5
262
100
AcDbEntity
  8
ASSI
100
AcDbLine
 62
7
  6
CONTINUOUS
 10
0.8174550649
 20
-22.398254669
 11
0.8
 21
-22.4
  0
LWPOLYLINE
  5
263
100
AcDbEntity
  8
ASSI
100
AcDbPolyline
 62
253
  6
CONTINUOUS
 90
13
 70
0
 10
-3.3786655583
 20
-22.2251447178
 10
-3.3460374312
 20
-22.2230015771
 10
-3.3139676388
 20
-22.2166187926
 10
-3.2830048154
 20
-22.2061056129
 10
-3.2536786203
 20
-22.1916419302
 10
-3.226490759
 20
-22.1734752392
 10
-3.2019063798
 20
-22.1519164339
 10
-3.1803460088
 20
-22.1273344113
 10
-3.1621783917
 20
-22.1001497384
 10
-3.1477142491
 20
-22.0708275208
 10
-3.1372009266
 20
-22.0398694056
 10
-3.1308181731
 20
-22.0078049933
 10
-3.1286750776
 20
-21.975182794
  0
LWPOLYLINE
  5
264
100
AcDbEntity
  8
ASSI
100
AcDbPolyline
 62
7
  6
CONTINUOUS
 90
16
 70
0
 10
10.6000000646
 20
-22.3999999296
 10
10.6518961978
 20
-22.3973188641
 10
10.7034419043
 20
-22.3892214715
 10
10.7540657836
 20
-22.3757291386
 10
10.8033748714
 20
-22.3568441144
 10
10.8506021346
 20
-22.332753888
 10
10.8947079968
 20
-22.3040171503
 10
10.9349362959
 20
-22.2713500847
 10
10.9713142863
 20
-22.2349698278
 10
11.0039800191
 20
-22.1947398811
 10
11.0327165209
 20
-22.1506321718
 10
11.0568074185
 20
-22.1034036118
 10
11.0756956352
 20
-22.054097956
 10
11.0891949317
 20
-22.0034838189
 10
11.0973032882
 20
-21.9519527996
 10
11.1
 20
-21.9000761524
  0
LINE
  5
265
100
AcDbEntity
  8
ASSI
100
AcDbLine
 62
7
  6
CONTINUOUS
 10
10.6000000646
 20
-22.3999999354
 11
9.3
 21
-22.4
  0
LINE
  5
266
100
AcDbEntity
  8
ASSI
100
AcDbLine
 62
7
  6
CONTINUOUS
 10
8.5
 20
-22.4
 11
4.45
 21
-22.4
  0
LINE
  5
267
100
AcDbEntity
  8
ASSI
100
AcDbLine
 62
7
  6
CONTINUOUS
 10
-4.45
 20
-22.4
 11
-8.5
 21
-22.4
  0
LINE
  5
268
100
AcDbEntity
  8
ASSI
100
AcDbLine
 62
7
  6
CONTINUOUS
 10
-9.3
 20
-22.4
 11
-10.6
 21
-22.3999999999
  0
LINE
  5
269
100
AcDbEntity
  8
ASSI
100
AcDbLine
 62
7
  6
CONTINUOUS
 10
0.8174550649
 20
-22.398254669
 11
-0.8174550649
 21
-22.398254669
  0
LINE
  5
26A
100
AcDbEntity
  8
ASSI
100
AcDbLine
 62
7
  6
CONTINUOUS
 10
-10.5826210875
 20
-22.3825449351
 11
-9.0368706193
 21
-22.3825449351
  0
LINE
  5
26B
100
AcDbEntity
  8
ASSI
100
AcDbLine
 62
7
  6
CONTINUOUS
 10
-8.7631293807
 20
-22.3825449351
 11
-7.2551134101
 21
-22.3825449351
  0
LINE
  5
26C
100
AcDbEntity
  8
ASSI
100
AcDbLine
 62
7
  6
CONTINUOUS
 10
3.5
 20
-22.3825449351
 11
3.2999714434
 21
-22.3825449351
  0
LINE
  5
26D
100
AcDbEntity
  8
ASSI
100
AcDbLine
 62
7
  6
CONTINUOUS
 10
-3.2999714434
 20
-22.3825449351
 11
-3.5
 21
-22.3825449351
  0
LINE
  5
26E
100
AcDbEntity
  8
ASSI
100
AcDbLine
 62
7
  6
CONTINUOUS
 10
7.2551134101
 20
-22.3825449351
 11
8.7631293807
 21
-22.3825449351
  0
LINE
  5
26F
100
AcDbEntity
  8
ASSI
100
AcDbLine
 62
7
  6
CONTINUOUS
 10
9.0368706193
 20
-22.3825449351
 11
10.5826210875
 21
-22.3825449351
  0
LINE
  5
270
100
AcDbEntity
  8
ASSI
100
AcDbLine
 62
253
  6
CONTINUOUS
 10
-7.3012233427
 20
-22.2251447178
 11
-3.3786655583
 21
-22.2251447178
  0
LINE
  5
271
100
AcDbEntity
  8
ASSI
100
AcDbLine
 62
253
  6
CONTINUOUS
 10
3.3786655583
 20
-22.2251447178
 11
7.3012233427
 21
-22.2251447178
  0
LINE
  5
272
100
AcDbEntity
  8
ASSI
100
AcDbLine
 62
7
  6
CONTINUOUS
 10
3.05
 20
-21.7
 11
-3.05
 21
-21.7
  0
LINE
  5
273
100
AcDbEntity
  8
ASSI
100
AcDbLine
 62
7
  6
CONTINUOUS
 10
3.1173032135
 20
-21.6326967865
 11
-3.1173032135
 21
-21.6326967865
  0
LINE
  5
274
100
AcDbEntity
  8
ASSI
100
AcDbLine
 62
253
  6
CONTINUOUS
 10
-8.0579942858
 20
-21.2252970227
 11
-3.1351059998
 21
-21.2252970227
  0
LINE
  5
275
100
AcDbEntity
  8
ASSI
100
AcDbLine
 62
253
  6
CONTINUOUS
 10
3.1351059998
 20
-21.2252970227
 11
8.0579942858
 21
-21.2252970227
  0
LINE
  5
276
100
AcDbEntity
  8
ASSI
100
AcDbLine
 62
7
  6
CONTINUOUS
 10
6.5872686779
 20
-21.0745506493
 11
5.1254493507
 21
-21.0745506493
  0
LINE
  5
277
100
AcDbEntity
  8
ASSI
100
AcDbLine
 62
7
  6
CONTINUOUS
 10
-5.1254493507
 20
-21.0745506493
 11
-6.5872686779
 21
-21.0745506493
  0
LINE
  5
278
100
AcDbEntity
  8
ASSI
100
AcDbLine
 62
7
  6
CONTINUOUS
 10
-8.0579942858
 20
-20.9872686779
 11
-7.2127313221
 21
-20.9872686779
  0
LINE
  5
279
100
AcDbEntity
  8
ASSI
100
AcDbLine
 62
7
  6
CONTINUOUS
 10
7.2127313221
 20
-20.9872686779
 11
8.0579942858
 21
-20.9872686779
  0
LINE
  5
27A
100
AcDbEntity
  8
ASSI
100
AcDbLine
 62
7
  6
CONTINUOUS
 10
-9.65
 20
-20.9
 11
-8.2325449351
 21
-20.9
  0
LINE
  5
27B
100
AcDbEntity
  8
ASSI
100
AcDbLine
 62
7
  6
CONTINUOUS
 10
8.2325449351
 20
-20.9
 11
9.65
 21
-20.9
  0
LWPOLYLINE
  5
27C
100
AcDbEntity
  8
ASSI
100
AcDbPolyline
 62
7
  6
CONTINUOUS
 90
16
 70
0
 10
-10.6
 20
-22.3999997358
 10
-10.6519014622
 20
-22.3973199893
 10
-10.7034529055
 20
-22.3892205185
 10
-10.7540825694
 20
-22.3757237075
 10
-10.8033981686
 20
-22.3568330612
 10
-10.8506316256
 20
-22.3327366144
 10
-10.8947407691
 20
-22.3039932453
 10
-10.9349703626
 20
-22.2713195516
 10
-10.9713475964
 20
-22.2349337381
 10
-11.0040079332
 20
-22.1947016024
 10
-11.0327349164
 20
-22.1506009559
 10
-11.0568171282
 20
-22.1033850541
 10
-11.0757000376
 20
-22.0540843526
 10
-11.0891965607
 20
-22.0034612067
 10
-11.0973037172
 20
-21.9519097908
 10
-11.1
 20
-21.8999997649
  0
LWPOLYLINE
  5
27D
100
AcDbEntity
  8
ASSI
100
AcDbPolyline
 62
253
  6
CONTINUOUS
 90
13
 70
0
 10
3.3786655583
 20
-22.2251447178
 10
3.3460383978
 20
-22.2230017045
 10
3.313969389
 20
-22.2166192618
 10
3.2830071354
 20
-22.2061065741
 10
3.2536813069
 20
-22.1916434815
 10
3.2264935797
 20
-22.1734774037
 10
3.2019090531
 20
-22.1519191071
 10
3.1803482937
 20
-22.1273373888
 10
3.1621801408
 20
-22.1001527673
 10
3.147715396
 20
-22.0708302889
 10
3.1372015075
 20
-22.0398715723
 10
3.1308183358
 20
-22.0078062271
 10
3.1286750776
 20
-21.975182794
  0
LINE
  5
27E
100
AcDbEntity
  8
ASSI
100
AcDbLine
 62
7
  6
CONTINUOUS
 10
-0.8174550649
 20
-22.398254669
 11
-0.8
 21
-22.4
  0
LWPOLYLINE
  5
27F
100
AcDbEntity
  8
ASSI
100
AcDbPolyline
 62
253
  6
CONTINUOUS
 90
9
 70
0
 10
4.1019220988
 20
-23.9018840226
 10
4.1009062435
 20
-23.9016368438
 10
4.0985215991
 20
-23.9013973364
 10
4.0947681654
 20
-23.9011655004
 10
4.0895764002
 20
-23.9009388928
 10
4.0830158459
 20
-23.9007199567
 10
4.0752951291
 20
-23.9005160208
 10
4.0663778848
 20
-23.9003276997
 10
4.04538063
 20
-23.9000015429
  0
LINE
  5
280
100
AcDbEntity
  8
ASSI
100
AcDbLine
 62
7
  6
CONTINUOUS
 10
-8.0584656028
 20
-21.4561094406
 11
-8.2325449351
 21
-21.4051134101
  0
LINE
  5
281
100
AcDbEntity
  8
ASSI
100
AcDbLine
 62
7
  6
CONTINUOUS
 10
-8.0579942858
 20
-20.9872686779
 11
-8.2325449351
 21
-20.9
  0
LINE
  5
282
100
AcDbEntity
  8
ASSI
100
AcDbLine
 62
7
  6
CONTINUOUS
 10
-8.0337973975
 20
-20.8347949948
 11
-7.9819252468
 21
-20.8607290949
  0
LINE
  5
283
100
AcDbEntity
  8
0
100
AcDbLine
 62
7
  6
CONTINUOUS
 10
-8.0337973975
 20
-20.8347949948
 11
-7.9819252468
 21
-20.8607290949
  0
LINE
  5
284
100
AcDbEntity
  8
ASSI
100
AcDbLine
 62
253
  6
CONTINUOUS
 10
-7.399969539
 20
-24.5
 11
-7.4131369959
 21
-24.4868325431
  0
LINE
  5
285
100
AcDbEntity
  8
ASSI
100
AcDbLine
 62
253
  6
CONTINUOUS
 10
-7.2
 20
-24.300030461
 11
-7.2131674569
 21
-24.2868630041
  0
LINE
  5
286
100
AcDbEntity
  8
ASSI
100
AcDbLine
 62
7
  6
CONTINUOUS
 10
-8.5
 20
-22.4
 11
-8.5131674569
 21
-22.3868325431
  0
LINE
  5
287
100
AcDbEntity
  8
ASSI
100
AcDbLine
 62
7
  6
CONTINUOUS
 10
-8.2325449351
 20
-21.4051134101
 11
-7.2551134101
 21
-22.3825449351
  0
LINE
  5
288
100
AcDbEntity
  8
ASSI
100
AcDbLine
 62
7
  6
CONTINUOUS
 10
-7.3261806034
 20
20.8738193966
 11
-7.2127313221
 21
20.9872686779
  0
LINE
  5
289
100
AcDbEntity
  8
0
100
AcDbLine
 62
7
  6
CONTINUOUS
 10
-7.3261806034
 20
20.8738193966
 11
-7.2127313221
 21
20.9872686779
  0
LINE
  5
28A
100
AcDbEntity
  8
ASSI
100
AcDbLine
 62
253
  6
CONTINUOUS
 10
-3.8306228363
 20
23.9018840226
 11
-3.7499619238
 21
23.9825449351
  0
LINE
  5
28B
100
AcDbEntity
  8
ASSI
100
AcDbLine
 62
253
  6
CONTINUOUS
 10
-3.5806609125
 20
23.6519220988
 11
-3.5
 21
23.7325830113
  0
LINE
  5
28C
100
AcDbEntity
  8
ASSI
100
AcDbLine
 62
7
  6
CONTINUOUS
 10
-5.1254493507
 20
20.0872686779
 11
-5.3523651948
 21
19.9738193966
  0
LINE
  5
28D
100
AcDbEntity
  8
0
100
AcDbLine
 62
7
  6
CONTINUOUS
 10
-5.1254493507
 20
20.0872686779
 11
-5.3523651948
 21
19.9738193966
  0
LINE
  5
28E
100
AcDbEntity
  8
ASSI
100
AcDbLine
 62
7
  6
CONTINUOUS
 10
-4.4057426494
 20
19.9738193966
 11
-4.3444976057
 21
20.0044395863
  0
LINE
  5
28F
100
AcDbEntity
  8
RACCORDO
100
AcDbLine
 62
7
  6
CONTINUOUS
 10
-4.4057426494
 20
19.9738193966
 11
-4.3444976057
 21
20.0044395863
  0
LINE
  5
290
100
AcDbEntity
  8
ASSI
100
AcDbLine
 62
7
  6
CONTINUOUS
 10
9.65
 20
-19.1573555923
 11
9.4421659452
 21
-19.1692666957
  0
LINE
  5
291
100
AcDbEntity
  8
0
100
AcDbLine
 62
7
  6
CONTINUOUS
 10
9.65
 20
-19.1573555923
 11
9.4421659452
 21
-19.1692666957
  0
LINE
  5
292
100
AcDbEntity
  8
ASSI
100
AcDbLine
 62
253
  6
CONTINUOUS
 10
-5.432569703
 20
-20.767430297
 11
-6.4340630273
 21
-20.7681160106
  0
LINE
  5
293
100
AcDbEntity
  8
RACCORDO
100
AcDbLine
 62
253
  6
CONTINUOUS
 10
-5.432569703
 20
-20.767430297
 11
-6.4340630273
 21
-20.7681160106
  0
LINE
  5
294
100
AcDbEntity
  8
ASSI
100
AcDbLine
 62
253
  6
CONTINUOUS
 10
-8.0337973975
 20
-20.8347949948
 11
-9.4564965907
 21
-20.8355119633
  0
LINE
  5
295
100
AcDbEntity
  8
0
100
AcDbLine
 62
253
  6
CONTINUOUS
 10
-8.0337973975
 20
-20.8347949948
 11
-9.4564965907
 21
-20.8355119633
  0
LINE
  5
296
100
AcDbEntity
  8
ASSI
100
AcDbLine
 62
253
  6
CONTINUOUS
 10
9.4434836856
 20
-20.3572262632
 11
8.0424441153
 21
-20.3575751402
  0
LINE
  5
297
100
AcDbEntity
  8
0
100
AcDbLine
 62
253
  6
CONTINUOUS
 10
9.4434836856
 20
-20.3572262632
 11
8.0424441153
 21
-20.3575751402
  0
LINE
  5
298
100
AcDbEntity
  8
ASSI
100
AcDbLine
 62
253
  6
CONTINUOUS
 10
-5.4411349407
 20
-20.2916947997
 11
-6.4297751319
 21
-20.2918660329
  0
LINE
  5
299
100
AcDbEntity
  8
RACCORDO
100
AcDbLine
 62
253
  6
CONTINUOUS
 10
-5.4411349407
 20
-20.2916947997
 11
-6.4297751319
 21
-20.2918660329
  0
LINE
  5
29A
100
AcDbEntity
  8
ASSI
100
AcDbLine
 62
7
  6
CONTINUOUS
 10
7.3392709051
 20
-20.8607290949
 11
7.9819252468
 21
-20.8607290949
  0
LINE
  5
29B
100
AcDbEntity
  8
0
100
AcDbLine
 62
7
  6
CONTINUOUS
 10
7.3392709051
 20
-20.8607290949
 11
7.9819252468
 21
-20.8607290949
  0
LINE
  5
29C
100
AcDbEntity
  8
ASSI
100
AcDbLine
 62
7
  6
CONTINUOUS
 10
-7.3392709051
 20
-20.8607290949
 11
-7.9819252468
 21
-20.8607290949
  0
LINE
  5
29D
100
AcDbEntity
  8
0
100
AcDbLine
 62
7
  6
CONTINUOUS
 10
-7.3392709051
 20
-20.8607290949
 11
-7.9819252468
 21
-20.8607290949
  0
LINE
  5
29E
100
AcDbEntity
  8
ASSI
100
AcDbLine
 62
7
  6
CONTINUOUS
 10
-3.3850964806
 20
-20.8
 11
3.3850964806
 21
-20.8
  0
LINE
  5
29F
100
AcDbEntity
  8
ASSI
100
AcDbLine
 62
7
  6
CONTINUOUS
 10
11.1261859216
 20
-20.4226497308
 11
11.0825449351
 21
-20.4226497308
  0
LINE
  5
2A0
100
AcDbEntity
  8
ASSI
100
AcDbLine
 62
7
  6
CONTINUOUS
 10
-11.1261859216
 20
-20.4226497308
 11
-11.0825449351
 21
-20.4226497308
  0
LINE
  5
2A1
100
AcDbEntity
  8
ASSI
100
AcDbLine
 62
7
  6
CONTINUOUS
 10
-5.1254493507
 20
-20.0872686779
 11
5.1254493507
 21
-20.0872686779
  0
LINE
  5
2A2
100
AcDbEntity
  8
ASSI
100
AcDbLine
 62
7
  6
CONTINUOUS
 10
-5.4414386569
 20
-19.9292860574
 11
0.604741914
 21
-19.9284381582
  0
LINE
  5
2A3
100
AcDbEntity
  8
ASSI
100
AcDbLine
 62
7
  6
CONTINUOUS
 10
6.91317452
 20
-19.7872686779
 11
6.88682548
 21
-19.7872686779
  0
LINE
  5
2A4
100
AcDbEntity
  8
RACCORDO
100
AcDbLine
 62
7
  6
CONTINUOUS
 10
6.91317452
 20
-19.7872686779
 11
6.88682548
 21
-19.7872686779
  0
LINE
  5
2A5
100
AcDbEntity
  8
ASSI
100
AcDbLine
 62
7
  6
CONTINUOUS
 10
-6.88682548
 20
-19.7872686779
 11
-6.91317452
 21
-19.7872686779
  0
LINE
  5
2A6
100
AcDbEntity
  8
RACCORDO
100
AcDbLine
 62
7
  6
CONTINUOUS
 10
-6.88682548
 20
-19.7872686779
 11
-6.91317452
 21
-19.7872686779
  0
LINE
  5
2A7
100
AcDbEntity
  8
ASSI
100
AcDbLine
 62
253
  6
CONTINUOUS
 10
6.4297751319
 20
-20.2918660329
 11
5.4411349407
 21
-20.2916947997
  0
LINE
  5
2A8
100
AcDbEntity
  8
RACCORDO
100
AcDbLine
 62
253
  6
CONTINUOUS
 10
6.4297751319
 20
-20.2918660329
 11
5.4411349407
 21
-20.2916947997
  0
LINE
  5
2A9
100
AcDbEntity
  8
ASSI
100
AcDbLine
 62
253
  6
CONTINUOUS
 10
-8.0424440652
 20
-20.3575750643
 11
-9.4434836318
 21
-20.3572262632
  0
LINE
  5
2AA
100
AcDbEntity
  8
0
100
AcDbLine
 62
253
  6
CONTINUOUS
 10
-8.0424440652
 20
-20.3575750643
 11
-9.4434836318
 21
-20.3572262632
  0
LINE
  5
2AB
100
AcDbEntity
  8
ASSI
100
AcDbLine
 62
7
  6
CONTINUOUS
 10
0.604741914
 20
-19.9284381582
 11
5.4414386569
 21
-19.9292860574
  0
LINE
  5
2AC
100
AcDbEntity
  8
ASSI
100
AcDbLine
 62
253
  6
CONTINUOUS
 10
9.4564965907
 20
-20.8355119633
 11
8.0337973724
 21
-20.8347950074
  0
LINE
  5
2AD
100
AcDbEntity
  8
0
100
AcDbLine
 62
253
  6
CONTINUOUS
 10
9.4564965907
 20
-20.8355119633
 11
8.0337973724
 21
-20.8347950074
  0
LINE
  5
2AE
100
AcDbEntity
  8
ASSI
100
AcDbLine
 62
253
  6
CONTINUOUS
 10
6.4340630273
 20
-20.7681160106
 11
5.432569703
 21
-20.767430297
  0
LINE
  5
2AF
100
AcDbEntity
  8
RACCORDO
100
AcDbLine
 62
253
  6
CONTINUOUS
 10
6.4340630273
 20
-20.7681160106
 11
5.432569703
 21
-20.767430297
  0
LWPOLYLINE
  5
2B0
100
AcDbEntity
  8
ASSI
100
AcDbPolyline
 62
7
  6
CONTINUOUS
 90
10
 70
0
 10
-6.4293225083
 20
-19.1687755773
 10
-5.0013782243
 20
-19.2214961934
 10
-3.5730595964
 20
-19.261037125
 10
-2.1443666245
 20
-19.2873983721
 10
-0.715064867
 20
-19.3005805609
 10
0.7146112344
 20
-19.3005830652
 10
2.1439583551
 20
-19.2874040068
 10
3.5727420535
 20
-19.2610427596
 10
5.0011967712
 20
-19.2214999498
 10
6.4293225083
 20
-19.1687755773
  0
LWPOLYLINE
  5
2B1
100
AcDbEntity
  8
0
100
AcDbPolyline
 62
7
  6
CONTINUOUS
 90
10
 70
0
 10
-6.4293225083
 20
-19.1687755773
 10
-5.0013782243
 20
-19.2214961934
 10
-3.5730595964
 20
-19.261037125
 10
-2.1443666245
 20
-19.2873983721
 10
-0.715064867
 20
-19.3005805609
 10
0.7146112344
 20
-19.3005830652
 10
2.1439583551
 20
-19.2874040068
 10
3.5727420535
 20
-19.2610427596
 10
5.0011967712
 20
-19.2214999498
 10
6.4293225083
 20
-19.1687755773
  0
LINE
  5
2B2
100
AcDbEntity
  8
ASSI
100
AcDbLine
 62
7
  6
CONTINUOUS
 10
-9.65
 20
-19.1573555923
 11
-9.4421659452
 21
-19.1692666957
  0
LINE
  5
2B3
100
AcDbEntity
  8
0
100
AcDbLine
 62
7
  6
CONTINUOUS
 10
-9.65
 20
-19.1573555923
 11
-9.4421659452
 21
-19.1692666957
  0
LINE
  5
2B4
100
AcDbEntity
  8
ASSI
100
AcDbLine
 62
7
  6
CONTINUOUS
 10
-5.4414386569
 20
-19.9292860574
 11
-5.1254493507
 21
-20.0872686779
  0
LINE
  5
2B5
100
AcDbEntity
  8
ASSI
100
AcDbLine
 62
7
  6
CONTINUOUS
 10
-10.1083982375
 20
-18.5034786639
 11
-9.4421659452
 21
-19.1692666957
  0
LINE
  5
2B6
100
AcDbEntity
  8
0
100
AcDbLine
 62
7
  6
CONTINUOUS
 10
-10.1083982375
 20
-18.5034786639
 11
-9.4421659452
 21
-19.1692666957
  0
LINE
  5
2B7
100
AcDbEntity
  8
ASSI
100
AcDbLine
 62
7
  6
CONTINUOUS
 10
-10.2466225454
 20
-18.5607330469
 11
-9.65
 21
-19.1573555923
  0
LINE
  5
2B8
100
AcDbEntity
  8
0
100
AcDbLine
 62
7
  6
CONTINUOUS
 10
-10.2466225454
 20
-18.5607330469
 11
-9.65
 21
-19.1573555923
  0
LINE
  5
2B9
100
AcDbEntity
  8
ASSI
100
AcDbLine
 62
7
  6
CONTINUOUS
 10
-7.2127313221
 20
-20.9872686779
 11
-7.3392709051
 21
-20.8607290949
  0
LINE
  5
2BA
100
AcDbEntity
  8
0
100
AcDbLine
 62
7
  6
CONTINUOUS
 10
-7.2127313221
 20
-20.9872686779
 11
-7.3392709051
 21
-20.8607290949
  0
LINE
  5
2BB
100
AcDbEntity
  8
ASSI
100
AcDbLine
 62
253
  6
CONTINUOUS
 10
-3.7499619238
 20
-23.9825449351
 11
-3.8306228363
 21
-23.9018840226
  0
LINE
  5
2BC
100
AcDbEntity
  8
ASSI
100
AcDbLine
 62
253
  6
CONTINUOUS
 10
-3.5
 20
-23.7325830113
 11
-3.5806609125
 21
-23.6519220988
  0
LINE
  5
2BD
100
AcDbEntity
  8
ASSI
100
AcDbLine
 62
7
  6
CONTINUOUS
 10
-5.3523651948
 20
20.8476348052
 11
-5.1254493507
 21
21.0745506493
  0
LINE
  5
2BE
100
AcDbEntity
  8
0
100
AcDbLine
 62
7
  6
CONTINUOUS
 10
-5.3523651948
 20
20.8476348052
 11
-5.1254493507
 21
21.0745506493
  0
LINE
  5
2BF
100
AcDbEntity
  8
ASSI
100
AcDbLine
 62
7
  6
CONTINUOUS
 10
-3.5
 20
22.3825449351
 11
-3.5806609125
 21
22.3018840226
  0
LINE
  5
2C0
100
AcDbEntity
  8
ASSI
100
AcDbLine
 62
253
  6
CONTINUOUS
 10
-1.0674169887
 20
23.9825449351
 11
-1.0499619238
 21
24.0
  0
LINE
  5
2C1
100
AcDbEntity
  8
ASSI
100
AcDbLine
 62
7
  6
CONTINUOUS
 10
-3.1173032135
 20
21.6326967865
 11
-3.05
 21
21.7
  0
LINE
  5
2C2
100
AcDbEntity
  8
ASSI
100
AcDbLine
 62
253
  6
CONTINUOUS
 10
-0.8174550649
 20
23.7325830113
 11
-0.8
 21
23.7500380762
  0
LINE
  5
2C3
100
AcDbEntity
  8
ASSI
100
AcDbLine
 62
7
  6
CONTINUOUS
 10
-7.3521895691
 20
17.1381978935
 11
-7.6389602491
 21
16.8514272135
  0
LINE
  5
2C4
100
AcDbEntity
  8
RACCORDO
100
AcDbLine
 62
7
  6
CONTINUOUS
 10
-7.3521895691
 20
17.1381978935
 11
-7.6389602491
 21
16.8514272135
  0
LINE
  5
2C5
100
AcDbEntity
  8
ASSI
100
AcDbLine
 62
7
  6
CONTINUOUS
 10
-9.639870208
 20
14.5487839997
 11
-9.5
 21
14.6886542078
  0
LINE
  5
2C6
100
AcDbEntity
  8
DRAFT
100
AcDbLine
 62
7
  6
CONTINUOUS
 10
-9.639870208
 20
14.5487839997
 11
-9.5
 21
14.6886542078
  0
LINE
  5
2C7
100
AcDbEntity
  8
ASSI
100
AcDbLine
 62
7
  6
CONTINUOUS
 10
-9.4379053794
 20
14.6834101266
 11
-9.639870208
 21
14.5487839997
  0
LINE
  5
2C8
100
AcDbEntity
  8
DRAFT
100
AcDbLine
 62
7
  6
CONTINUOUS
 10
-9.4379053794
 20
14.6834101266
 11
-9.639870208
 21
14.5487839997
  0
LINE
  5
2C9
100
AcDbEntity
  8
ASSI
100
AcDbLine
 62
7
  6
CONTINUOUS
 10
9.5714422353
 20
20.8738193966
 11
9.65
 21
20.9
  0
LINE
  5
2CA
100
AcDbEntity
  8
0
100
AcDbLine
 62
7
  6
CONTINUOUS
 10
9.5714422353
 20
20.8738193966
 11
9.65
 21
20.9
  0
LINE
  5
2CB
100
AcDbEntity
  8
ASSI
100
AcDbLine
 62
7
  6
CONTINUOUS
 10
6.9655357267
 20
-18.7293067937
 11
6.8344642733
 21
-18.7293067937
  0
LINE
  5
2CC
100
AcDbEntity
  8
0
100
AcDbLine
 62
7
  6
CONTINUOUS
 10
6.9655357267
 20
-18.7293067937
 11
6.8344642733
 21
-18.7293067937
  0
LINE
  5
2CD
100
AcDbEntity
  8
ASSI
100
AcDbLine
 62
7
  6
CONTINUOUS
 10
-6.8344642733
 20
-18.7293067937
 11
-6.9655357267
 21
-18.7293067937
  0
LINE
  5
2CE
100
AcDbEntity
  8
0
100
AcDbLine
 62
7
  6
CONTINUOUS
 10
-6.8344642733
 20
-18.7293067937
 11
-6.9655357267
 21
-18.7293067937
  0
LINE
  5
2CF
100
AcDbEntity
  8
ASSI
100
AcDbLine
 62
7
  6
CONTINUOUS
 10
6.4438534812
 20
-17.5036910024
 11
-6.4438534812
 21
-17.5036910024
  0
LINE
  5
2D0
100
AcDbEntity
  8
0
100
AcDbLine
 62
7
  6
CONTINUOUS
 10
6.4438534812
 20
-17.5036910024
 11
-6.4438534812
 21
-17.5036910024
  0
LINE
  5
2D1
100
AcDbEntity
  8
ASSI
100
AcDbLine
 62
7
  6
CONTINUOUS
 10
-6.5349074712
 20
-17.3215691524
 11
-6.3516319481
 21
-17.3215691524
  0
LINE
  5
2D2
100
AcDbEntity
  8
ASSI
100
AcDbLine
 62
7
  6
CONTINUOUS
 10
6.5349074712
 20
-17.3215691524
 11
6.3516319481
 21
-17.3215691524
  0
LINE
  5
2D3
100
AcDbEntity
  8
0
100
AcDbLine
 62
7
  6
CONTINUOUS
 10
-6.5349074712
 20
-17.3215691524
 11
-6.3516319481
 21
-17.3215691524
  0
LINE
  5
2D4
100
AcDbEntity
  8
0
100
AcDbLine
 62
7
  6
CONTINUOUS
 10
6.5349074712
 20
-17.3215691524
 11
6.3516319481
 21
-17.3215691524
  0
LINE
  5
2D5
100
AcDbEntity
  8
ASSI
100
AcDbLine
 62
253
  6
CONTINUOUS
 10
-6.3301884152
 20
-17.3001256195
 11
6.3301884151
 21
-17.3001256195
  0
LINE
  5
2D6
100
AcDbEntity
  8
0
100
AcDbLine
 62
253
  6
CONTINUOUS
 10
-6.3301884152
 20
-17.3001256195
 11
6.3301884151
 21
-17.3001256195
  0
LINE
  5
2D7
100
AcDbEntity
  8
ASSI
100
AcDbLine
 62
7
  6
CONTINUOUS
 10
9.4564965907
 20
-20.8355119633
 11
9.65
 21
-20.9
  0
LINE
  5
2D8
100
AcDbEntity
  8
RACCORDO
100
AcDbLine
 62
7
  6
CONTINUOUS
 10
9.4564965907
 20
-20.8355119633
 11
9.65
 21
-20.9
  0
LINE
  5
2D9
100
AcDbEntity
  8
ASSI
100
AcDbLine
 62
7
  6
CONTINUOUS
 10
-8.9819252468
 20
-17.471802514
 11
-7.9819252468
 21
-18.471802514
  0
LINE
  5
2DA
100
AcDbEntity
  8
0
100
AcDbLine
 62
7
  6
CONTINUOUS
 10
-8.9819252468
 20
-17.471802514
 11
-7.9819252468
 21
-18.471802514
  0
LINE
  5
2DB
100
AcDbEntity
  8
ASSI
100
AcDbLine
 62
7
  6
CONTINUOUS
 10
-5.432569703
 20
-20.767430297
 11
-5.1254493507
 21
-21.0745506493
  0
LINE
  5
2DC
100
AcDbEntity
  8
RACCORDO
100
AcDbLine
 62
7
  6
CONTINUOUS
 10
-5.432569703
 20
-20.767430297
 11
-5.1254493507
 21
-21.0745506493
  0
LINE
  5
2DD
100
AcDbEntity
  8
ASSI
100
AcDbLine
 62
7
  6
CONTINUOUS
 10
-3.5806609125
 20
-22.3018840226
 11
-3.5
 21
-22.3825449351
  0
LINE
  5
2DE
100
AcDbEntity
  8
ASSI
100
AcDbLine
 62
253
  6
CONTINUOUS
 10
-1.0499619238
 20
-24.0
 11
-1.0674169887
 21
-23.9825449351
  0
LINE
  5
2DF
100
AcDbEntity
  8
ASSI
100
AcDbLine
 62
7
  6
CONTINUOUS
 10
-3.1173032135
 20
-21.6326967865
 11
-3.05
 21
-21.7
  0
LINE
  5
2E0
100
AcDbEntity
  8
ASSI
100
AcDbLine
 62
253
  6
CONTINUOUS
 10
-0.8
 20
-23.7500380762
 11
-0.8174550649
 21
-23.7325830113
  0
LINE
  5
2E1
100
AcDbEntity
  8
ASSI
100
AcDbLine
 62
7
  6
CONTINUOUS
 10
-9.0435128819
 20
-17.4973129477
 11
-8.0438568666
 21
-18.4974554308
  0
LINE
  5
2E2
100
AcDbEntity
  8
0
100
AcDbLine
 62
7
  6
CONTINUOUS
 10
-9.0435128819
 20
-17.4973129477
 11
-8.0438568666
 21
-18.4974554308
  0
LWPOLYLINE
  5
2E3
100
AcDbEntity
  8
ASSI
100
AcDbPolyline
 62
253
  6
CONTINUOUS
 90
10
 70
0
 10
-7.2131674569
 20
-24.2868630041
 10
-7.2132086099
 20
-24.2867833641
 10
-7.2132506367
 20
-24.2865659538
 10
-7.2132935375
 20
-24.2862107732
 10
-7.2133375711
 20
-24.2857244556
 10
-7.2133824786
 20
-24.2851003676
 10
-7.213427483
 20
-24.2843186096
 10
-7.2134726087
 20
-24.2833740935
 10
-7.2135178313
 20
-24.2822719073
 10
-7.2135623006
 20
-24.2810074149
  0
LINE
  5
2E4
100
AcDbEntity
  8
ASSI
100
AcDbLine
 62
253
  6
CONTINUOUS
 10
-4.3444976057
 20
17.9554262419
 11
-4.4561916001
 21
17.8437322475
  0
LINE
  5
2E5
100
AcDbEntity
  8
RACCORDO
100
AcDbLine
 62
253
  6
CONTINUOUS
 10
-4.3444976057
 20
17.9554262419
 11
-4.4561916001
 21
17.8437322475
  0
LINE
  5
2E6
100
AcDbEntity
  8
ASSI
100
AcDbLine
 62
253
  6
CONTINUOUS
 10
-3.8445737581
 20
17.4555023943
 11
-3.9565726641
 21
17.3435034883
  0
LINE
  5
2E7
100
AcDbEntity
  8
RACCORDO
100
AcDbLine
 62
253
  6
CONTINUOUS
 10
-3.8445737581
 20
17.4555023943
 11
-3.9565726641
 21
17.3435034883
  0
LINE
  5
2E8
100
AcDbEntity
  8
ASSI
100
AcDbLine
 62
7
  6
CONTINUOUS
 10
6.3516319481
 20
-16.4183680519
 11
6.7651496421
 21
-16.4183680519
  0
LINE
  5
2E9
100
AcDbEntity
  8
0
100
AcDbLine
 62
7
  6
CONTINUOUS
 10
6.3516319481
 20
-16.4183680519
 11
6.7651496421
 21
-16.4183680519
  0
LINE
  5
2EA
100
AcDbEntity
  8
ASSI
100
AcDbLine
 62
7
  6
CONTINUOUS
 10
-6.3516319481
 20
-16.4183680519
 11
-6.7651496421
 21
-16.4183680519
  0
LINE
  5
2EB
100
AcDbEntity
  8
0
100
AcDbLine
 62
7
  6
CONTINUOUS
 10
-6.3516319481
 20
-16.4183680519
 11
-6.7651496421
 21
-16.4183680519
  0
LINE
  5
2EC
100
AcDbEntity
  8
ASSI
100
AcDbLine
 62
7
  6
CONTINUOUS
 10
6.5
 20
-16.27
 11
6.8393280183
 21
-16.27
  0
LINE
  5
2ED
100
AcDbEntity
  8
0
100
AcDbLine
 62
7
  6
CONTINUOUS
 10
6.5
 20
-16.27
 11
6.8393280183
 21
-16.27
  0
LINE
  5
2EE
100
AcDbEntity
  8
ASSI
100
AcDbLine
 62
7
  6
CONTINUOUS
 10
-6.5
 20
-16.27
 11
-6.8393280183
 21
-16.27
  0
LINE
  5
2EF
100
AcDbEntity
  8
0
100
AcDbLine
 62
7
  6
CONTINUOUS
 10
-6.5
 20
-16.27
 11
-6.8393280183
 21
-16.27
  0
LINE
  5
2F0
100
AcDbEntity
  8
ASSI
100
AcDbLine
 62
7
  6
CONTINUOUS
 10
8.9819252468
 20
-15.8915786577
 11
6.5
 21
-15.8915786577
  0
LINE
  5
2F1
100
AcDbEntity
  8
0
100
AcDbLine
 62
7
  6
CONTINUOUS
 10
8.9819252468
 20
-15.8915786577
 11
6.5
 21
-15.8915786577
  0
LINE
  5
2F2
100
AcDbEntity
  8
ASSI
100
AcDbLine
 62
7
  6
CONTINUOUS
 10
-6.5
 20
-15.8915786577
 11
-8.9819252468
 21
-15.8915786577
  0
LINE
  5
2F3
100
AcDbEntity
  8
0
100
AcDbLine
 62
7
  6
CONTINUOUS
 10
-6.5
 20
-15.8915786577
 11
-8.9819252468
 21
-15.8915786577
  0
LINE
  5
2F4
100
AcDbEntity
  8
0
100
AcDbLine
 62
7
  6
CONTINUOUS
 10
-7.25
 20
-15.8722496659
 11
-6.3260030901
 21
-15.8722496659
  0
LINE
  5
2F5
100
AcDbEntity
  8
0
100
AcDbLine
 62
7
  6
CONTINUOUS
 10
6.3260030901
 20
-15.8722496659
 11
7.25
 21
-15.8722496659
  0
LINE
  5
2F6
100
AcDbEntity
  8
ASSI
100
AcDbLine
 62
253
  6
CONTINUOUS
 10
-6.3091978363
 20
-14.9399894222
 11
6.3091978363
 21
-14.9399894222
  0
LINE
  5
2F7
100
AcDbEntity
  8
0
100
AcDbLine
 62
253
  6
CONTINUOUS
 10
-6.3091978363
 20
-14.9399894222
 11
6.3091978363
 21
-14.9399894222
  0
LINE
  5
2F8
100
AcDbEntity
  8
ASSI
100
AcDbLine
 62
7
  6
CONTINUOUS
 10
-6.5
 20
-16.27
 11
-6.3516319481
 21
-16.4183680519
  0
LINE
  5
2F9
100
AcDbEntity
  8
0
100
AcDbLine
 62
7
  6
CONTINUOUS
 10
-6.5
 20
-16.27
 11
-6.3516319481
 21
-16.4183680519
  0
LINE
  5
2FA
100
AcDbEntity
  8
ASSI
100
AcDbLine
 62
7
  6
CONTINUOUS
 10
-7.3012233427
 20
22.2251447178
 11
-7.2551134101
 21
22.3825449351
  0
LINE
  5
2FB
100
AcDbEntity
  8
ASSI
100
AcDbLine
 62
253
  6
CONTINUOUS
 10
-3.3786655583
 20
22.2251447178
 11
-3.2999714434
 21
22.3825449351
  0
LINE
  5
2FC
100
AcDbEntity
  8
ASSI
100
AcDbLine
 62
253
  6
CONTINUOUS
 10
-3.1286750776
 20
21.975182794
 11
-3.05
 21
22.1325449336
  0
LINE
  5
2FD
100
AcDbEntity
  8
ASSI
100
AcDbLine
 62
253
  6
CONTINUOUS
 10
4.1019220988
 20
23.9018840226
 11
4.2000380762
 21
24.0
  0
LINE
  5
2FE
100
AcDbEntity
  8
ASSI
100
AcDbLine
 62
253
  6
CONTINUOUS
 10
4.3518840226
 20
23.6519220988
 11
4.45
 21
23.7500380762
  0
LINE
  5
2FF
100
AcDbEntity
  8
ASSI
100
AcDbLine
 62
7
  6
CONTINUOUS
 10
4.45
 20
22.4
 11
4.3518840226
 21
22.3018840226
  0
LINE
  5
300
100
AcDbEntity
  8
ASSI
100
AcDbLine
 62
7
  6
CONTINUOUS
 10
6.3414138719
 20
-13.8475670731
 11
-6.3414138719
 21
-13.8475670731
  0
LINE
  5
301
100
AcDbEntity
  8
0
100
AcDbLine
 62
7
  6
CONTINUOUS
 10
6.3414138719
 20
-13.8475670731
 11
-6.3414138719
 21
-13.8475670731
  0
LINE
  5
302
100
AcDbEntity
  8
ASSI
100
AcDbLine
 62
7
  6
CONTINUOUS
 10
-9.0318412786
 20
-11.8075215887
 11
-9.0466683828
 21
-11.801380001
  0
LINE
  5
303
100
AcDbEntity
  8
0
100
AcDbLine
 62
7
  6
CONTINUOUS
 10
-9.0318412786
 20
-11.8075215887
 11
-9.0466683828
 21
-11.801380001
  0
LINE
  5
304
100
AcDbEntity
  8
ASSI
100
AcDbLine
 62
7
  6
CONTINUOUS
 10
8.0438568666
 20
-18.4974554308
 11
7.9819252468
 21
-18.471802514
  0
LINE
  5
305
100
AcDbEntity
  8
0
100
AcDbLine
 62
7
  6
CONTINUOUS
 10
8.0438568666
 20
-18.4974554308
 11
7.9819252468
 21
-18.471802514
  0
LINE
  5
306
100
AcDbEntity
  8
ASSI
100
AcDbLine
 62
7
  6
CONTINUOUS
 10
-10.1041700454
 20
-10.4982727107
 11
-10.2466225454
 21
-10.4392669531
  0
LINE
  5
307
100
AcDbEntity
  8
0
100
AcDbLine
 62
7
  6
CONTINUOUS
 10
-10.1041700454
 20
-10.4982727107
 11
-10.2466225454
 21
-10.4392669531
  0
LINE
  5
308
100
AcDbEntity
  8
ASSI
100
AcDbLine
 62
7
  6
CONTINUOUS
 10
10.1083982375
 20
-18.5034786639
 11
10.2466225454
 21
-18.5607330469
  0
LINE
  5
309
100
AcDbEntity
  8
0
100
AcDbLine
 62
7
  6
CONTINUOUS
 10
10.1083982375
 20
-18.5034786639
 11
10.2466225454
 21
-18.5607330469
  0
LINE
  5
30A
100
AcDbEntity
  8
ASSI
100
AcDbLine
 62
7
  6
CONTINUOUS
 10
-8.0441256373
 20
-10.8024332407
 11
-8.0482618771
 21
-10.8007199541
  0
LINE
  5
30B
100
AcDbEntity
  8
0
100
AcDbLine
 62
7
  6
CONTINUOUS
 10
-8.0441256373
 20
-10.8024332407
 11
-8.0482618771
 21
-10.8007199541
  0
LINE
  5
30C
100
AcDbEntity
  8
ASSI
100
AcDbLine
 62
7
  6
CONTINUOUS
 10
8.9819252468
 20
-17.471802514
 11
9.0435128819
 21
-17.4973129477
  0
LINE
  5
30D
100
AcDbEntity
  8
0
100
AcDbLine
 62
7
  6
CONTINUOUS
 10
8.9819252468
 20
-17.471802514
 11
9.0435128819
 21
-17.4973129477
  0
LINE
  5
30E
100
AcDbEntity
  8
ASSI
100
AcDbLine
 62
7
  6
CONTINUOUS
 10
-9.4342824707
 20
-9.2971708846
 11
-9.5074009793
 21
-9.2484314002
  0
LINE
  5
30F
100
AcDbEntity
  8
0
100
AcDbLine
 62
7
  6
CONTINUOUS
 10
-9.4342824707
 20
-9.2971708846
 11
-9.5074009793
 21
-9.2484314002
  0
LINE
  5
310
100
AcDbEntity
  8
ASSI
100
AcDbLine
 62
253
  6
CONTINUOUS
 10
4.2000380762
 20
-24.0
 11
4.1019220988
 21
-23.9018840226
  0
LINE
  5
311
100
AcDbEntity
  8
ASSI
100
AcDbLine
 62
253
  6
CONTINUOUS
 10
4.45
 20
-23.7500380762
 11
4.3518840226
 21
-23.6519220988
  0
LINE
  5
312
100
AcDbEntity
  8
ASSI
100
AcDbLine
 62
7
  6
CONTINUOUS
 10
4.45
 20
-22.4
 11
4.3518840226
 21
-22.3018840226
  0
LINE
  5
313
100
AcDbEntity
  8
ASSI
100
AcDbLine
 62
253
  6
CONTINUOUS
 10
-7.2650925288
 20
-16.9183680548
 11
-7.3392709051
 21
-16.7700000029
  0
LINE
  5
314
100
AcDbEntity
  8
0
100
AcDbLine
 62
253
  6
CONTINUOUS
 10
-7.2650925288
 20
-16.9183680548
 11
-7.3392709051
 21
-16.7700000029
  0
LINE
  5
315
100
AcDbEntity
  8
ASSI
100
AcDbLine
 62
7
  6
CONTINUOUS
 10
-6.5349074712
 20
-17.3215691524
 11
-6.4438534812
 21
-17.5036910024
  0
LINE
  5
316
100
AcDbEntity
  8
0
100
AcDbLine
 62
7
  6
CONTINUOUS
 10
-6.5349074712
 20
-17.3215691524
 11
-6.4438534812
 21
-17.5036910024
  0
LINE
  5
317
100
AcDbEntity
  8
ASSI
100
AcDbLine
 62
253
  6
CONTINUOUS
 10
-6.7651496421
 20
-16.4183680519
 11
-6.8393280183
 21
-16.27
  0
LINE
  5
318
100
AcDbEntity
  8
0
100
AcDbLine
 62
253
  6
CONTINUOUS
 10
-6.7651496421
 20
-16.4183680519
 11
-6.8393280183
 21
-16.27
  0
LINE
  5
319
100
AcDbEntity
  8
ASSI
100
AcDbLine
 62
253
  6
CONTINUOUS
 10
-3.2999714434
 20
-22.3825449351
 11
-3.3786655583
 21
-22.2251447178
  0
LINE
  5
31A
100
AcDbEntity
  8
ASSI
100
AcDbLine
 62
253
  6
CONTINUOUS
 10
-3.05
 20
-22.1325449336
 11
-3.1286750776
 21
-21.975182794
  0
LINE
  5
31B
100
AcDbEntity
  8
ASSI
100
AcDbLine
 62
7
  6
CONTINUOUS
 10
-7.3012233427
 20
-22.2251447178
 11
-7.2551134101
 21
-22.3825449351
  0
LWPOLYLINE
  5
31C
100
AcDbEntity
  8
ASSI
100
AcDbPolyline
 62
253
  6
CONTINUOUS
 90
13
 70
0
 10
-10.5868325431
 20
-24.2868630041
 10
-10.5851144952
 20
-24.3129591946
 10
-10.5800056318
 20
-24.3386090532
 10
-10.57159333
 20
-24.3633738741
 10
-10.5600214685
 20
-24.3868300878
 10
-10.5454879655
 20
-24.4085765077
 10
-10.5282413928
 20
-24.4282411908
 10
-10.5085767256
 20
-24.4454877983
 10
-10.4868303004
 20
-24.4600213458
 10
-10.4633740615
 20
-24.4715932523
 10
-10.4386091967
 20
-24.4800055933
 10
-10.4129592749
 20
-24.4851144846
 10
-10.3868630041
 20
-24.4868325431
  0
LINE
  5
31D
100
AcDbEntity
  8
ASSI
100
AcDbLine
 62
7
  6
CONTINUOUS
 10
-11.1
 20
-21.0
 11
-11.1261859216
 21
-20.4226497308
  0
LINE
  5
31E
100
AcDbEntity
  8
ASSI
100
AcDbLine
 62
253
  6
CONTINUOUS
 10
-10.3864405814
 20
-23.6278734767
 11
-10.4017150409
 21
-23.1226497308
  0
LINE
  5
31F
100
AcDbEntity
  8
ASSI
100
AcDbLine
 62
7
  6
CONTINUOUS
 10
-11.0825449351
 20
20.4226497308
 11
-11.1
 21
21.0
  0
LINE
  5
320
100
AcDbEntity
  8
ASSI
100
AcDbLine
 62
253
  6
CONTINUOUS
 10
-10.5863251115
 20
-23.8043213509
 11
-10.6
 21
-23.3515746082
  0
LINE
  5
321
100
AcDbEntity
  8
ASSI
100
AcDbLine
 62
253
  6
CONTINUOUS
 10
-10.5861793458
 20
-23.8121884951
 11
-10.5863251115
 21
-23.8043213509
  0
LINE
  5
322
100
AcDbEntity
  8
ASSI
100
AcDbLine
 62
253
  6
CONTINUOUS
 10
-10.5860679519
 20
-23.8219204777
 11
-10.5861793458
 21
-23.8121884951
  0
LINE
  5
323
100
AcDbEntity
  8
ASSI
100
AcDbLine
 62
253
  6
CONTINUOUS
 10
-10.5860358265
 20
24.2551943974
 11
-10.5861309572
 21
24.2653901901
  0
LINE
  5
324
100
AcDbEntity
  8
ASSI
100
AcDbLine
 62
253
  6
CONTINUOUS
 10
-10.5859991581
 20
-23.832704563
 11
-10.5860679519
 21
-23.8219204777
  0
LINE
  5
325
100
AcDbEntity
  8
ASSI
100
AcDbLine
 62
253
  6
CONTINUOUS
 10
-10.5859793721
 20
24.2419671036
 11
-10.5860358265
 21
24.2551943974
  0
LINE
  5
326
100
AcDbEntity
  8
ASSI
100
AcDbLine
 62
253
  6
CONTINUOUS
 10
-10.386057824
 20
-23.7588329549
 11
-10.386441634
 21
-23.6278734891
  0
LINE
  5
327
100
AcDbEntity
  8
ASSI
100
AcDbLine
 62
7
  6
CONTINUOUS
 10
-11.1261859216
 20
-20.4226497308
 11
-11.1261859216
 21
-5.0
  0
LINE
  5
328
100
AcDbEntity
  8
0
100
AcDbLine
 62
7
  6
CONTINUOUS
 10
-11.1261859216
 20
-20.4226497308
 11
-11.1261859216
 21
-5.0
  0
LINE
  5
329
100
AcDbEntity
  8
ASSI
100
AcDbLine
 62
7
  6
CONTINUOUS
 10
-11.1261859216
 20
5.0
 11
-11.1261859216
 21
20.4226497308
  0
LINE
  5
32A
100
AcDbEntity
  8
0
100
AcDbLine
 62
7
  6
CONTINUOUS
 10
-11.1261859216
 20
5.0
 11
-11.1261859216
 21
20.4226497308
  0
LINE
  5
32B
100
AcDbEntity
  8
ASSI
100
AcDbLine
 62
7
  6
CONTINUOUS
 10
-11.1
 20
21.9000761524
 11
-11.1
 21
21.0
  0
LINE
  5
32C
100
AcDbEntity
  8
ASSI
100
AcDbLine
 62
7
  6
CONTINUOUS
 10
-11.1
 20
-21.9000761524
 11
-11.1
 21
-21.0
  0
LINE
  5
32D
100
AcDbEntity
  8
ASSI
100
AcDbLine
 62
7
  6
CONTINUOUS
 10
-11.0825449351
 20
-21.8826210875
 11
-11.0825449351
 21
-20.4226497308
  0
LINE
  5
32E
100
AcDbEntity
  8
ASSI
100
AcDbLine
 62
7
  6
CONTINUOUS
 10
-11.0825449351
 20
20.4226497308
 11
-11.0825449351
 21
21.8826210875
  0
LINE
  5
32F
100
AcDbEntity
  8
ASSI
100
AcDbLine
 62
7
  6
CONTINUOUS
 10
-11.0738140784
 20
4.9650898701
 11
-11.0738140784
 21
-4.9650898701
  0
LINE
  5
330
100
AcDbEntity
  8
0
100
AcDbLine
 62
7
  6
CONTINUOUS
 10
-11.0738140784
 20
4.9650898701
 11
-11.0738140784
 21
-4.9650898701
  0
LINE
  5
331
100
AcDbEntity
  8
SMUSSO
100
AcDbLine
 62
7
  6
CONTINUOUS
 10
-11.0
 20
-5.0738026585
 11
-11.0
 21
2.209088035
  0
LINE
  5
332
100
AcDbEntity
  8
ASSI
100
AcDbLine
 62
7
  6
CONTINUOUS
 10
-10.6
 20
-24.300030461
 11
-10.6
 21
-22.3999997358
  0
LINE
  5
333
100
AcDbEntity
  8
ASSI
100
AcDbLine
 62
7
  6
CONTINUOUS
 10
-10.6000000646
 20
22.3999999296
 11
-10.6
 21
24.300030461
  0
LINE
  5
334
100
AcDbEntity
  8
ASSI
100
AcDbLine
 62
253
  6
CONTINUOUS
 10
-10.5859765904
 20
-24.2398451603
 11
-10.5859991581
 21
-23.832704563
  0
LINE
  5
335
100
AcDbEntity
  8
ASSI
100
AcDbLine
 62
253
  6
CONTINUOUS
 10
-10.5859815367
 20
23.8384139942
 11
-10.5859793721
 21
24.2419671036
  0
LINE
  5
336
100
AcDbEntity
  8
ASSI
100
AcDbLine
 62
253
  6
CONTINUOUS
 10
-10.3862515113
 20
-24.4108500274
 11
-10.386057824
 21
-23.7588329549
  0
LINE
  5
337
100
AcDbEntity
  8
ASSI
100
AcDbLine
 62
253
  6
CONTINUOUS
 10
-10.5860275776
 20
23.827248347
 11
-10.5859815367
 21
23.8384139942
  0
LWPOLYLINE
  5
338
100
AcDbEntity
  8
ASSI
100
AcDbPolyline
 62
253
  6
CONTINUOUS
 90
3
 70
0
 10
-10.386441911
 20
23.6278214115
 10
-10.3863561707
 20
23.6438001539
 10
-10.3862600775
 20
24.4133385212
  0
LINE
  5
339
100
AcDbEntity
  8
ASSI
100
AcDbLine
 62
253
  6
CONTINUOUS
 10
-10.5860295592
 20
-24.2542681069
 11
-10.5859765904
 21
-24.2398451603
  0
LINE
  5
33A
100
AcDbEntity
  8
ASSI
100
AcDbLine
 62
253
  6
CONTINUOUS
 10
-10.5861189941
 20
23.8168555943
 11
-10.5860275776
 21
23.827248347
  0
LINE
  5
33B
100
AcDbEntity
  8
ASSI
100
AcDbLine
 62
253
  6
CONTINUOUS
 10
-10.5861236783
 20
-24.2647814795
 11
-10.5860295592
 21
-24.2542681069
  0
LWPOLYLINE
  5
33C
100
AcDbEntity
  8
ASSI
100
AcDbPolyline
 62
253
  6
CONTINUOUS
 90
3
 70
0
 10
-10.5863250264
 20
23.8043279171
 10
-10.5862476153
 20
23.8080503592
 10
-10.5861189941
 20
23.8168555943
  0
LINE
  5
33D
100
AcDbEntity
  8
ASSI
100
AcDbLine
 62
253
  6
CONTINUOUS
 10
-10.6
 20
23.3515746082
 11
-10.5863250264
 21
23.8043279171
  0
LINE
  5
33E
100
AcDbEntity
  8
ASSI
100
AcDbLine
 62
253
  6
CONTINUOUS
 10
-10.4017150409
 20
23.1226497308
 11
-10.3864421555
 21
23.6278214108
  0
LINE
  5
33F
100
AcDbEntity
  8
ASSI
100
AcDbLine
 62
7
  6
CONTINUOUS
 10
-11.1
 20
-21.0
 11
-11.0825449351
 21
-20.4226497308
  0
LINE
  5
340
100
AcDbEntity
  8
ASSI
100
AcDbLine
 62
7
  6
CONTINUOUS
 10
-11.1261859216
 20
20.4226497308
 11
-11.1
 21
21.0
  0
LINE
  5
341
100
AcDbEntity
  8
ASSI
100
AcDbLine
 62
7
  6
CONTINUOUS
 10
-9.5000023792
 20
16.6999519285
 11
-9.4925054846
 21
16.8514272135
  0
LINE
  5
342
100
AcDbEntity
  8
RACCORDO
100
AcDbLine
 62
7
  6
CONTINUOUS
 10
-9.5000023792
 20
16.6999519285
 11
-9.4925054846
 21
16.8514272135
  0
LWPOLYLINE
  5
343
100
AcDbEntity
  8
ASSI
100
AcDbPolyline
 62
253
  6
CONTINUOUS
 90
13
 70
0
 10
-10.5868325431
 20
24.286863004
 10
-10.5851144898
 20
24.3129592355
 10
-10.5800056122
 20
24.3386091261
 10
-10.5715932907
 20
24.363373969
 10
-10.5600214066
 20
24.3868301951
 10
-10.5454878816
 20
24.4085766171
 10
-10.5282412918
 20
24.4282412918
 10
-10.5085766171
 20
24.4454878816
 10
-10.4868301951
 20
24.4600214066
 10
-10.463373969
 20
24.4715932907
 10
-10.4386091261
 20
24.4800056122
 10
-10.4129592355
 20
24.4851144898
 10
-10.3868630041
 20
24.4868325431
  0
LINE
  5
344
100
AcDbEntity
  8
ASSI
100
AcDbLine
 62
7
  6
CONTINUOUS
 10
-7.350948921
 20
19.334259922
 11
-7.328661645
 21
19.4681025177
  0
LINE
  5
345
100
AcDbEntity
  8
RACCORDO
100
AcDbLine
 62
7
  6
CONTINUOUS
 10
-7.350948921
 20
19.334259922
 11
-7.328661645
 21
19.4681025177
  0
LINE
  5
346
100
AcDbEntity
  8
ASSI
100
AcDbLine
 62
7
  6
CONTINUOUS
 10
-4.4552830575
 20
19.334259922
 11
-4.4107051106
 21
19.4681025177
  0
LINE
  5
347
100
AcDbEntity
  8
RACCORDO
100
AcDbLine
 62
7
  6
CONTINUOUS
 10
-4.4552830575
 20
19.334259922
 11
-4.4107051106
 21
19.4681025177
  0
LINE
  5
348
100
AcDbEntity
  8
ASSI
100
AcDbLine
 62
7
  6
CONTINUOUS
 10
-9.65
 20
7.0783629857
 11
-10.1907663376
 21
6.5375966481
  0
LINE
  5
349
100
AcDbEntity
  8
0
100
AcDbLine
 62
7
  6
CONTINUOUS
 10
-9.65
 20
7.0783629857
 11
-10.1907663376
 21
6.5375966481
  0
LINE
  5
34A
100
AcDbEntity
  8
ASSI
100
AcDbLine
 62
7
  6
CONTINUOUS
 10
-9.5138332078
 20
7.0861667922
 11
-10.1
 21
6.5
  0
LINE
  5
34B
100
AcDbEntity
  8
0
100
AcDbLine
 62
7
  6
CONTINUOUS
 10
-9.5138332078
 20
7.0861667922
 11
-10.1
 21
6.5
  0
LINE
  5
34C
100
AcDbEntity
  8
SMUSSO
100
AcDbLine
 62
7
  6
CONTINUOUS
 10
-9.5
 20
-6.3025307249
 11
-11.0
 21
-5.0738026585
  0
LWPOLYLINE
  5
34D
100
AcDbEntity
  8
ASSI
100
AcDbPolyline
 62
7
  6
CONTINUOUS
 90
10
 70
0
 10
8.5466230298
 20
-23.6278312164
 10
8.5659358966
 20
-23.6461238989
 10
8.5866586836
 20
-23.6670655587
 10
8.608791391
 20
-23.6899995776
 10
8.6326327808
 20
-23.7141377517
 10
8.6578840909
 20
-23.7390654611
 10
8.6836490347
 20
-23.7648572213
 10
8.7096288497
 20
-23.7913286324
 10
8.7361222984
 20
-23.8179338627
 10
8.7631293807
 20
-23.8443375673
  0
LINE
  5
34E
100
AcDbEntity
  8
ASSI
100
AcDbLine
 62
7
  6
CONTINUOUS
 10
-10.1907663376
 20
-6.4092336624
 11
-9.5138332078
 21
-7.0861667922
  0
LINE
  5
34F
100
AcDbEntity
  8
0
100
AcDbLine
 62
7
  6
CONTINUOUS
 10
-10.1907663376
 20
-6.4092336624
 11
-9.5138332078
 21
-7.0861667922
  0
LWPOLYLINE
  5
350
100
AcDbEntity
  8
ASSI
100
AcDbPolyline
 62
253
  6
CONTINUOUS
 90
4
 70
0
 10
-7.4131369959
 20
-24.4868325431
 10
-7.4131781497
 20
-24.4863524902
 10
-7.4132201758
 20
-24.4852822607
 10
-7.4132630744
 20
-24.4835719291
  0
LWPOLYLINE
  5
351
100
AcDbEntity
  8
ASSI
100
AcDbPolyline
 62
253
  6
CONTINUOUS
 90
13
 70
0
 10
-10.5864113981
 20
23.8010362971
 10
-10.5844930317
 20
23.7785524661
 10
-10.5792234307
 20
23.7564490956
 10
-10.5706917678
 20
23.735100197
 10
-10.5590424128
 20
23.7148670137
 10
-10.5444724898
 20
23.6960919105
 10
-10.5272285433
 20
23.6790925801
 10
-10.5076023651
 20
23.664156665
 10
-10.4859260514
 20
23.651536889
 10
-10.462566384
 20
23.6414467844
 10
-10.43791863
 20
23.634057081
 10
-10.4123998547
 20
23.6294928159
 10
-10.3864418591
 20
23.6278312164
  0
LINE
  5
352
100
AcDbEntity
  8
ASSI
100
AcDbLine
 62
253
  6
CONTINUOUS
 10
-7.2650925288
 20
-19.0334731601
 11
-7.2127313221
 21
-20.0914350444
  0
LINE
  5
353
100
AcDbEntity
  8
0
100
AcDbLine
 62
253
  6
CONTINUOUS
 10
-7.2650925288
 20
-19.0334731601
 11
-7.2127313221
 21
-20.0914350444
  0
LWPOLYLINE
  5
354
100
AcDbEntity
  8
ASSI
100
AcDbPolyline
 62
253
  6
CONTINUOUS
 90
9
 70
0
 10
-10.586435956
 20
24.2809528283
 10
-10.5864823549
 20
24.2822756404
 10
-10.5865298704
 20
24.2834354682
 10
-10.5865785159
 20
24.2844303293
 10
-10.586628278
 20
24.2852622061
 10
-10.5866786159
 20
24.2859222925
 10
-10.5867293492
 20
24.2864076534
 10
-10.5867806583
 20
24.2867212239
 10
-10.5868325431
 20
24.286863004
  0
LINE
  5
355
100
AcDbEntity
  8
ASSI
100
AcDbLine
 62
7
  6
CONTINUOUS
 10
-9.2868325431
 20
-23.5581814706
 11
-9.3
 21
-23.1226497308
  0
LWPOLYLINE
  5
356
100
AcDbEntity
  8
ASSI
100
AcDbPolyline
 62
7
  6
CONTINUOUS
 90
7
 70
0
 10
-8.0387586103
 20
-20.7432173677
 10
-8.0380165475
 20
-20.7700857632
 10
-8.0372247173
 20
-20.7927512441
 10
-8.0364047266
 20
-20.810614808
 10
-8.0355637775
 20
-20.8234767873
 10
-8.0346946678
 20
-20.8315368496
 10
-8.0337973975
 20
-20.8347949948
  0
LWPOLYLINE
  5
357
100
AcDbEntity
  8
0
100
AcDbPolyline
 62
7
  6
CONTINUOUS
 90
7
 70
0
 10
-8.0387586103
 20
-20.7432173677
 10
-8.0380165475
 20
-20.7700857632
 10
-8.0372247173
 20
-20.7927512441
 10
-8.0364047266
 20
-20.810614808
 10
-8.0355637775
 20
-20.8234767873
 10
-8.0346946678
 20
-20.8315368496
 10
-8.0337973975
 20
-20.8347949948
  0
LINE
  5
358
100
AcDbEntity
  8
ASSI
100
AcDbLine
 62
253
  6
CONTINUOUS
 10
-10.5863480303
 20
24.2778608241
 11
-10.586435956
 21
24.2809528283
  0
LINE
  5
359
100
AcDbEntity
  8
ASSI
100
AcDbLine
 62
7
  6
CONTINUOUS
 10
-8.0441256373
 20
-10.8024332407
 11
-8.051597145
 21
-10.4524775147
  0
LINE
  5
35A
100
AcDbEntity
  8
0
100
AcDbLine
 62
7
  6
CONTINUOUS
 10
-8.0441256373
 20
-10.8024332407
 11
-8.051597145
 21
-10.4524775147
  0
LINE
  5
35B
100
AcDbEntity
  8
ASSI
100
AcDbLine
 62
253
  6
CONTINUOUS
 10
-10.5862670299
 20
24.2741940257
 11
-10.5863480303
 21
24.2778608241
  0
LWPOLYLINE
  5
35C
100
AcDbEntity
  8
ASSI
100
AcDbPolyline
 62
253
  6
CONTINUOUS
 90
4
 70
0
 10
-10.3867089617
 20
24.4821301469
 10
-10.3867597139
 20
24.4845678952
 10
-10.3868110614
 20
24.4861369086
 10
-10.3868630041
 20
24.4868325431
  0
LINE
  5
35D
100
AcDbEntity
  8
ASSI
100
AcDbLine
 62
7
  6
CONTINUOUS
 10
-8.0400935541
 20
-20.6764675248
 11
-8.0387586103
 21
-20.7432173677
  0
LINE
  5
35E
100
AcDbEntity
  8
0
100
AcDbLine
 62
7
  6
CONTINUOUS
 10
-8.0400935541
 20
-20.6764675248
 11
-8.0387586103
 21
-20.7432173677
  0
LWPOLYLINE
  5
35F
100
AcDbEntity
  8
ASSI
100
AcDbPolyline
 62
253
  6
CONTINUOUS
 90
3
 70
0
 10
-10.5861309572
 20
24.2653901901
 10
-10.5861613631
 20
24.2677505393
 10
-10.5862670299
 20
24.2741940257
  0
LINE
  5
360
100
AcDbEntity
  8
ASSI
100
AcDbLine
 62
7
  6
CONTINUOUS
 10
-9.0318412786
 20
-11.8075215887
 11
-8.9819252468
 21
-15.8915786577
  0
LINE
  5
361
100
AcDbEntity
  8
0
100
AcDbLine
 62
7
  6
CONTINUOUS
 10
-9.0318412786
 20
-11.8075215887
 11
-8.9819252468
 21
-15.8915786577
  0
LINE
  5
362
100
AcDbEntity
  8
ASSI
100
AcDbLine
 62
253
  6
CONTINUOUS
 10
-10.3866088988
 20
24.4746810802
 11
-10.3867089617
 21
24.4821301469
  0
LINE
  5
363
100
AcDbEntity
  8
ASSI
100
AcDbLine
 62
7
  6
CONTINUOUS
 10
-8.0411605284
 20
-20.5965183222
 11
-8.0400935541
 21
-20.6764675248
  0
LINE
  5
364
100
AcDbEntity
  8
0
100
AcDbLine
 62
7
  6
CONTINUOUS
 10
-8.0411605284
 20
-20.5965183222
 11
-8.0400935541
 21
-20.6764675248
  0
LINE
  5
365
100
AcDbEntity
  8
ASSI
100
AcDbLine
 62
7
  6
CONTINUOUS
 10
-8.0419265669
 20
-20.5057929751
 11
-8.0411605284
 21
-20.5965183222
  0
LINE
  5
366
100
AcDbEntity
  8
0
100
AcDbLine
 62
7
  6
CONTINUOUS
 10
-8.0419265669
 20
-20.5057929751
 11
-8.0411605284
 21
-20.5965183222
  0
LINE
  5
367
100
AcDbEntity
  8
ASSI
100
AcDbLine
 62
253
  6
CONTINUOUS
 10
-10.3864215976
 20
24.4499293573
 11
-10.3866088988
 21
24.4746810802
  0
LINE
  5
368
100
AcDbEntity
  8
ASSI
100
AcDbLine
 62
253
  6
CONTINUOUS
 10
-10.3862600775
 20
24.4133385212
 11
-10.3864215976
 21
24.4499293573
  0
LINE
  5
369
100
AcDbEntity
  8
ASSI
100
AcDbLine
 62
7
  6
CONTINUOUS
 10
-9.4971221886
 20
19.334259922
 11
-9.4951140381
 21
17.1381978935
  0
LINE
  5
36A
100
AcDbEntity
  8
DRAFT
100
AcDbLine
 62
7
  6
CONTINUOUS
 10
-9.4971221886
 20
19.334259922
 11
-9.4951140381
 21
17.1381978935
  0
LINE
  5
36B
100
AcDbEntity
  8
ASSI
100
AcDbLine
 62
7
  6
CONTINUOUS
 10
-9.0466683828
 20
-11.801380001
 11
-9.0435128819
 21
-17.4973129477
  0
LINE
  5
36C
100
AcDbEntity
  8
0
100
AcDbLine
 62
7
  6
CONTINUOUS
 10
-9.0466683828
 20
-11.801380001
 11
-9.0435128819
 21
-17.4973129477
  0
LINE
  5
36D
100
AcDbEntity
  8
ASSI
100
AcDbLine
 62
7
  6
CONTINUOUS
 10
-9.4323279156
 20
4.0468960217
 11
-9.4379053794
 21
14.6834101266
  0
LINE
  5
36E
100
AcDbEntity
  8
DRAFT
100
AcDbLine
 62
7
  6
CONTINUOUS
 10
-9.4323279156
 20
4.0468960217
 11
-9.4379053794
 21
14.6834101266
  0
LINE
  5
36F
100
AcDbEntity
  8
ASSI
100
AcDbLine
 62
7
  6
CONTINUOUS
 10
-10.2466225454
 20
-10.4392669531
 11
-10.2466225454
 21
-18.5607330469
  0
LINE
  5
370
100
AcDbEntity
  8
0
100
AcDbLine
 62
7
  6
CONTINUOUS
 10
-10.2466225454
 20
-10.4392669531
 11
-10.2466225454
 21
-18.5607330469
  0
LINE
  5
371
100
AcDbEntity
  8
ASSI
100
AcDbLine
 62
7
  6
CONTINUOUS
 10
-10.1907663376
 20
6.5375966481
 11
-10.1907663376
 21
5.0
  0
LINE
  5
372
100
AcDbEntity
  8
0
100
AcDbLine
 62
7
  6
CONTINUOUS
 10
-10.1907663376
 20
6.5375966481
 11
-10.1907663376
 21
5.0
  0
LINE
  5
373
100
AcDbEntity
  8
ASSI
100
AcDbLine
 62
7
  6
CONTINUOUS
 10
-10.1907663376
 20
-5.7366880673
 11
-10.1907663376
 21
-6.4092336624
  0
LINE
  5
374
100
AcDbEntity
  8
0
100
AcDbLine
 62
7
  6
CONTINUOUS
 10
-10.1907663376
 20
-5.7366880673
 11
-10.1907663376
 21
-6.4092336624
  0
LINE
  5
375
100
AcDbEntity
  8
ASSI
100
AcDbLine
 62
7
  6
CONTINUOUS
 10
-10.1558562078
 20
4.9650898701
 11
-10.1558562078
 21
2.9005701481
  0
LINE
  5
376
100
AcDbEntity
  8
0
100
AcDbLine
 62
7
  6
CONTINUOUS
 10
-10.1558562078
 20
4.9650898701
 11
-10.1558562078
 21
2.9005701481
  0
LINE
  5
377
100
AcDbEntity
  8
ASSI
100
AcDbLine
 62
7
  6
CONTINUOUS
 10
-10.1
 20
6.5
 11
-10.1
 21
2.9463248749
  0
LINE
  5
378
100
AcDbEntity
  8
0
100
AcDbLine
 62
7
  6
CONTINUOUS
 10
-10.1
 20
6.5
 11
-10.1
 21
2.9463248749
  0
LINE
  5
379
100
AcDbEntity
  8
ASSI
100
AcDbLine
 62
7
  6
CONTINUOUS
 10
-10.1
 20
-5.8110394983
 11
-10.1
 21
-6.5
  0
LINE
  5
37A
100
AcDbEntity
  8
0
100
AcDbLine
 62
7
  6
CONTINUOUS
 10
-10.1
 20
-5.8110394983
 11
-10.1
 21
-6.5
  0
LINE
  5
37B
100
AcDbEntity
  8
ASSI
100
AcDbLine
 62
7
  6
CONTINUOUS
 10
-9.65
 20
-20.9
 11
-9.65
 21
-19.1573555923
  0
LINE
  5
37C
100
AcDbEntity
  8
0
100
AcDbLine
 62
7
  6
CONTINUOUS
 10
-9.65
 20
-20.9
 11
-9.65
 21
-19.1573555923
  0
LINE
  5
37D
100
AcDbEntity
  8
ASSI
100
AcDbLine
 62
7
  6
CONTINUOUS
 10
-9.65
 20
-9.8426444078
 11
-9.65
 21
-6.95
  0
LINE
  5
37E
100
AcDbEntity
  8
0
100
AcDbLine
 62
7
  6
CONTINUOUS
 10
-9.65
 20
-9.8426444078
 11
-9.65
 21
-6.95
  0
LINE
  5
37F
100
AcDbEntity
  8
ASSI
100
AcDbLine
 62
7
  6
CONTINUOUS
 10
-9.65
 20
7.0783629857
 11
-9.65
 21
20.9
  0
LINE
  5
380
100
AcDbEntity
  8
0
100
AcDbLine
 62
7
  6
CONTINUOUS
 10
-9.65
 20
7.0783629857
 11
-9.65
 21
20.9
  0
LINE
  5
381
100
AcDbEntity
  8
ASSI
100
AcDbLine
 62
7
  6
CONTINUOUS
 10
-9.639870208
 20
14.5487839997
 11
-9.639870208
 21
18.1129361064
  0
LINE
  5
382
100
AcDbEntity
  8
DRAFT
100
AcDbLine
 62
7
  6
CONTINUOUS
 10
-9.639870208
 20
14.5487839997
 11
-9.639870208
 21
18.1129361064
  0
LINE
  5
383
100
AcDbEntity
  8
ASSI
100
AcDbLine
 62
7
  6
CONTINUOUS
 10
-9.5714422353
 20
20.8738193966
 11
-9.5714422353
 21
19.7676913781
  0
LINE
  5
384
100
AcDbEntity
  8
RACCORDO
100
AcDbLine
 62
7
  6
CONTINUOUS
 10
-9.5714422353
 20
20.8738193966
 11
-9.5714422353
 21
19.7676913781
  0
LINE
  5
385
100
AcDbEntity
  8
ASSI
100
AcDbLine
 62
7
  6
CONTINUOUS
 10
-9.5138332078
 20
7.0861667922
 11
-9.5138332078
 21
4.0
  0
LINE
  5
386
100
AcDbEntity
  8
0
100
AcDbLine
 62
7
  6
CONTINUOUS
 10
-9.5138332078
 20
7.0861667922
 11
-9.5138332078
 21
4.0
  0
LINE
  5
387
100
AcDbEntity
  8
ASSI
100
AcDbLine
 62
7
  6
CONTINUOUS
 10
-9.5138332078
 20
-8.8015305236
 11
-9.5138332078
 21
-8.9984694765
  0
LINE
  5
388
100
AcDbEntity
  8
0
100
AcDbLine
 62
7
  6
CONTINUOUS
 10
-9.5138332078
 20
-8.8015305236
 11
-9.5138332078
 21
-8.9984694765
  0
LINE
  5
389
100
AcDbEntity
  8
ASSI
100
AcDbLine
 62
7
  6
CONTINUOUS
 10
-9.5138332078
 20
-7.0861667922
 11
-9.5138332078
 21
-6.2911992244
  0
LINE
  5
38A
100
AcDbEntity
  8
0
100
AcDbLine
 62
7
  6
CONTINUOUS
 10
-9.5138332078
 20
-7.0861667922
 11
-9.5138332078
 21
-6.2911992244
  0
LINE
  5
38B
100
AcDbEntity
  8
ASSI
100
AcDbLine
 62
7
  6
CONTINUOUS
 10
-9.5
 20
16.7
 11
-9.5
 21
14.6886542078
  0
LINE
  5
38C
100
AcDbEntity
  8
DRAFT
100
AcDbLine
 62
7
  6
CONTINUOUS
 10
-9.5
 20
16.7
 11
-9.5
 21
14.6886542078
  0
LINE
  5
38D
100
AcDbEntity
  8
SMUSSO
100
AcDbLine
 62
7
  6
CONTINUOUS
 10
-9.5
 20
-4.1802979104
 11
-9.5
 21
-6.3025307249
  0
LINE
  5
38E
100
AcDbEntity
  8
RACCORDO
100
AcDbLine
 62
7
  6
CONTINUOUS
 10
-9.45
 20
15.9
 11
-9.45
 21
16.8514272135
  0
LINE
  5
38F
100
AcDbEntity
  8
ASSI
100
AcDbLine
 62
7
  6
CONTINUOUS
 10
-9.3
 20
-23.1226497308
 11
-9.3
 21
-22.4
  0
LINE
  5
390
100
AcDbEntity
  8
ASSI
100
AcDbLine
 62
7
  6
CONTINUOUS
 10
-9.3
 20
22.4
 11
-9.3
 21
23.1226497308
  0
LINE
  5
391
100
AcDbEntity
  8
ASSI
100
AcDbLine
 62
253
  6
CONTINUOUS
 10
-9.2868325431
 20
-23.5581814706
 11
-9.2868325431
 21
-22.3868325431
  0
LINE
  5
392
100
AcDbEntity
  8
ASSI
100
AcDbLine
 62
253
  6
CONTINUOUS
 10
-9.2868325431
 20
22.3868325431
 11
-9.2868325431
 21
23.5581814706
  0
LINE
  5
393
100
AcDbEntity
  8
ASSI
100
AcDbLine
 62
253
  6
CONTINUOUS
 10
-9.0368706193
 20
-23.8443375673
 11
-9.0368706193
 21
-22.3825449351
  0
LINE
  5
394
100
AcDbEntity
  8
ASSI
100
AcDbLine
 62
253
  6
CONTINUOUS
 10
-9.0368706193
 20
22.3825449351
 11
-9.0368706193
 21
23.8443375673
  0
LINE
  5
395
100
AcDbEntity
  8
ASSI
100
AcDbLine
 62
7
  6
CONTINUOUS
 10
-8.9819252468
 20
-15.8915786577
 11
-8.9819252468
 21
-17.471802514
  0
LINE
  5
396
100
AcDbEntity
  8
0
100
AcDbLine
 62
7
  6
CONTINUOUS
 10
-8.9819252468
 20
-15.8915786577
 11
-8.9819252468
 21
-17.471802514
  0
LINE
  5
397
100
AcDbEntity
  8
0
100
AcDbLine
 62
7
  6
CONTINUOUS
 10
-8.9
 20
5.8951872317
 11
-8.9
 21
3.4378161015
  0
LINE
  5
398
100
AcDbEntity
  8
0
100
AcDbLine
 62
7
  6
CONTINUOUS
 10
-8.9
 20
-3.6636541043
 11
-8.9
 21
-10.193842946
  0
LINE
  5
399
100
AcDbEntity
  8
ASSI
100
AcDbLine
 62
253
  6
CONTINUOUS
 10
-8.7631293807
 20
-23.8443375673
 11
-8.7631293807
 21
-22.3825449351
  0
LINE
  5
39A
100
AcDbEntity
  8
ASSI
100
AcDbLine
 62
253
  6
CONTINUOUS
 10
-8.7631293807
 20
22.3825449351
 11
-8.7631293807
 21
23.8443375673
  0
LINE
  5
39B
100
AcDbEntity
  8
ASSI
100
AcDbLine
 62
253
  6
CONTINUOUS
 10
-8.5131674569
 20
-23.5581814706
 11
-8.5131674569
 21
-22.3868325431
  0
LINE
  5
39C
100
AcDbEntity
  8
ASSI
100
AcDbLine
 62
253
  6
CONTINUOUS
 10
-8.5131674569
 20
22.3868325431
 11
-8.5131674569
 21
23.5581814706
  0
LINE
  5
39D
100
AcDbEntity
  8
ASSI
100
AcDbLine
 62
7
  6
CONTINUOUS
 10
-8.5
 20
-23.1226497308
 11
-8.5
 21
-22.4
  0
LINE
  5
39E
100
AcDbEntity
  8
ASSI
100
AcDbLine
 62
7
  6
CONTINUOUS
 10
-8.5
 20
22.4
 11
-8.5
 21
23.1226497308
  0
LINE
  5
39F
100
AcDbEntity
  8
ASSI
100
AcDbLine
 62
7
  6
CONTINUOUS
 10
-8.2325449351
 20
21.4051134101
 11
-8.2325449351
 21
20.9
  0
LINE
  5
3A0
100
AcDbEntity
  8
ASSI
100
AcDbLine
 62
7
  6
CONTINUOUS
 10
-8.2325449351
 20
-21.4051134101
 11
-8.2325449351
 21
-20.9
  0
LINE
  5
3A1
100
AcDbEntity
  8
ASSI
100
AcDbLine
 62
7
  6
CONTINUOUS
 10
-9.4338858163
 20
-8.5025647127
 11
-9.4329765968
 21
-6.3025307249
  0
LINE
  5
3A2
100
AcDbEntity
  8
0
100
AcDbLine
 62
7
  6
CONTINUOUS
 10
-9.4338858163
 20
-8.5025647127
 11
-9.4329765968
 21
-6.3025307249
  0
LINE
  5
3A3
100
AcDbEntity
  8
ASSI
100
AcDbLine
 62
7
  6
CONTINUOUS
 10
-9.4345684598
 20
-9.8302978876
 11
-9.4342824707
 21
-9.2971708846
  0
LINE
  5
3A4
100
AcDbEntity
  8
0
100
AcDbLine
 62
7
  6
CONTINUOUS
 10
-9.4345684598
 20
-9.8302978876
 11
-9.4342824707
 21
-9.2971708846
  0
LINE
  5
3A5
100
AcDbEntity
  8
ASSI
100
AcDbLine
 62
7
  6
CONTINUOUS
 10
-10.1041700454
 20
-10.4982727107
 11
-10.107257021
 21
-16.7251497117
  0
LINE
  5
3A6
100
AcDbEntity
  8
0
100
AcDbLine
 62
7
  6
CONTINUOUS
 10
-10.1041700454
 20
-10.4982727107
 11
-10.107257021
 21
-16.7251497117
  0
LINE
  5
3A7
100
AcDbEntity
  8
ASSI
100
AcDbLine
 62
7
  6
CONTINUOUS
 10
-10.107257021
 20
-16.7251497117
 11
-10.1083982375
 21
-18.5034786639
  0
LINE
  5
3A8
100
AcDbEntity
  8
0
100
AcDbLine
 62
7
  6
CONTINUOUS
 10
-10.107257021
 20
-16.7251497117
 11
-10.1083982375
 21
-18.5034786639
  0
LINE
  5
3A9
100
AcDbEntity
  8
0
100
AcDbLine
 62
7
  6
CONTINUOUS
 10
-9.443483635
 20
-20.3572262612
 11
-9.4421659452
 21
-19.1692666957
  0
LINE
  5
3AA
100
AcDbEntity
  8
ASSI
100
AcDbLine
 62
7
  6
CONTINUOUS
 10
-9.443864935
 20
-20.4570899966
 11
-9.4421659452
 21
-19.1692666957
  0
LINE
  5
3AB
100
AcDbEntity
  8
RACCORDO
100
AcDbLine
 62
7
  6
CONTINUOUS
 10
-9.443864935
 20
-20.4570899966
 11
-9.443483635
 21
-20.3572262612
  0
LINE
  5
3AC
100
AcDbEntity
  8
ASSI
100
AcDbLine
 62
253
  6
CONTINUOUS
 10
-10.3865442736
 20
-24.4678356755
 11
-10.3862515113
 21
-24.4108500274
  0
LINE
  5
3AD
100
AcDbEntity
  8
ASSI
100
AcDbLine
 62
253
  6
CONTINUOUS
 10
-10.3866364509
 20
-24.4770921573
 11
-10.3865442736
 21
-24.4678356755
  0
LINE
  5
3AE
100
AcDbEntity
  8
ASSI
100
AcDbLine
 62
7
  6
CONTINUOUS
 10
-9.4447625207
 20
-20.5513174581
 11
-9.443864935
 21
-20.4570899966
  0
LINE
  5
3AF
100
AcDbEntity
  8
RACCORDO
100
AcDbLine
 62
7
  6
CONTINUOUS
 10
-9.4447625207
 20
-20.5513174581
 11
-9.443864935
 21
-20.4570899966
  0
LINE
  5
3B0
100
AcDbEntity
  8
ASSI
100
AcDbLine
 62
253
  6
CONTINUOUS
 10
-10.5862210193
 20
-24.2716635658
 11
-10.5861236783
 21
-24.2647814795
  0
LINE
  5
3B1
100
AcDbEntity
  8
ASSI
100
AcDbLine
 62
253
  6
CONTINUOUS
 10
-10.5862968707
 20
-24.2756504056
 11
-10.5862210193
 21
-24.2716635658
  0
LWPOLYLINE
  5
3B2
100
AcDbEntity
  8
ASSI
100
AcDbPolyline
 62
7
  6
CONTINUOUS
 90
18
 70
0
 10
-10.1498218911
 20
-0.3712409045
 10
-10.1485410874
 20
-0.3261506042
 10
-10.1382946582
 20
-0.2371767902
 10
-10.117525098
 20
-0.1494423513
 10
-10.0865091086
 20
-0.0629146988
 10
-10.0460767947
 20
0.0200903612
 10
-9.9959738713
 20
0.0994777024
 10
-9.9364546235
 20
0.1753424511
 10
-9.8691120105
 20
0.2456541808
 10
-9.7937347649
 20
0.310262934
 10
-9.7105341541
 20
0.3693186682
 10
-9.6217369401
 20
0.4212408294
 10
-9.5271919883
 20
0.4658367777
 10
-9.4270504333
 20
0.503299153
 10
-9.3239924404
 20
0.532625321
 10
-9.2189113981
 20
0.5534810701
 10
-9.110913918
 20
0.566200612
 10
-9.0
 20
0.5707839465
  0
LINE
  5
3B3
100
AcDbEntity
  8
ASSI
100
AcDbLine
 62
7
  6
CONTINUOUS
 10
-9.3
 20
23.1226497308
 11
-9.2868325431
 21
23.5581814706
  0
LINE
  5
3B4
100
AcDbEntity
  8
ASSI
100
AcDbLine
 62
253
  6
CONTINUOUS
 10
-7.2127313221
 20
20.0914350444
 11
-7.3515730872
 21
17.2861273647
  0
LINE
  5
3B5
100
AcDbEntity
  8
RACCORDO
100
AcDbLine
 62
253
  6
CONTINUOUS
 10
-7.2127313221
 20
20.0914350444
 11
-7.3515730872
 21
17.2861273647
  0
LWPOLYLINE
  5
3B6
100
AcDbEntity
  8
ASSI
100
AcDbPolyline
 62
253
  6
CONTINUOUS
 90
5
 70
0
 10
-10.3868630041
 20
-24.4868325431
 10
-10.3868188154
 20
-24.4862955583
 10
-10.3867741174
 20
-24.4850928442
 10
-10.3867289103
 20
-24.4831852977
 10
-10.3866364509
 20
-24.4770921573
  0
LWPOLYLINE
  5
3B7
100
AcDbEntity
  8
ASSI
100
AcDbPolyline
 62
253
  6
CONTINUOUS
 90
13
 70
0
 10
-10.5864113981
 20
-23.8010362971
 10
-10.5844930438
 20
-23.7785525233
 10
-10.5792234721
 20
-23.7564491968
 10
-10.5706918493
 20
-23.7351003272
 10
-10.5590425386
 20
-23.7148671581
 10
-10.5444726577
 20
-23.6960920541
 10
-10.527228743
 20
-23.6790927082
 10
-10.5076025782
 20
-23.6641567658
 10
-10.485926257
 20
-23.6515369574
 10
-10.4625665636
 20
-23.6414468218
 10
-10.4379187667
 20
-23.6340570937
 10
-10.4123999307
 20
-23.6294928145
 10
-10.3864418591
 20
-23.6278312164
  0
LWPOLYLINE
  5
3B8
100
AcDbEntity
  8
ASSI
100
AcDbPolyline
 62
7
  6
CONTINUOUS
 90
10
 70
0
 10
8.5466230298
 20
23.6278312163
 10
8.5649157123
 20
23.6471440832
 10
8.5858573721
 20
23.6678668702
 10
8.608791391
 20
23.6899995776
 10
8.6329295651
 20
23.7138409674
 10
8.6578572746
 20
23.7390922775
 10
8.6836490347
 20
23.7648572212
 10
8.7101204458
 20
23.7908370363
 10
8.7367256761
 20
23.817330485
 10
8.7631293807
 20
23.8443375673
  0
LINE
  5
3B9
100
AcDbEntity
  8
ASSI
100
AcDbLine
 62
253
  6
CONTINUOUS
 10
10.6
 20
22.3999999999
 11
10.5826210875
 21
22.3825449351
  0
LINE
  5
3BA
100
AcDbEntity
  8
ASSI
100
AcDbLine
 62
253
  6
CONTINUOUS
 10
10.400030461
 20
24.5
 11
10.3868630041
 21
24.4868325431
  0
LINE
  5
3BB
100
AcDbEntity
  8
ASSI
100
AcDbLine
 62
253
  6
CONTINUOUS
 10
10.6
 20
24.300030461
 11
10.5868325431
 21
24.286863004
  0
LINE
  5
3BC
100
AcDbEntity
  8
ASSI
100
AcDbLine
 62
7
  6
CONTINUOUS
 10
9.3
 20
22.4
 11
9.2868325431
 21
22.3868325431
  0
LINE
  5
3BD
100
AcDbEntity
  8
ASSI
100
AcDbLine
 62
7
  6
CONTINUOUS
 10
4.0511995689
 20
16.8765870314
 11
3.7636147059
 21
16.5890021684
  0
LINE
  5
3BE
100
AcDbEntity
  8
DRAFT
100
AcDbLine
 62
7
  6
CONTINUOUS
 10
4.0511995689
 20
16.8765870314
 11
3.7636147059
 21
16.5890021684
  0
LINE
  5
3BF
100
AcDbEntity
  8
SMUSSO
100
AcDbLine
 62
7
  6
CONTINUOUS
 10
-9.5
 20
3.4378161015
 11
-11.0
 21
2.209088035
  0
LINE
  5
3C0
100
AcDbEntity
  8
ASSI
100
AcDbLine
 62
7
  6
CONTINUOUS
 10
-9.443483635
 20
4.0468937615
 11
-9.5138332078
 21
4.0
  0
LINE
  5
3C1
100
AcDbEntity
  8
0
100
AcDbLine
 62
7
  6
CONTINUOUS
 10
-9.443483635
 20
4.0468937615
 11
-9.5138332078
 21
4.0
  0
LINE
  5
3C2
100
AcDbEntity
  8
ASSI
100
AcDbLine
 62
7
  6
CONTINUOUS
 10
-9.65
 20
-9.8426444078
 11
-9.4345684598
 21
-9.8302978876
  0
LINE
  5
3C3
100
AcDbEntity
  8
0
100
AcDbLine
 62
7
  6
CONTINUOUS
 10
-9.65
 20
-9.8426444078
 11
-9.4345684598
 21
-9.8302978876
  0
LINE
  5
3C4
100
AcDbEntity
  8
ASSI
100
AcDbLine
 62
7
  6
CONTINUOUS
 10
8.9
 20
-9.2978501349
 11
9.4342824707
 21
-9.2971708846
  0
LINE
  5
3C5
100
AcDbEntity
  8
0
100
AcDbLine
 62
7
  6
CONTINUOUS
 10
8.9
 20
-9.2978501349
 11
9.4342824707
 21
-9.2971708846
  0
LINE
  5
3C6
100
AcDbEntity
  8
ASSI
100
AcDbLine
 62
7
  6
CONTINUOUS
 10
-8.9
 20
-8.5018802091
 11
-9.4338858163
 21
-8.5025647127
  0
LINE
  5
3C7
100
AcDbEntity
  8
0
100
AcDbLine
 62
7
  6
CONTINUOUS
 10
-8.9
 20
-8.5018802091
 11
-9.4338858163
 21
-8.5025647127
  0
LINE
  5
3C8
100
AcDbEntity
  8
0
100
AcDbLine
 62
7
  6
CONTINUOUS
 10
-8.9
 20
-10.193842946
 11
-7.25
 21
-10.193842946
  0
LINE
  5
3C9
100
AcDbEntity
  8
0
100
AcDbLine
 62
7
  6
CONTINUOUS
 10
7.25
 20
-10.193842946
 11
8.9
 21
-10.193842946
  0
LINE
  5
3CA
100
AcDbEntity
  8
ASSI
100
AcDbLine
 62
253
  6
CONTINUOUS
 10
9.5074009793
 20
-9.2484314002
 11
8.9
 21
-9.2484314002
  0
LINE
  5
3CB
100
AcDbEntity
  8
0
100
AcDbLine
 62
253
  6
CONTINUOUS
 10
9.5074009793
 20
-9.2484314002
 11
8.9
 21
-9.2484314002
  0
LINE
  5
3CC
100
AcDbEntity
  8
ASSI
100
AcDbLine
 62
253
  6
CONTINUOUS
 10
-8.9
 20
-9.2484314002
 11
-9.5074009793
 21
-9.2484314002
  0
LINE
  5
3CD
100
AcDbEntity
  8
0
100
AcDbLine
 62
253
  6
CONTINUOUS
 10
-8.9
 20
-9.2484314002
 11
-9.5074009793
 21
-9.2484314002
  0
LINE
  5
3CE
100
AcDbEntity
  8
ASSI
100
AcDbLine
 62
253
  6
CONTINUOUS
 10
9.5138332078
 20
-8.9984694765
 11
8.9
 21
-8.9984694765
  0
LINE
  5
3CF
100
AcDbEntity
  8
0
100
AcDbLine
 62
253
  6
CONTINUOUS
 10
9.5138332078
 20
-8.9984694765
 11
8.9
 21
-8.9984694765
  0
LINE
  5
3D0
100
AcDbEntity
  8
ASSI
100
AcDbLine
 62
253
  6
CONTINUOUS
 10
-8.9
 20
-8.9984694765
 11
-9.5138332078
 21
-8.9984694765
  0
LINE
  5
3D1
100
AcDbEntity
  8
0
100
AcDbLine
 62
253
  6
CONTINUOUS
 10
-8.9
 20
-8.9984694765
 11
-9.5138332078
 21
-8.9984694765
  0
LINE
  5
3D2
100
AcDbEntity
  8
ASSI
100
AcDbLine
 62
253
  6
CONTINUOUS
 10
-9.5138332078
 20
-8.8015305236
 11
-8.9
 21
-8.8015305236
  0
LINE
  5
3D3
100
AcDbEntity
  8
0
100
AcDbLine
 62
253
  6
CONTINUOUS
 10
-9.5138332078
 20
-8.8015305236
 11
-8.9
 21
-8.8015305236
  0
LINE
  5
3D4
100
AcDbEntity
  8
ASSI
100
AcDbLine
 62
253
  6
CONTINUOUS
 10
8.9
 20
-8.8015305236
 11
9.5138332078
 21
-8.8015305236
  0
LINE
  5
3D5
100
AcDbEntity
  8
0
100
AcDbLine
 62
253
  6
CONTINUOUS
 10
8.9
 20
-8.8015305236
 11
9.5138332078
 21
-8.8015305236
  0
LINE
  5
3D6
100
AcDbEntity
  8
ASSI
100
AcDbLine
 62
253
  6
CONTINUOUS
 10
-9.5074009793
 20
-8.5515685998
 11
-8.9
 21
-8.5515685998
  0
LINE
  5
3D7
100
AcDbEntity
  8
0
100
AcDbLine
 62
253
  6
CONTINUOUS
 10
-9.5074009793
 20
-8.5515685998
 11
-8.9
 21
-8.5515685998
  0
LINE
  5
3D8
100
AcDbEntity
  8
ASSI
100
AcDbLine
 62
253
  6
CONTINUOUS
 10
8.9
 20
-8.5515685998
 11
9.5074009793
 21
-8.5515685998
  0
LINE
  5
3D9
100
AcDbEntity
  8
0
100
AcDbLine
 62
253
  6
CONTINUOUS
 10
8.9
 20
-8.5515685998
 11
9.5074009793
 21
-8.5515685998
  0
LINE
  5
3DA
100
AcDbEntity
  8
ASSI
100
AcDbLine
 62
7
  6
CONTINUOUS
 10
-9.4342824707
 20
-9.2971708846
 11
-8.9
 21
-9.2978501349
  0
LINE
  5
3DB
100
AcDbEntity
  8
0
100
AcDbLine
 62
7
  6
CONTINUOUS
 10
-9.4342824707
 20
-9.2971708846
 11
-8.9
 21
-9.2978501349
  0
LINE
  5
3DC
100
AcDbEntity
  8
ASSI
100
AcDbLine
 62
7
  6
CONTINUOUS
 10
9.4338858163
 20
-8.5025647127
 11
8.9
 21
-8.5018802091
  0
LINE
  5
3DD
100
AcDbEntity
  8
0
100
AcDbLine
 62
7
  6
CONTINUOUS
 10
9.4338858163
 20
-8.5025647127
 11
8.9
 21
-8.5018802091
  0
LINE
  5
3DE
100
AcDbEntity
  8
ASSI
100
AcDbLine
 62
7
  6
CONTINUOUS
 10
9.65
 20
-9.8426444078
 11
9.4345684598
 21
-9.8302978876
  0
LINE
  5
3DF
100
AcDbEntity
  8
0
100
AcDbLine
 62
7
  6
CONTINUOUS
 10
9.65
 20
-9.8426444078
 11
9.4345684598
 21
-9.8302978876
  0
LINE
  5
3E0
100
AcDbEntity
  8
SMUSSO
100
AcDbLine
 62
7
  6
CONTINUOUS
 10
-11.0
 20
-2.951569844
 11
-9.5
 21
-4.1802979104
  0
LINE
  5
3E1
100
AcDbEntity
  8
ASSI
100
AcDbLine
 62
253
  6
CONTINUOUS
 10
10.3868630041
 20
-24.4868325431
 11
10.400030461
 21
-24.5
  0
LINE
  5
3E2
100
AcDbEntity
  8
ASSI
100
AcDbLine
 62
253
  6
CONTINUOUS
 10
10.5868325431
 20
-24.2868630041
 11
10.6
 21
-24.300030461
  0
LINE
  5
3E3
100
AcDbEntity
  8
ASSI
100
AcDbLine
 62
7
  6
CONTINUOUS
 10
9.3
 20
-22.4
 11
9.2868325431
 21
-22.3868325431
  0
LINE
  5
3E4
100
AcDbEntity
  8
ASSI
100
AcDbLine
 62
253
  6
CONTINUOUS
 10
10.5826210875
 20
-22.3825449351
 11
10.6000000646
 21
-22.3999999354
  0
LINE
  5
3E5
100
AcDbEntity
  8
ASSI
100
AcDbLine
 62
7
  6
CONTINUOUS
 10
-9.5
 20
16.7
 11
-9.639870208
 21
18.1129361064
  0
LINE
  5
3E6
100
AcDbEntity
  8
RACCORDO
100
AcDbLine
 62
7
  6
CONTINUOUS
 10
-9.5
 20
16.7
 11
-9.639870208
 21
18.1129361064
  0
LINE
  5
3E7
100
AcDbEntity
  8
ASSI
100
AcDbLine
 62
253
  6
CONTINUOUS
 10
-6.9655357267
 20
-18.7293067937
 11
-6.91317452
 21
-19.7872686779
  0
LINE
  5
3E8
100
AcDbEntity
  8
0
100
AcDbLine
 62
253
  6
CONTINUOUS
 10
-6.9655357267
 20
-18.7293067937
 11
-6.91317452
 21
-19.7872686779
  0
LINE
  5
3E9
100
AcDbEntity
  8
ASSI
100
AcDbLine
 62
7
  6
CONTINUOUS
 10
-8.5
 20
23.1226497308
 11
-8.5131674569
 21
23.5581814706
  0
LINE
  5
3EA
100
AcDbEntity
  8
ASSI
100
AcDbLine
 62
253
  6
CONTINUOUS
 10
-7.3982849591
 20
23.1226497308
 11
-7.4135581409
 21
23.6278312163
  0
LINE
  5
3EB
100
AcDbEntity
  8
ASSI
100
AcDbLine
 62
253
  6
CONTINUOUS
 10
-7.2135623006
 20
-24.2810074149
 11
-7.2136489605
 21
-24.2779804699
  0
LINE
  5
3EC
100
AcDbEntity
  8
ASSI
100
AcDbLine
 62
253
  6
CONTINUOUS
 10
-7.2
 20
23.3515746082
 11
-7.2136505197
 21
23.8032759805
  0
LINE
  5
3ED
100
AcDbEntity
  8
ASSI
100
AcDbLine
 62
253
  6
CONTINUOUS
 10
-7.2136489605
 20
-24.2779804699
 11
-7.2137300847
 21
-24.2743361488
  0
LINE
  5
3EE
100
AcDbEntity
  8
ASSI
100
AcDbLine
 62
253
  6
CONTINUOUS
 10
-7.2136505197
 20
23.8032759805
 11
-7.2137420411
 21
23.8074820549
  0
LINE
  5
3EF
100
AcDbEntity
  8
ASSI
100
AcDbLine
 62
253
  6
CONTINUOUS
 10
-7.2137420411
 20
23.8074820549
 11
-7.213828208
 21
23.8127103245
  0
LINE
  5
3F0
100
AcDbEntity
  8
ASSI
100
AcDbLine
 62
253
  6
CONTINUOUS
 10
-7.2137300847
 20
-24.2743361488
 11
-7.2138378339
 21
-24.2678057374
  0
LINE
  5
3F1
100
AcDbEntity
  8
ASSI
100
AcDbLine
 62
253
  6
CONTINUOUS
 10
-7.4132630744
 20
-24.4835719291
 11
-7.4133520058
 21
-24.4780193433
  0
LINE
  5
3F2
100
AcDbEntity
  8
ASSI
100
AcDbLine
 62
7
  6
CONTINUOUS
 10
-6.5
 20
-15.8915786577
 11
-6.5002362422
 21
-15.8722496659
  0
LINE
  5
3F3
100
AcDbEntity
  8
0
100
AcDbLine
 62
7
  6
CONTINUOUS
 10
-6.5
 20
-15.8915786577
 11
-6.5002362422
 21
-15.8722496659
  0
LINE
  5
3F4
100
AcDbEntity
  8
ASSI
100
AcDbLine
 62
7
  6
CONTINUOUS
 10
-6.3442735424
 20
-14.1622823604
 11
-6.3267937453
 21
-15.5924539101
  0
LINE
  5
3F5
100
AcDbEntity
  8
0
100
AcDbLine
 62
7
  6
CONTINUOUS
 10
-6.3442735424
 20
-14.1622823604
 11
-6.3267937453
 21
-15.5924539101
  0
LINE
  5
3F6
100
AcDbEntity
  8
ASSI
100
AcDbLine
 62
7
  6
CONTINUOUS
 10
-6.3091978363
 20
-14.9399894222
 11
-6.3225496058
 21
-13.8475670731
  0
LINE
  5
3F7
100
AcDbEntity
  8
0
100
AcDbLine
 62
7
  6
CONTINUOUS
 10
-6.3091978363
 20
-14.9399894222
 11
-6.3225496058
 21
-13.8475670731
  0
LINE
  5
3F8
100
AcDbEntity
  8
ASSI
100
AcDbLine
 62
253
  6
CONTINUOUS
 10
-7.2138378339
 20
-24.2678057374
 11
-7.2139239864
 21
-24.2602144454
  0
LINE
  5
3F9
100
AcDbEntity
  8
ASSI
100
AcDbLine
 62
253
  6
CONTINUOUS
 10
-7.213828208
 20
23.8127103245
 11
-7.2139256179
 21
23.8211681223
  0
LINE
  5
3FA
100
AcDbEntity
  8
ASSI
100
AcDbLine
 62
7
  6
CONTINUOUS
 10
-6.4293225083
 20
-19.1687755773
 11
-6.4438534812
 21
-17.5036910024
  0
LINE
  5
3FB
100
AcDbEntity
  8
0
100
AcDbLine
 62
7
  6
CONTINUOUS
 10
-6.4293225083
 20
-19.1687755773
 11
-6.4438534812
 21
-17.5036910024
  0
LINE
  5
3FC
100
AcDbEntity
  8
ASSI
100
AcDbLine
 62
253
  6
CONTINUOUS
 10
-7.4133520058
 20
-24.4780193433
 11
-7.4134873423
 21
-24.4638859608
  0
LINE
  5
3FD
100
AcDbEntity
  8
ASSI
100
AcDbLine
 62
253
  6
CONTINUOUS
 10
-7.2139239864
 20
-24.2602144454
 11
-7.2139993578
 21
-24.2488902721
  0
LINE
  5
3FE
100
AcDbEntity
  8
ASSI
100
AcDbLine
 62
253
  6
CONTINUOUS
 10
-7.2139256179
 20
23.8211681223
 11
-7.2140046354
 21
23.8336110348
  0
LINE
  5
3FF
100
AcDbEntity
  8
ASSI
100
AcDbLine
 62
253
  6
CONTINUOUS
 10
-7.4134873423
 20
-24.4638859608
 11
-7.4138073165
 21
-24.3915347321
  0
LINE
  5
400
100
AcDbEntity
  8
ASSI
100
AcDbLine
 62
7
  6
CONTINUOUS
 10
-8.0424439444
 20
-20.3575749601
 11
-8.0419265669
 21
-20.5057929751
  0
LINE
  5
401
100
AcDbEntity
  8
0
100
AcDbLine
 62
7
  6
CONTINUOUS
 10
-8.0424439444
 20
-20.3575749601
 11
-8.0419265669
 21
-20.5057929751
  0
LINE
  5
402
100
AcDbEntity
  8
ASSI
100
AcDbLine
 62
253
  6
CONTINUOUS
 10
-7.4135581409
 20
23.6278312163
 11
-7.4139332902
 21
23.7523750309
  0
LINE
  5
403
100
AcDbEntity
  8
ASSI
100
AcDbLine
 62
7
  6
CONTINUOUS
 10
-8.0424439444
 20
-20.3575749601
 11
-8.0438568666
 21
-18.4974554308
  0
LINE
  5
404
100
AcDbEntity
  8
0
100
AcDbLine
 62
7
  6
CONTINUOUS
 10
-8.0424439444
 20
-20.3575749601
 11
-8.0438568666
 21
-18.4974554308
  0
LINE
  5
405
100
AcDbEntity
  8
ASSI
100
AcDbLine
 62
7
  6
CONTINUOUS
 10
-8.0482618771
 20
-10.8007199541
 11
-8.0484064979
 21
-10.4521794534
  0
LINE
  5
406
100
AcDbEntity
  8
0
100
AcDbLine
 62
7
  6
CONTINUOUS
 10
-8.0482618771
 20
-10.8007199541
 11
-8.0484064979
 21
-10.4521794534
  0
LINE
  5
407
100
AcDbEntity
  8
ASSI
100
AcDbLine
 62
7
  6
CONTINUOUS
 10
-6.449051079
 20
19.334259922
 11
-6.4484269128
 21
17.2861273647
  0
LINE
  5
408
100
AcDbEntity
  8
RACCORDO
100
AcDbLine
 62
7
  6
CONTINUOUS
 10
-6.449051079
 20
19.334259922
 11
-6.4484269128
 21
17.2861273647
  0
LINE
  5
409
100
AcDbEntity
  8
ASSI
100
AcDbLine
 62
7
  6
CONTINUOUS
 10
-8.0501411208
 20
5.8951872317
 11
-8.0510052556
 21
8.8881807635
  0
LINE
  5
40A
100
AcDbEntity
  8
0
100
AcDbLine
 62
7
  6
CONTINUOUS
 10
-8.0501411208
 20
5.8951872317
 11
-8.0510052556
 21
8.8881807635
  0
LINE
  5
40B
100
AcDbEntity
  8
ASSI
100
AcDbLine
 62
7
  6
CONTINUOUS
 10
-8.0579942858
 20
-21.2252970227
 11
-8.0579942858
 21
-20.9872686779
  0
LINE
  5
40C
100
AcDbEntity
  8
ASSI
100
AcDbLine
 62
7
  6
CONTINUOUS
 10
-8.0579942858
 20
20.9872686779
 11
-8.0579942858
 21
21.2252970227
  0
LINE
  5
40D
100
AcDbEntity
  8
ASSI
100
AcDbLine
 62
7
  6
CONTINUOUS
 10
-7.9819252468
 20
-20.8607290949
 11
-7.9819252468
 21
-18.471802514
  0
LINE
  5
40E
100
AcDbEntity
  8
0
100
AcDbLine
 62
7
  6
CONTINUOUS
 10
-7.9819252468
 20
-20.8607290949
 11
-7.9819252468
 21
-18.471802514
  0
LINE
  5
40F
100
AcDbEntity
  8
ASSI
100
AcDbLine
 62
7
  6
CONTINUOUS
 10
-7.7903874625
 20
15.4941426185
 11
-7.7903874625
 21
14.6886542078
  0
LINE
  5
410
100
AcDbEntity
  8
DRAFT
100
AcDbLine
 62
7
  6
CONTINUOUS
 10
-7.7903874625
 20
15.4941426185
 11
-7.7903874625
 21
14.6886542078
  0
LINE
  5
411
100
AcDbEntity
  8
ASSI
100
AcDbLine
 62
253
  6
CONTINUOUS
 10
-7.4138073165
 20
-24.3915347321
 11
-7.4139945176
 21
-24.2368706193
  0
LINE
  5
412
100
AcDbEntity
  8
ASSI
100
AcDbLine
 62
7
  6
CONTINUOUS
 10
-7.3392709051
 20
-20.8607290949
 11
-7.3392709051
 21
-16.7700000029
  0
LINE
  5
413
100
AcDbEntity
  8
0
100
AcDbLine
 62
7
  6
CONTINUOUS
 10
-7.3392709051
 20
-20.8607290949
 11
-7.3392709051
 21
-16.7700000029
  0
LINE
  5
414
100
AcDbEntity
  8
ASSI
100
AcDbLine
 62
7
  6
CONTINUOUS
 10
-7.3261806034
 20
20.8738193966
 11
-7.3261806034
 21
19.7676913781
  0
LINE
  5
415
100
AcDbEntity
  8
RACCORDO
100
AcDbLine
 62
7
  6
CONTINUOUS
 10
-7.3261806034
 20
20.8738193966
 11
-7.3261806034
 21
19.7676913781
  0
LINE
  5
416
100
AcDbEntity
  8
ASSI
100
AcDbLine
 62
7
  6
CONTINUOUS
 10
-7.2650925288
 20
-19.0334731601
 11
-7.2650925288
 21
-16.9183680548
  0
LINE
  5
417
100
AcDbEntity
  8
0
100
AcDbLine
 62
7
  6
CONTINUOUS
 10
-7.2650925288
 20
-19.0334731601
 11
-7.2650925288
 21
-16.9183680548
  0
LINE
  5
418
100
AcDbEntity
  8
0
100
AcDbLine
 62
7
  6
CONTINUOUS
 10
-7.25
 20
-15.8722496659
 11
-7.25
 21
-10.193842946
  0
LINE
  5
419
100
AcDbEntity
  8
ASSI
100
AcDbLine
 62
7
  6
CONTINUOUS
 10
-7.2127313221
 20
-20.9872686779
 11
-7.2127313221
 21
-20.0914350444
  0
LINE
  5
41A
100
AcDbEntity
  8
RACCORDO
100
AcDbLine
 62
7
  6
CONTINUOUS
 10
-7.2127313221
 20
-20.9872686779
 11
-7.2127313221
 21
-20.0914350444
  0
LINE
  5
41B
100
AcDbEntity
  8
ASSI
100
AcDbLine
 62
7
  6
CONTINUOUS
 10
-7.2127313221
 20
20.0914350444
 11
-7.2127313221
 21
20.9872686779
  0
LINE
  5
41C
100
AcDbEntity
  8
RACCORDO
100
AcDbLine
 62
7
  6
CONTINUOUS
 10
-7.2127313221
 20
20.0914350444
 11
-7.2127313221
 21
20.9872686779
  0
LINE
  5
41D
100
AcDbEntity
  8
ASSI
100
AcDbLine
 62
7
  6
CONTINUOUS
 10
-7.2
 20
-22.4
 11
-7.2
 21
-24.300030461
  0
LINE
  5
41E
100
AcDbEntity
  8
ASSI
100
AcDbLine
 62
7
  6
CONTINUOUS
 10
-7.2
 20
22.4
 11
-7.2
 21
24.300030461
  0
LINE
  5
41F
100
AcDbEntity
  8
ASSI
100
AcDbLine
 62
7
  6
CONTINUOUS
 10
-6.5872686779
 20
-21.0745506493
 11
-6.5872686779
 21
-20.0914350444
  0
LINE
  5
420
100
AcDbEntity
  8
RACCORDO
100
AcDbLine
 62
7
  6
CONTINUOUS
 10
-6.5872686779
 20
-21.0745506493
 11
-6.5872686779
 21
-20.0914350444
  0
LINE
  5
421
100
AcDbEntity
  8
ASSI
100
AcDbLine
 62
7
  6
CONTINUOUS
 10
-6.5872686779
 20
20.0914350444
 11
-6.5872686779
 21
21.0745506493
  0
LINE
  5
422
100
AcDbEntity
  8
RACCORDO
100
AcDbLine
 62
7
  6
CONTINUOUS
 10
-6.5872686779
 20
20.0914350444
 11
-6.5872686779
 21
21.0745506493
  0
LINE
  5
423
100
AcDbEntity
  8
0
100
AcDbLine
 62
7
  6
CONTINUOUS
 10
-6.55
 20
3.4378161015
 11
-6.55
 21
4.6664591652
  0
LINE
  5
424
100
AcDbEntity
  8
ASSI
100
AcDbLine
 62
7
  6
CONTINUOUS
 10
-6.5349074712
 20
-19.0334731601
 11
-6.5349074712
 21
-17.3215691524
  0
LINE
  5
425
100
AcDbEntity
  8
0
100
AcDbLine
 62
7
  6
CONTINUOUS
 10
-6.5349074712
 20
-19.0334731601
 11
-6.5349074712
 21
-17.3215691524
  0
LINE
  5
426
100
AcDbEntity
  8
ASSI
100
AcDbLine
 62
7
  6
CONTINUOUS
 10
-6.5
 20
-15.8915786577
 11
-6.5
 21
-16.27
  0
LINE
  5
427
100
AcDbEntity
  8
0
100
AcDbLine
 62
7
  6
CONTINUOUS
 10
-6.5
 20
-15.8915786577
 11
-6.5
 21
-16.27
  0
LINE
  5
428
100
AcDbEntity
  8
ASSI
100
AcDbLine
 62
7
  6
CONTINUOUS
 10
-6.4738193966
 20
20.8476348052
 11
-6.4738193966
 21
19.7676913781
  0
LINE
  5
429
100
AcDbEntity
  8
RACCORDO
100
AcDbLine
 62
7
  6
CONTINUOUS
 10
-6.4738193966
 20
20.8476348052
 11
-6.4738193966
 21
19.7676913781
  0
LINE
  5
42A
100
AcDbEntity
  8
0
100
AcDbLine
 62
7
  6
CONTINUOUS
 10
-6.4
 20
-3.6636541043
 11
-6.4
 21
3.1328016531
  0
LINE
  5
42B
100
AcDbEntity
  8
ASSI
100
AcDbLine
 62
7
  6
CONTINUOUS
 10
-6.4
 20
3.1328016531
 11
-6.4
 21
9.6037627922
  0
LINE
  5
42C
100
AcDbEntity
  8
ASSI
100
AcDbLine
 62
7
  6
CONTINUOUS
 10
-6.3516319481
 20
-17.3215691524
 11
-6.3516319481
 21
-16.4183680519
  0
LINE
  5
42D
100
AcDbEntity
  8
0
100
AcDbLine
 62
7
  6
CONTINUOUS
 10
-6.3516319481
 20
-17.3215691524
 11
-6.3516319481
 21
-16.4183680519
  0
LINE
  5
42E
100
AcDbEntity
  8
ASSI
100
AcDbLine
 62
7
  6
CONTINUOUS
 10
-6.3258467315
 20
-15.764526841
 11
-6.3258467315
 21
-15.8009747569
  0
LINE
  5
42F
100
AcDbEntity
  8
0
100
AcDbLine
 62
7
  6
CONTINUOUS
 10
-6.3258467315
 20
-15.764526841
 11
-6.3258467315
 21
-15.8009747569
  0
LINE
  5
430
100
AcDbEntity
  8
ASSI
100
AcDbLine
 62
7
  6
CONTINUOUS
 10
-6.25
 20
-4.9742973752
 11
-6.25
 21
-13.8475670731
  0
LINE
  5
431
100
AcDbEntity
  8
ASSI
100
AcDbLine
 62
253
  6
CONTINUOUS
 10
-7.4139945176
 20
-24.2368706193
 11
-7.4139916129
 21
-23.8234155659
  0
LINE
  5
432
100
AcDbEntity
  8
ASSI
100
AcDbLine
 62
7
  6
CONTINUOUS
 10
-7.3515730872
 20
17.2861273647
 11
-7.350948921
 21
19.334259922
  0
LINE
  5
433
100
AcDbEntity
  8
RACCORDO
100
AcDbLine
 62
7
  6
CONTINUOUS
 10
-7.3515730872
 20
17.2861273647
 11
-7.350948921
 21
19.334259922
  0
LINE
  5
434
100
AcDbEntity
  8
ASSI
100
AcDbLine
 62
253
  6
CONTINUOUS
 10
-7.2140046354
 20
23.8336110348
 11
-7.2140243068
 21
24.2392293031
  0
LINE
  5
435
100
AcDbEntity
  8
ASSI
100
AcDbLine
 62
253
  6
CONTINUOUS
 10
-7.2139993578
 20
-24.2488902721
 11
-7.214024441
 21
-23.8422641062
  0
LINE
  5
436
100
AcDbEntity
  8
ASSI
100
AcDbLine
 62
7
  6
CONTINUOUS
 10
-8.051597145
 20
-10.4524775147
 11
-8.05149268
 21
-10.193842946
  0
LINE
  5
437
100
AcDbEntity
  8
0
100
AcDbLine
 62
7
  6
CONTINUOUS
 10
-8.051597145
 20
-10.4524775147
 11
-8.05149268
 21
-10.193842946
  0
LINE
  5
438
100
AcDbEntity
  8
0
100
AcDbLine
 62
7
  6
CONTINUOUS
 10
-6.4293225083
 20
-19.1687755773
 11
-6.4297751319
 21
-20.2918660329
  0
LINE
  5
439
100
AcDbEntity
  8
ASSI
100
AcDbLine
 62
253
  6
CONTINUOUS
 10
-7.4139332902
 20
23.7523750309
 11
-7.4139546392
 21
24.3115657978
  0
LINE
  5
43A
100
AcDbEntity
  8
ASSI
100
AcDbLine
 62
253
  6
CONTINUOUS
 10
-7.4139916129
 20
-23.8234155659
 11
-7.4136375234
 21
-23.6426155712
  0
LINE
  5
43B
100
AcDbEntity
  8
ASSI
100
AcDbLine
 62
7
  6
CONTINUOUS
 10
-6.4304137079
 20
-20.5291015205
 11
-6.4293225083
 21
-19.1687755773
  0
LINE
  5
43C
100
AcDbEntity
  8
RACCORDO
100
AcDbLine
 62
7
  6
CONTINUOUS
 10
-6.4304137079
 20
-20.5291015205
 11
-6.4297751319
 21
-20.2918660329
  0
LINE
  5
43D
100
AcDbEntity
  8
ASSI
100
AcDbLine
 62
253
  6
CONTINUOUS
 10
-7.2140243068
 20
24.2392293031
 11
-7.2139851106
 21
24.2518096753
  0
LINE
  5
43E
100
AcDbEntity
  8
ASSI
100
AcDbLine
 62
253
  6
CONTINUOUS
 10
-7.4139546392
 20
24.3115657978
 11
-7.4135881479
 21
24.4481951398
  0
LINE
  5
43F
100
AcDbEntity
  8
ASSI
100
AcDbLine
 62
253
  6
CONTINUOUS
 10
-7.214024441
 20
-23.8422641062
 11
-7.2139824207
 21
-23.8289259115
  0
LINE
  5
440
100
AcDbEntity
  8
ASSI
100
AcDbLine
 62
7
  6
CONTINUOUS
 10
-7.7560360581
 20
14.7295016421
 11
-7.7562925989
 21
14.6852790689
  0
LINE
  5
441
100
AcDbEntity
  8
DRAFT
100
AcDbLine
 62
7
  6
CONTINUOUS
 10
-7.7560360581
 20
14.7295016421
 11
-7.7562925989
 21
14.6852790689
  0
LINE
  5
442
100
AcDbEntity
  8
ASSI
100
AcDbLine
 62
253
  6
CONTINUOUS
 10
-7.4136375234
 20
-23.6426155712
 11
-7.4135581468
 21
-23.6278322393
  0
LINE
  5
443
100
AcDbEntity
  8
ASSI
100
AcDbLine
 62
7
  6
CONTINUOUS
 10
-7.3608076463
 20
15.7385854114
 11
-7.3516181903
 21
17.1381978935
  0
LINE
  5
444
100
AcDbEntity
  8
RACCORDO
100
AcDbLine
 62
7
  6
CONTINUOUS
 10
-7.3608076463
 20
15.7385854114
 11
-7.3516181903
 21
17.1381978935
  0
LINE
  5
445
100
AcDbEntity
  8
ASSI
100
AcDbLine
 62
7
  6
CONTINUOUS
 10
-6.4312567558
 20
-20.6439031152
 11
-6.4304137079
 21
-20.5291015205
  0
LINE
  5
446
100
AcDbEntity
  8
RACCORDO
100
AcDbLine
 62
7
  6
CONTINUOUS
 10
-6.4312567558
 20
-20.6439031152
 11
-6.4304137079
 21
-20.5291015205
  0
LINE
  5
447
100
AcDbEntity
  8
ASSI
100
AcDbLine
 62
7
  6
CONTINUOUS
 10
-7.6513850867
 20
15.5068795788
 11
-7.6505245697
 21
15.6
  0
LINE
  5
448
100
AcDbEntity
  8
DRAFT
100
AcDbLine
 62
7
  6
CONTINUOUS
 10
-7.6513850867
 20
15.5068795788
 11
-7.6505245697
 21
15.6
  0
LINE
  5
449
100
AcDbEntity
  8
ASSI
100
AcDbLine
 62
253
  6
CONTINUOUS
 10
-7.4135881479
 20
24.4481951398
 11
-7.4133973582
 21
24.4740954143
  0
LINE
  5
44A
100
AcDbEntity
  8
ASSI
100
AcDbLine
 62
253
  6
CONTINUOUS
 10
-7.2139851106
 20
24.2518096753
 11
-7.21390544
 21
24.2621185858
  0
LINE
  5
44B
100
AcDbEntity
  8
ASSI
100
AcDbLine
 62
253
  6
CONTINUOUS
 10
-7.2139824207
 20
-23.8289259115
 11
-7.2138891638
 21
-23.8175508107
  0
LINE
  5
44C
100
AcDbEntity
  8
ASSI
100
AcDbLine
 62
7
  6
CONTINUOUS
 10
-8.0484360699
 20
-10.193842946
 11
-8.051597145
 21
-10.4524775147
  0
LINE
  5
44D
100
AcDbEntity
  8
0
100
AcDbLine
 62
7
  6
CONTINUOUS
 10
-8.0484360699
 20
-10.193842946
 11
-8.051597145
 21
-10.4524775147
  0
LINE
  5
44E
100
AcDbEntity
  8
ASSI
100
AcDbLine
 62
253
  6
CONTINUOUS
 10
-7.21390544
 20
24.2621185858
 11
-7.2138161726
 21
24.2693173493
  0
LINE
  5
44F
100
AcDbEntity
  8
ASSI
100
AcDbLine
 62
253
  6
CONTINUOUS
 10
-7.2138891638
 20
-23.8175508107
 11
-7.2138062723
 21
-23.8112321817
  0
LWPOLYLINE
  5
450
100
AcDbEntity
  8
ASSI
100
AcDbPolyline
 62
253
  6
CONTINUOUS
 90
5
 70
0
 10
-7.4133973582
 20
24.4740954143
 10
-7.4132949106
 20
24.4819102988
 10
-7.4132429156
 20
24.4844655636
 10
-7.4131902774
 20
24.486108024
 10
-7.4131369959
 20
24.4868325431
  0
LINE
  5
451
100
AcDbEntity
  8
ASSI
100
AcDbLine
 62
253
  6
CONTINUOUS
 10
-7.2138161726
 20
24.2693173493
 11
-7.2137040813
 21
24.2756033194
  0
LINE
  5
452
100
AcDbEntity
  8
ASSI
100
AcDbLine
 62
253
  6
CONTINUOUS
 10
-7.2138062723
 20
-23.8112321817
 11
-7.2137050264
 21
-23.8056464138
  0
LINE
  5
453
100
AcDbEntity
  8
ASSI
100
AcDbLine
 62
253
  6
CONTINUOUS
 10
-7.2137050264
 20
-23.8056464138
 11
-7.2136290966
 21
-23.802464597
  0
LWPOLYLINE
  5
454
100
AcDbEntity
  8
ASSI
100
AcDbPolyline
 62
253
  6
CONTINUOUS
 90
11
 70
0
 10
-7.2137040813
 20
24.2756033194
 10
-7.2136185489
 20
24.2791347782
 10
-7.2135730984
 20
24.2806707049
 10
-7.2135258738
 20
24.2820551484
 10
-7.2134774198
 20
24.2832699455
 10
-7.2134277148
 20
24.284312628
 10
-7.2133767804
 20
24.2851856641
 10
-7.2133252264
 20
24.2858782955
 10
-7.2132732561
 20
24.2863869363
 10
-7.2132206663
 20
24.2867151725
 10
-7.2131674569
 20
24.286863004
  0
LWPOLYLINE
  5
455
100
AcDbEntity
  8
ASSI
100
AcDbPolyline
 62
7
  6
CONTINUOUS
 90
18
 70
0
 10
-7.8501781089
 20
-0.3712409045
 10
-7.8514589126
 20
-0.4163312047
 10
-7.8617053418
 20
-0.5053050188
 10
-7.882474902
 20
-0.5930394576
 10
-7.9134908914
 20
-0.6795671101
 10
-7.9539232053
 20
-0.7625721702
 10
-8.0040261287
 20
-0.8419595113
 10
-8.0635453765
 20
-0.91782426
 10
-8.1308879895
 20
-0.9881359897
 10
-8.2062652351
 20
-1.0527447429
 10
-8.2894658459
 20
-1.1118004771
 10
-8.3782630599
 20
-1.1637226383
 10
-8.4728080117
 20
-1.2083185866
 10
-8.5729495667
 20
-1.2457809619
 10
-8.6760075596
 20
-1.2751071299
 10
-8.7810886019
 20
-1.2959628791
 10
-8.889086082
 20
-1.3086824209
 10
-9.0
 20
-1.3132657554
  0
LINE
  5
456
100
AcDbEntity
  8
ASSI
100
AcDbLine
 62
7
  6
CONTINUOUS
 10
-8.5131674569
 20
-23.5581814706
 11
-8.5
 21
-23.1226497308
  0
LINE
  5
457
100
AcDbEntity
  8
ASSI
100
AcDbLine
 62
253
  6
CONTINUOUS
 10
-7.4135581719
 20
-23.6278322392
 11
-7.3982849591
 21
-23.1226497308
  0
LINE
  5
458
100
AcDbEntity
  8
ASSI
100
AcDbLine
 62
253
  6
CONTINUOUS
 10
-7.2136290966
 20
-23.802464597
 11
-7.2
 21
-23.3515746082
  0
LINE
  5
459
100
AcDbEntity
  8
ASSI
100
AcDbLine
 62
253
  6
CONTINUOUS
 10
-6.91317452
 20
19.7872686779
 11
-7.0521095537
 21
16.980076498
  0
LINE
  5
45A
100
AcDbEntity
  8
RACCORDO
100
AcDbLine
 62
253
  6
CONTINUOUS
 10
-6.91317452
 20
19.7872686779
 11
-7.0521095537
 21
16.980076498
  0
LWPOLYLINE
  5
45B
100
AcDbEntity
  8
ASSI
100
AcDbPolyline
 62
7
  6
CONTINUOUS
 90
40
 70
0
 10
-5.9
 20
7.310987095
 10
-5.8906051021
 20
7.4941678466
 10
-5.8639684348
 20
7.673867436
 10
-5.8200899979
 20
7.850085863
 10
-5.758463779
 20
8.0239160776
 10
-5.6795957907
 20
8.1942651299
 10
-5.5850040705
 20
8.3578541701
 10
-5.4743840166
 20
8.5145522424
 10
-5.348040231
 20
8.6644903025
 10
-5.2084045575
 20
8.804782368
 10
-5.055219504
 20
8.9352415756
 10
-4.8887425627
 20
9.0560547885
 10
-4.7121780535
 20
9.1648966144
 10
-4.525330559
 20
9.2615351423
 10
-4.3283954966
 20
9.3462022832
 10
-4.1251634394
 20
9.4172683782
 10
-3.915512401
 20
9.4744699464
 10
-3.6995643677
 20
9.5180704688
 10
-3.4814758707
 20
9.5472307299
 10
-3.2612054448
 20
9.5616709912
 10
-3.0387945552
 20
9.5616709912
 10
-2.8185241293
 20
9.5472307299
 10
-2.6004356323
 20
9.5180704688
 10
-2.384487599
 20
9.4744699464
 10
-2.1748365606
 20
9.4172683782
 10
-1.9716045034
 20
9.3462022832
 10
-1.774669441
 20
9.2615351423
 10
-1.5878219465
 20
9.1648966144
 10
-1.4112574373
 20
9.0560547885
 10
-1.244780496
 20
8.9352415756
 10
-1.0915954425
 20
8.804782368
 10
-0.951959769
 20
8.6644903025
 10
-0.8256159834
 20
8.5145522424
 10
-0.7149959295
 20
8.3578541701
 10
-0.6204042093
 20
8.1942651299
 10
-0.541536221
 20
8.0239160776
 10
-0.4799100021
 20
7.850085863
 10
-0.4360315652
 20
7.673867436
 10
-0.4093948979
 20
7.4941678466
 10
-0.4
 20
7.310987095
  0
LINE
  5
45C
100
AcDbEntity
  8
ASSI
100
AcDbLine
 62
253
  6
CONTINUOUS
 10
11.1
 20
21.9000761524
 11
11.0825449351
 21
21.8826210875
  0
LINE
  5
45D
100
AcDbEntity
  8
ASSI
100
AcDbLine
 62
7
  6
CONTINUOUS
 10
-6.25
 20
-7.7184567236
 11
6.25
 21
-7.7184567236
  0
LINE
  5
45E
100
AcDbEntity
  8
SMUSSO
100
AcDbLine
 62
7
  6
CONTINUOUS
 10
9.5
 20
-6.3025307249
 11
8.9
 21
-6.3025307249
  0
LINE
  5
45F
100
AcDbEntity
  8
SMUSSO
100
AcDbLine
 62
7
  6
CONTINUOUS
 10
-8.9
 20
-6.3025307249
 11
-9.5
 21
-6.3025307249
  0
LINE
  5
460
100
AcDbEntity
  8
ASSI
100
AcDbLine
 62
7
  6
CONTINUOUS
 10
6.3301884151
 20
-17.3001256195
 11
6.3516319481
 21
-17.3215691524
  0
LINE
  5
461
100
AcDbEntity
  8
0
100
AcDbLine
 62
7
  6
CONTINUOUS
 10
6.3301884151
 20
-17.3001256195
 11
6.3516319481
 21
-17.3215691524
  0
LINE
  5
462
100
AcDbEntity
  8
ASSI
100
AcDbLine
 62
253
  6
CONTINUOUS
 10
11.0825449351
 20
-21.8826210875
 11
11.1
 21
-21.9000761524
  0
LINE
  5
463
100
AcDbEntity
  8
ASSI
100
AcDbLine
 62
7
  6
CONTINUOUS
 10
6.3309918611
 20
-16.1009290654
 11
6.5
 21
-16.27
  0
LINE
  5
464
100
AcDbEntity
  8
0
100
AcDbLine
 62
7
  6
CONTINUOUS
 10
6.3309918611
 20
-16.1009290654
 11
6.5
 21
-16.27
  0
LWPOLYLINE
  5
465
100
AcDbEntity
  8
ASSI
100
AcDbPolyline
 62
253
  6
CONTINUOUS
 90
6
 70
0
 10
-3.1286750776
 20
-21.975182794
 10
-3.1291601022
 20
-21.9721266543
 10
-3.1296374951
 20
-21.9650871366
 10
-3.1301072563
 20
-21.9540642408
 10
-3.1305721233
 20
-21.9389548805
 10
-3.1310293586
 20
-21.9198621423
  0
LINE
  5
466
100
AcDbEntity
  8
ASSI
100
AcDbLine
 62
7
  6
CONTINUOUS
 10
-9.4951140381
 20
17.1381978935
 11
-9.639870208
 21
18.1129361064
  0
LINE
  5
467
100
AcDbEntity
  8
DRAFT
100
AcDbLine
 62
7
  6
CONTINUOUS
 10
-9.4951140381
 20
17.1381978935
 11
-9.639870208
 21
18.1129361064
  0
LWPOLYLINE
  5
468
100
AcDbEntity
  8
ASSI
100
AcDbPolyline
 62
7
  6
CONTINUOUS
 90
13
 70
0
 10
-7.2
 20
24.300030461
 10
-7.2017102642
 20
24.3261325878
 10
-7.2068124405
 20
24.3517877661
 10
-7.2152194218
 20
24.3765572875
 10
-7.2267876629
 20
24.4000177444
 10
-7.24131945
 20
24.4217675502
 10
-7.2585660278
 20
24.4414339722
 10
-7.2782324498
 20
24.45868055
 10
-7.2999822556
 20
24.4732123371
 10
-7.3234427125
 20
24.4847805782
 10
-7.3482122339
 20
24.4931875594
 10
-7.3738674122
 20
24.4982897358
 10
-7.399969539
 20
24.5
  0
LWPOLYLINE
  5
469
100
AcDbEntity
  8
ASSI
100
AcDbPolyline
 62
7
  6
CONTINUOUS
 90
16
 70
0
 10
-4.45
 20
-23.7500380762
 10
-4.4486505878
 20
-23.7759809831
 10
-4.4445943169
 20
-23.8017480173
 10
-4.4378423144
 20
-23.8270535846
 10
-4.4283964102
 20
-23.8517009881
 10
-4.4163505324
 20
-23.8753074461
 10
-4.4019831437
 20
-23.897354591
 10
-4.385651735
 20
-23.9174650114
 10
-4.3674650114
 20
-23.935651735
 10
-4.347354591
 20
-23.9519831437
 10
-4.3253074461
 20
-23.9663505324
 10
-4.3017009881
 20
-23.9783964102
 10
-4.2770535846
 20
-23.9878423144
 10
-4.2517480173
 20
-23.9945943169
 10
-4.2259809831
 20
-23.9986505878
 10
-4.2000380762
 20
-24.0
  0
LINE
  5
46A
100
AcDbEntity
  8
ASSI
100
AcDbLine
 62
253
  6
CONTINUOUS
 10
-6.88682548
 20
19.7872686779
 11
-6.7478904463
 21
16.980076498
  0
LINE
  5
46B
100
AcDbEntity
  8
RACCORDO
100
AcDbLine
 62
253
  6
CONTINUOUS
 10
-6.88682548
 20
19.7872686779
 11
-6.7478904463
 21
16.980076498
  0
LINE
  5
46C
100
AcDbEntity
  8
ASSI
100
AcDbLine
 62
253
  6
CONTINUOUS
 10
-6.5872686779
 20
20.0914350444
 11
-6.4484269128
 21
17.2861273647
  0
LINE
  5
46D
100
AcDbEntity
  8
RACCORDO
100
AcDbLine
 62
253
  6
CONTINUOUS
 10
-6.5872686779
 20
20.0914350444
 11
-6.4484269128
 21
17.2861273647
  0
LWPOLYLINE
  5
46E
100
AcDbEntity
  8
ASSI
100
AcDbPolyline
 62
7
  6
CONTINUOUS
 90
7
 70
0
 10
-5.4374884329
 20
-20.6744480639
 10
-5.4367477466
 20
-20.7014451946
 10
-5.4359540049
 20
-20.72444339
 10
-5.4351364095
 20
-20.7426229664
 10
-5.4343046943
 20
-20.7557106957
 10
-5.4334491255
 20
-20.7639798059
 10
-5.432569703
 20
-20.767430297
  0
LWPOLYLINE
  5
46F
100
AcDbEntity
  8
RACCORDO
100
AcDbPolyline
 62
7
  6
CONTINUOUS
 90
7
 70
0
 10
-5.4374884329
 20
-20.6744480639
 10
-5.4367477466
 20
-20.7014451946
 10
-5.4359540049
 20
-20.72444339
 10
-5.4351364095
 20
-20.7426229664
 10
-5.4343046943
 20
-20.7557106957
 10
-5.4334491255
 20
-20.7639798059
 10
-5.432569703
 20
-20.767430297
  0
LINE
  5
470
100
AcDbEntity
  8
ASSI
100
AcDbLine
 62
7
  6
CONTINUOUS
 10
-5.4388013741
 20
-20.6084223907
 11
-5.4374884329
 21
-20.6744480639
  0
LINE
  5
471
100
AcDbEntity
  8
RACCORDO
100
AcDbLine
 62
7
  6
CONTINUOUS
 10
-5.4388013741
 20
-20.6084223907
 11
-5.4374884329
 21
-20.6744480639
  0
LINE
  5
472
100
AcDbEntity
  8
ASSI
100
AcDbLine
 62
7
  6
CONTINUOUS
 10
-5.439855944
 20
-20.5287810646
 11
-5.4388013741
 21
-20.6084223907
  0
LINE
  5
473
100
AcDbEntity
  8
RACCORDO
100
AcDbLine
 62
7
  6
CONTINUOUS
 10
-5.439855944
 20
-20.5287810646
 11
-5.4388013741
 21
-20.6084223907
  0
LINE
  5
474
100
AcDbEntity
  8
ASSI
100
AcDbLine
 62
7
  6
CONTINUOUS
 10
-5.4408760971
 20
-20.3907641744
 11
-5.439855944
 21
-20.5287810646
  0
LINE
  5
475
100
AcDbEntity
  8
RACCORDO
100
AcDbLine
 62
7
  6
CONTINUOUS
 10
-5.4408760971
 20
-20.3907641744
 11
-5.439855944
 21
-20.5287810646
  0
LINE
  5
476
100
AcDbEntity
  8
ASSI
100
AcDbLine
 62
7
  6
CONTINUOUS
 10
-5.4414386569
 20
-19.9292860574
 11
-5.4408760971
 21
-20.3907641744
  0
LINE
  5
477
100
AcDbEntity
  8
RACCORDO
100
AcDbLine
 62
7
  6
CONTINUOUS
 10
-5.4414386569
 20
-19.9292860574
 11
-5.4408760971
 21
-20.3907641744
  0
LINE
  5
478
100
AcDbEntity
  8
0
100
AcDbLine
 62
7
  6
CONTINUOUS
 10
-5.9
 20
-0.165262856
 11
-5.9
 21
-2.0499925792
  0
LINE
  5
479
100
AcDbEntity
  8
SMUSSO
100
AcDbLine
 62
7
  6
CONTINUOUS
 10
-5.9
 20
6.6226953714
 11
-5.9
 21
7.310987095
  0
LINE
  5
47A
100
AcDbEntity
  8
0
100
AcDbLine
 62
7
  6
CONTINUOUS
 10
-5.65
 20
3.7881232885
 11
-5.65
 21
4.4434449239
  0
LINE
  5
47B
100
AcDbEntity
  8
ASSI
100
AcDbLine
 62
7
  6
CONTINUOUS
 10
-5.65
 20
8.2934595321
 11
-5.65
 21
8.3459582988
  0
LINE
  5
47C
100
AcDbEntity
  8
ASSI
100
AcDbLine
 62
7
  6
CONTINUOUS
 10
-5.3523651948
 20
20.8476348052
 11
-5.3523651948
 21
19.9738193966
  0
LINE
  5
47D
100
AcDbEntity
  8
0
100
AcDbLine
 62
7
  6
CONTINUOUS
 10
-5.3523651948
 20
20.8476348052
 11
-5.3523651948
 21
19.9738193966
  0
LINE
  5
47E
100
AcDbEntity
  8
0
100
AcDbLine
 62
7
  6
CONTINUOUS
 10
-5.15
 20
4.4434449239
 11
-5.15
 21
3.7881232885
  0
LINE
  5
47F
100
AcDbEntity
  8
ASSI
100
AcDbLine
 62
7
  6
CONTINUOUS
 10
-5.15
 20
4.4434449239
 11
-5.15
 21
5.0774769981
  0
LINE
  5
480
100
AcDbEntity
  8
ASSI
100
AcDbLine
 62
7
  6
CONTINUOUS
 10
-5.1254493507
 20
21.0745506493
 11
-5.1254493507
 21
20.0872686779
  0
LINE
  5
481
100
AcDbEntity
  8
ASSI
100
AcDbLine
 62
7
  6
CONTINUOUS
 10
-5.1254493507
 20
-20.0872686779
 11
-5.1254493507
 21
-21.0745506493
  0
LINE
  5
482
100
AcDbEntity
  8
SMUSSO
100
AcDbLine
 62
7
  6
CONTINUOUS
 10
-5.1
 20
5.0365163318
 11
-5.1
 21
3.7881232885
  0
LINE
  5
483
100
AcDbEntity
  8
ASSI
100
AcDbLine
 62
7
  6
CONTINUOUS
 10
-4.45
 20
23.7500380762
 11
-4.45
 21
23.4179449472
  0
LINE
  5
484
100
AcDbEntity
  8
ASSI
100
AcDbLine
 62
7
  6
CONTINUOUS
 10
-4.45
 20
22.9820550528
 11
-4.45
 21
22.4
  0
LINE
  5
485
100
AcDbEntity
  8
ASSI
100
AcDbLine
 62
7
  6
CONTINUOUS
 10
-4.45
 20
-22.4
 11
-4.45
 21
-22.9820550528
  0
LINE
  5
486
100
AcDbEntity
  8
ASSI
100
AcDbLine
 62
7
  6
CONTINUOUS
 10
-4.45
 20
-23.4179449472
 11
-4.45
 21
-23.7500380762
  0
LINE
  5
487
100
AcDbEntity
  8
ASSI
100
AcDbLine
 62
7
  6
CONTINUOUS
 10
-4.4057426494
 20
19.7676913781
 11
-4.4057426494
 21
19.9738193966
  0
LINE
  5
488
100
AcDbEntity
  8
RACCORDO
100
AcDbLine
 62
7
  6
CONTINUOUS
 10
-4.4057426494
 20
19.7676913781
 11
-4.4057426494
 21
19.9738193966
  0
LINE
  5
489
100
AcDbEntity
  8
ASSI
100
AcDbLine
 62
7
  6
CONTINUOUS
 10
-4.3539971429
 20
-23.5393800954
 11
-4.3539971429
 21
-22.8606199046
  0
LINE
  5
48A
100
AcDbEntity
  8
ASSI
100
AcDbLine
 62
7
  6
CONTINUOUS
 10
-4.3539971429
 20
22.8606199046
 11
-4.3539971429
 21
23.5393800954
  0
LINE
  5
48B
100
AcDbEntity
  8
ASSI
100
AcDbLine
 62
253
  6
CONTINUOUS
 10
-4.3518822356
 20
23.6519203118
 11
-4.3518840226
 21
22.3018840226
  0
LINE
  5
48C
100
AcDbEntity
  8
ASSI
100
AcDbLine
 62
253
  6
CONTINUOUS
 10
-4.3518840226
 20
-22.3018840226
 11
-4.3518822356
 21
-23.6519203118
  0
LINE
  5
48D
100
AcDbEntity
  8
ASSI
100
AcDbLine
 62
253
  6
CONTINUOUS
 10
-4.3444976057
 20
20.0044395863
 11
-4.3444976057
 21
17.9554262419
  0
LINE
  5
48E
100
AcDbEntity
  8
RACCORDO
100
AcDbLine
 62
253
  6
CONTINUOUS
 10
-4.3444976057
 20
20.0044395863
 11
-4.3444976057
 21
17.9554262419
  0
LINE
  5
48F
100
AcDbEntity
  8
ASSI
100
AcDbLine
 62
7
  6
CONTINUOUS
 10
-4.4561916001
 20
17.8437322475
 11
-4.4552830575
 21
19.334259922
  0
LINE
  5
490
100
AcDbEntity
  8
RACCORDO
100
AcDbLine
 62
7
  6
CONTINUOUS
 10
-4.4561916001
 20
17.8437322475
 11
-4.4552830575
 21
19.334259922
  0
LINE
  5
491
100
AcDbEntity
  8
ASSI
100
AcDbLine
 62
253
  6
CONTINUOUS
 10
-6.88682548
 20
-19.7872686779
 11
-6.8344642733
 21
-18.7293067937
  0
LINE
  5
492
100
AcDbEntity
  8
0
100
AcDbLine
 62
253
  6
CONTINUOUS
 10
-6.88682548
 20
-19.7872686779
 11
-6.8344642733
 21
-18.7293067937
  0
LINE
  5
493
100
AcDbEntity
  8
ASSI
100
AcDbLine
 62
253
  6
CONTINUOUS
 10
-6.5872686779
 20
-20.0914350444
 11
-6.5349074712
 21
-19.0334731601
  0
LINE
  5
494
100
AcDbEntity
  8
0
100
AcDbLine
 62
253
  6
CONTINUOUS
 10
-6.5872686779
 20
-20.0914350444
 11
-6.5349074712
 21
-19.0334731601
  0
LWPOLYLINE
  5
495
100
AcDbEntity
  8
ASSI
100
AcDbPolyline
 62
7
  6
CONTINUOUS
 90
16
 70
0
 10
-4.45
 20
23.7500380762
 10
-4.4486505878
 20
23.7759809831
 10
-4.4445943169
 20
23.8017480173
 10
-4.4378423144
 20
23.8270535846
 10
-4.4283964102
 20
23.8517009881
 10
-4.4163505324
 20
23.8753074461
 10
-4.4019831437
 20
23.897354591
 10
-4.385651735
 20
23.9174650114
 10
-4.3674650114
 20
23.935651735
 10
-4.347354591
 20
23.9519831437
 10
-4.3253074461
 20
23.9663505324
 10
-4.3017009881
 20
23.9783964102
 10
-4.2770535846
 20
23.9878423144
 10
-4.2517480173
 20
23.9945943169
 10
-4.2259809831
 20
23.9986505878
 10
-4.2000380762
 20
24.0
  0
LWPOLYLINE
  5
496
100
AcDbEntity
  8
0
100
AcDbPolyline
 62
7
  6
CONTINUOUS
 90
37
 70
0
 10
-4.4
 20
7.310987095
 10
-4.3949449622
 20
7.401332196
 10
-4.3807473898
 20
7.4896705918
 10
-4.3574072829
 20
7.5760022824
 10
-4.3246094539
 20
7.6609505849
 10
-4.2826690904
 20
7.7438921822
 10
-4.2325317547
 20
7.8229571227
 10
-4.1740112434
 20
7.8980573437
 10
-4.1072937598
 20
7.969280908
 10
-4.0338834765
 20
8.0350220517
 10
-3.9536283589
 20
8.0951562353
 10
-3.8666804415
 20
8.1498079984
 10
-3.775
 20
8.1977451949
 10
-3.6784795298
 20
8.2388152959
 10
-3.5772265355
 20
8.2731708304
 10
-3.4735238064
 20
8.300037239
 10
-3.3673156941
 20
8.3192443979
 10
-3.258657847
 20
8.3309624309
 10
-3.15
 20
8.3349271503
 10
-3.041342153
 20
8.3309624309
 10
-2.9326843059
 20
8.3192443979
 10
-2.8264761936
 20
8.300037239
 10
-2.7227734645
 20
8.2731708304
 10
-2.6215204702
 20
8.2388152959
 10
-2.525
 20
8.1977451949
 10
-2.4333195585
 20
8.1498079984
 10
-2.3463716411
 20
8.0951562353
 10
-2.2661165235
 20
8.0350220517
 10
-2.1927062402
 20
7.969280908
 10
-2.1259887566
 20
7.8980573437
 10
-2.0674682453
 20
7.8229571227
 10
-2.0173309096
 20
7.7438921822
 10
-1.9753905461
 20
7.6609505849
 10
-1.9425927171
 20
7.5760022824
 10
-1.9192526102
 20
7.4896705918
 10
-1.9050550378
 20
7.401332196
 10
-1.9
 20
7.310987095
  0
LWPOLYLINE
  5
497
100
AcDbEntity
  8
ASSI
100
AcDbPolyline
 62
7
  6
CONTINUOUS
 90
13
 70
0
 10
-7.2
 20
-24.300030461
 10
-7.2017102642
 20
-24.3261325878
 10
-7.2068124405
 20
-24.3517877661
 10
-7.2152194218
 20
-24.3765572875
 10
-7.2267876629
 20
-24.4000177444
 10
-7.24131945
 20
-24.4217675502
 10
-7.2585660278
 20
-24.4414339722
 10
-7.2782324498
 20
-24.45868055
 10
-7.2999822556
 20
-24.4732123371
 10
-7.3234427125
 20
-24.4847805782
 10
-7.3482122339
 20
-24.4931875595
 10
-7.3738674122
 20
-24.4982897358
 10
-7.399969539
 20
-24.5
  0
LINE
  5
498
100
AcDbEntity
  8
ASSI
100
AcDbLine
 62
7
  6
CONTINUOUS
 10
-11.1261859216
 20
-5.0
 11
-11.0
 21
-5.0
  0
LINE
  5
499
100
AcDbEntity
  8
ASSI
100
AcDbLine
 62
7
  6
CONTINUOUS
 10
11.1261859216
 20
-5.0
 11
11.0
 21
-5.0
  0
LINE
  5
49A
100
AcDbEntity
  8
0
100
AcDbLine
 62
7
  6
CONTINUOUS
 10
11.1261859216
 20
-5.0
 11
11.0
 21
-5.0
  0
LINE
  5
49B
100
AcDbEntity
  8
0
100
AcDbLine
 62
7
  6
CONTINUOUS
 10
-11.1261859216
 20
-5.0
 11
-11.0
 21
-5.0
  0
LINE
  5
49C
100
AcDbEntity
  8
ASSI
100
AcDbLine
 62
7
  6
CONTINUOUS
 10
-8.9
 20
-4.9742973752
 11
-6.25
 21
-4.9742973752
  0
LINE
  5
49D
100
AcDbEntity
  8
ASSI
100
AcDbLine
 62
7
  6
CONTINUOUS
 10
6.25
 20
-4.9742973752
 11
8.9
 21
-4.9742973752
  0
LINE
  5
49E
100
AcDbEntity
  8
ASSI
100
AcDbLine
 62
7
  6
CONTINUOUS
 10
-11.0738140784
 20
-4.9650898701
 11
-11.0
 21
-4.9650898701
  0
LINE
  5
49F
100
AcDbEntity
  8
0
100
AcDbLine
 62
7
  6
CONTINUOUS
 10
-11.0738140784
 20
-4.9650898701
 11
-11.0
 21
-4.9650898701
  0
LINE
  5
4A0
100
AcDbEntity
  8
ASSI
100
AcDbLine
 62
7
  6
CONTINUOUS
 10
11.0
 20
-4.9650898701
 11
11.0738140784
 21
-4.9650898701
  0
LINE
  5
4A1
100
AcDbEntity
  8
0
100
AcDbLine
 62
7
  6
CONTINUOUS
 10
11.0
 20
-4.9650898701
 11
11.0738140784
 21
-4.9650898701
  0
LINE
  5
4A2
100
AcDbEntity
  8
SMUSSO
100
AcDbLine
 62
7
  6
CONTINUOUS
 10
-9.5
 20
-4.1802979104
 11
-8.9
 21
-4.1802979104
  0
LINE
  5
4A3
100
AcDbEntity
  8
SMUSSO
100
AcDbLine
 62
7
  6
CONTINUOUS
 10
8.9
 20
-4.1802979104
 11
9.5
 21
-4.1802979104
  0
LWPOLYLINE
  5
4A4
100
AcDbEntity
  8
ASSI
100
AcDbPolyline
 62
253
  6
CONTINUOUS
 90
5
 70
0
 10
-3.3786655583
 20
-22.2251447178
 10
-3.3791531838
 20
-22.2211208594
 10
-3.379632348
 20
-22.2116508462
 10
-3.380103051
 20
-22.1967864891
 10
-3.3805677578
 20
-22.1766091187
  0
LWPOLYLINE
  5
4A5
100
AcDbEntity
  8
ASSI
100
AcDbPolyline
 62
253
  6
CONTINUOUS
 90
19
 70
0
 10
-4.3444976057
 20
17.9554262419
 10
-4.3425827131
 20
17.9118634329
 10
-4.3368791404
 20
17.8686320347
 10
-4.3274302785
 20
17.8260609368
 10
-4.314308011
 20
17.7844740055
 10
-4.2976121676
 20
17.7441876197
 10
-4.2774697645
 20
17.7055082644
 10
-4.2540340382
 20
17.6687301987
 10
-4.2274832795
 20
17.6341332174
 10
-4.1980194775
 20
17.6019805225
 10
-4.1658667826
 20
17.5725167205
 10
-4.1312698013
 20
17.5459659618
 10
-4.0944917356
 20
17.5225302355
 10
-4.0558123803
 20
17.5023878324
 10
-4.0155259945
 20
17.485691989
 10
-3.9739390632
 20
17.4725697215
 10
-3.9313679653
 20
17.4631208596
 10
-3.8881365671
 20
17.4574172869
 10
-3.8445737581
 20
17.4555023943
  0
LWPOLYLINE
  5
4A6
100
AcDbEntity
  8
RACCORDO
100
AcDbPolyline
 62
253
  6
CONTINUOUS
 90
19
 70
0
 10
-4.3444976057
 20
17.9554262419
 10
-4.3425827131
 20
17.9118634329
 10
-4.3368791404
 20
17.8686320347
 10
-4.3274302785
 20
17.8260609368
 10
-4.314308011
 20
17.7844740055
 10
-4.2976121676
 20
17.7441876197
 10
-4.2774697645
 20
17.7055082644
 10
-4.2540340382
 20
17.6687301987
 10
-4.2274832795
 20
17.6341332174
 10
-4.1980194775
 20
17.6019805225
 10
-4.1658667826
 20
17.5725167205
 10
-4.1312698013
 20
17.5459659618
 10
-4.0944917356
 20
17.5225302355
 10
-4.0558123803
 20
17.5023878324
 10
-4.0155259945
 20
17.485691989
 10
-3.9739390632
 20
17.4725697215
 10
-3.9313679653
 20
17.4631208596
 10
-3.8881365671
 20
17.4574172869
 10
-3.8445737581
 20
17.4555023943
  0
LINE
  5
4A7
100
AcDbEntity
  8
ASSI
100
AcDbLine
 62
7
  6
CONTINUOUS
 10
-3.1270760019
 20
-21.2251044884
 11
-3.1173032135
 21
-21.6326967865
  0
LINE
  5
4A8
100
AcDbEntity
  8
ASSI
100
AcDbLine
 62
253
  6
CONTINUOUS
 10
-3.1310293586
 20
-21.9198621423
 11
-3.1318957974
 21
-21.8705942406
  0
LINE
  5
4A9
100
AcDbEntity
  8
ASSI
100
AcDbLine
 62
253
  6
CONTINUOUS
 10
-3.3805677578
 20
-22.1766091187
 11
-3.3814643926
 21
-22.1207851486
  0
LINE
  5
4AA
100
AcDbEntity
  8
ASSI
100
AcDbLine
 62
253
  6
CONTINUOUS
 10
-3.1318957974
 20
-21.8705942406
 11
-3.133055364
 21
-21.7704586098
  0
LINE
  5
4AB
100
AcDbEntity
  8
ASSI
100
AcDbLine
 62
7
  6
CONTINUOUS
 10
-3.7536149133
 20
15.5068795788
 11
-3.7544754303
 21
15.6
  0
LINE
  5
4AC
100
AcDbEntity
  8
DRAFT
100
AcDbLine
 62
7
  6
CONTINUOUS
 10
-3.7536149133
 20
15.5068795788
 11
-3.7544754303
 21
15.6
  0
LINE
  5
4AD
100
AcDbEntity
  8
ASSI
100
AcDbLine
 62
253
  6
CONTINUOUS
 10
-3.3814643926
 20
-22.1207851486
 11
-3.3826830282
 21
-22.0008673253
  0
LINE
  5
4AE
100
AcDbEntity
  8
ASSI
100
AcDbLine
 62
7
  6
CONTINUOUS
 10
-3.618225368
 20
14.7234140051
 11
-3.6137037861
 21
14.0
  0
LINE
  5
4AF
100
AcDbEntity
  8
DRAFT
100
AcDbLine
 62
7
  6
CONTINUOUS
 10
-3.618225368
 20
14.7234140051
 11
-3.6137037861
 21
14.0
  0
LINE
  5
4B0
100
AcDbEntity
  8
ASSI
100
AcDbLine
 62
7
  6
CONTINUOUS
 10
-4.0441923537
 20
15.7385854114
 11
-4.0511995689
 21
16.8765870314
  0
LINE
  5
4B1
100
AcDbEntity
  8
RACCORDO
100
AcDbLine
 62
7
  6
CONTINUOUS
 10
-4.0441923537
 20
15.7385854114
 11
-4.0511995689
 21
16.8765870314
  0
LINE
  5
4B2
100
AcDbEntity
  8
ASSI
100
AcDbLine
 62
253
  6
CONTINUOUS
 10
-3.133055364
 20
-21.7704586098
 11
-3.1344735913
 21
-21.5469239675
  0
LINE
  5
4B3
100
AcDbEntity
  8
ASSI
100
AcDbLine
 62
253
  6
CONTINUOUS
 10
-3.3826830282
 20
-22.0008673253
 11
-3.3844624036
 21
-21.6546773209
  0
LINE
  5
4B4
100
AcDbEntity
  8
ASSI
100
AcDbLine
 62
253
  6
CONTINUOUS
 10
-3.1344735913
 20
-21.5469239675
 11
-3.1351059998
 21
-21.2252970227
  0
LINE
  5
4B5
100
AcDbEntity
  8
ASSI
100
AcDbLine
 62
253
  6
CONTINUOUS
 10
-3.8445737581
 20
17.4555023943
 11
-3.8445737581
 21
20.0087268678
  0
LINE
  5
4B6
100
AcDbEntity
  8
RACCORDO
100
AcDbLine
 62
253
  6
CONTINUOUS
 10
-3.8445737581
 20
17.4555023943
 11
-3.8445737581
 21
20.0087268678
  0
LINE
  5
4B7
100
AcDbEntity
  8
ASSI
100
AcDbLine
 62
253
  6
CONTINUOUS
 10
-3.5806609125
 20
23.6519220988
 11
-3.5806609125
 21
22.3018840226
  0
LINE
  5
4B8
100
AcDbEntity
  8
ASSI
100
AcDbLine
 62
253
  6
CONTINUOUS
 10
-3.5806609125
 20
-22.3018840226
 11
-3.5806609125
 21
-23.6519220988
  0
LINE
  5
4B9
100
AcDbEntity
  8
ASSI
100
AcDbLine
 62
7
  6
CONTINUOUS
 10
-3.5440817452
 20
15.4965092529
 11
-3.5440817452
 21
15.1
  0
LINE
  5
4BA
100
AcDbEntity
  8
DRAFT
100
AcDbLine
 62
7
  6
CONTINUOUS
 10
-3.5440817452
 20
15.4965092529
 11
-3.5440817452
 21
15.1
  0
LINE
  5
4BB
100
AcDbEntity
  8
ASSI
100
AcDbLine
 62
7
  6
CONTINUOUS
 10
-3.5
 20
-23.7325830113
 11
-3.5
 21
-22.3825449351
  0
LINE
  5
4BC
100
AcDbEntity
  8
ASSI
100
AcDbLine
 62
7
  6
CONTINUOUS
 10
-3.5
 20
14.0
 11
-3.5
 21
14.85
  0
LINE
  5
4BD
100
AcDbEntity
  8
DRAFT
100
AcDbLine
 62
7
  6
CONTINUOUS
 10
-3.5
 20
14.0
 11
-3.5
 21
14.85
  0
LINE
  5
4BE
100
AcDbEntity
  8
ASSI
100
AcDbLine
 62
7
  6
CONTINUOUS
 10
-3.5
 20
22.3825449351
 11
-3.5
 21
23.7325830113
  0
LINE
  5
4BF
100
AcDbEntity
  8
RACCORDO
100
AcDbLine
 62
7
  6
CONTINUOUS
 10
-3.4
 20
14.2
 11
-3.4
 21
15.6
  0
LINE
  5
4C0
100
AcDbEntity
  8
ASSI
100
AcDbLine
 62
253
  6
CONTINUOUS
 10
-3.3844624036
 20
-21.6546773209
 11
-3.3850964806
 21
-20.8
  0
LINE
  5
4C1
100
AcDbEntity
  8
ASSI
100
AcDbLine
 62
7
  6
CONTINUOUS
 10
-3.1351059998
 20
-21.2252970227
 11
-3.1351059998
 21
-20.8901985088
  0
LINE
  5
4C2
100
AcDbEntity
  8
ASSI
100
AcDbLine
 62
7
  6
CONTINUOUS
 10
-3.1351059998
 20
20.8901985088
 11
-3.1351059998
 21
21.2252970227
  0
LINE
  5
4C3
100
AcDbEntity
  8
ASSI
100
AcDbLine
 62
7
  6
CONTINUOUS
 10
-3.05
 20
22.1325449336
 11
-3.05
 21
21.7
  0
LINE
  5
4C4
100
AcDbEntity
  8
ASSI
100
AcDbLine
 62
7
  6
CONTINUOUS
 10
-3.05
 20
-21.7
 11
-3.05
 21
-22.1325449336
  0
LINE
  5
4C5
100
AcDbEntity
  8
ASSI
100
AcDbLine
 62
253
  6
CONTINUOUS
 10
-3.3850964806
 20
20.8
 11
-3.3844624036
 21
21.6546773209
  0
LINE
  5
4C6
100
AcDbEntity
  8
ASSI
100
AcDbLine
 62
253
  6
CONTINUOUS
 10
-3.1351059998
 20
21.2252970227
 11
-3.1344735913
 21
21.5469239675
  0
LINE
  5
4C7
100
AcDbEntity
  8
ASSI
100
AcDbLine
 62
253
  6
CONTINUOUS
 10
-3.3844624036
 20
21.6546773209
 11
-3.3826830282
 21
22.0008673253
  0
LINE
  5
4C8
100
AcDbEntity
  8
ASSI
100
AcDbLine
 62
253
  6
CONTINUOUS
 10
-3.1344735913
 20
21.5469239675
 11
-3.133055364
 21
21.7704586097
  0
LINE
  5
4C9
100
AcDbEntity
  8
ASSI
100
AcDbLine
 62
253
  6
CONTINUOUS
 10
-3.3826830282
 20
22.0008673253
 11
-3.3814643926
 21
22.1207851486
  0
LINE
  5
4CA
100
AcDbEntity
  8
ASSI
100
AcDbLine
 62
253
  6
CONTINUOUS
 10
-3.133055364
 20
21.7704586097
 11
-3.1318957974
 21
21.8705942406
  0
LWPOLYLINE
  5
4CB
100
AcDbEntity
  8
ASSI
100
AcDbPolyline
 62
253
  6
CONTINUOUS
 90
6
 70
0
 10
-3.3814643926
 20
22.1207851486
 10
-3.3805677578
 20
22.1766091187
 10
-3.380103051
 20
22.1967864891
 10
-3.379632348
 20
22.2116508462
 10
-3.3791531838
 20
22.2211208594
 10
-3.3786655583
 20
22.2251447178
  0
LWPOLYLINE
  5
4CC
100
AcDbEntity
  8
ASSI
100
AcDbPolyline
 62
253
  6
CONTINUOUS
 90
7
 70
0
 10
-3.1318957974
 20
21.8705942406
 10
-3.1310293586
 20
21.9198621423
 10
-3.1305721233
 20
21.9389548805
 10
-3.1301072563
 20
21.9540642408
 10
-3.1296374951
 20
21.9650871366
 10
-3.1291601022
 20
21.9721266543
 10
-3.1286750776
 20
21.975182794
  0
LINE
  5
4CD
100
AcDbEntity
  8
ASSI
100
AcDbLine
 62
7
  6
CONTINUOUS
 10
-3.1173032135
 20
21.6326967865
 11
-3.1270760019
 21
21.2251044884
  0
LWPOLYLINE
  5
4CE
100
AcDbEntity
  8
0
100
AcDbPolyline
 62
7
  6
CONTINUOUS
 90
37
 70
0
 10
-1.9
 20
7.310987095
 10
-1.9050550378
 20
7.220641994
 10
-1.9192526102
 20
7.1323035982
 10
-1.9425927171
 20
7.0459719076
 10
-1.9753905461
 20
6.9610236051
 10
-2.0173309096
 20
6.8780820078
 10
-2.0674682453
 20
6.7990170673
 10
-2.1259887566
 20
6.7239168462
 10
-2.1927062402
 20
6.6526932819
 10
-2.2661165235
 20
6.5869521383
 10
-2.3463716411
 20
6.5268179546
 10
-2.4333195585
 20
6.4721661916
 10
-2.525
 20
6.4242289951
 10
-2.6215204702
 20
6.383158894
 10
-2.7227734645
 20
6.3488033596
 10
-2.8264761936
 20
6.3219369509
 10
-2.9326843059
 20
6.302729792
 10
-3.041342153
 20
6.291011759
 10
-3.15
 20
6.2870470396
 10
-3.258657847
 20
6.291011759
 10
-3.3673156941
 20
6.302729792
 10
-3.4735238064
 20
6.3219369509
 10
-3.5772265355
 20
6.3488033596
 10
-3.6784795298
 20
6.383158894
 10
-3.775
 20
6.4242289951
 10
-3.8666804415
 20
6.4721661916
 10
-3.9536283589
 20
6.5268179546
 10
-4.0338834765
 20
6.5869521383
 10
-4.1072937598
 20
6.6526932819
 10
-4.1740112434
 20
6.7239168462
 10
-4.2325317547
 20
6.7990170673
 10
-4.2826690904
 20
6.8780820078
 10
-4.3246094539
 20
6.9610236051
 10
-4.3574072829
 20
7.0459719076
 10
-4.3807473898
 20
7.1323035982
 10
-4.3949449622
 20
7.220641994
 10
-4.4
 20
7.310987095
  0
LWPOLYLINE
  5
4CF
100
AcDbEntity
  8
ASSI
100
AcDbPolyline
 62
7
  6
CONTINUOUS
 90
7
 70
0
 10
-6.4340630273
 20
-20.7681160106
 10
-6.4336222657
 20
-20.7646544356
 10
-6.4331935225
 20
-20.7563672313
 10
-6.4327767975
 20
-20.7432543979
 10
-6.4323672196
 20
-20.7250413058
 10
-6.43196966
 20
-20.7020025845
 10
-6.4312567558
 20
-20.6439031152
  0
LWPOLYLINE
  5
4D0
100
AcDbEntity
  8
RACCORDO
100
AcDbPolyline
 62
7
  6
CONTINUOUS
 90
7
 70
0
 10
-6.4340630273
 20
-20.7681160106
 10
-6.4336222657
 20
-20.7646544356
 10
-6.4331935225
 20
-20.7563672313
 10
-6.4327767975
 20
-20.7432543979
 10
-6.4323672196
 20
-20.7250413058
 10
-6.43196966
 20
-20.7020025845
 10
-6.4312567558
 20
-20.6439031152
  0
LWPOLYLINE
  5
4D1
100
AcDbEntity
  8
ASSI
100
AcDbPolyline
 62
7
  6
CONTINUOUS
 90
33
 70
0
 10
-0.4799100021
 20
6.771888327
 10
-0.541536221
 20
6.5980581124
 10
-0.6204042093
 20
6.42770906
 10
-0.7149959295
 20
6.2641200199
 10
-0.8256159834
 20
6.1074219476
 10
-0.951959769
 20
5.9574838874
 10
-1.0915954425
 20
5.8171918219
 10
-1.244780496
 20
5.6867326144
 10
-1.4112574373
 20
5.5659194015
 10
-1.5878219465
 20
5.4570775755
 10
-1.774669441
 20
5.3604390477
 10
-1.9716045034
 20
5.2757719068
 10
-2.1748365606
 20
5.2047058117
 10
-2.384487599
 20
5.1475042435
 10
-2.6004356323
 20
5.1039037212
 10
-2.8185241293
 20
5.0747434601
 10
-3.0387945552
 20
5.0603031988
 10
-3.2612054448
 20
5.0603031988
 10
-3.4814758707
 20
5.0747434601
 10
-3.6995643677
 20
5.1039037212
 10
-3.915512401
 20
5.1475042435
 10
-4.1251634394
 20
5.2047058117
 10
-4.3283954966
 20
5.2757719068
 10
-4.525330559
 20
5.3604390477
 10
-4.7121780535
 20
5.4570775755
 10
-4.8887425627
 20
5.5659194015
 10
-5.055219504
 20
5.6867326144
 10
-5.2084045575
 20
5.8171918219
 10
-5.348040231
 20
5.9574838874
 10
-5.4743840166
 20
6.1074219476
 10
-5.5850040705
 20
6.2641200199
 10
-5.6795957907
 20
6.42770906
 10
-5.758463779
 20
6.5980581124
  0
LINE
  5
4D2
100
AcDbEntity
  8
ASSI
100
AcDbLine
 62
7
  6
CONTINUOUS
 10
6.4738193966
 20
20.8476348052
 11
6.5872686779
 21
21.0745506493
  0
LINE
  5
4D3
100
AcDbEntity
  8
0
100
AcDbLine
 62
7
  6
CONTINUOUS
 10
6.4738193966
 20
20.8476348052
 11
6.5872686779
 21
21.0745506493
  0
LINE
  5
4D4
100
AcDbEntity
  8
ASSI
100
AcDbLine
 62
7
  6
CONTINUOUS
 10
-11.1261859216
 20
-5.0
 11
-11.0738140784
 21
-4.9650898701
  0
LINE
  5
4D5
100
AcDbEntity
  8
0
100
AcDbLine
 62
7
  6
CONTINUOUS
 10
-11.1261859216
 20
-5.0
 11
-11.0738140784
 21
-4.9650898701
  0
LINE
  5
4D6
100
AcDbEntity
  8
ASSI
100
AcDbLine
 62
7
  6
CONTINUOUS
 10
10.1
 20
6.5
 11
10.1907663376
 21
6.5375966481
  0
LINE
  5
4D7
100
AcDbEntity
  8
0
100
AcDbLine
 62
7
  6
CONTINUOUS
 10
10.1
 20
6.5
 11
10.1907663376
 21
6.5375966481
  0
LINE
  5
4D8
100
AcDbEntity
  8
0
100
AcDbLine
 62
7
  6
CONTINUOUS
 10
-8.9
 20
-3.6636541043
 11
8.9
 21
-3.6636541043
  0
LINE
  5
4D9
100
AcDbEntity
  8
0
100
AcDbLine
 62
7
  6
CONTINUOUS
 10
6.4
 20
-2.4595686014
 11
-6.4
 21
-2.4595686014
  0
LINE
  5
4DA
100
AcDbEntity
  8
0
100
AcDbLine
 62
7
  6
CONTINUOUS
 10
-5.9
 20
-2.0499925792
 11
5.9
 21
-2.0499925792
  0
LINE
  5
4DB
100
AcDbEntity
  8
ASSI
100
AcDbLine
 62
7
  6
CONTINUOUS
 10
-11.1261859216
 20
5.0
 11
-11.0738140784
 21
4.9650898701
  0
LINE
  5
4DC
100
AcDbEntity
  8
0
100
AcDbLine
 62
7
  6
CONTINUOUS
 10
-11.1261859216
 20
5.0
 11
-11.0738140784
 21
4.9650898701
  0
LINE
  5
4DD
100
AcDbEntity
  8
ASSI
100
AcDbLine
 62
7
  6
CONTINUOUS
 10
9.4338858163
 20
-8.5025647127
 11
9.5074009793
 21
-8.5515685998
  0
LINE
  5
4DE
100
AcDbEntity
  8
0
100
AcDbLine
 62
7
  6
CONTINUOUS
 10
9.4338858163
 20
-8.5025647127
 11
9.5074009793
 21
-8.5515685998
  0
LINE
  5
4DF
100
AcDbEntity
  8
ASSI
100
AcDbLine
 62
7
  6
CONTINUOUS
 10
-10.1907663376
 20
5.0
 11
-10.1558562078
 21
4.9650898701
  0
LINE
  5
4E0
100
AcDbEntity
  8
0
100
AcDbLine
 62
7
  6
CONTINUOUS
 10
-10.1907663376
 20
5.0
 11
-10.1558562078
 21
4.9650898701
  0
LINE
  5
4E1
100
AcDbEntity
  8
ASSI
100
AcDbLine
 62
7
  6
CONTINUOUS
 10
9.0466683828
 20
-11.801380001
 11
8.0482618771
 21
-10.8007199541
  0
LINE
  5
4E2
100
AcDbEntity
  8
0
100
AcDbLine
 62
7
  6
CONTINUOUS
 10
9.0466683828
 20
-11.801380001
 11
8.0482618771
 21
-10.8007199541
  0
LINE
  5
4E3
100
AcDbEntity
  8
ASSI
100
AcDbLine
 62
7
  6
CONTINUOUS
 10
9.0318412786
 20
-11.8075215887
 11
8.0441256373
 21
-10.8024332407
  0
LINE
  5
4E4
100
AcDbEntity
  8
0
100
AcDbLine
 62
7
  6
CONTINUOUS
 10
9.0318412786
 20
-11.8075215887
 11
8.0441256373
 21
-10.8024332407
  0
LINE
  5
4E5
100
AcDbEntity
  8
ASSI
100
AcDbLine
 62
7
  6
CONTINUOUS
 10
6.5872686779
 20
-21.0745506493
 11
6.4340630273
 21
-20.7681160106
  0
LINE
  5
4E6
100
AcDbEntity
  8
RACCORDO
100
AcDbLine
 62
7
  6
CONTINUOUS
 10
6.5872686779
 20
-21.0745506493
 11
6.4340630273
 21
-20.7681160106
  0
LWPOLYLINE
  5
4E7
100
AcDbEntity
  8
ASSI
100
AcDbPolyline
 62
7
  6
CONTINUOUS
 90
5
 70
0
 10
-5.758463779
 20
6.5980581124
 10
-5.8200899979
 20
6.771888327
 10
-5.8639684348
 20
6.948106754
 10
-5.8906051021
 20
7.1278063433
 10
-5.9
 20
7.310987095
  0
LINE
  5
4E8
100
AcDbEntity
  8
ASSI
100
AcDbLine
 62
7
  6
CONTINUOUS
 10
-6.449051079
 20
19.334259922
 11
-6.471338355
 21
19.4681025177
  0
LINE
  5
4E9
100
AcDbEntity
  8
RACCORDO
100
AcDbLine
 62
7
  6
CONTINUOUS
 10
-6.449051079
 20
19.334259922
 11
-6.471338355
 21
19.4681025177
  0
LWPOLYLINE
  5
4EA
100
AcDbEntity
  8
ASSI
100
AcDbPolyline
 62
7
  6
CONTINUOUS
 90
16
 70
0
 10
0.8
 20
-23.7500380762
 10
0.8013494122
 20
-23.7759809831
 10
0.8054056831
 20
-23.8017480173
 10
0.8121576856
 20
-23.8270535846
 10
0.8216035898
 20
-23.8517009881
 10
0.8336494676
 20
-23.8753074461
 10
0.8480168563
 20
-23.897354591
 10
0.864348265
 20
-23.9174650114
 10
0.8825349886
 20
-23.935651735
 10
0.902645409
 20
-23.9519831437
 10
0.9246925539
 20
-23.9663505324
 10
0.9482990119
 20
-23.9783964102
 10
0.9729464154
 20
-23.9878423144
 10
0.9982519827
 20
-23.9945943169
 10
1.0240190169
 20
-23.9986505878
 10
1.0499619238
 20
-24.0
  0
LINE
  5
4EB
100
AcDbEntity
  8
SMUSSO
100
AcDbLine
 62
7
  6
CONTINUOUS
 10
-1.2
 20
5.0365163334
 11
-1.2
 21
3.7881232885
  0
LINE
  5
4EC
100
AcDbEntity
  8
ASSI
100
AcDbLine
 62
7
  6
CONTINUOUS
 10
-1.15
 20
5.0774770094
 11
-1.15
 21
4.4434449239
  0
LINE
  5
4ED
100
AcDbEntity
  8
0
100
AcDbLine
 62
7
  6
CONTINUOUS
 10
-1.15
 20
4.4434449239
 11
-1.15
 21
3.7881232885
  0
LINE
  5
4EE
100
AcDbEntity
  8
ASSI
100
AcDbLine
 62
7
  6
CONTINUOUS
 10
-0.8174550649
 20
23.7325830113
 11
-0.8174550649
 21
22.398254669
  0
LINE
  5
4EF
100
AcDbEntity
  8
ASSI
100
AcDbLine
 62
7
  6
CONTINUOUS
 10
-0.8174550649
 20
-23.7325830113
 11
-0.8174550649
 21
-22.398254669
  0
LINE
  5
4F0
100
AcDbEntity
  8
ASSI
100
AcDbLine
 62
7
  6
CONTINUOUS
 10
-0.8
 20
-23.7500380762
 11
-0.8
 21
-22.4
  0
LINE
  5
4F1
100
AcDbEntity
  8
ASSI
100
AcDbLine
 62
7
  6
CONTINUOUS
 10
-0.8
 20
22.4
 11
-0.8
 21
23.7500380762
  0
LINE
  5
4F2
100
AcDbEntity
  8
0
100
AcDbLine
 62
7
  6
CONTINUOUS
 10
-0.65
 20
4.4434449239
 11
-0.65
 21
3.7881232885
  0
LINE
  5
4F3
100
AcDbEntity
  8
ASSI
100
AcDbLine
 62
7
  6
CONTINUOUS
 10
-0.65
 20
8.2934595321
 11
-0.65
 21
8.3459582988
  0
LINE
  5
4F4
100
AcDbEntity
  8
SMUSSO
100
AcDbLine
 62
7
  6
CONTINUOUS
 10
-0.4
 20
6.6226953714
 11
-0.4
 21
7.310987095
  0
LWPOLYLINE
  5
4F5
100
AcDbEntity
  8
SMUSSO
100
AcDbPolyline
 62
7
  6
CONTINUOUS
 90
43
 70
0
 10
-0.4
 20
6.6226953714
 10
-0.4076876692
 20
6.4543739167
 10
-0.4307082111
 20
6.2869907462
 10
-0.4689336836
 20
6.1214818074
 10
-0.522151162
 20
5.958772521
 10
-0.5900638006
 20
5.7997729874
 10
-0.6722923696
 20
5.645372864
 10
-0.7683777347
 20
5.4964356664
 10
-0.8777831128
 20
5.3537946355
 10
-0.9998966751
 20
5.2182483358
 10
-1.1340358212
 20
5.0905550805
 10
-1.2794507832
 20
4.9714291776
 10
-1.4353281535
 20
4.8615374389
 10
-1.6007963194
 20
4.7614946855
 10
-1.7749300916
 20
4.671860615
 10
-1.9567553415
 20
4.5931369199
 10
-2.1452552672
 20
4.525764051
 10
-2.3393756629
 20
4.4701190033
 10
-2.538030378
 20
4.4265132705
 10
-2.7401083479
 20
4.3951908299
 10
-2.9444793637
 20
4.3763269571
 10
-3.1499998748
 20
4.3700272496
 10
-3.3555203821
 20
4.3763269415
 10
-3.559891391
 20
4.3951907977
 10
-3.7619693581
 20
4.4265132212
 10
-3.960624079
 20
4.4701189381
 10
-4.1547444842
 20
4.5257639711
 10
-4.3432444164
 20
4.5931368244
 10
-4.5250696664
 20
4.6718605005
 10
-4.6992034369
 20
4.7614945494
 10
-4.864671605
 20
4.8615372811
 10
-5.0205489811
 20
4.9714289984
 10
-5.1659639525
 20
5.0905548806
 10
-5.3001031158
 20
5.2182481209
 10
-5.4222167011
 20
5.3537944118
 10
-5.5316221068
 20
5.4964354416
 10
-5.6277075066
 20
5.6453726534
 10
-5.7099361186
 20
5.7997728187
 10
-5.777848797
 20
5.9587724121
 10
-5.8310663003
 20
6.1214817495
 10
-5.8692917841
 20
6.2869907197
 10
-5.8923123302
 20
6.4543739097
 10
-5.9
 20
6.6226953714
  0
LWPOLYLINE
  5
4F6
100
AcDbEntity
  8
ASSI
100
AcDbPolyline
 62
7
  6
CONTINUOUS
 90
4
 70
0
 10
-0.4
 20
7.310987095
 10
-0.4093948979
 20
7.1278063433
 10
-0.4360315652
 20
6.948106754
 10
-0.4799100021
 20
6.771888327
  0
LWPOLYLINE
  5
4F7
100
AcDbEntity
  8
ASSI
100
AcDbPolyline
 62
7
  6
CONTINUOUS
 90
40
 70
0
 10
0.4
 20
7.310987095
 10
0.4093948979
 20
7.4941678466
 10
0.4360315652
 20
7.673867436
 10
0.4799100021
 20
7.850085863
 10
0.541536221
 20
8.0239160776
 10
0.6204042093
 20
8.1942651299
 10
0.7149959295
 20
8.3578541701
 10
0.8256159834
 20
8.5145522424
 10
0.951959769
 20
8.6644903025
 10
1.0915954425
 20
8.804782368
 10
1.244780496
 20
8.9352415756
 10
1.4112574373
 20
9.0560547885
 10
1.5878219465
 20
9.1648966144
 10
1.774669441
 20
9.2615351423
 10
1.9716045034
 20
9.3462022832
 10
2.1748365606
 20
9.4172683782
 10
2.384487599
 20
9.4744699464
 10
2.6004356323
 20
9.5180704688
 10
2.8185241293
 20
9.5472307299
 10
3.0387945552
 20
9.5616709912
 10
3.2612054448
 20
9.5616709912
 10
3.4814758707
 20
9.5472307299
 10
3.6995643677
 20
9.5180704688
 10
3.915512401
 20
9.4744699464
 10
4.1251634394
 20
9.4172683782
 10
4.3283954966
 20
9.3462022832
 10
4.525330559
 20
9.2615351423
 10
4.7121780535
 20
9.1648966144
 10
4.8887425627
 20
9.0560547885
 10
5.055219504
 20
8.9352415756
 10
5.2084045575
 20
8.804782368
 10
5.348040231
 20
8.6644903025
 10
5.4743840166
 20
8.5145522424
 10
5.5850040705
 20
8.3578541701
 10
5.6795957907
 20
8.1942651299
 10
5.758463779
 20
8.0239160776
 10
5.8200899979
 20
7.850085863
 10
5.8639684348
 20
7.673867436
 10
5.8906051021
 20
7.4941678466
 10
5.9
 20
7.310987095
  0
LWPOLYLINE
  5
4F8
100
AcDbEntity
  8
ASSI
100
AcDbPolyline
 62
7
  6
CONTINUOUS
 90
16
 70
0
 10
0.8
 20
23.7500380762
 10
0.8013494122
 20
23.7759809831
 10
0.8054056831
 20
23.8017480173
 10
0.8121576856
 20
23.8270535846
 10
0.8216035898
 20
23.8517009881
 10
0.8336494676
 20
23.8753074461
 10
0.8480168563
 20
23.897354591
 10
0.864348265
 20
23.9174650114
 10
0.8825349886
 20
23.935651735
 10
0.902645409
 20
23.9519831437
 10
0.9246925539
 20
23.9663505324
 10
0.9482990119
 20
23.9783964102
 10
0.9729464154
 20
23.9878423144
 10
0.9982519827
 20
23.9945943169
 10
1.0240190169
 20
23.9986505878
 10
1.0499619238
 20
24.0
  0
LWPOLYLINE
  5
4F9
100
AcDbEntity
  8
ASSI
100
AcDbPolyline
 62
7
  6
CONTINUOUS
 90
11
 70
0
 10
-9.4564965907
 20
-20.8355119633
 10
-9.4551574791
 20
-20.8324310166
 10
-9.4538545777
 20
-20.8244307071
 10
-9.4525878866
 20
-20.8115110348
 10
-9.4513423739
 20
-20.7933909412
 10
-9.4501330714
 20
-20.7703514848
 10
-9.4490050745
 20
-20.7432358411
 10
-9.4479655745
 20
-20.7120259704
 10
-9.4470073801
 20
-20.6767399123
 10
-9.4461540128
 20
-20.6382749619
 10
-9.4447625207
 20
-20.5513174581
  0
LWPOLYLINE
  5
4FA
100
AcDbEntity
  8
RACCORDO
100
AcDbPolyline
 62
7
  6
CONTINUOUS
 90
11
 70
0
 10
-9.4564965907
 20
-20.8355119633
 10
-9.4551574791
 20
-20.8324310166
 10
-9.4538545777
 20
-20.8244307071
 10
-9.4525878866
 20
-20.8115110348
 10
-9.4513423739
 20
-20.7933909412
 10
-9.4501330714
 20
-20.7703514848
 10
-9.4490050745
 20
-20.7432358411
 10
-9.4479655745
 20
-20.7120259704
 10
-9.4470073801
 20
-20.6767399123
 10
-9.4461540128
 20
-20.6382749619
 10
-9.4447625207
 20
-20.5513174581
  0
LINE
  5
4FB
100
AcDbEntity
  8
ASSI
100
AcDbLine
 62
7
  6
CONTINUOUS
 10
9.4971221886
 20
19.334259922
 11
9.5639975984
 21
19.4681025177
  0
LINE
  5
4FC
100
AcDbEntity
  8
RACCORDO
100
AcDbLine
 62
7
  6
CONTINUOUS
 10
9.4971221886
 20
19.334259922
 11
9.5639975984
 21
19.4681025177
  0
LWPOLYLINE
  5
4FD
100
AcDbEntity
  8
ASSI
100
AcDbPolyline
 62
253
  6
CONTINUOUS
 90
11
 70
0
 10
10.5868325431
 20
24.286863004
 10
10.5867911404
 20
24.2867823786
 10
10.5867488795
 20
24.2865627718
 10
10.5867057604
 20
24.2862041836
 10
10.586661522
 20
24.2857131476
 10
10.5866164255
 20
24.2850831302
 10
10.5865712537
 20
24.2842945307
 10
10.586525983
 20
24.2833422036
 10
10.5864806371
 20
24.2822312944
 10
10.58643607
 20
24.2809576387
 10
10.5863492887
 20
24.2779107113
  0
LINE
  5
4FE
100
AcDbEntity
  8
ASSI
100
AcDbLine
 62
7
  6
CONTINUOUS
 10
-9.65
 20
-9.8426444078
 11
-10.2466225454
 21
-10.4392669531
  0
LINE
  5
4FF
100
AcDbEntity
  8
0
100
AcDbLine
 62
7
  6
CONTINUOUS
 10
-9.65
 20
-9.8426444078
 11
-10.2466225454
 21
-10.4392669531
  0
LINE
  5
500
100
AcDbEntity
  8
0
100
AcDbLine
 62
7
  6
CONTINUOUS
 10
-6.4
 20
-1.3127557394
 11
-5.9
 21
-1.3127557394
  0
LINE
  5
501
100
AcDbEntity
  8
0
100
AcDbLine
 62
7
  6
CONTINUOUS
 10
6.4
 20
-1.3127557394
 11
5.9
 21
-1.3127557394
  0
LINE
  5
502
100
AcDbEntity
  8
0
100
AcDbLine
 62
7
  6
CONTINUOUS
 10
-6.4
 20
-0.165262856
 11
6.4
 21
-0.165262856
  0
LWPOLYLINE
  5
503
100
AcDbEntity
  8
ASSI
100
AcDbPolyline
 62
7
  6
CONTINUOUS
 90
18
 70
0
 10
-9.0
 20
-1.3132657554
 10
-9.110913918
 20
-1.3086824209
 10
-9.2189113981
 20
-1.2959628791
 10
-9.3239924404
 20
-1.2751071299
 10
-9.4270504333
 20
-1.2457809619
 10
-9.5271919883
 20
-1.2083185866
 10
-9.6217369401
 20
-1.1637226383
 10
-9.7105341541
 20
-1.1118004771
 10
-9.7937347649
 20
-1.0527447429
 10
-9.8691120105
 20
-0.9881359897
 10
-9.9364546235
 20
-0.91782426
 10
-9.9959738713
 20
-0.8419595113
 10
-10.0460767947
 20
-0.7625721702
 10
-10.0865091086
 20
-0.6795671101
 10
-10.117525098
 20
-0.5930394576
 10
-10.1382946582
 20
-0.5053050188
 10
-10.1485410874
 20
-0.4163312047
 10
-10.1498218911
 20
-0.3712409045
  0
LWPOLYLINE
  5
504
100
AcDbEntity
  8
ASSI
100
AcDbPolyline
 62
7
  6
CONTINUOUS
 90
18
 70
0
 10
9.0
 20
-1.3132657554
 10
8.889086082
 20
-1.3086824209
 10
8.7810886019
 20
-1.2959628791
 10
8.6760075596
 20
-1.2751071299
 10
8.5729495667
 20
-1.2457809619
 10
8.4728080117
 20
-1.2083185866
 10
8.3782630599
 20
-1.1637226383
 10
8.2894658459
 20
-1.1118004771
 10
8.2062652351
 20
-1.0527447429
 10
8.1308879895
 20
-0.9881359897
 10
8.0635453765
 20
-0.91782426
 10
8.0040261287
 20
-0.8419595113
 10
7.9539232053
 20
-0.7625721702
 10
7.9134908914
 20
-0.6795671101
 10
7.882474902
 20
-0.5930394576
 10
7.8617053418
 20
-0.5053050188
 10
7.8514589126
 20
-0.4163312047
 10
7.8501781089
 20
-0.3712409045
  0
LWPOLYLINE
  5
505
100
AcDbEntity
  8
ASSI
100
AcDbPolyline
 62
7
  6
CONTINUOUS
 90
18
 70
0
 10
-9.0
 20
0.5707839465
 10
-8.889086082
 20
0.566200612
 10
-8.7810886019
 20
0.5534810701
 10
-8.6760075596
 20
0.532625321
 10
-8.5729495667
 20
0.503299153
 10
-8.4728080117
 20
0.4658367777
 10
-8.3782630599
 20
0.4212408294
 10
-8.2894658459
 20
0.3693186682
 10
-8.2062652351
 20
0.310262934
 10
-8.1308879895
 20
0.2456541808
 10
-8.0635453765
 20
0.1753424511
 10
-8.0040261287
 20
0.0994777024
 10
-7.9539232053
 20
0.0200903612
 10
-7.9134908914
 20
-0.0629146988
 10
-7.882474902
 20
-0.1494423513
 10
-7.8617053418
 20
-0.2371767902
 10
-7.8514589126
 20
-0.3261506042
 10
-7.8501781089
 20
-0.3712409045
  0
LINE
  5
506
100
AcDbEntity
  8
ASSI
100
AcDbLine
 62
7
  6
CONTINUOUS
 10
10.1041700454
 20
-10.4982727107
 11
9.4345684598
 21
-9.8302978876
  0
LINE
  5
507
100
AcDbEntity
  8
0
100
AcDbLine
 62
7
  6
CONTINUOUS
 10
10.1041700454
 20
-10.4982727107
 11
9.4345684598
 21
-9.8302978876
  0
LINE
  5
508
100
AcDbEntity
  8
ASSI
100
AcDbLine
 62
7
  6
CONTINUOUS
 10
10.2466225454
 20
-10.4392669531
 11
9.65
 21
-9.8426444078
  0
LINE
  5
509
100
AcDbEntity
  8
0
100
AcDbLine
 62
7
  6
CONTINUOUS
 10
10.2466225454
 20
-10.4392669531
 11
9.65
 21
-9.8426444078
  0
LINE
  5
50A
100
AcDbEntity
  8
ASSI
100
AcDbLine
 62
7
  6
CONTINUOUS
 10
-9.4971221886
 20
19.334259922
 11
-9.5639975984
 21
19.4681025177
  0
LINE
  5
50B
100
AcDbEntity
  8
RACCORDO
100
AcDbLine
 62
7
  6
CONTINUOUS
 10
-9.4971221886
 20
19.334259922
 11
-9.5639975984
 21
19.4681025177
  0
LINE
  5
50C
100
AcDbEntity
  8
ASSI
100
AcDbLine
 62
7
  6
CONTINUOUS
 10
-3.5440817452
 20
15.1
 11
-3.5
 21
14.85
  0
LINE
  5
50D
100
AcDbEntity
  8
DRAFT
100
AcDbLine
 62
7
  6
CONTINUOUS
 10
-3.5440817452
 20
15.1
 11
-3.5
 21
14.85
  0
LWPOLYLINE
  5
50E
100
AcDbEntity
  8
ASSI
100
AcDbPolyline
 62
7
  6
CONTINUOUS
 90
16
 70
0
 10
-0.8
 20
23.7500380762
 10
-0.8013494122
 20
23.7759809831
 10
-0.8054056831
 20
23.8017480173
 10
-0.8121576856
 20
23.8270535846
 10
-0.8216035898
 20
23.8517009881
 10
-0.8336494676
 20
23.8753074461
 10
-0.8480168563
 20
23.897354591
 10
-0.864348265
 20
23.9174650114
 10
-0.8825349886
 20
23.935651735
 10
-0.902645409
 20
23.9519831437
 10
-0.9246925539
 20
23.9663505324
 10
-0.9482990119
 20
23.9783964102
 10
-0.9729464154
 20
23.9878423144
 10
-0.9982519827
 20
23.9945943169
 10
-1.0240190169
 20
23.9986505878
 10
-1.0499619238
 20
24.0
  0
LINE
  5
50F
100
AcDbEntity
  8
SMUSSO
100
AcDbLine
 62
7
  6
CONTINUOUS
 10
0.4
 20
6.6226953714
 11
0.4
 21
7.310987095
  0
LINE
  5
510
100
AcDbEntity
  8
0
100
AcDbLine
 62
7
  6
CONTINUOUS
 10
0.65
 20
3.7881232885
 11
0.65
 21
4.4434449239
  0
LINE
  5
511
100
AcDbEntity
  8
ASSI
100
AcDbLine
 62
7
  6
CONTINUOUS
 10
0.65
 20
8.2934595321
 11
0.65
 21
8.3459582988
  0
LINE
  5
512
100
AcDbEntity
  8
ASSI
100
AcDbLine
 62
7
  6
CONTINUOUS
 10
0.8
 20
-23.7500380762
 11
0.8
 21
-22.4
  0
LINE
  5
513
100
AcDbEntity
  8
ASSI
100
AcDbLine
 62
7
  6
CONTINUOUS
 10
0.8
 20
22.4
 11
0.8
 21
23.7500380762
  0
LINE
  5
514
100
AcDbEntity
  8
ASSI
100
AcDbLine
 62
7
  6
CONTINUOUS
 10
0.8174550649
 20
23.7325830113
 11
0.8174550649
 21
22.398254669
  0
LINE
  5
515
100
AcDbEntity
  8
ASSI
100
AcDbLine
 62
7
  6
CONTINUOUS
 10
0.8174550649
 20
-23.7325830113
 11
0.8174550649
 21
-22.398254669
  0
LINE
  5
516
100
AcDbEntity
  8
0
100
AcDbLine
 62
7
  6
CONTINUOUS
 10
1.15
 20
4.4434449239
 11
1.15
 21
3.7881232885
  0
LINE
  5
517
100
AcDbEntity
  8
ASSI
100
AcDbLine
 62
7
  6
CONTINUOUS
 10
1.15
 20
4.4434449239
 11
1.15
 21
5.0774769981
  0
LINE
  5
518
100
AcDbEntity
  8
SMUSSO
100
AcDbLine
 62
7
  6
CONTINUOUS
 10
1.2
 20
5.0365163318
 11
1.2
 21
3.7881232885
  0
LWPOLYLINE
  5
519
100
AcDbEntity
  8
ASSI
100
AcDbPolyline
 62
7
  6
CONTINUOUS
 90
16
 70
0
 10
-0.8
 20
-23.7500380762
 10
-0.8013494122
 20
-23.7759809831
 10
-0.8054056831
 20
-23.8017480173
 10
-0.8121576856
 20
-23.8270535846
 10
-0.8216035898
 20
-23.8517009881
 10
-0.8336494676
 20
-23.8753074461
 10
-0.8480168563
 20
-23.897354591
 10
-0.864348265
 20
-23.9174650114
 10
-0.8825349886
 20
-23.935651735
 10
-0.902645409
 20
-23.9519831437
 10
-0.9246925539
 20
-23.9663505324
 10
-0.9482990119
 20
-23.9783964102
 10
-0.9729464154
 20
-23.9878423144
 10
-0.9982519827
 20
-23.9945943169
 10
-1.0240190169
 20
-23.9986505878
 10
-1.0499619238
 20
-24.0
  0
LWPOLYLINE
  5
51A
100
AcDbEntity
  8
0
100
AcDbPolyline
 62
7
  6
CONTINUOUS
 90
37
 70
0
 10
1.9
 20
7.310987095
 10
1.9050550378
 20
7.401332196
 10
1.9192526102
 20
7.4896705918
 10
1.9425927171
 20
7.5760022824
 10
1.9753905461
 20
7.6609505849
 10
2.0173309096
 20
7.7438921822
 10
2.0674682453
 20
7.8229571227
 10
2.1259887566
 20
7.8980573437
 10
2.1927062402
 20
7.969280908
 10
2.2661165235
 20
8.0350220517
 10
2.3463716411
 20
8.0951562353
 10
2.4333195585
 20
8.1498079984
 10
2.525
 20
8.1977451949
 10
2.6215204702
 20
8.2388152959
 10
2.7227734645
 20
8.2731708304
 10
2.8264761936
 20
8.300037239
 10
2.9326843059
 20
8.3192443979
 10
3.041342153
 20
8.3309624309
 10
3.15
 20
8.3349271503
 10
3.258657847
 20
8.3309624309
 10
3.3673156941
 20
8.3192443979
 10
3.4735238064
 20
8.300037239
 10
3.5772265355
 20
8.2731708304
 10
3.6784795298
 20
8.2388152959
 10
3.775
 20
8.1977451949
 10
3.8666804415
 20
8.1498079984
 10
3.9536283589
 20
8.0951562353
 10
4.0338834765
 20
8.0350220517
 10
4.1072937598
 20
7.969280908
 10
4.1740112434
 20
7.8980573437
 10
4.2325317547
 20
7.8229571227
 10
4.2826690904
 20
7.7438921822
 10
4.3246094539
 20
7.6609505849
 10
4.3574072829
 20
7.5760022824
 10
4.3807473898
 20
7.4896705918
 10
4.3949449622
 20
7.401332196
 10
4.4
 20
7.310987095
  0
LINE
  5
51B
100
AcDbEntity
  8
ASSI
100
AcDbLine
 62
7
  6
CONTINUOUS
 10
3.5440817452
 20
15.1
 11
3.5
 21
14.85
  0
LINE
  5
51C
100
AcDbEntity
  8
DRAFT
100
AcDbLine
 62
7
  6
CONTINUOUS
 10
3.5440817452
 20
15.1
 11
3.5
 21
14.85
  0
LWPOLYLINE
  5
51D
100
AcDbEntity
  8
ASSI
100
AcDbPolyline
 62
253
  6
CONTINUOUS
 90
12
 70
0
 10
-10.5868325431
 20
-24.2868630041
 10
-10.5867883651
 20
-24.2867680455
 10
-10.5867436739
 20
-24.2865248561
 10
-10.5866984697
 20
-24.2861334356
 10
-10.5866524924
 20
-24.2855977708
 10
-10.5866060019
 20
-24.2849138751
 10
-10.5865597786
 20
-24.2840697885
 10
-10.5865138136
 20
-24.2830603002
 10
-10.5864681157
 20
-24.2818906211
 10
-10.5864234918
 20
-24.2805644247
 10
-10.5863799758
 20
-24.2790771006
 10
-10.5862968707
 20
-24.2756504056
  0
LINE
  5
51E
100
AcDbEntity
  8
ASSI
100
AcDbLine
 62
7
  6
CONTINUOUS
 10
-9.0318412786
 20
-11.8075215887
 11
-8.0441256373
 21
-10.8024332407
  0
LINE
  5
51F
100
AcDbEntity
  8
0
100
AcDbLine
 62
7
  6
CONTINUOUS
 10
-9.0318412786
 20
-11.8075215887
 11
-8.0441256373
 21
-10.8024332407
  0
LINE
  5
520
100
AcDbEntity
  8
ASSI
100
AcDbLine
 62
7
  6
CONTINUOUS
 10
-8.0482618771
 20
-10.8007199541
 11
-9.0466683828
 21
-11.801380001
  0
LINE
  5
521
100
AcDbEntity
  8
0
100
AcDbLine
 62
7
  6
CONTINUOUS
 10
-8.0482618771
 20
-10.8007199541
 11
-9.0466683828
 21
-11.801380001
  0
LINE
  5
522
100
AcDbEntity
  8
ASSI
100
AcDbLine
 62
7
  6
CONTINUOUS
 10
-9.4345684598
 20
-9.8302978876
 11
-10.1041700454
 21
-10.4982727107
  0
LINE
  5
523
100
AcDbEntity
  8
0
100
AcDbLine
 62
7
  6
CONTINUOUS
 10
-9.4345684598
 20
-9.8302978876
 11
-10.1041700454
 21
-10.4982727107
  0
LINE
  5
524
100
AcDbEntity
  8
ASSI
100
AcDbLine
 62
7
  6
CONTINUOUS
 10
-9.4338858163
 20
-8.5025647127
 11
-9.5074009793
 21
-8.5515685998
  0
LINE
  5
525
100
AcDbEntity
  8
0
100
AcDbLine
 62
7
  6
CONTINUOUS
 10
-9.4338858163
 20
-8.5025647127
 11
-9.5074009793
 21
-8.5515685998
  0
LINE
  5
526
100
AcDbEntity
  8
ASSI
100
AcDbLine
 62
7
  6
CONTINUOUS
 10
11.1261859216
 20
5.0
 11
11.0738140784
 21
4.9650898701
  0
LINE
  5
527
100
AcDbEntity
  8
0
100
AcDbLine
 62
7
  6
CONTINUOUS
 10
11.1261859216
 20
5.0
 11
11.0738140784
 21
4.9650898701
  0
LWPOLYLINE
  5
528
100
AcDbEntity
  8
ASSI
100
AcDbPolyline
 62
7
  6
CONTINUOUS
 90
18
 70
0
 10
9.0
 20
0.5707839465
 10
9.110913918
 20
0.566200612
 10
9.2189113981
 20
0.5534810701
 10
9.3239924404
 20
0.532625321
 10
9.4270504333
 20
0.503299153
 10
9.5271919883
 20
0.4658367777
 10
9.6217369401
 20
0.4212408294
 10
9.7105341541
 20
0.3693186682
 10
9.7937347649
 20
0.310262934
 10
9.8691120105
 20
0.2456541808
 10
9.9364546235
 20
0.1753424511
 10
9.9959738713
 20
0.0994777024
 10
10.0460767947
 20
0.0200903612
 10
10.0865091086
 20
-0.0629146988
 10
10.117525098
 20
-0.1494423513
 10
10.1382946582
 20
-0.2371767902
 10
10.1485410874
 20
-0.3261506042
 10
10.1498218911
 20
-0.3712409045
  0
LINE
  5
529
100
AcDbEntity
  8
ASSI
100
AcDbLine
 62
7
  6
CONTINUOUS
 10
-10.1
 20
6.5
 11
-10.1907663376
 21
6.5375966481
  0
LINE
  5
52A
100
AcDbEntity
  8
0
100
AcDbLine
 62
7
  6
CONTINUOUS
 10
-10.1
 20
6.5
 11
-10.1907663376
 21
6.5375966481
  0
LINE
  5
52B
100
AcDbEntity
  8
ASSI
100
AcDbLine
 62
7
  6
CONTINUOUS
 10
11.1261859216
 20
-5.0
 11
11.0738140784
 21
-4.9650898701
  0
LINE
  5
52C
100
AcDbEntity
  8
0
100
AcDbLine
 62
7
  6
CONTINUOUS
 10
11.1261859216
 20
-5.0
 11
11.0738140784
 21
-4.9650898701
  0
LINE
  5
52D
100
AcDbEntity
  8
ASSI
100
AcDbLine
 62
7
  6
CONTINUOUS
 10
3.1173032135
 20
21.6326967865
 11
3.1270760019
 21
21.2251044884
  0
LINE
  5
52E
100
AcDbEntity
  8
ASSI
100
AcDbLine
 62
253
  6
CONTINUOUS
 10
3.1310293586
 20
21.9198621423
 11
3.1318957974
 21
21.8705942406
  0
LINE
  5
52F
100
AcDbEntity
  8
ASSI
100
AcDbLine
 62
253
  6
CONTINUOUS
 10
3.3805677578
 20
22.1766091187
 11
3.3814643926
 21
22.1207851486
  0
LINE
  5
530
100
AcDbEntity
  8
ASSI
100
AcDbLine
 62
253
  6
CONTINUOUS
 10
3.1318957974
 20
21.8705942406
 11
3.133055364
 21
21.7704586097
  0
LINE
  5
531
100
AcDbEntity
  8
ASSI
100
AcDbLine
 62
253
  6
CONTINUOUS
 10
3.3814643926
 20
22.1207851486
 11
3.3826830282
 21
22.0008673253
  0
LINE
  5
532
100
AcDbEntity
  8
ASSI
100
AcDbLine
 62
253
  6
CONTINUOUS
 10
3.133055364
 20
21.7704586097
 11
3.1344735913
 21
21.5469239675
  0
LINE
  5
533
100
AcDbEntity
  8
ASSI
100
AcDbLine
 62
253
  6
CONTINUOUS
 10
3.3826830282
 20
22.0008673253
 11
3.3844624036
 21
21.6546773209
  0
LINE
  5
534
100
AcDbEntity
  8
ASSI
100
AcDbLine
 62
7
  6
CONTINUOUS
 10
4.4552830575
 20
19.334259922
 11
4.4561916001
 21
17.8437322475
  0
LINE
  5
535
100
AcDbEntity
  8
RACCORDO
100
AcDbLine
 62
7
  6
CONTINUOUS
 10
4.4552830575
 20
19.334259922
 11
4.4561916001
 21
17.8437322475
  0
LINE
  5
536
100
AcDbEntity
  8
ASSI
100
AcDbLine
 62
253
  6
CONTINUOUS
 10
3.1344735913
 20
21.5469239675
 11
3.1351059998
 21
21.2252970227
  0
LINE
  5
537
100
AcDbEntity
  8
ASSI
100
AcDbLine
 62
7
  6
CONTINUOUS
 10
3.05
 20
-22.1325449336
 11
3.05
 21
-21.7
  0
LINE
  5
538
100
AcDbEntity
  8
ASSI
100
AcDbLine
 62
7
  6
CONTINUOUS
 10
3.05
 20
21.7
 11
3.05
 21
22.1325449336
  0
LINE
  5
539
100
AcDbEntity
  8
ASSI
100
AcDbLine
 62
7
  6
CONTINUOUS
 10
3.1351059998
 20
21.2252970227
 11
3.1351059998
 21
20.8901985088
  0
LINE
  5
53A
100
AcDbEntity
  8
ASSI
100
AcDbLine
 62
7
  6
CONTINUOUS
 10
3.1351059998
 20
-20.8901985088
 11
3.1351059998
 21
-21.2252970227
  0
LINE
  5
53B
100
AcDbEntity
  8
ASSI
100
AcDbLine
 62
253
  6
CONTINUOUS
 10
3.3844624036
 20
21.6546773209
 11
3.3850964806
 21
20.8
  0
LINE
  5
53C
100
AcDbEntity
  8
RACCORDO
100
AcDbLine
 62
7
  6
CONTINUOUS
 10
3.4
 20
15.6
 11
3.4
 21
14.2
  0
LINE
  5
53D
100
AcDbEntity
  8
ASSI
100
AcDbLine
 62
7
  6
CONTINUOUS
 10
3.5
 20
-23.7325830113
 11
3.5
 21
-22.3825449351
  0
LINE
  5
53E
100
AcDbEntity
  8
ASSI
100
AcDbLine
 62
7
  6
CONTINUOUS
 10
3.5
 20
14.0
 11
3.5
 21
14.85
  0
LINE
  5
53F
100
AcDbEntity
  8
DRAFT
100
AcDbLine
 62
7
  6
CONTINUOUS
 10
3.5
 20
14.0
 11
3.5
 21
14.85
  0
LINE
  5
540
100
AcDbEntity
  8
ASSI
100
AcDbLine
 62
7
  6
CONTINUOUS
 10
3.5
 20
22.3825449351
 11
3.5
 21
23.7325830113
  0
LINE
  5
541
100
AcDbEntity
  8
ASSI
100
AcDbLine
 62
7
  6
CONTINUOUS
 10
3.5440817452
 20
15.4965092529
 11
3.5440817452
 21
15.1
  0
LINE
  5
542
100
AcDbEntity
  8
DRAFT
100
AcDbLine
 62
7
  6
CONTINUOUS
 10
3.5440817452
 20
15.4965092529
 11
3.5440817452
 21
15.1
  0
LINE
  5
543
100
AcDbEntity
  8
ASSI
100
AcDbLine
 62
253
  6
CONTINUOUS
 10
3.5806626995
 20
23.6519203118
 11
3.5806609125
 21
22.3018840226
  0
LINE
  5
544
100
AcDbEntity
  8
ASSI
100
AcDbLine
 62
253
  6
CONTINUOUS
 10
3.5806609125
 20
-22.3018840226
 11
3.5806626995
 21
-23.6519203118
  0
LINE
  5
545
100
AcDbEntity
  8
ASSI
100
AcDbLine
 62
253
  6
CONTINUOUS
 10
3.8445737581
 20
17.4555023943
 11
3.8445737581
 21
20.0087268678
  0
LINE
  5
546
100
AcDbEntity
  8
RACCORDO
100
AcDbLine
 62
253
  6
CONTINUOUS
 10
3.8445737581
 20
17.4555023943
 11
3.8445737581
 21
20.0087268678
  0
LINE
  5
547
100
AcDbEntity
  8
ASSI
100
AcDbLine
 62
253
  6
CONTINUOUS
 10
4.3444976057
 20
17.9554262419
 11
4.3444976057
 21
20.0044395863
  0
LINE
  5
548
100
AcDbEntity
  8
RACCORDO
100
AcDbLine
 62
253
  6
CONTINUOUS
 10
4.3444976057
 20
17.9554262419
 11
4.3444976057
 21
20.0044395863
  0
LINE
  5
549
100
AcDbEntity
  8
ASSI
100
AcDbLine
 62
253
  6
CONTINUOUS
 10
4.3518840226
 20
23.6519220988
 11
4.3518840226
 21
22.3018840226
  0
LINE
  5
54A
100
AcDbEntity
  8
ASSI
100
AcDbLine
 62
253
  6
CONTINUOUS
 10
4.3518840226
 20
-22.3018840226
 11
4.3518840226
 21
-23.6519220988
  0
LINE
  5
54B
100
AcDbEntity
  8
ASSI
100
AcDbLine
 62
7
  6
CONTINUOUS
 10
4.3539971429
 20
-23.5393800954
 11
4.3539971429
 21
-22.8606199046
  0
LINE
  5
54C
100
AcDbEntity
  8
ASSI
100
AcDbLine
 62
7
  6
CONTINUOUS
 10
4.3539971429
 20
22.8606199046
 11
4.3539971429
 21
23.5393800954
  0
LINE
  5
54D
100
AcDbEntity
  8
ASSI
100
AcDbLine
 62
7
  6
CONTINUOUS
 10
4.4057426494
 20
19.7676913781
 11
4.4057426494
 21
19.9738193966
  0
LINE
  5
54E
100
AcDbEntity
  8
RACCORDO
100
AcDbLine
 62
7
  6
CONTINUOUS
 10
4.4057426494
 20
19.7676913781
 11
4.4057426494
 21
19.9738193966
  0
LINE
  5
54F
100
AcDbEntity
  8
ASSI
100
AcDbLine
 62
7
  6
CONTINUOUS
 10
4.45
 20
23.7500380762
 11
4.45
 21
23.4179449472
  0
LINE
  5
550
100
AcDbEntity
  8
ASSI
100
AcDbLine
 62
7
  6
CONTINUOUS
 10
4.45
 20
22.9820550528
 11
4.45
 21
22.4
  0
LINE
  5
551
100
AcDbEntity
  8
ASSI
100
AcDbLine
 62
7
  6
CONTINUOUS
 10
4.45
 20
-22.4
 11
4.45
 21
-22.9820550528
  0
LINE
  5
552
100
AcDbEntity
  8
ASSI
100
AcDbLine
 62
7
  6
CONTINUOUS
 10
4.45
 20
-23.4179449472
 11
4.45
 21
-23.7500380762
  0
LINE
  5
553
100
AcDbEntity
  8
ASSI
100
AcDbLine
 62
253
  6
CONTINUOUS
 10
3.3850964806
 20
-20.8
 11
3.3844624036
 21
-21.6546773209
  0
LINE
  5
554
100
AcDbEntity
  8
ASSI
100
AcDbLine
 62
253
  6
CONTINUOUS
 10
3.1351059998
 20
-21.2252970227
 11
3.1344735913
 21
-21.5469239675
  0
LINE
  5
555
100
AcDbEntity
  8
ASSI
100
AcDbLine
 62
7
  6
CONTINUOUS
 10
3.6137037861
 20
14.0
 11
3.618225368
 21
14.7234140051
  0
LINE
  5
556
100
AcDbEntity
  8
DRAFT
100
AcDbLine
 62
7
  6
CONTINUOUS
 10
3.6137037861
 20
14.0
 11
3.618225368
 21
14.7234140051
  0
LINE
  5
557
100
AcDbEntity
  8
ASSI
100
AcDbLine
 62
7
  6
CONTINUOUS
 10
4.0441923537
 20
15.7385854114
 11
4.0511995689
 21
16.8765870314
  0
LINE
  5
558
100
AcDbEntity
  8
RACCORDO
100
AcDbLine
 62
7
  6
CONTINUOUS
 10
4.0441923537
 20
15.7385854114
 11
4.0511995689
 21
16.8765870314
  0
LINE
  5
559
100
AcDbEntity
  8
ASSI
100
AcDbLine
 62
253
  6
CONTINUOUS
 10
3.3844624036
 20
-21.6546773209
 11
3.3826830282
 21
-22.0008673253
  0
LINE
  5
55A
100
AcDbEntity
  8
ASSI
100
AcDbLine
 62
253
  6
CONTINUOUS
 10
3.1344735913
 20
-21.5469239675
 11
3.133055364
 21
-21.7704586098
  0
LINE
  5
55B
100
AcDbEntity
  8
ASSI
100
AcDbLine
 62
7
  6
CONTINUOUS
 10
3.7536149133
 20
15.5068795788
 11
3.7544754303
 21
15.6
  0
LINE
  5
55C
100
AcDbEntity
  8
DRAFT
100
AcDbLine
 62
7
  6
CONTINUOUS
 10
3.7536149133
 20
15.5068795788
 11
3.7544754303
 21
15.6
  0
LINE
  5
55D
100
AcDbEntity
  8
ASSI
100
AcDbLine
 62
253
  6
CONTINUOUS
 10
3.3826830282
 20
-22.0008673253
 11
3.3814643926
 21
-22.1207851486
  0
LINE
  5
55E
100
AcDbEntity
  8
ASSI
100
AcDbLine
 62
253
  6
CONTINUOUS
 10
3.133055364
 20
-21.7704586098
 11
3.1318957974
 21
-21.8705942406
  0
LWPOLYLINE
  5
55F
100
AcDbEntity
  8
ASSI
100
AcDbPolyline
 62
253
  6
CONTINUOUS
 90
6
 70
0
 10
3.3814643926
 20
-22.1207851486
 10
3.3805677578
 20
-22.1766091187
 10
3.380103051
 20
-22.1967864891
 10
3.379632348
 20
-22.2116508462
 10
3.3791531838
 20
-22.2211208594
 10
3.3786655583
 20
-22.2251447178
  0
LWPOLYLINE
  5
560
100
AcDbEntity
  8
ASSI
100
AcDbPolyline
 62
253
  6
CONTINUOUS
 90
7
 70
0
 10
3.1318957974
 20
-21.8705942406
 10
3.1310293586
 20
-21.9198621423
 10
3.1305721233
 20
-21.9389548805
 10
3.1301072563
 20
-21.9540642408
 10
3.1296374951
 20
-21.9650871366
 10
3.1291601022
 20
-21.9721266543
 10
3.1286750776
 20
-21.975182794
  0
LINE
  5
561
100
AcDbEntity
  8
ASSI
100
AcDbLine
 62
7
  6
CONTINUOUS
 10
3.1270760019
 20
-21.2251044884
 11
3.1173032135
 21
-21.6326967865
  0
LWPOLYLINE
  5
562
100
AcDbEntity
  8
0
100
AcDbPolyline
 62
7
  6
CONTINUOUS
 90
37
 70
0
 10
4.4
 20
7.310987095
 10
4.3949449622
 20
7.220641994
 10
4.3807473898
 20
7.1323035982
 10
4.3574072829
 20
7.0459719076
 10
4.3246094539
 20
6.9610236051
 10
4.2826690904
 20
6.8780820078
 10
4.2325317547
 20
6.7990170673
 10
4.1740112434
 20
6.7239168462
 10
4.1072937598
 20
6.6526932819
 10
4.0338834765
 20
6.5869521383
 10
3.9536283589
 20
6.5268179546
 10
3.8666804415
 20
6.4721661916
 10
3.775
 20
6.4242289951
 10
3.6784795298
 20
6.383158894
 10
3.5772265355
 20
6.3488033596
 10
3.4735238064
 20
6.3219369509
 10
3.3673156941
 20
6.302729792
 10
3.258657847
 20
6.291011759
 10
3.15
 20
6.2870470396
 10
3.041342153
 20
6.291011759
 10
2.9326843059
 20
6.302729792
 10
2.8264761936
 20
6.3219369509
 10
2.7227734645
 20
6.3488033596
 10
2.6215204702
 20
6.383158894
 10
2.525
 20
6.4242289951
 10
2.4333195585
 20
6.4721661916
 10
2.3463716411
 20
6.5268179546
 10
2.2661165235
 20
6.5869521383
 10
2.1927062402
 20
6.6526932819
 10
2.1259887566
 20
6.7239168462
 10
2.0674682453
 20
6.7990170673
 10
2.0173309096
 20
6.8780820078
 10
1.9753905461
 20
6.9610236051
 10
1.9425927171
 20
7.0459719076
 10
1.9192526102
 20
7.1323035982
 10
1.9050550378
 20
7.220641994
 10
1.9
 20
7.310987095
  0
LINE
  5
563
100
AcDbEntity
  8
ASSI
100
AcDbLine
 62
7
  6
CONTINUOUS
 10
6.449051079
 20
19.334259922
 11
6.471338355
 21
19.4681025177
  0
LINE
  5
564
100
AcDbEntity
  8
RACCORDO
100
AcDbLine
 62
7
  6
CONTINUOUS
 10
6.449051079
 20
19.334259922
 11
6.471338355
 21
19.4681025177
  0
LWPOLYLINE
  5
565
100
AcDbEntity
  8
ASSI
100
AcDbPolyline
 62
7
  6
CONTINUOUS
 90
33
 70
0
 10
5.8200899979
 20
6.771888327
 10
5.758463779
 20
6.5980581124
 10
5.6795957907
 20
6.42770906
 10
5.5850040705
 20
6.2641200199
 10
5.4743840166
 20
6.1074219476
 10
5.348040231
 20
5.9574838874
 10
5.2084045575
 20
5.8171918219
 10
5.055219504
 20
5.6867326144
 10
4.8887425627
 20
5.5659194015
 10
4.7121780535
 20
5.4570775755
 10
4.525330559
 20
5.3604390477
 10
4.3283954966
 20
5.2757719068
 10
4.1251634394
 20
5.2047058117
 10
3.915512401
 20
5.1475042435
 10
3.6995643677
 20
5.1039037212
 10
3.4814758707
 20
5.0747434601
 10
3.2612054448
 20
5.0603031988
 10
3.0387945552
 20
5.0603031988
 10
2.8185241293
 20
5.0747434601
 10
2.6004356323
 20
5.1039037212
 10
2.384487599
 20
5.1475042435
 10
2.1748365606
 20
5.2047058117
 10
1.9716045034
 20
5.2757719068
 10
1.774669441
 20
5.3604390477
 10
1.5878219465
 20
5.4570775755
 10
1.4112574373
 20
5.5659194015
 10
1.244780496
 20
5.6867326144
 10
1.0915954425
 20
5.8171918219
 10
0.951959769
 20
5.9574838874
 10
0.8256159834
 20
6.1074219476
 10
0.7149959295
 20
6.2641200199
 10
0.6204042093
 20
6.42770906
 10
0.541536221
 20
6.5980581124
  0
LINE
  5
566
100
AcDbEntity
  8
ASSI
100
AcDbLine
 62
7
  6
CONTINUOUS
 10
-6.4340630273
 20
-20.7681160106
 11
-6.5872686779
 21
-21.0745506493
  0
LINE
  5
567
100
AcDbEntity
  8
RACCORDO
100
AcDbLine
 62
7
  6
CONTINUOUS
 10
-6.4340630273
 20
-20.7681160106
 11
-6.5872686779
 21
-21.0745506493
  0
LINE
  5
568
100
AcDbEntity
  8
ASSI
100
AcDbLine
 62
7
  6
CONTINUOUS
 10
10.1907663376
 20
5.0
 11
10.1558562078
 21
4.9650898701
  0
LINE
  5
569
100
AcDbEntity
  8
0
100
AcDbLine
 62
7
  6
CONTINUOUS
 10
10.1907663376
 20
5.0
 11
10.1558562078
 21
4.9650898701
  0
LINE
  5
56A
100
AcDbEntity
  8
ASSI
100
AcDbLine
 62
7
  6
CONTINUOUS
 10
-9.443483635
 20
4.0468937615
 11
-8.9
 21
4.0474658452
  0
LINE
  5
56B
100
AcDbEntity
  8
0
100
AcDbLine
 62
7
  6
CONTINUOUS
 10
-9.443483635
 20
4.0468937615
 11
-8.9
 21
4.0474658452
  0
LINE
  5
56C
100
AcDbEntity
  8
0
100
AcDbLine
 62
7
  6
CONTINUOUS
 10
-6.4
 20
3.1328016531
 11
6.4
 21
3.1328016531
  0
LINE
  5
56D
100
AcDbEntity
  8
SMUSSO
100
AcDbLine
 62
7
  6
CONTINUOUS
 10
-9.5
 20
3.4378161015
 11
-6.4
 21
3.4378161015
  0
LINE
  5
56E
100
AcDbEntity
  8
SMUSSO
100
AcDbLine
 62
7
  6
CONTINUOUS
 10
6.4
 20
3.4378161015
 11
9.5
 21
3.4378161015
  0
LINE
  5
56F
100
AcDbEntity
  8
0
100
AcDbLine
 62
7
  6
CONTINUOUS
 10
5.65
 20
3.7881232885
 11
0.65
 21
3.7881232885
  0
LINE
  5
570
100
AcDbEntity
  8
0
100
AcDbLine
 62
7
  6
CONTINUOUS
 10
-0.65
 20
3.7881232885
 11
-5.65
 21
3.7881232885
  0
LINE
  5
571
100
AcDbEntity
  8
ASSI
100
AcDbLine
 62
7
  6
CONTINUOUS
 10
9.5138332078
 20
4.0
 11
8.9
 21
4.0
  0
LINE
  5
572
100
AcDbEntity
  8
0
100
AcDbLine
 62
7
  6
CONTINUOUS
 10
9.5138332078
 20
4.0
 11
8.9
 21
4.0
  0
LINE
  5
573
100
AcDbEntity
  8
ASSI
100
AcDbLine
 62
7
  6
CONTINUOUS
 10
-8.9
 20
4.0
 11
-9.5138332078
 21
4.0
  0
LINE
  5
574
100
AcDbEntity
  8
0
100
AcDbLine
 62
7
  6
CONTINUOUS
 10
-8.9
 20
4.0
 11
-9.5138332078
 21
4.0
  0
LINE
  5
575
100
AcDbEntity
  8
0
100
AcDbLine
 62
7
  6
CONTINUOUS
 10
-5.65
 20
4.4434449239
 11
-5.15
 21
4.4434449239
  0
LINE
  5
576
100
AcDbEntity
  8
0
100
AcDbLine
 62
7
  6
CONTINUOUS
 10
-1.15
 20
4.4434449239
 11
-0.65
 21
4.4434449239
  0
LINE
  5
577
100
AcDbEntity
  8
0
100
AcDbLine
 62
7
  6
CONTINUOUS
 10
0.65
 20
4.4434449239
 11
1.15
 21
4.4434449239
  0
LINE
  5
578
100
AcDbEntity
  8
0
100
AcDbLine
 62
7
  6
CONTINUOUS
 10
5.15
 20
4.4434449239
 11
5.65
 21
4.4434449239
  0
LINE
  5
579
100
AcDbEntity
  8
ASSI
100
AcDbLine
 62
7
  6
CONTINUOUS
 10
8.9
 20
4.0474658452
 11
9.443483635
 21
4.0468937615
  0
LINE
  5
57A
100
AcDbEntity
  8
0
100
AcDbLine
 62
7
  6
CONTINUOUS
 10
8.9
 20
4.0474658452
 11
9.443483635
 21
4.0468937615
  0
LINE
  5
57B
100
AcDbEntity
  8
ASSI
100
AcDbLine
 62
7
  6
CONTINUOUS
 10
-6.5872686779
 20
21.0745506493
 11
-6.4738193966
 21
20.8476348052
  0
LINE
  5
57C
100
AcDbEntity
  8
0
100
AcDbLine
 62
7
  6
CONTINUOUS
 10
-6.5872686779
 20
21.0745506493
 11
-6.4738193966
 21
20.8476348052
  0
LWPOLYLINE
  5
57D
100
AcDbEntity
  8
ASSI
100
AcDbPolyline
 62
7
  6
CONTINUOUS
 90
5
 70
0
 10
0.541536221
 20
6.5980581124
 10
0.4799100021
 20
6.771888327
 10
0.4360315652
 20
6.948106754
 10
0.4093948979
 20
7.1278063433
 10
0.4
 20
7.310987095
  0
LWPOLYLINE
  5
57E
100
AcDbEntity
  8
ASSI
100
AcDbPolyline
 62
7
  6
CONTINUOUS
 90
13
 70
0
 10
7.2
 20
-24.300030461
 10
7.2017102642
 20
-24.3261325878
 10
7.2068124405
 20
-24.3517877661
 10
7.2152194218
 20
-24.3765572875
 10
7.2267876629
 20
-24.4000177444
 10
7.24131945
 20
-24.4217675502
 10
7.2585660278
 20
-24.4414339722
 10
7.2782324498
 20
-24.45868055
 10
7.2999822556
 20
-24.4732123371
 10
7.3234427125
 20
-24.4847805782
 10
7.3482122339
 20
-24.4931875595
 10
7.3738674122
 20
-24.4982897358
 10
7.399969539
 20
-24.5
  0
LWPOLYLINE
  5
57F
100
AcDbEntity
  8
ASSI
100
AcDbPolyline
 62
7
  6
CONTINUOUS
 90
16
 70
0
 10
4.45
 20
23.7500380762
 10
4.4486505878
 20
23.7759809831
 10
4.4445943169
 20
23.8017480173
 10
4.4378423144
 20
23.8270535846
 10
4.4283964102
 20
23.8517009881
 10
4.4163505324
 20
23.8753074461
 10
4.4019831437
 20
23.897354591
 10
4.385651735
 20
23.9174650114
 10
4.3674650114
 20
23.935651735
 10
4.347354591
 20
23.9519831437
 10
4.3253074461
 20
23.9663505324
 10
4.3017009881
 20
23.9783964102
 10
4.2770535846
 20
23.9878423144
 10
4.2517480173
 20
23.9945943169
 10
4.2259809831
 20
23.9986505878
 10
4.2000380762
 20
24.0
  0
LINE
  5
580
100
AcDbEntity
  8
ASSI
100
AcDbLine
 62
253
  6
CONTINUOUS
 10
6.5872686779
 20
-20.0914350444
 11
6.5349074712
 21
-19.0334731601
  0
LINE
  5
581
100
AcDbEntity
  8
0
100
AcDbLine
 62
253
  6
CONTINUOUS
 10
6.5872686779
 20
-20.0914350444
 11
6.5349074712
 21
-19.0334731601
  0
LINE
  5
582
100
AcDbEntity
  8
ASSI
100
AcDbLine
 62
253
  6
CONTINUOUS
 10
6.88682548
 20
-19.7872686779
 11
6.8344642733
 21
-18.7293067937
  0
LINE
  5
583
100
AcDbEntity
  8
0
100
AcDbLine
 62
253
  6
CONTINUOUS
 10
6.88682548
 20
-19.7872686779
 11
6.8344642733
 21
-18.7293067937
  0
LINE
  5
584
100
AcDbEntity
  8
ASSI
100
AcDbLine
 62
253
  6
CONTINUOUS
 10
7.2
 20
-23.3515746082
 11
7.2136512619
 21
-23.803306087
  0
LWPOLYLINE
  5
585
100
AcDbEntity
  8
ASSI
100
AcDbPolyline
 62
7
  6
CONTINUOUS
 90
5
 70
0
 10
6.4323672196
 20
-20.7250413059
 10
6.4327767975
 20
-20.743254398
 10
6.4331935225
 20
-20.7563672314
 10
6.4336222657
 20
-20.7646544356
 10
6.4340630273
 20
-20.7681160106
  0
LWPOLYLINE
  5
586
100
AcDbEntity
  8
RACCORDO
100
AcDbPolyline
 62
7
  6
CONTINUOUS
 90
5
 70
0
 10
6.4323672196
 20
-20.7250413059
 10
6.4327767975
 20
-20.743254398
 10
6.4331935225
 20
-20.7563672314
 10
6.4336222657
 20
-20.7646544356
 10
6.4340630273
 20
-20.7681160106
  0
LINE
  5
587
100
AcDbEntity
  8
ASSI
100
AcDbLine
 62
7
  6
CONTINUOUS
 10
6.4315987325
 20
-20.6749621226
 11
6.4323672196
 21
-20.7250413059
  0
LINE
  5
588
100
AcDbEntity
  8
RACCORDO
100
AcDbLine
 62
7
  6
CONTINUOUS
 10
6.4315987325
 20
-20.6749621226
 11
6.4323672196
 21
-20.7250413059
  0
LINE
  5
589
100
AcDbEntity
  8
ASSI
100
AcDbLine
 62
7
  6
CONTINUOUS
 10
6.4306603558
 20
-20.5706541801
 11
6.4315987325
 21
-20.6749621226
  0
LINE
  5
58A
100
AcDbEntity
  8
RACCORDO
100
AcDbLine
 62
7
  6
CONTINUOUS
 10
6.4306603558
 20
-20.5706541801
 11
6.4315987325
 21
-20.6749621226
  0
LINE
  5
58B
100
AcDbEntity
  8
ASSI
100
AcDbLine
 62
7
  6
CONTINUOUS
 10
6.4298186903
 20
-20.3421858226
 11
6.4306603558
 21
-20.5706541801
  0
LWPOLYLINE
  5
58C
100
AcDbEntity
  8
RACCORDO
100
AcDbPolyline
 62
7
  6
CONTINUOUS
 90
3
 70
0
 10
6.4297751319
 20
-20.2918660329
 10
6.4298186903
 20
-20.3421858226
 10
6.4306603558
 20
-20.5706541801
  0
LINE
  5
58D
100
AcDbEntity
  8
ASSI
100
AcDbLine
 62
7
  6
CONTINUOUS
 10
6.4298186903
 20
-20.3421858226
 11
6.4293225083
 21
-19.1687755773
  0
LINE
  5
58E
100
AcDbEntity
  8
0
100
AcDbLine
 62
7
  6
CONTINUOUS
 10
6.4297751319
 20
-20.2918660329
 11
6.4293225083
 21
-19.1687755773
  0
LINE
  5
58F
100
AcDbEntity
  8
SMUSSO
100
AcDbLine
 62
7
  6
CONTINUOUS
 10
5.1
 20
5.0365163334
 11
5.1
 21
3.7881232885
  0
LINE
  5
590
100
AcDbEntity
  8
ASSI
100
AcDbLine
 62
7
  6
CONTINUOUS
 10
5.1254493507
 20
-21.0745506493
 11
5.1254493507
 21
-20.0872686779
  0
LINE
  5
591
100
AcDbEntity
  8
ASSI
100
AcDbLine
 62
7
  6
CONTINUOUS
 10
5.1254493507
 20
20.0872686779
 11
5.1254493507
 21
21.0745506493
  0
LINE
  5
592
100
AcDbEntity
  8
ASSI
100
AcDbLine
 62
7
  6
CONTINUOUS
 10
5.15
 20
5.0774770094
 11
5.15
 21
4.4434449239
  0
LINE
  5
593
100
AcDbEntity
  8
0
100
AcDbLine
 62
7
  6
CONTINUOUS
 10
5.15
 20
4.4434449239
 11
5.15
 21
3.7881232885
  0
LINE
  5
594
100
AcDbEntity
  8
ASSI
100
AcDbLine
 62
7
  6
CONTINUOUS
 10
5.3523651948
 20
19.9738193966
 11
5.3523651948
 21
20.8476348052
  0
LINE
  5
595
100
AcDbEntity
  8
0
100
AcDbLine
 62
7
  6
CONTINUOUS
 10
5.3523651948
 20
19.9738193966
 11
5.3523651948
 21
20.8476348052
  0
LINE
  5
596
100
AcDbEntity
  8
0
100
AcDbLine
 62
7
  6
CONTINUOUS
 10
5.65
 20
4.4434449239
 11
5.65
 21
3.7881232885
  0
LINE
  5
597
100
AcDbEntity
  8
ASSI
100
AcDbLine
 62
7
  6
CONTINUOUS
 10
5.65
 20
8.2934595321
 11
5.65
 21
8.3459582988
  0
LINE
  5
598
100
AcDbEntity
  8
0
100
AcDbLine
 62
7
  6
CONTINUOUS
 10
5.9
 20
-0.165262856
 11
5.9
 21
-2.0499925792
  0
LINE
  5
599
100
AcDbEntity
  8
SMUSSO
100
AcDbLine
 62
7
  6
CONTINUOUS
 10
5.9
 20
6.6226953714
 11
5.9
 21
7.310987095
  0
LINE
  5
59A
100
AcDbEntity
  8
ASSI
100
AcDbLine
 62
7
  6
CONTINUOUS
 10
6.25
 20
-4.9742973752
 11
6.25
 21
-13.8475670731
  0
LINE
  5
59B
100
AcDbEntity
  8
ASSI
100
AcDbLine
 62
7
  6
CONTINUOUS
 10
6.3258467315
 20
-15.764526841
 11
6.3258467315
 21
-15.8009747569
  0
LINE
  5
59C
100
AcDbEntity
  8
0
100
AcDbLine
 62
7
  6
CONTINUOUS
 10
6.3258467315
 20
-15.764526841
 11
6.3258467315
 21
-15.8009747569
  0
LINE
  5
59D
100
AcDbEntity
  8
ASSI
100
AcDbLine
 62
7
  6
CONTINUOUS
 10
6.3516319481
 20
-17.3215691524
 11
6.3516319481
 21
-16.4183680519
  0
LINE
  5
59E
100
AcDbEntity
  8
0
100
AcDbLine
 62
7
  6
CONTINUOUS
 10
6.3516319481
 20
-17.3215691524
 11
6.3516319481
 21
-16.4183680519
  0
LINE
  5
59F
100
AcDbEntity
  8
0
100
AcDbLine
 62
7
  6
CONTINUOUS
 10
6.4
 20
-3.6636541043
 11
6.4
 21
3.1328016531
  0
LINE
  5
5A0
100
AcDbEntity
  8
ASSI
100
AcDbLine
 62
7
  6
CONTINUOUS
 10
6.4
 20
3.1328016531
 11
6.4
 21
9.6037627922
  0
LINE
  5
5A1
100
AcDbEntity
  8
ASSI
100
AcDbLine
 62
7
  6
CONTINUOUS
 10
6.4738193966
 20
20.8476348052
 11
6.4738193966
 21
19.7676913781
  0
LINE
  5
5A2
100
AcDbEntity
  8
RACCORDO
100
AcDbLine
 62
7
  6
CONTINUOUS
 10
6.4738193966
 20
20.8476348052
 11
6.4738193966
 21
19.7676913781
  0
LINE
  5
5A3
100
AcDbEntity
  8
ASSI
100
AcDbLine
 62
7
  6
CONTINUOUS
 10
6.5
 20
-15.8915786577
 11
6.5
 21
-16.27
  0
LINE
  5
5A4
100
AcDbEntity
  8
0
100
AcDbLine
 62
7
  6
CONTINUOUS
 10
6.5
 20
-15.8915786577
 11
6.5
 21
-16.27
  0
LINE
  5
5A5
100
AcDbEntity
  8
ASSI
100
AcDbLine
 62
7
  6
CONTINUOUS
 10
6.5349074712
 20
-19.0334731601
 11
6.5349074712
 21
-17.3215691524
  0
LINE
  5
5A6
100
AcDbEntity
  8
0
100
AcDbLine
 62
7
  6
CONTINUOUS
 10
6.5349074712
 20
-19.0334731601
 11
6.5349074712
 21
-17.3215691524
  0
LINE
  5
5A7
100
AcDbEntity
  8
0
100
AcDbLine
 62
7
  6
CONTINUOUS
 10
6.55
 20
3.4378161015
 11
6.55
 21
4.6664591652
  0
LINE
  5
5A8
100
AcDbEntity
  8
ASSI
100
AcDbLine
 62
7
  6
CONTINUOUS
 10
6.5872686779
 20
21.0745506493
 11
6.5872686779
 21
20.0914350444
  0
LINE
  5
5A9
100
AcDbEntity
  8
RACCORDO
100
AcDbLine
 62
7
  6
CONTINUOUS
 10
6.5872686779
 20
21.0745506493
 11
6.5872686779
 21
20.0914350444
  0
LINE
  5
5AA
100
AcDbEntity
  8
ASSI
100
AcDbLine
 62
7
  6
CONTINUOUS
 10
6.5872686779
 20
-20.0914350444
 11
6.5872686779
 21
-21.0745506493
  0
LINE
  5
5AB
100
AcDbEntity
  8
RACCORDO
100
AcDbLine
 62
7
  6
CONTINUOUS
 10
6.5872686779
 20
-20.0914350444
 11
6.5872686779
 21
-21.0745506493
  0
LINE
  5
5AC
100
AcDbEntity
  8
ASSI
100
AcDbLine
 62
7
  6
CONTINUOUS
 10
6.4484269128
 20
17.2861273647
 11
6.449051079
 21
19.334259922
  0
LINE
  5
5AD
100
AcDbEntity
  8
RACCORDO
100
AcDbLine
 62
7
  6
CONTINUOUS
 10
6.4484269128
 20
17.2861273647
 11
6.449051079
 21
19.334259922
  0
LINE
  5
5AE
100
AcDbEntity
  8
ASSI
100
AcDbLine
 62
7
  6
CONTINUOUS
 10
5.4408760971
 20
-20.3907641744
 11
5.4414386569
 21
-19.9292860574
  0
LINE
  5
5AF
100
AcDbEntity
  8
RACCORDO
100
AcDbLine
 62
7
  6
CONTINUOUS
 10
5.4408760971
 20
-20.3907641744
 11
5.4414386569
 21
-19.9292860574
  0
LINE
  5
5B0
100
AcDbEntity
  8
ASSI
100
AcDbLine
 62
7
  6
CONTINUOUS
 10
6.4293225083
 20
-19.1687755773
 11
6.4438534812
 21
-17.5036910024
  0
LINE
  5
5B1
100
AcDbEntity
  8
0
100
AcDbLine
 62
7
  6
CONTINUOUS
 10
6.4293225083
 20
-19.1687755773
 11
6.4438534812
 21
-17.5036910024
  0
LINE
  5
5B2
100
AcDbEntity
  8
ASSI
100
AcDbLine
 62
7
  6
CONTINUOUS
 10
5.439855944
 20
-20.5287810647
 11
5.4408760971
 21
-20.3907641744
  0
LINE
  5
5B3
100
AcDbEntity
  8
RACCORDO
100
AcDbLine
 62
7
  6
CONTINUOUS
 10
5.439855944
 20
-20.5287810647
 11
5.4408760971
 21
-20.3907641744
  0
LINE
  5
5B4
100
AcDbEntity
  8
ASSI
100
AcDbLine
 62
7
  6
CONTINUOUS
 10
6.3091978363
 20
-14.9399894222
 11
6.3225496058
 21
-13.8475670731
  0
LINE
  5
5B5
100
AcDbEntity
  8
0
100
AcDbLine
 62
7
  6
CONTINUOUS
 10
6.3091978363
 20
-14.9399894222
 11
6.3225496058
 21
-13.8475670731
  0
LINE
  5
5B6
100
AcDbEntity
  8
ASSI
100
AcDbLine
 62
7
  6
CONTINUOUS
 10
6.3442735424
 20
-14.1622823604
 11
6.3267937453
 21
-15.5924539101
  0
LINE
  5
5B7
100
AcDbEntity
  8
0
100
AcDbLine
 62
7
  6
CONTINUOUS
 10
6.3442735424
 20
-14.1622823604
 11
6.3267937453
 21
-15.5924539101
  0
LINE
  5
5B8
100
AcDbEntity
  8
ASSI
100
AcDbLine
 62
7
  6
CONTINUOUS
 10
5.4388013741
 20
-20.6084223907
 11
5.439855944
 21
-20.5287810647
  0
LINE
  5
5B9
100
AcDbEntity
  8
RACCORDO
100
AcDbLine
 62
7
  6
CONTINUOUS
 10
5.4388013741
 20
-20.6084223907
 11
5.439855944
 21
-20.5287810647
  0
LINE
  5
5BA
100
AcDbEntity
  8
ASSI
100
AcDbLine
 62
253
  6
CONTINUOUS
 10
7.2136672809
 20
23.803974686
 11
7.2135886019
 21
23.8010362971
  0
LINE
  5
5BB
100
AcDbEntity
  8
ASSI
100
AcDbLine
 62
253
  6
CONTINUOUS
 10
7.2135886019
 20
23.8010362971
 11
7.2
 21
23.3515746082
  0
LWPOLYLINE
  5
5BC
100
AcDbEntity
  8
SMUSSO
100
AcDbPolyline
 62
7
  6
CONTINUOUS
 90
43
 70
0
 10
5.9
 20
6.6226953714
 10
5.8923123308
 20
6.4543739167
 10
5.8692917889
 20
6.2869907462
 10
5.8310663164
 20
6.1214818074
 10
5.777848838
 20
5.958772521
 10
5.7099361994
 20
5.7997729874
 10
5.6277076304
 20
5.645372864
 10
5.5316222653
 20
5.4964356664
 10
5.4222168872
 20
5.3537946355
 10
5.3001033249
 20
5.2182483358
 10
5.1659641788
 20
5.0905550805
 10
5.0205492168
 20
4.9714291776
 10
4.8646718465
 20
4.8615374389
 10
4.6992036806
 20
4.7614946855
 10
4.5250699084
 20
4.671860615
 10
4.3432446585
 20
4.5931369199
 10
4.1547447328
 20
4.525764051
 10
3.9606243371
 20
4.4701190033
 10
3.761969622
 20
4.4265132705
 10
3.5598916521
 20
4.3951908299
 10
3.3555206363
 20
4.3763269571
 10
3.1500001252
 20
4.3700272496
 10
2.9444796179
 20
4.3763269415
 10
2.740108609
 20
4.3951907977
 10
2.5380306419
 20
4.4265132212
 10
2.339375921
 20
4.4701189381
 10
2.1452555158
 20
4.5257639711
 10
1.9567555836
 20
4.5931368244
 10
1.7749303336
 20
4.6718605005
 10
1.6007965631
 20
4.7614945494
 10
1.435328395
 20
4.8615372811
 10
1.2794510189
 20
4.9714289984
 10
1.1340360475
 20
5.0905548806
 10
0.9998968842
 20
5.2182481209
 10
0.8777832989
 20
5.3537944118
 10
0.7683778932
 20
5.4964354416
 10
0.6722924934
 20
5.6453726534
 10
0.5900638814
 20
5.7997728187
 10
0.522151203
 20
5.9587724121
 10
0.4689336997
 20
6.1214817495
 10
0.4307082159
 20
6.2869907197
 10
0.4076876698
 20
6.4543739097
 10
0.4
 20
6.6226953714
  0
LINE
  5
5BD
100
AcDbEntity
  8
ASSI
100
AcDbLine
 62
253
  6
CONTINUOUS
 10
6.5872686779
 20
20.0914350444
 11
6.4484269128
 21
17.2861273647
  0
LINE
  5
5BE
100
AcDbEntity
  8
RACCORDO
100
AcDbLine
 62
253
  6
CONTINUOUS
 10
6.5872686779
 20
20.0914350444
 11
6.4484269128
 21
17.2861273647
  0
LINE
  5
5BF
100
AcDbEntity
  8
ASSI
100
AcDbLine
 62
253
  6
CONTINUOUS
 10
6.88682548
 20
19.7872686779
 11
6.7478904463
 21
16.980076498
  0
LINE
  5
5C0
100
AcDbEntity
  8
RACCORDO
100
AcDbLine
 62
253
  6
CONTINUOUS
 10
6.88682548
 20
19.7872686779
 11
6.7478904463
 21
16.980076498
  0
LWPOLYLINE
  5
5C1
100
AcDbEntity
  8
ASSI
100
AcDbPolyline
 62
7
  6
CONTINUOUS
 90
4
 70
0
 10
5.9
 20
7.310987095
 10
5.8906051021
 20
7.1278063433
 10
5.8639684348
 20
6.948106754
 10
5.8200899979
 20
6.771888327
  0
LWPOLYLINE
  5
5C2
100
AcDbEntity
  8
ASSI
100
AcDbPolyline
 62
7
  6
CONTINUOUS
 90
16
 70
0
 10
4.45
 20
-23.7500380762
 10
4.4486505878
 20
-23.7759809831
 10
4.4445943169
 20
-23.8017480173
 10
4.4378423144
 20
-23.8270535846
 10
4.4283964102
 20
-23.8517009881
 10
4.4163505324
 20
-23.8753074461
 10
4.4019831437
 20
-23.897354591
 10
4.385651735
 20
-23.9174650114
 10
4.3674650114
 20
-23.935651735
 10
4.347354591
 20
-23.9519831437
 10
4.3253074461
 20
-23.9663505324
 10
4.3017009881
 20
-23.9783964102
 10
4.2770535846
 20
-23.9878423144
 10
4.2517480173
 20
-23.9945943169
 10
4.2259809831
 20
-23.9986505878
 10
4.2000380762
 20
-24.0
  0
LWPOLYLINE
  5
5C3
100
AcDbEntity
  8
ASSI
100
AcDbPolyline
 62
7
  6
CONTINUOUS
 90
13
 70
0
 10
7.2
 20
24.300030461
 10
7.2017102642
 20
24.3261325878
 10
7.2068124405
 20
24.3517877661
 10
7.2152194218
 20
24.3765572875
 10
7.2267876629
 20
24.4000177444
 10
7.24131945
 20
24.4217675502
 10
7.2585660278
 20
24.4414339722
 10
7.2782324498
 20
24.45868055
 10
7.2999822556
 20
24.4732123371
 10
7.3234427125
 20
24.4847805782
 10
7.3482122339
 20
24.4931875594
 10
7.3738674122
 20
24.4982897358
 10
7.399969539
 20
24.5
  0
LINE
  5
5C4
100
AcDbEntity
  8
0
100
AcDbLine
 62
7
  6
CONTINUOUS
 10
-6.55
 20
4.6664591652
 11
-6.4
 21
4.6664591652
  0
LINE
  5
5C5
100
AcDbEntity
  8
0
100
AcDbLine
 62
7
  6
CONTINUOUS
 10
6.4
 20
4.6664591652
 11
6.55
 21
4.6664591652
  0
LINE
  5
5C6
100
AcDbEntity
  8
ASSI
100
AcDbLine
 62
7
  6
CONTINUOUS
 10
11.0738140784
 20
4.9650898701
 11
10.1558562078
 21
4.9650898701
  0
LINE
  5
5C7
100
AcDbEntity
  8
0
100
AcDbLine
 62
7
  6
CONTINUOUS
 10
11.0738140784
 20
4.9650898701
 11
10.1558562078
 21
4.9650898701
  0
LINE
  5
5C8
100
AcDbEntity
  8
ASSI
100
AcDbLine
 62
7
  6
CONTINUOUS
 10
-10.1558562078
 20
4.9650898701
 11
-11.0738140784
 21
4.9650898701
  0
LINE
  5
5C9
100
AcDbEntity
  8
0
100
AcDbLine
 62
7
  6
CONTINUOUS
 10
-10.1558562078
 20
4.9650898701
 11
-11.0738140784
 21
4.9650898701
  0
LINE
  5
5CA
100
AcDbEntity
  8
ASSI
100
AcDbLine
 62
7
  6
CONTINUOUS
 10
-11.1261859216
 20
5.0
 11
-10.1907663376
 21
5.0
  0
LINE
  5
5CB
100
AcDbEntity
  8
0
100
AcDbLine
 62
7
  6
CONTINUOUS
 10
-11.1261859216
 20
5.0
 11
-10.1907663376
 21
5.0
  0
LINE
  5
5CC
100
AcDbEntity
  8
ASSI
100
AcDbLine
 62
7
  6
CONTINUOUS
 10
11.1261859216
 20
5.0
 11
10.1907663376
 21
5.0
  0
LINE
  5
5CD
100
AcDbEntity
  8
0
100
AcDbLine
 62
7
  6
CONTINUOUS
 10
11.1261859216
 20
5.0
 11
10.1907663376
 21
5.0
  0
LINE
  5
5CE
100
AcDbEntity
  8
0
100
AcDbLine
 62
7
  6
CONTINUOUS
 10
-8.9
 20
5.8951872317
 11
-6.4
 21
5.8951872317
  0
LINE
  5
5CF
100
AcDbEntity
  8
0
100
AcDbLine
 62
7
  6
CONTINUOUS
 10
6.4
 20
5.8951872317
 11
8.9
 21
5.8951872317
  0
LWPOLYLINE
  5
5D0
100
AcDbEntity
  8
ASSI
100
AcDbPolyline
 62
253
  6
CONTINUOUS
 90
6
 70
0
 10
3.1286750776
 20
21.975182794
 10
3.1291601022
 20
21.9721266543
 10
3.1296374951
 20
21.9650871366
 10
3.1301072563
 20
21.9540642408
 10
3.1305721233
 20
21.9389548805
 10
3.1310293586
 20
21.9198621423
  0
LWPOLYLINE
  5
5D1
100
AcDbEntity
  8
ASSI
100
AcDbPolyline
 62
253
  6
CONTINUOUS
 90
5
 70
0
 10
3.3786655583
 20
22.2251447178
 10
3.3791531838
 20
22.2211208594
 10
3.379632348
 20
22.2116508462
 10
3.380103051
 20
22.1967864891
 10
3.3805677578
 20
22.1766091187
  0
LWPOLYLINE
  5
5D2
100
AcDbEntity
  8
ASSI
100
AcDbPolyline
 62
253
  6
CONTINUOUS
 90
13
 70
0
 10
10.5864113981
 20
-23.8010362971
 10
10.5844931699
 20
-23.7785532945
 10
10.5792239148
 20
-23.7564505722
 10
10.5706927301
 20
-23.7351021181
 10
10.5590439164
 20
-23.7148691803
 10
10.5444745183
 20
-23.696094117
 10
10.527230975
 20
-23.679094612
 10
10.5076049743
 20
-23.6641583365
 10
10.4859285811
 20
-23.6515381048
 10
10.4625686032
 20
-23.6414475446
 10
10.4379203238
 20
-23.6340574509
 10
10.4124007994
 20
-23.6294929132
 10
10.386441859
 20
-23.6278312189
  0
LINE
  5
5D3
100
AcDbEntity
  8
ASSI
100
AcDbLine
 62
253
  6
CONTINUOUS
 10
7.0521095537
 20
16.980076498
 11
6.91317452
 21
19.7872686779
  0
LINE
  5
5D4
100
AcDbEntity
  8
RACCORDO
100
AcDbLine
 62
253
  6
CONTINUOUS
 10
7.0521095537
 20
16.980076498
 11
6.91317452
 21
19.7872686779
  0
LINE
  5
5D5
100
AcDbEntity
  8
ASSI
100
AcDbLine
 62
253
  6
CONTINUOUS
 10
7.3515730872
 20
17.2861273647
 11
7.2127313221
 21
20.0914350444
  0
LINE
  5
5D6
100
AcDbEntity
  8
RACCORDO
100
AcDbLine
 62
253
  6
CONTINUOUS
 10
7.3515730872
 20
17.2861273647
 11
7.2127313221
 21
20.0914350444
  0
LINE
  5
5D7
100
AcDbEntity
  8
ASSI
100
AcDbLine
 62
253
  6
CONTINUOUS
 10
7.3982849591
 20
-23.1226497308
 11
7.4135581657
 21
-23.6278320349
  0
LINE
  5
5D8
100
AcDbEntity
  8
ASSI
100
AcDbLine
 62
7
  6
CONTINUOUS
 10
8.5131674569
 20
-23.5581814706
 11
8.5
 21
-23.1226497308
  0
LINE
  5
5D9
100
AcDbEntity
  8
ASSI
100
AcDbLine
 62
253
  6
CONTINUOUS
 10
7.2135653227
 20
24.2809148341
 11
7.2136518311
 21
24.2778659474
  0
LINE
  5
5DA
100
AcDbEntity
  8
ASSI
100
AcDbLine
 62
253
  6
CONTINUOUS
 10
7.2136518311
 20
24.2778659474
 11
7.2137325895
 21
24.2742093653
  0
LINE
  5
5DB
100
AcDbEntity
  8
ASSI
100
AcDbLine
 62
253
  6
CONTINUOUS
 10
7.2136512619
 20
-23.803306087
 11
7.2137434171
 21
-23.8075546465
  0
LINE
  5
5DC
100
AcDbEntity
  8
ASSI
100
AcDbLine
 62
253
  6
CONTINUOUS
 10
7.2137434171
 20
-23.8075546465
 11
7.2138297068
 21
-23.8128159526
  0
LINE
  5
5DD
100
AcDbEntity
  8
ASSI
100
AcDbLine
 62
253
  6
CONTINUOUS
 10
7.2137325895
 20
24.2742093653
 11
7.2138395669
 21
24.2676794682
  0
LINE
  5
5DE
100
AcDbEntity
  8
ASSI
100
AcDbLine
 62
253
  6
CONTINUOUS
 10
7.4132648385
 20
24.483491763
 11
7.4133545273
 21
24.4778273329
  0
LINE
  5
5DF
100
AcDbEntity
  8
ASSI
100
AcDbLine
 62
7
  6
CONTINUOUS
 10
8.051597145
 20
-10.4524775147
 11
8.0484360699
 21
-10.193842946
  0
LINE
  5
5E0
100
AcDbEntity
  8
0
100
AcDbLine
 62
7
  6
CONTINUOUS
 10
8.051597145
 20
-10.4524775147
 11
8.0484360699
 21
-10.193842946
  0
LINE
  5
5E1
100
AcDbEntity
  8
ASSI
100
AcDbLine
 62
253
  6
CONTINUOUS
 10
7.2138297068
 20
-23.8128159526
 11
7.2139267188
 21
-23.8212891561
  0
LINE
  5
5E2
100
AcDbEntity
  8
ASSI
100
AcDbLine
 62
7
  6
CONTINUOUS
 10
7.6513850867
 20
15.5068795788
 11
7.6505245697
 21
15.6
  0
LINE
  5
5E3
100
AcDbEntity
  8
DRAFT
100
AcDbLine
 62
7
  6
CONTINUOUS
 10
7.6513850867
 20
15.5068795788
 11
7.6505245697
 21
15.6
  0
LINE
  5
5E4
100
AcDbEntity
  8
ASSI
100
AcDbLine
 62
253
  6
CONTINUOUS
 10
7.2138395669
 20
24.2676794682
 11
7.2139481065
 21
24.2573857657
  0
LINE
  5
5E5
100
AcDbEntity
  8
ASSI
100
AcDbLine
 62
253
  6
CONTINUOUS
 10
7.4133545273
 20
24.4778273329
 11
7.4134903997
 21
24.4634923985
  0
LINE
  5
5E6
100
AcDbEntity
  8
ASSI
100
AcDbLine
 62
7
  6
CONTINUOUS
 10
7.3516181903
 20
17.1381978935
 11
7.3608076463
 21
15.7385854114
  0
LINE
  5
5E7
100
AcDbEntity
  8
RACCORDO
100
AcDbLine
 62
7
  6
CONTINUOUS
 10
7.3516181903
 20
17.1381978935
 11
7.3608076463
 21
15.7385854114
  0
LINE
  5
5E8
100
AcDbEntity
  8
ASSI
100
AcDbLine
 62
7
  6
CONTINUOUS
 10
7.7562925989
 20
14.6852790689
 11
7.7560360581
 21
14.7295016421
  0
LINE
  5
5E9
100
AcDbEntity
  8
DRAFT
100
AcDbLine
 62
7
  6
CONTINUOUS
 10
7.7562925989
 20
14.6852790689
 11
7.7560360581
 21
14.7295016421
  0
LINE
  5
5EA
100
AcDbEntity
  8
ASSI
100
AcDbLine
 62
253
  6
CONTINUOUS
 10
7.2139267188
 20
-23.8212891561
 11
7.2140049359
 21
-23.8336902665
  0
LINE
  5
5EB
100
AcDbEntity
  8
ASSI
100
AcDbLine
 62
253
  6
CONTINUOUS
 10
7.2139481065
 20
24.2573857657
 11
7.2140107016
 21
24.245876294
  0
LINE
  5
5EC
100
AcDbEntity
  8
ASSI
100
AcDbLine
 62
253
  6
CONTINUOUS
 10
7.4134903997
 20
24.4634923985
 11
7.4138090971
 21
24.3909111467
  0
LINE
  5
5ED
100
AcDbEntity
  8
ASSI
100
AcDbLine
 62
253
  6
CONTINUOUS
 10
7.4135581457
 20
-23.6278320349
 11
7.4139340696
 21
-23.7529212894
  0
LINE
  5
5EE
100
AcDbEntity
  8
ASSI
100
AcDbLine
 62
7
  6
CONTINUOUS
 10
7.350948921
 20
19.334259922
 11
7.3515730872
 21
17.2861273647
  0
LINE
  5
5EF
100
AcDbEntity
  8
RACCORDO
100
AcDbLine
 62
7
  6
CONTINUOUS
 10
7.350948921
 20
19.334259922
 11
7.3515730872
 21
17.2861273647
  0
LINE
  5
5F0
100
AcDbEntity
  8
ASSI
100
AcDbLine
 62
7
  6
CONTINUOUS
 10
8.0514926785
 20
-10.193842946
 11
8.051597145
 21
-10.4524775147
  0
LINE
  5
5F1
100
AcDbEntity
  8
0
100
AcDbLine
 62
7
  6
CONTINUOUS
 10
8.0514926785
 20
-10.193842946
 11
8.051597145
 21
-10.4524775147
  0
LINE
  5
5F2
100
AcDbEntity
  8
ASSI
100
AcDbLine
 62
7
  6
CONTINUOUS
 10
7.2
 20
-24.300030461
 11
7.2
 21
-22.4
  0
LINE
  5
5F3
100
AcDbEntity
  8
ASSI
100
AcDbLine
 62
7
  6
CONTINUOUS
 10
7.2
 20
22.4
 11
7.2
 21
24.300030461
  0
LINE
  5
5F4
100
AcDbEntity
  8
ASSI
100
AcDbLine
 62
7
  6
CONTINUOUS
 10
7.2127313221
 20
20.9872686779
 11
7.2127313221
 21
20.0914350444
  0
LINE
  5
5F5
100
AcDbEntity
  8
RACCORDO
100
AcDbLine
 62
7
  6
CONTINUOUS
 10
7.2127313221
 20
20.9872686779
 11
7.2127313221
 21
20.0914350444
  0
LINE
  5
5F6
100
AcDbEntity
  8
ASSI
100
AcDbLine
 62
7
  6
CONTINUOUS
 10
7.2127313221
 20
-20.0914350444
 11
7.2127313221
 21
-20.9872686779
  0
LINE
  5
5F7
100
AcDbEntity
  8
RACCORDO
100
AcDbLine
 62
7
  6
CONTINUOUS
 10
7.2127313221
 20
-20.0914350444
 11
7.2127313221
 21
-20.9872686779
  0
LINE
  5
5F8
100
AcDbEntity
  8
0
100
AcDbLine
 62
7
  6
CONTINUOUS
 10
7.25
 20
-15.8722496659
 11
7.25
 21
-10.193842946
  0
LINE
  5
5F9
100
AcDbEntity
  8
ASSI
100
AcDbLine
 62
7
  6
CONTINUOUS
 10
7.2650925288
 20
-19.0334731601
 11
7.2650925288
 21
-16.9183680548
  0
LINE
  5
5FA
100
AcDbEntity
  8
0
100
AcDbLine
 62
7
  6
CONTINUOUS
 10
7.2650925288
 20
-19.0334731601
 11
7.2650925288
 21
-16.9183680548
  0
LINE
  5
5FB
100
AcDbEntity
  8
ASSI
100
AcDbLine
 62
7
  6
CONTINUOUS
 10
7.3261806034
 20
20.8738193966
 11
7.3261806034
 21
19.7676913781
  0
LINE
  5
5FC
100
AcDbEntity
  8
RACCORDO
100
AcDbLine
 62
7
  6
CONTINUOUS
 10
7.3261806034
 20
20.8738193966
 11
7.3261806034
 21
19.7676913781
  0
LINE
  5
5FD
100
AcDbEntity
  8
ASSI
100
AcDbLine
 62
7
  6
CONTINUOUS
 10
7.3392709051
 20
-16.7700000029
 11
7.3392709051
 21
-20.8607290949
  0
LINE
  5
5FE
100
AcDbEntity
  8
0
100
AcDbLine
 62
7
  6
CONTINUOUS
 10
7.3392709051
 20
-16.7700000029
 11
7.3392709051
 21
-20.8607290949
  0
LINE
  5
5FF
100
AcDbEntity
  8
ASSI
100
AcDbLine
 62
253
  6
CONTINUOUS
 10
7.4139340696
 20
-23.7529212894
 11
7.4139945176
 21
-23.8443375673
  0
LINE
  5
600
100
AcDbEntity
  8
ASSI
100
AcDbLine
 62
7
  6
CONTINUOUS
 10
7.7903874625
 20
15.4941426185
 11
7.7903874625
 21
14.6886542078
  0
LINE
  5
601
100
AcDbEntity
  8
DRAFT
100
AcDbLine
 62
7
  6
CONTINUOUS
 10
7.7903874625
 20
15.4941426185
 11
7.7903874625
 21
14.6886542078
  0
LINE
  5
602
100
AcDbEntity
  8
ASSI
100
AcDbLine
 62
7
  6
CONTINUOUS
 10
7.9819252468
 20
-18.471802514
 11
7.9819252468
 21
-20.8607290949
  0
LINE
  5
603
100
AcDbEntity
  8
0
100
AcDbLine
 62
7
  6
CONTINUOUS
 10
7.9819252468
 20
-18.471802514
 11
7.9819252468
 21
-20.8607290949
  0
LINE
  5
604
100
AcDbEntity
  8
ASSI
100
AcDbLine
 62
7
  6
CONTINUOUS
 10
8.0579942858
 20
21.2252970227
 11
8.0579942858
 21
20.9872686779
  0
LINE
  5
605
100
AcDbEntity
  8
ASSI
100
AcDbLine
 62
7
  6
CONTINUOUS
 10
8.0579942858
 20
-20.9872686779
 11
8.0579942858
 21
-21.2252970227
  0
LINE
  5
606
100
AcDbEntity
  8
ASSI
100
AcDbLine
 62
7
  6
CONTINUOUS
 10
8.2325449351
 20
21.4051134101
 11
8.2325449351
 21
20.9
  0
LINE
  5
607
100
AcDbEntity
  8
ASSI
100
AcDbLine
 62
7
  6
CONTINUOUS
 10
8.2325449351
 20
-21.4051134101
 11
8.2325449351
 21
-20.9
  0
LINE
  5
608
100
AcDbEntity
  8
ASSI
100
AcDbLine
 62
7
  6
CONTINUOUS
 10
8.5
 20
-23.1226497308
 11
8.5
 21
-22.4
  0
LINE
  5
609
100
AcDbEntity
  8
ASSI
100
AcDbLine
 62
7
  6
CONTINUOUS
 10
8.5
 20
22.4
 11
8.5
 21
23.1226497308
  0
LINE
  5
60A
100
AcDbEntity
  8
ASSI
100
AcDbLine
 62
253
  6
CONTINUOUS
 10
8.5131674569
 20
-23.5581814706
 11
8.5131674569
 21
-22.3868325431
  0
LINE
  5
60B
100
AcDbEntity
  8
ASSI
100
AcDbLine
 62
253
  6
CONTINUOUS
 10
8.5131674569
 20
22.3868325431
 11
8.5131674569
 21
23.5581814706
  0
LINE
  5
60C
100
AcDbEntity
  8
ASSI
100
AcDbLine
 62
253
  6
CONTINUOUS
 10
7.2140049359
 20
-23.8336902665
 11
7.2140242625
 21
-24.2392664356
  0
LINE
  5
60D
100
AcDbEntity
  8
ASSI
100
AcDbLine
 62
253
  6
CONTINUOUS
 10
8.0461307966
 20
5.8951872317
 11
8.0467963658
 21
8.3224515989
  0
LINE
  5
60E
100
AcDbEntity
  8
0
100
AcDbLine
 62
253
  6
CONTINUOUS
 10
8.0461307966
 20
5.8951872317
 11
8.0467963658
 21
8.3224515989
  0
LINE
  5
60F
100
AcDbEntity
  8
ASSI
100
AcDbLine
 62
7
  6
CONTINUOUS
 10
8.0484064979
 20
-10.4521794534
 11
8.0482618771
 21
-10.8007199541
  0
LINE
  5
610
100
AcDbEntity
  8
0
100
AcDbLine
 62
7
  6
CONTINUOUS
 10
8.0484064979
 20
-10.4521794534
 11
8.0482618771
 21
-10.8007199541
  0
LINE
  5
611
100
AcDbEntity
  8
ASSI
100
AcDbLine
 62
253
  6
CONTINUOUS
 10
8.2792330792
 20
5.8951872317
 11
8.2804200417
 21
8.7935445497
  0
LINE
  5
612
100
AcDbEntity
  8
0
100
AcDbLine
 62
253
  6
CONTINUOUS
 10
8.2792330792
 20
5.8951872317
 11
8.2804200417
 21
8.7935445497
  0
LINE
  5
613
100
AcDbEntity
  8
ASSI
100
AcDbLine
 62
253
  6
CONTINUOUS
 10
7.4138090971
 20
24.3909111467
 11
7.4139733807
 21
23.7896662418
  0
LINE
  5
614
100
AcDbEntity
  8
ASSI
100
AcDbLine
 62
253
  6
CONTINUOUS
 10
7.2140107016
 20
24.245876294
 11
7.2140219972
 21
23.8400938358
  0
LINE
  5
615
100
AcDbEntity
  8
ASSI
100
AcDbLine
 62
7
  6
CONTINUOUS
 10
8.0421817373
 20
-20.4581661537
 11
8.0438568666
 21
-18.4974554308
  0
LINE
  5
616
100
AcDbEntity
  8
0
100
AcDbLine
 62
7
  6
CONTINUOUS
 10
8.0421817373
 20
-20.4581661537
 11
8.0438568666
 21
-18.4974554308
  0
LINE
  5
617
100
AcDbEntity
  8
ASSI
100
AcDbLine
 62
253
  6
CONTINUOUS
 10
7.4139945176
 20
-23.8443375673
 11
7.4136714221
 21
-24.4310576365
  0
LWPOLYLINE
  5
618
100
AcDbEntity
  8
ASSI
100
AcDbPolyline
 62
253
  6
CONTINUOUS
 90
3
 70
0
 10
7.4139733807
 20
23.7896662418
 10
7.4135983339
 20
23.6348633229
 10
7.4135581409
 20
23.6278312163
  0
LINE
  5
619
100
AcDbEntity
  8
ASSI
100
AcDbLine
 62
253
  6
CONTINUOUS
 10
7.2140242625
 20
-24.2392664356
 11
7.2139842507
 21
-24.2519661943
  0
LINE
  5
61A
100
AcDbEntity
  8
ASSI
100
AcDbLine
 62
253
  6
CONTINUOUS
 10
7.2140219972
 20
23.8400938358
 11
7.2139674638
 21
23.8264854748
  0
LINE
  5
61B
100
AcDbEntity
  8
ASSI
100
AcDbLine
 62
253
  6
CONTINUOUS
 10
7.4136714221
 20
-24.4310576365
 11
7.4134454249
 21
-24.4690437923
  0
LINE
  5
61C
100
AcDbEntity
  8
ASSI
100
AcDbLine
 62
7
  6
CONTINUOUS
 10
8.0411605157
 20
-20.5965172372
 11
8.0421817373
 21
-20.4581661537
  0
LINE
  5
61D
100
AcDbEntity
  8
0
100
AcDbLine
 62
7
  6
CONTINUOUS
 10
8.0411605157
 20
-20.5965172372
 11
8.0421817373
 21
-20.4581661537
  0
LINE
  5
61E
100
AcDbEntity
  8
ASSI
100
AcDbLine
 62
253
  6
CONTINUOUS
 10
7.2139842507
 20
-24.2519661943
 11
7.2139036739
 21
-24.2622911606
  0
LINE
  5
61F
100
AcDbEntity
  8
ASSI
100
AcDbLine
 62
253
  6
CONTINUOUS
 10
7.2139674638
 20
23.8264854748
 11
7.2138878847
 21
23.8174356788
  0
LWPOLYLINE
  5
620
100
AcDbEntity
  8
ASSI
100
AcDbPolyline
 62
253
  6
CONTINUOUS
 90
6
 70
0
 10
7.4134454249
 20
-24.4690437923
 10
7.4133452648
 20
-24.4785319625
 10
7.413293971
 20
-24.4819586472
 10
7.4132422594
 20
-24.4844883764
 10
7.4131899344
 20
-24.4861145463
 10
7.4131369959
 20
-24.4868325431
  0
LINE
  5
621
100
AcDbEntity
  8
ASSI
100
AcDbLine
 62
7
  6
CONTINUOUS
 10
6.5002362422
 20
-15.8722496659
 11
6.5
 21
-15.8915786577
  0
LINE
  5
622
100
AcDbEntity
  8
0
100
AcDbLine
 62
7
  6
CONTINUOUS
 10
6.5002362422
 20
-15.8722496659
 11
6.5
 21
-15.8915786577
  0
LINE
  5
623
100
AcDbEntity
  8
ASSI
100
AcDbLine
 62
7
  6
CONTINUOUS
 10
8.0441256373
 20
-10.8024332407
 11
8.0484064979
 21
-10.4521794534
  0
LINE
  5
624
100
AcDbEntity
  8
0
100
AcDbLine
 62
7
  6
CONTINUOUS
 10
8.0441256373
 20
-10.8024332407
 11
8.0484064979
 21
-10.4521794534
  0
LINE
  5
625
100
AcDbEntity
  8
ASSI
100
AcDbLine
 62
253
  6
CONTINUOUS
 10
7.7582884114
 20
5.8951872317
 11
7.7696226478
 21
6.7669507368
  0
LINE
  5
626
100
AcDbEntity
  8
0
100
AcDbLine
 62
253
  6
CONTINUOUS
 10
7.7582884114
 20
5.8951872317
 11
7.7696226478
 21
6.7669507368
  0
LINE
  5
627
100
AcDbEntity
  8
ASSI
100
AcDbLine
 62
253
  6
CONTINUOUS
 10
7.2139036739
 20
-24.2622911606
 11
7.2138140032
 21
-24.2694630725
  0
LINE
  5
628
100
AcDbEntity
  8
ASSI
100
AcDbLine
 62
253
  6
CONTINUOUS
 10
8.0100737845
 20
5.8951872317
 11
8.0228602872
 21
6.8405204133
  0
LINE
  5
629
100
AcDbEntity
  8
0
100
AcDbLine
 62
253
  6
CONTINUOUS
 10
8.0100737845
 20
5.8951872317
 11
8.0228602872
 21
6.8405204133
  0
LINE
  5
62A
100
AcDbEntity
  8
ASSI
100
AcDbLine
 62
253
  6
CONTINUOUS
 10
7.2138878847
 20
23.8174356788
 11
7.2138049974
 21
23.811149738
  0
LINE
  5
62B
100
AcDbEntity
  8
ASSI
100
AcDbLine
 62
7
  6
CONTINUOUS
 10
8.0400935476
 20
-20.6764663997
 11
8.0411605157
 21
-20.5965172372
  0
LINE
  5
62C
100
AcDbEntity
  8
0
100
AcDbLine
 62
7
  6
CONTINUOUS
 10
8.0400935476
 20
-20.6764663997
 11
8.0411605157
 21
-20.5965172372
  0
LINE
  5
62D
100
AcDbEntity
  8
ASSI
100
AcDbLine
 62
253
  6
CONTINUOUS
 10
7.7696226478
 20
6.7669507368
 11
7.7828182742
 21
7.6629994857
  0
LINE
  5
62E
100
AcDbEntity
  8
0
100
AcDbLine
 62
253
  6
CONTINUOUS
 10
7.7696226478
 20
6.7669507368
 11
7.7828182742
 21
7.6629994857
  0
LINE
  5
62F
100
AcDbEntity
  8
ASSI
100
AcDbLine
 62
253
  6
CONTINUOUS
 10
8.0228602872
 20
6.8405204133
 11
8.0361711747
 21
7.704439089
  0
LINE
  5
630
100
AcDbEntity
  8
0
100
AcDbLine
 62
253
  6
CONTINUOUS
 10
8.0228602872
 20
6.8405204133
 11
8.0361711747
 21
7.704439089
  0
LINE
  5
631
100
AcDbEntity
  8
ASSI
100
AcDbLine
 62
253
  6
CONTINUOUS
 10
7.7828182742
 20
7.6629994857
 11
7.7968337405
 21
8.5020960975
  0
LINE
  5
632
100
AcDbEntity
  8
0
100
AcDbLine
 62
253
  6
CONTINUOUS
 10
7.7828182742
 20
7.6629994857
 11
7.7968337405
 21
8.5020960975
  0
LINE
  5
633
100
AcDbEntity
  8
ASSI
100
AcDbLine
 62
253
  6
CONTINUOUS
 10
8.0361711747
 20
7.704439089
 11
8.0467963658
 21
8.3224515989
  0
LINE
  5
634
100
AcDbEntity
  8
0
100
AcDbLine
 62
253
  6
CONTINUOUS
 10
8.0361711747
 20
7.704439089
 11
8.0467963658
 21
8.3224515989
  0
LWPOLYLINE
  5
635
100
AcDbEntity
  8
ASSI
100
AcDbPolyline
 62
253
  6
CONTINUOUS
 90
3
 70
0
 10
7.2138049974
 20
23.811149738
 10
7.2137041652
 20
23.8056061647
 10
7.2136672809
 20
23.803974686
  0
LINE
  5
636
100
AcDbEntity
  8
ASSI
100
AcDbLine
 62
253
  6
CONTINUOUS
 10
7.2138140032
 20
-24.2694630725
 11
7.2137019072
 21
-24.2757048168
  0
LWPOLYLINE
  5
637
100
AcDbEntity
  8
ASSI
100
AcDbPolyline
 62
253
  6
CONTINUOUS
 90
11
 70
0
 10
7.2137019072
 20
-24.2757048168
 10
7.2136165449
 20
-24.2792071049
 10
7.213571221
 20
-24.2807297652
 10
7.2135241517
 20
-24.2821017052
 10
7.2134758785
 20
-24.2833052692
 10
7.2134263814
 20
-24.2843379958
 10
7.2133756803
 20
-24.2852023465
 10
7.2133243772
 20
-24.2858880498
 10
7.2132726725
 20
-24.2863916819
 10
7.2132203658
 20
-24.2867166667
 10
7.2131674569
 20
-24.2868630041
  0
LWPOLYLINE
  5
638
100
AcDbEntity
  8
ASSI
100
AcDbPolyline
 62
7
  6
CONTINUOUS
 90
18
 70
0
 10
7.8501781089
 20
-0.3712409045
 10
7.8514589126
 20
-0.3261506042
 10
7.8617053418
 20
-0.2371767902
 10
7.882474902
 20
-0.1494423513
 10
7.9134908914
 20
-0.0629146988
 10
7.9539232053
 20
0.0200903612
 10
8.0040261287
 20
0.0994777024
 10
8.0635453765
 20
0.1753424511
 10
8.1308879895
 20
0.2456541808
 10
8.2062652351
 20
0.310262934
 10
8.2894658459
 20
0.3693186682
 10
8.3782630599
 20
0.4212408294
 10
8.4728080117
 20
0.4658367777
 10
8.5729495667
 20
0.503299153
 10
8.6760075596
 20
0.532625321
 10
8.7810886019
 20
0.5534810701
 10
8.889086082
 20
0.566200612
 10
9.0
 20
0.5707839465
  0
LINE
  5
639
100
AcDbEntity
  8
ASSI
100
AcDbLine
 62
253
  6
CONTINUOUS
 10
7.4135581409
 20
23.6278312163
 11
7.3982849591
 21
23.1226497308
  0
LINE
  5
63A
100
AcDbEntity
  8
ASSI
100
AcDbLine
 62
7
  6
CONTINUOUS
 10
8.5
 20
23.1226497308
 11
8.5131674569
 21
23.5581814706
  0
LWPOLYLINE
  5
63B
100
AcDbEntity
  8
ASSI
100
AcDbPolyline
 62
253
  6
CONTINUOUS
 90
22
 70
0
 10
8.0467967748
 20
8.3225653775
 10
8.0480600676
 20
8.3643054281
 10
8.0509874662
 20
8.4043120401
 10
8.055429756
 20
8.4425081792
 10
8.0612454059
 20
8.4788057283
 10
8.0683176143
 20
8.5131437332
 10
8.076537169
 20
8.5455180198
 10
8.0857639275
 20
8.5758212094
 10
8.0959025872
 20
8.60405951
 10
8.1069390503
 20
8.630422555
 10
8.1188022315
 20
8.6549093002
 10
8.1313799236
 20
8.6774132005
 10
8.1446363378
 20
8.6979769627
 10
8.1584762058
 20
8.7165584313
 10
8.1727880001
 20
8.7331132101
 10
8.1875389247
 20
8.7476828694
 10
8.2025856628
 20
8.7602064884
 10
8.2178295223
 20
8.7707082085
 10
8.2333386788
 20
8.7793062508
 10
8.2490691469
 20
8.7859899526
 10
8.2648170426
 20
8.7907146471
 10
8.2804213427
 20
8.7935440124
  0
LWPOLYLINE
  5
63C
100
AcDbEntity
  8
0
100
AcDbPolyline
 62
253
  6
CONTINUOUS
 90
22
 70
0
 10
8.0467967748
 20
8.3225653775
 10
8.0480600676
 20
8.3643054281
 10
8.0509874662
 20
8.4043120401
 10
8.055429756
 20
8.4425081792
 10
8.0612454059
 20
8.4788057283
 10
8.0683176143
 20
8.5131437332
 10
8.076537169
 20
8.5455180198
 10
8.0857639275
 20
8.5758212094
 10
8.0959025872
 20
8.60405951
 10
8.1069390503
 20
8.630422555
 10
8.1188022315
 20
8.6549093002
 10
8.1313799236
 20
8.6774132005
 10
8.1446363378
 20
8.6979769627
 10
8.1584762058
 20
8.7165584313
 10
8.1727880001
 20
8.7331132101
 10
8.1875389247
 20
8.7476828694
 10
8.2025856628
 20
8.7602064884
 10
8.2178295223
 20
8.7707082085
 10
8.2333386788
 20
8.7793062508
 10
8.2490691469
 20
8.7859899526
 10
8.2648170426
 20
8.7907146471
 10
8.2804213427
 20
8.7935440124
  0
LINE
  5
63D
100
AcDbEntity
  8
ASSI
100
AcDbLine
 62
253
  6
CONTINUOUS
 10
6.91317452
 20
-19.7872686779
 11
6.9655357267
 21
-18.7293067937
  0
LINE
  5
63E
100
AcDbEntity
  8
0
100
AcDbLine
 62
253
  6
CONTINUOUS
 10
6.91317452
 20
-19.7872686779
 11
6.9655357267
 21
-18.7293067937
  0
LINE
  5
63F
100
AcDbEntity
  8
ASSI
100
AcDbLine
 62
253
  6
CONTINUOUS
 10
7.2127313221
 20
-20.0914350444
 11
7.2650925288
 21
-19.0334731601
  0
LINE
  5
640
100
AcDbEntity
  8
0
100
AcDbLine
 62
253
  6
CONTINUOUS
 10
7.2127313221
 20
-20.0914350444
 11
7.2650925288
 21
-19.0334731601
  0
LWPOLYLINE
  5
641
100
AcDbEntity
  8
ASSI
100
AcDbPolyline
 62
253
  6
CONTINUOUS
 90
13
 70
0
 10
7.7968337405
 20
8.5020960975
 10
7.7997256755
 20
8.5440406996
 10
7.8054647058
 20
8.5841851496
 10
7.8140508313
 20
8.6225450987
 10
7.8256614199
 20
8.6591733297
 10
7.8401191036
 20
8.6940464167
 10
7.8568917791
 20
8.7270657942
 10
7.8759324157
 20
8.7582659476
 10
7.8972880441
 20
8.787639983
 10
7.9205676525
 20
8.8150284653
 10
7.9456409036
 20
8.8403873092
 10
7.9726381348
 20
8.8637863477
 10
8.001559346
 20
8.8852369786
  0
LWPOLYLINE
  5
642
100
AcDbEntity
  8
0
100
AcDbPolyline
 62
253
  6
CONTINUOUS
 90
13
 70
0
 10
7.7968337405
 20
8.5020960975
 10
7.7997256755
 20
8.5440406996
 10
7.8054647058
 20
8.5841851496
 10
7.8140508313
 20
8.6225450987
 10
7.8256614199
 20
8.6591733297
 10
7.8401191036
 20
8.6940464167
 10
7.8568917791
 20
8.7270657942
 10
7.8759324157
 20
8.7582659476
 10
7.8972880441
 20
8.787639983
 10
7.9205676525
 20
8.8150284653
 10
7.9456409036
 20
8.8403873092
 10
7.9726381348
 20
8.8637863477
 10
8.001559346
 20
8.8852369786
  0
LWPOLYLINE
  5
643
100
AcDbEntity
  8
ASSI
100
AcDbPolyline
 62
253
  6
CONTINUOUS
 90
13
 70
0
 10
10.5864113981
 20
23.8010362971
 10
10.5844930438
 20
23.7785525233
 10
10.5792234721
 20
23.7564491967
 10
10.5706918493
 20
23.7351003269
 10
10.5590425386
 20
23.7148671574
 10
10.5444726576
 20
23.696092053
 10
10.5272287429
 20
23.6790927066
 10
10.5076025781
 20
23.6641567636
 10
10.4859262568
 20
23.6515369545
 10
10.4625665635
 20
23.6414468188
 10
10.4379187666
 20
23.6340570911
 10
10.4123999306
 20
23.629492813
 10
10.3864418591
 20
23.6278312163
  0
LWPOLYLINE
  5
644
100
AcDbEntity
  8
ASSI
100
AcDbPolyline
 62
253
  6
CONTINUOUS
 90
5
 70
0
 10
10.3868630041
 20
24.4868325431
 10
10.3868215773
 20
24.4863479399
 10
10.3867792978
 20
24.48526668
 10
10.3867361655
 20
24.4835390394
 10
10.3866468237
 20
24.4779339864
  0
LINE
  5
645
100
AcDbEntity
  8
ASSI
100
AcDbLine
 62
7
  6
CONTINUOUS
 10
9.639870208
 20
18.1129361064
 11
9.5
 21
16.7
  0
LINE
  5
646
100
AcDbEntity
  8
RACCORDO
100
AcDbLine
 62
7
  6
CONTINUOUS
 10
9.639870208
 20
18.1129361064
 11
9.5
 21
16.7
  0
LINE
  5
647
100
AcDbEntity
  8
ASSI
100
AcDbLine
 62
7
  6
CONTINUOUS
 10
9.4951140381
 20
17.1381978935
 11
9.639870208
 21
18.1129361064
  0
LINE
  5
648
100
AcDbEntity
  8
DRAFT
100
AcDbLine
 62
7
  6
CONTINUOUS
 10
9.4951140381
 20
17.1381978935
 11
9.639870208
 21
18.1129361064
  0
LINE
  5
649
100
AcDbEntity
  8
ASSI
100
AcDbLine
 62
253
  6
CONTINUOUS
 10
-10.6
 20
-22.3999999999
 11
-10.5826210875
 21
-22.3825449351
  0
LINE
  5
64A
100
AcDbEntity
  8
ASSI
100
AcDbLine
 62
7
  6
CONTINUOUS
 10
-6.5
 20
-16.27
 11
-6.3309918611
 21
-16.1009290654
  0
LINE
  5
64B
100
AcDbEntity
  8
0
100
AcDbLine
 62
7
  6
CONTINUOUS
 10
-6.5
 20
-16.27
 11
-6.3309918611
 21
-16.1009290654
  0
LINE
  5
64C
100
AcDbEntity
  8
ASSI
100
AcDbLine
 62
253
  6
CONTINUOUS
 10
-11.1
 20
-21.9000761524
 11
-11.0825449351
 21
-21.8826210875
  0
LINE
  5
64D
100
AcDbEntity
  8
ASSI
100
AcDbLine
 62
7
  6
CONTINUOUS
 10
-6.3301884152
 20
-17.3001256195
 11
-6.3516319481
 21
-17.3215691524
  0
LINE
  5
64E
100
AcDbEntity
  8
0
100
AcDbLine
 62
7
  6
CONTINUOUS
 10
-6.3301884152
 20
-17.3001256195
 11
-6.3516319481
 21
-17.3215691524
  0
LINE
  5
64F
100
AcDbEntity
  8
ASSI
100
AcDbLine
 62
7
  6
CONTINUOUS
 10
-9.65
 20
7.0783629857
 11
-9.5138332078
 21
7.0861667922
  0
LINE
  5
650
100
AcDbEntity
  8
0
100
AcDbLine
 62
7
  6
CONTINUOUS
 10
-9.65
 20
7.0783629857
 11
-9.5138332078
 21
7.0861667922
  0
LINE
  5
651
100
AcDbEntity
  8
ASSI
100
AcDbLine
 62
7
  6
CONTINUOUS
 10
6.3991735225
 20
8.8001808964
 11
8.001559346
 21
8.8852369786
  0
LINE
  5
652
100
AcDbEntity
  8
0
100
AcDbLine
 62
7
  6
CONTINUOUS
 10
6.3991735225
 20
8.8001808964
 11
8.001559346
 21
8.8852369786
  0
LINE
  5
653
100
AcDbEntity
  8
ASSI
100
AcDbLine
 62
7
  6
CONTINUOUS
 10
-6.4
 20
8.2934595321
 11
-5.6222388362
 21
8.2934595321
  0
LINE
  5
654
100
AcDbEntity
  8
ASSI
100
AcDbLine
 62
7
  6
CONTINUOUS
 10
-0.6777611638
 20
8.2934595321
 11
0.6777611638
 21
8.2934595321
  0
LINE
  5
655
100
AcDbEntity
  8
ASSI
100
AcDbLine
 62
7
  6
CONTINUOUS
 10
5.6222388362
 20
8.2934595321
 11
6.4
 21
8.2934595321
  0
LINE
  5
656
100
AcDbEntity
  8
ASSI
100
AcDbLine
 62
7
  6
CONTINUOUS
 10
-5.65
 20
8.3459582988
 11
-5.5918825933
 21
8.3459582988
  0
LINE
  5
657
100
AcDbEntity
  8
ASSI
100
AcDbLine
 62
7
  6
CONTINUOUS
 10
-0.7081174067
 20
8.3459582988
 11
-0.65
 21
8.3459582988
  0
LINE
  5
658
100
AcDbEntity
  8
ASSI
100
AcDbLine
 62
7
  6
CONTINUOUS
 10
0.65
 20
8.3459582988
 11
0.7081174067
 21
8.3459582988
  0
LINE
  5
659
100
AcDbEntity
  8
ASSI
100
AcDbLine
 62
7
  6
CONTINUOUS
 10
5.5918825933
 20
8.3459582988
 11
5.65
 21
8.3459582988
  0
LINE
  5
65A
100
AcDbEntity
  8
ASSI
100
AcDbLine
 62
7
  6
CONTINUOUS
 10
-8.0510052556
 20
8.8881807635
 11
-6.399181555
 21
8.7999298784
  0
LINE
  5
65B
100
AcDbEntity
  8
0
100
AcDbLine
 62
7
  6
CONTINUOUS
 10
-8.0510052556
 20
8.8881807635
 11
-6.399181555
 21
8.7999298784
  0
LINE
  5
65C
100
AcDbEntity
  8
ASSI
100
AcDbLine
 62
7
  6
CONTINUOUS
 10
9.65
 20
7.0783629857
 11
9.5138332078
 21
7.0861667922
  0
LINE
  5
65D
100
AcDbEntity
  8
0
100
AcDbLine
 62
7
  6
CONTINUOUS
 10
9.65
 20
7.0783629857
 11
9.5138332078
 21
7.0861667922
  0
LINE
  5
65E
100
AcDbEntity
  8
ASSI
100
AcDbLine
 62
7
  6
CONTINUOUS
 10
9.443483635
 20
4.0468937615
 11
9.5138332078
 21
4.0
  0
LINE
  5
65F
100
AcDbEntity
  8
0
100
AcDbLine
 62
7
  6
CONTINUOUS
 10
9.443483635
 20
4.0468937615
 11
9.5138332078
 21
4.0
  0
LINE
  5
660
100
AcDbEntity
  8
SMUSSO
100
AcDbLine
 62
7
  6
CONTINUOUS
 10
11.0
 20
2.209088035
 11
9.5
 21
3.4378161015
  0
LINE
  5
661
100
AcDbEntity
  8
ASSI
100
AcDbLine
 62
253
  6
CONTINUOUS
 10
-11.0825449351
 20
21.8826210875
 11
-11.1
 21
21.9000761524
  0
LINE
  5
662
100
AcDbEntity
  8
ASSI
100
AcDbLine
 62
253
  6
CONTINUOUS
 10
-10.5826210875
 20
22.3825449351
 11
-10.6000000646
 21
22.3999999354
  0
LWPOLYLINE
  5
663
100
AcDbEntity
  8
ASSI
100
AcDbPolyline
 62
253
  6
CONTINUOUS
 90
4
 70
0
 10
7.4131370059
 20
24.486832493
 10
7.4131788263
 20
24.4863405365
 10
7.4132214372
 20
24.4852428763
 10
7.4132648385
 20
24.483491763
  0
LINE
  5
664
100
AcDbEntity
  8
ASSI
100
AcDbLine
 62
7
  6
CONTINUOUS
 10
9.5000023792
 20
16.6999519285
 11
9.4925054846
 21
16.8514272135
  0
LINE
  5
665
100
AcDbEntity
  8
RACCORDO
100
AcDbLine
 62
7
  6
CONTINUOUS
 10
9.5000023792
 20
16.6999519285
 11
9.4925054846
 21
16.8514272135
  0
LWPOLYLINE
  5
666
100
AcDbEntity
  8
ASSI
100
AcDbPolyline
 62
253
  6
CONTINUOUS
 90
9
 70
0
 10
10.5864286554
 20
-24.2807262754
 10
10.5864757248
 20
-24.2820985489
 10
10.5865239913
 20
-24.2833023007
 10
10.5865734717
 20
-24.2843354633
 10
10.5866241493
 20
-24.2852001042
 10
10.5866754523
 20
-24.2858861827
 10
10.5867271904
 20
-24.2863903521
 10
10.586779554
 20
-24.2867159592
 10
10.5868325431
 20
-24.2868630041
  0
LINE
  5
667
100
AcDbEntity
  8
ASSI
100
AcDbLine
 62
7
  6
CONTINUOUS
 10
9.3
 20
23.1226497308
 11
9.2868325431
 21
23.5581814706
  0
LINE
  5
668
100
AcDbEntity
  8
ASSI
100
AcDbLine
 62
7
  6
CONTINUOUS
 10
11.1
 20
-21.0
 11
11.0825449351
 21
-20.4226497308
  0
LWPOLYLINE
  5
669
100
AcDbEntity
  8
ASSI
100
AcDbPolyline
 62
7
  6
CONTINUOUS
 90
9
 70
0
 10
9.4470074152
 20
-20.6767387371
 10
9.4479656045
 20
-20.7120248499
 10
9.4490050994
 20
-20.7432348036
 10
9.450133091
 20
-20.7703505501
 10
9.4513423881
 20
-20.7933901375
 10
9.4525878962
 20
-20.8115103901
 10
9.4538545835
 20
-20.8244302493
 10
9.4551574817
 20
-20.8324307737
 10
9.4564965907
 20
-20.8355119633
  0
LWPOLYLINE
  5
66A
100
AcDbEntity
  8
RACCORDO
100
AcDbPolyline
 62
7
  6
CONTINUOUS
 90
9
 70
0
 10
9.4470074152
 20
-20.6767387371
 10
9.4479656045
 20
-20.7120248499
 10
9.4490050994
 20
-20.7432348036
 10
9.450133091
 20
-20.7703505501
 10
9.4513423881
 20
-20.7933901375
 10
9.4525878962
 20
-20.8115103901
 10
9.4538545835
 20
-20.8244302493
 10
9.4551574817
 20
-20.8324307737
 10
9.4564965907
 20
-20.8355119633
  0
LINE
  5
66B
100
AcDbEntity
  8
ASSI
100
AcDbLine
 62
253
  6
CONTINUOUS
 10
10.5863396816
 20
-24.277522117
 11
10.5864286554
 21
-24.2807262754
  0
LWPOLYLINE
  5
66C
100
AcDbEntity
  8
ASSI
100
AcDbPolyline
 62
253
  6
CONTINUOUS
 90
4
 70
0
 10
10.3867059924
 20
-24.4819489583
 10
10.3867577122
 20
-24.4844829512
 10
10.3868100494
 20
-24.4861127574
 10
10.3868630041
 20
-24.4868325431
  0
LINE
  5
66D
100
AcDbEntity
  8
ASSI
100
AcDbLine
 62
253
  6
CONTINUOUS
 10
10.5862580809
 20
-24.2737306275
 11
10.5863396816
 21
-24.277522117
  0
LINE
  5
66E
100
AcDbEntity
  8
ASSI
100
AcDbLine
 62
7
  6
CONTINUOUS
 10
9.4454059013
 20
-20.5963845367
 11
9.4470074152
 21
-20.6767387371
  0
LINE
  5
66F
100
AcDbEntity
  8
RACCORDO
100
AcDbLine
 62
7
  6
CONTINUOUS
 10
9.4454059013
 20
-20.5963845367
 11
9.4470074152
 21
-20.6767387371
  0
LINE
  5
670
100
AcDbEntity
  8
ASSI
100
AcDbLine
 62
253
  6
CONTINUOUS
 10
10.5861527288
 20
-24.2671100558
 11
10.5862580809
 21
-24.2737306275
  0
LINE
  5
671
100
AcDbEntity
  8
ASSI
100
AcDbLine
 62
253
  6
CONTINUOUS
 10
10.3866040192
 20
-24.4742068523
 11
10.3867059924
 21
-24.4819489583
  0
LINE
  5
672
100
AcDbEntity
  8
ASSI
100
AcDbLine
 62
7
  6
CONTINUOUS
 10
9.4442464508
 20
-20.5047032125
 11
9.4454059013
 21
-20.5963845367
  0
LINE
  5
673
100
AcDbEntity
  8
RACCORDO
100
AcDbLine
 62
7
  6
CONTINUOUS
 10
9.4442464508
 20
-20.5047032125
 11
9.4454059013
 21
-20.5963845367
  0
LINE
  5
674
100
AcDbEntity
  8
ASSI
100
AcDbLine
 62
253
  6
CONTINUOUS
 10
10.5860497148
 20
-24.2571091206
 11
10.5861527288
 21
-24.2671100558
  0
LINE
  5
675
100
AcDbEntity
  8
ASSI
100
AcDbLine
 62
253
  6
CONTINUOUS
 10
10.5860275776
 20
23.8272483428
 11
10.586118994
 21
23.8168556062
  0
LINE
  5
676
100
AcDbEntity
  8
ASSI
100
AcDbLine
 62
253
  6
CONTINUOUS
 10
10.3864138486
 20
-24.4485264403
 11
10.3866040192
 21
-24.4742068523
  0
LINE
  5
677
100
AcDbEntity
  8
ASSI
100
AcDbLine
 62
7
  6
CONTINUOUS
 10
9.4436107086
 20
-20.4079304184
 11
9.4442464508
 21
-20.5047032125
  0
LINE
  5
678
100
AcDbEntity
  8
ASSI
100
AcDbLine
 62
253
  6
CONTINUOUS
 10
10.5859843068
 20
-24.2441443975
 11
10.5860497148
 21
-24.2571091206
  0
LWPOLYLINE
  5
679
100
AcDbEntity
  8
RACCORDO
100
AcDbPolyline
 62
7
  6
CONTINUOUS
 90
3
 70
0
 10
9.4434836352
 20
-20.3572262977
 10
9.4436107086
 20
-20.4079304184
 10
9.4442464508
 20
-20.5047032125
  0
LINE
  5
67A
100
AcDbEntity
  8
ASSI
100
AcDbLine
 62
7
  6
CONTINUOUS
 10
9.4421659452
 20
-19.1692666957
 11
9.4436107086
 21
-20.4079304184
  0
LINE
  5
67B
100
AcDbEntity
  8
0
100
AcDbLine
 62
7
  6
CONTINUOUS
 10
9.4421659452
 20
-19.1692666957
 11
9.4434836352
 21
-20.3572262977
  0
LINE
  5
67C
100
AcDbEntity
  8
ASSI
100
AcDbLine
 62
253
  6
CONTINUOUS
 10
10.3860295614
 20
23.7866654689
 11
10.386441911
 21
23.6278214075
  0
LINE
  5
67D
100
AcDbEntity
  8
ASSI
100
AcDbLine
 62
253
  6
CONTINUOUS
 10
10.5859750215
 20
23.8443375673
 11
10.5860275776
 21
23.8272483428
  0
LINE
  5
67E
100
AcDbEntity
  8
ASSI
100
AcDbLine
 62
253
  6
CONTINUOUS
 10
10.3860327994
 20
-24.2988989321
 11
10.3864138486
 21
-24.4485264403
  0
LINE
  5
67F
100
AcDbEntity
  8
ASSI
100
AcDbLine
 62
7
  6
CONTINUOUS
 10
9.4342824707
 20
-9.2971708846
 11
9.4345684598
 21
-9.8302978876
  0
LINE
  5
680
100
AcDbEntity
  8
0
100
AcDbLine
 62
7
  6
CONTINUOUS
 10
9.4342824707
 20
-9.2971708846
 11
9.4345684598
 21
-9.8302978876
  0
LINE
  5
681
100
AcDbEntity
  8
ASSI
100
AcDbLine
 62
7
  6
CONTINUOUS
 10
9.4329765968
 20
-6.3025307249
 11
9.4338858163
 21
-8.5025647127
  0
LINE
  5
682
100
AcDbEntity
  8
0
100
AcDbLine
 62
7
  6
CONTINUOUS
 10
9.4329765968
 20
-6.3025307249
 11
9.4338858163
 21
-8.5025647127
  0
LINE
  5
683
100
AcDbEntity
  8
ASSI
100
AcDbLine
 62
7
  6
CONTINUOUS
 10
10.1083982375
 20
-18.5034786639
 11
10.1049079586
 21
-12.277702421
  0
LINE
  5
684
100
AcDbEntity
  8
0
100
AcDbLine
 62
7
  6
CONTINUOUS
 10
10.1083982375
 20
-18.5034786639
 11
10.1049079586
 21
-12.277702421
  0
LINE
  5
685
100
AcDbEntity
  8
ASSI
100
AcDbLine
 62
7
  6
CONTINUOUS
 10
10.1049079586
 20
-12.277702421
 11
10.1041700454
 21
-10.4982727107
  0
LINE
  5
686
100
AcDbEntity
  8
0
100
AcDbLine
 62
7
  6
CONTINUOUS
 10
10.1049079586
 20
-12.277702421
 11
10.1041700454
 21
-10.4982727107
  0
LINE
  5
687
100
AcDbEntity
  8
ASSI
100
AcDbLine
 62
253
  6
CONTINUOUS
 10
8.7631293807
 20
-23.8443375673
 11
8.7631293807
 21
-22.3825449351
  0
LINE
  5
688
100
AcDbEntity
  8
ASSI
100
AcDbLine
 62
253
  6
CONTINUOUS
 10
8.7631293807
 20
22.3825449351
 11
8.7631293807
 21
23.8443375673
  0
LINE
  5
689
100
AcDbEntity
  8
0
100
AcDbLine
 62
7
  6
CONTINUOUS
 10
8.9
 20
5.8951872317
 11
8.9
 21
3.4378161015
  0
LINE
  5
68A
100
AcDbEntity
  8
0
100
AcDbLine
 62
7
  6
CONTINUOUS
 10
8.9
 20
-3.6636541043
 11
8.9
 21
-10.193842946
  0
LINE
  5
68B
100
AcDbEntity
  8
ASSI
100
AcDbLine
 62
7
  6
CONTINUOUS
 10
8.9819252468
 20
-17.471802514
 11
8.9819252468
 21
-15.8915786577
  0
LINE
  5
68C
100
AcDbEntity
  8
0
100
AcDbLine
 62
7
  6
CONTINUOUS
 10
8.9819252468
 20
-17.471802514
 11
8.9819252468
 21
-15.8915786577
  0
LINE
  5
68D
100
AcDbEntity
  8
ASSI
100
AcDbLine
 62
253
  6
CONTINUOUS
 10
9.0368706193
 20
-23.8443375673
 11
9.0368706193
 21
-22.3825449351
  0
LINE
  5
68E
100
AcDbEntity
  8
ASSI
100
AcDbLine
 62
253
  6
CONTINUOUS
 10
9.0368706193
 20
22.3825449351
 11
9.0368706193
 21
23.8443375673
  0
LINE
  5
68F
100
AcDbEntity
  8
ASSI
100
AcDbLine
 62
253
  6
CONTINUOUS
 10
9.2868325431
 20
-23.5581814706
 11
9.2868325431
 21
-22.3868325431
  0
LINE
  5
690
100
AcDbEntity
  8
ASSI
100
AcDbLine
 62
253
  6
CONTINUOUS
 10
9.2868325431
 20
22.3868325431
 11
9.2868325431
 21
23.5581814706
  0
LINE
  5
691
100
AcDbEntity
  8
ASSI
100
AcDbLine
 62
7
  6
CONTINUOUS
 10
9.3
 20
-23.1226497308
 11
9.3
 21
-22.4
  0
LINE
  5
692
100
AcDbEntity
  8
ASSI
100
AcDbLine
 62
7
  6
CONTINUOUS
 10
9.3
 20
22.4
 11
9.3
 21
23.1226497308
  0
LINE
  5
693
100
AcDbEntity
  8
RACCORDO
100
AcDbLine
 62
7
  6
CONTINUOUS
 10
9.45
 20
16.8514272135
 11
9.45
 21
15.9
  0
LINE
  5
694
100
AcDbEntity
  8
SMUSSO
100
AcDbLine
 62
7
  6
CONTINUOUS
 10
9.5
 20
-6.3025307249
 11
9.5
 21
-4.1802979104
  0
LINE
  5
695
100
AcDbEntity
  8
ASSI
100
AcDbLine
 62
7
  6
CONTINUOUS
 10
9.5
 20
14.6886542078
 11
9.5
 21
16.7
  0
LINE
  5
696
100
AcDbEntity
  8
DRAFT
100
AcDbLine
 62
7
  6
CONTINUOUS
 10
9.5
 20
14.6886542078
 11
9.5
 21
16.7
  0
LINE
  5
697
100
AcDbEntity
  8
ASSI
100
AcDbLine
 62
7
  6
CONTINUOUS
 10
9.5138332078
 20
7.0861667922
 11
9.5138332078
 21
4.0
  0
LINE
  5
698
100
AcDbEntity
  8
0
100
AcDbLine
 62
7
  6
CONTINUOUS
 10
9.5138332078
 20
7.0861667922
 11
9.5138332078
 21
4.0
  0
LINE
  5
699
100
AcDbEntity
  8
ASSI
100
AcDbLine
 62
7
  6
CONTINUOUS
 10
9.5138332078
 20
-6.2911992244
 11
9.5138332078
 21
-7.0861667922
  0
LINE
  5
69A
100
AcDbEntity
  8
0
100
AcDbLine
 62
7
  6
CONTINUOUS
 10
9.5138332078
 20
-6.2911992244
 11
9.5138332078
 21
-7.0861667922
  0
LINE
  5
69B
100
AcDbEntity
  8
ASSI
100
AcDbLine
 62
7
  6
CONTINUOUS
 10
9.5138332078
 20
-8.8015305236
 11
9.5138332078
 21
-8.9984694765
  0
LINE
  5
69C
100
AcDbEntity
  8
0
100
AcDbLine
 62
7
  6
CONTINUOUS
 10
9.5138332078
 20
-8.8015305236
 11
9.5138332078
 21
-8.9984694765
  0
LINE
  5
69D
100
AcDbEntity
  8
ASSI
100
AcDbLine
 62
7
  6
CONTINUOUS
 10
9.5714422353
 20
20.8738193966
 11
9.5714422353
 21
19.7676913781
  0
LINE
  5
69E
100
AcDbEntity
  8
RACCORDO
100
AcDbLine
 62
7
  6
CONTINUOUS
 10
9.5714422353
 20
20.8738193966
 11
9.5714422353
 21
19.7676913781
  0
LINE
  5
69F
100
AcDbEntity
  8
ASSI
100
AcDbLine
 62
7
  6
CONTINUOUS
 10
9.639870208
 20
18.1129361064
 11
9.639870208
 21
14.5487839997
  0
LINE
  5
6A0
100
AcDbEntity
  8
DRAFT
100
AcDbLine
 62
7
  6
CONTINUOUS
 10
9.639870208
 20
18.1129361064
 11
9.639870208
 21
14.5487839997
  0
LINE
  5
6A1
100
AcDbEntity
  8
ASSI
100
AcDbLine
 62
7
  6
CONTINUOUS
 10
9.65
 20
20.9
 11
9.65
 21
7.0783629857
  0
LINE
  5
6A2
100
AcDbEntity
  8
0
100
AcDbLine
 62
7
  6
CONTINUOUS
 10
9.65
 20
20.9
 11
9.65
 21
7.0783629857
  0
LINE
  5
6A3
100
AcDbEntity
  8
ASSI
100
AcDbLine
 62
7
  6
CONTINUOUS
 10
9.65
 20
-6.95
 11
9.65
 21
-9.8426444078
  0
LINE
  5
6A4
100
AcDbEntity
  8
0
100
AcDbLine
 62
7
  6
CONTINUOUS
 10
9.65
 20
-6.95
 11
9.65
 21
-9.8426444078
  0
LINE
  5
6A5
100
AcDbEntity
  8
ASSI
100
AcDbLine
 62
7
  6
CONTINUOUS
 10
9.65
 20
-19.1573555923
 11
9.65
 21
-20.9
  0
LINE
  5
6A6
100
AcDbEntity
  8
0
100
AcDbLine
 62
7
  6
CONTINUOUS
 10
9.65
 20
-19.1573555923
 11
9.65
 21
-20.9
  0
LINE
  5
6A7
100
AcDbEntity
  8
ASSI
100
AcDbLine
 62
7
  6
CONTINUOUS
 10
10.1
 20
-6.5
 11
10.1
 21
-5.8110394983
  0
LINE
  5
6A8
100
AcDbEntity
  8
0
100
AcDbLine
 62
7
  6
CONTINUOUS
 10
10.1
 20
-6.5
 11
10.1
 21
-5.8110394983
  0
LINE
  5
6A9
100
AcDbEntity
  8
ASSI
100
AcDbLine
 62
7
  6
CONTINUOUS
 10
10.1
 20
2.9463248749
 11
10.1
 21
6.5
  0
LINE
  5
6AA
100
AcDbEntity
  8
0
100
AcDbLine
 62
7
  6
CONTINUOUS
 10
10.1
 20
2.9463248749
 11
10.1
 21
6.5
  0
LINE
  5
6AB
100
AcDbEntity
  8
ASSI
100
AcDbLine
 62
7
  6
CONTINUOUS
 10
10.1558562078
 20
4.9650898701
 11
10.1558562078
 21
2.9005701481
  0
LINE
  5
6AC
100
AcDbEntity
  8
0
100
AcDbLine
 62
7
  6
CONTINUOUS
 10
10.1558562078
 20
4.9650898701
 11
10.1558562078
 21
2.9005701481
  0
LINE
  5
6AD
100
AcDbEntity
  8
ASSI
100
AcDbLine
 62
7
  6
CONTINUOUS
 10
10.1907663376
 20
-6.4092336624
 11
10.1907663376
 21
-5.7366880673
  0
LINE
  5
6AE
100
AcDbEntity
  8
0
100
AcDbLine
 62
7
  6
CONTINUOUS
 10
10.1907663376
 20
-6.4092336624
 11
10.1907663376
 21
-5.7366880673
  0
LINE
  5
6AF
100
AcDbEntity
  8
ASSI
100
AcDbLine
 62
7
  6
CONTINUOUS
 10
10.1907663376
 20
5.0
 11
10.1907663376
 21
6.5375966481
  0
LINE
  5
6B0
100
AcDbEntity
  8
0
100
AcDbLine
 62
7
  6
CONTINUOUS
 10
10.1907663376
 20
5.0
 11
10.1907663376
 21
6.5375966481
  0
LINE
  5
6B1
100
AcDbEntity
  8
ASSI
100
AcDbLine
 62
7
  6
CONTINUOUS
 10
10.2466225454
 20
-18.5607330469
 11
10.2466225454
 21
-10.4392669531
  0
LINE
  5
6B2
100
AcDbEntity
  8
0
100
AcDbLine
 62
7
  6
CONTINUOUS
 10
10.2466225454
 20
-18.5607330469
 11
10.2466225454
 21
-10.4392669531
  0
LINE
  5
6B3
100
AcDbEntity
  8
ASSI
100
AcDbLine
 62
7
  6
CONTINUOUS
 10
10.6
 20
22.3999997358
 11
10.6
 21
24.300030461
  0
LINE
  5
6B4
100
AcDbEntity
  8
ASSI
100
AcDbLine
 62
7
  6
CONTINUOUS
 10
10.6000000646
 20
-22.3999999296
 11
10.6
 21
-24.300030461
  0
LINE
  5
6B5
100
AcDbEntity
  8
ASSI
100
AcDbLine
 62
7
  6
CONTINUOUS
 10
9.0435128819
 20
-17.4973129477
 11
9.0466683828
 21
-11.801380001
  0
LINE
  5
6B6
100
AcDbEntity
  8
0
100
AcDbLine
 62
7
  6
CONTINUOUS
 10
9.0435128819
 20
-17.4973129477
 11
9.0466683828
 21
-11.801380001
  0
LINE
  5
6B7
100
AcDbEntity
  8
ASSI
100
AcDbLine
 62
7
  6
CONTINUOUS
 10
9.4379053794
 20
14.6834101266
 11
9.4323279156
 21
4.0468960217
  0
LINE
  5
6B8
100
AcDbEntity
  8
DRAFT
100
AcDbLine
 62
7
  6
CONTINUOUS
 10
9.4379053794
 20
14.6834101266
 11
9.4323279156
 21
4.0468960217
  0
LINE
  5
6B9
100
AcDbEntity
  8
ASSI
100
AcDbLine
 62
7
  6
CONTINUOUS
 10
9.4951140381
 20
17.1381978935
 11
9.4971221886
 21
19.334259922
  0
LINE
  5
6BA
100
AcDbEntity
  8
DRAFT
100
AcDbLine
 62
7
  6
CONTINUOUS
 10
9.4951140381
 20
17.1381978935
 11
9.4971221886
 21
19.334259922
  0
LINE
  5
6BB
100
AcDbEntity
  8
ASSI
100
AcDbLine
 62
253
  6
CONTINUOUS
 10
10.5859815934
 20
-23.8384064725
 11
10.5859843068
 21
-24.2441443975
  0
LINE
  5
6BC
100
AcDbEntity
  8
ASSI
100
AcDbLine
 62
253
  6
CONTINUOUS
 10
10.3862778826
 20
-23.6625067399
 11
10.3860327994
 21
-24.2988989321
  0
LINE
  5
6BD
100
AcDbEntity
  8
ASSI
100
AcDbLine
 62
253
  6
CONTINUOUS
 10
10.3862985708
 20
24.4237585749
 11
10.3860295614
 21
23.7866654689
  0
LINE
  5
6BE
100
AcDbEntity
  8
ASSI
100
AcDbLine
 62
253
  6
CONTINUOUS
 10
10.5860004064
 20
24.2488367609
 11
10.5859750215
 21
23.8443375673
  0
LINE
  5
6BF
100
AcDbEntity
  8
ASSI
100
AcDbLine
 62
253
  6
CONTINUOUS
 10
10.5860277159
 20
-23.8272317829
 11
10.5859815934
 21
-23.8384064725
  0
LINE
  5
6C0
100
AcDbEntity
  8
ASSI
100
AcDbLine
 62
253
  6
CONTINUOUS
 10
10.3864416339
 20
-23.627873495
 11
10.3862778826
 21
-23.6625067399
  0
LINE
  5
6C1
100
AcDbEntity
  8
ASSI
100
AcDbLine
 62
253
  6
CONTINUOUS
 10
10.3865563807
 20
24.4692514555
 11
10.3862985708
 21
24.4237585749
  0
LINE
  5
6C2
100
AcDbEntity
  8
ASSI
100
AcDbLine
 62
253
  6
CONTINUOUS
 10
10.5860750743
 20
24.2601130061
 11
10.5860004064
 21
24.2488367609
  0
LINE
  5
6C3
100
AcDbEntity
  8
ASSI
100
AcDbLine
 62
253
  6
CONTINUOUS
 10
10.586119181
 20
-23.8168383093
 11
10.5860277159
 21
-23.8272317829
  0
LINE
  5
6C4
100
AcDbEntity
  8
ASSI
100
AcDbLine
 62
253
  6
CONTINUOUS
 10
10.3866468237
 20
24.4779339864
 11
10.3865563807
 21
24.4692514555
  0
LINE
  5
6C5
100
AcDbEntity
  8
ASSI
100
AcDbLine
 62
7
  6
CONTINUOUS
 10
9.0318412786
 20
-11.8075215887
 11
8.9819252468
 21
-15.8915786577
  0
LINE
  5
6C6
100
AcDbEntity
  8
0
100
AcDbLine
 62
7
  6
CONTINUOUS
 10
9.0318412786
 20
-11.8075215887
 11
8.9819252468
 21
-15.8915786577
  0
LINE
  5
6C7
100
AcDbEntity
  8
ASSI
100
AcDbLine
 62
253
  6
CONTINUOUS
 10
10.5861606817
 20
24.2676977567
 11
10.5860750743
 21
24.2601130061
  0
LINE
  5
6C8
100
AcDbEntity
  8
ASSI
100
AcDbLine
 62
253
  6
CONTINUOUS
 10
10.5862681654
 20
24.2742472689
 11
10.5861606817
 21
24.2676977567
  0
LINE
  5
6C9
100
AcDbEntity
  8
ASSI
100
AcDbLine
 62
253
  6
CONTINUOUS
 10
10.5863492887
 20
24.2779107113
 11
10.5862681654
 21
24.2742472689
  0
LWPOLYLINE
  5
6CA
100
AcDbEntity
  8
ASSI
100
AcDbPolyline
 62
7
  6
CONTINUOUS
 90
18
 70
0
 10
10.1498218911
 20
-0.3712409045
 10
10.1485410874
 20
-0.4163312047
 10
10.1382946582
 20
-0.5053050188
 10
10.117525098
 20
-0.5930394576
 10
10.0865091086
 20
-0.6795671101
 10
10.0460767947
 20
-0.7625721702
 10
9.9959738713
 20
-0.8419595113
 10
9.9364546235
 20
-0.91782426
 10
9.8691120105
 20
-0.9881359897
 10
9.7937347649
 20
-1.0527447429
 10
9.7105341541
 20
-1.1118004771
 10
9.6217369401
 20
-1.1637226383
 10
9.5271919883
 20
-1.2083185866
 10
9.4270504333
 20
-1.2457809619
 10
9.3239924404
 20
-1.2751071299
 10
9.2189113981
 20
-1.2959628791
 10
9.110913918
 20
-1.3086824209
 10
9.0
 20
-1.3132657554
  0
LINE
  5
6CB
100
AcDbEntity
  8
ASSI
100
AcDbLine
 62
7
  6
CONTINUOUS
 10
9.2868325431
 20
-23.5581814706
 11
9.3
 21
-23.1226497308
  0
LINE
  5
6CC
100
AcDbEntity
  8
ASSI
100
AcDbLine
 62
7
  6
CONTINUOUS
 10
11.0825449351
 20
20.4226497308
 11
11.1
 21
21.0
  0
LWPOLYLINE
  5
6CD
100
AcDbEntity
  8
ASSI
100
AcDbPolyline
 62
7
  6
CONTINUOUS
 90
8
 70
0
 10
5.432569703
 20
-20.767430297
 10
5.4334491255
 20
-20.7639798059
 10
5.4343046943
 20
-20.7557106957
 10
5.4351364095
 20
-20.7426229664
 10
5.4359540049
 20
-20.72444339
 10
5.4367477466
 20
-20.7014451946
 10
5.4374884329
 20
-20.6744480639
 10
5.4388013741
 20
-20.6084223907
  0
LWPOLYLINE
  5
6CE
100
AcDbEntity
  8
RACCORDO
100
AcDbPolyline
 62
7
  6
CONTINUOUS
 90
8
 70
0
 10
5.432569703
 20
-20.767430297
 10
5.4334491255
 20
-20.7639798059
 10
5.4343046943
 20
-20.7557106957
 10
5.4351364095
 20
-20.7426229664
 10
5.4359540049
 20
-20.72444339
 10
5.4367477466
 20
-20.7014451946
 10
5.4374884329
 20
-20.6744480639
 10
5.4388013741
 20
-20.6084223907
  0
LWPOLYLINE
  5
6CF
100
AcDbEntity
  8
ASSI
100
AcDbPolyline
 62
7
  6
CONTINUOUS
 90
10
 70
0
 10
-8.5466230298
 20
-23.6278312164
 10
-8.5649157123
 20
-23.6471440832
 10
-8.5858573721
 20
-23.6678668702
 10
-8.608791391
 20
-23.6899995776
 10
-8.6329295651
 20
-23.7138409674
 10
-8.6578572746
 20
-23.7390922775
 10
-8.6836490347
 20
-23.7648572213
 10
-8.7101204458
 20
-23.7908370363
 10
-8.7367256761
 20
-23.817330485
 10
-8.7631293807
 20
-23.8443375673
  0
LINE
  5
6D0
100
AcDbEntity
  8
ASSI
100
AcDbLine
 62
7
  6
CONTINUOUS
 10
-9.3
 20
-22.4
 11
-9.2868325431
 21
-22.3868325431
  0
LINE
  5
6D1
100
AcDbEntity
  8
ASSI
100
AcDbLine
 62
253
  6
CONTINUOUS
 10
-10.6
 20
-24.300030461
 11
-10.5868325431
 21
-24.2868630041
  0
LINE
  5
6D2
100
AcDbEntity
  8
ASSI
100
AcDbLine
 62
253
  6
CONTINUOUS
 10
-10.400030461
 20
-24.5
 11
-10.3868630041
 21
-24.4868325431
  0
LINE
  5
6D3
100
AcDbEntity
  8
SMUSSO
100
AcDbLine
 62
7
  6
CONTINUOUS
 10
9.5
 20
-4.1802979104
 11
11.0
 21
-2.951569844
  0
LINE
  5
6D4
100
AcDbEntity
  8
ASSI
100
AcDbLine
 62
253
  6
CONTINUOUS
 10
-6.4
 20
8.784610748
 11
-5.2284817995
 21
8.784610748
  0
LINE
  5
6D5
100
AcDbEntity
  8
ASSI
100
AcDbLine
 62
253
  6
CONTINUOUS
 10
-1.0715182005
 20
8.784610748
 11
1.0715182005
 21
8.784610748
  0
LINE
  5
6D6
100
AcDbEntity
  8
ASSI
100
AcDbLine
 62
253
  6
CONTINUOUS
 10
5.2284817995
 20
8.784610748
 11
6.4
 21
8.784610748
  0
LINE
  5
6D7
100
AcDbEntity
  8
ASSI
100
AcDbLine
 62
7
  6
CONTINUOUS
 10
6.4
 20
9.6037627922
 11
-6.4
 21
9.6037627922
  0
LWPOLYLINE
  5
6D8
100
AcDbEntity
  8
ASSI
100
AcDbPolyline
 62
253
  6
CONTINUOUS
 90
16
 70
0
 10
7.7968363977
 20
8.502117091
 10
7.822764316
 20
8.5009222916
 10
7.8484127886
 20
8.497803555
 10
7.8735051325
 20
8.492794463
 10
7.8977707386
 20
8.485948962
 10
7.9209477153
 20
8.4773408569
 10
7.9427857592
 20
8.4670630809
 10
7.9630492262
 20
8.4552265537
 10
7.9815196001
 20
8.4419589356
 10
7.9979976133
 20
8.4274033764
 10
8.0123055126
 20
8.4117169138
 10
8.024288977
 20
8.3950687635
 10
8.0338187558
 20
8.3776385111
 10
8.0407920595
 20
8.3596141835
 10
8.0451336735
 20
8.341190223
 10
8.0467967748
 20
8.3225653775
  0
LWPOLYLINE
  5
6D9
100
AcDbEntity
  8
0
100
AcDbPolyline
 62
253
  6
CONTINUOUS
 90
16
 70
0
 10
7.7968363977
 20
8.502117091
 10
7.822764316
 20
8.5009222916
 10
7.8484127886
 20
8.497803555
 10
7.8735051325
 20
8.492794463
 10
7.8977707386
 20
8.485948962
 10
7.9209477153
 20
8.4773408569
 10
7.9427857592
 20
8.4670630809
 10
7.9630492262
 20
8.4552265537
 10
7.9815196001
 20
8.4419589356
 10
7.9979976133
 20
8.4274033764
 10
8.0123055126
 20
8.4117169138
 10
8.024288977
 20
8.3950687635
 10
8.0338187558
 20
8.3776385111
 10
8.0407920595
 20
8.3596141835
 10
8.0451336735
 20
8.341190223
 10
8.0467967748
 20
8.3225653775
  0
LINE
  5
6DA
100
AcDbEntity
  8
ASSI
100
AcDbLine
 62
7
  6
CONTINUOUS
 10
-4.0511995689
 20
16.8765870314
 11
-3.7636147059
 21
16.5890021684
  0
LINE
  5
6DB
100
AcDbEntity
  8
DRAFT
100
AcDbLine
 62
7
  6
CONTINUOUS
 10
-4.0511995689
 20
16.8765870314
 11
-3.7636147059
 21
16.5890021684
  0
LINE
  5
6DC
100
AcDbEntity
  8
ASSI
100
AcDbLine
 62
7
  6
CONTINUOUS
 10
-9.3
 20
22.4
 11
-9.2868325431
 21
22.3868325431
  0
LINE
  5
6DD
100
AcDbEntity
  8
ASSI
100
AcDbLine
 62
253
  6
CONTINUOUS
 10
-10.5868325431
 20
24.286863004
 11
-10.6
 21
24.300030461
  0
LINE
  5
6DE
100
AcDbEntity
  8
ASSI
100
AcDbLine
 62
253
  6
CONTINUOUS
 10
-10.3868630041
 20
24.4868325431
 11
-10.400030461
 21
24.5
  0
LINE
  5
6DF
100
AcDbEntity
  8
ASSI
100
AcDbLine
 62
7
  6
CONTINUOUS
 10
4.4552830575
 20
19.334259922
 11
4.4107051106
 21
19.4681025177
  0
LINE
  5
6E0
100
AcDbEntity
  8
RACCORDO
100
AcDbLine
 62
7
  6
CONTINUOUS
 10
4.4552830575
 20
19.334259922
 11
4.4107051106
 21
19.4681025177
  0
LINE
  5
6E1
100
AcDbEntity
  8
ASSI
100
AcDbLine
 62
7
  6
CONTINUOUS
 10
7.350948921
 20
19.334259922
 11
7.328661645
 21
19.4681025177
  0
LINE
  5
6E2
100
AcDbEntity
  8
RACCORDO
100
AcDbLine
 62
7
  6
CONTINUOUS
 10
7.350948921
 20
19.334259922
 11
7.328661645
 21
19.4681025177
  0
LWPOLYLINE
  5
6E3
100
AcDbEntity
  8
ASSI
100
AcDbPolyline
 62
253
  6
CONTINUOUS
 90
13
 70
0
 10
10.5868325431
 20
24.286863004
 10
10.5851144928
 20
24.3129592131
 10
10.5800056229
 20
24.3386090862
 10
10.5715933122
 20
24.3633739171
 10
10.5600214405
 20
24.3868301364
 10
10.5454879275
 20
24.4085765572
 10
10.5282413471
 20
24.4282412366
 10
10.5085766765
 20
24.445487836
 10
10.4868302527
 20
24.4600213733
 10
10.4633740196
 20
24.4715932697
 10
10.4386091647
 20
24.4800056019
 10
10.4129592571
 20
24.485114487
 10
10.386863004
 20
24.4868325431
  0
LINE
  5
6E4
100
AcDbEntity
  8
ASSI
100
AcDbLine
 62
7
  6
CONTINUOUS
 10
11.1261859216
 20
20.4226497308
 11
11.1
 21
21.0
  0
LINE
  5
6E5
100
AcDbEntity
  8
ASSI
100
AcDbLine
 62
253
  6
CONTINUOUS
 10
10.3864421556
 20
23.6278214068
 11
10.4017150409
 21
23.1226497308
  0
LINE
  5
6E6
100
AcDbEntity
  8
ASSI
100
AcDbLine
 62
253
  6
CONTINUOUS
 10
10.5863250262
 20
23.8043279271
 11
10.6
 21
23.3515746082
  0
LWPOLYLINE
  5
6E7
100
AcDbEntity
  8
ASSI
100
AcDbPolyline
 62
253
  6
CONTINUOUS
 90
3
 70
0
 10
10.586118994
 20
23.8168556062
 10
10.5861791646
 20
23.8122036402
 10
10.5863250262
 20
23.8043279271
  0
LINE
  5
6E8
100
AcDbEntity
  8
SMUSSO
100
AcDbLine
 62
7
  6
CONTINUOUS
 10
11.0
 20
-5.0738026585
 11
11.0
 21
2.209088035
  0
LINE
  5
6E9
100
AcDbEntity
  8
ASSI
100
AcDbLine
 62
7
  6
CONTINUOUS
 10
11.0738140784
 20
4.9650898701
 11
11.0738140784
 21
-4.9650898701
  0
LINE
  5
6EA
100
AcDbEntity
  8
0
100
AcDbLine
 62
7
  6
CONTINUOUS
 10
11.0738140784
 20
4.9650898701
 11
11.0738140784
 21
-4.9650898701
  0
LINE
  5
6EB
100
AcDbEntity
  8
ASSI
100
AcDbLine
 62
7
  6
CONTINUOUS
 10
11.0825449351
 20
21.8826210875
 11
11.0825449351
 21
20.4226497308
  0
LINE
  5
6EC
100
AcDbEntity
  8
ASSI
100
AcDbLine
 62
7
  6
CONTINUOUS
 10
11.0825449351
 20
-20.4226497308
 11
11.0825449351
 21
-21.8826210875
  0
LINE
  5
6ED
100
AcDbEntity
  8
ASSI
100
AcDbLine
 62
7
  6
CONTINUOUS
 10
11.1
 20
21.9000761524
 11
11.1
 21
21.0
  0
LINE
  5
6EE
100
AcDbEntity
  8
ASSI
100
AcDbLine
 62
7
  6
CONTINUOUS
 10
11.1
 20
-21.9000761524
 11
11.1
 21
-21.0
  0
LINE
  5
6EF
100
AcDbEntity
  8
ASSI
100
AcDbLine
 62
7
  6
CONTINUOUS
 10
11.1261859216
 20
-20.4226497308
 11
11.1261859216
 21
-5.0
  0
LINE
  5
6F0
100
AcDbEntity
  8
0
100
AcDbLine
 62
7
  6
CONTINUOUS
 10
11.1261859216
 20
-20.4226497308
 11
11.1261859216
 21
-5.0
  0
LINE
  5
6F1
100
AcDbEntity
  8
ASSI
100
AcDbLine
 62
7
  6
CONTINUOUS
 10
11.1261859216
 20
5.0
 11
11.1261859216
 21
20.4226497308
  0
LINE
  5
6F2
100
AcDbEntity
  8
0
100
AcDbLine
 62
7
  6
CONTINUOUS
 10
11.1261859216
 20
5.0
 11
11.1261859216
 21
20.4226497308
  0
LWPOLYLINE
  5
6F3
100
AcDbEntity
  8
ASSI
100
AcDbPolyline
 62
253
  6
CONTINUOUS
 90
3
 70
0
 10
10.5863251115
 20
-23.804321355
 10
10.5862477607
 20
-23.8080387554
 10
10.586119181
 20
-23.8168383093
  0
LINE
  5
6F4
100
AcDbEntity
  8
ASSI
100
AcDbLine
 62
253
  6
CONTINUOUS
 10
10.4017150409
 20
-23.1226497308
 11
10.3864405812
 21
-23.6278734826
  0
LINE
  5
6F5
100
AcDbEntity
  8
ASSI
100
AcDbLine
 62
253
  6
CONTINUOUS
 10
10.6
 20
-23.3515746082
 11
10.5863251115
 21
-23.804321355
  0
LINE
  5
6F6
100
AcDbEntity
  8
ASSI
100
AcDbLine
 62
7
  6
CONTINUOUS
 10
11.1
 20
-21.0
 11
11.1261859216
 21
-20.4226497308
  0
LWPOLYLINE
  5
6F7
100
AcDbEntity
  8
ASSI
100
AcDbPolyline
 62
253
  6
CONTINUOUS
 90
13
 70
0
 10
10.5868325431
 20
-24.2868630041
 10
10.5851144898
 20
-24.3129592355
 10
10.5800056122
 20
-24.3386091261
 10
10.5715932907
 20
-24.363373969
 10
10.5600214066
 20
-24.3868301951
 10
10.5454878816
 20
-24.4085766171
 10
10.5282412918
 20
-24.4282412918
 10
10.5085766171
 20
-24.4454878816
 10
10.4868301951
 20
-24.4600214066
 10
10.463373969
 20
-24.4715932907
 10
10.4386091261
 20
-24.4800056122
 10
10.4129592355
 20
-24.4851144898
 10
10.3868630041
 20
-24.4868325431
  0
LINE
  5
6F8
100
AcDbEntity
  8
ASSI
100
AcDbLine
 62
253
  6
CONTINUOUS
 10
3.1286750776
 20
-21.975182794
 11
3.05
 21
-22.1325449336
  0
LINE
  5
6F9
100
AcDbEntity
  8
ASSI
100
AcDbLine
 62
253
  6
CONTINUOUS
 10
3.3786655583
 20
-22.2251447178
 11
3.2999714434
 21
-22.3825449351
  0
LINE
  5
6FA
100
AcDbEntity
  8
ASSI
100
AcDbLine
 62
7
  6
CONTINUOUS
 10
9.5138332078
 20
-7.0861667922
 11
10.1907663376
 21
-6.4092336624
  0
LINE
  5
6FB
100
AcDbEntity
  8
0
100
AcDbLine
 62
7
  6
CONTINUOUS
 10
9.5138332078
 20
-7.0861667922
 11
10.1907663376
 21
-6.4092336624
  0
LINE
  5
6FC
100
AcDbEntity
  8
ASSI
100
AcDbLine
 62
7
  6
CONTINUOUS
 10
-4.45
 20
-22.4
 11
-4.3518840226
 21
-22.3018840226
  0
LINE
  5
6FD
100
AcDbEntity
  8
SMUSSO
100
AcDbLine
 62
7
  6
CONTINUOUS
 10
11.0
 20
-5.0738026585
 11
9.5
 21
-6.3025307249
  0
LINE
  5
6FE
100
AcDbEntity
  8
ASSI
100
AcDbLine
 62
7
  6
CONTINUOUS
 10
9.4342824707
 20
-9.2971708846
 11
9.5074009793
 21
-9.2484314002
  0
LINE
  5
6FF
100
AcDbEntity
  8
0
100
AcDbLine
 62
7
  6
CONTINUOUS
 10
9.4342824707
 20
-9.2971708846
 11
9.5074009793
 21
-9.2484314002
  0
LINE
  5
700
100
AcDbEntity
  8
ASSI
100
AcDbLine
 62
7
  6
CONTINUOUS
 10
-8.9819252468
 20
-17.471802514
 11
-9.0435128819
 21
-17.4973129477
  0
LINE
  5
701
100
AcDbEntity
  8
0
100
AcDbLine
 62
7
  6
CONTINUOUS
 10
-8.9819252468
 20
-17.471802514
 11
-9.0435128819
 21
-17.4973129477
  0
LWPOLYLINE
  5
702
100
AcDbEntity
  8
ASSI
100
AcDbPolyline
 62
7
  6
CONTINUOUS
 90
10
 70
0
 10
8.2804200417
 20
8.7935445497
 10
8.2572251883
 20
8.8127581278
 10
8.2318908131
 20
8.8299026713
 10
8.2044168593
 20
8.8449782037
 10
8.1745470211
 20
8.8582346393
 10
8.142537485
 20
8.8694221196
 10
8.1091569649
 20
8.8777910166
 10
8.0746616998
 20
8.8830914813
 10
8.0387954191
 20
8.8855734399
 10
8.001558109
 20
8.8852369324
  0
LWPOLYLINE
  5
703
100
AcDbEntity
  8
0
100
AcDbPolyline
 62
7
  6
CONTINUOUS
 90
10
 70
0
 10
8.2804200417
 20
8.7935445497
 10
8.2572251883
 20
8.8127581278
 10
8.2318908131
 20
8.8299026713
 10
8.2044168593
 20
8.8449782037
 10
8.1745470211
 20
8.8582346393
 10
8.142537485
 20
8.8694221196
 10
8.1091569649
 20
8.8777910166
 10
8.0746616998
 20
8.8830914813
 10
8.0387954191
 20
8.8855734399
 10
8.001558109
 20
8.8852369324
  0
LWPOLYLINE
  5
704
100
AcDbEntity
  8
ASSI
100
AcDbPolyline
 62
7
  6
CONTINUOUS
 90
10
 70
0
 10
-8.5466230298
 20
23.6278312163
 10
-8.5659358966
 20
23.6461238988
 10
-8.5866586836
 20
23.6670655587
 10
-8.608791391
 20
23.6899995776
 10
-8.6326327808
 20
23.7141377517
 10
-8.6578840909
 20
23.7390654611
 10
-8.6836490347
 20
23.7648572212
 10
-8.7096288497
 20
23.7913286324
 10
-8.7361222984
 20
23.8179338627
 10
-8.7631293807
 20
23.8443375673
  0
LINE
  5
705
100
AcDbEntity
  8
ASSI
100
AcDbLine
 62
7
  6
CONTINUOUS
 10
10.1
 20
6.5
 11
9.5138332078
 21
7.0861667922
  0
LINE
  5
706
100
AcDbEntity
  8
0
100
AcDbLine
 62
7
  6
CONTINUOUS
 10
10.1
 20
6.5
 11
9.5138332078
 21
7.0861667922
  0
LINE
  5
707
100
AcDbEntity
  8
ASSI
100
AcDbLine
 62
7
  6
CONTINUOUS
 10
10.1907663376
 20
6.5375966481
 11
9.65
 21
7.0783629857
  0
LINE
  5
708
100
AcDbEntity
  8
0
100
AcDbLine
 62
7
  6
CONTINUOUS
 10
10.1907663376
 20
6.5375966481
 11
9.65
 21
7.0783629857
  0
LINE
  5
709
100
AcDbEntity
  8
ASSI
100
AcDbLine
 62
7
  6
CONTINUOUS
 10
-4.45
 20
22.4
 11
-4.3518840226
 21
22.3018840226
  0
LINE
  5
70A
100
AcDbEntity
  8
ASSI
100
AcDbLine
 62
253
  6
CONTINUOUS
 10
3.05
 20
22.1325449336
 11
3.1286750776
 21
21.975182794
  0
LINE
  5
70B
100
AcDbEntity
  8
ASSI
100
AcDbLine
 62
253
  6
CONTINUOUS
 10
3.2999714434
 20
22.3825449351
 11
3.3786655583
 21
22.2251447178
  0
LWPOLYLINE
  5
70C
100
AcDbEntity
  8
ASSI
100
AcDbPolyline
 62
7
  6
CONTINUOUS
 90
8
 70
0
 10
8.0337973724
 20
-20.8347950074
 10
8.0346946477
 20
-20.8315368208
 10
8.0355637619
 20
-20.8234766763
 10
8.0364047148
 20
-20.8106145738
 10
8.0372247092
 20
-20.792750821
 10
8.0380165424
 20
-20.7700851103
 10
8.0387586066
 20
-20.7432165184
 10
8.0400935476
 20
-20.6764663997
  0
LWPOLYLINE
  5
70D
100
AcDbEntity
  8
0
100
AcDbPolyline
 62
7
  6
CONTINUOUS
 90
8
 70
0
 10
8.0337973724
 20
-20.8347950074
 10
8.0346946477
 20
-20.8315368208
 10
8.0355637619
 20
-20.8234766763
 10
8.0364047148
 20
-20.8106145738
 10
8.0372247092
 20
-20.792750821
 10
8.0380165424
 20
-20.7700851103
 10
8.0387586066
 20
-20.7432165184
 10
8.0400935476
 20
-20.6764663997
  0
LINE
  5
70E
100
AcDbEntity
  8
ASSI
100
AcDbLine
 62
7
  6
CONTINUOUS
 10
7.3012233427
 20
-22.2251447178
 11
7.2551134101
 21
-22.3825449351
  0
LINE
  5
70F
100
AcDbEntity
  8
ASSI
100
AcDbLine
 62
253
  6
CONTINUOUS
 10
6.8393280183
 20
-16.27
 11
6.7651496421
 21
-16.4183680519
  0
LINE
  5
710
100
AcDbEntity
  8
0
100
AcDbLine
 62
253
  6
CONTINUOUS
 10
6.8393280183
 20
-16.27
 11
6.7651496421
 21
-16.4183680519
  0
LINE
  5
711
100
AcDbEntity
  8
ASSI
100
AcDbLine
 62
7
  6
CONTINUOUS
 10
6.4438534812
 20
-17.5036910024
 11
6.5349074712
 21
-17.3215691524
  0
LINE
  5
712
100
AcDbEntity
  8
0
100
AcDbLine
 62
7
  6
CONTINUOUS
 10
6.4438534812
 20
-17.5036910024
 11
6.5349074712
 21
-17.3215691524
  0
LINE
  5
713
100
AcDbEntity
  8
ASSI
100
AcDbLine
 62
253
  6
CONTINUOUS
 10
7.3392709051
 20
-16.7700000029
 11
7.2650925288
 21
-16.9183680548
  0
LINE
  5
714
100
AcDbEntity
  8
0
100
AcDbLine
 62
253
  6
CONTINUOUS
 10
7.3392709051
 20
-16.7700000029
 11
7.2650925288
 21
-16.9183680548
  0
LINE
  5
715
100
AcDbEntity
  8
ASSI
100
AcDbLine
 62
253
  6
CONTINUOUS
 10
-4.3518822356
 20
-23.6519203118
 11
-4.45
 21
-23.7500380762
  0
LINE
  5
716
100
AcDbEntity
  8
ASSI
100
AcDbLine
 62
253
  6
CONTINUOUS
 10
-4.1019220988
 20
-23.9018840226
 11
-4.2000380762
 21
-24.0
  0
LINE
  5
717
100
AcDbEntity
  8
ASSI
100
AcDbLine
 62
7
  6
CONTINUOUS
 10
8.0441256373
 20
-10.8024332407
 11
8.0482618771
 21
-10.8007199541
  0
LINE
  5
718
100
AcDbEntity
  8
0
100
AcDbLine
 62
7
  6
CONTINUOUS
 10
8.0441256373
 20
-10.8024332407
 11
8.0482618771
 21
-10.8007199541
  0
LINE
  5
719
100
AcDbEntity
  8
ASSI
100
AcDbLine
 62
7
  6
CONTINUOUS
 10
-10.1083982375
 20
-18.5034786639
 11
-10.2466225454
 21
-18.5607330469
  0
LINE
  5
71A
100
AcDbEntity
  8
0
100
AcDbLine
 62
7
  6
CONTINUOUS
 10
-10.1083982375
 20
-18.5034786639
 11
-10.2466225454
 21
-18.5607330469
  0
LINE
  5
71B
100
AcDbEntity
  8
ASSI
100
AcDbLine
 62
7
  6
CONTINUOUS
 10
10.1041700454
 20
-10.4982727107
 11
10.2466225454
 21
-10.4392669531
  0
LINE
  5
71C
100
AcDbEntity
  8
0
100
AcDbLine
 62
7
  6
CONTINUOUS
 10
10.1041700454
 20
-10.4982727107
 11
10.2466225454
 21
-10.4392669531
  0
LINE
  5
71D
100
AcDbEntity
  8
ASSI
100
AcDbLine
 62
7
  6
CONTINUOUS
 10
-8.0438568666
 20
-18.4974554308
 11
-7.9819252468
 21
-18.471802514
  0
LINE
  5
71E
100
AcDbEntity
  8
0
100
AcDbLine
 62
7
  6
CONTINUOUS
 10
-8.0438568666
 20
-18.4974554308
 11
-7.9819252468
 21
-18.471802514
  0
LINE
  5
71F
100
AcDbEntity
  8
ASSI
100
AcDbLine
 62
7
  6
CONTINUOUS
 10
9.0318412786
 20
-11.8075215887
 11
9.0466683828
 21
-11.801380001
  0
LINE
  5
720
100
AcDbEntity
  8
0
100
AcDbLine
 62
7
  6
CONTINUOUS
 10
9.0318412786
 20
-11.8075215887
 11
9.0466683828
 21
-11.801380001
  0
LINE
  5
721
100
AcDbEntity
  8
ASSI
100
AcDbLine
 62
7
  6
CONTINUOUS
 10
3.618225368
 20
14.7234140051
 11
3.8741265095
 21
14.774094081
  0
LINE
  5
722
100
AcDbEntity
  8
RACCORDO
100
AcDbLine
 62
7
  6
CONTINUOUS
 10
3.618225368
 20
14.7234140051
 11
3.8741265095
 21
14.774094081
  0
LINE
  5
723
100
AcDbEntity
  8
ASSI
100
AcDbLine
 62
7
  6
CONTINUOUS
 10
7.7903874625
 20
14.6886542078
 11
7.7562925989
 21
14.6852790689
  0
LINE
  5
724
100
AcDbEntity
  8
DRAFT
100
AcDbLine
 62
7
  6
CONTINUOUS
 10
7.7903874625
 20
14.6886542078
 11
7.7562925989
 21
14.6852790689
  0
LINE
  5
725
100
AcDbEntity
  8
ASSI
100
AcDbLine
 62
7
  6
CONTINUOUS
 10
-7.7562925989
 20
14.6852790689
 11
-9.4379053794
 21
14.6834101266
  0
LINE
  5
726
100
AcDbEntity
  8
DRAFT
100
AcDbLine
 62
7
  6
CONTINUOUS
 10
-7.7562925989
 20
14.6852790689
 11
-9.4379053794
 21
14.6834101266
  0
LINE
  5
727
100
AcDbEntity
  8
ASSI
100
AcDbLine
 62
7
  6
CONTINUOUS
 10
3.618225368
 20
14.7234140051
 11
7.7560360581
 21
14.7295016421
  0
LINE
  5
728
100
AcDbEntity
  8
DRAFT
100
AcDbLine
 62
7
  6
CONTINUOUS
 10
3.618225368
 20
14.7234140051
 11
7.7560360581
 21
14.7295016421
  0
LINE
  5
729
100
AcDbEntity
  8
RACCORDO
100
AcDbLine
 62
7
  6
CONTINUOUS
 10
3.1
 20
13.9
 11
-3.1
 21
13.9
  0
LINE
  5
72A
100
AcDbEntity
  8
ASSI
100
AcDbLine
 62
7
  6
CONTINUOUS
 10
3.6137037861
 20
14.0
 11
3.323486441
 21
14.0
  0
LINE
  5
72B
100
AcDbEntity
  8
DRAFT
100
AcDbLine
 62
7
  6
CONTINUOUS
 10
3.6137037861
 20
14.0
 11
3.323486441
 21
14.0
  0
LINE
  5
72C
100
AcDbEntity
  8
ASSI
100
AcDbLine
 62
7
  6
CONTINUOUS
 10
-3.323486441
 20
14.0
 11
-3.6137037861
 21
14.0
  0
LINE
  5
72D
100
AcDbEntity
  8
DRAFT
100
AcDbLine
 62
7
  6
CONTINUOUS
 10
-3.323486441
 20
14.0
 11
-3.6137037861
 21
14.0
  0
LINE
  5
72E
100
AcDbEntity
  8
ASSI
100
AcDbLine
 62
7
  6
CONTINUOUS
 10
9.5
 20
14.6886542078
 11
7.7903874625
 21
14.6886542078
  0
LINE
  5
72F
100
AcDbEntity
  8
DRAFT
100
AcDbLine
 62
7
  6
CONTINUOUS
 10
9.5
 20
14.6886542078
 11
7.7903874625
 21
14.6886542078
  0
LINE
  5
730
100
AcDbEntity
  8
ASSI
100
AcDbLine
 62
7
  6
CONTINUOUS
 10
-7.7903874625
 20
14.6886542078
 11
-9.5
 21
14.6886542078
  0
LINE
  5
731
100
AcDbEntity
  8
DRAFT
100
AcDbLine
 62
7
  6
CONTINUOUS
 10
-7.7903874625
 20
14.6886542078
 11
-9.5
 21
14.6886542078
  0
LINE
  5
732
100
AcDbEntity
  8
ASSI
100
AcDbLine
 62
253
  6
CONTINUOUS
 10
-7.5308734905
 20
14.774094081
 11
-3.8741265095
 21
14.774094081
  0
LINE
  5
733
100
AcDbEntity
  8
RACCORDO
100
AcDbLine
 62
253
  6
CONTINUOUS
 10
-7.5308734905
 20
14.774094081
 11
-3.8741265095
 21
14.774094081
  0
LINE
  5
734
100
AcDbEntity
  8
ASSI
100
AcDbLine
 62
253
  6
CONTINUOUS
 10
3.8741265095
 20
14.774094081
 11
7.5308734905
 21
14.774094081
  0
LINE
  5
735
100
AcDbEntity
  8
RACCORDO
100
AcDbLine
 62
253
  6
CONTINUOUS
 10
3.8741265095
 20
14.774094081
 11
7.5308734905
 21
14.774094081
  0
LINE
  5
736
100
AcDbEntity
  8
ASSI
100
AcDbLine
 62
7
  6
CONTINUOUS
 10
-3.5
 20
14.85
 11
-3.4
 21
14.85
  0
LINE
  5
737
100
AcDbEntity
  8
DRAFT
100
AcDbLine
 62
7
  6
CONTINUOUS
 10
-3.5
 20
14.85
 11
-3.4
 21
14.85
  0
LINE
  5
738
100
AcDbEntity
  8
ASSI
100
AcDbLine
 62
7
  6
CONTINUOUS
 10
3.4
 20
14.85
 11
3.5
 21
14.85
  0
LINE
  5
739
100
AcDbEntity
  8
DRAFT
100
AcDbLine
 62
7
  6
CONTINUOUS
 10
3.4
 20
14.85
 11
3.5
 21
14.85
  0
LINE
  5
73A
100
AcDbEntity
  8
ASSI
100
AcDbLine
 62
7
  6
CONTINUOUS
 10
3.5440817452
 20
15.1
 11
3.4
 21
15.1
  0
LINE
  5
73B
100
AcDbEntity
  8
DRAFT
100
AcDbLine
 62
7
  6
CONTINUOUS
 10
3.5440817452
 20
15.1
 11
3.4
 21
15.1
  0
LINE
  5
73C
100
AcDbEntity
  8
ASSI
100
AcDbLine
 62
7
  6
CONTINUOUS
 10
-3.4
 20
15.1
 11
-3.5440817452
 21
15.1
  0
LINE
  5
73D
100
AcDbEntity
  8
DRAFT
100
AcDbLine
 62
7
  6
CONTINUOUS
 10
-3.4
 20
15.1
 11
-3.5440817452
 21
15.1
  0
LINE
  5
73E
100
AcDbEntity
  8
ASSI
100
AcDbLine
 62
7
  6
CONTINUOUS
 10
9.4379053794
 20
14.6834101266
 11
7.7562925989
 21
14.6852790689
  0
LINE
  5
73F
100
AcDbEntity
  8
DRAFT
100
AcDbLine
 62
7
  6
CONTINUOUS
 10
9.4379053794
 20
14.6834101266
 11
7.7562925989
 21
14.6852790689
  0
LINE
  5
740
100
AcDbEntity
  8
ASSI
100
AcDbLine
 62
7
  6
CONTINUOUS
 10
-7.7560360581
 20
14.7295016421
 11
-3.618225368
 21
14.7234140051
  0
LINE
  5
741
100
AcDbEntity
  8
DRAFT
100
AcDbLine
 62
7
  6
CONTINUOUS
 10
-7.7560360581
 20
14.7295016421
 11
-3.618225368
 21
14.7234140051
  0
LINE
  5
742
100
AcDbEntity
  8
ASSI
100
AcDbLine
 62
7
  6
CONTINUOUS
 10
-7.7562925989
 20
14.6852790689
 11
-7.7903874625
 21
14.6886542078
  0
LINE
  5
743
100
AcDbEntity
  8
DRAFT
100
AcDbLine
 62
7
  6
CONTINUOUS
 10
-7.7562925989
 20
14.6852790689
 11
-7.7903874625
 21
14.6886542078
  0
LINE
  5
744
100
AcDbEntity
  8
ASSI
100
AcDbLine
 62
7
  6
CONTINUOUS
 10
-3.618225368
 20
14.7234140051
 11
-3.8741265095
 21
14.774094081
  0
LINE
  5
745
100
AcDbEntity
  8
RACCORDO
100
AcDbLine
 62
7
  6
CONTINUOUS
 10
-3.618225368
 20
14.7234140051
 11
-3.8741265095
 21
14.774094081
  0
LINE
  5
746
100
AcDbEntity
  8
ASSI
100
AcDbLine
 62
253
  6
CONTINUOUS
 10
-4.45
 20
23.7500380762
 11
-4.3518822356
 21
23.6519203118
  0
LINE
  5
747
100
AcDbEntity
  8
ASSI
100
AcDbLine
 62
253
  6
CONTINUOUS
 10
-4.2000380762
 20
24.0
 11
-4.1019220988
 21
23.9018840226
  0
LINE
  5
748
100
AcDbEntity
  8
ASSI
100
AcDbLine
 62
253
  6
CONTINUOUS
 10
3.8445737581
 20
17.4555023943
 11
3.9565726641
 21
17.3435034883
  0
LINE
  5
749
100
AcDbEntity
  8
RACCORDO
100
AcDbLine
 62
253
  6
CONTINUOUS
 10
3.8445737581
 20
17.4555023943
 11
3.9565726641
 21
17.3435034883
  0
LINE
  5
74A
100
AcDbEntity
  8
ASSI
100
AcDbLine
 62
7
  6
CONTINUOUS
 10
7.3012233427
 20
22.2251447178
 11
7.2551134101
 21
22.3825449351
  0
LINE
  5
74B
100
AcDbEntity
  8
ASSI
100
AcDbLine
 62
7
  6
CONTINUOUS
 10
6.3516319481
 20
-16.4183680519
 11
6.5
 21
-16.27
  0
LINE
  5
74C
100
AcDbEntity
  8
0
100
AcDbLine
 62
7
  6
CONTINUOUS
 10
6.3516319481
 20
-16.4183680519
 11
6.5
 21
-16.27
  0
LINE
  5
74D
100
AcDbEntity
  8
ASSI
100
AcDbLine
 62
7
  6
CONTINUOUS
 10
-9.4564965907
 20
-20.8355119633
 11
-9.65
 21
-20.9
  0
LINE
  5
74E
100
AcDbEntity
  8
RACCORDO
100
AcDbLine
 62
7
  6
CONTINUOUS
 10
-9.4564965907
 20
-20.8355119633
 11
-9.65
 21
-20.9
  0
LINE
  5
74F
100
AcDbEntity
  8
ASSI
100
AcDbLine
 62
7
  6
CONTINUOUS
 10
-7.7560360581
 20
14.7295016421
 11
-7.5308734905
 21
14.774094081
  0
LINE
  5
750
100
AcDbEntity
  8
RACCORDO
100
AcDbLine
 62
7
  6
CONTINUOUS
 10
-7.7560360581
 20
14.7295016421
 11
-7.5308734905
 21
14.774094081
  0
LINE
  5
751
100
AcDbEntity
  8
DRAFT
100
AcDbLine
 62
7
  6
CONTINUOUS
 10
-8.15
 20
15.4941426185
 11
-7.7903874625
 21
15.4941426185
  0
LINE
  5
752
100
AcDbEntity
  8
DRAFT
100
AcDbLine
 62
7
  6
CONTINUOUS
 10
-3.7536149133
 20
15.4941426185
 11
-3.4
 21
15.4941426185
  0
LINE
  5
753
100
AcDbEntity
  8
DRAFT
100
AcDbLine
 62
7
  6
CONTINUOUS
 10
3.4
 20
15.4941426185
 11
3.7536149133
 21
15.4941426185
  0
LINE
  5
754
100
AcDbEntity
  8
DRAFT
100
AcDbLine
 62
7
  6
CONTINUOUS
 10
7.6513850867
 20
15.4941426185
 11
8.15
 21
15.4941426185
  0
LINE
  5
755
100
AcDbEntity
  8
RACCORDO
100
AcDbLine
 62
7
  6
CONTINUOUS
 10
9.15
 20
15.6
 11
7.6505245697
 21
15.6
  0
LINE
  5
756
100
AcDbEntity
  8
RACCORDO
100
AcDbLine
 62
7
  6
CONTINUOUS
 10
3.7544754303
 20
15.6
 11
3.4
 21
15.6
  0
LINE
  5
757
100
AcDbEntity
  8
RACCORDO
100
AcDbLine
 62
7
  6
CONTINUOUS
 10
-3.4
 20
15.6
 11
-3.7544754303
 21
15.6
  0
LINE
  5
758
100
AcDbEntity
  8
RACCORDO
100
AcDbLine
 62
7
  6
CONTINUOUS
 10
-7.6505245697
 20
15.6
 11
-9.15
 21
15.6
  0
LINE
  5
759
100
AcDbEntity
  8
ASSI
100
AcDbLine
 62
253
  6
CONTINUOUS
 10
-7.3608076463
 20
15.7385854114
 11
-4.0441923537
 21
15.7385854114
  0
LINE
  5
75A
100
AcDbEntity
  8
RACCORDO
100
AcDbLine
 62
253
  6
CONTINUOUS
 10
-7.3608076463
 20
15.7385854114
 11
-4.0441923537
 21
15.7385854114
  0
LINE
  5
75B
100
AcDbEntity
  8
ASSI
100
AcDbLine
 62
253
  6
CONTINUOUS
 10
4.0441923537
 20
15.7385854114
 11
7.3608076463
 21
15.7385854114
  0
LINE
  5
75C
100
AcDbEntity
  8
RACCORDO
100
AcDbLine
 62
253
  6
CONTINUOUS
 10
4.0441923537
 20
15.7385854114
 11
7.3608076463
 21
15.7385854114
  0
LINE
  5
75D
100
AcDbEntity
  8
ASSI
100
AcDbLine
 62
7
  6
CONTINUOUS
 10
9.4925054846
 20
16.8514272135
 11
9.45
 21
16.8514272135
  0
LINE
  5
75E
100
AcDbEntity
  8
DRAFT
100
AcDbLine
 62
7
  6
CONTINUOUS
 10
9.4925054846
 20
16.8514272135
 11
9.45
 21
16.8514272135
  0
LINE
  5
75F
100
AcDbEntity
  8
ASSI
100
AcDbLine
 62
7
  6
CONTINUOUS
 10
-9.45
 20
16.8514272135
 11
-9.4925054846
 21
16.8514272135
  0
LINE
  5
760
100
AcDbEntity
  8
DRAFT
100
AcDbLine
 62
7
  6
CONTINUOUS
 10
-9.45
 20
16.8514272135
 11
-9.4925054846
 21
16.8514272135
  0
LINE
  5
761
100
AcDbEntity
  8
ASSI
100
AcDbLine
 62
7
  6
CONTINUOUS
 10
-4.0511995689
 20
16.8765870314
 11
4.0511995689
 21
16.8765870314
  0
LINE
  5
762
100
AcDbEntity
  8
DRAFT
100
AcDbLine
 62
7
  6
CONTINUOUS
 10
-4.0511995689
 20
16.8765870314
 11
4.0511995689
 21
16.8765870314
  0
LINE
  5
763
100
AcDbEntity
  8
ASSI
100
AcDbLine
 62
7
  6
CONTINUOUS
 10
-7.0521095537
 20
16.980076498
 11
-6.7478904463
 21
16.980076498
  0
LINE
  5
764
100
AcDbEntity
  8
RACCORDO
100
AcDbLine
 62
7
  6
CONTINUOUS
 10
-7.0521095537
 20
16.980076498
 11
-6.7478904463
 21
16.980076498
  0
LINE
  5
765
100
AcDbEntity
  8
ASSI
100
AcDbLine
 62
7
  6
CONTINUOUS
 10
6.7478904463
 20
16.980076498
 11
7.0521095537
 21
16.980076498
  0
LINE
  5
766
100
AcDbEntity
  8
RACCORDO
100
AcDbLine
 62
7
  6
CONTINUOUS
 10
6.7478904463
 20
16.980076498
 11
7.0521095537
 21
16.980076498
  0
LINE
  5
767
100
AcDbEntity
  8
ASSI
100
AcDbLine
 62
7
  6
CONTINUOUS
 10
-9.4951140381
 20
17.1381978935
 11
-7.3521895691
 21
17.1381978935
  0
LINE
  5
768
100
AcDbEntity
  8
RACCORDO
100
AcDbLine
 62
7
  6
CONTINUOUS
 10
-9.4951140381
 20
17.1381978935
 11
-7.3521895691
 21
17.1381978935
  0
LINE
  5
769
100
AcDbEntity
  8
ASSI
100
AcDbLine
 62
7
  6
CONTINUOUS
 10
7.3521895691
 20
17.1381978935
 11
9.4951140381
 21
17.1381978935
  0
LINE
  5
76A
100
AcDbEntity
  8
RACCORDO
100
AcDbLine
 62
7
  6
CONTINUOUS
 10
7.3521895691
 20
17.1381978935
 11
9.4951140381
 21
17.1381978935
  0
LINE
  5
76B
100
AcDbEntity
  8
ASSI
100
AcDbLine
 62
7
  6
CONTINUOUS
 10
7.7560360581
 20
14.7295016421
 11
7.5308734905
 21
14.774094081
  0
LINE
  5
76C
100
AcDbEntity
  8
RACCORDO
100
AcDbLine
 62
7
  6
CONTINUOUS
 10
7.7560360581
 20
14.7295016421
 11
7.5308734905
 21
14.774094081
  0
LINE
  5
76D
100
AcDbEntity
  8
ASSI
100
AcDbLine
 62
7
  6
CONTINUOUS
 10
-9.5714422353
 20
20.8738193966
 11
-9.65
 21
20.9
  0
LINE
  5
76E
100
AcDbEntity
  8
0
100
AcDbLine
 62
7
  6
CONTINUOUS
 10
-9.5714422353
 20
20.8738193966
 11
-9.65
 21
20.9
  0
LINE
  5
76F
100
AcDbEntity
  8
ASSI
100
AcDbLine
 62
253
  6
CONTINUOUS
 10
4.3444976057
 20
17.9554262419
 11
4.4561916001
 21
17.8437322475
  0
LINE
  5
770
100
AcDbEntity
  8
RACCORDO
100
AcDbLine
 62
253
  6
CONTINUOUS
 10
4.3444976057
 20
17.9554262419
 11
4.4561916001
 21
17.8437322475
  0
LINE
  5
771
100
AcDbEntity
  8
ASSI
100
AcDbLine
 62
7
  6
CONTINUOUS
 10
9.5
 20
14.6886542078
 11
9.639870208
 21
14.5487839997
  0
LINE
  5
772
100
AcDbEntity
  8
DRAFT
100
AcDbLine
 62
7
  6
CONTINUOUS
 10
9.5
 20
14.6886542078
 11
9.639870208
 21
14.5487839997
  0
LINE
  5
773
100
AcDbEntity
  8
ASSI
100
AcDbLine
 62
7
  6
CONTINUOUS
 10
8.0438568666
 20
-18.4974554308
 11
9.0435128819
 21
-17.4973129477
  0
LINE
  5
774
100
AcDbEntity
  8
0
100
AcDbLine
 62
7
  6
CONTINUOUS
 10
8.0438568666
 20
-18.4974554308
 11
9.0435128819
 21
-17.4973129477
  0
LINE
  5
775
100
AcDbEntity
  8
ASSI
100
AcDbLine
 62
253
  6
CONTINUOUS
 10
0.8174550649
 20
-23.7325830113
 11
0.8
 21
-23.7500380762
  0
LINE
  5
776
100
AcDbEntity
  8
ASSI
100
AcDbLine
 62
7
  6
CONTINUOUS
 10
3.1173032135
 20
-21.6326967865
 11
3.05
 21
-21.7
  0
LINE
  5
777
100
AcDbEntity
  8
ASSI
100
AcDbLine
 62
253
  6
CONTINUOUS
 10
1.0674169887
 20
-23.9825449351
 11
1.0499619238
 21
-24.0
  0
LINE
  5
778
100
AcDbEntity
  8
ASSI
100
AcDbLine
 62
7
  6
CONTINUOUS
 10
3.5806609125
 20
-22.3018840226
 11
3.5
 21
-22.3825449351
  0
LINE
  5
779
100
AcDbEntity
  8
ASSI
100
AcDbLine
 62
7
  6
CONTINUOUS
 10
5.432569703
 20
-20.767430297
 11
5.1254493507
 21
-21.0745506493
  0
LINE
  5
77A
100
AcDbEntity
  8
RACCORDO
100
AcDbLine
 62
7
  6
CONTINUOUS
 10
5.432569703
 20
-20.767430297
 11
5.1254493507
 21
-21.0745506493
  0
LINE
  5
77B
100
AcDbEntity
  8
ASSI
100
AcDbLine
 62
7
  6
CONTINUOUS
 10
7.9819252468
 20
-18.471802514
 11
8.9819252468
 21
-17.471802514
  0
LINE
  5
77C
100
AcDbEntity
  8
0
100
AcDbLine
 62
7
  6
CONTINUOUS
 10
7.9819252468
 20
-18.471802514
 11
8.9819252468
 21
-17.471802514
  0
LINE
  5
77D
100
AcDbEntity
  8
ASSI
100
AcDbLine
 62
253
  6
CONTINUOUS
 10
3.5806626995
 20
-23.6519203118
 11
3.5
 21
-23.7325830113
  0
LWPOLYLINE
  5
77E
100
AcDbEntity
  8
ASSI
100
AcDbPolyline
 62
253
  6
CONTINUOUS
 90
19
 70
0
 10
3.8445737581
 20
17.4555023943
 10
3.8882613843
 20
17.4574282586
 10
3.9316214047
 20
17.4631656834
 10
3.97432172
 20
17.4726725123
 10
4.016044049
 20
17.4858809871
 10
4.0564587281
 20
17.5026899211
 10
4.0952303975
 20
17.5229576679
 10
4.1320454423
 20
17.5465102667
 10
4.1666471967
 20
17.5731729803
 10
4.1988050188
 20
17.6027678125
 10
4.2282962471
 20
17.6351044841
 10
4.254859207
 20
17.6699120673
 10
4.2782450561
 20
17.7068555455
 10
4.2982890906
 20
17.7456447634
 10
4.3148521737
 20
17.7859755975
 10
4.3278013625
 20
17.8274525561
 10
4.3370705309
 20
17.8697228592
 10
4.3426371809
 20
17.9124884652
 10
4.3444976057
 20
17.9554262419
  0
LWPOLYLINE
  5
77F
100
AcDbEntity
  8
RACCORDO
100
AcDbPolyline
 62
253
  6
CONTINUOUS
 90
19
 70
0
 10
3.8445737581
 20
17.4555023943
 10
3.8882613843
 20
17.4574282586
 10
3.9316214047
 20
17.4631656834
 10
3.97432172
 20
17.4726725123
 10
4.016044049
 20
17.4858809871
 10
4.0564587281
 20
17.5026899211
 10
4.0952303975
 20
17.5229576679
 10
4.1320454423
 20
17.5465102667
 10
4.1666471967
 20
17.5731729803
 10
4.1988050188
 20
17.6027678125
 10
4.2282962471
 20
17.6351044841
 10
4.254859207
 20
17.6699120673
 10
4.2782450561
 20
17.7068555455
 10
4.2982890906
 20
17.7456447634
 10
4.3148521737
 20
17.7859755975
 10
4.3278013625
 20
17.8274525561
 10
4.3370705309
 20
17.8697228592
 10
4.3426371809
 20
17.9124884652
 10
4.3444976057
 20
17.9554262419
  0
LINE
  5
780
100
AcDbEntity
  8
ASSI
100
AcDbLine
 62
7
  6
CONTINUOUS
 10
-3.9565726641
 20
17.3435034883
 11
3.9565726641
 21
17.3435034883
  0
LINE
  5
781
100
AcDbEntity
  8
RACCORDO
100
AcDbLine
 62
7
  6
CONTINUOUS
 10
-3.9565726641
 20
17.3435034883
 11
3.9565726641
 21
17.3435034883
  0
LINE
  5
782
100
AcDbEntity
  8
ASSI
100
AcDbLine
 62
253
  6
CONTINUOUS
 10
-3.8445737581
 20
17.4555023943
 11
3.8445737581
 21
17.4555023943
  0
LINE
  5
783
100
AcDbEntity
  8
RACCORDO
100
AcDbLine
 62
253
  6
CONTINUOUS
 10
-3.8445737581
 20
17.4555023943
 11
3.8445737581
 21
17.4555023943
  0
LINE
  5
784
100
AcDbEntity
  8
ASSI
100
AcDbLine
 62
253
  6
CONTINUOUS
 10
4.3444976057
 20
17.9554262419
 11
-4.3444976057
 21
17.9554262419
  0
LINE
  5
785
100
AcDbEntity
  8
RACCORDO
100
AcDbLine
 62
253
  6
CONTINUOUS
 10
4.3444976057
 20
17.9554262419
 11
-4.3444976057
 21
17.9554262419
  0
LINE
  5
786
100
AcDbEntity
  8
ASSI
100
AcDbLine
 62
7
  6
CONTINUOUS
 10
9.4971221886
 20
19.334259922
 11
7.350948921
 21
19.334259922
  0
LINE
  5
787
100
AcDbEntity
  8
DRAFT
100
AcDbLine
 62
7
  6
CONTINUOUS
 10
9.4971221886
 20
19.334259922
 11
7.350948921
 21
19.334259922
  0
LINE
  5
788
100
AcDbEntity
  8
ASSI
100
AcDbLine
 62
7
  6
CONTINUOUS
 10
6.449051079
 20
19.334259922
 11
4.4552830575
 21
19.334259922
  0
LINE
  5
789
100
AcDbEntity
  8
DRAFT
100
AcDbLine
 62
7
  6
CONTINUOUS
 10
6.449051079
 20
19.334259922
 11
4.4552830575
 21
19.334259922
  0
LINE
  5
78A
100
AcDbEntity
  8
ASSI
100
AcDbLine
 62
7
  6
CONTINUOUS
 10
-4.4552830575
 20
19.334259922
 11
-6.449051079
 21
19.334259922
  0
LINE
  5
78B
100
AcDbEntity
  8
DRAFT
100
AcDbLine
 62
7
  6
CONTINUOUS
 10
-4.4552830575
 20
19.334259922
 11
-6.449051079
 21
19.334259922
  0
LINE
  5
78C
100
AcDbEntity
  8
ASSI
100
AcDbLine
 62
7
  6
CONTINUOUS
 10
-7.350948921
 20
19.334259922
 11
-9.4971221886
 21
19.334259922
  0
LINE
  5
78D
100
AcDbEntity
  8
DRAFT
100
AcDbLine
 62
7
  6
CONTINUOUS
 10
-7.350948921
 20
19.334259922
 11
-9.4971221886
 21
19.334259922
  0
LINE
  5
78E
100
AcDbEntity
  8
ASSI
100
AcDbLine
 62
7
  6
CONTINUOUS
 10
9.4379053794
 20
14.6834101266
 11
9.639870208
 21
14.5487839997
  0
LINE
  5
78F
100
AcDbEntity
  8
DRAFT
100
AcDbLine
 62
7
  6
CONTINUOUS
 10
9.4379053794
 20
14.6834101266
 11
9.639870208
 21
14.5487839997
  0
LINE
  5
790
100
AcDbEntity
  8
ASSI
100
AcDbLine
 62
7
  6
CONTINUOUS
 10
7.3521895691
 20
17.1381978935
 11
7.6389602491
 21
16.8514272135
  0
LINE
  5
791
100
AcDbEntity
  8
RACCORDO
100
AcDbLine
 62
7
  6
CONTINUOUS
 10
7.3521895691
 20
17.1381978935
 11
7.6389602491
 21
16.8514272135
  0
LINE
  5
792
100
AcDbEntity
  8
ASSI
100
AcDbLine
 62
253
  6
CONTINUOUS
 10
0.8
 20
23.7500380762
 11
0.8174550649
 21
23.7325830113
  0
LINE
  5
793
100
AcDbEntity
  8
ASSI
100
AcDbLine
 62
7
  6
CONTINUOUS
 10
3.1173032135
 20
21.6326967865
 11
3.05
 21
21.7
  0
LINE
  5
794
100
AcDbEntity
  8
ASSI
100
AcDbLine
 62
253
  6
CONTINUOUS
 10
1.0499619238
 20
24.0
 11
1.0674169887
 21
23.9825449351
  0
LINE
  5
795
100
AcDbEntity
  8
ASSI
100
AcDbLine
 62
7
  6
CONTINUOUS
 10
3.5
 20
22.3825449351
 11
3.5806609125
 21
22.3018840226
  0
LINE
  5
796
100
AcDbEntity
  8
ASSI
100
AcDbLine
 62
7
  6
CONTINUOUS
 10
5.3523651948
 20
20.8476348052
 11
5.1254493507
 21
21.0745506493
  0
LINE
  5
797
100
AcDbEntity
  8
0
100
AcDbLine
 62
7
  6
CONTINUOUS
 10
5.3523651948
 20
20.8476348052
 11
5.1254493507
 21
21.0745506493
  0
LINE
  5
798
100
AcDbEntity
  8
ASSI
100
AcDbLine
 62
253
  6
CONTINUOUS
 10
3.5
 20
23.7325830113
 11
3.5806626995
 21
23.6519203118
  0
LWPOLYLINE
  5
799
100
AcDbEntity
  8
ASSI
100
AcDbPolyline
 62
253
  6
CONTINUOUS
 90
10
 70
0
 10
7.2131674569
 20
24.286863004
 10
7.2132092571
 20
24.2867801752
 10
7.2132518534
 20
24.2865573861
 10
7.2132952457
 20
24.2861946369
 10
7.2133396932
 20
24.2856980068
 10
7.2133849368
 20
24.2850614166
 10
7.2134301993
 20
24.2842666281
 10
7.2134755016
 20
24.2833085273
 10
7.2135208229
 20
24.2821922282
 10
7.2135653227
 20
24.2809148341
  0
LINE
  5
79A
100
AcDbEntity
  8
ASSI
100
AcDbLine
 62
253
  6
CONTINUOUS
 10
3.8306228363
 20
-23.9018840226
 11
3.7499619238
 21
-23.9825449351
  0
LINE
  5
79B
100
AcDbEntity
  8
ASSI
100
AcDbLine
 62
7
  6
CONTINUOUS
 10
7.3392709051
 20
-20.8607290949
 11
7.2127313221
 21
-20.9872686779
  0
LINE
  5
79C
100
AcDbEntity
  8
0
100
AcDbLine
 62
7
  6
CONTINUOUS
 10
7.3392709051
 20
-20.8607290949
 11
7.2127313221
 21
-20.9872686779
  0
LINE
  5
79D
100
AcDbEntity
  8
ASSI
100
AcDbLine
 62
7
  6
CONTINUOUS
 10
9.65
 20
-19.1573555923
 11
10.2466225454
 21
-18.5607330469
  0
LINE
  5
79E
100
AcDbEntity
  8
0
100
AcDbLine
 62
7
  6
CONTINUOUS
 10
9.65
 20
-19.1573555923
 11
10.2466225454
 21
-18.5607330469
  0
LINE
  5
79F
100
AcDbEntity
  8
ASSI
100
AcDbLine
 62
7
  6
CONTINUOUS
 10
7.2551134101
 20
-22.3825449351
 11
8.2325449351
 21
-21.4051134101
  0
LINE
  5
7A0
100
AcDbEntity
  8
ASSI
100
AcDbLine
 62
7
  6
CONTINUOUS
 10
9.4421659452
 20
-19.1692666957
 11
10.1083982375
 21
-18.5034786639
  0
LINE
  5
7A1
100
AcDbEntity
  8
0
100
AcDbLine
 62
7
  6
CONTINUOUS
 10
9.4421659452
 20
-19.1692666957
 11
10.1083982375
 21
-18.5034786639
  0
LINE
  5
7A2
100
AcDbEntity
  8
ASSI
100
AcDbLine
 62
7
  6
CONTINUOUS
 10
5.1254493507
 20
-20.0872686779
 11
5.4414386569
 21
-19.9292860574
  0
LINE
  5
7A3
100
AcDbEntity
  8
ASSI
100
AcDbLine
 62
253
  6
CONTINUOUS
 10
-9.5639975984
 20
19.4681025177
 11
-7.328661645
 21
19.4681025177
  0
LINE
  5
7A4
100
AcDbEntity
  8
RACCORDO
100
AcDbLine
 62
253
  6
CONTINUOUS
 10
-9.5639975984
 20
19.4681025177
 11
-7.328661645
 21
19.4681025177
  0
LINE
  5
7A5
100
AcDbEntity
  8
ASSI
100
AcDbLine
 62
253
  6
CONTINUOUS
 10
6.471338355
 20
19.4681025177
 11
4.4107051106
 21
19.4681025177
  0
LINE
  5
7A6
100
AcDbEntity
  8
RACCORDO
100
AcDbLine
 62
253
  6
CONTINUOUS
 10
6.471338355
 20
19.4681025177
 11
4.4107051106
 21
19.4681025177
  0
LINE
  5
7A7
100
AcDbEntity
  8
ASSI
100
AcDbLine
 62
253
  6
CONTINUOUS
 10
-4.4107051106
 20
19.4681025177
 11
-6.471338355
 21
19.4681025177
  0
LINE
  5
7A8
100
AcDbEntity
  8
RACCORDO
100
AcDbLine
 62
253
  6
CONTINUOUS
 10
-4.4107051106
 20
19.4681025177
 11
-6.471338355
 21
19.4681025177
  0
LINE
  5
7A9
100
AcDbEntity
  8
ASSI
100
AcDbLine
 62
253
  6
CONTINUOUS
 10
7.328661645
 20
19.4681025177
 11
9.5639975984
 21
19.4681025177
  0
LINE
  5
7AA
100
AcDbEntity
  8
RACCORDO
100
AcDbLine
 62
253
  6
CONTINUOUS
 10
7.328661645
 20
19.4681025177
 11
9.5639975984
 21
19.4681025177
  0
LINE
  5
7AB
100
AcDbEntity
  8
ASSI
100
AcDbLine
 62
253
  6
CONTINUOUS
 10
-9.5714422353
 20
19.7676913781
 11
-7.3261806034
 21
19.7676913781
  0
LINE
  5
7AC
100
AcDbEntity
  8
RACCORDO
100
AcDbLine
 62
253
  6
CONTINUOUS
 10
-9.5714422353
 20
19.7676913781
 11
-7.3261806034
 21
19.7676913781
  0
LINE
  5
7AD
100
AcDbEntity
  8
ASSI
100
AcDbLine
 62
253
  6
CONTINUOUS
 10
6.4738193966
 20
19.7676913781
 11
4.4057426494
 21
19.7676913781
  0
LINE
  5
7AE
100
AcDbEntity
  8
RACCORDO
100
AcDbLine
 62
253
  6
CONTINUOUS
 10
6.4738193966
 20
19.7676913781
 11
4.4057426494
 21
19.7676913781
  0
LINE
  5
7AF
100
AcDbEntity
  8
ASSI
100
AcDbLine
 62
253
  6
CONTINUOUS
 10
-4.4057426494
 20
19.7676913781
 11
-6.4738193966
 21
19.7676913781
  0
LINE
  5
7B0
100
AcDbEntity
  8
RACCORDO
100
AcDbLine
 62
253
  6
CONTINUOUS
 10
-4.4057426494
 20
19.7676913781
 11
-6.4738193966
 21
19.7676913781
  0
LINE
  5
7B1
100
AcDbEntity
  8
ASSI
100
AcDbLine
 62
253
  6
CONTINUOUS
 10
7.3261806034
 20
19.7676913781
 11
9.5714422353
 21
19.7676913781
  0
LINE
  5
7B2
100
AcDbEntity
  8
RACCORDO
100
AcDbLine
 62
253
  6
CONTINUOUS
 10
7.3261806034
 20
19.7676913781
 11
9.5714422353
 21
19.7676913781
  0
LINE
  5
7B3
100
AcDbEntity
  8
ASSI
100
AcDbLine
 62
7
  6
CONTINUOUS
 10
-6.91317452
 20
19.7872686779
 11
-6.88682548
 21
19.7872686779
  0
LINE
  5
7B4
100
AcDbEntity
  8
RACCORDO
100
AcDbLine
 62
7
  6
CONTINUOUS
 10
-6.91317452
 20
19.7872686779
 11
-6.88682548
 21
19.7872686779
  0
LINE
  5
7B5
100
AcDbEntity
  8
ASSI
100
AcDbLine
 62
7
  6
CONTINUOUS
 10
6.88682548
 20
19.7872686779
 11
6.91317452
 21
19.7872686779
  0
LINE
  5
7B6
100
AcDbEntity
  8
RACCORDO
100
AcDbLine
 62
7
  6
CONTINUOUS
 10
6.88682548
 20
19.7872686779
 11
6.91317452
 21
19.7872686779
  0
LINE
  5
7B7
100
AcDbEntity
  8
ASSI
100
AcDbLine
 62
7
  6
CONTINUOUS
 10
5.3523651948
 20
19.9738193966
 11
4.4057426494
 21
19.9738193966
  0
LINE
  5
7B8
100
AcDbEntity
  8
DRAFT
100
AcDbLine
 62
7
  6
CONTINUOUS
 10
5.3523651948
 20
19.9738193966
 11
4.4057426494
 21
19.9738193966
  0
LINE
  5
7B9
100
AcDbEntity
  8
ASSI
100
AcDbLine
 62
7
  6
CONTINUOUS
 10
-4.4057426494
 20
19.9738193966
 11
-5.3523651948
 21
19.9738193966
  0
LINE
  5
7BA
100
AcDbEntity
  8
DRAFT
100
AcDbLine
 62
7
  6
CONTINUOUS
 10
-4.4057426494
 20
19.9738193966
 11
-5.3523651948
 21
19.9738193966
  0
LINE
  5
7BB
100
AcDbEntity
  8
ASSI
100
AcDbLine
 62
7
  6
CONTINUOUS
 10
3.8445737581
 20
20.0087268678
 11
-3.8445737581
 21
20.0087268678
  0
LINE
  5
7BC
100
AcDbEntity
  8
RACCORDO
100
AcDbLine
 62
7
  6
CONTINUOUS
 10
3.8445737581
 20
20.0087268678
 11
-3.8445737581
 21
20.0087268678
  0
LINE
  5
7BD
100
AcDbEntity
  8
ASSI
100
AcDbLine
 62
7
  6
CONTINUOUS
 10
5.1254493507
 20
20.0872686779
 11
-5.1254493507
 21
20.0872686779
  0
LINE
  5
7BE
100
AcDbEntity
  8
ASSI
100
AcDbLine
 62
7
  6
CONTINUOUS
 10
-11.1261859216
 20
20.4226497308
 11
-11.0825449351
 21
20.4226497308
  0
LINE
  5
7BF
100
AcDbEntity
  8
ASSI
100
AcDbLine
 62
7
  6
CONTINUOUS
 10
11.1261859216
 20
20.4226497308
 11
11.0825449351
 21
20.4226497308
  0
LINE
  5
7C0
100
AcDbEntity
  8
ASSI
100
AcDbLine
 62
7
  6
CONTINUOUS
 10
3.3850964806
 20
20.8
 11
-3.3850964806
 21
20.8
  0
LINE
  5
7C1
100
AcDbEntity
  8
ASSI
100
AcDbLine
 62
7
  6
CONTINUOUS
 10
-6.4738193966
 20
20.8476348052
 11
-5.3523651948
 21
20.8476348052
  0
LINE
  5
7C2
100
AcDbEntity
  8
0
100
AcDbLine
 62
7
  6
CONTINUOUS
 10
-6.4738193966
 20
20.8476348052
 11
-5.3523651948
 21
20.8476348052
  0
LINE
  5
7C3
100
AcDbEntity
  8
ASSI
100
AcDbLine
 62
7
  6
CONTINUOUS
 10
5.3523651948
 20
20.8476348052
 11
6.4738193966
 21
20.8476348052
  0
LINE
  5
7C4
100
AcDbEntity
  8
0
100
AcDbLine
 62
7
  6
CONTINUOUS
 10
5.3523651948
 20
20.8476348052
 11
6.4738193966
 21
20.8476348052
  0
LINE
  5
7C5
100
AcDbEntity
  8
ASSI
100
AcDbLine
 62
7
  6
CONTINUOUS
 10
-9.5714422353
 20
20.8738193966
 11
-7.3261806034
 21
20.8738193966
  0
LINE
  5
7C6
100
AcDbEntity
  8
0
100
AcDbLine
 62
7
  6
CONTINUOUS
 10
-9.5714422353
 20
20.8738193966
 11
-7.3261806034
 21
20.8738193966
  0
LINE
  5
7C7
100
AcDbEntity
  8
ASSI
100
AcDbLine
 62
7
  6
CONTINUOUS
 10
7.3261806034
 20
20.8738193966
 11
9.5714422353
 21
20.8738193966
  0
LINE
  5
7C8
100
AcDbEntity
  8
0
100
AcDbLine
 62
7
  6
CONTINUOUS
 10
7.3261806034
 20
20.8738193966
 11
9.5714422353
 21
20.8738193966
  0
LINE
  5
7C9
100
AcDbEntity
  8
ASSI
100
AcDbLine
 62
7
  6
CONTINUOUS
 10
9.65
 20
20.9
 11
8.2325449351
 21
20.9
  0
LINE
  5
7CA
100
AcDbEntity
  8
ASSI
100
AcDbLine
 62
7
  6
CONTINUOUS
 10
-8.2325449351
 20
20.9
 11
-9.65
 21
20.9
  0
LINE
  5
7CB
100
AcDbEntity
  8
ASSI
100
AcDbLine
 62
7
  6
CONTINUOUS
 10
-8.0579942858
 20
20.9872686779
 11
-7.2127313221
 21
20.9872686779
  0
LINE
  5
7CC
100
AcDbEntity
  8
ASSI
100
AcDbLine
 62
7
  6
CONTINUOUS
 10
7.2127313221
 20
20.9872686779
 11
8.0579942858
 21
20.9872686779
  0
LINE
  5
7CD
100
AcDbEntity
  8
ASSI
100
AcDbLine
 62
7
  6
CONTINUOUS
 10
-6.5872686779
 20
21.0745506493
 11
-5.1254493507
 21
21.0745506493
  0
LINE
  5
7CE
100
AcDbEntity
  8
ASSI
100
AcDbLine
 62
7
  6
CONTINUOUS
 10
5.1254493507
 20
21.0745506493
 11
6.5872686779
 21
21.0745506493
  0
LINE
  5
7CF
100
AcDbEntity
  8
ASSI
100
AcDbLine
 62
253
  6
CONTINUOUS
 10
8.0579942858
 20
21.2252970227
 11
3.1351059998
 21
21.2252970227
  0
LINE
  5
7D0
100
AcDbEntity
  8
ASSI
100
AcDbLine
 62
253
  6
CONTINUOUS
 10
-3.1351059998
 20
21.2252970227
 11
-8.0579942858
 21
21.2252970227
  0
LINE
  5
7D1
100
AcDbEntity
  8
ASSI
100
AcDbLine
 62
7
  6
CONTINUOUS
 10
4.4057426494
 20
19.9738193966
 11
4.3444976057
 21
20.0044395863
  0
LINE
  5
7D2
100
AcDbEntity
  8
RACCORDO
100
AcDbLine
 62
7
  6
CONTINUOUS
 10
4.4057426494
 20
19.9738193966
 11
4.3444976057
 21
20.0044395863
  0
LINE
  5
7D3
100
AcDbEntity
  8
ASSI
100
AcDbLine
 62
7
  6
CONTINUOUS
 10
5.3523651948
 20
19.9738193966
 11
5.1254493507
 21
20.0872686779
  0
LINE
  5
7D4
100
AcDbEntity
  8
0
100
AcDbLine
 62
7
  6
CONTINUOUS
 10
5.3523651948
 20
19.9738193966
 11
5.1254493507
 21
20.0872686779
  0
LINE
  5
7D5
100
AcDbEntity
  8
ASSI
100
AcDbLine
 62
253
  6
CONTINUOUS
 10
3.7499619238
 20
23.9825449351
 11
3.8306228363
 21
23.9018840226
  0
LINE
  5
7D6
100
AcDbEntity
  8
ASSI
100
AcDbLine
 62
7
  6
CONTINUOUS
 10
7.2127313221
 20
20.9872686779
 11
7.3261806034
 21
20.8738193966
  0
LINE
  5
7D7
100
AcDbEntity
  8
0
100
AcDbLine
 62
7
  6
CONTINUOUS
 10
7.2127313221
 20
20.9872686779
 11
7.3261806034
 21
20.8738193966
  0
LINE
  5
7D8
100
AcDbEntity
  8
ASSI
100
AcDbLine
 62
7
  6
CONTINUOUS
 10
8.2325449351
 20
21.4051134101
 11
7.2551134101
 21
22.3825449351
  0
LWPOLYLINE
  5
7D9
100
AcDbEntity
  8
ASSI
100
AcDbPolyline
 62
7
  6
CONTINUOUS
 90
10
 70
0
 10
9.2533769702
 20
-23.6278312164
 10
9.2350842877
 20
-23.6471440832
 10
9.2141426279
 20
-23.6678668702
 10
9.191208609
 20
-23.6899995776
 10
9.1670704349
 20
-23.7138409674
 10
9.1421427254
 20
-23.7390922775
 10
9.1163509653
 20
-23.7648572213
 10
9.0898795542
 20
-23.7908370363
 10
9.0632743239
 20
-23.817330485
 10
9.0368706193
 20
-23.8443375673
  0
LINE
  5
7DA
100
AcDbEntity
  8
ASSI
100
AcDbLine
 62
7
  6
CONTINUOUS
 10
8.5
 20
-22.4
 11
8.5131674569
 21
-22.3868325431
  0
LINE
  5
7DB
100
AcDbEntity
  8
ASSI
100
AcDbLine
 62
253
  6
CONTINUOUS
 10
7.2131674569
 20
-24.2868630041
 11
7.2
 21
-24.300030461
  0
LINE
  5
7DC
100
AcDbEntity
  8
ASSI
100
AcDbLine
 62
253
  6
CONTINUOUS
 10
7.4131369959
 20
-24.4868325431
 11
7.399969539
 21
-24.5
  0
LINE
  5
7DD
100
AcDbEntity
  8
ASSI
100
AcDbLine
 62
7
  6
CONTINUOUS
 10
8.0337973724
 20
-20.8347950074
 11
7.9819252468
 21
-20.8607290949
  0
LINE
  5
7DE
100
AcDbEntity
  8
0
100
AcDbLine
 62
7
  6
CONTINUOUS
 10
8.0337973724
 20
-20.8347950074
 11
7.9819252468
 21
-20.8607290949
  0
LINE
  5
7DF
100
AcDbEntity
  8
ASSI
100
AcDbLine
 62
7
  6
CONTINUOUS
 10
8.0579942858
 20
-20.9872686779
 11
8.2325449351
 21
-20.9
  0
LINE
  5
7E0
100
AcDbEntity
  8
ASSI
100
AcDbLine
 62
7
  6
CONTINUOUS
 10
8.0584656028
 20
-21.4561094406
 11
8.2325449351
 21
-21.4051134101
  0
LINE
  5
7E1
100
AcDbEntity
  8
ASSI
100
AcDbLine
 62
7
  6
CONTINUOUS
 10
-0.8
 20
22.4
 11
-0.8174550649
 21
22.398254669
  0
LWPOLYLINE
  5
7E2
100
AcDbEntity
  8
ASSI
100
AcDbPolyline
 62
253
  6
CONTINUOUS
 90
13
 70
0
 10
3.3786655583
 20
22.2251447178
 10
3.3460374312
 20
22.2230015771
 10
3.3139676388
 20
22.2166187926
 10
3.2830048154
 20
22.2061056129
 10
3.2536786203
 20
22.1916419302
 10
3.226490759
 20
22.1734752392
 10
3.2019063798
 20
22.1519164339
 10
3.1803460088
 20
22.1273344113
 10
3.1621783917
 20
22.1001497384
 10
3.1477142491
 20
22.0708275208
 10
3.1372009266
 20
22.0398694056
 10
3.1308181731
 20
22.0078049933
 10
3.1286750776
 20
21.975182794
  0
LWPOLYLINE
  5
7E3
100
AcDbEntity
  8
ASSI
100
AcDbPolyline
 62
7
  6
CONTINUOUS
 90
16
 70
0
 10
-10.6000000646
 20
22.3999999296
 10
-10.6518961978
 20
22.3973188641
 10
-10.7034419043
 20
22.3892214715
 10
-10.7540657836
 20
22.3757291386
 10
-10.8033748714
 20
22.3568441144
 10
-10.8506021346
 20
22.332753888
 10
-10.8947079968
 20
22.3040171503
 10
-10.9349362959
 20
22.2713500847
 10
-10.9713142863
 20
22.2349698278
 10
-11.0039800191
 20
22.1947398811
 10
-11.0327165209
 20
22.1506321718
 10
-11.0568074185
 20
22.1034036118
 10
-11.0756956352
 20
22.054097956
 10
-11.0891949317
 20
22.0034838189
 10
-11.0973032882
 20
21.9519527996
 10
-11.1
 20
21.9000761524
  0
LWPOLYLINE
  5
7E4
100
AcDbEntity
  8
ASSI
100
AcDbPolyline
 62
253
  6
CONTINUOUS
 90
4
 70
0
 10
4.3313671017
 20
23.6512002451
 10
4.3422590315
 20
23.6514327255
 10
4.3491225006
 20
23.6516733434
 10
4.3518840226
 20
23.6519220988
  0
LINE
  5
7E5
100
AcDbEntity
  8
ASSI
100
AcDbLine
 62
7
  6
CONTINUOUS
 10
-3.1173032135
 20
21.6326967865
 11
3.1173032135
 21
21.6326967865
  0
LINE
  5
7E6
100
AcDbEntity
  8
ASSI
100
AcDbLine
 62
7
  6
CONTINUOUS
 10
-3.05
 20
21.7
 11
3.05
 21
21.7
  0
LINE
  5
7E7
100
AcDbEntity
  8
ASSI
100
AcDbLine
 62
253
  6
CONTINUOUS
 10
7.3012233427
 20
22.2251447178
 11
3.3786655583
 21
22.2251447178
  0
LINE
  5
7E8
100
AcDbEntity
  8
ASSI
100
AcDbLine
 62
253
  6
CONTINUOUS
 10
-3.3786655583
 20
22.2251447178
 11
-7.3012233427
 21
22.2251447178
  0
LINE
  5
7E9
100
AcDbEntity
  8
ASSI
100
AcDbLine
 62
7
  6
CONTINUOUS
 10
10.5826210875
 20
22.3825449351
 11
9.0368706193
 21
22.3825449351
  0
LINE
  5
7EA
100
AcDbEntity
  8
ASSI
100
AcDbLine
 62
7
  6
CONTINUOUS
 10
8.7631293807
 20
22.3825449351
 11
7.2551134101
 21
22.3825449351
  0
LINE
  5
7EB
100
AcDbEntity
  8
ASSI
100
AcDbLine
 62
7
  6
CONTINUOUS
 10
3.5
 20
22.3825449351
 11
3.2999714434
 21
22.3825449351
  0
LINE
  5
7EC
100
AcDbEntity
  8
ASSI
100
AcDbLine
 62
7
  6
CONTINUOUS
 10
-3.2999714434
 20
22.3825449351
 11
-3.5
 21
22.3825449351
  0
LINE
  5
7ED
100
AcDbEntity
  8
ASSI
100
AcDbLine
 62
7
  6
CONTINUOUS
 10
-7.2551134101
 20
22.3825449351
 11
-8.7631293807
 21
22.3825449351
  0
LINE
  5
7EE
100
AcDbEntity
  8
ASSI
100
AcDbLine
 62
7
  6
CONTINUOUS
 10
-9.0368706193
 20
22.3825449351
 11
-10.5826210875
 21
22.3825449351
  0
LINE
  5
7EF
100
AcDbEntity
  8
ASSI
100
AcDbLine
 62
7
  6
CONTINUOUS
 10
0.8174550649
 20
22.398254669
 11
-0.8174550649
 21
22.398254669
  0
LINE
  5
7F0
100
AcDbEntity
  8
ASSI
100
AcDbLine
 62
7
  6
CONTINUOUS
 10
10.6
 20
22.3999999999
 11
9.3
 21
22.4
  0
LINE
  5
7F1
100
AcDbEntity
  8
ASSI
100
AcDbLine
 62
7
  6
CONTINUOUS
 10
8.5
 20
22.4
 11
4.45
 21
22.4
  0
LINE
  5
7F2
100
AcDbEntity
  8
ASSI
100
AcDbLine
 62
7
  6
CONTINUOUS
 10
-4.45
 20
22.4
 11
-8.5
 21
22.4
  0
LINE
  5
7F3
100
AcDbEntity
  8
ASSI
100
AcDbLine
 62
7
  6
CONTINUOUS
 10
-9.3
 20
22.4
 11
-10.6000000646
 21
22.3999999354
  0
LINE
  5
7F4
100
AcDbEntity
  8
ASSI
100
AcDbLine
 62
7
  6
CONTINUOUS
 10
10.4017150409
 20
23.1226497308
 11
9.3
 21
23.1226497308
  0
LINE
  5
7F5
100
AcDbEntity
  8
ASSI
100
AcDbLine
 62
7
  6
CONTINUOUS
 10
8.5
 20
23.1226497308
 11
7.3982849591
 21
23.1226497308
  0
LINE
  5
7F6
100
AcDbEntity
  8
ASSI
100
AcDbLine
 62
7
  6
CONTINUOUS
 10
-7.3982849591
 20
23.1226497308
 11
-8.5
 21
23.1226497308
  0
LINE
  5
7F7
100
AcDbEntity
  8
ASSI
100
AcDbLine
 62
7
  6
CONTINUOUS
 10
-9.3
 20
23.1226497308
 11
-10.4017150409
 21
23.1226497308
  0
LWPOLYLINE
  5
7F8
100
AcDbEntity
  8
ASSI
100
AcDbPolyline
 62
7
  6
CONTINUOUS
 90
16
 70
0
 10
10.6
 20
22.3999997358
 10
10.6519014622
 20
22.3973199893
 10
10.7034529055
 20
22.3892205185
 10
10.7540825694
 20
22.3757237075
 10
10.8033981686
 20
22.3568330612
 10
10.8506316256
 20
22.3327366144
 10
10.8947407691
 20
22.3039932453
 10
10.9349703626
 20
22.2713195516
 10
10.9713475963
 20
22.2349337381
 10
11.0040079332
 20
22.1947016024
 10
11.0327349164
 20
22.1506009559
 10
11.0568171282
 20
22.1033850541
 10
11.0757000376
 20
22.0540843526
 10
11.0891965607
 20
22.0034612067
 10
11.0973037172
 20
21.9519097908
 10
11.1
 20
21.8999997649
  0
LWPOLYLINE
  5
7F9
100
AcDbEntity
  8
ASSI
100
AcDbPolyline
 62
253
  6
CONTINUOUS
 90
13
 70
0
 10
-3.3786655583
 20
22.2251447178
 10
-3.3460383978
 20
22.2230017045
 10
-3.313969389
 20
22.2166192618
 10
-3.2830071354
 20
22.2061065741
 10
-3.2536813069
 20
22.1916434815
 10
-3.2264935797
 20
22.1734774037
 10
-3.2019090531
 20
22.1519191071
 10
-3.1803482937
 20
22.1273373888
 10
-3.1621801408
 20
22.1001527673
 10
-3.147715396
 20
22.0708302889
 10
-3.1372015075
 20
22.0398715723
 10
-3.1308183358
 20
22.0078062271
 10
-3.1286750776
 20
21.975182794
  0
LWPOLYLINE
  5
7FA
100
AcDbEntity
  8
ASSI
100
AcDbPolyline
 62
253
  6
CONTINUOUS
 90
5
 70
0
 10
-4.351882222
 20
23.6519214817
 10
-4.3491155958
 20
23.6516729273
 10
-4.3422538457
 20
23.6514324171
 10
-4.3313668587
 20
23.651199951
 10
-4.2980076314
 20
23.6507544435
  0
LINE
  5
7FB
100
AcDbEntity
  8
ASSI
100
AcDbLine
 62
7
  6
CONTINUOUS
 10
0.8
 20
22.4
 11
0.8174550649
 21
22.398254669
  0
LWPOLYLINE
  5
7FC
100
AcDbEntity
  8
ASSI
100
AcDbPolyline
 62
253
  6
CONTINUOUS
 90
9
 70
0
 10
-4.1019220988
 20
23.9018840226
 10
-4.100884363
 20
23.9016352869
 10
-4.0984776875
 20
23.9013946307
 10
-4.0947020725
 20
23.9011620538
 10
-4.0894877201
 20
23.9009352302
 10
-4.0829044281
 20
23.900716486
 10
-4.0751615897
 20
23.9005128001
 10
-4.0662225692
 20
23.9003246759
 10
-4.0451851891
 20
23.8999990711
  0
LINE
  5
7FD
100
AcDbEntity
  8
ASSI
100
AcDbLine
 62
7
  6
CONTINUOUS
 10
8.0584656028
 20
21.4561094406
 11
8.2325449351
 21
21.4051134101
  0
LINE
  5
7FE
100
AcDbEntity
  8
ASSI
100
AcDbLine
 62
7
  6
CONTINUOUS
 10
8.0579942858
 20
20.9872686779
 11
8.2325449351
 21
20.9
  0
LWPOLYLINE
  5
7FF
100
AcDbEntity
  8
ASSI
100
AcDbPolyline
 62
7
  6
CONTINUOUS
 90
10
 70
0
 10
9.2533769702
 20
23.6278312163
 10
9.2340641034
 20
23.6461238988
 10
9.2133413164
 20
23.6670655587
 10
9.191208609
 20
23.6899995776
 10
9.1673672192
 20
23.7141377517
 10
9.1421159091
 20
23.7390654611
 10
9.1163509653
 20
23.7648572212
 10
9.0903711503
 20
23.7913286324
 10
9.0638777016
 20
23.8179338627
 10
9.0368706193
 20
23.8443375673
  0
LINE
  5
800
100
AcDbEntity
  8
ASSI
100
AcDbLine
 62
7
  6
CONTINUOUS
 10
8.5
 20
22.4
 11
8.5131674569
 21
22.3868325431
  0
LINE
  5
801
100
AcDbEntity
  8
ASSI
100
AcDbLine
 62
253
  6
CONTINUOUS
 10
7.2
 20
24.300030461
 11
7.2131674569
 21
24.286863004
  0
LINE
  5
802
100
AcDbEntity
  8
ASSI
100
AcDbLine
 62
253
  6
CONTINUOUS
 10
7.399969539
 20
24.5
 11
7.4131370461
 21
24.486832493
  0
LWPOLYLINE
  5
803
100
AcDbEntity
  8
ASSI
100
AcDbPolyline
 62
253
  6
CONTINUOUS
 90
13
 70
0
 10
3.8306228363
 20
23.9018840226
 10
3.79800337
 20
23.899736565
 10
3.7659416463
 20
23.8933507519
 10
3.734986026
 20
23.8828357438
 10
3.7056659731
 20
23.8683713309
 10
3.6784829705
 20
23.8502048476
 10
3.6539019491
 20
23.8286469328
 10
3.6323433599
 20
23.8040662286
 10
3.6141760117
 20
23.7768831303
 10
3.5997107177
 20
23.7475625918
 10
3.5891949405
 20
23.7166061122
 10
3.5828085788
 20
23.6845431458
 10
3.5806609125
 20
23.6519220987
  0
LWPOLYLINE
  5
804
100
AcDbEntity
  8
ASSI
100
AcDbPolyline
 62
253
  6
CONTINUOUS
 90
13
 70
0
 10
7.4131369959
 20
24.4868325431
 10
7.3870407425
 20
24.4851144869
 10
7.3613908344
 20
24.4800056016
 10
7.3366259793
 20
24.4715932692
 10
7.3131697461
 20
24.4600213726
 10
7.2914233223
 20
24.445487835
 10
7.2717586517
 20
24.4282412354
 10
7.2545120715
 20
24.4085765559
 10
7.2399785588
 20
24.3868301351
 10
7.2284066873
 20
24.363373916
 10
7.2199943769
 20
24.3386090853
 10
7.2148855071
 20
24.3129592126
 10
7.2131674569
 20
24.286863004
  0
LWPOLYLINE
  5
805
100
AcDbEntity
  8
ASSI
100
AcDbPolyline
 62
253
  6
CONTINUOUS
 90
13
 70
0
 10
-4.1019220988
 20
23.9018840226
 10
-4.1345415651
 20
23.899736565
 10
-4.1666032887
 20
23.8933507519
 10
-4.1975589091
 20
23.8828357438
 10
-4.226878962
 20
23.8683713309
 10
-4.2540619646
 20
23.8502048476
 10
-4.2786429859
 20
23.8286469328
 10
-4.3002015752
 20
23.8040662286
 10
-4.3183689234
 20
23.7768831303
 10
-4.3328342174
 20
23.7475625918
 10
-4.3433499945
 20
23.7166061122
 10
-4.3497363563
 20
23.6845431458
 10
-4.3518840225
 20
23.6519220987
  0
LWPOLYLINE
  5
806
100
AcDbEntity
  8
ASSI
100
AcDbPolyline
 62
7
  6
CONTINUOUS
 90
13
 70
0
 10
-10.400030461
 20
24.5
 10
-10.4261325878
 20
24.4982897358
 10
-10.4517877661
 20
24.4931875594
 10
-10.4765572875
 20
24.4847805782
 10
-10.5000177444
 20
24.4732123371
 10
-10.5217675502
 20
24.45868055
 10
-10.5414339722
 20
24.4414339722
 10
-10.55868055
 20
24.4217675502
 10
-10.5732123371
 20
24.4000177444
 10
-10.5847805782
 20
24.3765572875
 10
-10.5931875595
 20
24.3517877661
 10
-10.5982897358
 20
24.3261325878
 10
-10.6
 20
24.300030461
  0
LWPOLYLINE
  5
807
100
AcDbEntity
  8
ASSI
100
AcDbPolyline
 62
253
  6
CONTINUOUS
 90
13
 70
0
 10
-7.4135581409
 20
23.6278312163
 10
-7.3876000527
 20
23.629492815
 10
-7.3620812035
 20
23.6340570982
 10
-7.3374333974
 20
23.6414468329
 10
-7.3140736986
 20
23.6515369769
 10
-7.292397376
 20
23.6641567942
 10
-7.2727712143
 20
23.6790927436
 10
-7.2555273067
 20
23.696092093
 10
-7.2409574351
 20
23.7148671965
 10
-7.2293081339
 20
23.7351003615
 10
-7.2207765195
 20
23.7564492233
 10
-7.2155069538
 20
23.7785525382
 10
-7.2135886019
 20
23.8010362971
  0
LWPOLYLINE
  5
808
100
AcDbEntity
  8
ASSI
100
AcDbPolyline
 62
253
  6
CONTINUOUS
 90
7
 70
0
 10
4.0752951291
 20
23.9005160208
 10
4.0830158459
 20
23.9007199567
 10
4.0895764002
 20
23.9009388928
 10
4.0947681654
 20
23.9011655004
 10
4.0985215991
 20
23.9013973364
 10
4.1009062435
 20
23.9016368438
 10
4.1019220988
 20
23.9018840226
  0
LWPOLYLINE
  5
809
100
AcDbEntity
  8
ASSI
100
AcDbPolyline
 62
253
  6
CONTINUOUS
 90
7
 70
0
 10
-3.857249806
 20
23.9005160208
 10
-3.8495290892
 20
23.9007199567
 10
-3.8429685348
 20
23.9009388928
 10
-3.8377767697
 20
23.9011655004
 10
-3.834023336
 20
23.9013973364
 10
-3.8316386915
 20
23.9016368438
 10
-3.8306228363
 20
23.9018840226
  0
LWPOLYLINE
  5
80A
100
AcDbEntity
  8
ASSI
100
AcDbPolyline
 62
253
  6
CONTINUOUS
 90
4
 70
0
 10
-3.6011778334
 20
23.6512002451
 10
-3.5902859035
 20
23.6514327255
 10
-3.5834224345
 20
23.6516733434
 10
-3.5806609125
 20
23.6519220988
  0
LINE
  5
80B
100
AcDbEntity
  8
ASSI
100
AcDbLine
 62
253
  6
CONTINUOUS
 10
4.0563004779
 20
23.9001543788
 11
4.0752951291
 21
23.9005160208
  0
LINE
  5
80C
100
AcDbEntity
  8
ASSI
100
AcDbLine
 62
253
  6
CONTINUOUS
 10
-3.8762444571
 20
23.9001543788
 11
-3.857249806
 21
23.9005160208
  0
LINE
  5
80D
100
AcDbEntity
  8
ASSI
100
AcDbLine
 62
253
  6
CONTINUOUS
 10
4.2980063038
 20
23.650755106
 11
4.3313671017
 21
23.6512002451
  0
LINE
  5
80E
100
AcDbEntity
  8
ASSI
100
AcDbLine
 62
253
  6
CONTINUOUS
 10
-3.6345386313
 20
23.650755106
 11
-3.6011778334
 21
23.6512002451
  0
LINE
  5
80F
100
AcDbEntity
  8
ASSI
100
AcDbLine
 62
253
  6
CONTINUOUS
 10
4.0335911737
 20
23.8998698501
 11
4.0563004779
 21
23.9001543788
  0
LINE
  5
810
100
AcDbEntity
  8
ASSI
100
AcDbLine
 62
253
  6
CONTINUOUS
 10
-3.8989537614
 20
23.8998698501
 11
-3.8762444571
 21
23.9001543788
  0
LINE
  5
811
100
AcDbEntity
  8
ASSI
100
AcDbLine
 62
253
  6
CONTINUOUS
 10
4.1907789318
 20
23.6500382272
 11
4.2980063038
 21
23.650755106
  0
LINE
  5
812
100
AcDbEntity
  8
ASSI
100
AcDbLine
 62
253
  6
CONTINUOUS
 10
-3.7417660033
 20
23.6500382272
 11
-3.6345386313
 21
23.650755106
  0
LINE
  5
813
100
AcDbEntity
  8
ASSI
100
AcDbLine
 62
253
  6
CONTINUOUS
 10
3.9943517165
 20
23.8996089776
 11
4.0335911737
 21
23.8998698501
  0
LINE
  5
814
100
AcDbEntity
  8
ASSI
100
AcDbLine
 62
253
  6
CONTINUOUS
 10
-3.9381932186
 20
23.8996089776
 11
-3.8989537614
 21
23.8998698501
  0
LINE
  5
815
100
AcDbEntity
  8
ASSI
100
AcDbLine
 62
253
  6
CONTINUOUS
 10
-8.5466230298
 20
23.6278312163
 11
-7.4135581409
 21
23.6278312163
  0
LINE
  5
816
100
AcDbEntity
  8
ASSI
100
AcDbLine
 62
253
  6
CONTINUOUS
 10
7.4135581409
 20
23.6278312163
 11
8.5466230298
 21
23.6278312163
  0
LINE
  5
817
100
AcDbEntity
  8
ASSI
100
AcDbLine
 62
253
  6
CONTINUOUS
 10
-10.3864421555
 20
23.6278214108
 11
-9.2533769702
 21
23.6278312163
  0
LINE
  5
818
100
AcDbEntity
  8
ASSI
100
AcDbLine
 62
253
  6
CONTINUOUS
 10
9.2533769702
 20
23.6278312163
 11
10.3864421556
 21
23.6278214068
  0
LINE
  5
819
100
AcDbEntity
  8
ASSI
100
AcDbLine
 62
253
  6
CONTINUOUS
 10
-8.7631293807
 20
23.8443375673
 11
-7.2140249785
 21
23.8443375673
  0
LINE
  5
81A
100
AcDbEntity
  8
ASSI
100
AcDbLine
 62
253
  6
CONTINUOUS
 10
8.7631293807
 20
23.8443375673
 11
7.2140249785
 21
23.8443375673
  0
LINE
  5
81B
100
AcDbEntity
  8
ASSI
100
AcDbLine
 62
253
  6
CONTINUOUS
 10
-10.5859750215
 20
23.8443375673
 11
-9.0368706193
 21
23.8443375673
  0
LINE
  5
81C
100
AcDbEntity
  8
ASSI
100
AcDbLine
 62
7
  6
CONTINUOUS
 10
-3.7499619238
 20
23.9825449351
 11
-1.0674169887
 21
23.9825449351
  0
LINE
  5
81D
100
AcDbEntity
  8
ASSI
100
AcDbLine
 62
7
  6
CONTINUOUS
 10
1.0674169887
 20
23.9825449351
 11
3.7499619238
 21
23.9825449351
  0
LINE
  5
81E
100
AcDbEntity
  8
ASSI
100
AcDbLine
 62
7
  6
CONTINUOUS
 10
4.2000380762
 20
24.0
 11
1.0499619238
 21
24.0
  0
LINE
  5
81F
100
AcDbEntity
  8
ASSI
100
AcDbLine
 62
7
  6
CONTINUOUS
 10
-1.0499619238
 20
24.0
 11
-4.2000380762
 21
24.0
  0
LINE
  5
820
100
AcDbEntity
  8
ASSI
100
AcDbLine
 62
253
  6
CONTINUOUS
 10
-10.5859750215
 20
24.2368706193
 11
-7.2140249785
 21
24.2368706193
  0
LINE
  5
821
100
AcDbEntity
  8
ASSI
100
AcDbLine
 62
253
  6
CONTINUOUS
 10
7.2140249785
 20
24.2368706193
 11
10.5859750215
 21
24.2368706193
  0
LINE
  5
822
100
AcDbEntity
  8
ASSI
100
AcDbLine
 62
253
  6
CONTINUOUS
 10
-10.3868630041
 20
24.4868325431
 11
-7.4131369959
 21
24.4868325431
  0
LINE
  5
823
100
AcDbEntity
  8
ASSI
100
AcDbLine
 62
253
  6
CONTINUOUS
 10
7.4131370461
 20
24.486832493
 11
10.3868630041
 21
24.4868325431
  0
LINE
  5
824
100
AcDbEntity
  8
ASSI
100
AcDbLine
 62
7
  6
CONTINUOUS
 10
10.400030461
 20
24.5
 11
7.399969539
 21
24.5
  0
LINE
  5
825
100
AcDbEntity
  8
ASSI
100
AcDbLine
 62
7
  6
CONTINUOUS
 10
-7.399969539
 20
24.5
 11
-10.400030461
 21
24.5
  0
LINE
  5
826
100
AcDbEntity
  8
ASSI
100
AcDbLine
 62
253
  6
CONTINUOUS
 10
9.0368706193
 20
23.8443375673
 11
10.5859750215
 21
23.8443375673
  0
LINE
  5
827
100
AcDbEntity
  8
ASSI
100
AcDbLine
 62
253
  6
CONTINUOUS
 10
-4.0061389895
 20
23.6496085116
 11
-3.7417660033
 21
23.6500382272
  0
LINE
  5
828
100
AcDbEntity
  8
ASSI
100
AcDbLine
 62
253
  6
CONTINUOUS
 10
3.9264059456
 20
23.6496085116
 11
4.1907789318
 21
23.6500382272
  0
LINE
  5
829
100
AcDbEntity
  8
ASSI
100
AcDbLine
 62
253
  6
CONTINUOUS
 10
-3.9801252843
 20
23.8995700635
 11
-3.9381932186
 21
23.8996089776
  0
LINE
  5
82A
100
AcDbEntity
  8
ASSI
100
AcDbLine
 62
253
  6
CONTINUOUS
 10
3.9524196508
 20
23.8995700635
 11
3.9943517165
 21
23.8996089776
  0
LINE
  5
82B
100
AcDbEntity
  8
ASSI
100
AcDbLine
 62
253
  6
CONTINUOUS
 10
-4.2219918655
 20
23.6501900177
 11
-4.0061389895
 21
23.6496085116
  0
LINE
  5
82C
100
AcDbEntity
  8
ASSI
100
AcDbLine
 62
253
  6
CONTINUOUS
 10
3.7105530695
 20
23.6501900177
 11
3.9264059456
 21
23.6496085116
  0
LINE
  5
82D
100
AcDbEntity
  8
ASSI
100
AcDbLine
 62
253
  6
CONTINUOUS
 10
-4.0207329894
 20
23.8997568901
 11
-3.9801252843
 21
23.8995700635
  0
LINE
  5
82E
100
AcDbEntity
  8
ASSI
100
AcDbLine
 62
253
  6
CONTINUOUS
 10
3.9118119457
 20
23.8997568901
 11
3.9524196508
 21
23.8995700635
  0
LINE
  5
82F
100
AcDbEntity
  8
ASSI
100
AcDbLine
 62
253
  6
CONTINUOUS
 10
-4.2980076314
 20
23.6507544435
 11
-4.2219918655
 21
23.6501900177
  0
LINE
  5
830
100
AcDbEntity
  8
ASSI
100
AcDbLine
 62
253
  6
CONTINUOUS
 10
3.6345373037
 20
23.6507544435
 11
3.7105530695
 21
23.6501900177
  0
LINE
  5
831
100
AcDbEntity
  8
ASSI
100
AcDbLine
 62
253
  6
CONTINUOUS
 10
-4.0451851891
 20
23.8999990711
 11
-4.0207329894
 21
23.8997568901
  0
LINE
  5
832
100
AcDbEntity
  8
ASSI
100
AcDbLine
 62
253
  6
CONTINUOUS
 10
3.887359746
 20
23.8999990711
 11
3.9118119457
 21
23.8997568901
  0
LWPOLYLINE
  5
833
100
AcDbEntity
  8
ASSI
100
AcDbPolyline
 62
253
  6
CONTINUOUS
 90
13
 70
0
 10
7.4135581409
 20
23.6278312163
 10
7.3876000694
 20
23.629492813
 10
7.3620812334
 20
23.6340570911
 10
7.3374334365
 20
23.6414468187
 10
7.3140737432
 20
23.6515369545
 10
7.2923974219
 20
23.6641567636
 10
7.2727712571
 20
23.6790927066
 10
7.2555273424
 20
23.696092053
 10
7.2409574614
 20
23.7148671574
 10
7.2293081507
 20
23.7351003269
 10
7.2207765279
 20
23.7564491967
 10
7.2155069562
 20
23.7785525233
 10
7.2135886019
 20
23.8010362971
  0
LWPOLYLINE
  5
834
100
AcDbEntity
  8
ASSI
100
AcDbPolyline
 62
7
  6
CONTINUOUS
 90
13
 70
0
 10
10.400030461
 20
24.5
 10
10.4261325878
 20
24.4982897358
 10
10.4517877661
 20
24.4931875594
 10
10.4765572875
 20
24.4847805782
 10
10.5000177444
 20
24.4732123371
 10
10.5217675502
 20
24.45868055
 10
10.5414339722
 20
24.4414339722
 10
10.55868055
 20
24.4217675502
 10
10.5732123371
 20
24.4000177444
 10
10.5847805782
 20
24.3765572875
 10
10.5931875595
 20
24.3517877661
 10
10.5982897358
 20
24.3261325878
 10
10.6
 20
24.300030461
  0
LWPOLYLINE
  5
835
100
AcDbEntity
  8
ASSI
100
AcDbPolyline
 62
253
  6
CONTINUOUS
 90
13
 70
0
 10
-3.8306228363
 20
23.9018840226
 10
-3.7980025471
 20
23.8997364561
 10
-3.765940184
 20
23.8933503591
 10
-3.7349841305
 20
23.8828349573
 10
-3.7056638482
 20
23.8683701024
 10
-3.678480821
 20
23.8502031964
 10
-3.6538999776
 20
23.8286449595
 10
-3.6323417404
 20
23.8040641162
 10
-3.6141748339
 20
23.7768810888
 10
-3.5997099786
 20
23.7475608062
 10
-3.5891945764
 20
23.7166047523
 10
-3.5828084792
 20
23.6845423887
 10
-3.5806609125
 20
23.6519220988
  0
LWPOLYLINE
  5
836
100
AcDbEntity
  8
ASSI
100
AcDbPolyline
 62
253
  6
CONTINUOUS
 90
13
 70
0
 10
-7.4131369959
 20
24.4868325431
 10
-7.3870407645
 20
24.4851144898
 10
-7.3613908739
 20
24.4800056122
 10
-7.336626031
 20
24.4715932907
 10
-7.3131698049
 20
24.4600214066
 10
-7.2914233829
 20
24.4454878816
 10
-7.2717587082
 20
24.4282412918
 10
-7.2545121184
 20
24.4085766171
 10
-7.2399785934
 20
24.3868301951
 10
-7.2284067093
 20
24.363373969
 10
-7.2199943878
 20
24.3386091261
 10
-7.2148855102
 20
24.3129592355
 10
-7.2131674569
 20
24.286863004
  0
LWPOLYLINE
  5
837
100
AcDbEntity
  8
ASSI
100
AcDbPolyline
 62
253
  6
CONTINUOUS
 90
13
 70
0
 10
4.1019220988
 20
23.9018840226
 10
4.134542388
 20
23.8997364561
 10
4.1666047511
 20
23.8933503591
 10
4.1975608045
 20
23.8828349573
 10
4.2268810868
 20
23.8683701024
 10
4.2540641141
 20
23.8502031964
 10
4.2786449575
 20
23.8286449595
 10
4.3002031947
 20
23.8040641162
 10
4.3183701012
 20
23.7768810888
 10
4.3328349564
 20
23.7475608062
 10
4.3433503587
 20
23.7166047523
 10
4.3497364559
 20
23.6845423887
 10
4.3518840226
 20
23.6519220988
  0
LWPOLYLINE
  5
838
100
AcDbEntity
  8
ASSI
100
AcDbPolyline
 62
253
  6
CONTINUOUS
 90
5
 70
0
 10
3.5806627131
 20
23.6519214817
 10
3.5834293393
 20
23.6516729273
 10
3.5902910893
 20
23.6514324171
 10
3.6011780763
 20
23.651199951
 10
3.6345373037
 20
23.6507544435
  0
LWPOLYLINE
  5
839
100
AcDbEntity
  8
ASSI
100
AcDbPolyline
 62
253
  6
CONTINUOUS
 90
9
 70
0
 10
3.8306228363
 20
23.9018840226
 10
3.8316605721
 20
23.9016352869
 10
3.8340672475
 20
23.9013946307
 10
3.8378428626
 20
23.9011620538
 10
3.843057215
 20
23.9009352302
 10
3.849640507
 20
23.900716486
 10
3.8573833454
 20
23.9005128001
 10
3.8663223659
 20
23.9003246759
 10
3.887359746
 20
23.8999990711
  0
ARC
  5
83A
100
AcDbEntity
  8
ASSI
100
AcDbCircle
 62
7
  6
CONTINUOUS
 10
-4.0
 20
23.2
 40
0.5
100
AcDbArc
 50
154.1580672368
 51
205.8419327632
  0
ARC
  5
83B
100
AcDbEntity
  8
ASSI
100
AcDbCircle
 62
7
  6
CONTINUOUS
 10
4.0
 20
23.2
 40
0.5
100
AcDbArc
 50
334.1580672368
 51
25.8419327632
  0
ARC
  5
83C
100
AcDbEntity
  8
ASSI
100
AcDbCircle
 62
7
  6
CONTINUOUS
 10
-4.0
 20
-23.2
 40
0.5
100
AcDbArc
 50
154.1580672368
 51
205.8419327632
  0
ARC
  5
83D
100
AcDbEntity
  8
ASSI
100
AcDbCircle
 62
7
  6
CONTINUOUS
 10
4.0
 20
-23.2
 40
0.5
100
AcDbArc
 50
334.1580672368
 51
25.8419327632
  0
ARC
  5
83E
100
AcDbEntity
  8
ASSI
100
AcDbCircle
 62
7
  6
CONTINUOUS
 10
-4.0
 20
23.2
 40
0.4904006794
100
AcDbArc
 50
136.2076703059
 51
223.7923296941
  0
ARC
  5
83F
100
AcDbEntity
  8
ASSI
100
AcDbCircle
 62
7
  6
CONTINUOUS
 10
4.0
 20
23.2
 40
0.4904006794
100
AcDbArc
 50
316.2076703059
 51
43.7923296941
  0
ARC
  5
840
100
AcDbEntity
  8
ASSI
100
AcDbCircle
 62
7
  6
CONTINUOUS
 10
-4.0
 20
-23.2
 40
0.4904006794
100
AcDbArc
 50
136.2076703059
 51
223.7923296941
  0
ARC
  5
841
100
AcDbEntity
  8
ASSI
100
AcDbCircle
 62
7
  6
CONTINUOUS
 10
4.0
 20
-23.2
 40
0.4904006794
100
AcDbArc
 50
316.2076703059
 51
43.7923296941
  0
ARC
  5
842
100
AcDbEntity
  8
RACCORDO
100
AcDbCircle
 62
7
  6
CONTINUOUS
 10
-9.15
 20
15.9
 40
0.3
100
AcDbArc
 50
180.0
 51
270.0
  0
ARC
  5
843
100
AcDbEntity
  8
RACCORDO
100
AcDbCircle
 62
7
  6
CONTINUOUS
 10
9.15
 20
15.9
 40
0.3
100
AcDbArc
 50
270.0
 51
360.0
  0
ARC
  5
844
100
AcDbEntity
  8
RACCORDO
100
AcDbCircle
 62
7
  6
CONTINUOUS
 10
3.1
 20
14.2
 40
0.3
100
AcDbArc
 50
270.0
 51
360.0
  0
ARC
  5
845
100
AcDbEntity
  8
RACCORDO
100
AcDbCircle
 62
7
  6
CONTINUOUS
 10
-3.1
 20
14.2
 40
0.3
100
AcDbArc
 50
180.0
 51
270.0
  0
ELLIPSE
  5
846
100
AcDbEntity
  8
DRAFT
100
AcDbEllipse
 62
7
  6
CONTINUOUS
 10
8.15
 20
16.7005517582
 30
0.0
 11
-0.0
 21
1.2064091397
 31
0.0
 40
0.9999998954
 41
-3.1415926536
 42
-2.7211036976
  0
ELLIPSE
  5
847
100
AcDbEntity
  8
DRAFT
100
AcDbEllipse
 62
7
  6
CONTINUOUS
 10
-8.15
 20
16.7005517582
 30
0.0
 11
-0.0
 21
1.2064091397
 31
0.0
 40
0.9999998954
 41
-3.5620816092
 42
-3.1415926536
  0
ELLIPSE
  5
848
100
AcDbEntity
  8
ASSI
100
AcDbEllipse
 62
7
  6
CONTINUOUS
 10
-6.331083251
 20
-15.764526841
 30
0.0
 11
0.0
 21
0.3
 31
0.0
 40
0.0174550649
 41
-1.5707963268
 42
-0.9599310886
  0
ELLIPSE
  5
849
100
AcDbEntity
  8
ASSI
100
AcDbEllipse
 62
7
  6
CONTINUOUS
 10
6.331083251
 20
-15.764526841
 30
0.0
 11
0.0
 21
0.3
 31
0.0
 40
0.0174550649
 41
0.9599310886
 42
1.43463591
  0
ELLIPSE
  5
84A
100
AcDbEntity
  8
ASSI
100
AcDbEllipse
 62
7
  6
CONTINUOUS
 10
-6.331083251
 20
-15.8009747569
 30
0.0
 11
-0.0
 21
0.3
 31
0.0
 40
0.0174550649
 41
-3.1241393611
 42
-1.6761614621
  0
ELLIPSE
  5
84B
100
AcDbEntity
  8
ASSI
100
AcDbEllipse
 62
7
  6
CONTINUOUS
 10
6.331083251
 20
-15.8009747569
 30
0.0
 11
0.0
 21
0.3
 31
0.0
 40
0.0174550649
 41
-4.7123889804
 42
-3.1590459461
  0
ELLIPSE
  5
84C
100
AcDbEntity
  8
ASSI
100
AcDbEllipse
 62
7
  6
CONTINUOUS
 10
-6.3414138719
 20
-14.0475670731
 30
0.0
 11
0.0
 21
0.2
 31
0.0
 40
0.0174550649
 41
6.2831853072
 42
8.4648468722
  0
ELLIPSE
  5
84D
100
AcDbEntity
  8
ASSI
100
AcDbEllipse
 62
7
  6
CONTINUOUS
 10
6.3414138719
 20
-14.0475670731
 30
0.0
 11
0.0
 21
0.2
 31
0.0
 40
0.0174550649
 41
-2.181661565
 42
0.0
  0
ELLIPSE
  5
84E
100
AcDbEntity
  8
ASSI
100
AcDbEllipse
 62
7
  6
CONTINUOUS
 10
-8.2999543059
 20
16.7000456941
 30
0.0
 11
0.8485927574
 21
0.8485927574
 31
0.0
 40
0.9999238505
 41
-2.765708399
 42
-2.3562325664
  0
ELLIPSE
  5
84F
100
AcDbEntity
  8
ASSI
100
AcDbEllipse
 62
7
  6
CONTINUOUS
 10
-8.2999543059
 20
16.7000456941
 30
0.0
 11
0.8485927574
 21
0.8485927574
 31
0.0
 40
0.9999238505
 41
-3.9269527408
 42
-3.6385523871
  0
ELLIPSE
  5
850
100
AcDbEntity
  8
ASSI
100
AcDbEllipse
 62
7
  6
CONTINUOUS
 10
8.2999543059
 20
16.7000456941
 30
0.0
 11
0.8485927574
 21
-0.8485927574
 31
0.0
 40
0.9999238505
 41
0.49695982
 42
0.7853589533
  0
ELLIPSE
  5
851
100
AcDbEntity
  8
ASSI
100
AcDbEllipse
 62
7
  6
CONTINUOUS
 10
8.2999543059
 20
16.7000456941
 30
0.0
 11
-0.8485927574
 21
0.8485927574
 31
0.0
 40
0.9999238505
 41
-3.9269527408
 42
-3.5174769066
  0
ELLIPSE
  5
852
100
AcDbEntity
  8
ASSI
100
AcDbEllipse
 62
7
  6
CONTINUOUS
 10
6.9127198986
 20
-20.0918966615
 30
0.0
 11
-0.0150589332
 21
-0.3042668091
 31
0.0
 40
0.9847713852
 41
1.6210119607
 42
3.1902929399
  0
ELLIPSE
  5
853
100
AcDbEntity
  8
ASSI
100
AcDbEllipse
 62
7
  6
CONTINUOUS
 10
-6.9127198986
 20
-20.0918966615
 30
0.0
 11
-0.0150589332
 21
0.3042668091
 31
0.0
 40
0.9847713852
 41
-0.0487002863
 42
1.5205806929
  0
ELLIPSE
  5
854
100
AcDbEntity
  8
ASSI
100
AcDbEllipse
 62
7
  6
CONTINUOUS
 10
-6.9127198986
 20
20.0918966615
 30
0.0
 11
0.0150589332
 21
0.3042668091
 31
0.0
 40
0.9847713852
 41
1.6210119607
 42
3.1902929399
  0
ELLIPSE
  5
855
100
AcDbEntity
  8
ASSI
100
AcDbEllipse
 62
7
  6
CONTINUOUS
 10
6.9127198986
 20
20.0918966615
 30
0.0
 11
0.0150589332
 21
-0.3042668091
 31
0.0
 40
0.9847713852
 41
-0.0487002863
 42
1.5205806929
  0
ELLIPSE
  5
856
100
AcDbEntity
  8
ASSI
100
AcDbEllipse
 62
7
  6
CONTINUOUS
 10
6.8872801014
 20
20.0918966615
 30
0.0
 11
0.0150589332
 21
0.3042668091
 31
0.0
 40
0.9847713852
 41
1.6210119607
 42
3.1902929399
  0
ELLIPSE
  5
857
100
AcDbEntity
  8
ASSI
100
AcDbEllipse
 62
7
  6
CONTINUOUS
 10
-6.8872801014
 20
20.0918966615
 30
0.0
 11
-0.0150589332
 21
0.3042668091
 31
0.0
 40
0.9847713852
 41
3.0928923672
 42
4.6621733465
  0
ELLIPSE
  5
858
100
AcDbEntity
  8
ASSI
100
AcDbEllipse
 62
7
  6
CONTINUOUS
 10
9.5072867274
 20
-8.9984694765
 30
0.0
 11
-0.0
 21
0.25
 31
0.0
 40
0.0261859216
 41
-3.1241393611
 42
-1.5707963268
  0
ELLIPSE
  5
859
100
AcDbEntity
  8
ASSI
100
AcDbEllipse
 62
7
  6
CONTINUOUS
 10
9.5072867274
 20
-8.8015305236
 30
0.0
 11
0.0
 21
0.25
 31
0.0
 40
0.0261859216
 41
-1.5707963268
 42
-0.0174532925
  0
ELLIPSE
  5
85A
100
AcDbEntity
  8
ASSI
100
AcDbEllipse
 62
7
  6
CONTINUOUS
 10
-9.5072867274
 20
-8.8015305236
 30
0.0
 11
0.0
 21
0.25
 31
0.0
 40
0.0261859216
 41
0.0174532925
 42
1.5707963268
  0
ELLIPSE
  5
85B
100
AcDbEntity
  8
ASSI
100
AcDbEllipse
 62
7
  6
CONTINUOUS
 10
-9.5072867274
 20
-8.9984694765
 30
0.0
 11
0.0
 21
0.25
 31
0.0
 40
0.0261859216
 41
-4.7123889804
 42
-3.1590459461
  0
ELLIPSE
  5
85C
100
AcDbEntity
  8
ASSI
100
AcDbEllipse
 62
7
  6
CONTINUOUS
 10
-6.8392518659
 20
-16.770076164
 30
0.0
 11
-0.2236357461
 21
0.4473055582
 31
0.0
 40
0.9998096356
 41
-0.4635410001
 42
1.1071030277
  0
ELLIPSE
  5
85D
100
AcDbEntity
  8
ASSI
100
AcDbEllipse
 62
7
  6
CONTINUOUS
 10
6.8392518659
 20
-16.770076164
 30
0.0
 11
0.2236357461
 21
0.4473055582
 31
0.0
 40
0.9998096356
 41
-1.1071030277
 42
0.4635410001
  0
ELLIPSE
  5
85E
100
AcDbEntity
  8
ASSI
100
AcDbEllipse
 62
7
  6
CONTINUOUS
 10
-6.8872801014
 20
-20.0918966615
 30
0.0
 11
-0.0150589332
 21
-0.3042668091
 31
0.0
 40
0.9847713852
 41
1.6210119607
 42
3.1902929399
  0
ELLIPSE
  5
85F
100
AcDbEntity
  8
ASSI
100
AcDbEllipse
 62
7
  6
CONTINUOUS
 10
6.8872801014
 20
-20.0918966615
 30
0.0
 11
0.0150589332
 21
-0.3042668091
 31
0.0
 40
0.9847713852
 41
3.0928923672
 42
4.6621733465
  0
ELLIPSE
  5
860
100
AcDbEntity
  8
ASSI
100
AcDbEllipse
 62
7
  6
CONTINUOUS
 10
-6.3306453645
 20
-15.8003540767
 30
0.0
 11
-0.0
 21
1.5
 31
0.0
 40
0.0174550649
 41
3.1590459461
 42
5.3232542186
  0
ELLIPSE
  5
861
100
AcDbEntity
  8
ASSI
100
AcDbEllipse
 62
7
  6
CONTINUOUS
 10
6.3306453645
 20
-15.8003540767
 30
0.0
 11
-0.0
 21
1.5
 31
0.0
 40
0.0174550649
 41
0.9599310886
 42
3.1241393611
  0
ELLIPSE
  5
862
100
AcDbEntity
  8
ASSI
100
AcDbEllipse
 62
7
  6
CONTINUOUS
 10
7.0515615221
 20
17.2865918418
 30
0.0
 11
-0.0130177014
 21
0.306250446
 31
0.0
 40
0.9787055891
 41
-3.1831702413
 42
-1.613889262
  0
ELLIPSE
  5
863
100
AcDbEntity
  8
ASSI
100
AcDbEllipse
 62
7
  6
CONTINUOUS
 10
-7.0515615221
 20
17.2865918418
 30
0.0
 11
0.0130177014
 21
0.306250446
 31
0.0
 40
0.9787055891
 41
-4.6692960451
 42
-3.1000150659
  0
ELLIPSE
  5
864
100
AcDbEntity
  8
ASSI
100
AcDbEllipse
 62
7
  6
CONTINUOUS
 10
-3.8679727866
 20
15.7734849081
 30
0.0
 11
-0.0
 21
1.0
 31
0.0
 40
0.1763269807
 41
-4.6774823953
 42
-3.1764992386
  0
ELLIPSE
  5
865
100
AcDbEntity
  8
ASSI
100
AcDbEllipse
 62
7
  6
CONTINUOUS
 10
3.8679727866
 20
15.7734849081
 30
0.0
 11
0.0
 21
1.0
 31
0.0
 40
0.1763269807
 41
-3.1066860685
 42
-1.6057029118
  0
ELLIPSE
  5
866
100
AcDbEntity
  8
ASSI
100
AcDbEllipse
 62
7
  6
CONTINUOUS
 10
-7.5370272134
 20
15.7734849081
 30
0.0
 11
-0.0
 21
1.0
 31
0.0
 40
0.1763269807
 41
-3.1066860685
 42
-1.6057029118
  0
ELLIPSE
  5
867
100
AcDbEntity
  8
ASSI
100
AcDbEllipse
 62
7
  6
CONTINUOUS
 10
7.5370272134
 20
15.7734849081
 30
0.0
 11
0.0
 21
1.0
 31
0.0
 40
0.1763269807
 41
-4.6774823953
 42
-3.1764992386
  0
ELLIPSE
  5
868
100
AcDbEntity
  8
ASSI
100
AcDbEllipse
 62
7
  6
CONTINUOUS
 10
-4.4109791689
 20
19.7676913781
 30
0.0
 11
-0.0
 21
0.3
 31
0.0
 40
0.0174550649
 41
-3.089232776
 42
-1.5707963268
  0
ELLIPSE
  5
869
100
AcDbEntity
  8
ASSI
100
AcDbEllipse
 62
7
  6
CONTINUOUS
 10
-6.4712013363
 20
19.7676913781
 30
0.0
 11
-0.0
 21
0.3
 31
0.0
 40
0.0087268678
 41
-4.7123889804
 42
-3.1939525311
  0
ELLIPSE
  5
86A
100
AcDbEntity
  8
ASSI
100
AcDbEllipse
 62
7
  6
CONTINUOUS
 10
-9.5635864588
 20
19.7676913781
 30
0.0
 11
-0.0
 21
0.3
 31
0.0
 40
0.0261859216
 41
-4.7123889804
 42
-3.1939525311
  0
ELLIPSE
  5
86B
100
AcDbEntity
  8
ASSI
100
AcDbEllipse
 62
7
  6
CONTINUOUS
 10
-7.3287986637
 20
19.7676913781
 30
0.0
 11
-0.0
 21
0.3
 31
0.0
 40
0.0087268678
 41
-3.089232776
 42
-1.5707963268
  0
ELLIPSE
  5
86C
100
AcDbEntity
  8
ASSI
100
AcDbEllipse
 62
7
  6
CONTINUOUS
 10
7.3287986637
 20
19.7676913781
 30
0.0
 11
-0.0
 21
0.3
 31
0.0
 40
0.0087268678
 41
-4.7123889804
 42
-3.1939525311
  0
ELLIPSE
  5
86D
100
AcDbEntity
  8
ASSI
100
AcDbEllipse
 62
7
  6
CONTINUOUS
 10
9.5635864588
 20
19.7676913781
 30
0.0
 11
-0.0
 21
0.3
 31
0.0
 40
0.0261859216
 41
-3.089232776
 42
-1.5707963268
  0
ELLIPSE
  5
86E
100
AcDbEntity
  8
ASSI
100
AcDbEllipse
 62
7
  6
CONTINUOUS
 10
6.4712013363
 20
19.7676913781
 30
0.0
 11
0.0
 21
0.3
 31
0.0
 40
0.0087268678
 41
-3.089232776
 42
-1.5707963268
  0
ELLIPSE
  5
86F
100
AcDbEntity
  8
ASSI
100
AcDbEllipse
 62
7
  6
CONTINUOUS
 10
4.4109791689
 20
19.7676913781
 30
0.0
 11
0.0
 21
0.3
 31
0.0
 40
0.0174550649
 41
1.5707963268
 42
3.089232776
  0
ELLIPSE
  5
870
100
AcDbEntity
  8
ASSI
100
AcDbEllipse
 62
7
  6
CONTINUOUS
 10
-3.9561153432
 20
17.8438846568
 30
0.0
 11
0.236218315
 21
0.4412535831
 31
0.0
 40
0.9989016803
 41
-4.2210273867
 42
-2.6505356464
  0
ELLIPSE
  5
871
100
AcDbEntity
  8
ASSI
100
AcDbEllipse
 62
7
  6
CONTINUOUS
 10
-3.8445737581
 20
20.0043634339
 30
0.0
 11
0.5
 21
-0.0
 31
0.0
 40
0.0087268678
 41
1.5707963268
 42
3.1241393611
  0
ELLIPSE
  5
872
100
AcDbEntity
  8
ASSI
100
AcDbEllipse
 62
7
  6
CONTINUOUS
 10
3.9561153432
 20
17.8438846568
 30
0.0
 11
-0.236218315
 21
0.4412535831
 31
0.0
 40
0.9989016803
 41
-3.6326496608
 42
-2.0621579205
  0
ELLIPSE
  5
873
100
AcDbEntity
  8
ASSI
100
AcDbEllipse
 62
7
  6
CONTINUOUS
 10
3.8445737581
 20
20.0043634339
 30
0.0
 11
0.5
 21
-0.0
 31
0.0
 40
0.0087268678
 41
0.0174532925
 42
1.5707963268
  0
ELLIPSE
  5
874
100
AcDbEntity
  8
ASSI
100
AcDbEllipse
 62
7
  6
CONTINUOUS
 10
-6.7484384779
 20
17.2865918418
 30
0.0
 11
-0.0130177014
 21
0.306250446
 31
0.0
 40
0.9787055891
 41
-3.1831702413
 42
-1.613889262
  0
ELLIPSE
  5
875
100
AcDbEntity
  8
ASSI
100
AcDbEllipse
 62
7
  6
CONTINUOUS
 10
6.7484384779
 20
17.2865918418
 30
0.0
 11
0.0130177014
 21
0.306250446
 31
0.0
 40
0.9787055891
 41
-4.6692960451
 42
-3.1000150659
  0
ELLIPSE
  5
876
100
AcDbEntity
  8
ASSI
100
AcDbEllipse
 62
7
  6
CONTINUOUS
 10
-6.8349188947
 20
-19.0339347772
 30
0.0
 11
0.0150589332
 21
0.3042668091
 31
0.0
 40
0.9847713852
 41
-1.5205806929
 42
0.0487002863
  0
ELLIPSE
  5
877
100
AcDbEntity
  8
ASSI
100
AcDbEllipse
 62
7
  6
CONTINUOUS
 10
-6.9650811053
 20
-19.0339347772
 30
0.0
 11
0.0150589332
 21
-0.3042668091
 31
0.0
 40
0.9847713852
 41
3.0928923672
 42
4.6621733465
  0
ELLIPSE
  5
878
100
AcDbEntity
  8
ASSI
100
AcDbEllipse
 62
7
  6
CONTINUOUS
 10
6.9650811053
 20
-19.0339347772
 30
0.0
 11
0.0150589332
 21
0.3042668091
 31
0.0
 40
0.9847713852
 41
-1.5205806929
 42
0.0487002863
  0
ELLIPSE
  5
879
100
AcDbEntity
  8
ASSI
100
AcDbEllipse
 62
7
  6
CONTINUOUS
 10
6.8349188947
 20
-19.0339347772
 30
0.0
 11
-0.0150589332
 21
0.3042668091
 31
0.0
 40
0.9847713852
 41
-0.0487002863
 42
1.5205806929
  0
ELLIPSE
  5
87A
100
AcDbEntity
  8
ASSI
100
AcDbEllipse
 62
7
  6
CONTINUOUS
 10
-8.2721812721
 20
-5.0
 30
0.0
 11
-0.0
 21
18.8
 31
0.0
 40
0.0174550649
 41
-0.9526027641
 42
-0.7396077085
  0
ELLIPSE
  5
87B
100
AcDbEntity
  8
ASSI
100
AcDbEllipse
 62
7
  6
CONTINUOUS
 10
-6.7650734896
 20
-16.9184442159
 30
0.0
 11
-0.2236357461
 21
0.4473055582
 31
0.0
 40
0.9998096356
 41
-0.4635410001
 42
1.1071030277
  0
ELLIPSE
  5
87C
100
AcDbEntity
  8
ASSI
100
AcDbEllipse
 62
7
  6
CONTINUOUS
 10
6.7650734896
 20
-16.9184442159
 30
0.0
 11
0.2236357461
 21
0.4473055582
 31
0.0
 40
0.9998096356
 41
-1.1071030277
 42
0.4635410001
  0
ELLIPSE
  5
87D
100
AcDbEntity
  8
0
100
AcDbEllipse
 62
7
  6
CONTINUOUS
 10
-6.331083251
 20
-15.764526841
 30
0.0
 11
0.0
 21
0.3
 31
0.0
 40
0.0174550649
 41
-1.5707963268
 42
-0.9599310886
  0
ELLIPSE
  5
87E
100
AcDbEntity
  8
0
100
AcDbEllipse
 62
7
  6
CONTINUOUS
 10
6.331083251
 20
-15.764526841
 30
0.0
 11
0.0
 21
0.3
 31
0.0
 40
0.0174550649
 41
0.9599310886
 42
1.43463591
  0
ELLIPSE
  5
87F
100
AcDbEntity
  8
0
100
AcDbEllipse
 62
7
  6
CONTINUOUS
 10
-6.331083251
 20
-15.8009747569
 30
0.0
 11
-0.0
 21
0.3
 31
0.0
 40
0.0174550649
 41
-3.1241393611
 42
-1.6761614621
  0
ELLIPSE
  5
880
100
AcDbEntity
  8
0
100
AcDbEllipse
 62
7
  6
CONTINUOUS
 10
6.331083251
 20
-15.8009747569
 30
0.0
 11
0.0
 21
0.3
 31
0.0
 40
0.0174550649
 41
-4.7123889804
 42
-3.1590459461
  0
ELLIPSE
  5
881
100
AcDbEntity
  8
0
100
AcDbEllipse
 62
7
  6
CONTINUOUS
 10
-6.3414138719
 20
-14.0475670731
 30
0.0
 11
0.0
 21
0.2
 31
0.0
 40
0.0174550649
 41
6.2831853072
 42
8.4648468722
  0
ELLIPSE
  5
882
100
AcDbEntity
  8
0
100
AcDbEllipse
 62
7
  6
CONTINUOUS
 10
6.3414138719
 20
-14.0475670731
 30
0.0
 11
0.0
 21
0.2
 31
0.0
 40
0.0174550649
 41
-2.181661565
 42
0.0
  0
ELLIPSE
  5
883
100
AcDbEntity
  8
RACCORDO
100
AcDbEllipse
 62
7
  6
CONTINUOUS
 10
8.2999543059
 20
16.7000456941
 30
0.0
 11
0.8485927574
 21
-0.8485927574
 31
0.0
 40
0.9999238505
 41
0.49695982
 42
0.7853589533
  0
ELLIPSE
  5
884
100
AcDbEntity
  8
RACCORDO
100
AcDbEllipse
 62
7
  6
CONTINUOUS
 10
8.2999543059
 20
16.7000456941
 30
0.0
 11
-0.8485927574
 21
0.8485927574
 31
0.0
 40
0.9999238505
 41
-3.9269527408
 42
-3.5174769066
  0
ELLIPSE
  5
885
100
AcDbEntity
  8
RACCORDO
100
AcDbEllipse
 62
7
  6
CONTINUOUS
 10
-8.2999543059
 20
16.7000456941
 30
0.0
 11
0.8485927574
 21
0.8485927574
 31
0.0
 40
0.9999238505
 41
-2.765708399
 42
-2.3562325664
  0
ELLIPSE
  5
886
100
AcDbEntity
  8
RACCORDO
100
AcDbEllipse
 62
7
  6
CONTINUOUS
 10
-8.2999543059
 20
16.7000456941
 30
0.0
 11
0.8485927574
 21
0.8485927574
 31
0.0
 40
0.9999238505
 41
-3.9269527408
 42
-3.6385523871
  0
ELLIPSE
  5
887
100
AcDbEntity
  8
0
100
AcDbEllipse
 62
7
  6
CONTINUOUS
 10
9.5072867274
 20
-8.9984694765
 30
0.0
 11
-0.0
 21
0.25
 31
0.0
 40
0.0261859216
 41
-3.1241393611
 42
-1.5707963268
  0
ELLIPSE
  5
888
100
AcDbEntity
  8
0
100
AcDbEllipse
 62
7
  6
CONTINUOUS
 10
9.5072867274
 20
-8.8015305236
 30
0.0
 11
0.0
 21
0.25
 31
0.0
 40
0.0261859216
 41
-1.5707963268
 42
-0.0174532925
  0
ELLIPSE
  5
889
100
AcDbEntity
  8
0
100
AcDbEllipse
 62
7
  6
CONTINUOUS
 10
-9.5072867274
 20
-8.8015305236
 30
0.0
 11
0.0
 21
0.25
 31
0.0
 40
0.0261859216
 41
0.0174532925
 42
1.5707963268
  0
ELLIPSE
  5
88A
100
AcDbEntity
  8
0
100
AcDbEllipse
 62
7
  6
CONTINUOUS
 10
-9.5072867274
 20
-8.9984694765
 30
0.0
 11
0.0
 21
0.25
 31
0.0
 40
0.0261859216
 41
-4.7123889804
 42
-3.1590459461
  0
ELLIPSE
  5
88B
100
AcDbEntity
  8
RACCORDO
100
AcDbEllipse
 62
7
  6
CONTINUOUS
 10
-6.8872801014
 20
-20.0918966615
 30
0.0
 11
-0.0150589332
 21
-0.3042668091
 31
0.0
 40
0.9847713852
 41
1.6210119607
 42
3.1902929399
  0
ELLIPSE
  5
88C
100
AcDbEntity
  8
RACCORDO
100
AcDbEllipse
 62
7
  6
CONTINUOUS
 10
6.8872801014
 20
-20.0918966615
 30
0.0
 11
0.0150589332
 21
-0.3042668091
 31
0.0
 40
0.9847713852
 41
3.0928923672
 42
4.6621733465
  0
ELLIPSE
  5
88D
100
AcDbEntity
  8
RACCORDO
100
AcDbEllipse
 62
7
  6
CONTINUOUS
 10
6.9127198986
 20
-20.0918966615
 30
0.0
 11
-0.0150589332
 21
-0.3042668091
 31
0.0
 40
0.9847713852
 41
1.6210119607
 42
3.1902929399
  0
ELLIPSE
  5
88E
100
AcDbEntity
  8
RACCORDO
100
AcDbEllipse
 62
7
  6
CONTINUOUS
 10
-6.9127198986
 20
-20.0918966615
 30
0.0
 11
-0.0150589332
 21
0.3042668091
 31
0.0
 40
0.9847713852
 41
-0.0487002863
 42
1.5205806929
  0
ELLIPSE
  5
88F
100
AcDbEntity
  8
RACCORDO
100
AcDbEllipse
 62
7
  6
CONTINUOUS
 10
-6.9127198986
 20
20.0918966615
 30
0.0
 11
0.0150589332
 21
0.3042668091
 31
0.0
 40
0.9847713852
 41
1.6210119607
 42
3.1902929399
  0
ELLIPSE
  5
890
100
AcDbEntity
  8
RACCORDO
100
AcDbEllipse
 62
7
  6
CONTINUOUS
 10
6.9127198986
 20
20.0918966615
 30
0.0
 11
0.0150589332
 21
-0.3042668091
 31
0.0
 40
0.9847713852
 41
-0.0487002863
 42
1.5205806929
  0
ELLIPSE
  5
891
100
AcDbEntity
  8
RACCORDO
100
AcDbEllipse
 62
7
  6
CONTINUOUS
 10
6.8872801014
 20
20.0918966615
 30
0.0
 11
0.0150589332
 21
0.3042668091
 31
0.0
 40
0.9847713852
 41
1.6210119607
 42
3.1902929399
  0
ELLIPSE
  5
892
100
AcDbEntity
  8
RACCORDO
100
AcDbEllipse
 62
7
  6
CONTINUOUS
 10
-6.8872801014
 20
20.0918966615
 30
0.0
 11
-0.0150589332
 21
0.3042668091
 31
0.0
 40
0.9847713852
 41
3.0928923672
 42
4.6621733465
  0
ELLIPSE
  5
893
100
AcDbEntity
  8
0
100
AcDbEllipse
 62
7
  6
CONTINUOUS
 10
-6.8392518659
 20
-16.770076164
 30
0.0
 11
-0.2236357461
 21
0.4473055582
 31
0.0
 40
0.9998096356
 41
-0.4635410001
 42
1.1071030277
  0
ELLIPSE
  5
894
100
AcDbEntity
  8
0
100
AcDbEllipse
 62
7
  6
CONTINUOUS
 10
6.8392518659
 20
-16.770076164
 30
0.0
 11
0.2236357461
 21
0.4473055582
 31
0.0
 40
0.9998096356
 41
-1.1071030277
 42
0.4635410001
  0
ELLIPSE
  5
895
100
AcDbEntity
  8
ASSI
100
AcDbEllipse
 62
7
  6
CONTINUOUS
 10
10.582468771
 20
21.882468771
 30
0.0
 11
0.3536610946
 21
0.3536610946
 31
0.0
 40
0.9996954599
 41
-0.7852458701
 42
0.7852458701
  0
ELLIPSE
  5
896
100
AcDbEntity
  8
ASSI
100
AcDbEllipse
 62
7
  6
CONTINUOUS
 10
-10.5824687711
 20
21.882468771
 30
0.0
 11
0.3536610946
 21
-0.3536610946
 31
0.0
 40
0.9996954599
 41
2.3563467834
 42
3.9268385237
  0
ELLIPSE
  5
897
100
AcDbEntity
  8
0
100
AcDbEllipse
 62
7
  6
CONTINUOUS
 10
-6.3306453645
 20
-15.8003540767
 30
0.0
 11
-0.0
 21
1.5
 31
0.0
 40
0.0174550649
 41
3.1590459461
 42
5.3232542186
  0
ELLIPSE
  5
898
100
AcDbEntity
  8
0
100
AcDbEllipse
 62
7
  6
CONTINUOUS
 10
6.3306453645
 20
-15.8003540767
 30
0.0
 11
-0.0
 21
1.5
 31
0.0
 40
0.0174550649
 41
0.9599310886
 42
3.1241393611
  0
ELLIPSE
  5
899
100
AcDbEntity
  8
ASSI
100
AcDbEllipse
 62
7
  6
CONTINUOUS
 10
-8.7631293807
 20
-23.5556624327
 30
0.0
 11
0.25
 21
0.0
 31
0.0
 40
0.5773502692
 41
-0.5235987756
 42
-0.0174532925
  0
ELLIPSE
  5
89A
100
AcDbEntity
  8
ASSI
100
AcDbEllipse
 62
7
  6
CONTINUOUS
 10
9.0368706193
 20
-23.5556624327
 30
0.0
 11
0.25
 21
-0.0
 31
0.0
 40
0.5773502692
 41
-0.5235987756
 42
-0.0174532925
  0
ELLIPSE
  5
89B
100
AcDbEntity
  8
ASSI
100
AcDbEllipse
 62
7
  6
CONTINUOUS
 10
-9.0368706193
 20
23.5556624327
 30
0.0
 11
0.25
 21
-0.0
 31
0.0
 40
0.5773502692
 41
2.617993878
 42
3.1241393611
  0
ELLIPSE
  5
89C
100
AcDbEntity
  8
ASSI
100
AcDbEllipse
 62
7
  6
CONTINUOUS
 10
8.7631293807
 20
23.5556624327
 30
0.0
 11
0.25
 21
0.0
 31
0.0
 40
0.5773502692
 41
2.617993878
 42
3.1241393611
  0
ELLIPSE
  5
89D
100
AcDbEntity
  8
ASSI
100
AcDbEllipse
 62
7
  6
CONTINUOUS
 10
-10.5824687711
 20
-21.8824687711
 30
0.0
 11
-0.3536610946
 21
-0.3536610946
 31
0.0
 40
0.9996954599
 41
-0.7852458701
 42
0.7852458701
  0
ELLIPSE
  5
89E
100
AcDbEntity
  8
ASSI
100
AcDbEllipse
 62
7
  6
CONTINUOUS
 10
10.582468771
 20
-21.8824687711
 30
0.0
 11
-0.3536610946
 21
0.3536610946
 31
0.0
 40
0.9996954599
 41
2.3563467834
 42
3.9268385237
  0
ELLIPSE
  5
89F
100
AcDbEntity
  8
ASSI
100
AcDbEllipse
 62
7
  6
CONTINUOUS
 10
-1.0674931469
 20
23.7325068531
 30
0.0
 11
-0.1768305473
 21
-0.1768305473
 31
0.0
 40
0.9996954599
 41
2.3563467834
 42
3.9268385237
  0
ELLIPSE
  5
8A0
100
AcDbEntity
  8
ASSI
100
AcDbEllipse
 62
7
  6
CONTINUOUS
 10
1.0674931469
 20
23.7325068531
 30
0.0
 11
-0.1768305473
 21
0.1768305473
 31
0.0
 40
0.9996954599
 41
-0.7852458701
 42
0.7852458701
  0
ELLIPSE
  5
8A1
100
AcDbEntity
  8
ASSI
100
AcDbEllipse
 62
7
  6
CONTINUOUS
 10
1.0674931469
 20
-23.7325068531
 30
0.0
 11
0.1768305473
 21
0.1768305473
 31
0.0
 40
0.9996954599
 41
2.3563467834
 42
3.9268385237
  0
ELLIPSE
  5
8A2
100
AcDbEntity
  8
ASSI
100
AcDbEllipse
 62
7
  6
CONTINUOUS
 10
-1.0674931469
 20
-23.7325068531
 30
0.0
 11
0.1768305473
 21
-0.1768305473
 31
0.0
 40
0.9996954599
 41
-0.7852458701
 42
0.7852458701
  0
ELLIPSE
  5
8A3
100
AcDbEntity
  8
ASSI
100
AcDbEllipse
 62
7
  6
CONTINUOUS
 10
-4.0459553394
 20
-23.2
 30
0.0
 11
0.4595995956
 21
0.0
 31
0.0
 40
0.9949884474
 41
-2.644815645
 42
-2.3053277814
  0
ELLIPSE
  5
8A4
100
AcDbEntity
  8
ASSI
100
AcDbEllipse
 62
7
  6
CONTINUOUS
 10
-4.0459553394
 20
-23.2
 30
0.0
 11
0.4595995956
 21
-0.0
 31
0.0
 40
0.9949884474
 41
2.3053277814
 42
2.644815645
  0
ELLIPSE
  5
8A5
100
AcDbEntity
  8
ASSI
100
AcDbEllipse
 62
7
  6
CONTINUOUS
 10
-4.0459553394
 20
23.2
 30
0.0
 11
0.4595995956
 21
-0.0
 31
0.0
 40
0.9949884474
 41
-2.644815645
 42
-2.3053277814
  0
ELLIPSE
  5
8A6
100
AcDbEntity
  8
ASSI
100
AcDbEllipse
 62
7
  6
CONTINUOUS
 10
-4.0459553394
 20
23.2
 30
0.0
 11
0.4595995956
 21
-0.0
 31
0.0
 40
0.9949884474
 41
2.3053277814
 42
2.644815645
  0
ELLIPSE
  5
8A7
100
AcDbEntity
  8
ASSI
100
AcDbEllipse
 62
7
  6
CONTINUOUS
 10
8.0754493507
 20
21.2252970227
 30
0.0
 11
-0.0
 21
1.0
 31
0.0
 40
0.0174550649
 41
1.3378837631
 42
1.5707963268
  0
ELLIPSE
  5
8A8
100
AcDbEntity
  8
ASSI
100
AcDbEllipse
 62
7
  6
CONTINUOUS
 10
-8.0754493507
 20
21.2252970227
 30
0.0
 11
-0.0
 21
1.0
 31
0.0
 40
0.0174550649
 41
-1.5707963268
 42
-1.3378837631
  0
ELLIPSE
  5
8A9
100
AcDbEntity
  8
ASSI
100
AcDbEllipse
 62
7
  6
CONTINUOUS
 10
-8.0754493507
 20
-21.2252970227
 30
0.0
 11
-0.0
 21
1.0
 31
0.0
 40
0.0174550649
 41
-1.8037088905
 42
-1.5707963268
  0
ELLIPSE
  5
8AA
100
AcDbEntity
  8
ASSI
100
AcDbEllipse
 62
7
  6
CONTINUOUS
 10
8.0754493507
 20
-21.2252970227
 30
0.0
 11
-0.0
 21
1.0
 31
0.0
 40
0.0174550649
 41
-4.7123889804
 42
-4.4794764167
  0
ELLIPSE
  5
8AB
100
AcDbEntity
  8
ASSI
100
AcDbEllipse
 62
7
  6
CONTINUOUS
 10
-8.3012864295
 20
-21.2252970227
 30
0.0
 11
1.0000571192
 21
-0.9999809595
 31
0.0
 40
0.0061705924
 41
0.0112823085
 42
1.3317127791
  0
ELLIPSE
  5
8AC
100
AcDbEntity
  8
ASSI
100
AcDbEllipse
 62
7
  6
CONTINUOUS
 10
8.3012864295
 20
-21.2252970227
 30
0.0
 11
1.0000571192
 21
0.9999809595
 31
0.0
 40
0.0061705924
 41
1.8098798745
 42
3.1303103451
  0
ELLIPSE
  5
8AD
100
AcDbEntity
  8
ASSI
100
AcDbEllipse
 62
7
  6
CONTINUOUS
 10
-8.3012864295
 20
21.2252970227
 30
0.0
 11
1.0000571192
 21
0.9999809595
 31
0.0
 40
0.0061705924
 41
-1.3317127791
 42
-0.0112823085
  0
ELLIPSE
  5
8AE
100
AcDbEntity
  8
ASSI
100
AcDbEllipse
 62
7
  6
CONTINUOUS
 10
8.3012864295
 20
21.2252970227
 30
0.0
 11
1.0000571192
 21
-0.9999809595
 31
0.0
 40
0.0061705924
 41
-3.1303103451
 42
-1.8098798745
  0
ELLIPSE
  5
8AF
100
AcDbEntity
  8
0
100
AcDbEllipse
 62
7
  6
CONTINUOUS
 10
6.7650734896
 20
-16.9184442159
 30
0.0
 11
0.2236357461
 21
0.4473055582
 31
0.0
 40
0.9998096356
 41
-1.1071030277
 42
0.4635410001
  0
ELLIPSE
  5
8B0
100
AcDbEntity
  8
ASSI
100
AcDbEllipse
 62
7
  6
CONTINUOUS
 10
-9.0368706193
 20
-23.5556624327
 30
0.0
 11
0.25
 21
0.0
 31
0.0
 40
0.5773502692
 41
-3.1241393611
 42
-2.617993878
  0
ELLIPSE
  5
8B1
100
AcDbEntity
  8
ASSI
100
AcDbEllipse
 62
7
  6
CONTINUOUS
 10
-9.0368706193
 20
-22.3869087013
 30
0.0
 11
0.25
 21
0.0
 31
0.0
 40
0.0174550649
 41
1.5707963268
 42
3.1241393611
  0
ELLIPSE
  5
8B2
100
AcDbEntity
  8
ASSI
100
AcDbEllipse
 62
7
  6
CONTINUOUS
 10
8.7631293807
 20
-23.5556624327
 30
0.0
 11
0.25
 21
0.0
 31
0.0
 40
0.5773502692
 41
-3.1241393611
 42
-2.617993878
  0
ELLIPSE
  5
8B3
100
AcDbEntity
  8
ASSI
100
AcDbEllipse
 62
7
  6
CONTINUOUS
 10
8.7631293807
 20
-22.3869087013
 30
0.0
 11
0.25
 21
-0.0
 31
0.0
 40
0.0174550649
 41
1.5707963268
 42
3.1241393611
  0
ELLIPSE
  5
8B4
100
AcDbEntity
  8
ASSI
100
AcDbEllipse
 62
7
  6
CONTINUOUS
 10
-9.0368706193
 20
22.3869087013
 30
0.0
 11
0.25
 21
-0.0
 31
0.0
 40
0.0174550649
 41
-3.1241393611
 42
-1.5707963268
  0
ELLIPSE
  5
8B5
100
AcDbEntity
  8
0
100
AcDbEllipse
 62
7
  6
CONTINUOUS
 10
-6.7650734896
 20
-16.9184442159
 30
0.0
 11
-0.2236357461
 21
0.4473055582
 31
0.0
 40
0.9998096356
 41
-0.4635410001
 42
1.1071030277
  0
ELLIPSE
  5
8B6
100
AcDbEntity
  8
ASSI
100
AcDbEllipse
 62
7
  6
CONTINUOUS
 10
8.7631293807
 20
22.3869087013
 30
0.0
 11
0.25
 21
-0.0
 31
0.0
 40
0.0174550649
 41
-3.1241393611
 42
-1.5707963268
  0
ELLIPSE
  5
8B7
100
AcDbEntity
  8
0
100
AcDbEllipse
 62
7
  6
CONTINUOUS
 10
-8.2721812721
 20
-5.0
 30
0.0
 11
-0.0
 21
18.8
 31
0.0
 40
0.0174550649
 41
-0.9526027641
 42
-0.7396077085
  0
ELLIPSE
  5
8B8
100
AcDbEntity
  8
ASSI
100
AcDbEllipse
 62
7
  6
CONTINUOUS
 10
9.0368706193
 20
-22.3869087013
 30
0.0
 11
0.25
 21
-0.0
 31
0.0
 40
0.0174550649
 41
0.0174532925
 42
1.5707963268
  0
ELLIPSE
  5
8B9
100
AcDbEntity
  8
ASSI
100
AcDbEllipse
 62
7
  6
CONTINUOUS
 10
-8.7631293807
 20
-22.3869087013
 30
0.0
 11
0.25
 21
-0.0
 31
0.0
 40
0.0174550649
 41
0.0174532925
 42
1.5707963268
  0
ELLIPSE
  5
8BA
100
AcDbEntity
  8
ASSI
100
AcDbEllipse
 62
7
  6
CONTINUOUS
 10
-8.7631293807
 20
22.3869087013
 30
0.0
 11
0.25
 21
0.0
 31
0.0
 40
0.0174550649
 41
-1.5707963268
 42
-0.0174532925
  0
ELLIPSE
  5
8BB
100
AcDbEntity
  8
ASSI
100
AcDbEllipse
 62
7
  6
CONTINUOUS
 10
-8.7631293807
 20
23.5556624327
 30
0.0
 11
0.25
 21
-0.0
 31
0.0
 40
0.5773502692
 41
0.0174532925
 42
0.5235987756
  0
ELLIPSE
  5
8BC
100
AcDbEntity
  8
ASSI
100
AcDbEllipse
 62
7
  6
CONTINUOUS
 10
9.0368706193
 20
23.5556624327
 30
0.0
 11
0.25
 21
0.0
 31
0.0
 40
0.5773502692
 41
0.0174532925
 42
0.5235987756
  0
ELLIPSE
  5
8BD
100
AcDbEntity
  8
ASSI
100
AcDbEllipse
 62
7
  6
CONTINUOUS
 10
9.0368706193
 20
22.3869087013
 30
0.0
 11
0.25
 21
0.0
 31
0.0
 40
0.0174550649
 41
-1.5707963268
 42
-0.0174532925
  0
ELLIPSE
  5
8BE
100
AcDbEntity
  8
ASSI
100
AcDbEllipse
 62
7
  6
CONTINUOUS
 10
-10.3999695344
 20
23.3535898385
 30
0.0
 11
0.0069796346
 21
0.2308610084
 31
0.0
 40
0.8659264732
 41
-4.6774890294
 42
-3.1154190256
  0
ELLIPSE
  5
8BF
100
AcDbEntity
  8
ASSI
100
AcDbEllipse
 62
7
  6
CONTINUOUS
 10
4.0459553394
 20
-23.2
 30
0.0
 11
0.4595995956
 21
-0.0
 31
0.0
 40
0.9949884474
 41
0.4967770086
 42
0.8362648721
  0
ELLIPSE
  5
8C0
100
AcDbEntity
  8
0
100
AcDbEllipse
 62
7
  6
CONTINUOUS
 10
6.8349188947
 20
-19.0339347772
 30
0.0
 11
-0.0150589332
 21
0.3042668091
 31
0.0
 40
0.9847713852
 41
-0.0487002863
 42
1.5205806929
  0
ELLIPSE
  5
8C1
100
AcDbEntity
  8
0
100
AcDbEllipse
 62
7
  6
CONTINUOUS
 10
6.9650811053
 20
-19.0339347772
 30
0.0
 11
0.0150589332
 21
0.3042668091
 31
0.0
 40
0.9847713852
 41
-1.5205806929
 42
0.0487002863
  0
ELLIPSE
  5
8C2
100
AcDbEntity
  8
ASSI
100
AcDbEllipse
 62
7
  6
CONTINUOUS
 10
-7.4000304656
 20
23.3535898385
 30
0.0
 11
-0.0069796346
 21
0.2308610084
 31
0.0
 40
0.8659264732
 41
-3.1677662815
 42
-1.6056962779
  0
ELLIPSE
  5
8C3
100
AcDbEntity
  8
0
100
AcDbEllipse
 62
7
  6
CONTINUOUS
 10
-6.9650811053
 20
-19.0339347772
 30
0.0
 11
0.0150589332
 21
-0.3042668091
 31
0.0
 40
0.9847713852
 41
3.0928923672
 42
4.6621733465
  0
ELLIPSE
  5
8C4
100
AcDbEntity
  8
0
100
AcDbEllipse
 62
7
  6
CONTINUOUS
 10
-6.8349188947
 20
-19.0339347772
 30
0.0
 11
0.0150589332
 21
0.3042668091
 31
0.0
 40
0.9847713852
 41
-1.5205806929
 42
0.0487002863
  0
ELLIPSE
  5
8C5
100
AcDbEntity
  8
ASSI
100
AcDbEllipse
 62
7
  6
CONTINUOUS
 10
4.0459553394
 20
-23.2
 30
0.0
 11
0.4595995956
 21
0.0
 31
0.0
 40
0.9949884474
 41
-0.8362648721
 42
-0.4967770086
  0
ELLIPSE
  5
8C6
100
AcDbEntity
  8
ASSI
100
AcDbEllipse
 62
7
  6
CONTINUOUS
 10
7.4000304656
 20
23.3535898385
 30
0.0
 11
0.0069796346
 21
0.2308610084
 31
0.0
 40
0.8659264732
 41
-4.6774890294
 42
-3.1154190256
  0
ELLIPSE
  5
8C7
100
AcDbEntity
  8
ASSI
100
AcDbEllipse
 62
7
  6
CONTINUOUS
 10
10.3999695344
 20
23.3535898385
 30
0.0
 11
-0.0069796346
 21
0.2308610084
 31
0.0
 40
0.8659264732
 41
-3.1677662815
 42
-1.6056962779
  0
ELLIPSE
  5
8C8
100
AcDbEntity
  8
ASSI
100
AcDbEllipse
 62
7
  6
CONTINUOUS
 10
-10.3999695344
 20
-23.3535898385
 30
0.0
 11
-0.0069796346
 21
0.2308610084
 31
0.0
 40
0.8659264732
 41
-0.026173628
 42
1.5358963756
  0
ELLIPSE
  5
8C9
100
AcDbEntity
  8
ASSI
100
AcDbEllipse
 62
7
  6
CONTINUOUS
 10
4.0459553394
 20
23.2
 30
0.0
 11
0.4595995956
 21
-0.0
 31
0.0
 40
0.9949884474
 41
0.4967770086
 42
0.8362648721
  0
ELLIPSE
  5
8CA
100
AcDbEntity
  8
ASSI
100
AcDbEllipse
 62
7
  6
CONTINUOUS
 10
7.4000304656
 20
-23.3535898385
 30
0.0
 11
-0.0069796346
 21
0.2308610084
 31
0.0
 40
0.8659264732
 41
-0.026173628
 42
1.5358963756
  0
ELLIPSE
  5
8CB
100
AcDbEntity
  8
ASSI
100
AcDbEllipse
 62
7
  6
CONTINUOUS
 10
-7.4000304656
 20
-23.3535898385
 30
0.0
 11
0.0069796346
 21
0.2308610084
 31
0.0
 40
0.8659264732
 41
-1.5358963758
 42
0.026173628
  0
ELLIPSE
  5
8CC
100
AcDbEntity
  8
ASSI
100
AcDbEllipse
 62
7
  6
CONTINUOUS
 10
4.0459553394
 20
23.2
 30
0.0
 11
0.4595995956
 21
0.0
 31
0.0
 40
0.9949884474
 41
-0.8362648721
 42
-0.4967770086
  0
ELLIPSE
  5
8CD
100
AcDbEntity
  8
ASSI
100
AcDbEllipse
 62
7
  6
CONTINUOUS
 10
10.3999695344
 20
-23.3535898385
 30
0.0
 11
0.0069796346
 21
0.2308610084
 31
0.0
 40
0.8659264732
 41
-1.5358963758
 42
0.026173628
  0
ELLIPSE
  5
8CE
100
AcDbEntity
  8
ASSI
100
AcDbEllipse
 62
7
  6
CONTINUOUS
 10
-3.9662724675
 20
22.3020015105
 30
0.0
 11
0.3856702945
 21
0.0
 31
0.0
 40
0.0174550649
 41
-3.1241393611
 42
-0.0174532925
  0
ELLIPSE
  5
8CF
100
AcDbEntity
  8
ASSI
100
AcDbEllipse
 62
7
  6
CONTINUOUS
 10
-3.9662724675
 20
-22.3020015105
 30
0.0
 11
0.3856702945
 21
-0.0
 31
0.0
 40
0.0174550649
 41
0.0174532925
 42
3.1241393611
  0
ELLIPSE
  5
8D0
100
AcDbEntity
  8
ASSI
100
AcDbEllipse
 62
7
  6
CONTINUOUS
 10
3.9662724675
 20
22.3020015105
 30
0.0
 11
0.3856702945
 21
0.0
 31
0.0
 40
0.0174550649
 41
-3.1241393611
 42
-0.0174532925
  0
ELLIPSE
  5
8D1
100
AcDbEntity
  8
ASSI
100
AcDbEllipse
 62
7
  6
CONTINUOUS
 10
3.9662724675
 20
-22.3020015105
 30
0.0
 11
0.3856702945
 21
-0.0
 31
0.0
 40
0.0174550649
 41
0.0174532925
 42
3.1241393611
  0
ELLIPSE
  5
8D2
100
AcDbEntity
  8
ASSI
100
AcDbEllipse
 62
7
  6
CONTINUOUS
 10
-3.750038082
 20
-23.7325068531
 30
0.0
 11
0.1768305473
 21
-0.1768305473
 31
0.0
 40
0.9996954599
 41
-0.7852458701
 42
0.7852458701
  0
ELLIPSE
  5
8D3
100
AcDbEntity
  8
ASSI
100
AcDbEllipse
 62
7
  6
CONTINUOUS
 10
3.750038082
 20
-23.7325068531
 30
0.0
 11
0.1768305473
 21
0.1768305473
 31
0.0
 40
0.9996954599
 41
-3.9268385237
 42
-2.3563467834
  0
ELLIPSE
  5
8D4
100
AcDbEntity
  8
ASSI
100
AcDbEllipse
 62
7
  6
CONTINUOUS
 10
3.750038082
 20
23.7325068531
 30
0.0
 11
-0.1768305473
 21
0.1768305473
 31
0.0
 40
0.9996954599
 41
-0.7852458701
 42
0.7852458701
  0
ELLIPSE
  5
8D5
100
AcDbEntity
  8
ASSI
100
AcDbEllipse
 62
7
  6
CONTINUOUS
 10
-3.750038082
 20
23.7325068531
 30
0.0
 11
0.1768305473
 21
0.1768305473
 31
0.0
 40
0.9996954599
 41
-0.7852458701
 42
0.7852458701
  0
ELLIPSE
  5
8D6
100
AcDbEntity
  8
RACCORDO
100
AcDbEllipse
 62
7
  6
CONTINUOUS
 10
6.7484384779
 20
17.2865918418
 30
0.0
 11
0.0130177014
 21
0.306250446
 31
0.0
 40
0.9787055891
 41
-4.6692960451
 42
-3.1000150659
  0
ELLIPSE
  5
8D7
100
AcDbEntity
  8
RACCORDO
100
AcDbEllipse
 62
7
  6
CONTINUOUS
 10
-6.7484384779
 20
17.2865918418
 30
0.0
 11
-0.0130177014
 21
0.306250446
 31
0.0
 40
0.9787055891
 41
-3.1831702413
 42
-1.613889262
  0
ELLIPSE
  5
8D8
100
AcDbEntity
  8
RACCORDO
100
AcDbEllipse
 62
7
  6
CONTINUOUS
 10
3.8445737581
 20
20.0043634339
 30
0.0
 11
0.5
 21
-0.0
 31
0.0
 40
0.0087268678
 41
0.0174532925
 42
1.5707963268
  0
ELLIPSE
  5
8D9
100
AcDbEntity
  8
RACCORDO
100
AcDbEllipse
 62
7
  6
CONTINUOUS
 10
3.9561153432
 20
17.8438846568
 30
0.0
 11
-0.236218315
 21
0.4412535831
 31
0.0
 40
0.9989016803
 41
-3.6326496608
 42
-2.0621579205
  0
ELLIPSE
  5
8DA
100
AcDbEntity
  8
RACCORDO
100
AcDbEllipse
 62
7
  6
CONTINUOUS
 10
-3.8445737581
 20
20.0043634339
 30
0.0
 11
0.5
 21
-0.0
 31
0.0
 40
0.0087268678
 41
1.5707963268
 42
3.1241393611
  0
ELLIPSE
  5
8DB
100
AcDbEntity
  8
RACCORDO
100
AcDbEllipse
 62
7
  6
CONTINUOUS
 10
-3.9561153432
 20
17.8438846568
 30
0.0
 11
0.236218315
 21
0.4412535831
 31
0.0
 40
0.9989016803
 41
-4.2210273867
 42
-2.6505356464
  0
ELLIPSE
  5
8DC
100
AcDbEntity
  8
RACCORDO
100
AcDbEllipse
 62
7
  6
CONTINUOUS
 10
4.4109791689
 20
19.7676913781
 30
0.0
 11
0.0
 21
0.3
 31
0.0
 40
0.0174550649
 41
1.5707963268
 42
3.089232776
  0
ELLIPSE
  5
8DD
100
AcDbEntity
  8
ASSI
100
AcDbEllipse
 62
7
  6
CONTINUOUS
 10
-3.3850964806
 20
-20.8909925586
 30
0.0
 11
0.25
 21
-0.0
 31
0.0
 40
0.3639702343
 41
0.0087266463
 42
1.5707963268
  0
ELLIPSE
  5
8DE
100
AcDbEntity
  8
ASSI
100
AcDbEllipse
 62
7
  6
CONTINUOUS
 10
-3.3000095196
 20
-22.1325068531
 30
0.0
 11
-0.1118178731
 21
0.2236527791
 31
0.0
 40
0.9998096356
 41
-3.6051336537
 42
-2.0344896259
  0
ELLIPSE
  5
8DF
100
AcDbEntity
  8
ASSI
100
AcDbEllipse
 62
7
  6
CONTINUOUS
 10
3.3000095196
 20
-22.1325068531
 30
0.0
 11
0.1118178731
 21
0.2236527791
 31
0.0
 40
0.9998096356
 41
-4.2486956813
 42
-2.6780516535
  0
ELLIPSE
  5
8E0
100
AcDbEntity
  8
ASSI
100
AcDbEllipse
 62
7
  6
CONTINUOUS
 10
3.3850964806
 20
-20.8909925586
 30
0.0
 11
0.25
 21
-0.0
 31
0.0
 40
0.3639702343
 41
1.5707963268
 42
3.1328660073
  0
ELLIPSE
  5
8E1
100
AcDbEntity
  8
ASSI
100
AcDbEllipse
 62
7
  6
CONTINUOUS
 10
3.3850964806
 20
20.8909925586
 30
0.0
 11
0.25
 21
-0.0
 31
0.0
 40
0.3639702343
 41
-3.1328660073
 42
-1.5707963268
  0
ELLIPSE
  5
8E2
100
AcDbEntity
  8
ASSI
100
AcDbEllipse
 62
7
  6
CONTINUOUS
 10
3.3000095196
 20
22.1325068531
 30
0.0
 11
-0.1118178731
 21
0.2236527791
 31
0.0
 40
0.9998096356
 41
-0.4635410001
 42
1.1071030277
  0
ELLIPSE
  5
8E3
100
AcDbEntity
  8
ASSI
100
AcDbEllipse
 62
7
  6
CONTINUOUS
 10
-3.3000095196
 20
22.1325068531
 30
0.0
 11
0.1118178731
 21
0.2236527791
 31
0.0
 40
0.9998096356
 41
-1.1071030277
 42
0.4635410001
  0
ELLIPSE
  5
8E4
100
AcDbEntity
  8
ASSI
100
AcDbEllipse
 62
7
  6
CONTINUOUS
 10
-3.3850964806
 20
20.8909925586
 30
0.0
 11
0.25
 21
-0.0
 31
0.0
 40
0.3639702343
 41
-1.5707963268
 42
-0.0087266463
  0
ELLIPSE
  5
8E5
100
AcDbEntity
  8
RACCORDO
100
AcDbEllipse
 62
7
  6
CONTINUOUS
 10
7.0515615221
 20
17.2865918418
 30
0.0
 11
-0.0130177014
 21
0.306250446
 31
0.0
 40
0.9787055891
 41
-3.1831702413
 42
-1.613889262
  0
ELLIPSE
  5
8E6
100
AcDbEntity
  8
RACCORDO
100
AcDbEllipse
 62
7
  6
CONTINUOUS
 10
-7.0515615221
 20
17.2865918418
 30
0.0
 11
0.0130177014
 21
0.306250446
 31
0.0
 40
0.9787055891
 41
-4.6692960451
 42
-3.1000150659
  0
ELLIPSE
  5
8E7
100
AcDbEntity
  8
RACCORDO
100
AcDbEllipse
 62
7
  6
CONTINUOUS
 10
6.4712013363
 20
19.7676913781
 30
0.0
 11
0.0
 21
0.3
 31
0.0
 40
0.0087268678
 41
-3.089232776
 42
-1.5707963268
  0
ELLIPSE
  5
8E8
100
AcDbEntity
  8
RACCORDO
100
AcDbEllipse
 62
7
  6
CONTINUOUS
 10
9.5635864588
 20
19.7676913781
 30
0.0
 11
-0.0
 21
0.3
 31
0.0
 40
0.0261859216
 41
-3.089232776
 42
-1.5707963268
  0
ELLIPSE
  5
8E9
100
AcDbEntity
  8
RACCORDO
100
AcDbEllipse
 62
7
  6
CONTINUOUS
 10
7.3287986637
 20
19.7676913781
 30
0.0
 11
-0.0
 21
0.3
 31
0.0
 40
0.0087268678
 41
-4.7123889804
 42
-3.1939525311
  0
ELLIPSE
  5
8EA
100
AcDbEntity
  8
RACCORDO
100
AcDbEllipse
 62
7
  6
CONTINUOUS
 10
-7.3287986637
 20
19.7676913781
 30
0.0
 11
-0.0
 21
0.3
 31
0.0
 40
0.0087268678
 41
-3.089232776
 42
-1.5707963268
  0
ELLIPSE
  5
8EB
100
AcDbEntity
  8
RACCORDO
100
AcDbEllipse
 62
7
  6
CONTINUOUS
 10
-9.5635864588
 20
19.7676913781
 30
0.0
 11
-0.0
 21
0.3
 31
0.0
 40
0.0261859216
 41
-4.7123889804
 42
-3.1939525311
  0
ELLIPSE
  5
8EC
100
AcDbEntity
  8
RACCORDO
100
AcDbEllipse
 62
7
  6
CONTINUOUS
 10
-6.4712013363
 20
19.7676913781
 30
0.0
 11
-0.0
 21
0.3
 31
0.0
 40
0.0087268678
 41
-4.7123889804
 42
-3.1939525311
  0
ELLIPSE
  5
8ED
100
AcDbEntity
  8
RACCORDO
100
AcDbEllipse
 62
7
  6
CONTINUOUS
 10
-4.4109791689
 20
19.7676913781
 30
0.0
 11
-0.0
 21
0.3
 31
0.0
 40
0.0174550649
 41
-3.089232776
 42
-1.5707963268
  0
ELLIPSE
  5
8EE
100
AcDbEntity
  8
RACCORDO
100
AcDbEllipse
 62
7
  6
CONTINUOUS
 10
7.5370272134
 20
15.7734849081
 30
0.0
 11
0.0
 21
1.0
 31
0.0
 40
0.1763269807
 41
-4.6774823953
 42
-3.1764992386
  0
ELLIPSE
  5
8EF
100
AcDbEntity
  8
RACCORDO
100
AcDbEllipse
 62
7
  6
CONTINUOUS
 10
-7.5370272134
 20
15.7734849081
 30
0.0
 11
-0.0
 21
1.0
 31
0.0
 40
0.1763269807
 41
-3.1066860685
 42
-1.6057029118
  0
ELLIPSE
  5
8F0
100
AcDbEntity
  8
RACCORDO
100
AcDbEllipse
 62
7
  6
CONTINUOUS
 10
3.8679727866
 20
15.7734849081
 30
0.0
 11
0.0
 21
1.0
 31
0.0
 40
0.1763269807
 41
-3.1066860685
 42
-1.6057029118
  0
ELLIPSE
  5
8F1
100
AcDbEntity
  8
RACCORDO
100
AcDbEllipse
 62
7
  6
CONTINUOUS
 10
-3.8679727866
 20
15.7734849081
 30
0.0
 11
-0.0
 21
1.0
 31
0.0
 40
0.1763269807
 41
-4.6774823953
 42
-3.1764992386
  0
ENDSEC
  0
SECTION
  2
OBJECTS
  0
DICTIONARY
  5
C
100
AcDbDictionary
280
0
281
1
  3
ACAD_GROUP
350
D
  3
ACAD_MLINESTYLE
350
17
  3
ACAD_LAYOUT
350
1A
  3
ACAD_PLOTSETTINGS
350
19
  3
ACAD_PLOTSTYLENAME
350
E
  0
DICTIONARY
  5
D
102
{ACAD_REACTORS
330
C
102
}
100
AcDbDictionary
280
0
281
1
  0
ACDBDICTIONARYWDFLT
  5
E
102
{ACAD_REACTORS
330
C
102
}
100
AcDbDictionary
281
1
  3
Normal
350
F
100
AcDbDictionaryWithDefault
340
F
  0
DICTIONARY
  5
17
102
{ACAD_REACTORS
330
C
102
}
100
AcDbDictionary
280
0
281
1
  3
Standard
350
18
  0
DICTIONARY
  5
19
102
{ACAD_REACTORS
330
C
102
}
100
AcDbDictionary
281
1
  0
DICTIONARY
  5
1A
102
{ACAD_REACTORS
330
C
102
}
100
AcDbDictionary
281
1
  3
Model
350
8F2
  3
Layout1
350
8F3
  0
ACDBPLACEHOLDER
  5
F
102
{ACAD_REACTORS
330
E
102
}
  0
MLINESTYLE
  5
18
102
{ACAD_REACTORS
330
17
102
}
100
AcDbMlineStyle
  2
STANDARD
 70
0
  3

 62
256
 51
90.0
 52
90.0
 71
2
 49
0.5
 62
256
  6
BYLAYER
 49
-0.5
 62
256
  6
BYLAYER
  0
LAYOUT
  5
8F2
102
{ACAD_REACTORS
330
1A
102
}
100
AcDbPlotSettings
  1

  2
none_device
  4
ANSI_C_(22.00_x_17.00_Inches)
  6

 40
0.0
 41
0.0
 42
0.0
 43
0.0
 44
558.8
 45
431.8
 46
0.0
 47
0.0
 48
0.0
 49
0.0
140
0.0
141
0.0
142
1.0
143
1.0
 70
1024
 72
1
 73
0
 74
0
  7

 75
0
147
1.0
148
0.0
149
0.0
100
AcDbLayout
  1
Model
 70
0
 71
0
 10
0.0
 20
0.0
 11
558.8
 21
431.8
 12
0.0
 22
0.0
 32
0.0
 14
0.0
 24
0.0
 34
0.0
 15
0.0
 25
0.0
 35
0.0
146
0.0
 13
0.0
 23
0.0
 33
0.0
 16
1.0
 26
0.0
 36
0.0
 17
0.0
 27
1.0
 37
0.0
 76
0
330
21A
345
0
346
0
  0
LAYOUT
  5
8F3
102
{ACAD_REACTORS
330
1A
102
}
100
AcDbPlotSettings
  1

  2
none_device
  4
ANSI_C_(22.00_x_17.00_Inches)
  6

 40
0.0
 41
0.0
 42
0.0
 43
0.0
 44
558.8
 45
431.8
 46
0.0
 47
0.0
 48
0.0
 49
0.0
140
0.0
141
0.0
142
1.0
143
1.0
 70
0
 72
1
 73
0
 74
0
  7

 75
0
147
1.0
148
0.0
149
0.0
100
AcDbLayout
  1
Layout1
 70
0
 71
1
 10
0.0
 20
0.0
 11
558.8
 21
431.8
 12
0.0
 22
0.0
 32
0.0
 14
0.0
 24
0.0
 34
0.0
 15
0.0
 25
0.0
 35
0.0
146
0.0
 13
0.0
 23
0.0
 33
0.0
 16
1.0
 26
0.0
 36
0.0
 17
0.0
 27
1.0
 37
0.0
 76
0
330
21B
345
0
346
0
  0
ENDSEC
  0
EOF
