  0
SECTION
  2
HEADER
  9
$ACADVER
  1
AC1015
  9
$DWGCODEPAGE
  3
ANSI_1252
  9
$EXTMAX
 10
297.0
 20
210.0
 30
0.0
  9
$EXTMIN
 10
0.0
 20
0.0
 30
0.0
  9
$LIMMIN
 10
0.0
 20
0.0
  9
$LIMMAX
 10
297.0
 20
210.0
  9
$VIEWCTR
 10
148.5
 20
105.0
  9
$VIEWSIZE
 40
210.0
  9
$CLAYER
  8
0
  9
$LTSCALE
 40
16.335
  9
$CELTYPE
  6
BYLAYER
  9
$DIMSCALE
 40
1.0
  9
$DIMASZ
 40
3.0
  9
$DIMEXO
 40
1.85625
  9
$DIMDLI
 40
11.286
  9
$DIMEXE
 40
5.346
  9
$DIMCEN
 40
2.673
  9
$DIMLFAC
 40
1.0
  9
$DIMBLK
  1
_FILLED
  9
$DIMTXT
 40
3.0
  9
$DIMTOL
 70
1
  9
$DIMLIM
 70
0
  9
$DIMTFAC
 40
1.0
  9
$DIMTP
 40
0.01
  9
$DIMTM
 40
0.01
  9
$PDMODE
 70
3
  9
$PDSIZE
 40
3.0
  9
$HANDSEED
  5
62A
  9
$TILEMODE
 70
1
  9
$MEASUREMENT
 70
1
  9
$INSUNITS
 70
4
  0
ENDSEC
  0
SECTION
  2
CLASSES
  0
CLASS
  1
ACDBDICTIONARYWDFLT
  2
AcDbDictionaryWithDefault
  3
AutoCAD 2000
 90
0
280
0
281
0
  0
CLASS
  1
ACDBPLACEHOLDER
  2
AcDbPlaceHolder
  3
AutoCAD 2000
 90
0
280
0
281
0
  0
CLASS
  1
LAYOUT
  2
AcDbLayout
  3
AutoCAD 2000
 90
0
280
0
281
0
  0
ENDSEC
  0
SECTION
  2
TABLES
  0
TABLE
  2
VPORT
  5
8
100
AcDbSymbolTable
 70
2
  0
VPORT
  5
1F4
100
AcDbSymbolTableRecord
100
AcDbViewportTableRecord
  2
*ACTIVE
 70
0
 10
0.0
 20
0.0
 11
1.0
 21
1.0
 12
148.5
 22
105.0
 13
0.0
 23
0.0
 14
1.0
 24
1.0
 15
0.0
 25
0.0
 16
0.0
 26
0.0
 36
1.0
 17
0.0
 27
0.0
 37
0.0
 40
210.0
 41
1.4142857143
 42
50.0
 43
0.0
 44
0.0
 50
0.0
 51
0.0
 71
0
 72
100
 73
1
 74
1
 75
0
 76
0
 77
0
 78
0
  0
ENDTAB
  0
TABLE
  2
LTYPE
  5
5
100
AcDbSymbolTable
 70
6
  0
LTYPE
  5
14
100
AcDbSymbolTableRecord
100
AcDbLinetypeTableRecord
  2
BYBLOCK
 70
0
  3

 72
65
 73
0
 40
0.0
  0
LTYPE
  5
15
100
AcDbSymbolTableRecord
100
AcDbLinetypeTableRecord
  2
BYLAYER
 70
0
  3

 72
65
 73
0
 40
0.0
  0
LTYPE
  5
16
100
AcDbSymbolTableRecord
100
AcDbLinetypeTableRecord
  2
CONTINUOUS
 70
64
  3
Solid line
 72
65
 73
0
 40
0.0
  0
LTYPE
  5
1F5
100
AcDbSymbolTableRecord
100
AcDbLinetypeTableRecord
  2
CENTER
 70
64
  3
____ _ ____ _ ____ _ ____ _ ____ _ ____ _ ____
 72
65
 73
4
 40
0.6
 49
0.375
 74
0
 49
-0.075
 74
0
 49
0.075
 74
0
 49
-0.075
 74
0
  0
LTYPE
  5
1F6
100
AcDbSymbolTableRecord
100
AcDbLinetypeTableRecord
  2
HIDDEN
 70
64
  3
- - - - - - - - - - - - - - - - - - - -
 72
65
 73
2
 40
0.2
 49
0.1
 74
0
 49
-0.1
 74
0
  0
LTYPE
  5
1F7
100
AcDbSymbolTableRecord
100
AcDbLinetypeTableRecord
  2
PHANTOM
 70
64
  3
_____ _ _ _____ _ _ _____ _ _ _____
 72
65
 73
6
 40
0.8
 49
0.45
 74
0
 49
-0.05
 74
0
 49
0.1
 74
0
 49
-0.05
 74
0
 49
0.1
 74
0
 49
-0.05
 74
0
  0
LTYPE
  5
1F8
100
AcDbSymbolTableRecord
100
AcDbLinetypeTableRecord
  2
DOT
 70
64
  3
. . . . . . . . . . . . . . . . . . . .
 72
65
 73
2
 40
0.2
 49
0.1
 74
0
 49
-0.1
 74
0
  0
LTYPE
  5
1F9
100
AcDbSymbolTableRecord
100
AcDbLinetypeTableRecord
  2
DASHED
 70
64
  3
- - - - - - - - - - - - - - - - - - - -
 72
65
 73
2
 40
0.2
 49
0.1
 74
0
 49
-0.1
 74
0
  0
ENDTAB
  0
TABLE
  2
LAYER
  5
2
100
AcDbSymbolTable
 70
36
  0
LAYER
  5
10
100
AcDbSymbolTableRecord
100
AcDbLayerTableRecord
  2
0
 70
0
 62
7
  6
CONTINUOUS
370
-3
390
F
  0
LAYER
  5
1FA
100
AcDbSymbolTableRecord
100
AcDbLayerTableRecord
  2
DEFAULT_1
 70
0
 62
7
  6
CENTER
370
-3
390
F
  0
LAYER
  5
1FB
100
AcDbSymbolTableRecord
100
AcDbLayerTableRecord
  2
DEFAULT_2
 70
0
 62
7
  6
HIDDEN
370
-3
390
F
  0
LAYER
  5
1FC
100
AcDbSymbolTableRecord
100
AcDbLayerTableRecord
  2
DEFAULT_3
 70
0
 62
7
  6
PHANTOM
370
-3
390
F
  0
LAYER
  5
1FD
100
AcDbSymbolTableRecord
100
AcDbLayerTableRecord
  2
ASSI
 70
0
 62
7
  6
CONTINUOUS
370
-3
390
F
  0
LAYER
  5
1FE
100
AcDbSymbolTableRecord
100
AcDbLayerTableRecord
  2
COORDINATE
 70
0
 62
7
  6
CONTINUOUS
370
-3
390
F
  0
LAYER
  5
1FF
100
AcDbSymbolTableRecord
100
AcDbLayerTableRecord
  2
COORD_ORIGINE
 70
0
 62
7
  6
CONTINUOUS
370
-3
390
F
  0
LAYER
  5
200
100
AcDbSymbolTableRecord
100
AcDbLayerTableRecord
  2
COPY-PUBBLISH
 70
0
 62
7
  6
CONTINUOUS
370
-3
390
F
  0
LAYER
  5
201
100
AcDbSymbolTableRecord
100
AcDbLayerTableRecord
  2
COPY_PUBLISH
 70
0
 62
7
  6
CONTINUOUS
370
-3
390
F
  0
LAYER
  5
202
100
AcDbSymbolTableRecord
100
AcDbLayerTableRecord
  2
COSMETIC
 70
0
 62
7
  6
CONTINUOUS
370
-3
390
F
  0
LAYER
  5
203
100
AcDbSymbolTableRecord
100
AcDbLayerTableRecord
  2
CURVE
 70
0
 62
7
  6
CONTINUOUS
370
-3
390
F
  0
LAYER
  5
204
100
AcDbSymbolTableRecord
100
AcDbLayerTableRecord
  2
DRAFT
 70
0
 62
7
  6
CONTINUOUS
370
-3
390
F
  0
LAYER
  5
205
100
AcDbSymbolTableRecord
100
AcDbLayerTableRecord
  2
IMPORT_IGES
 70
0
 62
7
  6
CONTINUOUS
370
-3
390
F
  0
LAYER
  5
206
100
AcDbSymbolTableRecord
100
AcDbLayerTableRecord
  2
INCISIONI
 70
0
 62
7
  6
CONTINUOUS
370
-3
390
F
  0
LAYER
  5
207
100
AcDbSymbolTableRecord
100
AcDbLayerTableRecord
  2
INTFCLR_1
 70
0
 62
7
  6
CONTINUOUS
370
-3
390
F
  0
LAYER
  5
208
100
AcDbSymbolTableRecord
100
AcDbLayerTableRecord
  2
INTF_1
 70
0
 62
7
  6
CONTINUOUS
370
-3
390
F
  0
LAYER
  5
209
100
AcDbSymbolTableRecord
100
AcDbLayerTableRecord
  2
INTF_15
 70
0
 62
7
  6
CONTINUOUS
370
-3
390
F
  0
LAYER
  5
20A
100
AcDbSymbolTableRecord
100
AcDbLayerTableRecord
  2
INTF_16
 70
0
 62
7
  6
CONTINUOUS
370
-3
390
F
  0
LAYER
  5
20B
100
AcDbSymbolTableRecord
100
AcDbLayerTableRecord
  2
NOTE
 70
0
 62
7
  6
CONTINUOUS
370
-3
390
F
  0
LAYER
  5
20C
100
AcDbSymbolTableRecord
100
AcDbLayerTableRecord
  2
PIANI
 70
0
 62
7
  6
CONTINUOUS
370
-3
390
F
  0
LAYER
  5
20D
100
AcDbSymbolTableRecord
100
AcDbLayerTableRecord
  2
PIANI_COSTRUZIONE_PROFILO
 70
0
 62
7
  6
CONTINUOUS
370
-3
390
F
  0
LAYER
  5
20E
100
AcDbSymbolTableRecord
100
AcDbLayerTableRecord
  2
PIANI_ORIGINE
 70
0
 62
7
  6
CONTINUOUS
370
-3
390
F
  0
LAYER
  5
20F
100
AcDbSymbolTableRecord
100
AcDbLayerTableRecord
  2
PIANI_RIFERIMENTO
 70
0
 62
7
  6
CONTINUOUS
370
-3
390
F
  0
LAYER
  5
210
100
AcDbSymbolTableRecord
100
AcDbLayerTableRecord
  2
PUNTI
 70
0
 62
7
  6
CONTINUOUS
370
-3
390
F
  0
LAYER
  5
211
100
AcDbSymbolTableRecord
100
AcDbLayerTableRecord
  2
RACCORDO
 70
0
 62
7
  6
CONTINUOUS
370
-3
390
F
  0
LAYER
  5
212
100
AcDbSymbolTableRecord
100
AcDbLayerTableRecord
  2
SMUSSO
 70
0
 62
7
  6
CONTINUOUS
370
-3
390
F
  0
LAYER
  5
213
100
AcDbSymbolTableRecord
100
AcDbLayerTableRecord
  2
SNAPLINE
 70
0
 62
7
  6
CONTINUOUS
370
-3
390
F
  0
LAYER
  5
214
100
AcDbSymbolTableRecord
100
AcDbLayerTableRecord
  2
SUPERFICI
 70
0
 62
7
  6
CONTINUOUS
370
-3
390
F
  0
LAYER
  5
215
100
AcDbSymbolTableRecord
100
AcDbLayerTableRecord
  2
SUPERFICI_ESTETICHE
 70
0
 62
7
  6
CONTINUOUS
370
-3
390
F
  0
LAYER
  5
216
100
AcDbSymbolTableRecord
100
AcDbLayerTableRecord
  2
SUPERFICI_SKEL
 70
0
 62
7
  6
CONTINUOUS
370
-3
390
F
  0
LAYER
  5
217
100
AcDbSymbolTableRecord
100
AcDbLayerTableRecord
  2
TRASH
 70
0
 62
7
  6
CONTINUOUS
370
-3
390
F
  0
ENDTAB
  0
TABLE
  2
STYLE
  5
3
100
AcDbSymbolTable
 70
1
  0
STYLE
  5
11
100
AcDbSymbolTableRecord
100
AcDbTextStyleTableRecord
  2
STANDARD
 70
0
 40
0.0
 41
0.8
 50
0.0
 71
0
 42
0.2
  3
txt
  4

  0
STYLE
  5
218
100
AcDbSymbolTableRecord
100
AcDbTextStyleTableRecord
  2
TEXTSTYLE_1
 70
0
 40
0.0
 41
0.8
 50
0.0
 71
0
 42
0.2
  3
gdt
  4

  0
ENDTAB
  0
TABLE
  2
VIEW
  5
6
100
AcDbSymbolTable
 70
0
  0
ENDTAB
  0
TABLE
  2
UCS
  5
7
100
AcDbSymbolTable
 70
0
  0
ENDTAB
  0
TABLE
  2
APPID
  5
9
100
AcDbSymbolTable
 70
1
  0
APPID
  5
219
100
AcDbSymbolTableRecord
100
AcDbRegAppTableRecord
  2
ACAD
 70
0
  0
ENDTAB
  0
TABLE
  2
BLOCK_RECORD
  5
1
100
AcDbSymbolTable
 70
0
  0
BLOCK_RECORD
  5
21A
100
AcDbSymbolTableRecord
100
AcDbBlockTableRecord
  2
*Model_Space
  0
BLOCK_RECORD
  5
21B
100
AcDbSymbolTableRecord
100
AcDbBlockTableRecord
  2
*Paper_Space
  0
ENDTAB
  0
TABLE
  2
DIMSTYLE
  5
A
100
AcDbSymbolTable
 70
1
100
AcDbDimStyleTable
 71
0
  0
DIMSTYLE
105
21C
100
AcDbSymbolTableRecord
100
AcDbDimStyleTableRecord
  2
STANDARD
 70
0
  3

  4

 40
1.0
 41
3.0
 42
0.0625
 43
0.38
 44
0.18
 45
0.0
 46
0.0
 47
0.01
 48
0.01
140
3.0
141
0.09
142
0.0
143
25.4
144
1.0
145
0.0
146
1.0
147
0.09
 71
1.0
 72
0.0
 73
0
 74
0
 75
0
 76
0
 77
1
 78
8
170
0
171
2
172
0
173
0
174
0
175
0
176
0
177
0
178
0
270
2
271
2
272
2
273
2
274
2
275
0
280
0
281
0
282
0
283
1
284
8
285
0
286
0
287
3
288
0
340
11
  0
ENDTAB
  0
ENDSEC
  0
SECTION
  2
BLOCKS
  0
BLOCK
  5
20
100
AcDbEntity
  8
0
100
AcDbBlockBegin
  2
*Model_Space
 70
0
 10
0.0
 20
0.0
 30
0.0
  3
*Model_Space
  1

  0
ENDBLK
  5
21
100
AcDbEntity
  8
0
100
AcDbBlockEnd
  0
BLOCK
  5
1C
100
AcDbEntity
  8
0
100
AcDbBlockBegin
  2
*Paper_Space
 70
0
 10
0.0
 20
0.0
 30
0.0
  3
*Paper_Space
  1

  0
ENDBLK
  5
1D
100
AcDbEntity
  8
0
100
AcDbBlockEnd
  0
ENDSEC
  0
SECTION
  2
ENTITIES
  0
LINE
  5
21D
100
AcDbEntity
  8
ASSI
100
AcDbLine
 62
7
  6
CONTINUOUS
 10
10.400030461
 20
-24.5
 11
7.399969539
 21
-24.5
  0
LINE
  5
21E
100
AcDbEntity
  8
ASSI
100
AcDbLine
 62
7
  6
CONTINUOUS
 10
-7.399969539
 20
-24.5
 11
-10.400030461
 21
-24.5
  0
LINE
  5
21F
100
AcDbEntity
  8
ASSI
100
AcDbLine
 62
253
  6
CONTINUOUS
 10
-10.3868630041
 20
-24.4868325431
 11
-7.4131369959
 21
-24.4868325431
  0
LINE
  5
220
100
AcDbEntity
  8
ASSI
100
AcDbLine
 62
253
  6
CONTINUOUS
 10
7.4131369959
 20
-24.4868325431
 11
10.3868630041
 21
-24.4868325431
  0
LINE
  5
221
100
AcDbEntity
  8
ASSI
100
AcDbLine
 62
253
  6
CONTINUOUS
 10
-10.5859750215
 20
-24.2368706193
 11
-7.2140249785
 21
-24.2368706193
  0
LINE
  5
222
100
AcDbEntity
  8
ASSI
100
AcDbLine
 62
253
  6
CONTINUOUS
 10
10.5859750215
 20
-24.2368706193
 11
7.2140249785
 21
-24.2368706193
  0
LINE
  5
223
100
AcDbEntity
  8
ASSI
100
AcDbLine
 62
7
  6
CONTINUOUS
 10
4.2000380762
 20
-24.0
 11
1.0499619238
 21
-24.0
  0
LINE
  5
224
100
AcDbEntity
  8
ASSI
100
AcDbLine
 62
7
  6
CONTINUOUS
 10
-1.0499619238
 20
-24.0
 11
-4.2000380762
 21
-24.0
  0
LINE
  5
225
100
AcDbEntity
  8
ASSI
100
AcDbLine
 62
7
  6
CONTINUOUS
 10
3.7499619238
 20
-23.9825449351
 11
1.0674169887
 21
-23.9825449351
  0
LINE
  5
226
100
AcDbEntity
  8
ASSI
100
AcDbLine
 62
7
  6
CONTINUOUS
 10
-1.0674169887
 20
-23.9825449351
 11
-3.7499619238
 21
-23.9825449351
  0
LINE
  5
227
100
AcDbEntity
  8
ASSI
100
AcDbLine
 62
253
  6
CONTINUOUS
 10
-8.7631293807
 20
-23.8443375673
 11
-7.2140249785
 21
-23.8443375673
  0
LINE
  5
228
100
AcDbEntity
  8
ASSI
100
AcDbLine
 62
253
  6
CONTINUOUS
 10
7.2140249785
 20
-23.8443375673
 11
8.7631293807
 21
-23.8443375673
  0
LINE
  5
229
100
AcDbEntity
  8
ASSI
100
AcDbLine
 62
253
  6
CONTINUOUS
 10
-10.5859750215
 20
-23.8443375673
 11
-9.0368706193
 21
-23.8443375673
  0
LINE
  5
22A
100
AcDbEntity
  8
ASSI
100
AcDbLine
 62
253
  6
CONTINUOUS
 10
9.0368706193
 20
-23.8443375673
 11
10.5859750215
 21
-23.8443375673
  0
LINE
  5
22B
100
AcDbEntity
  8
ASSI
100
AcDbLine
 62
253
  6
CONTINUOUS
 10
-7.4135581719
 20
-23.6278322392
 11
-8.5466230298
 21
-23.6278312164
  0
LINE
  5
22C
100
AcDbEntity
  8
ASSI
100
AcDbLine
 62
253
  6
CONTINUOUS
 10
8.5466230298
 20
-23.6278312164
 11
7.4135581657
 21
-23.6278320349
  0
LINE
  5
22D
100
AcDbEntity
  8
ASSI
100
AcDbLine
 62
253
  6
CONTINUOUS
 10
10.3864405812
 20
-23.6278734826
 11
9.2533769702
 21
-23.6278312164
  0
LINE
  5
22E
100
AcDbEntity
  8
ASSI
100
AcDbLine
 62
253
  6
CONTINUOUS
 10
-9.2533769702
 20
-23.6278312164
 11
-10.3864405814
 21
-23.6278734767
  0
LINE
  5
22F
100
AcDbEntity
  8
ASSI
100
AcDbLine
 62
7
  6
CONTINUOUS
 10
10.4017150409
 20
-23.1226497308
 11
9.3
 21
-23.1226497308
  0
LINE
  5
230
100
AcDbEntity
  8
ASSI
100
AcDbLine
 62
7
  6
CONTINUOUS
 10
8.5
 20
-23.1226497308
 11
7.3982849591
 21
-23.1226497308
  0
LINE
  5
231
100
AcDbEntity
  8
ASSI
100
AcDbLine
 62
7
  6
CONTINUOUS
 10
-7.3982849591
 20
-23.1226497308
 11
-8.5
 21
-23.1226497308
  0
LINE
  5
232
100
AcDbEntity
  8
ASSI
100
AcDbLine
 62
7
  6
CONTINUOUS
 10
-9.3
 20
-23.1226497308
 11
-10.4017150409
 21
-23.1226497308
  0
LINE
  5
233
100
AcDbEntity
  8
ASSI
100
AcDbLine
 62
253
  6
CONTINUOUS
 10
-7.4131369959
 20
24.4868325431
 11
-7.399969539
 21
24.5
  0
LINE
  5
234
100
AcDbEntity
  8
ASSI
100
AcDbLine
 62
253
  6
CONTINUOUS
 10
-7.2131674569
 20
24.286863004
 11
-7.2
 21
24.300030461
  0
LINE
  5
235
100
AcDbEntity
  8
ASSI
100
AcDbLine
 62
7
  6
CONTINUOUS
 10
-8.5
 20
22.4
 11
-8.5131674569
 21
22.3868325431
  0
LINE
  5
236
100
AcDbEntity
  8
ASSI
100
AcDbLine
 62
7
  6
CONTINUOUS
 10
-7.2551134101
 20
22.3825449351
 11
-8.2325449351
 21
21.4051134101
  0
LINE
  5
237
100
AcDbEntity
  8
ASSI
100
AcDbLine
 62
7
  6
CONTINUOUS
 10
-8.0579942858
 20
20.9872686779
 11
-8.2325449351
 21
20.9
  0
LINE
  5
238
100
AcDbEntity
  8
ASSI
100
AcDbLine
 62
7
  6
CONTINUOUS
 10
-8.0584656028
 20
21.4561094406
 11
-8.2325449351
 21
21.4051134101
  0
LINE
  5
239
100
AcDbEntity
  8
ASSI
100
AcDbLine
 62
7
  6
CONTINUOUS
 10
0.8174550649
 20
-22.398254669
 11
0.8
 21
-22.4
  0
LINE
  5
23A
100
AcDbEntity
  8
ASSI
100
AcDbLine
 62
7
  6
CONTINUOUS
 10
10.6000000646
 20
-22.3999999354
 11
9.3
 21
-22.4
  0
LINE
  5
23B
100
AcDbEntity
  8
ASSI
100
AcDbLine
 62
7
  6
CONTINUOUS
 10
8.5
 20
-22.4
 11
4.45
 21
-22.4
  0
LINE
  5
23C
100
AcDbEntity
  8
ASSI
100
AcDbLine
 62
7
  6
CONTINUOUS
 10
-4.45
 20
-22.4
 11
-8.5
 21
-22.4
  0
LINE
  5
23D
100
AcDbEntity
  8
ASSI
100
AcDbLine
 62
7
  6
CONTINUOUS
 10
-9.3
 20
-22.4
 11
-10.6
 21
-22.3999999999
  0
LINE
  5
23E
100
AcDbEntity
  8
ASSI
100
AcDbLine
 62
7
  6
CONTINUOUS
 10
0.8174550649
 20
-22.398254669
 11
-0.8174550649
 21
-22.398254669
  0
LINE
  5
23F
100
AcDbEntity
  8
ASSI
100
AcDbLine
 62
7
  6
CONTINUOUS
 10
-10.5826210875
 20
-22.3825449351
 11
-9.0368706193
 21
-22.3825449351
  0
LINE
  5
240
100
AcDbEntity
  8
ASSI
100
AcDbLine
 62
7
  6
CONTINUOUS
 10
-8.7631293807
 20
-22.3825449351
 11
-7.2551134101
 21
-22.3825449351
  0
LINE
  5
241
100
AcDbEntity
  8
ASSI
100
AcDbLine
 62
7
  6
CONTINUOUS
 10
3.5
 20
-22.3825449351
 11
3.2999714434
 21
-22.3825449351
  0
LINE
  5
242
100
AcDbEntity
  8
ASSI
100
AcDbLine
 62
7
  6
CONTINUOUS
 10
-3.2999714434
 20
-22.3825449351
 11
-3.5
 21
-22.3825449351
  0
LINE
  5
243
100
AcDbEntity
  8
ASSI
100
AcDbLine
 62
7
  6
CONTINUOUS
 10
7.2551134101
 20
-22.3825449351
 11
8.7631293807
 21
-22.3825449351
  0
LINE
  5
244
100
AcDbEntity
  8
ASSI
100
AcDbLine
 62
7
  6
CONTINUOUS
 10
9.0368706193
 20
-22.3825449351
 11
10.5826210875
 21
-22.3825449351
  0
LINE
  5
245
100
AcDbEntity
  8
ASSI
100
AcDbLine
 62
253
  6
CONTINUOUS
 10
-7.3012233427
 20
-22.2251447178
 11
-3.3786655583
 21
-22.2251447178
  0
LINE
  5
246
100
AcDbEntity
  8
ASSI
100
AcDbLine
 62
253
  6
CONTINUOUS
 10
3.3786655583
 20
-22.2251447178
 11
7.3012233427
 21
-22.2251447178
  0
LINE
  5
247
100
AcDbEntity
  8
ASSI
100
AcDbLine
 62
7
  6
CONTINUOUS
 10
3.05
 20
-21.7
 11
-3.05
 21
-21.7
  0
LINE
  5
248
100
AcDbEntity
  8
ASSI
100
AcDbLine
 62
7
  6
CONTINUOUS
 10
3.1173032135
 20
-21.6326967865
 11
-3.1173032135
 21
-21.6326967865
  0
LINE
  5
249
100
AcDbEntity
  8
ASSI
100
AcDbLine
 62
253
  6
CONTINUOUS
 10
-8.0579942858
 20
-21.2252970227
 11
-3.1351059998
 21
-21.2252970227
  0
LINE
  5
24A
100
AcDbEntity
  8
ASSI
100
AcDbLine
 62
253
  6
CONTINUOUS
 10
3.1351059998
 20
-21.2252970227
 11
8.0579942858
 21
-21.2252970227
  0
LINE
  5
24B
100
AcDbEntity
  8
ASSI
100
AcDbLine
 62
7
  6
CONTINUOUS
 10
6.5872686779
 20
-21.0745506493
 11
5.1254493507
 21
-21.0745506493
  0
LINE
  5
24C
100
AcDbEntity
  8
ASSI
100
AcDbLine
 62
7
  6
CONTINUOUS
 10
-5.1254493507
 20
-21.0745506493
 11
-6.5872686779
 21
-21.0745506493
  0
LINE
  5
24D
100
AcDbEntity
  8
ASSI
100
AcDbLine
 62
7
  6
CONTINUOUS
 10
-8.0579942858
 20
-20.9872686779
 11
-7.2127313221
 21
-20.9872686779
  0
LINE
  5
24E
100
AcDbEntity
  8
ASSI
100
AcDbLine
 62
7
  6
CONTINUOUS
 10
7.2127313221
 20
-20.9872686779
 11
8.0579942858
 21
-20.9872686779
  0
LINE
  5
24F
100
AcDbEntity
  8
ASSI
100
AcDbLine
 62
7
  6
CONTINUOUS
 10
-9.65
 20
-20.9
 11
-8.2325449351
 21
-20.9
  0
LINE
  5
250
100
AcDbEntity
  8
ASSI
100
AcDbLine
 62
7
  6
CONTINUOUS
 10
8.2325449351
 20
-20.9
 11
9.65
 21
-20.9
  0
LINE
  5
251
100
AcDbEntity
  8
ASSI
100
AcDbLine
 62
7
  6
CONTINUOUS
 10
-0.8174550649
 20
-22.398254669
 11
-0.8
 21
-22.4
  0
LINE
  5
252
100
AcDbEntity
  8
ASSI
100
AcDbLine
 62
7
  6
CONTINUOUS
 10
-8.0584656028
 20
-21.4561094406
 11
-8.2325449351
 21
-21.4051134101
  0
LINE
  5
253
100
AcDbEntity
  8
ASSI
100
AcDbLine
 62
7
  6
CONTINUOUS
 10
-8.0579942858
 20
-20.9872686779
 11
-8.2325449351
 21
-20.9
  0
LINE
  5
254
100
AcDbEntity
  8
ASSI
100
AcDbLine
 62
253
  6
CONTINUOUS
 10
-7.399969539
 20
-24.5
 11
-7.4131369959
 21
-24.4868325431
  0
LINE
  5
255
100
AcDbEntity
  8
ASSI
100
AcDbLine
 62
253
  6
CONTINUOUS
 10
-7.2
 20
-24.300030461
 11
-7.2131674569
 21
-24.2868630041
  0
LINE
  5
256
100
AcDbEntity
  8
ASSI
100
AcDbLine
 62
7
  6
CONTINUOUS
 10
-8.5
 20
-22.4
 11
-8.5131674569
 21
-22.3868325431
  0
LINE
  5
257
100
AcDbEntity
  8
ASSI
100
AcDbLine
 62
7
  6
CONTINUOUS
 10
-8.2325449351
 20
-21.4051134101
 11
-7.2551134101
 21
-22.3825449351
  0
LINE
  5
258
100
AcDbEntity
  8
0
100
AcDbLine
 62
7
  6
CONTINUOUS
 10
-7.3261806034
 20
20.8738193966
 11
-7.2127313221
 21
20.9872686779
  0
LINE
  5
259
100
AcDbEntity
  8
ASSI
100
AcDbLine
 62
7
  6
CONTINUOUS
 10
-7.3261806034
 20
20.8738193966
 11
-7.2127313221
 21
20.9872686779
  0
LINE
  5
25A
100
AcDbEntity
  8
ASSI
100
AcDbLine
 62
253
  6
CONTINUOUS
 10
-3.8306228363
 20
23.9018840226
 11
-3.7499619238
 21
23.9825449351
  0
LINE
  5
25B
100
AcDbEntity
  8
ASSI
100
AcDbLine
 62
253
  6
CONTINUOUS
 10
-3.5806609125
 20
23.6519220988
 11
-3.5
 21
23.7325830113
  0
LINE
  5
25C
100
AcDbEntity
  8
0
100
AcDbLine
 62
7
  6
CONTINUOUS
 10
-5.1254493507
 20
20.0872686779
 11
-5.3523651948
 21
19.9738193966
  0
LINE
  5
25D
100
AcDbEntity
  8
ASSI
100
AcDbLine
 62
7
  6
CONTINUOUS
 10
-5.1254493507
 20
20.0872686779
 11
-5.3523651948
 21
19.9738193966
  0
LINE
  5
25E
100
AcDbEntity
  8
RACCORDO
100
AcDbLine
 62
7
  6
CONTINUOUS
 10
-4.4057426494
 20
19.9738193966
 11
-4.3444976057
 21
20.0044395863
  0
LINE
  5
25F
100
AcDbEntity
  8
ASSI
100
AcDbLine
 62
7
  6
CONTINUOUS
 10
-4.4057426494
 20
19.9738193966
 11
-4.3444976057
 21
20.0044395863
  0
LINE
  5
260
100
AcDbEntity
  8
ASSI
100
AcDbLine
 62
7
  6
CONTINUOUS
 10
-3.3850964806
 20
-20.8
 11
3.3850964806
 21
-20.8
  0
LINE
  5
261
100
AcDbEntity
  8
ASSI
100
AcDbLine
 62
7
  6
CONTINUOUS
 10
-11.1261859216
 20
-20.4226497308
 11
-11.0825449351
 21
-20.4226497308
  0
LINE
  5
262
100
AcDbEntity
  8
ASSI
100
AcDbLine
 62
7
  6
CONTINUOUS
 10
11.1261859216
 20
-20.4226497308
 11
11.0825449351
 21
-20.4226497308
  0
LINE
  5
263
100
AcDbEntity
  8
ASSI
100
AcDbLine
 62
7
  6
CONTINUOUS
 10
-5.1254493507
 20
-20.0872686779
 11
5.1254493507
 21
-20.0872686779
  0
LINE
  5
264
100
AcDbEntity
  8
RACCORDO
100
AcDbLine
 62
7
  6
CONTINUOUS
 10
6.91317452
 20
-19.7872686779
 11
6.88682548
 21
-19.7872686779
  0
LINE
  5
265
100
AcDbEntity
  8
ASSI
100
AcDbLine
 62
7
  6
CONTINUOUS
 10
6.91317452
 20
-19.7872686779
 11
6.88682548
 21
-19.7872686779
  0
LINE
  5
266
100
AcDbEntity
  8
RACCORDO
100
AcDbLine
 62
7
  6
CONTINUOUS
 10
-6.88682548
 20
-19.7872686779
 11
-6.91317452
 21
-19.7872686779
  0
LINE
  5
267
100
AcDbEntity
  8
ASSI
100
AcDbLine
 62
7
  6
CONTINUOUS
 10
-6.88682548
 20
-19.7872686779
 11
-6.91317452
 21
-19.7872686779
  0
LINE
  5
268
100
AcDbEntity
  8
ASSI
100
AcDbLine
 62
7
  6
CONTINUOUS
 10
-5.4414386569
 20
-19.9292860574
 11
-5.1254493507
 21
-20.0872686779
  0
LINE
  5
269
100
AcDbEntity
  8
RACCORDO
100
AcDbLine
 62
7
  6
CONTINUOUS
 10
-7.2127313221
 20
-20.9872686779
 11
-7.3655014363
 21
-20.8344985637
  0
LINE
  5
26A
100
AcDbEntity
  8
ASSI
100
AcDbLine
 62
7
  6
CONTINUOUS
 10
-7.2127313221
 20
-20.9872686779
 11
-7.3655014363
 21
-20.8344985637
  0
LINE
  5
26B
100
AcDbEntity
  8
ASSI
100
AcDbLine
 62
253
  6
CONTINUOUS
 10
-3.7499619238
 20
-23.9825449351
 11
-3.8306228363
 21
-23.9018840226
  0
LINE
  5
26C
100
AcDbEntity
  8
ASSI
100
AcDbLine
 62
253
  6
CONTINUOUS
 10
-3.5
 20
-23.7325830113
 11
-3.5806609125
 21
-23.6519220988
  0
LINE
  5
26D
100
AcDbEntity
  8
0
100
AcDbLine
 62
7
  6
CONTINUOUS
 10
-5.3523651948
 20
20.8476348052
 11
-5.1254493507
 21
21.0745506493
  0
LINE
  5
26E
100
AcDbEntity
  8
ASSI
100
AcDbLine
 62
7
  6
CONTINUOUS
 10
-5.3523651948
 20
20.8476348052
 11
-5.1254493507
 21
21.0745506493
  0
LINE
  5
26F
100
AcDbEntity
  8
ASSI
100
AcDbLine
 62
7
  6
CONTINUOUS
 10
-3.5
 20
22.3825449351
 11
-3.5806609125
 21
22.3018840226
  0
LINE
  5
270
100
AcDbEntity
  8
ASSI
100
AcDbLine
 62
253
  6
CONTINUOUS
 10
-1.0674169887
 20
23.9825449351
 11
-1.0499619238
 21
24.0
  0
LINE
  5
271
100
AcDbEntity
  8
ASSI
100
AcDbLine
 62
7
  6
CONTINUOUS
 10
-3.1173032135
 20
21.6326967865
 11
-3.05
 21
21.7
  0
LINE
  5
272
100
AcDbEntity
  8
ASSI
100
AcDbLine
 62
253
  6
CONTINUOUS
 10
-0.8174550649
 20
23.7325830113
 11
-0.8
 21
23.7500380762
  0
LINE
  5
273
100
AcDbEntity
  8
RACCORDO
100
AcDbLine
 62
7
  6
CONTINUOUS
 10
-7.3497113198
 20
17.1406761428
 11
-7.6389602491
 21
16.8514272135
  0
LINE
  5
274
100
AcDbEntity
  8
ASSI
100
AcDbLine
 62
7
  6
CONTINUOUS
 10
-7.3232622727
 20
17.1406761428
 11
-7.6257357255
 21
16.8382026899
  0
LINE
  5
275
100
AcDbEntity
  8
DRAFT
100
AcDbLine
 62
7
  6
CONTINUOUS
 10
-9.639870208
 20
14.1487839997
 11
-9.5
 21
14.2886542078
  0
LINE
  5
276
100
AcDbEntity
  8
ASSI
100
AcDbLine
 62
7
  6
CONTINUOUS
 10
-9.639870208
 20
14.14616574
 11
-9.5
 21
14.2860359481
  0
LINE
  5
277
100
AcDbEntity
  8
DRAFT
100
AcDbLine
 62
7
  6
CONTINUOUS
 10
-9.4375805259
 20
14.283626668
 11
-9.639870208
 21
14.1487839997
  0
LINE
  5
278
100
AcDbEntity
  8
ASSI
100
AcDbLine
 62
7
  6
CONTINUOUS
 10
-9.4375784291
 20
14.281009806
 11
-9.639870208
 21
14.14616574
  0
LINE
  5
279
100
AcDbEntity
  8
0
100
AcDbLine
 62
7
  6
CONTINUOUS
 10
9.5714422353
 20
20.8738193966
 11
9.65
 21
20.9
  0
LINE
  5
27A
100
AcDbEntity
  8
ASSI
100
AcDbLine
 62
7
  6
CONTINUOUS
 10
9.5714422353
 20
20.8738193966
 11
9.65
 21
20.9
  0
LINE
  5
27B
100
AcDbEntity
  8
RACCORDO
100
AcDbLine
 62
7
  6
CONTINUOUS
 10
9.4564965907
 20
-20.8355119633
 11
9.65
 21
-20.9
  0
LINE
  5
27C
100
AcDbEntity
  8
ASSI
100
AcDbLine
 62
7
  6
CONTINUOUS
 10
9.4564965907
 20
-20.8355119633
 11
9.65
 21
-20.9
  0
LINE
  5
27D
100
AcDbEntity
  8
RACCORDO
100
AcDbLine
 62
7
  6
CONTINUOUS
 10
-5.432569703
 20
-20.767430297
 11
-5.1254493507
 21
-21.0745506493
  0
LINE
  5
27E
100
AcDbEntity
  8
ASSI
100
AcDbLine
 62
7
  6
CONTINUOUS
 10
-5.432569703
 20
-20.767430297
 11
-5.1254493507
 21
-21.0745506493
  0
LINE
  5
27F
100
AcDbEntity
  8
ASSI
100
AcDbLine
 62
7
  6
CONTINUOUS
 10
-3.5806609125
 20
-22.3018840226
 11
-3.5
 21
-22.3825449351
  0
LINE
  5
280
100
AcDbEntity
  8
ASSI
100
AcDbLine
 62
253
  6
CONTINUOUS
 10
-1.0499619238
 20
-24.0
 11
-1.0674169887
 21
-23.9825449351
  0
LINE
  5
281
100
AcDbEntity
  8
ASSI
100
AcDbLine
 62
7
  6
CONTINUOUS
 10
-3.1173032135
 20
-21.6326967865
 11
-3.05
 21
-21.7
  0
LINE
  5
282
100
AcDbEntity
  8
ASSI
100
AcDbLine
 62
253
  6
CONTINUOUS
 10
-0.8
 20
-23.7500380762
 11
-0.8174550649
 21
-23.7325830113
  0
LINE
  5
283
100
AcDbEntity
  8
RACCORDO
100
AcDbLine
 62
253
  6
CONTINUOUS
 10
-4.3444976057
 20
17.9554262419
 11
-4.4559476337
 21
17.8439762139
  0
LINE
  5
284
100
AcDbEntity
  8
ASSI
100
AcDbLine
 62
253
  6
CONTINUOUS
 10
-4.3444976057
 20
17.9554262419
 11
-4.4559476337
 21
17.8439762139
  0
LINE
  5
285
100
AcDbEntity
  8
RACCORDO
100
AcDbLine
 62
253
  6
CONTINUOUS
 10
-3.8445737581
 20
17.4555023943
 11
-3.9563286977
 21
17.3437474547
  0
LINE
  5
286
100
AcDbEntity
  8
ASSI
100
AcDbLine
 62
253
  6
CONTINUOUS
 10
-3.8445737581
 20
17.4555023943
 11
-3.9563286977
 21
17.3437474547
  0
LINE
  5
287
100
AcDbEntity
  8
ASSI
100
AcDbLine
 62
7
  6
CONTINUOUS
 10
-7.3012233427
 20
22.2251447178
 11
-7.2551134101
 21
22.3825449351
  0
LINE
  5
288
100
AcDbEntity
  8
ASSI
100
AcDbLine
 62
253
  6
CONTINUOUS
 10
-3.3786655583
 20
22.2251447178
 11
-3.2999714434
 21
22.3825449351
  0
LINE
  5
289
100
AcDbEntity
  8
ASSI
100
AcDbLine
 62
253
  6
CONTINUOUS
 10
-3.1286750776
 20
21.975182794
 11
-3.05
 21
22.1325449336
  0
LINE
  5
28A
100
AcDbEntity
  8
ASSI
100
AcDbLine
 62
253
  6
CONTINUOUS
 10
4.1019220988
 20
23.9018840226
 11
4.2000380762
 21
24.0
  0
LINE
  5
28B
100
AcDbEntity
  8
ASSI
100
AcDbLine
 62
253
  6
CONTINUOUS
 10
4.3518840226
 20
23.6519220988
 11
4.45
 21
23.7500380762
  0
LINE
  5
28C
100
AcDbEntity
  8
ASSI
100
AcDbLine
 62
7
  6
CONTINUOUS
 10
4.45
 20
22.4
 11
4.3518840226
 21
22.3018840226
  0
LINE
  5
28D
100
AcDbEntity
  8
ASSI
100
AcDbLine
 62
253
  6
CONTINUOUS
 10
4.2000380762
 20
-24.0
 11
4.1019220988
 21
-23.9018840226
  0
LINE
  5
28E
100
AcDbEntity
  8
ASSI
100
AcDbLine
 62
253
  6
CONTINUOUS
 10
4.45
 20
-23.7500380762
 11
4.3518840226
 21
-23.6519220988
  0
LINE
  5
28F
100
AcDbEntity
  8
ASSI
100
AcDbLine
 62
7
  6
CONTINUOUS
 10
4.45
 20
-22.4
 11
4.3518840226
 21
-22.3018840226
  0
LINE
  5
290
100
AcDbEntity
  8
ASSI
100
AcDbLine
 62
253
  6
CONTINUOUS
 10
-3.2999714434
 20
-22.3825449351
 11
-3.3786655583
 21
-22.2251447178
  0
LINE
  5
291
100
AcDbEntity
  8
ASSI
100
AcDbLine
 62
253
  6
CONTINUOUS
 10
-3.05
 20
-22.1325449336
 11
-3.1286750776
 21
-21.975182794
  0
LINE
  5
292
100
AcDbEntity
  8
ASSI
100
AcDbLine
 62
7
  6
CONTINUOUS
 10
-7.3012233427
 20
-22.2251447178
 11
-7.2551134101
 21
-22.3825449351
  0
LINE
  5
293
100
AcDbEntity
  8
ASSI
100
AcDbLine
 62
7
  6
CONTINUOUS
 10
-11.1
 20
-21.0
 11
-11.1261859216
 21
-20.4226497308
  0
LINE
  5
294
100
AcDbEntity
  8
ASSI
100
AcDbLine
 62
253
  6
CONTINUOUS
 10
-10.5864113981
 20
-23.8010362971
 11
-10.6
 21
-23.3515746082
  0
LINE
  5
295
100
AcDbEntity
  8
ASSI
100
AcDbLine
 62
253
  6
CONTINUOUS
 10
-10.3864405814
 20
-23.6278734767
 11
-10.4017150409
 21
-23.1226497308
  0
LINE
  5
296
100
AcDbEntity
  8
ASSI
100
AcDbLine
 62
7
  6
CONTINUOUS
 10
-11.0825449351
 20
20.4226497308
 11
-11.1
 21
21.0
  0
LINE
  5
297
100
AcDbEntity
  8
ASSI
100
AcDbLine
 62
7
  6
CONTINUOUS
 10
-11.1261859216
 20
-20.4226497308
 11
-11.1261859216
 21
20.4226497308
  0
LINE
  5
298
100
AcDbEntity
  8
ASSI
100
AcDbLine
 62
7
  6
CONTINUOUS
 10
-11.1
 20
21.9000761524
 11
-11.1
 21
21.0
  0
LINE
  5
299
100
AcDbEntity
  8
ASSI
100
AcDbLine
 62
7
  6
CONTINUOUS
 10
-11.1
 20
-21.9000761524
 11
-11.1
 21
-21.0
  0
LINE
  5
29A
100
AcDbEntity
  8
ASSI
100
AcDbLine
 62
7
  6
CONTINUOUS
 10
-11.0825449351
 20
-21.8826210875
 11
-11.0825449351
 21
-20.4226497308
  0
LINE
  5
29B
100
AcDbEntity
  8
ASSI
100
AcDbLine
 62
7
  6
CONTINUOUS
 10
-11.0825449351
 20
20.4226497308
 11
-11.0825449351
 21
21.8826210875
  0
LINE
  5
29C
100
AcDbEntity
  8
ASSI
100
AcDbLine
 62
7
  6
CONTINUOUS
 10
-10.6
 20
-24.300030461
 11
-10.6
 21
-22.3999997358
  0
LINE
  5
29D
100
AcDbEntity
  8
ASSI
100
AcDbLine
 62
7
  6
CONTINUOUS
 10
-10.6000000646
 20
22.3999999296
 11
-10.6
 21
24.300030461
  0
LINE
  5
29E
100
AcDbEntity
  8
ASSI
100
AcDbLine
 62
253
  6
CONTINUOUS
 10
-10.5859750215
 20
-24.2368706193
 11
-10.5859750215
 21
-23.8443375673
  0
LINE
  5
29F
100
AcDbEntity
  8
ASSI
100
AcDbLine
 62
253
  6
CONTINUOUS
 10
-10.5859750215
 20
23.8443375673
 11
-10.5859750215
 21
24.2368706193
  0
LINE
  5
2A0
100
AcDbEntity
  8
ASSI
100
AcDbLine
 62
253
  6
CONTINUOUS
 10
-10.3860054824
 20
-24.2368706193
 11
-10.3860054824
 21
-23.8443575944
  0
LINE
  5
2A1
100
AcDbEntity
  8
ASSI
100
AcDbLine
 62
253
  6
CONTINUOUS
 10
-10.3860054824
 20
23.8442507367
 11
-10.3860054824
 21
24.2368706193
  0
LINE
  5
2A2
100
AcDbEntity
  8
ASSI
100
AcDbLine
 62
253
  6
CONTINUOUS
 10
-10.6
 20
23.3515746082
 11
-10.5864113981
 21
23.8010362971
  0
LINE
  5
2A3
100
AcDbEntity
  8
ASSI
100
AcDbLine
 62
253
  6
CONTINUOUS
 10
-10.4017150409
 20
23.1226497308
 11
-10.3864421555
 21
23.6278214108
  0
LINE
  5
2A4
100
AcDbEntity
  8
ASSI
100
AcDbLine
 62
7
  6
CONTINUOUS
 10
-11.1
 20
-21.0
 11
-11.0825449351
 21
-20.4226497308
  0
LINE
  5
2A5
100
AcDbEntity
  8
ASSI
100
AcDbLine
 62
7
  6
CONTINUOUS
 10
-11.1261859216
 20
20.4226497308
 11
-11.1
 21
21.0
  0
LINE
  5
2A6
100
AcDbEntity
  8
RACCORDO
100
AcDbLine
 62
7
  6
CONTINUOUS
 10
-9.4925054846
 20
16.8514272135
 11
-9.5000023792
 21
16.6999519285
  0
LINE
  5
2A7
100
AcDbEntity
  8
ASSI
100
AcDbLine
 62
7
  6
CONTINUOUS
 10
-9.4938991482
 20
16.8232681423
 11
-9.5000023792
 21
16.6999519285
  0
LINE
  5
2A8
100
AcDbEntity
  8
RACCORDO
100
AcDbLine
 62
7
  6
CONTINUOUS
 10
-7.3508267979
 20
19.3349933121
 11
-7.328661645
 21
19.4681025177
  0
LINE
  5
2A9
100
AcDbEntity
  8
ASSI
100
AcDbLine
 62
7
  6
CONTINUOUS
 10
-7.3508267979
 20
19.3349933121
 11
-7.328661645
 21
19.4681025177
  0
LINE
  5
2AA
100
AcDbEntity
  8
RACCORDO
100
AcDbLine
 62
7
  6
CONTINUOUS
 10
-4.4550387927
 20
19.3349933121
 11
-4.4107051106
 21
19.4681025177
  0
LINE
  5
2AB
100
AcDbEntity
  8
ASSI
100
AcDbLine
 62
7
  6
CONTINUOUS
 10
-4.4550387927
 20
19.3349933121
 11
-4.4107051106
 21
19.4681025177
  0
LINE
  5
2AC
100
AcDbEntity
  8
RACCORDO
100
AcDbLine
 62
253
  6
CONTINUOUS
 10
-7.3711122677
 20
-16.8913368402
 11
-7.2127313221
 21
-20.0914350444
  0
LINE
  5
2AD
100
AcDbEntity
  8
ASSI
100
AcDbLine
 62
253
  6
CONTINUOUS
 10
-7.3711122677
 20
-16.8913368402
 11
-7.2127313221
 21
-20.0914350444
  0
LINE
  5
2AE
100
AcDbEntity
  8
ASSI
100
AcDbLine
 62
7
  6
CONTINUOUS
 10
-9.2868325431
 20
-23.5581814706
 11
-9.3
 21
-23.1226497308
  0
LINE
  5
2AF
100
AcDbEntity
  8
DRAFT
100
AcDbLine
 62
7
  6
CONTINUOUS
 10
-9.4974886323
 20
19.3349933121
 11
-9.4954820773
 21
17.1406761428
  0
LINE
  5
2B0
100
AcDbEntity
  8
ASSI
100
AcDbLine
 62
7
  6
CONTINUOUS
 10
-9.4974886323
 20
19.3349933121
 11
-9.4954820773
 21
17.1406761428
  0
LINE
  5
2B1
100
AcDbEntity
  8
ASSI
100
AcDbLine
 62
7
  6
CONTINUOUS
 10
-9.65
 20
-20.9
 11
-9.65
 21
20.9
  0
LINE
  5
2B2
100
AcDbEntity
  8
DRAFT
100
AcDbLine
 62
7
  6
CONTINUOUS
 10
-9.639870208
 20
14.1487839997
 11
-9.639870208
 21
18.1129361064
  0
LINE
  5
2B3
100
AcDbEntity
  8
ASSI
100
AcDbLine
 62
7
  6
CONTINUOUS
 10
-9.639870208
 20
14.14616574
 11
-9.639870208
 21
18.1129361064
  0
LINE
  5
2B4
100
AcDbEntity
  8
RACCORDO
100
AcDbLine
 62
7
  6
CONTINUOUS
 10
-9.5714422353
 20
20.8738193966
 11
-9.5714422353
 21
19.7676913781
  0
LINE
  5
2B5
100
AcDbEntity
  8
ASSI
100
AcDbLine
 62
7
  6
CONTINUOUS
 10
-9.5714422353
 20
20.8738193966
 11
-9.5714422353
 21
19.7676913781
  0
LINE
  5
2B6
100
AcDbEntity
  8
DRAFT
100
AcDbLine
 62
7
  6
CONTINUOUS
 10
-9.5
 20
16.7
 11
-9.5
 21
14.2886542078
  0
LINE
  5
2B7
100
AcDbEntity
  8
ASSI
100
AcDbLine
 62
7
  6
CONTINUOUS
 10
-9.5
 20
16.7
 11
-9.5
 21
14.2860359481
  0
LINE
  5
2B8
100
AcDbEntity
  8
ASSI
100
AcDbLine
 62
7
  6
CONTINUOUS
 10
-9.3
 20
-23.1226497308
 11
-9.3
 21
-22.4
  0
LINE
  5
2B9
100
AcDbEntity
  8
ASSI
100
AcDbLine
 62
7
  6
CONTINUOUS
 10
-9.3
 20
22.4
 11
-9.3
 21
23.1226497308
  0
LINE
  5
2BA
100
AcDbEntity
  8
ASSI
100
AcDbLine
 62
253
  6
CONTINUOUS
 10
-9.2868325431
 20
-23.5581814706
 11
-9.2868325431
 21
-22.3868325431
  0
LINE
  5
2BB
100
AcDbEntity
  8
ASSI
100
AcDbLine
 62
253
  6
CONTINUOUS
 10
-9.2868325431
 20
22.3868325431
 11
-9.2868325431
 21
23.5581814706
  0
LINE
  5
2BC
100
AcDbEntity
  8
ASSI
100
AcDbLine
 62
253
  6
CONTINUOUS
 10
-9.0368706193
 20
-23.8443375673
 11
-9.0368706193
 21
-22.3825449351
  0
LINE
  5
2BD
100
AcDbEntity
  8
ASSI
100
AcDbLine
 62
253
  6
CONTINUOUS
 10
-9.0368706193
 20
22.3825449351
 11
-9.0368706193
 21
23.8443375673
  0
LINE
  5
2BE
100
AcDbEntity
  8
ASSI
100
AcDbLine
 62
253
  6
CONTINUOUS
 10
-8.7631293807
 20
-23.8443375673
 11
-8.7631293807
 21
-22.3825449351
  0
LINE
  5
2BF
100
AcDbEntity
  8
ASSI
100
AcDbLine
 62
253
  6
CONTINUOUS
 10
-8.7631293807
 20
22.3825449351
 11
-8.7631293807
 21
23.8443375673
  0
LINE
  5
2C0
100
AcDbEntity
  8
ASSI
100
AcDbLine
 62
253
  6
CONTINUOUS
 10
-8.5131674569
 20
-23.5581814706
 11
-8.5131674569
 21
-22.3868325431
  0
LINE
  5
2C1
100
AcDbEntity
  8
ASSI
100
AcDbLine
 62
253
  6
CONTINUOUS
 10
-8.5131674569
 20
22.3868325431
 11
-8.5131674569
 21
23.5581814706
  0
LINE
  5
2C2
100
AcDbEntity
  8
ASSI
100
AcDbLine
 62
7
  6
CONTINUOUS
 10
-8.5
 20
-23.1226497308
 11
-8.5
 21
-22.4
  0
LINE
  5
2C3
100
AcDbEntity
  8
ASSI
100
AcDbLine
 62
7
  6
CONTINUOUS
 10
-8.5
 20
22.4
 11
-8.5
 21
23.1226497308
  0
LINE
  5
2C4
100
AcDbEntity
  8
ASSI
100
AcDbLine
 62
7
  6
CONTINUOUS
 10
-8.2325449351
 20
21.4051134101
 11
-8.2325449351
 21
20.9
  0
LINE
  5
2C5
100
AcDbEntity
  8
ASSI
100
AcDbLine
 62
7
  6
CONTINUOUS
 10
-8.2325449351
 20
-21.4051134101
 11
-8.2325449351
 21
-20.9
  0
LINE
  5
2C6
100
AcDbEntity
  8
ASSI
100
AcDbLine
 62
7
  6
CONTINUOUS
 10
-9.3
 20
23.1226497308
 11
-9.2868325431
 21
23.5581814706
  0
LINE
  5
2C7
100
AcDbEntity
  8
RACCORDO
100
AcDbLine
 62
253
  6
CONTINUOUS
 10
-7.2127313221
 20
20.0914350444
 11
-7.3514504324
 21
17.288605614
  0
LINE
  5
2C8
100
AcDbEntity
  8
ASSI
100
AcDbLine
 62
253
  6
CONTINUOUS
 10
-7.2127313221
 20
20.0914350444
 11
-7.3514504324
 21
17.288605614
  0
LINE
  5
2C9
100
AcDbEntity
  8
ASSI
100
AcDbLine
 62
253
  6
CONTINUOUS
 10
10.6
 20
22.3999999999
 11
10.5826210875
 21
22.3825449351
  0
LINE
  5
2CA
100
AcDbEntity
  8
ASSI
100
AcDbLine
 62
253
  6
CONTINUOUS
 10
10.400030461
 20
24.5
 11
10.3868630041
 21
24.4868325431
  0
LINE
  5
2CB
100
AcDbEntity
  8
ASSI
100
AcDbLine
 62
253
  6
CONTINUOUS
 10
10.6
 20
24.300030461
 11
10.5868325431
 21
24.286863004
  0
LINE
  5
2CC
100
AcDbEntity
  8
ASSI
100
AcDbLine
 62
7
  6
CONTINUOUS
 10
9.3
 20
22.4
 11
9.2868325431
 21
22.3868325431
  0
LINE
  5
2CD
100
AcDbEntity
  8
DRAFT
100
AcDbLine
 62
7
  6
CONTINUOUS
 10
4.0536778182
 20
16.8790652807
 11
3.7636147059
 21
16.5890021684
  0
LINE
  5
2CE
100
AcDbEntity
  8
ASSI
100
AcDbLine
 62
7
  6
CONTINUOUS
 10
4.0801268653
 20
16.8790652807
 11
3.7768392294
 21
16.5757776449
  0
LINE
  5
2CF
100
AcDbEntity
  8
ASSI
100
AcDbLine
 62
253
  6
CONTINUOUS
 10
10.3868630041
 20
-24.4868325431
 11
10.400030461
 21
-24.5
  0
LINE
  5
2D0
100
AcDbEntity
  8
ASSI
100
AcDbLine
 62
253
  6
CONTINUOUS
 10
10.5868325431
 20
-24.2868630041
 11
10.6
 21
-24.300030461
  0
LINE
  5
2D1
100
AcDbEntity
  8
ASSI
100
AcDbLine
 62
7
  6
CONTINUOUS
 10
9.3
 20
-22.4
 11
9.2868325431
 21
-22.3868325431
  0
LINE
  5
2D2
100
AcDbEntity
  8
ASSI
100
AcDbLine
 62
253
  6
CONTINUOUS
 10
10.5826210875
 20
-22.3825449351
 11
10.6000000646
 21
-22.3999999354
  0
LINE
  5
2D3
100
AcDbEntity
  8
RACCORDO
100
AcDbLine
 62
7
  6
CONTINUOUS
 10
-9.5
 20
16.7
 11
-9.639870208
 21
18.1129361064
  0
LINE
  5
2D4
100
AcDbEntity
  8
ASSI
100
AcDbLine
 62
7
  6
CONTINUOUS
 10
-9.5
 20
16.7
 11
-9.639870208
 21
18.1129361064
  0
LINE
  5
2D5
100
AcDbEntity
  8
RACCORDO
100
AcDbLine
 62
253
  6
CONTINUOUS
 10
-7.0717935951
 20
-16.5823590509
 11
-6.91317452
 21
-19.7872686779
  0
LINE
  5
2D6
100
AcDbEntity
  8
ASSI
100
AcDbLine
 62
253
  6
CONTINUOUS
 10
-7.0717935951
 20
-16.5823590509
 11
-6.91317452
 21
-19.7872686779
  0
LINE
  5
2D7
100
AcDbEntity
  8
ASSI
100
AcDbLine
 62
7
  6
CONTINUOUS
 10
-8.5
 20
23.1226497308
 11
-8.5131674569
 21
23.5581814706
  0
LINE
  5
2D8
100
AcDbEntity
  8
ASSI
100
AcDbLine
 62
253
  6
CONTINUOUS
 10
-7.3982849591
 20
23.1226497308
 11
-7.4135581409
 21
23.6278312163
  0
LINE
  5
2D9
100
AcDbEntity
  8
ASSI
100
AcDbLine
 62
253
  6
CONTINUOUS
 10
-7.2
 20
23.3515746082
 11
-7.2135886019
 21
23.8010362971
  0
LINE
  5
2DA
100
AcDbEntity
  8
RACCORDO
100
AcDbLine
 62
7
  6
CONTINUOUS
 10
-6.4491732021
 20
19.3349933121
 11
-6.4485495676
 21
17.288605614
  0
LINE
  5
2DB
100
AcDbEntity
  8
ASSI
100
AcDbLine
 62
7
  6
CONTINUOUS
 10
-6.4491732021
 20
19.3349933121
 11
-6.4485495676
 21
17.288605614
  0
LINE
  5
2DC
100
AcDbEntity
  8
ASSI
100
AcDbLine
 62
7
  6
CONTINUOUS
 10
-8.0579942858
 20
-21.2252970227
 11
-8.0579942858
 21
-20.9872686779
  0
LINE
  5
2DD
100
AcDbEntity
  8
ASSI
100
AcDbLine
 62
7
  6
CONTINUOUS
 10
-8.0579942858
 20
20.9872686779
 11
-8.0579942858
 21
21.2252970227
  0
LINE
  5
2DE
100
AcDbEntity
  8
DRAFT
100
AcDbLine
 62
7
  6
CONTINUOUS
 10
-7.7903874625
 20
15.5
 11
-7.7903874625
 21
14.2886542078
  0
LINE
  5
2DF
100
AcDbEntity
  8
ASSI
100
AcDbLine
 62
7
  6
CONTINUOUS
 10
-7.7639384154
 20
15.5
 11
-7.7639384154
 21
14.2860359481
  0
LINE
  5
2E0
100
AcDbEntity
  8
ASSI
100
AcDbLine
 62
253
  6
CONTINUOUS
 10
-7.4139945176
 20
-24.2368706193
 11
-7.4139945176
 21
-23.8443375673
  0
LINE
  5
2E1
100
AcDbEntity
  8
ASSI
100
AcDbLine
 62
253
  6
CONTINUOUS
 10
-7.4139945176
 20
23.8443354981
 11
-7.4139945176
 21
24.2368706193
  0
LINE
  5
2E2
100
AcDbEntity
  8
RACCORDO
100
AcDbLine
 62
7
  6
CONTINUOUS
 10
-7.3261806034
 20
20.8738193966
 11
-7.3261806034
 21
19.7676913781
  0
LINE
  5
2E3
100
AcDbEntity
  8
ASSI
100
AcDbLine
 62
7
  6
CONTINUOUS
 10
-7.3261806034
 20
20.8738193966
 11
-7.3261806034
 21
19.7676913781
  0
LINE
  5
2E4
100
AcDbEntity
  8
ASSI
100
AcDbLine
 62
253
  6
CONTINUOUS
 10
-7.2140249785
 20
-24.2368706193
 11
-7.2140249785
 21
-23.8443375673
  0
LINE
  5
2E5
100
AcDbEntity
  8
ASSI
100
AcDbLine
 62
253
  6
CONTINUOUS
 10
-7.2140249785
 20
23.8443375673
 11
-7.2140249785
 21
24.2368706193
  0
LINE
  5
2E6
100
AcDbEntity
  8
RACCORDO
100
AcDbLine
 62
7
  6
CONTINUOUS
 10
-7.2127313221
 20
-20.9872686779
 11
-7.2127313221
 21
-20.0914350444
  0
LINE
  5
2E7
100
AcDbEntity
  8
ASSI
100
AcDbLine
 62
7
  6
CONTINUOUS
 10
-7.2127313221
 20
-20.9872686779
 11
-7.2127313221
 21
-20.0914350444
  0
LINE
  5
2E8
100
AcDbEntity
  8
RACCORDO
100
AcDbLine
 62
7
  6
CONTINUOUS
 10
-7.2127313221
 20
20.0914350444
 11
-7.2127313221
 21
20.9872686779
  0
LINE
  5
2E9
100
AcDbEntity
  8
ASSI
100
AcDbLine
 62
7
  6
CONTINUOUS
 10
-7.2127313221
 20
20.0914350444
 11
-7.2127313221
 21
20.9872686779
  0
LINE
  5
2EA
100
AcDbEntity
  8
ASSI
100
AcDbLine
 62
7
  6
CONTINUOUS
 10
-7.2
 20
-22.4
 11
-7.2
 21
-24.300030461
  0
LINE
  5
2EB
100
AcDbEntity
  8
ASSI
100
AcDbLine
 62
7
  6
CONTINUOUS
 10
-7.2
 20
22.4
 11
-7.2
 21
24.300030461
  0
LINE
  5
2EC
100
AcDbEntity
  8
RACCORDO
100
AcDbLine
 62
7
  6
CONTINUOUS
 10
-6.5872686779
 20
-21.0745506493
 11
-6.5872686779
 21
-20.0914350444
  0
LINE
  5
2ED
100
AcDbEntity
  8
ASSI
100
AcDbLine
 62
7
  6
CONTINUOUS
 10
-6.5872686779
 20
-21.0745506493
 11
-6.5872686779
 21
-20.0914350444
  0
LINE
  5
2EE
100
AcDbEntity
  8
RACCORDO
100
AcDbLine
 62
7
  6
CONTINUOUS
 10
-6.5872686779
 20
20.0914350444
 11
-6.5872686779
 21
21.0745506493
  0
LINE
  5
2EF
100
AcDbEntity
  8
ASSI
100
AcDbLine
 62
7
  6
CONTINUOUS
 10
-6.5872686779
 20
20.0914350444
 11
-6.5872686779
 21
21.0745506493
  0
LINE
  5
2F0
100
AcDbEntity
  8
RACCORDO
100
AcDbLine
 62
7
  6
CONTINUOUS
 10
-6.4738193966
 20
20.8476348052
 11
-6.4738193966
 21
19.7676913781
  0
LINE
  5
2F1
100
AcDbEntity
  8
ASSI
100
AcDbLine
 62
7
  6
CONTINUOUS
 10
-6.4738193966
 20
20.8476348052
 11
-6.4738193966
 21
19.7676913781
  0
LINE
  5
2F2
100
AcDbEntity
  8
0
100
AcDbLine
 62
7
  6
CONTINUOUS
 10
-6.25
 20
3.6084391824
 11
-6.25
 21
-3.6084391824
  0
LINE
  5
2F3
100
AcDbEntity
  8
RACCORDO
100
AcDbLine
 62
7
  6
CONTINUOUS
 10
-7.3514504324
 20
17.288605614
 11
-7.3508267979
 21
19.3349933121
  0
LINE
  5
2F4
100
AcDbEntity
  8
ASSI
100
AcDbLine
 62
7
  6
CONTINUOUS
 10
-7.3514504324
 20
17.288605614
 11
-7.3508267979
 21
19.3349933121
  0
LINE
  5
2F5
100
AcDbEntity
  8
ASSI
100
AcDbLine
 62
7
  6
CONTINUOUS
 10
-7.3343263063
 20
15.3438299223
 11
-7.3232622727
 21
17.1406761428
  0
LINE
  5
2F6
100
AcDbEntity
  8
DRAFT
100
AcDbLine
 62
7
  6
CONTINUOUS
 10
-7.6513850867
 20
15.5068795788
 11
-7.6389602491
 21
16.8514272135
  0
LINE
  5
2F7
100
AcDbEntity
  8
ASSI
100
AcDbLine
 62
7
  6
CONTINUOUS
 10
-8.5131674569
 20
-23.5581814706
 11
-8.5
 21
-23.1226497308
  0
LINE
  5
2F8
100
AcDbEntity
  8
ASSI
100
AcDbLine
 62
253
  6
CONTINUOUS
 10
-7.4135581719
 20
-23.6278322392
 11
-7.3982849591
 21
-23.1226497308
  0
LINE
  5
2F9
100
AcDbEntity
  8
ASSI
100
AcDbLine
 62
253
  6
CONTINUOUS
 10
-7.2135886019
 20
-23.8010362971
 11
-7.2
 21
-23.3515746082
  0
LINE
  5
2FA
100
AcDbEntity
  8
RACCORDO
100
AcDbLine
 62
253
  6
CONTINUOUS
 10
-6.91317452
 20
19.7872686779
 11
-7.0519868989
 21
16.9825547473
  0
LINE
  5
2FB
100
AcDbEntity
  8
ASSI
100
AcDbLine
 62
253
  6
CONTINUOUS
 10
-6.91317452
 20
19.7872686779
 11
-7.0519868989
 21
16.9825547473
  0
LINE
  5
2FC
100
AcDbEntity
  8
ASSI
100
AcDbLine
 62
253
  6
CONTINUOUS
 10
11.1
 20
21.9000761524
 11
11.0825449351
 21
21.8826210875
  0
LINE
  5
2FD
100
AcDbEntity
  8
0
100
AcDbLine
 62
7
  6
CONTINUOUS
 10
-0.0
 20
7.2168783649
 11
-6.25
 21
3.6084391824
  0
LINE
  5
2FE
100
AcDbEntity
  8
0
100
AcDbLine
 62
7
  6
CONTINUOUS
 10
-6.25
 20
-3.6084391824
 11
-0.0
 21
-7.2168783649
  0
LINE
  5
2FF
100
AcDbEntity
  8
ASSI
100
AcDbLine
 62
253
  6
CONTINUOUS
 10
11.0825449351
 20
-21.8826210875
 11
11.1
 21
-21.9000761524
  0
LINE
  5
300
100
AcDbEntity
  8
DRAFT
100
AcDbLine
 62
7
  6
CONTINUOUS
 10
-9.4954820773
 20
17.1406761428
 11
-9.639870208
 21
18.1129361064
  0
LINE
  5
301
100
AcDbEntity
  8
ASSI
100
AcDbLine
 62
7
  6
CONTINUOUS
 10
-9.4954820773
 20
17.1406761428
 11
-9.639870208
 21
18.1129361064
  0
LINE
  5
302
100
AcDbEntity
  8
RACCORDO
100
AcDbLine
 62
253
  6
CONTINUOUS
 10
-6.88682548
 20
19.7872686779
 11
-6.7480131011
 21
16.9825547473
  0
LINE
  5
303
100
AcDbEntity
  8
ASSI
100
AcDbLine
 62
253
  6
CONTINUOUS
 10
-6.88682548
 20
19.7872686779
 11
-6.7480131011
 21
16.9825547473
  0
LINE
  5
304
100
AcDbEntity
  8
RACCORDO
100
AcDbLine
 62
253
  6
CONTINUOUS
 10
-6.5872686779
 20
20.0914350444
 11
-6.4485495676
 21
17.288605614
  0
LINE
  5
305
100
AcDbEntity
  8
ASSI
100
AcDbLine
 62
253
  6
CONTINUOUS
 10
-6.5872686779
 20
20.0914350444
 11
-6.4485495676
 21
17.288605614
  0
LINE
  5
306
100
AcDbEntity
  8
ASSI
100
AcDbLine
 62
7
  6
CONTINUOUS
 10
-4.0706736937
 20
15.3438299223
 11
-4.0801268653
 21
16.8790652807
  0
LINE
  5
307
100
AcDbEntity
  8
0
100
AcDbLine
 62
7
  6
CONTINUOUS
 10
-5.3523651948
 20
20.8476348052
 11
-5.3523651948
 21
19.9738193966
  0
LINE
  5
308
100
AcDbEntity
  8
ASSI
100
AcDbLine
 62
7
  6
CONTINUOUS
 10
-5.3523651948
 20
20.8476348052
 11
-5.3523651948
 21
19.9738193966
  0
LINE
  5
309
100
AcDbEntity
  8
ASSI
100
AcDbLine
 62
7
  6
CONTINUOUS
 10
-5.1254493507
 20
21.0745506493
 11
-5.1254493507
 21
20.0872686779
  0
LINE
  5
30A
100
AcDbEntity
  8
ASSI
100
AcDbLine
 62
7
  6
CONTINUOUS
 10
-5.1254493507
 20
-20.0872686779
 11
-5.1254493507
 21
-21.0745506493
  0
LINE
  5
30B
100
AcDbEntity
  8
ASSI
100
AcDbLine
 62
7
  6
CONTINUOUS
 10
-4.45
 20
23.7500380762
 11
-4.45
 21
23.4179449472
  0
LINE
  5
30C
100
AcDbEntity
  8
ASSI
100
AcDbLine
 62
7
  6
CONTINUOUS
 10
-4.45
 20
22.9820550528
 11
-4.45
 21
22.4
  0
LINE
  5
30D
100
AcDbEntity
  8
ASSI
100
AcDbLine
 62
7
  6
CONTINUOUS
 10
-4.45
 20
-22.4
 11
-4.45
 21
-22.9820550528
  0
LINE
  5
30E
100
AcDbEntity
  8
ASSI
100
AcDbLine
 62
7
  6
CONTINUOUS
 10
-4.45
 20
-23.4179449472
 11
-4.45
 21
-23.7500380762
  0
LINE
  5
30F
100
AcDbEntity
  8
RACCORDO
100
AcDbLine
 62
7
  6
CONTINUOUS
 10
-4.4057426494
 20
19.7676913781
 11
-4.4057426494
 21
19.9738193966
  0
LINE
  5
310
100
AcDbEntity
  8
ASSI
100
AcDbLine
 62
7
  6
CONTINUOUS
 10
-4.4057426494
 20
19.7676913781
 11
-4.4057426494
 21
19.9738193966
  0
LINE
  5
311
100
AcDbEntity
  8
ASSI
100
AcDbLine
 62
7
  6
CONTINUOUS
 10
-4.3539971429
 20
-23.5393800954
 11
-4.3539971429
 21
-22.8606199046
  0
LINE
  5
312
100
AcDbEntity
  8
ASSI
100
AcDbLine
 62
7
  6
CONTINUOUS
 10
-4.3539971429
 20
22.8606199046
 11
-4.3539971429
 21
23.5393800954
  0
LINE
  5
313
100
AcDbEntity
  8
ASSI
100
AcDbLine
 62
253
  6
CONTINUOUS
 10
-4.3518822356
 20
23.6519203118
 11
-4.3518840226
 21
22.3018840226
  0
LINE
  5
314
100
AcDbEntity
  8
ASSI
100
AcDbLine
 62
253
  6
CONTINUOUS
 10
-4.3518840226
 20
-22.3018840226
 11
-4.3518822356
 21
-23.6519203118
  0
LINE
  5
315
100
AcDbEntity
  8
RACCORDO
100
AcDbLine
 62
253
  6
CONTINUOUS
 10
-4.3444976057
 20
20.0044395863
 11
-4.3444976057
 21
17.9554262419
  0
LINE
  5
316
100
AcDbEntity
  8
ASSI
100
AcDbLine
 62
253
  6
CONTINUOUS
 10
-4.3444976057
 20
20.0044395863
 11
-4.3444976057
 21
17.9554262419
  0
LINE
  5
317
100
AcDbEntity
  8
RACCORDO
100
AcDbLine
 62
7
  6
CONTINUOUS
 10
-4.4559476337
 20
17.8439762139
 11
-4.4550387927
 21
19.3349933121
  0
LINE
  5
318
100
AcDbEntity
  8
ASSI
100
AcDbLine
 62
7
  6
CONTINUOUS
 10
-4.4559476337
 20
17.8439762139
 11
-4.4550387927
 21
19.3349933121
  0
LINE
  5
319
100
AcDbEntity
  8
RACCORDO
100
AcDbLine
 62
253
  6
CONTINUOUS
 10
-6.88682548
 20
-19.7872686779
 11
-6.7280572421
 21
-16.5793452061
  0
LINE
  5
31A
100
AcDbEntity
  8
ASSI
100
AcDbLine
 62
253
  6
CONTINUOUS
 10
-6.88682548
 20
-19.7872686779
 11
-6.7280572421
 21
-16.5793452061
  0
LINE
  5
31B
100
AcDbEntity
  8
RACCORDO
100
AcDbLine
 62
253
  6
CONTINUOUS
 10
-6.5872686779
 20
-20.0914350444
 11
-6.4284810881
 21
-16.8831205658
  0
LINE
  5
31C
100
AcDbEntity
  8
ASSI
100
AcDbLine
 62
253
  6
CONTINUOUS
 10
-6.5872686779
 20
-20.0914350444
 11
-6.4284810881
 21
-16.8831205658
  0
LINE
  5
31D
100
AcDbEntity
  8
ASSI
100
AcDbLine
 62
7
  6
CONTINUOUS
 10
-3.1270760019
 20
-21.2251044884
 11
-3.1173032135
 21
-21.6326967865
  0
LINE
  5
31E
100
AcDbEntity
  8
DRAFT
100
AcDbLine
 62
7
  6
CONTINUOUS
 10
-3.7636147059
 20
16.5890021684
 11
-3.7536149133
 21
15.5068795788
  0
LINE
  5
31F
100
AcDbEntity
  8
RACCORDO
100
AcDbLine
 62
7
  6
CONTINUOUS
 10
-4.0441923537
 20
15.3385854114
 11
-4.0536778182
 21
16.8790652807
  0
LINE
  5
320
100
AcDbEntity
  8
RACCORDO
100
AcDbLine
 62
253
  6
CONTINUOUS
 10
-3.8445737581
 20
17.4555023943
 11
-3.8445737581
 21
20.0087268678
  0
LINE
  5
321
100
AcDbEntity
  8
ASSI
100
AcDbLine
 62
253
  6
CONTINUOUS
 10
-3.8445737581
 20
17.4555023943
 11
-3.8445737581
 21
20.0087268678
  0
LINE
  5
322
100
AcDbEntity
  8
ASSI
100
AcDbLine
 62
253
  6
CONTINUOUS
 10
-3.5806609125
 20
23.6519220988
 11
-3.5806609125
 21
22.3018840226
  0
LINE
  5
323
100
AcDbEntity
  8
ASSI
100
AcDbLine
 62
253
  6
CONTINUOUS
 10
-3.5806609125
 20
-22.3018840226
 11
-3.5806609125
 21
-23.6519220988
  0
LINE
  5
324
100
AcDbEntity
  8
DRAFT
100
AcDbLine
 62
7
  6
CONTINUOUS
 10
-3.5440817452
 20
15.4965092529
 11
-3.5440817452
 21
15.1
  0
LINE
  5
325
100
AcDbEntity
  8
ASSI
100
AcDbLine
 62
7
  6
CONTINUOUS
 10
-3.5440817452
 20
15.4952002227
 11
-3.5440817452
 21
15.1
  0
LINE
  5
326
100
AcDbEntity
  8
DRAFT
100
AcDbLine
 62
7
  6
CONTINUOUS
 10
-3.5
 20
14.85
 11
-3.5
 21
14.0
  0
LINE
  5
327
100
AcDbEntity
  8
ASSI
100
AcDbLine
 62
7
  6
CONTINUOUS
 10
-3.5
 20
-23.7325830113
 11
-3.5
 21
-22.3825449351
  0
LINE
  5
328
100
AcDbEntity
  8
ASSI
100
AcDbLine
 62
7
  6
CONTINUOUS
 10
-3.5
 20
14.0
 11
-3.5
 21
14.85
  0
LINE
  5
329
100
AcDbEntity
  8
ASSI
100
AcDbLine
 62
7
  6
CONTINUOUS
 10
-3.5
 20
22.3825449351
 11
-3.5
 21
23.7325830113
  0
LINE
  5
32A
100
AcDbEntity
  8
RACCORDO
100
AcDbLine
 62
7
  6
CONTINUOUS
 10
-3.4
 20
15.5068795788
 11
-3.4
 21
14.1087982301
  0
LINE
  5
32B
100
AcDbEntity
  8
ASSI
100
AcDbLine
 62
253
  6
CONTINUOUS
 10
-3.3850964806
 20
-21.2252970227
 11
-3.3850964806
 21
-20.8
  0
LINE
  5
32C
100
AcDbEntity
  8
ASSI
100
AcDbLine
 62
253
  6
CONTINUOUS
 10
-3.3850964806
 20
20.8
 11
-3.3850964806
 21
21.2252970227
  0
LINE
  5
32D
100
AcDbEntity
  8
ASSI
100
AcDbLine
 62
7
  6
CONTINUOUS
 10
-3.1351059998
 20
-21.2252970227
 11
-3.1351059998
 21
-20.8901985088
  0
LINE
  5
32E
100
AcDbEntity
  8
ASSI
100
AcDbLine
 62
7
  6
CONTINUOUS
 10
-3.1351059998
 20
20.8901985088
 11
-3.1351059998
 21
21.2252970227
  0
LINE
  5
32F
100
AcDbEntity
  8
ASSI
100
AcDbLine
 62
7
  6
CONTINUOUS
 10
-3.05
 20
22.1325449336
 11
-3.05
 21
21.7
  0
LINE
  5
330
100
AcDbEntity
  8
ASSI
100
AcDbLine
 62
7
  6
CONTINUOUS
 10
-3.05
 20
-21.7
 11
-3.05
 21
-22.1325449336
  0
LINE
  5
331
100
AcDbEntity
  8
0
100
AcDbLine
 62
7
  6
CONTINUOUS
 10
-2.0
 20
6.0621778265
 11
-2.0
 21
11.0
  0
LINE
  5
332
100
AcDbEntity
  8
ASSI
100
AcDbLine
 62
7
  6
CONTINUOUS
 10
-3.1173032135
 20
21.6326967865
 11
-3.1270760019
 21
21.2251044884
  0
LINE
  5
333
100
AcDbEntity
  8
0
100
AcDbLine
 62
7
  6
CONTINUOUS
 10
6.4738193966
 20
20.8476348052
 11
6.5872686779
 21
21.0745506493
  0
LINE
  5
334
100
AcDbEntity
  8
ASSI
100
AcDbLine
 62
7
  6
CONTINUOUS
 10
6.4738193966
 20
20.8476348052
 11
6.5872686779
 21
21.0745506493
  0
LINE
  5
335
100
AcDbEntity
  8
RACCORDO
100
AcDbLine
 62
7
  6
CONTINUOUS
 10
6.5872686779
 20
-21.0745506493
 11
6.4340630273
 21
-20.7681160106
  0
LINE
  5
336
100
AcDbEntity
  8
ASSI
100
AcDbLine
 62
7
  6
CONTINUOUS
 10
6.5872686779
 20
-21.0745506493
 11
6.4340630273
 21
-20.7681160106
  0
LINE
  5
337
100
AcDbEntity
  8
RACCORDO
100
AcDbLine
 62
7
  6
CONTINUOUS
 10
-6.4491732021
 20
19.3349933121
 11
-6.471338355
 21
19.4681025177
  0
LINE
  5
338
100
AcDbEntity
  8
ASSI
100
AcDbLine
 62
7
  6
CONTINUOUS
 10
-6.4491732021
 20
19.3349933121
 11
-6.471338355
 21
19.4681025177
  0
LINE
  5
339
100
AcDbEntity
  8
ASSI
100
AcDbLine
 62
7
  6
CONTINUOUS
 10
-0.8174550649
 20
23.7325830113
 11
-0.8174550649
 21
22.398254669
  0
LINE
  5
33A
100
AcDbEntity
  8
ASSI
100
AcDbLine
 62
7
  6
CONTINUOUS
 10
-0.8174550649
 20
-23.7325830113
 11
-0.8174550649
 21
-22.398254669
  0
LINE
  5
33B
100
AcDbEntity
  8
ASSI
100
AcDbLine
 62
7
  6
CONTINUOUS
 10
-0.8
 20
-23.7500380762
 11
-0.8
 21
-22.4
  0
LINE
  5
33C
100
AcDbEntity
  8
ASSI
100
AcDbLine
 62
7
  6
CONTINUOUS
 10
-0.8
 20
22.4
 11
-0.8
 21
23.7500380762
  0
LINE
  5
33D
100
AcDbEntity
  8
RACCORDO
100
AcDbLine
 62
7
  6
CONTINUOUS
 10
9.4974886323
 20
19.3349933121
 11
9.5639975984
 21
19.4681025177
  0
LINE
  5
33E
100
AcDbEntity
  8
ASSI
100
AcDbLine
 62
7
  6
CONTINUOUS
 10
9.4974886323
 20
19.3349933121
 11
9.5639975984
 21
19.4681025177
  0
LINE
  5
33F
100
AcDbEntity
  8
RACCORDO
100
AcDbLine
 62
7
  6
CONTINUOUS
 10
-9.4974886323
 20
19.3349933121
 11
-9.5639975984
 21
19.4681025177
  0
LINE
  5
340
100
AcDbEntity
  8
ASSI
100
AcDbLine
 62
7
  6
CONTINUOUS
 10
-9.4974886323
 20
19.3349933121
 11
-9.5639975984
 21
19.4681025177
  0
LINE
  5
341
100
AcDbEntity
  8
DRAFT
100
AcDbLine
 62
7
  6
CONTINUOUS
 10
-3.5440817452
 20
15.1
 11
-3.5
 21
14.85
  0
LINE
  5
342
100
AcDbEntity
  8
ASSI
100
AcDbLine
 62
7
  6
CONTINUOUS
 10
-3.5440817452
 20
15.1
 11
-3.5
 21
14.85
  0
LINE
  5
343
100
AcDbEntity
  8
ASSI
100
AcDbLine
 62
7
  6
CONTINUOUS
 10
0.8
 20
-23.7500380762
 11
0.8
 21
-22.4
  0
LINE
  5
344
100
AcDbEntity
  8
ASSI
100
AcDbLine
 62
7
  6
CONTINUOUS
 10
0.8
 20
22.4
 11
0.8
 21
23.7500380762
  0
LINE
  5
345
100
AcDbEntity
  8
ASSI
100
AcDbLine
 62
7
  6
CONTINUOUS
 10
0.8174550649
 20
23.7325830113
 11
0.8174550649
 21
22.398254669
  0
LINE
  5
346
100
AcDbEntity
  8
ASSI
100
AcDbLine
 62
7
  6
CONTINUOUS
 10
0.8174550649
 20
-23.7325830113
 11
0.8174550649
 21
-22.398254669
  0
LINE
  5
347
100
AcDbEntity
  8
0
100
AcDbLine
 62
7
  6
CONTINUOUS
 10
2.0
 20
11.0
 11
2.0
 21
6.0621778265
  0
LINE
  5
348
100
AcDbEntity
  8
DRAFT
100
AcDbLine
 62
7
  6
CONTINUOUS
 10
3.5440817452
 20
15.1
 11
3.5
 21
14.85
  0
LINE
  5
349
100
AcDbEntity
  8
ASSI
100
AcDbLine
 62
7
  6
CONTINUOUS
 10
3.5440817452
 20
15.1
 11
3.5
 21
14.85
  0
LINE
  5
34A
100
AcDbEntity
  8
ASSI
100
AcDbLine
 62
7
  6
CONTINUOUS
 10
3.1173032135
 20
21.6326967865
 11
3.1270760019
 21
21.2251044884
  0
LINE
  5
34B
100
AcDbEntity
  8
RACCORDO
100
AcDbLine
 62
7
  6
CONTINUOUS
 10
4.4550387927
 20
19.3349933121
 11
4.4559476337
 21
17.8439762139
  0
LINE
  5
34C
100
AcDbEntity
  8
ASSI
100
AcDbLine
 62
7
  6
CONTINUOUS
 10
4.4550387927
 20
19.3349933121
 11
4.4559476337
 21
17.8439762139
  0
LINE
  5
34D
100
AcDbEntity
  8
ASSI
100
AcDbLine
 62
7
  6
CONTINUOUS
 10
3.05
 20
-22.1325449336
 11
3.05
 21
-21.7
  0
LINE
  5
34E
100
AcDbEntity
  8
ASSI
100
AcDbLine
 62
7
  6
CONTINUOUS
 10
3.05
 20
21.7
 11
3.05
 21
22.1325449336
  0
LINE
  5
34F
100
AcDbEntity
  8
ASSI
100
AcDbLine
 62
7
  6
CONTINUOUS
 10
3.1351059998
 20
21.2252970227
 11
3.1351059998
 21
20.8901985088
  0
LINE
  5
350
100
AcDbEntity
  8
ASSI
100
AcDbLine
 62
7
  6
CONTINUOUS
 10
3.1351059998
 20
-20.8901985088
 11
3.1351059998
 21
-21.2252970227
  0
LINE
  5
351
100
AcDbEntity
  8
ASSI
100
AcDbLine
 62
253
  6
CONTINUOUS
 10
3.3850964806
 20
21.2252970227
 11
3.3850964806
 21
20.8
  0
LINE
  5
352
100
AcDbEntity
  8
ASSI
100
AcDbLine
 62
253
  6
CONTINUOUS
 10
3.3850964806
 20
-20.8
 11
3.3850964806
 21
-21.2252970227
  0
LINE
  5
353
100
AcDbEntity
  8
RACCORDO
100
AcDbLine
 62
7
  6
CONTINUOUS
 10
3.4
 20
14.1087982301
 11
3.4
 21
15.5068795788
  0
LINE
  5
354
100
AcDbEntity
  8
ASSI
100
AcDbLine
 62
7
  6
CONTINUOUS
 10
3.5
 20
-23.7325830113
 11
3.5
 21
-22.3825449351
  0
LINE
  5
355
100
AcDbEntity
  8
DRAFT
100
AcDbLine
 62
7
  6
CONTINUOUS
 10
3.5
 20
14.0
 11
3.5
 21
14.85
  0
LINE
  5
356
100
AcDbEntity
  8
ASSI
100
AcDbLine
 62
7
  6
CONTINUOUS
 10
3.5
 20
14.0
 11
3.5
 21
14.85
  0
LINE
  5
357
100
AcDbEntity
  8
ASSI
100
AcDbLine
 62
7
  6
CONTINUOUS
 10
3.5
 20
22.3825449351
 11
3.5
 21
23.7325830113
  0
LINE
  5
358
100
AcDbEntity
  8
DRAFT
100
AcDbLine
 62
7
  6
CONTINUOUS
 10
3.5440817452
 20
15.4965092529
 11
3.5440817452
 21
15.1
  0
LINE
  5
359
100
AcDbEntity
  8
ASSI
100
AcDbLine
 62
7
  6
CONTINUOUS
 10
3.5440817452
 20
15.4952002227
 11
3.5440817452
 21
15.1
  0
LINE
  5
35A
100
AcDbEntity
  8
ASSI
100
AcDbLine
 62
253
  6
CONTINUOUS
 10
3.5806626995
 20
23.6519203118
 11
3.5806609125
 21
22.3018840226
  0
LINE
  5
35B
100
AcDbEntity
  8
ASSI
100
AcDbLine
 62
253
  6
CONTINUOUS
 10
3.5806609125
 20
-22.3018840226
 11
3.5806626995
 21
-23.6519203118
  0
LINE
  5
35C
100
AcDbEntity
  8
RACCORDO
100
AcDbLine
 62
253
  6
CONTINUOUS
 10
3.8445737581
 20
17.4555023943
 11
3.8445737581
 21
20.0087268678
  0
LINE
  5
35D
100
AcDbEntity
  8
ASSI
100
AcDbLine
 62
253
  6
CONTINUOUS
 10
3.8445737581
 20
17.4555023943
 11
3.8445737581
 21
20.0087268678
  0
LINE
  5
35E
100
AcDbEntity
  8
COPY-PUBBLISH
100
AcDbLine
 62
7
  6
CONTINUOUS
 10
4.1
 20
-1.8547236991
 11
4.1
 21
1.8547236991
  0
LINE
  5
35F
100
AcDbEntity
  8
RACCORDO
100
AcDbLine
 62
253
  6
CONTINUOUS
 10
4.3444976057
 20
17.9554262419
 11
4.3444976057
 21
20.0044395863
  0
LINE
  5
360
100
AcDbEntity
  8
ASSI
100
AcDbLine
 62
253
  6
CONTINUOUS
 10
4.3444976057
 20
17.9554262419
 11
4.3444976057
 21
20.0044395863
  0
LINE
  5
361
100
AcDbEntity
  8
ASSI
100
AcDbLine
 62
253
  6
CONTINUOUS
 10
4.3518840226
 20
23.6519220988
 11
4.3518840226
 21
22.3018840226
  0
LINE
  5
362
100
AcDbEntity
  8
ASSI
100
AcDbLine
 62
253
  6
CONTINUOUS
 10
4.3518840226
 20
-22.3018840226
 11
4.3518840226
 21
-23.6519220988
  0
LINE
  5
363
100
AcDbEntity
  8
ASSI
100
AcDbLine
 62
7
  6
CONTINUOUS
 10
4.3539971429
 20
-23.5393800954
 11
4.3539971429
 21
-22.8606199046
  0
LINE
  5
364
100
AcDbEntity
  8
ASSI
100
AcDbLine
 62
7
  6
CONTINUOUS
 10
4.3539971429
 20
22.8606199046
 11
4.3539971429
 21
23.5393800954
  0
LINE
  5
365
100
AcDbEntity
  8
RACCORDO
100
AcDbLine
 62
7
  6
CONTINUOUS
 10
4.4057426494
 20
19.7676913781
 11
4.4057426494
 21
19.9738193966
  0
LINE
  5
366
100
AcDbEntity
  8
ASSI
100
AcDbLine
 62
7
  6
CONTINUOUS
 10
4.4057426494
 20
19.7676913781
 11
4.4057426494
 21
19.9738193966
  0
LINE
  5
367
100
AcDbEntity
  8
ASSI
100
AcDbLine
 62
7
  6
CONTINUOUS
 10
4.45
 20
23.7500380762
 11
4.45
 21
23.4179449472
  0
LINE
  5
368
100
AcDbEntity
  8
ASSI
100
AcDbLine
 62
7
  6
CONTINUOUS
 10
4.45
 20
22.9820550528
 11
4.45
 21
22.4
  0
LINE
  5
369
100
AcDbEntity
  8
ASSI
100
AcDbLine
 62
7
  6
CONTINUOUS
 10
4.45
 20
-22.4
 11
4.45
 21
-22.9820550528
  0
LINE
  5
36A
100
AcDbEntity
  8
ASSI
100
AcDbLine
 62
7
  6
CONTINUOUS
 10
4.45
 20
-23.4179449472
 11
4.45
 21
-23.7500380762
  0
LINE
  5
36B
100
AcDbEntity
  8
RACCORDO
100
AcDbLine
 62
7
  6
CONTINUOUS
 10
4.0536778182
 20
16.8790652807
 11
4.0441923537
 21
15.3385854114
  0
LINE
  5
36C
100
AcDbEntity
  8
ASSI
100
AcDbLine
 62
7
  6
CONTINUOUS
 10
4.0706736937
 20
15.3438299223
 11
4.0801268653
 21
16.8790652807
  0
LINE
  5
36D
100
AcDbEntity
  8
DRAFT
100
AcDbLine
 62
7
  6
CONTINUOUS
 10
3.7536149133
 20
15.5068795788
 11
3.7636147059
 21
16.5890021684
  0
LINE
  5
36E
100
AcDbEntity
  8
ASSI
100
AcDbLine
 62
7
  6
CONTINUOUS
 10
3.1270760019
 20
-21.2251044884
 11
3.1173032135
 21
-21.6326967865
  0
LINE
  5
36F
100
AcDbEntity
  8
RACCORDO
100
AcDbLine
 62
7
  6
CONTINUOUS
 10
6.4491732021
 20
19.3349933121
 11
6.471338355
 21
19.4681025177
  0
LINE
  5
370
100
AcDbEntity
  8
ASSI
100
AcDbLine
 62
7
  6
CONTINUOUS
 10
6.4491732021
 20
19.3349933121
 11
6.471338355
 21
19.4681025177
  0
LINE
  5
371
100
AcDbEntity
  8
RACCORDO
100
AcDbLine
 62
7
  6
CONTINUOUS
 10
-6.4340630273
 20
-20.7681160106
 11
-6.5872686779
 21
-21.0745506493
  0
LINE
  5
372
100
AcDbEntity
  8
ASSI
100
AcDbLine
 62
7
  6
CONTINUOUS
 10
-6.4340630273
 20
-20.7681160106
 11
-6.5872686779
 21
-21.0745506493
  0
LINE
  5
373
100
AcDbEntity
  8
0
100
AcDbLine
 62
7
  6
CONTINUOUS
 10
-6.5872686779
 20
21.0745506493
 11
-6.4738193966
 21
20.8476348052
  0
LINE
  5
374
100
AcDbEntity
  8
ASSI
100
AcDbLine
 62
7
  6
CONTINUOUS
 10
-6.5872686779
 20
21.0745506493
 11
-6.4738193966
 21
20.8476348052
  0
LINE
  5
375
100
AcDbEntity
  8
RACCORDO
100
AcDbLine
 62
253
  6
CONTINUOUS
 10
6.5872686779
 20
-20.0914350444
 11
6.4284810881
 21
-16.8831205658
  0
LINE
  5
376
100
AcDbEntity
  8
ASSI
100
AcDbLine
 62
253
  6
CONTINUOUS
 10
6.5872686779
 20
-20.0914350444
 11
6.4284810881
 21
-16.8831205658
  0
LINE
  5
377
100
AcDbEntity
  8
RACCORDO
100
AcDbLine
 62
253
  6
CONTINUOUS
 10
6.88682548
 20
-19.7872686779
 11
6.7280572421
 21
-16.5793452061
  0
LINE
  5
378
100
AcDbEntity
  8
ASSI
100
AcDbLine
 62
253
  6
CONTINUOUS
 10
6.88682548
 20
-19.7872686779
 11
6.7280572421
 21
-16.5793452061
  0
LINE
  5
379
100
AcDbEntity
  8
ASSI
100
AcDbLine
 62
253
  6
CONTINUOUS
 10
7.2
 20
-23.3515746082
 11
7.2135886019
 21
-23.8010362971
  0
LINE
  5
37A
100
AcDbEntity
  8
ASSI
100
AcDbLine
 62
7
  6
CONTINUOUS
 10
5.1254493507
 20
-21.0745506493
 11
5.1254493507
 21
-20.0872686779
  0
LINE
  5
37B
100
AcDbEntity
  8
ASSI
100
AcDbLine
 62
7
  6
CONTINUOUS
 10
5.1254493507
 20
20.0872686779
 11
5.1254493507
 21
21.0745506493
  0
LINE
  5
37C
100
AcDbEntity
  8
0
100
AcDbLine
 62
7
  6
CONTINUOUS
 10
5.3523651948
 20
19.9738193966
 11
5.3523651948
 21
20.8476348052
  0
LINE
  5
37D
100
AcDbEntity
  8
ASSI
100
AcDbLine
 62
7
  6
CONTINUOUS
 10
5.3523651948
 20
19.9738193966
 11
5.3523651948
 21
20.8476348052
  0
LINE
  5
37E
100
AcDbEntity
  8
0
100
AcDbLine
 62
7
  6
CONTINUOUS
 10
6.25
 20
-3.6084391824
 11
6.25
 21
3.6084391824
  0
LINE
  5
37F
100
AcDbEntity
  8
RACCORDO
100
AcDbLine
 62
7
  6
CONTINUOUS
 10
6.4738193966
 20
20.8476348052
 11
6.4738193966
 21
19.7676913781
  0
LINE
  5
380
100
AcDbEntity
  8
ASSI
100
AcDbLine
 62
7
  6
CONTINUOUS
 10
6.4738193966
 20
20.8476348052
 11
6.4738193966
 21
19.7676913781
  0
LINE
  5
381
100
AcDbEntity
  8
RACCORDO
100
AcDbLine
 62
7
  6
CONTINUOUS
 10
6.5872686779
 20
21.0745506493
 11
6.5872686779
 21
20.0914350444
  0
LINE
  5
382
100
AcDbEntity
  8
ASSI
100
AcDbLine
 62
7
  6
CONTINUOUS
 10
6.5872686779
 20
21.0745506493
 11
6.5872686779
 21
20.0914350444
  0
LINE
  5
383
100
AcDbEntity
  8
RACCORDO
100
AcDbLine
 62
7
  6
CONTINUOUS
 10
6.5872686779
 20
-20.0914350444
 11
6.5872686779
 21
-21.0745506493
  0
LINE
  5
384
100
AcDbEntity
  8
ASSI
100
AcDbLine
 62
7
  6
CONTINUOUS
 10
6.5872686779
 20
-20.0914350444
 11
6.5872686779
 21
-21.0745506493
  0
LINE
  5
385
100
AcDbEntity
  8
RACCORDO
100
AcDbLine
 62
7
  6
CONTINUOUS
 10
6.4485495676
 20
17.288605614
 11
6.4491732021
 21
19.3349933121
  0
LINE
  5
386
100
AcDbEntity
  8
ASSI
100
AcDbLine
 62
7
  6
CONTINUOUS
 10
6.4485495676
 20
17.288605614
 11
6.4491732021
 21
19.3349933121
  0
LINE
  5
387
100
AcDbEntity
  8
ASSI
100
AcDbLine
 62
253
  6
CONTINUOUS
 10
7.2135886019
 20
23.8010362971
 11
7.2
 21
23.3515746082
  0
LINE
  5
388
100
AcDbEntity
  8
RACCORDO
100
AcDbLine
 62
253
  6
CONTINUOUS
 10
6.5872686779
 20
20.0914350444
 11
6.4485495676
 21
17.288605614
  0
LINE
  5
389
100
AcDbEntity
  8
ASSI
100
AcDbLine
 62
253
  6
CONTINUOUS
 10
6.5872686779
 20
20.0914350444
 11
6.4485495676
 21
17.288605614
  0
LINE
  5
38A
100
AcDbEntity
  8
RACCORDO
100
AcDbLine
 62
253
  6
CONTINUOUS
 10
6.88682548
 20
19.7872686779
 11
6.7480131011
 21
16.9825547473
  0
LINE
  5
38B
100
AcDbEntity
  8
ASSI
100
AcDbLine
 62
253
  6
CONTINUOUS
 10
6.88682548
 20
19.7872686779
 11
6.7480131011
 21
16.9825547473
  0
LINE
  5
38C
100
AcDbEntity
  8
0
100
AcDbLine
 62
7
  6
CONTINUOUS
 10
-0.0
 20
-7.2168783649
 11
6.25
 21
-3.6084391824
  0
LINE
  5
38D
100
AcDbEntity
  8
0
100
AcDbLine
 62
7
  6
CONTINUOUS
 10
6.25
 20
3.6084391824
 11
-0.0
 21
7.2168783649
  0
LINE
  5
38E
100
AcDbEntity
  8
RACCORDO
100
AcDbLine
 62
253
  6
CONTINUOUS
 10
7.0519868989
 20
16.9825547473
 11
6.91317452
 21
19.7872686779
  0
LINE
  5
38F
100
AcDbEntity
  8
ASSI
100
AcDbLine
 62
253
  6
CONTINUOUS
 10
7.0519868989
 20
16.9825547473
 11
6.91317452
 21
19.7872686779
  0
LINE
  5
390
100
AcDbEntity
  8
RACCORDO
100
AcDbLine
 62
253
  6
CONTINUOUS
 10
7.3514504324
 20
17.288605614
 11
7.2127313221
 21
20.0914350444
  0
LINE
  5
391
100
AcDbEntity
  8
ASSI
100
AcDbLine
 62
253
  6
CONTINUOUS
 10
7.3514504324
 20
17.288605614
 11
7.2127313221
 21
20.0914350444
  0
LINE
  5
392
100
AcDbEntity
  8
ASSI
100
AcDbLine
 62
253
  6
CONTINUOUS
 10
7.3982849591
 20
-23.1226497308
 11
7.4135581657
 21
-23.6278320349
  0
LINE
  5
393
100
AcDbEntity
  8
ASSI
100
AcDbLine
 62
7
  6
CONTINUOUS
 10
8.5131674569
 20
-23.5581814706
 11
8.5
 21
-23.1226497308
  0
LINE
  5
394
100
AcDbEntity
  8
DRAFT
100
AcDbLine
 62
7
  6
CONTINUOUS
 10
7.6389602491
 20
16.8514272135
 11
7.6513850867
 21
15.5068795788
  0
LINE
  5
395
100
AcDbEntity
  8
ASSI
100
AcDbLine
 62
7
  6
CONTINUOUS
 10
7.3232622727
 20
17.1406761428
 11
7.3343263063
 21
15.3438299223
  0
LINE
  5
396
100
AcDbEntity
  8
ASSI
100
AcDbLine
 62
7
  6
CONTINUOUS
 10
7.7324086939
 20
14.2829147392
 11
7.7321188559
 21
14.334238337
  0
LINE
  5
397
100
AcDbEntity
  8
DRAFT
100
AcDbLine
 62
7
  6
CONTINUOUS
 10
7.7585765101
 20
14.2855051591
 11
7.7583308322
 21
14.3290471724
  0
LINE
  5
398
100
AcDbEntity
  8
RACCORDO
100
AcDbLine
 62
7
  6
CONTINUOUS
 10
7.3508267979
 20
19.3349933121
 11
7.3514504324
 21
17.288605614
  0
LINE
  5
399
100
AcDbEntity
  8
ASSI
100
AcDbLine
 62
7
  6
CONTINUOUS
 10
7.3508267979
 20
19.3349933121
 11
7.3514504324
 21
17.288605614
  0
LINE
  5
39A
100
AcDbEntity
  8
ASSI
100
AcDbLine
 62
7
  6
CONTINUOUS
 10
7.2
 20
-24.300030461
 11
7.2
 21
-22.4
  0
LINE
  5
39B
100
AcDbEntity
  8
ASSI
100
AcDbLine
 62
7
  6
CONTINUOUS
 10
7.2
 20
22.4
 11
7.2
 21
24.300030461
  0
LINE
  5
39C
100
AcDbEntity
  8
RACCORDO
100
AcDbLine
 62
7
  6
CONTINUOUS
 10
7.2127313221
 20
20.9872686779
 11
7.2127313221
 21
20.0914350444
  0
LINE
  5
39D
100
AcDbEntity
  8
ASSI
100
AcDbLine
 62
7
  6
CONTINUOUS
 10
7.2127313221
 20
20.9872686779
 11
7.2127313221
 21
20.0914350444
  0
LINE
  5
39E
100
AcDbEntity
  8
RACCORDO
100
AcDbLine
 62
7
  6
CONTINUOUS
 10
7.2127313221
 20
-20.0914350444
 11
7.2127313221
 21
-20.9872686779
  0
LINE
  5
39F
100
AcDbEntity
  8
ASSI
100
AcDbLine
 62
7
  6
CONTINUOUS
 10
7.2127313221
 20
-20.0914350444
 11
7.2127313221
 21
-20.9872686779
  0
LINE
  5
3A0
100
AcDbEntity
  8
ASSI
100
AcDbLine
 62
253
  6
CONTINUOUS
 10
7.2140249785
 20
24.2368706193
 11
7.2140249785
 21
23.8443375673
  0
LINE
  5
3A1
100
AcDbEntity
  8
ASSI
100
AcDbLine
 62
253
  6
CONTINUOUS
 10
7.2140249785
 20
-23.8443375673
 11
7.2140249785
 21
-24.2368706193
  0
LINE
  5
3A2
100
AcDbEntity
  8
RACCORDO
100
AcDbLine
 62
7
  6
CONTINUOUS
 10
7.3261806034
 20
20.8738193966
 11
7.3261806034
 21
19.7676913781
  0
LINE
  5
3A3
100
AcDbEntity
  8
ASSI
100
AcDbLine
 62
7
  6
CONTINUOUS
 10
7.3261806034
 20
20.8738193966
 11
7.3261806034
 21
19.7676913781
  0
LINE
  5
3A4
100
AcDbEntity
  8
ASSI
100
AcDbLine
 62
253
  6
CONTINUOUS
 10
7.4139945176
 20
24.2368706193
 11
7.4139945176
 21
23.8443359174
  0
LINE
  5
3A5
100
AcDbEntity
  8
ASSI
100
AcDbLine
 62
253
  6
CONTINUOUS
 10
7.4139945176
 20
-23.8443375673
 11
7.4139945176
 21
-24.2368735057
  0
LINE
  5
3A6
100
AcDbEntity
  8
ASSI
100
AcDbLine
 62
7
  6
CONTINUOUS
 10
7.7639384154
 20
15.5
 11
7.7639384154
 21
14.2860359481
  0
LINE
  5
3A7
100
AcDbEntity
  8
DRAFT
100
AcDbLine
 62
7
  6
CONTINUOUS
 10
7.7903874625
 20
15.5
 11
7.7903874625
 21
14.2886542078
  0
LINE
  5
3A8
100
AcDbEntity
  8
ASSI
100
AcDbLine
 62
7
  6
CONTINUOUS
 10
8.0579942858
 20
21.2252970227
 11
8.0579942858
 21
20.9872686779
  0
LINE
  5
3A9
100
AcDbEntity
  8
ASSI
100
AcDbLine
 62
7
  6
CONTINUOUS
 10
8.0579942858
 20
-20.9872686779
 11
8.0579942858
 21
-21.2252970227
  0
LINE
  5
3AA
100
AcDbEntity
  8
ASSI
100
AcDbLine
 62
7
  6
CONTINUOUS
 10
8.2325449351
 20
21.4051134101
 11
8.2325449351
 21
20.9
  0
LINE
  5
3AB
100
AcDbEntity
  8
ASSI
100
AcDbLine
 62
7
  6
CONTINUOUS
 10
8.2325449351
 20
-21.4051134101
 11
8.2325449351
 21
-20.9
  0
LINE
  5
3AC
100
AcDbEntity
  8
ASSI
100
AcDbLine
 62
7
  6
CONTINUOUS
 10
8.5
 20
-23.1226497308
 11
8.5
 21
-22.4
  0
LINE
  5
3AD
100
AcDbEntity
  8
ASSI
100
AcDbLine
 62
7
  6
CONTINUOUS
 10
8.5
 20
22.4
 11
8.5
 21
23.1226497308
  0
LINE
  5
3AE
100
AcDbEntity
  8
ASSI
100
AcDbLine
 62
253
  6
CONTINUOUS
 10
8.5131674569
 20
-23.5581814706
 11
8.5131674569
 21
-22.3868325431
  0
LINE
  5
3AF
100
AcDbEntity
  8
ASSI
100
AcDbLine
 62
253
  6
CONTINUOUS
 10
8.5131674569
 20
22.3868325431
 11
8.5131674569
 21
23.5581814706
  0
LINE
  5
3B0
100
AcDbEntity
  8
ASSI
100
AcDbLine
 62
253
  6
CONTINUOUS
 10
7.4135581409
 20
23.6278312163
 11
7.3982849591
 21
23.1226497308
  0
LINE
  5
3B1
100
AcDbEntity
  8
ASSI
100
AcDbLine
 62
7
  6
CONTINUOUS
 10
8.5
 20
23.1226497308
 11
8.5131674569
 21
23.5581814706
  0
LINE
  5
3B2
100
AcDbEntity
  8
RACCORDO
100
AcDbLine
 62
253
  6
CONTINUOUS
 10
6.91317452
 20
-19.7872686779
 11
7.0717935951
 21
-16.5823590509
  0
LINE
  5
3B3
100
AcDbEntity
  8
ASSI
100
AcDbLine
 62
253
  6
CONTINUOUS
 10
6.91317452
 20
-19.7872686779
 11
7.0717935951
 21
-16.5823590509
  0
LINE
  5
3B4
100
AcDbEntity
  8
RACCORDO
100
AcDbLine
 62
253
  6
CONTINUOUS
 10
7.2127313221
 20
-20.0914350444
 11
7.3711122677
 21
-16.8913368402
  0
LINE
  5
3B5
100
AcDbEntity
  8
ASSI
100
AcDbLine
 62
253
  6
CONTINUOUS
 10
7.2127313221
 20
-20.0914350444
 11
7.3711122677
 21
-16.8913368402
  0
LINE
  5
3B6
100
AcDbEntity
  8
RACCORDO
100
AcDbLine
 62
7
  6
CONTINUOUS
 10
9.639870208
 20
18.1129361064
 11
9.5
 21
16.7
  0
LINE
  5
3B7
100
AcDbEntity
  8
ASSI
100
AcDbLine
 62
7
  6
CONTINUOUS
 10
9.639870208
 20
18.1129361064
 11
9.5
 21
16.7
  0
LINE
  5
3B8
100
AcDbEntity
  8
DRAFT
100
AcDbLine
 62
7
  6
CONTINUOUS
 10
9.4954820773
 20
17.1406761428
 11
9.639870208
 21
18.1129361064
  0
LINE
  5
3B9
100
AcDbEntity
  8
ASSI
100
AcDbLine
 62
7
  6
CONTINUOUS
 10
9.4954820773
 20
17.1406761428
 11
9.639870208
 21
18.1129361064
  0
LINE
  5
3BA
100
AcDbEntity
  8
ASSI
100
AcDbLine
 62
253
  6
CONTINUOUS
 10
-10.6
 20
-22.3999999999
 11
-10.5826210875
 21
-22.3825449351
  0
LINE
  5
3BB
100
AcDbEntity
  8
ASSI
100
AcDbLine
 62
253
  6
CONTINUOUS
 10
-11.1
 20
-21.9000761524
 11
-11.0825449351
 21
-21.8826210875
  0
LINE
  5
3BC
100
AcDbEntity
  8
ASSI
100
AcDbLine
 62
253
  6
CONTINUOUS
 10
-11.0825449351
 20
21.8826210875
 11
-11.1
 21
21.9000761524
  0
LINE
  5
3BD
100
AcDbEntity
  8
ASSI
100
AcDbLine
 62
253
  6
CONTINUOUS
 10
-10.5826210875
 20
22.3825449351
 11
-10.6000000646
 21
22.3999999354
  0
LINE
  5
3BE
100
AcDbEntity
  8
RACCORDO
100
AcDbLine
 62
7
  6
CONTINUOUS
 10
9.4925054846
 20
16.8514272135
 11
9.5000023792
 21
16.6999519285
  0
LINE
  5
3BF
100
AcDbEntity
  8
ASSI
100
AcDbLine
 62
7
  6
CONTINUOUS
 10
9.4938991482
 20
16.8232681423
 11
9.5000023792
 21
16.6999519285
  0
LINE
  5
3C0
100
AcDbEntity
  8
ASSI
100
AcDbLine
 62
7
  6
CONTINUOUS
 10
9.3
 20
23.1226497308
 11
9.2868325431
 21
23.5581814706
  0
LINE
  5
3C1
100
AcDbEntity
  8
ASSI
100
AcDbLine
 62
7
  6
CONTINUOUS
 10
11.1
 20
-21.0
 11
11.0825449351
 21
-20.4226497308
  0
LINE
  5
3C2
100
AcDbEntity
  8
ASSI
100
AcDbLine
 62
253
  6
CONTINUOUS
 10
8.7631293807
 20
-23.8443375673
 11
8.7631293807
 21
-22.3825449351
  0
LINE
  5
3C3
100
AcDbEntity
  8
ASSI
100
AcDbLine
 62
253
  6
CONTINUOUS
 10
8.7631293807
 20
22.3825449351
 11
8.7631293807
 21
23.8443375673
  0
LINE
  5
3C4
100
AcDbEntity
  8
ASSI
100
AcDbLine
 62
253
  6
CONTINUOUS
 10
9.0368706193
 20
-23.8443375673
 11
9.0368706193
 21
-22.3825449351
  0
LINE
  5
3C5
100
AcDbEntity
  8
ASSI
100
AcDbLine
 62
253
  6
CONTINUOUS
 10
9.0368706193
 20
22.3825449351
 11
9.0368706193
 21
23.8443375673
  0
LINE
  5
3C6
100
AcDbEntity
  8
ASSI
100
AcDbLine
 62
253
  6
CONTINUOUS
 10
9.2868325431
 20
-23.5581814706
 11
9.2868325431
 21
-22.3868325431
  0
LINE
  5
3C7
100
AcDbEntity
  8
ASSI
100
AcDbLine
 62
253
  6
CONTINUOUS
 10
9.2868325431
 20
22.3868325431
 11
9.2868325431
 21
23.5581814706
  0
LINE
  5
3C8
100
AcDbEntity
  8
ASSI
100
AcDbLine
 62
7
  6
CONTINUOUS
 10
9.3
 20
-23.1226497308
 11
9.3
 21
-22.4
  0
LINE
  5
3C9
100
AcDbEntity
  8
ASSI
100
AcDbLine
 62
7
  6
CONTINUOUS
 10
9.3
 20
22.4
 11
9.3
 21
23.1226497308
  0
LINE
  5
3CA
100
AcDbEntity
  8
DRAFT
100
AcDbLine
 62
7
  6
CONTINUOUS
 10
9.5
 20
14.2886542078
 11
9.5
 21
16.7
  0
LINE
  5
3CB
100
AcDbEntity
  8
ASSI
100
AcDbLine
 62
7
  6
CONTINUOUS
 10
9.5
 20
14.2860359481
 11
9.5
 21
16.7
  0
LINE
  5
3CC
100
AcDbEntity
  8
RACCORDO
100
AcDbLine
 62
7
  6
CONTINUOUS
 10
9.5714422353
 20
20.8738193966
 11
9.5714422353
 21
19.7676913781
  0
LINE
  5
3CD
100
AcDbEntity
  8
ASSI
100
AcDbLine
 62
7
  6
CONTINUOUS
 10
9.5714422353
 20
20.8738193966
 11
9.5714422353
 21
19.7676913781
  0
LINE
  5
3CE
100
AcDbEntity
  8
DRAFT
100
AcDbLine
 62
7
  6
CONTINUOUS
 10
9.639870208
 20
18.1129361064
 11
9.639870208
 21
14.1487839997
  0
LINE
  5
3CF
100
AcDbEntity
  8
ASSI
100
AcDbLine
 62
7
  6
CONTINUOUS
 10
9.639870208
 20
18.1129361064
 11
9.639870208
 21
14.14616574
  0
LINE
  5
3D0
100
AcDbEntity
  8
ASSI
100
AcDbLine
 62
7
  6
CONTINUOUS
 10
9.65
 20
20.9
 11
9.65
 21
-20.9
  0
LINE
  5
3D1
100
AcDbEntity
  8
ASSI
100
AcDbLine
 62
253
  6
CONTINUOUS
 10
10.3860054824
 20
24.2368706193
 11
10.3860054824
 21
23.844250724
  0
LINE
  5
3D2
100
AcDbEntity
  8
ASSI
100
AcDbLine
 62
253
  6
CONTINUOUS
 10
10.3860054824
 20
-23.844357602
 11
10.3860054824
 21
-24.2368706193
  0
LINE
  5
3D3
100
AcDbEntity
  8
ASSI
100
AcDbLine
 62
253
  6
CONTINUOUS
 10
10.5859750215
 20
24.2368706193
 11
10.5859750215
 21
23.8443375673
  0
LINE
  5
3D4
100
AcDbEntity
  8
ASSI
100
AcDbLine
 62
253
  6
CONTINUOUS
 10
10.5859750215
 20
-23.8443375673
 11
10.5859750215
 21
-24.2368706193
  0
LINE
  5
3D5
100
AcDbEntity
  8
ASSI
100
AcDbLine
 62
7
  6
CONTINUOUS
 10
10.6
 20
22.3999997358
 11
10.6
 21
24.300030461
  0
LINE
  5
3D6
100
AcDbEntity
  8
ASSI
100
AcDbLine
 62
7
  6
CONTINUOUS
 10
10.6000000646
 20
-22.3999999296
 11
10.6
 21
-24.300030461
  0
LINE
  5
3D7
100
AcDbEntity
  8
DRAFT
100
AcDbLine
 62
7
  6
CONTINUOUS
 10
9.4954820773
 20
17.1406761428
 11
9.4974886323
 21
19.3349933121
  0
LINE
  5
3D8
100
AcDbEntity
  8
ASSI
100
AcDbLine
 62
7
  6
CONTINUOUS
 10
9.4954820773
 20
17.1406761428
 11
9.4974886323
 21
19.3349933121
  0
LINE
  5
3D9
100
AcDbEntity
  8
ASSI
100
AcDbLine
 62
7
  6
CONTINUOUS
 10
9.2868325431
 20
-23.5581814706
 11
9.3
 21
-23.1226497308
  0
LINE
  5
3DA
100
AcDbEntity
  8
ASSI
100
AcDbLine
 62
7
  6
CONTINUOUS
 10
11.0825449351
 20
20.4226497308
 11
11.1
 21
21.0
  0
LINE
  5
3DB
100
AcDbEntity
  8
ASSI
100
AcDbLine
 62
7
  6
CONTINUOUS
 10
-9.3
 20
-22.4
 11
-9.2868325431
 21
-22.3868325431
  0
LINE
  5
3DC
100
AcDbEntity
  8
ASSI
100
AcDbLine
 62
253
  6
CONTINUOUS
 10
-10.6
 20
-24.300030461
 11
-10.5868325431
 21
-24.2868630041
  0
LINE
  5
3DD
100
AcDbEntity
  8
ASSI
100
AcDbLine
 62
253
  6
CONTINUOUS
 10
-10.400030461
 20
-24.5
 11
-10.3868630041
 21
-24.4868325431
  0
LINE
  5
3DE
100
AcDbEntity
  8
ASSI
100
AcDbLine
 62
7
  6
CONTINUOUS
 10
-4.0801268653
 20
16.8790652807
 11
-3.7768392294
 21
16.5757776449
  0
LINE
  5
3DF
100
AcDbEntity
  8
DRAFT
100
AcDbLine
 62
7
  6
CONTINUOUS
 10
-4.0536778182
 20
16.8790652807
 11
-3.7636147059
 21
16.5890021684
  0
LINE
  5
3E0
100
AcDbEntity
  8
ASSI
100
AcDbLine
 62
7
  6
CONTINUOUS
 10
-9.3
 20
22.4
 11
-9.2868325431
 21
22.3868325431
  0
LINE
  5
3E1
100
AcDbEntity
  8
ASSI
100
AcDbLine
 62
253
  6
CONTINUOUS
 10
-10.5868325431
 20
24.286863004
 11
-10.6
 21
24.300030461
  0
LINE
  5
3E2
100
AcDbEntity
  8
ASSI
100
AcDbLine
 62
253
  6
CONTINUOUS
 10
-10.3868630041
 20
24.4868325431
 11
-10.400030461
 21
24.5
  0
LINE
  5
3E3
100
AcDbEntity
  8
RACCORDO
100
AcDbLine
 62
7
  6
CONTINUOUS
 10
4.4550387927
 20
19.3349933121
 11
4.4107051106
 21
19.4681025177
  0
LINE
  5
3E4
100
AcDbEntity
  8
ASSI
100
AcDbLine
 62
7
  6
CONTINUOUS
 10
4.4550387927
 20
19.3349933121
 11
4.4107051106
 21
19.4681025177
  0
LINE
  5
3E5
100
AcDbEntity
  8
RACCORDO
100
AcDbLine
 62
7
  6
CONTINUOUS
 10
7.3508267979
 20
19.3349933121
 11
7.328661645
 21
19.4681025177
  0
LINE
  5
3E6
100
AcDbEntity
  8
ASSI
100
AcDbLine
 62
7
  6
CONTINUOUS
 10
7.3508267979
 20
19.3349933121
 11
7.328661645
 21
19.4681025177
  0
LINE
  5
3E7
100
AcDbEntity
  8
ASSI
100
AcDbLine
 62
7
  6
CONTINUOUS
 10
11.1261859216
 20
20.4226497308
 11
11.1
 21
21.0
  0
LINE
  5
3E8
100
AcDbEntity
  8
ASSI
100
AcDbLine
 62
253
  6
CONTINUOUS
 10
10.3864421556
 20
23.6278214068
 11
10.4017150409
 21
23.1226497308
  0
LINE
  5
3E9
100
AcDbEntity
  8
ASSI
100
AcDbLine
 62
253
  6
CONTINUOUS
 10
10.5864113981
 20
23.8010362971
 11
10.6
 21
23.3515746082
  0
LINE
  5
3EA
100
AcDbEntity
  8
ASSI
100
AcDbLine
 62
7
  6
CONTINUOUS
 10
11.0825449351
 20
21.8826210875
 11
11.0825449351
 21
20.4226497308
  0
LINE
  5
3EB
100
AcDbEntity
  8
ASSI
100
AcDbLine
 62
7
  6
CONTINUOUS
 10
11.0825449351
 20
-20.4226497308
 11
11.0825449351
 21
-21.8826210875
  0
LINE
  5
3EC
100
AcDbEntity
  8
ASSI
100
AcDbLine
 62
7
  6
CONTINUOUS
 10
11.1
 20
21.9000761524
 11
11.1
 21
21.0
  0
LINE
  5
3ED
100
AcDbEntity
  8
ASSI
100
AcDbLine
 62
7
  6
CONTINUOUS
 10
11.1
 20
-21.9000761524
 11
11.1
 21
-21.0
  0
LINE
  5
3EE
100
AcDbEntity
  8
ASSI
100
AcDbLine
 62
7
  6
CONTINUOUS
 10
11.1261859216
 20
-20.4226497308
 11
11.1261859216
 21
20.4226497308
  0
LINE
  5
3EF
100
AcDbEntity
  8
ASSI
100
AcDbLine
 62
253
  6
CONTINUOUS
 10
10.4017150409
 20
-23.1226497308
 11
10.3864405812
 21
-23.6278734826
  0
LINE
  5
3F0
100
AcDbEntity
  8
ASSI
100
AcDbLine
 62
253
  6
CONTINUOUS
 10
10.6
 20
-23.3515746082
 11
10.5864113981
 21
-23.8010362971
  0
LINE
  5
3F1
100
AcDbEntity
  8
ASSI
100
AcDbLine
 62
7
  6
CONTINUOUS
 10
11.1
 20
-21.0
 11
11.1261859216
 21
-20.4226497308
  0
LINE
  5
3F2
100
AcDbEntity
  8
ASSI
100
AcDbLine
 62
253
  6
CONTINUOUS
 10
3.1286750776
 20
-21.975182794
 11
3.05
 21
-22.1325449336
  0
LINE
  5
3F3
100
AcDbEntity
  8
ASSI
100
AcDbLine
 62
253
  6
CONTINUOUS
 10
3.3786655583
 20
-22.2251447178
 11
3.2999714434
 21
-22.3825449351
  0
LINE
  5
3F4
100
AcDbEntity
  8
ASSI
100
AcDbLine
 62
7
  6
CONTINUOUS
 10
-4.45
 20
-22.4
 11
-4.3518840226
 21
-22.3018840226
  0
LINE
  5
3F5
100
AcDbEntity
  8
ASSI
100
AcDbLine
 62
7
  6
CONTINUOUS
 10
-4.45
 20
22.4
 11
-4.3518840226
 21
22.3018840226
  0
LINE
  5
3F6
100
AcDbEntity
  8
ASSI
100
AcDbLine
 62
253
  6
CONTINUOUS
 10
3.05
 20
22.1325449336
 11
3.1286750776
 21
21.975182794
  0
LINE
  5
3F7
100
AcDbEntity
  8
ASSI
100
AcDbLine
 62
253
  6
CONTINUOUS
 10
3.2999714434
 20
22.3825449351
 11
3.3786655583
 21
22.2251447178
  0
LINE
  5
3F8
100
AcDbEntity
  8
ASSI
100
AcDbLine
 62
7
  6
CONTINUOUS
 10
7.3012233427
 20
-22.2251447178
 11
7.2551134101
 21
-22.3825449351
  0
LINE
  5
3F9
100
AcDbEntity
  8
ASSI
100
AcDbLine
 62
253
  6
CONTINUOUS
 10
-4.3518822356
 20
-23.6519203118
 11
-4.45
 21
-23.7500380762
  0
LINE
  5
3FA
100
AcDbEntity
  8
ASSI
100
AcDbLine
 62
253
  6
CONTINUOUS
 10
-4.1019220988
 20
-23.9018840226
 11
-4.2000380762
 21
-24.0
  0
LINE
  5
3FB
100
AcDbEntity
  8
RACCORDO
100
AcDbLine
 62
7
  6
CONTINUOUS
 10
3.6156939816
 20
14.3229126753
 11
3.8741265095
 21
14.374094081
  0
LINE
  5
3FC
100
AcDbEntity
  8
ASSI
100
AcDbLine
 62
7
  6
CONTINUOUS
 10
3.6423024701
 20
14.3281823674
 11
3.9006078495
 21
14.3793385919
  0
LINE
  5
3FD
100
AcDbEntity
  8
ASSI
100
AcDbLine
 62
7
  6
CONTINUOUS
 10
7.7639384154
 20
14.2860359481
 11
7.7324086939
 21
14.2829147392
  0
LINE
  5
3FE
100
AcDbEntity
  8
DRAFT
100
AcDbLine
 62
7
  6
CONTINUOUS
 10
7.7585765101
 20
14.2855051591
 11
7.7903874625
 21
14.2886542078
  0
LINE
  5
3FF
100
AcDbEntity
  8
DRAFT
100
AcDbLine
 62
7
  6
CONTINUOUS
 10
-3.5
 20
14.0
 11
-3.6136352726
 21
13.9887509498
  0
LINE
  5
400
100
AcDbEntity
  8
ASSI
100
AcDbLine
 62
7
  6
CONTINUOUS
 10
-3.5
 20
14.0
 11
-3.6401955184
 21
13.9861216822
  0
LINE
  5
401
100
AcDbEntity
  8
RACCORDO
100
AcDbLine
 62
7
  6
CONTINUOUS
 10
-3.1
 20
13.8092093697
 11
3.1
 21
13.8092093697
  0
LINE
  5
402
100
AcDbEntity
  8
DRAFT
100
AcDbLine
 62
7
  6
CONTINUOUS
 10
-3.5
 20
14.0
 11
-3.3793659717
 21
14.0
  0
LINE
  5
403
100
AcDbEntity
  8
ASSI
100
AcDbLine
 62
7
  6
CONTINUOUS
 10
-3.5
 20
14.0
 11
-3.3793659717
 21
14.0
  0
LINE
  5
404
100
AcDbEntity
  8
DRAFT
100
AcDbLine
 62
7
  6
CONTINUOUS
 10
3.3793659717
 20
14.0
 11
3.5
 21
14.0
  0
LINE
  5
405
100
AcDbEntity
  8
ASSI
100
AcDbLine
 62
7
  6
CONTINUOUS
 10
3.3793659717
 20
14.0
 11
3.5
 21
14.0
  0
LINE
  5
406
100
AcDbEntity
  8
ASSI
100
AcDbLine
 62
7
  6
CONTINUOUS
 10
9.5
 20
14.2860359481
 11
7.7639384154
 21
14.2860359481
  0
LINE
  5
407
100
AcDbEntity
  8
ASSI
100
AcDbLine
 62
7
  6
CONTINUOUS
 10
-7.7639384154
 20
14.2860359481
 11
-9.5
 21
14.2860359481
  0
LINE
  5
408
100
AcDbEntity
  8
DRAFT
100
AcDbLine
 62
7
  6
CONTINUOUS
 10
-9.5
 20
14.2886542078
 11
-7.7903874625
 21
14.2886542078
  0
LINE
  5
409
100
AcDbEntity
  8
DRAFT
100
AcDbLine
 62
7
  6
CONTINUOUS
 10
7.7903874625
 20
14.2886542078
 11
9.5
 21
14.2886542078
  0
LINE
  5
40A
100
AcDbEntity
  8
RACCORDO
100
AcDbLine
 62
253
  6
CONTINUOUS
 10
-7.5308734905
 20
14.374094081
 11
-3.8741265095
 21
14.374094081
  0
LINE
  5
40B
100
AcDbEntity
  8
RACCORDO
100
AcDbLine
 62
253
  6
CONTINUOUS
 10
3.8741265095
 20
14.374094081
 11
7.5308734905
 21
14.374094081
  0
LINE
  5
40C
100
AcDbEntity
  8
ASSI
100
AcDbLine
 62
253
  6
CONTINUOUS
 10
-7.5043921505
 20
14.3793385919
 11
-3.9006078495
 21
14.3793385919
  0
LINE
  5
40D
100
AcDbEntity
  8
ASSI
100
AcDbLine
 62
253
  6
CONTINUOUS
 10
3.9006078495
 20
14.3793385919
 11
7.5043921505
 21
14.3793385919
  0
LINE
  5
40E
100
AcDbEntity
  8
DRAFT
100
AcDbLine
 62
7
  6
CONTINUOUS
 10
-3.5
 20
14.85
 11
-3.4
 21
14.85
  0
LINE
  5
40F
100
AcDbEntity
  8
ASSI
100
AcDbLine
 62
7
  6
CONTINUOUS
 10
-3.5
 20
14.85
 11
-3.4
 21
14.85
  0
LINE
  5
410
100
AcDbEntity
  8
DRAFT
100
AcDbLine
 62
7
  6
CONTINUOUS
 10
3.4
 20
14.85
 11
3.5
 21
14.85
  0
LINE
  5
411
100
AcDbEntity
  8
ASSI
100
AcDbLine
 62
7
  6
CONTINUOUS
 10
3.4
 20
14.85
 11
3.5
 21
14.85
  0
LINE
  5
412
100
AcDbEntity
  8
DRAFT
100
AcDbLine
 62
7
  6
CONTINUOUS
 10
-3.5440817452
 20
15.1
 11
-3.4
 21
15.1
  0
LINE
  5
413
100
AcDbEntity
  8
ASSI
100
AcDbLine
 62
7
  6
CONTINUOUS
 10
3.5440817452
 20
15.1
 11
3.4
 21
15.1
  0
LINE
  5
414
100
AcDbEntity
  8
DRAFT
100
AcDbLine
 62
7
  6
CONTINUOUS
 10
3.4
 20
15.1
 11
3.5440817452
 21
15.1
  0
LINE
  5
415
100
AcDbEntity
  8
ASSI
100
AcDbLine
 62
7
  6
CONTINUOUS
 10
-3.4
 20
15.1
 11
-3.5440817452
 21
15.1
  0
LINE
  5
416
100
AcDbEntity
  8
RACCORDO
100
AcDbLine
 62
7
  6
CONTINUOUS
 10
-7.7585765101
 20
14.2855051591
 11
-7.7903874625
 21
14.2886542078
  0
LINE
  5
417
100
AcDbEntity
  8
ASSI
100
AcDbLine
 62
7
  6
CONTINUOUS
 10
-7.7324086939
 20
14.2829147392
 11
-7.7639384154
 21
14.2860359481
  0
LINE
  5
418
100
AcDbEntity
  8
DRAFT
100
AcDbLine
 62
7
  6
CONTINUOUS
 10
3.5
 20
14.0
 11
3.6136352726
 21
13.9887509498
  0
LINE
  5
419
100
AcDbEntity
  8
ASSI
100
AcDbLine
 62
7
  6
CONTINUOUS
 10
3.5
 20
14.0
 11
3.6401955184
 21
13.9861216822
  0
LINE
  5
41A
100
AcDbEntity
  8
RACCORDO
100
AcDbLine
 62
7
  6
CONTINUOUS
 10
-3.6652542839
 20
14.3327278714
 11
-3.8741265095
 21
14.374094081
  0
LINE
  5
41B
100
AcDbEntity
  8
ASSI
100
AcDbLine
 62
7
  6
CONTINUOUS
 10
-3.6918647166
 20
14.3379979485
 11
-3.9006078495
 21
14.3793385919
  0
LINE
  5
41C
100
AcDbEntity
  8
ASSI
100
AcDbLine
 62
253
  6
CONTINUOUS
 10
-4.45
 20
23.7500380762
 11
-4.3518822356
 21
23.6519203118
  0
LINE
  5
41D
100
AcDbEntity
  8
ASSI
100
AcDbLine
 62
253
  6
CONTINUOUS
 10
-4.2000380762
 20
24.0
 11
-4.1019220988
 21
23.9018840226
  0
LINE
  5
41E
100
AcDbEntity
  8
RACCORDO
100
AcDbLine
 62
253
  6
CONTINUOUS
 10
3.8445737581
 20
17.4555023943
 11
3.9563286977
 21
17.3437474547
  0
LINE
  5
41F
100
AcDbEntity
  8
ASSI
100
AcDbLine
 62
253
  6
CONTINUOUS
 10
3.8445737581
 20
17.4555023943
 11
3.9563286977
 21
17.3437474547
  0
LINE
  5
420
100
AcDbEntity
  8
ASSI
100
AcDbLine
 62
7
  6
CONTINUOUS
 10
7.3012233427
 20
22.2251447178
 11
7.2551134101
 21
22.3825449351
  0
LINE
  5
421
100
AcDbEntity
  8
RACCORDO
100
AcDbLine
 62
7
  6
CONTINUOUS
 10
-9.4564965907
 20
-20.8355119633
 11
-9.65
 21
-20.9
  0
LINE
  5
422
100
AcDbEntity
  8
ASSI
100
AcDbLine
 62
7
  6
CONTINUOUS
 10
-9.4564965907
 20
-20.8355119633
 11
-9.65
 21
-20.9
  0
LINE
  5
423
100
AcDbEntity
  8
RACCORDO
100
AcDbLine
 62
7
  6
CONTINUOUS
 10
-7.7093037967
 20
14.3387567574
 11
-7.5308734905
 21
14.374094081
  0
LINE
  5
424
100
AcDbEntity
  8
ASSI
100
AcDbLine
 62
7
  6
CONTINUOUS
 10
-7.6830924613
 20
14.343947795
 11
-7.5043921505
 21
14.3793385919
  0
LINE
  5
425
100
AcDbEntity
  8
DRAFT
100
AcDbLine
 62
7
  6
CONTINUOUS
 10
3.6146125375
 20
15.5
 11
3.7536149133
 21
15.5068795788
  0
LINE
  5
426
100
AcDbEntity
  8
DRAFT
100
AcDbLine
 62
7
  6
CONTINUOUS
 10
-7.7640030443
 20
15.5013058315
 11
-7.6513850867
 21
15.5068795788
  0
LINE
  5
427
100
AcDbEntity
  8
RACCORDO
100
AcDbLine
 62
253
  6
CONTINUOUS
 10
-7.3608076463
 20
15.3385854114
 11
-4.0441923537
 21
15.3385854114
  0
LINE
  5
428
100
AcDbEntity
  8
RACCORDO
100
AcDbLine
 62
253
  6
CONTINUOUS
 10
4.0441923537
 20
15.3385854114
 11
7.3608076463
 21
15.3385854114
  0
LINE
  5
429
100
AcDbEntity
  8
ASSI
100
AcDbLine
 62
253
  6
CONTINUOUS
 10
-7.3343263063
 20
15.3438299223
 11
-4.0706736937
 21
15.3438299223
  0
LINE
  5
42A
100
AcDbEntity
  8
ASSI
100
AcDbLine
 62
253
  6
CONTINUOUS
 10
4.0706736937
 20
15.3438299223
 11
7.3343263063
 21
15.3438299223
  0
LINE
  5
42B
100
AcDbEntity
  8
DRAFT
100
AcDbLine
 62
7
  6
CONTINUOUS
 10
-8.15
 20
15.5
 11
-7.7639384154
 21
15.5
  0
LINE
  5
42C
100
AcDbEntity
  8
DRAFT
100
AcDbLine
 62
7
  6
CONTINUOUS
 10
-3.752152339
 20
15.5
 11
-3.4
 21
15.5
  0
LINE
  5
42D
100
AcDbEntity
  8
DRAFT
100
AcDbLine
 62
7
  6
CONTINUOUS
 10
3.4
 20
15.5
 11
3.752152339
 21
15.5
  0
LINE
  5
42E
100
AcDbEntity
  8
DRAFT
100
AcDbLine
 62
7
  6
CONTINUOUS
 10
7.7639384154
 20
15.5
 11
8.15
 21
15.5
  0
LINE
  5
42F
100
AcDbEntity
  8
RACCORDO
100
AcDbLine
 62
7
  6
CONTINUOUS
 10
-9.15
 20
15.5068795788
 11
-7.6513850867
 21
15.5068795788
  0
LINE
  5
430
100
AcDbEntity
  8
RACCORDO
100
AcDbLine
 62
7
  6
CONTINUOUS
 10
-3.7536149133
 20
15.5068795788
 11
-3.4
 21
15.5068795788
  0
LINE
  5
431
100
AcDbEntity
  8
DRAFT
100
AcDbLine
 62
7
  6
CONTINUOUS
 10
3.7636147059
 20
16.5890021684
 11
-3.7636147059
 21
16.5890021684
  0
LINE
  5
432
100
AcDbEntity
  8
DRAFT
100
AcDbLine
 62
7
  6
CONTINUOUS
 10
9.4925054846
 20
16.8514272135
 11
7.6389602491
 21
16.8514272135
  0
LINE
  5
433
100
AcDbEntity
  8
DRAFT
100
AcDbLine
 62
7
  6
CONTINUOUS
 10
-7.6389602491
 20
16.8514272135
 11
-9.4925054846
 21
16.8514272135
  0
LINE
  5
434
100
AcDbEntity
  8
ASSI
100
AcDbLine
 62
7
  6
CONTINUOUS
 10
-4.0801268653
 20
16.8790652807
 11
4.0801268653
 21
16.8790652807
  0
LINE
  5
435
100
AcDbEntity
  8
DRAFT
100
AcDbLine
 62
7
  6
CONTINUOUS
 10
4.0536778182
 20
16.8790652807
 11
-4.0536778182
 21
16.8790652807
  0
LINE
  5
436
100
AcDbEntity
  8
RACCORDO
100
AcDbLine
 62
7
  6
CONTINUOUS
 10
-7.0519868989
 20
16.9825547473
 11
-6.7480131011
 21
16.9825547473
  0
LINE
  5
437
100
AcDbEntity
  8
ASSI
100
AcDbLine
 62
7
  6
CONTINUOUS
 10
-7.0519868989
 20
16.9825547473
 11
-6.7480131011
 21
16.9825547473
  0
LINE
  5
438
100
AcDbEntity
  8
RACCORDO
100
AcDbLine
 62
7
  6
CONTINUOUS
 10
6.7480131011
 20
16.9825547473
 11
7.0519868989
 21
16.9825547473
  0
LINE
  5
439
100
AcDbEntity
  8
ASSI
100
AcDbLine
 62
7
  6
CONTINUOUS
 10
6.7480131011
 20
16.9825547473
 11
7.0519868989
 21
16.9825547473
  0
LINE
  5
43A
100
AcDbEntity
  8
RACCORDO
100
AcDbLine
 62
7
  6
CONTINUOUS
 10
9.4954820773
 20
17.1406761428
 11
7.3514955137
 21
17.1406761428
  0
LINE
  5
43B
100
AcDbEntity
  8
ASSI
100
AcDbLine
 62
7
  6
CONTINUOUS
 10
9.4954820773
 20
17.1406761428
 11
7.3232622727
 21
17.1406761428
  0
LINE
  5
43C
100
AcDbEntity
  8
RACCORDO
100
AcDbLine
 62
7
  6
CONTINUOUS
 10
-7.3514955137
 20
17.1406761428
 11
-9.4954820773
 21
17.1406761428
  0
LINE
  5
43D
100
AcDbEntity
  8
ASSI
100
AcDbLine
 62
7
  6
CONTINUOUS
 10
-7.3232622727
 20
17.1406761428
 11
-9.4954820773
 21
17.1406761428
  0
LINE
  5
43E
100
AcDbEntity
  8
DRAFT
100
AcDbLine
 62
7
  6
CONTINUOUS
 10
-3.7536149133
 20
15.5068795788
 11
-3.6146125375
 21
15.5
  0
LINE
  5
43F
100
AcDbEntity
  8
DRAFT
100
AcDbLine
 62
7
  6
CONTINUOUS
 10
7.6513850867
 20
15.5068795788
 11
7.7640030443
 21
15.5013058315
  0
LINE
  5
440
100
AcDbEntity
  8
RACCORDO
100
AcDbLine
 62
7
  6
CONTINUOUS
 10
7.7583308322
 20
14.3290471724
 11
7.5308734905
 21
14.374094081
  0
LINE
  5
441
100
AcDbEntity
  8
ASSI
100
AcDbLine
 62
7
  6
CONTINUOUS
 10
7.7321188559
 20
14.334238337
 11
7.5043921505
 21
14.3793385919
  0
LINE
  5
442
100
AcDbEntity
  8
0
100
AcDbLine
 62
7
  6
CONTINUOUS
 10
-9.5714422353
 20
20.8738193966
 11
-9.65
 21
20.9
  0
LINE
  5
443
100
AcDbEntity
  8
ASSI
100
AcDbLine
 62
7
  6
CONTINUOUS
 10
-9.5714422353
 20
20.8738193966
 11
-9.65
 21
20.9
  0
LINE
  5
444
100
AcDbEntity
  8
ASSI
100
AcDbLine
 62
7
  6
CONTINUOUS
 10
9.4375784291
 20
14.281009806
 11
9.639870208
 21
14.14616574
  0
LINE
  5
445
100
AcDbEntity
  8
DRAFT
100
AcDbLine
 62
7
  6
CONTINUOUS
 10
9.4375805259
 20
14.283626668
 11
9.639870208
 21
14.1487839997
  0
LINE
  5
446
100
AcDbEntity
  8
RACCORDO
100
AcDbLine
 62
253
  6
CONTINUOUS
 10
4.3444976057
 20
17.9554262419
 11
4.4559476337
 21
17.8439762139
  0
LINE
  5
447
100
AcDbEntity
  8
ASSI
100
AcDbLine
 62
253
  6
CONTINUOUS
 10
4.3444976057
 20
17.9554262419
 11
4.4559476337
 21
17.8439762139
  0
LINE
  5
448
100
AcDbEntity
  8
ASSI
100
AcDbLine
 62
7
  6
CONTINUOUS
 10
9.5
 20
14.2860359481
 11
9.639870208
 21
14.14616574
  0
LINE
  5
449
100
AcDbEntity
  8
DRAFT
100
AcDbLine
 62
7
  6
CONTINUOUS
 10
9.5
 20
14.2886542078
 11
9.639870208
 21
14.1487839997
  0
LINE
  5
44A
100
AcDbEntity
  8
ASSI
100
AcDbLine
 62
253
  6
CONTINUOUS
 10
0.8174550649
 20
-23.7325830113
 11
0.8
 21
-23.7500380762
  0
LINE
  5
44B
100
AcDbEntity
  8
ASSI
100
AcDbLine
 62
7
  6
CONTINUOUS
 10
3.1173032135
 20
-21.6326967865
 11
3.05
 21
-21.7
  0
LINE
  5
44C
100
AcDbEntity
  8
ASSI
100
AcDbLine
 62
253
  6
CONTINUOUS
 10
1.0674169887
 20
-23.9825449351
 11
1.0499619238
 21
-24.0
  0
LINE
  5
44D
100
AcDbEntity
  8
ASSI
100
AcDbLine
 62
7
  6
CONTINUOUS
 10
3.5806609125
 20
-22.3018840226
 11
3.5
 21
-22.3825449351
  0
LINE
  5
44E
100
AcDbEntity
  8
RACCORDO
100
AcDbLine
 62
7
  6
CONTINUOUS
 10
5.432569703
 20
-20.767430297
 11
5.1254493507
 21
-21.0745506493
  0
LINE
  5
44F
100
AcDbEntity
  8
ASSI
100
AcDbLine
 62
7
  6
CONTINUOUS
 10
5.432569703
 20
-20.767430297
 11
5.1254493507
 21
-21.0745506493
  0
LINE
  5
450
100
AcDbEntity
  8
ASSI
100
AcDbLine
 62
253
  6
CONTINUOUS
 10
3.5806626995
 20
-23.6519203118
 11
3.5
 21
-23.7325830113
  0
LINE
  5
451
100
AcDbEntity
  8
RACCORDO
100
AcDbLine
 62
7
  6
CONTINUOUS
 10
-3.9563286977
 20
17.3437474547
 11
3.9563286977
 21
17.3437474547
  0
LINE
  5
452
100
AcDbEntity
  8
ASSI
100
AcDbLine
 62
7
  6
CONTINUOUS
 10
-3.9563286977
 20
17.3437474547
 11
3.9563286977
 21
17.3437474547
  0
LINE
  5
453
100
AcDbEntity
  8
RACCORDO
100
AcDbLine
 62
253
  6
CONTINUOUS
 10
-3.8445737581
 20
17.4555023943
 11
3.8445737581
 21
17.4555023943
  0
LINE
  5
454
100
AcDbEntity
  8
ASSI
100
AcDbLine
 62
253
  6
CONTINUOUS
 10
-3.8445737581
 20
17.4555023943
 11
3.8445737581
 21
17.4555023943
  0
LINE
  5
455
100
AcDbEntity
  8
RACCORDO
100
AcDbLine
 62
253
  6
CONTINUOUS
 10
4.3444976057
 20
17.9554262419
 11
-4.3444976057
 21
17.9554262419
  0
LINE
  5
456
100
AcDbEntity
  8
ASSI
100
AcDbLine
 62
253
  6
CONTINUOUS
 10
4.3444976057
 20
17.9554262419
 11
-4.3444976057
 21
17.9554262419
  0
LINE
  5
457
100
AcDbEntity
  8
DRAFT
100
AcDbLine
 62
7
  6
CONTINUOUS
 10
9.4974886323
 20
19.3349933121
 11
7.3508267979
 21
19.3349933121
  0
LINE
  5
458
100
AcDbEntity
  8
ASSI
100
AcDbLine
 62
7
  6
CONTINUOUS
 10
9.4974886323
 20
19.3349933121
 11
7.3508267979
 21
19.3349933121
  0
LINE
  5
459
100
AcDbEntity
  8
DRAFT
100
AcDbLine
 62
7
  6
CONTINUOUS
 10
6.4491732021
 20
19.3349933121
 11
4.4550387927
 21
19.3349933121
  0
LINE
  5
45A
100
AcDbEntity
  8
ASSI
100
AcDbLine
 62
7
  6
CONTINUOUS
 10
6.4491732021
 20
19.3349933121
 11
4.4550387927
 21
19.3349933121
  0
LINE
  5
45B
100
AcDbEntity
  8
DRAFT
100
AcDbLine
 62
7
  6
CONTINUOUS
 10
-4.4550387927
 20
19.3349933121
 11
-6.4491732021
 21
19.3349933121
  0
LINE
  5
45C
100
AcDbEntity
  8
ASSI
100
AcDbLine
 62
7
  6
CONTINUOUS
 10
-4.4550387927
 20
19.3349933121
 11
-6.4491732021
 21
19.3349933121
  0
LINE
  5
45D
100
AcDbEntity
  8
DRAFT
100
AcDbLine
 62
7
  6
CONTINUOUS
 10
-7.3508267979
 20
19.3349933121
 11
-9.4974886323
 21
19.3349933121
  0
LINE
  5
45E
100
AcDbEntity
  8
ASSI
100
AcDbLine
 62
7
  6
CONTINUOUS
 10
-7.3508267979
 20
19.3349933121
 11
-9.4974886323
 21
19.3349933121
  0
LINE
  5
45F
100
AcDbEntity
  8
ASSI
100
AcDbLine
 62
7
  6
CONTINUOUS
 10
7.3232622727
 20
17.1406761428
 11
7.6257357255
 21
16.8382026899
  0
LINE
  5
460
100
AcDbEntity
  8
RACCORDO
100
AcDbLine
 62
7
  6
CONTINUOUS
 10
7.3497113198
 20
17.1406761428
 11
7.6389602491
 21
16.8514272135
  0
LINE
  5
461
100
AcDbEntity
  8
ASSI
100
AcDbLine
 62
253
  6
CONTINUOUS
 10
0.8
 20
23.7500380762
 11
0.8174550649
 21
23.7325830113
  0
LINE
  5
462
100
AcDbEntity
  8
ASSI
100
AcDbLine
 62
7
  6
CONTINUOUS
 10
3.1173032135
 20
21.6326967865
 11
3.05
 21
21.7
  0
LINE
  5
463
100
AcDbEntity
  8
ASSI
100
AcDbLine
 62
253
  6
CONTINUOUS
 10
1.0499619238
 20
24.0
 11
1.0674169887
 21
23.9825449351
  0
LINE
  5
464
100
AcDbEntity
  8
ASSI
100
AcDbLine
 62
7
  6
CONTINUOUS
 10
3.5
 20
22.3825449351
 11
3.5806609125
 21
22.3018840226
  0
LINE
  5
465
100
AcDbEntity
  8
0
100
AcDbLine
 62
7
  6
CONTINUOUS
 10
5.3523651948
 20
20.8476348052
 11
5.1254493507
 21
21.0745506493
  0
LINE
  5
466
100
AcDbEntity
  8
ASSI
100
AcDbLine
 62
7
  6
CONTINUOUS
 10
5.3523651948
 20
20.8476348052
 11
5.1254493507
 21
21.0745506493
  0
LINE
  5
467
100
AcDbEntity
  8
ASSI
100
AcDbLine
 62
253
  6
CONTINUOUS
 10
3.5
 20
23.7325830113
 11
3.5806626995
 21
23.6519203118
  0
LINE
  5
468
100
AcDbEntity
  8
ASSI
100
AcDbLine
 62
253
  6
CONTINUOUS
 10
3.8306228363
 20
-23.9018840226
 11
3.7499619238
 21
-23.9825449351
  0
LINE
  5
469
100
AcDbEntity
  8
RACCORDO
100
AcDbLine
 62
7
  6
CONTINUOUS
 10
7.3655014363
 20
-20.8344985637
 11
7.2127313221
 21
-20.9872686779
  0
LINE
  5
46A
100
AcDbEntity
  8
ASSI
100
AcDbLine
 62
7
  6
CONTINUOUS
 10
7.3655014363
 20
-20.8344985637
 11
7.2127313221
 21
-20.9872686779
  0
LINE
  5
46B
100
AcDbEntity
  8
ASSI
100
AcDbLine
 62
7
  6
CONTINUOUS
 10
7.2551134101
 20
-22.3825449351
 11
8.2325449351
 21
-21.4051134101
  0
LINE
  5
46C
100
AcDbEntity
  8
ASSI
100
AcDbLine
 62
7
  6
CONTINUOUS
 10
5.1254493507
 20
-20.0872686779
 11
5.4414386569
 21
-19.9292860574
  0
LINE
  5
46D
100
AcDbEntity
  8
RACCORDO
100
AcDbLine
 62
253
  6
CONTINUOUS
 10
-9.5639975984
 20
19.4681025177
 11
-7.328661645
 21
19.4681025177
  0
LINE
  5
46E
100
AcDbEntity
  8
ASSI
100
AcDbLine
 62
253
  6
CONTINUOUS
 10
-9.5639975984
 20
19.4681025177
 11
-7.328661645
 21
19.4681025177
  0
LINE
  5
46F
100
AcDbEntity
  8
RACCORDO
100
AcDbLine
 62
253
  6
CONTINUOUS
 10
6.471338355
 20
19.4681025177
 11
4.4107051106
 21
19.4681025177
  0
LINE
  5
470
100
AcDbEntity
  8
ASSI
100
AcDbLine
 62
253
  6
CONTINUOUS
 10
6.471338355
 20
19.4681025177
 11
4.4107051106
 21
19.4681025177
  0
LINE
  5
471
100
AcDbEntity
  8
RACCORDO
100
AcDbLine
 62
253
  6
CONTINUOUS
 10
-4.4107051106
 20
19.4681025177
 11
-6.471338355
 21
19.4681025177
  0
LINE
  5
472
100
AcDbEntity
  8
ASSI
100
AcDbLine
 62
253
  6
CONTINUOUS
 10
-4.4107051106
 20
19.4681025177
 11
-6.471338355
 21
19.4681025177
  0
LINE
  5
473
100
AcDbEntity
  8
RACCORDO
100
AcDbLine
 62
253
  6
CONTINUOUS
 10
7.328661645
 20
19.4681025177
 11
9.5639975984
 21
19.4681025177
  0
LINE
  5
474
100
AcDbEntity
  8
ASSI
100
AcDbLine
 62
253
  6
CONTINUOUS
 10
7.328661645
 20
19.4681025177
 11
9.5639975984
 21
19.4681025177
  0
LINE
  5
475
100
AcDbEntity
  8
RACCORDO
100
AcDbLine
 62
253
  6
CONTINUOUS
 10
-9.5714422353
 20
19.7676913781
 11
-7.3261806034
 21
19.7676913781
  0
LINE
  5
476
100
AcDbEntity
  8
ASSI
100
AcDbLine
 62
253
  6
CONTINUOUS
 10
-9.5714422353
 20
19.7676913781
 11
-7.3261806034
 21
19.7676913781
  0
LINE
  5
477
100
AcDbEntity
  8
RACCORDO
100
AcDbLine
 62
253
  6
CONTINUOUS
 10
6.4738193966
 20
19.7676913781
 11
4.4057426494
 21
19.7676913781
  0
LINE
  5
478
100
AcDbEntity
  8
ASSI
100
AcDbLine
 62
253
  6
CONTINUOUS
 10
6.4738193966
 20
19.7676913781
 11
4.4057426494
 21
19.7676913781
  0
LINE
  5
479
100
AcDbEntity
  8
RACCORDO
100
AcDbLine
 62
253
  6
CONTINUOUS
 10
-4.4057426494
 20
19.7676913781
 11
-6.4738193966
 21
19.7676913781
  0
LINE
  5
47A
100
AcDbEntity
  8
ASSI
100
AcDbLine
 62
253
  6
CONTINUOUS
 10
-4.4057426494
 20
19.7676913781
 11
-6.4738193966
 21
19.7676913781
  0
LINE
  5
47B
100
AcDbEntity
  8
RACCORDO
100
AcDbLine
 62
253
  6
CONTINUOUS
 10
7.3261806034
 20
19.7676913781
 11
9.5714422353
 21
19.7676913781
  0
LINE
  5
47C
100
AcDbEntity
  8
ASSI
100
AcDbLine
 62
253
  6
CONTINUOUS
 10
7.3261806034
 20
19.7676913781
 11
9.5714422353
 21
19.7676913781
  0
LINE
  5
47D
100
AcDbEntity
  8
RACCORDO
100
AcDbLine
 62
7
  6
CONTINUOUS
 10
-6.91317452
 20
19.7872686779
 11
-6.88682548
 21
19.7872686779
  0
LINE
  5
47E
100
AcDbEntity
  8
ASSI
100
AcDbLine
 62
7
  6
CONTINUOUS
 10
-6.91317452
 20
19.7872686779
 11
-6.88682548
 21
19.7872686779
  0
LINE
  5
47F
100
AcDbEntity
  8
RACCORDO
100
AcDbLine
 62
7
  6
CONTINUOUS
 10
6.88682548
 20
19.7872686779
 11
6.91317452
 21
19.7872686779
  0
LINE
  5
480
100
AcDbEntity
  8
ASSI
100
AcDbLine
 62
7
  6
CONTINUOUS
 10
6.88682548
 20
19.7872686779
 11
6.91317452
 21
19.7872686779
  0
LINE
  5
481
100
AcDbEntity
  8
DRAFT
100
AcDbLine
 62
7
  6
CONTINUOUS
 10
5.3523651948
 20
19.9738193966
 11
4.4057426494
 21
19.9738193966
  0
LINE
  5
482
100
AcDbEntity
  8
ASSI
100
AcDbLine
 62
7
  6
CONTINUOUS
 10
5.3523651948
 20
19.9738193966
 11
4.4057426494
 21
19.9738193966
  0
LINE
  5
483
100
AcDbEntity
  8
DRAFT
100
AcDbLine
 62
7
  6
CONTINUOUS
 10
-4.4057426494
 20
19.9738193966
 11
-5.3523651948
 21
19.9738193966
  0
LINE
  5
484
100
AcDbEntity
  8
ASSI
100
AcDbLine
 62
7
  6
CONTINUOUS
 10
-4.4057426494
 20
19.9738193966
 11
-5.3523651948
 21
19.9738193966
  0
LINE
  5
485
100
AcDbEntity
  8
RACCORDO
100
AcDbLine
 62
7
  6
CONTINUOUS
 10
3.8445737581
 20
20.0087268678
 11
-3.8445737581
 21
20.0087268678
  0
LINE
  5
486
100
AcDbEntity
  8
ASSI
100
AcDbLine
 62
7
  6
CONTINUOUS
 10
3.8445737581
 20
20.0087268678
 11
-3.8445737581
 21
20.0087268678
  0
LINE
  5
487
100
AcDbEntity
  8
ASSI
100
AcDbLine
 62
7
  6
CONTINUOUS
 10
5.1254493507
 20
20.0872686779
 11
-5.1254493507
 21
20.0872686779
  0
LINE
  5
488
100
AcDbEntity
  8
ASSI
100
AcDbLine
 62
7
  6
CONTINUOUS
 10
11.1261859216
 20
20.4226497308
 11
11.0825449351
 21
20.4226497308
  0
LINE
  5
489
100
AcDbEntity
  8
ASSI
100
AcDbLine
 62
7
  6
CONTINUOUS
 10
-11.1261859216
 20
20.4226497308
 11
-11.0825449351
 21
20.4226497308
  0
LINE
  5
48A
100
AcDbEntity
  8
ASSI
100
AcDbLine
 62
7
  6
CONTINUOUS
 10
3.3850964806
 20
20.8
 11
-3.3850964806
 21
20.8
  0
LINE
  5
48B
100
AcDbEntity
  8
0
100
AcDbLine
 62
7
  6
CONTINUOUS
 10
-6.4738193966
 20
20.8476348052
 11
-5.3523651948
 21
20.8476348052
  0
LINE
  5
48C
100
AcDbEntity
  8
ASSI
100
AcDbLine
 62
7
  6
CONTINUOUS
 10
-6.4738193966
 20
20.8476348052
 11
-5.3523651948
 21
20.8476348052
  0
LINE
  5
48D
100
AcDbEntity
  8
0
100
AcDbLine
 62
7
  6
CONTINUOUS
 10
5.3523651948
 20
20.8476348052
 11
6.4738193966
 21
20.8476348052
  0
LINE
  5
48E
100
AcDbEntity
  8
ASSI
100
AcDbLine
 62
7
  6
CONTINUOUS
 10
5.3523651948
 20
20.8476348052
 11
6.4738193966
 21
20.8476348052
  0
LINE
  5
48F
100
AcDbEntity
  8
0
100
AcDbLine
 62
7
  6
CONTINUOUS
 10
-9.5714422353
 20
20.8738193966
 11
-7.3261806034
 21
20.8738193966
  0
LINE
  5
490
100
AcDbEntity
  8
ASSI
100
AcDbLine
 62
7
  6
CONTINUOUS
 10
-9.5714422353
 20
20.8738193966
 11
-7.3261806034
 21
20.8738193966
  0
LINE
  5
491
100
AcDbEntity
  8
0
100
AcDbLine
 62
7
  6
CONTINUOUS
 10
7.3261806034
 20
20.8738193966
 11
9.5714422353
 21
20.8738193966
  0
LINE
  5
492
100
AcDbEntity
  8
ASSI
100
AcDbLine
 62
7
  6
CONTINUOUS
 10
7.3261806034
 20
20.8738193966
 11
9.5714422353
 21
20.8738193966
  0
LINE
  5
493
100
AcDbEntity
  8
ASSI
100
AcDbLine
 62
7
  6
CONTINUOUS
 10
9.65
 20
20.9
 11
8.2325449351
 21
20.9
  0
LINE
  5
494
100
AcDbEntity
  8
ASSI
100
AcDbLine
 62
7
  6
CONTINUOUS
 10
-8.2325449351
 20
20.9
 11
-9.65
 21
20.9
  0
LINE
  5
495
100
AcDbEntity
  8
ASSI
100
AcDbLine
 62
7
  6
CONTINUOUS
 10
-8.0579942858
 20
20.9872686779
 11
-7.2127313221
 21
20.9872686779
  0
LINE
  5
496
100
AcDbEntity
  8
ASSI
100
AcDbLine
 62
7
  6
CONTINUOUS
 10
7.2127313221
 20
20.9872686779
 11
8.0579942858
 21
20.9872686779
  0
LINE
  5
497
100
AcDbEntity
  8
ASSI
100
AcDbLine
 62
7
  6
CONTINUOUS
 10
-6.5872686779
 20
21.0745506493
 11
-5.1254493507
 21
21.0745506493
  0
LINE
  5
498
100
AcDbEntity
  8
ASSI
100
AcDbLine
 62
7
  6
CONTINUOUS
 10
5.1254493507
 20
21.0745506493
 11
6.5872686779
 21
21.0745506493
  0
LINE
  5
499
100
AcDbEntity
  8
ASSI
100
AcDbLine
 62
253
  6
CONTINUOUS
 10
8.0579942858
 20
21.2252970227
 11
3.1351059998
 21
21.2252970227
  0
LINE
  5
49A
100
AcDbEntity
  8
ASSI
100
AcDbLine
 62
253
  6
CONTINUOUS
 10
-3.1351059998
 20
21.2252970227
 11
-8.0579942858
 21
21.2252970227
  0
LINE
  5
49B
100
AcDbEntity
  8
RACCORDO
100
AcDbLine
 62
7
  6
CONTINUOUS
 10
4.4057426494
 20
19.9738193966
 11
4.3444976057
 21
20.0044395863
  0
LINE
  5
49C
100
AcDbEntity
  8
ASSI
100
AcDbLine
 62
7
  6
CONTINUOUS
 10
4.4057426494
 20
19.9738193966
 11
4.3444976057
 21
20.0044395863
  0
LINE
  5
49D
100
AcDbEntity
  8
0
100
AcDbLine
 62
7
  6
CONTINUOUS
 10
5.3523651948
 20
19.9738193966
 11
5.1254493507
 21
20.0872686779
  0
LINE
  5
49E
100
AcDbEntity
  8
ASSI
100
AcDbLine
 62
7
  6
CONTINUOUS
 10
5.3523651948
 20
19.9738193966
 11
5.1254493507
 21
20.0872686779
  0
LINE
  5
49F
100
AcDbEntity
  8
ASSI
100
AcDbLine
 62
253
  6
CONTINUOUS
 10
3.7499619238
 20
23.9825449351
 11
3.8306228363
 21
23.9018840226
  0
LINE
  5
4A0
100
AcDbEntity
  8
0
100
AcDbLine
 62
7
  6
CONTINUOUS
 10
7.2127313221
 20
20.9872686779
 11
7.3261806034
 21
20.8738193966
  0
LINE
  5
4A1
100
AcDbEntity
  8
ASSI
100
AcDbLine
 62
7
  6
CONTINUOUS
 10
7.2127313221
 20
20.9872686779
 11
7.3261806034
 21
20.8738193966
  0
LINE
  5
4A2
100
AcDbEntity
  8
ASSI
100
AcDbLine
 62
7
  6
CONTINUOUS
 10
8.2325449351
 20
21.4051134101
 11
7.2551134101
 21
22.3825449351
  0
LINE
  5
4A3
100
AcDbEntity
  8
ASSI
100
AcDbLine
 62
7
  6
CONTINUOUS
 10
8.5
 20
-22.4
 11
8.5131674569
 21
-22.3868325431
  0
LINE
  5
4A4
100
AcDbEntity
  8
ASSI
100
AcDbLine
 62
253
  6
CONTINUOUS
 10
7.2131674569
 20
-24.2868630041
 11
7.2
 21
-24.300030461
  0
LINE
  5
4A5
100
AcDbEntity
  8
ASSI
100
AcDbLine
 62
253
  6
CONTINUOUS
 10
7.4131369959
 20
-24.4868325431
 11
7.399969539
 21
-24.5
  0
LINE
  5
4A6
100
AcDbEntity
  8
ASSI
100
AcDbLine
 62
7
  6
CONTINUOUS
 10
8.0579942858
 20
-20.9872686779
 11
8.2325449351
 21
-20.9
  0
LINE
  5
4A7
100
AcDbEntity
  8
ASSI
100
AcDbLine
 62
7
  6
CONTINUOUS
 10
8.0584656028
 20
-21.4561094406
 11
8.2325449351
 21
-21.4051134101
  0
LINE
  5
4A8
100
AcDbEntity
  8
ASSI
100
AcDbLine
 62
7
  6
CONTINUOUS
 10
-0.8
 20
22.4
 11
-0.8174550649
 21
22.398254669
  0
LINE
  5
4A9
100
AcDbEntity
  8
ASSI
100
AcDbLine
 62
7
  6
CONTINUOUS
 10
-3.1173032135
 20
21.6326967865
 11
3.1173032135
 21
21.6326967865
  0
LINE
  5
4AA
100
AcDbEntity
  8
ASSI
100
AcDbLine
 62
7
  6
CONTINUOUS
 10
-3.05
 20
21.7
 11
3.05
 21
21.7
  0
LINE
  5
4AB
100
AcDbEntity
  8
ASSI
100
AcDbLine
 62
253
  6
CONTINUOUS
 10
7.3012233427
 20
22.2251447178
 11
3.3786655583
 21
22.2251447178
  0
LINE
  5
4AC
100
AcDbEntity
  8
ASSI
100
AcDbLine
 62
253
  6
CONTINUOUS
 10
-3.3786655583
 20
22.2251447178
 11
-7.3012233427
 21
22.2251447178
  0
LINE
  5
4AD
100
AcDbEntity
  8
ASSI
100
AcDbLine
 62
7
  6
CONTINUOUS
 10
10.5826210875
 20
22.3825449351
 11
9.0368706193
 21
22.3825449351
  0
LINE
  5
4AE
100
AcDbEntity
  8
ASSI
100
AcDbLine
 62
7
  6
CONTINUOUS
 10
8.7631293807
 20
22.3825449351
 11
7.2551134101
 21
22.3825449351
  0
LINE
  5
4AF
100
AcDbEntity
  8
ASSI
100
AcDbLine
 62
7
  6
CONTINUOUS
 10
3.5
 20
22.3825449351
 11
3.2999714434
 21
22.3825449351
  0
LINE
  5
4B0
100
AcDbEntity
  8
ASSI
100
AcDbLine
 62
7
  6
CONTINUOUS
 10
-3.2999714434
 20
22.3825449351
 11
-3.5
 21
22.3825449351
  0
LINE
  5
4B1
100
AcDbEntity
  8
ASSI
100
AcDbLine
 62
7
  6
CONTINUOUS
 10
-7.2551134101
 20
22.3825449351
 11
-8.7631293807
 21
22.3825449351
  0
LINE
  5
4B2
100
AcDbEntity
  8
ASSI
100
AcDbLine
 62
7
  6
CONTINUOUS
 10
-9.0368706193
 20
22.3825449351
 11
-10.5826210875
 21
22.3825449351
  0
LINE
  5
4B3
100
AcDbEntity
  8
ASSI
100
AcDbLine
 62
7
  6
CONTINUOUS
 10
0.8174550649
 20
22.398254669
 11
-0.8174550649
 21
22.398254669
  0
LINE
  5
4B4
100
AcDbEntity
  8
ASSI
100
AcDbLine
 62
7
  6
CONTINUOUS
 10
10.6
 20
22.3999999999
 11
9.3
 21
22.4
  0
LINE
  5
4B5
100
AcDbEntity
  8
ASSI
100
AcDbLine
 62
7
  6
CONTINUOUS
 10
8.5
 20
22.4
 11
4.45
 21
22.4
  0
LINE
  5
4B6
100
AcDbEntity
  8
ASSI
100
AcDbLine
 62
7
  6
CONTINUOUS
 10
-4.45
 20
22.4
 11
-8.5
 21
22.4
  0
LINE
  5
4B7
100
AcDbEntity
  8
ASSI
100
AcDbLine
 62
7
  6
CONTINUOUS
 10
-9.3
 20
22.4
 11
-10.6000000646
 21
22.3999999354
  0
LINE
  5
4B8
100
AcDbEntity
  8
ASSI
100
AcDbLine
 62
7
  6
CONTINUOUS
 10
10.4017150409
 20
23.1226497308
 11
9.3
 21
23.1226497308
  0
LINE
  5
4B9
100
AcDbEntity
  8
ASSI
100
AcDbLine
 62
7
  6
CONTINUOUS
 10
8.5
 20
23.1226497308
 11
7.3982849591
 21
23.1226497308
  0
LINE
  5
4BA
100
AcDbEntity
  8
ASSI
100
AcDbLine
 62
7
  6
CONTINUOUS
 10
-7.3982849591
 20
23.1226497308
 11
-8.5
 21
23.1226497308
  0
LINE
  5
4BB
100
AcDbEntity
  8
ASSI
100
AcDbLine
 62
7
  6
CONTINUOUS
 10
-9.3
 20
23.1226497308
 11
-10.4017150409
 21
23.1226497308
  0
LINE
  5
4BC
100
AcDbEntity
  8
ASSI
100
AcDbLine
 62
7
  6
CONTINUOUS
 10
0.8
 20
22.4
 11
0.8174550649
 21
22.398254669
  0
LINE
  5
4BD
100
AcDbEntity
  8
ASSI
100
AcDbLine
 62
7
  6
CONTINUOUS
 10
8.0584656028
 20
21.4561094406
 11
8.2325449351
 21
21.4051134101
  0
LINE
  5
4BE
100
AcDbEntity
  8
ASSI
100
AcDbLine
 62
7
  6
CONTINUOUS
 10
8.0579942858
 20
20.9872686779
 11
8.2325449351
 21
20.9
  0
LINE
  5
4BF
100
AcDbEntity
  8
ASSI
100
AcDbLine
 62
7
  6
CONTINUOUS
 10
8.5
 20
22.4
 11
8.5131674569
 21
22.3868325431
  0
LINE
  5
4C0
100
AcDbEntity
  8
ASSI
100
AcDbLine
 62
253
  6
CONTINUOUS
 10
7.2
 20
24.300030461
 11
7.2131674569
 21
24.286863004
  0
LINE
  5
4C1
100
AcDbEntity
  8
ASSI
100
AcDbLine
 62
253
  6
CONTINUOUS
 10
7.399969539
 20
24.5
 11
7.4131370461
 21
24.486832493
  0
LINE
  5
4C2
100
AcDbEntity
  8
ASSI
100
AcDbLine
 62
253
  6
CONTINUOUS
 10
-8.5466230298
 20
23.6278312163
 11
-7.4135581409
 21
23.6278312163
  0
LINE
  5
4C3
100
AcDbEntity
  8
ASSI
100
AcDbLine
 62
253
  6
CONTINUOUS
 10
7.4135581409
 20
23.6278312163
 11
8.5466230298
 21
23.6278312163
  0
LINE
  5
4C4
100
AcDbEntity
  8
ASSI
100
AcDbLine
 62
253
  6
CONTINUOUS
 10
-10.3864421555
 20
23.6278214108
 11
-9.2533769702
 21
23.6278312163
  0
LINE
  5
4C5
100
AcDbEntity
  8
ASSI
100
AcDbLine
 62
253
  6
CONTINUOUS
 10
9.2533769702
 20
23.6278312163
 11
10.3864421556
 21
23.6278214068
  0
LINE
  5
4C6
100
AcDbEntity
  8
ASSI
100
AcDbLine
 62
253
  6
CONTINUOUS
 10
8.7631293807
 20
23.8443375673
 11
7.2140249785
 21
23.8443375673
  0
LINE
  5
4C7
100
AcDbEntity
  8
ASSI
100
AcDbLine
 62
253
  6
CONTINUOUS
 10
-8.7631293807
 20
23.8443375673
 11
-7.2140249785
 21
23.8443375673
  0
LINE
  5
4C8
100
AcDbEntity
  8
ASSI
100
AcDbLine
 62
253
  6
CONTINUOUS
 10
-10.5859750215
 20
23.8443375673
 11
-9.0368706193
 21
23.8443375673
  0
LINE
  5
4C9
100
AcDbEntity
  8
ASSI
100
AcDbLine
 62
7
  6
CONTINUOUS
 10
-3.7499619238
 20
23.9825449351
 11
-1.0674169887
 21
23.9825449351
  0
LINE
  5
4CA
100
AcDbEntity
  8
ASSI
100
AcDbLine
 62
7
  6
CONTINUOUS
 10
1.0674169887
 20
23.9825449351
 11
3.7499619238
 21
23.9825449351
  0
LINE
  5
4CB
100
AcDbEntity
  8
ASSI
100
AcDbLine
 62
7
  6
CONTINUOUS
 10
4.2000380762
 20
24.0
 11
1.0499619238
 21
24.0
  0
LINE
  5
4CC
100
AcDbEntity
  8
ASSI
100
AcDbLine
 62
7
  6
CONTINUOUS
 10
-1.0499619238
 20
24.0
 11
-4.2000380762
 21
24.0
  0
LINE
  5
4CD
100
AcDbEntity
  8
ASSI
100
AcDbLine
 62
253
  6
CONTINUOUS
 10
-10.5859750215
 20
24.2368706193
 11
-7.2140249785
 21
24.2368706193
  0
LINE
  5
4CE
100
AcDbEntity
  8
ASSI
100
AcDbLine
 62
253
  6
CONTINUOUS
 10
7.2140249785
 20
24.2368706193
 11
10.5859750215
 21
24.2368706193
  0
LINE
  5
4CF
100
AcDbEntity
  8
ASSI
100
AcDbLine
 62
253
  6
CONTINUOUS
 10
-10.3868630041
 20
24.4868325431
 11
-7.4131369959
 21
24.4868325431
  0
LINE
  5
4D0
100
AcDbEntity
  8
ASSI
100
AcDbLine
 62
253
  6
CONTINUOUS
 10
7.4131370461
 20
24.486832493
 11
10.3868630041
 21
24.4868325431
  0
LINE
  5
4D1
100
AcDbEntity
  8
ASSI
100
AcDbLine
 62
7
  6
CONTINUOUS
 10
10.400030461
 20
24.5
 11
7.399969539
 21
24.5
  0
LINE
  5
4D2
100
AcDbEntity
  8
ASSI
100
AcDbLine
 62
7
  6
CONTINUOUS
 10
-7.399969539
 20
24.5
 11
-10.400030461
 21
24.5
  0
LINE
  5
4D3
100
AcDbEntity
  8
ASSI
100
AcDbLine
 62
253
  6
CONTINUOUS
 10
9.0368706193
 20
23.8443375673
 11
10.5859750215
 21
23.8443375673
  0
ARC
  5
4D4
100
AcDbEntity
  8
ASSI
100
AcDbCircle
 62
253
  6
CONTINUOUS
 10
-27.4472628223
 20
-23.8063480255
 40
34.8612780391
100
AcDbArc
 50
359.9375627928
 51
0.2933988113
  0
ARC
  5
4D5
100
AcDbEntity
  8
ASSI
100
AcDbCircle
 62
7
  6
CONTINUOUS
 10
-4.0
 20
-23.2
 40
0.5
100
AcDbArc
 50
154.1580672368
 51
205.8419327632
  0
ARC
  5
4D6
100
AcDbEntity
  8
ASSI
100
AcDbCircle
 62
7
  6
CONTINUOUS
 10
-10.6001595987
 20
-21.9001682181
 40
0.4998372686
100
AcDbArc
 50
179.9806905228
 51
270.01829483
  0
ARC
  5
4D7
100
AcDbEntity
  8
ASSI
100
AcDbCircle
 62
7
  6
CONTINUOUS
 10
-4.0
 20
-23.2
 40
0.4904006794
100
AcDbArc
 50
136.2076703059
 51
223.7923296941
  0
ARC
  5
4D8
100
AcDbEntity
  8
ASSI
100
AcDbCircle
 62
253
  6
CONTINUOUS
 10
-4.1018306318
 20
-23.6518306318
 40
0.2500538637
100
AcDbArc
 50
180.0209582276
 51
269.9790417724
  0
ARC
  5
4D9
100
AcDbEntity
  8
ASSI
100
AcDbCircle
 62
253
  6
CONTINUOUS
 10
-3.8307142369
 20
-23.6518306982
 40
0.2500538587
100
AcDbArc
 50
270.0209430227
 51
359.979057015
  0
ARC
  5
4DA
100
AcDbEntity
  8
ASSI
100
AcDbCircle
 62
253
  6
CONTINUOUS
 10
-3.3786960099
 20
-21.9751217953
 40
0.2500221687
100
AcDbArc
 50
270.0069783445
 51
359.9860212836
  0
ARC
  5
4DB
100
AcDbEntity
  8
ASSI
100
AcDbCircle
 62
7
  6
CONTINUOUS
 10
-1.0499674725
 20
-23.7500325275
 40
0.2499699324
100
AcDbArc
 50
270.0012718308
 51
359.9987281692
  0
ARC
  5
4DC
100
AcDbEntity
  8
ASSI
100
AcDbCircle
 62
7
  6
CONTINUOUS
 10
-4.2000395761
 20
-23.7500395761
 40
0.2499612619
100
AcDbArc
 50
179.9996562002
 51
270.0003437998
  0
ARC
  5
4DD
100
AcDbEntity
  8
ASSI
100
AcDbCircle
 62
253
  6
CONTINUOUS
 10
-7.4132101695
 20
-24.2867898305
 40
0.2000430909
100
AcDbArc
 50
270.0209581889
 51
359.9790418111
  0
ARC
  5
4DE
100
AcDbEntity
  8
ASSI
100
AcDbCircle
 62
253
  6
CONTINUOUS
 10
-10.3867898305
 20
-24.2867898305
 40
0.2000430909
100
AcDbArc
 50
180.020958194
 51
269.979041806
  0
ARC
  5
4DF
100
AcDbEntity
  8
ASSI
100
AcDbCircle
 62
7
  6
CONTINUOUS
 10
-7.3999572982
 20
-24.3000427018
 40
0.1999569277
100
AcDbArc
 50
269.9964925066
 51
0.0035074934
  0
ARC
  5
4E0
100
AcDbEntity
  8
ASSI
100
AcDbCircle
 62
7
  6
CONTINUOUS
 10
-10.4000426585
 20
-24.3000426585
 40
0.1999569277
100
AcDbArc
 50
179.9965049109
 51
270.0034950891
  0
ARC
  5
4E1
100
AcDbEntity
  8
ASSI
100
AcDbCircle
 62
253
  6
CONTINUOUS
 10
-45.6667535901
 20
23.8071705124
 40
35.280767541
100
AcDbArc
 50
359.708736756
 51
0.0602180988
  0
ARC
  5
4E2
100
AcDbEntity
  8
DRAFT
100
AcDbCircle
 62
7
  6
CONTINUOUS
 10
-8.15
 20
16.7
 40
1.2
100
AcDbArc
 50
264.2143459777
 51
270.0
  0
ARC
  5
4E3
100
AcDbEntity
  8
RACCORDO
100
AcDbCircle
 62
253
  6
CONTINUOUS
 10
-3.8443906022
 20
17.9556093978
 40
0.5001077272
100
AcDbArc
 50
180.020983631
 51
269.979016369
  0
ARC
  5
4E4
100
AcDbEntity
  8
ASSI
100
AcDbCircle
 62
253
  6
CONTINUOUS
 10
-3.8443906022
 20
17.9556093978
 40
0.5001077272
100
AcDbArc
 50
180.020983631
 51
269.979016369
  0
ARC
  5
4E5
100
AcDbEntity
  8
ASSI
100
AcDbCircle
 62
7
  6
CONTINUOUS
 10
-4.0
 20
23.2
 40
0.5
100
AcDbArc
 50
154.1580672368
 51
205.8419327632
  0
ARC
  5
4E6
100
AcDbEntity
  8
ASSI
100
AcDbCircle
 62
7
  6
CONTINUOUS
 10
-10.6001587126
 20
21.9001678853
 40
0.4998378819
100
AcDbArc
 50
89.9818141727
 51
180.0105151488
  0
ARC
  5
4E7
100
AcDbEntity
  8
ASSI
100
AcDbCircle
 62
7
  6
CONTINUOUS
 10
-4.0
 20
23.2
 40
0.4904006794
100
AcDbArc
 50
136.2076703059
 51
223.7923296941
  0
ARC
  5
4E8
100
AcDbEntity
  8
RACCORDO
100
AcDbCircle
 62
7
  6
CONTINUOUS
 10
-9.1502197165
 20
15.8066884157
 40
0.2997946417
100
AcDbArc
 50
180.0420431968
 51
270.0419895132
  0
ARC
  5
4E9
100
AcDbEntity
  8
RACCORDO
100
AcDbCircle
 62
7
  6
CONTINUOUS
 10
-3.1002197165
 20
14.1090182066
 40
0.2997946417
100
AcDbArc
 50
180.0420431968
 51
270.0419895132
  0
ARC
  5
4EA
100
AcDbEntity
  8
ASSI
100
AcDbCircle
 62
253
  6
CONTINUOUS
 10
-3.8307142419
 20
23.6518306931
 40
0.2500538638
100
AcDbArc
 50
0.0209441674
 51
89.9790558326
  0
ARC
  5
4EB
100
AcDbEntity
  8
ASSI
100
AcDbCircle
 62
253
  6
CONTINUOUS
 10
-4.1018306349
 20
23.651830635
 40
0.2500538605
100
AcDbArc
 50
90.0209574986
 51
179.9790425324
  0
ARC
  5
4EC
100
AcDbEntity
  8
ASSI
100
AcDbCircle
 62
253
  6
CONTINUOUS
 10
-3.3786960169
 20
21.9751217896
 40
0.2500221685
100
AcDbArc
 50
0.0139800264
 51
89.993020061
  0
ARC
  5
4ED
100
AcDbEntity
  8
ASSI
100
AcDbCircle
 62
7
  6
CONTINUOUS
 10
-4.2000325275
 20
23.7500325275
 40
0.2499699324
100
AcDbArc
 50
90.0012718308
 51
179.9987281692
  0
ARC
  5
4EE
100
AcDbEntity
  8
ASSI
100
AcDbCircle
 62
7
  6
CONTINUOUS
 10
-1.0499674725
 20
23.7500325275
 40
0.2499699324
100
AcDbArc
 50
0.0012718308
 51
89.9987281692
  0
ARC
  5
4EF
100
AcDbEntity
  8
ASSI
100
AcDbCircle
 62
253
  6
CONTINUOUS
 10
-10.3867898797
 20
24.2867898797
 40
0.2000430909
100
AcDbArc
 50
90.020944126
 51
179.979055874
  0
ARC
  5
4F0
100
AcDbEntity
  8
ASSI
100
AcDbCircle
 62
253
  6
CONTINUOUS
 10
-7.4132101203
 20
24.2867898797
 40
0.2000430909
100
AcDbArc
 50
0.020944126
 51
89.979055874
  0
ARC
  5
4F1
100
AcDbEntity
  8
ASSI
100
AcDbCircle
 62
7
  6
CONTINUOUS
 10
-10.4000426585
 20
24.3000426585
 40
0.1999569277
100
AcDbArc
 50
89.9965049109
 51
180.0034950891
  0
ARC
  5
4F2
100
AcDbEntity
  8
ASSI
100
AcDbCircle
 62
7
  6
CONTINUOUS
 10
-7.3999572982
 20
24.3000427018
 40
0.1999569277
100
AcDbArc
 50
359.9964925066
 51
90.0035074934
  0
ARC
  5
4F3
100
AcDbEntity
  8
ASSI
100
AcDbCircle
 62
253
  6
CONTINUOUS
 10
45.2599106764
 20
-23.806377655
 40
34.8739258873
100
AcDbArc
 50
179.7067270348
 51
180.0623987992
  0
ARC
  5
4F4
100
AcDbEntity
  8
ASSI
100
AcDbCircle
 62
7
  6
CONTINUOUS
 10
4.0
 20
-23.2
 40
0.5
100
AcDbArc
 50
334.1580672368
 51
25.8419327632
  0
ARC
  5
4F5
100
AcDbEntity
  8
ASSI
100
AcDbCircle
 62
7
  6
CONTINUOUS
 10
10.6001586991
 20
-21.9001678667
 40
0.4998379147
100
AcDbArc
 50
269.9818157205
 51
0.0105130177
  0
ARC
  5
4F6
100
AcDbEntity
  8
ASSI
100
AcDbCircle
 62
7
  6
CONTINUOUS
 10
4.0
 20
-23.2
 40
0.4904006794
100
AcDbArc
 50
316.2076703059
 51
43.7923296941
  0
ARC
  5
4F7
100
AcDbEntity
  8
ASSI
100
AcDbCircle
 62
253
  6
CONTINUOUS
 10
3.8307143033
 20
-23.6518306318
 40
0.2500538637
100
AcDbArc
 50
180.0209582276
 51
269.9790417724
  0
ARC
  5
4F8
100
AcDbEntity
  8
ASSI
100
AcDbCircle
 62
253
  6
CONTINUOUS
 10
4.1018306981
 20
-23.6518306982
 40
0.2500538587
100
AcDbArc
 50
270.0209430227
 51
359.979057015
  0
ARC
  5
4F9
100
AcDbEntity
  8
ASSI
100
AcDbCircle
 62
253
  6
CONTINUOUS
 10
3.3786960115
 20
-21.9751217973
 40
0.2500221685
100
AcDbArc
 50
180.0139782614
 51
269.9930212821
  0
ARC
  5
4FA
100
AcDbEntity
  8
ASSI
100
AcDbCircle
 62
7
  6
CONTINUOUS
 10
4.2000325275
 20
-23.7500325275
 40
0.2499699324
100
AcDbArc
 50
270.0012718308
 51
359.9987281692
  0
ARC
  5
4FB
100
AcDbEntity
  8
ASSI
100
AcDbCircle
 62
7
  6
CONTINUOUS
 10
1.0499604239
 20
-23.7500395761
 40
0.2499612619
100
AcDbArc
 50
179.9996562077
 51
270.0003437923
  0
ARC
  5
4FC
100
AcDbEntity
  8
ASSI
100
AcDbCircle
 62
253
  6
CONTINUOUS
 10
10.3867898797
 20
-24.2867898797
 40
0.2000430909
100
AcDbArc
 50
270.0209441258
 51
359.9790558742
  0
ARC
  5
4FD
100
AcDbEntity
  8
ASSI
100
AcDbCircle
 62
253
  6
CONTINUOUS
 10
7.4132101695
 20
-24.2867898305
 40
0.2000430909
100
AcDbArc
 50
180.020958193
 51
269.979041807
  0
ARC
  5
4FE
100
AcDbEntity
  8
ASSI
100
AcDbCircle
 62
7
  6
CONTINUOUS
 10
10.4000427018
 20
-24.3000427018
 40
0.1999569277
100
AcDbArc
 50
269.9964925066
 51
0.0035074934
  0
ARC
  5
4FF
100
AcDbEntity
  8
ASSI
100
AcDbCircle
 62
7
  6
CONTINUOUS
 10
7.3999573415
 20
-24.3000426585
 40
0.1999569277
100
AcDbArc
 50
179.9965049109
 51
270.0034950891
  0
ARC
  5
500
100
AcDbEntity
  8
RACCORDO
100
AcDbCircle
 62
7
  6
CONTINUOUS
 10
-0.0
 20
-0.0
 40
7.6551908211
100
AcDbArc
 50
105.145917591
 51
74.854082409
  0
ARC
  5
501
100
AcDbEntity
  8
ASSI
100
AcDbCircle
 62
7
  6
CONTINUOUS
 10
-0.0
 20
-0.0
 40
7.6551908211
100
AcDbArc
 50
105.145917591
 51
74.854082409
  0
ARC
  5
502
100
AcDbEntity
  8
RACCORDO
100
AcDbCircle
 62
253
  6
CONTINUOUS
 10
-0.0
 20
-0.0
 40
7.3551908211
100
AcDbArc
 50
105.7843522772
 51
74.2156470868
  0
ARC
  5
503
100
AcDbEntity
  8
ASSI
100
AcDbCircle
 62
253
  6
CONTINUOUS
 10
-0.0
 20
-0.0
 40
7.3551908211
100
AcDbArc
 50
105.7843522772
 51
74.2156470868
  0
ARC
  5
504
100
AcDbEntity
  8
0
100
AcDbCircle
 62
7
  6
CONTINUOUS
 10
-0.0
 20
-0.0
 40
4.5
100
AcDbArc
 50
335.6593532714
 51
24.3406467286
  0
ARC
  5
505
100
AcDbEntity
  8
COPY-PUBBLISH
100
AcDbCircle
 62
7
  6
CONTINUOUS
 10
-0.0
 20
-0.0
 40
4.5
100
AcDbArc
 50
24.3406467286
 51
335.6593532714
  0
CIRCLE
  5
506
100
AcDbEntity
  8
COPY-PUBBLISH
100
AcDbCircle
 62
7
  6
CONTINUOUS
 10
-0.0
 20
-0.0
 40
4.0
  0
CIRCLE
  5
507
100
AcDbEntity
  8
COPY-PUBBLISH
100
AcDbCircle
 62
7
  6
CONTINUOUS
 10
-0.0
 20
-0.0
 40
2.75
  0
ARC
  5
508
100
AcDbEntity
  8
ASSI
100
AcDbCircle
 62
7
  6
CONTINUOUS
 10
-0.0
 20
11.0
 40
2.0
100
AcDbArc
 50
0.0
 51
180.0
  0
CIRCLE
  5
509
100
AcDbEntity
  8
COPY-PUBBLISH
100
AcDbCircle
 62
7
  6
CONTINUOUS
 10
-0.0
 20
-0.0
 40
1.0
  0
CIRCLE
  5
50A
100
AcDbEntity
  8
ASSI
100
AcDbCircle
 62
7
  6
CONTINUOUS
 10
-0.0
 20
11.0
 40
0.85
  0
ARC
  5
50B
100
AcDbEntity
  8
RACCORDO
100
AcDbCircle
 62
253
  6
CONTINUOUS
 10
3.8443905525
 20
17.9556094475
 40
0.5001077435
100
AcDbArc
 50
270.0209893195
 51
359.9790106804
  0
ARC
  5
50C
100
AcDbEntity
  8
ASSI
100
AcDbCircle
 62
253
  6
CONTINUOUS
 10
3.8443905525
 20
17.9556094475
 40
0.5001077435
100
AcDbArc
 50
270.0209893195
 51
359.9790106804
  0
ARC
  5
50D
100
AcDbEntity
  8
ASSI
100
AcDbCircle
 62
7
  6
CONTINUOUS
 10
4.0
 20
23.2
 40
0.5
100
AcDbArc
 50
334.1580672368
 51
25.8419327632
  0
ARC
  5
50E
100
AcDbEntity
  8
ASSI
100
AcDbCircle
 62
7
  6
CONTINUOUS
 10
10.6001595972
 20
21.9001682196
 40
0.4998372686
100
AcDbArc
 50
359.9806903501
 51
90.0182946608
  0
ARC
  5
50F
100
AcDbEntity
  8
ASSI
100
AcDbCircle
 62
7
  6
CONTINUOUS
 10
4.0
 20
23.2
 40
0.4904006794
100
AcDbArc
 50
316.2076703059
 51
43.7923296941
  0
ARC
  5
510
100
AcDbEntity
  8
RACCORDO
100
AcDbCircle
 62
7
  6
CONTINUOUS
 10
3.1002197165
 20
14.1090182066
 40
0.2997946417
100
AcDbArc
 50
269.9580104868
 51
359.9579568032
  0
ARC
  5
511
100
AcDbEntity
  8
ASSI
100
AcDbCircle
 62
253
  6
CONTINUOUS
 10
4.1018306931
 20
23.6518306931
 40
0.2500538638
100
AcDbArc
 50
0.0209441674
 51
89.9790558326
  0
ARC
  5
512
100
AcDbEntity
  8
ASSI
100
AcDbCircle
 62
253
  6
CONTINUOUS
 10
3.8307143001
 20
23.651830635
 40
0.2500538605
100
AcDbArc
 50
90.0209574986
 51
179.9790425324
  0
ARC
  5
513
100
AcDbEntity
  8
ASSI
100
AcDbCircle
 62
253
  6
CONTINUOUS
 10
3.3786960177
 20
21.9751217899
 40
0.2500221687
100
AcDbArc
 50
90.0069801199
 51
179.9860200517
  0
ARC
  5
514
100
AcDbEntity
  8
ASSI
100
AcDbCircle
 62
7
  6
CONTINUOUS
 10
1.0499674725
 20
23.7500325275
 40
0.2499699324
100
AcDbArc
 50
90.0012718308
 51
179.9987281692
  0
ARC
  5
515
100
AcDbEntity
  8
ASSI
100
AcDbCircle
 62
7
  6
CONTINUOUS
 10
4.2000325275
 20
23.7500325275
 40
0.2499699324
100
AcDbArc
 50
0.0012718308
 51
89.9987281692
  0
ARC
  5
516
100
AcDbEntity
  8
ASSI
100
AcDbCircle
 62
253
  6
CONTINUOUS
 10
10.3867898797
 20
24.2867898797
 40
0.2000430909
100
AcDbArc
 50
0.020944123
 51
89.979055877
  0
ARC
  5
517
100
AcDbEntity
  8
ASSI
100
AcDbCircle
 62
253
  6
CONTINUOUS
 10
7.4132101203
 20
24.2867898797
 40
0.2000430909
100
AcDbArc
 50
90.0209441226
 51
179.9790558774
  0
ARC
  5
518
100
AcDbEntity
  8
ASSI
100
AcDbCircle
 62
7
  6
CONTINUOUS
 10
10.4000427018
 20
24.3000427018
 40
0.1999569277
100
AcDbArc
 50
359.9964925066
 51
90.0035074934
  0
ARC
  5
519
100
AcDbEntity
  8
ASSI
100
AcDbCircle
 62
7
  6
CONTINUOUS
 10
7.3999573415
 20
24.3000426585
 40
0.1999569277
100
AcDbArc
 50
89.9965049109
 51
180.0034950891
  0
ARC
  5
51A
100
AcDbEntity
  8
ASSI
100
AcDbCircle
 62
253
  6
CONTINUOUS
 10
27.4626192185
 20
23.8063786102
 40
34.8766343901
100
AcDbArc
 50
179.9376439283
 51
180.2933212156
  0
SPLINE
  5
51B
100
AcDbEntity
  8
RACCORDO
100
AcDbSpline
 62
253
  6
CONTINUOUS
 70
0
 71
3
 72
9
 73
5
 74
3
 42
0.0000001
 43
0.0000001
 44
0.0000000001
 12
4.0440458493
 22
-0.0081756696
 32
0.0
 13
4.0440522485
 23
-0.0038837645
 33
0.0
 40
0.0
 40
0.0
 40
0.0
 40
0.0
 40
0.24987047
 40
1.0
 40
1.0
 40
1.0
 40
1.0
 10
-7.7093037967
 20
14.3387567574
 30
0.0
 10
-7.3724745844
 20
14.3380758046
 30
0.0
 10
-6.0244589452
 20
14.3355296426
 30
0.0
 10
-4.6764419548
 20
14.3336989802
 30
0.0
 10
-3.6652542839
 20
14.3327278714
 30
0.0
 11
-7.7093037967
 21
14.3387567574
 31
0.0
 11
-6.6988158974
 21
14.3368480556
 31
0.0
 11
-3.6652542839
 21
14.3327278714
 31
0.0
  0
SPLINE
  5
51C
100
AcDbEntity
  8
RACCORDO
100
AcDbSpline
 62
7
  6
CONTINUOUS
 70
0
 71
3
 72
14
 73
10
 74
8
 42
0.0000001
 43
0.0000001
 44
0.0000000001
 12
0.0110963146
 22
1.8020887865
 32
0.0
 13
0.0110963146
 23
1.8020887865
 33
0.0
 40
0.0
 40
0.0
 40
0.0
 40
0.0
 40
0.2499999149
 40
0.4999998092
 40
0.6249998349
 40
0.749999547
 40
0.8125002698
 40
0.8750003689
 40
1.0
 40
1.0
 40
1.0
 40
1.0
 10
-7.3608076463
 20
15.3385854114
 30
0.0
 10
-7.3598829538
 20
15.4887594258
 30
0.0
 10
-7.3580042339
 20
15.7891072354
 30
0.0
 10
-7.3557937859
 20
16.164543022
 30
0.0
 10
-7.3537621144
 20
16.464889613
 30
0.0
 10
-7.3529327181
 20
16.6526099739
 30
0.0
 10
-7.3516508648
 20
16.8027810889
 30
0.0
 10
-7.3502292456
 20
16.9529548087
 30
0.0
 10
-7.3519578588
 20
17.0655893316
 30
0.0
 10
-7.3514955137
 20
17.1406761428
 30
0.0
 11
-7.3608076463
 21
15.3385854114
 31
0.0
 11
-7.3580318242
 21
15.7891074439
 31
0.0
 11
-7.3552639253
 21
16.2396294879
 31
0.0
 11
-7.3538501933
 21
16.4648904667
 31
0.0
 11
-7.3525607317
 21
16.6901516259
 31
0.0
 11
-7.3516333906
 21
16.8027817951
 31
0.0
 11
-7.350895185
 21
16.915412239
 31
0.0
 11
-7.3514955137
 21
17.1406761428
 31
0.0
  0
SPLINE
  5
51D
100
AcDbEntity
  8
RACCORDO
100
AcDbSpline
 62
7
  6
CONTINUOUS
 70
0
 71
3
 72
13
 73
9
 74
7
 42
0.0000001
 43
0.0000001
 44
0.0000000001
 12
0.0110962958
 22
-1.802085736
 32
0.0
 13
0.0110962958
 23
-1.802085736
 33
0.0
 40
0.0
 40
0.0
 40
0.0
 40
0.0
 40
0.1250000253
 40
0.2499994985
 40
0.3750000479
 40
0.4999998881
 40
0.7499999734
 40
1.0
 40
1.0
 40
1.0
 40
1.0
 10
7.3514955137
 20
17.1406761428
 30
0.0
 10
7.3519578595
 20
17.0655892219
 30
0.0
 10
7.3507383762
 20
16.9154105283
 30
0.0
 10
7.3522884113
 20
16.6901479874
 30
0.0
 10
7.35405152
 20
16.4648906065
 30
0.0
 10
7.3555807512
 20
16.1645404609
 30
0.0
 10
7.3580930976
 20
15.7891073309
 30
0.0
 10
7.3598829549
 20
15.4887592387
 30
0.0
 10
7.3608076463
 20
15.3385854114
 30
0.0
 11
7.3514955137
 21
17.1406761428
 31
0.0
 11
7.3513015854
 21
16.9154111933
 31
0.0
 11
7.352323919
 21
16.6901494754
 31
0.0
 11
7.3539488247
 21
16.4648893586
 31
0.0
 11
7.3552384969
 21
16.239628351
 31
0.0
 11
7.3580380927
 21
15.7891069211
 31
0.0
 11
7.3608076463
 21
15.3385854114
 31
0.0
  0
SPLINE
  5
51E
100
AcDbEntity
  8
RACCORDO
100
AcDbSpline
 62
7
  6
CONTINUOUS
 70
0
 71
3
 72
12
 73
8
 74
6
 42
0.0000001
 43
0.0000001
 44
0.0000000001
 12
0.0016634489
 22
0.300280126
 32
0.0
 13
0.2945602124
 23
0.0583541122
 33
0.0
 40
0.0
 40
0.0
 40
0.0
 40
0.0
 40
0.3658588381
 40
0.6771689095
 40
0.8938245497
 40
0.9597244075
 40
1.0
 40
1.0
 40
1.0
 40
1.0
 10
-7.7598999864
 20
14.0485077276
 30
0.0
 10
-7.7596971239
 20
14.0851277736
 30
0.0
 10
-7.7572317434
 20
14.1530169191
 30
0.0
 10
-7.747507293
 20
14.2417213892
 30
0.0
 10
-7.734849932
 20
14.3006506571
 30
0.0
 10
-7.7216292004
 20
14.3297994161
 30
0.0
 10
-7.7132583257
 20
14.3379733419
 30
0.0
 10
-7.7093037967
 20
14.3387567574
 30
0.0
 11
-7.7598999864
 21
14.0485077276
 31
0.0
 11
-7.7556022727
 21
14.1582854574
 31
0.0
 11
-7.7445622301
 21
14.251112924
 31
0.0
 11
-7.7283742651
 21
14.3141251669
 31
0.0
 11
-7.7190301458
 21
14.3315688168
 31
0.0
 11
-7.7093037967
 21
14.3387567574
 31
0.0
  0
SPLINE
  5
51F
100
AcDbEntity
  8
RACCORDO
100
AcDbSpline
 62
7
  6
CONTINUOUS
 70
0
 71
3
 72
12
 73
8
 74
6
 42
0.0000001
 43
0.0000001
 44
0.0000000001
 12
0.2940926287
 22
-0.0582460982
 32
0.0
 13
0.0018323185
 23
-0.2997994744
 33
0.0
 40
0.0
 40
0.0
 40
0.0
 40
0.0
 40
0.0403292872
 40
0.1057855566
 40
0.3210603267
 40
0.6322446925
 40
1.0
 40
1.0
 40
1.0
 40
1.0
 10
-3.6652542839
 20
14.3327278714
 30
0.0
 10
-3.6613007686
 20
14.3319448636
 30
0.0
 10
-3.6528992682
 20
14.3239325694
 30
0.0
 10
-3.6395127726
 20
14.2950637588
 30
0.0
 10
-3.6266730335
 20
14.2364881986
 30
0.0
 10
-3.6167327406
 20
14.1478999556
 30
0.0
 10
-3.6141919871
 20
14.0799441764
 30
0.0
 10
-3.6139673721
 20
14.0431932271
 30
0.0
 11
-3.6652542839
 21
14.3327278714
 31
0.0
 11
-3.6554748843
 21
14.3256177513
 31
0.0
 11
-3.6460646845
 21
14.3083969995
 31
0.0
 11
-3.6296844421
 21
14.2459697642
 31
0.0
 11
-3.6184133328
 21
14.1533584574
 31
0.0
 11
-3.6139673721
 21
14.0431932271
 31
0.0
  0
SPLINE
  5
520
100
AcDbEntity
  8
RACCORDO
100
AcDbSpline
 62
7
  6
CONTINUOUS
 70
0
 71
3
 72
11
 73
7
 74
5
 42
0.0000001
 43
0.0000001
 44
0.0000000001
 12
-0.0001595685
 22
0.474051557
 32
0.0
 13
0.4740324445
 23
0.0042597813
 33
0.0
 40
0.0
 40
0.0
 40
0.0
 40
0.0
 40
0.2502290637
 40
0.500200234
 40
0.7500508129
 40
1.0
 40
1.0
 40
1.0
 40
1.0
 10
-7.3711122677
 20
-16.8913368402
 30
0.0
 10
-7.3711255773
 20
-16.8517963478
 30
0.0
 10
-7.3558950446
 20
-16.7719392364
 30
0.0
 10
-7.2902982698
 20
-16.6698333657
 30
0.0
 10
-7.1910123817
 20
-16.599848958
 30
0.0
 10
-7.1112882698
 20
-16.5827139605
 30
0.0
 10
-7.0717935951
 20
-16.5823590509
 30
0.0
 11
-7.3711122677
 21
-16.8913368402
 31
0.0
 11
-7.3487510393
 21
-16.7748420681
 31
0.0
 11
-7.2846663672
 21
-16.6751664837
 31
0.0
 11
-7.1876418218
 21
-16.6072344603
 31
0.0
 11
-7.0717935951
 21
-16.5823590509
 31
0.0
  0
SPLINE
  5
521
100
AcDbEntity
  8
RACCORDO
100
AcDbSpline
 62
7
  6
CONTINUOUS
 70
0
 71
3
 72
11
 73
7
 74
5
 42
0.0000001
 43
0.0000001
 44
0.0000000001
 12
0.4715662214
 22
0.0040316689
 32
0.0
 13
-0.0001625781
 23
-0.4715834275
 33
0.0
 40
0.0
 40
0.0
 40
0.0
 40
0.0
 40
0.2498632247
 40
0.4998405181
 40
0.7499113661
 40
1.0
 40
1.0
 40
1.0
 40
1.0
 10
-6.7280572421
 20
-16.5793452061
 30
0.0
 10
-6.6887815565
 20
-16.5790094175
 30
0.0
 10
-6.6091428274
 20
-16.5945536637
 30
0.0
 10
-6.5093179164
 20
-16.6629340063
 30
0.0
 10
-6.4435437551
 20
-16.7643422382
 30
0.0
 10
-6.4284675351
 20
-16.843808014
 30
0.0
 10
-6.4284810881
 20
-16.8831205658
 30
0.0
 11
-6.7280572421
 21
-16.5793452061
 31
0.0
 11
-6.612435045
 21
-16.6020550634
 31
0.0
 11
-6.5150078819
 21
-16.6684241666
 31
0.0
 11
-6.4507396053
 21
-16.7673023868
 31
0.0
 11
-6.4284810881
 21
-16.8831205658
 31
0.0
  0
SPLINE
  5
522
100
AcDbEntity
  8
RACCORDO
100
AcDbSpline
 62
7
  6
CONTINUOUS
 70
0
 71
3
 72
11
 73
7
 74
5
 42
0.0000001
 43
0.0000001
 44
0.0000000001
 12
-0.0001625781
 22
0.4715834067
 32
0.0
 13
0.4715662006
 23
-0.0040316687
 33
0.0
 40
0.0
 40
0.0
 40
0.0
 40
0.0
 40
0.2500857441
 40
0.5001522776
 40
0.7501342335
 40
1.0
 40
1.0
 40
1.0
 40
1.0
 10
6.4284810881
 20
-16.8831205658
 30
0.0
 10
6.4284675353
 20
-16.84380847
 30
0.0
 10
6.4435432042
 20
-16.7643438185
 30
0.0
 10
6.509316441
 20
-16.6629355925
 30
0.0
 10
6.6091412932
 20
-16.5945541915
 30
0.0
 10
6.6887811587
 20
-16.5790094141
 30
0.0
 10
6.7280572421
 20
-16.5793452061
 30
0.0
 11
6.4284810881
 21
-16.8831205658
 31
0.0
 11
6.4507390012
 21
-16.7673036638
 31
0.0
 11
6.5150054623
 21
-16.6684266963
 31
0.0
 11
6.6124339391
 21
-16.6020556254
 31
0.0
 11
6.7280572421
 21
-16.5793452061
 31
0.0
  0
SPLINE
  5
523
100
AcDbEntity
  8
RACCORDO
100
AcDbSpline
 62
253
  6
CONTINUOUS
 70
0
 71
3
 72
9
 73
5
 74
3
 42
0.0000001
 43
0.0000001
 44
0.0000000001
 12
4.1459356038
 22
-0.0048658694
 32
0.0
 13
4.1459378379
 23
-0.0022698438
 33
0.0
 40
0.0
 40
0.0
 40
0.0
 40
0.0
 40
0.2499097603
 40
1.0
 40
1.0
 40
1.0
 40
1.0
 10
-7.759903227
 20
14.0474909914
 30
0.0
 10
-7.4145333026
 20
14.0470856486
 30
0.0
 10
-6.0325546434
 20
14.0455716811
 30
0.0
 10
-4.6505755103
 20
14.0444901649
 30
0.0
 10
-3.6139663415
 20
14.0439226357
 30
0.0
 11
-7.759903227
 21
14.0474909914
 31
0.0
 11
-6.723793362
 21
14.0463559468
 31
0.0
 11
-3.6139663415
 21
14.0439226357
 31
0.0
  0
LINE
  5
524
100
AcDbEntity
  8
RACCORDO
100
AcDbLine
 62
7
  6
CONTINUOUS
 10
-3.6139673721
 20
14.0431932271
 11
-3.6136352726
 21
13.9887509498
  0
LINE
  5
525
100
AcDbEntity
  8
DRAFT
100
AcDbLine
 62
7
  6
CONTINUOUS
 10
3.6136352726
 20
13.9887509498
 11
3.3747697685
 21
13.9888599157
  0
LINE
  5
526
100
AcDbEntity
  8
DRAFT
100
AcDbLine
 62
7
  6
CONTINUOUS
 10
-3.3747697685
 20
13.9888599157
 11
-3.6136352726
 21
13.9887509498
  0
LINE
  5
527
100
AcDbEntity
  8
DRAFT
100
AcDbLine
 62
7
  6
CONTINUOUS
 10
3.6136352726
 20
13.9887509498
 11
3.6156939816
 21
14.3229126753
  0
SPLINE
  5
528
100
AcDbEntity
  8
DRAFT
100
AcDbSpline
 62
7
  6
CONTINUOUS
 70
0
 71
3
 72
9
 73
5
 74
3
 42
0.0000001
 43
0.0000001
 44
0.0000000001
 12
4.1426396712
 22
0.0038987035
 32
0.0
 13
4.1426330455
 23
0.0083723076
 33
0.0
 40
0.0
 40
0.0
 40
0.0
 40
0.0
 40
0.2501151699
 40
1.0
 40
1.0
 40
1.0
 40
1.0
 10
3.6156939816
 20
14.3229126753
 30
0.0
 10
3.96107299
 20
14.323237717
 30
0.0
 10
5.3419526988
 20
14.3247235599
 30
0.0
 10
6.7228316064
 20
14.3269544169
 30
0.0
 10
7.7583308322
 20
14.3290471724
 30
0.0
 11
3.6156939816
 21
14.3229126753
 31
0.0
 11
4.6518308659
 21
14.324027587
 31
0.0
 11
7.7583308322
 21
14.3290471724
 31
0.0
  0
LINE
  5
529
100
AcDbEntity
  8
DRAFT
100
AcDbLine
 62
7
  6
CONTINUOUS
 10
9.4375805259
 20
14.283626668
 11
7.7585765101
 21
14.2855051591
  0
SPLINE
  5
52A
100
AcDbEntity
  8
DRAFT
100
AcDbSpline
 62
7
  6
CONTINUOUS
 70
0
 71
3
 72
9
 73
5
 74
3
 42
0.0000001
 43
0.0000001
 44
0.0000000001
 12
-0.0277594554
 22
-34.6408454127
 32
0.0
 13
0.039580781
 23
-34.6408339226
 33
0.0
 40
0.0
 40
0.0
 40
0.0
 40
0.0
 40
0.7500882756
 40
1.0
 40
1.0
 40
1.0
 40
1.0
 10
9.4375805259
 20
14.283626668
 30
0.0
 10
9.4306398452
 20
5.6223960011
 30
0.0
 10
9.4298036379
 20
-5.9245617696
 30
0.0
 10
9.4401864014
 20
-17.4715094509
 30
0.0
 10
9.4434836352
 20
-20.3572262976
 30
0.0
 11
9.4375805259
 21
14.283626668
 31
0.0
 11
9.4356975433
 21
-11.7000736075
 31
0.0
 11
9.4434836352
 21
-20.3572262976
 31
0.0
  0
LINE
  5
52B
100
AcDbEntity
  8
RACCORDO
100
AcDbLine
 62
253
  6
CONTINUOUS
 10
9.4434836856
 20
-20.3572262632
 11
7.3698254249
 21
-20.3577227842
  0
LINE
  5
52C
100
AcDbEntity
  8
RACCORDO
100
AcDbLine
 62
7
  6
CONTINUOUS
 10
7.0717935951
 20
-16.5823590509
 11
6.7280572421
 21
-16.5793452061
  0
LINE
  5
52D
100
AcDbEntity
  8
RACCORDO
100
AcDbLine
 62
253
  6
CONTINUOUS
 10
6.429772855
 20
-20.2925021651
 11
5.4411368641
 21
-20.2910674656
  0
LINE
  5
52E
100
AcDbEntity
  8
RACCORDO
100
AcDbLine
 62
7
  6
CONTINUOUS
 10
5.4411349407
 20
-20.2916947997
 11
5.4414386569
 21
-19.9292860574
  0
LINE
  5
52F
100
AcDbEntity
  8
RACCORDO
100
AcDbLine
 62
7
  6
CONTINUOUS
 10
-5.4414386569
 20
-19.9292860574
 11
-5.4411349407
 21
-20.2916947997
  0
LINE
  5
530
100
AcDbEntity
  8
RACCORDO
100
AcDbLine
 62
253
  6
CONTINUOUS
 10
-5.4411367297
 20
-20.2911112939
 11
-6.4297726981
 21
-20.2925459977
  0
LINE
  5
531
100
AcDbEntity
  8
RACCORDO
100
AcDbLine
 62
7
  6
CONTINUOUS
 10
-6.7280572421
 20
-16.5793452061
 11
-7.0717935951
 21
-16.5823590509
  0
LINE
  5
532
100
AcDbEntity
  8
RACCORDO
100
AcDbLine
 62
253
  6
CONTINUOUS
 10
-7.3698254192
 20
-20.3577227842
 11
-9.4434836318
 21
-20.3572262632
  0
SPLINE
  5
533
100
AcDbEntity
  8
DRAFT
100
AcDbSpline
 62
7
  6
CONTINUOUS
 70
0
 71
3
 72
9
 73
5
 74
3
 42
0.0000001
 43
0.0000001
 44
0.0000000001
 12
0.0395807811
 22
34.6408338862
 32
0.0
 13
-0.0277594554
 23
34.6408453763
 33
0.0
 40
0.0
 40
0.0
 40
0.0
 40
0.0
 40
0.2499117244
 40
1.0
 40
1.0
 40
1.0
 40
1.0
 10
-9.443483635
 20
-20.3572262612
 30
0.0
 10
-9.4401864013
 20
-17.4715094174
 30
0.0
 10
-9.4298036381
 20
-5.9245617483
 30
0.0
 10
-9.4306398453
 20
5.6223960102
 30
0.0
 10
-9.4375805259
 20
14.283626668
 30
0.0
 11
-9.443483635
 21
-20.3572262612
 31
0.0
 11
-9.4356975433
 21
-11.70007358
 31
0.0
 11
-9.4375805259
 21
14.283626668
 31
0.0
  0
LINE
  5
534
100
AcDbEntity
  8
RACCORDO
100
AcDbLine
 62
7
  6
CONTINUOUS
 10
-7.7585765101
 20
14.2855051591
 11
-9.4375805259
 21
14.283626668
  0
LINE
  5
535
100
AcDbEntity
  8
RACCORDO
100
AcDbLine
 62
7
  6
CONTINUOUS
 10
-7.7598999864
 20
14.0485077276
 11
-7.7585765101
 21
14.2855051591
  0
SPLINE
  5
536
100
AcDbEntity
  8
RACCORDO
100
AcDbSpline
 62
7
  6
CONTINUOUS
 70
0
 71
3
 72
11
 73
7
 74
5
 42
0.0000001
 43
0.0000001
 44
0.0000000001
 12
0.4740324445
 22
-0.0042597813
 32
0.0
 13
-0.0001595685
 23
-0.474051557
 33
0.0
 40
0.0
 40
0.0
 40
0.0
 40
0.0
 40
0.2499491871
 40
0.499799766
 40
0.7497709363
 40
1.0
 40
1.0
 40
1.0
 40
1.0
 10
7.0717935951
 20
-16.5823590509
 30
0.0
 10
7.1112882698
 20
-16.5827139605
 30
0.0
 10
7.1910123817
 20
-16.599848958
 30
0.0
 10
7.2902982698
 20
-16.6698333657
 30
0.0
 10
7.3558950446
 20
-16.7719392364
 30
0.0
 10
7.3711255773
 20
-16.8517963478
 30
0.0
 10
7.3711122677
 20
-16.8913368402
 30
0.0
 11
7.0717935951
 21
-16.5823590509
 31
0.0
 11
7.1876418218
 21
-16.6072344603
 31
0.0
 11
7.2846663672
 21
-16.6751664837
 31
0.0
 11
7.3487510393
 21
-16.7748420681
 31
0.0
 11
7.3711122677
 21
-16.8913368402
 31
0.0
  0
LINE
  5
537
100
AcDbEntity
  8
RACCORDO
100
AcDbLine
 62
253
  6
CONTINUOUS
 10
9.4564965907
 20
-20.8355119633
 11
7.3655014363
 21
-20.8344985637
  0
LINE
  5
538
100
AcDbEntity
  8
RACCORDO
100
AcDbLine
 62
253
  6
CONTINUOUS
 10
-7.3655014363
 20
-20.8344985637
 11
-9.4564965907
 21
-20.8355119633
  0
LINE
  5
539
100
AcDbEntity
  8
RACCORDO
100
AcDbLine
 62
7
  6
CONTINUOUS
 10
7.3711122677
 20
-16.8913368402
 11
7.3698253887
 21
-20.3577227954
  0
SPLINE
  5
53A
100
AcDbEntity
  8
RACCORDO
100
AcDbSpline
 62
7
  6
CONTINUOUS
 70
0
 71
3
 72
21
 73
17
 74
15
 42
0.0000001
 43
0.0000001
 44
0.0000000001
 12
0.337043298
 22
0.3373260809
 32
0.0
 13
0.0001935549
 23
0.4768511635
 33
0.0
 40
0.0
 40
0.0
 40
0.0
 40
0.0
 40
0.0016703366
 40
0.0056579817
 40
0.0119699477
 40
0.0205932794
 40
0.0447091929
 40
0.077847484
 40
0.1196839742
 40
0.1698240382
 40
0.2278643776
 40
0.2932773355
 40
0.4437143533
 40
0.6158450818
 40
0.8037046959
 40
1.0
 40
1.0
 40
1.0
 40
1.0
 10
7.3655014363
 20
-20.8344985637
 30
0.0
 10
7.3656890949
 20
-20.8343107477
 30
0.0
 10
7.3657012371
 20
-20.8333019779
 30
0.0
 10
7.3659986345
 20
-20.8315084822
 30
0.0
 10
7.3661302782
 20
-20.8284535818
 30
0.0
 10
7.3664624129
 20
-20.8222842176
 30
0.0
 10
7.3667747385
 20
-20.8117955365
 30
0.0
 10
7.3671629216
 20
-20.7960601052
 30
0.0
 10
7.3675223834
 20
-20.7761722511
 30
0.0
 10
7.3678740842
 20
-20.7523309703
 30
0.0
 10
7.3682034924
 20
-20.7247397075
 30
0.0
 10
7.3686331859
 20
-20.6812070212
 30
0.0
 10
7.369081603
 20
-20.619538754
 30
0.0
 10
7.3694785447
 20
-20.5384070807
 30
0.0
 10
7.369737889
 20
-20.449985572
 30
0.0
 10
7.369812724
 20
-20.3889240101
 30
0.0
 10
7.3698253887
 20
-20.3577227954
 30
0.0
 11
7.3655014363
 21
-20.8344985637
 31
0.0
 11
7.3657074574
 21
-20.8337291674
 31
0.0
 11
7.3659132684
 21
-20.8318388248
 31
0.0
 11
7.3661183285
 21
-20.8288359497
 31
0.0
 11
7.3663220973
 21
-20.8247289555
 31
0.0
 11
7.3667235979
 21
-20.8132362642
 31
0.0
 11
7.3671135496
 21
-20.7974390425
 31
0.0
 11
7.3674884668
 21
-20.777492785
 31
0.0
 11
7.3678451789
 21
-20.7535860963
 31
0.0
 11
7.3681805321
 21
-20.7259115224
 31
0.0
 11
7.3684916071
 21
-20.694720826
 31
0.0
 11
7.3690300021
 21
-20.6229867735
 31
0.0
 11
7.3694406783
 21
-20.540907056
 31
0.0
 11
7.3697090232
 21
-20.4513263749
 31
0.0
 11
7.3698253887
 21
-20.3577227954
 31
0.0
  0
SPLINE
  5
53B
100
AcDbEntity
  8
RACCORDO
100
AcDbSpline
 62
7
  6
CONTINUOUS
 70
0
 71
3
 72
21
 73
17
 74
15
 42
0.0000001
 43
0.0000001
 44
0.0000000001
 12
0.0001935551
 22
-0.4768511666
 32
0.0
 13
0.3370670835
 23
-0.3373023181
 33
0.0
 40
0.0
 40
0.0
 40
0.0
 40
0.0
 40
0.1962955547
 40
0.3841553935
 40
0.5562861553
 40
0.7067231685
 40
0.7721361178
 40
0.8301764344
 40
0.8803164573
 40
0.9221528895
 40
0.9552911074
 40
0.9794069337
 40
0.9880302167
 40
0.9943421306
 40
0.9983297204
 40
1.0
 40
1.0
 40
1.0
 40
1.0
 10
-7.3698253887
 20
-20.3577227936
 30
0.0
 10
-7.369812724
 20
-20.3889240484
 30
0.0
 10
-7.3697378917
 20
-20.4499856863
 30
0.0
 10
-7.3694785506
 20
-20.5384072763
 30
0.0
 10
-7.3690816067
 20
-20.6195389904
 30
0.0
 10
-7.3686331887
 20
-20.6812072613
 30
0.0
 10
-7.3682034949
 20
-20.7247399421
 30
0.0
 10
-7.3678740865
 20
-20.7523311936
 30
0.0
 10
-7.3675223852
 20
-20.7761724549
 30
0.0
 10
-7.3671629235
 20
-20.7960602826
 30
0.0
 10
-7.3667747387
 20
-20.8117956771
 30
0.0
 10
-7.366462416
 20
-20.8222843296
 30
0.0
 10
-7.3661302767
 20
-20.8284536576
 30
0.0
 10
-7.3659986401
 20
-20.8315085438
 30
0.0
 10
-7.3657012306
 20
-20.8333019938
 30
0.0
 10
-7.3656891017
 20
-20.8343107673
 30
0.0
 10
-7.3655014363
 20
-20.8344985637
 30
0.0
 11
-7.3698253887
 21
-20.3577227936
 31
0.0
 11
-7.3697090258
 21
-20.4513264933
 31
0.0
 11
-7.3694406832
 21
-20.540907282
 31
0.0
 11
-7.3690300059
 21
-20.622987016
 31
0.0
 11
-7.3684916098
 21
-20.6947210667
 31
0.0
 11
-7.3681805345
 21
-20.7259117593
 31
0.0
 11
-7.3678451811
 21
-20.7535863225
 31
0.0
 11
-7.3674884685
 21
-20.7774929918
 31
0.0
 11
-7.367113551
 21
-20.7974392217
 31
0.0
 11
-7.3667235989
 21
-20.8132364086
 31
0.0
 11
-7.3663220979
 21
-20.8247290583
 31
0.0
 11
-7.366118329
 21
-20.8288360292
 31
0.0
 11
-7.3659132686
 21
-20.8318388795
 31
0.0
 11
-7.3657074575
 21
-20.8337291955
 31
0.0
 11
-7.3655014363
 21
-20.8344985637
 31
0.0
  0
LINE
  5
53C
100
AcDbEntity
  8
RACCORDO
100
AcDbLine
 62
7
  6
CONTINUOUS
 10
-7.3698253887
 20
-20.3577227936
 11
-7.3711122677
 21
-16.8913368402
  0
SPLINE
  5
53D
100
AcDbEntity
  8
RACCORDO
100
AcDbSpline
 62
7
  6
CONTINUOUS
 70
0
 71
3
 72
18
 73
14
 74
12
 42
0.0000001
 43
0.0000001
 44
0.0000000001
 12
0.000197439
 22
-0.4763128957
 32
0.0
 13
0.2130006444
 23
-0.42603373
 33
0.0
 40
0.0
 40
0.0
 40
0.0
 40
0.0
 40
0.1953093805
 40
0.3822735635
 40
0.5537197844
 40
0.7037832147
 40
0.8272585231
 40
0.8775802629
 40
0.9197192913
 40
0.9532852541
 40
0.9779558887
 40
0.9935677602
 40
1.0
 40
1.0
 40
1.0
 40
1.0
 10
6.4297751319
 20
-20.2918660329
 30
0.0
 10
6.4297879858
 20
-20.3228754918
 30
0.0
 10
6.4298624582
 20
-20.3835694647
 30
0.0
 10
6.4301204411
 20
-20.4714836047
 30
0.0
 10
6.4305120199
 20
-20.5522141112
 30
0.0
 10
6.4310288777
 20
-20.6228614749
 30
0.0
 10
6.4315537979
 20
-20.6742822783
 30
0.0
 10
6.4320652255
 20
-20.7085571084
 30
0.0
 10
6.4323950887
 20
-20.728576451
 30
0.0
 10
6.4328526419
 20
-20.7444737854
 30
0.0
 10
6.4330234165
 20
-20.7562760368
 30
0.0
 10
6.433761253
 20
-20.7635280705
 30
0.0
 10
6.4336063369
 20
-20.7672025602
 30
0.0
 10
6.4340630273
 20
-20.7681160106
 30
0.0
 11
6.4297751319
 21
-20.2918660329
 31
0.0
 11
6.4298911355
 21
-20.3848943452
 31
0.0
 11
6.4301573393
 21
-20.4739474063
 31
0.0
 11
6.4305642714
 21
-20.5556084454
 31
0.0
 11
6.4310975724
 21
-20.627083609
 31
0.0
 11
6.4317379491
 21
-20.6858930093
 31
0.0
 11
6.4320914247
 21
-20.7098592985
 31
0.0
 11
6.4324630551
 21
-20.7299272221
 31
0.0
 11
6.43284974
 21
-20.7459104475
 31
0.0
 11
6.4332480685
 21
-20.7576546368
 31
0.0
 11
6.4336539088
 21
-20.7650796902
 31
0.0
 11
6.4340630273
 21
-20.7681160106
 31
0.0
  0
LINE
  5
53E
100
AcDbEntity
  8
RACCORDO
100
AcDbLine
 62
7
  6
CONTINUOUS
 10
6.4297751319
 20
-20.2918660329
 11
6.4284810881
 21
-16.8831205658
  0
LINE
  5
53F
100
AcDbEntity
  8
RACCORDO
100
AcDbLine
 62
7
  6
CONTINUOUS
 10
-6.4284810881
 20
-16.8831205658
 11
-6.4297751319
 21
-20.2918660329
  0
SPLINE
  5
540
100
AcDbEntity
  8
RACCORDO
100
AcDbSpline
 62
7
  6
CONTINUOUS
 70
0
 71
3
 72
18
 73
14
 74
12
 42
0.0000001
 43
0.0000001
 44
0.0000000001
 12
0.2130006369
 22
0.4260337338
 32
0.0
 13
0.000197439
 23
0.4763128957
 33
0.0
 40
0.0
 40
0.0
 40
0.0
 40
0.0
 40
0.0064322399
 40
0.0220441114
 40
0.0467147461
 40
0.0802807089
 40
0.1224197373
 40
0.1727414772
 40
0.2962167856
 40
0.4462802159
 40
0.6177264368
 40
0.8046906197
 40
1.0
 40
1.0
 40
1.0
 40
1.0
 10
-6.4340630273
 20
-20.7681160106
 30
0.0
 10
-6.4336063369
 20
-20.7672025602
 30
0.0
 10
-6.433761253
 20
-20.7635280704
 30
0.0
 10
-6.4330234165
 20
-20.7562760367
 30
0.0
 10
-6.4328526419
 20
-20.7444737853
 30
0.0
 10
-6.4323950887
 20
-20.7285764509
 30
0.0
 10
-6.4320652255
 20
-20.7085571083
 30
0.0
 10
-6.4315537979
 20
-20.6742822782
 30
0.0
 10
-6.4310288777
 20
-20.6228614747
 30
0.0
 10
-6.4305120199
 20
-20.552214111
 30
0.0
 10
-6.4301204411
 20
-20.4714836045
 30
0.0
 10
-6.4298624582
 20
-20.3835694646
 30
0.0
 10
-6.4297879858
 20
-20.3228754918
 30
0.0
 10
-6.4297751319
 20
-20.2918660329
 30
0.0
 11
-6.4340630273
 21
-20.7681160106
 31
0.0
 11
-6.4336539089
 21
-20.7650796902
 31
0.0
 11
-6.4332480685
 21
-20.7576546368
 31
0.0
 11
-6.43284974
 21
-20.7459104474
 31
0.0
 11
-6.4324630551
 21
-20.729927222
 31
0.0
 11
-6.4320914247
 21
-20.7098592984
 31
0.0
 11
-6.4317379491
 21
-20.6858930092
 31
0.0
 11
-6.4310975724
 21
-20.6270836089
 31
0.0
 11
-6.4305642714
 21
-20.5556084453
 31
0.0
 11
-6.4301573393
 21
-20.4739474062
 31
0.0
 11
-6.4298911356
 21
-20.3848943451
 31
0.0
 11
-6.4297751319
 21
-20.2918660329
 31
0.0
  0
LINE
  5
541
100
AcDbEntity
  8
RACCORDO
100
AcDbLine
 62
253
  6
CONTINUOUS
 10
6.4340630273
 20
-20.7681160106
 11
5.432569703
 21
-20.767430297
  0
SPLINE
  5
542
100
AcDbEntity
  8
RACCORDO
100
AcDbSpline
 62
7
  6
CONTINUOUS
 70
0
 71
3
 72
19
 73
15
 74
13
 42
0.0000001
 43
0.0000001
 44
0.0000000001
 12
0.3365724729
 22
0.33657247
 32
0.0
 13
0.0004025055
 23
0.4759851837
 33
0.0
 40
0.0
 40
0.0
 40
0.0
 40
0.0
 40
0.0066027829
 40
0.0222888255
 40
0.0470090898
 40
0.0806126807
 40
0.1227801291
 40
0.1731212895
 40
0.2312363713
 40
0.2966039113
 40
0.4466260702
 40
0.6179823007
 40
0.804821795
 40
1.0
 40
1.0
 40
1.0
 40
1.0
 10
5.432569703
 20
-20.767430297
 30
0.0
 10
5.4333104746
 20
-20.7666895254
 30
0.0
 10
5.4333658522
 20
-20.7627241805
 30
0.0
 10
5.4345303914
 20
-20.7556925543
 30
0.0
 10
5.4350378853
 20
-20.743765056
 30
0.0
 10
5.4358814193
 20
-20.7279257862
 30
0.0
 10
5.4365662
 20
-20.7078962842
 30
0.0
 10
5.4372721605
 20
-20.6840195443
 30
0.0
 10
5.4379209146
 20
-20.6564441604
 30
0.0
 10
5.4387717305
 20
-20.6130591788
 30
0.0
 10
5.4396580994
 20
-20.551702517
 30
0.0
 10
5.4404444018
 20
-20.4710717235
 30
0.0
 10
5.440958935
 20
-20.3832736384
 30
0.0
 10
5.4411087539
 20
-20.322662111
 30
0.0
 10
5.4411349407
 20
-20.2916947997
 30
0.0
 11
5.432569703
 21
-20.767430297
 31
0.0
 11
5.4333868797
 21
-20.7643955665
 31
0.0
 11
5.4341974943
 21
-20.7569733743
 31
0.0
 11
5.4349930753
 21
-20.7452338177
 31
0.0
 11
5.435765359
 21
-20.7292576556
 31
0.0
 11
5.4365075359
 21
-20.7092002944
 31
0.0
 11
5.4372134177
 21
-20.6852490388
 31
0.0
 11
5.437876849
 21
-20.6575950679
 31
0.0
 11
5.4384921418
 21
-20.6264871607
 31
0.0
 11
5.4395570529
 21
-20.5550867512
 31
0.0
 11
5.4403698383
 21
-20.4735277451
 31
0.0
 11
5.4409020524
 21
-20.3845964748
 31
0.0
 11
5.4411349407
 21
-20.2916947997
 31
0.0
  0
SPLINE
  5
543
100
AcDbEntity
  8
RACCORDO
100
AcDbSpline
 62
7
  6
CONTINUOUS
 70
0
 71
3
 72
19
 73
15
 74
13
 42
0.0000001
 43
0.0000001
 44
0.0000000001
 12
0.0004025055
 22
-0.4759851837
 32
0.0
 13
0.3365724725
 23
-0.3365724704
 33
0.0
 40
0.0
 40
0.0
 40
0.0
 40
0.0
 40
0.195178205
 40
0.3820176993
 40
0.5533739298
 40
0.7033960887
 40
0.7687636287
 40
0.8268787105
 40
0.8772198709
 40
0.9193873193
 40
0.9529909102
 40
0.9777111745
 40
0.9933972171
 40
1.0
 40
1.0
 40
1.0
 40
1.0
 10
-5.4411349407
 20
-20.2916947997
 30
0.0
 10
-5.4411087539
 20
-20.322662111
 30
0.0
 10
-5.440958935
 20
-20.3832736384
 30
0.0
 10
-5.4404444018
 20
-20.4710717235
 30
0.0
 10
-5.4396580994
 20
-20.551702517
 30
0.0
 10
-5.4387717305
 20
-20.6130591788
 30
0.0
 10
-5.4379209146
 20
-20.6564441604
 30
0.0
 10
-5.4372721605
 20
-20.6840195443
 30
0.0
 10
-5.4365662
 20
-20.7078962841
 30
0.0
 10
-5.4358814193
 20
-20.7279257862
 30
0.0
 10
-5.4350378853
 20
-20.743765056
 30
0.0
 10
-5.4345303914
 20
-20.7556925543
 30
0.0
 10
-5.4333658522
 20
-20.7627241805
 30
0.0
 10
-5.4333104746
 20
-20.7666895254
 30
0.0
 10
-5.432569703
 20
-20.767430297
 30
0.0
 11
-5.4411349407
 21
-20.2916947997
 31
0.0
 11
-5.4409020524
 21
-20.3845964748
 31
0.0
 11
-5.4403698383
 21
-20.4735277451
 31
0.0
 11
-5.4395570529
 21
-20.5550867512
 31
0.0
 11
-5.4384921418
 21
-20.6264871607
 31
0.0
 11
-5.437876849
 21
-20.6575950679
 31
0.0
 11
-5.4372134177
 21
-20.6852490388
 31
0.0
 11
-5.4365075359
 21
-20.7092002944
 31
0.0
 11
-5.435765359
 21
-20.7292576556
 31
0.0
 11
-5.4349930753
 21
-20.7452338177
 31
0.0
 11
-5.4341974943
 21
-20.7569733743
 31
0.0
 11
-5.4333868797
 21
-20.7643955665
 31
0.0
 11
-5.432569703
 21
-20.767430297
 31
0.0
  0
LINE
  5
544
100
AcDbEntity
  8
RACCORDO
100
AcDbLine
 62
253
  6
CONTINUOUS
 10
-5.432569703
 20
-20.767430297
 11
-6.4340630273
 21
-20.7681160106
  0
SPLINE
  5
545
100
AcDbEntity
  8
RACCORDO
100
AcDbSpline
 62
7
  6
CONTINUOUS
 70
0
 71
3
 72
20
 73
16
 74
14
 42
0.0000001
 43
0.0000001
 44
0.0000000001
 12
0.0005472308
 22
-0.4789354966
 32
0.0
 13
0.4543445917
 23
-0.1514942288
 33
0.0
 40
0.0
 40
0.0
 40
0.0
 40
0.0
 40
0.1962050882
 40
0.3839940281
 40
0.5560183012
 40
0.706297899
 40
0.7716214382
 40
0.8295732283
 40
0.8796357928
 40
0.9214173414
 40
0.9545376333
 40
0.9786951631
 40
0.9937772017
 40
0.9979348601
 40
1.0
 40
1.0
 40
1.0
 40
1.0
 10
9.4434836352
 20
-20.3572262976
 30
0.0
 10
9.443519425
 20
-20.3885494914
 30
0.0
 10
9.4437411619
 20
-20.449852231
 30
0.0
 10
9.4445193628
 20
-20.53861491
 30
0.0
 10
9.4457138263
 20
-20.6200406955
 30
0.0
 10
9.4470653382
 20
-20.6819092902
 30
0.0
 10
9.4483591917
 20
-20.7255627927
 30
0.0
 10
9.4493538083
 20
-20.7532159993
 30
0.0
 10
9.4504067442
 20
-20.7771125387
 30
0.0
 10
9.4515083037
 20
-20.7970179319
 30
0.0
 10
9.4526287924
 20
-20.8128322138
 30
0.0
 10
9.4537757031
 20
-20.8242396137
 30
0.0
 10
9.4547740848
 20
-20.8312593005
 30
0.0
 10
9.4556811678
 20
-20.8343860315
 30
0.0
 10
9.456183829
 20
-20.8354076778
 30
0.0
 10
9.4564965907
 20
-20.8355119633
 30
0.0
 11
9.4434836352
 21
-20.3572262976
 31
0.0
 11
9.4438284442
 21
-20.4511953077
 31
0.0
 11
9.444633757
 21
-20.5411305502
 31
0.0
 11
9.4458698701
 21
-20.6235098611
 31
0.0
 11
9.4474917654
 21
-20.6954658654
 31
0.0
 11
9.4484289588
 21
-20.7267376071
 31
0.0
 11
9.4494392205
 21
-20.7544744022
 31
0.0
 11
9.4505136852
 21
-20.7784270701
 31
0.0
 11
9.4516428324
 21
-20.7984058672
 31
0.0
 11
9.4528170976
 21
-20.8142248371
 31
0.0
 11
9.4540259708
 21
-20.8257314158
 31
0.0
 11
9.455256789
 21
-20.8328491092
 31
0.0
 11
9.455876377
 21
-20.8347415133
 31
0.0
 11
9.4564965907
 21
-20.8355119633
 31
0.0
  0
SPLINE
  5
546
100
AcDbEntity
  8
RACCORDO
100
AcDbSpline
 62
7
  6
CONTINUOUS
 70
0
 71
3
 72
20
 73
16
 74
14
 42
0.0000001
 43
0.0000001
 44
0.0000000001
 12
0.4543698733
 22
0.151418622
 32
0.0
 13
0.0005472342
 23
0.4789355712
 33
0.0
 40
0.0
 40
0.0
 40
0.0
 40
0.0
 40
0.002064961
 40
0.0062224115
 40
0.0213040546
 40
0.0454612354
 40
0.0785812292
 40
0.120362537
 40
0.1704249258
 40
0.2283766123
 40
0.2937001051
 40
0.4439796597
 40
0.6160040444
 40
0.8037938911
 40
1.0
 40
1.0
 40
1.0
 40
1.0
 10
-9.4564965907
 20
-20.8355119633
 30
0.0
 10
-9.4561838387
 20
-20.8354077388
 30
0.0
 10
-9.4556811412
 20
-20.8343861402
 30
0.0
 10
-9.4547740917
 20
-20.831259569
 30
0.0
 10
-9.4537756772
 20
-20.8242400013
 30
0.0
 10
-9.4526287825
 20
-20.8128327868
 30
0.0
 10
-9.4515082822
 20
-20.797018636
 30
0.0
 10
-9.450406721
 20
-20.7771133576
 30
0.0
 10
-9.4493537796
 20
-20.7532168964
 30
0.0
 10
-9.4483591601
 20
-20.7255637381
 30
0.0
 10
-9.4470653023
 20
-20.6819102596
 30
0.0
 10
-9.4457137786
 20
-20.6200416522
 30
0.0
 10
-9.4445192882
 20
-20.5386156986
 30
0.0
 10
-9.4437411276
 20
-20.4498526797
 30
0.0
 10
-9.4435194252
 20
-20.3885496228
 30
0.0
 10
-9.443483635
 20
-20.3572262612
 30
0.0
 11
-9.4564965907
 21
-20.8355119633
 31
0.0
 11
-9.4558763753
 21
-20.8347416244
 31
0.0
 11
-9.4552567855
 21
-20.8328493254
 31
0.0
 11
-9.4540259633
 21
-20.8257318238
 31
0.0
 11
-9.4528170856
 21
-20.8142254118
 31
0.0
 11
-9.4516428154
 21
-20.7984065829
 31
0.0
 11
-9.450513663
 21
-20.7784278986
 31
0.0
 11
-9.4494391935
 21
-20.7544753113
 31
0.0
 11
-9.4484289279
 21
-20.7267385617
 31
0.0
 11
-9.447491731
 21
-20.6954668374
 31
0.0
 11
-9.4458698223
 21
-20.623510843
 31
0.0
 11
-9.4446336952
 21
-20.5411314659
 31
0.0
 11
-9.4438284112
 21
-20.4511957749
 31
0.0
 11
-9.443483635
 21
-20.3572262612
 31
0.0
  0
SPLINE
  5
547
100
AcDbEntity
  8
ASSI
100
AcDbSpline
 62
253
  6
CONTINUOUS
 70
0
 71
3
 72
9
 73
5
 74
3
 42
0.0000001
 43
0.0000001
 44
0.0000000001
 12
-0.0013086734
 22
0.0432844709
 32
0.0
 13
0.0000000099
 23
0.0433042498
 33
0.0
 40
0.0
 40
0.0
 40
0.0
 40
0.0
 40
0.183482616
 40
1.0
 40
1.0
 40
1.0
 40
1.0
 10
-7.2135886019
 20
23.8010362971
 30
0.0
 10
-7.2136686415
 20
23.8036836131
 30
0.0
 10
-7.2139645803
 20
23.8181157399
 30
0.0
 10
-7.2140249812
 20
23.8325513431
 30
0.0
 10
-7.2140249785
 20
23.8443375673
 30
0.0
 11
-7.2135886019
 21
23.8010362971
 31
0.0
 11
-7.2137693112
 21
23.8089798189
 31
0.0
 11
-7.2140249785
 21
23.8443375673
 31
0.0
  0
SPLINE
  5
548
100
AcDbEntity
  8
ASSI
100
AcDbSpline
 62
253
  6
CONTINUOUS
 70
0
 71
3
 72
14
 73
10
 74
8
 42
0.0000001
 43
0.0000001
 44
0.0000000001
 12
-0.0000000046
 22
0.0500143989
 32
0.0
 13
0.0353848633
 23
0.0353461674
 33
0.0
 40
0.0
 40
0.0
 40
0.0
 40
0.0
 40
0.3784712214
 40
0.5499084536
 40
0.7006913151
 40
0.8251503658
 40
0.9186144536
 40
0.9775916124
 40
1.0
 40
1.0
 40
1.0
 40
1.0
 10
-7.2140249785
 20
24.2368706193
 30
0.0
 10
-7.2140249791
 20
24.2431802895
 30
0.0
 10
-7.2140004569
 20
24.2523508019
 30
0.0
 10
-7.2138852549
 20
24.2640254185
 30
0.0
 10
-7.2138080005
 20
24.2714870517
 30
0.0
 10
-7.2136161172
 20
24.277589333
 30
0.0
 10
-7.2136474124
 20
24.2823090177
 30
0.0
 10
-7.213195583
 20
24.2850232201
 30
0.0
 10
-7.2134317628
 20
24.2865989872
 30
0.0
 10
-7.2131674569
 20
24.286863004
 30
0.0
 11
-7.2140249785
 21
24.2368706193
 31
0.0
 11
-7.2139600142
 21
24.2557995185
 31
0.0
 11
-7.21388108
 21
24.2643734852
 31
0.0
 11
-7.213774746
 21
24.2719140497
 31
0.0
 11
-7.213645012
 21
24.2781374423
 31
0.0
 11
-7.2134967534
 21
24.2828096407
 31
0.0
 11
-7.2133355534
 21
24.2857549398
 31
0.0
 11
-7.2131674569
 21
24.286863004
 31
0.0
  0
SPLINE
  5
549
100
AcDbEntity
  8
ASSI
100
AcDbSpline
 62
253
  6
CONTINUOUS
 70
0
 71
3
 72
14
 73
10
 74
8
 42
0.0000001
 43
0.0000001
 44
0.0000000001
 12
-0.0353708696
 22
0.0353601741
 32
0.0
 13
0.0000000167
 23
0.0500144012
 33
0.0
 40
0.0
 40
0.0
 40
0.0
 40
0.0
 40
0.0223888774
 40
0.0813291623
 40
0.1747527001
 40
0.2991804371
 40
0.4499462781
 40
0.6213924665
 40
1.0
 40
1.0
 40
1.0
 40
1.0
 10
-7.2131674569
 20
-24.2868630041
 30
0.0
 10
-7.2134314283
 20
-24.2865991125
 30
0.0
 10
-7.2131958083
 20
-24.2850247044
 30
0.0
 10
-7.2136471428
 20
-24.2823117879
 30
0.0
 10
-7.213616056
 20
-24.2775940677
 30
0.0
 10
-7.2138078821
 20
-24.2714932163
 30
0.0
 10
-7.2138851847
 20
-24.264032255
 30
0.0
 10
-7.2140004409
 20
-24.2523554959
 30
0.0
 10
-7.2140249806
 20
-24.2431825623
 30
0.0
 10
-7.2140249785
 20
-24.2368706193
 30
0.0
 11
-7.2131674569
 21
-24.2868630041
 31
0.0
 11
-7.2133354761
 21
-24.285755915
 31
0.0
 11
-7.2134966353
 21
-24.2828124605
 31
0.0
 11
-7.2136448867
 21
-24.2781422907
 31
0.0
 11
-7.2137746359
 21
-24.2719204647
 31
0.0
 11
-7.2138809976
 21
-24.2643807516
 31
0.0
 11
-7.213959967
 21
-24.2558063368
 31
0.0
 11
-7.2140249785
 21
-24.2368706193
 31
0.0
  0
SPLINE
  5
54A
100
AcDbEntity
  8
ASSI
100
AcDbSpline
 62
253
  6
CONTINUOUS
 70
0
 71
3
 72
9
 73
5
 74
3
 42
0.0000001
 43
0.0000001
 44
0.0000000001
 12
-0.0000000129
 22
0.0433040273
 32
0.0
 13
0.0013086547
 23
0.043284249
 33
0.0
 40
0.0
 40
0.0
 40
0.0
 40
0.0
 40
0.29878921
 40
1.0
 40
1.0
 40
1.0
 40
1.0
 10
-7.2140249785
 20
-23.8443375673
 30
0.0
 10
-7.2140249798
 20
-23.8400246419
 30
0.0
 10
-7.2139818312
 20
-23.8255904452
 30
0.0
 10
-7.2138944828
 20
-23.8111534246
 30
0.0
 10
-7.2135886019
 20
-23.8010362971
 30
0.0
 11
-7.2140249785
 21
-23.8443375673
 31
0.0
 11
-7.2139952492
 21
-23.8313988253
 31
0.0
 11
-7.2135886019
 21
-23.8010362971
 31
0.0
  0
SPLINE
  5
54B
100
AcDbEntity
  8
ASSI
100
AcDbSpline
 62
253
  6
CONTINUOUS
 70
0
 71
3
 72
25
 73
21
 74
19
 42
0.0000001
 43
0.0000001
 44
0.0000000001
 12
0.1885513154
 22
-0.1952558163
 32
0.0
 13
0.1903870649
 23
0.1934662706
 33
0.0
 40
0.0
 40
0.0
 40
0.0
 40
0.0
 40
0.0032993224
 40
0.0112229513
 40
0.0237271288
 40
0.0407190122
 40
0.0874357045
 40
0.1496533678
 40
0.2250209446
 40
0.3107340552
 40
0.5000006095
 40
0.6892666206
 40
0.7749788229
 40
0.8503426385
 40
0.9125597899
 40
0.9592803118
 40
0.9762710712
 40
0.9887708994
 40
0.9966927945
 40
1.0
 40
1.0
 40
1.0
 40
1.0
 10
3.8306228363
 20
23.9018840226
 30
0.0
 10
3.8308302001
 20
23.9016692853
 30
0.0
 10
3.8319787547
 20
23.9016688371
 30
0.0
 10
3.8339950011
 20
23.9013302221
 30
0.0
 10
3.8374383151
 20
23.9011950848
 30
0.0
 10
3.8442904436
 20
23.9008432663
 30
0.0
 10
3.8557057013
 20
23.9005408964
 30
0.0
 10
3.8723658356
 20
23.9001926342
 30
0.0
 10
3.8925718869
 20
23.8999212826
 30
0.0
 10
3.9242676949
 20
23.8996345298
 30
0.0
 10
3.9662725553
 20
23.8995040986
 30
0.0
 10
4.0082772989
 20
23.8996345596
 30
0.0
 10
4.039972685
 20
23.8999212766
 30
0.0
 10
4.0601781483
 20
23.9001927377
 30
0.0
 10
4.0768385747
 20
23.9005407828
 30
0.0
 10
4.088253299
 20
23.9008436703
 30
0.0
 10
4.0951063157
 20
23.9011946585
 30
0.0
 10
4.0985471548
 20
23.901331217
 30
0.0
 10
4.1005669907
 20
23.9016673067
 30
0.0
 10
4.1017122158
 20
23.901670745
 30
0.0
 10
4.1019220988
 20
23.9018840226
 30
0.0
 11
3.8306228363
 21
23.9018840226
 31
0.0
 11
3.8314886627
 21
23.9016552184
 31
0.0
 11
3.8336274068
 21
23.9014283546
 31
0.0
 11
3.8370141724
 21
23.901205965
 31
0.0
 11
3.8416213132
 21
23.9009905227
 31
0.0
 11
3.8542954345
 21
23.9005883653
 31
0.0
 11
3.8711797587
 21
23.9002364582
 31
0.0
 11
3.8916350477
 21
23.8999478441
 31
0.0
 11
3.9148995167
 21
23.8997336478
 31
0.0
 11
3.9662725974
 21
23.8995572797
 31
0.0
 11
4.0176455306
 21
23.8997336642
 31
0.0
 11
4.040909753
 21
23.8999478674
 31
0.0
 11
4.0613640208
 21
23.9002364928
 31
0.0
 11
4.0782482058
 21
23.9005884107
 31
0.0
 11
4.0909233674
 21
23.9009905596
 31
0.0
 11
4.0955302034
 21
23.901205989
 31
0.0
 11
4.0989157867
 21
23.9014283662
 31
0.0
 11
4.1010540584
 21
23.9016552219
 31
0.0
 11
4.1019220988
 21
23.9018840226
 31
0.0
  0
SPLINE
  5
54C
100
AcDbEntity
  8
ASSI
100
AcDbSpline
 62
253
  6
CONTINUOUS
 70
0
 71
3
 72
25
 73
21
 74
19
 42
0.0000001
 43
0.0000001
 44
0.0000000001
 12
0.1885513154
 22
-0.1952558163
 32
0.0
 13
0.1903870649
 23
0.1934662706
 33
0.0
 40
0.0
 40
0.0
 40
0.0
 40
0.0
 40
0.0032993224
 40
0.0112229513
 40
0.0237271288
 40
0.0407190122
 40
0.0874357045
 40
0.1496533678
 40
0.2250209446
 40
0.3107340552
 40
0.5000006095
 40
0.6892666206
 40
0.7749788229
 40
0.8503426385
 40
0.9125597899
 40
0.9592803118
 40
0.9762710712
 40
0.9887708994
 40
0.9966927945
 40
1.0
 40
1.0
 40
1.0
 40
1.0
 10
-4.1019220988
 20
23.9018840226
 30
0.0
 10
-4.101714735
 20
23.9016692853
 30
0.0
 10
-4.1005661804
 20
23.9016688371
 30
0.0
 10
-4.098549934
 20
23.9013302221
 30
0.0
 10
-4.09510662
 20
23.9011950848
 30
0.0
 10
-4.0882544915
 20
23.9008432663
 30
0.0
 10
-4.0768392338
 20
23.9005408964
 30
0.0
 10
-4.0601790994
 20
23.9001926342
 30
0.0
 10
-4.0399730481
 20
23.8999212826
 30
0.0
 10
-4.0082772402
 20
23.8996345298
 30
0.0
 10
-3.9662723797
 20
23.8995040986
 30
0.0
 10
-3.9242676361
 20
23.8996345596
 30
0.0
 10
-3.89257225
 20
23.8999212766
 30
0.0
 10
-3.8723667868
 20
23.9001927377
 30
0.0
 10
-3.8557063604
 20
23.9005407828
 30
0.0
 10
-3.844291636
 20
23.9008436703
 30
0.0
 10
-3.8374386194
 20
23.9011946585
 30
0.0
 10
-3.8339977802
 20
23.901331217
 30
0.0
 10
-3.8319779444
 20
23.9016673067
 30
0.0
 10
-3.8308327193
 20
23.901670745
 30
0.0
 10
-3.8306228363
 20
23.9018840226
 30
0.0
 11
-4.1019220988
 21
23.9018840226
 31
0.0
 11
-4.1010562723
 21
23.9016552184
 31
0.0
 11
-4.0989175283
 21
23.9014283546
 31
0.0
 11
-4.0955307626
 21
23.901205965
 31
0.0
 11
-4.0909236219
 21
23.9009905227
 31
0.0
 11
-4.0782495006
 21
23.9005883653
 31
0.0
 11
-4.0613651764
 21
23.9002364582
 31
0.0
 11
-4.0409098873
 21
23.8999478441
 31
0.0
 11
-4.0176454184
 21
23.8997336478
 31
0.0
 11
-3.9662723376
 21
23.8995572797
 31
0.0
 11
-3.9148994044
 21
23.8997336642
 31
0.0
 11
-3.8916351821
 21
23.8999478674
 31
0.0
 11
-3.8711809142
 21
23.9002364928
 31
0.0
 11
-3.8542967292
 21
23.9005884107
 31
0.0
 11
-3.8416215677
 21
23.9009905596
 31
0.0
 11
-3.8370147317
 21
23.901205989
 31
0.0
 11
-3.8336291484
 21
23.9014283662
 31
0.0
 11
-3.8314908767
 21
23.9016552219
 31
0.0
 11
-3.8306228363
 21
23.9018840226
 31
0.0
  0
LINE
  5
54D
100
AcDbEntity
  8
ASSI
100
AcDbLine
 62
7
  6
CONTINUOUS
 10
3.6401955184
 20
13.9861216822
 11
3.3735822299
 21
13.9862437529
  0
LINE
  5
54E
100
AcDbEntity
  8
ASSI
100
AcDbLine
 62
7
  6
CONTINUOUS
 10
-3.3735822299
 20
13.9862437529
 11
-3.6401955184
 21
13.9861216822
  0
SPLINE
  5
54F
100
AcDbEntity
  8
ASSI
100
AcDbSpline
 62
253
  6
CONTINUOUS
 70
0
 71
3
 72
9
 73
5
 74
3
 42
0.0000001
 43
0.0000001
 44
0.0000000001
 12
4.0931170011
 22
-0.0047898837
 32
0.0
 13
4.0931191807
 23
-0.0022584217
 33
0.0
 40
0.0
 40
0.0
 40
0.0
 40
0.0
 40
0.2499109715
 40
1.0
 40
1.0
 40
1.0
 40
1.0
 10
-7.733692947
 20
14.0527089606
 30
0.0
 10
-7.3927213317
 20
14.0523099457
 30
0.0
 10
-6.0283488768
 20
14.0508186278
 30
0.0
 10
-4.6639759609
 20
14.0497490059
 30
0.0
 10
-3.6405746975
 20
14.0491843334
 30
0.0
 11
-7.733692947
 21
14.0527089606
 31
0.0
 11
-6.7107780116
 21
14.0515908895
 31
0.0
 11
-3.6405746975
 21
14.0491843334
 31
0.0
  0
LINE
  5
550
100
AcDbEntity
  8
ASSI
100
AcDbLine
 62
7
  6
CONTINUOUS
 10
-3.6405757279
 20
14.0484632615
 11
-3.6401955184
 21
13.9861216822
  0
LINE
  5
551
100
AcDbEntity
  8
ASSI
100
AcDbLine
 62
7
  6
CONTINUOUS
 10
3.6401955184
 20
13.9861216822
 11
3.6423024701
 21
14.3281823674
  0
SPLINE
  5
552
100
AcDbEntity
  8
ASSI
100
AcDbSpline
 62
7
  6
CONTINUOUS
 70
0
 71
3
 72
9
 73
5
 74
3
 42
0.0000001
 43
0.0000001
 44
0.0000000001
 12
4.0898191407
 22
0.003877003
 32
0.0
 13
4.0898126838
 23
0.0082368789
 33
0.0
 40
0.0
 40
0.0
 40
0.0
 40
0.0
 40
0.2501137812
 40
1.0
 40
1.0
 40
1.0
 40
1.0
 10
3.6423024701
 20
14.3281823674
 30
0.0
 10
3.9832758467
 20
14.3285055981
 30
0.0
 10
5.3465487154
 20
14.3299794731
 30
0.0
 10
6.7098207995
 20
14.3321794297
 30
0.0
 10
7.7321188559
 20
14.334238337
 30
0.0
 11
3.6423024701
 21
14.3281823674
 31
0.0
 11
4.6652224615
 21
14.3292882924
 31
0.0
 11
7.7321188559
 21
14.334238337
 31
0.0
  0
LINE
  5
553
100
AcDbEntity
  8
ASSI
100
AcDbLine
 62
7
  6
CONTINUOUS
 10
9.4375784291
 20
14.281009806
 11
7.7324086939
 21
14.2829147392
  0
SPLINE
  5
554
100
AcDbEntity
  8
ASSI
100
AcDbSpline
 62
7
  6
CONTINUOUS
 70
0
 71
3
 72
9
 73
5
 74
3
 42
0.0000001
 43
0.0000001
 44
0.0000000001
 12
-0.0277522693
 22
-34.6382285553
 32
0.0
 13
0.039577791
 23
-34.638217062
 33
0.0
 40
0.0
 40
0.0
 40
0.0
 40
0.0
 40
0.7500882852
 40
1.0
 40
1.0
 40
1.0
 40
1.0
 10
9.4375784291
 20
14.281009806
 30
0.0
 10
9.4306395451
 20
5.6204333198
 30
0.0
 10
9.429804459
 20
-5.9256521622
 30
0.0
 10
9.4401866507
 20
-17.4717275562
 30
0.0
 10
9.4434836352
 20
-20.3572262976
 30
0.0
 11
9.4375784291
 21
14.281009806
 31
0.0
 11
9.4356979728
 21
-11.7007279238
 31
0.0
 11
9.4434836352
 21
-20.3572262976
 31
0.0
  0
LINE
  5
555
100
AcDbEntity
  8
ASSI
100
AcDbLine
 62
253
  6
CONTINUOUS
 10
9.4434836856
 20
-20.3572262632
 11
7.3698254249
 21
-20.3577227842
  0
LINE
  5
556
100
AcDbEntity
  8
ASSI
100
AcDbLine
 62
7
  6
CONTINUOUS
 10
7.0717935951
 20
-16.5823590509
 11
6.7280572421
 21
-16.5793452061
  0
LINE
  5
557
100
AcDbEntity
  8
ASSI
100
AcDbLine
 62
253
  6
CONTINUOUS
 10
6.429772855
 20
-20.2925021651
 11
5.4411368641
 21
-20.2910674656
  0
LINE
  5
558
100
AcDbEntity
  8
ASSI
100
AcDbLine
 62
7
  6
CONTINUOUS
 10
5.4411349407
 20
-20.2916947997
 11
5.4414386569
 21
-19.9292860574
  0
LINE
  5
559
100
AcDbEntity
  8
ASSI
100
AcDbLine
 62
7
  6
CONTINUOUS
 10
-5.4414386569
 20
-19.9292860574
 11
-5.4411349407
 21
-20.2916947997
  0
LINE
  5
55A
100
AcDbEntity
  8
ASSI
100
AcDbLine
 62
253
  6
CONTINUOUS
 10
-5.4411367297
 20
-20.2911112939
 11
-6.4297726981
 21
-20.2925459977
  0
LINE
  5
55B
100
AcDbEntity
  8
ASSI
100
AcDbLine
 62
7
  6
CONTINUOUS
 10
-6.7280572421
 20
-16.5793452061
 11
-7.0717935951
 21
-16.5823590509
  0
LINE
  5
55C
100
AcDbEntity
  8
ASSI
100
AcDbLine
 62
253
  6
CONTINUOUS
 10
-7.3698254192
 20
-20.3577227842
 11
-9.4434836318
 21
-20.3572262632
  0
SPLINE
  5
55D
100
AcDbEntity
  8
ASSI
100
AcDbSpline
 62
7
  6
CONTINUOUS
 70
0
 71
3
 72
9
 73
5
 74
3
 42
0.0000001
 43
0.0000001
 44
0.0000000001
 12
0.039577791
 22
34.6382170256
 32
0.0
 13
-0.0277522693
 23
34.6382285189
 33
0.0
 40
0.0
 40
0.0
 40
0.0
 40
0.0
 40
0.2499117148
 40
1.0
 40
1.0
 40
1.0
 40
1.0
 10
-9.443483635
 20
-20.3572262612
 30
0.0
 10
-9.4401866505
 20
-17.4717275227
 30
0.0
 10
-9.4298044592
 20
-5.9256521409
 30
0.0
 10
-9.4306395451
 20
5.6204333289
 30
0.0
 10
-9.4375784291
 20
14.281009806
 30
0.0
 11
-9.443483635
 21
-20.3572262612
 31
0.0
 11
-9.4356979728
 21
-11.7007278963
 31
0.0
 11
-9.4375784291
 21
14.281009806
 31
0.0
  0
LINE
  5
55E
100
AcDbEntity
  8
ASSI
100
AcDbLine
 62
7
  6
CONTINUOUS
 10
-7.7324086939
 20
14.2829147392
 11
-9.4375784291
 21
14.281009806
  0
LINE
  5
55F
100
AcDbEntity
  8
ASSI
100
AcDbLine
 62
7
  6
CONTINUOUS
 10
-7.7336897641
 20
14.0537094257
 11
-7.7324086939
 21
14.2829147392
  0
LINE
  5
560
100
AcDbEntity
  8
ASSI
100
AcDbLine
 62
253
  6
CONTINUOUS
 10
9.4564965907
 20
-20.8355119633
 11
7.3655014363
 21
-20.8344985637
  0
LINE
  5
561
100
AcDbEntity
  8
ASSI
100
AcDbLine
 62
253
  6
CONTINUOUS
 10
-7.3655014363
 20
-20.8344985637
 11
-9.4564965907
 21
-20.8355119633
  0
LINE
  5
562
100
AcDbEntity
  8
ASSI
100
AcDbLine
 62
7
  6
CONTINUOUS
 10
7.3711122677
 20
-16.8913368402
 11
7.3698253887
 21
-20.3577227954
  0
SPLINE
  5
563
100
AcDbEntity
  8
ASSI
100
AcDbSpline
 62
7
  6
CONTINUOUS
 70
0
 71
3
 72
21
 73
17
 74
15
 42
0.0000001
 43
0.0000001
 44
0.0000000001
 12
0.337043298
 22
0.3373260809
 32
0.0
 13
0.0001935549
 23
0.4768511635
 33
0.0
 40
0.0
 40
0.0
 40
0.0
 40
0.0
 40
0.0016703366
 40
0.0056579817
 40
0.0119699477
 40
0.0205932794
 40
0.0447091929
 40
0.077847484
 40
0.1196839742
 40
0.1698240382
 40
0.2278643776
 40
0.2932773355
 40
0.4437143533
 40
0.6158450818
 40
0.8037046959
 40
1.0
 40
1.0
 40
1.0
 40
1.0
 10
7.3655014363
 20
-20.8344985637
 30
0.0
 10
7.3656890949
 20
-20.8343107477
 30
0.0
 10
7.3657012371
 20
-20.8333019779
 30
0.0
 10
7.3659986345
 20
-20.8315084822
 30
0.0
 10
7.3661302782
 20
-20.8284535818
 30
0.0
 10
7.3664624129
 20
-20.8222842176
 30
0.0
 10
7.3667747385
 20
-20.8117955365
 30
0.0
 10
7.3671629216
 20
-20.7960601052
 30
0.0
 10
7.3675223834
 20
-20.7761722511
 30
0.0
 10
7.3678740842
 20
-20.7523309703
 30
0.0
 10
7.3682034924
 20
-20.7247397075
 30
0.0
 10
7.3686331859
 20
-20.6812070212
 30
0.0
 10
7.369081603
 20
-20.619538754
 30
0.0
 10
7.3694785447
 20
-20.5384070807
 30
0.0
 10
7.369737889
 20
-20.449985572
 30
0.0
 10
7.369812724
 20
-20.3889240101
 30
0.0
 10
7.3698253887
 20
-20.3577227954
 30
0.0
 11
7.3655014363
 21
-20.8344985637
 31
0.0
 11
7.3657074574
 21
-20.8337291674
 31
0.0
 11
7.3659132684
 21
-20.8318388248
 31
0.0
 11
7.3661183285
 21
-20.8288359497
 31
0.0
 11
7.3663220973
 21
-20.8247289555
 31
0.0
 11
7.3667235979
 21
-20.8132362642
 31
0.0
 11
7.3671135496
 21
-20.7974390425
 31
0.0
 11
7.3674884668
 21
-20.777492785
 31
0.0
 11
7.3678451789
 21
-20.7535860963
 31
0.0
 11
7.3681805321
 21
-20.7259115224
 31
0.0
 11
7.3684916071
 21
-20.694720826
 31
0.0
 11
7.3690300021
 21
-20.6229867735
 31
0.0
 11
7.3694406783
 21
-20.540907056
 31
0.0
 11
7.3697090232
 21
-20.4513263749
 31
0.0
 11
7.3698253887
 21
-20.3577227954
 31
0.0
  0
SPLINE
  5
564
100
AcDbEntity
  8
ASSI
100
AcDbSpline
 62
7
  6
CONTINUOUS
 70
0
 71
3
 72
21
 73
17
 74
15
 42
0.0000001
 43
0.0000001
 44
0.0000000001
 12
0.0001935551
 22
-0.4768511666
 32
0.0
 13
0.3370670835
 23
-0.3373023181
 33
0.0
 40
0.0
 40
0.0
 40
0.0
 40
0.0
 40
0.1962955547
 40
0.3841553935
 40
0.5562861553
 40
0.7067231685
 40
0.7721361178
 40
0.8301764344
 40
0.8803164573
 40
0.9221528895
 40
0.9552911074
 40
0.9794069337
 40
0.9880302167
 40
0.9943421306
 40
0.9983297204
 40
1.0
 40
1.0
 40
1.0
 40
1.0
 10
-7.3698253887
 20
-20.3577227936
 30
0.0
 10
-7.369812724
 20
-20.3889240484
 30
0.0
 10
-7.3697378917
 20
-20.4499856863
 30
0.0
 10
-7.3694785506
 20
-20.5384072763
 30
0.0
 10
-7.3690816067
 20
-20.6195389904
 30
0.0
 10
-7.3686331887
 20
-20.6812072613
 30
0.0
 10
-7.3682034949
 20
-20.7247399421
 30
0.0
 10
-7.3678740865
 20
-20.7523311936
 30
0.0
 10
-7.3675223852
 20
-20.7761724549
 30
0.0
 10
-7.3671629235
 20
-20.7960602826
 30
0.0
 10
-7.3667747387
 20
-20.8117956771
 30
0.0
 10
-7.366462416
 20
-20.8222843296
 30
0.0
 10
-7.3661302767
 20
-20.8284536576
 30
0.0
 10
-7.3659986401
 20
-20.8315085438
 30
0.0
 10
-7.3657012306
 20
-20.8333019938
 30
0.0
 10
-7.3656891017
 20
-20.8343107673
 30
0.0
 10
-7.3655014363
 20
-20.8344985637
 30
0.0
 11
-7.3698253887
 21
-20.3577227936
 31
0.0
 11
-7.3697090258
 21
-20.4513264933
 31
0.0
 11
-7.3694406832
 21
-20.540907282
 31
0.0
 11
-7.3690300059
 21
-20.622987016
 31
0.0
 11
-7.3684916098
 21
-20.6947210667
 31
0.0
 11
-7.3681805345
 21
-20.7259117593
 31
0.0
 11
-7.3678451811
 21
-20.7535863225
 31
0.0
 11
-7.3674884685
 21
-20.7774929918
 31
0.0
 11
-7.367113551
 21
-20.7974392217
 31
0.0
 11
-7.3667235989
 21
-20.8132364086
 31
0.0
 11
-7.3663220979
 21
-20.8247290583
 31
0.0
 11
-7.366118329
 21
-20.8288360292
 31
0.0
 11
-7.3659132686
 21
-20.8318388795
 31
0.0
 11
-7.3657074575
 21
-20.8337291955
 31
0.0
 11
-7.3655014363
 21
-20.8344985637
 31
0.0
  0
LINE
  5
565
100
AcDbEntity
  8
ASSI
100
AcDbLine
 62
7
  6
CONTINUOUS
 10
-7.3698253887
 20
-20.3577227936
 11
-7.3711122677
 21
-16.8913368402
  0
SPLINE
  5
566
100
AcDbEntity
  8
ASSI
100
AcDbSpline
 62
7
  6
CONTINUOUS
 70
0
 71
3
 72
18
 73
14
 74
12
 42
0.0000001
 43
0.0000001
 44
0.0000000001
 12
0.000197439
 22
-0.4763128957
 32
0.0
 13
0.2130006444
 23
-0.42603373
 33
0.0
 40
0.0
 40
0.0
 40
0.0
 40
0.0
 40
0.1953093805
 40
0.3822735635
 40
0.5537197844
 40
0.7037832147
 40
0.8272585231
 40
0.8775802629
 40
0.9197192913
 40
0.9532852541
 40
0.9779558887
 40
0.9935677602
 40
1.0
 40
1.0
 40
1.0
 40
1.0
 10
6.4297751319
 20
-20.2918660329
 30
0.0
 10
6.4297879858
 20
-20.3228754918
 30
0.0
 10
6.4298624582
 20
-20.3835694647
 30
0.0
 10
6.4301204411
 20
-20.4714836047
 30
0.0
 10
6.4305120199
 20
-20.5522141112
 30
0.0
 10
6.4310288777
 20
-20.6228614749
 30
0.0
 10
6.4315537979
 20
-20.6742822783
 30
0.0
 10
6.4320652255
 20
-20.7085571084
 30
0.0
 10
6.4323950887
 20
-20.728576451
 30
0.0
 10
6.4328526419
 20
-20.7444737854
 30
0.0
 10
6.4330234165
 20
-20.7562760368
 30
0.0
 10
6.433761253
 20
-20.7635280705
 30
0.0
 10
6.4336063369
 20
-20.7672025602
 30
0.0
 10
6.4340630273
 20
-20.7681160106
 30
0.0
 11
6.4297751319
 21
-20.2918660329
 31
0.0
 11
6.4298911355
 21
-20.3848943452
 31
0.0
 11
6.4301573393
 21
-20.4739474063
 31
0.0
 11
6.4305642714
 21
-20.5556084454
 31
0.0
 11
6.4310975724
 21
-20.627083609
 31
0.0
 11
6.4317379491
 21
-20.6858930093
 31
0.0
 11
6.4320914247
 21
-20.7098592985
 31
0.0
 11
6.4324630551
 21
-20.7299272221
 31
0.0
 11
6.43284974
 21
-20.7459104475
 31
0.0
 11
6.4332480685
 21
-20.7576546368
 31
0.0
 11
6.4336539088
 21
-20.7650796902
 31
0.0
 11
6.4340630273
 21
-20.7681160106
 31
0.0
  0
LINE
  5
567
100
AcDbEntity
  8
ASSI
100
AcDbLine
 62
7
  6
CONTINUOUS
 10
6.4297751319
 20
-20.2918660329
 11
6.4284810881
 21
-16.8831205658
  0
LINE
  5
568
100
AcDbEntity
  8
ASSI
100
AcDbLine
 62
7
  6
CONTINUOUS
 10
-6.4284810881
 20
-16.8831205658
 11
-6.4297751319
 21
-20.2918660329
  0
SPLINE
  5
569
100
AcDbEntity
  8
ASSI
100
AcDbSpline
 62
7
  6
CONTINUOUS
 70
0
 71
3
 72
18
 73
14
 74
12
 42
0.0000001
 43
0.0000001
 44
0.0000000001
 12
0.2130006369
 22
0.4260337338
 32
0.0
 13
0.000197439
 23
0.4763128957
 33
0.0
 40
0.0
 40
0.0
 40
0.0
 40
0.0
 40
0.0064322399
 40
0.0220441114
 40
0.0467147461
 40
0.0802807089
 40
0.1224197373
 40
0.1727414772
 40
0.2962167856
 40
0.4462802159
 40
0.6177264368
 40
0.8046906197
 40
1.0
 40
1.0
 40
1.0
 40
1.0
 10
-6.4340630273
 20
-20.7681160106
 30
0.0
 10
-6.4336063369
 20
-20.7672025602
 30
0.0
 10
-6.433761253
 20
-20.7635280704
 30
0.0
 10
-6.4330234165
 20
-20.7562760367
 30
0.0
 10
-6.4328526419
 20
-20.7444737853
 30
0.0
 10
-6.4323950887
 20
-20.7285764509
 30
0.0
 10
-6.4320652255
 20
-20.7085571083
 30
0.0
 10
-6.4315537979
 20
-20.6742822782
 30
0.0
 10
-6.4310288777
 20
-20.6228614747
 30
0.0
 10
-6.4305120199
 20
-20.552214111
 30
0.0
 10
-6.4301204411
 20
-20.4714836045
 30
0.0
 10
-6.4298624582
 20
-20.3835694646
 30
0.0
 10
-6.4297879858
 20
-20.3228754918
 30
0.0
 10
-6.4297751319
 20
-20.2918660329
 30
0.0
 11
-6.4340630273
 21
-20.7681160106
 31
0.0
 11
-6.4336539089
 21
-20.7650796902
 31
0.0
 11
-6.4332480685
 21
-20.7576546368
 31
0.0
 11
-6.43284974
 21
-20.7459104474
 31
0.0
 11
-6.4324630551
 21
-20.729927222
 31
0.0
 11
-6.4320914247
 21
-20.7098592984
 31
0.0
 11
-6.4317379491
 21
-20.6858930092
 31
0.0
 11
-6.4310975724
 21
-20.6270836089
 31
0.0
 11
-6.4305642714
 21
-20.5556084453
 31
0.0
 11
-6.4301573393
 21
-20.4739474062
 31
0.0
 11
-6.4298911356
 21
-20.3848943451
 31
0.0
 11
-6.4297751319
 21
-20.2918660329
 31
0.0
  0
SPLINE
  5
56A
100
AcDbEntity
  8
ASSI
100
AcDbSpline
 62
7
  6
CONTINUOUS
 70
0
 71
3
 72
9
 73
5
 74
3
 42
0.0000001
 43
0.0000001
 44
0.0000000001
 12
10.8828768733
 22
0.0034349542
 32
0.0
 13
10.8828768733
 23
-0.0034349542
 33
0.0
 40
0.0
 40
0.0
 40
0.0
 40
0.0
 40
0.2499585467
 40
1.0
 40
1.0
 40
1.0
 40
1.0
 10
-5.4414386569
 20
-19.9292860574
 30
0.0
 10
-4.5346826279
 20
-19.9289998587
 30
0.0
 10
-0.9070569187
 20
-19.9281414234
 30
0.0
 10
2.7205690614
 20
-19.9284272714
 30
0.0
 10
5.4414386569
 20
-19.9292860574
 30
0.0
 11
-5.4414386569
 21
-19.9292860574
 31
0.0
 11
-2.7211705107
 21
-19.9286422062
 31
0.0
 11
5.4414386569
 21
-19.9292860574
 31
0.0
  0
LINE
  5
56B
100
AcDbEntity
  8
ASSI
100
AcDbLine
 62
253
  6
CONTINUOUS
 10
6.4340630273
 20
-20.7681160106
 11
5.432569703
 21
-20.767430297
  0
SPLINE
  5
56C
100
AcDbEntity
  8
ASSI
100
AcDbSpline
 62
7
  6
CONTINUOUS
 70
0
 71
3
 72
19
 73
15
 74
13
 42
0.0000001
 43
0.0000001
 44
0.0000000001
 12
0.3365724729
 22
0.33657247
 32
0.0
 13
0.0004025055
 23
0.4759851837
 33
0.0
 40
0.0
 40
0.0
 40
0.0
 40
0.0
 40
0.0066027829
 40
0.0222888255
 40
0.0470090898
 40
0.0806126807
 40
0.1227801291
 40
0.1731212895
 40
0.2312363713
 40
0.2966039113
 40
0.4466260702
 40
0.6179823007
 40
0.804821795
 40
1.0
 40
1.0
 40
1.0
 40
1.0
 10
5.432569703
 20
-20.767430297
 30
0.0
 10
5.4333104746
 20
-20.7666895254
 30
0.0
 10
5.4333658522
 20
-20.7627241805
 30
0.0
 10
5.4345303914
 20
-20.7556925543
 30
0.0
 10
5.4350378853
 20
-20.743765056
 30
0.0
 10
5.4358814193
 20
-20.7279257862
 30
0.0
 10
5.4365662
 20
-20.7078962842
 30
0.0
 10
5.4372721605
 20
-20.6840195443
 30
0.0
 10
5.4379209146
 20
-20.6564441604
 30
0.0
 10
5.4387717305
 20
-20.6130591788
 30
0.0
 10
5.4396580994
 20
-20.551702517
 30
0.0
 10
5.4404444018
 20
-20.4710717235
 30
0.0
 10
5.440958935
 20
-20.3832736384
 30
0.0
 10
5.4411087539
 20
-20.322662111
 30
0.0
 10
5.4411349407
 20
-20.2916947997
 30
0.0
 11
5.432569703
 21
-20.767430297
 31
0.0
 11
5.4333868797
 21
-20.7643955665
 31
0.0
 11
5.4341974943
 21
-20.7569733743
 31
0.0
 11
5.4349930753
 21
-20.7452338177
 31
0.0
 11
5.435765359
 21
-20.7292576556
 31
0.0
 11
5.4365075359
 21
-20.7092002944
 31
0.0
 11
5.4372134177
 21
-20.6852490388
 31
0.0
 11
5.437876849
 21
-20.6575950679
 31
0.0
 11
5.4384921418
 21
-20.6264871607
 31
0.0
 11
5.4395570529
 21
-20.5550867512
 31
0.0
 11
5.4403698383
 21
-20.4735277451
 31
0.0
 11
5.4409020524
 21
-20.3845964748
 31
0.0
 11
5.4411349407
 21
-20.2916947997
 31
0.0
  0
SPLINE
  5
56D
100
AcDbEntity
  8
ASSI
100
AcDbSpline
 62
7
  6
CONTINUOUS
 70
0
 71
3
 72
19
 73
15
 74
13
 42
0.0000001
 43
0.0000001
 44
0.0000000001
 12
0.0004025055
 22
-0.4759851837
 32
0.0
 13
0.3365724725
 23
-0.3365724704
 33
0.0
 40
0.0
 40
0.0
 40
0.0
 40
0.0
 40
0.195178205
 40
0.3820176993
 40
0.5533739298
 40
0.7033960887
 40
0.7687636287
 40
0.8268787105
 40
0.8772198709
 40
0.9193873193
 40
0.9529909102
 40
0.9777111745
 40
0.9933972171
 40
1.0
 40
1.0
 40
1.0
 40
1.0
 10
-5.4411349407
 20
-20.2916947997
 30
0.0
 10
-5.4411087539
 20
-20.322662111
 30
0.0
 10
-5.440958935
 20
-20.3832736384
 30
0.0
 10
-5.4404444018
 20
-20.4710717235
 30
0.0
 10
-5.4396580994
 20
-20.551702517
 30
0.0
 10
-5.4387717305
 20
-20.6130591788
 30
0.0
 10
-5.4379209146
 20
-20.6564441604
 30
0.0
 10
-5.4372721605
 20
-20.6840195443
 30
0.0
 10
-5.4365662
 20
-20.7078962841
 30
0.0
 10
-5.4358814193
 20
-20.7279257862
 30
0.0
 10
-5.4350378853
 20
-20.743765056
 30
0.0
 10
-5.4345303914
 20
-20.7556925543
 30
0.0
 10
-5.4333658522
 20
-20.7627241805
 30
0.0
 10
-5.4333104746
 20
-20.7666895254
 30
0.0
 10
-5.432569703
 20
-20.767430297
 30
0.0
 11
-5.4411349407
 21
-20.2916947997
 31
0.0
 11
-5.4409020524
 21
-20.3845964748
 31
0.0
 11
-5.4403698383
 21
-20.4735277451
 31
0.0
 11
-5.4395570529
 21
-20.5550867512
 31
0.0
 11
-5.4384921418
 21
-20.6264871607
 31
0.0
 11
-5.437876849
 21
-20.6575950679
 31
0.0
 11
-5.4372134177
 21
-20.6852490388
 31
0.0
 11
-5.4365075359
 21
-20.7092002944
 31
0.0
 11
-5.435765359
 21
-20.7292576556
 31
0.0
 11
-5.4349930753
 21
-20.7452338177
 31
0.0
 11
-5.4341974943
 21
-20.7569733743
 31
0.0
 11
-5.4333868797
 21
-20.7643955665
 31
0.0
 11
-5.432569703
 21
-20.767430297
 31
0.0
  0
LINE
  5
56E
100
AcDbEntity
  8
ASSI
100
AcDbLine
 62
253
  6
CONTINUOUS
 10
-5.432569703
 20
-20.767430297
 11
-6.4340630273
 21
-20.7681160106
  0
SPLINE
  5
56F
100
AcDbEntity
  8
ASSI
100
AcDbSpline
 62
7
  6
CONTINUOUS
 70
0
 71
3
 72
20
 73
16
 74
14
 42
0.0000001
 43
0.0000001
 44
0.0000000001
 12
0.0005472308
 22
-0.4789354966
 32
0.0
 13
0.4543445917
 23
-0.1514942288
 33
0.0
 40
0.0
 40
0.0
 40
0.0
 40
0.0
 40
0.1962050882
 40
0.3839940281
 40
0.5560183012
 40
0.706297899
 40
0.7716214382
 40
0.8295732283
 40
0.8796357928
 40
0.9214173414
 40
0.9545376333
 40
0.9786951631
 40
0.9937772017
 40
0.9979348601
 40
1.0
 40
1.0
 40
1.0
 40
1.0
 10
9.4434836352
 20
-20.3572262976
 30
0.0
 10
9.443519425
 20
-20.3885494914
 30
0.0
 10
9.4437411619
 20
-20.449852231
 30
0.0
 10
9.4445193628
 20
-20.53861491
 30
0.0
 10
9.4457138263
 20
-20.6200406955
 30
0.0
 10
9.4470653382
 20
-20.6819092902
 30
0.0
 10
9.4483591917
 20
-20.7255627927
 30
0.0
 10
9.4493538083
 20
-20.7532159993
 30
0.0
 10
9.4504067442
 20
-20.7771125387
 30
0.0
 10
9.4515083037
 20
-20.7970179319
 30
0.0
 10
9.4526287924
 20
-20.8128322138
 30
0.0
 10
9.4537757031
 20
-20.8242396137
 30
0.0
 10
9.4547740848
 20
-20.8312593005
 30
0.0
 10
9.4556811678
 20
-20.8343860315
 30
0.0
 10
9.456183829
 20
-20.8354076778
 30
0.0
 10
9.4564965907
 20
-20.8355119633
 30
0.0
 11
9.4434836352
 21
-20.3572262976
 31
0.0
 11
9.4438284442
 21
-20.4511953077
 31
0.0
 11
9.444633757
 21
-20.5411305502
 31
0.0
 11
9.4458698701
 21
-20.6235098611
 31
0.0
 11
9.4474917654
 21
-20.6954658654
 31
0.0
 11
9.4484289588
 21
-20.7267376071
 31
0.0
 11
9.4494392205
 21
-20.7544744022
 31
0.0
 11
9.4505136852
 21
-20.7784270701
 31
0.0
 11
9.4516428324
 21
-20.7984058672
 31
0.0
 11
9.4528170976
 21
-20.8142248371
 31
0.0
 11
9.4540259708
 21
-20.8257314158
 31
0.0
 11
9.455256789
 21
-20.8328491092
 31
0.0
 11
9.455876377
 21
-20.8347415133
 31
0.0
 11
9.4564965907
 21
-20.8355119633
 31
0.0
  0
SPLINE
  5
570
100
AcDbEntity
  8
ASSI
100
AcDbSpline
 62
7
  6
CONTINUOUS
 70
0
 71
3
 72
20
 73
16
 74
14
 42
0.0000001
 43
0.0000001
 44
0.0000000001
 12
0.4543698733
 22
0.151418622
 32
0.0
 13
0.0005472342
 23
0.4789355712
 33
0.0
 40
0.0
 40
0.0
 40
0.0
 40
0.0
 40
0.002064961
 40
0.0062224115
 40
0.0213040546
 40
0.0454612354
 40
0.0785812292
 40
0.120362537
 40
0.1704249258
 40
0.2283766123
 40
0.2937001051
 40
0.4439796597
 40
0.6160040444
 40
0.8037938911
 40
1.0
 40
1.0
 40
1.0
 40
1.0
 10
-9.4564965907
 20
-20.8355119633
 30
0.0
 10
-9.4561838387
 20
-20.8354077388
 30
0.0
 10
-9.4556811412
 20
-20.8343861402
 30
0.0
 10
-9.4547740917
 20
-20.831259569
 30
0.0
 10
-9.4537756772
 20
-20.8242400013
 30
0.0
 10
-9.4526287825
 20
-20.8128327868
 30
0.0
 10
-9.4515082822
 20
-20.797018636
 30
0.0
 10
-9.450406721
 20
-20.7771133576
 30
0.0
 10
-9.4493537796
 20
-20.7532168964
 30
0.0
 10
-9.4483591601
 20
-20.7255637381
 30
0.0
 10
-9.4470653023
 20
-20.6819102596
 30
0.0
 10
-9.4457137786
 20
-20.6200416522
 30
0.0
 10
-9.4445192882
 20
-20.5386156986
 30
0.0
 10
-9.4437411276
 20
-20.4498526797
 30
0.0
 10
-9.4435194252
 20
-20.3885496228
 30
0.0
 10
-9.443483635
 20
-20.3572262612
 30
0.0
 11
-9.4564965907
 21
-20.8355119633
 31
0.0
 11
-9.4558763753
 21
-20.8347416244
 31
0.0
 11
-9.4552567855
 21
-20.8328493254
 31
0.0
 11
-9.4540259633
 21
-20.8257318238
 31
0.0
 11
-9.4528170856
 21
-20.8142254118
 31
0.0
 11
-9.4516428154
 21
-20.7984065829
 31
0.0
 11
-9.450513663
 21
-20.7784278986
 31
0.0
 11
-9.4494391935
 21
-20.7544753113
 31
0.0
 11
-9.4484289279
 21
-20.7267385617
 31
0.0
 11
-9.447491731
 21
-20.6954668374
 31
0.0
 11
-9.4458698223
 21
-20.623510843
 31
0.0
 11
-9.4446336952
 21
-20.5411314659
 31
0.0
 11
-9.4438284112
 21
-20.4511957749
 31
0.0
 11
-9.443483635
 21
-20.3572262612
 31
0.0
  0
SPLINE
  5
571
100
AcDbEntity
  8
ASSI
100
AcDbSpline
 62
253
  6
CONTINUOUS
 70
0
 71
3
 72
21
 73
17
 74
15
 42
0.0000001
 43
0.0000001
 44
0.0000000001
 12
-0.3322042724
 22
0.6723986115
 32
0.0
 13
-0.0000012325
 23
0.7499863808
 33
0.0
 40
0.0
 40
0.0
 40
0.0
 40
0.0
 40
0.0020761064
 40
0.0064748838
 40
0.0131999047
 40
0.0222423331
 40
0.047220383
 40
0.0811680064
 40
0.1237648977
 40
0.1746133032
 40
0.2332250225
 40
0.2990673435
 40
0.4498729336
 40
0.621332998
 40
0.8070628718
 40
1.0
 40
1.0
 40
1.0
 40
1.0
 10
-3.1286750776
 20
-21.975182794
 30
0.0
 10
-3.1289049747
 20
-21.9747174704
 30
0.0
 10
-3.1290323071
 20
-21.9730542087
 30
0.0
 10
-3.1293993086
 20
-21.9698120037
 30
0.0
 10
-3.1296553819
 20
-21.9647559773
 30
0.0
 10
-3.1301325644
 20
-21.9545927577
 30
0.0
 10
-3.1306325941
 20
-21.9375989641
 30
0.0
 10
-3.1312153759
 20
-21.9122296448
 30
0.0
 10
-3.1317670658
 20
-21.8803850302
 30
0.0
 10
-3.1322988145
 20
-21.8423757134
 30
0.0
 10
-3.1327969291
 20
-21.7985534981
 30
0.0
 10
-3.1334403343
 20
-21.7297428911
 30
0.0
 10
-3.1341028526
 20
-21.6327197305
 30
0.0
 10
-3.1346745702
 20
-21.5057243778
 30
0.0
 10
-3.135026982
 20
-21.3681954785
 30
0.0
 10
-3.1351059205
 20
-21.2735304288
 30
0.0
 10
-3.1351059998
 20
-21.2252970227
 30
0.0
 11
-3.1286750776
 21
-21.975182794
 31
0.0
 11
-3.1289920476
 21
-21.9736583468
 31
0.0
 11
-3.1293083566
 21
-21.9703745224
 31
0.0
 11
-3.1296231247
 21
-21.9653406801
 31
0.0
 11
-3.1299354721
 21
-21.9585661787
 31
0.0
 11
-3.130549492
 21
-21.939843047
 31
0.0
 11
-3.1311444998
 21
-21.9143897454
 31
0.0
 11
-3.1317151454
 21
-21.882447754
 31
0.0
 11
-3.1322561805
 21
-21.8443159804
 31
0.0
 11
-3.1327624714
 21
-21.800360905
 31
0.0
 11
-3.1332291225
 21
-21.7509822659
 31
0.0
 11
-3.1340265503
 21
-21.6378829383
 31
0.0
 11
-3.1346186058
 21
-21.5092915881
 31
0.0
 11
-3.1349829985
 21
-21.3699971889
 31
0.0
 11
-3.1351059998
 21
-21.2252970227
 31
0.0
  0
SPLINE
  5
572
100
AcDbEntity
  8
ASSI
100
AcDbSpline
 62
253
  6
CONTINUOUS
 70
0
 71
3
 72
14
 73
10
 74
8
 42
0.0000001
 43
0.0000001
 44
0.0000000001
 12
0.0353890363
 22
-0.0353419927
 32
0.0
 13
-0.0000000042
 23
-0.0500144013
 33
0.0
 40
0.0
 40
0.0
 40
0.0
 40
0.0
 40
0.0223894862
 40
0.0813317476
 40
0.1747573579
 40
0.2991859872
 40
0.4499515839
 40
0.6213967272
 40
1.0
 40
1.0
 40
1.0
 40
1.0
 10
7.2131674569
 20
24.286863004
 30
0.0
 10
7.213431571
 20
24.286599241
 30
0.0
 10
7.2131956378
 20
24.2850244771
 30
0.0
 10
7.2136472507
 20
24.2823117595
 30
0.0
 10
7.2136160178
 20
24.277593811
 30
0.0
 10
7.2138079016
 20
24.2714929736
 30
0.0
 10
7.2138851817
 20
24.2640319979
 30
0.0
 10
7.2140004445
 20
24.2523553401
 30
0.0
 10
7.214024979
 20
24.2431824913
 30
0.0
 10
7.2140249785
 20
24.2368706193
 30
0.0
 11
7.2131674569
 21
24.286863004
 31
0.0
 11
7.2133354803
 21
24.2857558849
 31
0.0
 11
7.2134966412
 21
24.2828123315
 31
0.0
 11
7.2136448926
 21
24.2781420579
 31
0.0
 11
7.2137746403
 21
24.2719201872
 31
0.0
 11
7.213881
 21
24.2643804863
 31
0.0
 11
7.2139599679
 21
24.2558061237
 31
0.0
 11
7.2140249785
 21
24.2368706193
 31
0.0
  0
SPLINE
  5
573
100
AcDbEntity
  8
ASSI
100
AcDbSpline
 62
253
  6
CONTINUOUS
 70
0
 71
3
 72
21
 73
17
 74
15
 42
0.0000001
 43
0.0000001
 44
0.0000000001
 12
0.0000012325
 22
0.7499863808
 32
0.0
 13
0.3322042713
 23
0.6723986121
 33
0.0
 40
0.0
 40
0.0
 40
0.0
 40
0.0
 40
0.1929371282
 40
0.378667002
 40
0.5501270664
 40
0.7009326565
 40
0.7667749775
 40
0.8253866968
 40
0.8762351023
 40
0.9188319936
 40
0.952779617
 40
0.9777576669
 40
0.9868000953
 40
0.9935251162
 40
0.9979238936
 40
1.0
 40
1.0
 40
1.0
 40
1.0
 10
-3.1351059998
 20
21.2252970227
 30
0.0
 10
-3.1351059205
 20
21.2735304288
 30
0.0
 10
-3.135026982
 20
21.3681954785
 30
0.0
 10
-3.1346745702
 20
21.5057243778
 30
0.0
 10
-3.1341028526
 20
21.6327197305
 30
0.0
 10
-3.1334403343
 20
21.7297428911
 30
0.0
 10
-3.1327969291
 20
21.7985534981
 30
0.0
 10
-3.1322988145
 20
21.8423757134
 30
0.0
 10
-3.1317670658
 20
21.8803850302
 30
0.0
 10
-3.1312153759
 20
21.9122296448
 30
0.0
 10
-3.1306325941
 20
21.9375989641
 30
0.0
 10
-3.1301325644
 20
21.9545927577
 30
0.0
 10
-3.1296553819
 20
21.9647559773
 30
0.0
 10
-3.1293993086
 20
21.9698120037
 30
0.0
 10
-3.1290323071
 20
21.9730542087
 30
0.0
 10
-3.1289049747
 20
21.9747174703
 30
0.0
 10
-3.1286750776
 20
21.975182794
 30
0.0
 11
-3.1351059998
 21
21.2252970227
 31
0.0
 11
-3.1349829985
 21
21.3699971889
 31
0.0
 11
-3.1346186058
 21
21.5092915881
 31
0.0
 11
-3.1340265503
 21
21.6378829383
 31
0.0
 11
-3.1332291225
 21
21.7509822659
 31
0.0
 11
-3.1327624714
 21
21.800360905
 31
0.0
 11
-3.1322561805
 21
21.8443159804
 31
0.0
 11
-3.1317151454
 21
21.882447754
 31
0.0
 11
-3.1311444998
 21
21.9143897454
 31
0.0
 11
-3.130549492
 21
21.939843047
 31
0.0
 11
-3.1299354721
 21
21.9585661787
 31
0.0
 11
-3.1296231247
 21
21.9653406801
 31
0.0
 11
-3.1293083566
 21
21.9703745224
 31
0.0
 11
-3.1289920476
 21
21.9736583468
 31
0.0
 11
-3.1286750776
 21
21.975182794
 31
0.0
  0
SPLINE
  5
574
100
AcDbEntity
  8
ASSI
100
AcDbSpline
 62
253
  6
CONTINUOUS
 70
0
 71
3
 72
21
 73
17
 74
15
 42
0.0000001
 43
0.0000001
 44
0.0000000001
 12
-0.0000012325
 22
-0.7499863808
 32
0.0
 13
-0.3322042713
 23
-0.6723986121
 33
0.0
 40
0.0
 40
0.0
 40
0.0
 40
0.0
 40
0.1929371282
 40
0.378667002
 40
0.5501270664
 40
0.7009326565
 40
0.7667749775
 40
0.8253866968
 40
0.8762351023
 40
0.9188319936
 40
0.952779617
 40
0.9777576669
 40
0.9868000953
 40
0.9935251162
 40
0.9979238936
 40
1.0
 40
1.0
 40
1.0
 40
1.0
 10
3.1351059998
 20
-21.2252970227
 30
0.0
 10
3.1351059205
 20
-21.2735304288
 30
0.0
 10
3.135026982
 20
-21.3681954785
 30
0.0
 10
3.1346745702
 20
-21.5057243778
 30
0.0
 10
3.1341028526
 20
-21.6327197305
 30
0.0
 10
3.1334403343
 20
-21.7297428911
 30
0.0
 10
3.1327969291
 20
-21.7985534981
 30
0.0
 10
3.1322988145
 20
-21.8423757134
 30
0.0
 10
3.1317670658
 20
-21.8803850302
 30
0.0
 10
3.1312153759
 20
-21.9122296448
 30
0.0
 10
3.1306325941
 20
-21.9375989641
 30
0.0
 10
3.1301325644
 20
-21.9545927577
 30
0.0
 10
3.1296553819
 20
-21.9647559773
 30
0.0
 10
3.1293993086
 20
-21.9698120037
 30
0.0
 10
3.1290323071
 20
-21.9730542087
 30
0.0
 10
3.1289049747
 20
-21.9747174704
 30
0.0
 10
3.1286750776
 20
-21.975182794
 30
0.0
 11
3.1351059998
 21
-21.2252970227
 31
0.0
 11
3.1349829985
 21
-21.3699971889
 31
0.0
 11
3.1346186058
 21
-21.5092915881
 31
0.0
 11
3.1340265503
 21
-21.6378829383
 31
0.0
 11
3.1332291225
 21
-21.7509822659
 31
0.0
 11
3.1327624714
 21
-21.800360905
 31
0.0
 11
3.1322561805
 21
-21.8443159804
 31
0.0
 11
3.1317151454
 21
-21.882447754
 31
0.0
 11
3.1311444998
 21
-21.9143897454
 31
0.0
 11
3.130549492
 21
-21.939843047
 31
0.0
 11
3.1299354721
 21
-21.9585661787
 31
0.0
 11
3.1296231247
 21
-21.9653406801
 31
0.0
 11
3.1293083566
 21
-21.9703745224
 31
0.0
 11
3.1289920476
 21
-21.9736583468
 31
0.0
 11
3.1286750776
 21
-21.975182794
 31
0.0
  0
SPLINE
  5
575
100
AcDbEntity
  8
ASSI
100
AcDbSpline
 62
253
  6
CONTINUOUS
 70
0
 71
3
 72
9
 73
5
 74
3
 42
0.0000001
 43
0.0000001
 44
0.0000000001
 12
0.0000000101
 22
-0.0433040274
 32
0.0
 13
-0.0013086635
 23
-0.0432842487
 33
0.0
 40
0.0
 40
0.0
 40
0.0
 40
0.0
 40
0.2987936565
 40
1.0
 40
1.0
 40
1.0
 40
1.0
 10
7.2140249785
 20
23.8443375673
 30
0.0
 10
7.2140249795
 20
23.8400245777
 30
0.0
 10
7.2139818319
 20
23.825590381
 30
0.0
 10
7.2138944829
 20
23.8111533604
 30
0.0
 10
7.2135886019
 20
23.8010362971
 30
0.0
 11
7.2140249785
 21
23.8443375673
 31
0.0
 11
7.2139952489
 21
23.8313986328
 31
0.0
 11
7.2135886019
 21
23.8010362971
 31
0.0
  0
SPLINE
  5
576
100
AcDbEntity
  8
ASSI
100
AcDbSpline
 62
253
  6
CONTINUOUS
 70
0
 71
3
 72
21
 73
17
 74
15
 42
0.0000001
 43
0.0000001
 44
0.0000000001
 12
0.3322042724
 22
-0.6723986115
 32
0.0
 13
0.0000012325
 23
-0.7499863808
 33
0.0
 40
0.0
 40
0.0
 40
0.0
 40
0.0
 40
0.0020761064
 40
0.0064748838
 40
0.0131999047
 40
0.0222423331
 40
0.047220383
 40
0.0811680064
 40
0.1237648977
 40
0.1746133032
 40
0.2332250225
 40
0.2990673435
 40
0.4498729336
 40
0.621332998
 40
0.8070628718
 40
1.0
 40
1.0
 40
1.0
 40
1.0
 10
3.1286750776
 20
21.975182794
 30
0.0
 10
3.1289049747
 20
21.9747174704
 30
0.0
 10
3.1290323071
 20
21.9730542087
 30
0.0
 10
3.1293993086
 20
21.9698120037
 30
0.0
 10
3.1296553819
 20
21.9647559773
 30
0.0
 10
3.1301325644
 20
21.9545927577
 30
0.0
 10
3.1306325941
 20
21.9375989641
 30
0.0
 10
3.1312153759
 20
21.9122296448
 30
0.0
 10
3.1317670658
 20
21.8803850302
 30
0.0
 10
3.1322988145
 20
21.8423757134
 30
0.0
 10
3.1327969291
 20
21.7985534981
 30
0.0
 10
3.1334403343
 20
21.7297428911
 30
0.0
 10
3.1341028526
 20
21.6327197305
 30
0.0
 10
3.1346745702
 20
21.5057243778
 30
0.0
 10
3.135026982
 20
21.3681954785
 30
0.0
 10
3.1351059205
 20
21.2735304288
 30
0.0
 10
3.1351059998
 20
21.2252970227
 30
0.0
 11
3.1286750776
 21
21.975182794
 31
0.0
 11
3.1289920476
 21
21.9736583468
 31
0.0
 11
3.1293083566
 21
21.9703745224
 31
0.0
 11
3.1296231247
 21
21.9653406801
 31
0.0
 11
3.1299354721
 21
21.9585661787
 31
0.0
 11
3.130549492
 21
21.939843047
 31
0.0
 11
3.1311444998
 21
21.9143897454
 31
0.0
 11
3.1317151454
 21
21.882447754
 31
0.0
 11
3.1322561805
 21
21.8443159804
 31
0.0
 11
3.1327624714
 21
21.800360905
 31
0.0
 11
3.1332291225
 21
21.7509822659
 31
0.0
 11
3.1340265503
 21
21.6378829383
 31
0.0
 11
3.1346186058
 21
21.5092915881
 31
0.0
 11
3.1349829985
 21
21.3699971889
 31
0.0
 11
3.1351059998
 21
21.2252970227
 31
0.0
  0
SPLINE
  5
577
100
AcDbEntity
  8
ASSI
100
AcDbSpline
 62
253
  6
CONTINUOUS
 70
0
 71
3
 72
9
 73
5
 74
3
 42
0.0000001
 43
0.0000001
 44
0.0000000001
 12
-0.0000009928
 22
0.2164846565
 32
0.0
 13
-0.0013081016
 23
0.2164807044
 33
0.0
 40
0.0
 40
0.0
 40
0.0
 40
0.0
 40
0.2986608327
 40
1.0
 40
1.0
 40
1.0
 40
1.0
 10
-10.3860054704
 20
-23.8443575944
 30
0.0
 10
-10.3860055693
 20
-23.8228057652
 30
0.0
 10
-10.3860481938
 20
-23.7506443085
 30
0.0
 10
-10.3861358263
 20
-23.6784822881
 30
0.0
 10
-10.386441634
 20
-23.6278734891
 30
0.0
 11
-10.3860054704
 21
-23.8443575944
 31
0.0
 11
-10.3860350445
 21
-23.7797021134
 31
0.0
 11
-10.386441634
 21
-23.6278734891
 31
0.0
  0
LINE
  5
578
100
AcDbEntity
  8
ASSI
100
AcDbLine
 62
7
  6
CONTINUOUS
 10
-9.2533769702
 20
-23.6278312164
 11
-9.0368706193
 21
-23.8443375673
  0
LINE
  5
579
100
AcDbEntity
  8
ASSI
100
AcDbLine
 62
7
  6
CONTINUOUS
 10
8.5466230298
 20
-23.6278312164
 11
8.7631293807
 21
-23.8443375673
  0
LINE
  5
57A
100
AcDbEntity
  8
ASSI
100
AcDbLine
 62
7
  6
CONTINUOUS
 10
-9.2533769702
 20
23.6278312163
 11
-9.0368706193
 21
23.8443375673
  0
SPLINE
  5
57B
100
AcDbEntity
  8
ASSI
100
AcDbSpline
 62
253
  6
CONTINUOUS
 70
0
 71
3
 72
9
 73
5
 74
3
 42
0.0000001
 43
0.0000001
 44
0.0000000001
 12
0.0000000798
 22
-0.2165052525
 32
0.0
 13
-0.0013107489
 23
-0.2165012847
 33
0.0
 40
0.0
 40
0.0
 40
0.0
 40
0.0
 40
0.2988002074
 40
1.0
 40
1.0
 40
1.0
 40
1.0
 10
7.4139945172
 20
23.8443359174
 30
0.0
 10
7.4139945251
 20
23.8227719793
 30
0.0
 10
7.4139512004
 20
23.7506036582
 30
0.0
 10
7.4138645065
 20
23.6784347683
 30
0.0
 10
7.4135581409
 20
23.6278312163
 30
0.0
 11
7.4139945172
 21
23.8443359174
 31
0.0
 11
7.4139647622
 21
23.7796441099
 31
0.0
 11
7.4135581409
 21
23.6278312163
 31
0.0
  0
LINE
  5
57C
100
AcDbEntity
  8
ASSI
100
AcDbLine
 62
7
  6
CONTINUOUS
 10
8.5466230298
 20
23.6278312163
 11
8.7631293807
 21
23.8443375673
  0
SPLINE
  5
57D
100
AcDbEntity
  8
ASSI
100
AcDbSpline
 62
253
  6
CONTINUOUS
 70
0
 71
3
 72
9
 73
5
 74
3
 42
0.0000001
 43
0.0000001
 44
0.0000000001
 12
0.0013086622
 22
-0.0432844713
 32
0.0
 13
-0.0000000121
 23
-0.0433042498
 33
0.0
 40
0.0
 40
0.0
 40
0.0
 40
0.0
 40
0.183485244
 40
1.0
 40
1.0
 40
1.0
 40
1.0
 10
7.2135886019
 20
-23.8010362971
 30
0.0
 10
7.213668642
 20
-23.803683651
 30
0.0
 10
7.2139645839
 20
-23.8181157778
 30
0.0
 10
7.2140249818
 20
-23.832551381
 30
0.0
 10
7.2140249785
 20
-23.8443375673
 30
0.0
 11
7.2135886019
 21
-23.8010362971
 31
0.0
 11
7.2137693139
 21
-23.8089799327
 31
0.0
 11
7.2140249785
 21
-23.8443375673
 31
0.0
  0
SPLINE
  5
57E
100
AcDbEntity
  8
ASSI
100
AcDbSpline
 62
253
  6
CONTINUOUS
 70
0
 71
3
 72
14
 73
10
 74
8
 42
0.0000001
 43
0.0000001
 44
0.0000000001
 12
0.0000000203
 22
-0.0500143983
 32
0.0
 13
-0.0353703802
 23
-0.0353606595
 33
0.0
 40
0.0
 40
0.0
 40
0.0
 40
0.0
 40
0.3784780211
 40
0.5499153469
 40
0.7006964619
 40
0.8251532518
 40
0.9186155577
 40
0.9775909287
 40
1.0
 40
1.0
 40
1.0
 40
1.0
 10
7.2140249785
 20
-24.2368706193
 30
0.0
 10
7.2140249811
 20
-24.2431804028
 30
0.0
 10
7.2140004536
 20
-24.2523510272
 30
0.0
 10
7.2138852553
 20
-24.2640257364
 30
0.0
 10
7.2138079839
 20
-24.2714872873
 30
0.0
 10
7.2136161456
 20
-24.27758952
 30
0.0
 10
7.2136473315
 20
-24.2823089904
 30
0.0
 10
7.2131957107
 20
-24.2850233649
 30
0.0
 10
7.2134316627
 20
-24.2865988709
 30
0.0
 10
7.2131674569
 20
-24.2868630041
 30
0.0
 11
7.2140249785
 21
-24.2368706193
 31
0.0
 11
7.213960012
 21
-24.2557998583
 31
0.0
 11
7.2138810761
 21
-24.2643738297
 31
0.0
 11
7.2137747412
 21
-24.2719143067
 31
0.0
 11
7.2136450075
 21
-24.2781375861
 31
0.0
 11
7.2134967497
 21
-24.2828096954
 31
0.0
 11
7.2133355514
 21
-24.285754905
 31
0.0
 11
7.2131674569
 21
-24.2868630041
 31
0.0
  0
SPLINE
  5
57F
100
AcDbEntity
  8
ASSI
100
AcDbSpline
 62
253
  6
CONTINUOUS
 70
0
 71
3
 72
29
 73
25
 74
23
 42
0.0000001
 43
0.0000001
 44
0.0000000001
 12
-0.7263583892
 22
0.2593445439
 32
0.0
 13
-0.7271099964
 23
-0.2572297712
 33
0.0
 40
0.0
 40
0.0
 40
0.0
 40
0.0
 40
0.0032179334
 40
0.0111037242
 40
0.0235808853
 40
0.0405568207
 40
0.061856361
 40
0.0872674045
 40
0.1494958333
 40
0.2248813731
 40
0.3106157828
 40
0.4034610831
 40
0.4999353888
 40
0.5964121872
 40
0.6892647352
 40
0.7750110185
 40
0.850413202
 40
0.9126602499
 40
0.9380808928
 40
0.9593917734
 40
0.9763823864
 40
0.9888767887
 40
0.9967768829
 40
1.0
 40
1.0
 40
1.0
 40
1.0
 10
4.3518840226
 20
-23.6519220988
 30
0.0
 10
4.3511048983
 20
-23.6516439143
 30
0.0
 10
4.3481684923
 20
-23.6517775732
 30
0.0
 10
4.3421822413
 20
-23.6513246894
 30
0.0
 10
4.3325462021
 20
-23.6512524891
 30
0.0
 10
4.3195162475
 20
-23.6509884274
 30
0.0
 10
4.303138163
 20
-23.6508088207
 30
0.0
 10
4.2751351899
 20
-23.6505241103
 30
0.0
 10
4.2332223457
 20
-23.6502372817
 30
0.0
 10
4.1758031272
 20
-23.649957762
 30
0.0
 10
4.110511341
 20
-23.6497522438
 30
0.0
 10
4.0397979482
 20
-23.6496243194
 30
0.0
 10
3.9663226121
 20
-23.649581034
 30
0.0
 10
3.892845413
 20
-23.6496239558
 30
0.0
 10
3.8221264616
 20
-23.6497515729
 30
0.0
 10
3.7568254838
 20
-23.649956869
 30
0.0
 10
3.699394134
 20
-23.6502362193
 30
0.0
 10
3.6574697843
 20
-23.650522861
 30
0.0
 10
3.629456591
 20
-23.6508072777
 30
0.0
 10
3.613069452
 20
-23.6509871158
 30
0.0
 10
3.6000281162
 20
-23.6512513621
 30
0.0
 10
3.590380816
 20
-23.6513253656
 30
0.0
 10
3.5843840353
 20
-23.6517775988
 30
0.0
 10
3.5814439
 20
-23.6516451211
 30
0.0
 10
3.5806627131
 20
-23.6519214817
 30
0.0
 11
4.3518840226
 21
-23.6519220988
 31
0.0
 11
4.3494127961
 21
-23.6516922484
 31
0.0
 11
4.3433349529
 21
-23.6514656152
 31
0.0
 11
4.3337142577
 21
-23.6512439079
 31
0.0
 11
4.3206230085
 21
-23.6510288629
 31
0.0
 11
4.3041966274
 21
-23.6508224232
 31
0.0
 11
4.2845988515
 21
-23.6506266247
 31
0.0
 11
4.2366052742
 21
-23.650274723
 31
0.0
 11
4.1784634483
 21
-23.6499863128
 31
0.0
 11
4.1123394898
 21
-23.6497721635
 31
0.0
 11
4.0407308953
 21
-23.6496402878
 31
0.0
 11
3.966323253
 21
-23.6495955842
 31
0.0
 11
3.8919136879
 21
-23.6496399248
 31
0.0
 11
3.8202995029
 21
-23.649771491
 31
0.0
 11
3.7541663859
 21
-23.6499854062
 31
0.0
 11
3.6960117221
 21
-23.6502736235
 31
0.0
 11
3.6480037821
 21
-23.6506252526
 31
0.0
 11
3.6283986011
 21
-23.6508209404
 31
0.0
 11
3.6119634746
 21
-23.6510275278
 31
0.0
 11
3.5988609138
 21
-23.6512431999
 31
0.0
 11
3.58922694
 21
-23.6514658777
 31
0.0
 11
3.5831380714
 21
-23.6516928893
 31
0.0
 11
3.5806627131
 21
-23.6519214817
 31
0.0
  0
SPLINE
  5
580
100
AcDbEntity
  8
ASSI
100
AcDbSpline
 62
253
  6
CONTINUOUS
 70
0
 71
3
 72
29
 73
25
 74
23
 42
0.0000001
 43
0.0000001
 44
0.0000000001
 12
0.727109997
 22
-0.2572297694
 32
0.0
 13
0.7263583895
 23
0.2593445431
 33
0.0
 40
0.0
 40
0.0
 40
0.0
 40
0.0
 40
0.0032231171
 40
0.0111232113
 40
0.0236176136
 40
0.0406082266
 40
0.0619191072
 40
0.0873397501
 40
0.149586798
 40
0.2249889815
 40
0.3107352647
 40
0.4035878127
 40
0.5000646111
 40
0.5965389168
 40
0.6893842172
 40
0.7751186269
 40
0.8505041667
 40
0.9127325955
 40
0.938143639
 40
0.9594431793
 40
0.9764191147
 40
0.9888962758
 40
0.9967820666
 40
1.0
 40
1.0
 40
1.0
 40
1.0
 10
3.5806627131
 20
23.6519214817
 30
0.0
 10
3.5814439
 20
23.6516451211
 30
0.0
 10
3.5843840353
 20
23.6517775988
 30
0.0
 10
3.590380816
 20
23.6513253656
 30
0.0
 10
3.6000281162
 20
23.6512513621
 30
0.0
 10
3.613069452
 20
23.6509871158
 30
0.0
 10
3.629456591
 20
23.6508072777
 30
0.0
 10
3.6574697843
 20
23.650522861
 30
0.0
 10
3.699394134
 20
23.6502362193
 30
0.0
 10
3.7568254838
 20
23.649956869
 30
0.0
 10
3.8221264616
 20
23.6497515729
 30
0.0
 10
3.8928454129
 20
23.6496239558
 30
0.0
 10
3.9663226121
 20
23.649581034
 30
0.0
 10
4.0397979481
 20
23.6496243194
 30
0.0
 10
4.110511341
 20
23.6497522438
 30
0.0
 10
4.1758031271
 20
23.649957762
 30
0.0
 10
4.2332223457
 20
23.6502372817
 30
0.0
 10
4.2751351899
 20
23.6505241103
 30
0.0
 10
4.303138163
 20
23.6508088207
 30
0.0
 10
4.3195162475
 20
23.6509884274
 30
0.0
 10
4.3325462021
 20
23.6512524891
 30
0.0
 10
4.3421822413
 20
23.6513246894
 30
0.0
 10
4.3481684923
 20
23.6517775732
 30
0.0
 10
4.3511048983
 20
23.6516439143
 30
0.0
 10
4.3518840226
 20
23.6519220988
 30
0.0
 11
3.5806627131
 21
23.6519214817
 31
0.0
 11
3.5831380714
 21
23.6516928893
 31
0.0
 11
3.5892269399
 21
23.6514658777
 31
0.0
 11
3.5988609138
 21
23.6512431999
 31
0.0
 11
3.6119634746
 21
23.6510275278
 31
0.0
 11
3.628398601
 21
23.6508209404
 31
0.0
 11
3.6480037821
 21
23.6506252526
 31
0.0
 11
3.6960117221
 21
23.6502736235
 31
0.0
 11
3.7541663859
 21
23.6499854062
 31
0.0
 11
3.8202995029
 21
23.649771491
 31
0.0
 11
3.8919136879
 21
23.6496399248
 31
0.0
 11
3.9663232529
 21
23.6495955842
 31
0.0
 11
4.0407308953
 21
23.6496402878
 31
0.0
 11
4.1123394898
 21
23.6497721635
 31
0.0
 11
4.1784634483
 21
23.6499863128
 31
0.0
 11
4.2366052742
 21
23.650274723
 31
0.0
 11
4.2845988515
 21
23.6506266247
 31
0.0
 11
4.3041966274
 21
23.6508224232
 31
0.0
 11
4.3206230085
 21
23.6510288629
 31
0.0
 11
4.3337142577
 21
23.6512439079
 31
0.0
 11
4.3433349528
 21
23.6514656152
 31
0.0
 11
4.3494127961
 21
23.6516922484
 31
0.0
 11
4.3518840226
 21
23.6519220988
 31
0.0
  0
SPLINE
  5
581
100
AcDbEntity
  8
ASSI
100
AcDbSpline
 62
253
  6
CONTINUOUS
 70
0
 71
3
 72
29
 73
25
 74
23
 42
0.0000001
 43
0.0000001
 44
0.0000000001
 12
-0.7263583892
 22
0.2593445439
 32
0.0
 13
-0.7271099964
 23
-0.2572297712
 33
0.0
 40
0.0
 40
0.0
 40
0.0
 40
0.0
 40
0.0032179334
 40
0.0111037242
 40
0.0235808853
 40
0.0405568207
 40
0.061856361
 40
0.0872674045
 40
0.1494958333
 40
0.2248813731
 40
0.3106157828
 40
0.4034610831
 40
0.4999353888
 40
0.5964121872
 40
0.6892647352
 40
0.7750110185
 40
0.850413202
 40
0.9126602499
 40
0.9380808928
 40
0.9593917734
 40
0.9763823864
 40
0.9888767887
 40
0.9967768829
 40
1.0
 40
1.0
 40
1.0
 40
1.0
 10
-3.5806609125
 20
-23.6519220988
 30
0.0
 10
-3.5814400368
 20
-23.6516439143
 30
0.0
 10
-3.5843764427
 20
-23.6517775732
 30
0.0
 10
-3.5903626937
 20
-23.6513246894
 30
0.0
 10
-3.599998733
 20
-23.6512524891
 30
0.0
 10
-3.6130286875
 20
-23.6509884274
 30
0.0
 10
-3.6294067721
 20
-23.6508088207
 30
0.0
 10
-3.6574097452
 20
-23.6505241103
 30
0.0
 10
-3.6993225893
 20
-23.6502372817
 30
0.0
 10
-3.7567418079
 20
-23.649957762
 30
0.0
 10
-3.8220335941
 20
-23.6497522438
 30
0.0
 10
-3.8927469869
 20
-23.6496243194
 30
0.0
 10
-3.966222323
 20
-23.649581034
 30
0.0
 10
-4.0396995221
 20
-23.6496239558
 30
0.0
 10
-4.1104184735
 20
-23.6497515729
 30
0.0
 10
-4.1757194512
 20
-23.649956869
 30
0.0
 10
-4.2331508011
 20
-23.6502362193
 30
0.0
 10
-4.2750751508
 20
-23.650522861
 30
0.0
 10
-4.3030883441
 20
-23.6508072777
 30
0.0
 10
-4.319475483
 20
-23.6509871158
 30
0.0
 10
-4.3325168189
 20
-23.6512513621
 30
0.0
 10
-4.3421641191
 20
-23.6513253656
 30
0.0
 10
-4.3481608997
 20
-23.6517775988
 30
0.0
 10
-4.3511010351
 20
-23.6516451211
 30
0.0
 10
-4.351882222
 20
-23.6519214817
 30
0.0
 11
-3.5806609125
 21
-23.6519220988
 31
0.0
 11
-3.583132139
 21
-23.6516922484
 31
0.0
 11
-3.5892099822
 21
-23.6514656152
 31
0.0
 11
-3.5988306774
 21
-23.6512439079
 31
0.0
 11
-3.6119219266
 21
-23.6510288629
 31
0.0
 11
-3.6283483077
 21
-23.6508224232
 31
0.0
 11
-3.6479460836
 21
-23.6506266247
 31
0.0
 11
-3.6959396609
 21
-23.650274723
 31
0.0
 11
-3.7540814868
 21
-23.6499863128
 31
0.0
 11
-3.8202054453
 21
-23.6497721635
 31
0.0
 11
-3.8918140398
 21
-23.6496402878
 31
0.0
 11
-3.9662216821
 21
-23.6495955842
 31
0.0
 11
-4.0406312472
 21
-23.6496399248
 31
0.0
 11
-4.1122454321
 21
-23.649771491
 31
0.0
 11
-4.1783785492
 21
-23.6499854062
 31
0.0
 11
-4.236533213
 21
-23.6502736235
 31
0.0
 11
-4.284541153
 21
-23.6506252526
 31
0.0
 11
-4.304146334
 21
-23.6508209404
 31
0.0
 11
-4.3205814605
 21
-23.6510275278
 31
0.0
 11
-4.3336840212
 21
-23.6512431999
 31
0.0
 11
-4.3433179951
 21
-23.6514658777
 31
0.0
 11
-4.3494068637
 21
-23.6516928893
 31
0.0
 11
-4.351882222
 21
-23.6519214817
 31
0.0
  0
SPLINE
  5
582
100
AcDbEntity
  8
ASSI
100
AcDbSpline
 62
253
  6
CONTINUOUS
 70
0
 71
3
 72
29
 73
25
 74
23
 42
0.0000001
 43
0.0000001
 44
0.0000000001
 12
0.727109997
 22
-0.2572297694
 32
0.0
 13
0.7263583895
 23
0.2593445431
 33
0.0
 40
0.0
 40
0.0
 40
0.0
 40
0.0
 40
0.0032231171
 40
0.0111232113
 40
0.0236176136
 40
0.0406082266
 40
0.0619191072
 40
0.0873397501
 40
0.149586798
 40
0.2249889815
 40
0.3107352647
 40
0.4035878127
 40
0.5000646111
 40
0.5965389168
 40
0.6893842172
 40
0.7751186269
 40
0.8505041667
 40
0.9127325955
 40
0.938143639
 40
0.9594431793
 40
0.9764191147
 40
0.9888962758
 40
0.9967820666
 40
1.0
 40
1.0
 40
1.0
 40
1.0
 10
-4.351882222
 20
23.6519214817
 30
0.0
 10
-4.3511010351
 20
23.6516451211
 30
0.0
 10
-4.3481608997
 20
23.6517775988
 30
0.0
 10
-4.3421641191
 20
23.6513253656
 30
0.0
 10
-4.3325168189
 20
23.6512513621
 30
0.0
 10
-4.319475483
 20
23.6509871158
 30
0.0
 10
-4.3030883441
 20
23.6508072777
 30
0.0
 10
-4.2750751508
 20
23.650522861
 30
0.0
 10
-4.2331508011
 20
23.6502362193
 30
0.0
 10
-4.1757194513
 20
23.649956869
 30
0.0
 10
-4.1104184735
 20
23.6497515729
 30
0.0
 10
-4.0396995221
 20
23.6496239558
 30
0.0
 10
-3.966222323
 20
23.649581034
 30
0.0
 10
-3.8927469869
 20
23.6496243194
 30
0.0
 10
-3.8220335941
 20
23.6497522438
 30
0.0
 10
-3.7567418079
 20
23.649957762
 30
0.0
 10
-3.6993225893
 20
23.6502372817
 30
0.0
 10
-3.6574097452
 20
23.6505241103
 30
0.0
 10
-3.6294067721
 20
23.6508088207
 30
0.0
 10
-3.6130286875
 20
23.6509884274
 30
0.0
 10
-3.599998733
 20
23.6512524891
 30
0.0
 10
-3.5903626937
 20
23.6513246894
 30
0.0
 10
-3.5843764427
 20
23.6517775732
 30
0.0
 10
-3.5814400368
 20
23.6516439143
 30
0.0
 10
-3.5806609125
 20
23.6519220988
 30
0.0
 11
-4.351882222
 21
23.6519214817
 31
0.0
 11
-4.3494068637
 21
23.6516928893
 31
0.0
 11
-4.3433179951
 21
23.6514658777
 31
0.0
 11
-4.3336840213
 21
23.6512431999
 31
0.0
 11
-4.3205814605
 21
23.6510275278
 31
0.0
 11
-4.304146334
 21
23.6508209404
 31
0.0
 11
-4.284541153
 21
23.6506252526
 31
0.0
 11
-4.236533213
 21
23.6502736235
 31
0.0
 11
-4.1783785492
 21
23.6499854062
 31
0.0
 11
-4.1122454322
 21
23.649771491
 31
0.0
 11
-4.0406312472
 21
23.6496399248
 31
0.0
 11
-3.9662216821
 21
23.6495955842
 31
0.0
 11
-3.8918140398
 21
23.6496402878
 31
0.0
 11
-3.8202054453
 21
23.6497721635
 31
0.0
 11
-3.7540814868
 21
23.6499863128
 31
0.0
 11
-3.6959396609
 21
23.650274723
 31
0.0
 11
-3.6479460836
 21
23.6506266247
 31
0.0
 11
-3.6283483077
 21
23.6508224232
 31
0.0
 11
-3.6119219266
 21
23.6510288629
 31
0.0
 11
-3.5988306774
 21
23.6512439079
 31
0.0
 11
-3.5892099822
 21
23.6514656152
 31
0.0
 11
-3.583132139
 21
23.6516922484
 31
0.0
 11
-3.5806609125
 21
23.6519220988
 31
0.0
  0
SPLINE
  5
583
100
AcDbEntity
  8
ASSI
100
AcDbSpline
 62
253
  6
CONTINUOUS
 70
0
 71
3
 72
21
 73
17
 74
15
 42
0.0000001
 43
0.0000001
 44
0.0000000001
 12
-0.0000017991
 22
-0.9999233193
 32
0.0
 13
-0.3493460799
 23
-0.9369119281
 33
0.0
 40
0.0
 40
0.0
 40
0.0
 40
0.0
 40
0.1929492424
 40
0.3786907806
 40
0.5501571062
 40
0.7009672482
 40
0.7668124905
 40
0.8254280196
 40
0.8762789659
 40
0.9188741767
 40
0.9528173782
 40
0.9777920672
 40
0.9868332511
 40
0.9935550849
 40
0.9979456172
 40
1.0
 40
1.0
 40
1.0
 40
1.0
 10
3.3850964806
 20
-21.2252970227
 30
0.0
 10
3.3850963648
 20
-21.289608505
 30
0.0
 10
3.385017461
 20
-21.4158290992
 30
0.0
 10
3.384665085
 20
-21.5992004624
 30
0.0
 10
3.3840933472
 20
-21.7685258935
 30
0.0
 10
3.3834308525
 20
-21.8978883273
 30
0.0
 10
3.3827874221
 20
-21.9896359664
 30
0.0
 10
3.3822893409
 20
-22.0480667933
 30
0.0
 10
3.3817574022
 20
-22.098746892
 30
0.0
 10
3.3812062018
 20
-22.141204643
 30
0.0
 10
3.3806220981
 20
-22.1750311627
 30
0.0
 10
3.3801249242
 20
-22.1976849519
 30
0.0
 10
3.3796438709
 20
-22.2112446031
 30
0.0
 10
3.3793948843
 20
-22.2179751779
 30
0.0
 10
3.379014647
 20
-22.2223159522
 30
0.0
 10
3.3789047885
 20
-22.2245031259
 30
0.0
 10
3.3786655583
 20
-22.2251447178
 30
0.0
 11
3.3850964806
 21
-21.2252970227
 31
0.0
 11
3.3849734751
 21
-21.4182314304
 31
0.0
 11
3.3846091063
 21
-21.6039583684
 31
0.0
 11
3.3840170513
 21
-21.7754105236
 31
0.0
 11
3.3832196342
 21
-21.9262069931
 31
0.0
 11
3.3827529776
 21
-21.9920455325
 31
0.0
 11
3.3822466579
 21
-22.0506543799
 31
0.0
 11
3.3817055901
 21
-22.1014985481
 31
0.0
 11
3.3811349364
 21
-22.1440866696
 31
0.0
 11
3.3805399523
 21
-22.1780220528
 31
0.0
 11
3.3799259761
 21
-22.2029872781
 31
0.0
 11
3.3796136517
 21
-22.2120223721
 31
0.0
 11
3.379298895
 21
-22.2187363164
 31
0.0
 11
3.3789825744
 21
-22.2231151015
 31
0.0
 11
3.3786655583
 21
-22.2251447178
 31
0.0
  0
SPLINE
  5
584
100
AcDbEntity
  8
ASSI
100
AcDbSpline
 62
253
  6
CONTINUOUS
 70
0
 71
3
 72
21
 73
17
 74
15
 42
0.0000001
 43
0.0000001
 44
0.0000000001
 12
-0.3493460813
 22
0.9369119276
 32
0.0
 13
-0.0000017991
 23
0.9999233193
 33
0.0
 40
0.0
 40
0.0
 40
0.0
 40
0.0
 40
0.0020543828
 40
0.0064449151
 40
0.0131667489
 40
0.0222079328
 40
0.0471826218
 40
0.0811258233
 40
0.1237210341
 40
0.1745719804
 40
0.2331875095
 40
0.2990327518
 40
0.4498428938
 40
0.6213092194
 40
0.8070507576
 40
1.0
 40
1.0
 40
1.0
 40
1.0
 10
-3.3786655583
 20
-22.2251447178
 30
0.0
 10
-3.3789047885
 20
-22.2245031259
 30
0.0
 10
-3.379014647
 20
-22.2223159522
 30
0.0
 10
-3.3793948843
 20
-22.2179751779
 30
0.0
 10
-3.3796438709
 20
-22.2112446031
 30
0.0
 10
-3.3801249242
 20
-22.1976849519
 30
0.0
 10
-3.3806220981
 20
-22.1750311627
 30
0.0
 10
-3.3812062018
 20
-22.141204643
 30
0.0
 10
-3.3817574022
 20
-22.098746892
 30
0.0
 10
-3.3822893409
 20
-22.0480667933
 30
0.0
 10
-3.3827874221
 20
-21.9896359664
 30
0.0
 10
-3.3834308525
 20
-21.8978883273
 30
0.0
 10
-3.3840933472
 20
-21.7685258935
 30
0.0
 10
-3.384665085
 20
-21.5992004624
 30
0.0
 10
-3.385017461
 20
-21.4158290992
 30
0.0
 10
-3.3850963648
 20
-21.289608505
 30
0.0
 10
-3.3850964806
 20
-21.2252970227
 30
0.0
 11
-3.3786655583
 21
-22.2251447178
 31
0.0
 11
-3.3789825744
 21
-22.2231151015
 31
0.0
 11
-3.379298895
 21
-22.2187363164
 31
0.0
 11
-3.3796136517
 21
-22.2120223721
 31
0.0
 11
-3.3799259761
 21
-22.2029872781
 31
0.0
 11
-3.3805399523
 21
-22.1780220528
 31
0.0
 11
-3.3811349364
 21
-22.1440866696
 31
0.0
 11
-3.3817055901
 21
-22.1014985481
 31
0.0
 11
-3.3822466579
 21
-22.0506543799
 31
0.0
 11
-3.3827529776
 21
-21.9920455325
 31
0.0
 11
-3.3832196342
 21
-21.9262069931
 31
0.0
 11
-3.3840170513
 21
-21.7754105236
 31
0.0
 11
-3.3846091063
 21
-21.6039583684
 31
0.0
 11
-3.3849734751
 21
-21.4182314304
 31
0.0
 11
-3.3850964806
 21
-21.2252970227
 31
0.0
  0
SPLINE
  5
585
100
AcDbEntity
  8
ASSI
100
AcDbSpline
 62
253
  6
CONTINUOUS
 70
0
 71
3
 72
21
 73
17
 74
15
 42
0.0000001
 43
0.0000001
 44
0.0000000001
 12
0.0000017991
 22
0.9999233193
 32
0.0
 13
0.3493460799
 23
0.9369119281
 33
0.0
 40
0.0
 40
0.0
 40
0.0
 40
0.0
 40
0.1929492424
 40
0.3786907806
 40
0.5501571062
 40
0.7009672482
 40
0.7668124905
 40
0.8254280196
 40
0.8762789659
 40
0.9188741767
 40
0.9528173782
 40
0.9777920672
 40
0.9868332511
 40
0.9935550849
 40
0.9979456172
 40
1.0
 40
1.0
 40
1.0
 40
1.0
 10
-3.3850964806
 20
21.2252970227
 30
0.0
 10
-3.3850963648
 20
21.289608505
 30
0.0
 10
-3.385017461
 20
21.4158290992
 30
0.0
 10
-3.384665085
 20
21.5992004624
 30
0.0
 10
-3.3840933472
 20
21.7685258935
 30
0.0
 10
-3.3834308525
 20
21.8978883273
 30
0.0
 10
-3.3827874221
 20
21.9896359664
 30
0.0
 10
-3.3822893409
 20
22.0480667933
 30
0.0
 10
-3.3817574022
 20
22.098746892
 30
0.0
 10
-3.3812062018
 20
22.141204643
 30
0.0
 10
-3.3806220981
 20
22.1750311627
 30
0.0
 10
-3.3801249242
 20
22.1976849519
 30
0.0
 10
-3.3796438709
 20
22.2112446031
 30
0.0
 10
-3.3793948843
 20
22.2179751779
 30
0.0
 10
-3.379014647
 20
22.2223159522
 30
0.0
 10
-3.3789047885
 20
22.2245031259
 30
0.0
 10
-3.3786655583
 20
22.2251447178
 30
0.0
 11
-3.3850964806
 21
21.2252970227
 31
0.0
 11
-3.3849734751
 21
21.4182314304
 31
0.0
 11
-3.3846091063
 21
21.6039583684
 31
0.0
 11
-3.3840170513
 21
21.7754105236
 31
0.0
 11
-3.3832196342
 21
21.9262069931
 31
0.0
 11
-3.3827529776
 21
21.9920455325
 31
0.0
 11
-3.3822466579
 21
22.0506543799
 31
0.0
 11
-3.3817055901
 21
22.1014985481
 31
0.0
 11
-3.3811349364
 21
22.1440866696
 31
0.0
 11
-3.3805399523
 21
22.1780220528
 31
0.0
 11
-3.3799259761
 21
22.2029872781
 31
0.0
 11
-3.3796136517
 21
22.2120223721
 31
0.0
 11
-3.379298895
 21
22.2187363164
 31
0.0
 11
-3.3789825744
 21
22.2231151015
 31
0.0
 11
-3.3786655583
 21
22.2251447178
 31
0.0
  0
SPLINE
  5
586
100
AcDbEntity
  8
ASSI
100
AcDbSpline
 62
253
  6
CONTINUOUS
 70
0
 71
3
 72
14
 73
10
 74
8
 42
0.0000001
 43
0.0000001
 44
0.0000000001
 12
0.000000161
 22
-0.2499634559
 32
0.0
 13
-0.0491541604
 23
-0.2450828386
 33
0.0
 40
0.0
 40
0.0
 40
0.0
 40
0.0
 40
0.3786143138
 40
0.5501135625
 40
0.7009463438
 40
0.8254370374
 40
0.9189018018
 40
0.9778262026
 40
1.0
 40
1.0
 40
1.0
 40
1.0
 10
7.4139945168
 20
-24.2368735057
 30
0.0
 10
7.4139945371
 20
-24.2684200865
 30
0.0
 10
7.4139726979
 20
-24.3142571225
 30
0.0
 10
7.413850825
 20
-24.3726584357
 30
0.0
 10
7.4137895065
 20
-24.4098934707
 30
0.0
 10
7.4135530605
 20
-24.4406060187
 30
0.0
 10
7.4136924003
 20
-24.4637121256
 30
0.0
 10
7.4130388175
 20
-24.4781877786
 30
0.0
 10
7.4135003074
 20
-24.4850210707
 30
0.0
 10
7.4131369959
 20
-24.4868325431
 30
0.0
 11
7.4139945168
 21
-24.2368735057
 31
0.0
 11
7.4139295136
 21
-24.3315132257
 31
0.0
 11
7.4138505748
 21
-24.3743816979
 31
0.0
 11
7.4137442524
 21
-24.4120842312
 31
0.0
 11
7.4136145416
 21
-24.4432020849
 31
0.0
 11
7.4134663042
 21
-24.4665643901
 31
0.0
 11
7.4133051467
 21
-24.4812924553
 31
0.0
 11
7.4131369959
 21
-24.4868325431
 31
0.0
  0
SPLINE
  5
587
100
AcDbEntity
  8
ASSI
100
AcDbSpline
 62
253
  6
CONTINUOUS
 70
0
 71
3
 72
14
 73
10
 74
8
 42
0.0000001
 43
0.0000001
 44
0.0000000001
 12
-0.0000001187
 22
-0.249966339
 32
0.0
 13
0.0492103035
 23
-0.2450745124
 33
0.0
 40
0.0
 40
0.0
 40
0.0
 40
0.0
 40
0.3786102122
 40
0.550110195
 40
0.7009447699
 40
0.8254366722
 40
0.9189016359
 40
0.9778261742
 40
1.0
 40
1.0
 40
1.0
 40
1.0
 10
10.3860054824
 20
-24.2368706193
 30
0.0
 10
10.3860054675
 20
-24.2684172222
 30
0.0
 10
10.3860272746
 20
-24.3142545087
 30
0.0
 10
10.3861492046
 20
-24.3726563585
 30
0.0
 10
10.3862104415
 20
-24.4098921483
 30
0.0
 10
10.3864471954
 20
-24.4406052781
 30
0.0
 10
10.3863072136
 20
-24.4637118744
 30
0.0
 10
10.3869620359
 20
-24.4781875483
 30
0.0
 10
10.3864992772
 20
-24.4850211299
 30
0.0
 10
10.3868630041
 20
-24.4868325431
 30
0.0
 11
10.3860054824
 21
-24.2368706193
 31
0.0
 11
10.3860704826
 21
-24.3315104056
 31
0.0
 11
10.3861494321
 21
-24.3743795558
 31
0.0
 11
10.3862557752
 21
-24.4120829723
 31
0.0
 11
10.386385516
 21
-24.4432014869
 31
0.0
 11
10.3865337696
 21
-24.4665641113
 31
0.0
 11
10.3866949937
 21
-24.48129238
 31
0.0
 11
10.3868630041
 21
-24.4868325431
 31
0.0
  0
LINE
  5
588
100
AcDbEntity
  8
ASSI
100
AcDbLine
 62
7
  6
CONTINUOUS
 10
9.2533769702
 20
-23.6278312164
 11
9.0368706193
 21
-23.8443375673
  0
SPLINE
  5
589
100
AcDbEntity
  8
ASSI
100
AcDbSpline
 62
253
  6
CONTINUOUS
 70
0
 71
3
 72
14
 73
10
 74
8
 42
0.0000001
 43
0.0000001
 44
0.0000000001
 12
0.0491708119
 22
0.2450824418
 32
0.0
 13
-0.0000001167
 23
0.2499663418
 33
0.0
 40
0.0
 40
0.0
 40
0.0
 40
0.0
 40
0.022160649
 40
0.0810578314
 40
0.1744935263
 40
0.2989595177
 40
0.4497755697
 40
0.6212777996
 40
1.0
 40
1.0
 40
1.0
 40
1.0
 10
-10.3868630041
 20
-24.4868325431
 30
0.0
 10
-10.386499785
 20
-24.4850221478
 30
0.0
 10
-10.3869613093
 20
-24.4781921258
 30
0.0
 10
-10.386307597
 20
-24.4637221138
 30
0.0
 10
-10.3864470764
 20
-24.4406224703
 30
0.0
 10
-10.3862105355
 20
-24.409915452
 30
0.0
 10
-10.3861492427
 20
-24.3726831866
 30
0.0
 10
-10.3860272974
 20
-24.3142733578
 30
0.0
 10
-10.3860054677
 20
-24.2684265536
 30
0.0
 10
-10.3860054824
 20
-24.2368706193
 30
0.0
 11
-10.3868630041
 21
-24.4868325431
 31
0.0
 11
-10.3866949466
 21
-24.4812956766
 31
0.0
 11
-10.3865337753
 21
-24.4665742456
 31
0.0
 11
-10.3863855488
 21
-24.4432189371
 31
0.0
 11
-10.3862558217
 21
-24.4121068991
 31
0.0
 11
-10.3861494863
 21
-24.3744081122
 31
0.0
 11
-10.386070521
 21
-24.3315383999
 31
0.0
 11
-10.3860054824
 21
-24.2368706193
 31
0.0
  0
SPLINE
  5
58A
100
AcDbEntity
  8
ASSI
100
AcDbSpline
 62
253
  6
CONTINUOUS
 70
0
 71
3
 72
14
 73
10
 74
8
 42
0.0000001
 43
0.0000001
 44
0.0000000001
 12
-0.0491604488
 22
0.24508452
 32
0.0
 13
0.000000147
 23
0.2499663411
 33
0.0
 40
0.0
 40
0.0
 40
0.0
 40
0.0
 40
0.0221560382
 40
0.0810435912
 40
0.1744700487
 40
0.2989316111
 40
0.4497491635
 40
0.6212572333
 40
1.0
 40
1.0
 40
1.0
 40
1.0
 10
-7.4131369959
 20
-24.4868325431
 30
0.0
 10
-7.4135000629
 20
-24.4850225091
 30
0.0
 10
-7.4130387693
 20
-24.4781937216
 30
0.0
 10
-7.4136922946
 20
-24.4637256266
 30
0.0
 10
-7.4135528884
 20
-24.4406279425
 30
0.0
 10
-7.4137894171
 20
-24.4099219317
 30
0.0
 10
-7.4138507262
 20
-24.3726894257
 30
0.0
 10
-7.4139726908
 20
-24.3142772712
 30
0.0
 10
-7.4139945361
 20
-24.2684282672
 30
0.0
 10
-7.4139945176
 20
-24.2368706193
 30
0.0
 11
-7.4131369959
 21
-24.4868325431
 31
0.0
 11
-7.4133050073
 21
-24.4812968283
 31
0.0
 11
-7.4134661721
 21
-24.4665778045
 31
0.0
 11
-7.413614396
 21
-24.4432248051
 31
0.0
 11
-7.4137441318
 21
-24.4121138742
 31
0.0
 11
-7.4138504802
 21
-24.3744147125
 31
0.0
 11
-7.4139294606
 21
-24.3315435406
 31
0.0
 11
-7.4139945176
 21
-24.2368706193
 31
0.0
  0
SPLINE
  5
58B
100
AcDbEntity
  8
ASSI
100
AcDbSpline
 62
253
  6
CONTINUOUS
 70
0
 71
3
 72
21
 73
17
 74
15
 42
0.0000001
 43
0.0000001
 44
0.0000000001
 12
0.3493460813
 22
-0.9369119276
 32
0.0
 13
0.0000017991
 23
-0.9999233193
 33
0.0
 40
0.0
 40
0.0
 40
0.0
 40
0.0
 40
0.0020543828
 40
0.0064449151
 40
0.0131667489
 40
0.0222079328
 40
0.0471826218
 40
0.0811258233
 40
0.1237210341
 40
0.1745719804
 40
0.2331875095
 40
0.2990327518
 40
0.4498428938
 40
0.6213092194
 40
0.8070507576
 40
1.0
 40
1.0
 40
1.0
 40
1.0
 10
3.3786655583
 20
22.2251447178
 30
0.0
 10
3.3789047885
 20
22.2245031259
 30
0.0
 10
3.379014647
 20
22.2223159522
 30
0.0
 10
3.3793948843
 20
22.2179751779
 30
0.0
 10
3.3796438709
 20
22.2112446031
 30
0.0
 10
3.3801249242
 20
22.1976849519
 30
0.0
 10
3.3806220981
 20
22.1750311627
 30
0.0
 10
3.3812062018
 20
22.141204643
 30
0.0
 10
3.3817574022
 20
22.098746892
 30
0.0
 10
3.3822893409
 20
22.0480667933
 30
0.0
 10
3.3827874221
 20
21.9896359664
 30
0.0
 10
3.3834308525
 20
21.8978883273
 30
0.0
 10
3.3840933472
 20
21.7685258935
 30
0.0
 10
3.384665085
 20
21.5992004624
 30
0.0
 10
3.385017461
 20
21.4158290992
 30
0.0
 10
3.3850963648
 20
21.289608505
 30
0.0
 10
3.3850964806
 20
21.2252970227
 30
0.0
 11
3.3786655583
 21
22.2251447178
 31
0.0
 11
3.3789825744
 21
22.2231151015
 31
0.0
 11
3.379298895
 21
22.2187363164
 31
0.0
 11
3.3796136517
 21
22.2120223721
 31
0.0
 11
3.3799259761
 21
22.2029872781
 31
0.0
 11
3.3805399523
 21
22.1780220528
 31
0.0
 11
3.3811349364
 21
22.1440866696
 31
0.0
 11
3.3817055901
 21
22.1014985481
 31
0.0
 11
3.3822466579
 21
22.0506543799
 31
0.0
 11
3.3827529776
 21
21.9920455325
 31
0.0
 11
3.3832196342
 21
21.9262069931
 31
0.0
 11
3.3840170513
 21
21.7754105236
 31
0.0
 11
3.3846091063
 21
21.6039583684
 31
0.0
 11
3.3849734751
 21
21.4182314304
 31
0.0
 11
3.3850964806
 21
21.2252970227
 31
0.0
  0
LINE
  5
58C
100
AcDbEntity
  8
ASSI
100
AcDbLine
 62
7
  6
CONTINUOUS
 10
-8.5466230298
 20
-23.6278312164
 11
-8.7631293807
 21
-23.8443375673
  0
SPLINE
  5
58D
100
AcDbEntity
  8
ASSI
100
AcDbSpline
 62
253
  6
CONTINUOUS
 70
0
 71
3
 72
9
 73
5
 74
3
 42
0.0000001
 43
0.0000001
 44
0.0000000001
 12
-0.0000000894
 22
0.2165058795
 32
0.0
 13
0.0013063451
 23
0.2165019383
 33
0.0
 40
0.0
 40
0.0
 40
0.0
 40
0.0
 40
0.2987948397
 40
1.0
 40
1.0
 40
1.0
 40
1.0
 10
-7.4139945176
 20
-23.8443375673
 30
0.0
 10
-7.4139945265
 20
-23.8227739541
 30
0.0
 10
-7.4139514468
 20
-23.7506054227
 30
0.0
 10
-7.4138634855
 20
-23.6784363314
 30
0.0
 10
-7.4135581468
 20
-23.6278322393
 30
0.0
 11
-7.4139945176
 21
-23.8443375673
 31
0.0
 11
-7.4139647755
 21
-23.7796467346
 31
0.0
 11
-7.4135581468
 21
-23.6278322393
 31
0.0
  0
SPLINE
  5
58E
100
AcDbEntity
  8
ASSI
100
AcDbSpline
 62
253
  6
CONTINUOUS
 70
0
 71
3
 72
11
 73
7
 74
5
 42
0.0000001
 43
0.0000001
 44
0.0000000001
 12
-0.0029298744
 22
0.2908179843
 32
0.0
 13
-0.2908244364
 23
0.0021980406
 33
0.0
 40
0.0
 40
0.0
 40
0.0
 40
0.0
 40
0.2330683041
 40
0.4768288064
 40
0.7340987915
 40
1.0
 40
1.0
 40
1.0
 40
1.0
 10
10.5864113981
 20
-23.8010362971
 30
0.0
 10
10.5861837778
 20
-23.7784428123
 30
0.0
 10
10.5747821307
 20
-23.7317691306
 30
0.0
 10
10.5292239105
 20
-23.674634778
 30
0.0
 10
10.4633039672
 20
-23.636974425
 30
0.0
 10
10.4122187154
 20
-23.6280260394
 30
0.0
 10
10.386441859
 20
-23.6278312189
 30
0.0
 11
10.5864113981
 21
-23.8010362971
 31
0.0
 11
10.570691861
 21
-23.7351003247
 31
0.0
 11
10.5272287738
 21
-23.6790927054
 31
0.0
 11
10.4625665866
 21
-23.6414468114
 31
0.0
 11
10.386441859
 21
-23.6278312189
 31
0.0
  0
SPLINE
  5
58F
100
AcDbEntity
  8
ASSI
100
AcDbSpline
 62
253
  6
CONTINUOUS
 70
0
 71
3
 72
11
 73
7
 74
5
 42
0.0000001
 43
0.0000001
 44
0.0000000001
 12
0.290824418
 22
-0.002198128
 32
0.0
 13
0.0029298796
 23
-0.2908179665
 33
0.0
 40
0.0
 40
0.0
 40
0.0
 40
0.0
 40
0.2659011522
 40
0.5231711191
 40
0.7669316794
 40
1.0
 40
1.0
 40
1.0
 40
1.0
 10
-7.4135581409
 20
-23.6278312164
 30
0.0
 10
-7.3877812917
 20
-23.6280260446
 30
0.0
 10
-7.336696053
 20
-23.6369744364
 30
0.0
 10
-7.2707761173
 20
-23.6746347862
 30
0.0
 10
-7.2252178837
 20
-23.7317691273
 30
0.0
 10
-7.2138162226
 20
-23.7784428121
 30
0.0
 10
-7.2135886019
 20
-23.8010362971
 30
0.0
 11
-7.4135581409
 21
-23.6278312164
 31
0.0
 11
-7.3374334365
 21
-23.6414468187
 31
0.0
 11
-7.2727712571
 21
-23.6790927066
 31
0.0
 11
-7.2293081507
 21
-23.7351003269
 31
0.0
 11
-7.2135886019
 21
-23.8010362971
 31
0.0
  0
LINE
  5
590
100
AcDbEntity
  8
ASSI
100
AcDbLine
 62
7
  6
CONTINUOUS
 10
-8.5466230298
 20
23.6278312163
 11
-8.7631293807
 21
23.8443375673
  0
SPLINE
  5
591
100
AcDbEntity
  8
ASSI
100
AcDbSpline
 62
253
  6
CONTINUOUS
 70
0
 71
3
 72
14
 73
10
 74
8
 42
0.0000001
 43
0.0000001
 44
0.0000000001
 12
0.0000000677
 22
0.2499663444
 32
0.0
 13
-0.0491135085
 23
0.2450939342
 33
0.0
 40
0.0
 40
0.0
 40
0.0
 40
0.0
 40
0.378639668
 40
0.5501399824
 40
0.7009674195
 40
0.8254504889
 40
0.91890819
 40
0.9778278202
 40
1.0
 40
1.0
 40
1.0
 40
1.0
 10
-10.3860054824
 20
24.2368706193
 30
0.0
 10
-10.3860054739
 20
24.2684196772
 30
0.0
 10
-10.3860272974
 20
24.3142594426
 30
0.0
 10
-10.386149122
 20
24.3726631909
 30
0.0
 10
-10.3862104998
 20
24.4098976543
 30
0.0
 10
-10.3864467422
 20
24.4406089172
 30
0.0
 10
-10.3863078655
 20
24.4637135986
 30
0.0
 10
-10.386960603
 20
24.478188432
 30
0.0
 10
-10.3865000195
 20
24.4850211208
 30
0.0
 10
-10.3868630041
 20
24.4868325431
 30
0.0
 11
-10.3860054824
 21
24.2368706193
 31
0.0
 11
-10.386070468
 21
24.3315177706
 31
0.0
 11
-10.386149391
 21
24.3743870046
 31
0.0
 11
-10.3862557028
 21
24.4120886378
 31
0.0
 11
-10.3863854024
 21
24.4432049453
 31
0.0
 11
-10.3865336465
 21
24.4665657548
 31
0.0
 11
-10.3866947825
 21
24.4812927979
 31
0.0
 11
-10.3868630041
 21
24.4868325431
 31
0.0
  0
SPLINE
  5
592
100
AcDbEntity
  8
ASSI
100
AcDbSpline
 62
253
  6
CONTINUOUS
 70
0
 71
3
 72
14
 73
10
 74
8
 42
0.0000001
 43
0.0000001
 44
0.0000000001
 12
-0.0000000316
 22
0.2499663453
 32
0.0
 13
0.0490876294
 23
0.2450991195
 33
0.0
 40
0.0
 40
0.0
 40
0.0
 40
0.0
 40
0.3786066962
 40
0.5501057471
 40
0.7009402767
 40
0.825433203
 40
0.9188999329
 40
0.9778256633
 40
1.0
 40
1.0
 40
1.0
 40
1.0
 10
-7.4139945176
 20
24.2368706193
 30
0.0
 10
-7.4139945215
 20
24.26841693
 30
0.0
 10
-7.4139727085
 20
24.3142538419
 30
0.0
 10
-7.4138509229
 20
24.3726553316
 30
0.0
 10
-7.4137895178
 20
24.409891096
 30
0.0
 10
-7.4135533789
 20
24.44060454
 30
0.0
 10
-7.4136920266
 20
24.4637112645
 30
0.0
 10
-7.4130396942
 20
24.4781876106
 30
0.0
 10
-7.4134998245
 20
24.4850209063
 30
0.0
 10
-7.4131369959
 20
24.4868325431
 30
0.0
 11
-7.4139945176
 21
24.2368706193
 31
0.0
 11
-7.4139295549
 21
24.3315095291
 31
0.0
 11
-7.4138506467
 21
24.3743784475
 31
0.0
 11
-7.4137443439
 21
24.4120818537
 31
0.0
 11
-7.4136146489
 21
24.4432006253
 31
0.0
 11
-7.4134663983
 21
24.4665636918
 31
0.0
 11
-7.4133052621
 21
24.4812922598
 31
0.0
 11
-7.4131369959
 21
24.4868325431
 31
0.0
  0
SPLINE
  5
593
100
AcDbEntity
  8
ASSI
100
AcDbSpline
 62
253
  6
CONTINUOUS
 70
0
 71
3
 72
14
 73
10
 74
8
 42
0.0000001
 43
0.0000001
 44
0.0000000001
 12
0.0490895383
 22
-0.2450986842
 32
0.0
 13
-0.0000000528
 23
-0.2499662933
 33
0.0
 40
0.0
 40
0.0
 40
0.0
 40
0.0
 40
0.0221590326
 40
0.0810497444
 40
0.174478782
 40
0.2989411458
 40
0.4497578551
 40
0.6212639873
 40
1.0
 40
1.0
 40
1.0
 40
1.0
 10
7.4131370059
 20
24.486832493
 30
0.0
 10
7.4134995982
 20
24.4850221097
 30
0.0
 10
7.4130396215
 20
24.4781930473
 30
0.0
 10
7.4136919389
 20
24.4637240131
 30
0.0
 10
7.4135532036
 20
24.440625904
 30
0.0
 10
7.413789428
 20
24.4099196393
 30
0.0
 10
7.4138508162
 20
24.3726873227
 30
0.0
 10
7.4139726972
 20
24.3142759664
 30
0.0
 10
7.4139945242
 20
24.2684276984
 30
0.0
 10
7.4139945176
 20
24.2368706193
 30
0.0
 11
7.4131370059
 21
24.486832493
 31
0.0
 11
7.4133051147
 21
24.4812960333
 31
0.0
 11
7.4134662747
 21
24.4665762226
 31
0.0
 11
7.4136145057
 21
24.4432225828
 31
0.0
 11
7.4137442219
 21
24.4121114575
 31
0.0
 11
7.4138505459
 21
24.3744125136
 31
0.0
 11
7.4139294966
 21
24.3315418342
 31
0.0
 11
7.4139945176
 21
24.2368706193
 31
0.0
  0
SPLINE
  5
594
100
AcDbEntity
  8
ASSI
100
AcDbSpline
 62
253
  6
CONTINUOUS
 70
0
 71
3
 72
14
 73
10
 74
8
 42
0.0000001
 43
0.0000001
 44
0.0000000001
 12
-0.049114046
 22
-0.245093826
 32
0.0
 13
-0.0000001694
 23
-0.2499663439
 33
0.0
 40
0.0
 40
0.0
 40
0.0
 40
0.0
 40
0.0221565314
 40
0.0810451339
 40
0.1744731537
 40
0.2989362923
 40
0.4497544396
 40
0.6212615068
 40
1.0
 40
1.0
 40
1.0
 40
1.0
 10
10.3868630041
 20
24.4868325431
 30
0.0
 10
10.3865002717
 20
24.4850224001
 30
0.0
 10
10.3869606059
 20
24.4781936441
 30
0.0
 10
10.3863079196
 20
24.4637251477
 30
0.0
 10
10.3864468351
 20
24.4406271906
 30
0.0
 10
10.3862105132
 20
24.4099208368
 30
0.0
 10
10.3861491412
 20
24.3726882444
 30
0.0
 10
10.3860272632
 20
24.3142764744
 30
0.0
 10
10.3860055038
 20
24.2684279114
 30
0.0
 10
10.3860054824
 20
24.2368706193
 30
0.0
 11
10.3868630041
 21
24.4868325431
 31
0.0
 11
10.386694904
 21
24.4812967076
 31
0.0
 11
10.3865337259
 21
24.4665774214
 31
0.0
 11
10.3863854759
 21
24.4432240314
 31
0.0
 11
10.3862557436
 21
24.4121127062
 31
0.0
 11
10.3861494084
 21
24.3744133953
 31
0.0
 11
10.3860704693
 21
24.3315424734
 31
0.0
 11
10.3860054824
 21
24.2368706193
 31
0.0
  0
SPLINE
  5
595
100
AcDbEntity
  8
ASSI
100
AcDbSpline
 62
253
  6
CONTINUOUS
 70
0
 71
3
 72
9
 73
5
 74
3
 42
0.0000001
 43
0.0000001
 44
0.0000000001
 12
-0.0000041288
 22
-0.2164298683
 32
0.0
 13
0.0012987802
 23
-0.2164259713
 33
0.0
 40
0.0
 40
0.0
 40
0.0
 40
0.0
 40
0.2987119025
 40
1.0
 40
1.0
 40
1.0
 40
1.0
 10
10.3860055349
 20
23.844250724
 30
0.0
 10
10.3860051238
 20
23.8227006648
 30
0.0
 10
10.3860484515
 20
23.750557468
 30
0.0
 10
10.3861383046
 20
23.6784137267
 30
0.0
 10
10.386441911
 20
23.6278214075
 30
0.0
 11
10.3860055349
 21
23.844250724
 31
0.0
 11
10.3860351602
 21
23.7796005531
 31
0.0
 11
10.386441911
 21
23.6278214075
 31
0.0
  0
LINE
  5
596
100
AcDbEntity
  8
ASSI
100
AcDbLine
 62
7
  6
CONTINUOUS
 10
9.2533769702
 20
23.6278312163
 11
9.0368706193
 21
23.8443375673
  0
SPLINE
  5
597
100
AcDbEntity
  8
ASSI
100
AcDbSpline
 62
253
  6
CONTINUOUS
 70
0
 71
3
 72
11
 73
7
 74
5
 42
0.0000001
 43
0.0000001
 44
0.0000000001
 12
-0.290824418
 22
-0.0021981279
 32
0.0
 13
-0.0029298796
 23
-0.2908179665
 33
0.0
 40
0.0
 40
0.0
 40
0.0
 40
0.0
 40
0.2659011524
 40
0.5231711195
 40
0.7669316796
 40
1.0
 40
1.0
 40
1.0
 40
1.0
 10
7.4135581409
 20
-23.6278312164
 30
0.0
 10
7.3877812916
 20
-23.6280260446
 30
0.0
 10
7.336696053
 20
-23.6369744365
 30
0.0
 10
7.2707761173
 20
-23.6746347863
 30
0.0
 10
7.2252178837
 20
-23.7317691274
 30
0.0
 10
7.2138162226
 20
-23.7784428121
 30
0.0
 10
7.2135886019
 20
-23.8010362971
 30
0.0
 11
7.4135581409
 21
-23.6278312164
 31
0.0
 11
7.3374334365
 21
-23.6414468187
 31
0.0
 11
7.272771257
 21
-23.6790927066
 31
0.0
 11
7.2293081507
 21
-23.7351003269
 31
0.0
 11
7.2135886019
 21
-23.8010362971
 31
0.0
  0
SPLINE
  5
598
100
AcDbEntity
  8
ASSI
100
AcDbSpline
 62
253
  6
CONTINUOUS
 70
0
 71
3
 72
11
 73
7
 74
5
 42
0.0000001
 43
0.0000001
 44
0.0000000001
 12
0.0029298877
 22
-0.290817936
 32
0.0
 13
0.2908243864
 23
-0.0021982718
 33
0.0
 40
0.0
 40
0.0
 40
0.0
 40
0.0
 40
0.2330682335
 40
0.4768287988
 40
0.7340988118
 40
1.0
 40
1.0
 40
1.0
 40
1.0
 10
-10.5864113981
 20
23.8010362971
 30
0.0
 10
-10.5861837769
 20
23.7784428229
 30
0.0
 10
-10.5747821072
 20
23.7317691528
 30
0.0
 10
-10.5292238729
 20
23.6746348299
 30
0.0
 10
-10.4633039456
 20
23.6369744694
 30
0.0
 10
-10.412218709
 20
23.6280260574
 30
0.0
 10
-10.3864418591
 20
23.6278312164
 30
0.0
 11
-10.5864113981
 21
23.8010362971
 31
0.0
 11
-10.5706918472
 21
23.7351003607
 31
0.0
 11
-10.5272287389
 21
23.6790927495
 31
0.0
 11
-10.4625665606
 21
23.6414468486
 31
0.0
 11
-10.3864418591
 21
23.6278312164
 31
0.0
  0
SPLINE
  5
599
100
AcDbEntity
  8
ASSI
100
AcDbSpline
 62
253
  6
CONTINUOUS
 70
0
 71
3
 72
11
 73
7
 74
5
 42
0.0000001
 43
0.0000001
 44
0.0000000001
 12
0.0029298796
 22
0.290817965
 32
0.0
 13
0.2908244163
 23
0.0021981479
 33
0.0
 40
0.0
 40
0.0
 40
0.0
 40
0.0
 40
0.2330683208
 40
0.4768288792
 40
0.7340988449
 40
1.0
 40
1.0
 40
1.0
 40
1.0
 10
-10.5864113981
 20
-23.8010362971
 30
0.0
 10
-10.5861837774
 20
-23.7784428122
 30
0.0
 10
-10.5747821164
 20
-23.7317691278
 30
0.0
 10
-10.5292238826
 20
-23.6746347873
 30
0.0
 10
-10.4633039461
 20
-23.6369744404
 30
0.0
 10
-10.4122187085
 20
-23.6280260464
 30
0.0
 10
-10.3864418591
 20
-23.6278312164
 30
0.0
 11
-10.5864113981
 21
-23.8010362971
 31
0.0
 11
-10.5706918493
 21
-23.7351003272
 31
0.0
 11
-10.5272287429
 21
-23.6790927081
 31
0.0
 11
-10.4625665634
 21
-23.6414468218
 31
0.0
 11
-10.3864418591
 21
-23.6278312164
 31
0.0
  0
SPLINE
  5
59A
100
AcDbEntity
  8
ASSI
100
AcDbSpline
 62
253
  6
CONTINUOUS
 70
0
 71
3
 72
11
 73
7
 74
5
 42
0.0000001
 43
0.0000001
 44
0.0000000001
 12
0.290824418
 22
0.0021981279
 32
0.0
 13
0.0029298796
 23
0.2908179665
 33
0.0
 40
0.0
 40
0.0
 40
0.0
 40
0.0
 40
0.2659011537
 40
0.5231711216
 40
0.7669316808
 40
1.0
 40
1.0
 40
1.0
 40
1.0
 10
-7.4135581409
 20
23.6278312163
 30
0.0
 10
-7.3877812915
 20
23.6280260446
 30
0.0
 10
-7.3366960526
 20
23.6369744366
 30
0.0
 10
-7.2707761169
 20
23.6746347866
 30
0.0
 10
-7.2252178835
 20
23.7317691277
 30
0.0
 10
-7.2138162226
 20
23.7784428122
 30
0.0
 10
-7.2135886019
 20
23.8010362971
 30
0.0
 11
-7.4135581409
 21
23.6278312163
 31
0.0
 11
-7.3374334361
 21
23.6414468189
 31
0.0
 11
-7.2727712565
 21
23.6790927071
 31
0.0
 11
-7.2293081505
 21
23.7351003272
 31
0.0
 11
-7.2135886019
 21
23.8010362971
 31
0.0
  0
SPLINE
  5
59B
100
AcDbEntity
  8
ASSI
100
AcDbSpline
 62
253
  6
CONTINUOUS
 70
0
 71
3
 72
11
 73
7
 74
5
 42
0.0000001
 43
0.0000001
 44
0.0000000001
 12
-0.0029298796
 22
-0.2908179665
 32
0.0
 13
-0.2908244179
 23
-0.0021981283
 33
0.0
 40
0.0
 40
0.0
 40
0.0
 40
0.0
 40
0.2330683206
 40
0.4768288809
 40
0.7340988478
 40
1.0
 40
1.0
 40
1.0
 40
1.0
 10
10.5864113981
 20
23.8010362971
 30
0.0
 10
10.5861837774
 20
23.7784428121
 30
0.0
 10
10.5747821163
 20
23.7317691273
 30
0.0
 10
10.5292238827
 20
23.6746347862
 30
0.0
 10
10.463303947
 20
23.6369744365
 30
0.0
 10
10.4122187083
 20
23.6280260446
 30
0.0
 10
10.3864418591
 20
23.6278312163
 30
0.0
 11
10.5864113981
 21
23.8010362971
 31
0.0
 11
10.5706918493
 21
23.7351003269
 31
0.0
 11
10.5272287429
 21
23.6790927066
 31
0.0
 11
10.4625665635
 21
23.6414468188
 31
0.0
 11
10.3864418591
 21
23.6278312163
 31
0.0
  0
SPLINE
  5
59C
100
AcDbEntity
  8
ASSI
100
AcDbSpline
 62
253
  6
CONTINUOUS
 70
0
 71
3
 72
11
 73
7
 74
5
 42
0.0000001
 43
0.0000001
 44
0.0000000001
 12
-0.290824418
 22
0.002198128
 32
0.0
 13
-0.0029298796
 23
0.2908179665
 33
0.0
 40
0.0
 40
0.0
 40
0.0
 40
0.0
 40
0.2659011522
 40
0.5231711191
 40
0.7669316794
 40
1.0
 40
1.0
 40
1.0
 40
1.0
 10
7.4135581409
 20
23.6278312163
 30
0.0
 10
7.3877812917
 20
23.6280260446
 30
0.0
 10
7.336696053
 20
23.6369744364
 30
0.0
 10
7.2707761173
 20
23.6746347862
 30
0.0
 10
7.2252178837
 20
23.7317691273
 30
0.0
 10
7.2138162226
 20
23.7784428121
 30
0.0
 10
7.2135886019
 20
23.8010362971
 30
0.0
 11
7.4135581409
 21
23.6278312163
 31
0.0
 11
7.3374334365
 21
23.6414468187
 31
0.0
 11
7.2727712571
 21
23.6790927066
 31
0.0
 11
7.2293081507
 21
23.7351003269
 31
0.0
 11
7.2135886019
 21
23.8010362971
 31
0.0
  0
SPLINE
  5
59D
100
AcDbEntity
  8
ASSI
100
AcDbSpline
 62
253
  6
CONTINUOUS
 70
0
 71
3
 72
9
 73
5
 74
3
 42
0.0000001
 43
0.0000001
 44
0.0000000001
 12
-0.0000001007
 22
0.0433040262
 32
0.0
 13
-0.0013110356
 23
0.0432841757
 33
0.0
 40
0.0
 40
0.0
 40
0.0
 40
0.0
 40
0.2986840764
 40
1.0
 40
1.0
 40
1.0
 40
1.0
 10
-10.5859750215
 20
-23.8443375673
 30
0.0
 10
-10.5859750315
 20
-23.8400261596
 30
0.0
 10
-10.586018476
 20
-23.8255919674
 30
0.0
 10
-10.5861049147
 20
-23.8111549243
 30
0.0
 10
-10.5864113981
 20
-23.8010362971
 30
0.0
 11
-10.5859750215
 21
-23.8443375673
 31
0.0
 11
-10.5860048195
 21
-23.8314033786
 31
0.0
 11
-10.5864113981
 21
-23.8010362971
 31
0.0
  0
SPLINE
  5
59E
100
AcDbEntity
  8
ASSI
100
AcDbSpline
 62
253
  6
CONTINUOUS
 70
0
 71
3
 72
14
 73
10
 74
8
 42
0.0000001
 43
0.0000001
 44
0.0000000001
 12
0.0353766991
 22
0.0353543411
 32
0.0
 13
-0.0000000128
 23
0.0500144006
 33
0.0
 40
0.0
 40
0.0
 40
0.0
 40
0.0
 40
0.0223938169
 40
0.081343507
 40
0.1747762356
 40
0.2992083366
 40
0.4499726905
 40
0.6214130518
 40
1.0
 40
1.0
 40
1.0
 40
1.0
 10
-10.5868325431
 20
-24.2868630041
 30
0.0
 10
-10.58656847
 20
-24.2865990978
 30
0.0
 10
-10.5868042696
 20
-24.285024306
 30
0.0
 10
-10.5863527813
 20
-24.2823111138
 30
0.0
 10
-10.5863839349
 20
-24.2775929564
 30
0.0
 10
-10.5861920926
 20
-24.2714919227
 30
0.0
 10
-10.5861148036
 20
-24.2640310048
 30
0.0
 10
-10.585999556
 20
-24.252354713
 30
0.0
 10
-10.5859750199
 20
-24.2431822191
 30
0.0
 10
-10.5859750215
 20
-24.2368706193
 30
0.0
 11
-10.5868325431
 21
-24.2868630041
 31
0.0
 11
-10.5866645041
 21
-24.2857556682
 31
0.0
 11
-10.5865033362
 21
-24.2828117431
 31
0.0
 11
-10.5863550838
 21
-24.2781411135
 31
0.0
 11
-10.5862253408
 21
-24.2719190691
 31
0.0
 11
-10.5861189877
 21
-24.2643794303
 31
0.0
 11
-10.5860400261
 21
-24.255805307
 31
0.0
 11
-10.5859750215
 21
-24.2368706193
 31
0.0
  0
SPLINE
  5
59F
100
AcDbEntity
  8
ASSI
100
AcDbSpline
 62
253
  6
CONTINUOUS
 70
0
 71
3
 72
14
 73
10
 74
8
 42
0.0000001
 43
0.0000001
 44
0.0000000001
 12
0.0000000096
 22
0.0500143991
 32
0.0
 13
-0.0353803488
 23
0.0353506865
 33
0.0
 40
0.0
 40
0.0
 40
0.0
 40
0.0
 40
0.3785041649
 40
0.5499426895
 40
0.7007184935
 40
0.8251676513
 40
0.9186227152
 40
0.9775936171
 40
1.0
 40
1.0
 40
1.0
 40
1.0
 10
-10.5859750215
 20
24.2368706193
 30
0.0
 10
-10.5859750203
 20
24.2431808387
 30
0.0
 10
-10.585999548
 20
24.2523519214
 30
0.0
 10
-10.5861147615
 20
24.2640269928
 30
0.0
 10
-10.5861920275
 20
24.2714883592
 30
0.0
 10
-10.5863838892
 20
24.2775902255
 30
0.0
 10
-10.5863526465
 20
24.2823094438
 30
0.0
 10
-10.5868043613
 20
24.2850234477
 30
0.0
 10
-10.5865682945
 20
24.286598977
 30
0.0
 10
-10.5868325431
 20
24.286863004
 30
0.0
 11
-10.5859750215
 21
24.2368706193
 31
0.0
 11
-10.5860399979
 21
24.2558011661
 31
0.0
 11
-10.58611894
 21
24.2643751975
 31
0.0
 11
-10.586225278
 21
24.271915409
 31
0.0
 11
-10.5863550108
 21
24.2781383066
 31
0.0
 11
-10.5865032644
 21
24.2828100537
 31
0.0
 11
-10.5866644551
 21
24.28575504
 31
0.0
 11
-10.5868325431
 21
24.286863004
 31
0.0
  0
SPLINE
  5
5A0
100
AcDbEntity
  8
ASSI
100
AcDbSpline
 62
253
  6
CONTINUOUS
 70
0
 71
3
 72
9
 73
5
 74
3
 42
0.0000001
 43
0.0000001
 44
0.0000000001
 12
0.0013082203
 22
0.0432844827
 32
0.0
 13
-0.0000006052
 23
0.0433042479
 33
0.0
 40
0.0
 40
0.0
 40
0.0
 40
0.0
 40
0.1835083404
 40
1.0
 40
1.0
 40
1.0
 40
1.0
 10
-10.5864113981
 20
23.8010362971
 30
0.0
 10
-10.586331375
 20
23.803683985
 30
0.0
 10
-10.5860357894
 20
23.818116118
 30
0.0
 10
-10.5859748568
 20
23.8325517149
 30
0.0
 10
-10.5859750215
 20
23.8443375673
 30
0.0
 11
-10.5864113981
 21
23.8010362971
 31
0.0
 11
-10.5862307922
 21
23.8089809352
 31
0.0
 11
-10.5859750215
 21
23.8443375673
 31
0.0
  0
SPLINE
  5
5A1
100
AcDbEntity
  8
ASSI
100
AcDbSpline
 62
253
  6
CONTINUOUS
 70
0
 71
3
 72
25
 73
21
 74
19
 42
0.0000001
 43
0.0000001
 44
0.0000000001
 12
-0.1903870567
 22
0.1934662786
 32
0.0
 13
-0.1885513186
 23
-0.1952558131
 33
0.0
 40
0.0
 40
0.0
 40
0.0
 40
0.0
 40
0.0033072054
 40
0.0112291006
 40
0.0237289288
 40
0.0407196882
 40
0.0874402101
 40
0.1496573615
 40
0.2250211771
 40
0.3107333794
 40
0.4999993905
 40
0.6892659448
 40
0.7749790554
 40
0.8503466322
 40
0.9125642955
 40
0.9592809878
 40
0.9762728712
 40
0.9887770487
 40
0.9967006776
 40
1.0
 40
1.0
 40
1.0
 40
1.0
 10
-3.8306228363
 20
-23.9018840226
 30
0.0
 10
-3.8308327193
 20
-23.901670745
 30
0.0
 10
-3.8319779444
 20
-23.9016673067
 30
0.0
 10
-3.8339977802
 20
-23.901331217
 30
0.0
 10
-3.8374386194
 20
-23.9011946585
 30
0.0
 10
-3.844291636
 20
-23.9008436703
 30
0.0
 10
-3.8557063604
 20
-23.9005407828
 30
0.0
 10
-3.8723667868
 20
-23.9001927377
 30
0.0
 10
-3.89257225
 20
-23.8999212766
 30
0.0
 10
-3.9242676361
 20
-23.8996345596
 30
0.0
 10
-3.9662723797
 20
-23.8995040986
 30
0.0
 10
-4.0082772402
 20
-23.8996345298
 30
0.0
 10
-4.0399730481
 20
-23.8999212826
 30
0.0
 10
-4.0601790994
 20
-23.9001926342
 30
0.0
 10
-4.0768392338
 20
-23.9005408964
 30
0.0
 10
-4.0882544915
 20
-23.9008432663
 30
0.0
 10
-4.09510662
 20
-23.9011950848
 30
0.0
 10
-4.098549934
 20
-23.9013302221
 30
0.0
 10
-4.1005661804
 20
-23.9016688371
 30
0.0
 10
-4.101714735
 20
-23.9016692853
 30
0.0
 10
-4.1019220988
 20
-23.9018840226
 30
0.0
 11
-3.8306228363
 21
-23.9018840226
 31
0.0
 11
-3.8314908767
 21
-23.9016552219
 31
0.0
 11
-3.8336291484
 21
-23.9014283662
 31
0.0
 11
-3.8370147317
 21
-23.901205989
 31
0.0
 11
-3.8416215677
 21
-23.9009905596
 31
0.0
 11
-3.8542967292
 21
-23.9005884107
 31
0.0
 11
-3.8711809142
 21
-23.9002364928
 31
0.0
 11
-3.8916351821
 21
-23.8999478674
 31
0.0
 11
-3.9148994044
 21
-23.8997336642
 31
0.0
 11
-3.9662723376
 21
-23.8995572797
 31
0.0
 11
-4.0176454184
 21
-23.8997336478
 31
0.0
 11
-4.0409098873
 21
-23.8999478441
 31
0.0
 11
-4.0613651764
 21
-23.9002364582
 31
0.0
 11
-4.0782495006
 21
-23.9005883653
 31
0.0
 11
-4.0909236219
 21
-23.9009905227
 31
0.0
 11
-4.0955307626
 21
-23.901205965
 31
0.0
 11
-4.0989175283
 21
-23.9014283546
 31
0.0
 11
-4.1010562723
 21
-23.9016552184
 31
0.0
 11
-4.1019220988
 21
-23.9018840226
 31
0.0
  0
SPLINE
  5
5A2
100
AcDbEntity
  8
ASSI
100
AcDbSpline
 62
253
  6
CONTINUOUS
 70
0
 71
3
 72
25
 73
21
 74
19
 42
0.0000001
 43
0.0000001
 44
0.0000000001
 12
-0.1903870567
 22
0.1934662786
 32
0.0
 13
-0.1885513186
 23
-0.1952558131
 33
0.0
 40
0.0
 40
0.0
 40
0.0
 40
0.0
 40
0.0033072054
 40
0.0112291006
 40
0.0237289288
 40
0.0407196882
 40
0.0874402101
 40
0.1496573615
 40
0.2250211771
 40
0.3107333794
 40
0.4999993905
 40
0.6892659448
 40
0.7749790554
 40
0.8503466322
 40
0.9125642955
 40
0.9592809878
 40
0.9762728712
 40
0.9887770487
 40
0.9967006776
 40
1.0
 40
1.0
 40
1.0
 40
1.0
 10
4.1019220988
 20
-23.9018840226
 30
0.0
 10
4.1017122158
 20
-23.901670745
 30
0.0
 10
4.1005669907
 20
-23.9016673067
 30
0.0
 10
4.0985471548
 20
-23.901331217
 30
0.0
 10
4.0951063157
 20
-23.9011946585
 30
0.0
 10
4.088253299
 20
-23.9008436703
 30
0.0
 10
4.0768385747
 20
-23.9005407828
 30
0.0
 10
4.0601781483
 20
-23.9001927377
 30
0.0
 10
4.039972685
 20
-23.8999212766
 30
0.0
 10
4.0082772989
 20
-23.8996345596
 30
0.0
 10
3.9662725553
 20
-23.8995040986
 30
0.0
 10
3.9242676949
 20
-23.8996345298
 30
0.0
 10
3.8925718869
 20
-23.8999212826
 30
0.0
 10
3.8723658356
 20
-23.9001926342
 30
0.0
 10
3.8557057013
 20
-23.9005408964
 30
0.0
 10
3.8442904436
 20
-23.9008432663
 30
0.0
 10
3.8374383151
 20
-23.9011950848
 30
0.0
 10
3.8339950011
 20
-23.9013302221
 30
0.0
 10
3.8319787547
 20
-23.9016688371
 30
0.0
 10
3.8308302001
 20
-23.9016692853
 30
0.0
 10
3.8306228363
 20
-23.9018840226
 30
0.0
 11
4.1019220988
 21
-23.9018840226
 31
0.0
 11
4.1010540584
 21
-23.9016552219
 31
0.0
 11
4.0989157867
 21
-23.9014283662
 31
0.0
 11
4.0955302034
 21
-23.901205989
 31
0.0
 11
4.0909233674
 21
-23.9009905596
 31
0.0
 11
4.0782482058
 21
-23.9005884107
 31
0.0
 11
4.0613640208
 21
-23.9002364928
 31
0.0
 11
4.040909753
 21
-23.8999478674
 31
0.0
 11
4.0176455306
 21
-23.8997336642
 31
0.0
 11
3.9662725974
 21
-23.8995572797
 31
0.0
 11
3.9148995167
 21
-23.8997336478
 31
0.0
 11
3.8916350477
 21
-23.8999478441
 31
0.0
 11
3.8711797587
 21
-23.9002364582
 31
0.0
 11
3.8542954345
 21
-23.9005883653
 31
0.0
 11
3.8416213132
 21
-23.9009905227
 31
0.0
 11
3.8370141724
 21
-23.901205965
 31
0.0
 11
3.8336274068
 21
-23.9014283546
 31
0.0
 11
3.8314886627
 21
-23.9016552184
 31
0.0
 11
3.8306228363
 21
-23.9018840226
 31
0.0
  0
SPLINE
  5
5A3
100
AcDbEntity
  8
ASSI
100
AcDbSpline
 62
253
  6
CONTINUOUS
 70
0
 71
3
 72
9
 73
5
 74
3
 42
0.0000001
 43
0.0000001
 44
0.0000000001
 12
-0.0000006052
 22
-0.0433040268
 32
0.0
 13
0.0013082134
 23
-0.0432842617
 33
0.0
 40
0.0
 40
0.0
 40
0.0
 40
0.0
 40
0.2986883658
 40
1.0
 40
1.0
 40
1.0
 40
1.0
 10
10.5859750215
 20
23.8443375673
 30
0.0
 10
10.5859749612
 20
23.8400260976
 30
0.0
 10
10.5860182947
 20
23.8255919006
 30
0.0
 10
10.5861055763
 20
23.8111548825
 30
0.0
 10
10.5864113981
 20
23.8010362971
 30
0.0
 11
10.5859750215
 21
23.8443375673
 31
0.0
 11
10.5860047684
 21
23.8314031925
 31
0.0
 11
10.5864113981
 21
23.8010362971
 31
0.0
  0
SPLINE
  5
5A4
100
AcDbEntity
  8
ASSI
100
AcDbSpline
 62
253
  6
CONTINUOUS
 70
0
 71
3
 72
14
 73
10
 74
8
 42
0.0000001
 43
0.0000001
 44
0.0000000001
 12
-0.0353853364
 22
-0.0353456974
 32
0.0
 13
-0.0000000241
 23
-0.0500144015
 33
0.0
 40
0.0
 40
0.0
 40
0.0
 40
0.0
 40
0.0223887733
 40
0.081330048
 40
0.174755207
 40
0.299184792
 40
0.44995127
 40
0.6213968764
 40
1.0
 40
1.0
 40
1.0
 40
1.0
 10
10.5868325431
 20
24.286863004
 30
0.0
 10
10.586568465
 20
24.2865992218
 30
0.0
 10
10.5868043236
 20
24.2850245546
 30
0.0
 10
10.5863527733
 20
24.2823118149
 30
0.0
 10
10.5863839743
 20
24.2775939037
 30
0.0
 10
10.5861921021
 20
24.2714930317
 30
0.0
 10
10.5861148161
 20
24.2640320217
 30
0.0
 10
10.5859995564
 20
24.2523553421
 30
0.0
 10
10.5859750245
 20
24.2431824888
 30
0.0
 10
10.5859750215
 20
24.2368706193
 30
0.0
 11
10.5868325431
 21
24.286863004
 31
0.0
 11
10.5866645219
 21
24.2857559206
 31
0.0
 11
10.5865033614
 21
24.2828124166
 31
0.0
 11
10.5863551092
 21
24.2781421656
 31
0.0
 11
10.58622536
 21
24.2719202471
 31
0.0
 11
10.5861189992
 21
24.2643805021
 31
0.0
 11
10.586040032
 21
24.2558061163
 31
0.0
 11
10.5859750215
 21
24.2368706193
 31
0.0
  0
SPLINE
  5
5A5
100
AcDbEntity
  8
ASSI
100
AcDbSpline
 62
253
  6
CONTINUOUS
 70
0
 71
3
 72
14
 73
10
 74
8
 42
0.0000001
 43
0.0000001
 44
0.0000000001
 12
-0.0000000171
 22
-0.0500143994
 32
0.0
 13
0.0353375939
 23
-0.035393426
 33
0.0
 40
0.0
 40
0.0
 40
0.0
 40
0.0
 40
0.3784749852
 40
0.5499132458
 40
0.7006959891
 40
0.8251541655
 40
0.9186156704
 40
0.977592881
 40
1.0
 40
1.0
 40
1.0
 40
1.0
 10
10.5859750215
 20
-24.2368706193
 30
0.0
 10
10.5859750193
 20
-24.2431803523
 30
0.0
 10
10.5859995531
 20
-24.2523509352
 30
0.0
 10
10.5861147326
 20
-24.2640256529
 30
0.0
 10
10.5861920462
 20
-24.2714872316
 30
0.0
 10
10.5863837683
 20
-24.2775896085
 30
0.0
 10
10.5863528656
 20
-24.2823088588
 30
0.0
 10
10.5868039645
 20
-24.2850237059
 30
0.0
 10
10.5865686052
 20
-24.2865986491
 30
0.0
 10
10.5868325431
 20
-24.2868630041
 30
0.0
 11
10.5859750215
 21
-24.2368706193
 31
0.0
 11
10.5860399865
 21
-24.2557997069
 31
0.0
 11
10.5861189221
 21
-24.2643737252
 31
0.0
 11
10.5862252577
 21
-24.2719142838
 31
0.0
 11
10.5863549922
 21
-24.2781376326
 31
0.0
 11
10.5865032504
 21
-24.2828097019
 31
0.0
 11
10.5866644481
 21
-24.2857550038
 31
0.0
 11
10.5868325431
 21
-24.2868630041
 31
0.0
  0
SPLINE
  5
5A6
100
AcDbEntity
  8
ASSI
100
AcDbSpline
 62
253
  6
CONTINUOUS
 70
0
 71
3
 72
9
 73
5
 74
3
 42
0.0000001
 43
0.0000001
 44
0.0000000001
 12
-0.0013110427
 22
-0.0432843983
 32
0.0
 13
-0.0000001007
 23
-0.0433042489
 33
0.0
 40
0.0
 40
0.0
 40
0.0
 40
0.0
 40
0.1834520378
 40
1.0
 40
1.0
 40
1.0
 40
1.0
 10
10.5864113981
 20
-23.8010362971
 30
0.0
 10
10.586331227
 20
-23.8036831675
 30
0.0
 10
10.5860359079
 20
-23.8181153116
 30
0.0
 10
10.5859750489
 20
-23.8325509019
 30
0.0
 10
10.5859750215
 20
-23.8443375673
 30
0.0
 11
10.5864113981
 21
-23.8010362971
 31
0.0
 11
10.5862307638
 21
-23.8089784959
 31
0.0
 11
10.5859750215
 21
-23.8443375673
 31
0.0
  0
SPLINE
  5
5A7
100
AcDbEntity
  8
ASSI
100
AcDbSpline
 62
7
  6
CONTINUOUS
 70
0
 71
3
 72
12
 73
8
 74
6
 42
0.0000001
 43
0.0000001
 44
0.0000000001
 12
0.001665319
 22
0.3002698705
 32
0.0
 13
0.2945501719
 23
0.0583520751
 33
0.0
 40
0.0
 40
0.0
 40
0.0
 40
0.0
 40
0.3658638136
 40
0.6771730565
 40
0.8938252332
 40
0.9597241112
 40
1.0
 40
1.0
 40
1.0
 40
1.0
 10
-7.7336897641
 20
14.0537094257
 30
0.0
 10
-7.7334866707
 20
14.090328719
 30
0.0
 10
-7.7310209181
 20
14.1582159452
 30
0.0
 10
-7.7212959847
 20
14.2469173999
 30
0.0
 10
-7.7086384401
 20
14.3058439352
 30
0.0
 10
-7.695417623
 20
14.3349911262
 30
0.0
 10
-7.6870468846
 20
14.3431644011
 30
0.0
 10
-7.6830924613
 20
14.343947795
 30
0.0
 11
-7.7336897641
 21
14.0537094257
 31
0.0
 11
-7.7293913664
 21
14.1634848728
 31
0.0
 11
-7.7183508436
 21
14.2563088199
 31
0.0
 11
-7.7021627554
 21
14.3193176656
 31
0.0
 11
-7.6928187006
 21
14.3367602504
 31
0.0
 11
-7.6830924613
 21
14.343947795
 31
0.0
  0
SPLINE
  5
5A8
100
AcDbEntity
  8
ASSI
100
AcDbSpline
 62
7
  6
CONTINUOUS
 70
0
 71
3
 72
12
 73
8
 74
6
 42
0.0000001
 43
0.0000001
 44
0.0000000001
 12
0.2940934004
 22
-0.0582460323
 32
0.0
 13
0.0018324736
 23
-0.2998002176
 33
0.0
 40
0.0
 40
0.0
 40
0.0
 40
0.0
 40
0.0403294025
 40
0.1057844225
 40
0.3210553513
 40
0.6322394302
 40
1.0
 40
1.0
 40
1.0
 40
1.0
 10
-3.6918647166
 20
14.3379979485
 30
0.0
 10
-3.6879111795
 20
14.3372149393
 30
0.0
 10
-3.6795095441
 20
14.3292030357
 30
0.0
 10
-3.6661225115
 20
14.3003348092
 30
0.0
 10
-3.653282199
 20
14.2417598129
 30
0.0
 10
-3.643341278
 20
14.1531712715
 30
0.0
 10
-3.6408003651
 20
14.0852148278
 30
0.0
 10
-3.6405757279
 20
14.0484632615
 30
0.0
 11
-3.6918647166
 21
14.3379979485
 31
0.0
 11
-3.682085112
 21
14.3308880005
 31
0.0
 11
-3.6726746743
 21
14.3136677501
 31
0.0
 11
-3.6562938126
 21
14.2512417022
 31
0.0
 11
-3.6450220298
 21
14.1586303309
 31
0.0
 11
-3.6405757279
 21
14.0484632615
 31
0.0
  0
SPLINE
  5
5A9
100
AcDbEntity
  8
ASSI
100
AcDbSpline
 62
7
  6
CONTINUOUS
 70
0
 71
3
 72
11
 73
7
 74
5
 42
0.0000001
 43
0.0000001
 44
0.0000000001
 12
-0.0001595685
 22
0.474051557
 32
0.0
 13
0.4740324445
 23
0.0042597813
 33
0.0
 40
0.0
 40
0.0
 40
0.0
 40
0.0
 40
0.2502290637
 40
0.500200234
 40
0.7500508129
 40
1.0
 40
1.0
 40
1.0
 40
1.0
 10
-7.3711122677
 20
-16.8913368402
 30
0.0
 10
-7.3711255773
 20
-16.8517963478
 30
0.0
 10
-7.3558950446
 20
-16.7719392364
 30
0.0
 10
-7.2902982698
 20
-16.6698333657
 30
0.0
 10
-7.1910123817
 20
-16.599848958
 30
0.0
 10
-7.1112882698
 20
-16.5827139605
 30
0.0
 10
-7.0717935951
 20
-16.5823590509
 30
0.0
 11
-7.3711122677
 21
-16.8913368402
 31
0.0
 11
-7.3487510393
 21
-16.7748420681
 31
0.0
 11
-7.2846663672
 21
-16.6751664837
 31
0.0
 11
-7.1876418218
 21
-16.6072344603
 31
0.0
 11
-7.0717935951
 21
-16.5823590509
 31
0.0
  0
SPLINE
  5
5AA
100
AcDbEntity
  8
ASSI
100
AcDbSpline
 62
7
  6
CONTINUOUS
 70
0
 71
3
 72
11
 73
7
 74
5
 42
0.0000001
 43
0.0000001
 44
0.0000000001
 12
0.4715662214
 22
0.0040316689
 32
0.0
 13
-0.0001625781
 23
-0.4715834275
 33
0.0
 40
0.0
 40
0.0
 40
0.0
 40
0.0
 40
0.2498632247
 40
0.4998405181
 40
0.7499113661
 40
1.0
 40
1.0
 40
1.0
 40
1.0
 10
-6.7280572421
 20
-16.5793452061
 30
0.0
 10
-6.6887815565
 20
-16.5790094175
 30
0.0
 10
-6.6091428274
 20
-16.5945536637
 30
0.0
 10
-6.5093179164
 20
-16.6629340063
 30
0.0
 10
-6.4435437551
 20
-16.7643422382
 30
0.0
 10
-6.4284675351
 20
-16.843808014
 30
0.0
 10
-6.4284810881
 20
-16.8831205658
 30
0.0
 11
-6.7280572421
 21
-16.5793452061
 31
0.0
 11
-6.612435045
 21
-16.6020550634
 31
0.0
 11
-6.5150078819
 21
-16.6684241666
 31
0.0
 11
-6.4507396053
 21
-16.7673023868
 31
0.0
 11
-6.4284810881
 21
-16.8831205658
 31
0.0
  0
SPLINE
  5
5AB
100
AcDbEntity
  8
ASSI
100
AcDbSpline
 62
7
  6
CONTINUOUS
 70
0
 71
3
 72
11
 73
7
 74
5
 42
0.0000001
 43
0.0000001
 44
0.0000000001
 12
-0.0001625781
 22
0.4715834067
 32
0.0
 13
0.4715662006
 23
-0.0040316687
 33
0.0
 40
0.0
 40
0.0
 40
0.0
 40
0.0
 40
0.2500857441
 40
0.5001522776
 40
0.7501342335
 40
1.0
 40
1.0
 40
1.0
 40
1.0
 10
6.4284810881
 20
-16.8831205658
 30
0.0
 10
6.4284675353
 20
-16.84380847
 30
0.0
 10
6.4435432042
 20
-16.7643438185
 30
0.0
 10
6.509316441
 20
-16.6629355925
 30
0.0
 10
6.6091412932
 20
-16.5945541915
 30
0.0
 10
6.6887811587
 20
-16.5790094141
 30
0.0
 10
6.7280572421
 20
-16.5793452061
 30
0.0
 11
6.4284810881
 21
-16.8831205658
 31
0.0
 11
6.4507390012
 21
-16.7673036638
 31
0.0
 11
6.5150054623
 21
-16.6684266963
 31
0.0
 11
6.6124339391
 21
-16.6020556254
 31
0.0
 11
6.7280572421
 21
-16.5793452061
 31
0.0
  0
SPLINE
  5
5AC
100
AcDbEntity
  8
ASSI
100
AcDbSpline
 62
7
  6
CONTINUOUS
 70
0
 71
3
 72
11
 73
7
 74
5
 42
0.0000001
 43
0.0000001
 44
0.0000000001
 12
0.4740324445
 22
-0.0042597813
 32
0.0
 13
-0.0001595685
 23
-0.474051557
 33
0.0
 40
0.0
 40
0.0
 40
0.0
 40
0.0
 40
0.2499491871
 40
0.499799766
 40
0.7497709363
 40
1.0
 40
1.0
 40
1.0
 40
1.0
 10
7.0717935951
 20
-16.5823590509
 30
0.0
 10
7.1112882698
 20
-16.5827139605
 30
0.0
 10
7.1910123817
 20
-16.599848958
 30
0.0
 10
7.2902982698
 20
-16.6698333657
 30
0.0
 10
7.3558950446
 20
-16.7719392364
 30
0.0
 10
7.3711255773
 20
-16.8517963478
 30
0.0
 10
7.3711122677
 20
-16.8913368402
 30
0.0
 11
7.0717935951
 21
-16.5823590509
 31
0.0
 11
7.1876418218
 21
-16.6072344603
 31
0.0
 11
7.2846663672
 21
-16.6751664837
 31
0.0
 11
7.3487510393
 21
-16.7748420681
 31
0.0
 11
7.3711122677
 21
-16.8913368402
 31
0.0
  0
SPLINE
  5
5AD
100
AcDbEntity
  8
ASSI
100
AcDbSpline
 62
253
  6
CONTINUOUS
 70
0
 71
3
 72
9
 73
5
 74
3
 42
0.0000001
 43
0.0000001
 44
0.0000000001
 12
3.9912241827
 22
-0.0080407315
 32
0.0
 13
3.9912304151
 23
-0.0038605645
 33
0.0
 40
0.0
 40
0.0
 40
0.0
 40
0.0
 40
0.2498722841
 40
1.0
 40
1.0
 40
1.0
 40
1.0
 10
-7.6830924613
 20
14.343947795
 30
0.0
 10
-7.3506603603
 20
14.3432780764
 30
0.0
 10
-6.0202519537
 20
14.3407722322
 30
0.0
 10
-4.6898422348
 20
14.338963254
 30
0.0
 10
-3.6918647166
 20
14.3379979485
 30
0.0
 11
-7.6830924613
 21
14.343947795
 31
0.0
 11
-6.6857959036
 21
14.342069304
 31
0.0
 11
-3.6918647166
 21
14.3379979485
 31
0.0
  0
ELLIPSE
  5
5AE
100
AcDbEntity
  8
RACCORDO
100
AcDbEllipse
 62
7
  6
CONTINUOUS
 10
-8.2999543059
 20
16.7000456941
 30
0.0
 11
0.8485927574
 21
0.8485927574
 31
0.0
 40
0.9999238505
 41
-2.4567981045
 42
-2.3562325664
  0
ELLIPSE
  5
5AF
100
AcDbEntity
  8
RACCORDO
100
AcDbEllipse
 62
7
  6
CONTINUOUS
 10
3.8445737581
 20
20.0043634339
 30
0.0
 11
0.5
 21
-0.0
 31
0.0
 40
0.0087268678
 41
0.0174532925
 42
1.5707963268
  0
ELLIPSE
  5
5B0
100
AcDbEntity
  8
RACCORDO
100
AcDbEllipse
 62
7
  6
CONTINUOUS
 10
3.9558713768
 20
17.8441286232
 30
0.0
 11
-0.236218315
 21
0.4412535831
 31
0.0
 40
0.9989016803
 41
-3.6326496608
 42
-2.0621579205
  0
ELLIPSE
  5
5B1
100
AcDbEntity
  8
RACCORDO
100
AcDbEllipse
 62
7
  6
CONTINUOUS
 10
-3.8445737581
 20
20.0043634339
 30
0.0
 11
0.5
 21
0.0
 31
0.0
 40
0.0087268678
 41
1.5707963268
 42
3.1241393611
  0
ELLIPSE
  5
5B2
100
AcDbEntity
  8
RACCORDO
100
AcDbEllipse
 62
7
  6
CONTINUOUS
 10
-3.9558713768
 20
17.8441286232
 30
0.0
 11
0.236218315
 21
0.4412535831
 31
0.0
 40
0.9989016803
 41
-4.2210273867
 42
-2.6505356464
  0
ELLIPSE
  5
5B3
100
AcDbEntity
  8
RACCORDO
100
AcDbEllipse
 62
7
  6
CONTINUOUS
 10
4.4109791689
 20
19.7676913781
 30
0.0
 11
-0.0
 21
0.3
 31
0.0
 40
0.0174550649
 41
-4.7123889804
 42
-3.1939525311
  0
ELLIPSE
  5
5B4
100
AcDbEntity
  8
RACCORDO
100
AcDbEllipse
 62
7
  6
CONTINUOUS
 10
6.4712013363
 20
19.7676913781
 30
0.0
 11
-0.0
 21
0.3
 31
0.0
 40
0.0087268678
 41
-3.089232776
 42
-1.5707963268
  0
ELLIPSE
  5
5B5
100
AcDbEntity
  8
RACCORDO
100
AcDbEllipse
 62
7
  6
CONTINUOUS
 10
9.5635864588
 20
19.7676913781
 30
0.0
 11
0.0
 21
0.3
 31
0.0
 40
0.0261859216
 41
-3.089232776
 42
-1.5707963268
  0
ELLIPSE
  5
5B6
100
AcDbEntity
  8
RACCORDO
100
AcDbEllipse
 62
7
  6
CONTINUOUS
 10
7.3287986637
 20
19.7676913781
 30
0.0
 11
0.0
 21
0.3
 31
0.0
 40
0.0087268678
 41
-4.7123889804
 42
-3.1939525311
  0
ELLIPSE
  5
5B7
100
AcDbEntity
  8
RACCORDO
100
AcDbEllipse
 62
7
  6
CONTINUOUS
 10
-7.3287986637
 20
19.7676913781
 30
0.0
 11
0.0
 21
0.3
 31
0.0
 40
0.0087268678
 41
-3.089232776
 42
-1.5707963268
  0
ELLIPSE
  5
5B8
100
AcDbEntity
  8
RACCORDO
100
AcDbEllipse
 62
7
  6
CONTINUOUS
 10
-9.5635864588
 20
19.7676913781
 30
0.0
 11
0.0
 21
0.3
 31
0.0
 40
0.0261859216
 41
-4.7123889804
 42
-3.1939525311
  0
ELLIPSE
  5
5B9
100
AcDbEntity
  8
RACCORDO
100
AcDbEllipse
 62
7
  6
CONTINUOUS
 10
-6.4712013363
 20
19.7676913781
 30
0.0
 11
0.0
 21
0.3
 31
0.0
 40
0.0087268678
 41
-4.7123889804
 42
-3.1939525311
  0
ELLIPSE
  5
5BA
100
AcDbEntity
  8
RACCORDO
100
AcDbEllipse
 62
7
  6
CONTINUOUS
 10
-4.4109791689
 20
19.7676913781
 30
0.0
 11
0.0
 21
0.3
 31
0.0
 40
0.0174550649
 41
-3.089232776
 42
-1.5707963268
  0
ELLIPSE
  5
5BB
100
AcDbEntity
  8
RACCORDO
100
AcDbEllipse
 62
7
  6
CONTINUOUS
 10
6.9127198986
 20
-20.0918966615
 30
0.0
 11
-0.0150589332
 21
-0.3042668091
 31
0.0
 40
0.9847713852
 41
1.6210119607
 42
3.1902929399
  0
ELLIPSE
  5
5BC
100
AcDbEntity
  8
RACCORDO
100
AcDbEllipse
 62
7
  6
CONTINUOUS
 10
-6.9127198986
 20
-20.0918966615
 30
0.0
 11
-0.0150589332
 21
0.3042668091
 31
0.0
 40
0.9847713852
 41
-0.0487002863
 42
1.5205806929
  0
ELLIPSE
  5
5BD
100
AcDbEntity
  8
RACCORDO
100
AcDbEllipse
 62
7
  6
CONTINUOUS
 10
-6.8872801014
 20
-20.0918966615
 30
0.0
 11
-0.0150589332
 21
-0.3042668091
 31
0.0
 40
0.9847713852
 41
1.6210119607
 42
3.1902929399
  0
ELLIPSE
  5
5BE
100
AcDbEntity
  8
RACCORDO
100
AcDbEllipse
 62
7
  6
CONTINUOUS
 10
6.8872801014
 20
-20.0918966615
 30
0.0
 11
0.0150589332
 21
-0.3042668091
 31
0.0
 40
0.9847713852
 41
3.0928923672
 42
4.6621733465
  0
ELLIPSE
  5
5BF
100
AcDbEntity
  8
RACCORDO
100
AcDbEllipse
 62
7
  6
CONTINUOUS
 10
-6.9127198986
 20
20.0918966615
 30
0.0
 11
0.0150589332
 21
0.3042668091
 31
0.0
 40
0.9847713852
 41
1.6210119607
 42
3.1902929399
  0
ELLIPSE
  5
5C0
100
AcDbEntity
  8
RACCORDO
100
AcDbEllipse
 62
7
  6
CONTINUOUS
 10
6.9127198986
 20
20.0918966615
 30
0.0
 11
0.0150589332
 21
-0.3042668091
 31
0.0
 40
0.9847713852
 41
-0.0487002863
 42
1.5205806929
  0
ELLIPSE
  5
5C1
100
AcDbEntity
  8
RACCORDO
100
AcDbEllipse
 62
7
  6
CONTINUOUS
 10
6.8872801014
 20
20.0918966615
 30
0.0
 11
0.0150589332
 21
0.3042668091
 31
0.0
 40
0.9847713852
 41
1.6210119607
 42
3.1902929399
  0
ELLIPSE
  5
5C2
100
AcDbEntity
  8
RACCORDO
100
AcDbEllipse
 62
7
  6
CONTINUOUS
 10
-6.8872801014
 20
20.0918966615
 30
0.0
 11
-0.0150589332
 21
0.3042668091
 31
0.0
 40
0.9847713852
 41
3.0928923672
 42
4.6621733465
  0
ELLIPSE
  5
5C3
100
AcDbEntity
  8
RACCORDO
100
AcDbEllipse
 62
7
  6
CONTINUOUS
 10
7.5370272134
 20
15.3734849081
 30
0.0
 11
0.0
 21
1.0
 31
0.0
 40
0.1763269807
 41
-4.6774823953
 42
-3.1764992386
  0
ELLIPSE
  5
5C4
100
AcDbEntity
  8
RACCORDO
100
AcDbEllipse
 62
7
  6
CONTINUOUS
 10
-7.5370272134
 20
15.3734849081
 30
0.0
 11
-0.0
 21
1.0
 31
0.0
 40
0.1763269807
 41
-3.1066860685
 42
-1.6057029118
  0
ELLIPSE
  5
5C5
100
AcDbEntity
  8
RACCORDO
100
AcDbEllipse
 62
7
  6
CONTINUOUS
 10
3.8679727866
 20
15.3734849081
 30
0.0
 11
0.0
 21
1.0
 31
0.0
 40
0.1763269807
 41
-3.1066860685
 42
-1.6057029118
  0
ELLIPSE
  5
5C6
100
AcDbEntity
  8
RACCORDO
100
AcDbEllipse
 62
7
  6
CONTINUOUS
 10
-3.8679727866
 20
15.3734849081
 30
0.0
 11
-0.0
 21
1.0
 31
0.0
 40
0.1763269807
 41
-4.6774823953
 42
-3.1764992386
  0
ELLIPSE
  5
5C7
100
AcDbEntity
  8
RACCORDO
100
AcDbEllipse
 62
7
  6
CONTINUOUS
 10
-7.0514388673
 20
17.2890700911
 30
0.0
 11
0.0130177014
 21
0.306250446
 31
0.0
 40
0.9787055891
 41
-4.6692960451
 42
-3.1000150659
  0
ELLIPSE
  5
5C8
100
AcDbEntity
  8
RACCORDO
100
AcDbEllipse
 62
7
  6
CONTINUOUS
 10
7.0514388673
 20
17.2890700911
 30
0.0
 11
-0.0130177014
 21
0.306250446
 31
0.0
 40
0.9787055891
 41
-3.1831702413
 42
-1.613889262
  0
ELLIPSE
  5
5C9
100
AcDbEntity
  8
RACCORDO
100
AcDbEllipse
 62
7
  6
CONTINUOUS
 10
6.7485611327
 20
17.2890700911
 30
0.0
 11
0.0130177014
 21
0.306250446
 31
0.0
 40
0.9787055891
 41
-4.6692960451
 42
-3.1000150659
  0
ELLIPSE
  5
5CA
100
AcDbEntity
  8
RACCORDO
100
AcDbEllipse
 62
7
  6
CONTINUOUS
 10
-6.7485611327
 20
17.2890700911
 30
0.0
 11
-0.0130177014
 21
0.306250446
 31
0.0
 40
0.9787055891
 41
-3.1831702413
 42
-1.613889262
  0
ELLIPSE
  5
5CB
100
AcDbEntity
  8
ASSI
100
AcDbEllipse
 62
7
  6
CONTINUOUS
 10
-8.2999543059
 20
16.7000456941
 30
0.0
 11
0.8485927574
 21
0.8485927574
 31
0.0
 40
0.9999238505
 41
-2.4567981045
 42
-2.3562325664
  0
ELLIPSE
  5
5CC
100
AcDbEntity
  8
ASSI
100
AcDbEllipse
 62
7
  6
CONTINUOUS
 10
-8.7631293807
 20
-23.5556624327
 30
0.0
 11
0.25
 21
-0.0
 31
0.0
 40
0.5773502692
 41
-0.5235987756
 42
-0.0174532925
  0
ELLIPSE
  5
5CD
100
AcDbEntity
  8
ASSI
100
AcDbEllipse
 62
7
  6
CONTINUOUS
 10
9.0368706193
 20
-23.5556624327
 30
0.0
 11
0.25
 21
0.0
 31
0.0
 40
0.5773502692
 41
-0.5235987756
 42
-0.0174532925
  0
ELLIPSE
  5
5CE
100
AcDbEntity
  8
ASSI
100
AcDbEllipse
 62
7
  6
CONTINUOUS
 10
10.582468771
 20
21.882468771
 30
0.0
 11
0.3536610946
 21
0.3536610946
 31
0.0
 40
0.9996954599
 41
-0.7852458701
 42
0.7852458701
  0
ELLIPSE
  5
5CF
100
AcDbEntity
  8
ASSI
100
AcDbEllipse
 62
7
  6
CONTINUOUS
 10
10.582468771
 20
-21.8824687711
 30
0.0
 11
-0.3536610946
 21
0.3536610946
 31
0.0
 40
0.9996954599
 41
2.3563467834
 42
3.9268385237
  0
ELLIPSE
  5
5D0
100
AcDbEntity
  8
ASSI
100
AcDbEllipse
 62
7
  6
CONTINUOUS
 10
-9.0368706193
 20
23.5556624327
 30
0.0
 11
0.25
 21
0.0
 31
0.0
 40
0.5773502692
 41
2.617993878
 42
3.1241393611
  0
ELLIPSE
  5
5D1
100
AcDbEntity
  8
ASSI
100
AcDbEllipse
 62
7
  6
CONTINUOUS
 10
8.7631293807
 20
23.5556624327
 30
0.0
 11
0.25
 21
-0.0
 31
0.0
 40
0.5773502692
 41
2.617993878
 42
3.1241393611
  0
ELLIPSE
  5
5D2
100
AcDbEntity
  8
ASSI
100
AcDbEllipse
 62
7
  6
CONTINUOUS
 10
3.8944541266
 20
15.378729419
 30
0.0
 11
0.0
 21
1.0
 31
0.0
 40
0.1763269807
 41
-3.1066860685
 42
-1.6057029118
  0
ELLIPSE
  5
5D3
100
AcDbEntity
  8
ASSI
100
AcDbEllipse
 62
7
  6
CONTINUOUS
 10
-3.8944541266
 20
15.378729419
 30
0.0
 11
-0.0
 21
1.0
 31
0.0
 40
0.1763269807
 41
-4.6774823953
 42
-3.1764992386
  0
ELLIPSE
  5
5D4
100
AcDbEntity
  8
ASSI
100
AcDbEllipse
 62
7
  6
CONTINUOUS
 10
-6.8872801014
 20
-20.0918966615
 30
0.0
 11
-0.0150589332
 21
-0.3042668091
 31
0.0
 40
0.9847713852
 41
1.6210119607
 42
3.1902929399
  0
ELLIPSE
  5
5D5
100
AcDbEntity
  8
ASSI
100
AcDbEllipse
 62
7
  6
CONTINUOUS
 10
7.0514388673
 20
17.2890700911
 30
0.0
 11
-0.0130177014
 21
0.306250446
 31
0.0
 40
0.9787055891
 41
-3.1831702413
 42
-1.613889262
  0
ELLIPSE
  5
5D6
100
AcDbEntity
  8
ASSI
100
AcDbEllipse
 62
7
  6
CONTINUOUS
 10
-7.0514388673
 20
17.2890700911
 30
0.0
 11
0.0130177014
 21
0.306250446
 31
0.0
 40
0.9787055891
 41
-4.6692960451
 42
-3.1000150659
  0
ELLIPSE
  5
5D7
100
AcDbEntity
  8
ASSI
100
AcDbEllipse
 62
7
  6
CONTINUOUS
 10
6.8872801014
 20
-20.0918966615
 30
0.0
 11
0.0150589332
 21
-0.3042668091
 31
0.0
 40
0.9847713852
 41
3.0928923672
 42
4.6621733465
  0
ELLIPSE
  5
5D8
100
AcDbEntity
  8
ASSI
100
AcDbEllipse
 62
7
  6
CONTINUOUS
 10
-6.9127198986
 20
20.0918966615
 30
0.0
 11
0.0150589332
 21
0.3042668091
 31
0.0
 40
0.9847713852
 41
1.6210119607
 42
3.1902929399
  0
ELLIPSE
  5
5D9
100
AcDbEntity
  8
ASSI
100
AcDbEllipse
 62
7
  6
CONTINUOUS
 10
-4.0459553394
 20
-23.2
 30
0.0
 11
0.4595995956
 21
0.0
 31
0.0
 40
0.9949884474
 41
-2.644815645
 42
-2.3053277814
  0
ELLIPSE
  5
5DA
100
AcDbEntity
  8
ASSI
100
AcDbEllipse
 62
7
  6
CONTINUOUS
 10
-4.0459553394
 20
-23.2
 30
0.0
 11
0.4595995956
 21
-0.0
 31
0.0
 40
0.9949884474
 41
2.3053277814
 42
2.644815645
  0
ELLIPSE
  5
5DB
100
AcDbEntity
  8
ASSI
100
AcDbEllipse
 62
7
  6
CONTINUOUS
 10
-4.0459553394
 20
23.2
 30
0.0
 11
0.4595995956
 21
-0.0
 31
0.0
 40
0.9949884474
 41
-2.644815645
 42
-2.3053277814
  0
ELLIPSE
  5
5DC
100
AcDbEntity
  8
ASSI
100
AcDbEllipse
 62
7
  6
CONTINUOUS
 10
-4.0459553394
 20
23.2
 30
0.0
 11
0.4595995956
 21
0.0
 31
0.0
 40
0.9949884474
 41
2.3053277814
 42
2.644815645
  0
ELLIPSE
  5
5DD
100
AcDbEntity
  8
ASSI
100
AcDbEllipse
 62
7
  6
CONTINUOUS
 10
-1.0674931469
 20
23.7325068531
 30
0.0
 11
-0.1768305473
 21
-0.1768305473
 31
0.0
 40
0.9996954599
 41
2.3563467834
 42
3.9268385237
  0
ELLIPSE
  5
5DE
100
AcDbEntity
  8
ASSI
100
AcDbEllipse
 62
7
  6
CONTINUOUS
 10
1.0674931469
 20
23.7325068531
 30
0.0
 11
-0.1768305473
 21
0.1768305473
 31
0.0
 40
0.9996954599
 41
-0.7852458701
 42
0.7852458701
  0
ELLIPSE
  5
5DF
100
AcDbEntity
  8
ASSI
100
AcDbEllipse
 62
7
  6
CONTINUOUS
 10
1.0674931469
 20
-23.7325068531
 30
0.0
 11
0.1768305473
 21
0.1768305473
 31
0.0
 40
0.9996954599
 41
2.3563467834
 42
3.9268385237
  0
ELLIPSE
  5
5E0
100
AcDbEntity
  8
ASSI
100
AcDbEllipse
 62
7
  6
CONTINUOUS
 10
-1.0674931469
 20
-23.7325068531
 30
0.0
 11
0.1768305473
 21
-0.1768305473
 31
0.0
 40
0.9996954599
 41
-0.7852458701
 42
0.7852458701
  0
ELLIPSE
  5
5E1
100
AcDbEntity
  8
ASSI
100
AcDbEllipse
 62
7
  6
CONTINUOUS
 10
8.0754493507
 20
21.2252970227
 30
0.0
 11
0.0
 21
1.0
 31
0.0
 40
0.0174550649
 41
1.3378837631
 42
1.5707963268
  0
ELLIPSE
  5
5E2
100
AcDbEntity
  8
ASSI
100
AcDbEllipse
 62
7
  6
CONTINUOUS
 10
-8.0754493507
 20
21.2252970227
 30
0.0
 11
-0.0
 21
1.0
 31
0.0
 40
0.0174550649
 41
-1.5707963268
 42
-1.3378837631
  0
ELLIPSE
  5
5E3
100
AcDbEntity
  8
ASSI
100
AcDbEllipse
 62
7
  6
CONTINUOUS
 10
-8.0754493507
 20
-21.2252970227
 30
0.0
 11
0.0
 21
1.0
 31
0.0
 40
0.0174550649
 41
-1.8037088905
 42
-1.5707963268
  0
ELLIPSE
  5
5E4
100
AcDbEntity
  8
ASSI
100
AcDbEllipse
 62
7
  6
CONTINUOUS
 10
8.0754493507
 20
-21.2252970227
 30
0.0
 11
-0.0
 21
1.0
 31
0.0
 40
0.0174550649
 41
-4.7123889804
 42
-4.4794764167
  0
ELLIPSE
  5
5E5
100
AcDbEntity
  8
ASSI
100
AcDbEllipse
 62
7
  6
CONTINUOUS
 10
-8.3012864295
 20
-21.2252970227
 30
0.0
 11
1.0000571192
 21
-0.9999809595
 31
0.0
 40
0.0061705924
 41
0.0112823085
 42
1.3317127791
  0
ELLIPSE
  5
5E6
100
AcDbEntity
  8
ASSI
100
AcDbEllipse
 62
7
  6
CONTINUOUS
 10
8.3012864295
 20
-21.2252970227
 30
0.0
 11
1.0000571192
 21
0.9999809595
 31
0.0
 40
0.0061705924
 41
1.8098798745
 42
3.1303103451
  0
ELLIPSE
  5
5E7
100
AcDbEntity
  8
ASSI
100
AcDbEllipse
 62
7
  6
CONTINUOUS
 10
-8.3012864295
 20
21.2252970227
 30
0.0
 11
1.0000571192
 21
0.9999809595
 31
0.0
 40
0.0061705924
 41
-1.3317127791
 42
-0.0112823085
  0
ELLIPSE
  5
5E8
100
AcDbEntity
  8
ASSI
100
AcDbEllipse
 62
7
  6
CONTINUOUS
 10
8.3012864295
 20
21.2252970227
 30
0.0
 11
1.0000571192
 21
-0.9999809595
 31
0.0
 40
0.0061705924
 41
-3.1303103451
 42
-1.8098798745
  0
ELLIPSE
  5
5E9
100
AcDbEntity
  8
ASSI
100
AcDbEllipse
 62
7
  6
CONTINUOUS
 10
-3.3850964806
 20
20.8909925586
 30
0.0
 11
0.25
 21
-0.0
 31
0.0
 40
0.3639702343
 41
-1.5707963268
 42
-0.0087266463
  0
ELLIPSE
  5
5EA
100
AcDbEntity
  8
ASSI
100
AcDbEllipse
 62
7
  6
CONTINUOUS
 10
-3.3000095196
 20
22.1325068531
 30
0.0
 11
0.1118178731
 21
0.2236527791
 31
0.0
 40
0.9998096356
 41
-1.1071030277
 42
0.463541
  0
ELLIPSE
  5
5EB
100
AcDbEntity
  8
ASSI
100
AcDbEllipse
 62
7
  6
CONTINUOUS
 10
3.3000095196
 20
22.1325068531
 30
0.0
 11
-0.1118178731
 21
0.2236527791
 31
0.0
 40
0.9998096356
 41
-0.463541
 42
1.1071030277
  0
ELLIPSE
  5
5EC
100
AcDbEntity
  8
ASSI
100
AcDbEllipse
 62
7
  6
CONTINUOUS
 10
-9.0368706193
 20
-23.5556624327
 30
0.0
 11
0.25
 21
0.0
 31
0.0
 40
0.5773502692
 41
-3.1241393611
 42
-2.617993878
  0
ELLIPSE
  5
5ED
100
AcDbEntity
  8
ASSI
100
AcDbEllipse
 62
7
  6
CONTINUOUS
 10
-9.0368706193
 20
-22.3869087013
 30
0.0
 11
0.25
 21
0.0
 31
0.0
 40
0.0174550649
 41
1.5707963268
 42
3.1241393611
  0
ELLIPSE
  5
5EE
100
AcDbEntity
  8
ASSI
100
AcDbEllipse
 62
7
  6
CONTINUOUS
 10
8.7631293807
 20
-23.5556624327
 30
0.0
 11
0.25
 21
-0.0
 31
0.0
 40
0.5773502692
 41
-3.1241393611
 42
-2.617993878
  0
ELLIPSE
  5
5EF
100
AcDbEntity
  8
ASSI
100
AcDbEllipse
 62
7
  6
CONTINUOUS
 10
8.7631293807
 20
-22.3869087013
 30
0.0
 11
0.25
 21
0.0
 31
0.0
 40
0.0174550649
 41
1.5707963268
 42
3.1241393611
  0
ELLIPSE
  5
5F0
100
AcDbEntity
  8
ASSI
100
AcDbEllipse
 62
7
  6
CONTINUOUS
 10
-9.0368706193
 20
22.3869087013
 30
0.0
 11
0.25
 21
0.0
 31
0.0
 40
0.0174550649
 41
-3.1241393611
 42
-1.5707963268
  0
ELLIPSE
  5
5F1
100
AcDbEntity
  8
ASSI
100
AcDbEllipse
 62
7
  6
CONTINUOUS
 10
3.3850964806
 20
20.8909925586
 30
0.0
 11
0.25
 21
-0.0
 31
0.0
 40
0.3639702343
 41
-3.1328660073
 42
-1.5707963268
  0
ELLIPSE
  5
5F2
100
AcDbEntity
  8
ASSI
100
AcDbEllipse
 62
7
  6
CONTINUOUS
 10
3.3850964806
 20
-20.8909925586
 30
0.0
 11
0.25
 21
-0.0
 31
0.0
 40
0.3639702343
 41
1.5707963268
 42
3.1328660073
  0
ELLIPSE
  5
5F3
100
AcDbEntity
  8
ASSI
100
AcDbEllipse
 62
7
  6
CONTINUOUS
 10
3.3000095196
 20
-22.1325068531
 30
0.0
 11
0.1118178731
 21
0.2236527791
 31
0.0
 40
0.9998096356
 41
-4.2486956813
 42
-2.6780516535
  0
ELLIPSE
  5
5F4
100
AcDbEntity
  8
ASSI
100
AcDbEllipse
 62
7
  6
CONTINUOUS
 10
-3.3000095196
 20
-22.1325068531
 30
0.0
 11
-0.1118178731
 21
0.2236527791
 31
0.0
 40
0.9998096356
 41
-3.6051336537
 42
-2.0344896259
  0
ELLIPSE
  5
5F5
100
AcDbEntity
  8
ASSI
100
AcDbEllipse
 62
7
  6
CONTINUOUS
 10
8.7631293807
 20
22.3869087013
 30
0.0
 11
0.25
 21
0.0
 31
0.0
 40
0.0174550649
 41
-3.1241393611
 42
-1.5707963268
  0
ELLIPSE
  5
5F6
100
AcDbEntity
  8
ASSI
100
AcDbEllipse
 62
7
  6
CONTINUOUS
 10
-3.3850964806
 20
-20.8909925586
 30
0.0
 11
0.25
 21
-0.0
 31
0.0
 40
0.3639702343
 41
0.0087266463
 42
1.5707963268
  0
ELLIPSE
  5
5F7
100
AcDbEntity
  8
ASSI
100
AcDbEllipse
 62
7
  6
CONTINUOUS
 10
-3.750038082
 20
23.7325068531
 30
0.0
 11
0.1768305473
 21
0.1768305473
 31
0.0
 40
0.9996954599
 41
-0.7852458701
 42
0.7852458702
  0
ELLIPSE
  5
5F8
100
AcDbEntity
  8
ASSI
100
AcDbEllipse
 62
7
  6
CONTINUOUS
 10
3.750038082
 20
23.7325068531
 30
0.0
 11
-0.1768305473
 21
0.1768305473
 31
0.0
 40
0.9996954599
 41
-0.7852458701
 42
0.7852458702
  0
ELLIPSE
  5
5F9
100
AcDbEntity
  8
ASSI
100
AcDbEllipse
 62
7
  6
CONTINUOUS
 10
6.9127198986
 20
20.0918966615
 30
0.0
 11
0.0150589332
 21
-0.3042668091
 31
0.0
 40
0.9847713852
 41
-0.0487002863
 42
1.5205806929
  0
ELLIPSE
  5
5FA
100
AcDbEntity
  8
ASSI
100
AcDbEllipse
 62
7
  6
CONTINUOUS
 10
3.750038082
 20
-23.7325068531
 30
0.0
 11
0.1768305473
 21
0.1768305473
 31
0.0
 40
0.9996954599
 41
-3.9268385237
 42
-2.3563467834
  0
ELLIPSE
  5
5FB
100
AcDbEntity
  8
ASSI
100
AcDbEllipse
 62
7
  6
CONTINUOUS
 10
-3.750038082
 20
-23.7325068531
 30
0.0
 11
0.1768305473
 21
-0.1768305473
 31
0.0
 40
0.9996954599
 41
-0.7852458702
 42
0.7852458701
  0
ELLIPSE
  5
5FC
100
AcDbEntity
  8
ASSI
100
AcDbEllipse
 62
7
  6
CONTINUOUS
 10
3.9662724675
 20
-22.3020015105
 30
0.0
 11
0.3856702945
 21
-0.0
 31
0.0
 40
0.0174550649
 41
0.0174532925
 42
3.1241393611
  0
ELLIPSE
  5
5FD
100
AcDbEntity
  8
ASSI
100
AcDbEllipse
 62
7
  6
CONTINUOUS
 10
3.9662724675
 20
22.3020015105
 30
0.0
 11
0.3856702945
 21
0.0
 31
0.0
 40
0.0174550649
 41
-3.1241393611
 42
-0.0174532925
  0
ELLIPSE
  5
5FE
100
AcDbEntity
  8
ASSI
100
AcDbEllipse
 62
7
  6
CONTINUOUS
 10
-3.9662724675
 20
-22.3020015105
 30
0.0
 11
0.3856702945
 21
-0.0
 31
0.0
 40
0.0174550649
 41
0.0174532925
 42
3.1241393611
  0
ELLIPSE
  5
5FF
100
AcDbEntity
  8
ASSI
100
AcDbEllipse
 62
7
  6
CONTINUOUS
 10
-3.9662724675
 20
22.3020015105
 30
0.0
 11
0.3856702945
 21
-0.0
 31
0.0
 40
0.0174550649
 41
-3.1241393611
 42
-0.0174532925
  0
ELLIPSE
  5
600
100
AcDbEntity
  8
ASSI
100
AcDbEllipse
 62
7
  6
CONTINUOUS
 10
9.0368706193
 20
-22.3869087013
 30
0.0
 11
0.25
 21
0.0
 31
0.0
 40
0.0174550649
 41
0.0174532925
 42
1.5707963268
  0
ELLIPSE
  5
601
100
AcDbEntity
  8
ASSI
100
AcDbEllipse
 62
7
  6
CONTINUOUS
 10
6.8872801014
 20
20.0918966615
 30
0.0
 11
0.0150589332
 21
0.3042668091
 31
0.0
 40
0.9847713852
 41
1.6210119607
 42
3.1902929399
  0
ELLIPSE
  5
602
100
AcDbEntity
  8
ASSI
100
AcDbEllipse
 62
7
  6
CONTINUOUS
 10
-8.7631293807
 20
-22.3869087013
 30
0.0
 11
0.25
 21
0.0
 31
0.0
 40
0.0174550649
 41
0.0174532925
 42
1.5707963268
  0
ELLIPSE
  5
603
100
AcDbEntity
  8
ASSI
100
AcDbEllipse
 62
7
  6
CONTINUOUS
 10
10.3999695344
 20
-23.3535898385
 30
0.0
 11
0.0069796346
 21
0.2308610084
 31
0.0
 40
0.8659264732
 41
-1.5358963758
 42
0.026173628
  0
ELLIPSE
  5
604
100
AcDbEntity
  8
ASSI
100
AcDbEllipse
 62
7
  6
CONTINUOUS
 10
-7.4000304656
 20
-23.3535898385
 30
0.0
 11
0.0069796346
 21
0.2308610084
 31
0.0
 40
0.8659264732
 41
-1.5358963758
 42
0.026173628
  0
ELLIPSE
  5
605
100
AcDbEntity
  8
ASSI
100
AcDbEllipse
 62
7
  6
CONTINUOUS
 10
-8.7631293807
 20
22.3869087013
 30
0.0
 11
0.25
 21
-0.0
 31
0.0
 40
0.0174550649
 41
-1.5707963268
 42
-0.0174532925
  0
ELLIPSE
  5
606
100
AcDbEntity
  8
ASSI
100
AcDbEllipse
 62
7
  6
CONTINUOUS
 10
-8.7631293807
 20
23.5556624327
 30
0.0
 11
0.25
 21
-0.0
 31
0.0
 40
0.5773502692
 41
0.0174532925
 42
0.5235987756
  0
ELLIPSE
  5
607
100
AcDbEntity
  8
ASSI
100
AcDbEllipse
 62
7
  6
CONTINUOUS
 10
9.0368706193
 20
23.5556624327
 30
0.0
 11
0.25
 21
0.0
 31
0.0
 40
0.5773502692
 41
0.0174532925
 42
0.5235987756
  0
ELLIPSE
  5
608
100
AcDbEntity
  8
ASSI
100
AcDbEllipse
 62
7
  6
CONTINUOUS
 10
9.0368706193
 20
22.3869087013
 30
0.0
 11
0.25
 21
0.0
 31
0.0
 40
0.0174550649
 41
-1.5707963268
 42
-0.0174532925
  0
ELLIPSE
  5
609
100
AcDbEntity
  8
ASSI
100
AcDbEllipse
 62
7
  6
CONTINUOUS
 10
7.4000304656
 20
-23.3535898385
 30
0.0
 11
-0.0069796346
 21
0.2308610084
 31
0.0
 40
0.8659264732
 41
-0.026173628
 42
1.5358963756
  0
ELLIPSE
  5
60A
100
AcDbEntity
  8
ASSI
100
AcDbEllipse
 62
7
  6
CONTINUOUS
 10
-10.3999695344
 20
23.3535898385
 30
0.0
 11
0.0069796346
 21
0.2308610084
 31
0.0
 40
0.8659264732
 41
-4.6774890294
 42
-3.1154190256
  0
ELLIPSE
  5
60B
100
AcDbEntity
  8
ASSI
100
AcDbEllipse
 62
7
  6
CONTINUOUS
 10
-10.3999695344
 20
-23.3535898385
 30
0.0
 11
-0.0069796346
 21
0.2308610084
 31
0.0
 40
0.8659264732
 41
-0.026173628
 42
1.5358963756
  0
ELLIPSE
  5
60C
100
AcDbEntity
  8
ASSI
100
AcDbEllipse
 62
7
  6
CONTINUOUS
 10
-7.4000304656
 20
23.3535898385
 30
0.0
 11
-0.0069796346
 21
0.2308610084
 31
0.0
 40
0.8659264732
 41
-3.1677662815
 42
-1.6056962779
  0
ELLIPSE
  5
60D
100
AcDbEntity
  8
ASSI
100
AcDbEllipse
 62
7
  6
CONTINUOUS
 10
10.3999695344
 20
23.3535898385
 30
0.0
 11
-0.0069796346
 21
0.2308610084
 31
0.0
 40
0.8659264732
 41
-3.1677662815
 42
-1.6056962779
  0
ELLIPSE
  5
60E
100
AcDbEntity
  8
ASSI
100
AcDbEllipse
 62
7
  6
CONTINUOUS
 10
7.4000304656
 20
23.3535898385
 30
0.0
 11
0.0069796346
 21
0.2308610084
 31
0.0
 40
0.8659264732
 41
-4.6774890294
 42
-3.1154190256
  0
ELLIPSE
  5
60F
100
AcDbEntity
  8
ASSI
100
AcDbEllipse
 62
7
  6
CONTINUOUS
 10
-6.8872801014
 20
20.0918966615
 30
0.0
 11
-0.0150589332
 21
0.3042668091
 31
0.0
 40
0.9847713852
 41
3.0928923672
 42
4.6621733465
  0
ELLIPSE
  5
610
100
AcDbEntity
  8
ASSI
100
AcDbEllipse
 62
7
  6
CONTINUOUS
 10
4.0459553394
 20
-23.2
 30
0.0
 11
0.4595995956
 21
0.0
 31
0.0
 40
0.9949884474
 41
0.4967770086
 42
0.8362648721
  0
ELLIPSE
  5
611
100
AcDbEntity
  8
ASSI
100
AcDbEllipse
 62
7
  6
CONTINUOUS
 10
4.0459553394
 20
-23.2
 30
0.0
 11
0.4595995956
 21
-0.0
 31
0.0
 40
0.9949884474
 41
-0.8362648721
 42
-0.4967770086
  0
ELLIPSE
  5
612
100
AcDbEntity
  8
ASSI
100
AcDbEllipse
 62
7
  6
CONTINUOUS
 10
4.0459553394
 20
23.2
 30
0.0
 11
0.4595995956
 21
-0.0
 31
0.0
 40
0.9949884474
 41
0.4967770086
 42
0.8362648721
  0
ELLIPSE
  5
613
100
AcDbEntity
  8
ASSI
100
AcDbEllipse
 62
7
  6
CONTINUOUS
 10
4.0459553394
 20
23.2
 30
0.0
 11
0.4595995956
 21
0.0
 31
0.0
 40
0.9949884474
 41
-0.8362648721
 42
-0.4967770086
  0
ELLIPSE
  5
614
100
AcDbEntity
  8
ASSI
100
AcDbEllipse
 62
7
  6
CONTINUOUS
 10
6.9127198986
 20
-20.0918966615
 30
0.0
 11
-0.0150589332
 21
-0.3042668091
 31
0.0
 40
0.9847713852
 41
1.6210119607
 42
3.1902929399
  0
ELLIPSE
  5
615
100
AcDbEntity
  8
ASSI
100
AcDbEllipse
 62
7
  6
CONTINUOUS
 10
-10.5824687711
 20
-21.8824687711
 30
0.0
 11
-0.3536610946
 21
-0.3536610946
 31
0.0
 40
0.9996954599
 41
-0.7852458701
 42
0.7852458701
  0
ELLIPSE
  5
616
100
AcDbEntity
  8
ASSI
100
AcDbEllipse
 62
7
  6
CONTINUOUS
 10
-6.9127198986
 20
-20.0918966615
 30
0.0
 11
-0.0150589332
 21
0.3042668091
 31
0.0
 40
0.9847713852
 41
-0.0487002863
 42
1.5205806929
  0
ELLIPSE
  5
617
100
AcDbEntity
  8
ASSI
100
AcDbEllipse
 62
7
  6
CONTINUOUS
 10
-10.5824687711
 20
21.882468771
 30
0.0
 11
0.3536610946
 21
-0.3536610946
 31
0.0
 40
0.9996954599
 41
2.3563467834
 42
3.9268385237
  0
ELLIPSE
  5
618
100
AcDbEntity
  8
ASSI
100
AcDbEllipse
 62
7
  6
CONTINUOUS
 10
6.7485611327
 20
17.2890700911
 30
0.0
 11
0.0130177014
 21
0.306250446
 31
0.0
 40
0.9787055891
 41
-4.6692960451
 42
-3.1000150659
  0
ELLIPSE
  5
619
100
AcDbEntity
  8
ASSI
100
AcDbEllipse
 62
7
  6
CONTINUOUS
 10
-6.7485611327
 20
17.2890700911
 30
0.0
 11
-0.0130177014
 21
0.306250446
 31
0.0
 40
0.9787055891
 41
-3.1831702413
 42
-1.613889262
  0
ELLIPSE
  5
61A
100
AcDbEntity
  8
ASSI
100
AcDbEllipse
 62
7
  6
CONTINUOUS
 10
3.8445737581
 20
20.0043634339
 30
0.0
 11
0.5
 21
-0.0
 31
0.0
 40
0.0087268678
 41
0.0174532925
 42
1.5707963268
  0
ELLIPSE
  5
61B
100
AcDbEntity
  8
ASSI
100
AcDbEllipse
 62
7
  6
CONTINUOUS
 10
3.9558713768
 20
17.8441286232
 30
0.0
 11
-0.236218315
 21
0.4412535831
 31
0.0
 40
0.9989016803
 41
-3.6326496608
 42
-2.0621579205
  0
ELLIPSE
  5
61C
100
AcDbEntity
  8
ASSI
100
AcDbEllipse
 62
7
  6
CONTINUOUS
 10
-3.8445737581
 20
20.0043634339
 30
0.0
 11
0.5
 21
0.0
 31
0.0
 40
0.0087268678
 41
1.5707963268
 42
3.1241393611
  0
ELLIPSE
  5
61D
100
AcDbEntity
  8
ASSI
100
AcDbEllipse
 62
7
  6
CONTINUOUS
 10
-3.9558713768
 20
17.8441286232
 30
0.0
 11
0.236218315
 21
0.4412535831
 31
0.0
 40
0.9989016803
 41
-4.2210273867
 42
-2.6505356464
  0
ELLIPSE
  5
61E
100
AcDbEntity
  8
ASSI
100
AcDbEllipse
 62
7
  6
CONTINUOUS
 10
4.4109791689
 20
19.7676913781
 30
0.0
 11
-0.0
 21
0.3
 31
0.0
 40
0.0174550649
 41
-4.7123889804
 42
-3.1939525311
  0
ELLIPSE
  5
61F
100
AcDbEntity
  8
ASSI
100
AcDbEllipse
 62
7
  6
CONTINUOUS
 10
6.4712013363
 20
19.7676913781
 30
0.0
 11
-0.0
 21
0.3
 31
0.0
 40
0.0087268678
 41
-3.089232776
 42
-1.5707963268
  0
ELLIPSE
  5
620
100
AcDbEntity
  8
ASSI
100
AcDbEllipse
 62
7
  6
CONTINUOUS
 10
9.5635864588
 20
19.7676913781
 30
0.0
 11
0.0
 21
0.3
 31
0.0
 40
0.0261859216
 41
-3.089232776
 42
-1.5707963268
  0
ELLIPSE
  5
621
100
AcDbEntity
  8
ASSI
100
AcDbEllipse
 62
7
  6
CONTINUOUS
 10
7.3287986637
 20
19.7676913781
 30
0.0
 11
0.0
 21
0.3
 31
0.0
 40
0.0087268678
 41
-4.7123889804
 42
-3.1939525311
  0
ELLIPSE
  5
622
100
AcDbEntity
  8
ASSI
100
AcDbEllipse
 62
7
  6
CONTINUOUS
 10
-7.3287986637
 20
19.7676913781
 30
0.0
 11
0.0
 21
0.3
 31
0.0
 40
0.0087268678
 41
-3.089232776
 42
-1.5707963268
  0
ELLIPSE
  5
623
100
AcDbEntity
  8
ASSI
100
AcDbEllipse
 62
7
  6
CONTINUOUS
 10
-9.5635864588
 20
19.7676913781
 30
0.0
 11
0.0
 21
0.3
 31
0.0
 40
0.0261859216
 41
-4.7123889804
 42
-3.1939525311
  0
ELLIPSE
  5
624
100
AcDbEntity
  8
ASSI
100
AcDbEllipse
 62
7
  6
CONTINUOUS
 10
-6.4712013363
 20
19.7676913781
 30
0.0
 11
0.0
 21
0.3
 31
0.0
 40
0.0087268678
 41
-4.7123889804
 42
-3.1939525311
  0
ELLIPSE
  5
625
100
AcDbEntity
  8
ASSI
100
AcDbEllipse
 62
7
  6
CONTINUOUS
 10
-4.4109791689
 20
19.7676913781
 30
0.0
 11
0.0
 21
0.3
 31
0.0
 40
0.0174550649
 41
-3.089232776
 42
-1.5707963268
  0
ELLIPSE
  5
626
100
AcDbEntity
  8
ASSI
100
AcDbEllipse
 62
7
  6
CONTINUOUS
 10
7.5105458734
 20
15.378729419
 30
0.0
 11
0.0
 21
1.0
 31
0.0
 40
0.1763269807
 41
-4.6774823953
 42
-3.1764992386
  0
ELLIPSE
  5
627
100
AcDbEntity
  8
ASSI
100
AcDbEllipse
 62
7
  6
CONTINUOUS
 10
-7.5105458734
 20
15.378729419
 30
0.0
 11
0.0
 21
1.0
 31
0.0
 40
0.1763269807
 41
-3.1066860685
 42
-1.6057029118
  0
ENDSEC
  0
SECTION
  2
OBJECTS
  0
DICTIONARY
  5
C
100
AcDbDictionary
280
0
281
1
  3
ACAD_GROUP
350
D
  3
ACAD_MLINESTYLE
350
17
  3
ACAD_LAYOUT
350
1A
  3
ACAD_PLOTSETTINGS
350
19
  3
ACAD_PLOTSTYLENAME
350
E
  0
DICTIONARY
  5
D
102
{ACAD_REACTORS
330
C
102
}
100
AcDbDictionary
280
0
281
1
  0
ACDBDICTIONARYWDFLT
  5
E
102
{ACAD_REACTORS
330
C
102
}
100
AcDbDictionary
281
1
  3
Normal
350
F
100
AcDbDictionaryWithDefault
340
F
  0
DICTIONARY
  5
17
102
{ACAD_REACTORS
330
C
102
}
100
AcDbDictionary
280
0
281
1
  3
Standard
350
18
  0
DICTIONARY
  5
19
102
{ACAD_REACTORS
330
C
102
}
100
AcDbDictionary
281
1
  0
DICTIONARY
  5
1A
102
{ACAD_REACTORS
330
C
102
}
100
AcDbDictionary
281
1
  3
Model
350
628
  3
Layout1
350
629
  0
ACDBPLACEHOLDER
  5
F
102
{ACAD_REACTORS
330
E
102
}
  0
MLINESTYLE
  5
18
102
{ACAD_REACTORS
330
17
102
}
100
AcDbMlineStyle
  2
STANDARD
 70
0
  3

 62
256
 51
90.0
 52
90.0
 71
2
 49
0.5
 62
256
  6
BYLAYER
 49
-0.5
 62
256
  6
BYLAYER
  0
LAYOUT
  5
628
102
{ACAD_REACTORS
330
1A
102
}
100
AcDbPlotSettings
  1

  2
none_device
  4
ISO_A4_(297.00_x_210.00_MM)
  6

 40
0.0
 41
0.0
 42
0.0
 43
0.0
 44
297.0
 45
210.0
 46
0.0
 47
0.0
 48
0.0
 49
0.0
140
0.0
141
0.0
142
1.0
143
1.0
 70
1024
 72
1
 73
0
 74
0
  7

 75
0
147
1.0
148
0.0
149
0.0
100
AcDbLayout
  1
Model
 70
0
 71
0
 10
0.0
 20
0.0
 11
297.0
 21
210.0
 12
0.0
 22
0.0
 32
0.0
 14
0.0
 24
0.0
 34
0.0
 15
0.0
 25
0.0
 35
0.0
146
0.0
 13
0.0
 23
0.0
 33
0.0
 16
1.0
 26
0.0
 36
0.0
 17
0.0
 27
1.0
 37
0.0
 76
0
330
21A
345
0
346
0
  0
LAYOUT
  5
629
102
{ACAD_REACTORS
330
1A
102
}
100
AcDbPlotSettings
  1

  2
none_device
  4
ISO_A4_(297.00_x_210.00_MM)
  6

 40
0.0
 41
0.0
 42
0.0
 43
0.0
 44
297.0
 45
210.0
 46
0.0
 47
0.0
 48
0.0
 49
0.0
140
0.0
141
0.0
142
1.0
143
1.0
 70
0
 72
1
 73
0
 74
0
  7

 75
0
147
1.0
148
0.0
149
0.0
100
AcDbLayout
  1
Layout1
 70
0
 71
1
 10
0.0
 20
0.0
 11
297.0
 21
210.0
 12
0.0
 22
0.0
 32
0.0
 14
0.0
 24
0.0
 34
0.0
 15
0.0
 25
0.0
 35
0.0
146
0.0
 13
0.0
 23
0.0
 33
0.0
 16
1.0
 26
0.0
 36
0.0
 17
0.0
 27
1.0
 37
0.0
 76
0
330
21B
345
0
346
0
  0
ENDSEC
  0
EOF
