  0
SECTION
  2
HEADER
  9
$ACADVER
  1
AC1015
  9
$DWGCODEPAGE
  3
ANSI_1252
  9
$EXTMAX
 10
297.0
 20
210.0
 30
0.0
  9
$EXTMIN
 10
0.0
 20
0.0
 30
0.0
  9
$LIMMIN
 10
0.0
 20
0.0
  9
$LIMMAX
 10
297.0
 20
210.0
  9
$VIEWCTR
 10
148.5
 20
105.0
  9
$VIEWSIZE
 40
210.0
  9
$CLAYER
  8
0
  9
$LTSCALE
 40
16.335
  9
$CELTYPE
  6
BYLAYER
  9
$DIMSCALE
 40
1.0
  9
$DIMASZ
 40
3.0
  9
$DIMEXO
 40
1.85625
  9
$DIMDLI
 40
11.286
  9
$DIMEXE
 40
5.346
  9
$DIMCEN
 40
2.673
  9
$DIMLFAC
 40
1.0
  9
$DIMBLK
  1
_FILLED
  9
$DIMTXT
 40
3.0
  9
$DIMTOL
 70
1
  9
$DIMLIM
 70
0
  9
$DIMTFAC
 40
1.0
  9
$DIMTP
 40
0.01
  9
$DIMTM
 40
0.01
  9
$PDMODE
 70
3
  9
$PDSIZE
 40
3.0
  9
$HANDSEED
  5
7E6
  9
$TILEMODE
 70
1
  9
$MEASUREMENT
 70
1
  9
$INSUNITS
 70
4
  0
ENDSEC
  0
SECTION
  2
CLASSES
  0
CLASS
  1
ACDBDICTIONARYWDFLT
  2
AcDbDictionaryWithDefault
  3
AutoCAD 2000
 90
0
280
0
281
0
  0
CLASS
  1
ACDBPLACEHOLDER
  2
AcDbPlaceHolder
  3
AutoCAD 2000
 90
0
280
0
281
0
  0
CLASS
  1
LAYOUT
  2
AcDbLayout
  3
AutoCAD 2000
 90
0
280
0
281
0
  0
ENDSEC
  0
SECTION
  2
TABLES
  0
TABLE
  2
VPORT
  5
8
100
AcDbSymbolTable
 70
2
  0
VPORT
  5
1F4
100
AcDbSymbolTableRecord
100
AcDbViewportTableRecord
  2
*ACTIVE
 70
0
 10
0.0
 20
0.0
 11
1.0
 21
1.0
 12
148.5
 22
105.0
 13
0.0
 23
0.0
 14
1.0
 24
1.0
 15
0.0
 25
0.0
 16
0.0
 26
0.0
 36
1.0
 17
0.0
 27
0.0
 37
0.0
 40
210.0
 41
1.4142857143
 42
50.0
 43
0.0
 44
0.0
 50
0.0
 51
0.0
 71
0
 72
100
 73
1
 74
1
 75
0
 76
0
 77
0
 78
0
  0
ENDTAB
  0
TABLE
  2
LTYPE
  5
5
100
AcDbSymbolTable
 70
6
  0
LTYPE
  5
14
100
AcDbSymbolTableRecord
100
AcDbLinetypeTableRecord
  2
BYBLOCK
 70
0
  3

 72
65
 73
0
 40
0.0
  0
LTYPE
  5
15
100
AcDbSymbolTableRecord
100
AcDbLinetypeTableRecord
  2
BYLAYER
 70
0
  3

 72
65
 73
0
 40
0.0
  0
LTYPE
  5
16
100
AcDbSymbolTableRecord
100
AcDbLinetypeTableRecord
  2
CONTINUOUS
 70
64
  3
Solid line
 72
65
 73
0
 40
0.0
  0
LTYPE
  5
1F5
100
AcDbSymbolTableRecord
100
AcDbLinetypeTableRecord
  2
CENTER
 70
64
  3
____ _ ____ _ ____ _ ____ _ ____ _ ____ _ ____
 72
65
 73
4
 40
0.6
 49
0.375
 74
0
 49
-0.075
 74
0
 49
0.075
 74
0
 49
-0.075
 74
0
  0
LTYPE
  5
1F6
100
AcDbSymbolTableRecord
100
AcDbLinetypeTableRecord
  2
HIDDEN
 70
64
  3
- - - - - - - - - - - - - - - - - - - -
 72
65
 73
2
 40
0.2
 49
0.1
 74
0
 49
-0.1
 74
0
  0
LTYPE
  5
1F7
100
AcDbSymbolTableRecord
100
AcDbLinetypeTableRecord
  2
PHANTOM
 70
64
  3
_____ _ _ _____ _ _ _____ _ _ _____
 72
65
 73
6
 40
0.8
 49
0.45
 74
0
 49
-0.05
 74
0
 49
0.1
 74
0
 49
-0.05
 74
0
 49
0.1
 74
0
 49
-0.05
 74
0
  0
LTYPE
  5
1F8
100
AcDbSymbolTableRecord
100
AcDbLinetypeTableRecord
  2
DOT
 70
64
  3
. . . . . . . . . . . . . . . . . . . .
 72
65
 73
2
 40
0.2
 49
0.1
 74
0
 49
-0.1
 74
0
  0
LTYPE
  5
1F9
100
AcDbSymbolTableRecord
100
AcDbLinetypeTableRecord
  2
DASHED
 70
64
  3
- - - - - - - - - - - - - - - - - - - -
 72
65
 73
2
 40
0.2
 49
0.1
 74
0
 49
-0.1
 74
0
  0
ENDTAB
  0
TABLE
  2
LAYER
  5
2
100
AcDbSymbolTable
 70
36
  0
LAYER
  5
10
100
AcDbSymbolTableRecord
100
AcDbLayerTableRecord
  2
0
 70
0
 62
7
  6
CONTINUOUS
370
-3
390
F
  0
LAYER
  5
1FA
100
AcDbSymbolTableRecord
100
AcDbLayerTableRecord
  2
DEFAULT_1
 70
0
 62
7
  6
CENTER
370
-3
390
F
  0
LAYER
  5
1FB
100
AcDbSymbolTableRecord
100
AcDbLayerTableRecord
  2
DEFAULT_2
 70
0
 62
7
  6
HIDDEN
370
-3
390
F
  0
LAYER
  5
1FC
100
AcDbSymbolTableRecord
100
AcDbLayerTableRecord
  2
DEFAULT_3
 70
0
 62
7
  6
PHANTOM
370
-3
390
F
  0
LAYER
  5
1FD
100
AcDbSymbolTableRecord
100
AcDbLayerTableRecord
  2
320200000
 70
0
 62
7
  6
CONTINUOUS
370
-3
390
F
  0
LAYER
  5
1FE
100
AcDbSymbolTableRecord
100
AcDbLayerTableRecord
  2
361200000
 70
0
 62
7
  6
CONTINUOUS
370
-3
390
F
  0
LAYER
  5
1FF
100
AcDbSymbolTableRecord
100
AcDbLayerTableRecord
  2
ASSI
 70
0
 62
7
  6
CONTINUOUS
370
-3
390
F
  0
LAYER
  5
200
100
AcDbSymbolTableRecord
100
AcDbLayerTableRecord
  2
COLOR5
 70
0
 62
7
  6
CONTINUOUS
370
-3
390
F
  0
LAYER
  5
201
100
AcDbSymbolTableRecord
100
AcDbLayerTableRecord
  2
COLOR7
 70
0
 62
7
  6
CONTINUOUS
370
-3
390
F
  0
LAYER
  5
202
100
AcDbSymbolTableRecord
100
AcDbLayerTableRecord
  2
COORDINATE
 70
0
 62
7
  6
CONTINUOUS
370
-3
390
F
  0
LAYER
  5
203
100
AcDbSymbolTableRecord
100
AcDbLayerTableRecord
  2
COORD_ORIGINE
 70
0
 62
7
  6
CONTINUOUS
370
-3
390
F
  0
LAYER
  5
204
100
AcDbSymbolTableRecord
100
AcDbLayerTableRecord
  2
COPY_PUBLISH
 70
0
 62
7
  6
CONTINUOUS
370
-3
390
F
  0
LAYER
  5
205
100
AcDbSymbolTableRecord
100
AcDbLayerTableRecord
  2
COSMETIC
 70
0
 62
7
  6
CONTINUOUS
370
-3
390
F
  0
LAYER
  5
206
100
AcDbSymbolTableRecord
100
AcDbLayerTableRecord
  2
COSMETICI
 70
0
 62
7
  6
CONTINUOUS
370
-3
390
F
  0
LAYER
  5
207
100
AcDbSymbolTableRecord
100
AcDbLayerTableRecord
  2
CURVE
 70
0
 62
7
  6
CONTINUOUS
370
-3
390
F
  0
LAYER
  5
208
100
AcDbSymbolTableRecord
100
AcDbLayerTableRecord
  2
DRAFT
 70
0
 62
7
  6
CONTINUOUS
370
-3
390
F
  0
LAYER
  5
209
100
AcDbSymbolTableRecord
100
AcDbLayerTableRecord
  2
GUSCI_ESTERNI
 70
0
 62
7
  6
CONTINUOUS
370
-3
390
F
  0
LAYER
  5
20A
100
AcDbSymbolTableRecord
100
AcDbLayerTableRecord
  2
IMPORT_FEATURES
 70
0
 62
7
  6
CONTINUOUS
370
-3
390
F
  0
LAYER
  5
20B
100
AcDbSymbolTableRecord
100
AcDbLayerTableRecord
  2
IMPORT_IGES
 70
0
 62
7
  6
CONTINUOUS
370
-3
390
F
  0
LAYER
  5
20C
100
AcDbSymbolTableRecord
100
AcDbLayerTableRecord
  2
INTFCLR_1
 70
0
 62
7
  6
CONTINUOUS
370
-3
390
F
  0
LAYER
  5
20D
100
AcDbSymbolTableRecord
100
AcDbLayerTableRecord
  2
INTFCLR_3
 70
0
 62
7
  6
CONTINUOUS
370
-3
390
F
  0
LAYER
  5
20E
100
AcDbSymbolTableRecord
100
AcDbLayerTableRecord
  2
INTFCLR_5
 70
0
 62
7
  6
CONTINUOUS
370
-3
390
F
  0
LAYER
  5
20F
100
AcDbSymbolTableRecord
100
AcDbLayerTableRecord
  2
INTFCLR_8571
 70
0
 62
7
  6
CONTINUOUS
370
-3
390
F
  0
LAYER
  5
210
100
AcDbSymbolTableRecord
100
AcDbLayerTableRecord
  2
INTF_1
 70
0
 62
7
  6
CONTINUOUS
370
-3
390
F
  0
LAYER
  5
211
100
AcDbSymbolTableRecord
100
AcDbLayerTableRecord
  2
INTF_15
 70
0
 62
7
  6
CONTINUOUS
370
-3
390
F
  0
LAYER
  5
212
100
AcDbSymbolTableRecord
100
AcDbLayerTableRecord
  2
INTF_16
 70
0
 62
7
  6
CONTINUOUS
370
-3
390
F
  0
LAYER
  5
213
100
AcDbSymbolTableRecord
100
AcDbLayerTableRecord
  2
INTF_2
 70
0
 62
7
  6
CONTINUOUS
370
-3
390
F
  0
LAYER
  5
214
100
AcDbSymbolTableRecord
100
AcDbLayerTableRecord
  2
INTF_4
 70
0
 62
7
  6
CONTINUOUS
370
-3
390
F
  0
LAYER
  5
215
100
AcDbSymbolTableRecord
100
AcDbLayerTableRecord
  2
INTF_6
 70
0
 62
7
  6
CONTINUOUS
370
-3
390
F
  0
LAYER
  5
216
100
AcDbSymbolTableRecord
100
AcDbLayerTableRecord
  2
INTF_8
 70
0
 62
7
  6
CONTINUOUS
370
-3
390
F
  0
LAYER
  5
217
100
AcDbSymbolTableRecord
100
AcDbLayerTableRecord
  2
INTF_YELLOW
 70
0
 62
7
  6
CONTINUOUS
370
-3
390
F
  0
LAYER
  5
218
100
AcDbSymbolTableRecord
100
AcDbLayerTableRecord
  2
NOTE
 70
0
 62
7
  6
CONTINUOUS
370
-3
390
F
  0
LAYER
  5
219
100
AcDbSymbolTableRecord
100
AcDbLayerTableRecord
  2
PIANI
 70
0
 62
7
  6
CONTINUOUS
370
-3
390
F
  0
LAYER
  5
21A
100
AcDbSymbolTableRecord
100
AcDbLayerTableRecord
  2
PIANI_ORIGINE
 70
0
 62
7
  6
CONTINUOUS
370
-3
390
F
  0
LAYER
  5
21B
100
AcDbSymbolTableRecord
100
AcDbLayerTableRecord
  2
PRECARICO_MOLLA
 70
0
 62
7
  6
CONTINUOUS
370
-3
390
F
  0
LAYER
  5
21C
100
AcDbSymbolTableRecord
100
AcDbLayerTableRecord
  2
PUNTI
 70
0
 62
7
  6
CONTINUOUS
370
-3
390
F
  0
LAYER
  5
21D
100
AcDbSymbolTableRecord
100
AcDbLayerTableRecord
  2
RACCORDO
 70
0
 62
7
  6
CONTINUOUS
370
-3
390
F
  0
LAYER
  5
21E
100
AcDbSymbolTableRecord
100
AcDbLayerTableRecord
  2
RGB____0____0____0__
 70
0
 62
7
  6
CONTINUOUS
370
-3
390
F
  0
LAYER
  5
21F
100
AcDbSymbolTableRecord
100
AcDbLayerTableRecord
  2
SIMBOLI
 70
0
 62
7
  6
CONTINUOUS
370
-3
390
F
  0
LAYER
  5
220
100
AcDbSymbolTableRecord
100
AcDbLayerTableRecord
  2
SMUSSO
 70
0
 62
7
  6
CONTINUOUS
370
-3
390
F
  0
LAYER
  5
221
100
AcDbSymbolTableRecord
100
AcDbLayerTableRecord
  2
SNAPLINE
 70
0
 62
7
  6
CONTINUOUS
370
-3
390
F
  0
LAYER
  5
222
100
AcDbSymbolTableRecord
100
AcDbLayerTableRecord
  2
SUPERFICI
 70
0
 62
7
  6
CONTINUOUS
370
-3
390
F
  0
LAYER
  5
223
100
AcDbSymbolTableRecord
100
AcDbLayerTableRecord
  2
SUPERFICI_SKEL
 70
0
 62
7
  6
CONTINUOUS
370
-3
390
F
  0
LAYER
  5
224
100
AcDbSymbolTableRecord
100
AcDbLayerTableRecord
  2
TRASH
 70
0
 62
7
  6
CONTINUOUS
370
-3
390
F
  0
LAYER
  5
225
100
AcDbSymbolTableRecord
100
AcDbLayerTableRecord
  2
TRECCIE
 70
0
 62
7
  6
CONTINUOUS
370
-3
390
F
  0
LAYER
  5
226
100
AcDbSymbolTableRecord
100
AcDbLayerTableRecord
  2
VARIE
 70
0
 62
7
  6
CONTINUOUS
370
-3
390
F
  0
LAYER
  5
227
100
AcDbSymbolTableRecord
100
AcDbLayerTableRecord
  2
XSEC_DATUMS
 70
0
 62
7
  6
CONTINUOUS
370
-3
390
F
  0
LAYER
  5
228
100
AcDbSymbolTableRecord
100
AcDbLayerTableRecord
  2
___SHELL
 70
0
 62
7
  6
CONTINUOUS
370
-3
390
F
  0
ENDTAB
  0
TABLE
  2
STYLE
  5
3
100
AcDbSymbolTable
 70
1
  0
STYLE
  5
11
100
AcDbSymbolTableRecord
100
AcDbTextStyleTableRecord
  2
STANDARD
 70
0
 40
0.0
 41
0.8
 50
0.0
 71
0
 42
0.2
  3
txt
  4

  0
STYLE
  5
229
100
AcDbSymbolTableRecord
100
AcDbTextStyleTableRecord
  2
TEXTSTYLE_1
 70
0
 40
0.0
 41
0.8
 50
0.0
 71
0
 42
0.2
  3
gdt
  4

  0
ENDTAB
  0
TABLE
  2
VIEW
  5
6
100
AcDbSymbolTable
 70
0
  0
ENDTAB
  0
TABLE
  2
UCS
  5
7
100
AcDbSymbolTable
 70
0
  0
ENDTAB
  0
TABLE
  2
APPID
  5
9
100
AcDbSymbolTable
 70
1
  0
APPID
  5
22A
100
AcDbSymbolTableRecord
100
AcDbRegAppTableRecord
  2
ACAD
 70
0
  0
ENDTAB
  0
TABLE
  2
BLOCK_RECORD
  5
1
100
AcDbSymbolTable
 70
0
  0
BLOCK_RECORD
  5
22B
100
AcDbSymbolTableRecord
100
AcDbBlockTableRecord
  2
*Model_Space
  0
BLOCK_RECORD
  5
22C
100
AcDbSymbolTableRecord
100
AcDbBlockTableRecord
  2
*Paper_Space
  0
ENDTAB
  0
TABLE
  2
DIMSTYLE
  5
A
100
AcDbSymbolTable
 70
1
100
AcDbDimStyleTable
 71
0
  0
DIMSTYLE
105
22D
100
AcDbSymbolTableRecord
100
AcDbDimStyleTableRecord
  2
STANDARD
 70
0
  3

  4

 40
1.0
 41
3.0
 42
0.0625
 43
0.38
 44
0.18
 45
0.0
 46
0.0
 47
0.01
 48
0.01
140
3.0
141
0.09
142
0.0
143
25.4
144
1.0
145
0.0
146
1.0
147
0.09
 71
1.0
 72
0.0
 73
0
 74
0
 75
0
 76
0
 77
1
 78
8
170
0
171
2
172
0
173
0
174
0
175
0
176
0
177
0
178
0
270
2
271
2
272
2
273
2
274
2
275
0
280
0
281
0
282
0
283
1
284
8
285
0
286
0
287
3
288
0
340
11
  0
ENDTAB
  0
ENDSEC
  0
SECTION
  2
BLOCKS
  0
BLOCK
  5
20
100
AcDbEntity
  8
0
100
AcDbBlockBegin
  2
*Model_Space
 70
0
 10
0.0
 20
0.0
 30
0.0
  3
*Model_Space
  1

  0
ENDBLK
  5
21
100
AcDbEntity
  8
0
100
AcDbBlockEnd
  0
BLOCK
  5
1C
100
AcDbEntity
  8
0
100
AcDbBlockBegin
  2
*Paper_Space
 70
0
 10
0.0
 20
0.0
 30
0.0
  3
*Paper_Space
  1

  0
ENDBLK
  5
1D
100
AcDbEntity
  8
0
100
AcDbBlockEnd
  0
ENDSEC
  0
SECTION
  2
ENTITIES
  0
LINE
  5
22E
100
AcDbEntity
  8
0
100
AcDbLine
 62
7
  6
CONTINUOUS
 10
-10.400030461
 20
-24.5
 11
-7.399969539
 21
-24.5
  0
LINE
  5
22F
100
AcDbEntity
  8
ASSI
100
AcDbLine
 62
7
  6
CONTINUOUS
 10
-10.400030461
 20
-24.5
 11
-7.399969539
 21
-24.5
  0
LINE
  5
230
100
AcDbEntity
  8
0
100
AcDbLine
 62
7
  6
CONTINUOUS
 10
7.399969539
 20
-24.5
 11
10.400030461
 21
-24.5
  0
LINE
  5
231
100
AcDbEntity
  8
ASSI
100
AcDbLine
 62
7
  6
CONTINUOUS
 10
7.399969539
 20
-24.5
 11
10.400030461
 21
-24.5
  0
LINE
  5
232
100
AcDbEntity
  8
0
100
AcDbLine
 62
253
  6
CONTINUOUS
 10
10.3868630041
 20
-24.4868325431
 11
7.4131369959
 21
-24.4868325431
  0
LINE
  5
233
100
AcDbEntity
  8
ASSI
100
AcDbLine
 62
253
  6
CONTINUOUS
 10
10.3868630041
 20
-24.4868325431
 11
7.4131369959
 21
-24.4868325431
  0
LINE
  5
234
100
AcDbEntity
  8
0
100
AcDbLine
 62
253
  6
CONTINUOUS
 10
-7.4131370461
 20
-24.486832493
 11
-10.3868630041
 21
-24.4868325431
  0
LINE
  5
235
100
AcDbEntity
  8
ASSI
100
AcDbLine
 62
253
  6
CONTINUOUS
 10
-7.4131370461
 20
-24.486832493
 11
-10.3868630041
 21
-24.4868325431
  0
LINE
  5
236
100
AcDbEntity
  8
0
100
AcDbLine
 62
253
  6
CONTINUOUS
 10
10.5859750215
 20
-24.2368706193
 11
7.2140249785
 21
-24.2368706193
  0
LINE
  5
237
100
AcDbEntity
  8
ASSI
100
AcDbLine
 62
253
  6
CONTINUOUS
 10
10.5859750215
 20
-24.2368706193
 11
7.2140249785
 21
-24.2368706193
  0
LINE
  5
238
100
AcDbEntity
  8
0
100
AcDbLine
 62
253
  6
CONTINUOUS
 10
-7.2140249785
 20
-24.2368706193
 11
-10.5859750215
 21
-24.2368706193
  0
LINE
  5
239
100
AcDbEntity
  8
ASSI
100
AcDbLine
 62
253
  6
CONTINUOUS
 10
-7.2140249785
 20
-24.2368706193
 11
-10.5859750215
 21
-24.2368706193
  0
LINE
  5
23A
100
AcDbEntity
  8
0
100
AcDbLine
 62
7
  6
CONTINUOUS
 10
-4.2000380762
 20
-24.0
 11
-1.0499619238
 21
-24.0
  0
LINE
  5
23B
100
AcDbEntity
  8
ASSI
100
AcDbLine
 62
7
  6
CONTINUOUS
 10
-4.2000380762
 20
-24.0
 11
-1.0499619238
 21
-24.0
  0
LINE
  5
23C
100
AcDbEntity
  8
0
100
AcDbLine
 62
7
  6
CONTINUOUS
 10
1.0499619238
 20
-24.0
 11
4.2000380762
 21
-24.0
  0
LINE
  5
23D
100
AcDbEntity
  8
ASSI
100
AcDbLine
 62
7
  6
CONTINUOUS
 10
1.0499619238
 20
-24.0
 11
4.2000380762
 21
-24.0
  0
LINE
  5
23E
100
AcDbEntity
  8
0
100
AcDbLine
 62
7
  6
CONTINUOUS
 10
3.7499619238
 20
-23.9825449351
 11
1.0674169887
 21
-23.9825449351
  0
LINE
  5
23F
100
AcDbEntity
  8
ASSI
100
AcDbLine
 62
7
  6
CONTINUOUS
 10
3.7499619238
 20
-23.9825449351
 11
1.0674169887
 21
-23.9825449351
  0
LINE
  5
240
100
AcDbEntity
  8
0
100
AcDbLine
 62
7
  6
CONTINUOUS
 10
-1.0674169887
 20
-23.9825449351
 11
-3.7499619238
 21
-23.9825449351
  0
LINE
  5
241
100
AcDbEntity
  8
ASSI
100
AcDbLine
 62
7
  6
CONTINUOUS
 10
-1.0674169887
 20
-23.9825449351
 11
-3.7499619238
 21
-23.9825449351
  0
LINE
  5
242
100
AcDbEntity
  8
0
100
AcDbLine
 62
253
  6
CONTINUOUS
 10
10.3860054824
 20
-23.8442507367
 11
9.0368706193
 21
-23.8443375673
  0
LINE
  5
243
100
AcDbEntity
  8
ASSI
100
AcDbLine
 62
253
  6
CONTINUOUS
 10
10.3860054824
 20
-23.8442507367
 11
9.0368706193
 21
-23.8443375673
  0
LINE
  5
244
100
AcDbEntity
  8
0
100
AcDbLine
 62
253
  6
CONTINUOUS
 10
10.5859750215
 20
-23.8443375673
 11
10.3860054824
 21
-23.8443375673
  0
LINE
  5
245
100
AcDbEntity
  8
ASSI
100
AcDbLine
 62
253
  6
CONTINUOUS
 10
10.5859750215
 20
-23.8443375673
 11
10.3860054824
 21
-23.8443375673
  0
LINE
  5
246
100
AcDbEntity
  8
0
100
AcDbLine
 62
253
  6
CONTINUOUS
 10
-7.2140249785
 20
-23.8443375673
 11
-8.7631293807
 21
-23.8443375673
  0
LINE
  5
247
100
AcDbEntity
  8
ASSI
100
AcDbLine
 62
253
  6
CONTINUOUS
 10
-7.2140249785
 20
-23.8443375673
 11
-8.7631293807
 21
-23.8443375673
  0
LINE
  5
248
100
AcDbEntity
  8
0
100
AcDbLine
 62
253
  6
CONTINUOUS
 10
8.7631293807
 20
-23.8443375673
 11
7.2140249785
 21
-23.8443375673
  0
LINE
  5
249
100
AcDbEntity
  8
ASSI
100
AcDbLine
 62
253
  6
CONTINUOUS
 10
8.7631293807
 20
-23.8443375673
 11
7.2140249785
 21
-23.8443375673
  0
LINE
  5
24A
100
AcDbEntity
  8
0
100
AcDbLine
 62
253
  6
CONTINUOUS
 10
10.3864421555
 20
-23.6278214108
 11
9.2533769702
 21
-23.6278312163
  0
LINE
  5
24B
100
AcDbEntity
  8
ASSI
100
AcDbLine
 62
253
  6
CONTINUOUS
 10
10.3864421555
 20
-23.6278214108
 11
9.2533769702
 21
-23.6278312163
  0
LINE
  5
24C
100
AcDbEntity
  8
0
100
AcDbLine
 62
253
  6
CONTINUOUS
 10
-9.2533769702
 20
-23.6278312163
 11
-10.3864421556
 21
-23.6278214068
  0
LINE
  5
24D
100
AcDbEntity
  8
ASSI
100
AcDbLine
 62
253
  6
CONTINUOUS
 10
-9.2533769702
 20
-23.6278312163
 11
-10.3864421556
 21
-23.6278214068
  0
LINE
  5
24E
100
AcDbEntity
  8
0
100
AcDbLine
 62
253
  6
CONTINUOUS
 10
8.5466230298
 20
-23.6278312163
 11
7.4135581409
 21
-23.6278312163
  0
LINE
  5
24F
100
AcDbEntity
  8
ASSI
100
AcDbLine
 62
253
  6
CONTINUOUS
 10
8.5466230298
 20
-23.6278312163
 11
7.4135581409
 21
-23.6278312163
  0
LINE
  5
250
100
AcDbEntity
  8
0
100
AcDbLine
 62
253
  6
CONTINUOUS
 10
-7.4135581409
 20
-23.6278312163
 11
-8.5466230298
 21
-23.6278312163
  0
LINE
  5
251
100
AcDbEntity
  8
ASSI
100
AcDbLine
 62
253
  6
CONTINUOUS
 10
-7.4135581409
 20
-23.6278312163
 11
-8.5466230298
 21
-23.6278312163
  0
LINE
  5
252
100
AcDbEntity
  8
0
100
AcDbLine
 62
7
  6
CONTINUOUS
 10
-10.4017150409
 20
-23.1226497308
 11
-9.3
 21
-23.1226497308
  0
LINE
  5
253
100
AcDbEntity
  8
ASSI
100
AcDbLine
 62
7
  6
CONTINUOUS
 10
-10.4017150409
 20
-23.1226497308
 11
-9.3
 21
-23.1226497308
  0
LINE
  5
254
100
AcDbEntity
  8
0
100
AcDbLine
 62
7
  6
CONTINUOUS
 10
-8.5
 20
-23.1226497308
 11
-7.3982849591
 21
-23.1226497308
  0
LINE
  5
255
100
AcDbEntity
  8
ASSI
100
AcDbLine
 62
7
  6
CONTINUOUS
 10
-8.5
 20
-23.1226497308
 11
-7.3982849591
 21
-23.1226497308
  0
LINE
  5
256
100
AcDbEntity
  8
0
100
AcDbLine
 62
7
  6
CONTINUOUS
 10
7.3982849591
 20
-23.1226497308
 11
8.5
 21
-23.1226497308
  0
LINE
  5
257
100
AcDbEntity
  8
ASSI
100
AcDbLine
 62
7
  6
CONTINUOUS
 10
7.3982849591
 20
-23.1226497308
 11
8.5
 21
-23.1226497308
  0
LINE
  5
258
100
AcDbEntity
  8
0
100
AcDbLine
 62
7
  6
CONTINUOUS
 10
9.3
 20
-23.1226497308
 11
10.4017150409
 21
-23.1226497308
  0
LINE
  5
259
100
AcDbEntity
  8
ASSI
100
AcDbLine
 62
7
  6
CONTINUOUS
 10
9.3
 20
-23.1226497308
 11
10.4017150409
 21
-23.1226497308
  0
LINE
  5
25A
100
AcDbEntity
  8
0
100
AcDbLine
 62
253
  6
CONTINUOUS
 10
-9.0368706193
 20
-23.8443375673
 11
-10.5859750215
 21
-23.8443375673
  0
LINE
  5
25B
100
AcDbEntity
  8
ASSI
100
AcDbLine
 62
253
  6
CONTINUOUS
 10
-9.0368706193
 20
-23.8443375673
 11
-10.5859750215
 21
-23.8443375673
  0
LINE
  5
25C
100
AcDbEntity
  8
0
100
AcDbLine
 62
253
  6
CONTINUOUS
 10
-7.4131369959
 20
24.4868325431
 11
-7.399969539
 21
24.5
  0
LINE
  5
25D
100
AcDbEntity
  8
ASSI
100
AcDbLine
 62
253
  6
CONTINUOUS
 10
-7.4131369959
 20
24.4868325431
 11
-7.399969539
 21
24.5
  0
LINE
  5
25E
100
AcDbEntity
  8
0
100
AcDbLine
 62
253
  6
CONTINUOUS
 10
-7.2131674569
 20
24.2868630041
 11
-7.2
 21
24.300030461
  0
LINE
  5
25F
100
AcDbEntity
  8
ASSI
100
AcDbLine
 62
253
  6
CONTINUOUS
 10
-7.2131674569
 20
24.2868630041
 11
-7.2
 21
24.300030461
  0
LINE
  5
260
100
AcDbEntity
  8
0
100
AcDbLine
 62
7
  6
CONTINUOUS
 10
-8.5
 20
22.4
 11
-8.5131674569
 21
22.3868325431
  0
LINE
  5
261
100
AcDbEntity
  8
ASSI
100
AcDbLine
 62
7
  6
CONTINUOUS
 10
-8.5
 20
22.4
 11
-8.5131674569
 21
22.3868325431
  0
LINE
  5
262
100
AcDbEntity
  8
GUSCI_ESTERNI
100
AcDbLine
 62
7
  6
CONTINUOUS
 10
-10.85
 20
19.1
 11
-8.3755307198
 21
21.5744692802
  0
LINE
  5
263
100
AcDbEntity
  8
ASSI
100
AcDbLine
 62
7
  6
CONTINUOUS
 10
-10.85
 20
19.1
 11
-8.3755307198
 21
21.5744692802
  0
LINE
  5
264
100
AcDbEntity
  8
DRAFT
100
AcDbLine
 62
7
  6
CONTINUOUS
 10
-11.0825449351
 20
18.5551134101
 11
-10.85
 21
18.7876583452
  0
LINE
  5
265
100
AcDbEntity
  8
ASSI
100
AcDbLine
 62
7
  6
CONTINUOUS
 10
-11.0825449351
 20
18.5551134101
 11
-10.85
 21
18.7876583452
  0
LINE
  5
266
100
AcDbEntity
  8
DRAFT
100
AcDbLine
 62
7
  6
CONTINUOUS
 10
-8.0604393039
 20
21.5772190413
 11
-7.2551134101
 21
22.3825449351
  0
LINE
  5
267
100
AcDbEntity
  8
ASSI
100
AcDbLine
 62
7
  6
CONTINUOUS
 10
-8.0604393039
 20
21.5772190413
 11
-7.2551134101
 21
22.3825449351
  0
LINE
  5
268
100
AcDbEntity
  8
DRAFT
100
AcDbLine
 62
7
  6
CONTINUOUS
 10
-10.85
 20
18.7592725392
 11
-11.0423982857
 21
18.5668742535
  0
LINE
  5
269
100
AcDbEntity
  8
ASSI
100
AcDbLine
 62
7
  6
CONTINUOUS
 10
-10.85
 20
18.7592725392
 11
-11.0423982857
 21
18.5668742535
  0
LINE
  5
26A
100
AcDbEntity
  8
DRAFT
100
AcDbLine
 62
7
  6
CONTINUOUS
 10
-11.0423982857
 20
18.5668742535
 11
-11.0825449351
 21
18.5551134101
  0
LINE
  5
26B
100
AcDbEntity
  8
ASSI
100
AcDbLine
 62
7
  6
CONTINUOUS
 10
-11.0423982857
 20
18.5668742535
 11
-11.0825449351
 21
18.5551134101
  0
LINE
  5
26C
100
AcDbEntity
  8
0
100
AcDbLine
 62
7
  6
CONTINUOUS
 10
0.8
 20
-22.4
 11
0.8174550649
 21
-22.398254669
  0
LINE
  5
26D
100
AcDbEntity
  8
ASSI
100
AcDbLine
 62
7
  6
CONTINUOUS
 10
0.8
 20
-22.4
 11
0.8174550649
 21
-22.398254669
  0
LINE
  5
26E
100
AcDbEntity
  8
GUSCI_ESTERNI
100
AcDbLine
 62
7
  6
CONTINUOUS
 10
5.45
 20
-21.5
 11
8.3755307198
 21
-21.4744692802
  0
LINE
  5
26F
100
AcDbEntity
  8
0
100
AcDbLine
 62
7
  6
CONTINUOUS
 10
-10.6
 20
-22.3999999999
 11
-9.3
 21
-22.4
  0
LINE
  5
270
100
AcDbEntity
  8
ASSI
100
AcDbLine
 62
7
  6
CONTINUOUS
 10
-10.6
 20
-22.3999999999
 11
-9.3
 21
-22.4
  0
LINE
  5
271
100
AcDbEntity
  8
0
100
AcDbLine
 62
7
  6
CONTINUOUS
 10
-8.5
 20
-22.4
 11
-4.45
 21
-22.4
  0
LINE
  5
272
100
AcDbEntity
  8
ASSI
100
AcDbLine
 62
7
  6
CONTINUOUS
 10
-8.5
 20
-22.4
 11
-4.45
 21
-22.4
  0
LINE
  5
273
100
AcDbEntity
  8
0
100
AcDbLine
 62
7
  6
CONTINUOUS
 10
4.45
 20
-22.4
 11
8.5
 21
-22.4
  0
LINE
  5
274
100
AcDbEntity
  8
ASSI
100
AcDbLine
 62
7
  6
CONTINUOUS
 10
4.45
 20
-22.4
 11
8.5
 21
-22.4
  0
LINE
  5
275
100
AcDbEntity
  8
0
100
AcDbLine
 62
7
  6
CONTINUOUS
 10
9.3
 20
-22.4
 11
10.6000000646
 21
-22.3999999354
  0
LINE
  5
276
100
AcDbEntity
  8
ASSI
100
AcDbLine
 62
7
  6
CONTINUOUS
 10
9.3
 20
-22.4
 11
10.6000000646
 21
-22.3999999354
  0
LINE
  5
277
100
AcDbEntity
  8
0
100
AcDbLine
 62
7
  6
CONTINUOUS
 10
-0.8174550649
 20
-22.398254669
 11
0.8174550649
 21
-22.398254669
  0
LINE
  5
278
100
AcDbEntity
  8
ASSI
100
AcDbLine
 62
7
  6
CONTINUOUS
 10
-0.8174550649
 20
-22.398254669
 11
0.8174550649
 21
-22.398254669
  0
LINE
  5
279
100
AcDbEntity
  8
0
100
AcDbLine
 62
7
  6
CONTINUOUS
 10
-10.5826210875
 20
-22.3825449351
 11
-9.0368706193
 21
-22.3825449351
  0
LINE
  5
27A
100
AcDbEntity
  8
ASSI
100
AcDbLine
 62
7
  6
CONTINUOUS
 10
-10.5826210875
 20
-22.3825449351
 11
-9.0368706193
 21
-22.3825449351
  0
LINE
  5
27B
100
AcDbEntity
  8
0
100
AcDbLine
 62
7
  6
CONTINUOUS
 10
-8.7631293807
 20
-22.3825449351
 11
-7.2551134101
 21
-22.3825449351
  0
LINE
  5
27C
100
AcDbEntity
  8
ASSI
100
AcDbLine
 62
7
  6
CONTINUOUS
 10
-8.7631293807
 20
-22.3825449351
 11
-7.2551134101
 21
-22.3825449351
  0
LINE
  5
27D
100
AcDbEntity
  8
ASSI
100
AcDbLine
 62
7
  6
CONTINUOUS
 10
3.5
 20
-22.3825449351
 11
-3.5
 21
-22.3825449351
  0
LINE
  5
27E
100
AcDbEntity
  8
0
100
AcDbLine
 62
7
  6
CONTINUOUS
 10
7.2551134101
 20
-22.3825449351
 11
8.7631293807
 21
-22.3825449351
  0
LINE
  5
27F
100
AcDbEntity
  8
ASSI
100
AcDbLine
 62
7
  6
CONTINUOUS
 10
7.2551134101
 20
-22.3825449351
 11
8.7631293807
 21
-22.3825449351
  0
LINE
  5
280
100
AcDbEntity
  8
0
100
AcDbLine
 62
7
  6
CONTINUOUS
 10
9.0368706193
 20
-22.3825449351
 11
10.5826210875
 21
-22.3825449351
  0
LINE
  5
281
100
AcDbEntity
  8
ASSI
100
AcDbLine
 62
7
  6
CONTINUOUS
 10
9.0368706193
 20
-22.3825449351
 11
10.5826210875
 21
-22.3825449351
  0
LINE
  5
282
100
AcDbEntity
  8
ASSI
100
AcDbLine
 62
253
  6
CONTINUOUS
 10
7.3012233427
 20
-22.2251447178
 11
-7.3012233427
 21
-22.2251447178
  0
LINE
  5
283
100
AcDbEntity
  8
DRAFT
100
AcDbLine
 62
7
  6
CONTINUOUS
 10
-5.45
 20
-21.7587268678
 11
5.45
 21
-21.7587268678
  0
LINE
  5
284
100
AcDbEntity
  8
RACCORDO
100
AcDbLine
 62
253
  6
CONTINUOUS
 10
-5.45
 20
-21.7586507125
 11
-0.0086507125
 21
-21.7586507125
  0
LINE
  5
285
100
AcDbEntity
  8
RACCORDO
100
AcDbLine
 62
253
  6
CONTINUOUS
 10
1.2086507125
 20
-21.7586507125
 11
5.45
 21
-21.7586507125
  0
LINE
  5
286
100
AcDbEntity
  8
RACCORDO
100
AcDbLine
 62
253
  6
CONTINUOUS
 10
-0.0042111233
 20
-21.7542111233
 11
1.2042111233
 21
-21.7542111233
  0
LINE
  5
287
100
AcDbEntity
  8
GUSCI_ESTERNI
100
AcDbLine
 62
7
  6
CONTINUOUS
 10
-5.45
 20
-21.6
 11
-8.3755307198
 21
-21.5744692802
  0
LINE
  5
288
100
AcDbEntity
  8
ASSI
100
AcDbLine
 62
7
  6
CONTINUOUS
 10
-5.45
 20
-21.6
 11
-8.3755307198
 21
-21.5744692802
  0
LINE
  5
289
100
AcDbEntity
  8
ASSI
100
AcDbLine
 62
7
  6
CONTINUOUS
 10
-0.8
 20
-22.4
 11
-0.8174550649
 21
-22.398254669
  0
LINE
  5
28A
100
AcDbEntity
  8
DRAFT
100
AcDbLine
 62
7
  6
CONTINUOUS
 10
-11.0423982857
 20
-18.5668742535
 11
-11.0825449351
 21
-18.5551134101
  0
LINE
  5
28B
100
AcDbEntity
  8
ASSI
100
AcDbLine
 62
7
  6
CONTINUOUS
 10
-11.0423982857
 20
-18.5668742535
 11
-11.0825449351
 21
-18.5551134101
  0
LINE
  5
28C
100
AcDbEntity
  8
0
100
AcDbLine
 62
253
  6
CONTINUOUS
 10
-7.399969539
 20
-24.5
 11
-7.4131370461
 21
-24.486832493
  0
LINE
  5
28D
100
AcDbEntity
  8
ASSI
100
AcDbLine
 62
253
  6
CONTINUOUS
 10
-7.399969539
 20
-24.5
 11
-7.4131370461
 21
-24.486832493
  0
LINE
  5
28E
100
AcDbEntity
  8
0
100
AcDbLine
 62
253
  6
CONTINUOUS
 10
-7.2
 20
-24.300030461
 11
-7.2131674569
 21
-24.286863004
  0
LINE
  5
28F
100
AcDbEntity
  8
ASSI
100
AcDbLine
 62
253
  6
CONTINUOUS
 10
-7.2
 20
-24.300030461
 11
-7.2131674569
 21
-24.286863004
  0
LINE
  5
290
100
AcDbEntity
  8
0
100
AcDbLine
 62
7
  6
CONTINUOUS
 10
-8.5
 20
-22.4
 11
-8.5131674569
 21
-22.3868325431
  0
LINE
  5
291
100
AcDbEntity
  8
ASSI
100
AcDbLine
 62
7
  6
CONTINUOUS
 10
-8.5
 20
-22.4
 11
-8.5131674569
 21
-22.3868325431
  0
LINE
  5
292
100
AcDbEntity
  8
GUSCI_ESTERNI
100
AcDbLine
 62
7
  6
CONTINUOUS
 10
-8.3755307198
 20
-21.5744692802
 11
-10.85
 21
-19.1
  0
LINE
  5
293
100
AcDbEntity
  8
ASSI
100
AcDbLine
 62
7
  6
CONTINUOUS
 10
-8.3755307198
 20
-21.5744692802
 11
-10.85
 21
-19.1
  0
LINE
  5
294
100
AcDbEntity
  8
DRAFT
100
AcDbLine
 62
7
  6
CONTINUOUS
 10
-7.2551134101
 20
-22.3825449351
 11
-8.0604393039
 21
-21.5772190413
  0
LINE
  5
295
100
AcDbEntity
  8
ASSI
100
AcDbLine
 62
7
  6
CONTINUOUS
 10
-7.2551134101
 20
-22.3825449351
 11
-8.0604393039
 21
-21.5772190413
  0
LINE
  5
296
100
AcDbEntity
  8
DRAFT
100
AcDbLine
 62
7
  6
CONTINUOUS
 10
-10.85
 20
-18.7876583452
 11
-11.0825449351
 21
-18.5551134101
  0
LINE
  5
297
100
AcDbEntity
  8
ASSI
100
AcDbLine
 62
7
  6
CONTINUOUS
 10
-10.85
 20
-18.7876583452
 11
-11.0825449351
 21
-18.5551134101
  0
LINE
  5
298
100
AcDbEntity
  8
DRAFT
100
AcDbLine
 62
7
  6
CONTINUOUS
 10
-11.0423982857
 20
-18.5668742535
 11
-10.85
 21
-18.7592725392
  0
LINE
  5
299
100
AcDbEntity
  8
ASSI
100
AcDbLine
 62
7
  6
CONTINUOUS
 10
-11.0423982857
 20
-18.5668742535
 11
-10.85
 21
-18.7592725392
  0
LINE
  5
29A
100
AcDbEntity
  8
0
100
AcDbLine
 62
253
  6
CONTINUOUS
 10
-3.8306228363
 20
23.9018840226
 11
-3.7499619238
 21
23.9825449351
  0
LINE
  5
29B
100
AcDbEntity
  8
ASSI
100
AcDbLine
 62
253
  6
CONTINUOUS
 10
-3.8306228363
 20
23.9018840226
 11
-3.7499619238
 21
23.9825449351
  0
LINE
  5
29C
100
AcDbEntity
  8
0
100
AcDbLine
 62
253
  6
CONTINUOUS
 10
-3.5806626995
 20
23.6519203118
 11
-3.5
 21
23.7325830113
  0
LINE
  5
29D
100
AcDbEntity
  8
ASSI
100
AcDbLine
 62
253
  6
CONTINUOUS
 10
-3.5806626995
 20
23.6519203118
 11
-3.5
 21
23.7325830113
  0
LINE
  5
29E
100
AcDbEntity
  8
GUSCI_ESTERNI
100
AcDbLine
 62
253
  6
CONTINUOUS
 10
5.45
 20
-20.5000380769
 11
9.3842960041
 21
-20.4657039959
  0
LINE
  5
29F
100
AcDbEntity
  8
RACCORDO
100
AcDbLine
 62
253
  6
CONTINUOUS
 10
-5.45
 20
-20.7586887894
 11
0.0
 21
-20.7586887894
  0
LINE
  5
2A0
100
AcDbEntity
  8
RACCORDO
100
AcDbLine
 62
253
  6
CONTINUOUS
 10
1.2
 20
-20.7586887894
 11
5.45
 21
-20.7586887894
  0
LINE
  5
2A1
100
AcDbEntity
  8
RACCORDO
100
AcDbLine
 62
253
  6
CONTINUOUS
 10
0.0130903017
 20
-19.7542872771
 11
1.1869096983
 21
-19.7542872771
  0
LINE
  5
2A2
100
AcDbEntity
  8
GUSCI_ESTERNI
100
AcDbLine
 62
7
  6
CONTINUOUS
 10
-10.85
 20
-19.4811503675
 11
-10.4675145008
 21
-19.4824854992
  0
LINE
  5
2A3
100
AcDbEntity
  8
ASSI
100
AcDbLine
 62
7
  6
CONTINUOUS
 10
-10.85
 20
-19.4811503675
 11
-10.4675145008
 21
-19.4824854992
  0
LINE
  5
2A4
100
AcDbEntity
  8
GUSCI_ESTERNI
100
AcDbLine
 62
253
  6
CONTINUOUS
 10
-5.45
 20
-20.6000380769
 11
-9.3842960041
 21
-20.5657039959
  0
LINE
  5
2A5
100
AcDbEntity
  8
ASSI
100
AcDbLine
 62
253
  6
CONTINUOUS
 10
-5.45
 20
-20.6000380769
 11
-9.3842960041
 21
-20.5657039959
  0
LINE
  5
2A6
100
AcDbEntity
  8
0
100
AcDbLine
 62
253
  6
CONTINUOUS
 10
-3.7499619238
 20
-23.9825449351
 11
-3.8306228363
 21
-23.9018840226
  0
LINE
  5
2A7
100
AcDbEntity
  8
ASSI
100
AcDbLine
 62
253
  6
CONTINUOUS
 10
-3.7499619238
 20
-23.9825449351
 11
-3.8306228363
 21
-23.9018840226
  0
LINE
  5
2A8
100
AcDbEntity
  8
0
100
AcDbLine
 62
253
  6
CONTINUOUS
 10
-3.5
 20
-23.7325830113
 11
-3.5806626995
 21
-23.6519203118
  0
LINE
  5
2A9
100
AcDbEntity
  8
ASSI
100
AcDbLine
 62
253
  6
CONTINUOUS
 10
-3.5
 20
-23.7325830113
 11
-3.5806626995
 21
-23.6519203118
  0
LINE
  5
2AA
100
AcDbEntity
  8
0
100
AcDbLine
 62
7
  6
CONTINUOUS
 10
-3.5806609125
 20
22.3018840226
 11
-3.5
 21
22.3825449351
  0
LINE
  5
2AB
100
AcDbEntity
  8
ASSI
100
AcDbLine
 62
7
  6
CONTINUOUS
 10
-3.5806609125
 20
22.3018840226
 11
-3.5
 21
22.3825449351
  0
LINE
  5
2AC
100
AcDbEntity
  8
0
100
AcDbLine
 62
253
  6
CONTINUOUS
 10
-1.0674169887
 20
23.9825449351
 11
-1.0499619238
 21
24.0
  0
LINE
  5
2AD
100
AcDbEntity
  8
ASSI
100
AcDbLine
 62
253
  6
CONTINUOUS
 10
-1.0674169887
 20
23.9825449351
 11
-1.0499619238
 21
24.0
  0
LINE
  5
2AE
100
AcDbEntity
  8
0
100
AcDbLine
 62
253
  6
CONTINUOUS
 10
-0.8174550649
 20
23.7325830113
 11
-0.8
 21
23.7500380762
  0
LINE
  5
2AF
100
AcDbEntity
  8
ASSI
100
AcDbLine
 62
253
  6
CONTINUOUS
 10
-0.8174550649
 20
23.7325830113
 11
-0.8
 21
23.7500380762
  0
LINE
  5
2B0
100
AcDbEntity
  8
GUSCI_ESTERNI
100
AcDbLine
 62
7
  6
CONTINUOUS
 10
5.45
 20
-17.4
 11
8.65
 21
-17.3860370115
  0
LINE
  5
2B1
100
AcDbEntity
  8
RACCORDO
100
AcDbLine
 62
7
  6
CONTINUOUS
 10
5.45
 20
-17.15
 11
2.25
 21
-17.15
  0
LINE
  5
2B2
100
AcDbEntity
  8
RACCORDO
100
AcDbLine
 62
7
  6
CONTINUOUS
 10
-2.25
 20
-17.15
 11
-5.45
 21
-17.15
  0
LINE
  5
2B3
100
AcDbEntity
  8
GUSCI_ESTERNI
100
AcDbLine
 62
7
  6
CONTINUOUS
 10
-8.6
 20
-16.9
 11
-5.45
 21
-16.9
  0
LINE
  5
2B4
100
AcDbEntity
  8
ASSI
100
AcDbLine
 62
7
  6
CONTINUOUS
 10
-8.6
 20
-16.9
 11
-5.45
 21
-16.9
  0
LINE
  5
2B5
100
AcDbEntity
  8
RACCORDO
100
AcDbLine
 62
7
  6
CONTINUOUS
 10
5.45
 20
-16.9
 11
2.25
 21
-16.9
  0
LINE
  5
2B6
100
AcDbEntity
  8
RACCORDO
100
AcDbLine
 62
7
  6
CONTINUOUS
 10
-2.25
 20
-16.9
 11
-5.45
 21
-16.9
  0
LINE
  5
2B7
100
AcDbEntity
  8
GUSCI_ESTERNI
100
AcDbLine
 62
7
  6
CONTINUOUS
 10
5.45
 20
-16.9
 11
8.65
 21
-16.9
  0
LINE
  5
2B8
100
AcDbEntity
  8
GUSCI_ESTERNI
100
AcDbLine
 62
7
  6
CONTINUOUS
 10
-5.45
 20
-17.15
 11
-8.6
 21
-17.1431275916
  0
LINE
  5
2B9
100
AcDbEntity
  8
ASSI
100
AcDbLine
 62
7
  6
CONTINUOUS
 10
-5.45
 20
-17.15
 11
-8.6
 21
-17.1431275916
  0
LINE
  5
2BA
100
AcDbEntity
  8
0
100
AcDbLine
 62
7
  6
CONTINUOUS
 10
-3.5
 20
-22.3825449351
 11
-3.5806609125
 21
-22.3018840226
  0
LINE
  5
2BB
100
AcDbEntity
  8
ASSI
100
AcDbLine
 62
7
  6
CONTINUOUS
 10
-3.5
 20
-22.3825449351
 11
-3.5806609125
 21
-22.3018840226
  0
LINE
  5
2BC
100
AcDbEntity
  8
0
100
AcDbLine
 62
253
  6
CONTINUOUS
 10
-1.0499619238
 20
-24.0
 11
-1.0674169887
 21
-23.9825449351
  0
LINE
  5
2BD
100
AcDbEntity
  8
ASSI
100
AcDbLine
 62
253
  6
CONTINUOUS
 10
-1.0499619238
 20
-24.0
 11
-1.0674169887
 21
-23.9825449351
  0
LINE
  5
2BE
100
AcDbEntity
  8
0
100
AcDbLine
 62
253
  6
CONTINUOUS
 10
-0.8
 20
-23.7500380762
 11
-0.8174550649
 21
-23.7325830113
  0
LINE
  5
2BF
100
AcDbEntity
  8
ASSI
100
AcDbLine
 62
253
  6
CONTINUOUS
 10
-0.8
 20
-23.7500380762
 11
-0.8174550649
 21
-23.7325830113
  0
LINE
  5
2C0
100
AcDbEntity
  8
GUSCI_ESTERNI
100
AcDbLine
 62
253
  6
CONTINUOUS
 10
9.6317531964
 20
-16.4
 11
9.5160254038
 21
-16.4
  0
LINE
  5
2C1
100
AcDbEntity
  8
GUSCI_ESTERNI
100
AcDbLine
 62
253
  6
CONTINUOUS
 10
-9.5909655852
 20
-16.15
 11
-9.5682458366
 21
-16.15
  0
LINE
  5
2C2
100
AcDbEntity
  8
ASSI
100
AcDbLine
 62
253
  6
CONTINUOUS
 10
-9.5909655852
 20
-16.15
 11
-9.5682458366
 21
-16.15
  0
LINE
  5
2C3
100
AcDbEntity
  8
0
100
AcDbLine
 62
7
  6
CONTINUOUS
 10
-7.3012233427
 20
22.2251447178
 11
-7.2551134101
 21
22.3825449351
  0
LINE
  5
2C4
100
AcDbEntity
  8
ASSI
100
AcDbLine
 62
7
  6
CONTINUOUS
 10
-7.3012233427
 20
22.2251447178
 11
-7.2551134101
 21
22.3825449351
  0
LINE
  5
2C5
100
AcDbEntity
  8
RACCORDO
100
AcDbLine
 62
253
  6
CONTINUOUS
 10
-2.2499428846
 20
17.65
 11
-2.232489149
 21
17.6674537356
  0
LINE
  5
2C6
100
AcDbEntity
  8
0
100
AcDbLine
 62
253
  6
CONTINUOUS
 10
4.1019220988
 20
23.9018840226
 11
4.2000380762
 21
24.0
  0
LINE
  5
2C7
100
AcDbEntity
  8
ASSI
100
AcDbLine
 62
253
  6
CONTINUOUS
 10
4.1019220988
 20
23.9018840226
 11
4.2000380762
 21
24.0
  0
LINE
  5
2C8
100
AcDbEntity
  8
0
100
AcDbLine
 62
253
  6
CONTINUOUS
 10
4.3518822356
 20
23.6519203118
 11
4.45
 21
23.7500380762
  0
LINE
  5
2C9
100
AcDbEntity
  8
ASSI
100
AcDbLine
 62
253
  6
CONTINUOUS
 10
4.3518822356
 20
23.6519203118
 11
4.45
 21
23.7500380762
  0
LINE
  5
2CA
100
AcDbEntity
  8
0
100
AcDbLine
 62
7
  6
CONTINUOUS
 10
-5.45
 20
13.7
 11
-5.75
 21
13.4
  0
LINE
  5
2CB
100
AcDbEntity
  8
0
100
AcDbLine
 62
7
  6
CONTINUOUS
 10
4.45
 20
22.4
 11
4.3518840226
 21
22.3018840226
  0
LINE
  5
2CC
100
AcDbEntity
  8
ASSI
100
AcDbLine
 62
7
  6
CONTINUOUS
 10
4.45
 20
22.4
 11
4.3518840226
 21
22.3018840226
  0
LINE
  5
2CD
100
AcDbEntity
  8
GUSCI_ESTERNI
100
AcDbLine
 62
7
  6
CONTINUOUS
 10
-5.45
 20
-13.15
 11
-8.6
 21
-13.1568724084
  0
LINE
  5
2CE
100
AcDbEntity
  8
ASSI
100
AcDbLine
 62
7
  6
CONTINUOUS
 10
-5.45
 20
-13.15
 11
-8.6
 21
-13.1568724084
  0
LINE
  5
2CF
100
AcDbEntity
  8
DRAFT
100
AcDbLine
 62
7
  6
CONTINUOUS
 10
0.0130903017
 20
-14.1980762114
 11
1.1869096983
 21
-14.1980762114
  0
LINE
  5
2D0
100
AcDbEntity
  8
GUSCI_ESTERNI
100
AcDbLine
 62
253
  6
CONTINUOUS
 10
-9.5909655852
 20
-14.15
 11
-9.5682458366
 21
-14.15
  0
LINE
  5
2D1
100
AcDbEntity
  8
ASSI
100
AcDbLine
 62
253
  6
CONTINUOUS
 10
-9.5909655852
 20
-14.15
 11
-9.5682458366
 21
-14.15
  0
LINE
  5
2D2
100
AcDbEntity
  8
GUSCI_ESTERNI
100
AcDbLine
 62
253
  6
CONTINUOUS
 10
9.6317531964
 20
-13.9
 11
9.5160254038
 21
-13.9
  0
LINE
  5
2D3
100
AcDbEntity
  8
0
100
AcDbLine
 62
7
  6
CONTINUOUS
 10
9.3633237565
 20
-13.7
 11
8.2
 21
-13.7
  0
LINE
  5
2D4
100
AcDbEntity
  8
0
100
AcDbLine
 62
7
  6
CONTINUOUS
 10
2.7
 20
-13.7
 11
1.5359935683
 21
-13.7
  0
LINE
  5
2D5
100
AcDbEntity
  8
0
100
AcDbLine
 62
7
  6
CONTINUOUS
 10
-1.5359935683
 20
-13.7
 11
-2.7
 21
-13.7
  0
LINE
  5
2D6
100
AcDbEntity
  8
0
100
AcDbLine
 62
7
  6
CONTINUOUS
 10
-8.2
 20
-13.7
 11
-9.3138677471
 21
-13.7
  0
LINE
  5
2D7
100
AcDbEntity
  8
RACCORDO
100
AcDbLine
 62
7
  6
CONTINUOUS
 10
-5.45
 20
-13.4
 11
-2.25
 21
-13.4
  0
LINE
  5
2D8
100
AcDbEntity
  8
GUSCI_ESTERNI
100
AcDbLine
 62
7
  6
CONTINUOUS
 10
8.65
 20
-13.4
 11
5.45
 21
-13.4
  0
LINE
  5
2D9
100
AcDbEntity
  8
RACCORDO
100
AcDbLine
 62
7
  6
CONTINUOUS
 10
2.25
 20
-13.4
 11
5.45
 21
-13.4
  0
LINE
  5
2DA
100
AcDbEntity
  8
GUSCI_ESTERNI
100
AcDbLine
 62
7
  6
CONTINUOUS
 10
-5.45
 20
-13.4
 11
-8.6
 21
-13.4
  0
LINE
  5
2DB
100
AcDbEntity
  8
ASSI
100
AcDbLine
 62
7
  6
CONTINUOUS
 10
-5.45
 20
-13.4
 11
-8.6
 21
-13.4
  0
LINE
  5
2DC
100
AcDbEntity
  8
RACCORDO
100
AcDbLine
 62
7
  6
CONTINUOUS
 10
-5.45
 20
-13.15
 11
-2.25
 21
-13.15
  0
LINE
  5
2DD
100
AcDbEntity
  8
RACCORDO
100
AcDbLine
 62
7
  6
CONTINUOUS
 10
2.25
 20
-13.15
 11
5.45
 21
-13.15
  0
LINE
  5
2DE
100
AcDbEntity
  8
GUSCI_ESTERNI
100
AcDbLine
 62
7
  6
CONTINUOUS
 10
5.45
 20
-12.9
 11
8.65
 21
-12.9139629885
  0
LINE
  5
2DF
100
AcDbEntity
  8
RACCORDO
100
AcDbLine
 62
7
  6
CONTINUOUS
 10
1.2086507125
 20
-21.7586507125
 11
1.2042111233
 21
-21.7542111233
  0
LINE
  5
2E0
100
AcDbEntity
  8
0
100
AcDbLine
 62
253
  6
CONTINUOUS
 10
4.2000380762
 20
-24.0
 11
4.1019220988
 21
-23.9018840226
  0
LINE
  5
2E1
100
AcDbEntity
  8
ASSI
100
AcDbLine
 62
253
  6
CONTINUOUS
 10
4.2000380762
 20
-24.0
 11
4.1019220988
 21
-23.9018840226
  0
LINE
  5
2E2
100
AcDbEntity
  8
0
100
AcDbLine
 62
253
  6
CONTINUOUS
 10
4.45
 20
-23.7500380762
 11
4.3518822356
 21
-23.6519203118
  0
LINE
  5
2E3
100
AcDbEntity
  8
ASSI
100
AcDbLine
 62
253
  6
CONTINUOUS
 10
4.45
 20
-23.7500380762
 11
4.3518822356
 21
-23.6519203118
  0
LINE
  5
2E4
100
AcDbEntity
  8
0
100
AcDbLine
 62
7
  6
CONTINUOUS
 10
-5.75
 20
-13.4
 11
-5.45
 21
-13.7
  0
LINE
  5
2E5
100
AcDbEntity
  8
0
100
AcDbLine
 62
7
  6
CONTINUOUS
 10
4.45
 20
-22.4
 11
4.3518840226
 21
-22.3018840226
  0
LINE
  5
2E6
100
AcDbEntity
  8
ASSI
100
AcDbLine
 62
7
  6
CONTINUOUS
 10
4.45
 20
-22.4
 11
4.3518840226
 21
-22.3018840226
  0
LINE
  5
2E7
100
AcDbEntity
  8
0
100
AcDbLine
 62
7
  6
CONTINUOUS
 10
-7.3012233427
 20
-22.2251447178
 11
-7.2551134101
 21
-22.3825449351
  0
LINE
  5
2E8
100
AcDbEntity
  8
ASSI
100
AcDbLine
 62
7
  6
CONTINUOUS
 10
-7.3012233427
 20
-22.2251447178
 11
-7.2551134101
 21
-22.3825449351
  0
LINE
  5
2E9
100
AcDbEntity
  8
0
100
AcDbLine
 62
253
  6
CONTINUOUS
 10
-10.5864113981
 20
-23.8010362971
 11
-10.6
 21
-23.3515746082
  0
LINE
  5
2EA
100
AcDbEntity
  8
ASSI
100
AcDbLine
 62
253
  6
CONTINUOUS
 10
-10.5864113981
 20
-23.8010362971
 11
-10.6
 21
-23.3515746082
  0
LINE
  5
2EB
100
AcDbEntity
  8
0
100
AcDbLine
 62
253
  6
CONTINUOUS
 10
-10.3864421556
 20
-23.6278214068
 11
-10.4017150409
 21
-23.1226497308
  0
LINE
  5
2EC
100
AcDbEntity
  8
ASSI
100
AcDbLine
 62
253
  6
CONTINUOUS
 10
-10.3864421556
 20
-23.6278214068
 11
-10.4017150409
 21
-23.1226497308
  0
LINE
  5
2ED
100
AcDbEntity
  8
0
100
AcDbLine
 62
7
  6
CONTINUOUS
 10
-11.1
 20
8.3327499645
 11
-11.000493498
 21
4.3977347721
  0
LINE
  5
2EE
100
AcDbEntity
  8
ASSI
100
AcDbLine
 62
7
  6
CONTINUOUS
 10
-11.1
 20
8.3327499645
 11
-11.000493498
 21
4.3977347721
  0
LINE
  5
2EF
100
AcDbEntity
  8
0
100
AcDbLine
 62
7
  6
CONTINUOUS
 10
-11.1
 20
-8.3327499645
 11
-11.0423982857
 21
-11.75
  0
LINE
  5
2F0
100
AcDbEntity
  8
ASSI
100
AcDbLine
 62
7
  6
CONTINUOUS
 10
-11.1
 20
-8.3327499645
 11
-11.0423982857
 21
-11.75
  0
LINE
  5
2F1
100
AcDbEntity
  8
0
100
AcDbLine
 62
7
  6
CONTINUOUS
 10
-11.1
 20
-21.9000761524
 11
-11.1
 21
-8.3327499645
  0
LINE
  5
2F2
100
AcDbEntity
  8
ASSI
100
AcDbLine
 62
7
  6
CONTINUOUS
 10
-11.1
 20
-21.9000761524
 11
-11.1
 21
-8.3327499645
  0
LINE
  5
2F3
100
AcDbEntity
  8
0
100
AcDbLine
 62
7
  6
CONTINUOUS
 10
-11.1
 20
8.3327499645
 11
-11.1
 21
21.9000761524
  0
LINE
  5
2F4
100
AcDbEntity
  8
ASSI
100
AcDbLine
 62
7
  6
CONTINUOUS
 10
-11.1
 20
8.3327499645
 11
-11.1
 21
21.9000761524
  0
LINE
  5
2F5
100
AcDbEntity
  8
DRAFT
100
AcDbLine
 62
7
  6
CONTINUOUS
 10
-11.0825449351
 20
-21.8826210875
 11
-11.0825449351
 21
-18.5551134101
  0
LINE
  5
2F6
100
AcDbEntity
  8
ASSI
100
AcDbLine
 62
7
  6
CONTINUOUS
 10
-11.0825449351
 20
-21.8826210875
 11
-11.0825449351
 21
-18.5551134101
  0
LINE
  5
2F7
100
AcDbEntity
  8
DRAFT
100
AcDbLine
 62
7
  6
CONTINUOUS
 10
-11.0825449351
 20
18.5551134101
 11
-11.0825449351
 21
21.8826210875
  0
LINE
  5
2F8
100
AcDbEntity
  8
ASSI
100
AcDbLine
 62
7
  6
CONTINUOUS
 10
-11.0825449351
 20
18.5551134101
 11
-11.0825449351
 21
21.8826210875
  0
LINE
  5
2F9
100
AcDbEntity
  8
DRAFT
100
AcDbLine
 62
7
  6
CONTINUOUS
 10
-11.0423982857
 20
18.5668742535
 11
-11.0423982857
 21
11.75
  0
LINE
  5
2FA
100
AcDbEntity
  8
ASSI
100
AcDbLine
 62
7
  6
CONTINUOUS
 10
-11.0423982857
 20
18.5668742535
 11
-11.0423982857
 21
11.75
  0
LINE
  5
2FB
100
AcDbEntity
  8
DRAFT
100
AcDbLine
 62
7
  6
CONTINUOUS
 10
-11.0423982857
 20
-11.75
 11
-11.0423982857
 21
-18.5668742535
  0
LINE
  5
2FC
100
AcDbEntity
  8
ASSI
100
AcDbLine
 62
7
  6
CONTINUOUS
 10
-11.0423982857
 20
-11.75
 11
-11.0423982857
 21
-18.5668742535
  0
LINE
  5
2FD
100
AcDbEntity
  8
0
100
AcDbLine
 62
7
  6
CONTINUOUS
 10
-11.000493498
 20
-4.3977347721
 11
-11.000493498
 21
4.3977347721
  0
LINE
  5
2FE
100
AcDbEntity
  8
ASSI
100
AcDbLine
 62
7
  6
CONTINUOUS
 10
-11.000493498
 20
-4.3977347721
 11
-11.000493498
 21
4.3977347721
  0
LINE
  5
2FF
100
AcDbEntity
  8
RACCORDO
100
AcDbLine
 62
253
  6
CONTINUOUS
 10
-10.9744618847
 20
4.3977347721
 11
-10.9744618847
 21
-4.3977347721
  0
LINE
  5
300
100
AcDbEntity
  8
ASSI
100
AcDbLine
 62
253
  6
CONTINUOUS
 10
-10.9744618847
 20
4.3977347721
 11
-10.9744618847
 21
-4.3977347721
  0
LINE
  5
301
100
AcDbEntity
  8
GUSCI_ESTERNI
100
AcDbLine
 62
7
  6
CONTINUOUS
 10
-10.85
 20
-19.4811503675
 11
-10.85
 21
19.4811503675
  0
LINE
  5
302
100
AcDbEntity
  8
ASSI
100
AcDbLine
 62
7
  6
CONTINUOUS
 10
-10.85
 20
-19.4811503675
 11
-10.85
 21
19.4811503675
  0
LINE
  5
303
100
AcDbEntity
  8
0
100
AcDbLine
 62
7
  6
CONTINUOUS
 10
-10.6
 20
24.300030461
 11
-10.6000000646
 21
22.3999999296
  0
LINE
  5
304
100
AcDbEntity
  8
ASSI
100
AcDbLine
 62
7
  6
CONTINUOUS
 10
-10.6
 20
24.300030461
 11
-10.6000000646
 21
22.3999999296
  0
LINE
  5
305
100
AcDbEntity
  8
0
100
AcDbLine
 62
7
  6
CONTINUOUS
 10
-10.6
 20
-22.3999997358
 11
-10.6
 21
-24.300030461
  0
LINE
  5
306
100
AcDbEntity
  8
ASSI
100
AcDbLine
 62
7
  6
CONTINUOUS
 10
-10.6
 20
-22.3999997358
 11
-10.6
 21
-24.300030461
  0
LINE
  5
307
100
AcDbEntity
  8
0
100
AcDbLine
 62
253
  6
CONTINUOUS
 10
-10.5859750215
 20
-24.2368706193
 11
-10.5859750215
 21
-23.8443375673
  0
LINE
  5
308
100
AcDbEntity
  8
ASSI
100
AcDbLine
 62
253
  6
CONTINUOUS
 10
-10.5859750215
 20
-24.2368706193
 11
-10.5859750215
 21
-23.8443375673
  0
LINE
  5
309
100
AcDbEntity
  8
0
100
AcDbLine
 62
253
  6
CONTINUOUS
 10
-10.5859750215
 20
23.8443375673
 11
-10.5859750215
 21
24.2368706193
  0
LINE
  5
30A
100
AcDbEntity
  8
ASSI
100
AcDbLine
 62
253
  6
CONTINUOUS
 10
-10.5859750215
 20
23.8443375673
 11
-10.5859750215
 21
24.2368706193
  0
LINE
  5
30B
100
AcDbEntity
  8
GUSCI_ESTERNI
100
AcDbLine
 62
7
  6
CONTINUOUS
 10
-10.5833334446
 20
-4.35
 11
-10.5833334446
 21
-5.7797872305
  0
LINE
  5
30C
100
AcDbEntity
  8
ASSI
100
AcDbLine
 62
7
  6
CONTINUOUS
 10
-10.5833334446
 20
-4.35
 11
-10.5833334446
 21
-5.7797872305
  0
LINE
  5
30D
100
AcDbEntity
  8
0
100
AcDbLine
 62
253
  6
CONTINUOUS
 10
-10.3860054824
 20
-24.2368706193
 11
-10.3860054824
 21
-23.844250724
  0
LINE
  5
30E
100
AcDbEntity
  8
ASSI
100
AcDbLine
 62
253
  6
CONTINUOUS
 10
-10.3860054824
 20
-24.2368706193
 11
-10.3860054824
 21
-23.844250724
  0
LINE
  5
30F
100
AcDbEntity
  8
0
100
AcDbLine
 62
253
  6
CONTINUOUS
 10
-10.3860054824
 20
23.844357602
 11
-10.3860054824
 21
24.2368706193
  0
LINE
  5
310
100
AcDbEntity
  8
ASSI
100
AcDbLine
 62
253
  6
CONTINUOUS
 10
-10.3860054824
 20
23.844357602
 11
-10.3860054824
 21
24.2368706193
  0
LINE
  5
311
100
AcDbEntity
  8
0
100
AcDbLine
 62
7
  6
CONTINUOUS
 10
-11.1
 20
8.3327499645
 11
-11.0423982857
 21
11.75
  0
LINE
  5
312
100
AcDbEntity
  8
ASSI
100
AcDbLine
 62
7
  6
CONTINUOUS
 10
-11.1
 20
8.3327499645
 11
-11.0423982857
 21
11.75
  0
LINE
  5
313
100
AcDbEntity
  8
0
100
AcDbLine
 62
7
  6
CONTINUOUS
 10
-11.1
 20
-8.3327499645
 11
-11.000493498
 21
-4.3977347721
  0
LINE
  5
314
100
AcDbEntity
  8
ASSI
100
AcDbLine
 62
7
  6
CONTINUOUS
 10
-11.1
 20
-8.3327499645
 11
-11.000493498
 21
-4.3977347721
  0
LINE
  5
315
100
AcDbEntity
  8
0
100
AcDbLine
 62
253
  6
CONTINUOUS
 10
-10.6
 20
23.3515746082
 11
-10.5864113981
 21
23.8010362971
  0
LINE
  5
316
100
AcDbEntity
  8
ASSI
100
AcDbLine
 62
253
  6
CONTINUOUS
 10
-10.6
 20
23.3515746082
 11
-10.5864113981
 21
23.8010362971
  0
LINE
  5
317
100
AcDbEntity
  8
0
100
AcDbLine
 62
253
  6
CONTINUOUS
 10
-10.4017150409
 20
23.1226497308
 11
-10.3864405812
 21
23.6278734826
  0
LINE
  5
318
100
AcDbEntity
  8
ASSI
100
AcDbLine
 62
253
  6
CONTINUOUS
 10
-10.4017150409
 20
23.1226497308
 11
-10.3864405812
 21
23.6278734826
  0
LINE
  5
319
100
AcDbEntity
  8
RACCORDO
100
AcDbLine
 62
253
  6
CONTINUOUS
 10
-0.75
 20
16.1500571154
 11
-0.7325462644
 21
16.167510851
  0
LINE
  5
31A
100
AcDbEntity
  8
DRAFT
100
AcDbLine
 62
7
  6
CONTINUOUS
 10
11.0423982857
 20
-11.75
 11
10.85
 21
-11.75
  0
LINE
  5
31B
100
AcDbEntity
  8
ASSI
100
AcDbLine
 62
7
  6
CONTINUOUS
 10
11.0423982857
 20
-11.75
 11
10.85
 21
-11.75
  0
LINE
  5
31C
100
AcDbEntity
  8
DRAFT
100
AcDbLine
 62
7
  6
CONTINUOUS
 10
-10.85
 20
-11.75
 11
-11.0423982857
 21
-11.75
  0
LINE
  5
31D
100
AcDbEntity
  8
ASSI
100
AcDbLine
 62
7
  6
CONTINUOUS
 10
-10.85
 20
-11.75
 11
-11.0423982857
 21
-11.75
  0
LINE
  5
31E
100
AcDbEntity
  8
DRAFT
100
AcDbLine
 62
7
  6
CONTINUOUS
 10
1.2
 20
-11.6
 11
0.0
 21
-11.6
  0
LINE
  5
31F
100
AcDbEntity
  8
GUSCI_ESTERNI
100
AcDbLine
 62
7
  6
CONTINUOUS
 10
-10.85
 20
-11.5980762114
 11
-9.65
 21
-11.5980762114
  0
LINE
  5
320
100
AcDbEntity
  8
ASSI
100
AcDbLine
 62
7
  6
CONTINUOUS
 10
-10.85
 20
-11.5980762114
 11
-9.65
 21
-11.5980762114
  0
LINE
  5
321
100
AcDbEntity
  8
DRAFT
100
AcDbLine
 62
7
  6
CONTINUOUS
 10
5.45
 20
-11.5
 11
1.45
 21
-11.5
  0
LINE
  5
322
100
AcDbEntity
  8
DRAFT
100
AcDbLine
 62
7
  6
CONTINUOUS
 10
1.4552365195
 20
-11.4947634805
 11
5.45
 21
-11.4947634805
  0
LINE
  5
323
100
AcDbEntity
  8
GUSCI_ESTERNI
100
AcDbLine
 62
7
  6
CONTINUOUS
 10
-10.4666665554
 20
-6.0776595354
 11
-10.35
 21
-6.1968084574
  0
LINE
  5
324
100
AcDbEntity
  8
ASSI
100
AcDbLine
 62
7
  6
CONTINUOUS
 10
-10.4666665554
 20
-6.0776595354
 11
-10.35
 21
-6.1968084574
  0
LINE
  5
325
100
AcDbEntity
  8
GUSCI_ESTERNI
100
AcDbLine
 62
7
  6
CONTINUOUS
 10
-10.175
 20
-5.9585106134
 11
-10.2333334446
 21
-5.8989361525
  0
LINE
  5
326
100
AcDbEntity
  8
ASSI
100
AcDbLine
 62
7
  6
CONTINUOUS
 10
-10.175
 20
-5.9585106134
 11
-10.2333334446
 21
-5.8989361525
  0
LINE
  5
327
100
AcDbEntity
  8
GUSCI_ESTERNI
100
AcDbLine
 62
7
  6
CONTINUOUS
 10
-9.5916665554
 20
-6.0180850744
 11
-9.4166665554
 21
-6.1968084574
  0
LINE
  5
328
100
AcDbEntity
  8
ASSI
100
AcDbLine
 62
7
  6
CONTINUOUS
 10
-9.5916665554
 20
-6.0180850744
 11
-9.4166665554
 21
-6.1968084574
  0
LINE
  5
329
100
AcDbEntity
  8
GUSCI_ESTERNI
100
AcDbLine
 62
7
  6
CONTINUOUS
 10
-9.2416665554
 20
-5.9585106134
 11
-9.3
 21
-5.8989361525
  0
LINE
  5
32A
100
AcDbEntity
  8
ASSI
100
AcDbLine
 62
7
  6
CONTINUOUS
 10
-9.2416665554
 20
-5.9585106134
 11
-9.3
 21
-5.8989361525
  0
LINE
  5
32B
100
AcDbEntity
  8
GUSCI_ESTERNI
100
AcDbLine
 62
7
  6
CONTINUOUS
 10
-10.2333334446
 20
-5.8989361525
 11
-10.2916665554
 21
-5.7797872305
  0
LINE
  5
32C
100
AcDbEntity
  8
ASSI
100
AcDbLine
 62
7
  6
CONTINUOUS
 10
-10.2333334446
 20
-5.8989361525
 11
-10.2916665554
 21
-5.7797872305
  0
LINE
  5
32D
100
AcDbEntity
  8
GUSCI_ESTERNI
100
AcDbLine
 62
7
  6
CONTINUOUS
 10
-9.3
 20
-5.8989361525
 11
-9.3583334446
 21
-5.7797872305
  0
LINE
  5
32E
100
AcDbEntity
  8
ASSI
100
AcDbLine
 62
7
  6
CONTINUOUS
 10
-9.3
 20
-5.8989361525
 11
-9.3583334446
 21
-5.7797872305
  0
LINE
  5
32F
100
AcDbEntity
  8
GUSCI_ESTERNI
100
AcDbLine
 62
7
  6
CONTINUOUS
 10
-10.5833334446
 20
-5.7797872305
 11
-10.4666665554
 21
-6.0776595354
  0
LINE
  5
330
100
AcDbEntity
  8
ASSI
100
AcDbLine
 62
7
  6
CONTINUOUS
 10
-10.5833334446
 20
-5.7797872305
 11
-10.4666665554
 21
-6.0776595354
  0
LINE
  5
331
100
AcDbEntity
  8
0
100
AcDbLine
 62
7
  6
CONTINUOUS
 10
-9.3
 20
-23.1226497308
 11
-9.2868325431
 21
-23.5581814706
  0
LINE
  5
332
100
AcDbEntity
  8
ASSI
100
AcDbLine
 62
7
  6
CONTINUOUS
 10
-9.3
 20
-23.1226497308
 11
-9.2868325431
 21
-23.5581814706
  0
LINE
  5
333
100
AcDbEntity
  8
GUSCI_ESTERNI
100
AcDbLine
 62
7
  6
CONTINUOUS
 10
-10.2916665554
 20
-5.7797872305
 11
-10.2916665554
 21
-4.35
  0
LINE
  5
334
100
AcDbEntity
  8
ASSI
100
AcDbLine
 62
7
  6
CONTINUOUS
 10
-10.2916665554
 20
-5.7797872305
 11
-10.2916665554
 21
-4.35
  0
LINE
  5
335
100
AcDbEntity
  8
GUSCI_ESTERNI
100
AcDbLine
 62
7
  6
CONTINUOUS
 10
-10.15
 20
16.175
 11
-10.15
 21
14.125
  0
LINE
  5
336
100
AcDbEntity
  8
ASSI
100
AcDbLine
 62
7
  6
CONTINUOUS
 10
-10.15
 20
16.175
 11
-10.15
 21
14.125
  0
LINE
  5
337
100
AcDbEntity
  8
GUSCI_ESTERNI
100
AcDbLine
 62
7
  6
CONTINUOUS
 10
-9.65
 20
-4.35
 11
-9.65
 21
-5.7797872305
  0
LINE
  5
338
100
AcDbEntity
  8
ASSI
100
AcDbLine
 62
7
  6
CONTINUOUS
 10
-9.65
 20
-4.35
 11
-9.65
 21
-5.7797872305
  0
LINE
  5
339
100
AcDbEntity
  8
GUSCI_ESTERNI
100
AcDbLine
 62
7
  6
CONTINUOUS
 10
-9.65
 20
-8.9365154107
 11
-9.65
 21
-20.3
  0
LINE
  5
33A
100
AcDbEntity
  8
ASSI
100
AcDbLine
 62
7
  6
CONTINUOUS
 10
-9.65
 20
-8.9365154107
 11
-9.65
 21
-20.3
  0
LINE
  5
33B
100
AcDbEntity
  8
GUSCI_ESTERNI
100
AcDbLine
 62
7
  6
CONTINUOUS
 10
-9.6
 20
15.9
 11
-9.6
 21
14.4
  0
LINE
  5
33C
100
AcDbEntity
  8
ASSI
100
AcDbLine
 62
7
  6
CONTINUOUS
 10
-9.6
 20
15.9
 11
-9.6
 21
14.4
  0
LINE
  5
33D
100
AcDbEntity
  8
GUSCI_ESTERNI
100
AcDbLine
 62
7
  6
CONTINUOUS
 10
-9.6
 20
-14.4
 11
-9.6
 21
-15.9
  0
LINE
  5
33E
100
AcDbEntity
  8
ASSI
100
AcDbLine
 62
7
  6
CONTINUOUS
 10
-9.6
 20
-14.4
 11
-9.6
 21
-15.9
  0
LINE
  5
33F
100
AcDbEntity
  8
GUSCI_ESTERNI
100
AcDbLine
 62
7
  6
CONTINUOUS
 10
-9.5909655852
 20
-14.15
 11
-9.5909655852
 21
-14.2658835993
  0
LINE
  5
340
100
AcDbEntity
  8
ASSI
100
AcDbLine
 62
7
  6
CONTINUOUS
 10
-9.5909655852
 20
-14.15
 11
-9.5909655852
 21
-14.2658835993
  0
LINE
  5
341
100
AcDbEntity
  8
GUSCI_ESTERNI
100
AcDbLine
 62
7
  6
CONTINUOUS
 10
-9.5909655852
 20
-16.0341164007
 11
-9.5909655852
 21
-16.15
  0
LINE
  5
342
100
AcDbEntity
  8
ASSI
100
AcDbLine
 62
7
  6
CONTINUOUS
 10
-9.5909655852
 20
-16.0341164007
 11
-9.5909655852
 21
-16.15
  0
LINE
  5
343
100
AcDbEntity
  8
GUSCI_ESTERNI
100
AcDbLine
 62
7
  6
CONTINUOUS
 10
-9.5909655852
 20
14.15
 11
-9.5909655852
 21
14.2658835993
  0
LINE
  5
344
100
AcDbEntity
  8
ASSI
100
AcDbLine
 62
7
  6
CONTINUOUS
 10
-9.5909655852
 20
14.15
 11
-9.5909655852
 21
14.2658835993
  0
LINE
  5
345
100
AcDbEntity
  8
GUSCI_ESTERNI
100
AcDbLine
 62
7
  6
CONTINUOUS
 10
-9.5909655852
 20
16.0341164007
 11
-9.5909655852
 21
16.15
  0
LINE
  5
346
100
AcDbEntity
  8
ASSI
100
AcDbLine
 62
7
  6
CONTINUOUS
 10
-9.5909655852
 20
16.0341164007
 11
-9.5909655852
 21
16.15
  0
LINE
  5
347
100
AcDbEntity
  8
GUSCI_ESTERNI
100
AcDbLine
 62
7
  6
CONTINUOUS
 10
-9.3583334446
 20
-5.7797872305
 11
-9.3583334446
 21
-4.35
  0
LINE
  5
348
100
AcDbEntity
  8
ASSI
100
AcDbLine
 62
7
  6
CONTINUOUS
 10
-9.3583334446
 20
-5.7797872305
 11
-9.3583334446
 21
-4.35
  0
LINE
  5
349
100
AcDbEntity
  8
0
100
AcDbLine
 62
7
  6
CONTINUOUS
 10
-9.3
 20
23.1226497308
 11
-9.3
 21
22.4
  0
LINE
  5
34A
100
AcDbEntity
  8
ASSI
100
AcDbLine
 62
7
  6
CONTINUOUS
 10
-9.3
 20
23.1226497308
 11
-9.3
 21
22.4
  0
LINE
  5
34B
100
AcDbEntity
  8
0
100
AcDbLine
 62
7
  6
CONTINUOUS
 10
-9.3
 20
-22.4
 11
-9.3
 21
-23.1226497308
  0
LINE
  5
34C
100
AcDbEntity
  8
ASSI
100
AcDbLine
 62
7
  6
CONTINUOUS
 10
-9.3
 20
-22.4
 11
-9.3
 21
-23.1226497308
  0
LINE
  5
34D
100
AcDbEntity
  8
0
100
AcDbLine
 62
253
  6
CONTINUOUS
 10
-9.2868325431
 20
23.5581814706
 11
-9.2868325431
 21
22.3868325431
  0
LINE
  5
34E
100
AcDbEntity
  8
ASSI
100
AcDbLine
 62
253
  6
CONTINUOUS
 10
-9.2868325431
 20
23.5581814706
 11
-9.2868325431
 21
22.3868325431
  0
LINE
  5
34F
100
AcDbEntity
  8
0
100
AcDbLine
 62
253
  6
CONTINUOUS
 10
-9.2868325431
 20
-22.3868325431
 11
-9.2868325431
 21
-23.5581814706
  0
LINE
  5
350
100
AcDbEntity
  8
ASSI
100
AcDbLine
 62
253
  6
CONTINUOUS
 10
-9.2868325431
 20
-22.3868325431
 11
-9.2868325431
 21
-23.5581814706
  0
LINE
  5
351
100
AcDbEntity
  8
0
100
AcDbLine
 62
253
  6
CONTINUOUS
 10
-9.0368706193
 20
23.8443375673
 11
-9.0368706193
 21
22.3825449351
  0
LINE
  5
352
100
AcDbEntity
  8
ASSI
100
AcDbLine
 62
253
  6
CONTINUOUS
 10
-9.0368706193
 20
23.8443375673
 11
-9.0368706193
 21
22.3825449351
  0
LINE
  5
353
100
AcDbEntity
  8
0
100
AcDbLine
 62
253
  6
CONTINUOUS
 10
-9.0368706193
 20
-22.3825449351
 11
-9.0368706193
 21
-23.8443375673
  0
LINE
  5
354
100
AcDbEntity
  8
ASSI
100
AcDbLine
 62
253
  6
CONTINUOUS
 10
-9.0368706193
 20
-22.3825449351
 11
-9.0368706193
 21
-23.8443375673
  0
LINE
  5
355
100
AcDbEntity
  8
0
100
AcDbLine
 62
253
  6
CONTINUOUS
 10
-8.7631293807
 20
23.8443375673
 11
-8.7631293807
 21
22.3825449351
  0
LINE
  5
356
100
AcDbEntity
  8
ASSI
100
AcDbLine
 62
253
  6
CONTINUOUS
 10
-8.7631293807
 20
23.8443375673
 11
-8.7631293807
 21
22.3825449351
  0
LINE
  5
357
100
AcDbEntity
  8
0
100
AcDbLine
 62
253
  6
CONTINUOUS
 10
-8.7631293807
 20
-22.3825449351
 11
-8.7631293807
 21
-23.8443375673
  0
LINE
  5
358
100
AcDbEntity
  8
ASSI
100
AcDbLine
 62
253
  6
CONTINUOUS
 10
-8.7631293807
 20
-22.3825449351
 11
-8.7631293807
 21
-23.8443375673
  0
LINE
  5
359
100
AcDbEntity
  8
GUSCI_ESTERNI
100
AcDbLine
 62
7
  6
CONTINUOUS
 10
-8.7166665554
 20
-4.35
 11
-8.7166665554
 21
-5.8393616915
  0
LINE
  5
35A
100
AcDbEntity
  8
ASSI
100
AcDbLine
 62
7
  6
CONTINUOUS
 10
-8.7166665554
 20
-4.35
 11
-8.7166665554
 21
-5.8393616915
  0
LINE
  5
35B
100
AcDbEntity
  8
GUSCI_ESTERNI
100
AcDbLine
 62
7
  6
CONTINUOUS
 10
-8.7166665554
 20
-6.0776595354
 11
-8.7166665554
 21
-6.2563829184
  0
LINE
  5
35C
100
AcDbEntity
  8
ASSI
100
AcDbLine
 62
7
  6
CONTINUOUS
 10
-8.7166665554
 20
-6.0776595354
 11
-8.7166665554
 21
-6.2563829184
  0
LINE
  5
35D
100
AcDbEntity
  8
GUSCI_ESTERNI
100
AcDbLine
 62
253
  6
CONTINUOUS
 10
-8.6
 20
17.1431275916
 11
-8.6
 21
16.9
  0
LINE
  5
35E
100
AcDbEntity
  8
ASSI
100
AcDbLine
 62
253
  6
CONTINUOUS
 10
-8.6
 20
17.1431275916
 11
-8.6
 21
16.9
  0
LINE
  5
35F
100
AcDbEntity
  8
GUSCI_ESTERNI
100
AcDbLine
 62
253
  6
CONTINUOUS
 10
-8.6
 20
-13.1568724084
 11
-8.6
 21
-13.4
  0
LINE
  5
360
100
AcDbEntity
  8
ASSI
100
AcDbLine
 62
253
  6
CONTINUOUS
 10
-8.6
 20
-13.1568724084
 11
-8.6
 21
-13.4
  0
LINE
  5
361
100
AcDbEntity
  8
GUSCI_ESTERNI
100
AcDbLine
 62
253
  6
CONTINUOUS
 10
-8.6
 20
-17.1431275916
 11
-8.6
 21
-16.9
  0
LINE
  5
362
100
AcDbEntity
  8
ASSI
100
AcDbLine
 62
253
  6
CONTINUOUS
 10
-8.6
 20
-17.1431275916
 11
-8.6
 21
-16.9
  0
LINE
  5
363
100
AcDbEntity
  8
GUSCI_ESTERNI
100
AcDbLine
 62
253
  6
CONTINUOUS
 10
-8.6
 20
13.1568724084
 11
-8.6
 21
13.4
  0
LINE
  5
364
100
AcDbEntity
  8
ASSI
100
AcDbLine
 62
253
  6
CONTINUOUS
 10
-8.6
 20
13.1568724084
 11
-8.6
 21
13.4
  0
LINE
  5
365
100
AcDbEntity
  8
0
100
AcDbLine
 62
253
  6
CONTINUOUS
 10
-8.5131674569
 20
23.5581814706
 11
-8.5131674569
 21
22.3868325431
  0
LINE
  5
366
100
AcDbEntity
  8
ASSI
100
AcDbLine
 62
253
  6
CONTINUOUS
 10
-8.5131674569
 20
23.5581814706
 11
-8.5131674569
 21
22.3868325431
  0
LINE
  5
367
100
AcDbEntity
  8
0
100
AcDbLine
 62
253
  6
CONTINUOUS
 10
-8.5131674569
 20
-22.3868325431
 11
-8.5131674569
 21
-23.5581814706
  0
LINE
  5
368
100
AcDbEntity
  8
ASSI
100
AcDbLine
 62
253
  6
CONTINUOUS
 10
-8.5131674569
 20
-22.3868325431
 11
-8.5131674569
 21
-23.5581814706
  0
LINE
  5
369
100
AcDbEntity
  8
0
100
AcDbLine
 62
7
  6
CONTINUOUS
 10
-8.5
 20
23.1226497308
 11
-8.5
 21
22.4
  0
LINE
  5
36A
100
AcDbEntity
  8
ASSI
100
AcDbLine
 62
7
  6
CONTINUOUS
 10
-8.5
 20
23.1226497308
 11
-8.5
 21
22.4
  0
LINE
  5
36B
100
AcDbEntity
  8
0
100
AcDbLine
 62
7
  6
CONTINUOUS
 10
-8.5
 20
-22.4
 11
-8.5
 21
-23.1226497308
  0
LINE
  5
36C
100
AcDbEntity
  8
ASSI
100
AcDbLine
 62
7
  6
CONTINUOUS
 10
-8.5
 20
-22.4
 11
-8.5
 21
-23.1226497308
  0
LINE
  5
36D
100
AcDbEntity
  8
GUSCI_ESTERNI
100
AcDbLine
 62
7
  6
CONTINUOUS
 10
-8.425
 20
-6.2563829184
 11
-8.425
 21
-4.35
  0
LINE
  5
36E
100
AcDbEntity
  8
ASSI
100
AcDbLine
 62
7
  6
CONTINUOUS
 10
-8.425
 20
-6.2563829184
 11
-8.425
 21
-4.35
  0
LINE
  5
36F
100
AcDbEntity
  8
0
100
AcDbLine
 62
7
  6
CONTINUOUS
 10
-9.2868325431
 20
23.5581814706
 11
-9.3
 21
23.1226497308
  0
LINE
  5
370
100
AcDbEntity
  8
ASSI
100
AcDbLine
 62
7
  6
CONTINUOUS
 10
-9.2868325431
 20
23.5581814706
 11
-9.3
 21
23.1226497308
  0
LINE
  5
371
100
AcDbEntity
  8
0
100
AcDbLine
 62
253
  6
CONTINUOUS
 10
10.6
 20
22.3999999999
 11
10.5826210875
 21
22.3825449351
  0
LINE
  5
372
100
AcDbEntity
  8
ASSI
100
AcDbLine
 62
253
  6
CONTINUOUS
 10
10.6
 20
22.3999999999
 11
10.5826210875
 21
22.3825449351
  0
LINE
  5
373
100
AcDbEntity
  8
0
100
AcDbLine
 62
253
  6
CONTINUOUS
 10
10.400030461
 20
24.5
 11
10.3868630041
 21
24.4868325431
  0
LINE
  5
374
100
AcDbEntity
  8
ASSI
100
AcDbLine
 62
253
  6
CONTINUOUS
 10
10.400030461
 20
24.5
 11
10.3868630041
 21
24.4868325431
  0
LINE
  5
375
100
AcDbEntity
  8
0
100
AcDbLine
 62
253
  6
CONTINUOUS
 10
10.6
 20
24.300030461
 11
10.5868325431
 21
24.2868630041
  0
LINE
  5
376
100
AcDbEntity
  8
ASSI
100
AcDbLine
 62
253
  6
CONTINUOUS
 10
10.6
 20
24.300030461
 11
10.5868325431
 21
24.2868630041
  0
LINE
  5
377
100
AcDbEntity
  8
RACCORDO
100
AcDbLine
 62
253
  6
CONTINUOUS
 10
0.75
 20
14.1499428846
 11
0.7325462644
 21
14.132489149
  0
LINE
  5
378
100
AcDbEntity
  8
0
100
AcDbLine
 62
7
  6
CONTINUOUS
 10
9.3
 20
22.4
 11
9.2868325431
 21
22.3868325431
  0
LINE
  5
379
100
AcDbEntity
  8
ASSI
100
AcDbLine
 62
7
  6
CONTINUOUS
 10
9.3
 20
22.4
 11
9.2868325431
 21
22.3868325431
  0
LINE
  5
37A
100
AcDbEntity
  8
DRAFT
100
AcDbLine
 62
7
  6
CONTINUOUS
 10
0.0
 20
11.65
 11
0.0130903017
 21
11.6630903017
  0
LINE
  5
37B
100
AcDbEntity
  8
0
100
AcDbLine
 62
7
  6
CONTINUOUS
 10
1.8166667461
 20
-9.75
 11
2.3166667461
 21
-9.75
  0
LINE
  5
37C
100
AcDbEntity
  8
0
100
AcDbLine
 62
7
  6
CONTINUOUS
 10
4.4
 20
-9.75
 11
5.15
 21
-9.75
  0
LINE
  5
37D
100
AcDbEntity
  8
GUSCI_ESTERNI
100
AcDbLine
 62
7
  6
CONTINUOUS
 10
-10.85
 20
-8.9183769566
 11
-9.65
 21
-8.9365154107
  0
LINE
  5
37E
100
AcDbEntity
  8
ASSI
100
AcDbLine
 62
7
  6
CONTINUOUS
 10
-10.85
 20
-8.9183769566
 11
-9.65
 21
-8.9365154107
  0
LINE
  5
37F
100
AcDbEntity
  8
GUSCI_ESTERNI
100
AcDbLine
 62
7
  6
CONTINUOUS
 10
-10.35
 20
-6.1968084574
 11
-10.175
 21
-6.2563829184
  0
LINE
  5
380
100
AcDbEntity
  8
ASSI
100
AcDbLine
 62
7
  6
CONTINUOUS
 10
-10.35
 20
-6.1968084574
 11
-10.175
 21
-6.2563829184
  0
LINE
  5
381
100
AcDbEntity
  8
GUSCI_ESTERNI
100
AcDbLine
 62
7
  6
CONTINUOUS
 10
-9.4166665554
 20
-6.1968084574
 11
-9.2416665554
 21
-6.2563829184
  0
LINE
  5
382
100
AcDbEntity
  8
ASSI
100
AcDbLine
 62
7
  6
CONTINUOUS
 10
-9.4166665554
 20
-6.1968084574
 11
-9.2416665554
 21
-6.2563829184
  0
LINE
  5
383
100
AcDbEntity
  8
GUSCI_ESTERNI
100
AcDbLine
 62
7
  6
CONTINUOUS
 10
-7.725
 20
-6.1968084574
 11
-7.55
 21
-6.2563829184
  0
LINE
  5
384
100
AcDbEntity
  8
ASSI
100
AcDbLine
 62
7
  6
CONTINUOUS
 10
-7.725
 20
-6.1968084574
 11
-7.55
 21
-6.2563829184
  0
LINE
  5
385
100
AcDbEntity
  8
GUSCI_ESTERNI
100
AcDbLine
 62
7
  6
CONTINUOUS
 10
-10.0583334446
 20
-6.0180850744
 11
-10.175
 21
-5.9585106134
  0
LINE
  5
386
100
AcDbEntity
  8
ASSI
100
AcDbLine
 62
7
  6
CONTINUOUS
 10
-10.0583334446
 20
-6.0180850744
 11
-10.175
 21
-5.9585106134
  0
LINE
  5
387
100
AcDbEntity
  8
GUSCI_ESTERNI
100
AcDbLine
 62
7
  6
CONTINUOUS
 10
-9.125
 20
-6.0180850744
 11
-9.2416665554
 21
-5.9585106134
  0
LINE
  5
388
100
AcDbEntity
  8
ASSI
100
AcDbLine
 62
7
  6
CONTINUOUS
 10
-9.125
 20
-6.0180850744
 11
-9.2416665554
 21
-5.9585106134
  0
LINE
  5
389
100
AcDbEntity
  8
GUSCI_ESTERNI
100
AcDbLine
 62
7
  6
CONTINUOUS
 10
-7.4333332777
 20
-6.0180850744
 11
-7.55
 21
-5.9585106134
  0
LINE
  5
38A
100
AcDbEntity
  8
ASSI
100
AcDbLine
 62
7
  6
CONTINUOUS
 10
-7.4333332777
 20
-6.0180850744
 11
-7.55
 21
-5.9585106134
  0
LINE
  5
38B
100
AcDbEntity
  8
GUSCI_ESTERNI
100
AcDbLine
 62
7
  6
CONTINUOUS
 10
-6.5
 20
-6.0180850744
 11
-6.6166666389
 21
-5.9585106134
  0
LINE
  5
38C
100
AcDbEntity
  8
ASSI
100
AcDbLine
 62
7
  6
CONTINUOUS
 10
-6.5
 20
-6.0180850744
 11
-6.6166666389
 21
-5.9585106134
  0
LINE
  5
38D
100
AcDbEntity
  8
0
100
AcDbLine
 62
253
  6
CONTINUOUS
 10
10.3868630041
 20
-24.4868325431
 11
10.400030461
 21
-24.5
  0
LINE
  5
38E
100
AcDbEntity
  8
ASSI
100
AcDbLine
 62
253
  6
CONTINUOUS
 10
10.3868630041
 20
-24.4868325431
 11
10.400030461
 21
-24.5
  0
LINE
  5
38F
100
AcDbEntity
  8
0
100
AcDbLine
 62
253
  6
CONTINUOUS
 10
10.5868325431
 20
-24.286863004
 11
10.6
 21
-24.300030461
  0
LINE
  5
390
100
AcDbEntity
  8
ASSI
100
AcDbLine
 62
253
  6
CONTINUOUS
 10
10.5868325431
 20
-24.286863004
 11
10.6
 21
-24.300030461
  0
LINE
  5
391
100
AcDbEntity
  8
0
100
AcDbLine
 62
7
  6
CONTINUOUS
 10
9.3
 20
-22.4
 11
9.2868325431
 21
-22.3868325431
  0
LINE
  5
392
100
AcDbEntity
  8
ASSI
100
AcDbLine
 62
7
  6
CONTINUOUS
 10
9.3
 20
-22.4
 11
9.2868325431
 21
-22.3868325431
  0
LINE
  5
393
100
AcDbEntity
  8
0
100
AcDbLine
 62
253
  6
CONTINUOUS
 10
10.5826210875
 20
-22.3825449351
 11
10.6000000646
 21
-22.3999999354
  0
LINE
  5
394
100
AcDbEntity
  8
ASSI
100
AcDbLine
 62
253
  6
CONTINUOUS
 10
10.5826210875
 20
-22.3825449351
 11
10.6000000646
 21
-22.3999999354
  0
LINE
  5
395
100
AcDbEntity
  8
GUSCI_ESTERNI
100
AcDbLine
 62
7
  6
CONTINUOUS
 10
-7.8416667223
 20
-6.0776595354
 11
-7.725
 21
-6.1968084574
  0
LINE
  5
396
100
AcDbEntity
  8
ASSI
100
AcDbLine
 62
7
  6
CONTINUOUS
 10
-7.8416667223
 20
-6.0776595354
 11
-7.725
 21
-6.1968084574
  0
LINE
  5
397
100
AcDbEntity
  8
GUSCI_ESTERNI
100
AcDbLine
 62
7
  6
CONTINUOUS
 10
-7.55
 20
-5.9585106134
 11
-7.6083332777
 21
-5.8989361525
  0
LINE
  5
398
100
AcDbEntity
  8
ASSI
100
AcDbLine
 62
7
  6
CONTINUOUS
 10
-7.55
 20
-5.9585106134
 11
-7.6083332777
 21
-5.8989361525
  0
LINE
  5
399
100
AcDbEntity
  8
GUSCI_ESTERNI
100
AcDbLine
 62
7
  6
CONTINUOUS
 10
-6.9666666389
 20
-6.0180850744
 11
-6.7916666389
 21
-6.1968084574
  0
LINE
  5
39A
100
AcDbEntity
  8
ASSI
100
AcDbLine
 62
7
  6
CONTINUOUS
 10
-6.9666666389
 20
-6.0180850744
 11
-6.7916666389
 21
-6.1968084574
  0
LINE
  5
39B
100
AcDbEntity
  8
GUSCI_ESTERNI
100
AcDbLine
 62
7
  6
CONTINUOUS
 10
-6.6166666389
 20
-5.9585106134
 11
-6.675
 21
-5.8989361525
  0
LINE
  5
39C
100
AcDbEntity
  8
ASSI
100
AcDbLine
 62
7
  6
CONTINUOUS
 10
-6.6166666389
 20
-5.9585106134
 11
-6.675
 21
-5.8989361525
  0
LINE
  5
39D
100
AcDbEntity
  8
GUSCI_ESTERNI
100
AcDbLine
 62
7
  6
CONTINUOUS
 10
-7.6083332777
 20
-5.8989361525
 11
-7.6666667223
 21
-5.7797872305
  0
LINE
  5
39E
100
AcDbEntity
  8
ASSI
100
AcDbLine
 62
7
  6
CONTINUOUS
 10
-7.6083332777
 20
-5.8989361525
 11
-7.6666667223
 21
-5.7797872305
  0
LINE
  5
39F
100
AcDbEntity
  8
GUSCI_ESTERNI
100
AcDbLine
 62
7
  6
CONTINUOUS
 10
-6.675
 20
-5.8989361525
 11
-6.7333333611
 21
-5.7797872305
  0
LINE
  5
3A0
100
AcDbEntity
  8
ASSI
100
AcDbLine
 62
7
  6
CONTINUOUS
 10
-6.675
 20
-5.8989361525
 11
-6.7333333611
 21
-5.7797872305
  0
LINE
  5
3A1
100
AcDbEntity
  8
GUSCI_ESTERNI
100
AcDbLine
 62
7
  6
CONTINUOUS
 10
-7.9583332777
 20
-5.7797872305
 11
-7.8416667223
 21
-6.0776595354
  0
LINE
  5
3A2
100
AcDbEntity
  8
ASSI
100
AcDbLine
 62
7
  6
CONTINUOUS
 10
-7.9583332777
 20
-5.7797872305
 11
-7.8416667223
 21
-6.0776595354
  0
LINE
  5
3A3
100
AcDbEntity
  8
0
100
AcDbLine
 62
7
  6
CONTINUOUS
 10
-8.5131674569
 20
23.5581814706
 11
-8.5
 21
23.1226497308
  0
LINE
  5
3A4
100
AcDbEntity
  8
ASSI
100
AcDbLine
 62
7
  6
CONTINUOUS
 10
-8.5131674569
 20
23.5581814706
 11
-8.5
 21
23.1226497308
  0
LINE
  5
3A5
100
AcDbEntity
  8
0
100
AcDbLine
 62
253
  6
CONTINUOUS
 10
-7.3982849591
 20
23.1226497308
 11
-7.4135581657
 21
23.6278320349
  0
LINE
  5
3A6
100
AcDbEntity
  8
ASSI
100
AcDbLine
 62
253
  6
CONTINUOUS
 10
-7.3982849591
 20
23.1226497308
 11
-7.4135581657
 21
23.6278320349
  0
LINE
  5
3A7
100
AcDbEntity
  8
0
100
AcDbLine
 62
253
  6
CONTINUOUS
 10
-7.2
 20
23.3515746082
 11
-7.2135886019
 21
23.8010362971
  0
LINE
  5
3A8
100
AcDbEntity
  8
ASSI
100
AcDbLine
 62
253
  6
CONTINUOUS
 10
-7.2
 20
23.3515746082
 11
-7.2135886019
 21
23.8010362971
  0
LINE
  5
3A9
100
AcDbEntity
  8
GUSCI_ESTERNI
100
AcDbLine
 62
7
  6
CONTINUOUS
 10
-7.9583332777
 20
-4.35
 11
-7.9583332777
 21
-5.7797872305
  0
LINE
  5
3AA
100
AcDbEntity
  8
ASSI
100
AcDbLine
 62
7
  6
CONTINUOUS
 10
-7.9583332777
 20
-4.35
 11
-7.9583332777
 21
-5.7797872305
  0
LINE
  5
3AB
100
AcDbEntity
  8
GUSCI_ESTERNI
100
AcDbLine
 62
7
  6
CONTINUOUS
 10
-7.6666667223
 20
-5.7797872305
 11
-7.6666667223
 21
-4.35
  0
LINE
  5
3AC
100
AcDbEntity
  8
ASSI
100
AcDbLine
 62
7
  6
CONTINUOUS
 10
-7.6666667223
 20
-5.7797872305
 11
-7.6666667223
 21
-4.35
  0
LINE
  5
3AD
100
AcDbEntity
  8
0
100
AcDbLine
 62
253
  6
CONTINUOUS
 10
-7.4139945176
 20
-24.2368706193
 11
-7.4139945176
 21
-23.8443359174
  0
LINE
  5
3AE
100
AcDbEntity
  8
ASSI
100
AcDbLine
 62
253
  6
CONTINUOUS
 10
-7.4139945176
 20
-24.2368706193
 11
-7.4139945176
 21
-23.8443359174
  0
LINE
  5
3AF
100
AcDbEntity
  8
0
100
AcDbLine
 62
253
  6
CONTINUOUS
 10
-7.4139945176
 20
23.8443375673
 11
-7.4139945176
 21
24.2368735057
  0
LINE
  5
3B0
100
AcDbEntity
  8
ASSI
100
AcDbLine
 62
253
  6
CONTINUOUS
 10
-7.4139945176
 20
23.8443375673
 11
-7.4139945176
 21
24.2368735057
  0
LINE
  5
3B1
100
AcDbEntity
  8
0
100
AcDbLine
 62
253
  6
CONTINUOUS
 10
-7.2140249785
 20
-24.2368706193
 11
-7.2140249785
 21
-23.8443375673
  0
LINE
  5
3B2
100
AcDbEntity
  8
ASSI
100
AcDbLine
 62
253
  6
CONTINUOUS
 10
-7.2140249785
 20
-24.2368706193
 11
-7.2140249785
 21
-23.8443375673
  0
LINE
  5
3B3
100
AcDbEntity
  8
0
100
AcDbLine
 62
253
  6
CONTINUOUS
 10
-7.2140249785
 20
23.8443375673
 11
-7.2140249785
 21
24.2368706193
  0
LINE
  5
3B4
100
AcDbEntity
  8
ASSI
100
AcDbLine
 62
253
  6
CONTINUOUS
 10
-7.2140249785
 20
23.8443375673
 11
-7.2140249785
 21
24.2368706193
  0
LINE
  5
3B5
100
AcDbEntity
  8
0
100
AcDbLine
 62
7
  6
CONTINUOUS
 10
-7.2
 20
24.300030461
 11
-7.2
 21
22.4
  0
LINE
  5
3B6
100
AcDbEntity
  8
ASSI
100
AcDbLine
 62
7
  6
CONTINUOUS
 10
-7.2
 20
24.300030461
 11
-7.2
 21
22.4
  0
LINE
  5
3B7
100
AcDbEntity
  8
0
100
AcDbLine
 62
7
  6
CONTINUOUS
 10
-7.2
 20
-22.4
 11
-7.2
 21
-24.300030461
  0
LINE
  5
3B8
100
AcDbEntity
  8
ASSI
100
AcDbLine
 62
7
  6
CONTINUOUS
 10
-7.2
 20
-22.4
 11
-7.2
 21
-24.300030461
  0
LINE
  5
3B9
100
AcDbEntity
  8
GUSCI_ESTERNI
100
AcDbLine
 62
7
  6
CONTINUOUS
 10
-7.025
 20
-4.35
 11
-7.025
 21
-5.7797872305
  0
LINE
  5
3BA
100
AcDbEntity
  8
ASSI
100
AcDbLine
 62
7
  6
CONTINUOUS
 10
-7.025
 20
-4.35
 11
-7.025
 21
-5.7797872305
  0
LINE
  5
3BB
100
AcDbEntity
  8
GUSCI_ESTERNI
100
AcDbLine
 62
7
  6
CONTINUOUS
 10
-6.7333333611
 20
-5.7797872305
 11
-6.7333333611
 21
-4.35
  0
LINE
  5
3BC
100
AcDbEntity
  8
ASSI
100
AcDbLine
 62
7
  6
CONTINUOUS
 10
-6.7333333611
 20
-5.7797872305
 11
-6.7333333611
 21
-4.35
  0
LINE
  5
3BD
100
AcDbEntity
  8
0
100
AcDbLine
 62
7
  6
CONTINUOUS
 10
-6.6435
 20
-13.4
 11
-6.6435
 21
-16.9
  0
LINE
  5
3BE
100
AcDbEntity
  8
0
100
AcDbLine
 62
7
  6
CONTINUOUS
 10
-6.6435
 20
13.4
 11
-6.6435
 21
16.9
  0
LINE
  5
3BF
100
AcDbEntity
  8
GUSCI_ESTERNI
100
AcDbLine
 62
7
  6
CONTINUOUS
 10
-6.0916666597
 20
-4.35
 11
-6.0916666597
 21
-5.8393616915
  0
LINE
  5
3C0
100
AcDbEntity
  8
ASSI
100
AcDbLine
 62
7
  6
CONTINUOUS
 10
-6.0916666597
 20
-4.35
 11
-6.0916666597
 21
-5.8393616915
  0
LINE
  5
3C1
100
AcDbEntity
  8
GUSCI_ESTERNI
100
AcDbLine
 62
7
  6
CONTINUOUS
 10
-6.0916666597
 20
-6.0776595354
 11
-6.0916666597
 21
-6.2563829184
  0
LINE
  5
3C2
100
AcDbEntity
  8
ASSI
100
AcDbLine
 62
7
  6
CONTINUOUS
 10
-6.0916666597
 20
-6.0776595354
 11
-6.0916666597
 21
-6.2563829184
  0
LINE
  5
3C3
100
AcDbEntity
  8
0
100
AcDbLine
 62
7
  6
CONTINUOUS
 10
-8.5
 20
-23.1226497308
 11
-8.5131674569
 21
-23.5581814706
  0
LINE
  5
3C4
100
AcDbEntity
  8
ASSI
100
AcDbLine
 62
7
  6
CONTINUOUS
 10
-8.5
 20
-23.1226497308
 11
-8.5131674569
 21
-23.5581814706
  0
LINE
  5
3C5
100
AcDbEntity
  8
0
100
AcDbLine
 62
253
  6
CONTINUOUS
 10
-7.4135581409
 20
-23.6278312163
 11
-7.3982849591
 21
-23.1226497308
  0
LINE
  5
3C6
100
AcDbEntity
  8
ASSI
100
AcDbLine
 62
253
  6
CONTINUOUS
 10
-7.4135581409
 20
-23.6278312163
 11
-7.3982849591
 21
-23.1226497308
  0
LINE
  5
3C7
100
AcDbEntity
  8
0
100
AcDbLine
 62
253
  6
CONTINUOUS
 10
-7.2135886019
 20
-23.8010362971
 11
-7.2
 21
-23.3515746082
  0
LINE
  5
3C8
100
AcDbEntity
  8
ASSI
100
AcDbLine
 62
253
  6
CONTINUOUS
 10
-7.2135886019
 20
-23.8010362971
 11
-7.2
 21
-23.3515746082
  0
LINE
  5
3C9
100
AcDbEntity
  8
GUSCI_ESTERNI
100
AcDbLine
 62
7
  6
CONTINUOUS
 10
-9.65
 20
-5.7797872305
 11
-9.7083334446
 21
-5.8989361525
  0
LINE
  5
3CA
100
AcDbEntity
  8
ASSI
100
AcDbLine
 62
7
  6
CONTINUOUS
 10
-9.65
 20
-5.7797872305
 11
-9.7083334446
 21
-5.8989361525
  0
LINE
  5
3CB
100
AcDbEntity
  8
0
100
AcDbLine
 62
253
  6
CONTINUOUS
 10
11.1
 20
21.9000761524
 11
11.0825449351
 21
21.8826210875
  0
LINE
  5
3CC
100
AcDbEntity
  8
ASSI
100
AcDbLine
 62
253
  6
CONTINUOUS
 10
11.1
 20
21.9000761524
 11
11.0825449351
 21
21.8826210875
  0
LINE
  5
3CD
100
AcDbEntity
  8
RACCORDO
100
AcDbLine
 62
253
  6
CONTINUOUS
 10
2.2499428846
 20
12.65
 11
2.232489149
 21
12.6325462644
  0
LINE
  5
3CE
100
AcDbEntity
  8
RACCORDO
100
AcDbLine
 62
7
  6
CONTINUOUS
 10
0.0
 20
9.0
 11
0.0044395892
 21
9.0044395892
  0
LINE
  5
3CF
100
AcDbEntity
  8
GUSCI_ESTERNI
100
AcDbLine
 62
7
  6
CONTINUOUS
 10
-10.85
 20
-6.5471250861
 11
-5.45
 21
-6.5
  0
LINE
  5
3D0
100
AcDbEntity
  8
ASSI
100
AcDbLine
 62
7
  6
CONTINUOUS
 10
-10.85
 20
-6.5471250861
 11
-5.45
 21
-6.5
  0
LINE
  5
3D1
100
AcDbEntity
  8
DRAFT
100
AcDbLine
 62
7
  6
CONTINUOUS
 10
-5.45
 20
-6.5
 11
0.0
 21
-6.5
  0
LINE
  5
3D2
100
AcDbEntity
  8
DRAFT
100
AcDbLine
 62
7
  6
CONTINUOUS
 10
-5.45
 20
-6.4947634805
 11
-0.0052365195
 21
-6.4947634805
  0
LINE
  5
3D3
100
AcDbEntity
  8
GUSCI_ESTERNI
100
AcDbLine
 62
7
  6
CONTINUOUS
 10
-10.175
 20
-6.2563829184
 11
-9.9416665554
 21
-6.2563829184
  0
LINE
  5
3D4
100
AcDbEntity
  8
ASSI
100
AcDbLine
 62
7
  6
CONTINUOUS
 10
-10.175
 20
-6.2563829184
 11
-9.9416665554
 21
-6.2563829184
  0
LINE
  5
3D5
100
AcDbEntity
  8
GUSCI_ESTERNI
100
AcDbLine
 62
7
  6
CONTINUOUS
 10
-9.2416665554
 20
-6.2563829184
 11
-9.0083334446
 21
-6.2563829184
  0
LINE
  5
3D6
100
AcDbEntity
  8
ASSI
100
AcDbLine
 62
7
  6
CONTINUOUS
 10
-9.2416665554
 20
-6.2563829184
 11
-9.0083334446
 21
-6.2563829184
  0
LINE
  5
3D7
100
AcDbEntity
  8
GUSCI_ESTERNI
100
AcDbLine
 62
7
  6
CONTINUOUS
 10
-8.7166665554
 20
-6.2563829184
 11
-8.425
 21
-6.2563829184
  0
LINE
  5
3D8
100
AcDbEntity
  8
ASSI
100
AcDbLine
 62
7
  6
CONTINUOUS
 10
-8.7166665554
 20
-6.2563829184
 11
-8.425
 21
-6.2563829184
  0
LINE
  5
3D9
100
AcDbEntity
  8
GUSCI_ESTERNI
100
AcDbLine
 62
7
  6
CONTINUOUS
 10
-7.55
 20
-6.2563829184
 11
-7.3166667223
 21
-6.2563829184
  0
LINE
  5
3DA
100
AcDbEntity
  8
ASSI
100
AcDbLine
 62
7
  6
CONTINUOUS
 10
-7.55
 20
-6.2563829184
 11
-7.3166667223
 21
-6.2563829184
  0
LINE
  5
3DB
100
AcDbEntity
  8
GUSCI_ESTERNI
100
AcDbLine
 62
7
  6
CONTINUOUS
 10
-6.6166666389
 20
-6.2563829184
 11
-6.3833333194
 21
-6.2563829184
  0
LINE
  5
3DC
100
AcDbEntity
  8
ASSI
100
AcDbLine
 62
7
  6
CONTINUOUS
 10
-6.6166666389
 20
-6.2563829184
 11
-6.3833333194
 21
-6.2563829184
  0
LINE
  5
3DD
100
AcDbEntity
  8
GUSCI_ESTERNI
100
AcDbLine
 62
7
  6
CONTINUOUS
 10
-6.0916666597
 20
-6.2563829184
 11
-5.8
 21
-6.2563829184
  0
LINE
  5
3DE
100
AcDbEntity
  8
ASSI
100
AcDbLine
 62
7
  6
CONTINUOUS
 10
-6.0916666597
 20
-6.2563829184
 11
-5.8
 21
-6.2563829184
  0
LINE
  5
3DF
100
AcDbEntity
  8
0
100
AcDbLine
 62
7
  6
CONTINUOUS
 10
-4.8900000429
 20
-6.15
 11
-4.6200000429
 21
-6.15
  0
LINE
  5
3E0
100
AcDbEntity
  8
0
100
AcDbLine
 62
7
  6
CONTINUOUS
 10
-3.99
 20
-6.15
 11
-3.72
 21
-6.15
  0
LINE
  5
3E1
100
AcDbEntity
  8
GUSCI_ESTERNI
100
AcDbLine
 62
7
  6
CONTINUOUS
 10
-6.7916666389
 20
-6.1968084574
 11
-6.6166666389
 21
-6.2563829184
  0
LINE
  5
3E2
100
AcDbEntity
  8
ASSI
100
AcDbLine
 62
7
  6
CONTINUOUS
 10
-6.7916666389
 20
-6.1968084574
 11
-6.6166666389
 21
-6.2563829184
  0
LINE
  5
3E3
100
AcDbEntity
  8
0
100
AcDbLine
 62
253
  6
CONTINUOUS
 10
11.0825449351
 20
-21.8826210875
 11
11.1
 21
-21.9000761524
  0
LINE
  5
3E4
100
AcDbEntity
  8
ASSI
100
AcDbLine
 62
253
  6
CONTINUOUS
 10
11.0825449351
 20
-21.8826210875
 11
11.1
 21
-21.9000761524
  0
LINE
  5
3E5
100
AcDbEntity
  8
GUSCI_ESTERNI
100
AcDbLine
 62
7
  6
CONTINUOUS
 10
-5.8
 20
-6.2563829184
 11
-5.8
 21
-4.35
  0
LINE
  5
3E6
100
AcDbEntity
  8
ASSI
100
AcDbLine
 62
7
  6
CONTINUOUS
 10
-5.8
 20
-6.2563829184
 11
-5.8
 21
-4.35
  0
LINE
  5
3E7
100
AcDbEntity
  8
GUSCI_ESTERNI
100
AcDbLine
 62
7
  6
CONTINUOUS
 10
-5.45
 20
20.6373394663
 11
-5.45
 21
17.675
  0
LINE
  5
3E8
100
AcDbEntity
  8
ASSI
100
AcDbLine
 62
7
  6
CONTINUOUS
 10
-5.45
 20
20.8225121884
 11
-5.45
 21
17.675
  0
LINE
  5
3E9
100
AcDbEntity
  8
GUSCI_ESTERNI
100
AcDbLine
 62
7
  6
CONTINUOUS
 10
-5.45
 20
17.65
 11
-5.45
 21
16.9
  0
LINE
  5
3EA
100
AcDbEntity
  8
ASSI
100
AcDbLine
 62
7
  6
CONTINUOUS
 10
-5.45
 20
17.65
 11
-5.45
 21
16.9
  0
LINE
  5
3EB
100
AcDbEntity
  8
DRAFT
100
AcDbLine
 62
7
  6
CONTINUOUS
 10
-5.45
 20
12.65
 11
-5.45
 21
11.6674537356
  0
LINE
  5
3EC
100
AcDbEntity
  8
GUSCI_ESTERNI
100
AcDbLine
 62
7
  6
CONTINUOUS
 10
-5.45
 20
12.625
 11
-5.45
 21
-1.1
  0
LINE
  5
3ED
100
AcDbEntity
  8
ASSI
100
AcDbLine
 62
7
  6
CONTINUOUS
 10
-5.45
 20
12.625
 11
-5.45
 21
-1.1
  0
LINE
  5
3EE
100
AcDbEntity
  8
GUSCI_ESTERNI
100
AcDbLine
 62
7
  6
CONTINUOUS
 10
-5.45
 20
-1.9
 11
-5.45
 21
-4.0
  0
LINE
  5
3EF
100
AcDbEntity
  8
GUSCI_ESTERNI
100
AcDbLine
 62
7
  6
CONTINUOUS
 10
-5.45
 20
-6.5
 11
-5.45
 21
-13.4
  0
LINE
  5
3F0
100
AcDbEntity
  8
RACCORDO
100
AcDbLine
 62
7
  6
CONTINUOUS
 10
-5.45
 20
-21.7587268678
 11
-5.45
 21
-17.15
  0
LINE
  5
3F1
100
AcDbEntity
  8
SMUSSO
100
AcDbLine
 62
7
  6
CONTINUOUS
 10
-5.45
 20
-17.15
 11
-5.45
 21
-16.9
  0
LINE
  5
3F2
100
AcDbEntity
  8
GUSCI_ESTERNI
100
AcDbLine
 62
7
  6
CONTINUOUS
 10
-5.45
 20
-20.6373420087
 11
-5.45
 21
-16.9
  0
LINE
  5
3F3
100
AcDbEntity
  8
ASSI
100
AcDbLine
 62
7
  6
CONTINUOUS
 10
-5.45
 20
-20.8225266207
 11
-5.45
 21
-16.9
  0
LINE
  5
3F4
100
AcDbEntity
  8
SMUSSO
100
AcDbLine
 62
7
  6
CONTINUOUS
 10
-5.45
 20
-13.4
 11
-5.45
 21
-6.5
  0
LINE
  5
3F5
100
AcDbEntity
  8
DRAFT
100
AcDbLine
 62
7
  6
CONTINUOUS
 10
-5.45
 20
-6.4947634805
 11
-5.45
 21
-4.0052365195
  0
LINE
  5
3F6
100
AcDbEntity
  8
GUSCI_ESTERNI
100
AcDbLine
 62
7
  6
CONTINUOUS
 10
-5.45
 20
-6.4947634805
 11
-5.45
 21
-4.0052365195
  0
LINE
  5
3F7
100
AcDbEntity
  8
ASSI
100
AcDbLine
 62
7
  6
CONTINUOUS
 10
-5.45
 20
-13.4
 11
-5.45
 21
-1.9
  0
LINE
  5
3F8
100
AcDbEntity
  8
DRAFT
100
AcDbLine
 62
7
  6
CONTINUOUS
 10
-5.45
 20
-4.0
 11
-5.45
 21
-1.9
  0
LINE
  5
3F9
100
AcDbEntity
  8
DRAFT
100
AcDbLine
 62
7
  6
CONTINUOUS
 10
-5.45
 20
-1.1
 11
-5.45
 21
11.63
  0
LINE
  5
3FA
100
AcDbEntity
  8
SMUSSO
100
AcDbLine
 62
7
  6
CONTINUOUS
 10
-5.45
 20
12.65
 11
-5.45
 21
13.4
  0
LINE
  5
3FB
100
AcDbEntity
  8
GUSCI_ESTERNI
100
AcDbLine
 62
7
  6
CONTINUOUS
 10
-5.45
 20
12.65
 11
-5.45
 21
13.4
  0
LINE
  5
3FC
100
AcDbEntity
  8
ASSI
100
AcDbLine
 62
7
  6
CONTINUOUS
 10
-5.45
 20
12.65
 11
-5.45
 21
13.4
  0
LINE
  5
3FD
100
AcDbEntity
  8
SMUSSO
100
AcDbLine
 62
7
  6
CONTINUOUS
 10
-5.45
 20
16.9
 11
-5.45
 21
17.65
  0
LINE
  5
3FE
100
AcDbEntity
  8
DRAFT
100
AcDbLine
 62
7
  6
CONTINUOUS
 10
-5.45
 20
17.65
 11
-5.45
 21
18.6325462644
  0
LINE
  5
3FF
100
AcDbEntity
  8
RACCORDO
100
AcDbLine
 62
7
  6
CONTINUOUS
 10
-5.45
 20
18.67
 11
-5.45
 21
21.7586507125
  0
LINE
  5
400
100
AcDbEntity
  8
0
100
AcDbLine
 62
7
  6
CONTINUOUS
 10
-4.8900000429
 20
-4.35
 11
-4.8900000429
 21
-6.15
  0
LINE
  5
401
100
AcDbEntity
  8
0
100
AcDbLine
 62
7
  6
CONTINUOUS
 10
-4.6200000429
 20
-5.8436170578
 11
-4.6200000429
 21
-4.35
  0
LINE
  5
402
100
AcDbEntity
  8
0
100
AcDbLine
 62
7
  6
CONTINUOUS
 10
-4.45
 20
-23.7500380762
 11
-4.45
 21
-23.4179449472
  0
LINE
  5
403
100
AcDbEntity
  8
ASSI
100
AcDbLine
 62
7
  6
CONTINUOUS
 10
-4.45
 20
-23.7500380762
 11
-4.45
 21
-23.4179449472
  0
LINE
  5
404
100
AcDbEntity
  8
0
100
AcDbLine
 62
7
  6
CONTINUOUS
 10
-4.45
 20
-22.9820550528
 11
-4.45
 21
-22.4
  0
LINE
  5
405
100
AcDbEntity
  8
ASSI
100
AcDbLine
 62
7
  6
CONTINUOUS
 10
-4.45
 20
-22.9820550528
 11
-4.45
 21
-22.4
  0
LINE
  5
406
100
AcDbEntity
  8
0
100
AcDbLine
 62
7
  6
CONTINUOUS
 10
-4.45
 20
22.4
 11
-4.45
 21
22.9820550528
  0
LINE
  5
407
100
AcDbEntity
  8
ASSI
100
AcDbLine
 62
7
  6
CONTINUOUS
 10
-4.45
 20
22.4
 11
-4.45
 21
22.9820550528
  0
LINE
  5
408
100
AcDbEntity
  8
0
100
AcDbLine
 62
7
  6
CONTINUOUS
 10
-4.45
 20
23.4179449472
 11
-4.45
 21
23.7500380762
  0
LINE
  5
409
100
AcDbEntity
  8
ASSI
100
AcDbLine
 62
7
  6
CONTINUOUS
 10
-4.45
 20
23.4179449472
 11
-4.45
 21
23.7500380762
  0
LINE
  5
40A
100
AcDbEntity
  8
0
100
AcDbLine
 62
7
  6
CONTINUOUS
 10
-4.3539971429
 20
23.5393800954
 11
-4.3539971429
 21
22.8606199046
  0
LINE
  5
40B
100
AcDbEntity
  8
ASSI
100
AcDbLine
 62
7
  6
CONTINUOUS
 10
-4.3539971429
 20
23.5393800954
 11
-4.3539971429
 21
22.8606199046
  0
LINE
  5
40C
100
AcDbEntity
  8
0
100
AcDbLine
 62
7
  6
CONTINUOUS
 10
-4.3539971429
 20
-22.8606199046
 11
-4.3539971429
 21
-23.5393800954
  0
LINE
  5
40D
100
AcDbEntity
  8
ASSI
100
AcDbLine
 62
7
  6
CONTINUOUS
 10
-4.3539971429
 20
-22.8606199046
 11
-4.3539971429
 21
-23.5393800954
  0
LINE
  5
40E
100
AcDbEntity
  8
0
100
AcDbLine
 62
253
  6
CONTINUOUS
 10
-4.3518840226
 20
-23.6519220988
 11
-4.3518840226
 21
-22.3018840226
  0
LINE
  5
40F
100
AcDbEntity
  8
ASSI
100
AcDbLine
 62
253
  6
CONTINUOUS
 10
-4.3518840226
 20
-23.6519220988
 11
-4.3518840226
 21
-22.3018840226
  0
LINE
  5
410
100
AcDbEntity
  8
0
100
AcDbLine
 62
253
  6
CONTINUOUS
 10
-4.3518840226
 20
22.3018840226
 11
-4.3518840226
 21
23.6519220988
  0
LINE
  5
411
100
AcDbEntity
  8
ASSI
100
AcDbLine
 62
253
  6
CONTINUOUS
 10
-4.3518840226
 20
22.3018840226
 11
-4.3518840226
 21
23.6519220988
  0
LINE
  5
412
100
AcDbEntity
  8
0
100
AcDbLine
 62
7
  6
CONTINUOUS
 10
-4.3499999785
 20
-5.8819149256
 11
-4.3499999785
 21
-5.5755318761
  0
LINE
  5
413
100
AcDbEntity
  8
0
100
AcDbLine
 62
7
  6
CONTINUOUS
 10
-4.2565
 20
-13.4
 11
-4.2565
 21
-16.9
  0
LINE
  5
414
100
AcDbEntity
  8
0
100
AcDbLine
 62
7
  6
CONTINUOUS
 10
-4.2565
 20
13.4
 11
-4.2565
 21
16.9
  0
LINE
  5
415
100
AcDbEntity
  8
0
100
AcDbLine
 62
7
  6
CONTINUOUS
 10
-3.99
 20
-4.35
 11
-3.99
 21
-6.15
  0
LINE
  5
416
100
AcDbEntity
  8
0
100
AcDbLine
 62
7
  6
CONTINUOUS
 10
5.45
 20
13.7
 11
5.15
 21
13.4
  0
LINE
  5
417
100
AcDbEntity
  8
GUSCI_ESTERNI
100
AcDbLine
 62
7
  6
CONTINUOUS
 10
-6.3833333194
 20
-6.0180850744
 11
-6.5
 21
-6.0180850744
  0
LINE
  5
418
100
AcDbEntity
  8
ASSI
100
AcDbLine
 62
7
  6
CONTINUOUS
 10
-6.3833333194
 20
-6.0180850744
 11
-6.5
 21
-6.0180850744
  0
LINE
  5
419
100
AcDbEntity
  8
GUSCI_ESTERNI
100
AcDbLine
 62
7
  6
CONTINUOUS
 10
-7.2583332777
 20
-6.0180850744
 11
-7.4333332777
 21
-6.0180850744
  0
LINE
  5
41A
100
AcDbEntity
  8
ASSI
100
AcDbLine
 62
7
  6
CONTINUOUS
 10
-7.2583332777
 20
-6.0180850744
 11
-7.4333332777
 21
-6.0180850744
  0
LINE
  5
41B
100
AcDbEntity
  8
GUSCI_ESTERNI
100
AcDbLine
 62
7
  6
CONTINUOUS
 10
-9.0083334446
 20
-6.0180850744
 11
-9.125
 21
-6.0180850744
  0
LINE
  5
41C
100
AcDbEntity
  8
ASSI
100
AcDbLine
 62
7
  6
CONTINUOUS
 10
-9.0083334446
 20
-6.0180850744
 11
-9.125
 21
-6.0180850744
  0
LINE
  5
41D
100
AcDbEntity
  8
GUSCI_ESTERNI
100
AcDbLine
 62
7
  6
CONTINUOUS
 10
-9.8833334446
 20
-6.0180850744
 11
-10.0583334446
 21
-6.0180850744
  0
LINE
  5
41E
100
AcDbEntity
  8
ASSI
100
AcDbLine
 62
7
  6
CONTINUOUS
 10
-9.8833334446
 20
-6.0180850744
 11
-10.0583334446
 21
-6.0180850744
  0
LINE
  5
41F
100
AcDbEntity
  8
0
100
AcDbLine
 62
7
  6
CONTINUOUS
 10
5.15
 20
-5.75
 11
4.65
 21
-5.75
  0
LINE
  5
420
100
AcDbEntity
  8
0
100
AcDbLine
 62
7
  6
CONTINUOUS
 10
2.5666667461
 20
-5.75
 11
1.8166667461
 21
-5.75
  0
LINE
  5
421
100
AcDbEntity
  8
RACCORDO
100
AcDbLine
 62
7
  6
CONTINUOUS
 10
-11.000493498
 20
-4.3977347721
 11
-10.9744618847
 21
-4.3977347721
  0
LINE
  5
422
100
AcDbEntity
  8
ASSI
100
AcDbLine
 62
7
  6
CONTINUOUS
 10
-11.000493498
 20
-4.3977347721
 11
-10.9744618847
 21
-4.3977347721
  0
LINE
  5
423
100
AcDbEntity
  8
RACCORDO
100
AcDbLine
 62
7
  6
CONTINUOUS
 10
10.9744618847
 20
-4.3977347721
 11
11.000493498
 21
-4.3977347721
  0
LINE
  5
424
100
AcDbEntity
  8
ASSI
100
AcDbLine
 62
7
  6
CONTINUOUS
 10
10.9744618847
 20
-4.3977347721
 11
11.000493498
 21
-4.3977347721
  0
LINE
  5
425
100
AcDbEntity
  8
0
100
AcDbLine
 62
7
  6
CONTINUOUS
 10
-3.72
 20
-4.35
 11
-3.99
 21
-4.35
  0
LINE
  5
426
100
AcDbEntity
  8
0
100
AcDbLine
 62
7
  6
CONTINUOUS
 10
-4.6200000429
 20
-4.35
 11
-4.8900000429
 21
-4.35
  0
LINE
  5
427
100
AcDbEntity
  8
GUSCI_ESTERNI
100
AcDbLine
 62
7
  6
CONTINUOUS
 10
-5.8
 20
-4.35
 11
-6.0916666597
 21
-4.35
  0
LINE
  5
428
100
AcDbEntity
  8
ASSI
100
AcDbLine
 62
7
  6
CONTINUOUS
 10
-5.8
 20
-4.35
 11
-6.0916666597
 21
-4.35
  0
LINE
  5
429
100
AcDbEntity
  8
GUSCI_ESTERNI
100
AcDbLine
 62
7
  6
CONTINUOUS
 10
-6.7333333611
 20
-4.35
 11
-7.025
 21
-4.35
  0
LINE
  5
42A
100
AcDbEntity
  8
ASSI
100
AcDbLine
 62
7
  6
CONTINUOUS
 10
-6.7333333611
 20
-4.35
 11
-7.025
 21
-4.35
  0
LINE
  5
42B
100
AcDbEntity
  8
GUSCI_ESTERNI
100
AcDbLine
 62
7
  6
CONTINUOUS
 10
-7.6666667223
 20
-4.35
 11
-7.9583332777
 21
-4.35
  0
LINE
  5
42C
100
AcDbEntity
  8
ASSI
100
AcDbLine
 62
7
  6
CONTINUOUS
 10
-7.6666667223
 20
-4.35
 11
-7.9583332777
 21
-4.35
  0
LINE
  5
42D
100
AcDbEntity
  8
GUSCI_ESTERNI
100
AcDbLine
 62
7
  6
CONTINUOUS
 10
-8.425
 20
-4.35
 11
-8.7166665554
 21
-4.35
  0
LINE
  5
42E
100
AcDbEntity
  8
ASSI
100
AcDbLine
 62
7
  6
CONTINUOUS
 10
-8.425
 20
-4.35
 11
-8.7166665554
 21
-4.35
  0
LINE
  5
42F
100
AcDbEntity
  8
GUSCI_ESTERNI
100
AcDbLine
 62
7
  6
CONTINUOUS
 10
-9.3583334446
 20
-4.35
 11
-9.65
 21
-4.35
  0
LINE
  5
430
100
AcDbEntity
  8
ASSI
100
AcDbLine
 62
7
  6
CONTINUOUS
 10
-9.3583334446
 20
-4.35
 11
-9.65
 21
-4.35
  0
LINE
  5
431
100
AcDbEntity
  8
GUSCI_ESTERNI
100
AcDbLine
 62
7
  6
CONTINUOUS
 10
-10.2916665554
 20
-4.35
 11
-10.5833334446
 21
-4.35
  0
LINE
  5
432
100
AcDbEntity
  8
ASSI
100
AcDbLine
 62
7
  6
CONTINUOUS
 10
-10.2916665554
 20
-4.35
 11
-10.5833334446
 21
-4.35
  0
LINE
  5
433
100
AcDbEntity
  8
DRAFT
100
AcDbLine
 62
7
  6
CONTINUOUS
 10
5.45
 20
-4.0052365195
 11
1.4552365195
 21
-4.0052365195
  0
LINE
  5
434
100
AcDbEntity
  8
DRAFT
100
AcDbLine
 62
7
  6
CONTINUOUS
 10
-0.0052365195
 20
-4.0052365195
 11
-5.45
 21
-4.0052365195
  0
LINE
  5
435
100
AcDbEntity
  8
DRAFT
100
AcDbLine
 62
7
  6
CONTINUOUS
 10
-5.45
 20
-4.0
 11
0.0
 21
-4.0
  0
LINE
  5
436
100
AcDbEntity
  8
DRAFT
100
AcDbLine
 62
7
  6
CONTINUOUS
 10
5.45
 20
-4.0
 11
1.45
 21
-4.0
  0
LINE
  5
437
100
AcDbEntity
  8
GUSCI_ESTERNI
100
AcDbLine
 62
7
  6
CONTINUOUS
 10
-10.85
 20
-3.9528749139
 11
-5.45
 21
-4.0
  0
LINE
  5
438
100
AcDbEntity
  8
ASSI
100
AcDbLine
 62
7
  6
CONTINUOUS
 10
-10.85
 20
-3.9528749139
 11
-5.45
 21
-4.0
  0
LINE
  5
439
100
AcDbEntity
  8
0
100
AcDbLine
 62
7
  6
CONTINUOUS
 10
5.15
 20
-13.4
 11
5.45
 21
-13.7
  0
LINE
  5
43A
100
AcDbEntity
  8
DRAFT
100
AcDbLine
 62
7
  6
CONTINUOUS
 10
0.0
 20
-6.5
 11
-0.0052365195
 21
-6.4947634805
  0
LINE
  5
43B
100
AcDbEntity
  8
0
100
AcDbLine
 62
7
  6
CONTINUOUS
 10
-3.72
 20
-5.8436170578
 11
-3.72
 21
-4.35
  0
LINE
  5
43C
100
AcDbEntity
  8
0
100
AcDbLine
 62
253
  6
CONTINUOUS
 10
-3.5806626995
 20
-23.6519203118
 11
-3.5806609125
 21
-22.3018840226
  0
LINE
  5
43D
100
AcDbEntity
  8
ASSI
100
AcDbLine
 62
253
  6
CONTINUOUS
 10
-3.5806626995
 20
-23.6519203118
 11
-3.5806609125
 21
-22.3018840226
  0
LINE
  5
43E
100
AcDbEntity
  8
0
100
AcDbLine
 62
253
  6
CONTINUOUS
 10
-3.5806609125
 20
22.3018840226
 11
-3.5806626995
 21
23.6519203118
  0
LINE
  5
43F
100
AcDbEntity
  8
ASSI
100
AcDbLine
 62
253
  6
CONTINUOUS
 10
-3.5806609125
 20
22.3018840226
 11
-3.5806626995
 21
23.6519203118
  0
LINE
  5
440
100
AcDbEntity
  8
0
100
AcDbLine
 62
7
  6
CONTINUOUS
 10
-3.5
 20
23.7325830113
 11
-3.5
 21
22.3825449351
  0
LINE
  5
441
100
AcDbEntity
  8
ASSI
100
AcDbLine
 62
7
  6
CONTINUOUS
 10
-3.5
 20
23.7325830113
 11
-3.5
 21
22.3825449351
  0
LINE
  5
442
100
AcDbEntity
  8
0
100
AcDbLine
 62
7
  6
CONTINUOUS
 10
-3.5
 20
-22.3825449351
 11
-3.5
 21
-23.7325830113
  0
LINE
  5
443
100
AcDbEntity
  8
ASSI
100
AcDbLine
 62
7
  6
CONTINUOUS
 10
-3.5
 20
-22.3825449351
 11
-3.5
 21
-23.7325830113
  0
LINE
  5
444
100
AcDbEntity
  8
0
100
AcDbLine
 62
7
  6
CONTINUOUS
 10
-3.45
 20
-5.8819149256
 11
-3.45
 21
-5.5755318761
  0
LINE
  5
445
100
AcDbEntity
  8
RACCORDO
100
AcDbLine
 62
253
  6
CONTINUOUS
 10
-2.25
 20
17.15
 11
-2.25
 21
16.9
  0
LINE
  5
446
100
AcDbEntity
  8
RACCORDO
100
AcDbLine
 62
253
  6
CONTINUOUS
 10
-2.25
 20
13.4
 11
-2.25
 21
13.15
  0
LINE
  5
447
100
AcDbEntity
  8
RACCORDO
100
AcDbLine
 62
253
  6
CONTINUOUS
 10
-2.25
 20
-13.15
 11
-2.25
 21
-13.4
  0
LINE
  5
448
100
AcDbEntity
  8
RACCORDO
100
AcDbLine
 62
253
  6
CONTINUOUS
 10
-2.25
 20
-16.9
 11
-2.25
 21
-17.15
  0
LINE
  5
449
100
AcDbEntity
  8
GUSCI_ESTERNI
100
AcDbLine
 62
7
  6
CONTINUOUS
 10
-7.025
 20
-5.7797872305
 11
-7.0833333611
 21
-5.8989361525
  0
LINE
  5
44A
100
AcDbEntity
  8
ASSI
100
AcDbLine
 62
7
  6
CONTINUOUS
 10
-7.025
 20
-5.7797872305
 11
-7.0833333611
 21
-5.8989361525
  0
LINE
  5
44B
100
AcDbEntity
  8
GUSCI_ESTERNI
100
AcDbLine
 62
7
  6
CONTINUOUS
 10
-9.7083334446
 20
-5.8989361525
 11
-9.7666665554
 21
-5.9585106134
  0
LINE
  5
44C
100
AcDbEntity
  8
ASSI
100
AcDbLine
 62
7
  6
CONTINUOUS
 10
-9.7083334446
 20
-5.8989361525
 11
-9.7666665554
 21
-5.9585106134
  0
LINE
  5
44D
100
AcDbEntity
  8
GUSCI_ESTERNI
100
AcDbLine
 62
7
  6
CONTINUOUS
 10
-9.7666665554
 20
-6.1968084574
 11
-9.5916665554
 21
-6.0180850744
  0
LINE
  5
44E
100
AcDbEntity
  8
ASSI
100
AcDbLine
 62
7
  6
CONTINUOUS
 10
-9.7666665554
 20
-6.1968084574
 11
-9.5916665554
 21
-6.0180850744
  0
LINE
  5
44F
100
AcDbEntity
  8
GUSCI_ESTERNI
100
AcDbLine
 62
7
  6
CONTINUOUS
 10
-8.7166665554
 20
-5.8393616915
 11
-8.8333334446
 21
-5.9585106134
  0
LINE
  5
450
100
AcDbEntity
  8
ASSI
100
AcDbLine
 62
7
  6
CONTINUOUS
 10
-8.7166665554
 20
-5.8393616915
 11
-8.8333334446
 21
-5.9585106134
  0
LINE
  5
451
100
AcDbEntity
  8
GUSCI_ESTERNI
100
AcDbLine
 62
7
  6
CONTINUOUS
 10
-8.8333334446
 20
-6.1968084574
 11
-8.7166665554
 21
-6.0776595354
  0
LINE
  5
452
100
AcDbEntity
  8
ASSI
100
AcDbLine
 62
7
  6
CONTINUOUS
 10
-8.8333334446
 20
-6.1968084574
 11
-8.7166665554
 21
-6.0776595354
  0
LINE
  5
453
100
AcDbEntity
  8
GUSCI_ESTERNI
100
AcDbLine
 62
7
  6
CONTINUOUS
 10
5.45
 20
-1.9
 11
6.05
 21
-1.9
  0
LINE
  5
454
100
AcDbEntity
  8
GUSCI_ESTERNI
100
AcDbLine
 62
7
  6
CONTINUOUS
 10
-5.45
 20
-1.9
 11
-6.05
 21
-1.9
  0
LINE
  5
455
100
AcDbEntity
  8
ASSI
100
AcDbLine
 62
7
  6
CONTINUOUS
 10
-5.45
 20
-1.9
 11
-6.05
 21
-1.9
  0
LINE
  5
456
100
AcDbEntity
  8
DRAFT
100
AcDbLine
 62
7
  6
CONTINUOUS
 10
0.0130903017
 20
-14.1980762114
 11
0.0
 21
-11.6
  0
LINE
  5
457
100
AcDbEntity
  8
RACCORDO
100
AcDbLine
 62
7
  6
CONTINUOUS
 10
-1.25
 20
16.1192235936
 11
-1.25
 21
14.1807764064
  0
LINE
  5
458
100
AcDbEntity
  8
RACCORDO
100
AcDbLine
 62
7
  6
CONTINUOUS
 10
-1.25
 20
-14.1807764064
 11
-1.25
 21
-16.1192235936
  0
LINE
  5
459
100
AcDbEntity
  8
0
100
AcDbLine
 62
7
  6
CONTINUOUS
 10
-0.8174550649
 20
23.7325830113
 11
-0.8174550649
 21
22.398254669
  0
LINE
  5
45A
100
AcDbEntity
  8
ASSI
100
AcDbLine
 62
7
  6
CONTINUOUS
 10
-0.8174550649
 20
23.7325830113
 11
-0.8174550649
 21
22.398254669
  0
LINE
  5
45B
100
AcDbEntity
  8
0
100
AcDbLine
 62
7
  6
CONTINUOUS
 10
-0.8174550649
 20
-23.7325830113
 11
-0.8174550649
 21
-22.398254669
  0
LINE
  5
45C
100
AcDbEntity
  8
ASSI
100
AcDbLine
 62
7
  6
CONTINUOUS
 10
-0.8174550649
 20
-23.7325830113
 11
-0.8174550649
 21
-22.398254669
  0
LINE
  5
45D
100
AcDbEntity
  8
0
100
AcDbLine
 62
7
  6
CONTINUOUS
 10
-0.8
 20
23.7500380762
 11
-0.8
 21
22.4
  0
LINE
  5
45E
100
AcDbEntity
  8
ASSI
100
AcDbLine
 62
7
  6
CONTINUOUS
 10
-0.8
 20
23.7500380762
 11
-0.8
 21
22.4
  0
LINE
  5
45F
100
AcDbEntity
  8
0
100
AcDbLine
 62
7
  6
CONTINUOUS
 10
-0.8
 20
-22.4
 11
-0.8
 21
-23.7500380762
  0
LINE
  5
460
100
AcDbEntity
  8
ASSI
100
AcDbLine
 62
7
  6
CONTINUOUS
 10
-0.8
 20
-22.4
 11
-0.8
 21
-23.7500380762
  0
LINE
  5
461
100
AcDbEntity
  8
RACCORDO
100
AcDbLine
 62
7
  6
CONTINUOUS
 10
-0.75
 20
16.1500571154
 11
-0.75
 21
14.1499428846
  0
LINE
  5
462
100
AcDbEntity
  8
RACCORDO
100
AcDbLine
 62
7
  6
CONTINUOUS
 10
-0.7325462644
 20
16.167510851
 11
-0.7325462644
 21
14.132489149
  0
LINE
  5
463
100
AcDbEntity
  8
DRAFT
100
AcDbLine
 62
7
  6
CONTINUOUS
 10
-0.0052365195
 20
-6.4947634805
 11
-0.0052365195
 21
-4.0052365195
  0
LINE
  5
464
100
AcDbEntity
  8
RACCORDO
100
AcDbLine
 62
7
  6
CONTINUOUS
 10
0.0
 20
-20.7586887894
 11
0.0
 21
-11.6
  0
LINE
  5
465
100
AcDbEntity
  8
DRAFT
100
AcDbLine
 62
7
  6
CONTINUOUS
 10
0.0
 20
-6.5
 11
0.0
 21
-4.0
  0
LINE
  5
466
100
AcDbEntity
  8
DRAFT
100
AcDbLine
 62
7
  6
CONTINUOUS
 10
0.0
 20
9.0
 11
0.0
 21
11.65
  0
LINE
  5
467
100
AcDbEntity
  8
RACCORDO
100
AcDbLine
 62
7
  6
CONTINUOUS
 10
0.0130903017
 20
-19.7542872771
 11
0.0130903017
 21
-14.1980762114
  0
LINE
  5
468
100
AcDbEntity
  8
RACCORDO
100
AcDbLine
 62
7
  6
CONTINUOUS
 10
0.0130903017
 20
10.0044015123
 11
0.0130903017
 21
11.6630903017
  0
LINE
  5
469
100
AcDbEntity
  8
GUSCI_ESTERNI
100
AcDbLine
 62
7
  6
CONTINUOUS
 10
-7.0833333611
 20
-5.8989361525
 11
-7.1416666389
 21
-5.9585106134
  0
LINE
  5
46A
100
AcDbEntity
  8
ASSI
100
AcDbLine
 62
7
  6
CONTINUOUS
 10
-7.0833333611
 20
-5.8989361525
 11
-7.1416666389
 21
-5.9585106134
  0
LINE
  5
46B
100
AcDbEntity
  8
GUSCI_ESTERNI
100
AcDbLine
 62
7
  6
CONTINUOUS
 10
-7.1416666389
 20
-6.1968084574
 11
-6.9666666389
 21
-6.0180850744
  0
LINE
  5
46C
100
AcDbEntity
  8
ASSI
100
AcDbLine
 62
7
  6
CONTINUOUS
 10
-7.1416666389
 20
-6.1968084574
 11
-6.9666666389
 21
-6.0180850744
  0
LINE
  5
46D
100
AcDbEntity
  8
GUSCI_ESTERNI
100
AcDbLine
 62
7
  6
CONTINUOUS
 10
-6.0916666597
 20
-5.8393616915
 11
-6.2083333194
 21
-5.9585106134
  0
LINE
  5
46E
100
AcDbEntity
  8
ASSI
100
AcDbLine
 62
7
  6
CONTINUOUS
 10
-6.0916666597
 20
-5.8393616915
 11
-6.2083333194
 21
-5.9585106134
  0
LINE
  5
46F
100
AcDbEntity
  8
GUSCI_ESTERNI
100
AcDbLine
 62
7
  6
CONTINUOUS
 10
-6.2083333194
 20
-6.1968084574
 11
-6.0916666597
 21
-6.0776595354
  0
LINE
  5
470
100
AcDbEntity
  8
ASSI
100
AcDbLine
 62
7
  6
CONTINUOUS
 10
-6.2083333194
 20
-6.1968084574
 11
-6.0916666597
 21
-6.0776595354
  0
LINE
  5
471
100
AcDbEntity
  8
DRAFT
100
AcDbLine
 62
7
  6
CONTINUOUS
 10
1.45
 20
4.0
 11
1.4552365195
 21
4.0052365195
  0
LINE
  5
472
100
AcDbEntity
  8
GUSCI_ESTERNI
100
AcDbLine
 62
7
  6
CONTINUOUS
 10
5.45
 20
-1.1
 11
6.05
 21
-1.1
  0
LINE
  5
473
100
AcDbEntity
  8
GUSCI_ESTERNI
100
AcDbLine
 62
7
  6
CONTINUOUS
 10
-5.45
 20
-1.1
 11
-6.05
 21
-1.1
  0
LINE
  5
474
100
AcDbEntity
  8
ASSI
100
AcDbLine
 62
7
  6
CONTINUOUS
 10
-5.45
 20
-1.1
 11
-6.05
 21
-1.1
  0
LINE
  5
475
100
AcDbEntity
  8
DRAFT
100
AcDbLine
 62
7
  6
CONTINUOUS
 10
1.45
 20
-4.0
 11
1.4552365195
 21
-4.0052365195
  0
LINE
  5
476
100
AcDbEntity
  8
0
100
AcDbLine
 62
7
  6
CONTINUOUS
 10
2.3166667461
 20
-6.3457446694
 11
4.4
 21
-9.75
  0
LINE
  5
477
100
AcDbEntity
  8
0
100
AcDbLine
 62
7
  6
CONTINUOUS
 10
4.65
 20
-9.239361763
 11
2.5666667461
 21
-5.75
  0
LINE
  5
478
100
AcDbEntity
  8
RACCORDO
100
AcDbLine
 62
7
  6
CONTINUOUS
 10
0.7325462644
 20
14.132489149
 11
0.7325462644
 21
16.167510851
  0
LINE
  5
479
100
AcDbEntity
  8
RACCORDO
100
AcDbLine
 62
7
  6
CONTINUOUS
 10
0.75
 20
14.1499428846
 11
0.75
 21
16.1500571154
  0
LINE
  5
47A
100
AcDbEntity
  8
0
100
AcDbLine
 62
7
  6
CONTINUOUS
 10
0.8
 20
23.7500380762
 11
0.8
 21
22.4
  0
LINE
  5
47B
100
AcDbEntity
  8
ASSI
100
AcDbLine
 62
7
  6
CONTINUOUS
 10
0.8
 20
23.7500380762
 11
0.8
 21
22.4
  0
LINE
  5
47C
100
AcDbEntity
  8
0
100
AcDbLine
 62
7
  6
CONTINUOUS
 10
0.8
 20
-22.4
 11
0.8
 21
-23.7500380762
  0
LINE
  5
47D
100
AcDbEntity
  8
ASSI
100
AcDbLine
 62
7
  6
CONTINUOUS
 10
0.8
 20
-22.4
 11
0.8
 21
-23.7500380762
  0
LINE
  5
47E
100
AcDbEntity
  8
0
100
AcDbLine
 62
7
  6
CONTINUOUS
 10
0.8174550649
 20
23.7325830113
 11
0.8174550649
 21
22.398254669
  0
LINE
  5
47F
100
AcDbEntity
  8
ASSI
100
AcDbLine
 62
7
  6
CONTINUOUS
 10
0.8174550649
 20
23.7325830113
 11
0.8174550649
 21
22.398254669
  0
LINE
  5
480
100
AcDbEntity
  8
0
100
AcDbLine
 62
7
  6
CONTINUOUS
 10
0.8174550649
 20
-23.7325830113
 11
0.8174550649
 21
-22.398254669
  0
LINE
  5
481
100
AcDbEntity
  8
ASSI
100
AcDbLine
 62
7
  6
CONTINUOUS
 10
0.8174550649
 20
-23.7325830113
 11
0.8174550649
 21
-22.398254669
  0
LINE
  5
482
100
AcDbEntity
  8
RACCORDO
100
AcDbLine
 62
7
  6
CONTINUOUS
 10
1.1869096983
 20
11.6630903017
 11
1.1869096983
 21
10.0044015123
  0
LINE
  5
483
100
AcDbEntity
  8
RACCORDO
100
AcDbLine
 62
7
  6
CONTINUOUS
 10
1.1869096983
 20
-19.7542872771
 11
1.1869096983
 21
-14.1980762114
  0
LINE
  5
484
100
AcDbEntity
  8
RACCORDO
100
AcDbLine
 62
7
  6
CONTINUOUS
 10
1.2
 20
-20.7586887894
 11
1.2
 21
-11.6
  0
LINE
  5
485
100
AcDbEntity
  8
DRAFT
100
AcDbLine
 62
7
  6
CONTINUOUS
 10
1.2
 20
9.0
 11
1.2
 21
11.65
  0
LINE
  5
486
100
AcDbEntity
  8
RACCORDO
100
AcDbLine
 62
7
  6
CONTINUOUS
 10
1.25
 20
-16.1192235936
 11
1.25
 21
-14.1807764064
  0
LINE
  5
487
100
AcDbEntity
  8
RACCORDO
100
AcDbLine
 62
7
  6
CONTINUOUS
 10
1.25
 20
14.1807764064
 11
1.25
 21
16.1192235936
  0
LINE
  5
488
100
AcDbEntity
  8
DRAFT
100
AcDbLine
 62
7
  6
CONTINUOUS
 10
1.45
 20
11.5
 11
1.45
 21
4.0
  0
LINE
  5
489
100
AcDbEntity
  8
DRAFT
100
AcDbLine
 62
7
  6
CONTINUOUS
 10
1.45
 20
-4.0
 11
1.45
 21
-11.5
  0
LINE
  5
48A
100
AcDbEntity
  8
DRAFT
100
AcDbLine
 62
7
  6
CONTINUOUS
 10
1.4552365195
 20
11.4947634805
 11
1.4552365195
 21
4.0052365195
  0
LINE
  5
48B
100
AcDbEntity
  8
DRAFT
100
AcDbLine
 62
7
  6
CONTINUOUS
 10
1.4552365195
 20
-4.0052365195
 11
1.4552365195
 21
-11.4947634805
  0
LINE
  5
48C
100
AcDbEntity
  8
0
100
AcDbLine
 62
7
  6
CONTINUOUS
 10
1.8166667461
 20
9.75
 11
1.8166667461
 21
5.75
  0
LINE
  5
48D
100
AcDbEntity
  8
0
100
AcDbLine
 62
7
  6
CONTINUOUS
 10
1.8166667461
 20
-5.75
 11
1.8166667461
 21
-9.75
  0
LINE
  5
48E
100
AcDbEntity
  8
RACCORDO
100
AcDbLine
 62
253
  6
CONTINUOUS
 10
2.25
 20
-17.15
 11
2.25
 21
-16.9
  0
LINE
  5
48F
100
AcDbEntity
  8
RACCORDO
100
AcDbLine
 62
253
  6
CONTINUOUS
 10
2.25
 20
-13.4
 11
2.25
 21
-13.15
  0
LINE
  5
490
100
AcDbEntity
  8
RACCORDO
100
AcDbLine
 62
253
  6
CONTINUOUS
 10
2.25
 20
13.15
 11
2.25
 21
13.4
  0
LINE
  5
491
100
AcDbEntity
  8
RACCORDO
100
AcDbLine
 62
253
  6
CONTINUOUS
 10
2.25
 20
16.9
 11
2.25
 21
17.15
  0
LINE
  5
492
100
AcDbEntity
  8
0
100
AcDbLine
 62
7
  6
CONTINUOUS
 10
2.3166667461
 20
-9.75
 11
2.3166667461
 21
-6.3457446694
  0
LINE
  5
493
100
AcDbEntity
  8
0
100
AcDbLine
 62
7
  6
CONTINUOUS
 10
2.3166667461
 20
5.75
 11
2.3166667461
 21
9.1542553306
  0
LINE
  5
494
100
AcDbEntity
  8
DRAFT
100
AcDbLine
 62
7
  6
CONTINUOUS
 10
1.1869096983
 20
-14.1980762114
 11
1.2
 21
-11.6
  0
LINE
  5
495
100
AcDbEntity
  8
0
100
AcDbLine
 62
7
  6
CONTINUOUS
 10
-4.3499999785
 20
-5.5755318761
 11
-4.6200000429
 21
-5.8436170578
  0
LINE
  5
496
100
AcDbEntity
  8
0
100
AcDbLine
 62
7
  6
CONTINUOUS
 10
-4.6200000429
 20
-6.15
 11
-4.3499999785
 21
-5.8819149256
  0
LINE
  5
497
100
AcDbEntity
  8
0
100
AcDbLine
 62
7
  6
CONTINUOUS
 10
-3.45
 20
-5.5755318761
 11
-3.72
 21
-5.8436170578
  0
LINE
  5
498
100
AcDbEntity
  8
0
100
AcDbLine
 62
7
  6
CONTINUOUS
 10
-3.72
 20
-6.15
 11
-3.45
 21
-5.8819149256
  0
LINE
  5
499
100
AcDbEntity
  8
GUSCI_ESTERNI
100
AcDbLine
 62
7
  6
CONTINUOUS
 10
-9.7666665554
 20
-5.9585106134
 11
-9.8833334446
 21
-6.0180850744
  0
LINE
  5
49A
100
AcDbEntity
  8
ASSI
100
AcDbLine
 62
7
  6
CONTINUOUS
 10
-9.7666665554
 20
-5.9585106134
 11
-9.8833334446
 21
-6.0180850744
  0
LINE
  5
49B
100
AcDbEntity
  8
GUSCI_ESTERNI
100
AcDbLine
 62
7
  6
CONTINUOUS
 10
-7.1416666389
 20
-5.9585106134
 11
-7.2583332777
 21
-6.0180850744
  0
LINE
  5
49C
100
AcDbEntity
  8
ASSI
100
AcDbLine
 62
7
  6
CONTINUOUS
 10
-7.1416666389
 20
-5.9585106134
 11
-7.2583332777
 21
-6.0180850744
  0
LINE
  5
49D
100
AcDbEntity
  8
0
100
AcDbLine
 62
7
  6
CONTINUOUS
 10
3.5
 20
23.7325830113
 11
3.5
 21
22.3825449351
  0
LINE
  5
49E
100
AcDbEntity
  8
ASSI
100
AcDbLine
 62
7
  6
CONTINUOUS
 10
3.5
 20
23.7325830113
 11
3.5
 21
22.3825449351
  0
LINE
  5
49F
100
AcDbEntity
  8
0
100
AcDbLine
 62
7
  6
CONTINUOUS
 10
3.5
 20
-22.3825449351
 11
3.5
 21
-23.7325830113
  0
LINE
  5
4A0
100
AcDbEntity
  8
ASSI
100
AcDbLine
 62
7
  6
CONTINUOUS
 10
3.5
 20
-22.3825449351
 11
3.5
 21
-23.7325830113
  0
LINE
  5
4A1
100
AcDbEntity
  8
0
100
AcDbLine
 62
253
  6
CONTINUOUS
 10
3.5806609125
 20
-23.6519220988
 11
3.5806609125
 21
-22.3018840226
  0
LINE
  5
4A2
100
AcDbEntity
  8
ASSI
100
AcDbLine
 62
253
  6
CONTINUOUS
 10
3.5806609125
 20
-23.6519220988
 11
3.5806609125
 21
-22.3018840226
  0
LINE
  5
4A3
100
AcDbEntity
  8
0
100
AcDbLine
 62
253
  6
CONTINUOUS
 10
3.5806609125
 20
22.3018840226
 11
3.5806609125
 21
23.6519220988
  0
LINE
  5
4A4
100
AcDbEntity
  8
ASSI
100
AcDbLine
 62
253
  6
CONTINUOUS
 10
3.5806609125
 20
22.3018840226
 11
3.5806609125
 21
23.6519220988
  0
LINE
  5
4A5
100
AcDbEntity
  8
0
100
AcDbLine
 62
7
  6
CONTINUOUS
 10
4.2565
 20
-13.4
 11
4.2565
 21
-16.9
  0
LINE
  5
4A6
100
AcDbEntity
  8
0
100
AcDbLine
 62
7
  6
CONTINUOUS
 10
4.2565
 20
13.4
 11
4.2565
 21
16.9
  0
LINE
  5
4A7
100
AcDbEntity
  8
0
100
AcDbLine
 62
253
  6
CONTINUOUS
 10
4.3518822356
 20
-23.6519203118
 11
4.3518840226
 21
-22.3018840226
  0
LINE
  5
4A8
100
AcDbEntity
  8
ASSI
100
AcDbLine
 62
253
  6
CONTINUOUS
 10
4.3518822356
 20
-23.6519203118
 11
4.3518840226
 21
-22.3018840226
  0
LINE
  5
4A9
100
AcDbEntity
  8
0
100
AcDbLine
 62
253
  6
CONTINUOUS
 10
4.3518840226
 20
22.3018840226
 11
4.3518822356
 21
23.6519203118
  0
LINE
  5
4AA
100
AcDbEntity
  8
ASSI
100
AcDbLine
 62
253
  6
CONTINUOUS
 10
4.3518840226
 20
22.3018840226
 11
4.3518822356
 21
23.6519203118
  0
LINE
  5
4AB
100
AcDbEntity
  8
0
100
AcDbLine
 62
7
  6
CONTINUOUS
 10
4.3539971429
 20
23.5393800954
 11
4.3539971429
 21
22.8606199046
  0
LINE
  5
4AC
100
AcDbEntity
  8
ASSI
100
AcDbLine
 62
7
  6
CONTINUOUS
 10
4.3539971429
 20
23.5393800954
 11
4.3539971429
 21
22.8606199046
  0
LINE
  5
4AD
100
AcDbEntity
  8
0
100
AcDbLine
 62
7
  6
CONTINUOUS
 10
4.3539971429
 20
-22.8606199046
 11
4.3539971429
 21
-23.5393800954
  0
LINE
  5
4AE
100
AcDbEntity
  8
ASSI
100
AcDbLine
 62
7
  6
CONTINUOUS
 10
4.3539971429
 20
-22.8606199046
 11
4.3539971429
 21
-23.5393800954
  0
LINE
  5
4AF
100
AcDbEntity
  8
0
100
AcDbLine
 62
7
  6
CONTINUOUS
 10
4.45
 20
-23.7500380762
 11
4.45
 21
-23.4179449472
  0
LINE
  5
4B0
100
AcDbEntity
  8
ASSI
100
AcDbLine
 62
7
  6
CONTINUOUS
 10
4.45
 20
-23.7500380762
 11
4.45
 21
-23.4179449472
  0
LINE
  5
4B1
100
AcDbEntity
  8
0
100
AcDbLine
 62
7
  6
CONTINUOUS
 10
4.45
 20
-22.9820550528
 11
4.45
 21
-22.4
  0
LINE
  5
4B2
100
AcDbEntity
  8
ASSI
100
AcDbLine
 62
7
  6
CONTINUOUS
 10
4.45
 20
-22.9820550528
 11
4.45
 21
-22.4
  0
LINE
  5
4B3
100
AcDbEntity
  8
0
100
AcDbLine
 62
7
  6
CONTINUOUS
 10
4.45
 20
22.4
 11
4.45
 21
22.9820550528
  0
LINE
  5
4B4
100
AcDbEntity
  8
ASSI
100
AcDbLine
 62
7
  6
CONTINUOUS
 10
4.45
 20
22.4
 11
4.45
 21
22.9820550528
  0
LINE
  5
4B5
100
AcDbEntity
  8
0
100
AcDbLine
 62
7
  6
CONTINUOUS
 10
4.45
 20
23.4179449472
 11
4.45
 21
23.7500380762
  0
LINE
  5
4B6
100
AcDbEntity
  8
ASSI
100
AcDbLine
 62
7
  6
CONTINUOUS
 10
4.45
 20
23.4179449472
 11
4.45
 21
23.7500380762
  0
LINE
  5
4B7
100
AcDbEntity
  8
DRAFT
100
AcDbLine
 62
7
  6
CONTINUOUS
 10
0.0
 20
-4.0
 11
-0.0052365195
 21
-4.0052365195
  0
LINE
  5
4B8
100
AcDbEntity
  8
GUSCI_ESTERNI
100
AcDbLine
 62
7
  6
CONTINUOUS
 10
-9.9416665554
 20
-6.2563829184
 11
-9.7666665554
 21
-6.1968084574
  0
LINE
  5
4B9
100
AcDbEntity
  8
ASSI
100
AcDbLine
 62
7
  6
CONTINUOUS
 10
-9.9416665554
 20
-6.2563829184
 11
-9.7666665554
 21
-6.1968084574
  0
LINE
  5
4BA
100
AcDbEntity
  8
GUSCI_ESTERNI
100
AcDbLine
 62
7
  6
CONTINUOUS
 10
-8.8333334446
 20
-5.9585106134
 11
-9.0083334446
 21
-6.0180850744
  0
LINE
  5
4BB
100
AcDbEntity
  8
ASSI
100
AcDbLine
 62
7
  6
CONTINUOUS
 10
-8.8333334446
 20
-5.9585106134
 11
-9.0083334446
 21
-6.0180850744
  0
LINE
  5
4BC
100
AcDbEntity
  8
GUSCI_ESTERNI
100
AcDbLine
 62
7
  6
CONTINUOUS
 10
-9.0083334446
 20
-6.2563829184
 11
-8.8333334446
 21
-6.1968084574
  0
LINE
  5
4BD
100
AcDbEntity
  8
ASSI
100
AcDbLine
 62
7
  6
CONTINUOUS
 10
-9.0083334446
 20
-6.2563829184
 11
-8.8333334446
 21
-6.1968084574
  0
LINE
  5
4BE
100
AcDbEntity
  8
GUSCI_ESTERNI
100
AcDbLine
 62
7
  6
CONTINUOUS
 10
-7.3166667223
 20
-6.2563829184
 11
-7.1416666389
 21
-6.1968084574
  0
LINE
  5
4BF
100
AcDbEntity
  8
ASSI
100
AcDbLine
 62
7
  6
CONTINUOUS
 10
-7.3166667223
 20
-6.2563829184
 11
-7.1416666389
 21
-6.1968084574
  0
LINE
  5
4C0
100
AcDbEntity
  8
GUSCI_ESTERNI
100
AcDbLine
 62
7
  6
CONTINUOUS
 10
-6.2083333194
 20
-5.9585106134
 11
-6.3833333194
 21
-6.0180850744
  0
LINE
  5
4C1
100
AcDbEntity
  8
ASSI
100
AcDbLine
 62
7
  6
CONTINUOUS
 10
-6.2083333194
 20
-5.9585106134
 11
-6.3833333194
 21
-6.0180850744
  0
LINE
  5
4C2
100
AcDbEntity
  8
GUSCI_ESTERNI
100
AcDbLine
 62
7
  6
CONTINUOUS
 10
-6.3833333194
 20
-6.2563829184
 11
-6.2083333194
 21
-6.1968084574
  0
LINE
  5
4C3
100
AcDbEntity
  8
ASSI
100
AcDbLine
 62
7
  6
CONTINUOUS
 10
-6.3833333194
 20
-6.2563829184
 11
-6.2083333194
 21
-6.1968084574
  0
LINE
  5
4C4
100
AcDbEntity
  8
DRAFT
100
AcDbLine
 62
7
  6
CONTINUOUS
 10
5.45
 20
4.0
 11
1.45
 21
4.0
  0
LINE
  5
4C5
100
AcDbEntity
  8
DRAFT
100
AcDbLine
 62
7
  6
CONTINUOUS
 10
1.4552365195
 20
4.0052365195
 11
5.45
 21
4.0052365195
  0
LINE
  5
4C6
100
AcDbEntity
  8
RACCORDO
100
AcDbLine
 62
7
  6
CONTINUOUS
 10
-11.000493498
 20
4.3977347721
 11
-10.9744618847
 21
4.3977347721
  0
LINE
  5
4C7
100
AcDbEntity
  8
ASSI
100
AcDbLine
 62
7
  6
CONTINUOUS
 10
-11.000493498
 20
4.3977347721
 11
-10.9744618847
 21
4.3977347721
  0
LINE
  5
4C8
100
AcDbEntity
  8
RACCORDO
100
AcDbLine
 62
7
  6
CONTINUOUS
 10
10.9744618847
 20
4.3977347721
 11
11.000493498
 21
4.3977347721
  0
LINE
  5
4C9
100
AcDbEntity
  8
ASSI
100
AcDbLine
 62
7
  6
CONTINUOUS
 10
10.9744618847
 20
4.3977347721
 11
11.000493498
 21
4.3977347721
  0
LINE
  5
4CA
100
AcDbEntity
  8
0
100
AcDbLine
 62
253
  6
CONTINUOUS
 10
7.2
 20
-23.3515746082
 11
7.2135886019
 21
-23.8010362971
  0
LINE
  5
4CB
100
AcDbEntity
  8
ASSI
100
AcDbLine
 62
253
  6
CONTINUOUS
 10
7.2
 20
-23.3515746082
 11
7.2135886019
 21
-23.8010362971
  0
LINE
  5
4CC
100
AcDbEntity
  8
0
100
AcDbLine
 62
7
  6
CONTINUOUS
 10
4.65
 20
9.75
 11
4.65
 21
6.260638237
  0
LINE
  5
4CD
100
AcDbEntity
  8
0
100
AcDbLine
 62
7
  6
CONTINUOUS
 10
4.65
 20
-5.75
 11
4.65
 21
-9.239361763
  0
LINE
  5
4CE
100
AcDbEntity
  8
0
100
AcDbLine
 62
7
  6
CONTINUOUS
 10
5.15
 20
-9.75
 11
5.15
 21
-5.75
  0
LINE
  5
4CF
100
AcDbEntity
  8
0
100
AcDbLine
 62
7
  6
CONTINUOUS
 10
5.15
 20
5.75
 11
5.15
 21
9.75
  0
LINE
  5
4D0
100
AcDbEntity
  8
RACCORDO
100
AcDbLine
 62
7
  6
CONTINUOUS
 10
5.45
 20
21.7586507125
 11
5.45
 21
18.65
  0
LINE
  5
4D1
100
AcDbEntity
  8
SMUSSO
100
AcDbLine
 62
7
  6
CONTINUOUS
 10
5.45
 20
17.65
 11
5.45
 21
16.9
  0
LINE
  5
4D2
100
AcDbEntity
  8
SMUSSO
100
AcDbLine
 62
7
  6
CONTINUOUS
 10
5.45
 20
13.4
 11
5.45
 21
12.65
  0
LINE
  5
4D3
100
AcDbEntity
  8
DRAFT
100
AcDbLine
 62
7
  6
CONTINUOUS
 10
5.45
 20
11.65
 11
5.45
 21
11.5
  0
LINE
  5
4D4
100
AcDbEntity
  8
DRAFT
100
AcDbLine
 62
7
  6
CONTINUOUS
 10
5.45
 20
4.0
 11
5.45
 21
-0.1
  0
LINE
  5
4D5
100
AcDbEntity
  8
DRAFT
100
AcDbLine
 62
7
  6
CONTINUOUS
 10
5.45
 20
-0.9
 11
5.45
 21
-4.0
  0
LINE
  5
4D6
100
AcDbEntity
  8
SMUSSO
100
AcDbLine
 62
7
  6
CONTINUOUS
 10
5.45
 20
-11.5
 11
5.45
 21
-13.4
  0
LINE
  5
4D7
100
AcDbEntity
  8
SMUSSO
100
AcDbLine
 62
7
  6
CONTINUOUS
 10
5.45
 20
-16.9
 11
5.45
 21
-17.15
  0
LINE
  5
4D8
100
AcDbEntity
  8
RACCORDO
100
AcDbLine
 62
7
  6
CONTINUOUS
 10
5.45
 20
-17.15
 11
5.45
 21
-21.7586507125
  0
LINE
  5
4D9
100
AcDbEntity
  8
GUSCI_ESTERNI
100
AcDbLine
 62
7
  6
CONTINUOUS
 10
5.45
 20
-20.7055718201
 11
5.45
 21
-17.4
  0
LINE
  5
4DA
100
AcDbEntity
  8
GUSCI_ESTERNI
100
AcDbLine
 62
7
  6
CONTINUOUS
 10
5.45
 20
-12.9
 11
5.45
 21
-1.9
  0
LINE
  5
4DB
100
AcDbEntity
  8
DRAFT
100
AcDbLine
 62
7
  6
CONTINUOUS
 10
5.45
 20
11.6674537356
 11
5.45
 21
12.6325462644
  0
LINE
  5
4DC
100
AcDbEntity
  8
GUSCI_ESTERNI
100
AcDbLine
 62
7
  6
CONTINUOUS
 10
5.45
 20
-1.1
 11
5.45
 21
12.9
  0
LINE
  5
4DD
100
AcDbEntity
  8
DRAFT
100
AcDbLine
 62
7
  6
CONTINUOUS
 10
5.45
 20
17.6674537356
 11
5.45
 21
18.6325462644
  0
LINE
  5
4DE
100
AcDbEntity
  8
GUSCI_ESTERNI
100
AcDbLine
 62
7
  6
CONTINUOUS
 10
5.45
 20
17.4
 11
5.45
 21
20.7054782877
  0
LINE
  5
4DF
100
AcDbEntity
  8
0
100
AcDbLine
 62
253
  6
CONTINUOUS
 10
7.2135886019
 20
23.8010362971
 11
7.2
 21
23.3515746082
  0
LINE
  5
4E0
100
AcDbEntity
  8
ASSI
100
AcDbLine
 62
253
  6
CONTINUOUS
 10
7.2135886019
 20
23.8010362971
 11
7.2
 21
23.3515746082
  0
LINE
  5
4E1
100
AcDbEntity
  8
0
100
AcDbLine
 62
7
  6
CONTINUOUS
 10
-5.45
 20
-13.7
 11
-5.15
 21
-13.4
  0
LINE
  5
4E2
100
AcDbEntity
  8
0
100
AcDbLine
 62
7
  6
CONTINUOUS
 10
1.8166667461
 20
5.75
 11
2.3166667461
 21
5.75
  0
LINE
  5
4E3
100
AcDbEntity
  8
0
100
AcDbLine
 62
7
  6
CONTINUOUS
 10
4.4
 20
5.75
 11
5.15
 21
5.75
  0
LINE
  5
4E4
100
AcDbEntity
  8
0
100
AcDbLine
 62
7
  6
CONTINUOUS
 10
-5.15
 20
13.4
 11
-5.45
 21
13.7
  0
LINE
  5
4E5
100
AcDbEntity
  8
0
100
AcDbLine
 62
253
  6
CONTINUOUS
 10
7.3982849591
 20
-23.1226497308
 11
7.4135581409
 21
-23.6278312163
  0
LINE
  5
4E6
100
AcDbEntity
  8
ASSI
100
AcDbLine
 62
253
  6
CONTINUOUS
 10
7.3982849591
 20
-23.1226497308
 11
7.4135581409
 21
-23.6278312163
  0
LINE
  5
4E7
100
AcDbEntity
  8
0
100
AcDbLine
 62
7
  6
CONTINUOUS
 10
8.5
 20
-23.1226497308
 11
8.5131674569
 21
-23.5581814706
  0
LINE
  5
4E8
100
AcDbEntity
  8
ASSI
100
AcDbLine
 62
7
  6
CONTINUOUS
 10
8.5
 20
-23.1226497308
 11
8.5131674569
 21
-23.5581814706
  0
LINE
  5
4E9
100
AcDbEntity
  8
0
100
AcDbLine
 62
7
  6
CONTINUOUS
 10
6.6435
 20
-13.4
 11
6.6435
 21
-16.9
  0
LINE
  5
4EA
100
AcDbEntity
  8
0
100
AcDbLine
 62
7
  6
CONTINUOUS
 10
6.6435
 20
13.4
 11
6.6435
 21
16.9
  0
LINE
  5
4EB
100
AcDbEntity
  8
0
100
AcDbLine
 62
7
  6
CONTINUOUS
 10
7.2
 20
-22.4
 11
7.2
 21
-24.300030461
  0
LINE
  5
4EC
100
AcDbEntity
  8
ASSI
100
AcDbLine
 62
7
  6
CONTINUOUS
 10
7.2
 20
-22.4
 11
7.2
 21
-24.300030461
  0
LINE
  5
4ED
100
AcDbEntity
  8
0
100
AcDbLine
 62
7
  6
CONTINUOUS
 10
7.2
 20
22.4
 11
7.2
 21
24.300030461
  0
LINE
  5
4EE
100
AcDbEntity
  8
ASSI
100
AcDbLine
 62
7
  6
CONTINUOUS
 10
7.2
 20
22.4
 11
7.2
 21
24.300030461
  0
LINE
  5
4EF
100
AcDbEntity
  8
0
100
AcDbLine
 62
253
  6
CONTINUOUS
 10
7.2140249785
 20
24.2368706193
 11
7.2140249785
 21
23.8443375673
  0
LINE
  5
4F0
100
AcDbEntity
  8
ASSI
100
AcDbLine
 62
253
  6
CONTINUOUS
 10
7.2140249785
 20
24.2368706193
 11
7.2140249785
 21
23.8443375673
  0
LINE
  5
4F1
100
AcDbEntity
  8
0
100
AcDbLine
 62
253
  6
CONTINUOUS
 10
7.2140249785
 20
-23.8443375673
 11
7.2140249785
 21
-24.2368706193
  0
LINE
  5
4F2
100
AcDbEntity
  8
ASSI
100
AcDbLine
 62
253
  6
CONTINUOUS
 10
7.2140249785
 20
-23.8443375673
 11
7.2140249785
 21
-24.2368706193
  0
LINE
  5
4F3
100
AcDbEntity
  8
0
100
AcDbLine
 62
253
  6
CONTINUOUS
 10
7.4139945176
 20
24.2368706193
 11
7.4139945176
 21
23.8443375673
  0
LINE
  5
4F4
100
AcDbEntity
  8
ASSI
100
AcDbLine
 62
253
  6
CONTINUOUS
 10
7.4139945176
 20
24.2368706193
 11
7.4139945176
 21
23.8443375673
  0
LINE
  5
4F5
100
AcDbEntity
  8
0
100
AcDbLine
 62
253
  6
CONTINUOUS
 10
7.4139945176
 20
-23.8443354981
 11
7.4139945176
 21
-24.2368706193
  0
LINE
  5
4F6
100
AcDbEntity
  8
ASSI
100
AcDbLine
 62
253
  6
CONTINUOUS
 10
7.4139945176
 20
-23.8443354981
 11
7.4139945176
 21
-24.2368706193
  0
LINE
  5
4F7
100
AcDbEntity
  8
0
100
AcDbLine
 62
7
  6
CONTINUOUS
 10
8.5
 20
23.1226497308
 11
8.5
 21
22.4
  0
LINE
  5
4F8
100
AcDbEntity
  8
ASSI
100
AcDbLine
 62
7
  6
CONTINUOUS
 10
8.5
 20
23.1226497308
 11
8.5
 21
22.4
  0
LINE
  5
4F9
100
AcDbEntity
  8
0
100
AcDbLine
 62
7
  6
CONTINUOUS
 10
8.5
 20
-22.4
 11
8.5
 21
-23.1226497308
  0
LINE
  5
4FA
100
AcDbEntity
  8
ASSI
100
AcDbLine
 62
7
  6
CONTINUOUS
 10
8.5
 20
-22.4
 11
8.5
 21
-23.1226497308
  0
LINE
  5
4FB
100
AcDbEntity
  8
0
100
AcDbLine
 62
253
  6
CONTINUOUS
 10
8.5131674569
 20
23.5581814706
 11
8.5131674569
 21
22.3868325431
  0
LINE
  5
4FC
100
AcDbEntity
  8
ASSI
100
AcDbLine
 62
253
  6
CONTINUOUS
 10
8.5131674569
 20
23.5581814706
 11
8.5131674569
 21
22.3868325431
  0
LINE
  5
4FD
100
AcDbEntity
  8
0
100
AcDbLine
 62
253
  6
CONTINUOUS
 10
8.5131674569
 20
-22.3868325431
 11
8.5131674569
 21
-23.5581814706
  0
LINE
  5
4FE
100
AcDbEntity
  8
ASSI
100
AcDbLine
 62
253
  6
CONTINUOUS
 10
8.5131674569
 20
-22.3868325431
 11
8.5131674569
 21
-23.5581814706
  0
LINE
  5
4FF
100
AcDbEntity
  8
GUSCI_ESTERNI
100
AcDbLine
 62
253
  6
CONTINUOUS
 10
8.65
 20
17.3860370115
 11
8.65
 21
16.9
  0
LINE
  5
500
100
AcDbEntity
  8
GUSCI_ESTERNI
100
AcDbLine
 62
253
  6
CONTINUOUS
 10
8.65
 20
-12.9139629885
 11
8.65
 21
-13.4
  0
LINE
  5
501
100
AcDbEntity
  8
GUSCI_ESTERNI
100
AcDbLine
 62
253
  6
CONTINUOUS
 10
8.65
 20
-17.3860370115
 11
8.65
 21
-16.9
  0
LINE
  5
502
100
AcDbEntity
  8
GUSCI_ESTERNI
100
AcDbLine
 62
253
  6
CONTINUOUS
 10
8.65
 20
12.9139629885
 11
8.65
 21
13.4
  0
LINE
  5
503
100
AcDbEntity
  8
0
100
AcDbLine
 62
253
  6
CONTINUOUS
 10
7.4135581719
 20
23.6278322392
 11
7.3982849591
 21
23.1226497308
  0
LINE
  5
504
100
AcDbEntity
  8
ASSI
100
AcDbLine
 62
253
  6
CONTINUOUS
 10
7.4135581719
 20
23.6278322392
 11
7.3982849591
 21
23.1226497308
  0
LINE
  5
505
100
AcDbEntity
  8
0
100
AcDbLine
 62
7
  6
CONTINUOUS
 10
8.5131674569
 20
23.5581814706
 11
8.5
 21
23.1226497308
  0
LINE
  5
506
100
AcDbEntity
  8
ASSI
100
AcDbLine
 62
7
  6
CONTINUOUS
 10
8.5131674569
 20
23.5581814706
 11
8.5
 21
23.1226497308
  0
LINE
  5
507
100
AcDbEntity
  8
0
100
AcDbLine
 62
253
  6
CONTINUOUS
 10
-10.6
 20
-22.3999999999
 11
-10.5826210875
 21
-22.3825449351
  0
LINE
  5
508
100
AcDbEntity
  8
ASSI
100
AcDbLine
 62
253
  6
CONTINUOUS
 10
-10.6
 20
-22.3999999999
 11
-10.5826210875
 21
-22.3825449351
  0
LINE
  5
509
100
AcDbEntity
  8
0
100
AcDbLine
 62
253
  6
CONTINUOUS
 10
-11.1
 20
-21.9000761524
 11
-11.0825449351
 21
-21.8826210875
  0
LINE
  5
50A
100
AcDbEntity
  8
ASSI
100
AcDbLine
 62
253
  6
CONTINUOUS
 10
-11.1
 20
-21.9000761524
 11
-11.0825449351
 21
-21.8826210875
  0
LINE
  5
50B
100
AcDbEntity
  8
RACCORDO
100
AcDbLine
 62
7
  6
CONTINUOUS
 10
1.2
 20
9.0
 11
1.1955604108
 21
9.0044395892
  0
LINE
  5
50C
100
AcDbEntity
  8
RACCORDO
100
AcDbLine
 62
253
  6
CONTINUOUS
 10
-2.2499428846
 20
12.65
 11
-2.232489149
 21
12.6325462644
  0
LINE
  5
50D
100
AcDbEntity
  8
0
100
AcDbLine
 62
253
  6
CONTINUOUS
 10
-11.0825449351
 20
21.8826210875
 11
-11.1
 21
21.9000761524
  0
LINE
  5
50E
100
AcDbEntity
  8
ASSI
100
AcDbLine
 62
253
  6
CONTINUOUS
 10
-11.0825449351
 20
21.8826210875
 11
-11.1
 21
21.9000761524
  0
LINE
  5
50F
100
AcDbEntity
  8
0
100
AcDbLine
 62
253
  6
CONTINUOUS
 10
-10.5826210875
 20
22.3825449351
 11
-10.6000000646
 21
22.3999999354
  0
LINE
  5
510
100
AcDbEntity
  8
ASSI
100
AcDbLine
 62
253
  6
CONTINUOUS
 10
-10.5826210875
 20
22.3825449351
 11
-10.6000000646
 21
22.3999999354
  0
LINE
  5
511
100
AcDbEntity
  8
0
100
AcDbLine
 62
7
  6
CONTINUOUS
 10
2.3166667461
 20
9.1542553306
 11
4.4
 21
5.75
  0
LINE
  5
512
100
AcDbEntity
  8
0
100
AcDbLine
 62
7
  6
CONTINUOUS
 10
4.65
 20
6.260638237
 11
2.5666667461
 21
9.75
  0
LINE
  5
513
100
AcDbEntity
  8
0
100
AcDbLine
 62
7
  6
CONTINUOUS
 10
9.2868325431
 20
23.5581814706
 11
9.3
 21
23.1226497308
  0
LINE
  5
514
100
AcDbEntity
  8
ASSI
100
AcDbLine
 62
7
  6
CONTINUOUS
 10
9.2868325431
 20
23.5581814706
 11
9.3
 21
23.1226497308
  0
LINE
  5
515
100
AcDbEntity
  8
0
100
AcDbLine
 62
253
  6
CONTINUOUS
 10
8.7631293807
 20
23.8443375673
 11
8.7631293807
 21
22.3825449351
  0
LINE
  5
516
100
AcDbEntity
  8
ASSI
100
AcDbLine
 62
253
  6
CONTINUOUS
 10
8.7631293807
 20
23.8443375673
 11
8.7631293807
 21
22.3825449351
  0
LINE
  5
517
100
AcDbEntity
  8
0
100
AcDbLine
 62
253
  6
CONTINUOUS
 10
8.7631293807
 20
-22.3825449351
 11
8.7631293807
 21
-23.8443375673
  0
LINE
  5
518
100
AcDbEntity
  8
ASSI
100
AcDbLine
 62
253
  6
CONTINUOUS
 10
8.7631293807
 20
-22.3825449351
 11
8.7631293807
 21
-23.8443375673
  0
LINE
  5
519
100
AcDbEntity
  8
0
100
AcDbLine
 62
253
  6
CONTINUOUS
 10
9.0368706193
 20
23.8443375673
 11
9.0368706193
 21
22.3825449351
  0
LINE
  5
51A
100
AcDbEntity
  8
ASSI
100
AcDbLine
 62
253
  6
CONTINUOUS
 10
9.0368706193
 20
23.8443375673
 11
9.0368706193
 21
22.3825449351
  0
LINE
  5
51B
100
AcDbEntity
  8
0
100
AcDbLine
 62
253
  6
CONTINUOUS
 10
9.0368706193
 20
-22.3825449351
 11
9.0368706193
 21
-23.8443375673
  0
LINE
  5
51C
100
AcDbEntity
  8
ASSI
100
AcDbLine
 62
253
  6
CONTINUOUS
 10
9.0368706193
 20
-22.3825449351
 11
9.0368706193
 21
-23.8443375673
  0
LINE
  5
51D
100
AcDbEntity
  8
0
100
AcDbLine
 62
253
  6
CONTINUOUS
 10
9.2868325431
 20
23.5581814706
 11
9.2868325431
 21
22.3868325431
  0
LINE
  5
51E
100
AcDbEntity
  8
ASSI
100
AcDbLine
 62
253
  6
CONTINUOUS
 10
9.2868325431
 20
23.5581814706
 11
9.2868325431
 21
22.3868325431
  0
LINE
  5
51F
100
AcDbEntity
  8
0
100
AcDbLine
 62
253
  6
CONTINUOUS
 10
9.2868325431
 20
-22.3868325431
 11
9.2868325431
 21
-23.5581814706
  0
LINE
  5
520
100
AcDbEntity
  8
ASSI
100
AcDbLine
 62
253
  6
CONTINUOUS
 10
9.2868325431
 20
-22.3868325431
 11
9.2868325431
 21
-23.5581814706
  0
LINE
  5
521
100
AcDbEntity
  8
0
100
AcDbLine
 62
7
  6
CONTINUOUS
 10
9.3
 20
23.1226497308
 11
9.3
 21
22.4
  0
LINE
  5
522
100
AcDbEntity
  8
ASSI
100
AcDbLine
 62
7
  6
CONTINUOUS
 10
9.3
 20
23.1226497308
 11
9.3
 21
22.4
  0
LINE
  5
523
100
AcDbEntity
  8
0
100
AcDbLine
 62
7
  6
CONTINUOUS
 10
9.3
 20
-22.4
 11
9.3
 21
-23.1226497308
  0
LINE
  5
524
100
AcDbEntity
  8
ASSI
100
AcDbLine
 62
7
  6
CONTINUOUS
 10
9.3
 20
-22.4
 11
9.3
 21
-23.1226497308
  0
LINE
  5
525
100
AcDbEntity
  8
GUSCI_ESTERNI
100
AcDbLine
 62
7
  6
CONTINUOUS
 10
9.6317531964
 20
-13.9
 11
9.6317531964
 21
-14.2098404316
  0
LINE
  5
526
100
AcDbEntity
  8
GUSCI_ESTERNI
100
AcDbLine
 62
7
  6
CONTINUOUS
 10
9.6317531964
 20
-16.0901595683
 11
9.6317531964
 21
-16.4
  0
LINE
  5
527
100
AcDbEntity
  8
GUSCI_ESTERNI
100
AcDbLine
 62
7
  6
CONTINUOUS
 10
9.6317531964
 20
13.9
 11
9.6317531964
 21
14.2098404317
  0
LINE
  5
528
100
AcDbEntity
  8
GUSCI_ESTERNI
100
AcDbLine
 62
7
  6
CONTINUOUS
 10
9.6317531964
 20
16.0901595684
 11
9.6317531964
 21
16.4
  0
LINE
  5
529
100
AcDbEntity
  8
GUSCI_ESTERNI
100
AcDbLine
 62
7
  6
CONTINUOUS
 10
9.65
 20
-15.9
 11
9.65
 21
-14.4
  0
LINE
  5
52A
100
AcDbEntity
  8
GUSCI_ESTERNI
100
AcDbLine
 62
7
  6
CONTINUOUS
 10
9.65
 20
14.4
 11
9.65
 21
15.9
  0
LINE
  5
52B
100
AcDbEntity
  8
GUSCI_ESTERNI
100
AcDbLine
 62
7
  6
CONTINUOUS
 10
10.15
 20
14.15
 11
10.15
 21
16.15
  0
LINE
  5
52C
100
AcDbEntity
  8
0
100
AcDbLine
 62
253
  6
CONTINUOUS
 10
10.3860054824
 20
24.2368706193
 11
10.3860054824
 21
23.8443575944
  0
LINE
  5
52D
100
AcDbEntity
  8
ASSI
100
AcDbLine
 62
253
  6
CONTINUOUS
 10
10.3860054824
 20
24.2368706193
 11
10.3860054824
 21
23.8443575944
  0
LINE
  5
52E
100
AcDbEntity
  8
0
100
AcDbLine
 62
253
  6
CONTINUOUS
 10
10.3860054824
 20
-23.8442507367
 11
10.3860054824
 21
-24.2368706193
  0
LINE
  5
52F
100
AcDbEntity
  8
ASSI
100
AcDbLine
 62
253
  6
CONTINUOUS
 10
10.3860054824
 20
-23.8442507367
 11
10.3860054824
 21
-24.2368706193
  0
LINE
  5
530
100
AcDbEntity
  8
0
100
AcDbLine
 62
253
  6
CONTINUOUS
 10
10.5859750215
 20
24.2368706193
 11
10.5859750215
 21
23.8443375673
  0
LINE
  5
531
100
AcDbEntity
  8
ASSI
100
AcDbLine
 62
253
  6
CONTINUOUS
 10
10.5859750215
 20
24.2368706193
 11
10.5859750215
 21
23.8443375673
  0
LINE
  5
532
100
AcDbEntity
  8
0
100
AcDbLine
 62
253
  6
CONTINUOUS
 10
10.5859750215
 20
-23.8443375673
 11
10.5859750215
 21
-24.2368706193
  0
LINE
  5
533
100
AcDbEntity
  8
ASSI
100
AcDbLine
 62
253
  6
CONTINUOUS
 10
10.5859750215
 20
-23.8443375673
 11
10.5859750215
 21
-24.2368706193
  0
LINE
  5
534
100
AcDbEntity
  8
0
100
AcDbLine
 62
7
  6
CONTINUOUS
 10
10.6
 20
24.300030461
 11
10.6
 21
22.3999997358
  0
LINE
  5
535
100
AcDbEntity
  8
ASSI
100
AcDbLine
 62
7
  6
CONTINUOUS
 10
10.6
 20
24.300030461
 11
10.6
 21
22.3999997358
  0
LINE
  5
536
100
AcDbEntity
  8
0
100
AcDbLine
 62
7
  6
CONTINUOUS
 10
10.6000000646
 20
-22.3999999296
 11
10.6
 21
-24.300030461
  0
LINE
  5
537
100
AcDbEntity
  8
ASSI
100
AcDbLine
 62
7
  6
CONTINUOUS
 10
10.6000000646
 20
-22.3999999296
 11
10.6
 21
-24.300030461
  0
LINE
  5
538
100
AcDbEntity
  8
GUSCI_ESTERNI
100
AcDbLine
 62
7
  6
CONTINUOUS
 10
10.85
 20
19.0
 11
10.85
 21
-19.0
  0
LINE
  5
539
100
AcDbEntity
  8
0
100
AcDbLine
 62
7
  6
CONTINUOUS
 10
9.3
 20
-23.1226497308
 11
9.2868325431
 21
-23.5581814706
  0
LINE
  5
53A
100
AcDbEntity
  8
ASSI
100
AcDbLine
 62
7
  6
CONTINUOUS
 10
9.3
 20
-23.1226497308
 11
9.2868325431
 21
-23.5581814706
  0
LINE
  5
53B
100
AcDbEntity
  8
DRAFT
100
AcDbLine
 62
7
  6
CONTINUOUS
 10
1.45
 20
-11.5
 11
1.4552365195
 21
-11.4947634805
  0
LINE
  5
53C
100
AcDbEntity
  8
0
100
AcDbLine
 62
7
  6
CONTINUOUS
 10
-9.3
 20
-22.4
 11
-9.2868325431
 21
-22.3868325431
  0
LINE
  5
53D
100
AcDbEntity
  8
ASSI
100
AcDbLine
 62
7
  6
CONTINUOUS
 10
-9.3
 20
-22.4
 11
-9.2868325431
 21
-22.3868325431
  0
LINE
  5
53E
100
AcDbEntity
  8
0
100
AcDbLine
 62
253
  6
CONTINUOUS
 10
-10.6
 20
-24.300030461
 11
-10.5868325431
 21
-24.286863004
  0
LINE
  5
53F
100
AcDbEntity
  8
ASSI
100
AcDbLine
 62
253
  6
CONTINUOUS
 10
-10.6
 20
-24.300030461
 11
-10.5868325431
 21
-24.286863004
  0
LINE
  5
540
100
AcDbEntity
  8
0
100
AcDbLine
 62
253
  6
CONTINUOUS
 10
-10.400030461
 20
-24.5
 11
-10.3868630041
 21
-24.4868325431
  0
LINE
  5
541
100
AcDbEntity
  8
ASSI
100
AcDbLine
 62
253
  6
CONTINUOUS
 10
-10.400030461
 20
-24.5
 11
-10.3868630041
 21
-24.4868325431
  0
LINE
  5
542
100
AcDbEntity
  8
DRAFT
100
AcDbLine
 62
7
  6
CONTINUOUS
 10
0.0
 20
9.0
 11
1.2
 21
9.0
  0
LINE
  5
543
100
AcDbEntity
  8
RACCORDO
100
AcDbLine
 62
253
  6
CONTINUOUS
 10
0.0044395892
 20
9.0044395892
 11
1.1955604108
 21
9.0044395892
  0
LINE
  5
544
100
AcDbEntity
  8
0
100
AcDbLine
 62
7
  6
CONTINUOUS
 10
5.15
 20
9.75
 11
4.65
 21
9.75
  0
LINE
  5
545
100
AcDbEntity
  8
0
100
AcDbLine
 62
7
  6
CONTINUOUS
 10
2.5666667461
 20
9.75
 11
1.8166667461
 21
9.75
  0
LINE
  5
546
100
AcDbEntity
  8
RACCORDO
100
AcDbLine
 62
253
  6
CONTINUOUS
 10
0.0130903017
 20
10.0044015123
 11
1.1869096983
 21
10.0044015123
  0
LINE
  5
547
100
AcDbEntity
  8
DRAFT
100
AcDbLine
 62
7
  6
CONTINUOUS
 10
1.2
 20
11.65
 11
1.1869096983
 21
11.6630903017
  0
LINE
  5
548
100
AcDbEntity
  8
DRAFT
100
AcDbLine
 62
7
  6
CONTINUOUS
 10
1.45
 20
11.5
 11
1.4552365195
 21
11.4947634805
  0
LINE
  5
549
100
AcDbEntity
  8
0
100
AcDbLine
 62
7
  6
CONTINUOUS
 10
-9.3
 20
22.4
 11
-9.2868325431
 21
22.3868325431
  0
LINE
  5
54A
100
AcDbEntity
  8
ASSI
100
AcDbLine
 62
7
  6
CONTINUOUS
 10
-9.3
 20
22.4
 11
-9.2868325431
 21
22.3868325431
  0
LINE
  5
54B
100
AcDbEntity
  8
RACCORDO
100
AcDbLine
 62
253
  6
CONTINUOUS
 10
-0.75
 20
14.1499428846
 11
-0.7325462644
 21
14.132489149
  0
LINE
  5
54C
100
AcDbEntity
  8
0
100
AcDbLine
 62
253
  6
CONTINUOUS
 10
-10.5868325431
 20
24.2868630041
 11
-10.6
 21
24.300030461
  0
LINE
  5
54D
100
AcDbEntity
  8
ASSI
100
AcDbLine
 62
253
  6
CONTINUOUS
 10
-10.5868325431
 20
24.2868630041
 11
-10.6
 21
24.300030461
  0
LINE
  5
54E
100
AcDbEntity
  8
0
100
AcDbLine
 62
253
  6
CONTINUOUS
 10
-10.3868630041
 20
24.4868325431
 11
-10.400030461
 21
24.5
  0
LINE
  5
54F
100
AcDbEntity
  8
ASSI
100
AcDbLine
 62
253
  6
CONTINUOUS
 10
-10.3868630041
 20
24.4868325431
 11
-10.400030461
 21
24.5
  0
LINE
  5
550
100
AcDbEntity
  8
0
100
AcDbLine
 62
253
  6
CONTINUOUS
 10
10.3864405814
 20
23.6278734767
 11
10.4017150409
 21
23.1226497308
  0
LINE
  5
551
100
AcDbEntity
  8
ASSI
100
AcDbLine
 62
253
  6
CONTINUOUS
 10
10.3864405814
 20
23.6278734767
 11
10.4017150409
 21
23.1226497308
  0
LINE
  5
552
100
AcDbEntity
  8
0
100
AcDbLine
 62
253
  6
CONTINUOUS
 10
10.5864113981
 20
23.8010362971
 11
10.6
 21
23.3515746082
  0
LINE
  5
553
100
AcDbEntity
  8
ASSI
100
AcDbLine
 62
253
  6
CONTINUOUS
 10
10.5864113981
 20
23.8010362971
 11
10.6
 21
23.3515746082
  0
LINE
  5
554
100
AcDbEntity
  8
0
100
AcDbLine
 62
7
  6
CONTINUOUS
 10
11.1
 20
-8.3327499645
 11
11.000493498
 21
-4.3977347721
  0
LINE
  5
555
100
AcDbEntity
  8
ASSI
100
AcDbLine
 62
7
  6
CONTINUOUS
 10
11.1
 20
-8.3327499645
 11
11.000493498
 21
-4.3977347721
  0
LINE
  5
556
100
AcDbEntity
  8
0
100
AcDbLine
 62
7
  6
CONTINUOUS
 10
11.1
 20
8.3327499645
 11
11.0423982857
 21
11.75
  0
LINE
  5
557
100
AcDbEntity
  8
ASSI
100
AcDbLine
 62
7
  6
CONTINUOUS
 10
11.1
 20
8.3327499645
 11
11.0423982857
 21
11.75
  0
LINE
  5
558
100
AcDbEntity
  8
RACCORDO
100
AcDbLine
 62
253
  6
CONTINUOUS
 10
10.9744618847
 20
-4.3977347721
 11
10.9744618847
 21
4.3977347721
  0
LINE
  5
559
100
AcDbEntity
  8
ASSI
100
AcDbLine
 62
253
  6
CONTINUOUS
 10
10.9744618847
 20
-4.3977347721
 11
10.9744618847
 21
4.3977347721
  0
LINE
  5
55A
100
AcDbEntity
  8
0
100
AcDbLine
 62
7
  6
CONTINUOUS
 10
11.000493498
 20
-4.3977347721
 11
11.000493498
 21
4.3977347721
  0
LINE
  5
55B
100
AcDbEntity
  8
ASSI
100
AcDbLine
 62
7
  6
CONTINUOUS
 10
11.000493498
 20
-4.3977347721
 11
11.000493498
 21
4.3977347721
  0
LINE
  5
55C
100
AcDbEntity
  8
DRAFT
100
AcDbLine
 62
7
  6
CONTINUOUS
 10
11.0423982857
 20
-18.5668742535
 11
11.0423982857
 21
-11.75
  0
LINE
  5
55D
100
AcDbEntity
  8
ASSI
100
AcDbLine
 62
7
  6
CONTINUOUS
 10
11.0423982857
 20
-18.5668742535
 11
11.0423982857
 21
-11.75
  0
LINE
  5
55E
100
AcDbEntity
  8
DRAFT
100
AcDbLine
 62
7
  6
CONTINUOUS
 10
11.0423982857
 20
11.75
 11
11.0423982857
 21
18.5668742535
  0
LINE
  5
55F
100
AcDbEntity
  8
ASSI
100
AcDbLine
 62
7
  6
CONTINUOUS
 10
11.0423982857
 20
11.75
 11
11.0423982857
 21
18.5668742535
  0
LINE
  5
560
100
AcDbEntity
  8
DRAFT
100
AcDbLine
 62
7
  6
CONTINUOUS
 10
11.0825449351
 20
21.8826210875
 11
11.0825449351
 21
18.5551134101
  0
LINE
  5
561
100
AcDbEntity
  8
ASSI
100
AcDbLine
 62
7
  6
CONTINUOUS
 10
11.0825449351
 20
21.8826210875
 11
11.0825449351
 21
18.5551134101
  0
LINE
  5
562
100
AcDbEntity
  8
DRAFT
100
AcDbLine
 62
7
  6
CONTINUOUS
 10
11.0825449351
 20
-18.5551134101
 11
11.0825449351
 21
-21.8826210875
  0
LINE
  5
563
100
AcDbEntity
  8
ASSI
100
AcDbLine
 62
7
  6
CONTINUOUS
 10
11.0825449351
 20
-18.5551134101
 11
11.0825449351
 21
-21.8826210875
  0
LINE
  5
564
100
AcDbEntity
  8
0
100
AcDbLine
 62
7
  6
CONTINUOUS
 10
11.1
 20
21.9000761524
 11
11.1
 21
8.3327499645
  0
LINE
  5
565
100
AcDbEntity
  8
ASSI
100
AcDbLine
 62
7
  6
CONTINUOUS
 10
11.1
 20
21.9000761524
 11
11.1
 21
8.3327499645
  0
LINE
  5
566
100
AcDbEntity
  8
0
100
AcDbLine
 62
7
  6
CONTINUOUS
 10
11.1
 20
-8.3327499645
 11
11.1
 21
-21.9000761524
  0
LINE
  5
567
100
AcDbEntity
  8
ASSI
100
AcDbLine
 62
7
  6
CONTINUOUS
 10
11.1
 20
-8.3327499645
 11
11.1
 21
-21.9000761524
  0
LINE
  5
568
100
AcDbEntity
  8
0
100
AcDbLine
 62
7
  6
CONTINUOUS
 10
11.1
 20
-8.3327499645
 11
11.0423982857
 21
-11.75
  0
LINE
  5
569
100
AcDbEntity
  8
ASSI
100
AcDbLine
 62
7
  6
CONTINUOUS
 10
11.1
 20
-8.3327499645
 11
11.0423982857
 21
-11.75
  0
LINE
  5
56A
100
AcDbEntity
  8
0
100
AcDbLine
 62
7
  6
CONTINUOUS
 10
11.1
 20
8.3327499645
 11
11.000493498
 21
4.3977347721
  0
LINE
  5
56B
100
AcDbEntity
  8
ASSI
100
AcDbLine
 62
7
  6
CONTINUOUS
 10
11.1
 20
8.3327499645
 11
11.000493498
 21
4.3977347721
  0
LINE
  5
56C
100
AcDbEntity
  8
0
100
AcDbLine
 62
253
  6
CONTINUOUS
 10
10.4017150409
 20
-23.1226497308
 11
10.3864421555
 21
-23.6278214108
  0
LINE
  5
56D
100
AcDbEntity
  8
ASSI
100
AcDbLine
 62
253
  6
CONTINUOUS
 10
10.4017150409
 20
-23.1226497308
 11
10.3864421555
 21
-23.6278214108
  0
LINE
  5
56E
100
AcDbEntity
  8
0
100
AcDbLine
 62
253
  6
CONTINUOUS
 10
10.6
 20
-23.3515746082
 11
10.5864113981
 21
-23.8010362971
  0
LINE
  5
56F
100
AcDbEntity
  8
ASSI
100
AcDbLine
 62
253
  6
CONTINUOUS
 10
10.6
 20
-23.3515746082
 11
10.5864113981
 21
-23.8010362971
  0
LINE
  5
570
100
AcDbEntity
  8
0
100
AcDbLine
 62
7
  6
CONTINUOUS
 10
-4.45
 20
-22.4
 11
-4.3518840226
 21
-22.3018840226
  0
LINE
  5
571
100
AcDbEntity
  8
ASSI
100
AcDbLine
 62
7
  6
CONTINUOUS
 10
-4.45
 20
-22.4
 11
-4.3518840226
 21
-22.3018840226
  0
LINE
  5
572
100
AcDbEntity
  8
GUSCI_ESTERNI
100
AcDbLine
 62
7
  6
CONTINUOUS
 10
5.45
 20
12.9
 11
8.65
 21
12.9139629885
  0
LINE
  5
573
100
AcDbEntity
  8
DRAFT
100
AcDbLine
 62
7
  6
CONTINUOUS
 10
5.45
 20
11.4947634805
 11
1.4552365195
 21
11.4947634805
  0
LINE
  5
574
100
AcDbEntity
  8
DRAFT
100
AcDbLine
 62
7
  6
CONTINUOUS
 10
5.45
 20
11.5
 11
1.45
 21
11.5
  0
LINE
  5
575
100
AcDbEntity
  8
GUSCI_ESTERNI
100
AcDbLine
 62
7
  6
CONTINUOUS
 10
-5.45
 20
11.63
 11
-8.35
 21
11.63
  0
LINE
  5
576
100
AcDbEntity
  8
ASSI
100
AcDbLine
 62
7
  6
CONTINUOUS
 10
-5.45
 20
11.63
 11
-8.35
 21
11.63
  0
LINE
  5
577
100
AcDbEntity
  8
GUSCI_ESTERNI
100
AcDbLine
 62
7
  6
CONTINUOUS
 10
8.35
 20
11.65
 11
5.45
 21
11.65
  0
LINE
  5
578
100
AcDbEntity
  8
DRAFT
100
AcDbLine
 62
7
  6
CONTINUOUS
 10
5.45
 20
11.65
 11
1.2
 21
11.65
  0
LINE
  5
579
100
AcDbEntity
  8
DRAFT
100
AcDbLine
 62
7
  6
CONTINUOUS
 10
0.0
 20
11.65
 11
-5.45
 21
11.65
  0
LINE
  5
57A
100
AcDbEntity
  8
DRAFT
100
AcDbLine
 62
7
  6
CONTINUOUS
 10
1.1869096983
 20
11.6630903017
 11
0.0130903017
 21
11.6630903017
  0
LINE
  5
57B
100
AcDbEntity
  8
DRAFT
100
AcDbLine
 62
7
  6
CONTINUOUS
 10
-5.45
 20
11.6674537356
 11
5.45
 21
11.6674537356
  0
LINE
  5
57C
100
AcDbEntity
  8
DRAFT
100
AcDbLine
 62
7
  6
CONTINUOUS
 10
-11.0423982857
 20
11.75
 11
-10.85
 21
11.75
  0
LINE
  5
57D
100
AcDbEntity
  8
ASSI
100
AcDbLine
 62
7
  6
CONTINUOUS
 10
-11.0423982857
 20
11.75
 11
-10.85
 21
11.75
  0
LINE
  5
57E
100
AcDbEntity
  8
DRAFT
100
AcDbLine
 62
7
  6
CONTINUOUS
 10
10.85
 20
11.75
 11
11.0423982857
 21
11.75
  0
LINE
  5
57F
100
AcDbEntity
  8
ASSI
100
AcDbLine
 62
7
  6
CONTINUOUS
 10
10.85
 20
11.75
 11
11.0423982857
 21
11.75
  0
LINE
  5
580
100
AcDbEntity
  8
GUSCI_ESTERNI
100
AcDbLine
 62
7
  6
CONTINUOUS
 10
-8.65
 20
12.625
 11
-5.45
 21
12.625
  0
LINE
  5
581
100
AcDbEntity
  8
ASSI
100
AcDbLine
 62
7
  6
CONTINUOUS
 10
-8.65
 20
12.625
 11
-5.45
 21
12.625
  0
LINE
  5
582
100
AcDbEntity
  8
RACCORDO
100
AcDbLine
 62
7
  6
CONTINUOUS
 10
-5.45
 20
12.6325462644
 11
-2.232489149
 21
12.6325462644
  0
LINE
  5
583
100
AcDbEntity
  8
RACCORDO
100
AcDbLine
 62
7
  6
CONTINUOUS
 10
5.45
 20
12.6325462644
 11
2.232489149
 21
12.6325462644
  0
LINE
  5
584
100
AcDbEntity
  8
RACCORDO
100
AcDbLine
 62
7
  6
CONTINUOUS
 10
-5.45
 20
12.65
 11
-2.2499428846
 21
12.65
  0
LINE
  5
585
100
AcDbEntity
  8
RACCORDO
100
AcDbLine
 62
7
  6
CONTINUOUS
 10
5.45
 20
12.65
 11
2.2499428846
 21
12.65
  0
LINE
  5
586
100
AcDbEntity
  8
GUSCI_ESTERNI
100
AcDbLine
 62
7
  6
CONTINUOUS
 10
5.45
 20
12.65
 11
8.65
 21
12.65
  0
LINE
  5
587
100
AcDbEntity
  8
RACCORDO
100
AcDbLine
 62
253
  6
CONTINUOUS
 10
0.75
 20
16.1500571154
 11
0.7325462644
 21
16.167510851
  0
LINE
  5
588
100
AcDbEntity
  8
0
100
AcDbLine
 62
7
  6
CONTINUOUS
 10
-4.45
 20
22.4
 11
-4.3518840226
 21
22.3018840226
  0
LINE
  5
589
100
AcDbEntity
  8
ASSI
100
AcDbLine
 62
7
  6
CONTINUOUS
 10
-4.45
 20
22.4
 11
-4.3518840226
 21
22.3018840226
  0
LINE
  5
58A
100
AcDbEntity
  8
0
100
AcDbLine
 62
7
  6
CONTINUOUS
 10
7.3012233427
 20
-22.2251447178
 11
7.2551134101
 21
-22.3825449351
  0
LINE
  5
58B
100
AcDbEntity
  8
ASSI
100
AcDbLine
 62
7
  6
CONTINUOUS
 10
7.3012233427
 20
-22.2251447178
 11
7.2551134101
 21
-22.3825449351
  0
LINE
  5
58C
100
AcDbEntity
  8
0
100
AcDbLine
 62
7
  6
CONTINUOUS
 10
5.45
 20
-13.7
 11
5.75
 21
-13.4
  0
LINE
  5
58D
100
AcDbEntity
  8
0
100
AcDbLine
 62
253
  6
CONTINUOUS
 10
-4.3518840226
 20
-23.6519220988
 11
-4.45
 21
-23.7500380762
  0
LINE
  5
58E
100
AcDbEntity
  8
ASSI
100
AcDbLine
 62
253
  6
CONTINUOUS
 10
-4.3518840226
 20
-23.6519220988
 11
-4.45
 21
-23.7500380762
  0
LINE
  5
58F
100
AcDbEntity
  8
0
100
AcDbLine
 62
253
  6
CONTINUOUS
 10
-4.1019220988
 20
-23.9018840226
 11
-4.2000380762
 21
-24.0
  0
LINE
  5
590
100
AcDbEntity
  8
ASSI
100
AcDbLine
 62
253
  6
CONTINUOUS
 10
-4.1019220988
 20
-23.9018840226
 11
-4.2000380762
 21
-24.0
  0
LINE
  5
591
100
AcDbEntity
  8
RACCORDO
100
AcDbLine
 62
7
  6
CONTINUOUS
 10
5.45
 20
13.15
 11
2.25
 21
13.15
  0
LINE
  5
592
100
AcDbEntity
  8
RACCORDO
100
AcDbLine
 62
7
  6
CONTINUOUS
 10
-2.25
 20
13.15
 11
-5.45
 21
13.15
  0
LINE
  5
593
100
AcDbEntity
  8
GUSCI_ESTERNI
100
AcDbLine
 62
7
  6
CONTINUOUS
 10
-8.6
 20
13.4
 11
-5.45
 21
13.4
  0
LINE
  5
594
100
AcDbEntity
  8
ASSI
100
AcDbLine
 62
7
  6
CONTINUOUS
 10
-8.6
 20
13.4
 11
-5.45
 21
13.4
  0
LINE
  5
595
100
AcDbEntity
  8
RACCORDO
100
AcDbLine
 62
7
  6
CONTINUOUS
 10
5.45
 20
13.4
 11
2.25
 21
13.4
  0
LINE
  5
596
100
AcDbEntity
  8
RACCORDO
100
AcDbLine
 62
7
  6
CONTINUOUS
 10
-2.25
 20
13.4
 11
-5.45
 21
13.4
  0
LINE
  5
597
100
AcDbEntity
  8
GUSCI_ESTERNI
100
AcDbLine
 62
7
  6
CONTINUOUS
 10
5.45
 20
13.4
 11
8.65
 21
13.4
  0
LINE
  5
598
100
AcDbEntity
  8
0
100
AcDbLine
 62
7
  6
CONTINUOUS
 10
9.3633321378
 20
13.7
 11
8.2
 21
13.7
  0
LINE
  5
599
100
AcDbEntity
  8
0
100
AcDbLine
 62
7
  6
CONTINUOUS
 10
2.7
 20
13.7
 11
1.5359935683
 21
13.7
  0
LINE
  5
59A
100
AcDbEntity
  8
0
100
AcDbLine
 62
7
  6
CONTINUOUS
 10
-1.5359935683
 20
13.7
 11
-2.7
 21
13.7
  0
LINE
  5
59B
100
AcDbEntity
  8
0
100
AcDbLine
 62
7
  6
CONTINUOUS
 10
-8.2
 20
13.7
 11
-9.3138917984
 21
13.7
  0
LINE
  5
59C
100
AcDbEntity
  8
GUSCI_ESTERNI
100
AcDbLine
 62
253
  6
CONTINUOUS
 10
9.6317531964
 20
13.9
 11
9.5160254038
 21
13.9
  0
LINE
  5
59D
100
AcDbEntity
  8
GUSCI_ESTERNI
100
AcDbLine
 62
253
  6
CONTINUOUS
 10
-9.5909655852
 20
14.15
 11
-9.5682458366
 21
14.15
  0
LINE
  5
59E
100
AcDbEntity
  8
ASSI
100
AcDbLine
 62
253
  6
CONTINUOUS
 10
-9.5909655852
 20
14.15
 11
-9.5682458366
 21
14.15
  0
LINE
  5
59F
100
AcDbEntity
  8
GUSCI_ESTERNI
100
AcDbLine
 62
7
  6
CONTINUOUS
 10
-5.45
 20
13.15
 11
-8.6
 21
13.1568724084
  0
LINE
  5
5A0
100
AcDbEntity
  8
ASSI
100
AcDbLine
 62
7
  6
CONTINUOUS
 10
-5.45
 20
13.15
 11
-8.6
 21
13.1568724084
  0
LINE
  5
5A1
100
AcDbEntity
  8
0
100
AcDbLine
 62
7
  6
CONTINUOUS
 10
5.75
 20
13.4
 11
5.45
 21
13.7
  0
LINE
  5
5A2
100
AcDbEntity
  8
0
100
AcDbLine
 62
253
  6
CONTINUOUS
 10
-4.45
 20
23.7500380762
 11
-4.3518840226
 21
23.6519220988
  0
LINE
  5
5A3
100
AcDbEntity
  8
ASSI
100
AcDbLine
 62
253
  6
CONTINUOUS
 10
-4.45
 20
23.7500380762
 11
-4.3518840226
 21
23.6519220988
  0
LINE
  5
5A4
100
AcDbEntity
  8
0
100
AcDbLine
 62
253
  6
CONTINUOUS
 10
-4.2000380762
 20
24.0
 11
-4.1019220988
 21
23.9018840226
  0
LINE
  5
5A5
100
AcDbEntity
  8
ASSI
100
AcDbLine
 62
253
  6
CONTINUOUS
 10
-4.2000380762
 20
24.0
 11
-4.1019220988
 21
23.9018840226
  0
LINE
  5
5A6
100
AcDbEntity
  8
RACCORDO
100
AcDbLine
 62
253
  6
CONTINUOUS
 10
2.2499428846
 20
17.65
 11
2.232489149
 21
17.6674537356
  0
LINE
  5
5A7
100
AcDbEntity
  8
0
100
AcDbLine
 62
7
  6
CONTINUOUS
 10
7.3012233427
 20
22.2251447178
 11
7.2551134101
 21
22.3825449351
  0
LINE
  5
5A8
100
AcDbEntity
  8
ASSI
100
AcDbLine
 62
7
  6
CONTINUOUS
 10
7.3012233427
 20
22.2251447178
 11
7.2551134101
 21
22.3825449351
  0
LINE
  5
5A9
100
AcDbEntity
  8
RACCORDO
100
AcDbLine
 62
7
  6
CONTINUOUS
 10
-0.0042111233
 20
-21.7542111233
 11
-0.0086507125
 21
-21.7586507125
  0
LINE
  5
5AA
100
AcDbEntity
  8
GUSCI_ESTERNI
100
AcDbLine
 62
7
  6
CONTINUOUS
 10
-5.45
 20
17.15
 11
-8.6
 21
17.1431275916
  0
LINE
  5
5AB
100
AcDbEntity
  8
ASSI
100
AcDbLine
 62
7
  6
CONTINUOUS
 10
-5.45
 20
17.15
 11
-8.6
 21
17.1431275916
  0
LINE
  5
5AC
100
AcDbEntity
  8
GUSCI_ESTERNI
100
AcDbLine
 62
253
  6
CONTINUOUS
 10
-9.5909655852
 20
16.15
 11
-9.5682458366
 21
16.15
  0
LINE
  5
5AD
100
AcDbEntity
  8
ASSI
100
AcDbLine
 62
253
  6
CONTINUOUS
 10
-9.5909655852
 20
16.15
 11
-9.5682458366
 21
16.15
  0
LINE
  5
5AE
100
AcDbEntity
  8
GUSCI_ESTERNI
100
AcDbLine
 62
253
  6
CONTINUOUS
 10
9.6317531964
 20
16.4
 11
9.5160254038
 21
16.4
  0
LINE
  5
5AF
100
AcDbEntity
  8
RACCORDO
100
AcDbLine
 62
7
  6
CONTINUOUS
 10
-5.45
 20
16.9
 11
-2.25
 21
16.9
  0
LINE
  5
5B0
100
AcDbEntity
  8
GUSCI_ESTERNI
100
AcDbLine
 62
7
  6
CONTINUOUS
 10
8.65
 20
16.9
 11
5.45
 21
16.9
  0
LINE
  5
5B1
100
AcDbEntity
  8
RACCORDO
100
AcDbLine
 62
7
  6
CONTINUOUS
 10
2.25
 20
16.9
 11
5.45
 21
16.9
  0
LINE
  5
5B2
100
AcDbEntity
  8
GUSCI_ESTERNI
100
AcDbLine
 62
7
  6
CONTINUOUS
 10
-5.45
 20
16.9
 11
-8.6
 21
16.9
  0
LINE
  5
5B3
100
AcDbEntity
  8
ASSI
100
AcDbLine
 62
7
  6
CONTINUOUS
 10
-5.45
 20
16.9
 11
-8.6
 21
16.9
  0
LINE
  5
5B4
100
AcDbEntity
  8
RACCORDO
100
AcDbLine
 62
7
  6
CONTINUOUS
 10
-5.45
 20
17.15
 11
-2.25
 21
17.15
  0
LINE
  5
5B5
100
AcDbEntity
  8
RACCORDO
100
AcDbLine
 62
7
  6
CONTINUOUS
 10
2.25
 20
17.15
 11
5.45
 21
17.15
  0
LINE
  5
5B6
100
AcDbEntity
  8
0
100
AcDbLine
 62
253
  6
CONTINUOUS
 10
0.8174550649
 20
-23.7325830113
 11
0.8
 21
-23.7500380762
  0
LINE
  5
5B7
100
AcDbEntity
  8
ASSI
100
AcDbLine
 62
253
  6
CONTINUOUS
 10
0.8174550649
 20
-23.7325830113
 11
0.8
 21
-23.7500380762
  0
LINE
  5
5B8
100
AcDbEntity
  8
0
100
AcDbLine
 62
253
  6
CONTINUOUS
 10
1.0674169887
 20
-23.9825449351
 11
1.0499619238
 21
-24.0
  0
LINE
  5
5B9
100
AcDbEntity
  8
ASSI
100
AcDbLine
 62
253
  6
CONTINUOUS
 10
1.0674169887
 20
-23.9825449351
 11
1.0499619238
 21
-24.0
  0
LINE
  5
5BA
100
AcDbEntity
  8
0
100
AcDbLine
 62
7
  6
CONTINUOUS
 10
3.5
 20
-22.3825449351
 11
3.5806609125
 21
-22.3018840226
  0
LINE
  5
5BB
100
AcDbEntity
  8
ASSI
100
AcDbLine
 62
7
  6
CONTINUOUS
 10
3.5
 20
-22.3825449351
 11
3.5806609125
 21
-22.3018840226
  0
LINE
  5
5BC
100
AcDbEntity
  8
0
100
AcDbLine
 62
253
  6
CONTINUOUS
 10
3.5806609125
 20
-23.6519220988
 11
3.5
 21
-23.7325830113
  0
LINE
  5
5BD
100
AcDbEntity
  8
ASSI
100
AcDbLine
 62
253
  6
CONTINUOUS
 10
3.5806609125
 20
-23.6519220988
 11
3.5
 21
-23.7325830113
  0
LINE
  5
5BE
100
AcDbEntity
  8
RACCORDO
100
AcDbLine
 62
7
  6
CONTINUOUS
 10
-5.45
 20
17.65
 11
-2.2499428846
 21
17.65
  0
LINE
  5
5BF
100
AcDbEntity
  8
GUSCI_ESTERNI
100
AcDbLine
 62
7
  6
CONTINUOUS
 10
8.65
 20
17.65
 11
5.45
 21
17.65
  0
LINE
  5
5C0
100
AcDbEntity
  8
RACCORDO
100
AcDbLine
 62
7
  6
CONTINUOUS
 10
5.45
 20
17.65
 11
2.2499428846
 21
17.65
  0
LINE
  5
5C1
100
AcDbEntity
  8
RACCORDO
100
AcDbLine
 62
7
  6
CONTINUOUS
 10
-5.45
 20
17.6674537356
 11
-2.232489149
 21
17.6674537356
  0
LINE
  5
5C2
100
AcDbEntity
  8
RACCORDO
100
AcDbLine
 62
7
  6
CONTINUOUS
 10
5.45
 20
17.6674537356
 11
2.232489149
 21
17.6674537356
  0
LINE
  5
5C3
100
AcDbEntity
  8
GUSCI_ESTERNI
100
AcDbLine
 62
7
  6
CONTINUOUS
 10
-5.45
 20
17.675
 11
-8.65
 21
17.675
  0
LINE
  5
5C4
100
AcDbEntity
  8
ASSI
100
AcDbLine
 62
7
  6
CONTINUOUS
 10
-5.45
 20
17.675
 11
-8.65
 21
17.675
  0
LINE
  5
5C5
100
AcDbEntity
  8
DRAFT
100
AcDbLine
 62
7
  6
CONTINUOUS
 10
-5.45
 20
18.6325462644
 11
5.45
 21
18.6325462644
  0
LINE
  5
5C6
100
AcDbEntity
  8
DRAFT
100
AcDbLine
 62
7
  6
CONTINUOUS
 10
5.45
 20
18.65
 11
-5.45
 21
18.65
  0
LINE
  5
5C7
100
AcDbEntity
  8
GUSCI_ESTERNI
100
AcDbLine
 62
7
  6
CONTINUOUS
 10
5.45
 20
18.65
 11
8.35
 21
18.65
  0
LINE
  5
5C8
100
AcDbEntity
  8
GUSCI_ESTERNI
100
AcDbLine
 62
7
  6
CONTINUOUS
 10
-8.35
 20
18.67
 11
-5.45
 21
18.67
  0
LINE
  5
5C9
100
AcDbEntity
  8
ASSI
100
AcDbLine
 62
7
  6
CONTINUOUS
 10
-8.35
 20
18.67
 11
-5.45
 21
18.67
  0
LINE
  5
5CA
100
AcDbEntity
  8
GUSCI_ESTERNI
100
AcDbLine
 62
7
  6
CONTINUOUS
 10
5.45
 20
17.4
 11
8.65
 21
17.3860370115
  0
LINE
  5
5CB
100
AcDbEntity
  8
0
100
AcDbLine
 62
253
  6
CONTINUOUS
 10
0.8
 20
23.7500380762
 11
0.8174550649
 21
23.7325830113
  0
LINE
  5
5CC
100
AcDbEntity
  8
ASSI
100
AcDbLine
 62
253
  6
CONTINUOUS
 10
0.8
 20
23.7500380762
 11
0.8174550649
 21
23.7325830113
  0
LINE
  5
5CD
100
AcDbEntity
  8
0
100
AcDbLine
 62
253
  6
CONTINUOUS
 10
1.0499619238
 20
24.0
 11
1.0674169887
 21
23.9825449351
  0
LINE
  5
5CE
100
AcDbEntity
  8
ASSI
100
AcDbLine
 62
253
  6
CONTINUOUS
 10
1.0499619238
 20
24.0
 11
1.0674169887
 21
23.9825449351
  0
LINE
  5
5CF
100
AcDbEntity
  8
0
100
AcDbLine
 62
7
  6
CONTINUOUS
 10
3.5806609125
 20
22.3018840226
 11
3.5
 21
22.3825449351
  0
LINE
  5
5D0
100
AcDbEntity
  8
ASSI
100
AcDbLine
 62
7
  6
CONTINUOUS
 10
3.5806609125
 20
22.3018840226
 11
3.5
 21
22.3825449351
  0
LINE
  5
5D1
100
AcDbEntity
  8
0
100
AcDbLine
 62
253
  6
CONTINUOUS
 10
3.5
 20
23.7325830113
 11
3.5806609125
 21
23.6519220988
  0
LINE
  5
5D2
100
AcDbEntity
  8
ASSI
100
AcDbLine
 62
253
  6
CONTINUOUS
 10
3.5
 20
23.7325830113
 11
3.5806609125
 21
23.6519220988
  0
LINE
  5
5D3
100
AcDbEntity
  8
0
100
AcDbLine
 62
253
  6
CONTINUOUS
 10
3.8306228363
 20
-23.9018840226
 11
3.7499619238
 21
-23.9825449351
  0
LINE
  5
5D4
100
AcDbEntity
  8
ASSI
100
AcDbLine
 62
253
  6
CONTINUOUS
 10
3.8306228363
 20
-23.9018840226
 11
3.7499619238
 21
-23.9825449351
  0
LINE
  5
5D5
100
AcDbEntity
  8
DRAFT
100
AcDbLine
 62
7
  6
CONTINUOUS
 10
10.85
 20
-18.7592725392
 11
11.0423982857
 21
-18.5668742535
  0
LINE
  5
5D6
100
AcDbEntity
  8
ASSI
100
AcDbLine
 62
7
  6
CONTINUOUS
 10
10.85
 20
-18.7592725392
 11
11.0423982857
 21
-18.5668742535
  0
LINE
  5
5D7
100
AcDbEntity
  8
DRAFT
100
AcDbLine
 62
7
  6
CONTINUOUS
 10
11.0825449351
 20
-18.5551134101
 11
10.85
 21
-18.7876583452
  0
LINE
  5
5D8
100
AcDbEntity
  8
ASSI
100
AcDbLine
 62
7
  6
CONTINUOUS
 10
11.0825449351
 20
-18.5551134101
 11
10.85
 21
-18.7876583452
  0
LINE
  5
5D9
100
AcDbEntity
  8
DRAFT
100
AcDbLine
 62
7
  6
CONTINUOUS
 10
8.1613196735
 20
-21.4763386717
 11
7.2551134101
 21
-22.3825449351
  0
LINE
  5
5DA
100
AcDbEntity
  8
ASSI
100
AcDbLine
 62
7
  6
CONTINUOUS
 10
8.1613196735
 20
-21.4763386717
 11
7.2551134101
 21
-22.3825449351
  0
LINE
  5
5DB
100
AcDbEntity
  8
GUSCI_ESTERNI
100
AcDbLine
 62
7
  6
CONTINUOUS
 10
10.85
 20
-19.0
 11
8.3755307198
 21
-21.4744692802
  0
LINE
  5
5DC
100
AcDbEntity
  8
DRAFT
100
AcDbLine
 62
7
  6
CONTINUOUS
 10
11.0423982857
 20
-18.5668742535
 11
11.0825449351
 21
-18.5551134101
  0
LINE
  5
5DD
100
AcDbEntity
  8
ASSI
100
AcDbLine
 62
7
  6
CONTINUOUS
 10
11.0423982857
 20
-18.5668742535
 11
11.0825449351
 21
-18.5551134101
  0
LINE
  5
5DE
100
AcDbEntity
  8
GUSCI_ESTERNI
100
AcDbLine
 62
253
  6
CONTINUOUS
 10
-5.45
 20
20.6000380769
 11
-9.3842960041
 21
20.5657039959
  0
LINE
  5
5DF
100
AcDbEntity
  8
ASSI
100
AcDbLine
 62
253
  6
CONTINUOUS
 10
-5.45
 20
20.6000380769
 11
-9.3842960041
 21
20.5657039959
  0
LINE
  5
5E0
100
AcDbEntity
  8
GUSCI_ESTERNI
100
AcDbLine
 62
7
  6
CONTINUOUS
 10
-10.85
 20
19.4811503675
 11
-10.4675145008
 21
19.4824854992
  0
LINE
  5
5E1
100
AcDbEntity
  8
ASSI
100
AcDbLine
 62
7
  6
CONTINUOUS
 10
-10.85
 20
19.4811503675
 11
-10.4675145008
 21
19.4824854992
  0
LINE
  5
5E2
100
AcDbEntity
  8
RACCORDO
100
AcDbLine
 62
253
  6
CONTINUOUS
 10
-5.45
 20
20.7586887894
 11
5.45
 21
20.7586887894
  0
LINE
  5
5E3
100
AcDbEntity
  8
GUSCI_ESTERNI
100
AcDbLine
 62
253
  6
CONTINUOUS
 10
5.45
 20
20.5000380769
 11
9.3842960041
 21
20.4657039959
  0
LINE
  5
5E4
100
AcDbEntity
  8
DRAFT
100
AcDbLine
 62
7
  6
CONTINUOUS
 10
11.0423982857
 20
18.5668742535
 11
11.0825449351
 21
18.5551134101
  0
LINE
  5
5E5
100
AcDbEntity
  8
ASSI
100
AcDbLine
 62
7
  6
CONTINUOUS
 10
11.0423982857
 20
18.5668742535
 11
11.0825449351
 21
18.5551134101
  0
LINE
  5
5E6
100
AcDbEntity
  8
0
100
AcDbLine
 62
253
  6
CONTINUOUS
 10
3.7499619238
 20
23.9825449351
 11
3.8306228363
 21
23.9018840226
  0
LINE
  5
5E7
100
AcDbEntity
  8
ASSI
100
AcDbLine
 62
253
  6
CONTINUOUS
 10
3.7499619238
 20
23.9825449351
 11
3.8306228363
 21
23.9018840226
  0
LINE
  5
5E8
100
AcDbEntity
  8
DRAFT
100
AcDbLine
 62
7
  6
CONTINUOUS
 10
11.0423982857
 20
18.5668742535
 11
10.85
 21
18.7592725392
  0
LINE
  5
5E9
100
AcDbEntity
  8
ASSI
100
AcDbLine
 62
7
  6
CONTINUOUS
 10
11.0423982857
 20
18.5668742535
 11
10.85
 21
18.7592725392
  0
LINE
  5
5EA
100
AcDbEntity
  8
DRAFT
100
AcDbLine
 62
7
  6
CONTINUOUS
 10
7.2551134101
 20
22.3825449351
 11
8.1613196735
 21
21.4763386717
  0
LINE
  5
5EB
100
AcDbEntity
  8
ASSI
100
AcDbLine
 62
7
  6
CONTINUOUS
 10
7.2551134101
 20
22.3825449351
 11
8.1613196735
 21
21.4763386717
  0
LINE
  5
5EC
100
AcDbEntity
  8
DRAFT
100
AcDbLine
 62
7
  6
CONTINUOUS
 10
10.85
 20
18.7876583452
 11
11.0825449351
 21
18.5551134101
  0
LINE
  5
5ED
100
AcDbEntity
  8
ASSI
100
AcDbLine
 62
7
  6
CONTINUOUS
 10
10.85
 20
18.7876583452
 11
11.0825449351
 21
18.5551134101
  0
LINE
  5
5EE
100
AcDbEntity
  8
GUSCI_ESTERNI
100
AcDbLine
 62
7
  6
CONTINUOUS
 10
8.3755307198
 20
21.4744692802
 11
10.85
 21
19.0
  0
LINE
  5
5EF
100
AcDbEntity
  8
0
100
AcDbLine
 62
7
  6
CONTINUOUS
 10
8.5
 20
-22.4
 11
8.5131674569
 21
-22.3868325431
  0
LINE
  5
5F0
100
AcDbEntity
  8
ASSI
100
AcDbLine
 62
7
  6
CONTINUOUS
 10
8.5
 20
-22.4
 11
8.5131674569
 21
-22.3868325431
  0
LINE
  5
5F1
100
AcDbEntity
  8
0
100
AcDbLine
 62
253
  6
CONTINUOUS
 10
7.2131674569
 20
-24.286863004
 11
7.2
 21
-24.300030461
  0
LINE
  5
5F2
100
AcDbEntity
  8
ASSI
100
AcDbLine
 62
253
  6
CONTINUOUS
 10
7.2131674569
 20
-24.286863004
 11
7.2
 21
-24.300030461
  0
LINE
  5
5F3
100
AcDbEntity
  8
0
100
AcDbLine
 62
253
  6
CONTINUOUS
 10
7.4131369959
 20
-24.4868325431
 11
7.399969539
 21
-24.5
  0
LINE
  5
5F4
100
AcDbEntity
  8
ASSI
100
AcDbLine
 62
253
  6
CONTINUOUS
 10
7.4131369959
 20
-24.4868325431
 11
7.399969539
 21
-24.5
  0
LINE
  5
5F5
100
AcDbEntity
  8
0
100
AcDbLine
 62
7
  6
CONTINUOUS
 10
-0.8174550649
 20
22.398254669
 11
-0.8
 21
22.4
  0
LINE
  5
5F6
100
AcDbEntity
  8
ASSI
100
AcDbLine
 62
7
  6
CONTINUOUS
 10
-0.8174550649
 20
22.398254669
 11
-0.8
 21
22.4
  0
LINE
  5
5F7
100
AcDbEntity
  8
GUSCI_ESTERNI
100
AcDbLine
 62
7
  6
CONTINUOUS
 10
-5.45
 20
21.6
 11
-8.3755307198
 21
21.5744692802
  0
LINE
  5
5F8
100
AcDbEntity
  8
ASSI
100
AcDbLine
 62
7
  6
CONTINUOUS
 10
-5.45
 20
21.6
 11
-8.3755307198
 21
21.5744692802
  0
LINE
  5
5F9
100
AcDbEntity
  8
RACCORDO
100
AcDbLine
 62
253
  6
CONTINUOUS
 10
-5.45
 20
21.7586507125
 11
5.45
 21
21.7586507125
  0
LINE
  5
5FA
100
AcDbEntity
  8
DRAFT
100
AcDbLine
 62
7
  6
CONTINUOUS
 10
5.45
 20
21.7587268678
 11
-5.45
 21
21.7587268678
  0
LINE
  5
5FB
100
AcDbEntity
  8
ASSI
100
AcDbLine
 62
253
  6
CONTINUOUS
 10
7.3012233427
 20
22.2251447178
 11
-7.3012233427
 21
22.2251447178
  0
LINE
  5
5FC
100
AcDbEntity
  8
0
100
AcDbLine
 62
7
  6
CONTINUOUS
 10
10.5826210875
 20
22.3825449351
 11
9.0368706193
 21
22.3825449351
  0
LINE
  5
5FD
100
AcDbEntity
  8
ASSI
100
AcDbLine
 62
7
  6
CONTINUOUS
 10
10.5826210875
 20
22.3825449351
 11
9.0368706193
 21
22.3825449351
  0
LINE
  5
5FE
100
AcDbEntity
  8
0
100
AcDbLine
 62
7
  6
CONTINUOUS
 10
8.7631293807
 20
22.3825449351
 11
7.2551134101
 21
22.3825449351
  0
LINE
  5
5FF
100
AcDbEntity
  8
ASSI
100
AcDbLine
 62
7
  6
CONTINUOUS
 10
8.7631293807
 20
22.3825449351
 11
7.2551134101
 21
22.3825449351
  0
LINE
  5
600
100
AcDbEntity
  8
ASSI
100
AcDbLine
 62
7
  6
CONTINUOUS
 10
-3.5
 20
22.3825449351
 11
3.5
 21
22.3825449351
  0
LINE
  5
601
100
AcDbEntity
  8
0
100
AcDbLine
 62
7
  6
CONTINUOUS
 10
-7.2551134101
 20
22.3825449351
 11
-8.7631293807
 21
22.3825449351
  0
LINE
  5
602
100
AcDbEntity
  8
ASSI
100
AcDbLine
 62
7
  6
CONTINUOUS
 10
-7.2551134101
 20
22.3825449351
 11
-8.7631293807
 21
22.3825449351
  0
LINE
  5
603
100
AcDbEntity
  8
0
100
AcDbLine
 62
7
  6
CONTINUOUS
 10
-9.0368706193
 20
22.3825449351
 11
-10.5826210875
 21
22.3825449351
  0
LINE
  5
604
100
AcDbEntity
  8
ASSI
100
AcDbLine
 62
7
  6
CONTINUOUS
 10
-9.0368706193
 20
22.3825449351
 11
-10.5826210875
 21
22.3825449351
  0
LINE
  5
605
100
AcDbEntity
  8
0
100
AcDbLine
 62
7
  6
CONTINUOUS
 10
-0.8174550649
 20
22.398254669
 11
0.8174550649
 21
22.398254669
  0
LINE
  5
606
100
AcDbEntity
  8
ASSI
100
AcDbLine
 62
7
  6
CONTINUOUS
 10
-0.8174550649
 20
22.398254669
 11
0.8174550649
 21
22.398254669
  0
LINE
  5
607
100
AcDbEntity
  8
0
100
AcDbLine
 62
7
  6
CONTINUOUS
 10
-10.6000000646
 20
22.3999999354
 11
-9.3
 21
22.4
  0
LINE
  5
608
100
AcDbEntity
  8
ASSI
100
AcDbLine
 62
7
  6
CONTINUOUS
 10
-10.6000000646
 20
22.3999999354
 11
-9.3
 21
22.4
  0
LINE
  5
609
100
AcDbEntity
  8
0
100
AcDbLine
 62
7
  6
CONTINUOUS
 10
-8.5
 20
22.4
 11
-4.45
 21
22.4
  0
LINE
  5
60A
100
AcDbEntity
  8
ASSI
100
AcDbLine
 62
7
  6
CONTINUOUS
 10
-8.5
 20
22.4
 11
-4.45
 21
22.4
  0
LINE
  5
60B
100
AcDbEntity
  8
0
100
AcDbLine
 62
7
  6
CONTINUOUS
 10
4.45
 20
22.4
 11
8.5
 21
22.4
  0
LINE
  5
60C
100
AcDbEntity
  8
ASSI
100
AcDbLine
 62
7
  6
CONTINUOUS
 10
4.45
 20
22.4
 11
8.5
 21
22.4
  0
LINE
  5
60D
100
AcDbEntity
  8
0
100
AcDbLine
 62
7
  6
CONTINUOUS
 10
9.3
 20
22.4
 11
10.6
 21
22.3999999999
  0
LINE
  5
60E
100
AcDbEntity
  8
ASSI
100
AcDbLine
 62
7
  6
CONTINUOUS
 10
9.3
 20
22.4
 11
10.6
 21
22.3999999999
  0
LINE
  5
60F
100
AcDbEntity
  8
0
100
AcDbLine
 62
7
  6
CONTINUOUS
 10
-10.4017150409
 20
23.1226497308
 11
-9.3
 21
23.1226497308
  0
LINE
  5
610
100
AcDbEntity
  8
ASSI
100
AcDbLine
 62
7
  6
CONTINUOUS
 10
-10.4017150409
 20
23.1226497308
 11
-9.3
 21
23.1226497308
  0
LINE
  5
611
100
AcDbEntity
  8
0
100
AcDbLine
 62
7
  6
CONTINUOUS
 10
-8.5
 20
23.1226497308
 11
-7.3982849591
 21
23.1226497308
  0
LINE
  5
612
100
AcDbEntity
  8
ASSI
100
AcDbLine
 62
7
  6
CONTINUOUS
 10
-8.5
 20
23.1226497308
 11
-7.3982849591
 21
23.1226497308
  0
LINE
  5
613
100
AcDbEntity
  8
0
100
AcDbLine
 62
7
  6
CONTINUOUS
 10
7.3982849591
 20
23.1226497308
 11
8.5
 21
23.1226497308
  0
LINE
  5
614
100
AcDbEntity
  8
ASSI
100
AcDbLine
 62
7
  6
CONTINUOUS
 10
7.3982849591
 20
23.1226497308
 11
8.5
 21
23.1226497308
  0
LINE
  5
615
100
AcDbEntity
  8
0
100
AcDbLine
 62
7
  6
CONTINUOUS
 10
9.3
 20
23.1226497308
 11
10.4017150409
 21
23.1226497308
  0
LINE
  5
616
100
AcDbEntity
  8
ASSI
100
AcDbLine
 62
7
  6
CONTINUOUS
 10
9.3
 20
23.1226497308
 11
10.4017150409
 21
23.1226497308
  0
LINE
  5
617
100
AcDbEntity
  8
GUSCI_ESTERNI
100
AcDbLine
 62
7
  6
CONTINUOUS
 10
5.45
 20
21.5
 11
8.3755307198
 21
21.4744692802
  0
LINE
  5
618
100
AcDbEntity
  8
0
100
AcDbLine
 62
7
  6
CONTINUOUS
 10
0.8174550649
 20
22.398254669
 11
0.8
 21
22.4
  0
LINE
  5
619
100
AcDbEntity
  8
ASSI
100
AcDbLine
 62
7
  6
CONTINUOUS
 10
0.8174550649
 20
22.398254669
 11
0.8
 21
22.4
  0
LINE
  5
61A
100
AcDbEntity
  8
0
100
AcDbLine
 62
7
  6
CONTINUOUS
 10
8.5
 20
22.4
 11
8.5131674569
 21
22.3868325431
  0
LINE
  5
61B
100
AcDbEntity
  8
ASSI
100
AcDbLine
 62
7
  6
CONTINUOUS
 10
8.5
 20
22.4
 11
8.5131674569
 21
22.3868325431
  0
LINE
  5
61C
100
AcDbEntity
  8
0
100
AcDbLine
 62
253
  6
CONTINUOUS
 10
7.2
 20
24.300030461
 11
7.2131674569
 21
24.2868630041
  0
LINE
  5
61D
100
AcDbEntity
  8
ASSI
100
AcDbLine
 62
253
  6
CONTINUOUS
 10
7.2
 20
24.300030461
 11
7.2131674569
 21
24.2868630041
  0
LINE
  5
61E
100
AcDbEntity
  8
0
100
AcDbLine
 62
253
  6
CONTINUOUS
 10
7.399969539
 20
24.5
 11
7.4131369959
 21
24.4868325431
  0
LINE
  5
61F
100
AcDbEntity
  8
ASSI
100
AcDbLine
 62
253
  6
CONTINUOUS
 10
7.399969539
 20
24.5
 11
7.4131369959
 21
24.4868325431
  0
LINE
  5
620
100
AcDbEntity
  8
0
100
AcDbLine
 62
253
  6
CONTINUOUS
 10
-10.3864405812
 20
23.6278734826
 11
-9.2533769702
 21
23.6278312164
  0
LINE
  5
621
100
AcDbEntity
  8
ASSI
100
AcDbLine
 62
253
  6
CONTINUOUS
 10
-10.3864405812
 20
23.6278734826
 11
-9.2533769702
 21
23.6278312164
  0
LINE
  5
622
100
AcDbEntity
  8
0
100
AcDbLine
 62
253
  6
CONTINUOUS
 10
9.2533769702
 20
23.6278312164
 11
10.3864405814
 21
23.6278734767
  0
LINE
  5
623
100
AcDbEntity
  8
ASSI
100
AcDbLine
 62
253
  6
CONTINUOUS
 10
9.2533769702
 20
23.6278312164
 11
10.3864405814
 21
23.6278734767
  0
LINE
  5
624
100
AcDbEntity
  8
0
100
AcDbLine
 62
253
  6
CONTINUOUS
 10
-8.5466230298
 20
23.6278312164
 11
-7.4135581657
 21
23.6278320349
  0
LINE
  5
625
100
AcDbEntity
  8
ASSI
100
AcDbLine
 62
253
  6
CONTINUOUS
 10
-8.5466230298
 20
23.6278312164
 11
-7.4135581657
 21
23.6278320349
  0
LINE
  5
626
100
AcDbEntity
  8
0
100
AcDbLine
 62
253
  6
CONTINUOUS
 10
7.4135581719
 20
23.6278322392
 11
8.5466230298
 21
23.6278312164
  0
LINE
  5
627
100
AcDbEntity
  8
ASSI
100
AcDbLine
 62
253
  6
CONTINUOUS
 10
7.4135581719
 20
23.6278322392
 11
8.5466230298
 21
23.6278312164
  0
LINE
  5
628
100
AcDbEntity
  8
0
100
AcDbLine
 62
253
  6
CONTINUOUS
 10
-10.5859750215
 20
23.8443375673
 11
-9.0368706193
 21
23.8443375673
  0
LINE
  5
629
100
AcDbEntity
  8
ASSI
100
AcDbLine
 62
253
  6
CONTINUOUS
 10
-10.5859750215
 20
23.8443375673
 11
-9.0368706193
 21
23.8443375673
  0
LINE
  5
62A
100
AcDbEntity
  8
0
100
AcDbLine
 62
253
  6
CONTINUOUS
 10
10.5859750215
 20
23.8443375673
 11
9.0368706193
 21
23.8443375673
  0
LINE
  5
62B
100
AcDbEntity
  8
ASSI
100
AcDbLine
 62
253
  6
CONTINUOUS
 10
10.5859750215
 20
23.8443375673
 11
9.0368706193
 21
23.8443375673
  0
LINE
  5
62C
100
AcDbEntity
  8
0
100
AcDbLine
 62
253
  6
CONTINUOUS
 10
8.7631293807
 20
23.8443375673
 11
7.2140249785
 21
23.8443375673
  0
LINE
  5
62D
100
AcDbEntity
  8
ASSI
100
AcDbLine
 62
253
  6
CONTINUOUS
 10
8.7631293807
 20
23.8443375673
 11
7.2140249785
 21
23.8443375673
  0
LINE
  5
62E
100
AcDbEntity
  8
0
100
AcDbLine
 62
253
  6
CONTINUOUS
 10
-7.2140249785
 20
23.8443375673
 11
-8.7631293807
 21
23.8443375673
  0
LINE
  5
62F
100
AcDbEntity
  8
ASSI
100
AcDbLine
 62
253
  6
CONTINUOUS
 10
-7.2140249785
 20
23.8443375673
 11
-8.7631293807
 21
23.8443375673
  0
LINE
  5
630
100
AcDbEntity
  8
0
100
AcDbLine
 62
7
  6
CONTINUOUS
 10
-3.7499619238
 20
23.9825449351
 11
-1.0674169887
 21
23.9825449351
  0
LINE
  5
631
100
AcDbEntity
  8
ASSI
100
AcDbLine
 62
7
  6
CONTINUOUS
 10
-3.7499619238
 20
23.9825449351
 11
-1.0674169887
 21
23.9825449351
  0
LINE
  5
632
100
AcDbEntity
  8
0
100
AcDbLine
 62
7
  6
CONTINUOUS
 10
1.0674169887
 20
23.9825449351
 11
3.7499619238
 21
23.9825449351
  0
LINE
  5
633
100
AcDbEntity
  8
ASSI
100
AcDbLine
 62
7
  6
CONTINUOUS
 10
1.0674169887
 20
23.9825449351
 11
3.7499619238
 21
23.9825449351
  0
LINE
  5
634
100
AcDbEntity
  8
0
100
AcDbLine
 62
7
  6
CONTINUOUS
 10
-4.2000380762
 20
24.0
 11
-1.0499619238
 21
24.0
  0
LINE
  5
635
100
AcDbEntity
  8
ASSI
100
AcDbLine
 62
7
  6
CONTINUOUS
 10
-4.2000380762
 20
24.0
 11
-1.0499619238
 21
24.0
  0
LINE
  5
636
100
AcDbEntity
  8
0
100
AcDbLine
 62
7
  6
CONTINUOUS
 10
1.0499619238
 20
24.0
 11
4.2000380762
 21
24.0
  0
LINE
  5
637
100
AcDbEntity
  8
ASSI
100
AcDbLine
 62
7
  6
CONTINUOUS
 10
1.0499619238
 20
24.0
 11
4.2000380762
 21
24.0
  0
LINE
  5
638
100
AcDbEntity
  8
0
100
AcDbLine
 62
253
  6
CONTINUOUS
 10
10.5859750215
 20
24.2368706193
 11
7.2140249785
 21
24.2368706193
  0
LINE
  5
639
100
AcDbEntity
  8
ASSI
100
AcDbLine
 62
253
  6
CONTINUOUS
 10
10.5859750215
 20
24.2368706193
 11
7.2140249785
 21
24.2368706193
  0
LINE
  5
63A
100
AcDbEntity
  8
0
100
AcDbLine
 62
253
  6
CONTINUOUS
 10
-7.2140249785
 20
24.2368706193
 11
-10.5859750215
 21
24.2368706193
  0
LINE
  5
63B
100
AcDbEntity
  8
ASSI
100
AcDbLine
 62
253
  6
CONTINUOUS
 10
-7.2140249785
 20
24.2368706193
 11
-10.5859750215
 21
24.2368706193
  0
LINE
  5
63C
100
AcDbEntity
  8
0
100
AcDbLine
 62
253
  6
CONTINUOUS
 10
10.3868630041
 20
24.4868325431
 11
7.4131369959
 21
24.4868325431
  0
LINE
  5
63D
100
AcDbEntity
  8
ASSI
100
AcDbLine
 62
253
  6
CONTINUOUS
 10
10.3868630041
 20
24.4868325431
 11
7.4131369959
 21
24.4868325431
  0
LINE
  5
63E
100
AcDbEntity
  8
0
100
AcDbLine
 62
253
  6
CONTINUOUS
 10
-7.4131369959
 20
24.4868325431
 11
-10.3868630041
 21
24.4868325431
  0
LINE
  5
63F
100
AcDbEntity
  8
ASSI
100
AcDbLine
 62
253
  6
CONTINUOUS
 10
-7.4131369959
 20
24.4868325431
 11
-10.3868630041
 21
24.4868325431
  0
LINE
  5
640
100
AcDbEntity
  8
0
100
AcDbLine
 62
7
  6
CONTINUOUS
 10
-10.400030461
 20
24.5
 11
-7.399969539
 21
24.5
  0
LINE
  5
641
100
AcDbEntity
  8
ASSI
100
AcDbLine
 62
7
  6
CONTINUOUS
 10
-10.400030461
 20
24.5
 11
-7.399969539
 21
24.5
  0
LINE
  5
642
100
AcDbEntity
  8
0
100
AcDbLine
 62
7
  6
CONTINUOUS
 10
7.399969539
 20
24.5
 11
10.400030461
 21
24.5
  0
LINE
  5
643
100
AcDbEntity
  8
ASSI
100
AcDbLine
 62
7
  6
CONTINUOUS
 10
7.399969539
 20
24.5
 11
10.400030461
 21
24.5
  0
ARC
  5
644
100
AcDbEntity
  8
RACCORDO
100
AcDbCircle
 62
7
  6
CONTINUOUS
 10
-43.5014007405
 20
-57.4322487732
 40
50.4994416676
100
AcDbArc
 50
44.6401623814
 51
45.2340733047
  0
ARC
  5
645
100
AcDbEntity
  8
ASSI
100
AcDbCircle
 62
7
  6
CONTINUOUS
 10
-43.5014007405
 20
-57.4322487732
 40
50.4994416676
100
AcDbArc
 50
44.6401623814
 51
45.2340733047
  0
ARC
  5
646
100
AcDbEntity
  8
RACCORDO
100
AcDbCircle
 62
253
  6
CONTINUOUS
 10
-67.6558963496
 20
-21.4166607676
 40
60.0889043123
100
AcDbArc
 50
359.4926696157
 51
359.84262404
  0
ARC
  5
647
100
AcDbEntity
  8
ASSI
100
AcDbCircle
 62
253
  6
CONTINUOUS
 10
-67.6558963496
 20
-21.4166607676
 40
60.0889043123
100
AcDbArc
 50
359.4926696157
 51
359.84262404
  0
ARC
  5
648
100
AcDbEntity
  8
0
100
AcDbCircle
 62
253
  6
CONTINUOUS
 10
-27.4626192193
 20
-23.8063786102
 40
34.8766343908
100
AcDbArc
 50
359.9376439284
 51
0.2933212156
  0
ARC
  5
649
100
AcDbEntity
  8
ASSI
100
AcDbCircle
 62
253
  6
CONTINUOUS
 10
-27.4626192193
 20
-23.8063786102
 40
34.8766343908
100
AcDbArc
 50
359.9376439284
 51
0.2933212156
  0
ARC
  5
64A
100
AcDbEntity
  8
0
100
AcDbCircle
 62
7
  6
CONTINUOUS
 10
-10.6001595987
 20
-21.9001682181
 40
0.4998372686
100
AcDbArc
 50
179.9806905203
 51
270.0182948298
  0
ARC
  5
64B
100
AcDbEntity
  8
ASSI
100
AcDbCircle
 62
7
  6
CONTINUOUS
 10
-10.6001595987
 20
-21.9001682181
 40
0.4998372686
100
AcDbArc
 50
179.9806905203
 51
270.0182948298
  0
ARC
  5
64C
100
AcDbEntity
  8
0
100
AcDbCircle
 62
7
  6
CONTINUOUS
 10
-4.2000395761
 20
-23.7500395761
 40
0.2499612619
100
AcDbArc
 50
179.9996562073
 51
270.0003437927
  0
ARC
  5
64D
100
AcDbEntity
  8
ASSI
100
AcDbCircle
 62
7
  6
CONTINUOUS
 10
-4.2000395761
 20
-23.7500395761
 40
0.2499612619
100
AcDbArc
 50
179.9996562073
 51
270.0003437927
  0
ARC
  5
64E
100
AcDbEntity
  8
0
100
AcDbCircle
 62
253
  6
CONTINUOUS
 10
-7.4132101695
 20
-24.2867898305
 40
0.2000430909
100
AcDbArc
 50
270.0209581896
 51
359.9790418103
  0
ARC
  5
64F
100
AcDbEntity
  8
0
100
AcDbCircle
 62
253
  6
CONTINUOUS
 10
-10.3867898305
 20
-24.2867898305
 40
0.2000430909
100
AcDbArc
 50
180.02095819
 51
269.97904181
  0
ARC
  5
650
100
AcDbEntity
  8
ASSI
100
AcDbCircle
 62
253
  6
CONTINUOUS
 10
-7.4132101695
 20
-24.2867898305
 40
0.2000430909
100
AcDbArc
 50
270.0209581896
 51
359.9790418103
  0
ARC
  5
651
100
AcDbEntity
  8
ASSI
100
AcDbCircle
 62
253
  6
CONTINUOUS
 10
-10.3867898305
 20
-24.2867898305
 40
0.2000430909
100
AcDbArc
 50
180.02095819
 51
269.97904181
  0
ARC
  5
652
100
AcDbEntity
  8
0
100
AcDbCircle
 62
7
  6
CONTINUOUS
 10
-7.3999572982
 20
-24.3000427018
 40
0.1999569277
100
AcDbArc
 50
269.9964925066
 51
0.0035074934
  0
ARC
  5
653
100
AcDbEntity
  8
0
100
AcDbCircle
 62
7
  6
CONTINUOUS
 10
-10.4000426585
 20
-24.3000426585
 40
0.1999569277
100
AcDbArc
 50
179.9965049109
 51
270.0034950891
  0
ARC
  5
654
100
AcDbEntity
  8
ASSI
100
AcDbCircle
 62
7
  6
CONTINUOUS
 10
-7.3999572982
 20
-24.3000427018
 40
0.1999569277
100
AcDbArc
 50
269.9964925066
 51
0.0035074934
  0
ARC
  5
655
100
AcDbEntity
  8
ASSI
100
AcDbCircle
 62
7
  6
CONTINUOUS
 10
-10.4000426585
 20
-24.3000426585
 40
0.1999569277
100
AcDbArc
 50
179.9965049109
 51
270.0034950891
  0
ARC
  5
656
100
AcDbEntity
  8
0
100
AcDbCircle
 62
7
  6
CONTINUOUS
 10
-7.6791428116
 20
-18.6661245296
 40
7.0323720025
100
AcDbArc
 50
44.9250002878
 51
48.4903222757
  0
ARC
  5
657
100
AcDbEntity
  8
GUSCI_ESTERNI
100
AcDbCircle
 62
7
  6
CONTINUOUS
 10
-8.6
 20
-15.9
 40
1.0
100
AcDbArc
 50
180.0
 51
270.0
  0
ARC
  5
658
100
AcDbEntity
  8
GUSCI_ESTERNI
100
AcDbCircle
 62
7
  6
CONTINUOUS
 10
-8.6
 20
-14.4
 40
1.0
100
AcDbArc
 50
90.0
 51
180.0
  0
ARC
  5
659
100
AcDbEntity
  8
ASSI
100
AcDbCircle
 62
7
  6
CONTINUOUS
 10
-8.6
 20
-15.9
 40
1.0
100
AcDbArc
 50
180.0
 51
270.0
  0
ARC
  5
65A
100
AcDbEntity
  8
ASSI
100
AcDbCircle
 62
7
  6
CONTINUOUS
 10
-8.6
 20
-14.4
 40
1.0
100
AcDbArc
 50
90.0
 51
180.0
  0
ARC
  5
65B
100
AcDbEntity
  8
0
100
AcDbCircle
 62
7
  6
CONTINUOUS
 10
-4.0
 20
-23.2
 40
0.5
100
AcDbArc
 50
154.1580672368
 51
205.8419327632
  0
ARC
  5
65C
100
AcDbEntity
  8
ASSI
100
AcDbCircle
 62
7
  6
CONTINUOUS
 10
-4.0
 20
-23.2
 40
0.5
100
AcDbArc
 50
154.1580672368
 51
205.8419327632
  0
ARC
  5
65D
100
AcDbEntity
  8
0
100
AcDbCircle
 62
7
  6
CONTINUOUS
 10
-4.0
 20
-23.2
 40
0.4904006794
100
AcDbArc
 50
136.2076703059
 51
223.7923296941
  0
ARC
  5
65E
100
AcDbEntity
  8
ASSI
100
AcDbCircle
 62
7
  6
CONTINUOUS
 10
-4.0
 20
-23.2
 40
0.4904006794
100
AcDbArc
 50
136.2076703059
 51
223.7923296941
  0
ARC
  5
65F
100
AcDbEntity
  8
0
100
AcDbCircle
 62
253
  6
CONTINUOUS
 10
-4.1018306317
 20
-23.6518306317
 40
0.2500538638
100
AcDbArc
 50
180.020958236
 51
269.979041764
  0
ARC
  5
660
100
AcDbEntity
  8
ASSI
100
AcDbCircle
 62
253
  6
CONTINUOUS
 10
-4.1018306317
 20
-23.6518306317
 40
0.2500538638
100
AcDbArc
 50
180.020958236
 51
269.979041764
  0
ARC
  5
661
100
AcDbEntity
  8
0
100
AcDbCircle
 62
253
  6
CONTINUOUS
 10
-3.8307142387
 20
-23.6518306964
 40
0.2500538605
100
AcDbArc
 50
270.0209434272
 51
359.9790566038
  0
ARC
  5
662
100
AcDbEntity
  8
ASSI
100
AcDbCircle
 62
253
  6
CONTINUOUS
 10
-3.8307142387
 20
-23.6518306964
 40
0.2500538605
100
AcDbArc
 50
270.0209434272
 51
359.9790566038
  0
ARC
  5
663
100
AcDbEntity
  8
0
100
AcDbCircle
 62
7
  6
CONTINUOUS
 10
-1.0499674725
 20
-23.7500325275
 40
0.2499699324
100
AcDbArc
 50
270.0012718308
 51
359.9987281692
  0
ARC
  5
664
100
AcDbEntity
  8
ASSI
100
AcDbCircle
 62
7
  6
CONTINUOUS
 10
-1.0499674725
 20
-23.7500325275
 40
0.2499699324
100
AcDbArc
 50
270.0012718308
 51
359.9987281692
  0
ARC
  5
665
100
AcDbEntity
  8
0
100
AcDbCircle
 62
7
  6
CONTINUOUS
 10
1.049960424
 20
-23.750039576
 40
0.2499612619
100
AcDbArc
 50
179.9996562108
 51
270.0003437892
  0
ARC
  5
666
100
AcDbEntity
  8
ASSI
100
AcDbCircle
 62
7
  6
CONTINUOUS
 10
1.049960424
 20
-23.750039576
 40
0.2499612619
100
AcDbArc
 50
179.9996562108
 51
270.0003437892
  0
ARC
  5
667
100
AcDbEntity
  8
0
100
AcDbCircle
 62
7
  6
CONTINUOUS
 10
-3.0803564378
 20
-18.8152603286
 40
7.2371706097
100
AcDbArc
 50
131.5601316655
 51
135.0245376775
  0
ARC
  5
668
100
AcDbEntity
  8
RACCORDO
100
AcDbCircle
 62
7
  6
CONTINUOUS
 10
2.25
 20
-14.4
 40
1.0
100
AcDbArc
 50
90.0
 51
180.0
  0
ARC
  5
669
100
AcDbEntity
  8
RACCORDO
100
AcDbCircle
 62
7
  6
CONTINUOUS
 10
2.25
 20
-15.9
 40
1.0
100
AcDbArc
 50
180.0
 51
270.0
  0
ARC
  5
66A
100
AcDbEntity
  8
RACCORDO
100
AcDbCircle
 62
7
  6
CONTINUOUS
 10
-2.25
 20
-15.9
 40
1.0
100
AcDbArc
 50
270.0
 51
360.0
  0
ARC
  5
66B
100
AcDbEntity
  8
RACCORDO
100
AcDbCircle
 62
7
  6
CONTINUOUS
 10
-2.25
 20
-14.4
 40
1.0
100
AcDbArc
 50
0.0
 51
90.0
  0
ARC
  5
66C
100
AcDbEntity
  8
SMUSSO
100
AcDbCircle
 62
7
  6
CONTINUOUS
 10
-5.05
 20
-1.5
 40
1.35
100
AcDbArc
 50
170.4031420291
 51
189.5968579709
  0
ARC
  5
66D
100
AcDbEntity
  8
SMUSSO
100
AcDbCircle
 62
7
  6
CONTINUOUS
 10
-5.05
 20
-1.5
 40
0.85
100
AcDbArc
 50
151.9249350285
 51
208.0750649715
  0
ARC
  5
66E
100
AcDbEntity
  8
ASSI
100
AcDbCircle
 62
7
  6
CONTINUOUS
 10
-5.45
 20
-1.5
 40
0.4
100
AcDbArc
 50
270.0
 51
90.0
  0
ARC
  5
66F
100
AcDbEntity
  8
GUSCI_ESTERNI
100
AcDbCircle
 62
7
  6
CONTINUOUS
 10
-6.05
 20
-1.5
 40
0.4
100
AcDbArc
 50
90.0
 51
270.0
  0
ARC
  5
670
100
AcDbEntity
  8
ASSI
100
AcDbCircle
 62
7
  6
CONTINUOUS
 10
-6.05
 20
-1.5
 40
0.4
100
AcDbArc
 50
90.0
 51
270.0
  0
ARC
  5
671
100
AcDbEntity
  8
0
100
AcDbCircle
 62
7
  6
CONTINUOUS
 10
-5.05
 20
-1.5
 40
0.2
100
AcDbArc
 50
104.5103154316
 51
255.4896845684
  0
ARC
  5
672
100
AcDbEntity
  8
RACCORDO
100
AcDbCircle
 62
253
  6
CONTINUOUS
 10
-67.6500049433
 20
21.4166879492
 40
60.0830128991
100
AcDbArc
 50
0.1572851206
 51
0.5073584704
  0
ARC
  5
673
100
AcDbEntity
  8
ASSI
100
AcDbCircle
 62
253
  6
CONTINUOUS
 10
-67.6500049433
 20
21.4166879492
 40
60.0830128991
100
AcDbArc
 50
0.1572851206
 51
0.5073584704
  0
ARC
  5
674
100
AcDbEntity
  8
0
100
AcDbCircle
 62
253
  6
CONTINUOUS
 10
-45.2599106771
 20
23.806377655
 40
34.873925888
100
AcDbArc
 50
359.7067270348
 51
0.0623987992
  0
ARC
  5
675
100
AcDbEntity
  8
ASSI
100
AcDbCircle
 62
253
  6
CONTINUOUS
 10
-45.2599106771
 20
23.806377655
 40
34.873925888
100
AcDbArc
 50
359.7067270348
 51
0.0623987992
  0
ARC
  5
676
100
AcDbEntity
  8
RACCORDO
100
AcDbCircle
 62
7
  6
CONTINUOUS
 10
-45.1125492567
 20
59.0330796502
 40
52.770655524
100
AcDbArc
 50
314.9185175503
 51
315.3522351215
  0
ARC
  5
677
100
AcDbEntity
  8
ASSI
100
AcDbCircle
 62
7
  6
CONTINUOUS
 10
-45.1125492567
 20
59.0330796502
 40
52.770655524
100
AcDbArc
 50
314.9185175503
 51
315.3522351215
  0
ARC
  5
678
100
AcDbEntity
  8
RACCORDO
100
AcDbCircle
 62
7
  6
CONTINUOUS
 10
-34.6818383947
 20
48.5681688454
 40
37.9952004286
100
AcDbArc
 50
314.7555681429
 51
314.9232982804
  0
ARC
  5
679
100
AcDbEntity
  8
ASSI
100
AcDbCircle
 62
7
  6
CONTINUOUS
 10
-34.6818383947
 20
48.5681688454
 40
37.9952004286
100
AcDbArc
 50
314.7555681429
 51
314.9232982804
  0
ARC
  5
67A
100
AcDbEntity
  8
0
100
AcDbCircle
 62
7
  6
CONTINUOUS
 10
-7.8196435622
 20
18.8152603286
 40
7.2371706097
100
AcDbArc
 50
311.5601316655
 51
315.0245376775
  0
ARC
  5
67B
100
AcDbEntity
  8
GUSCI_ESTERNI
100
AcDbCircle
 62
7
  6
CONTINUOUS
 10
-8.35
 20
16.17
 40
2.5
100
AcDbArc
 50
90.0
 51
180.0
  0
ARC
  5
67C
100
AcDbEntity
  8
GUSCI_ESTERNI
100
AcDbCircle
 62
7
  6
CONTINUOUS
 10
-8.35
 20
14.13
 40
2.5
100
AcDbArc
 50
180.0
 51
270.0
  0
ARC
  5
67D
100
AcDbEntity
  8
ASSI
100
AcDbCircle
 62
7
  6
CONTINUOUS
 10
-8.35
 20
16.17
 40
2.5
100
AcDbArc
 50
90.0
 51
180.0
  0
ARC
  5
67E
100
AcDbEntity
  8
ASSI
100
AcDbCircle
 62
7
  6
CONTINUOUS
 10
-8.35
 20
14.13
 40
2.5
100
AcDbArc
 50
180.0
 51
270.0
  0
ARC
  5
67F
100
AcDbEntity
  8
GUSCI_ESTERNI
100
AcDbCircle
 62
7
  6
CONTINUOUS
 10
-8.65
 20
14.125
 40
1.5
100
AcDbArc
 50
180.0
 51
270.0
  0
ARC
  5
680
100
AcDbEntity
  8
GUSCI_ESTERNI
100
AcDbCircle
 62
7
  6
CONTINUOUS
 10
-8.65
 20
16.175
 40
1.5
100
AcDbArc
 50
90.0
 51
180.0
  0
ARC
  5
681
100
AcDbEntity
  8
ASSI
100
AcDbCircle
 62
7
  6
CONTINUOUS
 10
-8.65
 20
14.125
 40
1.5
100
AcDbArc
 50
180.0
 51
270.0
  0
ARC
  5
682
100
AcDbEntity
  8
ASSI
100
AcDbCircle
 62
7
  6
CONTINUOUS
 10
-8.65
 20
16.175
 40
1.5
100
AcDbArc
 50
90.0
 51
180.0
  0
ARC
  5
683
100
AcDbEntity
  8
GUSCI_ESTERNI
100
AcDbCircle
 62
7
  6
CONTINUOUS
 10
-8.6
 20
14.4
 40
1.0
100
AcDbArc
 50
180.0
 51
270.0
  0
ARC
  5
684
100
AcDbEntity
  8
GUSCI_ESTERNI
100
AcDbCircle
 62
7
  6
CONTINUOUS
 10
-8.6
 20
15.9
 40
1.0
100
AcDbArc
 50
90.0
 51
180.0
  0
ARC
  5
685
100
AcDbEntity
  8
ASSI
100
AcDbCircle
 62
7
  6
CONTINUOUS
 10
-8.6
 20
14.4
 40
1.0
100
AcDbArc
 50
180.0
 51
270.0
  0
ARC
  5
686
100
AcDbEntity
  8
ASSI
100
AcDbCircle
 62
7
  6
CONTINUOUS
 10
-8.6
 20
15.9
 40
1.0
100
AcDbArc
 50
90.0
 51
180.0
  0
ARC
  5
687
100
AcDbEntity
  8
0
100
AcDbCircle
 62
7
  6
CONTINUOUS
 10
-10.6001587126
 20
21.9001678853
 40
0.4998378818
100
AcDbArc
 50
89.9818141664
 51
180.0105151551
  0
ARC
  5
688
100
AcDbEntity
  8
ASSI
100
AcDbCircle
 62
7
  6
CONTINUOUS
 10
-10.6001587126
 20
21.9001678853
 40
0.4998378818
100
AcDbArc
 50
89.9818141664
 51
180.0105151551
  0
ARC
  5
689
100
AcDbEntity
  8
0
100
AcDbCircle
 62
7
  6
CONTINUOUS
 10
-4.2000395761
 20
23.7500395761
 40
0.2499612619
100
AcDbArc
 50
89.9996562026
 51
180.0003437974
  0
ARC
  5
68A
100
AcDbEntity
  8
ASSI
100
AcDbCircle
 62
7
  6
CONTINUOUS
 10
-4.2000395761
 20
23.7500395761
 40
0.2499612619
100
AcDbArc
 50
89.9996562026
 51
180.0003437974
  0
ARC
  5
68B
100
AcDbEntity
  8
0
100
AcDbCircle
 62
253
  6
CONTINUOUS
 10
-7.4132101203
 20
24.2867898797
 40
0.2000430909
100
AcDbArc
 50
0.020944126
 51
89.979055874
  0
ARC
  5
68C
100
AcDbEntity
  8
0
100
AcDbCircle
 62
253
  6
CONTINUOUS
 10
-10.3867898305
 20
24.2867898305
 40
0.2000430909
100
AcDbArc
 50
90.0209581928
 51
179.9790418072
  0
ARC
  5
68D
100
AcDbEntity
  8
ASSI
100
AcDbCircle
 62
253
  6
CONTINUOUS
 10
-7.4132101203
 20
24.2867898797
 40
0.2000430909
100
AcDbArc
 50
0.020944126
 51
89.979055874
  0
ARC
  5
68E
100
AcDbEntity
  8
ASSI
100
AcDbCircle
 62
253
  6
CONTINUOUS
 10
-10.3867898305
 20
24.2867898305
 40
0.2000430909
100
AcDbArc
 50
90.0209581928
 51
179.9790418072
  0
ARC
  5
68F
100
AcDbEntity
  8
0
100
AcDbCircle
 62
7
  6
CONTINUOUS
 10
-7.3999572982
 20
24.3000427018
 40
0.1999569277
100
AcDbArc
 50
359.9964925066
 51
90.0035074934
  0
ARC
  5
690
100
AcDbEntity
  8
0
100
AcDbCircle
 62
7
  6
CONTINUOUS
 10
-10.4000426585
 20
24.3000426585
 40
0.1999569277
100
AcDbArc
 50
89.9965049109
 51
180.0034950891
  0
ARC
  5
691
100
AcDbEntity
  8
ASSI
100
AcDbCircle
 62
7
  6
CONTINUOUS
 10
-7.3999572982
 20
24.3000427018
 40
0.1999569277
100
AcDbArc
 50
359.9964925066
 51
90.0035074934
  0
ARC
  5
692
100
AcDbEntity
  8
ASSI
100
AcDbCircle
 62
7
  6
CONTINUOUS
 10
-10.4000426585
 20
24.3000426585
 40
0.1999569277
100
AcDbArc
 50
89.9965049109
 51
180.0034950891
  0
ARC
  5
693
100
AcDbEntity
  8
0
100
AcDbCircle
 62
7
  6
CONTINUOUS
 10
-3.2208571884
 20
18.6661245296
 40
7.0323720025
100
AcDbArc
 50
224.9250002878
 51
228.4903222757
  0
ARC
  5
694
100
AcDbEntity
  8
RACCORDO
100
AcDbCircle
 62
7
  6
CONTINUOUS
 10
-2.25
 20
15.9
 40
1.0
100
AcDbArc
 50
0.0
 51
90.0
  0
ARC
  5
695
100
AcDbEntity
  8
RACCORDO
100
AcDbCircle
 62
7
  6
CONTINUOUS
 10
-2.25
 20
14.4
 40
1.0
100
AcDbArc
 50
270.0
 51
360.0
  0
ARC
  5
696
100
AcDbEntity
  8
RACCORDO
100
AcDbCircle
 62
7
  6
CONTINUOUS
 10
2.25
 20
14.4
 40
1.0
100
AcDbArc
 50
180.0
 51
270.0
  0
ARC
  5
697
100
AcDbEntity
  8
RACCORDO
100
AcDbCircle
 62
7
  6
CONTINUOUS
 10
2.25
 20
15.9
 40
1.0
100
AcDbArc
 50
90.0
 51
180.0
  0
ARC
  5
698
100
AcDbEntity
  8
0
100
AcDbCircle
 62
7
  6
CONTINUOUS
 10
-4.0
 20
23.2
 40
0.5
100
AcDbArc
 50
154.1580672368
 51
205.8419327632
  0
ARC
  5
699
100
AcDbEntity
  8
ASSI
100
AcDbCircle
 62
7
  6
CONTINUOUS
 10
-4.0
 20
23.2
 40
0.5
100
AcDbArc
 50
154.1580672368
 51
205.8419327632
  0
ARC
  5
69A
100
AcDbEntity
  8
0
100
AcDbCircle
 62
7
  6
CONTINUOUS
 10
-4.0
 20
23.2
 40
0.4904006794
100
AcDbArc
 50
136.2076703059
 51
223.7923296941
  0
ARC
  5
69B
100
AcDbEntity
  8
ASSI
100
AcDbCircle
 62
7
  6
CONTINUOUS
 10
-4.0
 20
23.2
 40
0.4904006794
100
AcDbArc
 50
136.2076703059
 51
223.7923296941
  0
ARC
  5
69C
100
AcDbEntity
  8
0
100
AcDbCircle
 62
253
  6
CONTINUOUS
 10
-3.8307142419
 20
23.6518306932
 40
0.2500538637
100
AcDbArc
 50
0.0209441593
 51
89.9790558407
  0
ARC
  5
69D
100
AcDbEntity
  8
ASSI
100
AcDbCircle
 62
253
  6
CONTINUOUS
 10
-3.8307142419
 20
23.6518306932
 40
0.2500538637
100
AcDbArc
 50
0.0209441593
 51
89.9790558407
  0
ARC
  5
69E
100
AcDbEntity
  8
0
100
AcDbCircle
 62
253
  6
CONTINUOUS
 10
-4.1018306367
 20
23.6518306368
 40
0.2500538587
100
AcDbArc
 50
90.0209570929
 51
179.9790429448
  0
ARC
  5
69F
100
AcDbEntity
  8
ASSI
100
AcDbCircle
 62
253
  6
CONTINUOUS
 10
-4.1018306367
 20
23.6518306368
 40
0.2500538587
100
AcDbArc
 50
90.0209570929
 51
179.9790429448
  0
ARC
  5
6A0
100
AcDbEntity
  8
0
100
AcDbCircle
 62
7
  6
CONTINUOUS
 10
-1.0499674725
 20
23.7500325275
 40
0.2499699324
100
AcDbArc
 50
0.0012718308
 51
89.9987281692
  0
ARC
  5
6A1
100
AcDbEntity
  8
ASSI
100
AcDbCircle
 62
7
  6
CONTINUOUS
 10
-1.0499674725
 20
23.7500325275
 40
0.2499699324
100
AcDbArc
 50
0.0012718308
 51
89.9987281692
  0
ARC
  5
6A2
100
AcDbEntity
  8
0
100
AcDbCircle
 62
7
  6
CONTINUOUS
 10
1.0499604239
 20
23.7500395761
 40
0.2499612619
100
AcDbArc
 50
89.9996562074
 51
180.0003437926
  0
ARC
  5
6A3
100
AcDbEntity
  8
ASSI
100
AcDbCircle
 62
7
  6
CONTINUOUS
 10
1.0499604239
 20
23.7500395761
 40
0.2499612619
100
AcDbArc
 50
89.9996562074
 51
180.0003437926
  0
ARC
  5
6A4
100
AcDbEntity
  8
RACCORDO
100
AcDbCircle
 62
253
  6
CONTINUOUS
 10
72.6790003971
 20
-21.3791584342
 40
65.1121438855
100
AcDbArc
 50
180.0902074017
 51
180.501195694
  0
ARC
  5
6A5
100
AcDbEntity
  8
ASSI
100
AcDbCircle
 62
253
  6
CONTINUOUS
 10
72.6790003971
 20
-21.3791584342
 40
65.1121438855
100
AcDbArc
 50
180.0902074017
 51
180.501195694
  0
ARC
  5
6A6
100
AcDbEntity
  8
RACCORDO
100
AcDbCircle
 62
7
  6
CONTINUOUS
 10
43.0177845975
 20
-56.9487930525
 40
49.8156314953
100
AcDbArc
 50
134.7772319264
 51
135.3646079068
  0
ARC
  5
6A7
100
AcDbEntity
  8
ASSI
100
AcDbCircle
 62
7
  6
CONTINUOUS
 10
43.0177845975
 20
-56.9487930525
 40
49.8156314953
100
AcDbArc
 50
134.7772319264
 51
135.3646079068
  0
ARC
  5
6A8
100
AcDbEntity
  8
0
100
AcDbCircle
 62
253
  6
CONTINUOUS
 10
45.6667535895
 20
-23.8071705124
 40
35.2807675404
100
AcDbArc
 50
179.708736756
 51
180.0602180988
  0
ARC
  5
6A9
100
AcDbEntity
  8
ASSI
100
AcDbCircle
 62
253
  6
CONTINUOUS
 10
45.6667535895
 20
-23.8071705124
 40
35.2807675404
100
AcDbArc
 50
179.708736756
 51
180.0602180988
  0
ARC
  5
6AA
100
AcDbEntity
  8
0
100
AcDbCircle
 62
7
  6
CONTINUOUS
 10
7.8196435622
 20
-18.8152603286
 40
7.2371706097
100
AcDbArc
 50
131.5601316655
 51
135.0245376775
  0
ARC
  5
6AB
100
AcDbEntity
  8
0
100
AcDbCircle
 62
7
  6
CONTINUOUS
 10
3.2208571884
 20
-18.6661245296
 40
7.0323720025
100
AcDbArc
 50
44.9250002878
 51
48.4903222757
  0
ARC
  5
6AC
100
AcDbEntity
  8
GUSCI_ESTERNI
100
AcDbCircle
 62
7
  6
CONTINUOUS
 10
8.65
 20
-14.4
 40
1.0
100
AcDbArc
 50
0.0
 51
90.0
  0
ARC
  5
6AD
100
AcDbEntity
  8
GUSCI_ESTERNI
100
AcDbCircle
 62
7
  6
CONTINUOUS
 10
8.65
 20
-15.9
 40
1.0
100
AcDbArc
 50
270.0
 51
360.0
  0
ARC
  5
6AE
100
AcDbEntity
  8
0
100
AcDbCircle
 62
7
  6
CONTINUOUS
 10
4.0
 20
-23.2
 40
0.5
100
AcDbArc
 50
334.1580672368
 51
25.8419327632
  0
ARC
  5
6AF
100
AcDbEntity
  8
ASSI
100
AcDbCircle
 62
7
  6
CONTINUOUS
 10
4.0
 20
-23.2
 40
0.5
100
AcDbArc
 50
334.1580672368
 51
25.8419327632
  0
ARC
  5
6B0
100
AcDbEntity
  8
0
100
AcDbCircle
 62
7
  6
CONTINUOUS
 10
10.6001586991
 20
-21.9001678667
 40
0.4998379147
100
AcDbArc
 50
269.9818157201
 51
0.0105130182
  0
ARC
  5
6B1
100
AcDbEntity
  8
ASSI
100
AcDbCircle
 62
7
  6
CONTINUOUS
 10
10.6001586991
 20
-21.9001678667
 40
0.4998379147
100
AcDbArc
 50
269.9818157201
 51
0.0105130182
  0
ARC
  5
6B2
100
AcDbEntity
  8
0
100
AcDbCircle
 62
7
  6
CONTINUOUS
 10
4.0
 20
-23.2
 40
0.4904006794
100
AcDbArc
 50
316.2076703059
 51
43.7923296941
  0
ARC
  5
6B3
100
AcDbEntity
  8
ASSI
100
AcDbCircle
 62
7
  6
CONTINUOUS
 10
4.0
 20
-23.2
 40
0.4904006794
100
AcDbArc
 50
316.2076703059
 51
43.7923296941
  0
ARC
  5
6B4
100
AcDbEntity
  8
ASSI
100
AcDbCircle
 62
7
  6
CONTINUOUS
 10
5.45
 20
-0.5
 40
0.4
100
AcDbArc
 50
90.0
 51
270.0
  0
ARC
  5
6B5
100
AcDbEntity
  8
GUSCI_ESTERNI
100
AcDbCircle
 62
7
  6
CONTINUOUS
 10
6.05
 20
-1.5
 40
0.4
100
AcDbArc
 50
270.0
 51
90.0
  0
ARC
  5
6B6
100
AcDbEntity
  8
0
100
AcDbCircle
 62
253
  6
CONTINUOUS
 10
3.8307143033
 20
-23.6518306317
 40
0.2500538638
100
AcDbArc
 50
180.020958236
 51
269.979041764
  0
ARC
  5
6B7
100
AcDbEntity
  8
ASSI
100
AcDbCircle
 62
253
  6
CONTINUOUS
 10
3.8307143033
 20
-23.6518306317
 40
0.2500538638
100
AcDbArc
 50
180.020958236
 51
269.979041764
  0
ARC
  5
6B8
100
AcDbEntity
  8
0
100
AcDbCircle
 62
253
  6
CONTINUOUS
 10
4.1018306964
 20
-23.6518306964
 40
0.2500538605
100
AcDbArc
 50
270.0209434272
 51
359.9790566038
  0
ARC
  5
6B9
100
AcDbEntity
  8
ASSI
100
AcDbCircle
 62
253
  6
CONTINUOUS
 10
4.1018306964
 20
-23.6518306964
 40
0.2500538605
100
AcDbArc
 50
270.0209434272
 51
359.9790566038
  0
ARC
  5
6BA
100
AcDbEntity
  8
0
100
AcDbCircle
 62
7
  6
CONTINUOUS
 10
4.2000395761
 20
-23.7500395761
 40
0.2499612619
100
AcDbArc
 50
269.9996562038
 51
0.0003437962
  0
ARC
  5
6BB
100
AcDbEntity
  8
ASSI
100
AcDbCircle
 62
7
  6
CONTINUOUS
 10
4.2000395761
 20
-23.7500395761
 40
0.2499612619
100
AcDbArc
 50
269.9996562038
 51
0.0003437962
  0
ARC
  5
6BC
100
AcDbEntity
  8
0
100
AcDbCircle
 62
253
  6
CONTINUOUS
 10
10.3867898305
 20
-24.2867898305
 40
0.2000430909
100
AcDbArc
 50
270.020958193
 51
359.979041807
  0
ARC
  5
6BD
100
AcDbEntity
  8
0
100
AcDbCircle
 62
253
  6
CONTINUOUS
 10
7.4132101695
 20
-24.2867898305
 40
0.2000430909
100
AcDbArc
 50
180.020958193
 51
269.979041807
  0
ARC
  5
6BE
100
AcDbEntity
  8
ASSI
100
AcDbCircle
 62
253
  6
CONTINUOUS
 10
10.3867898305
 20
-24.2867898305
 40
0.2000430909
100
AcDbArc
 50
270.020958193
 51
359.979041807
  0
ARC
  5
6BF
100
AcDbEntity
  8
ASSI
100
AcDbCircle
 62
253
  6
CONTINUOUS
 10
7.4132101695
 20
-24.2867898305
 40
0.2000430909
100
AcDbArc
 50
180.020958193
 51
269.979041807
  0
ARC
  5
6C0
100
AcDbEntity
  8
0
100
AcDbCircle
 62
7
  6
CONTINUOUS
 10
10.4000426585
 20
-24.3000426585
 40
0.1999569277
100
AcDbArc
 50
269.9965049109
 51
0.0034950891
  0
ARC
  5
6C1
100
AcDbEntity
  8
0
100
AcDbCircle
 62
7
  6
CONTINUOUS
 10
7.3999573415
 20
-24.3000426585
 40
0.1999569277
100
AcDbArc
 50
179.9965049109
 51
270.0034950891
  0
ARC
  5
6C2
100
AcDbEntity
  8
ASSI
100
AcDbCircle
 62
7
  6
CONTINUOUS
 10
10.4000426585
 20
-24.3000426585
 40
0.1999569277
100
AcDbArc
 50
269.9965049109
 51
0.0034950891
  0
ARC
  5
6C3
100
AcDbEntity
  8
ASSI
100
AcDbCircle
 62
7
  6
CONTINUOUS
 10
7.3999573415
 20
-24.3000426585
 40
0.1999569277
100
AcDbArc
 50
179.9965049109
 51
270.0034950891
  0
ARC
  5
6C4
100
AcDbEntity
  8
RACCORDO
100
AcDbCircle
 62
253
  6
CONTINUOUS
 10
72.7352871454
 20
21.3788648566
 40
65.1684310463
100
AcDbArc
 50
179.4989830149
 51
179.9096574897
  0
ARC
  5
6C5
100
AcDbEntity
  8
ASSI
100
AcDbCircle
 62
253
  6
CONTINUOUS
 10
72.7352871454
 20
21.3788648566
 40
65.1684310463
100
AcDbArc
 50
179.4989830149
 51
179.9096574897
  0
ARC
  5
6C6
100
AcDbEntity
  8
0
100
AcDbCircle
 62
253
  6
CONTINUOUS
 10
27.4472628222
 20
23.8063480255
 40
34.8612780391
100
AcDbArc
 50
179.9375627928
 51
180.2933988113
  0
ARC
  5
6C7
100
AcDbEntity
  8
ASSI
100
AcDbCircle
 62
253
  6
CONTINUOUS
 10
27.4472628222
 20
23.8063480255
 40
34.8612780391
100
AcDbArc
 50
179.9375627928
 51
180.2933988113
  0
ARC
  5
6C8
100
AcDbEntity
  8
0
100
AcDbCircle
 62
7
  6
CONTINUOUS
 10
3.0803564378
 20
18.8152603286
 40
7.2371706097
100
AcDbArc
 50
311.5601316655
 51
315.0245376775
  0
ARC
  5
6C9
100
AcDbEntity
  8
0
100
AcDbCircle
 62
7
  6
CONTINUOUS
 10
7.6791428116
 20
18.6661245296
 40
7.0323720025
100
AcDbArc
 50
224.9250002878
 51
228.4903222757
  0
ARC
  5
6CA
100
AcDbEntity
  8
GUSCI_ESTERNI
100
AcDbCircle
 62
7
  6
CONTINUOUS
 10
8.35
 20
14.15
 40
2.5
100
AcDbArc
 50
270.0
 51
360.0
  0
ARC
  5
6CB
100
AcDbEntity
  8
GUSCI_ESTERNI
100
AcDbCircle
 62
7
  6
CONTINUOUS
 10
8.35
 20
16.15
 40
2.5
100
AcDbArc
 50
0.0
 51
90.0
  0
ARC
  5
6CC
100
AcDbEntity
  8
GUSCI_ESTERNI
100
AcDbCircle
 62
7
  6
CONTINUOUS
 10
8.65
 20
16.15
 40
1.5
100
AcDbArc
 50
0.0
 51
90.0
  0
ARC
  5
6CD
100
AcDbEntity
  8
GUSCI_ESTERNI
100
AcDbCircle
 62
7
  6
CONTINUOUS
 10
8.65
 20
14.15
 40
1.5
100
AcDbArc
 50
270.0
 51
360.0
  0
ARC
  5
6CE
100
AcDbEntity
  8
GUSCI_ESTERNI
100
AcDbCircle
 62
7
  6
CONTINUOUS
 10
8.65
 20
15.9
 40
1.0
100
AcDbArc
 50
0.0
 51
90.0
  0
ARC
  5
6CF
100
AcDbEntity
  8
GUSCI_ESTERNI
100
AcDbCircle
 62
7
  6
CONTINUOUS
 10
8.65
 20
14.4
 40
1.0
100
AcDbArc
 50
270.0
 51
360.0
  0
ARC
  5
6D0
100
AcDbEntity
  8
0
100
AcDbCircle
 62
7
  6
CONTINUOUS
 10
4.0
 20
23.2
 40
0.5
100
AcDbArc
 50
334.1580672368
 51
25.8419327632
  0
ARC
  5
6D1
100
AcDbEntity
  8
ASSI
100
AcDbCircle
 62
7
  6
CONTINUOUS
 10
4.0
 20
23.2
 40
0.5
100
AcDbArc
 50
334.1580672368
 51
25.8419327632
  0
ARC
  5
6D2
100
AcDbEntity
  8
0
100
AcDbCircle
 62
7
  6
CONTINUOUS
 10
10.6001595972
 20
21.9001682196
 40
0.4998372686
100
AcDbArc
 50
359.9806903501
 51
90.0182946608
  0
ARC
  5
6D3
100
AcDbEntity
  8
ASSI
100
AcDbCircle
 62
7
  6
CONTINUOUS
 10
10.6001595972
 20
21.9001682196
 40
0.4998372686
100
AcDbArc
 50
359.9806903501
 51
90.0182946608
  0
ARC
  5
6D4
100
AcDbEntity
  8
0
100
AcDbCircle
 62
7
  6
CONTINUOUS
 10
4.0
 20
23.2
 40
0.4904006794
100
AcDbArc
 50
316.2076703059
 51
43.7923296941
  0
ARC
  5
6D5
100
AcDbEntity
  8
ASSI
100
AcDbCircle
 62
7
  6
CONTINUOUS
 10
4.0
 20
23.2
 40
0.4904006794
100
AcDbArc
 50
316.2076703059
 51
43.7923296941
  0
ARC
  5
6D6
100
AcDbEntity
  8
0
100
AcDbCircle
 62
253
  6
CONTINUOUS
 10
4.1018306932
 20
23.6518306932
 40
0.2500538637
100
AcDbArc
 50
0.0209441593
 51
89.9790558407
  0
ARC
  5
6D7
100
AcDbEntity
  8
ASSI
100
AcDbCircle
 62
253
  6
CONTINUOUS
 10
4.1018306932
 20
23.6518306932
 40
0.2500538637
100
AcDbArc
 50
0.0209441593
 51
89.9790558407
  0
ARC
  5
6D8
100
AcDbEntity
  8
0
100
AcDbCircle
 62
253
  6
CONTINUOUS
 10
3.8307142984
 20
23.6518306368
 40
0.2500538587
100
AcDbArc
 50
90.0209570929
 51
179.9790429448
  0
ARC
  5
6D9
100
AcDbEntity
  8
ASSI
100
AcDbCircle
 62
253
  6
CONTINUOUS
 10
3.8307142984
 20
23.6518306368
 40
0.2500538587
100
AcDbArc
 50
90.0209570929
 51
179.9790429448
  0
ARC
  5
6DA
100
AcDbEntity
  8
0
100
AcDbCircle
 62
7
  6
CONTINUOUS
 10
4.2000325275
 20
23.7500325275
 40
0.2499699324
100
AcDbArc
 50
0.0012718308
 51
89.9987281692
  0
ARC
  5
6DB
100
AcDbEntity
  8
ASSI
100
AcDbCircle
 62
7
  6
CONTINUOUS
 10
4.2000325275
 20
23.7500325275
 40
0.2499699324
100
AcDbArc
 50
0.0012718308
 51
89.9987281692
  0
ARC
  5
6DC
100
AcDbEntity
  8
0
100
AcDbCircle
 62
253
  6
CONTINUOUS
 10
10.3867898797
 20
24.2867898797
 40
0.2000430909
100
AcDbArc
 50
0.0209441271
 51
89.979055873
  0
ARC
  5
6DD
100
AcDbEntity
  8
0
100
AcDbCircle
 62
253
  6
CONTINUOUS
 10
7.4132101203
 20
24.2867898797
 40
0.2000430909
100
AcDbArc
 50
90.0209441219
 51
179.9790558781
  0
ARC
  5
6DE
100
AcDbEntity
  8
ASSI
100
AcDbCircle
 62
253
  6
CONTINUOUS
 10
10.3867898797
 20
24.2867898797
 40
0.2000430909
100
AcDbArc
 50
0.0209441271
 51
89.979055873
  0
ARC
  5
6DF
100
AcDbEntity
  8
ASSI
100
AcDbCircle
 62
253
  6
CONTINUOUS
 10
7.4132101203
 20
24.2867898797
 40
0.2000430909
100
AcDbArc
 50
90.0209441219
 51
179.9790558781
  0
ARC
  5
6E0
100
AcDbEntity
  8
0
100
AcDbCircle
 62
7
  6
CONTINUOUS
 10
10.4000427018
 20
24.3000427018
 40
0.1999569277
100
AcDbArc
 50
359.9964925066
 51
90.0035074934
  0
ARC
  5
6E1
100
AcDbEntity
  8
0
100
AcDbCircle
 62
7
  6
CONTINUOUS
 10
7.3999573415
 20
24.3000426585
 40
0.1999569277
100
AcDbArc
 50
89.9965049109
 51
180.0034950891
  0
ARC
  5
6E2
100
AcDbEntity
  8
ASSI
100
AcDbCircle
 62
7
  6
CONTINUOUS
 10
10.4000427018
 20
24.3000427018
 40
0.1999569277
100
AcDbArc
 50
359.9964925066
 51
90.0035074934
  0
ARC
  5
6E3
100
AcDbEntity
  8
ASSI
100
AcDbCircle
 62
7
  6
CONTINUOUS
 10
7.3999573415
 20
24.3000426585
 40
0.1999569277
100
AcDbArc
 50
89.9965049109
 51
180.0034950891
  0
SPLINE
  5
6E4
100
AcDbEntity
  8
0
100
AcDbSpline
 62
253
  6
CONTINUOUS
 70
0
 71
3
 72
9
 73
5
 74
3
 42
0.0000001
 43
0.0000001
 44
0.0000000001
 12
0.0000006052
 22
0.0433040268
 32
0.0
 13
-0.0013082134
 23
0.0432842617
 33
0.0
 40
0.0
 40
0.0
 40
0.0
 40
0.0
 40
0.2986883658
 40
1.0
 40
1.0
 40
1.0
 40
1.0
 10
-10.5859750215
 20
-23.8443375673
 30
0.0
 10
-10.5859749612
 20
-23.8400260976
 30
0.0
 10
-10.5860182947
 20
-23.8255919006
 30
0.0
 10
-10.5861055763
 20
-23.8111548825
 30
0.0
 10
-10.5864113981
 20
-23.8010362971
 30
0.0
 11
-10.5859750215
 21
-23.8443375673
 31
0.0
 11
-10.5860047684
 21
-23.8314031925
 31
0.0
 11
-10.5864113981
 21
-23.8010362971
 31
0.0
  0
SPLINE
  5
6E5
100
AcDbEntity
  8
0
100
AcDbSpline
 62
253
  6
CONTINUOUS
 70
0
 71
3
 72
14
 73
10
 74
8
 42
0.0000001
 43
0.0000001
 44
0.0000000001
 12
0.0353853364
 22
0.0353456974
 32
0.0
 13
0.0000000241
 23
0.0500144015
 33
0.0
 40
0.0
 40
0.0
 40
0.0
 40
0.0
 40
0.0223887733
 40
0.081330048
 40
0.174755207
 40
0.299184792
 40
0.44995127
 40
0.6213968764
 40
1.0
 40
1.0
 40
1.0
 40
1.0
 10
-10.5868325431
 20
-24.286863004
 30
0.0
 10
-10.586568465
 20
-24.2865992218
 30
0.0
 10
-10.5868043236
 20
-24.2850245546
 30
0.0
 10
-10.5863527733
 20
-24.2823118149
 30
0.0
 10
-10.5863839743
 20
-24.2775939037
 30
0.0
 10
-10.5861921021
 20
-24.2714930317
 30
0.0
 10
-10.5861148161
 20
-24.2640320217
 30
0.0
 10
-10.5859995564
 20
-24.2523553421
 30
0.0
 10
-10.5859750245
 20
-24.2431824888
 30
0.0
 10
-10.5859750215
 20
-24.2368706193
 30
0.0
 11
-10.5868325431
 21
-24.286863004
 31
0.0
 11
-10.5866645219
 21
-24.2857559206
 31
0.0
 11
-10.5865033614
 21
-24.2828124166
 31
0.0
 11
-10.5863551092
 21
-24.2781421656
 31
0.0
 11
-10.58622536
 21
-24.2719202471
 31
0.0
 11
-10.5861189992
 21
-24.2643805021
 31
0.0
 11
-10.586040032
 21
-24.2558061163
 31
0.0
 11
-10.5859750215
 21
-24.2368706193
 31
0.0
  0
SPLINE
  5
6E6
100
AcDbEntity
  8
0
100
AcDbSpline
 62
253
  6
CONTINUOUS
 70
0
 71
3
 72
14
 73
10
 74
8
 42
0.0000001
 43
0.0000001
 44
0.0000000001
 12
0.0000000171
 22
0.0500143994
 32
0.0
 13
-0.0353375939
 23
0.035393426
 33
0.0
 40
0.0
 40
0.0
 40
0.0
 40
0.0
 40
0.3784749852
 40
0.5499132458
 40
0.7006959891
 40
0.8251541655
 40
0.9186156704
 40
0.977592881
 40
1.0
 40
1.0
 40
1.0
 40
1.0
 10
-10.5859750215
 20
24.2368706193
 30
0.0
 10
-10.5859750193
 20
24.2431803523
 30
0.0
 10
-10.5859995531
 20
24.2523509352
 30
0.0
 10
-10.5861147326
 20
24.2640256529
 30
0.0
 10
-10.5861920462
 20
24.2714872316
 30
0.0
 10
-10.5863837683
 20
24.2775896085
 30
0.0
 10
-10.5863528656
 20
24.2823088588
 30
0.0
 10
-10.5868039645
 20
24.2850237059
 30
0.0
 10
-10.5865686052
 20
24.2865986491
 30
0.0
 10
-10.5868325431
 20
24.2868630041
 30
0.0
 11
-10.5859750215
 21
24.2368706193
 31
0.0
 11
-10.5860399865
 21
24.2557997069
 31
0.0
 11
-10.5861189221
 21
24.2643737252
 31
0.0
 11
-10.5862252577
 21
24.2719142838
 31
0.0
 11
-10.5863549922
 21
24.2781376326
 31
0.0
 11
-10.5865032504
 21
24.2828097019
 31
0.0
 11
-10.5866644481
 21
24.2857550038
 31
0.0
 11
-10.5868325431
 21
24.2868630041
 31
0.0
  0
SPLINE
  5
6E7
100
AcDbEntity
  8
0
100
AcDbSpline
 62
253
  6
CONTINUOUS
 70
0
 71
3
 72
9
 73
5
 74
3
 42
0.0000001
 43
0.0000001
 44
0.0000000001
 12
0.0013110427
 22
0.0432843983
 32
0.0
 13
0.0000001007
 23
0.0433042489
 33
0.0
 40
0.0
 40
0.0
 40
0.0
 40
0.0
 40
0.1834520378
 40
1.0
 40
1.0
 40
1.0
 40
1.0
 10
-10.5864113981
 20
23.8010362971
 30
0.0
 10
-10.586331227
 20
23.8036831675
 30
0.0
 10
-10.5860359079
 20
23.8181153116
 30
0.0
 10
-10.5859750489
 20
23.8325509019
 30
0.0
 10
-10.5859750215
 20
23.8443375673
 30
0.0
 11
-10.5864113981
 21
23.8010362971
 31
0.0
 11
-10.5862307638
 21
23.8089784959
 31
0.0
 11
-10.5859750215
 21
23.8443375673
 31
0.0
  0
SPLINE
  5
6E8
100
AcDbEntity
  8
0
100
AcDbSpline
 62
253
  6
CONTINUOUS
 70
0
 71
3
 72
14
 73
10
 74
8
 42
0.0000001
 43
0.0000001
 44
0.0000000001
 12
-0.0353890363
 22
0.0353419927
 32
0.0
 13
0.0000000042
 23
0.0500144013
 33
0.0
 40
0.0
 40
0.0
 40
0.0
 40
0.0
 40
0.0223894862
 40
0.0813317476
 40
0.1747573579
 40
0.2991859872
 40
0.4499515839
 40
0.6213967272
 40
1.0
 40
1.0
 40
1.0
 40
1.0
 10
-7.2131674569
 20
-24.286863004
 30
0.0
 10
-7.213431571
 20
-24.286599241
 30
0.0
 10
-7.2131956378
 20
-24.2850244771
 30
0.0
 10
-7.2136472507
 20
-24.2823117595
 30
0.0
 10
-7.2136160178
 20
-24.277593811
 30
0.0
 10
-7.2138079016
 20
-24.2714929736
 30
0.0
 10
-7.2138851817
 20
-24.2640319979
 30
0.0
 10
-7.2140004445
 20
-24.2523553401
 30
0.0
 10
-7.214024979
 20
-24.2431824913
 30
0.0
 10
-7.2140249785
 20
-24.2368706193
 30
0.0
 11
-7.2131674569
 21
-24.286863004
 31
0.0
 11
-7.2133354803
 21
-24.2857558849
 31
0.0
 11
-7.2134966412
 21
-24.2828123315
 31
0.0
 11
-7.2136448926
 21
-24.2781420579
 31
0.0
 11
-7.2137746403
 21
-24.2719201872
 31
0.0
 11
-7.213881
 21
-24.2643804863
 31
0.0
 11
-7.2139599679
 21
-24.2558061237
 31
0.0
 11
-7.2140249785
 21
-24.2368706193
 31
0.0
  0
SPLINE
  5
6E9
100
AcDbEntity
  8
0
100
AcDbSpline
 62
253
  6
CONTINUOUS
 70
0
 71
3
 72
9
 73
5
 74
3
 42
0.0000001
 43
0.0000001
 44
0.0000000001
 12
-0.0000000101
 22
0.0433040274
 32
0.0
 13
0.0013086635
 23
0.0432842487
 33
0.0
 40
0.0
 40
0.0
 40
0.0
 40
0.0
 40
0.2987936565
 40
1.0
 40
1.0
 40
1.0
 40
1.0
 10
-7.2140249785
 20
-23.8443375673
 30
0.0
 10
-7.2140249795
 20
-23.8400245777
 30
0.0
 10
-7.2139818319
 20
-23.825590381
 30
0.0
 10
-7.2138944829
 20
-23.8111533604
 30
0.0
 10
-7.2135886019
 20
-23.8010362971
 30
0.0
 11
-7.2140249785
 21
-23.8443375673
 31
0.0
 11
-7.2139952489
 21
-23.8313986328
 31
0.0
 11
-7.2135886019
 21
-23.8010362971
 31
0.0
  0
SPLINE
  5
6EA
100
AcDbEntity
  8
0
100
AcDbSpline
 62
253
  6
CONTINUOUS
 70
0
 71
3
 72
9
 73
5
 74
3
 42
0.0000001
 43
0.0000001
 44
0.0000000001
 12
-0.0013086622
 22
0.0432844713
 32
0.0
 13
0.0000000121
 23
0.0433042498
 33
0.0
 40
0.0
 40
0.0
 40
0.0
 40
0.0
 40
0.183485244
 40
1.0
 40
1.0
 40
1.0
 40
1.0
 10
-7.2135886019
 20
23.8010362971
 30
0.0
 10
-7.213668642
 20
23.803683651
 30
0.0
 10
-7.2139645839
 20
23.8181157778
 30
0.0
 10
-7.2140249818
 20
23.832551381
 30
0.0
 10
-7.2140249785
 20
23.8443375673
 30
0.0
 11
-7.2135886019
 21
23.8010362971
 31
0.0
 11
-7.2137693139
 21
23.8089799327
 31
0.0
 11
-7.2140249785
 21
23.8443375673
 31
0.0
  0
SPLINE
  5
6EB
100
AcDbEntity
  8
0
100
AcDbSpline
 62
253
  6
CONTINUOUS
 70
0
 71
3
 72
14
 73
10
 74
8
 42
0.0000001
 43
0.0000001
 44
0.0000000001
 12
-0.0000000203
 22
0.0500143983
 32
0.0
 13
0.0353703802
 23
0.0353606595
 33
0.0
 40
0.0
 40
0.0
 40
0.0
 40
0.0
 40
0.3784780211
 40
0.5499153469
 40
0.7006964619
 40
0.8251532518
 40
0.9186155577
 40
0.9775909287
 40
1.0
 40
1.0
 40
1.0
 40
1.0
 10
-7.2140249785
 20
24.2368706193
 30
0.0
 10
-7.2140249811
 20
24.2431804028
 30
0.0
 10
-7.2140004536
 20
24.2523510272
 30
0.0
 10
-7.2138852553
 20
24.2640257364
 30
0.0
 10
-7.2138079839
 20
24.2714872873
 30
0.0
 10
-7.2136161456
 20
24.27758952
 30
0.0
 10
-7.2136473315
 20
24.2823089904
 30
0.0
 10
-7.2131957107
 20
24.2850233649
 30
0.0
 10
-7.2134316627
 20
24.2865988709
 30
0.0
 10
-7.2131674569
 20
24.2868630041
 30
0.0
 11
-7.2140249785
 21
24.2368706193
 31
0.0
 11
-7.213960012
 21
24.2557998583
 31
0.0
 11
-7.2138810761
 21
24.2643738297
 31
0.0
 11
-7.2137747412
 21
24.2719143067
 31
0.0
 11
-7.2136450075
 21
24.2781375861
 31
0.0
 11
-7.2134967497
 21
24.2828096954
 31
0.0
 11
-7.2133355514
 21
24.285754905
 31
0.0
 11
-7.2131674569
 21
24.2868630041
 31
0.0
  0
SPLINE
  5
6EC
100
AcDbEntity
  8
0
100
AcDbSpline
 62
253
  6
CONTINUOUS
 70
0
 71
3
 72
9
 73
5
 74
3
 42
0.0000001
 43
0.0000001
 44
0.0000000001
 12
0.0013086734
 22
-0.0432844709
 32
0.0
 13
-0.0000000099
 23
-0.0433042498
 33
0.0
 40
0.0
 40
0.0
 40
0.0
 40
0.0
 40
0.183482616
 40
1.0
 40
1.0
 40
1.0
 40
1.0
 10
7.2135886019
 20
-23.8010362971
 30
0.0
 10
7.2136686415
 20
-23.8036836131
 30
0.0
 10
7.2139645803
 20
-23.8181157399
 30
0.0
 10
7.2140249812
 20
-23.8325513431
 30
0.0
 10
7.2140249785
 20
-23.8443375673
 30
0.0
 11
7.2135886019
 21
-23.8010362971
 31
0.0
 11
7.2137693112
 21
-23.8089798189
 31
0.0
 11
7.2140249785
 21
-23.8443375673
 31
0.0
  0
SPLINE
  5
6ED
100
AcDbEntity
  8
0
100
AcDbSpline
 62
253
  6
CONTINUOUS
 70
0
 71
3
 72
14
 73
10
 74
8
 42
0.0000001
 43
0.0000001
 44
0.0000000001
 12
0.0000000046
 22
-0.0500143989
 32
0.0
 13
-0.0353848633
 23
-0.0353461674
 33
0.0
 40
0.0
 40
0.0
 40
0.0
 40
0.0
 40
0.3784712214
 40
0.5499084536
 40
0.7006913151
 40
0.8251503658
 40
0.9186144536
 40
0.9775916124
 40
1.0
 40
1.0
 40
1.0
 40
1.0
 10
7.2140249785
 20
-24.2368706193
 30
0.0
 10
7.2140249791
 20
-24.2431802895
 30
0.0
 10
7.2140004569
 20
-24.2523508019
 30
0.0
 10
7.2138852549
 20
-24.2640254185
 30
0.0
 10
7.2138080005
 20
-24.2714870517
 30
0.0
 10
7.2136161172
 20
-24.277589333
 30
0.0
 10
7.2136474124
 20
-24.2823090177
 30
0.0
 10
7.213195583
 20
-24.2850232201
 30
0.0
 10
7.2134317628
 20
-24.2865989872
 30
0.0
 10
7.2131674569
 20
-24.286863004
 30
0.0
 11
7.2140249785
 21
-24.2368706193
 31
0.0
 11
7.2139600142
 21
-24.2557995185
 31
0.0
 11
7.21388108
 21
-24.2643734852
 31
0.0
 11
7.213774746
 21
-24.2719140497
 31
0.0
 11
7.213645012
 21
-24.2781374423
 31
0.0
 11
7.2134967534
 21
-24.2828096407
 31
0.0
 11
7.2133355534
 21
-24.2857549398
 31
0.0
 11
7.2131674569
 21
-24.286863004
 31
0.0
  0
SPLINE
  5
6EE
100
AcDbEntity
  8
0
100
AcDbSpline
 62
253
  6
CONTINUOUS
 70
0
 71
3
 72
14
 73
10
 74
8
 42
0.0000001
 43
0.0000001
 44
0.0000000001
 12
0.0353708696
 22
-0.0353601741
 32
0.0
 13
-0.0000000167
 23
-0.0500144012
 33
0.0
 40
0.0
 40
0.0
 40
0.0
 40
0.0
 40
0.0223888774
 40
0.0813291623
 40
0.1747527001
 40
0.2991804371
 40
0.4499462781
 40
0.6213924665
 40
1.0
 40
1.0
 40
1.0
 40
1.0
 10
7.2131674569
 20
24.2868630041
 30
0.0
 10
7.2134314283
 20
24.2865991125
 30
0.0
 10
7.2131958083
 20
24.2850247044
 30
0.0
 10
7.2136471428
 20
24.2823117879
 30
0.0
 10
7.213616056
 20
24.2775940677
 30
0.0
 10
7.2138078821
 20
24.2714932163
 30
0.0
 10
7.2138851847
 20
24.264032255
 30
0.0
 10
7.2140004409
 20
24.2523554959
 30
0.0
 10
7.2140249806
 20
24.2431825623
 30
0.0
 10
7.2140249785
 20
24.2368706193
 30
0.0
 11
7.2131674569
 21
24.2868630041
 31
0.0
 11
7.2133354761
 21
24.285755915
 31
0.0
 11
7.2134966353
 21
24.2828124605
 31
0.0
 11
7.2136448867
 21
24.2781422907
 31
0.0
 11
7.2137746359
 21
24.2719204647
 31
0.0
 11
7.2138809976
 21
24.2643807516
 31
0.0
 11
7.213959967
 21
24.2558063368
 31
0.0
 11
7.2140249785
 21
24.2368706193
 31
0.0
  0
SPLINE
  5
6EF
100
AcDbEntity
  8
0
100
AcDbSpline
 62
253
  6
CONTINUOUS
 70
0
 71
3
 72
9
 73
5
 74
3
 42
0.0000001
 43
0.0000001
 44
0.0000000001
 12
0.0000000129
 22
-0.0433040273
 32
0.0
 13
-0.0013086547
 23
-0.043284249
 33
0.0
 40
0.0
 40
0.0
 40
0.0
 40
0.0
 40
0.29878921
 40
1.0
 40
1.0
 40
1.0
 40
1.0
 10
7.2140249785
 20
23.8443375673
 30
0.0
 10
7.2140249798
 20
23.8400246419
 30
0.0
 10
7.2139818312
 20
23.8255904452
 30
0.0
 10
7.2138944828
 20
23.8111534246
 30
0.0
 10
7.2135886019
 20
23.8010362971
 30
0.0
 11
7.2140249785
 21
23.8443375673
 31
0.0
 11
7.2139952492
 21
23.8313988253
 31
0.0
 11
7.2135886019
 21
23.8010362971
 31
0.0
  0
SPLINE
  5
6F0
100
AcDbEntity
  8
0
100
AcDbSpline
 62
253
  6
CONTINUOUS
 70
0
 71
3
 72
25
 73
21
 74
19
 42
0.0000001
 43
0.0000001
 44
0.0000000001
 12
-0.1885513154
 22
0.1952558163
 32
0.0
 13
-0.1903870649
 23
-0.1934662706
 33
0.0
 40
0.0
 40
0.0
 40
0.0
 40
0.0
 40
0.0032993224
 40
0.0112229513
 40
0.0237271288
 40
0.0407190122
 40
0.0874357045
 40
0.1496533678
 40
0.2250209446
 40
0.3107340552
 40
0.5000006095
 40
0.6892666206
 40
0.7749788229
 40
0.8503426385
 40
0.9125597899
 40
0.9592803118
 40
0.9762710712
 40
0.9887708994
 40
0.9966927945
 40
1.0
 40
1.0
 40
1.0
 40
1.0
 10
-3.8306228363
 20
-23.9018840226
 30
0.0
 10
-3.8308302001
 20
-23.9016692853
 30
0.0
 10
-3.8319787547
 20
-23.9016688371
 30
0.0
 10
-3.8339950011
 20
-23.9013302221
 30
0.0
 10
-3.8374383151
 20
-23.9011950848
 30
0.0
 10
-3.8442904436
 20
-23.9008432663
 30
0.0
 10
-3.8557057013
 20
-23.9005408964
 30
0.0
 10
-3.8723658356
 20
-23.9001926342
 30
0.0
 10
-3.8925718869
 20
-23.8999212826
 30
0.0
 10
-3.9242676949
 20
-23.8996345298
 30
0.0
 10
-3.9662725553
 20
-23.8995040986
 30
0.0
 10
-4.0082772989
 20
-23.8996345596
 30
0.0
 10
-4.039972685
 20
-23.8999212766
 30
0.0
 10
-4.0601781483
 20
-23.9001927377
 30
0.0
 10
-4.0768385747
 20
-23.9005407828
 30
0.0
 10
-4.088253299
 20
-23.9008436703
 30
0.0
 10
-4.0951063157
 20
-23.9011946585
 30
0.0
 10
-4.0985471548
 20
-23.901331217
 30
0.0
 10
-4.1005669907
 20
-23.9016673067
 30
0.0
 10
-4.1017122158
 20
-23.901670745
 30
0.0
 10
-4.1019220988
 20
-23.9018840226
 30
0.0
 11
-3.8306228363
 21
-23.9018840226
 31
0.0
 11
-3.8314886627
 21
-23.9016552184
 31
0.0
 11
-3.8336274068
 21
-23.9014283546
 31
0.0
 11
-3.8370141724
 21
-23.901205965
 31
0.0
 11
-3.8416213132
 21
-23.9009905227
 31
0.0
 11
-3.8542954345
 21
-23.9005883653
 31
0.0
 11
-3.8711797587
 21
-23.9002364582
 31
0.0
 11
-3.8916350477
 21
-23.8999478441
 31
0.0
 11
-3.9148995167
 21
-23.8997336478
 31
0.0
 11
-3.9662725974
 21
-23.8995572797
 31
0.0
 11
-4.0176455306
 21
-23.8997336642
 31
0.0
 11
-4.040909753
 21
-23.8999478674
 31
0.0
 11
-4.0613640208
 21
-23.9002364928
 31
0.0
 11
-4.0782482058
 21
-23.9005884107
 31
0.0
 11
-4.0909233674
 21
-23.9009905596
 31
0.0
 11
-4.0955302034
 21
-23.901205989
 31
0.0
 11
-4.0989157867
 21
-23.9014283662
 31
0.0
 11
-4.1010540584
 21
-23.9016552219
 31
0.0
 11
-4.1019220988
 21
-23.9018840226
 31
0.0
  0
SPLINE
  5
6F1
100
AcDbEntity
  8
0
100
AcDbSpline
 62
253
  6
CONTINUOUS
 70
0
 71
3
 72
25
 73
21
 74
19
 42
0.0000001
 43
0.0000001
 44
0.0000000001
 12
-0.1885513154
 22
0.1952558163
 32
0.0
 13
-0.1903870649
 23
-0.1934662706
 33
0.0
 40
0.0
 40
0.0
 40
0.0
 40
0.0
 40
0.0032993224
 40
0.0112229513
 40
0.0237271288
 40
0.0407190122
 40
0.0874357045
 40
0.1496533678
 40
0.2250209446
 40
0.3107340552
 40
0.5000006095
 40
0.6892666206
 40
0.7749788229
 40
0.8503426385
 40
0.9125597899
 40
0.9592803118
 40
0.9762710712
 40
0.9887708994
 40
0.9966927945
 40
1.0
 40
1.0
 40
1.0
 40
1.0
 10
4.1019220988
 20
-23.9018840226
 30
0.0
 10
4.101714735
 20
-23.9016692853
 30
0.0
 10
4.1005661804
 20
-23.9016688371
 30
0.0
 10
4.098549934
 20
-23.9013302221
 30
0.0
 10
4.09510662
 20
-23.9011950848
 30
0.0
 10
4.0882544915
 20
-23.9008432663
 30
0.0
 10
4.0768392338
 20
-23.9005408964
 30
0.0
 10
4.0601790994
 20
-23.9001926342
 30
0.0
 10
4.0399730481
 20
-23.8999212826
 30
0.0
 10
4.0082772402
 20
-23.8996345298
 30
0.0
 10
3.9662723797
 20
-23.8995040986
 30
0.0
 10
3.9242676361
 20
-23.8996345596
 30
0.0
 10
3.89257225
 20
-23.8999212766
 30
0.0
 10
3.8723667868
 20
-23.9001927377
 30
0.0
 10
3.8557063604
 20
-23.9005407828
 30
0.0
 10
3.844291636
 20
-23.9008436703
 30
0.0
 10
3.8374386194
 20
-23.9011946585
 30
0.0
 10
3.8339977802
 20
-23.901331217
 30
0.0
 10
3.8319779444
 20
-23.9016673067
 30
0.0
 10
3.8308327193
 20
-23.901670745
 30
0.0
 10
3.8306228363
 20
-23.9018840226
 30
0.0
 11
4.1019220988
 21
-23.9018840226
 31
0.0
 11
4.1010562723
 21
-23.9016552184
 31
0.0
 11
4.0989175283
 21
-23.9014283546
 31
0.0
 11
4.0955307626
 21
-23.901205965
 31
0.0
 11
4.0909236219
 21
-23.9009905227
 31
0.0
 11
4.0782495006
 21
-23.9005883653
 31
0.0
 11
4.0613651764
 21
-23.9002364582
 31
0.0
 11
4.0409098873
 21
-23.8999478441
 31
0.0
 11
4.0176454184
 21
-23.8997336478
 31
0.0
 11
3.9662723376
 21
-23.8995572797
 31
0.0
 11
3.9148994044
 21
-23.8997336642
 31
0.0
 11
3.8916351821
 21
-23.8999478674
 31
0.0
 11
3.8711809142
 21
-23.9002364928
 31
0.0
 11
3.8542967292
 21
-23.9005884107
 31
0.0
 11
3.8416215677
 21
-23.9009905596
 31
0.0
 11
3.8370147317
 21
-23.901205989
 31
0.0
 11
3.8336291484
 21
-23.9014283662
 31
0.0
 11
3.8314908767
 21
-23.9016552219
 31
0.0
 11
3.8306228363
 21
-23.9018840226
 31
0.0
  0
SPLINE
  5
6F2
100
AcDbEntity
  8
0
100
AcDbSpline
 62
253
  6
CONTINUOUS
 70
0
 71
3
 72
14
 73
10
 74
8
 42
0.0000001
 43
0.0000001
 44
0.0000000001
 12
-0.0000000096
 22
-0.0500143991
 32
0.0
 13
0.0353803488
 23
-0.0353506865
 33
0.0
 40
0.0
 40
0.0
 40
0.0
 40
0.0
 40
0.3785041649
 40
0.5499426895
 40
0.7007184935
 40
0.8251676513
 40
0.9186227152
 40
0.9775936171
 40
1.0
 40
1.0
 40
1.0
 40
1.0
 10
10.5859750215
 20
-24.2368706193
 30
0.0
 10
10.5859750203
 20
-24.2431808387
 30
0.0
 10
10.585999548
 20
-24.2523519214
 30
0.0
 10
10.5861147615
 20
-24.2640269928
 30
0.0
 10
10.5861920275
 20
-24.2714883592
 30
0.0
 10
10.5863838892
 20
-24.2775902255
 30
0.0
 10
10.5863526465
 20
-24.2823094438
 30
0.0
 10
10.5868043613
 20
-24.2850234477
 30
0.0
 10
10.5865682945
 20
-24.286598977
 30
0.0
 10
10.5868325431
 20
-24.286863004
 30
0.0
 11
10.5859750215
 21
-24.2368706193
 31
0.0
 11
10.5860399979
 21
-24.2558011661
 31
0.0
 11
10.58611894
 21
-24.2643751975
 31
0.0
 11
10.586225278
 21
-24.271915409
 31
0.0
 11
10.5863550108
 21
-24.2781383066
 31
0.0
 11
10.5865032644
 21
-24.2828100537
 31
0.0
 11
10.5866644551
 21
-24.28575504
 31
0.0
 11
10.5868325431
 21
-24.286863004
 31
0.0
  0
SPLINE
  5
6F3
100
AcDbEntity
  8
0
100
AcDbSpline
 62
253
  6
CONTINUOUS
 70
0
 71
3
 72
9
 73
5
 74
3
 42
0.0000001
 43
0.0000001
 44
0.0000000001
 12
-0.0013082203
 22
-0.0432844827
 32
0.0
 13
0.0000006052
 23
-0.0433042479
 33
0.0
 40
0.0
 40
0.0
 40
0.0
 40
0.0
 40
0.1835083404
 40
1.0
 40
1.0
 40
1.0
 40
1.0
 10
10.5864113981
 20
-23.8010362971
 30
0.0
 10
10.586331375
 20
-23.803683985
 30
0.0
 10
10.5860357894
 20
-23.818116118
 30
0.0
 10
10.5859748568
 20
-23.8325517149
 30
0.0
 10
10.5859750215
 20
-23.8443375673
 30
0.0
 11
10.5864113981
 21
-23.8010362971
 31
0.0
 11
10.5862307922
 21
-23.8089809352
 31
0.0
 11
10.5859750215
 21
-23.8443375673
 31
0.0
  0
SPLINE
  5
6F4
100
AcDbEntity
  8
0
100
AcDbSpline
 62
253
  6
CONTINUOUS
 70
0
 71
3
 72
9
 73
5
 74
3
 42
0.0000001
 43
0.0000001
 44
0.0000000001
 12
0.0000001007
 22
-0.0433040262
 32
0.0
 13
0.0013110356
 23
-0.0432841757
 33
0.0
 40
0.0
 40
0.0
 40
0.0
 40
0.0
 40
0.2986840764
 40
1.0
 40
1.0
 40
1.0
 40
1.0
 10
10.5859750215
 20
23.8443375673
 30
0.0
 10
10.5859750315
 20
23.8400261596
 30
0.0
 10
10.586018476
 20
23.8255919674
 30
0.0
 10
10.5861049147
 20
23.8111549243
 30
0.0
 10
10.5864113981
 20
23.8010362971
 30
0.0
 11
10.5859750215
 21
23.8443375673
 31
0.0
 11
10.5860048195
 21
23.8314033786
 31
0.0
 11
10.5864113981
 21
23.8010362971
 31
0.0
  0
SPLINE
  5
6F5
100
AcDbEntity
  8
0
100
AcDbSpline
 62
253
  6
CONTINUOUS
 70
0
 71
3
 72
14
 73
10
 74
8
 42
0.0000001
 43
0.0000001
 44
0.0000000001
 12
-0.0353766991
 22
-0.0353543411
 32
0.0
 13
0.0000000128
 23
-0.0500144006
 33
0.0
 40
0.0
 40
0.0
 40
0.0
 40
0.0
 40
0.0223938169
 40
0.081343507
 40
0.1747762356
 40
0.2992083366
 40
0.4499726905
 40
0.6214130518
 40
1.0
 40
1.0
 40
1.0
 40
1.0
 10
10.5868325431
 20
24.2868630041
 30
0.0
 10
10.58656847
 20
24.2865990978
 30
0.0
 10
10.5868042696
 20
24.285024306
 30
0.0
 10
10.5863527813
 20
24.2823111138
 30
0.0
 10
10.5863839349
 20
24.2775929564
 30
0.0
 10
10.5861920926
 20
24.2714919227
 30
0.0
 10
10.5861148036
 20
24.2640310048
 30
0.0
 10
10.585999556
 20
24.252354713
 30
0.0
 10
10.5859750199
 20
24.2431822191
 30
0.0
 10
10.5859750215
 20
24.2368706193
 30
0.0
 11
10.5868325431
 21
24.2868630041
 31
0.0
 11
10.5866645041
 21
24.2857556682
 31
0.0
 11
10.5865033362
 21
24.2828117431
 31
0.0
 11
10.5863550838
 21
24.2781411135
 31
0.0
 11
10.5862253408
 21
24.2719190691
 31
0.0
 11
10.5861189877
 21
24.2643794303
 31
0.0
 11
10.5860400261
 21
24.255805307
 31
0.0
 11
10.5859750215
 21
24.2368706193
 31
0.0
  0
SPLINE
  5
6F6
100
AcDbEntity
  8
RACCORDO
100
AcDbSpline
 62
7
  6
CONTINUOUS
 70
0
 71
3
 72
10
 73
6
 74
4
 42
0.0000001
 43
0.0000001
 44
0.0000000001
 12
0.4689817618
 22
-0.4751258497
 32
0.0
 13
0.4804651524
 23
-0.4635101976
 33
0.0
 40
0.0
 40
0.0
 40
0.0
 40
0.0
 40
0.5366347221
 40
0.8084642571
 40
1.0
 40
1.0
 40
1.0
 40
1.0
 10
7.5693468779
 20
21.9487157762
 30
0.0
 10
7.6532375103
 20
21.8637261001
 30
0.0
 10
7.780118743
 20
21.7361726859
 30
0.0
 10
7.9378911582
 20
21.579239991
 30
0.0
 10
8.0112434112
 20
21.5067641393
 30
0.0
 10
8.0419188279
 20
21.477171216
 30
0.0
 11
7.5693468779
 21
21.9487157762
 31
0.0
 11
7.8219736809
 21
21.6946928486
 31
0.0
 11
7.9506439623
 21
21.5667223164
 31
0.0
 11
8.0419188279
 21
21.477171216
 31
0.0
  0
SPLINE
  5
6F7
100
AcDbEntity
  8
RACCORDO
100
AcDbSpline
 62
7
  6
CONTINUOUS
 70
0
 71
3
 72
18
 73
14
 74
12
 42
0.0000001
 43
0.0000001
 44
0.0000000001
 12
0.1082792287
 22
-0.369620452
 32
0.0
 13
0.2705669288
 23
-0.2741116688
 33
0.0
 40
0.0
 40
0.0
 40
0.0
 40
0.0
 40
0.0068132548
 40
0.0227323684
 40
0.0476167851
 40
0.0812216567
 40
0.1231456631
 40
0.1729663043
 40
0.2944179684
 40
0.4415435343
 40
0.6105049202
 40
0.7977340639
 40
1.0
 40
1.0
 40
1.0
 40
1.0
 10
7.3012233427
 20
22.2251447178
 30
0.0
 10
7.3014692541
 20
22.2243052784
 30
0.0
 10
7.3036547778
 20
22.2221499424
 30
0.0
 10
7.3074028409
 20
22.217462449
 30
0.0
 10
7.3140202964
 20
22.2104808277
 30
0.0
 10
7.3227785378
 20
22.2010589582
 30
0.0
 10
7.3338919923
 20
22.1894049257
 30
0.0
 10
7.3528292869
 20
22.1696489432
 30
0.0
 10
7.3812762269
 20
22.1402891677
 30
0.0
 10
7.4204942397
 20
22.1000741297
 30
0.0
 10
7.4657235331
 20
22.053923639
 30
0.0
 10
7.5159949621
 20
22.0028035323
 30
0.0
 10
7.5511047202
 20
21.9671969273
 30
0.0
 10
7.5693468779
 20
21.9487157762
 30
0.0
 11
7.3012233427
 21
22.2251447178
 31
0.0
 11
7.3027437374
 21
22.2230058914
 31
0.0
 11
7.3067606351
 21
22.2183736656
 31
0.0
 11
7.3132266207
 21
22.2112990276
 31
0.0
 11
7.3220744244
 21
22.2018523877
 31
0.0
 11
7.3331950569
 21
22.1901449679
 31
0.0
 11
7.3464741293
 21
22.1762932709
 31
0.0
 11
7.3789983041
 21
22.142673004
 31
0.0
 11
7.4185527294
 21
22.1020961084
 31
0.0
 11
7.4640944421
 21
22.0556110563
 31
0.0
 11
7.5146524599
 21
22.0041908518
 31
0.0
 11
7.5693468779
 21
21.9487157762
 31
0.0
  0
SPLINE
  5
6F8
100
AcDbEntity
  8
RACCORDO
100
AcDbSpline
 62
7
  6
CONTINUOUS
 70
0
 71
3
 72
18
 73
14
 74
12
 42
0.0000001
 43
0.0000001
 44
0.0000000001
 12
0.2705905622
 22
0.2741356584
 32
0.0
 13
0.108288696
 23
0.3696527693
 33
0.0
 40
0.0
 40
0.0
 40
0.0
 40
0.0
 40
0.2022647203
 40
0.3894981295
 40
0.558458362
 40
0.7055818412
 40
0.8270334848
 40
0.8768542555
 40
0.9187783221
 40
0.9523832161
 40
0.977267655
 40
0.9931867879
 40
1.0
 40
1.0
 40
1.0
 40
1.0
 10
-7.569370573
 20
21.9486918466
 30
0.0
 10
-7.5511269316
 20
21.9671745041
 30
0.0
 10
-7.5160138018
 20
22.0027844745
 30
0.0
 10
-7.4657377332
 20
22.0539091523
 30
0.0
 10
-7.4205043705
 20
22.1000637499
 30
0.0
 10
-7.3812832091
 20
22.1402819927
 30
0.0
 10
-7.3528339317
 20
22.169644127
 30
0.0
 10
-7.3338949458
 20
22.1894018325
 30
0.0
 10
-7.3227804862
 20
22.2010568901
 30
0.0
 10
-7.3140214596
 20
22.2104795828
 30
0.0
 10
-7.3074034013
 20
22.2174618054
 30
0.0
 10
-7.3036550104
 20
22.2221497048
 30
0.0
 10
-7.301469274
 20
22.2243052103
 30
0.0
 10
-7.3012233427
 20
22.2251447178
 30
0.0
 11
-7.569370573
 21
21.9486918466
 31
0.0
 11
-7.5146716685
 21
22.0041714065
 31
0.0
 11
-7.4641080187
 21
22.0555972198
 31
0.0
 11
-7.4185626071
 21
22.1020859916
 31
0.0
 11
-7.3790052666
 21
22.1426658419
 31
0.0
 11
-7.3464782248
 21
22.1762890148
 31
0.0
 11
-7.333197942
 21
22.1901419447
 31
0.0
 11
-7.3220763073
 21
22.2018503917
 31
0.0
 11
-7.3132277108
 21
22.2112978514
 31
0.0
 11
-7.3067611406
 21
22.2183731021
 31
0.0
 11
-7.3027438732
 21
22.2230057265
 31
0.0
 11
-7.3012233427
 21
22.2251447178
 31
0.0
  0
LINE
  5
6F9
100
AcDbEntity
  8
RACCORDO
100
AcDbLine
 62
7
  6
CONTINUOUS
 10
-7.9391284205
 20
21.5781222569
 11
-7.9300356255
 21
21.5871328348
  0
SPLINE
  5
6FA
100
AcDbEntity
  8
RACCORDO
100
AcDbSpline
 62
7
  6
CONTINUOUS
 70
0
 71
3
 72
18
 73
14
 74
12
 42
0.0000001
 43
0.0000001
 44
0.0000000001
 12
-0.2705905622
 22
-0.2741356584
 32
0.0
 13
-0.108288696
 23
-0.3696527693
 33
0.0
 40
0.0
 40
0.0
 40
0.0
 40
0.0
 40
0.2022647203
 40
0.3894981295
 40
0.558458362
 40
0.7055818412
 40
0.8270334848
 40
0.8768542555
 40
0.9187783221
 40
0.9523832161
 40
0.977267655
 40
0.9931867879
 40
1.0
 40
1.0
 40
1.0
 40
1.0
 10
7.569370573
 20
-21.9486918466
 30
0.0
 10
7.5511269316
 20
-21.9671745041
 30
0.0
 10
7.5160138018
 20
-22.0027844745
 30
0.0
 10
7.4657377332
 20
-22.0539091523
 30
0.0
 10
7.4205043705
 20
-22.1000637499
 30
0.0
 10
7.3812832091
 20
-22.1402819927
 30
0.0
 10
7.3528339317
 20
-22.1696441269
 30
0.0
 10
7.3338949458
 20
-22.1894018325
 30
0.0
 10
7.3227804862
 20
-22.2010568901
 30
0.0
 10
7.3140214596
 20
-22.2104795828
 30
0.0
 10
7.3074034013
 20
-22.2174618054
 30
0.0
 10
7.3036550104
 20
-22.2221497048
 30
0.0
 10
7.301469274
 20
-22.2243052103
 30
0.0
 10
7.3012233427
 20
-22.2251447178
 30
0.0
 11
7.569370573
 21
-21.9486918466
 31
0.0
 11
7.5146716685
 21
-22.0041714065
 31
0.0
 11
7.4641080187
 21
-22.0555972198
 31
0.0
 11
7.4185626071
 21
-22.1020859916
 31
0.0
 11
7.3790052666
 21
-22.1426658419
 31
0.0
 11
7.3464782248
 21
-22.1762890148
 31
0.0
 11
7.333197942
 21
-22.1901419447
 31
0.0
 11
7.3220763073
 21
-22.2018503917
 31
0.0
 11
7.3132277108
 21
-22.2112978514
 31
0.0
 11
7.3067611406
 21
-22.2183731021
 31
0.0
 11
7.3027438732
 21
-22.2230057265
 31
0.0
 11
7.3012233427
 21
-22.2251447178
 31
0.0
  0
SPLINE
  5
6FB
100
AcDbEntity
  8
RACCORDO
100
AcDbSpline
 62
7
  6
CONTINUOUS
 70
0
 71
3
 72
9
 73
5
 74
3
 42
0.0000001
 43
0.0000001
 44
0.0000000001
 12
-0.1128709586
 22
-0.1088831359
 32
0.0
 13
-0.1113739355
 23
-0.1104139351
 33
0.0
 40
0.0
 40
0.0
 40
0.0
 40
0.0
 40
0.1836075679
 40
1.0
 40
1.0
 40
1.0
 40
1.0
 10
8.0418862373
 20
-21.4772026986
 30
0.0
 10
8.0349782499
 20
-21.4838666212
 30
0.0
 10
7.9975107233
 20
-21.5203226198
 30
0.0
 10
7.9603439041
 20
-21.5570858019
 30
0.0
 10
7.9300356247
 20
-21.5871328356
 30
0.0
 11
8.0418862373
 21
-21.4772026986
 31
0.0
 11
8.0212297444
 21
-21.4972641714
 31
0.0
 11
7.9300356247
 21
-21.5871328356
 31
0.0
  0
SPLINE
  5
6FC
100
AcDbEntity
  8
RACCORDO
100
AcDbSpline
 62
7
  6
CONTINUOUS
 70
0
 71
3
 72
18
 73
14
 74
12
 42
0.0000001
 43
0.0000001
 44
0.0000000001
 12
-0.1082792289
 22
0.3696204525
 32
0.0
 13
-0.2705669291
 23
0.2741116692
 33
0.0
 40
0.0
 40
0.0
 40
0.0
 40
0.0
 40
0.0068132548
 40
0.0227323685
 40
0.0476167851
 40
0.0812216567
 40
0.1231456631
 40
0.1729663044
 40
0.2944179685
 40
0.4415435344
 40
0.6105049203
 40
0.797734064
 40
1.0
 40
1.0
 40
1.0
 40
1.0
 10
-7.3012233427
 20
-22.2251447178
 30
0.0
 10
-7.3014692541
 20
-22.2243052784
 30
0.0
 10
-7.3036547778
 20
-22.2221499424
 30
0.0
 10
-7.3074028409
 20
-22.217462449
 30
0.0
 10
-7.3140202964
 20
-22.2104808277
 30
0.0
 10
-7.3227785378
 20
-22.2010589581
 30
0.0
 10
-7.3338919924
 20
-22.1894049257
 30
0.0
 10
-7.352829287
 20
-22.1696489432
 30
0.0
 10
-7.381276227
 20
-22.1402891676
 30
0.0
 10
-7.4204942399
 20
-22.1000741295
 30
0.0
 10
-7.4657235333
 20
-22.0539236388
 30
0.0
 10
-7.5159949624
 20
-22.002803532
 30
0.0
 10
-7.5511047205
 20
-21.9671969269
 30
0.0
 10
-7.5693468782
 20
-21.9487157758
 30
0.0
 11
-7.3012233427
 21
-22.2251447178
 31
0.0
 11
-7.3027437374
 21
-22.2230058914
 31
0.0
 11
-7.3067606351
 21
-22.2183736656
 31
0.0
 11
-7.3132266207
 21
-22.2112990276
 31
0.0
 11
-7.3220744244
 21
-22.2018523876
 31
0.0
 11
-7.3331950569
 21
-22.1901449679
 31
0.0
 11
-7.3464741294
 21
-22.1762932709
 31
0.0
 11
-7.3789983042
 21
-22.1426730038
 31
0.0
 11
-7.4185527296
 21
-22.1020961082
 31
0.0
 11
-7.4640944423
 21
-22.0556110561
 31
0.0
 11
-7.5146524602
 21
-22.0041908515
 31
0.0
 11
-7.5693468782
 21
-21.9487157758
 31
0.0
  0
SPLINE
  5
6FD
100
AcDbEntity
  8
0
100
AcDbSpline
 62
253
  6
CONTINUOUS
 70
0
 71
3
 72
9
 73
5
 74
3
 42
0.0000001
 43
0.0000001
 44
0.0000000001
 12
0.0000009928
 22
-0.2164846565
 32
0.0
 13
0.0013081016
 23
-0.2164807044
 33
0.0
 40
0.0
 40
0.0
 40
0.0
 40
0.0
 40
0.2986608327
 40
1.0
 40
1.0
 40
1.0
 40
1.0
 10
10.3860054704
 20
23.8443575944
 30
0.0
 10
10.3860055693
 20
23.8228057652
 30
0.0
 10
10.3860481938
 20
23.7506443085
 30
0.0
 10
10.3861358263
 20
23.6784822881
 30
0.0
 10
10.386441634
 20
23.6278734891
 30
0.0
 11
10.3860054704
 21
23.8443575944
 31
0.0
 11
10.3860350445
 21
23.7797021134
 31
0.0
 11
10.386441634
 21
23.6278734891
 31
0.0
  0
LINE
  5
6FE
100
AcDbEntity
  8
0
100
AcDbLine
 62
7
  6
CONTINUOUS
 10
9.2533769702
 20
23.6278312164
 11
9.0368706193
 21
23.8443375673
  0
LINE
  5
6FF
100
AcDbEntity
  8
0
100
AcDbLine
 62
7
  6
CONTINUOUS
 10
-8.5466230298
 20
23.6278312164
 11
-8.7631293807
 21
23.8443375673
  0
LINE
  5
700
100
AcDbEntity
  8
0
100
AcDbLine
 62
7
  6
CONTINUOUS
 10
9.2533769702
 20
-23.6278312163
 11
9.0368706193
 21
-23.8443375673
  0
SPLINE
  5
701
100
AcDbEntity
  8
0
100
AcDbSpline
 62
253
  6
CONTINUOUS
 70
0
 71
3
 72
9
 73
5
 74
3
 42
0.0000001
 43
0.0000001
 44
0.0000000001
 12
-0.0000000798
 22
0.2165052525
 32
0.0
 13
0.0013107489
 23
0.2165012847
 33
0.0
 40
0.0
 40
0.0
 40
0.0
 40
0.0
 40
0.2988002074
 40
1.0
 40
1.0
 40
1.0
 40
1.0
 10
-7.4139945172
 20
-23.8443359174
 30
0.0
 10
-7.4139945251
 20
-23.8227719793
 30
0.0
 10
-7.4139512004
 20
-23.7506036582
 30
0.0
 10
-7.4138645065
 20
-23.6784347683
 30
0.0
 10
-7.4135581409
 20
-23.6278312163
 30
0.0
 11
-7.4139945172
 21
-23.8443359174
 31
0.0
 11
-7.4139647622
 21
-23.7796441099
 31
0.0
 11
-7.4135581409
 21
-23.6278312163
 31
0.0
  0
LINE
  5
702
100
AcDbEntity
  8
0
100
AcDbLine
 62
7
  6
CONTINUOUS
 10
-8.5466230298
 20
-23.6278312163
 11
-8.7631293807
 21
-23.8443375673
  0
SPLINE
  5
703
100
AcDbEntity
  8
0
100
AcDbSpline
 62
253
  6
CONTINUOUS
 70
0
 71
3
 72
14
 73
10
 74
8
 42
0.0000001
 43
0.0000001
 44
0.0000000001
 12
-0.000000161
 22
0.2499634559
 32
0.0
 13
0.0491541604
 23
0.2450828386
 33
0.0
 40
0.0
 40
0.0
 40
0.0
 40
0.0
 40
0.3786143138
 40
0.5501135625
 40
0.7009463438
 40
0.8254370374
 40
0.9189018018
 40
0.9778262026
 40
1.0
 40
1.0
 40
1.0
 40
1.0
 10
-7.4139945168
 20
24.2368735057
 30
0.0
 10
-7.4139945371
 20
24.2684200865
 30
0.0
 10
-7.4139726979
 20
24.3142571225
 30
0.0
 10
-7.413850825
 20
24.3726584357
 30
0.0
 10
-7.4137895065
 20
24.4098934707
 30
0.0
 10
-7.4135530605
 20
24.4406060187
 30
0.0
 10
-7.4136924003
 20
24.4637121256
 30
0.0
 10
-7.4130388175
 20
24.4781877786
 30
0.0
 10
-7.4135003074
 20
24.4850210707
 30
0.0
 10
-7.4131369959
 20
24.4868325431
 30
0.0
 11
-7.4139945168
 21
24.2368735057
 31
0.0
 11
-7.4139295136
 21
24.3315132257
 31
0.0
 11
-7.4138505748
 21
24.3743816979
 31
0.0
 11
-7.4137442524
 21
24.4120842312
 31
0.0
 11
-7.4136145416
 21
24.4432020849
 31
0.0
 11
-7.4134663042
 21
24.4665643901
 31
0.0
 11
-7.4133051467
 21
24.4812924553
 31
0.0
 11
-7.4131369959
 21
24.4868325431
 31
0.0
  0
SPLINE
  5
704
100
AcDbEntity
  8
0
100
AcDbSpline
 62
253
  6
CONTINUOUS
 70
0
 71
3
 72
14
 73
10
 74
8
 42
0.0000001
 43
0.0000001
 44
0.0000000001
 12
0.0000001187
 22
0.249966339
 32
0.0
 13
-0.0492103035
 23
0.2450745124
 33
0.0
 40
0.0
 40
0.0
 40
0.0
 40
0.0
 40
0.3786102122
 40
0.550110195
 40
0.7009447699
 40
0.8254366722
 40
0.9189016359
 40
0.9778261742
 40
1.0
 40
1.0
 40
1.0
 40
1.0
 10
-10.3860054824
 20
24.2368706193
 30
0.0
 10
-10.3860054675
 20
24.2684172222
 30
0.0
 10
-10.3860272746
 20
24.3142545087
 30
0.0
 10
-10.3861492046
 20
24.3726563585
 30
0.0
 10
-10.3862104415
 20
24.4098921483
 30
0.0
 10
-10.3864471954
 20
24.4406052781
 30
0.0
 10
-10.3863072136
 20
24.4637118744
 30
0.0
 10
-10.3869620359
 20
24.4781875483
 30
0.0
 10
-10.3864992772
 20
24.4850211299
 30
0.0
 10
-10.3868630041
 20
24.4868325431
 30
0.0
 11
-10.3860054824
 21
24.2368706193
 31
0.0
 11
-10.3860704826
 21
24.3315104056
 31
0.0
 11
-10.3861494321
 21
24.3743795558
 31
0.0
 11
-10.3862557752
 21
24.4120829723
 31
0.0
 11
-10.386385516
 21
24.4432014869
 31
0.0
 11
-10.3865337696
 21
24.4665641113
 31
0.0
 11
-10.3866949937
 21
24.48129238
 31
0.0
 11
-10.3868630041
 21
24.4868325431
 31
0.0
  0
LINE
  5
705
100
AcDbEntity
  8
0
100
AcDbLine
 62
7
  6
CONTINUOUS
 10
-9.2533769702
 20
23.6278312164
 11
-9.0368706193
 21
23.8443375673
  0
SPLINE
  5
706
100
AcDbEntity
  8
0
100
AcDbSpline
 62
253
  6
CONTINUOUS
 70
0
 71
3
 72
14
 73
10
 74
8
 42
0.0000001
 43
0.0000001
 44
0.0000000001
 12
-0.0491708119
 22
-0.2450824418
 32
0.0
 13
0.0000001167
 23
-0.2499663418
 33
0.0
 40
0.0
 40
0.0
 40
0.0
 40
0.0
 40
0.022160649
 40
0.0810578314
 40
0.1744935263
 40
0.2989595177
 40
0.4497755697
 40
0.6212777996
 40
1.0
 40
1.0
 40
1.0
 40
1.0
 10
10.3868630041
 20
24.4868325431
 30
0.0
 10
10.386499785
 20
24.4850221478
 30
0.0
 10
10.3869613093
 20
24.4781921258
 30
0.0
 10
10.386307597
 20
24.4637221138
 30
0.0
 10
10.3864470764
 20
24.4406224703
 30
0.0
 10
10.3862105355
 20
24.409915452
 30
0.0
 10
10.3861492427
 20
24.3726831866
 30
0.0
 10
10.3860272974
 20
24.3142733578
 30
0.0
 10
10.3860054677
 20
24.2684265536
 30
0.0
 10
10.3860054824
 20
24.2368706193
 30
0.0
 11
10.3868630041
 21
24.4868325431
 31
0.0
 11
10.3866949466
 21
24.4812956766
 31
0.0
 11
10.3865337753
 21
24.4665742456
 31
0.0
 11
10.3863855488
 21
24.4432189371
 31
0.0
 11
10.3862558217
 21
24.4121068991
 31
0.0
 11
10.3861494863
 21
24.3744081122
 31
0.0
 11
10.386070521
 21
24.3315383999
 31
0.0
 11
10.3860054824
 21
24.2368706193
 31
0.0
  0
SPLINE
  5
707
100
AcDbEntity
  8
0
100
AcDbSpline
 62
253
  6
CONTINUOUS
 70
0
 71
3
 72
14
 73
10
 74
8
 42
0.0000001
 43
0.0000001
 44
0.0000000001
 12
0.0491604488
 22
-0.24508452
 32
0.0
 13
-0.000000147
 23
-0.2499663411
 33
0.0
 40
0.0
 40
0.0
 40
0.0
 40
0.0
 40
0.0221560382
 40
0.0810435912
 40
0.1744700487
 40
0.2989316111
 40
0.4497491635
 40
0.6212572333
 40
1.0
 40
1.0
 40
1.0
 40
1.0
 10
7.4131369959
 20
24.4868325431
 30
0.0
 10
7.4135000629
 20
24.4850225091
 30
0.0
 10
7.4130387693
 20
24.4781937216
 30
0.0
 10
7.4136922946
 20
24.4637256266
 30
0.0
 10
7.4135528884
 20
24.4406279425
 30
0.0
 10
7.4137894171
 20
24.4099219317
 30
0.0
 10
7.4138507262
 20
24.3726894257
 30
0.0
 10
7.4139726908
 20
24.3142772712
 30
0.0
 10
7.4139945361
 20
24.2684282672
 30
0.0
 10
7.4139945176
 20
24.2368706193
 30
0.0
 11
7.4131369959
 21
24.4868325431
 31
0.0
 11
7.4133050073
 21
24.4812968283
 31
0.0
 11
7.4134661721
 21
24.4665778045
 31
0.0
 11
7.413614396
 21
24.4432248051
 31
0.0
 11
7.4137441318
 21
24.4121138742
 31
0.0
 11
7.4138504802
 21
24.3744147125
 31
0.0
 11
7.4139294606
 21
24.3315435406
 31
0.0
 11
7.4139945176
 21
24.2368706193
 31
0.0
  0
LINE
  5
708
100
AcDbEntity
  8
0
100
AcDbLine
 62
7
  6
CONTINUOUS
 10
8.5466230298
 20
23.6278312164
 11
8.7631293807
 21
23.8443375673
  0
SPLINE
  5
709
100
AcDbEntity
  8
0
100
AcDbSpline
 62
253
  6
CONTINUOUS
 70
0
 71
3
 72
9
 73
5
 74
3
 42
0.0000001
 43
0.0000001
 44
0.0000000001
 12
0.0000000894
 22
-0.2165058795
 32
0.0
 13
-0.0013063451
 23
-0.2165019383
 33
0.0
 40
0.0
 40
0.0
 40
0.0
 40
0.0
 40
0.2987948397
 40
1.0
 40
1.0
 40
1.0
 40
1.0
 10
7.4139945176
 20
23.8443375673
 30
0.0
 10
7.4139945265
 20
23.8227739541
 30
0.0
 10
7.4139514468
 20
23.7506054227
 30
0.0
 10
7.4138634855
 20
23.6784363314
 30
0.0
 10
7.4135581468
 20
23.6278322393
 30
0.0
 11
7.4139945176
 21
23.8443375673
 31
0.0
 11
7.4139647755
 21
23.7796467346
 31
0.0
 11
7.4135581468
 21
23.6278322393
 31
0.0
  0
LINE
  5
70A
100
AcDbEntity
  8
0
100
AcDbLine
 62
7
  6
CONTINUOUS
 10
8.5466230298
 20
-23.6278312163
 11
8.7631293807
 21
-23.8443375673
  0
SPLINE
  5
70B
100
AcDbEntity
  8
0
100
AcDbSpline
 62
253
  6
CONTINUOUS
 70
0
 71
3
 72
14
 73
10
 74
8
 42
0.0000001
 43
0.0000001
 44
0.0000000001
 12
-0.0000000677
 22
-0.2499663444
 32
0.0
 13
0.0491135085
 23
-0.2450939342
 33
0.0
 40
0.0
 40
0.0
 40
0.0
 40
0.0
 40
0.378639668
 40
0.5501399824
 40
0.7009674195
 40
0.8254504889
 40
0.91890819
 40
0.9778278202
 40
1.0
 40
1.0
 40
1.0
 40
1.0
 10
10.3860054824
 20
-24.2368706193
 30
0.0
 10
10.3860054739
 20
-24.2684196772
 30
0.0
 10
10.3860272974
 20
-24.3142594426
 30
0.0
 10
10.386149122
 20
-24.3726631909
 30
0.0
 10
10.3862104998
 20
-24.4098976543
 30
0.0
 10
10.3864467422
 20
-24.4406089172
 30
0.0
 10
10.3863078655
 20
-24.4637135986
 30
0.0
 10
10.386960603
 20
-24.478188432
 30
0.0
 10
10.3865000195
 20
-24.4850211208
 30
0.0
 10
10.3868630041
 20
-24.4868325431
 30
0.0
 11
10.3860054824
 21
-24.2368706193
 31
0.0
 11
10.386070468
 21
-24.3315177706
 31
0.0
 11
10.386149391
 21
-24.3743870046
 31
0.0
 11
10.3862557028
 21
-24.4120886378
 31
0.0
 11
10.3863854024
 21
-24.4432049453
 31
0.0
 11
10.3865336465
 21
-24.4665657548
 31
0.0
 11
10.3866947825
 21
-24.4812927979
 31
0.0
 11
10.3868630041
 21
-24.4868325431
 31
0.0
  0
SPLINE
  5
70C
100
AcDbEntity
  8
0
100
AcDbSpline
 62
253
  6
CONTINUOUS
 70
0
 71
3
 72
14
 73
10
 74
8
 42
0.0000001
 43
0.0000001
 44
0.0000000001
 12
0.0000000316
 22
-0.2499663453
 32
0.0
 13
-0.0490876294
 23
-0.2450991195
 33
0.0
 40
0.0
 40
0.0
 40
0.0
 40
0.0
 40
0.3786066962
 40
0.5501057471
 40
0.7009402767
 40
0.825433203
 40
0.9188999329
 40
0.9778256633
 40
1.0
 40
1.0
 40
1.0
 40
1.0
 10
7.4139945176
 20
-24.2368706193
 30
0.0
 10
7.4139945215
 20
-24.26841693
 30
0.0
 10
7.4139727085
 20
-24.3142538419
 30
0.0
 10
7.4138509229
 20
-24.3726553316
 30
0.0
 10
7.4137895178
 20
-24.409891096
 30
0.0
 10
7.4135533789
 20
-24.44060454
 30
0.0
 10
7.4136920266
 20
-24.4637112645
 30
0.0
 10
7.4130396942
 20
-24.4781876106
 30
0.0
 10
7.4134998245
 20
-24.4850209063
 30
0.0
 10
7.4131369959
 20
-24.4868325431
 30
0.0
 11
7.4139945176
 21
-24.2368706193
 31
0.0
 11
7.4139295549
 21
-24.3315095291
 31
0.0
 11
7.4138506467
 21
-24.3743784475
 31
0.0
 11
7.4137443439
 21
-24.4120818537
 31
0.0
 11
7.4136146489
 21
-24.4432006253
 31
0.0
 11
7.4134663983
 21
-24.4665636918
 31
0.0
 11
7.4133052621
 21
-24.4812922598
 31
0.0
 11
7.4131369959
 21
-24.4868325431
 31
0.0
  0
SPLINE
  5
70D
100
AcDbEntity
  8
0
100
AcDbSpline
 62
253
  6
CONTINUOUS
 70
0
 71
3
 72
14
 73
10
 74
8
 42
0.0000001
 43
0.0000001
 44
0.0000000001
 12
-0.0490895383
 22
0.2450986842
 32
0.0
 13
0.0000000528
 23
0.2499662933
 33
0.0
 40
0.0
 40
0.0
 40
0.0
 40
0.0
 40
0.0221590326
 40
0.0810497444
 40
0.174478782
 40
0.2989411458
 40
0.4497578551
 40
0.6212639873
 40
1.0
 40
1.0
 40
1.0
 40
1.0
 10
-7.4131370059
 20
-24.486832493
 30
0.0
 10
-7.4134995982
 20
-24.4850221097
 30
0.0
 10
-7.4130396215
 20
-24.4781930473
 30
0.0
 10
-7.4136919389
 20
-24.4637240131
 30
0.0
 10
-7.4135532036
 20
-24.440625904
 30
0.0
 10
-7.413789428
 20
-24.4099196393
 30
0.0
 10
-7.4138508162
 20
-24.3726873227
 30
0.0
 10
-7.4139726972
 20
-24.3142759664
 30
0.0
 10
-7.4139945242
 20
-24.2684276984
 30
0.0
 10
-7.4139945176
 20
-24.2368706193
 30
0.0
 11
-7.4131370059
 21
-24.486832493
 31
0.0
 11
-7.4133051147
 21
-24.4812960333
 31
0.0
 11
-7.4134662747
 21
-24.4665762226
 31
0.0
 11
-7.4136145057
 21
-24.4432225828
 31
0.0
 11
-7.4137442219
 21
-24.4121114575
 31
0.0
 11
-7.4138505459
 21
-24.3744125136
 31
0.0
 11
-7.4139294966
 21
-24.3315418342
 31
0.0
 11
-7.4139945176
 21
-24.2368706193
 31
0.0
  0
SPLINE
  5
70E
100
AcDbEntity
  8
0
100
AcDbSpline
 62
253
  6
CONTINUOUS
 70
0
 71
3
 72
14
 73
10
 74
8
 42
0.0000001
 43
0.0000001
 44
0.0000000001
 12
0.049114046
 22
0.245093826
 32
0.0
 13
0.0000001694
 23
0.2499663439
 33
0.0
 40
0.0
 40
0.0
 40
0.0
 40
0.0
 40
0.0221565314
 40
0.0810451339
 40
0.1744731537
 40
0.2989362923
 40
0.4497544396
 40
0.6212615068
 40
1.0
 40
1.0
 40
1.0
 40
1.0
 10
-10.3868630041
 20
-24.4868325431
 30
0.0
 10
-10.3865002717
 20
-24.4850224001
 30
0.0
 10
-10.3869606059
 20
-24.4781936441
 30
0.0
 10
-10.3863079196
 20
-24.4637251477
 30
0.0
 10
-10.3864468351
 20
-24.4406271906
 30
0.0
 10
-10.3862105132
 20
-24.4099208368
 30
0.0
 10
-10.3861491412
 20
-24.3726882444
 30
0.0
 10
-10.3860272632
 20
-24.3142764744
 30
0.0
 10
-10.3860055038
 20
-24.2684279114
 30
0.0
 10
-10.3860054824
 20
-24.2368706193
 30
0.0
 11
-10.3868630041
 21
-24.4868325431
 31
0.0
 11
-10.386694904
 21
-24.4812967076
 31
0.0
 11
-10.3865337259
 21
-24.4665774214
 31
0.0
 11
-10.3863854759
 21
-24.4432240314
 31
0.0
 11
-10.3862557436
 21
-24.4121127062
 31
0.0
 11
-10.3861494084
 21
-24.3744133953
 31
0.0
 11
-10.3860704693
 21
-24.3315424734
 31
0.0
 11
-10.3860054824
 21
-24.2368706193
 31
0.0
  0
SPLINE
  5
70F
100
AcDbEntity
  8
0
100
AcDbSpline
 62
253
  6
CONTINUOUS
 70
0
 71
3
 72
9
 73
5
 74
3
 42
0.0000001
 43
0.0000001
 44
0.0000000001
 12
0.0000041288
 22
0.2164298683
 32
0.0
 13
-0.0012987802
 23
0.2164259713
 33
0.0
 40
0.0
 40
0.0
 40
0.0
 40
0.0
 40
0.2987119025
 40
1.0
 40
1.0
 40
1.0
 40
1.0
 10
-10.3860055349
 20
-23.844250724
 30
0.0
 10
-10.3860051238
 20
-23.8227006648
 30
0.0
 10
-10.3860484515
 20
-23.750557468
 30
0.0
 10
-10.3861383046
 20
-23.6784137267
 30
0.0
 10
-10.386441911
 20
-23.6278214075
 30
0.0
 11
-10.3860055349
 21
-23.844250724
 31
0.0
 11
-10.3860351602
 21
-23.7796005531
 31
0.0
 11
-10.386441911
 21
-23.6278214075
 31
0.0
  0
LINE
  5
710
100
AcDbEntity
  8
0
100
AcDbLine
 62
7
  6
CONTINUOUS
 10
-9.2533769702
 20
-23.6278312163
 11
-9.0368706193
 21
-23.8443375673
  0
SPLINE
  5
711
100
AcDbEntity
  8
0
100
AcDbSpline
 62
253
  6
CONTINUOUS
 70
0
 71
3
 72
11
 73
7
 74
5
 42
0.0000001
 43
0.0000001
 44
0.0000000001
 12
-0.0029298877
 22
0.290817936
 32
0.0
 13
-0.2908243864
 23
0.0021982718
 33
0.0
 40
0.0
 40
0.0
 40
0.0
 40
0.0
 40
0.2330682335
 40
0.4768287988
 40
0.7340988118
 40
1.0
 40
1.0
 40
1.0
 40
1.0
 10
10.5864113981
 20
-23.8010362971
 30
0.0
 10
10.5861837769
 20
-23.7784428229
 30
0.0
 10
10.5747821072
 20
-23.7317691528
 30
0.0
 10
10.5292238729
 20
-23.6746348299
 30
0.0
 10
10.4633039456
 20
-23.6369744694
 30
0.0
 10
10.412218709
 20
-23.6280260574
 30
0.0
 10
10.3864418591
 20
-23.6278312164
 30
0.0
 11
10.5864113981
 21
-23.8010362971
 31
0.0
 11
10.5706918472
 21
-23.7351003607
 31
0.0
 11
10.5272287389
 21
-23.6790927495
 31
0.0
 11
10.4625665606
 21
-23.6414468486
 31
0.0
 11
10.3864418591
 21
-23.6278312164
 31
0.0
  0
SPLINE
  5
712
100
AcDbEntity
  8
0
100
AcDbSpline
 62
253
  6
CONTINUOUS
 70
0
 71
3
 72
11
 73
7
 74
5
 42
0.0000001
 43
0.0000001
 44
0.0000000001
 12
-0.290824418
 22
-0.0021981279
 32
0.0
 13
-0.0029298796
 23
-0.2908179665
 33
0.0
 40
0.0
 40
0.0
 40
0.0
 40
0.0
 40
0.2659011537
 40
0.5231711216
 40
0.7669316808
 40
1.0
 40
1.0
 40
1.0
 40
1.0
 10
7.4135581409
 20
-23.6278312163
 30
0.0
 10
7.3877812915
 20
-23.6280260446
 30
0.0
 10
7.3366960526
 20
-23.6369744366
 30
0.0
 10
7.2707761169
 20
-23.6746347866
 30
0.0
 10
7.2252178835
 20
-23.7317691277
 30
0.0
 10
7.2138162226
 20
-23.7784428122
 30
0.0
 10
7.2135886019
 20
-23.8010362971
 30
0.0
 11
7.4135581409
 21
-23.6278312163
 31
0.0
 11
7.3374334361
 21
-23.6414468189
 31
0.0
 11
7.2727712565
 21
-23.6790927071
 31
0.0
 11
7.2293081505
 21
-23.7351003272
 31
0.0
 11
7.2135886019
 21
-23.8010362971
 31
0.0
  0
SPLINE
  5
713
100
AcDbEntity
  8
0
100
AcDbSpline
 62
253
  6
CONTINUOUS
 70
0
 71
3
 72
25
 73
21
 74
19
 42
0.0000001
 43
0.0000001
 44
0.0000000001
 12
0.1903870567
 22
-0.1934662786
 32
0.0
 13
0.1885513186
 23
0.1952558131
 33
0.0
 40
0.0
 40
0.0
 40
0.0
 40
0.0
 40
0.0033072054
 40
0.0112291006
 40
0.0237289288
 40
0.0407196882
 40
0.0874402101
 40
0.1496573615
 40
0.2250211771
 40
0.3107333794
 40
0.4999993905
 40
0.6892659448
 40
0.7749790554
 40
0.8503466322
 40
0.9125642955
 40
0.9592809878
 40
0.9762728712
 40
0.9887770487
 40
0.9967006776
 40
1.0
 40
1.0
 40
1.0
 40
1.0
 10
3.8306228363
 20
23.9018840226
 30
0.0
 10
3.8308327193
 20
23.901670745
 30
0.0
 10
3.8319779444
 20
23.9016673067
 30
0.0
 10
3.8339977802
 20
23.901331217
 30
0.0
 10
3.8374386194
 20
23.9011946585
 30
0.0
 10
3.844291636
 20
23.9008436703
 30
0.0
 10
3.8557063604
 20
23.9005407828
 30
0.0
 10
3.8723667868
 20
23.9001927377
 30
0.0
 10
3.89257225
 20
23.8999212766
 30
0.0
 10
3.9242676361
 20
23.8996345596
 30
0.0
 10
3.9662723797
 20
23.8995040986
 30
0.0
 10
4.0082772402
 20
23.8996345298
 30
0.0
 10
4.0399730481
 20
23.8999212826
 30
0.0
 10
4.0601790994
 20
23.9001926342
 30
0.0
 10
4.0768392338
 20
23.9005408964
 30
0.0
 10
4.0882544915
 20
23.9008432663
 30
0.0
 10
4.09510662
 20
23.9011950848
 30
0.0
 10
4.098549934
 20
23.9013302221
 30
0.0
 10
4.1005661804
 20
23.9016688371
 30
0.0
 10
4.101714735
 20
23.9016692853
 30
0.0
 10
4.1019220988
 20
23.9018840226
 30
0.0
 11
3.8306228363
 21
23.9018840226
 31
0.0
 11
3.8314908767
 21
23.9016552219
 31
0.0
 11
3.8336291484
 21
23.9014283662
 31
0.0
 11
3.8370147317
 21
23.901205989
 31
0.0
 11
3.8416215677
 21
23.9009905596
 31
0.0
 11
3.8542967292
 21
23.9005884107
 31
0.0
 11
3.8711809142
 21
23.9002364928
 31
0.0
 11
3.8916351821
 21
23.8999478674
 31
0.0
 11
3.9148994044
 21
23.8997336642
 31
0.0
 11
3.9662723376
 21
23.8995572797
 31
0.0
 11
4.0176454184
 21
23.8997336478
 31
0.0
 11
4.0409098873
 21
23.8999478441
 31
0.0
 11
4.0613651764
 21
23.9002364582
 31
0.0
 11
4.0782495006
 21
23.9005883653
 31
0.0
 11
4.0909236219
 21
23.9009905227
 31
0.0
 11
4.0955307626
 21
23.901205965
 31
0.0
 11
4.0989175283
 21
23.9014283546
 31
0.0
 11
4.1010562723
 21
23.9016552184
 31
0.0
 11
4.1019220988
 21
23.9018840226
 31
0.0
  0
SPLINE
  5
714
100
AcDbEntity
  8
0
100
AcDbSpline
 62
253
  6
CONTINUOUS
 70
0
 71
3
 72
11
 73
7
 74
5
 42
0.0000001
 43
0.0000001
 44
0.0000000001
 12
0.290824418
 22
-0.002198128
 32
0.0
 13
0.0029298796
 23
-0.2908179665
 33
0.0
 40
0.0
 40
0.0
 40
0.0
 40
0.0
 40
0.2659011522
 40
0.5231711191
 40
0.7669316794
 40
1.0
 40
1.0
 40
1.0
 40
1.0
 10
-7.4135581409
 20
-23.6278312163
 30
0.0
 10
-7.3877812917
 20
-23.6280260446
 30
0.0
 10
-7.336696053
 20
-23.6369744364
 30
0.0
 10
-7.2707761173
 20
-23.6746347862
 30
0.0
 10
-7.2252178837
 20
-23.7317691273
 30
0.0
 10
-7.2138162226
 20
-23.7784428121
 30
0.0
 10
-7.2135886019
 20
-23.8010362971
 30
0.0
 11
-7.4135581409
 21
-23.6278312163
 31
0.0
 11
-7.3374334365
 21
-23.6414468187
 31
0.0
 11
-7.2727712571
 21
-23.6790927066
 31
0.0
 11
-7.2293081507
 21
-23.7351003269
 31
0.0
 11
-7.2135886019
 21
-23.8010362971
 31
0.0
  0
SPLINE
  5
715
100
AcDbEntity
  8
0
100
AcDbSpline
 62
253
  6
CONTINUOUS
 70
0
 71
3
 72
11
 73
7
 74
5
 42
0.0000001
 43
0.0000001
 44
0.0000000001
 12
0.0029298796
 22
0.2908179665
 32
0.0
 13
0.2908244179
 23
0.0021981283
 33
0.0
 40
0.0
 40
0.0
 40
0.0
 40
0.0
 40
0.2330683206
 40
0.4768288809
 40
0.7340988478
 40
1.0
 40
1.0
 40
1.0
 40
1.0
 10
-10.5864113981
 20
-23.8010362971
 30
0.0
 10
-10.5861837774
 20
-23.7784428121
 30
0.0
 10
-10.5747821163
 20
-23.7317691273
 30
0.0
 10
-10.5292238827
 20
-23.6746347862
 30
0.0
 10
-10.463303947
 20
-23.6369744365
 30
0.0
 10
-10.4122187083
 20
-23.6280260446
 30
0.0
 10
-10.3864418591
 20
-23.6278312163
 30
0.0
 11
-10.5864113981
 21
-23.8010362971
 31
0.0
 11
-10.5706918493
 21
-23.7351003269
 31
0.0
 11
-10.5272287429
 21
-23.6790927066
 31
0.0
 11
-10.4625665635
 21
-23.6414468188
 31
0.0
 11
-10.3864418591
 21
-23.6278312163
 31
0.0
  0
SPLINE
  5
716
100
AcDbEntity
  8
0
100
AcDbSpline
 62
253
  6
CONTINUOUS
 70
0
 71
3
 72
11
 73
7
 74
5
 42
0.0000001
 43
0.0000001
 44
0.0000000001
 12
-0.0029298796
 22
-0.290817965
 32
0.0
 13
-0.2908244163
 23
-0.0021981479
 33
0.0
 40
0.0
 40
0.0
 40
0.0
 40
0.0
 40
0.2330683208
 40
0.4768288792
 40
0.7340988449
 40
1.0
 40
1.0
 40
1.0
 40
1.0
 10
10.5864113981
 20
23.8010362971
 30
0.0
 10
10.5861837774
 20
23.7784428122
 30
0.0
 10
10.5747821164
 20
23.7317691278
 30
0.0
 10
10.5292238826
 20
23.6746347873
 30
0.0
 10
10.4633039461
 20
23.6369744404
 30
0.0
 10
10.4122187085
 20
23.6280260464
 30
0.0
 10
10.3864418591
 20
23.6278312164
 30
0.0
 11
10.5864113981
 21
23.8010362971
 31
0.0
 11
10.5706918493
 21
23.7351003272
 31
0.0
 11
10.5272287429
 21
23.6790927081
 31
0.0
 11
10.4625665634
 21
23.6414468218
 31
0.0
 11
10.3864418591
 21
23.6278312164
 31
0.0
  0
SPLINE
  5
717
100
AcDbEntity
  8
0
100
AcDbSpline
 62
253
  6
CONTINUOUS
 70
0
 71
3
 72
11
 73
7
 74
5
 42
0.0000001
 43
0.0000001
 44
0.0000000001
 12
0.290824418
 22
0.0021981279
 32
0.0
 13
0.0029298796
 23
0.2908179665
 33
0.0
 40
0.0
 40
0.0
 40
0.0
 40
0.0
 40
0.2659011524
 40
0.5231711195
 40
0.7669316796
 40
1.0
 40
1.0
 40
1.0
 40
1.0
 10
-7.4135581409
 20
23.6278312164
 30
0.0
 10
-7.3877812916
 20
23.6280260446
 30
0.0
 10
-7.336696053
 20
23.6369744365
 30
0.0
 10
-7.2707761173
 20
23.6746347863
 30
0.0
 10
-7.2252178837
 20
23.7317691274
 30
0.0
 10
-7.2138162226
 20
23.7784428121
 30
0.0
 10
-7.2135886019
 20
23.8010362971
 30
0.0
 11
-7.4135581409
 21
23.6278312164
 31
0.0
 11
-7.3374334365
 21
23.6414468187
 31
0.0
 11
-7.272771257
 21
23.6790927066
 31
0.0
 11
-7.2293081507
 21
23.7351003269
 31
0.0
 11
-7.2135886019
 21
23.8010362971
 31
0.0
  0
SPLINE
  5
718
100
AcDbEntity
  8
0
100
AcDbSpline
 62
253
  6
CONTINUOUS
 70
0
 71
3
 72
25
 73
21
 74
19
 42
0.0000001
 43
0.0000001
 44
0.0000000001
 12
0.1903870567
 22
-0.1934662786
 32
0.0
 13
0.1885513186
 23
0.1952558131
 33
0.0
 40
0.0
 40
0.0
 40
0.0
 40
0.0
 40
0.0033072054
 40
0.0112291006
 40
0.0237289288
 40
0.0407196882
 40
0.0874402101
 40
0.1496573615
 40
0.2250211771
 40
0.3107333794
 40
0.4999993905
 40
0.6892659448
 40
0.7749790554
 40
0.8503466322
 40
0.9125642955
 40
0.9592809878
 40
0.9762728712
 40
0.9887770487
 40
0.9967006776
 40
1.0
 40
1.0
 40
1.0
 40
1.0
 10
-4.1019220988
 20
23.9018840226
 30
0.0
 10
-4.1017122158
 20
23.901670745
 30
0.0
 10
-4.1005669907
 20
23.9016673067
 30
0.0
 10
-4.0985471548
 20
23.901331217
 30
0.0
 10
-4.0951063157
 20
23.9011946585
 30
0.0
 10
-4.088253299
 20
23.9008436703
 30
0.0
 10
-4.0768385747
 20
23.9005407828
 30
0.0
 10
-4.0601781483
 20
23.9001927377
 30
0.0
 10
-4.039972685
 20
23.8999212766
 30
0.0
 10
-4.0082772989
 20
23.8996345596
 30
0.0
 10
-3.9662725553
 20
23.8995040986
 30
0.0
 10
-3.9242676949
 20
23.8996345298
 30
0.0
 10
-3.8925718869
 20
23.8999212826
 30
0.0
 10
-3.8723658356
 20
23.9001926342
 30
0.0
 10
-3.8557057013
 20
23.9005408964
 30
0.0
 10
-3.8442904436
 20
23.9008432663
 30
0.0
 10
-3.8374383151
 20
23.9011950848
 30
0.0
 10
-3.8339950011
 20
23.9013302221
 30
0.0
 10
-3.8319787547
 20
23.9016688371
 30
0.0
 10
-3.8308302001
 20
23.9016692853
 30
0.0
 10
-3.8306228363
 20
23.9018840226
 30
0.0
 11
-4.1019220988
 21
23.9018840226
 31
0.0
 11
-4.1010540584
 21
23.9016552219
 31
0.0
 11
-4.0989157867
 21
23.9014283662
 31
0.0
 11
-4.0955302034
 21
23.901205989
 31
0.0
 11
-4.0909233674
 21
23.9009905596
 31
0.0
 11
-4.0782482058
 21
23.9005884107
 31
0.0
 11
-4.0613640208
 21
23.9002364928
 31
0.0
 11
-4.040909753
 21
23.8999478674
 31
0.0
 11
-4.0176455306
 21
23.8997336642
 31
0.0
 11
-3.9662725974
 21
23.8995572797
 31
0.0
 11
-3.9148995167
 21
23.8997336478
 31
0.0
 11
-3.8916350477
 21
23.8999478441
 31
0.0
 11
-3.8711797587
 21
23.9002364582
 31
0.0
 11
-3.8542954345
 21
23.9005883653
 31
0.0
 11
-3.8416213132
 21
23.9009905227
 31
0.0
 11
-3.8370141724
 21
23.901205965
 31
0.0
 11
-3.8336274068
 21
23.9014283546
 31
0.0
 11
-3.8314886627
 21
23.9016552184
 31
0.0
 11
-3.8306228363
 21
23.9018840226
 31
0.0
  0
SPLINE
  5
719
100
AcDbEntity
  8
0
100
AcDbSpline
 62
253
  6
CONTINUOUS
 70
0
 71
3
 72
11
 73
7
 74
5
 42
0.0000001
 43
0.0000001
 44
0.0000000001
 12
-0.290824418
 22
0.002198128
 32
0.0
 13
-0.0029298796
 23
0.2908179665
 33
0.0
 40
0.0
 40
0.0
 40
0.0
 40
0.0
 40
0.2659011522
 40
0.5231711191
 40
0.7669316794
 40
1.0
 40
1.0
 40
1.0
 40
1.0
 10
7.4135581409
 20
23.6278312164
 30
0.0
 10
7.3877812917
 20
23.6280260446
 30
0.0
 10
7.336696053
 20
23.6369744364
 30
0.0
 10
7.2707761173
 20
23.6746347862
 30
0.0
 10
7.2252178837
 20
23.7317691273
 30
0.0
 10
7.2138162226
 20
23.7784428121
 30
0.0
 10
7.2135886019
 20
23.8010362971
 30
0.0
 11
7.4135581409
 21
23.6278312164
 31
0.0
 11
7.3374334365
 21
23.6414468187
 31
0.0
 11
7.2727712571
 21
23.6790927066
 31
0.0
 11
7.2293081507
 21
23.7351003269
 31
0.0
 11
7.2135886019
 21
23.8010362971
 31
0.0
  0
SPLINE
  5
71A
100
AcDbEntity
  8
0
100
AcDbSpline
 62
253
  6
CONTINUOUS
 70
0
 71
3
 72
11
 73
7
 74
5
 42
0.0000001
 43
0.0000001
 44
0.0000000001
 12
0.0029298744
 22
-0.2908179843
 32
0.0
 13
0.2908244364
 23
-0.0021980406
 33
0.0
 40
0.0
 40
0.0
 40
0.0
 40
0.0
 40
0.2330683041
 40
0.4768288064
 40
0.7340987915
 40
1.0
 40
1.0
 40
1.0
 40
1.0
 10
-10.5864113981
 20
23.8010362971
 30
0.0
 10
-10.5861837778
 20
23.7784428123
 30
0.0
 10
-10.5747821307
 20
23.7317691306
 30
0.0
 10
-10.5292239105
 20
23.674634778
 30
0.0
 10
-10.4633039672
 20
23.636974425
 30
0.0
 10
-10.4122187154
 20
23.6280260394
 30
0.0
 10
-10.386441859
 20
23.6278312189
 30
0.0
 11
-10.5864113981
 21
23.8010362971
 31
0.0
 11
-10.570691861
 21
23.7351003247
 31
0.0
 11
-10.5272287738
 21
23.6790927054
 31
0.0
 11
-10.4625665866
 21
23.6414468114
 31
0.0
 11
-10.386441859
 21
23.6278312189
 31
0.0
  0
SPLINE
  5
71B
100
AcDbEntity
  8
0
100
AcDbSpline
 62
253
  6
CONTINUOUS
 70
0
 71
3
 72
29
 73
25
 74
23
 42
0.0000001
 43
0.0000001
 44
0.0000000001
 12
-0.727109997
 22
0.2572297694
 32
0.0
 13
-0.7263583895
 23
-0.2593445431
 33
0.0
 40
0.0
 40
0.0
 40
0.0
 40
0.0
 40
0.0032231171
 40
0.0111232113
 40
0.0236176136
 40
0.0406082266
 40
0.0619191072
 40
0.0873397501
 40
0.149586798
 40
0.2249889815
 40
0.3107352647
 40
0.4035878127
 40
0.5000646111
 40
0.5965389168
 40
0.6893842172
 40
0.7751186269
 40
0.8505041667
 40
0.9127325955
 40
0.938143639
 40
0.9594431793
 40
0.9764191147
 40
0.9888962758
 40
0.9967820666
 40
1.0
 40
1.0
 40
1.0
 40
1.0
 10
4.351882222
 20
-23.6519214817
 30
0.0
 10
4.3511010351
 20
-23.6516451211
 30
0.0
 10
4.3481608997
 20
-23.6517775988
 30
0.0
 10
4.3421641191
 20
-23.6513253656
 30
0.0
 10
4.3325168189
 20
-23.6512513621
 30
0.0
 10
4.319475483
 20
-23.6509871158
 30
0.0
 10
4.3030883441
 20
-23.6508072777
 30
0.0
 10
4.2750751508
 20
-23.650522861
 30
0.0
 10
4.2331508011
 20
-23.6502362193
 30
0.0
 10
4.1757194513
 20
-23.649956869
 30
0.0
 10
4.1104184735
 20
-23.6497515729
 30
0.0
 10
4.0396995221
 20
-23.6496239558
 30
0.0
 10
3.966222323
 20
-23.649581034
 30
0.0
 10
3.8927469869
 20
-23.6496243194
 30
0.0
 10
3.8220335941
 20
-23.6497522438
 30
0.0
 10
3.7567418079
 20
-23.649957762
 30
0.0
 10
3.6993225893
 20
-23.6502372817
 30
0.0
 10
3.6574097452
 20
-23.6505241103
 30
0.0
 10
3.6294067721
 20
-23.6508088207
 30
0.0
 10
3.6130286875
 20
-23.6509884274
 30
0.0
 10
3.599998733
 20
-23.6512524891
 30
0.0
 10
3.5903626937
 20
-23.6513246894
 30
0.0
 10
3.5843764427
 20
-23.6517775732
 30
0.0
 10
3.5814400368
 20
-23.6516439143
 30
0.0
 10
3.5806609125
 20
-23.6519220988
 30
0.0
 11
4.351882222
 21
-23.6519214817
 31
0.0
 11
4.3494068637
 21
-23.6516928893
 31
0.0
 11
4.3433179951
 21
-23.6514658777
 31
0.0
 11
4.3336840213
 21
-23.6512431999
 31
0.0
 11
4.3205814605
 21
-23.6510275278
 31
0.0
 11
4.304146334
 21
-23.6508209404
 31
0.0
 11
4.284541153
 21
-23.6506252526
 31
0.0
 11
4.236533213
 21
-23.6502736235
 31
0.0
 11
4.1783785492
 21
-23.6499854062
 31
0.0
 11
4.1122454322
 21
-23.649771491
 31
0.0
 11
4.0406312472
 21
-23.6496399248
 31
0.0
 11
3.9662216821
 21
-23.6495955842
 31
0.0
 11
3.8918140398
 21
-23.6496402878
 31
0.0
 11
3.8202054453
 21
-23.6497721635
 31
0.0
 11
3.7540814868
 21
-23.6499863128
 31
0.0
 11
3.6959396609
 21
-23.650274723
 31
0.0
 11
3.6479460836
 21
-23.6506266247
 31
0.0
 11
3.6283483077
 21
-23.6508224232
 31
0.0
 11
3.6119219266
 21
-23.6510288629
 31
0.0
 11
3.5988306774
 21
-23.6512439079
 31
0.0
 11
3.5892099822
 21
-23.6514656152
 31
0.0
 11
3.583132139
 21
-23.6516922484
 31
0.0
 11
3.5806609125
 21
-23.6519220988
 31
0.0
  0
SPLINE
  5
71C
100
AcDbEntity
  8
0
100
AcDbSpline
 62
253
  6
CONTINUOUS
 70
0
 71
3
 72
29
 73
25
 74
23
 42
0.0000001
 43
0.0000001
 44
0.0000000001
 12
0.7263583892
 22
-0.2593445438
 32
0.0
 13
0.7271099964
 23
0.2572297712
 33
0.0
 40
0.0
 40
0.0
 40
0.0
 40
0.0
 40
0.0032179334
 40
0.0111037242
 40
0.0235808853
 40
0.0405568207
 40
0.061856361
 40
0.0872674045
 40
0.1494958333
 40
0.2248813731
 40
0.3106157828
 40
0.4034610831
 40
0.4999353888
 40
0.5964121872
 40
0.6892647352
 40
0.7750110185
 40
0.850413202
 40
0.9126602499
 40
0.9380808928
 40
0.9593917734
 40
0.9763823864
 40
0.9888767887
 40
0.9967768829
 40
1.0
 40
1.0
 40
1.0
 40
1.0
 10
3.5806609125
 20
23.6519220988
 30
0.0
 10
3.5814400368
 20
23.6516439143
 30
0.0
 10
3.5843764427
 20
23.6517775732
 30
0.0
 10
3.5903626937
 20
23.6513246894
 30
0.0
 10
3.599998733
 20
23.6512524891
 30
0.0
 10
3.6130286875
 20
23.6509884274
 30
0.0
 10
3.6294067721
 20
23.6508088207
 30
0.0
 10
3.6574097452
 20
23.6505241103
 30
0.0
 10
3.6993225893
 20
23.6502372817
 30
0.0
 10
3.7567418079
 20
23.649957762
 30
0.0
 10
3.8220335941
 20
23.6497522438
 30
0.0
 10
3.8927469869
 20
23.6496243194
 30
0.0
 10
3.966222323
 20
23.649581034
 30
0.0
 10
4.0396995221
 20
23.6496239558
 30
0.0
 10
4.1104184735
 20
23.6497515729
 30
0.0
 10
4.1757194512
 20
23.649956869
 30
0.0
 10
4.2331508011
 20
23.6502362193
 30
0.0
 10
4.2750751508
 20
23.650522861
 30
0.0
 10
4.3030883441
 20
23.6508072777
 30
0.0
 10
4.319475483
 20
23.6509871158
 30
0.0
 10
4.3325168189
 20
23.6512513621
 30
0.0
 10
4.3421641191
 20
23.6513253656
 30
0.0
 10
4.3481608997
 20
23.6517775988
 30
0.0
 10
4.3511010351
 20
23.6516451211
 30
0.0
 10
4.351882222
 20
23.6519214817
 30
0.0
 11
3.5806609125
 21
23.6519220988
 31
0.0
 11
3.583132139
 21
23.6516922484
 31
0.0
 11
3.5892099822
 21
23.6514656152
 31
0.0
 11
3.5988306774
 21
23.6512439079
 31
0.0
 11
3.6119219266
 21
23.6510288629
 31
0.0
 11
3.6283483077
 21
23.6508224232
 31
0.0
 11
3.6479460836
 21
23.6506266247
 31
0.0
 11
3.6959396609
 21
23.650274723
 31
0.0
 11
3.7540814868
 21
23.6499863128
 31
0.0
 11
3.8202054453
 21
23.6497721635
 31
0.0
 11
3.8918140398
 21
23.6496402878
 31
0.0
 11
3.9662216821
 21
23.6495955842
 31
0.0
 11
4.0406312472
 21
23.6496399248
 31
0.0
 11
4.1122454321
 21
23.649771491
 31
0.0
 11
4.1783785492
 21
23.6499854062
 31
0.0
 11
4.236533213
 21
23.6502736235
 31
0.0
 11
4.284541153
 21
23.6506252526
 31
0.0
 11
4.304146334
 21
23.6508209404
 31
0.0
 11
4.3205814605
 21
23.6510275278
 31
0.0
 11
4.3336840212
 21
23.6512431999
 31
0.0
 11
4.3433179951
 21
23.6514658777
 31
0.0
 11
4.3494068637
 21
23.6516928893
 31
0.0
 11
4.351882222
 21
23.6519214817
 31
0.0
  0
SPLINE
  5
71D
100
AcDbEntity
  8
0
100
AcDbSpline
 62
253
  6
CONTINUOUS
 70
0
 71
3
 72
29
 73
25
 74
23
 42
0.0000001
 43
0.0000001
 44
0.0000000001
 12
-0.727109997
 22
0.2572297694
 32
0.0
 13
-0.7263583895
 23
-0.2593445431
 33
0.0
 40
0.0
 40
0.0
 40
0.0
 40
0.0
 40
0.0032231171
 40
0.0111232113
 40
0.0236176136
 40
0.0406082266
 40
0.0619191072
 40
0.0873397501
 40
0.149586798
 40
0.2249889815
 40
0.3107352647
 40
0.4035878127
 40
0.5000646111
 40
0.5965389168
 40
0.6893842172
 40
0.7751186269
 40
0.8505041667
 40
0.9127325955
 40
0.938143639
 40
0.9594431793
 40
0.9764191147
 40
0.9888962758
 40
0.9967820666
 40
1.0
 40
1.0
 40
1.0
 40
1.0
 10
-3.5806627131
 20
-23.6519214817
 30
0.0
 10
-3.5814439
 20
-23.6516451211
 30
0.0
 10
-3.5843840353
 20
-23.6517775988
 30
0.0
 10
-3.590380816
 20
-23.6513253656
 30
0.0
 10
-3.6000281162
 20
-23.6512513621
 30
0.0
 10
-3.613069452
 20
-23.6509871158
 30
0.0
 10
-3.629456591
 20
-23.6508072777
 30
0.0
 10
-3.6574697843
 20
-23.650522861
 30
0.0
 10
-3.699394134
 20
-23.6502362193
 30
0.0
 10
-3.7568254838
 20
-23.649956869
 30
0.0
 10
-3.8221264616
 20
-23.6497515729
 30
0.0
 10
-3.8928454129
 20
-23.6496239558
 30
0.0
 10
-3.9663226121
 20
-23.649581034
 30
0.0
 10
-4.0397979481
 20
-23.6496243194
 30
0.0
 10
-4.110511341
 20
-23.6497522438
 30
0.0
 10
-4.1758031271
 20
-23.649957762
 30
0.0
 10
-4.2332223457
 20
-23.6502372817
 30
0.0
 10
-4.2751351899
 20
-23.6505241103
 30
0.0
 10
-4.303138163
 20
-23.6508088207
 30
0.0
 10
-4.3195162475
 20
-23.6509884274
 30
0.0
 10
-4.3325462021
 20
-23.6512524891
 30
0.0
 10
-4.3421822413
 20
-23.6513246894
 30
0.0
 10
-4.3481684923
 20
-23.6517775732
 30
0.0
 10
-4.3511048983
 20
-23.6516439143
 30
0.0
 10
-4.3518840226
 20
-23.6519220988
 30
0.0
 11
-3.5806627131
 21
-23.6519214817
 31
0.0
 11
-3.5831380714
 21
-23.6516928893
 31
0.0
 11
-3.5892269399
 21
-23.6514658777
 31
0.0
 11
-3.5988609138
 21
-23.6512431999
 31
0.0
 11
-3.6119634746
 21
-23.6510275278
 31
0.0
 11
-3.628398601
 21
-23.6508209404
 31
0.0
 11
-3.6480037821
 21
-23.6506252526
 31
0.0
 11
-3.6960117221
 21
-23.6502736235
 31
0.0
 11
-3.7541663859
 21
-23.6499854062
 31
0.0
 11
-3.8202995029
 21
-23.649771491
 31
0.0
 11
-3.8919136879
 21
-23.6496399248
 31
0.0
 11
-3.9663232529
 21
-23.6495955842
 31
0.0
 11
-4.0407308953
 21
-23.6496402878
 31
0.0
 11
-4.1123394898
 21
-23.6497721635
 31
0.0
 11
-4.1784634483
 21
-23.6499863128
 31
0.0
 11
-4.2366052742
 21
-23.650274723
 31
0.0
 11
-4.2845988515
 21
-23.6506266247
 31
0.0
 11
-4.3041966274
 21
-23.6508224232
 31
0.0
 11
-4.3206230085
 21
-23.6510288629
 31
0.0
 11
-4.3337142577
 21
-23.6512439079
 31
0.0
 11
-4.3433349528
 21
-23.6514656152
 31
0.0
 11
-4.3494127961
 21
-23.6516922484
 31
0.0
 11
-4.3518840226
 21
-23.6519220988
 31
0.0
  0
SPLINE
  5
71E
100
AcDbEntity
  8
0
100
AcDbSpline
 62
253
  6
CONTINUOUS
 70
0
 71
3
 72
29
 73
25
 74
23
 42
0.0000001
 43
0.0000001
 44
0.0000000001
 12
0.7263583892
 22
-0.2593445438
 32
0.0
 13
0.7271099964
 23
0.2572297712
 33
0.0
 40
0.0
 40
0.0
 40
0.0
 40
0.0
 40
0.0032179334
 40
0.0111037242
 40
0.0235808853
 40
0.0405568207
 40
0.061856361
 40
0.0872674045
 40
0.1494958333
 40
0.2248813731
 40
0.3106157828
 40
0.4034610831
 40
0.4999353888
 40
0.5964121872
 40
0.6892647352
 40
0.7750110185
 40
0.850413202
 40
0.9126602499
 40
0.9380808928
 40
0.9593917734
 40
0.9763823864
 40
0.9888767887
 40
0.9967768829
 40
1.0
 40
1.0
 40
1.0
 40
1.0
 10
-4.3518840226
 20
23.6519220988
 30
0.0
 10
-4.3511048983
 20
23.6516439143
 30
0.0
 10
-4.3481684923
 20
23.6517775732
 30
0.0
 10
-4.3421822413
 20
23.6513246894
 30
0.0
 10
-4.3325462021
 20
23.6512524891
 30
0.0
 10
-4.3195162475
 20
23.6509884274
 30
0.0
 10
-4.303138163
 20
23.6508088207
 30
0.0
 10
-4.2751351899
 20
23.6505241103
 30
0.0
 10
-4.2332223457
 20
23.6502372817
 30
0.0
 10
-4.1758031272
 20
23.649957762
 30
0.0
 10
-4.110511341
 20
23.6497522438
 30
0.0
 10
-4.0397979482
 20
23.6496243194
 30
0.0
 10
-3.9663226121
 20
23.649581034
 30
0.0
 10
-3.892845413
 20
23.6496239558
 30
0.0
 10
-3.8221264616
 20
23.6497515729
 30
0.0
 10
-3.7568254838
 20
23.649956869
 30
0.0
 10
-3.699394134
 20
23.6502362193
 30
0.0
 10
-3.6574697843
 20
23.650522861
 30
0.0
 10
-3.629456591
 20
23.6508072777
 30
0.0
 10
-3.613069452
 20
23.6509871158
 30
0.0
 10
-3.6000281162
 20
23.6512513621
 30
0.0
 10
-3.590380816
 20
23.6513253656
 30
0.0
 10
-3.5843840353
 20
23.6517775988
 30
0.0
 10
-3.5814439
 20
23.6516451211
 30
0.0
 10
-3.5806627131
 20
23.6519214817
 30
0.0
 11
-4.3518840226
 21
23.6519220988
 31
0.0
 11
-4.3494127961
 21
23.6516922484
 31
0.0
 11
-4.3433349529
 21
23.6514656152
 31
0.0
 11
-4.3337142577
 21
23.6512439079
 31
0.0
 11
-4.3206230085
 21
23.6510288629
 31
0.0
 11
-4.3041966274
 21
23.6508224232
 31
0.0
 11
-4.2845988515
 21
23.6506266247
 31
0.0
 11
-4.2366052742
 21
23.650274723
 31
0.0
 11
-4.1784634483
 21
23.6499863128
 31
0.0
 11
-4.1123394898
 21
23.6497721635
 31
0.0
 11
-4.0407308953
 21
23.6496402878
 31
0.0
 11
-3.966323253
 21
23.6495955842
 31
0.0
 11
-3.8919136879
 21
23.6496399248
 31
0.0
 11
-3.8202995029
 21
23.649771491
 31
0.0
 11
-3.7541663859
 21
23.6499854062
 31
0.0
 11
-3.6960117221
 21
23.6502736235
 31
0.0
 11
-3.6480037821
 21
23.6506252526
 31
0.0
 11
-3.6283986011
 21
23.6508209404
 31
0.0
 11
-3.6119634746
 21
23.6510275278
 31
0.0
 11
-3.5988609138
 21
23.6512431999
 31
0.0
 11
-3.58922694
 21
23.6514658777
 31
0.0
 11
-3.5831380714
 21
23.6516928893
 31
0.0
 11
-3.5806627131
 21
23.6519214817
 31
0.0
  0
SPLINE
  5
71F
100
AcDbEntity
  8
ASSI
100
AcDbSpline
 62
253
  6
CONTINUOUS
 70
0
 71
3
 72
14
 73
10
 74
8
 42
0.0000001
 43
0.0000001
 44
0.0000000001
 12
-0.0353890363
 22
0.0353419927
 32
0.0
 13
0.0000000042
 23
0.0500144013
 33
0.0
 40
0.0
 40
0.0
 40
0.0
 40
0.0
 40
0.0223894862
 40
0.0813317476
 40
0.1747573579
 40
0.2991859872
 40
0.4499515839
 40
0.6213967272
 40
1.0
 40
1.0
 40
1.0
 40
1.0
 10
-7.2131674569
 20
-24.286863004
 30
0.0
 10
-7.213431571
 20
-24.286599241
 30
0.0
 10
-7.2131956378
 20
-24.2850244771
 30
0.0
 10
-7.2136472507
 20
-24.2823117595
 30
0.0
 10
-7.2136160178
 20
-24.277593811
 30
0.0
 10
-7.2138079016
 20
-24.2714929736
 30
0.0
 10
-7.2138851817
 20
-24.2640319979
 30
0.0
 10
-7.2140004445
 20
-24.2523553401
 30
0.0
 10
-7.214024979
 20
-24.2431824913
 30
0.0
 10
-7.2140249785
 20
-24.2368706193
 30
0.0
 11
-7.2131674569
 21
-24.286863004
 31
0.0
 11
-7.2133354803
 21
-24.2857558849
 31
0.0
 11
-7.2134966412
 21
-24.2828123315
 31
0.0
 11
-7.2136448926
 21
-24.2781420579
 31
0.0
 11
-7.2137746403
 21
-24.2719201872
 31
0.0
 11
-7.213881
 21
-24.2643804863
 31
0.0
 11
-7.2139599679
 21
-24.2558061237
 31
0.0
 11
-7.2140249785
 21
-24.2368706193
 31
0.0
  0
SPLINE
  5
720
100
AcDbEntity
  8
ASSI
100
AcDbSpline
 62
253
  6
CONTINUOUS
 70
0
 71
3
 72
9
 73
5
 74
3
 42
0.0000001
 43
0.0000001
 44
0.0000000001
 12
0.0013086734
 22
-0.0432844709
 32
0.0
 13
-0.0000000099
 23
-0.0433042498
 33
0.0
 40
0.0
 40
0.0
 40
0.0
 40
0.0
 40
0.183482616
 40
1.0
 40
1.0
 40
1.0
 40
1.0
 10
7.2135886019
 20
-23.8010362971
 30
0.0
 10
7.2136686415
 20
-23.8036836131
 30
0.0
 10
7.2139645803
 20
-23.8181157399
 30
0.0
 10
7.2140249812
 20
-23.8325513431
 30
0.0
 10
7.2140249785
 20
-23.8443375673
 30
0.0
 11
7.2135886019
 21
-23.8010362971
 31
0.0
 11
7.2137693112
 21
-23.8089798189
 31
0.0
 11
7.2140249785
 21
-23.8443375673
 31
0.0
  0
SPLINE
  5
721
100
AcDbEntity
  8
ASSI
100
AcDbSpline
 62
253
  6
CONTINUOUS
 70
0
 71
3
 72
14
 73
10
 74
8
 42
0.0000001
 43
0.0000001
 44
0.0000000001
 12
0.0000000046
 22
-0.0500143989
 32
0.0
 13
-0.0353848633
 23
-0.0353461674
 33
0.0
 40
0.0
 40
0.0
 40
0.0
 40
0.0
 40
0.3784712214
 40
0.5499084536
 40
0.7006913151
 40
0.8251503658
 40
0.9186144536
 40
0.9775916124
 40
1.0
 40
1.0
 40
1.0
 40
1.0
 10
7.2140249785
 20
-24.2368706193
 30
0.0
 10
7.2140249791
 20
-24.2431802895
 30
0.0
 10
7.2140004569
 20
-24.2523508019
 30
0.0
 10
7.2138852549
 20
-24.2640254185
 30
0.0
 10
7.2138080005
 20
-24.2714870517
 30
0.0
 10
7.2136161172
 20
-24.277589333
 30
0.0
 10
7.2136474124
 20
-24.2823090177
 30
0.0
 10
7.213195583
 20
-24.2850232201
 30
0.0
 10
7.2134317628
 20
-24.2865989872
 30
0.0
 10
7.2131674569
 20
-24.286863004
 30
0.0
 11
7.2140249785
 21
-24.2368706193
 31
0.0
 11
7.2139600142
 21
-24.2557995185
 31
0.0
 11
7.21388108
 21
-24.2643734852
 31
0.0
 11
7.213774746
 21
-24.2719140497
 31
0.0
 11
7.213645012
 21
-24.2781374423
 31
0.0
 11
7.2134967534
 21
-24.2828096407
 31
0.0
 11
7.2133355534
 21
-24.2857549398
 31
0.0
 11
7.2131674569
 21
-24.286863004
 31
0.0
  0
SPLINE
  5
722
100
AcDbEntity
  8
ASSI
100
AcDbSpline
 62
253
  6
CONTINUOUS
 70
0
 71
3
 72
9
 73
5
 74
3
 42
0.0000001
 43
0.0000001
 44
0.0000000001
 12
-0.0000000101
 22
0.0433040274
 32
0.0
 13
0.0013086635
 23
0.0432842487
 33
0.0
 40
0.0
 40
0.0
 40
0.0
 40
0.0
 40
0.2987936565
 40
1.0
 40
1.0
 40
1.0
 40
1.0
 10
-7.2140249785
 20
-23.8443375673
 30
0.0
 10
-7.2140249795
 20
-23.8400245777
 30
0.0
 10
-7.2139818319
 20
-23.825590381
 30
0.0
 10
-7.2138944829
 20
-23.8111533604
 30
0.0
 10
-7.2135886019
 20
-23.8010362971
 30
0.0
 11
-7.2140249785
 21
-23.8443375673
 31
0.0
 11
-7.2139952489
 21
-23.8313986328
 31
0.0
 11
-7.2135886019
 21
-23.8010362971
 31
0.0
  0
SPLINE
  5
723
100
AcDbEntity
  8
ASSI
100
AcDbSpline
 62
253
  6
CONTINUOUS
 70
0
 71
3
 72
14
 73
10
 74
8
 42
0.0000001
 43
0.0000001
 44
0.0000000001
 12
0.0353708696
 22
-0.0353601741
 32
0.0
 13
-0.0000000167
 23
-0.0500144012
 33
0.0
 40
0.0
 40
0.0
 40
0.0
 40
0.0
 40
0.0223888774
 40
0.0813291623
 40
0.1747527001
 40
0.2991804371
 40
0.4499462781
 40
0.6213924665
 40
1.0
 40
1.0
 40
1.0
 40
1.0
 10
7.2131674569
 20
24.2868630041
 30
0.0
 10
7.2134314283
 20
24.2865991125
 30
0.0
 10
7.2131958083
 20
24.2850247044
 30
0.0
 10
7.2136471428
 20
24.2823117879
 30
0.0
 10
7.213616056
 20
24.2775940677
 30
0.0
 10
7.2138078821
 20
24.2714932163
 30
0.0
 10
7.2138851847
 20
24.264032255
 30
0.0
 10
7.2140004409
 20
24.2523554959
 30
0.0
 10
7.2140249806
 20
24.2431825623
 30
0.0
 10
7.2140249785
 20
24.2368706193
 30
0.0
 11
7.2131674569
 21
24.2868630041
 31
0.0
 11
7.2133354761
 21
24.285755915
 31
0.0
 11
7.2134966353
 21
24.2828124605
 31
0.0
 11
7.2136448867
 21
24.2781422907
 31
0.0
 11
7.2137746359
 21
24.2719204647
 31
0.0
 11
7.2138809976
 21
24.2643807516
 31
0.0
 11
7.213959967
 21
24.2558063368
 31
0.0
 11
7.2140249785
 21
24.2368706193
 31
0.0
  0
SPLINE
  5
724
100
AcDbEntity
  8
ASSI
100
AcDbSpline
 62
253
  6
CONTINUOUS
 70
0
 71
3
 72
9
 73
5
 74
3
 42
0.0000001
 43
0.0000001
 44
0.0000000001
 12
0.0000000129
 22
-0.0433040273
 32
0.0
 13
-0.0013086547
 23
-0.043284249
 33
0.0
 40
0.0
 40
0.0
 40
0.0
 40
0.0
 40
0.29878921
 40
1.0
 40
1.0
 40
1.0
 40
1.0
 10
7.2140249785
 20
23.8443375673
 30
0.0
 10
7.2140249798
 20
23.8400246419
 30
0.0
 10
7.2139818312
 20
23.8255904452
 30
0.0
 10
7.2138944828
 20
23.8111534246
 30
0.0
 10
7.2135886019
 20
23.8010362971
 30
0.0
 11
7.2140249785
 21
23.8443375673
 31
0.0
 11
7.2139952492
 21
23.8313988253
 31
0.0
 11
7.2135886019
 21
23.8010362971
 31
0.0
  0
SPLINE
  5
725
100
AcDbEntity
  8
ASSI
100
AcDbSpline
 62
253
  6
CONTINUOUS
 70
0
 71
3
 72
25
 73
21
 74
19
 42
0.0000001
 43
0.0000001
 44
0.0000000001
 12
-0.1885513154
 22
0.1952558163
 32
0.0
 13
-0.1903870649
 23
-0.1934662706
 33
0.0
 40
0.0
 40
0.0
 40
0.0
 40
0.0
 40
0.0032993224
 40
0.0112229513
 40
0.0237271288
 40
0.0407190122
 40
0.0874357045
 40
0.1496533678
 40
0.2250209446
 40
0.3107340552
 40
0.5000006095
 40
0.6892666206
 40
0.7749788229
 40
0.8503426385
 40
0.9125597899
 40
0.9592803118
 40
0.9762710712
 40
0.9887708994
 40
0.9966927945
 40
1.0
 40
1.0
 40
1.0
 40
1.0
 10
-3.8306228363
 20
-23.9018840226
 30
0.0
 10
-3.8308302001
 20
-23.9016692853
 30
0.0
 10
-3.8319787547
 20
-23.9016688371
 30
0.0
 10
-3.8339950011
 20
-23.9013302221
 30
0.0
 10
-3.8374383151
 20
-23.9011950848
 30
0.0
 10
-3.8442904436
 20
-23.9008432663
 30
0.0
 10
-3.8557057013
 20
-23.9005408964
 30
0.0
 10
-3.8723658356
 20
-23.9001926342
 30
0.0
 10
-3.8925718869
 20
-23.8999212826
 30
0.0
 10
-3.9242676949
 20
-23.8996345298
 30
0.0
 10
-3.9662725553
 20
-23.8995040986
 30
0.0
 10
-4.0082772989
 20
-23.8996345596
 30
0.0
 10
-4.039972685
 20
-23.8999212766
 30
0.0
 10
-4.0601781483
 20
-23.9001927377
 30
0.0
 10
-4.0768385747
 20
-23.9005407828
 30
0.0
 10
-4.088253299
 20
-23.9008436703
 30
0.0
 10
-4.0951063157
 20
-23.9011946585
 30
0.0
 10
-4.0985471548
 20
-23.901331217
 30
0.0
 10
-4.1005669907
 20
-23.9016673067
 30
0.0
 10
-4.1017122158
 20
-23.901670745
 30
0.0
 10
-4.1019220988
 20
-23.9018840226
 30
0.0
 11
-3.8306228363
 21
-23.9018840226
 31
0.0
 11
-3.8314886627
 21
-23.9016552184
 31
0.0
 11
-3.8336274068
 21
-23.9014283546
 31
0.0
 11
-3.8370141724
 21
-23.901205965
 31
0.0
 11
-3.8416213132
 21
-23.9009905227
 31
0.0
 11
-3.8542954345
 21
-23.9005883653
 31
0.0
 11
-3.8711797587
 21
-23.9002364582
 31
0.0
 11
-3.8916350477
 21
-23.8999478441
 31
0.0
 11
-3.9148995167
 21
-23.8997336478
 31
0.0
 11
-3.9662725974
 21
-23.8995572797
 31
0.0
 11
-4.0176455306
 21
-23.8997336642
 31
0.0
 11
-4.040909753
 21
-23.8999478674
 31
0.0
 11
-4.0613640208
 21
-23.9002364928
 31
0.0
 11
-4.0782482058
 21
-23.9005884107
 31
0.0
 11
-4.0909233674
 21
-23.9009905596
 31
0.0
 11
-4.0955302034
 21
-23.901205989
 31
0.0
 11
-4.0989157867
 21
-23.9014283662
 31
0.0
 11
-4.1010540584
 21
-23.9016552219
 31
0.0
 11
-4.1019220988
 21
-23.9018840226
 31
0.0
  0
SPLINE
  5
726
100
AcDbEntity
  8
ASSI
100
AcDbSpline
 62
253
  6
CONTINUOUS
 70
0
 71
3
 72
9
 73
5
 74
3
 42
0.0000001
 43
0.0000001
 44
0.0000000001
 12
-0.0013086622
 22
0.0432844713
 32
0.0
 13
0.0000000121
 23
0.0433042498
 33
0.0
 40
0.0
 40
0.0
 40
0.0
 40
0.0
 40
0.183485244
 40
1.0
 40
1.0
 40
1.0
 40
1.0
 10
-7.2135886019
 20
23.8010362971
 30
0.0
 10
-7.213668642
 20
23.803683651
 30
0.0
 10
-7.2139645839
 20
23.8181157778
 30
0.0
 10
-7.2140249818
 20
23.832551381
 30
0.0
 10
-7.2140249785
 20
23.8443375673
 30
0.0
 11
-7.2135886019
 21
23.8010362971
 31
0.0
 11
-7.2137693139
 21
23.8089799327
 31
0.0
 11
-7.2140249785
 21
23.8443375673
 31
0.0
  0
SPLINE
  5
727
100
AcDbEntity
  8
ASSI
100
AcDbSpline
 62
253
  6
CONTINUOUS
 70
0
 71
3
 72
25
 73
21
 74
19
 42
0.0000001
 43
0.0000001
 44
0.0000000001
 12
-0.1885513154
 22
0.1952558163
 32
0.0
 13
-0.1903870649
 23
-0.1934662706
 33
0.0
 40
0.0
 40
0.0
 40
0.0
 40
0.0
 40
0.0032993224
 40
0.0112229513
 40
0.0237271288
 40
0.0407190122
 40
0.0874357045
 40
0.1496533678
 40
0.2250209446
 40
0.3107340552
 40
0.5000006095
 40
0.6892666206
 40
0.7749788229
 40
0.8503426385
 40
0.9125597899
 40
0.9592803118
 40
0.9762710712
 40
0.9887708994
 40
0.9966927945
 40
1.0
 40
1.0
 40
1.0
 40
1.0
 10
4.1019220988
 20
-23.9018840226
 30
0.0
 10
4.101714735
 20
-23.9016692853
 30
0.0
 10
4.1005661804
 20
-23.9016688371
 30
0.0
 10
4.098549934
 20
-23.9013302221
 30
0.0
 10
4.09510662
 20
-23.9011950848
 30
0.0
 10
4.0882544915
 20
-23.9008432663
 30
0.0
 10
4.0768392338
 20
-23.9005408964
 30
0.0
 10
4.0601790994
 20
-23.9001926342
 30
0.0
 10
4.0399730481
 20
-23.8999212826
 30
0.0
 10
4.0082772402
 20
-23.8996345298
 30
0.0
 10
3.9662723797
 20
-23.8995040986
 30
0.0
 10
3.9242676361
 20
-23.8996345596
 30
0.0
 10
3.89257225
 20
-23.8999212766
 30
0.0
 10
3.8723667868
 20
-23.9001927377
 30
0.0
 10
3.8557063604
 20
-23.9005407828
 30
0.0
 10
3.844291636
 20
-23.9008436703
 30
0.0
 10
3.8374386194
 20
-23.9011946585
 30
0.0
 10
3.8339977802
 20
-23.901331217
 30
0.0
 10
3.8319779444
 20
-23.9016673067
 30
0.0
 10
3.8308327193
 20
-23.901670745
 30
0.0
 10
3.8306228363
 20
-23.9018840226
 30
0.0
 11
4.1019220988
 21
-23.9018840226
 31
0.0
 11
4.1010562723
 21
-23.9016552184
 31
0.0
 11
4.0989175283
 21
-23.9014283546
 31
0.0
 11
4.0955307626
 21
-23.901205965
 31
0.0
 11
4.0909236219
 21
-23.9009905227
 31
0.0
 11
4.0782495006
 21
-23.9005883653
 31
0.0
 11
4.0613651764
 21
-23.9002364582
 31
0.0
 11
4.0409098873
 21
-23.8999478441
 31
0.0
 11
4.0176454184
 21
-23.8997336478
 31
0.0
 11
3.9662723376
 21
-23.8995572797
 31
0.0
 11
3.9148994044
 21
-23.8997336642
 31
0.0
 11
3.8916351821
 21
-23.8999478674
 31
0.0
 11
3.8711809142
 21
-23.9002364928
 31
0.0
 11
3.8542967292
 21
-23.9005884107
 31
0.0
 11
3.8416215677
 21
-23.9009905596
 31
0.0
 11
3.8370147317
 21
-23.901205989
 31
0.0
 11
3.8336291484
 21
-23.9014283662
 31
0.0
 11
3.8314908767
 21
-23.9016552219
 31
0.0
 11
3.8306228363
 21
-23.9018840226
 31
0.0
  0
SPLINE
  5
728
100
AcDbEntity
  8
ASSI
100
AcDbSpline
 62
253
  6
CONTINUOUS
 70
0
 71
3
 72
14
 73
10
 74
8
 42
0.0000001
 43
0.0000001
 44
0.0000000001
 12
-0.0000000203
 22
0.0500143983
 32
0.0
 13
0.0353703802
 23
0.0353606595
 33
0.0
 40
0.0
 40
0.0
 40
0.0
 40
0.0
 40
0.3784780211
 40
0.5499153469
 40
0.7006964619
 40
0.8251532518
 40
0.9186155577
 40
0.9775909287
 40
1.0
 40
1.0
 40
1.0
 40
1.0
 10
-7.2140249785
 20
24.2368706193
 30
0.0
 10
-7.2140249811
 20
24.2431804028
 30
0.0
 10
-7.2140004536
 20
24.2523510272
 30
0.0
 10
-7.2138852553
 20
24.2640257364
 30
0.0
 10
-7.2138079839
 20
24.2714872873
 30
0.0
 10
-7.2136161456
 20
24.27758952
 30
0.0
 10
-7.2136473315
 20
24.2823089904
 30
0.0
 10
-7.2131957107
 20
24.2850233649
 30
0.0
 10
-7.2134316627
 20
24.2865988709
 30
0.0
 10
-7.2131674569
 20
24.2868630041
 30
0.0
 11
-7.2140249785
 21
24.2368706193
 31
0.0
 11
-7.213960012
 21
24.2557998583
 31
0.0
 11
-7.2138810761
 21
24.2643738297
 31
0.0
 11
-7.2137747412
 21
24.2719143067
 31
0.0
 11
-7.2136450075
 21
24.2781375861
 31
0.0
 11
-7.2134967497
 21
24.2828096954
 31
0.0
 11
-7.2133355514
 21
24.285754905
 31
0.0
 11
-7.2131674569
 21
24.2868630041
 31
0.0
  0
SPLINE
  5
729
100
AcDbEntity
  8
ASSI
100
AcDbSpline
 62
253
  6
CONTINUOUS
 70
0
 71
3
 72
9
 73
5
 74
3
 42
0.0000001
 43
0.0000001
 44
0.0000000001
 12
0.0013110427
 22
0.0432843983
 32
0.0
 13
0.0000001007
 23
0.0433042489
 33
0.0
 40
0.0
 40
0.0
 40
0.0
 40
0.0
 40
0.1834520378
 40
1.0
 40
1.0
 40
1.0
 40
1.0
 10
-10.5864113981
 20
23.8010362971
 30
0.0
 10
-10.586331227
 20
23.8036831675
 30
0.0
 10
-10.5860359079
 20
23.8181153116
 30
0.0
 10
-10.5859750489
 20
23.8325509019
 30
0.0
 10
-10.5859750215
 20
23.8443375673
 30
0.0
 11
-10.5864113981
 21
23.8010362971
 31
0.0
 11
-10.5862307638
 21
23.8089784959
 31
0.0
 11
-10.5859750215
 21
23.8443375673
 31
0.0
  0
SPLINE
  5
72A
100
AcDbEntity
  8
ASSI
100
AcDbSpline
 62
253
  6
CONTINUOUS
 70
0
 71
3
 72
14
 73
10
 74
8
 42
0.0000001
 43
0.0000001
 44
0.0000000001
 12
-0.0000000096
 22
-0.0500143991
 32
0.0
 13
0.0353803488
 23
-0.0353506865
 33
0.0
 40
0.0
 40
0.0
 40
0.0
 40
0.0
 40
0.3785041649
 40
0.5499426895
 40
0.7007184935
 40
0.8251676513
 40
0.9186227152
 40
0.9775936171
 40
1.0
 40
1.0
 40
1.0
 40
1.0
 10
10.5859750215
 20
-24.2368706193
 30
0.0
 10
10.5859750203
 20
-24.2431808387
 30
0.0
 10
10.585999548
 20
-24.2523519214
 30
0.0
 10
10.5861147615
 20
-24.2640269928
 30
0.0
 10
10.5861920275
 20
-24.2714883592
 30
0.0
 10
10.5863838892
 20
-24.2775902255
 30
0.0
 10
10.5863526465
 20
-24.2823094438
 30
0.0
 10
10.5868043613
 20
-24.2850234477
 30
0.0
 10
10.5865682945
 20
-24.286598977
 30
0.0
 10
10.5868325431
 20
-24.286863004
 30
0.0
 11
10.5859750215
 21
-24.2368706193
 31
0.0
 11
10.5860399979
 21
-24.2558011661
 31
0.0
 11
10.58611894
 21
-24.2643751975
 31
0.0
 11
10.586225278
 21
-24.271915409
 31
0.0
 11
10.5863550108
 21
-24.2781383066
 31
0.0
 11
10.5865032644
 21
-24.2828100537
 31
0.0
 11
10.5866644551
 21
-24.28575504
 31
0.0
 11
10.5868325431
 21
-24.286863004
 31
0.0
  0
SPLINE
  5
72B
100
AcDbEntity
  8
ASSI
100
AcDbSpline
 62
253
  6
CONTINUOUS
 70
0
 71
3
 72
9
 73
5
 74
3
 42
0.0000001
 43
0.0000001
 44
0.0000000001
 12
-0.0013082203
 22
-0.0432844827
 32
0.0
 13
0.0000006052
 23
-0.0433042479
 33
0.0
 40
0.0
 40
0.0
 40
0.0
 40
0.0
 40
0.1835083404
 40
1.0
 40
1.0
 40
1.0
 40
1.0
 10
10.5864113981
 20
-23.8010362971
 30
0.0
 10
10.586331375
 20
-23.803683985
 30
0.0
 10
10.5860357894
 20
-23.818116118
 30
0.0
 10
10.5859748568
 20
-23.8325517149
 30
0.0
 10
10.5859750215
 20
-23.8443375673
 30
0.0
 11
10.5864113981
 21
-23.8010362971
 31
0.0
 11
10.5862307922
 21
-23.8089809352
 31
0.0
 11
10.5859750215
 21
-23.8443375673
 31
0.0
  0
SPLINE
  5
72C
100
AcDbEntity
  8
ASSI
100
AcDbSpline
 62
253
  6
CONTINUOUS
 70
0
 71
3
 72
9
 73
5
 74
3
 42
0.0000001
 43
0.0000001
 44
0.0000000001
 12
0.0000001007
 22
-0.0433040262
 32
0.0
 13
0.0013110356
 23
-0.0432841757
 33
0.0
 40
0.0
 40
0.0
 40
0.0
 40
0.0
 40
0.2986840764
 40
1.0
 40
1.0
 40
1.0
 40
1.0
 10
10.5859750215
 20
23.8443375673
 30
0.0
 10
10.5859750315
 20
23.8400261596
 30
0.0
 10
10.586018476
 20
23.8255919674
 30
0.0
 10
10.5861049147
 20
23.8111549243
 30
0.0
 10
10.5864113981
 20
23.8010362971
 30
0.0
 11
10.5859750215
 21
23.8443375673
 31
0.0
 11
10.5860048195
 21
23.8314033786
 31
0.0
 11
10.5864113981
 21
23.8010362971
 31
0.0
  0
SPLINE
  5
72D
100
AcDbEntity
  8
ASSI
100
AcDbSpline
 62
253
  6
CONTINUOUS
 70
0
 71
3
 72
14
 73
10
 74
8
 42
0.0000001
 43
0.0000001
 44
0.0000000001
 12
-0.0353766991
 22
-0.0353543411
 32
0.0
 13
0.0000000128
 23
-0.0500144006
 33
0.0
 40
0.0
 40
0.0
 40
0.0
 40
0.0
 40
0.0223938169
 40
0.081343507
 40
0.1747762356
 40
0.2992083366
 40
0.4499726905
 40
0.6214130518
 40
1.0
 40
1.0
 40
1.0
 40
1.0
 10
10.5868325431
 20
24.2868630041
 30
0.0
 10
10.58656847
 20
24.2865990978
 30
0.0
 10
10.5868042696
 20
24.285024306
 30
0.0
 10
10.5863527813
 20
24.2823111138
 30
0.0
 10
10.5863839349
 20
24.2775929564
 30
0.0
 10
10.5861920926
 20
24.2714919227
 30
0.0
 10
10.5861148036
 20
24.2640310048
 30
0.0
 10
10.585999556
 20
24.252354713
 30
0.0
 10
10.5859750199
 20
24.2431822191
 30
0.0
 10
10.5859750215
 20
24.2368706193
 30
0.0
 11
10.5868325431
 21
24.2868630041
 31
0.0
 11
10.5866645041
 21
24.2857556682
 31
0.0
 11
10.5865033362
 21
24.2828117431
 31
0.0
 11
10.5863550838
 21
24.2781411135
 31
0.0
 11
10.5862253408
 21
24.2719190691
 31
0.0
 11
10.5861189877
 21
24.2643794303
 31
0.0
 11
10.5860400261
 21
24.255805307
 31
0.0
 11
10.5859750215
 21
24.2368706193
 31
0.0
  0
SPLINE
  5
72E
100
AcDbEntity
  8
ASSI
100
AcDbSpline
 62
7
  6
CONTINUOUS
 70
0
 71
3
 72
10
 73
6
 74
4
 42
0.0000001
 43
0.0000001
 44
0.0000000001
 12
0.4689817618
 22
-0.4751258497
 32
0.0
 13
0.4804651524
 23
-0.4635101976
 33
0.0
 40
0.0
 40
0.0
 40
0.0
 40
0.0
 40
0.5366347221
 40
0.8084642571
 40
1.0
 40
1.0
 40
1.0
 40
1.0
 10
7.5693468779
 20
21.9487157762
 30
0.0
 10
7.6532375103
 20
21.8637261001
 30
0.0
 10
7.780118743
 20
21.7361726859
 30
0.0
 10
7.9378911582
 20
21.579239991
 30
0.0
 10
8.0112434112
 20
21.5067641393
 30
0.0
 10
8.0419188279
 20
21.477171216
 30
0.0
 11
7.5693468779
 21
21.9487157762
 31
0.0
 11
7.8219736809
 21
21.6946928486
 31
0.0
 11
7.9506439623
 21
21.5667223164
 31
0.0
 11
8.0419188279
 21
21.477171216
 31
0.0
  0
SPLINE
  5
72F
100
AcDbEntity
  8
ASSI
100
AcDbSpline
 62
7
  6
CONTINUOUS
 70
0
 71
3
 72
18
 73
14
 74
12
 42
0.0000001
 43
0.0000001
 44
0.0000000001
 12
0.1082792287
 22
-0.369620452
 32
0.0
 13
0.2705669288
 23
-0.2741116688
 33
0.0
 40
0.0
 40
0.0
 40
0.0
 40
0.0
 40
0.0068132548
 40
0.0227323684
 40
0.0476167851
 40
0.0812216567
 40
0.1231456631
 40
0.1729663043
 40
0.2944179684
 40
0.4415435343
 40
0.6105049202
 40
0.7977340639
 40
1.0
 40
1.0
 40
1.0
 40
1.0
 10
7.3012233427
 20
22.2251447178
 30
0.0
 10
7.3014692541
 20
22.2243052784
 30
0.0
 10
7.3036547778
 20
22.2221499424
 30
0.0
 10
7.3074028409
 20
22.217462449
 30
0.0
 10
7.3140202964
 20
22.2104808277
 30
0.0
 10
7.3227785378
 20
22.2010589582
 30
0.0
 10
7.3338919923
 20
22.1894049257
 30
0.0
 10
7.3528292869
 20
22.1696489432
 30
0.0
 10
7.3812762269
 20
22.1402891677
 30
0.0
 10
7.4204942397
 20
22.1000741297
 30
0.0
 10
7.4657235331
 20
22.053923639
 30
0.0
 10
7.5159949621
 20
22.0028035323
 30
0.0
 10
7.5511047202
 20
21.9671969273
 30
0.0
 10
7.5693468779
 20
21.9487157762
 30
0.0
 11
7.3012233427
 21
22.2251447178
 31
0.0
 11
7.3027437374
 21
22.2230058914
 31
0.0
 11
7.3067606351
 21
22.2183736656
 31
0.0
 11
7.3132266207
 21
22.2112990276
 31
0.0
 11
7.3220744244
 21
22.2018523877
 31
0.0
 11
7.3331950569
 21
22.1901449679
 31
0.0
 11
7.3464741293
 21
22.1762932709
 31
0.0
 11
7.3789983041
 21
22.142673004
 31
0.0
 11
7.4185527294
 21
22.1020961084
 31
0.0
 11
7.4640944421
 21
22.0556110563
 31
0.0
 11
7.5146524599
 21
22.0041908518
 31
0.0
 11
7.5693468779
 21
21.9487157762
 31
0.0
  0
SPLINE
  5
730
100
AcDbEntity
  8
ASSI
100
AcDbSpline
 62
7
  6
CONTINUOUS
 70
0
 71
3
 72
18
 73
14
 74
12
 42
0.0000001
 43
0.0000001
 44
0.0000000001
 12
0.2705905622
 22
0.2741356584
 32
0.0
 13
0.108288696
 23
0.3696527693
 33
0.0
 40
0.0
 40
0.0
 40
0.0
 40
0.0
 40
0.2022647203
 40
0.3894981295
 40
0.558458362
 40
0.7055818412
 40
0.8270334848
 40
0.8768542555
 40
0.9187783221
 40
0.9523832161
 40
0.977267655
 40
0.9931867879
 40
1.0
 40
1.0
 40
1.0
 40
1.0
 10
-7.569370573
 20
21.9486918466
 30
0.0
 10
-7.5511269316
 20
21.9671745041
 30
0.0
 10
-7.5160138018
 20
22.0027844745
 30
0.0
 10
-7.4657377332
 20
22.0539091523
 30
0.0
 10
-7.4205043705
 20
22.1000637499
 30
0.0
 10
-7.3812832091
 20
22.1402819927
 30
0.0
 10
-7.3528339317
 20
22.169644127
 30
0.0
 10
-7.3338949458
 20
22.1894018325
 30
0.0
 10
-7.3227804862
 20
22.2010568901
 30
0.0
 10
-7.3140214596
 20
22.2104795828
 30
0.0
 10
-7.3074034013
 20
22.2174618054
 30
0.0
 10
-7.3036550104
 20
22.2221497048
 30
0.0
 10
-7.301469274
 20
22.2243052103
 30
0.0
 10
-7.3012233427
 20
22.2251447178
 30
0.0
 11
-7.569370573
 21
21.9486918466
 31
0.0
 11
-7.5146716685
 21
22.0041714065
 31
0.0
 11
-7.4641080187
 21
22.0555972198
 31
0.0
 11
-7.4185626071
 21
22.1020859916
 31
0.0
 11
-7.3790052666
 21
22.1426658419
 31
0.0
 11
-7.3464782248
 21
22.1762890148
 31
0.0
 11
-7.333197942
 21
22.1901419447
 31
0.0
 11
-7.3220763073
 21
22.2018503917
 31
0.0
 11
-7.3132277108
 21
22.2112978514
 31
0.0
 11
-7.3067611406
 21
22.2183731021
 31
0.0
 11
-7.3027438732
 21
22.2230057265
 31
0.0
 11
-7.3012233427
 21
22.2251447178
 31
0.0
  0
LINE
  5
731
100
AcDbEntity
  8
ASSI
100
AcDbLine
 62
7
  6
CONTINUOUS
 10
-7.9391284205
 20
21.5781222569
 11
-7.9300356255
 21
21.5871328348
  0
SPLINE
  5
732
100
AcDbEntity
  8
ASSI
100
AcDbSpline
 62
7
  6
CONTINUOUS
 70
0
 71
3
 72
18
 73
14
 74
12
 42
0.0000001
 43
0.0000001
 44
0.0000000001
 12
-0.2705905622
 22
-0.2741356584
 32
0.0
 13
-0.108288696
 23
-0.3696527693
 33
0.0
 40
0.0
 40
0.0
 40
0.0
 40
0.0
 40
0.2022647203
 40
0.3894981295
 40
0.558458362
 40
0.7055818412
 40
0.8270334848
 40
0.8768542555
 40
0.9187783221
 40
0.9523832161
 40
0.977267655
 40
0.9931867879
 40
1.0
 40
1.0
 40
1.0
 40
1.0
 10
7.569370573
 20
-21.9486918466
 30
0.0
 10
7.5511269316
 20
-21.9671745041
 30
0.0
 10
7.5160138018
 20
-22.0027844745
 30
0.0
 10
7.4657377332
 20
-22.0539091523
 30
0.0
 10
7.4205043705
 20
-22.1000637499
 30
0.0
 10
7.3812832091
 20
-22.1402819927
 30
0.0
 10
7.3528339317
 20
-22.1696441269
 30
0.0
 10
7.3338949458
 20
-22.1894018325
 30
0.0
 10
7.3227804862
 20
-22.2010568901
 30
0.0
 10
7.3140214596
 20
-22.2104795828
 30
0.0
 10
7.3074034013
 20
-22.2174618054
 30
0.0
 10
7.3036550104
 20
-22.2221497048
 30
0.0
 10
7.301469274
 20
-22.2243052103
 30
0.0
 10
7.3012233427
 20
-22.2251447178
 30
0.0
 11
7.569370573
 21
-21.9486918466
 31
0.0
 11
7.5146716685
 21
-22.0041714065
 31
0.0
 11
7.4641080187
 21
-22.0555972198
 31
0.0
 11
7.4185626071
 21
-22.1020859916
 31
0.0
 11
7.3790052666
 21
-22.1426658419
 31
0.0
 11
7.3464782248
 21
-22.1762890148
 31
0.0
 11
7.333197942
 21
-22.1901419447
 31
0.0
 11
7.3220763073
 21
-22.2018503917
 31
0.0
 11
7.3132277108
 21
-22.2112978514
 31
0.0
 11
7.3067611406
 21
-22.2183731021
 31
0.0
 11
7.3027438732
 21
-22.2230057265
 31
0.0
 11
7.3012233427
 21
-22.2251447178
 31
0.0
  0
SPLINE
  5
733
100
AcDbEntity
  8
ASSI
100
AcDbSpline
 62
7
  6
CONTINUOUS
 70
0
 71
3
 72
9
 73
5
 74
3
 42
0.0000001
 43
0.0000001
 44
0.0000000001
 12
-0.1128709586
 22
-0.1088831359
 32
0.0
 13
-0.1113739355
 23
-0.1104139351
 33
0.0
 40
0.0
 40
0.0
 40
0.0
 40
0.0
 40
0.1836075679
 40
1.0
 40
1.0
 40
1.0
 40
1.0
 10
8.0418862373
 20
-21.4772026986
 30
0.0
 10
8.0349782499
 20
-21.4838666212
 30
0.0
 10
7.9975107233
 20
-21.5203226198
 30
0.0
 10
7.9603439041
 20
-21.5570858019
 30
0.0
 10
7.9300356247
 20
-21.5871328356
 30
0.0
 11
8.0418862373
 21
-21.4772026986
 31
0.0
 11
8.0212297444
 21
-21.4972641714
 31
0.0
 11
7.9300356247
 21
-21.5871328356
 31
0.0
  0
SPLINE
  5
734
100
AcDbEntity
  8
ASSI
100
AcDbSpline
 62
7
  6
CONTINUOUS
 70
0
 71
3
 72
18
 73
14
 74
12
 42
0.0000001
 43
0.0000001
 44
0.0000000001
 12
-0.1082792289
 22
0.3696204525
 32
0.0
 13
-0.2705669291
 23
0.2741116692
 33
0.0
 40
0.0
 40
0.0
 40
0.0
 40
0.0
 40
0.0068132548
 40
0.0227323685
 40
0.0476167851
 40
0.0812216567
 40
0.1231456631
 40
0.1729663044
 40
0.2944179685
 40
0.4415435344
 40
0.6105049203
 40
0.797734064
 40
1.0
 40
1.0
 40
1.0
 40
1.0
 10
-7.3012233427
 20
-22.2251447178
 30
0.0
 10
-7.3014692541
 20
-22.2243052784
 30
0.0
 10
-7.3036547778
 20
-22.2221499424
 30
0.0
 10
-7.3074028409
 20
-22.217462449
 30
0.0
 10
-7.3140202964
 20
-22.2104808277
 30
0.0
 10
-7.3227785378
 20
-22.2010589581
 30
0.0
 10
-7.3338919924
 20
-22.1894049257
 30
0.0
 10
-7.352829287
 20
-22.1696489432
 30
0.0
 10
-7.381276227
 20
-22.1402891676
 30
0.0
 10
-7.4204942399
 20
-22.1000741295
 30
0.0
 10
-7.4657235333
 20
-22.0539236388
 30
0.0
 10
-7.5159949624
 20
-22.002803532
 30
0.0
 10
-7.5511047205
 20
-21.9671969269
 30
0.0
 10
-7.5693468782
 20
-21.9487157758
 30
0.0
 11
-7.3012233427
 21
-22.2251447178
 31
0.0
 11
-7.3027437374
 21
-22.2230058914
 31
0.0
 11
-7.3067606351
 21
-22.2183736656
 31
0.0
 11
-7.3132266207
 21
-22.2112990276
 31
0.0
 11
-7.3220744244
 21
-22.2018523876
 31
0.0
 11
-7.3331950569
 21
-22.1901449679
 31
0.0
 11
-7.3464741294
 21
-22.1762932709
 31
0.0
 11
-7.3789983042
 21
-22.1426730038
 31
0.0
 11
-7.4185527296
 21
-22.1020961082
 31
0.0
 11
-7.4640944423
 21
-22.0556110561
 31
0.0
 11
-7.5146524602
 21
-22.0041908515
 31
0.0
 11
-7.5693468782
 21
-21.9487157758
 31
0.0
  0
SPLINE
  5
735
100
AcDbEntity
  8
ASSI
100
AcDbSpline
 62
253
  6
CONTINUOUS
 70
0
 71
3
 72
9
 73
5
 74
3
 42
0.0000001
 43
0.0000001
 44
0.0000000001
 12
0.0000009928
 22
-0.2164846565
 32
0.0
 13
0.0013081016
 23
-0.2164807044
 33
0.0
 40
0.0
 40
0.0
 40
0.0
 40
0.0
 40
0.2986608327
 40
1.0
 40
1.0
 40
1.0
 40
1.0
 10
10.3860054704
 20
23.8443575944
 30
0.0
 10
10.3860055693
 20
23.8228057652
 30
0.0
 10
10.3860481938
 20
23.7506443085
 30
0.0
 10
10.3861358263
 20
23.6784822881
 30
0.0
 10
10.386441634
 20
23.6278734891
 30
0.0
 11
10.3860054704
 21
23.8443575944
 31
0.0
 11
10.3860350445
 21
23.7797021134
 31
0.0
 11
10.386441634
 21
23.6278734891
 31
0.0
  0
LINE
  5
736
100
AcDbEntity
  8
ASSI
100
AcDbLine
 62
7
  6
CONTINUOUS
 10
9.2533769702
 20
23.6278312164
 11
9.0368706193
 21
23.8443375673
  0
LINE
  5
737
100
AcDbEntity
  8
ASSI
100
AcDbLine
 62
7
  6
CONTINUOUS
 10
-8.5466230298
 20
23.6278312164
 11
-8.7631293807
 21
23.8443375673
  0
LINE
  5
738
100
AcDbEntity
  8
ASSI
100
AcDbLine
 62
7
  6
CONTINUOUS
 10
9.2533769702
 20
-23.6278312163
 11
9.0368706193
 21
-23.8443375673
  0
SPLINE
  5
739
100
AcDbEntity
  8
ASSI
100
AcDbSpline
 62
253
  6
CONTINUOUS
 70
0
 71
3
 72
9
 73
5
 74
3
 42
0.0000001
 43
0.0000001
 44
0.0000000001
 12
-0.0000000798
 22
0.2165052525
 32
0.0
 13
0.0013107489
 23
0.2165012847
 33
0.0
 40
0.0
 40
0.0
 40
0.0
 40
0.0
 40
0.2988002074
 40
1.0
 40
1.0
 40
1.0
 40
1.0
 10
-7.4139945172
 20
-23.8443359174
 30
0.0
 10
-7.4139945251
 20
-23.8227719793
 30
0.0
 10
-7.4139512004
 20
-23.7506036582
 30
0.0
 10
-7.4138645065
 20
-23.6784347683
 30
0.0
 10
-7.4135581409
 20
-23.6278312163
 30
0.0
 11
-7.4139945172
 21
-23.8443359174
 31
0.0
 11
-7.4139647622
 21
-23.7796441099
 31
0.0
 11
-7.4135581409
 21
-23.6278312163
 31
0.0
  0
LINE
  5
73A
100
AcDbEntity
  8
ASSI
100
AcDbLine
 62
7
  6
CONTINUOUS
 10
-8.5466230298
 20
-23.6278312163
 11
-8.7631293807
 21
-23.8443375673
  0
SPLINE
  5
73B
100
AcDbEntity
  8
ASSI
100
AcDbSpline
 62
253
  6
CONTINUOUS
 70
0
 71
3
 72
14
 73
10
 74
8
 42
0.0000001
 43
0.0000001
 44
0.0000000001
 12
-0.000000161
 22
0.2499634559
 32
0.0
 13
0.0491541604
 23
0.2450828386
 33
0.0
 40
0.0
 40
0.0
 40
0.0
 40
0.0
 40
0.3786143138
 40
0.5501135625
 40
0.7009463438
 40
0.8254370374
 40
0.9189018018
 40
0.9778262026
 40
1.0
 40
1.0
 40
1.0
 40
1.0
 10
-7.4139945168
 20
24.2368735057
 30
0.0
 10
-7.4139945371
 20
24.2684200865
 30
0.0
 10
-7.4139726979
 20
24.3142571225
 30
0.0
 10
-7.413850825
 20
24.3726584357
 30
0.0
 10
-7.4137895065
 20
24.4098934707
 30
0.0
 10
-7.4135530605
 20
24.4406060187
 30
0.0
 10
-7.4136924003
 20
24.4637121256
 30
0.0
 10
-7.4130388175
 20
24.4781877786
 30
0.0
 10
-7.4135003074
 20
24.4850210707
 30
0.0
 10
-7.4131369959
 20
24.4868325431
 30
0.0
 11
-7.4139945168
 21
24.2368735057
 31
0.0
 11
-7.4139295136
 21
24.3315132257
 31
0.0
 11
-7.4138505748
 21
24.3743816979
 31
0.0
 11
-7.4137442524
 21
24.4120842312
 31
0.0
 11
-7.4136145416
 21
24.4432020849
 31
0.0
 11
-7.4134663042
 21
24.4665643901
 31
0.0
 11
-7.4133051467
 21
24.4812924553
 31
0.0
 11
-7.4131369959
 21
24.4868325431
 31
0.0
  0
SPLINE
  5
73C
100
AcDbEntity
  8
ASSI
100
AcDbSpline
 62
253
  6
CONTINUOUS
 70
0
 71
3
 72
14
 73
10
 74
8
 42
0.0000001
 43
0.0000001
 44
0.0000000001
 12
0.0000001187
 22
0.249966339
 32
0.0
 13
-0.0492103035
 23
0.2450745124
 33
0.0
 40
0.0
 40
0.0
 40
0.0
 40
0.0
 40
0.3786102122
 40
0.550110195
 40
0.7009447699
 40
0.8254366722
 40
0.9189016359
 40
0.9778261742
 40
1.0
 40
1.0
 40
1.0
 40
1.0
 10
-10.3860054824
 20
24.2368706193
 30
0.0
 10
-10.3860054675
 20
24.2684172222
 30
0.0
 10
-10.3860272746
 20
24.3142545087
 30
0.0
 10
-10.3861492046
 20
24.3726563585
 30
0.0
 10
-10.3862104415
 20
24.4098921483
 30
0.0
 10
-10.3864471954
 20
24.4406052781
 30
0.0
 10
-10.3863072136
 20
24.4637118744
 30
0.0
 10
-10.3869620359
 20
24.4781875483
 30
0.0
 10
-10.3864992772
 20
24.4850211299
 30
0.0
 10
-10.3868630041
 20
24.4868325431
 30
0.0
 11
-10.3860054824
 21
24.2368706193
 31
0.0
 11
-10.3860704826
 21
24.3315104056
 31
0.0
 11
-10.3861494321
 21
24.3743795558
 31
0.0
 11
-10.3862557752
 21
24.4120829723
 31
0.0
 11
-10.386385516
 21
24.4432014869
 31
0.0
 11
-10.3865337696
 21
24.4665641113
 31
0.0
 11
-10.3866949937
 21
24.48129238
 31
0.0
 11
-10.3868630041
 21
24.4868325431
 31
0.0
  0
LINE
  5
73D
100
AcDbEntity
  8
ASSI
100
AcDbLine
 62
7
  6
CONTINUOUS
 10
-9.2533769702
 20
23.6278312164
 11
-9.0368706193
 21
23.8443375673
  0
SPLINE
  5
73E
100
AcDbEntity
  8
ASSI
100
AcDbSpline
 62
253
  6
CONTINUOUS
 70
0
 71
3
 72
14
 73
10
 74
8
 42
0.0000001
 43
0.0000001
 44
0.0000000001
 12
-0.0491708119
 22
-0.2450824418
 32
0.0
 13
0.0000001167
 23
-0.2499663418
 33
0.0
 40
0.0
 40
0.0
 40
0.0
 40
0.0
 40
0.022160649
 40
0.0810578314
 40
0.1744935263
 40
0.2989595177
 40
0.4497755697
 40
0.6212777996
 40
1.0
 40
1.0
 40
1.0
 40
1.0
 10
10.3868630041
 20
24.4868325431
 30
0.0
 10
10.386499785
 20
24.4850221478
 30
0.0
 10
10.3869613093
 20
24.4781921258
 30
0.0
 10
10.386307597
 20
24.4637221138
 30
0.0
 10
10.3864470764
 20
24.4406224703
 30
0.0
 10
10.3862105355
 20
24.409915452
 30
0.0
 10
10.3861492427
 20
24.3726831866
 30
0.0
 10
10.3860272974
 20
24.3142733578
 30
0.0
 10
10.3860054677
 20
24.2684265536
 30
0.0
 10
10.3860054824
 20
24.2368706193
 30
0.0
 11
10.3868630041
 21
24.4868325431
 31
0.0
 11
10.3866949466
 21
24.4812956766
 31
0.0
 11
10.3865337753
 21
24.4665742456
 31
0.0
 11
10.3863855488
 21
24.4432189371
 31
0.0
 11
10.3862558217
 21
24.4121068991
 31
0.0
 11
10.3861494863
 21
24.3744081122
 31
0.0
 11
10.386070521
 21
24.3315383999
 31
0.0
 11
10.3860054824
 21
24.2368706193
 31
0.0
  0
SPLINE
  5
73F
100
AcDbEntity
  8
ASSI
100
AcDbSpline
 62
253
  6
CONTINUOUS
 70
0
 71
3
 72
14
 73
10
 74
8
 42
0.0000001
 43
0.0000001
 44
0.0000000001
 12
0.0491604488
 22
-0.24508452
 32
0.0
 13
-0.000000147
 23
-0.2499663411
 33
0.0
 40
0.0
 40
0.0
 40
0.0
 40
0.0
 40
0.0221560382
 40
0.0810435912
 40
0.1744700487
 40
0.2989316111
 40
0.4497491635
 40
0.6212572333
 40
1.0
 40
1.0
 40
1.0
 40
1.0
 10
7.4131369959
 20
24.4868325431
 30
0.0
 10
7.4135000629
 20
24.4850225091
 30
0.0
 10
7.4130387693
 20
24.4781937216
 30
0.0
 10
7.4136922946
 20
24.4637256266
 30
0.0
 10
7.4135528884
 20
24.4406279425
 30
0.0
 10
7.4137894171
 20
24.4099219317
 30
0.0
 10
7.4138507262
 20
24.3726894257
 30
0.0
 10
7.4139726908
 20
24.3142772712
 30
0.0
 10
7.4139945361
 20
24.2684282672
 30
0.0
 10
7.4139945176
 20
24.2368706193
 30
0.0
 11
7.4131369959
 21
24.4868325431
 31
0.0
 11
7.4133050073
 21
24.4812968283
 31
0.0
 11
7.4134661721
 21
24.4665778045
 31
0.0
 11
7.413614396
 21
24.4432248051
 31
0.0
 11
7.4137441318
 21
24.4121138742
 31
0.0
 11
7.4138504802
 21
24.3744147125
 31
0.0
 11
7.4139294606
 21
24.3315435406
 31
0.0
 11
7.4139945176
 21
24.2368706193
 31
0.0
  0
LINE
  5
740
100
AcDbEntity
  8
ASSI
100
AcDbLine
 62
7
  6
CONTINUOUS
 10
8.5466230298
 20
23.6278312164
 11
8.7631293807
 21
23.8443375673
  0
SPLINE
  5
741
100
AcDbEntity
  8
ASSI
100
AcDbSpline
 62
253
  6
CONTINUOUS
 70
0
 71
3
 72
9
 73
5
 74
3
 42
0.0000001
 43
0.0000001
 44
0.0000000001
 12
0.0000000894
 22
-0.2165058795
 32
0.0
 13
-0.0013063451
 23
-0.2165019383
 33
0.0
 40
0.0
 40
0.0
 40
0.0
 40
0.0
 40
0.2987948397
 40
1.0
 40
1.0
 40
1.0
 40
1.0
 10
7.4139945176
 20
23.8443375673
 30
0.0
 10
7.4139945265
 20
23.8227739541
 30
0.0
 10
7.4139514468
 20
23.7506054227
 30
0.0
 10
7.4138634855
 20
23.6784363314
 30
0.0
 10
7.4135581468
 20
23.6278322393
 30
0.0
 11
7.4139945176
 21
23.8443375673
 31
0.0
 11
7.4139647755
 21
23.7796467346
 31
0.0
 11
7.4135581468
 21
23.6278322393
 31
0.0
  0
LINE
  5
742
100
AcDbEntity
  8
ASSI
100
AcDbLine
 62
7
  6
CONTINUOUS
 10
8.5466230298
 20
-23.6278312163
 11
8.7631293807
 21
-23.8443375673
  0
SPLINE
  5
743
100
AcDbEntity
  8
ASSI
100
AcDbSpline
 62
253
  6
CONTINUOUS
 70
0
 71
3
 72
14
 73
10
 74
8
 42
0.0000001
 43
0.0000001
 44
0.0000000001
 12
-0.0000000677
 22
-0.2499663444
 32
0.0
 13
0.0491135085
 23
-0.2450939342
 33
0.0
 40
0.0
 40
0.0
 40
0.0
 40
0.0
 40
0.378639668
 40
0.5501399824
 40
0.7009674195
 40
0.8254504889
 40
0.91890819
 40
0.9778278202
 40
1.0
 40
1.0
 40
1.0
 40
1.0
 10
10.3860054824
 20
-24.2368706193
 30
0.0
 10
10.3860054739
 20
-24.2684196772
 30
0.0
 10
10.3860272974
 20
-24.3142594426
 30
0.0
 10
10.386149122
 20
-24.3726631909
 30
0.0
 10
10.3862104998
 20
-24.4098976543
 30
0.0
 10
10.3864467422
 20
-24.4406089172
 30
0.0
 10
10.3863078655
 20
-24.4637135986
 30
0.0
 10
10.386960603
 20
-24.478188432
 30
0.0
 10
10.3865000195
 20
-24.4850211208
 30
0.0
 10
10.3868630041
 20
-24.4868325431
 30
0.0
 11
10.3860054824
 21
-24.2368706193
 31
0.0
 11
10.386070468
 21
-24.3315177706
 31
0.0
 11
10.386149391
 21
-24.3743870046
 31
0.0
 11
10.3862557028
 21
-24.4120886378
 31
0.0
 11
10.3863854024
 21
-24.4432049453
 31
0.0
 11
10.3865336465
 21
-24.4665657548
 31
0.0
 11
10.3866947825
 21
-24.4812927979
 31
0.0
 11
10.3868630041
 21
-24.4868325431
 31
0.0
  0
SPLINE
  5
744
100
AcDbEntity
  8
ASSI
100
AcDbSpline
 62
253
  6
CONTINUOUS
 70
0
 71
3
 72
14
 73
10
 74
8
 42
0.0000001
 43
0.0000001
 44
0.0000000001
 12
0.0000000316
 22
-0.2499663453
 32
0.0
 13
-0.0490876294
 23
-0.2450991195
 33
0.0
 40
0.0
 40
0.0
 40
0.0
 40
0.0
 40
0.3786066962
 40
0.5501057471
 40
0.7009402767
 40
0.825433203
 40
0.9188999329
 40
0.9778256633
 40
1.0
 40
1.0
 40
1.0
 40
1.0
 10
7.4139945176
 20
-24.2368706193
 30
0.0
 10
7.4139945215
 20
-24.26841693
 30
0.0
 10
7.4139727085
 20
-24.3142538419
 30
0.0
 10
7.4138509229
 20
-24.3726553316
 30
0.0
 10
7.4137895178
 20
-24.409891096
 30
0.0
 10
7.4135533789
 20
-24.44060454
 30
0.0
 10
7.4136920266
 20
-24.4637112645
 30
0.0
 10
7.4130396942
 20
-24.4781876106
 30
0.0
 10
7.4134998245
 20
-24.4850209063
 30
0.0
 10
7.4131369959
 20
-24.4868325431
 30
0.0
 11
7.4139945176
 21
-24.2368706193
 31
0.0
 11
7.4139295549
 21
-24.3315095291
 31
0.0
 11
7.4138506467
 21
-24.3743784475
 31
0.0
 11
7.4137443439
 21
-24.4120818537
 31
0.0
 11
7.4136146489
 21
-24.4432006253
 31
0.0
 11
7.4134663983
 21
-24.4665636918
 31
0.0
 11
7.4133052621
 21
-24.4812922598
 31
0.0
 11
7.4131369959
 21
-24.4868325431
 31
0.0
  0
SPLINE
  5
745
100
AcDbEntity
  8
ASSI
100
AcDbSpline
 62
253
  6
CONTINUOUS
 70
0
 71
3
 72
14
 73
10
 74
8
 42
0.0000001
 43
0.0000001
 44
0.0000000001
 12
-0.0490895383
 22
0.2450986842
 32
0.0
 13
0.0000000528
 23
0.2499662933
 33
0.0
 40
0.0
 40
0.0
 40
0.0
 40
0.0
 40
0.0221590326
 40
0.0810497444
 40
0.174478782
 40
0.2989411458
 40
0.4497578551
 40
0.6212639873
 40
1.0
 40
1.0
 40
1.0
 40
1.0
 10
-7.4131370059
 20
-24.486832493
 30
0.0
 10
-7.4134995982
 20
-24.4850221097
 30
0.0
 10
-7.4130396215
 20
-24.4781930473
 30
0.0
 10
-7.4136919389
 20
-24.4637240131
 30
0.0
 10
-7.4135532036
 20
-24.440625904
 30
0.0
 10
-7.413789428
 20
-24.4099196393
 30
0.0
 10
-7.4138508162
 20
-24.3726873227
 30
0.0
 10
-7.4139726972
 20
-24.3142759664
 30
0.0
 10
-7.4139945242
 20
-24.2684276984
 30
0.0
 10
-7.4139945176
 20
-24.2368706193
 30
0.0
 11
-7.4131370059
 21
-24.486832493
 31
0.0
 11
-7.4133051147
 21
-24.4812960333
 31
0.0
 11
-7.4134662747
 21
-24.4665762226
 31
0.0
 11
-7.4136145057
 21
-24.4432225828
 31
0.0
 11
-7.4137442219
 21
-24.4121114575
 31
0.0
 11
-7.4138505459
 21
-24.3744125136
 31
0.0
 11
-7.4139294966
 21
-24.3315418342
 31
0.0
 11
-7.4139945176
 21
-24.2368706193
 31
0.0
  0
SPLINE
  5
746
100
AcDbEntity
  8
ASSI
100
AcDbSpline
 62
253
  6
CONTINUOUS
 70
0
 71
3
 72
14
 73
10
 74
8
 42
0.0000001
 43
0.0000001
 44
0.0000000001
 12
0.049114046
 22
0.245093826
 32
0.0
 13
0.0000001694
 23
0.2499663439
 33
0.0
 40
0.0
 40
0.0
 40
0.0
 40
0.0
 40
0.0221565314
 40
0.0810451339
 40
0.1744731537
 40
0.2989362923
 40
0.4497544396
 40
0.6212615068
 40
1.0
 40
1.0
 40
1.0
 40
1.0
 10
-10.3868630041
 20
-24.4868325431
 30
0.0
 10
-10.3865002717
 20
-24.4850224001
 30
0.0
 10
-10.3869606059
 20
-24.4781936441
 30
0.0
 10
-10.3863079196
 20
-24.4637251477
 30
0.0
 10
-10.3864468351
 20
-24.4406271906
 30
0.0
 10
-10.3862105132
 20
-24.4099208368
 30
0.0
 10
-10.3861491412
 20
-24.3726882444
 30
0.0
 10
-10.3860272632
 20
-24.3142764744
 30
0.0
 10
-10.3860055038
 20
-24.2684279114
 30
0.0
 10
-10.3860054824
 20
-24.2368706193
 30
0.0
 11
-10.3868630041
 21
-24.4868325431
 31
0.0
 11
-10.386694904
 21
-24.4812967076
 31
0.0
 11
-10.3865337259
 21
-24.4665774214
 31
0.0
 11
-10.3863854759
 21
-24.4432240314
 31
0.0
 11
-10.3862557436
 21
-24.4121127062
 31
0.0
 11
-10.3861494084
 21
-24.3744133953
 31
0.0
 11
-10.3860704693
 21
-24.3315424734
 31
0.0
 11
-10.3860054824
 21
-24.2368706193
 31
0.0
  0
SPLINE
  5
747
100
AcDbEntity
  8
ASSI
100
AcDbSpline
 62
253
  6
CONTINUOUS
 70
0
 71
3
 72
9
 73
5
 74
3
 42
0.0000001
 43
0.0000001
 44
0.0000000001
 12
0.0000041288
 22
0.2164298683
 32
0.0
 13
-0.0012987802
 23
0.2164259713
 33
0.0
 40
0.0
 40
0.0
 40
0.0
 40
0.0
 40
0.2987119025
 40
1.0
 40
1.0
 40
1.0
 40
1.0
 10
-10.3860055349
 20
-23.844250724
 30
0.0
 10
-10.3860051238
 20
-23.8227006648
 30
0.0
 10
-10.3860484515
 20
-23.750557468
 30
0.0
 10
-10.3861383046
 20
-23.6784137267
 30
0.0
 10
-10.386441911
 20
-23.6278214075
 30
0.0
 11
-10.3860055349
 21
-23.844250724
 31
0.0
 11
-10.3860351602
 21
-23.7796005531
 31
0.0
 11
-10.386441911
 21
-23.6278214075
 31
0.0
  0
LINE
  5
748
100
AcDbEntity
  8
ASSI
100
AcDbLine
 62
7
  6
CONTINUOUS
 10
-9.2533769702
 20
-23.6278312163
 11
-9.0368706193
 21
-23.8443375673
  0
SPLINE
  5
749
100
AcDbEntity
  8
ASSI
100
AcDbSpline
 62
253
  6
CONTINUOUS
 70
0
 71
3
 72
11
 73
7
 74
5
 42
0.0000001
 43
0.0000001
 44
0.0000000001
 12
-0.0029298877
 22
0.290817936
 32
0.0
 13
-0.2908243864
 23
0.0021982718
 33
0.0
 40
0.0
 40
0.0
 40
0.0
 40
0.0
 40
0.2330682335
 40
0.4768287988
 40
0.7340988118
 40
1.0
 40
1.0
 40
1.0
 40
1.0
 10
10.5864113981
 20
-23.8010362971
 30
0.0
 10
10.5861837769
 20
-23.7784428229
 30
0.0
 10
10.5747821072
 20
-23.7317691528
 30
0.0
 10
10.5292238729
 20
-23.6746348299
 30
0.0
 10
10.4633039456
 20
-23.6369744694
 30
0.0
 10
10.412218709
 20
-23.6280260574
 30
0.0
 10
10.3864418591
 20
-23.6278312164
 30
0.0
 11
10.5864113981
 21
-23.8010362971
 31
0.0
 11
10.5706918472
 21
-23.7351003607
 31
0.0
 11
10.5272287389
 21
-23.6790927495
 31
0.0
 11
10.4625665606
 21
-23.6414468486
 31
0.0
 11
10.3864418591
 21
-23.6278312164
 31
0.0
  0
SPLINE
  5
74A
100
AcDbEntity
  8
ASSI
100
AcDbSpline
 62
253
  6
CONTINUOUS
 70
0
 71
3
 72
11
 73
7
 74
5
 42
0.0000001
 43
0.0000001
 44
0.0000000001
 12
-0.290824418
 22
-0.0021981279
 32
0.0
 13
-0.0029298796
 23
-0.2908179665
 33
0.0
 40
0.0
 40
0.0
 40
0.0
 40
0.0
 40
0.2659011537
 40
0.5231711216
 40
0.7669316808
 40
1.0
 40
1.0
 40
1.0
 40
1.0
 10
7.4135581409
 20
-23.6278312163
 30
0.0
 10
7.3877812915
 20
-23.6280260446
 30
0.0
 10
7.3366960526
 20
-23.6369744366
 30
0.0
 10
7.2707761169
 20
-23.6746347866
 30
0.0
 10
7.2252178835
 20
-23.7317691277
 30
0.0
 10
7.2138162226
 20
-23.7784428122
 30
0.0
 10
7.2135886019
 20
-23.8010362971
 30
0.0
 11
7.4135581409
 21
-23.6278312163
 31
0.0
 11
7.3374334361
 21
-23.6414468189
 31
0.0
 11
7.2727712565
 21
-23.6790927071
 31
0.0
 11
7.2293081505
 21
-23.7351003272
 31
0.0
 11
7.2135886019
 21
-23.8010362971
 31
0.0
  0
SPLINE
  5
74B
100
AcDbEntity
  8
ASSI
100
AcDbSpline
 62
253
  6
CONTINUOUS
 70
0
 71
3
 72
11
 73
7
 74
5
 42
0.0000001
 43
0.0000001
 44
0.0000000001
 12
0.290824418
 22
-0.002198128
 32
0.0
 13
0.0029298796
 23
-0.2908179665
 33
0.0
 40
0.0
 40
0.0
 40
0.0
 40
0.0
 40
0.2659011522
 40
0.5231711191
 40
0.7669316794
 40
1.0
 40
1.0
 40
1.0
 40
1.0
 10
-7.4135581409
 20
-23.6278312163
 30
0.0
 10
-7.3877812917
 20
-23.6280260446
 30
0.0
 10
-7.336696053
 20
-23.6369744364
 30
0.0
 10
-7.2707761173
 20
-23.6746347862
 30
0.0
 10
-7.2252178837
 20
-23.7317691273
 30
0.0
 10
-7.2138162226
 20
-23.7784428121
 30
0.0
 10
-7.2135886019
 20
-23.8010362971
 30
0.0
 11
-7.4135581409
 21
-23.6278312163
 31
0.0
 11
-7.3374334365
 21
-23.6414468187
 31
0.0
 11
-7.2727712571
 21
-23.6790927066
 31
0.0
 11
-7.2293081507
 21
-23.7351003269
 31
0.0
 11
-7.2135886019
 21
-23.8010362971
 31
0.0
  0
SPLINE
  5
74C
100
AcDbEntity
  8
ASSI
100
AcDbSpline
 62
253
  6
CONTINUOUS
 70
0
 71
3
 72
11
 73
7
 74
5
 42
0.0000001
 43
0.0000001
 44
0.0000000001
 12
0.0029298796
 22
0.2908179665
 32
0.0
 13
0.2908244179
 23
0.0021981283
 33
0.0
 40
0.0
 40
0.0
 40
0.0
 40
0.0
 40
0.2330683206
 40
0.4768288809
 40
0.7340988478
 40
1.0
 40
1.0
 40
1.0
 40
1.0
 10
-10.5864113981
 20
-23.8010362971
 30
0.0
 10
-10.5861837774
 20
-23.7784428121
 30
0.0
 10
-10.5747821163
 20
-23.7317691273
 30
0.0
 10
-10.5292238827
 20
-23.6746347862
 30
0.0
 10
-10.463303947
 20
-23.6369744365
 30
0.0
 10
-10.4122187083
 20
-23.6280260446
 30
0.0
 10
-10.3864418591
 20
-23.6278312163
 30
0.0
 11
-10.5864113981
 21
-23.8010362971
 31
0.0
 11
-10.5706918493
 21
-23.7351003269
 31
0.0
 11
-10.5272287429
 21
-23.6790927066
 31
0.0
 11
-10.4625665635
 21
-23.6414468188
 31
0.0
 11
-10.3864418591
 21
-23.6278312163
 31
0.0
  0
SPLINE
  5
74D
100
AcDbEntity
  8
ASSI
100
AcDbSpline
 62
253
  6
CONTINUOUS
 70
0
 71
3
 72
11
 73
7
 74
5
 42
0.0000001
 43
0.0000001
 44
0.0000000001
 12
-0.0029298796
 22
-0.290817965
 32
0.0
 13
-0.2908244163
 23
-0.0021981479
 33
0.0
 40
0.0
 40
0.0
 40
0.0
 40
0.0
 40
0.2330683208
 40
0.4768288792
 40
0.7340988449
 40
1.0
 40
1.0
 40
1.0
 40
1.0
 10
10.5864113981
 20
23.8010362971
 30
0.0
 10
10.5861837774
 20
23.7784428122
 30
0.0
 10
10.5747821164
 20
23.7317691278
 30
0.0
 10
10.5292238826
 20
23.6746347873
 30
0.0
 10
10.4633039461
 20
23.6369744404
 30
0.0
 10
10.4122187085
 20
23.6280260464
 30
0.0
 10
10.3864418591
 20
23.6278312164
 30
0.0
 11
10.5864113981
 21
23.8010362971
 31
0.0
 11
10.5706918493
 21
23.7351003272
 31
0.0
 11
10.5272287429
 21
23.6790927081
 31
0.0
 11
10.4625665634
 21
23.6414468218
 31
0.0
 11
10.3864418591
 21
23.6278312164
 31
0.0
  0
SPLINE
  5
74E
100
AcDbEntity
  8
ASSI
100
AcDbSpline
 62
253
  6
CONTINUOUS
 70
0
 71
3
 72
11
 73
7
 74
5
 42
0.0000001
 43
0.0000001
 44
0.0000000001
 12
0.290824418
 22
0.0021981279
 32
0.0
 13
0.0029298796
 23
0.2908179665
 33
0.0
 40
0.0
 40
0.0
 40
0.0
 40
0.0
 40
0.2659011524
 40
0.5231711195
 40
0.7669316796
 40
1.0
 40
1.0
 40
1.0
 40
1.0
 10
-7.4135581409
 20
23.6278312164
 30
0.0
 10
-7.3877812916
 20
23.6280260446
 30
0.0
 10
-7.336696053
 20
23.6369744365
 30
0.0
 10
-7.2707761173
 20
23.6746347863
 30
0.0
 10
-7.2252178837
 20
23.7317691274
 30
0.0
 10
-7.2138162226
 20
23.7784428121
 30
0.0
 10
-7.2135886019
 20
23.8010362971
 30
0.0
 11
-7.4135581409
 21
23.6278312164
 31
0.0
 11
-7.3374334365
 21
23.6414468187
 31
0.0
 11
-7.272771257
 21
23.6790927066
 31
0.0
 11
-7.2293081507
 21
23.7351003269
 31
0.0
 11
-7.2135886019
 21
23.8010362971
 31
0.0
  0
SPLINE
  5
74F
100
AcDbEntity
  8
ASSI
100
AcDbSpline
 62
253
  6
CONTINUOUS
 70
0
 71
3
 72
11
 73
7
 74
5
 42
0.0000001
 43
0.0000001
 44
0.0000000001
 12
-0.290824418
 22
0.002198128
 32
0.0
 13
-0.0029298796
 23
0.2908179665
 33
0.0
 40
0.0
 40
0.0
 40
0.0
 40
0.0
 40
0.2659011522
 40
0.5231711191
 40
0.7669316794
 40
1.0
 40
1.0
 40
1.0
 40
1.0
 10
7.4135581409
 20
23.6278312164
 30
0.0
 10
7.3877812917
 20
23.6280260446
 30
0.0
 10
7.336696053
 20
23.6369744364
 30
0.0
 10
7.2707761173
 20
23.6746347862
 30
0.0
 10
7.2252178837
 20
23.7317691273
 30
0.0
 10
7.2138162226
 20
23.7784428121
 30
0.0
 10
7.2135886019
 20
23.8010362971
 30
0.0
 11
7.4135581409
 21
23.6278312164
 31
0.0
 11
7.3374334365
 21
23.6414468187
 31
0.0
 11
7.2727712571
 21
23.6790927066
 31
0.0
 11
7.2293081507
 21
23.7351003269
 31
0.0
 11
7.2135886019
 21
23.8010362971
 31
0.0
  0
SPLINE
  5
750
100
AcDbEntity
  8
ASSI
100
AcDbSpline
 62
253
  6
CONTINUOUS
 70
0
 71
3
 72
11
 73
7
 74
5
 42
0.0000001
 43
0.0000001
 44
0.0000000001
 12
0.0029298744
 22
-0.2908179843
 32
0.0
 13
0.2908244364
 23
-0.0021980406
 33
0.0
 40
0.0
 40
0.0
 40
0.0
 40
0.0
 40
0.2330683041
 40
0.4768288064
 40
0.7340987915
 40
1.0
 40
1.0
 40
1.0
 40
1.0
 10
-10.5864113981
 20
23.8010362971
 30
0.0
 10
-10.5861837778
 20
23.7784428123
 30
0.0
 10
-10.5747821307
 20
23.7317691306
 30
0.0
 10
-10.5292239105
 20
23.674634778
 30
0.0
 10
-10.4633039672
 20
23.636974425
 30
0.0
 10
-10.4122187154
 20
23.6280260394
 30
0.0
 10
-10.386441859
 20
23.6278312189
 30
0.0
 11
-10.5864113981
 21
23.8010362971
 31
0.0
 11
-10.570691861
 21
23.7351003247
 31
0.0
 11
-10.5272287738
 21
23.6790927054
 31
0.0
 11
-10.4625665866
 21
23.6414468114
 31
0.0
 11
-10.386441859
 21
23.6278312189
 31
0.0
  0
SPLINE
  5
751
100
AcDbEntity
  8
ASSI
100
AcDbSpline
 62
253
  6
CONTINUOUS
 70
0
 71
3
 72
29
 73
25
 74
23
 42
0.0000001
 43
0.0000001
 44
0.0000000001
 12
-0.727109997
 22
0.2572297694
 32
0.0
 13
-0.7263583895
 23
-0.2593445431
 33
0.0
 40
0.0
 40
0.0
 40
0.0
 40
0.0
 40
0.0032231171
 40
0.0111232113
 40
0.0236176136
 40
0.0406082266
 40
0.0619191072
 40
0.0873397501
 40
0.149586798
 40
0.2249889815
 40
0.3107352647
 40
0.4035878127
 40
0.5000646111
 40
0.5965389168
 40
0.6893842172
 40
0.7751186269
 40
0.8505041667
 40
0.9127325955
 40
0.938143639
 40
0.9594431793
 40
0.9764191147
 40
0.9888962758
 40
0.9967820666
 40
1.0
 40
1.0
 40
1.0
 40
1.0
 10
4.351882222
 20
-23.6519214817
 30
0.0
 10
4.3511010351
 20
-23.6516451211
 30
0.0
 10
4.3481608997
 20
-23.6517775988
 30
0.0
 10
4.3421641191
 20
-23.6513253656
 30
0.0
 10
4.3325168189
 20
-23.6512513621
 30
0.0
 10
4.319475483
 20
-23.6509871158
 30
0.0
 10
4.3030883441
 20
-23.6508072777
 30
0.0
 10
4.2750751508
 20
-23.650522861
 30
0.0
 10
4.2331508011
 20
-23.6502362193
 30
0.0
 10
4.1757194513
 20
-23.649956869
 30
0.0
 10
4.1104184735
 20
-23.6497515729
 30
0.0
 10
4.0396995221
 20
-23.6496239558
 30
0.0
 10
3.966222323
 20
-23.649581034
 30
0.0
 10
3.8927469869
 20
-23.6496243194
 30
0.0
 10
3.8220335941
 20
-23.6497522438
 30
0.0
 10
3.7567418079
 20
-23.649957762
 30
0.0
 10
3.6993225893
 20
-23.6502372817
 30
0.0
 10
3.6574097452
 20
-23.6505241103
 30
0.0
 10
3.6294067721
 20
-23.6508088207
 30
0.0
 10
3.6130286875
 20
-23.6509884274
 30
0.0
 10
3.599998733
 20
-23.6512524891
 30
0.0
 10
3.5903626937
 20
-23.6513246894
 30
0.0
 10
3.5843764427
 20
-23.6517775732
 30
0.0
 10
3.5814400368
 20
-23.6516439143
 30
0.0
 10
3.5806609125
 20
-23.6519220988
 30
0.0
 11
4.351882222
 21
-23.6519214817
 31
0.0
 11
4.3494068637
 21
-23.6516928893
 31
0.0
 11
4.3433179951
 21
-23.6514658777
 31
0.0
 11
4.3336840213
 21
-23.6512431999
 31
0.0
 11
4.3205814605
 21
-23.6510275278
 31
0.0
 11
4.304146334
 21
-23.6508209404
 31
0.0
 11
4.284541153
 21
-23.6506252526
 31
0.0
 11
4.236533213
 21
-23.6502736235
 31
0.0
 11
4.1783785492
 21
-23.6499854062
 31
0.0
 11
4.1122454322
 21
-23.649771491
 31
0.0
 11
4.0406312472
 21
-23.6496399248
 31
0.0
 11
3.9662216821
 21
-23.6495955842
 31
0.0
 11
3.8918140398
 21
-23.6496402878
 31
0.0
 11
3.8202054453
 21
-23.6497721635
 31
0.0
 11
3.7540814868
 21
-23.6499863128
 31
0.0
 11
3.6959396609
 21
-23.650274723
 31
0.0
 11
3.6479460836
 21
-23.6506266247
 31
0.0
 11
3.6283483077
 21
-23.6508224232
 31
0.0
 11
3.6119219266
 21
-23.6510288629
 31
0.0
 11
3.5988306774
 21
-23.6512439079
 31
0.0
 11
3.5892099822
 21
-23.6514656152
 31
0.0
 11
3.583132139
 21
-23.6516922484
 31
0.0
 11
3.5806609125
 21
-23.6519220988
 31
0.0
  0
SPLINE
  5
752
100
AcDbEntity
  8
ASSI
100
AcDbSpline
 62
253
  6
CONTINUOUS
 70
0
 71
3
 72
29
 73
25
 74
23
 42
0.0000001
 43
0.0000001
 44
0.0000000001
 12
0.7263583892
 22
-0.2593445438
 32
0.0
 13
0.7271099964
 23
0.2572297712
 33
0.0
 40
0.0
 40
0.0
 40
0.0
 40
0.0
 40
0.0032179334
 40
0.0111037242
 40
0.0235808853
 40
0.0405568207
 40
0.061856361
 40
0.0872674045
 40
0.1494958333
 40
0.2248813731
 40
0.3106157828
 40
0.4034610831
 40
0.4999353888
 40
0.5964121872
 40
0.6892647352
 40
0.7750110185
 40
0.850413202
 40
0.9126602499
 40
0.9380808928
 40
0.9593917734
 40
0.9763823864
 40
0.9888767887
 40
0.9967768829
 40
1.0
 40
1.0
 40
1.0
 40
1.0
 10
3.5806609125
 20
23.6519220988
 30
0.0
 10
3.5814400368
 20
23.6516439143
 30
0.0
 10
3.5843764427
 20
23.6517775732
 30
0.0
 10
3.5903626937
 20
23.6513246894
 30
0.0
 10
3.599998733
 20
23.6512524891
 30
0.0
 10
3.6130286875
 20
23.6509884274
 30
0.0
 10
3.6294067721
 20
23.6508088207
 30
0.0
 10
3.6574097452
 20
23.6505241103
 30
0.0
 10
3.6993225893
 20
23.6502372817
 30
0.0
 10
3.7567418079
 20
23.649957762
 30
0.0
 10
3.8220335941
 20
23.6497522438
 30
0.0
 10
3.8927469869
 20
23.6496243194
 30
0.0
 10
3.966222323
 20
23.649581034
 30
0.0
 10
4.0396995221
 20
23.6496239558
 30
0.0
 10
4.1104184735
 20
23.6497515729
 30
0.0
 10
4.1757194512
 20
23.649956869
 30
0.0
 10
4.2331508011
 20
23.6502362193
 30
0.0
 10
4.2750751508
 20
23.650522861
 30
0.0
 10
4.3030883441
 20
23.6508072777
 30
0.0
 10
4.319475483
 20
23.6509871158
 30
0.0
 10
4.3325168189
 20
23.6512513621
 30
0.0
 10
4.3421641191
 20
23.6513253656
 30
0.0
 10
4.3481608997
 20
23.6517775988
 30
0.0
 10
4.3511010351
 20
23.6516451211
 30
0.0
 10
4.351882222
 20
23.6519214817
 30
0.0
 11
3.5806609125
 21
23.6519220988
 31
0.0
 11
3.583132139
 21
23.6516922484
 31
0.0
 11
3.5892099822
 21
23.6514656152
 31
0.0
 11
3.5988306774
 21
23.6512439079
 31
0.0
 11
3.6119219266
 21
23.6510288629
 31
0.0
 11
3.6283483077
 21
23.6508224232
 31
0.0
 11
3.6479460836
 21
23.6506266247
 31
0.0
 11
3.6959396609
 21
23.650274723
 31
0.0
 11
3.7540814868
 21
23.6499863128
 31
0.0
 11
3.8202054453
 21
23.6497721635
 31
0.0
 11
3.8918140398
 21
23.6496402878
 31
0.0
 11
3.9662216821
 21
23.6495955842
 31
0.0
 11
4.0406312472
 21
23.6496399248
 31
0.0
 11
4.1122454321
 21
23.649771491
 31
0.0
 11
4.1783785492
 21
23.6499854062
 31
0.0
 11
4.236533213
 21
23.6502736235
 31
0.0
 11
4.284541153
 21
23.6506252526
 31
0.0
 11
4.304146334
 21
23.6508209404
 31
0.0
 11
4.3205814605
 21
23.6510275278
 31
0.0
 11
4.3336840212
 21
23.6512431999
 31
0.0
 11
4.3433179951
 21
23.6514658777
 31
0.0
 11
4.3494068637
 21
23.6516928893
 31
0.0
 11
4.351882222
 21
23.6519214817
 31
0.0
  0
SPLINE
  5
753
100
AcDbEntity
  8
ASSI
100
AcDbSpline
 62
253
  6
CONTINUOUS
 70
0
 71
3
 72
29
 73
25
 74
23
 42
0.0000001
 43
0.0000001
 44
0.0000000001
 12
-0.727109997
 22
0.2572297694
 32
0.0
 13
-0.7263583895
 23
-0.2593445431
 33
0.0
 40
0.0
 40
0.0
 40
0.0
 40
0.0
 40
0.0032231171
 40
0.0111232113
 40
0.0236176136
 40
0.0406082266
 40
0.0619191072
 40
0.0873397501
 40
0.149586798
 40
0.2249889815
 40
0.3107352647
 40
0.4035878127
 40
0.5000646111
 40
0.5965389168
 40
0.6893842172
 40
0.7751186269
 40
0.8505041667
 40
0.9127325955
 40
0.938143639
 40
0.9594431793
 40
0.9764191147
 40
0.9888962758
 40
0.9967820666
 40
1.0
 40
1.0
 40
1.0
 40
1.0
 10
-3.5806627131
 20
-23.6519214817
 30
0.0
 10
-3.5814439
 20
-23.6516451211
 30
0.0
 10
-3.5843840353
 20
-23.6517775988
 30
0.0
 10
-3.590380816
 20
-23.6513253656
 30
0.0
 10
-3.6000281162
 20
-23.6512513621
 30
0.0
 10
-3.613069452
 20
-23.6509871158
 30
0.0
 10
-3.629456591
 20
-23.6508072777
 30
0.0
 10
-3.6574697843
 20
-23.650522861
 30
0.0
 10
-3.699394134
 20
-23.6502362193
 30
0.0
 10
-3.7568254838
 20
-23.649956869
 30
0.0
 10
-3.8221264616
 20
-23.6497515729
 30
0.0
 10
-3.8928454129
 20
-23.6496239558
 30
0.0
 10
-3.9663226121
 20
-23.649581034
 30
0.0
 10
-4.0397979481
 20
-23.6496243194
 30
0.0
 10
-4.110511341
 20
-23.6497522438
 30
0.0
 10
-4.1758031271
 20
-23.649957762
 30
0.0
 10
-4.2332223457
 20
-23.6502372817
 30
0.0
 10
-4.2751351899
 20
-23.6505241103
 30
0.0
 10
-4.303138163
 20
-23.6508088207
 30
0.0
 10
-4.3195162475
 20
-23.6509884274
 30
0.0
 10
-4.3325462021
 20
-23.6512524891
 30
0.0
 10
-4.3421822413
 20
-23.6513246894
 30
0.0
 10
-4.3481684923
 20
-23.6517775732
 30
0.0
 10
-4.3511048983
 20
-23.6516439143
 30
0.0
 10
-4.3518840226
 20
-23.6519220988
 30
0.0
 11
-3.5806627131
 21
-23.6519214817
 31
0.0
 11
-3.5831380714
 21
-23.6516928893
 31
0.0
 11
-3.5892269399
 21
-23.6514658777
 31
0.0
 11
-3.5988609138
 21
-23.6512431999
 31
0.0
 11
-3.6119634746
 21
-23.6510275278
 31
0.0
 11
-3.628398601
 21
-23.6508209404
 31
0.0
 11
-3.6480037821
 21
-23.6506252526
 31
0.0
 11
-3.6960117221
 21
-23.6502736235
 31
0.0
 11
-3.7541663859
 21
-23.6499854062
 31
0.0
 11
-3.8202995029
 21
-23.649771491
 31
0.0
 11
-3.8919136879
 21
-23.6496399248
 31
0.0
 11
-3.9663232529
 21
-23.6495955842
 31
0.0
 11
-4.0407308953
 21
-23.6496402878
 31
0.0
 11
-4.1123394898
 21
-23.6497721635
 31
0.0
 11
-4.1784634483
 21
-23.6499863128
 31
0.0
 11
-4.2366052742
 21
-23.650274723
 31
0.0
 11
-4.2845988515
 21
-23.6506266247
 31
0.0
 11
-4.3041966274
 21
-23.6508224232
 31
0.0
 11
-4.3206230085
 21
-23.6510288629
 31
0.0
 11
-4.3337142577
 21
-23.6512439079
 31
0.0
 11
-4.3433349528
 21
-23.6514656152
 31
0.0
 11
-4.3494127961
 21
-23.6516922484
 31
0.0
 11
-4.3518840226
 21
-23.6519220988
 31
0.0
  0
SPLINE
  5
754
100
AcDbEntity
  8
ASSI
100
AcDbSpline
 62
253
  6
CONTINUOUS
 70
0
 71
3
 72
29
 73
25
 74
23
 42
0.0000001
 43
0.0000001
 44
0.0000000001
 12
0.7263583892
 22
-0.2593445438
 32
0.0
 13
0.7271099964
 23
0.2572297712
 33
0.0
 40
0.0
 40
0.0
 40
0.0
 40
0.0
 40
0.0032179334
 40
0.0111037242
 40
0.0235808853
 40
0.0405568207
 40
0.061856361
 40
0.0872674045
 40
0.1494958333
 40
0.2248813731
 40
0.3106157828
 40
0.4034610831
 40
0.4999353888
 40
0.5964121872
 40
0.6892647352
 40
0.7750110185
 40
0.850413202
 40
0.9126602499
 40
0.9380808928
 40
0.9593917734
 40
0.9763823864
 40
0.9888767887
 40
0.9967768829
 40
1.0
 40
1.0
 40
1.0
 40
1.0
 10
-4.3518840226
 20
23.6519220988
 30
0.0
 10
-4.3511048983
 20
23.6516439143
 30
0.0
 10
-4.3481684923
 20
23.6517775732
 30
0.0
 10
-4.3421822413
 20
23.6513246894
 30
0.0
 10
-4.3325462021
 20
23.6512524891
 30
0.0
 10
-4.3195162475
 20
23.6509884274
 30
0.0
 10
-4.303138163
 20
23.6508088207
 30
0.0
 10
-4.2751351899
 20
23.6505241103
 30
0.0
 10
-4.2332223457
 20
23.6502372817
 30
0.0
 10
-4.1758031272
 20
23.649957762
 30
0.0
 10
-4.110511341
 20
23.6497522438
 30
0.0
 10
-4.0397979482
 20
23.6496243194
 30
0.0
 10
-3.9663226121
 20
23.649581034
 30
0.0
 10
-3.892845413
 20
23.6496239558
 30
0.0
 10
-3.8221264616
 20
23.6497515729
 30
0.0
 10
-3.7568254838
 20
23.649956869
 30
0.0
 10
-3.699394134
 20
23.6502362193
 30
0.0
 10
-3.6574697843
 20
23.650522861
 30
0.0
 10
-3.629456591
 20
23.6508072777
 30
0.0
 10
-3.613069452
 20
23.6509871158
 30
0.0
 10
-3.6000281162
 20
23.6512513621
 30
0.0
 10
-3.590380816
 20
23.6513253656
 30
0.0
 10
-3.5843840353
 20
23.6517775988
 30
0.0
 10
-3.5814439
 20
23.6516451211
 30
0.0
 10
-3.5806627131
 20
23.6519214817
 30
0.0
 11
-4.3518840226
 21
23.6519220988
 31
0.0
 11
-4.3494127961
 21
23.6516922484
 31
0.0
 11
-4.3433349529
 21
23.6514656152
 31
0.0
 11
-4.3337142577
 21
23.6512439079
 31
0.0
 11
-4.3206230085
 21
23.6510288629
 31
0.0
 11
-4.3041966274
 21
23.6508224232
 31
0.0
 11
-4.2845988515
 21
23.6506266247
 31
0.0
 11
-4.2366052742
 21
23.650274723
 31
0.0
 11
-4.1784634483
 21
23.6499863128
 31
0.0
 11
-4.1123394898
 21
23.6497721635
 31
0.0
 11
-4.0407308953
 21
23.6496402878
 31
0.0
 11
-3.966323253
 21
23.6495955842
 31
0.0
 11
-3.8919136879
 21
23.6496399248
 31
0.0
 11
-3.8202995029
 21
23.649771491
 31
0.0
 11
-3.7541663859
 21
23.6499854062
 31
0.0
 11
-3.6960117221
 21
23.6502736235
 31
0.0
 11
-3.6480037821
 21
23.6506252526
 31
0.0
 11
-3.6283986011
 21
23.6508209404
 31
0.0
 11
-3.6119634746
 21
23.6510275278
 31
0.0
 11
-3.5988609138
 21
23.6512431999
 31
0.0
 11
-3.58922694
 21
23.6514658777
 31
0.0
 11
-3.5831380714
 21
23.6516928893
 31
0.0
 11
-3.5806627131
 21
23.6519214817
 31
0.0
  0
SPLINE
  5
755
100
AcDbEntity
  8
ASSI
100
AcDbSpline
 62
253
  6
CONTINUOUS
 70
0
 71
3
 72
25
 73
21
 74
19
 42
0.0000001
 43
0.0000001
 44
0.0000000001
 12
0.1903870567
 22
-0.1934662786
 32
0.0
 13
0.1885513186
 23
0.1952558131
 33
0.0
 40
0.0
 40
0.0
 40
0.0
 40
0.0
 40
0.0033072054
 40
0.0112291006
 40
0.0237289288
 40
0.0407196882
 40
0.0874402101
 40
0.1496573615
 40
0.2250211771
 40
0.3107333794
 40
0.4999993905
 40
0.6892659448
 40
0.7749790554
 40
0.8503466322
 40
0.9125642955
 40
0.9592809878
 40
0.9762728712
 40
0.9887770487
 40
0.9967006776
 40
1.0
 40
1.0
 40
1.0
 40
1.0
 10
3.8306228363
 20
23.9018840226
 30
0.0
 10
3.8308327193
 20
23.901670745
 30
0.0
 10
3.8319779444
 20
23.9016673067
 30
0.0
 10
3.8339977802
 20
23.901331217
 30
0.0
 10
3.8374386194
 20
23.9011946585
 30
0.0
 10
3.844291636
 20
23.9008436703
 30
0.0
 10
3.8557063604
 20
23.9005407828
 30
0.0
 10
3.8723667868
 20
23.9001927377
 30
0.0
 10
3.89257225
 20
23.8999212766
 30
0.0
 10
3.9242676361
 20
23.8996345596
 30
0.0
 10
3.9662723797
 20
23.8995040986
 30
0.0
 10
4.0082772402
 20
23.8996345298
 30
0.0
 10
4.0399730481
 20
23.8999212826
 30
0.0
 10
4.0601790994
 20
23.9001926342
 30
0.0
 10
4.0768392338
 20
23.9005408964
 30
0.0
 10
4.0882544915
 20
23.9008432663
 30
0.0
 10
4.09510662
 20
23.9011950848
 30
0.0
 10
4.098549934
 20
23.9013302221
 30
0.0
 10
4.1005661804
 20
23.9016688371
 30
0.0
 10
4.101714735
 20
23.9016692853
 30
0.0
 10
4.1019220988
 20
23.9018840226
 30
0.0
 11
3.8306228363
 21
23.9018840226
 31
0.0
 11
3.8314908767
 21
23.9016552219
 31
0.0
 11
3.8336291484
 21
23.9014283662
 31
0.0
 11
3.8370147317
 21
23.901205989
 31
0.0
 11
3.8416215677
 21
23.9009905596
 31
0.0
 11
3.8542967292
 21
23.9005884107
 31
0.0
 11
3.8711809142
 21
23.9002364928
 31
0.0
 11
3.8916351821
 21
23.8999478674
 31
0.0
 11
3.9148994044
 21
23.8997336642
 31
0.0
 11
3.9662723376
 21
23.8995572797
 31
0.0
 11
4.0176454184
 21
23.8997336478
 31
0.0
 11
4.0409098873
 21
23.8999478441
 31
0.0
 11
4.0613651764
 21
23.9002364582
 31
0.0
 11
4.0782495006
 21
23.9005883653
 31
0.0
 11
4.0909236219
 21
23.9009905227
 31
0.0
 11
4.0955307626
 21
23.901205965
 31
0.0
 11
4.0989175283
 21
23.9014283546
 31
0.0
 11
4.1010562723
 21
23.9016552184
 31
0.0
 11
4.1019220988
 21
23.9018840226
 31
0.0
  0
SPLINE
  5
756
100
AcDbEntity
  8
ASSI
100
AcDbSpline
 62
253
  6
CONTINUOUS
 70
0
 71
3
 72
25
 73
21
 74
19
 42
0.0000001
 43
0.0000001
 44
0.0000000001
 12
0.1903870567
 22
-0.1934662786
 32
0.0
 13
0.1885513186
 23
0.1952558131
 33
0.0
 40
0.0
 40
0.0
 40
0.0
 40
0.0
 40
0.0033072054
 40
0.0112291006
 40
0.0237289288
 40
0.0407196882
 40
0.0874402101
 40
0.1496573615
 40
0.2250211771
 40
0.3107333794
 40
0.4999993905
 40
0.6892659448
 40
0.7749790554
 40
0.8503466322
 40
0.9125642955
 40
0.9592809878
 40
0.9762728712
 40
0.9887770487
 40
0.9967006776
 40
1.0
 40
1.0
 40
1.0
 40
1.0
 10
-4.1019220988
 20
23.9018840226
 30
0.0
 10
-4.1017122158
 20
23.901670745
 30
0.0
 10
-4.1005669907
 20
23.9016673067
 30
0.0
 10
-4.0985471548
 20
23.901331217
 30
0.0
 10
-4.0951063157
 20
23.9011946585
 30
0.0
 10
-4.088253299
 20
23.9008436703
 30
0.0
 10
-4.0768385747
 20
23.9005407828
 30
0.0
 10
-4.0601781483
 20
23.9001927377
 30
0.0
 10
-4.039972685
 20
23.8999212766
 30
0.0
 10
-4.0082772989
 20
23.8996345596
 30
0.0
 10
-3.9662725553
 20
23.8995040986
 30
0.0
 10
-3.9242676949
 20
23.8996345298
 30
0.0
 10
-3.8925718869
 20
23.8999212826
 30
0.0
 10
-3.8723658356
 20
23.9001926342
 30
0.0
 10
-3.8557057013
 20
23.9005408964
 30
0.0
 10
-3.8442904436
 20
23.9008432663
 30
0.0
 10
-3.8374383151
 20
23.9011950848
 30
0.0
 10
-3.8339950011
 20
23.9013302221
 30
0.0
 10
-3.8319787547
 20
23.9016688371
 30
0.0
 10
-3.8308302001
 20
23.9016692853
 30
0.0
 10
-3.8306228363
 20
23.9018840226
 30
0.0
 11
-4.1019220988
 21
23.9018840226
 31
0.0
 11
-4.1010540584
 21
23.9016552219
 31
0.0
 11
-4.0989157867
 21
23.9014283662
 31
0.0
 11
-4.0955302034
 21
23.901205989
 31
0.0
 11
-4.0909233674
 21
23.9009905596
 31
0.0
 11
-4.0782482058
 21
23.9005884107
 31
0.0
 11
-4.0613640208
 21
23.9002364928
 31
0.0
 11
-4.040909753
 21
23.8999478674
 31
0.0
 11
-4.0176455306
 21
23.8997336642
 31
0.0
 11
-3.9662725974
 21
23.8995572797
 31
0.0
 11
-3.9148995167
 21
23.8997336478
 31
0.0
 11
-3.8916350477
 21
23.8999478441
 31
0.0
 11
-3.8711797587
 21
23.9002364582
 31
0.0
 11
-3.8542954345
 21
23.9005883653
 31
0.0
 11
-3.8416213132
 21
23.9009905227
 31
0.0
 11
-3.8370141724
 21
23.901205965
 31
0.0
 11
-3.8336274068
 21
23.9014283546
 31
0.0
 11
-3.8314886627
 21
23.9016552184
 31
0.0
 11
-3.8306228363
 21
23.9018840226
 31
0.0
  0
SPLINE
  5
757
100
AcDbEntity
  8
ASSI
100
AcDbSpline
 62
253
  6
CONTINUOUS
 70
0
 71
3
 72
9
 73
5
 74
3
 42
0.0000001
 43
0.0000001
 44
0.0000000001
 12
0.0000006052
 22
0.0433040268
 32
0.0
 13
-0.0013082134
 23
0.0432842617
 33
0.0
 40
0.0
 40
0.0
 40
0.0
 40
0.0
 40
0.2986883658
 40
1.0
 40
1.0
 40
1.0
 40
1.0
 10
-10.5859750215
 20
-23.8443375673
 30
0.0
 10
-10.5859749612
 20
-23.8400260976
 30
0.0
 10
-10.5860182947
 20
-23.8255919006
 30
0.0
 10
-10.5861055763
 20
-23.8111548825
 30
0.0
 10
-10.5864113981
 20
-23.8010362971
 30
0.0
 11
-10.5859750215
 21
-23.8443375673
 31
0.0
 11
-10.5860047684
 21
-23.8314031925
 31
0.0
 11
-10.5864113981
 21
-23.8010362971
 31
0.0
  0
SPLINE
  5
758
100
AcDbEntity
  8
ASSI
100
AcDbSpline
 62
253
  6
CONTINUOUS
 70
0
 71
3
 72
14
 73
10
 74
8
 42
0.0000001
 43
0.0000001
 44
0.0000000001
 12
0.0353853364
 22
0.0353456974
 32
0.0
 13
0.0000000241
 23
0.0500144015
 33
0.0
 40
0.0
 40
0.0
 40
0.0
 40
0.0
 40
0.0223887733
 40
0.081330048
 40
0.174755207
 40
0.299184792
 40
0.44995127
 40
0.6213968764
 40
1.0
 40
1.0
 40
1.0
 40
1.0
 10
-10.5868325431
 20
-24.286863004
 30
0.0
 10
-10.586568465
 20
-24.2865992218
 30
0.0
 10
-10.5868043236
 20
-24.2850245546
 30
0.0
 10
-10.5863527733
 20
-24.2823118149
 30
0.0
 10
-10.5863839743
 20
-24.2775939037
 30
0.0
 10
-10.5861921021
 20
-24.2714930317
 30
0.0
 10
-10.5861148161
 20
-24.2640320217
 30
0.0
 10
-10.5859995564
 20
-24.2523553421
 30
0.0
 10
-10.5859750245
 20
-24.2431824888
 30
0.0
 10
-10.5859750215
 20
-24.2368706193
 30
0.0
 11
-10.5868325431
 21
-24.286863004
 31
0.0
 11
-10.5866645219
 21
-24.2857559206
 31
0.0
 11
-10.5865033614
 21
-24.2828124166
 31
0.0
 11
-10.5863551092
 21
-24.2781421656
 31
0.0
 11
-10.58622536
 21
-24.2719202471
 31
0.0
 11
-10.5861189992
 21
-24.2643805021
 31
0.0
 11
-10.586040032
 21
-24.2558061163
 31
0.0
 11
-10.5859750215
 21
-24.2368706193
 31
0.0
  0
SPLINE
  5
759
100
AcDbEntity
  8
ASSI
100
AcDbSpline
 62
253
  6
CONTINUOUS
 70
0
 71
3
 72
14
 73
10
 74
8
 42
0.0000001
 43
0.0000001
 44
0.0000000001
 12
0.0000000171
 22
0.0500143994
 32
0.0
 13
-0.0353375939
 23
0.035393426
 33
0.0
 40
0.0
 40
0.0
 40
0.0
 40
0.0
 40
0.3784749852
 40
0.5499132458
 40
0.7006959891
 40
0.8251541655
 40
0.9186156704
 40
0.977592881
 40
1.0
 40
1.0
 40
1.0
 40
1.0
 10
-10.5859750215
 20
24.2368706193
 30
0.0
 10
-10.5859750193
 20
24.2431803523
 30
0.0
 10
-10.5859995531
 20
24.2523509352
 30
0.0
 10
-10.5861147326
 20
24.2640256529
 30
0.0
 10
-10.5861920462
 20
24.2714872316
 30
0.0
 10
-10.5863837683
 20
24.2775896085
 30
0.0
 10
-10.5863528656
 20
24.2823088588
 30
0.0
 10
-10.5868039645
 20
24.2850237059
 30
0.0
 10
-10.5865686052
 20
24.2865986491
 30
0.0
 10
-10.5868325431
 20
24.2868630041
 30
0.0
 11
-10.5859750215
 21
24.2368706193
 31
0.0
 11
-10.5860399865
 21
24.2557997069
 31
0.0
 11
-10.5861189221
 21
24.2643737252
 31
0.0
 11
-10.5862252577
 21
24.2719142838
 31
0.0
 11
-10.5863549922
 21
24.2781376326
 31
0.0
 11
-10.5865032504
 21
24.2828097019
 31
0.0
 11
-10.5866644481
 21
24.2857550038
 31
0.0
 11
-10.5868325431
 21
24.2868630041
 31
0.0
  0
ELLIPSE
  5
75A
100
AcDbEntity
  8
RACCORDO
100
AcDbEllipse
 62
7
  6
CONTINUOUS
 10
-0.0087268678
 20
-20.7586887894
 30
0.0
 11
-0.0
 21
1.0
 31
0.0
 40
0.0087268678
 41
-3.1328660073
 42
-1.5707963268
  0
ELLIPSE
  5
75B
100
AcDbEntity
  8
RACCORDO
100
AcDbEllipse
 62
7
  6
CONTINUOUS
 10
1.2087268678
 20
-20.7586887894
 30
0.0
 11
0.0
 21
1.0
 31
0.0
 40
0.0087268678
 41
1.5707963268
 42
3.1328660073
  0
ELLIPSE
  5
75C
100
AcDbEntity
  8
RACCORDO
100
AcDbEllipse
 62
7
  6
CONTINUOUS
 10
2.232603382
 20
16.167396618
 30
0.0
 11
-1.0607409467
 21
1.0607409467
 31
0.0
 40
0.9999238505
 41
-0.7853600872
 42
0.7853600872
  0
ELLIPSE
  5
75D
100
AcDbEntity
  8
RACCORDO
100
AcDbEllipse
 62
7
  6
CONTINUOUS
 10
2.232603382
 20
14.132603382
 30
0.0
 11
1.0607409467
 21
1.0607409467
 31
0.0
 40
0.9999238505
 41
-3.9269527408
 42
-2.3562325664
  0
ELLIPSE
  5
75E
100
AcDbEntity
  8
RACCORDO
100
AcDbEllipse
 62
7
  6
CONTINUOUS
 10
-2.232603382
 20
14.132603382
 30
0.0
 11
-1.0607409467
 21
1.0607409467
 31
0.0
 40
0.9999238505
 41
-3.9269527408
 42
-2.3562325664
  0
ELLIPSE
  5
75F
100
AcDbEntity
  8
RACCORDO
100
AcDbEllipse
 62
7
  6
CONTINUOUS
 10
-2.232603382
 20
16.167396618
 30
0.0
 11
1.0607409467
 21
1.0607409467
 31
0.0
 40
0.9999238505
 41
-0.7853600872
 42
0.7853600872
  0
ELLIPSE
  5
760
100
AcDbEntity
  8
RACCORDO
100
AcDbEllipse
 62
7
  6
CONTINUOUS
 10
-2.25
 20
16.1192235936
 30
0.0
 11
0.0
 21
1.0307764064
 31
0.0
 40
0.9701425001
 41
-1.5707963268
 42
0.0
  0
ELLIPSE
  5
761
100
AcDbEntity
  8
RACCORDO
100
AcDbEllipse
 62
7
  6
CONTINUOUS
 10
-2.25
 20
14.1807764064
 30
0.0
 11
0.0
 21
1.0307764064
 31
0.0
 40
0.9701425001
 41
-3.1415926536
 42
-1.5707963268
  0
ELLIPSE
  5
762
100
AcDbEntity
  8
RACCORDO
100
AcDbEllipse
 62
7
  6
CONTINUOUS
 10
2.25
 20
14.1807764064
 30
0.0
 11
0.0
 21
1.0307764064
 31
0.0
 40
0.9701425001
 41
-4.7123889804
 42
-3.1415926536
  0
ELLIPSE
  5
763
100
AcDbEntity
  8
RACCORDO
100
AcDbEllipse
 62
7
  6
CONTINUOUS
 10
2.25
 20
16.1192235936
 30
0.0
 11
0.0
 21
1.0307764064
 31
0.0
 40
0.9701425001
 41
0.0
 42
1.5707963268
  0
ELLIPSE
  5
764
100
AcDbEntity
  8
RACCORDO
100
AcDbEllipse
 62
7
  6
CONTINUOUS
 10
2.25
 20
-16.1192235936
 30
0.0
 11
-0.0
 21
1.0307764064
 31
0.0
 40
0.9701425001
 41
1.5707963268
 42
3.1415926536
  0
ELLIPSE
  5
765
100
AcDbEntity
  8
RACCORDO
100
AcDbEllipse
 62
7
  6
CONTINUOUS
 10
-2.25
 20
-16.1192235936
 30
0.0
 11
0.0
 21
1.0307764064
 31
0.0
 40
0.9701425001
 41
-3.1415926536
 42
-1.5707963268
  0
ELLIPSE
  5
766
100
AcDbEntity
  8
RACCORDO
100
AcDbEllipse
 62
7
  6
CONTINUOUS
 10
-2.25
 20
-14.1807764064
 30
0.0
 11
0.0
 21
1.0307764064
 31
0.0
 40
0.9701425001
 41
-1.5707963268
 42
0.0
  0
ELLIPSE
  5
767
100
AcDbEntity
  8
RACCORDO
100
AcDbEllipse
 62
7
  6
CONTINUOUS
 10
-2.2500571176
 20
16.1499428824
 30
0.0
 11
1.0607409467
 21
1.0607409467
 31
0.0
 40
0.9999238505
 41
-0.7853600872
 42
0.7853600872
  0
ELLIPSE
  5
768
100
AcDbEntity
  8
RACCORDO
100
AcDbEllipse
 62
7
  6
CONTINUOUS
 10
-2.2500571176
 20
14.1500571176
 30
0.0
 11
1.0607409467
 21
-1.0607409467
 31
0.0
 40
0.9999238505
 41
-0.7853600872
 42
0.7853600872
  0
ELLIPSE
  5
769
100
AcDbEntity
  8
RACCORDO
100
AcDbEllipse
 62
7
  6
CONTINUOUS
 10
2.2500571176
 20
14.1500571176
 30
0.0
 11
-1.0607409467
 21
-1.0607409467
 31
0.0
 40
0.9999238505
 41
-0.7853600872
 42
0.7853600872
  0
ELLIPSE
  5
76A
100
AcDbEntity
  8
RACCORDO
100
AcDbEllipse
 62
7
  6
CONTINUOUS
 10
2.2500571176
 20
16.1499428824
 30
0.0
 11
-1.0607409467
 21
1.0607409467
 31
0.0
 40
0.9999238505
 41
-0.7853600872
 42
0.7853600872
  0
ELLIPSE
  5
76B
100
AcDbEntity
  8
RACCORDO
100
AcDbEllipse
 62
7
  6
CONTINUOUS
 10
1.2043634339
 20
-19.7542872771
 30
0.0
 11
-0.0
 21
2.0
 31
0.0
 40
0.0087268678
 41
1.5707963268
 42
3.1328660073
  0
ELLIPSE
  5
76C
100
AcDbEntity
  8
RACCORDO
100
AcDbEllipse
 62
7
  6
CONTINUOUS
 10
1.1956365661
 20
10.0044015123
 30
0.0
 11
0.0
 21
1.0
 31
0.0
 40
0.0087268678
 41
-4.7123889804
 42
-3.1503192998
  0
ELLIPSE
  5
76D
100
AcDbEntity
  8
RACCORDO
100
AcDbEllipse
 62
7
  6
CONTINUOUS
 10
-0.0043634339
 20
-19.7542872771
 30
0.0
 11
-0.0
 21
2.0
 31
0.0
 40
0.0087268678
 41
-3.1328660073
 42
-1.5707963268
  0
ELLIPSE
  5
76E
100
AcDbEntity
  8
RACCORDO
100
AcDbEllipse
 62
7
  6
CONTINUOUS
 10
0.0043634339
 20
10.0044015123
 30
0.0
 11
-0.0
 21
1.0
 31
0.0
 40
0.0087268678
 41
-3.1328660073
 42
-1.5707963268
  0
ELLIPSE
  5
76F
100
AcDbEntity
  8
RACCORDO
100
AcDbEllipse
 62
7
  6
CONTINUOUS
 10
2.25
 20
-14.1807764064
 30
0.0
 11
-0.0
 21
1.0307764064
 31
0.0
 40
0.9701425001
 41
-0.0
 42
1.5707963268
  0
ELLIPSE
  5
770
100
AcDbEntity
  8
GUSCI_ESTERNI
100
AcDbEllipse
 62
7
  6
CONTINUOUS
 10
8.6456974108
 20
-13.9
 30
0.0
 11
0.9860557856
 21
-0.0000000001
 31
0.0
 40
0.9999904802
 41
0.0000000001
 42
1.5664328791
  0
ELLIPSE
  5
771
100
AcDbEntity
  8
GUSCI_ESTERNI
100
AcDbEllipse
 62
7
  6
CONTINUOUS
 10
8.6456974108
 20
-16.4
 30
0.0
 11
0.9860557856
 21
-0.0
 31
0.0
 40
0.9999904802
 41
-1.566432879
 42
-0.0
  0
ELLIPSE
  5
772
100
AcDbEntity
  8
GUSCI_ESTERNI
100
AcDbEllipse
 62
7
  6
CONTINUOUS
 10
8.6456974108
 20
16.4
 30
0.0
 11
0.9860557856
 21
-0.0000000002
 31
0.0
 40
0.9999904802
 41
6.2831853072
 42
7.8496181864
  0
ELLIPSE
  5
773
100
AcDbEntity
  8
GUSCI_ESTERNI
100
AcDbEllipse
 62
7
  6
CONTINUOUS
 10
8.6456974108
 20
13.9
 30
0.0
 11
0.9860557856
 21
-0.0
 31
0.0
 40
0.9999904802
 41
-1.5664328791
 42
0.0
  0
ELLIPSE
  5
774
100
AcDbEntity
  8
0
100
AcDbEllipse
 62
7
  6
CONTINUOUS
 10
8.7631293807
 20
23.5556624327
 30
0.0
 11
0.25
 21
0.0
 31
0.0
 40
0.5773502692
 41
2.617993878
 42
3.1241393611
  0
ELLIPSE
  5
775
100
AcDbEntity
  8
0
100
AcDbEllipse
 62
7
  6
CONTINUOUS
 10
-9.0368706193
 20
23.5556624327
 30
0.0
 11
0.25
 21
-0.0
 31
0.0
 40
0.5773502692
 41
2.617993878
 42
3.1241393611
  0
ELLIPSE
  5
776
100
AcDbEntity
  8
0
100
AcDbEllipse
 62
7
  6
CONTINUOUS
 10
9.0368706193
 20
-23.5556624327
 30
0.0
 11
0.25
 21
-0.0
 31
0.0
 40
0.5773502692
 41
-0.5235987756
 42
-0.0174532925
  0
ELLIPSE
  5
777
100
AcDbEntity
  8
0
100
AcDbEllipse
 62
7
  6
CONTINUOUS
 10
-8.7631293807
 20
-23.5556624327
 30
0.0
 11
0.25
 21
-0.0
 31
0.0
 40
0.5773502692
 41
-0.5235987756
 42
-0.0174532925
  0
ELLIPSE
  5
778
100
AcDbEntity
  8
0
100
AcDbEllipse
 62
7
  6
CONTINUOUS
 10
4.0459553394
 20
23.2
 30
0.0
 11
0.4595995956
 21
0.0
 31
0.0
 40
0.9949884474
 41
0.4967770086
 42
0.8362648721
  0
ELLIPSE
  5
779
100
AcDbEntity
  8
0
100
AcDbEllipse
 62
7
  6
CONTINUOUS
 10
4.0459553394
 20
23.2
 30
0.0
 11
0.4595995956
 21
-0.0
 31
0.0
 40
0.9949884474
 41
-0.8362648721
 42
-0.4967770086
  0
ELLIPSE
  5
77A
100
AcDbEntity
  8
0
100
AcDbEllipse
 62
7
  6
CONTINUOUS
 10
4.0459553394
 20
-23.2
 30
0.0
 11
0.4595995956
 21
-0.0
 31
0.0
 40
0.9949884474
 41
0.4967770086
 42
0.8362648721
  0
ELLIPSE
  5
77B
100
AcDbEntity
  8
0
100
AcDbEllipse
 62
7
  6
CONTINUOUS
 10
4.0459553394
 20
-23.2
 30
0.0
 11
0.4595995956
 21
-0.0
 31
0.0
 40
0.9949884474
 41
-0.8362648721
 42
-0.4967770086
  0
ELLIPSE
  5
77C
100
AcDbEntity
  8
0
100
AcDbEllipse
 62
7
  6
CONTINUOUS
 10
1.0674931469
 20
-23.7325068531
 30
0.0
 11
0.1768305473
 21
0.1768305473
 31
0.0
 40
0.9996954599
 41
2.3563467834
 42
3.9268385237
  0
ELLIPSE
  5
77D
100
AcDbEntity
  8
0
100
AcDbEllipse
 62
7
  6
CONTINUOUS
 10
-1.0674931469
 20
-23.7325068531
 30
0.0
 11
0.1768305473
 21
-0.1768305473
 31
0.0
 40
0.9996954599
 41
-0.7852458701
 42
0.7852458701
  0
ELLIPSE
  5
77E
100
AcDbEntity
  8
0
100
AcDbEllipse
 62
7
  6
CONTINUOUS
 10
-1.0674931469
 20
23.7325068531
 30
0.0
 11
-0.1768305473
 21
-0.1768305473
 31
0.0
 40
0.9996954599
 41
2.3563467834
 42
3.9268385237
  0
ELLIPSE
  5
77F
100
AcDbEntity
  8
0
100
AcDbEllipse
 62
7
  6
CONTINUOUS
 10
1.0674931469
 20
23.7325068531
 30
0.0
 11
-0.1768305473
 21
0.1768305473
 31
0.0
 40
0.9996954599
 41
-0.7852458701
 42
0.7852458701
  0
ELLIPSE
  5
780
100
AcDbEntity
  8
0
100
AcDbEllipse
 62
7
  6
CONTINUOUS
 10
9.0368706193
 20
23.5556624327
 30
0.0
 11
0.25
 21
0.0
 31
0.0
 40
0.5773502692
 41
0.0174532925
 42
0.5235987756
  0
ELLIPSE
  5
781
100
AcDbEntity
  8
0
100
AcDbEllipse
 62
7
  6
CONTINUOUS
 10
9.0368706193
 20
22.3869087013
 30
0.0
 11
0.25
 21
0.0
 31
0.0
 40
0.0174550649
 41
-1.5707963268
 42
-0.0174532925
  0
ELLIPSE
  5
782
100
AcDbEntity
  8
0
100
AcDbEllipse
 62
7
  6
CONTINUOUS
 10
-8.7631293807
 20
23.5556624327
 30
0.0
 11
0.25
 21
-0.0
 31
0.0
 40
0.5773502692
 41
0.0174532925
 42
0.5235987756
  0
ELLIPSE
  5
783
100
AcDbEntity
  8
0
100
AcDbEllipse
 62
7
  6
CONTINUOUS
 10
-8.7631293807
 20
22.3869087013
 30
0.0
 11
0.25
 21
-0.0
 31
0.0
 40
0.0174550649
 41
-1.5707963268
 42
-0.0174532925
  0
ELLIPSE
  5
784
100
AcDbEntity
  8
0
100
AcDbEllipse
 62
7
  6
CONTINUOUS
 10
9.0368706193
 20
-22.3869087013
 30
0.0
 11
0.25
 21
0.0
 31
0.0
 40
0.0174550649
 41
0.0174532925
 42
1.5707963268
  0
ELLIPSE
  5
785
100
AcDbEntity
  8
0
100
AcDbEllipse
 62
7
  6
CONTINUOUS
 10
-8.7631293807
 20
-22.3869087013
 30
0.0
 11
0.25
 21
0.0
 31
0.0
 40
0.0174550649
 41
0.0174532925
 42
1.5707963268
  0
ELLIPSE
  5
786
100
AcDbEntity
  8
0
100
AcDbEllipse
 62
7
  6
CONTINUOUS
 10
-4.0459553394
 20
23.2
 30
0.0
 11
0.4595995956
 21
0.0
 31
0.0
 40
0.9949884474
 41
-2.644815645
 42
-2.3053277814
  0
ELLIPSE
  5
787
100
AcDbEntity
  8
0
100
AcDbEllipse
 62
7
  6
CONTINUOUS
 10
-4.0459553394
 20
23.2
 30
0.0
 11
0.4595995956
 21
0.0
 31
0.0
 40
0.9949884474
 41
2.3053277814
 42
2.644815645
  0
ELLIPSE
  5
788
100
AcDbEntity
  8
0
100
AcDbEllipse
 62
7
  6
CONTINUOUS
 10
-4.0459553394
 20
-23.2
 30
0.0
 11
0.4595995956
 21
0.0
 31
0.0
 40
0.9949884474
 41
-2.644815645
 42
-2.3053277814
  0
ELLIPSE
  5
789
100
AcDbEntity
  8
0
100
AcDbEllipse
 62
7
  6
CONTINUOUS
 10
-4.0459553394
 20
-23.2
 30
0.0
 11
0.4595995956
 21
0.0
 31
0.0
 40
0.9949884474
 41
2.3053277814
 42
2.644815645
  0
ELLIPSE
  5
78A
100
AcDbEntity
  8
0
100
AcDbEllipse
 62
7
  6
CONTINUOUS
 10
-9.0368706193
 20
22.3869087013
 30
0.0
 11
0.25
 21
0.0
 31
0.0
 40
0.0174550649
 41
-3.1241393611
 42
-1.5707963268
  0
ELLIPSE
  5
78B
100
AcDbEntity
  8
0
100
AcDbEllipse
 62
7
  6
CONTINUOUS
 10
8.7631293807
 20
22.3869087013
 30
0.0
 11
0.25
 21
0.0
 31
0.0
 40
0.0174550649
 41
-3.1241393611
 42
-1.5707963268
  0
ELLIPSE
  5
78C
100
AcDbEntity
  8
0
100
AcDbEllipse
 62
7
  6
CONTINUOUS
 10
-10.582468771
 20
-21.882468771
 30
0.0
 11
-0.3536610946
 21
-0.3536610946
 31
0.0
 40
0.9996954599
 41
-0.7852458701
 42
0.7852458701
  0
ELLIPSE
  5
78D
100
AcDbEntity
  8
0
100
AcDbEllipse
 62
7
  6
CONTINUOUS
 10
8.7631293807
 20
-23.5556624327
 30
0.0
 11
0.25
 21
-0.0
 31
0.0
 40
0.5773502692
 41
-3.1241393611
 42
-2.617993878
  0
ELLIPSE
  5
78E
100
AcDbEntity
  8
0
100
AcDbEllipse
 62
7
  6
CONTINUOUS
 10
8.7631293807
 20
-22.3869087013
 30
0.0
 11
0.25
 21
0.0
 31
0.0
 40
0.0174550649
 41
1.5707963268
 42
3.1241393611
  0
ELLIPSE
  5
78F
100
AcDbEntity
  8
0
100
AcDbEllipse
 62
7
  6
CONTINUOUS
 10
-9.0368706193
 20
-23.5556624327
 30
0.0
 11
0.25
 21
-0.0
 31
0.0
 40
0.5773502692
 41
-3.1241393611
 42
-2.617993878
  0
ELLIPSE
  5
790
100
AcDbEntity
  8
0
100
AcDbEllipse
 62
7
  6
CONTINUOUS
 10
-9.0368706193
 20
-22.3869087013
 30
0.0
 11
0.25
 21
0.0
 31
0.0
 40
0.0174550649
 41
1.5707963268
 42
3.1241393611
  0
ELLIPSE
  5
791
100
AcDbEntity
  8
0
100
AcDbEllipse
 62
7
  6
CONTINUOUS
 10
10.5824687711
 20
21.8824687711
 30
0.0
 11
0.3536610946
 21
0.3536610946
 31
0.0
 40
0.9996954599
 41
-0.7852458701
 42
0.7852458701
  0
ELLIPSE
  5
792
100
AcDbEntity
  8
0
100
AcDbEllipse
 62
7
  6
CONTINUOUS
 10
10.3999695344
 20
-23.3535898385
 30
0.0
 11
0.0069796346
 21
0.2308610084
 31
0.0
 40
0.8659264732
 41
-1.5358963758
 42
0.026173628
  0
ELLIPSE
  5
793
100
AcDbEntity
  8
0
100
AcDbEllipse
 62
7
  6
CONTINUOUS
 10
7.4000304656
 20
-23.3535898385
 30
0.0
 11
-0.0069796346
 21
0.2308610084
 31
0.0
 40
0.8659264732
 41
-0.026173628
 42
1.5358963756
  0
ELLIPSE
  5
794
100
AcDbEntity
  8
0
100
AcDbEllipse
 62
7
  6
CONTINUOUS
 10
-7.4000304656
 20
-23.3535898385
 30
0.0
 11
0.0069796346
 21
0.2308610084
 31
0.0
 40
0.8659264732
 41
-1.5358963758
 42
0.026173628
  0
ELLIPSE
  5
795
100
AcDbEntity
  8
0
100
AcDbEllipse
 62
7
  6
CONTINUOUS
 10
-10.582468771
 20
21.8824687711
 30
0.0
 11
0.3536610946
 21
-0.3536610946
 31
0.0
 40
0.9996954599
 41
2.3563467834
 42
3.9268385237
  0
ELLIPSE
  5
796
100
AcDbEntity
  8
0
100
AcDbEllipse
 62
7
  6
CONTINUOUS
 10
-10.3999695344
 20
-23.3535898385
 30
0.0
 11
-0.0069796346
 21
0.2308610084
 31
0.0
 40
0.8659264732
 41
-0.026173628
 42
1.5358963756
  0
ELLIPSE
  5
797
100
AcDbEntity
  8
0
100
AcDbEllipse
 62
7
  6
CONTINUOUS
 10
10.3999695344
 20
23.3535898385
 30
0.0
 11
-0.0069796346
 21
0.2308610084
 31
0.0
 40
0.8659264732
 41
-3.1677662815
 42
-1.6056962779
  0
ELLIPSE
  5
798
100
AcDbEntity
  8
0
100
AcDbEllipse
 62
7
  6
CONTINUOUS
 10
-7.4000304656
 20
23.3535898385
 30
0.0
 11
-0.0069796346
 21
0.2308610084
 31
0.0
 40
0.8659264732
 41
-3.1677662815
 42
-1.6056962779
  0
ELLIPSE
  5
799
100
AcDbEntity
  8
0
100
AcDbEllipse
 62
7
  6
CONTINUOUS
 10
10.5824687711
 20
-21.882468771
 30
0.0
 11
-0.3536610946
 21
0.3536610946
 31
0.0
 40
0.9996954599
 41
2.3563467834
 42
3.9268385237
  0
ELLIPSE
  5
79A
100
AcDbEntity
  8
0
100
AcDbEllipse
 62
7
  6
CONTINUOUS
 10
7.4000304656
 20
23.3535898385
 30
0.0
 11
0.0069796346
 21
0.2308610084
 31
0.0
 40
0.8659264732
 41
-4.6774890294
 42
-3.1154190256
  0
ELLIPSE
  5
79B
100
AcDbEntity
  8
RACCORDO
100
AcDbEllipse
 62
7
  6
CONTINUOUS
 10
-10.9744618847
 20
-3.6728635524
 30
0.0
 11
0.0
 21
0.7248712197
 31
0.0
 40
0.9656887748
 41
-3.1415926536
 42
-2.9627348897
  0
ELLIPSE
  5
79C
100
AcDbEntity
  8
RACCORDO
100
AcDbEllipse
 62
7
  6
CONTINUOUS
 10
-10.9744618847
 20
3.6728635524
 30
0.0
 11
0.0
 21
0.7248712197
 31
0.0
 40
0.9656887748
 41
-0.1788577639
 42
0.0
  0
ELLIPSE
  5
79D
100
AcDbEntity
  8
0
100
AcDbEllipse
 62
7
  6
CONTINUOUS
 10
-10.3999695344
 20
23.3535898385
 30
0.0
 11
0.0069796346
 21
0.2308610084
 31
0.0
 40
0.8659264732
 41
-4.6774890294
 42
-3.1154190256
  0
ELLIPSE
  5
79E
100
AcDbEntity
  8
RACCORDO
100
AcDbEllipse
 62
7
  6
CONTINUOUS
 10
10.9744618847
 20
3.6728635524
 30
0.0
 11
0.0
 21
0.7248712197
 31
0.0
 40
0.9656887748
 41
-0.0
 42
0.1788577639
  0
ELLIPSE
  5
79F
100
AcDbEntity
  8
RACCORDO
100
AcDbEllipse
 62
7
  6
CONTINUOUS
 10
10.9744618847
 20
-3.6728635524
 30
0.0
 11
-0.0
 21
0.7248712197
 31
0.0
 40
0.9656887748
 41
-3.3204504174
 42
-3.1415926536
  0
ELLIPSE
  5
7A0
100
AcDbEntity
  8
0
100
AcDbEllipse
 62
7
  6
CONTINUOUS
 10
3.9662724675
 20
-22.3020015105
 30
0.0
 11
0.3856702945
 21
-0.0
 31
0.0
 40
0.0174550649
 41
0.0174532925
 42
3.1241393611
  0
ELLIPSE
  5
7A1
100
AcDbEntity
  8
0
100
AcDbEllipse
 62
7
  6
CONTINUOUS
 10
3.9662724675
 20
22.3020015105
 30
0.0
 11
0.3856702945
 21
0.0
 31
0.0
 40
0.0174550649
 41
-3.1241393611
 42
-0.0174532925
  0
ELLIPSE
  5
7A2
100
AcDbEntity
  8
0
100
AcDbEllipse
 62
7
  6
CONTINUOUS
 10
-3.9662724675
 20
-22.3020015105
 30
0.0
 11
0.3856702945
 21
-0.0
 31
0.0
 40
0.0174550649
 41
0.0174532925
 42
3.1241393611
  0
ELLIPSE
  5
7A3
100
AcDbEntity
  8
0
100
AcDbEllipse
 62
7
  6
CONTINUOUS
 10
-3.9662724675
 20
22.3020015105
 30
0.0
 11
0.3856702945
 21
0.0
 31
0.0
 40
0.0174550649
 41
-3.1241393611
 42
-0.0174532925
  0
ELLIPSE
  5
7A4
100
AcDbEntity
  8
0
100
AcDbEllipse
 62
7
  6
CONTINUOUS
 10
3.750038082
 20
23.7325068531
 30
0.0
 11
-0.1768305473
 21
0.1768305473
 31
0.0
 40
0.9996954599
 41
-0.7852458702
 42
0.7852458701
  0
ELLIPSE
  5
7A5
100
AcDbEntity
  8
0
100
AcDbEllipse
 62
7
  6
CONTINUOUS
 10
-3.750038082
 20
23.7325068531
 30
0.0
 11
0.1768305473
 21
0.1768305473
 31
0.0
 40
0.9996954599
 41
-0.7852458701
 42
0.7852458702
  0
ELLIPSE
  5
7A6
100
AcDbEntity
  8
0
100
AcDbEllipse
 62
7
  6
CONTINUOUS
 10
-3.750038082
 20
-23.7325068531
 30
0.0
 11
0.1768305473
 21
-0.1768305473
 31
0.0
 40
0.9996954599
 41
-0.7852458701
 42
0.7852458701
  0
ELLIPSE
  5
7A7
100
AcDbEntity
  8
0
100
AcDbEllipse
 62
7
  6
CONTINUOUS
 10
3.750038082
 20
-23.7325068531
 30
0.0
 11
0.1768305473
 21
0.1768305473
 31
0.0
 40
0.9996954599
 41
-3.9268385237
 42
-2.3563467834
  0
ELLIPSE
  5
7A8
100
AcDbEntity
  8
ASSI
100
AcDbEllipse
 62
7
  6
CONTINUOUS
 10
-10.9744618847
 20
-3.6728635524
 30
0.0
 11
0.0
 21
0.7248712197
 31
0.0
 40
0.9656887748
 41
-3.1415926536
 42
-2.9627348897
  0
ELLIPSE
  5
7A9
100
AcDbEntity
  8
ASSI
100
AcDbEllipse
 62
7
  6
CONTINUOUS
 10
-10.9744618847
 20
3.6728635524
 30
0.0
 11
0.0
 21
0.7248712197
 31
0.0
 40
0.9656887748
 41
-0.1788577639
 42
0.0
  0
ELLIPSE
  5
7AA
100
AcDbEntity
  8
ASSI
100
AcDbEllipse
 62
7
  6
CONTINUOUS
 10
10.9744618847
 20
3.6728635524
 30
0.0
 11
0.0
 21
0.7248712197
 31
0.0
 40
0.9656887748
 41
-0.0
 42
0.1788577639
  0
ELLIPSE
  5
7AB
100
AcDbEntity
  8
ASSI
100
AcDbEllipse
 62
7
  6
CONTINUOUS
 10
10.9744618847
 20
-3.6728635524
 30
0.0
 11
-0.0
 21
0.7248712197
 31
0.0
 40
0.9656887748
 41
-3.3204504174
 42
-3.1415926536
  0
ELLIPSE
  5
7AC
100
AcDbEntity
  8
ASSI
100
AcDbEllipse
 62
7
  6
CONTINUOUS
 10
4.0459553394
 20
23.2
 30
0.0
 11
0.4595995956
 21
0.0
 31
0.0
 40
0.9949884474
 41
0.4967770086
 42
0.8362648721
  0
ELLIPSE
  5
7AD
100
AcDbEntity
  8
ASSI
100
AcDbEllipse
 62
7
  6
CONTINUOUS
 10
4.0459553394
 20
23.2
 30
0.0
 11
0.4595995956
 21
-0.0
 31
0.0
 40
0.9949884474
 41
-0.8362648721
 42
-0.4967770086
  0
ELLIPSE
  5
7AE
100
AcDbEntity
  8
ASSI
100
AcDbEllipse
 62
7
  6
CONTINUOUS
 10
4.0459553394
 20
-23.2
 30
0.0
 11
0.4595995956
 21
-0.0
 31
0.0
 40
0.9949884474
 41
0.4967770086
 42
0.8362648721
  0
ELLIPSE
  5
7AF
100
AcDbEntity
  8
ASSI
100
AcDbEllipse
 62
7
  6
CONTINUOUS
 10
4.0459553394
 20
-23.2
 30
0.0
 11
0.4595995956
 21
-0.0
 31
0.0
 40
0.9949884474
 41
-0.8362648721
 42
-0.4967770086
  0
ELLIPSE
  5
7B0
100
AcDbEntity
  8
ASSI
100
AcDbEllipse
 62
7
  6
CONTINUOUS
 10
1.0674931469
 20
-23.7325068531
 30
0.0
 11
0.1768305473
 21
0.1768305473
 31
0.0
 40
0.9996954599
 41
2.3563467834
 42
3.9268385237
  0
ELLIPSE
  5
7B1
100
AcDbEntity
  8
ASSI
100
AcDbEllipse
 62
7
  6
CONTINUOUS
 10
-1.0674931469
 20
-23.7325068531
 30
0.0
 11
0.1768305473
 21
-0.1768305473
 31
0.0
 40
0.9996954599
 41
-0.7852458701
 42
0.7852458701
  0
ELLIPSE
  5
7B2
100
AcDbEntity
  8
ASSI
100
AcDbEllipse
 62
7
  6
CONTINUOUS
 10
-1.0674931469
 20
23.7325068531
 30
0.0
 11
-0.1768305473
 21
-0.1768305473
 31
0.0
 40
0.9996954599
 41
2.3563467834
 42
3.9268385237
  0
ELLIPSE
  5
7B3
100
AcDbEntity
  8
ASSI
100
AcDbEllipse
 62
7
  6
CONTINUOUS
 10
1.0674931469
 20
23.7325068531
 30
0.0
 11
-0.1768305473
 21
0.1768305473
 31
0.0
 40
0.9996954599
 41
-0.7852458701
 42
0.7852458701
  0
ELLIPSE
  5
7B4
100
AcDbEntity
  8
ASSI
100
AcDbEllipse
 62
7
  6
CONTINUOUS
 10
9.0368706193
 20
23.5556624327
 30
0.0
 11
0.25
 21
0.0
 31
0.0
 40
0.5773502692
 41
0.0174532925
 42
0.5235987756
  0
ELLIPSE
  5
7B5
100
AcDbEntity
  8
ASSI
100
AcDbEllipse
 62
7
  6
CONTINUOUS
 10
9.0368706193
 20
22.3869087013
 30
0.0
 11
0.25
 21
0.0
 31
0.0
 40
0.0174550649
 41
-1.5707963268
 42
-0.0174532925
  0
ELLIPSE
  5
7B6
100
AcDbEntity
  8
ASSI
100
AcDbEllipse
 62
7
  6
CONTINUOUS
 10
-8.7631293807
 20
23.5556624327
 30
0.0
 11
0.25
 21
-0.0
 31
0.0
 40
0.5773502692
 41
0.0174532925
 42
0.5235987756
  0
ELLIPSE
  5
7B7
100
AcDbEntity
  8
ASSI
100
AcDbEllipse
 62
7
  6
CONTINUOUS
 10
-8.7631293807
 20
22.3869087013
 30
0.0
 11
0.25
 21
-0.0
 31
0.0
 40
0.0174550649
 41
-1.5707963268
 42
-0.0174532925
  0
ELLIPSE
  5
7B8
100
AcDbEntity
  8
ASSI
100
AcDbEllipse
 62
7
  6
CONTINUOUS
 10
9.0368706193
 20
-22.3869087013
 30
0.0
 11
0.25
 21
0.0
 31
0.0
 40
0.0174550649
 41
0.0174532925
 42
1.5707963268
  0
ELLIPSE
  5
7B9
100
AcDbEntity
  8
ASSI
100
AcDbEllipse
 62
7
  6
CONTINUOUS
 10
-8.7631293807
 20
-22.3869087013
 30
0.0
 11
0.25
 21
0.0
 31
0.0
 40
0.0174550649
 41
0.0174532925
 42
1.5707963268
  0
ELLIPSE
  5
7BA
100
AcDbEntity
  8
ASSI
100
AcDbEllipse
 62
7
  6
CONTINUOUS
 10
-9.0368706193
 20
22.3869087013
 30
0.0
 11
0.25
 21
0.0
 31
0.0
 40
0.0174550649
 41
-3.1241393611
 42
-1.5707963268
  0
ELLIPSE
  5
7BB
100
AcDbEntity
  8
ASSI
100
AcDbEllipse
 62
7
  6
CONTINUOUS
 10
8.7631293807
 20
22.3869087013
 30
0.0
 11
0.25
 21
0.0
 31
0.0
 40
0.0174550649
 41
-3.1241393611
 42
-1.5707963268
  0
ELLIPSE
  5
7BC
100
AcDbEntity
  8
ASSI
100
AcDbEllipse
 62
7
  6
CONTINUOUS
 10
8.7631293807
 20
-23.5556624327
 30
0.0
 11
0.25
 21
-0.0
 31
0.0
 40
0.5773502692
 41
-3.1241393611
 42
-2.617993878
  0
ELLIPSE
  5
7BD
100
AcDbEntity
  8
ASSI
100
AcDbEllipse
 62
7
  6
CONTINUOUS
 10
8.7631293807
 20
-22.3869087013
 30
0.0
 11
0.25
 21
0.0
 31
0.0
 40
0.0174550649
 41
1.5707963268
 42
3.1241393611
  0
ELLIPSE
  5
7BE
100
AcDbEntity
  8
ASSI
100
AcDbEllipse
 62
7
  6
CONTINUOUS
 10
-9.0368706193
 20
-23.5556624327
 30
0.0
 11
0.25
 21
-0.0
 31
0.0
 40
0.5773502692
 41
-3.1241393611
 42
-2.617993878
  0
ELLIPSE
  5
7BF
100
AcDbEntity
  8
ASSI
100
AcDbEllipse
 62
7
  6
CONTINUOUS
 10
-9.0368706193
 20
-22.3869087013
 30
0.0
 11
0.25
 21
0.0
 31
0.0
 40
0.0174550649
 41
1.5707963268
 42
3.1241393611
  0
ELLIPSE
  5
7C0
100
AcDbEntity
  8
ASSI
100
AcDbEllipse
 62
7
  6
CONTINUOUS
 10
10.3999695344
 20
-23.3535898385
 30
0.0
 11
0.0069796346
 21
0.2308610084
 31
0.0
 40
0.8659264732
 41
-1.5358963758
 42
0.026173628
  0
ELLIPSE
  5
7C1
100
AcDbEntity
  8
ASSI
100
AcDbEllipse
 62
7
  6
CONTINUOUS
 10
7.4000304656
 20
-23.3535898385
 30
0.0
 11
-0.0069796346
 21
0.2308610084
 31
0.0
 40
0.8659264732
 41
-0.026173628
 42
1.5358963756
  0
ELLIPSE
  5
7C2
100
AcDbEntity
  8
ASSI
100
AcDbEllipse
 62
7
  6
CONTINUOUS
 10
-7.4000304656
 20
-23.3535898385
 30
0.0
 11
0.0069796346
 21
0.2308610084
 31
0.0
 40
0.8659264732
 41
-1.5358963758
 42
0.026173628
  0
ELLIPSE
  5
7C3
100
AcDbEntity
  8
ASSI
100
AcDbEllipse
 62
7
  6
CONTINUOUS
 10
-10.3999695344
 20
-23.3535898385
 30
0.0
 11
-0.0069796346
 21
0.2308610084
 31
0.0
 40
0.8659264732
 41
-0.026173628
 42
1.5358963756
  0
ELLIPSE
  5
7C4
100
AcDbEntity
  8
ASSI
100
AcDbEllipse
 62
7
  6
CONTINUOUS
 10
10.3999695344
 20
23.3535898385
 30
0.0
 11
-0.0069796346
 21
0.2308610084
 31
0.0
 40
0.8659264732
 41
-3.1677662815
 42
-1.6056962779
  0
ELLIPSE
  5
7C5
100
AcDbEntity
  8
ASSI
100
AcDbEllipse
 62
7
  6
CONTINUOUS
 10
-7.4000304656
 20
23.3535898385
 30
0.0
 11
-0.0069796346
 21
0.2308610084
 31
0.0
 40
0.8659264732
 41
-3.1677662815
 42
-1.6056962779
  0
ELLIPSE
  5
7C6
100
AcDbEntity
  8
ASSI
100
AcDbEllipse
 62
7
  6
CONTINUOUS
 10
7.4000304656
 20
23.3535898385
 30
0.0
 11
0.0069796346
 21
0.2308610084
 31
0.0
 40
0.8659264732
 41
-4.6774890294
 42
-3.1154190256
  0
ELLIPSE
  5
7C7
100
AcDbEntity
  8
ASSI
100
AcDbEllipse
 62
7
  6
CONTINUOUS
 10
8.7631293807
 20
23.5556624327
 30
0.0
 11
0.25
 21
0.0
 31
0.0
 40
0.5773502692
 41
2.617993878
 42
3.1241393611
  0
ELLIPSE
  5
7C8
100
AcDbEntity
  8
ASSI
100
AcDbEllipse
 62
7
  6
CONTINUOUS
 10
-10.3999695344
 20
23.3535898385
 30
0.0
 11
0.0069796346
 21
0.2308610084
 31
0.0
 40
0.8659264732
 41
-4.6774890294
 42
-3.1154190256
  0
ELLIPSE
  5
7C9
100
AcDbEntity
  8
ASSI
100
AcDbEllipse
 62
7
  6
CONTINUOUS
 10
3.9662724675
 20
-22.3020015105
 30
0.0
 11
0.3856702945
 21
-0.0
 31
0.0
 40
0.0174550649
 41
0.0174532925
 42
3.1241393611
  0
ELLIPSE
  5
7CA
100
AcDbEntity
  8
ASSI
100
AcDbEllipse
 62
7
  6
CONTINUOUS
 10
3.9662724675
 20
22.3020015105
 30
0.0
 11
0.3856702945
 21
0.0
 31
0.0
 40
0.0174550649
 41
-3.1241393611
 42
-0.0174532925
  0
ELLIPSE
  5
7CB
100
AcDbEntity
  8
ASSI
100
AcDbEllipse
 62
7
  6
CONTINUOUS
 10
-3.9662724675
 20
-22.3020015105
 30
0.0
 11
0.3856702945
 21
-0.0
 31
0.0
 40
0.0174550649
 41
0.0174532925
 42
3.1241393611
  0
ELLIPSE
  5
7CC
100
AcDbEntity
  8
ASSI
100
AcDbEllipse
 62
7
  6
CONTINUOUS
 10
-3.9662724675
 20
22.3020015105
 30
0.0
 11
0.3856702945
 21
0.0
 31
0.0
 40
0.0174550649
 41
-3.1241393611
 42
-0.0174532925
  0
ELLIPSE
  5
7CD
100
AcDbEntity
  8
ASSI
100
AcDbEllipse
 62
7
  6
CONTINUOUS
 10
3.750038082
 20
23.7325068531
 30
0.0
 11
-0.1768305473
 21
0.1768305473
 31
0.0
 40
0.9996954599
 41
-0.7852458702
 42
0.7852458701
  0
ELLIPSE
  5
7CE
100
AcDbEntity
  8
ASSI
100
AcDbEllipse
 62
7
  6
CONTINUOUS
 10
-3.750038082
 20
23.7325068531
 30
0.0
 11
0.1768305473
 21
0.1768305473
 31
0.0
 40
0.9996954599
 41
-0.7852458701
 42
0.7852458702
  0
ELLIPSE
  5
7CF
100
AcDbEntity
  8
ASSI
100
AcDbEllipse
 62
7
  6
CONTINUOUS
 10
-4.0459553394
 20
23.2
 30
0.0
 11
0.4595995956
 21
0.0
 31
0.0
 40
0.9949884474
 41
-2.644815645
 42
-2.3053277814
  0
ELLIPSE
  5
7D0
100
AcDbEntity
  8
ASSI
100
AcDbEllipse
 62
7
  6
CONTINUOUS
 10
-3.750038082
 20
-23.7325068531
 30
0.0
 11
0.1768305473
 21
-0.1768305473
 31
0.0
 40
0.9996954599
 41
-0.7852458701
 42
0.7852458701
  0
ELLIPSE
  5
7D1
100
AcDbEntity
  8
ASSI
100
AcDbEllipse
 62
7
  6
CONTINUOUS
 10
-4.0459553394
 20
23.2
 30
0.0
 11
0.4595995956
 21
0.0
 31
0.0
 40
0.9949884474
 41
2.3053277814
 42
2.644815645
  0
ELLIPSE
  5
7D2
100
AcDbEntity
  8
ASSI
100
AcDbEllipse
 62
7
  6
CONTINUOUS
 10
-4.0459553394
 20
-23.2
 30
0.0
 11
0.4595995956
 21
0.0
 31
0.0
 40
0.9949884474
 41
-2.644815645
 42
-2.3053277814
  0
ELLIPSE
  5
7D3
100
AcDbEntity
  8
ASSI
100
AcDbEllipse
 62
7
  6
CONTINUOUS
 10
-4.0459553394
 20
-23.2
 30
0.0
 11
0.4595995956
 21
0.0
 31
0.0
 40
0.9949884474
 41
2.3053277814
 42
2.644815645
  0
ELLIPSE
  5
7D4
100
AcDbEntity
  8
ASSI
100
AcDbEllipse
 62
7
  6
CONTINUOUS
 10
3.750038082
 20
-23.7325068531
 30
0.0
 11
0.1768305473
 21
0.1768305473
 31
0.0
 40
0.9996954599
 41
-3.9268385237
 42
-2.3563467834
  0
ELLIPSE
  5
7D5
100
AcDbEntity
  8
ASSI
100
AcDbEllipse
 62
7
  6
CONTINUOUS
 10
-9.0368706193
 20
23.5556624327
 30
0.0
 11
0.25
 21
-0.0
 31
0.0
 40
0.5773502692
 41
2.617993878
 42
3.1241393611
  0
ELLIPSE
  5
7D6
100
AcDbEntity
  8
ASSI
100
AcDbEllipse
 62
7
  6
CONTINUOUS
 10
9.0368706193
 20
-23.5556624327
 30
0.0
 11
0.25
 21
-0.0
 31
0.0
 40
0.5773502692
 41
-0.5235987756
 42
-0.0174532925
  0
ELLIPSE
  5
7D7
100
AcDbEntity
  8
ASSI
100
AcDbEllipse
 62
7
  6
CONTINUOUS
 10
-10.582468771
 20
-21.882468771
 30
0.0
 11
-0.3536610946
 21
-0.3536610946
 31
0.0
 40
0.9996954599
 41
-0.7852458701
 42
0.7852458701
  0
ELLIPSE
  5
7D8
100
AcDbEntity
  8
ASSI
100
AcDbEllipse
 62
7
  6
CONTINUOUS
 10
10.5824687711
 20
21.8824687711
 30
0.0
 11
0.3536610946
 21
0.3536610946
 31
0.0
 40
0.9996954599
 41
-0.7852458701
 42
0.7852458701
  0
ELLIPSE
  5
7D9
100
AcDbEntity
  8
ASSI
100
AcDbEllipse
 62
7
  6
CONTINUOUS
 10
-8.7631293807
 20
-23.5556624327
 30
0.0
 11
0.25
 21
-0.0
 31
0.0
 40
0.5773502692
 41
-0.5235987756
 42
-0.0174532925
  0
ELLIPSE
  5
7DA
100
AcDbEntity
  8
ASSI
100
AcDbEllipse
 62
7
  6
CONTINUOUS
 10
-10.582468771
 20
21.8824687711
 30
0.0
 11
0.3536610946
 21
-0.3536610946
 31
0.0
 40
0.9996954599
 41
2.3563467834
 42
3.9268385237
  0
ELLIPSE
  5
7DB
100
AcDbEntity
  8
ASSI
100
AcDbEllipse
 62
7
  6
CONTINUOUS
 10
10.5824687711
 20
-21.882468771
 30
0.0
 11
-0.3536610946
 21
0.3536610946
 31
0.0
 40
0.9996954599
 41
2.3563467834
 42
3.9268385237
  0
ELLIPSE
  5
7DC
100
AcDbEntity
  8
GUSCI_ESTERNI
100
AcDbEllipse
 62
7
  6
CONTINUOUS
 10
-8.5978332664
 20
-16.15
 30
0.0
 11
0.9931323188
 21
0.0
 31
0.0
 40
0.9999976201
 41
3.1415926535
 42
4.7102072617
  0
ELLIPSE
  5
7DD
100
AcDbEntity
  8
GUSCI_ESTERNI
100
AcDbEllipse
 62
7
  6
CONTINUOUS
 10
-8.5978332664
 20
-14.15
 30
0.0
 11
0.9931323188
 21
-0.0
 31
0.0
 40
0.9999976201
 41
1.5729780455
 42
3.1415926536
  0
ELLIPSE
  5
7DE
100
AcDbEntity
  8
GUSCI_ESTERNI
100
AcDbEllipse
 62
7
  6
CONTINUOUS
 10
-8.5978332664
 20
14.15
 30
0.0
 11
0.9931323188
 21
0.0
 31
0.0
 40
0.9999976201
 41
3.1415926536
 42
4.7102072617
  0
ELLIPSE
  5
7DF
100
AcDbEntity
  8
GUSCI_ESTERNI
100
AcDbEllipse
 62
7
  6
CONTINUOUS
 10
-8.5978332664
 20
16.15
 30
0.0
 11
0.9931323188
 21
-0.0
 31
0.0
 40
0.9999976201
 41
1.5729780455
 42
3.141592653
  0
ELLIPSE
  5
7E0
100
AcDbEntity
  8
ASSI
100
AcDbEllipse
 62
7
  6
CONTINUOUS
 10
-8.5978332664
 20
16.15
 30
0.0
 11
0.9931323188
 21
0.0
 31
0.0
 40
0.9999976201
 41
1.5729780455
 42
3.1415926535
  0
ELLIPSE
  5
7E1
100
AcDbEntity
  8
ASSI
100
AcDbEllipse
 62
7
  6
CONTINUOUS
 10
-8.5978332664
 20
14.15
 30
0.0
 11
0.9931323188
 21
0.0
 31
0.0
 40
0.9999976201
 41
3.1415926536
 42
4.7102072617
  0
ELLIPSE
  5
7E2
100
AcDbEntity
  8
ASSI
100
AcDbEllipse
 62
7
  6
CONTINUOUS
 10
-8.5978332664
 20
-14.15
 30
0.0
 11
0.9931323188
 21
-0.0000000001
 31
0.0
 40
0.9999976201
 41
7.8561633528
 42
9.4247779609
  0
ELLIPSE
  5
7E3
100
AcDbEntity
  8
ASSI
100
AcDbEllipse
 62
7
  6
CONTINUOUS
 10
-8.5978332664
 20
-16.15
 30
0.0
 11
0.9931323188
 21
-0.0
 31
0.0
 40
0.9999976201
 41
3.1415926535
 42
4.7102072618
  0
ENDSEC
  0
SECTION
  2
OBJECTS
  0
DICTIONARY
  5
C
100
AcDbDictionary
280
0
281
1
  3
ACAD_GROUP
350
D
  3
ACAD_MLINESTYLE
350
17
  3
ACAD_LAYOUT
350
1A
  3
ACAD_PLOTSETTINGS
350
19
  3
ACAD_PLOTSTYLENAME
350
E
  0
DICTIONARY
  5
D
102
{ACAD_REACTORS
330
C
102
}
100
AcDbDictionary
280
0
281
1
  0
ACDBDICTIONARYWDFLT
  5
E
102
{ACAD_REACTORS
330
C
102
}
100
AcDbDictionary
281
1
  3
Normal
350
F
100
AcDbDictionaryWithDefault
340
F
  0
DICTIONARY
  5
17
102
{ACAD_REACTORS
330
C
102
}
100
AcDbDictionary
280
0
281
1
  3
Standard
350
18
  0
DICTIONARY
  5
19
102
{ACAD_REACTORS
330
C
102
}
100
AcDbDictionary
281
1
  0
DICTIONARY
  5
1A
102
{ACAD_REACTORS
330
C
102
}
100
AcDbDictionary
281
1
  3
Model
350
7E4
  3
Layout1
350
7E5
  0
ACDBPLACEHOLDER
  5
F
102
{ACAD_REACTORS
330
E
102
}
  0
MLINESTYLE
  5
18
102
{ACAD_REACTORS
330
17
102
}
100
AcDbMlineStyle
  2
STANDARD
 70
0
  3

 62
256
 51
90.0
 52
90.0
 71
2
 49
0.5
 62
256
  6
BYLAYER
 49
-0.5
 62
256
  6
BYLAYER
  0
LAYOUT
  5
7E4
102
{ACAD_REACTORS
330
1A
102
}
100
AcDbPlotSettings
  1

  2
none_device
  4
ISO_A4_(297.00_x_210.00_MM)
  6

 40
0.0
 41
0.0
 42
0.0
 43
0.0
 44
297.0
 45
210.0
 46
0.0
 47
0.0
 48
0.0
 49
0.0
140
0.0
141
0.0
142
1.0
143
1.0
 70
1024
 72
1
 73
0
 74
0
  7

 75
0
147
1.0
148
0.0
149
0.0
100
AcDbLayout
  1
Model
 70
0
 71
0
 10
0.0
 20
0.0
 11
297.0
 21
210.0
 12
0.0
 22
0.0
 32
0.0
 14
0.0
 24
0.0
 34
0.0
 15
0.0
 25
0.0
 35
0.0
146
0.0
 13
0.0
 23
0.0
 33
0.0
 16
1.0
 26
0.0
 36
0.0
 17
0.0
 27
1.0
 37
0.0
 76
0
330
22B
345
0
346
0
  0
LAYOUT
  5
7E5
102
{ACAD_REACTORS
330
1A
102
}
100
AcDbPlotSettings
  1

  2
none_device
  4
ISO_A4_(297.00_x_210.00_MM)
  6

 40
0.0
 41
0.0
 42
0.0
 43
0.0
 44
297.0
 45
210.0
 46
0.0
 47
0.0
 48
0.0
 49
0.0
140
0.0
141
0.0
142
1.0
143
1.0
 70
0
 72
1
 73
0
 74
0
  7

 75
0
147
1.0
148
0.0
149
0.0
100
AcDbLayout
  1
Layout1
 70
0
 71
1
 10
0.0
 20
0.0
 11
297.0
 21
210.0
 12
0.0
 22
0.0
 32
0.0
 14
0.0
 24
0.0
 34
0.0
 15
0.0
 25
0.0
 35
0.0
146
0.0
 13
0.0
 23
0.0
 33
0.0
 16
1.0
 26
0.0
 36
0.0
 17
0.0
 27
1.0
 37
0.0
 76
0
330
22C
345
0
346
0
  0
ENDSEC
  0
EOF
