  0
SECTION
  2
HEADER
  9
$ACADVER
  1
AC1015
  9
$DWGCODEPAGE
  3
ANSI_1252
  9
$EXTMAX
 10
297.0
 20
210.0
 30
0.0
  9
$EXTMIN
 10
0.0
 20
0.0
 30
0.0
  9
$LIMMIN
 10
0.0
 20
0.0
  9
$LIMMAX
 10
297.0
 20
210.0
  9
$VIEWCTR
 10
148.5
 20
105.0
  9
$VIEWSIZE
 40
210.0
  9
$CLAYER
  8
0
  9
$LTSCALE
 40
16.335
  9
$CELTYPE
  6
BYLAYER
  9
$DIMSCALE
 40
1.0
  9
$DIMASZ
 40
3.0
  9
$DIMEXO
 40
1.85625
  9
$DIMDLI
 40
11.286
  9
$DIMEXE
 40
5.346
  9
$DIMCEN
 40
2.673
  9
$DIMLFAC
 40
1.0
  9
$DIMBLK
  1
_FILLED
  9
$DIMTXT
 40
3.0
  9
$DIMTOL
 70
1
  9
$DIMLIM
 70
0
  9
$DIMTFAC
 40
1.0
  9
$DIMTP
 40
0.01
  9
$DIMTM
 40
0.01
  9
$PDMODE
 70
3
  9
$PDSIZE
 40
3.0
  9
$HANDSEED
  5
4D5
  9
$TILEMODE
 70
1
  9
$MEASUREMENT
 70
1
  9
$INSUNITS
 70
4
  0
ENDSEC
  0
SECTION
  2
CLASSES
  0
CLASS
  1
ACDBDICTIONARYWDFLT
  2
AcDbDictionaryWithDefault
  3
AutoCAD 2000
 90
0
280
0
281
0
  0
CLASS
  1
ACDBPLACEHOLDER
  2
AcDbPlaceHolder
  3
AutoCAD 2000
 90
0
280
0
281
0
  0
CLASS
  1
LAYOUT
  2
AcDbLayout
  3
AutoCAD 2000
 90
0
280
0
281
0
  0
ENDSEC
  0
SECTION
  2
TABLES
  0
TABLE
  2
VPORT
  5
8
100
AcDbSymbolTable
 70
2
  0
VPORT
  5
1F4
100
AcDbSymbolTableRecord
100
AcDbViewportTableRecord
  2
*ACTIVE
 70
0
 10
0.0
 20
0.0
 11
1.0
 21
1.0
 12
148.5
 22
105.0
 13
0.0
 23
0.0
 14
1.0
 24
1.0
 15
0.0
 25
0.0
 16
0.0
 26
0.0
 36
1.0
 17
0.0
 27
0.0
 37
0.0
 40
210.0
 41
1.4142857143
 42
50.0
 43
0.0
 44
0.0
 50
0.0
 51
0.0
 71
0
 72
100
 73
1
 74
1
 75
0
 76
0
 77
0
 78
0
  0
ENDTAB
  0
TABLE
  2
LTYPE
  5
5
100
AcDbSymbolTable
 70
6
  0
LTYPE
  5
14
100
AcDbSymbolTableRecord
100
AcDbLinetypeTableRecord
  2
BYBLOCK
 70
0
  3

 72
65
 73
0
 40
0.0
  0
LTYPE
  5
15
100
AcDbSymbolTableRecord
100
AcDbLinetypeTableRecord
  2
BYLAYER
 70
0
  3

 72
65
 73
0
 40
0.0
  0
LTYPE
  5
16
100
AcDbSymbolTableRecord
100
AcDbLinetypeTableRecord
  2
CONTINUOUS
 70
64
  3
Solid line
 72
65
 73
0
 40
0.0
  0
LTYPE
  5
1F5
100
AcDbSymbolTableRecord
100
AcDbLinetypeTableRecord
  2
CENTER
 70
64
  3
____ _ ____ _ ____ _ ____ _ ____ _ ____ _ ____
 72
65
 73
4
 40
0.6
 49
0.375
 74
0
 49
-0.075
 74
0
 49
0.075
 74
0
 49
-0.075
 74
0
  0
LTYPE
  5
1F6
100
AcDbSymbolTableRecord
100
AcDbLinetypeTableRecord
  2
HIDDEN
 70
64
  3
- - - - - - - - - - - - - - - - - - - -
 72
65
 73
2
 40
0.2
 49
0.1
 74
0
 49
-0.1
 74
0
  0
LTYPE
  5
1F7
100
AcDbSymbolTableRecord
100
AcDbLinetypeTableRecord
  2
PHANTOM
 70
64
  3
_____ _ _ _____ _ _ _____ _ _ _____
 72
65
 73
6
 40
0.8
 49
0.45
 74
0
 49
-0.05
 74
0
 49
0.1
 74
0
 49
-0.05
 74
0
 49
0.1
 74
0
 49
-0.05
 74
0
  0
LTYPE
  5
1F8
100
AcDbSymbolTableRecord
100
AcDbLinetypeTableRecord
  2
DOT
 70
64
  3
. . . . . . . . . . . . . . . . . . . .
 72
65
 73
2
 40
0.2
 49
0.1
 74
0
 49
-0.1
 74
0
  0
LTYPE
  5
1F9
100
AcDbSymbolTableRecord
100
AcDbLinetypeTableRecord
  2
DASHED
 70
64
  3
- - - - - - - - - - - - - - - - - - - -
 72
65
 73
2
 40
0.2
 49
0.1
 74
0
 49
-0.1
 74
0
  0
ENDTAB
  0
TABLE
  2
LAYER
  5
2
100
AcDbSymbolTable
 70
36
  0
LAYER
  5
10
100
AcDbSymbolTableRecord
100
AcDbLayerTableRecord
  2
0
 70
0
 62
7
  6
CONTINUOUS
370
-3
390
F
  0
LAYER
  5
1FA
100
AcDbSymbolTableRecord
100
AcDbLayerTableRecord
  2
DEFAULT_1
 70
0
 62
7
  6
CENTER
370
-3
390
F
  0
LAYER
  5
1FB
100
AcDbSymbolTableRecord
100
AcDbLayerTableRecord
  2
DEFAULT_2
 70
0
 62
7
  6
HIDDEN
370
-3
390
F
  0
LAYER
  5
1FC
100
AcDbSymbolTableRecord
100
AcDbLayerTableRecord
  2
DEFAULT_3
 70
0
 62
7
  6
PHANTOM
370
-3
390
F
  0
LAYER
  5
1FD
100
AcDbSymbolTableRecord
100
AcDbLayerTableRecord
  2
_  SHELL
 70
0
 62
7
  6
CONTINUOUS
370
-3
390
F
  0
LAYER
  5
1FE
100
AcDbSymbolTableRecord
100
AcDbLayerTableRecord
  2
200A_170000
 70
0
 62
7
  6
CONTINUOUS
370
-3
390
F
  0
LAYER
  5
1FF
100
AcDbSymbolTableRecord
100
AcDbLayerTableRecord
  2
200A_170000_1
 70
0
 62
7
  6
CONTINUOUS
370
-3
390
F
  0
LAYER
  5
200
100
AcDbSymbolTableRecord
100
AcDbLayerTableRecord
  2
2125-CC-RF-VIMAR_65000
 70
0
 62
7
  6
CONTINUOUS
370
-3
390
F
  0
LAYER
  5
201
100
AcDbSymbolTableRecord
100
AcDbLayerTableRecord
  2
2125-CC-RF-VIMAR_65000_1
 70
0
 62
7
  6
CONTINUOUS
370
-3
390
F
  0
LAYER
  5
202
100
AcDbSymbolTableRecord
100
AcDbLayerTableRecord
  2
2125-CC-RF-VIMAR_65000_2
 70
0
 62
7
  6
CONTINUOUS
370
-3
390
F
  0
LAYER
  5
203
100
AcDbSymbolTableRecord
100
AcDbLayerTableRecord
  2
2125-DL-RF-FINE_VIMAR_110000
 70
0
 62
7
  6
CONTINUOUS
370
-3
390
F
  0
LAYER
  5
204
100
AcDbSymbolTableRecord
100
AcDbLayerTableRecord
  2
2125-DL-RF-FINE_VIMAR_110000_1
 70
0
 62
7
  6
CONTINUOUS
370
-3
390
F
  0
LAYER
  5
205
100
AcDbSymbolTableRecord
100
AcDbLayerTableRecord
  2
2125-DL-RF-FINE_VIMAR_110000_2
 70
0
 62
7
  6
CONTINUOUS
370
-3
390
F
  0
LAYER
  5
206
100
AcDbSymbolTableRecord
100
AcDbLayerTableRecord
  2
2125-R1-RF-VIMAR_60000
 70
0
 62
7
  6
CONTINUOUS
370
-3
390
F
  0
LAYER
  5
207
100
AcDbSymbolTableRecord
100
AcDbLayerTableRecord
  2
2125-R1-RF-VIMAR_60000_1
 70
0
 62
7
  6
CONTINUOUS
370
-3
390
F
  0
LAYER
  5
208
100
AcDbSymbolTableRecord
100
AcDbLayerTableRecord
  2
2125-R1-RF-VIMAR_60000_2
 70
0
 62
7
  6
CONTINUOUS
370
-3
390
F
  0
LAYER
  5
209
100
AcDbSymbolTableRecord
100
AcDbLayerTableRecord
  2
3216-CF-RF-VIMAR_100000
 70
0
 62
7
  6
CONTINUOUS
370
-3
390
F
  0
LAYER
  5
20A
100
AcDbSymbolTableRecord
100
AcDbLayerTableRecord
  2
3216-CF-RF-VIMAR_100000_1
 70
0
 62
7
  6
CONTINUOUS
370
-3
390
F
  0
LAYER
  5
20B
100
AcDbSymbolTableRecord
100
AcDbLayerTableRecord
  2
3216-CS2-RF_1_180000
 70
0
 62
7
  6
CONTINUOUS
370
-3
390
F
  0
LAYER
  5
20C
100
AcDbSymbolTableRecord
100
AcDbLayerTableRecord
  2
3216-CS2-RF_1_180000_1
 70
0
 62
7
  6
CONTINUOUS
370
-3
390
F
  0
LAYER
  5
20D
100
AcDbSymbolTableRecord
100
AcDbLayerTableRecord
  2
3216-R1-RF-VIMAR_60000
 70
0
 62
7
  6
CONTINUOUS
370
-3
390
F
  0
LAYER
  5
20E
100
AcDbSymbolTableRecord
100
AcDbLayerTableRecord
  2
3225-L-RF-1-VIMAR_220000
 70
0
 62
7
  6
CONTINUOUS
370
-3
390
F
  0
LAYER
  5
20F
100
AcDbSymbolTableRecord
100
AcDbLayerTableRecord
  2
3225-L-RF-1-VIMAR_220000_1
 70
0
 62
7
  6
CONTINUOUS
370
-3
390
F
  0
LAYER
  5
210
100
AcDbSymbolTableRecord
100
AcDbLayerTableRecord
  2
3225-L-RF-VIMAR_220000
 70
0
 62
7
  6
CONTINUOUS
370
-3
390
F
  0
LAYER
  5
211
100
AcDbSymbolTableRecord
100
AcDbLayerTableRecord
  2
43000440
 70
0
 62
7
  6
CONTINUOUS
370
-3
390
F
  0
LAYER
  5
212
100
AcDbSymbolTableRecord
100
AcDbLayerTableRecord
  2
43000441A0
 70
0
 62
7
  6
CONTINUOUS
370
-3
390
F
  0
LAYER
  5
213
100
AcDbSymbolTableRecord
100
AcDbLayerTableRecord
  2
4532-R-RF_60000
 70
0
 62
7
  6
CONTINUOUS
370
-3
390
F
  0
LAYER
  5
214
100
AcDbSymbolTableRecord
100
AcDbLayerTableRecord
  2
6032-CS-RF_250000
 70
0
 62
7
  6
CONTINUOUS
370
-3
390
F
  0
LAYER
  5
215
100
AcDbSymbolTableRecord
100
AcDbLayerTableRecord
  2
ASM0001
 70
0
 62
7
  6
CONTINUOUS
370
-3
390
F
  0
LAYER
  5
216
100
AcDbSymbolTableRecord
100
AcDbLayerTableRecord
  2
ASSI
 70
0
 62
7
  6
CONTINUOUS
370
-3
390
F
  0
LAYER
  5
217
100
AcDbSymbolTableRecord
100
AcDbLayerTableRecord
  2
BZ-BST-0841A_330000
 70
0
 62
7
  6
CONTINUOUS
370
-3
390
F
  0
LAYER
  5
218
100
AcDbSymbolTableRecord
100
AcDbLayerTableRecord
  2
CAPC1608N_80000
 70
0
 62
7
  6
CONTINUOUS
370
-3
390
F
  0
LAYER
  5
219
100
AcDbSymbolTableRecord
100
AcDbLayerTableRecord
  2
CAPC1608N_80000_1
 70
0
 62
7
  6
CONTINUOUS
370
-3
390
F
  0
LAYER
  5
21A
100
AcDbSymbolTableRecord
100
AcDbLayerTableRecord
  2
CAPC1608N_80000_10
 70
0
 62
7
  6
CONTINUOUS
370
-3
390
F
  0
LAYER
  5
21B
100
AcDbSymbolTableRecord
100
AcDbLayerTableRecord
  2
CAPC1608N_80000_11
 70
0
 62
7
  6
CONTINUOUS
370
-3
390
F
  0
LAYER
  5
21C
100
AcDbSymbolTableRecord
100
AcDbLayerTableRecord
  2
CAPC1608N_80000_12
 70
0
 62
7
  6
CONTINUOUS
370
-3
390
F
  0
LAYER
  5
21D
100
AcDbSymbolTableRecord
100
AcDbLayerTableRecord
  2
CAPC1608N_80000_13
 70
0
 62
7
  6
CONTINUOUS
370
-3
390
F
  0
LAYER
  5
21E
100
AcDbSymbolTableRecord
100
AcDbLayerTableRecord
  2
CAPC1608N_80000_14
 70
0
 62
7
  6
CONTINUOUS
370
-3
390
F
  0
LAYER
  5
21F
100
AcDbSymbolTableRecord
100
AcDbLayerTableRecord
  2
CAPC1608N_80000_15
 70
0
 62
7
  6
CONTINUOUS
370
-3
390
F
  0
LAYER
  5
220
100
AcDbSymbolTableRecord
100
AcDbLayerTableRecord
  2
CAPC1608N_80000_16
 70
0
 62
7
  6
CONTINUOUS
370
-3
390
F
  0
LAYER
  5
221
100
AcDbSymbolTableRecord
100
AcDbLayerTableRecord
  2
CAPC1608N_80000_17
 70
0
 62
7
  6
CONTINUOUS
370
-3
390
F
  0
LAYER
  5
222
100
AcDbSymbolTableRecord
100
AcDbLayerTableRecord
  2
CAPC1608N_80000_18
 70
0
 62
7
  6
CONTINUOUS
370
-3
390
F
  0
LAYER
  5
223
100
AcDbSymbolTableRecord
100
AcDbLayerTableRecord
  2
CAPC1608N_80000_19
 70
0
 62
7
  6
CONTINUOUS
370
-3
390
F
  0
LAYER
  5
224
100
AcDbSymbolTableRecord
100
AcDbLayerTableRecord
  2
CAPC1608N_80000_2
 70
0
 62
7
  6
CONTINUOUS
370
-3
390
F
  0
LAYER
  5
225
100
AcDbSymbolTableRecord
100
AcDbLayerTableRecord
  2
CAPC1608N_80000_20
 70
0
 62
7
  6
CONTINUOUS
370
-3
390
F
  0
LAYER
  5
226
100
AcDbSymbolTableRecord
100
AcDbLayerTableRecord
  2
CAPC1608N_80000_21
 70
0
 62
7
  6
CONTINUOUS
370
-3
390
F
  0
LAYER
  5
227
100
AcDbSymbolTableRecord
100
AcDbLayerTableRecord
  2
CAPC1608N_80000_22
 70
0
 62
7
  6
CONTINUOUS
370
-3
390
F
  0
LAYER
  5
228
100
AcDbSymbolTableRecord
100
AcDbLayerTableRecord
  2
CAPC1608N_80000_23
 70
0
 62
7
  6
CONTINUOUS
370
-3
390
F
  0
LAYER
  5
229
100
AcDbSymbolTableRecord
100
AcDbLayerTableRecord
  2
CAPC1608N_80000_24
 70
0
 62
7
  6
CONTINUOUS
370
-3
390
F
  0
LAYER
  5
22A
100
AcDbSymbolTableRecord
100
AcDbLayerTableRecord
  2
CAPC1608N_80000_25
 70
0
 62
7
  6
CONTINUOUS
370
-3
390
F
  0
LAYER
  5
22B
100
AcDbSymbolTableRecord
100
AcDbLayerTableRecord
  2
CAPC1608N_80000_26
 70
0
 62
7
  6
CONTINUOUS
370
-3
390
F
  0
LAYER
  5
22C
100
AcDbSymbolTableRecord
100
AcDbLayerTableRecord
  2
CAPC1608N_80000_27
 70
0
 62
7
  6
CONTINUOUS
370
-3
390
F
  0
LAYER
  5
22D
100
AcDbSymbolTableRecord
100
AcDbLayerTableRecord
  2
CAPC1608N_80000_28
 70
0
 62
7
  6
CONTINUOUS
370
-3
390
F
  0
LAYER
  5
22E
100
AcDbSymbolTableRecord
100
AcDbLayerTableRecord
  2
CAPC1608N_80000_29
 70
0
 62
7
  6
CONTINUOUS
370
-3
390
F
  0
LAYER
  5
22F
100
AcDbSymbolTableRecord
100
AcDbLayerTableRecord
  2
CAPC1608N_80000_3
 70
0
 62
7
  6
CONTINUOUS
370
-3
390
F
  0
LAYER
  5
230
100
AcDbSymbolTableRecord
100
AcDbLayerTableRecord
  2
CAPC1608N_80000_30
 70
0
 62
7
  6
CONTINUOUS
370
-3
390
F
  0
LAYER
  5
231
100
AcDbSymbolTableRecord
100
AcDbLayerTableRecord
  2
CAPC1608N_80000_31
 70
0
 62
7
  6
CONTINUOUS
370
-3
390
F
  0
LAYER
  5
232
100
AcDbSymbolTableRecord
100
AcDbLayerTableRecord
  2
CAPC1608N_80000_32
 70
0
 62
7
  6
CONTINUOUS
370
-3
390
F
  0
LAYER
  5
233
100
AcDbSymbolTableRecord
100
AcDbLayerTableRecord
  2
CAPC1608N_80000_33
 70
0
 62
7
  6
CONTINUOUS
370
-3
390
F
  0
LAYER
  5
234
100
AcDbSymbolTableRecord
100
AcDbLayerTableRecord
  2
CAPC1608N_80000_34
 70
0
 62
7
  6
CONTINUOUS
370
-3
390
F
  0
LAYER
  5
235
100
AcDbSymbolTableRecord
100
AcDbLayerTableRecord
  2
CAPC1608N_80000_35
 70
0
 62
7
  6
CONTINUOUS
370
-3
390
F
  0
LAYER
  5
236
100
AcDbSymbolTableRecord
100
AcDbLayerTableRecord
  2
CAPC1608N_80000_36
 70
0
 62
7
  6
CONTINUOUS
370
-3
390
F
  0
LAYER
  5
237
100
AcDbSymbolTableRecord
100
AcDbLayerTableRecord
  2
CAPC1608N_80000_37
 70
0
 62
7
  6
CONTINUOUS
370
-3
390
F
  0
LAYER
  5
238
100
AcDbSymbolTableRecord
100
AcDbLayerTableRecord
  2
CAPC1608N_80000_38
 70
0
 62
7
  6
CONTINUOUS
370
-3
390
F
  0
LAYER
  5
239
100
AcDbSymbolTableRecord
100
AcDbLayerTableRecord
  2
CAPC1608N_80000_39
 70
0
 62
7
  6
CONTINUOUS
370
-3
390
F
  0
LAYER
  5
23A
100
AcDbSymbolTableRecord
100
AcDbLayerTableRecord
  2
CAPC1608N_80000_4
 70
0
 62
7
  6
CONTINUOUS
370
-3
390
F
  0
LAYER
  5
23B
100
AcDbSymbolTableRecord
100
AcDbLayerTableRecord
  2
CAPC1608N_80000_40
 70
0
 62
7
  6
CONTINUOUS
370
-3
390
F
  0
LAYER
  5
23C
100
AcDbSymbolTableRecord
100
AcDbLayerTableRecord
  2
CAPC1608N_80000_41
 70
0
 62
7
  6
CONTINUOUS
370
-3
390
F
  0
LAYER
  5
23D
100
AcDbSymbolTableRecord
100
AcDbLayerTableRecord
  2
CAPC1608N_80000_42
 70
0
 62
7
  6
CONTINUOUS
370
-3
390
F
  0
LAYER
  5
23E
100
AcDbSymbolTableRecord
100
AcDbLayerTableRecord
  2
CAPC1608N_80000_43
 70
0
 62
7
  6
CONTINUOUS
370
-3
390
F
  0
LAYER
  5
23F
100
AcDbSymbolTableRecord
100
AcDbLayerTableRecord
  2
CAPC1608N_80000_44
 70
0
 62
7
  6
CONTINUOUS
370
-3
390
F
  0
LAYER
  5
240
100
AcDbSymbolTableRecord
100
AcDbLayerTableRecord
  2
CAPC1608N_80000_45
 70
0
 62
7
  6
CONTINUOUS
370
-3
390
F
  0
LAYER
  5
241
100
AcDbSymbolTableRecord
100
AcDbLayerTableRecord
  2
CAPC1608N_80000_5
 70
0
 62
7
  6
CONTINUOUS
370
-3
390
F
  0
LAYER
  5
242
100
AcDbSymbolTableRecord
100
AcDbLayerTableRecord
  2
CAPC1608N_80000_6
 70
0
 62
7
  6
CONTINUOUS
370
-3
390
F
  0
LAYER
  5
243
100
AcDbSymbolTableRecord
100
AcDbLayerTableRecord
  2
CAPC1608N_80000_7
 70
0
 62
7
  6
CONTINUOUS
370
-3
390
F
  0
LAYER
  5
244
100
AcDbSymbolTableRecord
100
AcDbLayerTableRecord
  2
CAPC1608N_80000_8
 70
0
 62
7
  6
CONTINUOUS
370
-3
390
F
  0
LAYER
  5
245
100
AcDbSymbolTableRecord
100
AcDbLayerTableRecord
  2
CAPC1608N_80000_9
 70
0
 62
7
  6
CONTINUOUS
370
-3
390
F
  0
LAYER
  5
246
100
AcDbSymbolTableRecord
100
AcDbLayerTableRecord
  2
CN-1S-HEADER-PIH-1_254000
 70
0
 62
7
  6
CONTINUOUS
370
-3
390
F
  0
LAYER
  5
247
100
AcDbSymbolTableRecord
100
AcDbLayerTableRecord
  2
CN-1S-HEADER-PIH-1_254000_1
 70
0
 62
7
  6
CONTINUOUS
370
-3
390
F
  0
LAYER
  5
248
100
AcDbSymbolTableRecord
100
AcDbLayerTableRecord
  2
CN-1S-HEADER-PIH-1_254000_2
 70
0
 62
7
  6
CONTINUOUS
370
-3
390
F
  0
LAYER
  5
249
100
AcDbSymbolTableRecord
100
AcDbLayerTableRecord
  2
CN-1S-HEADER-PIH-1_254000_3
 70
0
 62
7
  6
CONTINUOUS
370
-3
390
F
  0
LAYER
  5
24A
100
AcDbSymbolTableRecord
100
AcDbLayerTableRecord
  2
CN-1S-HEADER-PIH-1_254000_4
 70
0
 62
7
  6
CONTINUOUS
370
-3
390
F
  0
LAYER
  5
24B
100
AcDbSymbolTableRecord
100
AcDbLayerTableRecord
  2
CN-1S-HEADER-PIH-1_254000_5
 70
0
 62
7
  6
CONTINUOUS
370
-3
390
F
  0
LAYER
  5
24C
100
AcDbSymbolTableRecord
100
AcDbLayerTableRecord
  2
CN-1S-HEADER-PIH-1_254000_6
 70
0
 62
7
  6
CONTINUOUS
370
-3
390
F
  0
LAYER
  5
24D
100
AcDbSymbolTableRecord
100
AcDbLayerTableRecord
  2
CN-1S-HEADER-PIH-1_254000_7
 70
0
 62
7
  6
CONTINUOUS
370
-3
390
F
  0
LAYER
  5
24E
100
AcDbSymbolTableRecord
100
AcDbLayerTableRecord
  2
CN-243-VIMAR_850000
 70
0
 62
7
  6
CONTINUOUS
370
-3
390
F
  0
LAYER
  5
24F
100
AcDbSymbolTableRecord
100
AcDbLayerTableRecord
  2
CN-243-VIMAR_850000_1
 70
0
 62
7
  6
CONTINUOUS
370
-3
390
F
  0
LAYER
  5
250
100
AcDbSymbolTableRecord
100
AcDbLayerTableRecord
  2
CN-CSF_CSM_9-VIMAR_1150000
 70
0
 62
7
  6
CONTINUOUS
370
-3
390
F
  0
LAYER
  5
251
100
AcDbSymbolTableRecord
100
AcDbLayerTableRecord
  2
CN1-TP10_SMD-VIMAR_01_10000
 70
0
 62
7
  6
CONTINUOUS
370
-3
390
F
  0
LAYER
  5
252
100
AcDbSymbolTableRecord
100
AcDbLayerTableRecord
  2
CN1-TP10_SMD-VIMAR_01_10000_1
 70
0
 62
7
  6
CONTINUOUS
370
-3
390
F
  0
LAYER
  5
253
100
AcDbSymbolTableRecord
100
AcDbLayerTableRecord
  2
CN1-TP10_SMD-VIMAR_01_10000_2
 70
0
 62
7
  6
CONTINUOUS
370
-3
390
F
  0
LAYER
  5
254
100
AcDbSymbolTableRecord
100
AcDbLayerTableRecord
  2
CN1-TP10_SMD-VIMAR_01_10000_3
 70
0
 62
7
  6
CONTINUOUS
370
-3
390
F
  0
LAYER
  5
255
100
AcDbSymbolTableRecord
100
AcDbLayerTableRecord
  2
CN1-TP10_SMD-VIMAR_01_10000_4
 70
0
 62
7
  6
CONTINUOUS
370
-3
390
F
  0
LAYER
  5
256
100
AcDbSymbolTableRecord
100
AcDbLayerTableRecord
  2
CN1-TP10_SMD-VIMAR_01_10000_5
 70
0
 62
7
  6
CONTINUOUS
370
-3
390
F
  0
LAYER
  5
257
100
AcDbSymbolTableRecord
100
AcDbLayerTableRecord
  2
CN1-TP10_SMD-VIMAR_01_10000_6
 70
0
 62
7
  6
CONTINUOUS
370
-3
390
F
  0
LAYER
  5
258
100
AcDbSymbolTableRecord
100
AcDbLayerTableRecord
  2
CN16-HEADER-SMD2_0-1-VIMAR_6500
 70
0
 62
7
  6
CONTINUOUS
370
-3
390
F
  0
LAYER
  5
259
100
AcDbSymbolTableRecord
100
AcDbLayerTableRecord
  2
CN4-MINI_USB_B-2-VIMAR_950000
 70
0
 62
7
  6
CONTINUOUS
370
-3
390
F
  0
LAYER
  5
25A
100
AcDbSymbolTableRecord
100
AcDbLayerTableRecord
  2
CN6-FSN-1_2540000
 70
0
 62
7
  6
CONTINUOUS
370
-3
390
F
  0
LAYER
  5
25B
100
AcDbSymbolTableRecord
100
AcDbLayerTableRecord
  2
COLOR11
 70
0
 62
7
  6
CONTINUOUS
370
-3
390
F
  0
LAYER
  5
25C
100
AcDbSymbolTableRecord
100
AcDbLayerTableRecord
  2
COLOR5
 70
0
 62
7
  6
CONTINUOUS
370
-3
390
F
  0
LAYER
  5
25D
100
AcDbSymbolTableRecord
100
AcDbLayerTableRecord
  2
COORDINATE
 70
0
 62
7
  6
CONTINUOUS
370
-3
390
F
  0
LAYER
  5
25E
100
AcDbSymbolTableRecord
100
AcDbLayerTableRecord
  2
COORD_ORIGINE
 70
0
 62
7
  6
CONTINUOUS
370
-3
390
F
  0
LAYER
  5
25F
100
AcDbSymbolTableRecord
100
AcDbLayerTableRecord
  2
COPY_PUBLISH
 70
0
 62
7
  6
CONTINUOUS
370
-3
390
F
  0
LAYER
  5
260
100
AcDbSymbolTableRecord
100
AcDbLayerTableRecord
  2
COSMETIC
 70
0
 62
7
  6
CONTINUOUS
370
-3
390
F
  0
LAYER
  5
261
100
AcDbSymbolTableRecord
100
AcDbLayerTableRecord
  2
COSMETICI
 70
0
 62
7
  6
CONTINUOUS
370
-3
390
F
  0
LAYER
  5
262
100
AcDbSymbolTableRecord
100
AcDbLayerTableRecord
  2
CP-CE10-RF-VIMAR_630000
 70
0
 62
7
  6
CONTINUOUS
370
-3
390
F
  0
LAYER
  5
263
100
AcDbSymbolTableRecord
100
AcDbLayerTableRecord
  2
CP-CE10-RF-VIMAR_630000_1
 70
0
 62
7
  6
CONTINUOUS
370
-3
390
F
  0
LAYER
  5
264
100
AcDbSymbolTableRecord
100
AcDbLayerTableRecord
  2
CP-CE4-RF_550000
 70
0
 62
7
  6
CONTINUOUS
370
-3
390
F
  0
LAYER
  5
265
100
AcDbSymbolTableRecord
100
AcDbLayerTableRecord
  2
CP-CE6-RF_820000
 70
0
 62
7
  6
CONTINUOUS
370
-3
390
F
  0
LAYER
  5
266
100
AcDbSymbolTableRecord
100
AcDbLayerTableRecord
  2
CP-CE6-RF_820000_1
 70
0
 62
7
  6
CONTINUOUS
370
-3
390
F
  0
LAYER
  5
267
100
AcDbSymbolTableRecord
100
AcDbLayerTableRecord
  2
CP-CE6-RF_820000_2
 70
0
 62
7
  6
CONTINUOUS
370
-3
390
F
  0
LAYER
  5
268
100
AcDbSymbolTableRecord
100
AcDbLayerTableRecord
  2
CP-CE9-RF-VIMAR_1080000
 70
0
 62
7
  6
CONTINUOUS
370
-3
390
F
  0
LAYER
  5
269
100
AcDbSymbolTableRecord
100
AcDbLayerTableRecord
  2
CP-CE9-RF-VIMAR_1080000_1
 70
0
 62
7
  6
CONTINUOUS
370
-3
390
F
  0
LAYER
  5
26A
100
AcDbSymbolTableRecord
100
AcDbLayerTableRecord
  2
CP-CE9-RF-VIMAR_1080000_2
 70
0
 62
7
  6
CONTINUOUS
370
-3
390
F
  0
LAYER
  5
26B
100
AcDbSymbolTableRecord
100
AcDbLayerTableRecord
  2
CP-DO-214AA-VIMAR_240000
 70
0
 62
7
  6
CONTINUOUS
370
-3
390
F
  0
LAYER
  5
26C
100
AcDbSymbolTableRecord
100
AcDbLayerTableRecord
  2
CP-DO-214AA-VIMAR_240000_1
 70
0
 62
7
  6
CONTINUOUS
370
-3
390
F
  0
LAYER
  5
26D
100
AcDbSymbolTableRecord
100
AcDbLayerTableRecord
  2
CP-DO-214AC-D-VIMAR_240000
 70
0
 62
7
  6
CONTINUOUS
370
-3
390
F
  0
LAYER
  5
26E
100
AcDbSymbolTableRecord
100
AcDbLayerTableRecord
  2
CP-DO-214AC-D-VIMAR_240000_1
 70
0
 62
7
  6
CONTINUOUS
370
-3
390
F
  0
LAYER
  5
26F
100
AcDbSymbolTableRecord
100
AcDbLayerTableRecord
  2
CP-DO-214AC-VIMAR_240000
 70
0
 62
7
  6
CONTINUOUS
370
-3
390
F
  0
LAYER
  5
270
100
AcDbSymbolTableRecord
100
AcDbLayerTableRecord
  2
CP-DO-214AC-VIMAR_240000_1
 70
0
 62
7
  6
CONTINUOUS
370
-3
390
F
  0
LAYER
  5
271
100
AcDbSymbolTableRecord
100
AcDbLayerTableRecord
  2
CP-L3-RF-VIMAR_180000
 70
0
 62
7
  6
CONTINUOUS
370
-3
390
F
  0
LAYER
  5
272
100
AcDbSymbolTableRecord
100
AcDbLayerTableRecord
  2
CP-SUPERCAP-SMD_190000
 70
0
 62
7
  6
CONTINUOUS
370
-3
390
F
  0
LAYER
  5
273
100
AcDbSymbolTableRecord
100
AcDbLayerTableRecord
  2
CURVE
 70
0
 62
7
  6
CONTINUOUS
370
-3
390
F
  0
LAYER
  5
274
100
AcDbSymbolTableRecord
100
AcDbLayerTableRecord
  2
DRAFT
 70
0
 62
7
  6
CONTINUOUS
370
-3
390
F
  0
LAYER
  5
275
100
AcDbSymbolTableRecord
100
AcDbLayerTableRecord
  2
ECAD_2125-CC-RF-VIMAR_65000
 70
0
 62
7
  6
CONTINUOUS
370
-3
390
F
  0
LAYER
  5
276
100
AcDbSymbolTableRecord
100
AcDbLayerTableRecord
  2
ECAD_2125-DL-RF-FINE_VIMAR_1100
 70
0
 62
7
  6
CONTINUOUS
370
-3
390
F
  0
LAYER
  5
277
100
AcDbSymbolTableRecord
100
AcDbLayerTableRecord
  2
ECAD_2125-R1-RF-VIMAR_60000
 70
0
 62
7
  6
CONTINUOUS
370
-3
390
F
  0
LAYER
  5
278
100
AcDbSymbolTableRecord
100
AcDbLayerTableRecord
  2
ECAD_3216-CF-RF-VIMAR_100000
 70
0
 62
7
  6
CONTINUOUS
370
-3
390
F
  0
LAYER
  5
279
100
AcDbSymbolTableRecord
100
AcDbLayerTableRecord
  2
ECAD_3216-CS2-RF_1_180000
 70
0
 62
7
  6
CONTINUOUS
370
-3
390
F
  0
LAYER
  5
27A
100
AcDbSymbolTableRecord
100
AcDbLayerTableRecord
  2
ECAD_3225-L-RF-VIMAR_220000
 70
0
 62
7
  6
CONTINUOUS
370
-3
390
F
  0
LAYER
  5
27B
100
AcDbSymbolTableRecord
100
AcDbLayerTableRecord
  2
ECAD_6032-CS-RF_250000
 70
0
 62
7
  6
CONTINUOUS
370
-3
390
F
  0
LAYER
  5
27C
100
AcDbSymbolTableRecord
100
AcDbLayerTableRecord
  2
ECAD_CAPC1608N_80000
 70
0
 62
7
  6
CONTINUOUS
370
-3
390
F
  0
LAYER
  5
27D
100
AcDbSymbolTableRecord
100
AcDbLayerTableRecord
  2
ECAD_CN-243-VIMAR_850000
 70
0
 62
7
  6
CONTINUOUS
370
-3
390
F
  0
LAYER
  5
27E
100
AcDbSymbolTableRecord
100
AcDbLayerTableRecord
  2
ECAD_CN-CSF_CSM_9-VIMAR_1150000
 70
0
 62
7
  6
CONTINUOUS
370
-3
390
F
  0
LAYER
  5
27F
100
AcDbSymbolTableRecord
100
AcDbLayerTableRecord
  2
ECAD_CN16_M_SMD2_54_1_VIMAR_108
 70
0
 62
7
  6
CONTINUOUS
370
-3
390
F
  0
LAYER
  5
280
100
AcDbSymbolTableRecord
100
AcDbLayerTableRecord
  2
ECAD_CP-CE10-RF-VIMAR_630000
 70
0
 62
7
  6
CONTINUOUS
370
-3
390
F
  0
LAYER
  5
281
100
AcDbSymbolTableRecord
100
AcDbLayerTableRecord
  2
ECAD_CP-CE4-RF_550000
 70
0
 62
7
  6
CONTINUOUS
370
-3
390
F
  0
LAYER
  5
282
100
AcDbSymbolTableRecord
100
AcDbLayerTableRecord
  2
ECAD_CP-DO-214AA-VIMAR_240000
 70
0
 62
7
  6
CONTINUOUS
370
-3
390
F
  0
LAYER
  5
283
100
AcDbSymbolTableRecord
100
AcDbLayerTableRecord
  2
ECAD_CP-DO-214AC-D-VIMAR_240000
 70
0
 62
7
  6
CONTINUOUS
370
-3
390
F
  0
LAYER
  5
284
100
AcDbSymbolTableRecord
100
AcDbLayerTableRecord
  2
ECAD_CP-DO-214AC-VIMAR_240000
 70
0
 62
7
  6
CONTINUOUS
370
-3
390
F
  0
LAYER
  5
285
100
AcDbSymbolTableRecord
100
AcDbLayerTableRecord
  2
ECAD_L_SRR1005-RF-VIMAR_520000
 70
0
 62
7
  6
CONTINUOUS
370
-3
390
F
  0
LAYER
  5
286
100
AcDbSymbolTableRecord
100
AcDbLayerTableRecord
  2
ECAD_MM2-X-1-VIMAR_430000
 70
0
 62
7
  6
CONTINUOUS
370
-3
390
F
  0
LAYER
  5
287
100
AcDbSymbolTableRecord
100
AcDbLayerTableRecord
  2
ECAD_MM2-X-3-VIMAR_120000
 70
0
 62
7
  6
CONTINUOUS
370
-3
390
F
  0
LAYER
  5
288
100
AcDbSymbolTableRecord
100
AcDbLayerTableRecord
  2
ECAD_MM3-MPAK-RF-VIMAR_120000
 70
0
 62
7
  6
CONTINUOUS
370
-3
390
F
  0
LAYER
  5
289
100
AcDbSymbolTableRecord
100
AcDbLayerTableRecord
  2
ECAD_MM4-MB-2-VIMAR_330000
 70
0
 62
7
  6
CONTINUOUS
370
-3
390
F
  0
LAYER
  5
28A
100
AcDbSymbolTableRecord
100
AcDbLayerTableRecord
  2
ECAD_MM4-SWITCH-8-VIMAR_500000
 70
0
 62
7
  6
CONTINUOUS
370
-3
390
F
  0
LAYER
  5
28B
100
AcDbSymbolTableRecord
100
AcDbLayerTableRecord
  2
ECAD_MSOP8-T1-RF-VIMAR_86000
 70
0
 62
7
  6
CONTINUOUS
370
-3
390
F
  0
LAYER
  5
28C
100
AcDbSymbolTableRecord
100
AcDbLayerTableRecord
  2
ECAD_QFP32-M_0
 70
0
 62
7
  6
CONTINUOUS
370
-3
390
F
  0
LAYER
  5
28D
100
AcDbSymbolTableRecord
100
AcDbLayerTableRecord
  2
ECAD_RD-CE50-3-VIMAR_2000000
 70
0
 62
7
  6
CONTINUOUS
370
-3
390
F
  0
LAYER
  5
28E
100
AcDbSymbolTableRecord
100
AcDbLayerTableRecord
  2
ECAD_RD-ZNR75-1-VIMAR_0
 70
0
 62
7
  6
CONTINUOUS
370
-3
390
F
  0
LAYER
  5
28F
100
AcDbSymbolTableRecord
100
AcDbLayerTableRecord
  2
ECAD_RESC1608N_45000
 70
0
 62
7
  6
CONTINUOUS
370
-3
390
F
  0
LAYER
  5
290
100
AcDbSymbolTableRecord
100
AcDbLayerTableRecord
  2
ECAD_RESC6432X70N_70000
 70
0
 62
7
  6
CONTINUOUS
370
-3
390
F
  0
LAYER
  5
291
100
AcDbSymbolTableRecord
100
AcDbLayerTableRecord
  2
ECAD_RESM8063N_350000
 70
0
 62
7
  6
CONTINUOUS
370
-3
390
F
  0
LAYER
  5
292
100
AcDbSymbolTableRecord
100
AcDbLayerTableRecord
  2
ECAD_RY-8PIN-1-VIMAR_565000
 70
0
 62
7
  6
CONTINUOUS
370
-3
390
F
  0
LAYER
  5
293
100
AcDbSymbolTableRecord
100
AcDbLayerTableRecord
  2
ECAD_SOIC8-OPTO-RF-VIMAR_320000
 70
0
 62
7
  6
CONTINUOUS
370
-3
390
F
  0
LAYER
  5
294
100
AcDbSymbolTableRecord
100
AcDbLayerTableRecord
  2
ECAD_SOP20-1-VIMAR_270000
 70
0
 62
7
  6
CONTINUOUS
370
-3
390
F
  0
LAYER
  5
295
100
AcDbSymbolTableRecord
100
AcDbLayerTableRecord
  2
ECAD_SOT95P280X110-6N_110000
 70
0
 62
7
  6
CONTINUOUS
370
-3
390
F
  0
LAYER
  5
296
100
AcDbSymbolTableRecord
100
AcDbLayerTableRecord
  2
IGES_SCRITTE
 70
0
 62
7
  6
CONTINUOUS
370
-3
390
F
  0
LAYER
  5
297
100
AcDbSymbolTableRecord
100
AcDbLayerTableRecord
  2
IMPORT_IGES
 70
0
 62
7
  6
CONTINUOUS
370
-3
390
F
  0
LAYER
  5
298
100
AcDbSymbolTableRecord
100
AcDbLayerTableRecord
  2
IMPORT_SCRITTE
 70
0
 62
7
  6
CONTINUOUS
370
-3
390
F
  0
LAYER
  5
299
100
AcDbSymbolTableRecord
100
AcDbLayerTableRecord
  2
INDC3216X130N_130000
 70
0
 62
7
  6
CONTINUOUS
370
-3
390
F
  0
LAYER
  5
29A
100
AcDbSymbolTableRecord
100
AcDbLayerTableRecord
  2
INTFCLR_1
 70
0
 62
7
  6
CONTINUOUS
370
-3
390
F
  0
LAYER
  5
29B
100
AcDbSymbolTableRecord
100
AcDbLayerTableRecord
  2
INTFCLR_12603
 70
0
 62
7
  6
CONTINUOUS
370
-3
390
F
  0
LAYER
  5
29C
100
AcDbSymbolTableRecord
100
AcDbLayerTableRecord
  2
INTFCLR_1391
 70
0
 62
7
  6
CONTINUOUS
370
-3
390
F
  0
LAYER
  5
29D
100
AcDbSymbolTableRecord
100
AcDbLayerTableRecord
  2
INTFCLR_35371
 70
0
 62
7
  6
CONTINUOUS
370
-3
390
F
  0
LAYER
  5
29E
100
AcDbSymbolTableRecord
100
AcDbLayerTableRecord
  2
INTF_1
 70
0
 62
7
  6
CONTINUOUS
370
-3
390
F
  0
LAYER
  5
29F
100
AcDbSymbolTableRecord
100
AcDbLayerTableRecord
  2
INTF_10
 70
0
 62
7
  6
CONTINUOUS
370
-3
390
F
  0
LAYER
  5
2A0
100
AcDbSymbolTableRecord
100
AcDbLayerTableRecord
  2
INTF_15
 70
0
 62
7
  6
CONTINUOUS
370
-3
390
F
  0
LAYER
  5
2A1
100
AcDbSymbolTableRecord
100
AcDbLayerTableRecord
  2
INTF_16
 70
0
 62
7
  6
CONTINUOUS
370
-3
390
F
  0
LAYER
  5
2A2
100
AcDbSymbolTableRecord
100
AcDbLayerTableRecord
  2
INTF_18
 70
0
 62
7
  6
CONTINUOUS
370
-3
390
F
  0
LAYER
  5
2A3
100
AcDbSymbolTableRecord
100
AcDbLayerTableRecord
  2
INTF_20
 70
0
 62
7
  6
CONTINUOUS
370
-3
390
F
  0
LAYER
  5
2A4
100
AcDbSymbolTableRecord
100
AcDbLayerTableRecord
  2
INTF_22
 70
0
 62
7
  6
CONTINUOUS
370
-3
390
F
  0
LAYER
  5
2A5
100
AcDbSymbolTableRecord
100
AcDbLayerTableRecord
  2
INTF_4
 70
0
 62
7
  6
CONTINUOUS
370
-3
390
F
  0
LAYER
  5
2A6
100
AcDbSymbolTableRecord
100
AcDbLayerTableRecord
  2
INTF_43000440
 70
0
 62
7
  6
CONTINUOUS
370
-3
390
F
  0
LAYER
  5
2A7
100
AcDbSymbolTableRecord
100
AcDbLayerTableRecord
  2
INTF_8
 70
0
 62
7
  6
CONTINUOUS
370
-3
390
F
  0
LAYER
  5
2A8
100
AcDbSymbolTableRecord
100
AcDbLayerTableRecord
  2
INTF_BLANK
 70
0
 62
7
  6
CONTINUOUS
370
-3
390
F
  0
LAYER
  5
2A9
100
AcDbSymbolTableRecord
100
AcDbLayerTableRecord
  2
LOGICA
 70
0
 62
7
  6
CONTINUOUS
370
-3
390
F
  0
LAYER
  5
2AA
100
AcDbSymbolTableRecord
100
AcDbLayerTableRecord
  2
L_SRR0604-RF-VIMAR_480000
 70
0
 62
7
  6
CONTINUOUS
370
-3
390
F
  0
LAYER
  5
2AB
100
AcDbSymbolTableRecord
100
AcDbLayerTableRecord
  2
L_SRR1005-RF-VIMAR_520000
 70
0
 62
7
  6
CONTINUOUS
370
-3
390
F
  0
LAYER
  5
2AC
100
AcDbSymbolTableRecord
100
AcDbLayerTableRecord
  2
MM2-X-1-VIMAR_430000
 70
0
 62
7
  6
CONTINUOUS
370
-3
390
F
  0
LAYER
  5
2AD
100
AcDbSymbolTableRecord
100
AcDbLayerTableRecord
  2
MM2-X-2-VIMAR_250000
 70
0
 62
7
  6
CONTINUOUS
370
-3
390
F
  0
LAYER
  5
2AE
100
AcDbSymbolTableRecord
100
AcDbLayerTableRecord
  2
MM2-X-3-VIMAR_120000
 70
0
 62
7
  6
CONTINUOUS
370
-3
390
F
  0
LAYER
  5
2AF
100
AcDbSymbolTableRecord
100
AcDbLayerTableRecord
  2
MM2-X-3-VIMAR_120000_1
 70
0
 62
7
  6
CONTINUOUS
370
-3
390
F
  0
LAYER
  5
2B0
100
AcDbSymbolTableRecord
100
AcDbLayerTableRecord
  2
MM3-MPAK-RF-VIMAR_120000
 70
0
 62
7
  6
CONTINUOUS
370
-3
390
F
  0
LAYER
  5
2B1
100
AcDbSymbolTableRecord
100
AcDbLayerTableRecord
  2
MM3-MPAK-RF-VIMAR_120000_1
 70
0
 62
7
  6
CONTINUOUS
370
-3
390
F
  0
LAYER
  5
2B2
100
AcDbSymbolTableRecord
100
AcDbLayerTableRecord
  2
MM3-MPAK-RF-VIMAR_120000_2
 70
0
 62
7
  6
CONTINUOUS
370
-3
390
F
  0
LAYER
  5
2B3
100
AcDbSymbolTableRecord
100
AcDbLayerTableRecord
  2
MM3-MPAK-RF-VIMAR_120000_3
 70
0
 62
7
  6
CONTINUOUS
370
-3
390
F
  0
LAYER
  5
2B4
100
AcDbSymbolTableRecord
100
AcDbLayerTableRecord
  2
MM3-MPAK-RF-VIMAR_120000_4
 70
0
 62
7
  6
CONTINUOUS
370
-3
390
F
  0
LAYER
  5
2B5
100
AcDbSymbolTableRecord
100
AcDbLayerTableRecord
  2
MM3-MPAK-RF-VIMAR_120000_5
 70
0
 62
7
  6
CONTINUOUS
370
-3
390
F
  0
LAYER
  5
2B6
100
AcDbSymbolTableRecord
100
AcDbLayerTableRecord
  2
MM3-MPAK-RF-VIMAR_120000_6
 70
0
 62
7
  6
CONTINUOUS
370
-3
390
F
  0
LAYER
  5
2B7
100
AcDbSymbolTableRecord
100
AcDbLayerTableRecord
  2
MM3-MPAK-RF-VIMAR_120000_7
 70
0
 62
7
  6
CONTINUOUS
370
-3
390
F
  0
LAYER
  5
2B8
100
AcDbSymbolTableRecord
100
AcDbLayerTableRecord
  2
MM3-MPAK-RF-VIMAR_120000_8
 70
0
 62
7
  6
CONTINUOUS
370
-3
390
F
  0
LAYER
  5
2B9
100
AcDbSymbolTableRecord
100
AcDbLayerTableRecord
  2
MM3-MPAK-RF-VIMAR_120000_9
 70
0
 62
7
  6
CONTINUOUS
370
-3
390
F
  0
LAYER
  5
2BA
100
AcDbSymbolTableRecord
100
AcDbLayerTableRecord
  2
MM3-SOT-89-RF-VIMAR_150000
 70
0
 62
7
  6
CONTINUOUS
370
-3
390
F
  0
LAYER
  5
2BB
100
AcDbSymbolTableRecord
100
AcDbLayerTableRecord
  2
MM3-X-4-VIMAR_120000
 70
0
 62
7
  6
CONTINUOUS
370
-3
390
F
  0
LAYER
  5
2BC
100
AcDbSymbolTableRecord
100
AcDbLayerTableRecord
  2
MM4-MB-1-VIMAR_290000
 70
0
 62
7
  6
CONTINUOUS
370
-3
390
F
  0
LAYER
  5
2BD
100
AcDbSymbolTableRecord
100
AcDbLayerTableRecord
  2
MM4-SWITCH-8-VIMAR_500000
 70
0
 62
7
  6
CONTINUOUS
370
-3
390
F
  0
LAYER
  5
2BE
100
AcDbSymbolTableRecord
100
AcDbLayerTableRecord
  2
MM4-X-3-VIMAR_130000
 70
0
 62
7
  6
CONTINUOUS
370
-3
390
F
  0
LAYER
  5
2BF
100
AcDbSymbolTableRecord
100
AcDbLayerTableRecord
  2
MM6-SC70-1-VIMAR_110000
 70
0
 62
7
  6
CONTINUOUS
370
-3
390
F
  0
LAYER
  5
2C0
100
AcDbSymbolTableRecord
100
AcDbLayerTableRecord
  2
MORSETTI
 70
0
 62
7
  6
CONTINUOUS
370
-3
390
F
  0
LAYER
  5
2C1
100
AcDbSymbolTableRecord
100
AcDbLayerTableRecord
  2
MSOP8-T1-RF-VIMAR_86000
 70
0
 62
7
  6
CONTINUOUS
370
-3
390
F
  0
LAYER
  5
2C2
100
AcDbSymbolTableRecord
100
AcDbLayerTableRecord
  2
NO-PB_MARK_10000
 70
0
 62
7
  6
CONTINUOUS
370
-3
390
F
  0
LAYER
  5
2C3
100
AcDbSymbolTableRecord
100
AcDbLayerTableRecord
  2
NOTE
 70
0
 62
7
  6
CONTINUOUS
370
-3
390
F
  0
LAYER
  5
2C4
100
AcDbSymbolTableRecord
100
AcDbLayerTableRecord
  2
PIANI
 70
0
 62
7
  6
CONTINUOUS
370
-3
390
F
  0
LAYER
  5
2C5
100
AcDbSymbolTableRecord
100
AcDbLayerTableRecord
  2
PIANI_DI_RIFERIMENTO
 70
0
 62
7
  6
CONTINUOUS
370
-3
390
F
  0
LAYER
  5
2C6
100
AcDbSymbolTableRecord
100
AcDbLayerTableRecord
  2
PIANI_ORIGINE
 70
0
 62
7
  6
CONTINUOUS
370
-3
390
F
  0
LAYER
  5
2C7
100
AcDbSymbolTableRecord
100
AcDbLayerTableRecord
  2
PTC-9_0X12_5X5_0-VIMAR_750000
 70
0
 62
7
  6
CONTINUOUS
370
-3
390
F
  0
LAYER
  5
2C8
100
AcDbSymbolTableRecord
100
AcDbLayerTableRecord
  2
PTC-9_0X12_5X5_0-VIMAR_750000_1
 70
0
 62
7
  6
CONTINUOUS
370
-3
390
F
  0
LAYER
  5
2C9
100
AcDbSymbolTableRecord
100
AcDbLayerTableRecord
  2
PUNTI
 70
0
 62
7
  6
CONTINUOUS
370
-3
390
F
  0
LAYER
  5
2CA
100
AcDbSymbolTableRecord
100
AcDbLayerTableRecord
  2
QFP32-M_0
 70
0
 62
7
  6
CONTINUOUS
370
-3
390
F
  0
LAYER
  5
2CB
100
AcDbSymbolTableRecord
100
AcDbLayerTableRecord
  2
QFP50P1200X1200X120-64N_120000
 70
0
 62
7
  6
CONTINUOUS
370
-3
390
F
  0
LAYER
  5
2CC
100
AcDbSymbolTableRecord
100
AcDbLayerTableRecord
  2
RACCORDO
 70
0
 62
7
  6
CONTINUOUS
370
-3
390
F
  0
LAYER
  5
2CD
100
AcDbSymbolTableRecord
100
AcDbLayerTableRecord
  2
RD-CLED2_54-1-VIMAR_1000000
 70
0
 62
7
  6
CONTINUOUS
370
-3
390
F
  0
LAYER
  5
2CE
100
AcDbSymbolTableRecord
100
AcDbLayerTableRecord
  2
RD-CLED2_54-1-VIMAR_1000000_1
 70
0
 62
7
  6
CONTINUOUS
370
-3
390
F
  0
LAYER
  5
2CF
100
AcDbSymbolTableRecord
100
AcDbLayerTableRecord
  2
RD-CLED2_54-1-VIMAR_1000000_2
 70
0
 62
7
  6
CONTINUOUS
370
-3
390
F
  0
LAYER
  5
2D0
100
AcDbSymbolTableRecord
100
AcDbLayerTableRecord
  2
RD-CLED2_54-1-VIMAR_1000000_3
 70
0
 62
7
  6
CONTINUOUS
370
-3
390
F
  0
LAYER
  5
2D1
100
AcDbSymbolTableRecord
100
AcDbLayerTableRecord
  2
RD-CLED2_54-1-VIMAR_1000000_4
 70
0
 62
7
  6
CONTINUOUS
370
-3
390
F
  0
LAYER
  5
2D2
100
AcDbSymbolTableRecord
100
AcDbLayerTableRecord
  2
RD-CLED2_54-1-VIMAR_1000000_5
 70
0
 62
7
  6
CONTINUOUS
370
-3
390
F
  0
LAYER
  5
2D3
100
AcDbSymbolTableRecord
100
AcDbLayerTableRecord
  2
RD-CLED2_54-3-VIMAR_1000000
 70
0
 62
7
  6
CONTINUOUS
370
-3
390
F
  0
LAYER
  5
2D4
100
AcDbSymbolTableRecord
100
AcDbLayerTableRecord
  2
RD-ZNR75-1-VIMAR_0
 70
0
 62
7
  6
CONTINUOUS
370
-3
390
F
  0
LAYER
  5
2D5
100
AcDbSymbolTableRecord
100
AcDbLayerTableRecord
  2
RESC1608N_45000
 70
0
 62
7
  6
CONTINUOUS
370
-3
390
F
  0
LAYER
  5
2D6
100
AcDbSymbolTableRecord
100
AcDbLayerTableRecord
  2
RESC1608N_45000_1
 70
0
 62
7
  6
CONTINUOUS
370
-3
390
F
  0
LAYER
  5
2D7
100
AcDbSymbolTableRecord
100
AcDbLayerTableRecord
  2
RESC1608N_45000_10
 70
0
 62
7
  6
CONTINUOUS
370
-3
390
F
  0
LAYER
  5
2D8
100
AcDbSymbolTableRecord
100
AcDbLayerTableRecord
  2
RESC1608N_45000_11
 70
0
 62
7
  6
CONTINUOUS
370
-3
390
F
  0
LAYER
  5
2D9
100
AcDbSymbolTableRecord
100
AcDbLayerTableRecord
  2
RESC1608N_45000_12
 70
0
 62
7
  6
CONTINUOUS
370
-3
390
F
  0
LAYER
  5
2DA
100
AcDbSymbolTableRecord
100
AcDbLayerTableRecord
  2
RESC1608N_45000_13
 70
0
 62
7
  6
CONTINUOUS
370
-3
390
F
  0
LAYER
  5
2DB
100
AcDbSymbolTableRecord
100
AcDbLayerTableRecord
  2
RESC1608N_45000_14
 70
0
 62
7
  6
CONTINUOUS
370
-3
390
F
  0
LAYER
  5
2DC
100
AcDbSymbolTableRecord
100
AcDbLayerTableRecord
  2
RESC1608N_45000_15
 70
0
 62
7
  6
CONTINUOUS
370
-3
390
F
  0
LAYER
  5
2DD
100
AcDbSymbolTableRecord
100
AcDbLayerTableRecord
  2
RESC1608N_45000_16
 70
0
 62
7
  6
CONTINUOUS
370
-3
390
F
  0
LAYER
  5
2DE
100
AcDbSymbolTableRecord
100
AcDbLayerTableRecord
  2
RESC1608N_45000_17
 70
0
 62
7
  6
CONTINUOUS
370
-3
390
F
  0
LAYER
  5
2DF
100
AcDbSymbolTableRecord
100
AcDbLayerTableRecord
  2
RESC1608N_45000_18
 70
0
 62
7
  6
CONTINUOUS
370
-3
390
F
  0
LAYER
  5
2E0
100
AcDbSymbolTableRecord
100
AcDbLayerTableRecord
  2
RESC1608N_45000_19
 70
0
 62
7
  6
CONTINUOUS
370
-3
390
F
  0
LAYER
  5
2E1
100
AcDbSymbolTableRecord
100
AcDbLayerTableRecord
  2
RESC1608N_45000_2
 70
0
 62
7
  6
CONTINUOUS
370
-3
390
F
  0
LAYER
  5
2E2
100
AcDbSymbolTableRecord
100
AcDbLayerTableRecord
  2
RESC1608N_45000_20
 70
0
 62
7
  6
CONTINUOUS
370
-3
390
F
  0
LAYER
  5
2E3
100
AcDbSymbolTableRecord
100
AcDbLayerTableRecord
  2
RESC1608N_45000_21
 70
0
 62
7
  6
CONTINUOUS
370
-3
390
F
  0
LAYER
  5
2E4
100
AcDbSymbolTableRecord
100
AcDbLayerTableRecord
  2
RESC1608N_45000_22
 70
0
 62
7
  6
CONTINUOUS
370
-3
390
F
  0
LAYER
  5
2E5
100
AcDbSymbolTableRecord
100
AcDbLayerTableRecord
  2
RESC1608N_45000_23
 70
0
 62
7
  6
CONTINUOUS
370
-3
390
F
  0
LAYER
  5
2E6
100
AcDbSymbolTableRecord
100
AcDbLayerTableRecord
  2
RESC1608N_45000_24
 70
0
 62
7
  6
CONTINUOUS
370
-3
390
F
  0
LAYER
  5
2E7
100
AcDbSymbolTableRecord
100
AcDbLayerTableRecord
  2
RESC1608N_45000_25
 70
0
 62
7
  6
CONTINUOUS
370
-3
390
F
  0
LAYER
  5
2E8
100
AcDbSymbolTableRecord
100
AcDbLayerTableRecord
  2
RESC1608N_45000_26
 70
0
 62
7
  6
CONTINUOUS
370
-3
390
F
  0
LAYER
  5
2E9
100
AcDbSymbolTableRecord
100
AcDbLayerTableRecord
  2
RESC1608N_45000_27
 70
0
 62
7
  6
CONTINUOUS
370
-3
390
F
  0
LAYER
  5
2EA
100
AcDbSymbolTableRecord
100
AcDbLayerTableRecord
  2
RESC1608N_45000_28
 70
0
 62
7
  6
CONTINUOUS
370
-3
390
F
  0
LAYER
  5
2EB
100
AcDbSymbolTableRecord
100
AcDbLayerTableRecord
  2
RESC1608N_45000_29
 70
0
 62
7
  6
CONTINUOUS
370
-3
390
F
  0
LAYER
  5
2EC
100
AcDbSymbolTableRecord
100
AcDbLayerTableRecord
  2
RESC1608N_45000_3
 70
0
 62
7
  6
CONTINUOUS
370
-3
390
F
  0
LAYER
  5
2ED
100
AcDbSymbolTableRecord
100
AcDbLayerTableRecord
  2
RESC1608N_45000_30
 70
0
 62
7
  6
CONTINUOUS
370
-3
390
F
  0
LAYER
  5
2EE
100
AcDbSymbolTableRecord
100
AcDbLayerTableRecord
  2
RESC1608N_45000_31
 70
0
 62
7
  6
CONTINUOUS
370
-3
390
F
  0
LAYER
  5
2EF
100
AcDbSymbolTableRecord
100
AcDbLayerTableRecord
  2
RESC1608N_45000_32
 70
0
 62
7
  6
CONTINUOUS
370
-3
390
F
  0
LAYER
  5
2F0
100
AcDbSymbolTableRecord
100
AcDbLayerTableRecord
  2
RESC1608N_45000_33
 70
0
 62
7
  6
CONTINUOUS
370
-3
390
F
  0
LAYER
  5
2F1
100
AcDbSymbolTableRecord
100
AcDbLayerTableRecord
  2
RESC1608N_45000_4
 70
0
 62
7
  6
CONTINUOUS
370
-3
390
F
  0
LAYER
  5
2F2
100
AcDbSymbolTableRecord
100
AcDbLayerTableRecord
  2
RESC1608N_45000_5
 70
0
 62
7
  6
CONTINUOUS
370
-3
390
F
  0
LAYER
  5
2F3
100
AcDbSymbolTableRecord
100
AcDbLayerTableRecord
  2
RESC1608N_45000_6
 70
0
 62
7
  6
CONTINUOUS
370
-3
390
F
  0
LAYER
  5
2F4
100
AcDbSymbolTableRecord
100
AcDbLayerTableRecord
  2
RESC1608N_45000_7
 70
0
 62
7
  6
CONTINUOUS
370
-3
390
F
  0
LAYER
  5
2F5
100
AcDbSymbolTableRecord
100
AcDbLayerTableRecord
  2
RESC1608N_45000_8
 70
0
 62
7
  6
CONTINUOUS
370
-3
390
F
  0
LAYER
  5
2F6
100
AcDbSymbolTableRecord
100
AcDbLayerTableRecord
  2
RESC1608N_45000_9
 70
0
 62
7
  6
CONTINUOUS
370
-3
390
F
  0
LAYER
  5
2F7
100
AcDbSymbolTableRecord
100
AcDbLayerTableRecord
  2
RESC6432X70N_70000
 70
0
 62
7
  6
CONTINUOUS
370
-3
390
F
  0
LAYER
  5
2F8
100
AcDbSymbolTableRecord
100
AcDbLayerTableRecord
  2
RY-8PIN-1-VIMAR_565000
 70
0
 62
7
  6
CONTINUOUS
370
-3
390
F
  0
LAYER
  5
2F9
100
AcDbSymbolTableRecord
100
AcDbLayerTableRecord
  2
RY-8PIN-1-VIMAR_565000_1
 70
0
 62
7
  6
CONTINUOUS
370
-3
390
F
  0
LAYER
  5
2FA
100
AcDbSymbolTableRecord
100
AcDbLayerTableRecord
  2
RY-S12CO-1-VIMAR_1060000
 70
0
 62
7
  6
CONTINUOUS
370
-3
390
F
  0
LAYER
  5
2FB
100
AcDbSymbolTableRecord
100
AcDbLayerTableRecord
  2
RY-S12CO-1-VIMAR_1060000_1
 70
0
 62
7
  6
CONTINUOUS
370
-3
390
F
  0
LAYER
  5
2FC
100
AcDbSymbolTableRecord
100
AcDbLayerTableRecord
  2
RY-S12CO-3-VIMAR_1250000
 70
0
 62
7
  6
CONTINUOUS
370
-3
390
F
  0
LAYER
  5
2FD
100
AcDbSymbolTableRecord
100
AcDbLayerTableRecord
  2
RY-S12CO-3-VIMAR_1250000_1
 70
0
 62
7
  6
CONTINUOUS
370
-3
390
F
  0
LAYER
  5
2FE
100
AcDbSymbolTableRecord
100
AcDbLayerTableRecord
  2
SIMBOLI
 70
0
 62
7
  6
CONTINUOUS
370
-3
390
F
  0
LAYER
  5
2FF
100
AcDbSymbolTableRecord
100
AcDbLayerTableRecord
  2
SMUSSO
 70
0
 62
7
  6
CONTINUOUS
370
-3
390
F
  0
LAYER
  5
300
100
AcDbSymbolTableRecord
100
AcDbLayerTableRecord
  2
SOIC127P1047X264-32N_265000
 70
0
 62
7
  6
CONTINUOUS
370
-3
390
F
  0
LAYER
  5
301
100
AcDbSymbolTableRecord
100
AcDbLayerTableRecord
  2
SOIC8-OPTO-RF-VIMAR_320000
 70
0
 62
7
  6
CONTINUOUS
370
-3
390
F
  0
LAYER
  5
302
100
AcDbSymbolTableRecord
100
AcDbLayerTableRecord
  2
SOIC8-OPTO-RF-VIMAR_320000_1
 70
0
 62
7
  6
CONTINUOUS
370
-3
390
F
  0
LAYER
  5
303
100
AcDbSymbolTableRecord
100
AcDbLayerTableRecord
  2
SOP20-1-VIMAR_270000
 70
0
 62
7
  6
CONTINUOUS
370
-3
390
F
  0
LAYER
  5
304
100
AcDbSymbolTableRecord
100
AcDbLayerTableRecord
  2
SOP8-T1-RF-FINE-VIMAR_150000
 70
0
 62
7
  6
CONTINUOUS
370
-3
390
F
  0
LAYER
  5
305
100
AcDbSymbolTableRecord
100
AcDbLayerTableRecord
  2
SOT95P280X110-6N_110000
 70
0
 62
7
  6
CONTINUOUS
370
-3
390
F
  0
LAYER
  5
306
100
AcDbSymbolTableRecord
100
AcDbLayerTableRecord
  2
SOT95P280X110-6N_110000_1
 70
0
 62
7
  6
CONTINUOUS
370
-3
390
F
  0
LAYER
  5
307
100
AcDbSymbolTableRecord
100
AcDbLayerTableRecord
  2
SOT95P280X110-6N_110000_2
 70
0
 62
7
  6
CONTINUOUS
370
-3
390
F
  0
LAYER
  5
308
100
AcDbSymbolTableRecord
100
AcDbLayerTableRecord
  2
SOT95P280X110-6N_110000_3
 70
0
 62
7
  6
CONTINUOUS
370
-3
390
F
  0
LAYER
  5
309
100
AcDbSymbolTableRecord
100
AcDbLayerTableRecord
  2
SUPERFICI
 70
0
 62
7
  6
CONTINUOUS
370
-3
390
F
  0
LAYER
  5
30A
100
AcDbSymbolTableRecord
100
AcDbLayerTableRecord
  2
SUPERFICI_SKEL
 70
0
 62
7
  6
CONTINUOUS
370
-3
390
F
  0
LAYER
  5
30B
100
AcDbSymbolTableRecord
100
AcDbLayerTableRecord
  2
TRASH
 70
0
 62
7
  6
CONTINUOUS
370
-3
390
F
  0
LAYER
  5
30C
100
AcDbSymbolTableRecord
100
AcDbLayerTableRecord
  2
TSSOP14-RF-2-VIMAR_110000
 70
0
 62
7
  6
CONTINUOUS
370
-3
390
F
  0
LAYER
  5
30D
100
AcDbSymbolTableRecord
100
AcDbLayerTableRecord
  2
TSSOP14-RF-2-VIMAR_110000_1
 70
0
 62
7
  6
CONTINUOUS
370
-3
390
F
  0
LAYER
  5
30E
100
AcDbSymbolTableRecord
100
AcDbLayerTableRecord
  2
XSEC_DATUMS
 70
0
 62
7
  6
CONTINUOUS
370
-3
390
F
  0
LAYER
  5
30F
100
AcDbSymbolTableRecord
100
AcDbLayerTableRecord
  2
___SHELL
 70
0
 62
7
  6
CONTINUOUS
370
-3
390
F
  0
ENDTAB
  0
TABLE
  2
STYLE
  5
3
100
AcDbSymbolTable
 70
1
  0
STYLE
  5
11
100
AcDbSymbolTableRecord
100
AcDbTextStyleTableRecord
  2
STANDARD
 70
0
 40
0.0
 41
0.8
 50
0.0
 71
0
 42
0.2
  3
txt
  4

  0
STYLE
  5
310
100
AcDbSymbolTableRecord
100
AcDbTextStyleTableRecord
  2
TEXTSTYLE_1
 70
0
 40
0.0
 41
0.8
 50
0.0
 71
0
 42
0.2
  3
gdt
  4

  0
ENDTAB
  0
TABLE
  2
VIEW
  5
6
100
AcDbSymbolTable
 70
0
  0
ENDTAB
  0
TABLE
  2
UCS
  5
7
100
AcDbSymbolTable
 70
0
  0
ENDTAB
  0
TABLE
  2
APPID
  5
9
100
AcDbSymbolTable
 70
1
  0
APPID
  5
311
100
AcDbSymbolTableRecord
100
AcDbRegAppTableRecord
  2
ACAD
 70
0
  0
ENDTAB
  0
TABLE
  2
BLOCK_RECORD
  5
1
100
AcDbSymbolTable
 70
0
  0
BLOCK_RECORD
  5
312
100
AcDbSymbolTableRecord
100
AcDbBlockTableRecord
  2
*Model_Space
  0
BLOCK_RECORD
  5
313
100
AcDbSymbolTableRecord
100
AcDbBlockTableRecord
  2
*Paper_Space
  0
ENDTAB
  0
TABLE
  2
DIMSTYLE
  5
A
100
AcDbSymbolTable
 70
1
100
AcDbDimStyleTable
 71
0
  0
DIMSTYLE
105
314
100
AcDbSymbolTableRecord
100
AcDbDimStyleTableRecord
  2
STANDARD
 70
0
  3

  4

 40
1.0
 41
3.0
 42
0.0625
 43
0.38
 44
0.18
 45
0.0
 46
0.0
 47
0.01
 48
0.01
140
3.0
141
0.09
142
0.0
143
25.4
144
1.0
145
0.0
146
1.0
147
0.09
 71
1.0
 72
0.0
 73
0
 74
0
 75
0
 76
0
 77
1
 78
8
170
0
171
2
172
0
173
0
174
0
175
0
176
0
177
0
178
0
270
2
271
2
272
2
273
2
274
2
275
0
280
0
281
0
282
0
283
1
284
8
285
0
286
0
287
3
288
0
340
11
  0
ENDTAB
  0
ENDSEC
  0
SECTION
  2
BLOCKS
  0
BLOCK
  5
20
100
AcDbEntity
  8
0
100
AcDbBlockBegin
  2
*Model_Space
 70
0
 10
0.0
 20
0.0
 30
0.0
  3
*Model_Space
  1

  0
ENDBLK
  5
21
100
AcDbEntity
  8
0
100
AcDbBlockEnd
  0
BLOCK
  5
1C
100
AcDbEntity
  8
0
100
AcDbBlockBegin
  2
*Paper_Space
 70
0
 10
0.0
 20
0.0
 30
0.0
  3
*Paper_Space
  1

  0
ENDBLK
  5
1D
100
AcDbEntity
  8
0
100
AcDbBlockEnd
  0
ENDSEC
  0
SECTION
  2
ENTITIES
  0
LWPOLYLINE
  5
315
100
AcDbEntity
  8
0
100
AcDbPolyline
 62
7
  6
CONTINUOUS
 90
16
 70
0
 10
67.4198026316
 20
72.2162462874
 10
67.4316802498
 20
72.0323238784
 10
67.4642429424
 20
71.8541549534
 10
67.5174907095
 20
71.6817395123
 10
67.592450653
 20
71.5133050694
 10
67.6880956708
 20
71.3506241104
 10
67.8013444573
 20
71.1990140928
 10
67.9327681077
 20
71.0588611491
 10
68.0817955267
 20
70.9297791466
 10
68.2436321232
 20
70.8159271455
 10
68.4186947993
 20
70.7177984015
 10
68.6065666529
 20
70.6348996587
 10
68.8012023863
 20
70.5699102094
 10
69.0005869004
 20
70.523723151
 10
69.2067352944
 20
70.4954453861
 10
69.4196475683
 20
70.4850769146
  0
LWPOLYLINE
  5
316
100
AcDbEntity
  8
RACCORDO
100
AcDbPolyline
 62
7
  6
CONTINUOUS
 90
3
 70
0
 10
67.4198026312
 20
71.9586748826
 10
67.4224640211
 20
71.8684798928
 10
67.4288186084
 20
71.7938729246
  0
LINE
  5
317
100
AcDbEntity
  8
RACCORDO
100
AcDbLine
 62
7
  6
CONTINUOUS
 10
67.4198026312
 20
71.9586748826
 11
67.4198026312
 21
72.2162462874
  0
LINE
  5
318
100
AcDbEntity
  8
0
100
AcDbLine
 62
7
  6
CONTINUOUS
 10
67.4198026316
 20
72.2162462874
 11
67.41979889
 21
153.8685652464
  0
LWPOLYLINE
  5
319
100
AcDbEntity
  8
RACCORDO
100
AcDbPolyline
 62
7
  6
CONTINUOUS
 90
16
 70
0
 10
69.4529031422
 20
150.0451296104
 10
69.4685594167
 20
150.2573481845
 10
69.5043630096
 20
150.4627714962
 10
69.5603139212
 20
150.6613995454
 10
69.6376861191
 20
150.8555341471
 10
69.7352056356
 20
151.0428734863
 10
69.8490505672
 20
151.2165121186
 10
69.9792119981
 20
151.3752984142
 10
70.1256988441
 20
151.5203840028
 10
70.2847159494
 20
151.6483183292
 10
70.4573000419
 20
151.7590365209
 10
70.6424143938
 20
151.8526034504
 10
70.8331536651
 20
151.9257631801
 10
71.0272160759
 20
151.9774303972
 10
71.2269034061
 20
152.0086904145
 10
71.4322156558
 20
152.0195432318
  0
LWPOLYLINE
  5
31A
100
AcDbEntity
  8
0
100
AcDbPolyline
 62
253
  6
CONTINUOUS
 90
3
 70
0
 10
68.9173885896
 20
129.8896270725
 10
68.9240114686
 20
129.952905374
 10
68.9392299691
 20
130.0157234384
  0
LWPOLYLINE
  5
31B
100
AcDbEntity
  8
0
100
AcDbPolyline
 62
253
  6
CONTINUOUS
 90
10
 70
0
 10
69.2629590933
 20
128.2387046005
 10
68.9970904781
 20
126.1986201436
 10
68.7464847262
 20
124.1581123106
 10
68.5111440934
 20
122.1172085745
 10
68.2910686418
 20
120.0759167244
 10
68.0862624896
 20
118.0342839147
 10
67.8967323842
 20
115.992396705
 10
67.7224800348
 20
113.9503023046
 10
67.5635035385
 20
111.9080085307
 10
67.4198026316
 20
109.8655428859
  0
LWPOLYLINE
  5
31C
100
AcDbEntity
  8
RACCORDO
100
AcDbPolyline
 62
253
  6
CONTINUOUS
 90
10
 70
0
 10
69.5083680496
 20
128.6214335762
 10
69.5782838656
 20
129.1354285119
 10
69.6491645027
 20
129.6493897321
 10
69.7210098928
 20
130.1633167578
 10
69.7938200931
 20
130.6772099896
 10
69.8675949134
 20
131.1910680691
 10
69.9423338994
 20
131.7048878793
 10
70.0180368378
 20
132.2186680628
 10
70.0947037727
 20
132.7324090204
 10
70.1723346211
 20
133.246110274
  0
LWPOLYLINE
  5
31D
100
AcDbEntity
  8
0
100
AcDbPolyline
 62
253
  6
CONTINUOUS
 90
7
 70
0
 10
68.9392299691
 20
130.0157234384
 10
68.9628445233
 20
130.0763310299
 10
68.9939064611
 20
130.1326682513
 10
69.0314582989
 20
130.1838096325
 10
69.0752019833
 20
130.2297658383
 10
69.1236611451
 20
130.2693282854
 10
69.1591622445
 20
130.2916910349
  0
LWPOLYLINE
  5
31E
100
AcDbEntity
  8
0
100
AcDbPolyline
 62
253
  6
CONTINUOUS
 90
5
 70
0
 10
69.3347009821
 20
128.4691831131
 10
69.3058794265
 20
128.4154764262
 10
69.2838220912
 20
128.3578423925
 10
69.2694784623
 20
128.2984162647
 10
69.2629651117
 20
128.2387044327
  0
LWPOLYLINE
  5
31F
100
AcDbEntity
  8
RACCORDO
100
AcDbPolyline
 62
253
  6
CONTINUOUS
 90
18
 70
0
 10
70.2476821407
 20
66.1068463256
 10
70.2980641029
 20
66.058589759
 10
70.3681468103
 20
65.9976578943
 10
70.4421247737
 20
65.940063475
 10
70.5198259819
 20
65.8859724584
 10
70.6010830221
 20
65.8355405536
 10
70.6857223481
 20
65.7889082951
 10
70.7735453223
 20
65.7462180695
 10
70.8643374525
 20
65.7076210022
 10
70.9579036386
 20
65.6732288112
 10
71.0540149442
 20
65.6431565529
 10
71.1523943906
 20
65.6175446283
 10
71.252810032
 20
65.5964724627
 10
71.3550217837
 20
65.5800125852
 10
71.4587298939
 20
65.5682741088
 10
71.5636651436
 20
65.5613176006
 10
71.6695893462
 20
65.5591554769
 10
71.7762419509
 20
65.5618037669
  0
LWPOLYLINE
  5
320
100
AcDbEntity
  8
RACCORDO
100
AcDbPolyline
 62
7
  6
CONTINUOUS
 90
17
 70
0
 10
70.2477174129
 20
66.1068195924
 10
70.2842008467
 20
66.0713683934
 10
70.3585120216
 20
66.0047859071
 10
70.4369078235
 20
65.9416973889
 10
70.5191923007
 20
65.8822784303
 10
70.6052216542
 20
65.8266710536
 10
70.6948069168
 20
65.7750503778
 10
70.7877321485
 20
65.727571368
 10
70.8838145461
 20
65.6843688189
 10
70.9828582352
 20
65.6455878767
 10
71.084632663
 20
65.6113624701
 10
71.188887209
 20
65.5818249269
 10
71.2953946633
 20
65.5570998027
 10
71.4039454429
 20
65.5372949759
 10
71.5142910868
 20
65.5225231211
 10
71.6261871923
 20
65.5128938481
 10
71.7393837756
 20
65.5085036094
  0
LINE
  5
321
100
AcDbEntity
  8
RACCORDO
100
AcDbLine
 62
7
  6
CONTINUOUS
 10
70.2471190415
 20
66.1074090093
 11
70.2476821407
 21
66.1068463256
  0
LWPOLYLINE
  5
322
100
AcDbEntity
  8
RACCORDO
100
AcDbPolyline
 62
253
  6
CONTINUOUS
 90
19
 70
0
 10
71.7762421896
 20
65.5618028575
 10
71.5659872095
 20
65.7752285301
 10
71.3654387098
 20
65.9918816501
 10
71.1745966907
 20
66.2117836688
 10
70.9937301098
 20
66.4345794128
 10
70.8225700094
 20
66.6606583911
 10
70.6603095166
 20
66.8911965369
 10
70.506910141
 20
67.1257708712
 10
70.3624103729
 20
67.3649119724
 10
70.22611881
 20
67.611349581
 10
70.0974394226
 20
67.8655902514
 10
69.9769682405
 20
68.1274311745
 10
69.8658019507
 20
68.398680798
 10
69.7634730021
 20
68.6804770929
 10
69.6704489457
 20
68.9721255429
 10
69.5892291226
 20
69.2727075872
 10
69.5206466464
 20
69.5820218562
 10
69.4638684034
 20
69.9006265054
 10
69.4188943935
 20
70.2287075299
  0
LWPOLYLINE
  5
323
100
AcDbEntity
  8
RACCORDO
100
AcDbPolyline
 62
7
  6
CONTINUOUS
 90
16
 70
0
 10
67.4288794599
 20
71.7938779726
 10
67.4798497836
 20
71.4072376782
 10
67.5567228457
 20
70.9758560095
 10
67.6538853394
 20
70.5505723856
 10
67.7709931381
 20
70.1322338027
 10
67.9079279947
 20
69.7207089791
 10
68.0650203856
 20
69.3149763371
 10
68.2422193149
 20
68.91543902
 10
68.4394621163
 20
68.5224745336
 10
68.6574444329
 20
68.1351369105
 10
68.8962771897
 20
67.7538449548
 10
69.1560751883
 20
67.3789786804
 10
69.4379500318
 20
67.0096408261
 10
69.7425846176
 20
66.645838648
 10
70.0699939593
 20
66.2884003933
 10
70.2471214602
 20
66.1074065923
  0
LWPOLYLINE
  5
324
100
AcDbEntity
  8
RACCORDO
100
AcDbPolyline
 62
7
  6
CONTINUOUS
 90
30
 70
0
 10
67.4288186084
 20
71.7938729246
 10
67.4305715981
 20
71.7787339511
 10
67.4441253621
 20
71.6894370574
 10
67.4632143121
 20
71.6002087095
 10
67.4877494492
 20
71.5114294098
 10
67.5174637762
 20
71.4242406643
 10
67.5524111783
 20
71.3387865108
 10
67.5925377705
 20
71.2549229116
 10
67.6374148997
 20
71.1733592607
 10
67.6869292334
 20
71.0942652033
 10
67.7411941041
 20
71.0174710942
 10
67.8001208569
 20
70.9431773913
 10
67.8639287761
 20
70.8711561751
 10
67.9323985773
 20
70.801635365
 10
68.0047837521
 20
70.7354991777
 10
68.0811747507
 20
70.6728268162
 10
68.161481123
 20
70.6135390774
 10
68.24468501
 20
70.5582825677
 10
68.3305205184
 20
70.5072473597
 10
68.4192535417
 20
70.4602433809
 10
68.5106639007
 20
70.4173470204
 10
68.604954113
 20
70.3784572427
 10
68.7019216612
 20
70.3436750834
 10
68.8007388143
 20
70.3133800386
 10
68.9015716465
 20
70.2876204822
 10
69.0042540837
 20
70.2663480404
 10
69.107460172
 20
70.2497970872
 10
69.2107479267
 20
70.2380457474
 10
69.3145593325
 20
70.2310158963
 10
69.4188943894
 20
70.2287075338
  0
LWPOLYLINE
  5
325
100
AcDbEntity
  8
0
100
AcDbPolyline
 62
253
  6
CONTINUOUS
 90
16
 70
0
 10
69.5342848503
 20
85.9732293313
 10
69.5392827921
 20
85.8194779274
 10
69.5550277593
 20
85.6747603935
 10
69.5815197519
 20
85.5390767297
 10
69.6195592506
 20
85.4122953407
 10
69.6683457748
 20
85.2945478218
 10
69.7254778824
 20
85.186228959
 10
69.7913495986
 20
85.0866150365
 10
69.8655668982
 20
84.99642977
 10
69.9445462644
 20
84.9182390925
 10
70.0278581453
 20
84.8529434758
 10
70.1159320927
 20
84.799642448
 10
70.2064732456
 20
84.7582005266
 10
70.2987166501
 20
84.7285725507
 10
70.3934272599
 20
84.7108036813
 10
70.4906050752
 20
84.7048939182
  0
LWPOLYLINE
  5
326
100
AcDbEntity
  8
0
100
AcDbPolyline
 62
253
  6
CONTINUOUS
 90
19
 70
0
 10
68.5360035462
 20
86.0007158404
 10
68.5382482695
 20
85.8733432883
 10
68.5487750864
 20
85.7407093963
 10
68.5686873605
 20
85.603249096
 10
68.5989119824
 20
85.461730701
 10
68.6405776931
 20
85.3167726207
 10
68.6953712178
 20
85.1688597651
 10
68.7642780398
 20
85.0192831885
 10
68.8483677187
 20
84.8694684557
 10
68.9501025354
 20
84.7206841931
 10
69.0718438735
 20
84.5733774643
 10
69.2125516656
 20
84.4322137315
 10
69.368513042
 20
84.3047103218
 10
69.53632765
 20
84.1941619193
 10
69.7148964057
 20
84.1006414674
 10
69.9025520523
 20
84.0259772369
 10
70.0966720305
 20
83.9714235298
 10
70.2937391343
 20
83.9373320216
 10
70.4906050404
 20
83.9236978572
  0
LINE
  5
327
100
AcDbEntity
  8
0
100
AcDbLine
 62
7
  6
CONTINUOUS
 10
69.3838679176
 20
155.8655428982
 11
69.3838679176
 21
155.8711828859
  0
LINE
  5
328
100
AcDbEntity
  8
0
100
AcDbLine
 62
253
  6
CONTINUOUS
 10
70.4906050336
 20
84.7048939188
 11
70.4906050336
 21
83.923709059
  0
LINE
  5
329
100
AcDbEntity
  8
0
100
AcDbLine
 62
253
  6
CONTINUOUS
 10
70.7229394396
 20
125.5376395152
 11
70.7229394396
 21
125.9645873284
  0
LINE
  5
32A
100
AcDbEntity
  8
0
100
AcDbLine
 62
253
  6
CONTINUOUS
 10
71.2131856786
 20
152.0065429753
 11
71.2131856786
 21
152.2696241962
  0
LINE
  5
32B
100
AcDbEntity
  8
RACCORDO
100
AcDbLine
 62
253
  6
CONTINUOUS
 10
71.7762412073
 20
65.5618028575
 11
71.7762412609
 21
65.5082184646
  0
LINE
  5
32C
100
AcDbEntity
  8
RACCORDO
100
AcDbLine
 62
253
  6
CONTINUOUS
 10
72.5325365001
 20
146.339157583
 11
72.532535644
 21
147.2915929548
  0
LWPOLYLINE
  5
32D
100
AcDbEntity
  8
0
100
AcDbPolyline
 62
253
  6
CONTINUOUS
 90
8
 70
0
 10
68.8347039047
 20
132.1620054672
 10
68.8354883698
 20
132.2863833454
 10
68.8365429711
 20
132.4111297171
 10
68.8378677778
 20
132.5362410027
 10
68.8394559037
 20
132.6612331263
 10
68.8413145496
 20
132.7865829417
 10
68.8434650028
 20
132.913729618
 10
68.8459145862
 20
133.0431520238
  0
LWPOLYLINE
  5
32E
100
AcDbEntity
  8
RACCORDO
100
AcDbPolyline
 62
7
  6
CONTINUOUS
 90
19
 70
0
 10
69.077325296
 20
133.331322543
 10
69.0723573137
 20
133.1089263566
 10
69.0683539942
 20
132.886316349
 10
69.0653153377
 20
132.6647709091
 10
69.0632270449
 20
132.4449608458
 10
69.0621034153
 20
132.2289040727
 10
69.0619873467
 20
132.0197869233
 10
69.0629110551
 20
131.8192897639
 10
69.0648423228
 20
131.6279491653
 10
69.0677273963
 20
131.4469649119
 10
69.0715648468
 20
131.2775918867
 10
69.0763561008
 20
131.1202942045
 10
69.082051688
 20
130.9751211731
 10
69.0886742767
 20
130.8426461291
 10
69.0962011964
 20
130.7240520425
 10
69.1045149684
 20
130.620291017
 10
69.1135764324
 20
130.5319849012
 10
69.123424746
 20
130.4595270913
 10
69.134059908
 20
130.4033010087
  0
LINE
  5
32F
100
AcDbEntity
  8
0
100
AcDbLine
 62
253
  6
CONTINUOUS
 10
68.8459145862
 20
133.0431520238
 11
68.8516916568
 21
133.3073734708
  0
LWPOLYLINE
  5
330
100
AcDbEntity
  8
0
100
AcDbPolyline
 62
253
  6
CONTINUOUS
 90
10
 70
0
 10
68.8516916568
 20
133.3073734708
 10
68.8949596118
 20
135.1329694404
 10
68.9379735198
 20
136.9760753733
 10
68.9807099398
 20
138.8363382834
 10
69.0231627035
 20
140.7144428718
 10
69.0652921019
 20
142.6089822638
 10
69.1070246165
 20
144.5164360222
 10
69.1483209105
 20
146.4353592633
 10
69.1891761045
 20
148.3664056723
 10
69.2295687703
 20
150.3091823621
  0
LWPOLYLINE
  5
331
100
AcDbEntity
  8
RACCORDO
100
AcDbPolyline
 62
7
  6
CONTINUOUS
 90
10
 70
0
 10
69.077325296
 20
133.331322543
 10
69.1192489041
 20
135.0816412833
 10
69.1611395176
 20
136.8586517467
 10
69.2029971366
 20
138.6623539332
 10
69.2448420135
 20
140.4927464957
 10
69.2866538959
 20
142.3498307812
 10
69.3283720258
 20
144.2336108312
 10
69.3699761505
 20
146.1440879931
 10
69.4114865226
 20
148.0812609194
 10
69.4529031422
 20
150.0451296104
  0
LWPOLYLINE
  5
332
100
AcDbEntity
  8
0
100
AcDbPolyline
 62
253
  6
CONTINUOUS
 90
10
 70
0
 10
68.5359788293
 20
86.0007165186
 10
68.656130026
 20
90.3094661876
 10
68.7796527855
 20
94.6438961514
 10
68.9064484213
 20
99.0039381306
 10
69.0364110243
 20
103.3893756984
 10
69.1694334353
 20
107.800289169
 10
69.3054072899
 20
112.2370545853
 10
69.444214741
 20
116.699751079
 10
69.585728248
 20
121.1881619424
 10
69.7298166362
 20
125.7022187911
  0
LWPOLYLINE
  5
333
100
AcDbEntity
  8
RACCORDO
100
AcDbPolyline
 62
253
  6
CONTINUOUS
 90
9
 70
0
 10
70.553251237
 20
145.3722947335
 10
70.5106982047
 20
143.9731014585
 10
70.4681950666
 20
142.5867081204
 10
70.4257496369
 20
141.2132720819
 10
70.3833838304
 20
139.85320067
 10
70.3410909162
 20
138.5063861564
 10
70.2988359847
 20
137.1722082449
 10
70.256612752
 20
135.8505530715
 10
70.214443093
 20
134.5418103507
  0
LWPOLYLINE
  5
334
100
AcDbEntity
  8
RACCORDO
100
AcDbPolyline
 62
253
  6
CONTINUOUS
 90
9
 70
0
 10
71.5501554736
 20
145.3430340494
 10
71.5076283219
 20
143.9433568885
 10
71.4651652877
 20
142.5567783626
 10
71.4227663708
 20
141.1832984719
 10
71.3804379788
 20
139.8230276371
 10
71.3381737042
 20
138.4758554373
 10
71.295954325
 20
137.1414506106
 10
71.2537734339
 20
135.8197027363
 10
71.2116374383
 20
134.5107222351
  0
LWPOLYLINE
  5
335
100
AcDbEntity
  8
0
100
AcDbPolyline
 62
253
  6
CONTINUOUS
 90
13
 70
0
 10
70.7229393764
 20
125.5376395085
 10
70.6076858628
 20
121.92642457
 10
70.495445498
 20
118.3745963183
 10
70.3862182819
 20
114.8821547536
 10
70.2799925361
 20
111.4485849701
 10
70.1767799391
 20
108.0744018736
 10
70.0766155264
 20
104.7611501808
 10
69.979711945
 20
101.5164210788
 10
69.8858565479
 20
98.3326233805
 10
69.7944464303
 20
95.1885282411
 10
69.7052806241
 20
92.0770593789
 10
69.6185600974
 20
89.0052930757
 10
69.5342848503
 20
85.9732293313
  0
LINE
  5
336
100
AcDbEntity
  8
RACCORDO
100
AcDbLine
 62
253
  6
CONTINUOUS
 10
70.071208004
 20
130.1378268597
 11
69.9458126149
 21
126.2539850057
  0
LINE
  5
337
100
AcDbEntity
  8
RACCORDO
100
AcDbLine
 62
253
  6
CONTINUOUS
 10
71.0646584656
 20
129.9882625381
 11
70.9346448105
 21
125.9571103409
  0
LWPOLYLINE
  5
338
100
AcDbEntity
  8
RACCORDO
100
AcDbPolyline
 62
253
  6
CONTINUOUS
 90
3
 70
0
 10
70.214443093
 20
134.5418103507
 10
70.1469888079
 20
132.4689386605
 10
70.071208004
 20
130.1378268597
  0
LWPOLYLINE
  5
339
100
AcDbEntity
  8
RACCORDO
100
AcDbPolyline
 62
253
  6
CONTINUOUS
 90
3
 70
0
 10
71.2116374383
 20
134.5107222351
 10
71.1432534356
 20
132.4078370386
 10
71.0646584656
 20
129.9882625381
  0
LWPOLYLINE
  5
33A
100
AcDbEntity
  8
0
100
AcDbPolyline
 62
253
  6
CONTINUOUS
 90
10
 70
0
 10
69.419642196
 20
70.4850769257
 10
69.5130770398
 20
71.8516847774
 10
69.6129910164
 20
73.2509216043
 10
69.719384126
 20
74.6825269746
 10
69.8323748704
 20
76.146659084
 10
69.9518447477
 20
77.6426348405
 10
70.0774382522
 20
79.1688402241
 10
70.2090368817
 20
80.7244538024
 10
70.3467591384
 20
82.3095365112
 10
70.4906050222
 20
83.9237090124
  0
LWPOLYLINE
  5
33B
100
AcDbEntity
  8
0
100
AcDbPolyline
 62
253
  6
CONTINUOUS
 90
10
 70
0
 10
67.4198026316
 20
72.2162446782
 10
67.5164388868
 20
73.6154203974
 10
67.6200381677
 20
75.0476874272
 10
67.7305517059
 20
76.5129682214
 10
67.84791338
 20
78.0109231955
 10
67.9720768424
 20
79.5417381712
 10
68.1030227202
 20
81.1061232844
 10
68.2407057305
 20
82.7042635639
 10
68.3850475245
 20
84.3358200614
 10
68.5359788293
 20
86.0007165186
  0
LWPOLYLINE
  5
33C
100
AcDbEntity
  8
0
100
AcDbPolyline
 62
253
  6
CONTINUOUS
 90
4
 70
0
 10
69.7298169846
 20
125.702218773
 10
69.7371818462
 20
125.763404598
 10
69.7529771372
 20
125.8240908626
 10
69.7769863641
 20
125.8826178058
  0
LWPOLYLINE
  5
33D
100
AcDbEntity
  8
0
100
AcDbPolyline
 62
253
  6
CONTINUOUS
 90
8
 70
0
 10
69.7769863641
 20
125.8826178058
 10
69.8082676495
 20
125.9370343031
 10
69.8458850225
 20
125.9864629007
 10
69.8895488939
 20
126.0309109513
 10
69.9378110592
 20
126.0692261062
 10
69.9895612964
 20
126.1010349209
 10
70.0456286302
 20
126.1269255391
 10
70.0524395322
 20
126.1291301612
  0
LWPOLYLINE
  5
33E
100
AcDbEntity
  8
0
100
AcDbPolyline
 62
253
  6
CONTINUOUS
 90
10
 70
0
 10
69.7298166362
 20
125.7022187911
 10
69.6765771875
 20
126.0063661444
 10
69.6236688903
 20
126.304930643
 10
69.5710963922
 20
126.5979123011
 10
69.5188648719
 20
126.8853058013
 10
69.466978415
 20
127.1671164242
 10
69.4154400786
 20
127.4433600725
 10
69.3642540283
 20
127.7140420208
 10
69.3134254746
 20
127.9791568915
 10
69.2629590933
 20
128.2387046005
  0
LWPOLYLINE
  5
33F
100
AcDbEntity
  8
0
100
AcDbPolyline
 62
253
  6
CONTINUOUS
 90
10
 70
0
 10
69.2629651134
 20
128.2387044221
 10
69.2240570514
 20
128.4358755999
 10
69.1852677707
 20
128.6295952188
 10
69.1466022113
 20
128.8198682097
 10
69.1080690656
 20
129.0066902363
 10
69.0696694725
 20
129.1900745663
 10
69.0313973845
 20
129.3700529631
 10
68.9932544725
 20
129.54663946
 10
68.95524976
 20
129.7198294642
 10
68.9173885733
 20
129.8896272532
  0
LWPOLYLINE
  5
340
100
AcDbEntity
  8
RACCORDO
100
AcDbPolyline
 62
7
  6
CONTINUOUS
 90
10
 70
0
 10
69.5083680496
 20
128.6214335762
 10
69.4661931669
 20
128.8352306457
 10
69.4241607224
 20
129.0450739838
 10
69.3822707158
 20
129.2509636924
 10
69.3405180352
 20
129.4528996555
 10
69.2989077926
 20
129.6508824902
 10
69.2574553249
 20
129.8449134848
 10
69.2161657443
 20
130.0349933603
 10
69.1750339387
 20
130.2211223303
 10
69.134059908
 20
130.4033010087
  0
LWPOLYLINE
  5
341
100
AcDbEntity
  8
0
100
AcDbPolyline
 62
253
  6
CONTINUOUS
 90
13
 70
0
 10
68.9173885733
 20
129.8896272532
 10
68.9037760871
 20
129.9631612
 10
68.8912585793
 20
130.0604500718
 10
68.8798263618
 20
130.1815281089
 10
68.8693496617
 20
130.3283865763
 10
68.8599414869
 20
130.4991133071
 10
68.8519540035
 20
130.6878601531
 10
68.84547552
 20
130.8936001468
 10
68.8403990816
 20
131.1173719461
 10
68.8367823474
 20
131.3563847569
 10
68.8346409889
 20
131.6096998735
 10
68.8339491074
 20
131.8782424855
 10
68.8347039047
 20
132.1620054672
  0
LWPOLYLINE
  5
342
100
AcDbEntity
  8
RACCORDO
100
AcDbPolyline
 62
7
  6
CONTINUOUS
 90
10
 70
0
 10
69.9458126089
 20
126.2539850389
 10
69.8960263131
 20
126.5363193648
 10
69.8465315339
 20
126.8138466909
 10
69.7973282715
 20
127.0865605802
 10
69.7484114333
 20
127.3544541207
 10
69.6997861119
 20
127.6175217837
 10
69.651467585
 20
127.8757593134
 10
69.6034609452
 20
128.1291613002
 10
69.5557611001
 20
128.3777212924
 10
69.5083680496
 20
128.6214335762
  0
LINE
  5
343
100
AcDbEntity
  8
RACCORDO
100
AcDbLine
 62
7
  6
CONTINUOUS
 10
82.7198013988
 20
126.7972576406
 11
82.7198013898
 21
134.7201819862
  0
LINE
  5
344
100
AcDbEntity
  8
0
100
AcDbLine
 62
7
  6
CONTINUOUS
 10
82.7448253041
 20
127.0484127333
 11
82.7448253041
 21
135.3740916931
  0
LINE
  5
345
100
AcDbEntity
  8
0
100
AcDbLine
 62
7
  6
CONTINUOUS
 10
82.9198026315
 20
136.6047151019
 11
82.9198026315
 21
134.6655428894
  0
LINE
  5
346
100
AcDbEntity
  8
0
100
AcDbLine
 62
7
  6
CONTINUOUS
 10
83.0685333485
 20
134.6655428929
 11
83.0685333485
 21
125.5376395085
  0
LWPOLYLINE
  5
347
100
AcDbEntity
  8
0
100
AcDbPolyline
 62
253
  6
CONTINUOUS
 90
5
 70
0
 10
69.5056045994
 20
128.63544233
 10
69.459394448
 20
128.6051013742
 10
69.4113501027
 20
128.5641402332
 10
69.3696425728
 20
128.5184745882
 10
69.3347009821
 20
128.4691831131
  0
LWPOLYLINE
  5
348
100
AcDbEntity
  8
0
100
AcDbPolyline
 62
253
  6
CONTINUOUS
 90
13
 70
0
 10
69.2295687703
 20
150.3091823621
 10
69.0223664879
 20
150.9737837075
 10
68.8269857557
 20
151.5652424991
 10
68.6429625891
 20
152.0811876657
 10
68.4700193568
 20
152.5100608126
 10
68.3075549853
 20
152.8582026706
 10
68.1547579427
 20
153.150773109
 10
68.0115694192
 20
153.3892907779
 10
67.8774887305
 20
153.5685805602
 10
67.7513714404
 20
153.7053055749
 10
67.6329067809
 20
153.8046423695
 10
67.5223895662
 20
153.8594260952
 10
67.41979889
 20
153.8685652151
  0
LWPOLYLINE
  5
349
100
AcDbEntity
  8
RACCORDO
100
AcDbPolyline
 62
253
  6
CONTINUOUS
 90
10
 70
0
 10
69.4528738686
 20
150.0437654313
 10
69.5718129826
 20
149.6200897327
 10
69.6917787584
 20
149.1730969327
 10
69.8126405004
 20
148.7026355111
 10
69.9341405436
 20
148.2087314914
 10
70.0562708496
 20
147.6909936235
 10
70.1793042968
 20
147.1486879735
 10
70.3032775709
 20
146.5814929504
 10
70.4279598409
 20
145.989424836
 10
70.553251237
 20
145.3722947335
  0
LWPOLYLINE
  5
34A
100
AcDbEntity
  8
RACCORDO
100
AcDbPolyline
 62
253
  6
CONTINUOUS
 90
10
 70
0
 10
71.4325494449
 20
152.0195432318
 10
71.5515344354
 20
151.5907388264
 10
71.6713302955
 20
151.138076841
 10
71.7919370247
 20
150.6615706177
 10
71.9133572138
 20
150.1615802697
 10
72.0355882716
 20
149.6378139311
 10
72.1586224244
 20
149.0891707006
 10
72.2824570809
 20
148.515146019
 10
72.4070948317
 20
147.9159888213
 10
72.5325356766
 20
147.2915929548
  0
LWPOLYLINE
  5
34B
100
AcDbEntity
  8
0
100
AcDbPolyline
 62
7
  6
CONTINUOUS
 90
10
 70
0
 10
83.0380951034
 20
126.0139470892
 10
83.0438209213
 20
125.9876752985
 10
83.0490232706
 20
125.9539757587
 10
83.0537021513
 20
125.9128484698
 10
83.0579408683
 20
125.8632735236
 10
83.0616561166
 20
125.8062708282
 10
83.0645979814
 20
125.7449001078
 10
83.0666831577
 20
125.6801812705
 10
83.0679949504
 20
125.6110944082
 10
83.0685333596
 20
125.5376395209
  0
LINE
  5
34C
100
AcDbEntity
  8
0
100
AcDbLine
 62
7
  6
CONTINUOUS
 10
100.5198026316
 20
130.6655429
 11
100.3710719036
 21
130.5168121718
  0
LWPOLYLINE
  5
34D
100
AcDbEntity
  8
RACCORDO
100
AcDbPolyline
 62
7
  6
CONTINUOUS
 90
17
 70
0
 10
211.6935014937
 20
65.5084104623
 10
211.8069606969
 20
65.5124998419
 10
211.9191340338
 20
65.521852328
 10
212.0297687577
 20
65.5363717635
 10
212.13861768
 20
65.5559487649
 10
212.245430046
 20
65.5804701327
 10
212.3499958363
 20
65.6098285774
 10
212.4520866988
 20
65.6438997505
 10
212.5514491751
 20
65.6825504146
 10
212.6478513691
 20
65.7256472369
 10
212.7410959416
 20
65.773045322
 10
212.8309974158
 20
65.8246084285
 10
212.9173382818
 20
65.8801817409
 10
212.9999280677
 20
65.9395904188
 10
213.0786206474
 20
66.0026905393
 10
213.1532183183
 20
66.069305813
 10
213.1918900912
 20
66.1068225584
  0
LINE
  5
34E
100
AcDbEntity
  8
0
100
AcDbLine
 62
7
  6
CONTINUOUS
 10
104.8198026316
 20
87.4201426261
 11
104.7848925016
 21
88.1480830956
  0
LINE
  5
34F
100
AcDbEntity
  8
0
100
AcDbLine
 62
7
  6
CONTINUOUS
 10
101.9932192697
 20
94.1480830912
 11
101.8198026316
 21
100.1176529053
  0
LINE
  5
350
100
AcDbEntity
  8
0
100
AcDbLine
 62
7
  6
CONTINUOUS
 10
100.3710719033
 20
130.5168121807
 11
100.3710719033
 21
134.6655428929
  0
LINE
  5
351
100
AcDbEntity
  8
0
100
AcDbLine
 62
7
  6
CONTINUOUS
 10
100.5198026316
 20
134.6655428982
 11
100.5198026316
 21
130.6655429
  0
LINE
  5
352
100
AcDbEntity
  8
RACCORDO
100
AcDbLine
 62
7
  6
CONTINUOUS
 10
100.7198013932
 20
131.720183466
 11
100.7198013898
 21
134.7201819862
  0
LINE
  5
353
100
AcDbEntity
  8
0
100
AcDbLine
 62
7
  6
CONTINUOUS
 10
101.8198026545
 20
87.4201426389
 11
101.8198026545
 21
100.1176529257
  0
LINE
  5
354
100
AcDbEntity
  8
0
100
AcDbLine
 62
7
  6
CONTINUOUS
 10
103.7579224894
 20
110.6155428882
 11
103.7579224894
 21
113.1155429018
  0
LINE
  5
355
100
AcDbEntity
  8
0
100
AcDbLine
 62
7
  6
CONTINUOUS
 10
104.2198026316
 20
110.6155428982
 11
104.2198026316
 21
113.1155428982
  0
LINE
  5
356
100
AcDbEntity
  8
0
100
AcDbLine
 62
7
  6
CONTINUOUS
 10
104.7198026316
 20
113.1155428976
 11
104.7198026316
 21
110.6155428988
  0
LINE
  5
357
100
AcDbEntity
  8
0
100
AcDbLine
 62
7
  6
CONTINUOUS
 10
104.7848925016
 20
88.1480830956
 11
104.7848925016
 21
98.9159316654
  0
LINE
  5
358
100
AcDbEntity
  8
0
100
AcDbLine
 62
7
  6
CONTINUOUS
 10
104.8198026716
 20
100.1176529257
 11
104.8198026716
 21
87.4201426389
  0
LINE
  5
359
100
AcDbEntity
  8
0
100
AcDbLine
 62
7
  6
CONTINUOUS
 10
105.1816828466
 20
110.6155428982
 11
105.1816828466
 21
113.1155428982
  0
LINE
  5
35A
100
AcDbEntity
  8
0
100
AcDbLine
 62
7
  6
CONTINUOUS
 10
104.6463859932
 20
94.1480830912
 11
104.8198026316
 21
100.1176529053
  0
LINE
  5
35B
100
AcDbEntity
  8
0
100
AcDbLine
 62
7
  6
CONTINUOUS
 10
101.8198026316
 20
87.4201426261
 11
101.8547127615
 21
88.1480830956
  0
LWPOLYLINE
  5
35C
100
AcDbEntity
  8
RACCORDO
100
AcDbPolyline
 62
7
  6
CONTINUOUS
 90
4
 70
0
 10
111.8784498108
 20
130.7308800247
 10
111.8646440828
 20
130.7108856166
 10
111.8533358773
 20
130.6902896059
 10
111.8447254158
 20
130.6699477966
  0
LINE
  5
35D
100
AcDbEntity
  8
DRAFT
100
AcDbLine
 62
7
  6
CONTINUOUS
 10
115.2184867686
 20
137.5514135849
 11
115.087252047
 21
137.4186907831
  0
LINE
  5
35E
100
AcDbEntity
  8
RACCORDO
100
AcDbLine
 62
253
  6
CONTINUOUS
 10
124.2230715783
 20
147.0275405165
 11
123.5339207146
 21
146.3391599392
  0
LWPOLYLINE
  5
35F
100
AcDbEntity
  8
0
100
AcDbPolyline
 62
7
  6
CONTINUOUS
 90
16
 70
0
 10
214.0199373298
 20
70.4850769146
 10
214.2325203399
 20
70.4953712851
 10
214.4384355468
 20
70.5235812984
 10
214.6376829506
 20
70.5697069546
 10
214.8323105048
 20
70.6346432858
 10
215.0202702559
 20
70.71749526
 10
215.1954183427
 20
70.81557778
 10
215.3573032098
 20
70.9293828588
 10
215.5063764126
 20
71.0584184836
 10
215.6378487571
 20
71.198523519
 10
215.7511491703
 20
71.350053488
 10
215.8468487251
 20
71.5126528676
 10
215.9218714462
 20
71.6810939539
 10
215.9751920084
 20
71.8536341787
 10
216.0078357369
 20
72.0320161101
 10
216.0198026316
 20
72.2162397482
  0
LWPOLYLINE
  5
360
100
AcDbEntity
  8
RACCORDO
100
AcDbPolyline
 62
7
  6
CONTINUOUS
 90
30
 70
0
 10
214.0207139786
 20
70.2287077441
 10
214.1250476478
 20
70.2310160532
 10
214.2288580109
 20
70.2380458658
 10
214.3321450679
 20
70.2497971818
 10
214.4353509181
 20
70.2663481311
 10
214.5380334621
 20
70.2876205837
 10
214.6388664021
 20
70.3133801502
 10
214.737683549
 20
70.3436751992
 10
214.8346510917
 20
70.378457362
 10
214.9289412991
 20
70.4173471426
 10
215.020351654
 20
70.4602435056
 10
215.1090846736
 20
70.5072474864
 10
215.1949201784
 20
70.5582826956
 10
215.2781240617
 20
70.6135392057
 10
215.3584304302
 20
70.6728269442
 10
215.4348214252
 20
70.7354993046
 10
215.5072065965
 20
70.8016354899
 10
215.5756763943
 20
70.8711562971
 10
215.6394843104
 20
70.9431775098
 10
215.6984110606
 20
71.0174712085
 10
215.7526759291
 20
71.0942653127
 10
215.802190261
 20
71.1733593641
 10
215.8470673886
 20
71.2549230081
 10
215.8871939796
 20
71.3387865993
 10
215.9221413812
 20
71.4242407435
 10
215.9518557058
 20
71.5114294869
 10
215.9763908412
 20
71.6002087832
 10
215.9954797981
 20
71.6894370995
 10
216.0090335803
 20
71.7787339247
 10
216.0107857835
 20
71.7938657374
  0
LINE
  5
361
100
AcDbEntity
  8
RACCORDO
100
AcDbLine
 62
7
  6
CONTINUOUS
 10
211.6633645297
 20
65.5082216223
 11
211.6935014937
 21
65.5084104623
  0
LINE
  5
362
100
AcDbEntity
  8
RACCORDO
100
AcDbLine
 62
7
  6
CONTINUOUS
 10
71.7762412609
 20
65.5082184646
 11
211.6633645203
 21
65.5082184646
  0
LINE
  5
363
100
AcDbEntity
  8
RACCORDO
100
AcDbLine
 62
253
  6
CONTINUOUS
 10
71.7762421896
 20
65.5618028575
 11
211.6633625064
 21
65.5618029818
  0
LINE
  5
364
100
AcDbEntity
  8
RACCORDO
100
AcDbLine
 62
7
  6
CONTINUOUS
 10
71.7393837756
 20
65.5085036094
 11
71.776241261
 21
65.5082214685
  0
LWPOLYLINE
  5
365
100
AcDbEntity
  8
RACCORDO
100
AcDbPolyline
 62
253
  6
CONTINUOUS
 90
18
 70
0
 10
211.6633628941
 20
65.561804207
 10
211.7700156687
 20
65.5591560023
 10
211.8759400034
 20
65.5613182043
 10
211.9808753471
 20
65.5682747798
 10
212.084583501
 20
65.5800133031
 10
212.1867952583
 20
65.596473208
 10
212.2872109021
 20
65.6175453956
 10
212.3855903573
 20
65.6431573416
 10
212.4817016681
 20
65.6732296156
 10
212.5752678614
 20
65.7076218197
 10
212.6660600023
 20
65.7462188986
 10
212.7538829881
 20
65.7889091336
 10
212.8385223251
 20
65.8355413989
 10
212.9197793749
 20
65.8859733076
 10
212.9974805914
 20
65.9400643255
 10
213.0714585613
 20
65.9976587438
 10
213.1415412734
 20
66.058590605
 10
213.1919253654
 20
66.1068492926
  0
LINE
  5
366
100
AcDbEntity
  8
0
100
AcDbLine
 62
7
  6
CONTINUOUS
 10
106.2198026668
 20
130.6655428982
 11
106.2198026668
 21
130.9201838606
  0
LINE
  5
367
100
AcDbEntity
  8
DRAFT
100
AcDbLine
 62
7
  6
CONTINUOUS
 10
106.2211160044
 20
137.5514135849
 11
106.221116008
 21
134.4201821342
  0
LINE
  5
368
100
AcDbEntity
  8
DRAFT
100
AcDbLine
 62
7
  6
CONTINUOUS
 10
106.3523472734
 20
137.4186907831
 11
106.3523472768
 21
134.4186922629
  0
LINE
  5
369
100
AcDbEntity
  8
0
100
AcDbLine
 62
7
  6
CONTINUOUS
 10
108.2579224166
 20
113.1155427602
 11
108.2579224166
 21
110.6155428912
  0
LINE
  5
36A
100
AcDbEntity
  8
0
100
AcDbLine
 62
7
  6
CONTINUOUS
 10
108.7198026316
 20
110.6155428988
 11
108.7198026316
 21
113.115542761
  0
LINE
  5
36B
100
AcDbEntity
  8
0
100
AcDbLine
 62
7
  6
CONTINUOUS
 10
109.2198026316
 20
113.1155430272
 11
109.2198026316
 21
110.6155431022
  0
LINE
  5
36C
100
AcDbEntity
  8
0
100
AcDbLine
 62
7
  6
CONTINUOUS
 10
109.681682788
 20
113.1155430787
 11
109.681682788
 21
110.6155431241
  0
LINE
  5
36D
100
AcDbEntity
  8
RACCORDO
100
AcDbLine
 62
7
  6
CONTINUOUS
 10
111.8431162748
 20
130.6655428982
 11
111.8447194869
 21
130.6699499697
  0
LINE
  5
36E
100
AcDbEntity
  8
RACCORDO
100
AcDbLine
 62
253
  6
CONTINUOUS
 10
130.2608783028
 20
145.7191927074
 11
129.7084621899
 21
145.1671496595
  0
LINE
  5
36F
100
AcDbEntity
  8
RACCORDO
100
AcDbLine
 62
253
  6
CONTINUOUS
 10
129.7084621899
 20
145.1671496595
 11
129.571727439
 21
145.0308121301
  0
LWPOLYLINE
  5
370
100
AcDbEntity
  8
RACCORDO
100
AcDbPolyline
 62
253
  6
CONTINUOUS
 90
6
 70
0
 10
111.9303987308
 20
130.7263297547
 10
111.9109232357
 20
130.7144846996
 10
111.8933772795
 20
130.7019349977
 10
111.877866453
 20
130.6887573459
 10
111.8644841304
 20
130.6750280368
 10
111.8570198323
 20
130.6655428982
  0
LWPOLYLINE
  5
371
100
AcDbEntity
  8
ASSI
100
AcDbPolyline
 62
7
  6
CONTINUOUS
 90
8
 70
0
 10
138.2421256338
 20
142.9536248346
 10
137.9091758472
 20
142.7642306178
 10
137.6028148949
 20
142.5597190412
 10
137.3235585808
 20
142.339797294
 10
137.0708911009
 20
142.104758187
 10
136.8496728156
 20
141.8591279993
 10
136.6605136596
 20
141.6027018171
 10
136.5028036983
 20
141.3356845541
  0
LWPOLYLINE
  5
372
100
AcDbEntity
  8
ASSI
100
AcDbPolyline
 62
7
  6
CONTINUOUS
 90
17
 70
0
 10
138.2421267422
 20
144.1036486033
 10
138.5952575907
 20
144.2742776142
 10
138.9689610718
 20
144.4257777492
 10
139.3628456147
 20
144.5585126783
 10
139.7693287349
 20
144.6699255649
 10
140.1886549107
 20
144.759603063
 10
140.6205796637
 20
144.8279585185
 10
141.0567870742
 20
144.8736751332
 10
141.497360253
 20
144.8963139741
 10
141.9422160893
 20
144.8963139741
 10
142.3827893304
 20
144.8736751332
 10
142.8189968666
 20
144.8279585185
 10
143.2509218075
 20
144.759603063
 10
143.6702482298
 20
144.6699255649
 10
144.0767316562
 20
144.5585126783
 10
144.4706165641
 20
144.4257777492
 10
144.8443204616
 20
144.2742776142
  0
LINE
  5
373
100
AcDbEntity
  8
RACCORDO
100
AcDbLine
 62
7
  6
CONTINUOUS
 10
69.4188943894
 20
70.2287075338
 11
214.0207139786
 21
70.2287077441
  0
LINE
  5
374
100
AcDbEntity
  8
0
100
AcDbLine
 62
7
  6
CONTINUOUS
 10
214.0199373298
 20
70.4850769146
 11
69.4196475683
 21
70.4850769146
  0
LWPOLYLINE
  5
375
100
AcDbEntity
  8
RACCORDO
100
AcDbPolyline
 62
253
  6
CONTINUOUS
 90
19
 70
0
 10
113.6269013149
 20
130.6636445208
 10
113.6262948798
 20
130.6751072414
 10
113.6245911316
 20
130.6863151172
 10
113.6217900702
 20
130.697268148
 10
113.6178536721
 20
130.7080455247
 10
113.6128199609
 20
130.7185680564
 10
113.6068030072
 20
130.7285981713
 10
113.5997806629
 20
130.7381244622
 10
113.5917750761
 20
130.7471583362
 10
113.5829667625
 20
130.7554964432
 10
113.5733375081
 20
130.7631230138
 10
113.5629055269
 20
130.7700538174
 10
113.551905976
 20
130.7761328112
 10
113.5403259769
 20
130.7813405047
 10
113.5281784082
 20
130.7856963885
 10
113.5157370629
 20
130.7891028917
 10
113.5030932054
 20
130.7915274906
 10
113.4901555713
 20
130.7930027088
 10
113.4769241606
 20
130.7935285464
  0
LINE
  5
376
100
AcDbEntity
  8
RACCORDO
100
AcDbLine
 62
253
  6
CONTINUOUS
 10
112.2317694729
 20
130.8685285464
 11
112.2317694648
 21
130.6655428982
  0
LINE
  5
377
100
AcDbEntity
  8
RACCORDO
100
AcDbLine
 62
253
  6
CONTINUOUS
 10
113.4769241606
 20
130.7935285464
 11
113.4769241606
 21
130.8685285464
  0
LINE
  5
378
100
AcDbEntity
  8
DRAFT
100
AcDbLine
 62
7
  6
CONTINUOUS
 10
115.0872520505
 20
134.4186922629
 11
115.087252047
 21
137.4186907831
  0
LINE
  5
379
100
AcDbEntity
  8
DRAFT
100
AcDbLine
 62
7
  6
CONTINUOUS
 10
115.2184867722
 20
134.4201821342
 11
115.2184867686
 21
137.5514135849
  0
LINE
  5
37A
100
AcDbEntity
  8
0
100
AcDbLine
 62
7
  6
CONTINUOUS
 10
115.219802638
 20
130.9201838606
 11
115.219802638
 21
130.6655428982
  0
LWPOLYLINE
  5
37B
100
AcDbEntity
  8
RACCORDO
100
AcDbPolyline
 62
253
  6
CONTINUOUS
 90
10
 70
0
 10
123.9507854789
 20
150.2430677804
 10
123.8641960052
 20
149.9148162835
 10
123.7881638973
 20
149.5851391144
 10
123.7226891553
 20
149.2547067791
 10
123.668474063
 20
148.9241714039
 10
123.6248163369
 20
148.5941686728
 10
123.589609126
 20
148.2653180319
 10
123.5621501469
 20
147.9382201432
 10
123.5431416833
 20
147.6134567989
 10
123.5325837354
 20
147.2915929925
  0
LWPOLYLINE
  5
37C
100
AcDbEntity
  8
RACCORDO
100
AcDbPolyline
 62
253
  6
CONTINUOUS
 90
10
 70
0
 10
124.6399372131
 20
149.9625999177
 10
124.5533471666
 20
149.6350900548
 10
124.477314584
 20
149.3074660996
 10
124.4118394651
 20
148.9797280523
 10
124.3576238057
 20
148.6512104811
 10
124.31396561
 20
148.3225788178
 10
124.2787588913
 20
147.9958293569
 10
124.2513016541
 20
147.67162753
 10
124.2322958938
 20
147.3493079057
 10
124.2217416105
 20
147.0288704838
  0
LINE
  5
37D
100
AcDbEntity
  8
RACCORDO
100
AcDbLine
 62
253
  6
CONTINUOUS
 10
134.2032391442
 20
135.6698467847
 11
134.7556552571
 21
136.2218898326
  0
LINE
  5
37E
100
AcDbEntity
  8
RACCORDO
100
AcDbLine
 62
253
  6
CONTINUOUS
 10
134.7556552571
 20
136.2218898326
 11
134.8923900079
 21
136.358227362
  0
LWPOLYLINE
  5
37F
100
AcDbEntity
  8
0
100
AcDbPolyline
 62
253
  6
CONTINUOUS
 90
19
 70
0
 10
212.949000224
 20
83.923697847
 10
213.1503375135
 20
83.9377803297
 10
213.3526666475
 20
83.9735851343
 10
213.5526198614
 20
84.0313247212
 10
213.7477552132
 20
84.1116147965
 10
213.9336094712
 20
84.2127155934
 10
214.1042777359
 20
84.3296550987
 10
214.2568866959
 20
84.4594489855
 10
214.3912826693
 20
84.5995653377
 10
214.5071767047
 20
84.7446576614
 10
214.6043220953
 20
84.8909066273
 10
214.6844448411
 20
85.0373934394
 10
214.7503055875
 20
85.1837357852
 10
214.8029907129
 20
85.3290534545
 10
214.8431655179
 20
85.4717435533
 10
214.8722674118
 20
85.610901616
 10
214.891386045
 20
85.7457991933
 10
214.9014738451
 20
85.8758706116
 10
214.9036017412
 20
86.0007148106
  0
LWPOLYLINE
  5
380
100
AcDbEntity
  8
0
100
AcDbPolyline
 62
253
  6
CONTINUOUS
 90
16
 70
0
 10
212.9490001643
 20
84.7048939182
 10
213.042114
 20
84.7096242763
 10
213.1339372075
 20
84.7262971836
 10
213.2244697868
 20
84.75491264
 10
213.3147658765
 20
84.7952723322
 10
213.403771338
 20
84.8475745735
 10
213.4883237556
 20
84.912414304
 10
213.5687712773
 20
84.9910067916
 10
213.6447657551
 20
85.0821367685
 10
213.712100329
 20
85.1827533711
 10
213.7701325524
 20
85.2920744996
 10
213.8195048718
 20
85.4108822539
 10
213.8579377672
 20
85.5384720706
 10
213.8846713985
 20
85.6746090951
 10
213.9004656059
 20
85.819528182
 10
213.9053203892
 20
85.9732293313
  0
LINE
  5
381
100
AcDbEntity
  8
RACCORDO
100
AcDbLine
 62
253
  6
CONTINUOUS
 10
123.5339207146
 20
146.3391584429
 11
123.5339199108
 21
147.2915929925
  0
LINE
  5
382
100
AcDbEntity
  8
ASSI
100
AcDbLine
 62
7
  6
CONTINUOUS
 10
136.5028036983
 20
141.3356845541
 11
136.3795734872
 21
141.0632172314
  0
LINE
  5
383
100
AcDbEntity
  8
RACCORDO
100
AcDbLine
 62
253
  6
CONTINUOUS
 10
157.1165303156
 20
149.6570240268
 11
153.1786970583
 21
145.7191927074
  0
LINE
  5
384
100
AcDbEntity
  8
RACCORDO
100
AcDbLine
 62
253
  6
CONTINUOUS
 10
158.7996399248
 20
149.9625999177
 11
153.8678497101
 21
145.0308121301
  0
LWPOLYLINE
  5
385
100
AcDbEntity
  8
RACCORDO
100
AcDbPolyline
 62
253
  6
CONTINUOUS
 90
10
 70
0
 10
158.7996384374
 20
149.9626014057
 10
158.8631546704
 20
150.017884278
 10
158.9311609791
 20
150.0678228058
 10
159.0031692923
 20
150.112058583
 10
159.0786628167
 20
150.1502741314
 10
159.1570997463
 20
150.1821951798
 10
159.2379171504
 20
150.2075926318
 10
159.320535014
 20
150.2262842102
 10
159.4043604002
 20
150.2381357653
 10
159.488791706
 20
150.2430622377
  0
LWPOLYLINE
  5
386
100
AcDbEntity
  8
RACCORDO
100
AcDbPolyline
 62
253
  6
CONTINUOUS
 90
10
 70
0
 10
159.2165293865
 20
147.0275405165
 10
159.2801289334
 20
147.0806585108
 10
159.3481905675
 20
147.1284802074
 10
159.420228803
 20
147.1706644821
 10
159.4957297886
 20
147.2069104261
 10
159.5741549731
 20
147.2369594922
 10
159.6549449466
 20
147.260597339
 10
159.737523431
 20
147.2776553604
 10
159.8213013908
 20
147.2880118879
 10
159.9056812345
 20
147.2915930581
  0
LINE
  5
387
100
AcDbEntity
  8
0
100
AcDbLine
 62
253
  6
CONTINUOUS
 10
213.9053203523
 20
85.9732293068
 11
214.9036084614
 21
86.0007150111
  0
LINE
  5
388
100
AcDbEntity
  8
0
100
AcDbLine
 62
253
  6
CONTINUOUS
 10
212.9490002316
 20
83.923709059
 11
70.4906050336
 21
83.923709059
  0
LINE
  5
389
100
AcDbEntity
  8
0
100
AcDbLine
 62
253
  6
CONTINUOUS
 10
70.4906050752
 20
84.7048939182
 11
212.9490001643
 21
84.7048939182
  0
LINE
  5
38A
100
AcDbEntity
  8
0
100
AcDbLine
 62
7
  6
CONTINUOUS
 10
181.6198025851
 20
87.4201426389
 11
178.6198025679
 21
87.4201426389
  0
LINE
  5
38B
100
AcDbEntity
  8
0
100
AcDbLine
 62
7
  6
CONTINUOUS
 10
104.8198026716
 20
87.4201426389
 11
101.8198026545
 21
87.4201426389
  0
LINE
  5
38C
100
AcDbEntity
  8
0
100
AcDbLine
 62
7
  6
CONTINUOUS
 10
181.5848925017
 20
88.1480830912
 11
178.6547127614
 21
88.1480830912
  0
LINE
  5
38D
100
AcDbEntity
  8
0
100
AcDbLine
 62
7
  6
CONTINUOUS
 10
104.7848925017
 20
88.1480830912
 11
101.8547127614
 21
88.1480830912
  0
LINE
  5
38E
100
AcDbEntity
  8
0
100
AcDbLine
 62
253
  6
CONTINUOUS
 10
69.5342849105
 20
85.9732293157
 11
68.5359819667
 21
86.0007164305
  0
LWPOLYLINE
  5
38F
100
AcDbEntity
  8
RACCORDO
100
AcDbPolyline
 62
7
  6
CONTINUOUS
 90
16
 70
0
 10
113.7652479052
 20
130.6655428982
 10
113.7587307792
 20
130.6847926849
 10
113.7487430966
 20
130.707277151
 10
113.7367011861
 20
130.7288733137
 10
113.7226905775
 20
130.7494097488
 10
113.7068109656
 20
130.7687222425
 10
113.6891855914
 20
130.7866727479
 10
113.6699147052
 20
130.8031490215
 10
113.6491367072
 20
130.818007771
 10
113.6270490866
 20
130.8311142255
 10
113.6037820971
 20
130.8423894192
 10
113.5794803426
 20
130.8517411545
 10
113.5543839867
 20
130.8590800213
 10
113.5286421571
 20
130.8643591793
 10
113.5024026117
 20
130.8675217533
 10
113.4769241606
 20
130.8685282588
  0
LINE
  5
390
100
AcDbEntity
  8
RACCORDO
100
AcDbLine
 62
253
  6
CONTINUOUS
 10
126.3230450365
 20
149.6570240268
 11
126.323044155
 21
150.6280134324
  0
LWPOLYLINE
  5
391
100
AcDbEntity
  8
ASSI
100
AcDbPolyline
 62
7
  6
CONTINUOUS
 90
4
 70
0
 10
136.3795734872
 20
141.0632172314
 10
136.2918332118
 20
140.7870135224
 10
136.2385726867
 20
140.5053597535
 10
136.2197919406
 20
140.2182613269
  0
LWPOLYLINE
  5
392
100
AcDbEntity
  8
RACCORDO
100
AcDbPolyline
 62
253
  6
CONTINUOUS
 90
16
 70
0
 10
148.5472109813
 20
136.358227362
 10
148.4674142871
 20
136.2681450848
 10
148.3875529023
 20
136.183698644
 10
148.3078656416
 20
136.1048514313
 10
148.2286381388
 20
136.0315540904
 10
148.1500471176
 20
135.9637373739
 10
148.0721352402
 20
135.901350696
 10
147.9950672665
 20
135.8443366369
 10
147.9190511402
 20
135.7926505517
 10
147.8441535269
 20
135.7463057859
 10
147.7704841021
 20
135.7052395406
 10
147.6982558074
 20
135.6694172897
 10
147.6276719767
 20
135.6389132579
 10
147.5588985529
 20
135.6137111216
 10
147.492065095
 20
135.593699388
 10
147.4273120168
 20
135.5788060758
  0
LINE
  5
393
100
AcDbEntity
  8
RACCORDO
100
AcDbLine
 62
253
  6
CONTINUOUS
 10
159.2178593538
 20
147.0288704832
 11
148.5472109813
 21
136.358227362
  0
LINE
  5
394
100
AcDbEntity
  8
RACCORDO
100
AcDbLine
 62
253
  6
CONTINUOUS
 10
159.9056805396
 20
146.3391584405
 11
149.2363636331
 21
135.6698467847
  0
LWPOLYLINE
  5
395
100
AcDbEntity
  8
RACCORDO
100
AcDbPolyline
 62
253
  6
CONTINUOUS
 90
16
 70
0
 10
149.2363636331
 20
135.6698467847
 10
149.1168646799
 20
135.5564695237
 10
148.9964727534
 20
135.4514087439
 10
148.8751878537
 20
135.3546644452
 10
148.7527170745
 20
135.2663626023
 10
148.6293533221
 20
135.1863772405
 10
148.5059753146
 20
135.114330436
 10
148.3826153553
 20
135.0501821075
 10
148.259241141
 20
134.9939723363
 10
148.1366344803
 20
134.9454434422
 10
148.0147361367
 20
134.9045812478
 10
147.8936053468
 20
134.8713999305
 10
147.7742016291
 20
134.8456843429
 10
147.6568448234
 20
134.8273627692
 10
147.5412150899
 20
134.8165069252
 10
147.4273124288
 20
134.8131168109
  0
LINE
  5
396
100
AcDbEntity
  8
0
100
AcDbLine
 62
7
  6
CONTINUOUS
 10
181.4799844348
 20
94.1480830912
 11
178.6547127616
 21
94.1480830912
  0
LINE
  5
397
100
AcDbEntity
  8
0
100
AcDbLine
 62
7
  6
CONTINUOUS
 10
104.7848925016
 20
94.1480830912
 11
101.9593664233
 21
94.1480830912
  0
LINE
  5
398
100
AcDbEntity
  8
RACCORDO
100
AcDbLine
 62
7
  6
CONTINUOUS
 10
101.9593664233
 20
94.1480830912
 11
104.7848925016
 21
94.1480830912
  0
LINE
  5
399
100
AcDbEntity
  8
RACCORDO
100
AcDbLine
 62
7
  6
CONTINUOUS
 10
178.6547127616
 20
94.1480830912
 11
181.4799844348
 21
94.1480830912
  0
LINE
  5
39A
100
AcDbEntity
  8
RACCORDO
100
AcDbLine
 62
253
  6
CONTINUOUS
 10
130.2608783028
 20
145.7191927074
 11
130.2608787148
 21
144.9535034425
  0
LINE
  5
39B
100
AcDbEntity
  8
0
100
AcDbLine
 62
7
  6
CONTINUOUS
 10
133.7579223688
 20
111.3655428864
 11
133.7579223688
 21
114.3655428791
  0
LINE
  5
39C
100
AcDbEntity
  8
0
100
AcDbLine
 62
7
  6
CONTINUOUS
 10
134.2198026316
 20
111.3655428982
 11
134.2198026316
 21
114.3655428982
  0
LINE
  5
39D
100
AcDbEntity
  8
0
100
AcDbLine
 62
7
  6
CONTINUOUS
 10
134.7198026266
 20
114.3655428975
 11
134.7198026266
 21
111.3655428989
  0
LINE
  5
39E
100
AcDbEntity
  8
0
100
AcDbLine
 62
7
  6
CONTINUOUS
 10
135.1816828466
 20
111.3655428982
 11
135.1816828466
 21
114.3655428982
  0
LINE
  5
39F
100
AcDbEntity
  8
RACCORDO
100
AcDbLine
 62
253
  6
CONTINUOUS
 10
136.0122903505
 20
134.8131168109
 11
136.0122899385
 21
135.5788060758
  0
LINE
  5
3A0
100
AcDbEntity
  8
ASSI
100
AcDbLine
 62
7
  6
CONTINUOUS
 10
136.2197952264
 20
139.7632136413
 11
136.2197930203
 21
141.3682796935
  0
LWPOLYLINE
  5
3A1
100
AcDbEntity
  8
ASSI
100
AcDbPolyline
 62
7
  6
CONTINUOUS
 90
12
 70
0
 10
136.219793049
 20
141.3682850955
 10
136.2385737951
 20
141.6553835222
 10
136.2918343202
 20
141.937037291
 10
136.3795745957
 20
142.213241
 10
136.5028048067
 20
142.4857083228
 10
136.6605147681
 20
142.7527255857
 10
136.849673924
 20
143.009151768
 10
137.0708922093
 20
143.2547819556
 10
137.3235596892
 20
143.4898210626
 10
137.6028160033
 20
143.7097428099
 10
137.9091769557
 20
143.9142543865
 10
138.2421267422
 20
144.1036486033
  0
LWPOLYLINE
  5
3A2
100
AcDbEntity
  8
ASSI
100
AcDbPolyline
 62
7
  6
CONTINUOUS
 90
37
 70
0
 10
147.060013651
 20
138.9182523348
 10
146.9367834399
 20
138.645785012
 10
146.7790734786
 20
138.3787677491
 10
146.5899143227
 20
138.1223415668
 10
146.3686960373
 20
137.8767113791
 10
146.1160285574
 20
137.6416722722
 10
145.8367722433
 20
137.4217505249
 10
145.530411291
 20
137.2172389483
 10
145.1974615044
 20
137.0278447315
 10
144.844330656
 20
136.8572157206
 10
144.4706271749
 20
136.7057155855
 10
144.0767426319
 20
136.5729806564
 10
143.6702595118
 20
136.4615677698
 10
143.250933336
 20
136.3718902718
 10
142.819008583
 20
136.3035348162
 10
142.3828011725
 20
136.2578182016
 10
141.9422279936
 20
136.2351793607
 10
141.4973721573
 20
136.2351793607
 10
141.0567989162
 20
136.2578182016
 10
140.6205913801
 20
136.3035348162
 10
140.1886664392
 20
136.3718902718
 10
139.7693400169
 20
136.4615677698
 10
139.3628565904
 20
136.5729806564
 10
138.9689716826
 20
136.7057155855
 10
138.595267785
 20
136.8572157206
 10
138.2421364676
 20
137.0278447315
 10
137.9091861604
 20
137.2172389483
 10
137.6028246458
 20
137.4217505249
 10
137.3235677272
 20
137.6416722722
 10
137.0708996012
 20
137.8767113791
 10
136.8496806407
 20
138.1223415668
 10
136.6605207798
 20
138.3787677491
 10
136.5028100845
 20
138.645785012
 10
136.3795791245
 20
138.9182523348
 10
136.2918380898
 20
139.1944560438
 10
136.2385767904
 20
139.4761098126
 10
136.2197952264
 20
139.7632136413
  0
LINE
  5
3A3
100
AcDbEntity
  8
RACCORDO
100
AcDbLine
 62
253
  6
CONTINUOUS
 10
153.1786974703
 20
144.9535034425
 11
147.4273120168
 21
135.5788060758
  0
LINE
  5
3A4
100
AcDbEntity
  8
RACCORDO
100
AcDbLine
 62
253
  6
CONTINUOUS
 10
153.8678497101
 20
145.0308121301
 11
148.5472109813
 21
136.358227362
  0
LINE
  5
3A5
100
AcDbEntity
  8
0
100
AcDbLine
 62
7
  6
CONTINUOUS
 10
101.8198026545
 20
100.1176529257
 11
104.8198026716
 21
100.1176529257
  0
LINE
  5
3A6
100
AcDbEntity
  8
0
100
AcDbLine
 62
7
  6
CONTINUOUS
 10
178.6198025679
 20
100.1176529257
 11
181.6198025851
 21
100.1176529257
  0
LINE
  5
3A7
100
AcDbEntity
  8
0
100
AcDbLine
 62
7
  6
CONTINUOUS
 10
104.7332764956
 20
97.1391393456
 11
104.7848925016
 21
97.138445639
  0
LINE
  5
3A8
100
AcDbEntity
  8
0
100
AcDbLine
 62
7
  6
CONTINUOUS
 10
104.735455234
 20
97.2141386687
 11
104.7848925016
 21
97.2134734202
  0
LWPOLYLINE
  5
3A9
100
AcDbEntity
  8
RACCORDO
100
AcDbPolyline
 62
253
  6
CONTINUOUS
 90
11
 70
0
 10
178.7698026316
 20
94.2403725061
 10
178.7567168079
 20
94.2406172564
 10
178.7436558944
 20
94.2413510413
 10
178.7306447532
 20
94.242572464
 10
178.7177081518
 20
94.2442791993
 10
178.7048707159
 20
94.2464679984
 10
178.692156882
 20
94.2491346946
 10
178.6795908519
 20
94.2522742118
 10
178.6671965456
 20
94.2558805736
 10
178.6549975564
 20
94.259946915
 10
178.6547127616
 20
94.260054329
  0
LINE
  5
3AA
100
AcDbEntity
  8
0
100
AcDbLine
 62
7
  6
CONTINUOUS
 10
138.1198026316
 20
142.6549044683
 11
138.1198026316
 21
142.8840429633
  0
LWPOLYLINE
  5
3AB
100
AcDbEntity
  8
RACCORDO
100
AcDbPolyline
 62
253
  6
CONTINUOUS
 90
7
 70
0
 10
178.715593338
 20
96.8202224264
 10
178.7048707474
 20
96.8220506407
 10
178.692156918
 20
96.8247173346
 10
178.6795908917
 20
96.8278568493
 10
178.6671965886
 20
96.8314632084
 10
178.6549976019
 20
96.8355295471
 10
178.6547127616
 20
96.8356369782
  0
LINE
  5
3AC
100
AcDbEntity
  8
DRAFT
100
AcDbLine
 62
7
  6
CONTINUOUS
 10
106.2211160044
 20
137.5514135849
 11
106.3523472734
 21
137.4186907831
  0
LINE
  5
3AD
100
AcDbEntity
  8
0
100
AcDbLine
 62
7
  6
CONTINUOUS
 10
145.3198026316
 20
142.6549044683
 11
145.3198026316
 21
142.8840265994
  0
LINE
  5
3AE
100
AcDbEntity
  8
ASSI
100
AcDbLine
 62
7
  6
CONTINUOUS
 10
147.2197930203
 20
141.3682796935
 11
147.2197952264
 21
139.7632136413
  0
LINE
  5
3AF
100
AcDbEntity
  8
RACCORDO
100
AcDbLine
 62
253
  6
CONTINUOUS
 10
147.4273124288
 20
134.8131168109
 11
147.4273120168
 21
135.5788060758
  0
LINE
  5
3B0
100
AcDbEntity
  8
0
100
AcDbLine
 62
7
  6
CONTINUOUS
 10
148.2579224166
 20
114.3655428982
 11
148.2579224166
 21
111.3655428982
  0
LINE
  5
3B1
100
AcDbEntity
  8
0
100
AcDbLine
 62
7
  6
CONTINUOUS
 10
148.7198026366
 20
111.3655428989
 11
148.7198026366
 21
114.3655428975
  0
LWPOLYLINE
  5
3B2
100
AcDbEntity
  8
ASSI
100
AcDbPolyline
 62
7
  6
CONTINUOUS
 90
4
 70
0
 10
147.2197951976
 20
139.7632082392
 10
147.2010144516
 20
139.4761098126
 10
147.1477539264
 20
139.1944560438
 10
147.060013651
 20
138.9182523348
  0
LINE
  5
3B3
100
AcDbEntity
  8
DRAFT
100
AcDbLine
 62
7
  6
CONTINUOUS
 10
177.2184867686
 20
137.5514135849
 11
177.087252047
 21
137.4186907831
  0
LINE
  5
3B4
100
AcDbEntity
  8
0
100
AcDbLine
 62
253
  6
CONTINUOUS
 10
179.6816828466
 20
110.6155430532
 11
179.2198026316
 21
110.6155430532
  0
LINE
  5
3B5
100
AcDbEntity
  8
0
100
AcDbLine
 62
253
  6
CONTINUOUS
 10
174.2198026316
 20
110.6155428982
 11
173.7579224166
 21
110.6155428982
  0
LINE
  5
3B6
100
AcDbEntity
  8
0
100
AcDbLine
 62
253
  6
CONTINUOUS
 10
104.2198026316
 20
110.6155428982
 11
103.7579224166
 21
110.6155428982
  0
LINE
  5
3B7
100
AcDbEntity
  8
0
100
AcDbLine
 62
253
  6
CONTINUOUS
 10
104.7198026316
 20
110.6155428982
 11
105.1816828466
 21
110.6155428982
  0
LINE
  5
3B8
100
AcDbEntity
  8
0
100
AcDbLine
 62
253
  6
CONTINUOUS
 10
108.2579224166
 20
110.6155428912
 11
108.7198026316
 21
110.6155428912
  0
LINE
  5
3B9
100
AcDbEntity
  8
0
100
AcDbLine
 62
253
  6
CONTINUOUS
 10
174.7198026316
 20
110.6155428982
 11
175.1816828466
 21
110.6155428982
  0
LINE
  5
3BA
100
AcDbEntity
  8
0
100
AcDbLine
 62
253
  6
CONTINUOUS
 10
178.2579224166
 20
110.6155428932
 11
178.7198026316
 21
110.6155428932
  0
LINE
  5
3BB
100
AcDbEntity
  8
0
100
AcDbLine
 62
253
  6
CONTINUOUS
 10
109.6816828466
 20
110.6155431022
 11
109.2198026316
 21
110.6155431022
  0
LINE
  5
3BC
100
AcDbEntity
  8
0
100
AcDbLine
 62
253
  6
CONTINUOUS
 10
149.6816828466
 20
111.3655428982
 11
149.2198026316
 21
111.3655428982
  0
LINE
  5
3BD
100
AcDbEntity
  8
0
100
AcDbLine
 62
253
  6
CONTINUOUS
 10
134.2198026316
 20
111.3655428982
 11
133.7579224166
 21
111.3655428982
  0
LINE
  5
3BE
100
AcDbEntity
  8
0
100
AcDbLine
 62
253
  6
CONTINUOUS
 10
134.7198026316
 20
111.3655428982
 11
135.1816828466
 21
111.3655428982
  0
LINE
  5
3BF
100
AcDbEntity
  8
0
100
AcDbLine
 62
253
  6
CONTINUOUS
 10
148.2579224166
 20
111.3655428982
 11
148.7198026316
 21
111.3655428982
  0
LINE
  5
3C0
100
AcDbEntity
  8
0
100
AcDbLine
 62
253
  6
CONTINUOUS
 10
178.7198026316
 20
113.1155428062
 11
178.2579224166
 21
113.1155428062
  0
LINE
  5
3C1
100
AcDbEntity
  8
0
100
AcDbLine
 62
253
  6
CONTINUOUS
 10
108.7198026316
 20
113.1155427602
 11
108.2579224166
 21
113.1155427602
  0
LINE
  5
3C2
100
AcDbEntity
  8
0
100
AcDbLine
 62
253
  6
CONTINUOUS
 10
175.1816828466
 20
113.1155428982
 11
174.7198026316
 21
113.1155428982
  0
LINE
  5
3C3
100
AcDbEntity
  8
0
100
AcDbLine
 62
253
  6
CONTINUOUS
 10
105.1816828466
 20
113.1155428982
 11
104.7198026316
 21
113.1155428982
  0
LINE
  5
3C4
100
AcDbEntity
  8
0
100
AcDbLine
 62
253
  6
CONTINUOUS
 10
103.7579224166
 20
113.1155428982
 11
104.2198026316
 21
113.1155428982
  0
LINE
  5
3C5
100
AcDbEntity
  8
0
100
AcDbLine
 62
253
  6
CONTINUOUS
 10
109.2198026316
 20
113.1155430272
 11
109.6816828466
 21
113.1155430272
  0
LINE
  5
3C6
100
AcDbEntity
  8
0
100
AcDbLine
 62
253
  6
CONTINUOUS
 10
173.7579224166
 20
113.1155428982
 11
174.2198026316
 21
113.1155428982
  0
LINE
  5
3C7
100
AcDbEntity
  8
0
100
AcDbLine
 62
253
  6
CONTINUOUS
 10
179.2198026316
 20
113.1155429962
 11
179.6816828466
 21
113.1155429962
  0
LWPOLYLINE
  5
3C8
100
AcDbEntity
  8
ASSI
100
AcDbPolyline
 62
7
  6
CONTINUOUS
 90
4
 70
0
 10
147.2197919118
 20
140.2182559248
 10
147.2010103478
 20
140.5053597535
 10
147.1477490485
 20
140.7870135224
 10
147.0600080137
 20
141.0632172314
  0
LINE
  5
3C9
100
AcDbEntity
  8
0
100
AcDbLine
 62
7
  6
CONTINUOUS
 10
149.2198026316
 20
114.3655428982
 11
149.2198026316
 21
111.3655428982
  0
LINE
  5
3CA
100
AcDbEntity
  8
0
100
AcDbLine
 62
7
  6
CONTINUOUS
 10
149.6816828707
 20
114.3655428791
 11
149.6816828707
 21
111.3655428864
  0
LINE
  5
3CB
100
AcDbEntity
  8
RACCORDO
100
AcDbLine
 62
253
  6
CONTINUOUS
 10
153.1786974703
 20
144.9535034425
 11
153.1786970583
 21
145.7191927074
  0
LINE
  5
3CC
100
AcDbEntity
  8
0
100
AcDbLine
 62
253
  6
CONTINUOUS
 10
148.7198026316
 20
114.3655428982
 11
148.2579224166
 21
114.3655428982
  0
LINE
  5
3CD
100
AcDbEntity
  8
0
100
AcDbLine
 62
253
  6
CONTINUOUS
 10
135.1816828466
 20
114.3655428982
 11
134.7198026316
 21
114.3655428982
  0
LINE
  5
3CE
100
AcDbEntity
  8
0
100
AcDbLine
 62
253
  6
CONTINUOUS
 10
133.7579224166
 20
114.3655428982
 11
134.2198026316
 21
114.3655428982
  0
LINE
  5
3CF
100
AcDbEntity
  8
0
100
AcDbLine
 62
253
  6
CONTINUOUS
 10
149.2198026316
 20
114.3655428982
 11
149.6816828466
 21
114.3655428982
  0
LINE
  5
3D0
100
AcDbEntity
  8
RACCORDO
100
AcDbLine
 62
253
  6
CONTINUOUS
 10
134.8923900079
 20
136.358227362
 11
129.571727439
 21
145.0308121301
  0
LINE
  5
3D1
100
AcDbEntity
  8
RACCORDO
100
AcDbLine
 62
253
  6
CONTINUOUS
 10
136.0122899385
 20
135.5788060758
 11
130.2608787148
 21
144.9535034425
  0
LWPOLYLINE
  5
3D2
100
AcDbEntity
  8
RACCORDO
100
AcDbPolyline
 62
253
  6
CONTINUOUS
 90
10
 70
0
 10
159.2178593538
 20
147.0288704832
 10
159.2073027204
 20
147.3493079077
 10
159.1882945354
 20
147.6716275336
 10
159.1608347988
 20
147.9958293609
 10
159.1256255059
 20
148.3225788206
 10
159.0819646614
 20
148.6512104817
 10
159.0277462797
 20
148.9797280513
 10
158.9622683653
 20
149.3074660983
 10
158.8862329137
 20
149.6350900538
 10
158.7996399248
 20
149.9625999177
  0
LINE
  5
3D3
100
AcDbEntity
  8
RACCORDO
100
AcDbLine
 62
253
  6
CONTINUOUS
 10
157.1165303156
 20
149.6570240268
 11
157.1165294352
 21
150.6280134326
  0
LINE
  5
3D4
100
AcDbEntity
  8
RACCORDO
100
AcDbLine
 62
253
  6
CONTINUOUS
 10
159.9056820383
 20
146.3391584405
 11
159.9056812345
 21
147.2915929922
  0
LINE
  5
3D5
100
AcDbEntity
  8
0
100
AcDbLine
 62
253
  6
CONTINUOUS
 10
212.7166658631
 20
125.5376395085
 11
200.371071891
 21
125.5376395085
  0
LINE
  5
3D6
100
AcDbEntity
  8
0
100
AcDbLine
 62
253
  6
CONTINUOUS
 10
83.0685333485
 20
125.5376395085
 11
70.7229393764
 21
125.5376395085
  0
LINE
  5
3D7
100
AcDbEntity
  8
RACCORDO
100
AcDbLine
 62
7
  6
CONTINUOUS
 10
70.9346448105
 20
125.9571103409
 11
81.9198013998
 21
125.9571103409
  0
LINE
  5
3D8
100
AcDbEntity
  8
RACCORDO
100
AcDbLine
 62
7
  6
CONTINUOUS
 10
201.5198013997
 20
125.9571103409
 11
212.504957989
 21
125.9571103409
  0
LWPOLYLINE
  5
3D9
100
AcDbEntity
  8
RACCORDO
100
AcDbPolyline
 62
7
  6
CONTINUOUS
 90
16
 70
0
 10
70.9346438747
 20
125.9571103409
 10
70.834365637
 20
125.9587743622
 10
70.7368802175
 20
125.9634546
 10
70.6421876163
 20
125.9711486467
 10
70.5493600942
 20
125.9819832836
 10
70.4593253904
 20
125.9958220536
 10
70.3748667222
 20
126.0122662876
 10
70.2962284187
 20
126.0313515602
 10
70.2231661508
 20
126.053026257
 10
70.1577301486
 20
126.0767620167
 10
70.0999946953
 20
126.1026360936
 10
70.0498855078
 20
126.1305530665
 10
70.0092299672
 20
126.159730098
 10
69.9786372008
 20
126.1899034085
 10
69.9574980814
 20
126.2213241202
 10
69.9458126089
 20
126.2539850389
  0
LWPOLYLINE
  5
3DA
100
AcDbEntity
  8
0
100
AcDbPolyline
 62
253
  6
CONTINUOUS
 90
13
 70
0
 10
70.7229394385
 20
125.5376395153
 10
70.6022963093
 20
125.5406364586
 10
70.4822192502
 20
125.5460198887
 10
70.364688419
 20
125.5538214819
 10
70.2522582724
 20
125.5638995851
 10
70.1462741549
 20
125.5761188042
 10
70.0473593255
 20
125.5905708421
 10
69.9558275928
 20
125.6072616451
 10
69.8766752481
 20
125.6258824194
 10
69.8152257386
 20
125.6455215153
 10
69.7715806447
 20
125.6651510479
 10
69.7434863669
 20
125.684231674
 10
69.7298169846
 20
125.702218773
  0
LWPOLYLINE
  5
3DB
100
AcDbEntity
  8
RACCORDO
100
AcDbPolyline
 62
253
  6
CONTINUOUS
 90
7
 70
0
 10
178.6547127616
 20
97.0288150984
 10
178.6626668291
 20
97.0219623068
 10
178.6746593561
 20
97.0108686215
 10
178.6859766111
 20
96.9995959971
 10
178.6966189891
 20
96.9881429165
 10
178.7065860951
 20
96.9765108967
 10
178.7112245309
 20
96.9706111041
  0
LINE
  5
3DC
100
AcDbEntity
  8
RACCORDO
100
AcDbLine
 62
253
  6
CONTINUOUS
 10
134.2032391442
 20
135.6698467847
 11
123.5339222109
 21
146.3391584429
  0
LINE
  5
3DD
100
AcDbEntity
  8
RACCORDO
100
AcDbLine
 62
253
  6
CONTINUOUS
 10
134.8923900079
 20
136.358227362
 11
124.2217416105
 21
147.0288704838
  0
LINE
  5
3DE
100
AcDbEntity
  8
RACCORDO
100
AcDbLine
 62
253
  6
CONTINUOUS
 10
129.571727439
 20
145.0308121301
 11
124.6399372131
 21
149.9625999177
  0
LINE
  5
3DF
100
AcDbEntity
  8
ASSI
100
AcDbLine
 62
7
  6
CONTINUOUS
 10
147.0600080137
 20
141.0632172314
 11
146.9367770537
 21
141.3356845541
  0
LWPOLYLINE
  5
3E0
100
AcDbEntity
  8
RACCORDO
100
AcDbPolyline
 62
253
  6
CONTINUOUS
 90
25
 70
0
 10
158.7996399248
 20
149.9625999177
 10
158.7987834639
 20
149.9773042734
 10
158.792450247
 20
149.990018117
 10
158.780502108
 20
150.0008797786
 10
158.7629859877
 20
150.0103358154
 10
158.7395735839
 20
150.018221438
 10
158.7096377935
 20
150.0236840197
 10
158.6730040162
 20
150.0265676812
 10
158.6297635495
 20
150.0271120191
 10
158.5798033728
 20
150.0249423256
 10
158.5229729206
 20
150.0198782749
 10
158.4594599999
 20
150.0120633526
 10
158.3897389297
 20
150.001528717
 10
158.3139273468
 20
149.988114975
 10
158.2320657004
 20
149.971823741
 10
158.1445543339
 20
149.9528858319
 10
158.051628076
 20
149.9312212547
 10
157.9532528302
 20
149.9067095467
 10
157.8494199731
 20
149.8795264376
 10
157.7402479143
 20
149.8495697809
 10
157.625836857
 20
149.8167234548
 10
157.5061391339
 20
149.7811540569
 10
157.3812261961
 20
149.7428299467
 10
157.2513020291
 20
149.7015077648
 10
157.1165303156
 20
149.6570240268
  0
LWPOLYLINE
  5
3E1
100
AcDbEntity
  8
RACCORDO
100
AcDbPolyline
 62
253
  6
CONTINUOUS
 90
10
 70
0
 10
159.9070174093
 20
147.2915929922
 10
159.8964570977
 20
147.6134567988
 10
159.8774461959
 20
147.9382201432
 10
159.8499847038
 20
148.2653180319
 10
159.8147749044
 20
148.5941686729
 10
159.7711145144
 20
148.9241714039
 10
159.7168966847
 20
149.2547067791
 10
159.651419132
 20
149.5851391143
 10
159.5753841392
 20
149.9148162834
 10
159.4887917062
 20
150.2430677804
  0
LWPOLYLINE
  5
3E2
100
AcDbEntity
  8
RACCORDO
100
AcDbPolyline
 62
7
  6
CONTINUOUS
 90
13
 70
0
 10
81.9198013998
 20
125.9571103409
 10
82.0249116808
 20
125.9646707342
 10
82.1254127456
 20
125.9853252266
 10
82.2213045943
 20
126.019073818
 10
82.3141742989
 20
126.0668612827
 10
82.4024347873
 20
126.1277428464
 10
82.4813248434
 20
126.1988841863
 10
82.5503152572
 20
126.2807576111
 10
82.6099352386
 20
126.372890812
 10
82.6570112021
 20
126.4710325404
 10
82.6904852857
 20
126.5737657131
 10
82.7114153513
 20
126.6825074132
 10
82.7198013988
 20
126.7972576406
  0
LINE
  5
3E3
100
AcDbEntity
  8
RACCORDO
100
AcDbLine
 62
253
  6
CONTINUOUS
 10
212.2700564448
 20
133.2145091069
 11
212.394959724
 21
133.2185755002
  0
LINE
  5
3E4
100
AcDbEntity
  8
RACCORDO
100
AcDbLine
 62
253
  6
CONTINUOUS
 10
212.394959724
 20
133.2185755002
 11
213.0385231834
 21
133.2392173206
  0
LWPOLYLINE
  5
3E5
100
AcDbEntity
  8
RACCORDO
100
AcDbPolyline
 62
253
  6
CONTINUOUS
 90
3
 70
0
 10
213.0385231834
 20
133.2392173206
 10
213.2510578313
 20
133.2457049023
 10
213.2672660158
 20
133.2461102741
  0
LINE
  5
3E6
100
AcDbEntity
  8
0
100
AcDbLine
 62
253
  6
CONTINUOUS
 10
214.5879136305
 20
133.3073722621
 11
214.3628891177
 21
133.3019994272
  0
LWPOLYLINE
  5
3E7
100
AcDbEntity
  8
RACCORDO
100
AcDbPolyline
 62
253
  6
CONTINUOUS
 90
12
 70
0
 10
112.2317694648
 20
130.7935285464
 10
112.2007737269
 20
130.7929391077
 10
112.1699642246
 20
130.791172581
 10
112.1395262414
 20
130.7882397749
 10
112.1096428112
 20
130.7841592506
 10
112.0804936794
 20
130.7789553949
 10
112.0522542168
 20
130.7726582781
 10
112.0250943027
 20
130.7653068439
 10
111.9991772442
 20
130.7569457907
 10
111.9746588636
 20
130.7476234789
 10
111.9516866249
 20
130.7373973491
 10
111.9303987308
 20
130.7263297547
  0
LINE
  5
3E8
100
AcDbEntity
  8
RACCORDO
100
AcDbLine
 62
7
  6
CONTINUOUS
 10
112.2317694727
 20
130.8685264974
 11
112.2118640033
 21
130.8682308277
  0
LINE
  5
3E9
100
AcDbEntity
  8
0
100
AcDbLine
 62
253
  6
CONTINUOUS
 10
82.2067376884
 20
126.0139470782
 11
83.0380950988
 21
126.0139470782
  0
LINE
  5
3EA
100
AcDbEntity
  8
0
100
AcDbLine
 62
253
  6
CONTINUOUS
 10
200.4015101644
 20
126.0139470782
 11
201.2327891555
 21
126.0139470782
  0
LINE
  5
3EB
100
AcDbEntity
  8
0
100
AcDbLine
 62
7
  6
CONTINUOUS
 10
183.0685333362
 20
130.5168121807
 11
100.3710719033
 21
130.5168121807
  0
LINE
  5
3EC
100
AcDbEntity
  8
0
100
AcDbLine
 62
7
  6
CONTINUOUS
 10
100.5198026264
 20
130.6655428982
 11
182.9198026367
 21
130.6655428982
  0
LINE
  5
3ED
100
AcDbEntity
  8
RACCORDO
100
AcDbLine
 62
253
  6
CONTINUOUS
 10
113.4769241606
 20
130.7935285464
 11
112.2317694648
 21
130.7935285464
  0
LINE
  5
3EE
100
AcDbEntity
  8
RACCORDO
100
AcDbLine
 62
7
  6
CONTINUOUS
 10
113.4769241606
 20
130.8685285464
 11
112.2317694725
 21
130.8685285464
  0
LINE
  5
3EF
100
AcDbEntity
  8
RACCORDO
100
AcDbLine
 62
7
  6
CONTINUOUS
 10
177.2198025964
 20
130.897119681
 11
168.2198026252
 21
130.897119681
  0
LINE
  5
3F0
100
AcDbEntity
  8
RACCORDO
100
AcDbLine
 62
7
  6
CONTINUOUS
 10
181.9198013941
 20
130.9201838606
 11
101.5198013941
 21
130.9201838606
  0
LINE
  5
3F1
100
AcDbEntity
  8
0
100
AcDbLine
 62
253
  6
CONTINUOUS
 10
69.076670288
 20
133.3020005184
 11
68.8516916376
 21
133.3073722586
  0
LINE
  5
3F2
100
AcDbEntity
  8
RACCORDO
100
AcDbLine
 62
253
  6
CONTINUOUS
 10
70.220132583
 20
133.2447948421
 11
70.1723346212
 21
133.246110274
  0
LINE
  5
3F3
100
AcDbEntity
  8
RACCORDO
100
AcDbLine
 62
253
  6
CONTINUOUS
 10
70.8026390669
 20
133.2264077855
 11
70.220132583
 21
133.2447948421
  0
LINE
  5
3F4
100
AcDbEntity
  8
RACCORDO
100
AcDbLine
 62
253
  6
CONTINUOUS
 10
71.1695463381
 20
133.2145091069
 11
70.8026390669
 21
133.2264077855
  0
LWPOLYLINE
  5
3F5
100
AcDbEntity
  8
RACCORDO
100
AcDbPolyline
 62
253
  6
CONTINUOUS
 90
10
 70
0
 10
124.2230715783
 20
147.0275405165
 10
124.1591436064
 20
147.0810744742
 10
124.0910223311
 20
147.1288592693
 10
124.0191154549
 20
147.1708008635
 10
123.9434313793
 20
147.2070383022
 10
123.864648971
 20
147.2372144789
 10
123.7840900164
 20
147.2607383527
 10
123.7022451996
 20
147.2775625539
 10
123.6188407299
 20
147.2878806572
 10
123.5339199108
 20
147.2915930581
  0
LWPOLYLINE
  5
3F6
100
AcDbEntity
  8
RACCORDO
100
AcDbPolyline
 62
253
  6
CONTINUOUS
 90
10
 70
0
 10
124.6399372131
 20
149.9625999177
 10
124.5764210873
 20
150.0178830664
 10
124.5084149193
 20
150.0678219837
 10
124.4364067737
 20
150.1120582696
 10
124.3609134362
 20
150.1502744505
 10
124.2824767049
 20
150.1821962578
 10
124.2016595019
 20
150.2075945961
 10
124.1190418337
 20
150.2262871874
 10
124.035216628
 20
150.2381398793
 10
123.9507854789
 20
150.2430676079
  0
LINE
  5
3F7
100
AcDbEntity
  8
RACCORDO
100
AcDbLine
 62
253
  6
CONTINUOUS
 10
130.2608783028
 20
145.7191927074
 11
126.3230450365
 21
149.6570240268
  0
LWPOLYLINE
  5
3F8
100
AcDbEntity
  8
ASSI
100
AcDbPolyline
 62
7
  6
CONTINUOUS
 90
7
 70
0
 10
146.9367770537
 20
141.3356845541
 10
146.7790663584
 20
141.6027018171
 10
146.5899064976
 20
141.8591279993
 10
146.368687537
 20
142.104758187
 10
146.116019411
 20
142.339797294
 10
145.8367624924
 20
142.5597190412
 10
145.5304009778
 20
142.7642306178
  0
LINE
  5
3F9
100
AcDbEntity
  8
0
100
AcDbLine
 62
7
  6
CONTINUOUS
 10
168.2198026252
 20
130.6655428982
 11
168.2198026252
 21
130.9201838606
  0
LINE
  5
3FA
100
AcDbEntity
  8
DRAFT
100
AcDbLine
 62
7
  6
CONTINUOUS
 10
168.2211160044
 20
137.5514135849
 11
168.221116008
 21
134.4201821342
  0
LINE
  5
3FB
100
AcDbEntity
  8
DRAFT
100
AcDbLine
 62
7
  6
CONTINUOUS
 10
168.3523472734
 20
137.4186907831
 11
168.3523472768
 21
134.4186922629
  0
LWPOLYLINE
  5
3FC
100
AcDbEntity
  8
RACCORDO
100
AcDbPolyline
 62
7
  6
CONTINUOUS
 90
14
 70
0
 10
112.2118640033
 20
130.8682308277
 10
112.1803814984
 20
130.8665340263
 10
112.148935059
 20
130.8633020854
 10
112.1180748671
 20
130.858555993
 10
112.0879146164
 20
130.852292524
 10
112.0585830314
 20
130.8445003064
 10
112.0305211074
 20
130.8352568756
 10
112.0037617318
 20
130.8245508537
 10
111.9783819777
 20
130.8123591505
 10
111.9547120004
 20
130.7987891608
 10
111.9327518564
 20
130.7838108179
 10
111.912562686
 20
130.7673962403
 10
111.8944550345
 20
130.7497475342
 10
111.8784498108
 20
130.7308800247
  0
LINE
  5
3FD
100
AcDbEntity
  8
DRAFT
100
AcDbLine
 62
7
  6
CONTINUOUS
 10
106.221116008
 20
134.4201821342
 11
115.2184867722
 21
134.4201821342
  0
LINE
  5
3FE
100
AcDbEntity
  8
DRAFT
100
AcDbLine
 62
7
  6
CONTINUOUS
 10
168.221116008
 20
134.4201821342
 11
177.2184867722
 21
134.4201821342
  0
LINE
  5
3FF
100
AcDbEntity
  8
0
100
AcDbLine
 62
253
  6
CONTINUOUS
 10
200.5198026317
 20
134.6655428894
 11
200.3710719036
 21
134.6655428894
  0
LINE
  5
400
100
AcDbEntity
  8
0
100
AcDbLine
 62
253
  6
CONTINUOUS
 10
183.0685333596
 20
134.6655428982
 11
182.9198026316
 21
134.6655428982
  0
LINE
  5
401
100
AcDbEntity
  8
0
100
AcDbLine
 62
253
  6
CONTINUOUS
 10
100.5198026316
 20
134.6655428982
 11
100.3710719036
 21
134.6655428982
  0
LINE
  5
402
100
AcDbEntity
  8
0
100
AcDbLine
 62
253
  6
CONTINUOUS
 10
83.0685333596
 20
134.6655428894
 11
82.9198026315
 21
134.6655428894
  0
LINE
  5
403
100
AcDbEntity
  8
0
100
AcDbLine
 62
7
  6
CONTINUOUS
 10
106.3523472766
 20
134.6655429014
 11
115.0872520502
 21
134.6655429014
  0
LINE
  5
404
100
AcDbEntity
  8
0
100
AcDbLine
 62
7
  6
CONTINUOUS
 10
168.3523472765
 20
134.6655429014
 11
177.0872520501
 21
134.6655429014
  0
LINE
  5
405
100
AcDbEntity
  8
RACCORDO
100
AcDbLine
 62
253
  6
CONTINUOUS
 10
147.4273124288
 20
134.8131168109
 11
136.0122903505
 21
134.8131168109
  0
LINE
  5
406
100
AcDbEntity
  8
RACCORDO
100
AcDbLine
 62
253
  6
CONTINUOUS
 10
147.4273120168
 20
135.5788060758
 11
136.0122899385
 21
135.5788060758
  0
LINE
  5
407
100
AcDbEntity
  8
DRAFT
100
AcDbLine
 62
7
  6
CONTINUOUS
 10
177.087252047
 20
137.4186907831
 11
168.3523472734
 21
137.4186907831
  0
LINE
  5
408
100
AcDbEntity
  8
DRAFT
100
AcDbLine
 62
7
  6
CONTINUOUS
 10
115.087252047
 20
137.4186907831
 11
106.3523472734
 21
137.4186907831
  0
LINE
  5
409
100
AcDbEntity
  8
DRAFT
100
AcDbLine
 62
7
  6
CONTINUOUS
 10
177.2184867686
 20
137.5514135849
 11
168.2211160044
 21
137.5514135849
  0
LINE
  5
40A
100
AcDbEntity
  8
DRAFT
100
AcDbLine
 62
7
  6
CONTINUOUS
 10
115.2184867686
 20
137.5514135849
 11
106.2211160044
 21
137.5514135849
  0
LWPOLYLINE
  5
40B
100
AcDbEntity
  8
RACCORDO
100
AcDbPolyline
 62
253
  6
CONTINUOUS
 90
16
 70
0
 10
136.0122903505
 20
134.8131168109
 10
135.8983877189
 20
134.8165070749
 10
135.7827580007
 20
134.8273630019
 10
135.6654011958
 20
134.8456845918
 10
135.5459974549
 20
134.8714000887
 10
135.4248666274
 20
134.9045812486
 10
135.302968261
 20
134.9454433389
 10
135.1803616091
 20
134.9939722446
 10
135.0569874183
 20
135.0501820806
 10
134.9336274766
 20
135.1143304589
 10
134.8102494722
 20
135.1863772703
 10
134.6868857169
 20
135.2663626238
 10
134.5644149341
 20
135.3546644582
 10
134.4431300316
 20
135.4514087529
 10
134.3227381017
 20
135.5564695284
 10
134.2032391442
 20
135.6698467847
  0
LWPOLYLINE
  5
40C
100
AcDbEntity
  8
RACCORDO
100
AcDbPolyline
 62
253
  6
CONTINUOUS
 90
16
 70
0
 10
136.0122899385
 20
135.5788060758
 10
135.9475368627
 20
135.5936994372
 10
135.880703386
 20
135.6137111948
 10
135.8119299221
 20
135.6389133331
 10
135.7413460211
 20
135.6694173389
 10
135.6691176365
 20
135.7052395506
 10
135.5954481309
 20
135.7463057723
 10
135.5205504589
 20
135.7926505389
 10
135.4445342805
 20
135.8443366332
 10
135.3674662463
 20
135.9013506976
 10
135.2895542934
 20
135.9637373747
 10
135.2109631895
 20
136.0315540897
 10
135.1317356033
 20
136.1048514303
 10
135.0520482597
 20
136.1836986437
 10
134.9721867899
 20
136.2681450849
 10
134.8923900079
 20
136.358227362
  0
LINE
  5
40D
100
AcDbEntity
  8
RACCORDO
100
AcDbLine
 62
253
  6
CONTINUOUS
 10
149.0030608066
 20
135.9030938436
 11
148.5472109812
 21
136.3582273619
  0
LWPOLYLINE
  5
40E
100
AcDbEntity
  8
RACCORDO
100
AcDbPolyline
 62
253
  6
CONTINUOUS
 90
3
 70
0
 10
149.2363636331
 20
135.6698467847
 10
149.1572769757
 20
135.7489271782
 10
149.0030608066
 20
135.9030938436
  0
LWPOLYLINE
  5
40F
100
AcDbEntity
  8
RACCORDO
100
AcDbPolyline
 62
253
  6
CONTINUOUS
 90
25
 70
0
 10
159.4887917062
 20
150.2430677804
 10
159.4805384611
 20
150.2652203477
 10
159.4645341316
 20
150.2876677961
 10
159.4407787175
 20
150.3104080285
 10
159.409562339
 20
150.3336424922
 10
159.3705948759
 20
150.3571645671
 10
159.3230059682
 20
150.3803639743
 10
159.2665194443
 20
150.4031929247
 10
159.2014114757
 20
150.4257029005
 10
159.1276402163
 20
150.4474393569
 10
159.0449053225
 20
150.4683851479
 10
158.953507138
 20
150.4885662724
 10
158.8543048474
 20
150.5075978074
 10
158.7472983441
 20
150.5254315248
 10
158.6324877348
 20
150.5421275739
 10
158.5107325247
 20
150.5574663862
 10
158.3822149848
 20
150.5714340146
 10
158.246752844
 20
150.5840557439
 10
158.1046587943
 20
150.5951717716
 10
157.9559230056
 20
150.6048112204
 10
157.8005553079
 20
150.6129539371
 10
157.6388978838
 20
150.6193664004
 10
157.4710647941
 20
150.6239728617
 10
157.2969419779
 20
150.6268547202
 10
157.1165294352
 20
150.6280134326
  0
LINE
  5
410
100
AcDbEntity
  8
0
100
AcDbLine
 62
7
  6
CONTINUOUS
 10
178.6198026316
 20
100.1176529053
 11
178.79321927
 21
94.1480830912
  0
LINE
  5
411
100
AcDbEntity
  8
0
100
AcDbLine
 62
7
  6
CONTINUOUS
 10
173.7579224516
 20
110.6155428882
 11
173.7579224516
 21
113.1155429018
  0
LINE
  5
412
100
AcDbEntity
  8
0
100
AcDbLine
 62
7
  6
CONTINUOUS
 10
174.2198026316
 20
110.6155428982
 11
174.2198026316
 21
113.1155428982
  0
LINE
  5
413
100
AcDbEntity
  8
0
100
AcDbLine
 62
7
  6
CONTINUOUS
 10
174.7198026316
 20
113.1155428976
 11
174.7198026316
 21
110.6155428988
  0
LINE
  5
414
100
AcDbEntity
  8
0
100
AcDbLine
 62
7
  6
CONTINUOUS
 10
175.1816828466
 20
110.6155428982
 11
175.1816828466
 21
113.1155428982
  0
LINE
  5
415
100
AcDbEntity
  8
DRAFT
100
AcDbLine
 62
7
  6
CONTINUOUS
 10
177.0872520504
 20
134.4186922629
 11
177.087252047
 21
137.4186907831
  0
LINE
  5
416
100
AcDbEntity
  8
DRAFT
100
AcDbLine
 62
7
  6
CONTINUOUS
 10
177.2184867722
 20
134.4201821342
 11
177.2184867686
 21
137.5514135849
  0
LINE
  5
417
100
AcDbEntity
  8
0
100
AcDbLine
 62
7
  6
CONTINUOUS
 10
177.2198025964
 20
130.9201838606
 11
177.2198025964
 21
130.6655428982
  0
LINE
  5
418
100
AcDbEntity
  8
0
100
AcDbLine
 62
7
  6
CONTINUOUS
 10
178.2579224166
 20
113.1155428062
 11
178.2579224166
 21
110.6155428932
  0
LINE
  5
419
100
AcDbEntity
  8
0
100
AcDbLine
 62
7
  6
CONTINUOUS
 10
178.6198025679
 20
87.4201426389
 11
178.6198025679
 21
100.1176529257
  0
LINE
  5
41A
100
AcDbEntity
  8
0
100
AcDbLine
 62
7
  6
CONTINUOUS
 10
178.6547127616
 20
98.9159316654
 11
178.6547127616
 21
88.1480830956
  0
LINE
  5
41B
100
AcDbEntity
  8
0
100
AcDbLine
 62
7
  6
CONTINUOUS
 10
178.7198026316
 20
110.6155428988
 11
178.7198026316
 21
113.1155428065
  0
LINE
  5
41C
100
AcDbEntity
  8
0
100
AcDbLine
 62
7
  6
CONTINUOUS
 10
179.2198026316
 20
113.1155429962
 11
179.2198026316
 21
110.6155430532
  0
LINE
  5
41D
100
AcDbEntity
  8
0
100
AcDbLine
 62
7
  6
CONTINUOUS
 10
179.6816828963
 20
113.1155430787
 11
179.6816828963
 21
110.6155430651
  0
LWPOLYLINE
  5
41E
100
AcDbEntity
  8
RACCORDO
100
AcDbPolyline
 62
253
  6
CONTINUOUS
 90
9
 70
0
 10
178.7698026316
 20
94.2403725061
 10
178.769420486
 20
94.2274709146
 10
178.7682416144
 20
94.2145688532
 10
178.7662660166
 20
94.201666322
 10
178.7634941138
 20
94.1887443978
 10
178.7599254848
 20
94.1758220036
 10
178.7555588666
 20
94.1629559087
 10
178.7503882586
 20
94.1501471406
 10
178.749422212
 20
94.1480830912
  0
LINE
  5
41F
100
AcDbEntity
  8
0
100
AcDbLine
 62
7
  6
CONTINUOUS
 10
178.6547127616
 20
88.1480830956
 11
178.6198026316
 21
87.4201426261
  0
LINE
  5
420
100
AcDbEntity
  8
RACCORDO
100
AcDbLine
 62
253
  6
CONTINUOUS
 10
211.8894472816
 20
145.3430340449
 11
212.2551099091
 21
145.354035551
  0
LINE
  5
421
100
AcDbEntity
  8
RACCORDO
100
AcDbLine
 62
253
  6
CONTINUOUS
 10
212.2551099091
 20
145.354035551
 11
212.7906739158
 21
145.369755192
  0
LWPOLYLINE
  5
422
100
AcDbEntity
  8
RACCORDO
100
AcDbPolyline
 62
253
  6
CONTINUOUS
 90
3
 70
0
 10
212.7906739158
 20
145.369755192
 10
212.8695306897
 20
145.371908177
 10
212.8863247583
 20
145.3722939438
  0
LWPOLYLINE
  5
423
100
AcDbEntity
  8
0
100
AcDbPolyline
 62
7
  6
CONTINUOUS
 90
10
 70
0
 10
141.7198026316
 20
143.5174453623
 10
141.2804721931
 20
143.5057619353
 10
140.8490100342
 20
143.472625601
 10
140.4254161548
 20
143.4180363592
 10
140.0070714484
 20
143.3414418168
 10
139.5965950214
 20
143.243394367
 10
139.2018441938
 20
143.1255511894
 10
138.8254380719
 20
142.988464677
 10
138.4647575493
 20
142.8315824368
 10
138.1198026259
 20
142.6549044687
  0
LINE
  5
424
100
AcDbEntity
  8
RACCORDO
100
AcDbLine
 62
253
  6
CONTINUOUS
 10
70.6020972355
 20
145.371058486
 11
70.5532511045
 21
145.3722947647
  0
LWPOLYLINE
  5
425
100
AcDbEntity
  8
RACCORDO
100
AcDbPolyline
 62
253
  6
CONTINUOUS
 90
4
 70
0
 10
71.5501554736
 20
145.3430340494
 10
71.4256922265
 20
145.3467945218
 10
71.3031663577
 20
145.3504809978
 10
70.6020972355
 20
145.371058486
  0
LWPOLYLINE
  5
426
100
AcDbEntity
  8
0
100
AcDbPolyline
 62
253
  6
CONTINUOUS
 90
16
 70
0
 10
69.4192615134
 20
155.8655428982
 10
69.5148783587
 20
155.8496109962
 10
69.6146186739
 20
155.8017801272
 10
69.7184824576
 20
155.7220017781
 10
69.8267615468
 20
155.6102260321
 10
69.9391641045
 20
155.4664192716
 10
70.0548146195
 20
155.2905818844
 10
70.1736717799
 20
155.0827049644
 10
70.2957768976
 20
154.8427838834
 10
70.4203783973
 20
154.5708647604
 10
70.5474377015
 20
154.2669755994
 10
70.6769933876
 20
153.9311399013
 10
70.8084096118
 20
153.5634300461
 10
70.9414744263
 20
153.1639091281
 10
71.0763997789
 20
152.7326202901
 10
71.2131856695
 20
152.2696241969
  0
LWPOLYLINE
  5
427
100
AcDbEntity
  8
RACCORDO
100
AcDbPolyline
 62
253
  6
CONTINUOUS
 90
25
 70
0
 10
126.3230450365
 20
149.6570240268
 10
126.1882733277
 20
149.7015077654
 10
126.0583491745
 20
149.7428299476
 10
125.9334362591
 20
149.7811540577
 10
125.8137385663
 20
149.8167234551
 10
125.6993275469
 20
149.8495697804
 10
125.5901555335
 20
149.8795264367
 10
125.486322729
 20
149.9067095461
 10
125.3879475424
 20
149.9312212548
 10
125.2950213502
 20
149.9528858324
 10
125.2075100557
 20
149.9718237415
 10
125.1256484873
 20
149.9881149754
 10
125.0498369879
 20
150.0015287171
 10
124.9801160069
 20
150.0120633521
 10
124.9166031802
 20
150.0198782735
 10
124.8597728257
 20
150.0249423241
 10
124.8098127489
 20
150.0271120194
 10
124.7665723846
 20
150.0265676839
 10
124.7299387125
 20
150.0236840233
 10
124.7000030311
 20
150.0182214394
 10
124.6765907382
 20
150.0103358131
 10
124.6590747267
 20
150.0008797742
 10
124.6471266922
 20
149.9900181126
 10
124.6407935765
 20
149.9773042705
 10
124.6399372131
 20
149.9625999177
  0
LWPOLYLINE
  5
428
100
AcDbEntity
  8
ASSI
100
AcDbPolyline
 62
7
  6
CONTINUOUS
 90
18
 70
0
 10
145.1974506706
 20
142.9536248346
 10
144.8443193532
 20
143.1242538455
 10
144.4706154556
 20
143.2757539806
 10
144.0767305478
 20
143.4084889097
 10
143.6702471213
 20
143.5199017963
 10
143.250920699
 20
143.6095792943
 10
142.8189957581
 20
143.6779347499
 10
142.382788222
 20
143.7236513645
 10
141.9422149809
 20
143.7462902054
 10
141.4973591446
 20
143.7462902054
 10
141.0567859657
 20
143.7236513645
 10
140.6205785553
 20
143.6779347499
 10
140.1886538022
 20
143.6095792943
 10
139.7693276265
 20
143.5199017963
 10
139.3628445063
 20
143.4084889097
 10
138.9689599633
 20
143.2757539806
 10
138.5952564822
 20
143.1242538455
 10
138.2421256338
 20
142.9536248346
  0
LINE
  5
429
100
AcDbEntity
  8
ASSI
100
AcDbLine
 62
7
  6
CONTINUOUS
 10
144.8443204616
 20
144.2742776142
 11
145.1974517791
 21
144.1036486033
  0
LWPOLYLINE
  5
42A
100
AcDbEntity
  8
0
100
AcDbPolyline
 62
7
  6
CONTINUOUS
 90
10
 70
0
 10
145.3198026373
 20
142.6549044687
 10
144.9772253793
 20
142.8304719633
 10
144.6181656932
 20
142.98667145
 10
144.2426235791
 20
143.1235029289
 10
143.8477633804
 20
143.2417189285
 10
143.4364207537
 20
143.3405669202
 10
143.0171026685
 20
143.417789318
 10
142.5926447813
 20
143.4726335933
 10
142.1602114357
 20
143.5058522747
 10
141.7198026316
 20
143.5174453623
  0
LINE
  5
42B
100
AcDbEntity
  8
ASSI
100
AcDbLine
 62
7
  6
CONTINUOUS
 10
145.5304009778
 20
142.7642306178
 11
145.1974506706
 21
142.9536248346
  0
LWPOLYLINE
  5
42C
100
AcDbEntity
  8
ASSI
100
AcDbPolyline
 62
7
  6
CONTINUOUS
 90
12
 70
0
 10
145.1974517791
 20
144.1036486033
 10
145.5304020863
 20
143.9142543865
 10
145.8367636008
 20
143.7097428099
 10
146.1160205195
 20
143.4898210626
 10
146.3686886454
 20
143.2547819556
 10
146.589907606
 20
143.009151768
 10
146.7790674668
 20
142.7527255857
 10
146.9367781622
 20
142.4857083228
 10
147.0600091222
 20
142.213241
 10
147.1477501569
 20
141.937037291
 10
147.2010114563
 20
141.6553835222
 10
147.2197930203
 20
141.3682796935
  0
LINE
  5
42D
100
AcDbEntity
  8
RACCORDO
100
AcDbLine
 62
253
  6
CONTINUOUS
 10
153.4118570512
 20
145.486088444
 11
153.8678497101
 21
145.0308121301
  0
LWPOLYLINE
  5
42E
100
AcDbEntity
  8
RACCORDO
100
AcDbPolyline
 62
253
  6
CONTINUOUS
 90
3
 70
0
 10
153.1786970583
 20
145.7191927074
 10
153.2577088238
 20
145.6401872084
 10
153.4118570512
 20
145.486088444
  0
LINE
  5
42F
100
AcDbEntity
  8
0
100
AcDbLine
 62
7
  6
CONTINUOUS
 10
181.6198026316
 20
87.4201426261
 11
181.5848925017
 21
88.1480830956
  0
LINE
  5
430
100
AcDbEntity
  8
0
100
AcDbLine
 62
7
  6
CONTINUOUS
 10
181.6198025851
 20
100.1176529257
 11
181.6198025851
 21
87.4201426389
  0
LINE
  5
431
100
AcDbEntity
  8
RACCORDO
100
AcDbLine
 62
7
  6
CONTINUOUS
 10
182.7198013897
 20
134.7201819862
 11
182.7198013931
 21
131.720183466
  0
LINE
  5
432
100
AcDbEntity
  8
0
100
AcDbLine
 62
7
  6
CONTINUOUS
 10
182.9198026316
 20
130.6655429
 11
182.9198026316
 21
134.6655428982
  0
LINE
  5
433
100
AcDbEntity
  8
0
100
AcDbLine
 62
7
  6
CONTINUOUS
 10
183.0685333362
 20
134.6655428929
 11
183.0685333362
 21
130.5168121807
  0
LINE
  5
434
100
AcDbEntity
  8
0
100
AcDbLine
 62
7
  6
CONTINUOUS
 10
181.4463859935
 20
94.1480830912
 11
181.6198026316
 21
100.1176529053
  0
LWPOLYLINE
  5
435
100
AcDbEntity
  8
RACCORDO
100
AcDbPolyline
 62
253
  6
CONTINUOUS
 90
10
 70
0
 10
130.2608787148
 20
144.9535034425
 10
130.1748599509
 20
144.9350341543
 10
130.0895295186
 20
144.9232853328
 10
130.0056210468
 20
144.9183693546
 10
129.9238237136
 20
144.920342492
 10
129.84488172
 20
144.9292031262
 10
129.769574287
 20
144.9448623135
 10
129.6985701116
 20
144.9671601683
 10
129.6324358934
 20
144.995896668
 10
129.571727439
 20
145.0308121301
  0
LWPOLYLINE
  5
436
100
AcDbEntity
  8
RACCORDO
100
AcDbPolyline
 62
253
  6
CONTINUOUS
 90
19
 70
0
 10
72.5325356524
 20
147.291588784
 10
72.3765065051
 20
147.2841280041
 10
72.2187246936
 20
147.2639519791
 10
72.0602684442
 20
147.230545278
 10
71.9018261945
 20
147.1833249661
 10
71.7451859735
 20
147.1220363386
 10
71.5930757794
 20
147.0471479613
 10
71.4468207839
 20
146.9589086143
 10
71.3075742374
 20
146.857664455
 10
71.1774836385
 20
146.7447889613
 10
71.0577469317
 20
146.6212872747
 10
70.949014503
 20
146.4878536049
 10
70.8522542705
 20
146.3458078794
 10
70.7682438557
 20
146.1963848316
 10
70.6974130288
 20
146.0404879238
 10
70.6400901411
 20
145.8790169142
 10
70.5967013002
 20
145.713017492
 10
70.5676676685
 20
145.5437155602
 10
70.5532487948
 20
145.3722947644
  0
LWPOLYLINE
  5
437
100
AcDbEntity
  8
RACCORDO
100
AcDbPolyline
 62
253
  6
CONTINUOUS
 90
19
 70
0
 10
72.5325365001
 20
146.339157583
 10
72.4535762503
 20
146.3363971
 10
72.3749151841
 20
146.3265067866
 10
72.2965533015
 20
146.309486643
 10
72.2176103915
 20
146.2852770966
 10
72.138966665
 20
146.2539377199
 10
72.0632627559
 20
146.2156472301
 10
71.9906656254
 20
146.1700428205
 10
71.9210083123
 20
146.1174872978
 10
71.8564305662
 20
146.0592477993
 10
71.7972287132
 20
145.9951934296
 10
71.7431064273
 20
145.9254550841
 10
71.6953144801
 20
145.8516925862
 10
71.6540418688
 20
145.7738998028
 10
71.6190995961
 20
145.6920828669
 10
71.5911714423
 20
145.6079200014
 10
71.5704853339
 20
145.5219706138
 10
71.5568133444
 20
145.4336752964
 10
71.5501554736
 20
145.3430340494
  0
LINE
  5
438
100
AcDbEntity
  8
0
100
AcDbLine
 62
253
  6
CONTINUOUS
 10
214.2100274132
 20
150.309182227
 11
213.9628531947
 21
150.3040895
  0
LWPOLYLINE
  5
439
100
AcDbEntity
  8
RACCORDO
100
AcDbPolyline
 62
253
  6
CONTINUOUS
 90
25
 70
0
 10
126.323044156
 20
150.6280134326
 10
126.1426316212
 20
150.6268547251
 10
125.9685088307
 20
150.6239728693
 10
125.8006757846
 20
150.6193664086
 10
125.6390184239
 20
150.6129539425
 10
125.4836508076
 20
150.6048112209
 10
125.3349151127
 20
150.5951717687
 10
125.1928211674
 20
150.5840557413
 10
125.0573591436
 20
150.571434014
 10
124.928841734
 20
150.557466387
 10
124.8070866688
 20
150.5421275747
 10
124.6922762179
 20
150.5254315252
 10
124.5852698832
 20
150.5075978073
 10
124.4860677722
 20
150.4885662721
 10
124.3946697774
 20
150.4683851475
 10
124.3119350794
 20
150.4474393566
 10
124.2381640206
 20
150.4257029005
 10
124.1730562585
 20
150.4031929252
 10
124.1165699462
 20
150.380363975
 10
124.0689812584
 20
150.3571645673
 10
124.0300140203
 20
150.3336424918
 10
123.9987978605
 20
150.3104080277
 10
123.975042655
 20
150.2876677953
 10
123.9590385279
 20
150.2652203472
 10
123.9507854789
 20
150.2430677804
  0
LINE
  5
43A
100
AcDbEntity
  8
RACCORDO
100
AcDbLine
 62
253
  6
CONTINUOUS
 10
130.2608787148
 20
144.9535034425
 11
153.1786974703
 21
144.9535034425
  0
LINE
  5
43B
100
AcDbEntity
  8
RACCORDO
100
AcDbLine
 62
253
  6
CONTINUOUS
 10
130.2608783028
 20
145.7191927074
 11
153.1786970583
 21
145.7191927074
  0
LINE
  5
43C
100
AcDbEntity
  8
RACCORDO
100
AcDbLine
 62
253
  6
CONTINUOUS
 10
210.9070662527
 20
146.339157581
 11
159.9056805396
 21
146.3391584405
  0
LINE
  5
43D
100
AcDbEntity
  8
RACCORDO
100
AcDbLine
 62
253
  6
CONTINUOUS
 10
123.5339222109
 20
146.3391584429
 11
72.5325365001
 21
146.339157583
  0
LINE
  5
43E
100
AcDbEntity
  8
RACCORDO
100
AcDbLine
 62
253
  6
CONTINUOUS
 10
210.9070654686
 20
147.2915929544
 11
159.9070174093
 21
147.2915929922
  0
LINE
  5
43F
100
AcDbEntity
  8
RACCORDO
100
AcDbLine
 62
253
  6
CONTINUOUS
 10
123.5325837354
 20
147.2915929925
 11
72.5325356766
 21
147.2915929548
  0
LINE
  5
440
100
AcDbEntity
  8
RACCORDO
100
AcDbLine
 62
253
  6
CONTINUOUS
 10
157.1165303156
 20
149.6570240268
 11
126.3230450365
 21
149.6570240268
  0
LINE
  5
441
100
AcDbEntity
  8
RACCORDO
100
AcDbLine
 62
253
  6
CONTINUOUS
 10
157.1165294352
 20
150.6280134326
 11
126.323044156
 21
150.6280134326
  0
LINE
  5
442
100
AcDbEntity
  8
0
100
AcDbLine
 62
253
  6
CONTINUOUS
 10
69.4767062074
 20
150.304090441
 11
69.2295775928
 21
150.3091822269
  0
LWPOLYLINE
  5
443
100
AcDbEntity
  8
RACCORDO
100
AcDbPolyline
 62
253
  6
CONTINUOUS
 90
10
 70
0
 10
153.1786974703
 20
144.9535034425
 10
153.264802706
 20
144.9350189178
 10
153.3501689252
 20
144.9232733125
 10
153.4340634483
 20
144.9183674366
 10
153.5157662266
 20
144.9203433963
 10
153.5945760227
 20
144.9291842323
 10
153.6698164292
 20
144.9448140656
 10
153.7408416739
 20
144.9670987486
 10
153.8070421624
 20
144.9958470169
 10
153.8678497101
 20
145.0308121301
  0
LWPOLYLINE
  5
444
100
AcDbEntity
  8
0
100
AcDbPolyline
 62
253
  6
CONTINUOUS
 90
4
 70
0
 10
213.3867236959
 20
126.128912642
 10
213.4013951229
 20
126.1239547165
 10
213.4593688192
 20
126.0959111844
 10
213.5123374185
 20
126.061650081
  0
LINE
  5
445
100
AcDbEntity
  8
RACCORDO
100
AcDbLine
 62
253
  6
CONTINUOUS
 10
159.6723787357
 20
146.5724074419
 11
159.2165293865
 21
147.0275405165
  0
LWPOLYLINE
  5
446
100
AcDbEntity
  8
RACCORDO
100
AcDbPolyline
 62
253
  6
CONTINUOUS
 90
3
 70
0
 10
159.9056820383
 20
146.3391599392
 10
159.8265951729
 20
146.4182405262
 10
159.6723787357
 20
146.5724074419
  0
LINE
  5
447
100
AcDbEntity
  8
DRAFT
100
AcDbLine
 62
7
  6
CONTINUOUS
 10
168.2211160044
 20
137.5514135849
 11
168.3523472734
 21
137.4186907831
  0
LWPOLYLINE
  5
448
100
AcDbEntity
  8
0
100
AcDbPolyline
 62
253
  6
CONTINUOUS
 90
13
 70
0
 10
213.7097882795
 20
125.7022187659
 10
213.6954205866
 20
125.6834620157
 10
213.6665112142
 20
125.6642242575
 10
213.6229367542
 20
125.6449946155
 10
213.5642532426
 20
125.6263830213
 10
213.491056811
 20
125.608925065
 10
213.4059426611
 20
125.5928501166
 10
213.3122350566
 20
125.5786782891
 10
213.2102638977
 20
125.5664569581
 10
213.098577426
 20
125.5557350943
 10
212.9773284616
 20
125.546892
 10
212.849311275
 20
125.5407128324
 10
212.7166658242
 20
125.5376395151
  0
LWPOLYLINE
  5
449
100
AcDbEntity
  8
0
100
AcDbPolyline
 62
253
  6
CONTINUOUS
 90
16
 70
0
 10
71.2131856793
 20
152.2696238081
 10
71.0129562234
 20
152.2588724156
 10
70.8129718791
 20
152.227533991
 10
70.616514409
 20
152.1757223562
 10
70.4283057753
 20
152.1048933329
 10
70.2497260852
 20
152.016159735
 10
70.0791498449
 20
151.90864515
 10
69.9188799449
 20
151.7830530304
 10
69.7721140228
 20
151.6415088012
 10
69.6392356246
 20
151.4840483923
 10
69.5230700516
 20
151.3134219766
 10
69.4250672956
 20
151.1317476239
 10
69.3448982148
 20
150.937647677
 10
69.284390282
 20
150.7327321464
 10
69.2457450421
 20
150.5219811009
 10
69.2295686602
 20
150.3091824074
  0
LINE
  5
44A
100
AcDbEntity
  8
RACCORDO
100
AcDbLine
 62
7
  6
CONTINUOUS
 10
212.0073435772
 20
152.0195432318
 11
71.4322156558
 21
152.0195432318
  0
LINE
  5
44B
100
AcDbEntity
  8
0
100
AcDbLine
 62
253
  6
CONTINUOUS
 10
71.2131856786
 20
152.2696241962
 11
212.2264195756
 21
152.2696241962
  0
LINE
  5
44C
100
AcDbEntity
  8
0
100
AcDbLine
 62
7
  6
CONTINUOUS
 10
214.0203516867
 20
155.8655428982
 11
69.4192615135
 21
155.8655428982
  0
LINE
  5
44D
100
AcDbEntity
  8
0
100
AcDbLine
 62
7
  6
CONTINUOUS
 10
69.3838679176
 20
155.8711828859
 11
69.4192615135
 21
155.8711828859
  0
LINE
  5
44E
100
AcDbEntity
  8
0
100
AcDbLine
 62
7
  6
CONTINUOUS
 10
214.0203516868
 20
155.8711828947
 11
214.0557369488
 21
155.8711828947
  0
LWPOLYLINE
  5
44F
100
AcDbEntity
  8
RACCORDO
100
AcDbPolyline
 62
7
  6
CONTINUOUS
 90
16
 70
0
 10
212.0073435772
 20
152.0195432318
 10
212.2126558279
 20
152.0086904176
 10
212.412343159
 20
151.9774304026
 10
212.6064055706
 20
151.9257631867
 10
212.7971448426
 20
151.8526034571
 10
212.9822591951
 20
151.7590365267
 10
213.1548432881
 20
151.6483183341
 10
213.3138603937
 20
151.5203840071
 10
213.4603472399
 20
151.3752984179
 10
213.5905086709
 20
151.2165121217
 10
213.7043536027
 20
151.0428734888
 10
213.8018731192
 20
150.8555341489
 10
213.8792453171
 20
150.6613995466
 10
213.9351962285
 20
150.4627714969
 10
213.9709998213
 20
150.2573481848
 10
213.9866560953
 20
150.0451296104
  0
LINE
  5
450
100
AcDbEntity
  8
0
100
AcDbLine
 62
7
  6
CONTINUOUS
 10
182.9198026367
 20
130.6655428982
 11
183.0685333596
 21
130.5168121702
  0
LWPOLYLINE
  5
451
100
AcDbEntity
  8
0
100
AcDbPolyline
 62
253
  6
CONTINUOUS
 90
16
 70
0
 10
212.2264196285
 20
152.2696241969
 10
212.3632058184
 20
152.7326213448
 10
212.4981313053
 20
153.1639105411
 10
212.6311960891
 20
153.5634312458
 10
212.762612167
 20
153.9311406043
 10
212.8921675418
 20
154.266975456
 10
213.0192262221
 20
154.5708631472
 10
213.1438264778
 20
154.8427797944
 10
213.2659300389
 20
155.0826984561
 10
213.3847861036
 20
155.2905744521
 10
213.5004359518
 20
155.4664123366
 10
213.6128383035
 20
155.6102203305
 10
213.7211185171
 20
155.7219978476
 10
213.8249850455
 20
155.8017780736
 10
213.9247294359
 20
155.8496104061
 10
214.0203516868
 20
155.8655428982
  0
LWPOLYLINE
  5
452
100
AcDbEntity
  8
0
100
AcDbPolyline
 62
253
  6
CONTINUOUS
 90
13
 70
0
 10
214.2100364927
 20
150.3091823617
 10
214.4171649254
 20
150.9735788788
 10
214.6124846657
 20
151.5648778377
 10
214.7964585245
 20
152.0807121536
 10
214.9693543242
 20
152.5095382301
 10
215.1317817526
 20
152.8576881273
 10
215.2845746077
 20
153.1502991465
 10
215.427801812
 20
153.3889249625
 10
215.5619420675
 20
153.5683832262
 10
215.688114393
 20
153.705247763
 10
215.8066229162
 20
153.8046600514
 10
215.9171800154
 20
153.8594866761
 10
216.0198063728
 20
153.8686354529
  0
LINE
  5
453
100
AcDbEntity
  8
0
100
AcDbLine
 62
7
  6
CONTINUOUS
 10
69.2980994222
 20
155.8690186536
 11
69.2126718038
 21
155.8625937163
  0
LWPOLYLINE
  5
454
100
AcDbEntity
  8
0
100
AcDbPolyline
 62
7
  6
CONTINUOUS
 90
16
 70
0
 10
69.4192614702
 20
155.8655429381
 10
69.2090413629
 20
155.8536473733
 10
69.0050972828
 20
155.8215002539
 10
68.8074292297
 20
155.7691019164
 10
68.6140735561
 20
155.6957234492
 10
68.4269939095
 20
155.6020952097
 10
68.2520812331
 20
155.490406744
 10
68.0894897316
 20
155.3598524876
 10
67.9390652002
 20
155.2112412022
 10
67.8062359678
 20
155.0491839127
 10
67.6916936856
 20
154.8728207044
 10
67.5947467025
 20
154.6830161755
 10
67.5187483938
 20
154.4869670704
 10
67.4648165514
 20
154.2870731316
 10
67.4318333834
 20
154.0809384109
 10
67.41979889
 20
153.8685652464
  0
LINE
  5
455
100
AcDbEntity
  8
0
100
AcDbLine
 62
7
  6
CONTINUOUS
 10
69.3838683298
 20
155.8711823897
 11
69.2980994222
 21
155.8690186536
  0
LWPOLYLINE
  5
456
100
AcDbEntity
  8
0
100
AcDbPolyline
 62
7
  6
CONTINUOUS
 90
3
 70
0
 10
214.223785221
 20
155.8629106599
 10
214.1399046178
 20
155.8691025298
 10
214.05573694
 20
155.8711828633
  0
LWPOLYLINE
  5
457
100
AcDbEntity
  8
RACCORDO
100
AcDbPolyline
 62
7
  6
CONTINUOUS
 90
13
 70
0
 10
200.7198013988
 20
126.7972576406
 10
200.7282514657
 20
126.6822653616
 10
200.7492540303
 20
126.5733431819
 10
200.7828090925
 20
126.4704911015
 10
200.8299909031
 20
126.3723003915
 10
200.8897252114
 20
126.2801797808
 10
200.9587892652
 20
126.1983554557
 10
201.0376959004
 20
126.1273092389
 10
201.1259322812
 20
126.0665593076
 10
201.2187371475
 20
126.0188863803
 10
201.3145234127
 20
125.9852173632
 10
201.4148781634
 20
125.96462535
 10
201.5198013997
 20
125.9571103409
  0
LINE
  5
458
100
AcDbEntity
  8
0
100
AcDbLine
 62
7
  6
CONTINUOUS
 10
200.371071891
 20
125.5376395085
 11
200.371071891
 21
134.6655428929
  0
LINE
  5
459
100
AcDbEntity
  8
0
100
AcDbLine
 62
7
  6
CONTINUOUS
 10
200.5198026317
 20
134.6655428894
 11
200.5198026317
 21
136.6047051424
  0
LINE
  5
45A
100
AcDbEntity
  8
0
100
AcDbLine
 62
7
  6
CONTINUOUS
 10
200.6947799591
 20
135.3740680483
 11
200.6947799591
 21
127.0484127333
  0
LINE
  5
45B
100
AcDbEntity
  8
RACCORDO
100
AcDbLine
 62
7
  6
CONTINUOUS
 10
200.7198013988
 20
126.7972576406
 11
200.7198013897
 21
134.7201819862
  0
LWPOLYLINE
  5
45C
100
AcDbEntity
  8
0
100
AcDbPolyline
 62
7
  6
CONTINUOUS
 90
10
 70
0
 10
200.3710719036
 20
125.5376395209
 10
200.371522681
 20
125.6083997343
 10
200.3727638792
 20
125.6756869116
 10
200.3747954982
 20
125.7395010528
 10
200.3776943488
 20
125.8011571597
 10
200.3813836201
 20
125.8593402305
 10
200.3856328801
 20
125.9101052594
 10
200.390365318
 20
125.9521372445
 10
200.3956577446
 20
125.9867511878
 10
200.4015101597
 20
126.0139470892
  0
LWPOLYLINE
  5
45D
100
AcDbEntity
  8
RACCORDO
100
AcDbPolyline
 62
253
  6
CONTINUOUS
 90
10
 70
0
 10
210.9070654686
 20
147.2915929544
 10
211.0325241634
 20
147.9160991908
 10
211.1571742499
 20
148.5153325295
 10
211.2810157284
 20
149.0894022139
 10
211.4040483745
 20
149.6380634225
 10
211.5262724133
 20
150.1618227115
 10
211.6476885199
 20
150.6617813015
 10
211.7682969194
 20
151.1382336903
 10
211.8880973873
 20
151.5908242671
 10
212.0070899239
 20
152.0195432318
  0
LWPOLYLINE
  5
45E
100
AcDbEntity
  8
RACCORDO
100
AcDbPolyline
 62
253
  6
CONTINUOUS
 90
10
 70
0
 10
212.8863493834
 20
145.372294729
 10
213.0116543646
 20
145.989506218
 10
213.1363458865
 20
146.5816370614
 10
213.2603243219
 20
147.1488755182
 10
213.3833604947
 20
147.6911952332
 10
213.5054898654
 20
148.2089264954
 10
213.6269815225
 20
148.7028304212
 10
213.7478266553
 20
149.1733064433
 10
213.8677695279
 20
149.6203180223
 10
213.9866800034
 20
150.0440154692
  0
LWPOLYLINE
  5
45F
100
AcDbEntity
  8
RACCORDO
100
AcDbPolyline
 62
7
  6
CONTINUOUS
 90
16
 70
0
 10
213.4937880378
 20
126.2539850389
 10
213.4821902431
 20
126.2214037308
 10
213.461113734
 20
126.1900349812
 10
213.4305585105
 20
126.1598858187
 10
213.3899213293
 20
126.1306964599
 10
213.3398054337
 20
126.1027390237
 10
213.2820205539
 20
126.0768218287
 10
213.2164580348
 20
126.0530425076
 10
213.1432265315
 20
126.0313216111
 10
213.0644617389
 20
126.0122065786
 10
212.9799491247
 20
125.9957609216
 10
212.8899032212
 20
125.9819373072
 10
212.7971033203
 20
125.9711180129
 10
212.7024758525
 20
125.9634340108
 10
212.6050943874
 20
125.958763986
 10
212.5049589248
 20
125.9571103409
  0
LWPOLYLINE
  5
460
100
AcDbEntity
  8
0
100
AcDbPolyline
 62
7
  6
CONTINUOUS
 90
8
 70
0
 10
69.2126718038
 20
155.8625937163
 10
69.1277413712
 20
155.8519299236
 10
69.0434207255
 20
155.8370283083
 10
68.9599040141
 20
155.8179461605
 10
68.8774631208
 20
155.7948123138
 10
68.796284186
 20
155.7676902435
 10
68.7164610119
 20
155.7366396191
 10
68.6848412599
 20
155.7225797888
  0
LWPOLYLINE
  5
461
100
AcDbEntity
  8
0
100
AcDbPolyline
 62
253
  6
CONTINUOUS
 90
3
 70
0
 10
214.2804890087
 20
130.2920706697
 10
214.3267754772
 20
130.2613304685
 10
214.3748954265
 20
130.2197701997
  0
LWPOLYLINE
  5
462
100
AcDbEntity
  8
0
100
AcDbPolyline
 62
253
  6
CONTINUOUS
 90
5
 70
0
 10
213.5123374185
 20
126.061650081
 10
213.5602988937
 20
126.0214481755
 10
213.6019991961
 20
125.9766496522
 10
213.6370104155
 20
125.9283021034
 10
213.6659756187
 20
125.8756336504
  0
LWPOLYLINE
  5
463
100
AcDbEntity
  8
0
100
AcDbPolyline
 62
253
  6
CONTINUOUS
 90
10
 70
0
 10
212.9490002296
 20
83.9237090124
 10
213.093080318
 20
82.3065456423
 10
213.2309249217
 20
80.7200045032
 10
213.3625340406
 20
79.1643842222
 10
213.4879558547
 20
77.6404206793
 10
213.6071421839
 20
76.1479354514
 10
213.7199484886
 20
74.6859272226
 10
213.8263265887
 20
73.2543327367
 10
213.9263246643
 20
71.8539352497
 10
214.0199427152
 20
70.4850769257
  0
LINE
  5
464
100
AcDbEntity
  8
RACCORDO
100
AcDbLine
 62
253
  6
CONTINUOUS
 10
210.9070662527
 20
146.339157581
 11
210.9070654709
 21
147.2915929544
  0
LWPOLYLINE
  5
465
100
AcDbEntity
  8
0
100
AcDbPolyline
 62
253
  6
CONTINUOUS
 90
10
 70
0
 10
213.7097886269
 20
125.7022187912
 10
213.7630280756
 20
126.0063661445
 10
213.8159363728
 20
126.304930643
 10
213.868508871
 20
126.5979123011
 10
213.9207403912
 20
126.8853058013
 10
213.9726268481
 20
127.1671164242
 10
214.0241651845
 20
127.4433600724
 10
214.0753512348
 20
127.7140420207
 10
214.1261797885
 20
127.9791568914
 10
214.1766461699
 20
128.2387046004
  0
LWPOLYLINE
  5
466
100
AcDbEntity
  8
RACCORDO
100
AcDbPolyline
 62
7
  6
CONTINUOUS
 90
19
 70
0
 10
214.3055048011
 20
130.4033010087
 10
214.3161550341
 20
130.4595976217
 10
214.3260209019
 20
130.5322394268
 10
214.3351024058
 20
130.6208871236
 10
214.3434453366
 20
130.7253117662
 10
214.3510039063
 20
130.844836357
 10
214.357640748
 20
130.9780715288
 10
214.3633194767
 20
131.1234255889
 10
214.3680764791
 20
131.2804834245
 10
214.3718835458
 20
131.4495722231
 10
214.3747494458
 20
131.6304225382
 10
214.3766654123
 20
131.8216295044
 10
214.3775769318
 20
132.0219347378
 10
214.3774513778
 20
132.2307724344
 10
214.3763213785
 20
132.4464938004
 10
214.3742303024
 20
132.6659400704
 10
214.3711926053
 20
132.8871080459
 10
214.3671938312
 20
133.109326098
 10
214.3622339797
 20
133.331322543
  0
LWPOLYLINE
  5
467
100
AcDbEntity
  8
RACCORDO
100
AcDbPolyline
 62
7
  6
CONTINUOUS
 90
10
 70
0
 10
213.931213712
 20
128.6214335762
 10
213.8838227716
 20
128.3777212924
 10
213.8361250338
 20
128.1291613002
 10
213.7881204985
 20
127.8757593134
 10
213.7398040732
 20
127.6175217837
 10
213.6911808503
 20
127.3544541207
 10
213.6422661075
 20
127.0865605802
 10
213.5930649375
 20
126.8138466909
 10
213.5435722476
 20
126.5363193648
 10
213.4937880378
 20
126.2539850389
  0
LWPOLYLINE
  5
468
100
AcDbEntity
  8
0
100
AcDbPolyline
 62
253
  6
CONTINUOUS
 90
10
 70
0
 10
214.1766401496
 20
128.2387044222
 10
214.2155482116
 20
128.4358756
 10
214.2543374923
 20
128.629595219
 10
214.2930030517
 20
128.8198682099
 10
214.3315361962
 20
129.0066902312
 10
214.369935788
 20
129.1900745558
 10
214.4082078786
 20
129.3700529633
 10
214.4463507977
 20
129.5466394926
 10
214.4843555208
 20
129.719829546
 10
214.5222167213
 20
129.8896274013
  0
LWPOLYLINE
  5
469
100
AcDbEntity
  8
RACCORDO
100
AcDbPolyline
 62
7
  6
CONTINUOUS
 90
10
 70
0
 10
214.3055048011
 20
130.4033010087
 10
214.2645326704
 20
130.2211223303
 10
214.2234027635
 20
130.0349933603
 10
214.1821150805
 20
129.8449134848
 10
214.140664509
 20
129.6508824902
 10
214.0990561613
 20
129.4528996555
 10
214.0573053741
 20
129.2509636924
 10
214.0154172596
 20
129.0450739838
 10
213.9733867056
 20
128.8352306457
 10
213.931213712
 20
128.6214335762
  0
LWPOLYLINE
  5
46A
100
AcDbEntity
  8
RACCORDO
100
AcDbPolyline
 62
253
  6
CONTINUOUS
 90
19
 70
0
 10
212.8863518253
 20
145.3722947597
 10
212.8719330371
 20
145.5437153548
 10
212.8428994984
 20
145.7130172091
 10
212.7995107257
 20
145.8790166743
 10
212.742187831
 20
146.0404878852
 10
212.6713569041
 20
146.1963850902
 10
212.5873463507
 20
146.3458083839
 10
212.4905859777
 20
146.4878542609
 10
212.3818533941
 20
146.6212880322
 10
212.2621165341
 20
146.7447897734
 10
212.1320258459
 20
146.8576652478
 10
211.9927792357
 20
146.9589093583
 10
211.8465240412
 20
147.0471487035
 10
211.6944132287
 20
147.1220371918
 10
211.5377722114
 20
147.1833258678
 10
211.3793296585
 20
147.2305459951
 10
211.2208738667
 20
147.263952372
 10
211.0630930712
 20
147.2841281169
 10
210.9070654927
 20
147.2915887798
  0
LWPOLYLINE
  5
46B
100
AcDbEntity
  8
RACCORDO
100
AcDbPolyline
 62
253
  6
CONTINUOUS
 90
19
 70
0
 10
211.8894472816
 20
145.3430340449
 10
211.8827893883
 20
145.4336752865
 10
211.8691173867
 20
145.5219706021
 10
211.8484312768
 20
145.6079199918
 10
211.8205031401
 20
145.692082867
 10
211.7855608951
 20
145.7738998162
 10
211.7442882973
 20
145.8516926054
 10
211.6964963318
 20
145.9254550896
 10
211.6423740134
 20
145.9951934137
 10
211.5831721418
 20
146.0592477785
 10
211.5185944101
 20
146.1174873141
 10
211.4489371252
 20
146.1700428904
 10
211.3763400073
 20
146.2156473184
 10
211.3006360743
 20
146.2539377502
 10
211.2219923084
 20
146.2852770337
 10
211.1430493766
 20
146.3094865232
 10
211.0646875012
 20
146.3265066699
 10
210.9860264599
 20
146.3363970225
 10
210.9070662527
 20
146.339157581
  0
LWPOLYLINE
  5
46C
100
AcDbEntity
  8
0
100
AcDbPolyline
 62
253
  6
CONTINUOUS
 90
10
 70
0
 10
216.0198026315
 20
72.2162381036
 10
215.9231669121
 20
73.615406348
 10
215.8195680951
 20
75.0476679611
 10
215.7090549196
 20
76.5129453962
 10
215.591693471
 20
78.0108991111
 10
215.4675300741
 20
79.5417148824
 10
215.3365840949
 20
81.1061027137
 10
215.1989007993
 20
82.7042475884
 10
215.0545585042
 20
84.3358105996
 10
214.9036264581
 20
86.0007154864
  0
LWPOLYLINE
  5
46D
100
AcDbEntity
  8
RACCORDO
100
AcDbPolyline
 62
253
  6
CONTINUOUS
 90
10
 70
0
 10
212.2700564448
 20
133.2145091069
 10
212.2279653406
 20
134.5107222679
 10
212.1858293412
 20
135.8197027939
 10
212.1436484466
 20
137.141450685
 10
212.1014290641
 20
138.4758555207
 10
212.0591647864
 20
139.8230277215
 10
212.0168363915
 20
141.1832985482
 10
211.9744374721
 20
142.5567784212
 10
211.9319744354
 20
143.9433569201
 10
211.8894472816
 20
145.3430340449
  0
LINE
  5
46E
100
AcDbEntity
  8
RACCORDO
100
AcDbLine
 62
253
  6
CONTINUOUS
 10
212.2963493492
 20
132.4078370387
 11
212.2700564448
 21
133.2145091069
  0
LWPOLYLINE
  5
46F
100
AcDbEntity
  8
RACCORDO
100
AcDbPolyline
 62
253
  6
CONTINUOUS
 90
10
 70
0
 10
213.2926118289
 20
132.4689386605
 10
213.2251575396
 20
134.5418103834
 10
213.1829878782
 20
135.850553129
 10
213.1407646436
 20
137.1722083192
 10
213.0985097101
 20
138.5063862397
 10
213.0562167941
 20
139.8532007544
 10
213.0138509863
 20
141.2132721581
 10
212.9714055557
 20
142.5867081789
 10
212.9289024168
 20
143.9731014902
 10
212.8863493834
 20
145.372294729
  0
LINE
  5
470
100
AcDbEntity
  8
RACCORDO
100
AcDbLine
 62
253
  6
CONTINUOUS
 10
212.4010483957
 20
129.181884943
 11
212.2963493492
 21
132.4078370387
  0
LINE
  5
471
100
AcDbEntity
  8
RACCORDO
100
AcDbLine
 62
253
  6
CONTINUOUS
 10
213.3935645576
 20
129.3609241286
 11
213.2926118289
 21
132.4689386605
  0
LWPOLYLINE
  5
472
100
AcDbEntity
  8
RACCORDO
100
AcDbPolyline
 62
253
  6
CONTINUOUS
 90
4
 70
0
 10
212.504957989
 20
125.9571103409
 10
212.4790563993
 20
126.7631936224
 10
212.4531044329
 20
127.5693504852
 10
212.4010483957
 20
129.181884943
  0
LWPOLYLINE
  5
473
100
AcDbEntity
  8
RACCORDO
100
AcDbPolyline
 62
253
  6
CONTINUOUS
 90
3
 70
0
 10
213.4937880318
 20
126.2539850057
 10
213.46880347
 20
127.0306189002
 10
213.3935645576
 20
129.3609241286
  0
LWPOLYLINE
  5
474
100
AcDbEntity
  8
0
100
AcDbPolyline
 62
253
  6
CONTINUOUS
 90
13
 70
0
 10
213.9053203892
 20
85.9732293313
 10
213.8222495857
 20
88.9636911094
 10
213.7362006458
 20
92.0121961565
 10
213.6471735695
 20
95.1187444725
 10
213.5551855362
 20
98.2828224425
 10
213.4602193665
 20
101.5049436815
 10
213.3622235223
 20
104.7866490344
 10
213.2609532815
 20
108.1356221059
 10
213.1566533662
 20
111.5441792913
 10
213.0500064039
 20
114.9908106212
 10
212.9412399373
 20
118.4683461058
 10
212.8301264237
 20
121.9839557349
 10
212.7166658631
 20
125.5376395085
  0
LWPOLYLINE
  5
475
100
AcDbEntity
  8
0
100
AcDbPolyline
 62
253
  6
CONTINUOUS
 90
10
 70
0
 10
214.9036264581
 20
86.0007154864
 10
214.7834747226
 20
90.3094842765
 10
214.659951488
 20
94.6439303545
 10
214.5331554475
 20
99.003985448
 10
214.4031924466
 20
103.3894354972
 10
214.2701697181
 20
107.8003584602
 10
214.1341958481
 20
112.2371233217
 10
213.9953887715
 20
116.6998068859
 10
213.8538759695
 20
121.1881948284
 10
213.7097886269
 20
125.7022187912
  0
LWPOLYLINE
  5
476
100
AcDbEntity
  8
0
100
AcDbPolyline
 62
253
  6
CONTINUOUS
 90
10
 70
0
 10
214.5879136242
 20
133.3073726978
 10
214.5446456612
 20
135.1329690097
 10
214.5016317472
 20
136.9760752005
 10
214.4588953232
 20
138.8363382833
 10
214.4164425581
 20
140.7144429295
 10
214.3743131604
 20
142.6089822926
 10
214.3325806465
 20
144.5164360219
 10
214.2912843525
 20
146.435359263
 10
214.2504291585
 20
148.3664056719
 10
214.2100364927
 20
150.3091823617
  0
LWPOLYLINE
  5
477
100
AcDbEntity
  8
0
100
AcDbPolyline
 62
253
  6
CONTINUOUS
 90
13
 70
0
 10
214.5879136242
 20
133.3073726978
 10
214.5942552392
 20
133.0176878169
 10
214.5991932069
 20
132.7301997117
 10
214.6027311758
 20
132.4449461221
 10
214.6048946815
 20
132.1581067533
 10
214.6056608355
 20
131.8735896487
 10
214.6049580742
 20
131.6029969503
 10
214.6027478983
 20
131.3492391348
 10
214.5990614239
 20
131.1094232727
 10
214.5939290896
 20
130.8864044206
 10
214.5873557447
 20
130.6811287831
 10
214.5793204475
 20
130.4926447103
 10
214.5698129092
 20
130.3209491524
  0
LWPOLYLINE
  5
478
100
AcDbEntity
  8
RACCORDO
100
AcDbPolyline
 62
7
  6
CONTINUOUS
 90
10
 70
0
 10
213.9866560953
 20
150.0451296104
 10
214.0280733391
 20
148.0812323645
 10
214.0695841862
 20
146.144038022
 10
214.1111886366
 20
144.2335465827
 10
214.1529069506
 20
142.3497593938
 10
214.194718868
 20
140.4926751081
 10
214.2365636076
 20
138.6622896843
 10
214.2784209093
 20
136.8586017753
 10
214.3203110334
 20
135.0816127282
 10
214.3622339797
 20
133.331322543
  0
LINE
  5
479
100
AcDbEntity
  8
RACCORDO
100
AcDbLine
 62
253
  6
CONTINUOUS
 10
211.663364113
 20
65.5618029818
 11
211.6633645431
 21
65.5082184646
  0
LINE
  5
47A
100
AcDbEntity
  8
0
100
AcDbLine
 62
253
  6
CONTINUOUS
 10
212.2264195756
 20
152.0065357744
 11
212.2264195756
 21
152.2696241962
  0
LINE
  5
47B
100
AcDbEntity
  8
0
100
AcDbLine
 62
253
  6
CONTINUOUS
 10
212.7166658236
 20
125.9645862742
 11
212.7166658236
 21
125.5376395152
  0
LINE
  5
47C
100
AcDbEntity
  8
0
100
AcDbLine
 62
253
  6
CONTINUOUS
 10
212.9490002316
 20
83.923709059
 11
212.9490002316
 21
84.7048939188
  0
LINE
  5
47D
100
AcDbEntity
  8
0
100
AcDbLine
 62
253
  6
CONTINUOUS
 10
214.0557369497
 20
155.8655429038
 11
214.0557369488
 21
155.8711828947
  0
LINE
  5
47E
100
AcDbEntity
  8
RACCORDO
100
AcDbLine
 62
7
  6
CONTINUOUS
 10
216.0198026112
 20
72.2162397482
 11
216.0198026096
 21
71.9586746352
  0
LINE
  5
47F
100
AcDbEntity
  8
0
100
AcDbLine
 62
7
  6
CONTINUOUS
 10
216.0198026316
 20
72.2162397482
 11
216.0198244705
 21
150.021496175
  0
LINE
  5
480
100
AcDbEntity
  8
0
100
AcDbLine
 62
7
  6
CONTINUOUS
 10
216.0198244705
 20
150.021496175
 11
216.0198063728
 21
153.8686354953
  0
LWPOLYLINE
  5
481
100
AcDbEntity
  8
0
100
AcDbPolyline
 62
253
  6
CONTINUOUS
 90
10
 70
0
 10
214.5698129092
 20
130.3209491524
 10
214.5653435435
 20
130.254528008
 10
214.5606959173
 20
130.1929647708
 10
214.5558694257
 20
130.1362556375
 10
214.5508965745
 20
130.0846983319
 10
214.5457437028
 20
130.0379872915
 10
214.5403104772
 20
129.9952161034
 10
214.5345624632
 20
129.9560826985
 10
214.52853163
 20
129.9208869192
 10
214.5222167213
 20
129.8896274013
  0
LWPOLYLINE
  5
482
100
AcDbEntity
  8
0
100
AcDbPolyline
 62
7
  6
CONTINUOUS
 90
8
 70
0
 10
214.7630022597
 20
155.7189894016
 10
214.7121224566
 20
155.7411859401
 10
214.6334584064
 20
155.7712177394
 10
214.5535000151
 20
155.7974423887
 10
214.4723377172
 20
155.8198014122
 10
214.390148041
 20
155.8382373633
 10
214.3072308732
 20
155.8526240592
 10
214.223785221
 20
155.8629106599
  0
LWPOLYLINE
  5
483
100
AcDbEntity
  8
0
100
AcDbPolyline
 62
253
  6
CONTINUOUS
 90
5
 70
0
 10
214.3748954265
 20
130.2197701997
 10
214.4166065538
 20
130.1734293848
 10
214.4514780361
 20
130.1234137669
 10
214.4801603951
 20
130.0689171054
 10
214.5020035274
 20
130.0104388626
  0
LWPOLYLINE
  5
484
100
AcDbEntity
  8
0
100
AcDbPolyline
 62
253
  6
CONTINUOUS
 90
4
 70
0
 10
213.6659756187
 20
125.8756336504
 10
213.6882573907
 20
125.8191149263
 10
213.7029042564
 20
125.7608217179
 10
213.7097882795
 20
125.7022187659
  0
LWPOLYLINE
  5
485
100
AcDbEntity
  8
RACCORDO
100
AcDbPolyline
 62
253
  6
CONTINUOUS
 90
10
 70
0
 10
213.931213712
 20
128.6214335762
 10
213.8612999945
 20
129.1354285057
 10
213.7904214558
 20
129.6493897197
 10
213.718578164
 20
130.1633167393
 10
213.6457700622
 20
130.6772099629
 10
213.5719973402
 20
131.1910680341
 10
213.4972604516
 20
131.7048878423
 10
213.4215596091
 20
132.2186680319
 10
213.3448947691
 20
132.7324090019
 10
213.2672660144
 20
133.246110274
  0
LWPOLYLINE
  5
486
100
AcDbEntity
  8
0
100
AcDbPolyline
 62
253
  6
CONTINUOUS
 90
10
 70
0
 10
214.1766461699
 20
128.2387046004
 10
214.4425147851
 20
126.1986201438
 10
214.6931205369
 20
124.1581123109
 10
214.9284611697
 20
122.1172085749
 10
215.1485366213
 20
120.0759167249
 10
215.3533427736
 20
118.0342839151
 10
215.5428728789
 20
115.9923967054
 10
215.7171252284
 20
113.950302305
 10
215.8761017247
 20
111.908008531
 10
216.0198026315
 20
109.865542886
  0
LWPOLYLINE
  5
487
100
AcDbEntity
  8
0
100
AcDbPolyline
 62
253
  6
CONTINUOUS
 90
9
 70
0
 10
214.1766401516
 20
128.2387044338
 10
214.169653949
 20
128.3010870616
 10
214.1541534792
 20
128.3629873922
 10
214.1303456905
 20
128.4226952133
 10
214.0991757239
 20
128.478198869
 10
214.0615908821
 20
128.5285938892
 10
214.01788503
 20
128.573889469
 10
213.9695209392
 20
128.6129026869
 10
213.9339094977
 20
128.6350999306
  0
LWPOLYLINE
  5
488
100
AcDbEntity
  8
0
100
AcDbPolyline
 62
253
  6
CONTINUOUS
 90
16
 70
0
 10
214.2100366044
 20
150.3091824107
 10
214.1953205602
 20
150.5103241189
 10
214.1605447045
 20
150.7097274725
 10
214.106195354
 20
150.9041849265
 10
214.0347129589
 20
151.0879896191
 10
213.9472131286
 20
151.2612646892
 10
213.8405326917
 20
151.4292424596
 10
213.712933941
 20
151.5912704977
 10
213.567020919
 20
151.7414965435
 10
213.4046152357
 20
151.8766437068
 10
213.2288933664
 20
151.9936383509
 10
213.0421130659
 20
152.0911353727
 10
212.8452163636
 20
152.1685126008
 10
212.6408315253
 20
152.2245184812
 10
212.4333571144
 20
152.2581751231
 10
212.2264195878
 20
152.2696237981
  0
LWPOLYLINE
  5
489
100
AcDbEntity
  8
0
100
AcDbPolyline
 62
7
  6
CONTINUOUS
 90
16
 70
0
 10
216.0198063728
 20
153.8686354953
 10
216.008063333
 20
154.0778241404
 10
215.9760499322
 20
154.2809415802
 10
215.9237661701
 20
154.477985573
 10
215.8504775507
 20
154.6709626058
 10
215.7569185701
 20
154.857862512
 10
215.645292717
 20
155.0326573825
 10
215.5148219874
 20
155.1951484915
 10
215.3662843853
 20
155.3455302924
 10
215.2042174111
 20
155.47836362
 10
215.0277788276
 20
155.5929581709
 10
214.837810872
 20
155.6900010345
 10
214.641377757
 20
155.766118945
 10
214.44083422
 20
155.8201869096
 10
214.2338255236
 20
155.8533283602
 10
214.0203516678
 20
155.8655429381
  0
LWPOLYLINE
  5
48A
100
AcDbEntity
  8
RACCORDO
100
AcDbPolyline
 62
7
  6
CONTINUOUS
 90
3
 70
0
 10
216.0107857835
 20
71.7938657374
 10
216.0171411842
 20
71.86847977
 10
216.0198026096
 20
71.9586746352
  0
LWPOLYLINE
  5
48B
100
AcDbEntity
  8
RACCORDO
100
AcDbPolyline
 62
253
  6
CONTINUOUS
 90
16
 70
0
 10
214.0207108688
 20
70.2287075256
 10
213.9771236393
 20
69.9019959975
 10
213.9193486041
 20
69.5793201548
 10
213.8473857634
 20
69.2606823874
 10
213.7616907221
 20
68.9468402222
 10
213.6618078752
 20
68.6370220808
 10
213.5463704074
 20
68.3290185851
 10
213.4164508708
 20
68.0236640089
 10
213.2709767131
 20
67.7202747409
 10
213.105363463
 20
67.4146192339
 10
212.9186841327
 20
67.1046854413
 10
212.7118657099
 20
66.7930837867
 10
212.4831046867
 20
66.4825862582
 10
212.2317998937
 20
66.1741808545
 10
211.9585525003
 20
65.8671951557
 10
211.6633625064
 20
65.5618029818
  0
LWPOLYLINE
  5
48C
100
AcDbEntity
  8
RACCORDO
100
AcDbPolyline
 62
7
  6
CONTINUOUS
 90
16
 70
0
 10
213.1924826038
 20
66.1074061199
 10
213.3722344149
 20
66.2911437697
 10
213.6994583596
 20
66.6486240541
 10
214.0039222141
 20
67.0124761375
 10
214.285640087
 20
67.3818800003
 10
214.5452903095
 20
67.756823967
 10
214.7839774213
 20
68.138195036
 10
215.0018167268
 20
68.5256217215
 10
215.1989175448
 20
68.9186838147
 10
215.3759690872
 20
69.3183116804
 10
215.5329096427
 20
69.7241358196
 10
215.6696890727
 20
70.1357557699
 10
215.7866347374
 20
70.5541753105
 10
215.883628277
 20
70.9795245687
 10
215.9603277332
 20
71.4109680067
 10
216.010724908
 20
71.7938707876
  0
LINE
  5
48D
100
AcDbEntity
  8
RACCORDO
100
AcDbLine
 62
7
  6
CONTINUOUS
 10
213.1919253654
 20
66.1068492926
 11
213.1924850227
 21
66.1074085372
  0
LWPOLYLINE
  5
48E
100
AcDbEntity
  8
0
100
AcDbPolyline
 62
253
  6
CONTINUOUS
 90
3
 70
0
 10
214.5020035274
 20
130.0104388626
 10
214.5160581836
 20
129.9501624911
 10
214.5222166735
 20
129.8896270732
  0
CIRCLE
  5
48F
100
AcDbEntity
  8
0
100
AcDbCircle
 62
7
  6
CONTINUOUS
 10
83.7198026316
 20
92.8655428982
 40
6.866025404
  0
CIRCLE
  5
490
100
AcDbEntity
  8
0
100
AcDbCircle
 62
7
  6
CONTINUOUS
 10
83.7198026316
 20
92.8655428982
 40
6.0
  0
CIRCLE
  5
491
100
AcDbEntity
  8
0
100
AcDbCircle
 62
7
  6
CONTINUOUS
 10
83.7198026316
 20
92.8655428982
 40
5.366025404
  0
CIRCLE
  5
492
100
AcDbEntity
  8
0
100
AcDbCircle
 62
7
  6
CONTINUOUS
 10
83.7198026316
 20
92.8655428982
 40
4.75
  0
CIRCLE
  5
493
100
AcDbEntity
  8
RACCORDO
100
AcDbCircle
 62
7
  6
CONTINUOUS
 10
83.7198026316
 20
92.8655428982
 40
4.4
  0
CIRCLE
  5
494
100
AcDbEntity
  8
RACCORDO
100
AcDbCircle
 62
253
  6
CONTINUOUS
 10
83.7198026316
 20
92.8655428982
 40
3.8999999864
  0
ARC
  5
495
100
AcDbEntity
  8
0
100
AcDbCircle
 62
7
  6
CONTINUOUS
 10
106.7198026316
 20
113.1155428982
 40
2.961880215
100
AcDbArc
 50
0.0000034917
 51
179.9999999301
  0
ARC
  5
496
100
AcDbEntity
  8
0
100
AcDbCircle
 62
7
  6
CONTINUOUS
 10
106.7198026316
 20
110.6155428982
 40
2.961880215
100
AcDbArc
 50
180.0000001934
 51
0.0000043691
  0
CIRCLE
  5
497
100
AcDbEntity
  8
0
100
AcDbCircle
 62
7
  6
CONTINUOUS
 10
83.7198026316
 20
92.8655428982
 40
2.5
  0
ARC
  5
498
100
AcDbEntity
  8
0
100
AcDbCircle
 62
7
  6
CONTINUOUS
 10
106.7198026316
 20
110.6155428982
 40
2.5
100
AcDbArc
 50
179.9999999858
 51
0.0000047109
  0
ARC
  5
499
100
AcDbEntity
  8
0
100
AcDbCircle
 62
7
  6
CONTINUOUS
 10
106.7198026316
 20
113.1155428982
 40
2.5
100
AcDbArc
 50
0.0
 51
180.0000000142
  0
ARC
  5
49A
100
AcDbEntity
  8
0
100
AcDbCircle
 62
7
  6
CONTINUOUS
 10
106.7198026316
 20
113.1155428982
 40
2.0
100
AcDbArc
 50
359.9999960684
 51
180.0000000178
  0
ARC
  5
49B
100
AcDbEntity
  8
0
100
AcDbCircle
 62
7
  6
CONTINUOUS
 10
106.7198026316
 20
110.6155428982
 40
2.0
100
AcDbArc
 50
179.9999999822
 51
360.0
  0
ARC
  5
49C
100
AcDbEntity
  8
0
100
AcDbCircle
 62
7
  6
CONTINUOUS
 10
106.7198026316
 20
113.1155428982
 40
1.538119785
100
AcDbArc
 50
359.9999949664
 51
179.9999999886
  0
ARC
  5
49D
100
AcDbEntity
  8
0
100
AcDbCircle
 62
7
  6
CONTINUOUS
 10
106.7198026316
 20
110.6155428982
 40
1.538119785
100
AcDbArc
 50
180.0000000114
 51
359.9999999886
  0
ARC
  5
49E
100
AcDbEntity
  8
ASSI
100
AcDbCircle
 62
7
  6
CONTINUOUS
 10
91.7198013898
 20
134.7201819862
 40
9.0
100
AcDbArc
 50
0.0
 51
180.0
  0
ARC
  5
49F
100
AcDbEntity
  8
0
100
AcDbCircle
 62
7
  6
CONTINUOUS
 10
91.7198026316
 20
134.6655428982
 40
8.8
100
AcDbArc
 50
0.0000000208
 51
179.9999999792
  0
ARC
  5
4A0
100
AcDbEntity
  8
0
100
AcDbCircle
 62
7
  6
CONTINUOUS
 10
91.7198026316
 20
134.6655428982
 40
8.651269272
100
AcDbArc
 50
0.0
 51
180.0000000349
  0
CIRCLE
  5
4A1
100
AcDbEntity
  8
0
100
AcDbCircle
 62
7
  6
CONTINUOUS
 10
91.7198026316
 20
134.6655428982
 40
6.866025404
  0
CIRCLE
  5
4A2
100
AcDbEntity
  8
0
100
AcDbCircle
 62
7
  6
CONTINUOUS
 10
91.7198026316
 20
134.6655428982
 40
6.0
  0
CIRCLE
  5
4A3
100
AcDbEntity
  8
0
100
AcDbCircle
 62
7
  6
CONTINUOUS
 10
91.7198026316
 20
134.6655428982
 40
5.366025404
  0
CIRCLE
  5
4A4
100
AcDbEntity
  8
0
100
AcDbCircle
 62
7
  6
CONTINUOUS
 10
91.7198026316
 20
134.6655428982
 40
4.75
  0
CIRCLE
  5
4A5
100
AcDbEntity
  8
RACCORDO
100
AcDbCircle
 62
7
  6
CONTINUOUS
 10
91.7198026316
 20
134.6655428982
 40
4.4
  0
CIRCLE
  5
4A6
100
AcDbEntity
  8
RACCORDO
100
AcDbCircle
 62
253
  6
CONTINUOUS
 10
91.7198026316
 20
134.6655428982
 40
3.8999999864
  0
CIRCLE
  5
4A7
100
AcDbEntity
  8
0
100
AcDbCircle
 62
7
  6
CONTINUOUS
 10
91.7198026316
 20
134.6655428982
 40
2.5
  0
ARC
  5
4A8
100
AcDbEntity
  8
RACCORDO
100
AcDbCircle
 62
7
  6
CONTINUOUS
 10
101.5198013932
 20
131.720183466
 40
0.8
100
AcDbArc
 50
180.0
 51
270.0
  0
ARC
  5
4A9
100
AcDbEntity
  8
0
100
AcDbCircle
 62
7
  6
CONTINUOUS
 10
141.7198026316
 20
111.3655428982
 40
7.961880215
100
AcDbArc
 50
180.000000085
 51
359.999999915
  0
ARC
  5
4AA
100
AcDbEntity
  8
0
100
AcDbCircle
 62
7
  6
CONTINUOUS
 10
141.7198026316
 20
111.3655428982
 40
7.5
100
AcDbArc
 50
179.9999999943
 51
360.0
  0
ARC
  5
4AB
100
AcDbEntity
  8
0
100
AcDbCircle
 62
7
  6
CONTINUOUS
 10
141.7198026316
 20
111.3655428982
 40
7.0
100
AcDbArc
 50
179.9999999939
 51
360.0
  0
CIRCLE
  5
4AC
100
AcDbEntity
  8
0
100
AcDbCircle
 62
7
  6
CONTINUOUS
 10
199.7198026316
 20
92.8655428982
 40
6.866025404
  0
ARC
  5
4AD
100
AcDbEntity
  8
0
100
AcDbCircle
 62
7
  6
CONTINUOUS
 10
141.7198026316
 20
111.3655428982
 40
6.538119785
100
AcDbArc
 50
179.9999999855
 51
360.0
  0
CIRCLE
  5
4AE
100
AcDbEntity
  8
0
100
AcDbCircle
 62
7
  6
CONTINUOUS
 10
199.7198026316
 20
92.8655428982
 40
6.0
  0
CIRCLE
  5
4AF
100
AcDbEntity
  8
0
100
AcDbCircle
 62
7
  6
CONTINUOUS
 10
199.7198026316
 20
92.8655428982
 40
5.366025404
  0
CIRCLE
  5
4B0
100
AcDbEntity
  8
0
100
AcDbCircle
 62
7
  6
CONTINUOUS
 10
199.7198026316
 20
92.8655428982
 40
4.75
  0
CIRCLE
  5
4B1
100
AcDbEntity
  8
RACCORDO
100
AcDbCircle
 62
7
  6
CONTINUOUS
 10
199.7198026316
 20
92.8655428982
 40
4.4
  0
CIRCLE
  5
4B2
100
AcDbEntity
  8
RACCORDO
100
AcDbCircle
 62
253
  6
CONTINUOUS
 10
199.7198026316
 20
92.8655428982
 40
3.8999999864
  0
ARC
  5
4B3
100
AcDbEntity
  8
0
100
AcDbCircle
 62
7
  6
CONTINUOUS
 10
176.7198026316
 20
113.1155428982
 40
2.961880215
100
AcDbArc
 50
0.0000034917
 51
179.9999999301
  0
ARC
  5
4B4
100
AcDbEntity
  8
0
100
AcDbCircle
 62
7
  6
CONTINUOUS
 10
176.7198026316
 20
110.6155428982
 40
2.961880215
100
AcDbArc
 50
180.0000001934
 51
0.0000032285
  0
CIRCLE
  5
4B5
100
AcDbEntity
  8
0
100
AcDbCircle
 62
7
  6
CONTINUOUS
 10
199.7198026316
 20
92.8655428982
 40
2.5
  0
ARC
  5
4B6
100
AcDbEntity
  8
0
100
AcDbCircle
 62
7
  6
CONTINUOUS
 10
176.7198026316
 20
110.6155428982
 40
2.5
100
AcDbArc
 50
179.9999999858
 51
0.0000034932
  0
ARC
  5
4B7
100
AcDbEntity
  8
0
100
AcDbCircle
 62
7
  6
CONTINUOUS
 10
176.7198026316
 20
113.1155428982
 40
2.5
100
AcDbArc
 50
0.0
 51
180.0000000142
  0
ARC
  5
4B8
100
AcDbEntity
  8
0
100
AcDbCircle
 62
7
  6
CONTINUOUS
 10
176.7198026316
 20
113.1155428982
 40
2.0
100
AcDbArc
 50
359.999997373
 51
180.0000000178
  0
ARC
  5
4B9
100
AcDbEntity
  8
0
100
AcDbCircle
 62
7
  6
CONTINUOUS
 10
176.7198026316
 20
110.6155428982
 40
2.0
100
AcDbArc
 50
179.9999999822
 51
360.0
  0
ARC
  5
4BA
100
AcDbEntity
  8
0
100
AcDbCircle
 62
7
  6
CONTINUOUS
 10
176.7198026316
 20
113.1155428982
 40
1.538119785
100
AcDbArc
 50
359.9999966481
 51
179.9999999886
  0
ARC
  5
4BB
100
AcDbEntity
  8
0
100
AcDbCircle
 62
7
  6
CONTINUOUS
 10
176.7198026316
 20
110.6155428982
 40
1.538119785
100
AcDbArc
 50
180.0000000114
 51
359.9999999886
  0
ARC
  5
4BC
100
AcDbEntity
  8
ASSI
100
AcDbCircle
 62
7
  6
CONTINUOUS
 10
191.7198013897
 20
134.7201819862
 40
9.0
100
AcDbArc
 50
0.0
 51
180.0
  0
ARC
  5
4BD
100
AcDbEntity
  8
0
100
AcDbCircle
 62
7
  6
CONTINUOUS
 10
191.7198026316
 20
134.6655428982
 40
8.8
100
AcDbArc
 50
0.0000000208
 51
179.9999999792
  0
ARC
  5
4BE
100
AcDbEntity
  8
0
100
AcDbCircle
 62
7
  6
CONTINUOUS
 10
191.7198026316
 20
134.6655428982
 40
8.651269272
100
AcDbArc
 50
0.0
 51
180.0000000349
  0
ARC
  5
4BF
100
AcDbEntity
  8
0
100
AcDbCircle
 62
7
  6
CONTINUOUS
 10
141.7198026316
 20
114.3655428982
 40
7.961880215
100
AcDbArc
 50
359.9999998628
 51
180.0000001372
  0
ARC
  5
4C0
100
AcDbEntity
  8
0
100
AcDbCircle
 62
7
  6
CONTINUOUS
 10
141.7198026316
 20
114.3655428982
 40
7.5
100
AcDbArc
 50
0.0
 51
180.0000000057
  0
ARC
  5
4C1
100
AcDbEntity
  8
0
100
AcDbCircle
 62
7
  6
CONTINUOUS
 10
141.7198026316
 20
114.3655428982
 40
7.0
100
AcDbArc
 50
0.0
 51
180.0000000061
  0
CIRCLE
  5
4C2
100
AcDbEntity
  8
0
100
AcDbCircle
 62
7
  6
CONTINUOUS
 10
191.7198026316
 20
134.6655428982
 40
6.866025404
  0
ARC
  5
4C3
100
AcDbEntity
  8
0
100
AcDbCircle
 62
7
  6
CONTINUOUS
 10
141.7198026316
 20
114.3655428982
 40
6.538119785
100
AcDbArc
 50
0.0
 51
180.0000000145
  0
CIRCLE
  5
4C4
100
AcDbEntity
  8
0
100
AcDbCircle
 62
7
  6
CONTINUOUS
 10
191.7198026316
 20
134.6655428982
 40
6.0
  0
CIRCLE
  5
4C5
100
AcDbEntity
  8
0
100
AcDbCircle
 62
7
  6
CONTINUOUS
 10
191.7198026316
 20
134.6655428982
 40
5.366025404
  0
CIRCLE
  5
4C6
100
AcDbEntity
  8
0
100
AcDbCircle
 62
7
  6
CONTINUOUS
 10
191.7198026316
 20
134.6655428982
 40
4.75
  0
CIRCLE
  5
4C7
100
AcDbEntity
  8
RACCORDO
100
AcDbCircle
 62
7
  6
CONTINUOUS
 10
191.7198026316
 20
134.6655428982
 40
4.4
  0
CIRCLE
  5
4C8
100
AcDbEntity
  8
RACCORDO
100
AcDbCircle
 62
253
  6
CONTINUOUS
 10
191.7198026316
 20
134.6655428982
 40
3.8999999864
  0
CIRCLE
  5
4C9
100
AcDbEntity
  8
0
100
AcDbCircle
 62
7
  6
CONTINUOUS
 10
191.7198026316
 20
134.6655428982
 40
2.5
  0
ARC
  5
4CA
100
AcDbEntity
  8
RACCORDO
100
AcDbCircle
 62
7
  6
CONTINUOUS
 10
181.9198013931
 20
131.720183466
 40
0.8
100
AcDbArc
 50
270.0000000655
 51
0.0000000655
  0
ELLIPSE
  5
4CB
100
AcDbEntity
  8
DRAFT
100
AcDbEllipse
 62
7
  6
CONTINUOUS
 10
114.807284644
 20
134.4155138709
 30
0.0
 11
0.0000875682
 21
1.0
 31
0.0
 40
0.0874897707
 41
-1.5697954178
 42
-1.3178494151
  0
ELLIPSE
  5
4CC
100
AcDbEntity
  8
DRAFT
100
AcDbEllipse
 62
7
  6
CONTINUOUS
 10
106.632307317
 20
134.4155138709
 30
0.0
 11
-0.0000875681
 21
1.0
 31
0.0
 40
0.0874874687
 41
1.3178494004
 42
1.569795418
  0
ELLIPSE
  5
4CD
100
AcDbEntity
  8
DRAFT
100
AcDbEllipse
 62
7
  6
CONTINUOUS
 10
176.807284644
 20
134.4155138709
 30
0.0
 11
0.0000875682
 21
1.0
 31
0.0
 40
0.0874897707
 41
-1.5697954178
 42
-1.3178494151
  0
ELLIPSE
  5
4CE
100
AcDbEntity
  8
DRAFT
100
AcDbEllipse
 62
7
  6
CONTINUOUS
 10
168.632307317
 20
134.4155138709
 30
0.0
 11
-0.0000875681
 21
1.0
 31
0.0
 40
0.0874874687
 41
1.3178494004
 42
1.569795418
  0
ELLIPSE
  5
4CF
100
AcDbEntity
  8
0
100
AcDbEllipse
 62
7
  6
CONTINUOUS
 10
181.4801621123
 20
88.1480830912
 30
0.0
 11
-0.0
 21
6.0
 31
0.0
 40
0.0174550649
 41
-1.5707963261
 42
0.0016967228
  0
ELLIPSE
  5
4D0
100
AcDbEntity
  8
0
100
AcDbEllipse
 62
7
  6
CONTINUOUS
 10
205.1916972649
 20
-45.4567755988
 30
0.0
 11
0.0
 21
180.0
 31
0.0
 40
0.0874886635
 41
0.2895860708
 42
0.3090757091
  0
ELLIPSE
  5
4D1
100
AcDbEntity
  8
0
100
AcDbEllipse
 62
7
  6
CONTINUOUS
 10
78.2479079983
 20
-45.4567755988
 30
0.0
 11
-0.0
 21
180.0
 31
0.0
 40
0.0874886635
 41
-0.3090757091
 42
-0.2895860708
  0
ELLIPSE
  5
4D2
100
AcDbEntity
  8
0
100
AcDbEllipse
 62
7
  6
CONTINUOUS
 10
101.9594431508
 20
88.1480830912
 30
0.0
 11
-0.0
 21
6.0
 31
0.0
 40
0.0174550649
 41
-0.004290296
 42
1.5707963261
  0
ENDSEC
  0
SECTION
  2
OBJECTS
  0
DICTIONARY
  5
C
100
AcDbDictionary
280
0
281
1
  3
ACAD_GROUP
350
D
  3
ACAD_MLINESTYLE
350
17
  3
ACAD_LAYOUT
350
1A
  3
ACAD_PLOTSETTINGS
350
19
  3
ACAD_PLOTSTYLENAME
350
E
  0
DICTIONARY
  5
D
102
{ACAD_REACTORS
330
C
102
}
100
AcDbDictionary
280
0
281
1
  0
ACDBDICTIONARYWDFLT
  5
E
102
{ACAD_REACTORS
330
C
102
}
100
AcDbDictionary
281
1
  3
Normal
350
F
100
AcDbDictionaryWithDefault
340
F
  0
DICTIONARY
  5
17
102
{ACAD_REACTORS
330
C
102
}
100
AcDbDictionary
280
0
281
1
  3
Standard
350
18
  0
DICTIONARY
  5
19
102
{ACAD_REACTORS
330
C
102
}
100
AcDbDictionary
281
1
  0
DICTIONARY
  5
1A
102
{ACAD_REACTORS
330
C
102
}
100
AcDbDictionary
281
1
  3
Model
350
4D3
  3
Layout1
350
4D4
  0
ACDBPLACEHOLDER
  5
F
102
{ACAD_REACTORS
330
E
102
}
  0
MLINESTYLE
  5
18
102
{ACAD_REACTORS
330
17
102
}
100
AcDbMlineStyle
  2
STANDARD
 70
0
  3

 62
256
 51
90.0
 52
90.0
 71
2
 49
0.5
 62
256
  6
BYLAYER
 49
-0.5
 62
256
  6
BYLAYER
  0
LAYOUT
  5
4D3
102
{ACAD_REACTORS
330
1A
102
}
100
AcDbPlotSettings
  1

  2
none_device
  4
ISO_A4_(297.00_x_210.00_MM)
  6

 40
0.0
 41
0.0
 42
0.0
 43
0.0
 44
297.0
 45
210.0
 46
0.0
 47
0.0
 48
0.0
 49
0.0
140
0.0
141
0.0
142
1.0
143
1.0
 70
1024
 72
1
 73
0
 74
0
  7

 75
0
147
1.0
148
0.0
149
0.0
100
AcDbLayout
  1
Model
 70
0
 71
0
 10
0.0
 20
0.0
 11
297.0
 21
210.0
 12
0.0
 22
0.0
 32
0.0
 14
0.0
 24
0.0
 34
0.0
 15
0.0
 25
0.0
 35
0.0
146
0.0
 13
0.0
 23
0.0
 33
0.0
 16
1.0
 26
0.0
 36
0.0
 17
0.0
 27
1.0
 37
0.0
 76
0
330
312
345
0
346
0
  0
LAYOUT
  5
4D4
102
{ACAD_REACTORS
330
1A
102
}
100
AcDbPlotSettings
  1

  2
none_device
  4
ISO_A4_(297.00_x_210.00_MM)
  6

 40
0.0
 41
0.0
 42
0.0
 43
0.0
 44
297.0
 45
210.0
 46
0.0
 47
0.0
 48
0.0
 49
0.0
140
0.0
141
0.0
142
1.0
143
1.0
 70
0
 72
1
 73
0
 74
0
  7

 75
0
147
1.0
148
0.0
149
0.0
100
AcDbLayout
  1
Layout1
 70
0
 71
1
 10
0.0
 20
0.0
 11
297.0
 21
210.0
 12
0.0
 22
0.0
 32
0.0
 14
0.0
 24
0.0
 34
0.0
 15
0.0
 25
0.0
 35
0.0
146
0.0
 13
0.0
 23
0.0
 33
0.0
 16
1.0
 26
0.0
 36
0.0
 17
0.0
 27
1.0
 37
0.0
 76
0
330
313
345
0
346
0
  0
ENDSEC
  0
EOF
