  0
SECTION
  2
HEADER
  9
$ACADVER
  1
AC1021
  9
$DWGCODEPAGE
  3
ANSI_1252
  9
$EXTMAX
 10
297.0
 20
210.0
 30
0.0
  9
$EXTMIN
 10
0.0
 20
0.0
 30
0.0
  9
$LIMMIN
 10
0.0
 20
0.0
  9
$LIMMAX
 10
297.0
 20
210.0
  9
$VIEWCTR
 10
148.5
 20
105.0
  9
$VIEWSIZE
 40
210.0
  9
$CLAYER
  8
0
  9
$LTSCALE
 40
16.335
  9
$CELTYPE
  6
BYLAYER
  9
$DIMSCALE
 40
1.0
  9
$DIMASZ
 40
3.0
  9
$DIMEXO
 40
0.5
  9
$DIMDLI
 40
11.286
  9
$DIMEXE
 40
1.5
  9
$DIMCEN
 40
2.673
  9
$DIMLFAC
 40
1.0
  9
$DIMBLK
  1
_FILLED
  9
$DIMALT
 70
0
  9
$DIMALTF
 40
0.0393700787
  9
$DIMTXT
 40
3.0
  9
$DIMTOL
 70
1
  9
$DIMLIM
 70
0
  9
$DIMTFAC
 40
1.0
  9
$DIMTP
 40
0.01
  9
$DIMTM
 40
0.01
  9
$DIMGAP
 40
0.625
  9
$DIMDSEP
 70
44
  9
$AUNITS
 70
0
  9
$PDMODE
 70
3
  9
$PDSIZE
 40
3.0
  9
$HANDSEED
  5
769
  9
$TILEMODE
 70
1
  9
$MEASUREMENT
 70
1
  9
$INSUNITS
 70
4
  0
ENDSEC
  0
SECTION
  2
CLASSES
  0
CLASS
  1
ACDBDICTIONARYWDFLT
  2
AcDbDictionaryWithDefault
  3
AutoCAD 2000
 90
0
 91
1
280
0
281
0
  0
CLASS
  1
ACDBPLACEHOLDER
  2
AcDbPlaceHolder
  3
AutoCAD 2000
 90
0
 91
1
280
0
281
0
  0
CLASS
  1
LAYOUT
  2
AcDbLayout
  3
AutoCAD 2000
 90
0
 91
0
280
0
281
0
  0
ENDSEC
  0
SECTION
  2
TABLES
  0
TABLE
  2
VPORT
  5
8
100
AcDbSymbolTable
 70
2
  0
VPORT
  5
1F4
100
AcDbSymbolTableRecord
100
AcDbViewportTableRecord
  2
*ACTIVE
 70
0
 10
0.0
 20
0.0
 11
1.0
 21
1.0
 12
148.5
 22
105.0
 13
0.0
 23
0.0
 14
1.0
 24
1.0
 15
0.0
 25
0.0
 16
0.0
 26
0.0
 36
1.0
 17
0.0
 27
0.0
 37
0.0
 40
210.0
 41
1.4142857143
 42
50.0
 43
0.0
 44
0.0
 50
0.0
 51
0.0
 71
0
 72
100
 73
1
 74
1
 75
0
 76
0
 77
0
 78
0
  0
ENDTAB
  0
TABLE
  2
LTYPE
  5
5
100
AcDbSymbolTable
 70
6
  0
LTYPE
  5
14
100
AcDbSymbolTableRecord
100
AcDbLinetypeTableRecord
  2
BYBLOCK
 70
0
  3

 72
65
 73
0
 40
0.0
  0
LTYPE
  5
15
100
AcDbSymbolTableRecord
100
AcDbLinetypeTableRecord
  2
BYLAYER
 70
0
  3

 72
65
 73
0
 40
0.0
  0
LTYPE
  5
16
100
AcDbSymbolTableRecord
100
AcDbLinetypeTableRecord
  2
CONTINUOUS
 70
64
  3
Solid line
 72
65
 73
0
 40
0.0
  0
LTYPE
  5
1F5
100
AcDbSymbolTableRecord
100
AcDbLinetypeTableRecord
  2
CENTER
 70
64
  3
____ _ ____ _ ____ _ ____ _ ____ _ ____ _ ____
 72
65
 73
4
 40
0.6
 49
0.375
 74
0
 49
-0.075
 74
0
 49
0.075
 74
0
 49
-0.075
 74
0
  0
LTYPE
  5
1F6
100
AcDbSymbolTableRecord
100
AcDbLinetypeTableRecord
  2
HIDDEN
 70
64
  3
- - - - - - - - - - - - - - - - - - - -
 72
65
 73
2
 40
0.2
 49
0.1
 74
0
 49
-0.1
 74
0
  0
LTYPE
  5
1F7
100
AcDbSymbolTableRecord
100
AcDbLinetypeTableRecord
  2
PHANTOM
 70
64
  3
_____ _ _ _____ _ _ _____ _ _ _____
 72
65
 73
6
 40
0.8
 49
0.45
 74
0
 49
-0.05
 74
0
 49
0.1
 74
0
 49
-0.05
 74
0
 49
0.1
 74
0
 49
-0.05
 74
0
  0
LTYPE
  5
1F8
100
AcDbSymbolTableRecord
100
AcDbLinetypeTableRecord
  2
DOT
 70
64
  3
. . . . . . . . . . . . . . . . . . . .
 72
65
 73
2
 40
0.2
 49
0.1
 74
0
 49
-0.1
 74
0
  0
LTYPE
  5
1F9
100
AcDbSymbolTableRecord
100
AcDbLinetypeTableRecord
  2
DASHED
 70
64
  3
- - - - - - - - - - - - - - - - - - - -
 72
65
 73
2
 40
0.2
 49
0.1
 74
0
 49
-0.1
 74
0
  0
ENDTAB
  0
TABLE
  2
LAYER
  5
2
100
AcDbSymbolTable
 70
36
  0
LAYER
  5
10
100
AcDbSymbolTableRecord
100
AcDbLayerTableRecord
  2
0
 70
0
 62
7
  6
CONTINUOUS
370
-3
390
F
  0
LAYER
  5
1FA
100
AcDbSymbolTableRecord
100
AcDbLayerTableRecord
  2
DEFAULT_1
 70
0
 62
7
  6
CENTER
370
-3
390
F
  0
LAYER
  5
1FB
100
AcDbSymbolTableRecord
100
AcDbLayerTableRecord
  2
DEFAULT_2
 70
0
 62
7
  6
HIDDEN
370
-3
390
F
  0
LAYER
  5
1FC
100
AcDbSymbolTableRecord
100
AcDbLayerTableRecord
  2
DEFAULT_3
 70
0
 62
7
  6
PHANTOM
370
-3
390
F
  0
LAYER
  5
1FD
100
AcDbSymbolTableRecord
100
AcDbLayerTableRecord
  2
ASSI
 70
0
 62
7
  6
CONTINUOUS
370
-3
390
F
  0
LAYER
  5
1FE
100
AcDbSymbolTableRecord
100
AcDbLayerTableRecord
  2
COORDINATE
 70
0
 62
7
  6
CONTINUOUS
370
-3
390
F
  0
LAYER
  5
1FF
100
AcDbSymbolTableRecord
100
AcDbLayerTableRecord
  2
COORD_ORIGINE
 70
0
 62
7
  6
CONTINUOUS
370
-3
390
F
  0
LAYER
  5
200
100
AcDbSymbolTableRecord
100
AcDbLayerTableRecord
  2
COPY_PUBLISH
 70
0
 62
7
  6
CONTINUOUS
370
-3
390
F
  0
LAYER
  5
201
100
AcDbSymbolTableRecord
100
AcDbLayerTableRecord
  2
COSMETIC
 70
0
 62
7
  6
CONTINUOUS
370
-3
390
F
  0
LAYER
  5
202
100
AcDbSymbolTableRecord
100
AcDbLayerTableRecord
  2
COSMETICI
 70
0
 62
7
  6
CONTINUOUS
370
-3
390
F
  0
LAYER
  5
203
100
AcDbSymbolTableRecord
100
AcDbLayerTableRecord
  2
CURVE
 70
0
 62
7
  6
CONTINUOUS
370
-3
390
F
  0
LAYER
  5
204
100
AcDbSymbolTableRecord
100
AcDbLayerTableRecord
  2
DRAFT
 70
0
 62
7
  6
CONTINUOUS
370
-3
390
F
  0
LAYER
  5
205
100
AcDbSymbolTableRecord
100
AcDbLayerTableRecord
  2
IGES-IMPORTATI
 70
0
 62
7
  6
CONTINUOUS
370
-3
390
F
  0
LAYER
  5
206
100
AcDbSymbolTableRecord
100
AcDbLayerTableRecord
  2
IMPORT_IGES
 70
0
 62
7
  6
CONTINUOUS
370
-3
390
F
  0
LAYER
  5
207
100
AcDbSymbolTableRecord
100
AcDbLayerTableRecord
  2
INTFCLR_1
 70
0
 62
7
  6
CONTINUOUS
370
-3
390
F
  0
LAYER
  5
208
100
AcDbSymbolTableRecord
100
AcDbLayerTableRecord
  2
INTF_1
 70
0
 62
7
  6
CONTINUOUS
370
-3
390
F
  0
LAYER
  5
209
100
AcDbSymbolTableRecord
100
AcDbLayerTableRecord
  2
INTF_15
 70
0
 62
7
  6
CONTINUOUS
370
-3
390
F
  0
LAYER
  5
20A
100
AcDbSymbolTableRecord
100
AcDbLayerTableRecord
  2
INTF_16
 70
0
 62
7
  6
CONTINUOUS
370
-3
390
F
  0
LAYER
  5
20B
100
AcDbSymbolTableRecord
100
AcDbLayerTableRecord
  2
INTF_CYAN
 70
0
 62
7
  6
CONTINUOUS
370
-3
390
F
  0
LAYER
  5
20C
100
AcDbSymbolTableRecord
100
AcDbLayerTableRecord
  2
NOTE
 70
0
 62
7
  6
CONTINUOUS
370
-3
390
F
  0
LAYER
  5
20D
100
AcDbSymbolTableRecord
100
AcDbLayerTableRecord
  2
PIANI
 70
0
 62
7
  6
CONTINUOUS
370
-3
390
F
  0
LAYER
  5
20E
100
AcDbSymbolTableRecord
100
AcDbLayerTableRecord
  2
PIANI_ORIGINE
 70
0
 62
7
  6
CONTINUOUS
370
-3
390
F
  0
LAYER
  5
20F
100
AcDbSymbolTableRecord
100
AcDbLayerTableRecord
  2
PIANI_RIFERIMENTO
 70
0
 62
7
  6
CONTINUOUS
370
-3
390
F
  0
LAYER
  5
210
100
AcDbSymbolTableRecord
100
AcDbLayerTableRecord
  2
PUNTI
 70
0
 62
7
  6
CONTINUOUS
370
-3
390
F
  0
LAYER
  5
211
100
AcDbSymbolTableRecord
100
AcDbLayerTableRecord
  2
RACCORDO
 70
0
 62
7
  6
CONTINUOUS
370
-3
390
F
  0
LAYER
  5
212
100
AcDbSymbolTableRecord
100
AcDbLayerTableRecord
  2
RGB____0____0____0__
 70
0
 62
7
  6
CONTINUOUS
370
-3
390
F
  0
LAYER
  5
213
100
AcDbSymbolTableRecord
100
AcDbLayerTableRecord
  2
SERIE
 70
0
 62
7
  6
CONTINUOUS
370
-3
390
F
  0
LAYER
  5
214
100
AcDbSymbolTableRecord
100
AcDbLayerTableRecord
  2
SIMBOLI
 70
0
 62
7
  6
CONTINUOUS
370
-3
390
F
  0
LAYER
  5
215
100
AcDbSymbolTableRecord
100
AcDbLayerTableRecord
  2
SMUSSO
 70
0
 62
7
  6
CONTINUOUS
370
-3
390
F
  0
LAYER
  5
216
100
AcDbSymbolTableRecord
100
AcDbLayerTableRecord
  2
SNAPLINE
 70
0
 62
7
  6
CONTINUOUS
370
-3
390
F
  0
LAYER
  5
217
100
AcDbSymbolTableRecord
100
AcDbLayerTableRecord
  2
SUPERFICI
 70
0
 62
7
  6
CONTINUOUS
370
-3
390
F
  0
LAYER
  5
218
100
AcDbSymbolTableRecord
100
AcDbLayerTableRecord
  2
SUPERFICI_SKEL
 70
0
 62
7
  6
CONTINUOUS
370
-3
390
F
  0
LAYER
  5
219
100
AcDbSymbolTableRecord
100
AcDbLayerTableRecord
  2
TRASH
 70
0
 62
7
  6
CONTINUOUS
370
-3
390
F
  0
ENDTAB
  0
TABLE
  2
STYLE
  5
3
100
AcDbSymbolTable
 70
1
  0
STYLE
  5
11
100
AcDbSymbolTableRecord
100
AcDbTextStyleTableRecord
  2
STANDARD
 70
0
 40
0.0
 41
0.8
 50
0.0
 71
0
 42
0.2
  3
txt
  4

  0
STYLE
  5
21A
100
AcDbSymbolTableRecord
100
AcDbTextStyleTableRecord
  2
TEXTSTYLE_1
 70
0
 40
0.0
 41
0.8
 50
0.0
 71
0
 42
0.2
  3
gdt
  4

  0
ENDTAB
  0
TABLE
  2
VIEW
  5
6
100
AcDbSymbolTable
 70
0
  0
ENDTAB
  0
TABLE
  2
UCS
  5
7
100
AcDbSymbolTable
 70
0
  0
ENDTAB
  0
TABLE
  2
APPID
  5
9
100
AcDbSymbolTable
 70
1
  0
APPID
  5
21B
100
AcDbSymbolTableRecord
100
AcDbRegAppTableRecord
  2
ACAD
 70
0
  0
ENDTAB
  0
TABLE
  2
BLOCK_RECORD
  5
1
100
AcDbSymbolTable
 70
0
  0
BLOCK_RECORD
  5
21C
100
AcDbSymbolTableRecord
100
AcDbBlockTableRecord
  2
*Model_Space
  0
BLOCK_RECORD
  5
21D
100
AcDbSymbolTableRecord
100
AcDbBlockTableRecord
  2
*Paper_Space
  0
ENDTAB
  0
TABLE
  2
DIMSTYLE
  5
A
100
AcDbSymbolTable
 70
1
100
AcDbDimStyleTable
 71
0
  0
DIMSTYLE
105
21E
100
AcDbSymbolTableRecord
100
AcDbDimStyleTableRecord
  2
STANDARD
 70
0
  3

  4

 40
1.0
 41
3.0
 42
0.5
 43
0.38
 44
1.5
 45
0.0
 46
0.0
 47
0.01
 48
0.01
140
3.0
141
0.09
142
0.0
143
25.4
144
1.0
145
0.0
146
1.0
147
0.625
 71
1.0
 72
0.0
 73
0
 74
0
 75
0
 76
0
 77
1
 78
8
170
0
171
2
172
0
173
0
174
0
175
0
176
0
177
0
178
0
270
2
271
2
272
2
273
2
274
2
275
0
280
0
281
0
282
0
283
1
284
8
285
0
286
0
287
3
288
0
340
11
278
44
  0
ENDTAB
  0
ENDSEC
  0
SECTION
  2
BLOCKS
  0
BLOCK
  5
20
100
AcDbEntity
  8
0
100
AcDbBlockBegin
  2
*Model_Space
 70
0
 10
0.0
 20
0.0
 30
0.0
  3
*Model_Space
  1

  0
ENDBLK
  5
21
100
AcDbEntity
  8
0
100
AcDbBlockEnd
  0
BLOCK
  5
1C
100
AcDbEntity
  8
0
100
AcDbBlockBegin
  2
*Paper_Space
 70
0
 10
0.0
 20
0.0
 30
0.0
  3
*Paper_Space
  1

  0
ENDBLK
  5
1D
100
AcDbEntity
  8
0
100
AcDbBlockEnd
  0
ENDSEC
  0
SECTION
  2
ENTITIES
  0
LWPOLYLINE
  5
21F
100
AcDbEntity
  8
0
100
AcDbPolyline
 62
253
  6
CONTINUOUS
 90
13
 70
0
 10
4.0291996861
 20
-24.0087767907
 10
4.0618175538
 20
-24.0066295441
 10
4.0938780356
 20
-24.0002442822
 10
4.1248328147
 20
-23.9897300382
 10
4.1541524226
 20
-23.9752664828
 10
4.181335378
 20
-23.9571008196
 10
4.2059167452
 20
-23.9355435298
 10
4.2274760179
 20
-23.9109630951
 10
4.2456442238
 20
-23.8837798593
 10
4.2601103694
 20
-23.8544588242
 10
4.2706268745
 20
-23.8235015187
 10
4.2770137499
 20
-23.7914373828
 10
4.2791616098
 20
-23.7588148668
  0
LWPOLYLINE
  5
220
100
AcDbEntity
  8
0
100
AcDbPolyline
 62
253
  6
CONTINUOUS
 90
13
 70
0
 10
-7.4858594087
 20
-24.5937253112
 10
-7.4597631428
 20
-24.5920072534
 10
-7.434113225
 20
-24.5868983638
 10
-7.409348363
 20
-24.5784860253
 10
-7.3858921257
 20
-24.5669141216
 10
-7.3641457009
 20
-24.552380577
 10
-7.3444810328
 20
-24.5351339718
 10
-7.3272344579
 20
-24.5154692897
 10
-7.3127009521
 20
-24.4937228696
 10
-7.3011290877
 20
-24.4702666543
 10
-7.2927167834
 20
-24.4455018306
 10
-7.2876079182
 20
-24.4198519679
 10
-7.2858898696
 20
-24.3937557721
  0
LWPOLYLINE
  5
221
100
AcDbEntity
  8
0
100
AcDbPolyline
 62
253
  6
CONTINUOUS
 90
13
 70
0
 10
-3.903345249
 20
-24.0087767907
 10
-3.8707273813
 20
-24.0066295441
 10
-3.8386668995
 20
-24.0002442822
 10
-3.8077121203
 20
-23.9897300382
 10
-3.7783925124
 20
-23.9752664828
 10
-3.7512095571
 20
-23.9571008196
 10
-3.7266281899
 20
-23.9355435298
 10
-3.7050689172
 20
-23.9109630951
 10
-3.6869007113
 20
-23.8837798593
 10
-3.6724345657
 20
-23.8544588242
 10
-3.6619180606
 20
-23.8235015187
 10
-3.6555311852
 20
-23.7914373828
 10
-3.6533833253
 20
-23.7588148668
  0
LWPOLYLINE
  5
222
100
AcDbEntity
  8
0
100
AcDbPolyline
 62
7
  6
CONTINUOUS
 90
13
 70
0
 10
10.3273080482
 20
-24.6068927681
 10
10.3534101751
 20
-24.6051825039
 10
10.3790653534
 20
-24.6000803275
 10
10.4038348748
 20
-24.5916733463
 10
10.4272953317
 20
-24.5801051052
 10
10.4490451375
 20
-24.5655733181
 10
10.4687115595
 20
-24.5483267403
 10
10.4859581373
 20
-24.5286603183
 10
10.5004899244
 20
-24.5069105125
 10
10.5120581655
 20
-24.4834500556
 10
10.5204651467
 20
-24.4586805342
 10
10.5255673231
 20
-24.4330253559
 10
10.5272775873
 20
-24.4069232291
  0
LWPOLYLINE
  5
223
100
AcDbEntity
  8
0
100
AcDbPolyline
 62
253
  6
CONTINUOUS
 90
13
 70
0
 10
7.3408357282
 20
-23.7347239844
 10
7.3148776541
 20
-23.7363855814
 10
7.2893588161
 20
-23.7409498603
 10
7.2647110178
 20
-23.748339589
 10
7.2413513236
 20
-23.758429726
 10
7.2196750021
 20
-23.7710495363
 10
7.2000488378
 20
-23.7859854803
 10
7.1828049242
 20
-23.8029848272
 10
7.1682350447
 20
-23.8217599315
 10
7.1565857354
 20
-23.8419931003
 10
7.1480541139
 20
-23.8633419688
 10
7.1427845431
 20
-23.8854452937
 10
7.1408661892
 20
-23.9079290652
  0
LWPOLYLINE
  5
224
100
AcDbEntity
  8
0
100
AcDbPolyline
 62
253
  6
CONTINUOUS
 90
7
 70
0
 10
3.7846609326
 20
-24.0074055682
 10
3.7769180942
 20
-24.0076092541
 10
3.7703348023
 20
-24.0078279983
 10
3.7651204499
 20
-24.0080548219
 10
3.7613448348
 20
-24.0082873987
 10
3.7589381594
 20
-24.008528055
 10
3.7579004235
 20
-24.0087767907
  0
LWPOLYLINE
  5
225
100
AcDbEntity
  8
0
100
AcDbPolyline
 62
253
  6
CONTINUOUS
 90
7
 70
0
 10
-4.1478840024
 20
-24.0074055682
 10
-4.1556268408
 20
-24.0076092541
 10
-4.1622101328
 20
-24.0078279983
 10
-4.1674244852
 20
-24.0080548219
 10
-4.1712001002
 20
-24.0082873987
 10
-4.1736067757
 20
-24.008528055
 10
-4.1746445115
 20
-24.0087767907
  0
LWPOLYLINE
  5
226
100
AcDbEntity
  8
0
100
AcDbPolyline
 62
253
  6
CONTINUOUS
 90
4
 70
0
 10
3.5284556636
 20
-23.7580927191
 10
3.5175686766
 20
-23.7583251851
 10
3.5107069266
 20
-23.7585656954
 10
3.5079403004
 20
-23.7588142498
  0
LWPOLYLINE
  5
227
100
AcDbEntity
  8
0
100
AcDbPolyline
 62
253
  6
CONTINUOUS
 90
4
 70
0
 10
-4.4040892714
 20
-23.7580927191
 10
-4.4149762584
 20
-23.7583251851
 10
-4.4218380085
 20
-23.7585656954
 10
-4.4246046347
 20
-23.7588142498
  0
LINE
  5
228
100
AcDbEntity
  8
0
100
AcDbLine
 62
253
  6
CONTINUOUS
 10
3.8036985201
 20
-24.0070443782
 11
3.7846609326
 21
-24.0074055682
  0
LINE
  5
229
100
AcDbEntity
  8
0
100
AcDbLine
 62
253
  6
CONTINUOUS
 10
-4.128846415
 20
-24.0070443782
 11
-4.1478840024
 21
-24.0074055682
  0
LINE
  5
22A
100
AcDbEntity
  8
0
100
AcDbLine
 62
253
  6
CONTINUOUS
 10
3.561814891
 20
-23.7576472116
 11
3.5284556636
 21
-23.7580927191
  0
LINE
  5
22B
100
AcDbEntity
  8
0
100
AcDbLine
 62
253
  6
CONTINUOUS
 10
-4.3707300441
 20
-23.7576472116
 11
-4.4040892714
 21
-23.7580927191
  0
LINE
  5
22C
100
AcDbEntity
  8
0
100
AcDbLine
 62
253
  6
CONTINUOUS
 10
3.82644331
 20
-24.0067604853
 11
3.8036985201
 21
-24.0070443782
  0
LINE
  5
22D
100
AcDbEntity
  8
0
100
AcDbLine
 62
253
  6
CONTINUOUS
 10
-4.1061016251
 20
-24.0067604853
 11
-4.128846415
 21
-24.0070443782
  0
LINE
  5
22E
100
AcDbEntity
  8
0
100
AcDbLine
 62
253
  6
CONTINUOUS
 10
3.6690440231
 20
-23.7569304097
 11
3.561814891
 21
-23.7576472116
  0
LINE
  5
22F
100
AcDbEntity
  8
0
100
AcDbLine
 62
253
  6
CONTINUOUS
 10
-4.263500912
 20
-23.7569304097
 11
-4.3707300441
 21
-23.7576472116
  0
LINE
  5
230
100
AcDbEntity
  8
0
100
AcDbLine
 62
253
  6
CONTINUOUS
 10
3.865716497
 20
-24.0065008313
 11
3.82644331
 21
-24.0067604853
  0
LINE
  5
231
100
AcDbEntity
  8
0
100
AcDbLine
 62
253
  6
CONTINUOUS
 10
-4.066828438
 20
-24.0065008313
 11
-4.1061016251
 21
-24.0067604853
  0
LINE
  5
232
100
AcDbEntity
  8
0
100
AcDbLine
 62
7
  6
CONTINUOUS
 10
10.3273080482
 20
-24.6068927681
 11
7.3272471263
 21
-24.6068927681
  0
LINE
  5
233
100
AcDbEntity
  8
0
100
AcDbLine
 62
7
  6
CONTINUOUS
 10
-7.4726919518
 20
-24.6068927681
 11
-10.4727528737
 21
-24.6068927681
  0
LINE
  5
234
100
AcDbEntity
  8
0
100
AcDbLine
 62
253
  6
CONTINUOUS
 10
-10.4595854168
 20
-24.5937253112
 11
-7.4858594087
 21
-24.5937253112
  0
LINE
  5
235
100
AcDbEntity
  8
0
100
AcDbLine
 62
253
  6
CONTINUOUS
 10
7.3404145832
 20
-24.5937253112
 11
10.3141405913
 21
-24.5937253112
  0
LINE
  5
236
100
AcDbEntity
  8
0
100
AcDbLine
 62
253
  6
CONTINUOUS
 10
-10.6586974342
 20
-24.3437633874
 11
-7.2867473912
 21
-24.3437633874
  0
LINE
  5
237
100
AcDbEntity
  8
0
100
AcDbLine
 62
253
  6
CONTINUOUS
 10
10.5132526088
 20
-24.3437633874
 11
7.1413025658
 21
-24.3437633874
  0
LINE
  5
238
100
AcDbEntity
  8
0
100
AcDbLine
 62
7
  6
CONTINUOUS
 10
4.1273156635
 20
-24.1068927681
 11
0.9772395111
 21
-24.1068927681
  0
LINE
  5
239
100
AcDbEntity
  8
0
100
AcDbLine
 62
7
  6
CONTINUOUS
 10
-1.1226843365
 20
-24.1068927681
 11
-4.2727604889
 21
-24.1068927681
  0
LINE
  5
23A
100
AcDbEntity
  8
0
100
AcDbLine
 62
7
  6
CONTINUOUS
 10
3.6772395111
 20
-24.0894377032
 11
0.994694576
 21
-24.0894377032
  0
LINE
  5
23B
100
AcDbEntity
  8
0
100
AcDbLine
 62
7
  6
CONTINUOUS
 10
-1.1401394014
 20
-24.0894377032
 11
-3.8226843365
 21
-24.0894377032
  0
LINE
  5
23C
100
AcDbEntity
  8
0
100
AcDbLine
 62
253
  6
CONTINUOUS
 10
-8.8358517934
 20
-23.9512303354
 11
-7.2867473912
 21
-23.9512303354
  0
LINE
  5
23D
100
AcDbEntity
  8
0
100
AcDbLine
 62
253
  6
CONTINUOUS
 10
7.1413025658
 20
-23.9512303354
 11
8.690406968
 21
-23.9512303354
  0
LINE
  5
23E
100
AcDbEntity
  8
0
100
AcDbLine
 62
253
  6
CONTINUOUS
 10
-10.6586974342
 20
-23.9512303354
 11
-9.109593032
 21
-23.9512303354
  0
LINE
  5
23F
100
AcDbEntity
  8
0
100
AcDbLine
 62
253
  6
CONTINUOUS
 10
8.9641482066
 20
-23.9512303354
 11
10.5132526088
 21
-23.9512303354
  0
LINE
  5
240
100
AcDbEntity
  8
0
100
AcDbLine
 62
253
  6
CONTINUOUS
 10
-7.4862805846
 20
-23.7347250073
 11
-8.6193454425
 21
-23.7347239844
  0
LINE
  5
241
100
AcDbEntity
  8
0
100
AcDbLine
 62
253
  6
CONTINUOUS
 10
8.473900617
 20
-23.7347239844
 11
7.340835753
 21
-23.734724803
  0
LINE
  5
242
100
AcDbEntity
  8
0
100
AcDbLine
 62
253
  6
CONTINUOUS
 10
10.3137181685
 20
-23.7347662507
 11
9.1806545575
 21
-23.7347239844
  0
LINE
  5
243
100
AcDbEntity
  8
0
100
AcDbLine
 62
253
  6
CONTINUOUS
 10
-9.326099383
 20
-23.7347239844
 11
-10.4591629941
 21
-23.7347662448
  0
LINE
  5
244
100
AcDbEntity
  8
0
100
AcDbLine
 62
7
  6
CONTINUOUS
 10
10.3289926282
 20
-23.2295424989
 11
9.2272775873
 21
-23.2295424989
  0
LINE
  5
245
100
AcDbEntity
  8
0
100
AcDbLine
 62
7
  6
CONTINUOUS
 10
8.4272775873
 20
-23.2295424989
 11
7.3255625464
 21
-23.2295424989
  0
LINE
  5
246
100
AcDbEntity
  8
0
100
AcDbLine
 62
7
  6
CONTINUOUS
 10
-7.4710073718
 20
-23.2295424989
 11
-8.5727224127
 21
-23.2295424989
  0
LINE
  5
247
100
AcDbEntity
  8
0
100
AcDbLine
 62
7
  6
CONTINUOUS
 10
-9.3727224127
 20
-23.2295424989
 11
-10.4744374536
 21
-23.2295424989
  0
LINE
  5
248
100
AcDbEntity
  8
0
100
AcDbLine
 62
253
  6
CONTINUOUS
 10
-3.999127557
 20
-23.7565014085
 11
-4.263500912
 21
-23.7569304097
  0
LINE
  5
249
100
AcDbEntity
  8
0
100
AcDbLine
 62
253
  6
CONTINUOUS
 10
3.933417378
 20
-23.7565014085
 11
3.6690440231
 21
-23.7569304097
  0
LINE
  5
24A
100
AcDbEntity
  8
0
100
AcDbLine
 62
253
  6
CONTINUOUS
 10
-4.0248912936
 20
-24.0064632888
 11
-4.066828438
 21
-24.0065008313
  0
LINE
  5
24B
100
AcDbEntity
  8
0
100
AcDbLine
 62
253
  6
CONTINUOUS
 10
3.9076536414
 20
-24.0064632888
 11
3.865716497
 21
-24.0065008313
  0
LINE
  5
24C
100
AcDbEntity
  8
0
100
AcDbLine
 62
253
  6
CONTINUOUS
 10
-3.7832749303
 20
-23.7570834733
 11
-3.999127557
 21
-23.7565014085
  0
LINE
  5
24D
100
AcDbEntity
  8
0
100
AcDbLine
 62
253
  6
CONTINUOUS
 10
4.1492700048
 20
-23.7570834733
 11
3.933417378
 21
-23.7565014085
  0
LINE
  5
24E
100
AcDbEntity
  8
0
100
AcDbLine
 62
253
  6
CONTINUOUS
 10
-3.9843080716
 20
-24.0066514104
 11
-4.0248912936
 21
-24.0064632888
  0
LINE
  5
24F
100
AcDbEntity
  8
0
100
AcDbLine
 62
253
  6
CONTINUOUS
 10
3.9482368635
 20
-24.0066514104
 11
3.9076536414
 21
-24.0064632888
  0
LINE
  5
250
100
AcDbEntity
  8
0
100
AcDbLine
 62
253
  6
CONTINUOUS
 10
-3.707261044
 20
-23.7576478741
 11
-3.7832749303
 21
-23.7570834733
  0
LINE
  5
251
100
AcDbEntity
  8
0
100
AcDbLine
 62
253
  6
CONTINUOUS
 10
4.2252838911
 20
-23.7576478741
 11
4.1492700048
 21
-23.7570834733
  0
LINE
  5
252
100
AcDbEntity
  8
0
100
AcDbLine
 62
253
  6
CONTINUOUS
 10
-3.9598867178
 20
-24.006894311
 11
-3.9843080716
 21
-24.0066514104
  0
LINE
  5
253
100
AcDbEntity
  8
0
100
AcDbLine
 62
253
  6
CONTINUOUS
 10
3.9726582173
 20
-24.006894311
 11
3.9482368635
 21
-24.0066514104
  0
LWPOLYLINE
  5
254
100
AcDbEntity
  8
0
100
AcDbPolyline
 62
253
  6
CONTINUOUS
 90
13
 70
0
 10
-7.4862805536
 20
-23.7347239844
 10
-7.4603224821
 20
-23.7363855811
 10
-7.4348036462
 20
-23.7409498592
 10
-7.4101558492
 20
-23.7483395868
 10
-7.3867961559
 20
-23.7584297226
 10
-7.3651198346
 20
-23.7710495316
 10
-7.3454936698
 20
-23.7859854747
 10
-7.3282497551
 20
-23.8029848211
 10
-7.3136798741
 20
-23.8217599255
 10
-7.3020305635
 20
-23.8419930949
 10
-7.2934989406
 20
-23.8633419648
 10
-7.2882293689
 20
-23.8854452914
 10
-7.2863110146
 20
-23.9079290652
  0
LWPOLYLINE
  5
255
100
AcDbEntity
  8
0
100
AcDbPolyline
 62
7
  6
CONTINUOUS
 90
13
 70
0
 10
-10.4727528737
 20
-24.6068927681
 10
-10.4988550005
 20
-24.6051825039
 10
-10.5245101788
 20
-24.6000803275
 10
-10.5492797002
 20
-24.5916733463
 10
-10.5727401571
 20
-24.5801051052
 10
-10.594489963
 20
-24.5655733181
 10
-10.6141563849
 20
-24.5483267403
 10
-10.6314029627
 20
-24.5286603183
 10
-10.6459347499
 20
-24.5069105125
 10
-10.657502991
 20
-24.4834500556
 10
-10.6659099722
 20
-24.4586805342
 10
-10.6710121485
 20
-24.4330253559
 10
-10.6727224127
 20
-24.4069232291
  0
LWPOLYLINE
  5
256
100
AcDbEntity
  8
0
100
AcDbPolyline
 62
253
  6
CONTINUOUS
 90
13
 70
0
 10
-4.1746445115
 20
-24.0087767907
 10
-4.2072648008
 20
-24.0066292241
 10
-4.239327164
 20
-24.0002431271
 10
-4.2702832177
 20
-23.9897277252
 10
-4.2996035002
 20
-23.9752628701
 10
-4.3267865277
 20
-23.9570959638
 10
-4.3513673711
 20
-23.9355377267
 10
-4.3729256082
 20
-23.9109568832
 10
-4.3910925146
 20
-23.8837738557
 10
-4.4055573697
 20
-23.8544535732
 10
-4.4160727716
 20
-23.8234975195
 10
-4.4224588687
 20
-23.7914351562
 10
-4.4246064353
 20
-23.7588148669
  0
LWPOLYLINE
  5
257
100
AcDbEntity
  8
0
100
AcDbPolyline
 62
253
  6
CONTINUOUS
 90
13
 70
0
 10
7.3404145832
 20
-24.5937253112
 10
7.3143183518
 20
-24.5920072579
 10
7.2886684612
 20
-24.5868983803
 10
7.2639036183
 20
-24.5784860587
 10
7.2404473922
 20
-24.5669141747
 10
7.2187009702
 20
-24.5523806496
 10
7.1990362955
 20
-24.5351340599
 10
7.1817897057
 20
-24.5154693851
 10
7.1672561807
 20
-24.4937229631
 10
7.1556842966
 20
-24.4702667371
 10
7.1472719751
 20
-24.4455018942
 10
7.1421630974
 20
-24.4198520036
 10
7.1404450442
 20
-24.3937557721
  0
LWPOLYLINE
  5
258
100
AcDbEntity
  8
0
100
AcDbPolyline
 62
253
  6
CONTINUOUS
 90
13
 70
0
 10
3.7579004235
 20
-24.0087767907
 10
3.7252801342
 20
-24.0066292241
 10
3.693217771
 20
-24.0002431271
 10
3.6622617174
 20
-23.9897277252
 10
3.6329414349
 20
-23.9752628701
 10
3.6057584074
 20
-23.9570959638
 10
3.581177564
 20
-23.9355377267
 10
3.5596193268
 20
-23.9109568832
 10
3.5414524205
 20
-23.8837738557
 10
3.5269875654
 20
-23.8544535732
 10
3.5164721634
 20
-23.8234975195
 10
3.5100860664
 20
-23.7914351562
 10
3.5079384997
 20
-23.7588148669
  0
LWPOLYLINE
  5
259
100
AcDbEntity
  8
0
100
AcDbPolyline
 62
253
  6
CONTINUOUS
 90
5
 70
0
 10
-3.6533833252
 20
-23.7588148669
 10
-3.6561448472
 20
-23.7585661115
 10
-3.6630083162
 20
-23.7583254936
 10
-3.6739002461
 20
-23.7580930132
 10
-3.707261044
 20
-23.7576478741
  0
LWPOLYLINE
  5
25A
100
AcDbEntity
  8
0
100
AcDbPolyline
 62
253
  6
CONTINUOUS
 90
5
 70
0
 10
4.2791616099
 20
-23.7588148669
 10
4.2764000878
 20
-23.7585661115
 10
4.2695366188
 20
-23.7583254936
 10
4.258644689
 20
-23.7580930132
 10
4.2252838911
 20
-23.7576478741
  0
LWPOLYLINE
  5
25B
100
AcDbEntity
  8
0
100
AcDbPolyline
 62
253
  6
CONTINUOUS
 90
9
 70
0
 10
-3.903345249
 20
-24.0087767907
 10
-3.9043611043
 20
-24.0085296119
 10
-3.9067457487
 20
-24.0082901045
 10
-3.9104991824
 20
-24.0080582685
 10
-3.9156909476
 20
-24.0078316609
 10
-3.9222515019
 20
-24.0076127248
 10
-3.9299722187
 20
-24.0074087888
 10
-3.938889463
 20
-24.0072204677
 10
-3.9598867178
 20
-24.006894311
  0
LWPOLYLINE
  5
25C
100
AcDbEntity
  8
0
100
AcDbPolyline
 62
7
  6
CONTINUOUS
 90
10
 70
0
 10
-9.326099383
 20
-23.7347239844
 10
-9.3067865162
 20
-23.7530166669
 10
-9.2860637291
 20
-23.7739583268
 10
-9.2639310217
 20
-23.7968923457
 10
-9.2400896319
 20
-23.8210305198
 10
-9.2148383218
 20
-23.8459582292
 10
-9.1890733781
 20
-23.8717499893
 10
-9.163093563
 20
-23.8982214005
 10
-9.1366001143
 20
-23.9248266308
 10
-9.109593032
 20
-23.9512303354
  0
LWPOLYLINE
  5
25D
100
AcDbEntity
  8
0
100
AcDbPolyline
 62
7
  6
CONTINUOUS
 90
10
 70
0
 10
-9.326099383
 20
23.5209384483
 10
-9.3078067005
 20
23.5402513151
 10
-9.2868650406
 20
23.5609741021
 10
-9.2639310217
 20
23.5831068095
 10
-9.2397928476
 20
23.6069481993
 10
-9.2148651382
 20
23.6321995095
 10
-9.1890733781
 20
23.6579644532
 10
-9.1626019669
 20
23.6839442683
 10
-9.1359967366
 20
23.7104377169
 10
-9.109593032
 20
23.7374447992
  0
LINE
  5
25E
100
AcDbEntity
  8
0
100
AcDbLine
 62
253
  6
CONTINUOUS
 10
-7.4858594087
 20
24.379939775
 11
-7.4726919518
 21
24.3931072319
  0
LINE
  5
25F
100
AcDbEntity
  8
0
100
AcDbLine
 62
253
  6
CONTINUOUS
 10
-7.2858898696
 20
24.179970236
 11
-7.2727224127
 21
24.1931376929
  0
LINE
  5
260
100
AcDbEntity
  8
0
100
AcDbLine
 62
7
  6
CONTINUOUS
 10
-8.5727224127
 20
22.2931072319
 11
-8.5858898696
 21
22.279939775
  0
LINE
  5
261
100
AcDbEntity
  8
0
100
AcDbLine
 62
7
  6
CONTINUOUS
 10
-7.3278358229
 20
22.275652167
 11
-8.3052673478
 21
21.2982206421
  0
LINE
  5
262
100
AcDbEntity
  8
0
100
AcDbLine
 62
7
  6
CONTINUOUS
 10
-8.1307166985
 20
20.8803759098
 11
-8.3052673478
 21
20.7931072319
  0
LINE
  5
263
100
AcDbEntity
  8
0
100
AcDbLine
 62
7
  6
CONTINUOUS
 10
-8.1311880155
 20
21.3492166725
 11
-8.3052673478
 21
21.2982206421
  0
LINE
  5
264
100
AcDbEntity
  8
0
100
AcDbLine
 62
7
  6
CONTINUOUS
 10
0.7447326522
 20
-22.5051474371
 11
0.7272775873
 21
-22.5068927681
  0
LWPOLYLINE
  5
265
100
AcDbEntity
  8
0
100
AcDbPolyline
 62
253
  6
CONTINUOUS
 90
13
 70
0
 10
-2.9513879711
 20
-22.3320374859
 10
-2.9187598439
 20
-22.3298943451
 10
-2.8866900515
 20
-22.3235115607
 10
-2.8557272282
 20
-22.312998381
 10
-2.826401033
 20
-22.2985346983
 10
-2.7992131717
 20
-22.2803680073
 10
-2.7746287925
 20
-22.258809202
 10
-2.7530684215
 20
-22.2342271794
 10
-2.7349008044
 20
-22.2070425065
 10
-2.7204366618
 20
-22.1777202889
 10
-2.7099233393
 20
-22.1467621736
 10
-2.7035405859
 20
-22.1146977614
 10
-2.7013974903
 20
-22.0820755621
  0
LWPOLYLINE
  5
266
100
AcDbEntity
  8
0
100
AcDbPolyline
 62
7
  6
CONTINUOUS
 90
16
 70
0
 10
10.5272776519
 20
-22.5068926977
 10
10.5791737851
 20
-22.5042116322
 10
10.6307194916
 20
-22.4961142396
 10
10.6813433709
 20
-22.4826219067
 10
10.7306524587
 20
-22.4637368825
 10
10.7778797219
 20
-22.4396466561
 10
10.8219855841
 20
-22.4109099184
 10
10.8622138832
 20
-22.3782428528
 10
10.8985918736
 20
-22.3418625959
 10
10.9312576063
 20
-22.3016326492
 10
10.9599941082
 20
-22.2575249399
 10
10.9840850058
 20
-22.2102963799
 10
11.0029732225
 20
-22.1609907241
 10
11.016472519
 20
-22.110376587
 10
11.0245808755
 20
-22.0588455677
 10
11.0272775873
 20
-22.0069689205
  0
LINE
  5
267
100
AcDbEntity
  8
0
100
AcDbLine
 62
7
  6
CONTINUOUS
 10
10.5272776519
 20
-22.5068927035
 11
9.2272775873
 21
-22.5068927681
  0
LINE
  5
268
100
AcDbEntity
  8
0
100
AcDbLine
 62
7
  6
CONTINUOUS
 10
8.4272775873
 20
-22.5068927681
 11
4.3772775873
 21
-22.5068927681
  0
LINE
  5
269
100
AcDbEntity
  8
0
100
AcDbLine
 62
7
  6
CONTINUOUS
 10
-4.5227224127
 20
-22.5068927681
 11
-8.5727224127
 21
-22.5068927681
  0
LINE
  5
26A
100
AcDbEntity
  8
0
100
AcDbLine
 62
7
  6
CONTINUOUS
 10
-9.3727224127
 20
-22.5068927681
 11
-10.6727224127
 21
-22.506892768
  0
LINE
  5
26B
100
AcDbEntity
  8
0
100
AcDbLine
 62
7
  6
CONTINUOUS
 10
0.7447326522
 20
-22.5051474371
 11
-0.8901774776
 21
-22.5051474371
  0
LINE
  5
26C
100
AcDbEntity
  8
0
100
AcDbLine
 62
7
  6
CONTINUOUS
 10
-10.6553435002
 20
-22.4894377032
 11
-9.109593032
 21
-22.4894377032
  0
LINE
  5
26D
100
AcDbEntity
  8
0
100
AcDbLine
 62
7
  6
CONTINUOUS
 10
-8.8358517934
 20
-22.4894377032
 11
-7.3278358229
 21
-22.4894377032
  0
LINE
  5
26E
100
AcDbEntity
  8
0
100
AcDbLine
 62
7
  6
CONTINUOUS
 10
3.4272775873
 20
-22.4894377032
 11
2.7272490307
 21
-22.4894377032
  0
LINE
  5
26F
100
AcDbEntity
  8
0
100
AcDbLine
 62
7
  6
CONTINUOUS
 10
-2.8726938561
 20
-22.4894377032
 11
-3.5727224127
 21
-22.4894377032
  0
LINE
  5
270
100
AcDbEntity
  8
0
100
AcDbLine
 62
7
  6
CONTINUOUS
 10
7.1823909974
 20
-22.4894377032
 11
8.690406968
 21
-22.4894377032
  0
LINE
  5
271
100
AcDbEntity
  8
0
100
AcDbLine
 62
7
  6
CONTINUOUS
 10
8.9641482066
 20
-22.4894377032
 11
10.5098986748
 21
-22.4894377032
  0
LINE
  5
272
100
AcDbEntity
  8
0
100
AcDbLine
 62
253
  6
CONTINUOUS
 10
-7.3739457554
 20
-22.3320374859
 11
-2.9513879711
 21
-22.3320374859
  0
LINE
  5
273
100
AcDbEntity
  8
0
100
AcDbLine
 62
253
  6
CONTINUOUS
 10
2.8059431456
 20
-22.3320374859
 11
7.22850093
 21
-22.3320374859
  0
LINE
  5
274
100
AcDbEntity
  8
0
100
AcDbLine
 62
7
  6
CONTINUOUS
 10
2.4772775873
 20
-21.8068927681
 11
-2.6227224127
 21
-21.8068927681
  0
LINE
  5
275
100
AcDbEntity
  8
0
100
AcDbLine
 62
7
  6
CONTINUOUS
 10
-2.6900256262
 20
-21.7395895546
 11
2.5445808008
 21
-21.7395895546
  0
LINE
  5
276
100
AcDbEntity
  8
0
100
AcDbLine
 62
253
  6
CONTINUOUS
 10
7.9852718731
 20
-21.3321897908
 11
2.5623835871
 21
-21.3321897908
  0
LINE
  5
277
100
AcDbEntity
  8
0
100
AcDbLine
 62
253
  6
CONTINUOUS
 10
-2.7078284125
 20
-21.3321897908
 11
-8.1307166985
 21
-21.3321897908
  0
LINE
  5
278
100
AcDbEntity
  8
RACCORDO
100
AcDbLine
 62
7
  6
CONTINUOUS
 10
7.9852718731
 20
-21.094161446
 11
7.5426155462
 21
-21.094161446
  0
LINE
  5
279
100
AcDbEntity
  8
0
100
AcDbLine
 62
7
  6
CONTINUOUS
 10
2.8123740678
 20
-21.094161446
 11
-2.9578188933
 21
-21.094161446
  0
LINE
  5
27A
100
AcDbEntity
  8
RACCORDO
100
AcDbLine
 62
7
  6
CONTINUOUS
 10
-7.6880603716
 20
-21.094161446
 11
-8.1307166985
 21
-21.094161446
  0
LINE
  5
27B
100
AcDbEntity
  8
0
100
AcDbLine
 62
7
  6
CONTINUOUS
 10
-9.7227224127
 20
-21.0068927681
 11
-8.3052673478
 21
-21.0068927681
  0
LINE
  5
27C
100
AcDbEntity
  8
0
100
AcDbLine
 62
7
  6
CONTINUOUS
 10
8.1598225224
 20
-21.0068927681
 11
9.5772775873
 21
-21.0068927681
  0
LWPOLYLINE
  5
27D
100
AcDbEntity
  8
0
100
AcDbPolyline
 62
7
  6
CONTINUOUS
 90
16
 70
0
 10
-10.6727224127
 20
-22.5068925039
 10
-10.7246238749
 20
-22.5042127574
 10
-10.7761753182
 20
-22.4961132866
 10
-10.8268049821
 20
-22.4826164756
 10
-10.8761205813
 20
-22.4637258293
 10
-10.9233540383
 20
-22.4396293825
 10
-10.9674631818
 20
-22.4108860134
 10
-11.0076927753
 20
-22.3782123197
 10
-11.0440700091
 20
-22.3418265062
 10
-11.076730346
 20
-22.3015943705
 10
-11.1054573291
 20
-22.257493724
 10
-11.1295395409
 20
-22.2102778222
 10
-11.1484224504
 20
-22.1609771207
 10
-11.1619189734
 20
-22.1103539748
 10
-11.1700261299
 20
-22.0588025589
 10
-11.1727224127
 20
-22.0068925329
  0
LWPOLYLINE
  5
27E
100
AcDbEntity
  8
0
100
AcDbPolyline
 62
253
  6
CONTINUOUS
 90
13
 70
0
 10
2.8059431456
 20
-22.3320374859
 10
2.7733159851
 20
-22.3298944726
 10
2.7412469763
 20
-22.3235120299
 10
2.7102847226
 20
-22.3129993422
 10
2.6809588942
 20
-22.2985362496
 10
2.653771167
 20
-22.2803701718
 10
2.6291866404
 20
-22.2588118752
 10
2.607625881
 20
-22.2342301568
 10
2.589457728
 20
-22.2070455353
 10
2.5749929833
 20
-22.177723057
 10
2.5644790948
 20
-22.1467643404
 10
2.558095923
 20
-22.1146989952
 10
2.5559526649
 20
-22.0820755621
  0
LINE
  5
27F
100
AcDbEntity
  8
0
100
AcDbLine
 62
7
  6
CONTINUOUS
 10
-0.8901774776
 20
-22.5051474371
 11
-0.8727224127
 21
-22.5068927681
  0
LWPOLYLINE
  5
280
100
AcDbEntity
  8
0
100
AcDbPolyline
 62
253
  6
CONTINUOUS
 90
9
 70
0
 10
4.0291996861
 20
-24.0087767907
 10
4.0281838308
 20
-24.0085296119
 10
4.0257991863
 20
-24.0082901045
 10
4.0220457526
 20
-24.0080582685
 10
4.0168539875
 20
-24.0078316609
 10
4.0102934332
 20
-24.0076127248
 10
4.0025727163
 20
-24.0074087888
 10
3.993655472
 20
-24.0072204677
 10
3.9726582173
 20
-24.006894311
  0
LINE
  5
281
100
AcDbEntity
  8
0
100
AcDbLine
 62
7
  6
CONTINUOUS
 10
-8.1311880155
 20
-21.5630022087
 11
-8.3052673478
 21
-21.5120061782
  0
LINE
  5
282
100
AcDbEntity
  8
0
100
AcDbLine
 62
7
  6
CONTINUOUS
 10
-8.1307166985
 20
-21.094161446
 11
-8.3052673478
 21
-21.0068927681
  0
LINE
  5
283
100
AcDbEntity
  8
0
100
AcDbLine
 62
253
  6
CONTINUOUS
 10
-7.4726919518
 20
-24.6068927681
 11
-7.4858594087
 21
-24.5937253112
  0
LINE
  5
284
100
AcDbEntity
  8
0
100
AcDbLine
 62
253
  6
CONTINUOUS
 10
-7.2727224127
 20
-24.4069232291
 11
-7.2858898696
 21
-24.3937557721
  0
LINE
  5
285
100
AcDbEntity
  8
0
100
AcDbLine
 62
7
  6
CONTINUOUS
 10
-8.5727224127
 20
-22.5068927681
 11
-8.5858898696
 21
-22.4937253112
  0
LINE
  5
286
100
AcDbEntity
  8
0
100
AcDbLine
 62
7
  6
CONTINUOUS
 10
-8.3052673478
 20
-21.5120061782
 11
-7.3278358229
 21
-22.4894377032
  0
LINE
  5
287
100
AcDbEntity
  8
0
100
AcDbLine
 62
7
  6
CONTINUOUS
 10
-7.9880489486
 20
20.8777806961
 11
-8.1376734775
 21
20.7281561671
  0
LINE
  5
288
100
AcDbEntity
  8
0
100
AcDbLine
 62
253
  6
CONTINUOUS
 10
-3.903345249
 20
23.7949912545
 11
-3.8226843365
 21
23.875652167
  0
LINE
  5
289
100
AcDbEntity
  8
0
100
AcDbLine
 62
253
  6
CONTINUOUS
 10
-3.6533833252
 20
23.5450293307
 11
-3.5727224127
 21
23.6256902432
  0
LINE
  5
28A
100
AcDbEntity
  8
0
100
AcDbLine
 62
7
  6
CONTINUOUS
 10
-9.5299110851
 20
-20.9426353785
 11
-8.1376734775
 21
-20.9419417033
  0
LINE
  5
28B
100
AcDbEntity
  8
0
100
AcDbLine
 62
7
  6
CONTINUOUS
 10
11.0534635089
 20
-20.5295424989
 11
11.0098225224
 21
-20.5295424989
  0
LINE
  5
28C
100
AcDbEntity
  8
0
100
AcDbLine
 62
7
  6
CONTINUOUS
 10
-11.1989083343
 20
-20.5295424989
 11
-11.1552673478
 21
-20.5295424989
  0
LINE
  5
28D
100
AcDbEntity
  8
0
100
AcDbLine
 62
7
  6
CONTINUOUS
 10
7.3119396284
 20
-20.3412091683
 11
-7.4573844538
 21
-20.3412091683
  0
LINE
  5
28E
100
AcDbEntity
  8
IMPORT_IGES
100
AcDbLine
 62
7
  6
CONTINUOUS
 10
5.9914829047
 20
-18.9210600085
 11
-8.1368896525
 21
-18.9210600085
  0
LINE
  5
28F
100
AcDbEntity
  8
IMPORT_IGES
100
AcDbLine
 62
7
  6
CONTINUOUS
 10
-8.1348747176
 20
-18.9188927681
 11
5.9894298921
 21
-18.9188927681
  0
LINE
  5
290
100
AcDbEntity
  8
IMPORT_IGES
100
AcDbLine
 62
253
  6
CONTINUOUS
 10
-8.1258425522
 20
-18.9098606027
 11
5.9803977268
 21
-18.9098606027
  0
LINE
  5
291
100
AcDbEntity
  8
0
100
AcDbLine
 62
7
  6
CONTINUOUS
 10
-7.0069782574
 20
-20.1881963351
 11
6.861533432
 21
-20.1881963351
  0
LINE
  5
292
100
AcDbEntity
  8
RACCORDO
100
AcDbLine
 62
253
  6
CONTINUOUS
 10
-7.9880489486
 20
-19.1069965372
 11
-7.1573958769
 21
-19.1069965372
  0
LINE
  5
293
100
AcDbEntity
  8
RACCORDO
100
AcDbLine
 62
253
  6
CONTINUOUS
 10
7.0119510514
 20
-19.1069965372
 11
7.8426041231
 21
-19.1069965372
  0
LINE
  5
294
100
AcDbEntity
  8
0
100
AcDbLine
 62
7
  6
CONTINUOUS
 10
7.9922286521
 20
-20.9419417033
 11
9.3844662596
 21
-20.9426353785
  0
LINE
  5
295
100
AcDbEntity
  8
0
100
AcDbLine
 62
7
  6
CONTINUOUS
 10
-8.1376734775
 20
-20.9419417033
 11
-7.9880489486
 21
-21.0915662322
  0
LINE
  5
296
100
AcDbEntity
  8
0
100
AcDbLine
 62
253
  6
CONTINUOUS
 10
-3.8226843365
 20
-24.0894377032
 11
-3.903345249
 21
-24.0087767907
  0
LINE
  5
297
100
AcDbEntity
  8
0
100
AcDbLine
 62
253
  6
CONTINUOUS
 10
-3.5727224127
 20
-23.8394757794
 11
-3.6533833252
 21
-23.7588148669
  0
LINE
  5
298
100
AcDbEntity
  8
0
100
AcDbLine
 62
7
  6
CONTINUOUS
 10
-3.5727224127
 20
22.275652167
 11
-3.6533833252
 21
22.1949912545
  0
LINE
  5
299
100
AcDbEntity
  8
0
100
AcDbLine
 62
253
  6
CONTINUOUS
 10
-1.1401394014
 20
23.875652167
 11
-1.1226843365
 21
23.8931072319
  0
LINE
  5
29A
100
AcDbEntity
  8
0
100
AcDbLine
 62
253
  6
CONTINUOUS
 10
-0.8901774776
 20
23.6256902432
 11
-0.8727224127
 21
23.6431453081
  0
LINE
  5
29B
100
AcDbEntity
  8
0
100
AcDbLine
 62
7
  6
CONTINUOUS
 10
-2.6227224127
 20
21.5931072319
 11
-2.6900256262
 21
21.5258040184
  0
LINE
  5
29C
100
AcDbEntity
  8
0
100
AcDbLine
 62
7
  6
CONTINUOUS
 10
9.3844662596
 20
20.7288498423
 11
9.5772775873
 21
20.7931072319
  0
LINE
  5
29D
100
AcDbEntity
  8
RACCORDO
100
AcDbLine
 62
253
  6
CONTINUOUS
 10
7.3107912077
 20
-18.6371502268
 11
7.5437639668
 21
-18.6371502268
  0
LINE
  5
29E
100
AcDbEntity
  8
IMPORT_IGES
100
AcDbLine
 62
253
  6
CONTINUOUS
 10
6.9802454219
 20
-17.9100129076
 11
-9.1256902474
 21
-17.9100129076
  0
LWPOLYLINE
  5
29F
100
AcDbEntity
  8
RACCORDO
100
AcDbPolyline
 62
253
  6
CONTINUOUS
 90
13
 70
0
 10
7.5437639668
 20
-18.6371502268
 10
7.5828465315
 20
-18.6396624609
 10
7.6212629178
 20
-18.6469371067
 10
7.6583583026
 20
-18.6588501646
 10
7.69350038
 20
-18.6751985719
 10
7.7260901388
 20
-18.6957036631
 10
7.7555720734
 20
-18.7200159206
 10
7.781443652
 20
-18.747720932
 10
7.8032638831
 20
-18.7783464539
 10
7.820660832
 20
-18.811370462
 10
7.8333379606
 20
-18.8462300484
 10
7.8410791819
 20
-18.8823310174
 10
7.8437525438
 20
-18.919058013
  0
LINE
  5
2A0
100
AcDbEntity
  8
0
100
AcDbLine
 62
7
  6
CONTINUOUS
 10
9.3844662596
 20
-20.9426353785
 11
9.5772775873
 21
-21.0068927681
  0
LINE
  5
2A1
100
AcDbEntity
  8
0
100
AcDbLine
 62
7
  6
CONTINUOUS
 10
-3.6533833252
 20
-22.4087767907
 11
-3.5727224127
 21
-22.4894377032
  0
LINE
  5
2A2
100
AcDbEntity
  8
0
100
AcDbLine
 62
253
  6
CONTINUOUS
 10
-1.1226843365
 20
-24.1068927681
 11
-1.1401394014
 21
-24.0894377032
  0
LINE
  5
2A3
100
AcDbEntity
  8
0
100
AcDbLine
 62
253
  6
CONTINUOUS
 10
-0.8727224127
 20
-23.8569308443
 11
-0.8901774776
 21
-23.8394757794
  0
LINE
  5
2A4
100
AcDbEntity
  8
0
100
AcDbLine
 62
7
  6
CONTINUOUS
 10
-2.6227224127
 20
-21.8068927681
 11
-2.6900256262
 21
-21.7395895546
  0
LWPOLYLINE
  5
2A5
100
AcDbEntity
  8
0
100
AcDbPolyline
 62
253
  6
CONTINUOUS
 90
11
 70
0
 10
-7.2858898696
 20
-24.3937557721
 10
-7.2859310226
 20
-24.3936761322
 10
-7.2859730495
 20
-24.3934587219
 10
-7.2860159502
 20
-24.3931035413
 10
-7.2860599838
 20
-24.3926172237
 10
-7.2861048913
 20
-24.3919931357
 10
-7.2861498957
 20
-24.3912113777
 10
-7.2861950214
 20
-24.3902668616
 10
-7.286240244
 20
-24.3891646754
 10
-7.2862847133
 20
-24.387900183
 10
-7.2863284199
 20
-24.3864678636
  0
LINE
  5
2A6
100
AcDbEntity
  8
IMPORT_IGES
100
AcDbLine
 62
7
  6
CONTINUOUS
 10
7.1276107242
 20
-14.8231513863
 11
7.1274328696
 21
-14.823173604
  0
LINE
  5
2A7
100
AcDbEntity
  8
IMPORT_IGES
100
AcDbLine
 62
7
  6
CONTINUOUS
 10
7.1365545498
 20
-16.3447677882
 11
6.9892775873
 21
-16.3447678171
  0
LINE
  5
2A8
100
AcDbEntity
  8
IMPORT_IGES
100
AcDbLine
 62
253
  6
CONTINUOUS
 10
-1.9446935545
 20
-16.2787496813
 11
0.3992487291
 21
-16.2787496813
  0
LINE
  5
2A9
100
AcDbEntity
  8
IMPORT_IGES
100
AcDbLine
 62
253
  6
CONTINUOUS
 10
0.3992487291
 20
-16.0287877575
 11
-1.9446935545
 21
-16.0287877575
  0
LINE
  5
2AA
100
AcDbEntity
  8
IMPORT_IGES
100
AcDbLine
 62
7
  6
CONTINUOUS
 10
0.3773537397
 20
-16.0068927681
 11
-1.9227985651
 21
-16.0068927681
  0
LINE
  5
2AB
100
AcDbEntity
  8
IMPORT_IGES
100
AcDbLine
 62
253
  6
CONTINUOUS
 10
1.1491345005
 20
-15.5288639099
 11
0.8991725767
 21
-15.5288639099
  0
LINE
  5
2AC
100
AcDbEntity
  8
IMPORT_IGES
100
AcDbLine
 62
253
  6
CONTINUOUS
 10
-2.4446174021
 20
-15.5288639099
 11
-2.6945793259
 21
-15.5288639099
  0
LINE
  5
2AD
100
AcDbEntity
  8
IMPORT_IGES
100
AcDbLine
 62
7
  6
CONTINUOUS
 10
7.1364614068
 20
-15.1216483176
 11
6.9892775873
 21
-15.1216483176
  0
LINE
  5
2AE
100
AcDbEntity
  8
IMPORT_IGES
100
AcDbLine
 62
7
  6
CONTINUOUS
 10
6.9892775873
 20
-14.8232381223
 11
7.1274328681
 21
-14.8232392377
  0
LWPOLYLINE
  5
2AF
100
AcDbEntity
  8
IMPORT_IGES
100
AcDbPolyline
 62
253
  6
CONTINUOUS
 90
25
 70
0
 10
-1.9446935545
 20
-16.2787496813
 10
-1.9940865024
 20
-16.2768395997
 10
-2.042852669
 20
-16.2718350343
 10
-2.0909920543
 20
-16.2637359851
 10
-2.1386926871
 20
-16.2524752181
 10
-2.1857665386
 20
-16.2381199673
 10
-2.2316495222
 20
-16.2208719344
 10
-2.2763572173
 20
-16.2007344395
 10
-2.3198740445
 20
-16.1777041626
 10
-2.3615891788
 20
-16.1519728449
 10
-2.4014691482
 20
-16.1234652328
 10
-2.4395474247
 20
-16.09225658
 10
-2.4753135996
 20
-16.0587643891
 10
-2.5087250632
 20
-16.0229552008
 10
-2.5398244251
 20
-15.9848624744
 10
-2.5682291056
 20
-15.9450040908
 10
-2.5938788465
 20
-15.9033599066
 10
-2.6168339059
 20
-15.8599500652
 10
-2.6368924792
 20
-15.8153528771
 10
-2.654040438
 20
-15.7695806748
 10
-2.6682919107
 20
-15.7226211258
 10
-2.6794874778
 20
-15.6750155435
 10
-2.6875739994
 20
-15.6269443657
 10
-2.6926046154
 20
-15.5782271544
 10
-2.6945793259
 20
-15.5288639099
  0
LWPOLYLINE
  5
2B0
100
AcDbEntity
  8
IMPORT_IGES
100
AcDbPolyline
 62
253
  6
CONTINUOUS
 90
16
 70
0
 10
-1.9446935545
 20
-16.0287877575
 10
-1.9969775317
 20
-16.0260302848
 10
-2.0486851112
 20
-16.0178205896
 10
-2.0992493848
 20
-16.0042496381
 10
-2.1481246299
 20
-15.98546337
 10
-2.1947660364
 20
-15.9616706503
 10
-2.2386399871
 20
-15.9331496443
 10
-2.2792504586
 20
-15.9002395201
 10
-2.3161838122
 20
-15.8632935135
 10
-2.3490764551
 20
-15.8226766827
 10
-2.3775769161
 20
-15.7788037813
 10
-2.4013479614
 20
-15.7321716806
 10
-2.4201134965
 20
-15.6833145532
 10
-2.4336668836
 20
-15.6327772597
 10
-2.4418644469
 20
-15.5811050359
 10
-2.4446174021
 20
-15.5288639099
  0
LINE
  5
2B1
100
AcDbEntity
  8
0
100
AcDbLine
 62
7
  6
CONTINUOUS
 10
-7.3739457554
 20
22.1182519497
 11
-7.3278358229
 21
22.275652167
  0
LINE
  5
2B2
100
AcDbEntity
  8
0
100
AcDbLine
 62
253
  6
CONTINUOUS
 10
-2.9513879711
 20
22.1182519497
 11
-2.8726938561
 21
22.275652167
  0
LINE
  5
2B3
100
AcDbEntity
  8
0
100
AcDbLine
 62
253
  6
CONTINUOUS
 10
4.0291996861
 20
23.7949912545
 11
4.1273156635
 21
23.8931072319
  0
LINE
  5
2B4
100
AcDbEntity
  8
0
100
AcDbLine
 62
253
  6
CONTINUOUS
 10
4.2791616099
 20
23.5450293307
 11
4.3772775873
 21
23.6431453081
  0
LINE
  5
2B5
100
AcDbEntity
  8
IMPORT_IGES
100
AcDbLine
 62
7
  6
CONTINUOUS
 10
-2.8489050101
 20
16.1669246345
 11
-2.8470376505
 21
16.1687919942
  0
LINE
  5
2B6
100
AcDbEntity
  8
0
100
AcDbLine
 62
7
  6
CONTINUOUS
 10
4.3772775873
 20
22.2931072319
 11
4.2791616099
 21
22.1949912545
  0
LINE
  5
2B7
100
AcDbEntity
  8
IMPORT_IGES
100
AcDbLine
 62
7
  6
CONTINUOUS
 10
-4.8489050101
 20
12.8669246345
 11
-4.8470376505
 21
12.8687919942
  0
LINE
  5
2B8
100
AcDbEntity
  8
IMPORT_IGES
100
AcDbLine
 62
7
  6
CONTINUOUS
 10
-5.5963890664
 20
13.9192898293
 11
-5.5982772695
 21
13.9174224697
  0
LINE
  5
2B9
100
AcDbEntity
  8
IMPORT_IGES
100
AcDbLine
 62
253
  6
CONTINUOUS
 10
-2.6945793259
 20
-14.1849216263
 11
-2.4446174021
 21
-14.1849216263
  0
LINE
  5
2BA
100
AcDbEntity
  8
IMPORT_IGES
100
AcDbLine
 62
253
  6
CONTINUOUS
 10
0.8991725767
 20
-14.1849216263
 11
1.1491345005
 21
-14.1849216263
  0
LINE
  5
2BB
100
AcDbEntity
  8
IMPORT_IGES
100
AcDbLine
 62
253
  6
CONTINUOUS
 10
7.1363797886
 20
-14.0498820531
 11
6.9892775873
 21
-14.049876452
  0
LINE
  5
2BC
100
AcDbEntity
  8
IMPORT_IGES
100
AcDbLine
 62
7
  6
CONTINUOUS
 10
-1.9227985651
 20
-13.7068927681
 11
0.3773537397
 21
-13.7068927681
  0
LINE
  5
2BD
100
AcDbEntity
  8
IMPORT_IGES
100
AcDbLine
 62
253
  6
CONTINUOUS
 10
-1.9446935545
 20
-13.6849977787
 11
0.3992487291
 21
-13.6849977787
  0
LINE
  5
2BE
100
AcDbEntity
  8
IMPORT_IGES
100
AcDbLine
 62
7
  6
CONTINUOUS
 10
7.1363347458
 20
-13.4583911588
 11
6.9892775873
 21
-13.4583994391
  0
LINE
  5
2BF
100
AcDbEntity
  8
IMPORT_IGES
100
AcDbLine
 62
253
  6
CONTINUOUS
 10
0.3992487291
 20
-13.4350358549
 11
-1.9446935545
 21
-13.4350358549
  0
LINE
  5
2C0
100
AcDbEntity
  8
IMPORT_IGES
100
AcDbLine
 62
253
  6
CONTINUOUS
 10
-1.9446935545
 20
-12.7787496813
 11
0.3992487291
 21
-12.7787496813
  0
LWPOLYLINE
  5
2C1
100
AcDbEntity
  8
IMPORT_IGES
100
AcDbPolyline
 62
253
  6
CONTINUOUS
 90
25
 70
0
 10
0.3992487291
 20
-13.4350358549
 10
0.4486416627
 20
-13.4369458529
 10
0.4974078206
 20
-13.4419503679
 10
0.5455472026
 20
-13.4500493999
 10
0.5932478393
 20
-13.4613101977
 10
0.6403217002
 20
-13.4756655125
 10
0.6862046936
 20
-13.4929135978
 10
0.7309123993
 20
-13.5130511176
 10
0.7744292375
 20
-13.536081408
 10
0.8161443769
 20
-13.5618127296
 10
0.8560243422
 20
-13.5903203326
 10
0.8941026088
 20
-13.621528967
 10
0.9298687703
 20
-13.6550211433
 10
0.9632802125
 20
-13.6908303262
 10
0.9943795497
 20
-13.7289230509
 10
1.0227842189
 20
-13.7687814347
 10
1.0484339721
 20
-13.8104256202
 10
1.0713890572
 20
-13.8538354647
 10
1.0914476547
 20
-13.8984326571
 10
1.1085956345
 20
-13.9442048669
 10
1.1228471266
 20
-13.9911644245
 10
1.1340427022
 20
-14.0387700112
 10
1.1421292182
 20
-14.0868411872
 10
1.1471598176
 20
-14.1355583923
 10
1.1491345005
 20
-14.1849216263
  0
LWPOLYLINE
  5
2C2
100
AcDbEntity
  8
IMPORT_IGES
100
AcDbPolyline
 62
253
  6
CONTINUOUS
 90
25
 70
0
 10
-1.9446935545
 20
-12.7787496813
 10
-1.994086486
 20
-12.776839696
 10
-2.0428526425
 20
-12.7718351887
 10
-2.090992024
 20
-12.7637361593
 10
-2.1386926613
 20
-12.7524753568
 10
-2.1857665237
 20
-12.7381200322
 10
-2.2316495186
 20
-12.720871939
 10
-2.2763572259
 20
-12.7007344153
 10
-2.3198740658
 20
-12.677704123
 10
-2.3615892059
 20
-12.6519728007
 10
-2.4014691706
 20
-12.6234651991
 10
-2.4395474356
 20
-12.5922565675
 10
-2.4753135951
 20
-12.5587643934
 10
-2.5087250341
 20
-12.5229552114
 10
-2.5398243676
 20
-12.4848624869
 10
-2.568229035
 20
-12.4450041031
 10
-2.5938787901
 20
-12.4033599174
 10
-2.6168338791
 20
-12.3599500724
 10
-2.6368924803
 20
-12.3153528793
 10
-2.6540404632
 20
-12.2695806685
 10
-2.6682919583
 20
-12.2226211095
 10
-2.6794875352
 20
-12.1750155221
 10
-2.6875740503
 20
-12.1269443464
 10
-2.6926046472
 20
-12.0782271423
 10
-2.6945793259
 20
-12.0288639099
  0
LWPOLYLINE
  5
2C3
100
AcDbEntity
  8
IMPORT_IGES
100
AcDbPolyline
 62
253
  6
CONTINUOUS
 90
16
 70
0
 10
0.3992487291
 20
-13.6849977787
 10
0.4515327219
 20
-13.687755253
 10
0.5032403143
 20
-13.6959649526
 10
0.5538045977
 20
-13.7095359106
 10
0.6026798493
 20
-13.7283221862
 10
0.6493212591
 20
-13.7521149137
 10
0.6931952101
 20
-13.7806359271
 10
0.7338056792
 20
-13.8135460576
 10
0.7707390283
 20
-13.8504920688
 10
0.8036316649
 20
-13.8911089018
 10
0.8321321184
 20
-13.9349818029
 10
0.8559031558
 20
-13.9816139002
 10
0.8746686834
 20
-14.030471021
 10
0.8882220641
 20
-14.0810083047
 10
0.8964196231
 20
-14.1326805158
 10
0.8991725767
 20
-14.1849216263
  0
LWPOLYLINE
  5
2C4
100
AcDbEntity
  8
IMPORT_IGES
100
AcDbPolyline
 62
253
  6
CONTINUOUS
 90
16
 70
0
 10
-1.9446935545
 20
-12.5287877575
 10
-1.9969775497
 20
-12.5260302829
 10
-2.0486851441
 20
-12.5178205826
 10
-2.099249429
 20
-12.5042496237
 10
-2.1481246816
 20
-12.485463347
 10
-2.1947660919
 20
-12.4616706182
 10
-2.2386400429
 20
-12.4331496037
 10
-2.2792505117
 20
-12.4002394722
 10
-2.3161838601
 20
-12.3632934604
 10
-2.3490764957
 20
-12.322676627
 10
-2.377576948
 20
-12.278803726
 10
-2.4013479843
 20
-12.2321716292
 10
-2.4201135108
 20
-12.1833145094
 10
-2.4336668905
 20
-12.1327772272
 10
-2.4418644488
 20
-12.081105018
 10
-2.4446174021
 20
-12.0288639099
  0
LINE
  5
2C5
100
AcDbEntity
  8
0
100
AcDbLine
 62
253
  6
CONTINUOUS
 10
4.1273156635
 20
-24.1068927681
 11
4.0291996861
 21
-24.0087767907
  0
LINE
  5
2C6
100
AcDbEntity
  8
0
100
AcDbLine
 62
253
  6
CONTINUOUS
 10
4.3772775873
 20
-23.8569308443
 11
4.2791616099
 21
-23.7588148669
  0
LINE
  5
2C7
100
AcDbEntity
  8
0
100
AcDbLine
 62
7
  6
CONTINUOUS
 10
4.3772775873
 20
-22.5068927681
 11
4.2791616099
 21
-22.4087767907
  0
LINE
  5
2C8
100
AcDbEntity
  8
0
100
AcDbLine
 62
253
  6
CONTINUOUS
 10
-2.8726938561
 20
-22.4894377032
 11
-2.9513879711
 21
-22.3320374859
  0
LINE
  5
2C9
100
AcDbEntity
  8
0
100
AcDbLine
 62
7
  6
CONTINUOUS
 10
-7.3739457554
 20
-22.3320374859
 11
-7.3278358229
 21
-22.4894377032
  0
LWPOLYLINE
  5
2CA
100
AcDbEntity
  8
0
100
AcDbPolyline
 62
253
  6
CONTINUOUS
 90
13
 70
0
 10
-10.6595549558
 20
-24.3937557721
 10
-10.6578369079
 20
-24.4198519627
 10
-10.6527280445
 20
-24.4455018213
 10
-10.6443157427
 20
-24.4702666422
 10
-10.6327438813
 20
-24.4937228559
 10
-10.6182103782
 20
-24.5154692757
 10
-10.6009638055
 20
-24.5351339589
 10
-10.5812991383
 20
-24.5523805663
 10
-10.5595527131
 20
-24.5669141139
 10
-10.5360964742
 20
-24.5784860204
 10
-10.5113316094
 20
-24.5868983614
 10
-10.4856816876
 20
-24.5920072527
 10
-10.4595854168
 20
-24.5937253112
  0
LINE
  5
2CB
100
AcDbEntity
  8
0
100
AcDbLine
 62
7
  6
CONTINUOUS
 10
-11.1727224127
 20
-21.1068927681
 11
-11.1989083343
 21
-20.5295424989
  0
LINE
  5
2CC
100
AcDbEntity
  8
0
100
AcDbLine
 62
253
  6
CONTINUOUS
 10
-10.4591629941
 20
-23.7347662448
 11
-10.4744374536
 21
-23.2295424989
  0
LINE
  5
2CD
100
AcDbEntity
  8
0
100
AcDbLine
 62
7
  6
CONTINUOUS
 10
-11.1552673478
 20
20.3157569627
 11
-11.1727224127
 21
20.8931072319
  0
LINE
  5
2CE
100
AcDbEntity
  8
0
100
AcDbLine
 62
253
  6
CONTINUOUS
 10
-10.6590475243
 20
-23.9112141189
 11
-10.6727224127
 21
-23.4584673763
  0
LINE
  5
2CF
100
AcDbEntity
  8
0
100
AcDbLine
 62
253
  6
CONTINUOUS
 10
-10.6589017586
 20
-23.9190812632
 11
-10.6590475243
 21
-23.9112141189
  0
LINE
  5
2D0
100
AcDbEntity
  8
0
100
AcDbLine
 62
253
  6
CONTINUOUS
 10
-10.6587903646
 20
-23.9288132457
 11
-10.6589017586
 21
-23.9190812632
  0
LINE
  5
2D1
100
AcDbEntity
  8
0
100
AcDbLine
 62
253
  6
CONTINUOUS
 10
-10.6587582393
 20
24.1483016293
 11
-10.6588533699
 21
24.158497422
  0
LINE
  5
2D2
100
AcDbEntity
  8
0
100
AcDbLine
 62
253
  6
CONTINUOUS
 10
-10.6587215708
 20
-23.9395973311
 11
-10.6587903646
 21
-23.9288132457
  0
LINE
  5
2D3
100
AcDbEntity
  8
0
100
AcDbLine
 62
253
  6
CONTINUOUS
 10
-10.6587017848
 20
24.1350743355
 11
-10.6587582393
 21
24.1483016293
  0
LINE
  5
2D4
100
AcDbEntity
  8
0
100
AcDbLine
 62
253
  6
CONTINUOUS
 10
-10.4587802367
 20
-23.865725723
 11
-10.4591640467
 21
-23.7347662572
  0
LINE
  5
2D5
100
AcDbEntity
  8
0
100
AcDbLine
 62
7
  6
CONTINUOUS
 10
-11.1989083343
 20
-20.5295424989
 11
-11.1989083343
 21
20.3157569627
  0
LINE
  5
2D6
100
AcDbEntity
  8
0
100
AcDbLine
 62
7
  6
CONTINUOUS
 10
-11.1727224127
 20
21.7931833843
 11
-11.1727224127
 21
20.8931072319
  0
LINE
  5
2D7
100
AcDbEntity
  8
0
100
AcDbLine
 62
7
  6
CONTINUOUS
 10
-11.1727224127
 20
-22.0069689205
 11
-11.1727224127
 21
-21.1068927681
  0
LINE
  5
2D8
100
AcDbEntity
  8
0
100
AcDbLine
 62
7
  6
CONTINUOUS
 10
-11.1552673478
 20
-21.9895138556
 11
-11.1552673478
 21
-20.5295424989
  0
LINE
  5
2D9
100
AcDbEntity
  8
0
100
AcDbLine
 62
7
  6
CONTINUOUS
 10
-11.1552673478
 20
20.3157569627
 11
-11.1552673478
 21
21.7757283194
  0
LINE
  5
2DA
100
AcDbEntity
  8
0
100
AcDbLine
 62
7
  6
CONTINUOUS
 10
-10.6727224127
 20
-24.4069232291
 11
-10.6727224127
 21
-22.5068925039
  0
LINE
  5
2DB
100
AcDbEntity
  8
0
100
AcDbLine
 62
7
  6
CONTINUOUS
 10
-10.6727224773
 20
22.2931071616
 11
-10.6727224127
 21
24.1931376929
  0
LINE
  5
2DC
100
AcDbEntity
  8
0
100
AcDbLine
 62
253
  6
CONTINUOUS
 10
-10.6586990031
 20
-24.3467379284
 11
-10.6587215708
 21
-23.9395973311
  0
LINE
  5
2DD
100
AcDbEntity
  8
0
100
AcDbLine
 62
253
  6
CONTINUOUS
 10
-10.6587039494
 20
23.7315212262
 11
-10.6587017848
 21
24.1350743355
  0
LINE
  5
2DE
100
AcDbEntity
  8
0
100
AcDbLine
 62
253
  6
CONTINUOUS
 10
-10.458973924
 20
-24.5177427954
 11
-10.4587802367
 21
-23.865725723
  0
LINE
  5
2DF
100
AcDbEntity
  8
0
100
AcDbLine
 62
253
  6
CONTINUOUS
 10
-10.6587499903
 20
23.7203555789
 11
-10.6587039494
 21
23.7315212262
  0
LWPOLYLINE
  5
2E0
100
AcDbEntity
  8
0
100
AcDbPolyline
 62
253
  6
CONTINUOUS
 90
3
 70
0
 10
-10.4591643237
 20
23.5209286434
 10
-10.4590785834
 20
23.5369073858
 10
-10.4589824902
 20
24.3064457531
  0
LINE
  5
2E1
100
AcDbEntity
  8
0
100
AcDbLine
 62
253
  6
CONTINUOUS
 10
-10.6587519719
 20
-24.361160875
 11
-10.6586990031
 21
-24.3467379284
  0
LINE
  5
2E2
100
AcDbEntity
  8
0
100
AcDbLine
 62
253
  6
CONTINUOUS
 10
-10.6588414069
 20
23.7099628263
 11
-10.6587499903
 21
23.7203555789
  0
LINE
  5
2E3
100
AcDbEntity
  8
0
100
AcDbLine
 62
253
  6
CONTINUOUS
 10
-10.658846091
 20
-24.3716742476
 11
-10.6587519719
 21
-24.361160875
  0
LWPOLYLINE
  5
2E4
100
AcDbEntity
  8
0
100
AcDbPolyline
 62
253
  6
CONTINUOUS
 90
3
 70
0
 10
-10.6590474391
 20
23.6974351491
 10
-10.658970028
 20
23.7011575911
 10
-10.6588414069
 20
23.7099628263
  0
LINE
  5
2E5
100
AcDbEntity
  8
0
100
AcDbLine
 62
253
  6
CONTINUOUS
 10
-10.6727224127
 20
23.2446818401
 11
-10.6590474391
 21
23.6974351491
  0
LINE
  5
2E6
100
AcDbEntity
  8
0
100
AcDbLine
 62
253
  6
CONTINUOUS
 10
-10.4744374536
 20
23.0157569627
 11
-10.4591645682
 21
23.5209286427
  0
LINE
  5
2E7
100
AcDbEntity
  8
0
100
AcDbLine
 62
7
  6
CONTINUOUS
 10
-11.1727224127
 20
-21.1068927681
 11
-11.1552673478
 21
-20.5295424989
  0
LINE
  5
2E8
100
AcDbEntity
  8
0
100
AcDbLine
 62
7
  6
CONTINUOUS
 10
-11.1989083343
 20
20.3157569627
 11
-11.1727224127
 21
20.8931072319
  0
LWPOLYLINE
  5
2E9
100
AcDbEntity
  8
0
100
AcDbPolyline
 62
253
  6
CONTINUOUS
 90
13
 70
0
 10
-10.6595549558
 20
24.179970236
 10
-10.6578369026
 20
24.2060664674
 10
-10.6527280249
 20
24.231716358
 10
-10.6443157034
 20
24.2564812009
 10
-10.6327438193
 20
24.279937427
 10
-10.6182102943
 20
24.301683849
 10
-10.6009637045
 20
24.3213485237
 10
-10.5812990298
 20
24.3385951135
 10
-10.5595526078
 20
24.3531286385
 10
-10.5360963817
 20
24.3647005226
 10
-10.5113315388
 20
24.3731128441
 10
-10.4856816482
 20
24.3782217218
 10
-10.4595854168
 20
24.379939775
  0
LINE
  5
2EA
100
AcDbEntity
  8
0
100
AcDbLine
 62
253
  6
CONTINUOUS
 10
-2.7013974903
 20
21.868290026
 11
-2.6227224127
 21
22.0256521655
  0
LWPOLYLINE
  5
2EB
100
AcDbEntity
  8
IMPORT_IGES
100
AcDbPolyline
 62
7
  6
CONTINUOUS
 90
10
 70
0
 10
-5.5982772695
 20
13.9174224697
 10
-5.598547373
 20
13.9168872721
 10
-5.598818771
 20
13.9158006632
 10
-5.5990914636
 20
13.9141637816
 10
-5.5993680204
 20
13.9119756643
 10
-5.5996458718
 20
13.9092405692
 10
-5.5999173087
 20
13.9059743051
 10
-5.6001797614
 20
13.9021913961
 10
-5.6004357998
 20
13.8978987192
 10
-5.6006854236
 20
13.8931072348
  0
LINE
  5
2EC
100
AcDbEntity
  8
IMPORT_IGES
100
AcDbLine
 62
7
  6
CONTINUOUS
 10
-1.2965398153
 20
15.4192898293
 11
-1.298407175
 21
15.4174224697
  0
LINE
  5
2ED
100
AcDbEntity
  8
0
100
AcDbLine
 62
7
  6
CONTINUOUS
 10
7.1284427241
 20
-12.274766496
 11
7.1582163382
 21
-12.2737318332
  0
LINE
  5
2EE
100
AcDbEntity
  8
IMPORT_IGES
100
AcDbLine
 62
7
  6
CONTINUOUS
 10
7.136004868
 20
-11.2392985444
 11
6.9892775873
 21
-11.2396373659
  0
LINE
  5
2EF
100
AcDbEntity
  8
IMPORT_IGES
100
AcDbLine
 62
253
  6
CONTINUOUS
 10
0.3992487291
 20
-12.5287877575
 11
-1.9446935545
 21
-12.5287877575
  0
LINE
  5
2F0
100
AcDbEntity
  8
IMPORT_IGES
100
AcDbLine
 62
7
  6
CONTINUOUS
 10
0.3773537397
 20
-12.5068927681
 11
-1.9227985651
 21
-12.5068927681
  0
LINE
  5
2F1
100
AcDbEntity
  8
IMPORT_IGES
100
AcDbLine
 62
7
  6
CONTINUOUS
 10
7.1287009496
 20
-12.3730635035
 11
6.9892775873
 21
-12.3730663129
  0
LINE
  5
2F2
100
AcDbEntity
  8
IMPORT_IGES
100
AcDbLine
 62
253
  6
CONTINUOUS
 10
1.1491345005
 20
-12.0288639099
 11
0.8991725767
 21
-12.0288639099
  0
LINE
  5
2F3
100
AcDbEntity
  8
IMPORT_IGES
100
AcDbLine
 62
253
  6
CONTINUOUS
 10
-2.4446174021
 20
-12.0288639099
 11
-2.6945793259
 21
-12.0288639099
  0
LINE
  5
2F4
100
AcDbEntity
  8
IMPORT_IGES
100
AcDbLine
 62
7
  6
CONTINUOUS
 10
7.1360261572
 20
-11.5188665059
 11
6.9892775873
 21
-11.5188666091
  0
LINE
  5
2F5
100
AcDbEntity
  8
IMPORT_IGES
100
AcDbLine
 62
253
  6
CONTINUOUS
 10
-2.6945793259
 20
-10.6849216263
 11
-2.4446174021
 21
-10.6849216263
  0
LINE
  5
2F6
100
AcDbEntity
  8
IMPORT_IGES
100
AcDbLine
 62
253
  6
CONTINUOUS
 10
0.8991725767
 20
-10.6849216263
 11
1.1491345005
 21
-10.6849216263
  0
LINE
  5
2F7
100
AcDbEntity
  8
IMPORT_IGES
100
AcDbLine
 62
7
  6
CONTINUOUS
 10
7.1286364638
 20
-11.5262561999
 11
6.9892775873
 21
-11.5258781282
  0
LINE
  5
2F8
100
AcDbEntity
  8
0
100
AcDbLine
 62
7
  6
CONTINUOUS
 10
7.1582163382
 20
-12.2737318332
 11
7.6960643791
 21
-12.2851785859
  0
LWPOLYLINE
  5
2F9
100
AcDbEntity
  8
0
100
AcDbPolyline
 62
7
  6
CONTINUOUS
 90
16
 70
0
 10
7.6960643791
 20
-12.2851785859
 10
7.7262222316
 20
-12.2874988749
 10
7.7562114292
 20
-12.2930845791
 10
7.7857175635
 20
-12.3019328728
 10
7.8144233786
 20
-12.3140303854
 10
7.8420126107
 20
-12.329291747
 10
7.8681737446
 20
-12.3475589276
 10
7.8926045603
 20
-12.3687175081
 10
7.9150111061
 20
-12.3925927102
 10
7.9351140768
 20
-12.4188871617
 10
7.9526293283
 20
-12.4473357806
 10
7.9673652599
 20
-12.4777272585
 10
7.9791728833
 20
-12.5098249345
 10
7.9878409083
 20
-12.5433599971
 10
7.9931507199
 20
-12.5780084669
 10
7.9949418066
 20
-12.6134289233
  0
LWPOLYLINE
  5
2FA
100
AcDbEntity
  8
0
100
AcDbPolyline
 62
7
  6
CONTINUOUS
 90
10
 70
0
 10
8.473900617
 20
-23.7347239844
 10
8.4932134838
 20
-23.7530166669
 10
8.5139362709
 20
-23.7739583268
 10
8.5360689783
 20
-23.7968923457
 10
8.5599103681
 20
-23.8210305198
 10
8.5851616782
 20
-23.8459582292
 10
8.6109266219
 20
-23.8717499893
 10
8.636906437
 20
-23.8982214005
 10
8.6633998857
 20
-23.9248266308
 10
8.690406968
 20
-23.9512303354
  0
LINE
  5
2FB
100
AcDbEntity
  8
IMPORT_IGES
100
AcDbLine
 62
253
  6
CONTINUOUS
 10
-2.4227224127
 20
-14.2068166157
 11
-2.4446174021
 21
-14.1849216263
  0
LINE
  5
2FC
100
AcDbEntity
  8
IMPORT_IGES
100
AcDbLine
 62
253
  6
CONTINUOUS
 10
-1.9446935545
 20
-13.6849977787
 11
-1.9227985651
 21
-13.7068927681
  0
LINE
  5
2FD
100
AcDbEntity
  8
IMPORT_IGES
100
AcDbLine
 62
253
  6
CONTINUOUS
 10
0.3992487291
 20
-16.0287877575
 11
0.3773537397
 21
-16.0068927681
  0
LINE
  5
2FE
100
AcDbEntity
  8
0
100
AcDbLine
 62
253
  6
CONTINUOUS
 10
-2.6227224127
 20
-22.2394377017
 11
-2.7013974903
 21
-22.0820755621
  0
LWPOLYLINE
  5
2FF
100
AcDbEntity
  8
0
100
AcDbPolyline
 62
253
  6
CONTINUOUS
 90
4
 70
0
 10
-7.4858594087
 20
-24.5937253112
 10
-7.4859005624
 20
-24.5932452583
 10
-7.4859425886
 20
-24.5921750288
 10
-7.4859854871
 20
-24.5904646971
  0
LWPOLYLINE
  5
300
100
AcDbEntity
  8
0
100
AcDbPolyline
 62
253
  6
CONTINUOUS
 90
13
 70
0
 10
-10.6591338108
 20
23.694143529
 10
-10.6572154445
 20
23.671659698
 10
-10.6519458434
 20
23.6495563275
 10
-10.6434141806
 20
23.6282074289
 10
-10.6317648255
 20
23.6079742457
 10
-10.6171949025
 20
23.5891991425
 10
-10.599950956
 20
23.572199812
 10
-10.5803247778
 20
23.5572638969
 10
-10.5586484641
 20
23.5446441209
 10
-10.5352887967
 20
23.5345540163
 10
-10.5106410427
 20
23.5271643129
 10
-10.4851222674
 20
23.5226000478
 10
-10.4591642718
 20
23.5209384483
  0
LWPOLYLINE
  5
301
100
AcDbEntity
  8
IMPORT_IGES
100
AcDbPolyline
 62
253
  6
CONTINUOUS
 90
19
 70
0
 10
-9.1256902474
 20
-17.9100129076
 10
-9.1218604622
 20
-17.9971385256
 10
-9.1104533169
 20
-18.083601322
 10
-9.091555593
 20
-18.1687435178
 10
-9.065311058
 20
-18.2519173804
 10
-9.0319193712
 20
-18.332490152
 10
-8.9916345651
 20
-18.4098488626
 10
-8.9447631124
 20
-18.483404994
 10
-8.8916615951
 20
-18.5525989565
 10
-8.832733991
 20
-18.6169043464
 10
-8.7684286011
 20
-18.6758319504
 10
-8.6992346386
 20
-18.7289334678
 10
-8.6256785072
 20
-18.7758049204
 10
-8.5483197966
 20
-18.8160897266
 10
-8.467747025
 20
-18.8494814134
 10
-8.3845731624
 20
-18.8757259484
 10
-8.2994309667
 20
-18.8946236722
 10
-8.2129681702
 20
-18.9060308175
 10
-8.1258425522
 20
-18.9098606027
  0
LWPOLYLINE
  5
302
100
AcDbEntity
  8
0
100
AcDbPolyline
 62
253
  6
CONTINUOUS
 90
10
 70
0
 10
-10.6591135867
 20
24.1725890174
 10
-10.6591583687
 20
24.1740600602
 10
-10.6592047676
 20
24.1753828723
 10
-10.6592522831
 20
24.1765427001
 10
-10.6593009287
 20
24.1775375612
 10
-10.6593506908
 20
24.178369438
 10
-10.6594010286
 20
24.1790295245
 10
-10.6594517619
 20
24.1795148853
 10
-10.659503071
 20
24.1798284558
 10
-10.6595549558
 20
24.179970236
  0
LINE
  5
303
100
AcDbEntity
  8
0
100
AcDbLine
 62
7
  6
CONTINUOUS
 10
-9.3595549558
 20
-23.6650742387
 11
-9.3727224127
 21
-23.2295424989
  0
LINE
  5
304
100
AcDbEntity
  8
0
100
AcDbLine
 62
253
  6
CONTINUOUS
 10
-10.6589894426
 20
24.1673012576
 11
-10.659070443
 21
24.170968056
  0
LWPOLYLINE
  5
305
100
AcDbEntity
  8
0
100
AcDbPolyline
 62
253
  6
CONTINUOUS
 90
4
 70
0
 10
-10.4594313744
 20
24.3752373788
 10
-10.4594821266
 20
24.3776751271
 10
-10.4595334741
 20
24.3792441405
 10
-10.4595854168
 20
24.379939775
  0
LINE
  5
306
100
AcDbEntity
  8
RACCORDO
100
AcDbLine
 62
253
  6
CONTINUOUS
 10
-7.9889391369
 20
-18.9326512077
 11
-7.9891549686
 21
-18.9210600085
  0
LWPOLYLINE
  5
307
100
AcDbEntity
  8
0
100
AcDbPolyline
 62
253
  6
CONTINUOUS
 90
3
 70
0
 10
-10.6588533699
 20
24.158497422
 10
-10.6588837758
 20
24.1608577712
 10
-10.6589894426
 20
24.1673012576
  0
LINE
  5
308
100
AcDbEntity
  8
0
100
AcDbLine
 62
253
  6
CONTINUOUS
 10
-10.4593313115
 20
24.3677883121
 11
-10.4594313744
 21
24.3752373788
  0
LINE
  5
309
100
AcDbEntity
  8
0
100
AcDbLine
 62
253
  6
CONTINUOUS
 10
-10.4591440103
 20
24.3430365892
 11
-10.4593313115
 21
24.3677883121
  0
LINE
  5
30A
100
AcDbEntity
  8
0
100
AcDbLine
 62
253
  6
CONTINUOUS
 10
-10.4589824902
 20
24.3064457531
 11
-10.4591440103
 21
24.3430365892
  0
LINE
  5
30B
100
AcDbEntity
  8
0
100
AcDbLine
 62
7
  6
CONTINUOUS
 10
-9.5299110851
 20
20.7288498423
 11
-9.5231503025
 21
13.7859210024
  0
LINE
  5
30C
100
AcDbEntity
  8
0
100
AcDbLine
 62
7
  6
CONTINUOUS
 10
-9.5231503025
 20
13.7859210024
 11
-9.5190938619
 21
6.8404813077
  0
LINE
  5
30D
100
AcDbEntity
  8
0
100
AcDbLine
 62
7
  6
CONTINUOUS
 10
-9.7227224127
 20
-21.0068927681
 11
-9.7227224127
 21
20.7931072319
  0
LINE
  5
30E
100
AcDbEntity
  8
0
100
AcDbLine
 62
7
  6
CONTINUOUS
 10
-9.5190938619
 20
6.8404813077
 11
-9.5177417445
 21
-0.10689067
  0
LINE
  5
30F
100
AcDbEntity
  8
0
100
AcDbLine
 62
7
  6
CONTINUOUS
 10
-9.3727224127
 20
-23.2295424989
 11
-9.3727224127
 21
-22.5068927681
  0
LINE
  5
310
100
AcDbEntity
  8
0
100
AcDbLine
 62
7
  6
CONTINUOUS
 10
-9.3727224127
 20
22.2931072319
 11
-9.3727224127
 21
23.0157569627
  0
LINE
  5
311
100
AcDbEntity
  8
0
100
AcDbLine
 62
253
  6
CONTINUOUS
 10
-9.3595549558
 20
-23.6650742387
 11
-9.3595549558
 21
-22.4937253112
  0
LINE
  5
312
100
AcDbEntity
  8
0
100
AcDbLine
 62
253
  6
CONTINUOUS
 10
-9.3595549558
 20
22.279939775
 11
-9.3595549558
 21
23.4512887025
  0
LINE
  5
313
100
AcDbEntity
  8
IMPORT_IGES
100
AcDbLine
 62
7
  6
CONTINUOUS
 10
-9.1368896532
 20
-17.9210980855
 11
-9.1368896532
 21
17.7072744717
  0
LINE
  5
314
100
AcDbEntity
  8
IMPORT_IGES
100
AcDbLine
 62
7
  6
CONTINUOUS
 10
-9.1347224127
 20
17.7052595368
 11
-9.1347224127
 21
-17.9190450729
  0
LINE
  5
315
100
AcDbEntity
  8
IMPORT_IGES
100
AcDbLine
 62
253
  6
CONTINUOUS
 10
-9.1256902474
 20
17.6962273714
 11
-9.1256902474
 21
-17.9100129076
  0
LINE
  5
316
100
AcDbEntity
  8
0
100
AcDbLine
 62
253
  6
CONTINUOUS
 10
-9.109593032
 20
-23.9512303354
 11
-9.109593032
 21
-22.4894377032
  0
LINE
  5
317
100
AcDbEntity
  8
0
100
AcDbLine
 62
253
  6
CONTINUOUS
 10
-9.109593032
 20
22.275652167
 11
-9.109593032
 21
23.7374447992
  0
LINE
  5
318
100
AcDbEntity
  8
0
100
AcDbLine
 62
253
  6
CONTINUOUS
 10
-8.8358517934
 20
-23.9512303354
 11
-8.8358517934
 21
-22.4894377032
  0
LINE
  5
319
100
AcDbEntity
  8
0
100
AcDbLine
 62
253
  6
CONTINUOUS
 10
-8.8358517934
 20
22.275652167
 11
-8.8358517934
 21
23.7374447992
  0
LINE
  5
31A
100
AcDbEntity
  8
0
100
AcDbLine
 62
253
  6
CONTINUOUS
 10
-8.5858898696
 20
-23.6650742387
 11
-8.5858898696
 21
-22.4937253112
  0
LINE
  5
31B
100
AcDbEntity
  8
0
100
AcDbLine
 62
253
  6
CONTINUOUS
 10
-8.5858898696
 20
22.279939775
 11
-8.5858898696
 21
23.4512887025
  0
LINE
  5
31C
100
AcDbEntity
  8
0
100
AcDbLine
 62
7
  6
CONTINUOUS
 10
-8.5727224127
 20
-23.2295424989
 11
-8.5727224127
 21
-22.5068927681
  0
LINE
  5
31D
100
AcDbEntity
  8
0
100
AcDbLine
 62
7
  6
CONTINUOUS
 10
-8.5727224127
 20
22.2931072319
 11
-8.5727224127
 21
23.0157569627
  0
LINE
  5
31E
100
AcDbEntity
  8
0
100
AcDbLine
 62
7
  6
CONTINUOUS
 10
-8.3052673478
 20
21.2982206421
 11
-8.3052673478
 21
20.7931072319
  0
LINE
  5
31F
100
AcDbEntity
  8
0
100
AcDbLine
 62
7
  6
CONTINUOUS
 10
-8.3052673478
 20
-21.5120061782
 11
-8.3052673478
 21
-21.0068927681
  0
LINE
  5
320
100
AcDbEntity
  8
0
100
AcDbLine
 62
7
  6
CONTINUOUS
 10
-9.5177417445
 20
-0.10689067
 11
-9.5190938638
 21
-7.0542685199
  0
LINE
  5
321
100
AcDbEntity
  8
0
100
AcDbLine
 62
7
  6
CONTINUOUS
 10
-9.5190938638
 20
-7.0542685199
 11
-9.5231503047
 21
-13.9997106946
  0
LINE
  5
322
100
AcDbEntity
  8
0
100
AcDbLine
 62
7
  6
CONTINUOUS
 10
-9.5231503047
 20
-13.9997106946
 11
-9.5299110851
 21
-20.9426353785
  0
LINE
  5
323
100
AcDbEntity
  8
0
100
AcDbLine
 62
253
  6
CONTINUOUS
 10
-10.4592666863
 20
-24.5747284436
 11
-10.458973924
 21
-24.5177427954
  0
LINE
  5
324
100
AcDbEntity
  8
0
100
AcDbLine
 62
253
  6
CONTINUOUS
 10
-10.4593588636
 20
-24.5839849254
 11
-10.4592666863
 21
-24.5747284436
  0
LINE
  5
325
100
AcDbEntity
  8
0
100
AcDbLine
 62
253
  6
CONTINUOUS
 10
-10.658943432
 20
-24.3785563339
 11
-10.658846091
 21
-24.3716742476
  0
LINE
  5
326
100
AcDbEntity
  8
RACCORDO
100
AcDbLine
 62
253
  6
CONTINUOUS
 10
-7.9889400889
 20
18.718792055
 11
-7.9891548495
 21
18.7072744724
  0
LWPOLYLINE
  5
327
100
AcDbEntity
  8
0
100
AcDbPolyline
 62
253
  6
CONTINUOUS
 90
3
 70
0
 10
-10.6590599465
 20
-24.3843260274
 10
-10.6590192834
 20
-24.3825431736
 10
-10.658943432
 20
-24.3785563339
  0
LINE
  5
328
100
AcDbEntity
  8
0
100
AcDbLine
 62
7
  6
CONTINUOUS
 10
-9.3727224127
 20
23.0157569627
 11
-9.3595549558
 21
23.4512887025
  0
LWPOLYLINE
  5
329
100
AcDbEntity
  8
IMPORT_IGES
100
AcDbPolyline
 62
253
  6
CONTINUOUS
 90
19
 70
0
 10
-9.1256902474
 20
17.6962273714
 10
-9.1218604622
 20
17.7833529894
 10
-9.1104533169
 20
17.8698157859
 10
-9.091555593
 20
17.9549579816
 10
-9.065311058
 20
18.0381318442
 10
-9.0319193712
 20
18.1187046158
 10
-8.9916345651
 20
18.1960633264
 10
-8.9447631124
 20
18.2696194578
 10
-8.8916615951
 20
18.3388134203
 10
-8.832733991
 20
18.4031188102
 10
-8.7684286011
 20
18.4620464143
 10
-8.6992346386
 20
18.5151479316
 10
-8.6256785072
 20
18.5620193843
 10
-8.5483197966
 20
18.6023041904
 10
-8.467747025
 20
18.6356958772
 10
-8.3845731624
 20
18.6619404122
 10
-8.2994309667
 20
18.6808381361
 10
-8.2129681702
 20
18.6922452814
 10
-8.1258425522
 20
18.6960750666
  0
LWPOLYLINE
  5
32A
100
AcDbEntity
  8
0
100
AcDbPolyline
 62
253
  6
CONTINUOUS
 90
5
 70
0
 10
-10.4595854168
 20
-24.5937253112
 10
-10.4595412281
 20
-24.5931883264
 10
-10.4594965302
 20
-24.5919856123
 10
-10.459451323
 20
-24.5900780658
 10
-10.4593588636
 20
-24.5839849254
  0
LWPOLYLINE
  5
32B
100
AcDbEntity
  8
0
100
AcDbPolyline
 62
253
  6
CONTINUOUS
 90
13
 70
0
 10
-10.6591338108
 20
-23.9079290652
 10
-10.6572154565
 20
-23.8854452914
 10
-10.6519458848
 20
-23.8633419649
 10
-10.643414262
 20
-23.8419930953
 10
-10.6317649513
 20
-23.8217599262
 10
-10.6171950704
 20
-23.8029848222
 10
-10.5999511557
 20
-23.7859854763
 10
-10.5803249909
 20
-23.7710495339
 10
-10.5586486697
 20
-23.7584297255
 10
-10.5352889763
 20
-23.7483395899
 10
-10.5106411794
 20
-23.7409498618
 10
-10.4851223434
 20
-23.7363855826
 10
-10.4591642718
 20
-23.7347239844
  0
LWPOLYLINE
  5
32C
100
AcDbEntity
  8
0
100
AcDbPolyline
 62
7
  6
CONTINUOUS
 90
10
 70
0
 10
8.473900617
 20
23.5209384483
 10
8.4921932995
 20
23.5402513151
 10
8.5131349594
 20
23.5609741021
 10
8.5360689783
 20
23.5831068095
 10
8.5602071524
 20
23.6069481993
 10
8.5851348618
 20
23.6321995095
 10
8.6109266219
 20
23.6579644532
 10
8.6373980331
 20
23.6839442683
 10
8.6640032634
 20
23.7104377169
 10
8.690406968
 20
23.7374447992
  0
LINE
  5
32D
100
AcDbEntity
  8
IMPORT_IGES
100
AcDbLine
 62
7
  6
CONTINUOUS
 10
0.7032355789
 20
13.9192898293
 11
0.7013988794
 21
13.9174224697
  0
LINE
  5
32E
100
AcDbEntity
  8
0
100
AcDbLine
 62
253
  6
CONTINUOUS
 10
10.5272775873
 20
22.2931072318
 11
10.5098986748
 21
22.275652167
  0
LINE
  5
32F
100
AcDbEntity
  8
0
100
AcDbLine
 62
253
  6
CONTINUOUS
 10
10.3273080482
 20
24.3931072319
 11
10.3141405913
 21
24.379939775
  0
LINE
  5
330
100
AcDbEntity
  8
0
100
AcDbLine
 62
253
  6
CONTINUOUS
 10
10.5272775873
 20
24.1931376929
 11
10.5141101304
 21
24.179970236
  0
LINE
  5
331
100
AcDbEntity
  8
0
100
AcDbLine
 62
7
  6
CONTINUOUS
 10
7.0119510514
 20
20.1248284184
 11
6.861533432
 21
19.9744107989
  0
LINE
  5
332
100
AcDbEntity
  8
0
100
AcDbLine
 62
7
  6
CONTINUOUS
 10
9.2272775873
 20
22.2931072319
 11
9.2141101304
 21
22.279939775
  0
LINE
  5
333
100
AcDbEntity
  8
IMPORT_IGES
100
AcDbLine
 62
253
  6
CONTINUOUS
 10
5.9803977268
 20
18.6960750666
 11
5.9894298921
 21
18.7051072319
  0
LINE
  5
334
100
AcDbEntity
  8
IMPORT_IGES
100
AcDbLine
 62
7
  6
CONTINUOUS
 10
7.1285506876
 20
-10.3998809349
 11
6.9892775873
 21
-10.399892162
  0
LINE
  5
335
100
AcDbEntity
  8
IMPORT_IGES
100
AcDbLine
 62
7
  6
CONTINUOUS
 10
-1.9227985651
 20
-10.2068927681
 11
0.3773537397
 21
-10.2068927681
  0
LINE
  5
336
100
AcDbEntity
  8
IMPORT_IGES
100
AcDbLine
 62
253
  6
CONTINUOUS
 10
-1.9446935545
 20
-10.1849977787
 11
0.3992487291
 21
-10.1849977787
  0
LINE
  5
337
100
AcDbEntity
  8
IMPORT_IGES
100
AcDbLine
 62
253
  6
CONTINUOUS
 10
0.3992487291
 20
-9.9350358549
 11
-1.9446935545
 21
-9.9350358549
  0
LINE
  5
338
100
AcDbEntity
  8
IMPORT_IGES
100
AcDbLine
 62
253
  6
CONTINUOUS
 10
-1.9446935545
 20
-9.2787496813
 11
0.3992487291
 21
-9.2787496813
  0
LINE
  5
339
100
AcDbEntity
  8
IMPORT_IGES
100
AcDbLine
 62
253
  6
CONTINUOUS
 10
0.3992487291
 20
-9.0287877575
 11
-1.9446935545
 21
-9.0287877575
  0
LINE
  5
33A
100
AcDbEntity
  8
IMPORT_IGES
100
AcDbLine
 62
7
  6
CONTINUOUS
 10
0.3773537397
 20
-9.0068927681
 11
-1.9227985651
 21
-9.0068927681
  0
LINE
  5
33B
100
AcDbEntity
  8
0
100
AcDbLine
 62
253
  6
CONTINUOUS
 10
-2.09454339
 20
-8.7068927681
 11
-1.9945471977
 21
-8.7068927681
  0
LINE
  5
33C
100
AcDbEntity
  8
0
100
AcDbLine
 62
253
  6
CONTINUOUS
 10
-1.8227224127
 20
-8.7068927681
 11
-1.9881349344
 21
-8.7068927681
  0
LINE
  5
33D
100
AcDbEntity
  8
IMPORT_IGES
100
AcDbLine
 62
253
  6
CONTINUOUS
 10
1.1491345005
 20
-8.5288639099
 11
0.8991725767
 21
-8.5288639099
  0
LINE
  5
33E
100
AcDbEntity
  8
IMPORT_IGES
100
AcDbLine
 62
253
  6
CONTINUOUS
 10
-2.4446174021
 20
-8.5288639099
 11
-2.6945793259
 21
-8.5288639099
  0
LINE
  5
33F
100
AcDbEntity
  8
IMPORT_IGES
100
AcDbLine
 62
7
  6
CONTINUOUS
 10
7.128545597
 20
-8.3596255876
 11
6.9892775873
 21
-8.3596287229
  0
LWPOLYLINE
  5
340
100
AcDbEntity
  8
IMPORT_IGES
100
AcDbPolyline
 62
253
  6
CONTINUOUS
 90
25
 70
0
 10
0.3992487291
 20
-9.9350358549
 10
0.448641645
 20
-9.9369457487
 10
0.4974077919
 20
-9.9419502008
 10
0.5455471698
 20
-9.9500492113
 10
0.5932478115
 20
-9.9613100476
 10
0.6403216841
 20
-9.9756654422
 10
0.6862046897
 20
-9.9929135928
 10
0.7309124087
 20
-10.0130511438
 10
0.7744292606
 20
-10.0360814508
 10
0.8161444062
 20
-10.0618127775
 10
0.8560243665
 20
-10.0903203692
 10
0.8941026206
 20
-10.1215289805
 10
0.9298687654
 20
-10.1550211386
 10
0.963280181
 20
-10.1908303146
 10
0.9943794874
 20
-10.2289230374
 10
1.0227841424
 20
-10.2687814214
 10
1.0484339111
 20
-10.3104256085
 10
1.0713890282
 20
-10.3538354569
 10
1.0914476559
 20
-10.3984326548
 10
1.1085956618
 20
-10.4442048737
 10
1.1228471782
 20
-10.4911644422
 10
1.1340427643
 20
-10.5387700344
 10
1.1421292733
 20
-10.5868412081
 10
1.147159852
 20
-10.6355584054
 10
1.1491345005
 20
-10.6849216263
  0
LWPOLYLINE
  5
341
100
AcDbEntity
  8
IMPORT_IGES
100
AcDbPolyline
 62
253
  6
CONTINUOUS
 90
25
 70
0
 10
-1.9446935545
 20
-9.2787496813
 10
-1.994086468
 20
-9.2768398015
 10
-2.0428526135
 20
-9.2718353578
 10
-2.0909919909
 20
-9.2637363502
 10
-2.1386926332
 20
-9.2524755087
 10
-2.1857665074
 20
-9.2381201034
 10
-2.2316495146
 20
-9.2208719441
 10
-2.2763572354
 20
-9.2007343888
 10
-2.3198740891
 20
-9.1777040796
 10
-2.3615892355
 20
-9.1519727523
 10
-2.4014691952
 20
-9.1234651621
 10
-2.4395474476
 20
-9.0922565539
 10
-2.4753135902
 20
-9.0587643982
 10
-2.5087250022
 20
-9.0229552231
 10
-2.5398243045
 20
-8.9848625006
 10
-2.5682289576
 20
-8.9450041165
 10
-2.5938787283
 20
-8.9033599292
 10
-2.6168338498
 20
-8.8599500804
 10
-2.6368924815
 20
-8.8153528817
 10
-2.6540404909
 20
-8.7695806615
 10
-2.6682920105
 20
-8.7226210915
 10
-2.6794875981
 20
-8.6750154987
 10
-2.6875741061
 20
-8.6269443253
 10
-2.6926046821
 20
-8.578227129
 10
-2.6945793259
 20
-8.5288639099
  0
LWPOLYLINE
  5
342
100
AcDbEntity
  8
IMPORT_IGES
100
AcDbPolyline
 62
253
  6
CONTINUOUS
 90
16
 70
0
 10
0.3992487291
 20
-10.1849977787
 10
0.4515327415
 20
-10.1877552551
 10
0.5032403499
 20
-10.1959649602
 10
0.5538046456
 20
-10.2095359262
 10
0.6026799053
 20
-10.2283222111
 10
0.6493213191
 20
-10.2521149484
 10
0.6931952705
 20
-10.280635971
 10
0.7338057367
 20
-10.3135461094
 10
0.7707390801
 20
-10.3504921263
 10
0.8036317088
 20
-10.3911089622
 10
0.832132153
 20
-10.4349818628
 10
0.8559031806
 20
-10.4816139558
 10
0.8746686989
 20
-10.5304710684
 10
0.8882220716
 20
-10.5810083399
 10
0.8964196251
 20
-10.6326805351
 10
0.8991725767
 20
-10.6849216263
  0
LWPOLYLINE
  5
343
100
AcDbEntity
  8
IMPORT_IGES
100
AcDbPolyline
 62
253
  6
CONTINUOUS
 90
16
 70
0
 10
-1.9446935545
 20
-9.0287877575
 10
-1.9969775695
 20
-9.0260302808
 10
-2.0486851802
 20
-9.017820575
 10
-2.0992494774
 20
-9.0042496079
 10
-2.1481247382
 20
-8.9854633217
 10
-2.1947661526
 20
-8.9616705831
 10
-2.238640104
 20
-8.9331495593
 10
-2.2792505699
 20
-8.9002394198
 10
-2.3161839125
 20
-8.8632934021
 10
-2.3490765401
 20
-8.8226765658
 10
-2.377576983
 20
-8.7788036654
 10
-2.4013480093
 20
-8.7321715729
 10
-2.4201135264
 20
-8.6833144614
 10
-2.4336668981
 20
-8.6327771915
 10
-2.4418644508
 20
-8.5811049985
 10
-2.4446174021
 20
-8.5288639099
  0
LINE
  5
344
100
AcDbEntity
  8
IMPORT_IGES
100
AcDbLine
 62
253
  6
CONTINUOUS
 10
0.8772775873
 20
-15.5069689205
 11
0.8991725767
 21
-15.5288639099
  0
LINE
  5
345
100
AcDbEntity
  8
0
100
AcDbLine
 62
253
  6
CONTINUOUS
 10
10.3141405913
 20
-24.5937253112
 11
10.3273080482
 21
-24.6068927681
  0
LINE
  5
346
100
AcDbEntity
  8
0
100
AcDbLine
 62
253
  6
CONTINUOUS
 10
10.5141101304
 20
-24.3937557721
 11
10.5272775873
 21
-24.4069232291
  0
LINE
  5
347
100
AcDbEntity
  8
0
100
AcDbLine
 62
7
  6
CONTINUOUS
 10
6.861533432
 20
-20.1881963351
 11
7.0119510514
 21
-20.3386139545
  0
LINE
  5
348
100
AcDbEntity
  8
0
100
AcDbLine
 62
7
  6
CONTINUOUS
 10
9.2272775873
 20
-22.5068927681
 11
9.2141101304
 21
-22.4937253112
  0
LINE
  5
349
100
AcDbEntity
  8
IMPORT_IGES
100
AcDbLine
 62
253
  6
CONTINUOUS
 10
-2.4227224127
 20
-10.7068166157
 11
-2.4446174021
 21
-10.6849216263
  0
LINE
  5
34A
100
AcDbEntity
  8
IMPORT_IGES
100
AcDbLine
 62
253
  6
CONTINUOUS
 10
5.9894298921
 20
-18.9188927681
 11
5.9803977268
 21
-18.9098606027
  0
LINE
  5
34B
100
AcDbEntity
  8
IMPORT_IGES
100
AcDbLine
 62
253
  6
CONTINUOUS
 10
-1.9446935545
 20
-10.1849977787
 11
-1.9227985651
 21
-10.2068927681
  0
LINE
  5
34C
100
AcDbEntity
  8
IMPORT_IGES
100
AcDbLine
 62
253
  6
CONTINUOUS
 10
0.3992487291
 20
-12.5287877575
 11
0.3773537397
 21
-12.5068927681
  0
LINE
  5
34D
100
AcDbEntity
  8
0
100
AcDbLine
 62
253
  6
CONTINUOUS
 10
10.5098986748
 20
-22.4894377032
 11
10.5272776519
 21
-22.5068927035
  0
LINE
  5
34E
100
AcDbEntity
  8
0
100
AcDbLine
 62
7
  6
CONTINUOUS
 10
-8.5727224127
 20
23.0157569627
 11
-8.5858898696
 21
23.4512887025
  0
LINE
  5
34F
100
AcDbEntity
  8
0
100
AcDbLine
 62
253
  6
CONTINUOUS
 10
-7.4710073718
 20
23.0157569627
 11
-7.4862805536
 21
23.5209384483
  0
LINE
  5
350
100
AcDbEntity
  8
0
100
AcDbLine
 62
253
  6
CONTINUOUS
 10
-7.2727224127
 20
23.2446818401
 11
-7.2863729324
 21
23.6963832124
  0
LINE
  5
351
100
AcDbEntity
  8
0
100
AcDbLine
 62
253
  6
CONTINUOUS
 10
-7.2863713732
 20
-24.384873238
 11
-7.2864524975
 21
-24.3812289169
  0
LINE
  5
352
100
AcDbEntity
  8
0
100
AcDbLine
 62
253
  6
CONTINUOUS
 10
-7.2863729324
 20
23.6963832124
 11
-7.2864644538
 21
23.7005892868
  0
LINE
  5
353
100
AcDbEntity
  8
RACCORDO
100
AcDbLine
 62
253
  6
CONTINUOUS
 10
-7.1565066494
 20
18.7189338507
 11
-7.1562897839
 21
18.7072744723
  0
LINE
  5
354
100
AcDbEntity
  8
0
100
AcDbLine
 62
253
  6
CONTINUOUS
 10
-7.2864644538
 20
23.7005892868
 11
-7.2865506207
 21
23.7058175564
  0
LINE
  5
355
100
AcDbEntity
  8
0
100
AcDbLine
 62
253
  6
CONTINUOUS
 10
-7.2864524975
 20
-24.3812289169
 11
-7.2865602466
 21
-24.3746985055
  0
LINE
  5
356
100
AcDbEntity
  8
0
100
AcDbLine
 62
253
  6
CONTINUOUS
 10
-7.4859854871
 20
-24.5904646971
 11
-7.4860744185
 21
-24.5849121114
  0
LINE
  5
357
100
AcDbEntity
  8
RACCORDO
100
AcDbLine
 62
253
  6
CONTINUOUS
 10
-7.988597293
 20
-18.9614693595
 11
-7.9889391369
 21
-18.9326512077
  0
LINE
  5
358
100
AcDbEntity
  8
RACCORDO
100
AcDbLine
 62
253
  6
CONTINUOUS
 10
-7.1568486989
 20
18.7478062768
 11
-7.1565066494
 21
18.7189338507
  0
LINE
  5
359
100
AcDbEntity
  8
0
100
AcDbLine
 62
253
  6
CONTINUOUS
 10
-7.2865602466
 20
-24.3746985055
 11
-7.2866463991
 21
-24.3671072135
  0
LINE
  5
35A
100
AcDbEntity
  8
0
100
AcDbLine
 62
253
  6
CONTINUOUS
 10
-7.2865506207
 20
23.7058175564
 11
-7.2866480306
 21
23.7142753542
  0
LINE
  5
35B
100
AcDbEntity
  8
0
100
AcDbLine
 62
253
  6
CONTINUOUS
 10
-7.4860744185
 20
-24.5849121114
 11
-7.486209755
 21
-24.5707787289
  0
LINE
  5
35C
100
AcDbEntity
  8
0
100
AcDbLine
 62
253
  6
CONTINUOUS
 10
-7.2866463991
 20
-24.3671072135
 11
-7.2867217705
 21
-24.3557830402
  0
LINE
  5
35D
100
AcDbEntity
  8
0
100
AcDbLine
 62
253
  6
CONTINUOUS
 10
-7.2866480306
 20
23.7142753542
 11
-7.2867270481
 21
23.7267182668
  0
LINE
  5
35E
100
AcDbEntity
  8
RACCORDO
100
AcDbLine
 62
253
  6
CONTINUOUS
 10
-7.9881921111
 20
-19.0277089602
 11
-7.988597293
 21
-18.9614693595
  0
LINE
  5
35F
100
AcDbEntity
  8
RACCORDO
100
AcDbLine
 62
253
  6
CONTINUOUS
 10
-7.1572533204
 20
18.8140911061
 11
-7.1568486989
 21
18.7478062768
  0
LINE
  5
360
100
AcDbEntity
  8
0
100
AcDbLine
 62
253
  6
CONTINUOUS
 10
-7.486209755
 20
-24.5707787289
 11
-7.4865297292
 21
-24.4984275002
  0
LINE
  5
361
100
AcDbEntity
  8
0
100
AcDbLine
 62
253
  6
CONTINUOUS
 10
-7.4862805536
 20
23.5209384483
 11
-7.486655703
 21
23.6454822628
  0
LINE
  5
362
100
AcDbEntity
  8
0
100
AcDbLine
 62
7
  6
CONTINUOUS
 10
-8.1376734775
 20
-20.9419417033
 11
-8.1384528164
 21
-18.9188940797
  0
LINE
  5
363
100
AcDbEntity
  8
RACCORDO
100
AcDbLine
 62
253
  6
CONTINUOUS
 10
-7.9880489486
 20
-19.1069965372
 11
-7.9881921111
 21
-19.0277089602
  0
LINE
  5
364
100
AcDbEntity
  8
RACCORDO
100
AcDbLine
 62
253
  6
CONTINUOUS
 10
-7.1573958769
 20
18.893211001
 11
-7.1572533204
 21
18.8140911061
  0
LINE
  5
365
100
AcDbEntity
  8
0
100
AcDbLine
 62
7
  6
CONTINUOUS
 10
-7.0069782574
 20
19.9744107989
 11
-7.0064816562
 21
18.7051072319
  0
LINE
  5
366
100
AcDbEntity
  8
RACCORDO
100
AcDbLine
 62
253
  6
CONTINUOUS
 10
-7.4573844538
 20
18.8932110011
 11
-7.4572548016
 21
18.7051072319
  0
LINE
  5
367
100
AcDbEntity
  8
0
100
AcDbLine
 62
7
  6
CONTINUOUS
 10
-8.1307166985
 20
-21.3321897908
 11
-8.1307166985
 21
-21.094161446
  0
LINE
  5
368
100
AcDbEntity
  8
0
100
AcDbLine
 62
7
  6
CONTINUOUS
 10
-8.1307166985
 20
20.8803759098
 11
-8.1307166985
 21
21.1184042546
  0
LINE
  5
369
100
AcDbEntity
  8
IMPORT_IGES
100
AcDbLine
 62
253
  6
CONTINUOUS
 10
-8.1258425522
 20
-18.9098606027
 11
-8.1258425522
 21
18.6960750666
  0
LINE
  5
36A
100
AcDbEntity
  8
RACCORDO
100
AcDbLine
 62
7
  6
CONTINUOUS
 10
-7.9880489486
 20
20.8777806961
 11
-7.9880489486
 21
18.893211001
  0
LINE
  5
36B
100
AcDbEntity
  8
RACCORDO
100
AcDbLine
 62
7
  6
CONTINUOUS
 10
-7.9880489486
 20
-21.0915662322
 11
-7.9880489486
 21
-19.1069965372
  0
LINE
  5
36C
100
AcDbEntity
  8
RACCORDO
100
AcDbLine
 62
253
  6
CONTINUOUS
 10
-7.6880603716
 20
-21.094161446
 11
-7.6881901042
 21
-18.9188927681
  0
LINE
  5
36D
100
AcDbEntity
  8
0
100
AcDbLine
 62
253
  6
CONTINUOUS
 10
-7.4573844538
 20
20.1274236321
 11
-7.4573844538
 21
18.8932110011
  0
LINE
  5
36E
100
AcDbEntity
  8
0
100
AcDbLine
 62
253
  6
CONTINUOUS
 10
-7.4573844538
 20
-20.3412091683
 11
-7.4573844538
 21
-19.1069965371
  0
LINE
  5
36F
100
AcDbEntity
  8
0
100
AcDbLine
 62
7
  6
CONTINUOUS
 10
-7.2727224127
 20
-22.5068927681
 11
-7.2727224127
 21
-24.4069232291
  0
LINE
  5
370
100
AcDbEntity
  8
0
100
AcDbLine
 62
7
  6
CONTINUOUS
 10
-7.2727224127
 20
22.2931072319
 11
-7.2727224127
 21
24.1931376929
  0
LINE
  5
371
100
AcDbEntity
  8
0
100
AcDbLine
 62
7
  6
CONTINUOUS
 10
-7.1573958769
 20
20.1248284184
 11
-7.1573958769
 21
18.893211001
  0
LINE
  5
372
100
AcDbEntity
  8
0
100
AcDbLine
 62
7
  6
CONTINUOUS
 10
-7.1573958769
 20
-20.3386139545
 11
-7.1573958769
 21
-19.1069965372
  0
LINE
  5
373
100
AcDbEntity
  8
0
100
AcDbLine
 62
7
  6
CONTINUOUS
 10
-8.1384528164
 20
18.7051085435
 11
-8.1376734775
 21
20.7281561671
  0
LINE
  5
374
100
AcDbEntity
  8
0
100
AcDbLine
 62
253
  6
CONTINUOUS
 10
-7.2867270481
 20
23.7267182668
 11
-7.2867467196
 21
24.132336535
  0
LINE
  5
375
100
AcDbEntity
  8
0
100
AcDbLine
 62
253
  6
CONTINUOUS
 10
-7.2867217705
 20
-24.3557830402
 11
-7.2867468537
 21
-23.9491568743
  0
LINE
  5
376
100
AcDbEntity
  8
0
100
AcDbLine
 62
7
  6
CONTINUOUS
 10
-7.0064816562
 20
-18.9188927681
 11
-7.0069782574
 21
-20.1881963351
  0
LINE
  5
377
100
AcDbEntity
  8
RACCORDO
100
AcDbLine
 62
253
  6
CONTINUOUS
 10
-7.6880603716
 20
20.8803759098
 11
-7.6881902972
 21
18.7051072319
  0
LINE
  5
378
100
AcDbEntity
  8
RACCORDO
100
AcDbLine
 62
253
  6
CONTINUOUS
 10
-7.4573844538
 20
-19.1069965371
 11
-7.4572545524
 21
-18.9188927681
  0
LINE
  5
379
100
AcDbEntity
  8
0
100
AcDbLine
 62
253
  6
CONTINUOUS
 10
-7.4865297292
 20
-24.4984275002
 11
-7.4866252224
 21
-23.8396960221
  0
LINE
  5
37A
100
AcDbEntity
  8
0
100
AcDbLine
 62
253
  6
CONTINUOUS
 10
-7.486655703
 20
23.6454822628
 11
-7.4863960726
 21
24.3236644961
  0
LINE
  5
37B
100
AcDbEntity
  8
RACCORDO
100
AcDbLine
 62
253
  6
CONTINUOUS
 10
-7.9880489486
 20
18.893211001
 11
-7.9882526744
 21
18.7994448393
  0
LINE
  5
37C
100
AcDbEntity
  8
RACCORDO
100
AcDbLine
 62
253
  6
CONTINUOUS
 10
-7.1573958769
 20
-19.1069965372
 11
-7.1571921182
 21
-19.0132214608
  0
LINE
  5
37D
100
AcDbEntity
  8
0
100
AcDbLine
 62
253
  6
CONTINUOUS
 10
-7.2867467196
 20
24.132336535
 11
-7.2867075233
 21
24.1449169072
  0
LINE
  5
37E
100
AcDbEntity
  8
0
100
AcDbLine
 62
253
  6
CONTINUOUS
 10
-7.2867468537
 20
-23.9491568743
 11
-7.2867048334
 21
-23.9358186796
  0
LINE
  5
37F
100
AcDbEntity
  8
0
100
AcDbLine
 62
253
  6
CONTINUOUS
 10
-7.4866252224
 20
-23.8396960221
 11
-7.4862805595
 21
-23.7347250073
  0
LINE
  5
380
100
AcDbEntity
  8
0
100
AcDbLine
 62
253
  6
CONTINUOUS
 10
-7.4863960726
 20
24.3236644961
 11
-7.4861694493
 21
24.3619767513
  0
LINE
  5
381
100
AcDbEntity
  8
RACCORDO
100
AcDbLine
 62
253
  6
CONTINUOUS
 10
-7.9882526744
 20
18.7994448393
 11
-7.9885978093
 21
18.7476279331
  0
LINE
  5
382
100
AcDbEntity
  8
RACCORDO
100
AcDbLine
 62
253
  6
CONTINUOUS
 10
-7.1571921182
 20
-19.0132214608
 11
-7.1568470194
 21
-18.9614128773
  0
LINE
  5
383
100
AcDbEntity
  8
0
100
AcDbLine
 62
253
  6
CONTINUOUS
 10
-7.2867075233
 20
24.1449169072
 11
-7.2866278527
 21
24.1552258177
  0
LINE
  5
384
100
AcDbEntity
  8
0
100
AcDbLine
 62
253
  6
CONTINUOUS
 10
-7.2867048334
 20
-23.9358186796
 11
-7.2866115765
 21
-23.9244435788
  0
LWPOLYLINE
  5
385
100
AcDbEntity
  8
0
100
AcDbPolyline
 62
253
  6
CONTINUOUS
 90
6
 70
0
 10
-7.4861694493
 20
24.3619767513
 10
-7.4860688687
 20
24.371556611
 10
-7.4860173233
 20
24.3750175307
 10
-7.4859653283
 20
24.3775727955
 10
-7.4859126901
 20
24.3792152559
 10
-7.4858594087
 20
24.379939775
  0
LINE
  5
386
100
AcDbEntity
  8
RACCORDO
100
AcDbLine
 62
253
  6
CONTINUOUS
 10
-7.9885978093
 20
18.7476279331
 11
-7.9889400889
 21
18.718792055
  0
LINE
  5
387
100
AcDbEntity
  8
0
100
AcDbLine
 62
253
  6
CONTINUOUS
 10
-7.2866278527
 20
24.1552258177
 11
-7.2865385853
 21
24.1624245813
  0
LINE
  5
388
100
AcDbEntity
  8
RACCORDO
100
AcDbLine
 62
253
  6
CONTINUOUS
 10
-7.1568470194
 20
-18.9614128773
 11
-7.1565048742
 21
-18.9325886907
  0
LINE
  5
389
100
AcDbEntity
  8
0
100
AcDbLine
 62
253
  6
CONTINUOUS
 10
-7.2866115765
 20
-23.9244435788
 11
-7.286528685
 21
-23.9181249498
  0
LINE
  5
38A
100
AcDbEntity
  8
0
100
AcDbLine
 62
253
  6
CONTINUOUS
 10
-7.2865385853
 20
24.1624245813
 11
-7.286426494
 21
24.1687105514
  0
LWPOLYLINE
  5
38B
100
AcDbEntity
  8
0
100
AcDbPolyline
 62
253
  6
CONTINUOUS
 90
3
 70
0
 10
-7.286528685
 20
-23.9181249498
 10
-7.2864274392
 20
-23.9125391819
 10
-7.2863903175
 20
-23.9108940707
  0
LINE
  5
38C
100
AcDbEntity
  8
RACCORDO
100
AcDbLine
 62
253
  6
CONTINUOUS
 10
-7.1565048742
 20
-18.9325886907
 11
-7.1562899551
 21
-18.9210600085
  0
LWPOLYLINE
  5
38D
100
AcDbEntity
  8
0
100
AcDbPolyline
 62
253
  6
CONTINUOUS
 90
11
 70
0
 10
-7.286426494
 20
24.1687105514
 10
-7.2863409617
 20
24.1722420101
 10
-7.2862955112
 20
24.1737779368
 10
-7.2862482865
 20
24.1751623803
 10
-7.2861998325
 20
24.1763771774
 10
-7.2861501275
 20
24.1774198599
 10
-7.2860991931
 20
24.178292896
 10
-7.2860476391
 20
24.1789855275
 10
-7.2859956688
 20
24.1794941682
 10
-7.285943079
 20
24.1798224044
 10
-7.2858898696
 20
24.179970236
  0
LINE
  5
38E
100
AcDbEntity
  8
0
100
AcDbLine
 62
7
  6
CONTINUOUS
 10
-8.5858898696
 20
-23.6650742387
 11
-8.5727224127
 21
-23.2295424989
  0
LINE
  5
38F
100
AcDbEntity
  8
0
100
AcDbLine
 62
253
  6
CONTINUOUS
 10
-7.4862805846
 20
-23.7347250073
 11
-7.4710073718
 21
-23.2295424989
  0
LINE
  5
390
100
AcDbEntity
  8
0
100
AcDbLine
 62
253
  6
CONTINUOUS
 10
-7.2863515093
 20
-23.9093573651
 11
-7.2727224127
 21
-23.4584673763
  0
LINE
  5
391
100
AcDbEntity
  8
IMPORT_IGES
100
AcDbLine
 62
7
  6
CONTINUOUS
 10
1.4510949899
 20
12.8669246345
 11
1.4529623495
 21
12.8687919942
  0
LINE
  5
392
100
AcDbEntity
  8
0
100
AcDbLine
 62
253
  6
CONTINUOUS
 10
11.0272775873
 20
21.7931833843
 11
11.0098225224
 21
21.7757283194
  0
LINE
  5
393
100
AcDbEntity
  8
IMPORT_IGES
100
AcDbLine
 62
253
  6
CONTINUOUS
 10
6.9892775873
 20
17.7052595368
 11
6.9802454219
 21
17.6962273714
  0
LINE
  5
394
100
AcDbEntity
  8
0
100
AcDbLine
 62
253
  6
CONTINUOUS
 10
-1.9790288609
 20
-6.8713329238
 11
-1.8493970784
 21
-6.8684558679
  0
LINE
  5
395
100
AcDbEntity
  8
0
100
AcDbLine
 62
7
  6
CONTINUOUS
 10
-2.01573488
 20
-6.8721509773
 11
-1.9790288609
 21
-6.8713329238
  0
LINE
  5
396
100
AcDbEntity
  8
0
100
AcDbLine
 62
253
  6
CONTINUOUS
 10
-1.9190010264
 20
-6.9969315903
 11
-1.7463388815
 21
-6.9955143158
  0
LINE
  5
397
100
AcDbEntity
  8
0
100
AcDbLine
 62
253
  6
CONTINUOUS
 10
-2.09454339
 20
-7.5068927681
 11
-1.9945471977
 21
-7.5068927682
  0
LINE
  5
398
100
AcDbEntity
  8
0
100
AcDbLine
 62
253
  6
CONTINUOUS
 10
-1.8227224127
 20
-7.5068927681
 11
-1.9881349344
 21
-7.5068927681
  0
LINE
  5
399
100
AcDbEntity
  8
IMPORT_IGES
100
AcDbLine
 62
7
  6
CONTINUOUS
 10
7.1284735517
 20
-7.4135513991
 11
6.9892775873
 21
-7.4135639355
  0
LINE
  5
39A
100
AcDbEntity
  8
IMPORT_IGES
100
AcDbLine
 62
253
  6
CONTINUOUS
 10
-2.6945793259
 20
-7.1849216263
 11
-2.4446174021
 21
-7.1849216263
  0
LINE
  5
39B
100
AcDbEntity
  8
IMPORT_IGES
100
AcDbLine
 62
253
  6
CONTINUOUS
 10
0.8991725767
 20
-7.1849216263
 11
1.1491345005
 21
-7.1849216263
  0
LINE
  5
39C
100
AcDbEntity
  8
RACCORDO
100
AcDbLine
 62
253
  6
CONTINUOUS
 10
0.5015166053
 20
-7.0068927681
 11
0.8272775873
 21
-7.0068927681
  0
LINE
  5
39D
100
AcDbEntity
  8
RACCORDO
100
AcDbLine
 62
253
  6
CONTINUOUS
 10
-0.6469614307
 20
-7.0068927681
 11
-0.9727224127
 21
-7.0068927681
  0
LINE
  5
39E
100
AcDbEntity
  8
0
100
AcDbLine
 62
7
  6
CONTINUOUS
 10
-1.8493970784
 20
-6.8684558679
 11
-2.0108793697
 21
-6.8684558679
  0
LINE
  5
39F
100
AcDbEntity
  8
0
100
AcDbLine
 62
7
  6
CONTINUOUS
 10
-2.0007967446
 20
-6.8608122431
 11
-2.1769350213
 21
-6.8608122431
  0
LINE
  5
3A0
100
AcDbEntity
  8
0
100
AcDbLine
 62
253
  6
CONTINUOUS
 10
-2.0007965563
 20
-6.7608160507
 11
-2.1469786014
 21
-6.7608160507
  0
LINE
  5
3A1
100
AcDbEntity
  8
IMPORT_IGES
100
AcDbLine
 62
7
  6
CONTINUOUS
 10
-1.9227985651
 20
-6.7068927681
 11
0.3773537397
 21
-6.7068927681
  0
LINE
  5
3A2
100
AcDbEntity
  8
IMPORT_IGES
100
AcDbLine
 62
253
  6
CONTINUOUS
 10
-1.9446935545
 20
-6.6849977787
 11
0.3992487291
 21
-6.6849977787
  0
LINE
  5
3A3
100
AcDbEntity
  8
IMPORT_IGES
100
AcDbLine
 62
253
  6
CONTINUOUS
 10
0.3992487291
 20
-6.4350358549
 11
-1.9446935545
 21
-6.4350358549
  0
LINE
  5
3A4
100
AcDbEntity
  8
0
100
AcDbLine
 62
7
  6
CONTINUOUS
 10
-2.165819585
 20
-6.8794742667
 11
-2.0254637801
 21
-6.8795826243
  0
LWPOLYLINE
  5
3A5
100
AcDbEntity
  8
IMPORT_IGES
100
AcDbPolyline
 62
253
  6
CONTINUOUS
 90
25
 70
0
 10
0.3992487291
 20
-6.4350358549
 10
0.4486416255
 20
-6.4369456341
 10
0.4974077604
 20
-6.441950017
 10
0.5455471338
 20
-6.4500490038
 10
0.5932477808
 20
-6.4613098825
 10
0.6403216664
 20
-6.4756653649
 10
0.6862046854
 20
-6.4929135873
 10
0.7309124189
 20
-6.5130511727
 10
0.7744292859
 20
-6.536081498
 10
0.8161444384
 20
-6.5618128301
 10
0.8560243933
 20
-6.5903204093
 10
0.8941026335
 20
-6.6215289953
 10
0.9298687601
 20
-6.6550211335
 10
0.9632801464
 20
-6.6908303019
 10
0.9943794189
 20
-6.7289230226
 10
1.0227840582
 20
-6.7687814068
 10
1.0484338439
 20
-6.8104255957
 10
1.0713889963
 20
-6.8538354482
 10
1.0914476572
 20
-6.8984326521
 10
1.1085956918
 20
-6.9442048812
 10
1.1228472349
 20
-6.9911644617
 10
1.1340428327
 20
-7.0387700598
 10
1.1421293339
 20
-7.086841231
 10
1.1471598898
 20
-7.1355584198
 10
1.1491345005
 20
-7.1849216263
  0
LWPOLYLINE
  5
3A6
100
AcDbEntity
  8
0
100
AcDbPolyline
 62
253
  6
CONTINUOUS
 90
6
 70
0
 10
-2.0007965563
 20
-6.860812422
 10
-1.9915394896
 20
-6.8612406433
 10
-1.9823651464
 20
-6.8625265111
 10
-1.9733512867
 20
-6.8646527983
 10
-1.9645814758
 20
-6.8675964546
 10
-1.9626392236
 20
-6.8684558679
  0
LWPOLYLINE
  5
3A7
100
AcDbEntity
  8
0
100
AcDbPolyline
 62
253
  6
CONTINUOUS
 90
10
 70
0
 10
-2.0007965563
 20
-6.7608160507
 10
-1.9816427815
 20
-6.761789742
 10
-1.9630040647
 20
-6.7644512596
 10
-1.9448804058
 20
-6.7688006037
 10
-1.9271303361
 20
-6.7749040138
 10
-1.9098953244
 20
-6.7826952502
 10
-1.8935997773
 20
-6.7919755947
 10
-1.8783851636
 20
-6.8026788077
 10
-1.8641100145
 20
-6.8148711286
 10
-1.8507743299
 20
-6.8285525575
  0
LWPOLYLINE
  5
3A8
100
AcDbEntity
  8
IMPORT_IGES
100
AcDbPolyline
 62
253
  6
CONTINUOUS
 90
16
 70
0
 10
0.3992487291
 20
-6.6849977787
 10
0.451532763
 20
-6.6877552573
 10
0.5032403891
 20
-6.6959649685
 10
0.5538046982
 20
-6.7095359433
 10
0.6026799668
 20
-6.7283222385
 10
0.6493213851
 20
-6.7521149866
 10
0.6931953369
 20
-6.7806360193
 10
0.7338058
 20
-6.8135461664
 10
0.7707391371
 20
-6.8504921896
 10
0.8036317571
 20
-6.8911090287
 10
0.832132191
 20
-6.9349819286
 10
0.8559032078
 20
-6.981614017
 10
0.8746687158
 20
-7.0304711205
 10
0.8882220799
 20
-7.0810083787
 10
0.8964196274
 20
-7.1326805563
 10
0.8991725767
 20
-7.1849216263
  0
LWPOLYLINE
  5
3A9
100
AcDbEntity
  8
0
100
AcDbPolyline
 62
7
  6
CONTINUOUS
 90
13
 70
0
 10
-2.01573488
 20
-6.8721509767
 10
-2.000625602
 20
-6.8733233651
 10
-1.9859109358
 20
-6.8767631213
 10
-1.9719053969
 20
-6.8823882113
 10
-1.9589009419
 20
-6.8900588603
 10
-1.9471794624
 20
-6.8996012903
 10
-1.9370181342
 20
-6.9108272736
 10
-1.9286354034
 20
-6.9235226599
 10
-1.9222423188
 20
-6.9373748826
 10
-1.918032444
 20
-6.9519943529
 10
-1.916089898
 20
-6.9670125521
 10
-1.9164210747
 20
-6.9821061641
 10
-1.919001034
 20
-6.9969315887
  0
LWPOLYLINE
  5
3AA
100
AcDbEntity
  8
0
100
AcDbPolyline
 62
7
  6
CONTINUOUS
 90
7
 70
0
 10
-1.8493970784
 20
-6.8684558679
 10
-1.8455440167
 20
-6.8687776444
 10
-1.8416936488
 20
-6.8689707103
 10
-1.8378459748
 20
-6.8690350656
 10
-1.8340009947
 20
-6.8689707103
 10
-1.8301587085
 20
-6.8687776444
 10
-1.8263191161
 20
-6.8684558679
  0
LWPOLYLINE
  5
3AB
100
AcDbEntity
  8
0
100
AcDbPolyline
 62
7
  6
CONTINUOUS
 90
7
 70
0
 10
-1.9961878935
 20
-6.8839637123
 10
-2.0010668973
 20
-6.8826149772
 10
-2.0059460254
 20
-6.8815136635
 10
-2.0108252777
 20
-6.8806597715
 10
-2.0157046542
 20
-6.8800533009
 10
-2.020584155
 20
-6.8796942519
 10
-2.0254637801
 20
-6.8795826243
  0
LWPOLYLINE
  5
3AC
100
AcDbEntity
  8
0
100
AcDbPolyline
 62
7
  6
CONTINUOUS
 90
3
 70
0
 10
-1.8263191161
 20
-6.8684558679
 10
-1.8149603335
 20
-6.8724609355
 10
-1.8042321238
 20
-6.8772117746
  0
LWPOLYLINE
  5
3AD
100
AcDbEntity
  8
0
100
AcDbPolyline
 62
7
  6
CONTINUOUS
 90
16
 70
0
 10
-1.9961878935
 20
-6.8839637123
 10
-1.9869081681
 20
-6.8872904709
 10
-1.9779413179
 20
-6.8915567693
 10
-1.9693776037
 20
-6.8967181989
 10
-1.9613028672
 20
-6.902762663
 10
-1.9538181309
 20
-6.9096137923
 10
-1.9470323816
 20
-6.9171355535
 10
-1.9410564956
 20
-6.9253153281
 10
-1.9359412816
 20
-6.9341009255
 10
-1.9316996325
 20
-6.9433063816
 10
-1.9284229351
 20
-6.952902535
 10
-1.9261579712
 20
-6.9628831435
 10
-1.9248817669
 20
-6.9730945423
 10
-1.9246611736
 20
-6.9834726197
 10
-1.9256123204
 20
-6.9940543934
 10
-1.9278100618
 20
-7.004836677
  0
LWPOLYLINE
  5
3AE
100
AcDbEntity
  8
0
100
AcDbPolyline
 62
7
  6
CONTINUOUS
 90
14
 70
0
 10
-1.8042321238
 20
-6.8772117746
 10
-1.794134487
 20
-6.8827083852
 10
-1.7845568234
 20
-6.888950032
 10
-1.7756097326
 20
-6.8959374504
 10
-1.767625014
 20
-6.9036728459
 10
-1.7606488975
 20
-6.912223415
 10
-1.7546351533
 20
-6.9215219611
 10
-1.7497768907
 20
-6.9313691
 10
-1.7460992113
 20
-6.9419227866
 10
-1.7435770136
 20
-6.953025066
 10
-1.7423281032
 20
-6.9640026889
 10
-1.7423917487
 20
-6.974631239
 10
-1.7437286815
 20
-6.9851351326
 10
-1.7463389017
 20
-6.9955143697
  0
LINE
  5
3AF
100
AcDbEntity
  8
IMPORT_IGES
100
AcDbLine
 62
253
  6
CONTINUOUS
 10
0.8772775873
 20
-12.0069689205
 11
0.8991725767
 21
-12.0288639099
  0
LINE
  5
3B0
100
AcDbEntity
  8
0
100
AcDbLine
 62
253
  6
CONTINUOUS
 10
11.0098225224
 20
-21.9895138556
 11
11.0272775873
 21
-22.0069689205
  0
LINE
  5
3B1
100
AcDbEntity
  8
IMPORT_IGES
100
AcDbLine
 62
253
  6
CONTINUOUS
 10
6.9802454219
 20
-17.9100129076
 11
6.9892775873
 21
-17.9190450729
  0
LINE
  5
3B2
100
AcDbEntity
  8
IMPORT_IGES
100
AcDbLine
 62
253
  6
CONTINUOUS
 10
-2.4227224127
 20
-7.2068166157
 11
-2.4446174021
 21
-7.1849216263
  0
LWPOLYLINE
  5
3B3
100
AcDbEntity
  8
0
100
AcDbPolyline
 62
7
  6
CONTINUOUS
 90
13
 70
0
 10
-7.2727224127
 20
24.1931376929
 10
-7.2744326769
 20
24.2192398197
 10
-7.2795348533
 20
24.244894998
 10
-7.2879418345
 20
24.2696645194
 10
-7.2995100756
 20
24.2931249763
 10
-7.3140418627
 20
24.3148747822
 10
-7.3312884405
 20
24.3345412041
 10
-7.3509548625
 20
24.3517877819
 10
-7.3727046683
 20
24.3663195691
 10
-7.3961651252
 20
24.3778878102
 10
-7.4209346466
 20
24.3862947914
 10
-7.4465898249
 20
24.3913969677
 10
-7.4726919518
 20
24.3931072319
  0
LWPOLYLINE
  5
3B4
100
AcDbEntity
  8
0
100
AcDbPolyline
 62
7
  6
CONTINUOUS
 90
16
 70
0
 10
-4.5227224127
 20
-23.8569308443
 10
-4.5213730005
 20
-23.8828737512
 10
-4.5173167296
 20
-23.9086407853
 10
-4.5105647271
 20
-23.9339463526
 10
-4.5011188229
 20
-23.9585937562
 10
-4.4890729451
 20
-23.9822002142
 10
-4.4747055564
 20
-24.004247359
 10
-4.4583741477
 20
-24.0243577795
 10
-4.4401874241
 20
-24.0425445031
 10
-4.4200770037
 20
-24.0588759117
 10
-4.3980298588
 20
-24.0732433004
 10
-4.3744234008
 20
-24.0852891782
 10
-4.3497759973
 20
-24.0947350824
 10
-4.32447043
 20
-24.101487085
 10
-4.2987033959
 20
-24.1055433559
 10
-4.2727604889
 20
-24.1068927681
  0
LWPOLYLINE
  5
3B5
100
AcDbEntity
  8
IMPORT_IGES
100
AcDbPolyline
 62
7
  6
CONTINUOUS
 90
10
 70
0
 10
-4.8447594017
 20
13.8931072319
 10
-4.844991845
 20
13.8978977287
 10
-4.845222377
 20
13.9021899191
 10
-4.8454509977
 20
13.9059727395
 10
-4.8456754435
 20
13.9092392627
 10
-4.845897978
 20
13.9119747786
 10
-4.8461253922
 20
13.9141632585
 10
-4.8463599499
 20
13.9158003987
 10
-4.8465993874
 20
13.9168871886
 10
-4.8468437047
 20
13.9174224697
  0
LINE
  5
3B6
100
AcDbEntity
  8
IMPORT_IGES
100
AcDbLine
 62
253
  6
CONTINUOUS
 10
-5.8683967285
 20
13.8931072319
 11
-5.8683967285
 21
8.3931072319
  0
LINE
  5
3B7
100
AcDbEntity
  8
IMPORT_IGES
100
AcDbLine
 62
253
  6
CONTINUOUS
 10
-5.6184348047
 20
8.3931072319
 11
-5.6184348047
 21
13.8931072319
  0
LINE
  5
3B8
100
AcDbEntity
  8
IMPORT_IGES
100
AcDbLine
 62
7
  6
CONTINUOUS
 10
-5.6052673478
 20
13.2687310722
 11
-5.6052673478
 21
13.5174833916
  0
LINE
  5
3B9
100
AcDbEntity
  8
IMPORT_IGES
100
AcDbLine
 62
7
  6
CONTINUOUS
 10
-5.5965398153
 20
8.3931072319
 11
-5.5965398153
 21
12.8669246345
  0
LINE
  5
3BA
100
AcDbEntity
  8
IMPORT_IGES
100
AcDbLine
 62
253
  6
CONTINUOUS
 10
-5.2227224127
 20
8.0124601198
 11
-5.2227224127
 21
8.0192898293
  0
LINE
  5
3BB
100
AcDbEntity
  8
IMPORT_IGES
100
AcDbLine
 62
7
  6
CONTINUOUS
 10
-5.1227224127
 20
12.8669246345
 11
-5.1227224127
 21
10.8681072319
  0
LINE
  5
3BC
100
AcDbEntity
  8
IMPORT_IGES
100
AcDbLine
 62
7
  6
CONTINUOUS
 10
-4.8489050101
 20
12.8669246345
 11
-4.8489050101
 21
11.488094669
  0
LINE
  5
3BD
100
AcDbEntity
  8
IMPORT_IGES
100
AcDbLine
 62
7
  6
CONTINUOUS
 10
-4.8401774776
 20
13.5174833916
 11
-4.8401774776
 21
13.2687310722
  0
LINE
  5
3BE
100
AcDbEntity
  8
IMPORT_IGES
100
AcDbLine
 62
7
  6
CONTINUOUS
 10
-4.8331954517
 20
8.5123839674
 11
-4.8331954517
 21
10.4931072319
  0
LINE
  5
3BF
100
AcDbEntity
  8
IMPORT_IGES
100
AcDbLine
 62
253
  6
CONTINUOUS
 10
-4.8270100207
 20
13.8931072319
 11
-4.8270100207
 21
8.3931072319
  0
LINE
  5
3C0
100
AcDbEntity
  8
IMPORT_IGES
100
AcDbLine
 62
253
  6
CONTINUOUS
 10
-4.5770480969
 20
8.3931072319
 11
-4.5770480969
 21
13.8931072319
  0
LINE
  5
3C1
100
AcDbEntity
  8
0
100
AcDbLine
 62
7
  6
CONTINUOUS
 10
-4.5227224127
 20
23.6431453081
 11
-4.5227224127
 21
23.3110521791
  0
LINE
  5
3C2
100
AcDbEntity
  8
0
100
AcDbLine
 62
7
  6
CONTINUOUS
 10
-4.5227224127
 20
22.8751622847
 11
-4.5227224127
 21
22.2931072319
  0
LINE
  5
3C3
100
AcDbEntity
  8
0
100
AcDbLine
 62
7
  6
CONTINUOUS
 10
-4.5227224127
 20
-22.5068927681
 11
-4.5227224127
 21
-23.0889478209
  0
LINE
  5
3C4
100
AcDbEntity
  8
0
100
AcDbLine
 62
7
  6
CONTINUOUS
 10
-4.5227224127
 20
-23.5248377153
 11
-4.5227224127
 21
-23.8569308443
  0
LINE
  5
3C5
100
AcDbEntity
  8
0
100
AcDbLine
 62
7
  6
CONTINUOUS
 10
-4.4267195556
 20
-23.6462728635
 11
-4.4267195556
 21
-22.9675126727
  0
LINE
  5
3C6
100
AcDbEntity
  8
0
100
AcDbLine
 62
7
  6
CONTINUOUS
 10
-4.4267195556
 20
22.7537271365
 11
-4.4267195556
 21
23.4324873273
  0
LINE
  5
3C7
100
AcDbEntity
  8
0
100
AcDbLine
 62
253
  6
CONTINUOUS
 10
-4.4246046483
 20
23.5450275437
 11
-4.4246064353
 21
22.1949912545
  0
LINE
  5
3C8
100
AcDbEntity
  8
0
100
AcDbLine
 62
253
  6
CONTINUOUS
 10
-4.4246064353
 20
-22.4087767907
 11
-4.4246046483
 21
-23.7588130799
  0
LWPOLYLINE
  5
3C9
100
AcDbEntity
  8
IMPORT_IGES
100
AcDbPolyline
 62
7
  6
CONTINUOUS
 90
14
 70
0
 10
-4.8334474211
 20
8.3931072319
 10
-4.8353743859
 20
8.3557703153
 10
-4.8410650749
 20
8.3185021496
 10
-4.8505194882
 20
8.2816184925
 10
-4.8638485859
 20
8.2453647927
 10
-4.8809414078
 20
8.2102204468
 10
-4.9014650737
 20
8.1768397179
 10
-4.9254691603
 20
8.1456899045
 10
-4.9529040908
 20
8.1169845107
 10
-4.9832882543
 20
8.0909829826
 10
-5.0166033913
 20
8.0681332773
 10
-5.0528677613
 20
8.0487208617
 10
-5.0916545317
 20
8.0329381723
 10
-5.132821425
 20
8.0212623726
  0
LWPOLYLINE
  5
3CA
100
AcDbEntity
  8
0
100
AcDbPolyline
 62
7
  6
CONTINUOUS
 90
16
 70
0
 10
-4.5227224127
 20
23.6431453081
 10
-4.5213730005
 20
23.6690882151
 10
-4.5173167296
 20
23.6948552492
 10
-4.5105647271
 20
23.7201608165
 10
-4.5011188229
 20
23.74480822
 10
-4.4890729451
 20
23.768414678
 10
-4.4747055564
 20
23.7904618229
 10
-4.4583741477
 20
23.8105722433
 10
-4.4401874241
 20
23.8287589669
 10
-4.4200770037
 20
23.8450903756
 10
-4.3980298588
 20
23.8594577643
 10
-4.3744234008
 20
23.8715036421
 10
-4.3497759973
 20
23.8809495463
 10
-4.32447043
 20
23.8877015488
 10
-4.2987033959
 20
23.8917578197
 10
-4.2727604889
 20
23.8931072319
  0
LWPOLYLINE
  5
3CB
100
AcDbEntity
  8
0
100
AcDbPolyline
 62
7
  6
CONTINUOUS
 90
13
 70
0
 10
-7.2727224127
 20
-24.4069232291
 10
-7.2744326769
 20
-24.4330253559
 10
-7.2795348533
 20
-24.4586805342
 10
-7.2879418345
 20
-24.4834500556
 10
-7.2995100756
 20
-24.5069105125
 10
-7.3140418627
 20
-24.5286603183
 10
-7.3312884405
 20
-24.5483267403
 10
-7.3509548625
 20
-24.5655733181
 10
-7.3727046683
 20
-24.5801051052
 10
-7.3961651252
 20
-24.5916733463
 10
-7.4209346466
 20
-24.6000803275
 10
-7.4465898249
 20
-24.6051825039
 10
-7.4726919518
 20
-24.6068927681
  0
LINE
  5
3CC
100
AcDbEntity
  8
IMPORT_IGES
100
AcDbLine
 62
253
  6
CONTINUOUS
 10
-1.9446935545
 20
-5.7787496813
 11
0.3992487291
 21
-5.7787496813
  0
LINE
  5
3CD
100
AcDbEntity
  8
IMPORT_IGES
100
AcDbLine
 62
253
  6
CONTINUOUS
 10
0.3992487291
 20
-5.5287877575
 11
-1.9446935545
 21
-5.5287877575
  0
LINE
  5
3CE
100
AcDbEntity
  8
IMPORT_IGES
100
AcDbLine
 62
7
  6
CONTINUOUS
 10
0.3773537397
 20
-5.5068927681
 11
-1.9227985651
 21
-5.5068927681
  0
LINE
  5
3CF
100
AcDbEntity
  8
IMPORT_IGES
100
AcDbLine
 62
253
  6
CONTINUOUS
 10
1.1491345005
 20
-5.0288639099
 11
0.8991725767
 21
-5.0288639099
  0
LINE
  5
3D0
100
AcDbEntity
  8
IMPORT_IGES
100
AcDbLine
 62
253
  6
CONTINUOUS
 10
-2.4446174021
 20
-5.0288639099
 11
-2.6945793259
 21
-5.0288639099
  0
LINE
  5
3D1
100
AcDbEntity
  8
IMPORT_IGES
100
AcDbLine
 62
7
  6
CONTINUOUS
 10
6.9892775873
 20
-5.0283010017
 11
7.1305675197
 21
-5.0283010017
  0
LINE
  5
3D2
100
AcDbEntity
  8
IMPORT_IGES
100
AcDbLine
 62
253
  6
CONTINUOUS
 10
7.1356456965
 20
-4.4101084147
 11
6.9892775873
 21
-4.4101028416
  0
LWPOLYLINE
  5
3D3
100
AcDbEntity
  8
IMPORT_IGES
100
AcDbPolyline
 62
253
  6
CONTINUOUS
 90
25
 70
0
 10
-1.9446935545
 20
-5.7787496813
 10
-1.9940864483
 20
-5.7768399175
 10
-2.0428525816
 20
-5.7718355438
 10
-2.0909919544
 20
-5.7637365602
 10
-2.1386926022
 20
-5.7524756759
 10
-2.1857664894
 20
-5.7381201817
 10
-2.2316495103
 20
-5.7208719496
 10
-2.2763572457
 20
-5.7007343596
 10
-2.3198741148
 20
-5.6777040318
 10
-2.3615892682
 20
-5.651972699
 10
-2.4014692223
 20
-5.6234651214
 10
-2.4395474607
 20
-5.5922565389
 10
-2.4753135848
 20
-5.5587644034
 10
-2.5087249672
 20
-5.522955236
 10
-2.5398242352
 20
-5.4848625156
 10
-2.5682288724
 20
-5.4450041314
 10
-2.5938786603
 20
-5.4033599422
 10
-2.6168338175
 20
-5.3599500891
 10
-2.6368924828
 20
-5.3153528844
 10
-2.6540405213
 20
-5.2695806539
 10
-2.668292068
 20
-5.2226210718
 10
-2.6794876673
 20
-5.1750154729
 10
-2.6875741675
 20
-5.1269443021
 10
-2.6926047204
 20
-5.0782271144
 10
-2.6945793259
 20
-5.0288639099
  0
LWPOLYLINE
  5
3D4
100
AcDbEntity
  8
IMPORT_IGES
100
AcDbPolyline
 62
253
  6
CONTINUOUS
 90
16
 70
0
 10
-1.9446935545
 20
-5.5287877575
 10
-1.9969775913
 20
-5.5260302785
 10
-2.0486852198
 20
-5.5178205665
 10
-2.0992495307
 20
-5.5042495906
 10
-2.1481248005
 20
-5.4854632939
 10
-2.1947662194
 20
-5.4616705445
 10
-2.2386401713
 20
-5.4331495104
 10
-2.2792506339
 20
-5.4002393621
 10
-2.3161839702
 20
-5.3632933381
 10
-2.349076589
 20
-5.3226764985
 10
-2.3775770216
 20
-5.2788035987
 10
-2.4013480369
 20
-5.2321715109
 10
-2.4201135435
 20
-5.1833144086
 10
-2.4336669064
 20
-5.1327771523
 10
-2.4418644531
 20
-5.081104977
 10
-2.4446174021
 20
-5.0288639099
  0
LINE
  5
3D5
100
AcDbEntity
  8
IMPORT_IGES
100
AcDbLine
 62
253
  6
CONTINUOUS
 10
-1.9446935545
 20
-6.6849977787
 11
-1.9227985651
 21
-6.7068927681
  0
LINE
  5
3D6
100
AcDbEntity
  8
IMPORT_IGES
100
AcDbLine
 62
253
  6
CONTINUOUS
 10
0.3992487291
 20
-9.0287877575
 11
0.3773537397
 21
-9.0068927681
  0
LINE
  5
3D7
100
AcDbEntity
  8
IMPORT_IGES
100
AcDbLine
 62
253
  6
CONTINUOUS
 10
0.8772775873
 20
-8.5069689205
 11
0.8991725767
 21
-8.5288639099
  0
LINE
  5
3D8
100
AcDbEntity
  8
IMPORT_IGES
100
AcDbLine
 62
253
  6
CONTINUOUS
 10
-2.4227224127
 20
-3.7068166157
 11
-2.4446174021
 21
-3.6849216263
  0
LINE
  5
3D9
100
AcDbEntity
  8
0
100
AcDbLine
 62
253
  6
CONTINUOUS
 10
-2.165819585
 20
-6.8794742667
 11
-2.1769350213
 21
-6.8608122431
  0
LINE
  5
3DA
100
AcDbEntity
  8
0
100
AcDbLine
 62
253
  6
CONTINUOUS
 10
-2.254299694
 20
-6.9312767756
 11
-2.2647505522
 21
-6.9129787749
  0
LWPOLYLINE
  5
3DB
100
AcDbEntity
  8
0
100
AcDbPolyline
 62
253
  6
CONTINUOUS
 90
6
 70
0
 10
-2.7013974903
 20
-22.0820755621
 10
-2.7018825149
 20
-22.0790194224
 10
-2.7023599078
 20
-22.0719799046
 10
-2.702829669
 20
-22.0609570089
 10
-2.7032945361
 20
-22.0458476486
 10
-2.7037517714
 20
-22.0267549104
  0
LWPOLYLINE
  5
3DC
100
AcDbEntity
  8
0
100
AcDbPolyline
 62
253
  6
CONTINUOUS
 90
5
 70
0
 10
-2.9513879711
 20
-22.3320374859
 10
-2.9518755965
 20
-22.3280136274
 10
-2.9523547607
 20
-22.3185436143
 10
-2.9528254637
 20
-22.3036792571
 10
-2.9532901705
 20
-22.2835018868
  0
LWPOLYLINE
  5
3DD
100
AcDbEntity
  8
0
100
AcDbPolyline
 62
7
  6
CONTINUOUS
 90
4
 70
0
 10
-1.987279574
 20
-8.7641291586
 10
-1.9847142568
 20
-8.8213144293
 10
-1.9804412739
 20
-8.8783975061
 10
-1.9744601021
 20
-8.9353635303
  0
LINE
  5
3DE
100
AcDbEntity
  8
0
100
AcDbLine
 62
7
  6
CONTINUOUS
 10
-2.7055009735
 20
-21.094161446
 11
-2.6900256262
 21
-21.7395895546
  0
LINE
  5
3DF
100
AcDbEntity
  8
0
100
AcDbLine
 62
253
  6
CONTINUOUS
 10
-2.7037517714
 20
-22.0267549104
 11
-2.7046182102
 21
-21.9774870087
  0
LINE
  5
3E0
100
AcDbEntity
  8
0
100
AcDbLine
 62
7
  6
CONTINUOUS
 10
-1.9881349344
 20
-8.7068927681
 11
-1.987279574
 21
-8.7641291586
  0
LINE
  5
3E1
100
AcDbEntity
  8
0
100
AcDbLine
 62
253
  6
CONTINUOUS
 10
-2.9532901705
 20
-22.2835018868
 11
-2.9541868053
 21
-22.2276779167
  0
LINE
  5
3E2
100
AcDbEntity
  8
0
100
AcDbLine
 62
253
  6
CONTINUOUS
 10
-2.7046182102
 20
-21.9774870087
 11
-2.7057777767
 21
-21.8773513778
  0
LINE
  5
3E3
100
AcDbEntity
  8
0
100
AcDbLine
 62
253
  6
CONTINUOUS
 10
-2.9541868053
 20
-22.2276779167
 11
-2.9554054409
 21
-22.1077600934
  0
LINE
  5
3E4
100
AcDbEntity
  8
0
100
AcDbLine
 62
253
  6
CONTINUOUS
 10
-2.7057777767
 20
-21.8773513778
 11
-2.707196004
 21
-21.6538167356
  0
LINE
  5
3E5
100
AcDbEntity
  8
0
100
AcDbLine
 62
253
  6
CONTINUOUS
 10
-2.9554054409
 20
-22.1077600934
 11
-2.9571848163
 21
-21.761570089
  0
LINE
  5
3E6
100
AcDbEntity
  8
0
100
AcDbLine
 62
253
  6
CONTINUOUS
 10
-2.707196004
 20
-21.6538167356
 11
-2.7078284125
 21
-21.3321897908
  0
LINE
  5
3E7
100
AcDbEntity
  8
0
100
AcDbLine
 62
253
  6
CONTINUOUS
 10
-3.6533833252
 20
23.5450293307
 11
-3.6533833252
 21
22.1949912545
  0
LINE
  5
3E8
100
AcDbEntity
  8
0
100
AcDbLine
 62
253
  6
CONTINUOUS
 10
-3.6533833252
 20
-22.4087767907
 11
-3.6533833252
 21
-23.7588148669
  0
LINE
  5
3E9
100
AcDbEntity
  8
0
100
AcDbLine
 62
7
  6
CONTINUOUS
 10
-3.5727224127
 20
-23.8394757794
 11
-3.5727224127
 21
-22.4894377032
  0
LINE
  5
3EA
100
AcDbEntity
  8
0
100
AcDbLine
 62
7
  6
CONTINUOUS
 10
-3.5727224127
 20
22.275652167
 11
-3.5727224127
 21
23.6256902432
  0
LINE
  5
3EB
100
AcDbEntity
  8
IMPORT_IGES
100
AcDbLine
 62
253
  6
CONTINUOUS
 10
-3.3227224127
 20
15.1474329161
 11
-3.3227224127
 21
15.4192898293
  0
LINE
  5
3EC
100
AcDbEntity
  8
IMPORT_IGES
100
AcDbLine
 62
253
  6
CONTINUOUS
 10
-3.3227224127
 20
16.1669246345
 11
-3.3227224127
 21
16.4387815477
  0
LINE
  5
3ED
100
AcDbEntity
  8
0
100
AcDbLine
 62
253
  6
CONTINUOUS
 10
-2.9571848163
 20
-21.761570089
 11
-2.9578188933
 21
-21.094161446
  0
LINE
  5
3EE
100
AcDbEntity
  8
IMPORT_IGES
100
AcDbLine
 62
7
  6
CONTINUOUS
 10
-2.8489050101
 20
16.1669246345
 11
-2.8489050101
 21
15.4192898293
  0
LINE
  5
3EF
100
AcDbEntity
  8
IMPORT_IGES
100
AcDbLine
 62
253
  6
CONTINUOUS
 10
-2.8470376505
 20
16.1687919942
 11
-2.8470376505
 21
15.4174224697
  0
LINE
  5
3F0
100
AcDbEntity
  8
IMPORT_IGES
100
AcDbLine
 62
253
  6
CONTINUOUS
 10
-2.7955245767
 20
15.3973948399
 11
-2.7955245767
 21
15.1474329161
  0
LINE
  5
3F1
100
AcDbEntity
  8
0
100
AcDbLine
 62
7
  6
CONTINUOUS
 10
-2.7078284125
 20
-21.3321897908
 11
-2.7078284125
 21
-21.0919987679
  0
LINE
  5
3F2
100
AcDbEntity
  8
0
100
AcDbLine
 62
7
  6
CONTINUOUS
 10
-2.7078284125
 20
20.8782132317
 11
-2.7078284125
 21
21.1184042546
  0
LINE
  5
3F3
100
AcDbEntity
  8
IMPORT_IGES
100
AcDbLine
 62
253
  6
CONTINUOUS
 10
-2.6945793259
 20
-0.1849216263
 11
-2.6945793259
 21
-1.5288639099
  0
LINE
  5
3F4
100
AcDbEntity
  8
IMPORT_IGES
100
AcDbLine
 62
253
  6
CONTINUOUS
 10
-2.6945793259
 20
-3.6849216263
 11
-2.6945793259
 21
-5.0288639099
  0
LINE
  5
3F5
100
AcDbEntity
  8
IMPORT_IGES
100
AcDbLine
 62
253
  6
CONTINUOUS
 10
-2.6945793259
 20
-7.1849216263
 11
-2.6945793259
 21
-8.5288639099
  0
LINE
  5
3F6
100
AcDbEntity
  8
IMPORT_IGES
100
AcDbLine
 62
253
  6
CONTINUOUS
 10
-2.6945793259
 20
-10.6849216263
 11
-2.6945793259
 21
-12.0288639099
  0
LINE
  5
3F7
100
AcDbEntity
  8
IMPORT_IGES
100
AcDbLine
 62
253
  6
CONTINUOUS
 10
-2.6945793259
 20
-14.1849216263
 11
-2.6945793259
 21
-15.5288639099
  0
LINE
  5
3F8
100
AcDbEntity
  8
0
100
AcDbLine
 62
7
  6
CONTINUOUS
 10
-2.6227224127
 20
22.0256521655
 11
-2.6227224127
 21
21.5931072319
  0
LINE
  5
3F9
100
AcDbEntity
  8
0
100
AcDbLine
 62
7
  6
CONTINUOUS
 10
-2.6227224127
 20
-21.8068927681
 11
-2.6227224127
 21
-22.2394377017
  0
LINE
  5
3FA
100
AcDbEntity
  8
IMPORT_IGES
100
AcDbLine
 62
253
  6
CONTINUOUS
 10
-2.4470985724
 20
15.4105622968
 11
-2.4470985724
 21
16.175652167
  0
LINE
  5
3FB
100
AcDbEntity
  8
IMPORT_IGES
100
AcDbLine
 62
253
  6
CONTINUOUS
 10
-2.4446174021
 20
-15.5288639099
 11
-2.4446174021
 21
-14.1849216263
  0
LINE
  5
3FC
100
AcDbEntity
  8
IMPORT_IGES
100
AcDbLine
 62
253
  6
CONTINUOUS
 10
-2.4446174021
 20
-12.0288639099
 11
-2.4446174021
 21
-10.6849216263
  0
LINE
  5
3FD
100
AcDbEntity
  8
IMPORT_IGES
100
AcDbLine
 62
253
  6
CONTINUOUS
 10
-2.4446174021
 20
-8.5288639099
 11
-2.4446174021
 21
-7.1849216263
  0
LINE
  5
3FE
100
AcDbEntity
  8
IMPORT_IGES
100
AcDbLine
 62
253
  6
CONTINUOUS
 10
-2.4446174021
 20
-5.0288639099
 11
-2.4446174021
 21
-3.6849216263
  0
LINE
  5
3FF
100
AcDbEntity
  8
IMPORT_IGES
100
AcDbLine
 62
253
  6
CONTINUOUS
 10
-2.4446174021
 20
-1.5288639099
 11
-2.4446174021
 21
-0.1849216263
  0
LINE
  5
400
100
AcDbEntity
  8
IMPORT_IGES
100
AcDbLine
 62
7
  6
CONTINUOUS
 10
-2.4227224127
 20
-15.5069689205
 11
-2.4227224127
 21
-14.2068166157
  0
LINE
  5
401
100
AcDbEntity
  8
IMPORT_IGES
100
AcDbLine
 62
7
  6
CONTINUOUS
 10
-2.4227224127
 20
-12.0069689205
 11
-2.4227224127
 21
-10.7068166157
  0
LINE
  5
402
100
AcDbEntity
  8
IMPORT_IGES
100
AcDbLine
 62
7
  6
CONTINUOUS
 10
-2.4227224127
 20
-8.5069689205
 11
-2.4227224127
 21
-7.2068166157
  0
LINE
  5
403
100
AcDbEntity
  8
IMPORT_IGES
100
AcDbLine
 62
7
  6
CONTINUOUS
 10
-2.4227224127
 20
-5.0069689205
 11
-2.4227224127
 21
-3.7068166157
  0
LINE
  5
404
100
AcDbEntity
  8
IMPORT_IGES
100
AcDbLine
 62
7
  6
CONTINUOUS
 10
-2.4227224127
 20
-1.5069689205
 11
-2.4227224127
 21
-0.2068166157
  0
LINE
  5
405
100
AcDbEntity
  8
0
100
AcDbLine
 62
253
  6
CONTINUOUS
 10
-2.1769350507
 20
-6.8608122431
 11
-2.1769350485
 21
-6.7766296561
  0
LINE
  5
406
100
AcDbEntity
  8
0
100
AcDbLine
 62
253
  6
CONTINUOUS
 10
-2.09454339
 20
-8.7068927681
 11
-2.09454339
 21
-7.5068927681
  0
LINE
  5
407
100
AcDbEntity
  8
0
100
AcDbLine
 62
253
  6
CONTINUOUS
 10
-2.0007965563
 20
-6.7608160507
 11
-2.0007965563
 21
-6.8608122431
  0
LINE
  5
408
100
AcDbEntity
  8
0
100
AcDbLine
 62
7
  6
CONTINUOUS
 10
-1.9945471977
 20
-8.7068927681
 11
-1.9945471977
 21
-7.5068927681
  0
LINE
  5
409
100
AcDbEntity
  8
0
100
AcDbLine
 62
7
  6
CONTINUOUS
 10
-1.9881349344
 20
-7.5068927681
 11
-1.9881349344
 21
-8.7068927681
  0
LINE
  5
40A
100
AcDbEntity
  8
IMPORT_IGES
100
AcDbLine
 62
253
  6
CONTINUOUS
 10
-1.9446935545
 20
-16.2787496813
 11
-1.9446935545
 21
-16.0287877575
  0
LINE
  5
40B
100
AcDbEntity
  8
IMPORT_IGES
100
AcDbLine
 62
253
  6
CONTINUOUS
 10
-1.9446935545
 20
-13.6849977787
 11
-1.9446935545
 21
-13.4350358549
  0
LINE
  5
40C
100
AcDbEntity
  8
IMPORT_IGES
100
AcDbLine
 62
253
  6
CONTINUOUS
 10
-1.9446935545
 20
-12.7787496813
 11
-1.9446935545
 21
-12.5287877575
  0
LINE
  5
40D
100
AcDbEntity
  8
IMPORT_IGES
100
AcDbLine
 62
253
  6
CONTINUOUS
 10
-1.9446935545
 20
-10.1849977787
 11
-1.9446935545
 21
-9.9350358549
  0
LINE
  5
40E
100
AcDbEntity
  8
IMPORT_IGES
100
AcDbLine
 62
253
  6
CONTINUOUS
 10
-1.9446935545
 20
-9.2787496813
 11
-1.9446935545
 21
-9.0287877575
  0
LINE
  5
40F
100
AcDbEntity
  8
IMPORT_IGES
100
AcDbLine
 62
253
  6
CONTINUOUS
 10
-1.9446935545
 20
-6.6849977787
 11
-1.9446935545
 21
-6.4350358549
  0
LINE
  5
410
100
AcDbEntity
  8
IMPORT_IGES
100
AcDbLine
 62
253
  6
CONTINUOUS
 10
-1.9446935545
 20
-5.7787496813
 11
-1.9446935545
 21
-5.5287877575
  0
LINE
  5
411
100
AcDbEntity
  8
IMPORT_IGES
100
AcDbLine
 62
253
  6
CONTINUOUS
 10
-1.9446935545
 20
-3.1849977787
 11
-1.9446935545
 21
-2.9350358549
  0
LINE
  5
412
100
AcDbEntity
  8
IMPORT_IGES
100
AcDbLine
 62
253
  6
CONTINUOUS
 10
-1.9446935545
 20
-2.2787496813
 11
-1.9446935545
 21
-2.0287877575
  0
LINE
  5
413
100
AcDbEntity
  8
IMPORT_IGES
100
AcDbLine
 62
253
  6
CONTINUOUS
 10
-1.9446935545
 20
0.3150022213
 11
-1.9446935545
 21
0.5649641451
  0
LINE
  5
414
100
AcDbEntity
  8
0
100
AcDbLine
 62
253
  6
CONTINUOUS
 10
-2.9578188933
 20
20.8803759098
 11
-2.9567052833
 21
21.6762134964
  0
LINE
  5
415
100
AcDbEntity
  8
0
100
AcDbLine
 62
253
  6
CONTINUOUS
 10
-2.7078284125
 20
21.1184042546
 11
-2.7069722515
 21
21.4891863865
  0
LINE
  5
416
100
AcDbEntity
  8
0
100
AcDbLine
 62
253
  6
CONTINUOUS
 10
-2.7069722515
 20
21.4891863865
 11
-2.7057777767
 21
21.6635658417
  0
LINE
  5
417
100
AcDbEntity
  8
0
100
AcDbLine
 62
253
  6
CONTINUOUS
 10
-2.9567052833
 20
21.6762134964
 11
-2.9550195303
 21
21.938505181
  0
LINE
  5
418
100
AcDbEntity
  8
0
100
AcDbLine
 62
253
  6
CONTINUOUS
 10
-2.7057777767
 20
21.6635658417
 11
-2.7046182102
 21
21.7637014726
  0
LWPOLYLINE
  5
419
100
AcDbEntity
  8
0
100
AcDbPolyline
 62
253
  6
CONTINUOUS
 90
7
 70
0
 10
-2.9550195303
 20
21.938505181
 10
-2.953746416
 20
22.0443363248
 10
-2.9532901705
 20
22.0697163507
 10
-2.9528254637
 20
22.089893721
 10
-2.9523547607
 20
22.1047580782
 10
-2.9518755965
 20
22.1142280913
 10
-2.9513879711
 20
22.1182519497
  0
LWPOLYLINE
  5
41A
100
AcDbEntity
  8
0
100
AcDbPolyline
 62
253
  6
CONTINUOUS
 90
7
 70
0
 10
-2.7046182102
 20
21.7637014726
 10
-2.7037517714
 20
21.8129693742
 10
-2.7032945361
 20
21.8320621125
 10
-2.702829669
 20
21.8471714727
 10
-2.7023599078
 20
21.8581943685
 10
-2.7018825149
 20
21.8652338862
 10
-2.7013974903
 20
21.868290026
  0
LINE
  5
41B
100
AcDbEntity
  8
0
100
AcDbLine
 62
7
  6
CONTINUOUS
 10
-2.6900256262
 20
21.5258040184
 11
-2.7055009735
 21
20.8803759098
  0
LWPOLYLINE
  5
41C
100
AcDbEntity
  8
IMPORT_IGES
100
AcDbPolyline
 62
253
  6
CONTINUOUS
 90
25
 70
0
 10
-2.6945793259
 20
-0.1849216263
 10
-2.6926697498
 20
-0.1355287644
 10
-2.6876654892
 20
-0.0867626508
 10
-2.6795665443
 20
-0.0386232852
 10
-2.6683055908
 20
0.0090773713
 10
-2.6539499528
 20
0.0561512796
 10
-2.6367016033
 20
0.1020343224
 10
-2.6165639571
 20
0.1467420818
 10
-2.5935335993
 20
0.1902589755
 10
-2.5678022576
 20
0.2319741401
 10
-2.5392947004
 20
0.2718540853
 10
-2.5080861593
 20
0.3099323012
 10
-2.4745940565
 20
0.3456983953
 10
-2.4387849014
 20
0.3791097297
 10
-2.4006921846
 20
0.4102089422
 10
-2.3608338
 20
0.4386135539
 10
-2.3191896078
 20
0.4642633696
 10
-2.2757797478
 20
0.4872185845
 10
-2.2311825333
 20
0.5072773042
 10
-2.1854102862
 20
0.5244253897
 10
-2.1384506846
 20
0.53867698
 10
-2.0908450759
 20
0.5498725985
 10
-2.0427739092
 20
0.557959086
 10
-1.9940567354
 20
0.5629896015
 10
-1.9446935545
 20
0.5649641451
  0
LWPOLYLINE
  5
41D
100
AcDbEntity
  8
IMPORT_IGES
100
AcDbPolyline
 62
253
  6
CONTINUOUS
 90
25
 70
0
 10
-2.6945793259
 20
-7.1849216263
 10
-2.6926694995
 20
-7.1355287219
 10
-2.6876650881
 20
-7.086762582
 10
-2.6795660915
 20
-7.0386232067
 10
-2.6683052304
 20
-6.9909225619
 10
-2.6539497841
 20
-6.9438486817
 10
-2.6367015913
 20
-6.8979656682
 10
-2.61656402
 20
-6.8532579407
 10
-2.5935337022
 20
-6.8097410799
 10
-2.5678023724
 20
-6.7680259303
 10
-2.539294788
 20
-6.7281459731
 10
-2.5080861916
 20
-6.6900677272
 10
-2.4745940452
 20
-6.6543015931
 10
-2.4387848737
 20
-6.6208901947
 10
-2.4006921521
 20
-6.5897909082
 10
-2.360833768
 20
-6.5613862625
 10
-2.3191895798
 20
-6.5357364838
 10
-2.275779729
 20
-6.5127813459
 10
-2.2311825276
 20
-6.4927226987
 10
-2.1854103027
 20
-6.4755746759
 10
-2.1384507271
 20
-6.4613231438
 10
-2.0908451314
 20
-6.4501275508
 10
-2.0427739592
 20
-6.4420410464
 10
-1.9940567669
 20
-6.4370104811
 10
-1.9446935545
 20
-6.4350358549
  0
LWPOLYLINE
  5
41E
100
AcDbEntity
  8
IMPORT_IGES
100
AcDbPolyline
 62
253
  6
CONTINUOUS
 90
25
 70
0
 10
-2.6945793259
 20
-14.1849216263
 10
-2.6926692888
 20
-14.135528686
 10
-2.6876647502
 20
-14.086762524
 10
-2.6795657102
 20
-14.0386231405
 10
-2.6683049268
 20
-13.9909225056
 10
-2.6539496419
 20
-13.9438486491
 10
-2.6367015812
 20
-13.8979656603
 10
-2.616564073
 20
-13.8532579595
 10
-2.5935337889
 20
-13.8097411265
 10
-2.5678024692
 20
-13.7680259895
 10
-2.5392948619
 20
-13.7281460222
 10
-2.5080862188
 20
-13.690067751
 10
-2.4745940357
 20
-13.6543015833
 10
-2.4387848503
 20
-13.6208901311
 10
-2.4006921248
 20
-13.5897907823
 10
-2.3608337411
 20
-13.5613861078
 10
-2.3191895562
 20
-13.5357363604
 10
-2.2757797132
 20
-13.5127812873
 10
-2.2311825228
 20
-13.4927227011
 10
-2.1854103165
 20
-13.4755747311
 10
-2.1384507629
 20
-13.4613232481
 10
-2.0908451783
 20
-13.4501276765
 10
-2.0427740014
 20
-13.4420411579
 10
-1.9940567935
 20
-13.4370105507
 10
-1.9446935545
 20
-13.4350358549
  0
LWPOLYLINE
  5
41F
100
AcDbEntity
  8
IMPORT_IGES
100
AcDbPolyline
 62
253
  6
CONTINUOUS
 90
25
 70
0
 10
-2.6945793259
 20
-3.6849216263
 10
-2.692609187
 20
-3.6355246832
 10
-2.6875682267
 20
-3.5867553859
 10
-2.679456445
 20
-3.5386137344
 10
-2.6682202827
 20
-3.4909105892
 10
-2.6539132989
 20
-3.4438350898
 10
-2.6366961714
 20
-3.397954654
 10
-2.6165492514
 20
-3.3532590815
 10
-2.5934921877
 20
-3.3097585727
 10
-2.5677446046
 20
-3.268051146
 10
-2.5392440984
 20
-3.2281631193
 10
-2.5080530728
 20
-3.1900681748
 10
-2.4745783636
 20
-3.1542853773
 10
-2.4387857669
 20
-3.1208568131
 10
-2.4007094866
 20
-3.0897403959
 10
-2.3608589698
 20
-3.0613289316
 10
-2.3192070008
 20
-3.0356952864
 10
-2.2757807953
 20
-3.0127665942
 10
-2.231171447
 20
-2.992717063
 10
-2.1853966535
 20
-2.9755379038
 10
-2.1384387171
 20
-2.9612379056
 10
-2.0908356389
 20
-2.950017644
 10
-2.0427667526
 20
-2.9419439776
 10
-1.9940527245
 20
-2.9369500479
 10
-1.9446935545
 20
-2.9350358549
  0
LWPOLYLINE
  5
420
100
AcDbEntity
  8
IMPORT_IGES
100
AcDbPolyline
 62
253
  6
CONTINUOUS
 90
25
 70
0
 10
-2.6945793259
 20
-10.6849216263
 10
-2.6926091103
 20
-10.635524654
 10
-2.6875681039
 20
-10.5867553395
 10
-2.6794563066
 20
-10.5386136829
 10
-2.6682201681
 20
-10.4909105499
 10
-2.6539132388
 20
-10.4438350748
 10
-2.6366961697
 20
-10.3979546596
 10
-2.6165493167
 20
-10.3532590993
 10
-2.593492324
 20
-10.3097585989
 10
-2.5677447749
 20
-10.2680511758
 10
-2.5392442366
 20
-10.2281631494
 10
-2.508053142
 20
-10.1900682003
 10
-2.4745783733
 20
-10.1542853874
 10
-2.4387857398
 20
-10.1208567826
 10
-2.4007094324
 20
-10.0897403139
 10
-2.3608589048
 20
-10.0613288247
 10
-2.3192069499
 20
-10.0356951912
 10
-2.275780775
 20
-10.012766537
 10
-2.2311714562
 20
-9.9927170758
 10
-2.1853966897
 20
-9.9755380615
 10
-2.1384387792
 20
-9.9612382401
 10
-2.0908357117
 20
-9.9500180635
 10
-2.0427668163
 20
-9.9419443492
 10
-1.9940527639
 20
-9.9369502796
 10
-1.9446935545
 20
-9.9350358549
  0
LWPOLYLINE
  5
421
100
AcDbEntity
  8
IMPORT_IGES
100
AcDbPolyline
 62
253
  6
CONTINUOUS
 90
16
 70
0
 10
-2.4446174021
 20
-0.1849216263
 10
-2.4418599195
 20
-0.1326375543
 10
-2.4336501975
 20
-0.0809298968
 10
-2.4200792072
 20
-0.030365564
 10
-2.4012928937
 20
0.0185097205
 10
-2.3775001267
 20
0.0651511467
 10
-2.3489790759
 20
0.1090250992
 10
-2.3160689135
 20
0.1496355566
 10
-2.2791228791
 20
0.1865688826
 10
-2.2385060344
 20
0.2194614872
 10
-2.1946331355
 20
0.247961903
 10
-2.1480010554
 20
0.2717329007
 10
-2.0991439679
 20
0.2904983905
 10
-2.0486067335
 20
0.3040517391
 10
-1.9969345869
 20
0.312249276
 10
-1.9446935545
 20
0.3150022213
  0
LWPOLYLINE
  5
422
100
AcDbEntity
  8
IMPORT_IGES
100
AcDbPolyline
 62
253
  6
CONTINUOUS
 90
16
 70
0
 10
-2.4446174021
 20
-3.6849216263
 10
-2.4418645412
 20
-3.6326813952
 10
-2.4336672201
 20
-3.5810098579
 10
-2.4201141616
 20
-3.5304730286
 10
-2.4013489625
 20
-3.4816161029
 10
-2.3775782097
 20
-3.4349839947
 10
-2.3490780169
 20
-3.3911110025
 10
-2.3161856272
 20
-3.3504940387
 10
-2.2792524738
 20
-3.3135478316
 10
-2.2386421354
 20
-3.2806374542
 10
-2.194768276
 20
-3.2521161804
 10
-2.1481268779
 20
-3.2283231683
 10
-2.0992514317
 20
-3.2095365641
 10
-2.0486866939
 20
-3.1959652836
 10
-1.9969784274
 20
-3.1877553458
 10
-1.9446935545
 20
-3.1849977787
  0
LWPOLYLINE
  5
423
100
AcDbEntity
  8
IMPORT_IGES
100
AcDbPolyline
 62
253
  6
CONTINUOUS
 90
16
 70
0
 10
-2.4446174021
 20
-7.1849216263
 10
-2.4418599244
 20
-7.1326376013
 10
-2.4336502157
 20
-7.0809299824
 10
-2.4200792446
 20
-7.0303656788
 10
-2.4012929536
 20
-6.9814904139
 10
-2.37750021
 20
-6.9348489974
 10
-2.3489791814
 20
-6.8909750458
 10
-2.3160690379
 20
-6.8503645814
 10
-2.2791230173
 20
-6.8134312417
 10
-2.2385061795
 20
-6.7805386182
 10
-2.1946332793
 20
-6.75203818
 10
-2.148001189
 20
-6.7282671588
 10
-2.0991440817
 20
-6.7095016465
 10
-2.0486068181
 20
-6.6959482789
 10
-1.9969346332
 20
-6.6877507289
 10
-1.9446935545
 20
-6.6849977787
  0
LINE
  5
424
100
AcDbEntity
  8
IMPORT_IGES
100
AcDbLine
 62
7
  6
CONTINUOUS
 10
7.1133030707
 20
7.7780422047
 11
7.1132305773
 21
7.7780011984
  0
LINE
  5
425
100
AcDbEntity
  8
IMPORT_IGES
100
AcDbLine
 62
7
  6
CONTINUOUS
 10
7.1355980663
 20
-3.7846419796
 11
6.9892775873
 21
-3.7846506917
  0
LINE
  5
426
100
AcDbEntity
  8
IMPORT_IGES
100
AcDbLine
 62
253
  6
CONTINUOUS
 10
-2.6945793259
 20
-3.6849216263
 11
-2.4446174021
 21
-3.6849216263
  0
LINE
  5
427
100
AcDbEntity
  8
IMPORT_IGES
100
AcDbLine
 62
253
  6
CONTINUOUS
 10
0.8991725767
 20
-3.6849216263
 11
1.1491345005
 21
-3.6849216263
  0
LINE
  5
428
100
AcDbEntity
  8
IMPORT_IGES
100
AcDbLine
 62
7
  6
CONTINUOUS
 10
-1.9227985651
 20
-3.2068927681
 11
0.3773537397
 21
-3.2068927681
  0
LINE
  5
429
100
AcDbEntity
  8
IMPORT_IGES
100
AcDbLine
 62
253
  6
CONTINUOUS
 10
-1.9446935545
 20
-3.1849977787
 11
0.3992487291
 21
-3.1849977787
  0
LINE
  5
42A
100
AcDbEntity
  8
IMPORT_IGES
100
AcDbLine
 62
253
  6
CONTINUOUS
 10
0.3992487291
 20
-2.9350358549
 11
-1.9446935545
 21
-2.9350358549
  0
LINE
  5
42B
100
AcDbEntity
  8
IMPORT_IGES
100
AcDbLine
 62
253
  6
CONTINUOUS
 10
-1.9446935545
 20
-2.2787496813
 11
0.3992487291
 21
-2.2787496813
  0
LINE
  5
42C
100
AcDbEntity
  8
IMPORT_IGES
100
AcDbLine
 62
253
  6
CONTINUOUS
 10
0.3992487291
 20
-2.0287877575
 11
-1.9446935545
 21
-2.0287877575
  0
LINE
  5
42D
100
AcDbEntity
  8
IMPORT_IGES
100
AcDbLine
 62
7
  6
CONTINUOUS
 10
0.3773537397
 20
-2.0068927681
 11
-1.9227985651
 21
-2.0068927681
  0
LWPOLYLINE
  5
42E
100
AcDbEntity
  8
IMPORT_IGES
100
AcDbPolyline
 62
253
  6
CONTINUOUS
 90
25
 70
0
 10
0.3992487291
 20
-2.9350358549
 10
0.4486416039
 20
-2.9369455074
 10
0.4974077256
 20
-2.9419498139
 10
0.5455470941
 20
-2.9500487746
 10
0.593247747
 20
-2.9613097
 10
0.6403216468
 20
-2.9756652795
 10
0.6862046807
 20
-2.9929135812
 10
0.7309124303
 20
-3.0130512045
 10
0.774429314
 20
-3.0360815501
 10
0.816144474
 20
-3.0618128882
 10
0.8560244228
 20
-3.0903204537
 10
0.8941026479
 20
-3.1215290117
 10
0.9298687542
 20
-3.1550211278
 10
0.9632801081
 20
-3.1908302879
 10
0.9943793432
 20
-3.2289230061
 10
1.0227839653
 20
-3.2687813906
 10
1.0484337697
 20
-3.3104255815
 10
1.0713889611
 20
-3.3538354387
 10
1.0914476587
 20
-3.3984326492
 10
1.108595725
 20
-3.4442048896
 10
1.1228472976
 20
-3.4911644832
 10
1.1340429083
 20
-3.538770088
 10
1.1421294009
 20
-3.5868412563
 10
1.1471599317
 20
-3.6355584358
 10
1.1491345005
 20
-3.6849216263
  0
LWPOLYLINE
  5
42F
100
AcDbEntity
  8
IMPORT_IGES
100
AcDbPolyline
 62
253
  6
CONTINUOUS
 90
25
 70
0
 10
-1.9446935545
 20
-2.2787496813
 10
-1.9940864264
 20
-2.2768400459
 10
-2.0428525463
 20
-2.2718357496
 10
-2.0909919141
 20
-2.2637367925
 10
-2.1386925679
 20
-2.2524758608
 10
-2.1857664696
 20
-2.2381202682
 10
-2.2316495055
 20
-2.2208719558
 10
-2.2763572572
 20
-2.2007343274
 10
-2.3198741432
 20
-2.177703979
 10
-2.3615893043
 20
-2.1519726401
 10
-2.4014692522
 20
-2.1234650765
 10
-2.4395474753
 20
-2.0922565223
 10
-2.4753135789
 20
-2.0587644092
 10
-2.5087249284
 20
-2.0229552502
 10
-2.5398241584
 20
-1.9848625322
 10
-2.5682287782
 20
-1.9450041478
 10
-2.5938785851
 20
-1.9033599565
 10
-2.6168337817
 20
-1.8599500987
 10
-2.6368924843
 20
-1.8153528873
 10
-2.6540405549
 20
-1.7695806455
 10
-2.6682921315
 20
-1.72262105
 10
-2.6794877439
 20
-1.6750154444
 10
-2.6875742354
 20
-1.6269442764
 10
-2.6926047627
 20
-1.5782270982
 10
-2.6945793259
 20
-1.5288639099
  0
LWPOLYLINE
  5
430
100
AcDbEntity
  8
IMPORT_IGES
100
AcDbPolyline
 62
253
  6
CONTINUOUS
 90
16
 70
0
 10
0.3992487291
 20
-3.1849977787
 10
0.4515327867
 20
-3.1877552598
 10
0.5032404324
 20
-3.1959649778
 10
0.5538047563
 20
-3.2095359622
 10
0.6026800348
 20
-3.2283222688
 10
0.6493214581
 20
-3.2521150287
 10
0.6931954103
 20
-3.2806360727
 10
0.7338058699
 20
-3.3135462294
 10
0.7707392
 20
-3.3504922595
 10
0.8036318104
 20
-3.3911091021
 10
0.832132233
 20
-3.4349820014
 10
0.855903238
 20
-3.4816140846
 10
0.8746687345
 20
-3.5304711782
 10
0.888222089
 20
-3.5810084215
 10
0.8964196298
 20
-3.6326805797
 10
0.8991725767
 20
-3.6849216263
  0
LWPOLYLINE
  5
431
100
AcDbEntity
  8
IMPORT_IGES
100
AcDbPolyline
 62
253
  6
CONTINUOUS
 90
16
 70
0
 10
-1.9446935545
 20
-2.0287877575
 10
-1.9969776154
 20
-2.026030276
 10
-2.0486852637
 20
-2.0178205572
 10
-2.0992495896
 20
-2.0042495714
 10
-2.1481248694
 20
-1.9854632632
 10
-2.1947662934
 20
-1.9616705018
 10
-2.2386402456
 20
-1.9331494563
 10
-2.2792507047
 20
-1.9002392983
 10
-2.316184034
 20
-1.8632932672
 10
-2.349076643
 20
-1.8226764242
 10
-2.3775770642
 20
-1.7788035249
 10
-2.4013480675
 20
-1.7321714424
 10
-2.4201135625
 20
-1.6833143502
 10
-2.4336669156
 20
-1.6327771089
 10
-2.4418644556
 20
-1.5811049533
 10
-2.4446174021
 20
-1.5288639099
  0
LINE
  5
432
100
AcDbEntity
  8
IMPORT_IGES
100
AcDbLine
 62
7
  6
CONTINUOUS
 10
7.1306251234
 20
-5.0282721403
 11
7.1305675222
 21
-5.0282554346
  0
LINE
  5
433
100
AcDbEntity
  8
IMPORT_IGES
100
AcDbLine
 62
253
  6
CONTINUOUS
 10
-1.9446935545
 20
-3.1849977787
 11
-1.9227985651
 21
-3.2068927681
  0
LINE
  5
434
100
AcDbEntity
  8
IMPORT_IGES
100
AcDbLine
 62
253
  6
CONTINUOUS
 10
0.3992487291
 20
-5.5287877575
 11
0.3773537397
 21
-5.5068927681
  0
LINE
  5
435
100
AcDbEntity
  8
IMPORT_IGES
100
AcDbLine
 62
253
  6
CONTINUOUS
 10
0.8772775873
 20
-5.0069689205
 11
0.8991725767
 21
-5.0288639099
  0
LWPOLYLINE
  5
436
100
AcDbEntity
  8
0
100
AcDbPolyline
 62
7
  6
CONTINUOUS
 90
3
 70
0
 10
-1.9744601021
 20
-8.9353635303
 10
-1.9667782634
 20
-8.99212524
 10
-1.964726386
 20
-9.0044940164
  0
LWPOLYLINE
  5
437
100
AcDbEntity
  8
IMPORT_IGES
100
AcDbPolyline
 62
7
  6
CONTINUOUS
 90
3
 70
0
 10
-2.8747314678
 20
15.4797201107
 10
-2.8714409142
 20
15.4327773778
 10
-2.8712546941
 20
15.4192898293
  0
LWPOLYLINE
  5
438
100
AcDbEntity
  8
0
100
AcDbPolyline
 62
7
  6
CONTINUOUS
 90
16
 70
0
 10
0.7272775873
 20
-23.8569308443
 10
0.7286269995
 20
-23.8828737512
 10
0.7326832704
 20
-23.9086407853
 10
0.7394352729
 20
-23.9339463526
 10
0.7488811771
 20
-23.9585937562
 10
0.7609270549
 20
-23.9822002142
 10
0.7752944436
 20
-24.004247359
 10
0.7916258523
 20
-24.0243577795
 10
0.8098125759
 20
-24.0425445031
 10
0.8299229963
 20
-24.0588759117
 10
0.8519701412
 20
-24.0732433004
 10
0.8755765992
 20
-24.0852891782
 10
0.9002240027
 20
-24.0947350824
 10
0.92552957
 20
-24.101487085
 10
0.9512966041
 20
-24.1055433559
 10
0.9772395111
 20
-24.1068927681
  0
LINE
  5
439
100
AcDbEntity
  8
0
100
AcDbLine
 62
7
  6
CONTINUOUS
 10
-1.8227224127
 20
-7.5068927681
 11
-1.8227224127
 21
-8.7068927681
  0
LINE
  5
43A
100
AcDbEntity
  8
IMPORT_IGES
100
AcDbLine
 62
253
  6
CONTINUOUS
 10
-1.698346253
 20
16.175652167
 11
-1.698346253
 21
15.4105622968
  0
LINE
  5
43B
100
AcDbEntity
  8
IMPORT_IGES
100
AcDbLine
 62
253
  6
CONTINUOUS
 10
-1.3499202487
 20
15.1474329161
 11
-1.3499202487
 21
15.3973948399
  0
LINE
  5
43C
100
AcDbEntity
  8
IMPORT_IGES
100
AcDbLine
 62
253
  6
CONTINUOUS
 10
-1.298407175
 20
15.4174224697
 11
-1.298407175
 21
16.1687919942
  0
LINE
  5
43D
100
AcDbEntity
  8
IMPORT_IGES
100
AcDbLine
 62
7
  6
CONTINUOUS
 10
-1.2965398153
 20
15.4192898293
 11
-1.2965398153
 21
16.1669246345
  0
LINE
  5
43E
100
AcDbEntity
  8
IMPORT_IGES
100
AcDbLine
 62
7
  6
CONTINUOUS
 10
-1.0977224127
 20
16.1669246345
 11
-1.0977224127
 21
15.4192898293
  0
LINE
  5
43F
100
AcDbEntity
  8
DRAFT
100
AcDbLine
 62
7
  6
CONTINUOUS
 10
-0.9727224127
 20
-7.0068927681
 11
-0.9727224127
 21
-9.0068927681
  0
LINE
  5
440
100
AcDbEntity
  8
0
100
AcDbLine
 62
7
  6
CONTINUOUS
 10
-0.8901774776
 20
23.6256902432
 11
-0.8901774776
 21
22.2913619009
  0
LINE
  5
441
100
AcDbEntity
  8
0
100
AcDbLine
 62
7
  6
CONTINUOUS
 10
-0.8901774776
 20
-23.8394757794
 11
-0.8901774776
 21
-22.5051474371
  0
LINE
  5
442
100
AcDbEntity
  8
0
100
AcDbLine
 62
7
  6
CONTINUOUS
 10
-0.8727224127
 20
-23.8569308443
 11
-0.8727224127
 21
-22.5068927681
  0
LINE
  5
443
100
AcDbEntity
  8
0
100
AcDbLine
 62
7
  6
CONTINUOUS
 10
-0.8727224127
 20
22.2931072319
 11
-0.8727224127
 21
23.6431453081
  0
LINE
  5
444
100
AcDbEntity
  8
RACCORDO
100
AcDbLine
 62
253
  6
CONTINUOUS
 10
-0.8468928957
 20
-7.0068927681
 11
-0.8468928957
 21
-9.0068927681
  0
LINE
  5
445
100
AcDbEntity
  8
IMPORT_IGES
100
AcDbLine
 62
253
  6
CONTINUOUS
 10
-0.8227224127
 20
15.4192898293
 11
-0.8227224127
 21
15.1474329161
  0
LINE
  5
446
100
AcDbEntity
  8
IMPORT_IGES
100
AcDbLine
 62
253
  6
CONTINUOUS
 10
-0.8227224127
 20
16.1669246345
 11
-0.8227224127
 21
16.4387815477
  0
LINE
  5
447
100
AcDbEntity
  8
RACCORDO
100
AcDbLine
 62
253
  6
CONTINUOUS
 10
-0.6469614307
 20
-7.0068927681
 11
-0.6469614307
 21
-9.0068927681
  0
LINE
  5
448
100
AcDbEntity
  8
0
100
AcDbLine
 62
7
  6
CONTINUOUS
 10
-1.987279574
 20
-7.4496563776
 11
-1.9881349344
 21
-7.5068927681
  0
LWPOLYLINE
  5
449
100
AcDbEntity
  8
IMPORT_IGES
100
AcDbPolyline
 62
7
  6
CONTINUOUS
 90
10
 70
0
 10
0.6993145764
 20
13.8931072348
 10
0.6995467837
 20
13.8979685349
 10
0.6997771579
 20
13.9022997494
 10
0.700005699
 20
13.9060956331
 10
0.7002301688
 20
13.9093553557
 10
0.7004528054
 20
13.9120701904
 10
0.7006803233
 20
13.9142301921
 10
0.7009149607
 20
13.9158375427
 10
0.7011544794
 20
13.916899848
 10
0.7013988794
 20
13.9174224697
  0
LWPOLYLINE
  5
44A
100
AcDbEntity
  8
0
100
AcDbPolyline
 62
7
  6
CONTINUOUS
 90
16
 70
0
 10
0.7272775873
 20
23.6431453081
 10
0.7286269995
 20
23.6690882151
 10
0.7326832704
 20
23.6948552492
 10
0.7394352729
 20
23.7201608165
 10
0.7488811771
 20
23.74480822
 10
0.7609270549
 20
23.768414678
 10
0.7752944436
 20
23.7904618229
 10
0.7916258523
 20
23.8105722433
 10
0.8098125759
 20
23.8287589669
 10
0.8299229963
 20
23.8450903756
 10
0.8519701412
 20
23.8594577643
 10
0.8755765992
 20
23.8715036421
 10
0.9002240027
 20
23.8809495463
 10
0.92552957
 20
23.8877015488
 10
0.9512966041
 20
23.8917578197
 10
0.9772395111
 20
23.8931072319
  0
LWPOLYLINE
  5
44B
100
AcDbEntity
  8
IMPORT_IGES
100
AcDbPolyline
 62
253
  6
CONTINUOUS
 90
16
 70
0
 10
-2.4446174021
 20
-10.6849216263
 10
-2.4418645367
 20
-10.6326813522
 10
-2.4336672034
 20
-10.5810097795
 10
-2.4201141273
 20
-10.5304729231
 10
-2.4013489073
 20
-10.4816159791
 10
-2.3775781328
 20
-10.4349838614
 10
-2.3490779192
 20
-10.3911108681
 10
-2.316185512
 20
-10.3504939106
 10
-2.2792523458
 20
-10.3135477163
 10
-2.238642001
 20
-10.2806373564
 10
-2.1947681424
 20
-10.2521161031
 10
-2.1481267534
 20
-10.2283231128
 10
-2.0992513252
 20
-10.2095365295
 10
-2.0486866146
 20
-10.1959652667
 10
-1.9969783839
 20
-10.1877553412
 10
-1.9446935545
 20
-10.1849977787
  0
LWPOLYLINE
  5
44C
100
AcDbEntity
  8
IMPORT_IGES
100
AcDbPolyline
 62
253
  6
CONTINUOUS
 90
16
 70
0
 10
-2.4446174021
 20
-14.1849216263
 10
-2.4418599286
 20
-14.1326376408
 10
-2.433650231
 20
-14.0809300544
 10
-2.4200792761
 20
-14.0303657756
 10
-2.401293004
 20
-13.981490527
 10
-2.3775002801
 20
-13.9348491188
 10
-2.3489792702
 20
-13.8909751679
 10
-2.3160691426
 20
-13.8503646977
 10
-2.2791231336
 20
-13.8134313465
 10
-2.2385063016
 20
-13.780538707
 10
-2.1946334004
 20
-13.75203825
 10
-2.1480013015
 20
-13.7282672089
 10
-2.0991441776
 20
-13.7095016777
 10
-2.0486068893
 20
-13.695948294
 10
-1.9969346723
 20
-13.687750733
 10
-1.9446935545
 20
-13.6849977787
  0
LWPOLYLINE
  5
44D
100
AcDbEntity
  8
0
100
AcDbPolyline
 62
7
  6
CONTINUOUS
 90
8
 70
0
 10
-1.9337772697
 20
-7.0538144665
 10
-1.9464171346
 20
-7.1093085412
 10
-1.9574220986
 20
-7.1652610624
 10
-1.9667782634
 20
-7.2216602962
 10
-1.9744601021
 20
-7.2784220059
 10
-1.9804412739
 20
-7.3353880301
 10
-1.9847142568
 20
-7.3924711069
 10
-1.987279574
 20
-7.4496563776
  0
LINE
  5
44E
100
AcDbEntity
  8
0
100
AcDbLine
 62
7
  6
CONTINUOUS
 10
-1.9195231488
 20
-6.9988256767
 11
-1.9337772697
 21
-7.0538144665
  0
LWPOLYLINE
  5
44F
100
AcDbEntity
  8
0
100
AcDbPolyline
 62
253
  6
CONTINUOUS
 90
10
 70
0
 10
10.5141101304
 20
24.179970236
 10
10.5140687277
 20
24.1798896106
 10
10.5140264668
 20
24.1796700038
 10
10.5139833477
 20
24.1793114156
 10
10.5139391093
 20
24.1788203796
 10
10.5138940127
 20
24.1781903622
 10
10.5138488409
 20
24.1774017626
 10
10.5138035703
 20
24.1764494355
 10
10.5137582244
 20
24.1753385263
 10
10.5137136573
 20
24.1740648706
  0
LINE
  5
450
100
AcDbEntity
  8
IMPORT_IGES
100
AcDbLine
 62
253
  6
CONTINUOUS
 10
-2.4446174021
 20
-1.5288639099
 11
-2.4227224127
 21
-1.5069689205
  0
LINE
  5
451
100
AcDbEntity
  8
IMPORT_IGES
100
AcDbLine
 62
253
  6
CONTINUOUS
 10
-1.9227985651
 20
-2.0068927681
 11
-1.9446935545
 21
-2.0287877575
  0
LINE
  5
452
100
AcDbEntity
  8
IMPORT_IGES
100
AcDbLine
 62
253
  6
CONTINUOUS
 10
0.3773537397
 20
0.2931072319
 11
0.3992487291
 21
0.3150022213
  0
LINE
  5
453
100
AcDbEntity
  8
IMPORT_IGES
100
AcDbLine
 62
7
  6
CONTINUOUS
 10
7.1353355921
 20
-0.3381889036
 11
6.9892775873
 21
-0.3382901578
  0
LINE
  5
454
100
AcDbEntity
  8
IMPORT_IGES
100
AcDbLine
 62
253
  6
CONTINUOUS
 10
1.1491345005
 20
-1.5288639099
 11
0.8991725767
 21
-1.5288639099
  0
LINE
  5
455
100
AcDbEntity
  8
IMPORT_IGES
100
AcDbLine
 62
253
  6
CONTINUOUS
 10
-2.4446174021
 20
-1.5288639099
 11
-2.6945793259
 21
-1.5288639099
  0
LINE
  5
456
100
AcDbEntity
  8
IMPORT_IGES
100
AcDbLine
 62
7
  6
CONTINUOUS
 10
7.1354160527
 20
-1.3945187341
 11
6.9892775873
 21
-1.394522193
  0
LINE
  5
457
100
AcDbEntity
  8
IMPORT_IGES
100
AcDbLine
 62
7
  6
CONTINUOUS
 10
7.1300662445
 20
-0.521070591
 11
6.9892775873
 21
-0.5210798223
  0
LINE
  5
458
100
AcDbEntity
  8
IMPORT_IGES
100
AcDbLine
 62
253
  6
CONTINUOUS
 10
-2.6945793259
 20
-0.1849216263
 11
-2.4446174021
 21
-0.1849216263
  0
LINE
  5
459
100
AcDbEntity
  8
IMPORT_IGES
100
AcDbLine
 62
253
  6
CONTINUOUS
 10
0.8991725767
 20
-0.1849216263
 11
1.1491345005
 21
-0.1849216263
  0
LINE
  5
45A
100
AcDbEntity
  8
IMPORT_IGES
100
AcDbLine
 62
7
  6
CONTINUOUS
 10
7.1353180873
 20
-0.1080812101
 11
6.9892775873
 21
-0.1080844091
  0
LINE
  5
45B
100
AcDbEntity
  8
IMPORT_IGES
100
AcDbLine
 62
7
  6
CONTINUOUS
 10
7.1354350066
 20
-1.6431586683
 11
6.9892775873
 21
-1.6430996207
  0
LINE
  5
45C
100
AcDbEntity
  8
IMPORT_IGES
100
AcDbLine
 62
7
  6
CONTINUOUS
 10
7.130118715
 20
-1.2098481281
 11
6.9892775873
 21
-1.2097733952
  0
LINE
  5
45D
100
AcDbEntity
  8
IMPORT_IGES
100
AcDbLine
 62
253
  6
CONTINUOUS
 10
-2.4227224127
 20
-0.2068166157
 11
-2.4446174021
 21
-0.1849216263
  0
LINE
  5
45E
100
AcDbEntity
  8
IMPORT_IGES
100
AcDbLine
 62
253
  6
CONTINUOUS
 10
-1.9446935545
 20
0.3150022213
 11
-1.9227985651
 21
0.2931072319
  0
LINE
  5
45F
100
AcDbEntity
  8
IMPORT_IGES
100
AcDbLine
 62
253
  6
CONTINUOUS
 10
0.3992487291
 20
-2.0287877575
 11
0.3773537397
 21
-2.0068927681
  0
LINE
  5
460
100
AcDbEntity
  8
IMPORT_IGES
100
AcDbLine
 62
253
  6
CONTINUOUS
 10
0.8772775873
 20
-1.5069689205
 11
0.8991725767
 21
-1.5288639099
  0
LWPOLYLINE
  5
461
100
AcDbEntity
  8
0
100
AcDbPolyline
 62
7
  6
CONTINUOUS
 90
16
 70
0
 10
-0.8727224127
 20
23.6431453081
 10
-0.8740718249
 20
23.6690882151
 10
-0.8781280958
 20
23.6948552492
 10
-0.8848800984
 20
23.7201608165
 10
-0.8943260026
 20
23.74480822
 10
-0.9063718804
 20
23.768414678
 10
-0.9207392691
 20
23.7904618229
 10
-0.9370706777
 20
23.8105722433
 10
-0.9552574013
 20
23.8287589669
 10
-0.9753678218
 20
23.8450903756
 10
-0.9974149666
 20
23.8594577643
 10
-1.0210214246
 20
23.8715036421
 10
-1.0456688282
 20
23.8809495463
 10
-1.0709743955
 20
23.8877015488
 10
-1.0967414296
 20
23.8917578197
 10
-1.1226843365
 20
23.8931072319
  0
LWPOLYLINE
  5
462
100
AcDbEntity
  8
IMPORT_IGES
100
AcDbPolyline
 62
7
  6
CONTINUOUS
 90
14
 70
0
 10
0.6880025957
 20
8.3931072319
 10
0.6899295109
 20
8.3557706694
 10
0.6956201024
 20
8.3185028213
 10
0.7050743701
 20
8.2816194397
 10
0.718403281
 20
8.2453659485
 10
0.7354958681
 20
8.210221761
 10
0.7560192305
 20
8.1768411881
 10
0.7800228523
 20
8.1456915995
 10
0.8074572493
 20
8.1169863804
 10
0.8378410684
 20
8.0909847902
 10
0.8711561387
 20
8.0681347777
 10
0.9074206311
 20
8.0487219557
 10
0.9462077062
 20
8.0329388572
 10
0.987375084
 20
8.0212627051
  0
LINE
  5
463
100
AcDbEntity
  8
IMPORT_IGES
100
AcDbLine
 62
253
  6
CONTINUOUS
 10
0.3992487291
 20
0.5649641451
 11
0.3992487291
 21
0.3150022213
  0
LINE
  5
464
100
AcDbEntity
  8
IMPORT_IGES
100
AcDbLine
 62
253
  6
CONTINUOUS
 10
0.3992487291
 20
-2.0287877575
 11
0.3992487291
 21
-2.2787496813
  0
LINE
  5
465
100
AcDbEntity
  8
IMPORT_IGES
100
AcDbLine
 62
253
  6
CONTINUOUS
 10
0.3992487291
 20
-2.9350358549
 11
0.3992487291
 21
-3.1849977787
  0
LINE
  5
466
100
AcDbEntity
  8
IMPORT_IGES
100
AcDbLine
 62
253
  6
CONTINUOUS
 10
0.3992487291
 20
-5.5287877575
 11
0.3992487291
 21
-5.7787496813
  0
LINE
  5
467
100
AcDbEntity
  8
IMPORT_IGES
100
AcDbLine
 62
253
  6
CONTINUOUS
 10
0.3992487291
 20
-6.4350358549
 11
0.3992487291
 21
-6.6849977787
  0
LINE
  5
468
100
AcDbEntity
  8
IMPORT_IGES
100
AcDbLine
 62
253
  6
CONTINUOUS
 10
0.3992487291
 20
-9.0287877575
 11
0.3992487291
 21
-9.2787496813
  0
LINE
  5
469
100
AcDbEntity
  8
IMPORT_IGES
100
AcDbLine
 62
253
  6
CONTINUOUS
 10
0.3992487291
 20
-9.9350358549
 11
0.3992487291
 21
-10.1849977787
  0
LINE
  5
46A
100
AcDbEntity
  8
IMPORT_IGES
100
AcDbLine
 62
253
  6
CONTINUOUS
 10
0.3992487291
 20
-12.5287877575
 11
0.3992487291
 21
-12.7787496813
  0
LINE
  5
46B
100
AcDbEntity
  8
IMPORT_IGES
100
AcDbLine
 62
253
  6
CONTINUOUS
 10
0.3992487291
 20
-13.4350358549
 11
0.3992487291
 21
-13.6849977787
  0
LINE
  5
46C
100
AcDbEntity
  8
IMPORT_IGES
100
AcDbLine
 62
253
  6
CONTINUOUS
 10
0.3992487291
 20
-16.0287877575
 11
0.3992487291
 21
-16.2787496813
  0
LINE
  5
46D
100
AcDbEntity
  8
IMPORT_IGES
100
AcDbLine
 62
253
  6
CONTINUOUS
 10
0.4316032715
 20
13.8931072319
 11
0.4316032715
 21
8.3931072319
  0
LINE
  5
46E
100
AcDbEntity
  8
RACCORDO
100
AcDbLine
 62
253
  6
CONTINUOUS
 10
0.5015166053
 20
-8.9905188266
 11
0.5015166053
 21
-7.0068927681
  0
LINE
  5
46F
100
AcDbEntity
  8
IMPORT_IGES
100
AcDbLine
 62
253
  6
CONTINUOUS
 10
0.6815651953
 20
8.3931072319
 11
0.6815651953
 21
13.8931072319
  0
LINE
  5
470
100
AcDbEntity
  8
IMPORT_IGES
100
AcDbLine
 62
7
  6
CONTINUOUS
 10
0.6877506262
 20
10.4931072319
 11
0.6877506262
 21
8.5123839674
  0
LINE
  5
471
100
AcDbEntity
  8
IMPORT_IGES
100
AcDbLine
 62
7
  6
CONTINUOUS
 10
0.6947326522
 20
13.2687310722
 11
0.6947326522
 21
13.5174833916
  0
LINE
  5
472
100
AcDbEntity
  8
RACCORDO
100
AcDbLine
 62
253
  6
CONTINUOUS
 10
0.7014480702
 20
-8.8868682971
 11
0.7014480702
 21
-7.0068927681
  0
LINE
  5
473
100
AcDbEntity
  8
IMPORT_IGES
100
AcDbLine
 62
7
  6
CONTINUOUS
 10
0.7034601847
 20
11.488094669
 11
0.7034601847
 21
12.8669246345
  0
LINE
  5
474
100
AcDbEntity
  8
0
100
AcDbLine
 62
7
  6
CONTINUOUS
 10
0.7272775873
 20
-23.8569308443
 11
0.7272775873
 21
-22.5068927681
  0
LINE
  5
475
100
AcDbEntity
  8
0
100
AcDbLine
 62
7
  6
CONTINUOUS
 10
0.7272775873
 20
22.2931072319
 11
0.7272775873
 21
23.6431453081
  0
LINE
  5
476
100
AcDbEntity
  8
0
100
AcDbLine
 62
7
  6
CONTINUOUS
 10
0.7447326522
 20
23.6256902432
 11
0.7447326522
 21
22.2913619009
  0
LINE
  5
477
100
AcDbEntity
  8
0
100
AcDbLine
 62
7
  6
CONTINUOUS
 10
0.7447326522
 20
-23.8394757794
 11
0.7447326522
 21
-22.5051474371
  0
LINE
  5
478
100
AcDbEntity
  8
DRAFT
100
AcDbLine
 62
7
  6
CONTINUOUS
 10
0.8272775873
 20
-8.7234687173
 11
0.8272775873
 21
-7.0068927681
  0
LINE
  5
479
100
AcDbEntity
  8
IMPORT_IGES
100
AcDbLine
 62
7
  6
CONTINUOUS
 10
0.8772775873
 20
-0.2068166157
 11
0.8772775873
 21
-1.5069689205
  0
LINE
  5
47A
100
AcDbEntity
  8
IMPORT_IGES
100
AcDbLine
 62
7
  6
CONTINUOUS
 10
0.8772775873
 20
-3.7068166157
 11
0.8772775873
 21
-5.0069689205
  0
LINE
  5
47B
100
AcDbEntity
  8
IMPORT_IGES
100
AcDbLine
 62
7
  6
CONTINUOUS
 10
0.8772775873
 20
-7.2068166157
 11
0.8772775873
 21
-8.5069689205
  0
LINE
  5
47C
100
AcDbEntity
  8
IMPORT_IGES
100
AcDbLine
 62
7
  6
CONTINUOUS
 10
0.8772775873
 20
-10.7068166157
 11
0.8772775873
 21
-12.0069689205
  0
LINE
  5
47D
100
AcDbEntity
  8
IMPORT_IGES
100
AcDbLine
 62
7
  6
CONTINUOUS
 10
0.8772775873
 20
-14.2068166157
 11
0.8772775873
 21
-15.5069689205
  0
LINE
  5
47E
100
AcDbEntity
  8
IMPORT_IGES
100
AcDbLine
 62
253
  6
CONTINUOUS
 10
0.8991725767
 20
-0.1849216263
 11
0.8991725767
 21
-1.5288639099
  0
LINE
  5
47F
100
AcDbEntity
  8
IMPORT_IGES
100
AcDbLine
 62
253
  6
CONTINUOUS
 10
0.8991725767
 20
-3.6849216263
 11
0.8991725767
 21
-5.0288639099
  0
LINE
  5
480
100
AcDbEntity
  8
IMPORT_IGES
100
AcDbLine
 62
253
  6
CONTINUOUS
 10
0.8991725767
 20
-7.1849216263
 11
0.8991725767
 21
-8.5288639099
  0
LINE
  5
481
100
AcDbEntity
  8
IMPORT_IGES
100
AcDbLine
 62
253
  6
CONTINUOUS
 10
0.8991725767
 20
-10.6849216263
 11
0.8991725767
 21
-12.0288639099
  0
LINE
  5
482
100
AcDbEntity
  8
IMPORT_IGES
100
AcDbLine
 62
253
  6
CONTINUOUS
 10
0.8991725767
 20
-14.1849216263
 11
0.8991725767
 21
-15.5288639099
  0
LINE
  5
483
100
AcDbEntity
  8
IMPORT_IGES
100
AcDbLine
 62
7
  6
CONTINUOUS
 10
0.9522775873
 20
10.4931072319
 11
0.9522775873
 21
12.8669246345
  0
LINE
  5
484
100
AcDbEntity
  8
IMPORT_IGES
100
AcDbLine
 62
7
  6
CONTINUOUS
 10
0.9522775873
 20
14.6181072319
 11
0.9522775873
 21
15.3135574861
  0
LINE
  5
485
100
AcDbEntity
  8
IMPORT_IGES
100
AcDbLine
 62
253
  6
CONTINUOUS
 10
1.0772775873
 20
8.0192898293
 11
1.0772775873
 21
8.0124601198
  0
LINE
  5
486
100
AcDbEntity
  8
IMPORT_IGES
100
AcDbLine
 62
253
  6
CONTINUOUS
 10
1.1491345005
 20
-15.5288639099
 11
1.1491345005
 21
-14.1849216263
  0
LINE
  5
487
100
AcDbEntity
  8
IMPORT_IGES
100
AcDbLine
 62
253
  6
CONTINUOUS
 10
1.1491345005
 20
-12.0288639099
 11
1.1491345005
 21
-10.6849216263
  0
LINE
  5
488
100
AcDbEntity
  8
IMPORT_IGES
100
AcDbLine
 62
253
  6
CONTINUOUS
 10
1.1491345005
 20
-8.5288639099
 11
1.1491345005
 21
-7.1849216263
  0
LINE
  5
489
100
AcDbEntity
  8
IMPORT_IGES
100
AcDbLine
 62
253
  6
CONTINUOUS
 10
1.1491345005
 20
-5.0288639099
 11
1.1491345005
 21
-3.6849216263
  0
LINE
  5
48A
100
AcDbEntity
  8
IMPORT_IGES
100
AcDbLine
 62
253
  6
CONTINUOUS
 10
1.1491345005
 20
-1.5288639099
 11
1.1491345005
 21
-0.1849216263
  0
LINE
  5
48B
100
AcDbEntity
  8
IMPORT_IGES
100
AcDbLine
 62
7
  6
CONTINUOUS
 10
1.3272775873
 20
14.6181072319
 11
1.3272775873
 21
14.6291066354
  0
LINE
  5
48C
100
AcDbEntity
  8
IMPORT_IGES
100
AcDbLine
 62
7
  6
CONTINUOUS
 10
1.4510949899
 20
12.8669246345
 11
1.4510949899
 21
8.3931072319
  0
LINE
  5
48D
100
AcDbEntity
  8
IMPORT_IGES
100
AcDbLine
 62
7
  6
CONTINUOUS
 10
1.4598225224
 20
13.5174833916
 11
1.4598225224
 21
13.2687310722
  0
LINE
  5
48E
100
AcDbEntity
  8
IMPORT_IGES
100
AcDbLine
 62
253
  6
CONTINUOUS
 10
1.4729899793
 20
13.8931072319
 11
1.4729899793
 21
8.3931072319
  0
LINE
  5
48F
100
AcDbEntity
  8
IMPORT_IGES
100
AcDbLine
 62
253
  6
CONTINUOUS
 10
1.7229519031
 20
8.3931072319
 11
1.7229519031
 21
13.8931072319
  0
LWPOLYLINE
  5
490
100
AcDbEntity
  8
IMPORT_IGES
100
AcDbPolyline
 62
253
  6
CONTINUOUS
 90
25
 70
0
 10
1.1491345005
 20
-5.0288639099
 10
1.1472247865
 20
-5.0782567952
 10
1.1422204428
 20
-5.1270229233
 10
1.1341214695
 20
-5.1751622942
 10
1.1228605668
 20
-5.2228629442
 10
1.1085050344
 20
-5.2699368371
 10
1.0912567712
 20
-5.3158198638
 10
1.0711191663
 20
-5.3605276056
 10
1.0480888305
 20
-5.4040444812
 10
1.0223574954
 20
-5.4457596375
 10
0.9938499232
 20
-5.4856395893
 10
0.9626413516
 20
-5.5237178217
 10
0.9291492248
 20
-5.5594839379
 10
0.8933400607
 20
-5.5928953075
 10
0.8552473413
 20
-5.6239945608
 10
0.8153889569
 20
-5.6523991912
 10
0.7737447669
 20
-5.6780489865
 10
0.730334912
 20
-5.701004159
 10
0.6857377047
 20
-5.7210628388
 10
0.6399654698
 20
-5.7382108897
 10
0.5930058826
 20
-5.752462448
 10
0.545400281
 20
-5.7636580524
 10
0.4973291113
 20
-5.7717445492
 10
0.4486119273
 20
-5.7767750922
 10
0.3992487291
 20
-5.7787496813
  0
LWPOLYLINE
  5
491
100
AcDbEntity
  8
IMPORT_IGES
100
AcDbPolyline
 62
253
  6
CONTINUOUS
 90
25
 70
0
 10
1.1491345005
 20
-12.0288639099
 10
1.1472245562
 20
-12.0782568344
 10
1.1422200736
 20
-12.1270229866
 10
1.1341210527
 20
-12.1751623665
 10
1.1228602351
 20
-12.2228630057
 10
1.1085048791
 20
-12.2699368727
 10
1.0912567602
 20
-12.3158198724
 10
1.0711192242
 20
-12.3605275849
 10
1.0480889253
 20
-12.4040444302
 10
1.0223576011
 20
-12.4457595728
 10
0.9938500039
 20
-12.4856395356
 10
0.9626413814
 20
-12.5237177956
 10
0.9291492144
 20
-12.5594839486
 10
0.8933400352
 20
-12.5928953771
 10
0.8552473114
 20
-12.6239946984
 10
0.8153889275
 20
-12.6523993602
 10
0.7737447412
 20
-12.6780491214
 10
0.7303348947
 20
-12.7010042231
 10
0.6857376995
 20
-12.7210628362
 10
0.639965485
 20
-12.7382108294
 10
0.5930059217
 20
-12.752462334
 10
0.5454003322
 20
-12.763657915
 10
0.4973291574
 20
-12.7717444274
 10
0.4486119563
 20
-12.7767750161
 10
0.3992487291
 20
-12.7787496813
  0
LWPOLYLINE
  5
492
100
AcDbEntity
  8
IMPORT_IGES
100
AcDbPolyline
 62
253
  6
CONTINUOUS
 90
25
 70
0
 10
1.1491345005
 20
-15.5288639099
 10
1.1472244564
 20
-15.5782568514
 10
1.1422199136
 20
-15.627023014
 10
1.1341208721
 20
-15.6751623978
 10
1.1228600913
 20
-15.7228630324
 10
1.1085048118
 20
-15.7699368881
 10
1.0912567554
 20
-15.8158198761
 10
1.0711192493
 20
-15.860527576
 10
1.0480889664
 20
-15.9040444082
 10
1.0223576469
 20
-15.9457595447
 10
0.9938500389
 20
-15.9856395123
 10
0.9626413943
 20
-16.0237177843
 10
0.9291492099
 20
-16.0594839532
 10
0.8933400241
 20
-16.0928954072
 10
0.8552472985
 20
-16.1239947581
 10
0.8153889148
 20
-16.1523994335
 10
0.77374473
 20
-16.1780491799
 10
0.7303348872
 20
-16.2010042508
 10
0.6857376972
 20
-16.221062835
 10
0.6399654915
 20
-16.2382108032
 10
0.5930059387
 20
-16.2524622846
 10
0.5454003544
 20
-16.2636578555
 10
0.4973291774
 20
-16.2717443746
 10
0.4486119689
 20
-16.2767749832
 10
0.3992487291
 20
-16.2787496813
  0
LWPOLYLINE
  5
493
100
AcDbEntity
  8
IMPORT_IGES
100
AcDbPolyline
 62
253
  6
CONTINUOUS
 90
25
 70
0
 10
1.1491345005
 20
-1.5288639099
 10
1.1471644028
 20
-1.5782608372
 10
1.1421234673
 20
-1.6270301253
 10
1.1340116939
 20
-1.6751717742
 10
1.1227755187
 20
-1.7228749259
 10
1.1084685057
 20
-1.7699504383
 10
1.0912513469
 20
-1.8158308852
 10
1.0711043909
 20
-1.8605264642
 10
1.0480472891
 20
-1.9040269776
 10
1.0222996877
 20
-1.9457344062
 10
0.9937991987
 20
-1.985622433
 10
0.9626082102
 20
-2.023717375
 10
0.929133533
 20
-2.0595001642
 10
0.893340956
 20
-2.0929287067
 10
0.8552646903
 20
-2.1240450963
 10
0.8154141792
 20
-2.1524565471
 10
0.7737622027
 20
-2.1780901986
 10
0.7303359808
 20
-2.2010189113
 10
0.6857266167
 20
-2.22106848
 10
0.6399518086
 20
-2.2382477171
 10
0.5929938583
 20
-2.2525478102
 10
0.5453907744
 20
-2.2637681174
 10
0.497321893
 20
-2.271841758
 10
0.4486078779
 20
-2.2768356126
 10
0.3992487291
 20
-2.2787496813
  0
LWPOLYLINE
  5
494
100
AcDbEntity
  8
IMPORT_IGES
100
AcDbPolyline
 62
253
  6
CONTINUOUS
 90
25
 70
0
 10
1.1491345005
 20
-8.5288639099
 10
1.1471643186
 20
-8.5782608693
 10
1.1421233324
 20
-8.6270301762
 10
1.134011542
 20
-8.6751718307
 10
1.122775393
 20
-8.722874969
 10
1.1084684398
 20
-8.7699504548
 10
1.091251345
 20
-8.815830879
 10
1.0711044626
 20
-8.8605264447
 10
1.0480474387
 20
-8.9040269488
 10
1.0222998747
 20
-8.9457343735
 10
0.9937993505
 20
-8.9856224
 10
0.9626082862
 20
-9.0237173471
 10
0.9291335436
 20
-9.0595001532
 10
0.8933409263
 20
-9.0929287402
 10
0.8552646308
 20
-9.1240451862
 10
0.8154141079
 20
-9.1524566645
 10
0.7737621469
 20
-9.1780903031
 10
0.7303359585
 20
-9.201018974
 10
0.6857266267
 20
-9.2210684659
 10
0.6399518483
 20
-9.238247544
 10
0.5929939265
 20
-9.2525474431
 10
0.5453908543
 20
-9.263767657
 10
0.4973219629
 20
-9.2718413502
 10
0.4486079211
 20
-9.2768353583
 10
0.3992487291
 20
-9.2787496813
  0
LWPOLYLINE
  5
495
100
AcDbEntity
  8
0
100
AcDbPolyline
 62
7
  6
CONTINUOUS
 90
16
 70
0
 10
-0.8727224127
 20
-23.8569308443
 10
-0.8740718249
 20
-23.8828737512
 10
-0.8781280958
 20
-23.9086407853
 10
-0.8848800984
 20
-23.9339463526
 10
-0.8943260026
 20
-23.9585937562
 10
-0.9063718804
 20
-23.9822002142
 10
-0.9207392691
 20
-24.004247359
 10
-0.9370706777
 20
-24.0243577795
 10
-0.9552574013
 20
-24.0425445031
 10
-0.9753678218
 20
-24.0588759117
 10
-0.9974149666
 20
-24.0732433004
 10
-1.0210214246
 20
-24.0852891782
 10
-1.0456688282
 20
-24.0947350824
 10
-1.0709743955
 20
-24.101487085
 10
-1.0967414296
 20
-24.1055433559
 10
-1.1226843365
 20
-24.1068927681
  0
LWPOLYLINE
  5
496
100
AcDbEntity
  8
IMPORT_IGES
100
AcDbPolyline
 62
253
  6
CONTINUOUS
 90
16
 70
0
 10
0.8991725767
 20
-1.5288639099
 10
0.8964197182
 20
-1.581104118
 10
0.8882224036
 20
-1.6327756362
 10
0.8746693546
 20
-1.6833124509
 10
0.8559041666
 20
-1.7321693667
 10
0.8321334256
 20
-1.7788014699
 10
0.8036332439
 20
-1.8226744614
 10
0.7707408637
 20
-1.8632914287
 10
0.7338077171
 20
-1.9002376426
 10
0.6931973821
 20
-1.9331480295
 10
0.6493235223
 20
-1.9616693144
 10
0.6026821193
 20
-1.9854623381
 10
0.5538066634
 20
-2.0042489534
 10
0.503241911
 20
-2.0178202435
 10
0.4515336253
 20
-2.0260301879
 10
0.3992487291
 20
-2.0287877575
  0
LWPOLYLINE
  5
497
100
AcDbEntity
  8
IMPORT_IGES
100
AcDbPolyline
 62
253
  6
CONTINUOUS
 90
16
 70
0
 10
0.8991725767
 20
-5.0288639099
 10
0.8964150968
 20
-5.081147956
 10
0.8882053821
 20
-5.1328555922
 10
0.8746344024
 20
-5.1834199089
 10
0.8558481012
 20
-5.2322951826
 10
0.8320553471
 20
-5.2789366035
 10
0.8035343086
 20
-5.3228105555
 10
0.7706241566
 20
-5.3634210167
 10
0.7336781298
 20
-5.4003543503
 10
0.6930612889
 20
-5.4332469653
 10
0.6491883893
 20
-5.4617473934
 10
0.6025563036
 20
-5.4855184041
 10
0.5536992052
 20
-5.5042839063
 10
0.5031619547
 20
-5.5178372654
 10
0.451489787
 20
-5.5260348094
 10
0.3992487291
 20
-5.5287877575
  0
LWPOLYLINE
  5
498
100
AcDbEntity
  8
IMPORT_IGES
100
AcDbPolyline
 62
253
  6
CONTINUOUS
 90
16
 70
0
 10
0.8991725767
 20
-8.5288639099
 10
0.8964197132
 20
-8.5811041651
 10
0.8882223853
 20
-8.6327757223
 10
0.874669317
 20
-8.6833125667
 10
0.8559041061
 20
-8.7321695026
 10
0.8321333411
 20
-8.7788016162
 10
0.8036331367
 20
-8.822674609
 10
0.7707407372
 20
-8.8632915693
 10
0.7338075766
 20
-8.9002377692
 10
0.6931972346
 20
-8.9331481368
 10
0.6493233757
 20
-8.9616693991
 10
0.6026819827
 20
-8.985462399
 10
0.5538065466
 20
-9.0042489914
 10
0.503241824
 20
-9.017820262
 10
0.4515335776
 20
-9.0260301929
 10
0.3992487291
 20
-9.0287877575
  0
LWPOLYLINE
  5
499
100
AcDbEntity
  8
IMPORT_IGES
100
AcDbPolyline
 62
253
  6
CONTINUOUS
 90
16
 70
0
 10
0.8991725767
 20
-12.0288639099
 10
0.8964151013
 20
-12.0811479128
 10
0.8882053988
 20
-12.1328555135
 10
0.8746344367
 20
-12.1834198032
 10
0.8558481563
 20
-12.232295059
 10
0.8320554238
 20
-12.2789364708
 10
0.8035344056
 20
-12.322810422
 10
0.7706242711
 20
-12.3634208897
 10
0.7336782569
 20
-12.4003542358
 10
0.6930614224
 20
-12.4332468683
 10
0.6491885216
 20
-12.461747317
 10
0.6025564265
 20
-12.4855183494
 10
0.5536993099
 20
-12.5042838722
 10
0.5031620325
 20
-12.5178372488
 10
0.4514898296
 20
-12.5260348049
 10
0.3992487291
 20
-12.5287877575
  0
LWPOLYLINE
  5
49A
100
AcDbEntity
  8
IMPORT_IGES
100
AcDbPolyline
 62
253
  6
CONTINUOUS
 90
16
 70
0
 10
0.8991725767
 20
-15.5288639099
 10
0.8964151033
 20
-15.5811478941
 10
0.8882054061
 20
-15.6328554794
 10
0.8746344517
 20
-15.6834197574
 10
0.8558481802
 20
-15.7322950054
 10
0.832055457
 20
-15.7789364134
 10
0.8035344477
 20
-15.8228103642
 10
0.7706243207
 20
-15.8634208346
 10
0.733678312
 20
-15.9003541862
 10
0.6930614802
 20
-15.9332468263
 10
0.649188579
 20
-15.9617472839
 10
0.6025564798
 20
-15.9855183256
 10
0.5536993553
 20
-16.0042838574
 10
0.5031620662
 20
-16.0178372416
 10
0.4514898481
 20
-16.026034803
 10
0.3992487291
 20
-16.0287877575
  0
LWPOLYLINE
  5
49B
100
AcDbEntity
  8
0
100
AcDbPolyline
 62
7
  6
CONTINUOUS
 90
3
 70
0
 10
-1.8655522629
 20
-6.8684558679
 10
-1.8607079246
 20
-6.8551068943
 10
-1.8557699885
 20
-6.8417741632
  0
LINE
  5
49C
100
AcDbEntity
  8
0
100
AcDbLine
 62
7
  6
CONTINUOUS
 10
-1.8557699885
 20
-6.8417741632
 11
-1.850774755
 21
-6.8285521959
  0
LWPOLYLINE
  5
49D
100
AcDbEntity
  8
0
100
AcDbPolyline
 62
253
  6
CONTINUOUS
 90
11
 70
0
 10
-10.6595549558
 20
-24.3937557721
 10
-10.6595107778
 20
-24.3936608136
 10
-10.6594660867
 20
-24.3934176242
 10
-10.6594208825
 20
-24.3930262037
 10
-10.6593749051
 20
-24.3924905389
 10
-10.6593284146
 20
-24.3918066431
 10
-10.6592821913
 20
-24.3909625566
 10
-10.6592362263
 20
-24.3899530683
 10
-10.6591905284
 20
-24.3887833891
 10
-10.6591459045
 20
-24.3874571928
 10
-10.6591023885
 20
-24.3859698687
  0
LWPOLYLINE
  5
49E
100
AcDbEntity
  8
0
100
AcDbPolyline
 62
7
  6
CONTINUOUS
 90
10
 70
0
 10
-2.254299694
 20
-6.9312767756
 10
-2.2473726284
 20
-6.9203681563
 10
-2.2394219369
 20
-6.9108248351
 10
-2.2305698887
 20
-6.902601902
 10
-2.2209428806
 20
-6.8955763568
 10
-2.2106948167
 20
-6.8897452621
 10
-2.1999555305
 20
-6.8852549268
 10
-2.1888219145
 20
-6.8821247358
 10
-2.1774045253
 20
-6.8802212586
 10
-2.165819585
 20
-6.8794742667
  0
LINE
  5
49F
100
AcDbEntity
  8
IMPORT_IGES
100
AcDbLine
 62
253
  6
CONTINUOUS
 10
0.8991725767
 20
-0.1849216263
 11
0.8772775873
 21
-0.2068166157
  0
LINE
  5
4A0
100
AcDbEntity
  8
IMPORT_IGES
100
AcDbLine
 62
7
  6
CONTINUOUS
 10
7.1179229504
 20
5.5697594336
 11
7.1040715341
 21
5.5559080173
  0
LINE
  5
4A1
100
AcDbEntity
  8
IMPORT_IGES
100
AcDbLine
 62
253
  6
CONTINUOUS
 10
-2.4446174021
 20
-5.0288639099
 11
-2.4227224127
 21
-5.0069689205
  0
LINE
  5
4A2
100
AcDbEntity
  8
IMPORT_IGES
100
AcDbLine
 62
7
  6
CONTINUOUS
 10
-1.9227985651
 20
0.2931072319
 11
0.3773537397
 21
0.2931072319
  0
LINE
  5
4A3
100
AcDbEntity
  8
IMPORT_IGES
100
AcDbLine
 62
253
  6
CONTINUOUS
 10
-1.9446935545
 20
0.3150022213
 11
0.3992487291
 21
0.3150022213
  0
LINE
  5
4A4
100
AcDbEntity
  8
IMPORT_IGES
100
AcDbLine
 62
253
  6
CONTINUOUS
 10
0.3992487291
 20
0.5649641451
 11
-1.9446935545
 21
0.5649641451
  0
LWPOLYLINE
  5
4A5
100
AcDbEntity
  8
IMPORT_IGES
100
AcDbPolyline
 62
253
  6
CONTINUOUS
 90
25
 70
0
 10
0.3992487291
 20
0.5649641451
 10
0.4486415811
 20
0.5630546268
 10
0.4974076887
 20
0.5580504012
 10
0.545547052
 20
0.5499514682
 10
0.5932477112
 20
0.5386904933
 10
0.6403216261
 20
0.524334811
 10
0.6862046756
 20
0.5070864252
 10
0.7309124423
 20
0.4869487618
 10
0.7744293437
 20
0.4639183947
 10
0.8161445118
 20
0.4381870502
 10
0.8560244541
 20
0.4096794993
 10
0.8941026631
 20
0.378470971
 10
0.929868748
 20
0.3449788783
 10
0.9632800676
 20
0.309169727
 10
0.994379263
 20
0.2710770113
 10
1.0227838668
 20
0.2312186266
 10
1.0484336911
 20
0.1895744335
 10
1.0713889237
 20
0.1461645714
 10
1.0914476602
 20
0.1015673539
 10
1.1085957602
 20
0.0557951016
 10
1.122847364
 20
0.008835494
 10
1.1340429883
 20
-0.0387701178
 10
1.1421294719
 20
-0.0868412832
 10
1.147159976
 20
-0.1355584527
 10
1.1491345005
 20
-0.1849216263
  0
LWPOLYLINE
  5
4A6
100
AcDbEntity
  8
IMPORT_IGES
100
AcDbPolyline
 62
253
  6
CONTINUOUS
 90
16
 70
0
 10
0.3992487291
 20
0.3150022213
 10
0.4515328119
 20
0.3122447375
 10
0.5032404783
 20
0.3040350125
 10
0.5538048179
 20
0.2904640178
 10
0.6026801069
 20
0.271677699
 10
0.6493215353
 20
0.2478849266
 10
0.6931954881
 20
0.2193638708
 10
0.7338059439
 20
0.186453704
 10
0.7707392667
 20
0.1495076664
 10
0.8036318669
 20
0.1088908201
 10
0.8321322776
 20
0.0650179215
 10
0.8559032699
 20
0.0183858438
 10
0.8746687544
 20
-0.0304712392
 10
0.8882220986
 20
-0.0810084668
 10
0.8964196324
 20
-0.1326806046
 10
0.8991725767
 20
-0.1849216263
  0
LINE
  5
4A7
100
AcDbEntity
  8
0
100
AcDbLine
 62
7
  6
CONTINUOUS
 10
2.5445808008
 20
21.5258040184
 11
2.560056148
 21
20.8803759098
  0
LINE
  5
4A8
100
AcDbEntity
  8
0
100
AcDbLine
 62
253
  6
CONTINUOUS
 10
2.5583069459
 20
21.8129693742
 11
2.5591733847
 21
21.7637014726
  0
LINE
  5
4A9
100
AcDbEntity
  8
0
100
AcDbLine
 62
253
  6
CONTINUOUS
 10
2.807845345
 20
22.0697163507
 11
2.8087419799
 21
22.0138923805
  0
LINE
  5
4AA
100
AcDbEntity
  8
0
100
AcDbLine
 62
253
  6
CONTINUOUS
 10
2.5591733847
 20
21.7637014726
 11
2.5603329513
 21
21.6635658417
  0
LINE
  5
4AB
100
AcDbEntity
  8
0
100
AcDbLine
 62
253
  6
CONTINUOUS
 10
2.8087419799
 20
22.0138923805
 11
2.8099606155
 21
21.8939745572
  0
LINE
  5
4AC
100
AcDbEntity
  8
0
100
AcDbLine
 62
253
  6
CONTINUOUS
 10
2.5603329513
 20
21.6635658417
 11
2.5617511786
 21
21.4400311994
  0
LINE
  5
4AD
100
AcDbEntity
  8
0
100
AcDbLine
 62
253
  6
CONTINUOUS
 10
2.8099606155
 20
21.8939745572
 11
2.8117399908
 21
21.5477845528
  0
LINE
  5
4AE
100
AcDbEntity
  8
0
100
AcDbLine
 62
253
  6
CONTINUOUS
 10
2.5617511786
 20
21.4400311994
 11
2.5623835871
 21
21.1184042546
  0
LINE
  5
4AF
100
AcDbEntity
  8
0
100
AcDbLine
 62
7
  6
CONTINUOUS
 10
2.4772775873
 20
22.0256521655
 11
2.4772775873
 21
21.5931072319
  0
LINE
  5
4B0
100
AcDbEntity
  8
0
100
AcDbLine
 62
7
  6
CONTINUOUS
 10
2.4772775873
 20
-21.8068927681
 11
2.4772775873
 21
-22.2394377017
  0
LINE
  5
4B1
100
AcDbEntity
  8
0
100
AcDbLine
 62
7
  6
CONTINUOUS
 10
2.5623835871
 20
21.1184042546
 11
2.5623835871
 21
20.8782132317
  0
LINE
  5
4B2
100
AcDbEntity
  8
0
100
AcDbLine
 62
7
  6
CONTINUOUS
 10
2.5623835871
 20
-21.0919987679
 11
2.5623835871
 21
-21.3321897908
  0
LINE
  5
4B3
100
AcDbEntity
  8
0
100
AcDbLine
 62
253
  6
CONTINUOUS
 10
2.8117399908
 20
21.5477845528
 11
2.8123740678
 21
20.8803759098
  0
LINE
  5
4B4
100
AcDbEntity
  8
0
100
AcDbLine
 62
7
  6
CONTINUOUS
 10
3.4272775873
 20
-23.8394757794
 11
3.4272775873
 21
-22.4894377032
  0
LINE
  5
4B5
100
AcDbEntity
  8
0
100
AcDbLine
 62
7
  6
CONTINUOUS
 10
3.4272775873
 20
22.275652167
 11
3.4272775873
 21
23.6256902432
  0
LINE
  5
4B6
100
AcDbEntity
  8
0
100
AcDbLine
 62
253
  6
CONTINUOUS
 10
3.5079402868
 20
23.5450275437
 11
3.5079384997
 21
22.1949912545
  0
LINE
  5
4B7
100
AcDbEntity
  8
0
100
AcDbLine
 62
253
  6
CONTINUOUS
 10
3.5079384997
 20
-22.4087767907
 11
3.5079402868
 21
-23.7588130799
  0
LINE
  5
4B8
100
AcDbEntity
  8
0
100
AcDbLine
 62
253
  6
CONTINUOUS
 10
4.2791616099
 20
23.5450293307
 11
4.2791616099
 21
22.1949912545
  0
LINE
  5
4B9
100
AcDbEntity
  8
0
100
AcDbLine
 62
253
  6
CONTINUOUS
 10
4.2791616099
 20
-22.4087767907
 11
4.2791616099
 21
-23.7588148669
  0
LINE
  5
4BA
100
AcDbEntity
  8
0
100
AcDbLine
 62
7
  6
CONTINUOUS
 10
4.2812747302
 20
-23.6462728635
 11
4.2812747302
 21
-22.9675126727
  0
LINE
  5
4BB
100
AcDbEntity
  8
0
100
AcDbLine
 62
7
  6
CONTINUOUS
 10
4.2812747302
 20
22.7537271365
 11
4.2812747302
 21
23.4324873273
  0
LINE
  5
4BC
100
AcDbEntity
  8
0
100
AcDbLine
 62
7
  6
CONTINUOUS
 10
4.3772775873
 20
23.6431453081
 11
4.3772775873
 21
23.3110521791
  0
LINE
  5
4BD
100
AcDbEntity
  8
0
100
AcDbLine
 62
7
  6
CONTINUOUS
 10
4.3772775873
 20
22.8751622847
 11
4.3772775873
 21
22.2931072319
  0
LINE
  5
4BE
100
AcDbEntity
  8
0
100
AcDbLine
 62
7
  6
CONTINUOUS
 10
4.3772775873
 20
-22.5068927681
 11
4.3772775873
 21
-23.0889478209
  0
LINE
  5
4BF
100
AcDbEntity
  8
0
100
AcDbLine
 62
7
  6
CONTINUOUS
 10
4.3772775873
 20
-23.5248377153
 11
4.3772775873
 21
-23.8569308443
  0
LINE
  5
4C0
100
AcDbEntity
  8
0
100
AcDbLine
 62
253
  6
CONTINUOUS
 10
2.8123740678
 20
-21.094161446
 11
2.8112604578
 21
-21.8899990325
  0
LINE
  5
4C1
100
AcDbEntity
  8
0
100
AcDbLine
 62
253
  6
CONTINUOUS
 10
2.5623835871
 20
-21.3321897908
 11
2.561527426
 21
-21.7029719227
  0
LINE
  5
4C2
100
AcDbEntity
  8
0
100
AcDbLine
 62
253
  6
CONTINUOUS
 10
2.561527426
 20
-21.7029719227
 11
2.5603329513
 21
-21.8773513778
  0
LINE
  5
4C3
100
AcDbEntity
  8
0
100
AcDbLine
 62
253
  6
CONTINUOUS
 10
2.8112604578
 20
-21.8899990325
 11
2.8095747049
 21
-22.1522907172
  0
LINE
  5
4C4
100
AcDbEntity
  8
0
100
AcDbLine
 62
253
  6
CONTINUOUS
 10
2.5603329513
 20
-21.8773513778
 11
2.5591733847
 21
-21.9774870087
  0
LWPOLYLINE
  5
4C5
100
AcDbEntity
  8
0
100
AcDbPolyline
 62
253
  6
CONTINUOUS
 90
7
 70
0
 10
2.8095747049
 20
-22.1522907172
 10
2.8083015906
 20
-22.2581218609
 10
2.807845345
 20
-22.2835018868
 10
2.8073806383
 20
-22.3036792571
 10
2.8069099353
 20
-22.3185436143
 10
2.8064307711
 20
-22.3280136274
 10
2.8059431456
 20
-22.3320374859
  0
LWPOLYLINE
  5
4C6
100
AcDbEntity
  8
0
100
AcDbPolyline
 62
253
  6
CONTINUOUS
 90
7
 70
0
 10
2.5591733847
 20
-21.9774870087
 10
2.5583069459
 20
-22.0267549104
 10
2.5578497106
 20
-22.0458476486
 10
2.5573848436
 20
-22.0609570089
 10
2.5569150824
 20
-22.0719799046
 10
2.5564376895
 20
-22.0790194224
 10
2.5559526649
 20
-22.0820755621
  0
LINE
  5
4C7
100
AcDbEntity
  8
0
100
AcDbLine
 62
7
  6
CONTINUOUS
 10
2.560056148
 20
-21.094161446
 11
2.5445808008
 21
-21.7395895546
  0
LINE
  5
4C8
100
AcDbEntity
  8
IMPORT_IGES
100
AcDbLine
 62
253
  6
CONTINUOUS
 10
-1.9227985651
 20
-5.5068927681
 11
-1.9446935545
 21
-5.5287877575
  0
LINE
  5
4C9
100
AcDbEntity
  8
IMPORT_IGES
100
AcDbLine
 62
253
  6
CONTINUOUS
 10
0.3773537397
 20
-3.2068927681
 11
0.3992487291
 21
-3.1849977787
  0
LINE
  5
4CA
100
AcDbEntity
  8
IMPORT_IGES
100
AcDbLine
 62
253
  6
CONTINUOUS
 10
0.8991725767
 20
-3.6849216263
 11
0.8772775873
 21
-3.7068166157
  0
LINE
  5
4CB
100
AcDbEntity
  8
IMPORT_IGES
100
AcDbLine
 62
253
  6
CONTINUOUS
 10
-2.4446174021
 20
-8.5288639099
 11
-2.4227224127
 21
-8.5069689205
  0
LWPOLYLINE
  5
4CC
100
AcDbEntity
  8
0
100
AcDbPolyline
 62
253
  6
CONTINUOUS
 90
7
 70
0
 10
-2.2424550705
 20
-6.8852721977
 10
-2.2330123183
 20
-6.8780142302
 10
-2.2227710584
 20
-6.8719378212
 10
-2.2118843789
 20
-6.8671207943
 10
-2.2005097572
 20
-6.8636298709
 10
-2.1888042506
 20
-6.8615227913
 10
-2.1769350507
 20
-6.8608174669
  0
LINE
  5
4CD
100
AcDbEntity
  8
0
100
AcDbLine
 62
253
  6
CONTINUOUS
 10
-2.01573488
 20
-6.8721509773
 11
-2.02546378
 21
-6.8795826243
  0
LINE
  5
4CE
100
AcDbEntity
  8
0
100
AcDbLine
 62
253
  6
CONTINUOUS
 10
-2.0007967446
 20
-6.8608122431
 11
-2.0108793697
 21
-6.8684558679
  0
LINE
  5
4CF
100
AcDbEntity
  8
0
100
AcDbLine
 62
253
  6
CONTINUOUS
 10
-1.9195231488
 20
-6.9988256767
 11
-1.9278100618
 21
-7.004836677
  0
LWPOLYLINE
  5
4D0
100
AcDbEntity
  8
0
100
AcDbPolyline
 62
7
  6
CONTINUOUS
 90
43
 70
0
 10
1.4272775873
 20
3.1624668979
 10
1.335308456
 20
3.165917755
 10
1.2438580836
 20
3.1762303759
 10
1.1534375484
 20
3.1933463157
 10
1.0645558676
 20
3.2171679595
 10
0.9777056185
 20
3.2475620251
 10
0.8933611489
 20
3.2843631179
 10
0.8119876431
 20
3.3273713
 10
0.734048462
 20
3.3763449046
 10
0.6599901126
 20
3.4310041629
 10
0.5902302624
 20
3.491039038
 10
0.5251538984
 20
3.5561164063
 10
0.4651217827
 20
3.6258753356
 10
0.4104687517
 20
3.6999273011
 10
0.3615016823
 20
3.7778571725
 10
0.3184950579
 20
3.8592287472
 10
0.2816893052
 20
3.9435873038
 10
0.251290433
 20
4.0304608992
 10
0.2274690486
 20
4.1193622484
 10
0.2103582587
 20
4.2097930565
 10
0.2000531354
 20
4.3012486382
 10
0.1966111997
 20
4.3932192324
 10
0.2000518043
 20
4.4851904562
 10
0.2103557883
 20
4.5766480887
 10
0.2274661851
 20
4.6670825217
 10
0.2512883413
 20
4.7559895082
 10
0.2816892713
 20
4.8428699882
 10
0.3184981494
 20
4.9272349636
 10
0.3615086494
 20
5.0086121013
 10
0.410480275
 20
5.086546899
 10
0.4651381909
 20
5.1606024768
 10
0.525175182
 20
5.2303636938
 10
0.5902561143
 20
5.2954421475
 10
0.6600196955
 20
5.355476568
 10
0.7340802379
 20
5.4101338179
 10
0.812020039
 20
5.4591044521
 10
0.8933930696
 20
5.5021092351
 10
0.9777360122
 20
5.5389067922
 10
1.0645833048
 20
5.5692973403
 10
1.1534605379
 20
5.5931156856
 10
1.2438750547
 20
5.6102288176
 10
1.3353177649
 20
5.6205394746
 10
1.4272775873
 20
5.623989555
  0
LWPOLYLINE
  5
4D1
100
AcDbEntity
  8
0
100
AcDbPolyline
 62
7
  6
CONTINUOUS
 90
13
 70
0
 10
7.1272775873
 20
-24.4069232291
 10
7.1289878515
 20
-24.4330253559
 10
7.1340900278
 20
-24.4586805342
 10
7.142497009
 20
-24.4834500556
 10
7.1540652501
 20
-24.5069105125
 10
7.1685970373
 20
-24.5286603183
 10
7.1858436151
 20
-24.5483267403
 10
7.205510037
 20
-24.5655733181
 10
7.2272598429
 20
-24.5801051052
 10
7.2507202998
 20
-24.5916733463
 10
7.2754898212
 20
-24.6000803275
 10
7.3011449995
 20
-24.6051825039
 10
7.3272471263
 20
-24.6068927681
  0
LWPOLYLINE
  5
4D2
100
AcDbEntity
  8
0
100
AcDbPolyline
 62
7
  6
CONTINUOUS
 90
16
 70
0
 10
4.3772775873
 20
23.6431453081
 10
4.3759281751
 20
23.6690882151
 10
4.3718719042
 20
23.6948552492
 10
4.3651199016
 20
23.7201608165
 10
4.3556739974
 20
23.74480822
 10
4.3436281196
 20
23.768414678
 10
4.3292607309
 20
23.7904618229
 10
4.3129293223
 20
23.8105722433
 10
4.2947425987
 20
23.8287589669
 10
4.2746321782
 20
23.8450903756
 10
4.2525850334
 20
23.8594577643
 10
4.2289785754
 20
23.8715036421
 10
4.2043311718
 20
23.8809495463
 10
4.1790256045
 20
23.8877015488
 10
4.1532585704
 20
23.8917578197
 10
4.1273156635
 20
23.8931072319
  0
LINE
  5
4D3
100
AcDbEntity
  8
0
100
AcDbLine
 62
253
  6
CONTINUOUS
 10
7.1272775873
 20
-23.4584673763
 11
7.1409288491
 21
-23.9101988551
  0
LINE
  5
4D4
100
AcDbEntity
  8
0
100
AcDbLine
 62
253
  6
CONTINUOUS
 10
7.0108026308
 20
-18.919058013
 11
6.9884305953
 21
-17.9859907088
  0
LINE
  5
4D5
100
AcDbEntity
  8
IMPORT_IGES
100
AcDbLine
 62
253
  6
CONTINUOUS
 10
5.9803977268
 20
-18.9098606027
 11
5.9803977268
 21
18.6960750666
  0
LINE
  5
4D6
100
AcDbEntity
  8
0
100
AcDbLine
 62
253
  6
CONTINUOUS
 10
7.0108026308
 20
18.7052724769
 11
6.9884307496
 21
17.7722116097
  0
LINE
  5
4D7
100
AcDbEntity
  8
0
100
AcDbLine
 62
253
  6
CONTINUOUS
 10
7.1408661892
 20
23.694143529
 11
7.1272775873
 21
23.2446818401
  0
LWPOLYLINE
  5
4D8
100
AcDbEntity
  8
0
100
AcDbPolyline
 62
7
  6
CONTINUOUS
 90
16
 70
0
 10
4.3772775873
 20
-23.8569308443
 10
4.3759281751
 20
-23.8828737512
 10
4.3718719042
 20
-23.9086407853
 10
4.3651199016
 20
-23.9339463526
 10
4.3556739974
 20
-23.9585937562
 10
4.3436281196
 20
-23.9822002142
 10
4.3292607309
 20
-24.004247359
 10
4.3129293223
 20
-24.0243577795
 10
4.2947425987
 20
-24.0425445031
 10
4.2746321782
 20
-24.0588759117
 10
4.2525850334
 20
-24.0732433004
 10
4.2289785754
 20
-24.0852891782
 10
4.2043311718
 20
-24.0947350824
 10
4.1790256045
 20
-24.101487085
 10
4.1532585704
 20
-24.1055433559
 10
4.1273156635
 20
-24.1068927681
  0
LWPOLYLINE
  5
4D9
100
AcDbEntity
  8
0
100
AcDbPolyline
 62
7
  6
CONTINUOUS
 90
13
 70
0
 10
7.1272775873
 20
24.1931376929
 10
7.1289878515
 20
24.2192398197
 10
7.1340900278
 20
24.244894998
 10
7.142497009
 20
24.2696645194
 10
7.1540652501
 20
24.2931249763
 10
7.1685970373
 20
24.3148747822
 10
7.1858436151
 20
24.3345412041
 10
7.205510037
 20
24.3517877819
 10
7.2272598429
 20
24.3663195691
 10
7.2507202998
 20
24.3778878102
 10
7.2754898212
 20
24.3862947914
 10
7.3011449995
 20
24.3913969677
 10
7.3272471263
 20
24.3931072319
  0
LWPOLYLINE
  5
4DA
100
AcDbEntity
  8
RACCORDO
100
AcDbPolyline
 62
253
  6
CONTINUOUS
 90
13
 70
0
 10
7.8437525438
 20
18.7052724769
 10
7.8410791819
 20
18.6685454812
 10
7.8333379605
 20
18.6324445121
 10
7.8206608319
 20
18.5975849256
 10
7.8032638829
 20
18.5645609175
 10
7.7814436516
 20
18.5339353955
 10
7.7555720728
 20
18.5062303843
 10
7.7260901381
 20
18.481918127
 10
7.6935003792
 20
18.461413036
 10
7.6583583019
 20
18.4450646289
 10
7.6212629172
 20
18.4331515709
 10
7.5828465312
 20
18.4258769251
 10
7.5437639668
 20
18.4233646906
  0
LWPOLYLINE
  5
4DB
100
AcDbEntity
  8
IMPORT_IGES
100
AcDbPolyline
 62
7
  6
CONTINUOUS
 90
15
 70
0
 10
7.425071538
 20
12.519131945
 10
7.4185300695
 20
12.4782117766
 10
7.4078140087
 20
12.4381763335
 10
7.393099302
 20
12.3994319992
 10
7.374561896
 20
12.362385157
 10
7.352377737
 20
12.3274421903
 10
7.3267227718
 20
12.2950094825
 10
7.2977777345
 20
12.265489214
 10
7.2658355586
 20
12.2391850765
 10
7.2313025415
 20
12.21630125
 10
7.1945900021
 20
12.1970375065
 10
7.1561092589
 20
12.1815936185
 10
7.1162716308
 20
12.1701693582
 10
7.0754884363
 20
12.1629644977
 10
7.0341867366
 20
12.1601790034
  0
LINE
  5
4DC
100
AcDbEntity
  8
0
100
AcDbLine
 62
253
  6
CONTINUOUS
 10
-1.1521260798
 20
-10.2387005525
 11
-1.1676513009
 21
-10.2607327692
  0
LINE
  5
4DD
100
AcDbEntity
  8
IMPORT_IGES
100
AcDbLine
 62
253
  6
CONTINUOUS
 10
-1.9227985651
 20
-9.0068927681
 11
-1.9446935545
 21
-9.0287877575
  0
LINE
  5
4DE
100
AcDbEntity
  8
IMPORT_IGES
100
AcDbLine
 62
253
  6
CONTINUOUS
 10
0.3773537397
 20
-6.7068927681
 11
0.3992487291
 21
-6.6849977787
  0
LINE
  5
4DF
100
AcDbEntity
  8
IMPORT_IGES
100
AcDbLine
 62
253
  6
CONTINUOUS
 10
0.8991725767
 20
-7.1849216263
 11
0.8772775873
 21
-7.2068166157
  0
LINE
  5
4E0
100
AcDbEntity
  8
IMPORT_IGES
100
AcDbLine
 62
253
  6
CONTINUOUS
 10
-9.1347224127
 20
-17.9190450729
 11
-9.1256902474
 21
-17.9100129076
  0
LINE
  5
4E1
100
AcDbEntity
  8
IMPORT_IGES
100
AcDbLine
 62
7
  6
CONTINUOUS
 10
7.1040196701
 20
6.2369631939
 11
6.9892775873
 21
6.2367822144
  0
LINE
  5
4E2
100
AcDbEntity
  8
IMPORT_IGES
100
AcDbLine
 62
7
  6
CONTINUOUS
 10
7.1041087909
 20
5.0666602169
 11
6.9892775873
 21
5.0666584277
  0
LINE
  5
4E3
100
AcDbEntity
  8
IMPORT_IGES
100
AcDbLine
 62
7
  6
CONTINUOUS
 10
7.1040715341
 20
5.5559080173
 11
6.9892775873
 21
5.5559026709
  0
LINE
  5
4E4
100
AcDbEntity
  8
IMPORT_IGES
100
AcDbLine
 62
7
  6
CONTINUOUS
 10
7.1179229504
 20
5.5697594336
 11
6.9892775873
 21
5.5697570509
  0
LINE
  5
4E5
100
AcDbEntity
  8
IMPORT_IGES
100
AcDbLine
 62
7
  6
CONTINUOUS
 10
7.1179081321
 20
5.7643466269
 11
6.9892775873
 21
5.7643442444
  0
LINE
  5
4E6
100
AcDbEntity
  8
IMPORT_IGES
100
AcDbLine
 62
7
  6
CONTINUOUS
 10
7.117858702
 20
6.4134337954
 11
6.9892775873
 21
6.4134337727
  0
LWPOLYLINE
  5
4E7
100
AcDbEntity
  8
0
100
AcDbPolyline
 62
7
  6
CONTINUOUS
 90
43
 70
0
 10
1.4272775873
 20
5.623989555
 10
1.5192640597
 20
5.6205574506
 10
1.6107346627
 20
5.6102605569
 10
1.7011778286
 20
5.5931569995
 10
1.7900842688
 20
5.5693441363
 10
1.8769606143
 20
5.5389550326
 10
1.9613312238
 20
5.5021550935
 10
2.0427303574
 20
5.4591443581
 10
2.1206941722
 20
5.4101647044
 10
2.1947750857
 20
5.3554964828
 10
2.2645550859
 20
5.2954501194
 10
2.3296488913
 20
5.2303592631
 10
2.3896950194
 20
5.160585961
 10
2.4443584052
 20
5.0865196565
 10
2.4933325383
 20
5.008575859
 10
2.5363433187
 20
4.9271911409
 10
2.5731505334
 20
4.8428206731
 10
2.6035484565
 20
4.755936971
 10
2.6273670276
 20
4.6670277317
 10
2.6444735018
 20
4.5765917826
 10
2.654773358
 20
4.4851339434
 10
2.6582098487
 20
4.3931635889
 10
2.6547639951
 20
4.3011950341
 10
2.6444554051
 20
4.2097427424
 10
2.6273418041
 20
4.1193161767
 10
2.6035186871
 20
4.0304208765
 10
2.5731192516
 20
3.9435542359
 10
2.5363131187
 20
3.8592007657
 10
2.4933057303
 20
3.7778323487
 10
2.4443373027
 20
3.6999042398
 10
2.3896808949
 20
3.6258512452
 10
2.3296422561
 20
3.5560885745
 10
2.2645561635
 20
3.4910060621
 10
2.1947833009
 20
3.4309653569
 10
2.1207081023
 20
3.3763001788
 10
2.0427483396
 20
3.327321589
 10
1.961351686
 20
3.2843104517
 10
1.8769814005
 20
3.2475089265
 10
1.7901031547
 20
3.2171176501
 10
1.7011936466
 20
3.1933027016
 10
1.6107465638
 20
3.1761974214
 10
1.5192707
 20
3.1658993479
 10
1.4272775873
 20
3.1624668979
  0
LINE
  5
4E8
100
AcDbEntity
  8
IMPORT_IGES
100
AcDbLine
 62
7
  6
CONTINUOUS
 10
-5.5965398153
 20
12.8669246345
 11
-5.598407175
 21
12.8687919942
  0
LINE
  5
4E9
100
AcDbEntity
  8
IMPORT_IGES
100
AcDbLine
 62
253
  6
CONTINUOUS
 10
-9.1256902474
 20
17.6962273714
 11
-9.1347224127
 21
17.7052595368
  0
LINE
  5
4EA
100
AcDbEntity
  8
IMPORT_IGES
100
AcDbLine
 62
7
  6
CONTINUOUS
 10
-4.8468437047
 20
13.9174224697
 11
-4.8486804042
 21
13.9192898294
  0
LWPOLYLINE
  5
4EB
100
AcDbEntity
  8
IMPORT_IGES
100
AcDbPolyline
 62
7
  6
CONTINUOUS
 90
25
 70
0
 10
-4.5589137162
 20
14.7868335846
 10
-4.5635579065
 20
14.7924362392
 10
-4.5842449162
 20
14.8191925628
 10
-4.6042367211
 20
14.8469674034
 10
-4.6233526553
 20
14.8757118747
 10
-4.6415659018
 20
14.9053504554
 10
-4.6589032776
 20
14.9359320646
 10
-4.6752645687
 20
14.9675956555
 10
-4.6906616219
 20
15.0002553336
 10
-4.7050825904
 20
15.0339664997
 10
-4.7183917192
 20
15.0690990259
 10
-4.730663338
 20
15.1056356963
 10
-4.7418231171
 20
15.1435640473
 10
-4.7515123125
 20
15.1832799268
 10
-4.7598221596
 20
15.2247887093
 10
-4.7666614228
 20
15.2680196287
 10
-4.7713976514
 20
15.3132536518
 10
-4.7740395565
 20
15.3607509221
 10
-4.7745784269
 20
15.4100911485
 10
-4.7723556779
 20
15.4605066844
 10
-4.7672422673
 20
15.5118323213
 10
-4.7593672374
 20
15.5639452795
 10
-4.7484591296
 20
15.6161281183
 10
-4.7344079903
 20
15.66816856
 10
-4.7311138627
 20
15.6781513583
  0
LWPOLYLINE
  5
4EC
100
AcDbEntity
  8
0
100
AcDbPolyline
 62
253
  6
CONTINUOUS
 90
6
 70
0
 10
2.5559526649
 20
21.868290026
 10
2.5564376895
 20
21.8652338862
 10
2.5569150824
 20
21.8581943685
 10
2.5573848436
 20
21.8471714727
 10
2.5578497106
 20
21.8320621125
 10
2.5583069459
 20
21.8129693742
  0
LWPOLYLINE
  5
4ED
100
AcDbEntity
  8
0
100
AcDbPolyline
 62
253
  6
CONTINUOUS
 90
5
 70
0
 10
2.8059431456
 20
22.1182519497
 10
2.8064307711
 20
22.1142280913
 10
2.8069099353
 20
22.1047580782
 10
2.8073806383
 20
22.089893721
 10
2.807845345
 20
22.0697163507
  0
LWPOLYLINE
  5
4EE
100
AcDbEntity
  8
0
100
AcDbPolyline
 62
253
  6
CONTINUOUS
 90
13
 70
0
 10
10.5136889854
 20
-23.9079290652
 10
10.5117707572
 20
-23.8854460625
 10
10.5065015021
 20
-23.8633433403
 10
10.4979703173
 20
-23.8419948862
 10
10.4863215036
 20
-23.8217619484
 10
10.4717521056
 20
-23.8029868851
 10
10.4545085623
 20
-23.7859873801
 10
10.4348825616
 20
-23.7710511046
 10
10.4132061684
 20
-23.7584308729
 10
10.3898461905
 20
-23.7483403126
 10
10.365197911
 20
-23.740950219
 10
10.3396783867
 20
-23.7363856813
 10
10.3137194463
 20
-23.734723987
  0
LWPOLYLINE
  5
4EF
100
AcDbEntity
  8
IMPORT_IGES
100
AcDbPolyline
 62
253
  6
CONTINUOUS
 90
16
 70
0
 10
7.4273612047
 20
15.3857163272
 10
7.4251852214
 20
15.4176016932
 10
7.4187487168
 20
15.4493844718
 10
7.4081196942
 20
15.4807426858
 10
7.3933161831
 20
15.5114419656
 10
7.3744528928
 20
15.5410156035
 10
7.3518728002
 20
15.5688167688
 10
7.325903342
 20
15.5944200785
 10
7.2966661402
 20
15.6176392769
 10
7.2644018595
 20
15.6383017627
 10
7.2293674017
 20
15.6563148313
 10
7.1921191679
 20
15.6714190424
 10
7.1534936931
 20
15.6833401438
 10
7.1140921793
 20
15.6919903539
 10
7.0742123679
 20
15.697364693
 10
7.0342595774
 20
15.6994189222
  0
LINE
  5
4F0
100
AcDbEntity
  8
IMPORT_IGES
100
AcDbLine
 62
7
  6
CONTINUOUS
 10
7.427290902
 20
15.7258337249
 11
7.4251071521
 21
15.7667576177
  0
LWPOLYLINE
  5
4F1
100
AcDbEntity
  8
IMPORT_IGES
100
AcDbPolyline
 62
253
  6
CONTINUOUS
 90
19
 70
0
 10
6.9802454219
 20
17.6962273714
 10
6.9764156367
 20
17.7833529894
 10
6.9650084914
 20
17.8698157859
 10
6.9461107676
 20
17.9549579816
 10
6.9198662326
 20
18.0381318442
 10
6.8864745458
 20
18.1187046158
 10
6.8461897396
 20
18.1960633264
 10
6.799318287
 20
18.2696194578
 10
6.7462167696
 20
18.3388134203
 10
6.6872891656
 20
18.4031188102
 10
6.6229837757
 20
18.4620464143
 10
6.5537898132
 20
18.5151479316
 10
6.4802336818
 20
18.5620193843
 10
6.4028749712
 20
18.6023041904
 10
6.3223021996
 20
18.6356958772
 10
6.239128337
 20
18.6619404122
 10
6.1539861412
 20
18.6808381361
 10
6.0675233448
 20
18.6922452814
 10
5.9803977268
 20
18.6960750666
  0
LINE
  5
4F2
100
AcDbEntity
  8
0
100
AcDbLine
 62
253
  6
CONTINUOUS
 10
7.3255625464
 20
-23.2295424989
 11
7.340835753
 21
-23.734724803
  0
LINE
  5
4F3
100
AcDbEntity
  8
0
100
AcDbLine
 62
7
  6
CONTINUOUS
 10
8.4404450442
 20
-23.6650742387
 11
8.4272775873
 21
-23.2295424989
  0
LINE
  5
4F4
100
AcDbEntity
  8
IMPORT_IGES
100
AcDbLine
 62
7
  6
CONTINUOUS
 10
7.1301186971
 20
-1.2098550795
 11
7.1354160527
 21
-1.3945187341
  0
LINE
  5
4F5
100
AcDbEntity
  8
IMPORT_IGES
100
AcDbLine
 62
7
  6
CONTINUOUS
 10
7.1143837665
 20
8.9253929013
 11
7.114878516
 21
8.9065149068
  0
LINE
  5
4F6
100
AcDbEntity
  8
0
100
AcDbLine
 62
253
  6
CONTINUOUS
 10
7.3107912077
 20
-18.6371502268
 11
7.1582163382
 21
-12.2737318332
  0
LINE
  5
4F7
100
AcDbEntity
  8
0
100
AcDbLine
 62
253
  6
CONTINUOUS
 10
7.5437633736
 20
18.4233894316
 11
7.6960643791
 21
12.0713930497
  0
LINE
  5
4F8
100
AcDbEntity
  8
0
100
AcDbLine
 62
253
  6
CONTINUOUS
 10
7.8437525438
 20
18.7052724769
 11
7.9949418066
 21
12.3996433871
  0
LINE
  5
4F9
100
AcDbEntity
  8
0
100
AcDbLine
 62
253
  6
CONTINUOUS
 10
7.1409294184
 20
24.1709731793
 11
7.1410101768
 21
24.1673165972
  0
LINE
  5
4FA
100
AcDbEntity
  8
0
100
AcDbLine
 62
253
  6
CONTINUOUS
 10
7.1409288491
 20
-23.9101988551
 11
7.1410210044
 21
-23.9144474145
  0
LINE
  5
4FB
100
AcDbEntity
  8
IMPORT_IGES
100
AcDbLine
 62
7
  6
CONTINUOUS
 10
7.114878516
 20
8.9065149068
 11
7.1153313436
 21
8.8836444948
  0
LINE
  5
4FC
100
AcDbEntity
  8
RACCORDO
100
AcDbLine
 62
253
  6
CONTINUOUS
 10
7.0110608631
 20
-18.9326512077
 11
7.0108026308
 21
-18.919058013
  0
LINE
  5
4FD
100
AcDbEntity
  8
RACCORDO
100
AcDbLine
 62
253
  6
CONTINUOUS
 10
7.8434933506
 20
18.7189338507
 11
7.8437525438
 21
18.7052724769
  0
LINE
  5
4FE
100
AcDbEntity
  8
0
100
AcDbLine
 62
253
  6
CONTINUOUS
 10
7.1410210044
 20
-23.9144474145
 11
7.141107294
 21
-23.9197087207
  0
LINE
  5
4FF
100
AcDbEntity
  8
0
100
AcDbLine
 62
253
  6
CONTINUOUS
 10
7.1410101768
 20
24.1673165972
 11
7.1411171542
 21
24.1607867001
  0
LINE
  5
500
100
AcDbEntity
  8
0
100
AcDbLine
 62
253
  6
CONTINUOUS
 10
7.3405424257
 20
24.3765989949
 11
7.3406321146
 21
24.3709345648
  0
LINE
  5
501
100
AcDbEntity
  8
IMPORT_IGES
100
AcDbLine
 62
7
  6
CONTINUOUS
 10
7.1153313436
 20
8.8836444948
 11
7.1159391273
 21
8.8421987977
  0
LINE
  5
502
100
AcDbEntity
  8
IMPORT_IGES
100
AcDbLine
 62
7
  6
CONTINUOUS
 10
7.1118604166
 20
11.0487366973
 11
7.1175321711
 21
10.7013013123
  0
LINE
  5
503
100
AcDbEntity
  8
RACCORDO
100
AcDbLine
 62
253
  6
CONTINUOUS
 10
7.011402707
 20
-18.9614693595
 11
7.0110608631
 21
-18.9326512077
  0
LINE
  5
504
100
AcDbEntity
  8
RACCORDO
100
AcDbLine
 62
253
  6
CONTINUOUS
 10
7.8431513011
 20
18.7478062768
 11
7.8434933506
 21
18.7189338507
  0
LINE
  5
505
100
AcDbEntity
  8
0
100
AcDbLine
 62
253
  6
CONTINUOUS
 10
7.141107294
 20
-23.9197087207
 11
7.1412043061
 21
-23.9281819242
  0
LINE
  5
506
100
AcDbEntity
  8
IMPORT_IGES
100
AcDbLine
 62
7
  6
CONTINUOUS
 10
7.1111100572
 20
11.1201772243
 11
7.1118604166
 21
11.0487366973
  0
LINE
  5
507
100
AcDbEntity
  8
0
100
AcDbLine
 62
253
  6
CONTINUOUS
 10
7.1411171542
 20
24.1607867001
 11
7.1412256938
 21
24.1504929977
  0
LINE
  5
508
100
AcDbEntity
  8
0
100
AcDbLine
 62
253
  6
CONTINUOUS
 10
7.3406321146
 20
24.3709345648
 11
7.3407679869
 21
24.3565996304
  0
LINE
  5
509
100
AcDbEntity
  8
IMPORT_IGES
100
AcDbLine
 62
7
  6
CONTINUOUS
 10
7.1159391273
 20
8.8421987977
 11
7.1167750277
 21
8.7556676162
  0
LINE
  5
50A
100
AcDbEntity
  8
RACCORDO
100
AcDbLine
 62
253
  6
CONTINUOUS
 10
7.3112843523
 20
-18.7165997001
 11
7.3107912077
 21
-18.6371502268
  0
LINE
  5
50B
100
AcDbEntity
  8
RACCORDO
100
AcDbLine
 62
253
  6
CONTINUOUS
 10
7.5432706718
 20
18.5028109305
 11
7.5437637424
 21
18.4233894365
  0
LINE
  5
50C
100
AcDbEntity
  8
RACCORDO
100
AcDbLine
 62
253
  6
CONTINUOUS
 10
7.0118078889
 20
-19.0277089602
 11
7.011402707
 21
-18.9614693595
  0
LINE
  5
50D
100
AcDbEntity
  8
0
100
AcDbLine
 62
253
  6
CONTINUOUS
 10
7.1412043061
 20
-23.9281819242
 11
7.1412825232
 21
-23.9405830346
  0
LINE
  5
50E
100
AcDbEntity
  8
IMPORT_IGES
100
AcDbLine
 62
7
  6
CONTINUOUS
 10
7.1107145251
 20
11.1861415271
 11
7.1111100572
 21
11.1201772243
  0
LINE
  5
50F
100
AcDbEntity
  8
RACCORDO
100
AcDbLine
 62
253
  6
CONTINUOUS
 10
7.8427466796
 20
18.8140911061
 11
7.8431513011
 21
18.7478062768
  0
LINE
  5
510
100
AcDbEntity
  8
0
100
AcDbLine
 62
253
  6
CONTINUOUS
 10
7.1412256938
 20
24.1504929977
 11
7.1412882889
 21
24.1389835259
  0
LINE
  5
511
100
AcDbEntity
  8
IMPORT_IGES
100
AcDbLine
 62
7
  6
CONTINUOUS
 10
7.1167750277
 20
8.7556676162
 11
7.1176705273
 21
8.5735801212
  0
LINE
  5
512
100
AcDbEntity
  8
0
100
AcDbLine
 62
253
  6
CONTINUOUS
 10
7.3407679869
 20
24.3565996304
 11
7.3410866844
 21
24.2840183786
  0
LINE
  5
513
100
AcDbEntity
  8
0
100
AcDbLine
 62
253
  6
CONTINUOUS
 10
7.340835733
 20
-23.734724803
 11
7.3412116569
 21
-23.8598140575
  0
LINE
  5
514
100
AcDbEntity
  8
0
100
AcDbLine
 62
7
  6
CONTINUOUS
 10
6.861533432
 20
-20.1881963351
 11
6.8608467041
 21
-18.4145445661
  0
LINE
  5
515
100
AcDbEntity
  8
RACCORDO
100
AcDbLine
 62
253
  6
CONTINUOUS
 10
7.0119510514
 20
-19.1069965372
 11
7.0118078889
 21
-19.0277089602
  0
LINE
  5
516
100
AcDbEntity
  8
RACCORDO
100
AcDbLine
 62
253
  6
CONTINUOUS
 10
7.8426041231
 20
18.893211001
 11
7.8427466796
 21
18.8140911061
  0
LINE
  5
517
100
AcDbEntity
  8
RACCORDO
100
AcDbLine
 62
253
  6
CONTINUOUS
 10
7.3119395972
 20
-19.1069230784
 11
7.3112843523
 21
-18.7165997001
  0
LINE
  5
518
100
AcDbEntity
  8
0
100
AcDbLine
 62
7
  6
CONTINUOUS
 10
7.9922286521
 20
20.7281561671
 11
7.9949418066
 21
12.3996433871
  0
LINE
  5
519
100
AcDbEntity
  8
IMPORT_IGES
100
AcDbLine
 62
253
  6
CONTINUOUS
 10
6.9802454219
 20
-17.9100129076
 11
6.9802454219
 21
17.6962273714
  0
LINE
  5
51A
100
AcDbEntity
  8
IMPORT_IGES
100
AcDbLine
 62
7
  6
CONTINUOUS
 10
6.9892775873
 20
-17.9190450729
 11
6.9892775873
 21
17.7052595368
  0
LINE
  5
51B
100
AcDbEntity
  8
IMPORT_IGES
100
AcDbLine
 62
7
  6
CONTINUOUS
 10
6.9914448277
 20
-17.9210980855
 11
6.9914448277
 21
17.7073125493
  0
LINE
  5
51C
100
AcDbEntity
  8
0
100
AcDbLine
 62
7
  6
CONTINUOUS
 10
7.0119510514
 20
20.1248284184
 11
7.0119510514
 21
18.893211001
  0
LINE
  5
51D
100
AcDbEntity
  8
0
100
AcDbLine
 62
7
  6
CONTINUOUS
 10
7.0119510514
 20
-20.3386139545
 11
7.0119510514
 21
-19.1069965372
  0
LINE
  5
51E
100
AcDbEntity
  8
IMPORT_IGES
100
AcDbLine
 62
253
  6
CONTINUOUS
 10
7.0343045486
 20
16.1282447582
 11
7.0342964661
 21
12.1582526198
  0
LINE
  5
51F
100
AcDbEntity
  8
IMPORT_IGES
100
AcDbLine
 62
7
  6
CONTINUOUS
 10
7.1040196701
 20
6.2369631939
 11
7.1040556611
 21
5.764345572
  0
LINE
  5
520
100
AcDbEntity
  8
IMPORT_IGES
100
AcDbLine
 62
7
  6
CONTINUOUS
 10
7.1040715341
 20
5.5559080173
 11
7.1041087921
 21
5.066652602
  0
LINE
  5
521
100
AcDbEntity
  8
IMPORT_IGES
100
AcDbLine
 62
7
  6
CONTINUOUS
 10
7.1104924286
 20
11.554680464
 11
7.1107145251
 21
11.1861415271
  0
LINE
  5
522
100
AcDbEntity
  8
IMPORT_IGES
100
AcDbLine
 62
7
  6
CONTINUOUS
 10
7.1174518348
 20
11.7562418818
 11
7.1174666531
 21
11.5616546885
  0
LINE
  5
523
100
AcDbEntity
  8
IMPORT_IGES
100
AcDbLine
 62
7
  6
CONTINUOUS
 10
7.1175321711
 20
10.7013013123
 11
7.1175509062
 21
10.4552798887
  0
LINE
  5
524
100
AcDbEntity
  8
IMPORT_IGES
100
AcDbLine
 62
7
  6
CONTINUOUS
 10
7.1175655122
 20
10.2634801821
 11
7.1176493419
 21
9.1626650163
  0
LINE
  5
525
100
AcDbEntity
  8
IMPORT_IGES
100
AcDbLine
 62
7
  6
CONTINUOUS
 10
7.1177748734
 20
7.5142413463
 11
7.1178587031
 21
6.4134261805
  0
LINE
  5
526
100
AcDbEntity
  8
IMPORT_IGES
100
AcDbLine
 62
7
  6
CONTINUOUS
 10
7.1179081321
 20
5.7643466269
 11
7.1179229504
 21
5.5697594336
  0
LINE
  5
527
100
AcDbEntity
  8
0
100
AcDbLine
 62
7
  6
CONTINUOUS
 10
7.1272775873
 20
-24.4069232291
 11
7.1272775873
 21
-22.5068927681
  0
LINE
  5
528
100
AcDbEntity
  8
0
100
AcDbLine
 62
7
  6
CONTINUOUS
 10
7.1272775873
 20
22.2931072319
 11
7.1272775873
 21
24.1931376929
  0
LINE
  5
529
100
AcDbEntity
  8
IMPORT_IGES
100
AcDbLine
 62
7
  6
CONTINUOUS
 10
7.1285506876
 20
-10.3998809349
 11
7.1286146113
 21
-11.2392991072
  0
LINE
  5
52A
100
AcDbEntity
  8
IMPORT_IGES
100
AcDbLine
 62
7
  6
CONTINUOUS
 10
7.1286364638
 20
-11.5262561999
 11
7.1287009508
 21
-12.3730711185
  0
LINE
  5
52B
100
AcDbEntity
  8
IMPORT_IGES
100
AcDbLine
 62
7
  6
CONTINUOUS
 10
7.1284735517
 20
-7.4135513991
 11
7.1285455981
 21
-8.3596332026
  0
LINE
  5
52C
100
AcDbEntity
  8
IMPORT_IGES
100
AcDbLine
 62
7
  6
CONTINUOUS
 10
7.1300662445
 20
-0.521070591
 11
7.1301186971
 21
-1.2098550795
  0
LINE
  5
52D
100
AcDbEntity
  8
IMPORT_IGES
100
AcDbLine
 62
7
  6
CONTINUOUS
 10
7.136004868
 20
-11.2392985444
 11
7.1360261583
 21
-11.5188741209
  0
LINE
  5
52E
100
AcDbEntity
  8
IMPORT_IGES
100
AcDbLine
 62
7
  6
CONTINUOUS
 10
7.1353180873
 20
-0.1080812101
 11
7.1353356111
 21
-0.3381958972
  0
LINE
  5
52F
100
AcDbEntity
  8
IMPORT_IGES
100
AcDbLine
 62
7
  6
CONTINUOUS
 10
7.1354160527
 20
-1.3945187341
 11
7.1354349877
 21
-1.6431655343
  0
LINE
  5
530
100
AcDbEntity
  8
IMPORT_IGES
100
AcDbLine
 62
7
  6
CONTINUOUS
 10
7.1364614068
 20
-15.1216483176
 11
7.1365545509
 21
-16.3447754031
  0
LINE
  5
531
100
AcDbEntity
  8
0
100
AcDbLine
 62
253
  6
CONTINUOUS
 10
7.3119396284
 20
20.1274236321
 11
7.3119396284
 21
18.8933171432
  0
LINE
  5
532
100
AcDbEntity
  8
0
100
AcDbLine
 62
253
  6
CONTINUOUS
 10
7.3119396284
 20
-20.3412091683
 11
7.3119396284
 21
-19.1069230784
  0
LINE
  5
533
100
AcDbEntity
  8
RACCORDO
100
AcDbLine
 62
253
  6
CONTINUOUS
 10
7.5426155462
 20
20.8803759098
 11
7.5432706718
 21
18.5028109305
  0
LINE
  5
534
100
AcDbEntity
  8
RACCORDO
100
AcDbLine
 62
7
  6
CONTINUOUS
 10
7.8426041231
 20
20.8777806961
 11
7.8426041231
 21
18.893211001
  0
LINE
  5
535
100
AcDbEntity
  8
RACCORDO
100
AcDbLine
 62
7
  6
CONTINUOUS
 10
7.8426041231
 20
-21.0915662322
 11
7.8426041231
 21
-19.1069965372
  0
LINE
  5
536
100
AcDbEntity
  8
0
100
AcDbLine
 62
7
  6
CONTINUOUS
 10
7.9852718731
 20
21.1184042546
 11
7.9852718731
 21
20.8803759098
  0
LINE
  5
537
100
AcDbEntity
  8
0
100
AcDbLine
 62
7
  6
CONTINUOUS
 10
7.9852718731
 20
-21.094161446
 11
7.9852718731
 21
-21.3321897908
  0
LINE
  5
538
100
AcDbEntity
  8
0
100
AcDbLine
 62
7
  6
CONTINUOUS
 10
8.1598225224
 20
21.2982206421
 11
8.1598225224
 21
20.7931072319
  0
LINE
  5
539
100
AcDbEntity
  8
0
100
AcDbLine
 62
7
  6
CONTINUOUS
 10
8.1598225224
 20
-21.5120061782
 11
8.1598225224
 21
-21.0068927681
  0
LINE
  5
53A
100
AcDbEntity
  8
0
100
AcDbLine
 62
7
  6
CONTINUOUS
 10
8.4272775873
 20
-23.2295424989
 11
8.4272775873
 21
-22.5068927681
  0
LINE
  5
53B
100
AcDbEntity
  8
0
100
AcDbLine
 62
7
  6
CONTINUOUS
 10
8.4272775873
 20
22.2931072319
 11
8.4272775873
 21
23.0157569627
  0
LINE
  5
53C
100
AcDbEntity
  8
0
100
AcDbLine
 62
253
  6
CONTINUOUS
 10
8.4404450442
 20
-23.6650742387
 11
8.4404450442
 21
-22.4937253112
  0
LINE
  5
53D
100
AcDbEntity
  8
0
100
AcDbLine
 62
253
  6
CONTINUOUS
 10
8.4404450442
 20
22.279939775
 11
8.4404450442
 21
23.4512887025
  0
LINE
  5
53E
100
AcDbEntity
  8
IMPORT_IGES
100
AcDbLine
 62
7
  6
CONTINUOUS
 10
7.4272575678
 20
12.5614420262
 11
7.4272953024
 21
15.7245683727
  0
LINE
  5
53F
100
AcDbEntity
  8
0
100
AcDbLine
 62
7
  6
CONTINUOUS
 10
6.8608467049
 20
18.200761167
 11
6.861533432
 21
19.9744107989
  0
LINE
  5
540
100
AcDbEntity
  8
0
100
AcDbLine
 62
253
  6
CONTINUOUS
 10
7.1412825232
 20
-23.9405830346
 11
7.1413018498
 21
-24.3461592037
  0
LINE
  5
541
100
AcDbEntity
  8
0
100
AcDbLine
 62
7
  6
CONTINUOUS
 10
7.9949418066
 20
-12.6134289233
 11
7.9922286521
 21
-20.9419417033
  0
LINE
  5
542
100
AcDbEntity
  8
IMPORT_IGES
100
AcDbLine
 62
7
  6
CONTINUOUS
 10
7.4272953024
 20
15.7245683727
 11
7.4272775873
 21
15.7079257159
  0
LINE
  5
543
100
AcDbEntity
  8
0
100
AcDbLine
 62
253
  6
CONTINUOUS
 10
7.1412882889
 20
24.1389835259
 11
7.1412995844
 21
23.7332010677
  0
LINE
  5
544
100
AcDbEntity
  8
IMPORT_IGES
100
AcDbLine
 62
7
  6
CONTINUOUS
 10
7.1176705273
 20
8.5735801212
 11
7.1178668664
 21
8.1998979247
  0
LINE
  5
545
100
AcDbEntity
  8
0
100
AcDbLine
 62
253
  6
CONTINUOUS
 10
7.3412116569
 20
-23.8598140575
 11
7.3410610932
 21
-24.5067429854
  0
LINE
  5
546
100
AcDbEntity
  8
IMPORT_IGES
100
AcDbLine
 62
7
  6
CONTINUOUS
 10
7.1363347458
 20
-13.4583911588
 11
7.1358085255
 21
-14.4048659119
  0
LINE
  5
547
100
AcDbEntity
  8
IMPORT_IGES
100
AcDbLine
 62
7
  6
CONTINUOUS
 10
7.1355980663
 20
-3.7846419796
 11
7.1351146285
 21
-4.7558267501
  0
LINE
  5
548
100
AcDbEntity
  8
RACCORDO
100
AcDbLine
 62
253
  6
CONTINUOUS
 10
7.0119510514
 20
18.893211001
 11
7.0117473256
 21
18.7994448393
  0
LINE
  5
549
100
AcDbEntity
  8
RACCORDO
100
AcDbLine
 62
253
  6
CONTINUOUS
 10
7.3119396845
 20
18.8933171431
 11
7.3112567069
 21
18.4965343146
  0
LINE
  5
54A
100
AcDbEntity
  8
RACCORDO
100
AcDbLine
 62
253
  6
CONTINUOUS
 10
7.5426155462
 20
-21.094161446
 11
7.5432984334
 21
-18.7103198313
  0
LINE
  5
54B
100
AcDbEntity
  8
RACCORDO
100
AcDbLine
 62
253
  6
CONTINUOUS
 10
7.8426041231
 20
-19.1069965372
 11
7.8428078818
 21
-19.0132214608
  0
LINE
  5
54C
100
AcDbEntity
  8
0
100
AcDbLine
 62
253
  6
CONTINUOUS
 10
7.3410866844
 20
24.2840183786
 11
7.3409144649
 21
23.5355959386
  0
LINE
  5
54D
100
AcDbEntity
  8
0
100
AcDbLine
 62
253
  6
CONTINUOUS
 10
7.1413018498
 20
-24.3461592037
 11
7.141261838
 21
-24.3588589624
  0
LINE
  5
54E
100
AcDbEntity
  8
0
100
AcDbLine
 62
253
  6
CONTINUOUS
 10
7.3409144649
 20
23.5355959386
 11
7.3408357282
 21
23.5209384483
  0
LINE
  5
54F
100
AcDbEntity
  8
0
100
AcDbLine
 62
253
  6
CONTINUOUS
 10
7.1412995844
 20
23.7332010677
 11
7.141245051
 21
23.7195927067
  0
LINE
  5
550
100
AcDbEntity
  8
IMPORT_IGES
100
AcDbLine
 62
7
  6
CONTINUOUS
 10
7.1178668664
 20
8.1998979247
 11
7.1170947993
 21
7.9885248427
  0
LINE
  5
551
100
AcDbEntity
  8
0
100
AcDbLine
 62
253
  6
CONTINUOUS
 10
7.3410610932
 20
-24.5067429854
 11
7.340771277
 21
-24.5699157428
  0
LINE
  5
552
100
AcDbEntity
  8
RACCORDO
100
AcDbLine
 62
253
  6
CONTINUOUS
 10
7.3112567069
 20
18.4965343146
 11
7.3107912077
 21
18.4233646906
  0
LINE
  5
553
100
AcDbEntity
  8
RACCORDO
100
AcDbLine
 62
253
  6
CONTINUOUS
 10
7.5432984334
 20
-18.7103198313
 11
7.5437639668
 21
-18.6371502268
  0
LINE
  5
554
100
AcDbEntity
  8
RACCORDO
100
AcDbLine
 62
253
  6
CONTINUOUS
 10
7.0117473256
 20
18.7994448393
 11
7.0114021907
 21
18.7476279331
  0
LINE
  5
555
100
AcDbEntity
  8
IMPORT_IGES
100
AcDbLine
 62
7
  6
CONTINUOUS
 10
7.1358085255
 20
-14.4048659119
 11
7.1348646512
 21
-14.5564203397
  0
LINE
  5
556
100
AcDbEntity
  8
RACCORDO
100
AcDbLine
 62
253
  6
CONTINUOUS
 10
7.8428078818
 20
-19.0132214608
 11
7.8431529806
 21
-18.9614128773
  0
LINE
  5
557
100
AcDbEntity
  8
IMPORT_IGES
100
AcDbLine
 62
7
  6
CONTINUOUS
 10
7.1351146285
 20
-4.7558267501
 11
7.1343545223
 21
-4.8728294408
  0
LINE
  5
558
100
AcDbEntity
  8
0
100
AcDbLine
 62
253
  6
CONTINUOUS
 10
7.141261838
 20
-24.3588589624
 11
7.1411812611
 21
-24.3691839287
  0
LINE
  5
559
100
AcDbEntity
  8
0
100
AcDbLine
 62
253
  6
CONTINUOUS
 10
7.141245051
 20
23.7195927067
 11
7.141165472
 21
23.7105429107
  0
LINE
  5
55A
100
AcDbEntity
  8
IMPORT_IGES
100
AcDbLine
 62
7
  6
CONTINUOUS
 10
7.1170947993
 20
7.9885248427
 11
7.1162512449
 21
7.8899306568
  0
LWPOLYLINE
  5
55B
100
AcDbEntity
  8
0
100
AcDbPolyline
 62
253
  6
CONTINUOUS
 90
6
 70
0
 10
7.340771277
 20
-24.5699157428
 10
7.3406228521
 20
-24.5854247306
 10
7.3405715583
 20
-24.5888514153
 10
7.3405198467
 20
-24.5913811445
 10
7.3404675217
 20
-24.5930073144
 10
7.3404145832
 20
-24.5937253112
  0
LINE
  5
55C
100
AcDbEntity
  8
IMPORT_IGES
100
AcDbLine
 62
7
  6
CONTINUOUS
 10
7.1343545223
 20
-4.8728294408
 11
7.133613832
 21
-4.9375897125
  0
LINE
  5
55D
100
AcDbEntity
  8
IMPORT_IGES
100
AcDbLine
 62
7
  6
CONTINUOUS
 10
7.1348646512
 20
-14.5564203397
 11
7.1338247992
 21
-14.6485408518
  0
LINE
  5
55E
100
AcDbEntity
  8
RACCORDO
100
AcDbLine
 62
253
  6
CONTINUOUS
 10
7.0114021907
 20
18.7476279331
 11
7.0110599111
 21
18.718792055
  0
LINE
  5
55F
100
AcDbEntity
  8
0
100
AcDbLine
 62
253
  6
CONTINUOUS
 10
7.1411812611
 20
-24.3691839287
 11
7.1410915904
 21
-24.3763558406
  0
LINE
  5
560
100
AcDbEntity
  8
RACCORDO
100
AcDbLine
 62
253
  6
CONTINUOUS
 10
7.8431529806
 20
-18.9614128773
 11
7.8434951258
 21
-18.9325886907
  0
LINE
  5
561
100
AcDbEntity
  8
0
100
AcDbLine
 62
253
  6
CONTINUOUS
 10
7.141165472
 20
23.7105429107
 11
7.1410825846
 21
23.70425697
  0
LINE
  5
562
100
AcDbEntity
  8
IMPORT_IGES
100
AcDbLine
 62
7
  6
CONTINUOUS
 10
7.1162512449
 20
7.8899306568
 11
7.1155687042
 21
7.8406857218
  0
LINE
  5
563
100
AcDbEntity
  8
IMPORT_IGES
100
AcDbLine
 62
7
  6
CONTINUOUS
 10
7.133613832
 20
-4.9375897125
 11
7.1331747541
 21
-4.9651523
  0
LINE
  5
564
100
AcDbEntity
  8
IMPORT_IGES
100
AcDbLine
 62
7
  6
CONTINUOUS
 10
7.1338247992
 20
-14.6485408518
 11
7.1330167592
 21
-14.6992237345
  0
LWPOLYLINE
  5
565
100
AcDbEntity
  8
0
100
AcDbPolyline
 62
253
  6
CONTINUOUS
 90
4
 70
0
 10
7.1410825846
 20
23.70425697
 10
7.1409817525
 20
23.6987133966
 10
7.1409448682
 20
23.6970819179
 10
7.1409063471
 20
23.6955586287
  0
LINE
  5
566
100
AcDbEntity
  8
0
100
AcDbLine
 62
253
  6
CONTINUOUS
 10
7.1410915904
 20
-24.3763558406
 11
7.1409794945
 21
-24.3825975849
  0
LINE
  5
567
100
AcDbEntity
  8
RACCORDO
100
AcDbLine
 62
253
  6
CONTINUOUS
 10
7.0110599111
 20
18.718792055
 11
7.0108026308
 21
18.7052724769
  0
LINE
  5
568
100
AcDbEntity
  8
RACCORDO
100
AcDbLine
 62
253
  6
CONTINUOUS
 10
7.8434951258
 20
-18.9325886907
 11
7.8437525438
 21
-18.919058013
  0
LWPOLYLINE
  5
569
100
AcDbEntity
  8
IMPORT_IGES
100
AcDbPolyline
 62
7
  6
CONTINUOUS
 90
7
 70
0
 10
7.1155687042
 20
7.8406857218
 10
7.1150220882
 20
7.8135614531
 10
7.1147185703
 20
7.8018646018
 10
7.1143949458
 20
7.7923743905
 10
7.114051094
 20
7.7853903553
 10
7.1136871356
 20
7.78061296
 10
7.1133030707
 20
7.7780422047
  0
LWPOLYLINE
  5
56A
100
AcDbEntity
  8
IMPORT_IGES
100
AcDbPolyline
 62
7
  6
CONTINUOUS
 90
9
 70
0
 10
7.1331747541
 20
-4.9651523
 10
7.1326906445
 20
-4.9885711574
 10
7.1324312575
 20
-4.9984612026
 10
7.1321602513
 20
-5.0070251082
 10
7.1318775802
 20
-5.0142882539
 10
7.1315827786
 20
-5.0200632672
 10
7.1312756909
 20
-5.0242876906
 10
7.1309564725
 20
-5.0270239817
 10
7.1306251234
 20
-5.0282721403
  0
LINE
  5
56B
100
AcDbEntity
  8
IMPORT_IGES
100
AcDbLine
 62
7
  6
CONTINUOUS
 10
7.1330167592
 20
-14.6992237345
 11
7.1320538369
 21
-14.7446476438
  0
LINE
  5
56C
100
AcDbEntity
  8
0
100
AcDbLine
 62
253
  6
CONTINUOUS
 10
7.3107912077
 20
18.4233646906
 11
7.2539952355
 21
16.054583151
  0
LINE
  5
56D
100
AcDbEntity
  8
0
100
AcDbLine
 62
253
  6
CONTINUOUS
 10
7.1611818737
 20
12.1836294652
 11
7.1582163382
 21
12.059946297
  0
LINE
  5
56E
100
AcDbEntity
  8
0
100
AcDbLine
 62
253
  6
CONTINUOUS
 10
7.5437639668
 20
-18.6371502268
 11
7.6960643791
 21
-12.2851785859
  0
LINE
  5
56F
100
AcDbEntity
  8
0
100
AcDbLine
 62
253
  6
CONTINUOUS
 10
7.8437525438
 20
-18.919058013
 11
7.9949418066
 21
-12.6134289233
  0
LWPOLYLINE
  5
570
100
AcDbEntity
  8
0
100
AcDbPolyline
 62
253
  6
CONTINUOUS
 90
11
 70
0
 10
7.1409794945
 20
-24.3825975849
 10
7.1408941321
 20
-24.386099873
 10
7.1408488083
 20
-24.3876225333
 10
7.140801739
 20
-24.3889944733
 10
7.1407534658
 20
-24.3901980373
 10
7.1407039687
 20
-24.3912307639
 10
7.1406532676
 20
-24.3920951146
 10
7.1406019645
 20
-24.3927808179
 10
7.1405502598
 20
-24.39328445
 10
7.1404979531
 20
-24.3936094348
 10
7.1404450442
 20
-24.3937557721
  0
LINE
  5
571
100
AcDbEntity
  8
IMPORT_IGES
100
AcDbLine
 62
7
  6
CONTINUOUS
 10
7.1353356111
 20
-0.3381958972
 11
7.1300662445
 21
-0.521070591
  0
LINE
  5
572
100
AcDbEntity
  8
0
100
AcDbLine
 62
253
  6
CONTINUOUS
 10
7.3408357282
 20
23.5209384483
 11
7.3255625464
 21
23.0157569627
  0
LINE
  5
573
100
AcDbEntity
  8
0
100
AcDbLine
 62
7
  6
CONTINUOUS
 10
8.4272775873
 20
23.0157569627
 11
8.4404450442
 21
23.4512887025
  0
LWPOLYLINE
  5
574
100
AcDbEntity
  8
IMPORT_IGES
100
AcDbPolyline
 62
7
  6
CONTINUOUS
 90
10
 70
0
 10
7.1320538369
 20
-14.7446476438
 10
7.1313200449
 20
-14.770524486
 10
7.1309248968
 20
-14.7819267317
 10
7.1305104248
 20
-14.7920333033
 10
7.1300766652
 20
-14.8008164305
 10
7.1296235818
 20
-14.8083038836
 10
7.1291505122
 20
-14.8143006109
 10
7.1286572357
 20
-14.8187415952
 10
7.1281439731
 20
-14.8216918537
 10
7.1276107242
 20
-14.8231513863
  0
LWPOLYLINE
  5
575
100
AcDbEntity
  8
IMPORT_IGES
100
AcDbPolyline
 62
253
  6
CONTINUOUS
 90
19
 70
0
 10
6.9802454219
 20
-17.9100129076
 10
6.9764156367
 20
-17.9971385256
 10
6.9650084914
 20
-18.083601322
 10
6.9461107676
 20
-18.1687435178
 10
6.9198662326
 20
-18.2519173804
 10
6.8864745458
 20
-18.332490152
 10
6.8461897396
 20
-18.4098488626
 10
6.799318287
 20
-18.483404994
 10
6.7462167696
 20
-18.5525989565
 10
6.6872891656
 20
-18.6169043464
 10
6.6229837757
 20
-18.6758319504
 10
6.5537898132
 20
-18.7289334678
 10
6.4802336818
 20
-18.7758049204
 10
6.4028749712
 20
-18.8160897266
 10
6.3223021996
 20
-18.8494814134
 10
6.239128337
 20
-18.8757259484
 10
6.1539861412
 20
-18.8946236722
 10
6.0675233448
 20
-18.9060308175
 10
5.9803977268
 20
-18.9098606027
  0
LWPOLYLINE
  5
576
100
AcDbEntity
  8
0
100
AcDbPolyline
 62
7
  6
CONTINUOUS
 90
16
 70
0
 10
7.9949418066
 20
12.3996433871
 10
7.9931598439
 20
12.3643122587
 10
7.9878693313
 20
12.3297127632
 10
7.9792187956
 20
12.2961865946
 10
7.9674084063
 20
12.2640436179
 10
7.9526430456
 20
12.2335756436
 10
7.9350933191
 20
12.2050714147
 10
7.9149691829
 20
12.1787576585
 10
7.8925489647
 20
12.1548786229
 10
7.8681089097
 20
12.1337228824
 10
7.8419424717
 20
12.1154624328
 10
7.814354737
 20
12.1002116221
 10
7.7856567296
 20
12.0881254568
 10
7.756164537
 20
12.0792873565
 10
7.7261957523
 20
12.0737094814
 10
7.6960643791
 20
12.0713930497
  0
LINE
  5
577
100
AcDbEntity
  8
IMPORT_IGES
100
AcDbLine
 62
7
  6
CONTINUOUS
 10
7.4272626719
 20
12.5601362347
 11
7.425071538
 21
12.519131945
  0
LWPOLYLINE
  5
578
100
AcDbEntity
  8
RACCORDO
100
AcDbPolyline
 62
253
  6
CONTINUOUS
 90
13
 70
0
 10
7.0108026308
 20
-18.919058013
 10
7.0134759927
 20
-18.8823310173
 10
7.021217214
 20
-18.8462300483
 10
7.0338943426
 20
-18.8113704618
 10
7.0512912916
 20
-18.7783464537
 10
7.0731115229
 20
-18.7477209317
 10
7.0989831016
 20
-18.7200159203
 10
7.1284650363
 20
-18.6957036629
 10
7.1610547952
 20
-18.6751985718
 10
7.1961968725
 20
-18.6588501647
 10
7.2332922572
 20
-18.6469371067
 10
7.2717086433
 20
-18.639662461
 10
7.3107912077
 20
-18.6371502268
  0
LWPOLYLINE
  5
579
100
AcDbEntity
  8
0
100
AcDbPolyline
 62
253
  6
CONTINUOUS
 90
13
 70
0
 10
10.5136889854
 20
23.694143529
 10
10.5117706311
 20
23.6716597552
 10
10.5065010594
 20
23.6495564286
 10
10.4979694365
 20
23.6282075588
 10
10.4863201259
 20
23.6079743893
 10
10.4717502449
 20
23.5891992849
 10
10.4545063302
 20
23.5721999385
 10
10.4348801654
 20
23.5572639955
 10
10.4132038441
 20
23.5446441864
 10
10.3898441508
 20
23.5345540507
 10
10.3651963538
 20
23.5271643231
 10
10.3396775179
 20
23.5226000449
 10
10.3137194464
 20
23.5209384483
  0
LWPOLYLINE
  5
57A
100
AcDbEntity
  8
0
100
AcDbPolyline
 62
253
  6
CONTINUOUS
 90
5
 70
0
 10
10.3141405913
 20
24.379939775
 10
10.3140991646
 20
24.3794551719
 10
10.314056885
 20
24.3783739119
 10
10.3140137527
 20
24.3766462713
 10
10.313924411
 20
24.3710412183
  0
LINE
  5
57B
100
AcDbEntity
  8
0
100
AcDbLine
 62
253
  6
CONTINUOUS
 10
-10.6727224127
 20
-22.506892768
 11
-10.6553435002
 21
-22.4894377032
  0
LINE
  5
57C
100
AcDbEntity
  8
IMPORT_IGES
100
AcDbLine
 62
253
  6
CONTINUOUS
 10
-2.4446174021
 20
-12.0288639099
 11
-2.4227224127
 21
-12.0069689205
  0
LINE
  5
57D
100
AcDbEntity
  8
IMPORT_IGES
100
AcDbLine
 62
253
  6
CONTINUOUS
 10
-1.9227985651
 20
-12.5068927681
 11
-1.9446935545
 21
-12.5287877575
  0
LINE
  5
57E
100
AcDbEntity
  8
IMPORT_IGES
100
AcDbLine
 62
253
  6
CONTINUOUS
 10
0.3773537397
 20
-10.2068927681
 11
0.3992487291
 21
-10.1849977787
  0
LINE
  5
57F
100
AcDbEntity
  8
IMPORT_IGES
100
AcDbLine
 62
253
  6
CONTINUOUS
 10
-8.1258425522
 20
-18.9098606027
 11
-8.1348747176
 21
-18.9188927681
  0
LINE
  5
580
100
AcDbEntity
  8
0
100
AcDbLine
 62
253
  6
CONTINUOUS
 10
-11.1727224127
 20
-22.0069689205
 11
-11.1552673478
 21
-21.9895138556
  0
LINE
  5
581
100
AcDbEntity
  8
IMPORT_IGES
100
AcDbLine
 62
253
  6
CONTINUOUS
 10
0.8991725767
 20
-10.6849216263
 11
0.8772775873
 21
-10.7068166157
  0
LINE
  5
582
100
AcDbEntity
  8
IMPORT_IGES
100
AcDbLine
 62
7
  6
CONTINUOUS
 10
1.0695526684
 20
8.0123839769
 11
1.0772775873
 21
8.0124601198
  0
LINE
  5
583
100
AcDbEntity
  8
IMPORT_IGES
100
AcDbLine
 62
7
  6
CONTINUOUS
 10
7.1177748734
 20
7.5142413463
 11
6.9892775873
 21
7.5142413463
  0
LINE
  5
584
100
AcDbEntity
  8
IMPORT_IGES
100
AcDbLine
 62
7
  6
CONTINUOUS
 10
6.9892775873
 20
7.7779813939
 11
7.1132305772
 21
7.777993149
  0
LINE
  5
585
100
AcDbEntity
  8
IMPORT_IGES
100
AcDbLine
 62
253
  6
CONTINUOUS
 10
1.0772775873
 20
8.0124601198
 11
1.0695526684
 21
8.0124601198
  0
LINE
  5
586
100
AcDbEntity
  8
IMPORT_IGES
100
AcDbLine
 62
253
  6
CONTINUOUS
 10
-5.2149974938
 20
8.0124601198
 11
-5.2227224127
 21
8.0124601198
  0
LINE
  5
587
100
AcDbEntity
  8
IMPORT_IGES
100
AcDbLine
 62
7
  6
CONTINUOUS
 10
1.0772775873
 20
8.0192898293
 11
0.9997108035
 21
8.0192898293
  0
LINE
  5
588
100
AcDbEntity
  8
IMPORT_IGES
100
AcDbLine
 62
7
  6
CONTINUOUS
 10
-5.1451553159
 20
8.0192898293
 11
-5.2227224127
 21
8.0192898293
  0
LINE
  5
589
100
AcDbEntity
  8
IMPORT_IGES
100
AcDbLine
 62
253
  6
CONTINUOUS
 10
7.1179778888
 20
8.3526229139
 11
6.9892775873
 21
8.3526229139
  0
LINE
  5
58A
100
AcDbEntity
  8
IMPORT_IGES
100
AcDbLine
 62
253
  6
CONTINUOUS
 10
1.7229519031
 20
8.3931072319
 11
1.4510949899
 21
8.3931072319
  0
LINE
  5
58B
100
AcDbEntity
  8
IMPORT_IGES
100
AcDbLine
 62
253
  6
CONTINUOUS
 10
0.4316032715
 20
8.3931072319
 11
0.6880025957
 21
8.3931072319
  0
LINE
  5
58C
100
AcDbEntity
  8
IMPORT_IGES
100
AcDbLine
 62
253
  6
CONTINUOUS
 10
-4.5770480969
 20
8.3931072319
 11
-4.8334474211
 21
8.3931072319
  0
LINE
  5
58D
100
AcDbEntity
  8
IMPORT_IGES
100
AcDbLine
 62
253
  6
CONTINUOUS
 10
-5.5965398153
 20
8.3931072319
 11
-5.8683967285
 21
8.3931072319
  0
LINE
  5
58E
100
AcDbEntity
  8
IMPORT_IGES
100
AcDbLine
 62
7
  6
CONTINUOUS
 10
-5.2149974938
 20
8.0123839769
 11
-5.2227224127
 21
8.0124601198
  0
LWPOLYLINE
  5
58F
100
AcDbEntity
  8
IMPORT_IGES
100
AcDbPolyline
 62
7
  6
CONTINUOUS
 90
3
 70
0
 10
0.987375084
 20
8.0212627051
 10
1.0310650443
 20
8.0142752842
 10
1.0695526684
 20
8.0123839769
  0
LINE
  5
590
100
AcDbEntity
  8
IMPORT_IGES
100
AcDbLine
 62
253
  6
CONTINUOUS
 10
-8.1348747176
 20
18.7051072319
 11
-8.1258425522
 21
18.6960750666
  0
LINE
  5
591
100
AcDbEntity
  8
0
100
AcDbLine
 62
253
  6
CONTINUOUS
 10
-11.1552673478
 20
21.7757283194
 11
-11.1727224127
 21
21.7931833843
  0
LINE
  5
592
100
AcDbEntity
  8
0
100
AcDbLine
 62
253
  6
CONTINUOUS
 10
-10.6553435002
 20
22.275652167
 11
-10.6727224773
 21
22.2931071673
  0
LWPOLYLINE
  5
593
100
AcDbEntity
  8
IMPORT_IGES
100
AcDbPolyline
 62
7
  6
CONTINUOUS
 90
10
 70
0
 10
1.4528324444
 20
13.9174224697
 10
1.4530957954
 20
13.9168997813
 10
1.453362153
 20
13.9158373667
 10
1.4536315171
 20
13.9142299216
 10
1.4539064892
 20
13.9120699458
 10
1.4541844679
 20
13.9093552888
 10
1.4544576485
 20
13.9060957469
 10
1.4547234298
 20
13.9022999295
 10
1.4549844131
 20
13.8979686874
 10
1.4552405984
 20
13.8931072294
  0
LWPOLYLINE
  5
594
100
AcDbEntity
  8
0
100
AcDbPolyline
 62
253
  6
CONTINUOUS
 90
4
 70
0
 10
7.3404145932
 20
24.3799397249
 10
7.3404564136
 20
24.3794477684
 10
7.3404990244
 20
24.3783501082
 10
7.3405424257
 20
24.3765989949
  0
LWPOLYLINE
  5
595
100
AcDbEntity
  8
0
100
AcDbPolyline
 62
253
  6
CONTINUOUS
 90
9
 70
0
 10
10.5137062427
 20
-24.3876190435
 10
10.5137533121
 20
-24.388991317
 10
10.5138015786
 20
-24.3901950687
 10
10.513851059
 20
-24.3912282314
 10
10.5139017365
 20
-24.3920928723
 10
10.5139530396
 20
-24.3927789508
 10
10.5140047777
 20
-24.3932831202
 10
10.5140571412
 20
-24.3936087273
 10
10.5141101304
 20
-24.3937557721
  0
LINE
  5
596
100
AcDbEntity
  8
0
100
AcDbLine
 62
7
  6
CONTINUOUS
 10
9.2272775873
 20
23.0157569627
 11
9.2141101304
 21
23.4512887025
  0
LINE
  5
597
100
AcDbEntity
  8
0
100
AcDbLine
 62
7
  6
CONTINUOUS
 10
11.0272775873
 20
-21.1068927681
 11
11.0098225224
 21
-20.5295424989
  0
LINE
  5
598
100
AcDbEntity
  8
0
100
AcDbLine
 62
253
  6
CONTINUOUS
 10
10.5135753646
 20
-24.3825830001
 11
10.5136608915
 21
-24.3860944904
  0
LWPOLYLINE
  5
599
100
AcDbEntity
  8
0
100
AcDbPolyline
 62
253
  6
CONTINUOUS
 90
4
 70
0
 10
10.3139835796
 20
-24.5888417264
 10
10.3140352994
 20
-24.5913757193
 10
10.3140876367
 20
-24.5930055255
 10
10.3141405913
 20
-24.5937253112
  0
LINE
  5
59A
100
AcDbEntity
  8
0
100
AcDbLine
 62
253
  6
CONTINUOUS
 10
10.5134981978
 20
-24.3785315094
 11
10.5135753646
 21
-24.3825830001
  0
LINE
  5
59B
100
AcDbEntity
  8
0
100
AcDbLine
 62
253
  6
CONTINUOUS
 10
10.5134004148
 20
-24.3716011171
 11
10.5134981978
 21
-24.3785315094
  0
LINE
  5
59C
100
AcDbEntity
  8
0
100
AcDbLine
 62
253
  6
CONTINUOUS
 10
10.3138816065
 20
-24.5810996204
 11
10.3139835796
 21
-24.5888417264
  0
LINE
  5
59D
100
AcDbEntity
  8
0
100
AcDbLine
 62
253
  6
CONTINUOUS
 10
10.5133051649
 20
23.7203555747
 11
10.5133965812
 21
23.7099628381
  0
LINE
  5
59E
100
AcDbEntity
  8
0
100
AcDbLine
 62
253
  6
CONTINUOUS
 10
10.5133087053
 20
-24.3613850216
 11
10.5134004148
 21
-24.3716011171
  0
LINE
  5
59F
100
AcDbEntity
  8
0
100
AcDbLine
 62
253
  6
CONTINUOUS
 10
10.3136914359
 20
-24.5554192084
 11
10.3138816065
 21
-24.5810996204
  0
LINE
  5
5A0
100
AcDbEntity
  8
0
100
AcDbLine
 62
253
  6
CONTINUOUS
 10
10.5132563884
 20
-24.3485609854
 11
10.5133087053
 21
-24.3613850216
  0
LINE
  5
5A1
100
AcDbEntity
  8
0
100
AcDbLine
 62
253
  6
CONTINUOUS
 10
10.3133071487
 20
23.6797727008
 11
10.3137194983
 21
23.5209286394
  0
LINE
  5
5A2
100
AcDbEntity
  8
0
100
AcDbLine
 62
253
  6
CONTINUOUS
 10
10.5132526088
 20
23.7374447992
 11
10.5133051649
 21
23.7203555747
  0
LINE
  5
5A3
100
AcDbEntity
  8
0
100
AcDbLine
 62
7
  6
CONTINUOUS
 10
9.3844662596
 20
-20.9426353785
 11
9.3777054755
 21
-13.999705143
  0
LINE
  5
5A4
100
AcDbEntity
  8
0
100
AcDbLine
 62
253
  6
CONTINUOUS
 10
10.3133103867
 20
-24.4057917002
 11
10.3136914359
 21
-24.5554192084
  0
LINE
  5
5A5
100
AcDbEntity
  8
0
100
AcDbLine
 62
7
  6
CONTINUOUS
 10
9.3777054755
 20
-13.999705143
 11
9.373649035
 21
-7.0542604684
  0
LINE
  5
5A6
100
AcDbEntity
  8
0
100
AcDbLine
 62
253
  6
CONTINUOUS
 10
8.690406968
 20
-23.9512303354
 11
8.690406968
 21
-22.4894377032
  0
LINE
  5
5A7
100
AcDbEntity
  8
0
100
AcDbLine
 62
253
  6
CONTINUOUS
 10
8.690406968
 20
22.275652167
 11
8.690406968
 21
23.7374447992
  0
LINE
  5
5A8
100
AcDbEntity
  8
0
100
AcDbLine
 62
253
  6
CONTINUOUS
 10
8.9641482066
 20
-23.9512303354
 11
8.9641482066
 21
-22.4894377032
  0
LINE
  5
5A9
100
AcDbEntity
  8
0
100
AcDbLine
 62
253
  6
CONTINUOUS
 10
8.9641482066
 20
22.275652167
 11
8.9641482066
 21
23.7374447992
  0
LINE
  5
5AA
100
AcDbEntity
  8
0
100
AcDbLine
 62
253
  6
CONTINUOUS
 10
9.2141101304
 20
-23.6650742387
 11
9.2141101304
 21
-22.4937253112
  0
LINE
  5
5AB
100
AcDbEntity
  8
0
100
AcDbLine
 62
253
  6
CONTINUOUS
 10
9.2141101304
 20
22.279939775
 11
9.2141101304
 21
23.4512887025
  0
LINE
  5
5AC
100
AcDbEntity
  8
0
100
AcDbLine
 62
7
  6
CONTINUOUS
 10
9.2272775873
 20
-23.2295424989
 11
9.2272775873
 21
-22.5068927681
  0
LINE
  5
5AD
100
AcDbEntity
  8
0
100
AcDbLine
 62
7
  6
CONTINUOUS
 10
9.2272775873
 20
22.2931072319
 11
9.2272775873
 21
23.0157569627
  0
LINE
  5
5AE
100
AcDbEntity
  8
0
100
AcDbLine
 62
7
  6
CONTINUOUS
 10
9.373649035
 20
-7.0542604684
 11
9.3722969191
 21
-0.1068826281
  0
LINE
  5
5AF
100
AcDbEntity
  8
0
100
AcDbLine
 62
7
  6
CONTINUOUS
 10
9.5772775873
 20
20.7931072319
 11
9.5772775873
 21
-21.0068927681
  0
LINE
  5
5B0
100
AcDbEntity
  8
0
100
AcDbLine
 62
7
  6
CONTINUOUS
 10
10.5272775873
 20
22.2931069677
 11
10.5272775873
 21
24.1931376929
  0
LINE
  5
5B1
100
AcDbEntity
  8
0
100
AcDbLine
 62
7
  6
CONTINUOUS
 10
10.5272776519
 20
-22.5068926977
 11
10.5272775873
 21
-24.4069232291
  0
LINE
  5
5B2
100
AcDbEntity
  8
0
100
AcDbLine
 62
7
  6
CONTINUOUS
 10
9.3722969191
 20
-0.1068826281
 11
9.3736490399
 21
6.8404893594
  0
LINE
  5
5B3
100
AcDbEntity
  8
0
100
AcDbLine
 62
7
  6
CONTINUOUS
 10
9.3736490399
 20
6.8404893594
 11
9.3777054808
 21
13.7859265541
  0
LINE
  5
5B4
100
AcDbEntity
  8
0
100
AcDbLine
 62
7
  6
CONTINUOUS
 10
9.3777054808
 20
13.7859265541
 11
9.3844662596
 21
20.7288498423
  0
LINE
  5
5B5
100
AcDbEntity
  8
0
100
AcDbLine
 62
253
  6
CONTINUOUS
 10
10.5132767455
 20
-23.9395973124
 11
10.5132563884
 21
-24.3485609854
  0
LINE
  5
5B6
100
AcDbEntity
  8
0
100
AcDbLine
 62
253
  6
CONTINUOUS
 10
10.3135554699
 20
-23.769399508
 11
10.3133103867
 21
-24.4057917002
  0
LINE
  5
5B7
100
AcDbEntity
  8
0
100
AcDbLine
 62
253
  6
CONTINUOUS
 10
10.3135761581
 20
24.3168658068
 11
10.3133071487
 21
23.6797727008
  0
LINE
  5
5B8
100
AcDbEntity
  8
0
100
AcDbLine
 62
253
  6
CONTINUOUS
 10
10.5132779937
 20
24.1419439928
 11
10.5132526088
 21
23.7374447992
  0
LINE
  5
5B9
100
AcDbEntity
  8
0
100
AcDbLine
 62
253
  6
CONTINUOUS
 10
10.3137192212
 20
-23.7347662631
 11
10.3135554699
 21
-23.769399508
  0
LINE
  5
5BA
100
AcDbEntity
  8
0
100
AcDbLine
 62
253
  6
CONTINUOUS
 10
10.313833968
 20
24.3623586874
 11
10.3135761581
 21
24.3168658068
  0
LINE
  5
5BB
100
AcDbEntity
  8
0
100
AcDbLine
 62
253
  6
CONTINUOUS
 10
10.5133526616
 20
24.1532202381
 11
10.5132779937
 21
24.1419439928
  0
LWPOLYLINE
  5
5BC
100
AcDbEntity
  8
0
100
AcDbPolyline
 62
253
  6
CONTINUOUS
 90
3
 70
0
 10
10.5133967683
 20
-23.9237310774
 10
10.5133455393
 20
-23.9288132309
 10
10.5132767455
 20
-23.9395973124
  0
LINE
  5
5BD
100
AcDbEntity
  8
0
100
AcDbLine
 62
253
  6
CONTINUOUS
 10
10.313924411
 20
24.3710412183
 11
10.313833968
 21
24.3623586874
  0
LINE
  5
5BE
100
AcDbEntity
  8
0
100
AcDbLine
 62
253
  6
CONTINUOUS
 10
10.5134382689
 20
24.1608049886
 11
10.5133526616
 21
24.1532202381
  0
LINE
  5
5BF
100
AcDbEntity
  8
0
100
AcDbLine
 62
253
  6
CONTINUOUS
 10
10.5135457527
 20
24.1673545008
 11
10.5134382689
 21
24.1608049886
  0
LWPOLYLINE
  5
5C0
100
AcDbEntity
  8
0
100
AcDbPolyline
 62
253
  6
CONTINUOUS
 90
3
 70
0
 10
10.5136698773
 20
24.1726227801
 10
10.513626876
 20
24.1710179432
 10
10.5135457527
 20
24.1673545008
  0
LINE
  5
5C1
100
AcDbEntity
  8
0
100
AcDbLine
 62
7
  6
CONTINUOUS
 10
9.2141101304
 20
-23.6650742387
 11
9.2272775873
 21
-23.2295424989
  0
LINE
  5
5C2
100
AcDbEntity
  8
0
100
AcDbLine
 62
7
  6
CONTINUOUS
 10
11.0098225224
 20
20.3157569627
 11
11.0272775873
 21
20.8931072319
  0
LWPOLYLINE
  5
5C3
100
AcDbEntity
  8
0
100
AcDbPolyline
 62
7
  6
CONTINUOUS
 90
10
 70
0
 10
-8.6193454425
 20
-23.7347239844
 10
-8.637638125
 20
-23.7540368512
 10
-8.6585797849
 20
-23.7747596383
 10
-8.6815138037
 20
-23.7968923457
 10
-8.7056519778
 20
-23.8207337355
 10
-8.7305796873
 20
-23.8459850456
 10
-8.7563714474
 20
-23.8717499893
 10
-8.7828428586
 20
-23.8977298044
 10
-8.8094480889
 20
-23.9242232531
 10
-8.8358517934
 20
-23.9512303354
  0
LINE
  5
5C4
100
AcDbEntity
  8
IMPORT_IGES
100
AcDbLine
 62
253
  6
CONTINUOUS
 10
-2.4446174021
 20
-15.5288639099
 11
-2.4227224127
 21
-15.5069689205
  0
LINE
  5
5C5
100
AcDbEntity
  8
0
100
AcDbLine
 62
7
  6
CONTINUOUS
 10
-9.3727224127
 20
-22.5068927681
 11
-9.3595549558
 21
-22.4937253112
  0
LINE
  5
5C6
100
AcDbEntity
  8
0
100
AcDbLine
 62
7
  6
CONTINUOUS
 10
-7.1573958769
 20
-20.3386139545
 11
-7.0069782574
 21
-20.1881963351
  0
LINE
  5
5C7
100
AcDbEntity
  8
0
100
AcDbLine
 62
253
  6
CONTINUOUS
 10
-10.6727224127
 20
-24.4069232291
 11
-10.6595549558
 21
-24.3937557721
  0
LINE
  5
5C8
100
AcDbEntity
  8
IMPORT_IGES
100
AcDbLine
 62
253
  6
CONTINUOUS
 10
-1.9227985651
 20
-16.0068927681
 11
-1.9446935545
 21
-16.0287877575
  0
LINE
  5
5C9
100
AcDbEntity
  8
IMPORT_IGES
100
AcDbLine
 62
253
  6
CONTINUOUS
 10
0.3773537397
 20
-13.7068927681
 11
0.3992487291
 21
-13.6849977787
  0
LINE
  5
5CA
100
AcDbEntity
  8
0
100
AcDbLine
 62
253
  6
CONTINUOUS
 10
-10.4727528737
 20
-24.6068927681
 11
-10.4595854168
 21
-24.5937253112
  0
LINE
  5
5CB
100
AcDbEntity
  8
IMPORT_IGES
100
AcDbLine
 62
253
  6
CONTINUOUS
 10
0.8991725767
 20
-14.1849216263
 11
0.8772775873
 21
-14.2068166157
  0
LWPOLYLINE
  5
5CC
100
AcDbEntity
  8
0
100
AcDbPolyline
 62
253
  6
CONTINUOUS
 90
20
 70
0
 10
0.4121451998
 20
-10.5171481063
 10
0.392785136
 20
-10.5241254251
 10
0.3358562875
 20
-10.5420844972
 10
0.2799281347
 20
-10.5573745205
 10
0.2251315991
 20
-10.5699983617
 10
0.171361161
 20
-10.5802150331
 10
0.1179379483
 20
-10.5884677516
 10
0.0649629544
 20
-10.5945885838
 10
0.0123123001
 20
-10.5985969125
 10
-0.0411444844
 20
-10.6007926651
 10
-0.0955886697
 20
-10.6010683407
 10
-0.1508325608
 20
-10.5991457602
 10
-0.2074825899
 20
-10.5948250971
 10
-0.2663570142
 20
-10.5880117797
 10
-0.3266440208
 20
-10.5786224347
 10
-0.3864470923
 20
-10.5665931116
 10
-0.4458330868
 20
-10.5519904776
 10
-0.5047745601
 20
-10.5350236
 10
-0.5611229197
 20
-10.5162235606
 10
-0.5622156343
 20
-10.5158100998
  0
LWPOLYLINE
  5
5CD
100
AcDbEntity
  8
IMPORT_IGES
100
AcDbPolyline
 62
7
  6
CONTINUOUS
 90
3
 70
0
 10
-5.132821425
 20
8.0212623726
 10
-5.1765107186
 20
8.0142752002
 10
-5.2149974938
 20
8.0123839769
  0
LINE
  5
5CE
100
AcDbEntity
  8
IMPORT_IGES
100
AcDbLine
 62
7
  6
CONTINUOUS
 10
7.1126070717
 20
8.9532983615
 11
6.9892775873
 21
8.9532983615
  0
LINE
  5
5CF
100
AcDbEntity
  8
IMPORT_IGES
100
AcDbLine
 62
7
  6
CONTINUOUS
 10
7.1176493408
 20
9.1626726313
 11
6.9892775873
 21
9.1626726086
  0
LINE
  5
5D0
100
AcDbEntity
  8
IMPORT_IGES
100
AcDbLine
 62
7
  6
CONTINUOUS
 10
0.6877506262
 20
9.6931072319
 11
1.4510949899
 21
9.6931072319
  0
LINE
  5
5D1
100
AcDbEntity
  8
IMPORT_IGES
100
AcDbLine
 62
7
  6
CONTINUOUS
 10
1.4510949899
 20
9.7140533098
 11
0.6877506262
 21
9.7140533098
  0
LINE
  5
5D2
100
AcDbEntity
  8
IMPORT_IGES
100
AcDbLine
 62
7
  6
CONTINUOUS
 10
-5.5965398153
 20
10.0681072319
 11
-4.8331954517
 21
10.0681072319
  0
LINE
  5
5D3
100
AcDbEntity
  8
IMPORT_IGES
100
AcDbLine
 62
7
  6
CONTINUOUS
 10
-4.8331954517
 20
10.0890533098
 11
-5.5965398153
 21
10.0890533098
  0
LINE
  5
5D4
100
AcDbEntity
  8
IMPORT_IGES
100
AcDbLine
 62
7
  6
CONTINUOUS
 10
7.1175655122
 20
10.2634801821
 11
6.9892775873
 21
10.2634801821
  0
LINE
  5
5D5
100
AcDbEntity
  8
IMPORT_IGES
100
AcDbLine
 62
7
  6
CONTINUOUS
 10
0.6877506262
 20
10.4931072319
 11
0.9522775873
 21
10.4931072319
  0
LINE
  5
5D6
100
AcDbEntity
  8
IMPORT_IGES
100
AcDbLine
 62
7
  6
CONTINUOUS
 10
7.1175321711
 20
10.7013013123
 11
6.9892775873
 21
10.7012983087
  0
LINE
  5
5D7
100
AcDbEntity
  8
IMPORT_IGES
100
AcDbLine
 62
7
  6
CONTINUOUS
 10
7.1175509325
 20
10.4552858828
 11
6.9892775873
 21
10.455426959
  0
LWPOLYLINE
  5
5D8
100
AcDbEntity
  8
IMPORT_IGES
100
AcDbPolyline
 62
7
  6
CONTINUOUS
 90
4
 70
0
 10
-3.2596477007
 20
16.1646711576
 10
-3.2226603966
 20
16.1356379186
 10
-3.1854240031
 20
16.1034365776
 10
-3.1479385202
 20
16.0678911373
  0
LINE
  5
5D9
100
AcDbEntity
  8
IMPORT_IGES
100
AcDbLine
 62
7
  6
CONTINUOUS
 10
-2.8489050101
 20
15.4192898293
 11
-2.8470376505
 21
15.4174224697
  0
LINE
  5
5DA
100
AcDbEntity
  8
0
100
AcDbLine
 62
7
  6
CONTINUOUS
 10
-9.3727224127
 20
22.2931072319
 11
-9.3595549558
 21
22.279939775
  0
LINE
  5
5DB
100
AcDbEntity
  8
0
100
AcDbLine
 62
7
  6
CONTINUOUS
 10
-7.0069782574
 20
19.9744107989
 11
-7.1573958769
 21
20.1248284184
  0
LINE
  5
5DC
100
AcDbEntity
  8
0
100
AcDbLine
 62
253
  6
CONTINUOUS
 10
-10.6595549558
 20
24.179970236
 11
-10.6727224127
 21
24.1931376929
  0
LINE
  5
5DD
100
AcDbEntity
  8
IMPORT_IGES
100
AcDbLine
 62
7
  6
CONTINUOUS
 10
0.7034601847
 20
12.8669246345
 11
0.701592825
 21
12.8687919942
  0
LINE
  5
5DE
100
AcDbEntity
  8
0
100
AcDbLine
 62
253
  6
CONTINUOUS
 10
-10.4595854168
 20
24.379939775
 11
-10.4727528737
 21
24.3931072319
  0
LINE
  5
5DF
100
AcDbEntity
  8
IMPORT_IGES
100
AcDbLine
 62
7
  6
CONTINUOUS
 10
-1.2965398153
 20
16.1669246345
 11
-1.298407175
 21
16.1687919942
  0
LWPOLYLINE
  5
5E0
100
AcDbEntity
  8
IMPORT_IGES
100
AcDbPolyline
 62
7
  6
CONTINUOUS
 90
20
 70
0
 10
-3.1479385202
 20
16.0678911373
 10
-3.1269283431
 20
16.0460231735
 10
-3.1065054968
 20
16.023290729
 10
-3.0866699811
 20
15.9996912868
 10
-3.0673719968
 20
15.9752080982
 10
-3.0486613431
 20
15.9498578075
 10
-3.0306874182
 20
15.9236940251
 10
-3.0134861596
 20
15.8968006926
 10
-2.9970216298
 20
15.8691153997
 10
-2.9813354139
 20
15.8404688712
 10
-2.9664196703
 20
15.8109457068
 10
-2.9522822407
 20
15.780478465
 10
-2.9389882358
 20
15.7486464516
 10
-2.9264601493
 20
15.7154468611
 10
-2.9147754875
 20
15.6808871467
 10
-2.9042318799
 20
15.6445376252
 10
-2.8947345576
 20
15.6064527137
 10
-2.8863782895
 20
15.5666050643
 10
-2.8797450114
 20
15.524430374
 10
-2.8747314678
 20
15.4797201107
  0
LWPOLYLINE
  5
5E1
100
AcDbEntity
  8
IMPORT_IGES
100
AcDbPolyline
 62
7
  6
CONTINUOUS
 90
7
 70
0
 10
7.1126070717
 20
8.9532983615
 10
7.112935449
 20
8.9519463249
 10
7.1132509217
 20
8.949274739
 10
7.1135534898
 20
8.9452836036
 10
7.1138427061
 20
8.9399016405
 10
7.1141190177
 20
8.9332001281
 10
7.1143837665
 20
8.9253929013
  0
LWPOLYLINE
  5
5E2
100
AcDbEntity
  8
IMPORT_IGES
100
AcDbPolyline
 62
7
  6
CONTINUOUS
 90
15
 70
0
 10
7.4251071521
 20
15.7667576177
 10
7.4185714142
 20
15.8076777253
 10
7.407859425
 20
15.8477140002
 10
7.3931472126
 20
15.8864597546
 10
7.3746108051
 20
15.923508301
 10
7.3524262307
 20
15.9584529515
 10
7.3267695173
 20
15.9908870186
 10
7.2978214716
 20
16.0204080177
 10
7.2658750951
 20
16.0467121516
 10
7.2313368747
 20
16.0695954451
 10
7.1946183335
 20
16.0888583531
 10
7.1561309946
 20
16.1043013304
 10
7.1162863811
 20
16.1157248316
 10
7.0754960161
 20
16.1229293117
 10
7.0343368165
 20
16.1257131533
  0
LWPOLYLINE
  5
5E3
100
AcDbEntity
  8
0
100
AcDbPolyline
 62
253
  6
CONTINUOUS
 90
13
 70
0
 10
10.5141101304
 20
24.179970236
 10
10.5123920801
 20
24.2060664451
 10
10.5072832102
 20
24.2317163181
 10
10.4988708995
 20
24.256481149
 10
10.4872990278
 20
24.2799373683
 10
10.4727655148
 20
24.3016837891
 10
10.4555189344
 20
24.3213484685
 10
10.4358542637
 20
24.3385950679
 10
10.41410784
 20
24.3531286053
 10
10.3906516069
 20
24.3647005016
 10
10.365886752
 20
24.3731128338
 10
10.3402368443
 20
24.3782217189
 10
10.3141405913
 20
24.379939775
  0
LINE
  5
5E4
100
AcDbEntity
  8
0
100
AcDbLine
 62
7
  6
CONTINUOUS
 10
11.0534635089
 20
20.3157569627
 11
11.0272775873
 21
20.8931072319
  0
LINE
  5
5E5
100
AcDbEntity
  8
0
100
AcDbLine
 62
253
  6
CONTINUOUS
 10
10.3137197429
 20
23.5209286388
 11
10.3289926282
 21
23.0157569627
  0
LINE
  5
5E6
100
AcDbEntity
  8
0
100
AcDbLine
 62
253
  6
CONTINUOUS
 10
10.5136026135
 20
23.697435159
 11
10.5272775873
 21
23.2446818401
  0
LWPOLYLINE
  5
5E7
100
AcDbEntity
  8
0
100
AcDbPolyline
 62
253
  6
CONTINUOUS
 90
3
 70
0
 10
10.5133965812
 20
23.7099628381
 10
10.5134567519
 20
23.7053108721
 10
10.5136026135
 20
23.697435159
  0
LINE
  5
5E8
100
AcDbEntity
  8
0
100
AcDbLine
 62
7
  6
CONTINUOUS
 10
11.0098225224
 20
21.7757283194
 11
11.0098225224
 21
20.3157569627
  0
LINE
  5
5E9
100
AcDbEntity
  8
0
100
AcDbLine
 62
7
  6
CONTINUOUS
 10
11.0098225224
 20
-20.5295424989
 11
11.0098225224
 21
-21.9895138556
  0
LINE
  5
5EA
100
AcDbEntity
  8
0
100
AcDbLine
 62
7
  6
CONTINUOUS
 10
11.0272775873
 20
21.7931833843
 11
11.0272775873
 21
20.8931072319
  0
LINE
  5
5EB
100
AcDbEntity
  8
0
100
AcDbLine
 62
7
  6
CONTINUOUS
 10
11.0272775873
 20
-22.0069689205
 11
11.0272775873
 21
-21.1068927681
  0
LINE
  5
5EC
100
AcDbEntity
  8
0
100
AcDbLine
 62
7
  6
CONTINUOUS
 10
11.0534635089
 20
-20.5295424989
 11
11.0534635089
 21
20.3157569627
  0
LWPOLYLINE
  5
5ED
100
AcDbEntity
  8
0
100
AcDbPolyline
 62
253
  6
CONTINUOUS
 90
3
 70
0
 10
10.5136026988
 20
-23.9112141231
 10
10.513525348
 20
-23.9149315235
 10
10.5133967683
 20
-23.9237310774
  0
LINE
  5
5EE
100
AcDbEntity
  8
0
100
AcDbLine
 62
253
  6
CONTINUOUS
 10
10.3289926282
 20
-23.2295424989
 11
10.3137181685
 21
-23.7347662507
  0
LINE
  5
5EF
100
AcDbEntity
  8
0
100
AcDbLine
 62
253
  6
CONTINUOUS
 10
10.5272775873
 20
-23.4584673763
 11
10.5136026988
 21
-23.9112141231
  0
LINE
  5
5F0
100
AcDbEntity
  8
0
100
AcDbLine
 62
7
  6
CONTINUOUS
 10
11.0272775873
 20
-21.1068927681
 11
11.0534635089
 21
-20.5295424989
  0
LWPOLYLINE
  5
5F1
100
AcDbEntity
  8
0
100
AcDbPolyline
 62
253
  6
CONTINUOUS
 90
13
 70
0
 10
10.5141101304
 20
-24.3937557721
 10
10.5123920771
 20
-24.4198520036
 10
10.5072831995
 20
-24.4455018942
 10
10.4988708779
 20
-24.4702667371
 10
10.4872989939
 20
-24.4937229631
 10
10.4727654688
 20
-24.5154693851
 10
10.4555188791
 20
-24.5351340599
 10
10.4358542043
 20
-24.5523806496
 10
10.4141077823
 20
-24.5669141747
 10
10.3906515563
 20
-24.5784860587
 10
10.3658867134
 20
-24.5868983803
 10
10.3402368228
 20
-24.5920072579
 10
10.3141405913
 20
-24.5937253112
  0
LINE
  5
5F2
100
AcDbEntity
  8
0
100
AcDbLine
 62
253
  6
CONTINUOUS
 10
2.5559526649
 20
-22.0820755621
 11
2.4772775873
 21
-22.2394377017
  0
LINE
  5
5F3
100
AcDbEntity
  8
0
100
AcDbLine
 62
253
  6
CONTINUOUS
 10
2.8059431456
 20
-22.3320374859
 11
2.7272490307
 21
-22.4894377032
  0
LINE
  5
5F4
100
AcDbEntity
  8
0
100
AcDbLine
 62
7
  6
CONTINUOUS
 10
-4.5227224127
 20
-22.5068927681
 11
-4.4246064353
 21
-22.4087767907
  0
LINE
  5
5F5
100
AcDbEntity
  8
IMPORT_IGES
100
AcDbLine
 62
7
  6
CONTINUOUS
 10
7.1285455981
 20
-8.3596332026
 11
7.1258937935
 21
-8.3622773917
  0
LINE
  5
5F6
100
AcDbEntity
  8
0
100
AcDbLine
 62
7
  6
CONTINUOUS
 10
7.6960643791
 20
12.0713930497
 11
7.1582163382
 21
12.059946297
  0
LINE
  5
5F7
100
AcDbEntity
  8
IMPORT_IGES
100
AcDbLine
 62
7
  6
CONTINUOUS
 10
6.9892775873
 20
12.15746604
 11
7.0342964727
 21
12.1582526101
  0
LINE
  5
5F8
100
AcDbEntity
  8
IMPORT_IGES
100
AcDbLine
 62
7
  6
CONTINUOUS
 10
-5.1227224127
 20
10.8681072319
 11
-4.836164979
 21
10.8681072319
  0
LINE
  5
5F9
100
AcDbEntity
  8
IMPORT_IGES
100
AcDbLine
 62
253
  6
CONTINUOUS
 10
7.1142545228
 20
10.89401569
 11
6.9892775873
 21
10.89401569
  0
LINE
  5
5FA
100
AcDbEntity
  8
IMPORT_IGES
100
AcDbLine
 62
253
  6
CONTINUOUS
 10
7.1105095754
 20
11.3295076682
 11
6.9892775873
 21
11.3295122843
  0
LINE
  5
5FB
100
AcDbEntity
  8
IMPORT_IGES
100
AcDbLine
 62
7
  6
CONTINUOUS
 10
7.1174666531
 20
11.5616546885
 11
6.9892775873
 21
11.5616530117
  0
LINE
  5
5FC
100
AcDbEntity
  8
IMPORT_IGES
100
AcDbLine
 62
7
  6
CONTINUOUS
 10
7.1174518348
 20
11.7562418818
 11
6.9892775873
 21
11.756244389
  0
LINE
  5
5FD
100
AcDbEntity
  8
IMPORT_IGES
100
AcDbLine
 62
7
  6
CONTINUOUS
 10
-5.5965398153
 20
12.8669246345
 11
-4.8489050101
 21
12.8669246345
  0
LINE
  5
5FE
100
AcDbEntity
  8
IMPORT_IGES
100
AcDbLine
 62
7
  6
CONTINUOUS
 10
0.7034601847
 20
12.8669246345
 11
1.4510949899
 21
12.8669246345
  0
LINE
  5
5FF
100
AcDbEntity
  8
IMPORT_IGES
100
AcDbLine
 62
253
  6
CONTINUOUS
 10
-5.598407175
 20
12.8687919942
 11
-4.8470376505
 21
12.8687919942
  0
LINE
  5
600
100
AcDbEntity
  8
IMPORT_IGES
100
AcDbLine
 62
253
  6
CONTINUOUS
 10
0.701592825
 20
12.8687919942
 11
1.4529623495
 21
12.8687919942
  0
LINE
  5
601
100
AcDbEntity
  8
IMPORT_IGES
100
AcDbLine
 62
7
  6
CONTINUOUS
 10
7.1104924286
 20
11.554680464
 11
6.9892775873
 21
11.554944635
  0
LWPOLYLINE
  5
602
100
AcDbEntity
  8
0
100
AcDbPolyline
 62
7
  6
CONTINUOUS
 90
8
 70
0
 10
7.1582163382
 20
12.059946297
 10
7.1286273536
 20
12.060962167
 10
7.1000419374
 20
12.0649181334
 10
7.0726950981
 20
12.0715835572
 10
7.046894986
 20
12.0806960695
 10
7.0226698626
 20
12.0920111982
 10
6.9998155793
 20
12.1054010118
 10
6.9975948166
 20
12.1069910057
  0
LINE
  5
603
100
AcDbEntity
  8
IMPORT_IGES
100
AcDbLine
 62
7
  6
CONTINUOUS
 10
-3.262838564
 20
16.1669246345
 11
-3.2596477007
 21
16.1646711576
  0
LWPOLYLINE
  5
604
100
AcDbEntity
  8
0
100
AcDbPolyline
 62
7
  6
CONTINUOUS
 90
10
 70
0
 10
-8.6193454425
 20
23.5209384483
 10
-8.6386583093
 20
23.5392311308
 10
-8.6593810964
 20
23.5601727906
 10
-8.6815138037
 20
23.5831068095
 10
-8.7053551935
 20
23.6072449836
 10
-8.7306065037
 20
23.6321726931
 10
-8.7563714474
 20
23.6579644532
 10
-8.7823512625
 20
23.6844358643
 10
-8.8088447111
 20
23.7110410946
 10
-8.8358517934
 20
23.7374447992
  0
LINE
  5
605
100
AcDbEntity
  8
IMPORT_IGES
100
AcDbLine
 62
7
  6
CONTINUOUS
 10
1.4528324444
 20
13.9174224697
 11
1.4509442409
 21
13.9192898293
  0
LINE
  5
606
100
AcDbEntity
  8
0
100
AcDbLine
 62
7
  6
CONTINUOUS
 10
-4.5227224127
 20
22.2931072319
 11
-4.4246064353
 21
22.1949912545
  0
LINE
  5
607
100
AcDbEntity
  8
0
100
AcDbLine
 62
253
  6
CONTINUOUS
 10
2.4772775873
 20
22.0256521655
 11
2.5559526649
 21
21.868290026
  0
LINE
  5
608
100
AcDbEntity
  8
0
100
AcDbLine
 62
253
  6
CONTINUOUS
 10
2.7272490307
 20
22.275652167
 11
2.8059431456
 21
22.1182519497
  0
LINE
  5
609
100
AcDbEntity
  8
0
100
AcDbLine
 62
7
  6
CONTINUOUS
 10
7.22850093
 20
-22.3320374859
 11
7.1823909974
 21
-22.4894377032
  0
LINE
  5
60A
100
AcDbEntity
  8
0
100
AcDbLine
 62
253
  6
CONTINUOUS
 10
-4.4246046483
 20
-23.7588130799
 11
-4.5227224127
 21
-23.8569308443
  0
LINE
  5
60B
100
AcDbEntity
  8
0
100
AcDbLine
 62
253
  6
CONTINUOUS
 10
-4.1746445115
 20
-24.0087767907
 11
-4.2727604889
 21
-24.1068927681
  0
LINE
  5
60C
100
AcDbEntity
  8
IMPORT_IGES
100
AcDbLine
 62
253
  6
CONTINUOUS
 10
1.4598225224
 20
13.2687310722
 11
0.6947326522
 21
13.2687310722
  0
LINE
  5
60D
100
AcDbEntity
  8
IMPORT_IGES
100
AcDbLine
 62
253
  6
CONTINUOUS
 10
-4.8401774776
 20
13.2687310722
 11
-5.6052673478
 21
13.2687310722
  0
LINE
  5
60E
100
AcDbEntity
  8
IMPORT_IGES
100
AcDbLine
 62
253
  6
CONTINUOUS
 10
-5.6052673478
 20
13.5174833916
 11
-4.8401774776
 21
13.5174833916
  0
LINE
  5
60F
100
AcDbEntity
  8
IMPORT_IGES
100
AcDbLine
 62
253
  6
CONTINUOUS
 10
0.6947326522
 20
13.5174833916
 11
1.4598225224
 21
13.5174833916
  0
LINE
  5
610
100
AcDbEntity
  8
IMPORT_IGES
100
AcDbLine
 62
253
  6
CONTINUOUS
 10
-4.8447594017
 20
13.8931072319
 11
-4.5770480969
 21
13.8931072319
  0
LINE
  5
611
100
AcDbEntity
  8
IMPORT_IGES
100
AcDbLine
 62
253
  6
CONTINUOUS
 10
0.4316032715
 20
13.8931072319
 11
0.6993145764
 21
13.8931072348
  0
LINE
  5
612
100
AcDbEntity
  8
IMPORT_IGES
100
AcDbLine
 62
253
  6
CONTINUOUS
 10
1.4552405984
 20
13.8931072294
 11
1.7229519031
 21
13.8931072319
  0
LINE
  5
613
100
AcDbEntity
  8
IMPORT_IGES
100
AcDbLine
 62
253
  6
CONTINUOUS
 10
-5.8683967285
 20
13.8931072319
 11
-5.6006854236
 21
13.8931072348
  0
LINE
  5
614
100
AcDbEntity
  8
IMPORT_IGES
100
AcDbLine
 62
253
  6
CONTINUOUS
 10
1.4528324444
 20
13.9174224697
 11
0.7013988794
 21
13.9174224697
  0
LINE
  5
615
100
AcDbEntity
  8
IMPORT_IGES
100
AcDbLine
 62
253
  6
CONTINUOUS
 10
-4.8468437047
 20
13.9174224697
 11
-5.5982772695
 21
13.9174224697
  0
LINE
  5
616
100
AcDbEntity
  8
IMPORT_IGES
100
AcDbLine
 62
7
  6
CONTINUOUS
 10
1.4509442409
 20
13.9192898293
 11
0.7032355789
 21
13.9192898293
  0
LINE
  5
617
100
AcDbEntity
  8
IMPORT_IGES
100
AcDbLine
 62
7
  6
CONTINUOUS
 10
-4.8486804042
 20
13.9192898294
 11
-5.5963890664
 21
13.9192898293
  0
LINE
  5
618
100
AcDbEntity
  8
IMPORT_IGES
100
AcDbLine
 62
7
  6
CONTINUOUS
 10
0.5190669169
 20
14.6181072319
 11
1.3272775873
 21
14.6181072319
  0
LWPOLYLINE
  5
619
100
AcDbEntity
  8
IMPORT_IGES
100
AcDbPolyline
 62
253
  6
CONTINUOUS
 90
10
 70
0
 10
-1.3499202487
 20
15.1474329161
 10
-1.4282368648
 20
15.1600610561
 10
-1.5069130932
 20
15.1714962038
 10
-1.5860487755
 20
15.1817060534
 10
-1.6658968905
 20
15.1906536389
 10
-1.746427033
 20
15.1982075723
 10
-1.8273166579
 20
15.2042112352
 10
-1.9085249374
 20
15.2085855267
 10
-1.9902949242
 20
15.2112690128
 10
-2.0727204245
 20
15.2121702754
  0
LINE
  5
61A
100
AcDbEntity
  8
0
100
AcDbLine
 62
253
  6
CONTINUOUS
 10
-4.5227224127
 20
23.6431453081
 11
-4.4246046483
 21
23.5450275437
  0
LINE
  5
61B
100
AcDbEntity
  8
0
100
AcDbLine
 62
253
  6
CONTINUOUS
 10
-4.2727604889
 20
23.8931072319
 11
-4.1746445115
 21
23.7949912545
  0
LINE
  5
61C
100
AcDbEntity
  8
0
100
AcDbLine
 62
7
  6
CONTINUOUS
 10
7.22850093
 20
22.1182519497
 11
7.1823909974
 21
22.275652167
  0
LINE
  5
61D
100
AcDbEntity
  8
0
100
AcDbLine
 62
7
  6
CONTINUOUS
 10
2.4772775873
 20
-21.8068927681
 11
2.5445808008
 21
-21.7395895546
  0
LINE
  5
61E
100
AcDbEntity
  8
0
100
AcDbLine
 62
7
  6
CONTINUOUS
 10
-9.5299110851
 20
-20.9426353785
 11
-9.7227224127
 21
-21.0068927681
  0
LWPOLYLINE
  5
61F
100
AcDbEntity
  8
IMPORT_IGES
100
AcDbPolyline
 62
253
  6
CONTINUOUS
 90
10
 70
0
 10
-2.0727204245
 20
15.2121702754
 10
-2.1551676672
 20
15.2112654325
 10
-2.236952051
 20
15.2085767431
 10
-2.3181673338
 20
15.2041965913
 10
-2.3990541212
 20
15.1981864539
 10
-2.4795739565
 20
15.1906275012
 10
-2.5594119804
 20
15.181679427
 10
-2.6385408854
 20
15.1714742235
 10
-2.7172116519
 20
15.1600479952
 10
-2.7955245767
 20
15.1474329161
  0
LINE
  5
620
100
AcDbEntity
  8
IMPORT_IGES
100
AcDbLine
 62
253
  6
CONTINUOUS
 10
-3.3227224127
 20
15.1474329161
 11
-2.7955245767
 21
15.1474329161
  0
LINE
  5
621
100
AcDbEntity
  8
IMPORT_IGES
100
AcDbLine
 62
253
  6
CONTINUOUS
 10
-1.3499202487
 20
15.1474329161
 11
-0.8227224127
 21
15.1474329161
  0
LINE
  5
622
100
AcDbEntity
  8
IMPORT_IGES
100
AcDbLine
 62
253
  6
CONTINUOUS
 10
-0.8227224127
 20
15.3973948399
 11
-3.3227224127
 21
15.3973948399
  0
LINE
  5
623
100
AcDbEntity
  8
IMPORT_IGES
100
AcDbLine
 62
7
  6
CONTINUOUS
 10
-1.698346253
 20
15.4105622968
 11
-2.4470985724
 21
15.4105622968
  0
LINE
  5
624
100
AcDbEntity
  8
IMPORT_IGES
100
AcDbLine
 62
7
  6
CONTINUOUS
 10
-0.8227224127
 20
15.4192898293
 11
-1.2965398153
 21
15.4192898293
  0
LINE
  5
625
100
AcDbEntity
  8
IMPORT_IGES
100
AcDbLine
 62
7
  6
CONTINUOUS
 10
-2.8489050101
 20
15.4192898293
 11
-3.3227224127
 21
15.4192898293
  0
LINE
  5
626
100
AcDbEntity
  8
IMPORT_IGES
100
AcDbLine
 62
7
  6
CONTINUOUS
 10
-3.3227224127
 20
16.1669246345
 11
-2.8489050101
 21
16.1669246345
  0
LINE
  5
627
100
AcDbEntity
  8
IMPORT_IGES
100
AcDbLine
 62
7
  6
CONTINUOUS
 10
-1.2965398153
 20
16.1669246345
 11
-0.8227224127
 21
16.1669246345
  0
LINE
  5
628
100
AcDbEntity
  8
IMPORT_IGES
100
AcDbLine
 62
7
  6
CONTINUOUS
 10
-2.4470985724
 20
16.175652167
 11
-1.698346253
 21
16.175652167
  0
LINE
  5
629
100
AcDbEntity
  8
IMPORT_IGES
100
AcDbLine
 62
253
  6
CONTINUOUS
 10
-3.3227224127
 20
16.1888196239
 11
-0.8227224127
 21
16.1888196239
  0
LINE
  5
62A
100
AcDbEntity
  8
IMPORT_IGES
100
AcDbLine
 62
253
  6
CONTINUOUS
 10
-0.8227224127
 20
16.4387815477
 11
-3.3227224127
 21
16.4387815477
  0
LINE
  5
62B
100
AcDbEntity
  8
IMPORT_IGES
100
AcDbLine
 62
7
  6
CONTINUOUS
 10
7.0343045547
 20
16.1282447666
 11
6.9892775873
 21
16.1290315901
  0
LINE
  5
62C
100
AcDbEntity
  8
0
100
AcDbLine
 62
7
  6
CONTINUOUS
 10
-9.5299110851
 20
20.7288498423
 11
-9.7227224127
 21
20.7931072319
  0
LINE
  5
62D
100
AcDbEntity
  8
0
100
AcDbLine
 62
7
  6
CONTINUOUS
 10
2.4772775873
 20
21.5931072319
 11
2.5445808008
 21
21.5258040184
  0
LINE
  5
62E
100
AcDbEntity
  8
0
100
AcDbLine
 62
253
  6
CONTINUOUS
 10
0.7447326522
 20
-23.8394757794
 11
0.7272775873
 21
-23.8569308443
  0
LINE
  5
62F
100
AcDbEntity
  8
0
100
AcDbLine
 62
253
  6
CONTINUOUS
 10
0.994694576
 20
-24.0894377032
 11
0.9772395111
 21
-24.1068927681
  0
LINE
  5
630
100
AcDbEntity
  8
0
100
AcDbLine
 62
7
  6
CONTINUOUS
 10
3.5079384997
 20
-22.4087767907
 11
3.4272775873
 21
-22.4894377032
  0
LINE
  5
631
100
AcDbEntity
  8
0
100
AcDbLine
 62
253
  6
CONTINUOUS
 10
3.5079402868
 20
-23.7588130799
 11
3.4272775873
 21
-23.8394757794
  0
LINE
  5
632
100
AcDbEntity
  8
IMPORT_IGES
100
AcDbLine
 62
253
  6
CONTINUOUS
 10
6.9802454219
 20
17.6962273714
 11
-9.1256902474
 21
17.6962273714
  0
LINE
  5
633
100
AcDbEntity
  8
RACCORDO
100
AcDbLine
 62
253
  6
CONTINUOUS
 10
7.3107912077
 20
18.4233646906
 11
7.5437633736
 21
18.4233894316
  0
LINE
  5
634
100
AcDbEntity
  8
IMPORT_IGES
100
AcDbLine
 62
253
  6
CONTINUOUS
 10
5.9803977268
 20
18.6960750666
 11
-8.1258425522
 21
18.6960750666
  0
LINE
  5
635
100
AcDbEntity
  8
IMPORT_IGES
100
AcDbLine
 62
7
  6
CONTINUOUS
 10
5.9894298921
 20
18.7051072319
 11
-8.1348747176
 21
18.7051072319
  0
LINE
  5
636
100
AcDbEntity
  8
IMPORT_IGES
100
AcDbLine
 62
7
  6
CONTINUOUS
 10
5.991444827
 20
18.7072744717
 11
-8.1369277301
 21
18.7072744724
  0
LINE
  5
637
100
AcDbEntity
  8
RACCORDO
100
AcDbLine
 62
253
  6
CONTINUOUS
 10
-7.9880489486
 20
18.893211001
 11
-7.1573958769
 21
18.893211001
  0
LINE
  5
638
100
AcDbEntity
  8
RACCORDO
100
AcDbLine
 62
253
  6
CONTINUOUS
 10
7.0119510514
 20
18.893211001
 11
7.8426041231
 21
18.893211001
  0
LWPOLYLINE
  5
639
100
AcDbEntity
  8
RACCORDO
100
AcDbPolyline
 62
253
  6
CONTINUOUS
 90
13
 70
0
 10
7.3107912077
 20
18.4233646906
 10
7.2717086428
 20
18.4258769243
 10
7.2332922564
 20
18.4331515698
 10
7.1961968715
 20
18.4450646278
 10
7.1610547942
 20
18.4614130351
 10
7.1284650354
 20
18.4819181266
 10
7.0989831009
 20
18.5062303843
 10
7.0731115223
 20
18.5339353958
 10
7.0512912913
 20
18.5645609178
 10
7.0338943425
 20
18.5975849259
 10
7.021217214
 20
18.6324445123
 10
7.0134759926
 20
18.6685454813
 10
7.0108026308
 20
18.7052724769
  0
LINE
  5
63A
100
AcDbEntity
  8
0
100
AcDbLine
 62
253
  6
CONTINUOUS
 10
0.7272775873
 20
23.6431453081
 11
0.7447326522
 21
23.6256902432
  0
LINE
  5
63B
100
AcDbEntity
  8
0
100
AcDbLine
 62
253
  6
CONTINUOUS
 10
0.9772395111
 20
23.8931072319
 11
0.994694576
 21
23.875652167
  0
LINE
  5
63C
100
AcDbEntity
  8
0
100
AcDbLine
 62
7
  6
CONTINUOUS
 10
3.4272775873
 20
22.275652167
 11
3.5079384997
 21
22.1949912545
  0
LINE
  5
63D
100
AcDbEntity
  8
0
100
AcDbLine
 62
253
  6
CONTINUOUS
 10
3.4272775873
 20
23.6256902432
 11
3.5079402868
 21
23.5450275437
  0
LWPOLYLINE
  5
63E
100
AcDbEntity
  8
0
100
AcDbPolyline
 62
253
  6
CONTINUOUS
 90
11
 70
0
 10
7.1404450442
 20
24.179970236
 10
7.1404868444
 20
24.1798874071
 10
7.1405294407
 20
24.179664618
 10
7.140572833
 20
24.1793018688
 10
7.1406172805
 20
24.1788052388
 10
7.1406625241
 20
24.1781686486
 10
7.1407077865
 20
24.17737386
 10
7.1407530889
 20
24.1764157592
 10
7.1407984102
 20
24.1752994601
 10
7.14084291
 20
24.174022066
 10
7.1408865749
 20
24.1725781702
  0
LINE
  5
63F
100
AcDbEntity
  8
0
100
AcDbLine
 62
253
  6
CONTINUOUS
 10
3.7579004235
 20
-24.0087767907
 11
3.6772395111
 21
-24.0894377032
  0
LINE
  5
640
100
AcDbEntity
  8
0
100
AcDbLine
 62
7
  6
CONTINUOUS
 10
7.8426041231
 20
-21.0915662322
 11
7.9922286521
 21
-20.9419417033
  0
LINE
  5
641
100
AcDbEntity
  8
0
100
AcDbLine
 62
7
  6
CONTINUOUS
 10
7.1823909974
 20
-22.4894377032
 11
8.1598225224
 21
-21.5120061782
  0
LINE
  5
642
100
AcDbEntity
  8
0
100
AcDbLine
 62
7
  6
CONTINUOUS
 10
9.3844662596
 20
20.7288498423
 11
7.9922286521
 21
20.7281561671
  0
LINE
  5
643
100
AcDbEntity
  8
0
100
AcDbLine
 62
7
  6
CONTINUOUS
 10
6.861533432
 20
19.9744107989
 11
-0.8435642851
 21
19.9730351911
  0
LINE
  5
644
100
AcDbEntity
  8
0
100
AcDbLine
 62
7
  6
CONTINUOUS
 10
-7.4573844538
 20
20.1274236321
 11
7.3119396284
 21
20.1274236321
  0
LINE
  5
645
100
AcDbEntity
  8
0
100
AcDbLine
 62
7
  6
CONTINUOUS
 10
11.0534635089
 20
20.3157569627
 11
11.0098225224
 21
20.3157569627
  0
LINE
  5
646
100
AcDbEntity
  8
0
100
AcDbLine
 62
7
  6
CONTINUOUS
 10
-11.1989083343
 20
20.3157569627
 11
-11.1552673478
 21
20.3157569627
  0
LINE
  5
647
100
AcDbEntity
  8
0
100
AcDbLine
 62
7
  6
CONTINUOUS
 10
9.5772775873
 20
20.7931072319
 11
8.1598225224
 21
20.7931072319
  0
LINE
  5
648
100
AcDbEntity
  8
0
100
AcDbLine
 62
7
  6
CONTINUOUS
 10
-8.3052673478
 20
20.7931072319
 11
-9.7227224127
 21
20.7931072319
  0
LINE
  5
649
100
AcDbEntity
  8
RACCORDO
100
AcDbLine
 62
7
  6
CONTINUOUS
 10
-8.1307166985
 20
20.8803759098
 11
-7.6880603716
 21
20.8803759098
  0
LINE
  5
64A
100
AcDbEntity
  8
0
100
AcDbLine
 62
7
  6
CONTINUOUS
 10
2.8123740678
 20
20.8803759098
 11
-2.9578188933
 21
20.8803759098
  0
LINE
  5
64B
100
AcDbEntity
  8
RACCORDO
100
AcDbLine
 62
7
  6
CONTINUOUS
 10
7.5426155462
 20
20.8803759098
 11
7.9852718731
 21
20.8803759098
  0
LINE
  5
64C
100
AcDbEntity
  8
0
100
AcDbLine
 62
253
  6
CONTINUOUS
 10
7.9852718731
 20
21.1184042546
 11
2.5623835871
 21
21.1184042546
  0
LINE
  5
64D
100
AcDbEntity
  8
0
100
AcDbLine
 62
253
  6
CONTINUOUS
 10
-2.7078284125
 20
21.1184042546
 11
-8.1307166985
 21
21.1184042546
  0
LINE
  5
64E
100
AcDbEntity
  8
0
100
AcDbLine
 62
7
  6
CONTINUOUS
 10
-0.8435642851
 20
19.9730351911
 11
-7.0069782574
 21
19.9744107989
  0
LINE
  5
64F
100
AcDbEntity
  8
0
100
AcDbLine
 62
7
  6
CONTINUOUS
 10
-8.1376734775
 20
20.7281561671
 11
-9.5299110851
 21
20.7288498423
  0
LINE
  5
650
100
AcDbEntity
  8
0
100
AcDbLine
 62
253
  6
CONTINUOUS
 10
3.6772395111
 20
23.875652167
 11
3.7579004235
 21
23.7949912545
  0
LINE
  5
651
100
AcDbEntity
  8
0
100
AcDbLine
 62
7
  6
CONTINUOUS
 10
7.9922286521
 20
20.7281561671
 11
7.8426041231
 21
20.8777806961
  0
LINE
  5
652
100
AcDbEntity
  8
0
100
AcDbLine
 62
7
  6
CONTINUOUS
 10
8.1598225224
 20
21.2982206421
 11
7.1823909974
 21
22.275652167
  0
LWPOLYLINE
  5
653
100
AcDbEntity
  8
0
100
AcDbPolyline
 62
7
  6
CONTINUOUS
 90
10
 70
0
 10
9.1806545575
 20
-23.7347239844
 10
9.162361875
 20
-23.7540368512
 10
9.1414202151
 20
-23.7747596383
 10
9.1184861963
 20
-23.7968923457
 10
9.0943480222
 20
-23.8207337355
 10
9.0694203127
 20
-23.8459850456
 10
9.0436285526
 20
-23.8717499893
 10
9.0171571414
 20
-23.8977298044
 10
8.9905519111
 20
-23.9242232531
 10
8.9641482066
 20
-23.9512303354
  0
LINE
  5
654
100
AcDbEntity
  8
0
100
AcDbLine
 62
7
  6
CONTINUOUS
 10
8.4272775873
 20
-22.5068927681
 11
8.4404450442
 21
-22.4937253112
  0
LINE
  5
655
100
AcDbEntity
  8
0
100
AcDbLine
 62
253
  6
CONTINUOUS
 10
7.1404450442
 20
-24.3937557721
 11
7.1272775873
 21
-24.4069232291
  0
LINE
  5
656
100
AcDbEntity
  8
0
100
AcDbLine
 62
253
  6
CONTINUOUS
 10
7.3404145832
 20
-24.5937253112
 11
7.3272471263
 21
-24.6068927681
  0
LINE
  5
657
100
AcDbEntity
  8
0
100
AcDbLine
 62
7
  6
CONTINUOUS
 10
7.9852718731
 20
-21.094161446
 11
8.1598225224
 21
-21.0068927681
  0
LINE
  5
658
100
AcDbEntity
  8
0
100
AcDbLine
 62
7
  6
CONTINUOUS
 10
7.9857431901
 20
-21.5630022087
 11
8.1598225224
 21
-21.5120061782
  0
LINE
  5
659
100
AcDbEntity
  8
0
100
AcDbLine
 62
7
  6
CONTINUOUS
 10
-0.8727224127
 20
22.2931072319
 11
-0.8901774776
 21
22.2913619009
  0
LWPOLYLINE
  5
65A
100
AcDbEntity
  8
0
100
AcDbPolyline
 62
253
  6
CONTINUOUS
 90
13
 70
0
 10
2.8059431456
 20
22.1182519497
 10
2.7733150185
 20
22.116108809
 10
2.7412452261
 20
22.1097260245
 10
2.7102824027
 20
22.0992128448
 10
2.6809562076
 20
22.0847491621
 10
2.6537683462
 20
22.0665824711
 10
2.6291839671
 20
22.0450236659
 10
2.6076235961
 20
22.0204416432
 10
2.589455979
 20
21.9932569703
 10
2.5749918364
 20
21.9639347528
 10
2.5644785139
 20
21.9329766375
 10
2.5580957604
 20
21.9009122252
 10
2.5559526649
 20
21.868290026
  0
LWPOLYLINE
  5
65B
100
AcDbEntity
  8
0
100
AcDbPolyline
 62
7
  6
CONTINUOUS
 90
16
 70
0
 10
-10.6727224773
 20
22.2931071616
 10
-10.7246186105
 20
22.2904260961
 10
-10.776164317
 20
22.2823287034
 10
-10.8267881963
 20
22.2688363705
 10
-10.8760972841
 20
22.2499513463
 10
-10.9233245473
 20
22.2258611199
 10
-10.9674304095
 20
22.1971243822
 10
-11.0076587086
 20
22.1644573167
 10
-11.044036699
 20
22.1280770598
 10
-11.0767024318
 20
22.087847113
 10
-11.1054389336
 20
22.0437394038
 10
-11.1295298312
 20
21.9965108437
 10
-11.1484180479
 20
21.9472051879
 10
-11.1619173444
 20
21.8965910508
 10
-11.1700257009
 20
21.8450600315
 10
-11.1727224127
 20
21.7931833843
  0
LWPOLYLINE
  5
65C
100
AcDbEntity
  8
0
100
AcDbPolyline
 62
253
  6
CONTINUOUS
 90
4
 70
0
 10
4.258644689
 20
23.544307477
 10
4.2695366188
 20
23.5445399574
 10
4.2764000878
 20
23.5447805753
 10
4.2791616099
 20
23.5450293307
  0
LINE
  5
65D
100
AcDbEntity
  8
0
100
AcDbLine
 62
7
  6
CONTINUOUS
 10
-2.6900256262
 20
21.5258040184
 11
2.5445808008
 21
21.5258040184
  0
LINE
  5
65E
100
AcDbEntity
  8
0
100
AcDbLine
 62
7
  6
CONTINUOUS
 10
-2.6227224127
 20
21.5931072319
 11
2.4772775873
 21
21.5931072319
  0
LINE
  5
65F
100
AcDbEntity
  8
0
100
AcDbLine
 62
253
  6
CONTINUOUS
 10
7.22850093
 20
22.1182519497
 11
2.8059431456
 21
22.1182519497
  0
LINE
  5
660
100
AcDbEntity
  8
0
100
AcDbLine
 62
253
  6
CONTINUOUS
 10
-2.9513879711
 20
22.1182519497
 11
-7.3739457554
 21
22.1182519497
  0
LINE
  5
661
100
AcDbEntity
  8
0
100
AcDbLine
 62
7
  6
CONTINUOUS
 10
10.5098986748
 20
22.275652167
 11
8.9641482066
 21
22.275652167
  0
LINE
  5
662
100
AcDbEntity
  8
0
100
AcDbLine
 62
7
  6
CONTINUOUS
 10
8.690406968
 20
22.275652167
 11
7.1823909974
 21
22.275652167
  0
LINE
  5
663
100
AcDbEntity
  8
0
100
AcDbLine
 62
7
  6
CONTINUOUS
 10
-3.5727224127
 20
22.275652167
 11
-2.8726938561
 21
22.275652167
  0
LINE
  5
664
100
AcDbEntity
  8
0
100
AcDbLine
 62
7
  6
CONTINUOUS
 10
2.7272490307
 20
22.275652167
 11
3.4272775873
 21
22.275652167
  0
LINE
  5
665
100
AcDbEntity
  8
0
100
AcDbLine
 62
7
  6
CONTINUOUS
 10
-7.3278358229
 20
22.275652167
 11
-8.8358517934
 21
22.275652167
  0
LINE
  5
666
100
AcDbEntity
  8
0
100
AcDbLine
 62
7
  6
CONTINUOUS
 10
-9.109593032
 20
22.275652167
 11
-10.6553435002
 21
22.275652167
  0
LINE
  5
667
100
AcDbEntity
  8
0
100
AcDbLine
 62
7
  6
CONTINUOUS
 10
0.7447326522
 20
22.2913619009
 11
-0.8901774776
 21
22.2913619009
  0
LINE
  5
668
100
AcDbEntity
  8
0
100
AcDbLine
 62
7
  6
CONTINUOUS
 10
10.5272775873
 20
22.2931072318
 11
9.2272775873
 21
22.2931072319
  0
LINE
  5
669
100
AcDbEntity
  8
0
100
AcDbLine
 62
7
  6
CONTINUOUS
 10
8.4272775873
 20
22.2931072319
 11
4.3772775873
 21
22.2931072319
  0
LINE
  5
66A
100
AcDbEntity
  8
0
100
AcDbLine
 62
7
  6
CONTINUOUS
 10
-4.5227224127
 20
22.2931072319
 11
-8.5727224127
 21
22.2931072319
  0
LINE
  5
66B
100
AcDbEntity
  8
0
100
AcDbLine
 62
7
  6
CONTINUOUS
 10
-9.3727224127
 20
22.2931072319
 11
-10.6727224773
 21
22.2931071673
  0
LINE
  5
66C
100
AcDbEntity
  8
0
100
AcDbLine
 62
7
  6
CONTINUOUS
 10
10.3289926282
 20
23.0157569627
 11
9.2272775873
 21
23.0157569627
  0
LINE
  5
66D
100
AcDbEntity
  8
0
100
AcDbLine
 62
7
  6
CONTINUOUS
 10
8.4272775873
 20
23.0157569627
 11
7.3255625464
 21
23.0157569627
  0
LINE
  5
66E
100
AcDbEntity
  8
0
100
AcDbLine
 62
7
  6
CONTINUOUS
 10
-7.4710073718
 20
23.0157569627
 11
-8.5727224127
 21
23.0157569627
  0
LINE
  5
66F
100
AcDbEntity
  8
0
100
AcDbLine
 62
7
  6
CONTINUOUS
 10
-9.3727224127
 20
23.0157569627
 11
-10.4744374536
 21
23.0157569627
  0
LWPOLYLINE
  5
670
100
AcDbEntity
  8
0
100
AcDbPolyline
 62
7
  6
CONTINUOUS
 90
16
 70
0
 10
10.5272775873
 20
22.2931069677
 10
10.5791790495
 20
22.2904272212
 10
10.6307304928
 20
22.2823277504
 10
10.6813601567
 20
22.2688309394
 10
10.7306757559
 20
22.2499402932
 10
10.7779092129
 20
22.2258438464
 10
10.8220183564
 20
22.1971004772
 10
10.8622479498
 20
22.1644267835
 10
10.8986251836
 20
22.12804097
 10
10.9312855205
 20
22.0878088344
 10
10.9600125037
 20
22.0437081878
 10
10.9840947154
 20
21.9964922861
 10
11.0029776249
 20
21.9471915845
 10
11.0164741479
 20
21.8965684386
 10
11.0245813045
 20
21.8450170228
 10
11.0272775873
 20
21.7931069968
  0
LWPOLYLINE
  5
671
100
AcDbEntity
  8
0
100
AcDbPolyline
 62
253
  6
CONTINUOUS
 90
13
 70
0
 10
-2.9513879711
 20
22.1182519497
 10
-2.9187608106
 20
22.1161089364
 10
-2.8866918018
 20
22.1097264937
 10
-2.8557295481
 20
22.099213806
 10
-2.8264037197
 20
22.0847507134
 10
-2.7992159924
 20
22.0665846356
 10
-2.7746314658
 20
22.045026339
 10
-2.7530707065
 20
22.0204446207
 10
-2.7349025535
 20
21.9932599992
 10
-2.7204378088
 20
21.9639375208
 10
-2.7099239202
 20
21.9329788042
 10
-2.7035407485
 20
21.900913459
 10
-2.7013974903
 20
21.868290026
  0
LWPOLYLINE
  5
672
100
AcDbEntity
  8
0
100
AcDbPolyline
 62
253
  6
CONTINUOUS
 90
5
 70
0
 10
-4.4246046347
 20
23.5450287136
 10
-4.4218380085
 20
23.5447801592
 10
-4.4149762585
 20
23.544539649
 10
-4.4040892714
 20
23.544307183
 10
-4.3707300441
 20
23.5438616754
  0
LINE
  5
673
100
AcDbEntity
  8
0
100
AcDbLine
 62
7
  6
CONTINUOUS
 10
0.7272775873
 20
22.2931072319
 11
0.7447326522
 21
22.2913619009
  0
LWPOLYLINE
  5
674
100
AcDbEntity
  8
0
100
AcDbPolyline
 62
253
  6
CONTINUOUS
 90
9
 70
0
 10
-4.1746445115
 20
23.7949912545
 10
-4.1736067757
 20
23.7947425188
 10
-4.1712001002
 20
23.7945018626
 10
-4.1674244852
 20
23.7942692858
 10
-4.1622101328
 20
23.7940424621
 10
-4.1556268408
 20
23.7938237179
 10
-4.1478840024
 20
23.793620032
 10
-4.1389449819
 20
23.7934319079
 10
-4.1179076018
 20
23.793106303
  0
LINE
  5
675
100
AcDbEntity
  8
0
100
AcDbLine
 62
7
  6
CONTINUOUS
 10
7.9857431901
 20
21.3492166725
 11
8.1598225224
 21
21.2982206421
  0
LINE
  5
676
100
AcDbEntity
  8
0
100
AcDbLine
 62
7
  6
CONTINUOUS
 10
7.9852718731
 20
20.8803759098
 11
8.1598225224
 21
20.7931072319
  0
LWPOLYLINE
  5
677
100
AcDbEntity
  8
0
100
AcDbPolyline
 62
7
  6
CONTINUOUS
 90
10
 70
0
 10
9.1806545575
 20
23.5209384483
 10
9.1613416907
 20
23.5392311308
 10
9.1406189036
 20
23.5601727906
 10
9.1184861963
 20
23.5831068095
 10
9.0946448065
 20
23.6072449836
 10
9.0693934963
 20
23.6321726931
 10
9.0436285526
 20
23.6579644532
 10
9.0176487375
 20
23.6844358643
 10
8.9911552889
 20
23.7110410946
 10
8.9641482066
 20
23.7374447992
  0
LINE
  5
678
100
AcDbEntity
  8
0
100
AcDbLine
 62
7
  6
CONTINUOUS
 10
8.4272775873
 20
22.2931072319
 11
8.4404450442
 21
22.279939775
  0
LINE
  5
679
100
AcDbEntity
  8
0
100
AcDbLine
 62
253
  6
CONTINUOUS
 10
7.1272775873
 20
24.1931376929
 11
7.1404450442
 21
24.179970236
  0
LINE
  5
67A
100
AcDbEntity
  8
0
100
AcDbLine
 62
253
  6
CONTINUOUS
 10
7.3272471263
 20
24.3931072319
 11
7.3404146333
 21
24.3799397249
  0
LWPOLYLINE
  5
67B
100
AcDbEntity
  8
0
100
AcDbPolyline
 62
253
  6
CONTINUOUS
 90
13
 70
0
 10
3.7579004235
 20
23.7949912545
 10
3.7252809573
 20
23.7928437969
 10
3.6932192336
 20
23.7864579839
 10
3.6622636133
 20
23.7759429757
 10
3.6329435604
 20
23.7614785628
 10
3.6057605578
 20
23.7433120795
 10
3.5811795364
 20
23.7217541648
 10
3.5596209472
 20
23.6971734605
 10
3.5414535989
 20
23.6699903622
 10
3.526988305
 20
23.6406698237
 10
3.5164725278
 20
23.6097133442
 10
3.5100861661
 20
23.5776503777
 10
3.5079384998
 20
23.5450293307
  0
LWPOLYLINE
  5
67C
100
AcDbEntity
  8
0
100
AcDbPolyline
 62
253
  6
CONTINUOUS
 90
13
 70
0
 10
7.3404145832
 20
24.379939775
 10
7.3143183298
 20
24.3782217189
 10
7.2886684217
 20
24.3731128335
 10
7.2639035666
 20
24.3647005012
 10
7.2404473333
 20
24.3531286045
 10
7.2187009095
 20
24.3385950669
 10
7.199036239
 20
24.3213484673
 10
7.1817896588
 20
24.3016837878
 10
7.167256146
 20
24.279937367
 10
7.1556842746
 20
24.2564811479
 10
7.1472719641
 20
24.2317163173
 10
7.1421630944
 20
24.2060664446
 10
7.1404450442
 20
24.179970236
  0
LWPOLYLINE
  5
67D
100
AcDbEntity
  8
0
100
AcDbPolyline
 62
253
  6
CONTINUOUS
 90
13
 70
0
 10
-4.1746445115
 20
23.7949912545
 10
-4.2072639778
 20
23.7928437969
 10
-4.2393257015
 20
23.7864579839
 10
-4.2702813218
 20
23.7759429757
 10
-4.2996013747
 20
23.7614785628
 10
-4.3267843773
 20
23.7433120795
 10
-4.3513653986
 20
23.7217541648
 10
-4.3729239879
 20
23.6971734605
 10
-4.3910913361
 20
23.6699903622
 10
-4.4055566301
 20
23.6406698237
 10
-4.4160724072
 20
23.6097133442
 10
-4.422458769
 20
23.5776503777
 10
-4.4246064353
 20
23.5450293307
  0
LWPOLYLINE
  5
67E
100
AcDbEntity
  8
0
100
AcDbPolyline
 62
7
  6
CONTINUOUS
 90
13
 70
0
 10
-10.4727528737
 20
24.3931072319
 10
-10.4988550005
 20
24.3913969677
 10
-10.5245101788
 20
24.3862947914
 10
-10.5492797002
 20
24.3778878102
 10
-10.5727401571
 20
24.3663195691
 10
-10.594489963
 20
24.3517877819
 10
-10.6141563849
 20
24.3345412041
 10
-10.6314029627
 20
24.3148747822
 10
-10.6459347499
 20
24.2931249763
 10
-10.657502991
 20
24.2696645194
 10
-10.6659099722
 20
24.244894998
 10
-10.6710121485
 20
24.2192398197
 10
-10.6727224127
 20
24.1931376929
  0
LWPOLYLINE
  5
67F
100
AcDbEntity
  8
0
100
AcDbPolyline
 62
253
  6
CONTINUOUS
 90
13
 70
0
 10
-7.4862805536
 20
23.5209384483
 10
-7.4603224654
 20
23.5226000469
 10
-7.4348036163
 20
23.5271643301
 10
-7.4101558101
 20
23.5345540649
 10
-7.3867961113
 20
23.5446442089
 10
-7.3651197887
 20
23.5572640261
 10
-7.345493627
 20
23.5721999755
 10
-7.3282497195
 20
23.5891993249
 10
-7.3136798478
 20
23.6079744285
 10
-7.3020305466
 20
23.6282075934
 10
-7.2934989322
 20
23.6495564552
 10
-7.2882293665
 20
23.6716597701
 10
-7.2863110146
 20
23.694143529
  0
LWPOLYLINE
  5
680
100
AcDbEntity
  8
0
100
AcDbPolyline
 62
253
  6
CONTINUOUS
 90
7
 70
0
 10
4.0025727163
 20
23.7936232527
 10
4.0102934332
 20
23.7938271886
 10
4.0168539875
 20
23.7940461248
 10
4.0220457526
 20
23.7942727323
 10
4.0257991863
 20
23.7945045683
 10
4.0281838308
 20
23.7947440757
 10
4.0291996861
 20
23.7949912545
  0
LWPOLYLINE
  5
681
100
AcDbEntity
  8
0
100
AcDbPolyline
 62
253
  6
CONTINUOUS
 90
7
 70
0
 10
-3.9299722187
 20
23.7936232527
 10
-3.9222515019
 20
23.7938271886
 10
-3.9156909476
 20
23.7940461248
 10
-3.9104991824
 20
23.7942727323
 10
-3.9067457487
 20
23.7945045683
 10
-3.9043611043
 20
23.7947440757
 10
-3.903345249
 20
23.7949912545
  0
LWPOLYLINE
  5
682
100
AcDbEntity
  8
0
100
AcDbPolyline
 62
253
  6
CONTINUOUS
 90
4
 70
0
 10
-3.6739002461
 20
23.544307477
 10
-3.6630083162
 20
23.5445399574
 10
-3.6561448472
 20
23.5447805753
 10
-3.6533833252
 20
23.5450293307
  0
LINE
  5
683
100
AcDbEntity
  8
0
100
AcDbLine
 62
253
  6
CONTINUOUS
 10
3.9835780652
 20
23.7932616107
 11
4.0025727163
 21
23.7936232527
  0
LINE
  5
684
100
AcDbEntity
  8
0
100
AcDbLine
 62
253
  6
CONTINUOUS
 10
-3.9489668699
 20
23.7932616107
 11
-3.9299722187
 21
23.7936232527
  0
LINE
  5
685
100
AcDbEntity
  8
0
100
AcDbLine
 62
253
  6
CONTINUOUS
 10
4.2252838911
 20
23.5438623379
 11
4.258644689
 21
23.544307477
  0
LINE
  5
686
100
AcDbEntity
  8
0
100
AcDbLine
 62
253
  6
CONTINUOUS
 10
-3.707261044
 20
23.5438623379
 11
-3.6739002461
 21
23.544307477
  0
LINE
  5
687
100
AcDbEntity
  8
0
100
AcDbLine
 62
253
  6
CONTINUOUS
 10
3.9608687609
 20
23.792977082
 11
3.9835780652
 21
23.7932616107
  0
LINE
  5
688
100
AcDbEntity
  8
0
100
AcDbLine
 62
253
  6
CONTINUOUS
 10
-3.9716761741
 20
23.792977082
 11
-3.9489668699
 21
23.7932616107
  0
LINE
  5
689
100
AcDbEntity
  8
0
100
AcDbLine
 62
253
  6
CONTINUOUS
 10
4.118056519
 20
23.5431454591
 11
4.2252838911
 21
23.5438623379
  0
LINE
  5
68A
100
AcDbEntity
  8
0
100
AcDbLine
 62
253
  6
CONTINUOUS
 10
-3.814488416
 20
23.5431454591
 11
-3.707261044
 21
23.5438623379
  0
LINE
  5
68B
100
AcDbEntity
  8
0
100
AcDbLine
 62
253
  6
CONTINUOUS
 10
3.9216293038
 20
23.7927162095
 11
3.9608687609
 21
23.792977082
  0
LINE
  5
68C
100
AcDbEntity
  8
0
100
AcDbLine
 62
253
  6
CONTINUOUS
 10
-4.0109156313
 20
23.7927162095
 11
-3.9716761741
 21
23.792977082
  0
LINE
  5
68D
100
AcDbEntity
  8
0
100
AcDbLine
 62
253
  6
CONTINUOUS
 10
-8.6193454425
 20
23.5209384483
 11
-7.4862805536
 21
23.5209384483
  0
LINE
  5
68E
100
AcDbEntity
  8
0
100
AcDbLine
 62
253
  6
CONTINUOUS
 10
7.3408357282
 20
23.5209384483
 11
8.473900617
 21
23.5209384483
  0
LINE
  5
68F
100
AcDbEntity
  8
0
100
AcDbLine
 62
253
  6
CONTINUOUS
 10
-10.4591645682
 20
23.5209286427
 11
-9.326099383
 21
23.5209384483
  0
LINE
  5
690
100
AcDbEntity
  8
0
100
AcDbLine
 62
253
  6
CONTINUOUS
 10
9.1806545575
 20
23.5209384483
 11
10.3137197429
 21
23.5209286388
  0
LINE
  5
691
100
AcDbEntity
  8
0
100
AcDbLine
 62
253
  6
CONTINUOUS
 10
-8.8358517934
 20
23.7374447992
 11
-7.2867473912
 21
23.7374447992
  0
LINE
  5
692
100
AcDbEntity
  8
0
100
AcDbLine
 62
253
  6
CONTINUOUS
 10
8.690406968
 20
23.7374447992
 11
7.1413025658
 21
23.7374447992
  0
LINE
  5
693
100
AcDbEntity
  8
0
100
AcDbLine
 62
253
  6
CONTINUOUS
 10
-10.6586974342
 20
23.7374447992
 11
-9.109593032
 21
23.7374447992
  0
LINE
  5
694
100
AcDbEntity
  8
0
100
AcDbLine
 62
7
  6
CONTINUOUS
 10
-3.8226843365
 20
23.875652167
 11
-1.1401394014
 21
23.875652167
  0
LINE
  5
695
100
AcDbEntity
  8
0
100
AcDbLine
 62
7
  6
CONTINUOUS
 10
0.994694576
 20
23.875652167
 11
3.6772395111
 21
23.875652167
  0
LINE
  5
696
100
AcDbEntity
  8
0
100
AcDbLine
 62
7
  6
CONTINUOUS
 10
4.1273156635
 20
23.8931072319
 11
0.9772395111
 21
23.8931072319
  0
LINE
  5
697
100
AcDbEntity
  8
0
100
AcDbLine
 62
7
  6
CONTINUOUS
 10
-1.1226843365
 20
23.8931072319
 11
-4.2727604889
 21
23.8931072319
  0
LINE
  5
698
100
AcDbEntity
  8
0
100
AcDbLine
 62
253
  6
CONTINUOUS
 10
-10.6586974342
 20
24.1299778512
 11
-7.2867473912
 21
24.1299778512
  0
LINE
  5
699
100
AcDbEntity
  8
0
100
AcDbLine
 62
253
  6
CONTINUOUS
 10
7.1413025658
 20
24.1299778512
 11
10.5132526088
 21
24.1299778512
  0
LINE
  5
69A
100
AcDbEntity
  8
0
100
AcDbLine
 62
253
  6
CONTINUOUS
 10
-10.4595854168
 20
24.379939775
 11
-7.4858594087
 21
24.379939775
  0
LINE
  5
69B
100
AcDbEntity
  8
0
100
AcDbLine
 62
253
  6
CONTINUOUS
 10
7.3404146333
 20
24.3799397249
 11
10.3141405913
 21
24.379939775
  0
LINE
  5
69C
100
AcDbEntity
  8
0
100
AcDbLine
 62
7
  6
CONTINUOUS
 10
10.3273080482
 20
24.3931072319
 11
7.3272471263
 21
24.3931072319
  0
LINE
  5
69D
100
AcDbEntity
  8
0
100
AcDbLine
 62
7
  6
CONTINUOUS
 10
-7.4726919518
 20
24.3931072319
 11
-10.4727528737
 21
24.3931072319
  0
LINE
  5
69E
100
AcDbEntity
  8
0
100
AcDbLine
 62
253
  6
CONTINUOUS
 10
8.9641482066
 20
23.7374447992
 11
10.5132526088
 21
23.7374447992
  0
LINE
  5
69F
100
AcDbEntity
  8
0
100
AcDbLine
 62
253
  6
CONTINUOUS
 10
-4.0788614022
 20
23.5427157436
 11
-3.814488416
 21
23.5431454591
  0
LINE
  5
6A0
100
AcDbEntity
  8
0
100
AcDbLine
 62
253
  6
CONTINUOUS
 10
3.8536835329
 20
23.5427157436
 11
4.118056519
 21
23.5431454591
  0
LINE
  5
6A1
100
AcDbEntity
  8
0
100
AcDbLine
 62
253
  6
CONTINUOUS
 10
-4.052847697
 20
23.7926772954
 11
-4.0109156313
 21
23.7927162095
  0
LINE
  5
6A2
100
AcDbEntity
  8
0
100
AcDbLine
 62
253
  6
CONTINUOUS
 10
3.8796972381
 20
23.7926772954
 11
3.9216293038
 21
23.7927162095
  0
LINE
  5
6A3
100
AcDbEntity
  8
0
100
AcDbLine
 62
253
  6
CONTINUOUS
 10
-4.2947142782
 20
23.5432972496
 11
-4.0788614022
 21
23.5427157436
  0
LINE
  5
6A4
100
AcDbEntity
  8
0
100
AcDbLine
 62
253
  6
CONTINUOUS
 10
3.6378306568
 20
23.5432972496
 11
3.8536835329
 21
23.5427157436
  0
LINE
  5
6A5
100
AcDbEntity
  8
0
100
AcDbLine
 62
253
  6
CONTINUOUS
 10
-4.0934554021
 20
23.792864122
 11
-4.052847697
 21
23.7926772954
  0
LINE
  5
6A6
100
AcDbEntity
  8
0
100
AcDbLine
 62
253
  6
CONTINUOUS
 10
3.839089533
 20
23.792864122
 11
3.8796972381
 21
23.7926772954
  0
LINE
  5
6A7
100
AcDbEntity
  8
0
100
AcDbLine
 62
253
  6
CONTINUOUS
 10
-4.3707300441
 20
23.5438616754
 11
-4.2947142782
 21
23.5432972496
  0
LINE
  5
6A8
100
AcDbEntity
  8
0
100
AcDbLine
 62
253
  6
CONTINUOUS
 10
3.561814891
 20
23.5438616754
 11
3.6378306568
 21
23.5432972496
  0
LINE
  5
6A9
100
AcDbEntity
  8
0
100
AcDbLine
 62
253
  6
CONTINUOUS
 10
-4.1179076018
 20
23.793106303
 11
-4.0934554021
 21
23.792864122
  0
LINE
  5
6AA
100
AcDbEntity
  8
0
100
AcDbLine
 62
253
  6
CONTINUOUS
 10
3.8146373333
 20
23.793106303
 11
3.839089533
 21
23.792864122
  0
LWPOLYLINE
  5
6AB
100
AcDbEntity
  8
0
100
AcDbPolyline
 62
253
  6
CONTINUOUS
 90
13
 70
0
 10
7.3408357282
 20
23.5209384483
 10
7.3148776566
 20
23.5226000449
 10
7.2893588207
 20
23.527164323
 10
7.2647110238
 20
23.5345540506
 10
7.2413513304
 20
23.5446441864
 10
7.2196750092
 20
23.5572639955
 10
7.2000488444
 20
23.5721999385
 10
7.1828049296
 20
23.5891992849
 10
7.1682350487
 20
23.6079743893
 10
7.156585738
 20
23.6282075588
 10
7.1480541152
 20
23.6495564286
 10
7.1427845435
 20
23.6716597552
 10
7.1408661892
 20
23.694143529
  0
LWPOLYLINE
  5
6AC
100
AcDbEntity
  8
0
100
AcDbPolyline
 62
7
  6
CONTINUOUS
 90
13
 70
0
 10
10.3273080482
 20
24.3931072319
 10
10.3534101751
 20
24.3913969677
 10
10.3790653534
 20
24.3862947914
 10
10.4038348748
 20
24.3778878102
 10
10.4272953317
 20
24.3663195691
 10
10.4490451375
 20
24.3517877819
 10
10.4687115595
 20
24.3345412041
 10
10.4859581373
 20
24.3148747822
 10
10.5004899244
 20
24.2931249763
 10
10.5120581655
 20
24.2696645194
 10
10.5204651467
 20
24.244894998
 10
10.5255673231
 20
24.2192398197
 10
10.5272775873
 20
24.1931376929
  0
LWPOLYLINE
  5
6AD
100
AcDbEntity
  8
0
100
AcDbPolyline
 62
253
  6
CONTINUOUS
 90
13
 70
0
 10
-3.903345249
 20
23.7949912545
 10
-3.8707249598
 20
23.792843688
 10
-3.8386625967
 20
23.786457591
 10
-3.8077065433
 20
23.7759421892
 10
-3.778386261
 20
23.7614773343
 10
-3.7512032337
 20
23.7433104283
 10
-3.7266223903
 20
23.7217521914
 10
-3.7050641531
 20
23.6971713481
 10
-3.6868972466
 20
23.6699883207
 10
-3.6724323913
 20
23.6406680382
 10
-3.6619169891
 20
23.6097119843
 10
-3.6555308919
 20
23.5776496206
 10
-3.6533833252
 20
23.5450293307
  0
LWPOLYLINE
  5
6AE
100
AcDbEntity
  8
0
100
AcDbPolyline
 62
253
  6
CONTINUOUS
 90
13
 70
0
 10
-7.4858594087
 20
24.379939775
 10
-7.4597631772
 20
24.3782217218
 10
-7.4341132866
 20
24.3731128441
 10
-7.4093484437
 20
24.3647005226
 10
-7.3858922177
 20
24.3531286385
 10
-7.3641457957
 20
24.3385951135
 10
-7.3444811209
 20
24.3213485237
 10
-7.3272345312
 20
24.301683849
 10
-7.3127010061
 20
24.279937427
 10
-7.3011291221
 20
24.2564812009
 10
-7.2927168005
 20
24.231716358
 10
-7.2876079229
 20
24.2060664674
 10
-7.2858898696
 20
24.179970236
  0
LWPOLYLINE
  5
6AF
100
AcDbEntity
  8
0
100
AcDbPolyline
 62
253
  6
CONTINUOUS
 90
13
 70
0
 10
4.0291996861
 20
23.7949912545
 10
4.0618199753
 20
23.792843688
 10
4.0938823383
 20
23.786457591
 10
4.1248383918
 20
23.7759421892
 10
4.1541586741
 20
23.7614773343
 10
4.1813417014
 20
23.7433104283
 10
4.2059225447
 20
23.7217521914
 10
4.227480782
 20
23.6971713481
 10
4.2456476884
 20
23.6699883207
 10
4.2601125437
 20
23.6406680382
 10
4.2706279459
 20
23.6097119843
 10
4.2770140432
 20
23.5776496206
 10
4.2791616099
 20
23.5450293307
  0
LWPOLYLINE
  5
6B0
100
AcDbEntity
  8
0
100
AcDbPolyline
 62
253
  6
CONTINUOUS
 90
5
 70
0
 10
3.5079403004
 20
23.5450287136
 10
3.5107069266
 20
23.5447801592
 10
3.5175686766
 20
23.544539649
 10
3.5284556636
 20
23.544307183
 10
3.561814891
 20
23.5438616754
  0
LWPOLYLINE
  5
6B1
100
AcDbEntity
  8
0
100
AcDbPolyline
 62
253
  6
CONTINUOUS
 90
9
 70
0
 10
3.7579004235
 20
23.7949912545
 10
3.7589381594
 20
23.7947425188
 10
3.7613448348
 20
23.7945018626
 10
3.7651204499
 20
23.7942692858
 10
3.7703348023
 20
23.7940424621
 10
3.7769180942
 20
23.7938237179
 10
3.7846609326
 20
23.793620032
 10
3.7935999531
 20
23.7934319079
 10
3.8146373333
 20
23.793106303
  0
ARC
  5
6B2
100
AcDbEntity
  8
0
100
AcDbCircle
 62
7
  6
CONTINUOUS
 10
-4.0727224127
 20
-23.3068927681
 40
0.5
100
AcDbArc
 50
154.1580672368
 51
205.8419327632
  0
ARC
  5
6B3
100
AcDbEntity
  8
0
100
AcDbCircle
 62
7
  6
CONTINUOUS
 10
-4.0727224127
 20
-23.3068927681
 40
0.4904006794
100
AcDbArc
 50
136.2076703059
 51
223.7923296941
  0
ARC
  5
6B4
100
AcDbEntity
  8
IMPORT_IGES
100
AcDbCircle
 62
253
  6
CONTINUOUS
 10
-0.8227224127
 20
13.8931072319
 40
2.5456743158
100
AcDbArc
 50
0.0
 51
90.0
  0
ARC
  5
6B5
100
AcDbEntity
  8
IMPORT_IGES
100
AcDbCircle
 62
253
  6
CONTINUOUS
 10
-3.3227224127
 20
13.8931072319
 40
2.5456743158
100
AcDbArc
 50
90.0
 51
180.0
  0
ARC
  5
6B6
100
AcDbEntity
  8
IMPORT_IGES
100
AcDbCircle
 62
253
  6
CONTINUOUS
 10
-3.3227224127
 20
13.8931072319
 40
2.295712392
100
AcDbArc
 50
90.0
 51
180.0
  0
ARC
  5
6B7
100
AcDbEntity
  8
IMPORT_IGES
100
AcDbCircle
 62
253
  6
CONTINUOUS
 10
-0.8227224127
 20
13.8931072319
 40
2.295712392
100
AcDbArc
 50
0.0
 51
90.0
  0
ARC
  5
6B8
100
AcDbEntity
  8
IMPORT_IGES
100
AcDbCircle
 62
7
  6
CONTINUOUS
 10
-0.8227224127
 20
13.8931072319
 40
2.2738174026
100
AcDbArc
 50
0.6597651503
 51
90.0
  0
ARC
  5
6B9
100
AcDbEntity
  8
IMPORT_IGES
100
AcDbCircle
 62
7
  6
CONTINUOUS
 10
-3.3227224127
 20
13.8931072319
 40
2.2738174026
100
AcDbArc
 50
90.0
 51
179.3402348497
  0
ARC
  5
6BA
100
AcDbEntity
  8
IMPORT_IGES
100
AcDbCircle
 62
253
  6
CONTINUOUS
 10
-2.0727224127
 20
13.3931072319
 40
1.8973933632
100
AcDbArc
 50
112.3922189651
 51
67.6077810349
  0
CIRCLE
  5
6BB
100
AcDbEntity
  8
IMPORT_IGES
100
AcDbCircle
 62
7
  6
CONTINUOUS
 10
-2.0727224127
 20
13.3931072319
 40
1.5974047863
  0
CIRCLE
  5
6BC
100
AcDbEntity
  8
IMPORT_IGES
100
AcDbCircle
 62
253
  6
CONTINUOUS
 10
-2.0727224127
 20
13.3931072319
 40
1.5562895046
  0
ARC
  5
6BD
100
AcDbEntity
  8
IMPORT_IGES
100
AcDbCircle
 62
7
  6
CONTINUOUS
 10
-0.8227224127
 20
13.8931072319
 40
1.5261825974
100
AcDbArc
 50
0.982992419
 51
90.0
  0
ARC
  5
6BE
100
AcDbEntity
  8
IMPORT_IGES
100
AcDbCircle
 62
7
  6
CONTINUOUS
 10
-3.3227224127
 20
13.8931072319
 40
1.5261825974
100
AcDbArc
 50
90.0
 51
179.0170075794
  0
ARC
  5
6BF
100
AcDbEntity
  8
IMPORT_IGES
100
AcDbCircle
 62
253
  6
CONTINUOUS
 10
-3.3227224127
 20
13.8931072319
 40
1.504287608
100
AcDbArc
 50
90.0
 51
180.0
  0
ARC
  5
6C0
100
AcDbEntity
  8
IMPORT_IGES
100
AcDbCircle
 62
253
  6
CONTINUOUS
 10
-0.8227224127
 20
13.8931072319
 40
1.504287608
100
AcDbArc
 50
0.0
 51
90.0
  0
ARC
  5
6C1
100
AcDbEntity
  8
IMPORT_IGES
100
AcDbCircle
 62
253
  6
CONTINUOUS
 10
-0.8227224127
 20
13.8931072319
 40
1.2543256842
100
AcDbArc
 50
0.0
 51
90.0
  0
ARC
  5
6C2
100
AcDbEntity
  8
IMPORT_IGES
100
AcDbCircle
 62
253
  6
CONTINUOUS
 10
-3.3227224127
 20
13.8931072319
 40
1.2543256842
100
AcDbArc
 50
90.0
 51
180.0
  0
ARC
  5
6C3
100
AcDbEntity
  8
IMPORT_IGES
100
AcDbCircle
 62
253
  6
CONTINUOUS
 10
-3.8227224127
 20
15.3931072319
 40
1.2478278026
100
AcDbArc
 50
182.1032107535
 51
224.4501899129
  0
ARC
  5
6C4
100
AcDbEntity
  8
IMPORT_IGES
100
AcDbCircle
 62
7
  6
CONTINUOUS
 10
-3.8227224127
 20
15.3931072319
 40
0.9978373219
100
AcDbArc
 50
166.4757957595
 51
220.1693803441
  0
ARC
  5
6C5
100
AcDbEntity
  8
IMPORT_IGES
100
AcDbCircle
 62
7
  6
CONTINUOUS
 10
-3.8227224127
 20
15.3931072319
 40
0.9978373219
100
AcDbArc
 50
12.3513840404
 51
50.8897129948
  0
ARC
  5
6C6
100
AcDbEntity
  8
IMPORT_IGES
100
AcDbCircle
 62
253
  6
CONTINUOUS
 10
-5.2227224127
 20
8.3931072319
 40
0.6456743158
100
AcDbArc
 50
180.0
 51
360.0
  0
CIRCLE
  5
6C7
100
AcDbEntity
  8
IMPORT_IGES
100
AcDbCircle
 62
253
  6
CONTINUOUS
 10
-2.0727224127
 20
13.3931072319
 40
0.5562942685
  0
ARC
  5
6C8
100
AcDbEntity
  8
0
100
AcDbCircle
 62
7
  6
CONTINUOUS
 10
-4.0727224127
 20
23.0931072319
 40
0.5
100
AcDbArc
 50
154.1580672368
 51
205.8419327632
  0
ARC
  5
6C9
100
AcDbEntity
  8
0
100
AcDbCircle
 62
7
  6
CONTINUOUS
 10
-4.0727224127
 20
23.0931072319
 40
0.4904006794
100
AcDbArc
 50
136.2076703059
 51
223.7923296941
  0
ARC
  5
6CA
100
AcDbEntity
  8
IMPORT_IGES
100
AcDbCircle
 62
253
  6
CONTINUOUS
 10
-5.2227224127
 20
8.3931072319
 40
0.395712392
100
AcDbArc
 50
180.0
 51
360.0
  0
ARC
  5
6CB
100
AcDbEntity
  8
IMPORT_IGES
100
AcDbCircle
 62
7
  6
CONTINUOUS
 10
-5.2227224127
 20
8.3931072319
 40
0.3738174026
100
AcDbArc
 50
180.0
 51
270.0
  0
ARC
  5
6CC
100
AcDbEntity
  8
IMPORT_IGES
100
AcDbCircle
 62
7
  6
CONTINUOUS
 10
-0.0727224127
 20
-8.1068927681
 40
5.8960028571
100
AcDbArc
 50
251.7156025813
 51
278.4865460271
  0
ARC
  5
6CD
100
AcDbEntity
  8
IMPORT_IGES
100
AcDbCircle
 62
7
  6
CONTINUOUS
 10
-0.0727224127
 20
-8.1068927681
 40
5.8
100
AcDbArc
 50
255.0039577656
 51
277.9191537551
  0
ARC
  5
6CE
100
AcDbEntity
  8
IMPORT_IGES
100
AcDbCircle
 62
7
  6
CONTINUOUS
 10
-0.0727224127
 20
-8.1068927681
 40
2.5
100
AcDbArc
 50
148.196332821
 51
159.9819888214
  0
ARC
  5
6CF
100
AcDbEntity
  8
IMPORT_IGES
100
AcDbCircle
 62
7
  6
CONTINUOUS
 10
-0.0727224127
 20
-8.1068927681
 40
2.5
100
AcDbArc
 50
237.188713437
 51
290.5282438445
  0
ARC
  5
6D0
100
AcDbEntity
  8
0
100
AcDbCircle
 62
7
  6
CONTINUOUS
 10
-0.0727224127
 20
-8.1068927681
 40
2.478175215
100
AcDbArc
 50
151.680505284
 51
161.4965165055
  0
ARC
  5
6D1
100
AcDbEntity
  8
0
100
AcDbCircle
 62
253
  6
CONTINUOUS
 10
-0.0727224127
 20
-8.1068927681
 40
2.3781790227
100
AcDbArc
 50
148.9309051798
 51
171.2738589667
  0
ARC
  5
6D2
100
AcDbEntity
  8
0
100
AcDbCircle
 62
253
  6
CONTINUOUS
 10
-0.0727224127
 20
-8.1068927681
 40
2.3781790227
100
AcDbArc
 50
188.7682783112
 51
195.4184423034
  0
ARC
  5
6D3
100
AcDbEntity
  8
0
100
AcDbCircle
 62
253
  6
CONTINUOUS
 10
-0.0727224127
 20
-7.5068927681
 40
2.0218209773
100
AcDbArc
 50
162.0550559812
 51
180.0
  0
ARC
  5
6D4
100
AcDbEntity
  8
0
100
AcDbCircle
 62
253
  6
CONTINUOUS
 10
-0.0727224127
 20
-8.7068927681
 40
2.0218209773
100
AcDbArc
 50
180.0
 51
187.8477994139
  0
ARC
  5
6D5
100
AcDbEntity
  8
0
100
AcDbCircle
 62
7
  6
CONTINUOUS
 10
-0.0727224127
 20
-7.5068927681
 40
1.921824785
100
AcDbArc
 50
164.856391649
 51
180.0
  0
ARC
  5
6D6
100
AcDbEntity
  8
0
100
AcDbCircle
 62
7
  6
CONTINUOUS
 10
-0.0727224127
 20
-8.7068927681
 40
1.921824785
100
AcDbArc
 50
180.0
 51
188.9097986421
  0
ARC
  5
6D7
100
AcDbEntity
  8
0
100
AcDbCircle
 62
7
  6
CONTINUOUS
 10
-0.0727224127
 20
-7.5068927681
 40
1.9030544037
100
AcDbArc
 50
155.1390556264
 51
159.1177700349
  0
ARC
  5
6D8
100
AcDbEntity
  8
0
100
AcDbCircle
 62
7
  6
CONTINUOUS
 10
-0.0727224127
 20
-8.7068927681
 40
1.9030544037
100
AcDbArc
 50
232.0344766987
 51
263.2750690524
  0
ARC
  5
6D9
100
AcDbEntity
  8
0
100
AcDbCircle
 62
7
  6
CONTINUOUS
 10
-0.0727224127
 20
-8.7068927681
 40
1.9030544037
100
AcDbArc
 50
276.8337802534
 51
296.5669729309
  0
ARC
  5
6DA
100
AcDbEntity
  8
DRAFT
100
AcDbCircle
 62
7
  6
CONTINUOUS
 10
-0.0727224127
 20
-7.5068927681
 40
1.8704621255
100
AcDbArc
 50
154.6679862786
 51
159.9860037666
  0
ARC
  5
6DB
100
AcDbEntity
  8
DRAFT
100
AcDbCircle
 62
7
  6
CONTINUOUS
 10
-0.0727224127
 20
-8.7068927681
 40
1.8704621255
100
AcDbArc
 50
233.3626762289
 51
296.3486347777
  0
ARC
  5
6DC
100
AcDbEntity
  8
0
100
AcDbCircle
 62
7
  6
CONTINUOUS
 10
-0.0727224127
 20
-8.7068927681
 40
1.75
100
AcDbArc
 50
180.0
 51
189.8722831034
  0
ARC
  5
6DD
100
AcDbEntity
  8
0
100
AcDbCircle
 62
7
  6
CONTINUOUS
 10
-0.0727224127
 20
-7.5068927681
 40
1.75
100
AcDbArc
 50
163.0093150321
 51
180.0
  0
ARC
  5
6DE
100
AcDbEntity
  8
0
100
AcDbCircle
 62
253
  6
CONTINUOUS
 10
-0.0727224127
 20
-9.6068927681
 40
0.9846612123
100
AcDbArc
 50
258.344635595
 51
281.6365748577
  0
ARC
  5
6DF
100
AcDbEntity
  8
DRAFT
100
AcDbCircle
 62
7
  6
CONTINUOUS
 10
-0.0727224127
 20
-7.0068927681
 40
0.9
100
AcDbArc
 50
0.0
 51
1.2558531704
  0
ARC
  5
6E0
100
AcDbEntity
  8
DRAFT
100
AcDbCircle
 62
7
  6
CONTINUOUS
 10
-0.0727224127
 20
-7.0068927681
 40
0.9
100
AcDbArc
 50
160.4802130759
 51
180.0
  0
ARC
  5
6E1
100
AcDbEntity
  8
RACCORDO
100
AcDbCircle
 62
253
  6
CONTINUOUS
 10
-0.0727224127
 20
-7.0068927681
 40
0.774170483
100
AcDbArc
 50
0.0
 51
15.2518754347
  0
ARC
  5
6E2
100
AcDbEntity
  8
RACCORDO
100
AcDbCircle
 62
253
  6
CONTINUOUS
 10
-0.0727224127
 20
-7.0068927681
 40
0.774170483
100
AcDbArc
 50
157.1426118279
 51
180.0
  0
ARC
  5
6E3
100
AcDbEntity
  8
RACCORDO
100
AcDbCircle
 62
253
  6
CONTINUOUS
 10
-0.0727224127
 20
-7.0068927681
 40
0.574239018
100
AcDbArc
 50
0.0
 51
31.2991953806
  0
ARC
  5
6E4
100
AcDbEntity
  8
RACCORDO
100
AcDbCircle
 62
253
  6
CONTINUOUS
 10
-0.0727224127
 20
-7.0068927681
 40
0.574239018
100
AcDbArc
 50
148.4410750218
 51
180.0
  0
ARC
  5
6E5
100
AcDbEntity
  8
0
100
AcDbCircle
 62
7
  6
CONTINUOUS
 10
3.9272775873
 20
-23.3068927681
 40
0.5
100
AcDbArc
 50
334.1580672368
 51
25.8419327632
  0
ARC
  5
6E6
100
AcDbEntity
  8
0
100
AcDbCircle
 62
7
  6
CONTINUOUS
 10
3.9272775873
 20
-23.3068927681
 40
0.4904006794
100
AcDbArc
 50
316.2076703059
 51
43.7923296941
  0
ARC
  5
6E7
100
AcDbEntity
  8
RACCORDO
100
AcDbCircle
 62
253
  6
CONTINUOUS
 10
-0.0727224127
 20
11.8931072319
 40
4.1702806912
100
AcDbArc
 50
90.9250713563
 51
104.234311828
  0
ARC
  5
6E8
100
AcDbEntity
  8
RACCORDO
100
AcDbCircle
 62
253
  6
CONTINUOUS
 10
-0.0727224127
 20
11.8931072319
 40
3.3297193088
100
AcDbArc
 50
72.0632719677
 51
89.9737054816
  0
CIRCLE
  5
6E9
100
AcDbEntity
  8
IMPORT_IGES
100
AcDbCircle
 62
7
  6
CONTINUOUS
 10
1.4272775873
 20
4.3931072319
 40
3.25
  0
ARC
  5
6EA
100
AcDbEntity
  8
RACCORDO
100
AcDbCircle
 62
253
  6
CONTINUOUS
 10
-0.0727224127
 20
11.8931072319
 40
3.0297650002
100
AcDbArc
 50
70.2235076381
 51
82.4125205283
  0
ARC
  5
6EB
100
AcDbEntity
  8
RACCORDO
100
AcDbCircle
 62
7
  6
CONTINUOUS
 10
-0.0727224127
 20
11.8931072319
 40
3.0
100
AcDbArc
 50
70.0175300433
 51
81.7720320327
  0
ARC
  5
6EC
100
AcDbEntity
  8
IMPORT_IGES
100
AcDbCircle
 62
7
  6
CONTINUOUS
 10
-0.0727224127
 20
11.8931072319
 40
2.9
100
AcDbArc
 50
69.9937275301
 51
79.7876593838
  0
CIRCLE
  5
6ED
100
AcDbEntity
  8
IMPORT_IGES
100
AcDbCircle
 62
7
  6
CONTINUOUS
 10
1.4272775873
 20
4.3931072319
 40
1.6
  0
CIRCLE
  5
6EE
100
AcDbEntity
  8
0
100
AcDbCircle
 62
253
  6
CONTINUOUS
 10
1.4272775873
 20
4.3931072319
 40
1.5482622421
  0
CIRCLE
  5
6EF
100
AcDbEntity
  8
0
100
AcDbCircle
 62
7
  6
CONTINUOUS
 10
1.4272775873
 20
4.3931072319
 40
1.3482698575
  0
ARC
  5
6F0
100
AcDbEntity
  8
IMPORT_IGES
100
AcDbCircle
 62
253
  6
CONTINUOUS
 10
1.0772775873
 20
8.3931072319
 40
0.6456743158
100
AcDbArc
 50
180.0
 51
360.0
  0
ARC
  5
6F1
100
AcDbEntity
  8
0
100
AcDbCircle
 62
7
  6
CONTINUOUS
 10
3.9272775873
 20
23.0931072319
 40
0.5
100
AcDbArc
 50
334.1580672368
 51
25.8419327632
  0
ARC
  5
6F2
100
AcDbEntity
  8
0
100
AcDbCircle
 62
7
  6
CONTINUOUS
 10
3.9272775873
 20
23.0931072319
 40
0.4904006794
100
AcDbArc
 50
316.2076703059
 51
43.7923296941
  0
ARC
  5
6F3
100
AcDbEntity
  8
IMPORT_IGES
100
AcDbCircle
 62
253
  6
CONTINUOUS
 10
1.0772775873
 20
8.3931072319
 40
0.395712392
100
AcDbArc
 50
180.0
 51
360.0
  0
ARC
  5
6F4
100
AcDbEntity
  8
IMPORT_IGES
100
AcDbCircle
 62
7
  6
CONTINUOUS
 10
1.0772775873
 20
8.3931072319
 40
0.3738174026
100
AcDbArc
 50
270.0
 51
360.0
  0
ELLIPSE
  5
6F5
100
AcDbEntity
  8
IMPORT_IGES
100
AcDbEllipse
 62
7
  6
CONTINUOUS
 10
5.9914067494
 20
17.707236394
 30
0.0
 11
-0.7071606311
 21
-0.7071606311
 31
0.0
 40
0.9999238505
 41
2.3562325664
 42
3.926990817
  0
ELLIPSE
  5
6F6
100
AcDbEntity
  8
IMPORT_IGES
100
AcDbEllipse
 62
7
  6
CONTINUOUS
 10
5.9914067494
 20
-17.9210219302
 30
0.0
 11
-0.7071606311
 21
0.7071606311
 31
0.0
 40
0.9999238505
 41
2.3562325664
 42
3.9269527408
  0
ELLIPSE
  5
6F7
100
AcDbEntity
  8
IMPORT_IGES
100
AcDbEllipse
 62
7
  6
CONTINUOUS
 10
-8.1368515748
 20
-17.9210219302
 30
0.0
 11
0.7071606311
 21
0.7071606311
 31
0.0
 40
0.9999238505
 41
2.3562325664
 42
3.926990817
  0
ELLIPSE
  5
6F8
100
AcDbEntity
  8
IMPORT_IGES
100
AcDbEllipse
 62
7
  6
CONTINUOUS
 10
-8.1368515748
 20
17.707236394
 30
0.0
 11
0.7071606311
 21
-0.7071606311
 31
0.0
 40
0.9999238505
 41
2.3562325664
 42
3.926990817
  0
ELLIPSE
  5
6F9
100
AcDbEntity
  8
IMPORT_IGES
100
AcDbEllipse
 62
7
  6
CONTINUOUS
 10
-8.1345700847
 20
17.7049549039
 30
0.0
 11
0.7073221892
 21
-0.7073221892
 31
0.0
 40
0.9996954599
 41
2.3563467834
 42
3.9268385237
  0
ELLIPSE
  5
6FA
100
AcDbEntity
  8
IMPORT_IGES
100
AcDbEllipse
 62
7
  6
CONTINUOUS
 10
-8.1345700847
 20
-17.91874044
 30
0.0
 11
0.7073221892
 21
0.7073221892
 31
0.0
 40
0.9996954599
 41
-3.9268385237
 42
-2.3563467834
  0
ELLIPSE
  5
6FB
100
AcDbEntity
  8
IMPORT_IGES
100
AcDbEllipse
 62
7
  6
CONTINUOUS
 10
5.9891252592
 20
-17.91874044
 30
0.0
 11
0.7073221892
 21
-0.7073221892
 31
0.0
 40
0.9996954599
 41
-0.7852458701
 42
0.7852458701
  0
ELLIPSE
  5
6FC
100
AcDbEntity
  8
IMPORT_IGES
100
AcDbEllipse
 62
7
  6
CONTINUOUS
 10
5.9891252592
 20
17.7049549039
 30
0.0
 11
0.7073221892
 21
0.7073221892
 31
0.0
 40
0.9996954599
 41
-0.7852458701
 42
0.7852458701
  0
ELLIPSE
  5
6FD
100
AcDbEntity
  8
IMPORT_IGES
100
AcDbEllipse
 62
7
  6
CONTINUOUS
 10
-1.9226462487
 20
-0.2069689321
 30
0.0
 11
0.3536610946
 21
-0.3536610946
 31
0.0
 40
0.9996954599
 41
2.3563467834
 42
3.9268385237
  0
ELLIPSE
  5
6FE
100
AcDbEntity
  8
IMPORT_IGES
100
AcDbEllipse
 62
7
  6
CONTINUOUS
 10
0.3772014233
 20
-0.2069689321
 30
0.0
 11
-0.3536610946
 21
-0.3536610946
 31
0.0
 40
0.9996954599
 41
2.3563467834
 42
3.9268385237
  0
ELLIPSE
  5
6FF
100
AcDbEntity
  8
IMPORT_IGES
100
AcDbEllipse
 62
7
  6
CONTINUOUS
 10
0.3772014233
 20
-1.5068166041
 30
0.0
 11
-0.3536610946
 21
0.3536610946
 31
0.0
 40
0.9996954599
 41
2.3563467834
 42
3.9268385237
  0
ELLIPSE
  5
700
100
AcDbEntity
  8
IMPORT_IGES
100
AcDbEllipse
 62
7
  6
CONTINUOUS
 10
-1.9226462487
 20
-1.5068166041
 30
0.0
 11
0.3536610946
 21
0.3536610946
 31
0.0
 40
0.9996954599
 41
2.3563467834
 42
3.9268385237
  0
ELLIPSE
  5
701
100
AcDbEntity
  8
IMPORT_IGES
100
AcDbEllipse
 62
7
  6
CONTINUOUS
 10
-1.9226462487
 20
-3.7069689321
 30
0.0
 11
0.3536610946
 21
-0.3536610946
 31
0.0
 40
0.9996954599
 41
2.3563467834
 42
3.9268385237
  0
ELLIPSE
  5
702
100
AcDbEntity
  8
IMPORT_IGES
100
AcDbEllipse
 62
7
  6
CONTINUOUS
 10
0.3772014233
 20
-3.7069689321
 30
0.0
 11
-0.3536610946
 21
-0.3536610946
 31
0.0
 40
0.9996954599
 41
2.3563467834
 42
3.9268385237
  0
ELLIPSE
  5
703
100
AcDbEntity
  8
IMPORT_IGES
100
AcDbEllipse
 62
7
  6
CONTINUOUS
 10
0.3772014233
 20
-5.0068166041
 30
0.0
 11
-0.3536610946
 21
0.3536610946
 31
0.0
 40
0.9996954599
 41
2.3563467834
 42
3.9268385237
  0
ELLIPSE
  5
704
100
AcDbEntity
  8
IMPORT_IGES
100
AcDbEllipse
 62
7
  6
CONTINUOUS
 10
-1.9226462487
 20
-5.0068166041
 30
0.0
 11
0.3536610946
 21
0.3536610946
 31
0.0
 40
0.9996954599
 41
2.3563467834
 42
3.9268385237
  0
ELLIPSE
  5
705
100
AcDbEntity
  8
IMPORT_IGES
100
AcDbEllipse
 62
7
  6
CONTINUOUS
 10
-1.9226462487
 20
-7.2069689321
 30
0.0
 11
0.3536610946
 21
-0.3536610946
 31
0.0
 40
0.9996954599
 41
2.3563467834
 42
3.9268385237
  0
ELLIPSE
  5
706
100
AcDbEntity
  8
IMPORT_IGES
100
AcDbEllipse
 62
7
  6
CONTINUOUS
 10
0.3772014233
 20
-7.2069689321
 30
0.0
 11
-0.3536610946
 21
-0.3536610946
 31
0.0
 40
0.9996954599
 41
2.3563467834
 42
3.9268385237
  0
ELLIPSE
  5
707
100
AcDbEntity
  8
IMPORT_IGES
100
AcDbEllipse
 62
7
  6
CONTINUOUS
 10
0.3772014233
 20
-8.5068166041
 30
0.0
 11
-0.3536610946
 21
0.3536610946
 31
0.0
 40
0.9996954599
 41
2.3563467834
 42
3.9268385237
  0
ELLIPSE
  5
708
100
AcDbEntity
  8
IMPORT_IGES
100
AcDbEllipse
 62
7
  6
CONTINUOUS
 10
-1.9226462487
 20
-8.5068166041
 30
0.0
 11
0.3536610946
 21
0.3536610946
 31
0.0
 40
0.9996954599
 41
2.3563467834
 42
3.9268385237
  0
ELLIPSE
  5
709
100
AcDbEntity
  8
IMPORT_IGES
100
AcDbEllipse
 62
7
  6
CONTINUOUS
 10
-1.9226462487
 20
-14.2069689321
 30
0.0
 11
0.3536610946
 21
-0.3536610946
 31
0.0
 40
0.9996954599
 41
2.3563467834
 42
3.9268385237
  0
ELLIPSE
  5
70A
100
AcDbEntity
  8
IMPORT_IGES
100
AcDbEllipse
 62
7
  6
CONTINUOUS
 10
0.3772014233
 20
-14.2069689321
 30
0.0
 11
-0.3536610946
 21
-0.3536610946
 31
0.0
 40
0.9996954599
 41
2.3563467834
 42
3.9268385237
  0
ELLIPSE
  5
70B
100
AcDbEntity
  8
IMPORT_IGES
100
AcDbEllipse
 62
7
  6
CONTINUOUS
 10
0.3772014233
 20
-15.5068166041
 30
0.0
 11
-0.3536610946
 21
0.3536610946
 31
0.0
 40
0.9996954599
 41
2.3563467834
 42
3.9268385237
  0
ELLIPSE
  5
70C
100
AcDbEntity
  8
IMPORT_IGES
100
AcDbEllipse
 62
7
  6
CONTINUOUS
 10
-1.9226462487
 20
-15.5068166041
 30
0.0
 11
0.3536610946
 21
0.3536610946
 31
0.0
 40
0.9996954599
 41
2.3563467834
 42
3.9268385237
  0
ELLIPSE
  5
70D
100
AcDbEntity
  8
IMPORT_IGES
100
AcDbEllipse
 62
7
  6
CONTINUOUS
 10
-1.9226462487
 20
-10.7069689321
 30
0.0
 11
0.3536610946
 21
-0.3536610946
 31
0.0
 40
0.9996954599
 41
2.3563467834
 42
3.9268385237
  0
ELLIPSE
  5
70E
100
AcDbEntity
  8
IMPORT_IGES
100
AcDbEllipse
 62
7
  6
CONTINUOUS
 10
0.3772014233
 20
-10.7069689321
 30
0.0
 11
-0.3536610946
 21
-0.3536610946
 31
0.0
 40
0.9996954599
 41
2.3563467834
 42
3.9268385237
  0
ELLIPSE
  5
70F
100
AcDbEntity
  8
IMPORT_IGES
100
AcDbEllipse
 62
7
  6
CONTINUOUS
 10
0.3772014233
 20
-12.0068166041
 30
0.0
 11
-0.3536610946
 21
0.3536610946
 31
0.0
 40
0.9996954599
 41
2.3563467834
 42
3.9268385237
  0
ELLIPSE
  5
710
100
AcDbEntity
  8
IMPORT_IGES
100
AcDbEllipse
 62
7
  6
CONTINUOUS
 10
-1.9226462487
 20
-12.0068166041
 30
0.0
 11
0.3536610946
 21
0.3536610946
 31
0.0
 40
0.9996954599
 41
2.3563467834
 42
3.9268385237
  0
ELLIPSE
  5
711
100
AcDbEntity
  8
IMPORT_IGES
100
AcDbEllipse
 62
7
  6
CONTINUOUS
 10
0.6947326522
 20
11.488094669
 30
0.0
 11
0.0
 21
0.5
 31
0.0
 40
0.0174550649
 41
-3.0414252324
 42
-1.5707963268
  0
ELLIPSE
  5
712
100
AcDbEntity
  8
IMPORT_IGES
100
AcDbEllipse
 62
7
  6
CONTINUOUS
 10
0.6964781587
 20
10.4931072319
 30
0.0
 11
0.0
 21
0.5
 31
0.0
 40
0.0174550649
 41
0.1001674212
 42
1.5707963268
  0
ELLIPSE
  5
713
100
AcDbEntity
  8
IMPORT_IGES
100
AcDbEllipse
 62
7
  6
CONTINUOUS
 10
-4.8419229841
 20
8.5123839674
 30
0.0
 11
0.0
 21
0.5
 31
0.0
 40
0.0174550649
 41
-1.8116723718
 42
-1.5707963268
  0
ELLIPSE
  5
714
100
AcDbEntity
  8
IMPORT_IGES
100
AcDbEllipse
 62
7
  6
CONTINUOUS
 10
-4.8419229841
 20
10.4931072319
 30
0.0
 11
0.0
 21
0.5
 31
0.0
 40
0.0174550649
 41
-1.5707963268
 42
-0.1001674212
  0
ELLIPSE
  5
715
100
AcDbEntity
  8
IMPORT_IGES
100
AcDbEllipse
 62
7
  6
CONTINUOUS
 10
-4.8401774776
 20
11.488094669
 30
0.0
 11
-0.0
 21
0.5
 31
0.0
 40
0.0174550649
 41
-4.7123889804
 42
-3.2417600748
  0
ELLIPSE
  5
716
100
AcDbEntity
  8
IMPORT_IGES
100
AcDbEllipse
 62
7
  6
CONTINUOUS
 10
0.6964781587
 20
8.5123839674
 30
0.0
 11
0.0
 21
0.5
 31
0.0
 40
0.0174550649
 41
-4.7123889804
 42
-4.4715129354
  0
ELLIPSE
  5
717
100
AcDbEntity
  8
IMPORT_IGES
100
AcDbEllipse
 62
7
  6
CONTINUOUS
 10
0.7017146782
 20
13.5174833916
 30
0.0
 11
0.0
 21
0.4
 31
0.0
 40
0.0174550649
 41
0.3509119749
 42
1.5707963268
  0
ELLIPSE
  5
718
100
AcDbEntity
  8
IMPORT_IGES
100
AcDbEllipse
 62
7
  6
CONTINUOUS
 10
0.7017146782
 20
13.2687310722
 30
0.0
 11
0.0
 21
0.4
 31
0.0
 40
0.0174550649
 41
-4.7123889804
 42
-3.1590459461
  0
ELLIPSE
  5
719
100
AcDbEntity
  8
IMPORT_IGES
100
AcDbEllipse
 62
7
  6
CONTINUOUS
 10
-2.4470985724
 20
15.4175443228
 30
0.0
 11
0.4
 21
0.0
 31
0.0
 40
0.0174550649
 41
-3.1241393611
 42
-1.5707963268
  0
ELLIPSE
  5
71A
100
AcDbEntity
  8
IMPORT_IGES
100
AcDbEllipse
 62
7
  6
CONTINUOUS
 10
-1.698346253
 20
15.4175443228
 30
0.0
 11
0.4
 21
-0.0
 31
0.0
 40
0.0174550649
 41
-1.5707963268
 42
-0.0174532925
  0
ELLIPSE
  5
71B
100
AcDbEntity
  8
IMPORT_IGES
100
AcDbEllipse
 62
7
  6
CONTINUOUS
 10
-4.8471595036
 20
13.2687310722
 30
0.0
 11
-0.0
 21
0.4
 31
0.0
 40
0.0174550649
 41
-3.1241393611
 42
-1.5707963268
  0
ELLIPSE
  5
71C
100
AcDbEntity
  8
IMPORT_IGES
100
AcDbEllipse
 62
7
  6
CONTINUOUS
 10
-4.8471595036
 20
13.5174833916
 30
0.0
 11
-0.0
 21
0.4
 31
0.0
 40
0.0174550649
 41
-1.5707963268
 42
-0.350911996
  0
ELLIPSE
  5
71D
100
AcDbEntity
  8
IMPORT_IGES
100
AcDbEllipse
 62
7
  6
CONTINUOUS
 10
-5.5982853218
 20
13.5174833916
 30
0.0
 11
0.0
 21
0.4
 31
0.0
 40
0.0174550649
 41
0.3509119749
 42
1.5707963268
  0
ELLIPSE
  5
71E
100
AcDbEntity
  8
IMPORT_IGES
100
AcDbEllipse
 62
7
  6
CONTINUOUS
 10
-5.5982853218
 20
13.2687310722
 30
0.0
 11
0.0
 21
0.4
 31
0.0
 40
0.0174550649
 41
-4.7123889804
 42
-3.1590459461
  0
ELLIPSE
  5
71F
100
AcDbEntity
  8
IMPORT_IGES
100
AcDbEllipse
 62
7
  6
CONTINUOUS
 10
-1.698346253
 20
16.168670141
 30
0.0
 11
0.4
 21
0.0
 31
0.0
 40
0.0174550649
 41
0.0174532925
 42
1.5707963268
  0
ELLIPSE
  5
720
100
AcDbEntity
  8
IMPORT_IGES
100
AcDbEllipse
 62
7
  6
CONTINUOUS
 10
-2.4470985724
 20
16.168670141
 30
0.0
 11
0.4
 21
-0.0
 31
0.0
 40
0.0174550649
 41
1.5707963268
 42
3.1241393611
  0
ELLIPSE
  5
721
100
AcDbEntity
  8
IMPORT_IGES
100
AcDbEllipse
 62
7
  6
CONTINUOUS
 10
1.4528404964
 20
13.2687310722
 30
0.0
 11
-0.0
 21
0.4
 31
0.0
 40
0.0174550649
 41
-3.1241393611
 42
-1.5707963268
  0
ELLIPSE
  5
722
100
AcDbEntity
  8
IMPORT_IGES
100
AcDbEllipse
 62
7
  6
CONTINUOUS
 10
1.4528404964
 20
13.5174833916
 30
0.0
 11
-0.0
 21
0.4
 31
0.0
 40
0.0174550649
 41
-1.5707963268
 42
-0.3509120146
  0
ELLIPSE
  5
723
100
AcDbEntity
  8
0
100
AcDbEllipse
 62
7
  6
CONTINUOUS
 10
-10.6551911838
 20
21.775576003
 30
0.0
 11
0.3536610946
 21
-0.3536610946
 31
0.0
 40
0.9996954599
 41
2.3563467834
 42
3.9268385237
  0
ELLIPSE
  5
724
100
AcDbEntity
  8
0
100
AcDbEllipse
 62
7
  6
CONTINUOUS
 10
10.5097463583
 20
21.775576003
 30
0.0
 11
0.3536610946
 21
0.3536610946
 31
0.0
 40
0.9996954599
 41
-0.7852458701
 42
0.7852458701
  0
ELLIPSE
  5
725
100
AcDbEntity
  8
0
100
AcDbEllipse
 62
7
  6
CONTINUOUS
 10
10.5097463583
 20
-21.9893615391
 30
0.0
 11
-0.3536610946
 21
0.3536610946
 31
0.0
 40
0.9996954599
 41
2.3563467834
 42
3.9268385237
  0
ELLIPSE
  5
726
100
AcDbEntity
  8
0
100
AcDbEllipse
 62
7
  6
CONTINUOUS
 10
-8.8358517934
 20
-23.6625552008
 30
0.0
 11
0.25
 21
0.0
 31
0.0
 40
0.5773502692
 41
-0.5235987756
 42
-0.0174532925
  0
ELLIPSE
  5
727
100
AcDbEntity
  8
0
100
AcDbEllipse
 62
7
  6
CONTINUOUS
 10
8.9641482066
 20
-23.6625552008
 30
0.0
 11
0.25
 21
0.0
 31
0.0
 40
0.5773502692
 41
-0.5235987756
 42
-0.0174532925
  0
ELLIPSE
  5
728
100
AcDbEntity
  8
0
100
AcDbEllipse
 62
7
  6
CONTINUOUS
 10
-9.109593032
 20
23.4487696646
 30
0.0
 11
0.25
 21
0.0
 31
0.0
 40
0.5773502692
 41
2.617993878
 42
3.1241393611
  0
ELLIPSE
  5
729
100
AcDbEntity
  8
0
100
AcDbEllipse
 62
7
  6
CONTINUOUS
 10
8.690406968
 20
23.4487696646
 30
0.0
 11
0.25
 21
-0.0
 31
0.0
 40
0.5773502692
 41
2.617993878
 42
3.1241393611
  0
ELLIPSE
  5
72A
100
AcDbEntity
  8
0
100
AcDbEllipse
 62
7
  6
CONTINUOUS
 10
0.9947707342
 20
-23.8393996211
 30
0.0
 11
0.1768305473
 21
0.1768305473
 31
0.0
 40
0.9996954599
 41
2.3563467834
 42
3.9268385237
  0
ELLIPSE
  5
72B
100
AcDbEntity
  8
0
100
AcDbEllipse
 62
7
  6
CONTINUOUS
 10
-1.1402155597
 20
-23.8393996211
 30
0.0
 11
0.1768305473
 21
-0.1768305473
 31
0.0
 40
0.9996954599
 41
-0.7852458701
 42
0.7852458701
  0
ELLIPSE
  5
72C
100
AcDbEntity
  8
0
100
AcDbEllipse
 62
7
  6
CONTINUOUS
 10
-1.1402155597
 20
23.625614085
 30
0.0
 11
-0.1768305473
 21
-0.1768305473
 31
0.0
 40
0.9996954599
 41
2.3563467834
 42
3.9268385237
  0
ELLIPSE
  5
72D
100
AcDbEntity
  8
0
100
AcDbEllipse
 62
7
  6
CONTINUOUS
 10
0.9947707342
 20
23.625614085
 30
0.0
 11
-0.1768305473
 21
0.1768305473
 31
0.0
 40
0.9996954599
 41
-0.7852458701
 42
0.7852458701
  0
ELLIPSE
  5
72E
100
AcDbEntity
  8
0
100
AcDbEllipse
 62
7
  6
CONTINUOUS
 10
-4.1186777521
 20
-23.3068927681
 30
0.0
 11
0.4595995956
 21
-0.0
 31
0.0
 40
0.9949884474
 41
-2.644815645
 42
-2.3053277814
  0
ELLIPSE
  5
72F
100
AcDbEntity
  8
0
100
AcDbEllipse
 62
7
  6
CONTINUOUS
 10
-4.1186777521
 20
-23.3068927681
 30
0.0
 11
0.4595995956
 21
0.0
 31
0.0
 40
0.9949884474
 41
2.3053277814
 42
2.644815645
  0
ELLIPSE
  5
730
100
AcDbEntity
  8
0
100
AcDbEllipse
 62
7
  6
CONTINUOUS
 10
-4.1186777521
 20
23.0931072319
 30
0.0
 11
0.4595995956
 21
-0.0
 31
0.0
 40
0.9949884474
 41
-2.644815645
 42
-2.3053277814
  0
ELLIPSE
  5
731
100
AcDbEntity
  8
0
100
AcDbEllipse
 62
7
  6
CONTINUOUS
 10
-4.1186777521
 20
23.0931072319
 30
0.0
 11
0.4595995956
 21
0.0
 31
0.0
 40
0.9949884474
 41
2.3053277814
 42
2.644815645
  0
ELLIPSE
  5
732
100
AcDbEntity
  8
0
100
AcDbEllipse
 62
7
  6
CONTINUOUS
 10
3.9732329267
 20
-23.3068927681
 30
0.0
 11
0.4595995956
 21
0.0
 31
0.0
 40
0.9949884474
 41
0.4967770086
 42
0.8362648721
  0
ELLIPSE
  5
733
100
AcDbEntity
  8
0
100
AcDbEllipse
 62
7
  6
CONTINUOUS
 10
3.9732329267
 20
-23.3068927681
 30
0.0
 11
0.4595995956
 21
0.0
 31
0.0
 40
0.9949884474
 41
-0.8362648721
 42
-0.4967770086
  0
ELLIPSE
  5
734
100
AcDbEntity
  8
0
100
AcDbEllipse
 62
7
  6
CONTINUOUS
 10
3.9732329267
 20
23.0931072319
 30
0.0
 11
0.4595995956
 21
-0.0
 31
0.0
 40
0.9949884474
 41
0.4967770086
 42
0.8362648721
  0
ELLIPSE
  5
735
100
AcDbEntity
  8
0
100
AcDbEllipse
 62
7
  6
CONTINUOUS
 10
3.9732329267
 20
23.0931072319
 30
0.0
 11
0.4595995956
 21
0.0
 31
0.0
 40
0.9949884474
 41
-0.8362648721
 42
-0.4967770086
  0
ELLIPSE
  5
736
100
AcDbEntity
  8
0
100
AcDbEllipse
 62
7
  6
CONTINUOUS
 10
8.002726938
 20
21.1184042546
 30
0.0
 11
-0.0
 21
1.0
 31
0.0
 40
0.0174550649
 41
1.3378837631
 42
1.5707963268
  0
ELLIPSE
  5
737
100
AcDbEntity
  8
0
100
AcDbEllipse
 62
7
  6
CONTINUOUS
 10
-8.1481717634
 20
21.1184042546
 30
0.0
 11
-0.0
 21
1.0
 31
0.0
 40
0.0174550649
 41
-1.5707963268
 42
-1.3378837631
  0
ELLIPSE
  5
738
100
AcDbEntity
  8
0
100
AcDbEllipse
 62
7
  6
CONTINUOUS
 10
-8.1481717634
 20
-21.3321897908
 30
0.0
 11
-0.0
 21
1.0
 31
0.0
 40
0.0174550649
 41
-1.8037088905
 42
-1.5707963268
  0
ELLIPSE
  5
739
100
AcDbEntity
  8
0
100
AcDbEllipse
 62
7
  6
CONTINUOUS
 10
8.002726938
 20
-21.3321897908
 30
0.0
 11
-0.0
 21
1.0
 31
0.0
 40
0.0174550649
 41
-4.7123889804
 42
-4.4794764167
  0
ELLIPSE
  5
73A
100
AcDbEntity
  8
0
100
AcDbEllipse
 62
7
  6
CONTINUOUS
 10
-8.3740088422
 20
-21.3321897908
 30
0.0
 11
1.0000571192
 21
-0.9999809595
 31
0.0
 40
0.0061705924
 41
0.0112823085
 42
1.3317127791
  0
ELLIPSE
  5
73B
100
AcDbEntity
  8
0
100
AcDbEllipse
 62
7
  6
CONTINUOUS
 10
8.2285640167
 20
-21.3321897908
 30
0.0
 11
1.0000571192
 21
0.9999809595
 31
0.0
 40
0.0061705924
 41
1.8098798745
 42
3.1303103451
  0
ELLIPSE
  5
73C
100
AcDbEntity
  8
0
100
AcDbEllipse
 62
7
  6
CONTINUOUS
 10
-8.3740088422
 20
21.1184042546
 30
0.0
 11
1.0000571192
 21
0.9999809595
 31
0.0
 40
0.0061705924
 41
-1.3317127791
 42
-0.0112823085
  0
ELLIPSE
  5
73D
100
AcDbEntity
  8
0
100
AcDbEllipse
 62
7
  6
CONTINUOUS
 10
8.2285640167
 20
21.1184042546
 30
0.0
 11
1.0000571192
 21
-0.9999809595
 31
0.0
 40
0.0061705924
 41
-3.1303103451
 42
-1.8098798745
  0
ELLIPSE
  5
73E
100
AcDbEntity
  8
0
100
AcDbEllipse
 62
7
  6
CONTINUOUS
 10
-9.109593032
 20
-23.6625552008
 30
0.0
 11
0.25
 21
0.0
 31
0.0
 40
0.5773502692
 41
-3.1241393611
 42
-2.617993878
  0
ELLIPSE
  5
73F
100
AcDbEntity
  8
0
100
AcDbEllipse
 62
7
  6
CONTINUOUS
 10
-9.109593032
 20
-22.4938014694
 30
0.0
 11
0.25
 21
0.0
 31
0.0
 40
0.0174550649
 41
1.5707963268
 42
3.1241393611
  0
ELLIPSE
  5
740
100
AcDbEntity
  8
0
100
AcDbEllipse
 62
7
  6
CONTINUOUS
 10
8.690406968
 20
-23.6625552008
 30
0.0
 11
0.25
 21
-0.0
 31
0.0
 40
0.5773502692
 41
-3.1241393611
 42
-2.617993878
  0
ELLIPSE
  5
741
100
AcDbEntity
  8
0
100
AcDbEllipse
 62
7
  6
CONTINUOUS
 10
8.690406968
 20
-22.4938014694
 30
0.0
 11
0.25
 21
0.0
 31
0.0
 40
0.0174550649
 41
1.5707963268
 42
3.1241393611
  0
ELLIPSE
  5
742
100
AcDbEntity
  8
0
100
AcDbEllipse
 62
7
  6
CONTINUOUS
 10
-9.109593032
 20
22.2800159332
 30
0.0
 11
0.25
 21
-0.0
 31
0.0
 40
0.0174550649
 41
-3.1241393611
 42
-1.5707963268
  0
ELLIPSE
  5
743
100
AcDbEntity
  8
0
100
AcDbEllipse
 62
7
  6
CONTINUOUS
 10
8.690406968
 20
22.2800159332
 30
0.0
 11
0.25
 21
0.0
 31
0.0
 40
0.0174550649
 41
-3.1241393611
 42
-1.5707963268
  0
ELLIPSE
  5
744
100
AcDbEntity
  8
0
100
AcDbEllipse
 62
7
  6
CONTINUOUS
 10
7.3119396284
 20
20.1248055718
 30
0.0
 11
0.3
 21
0.0
 31
0.0
 40
0.0087268678
 41
1.5707963268
 42
3.1328660073
  0
ELLIPSE
  5
745
100
AcDbEntity
  8
RACCORDO
100
AcDbEllipse
 62
7
  6
CONTINUOUS
 10
7.5426155462
 20
20.8777578495
 30
0.0
 11
0.3
 21
0.0
 31
0.0
 40
0.0087268678
 41
0.0087266463
 42
1.5707963268
  0
ELLIPSE
  5
746
100
AcDbEntity
  8
0
100
AcDbEllipse
 62
7
  6
CONTINUOUS
 10
8.9641482066
 20
-22.4938014694
 30
0.0
 11
0.25
 21
-0.0
 31
0.0
 40
0.0174550649
 41
0.0174532925
 42
1.5707963268
  0
ELLIPSE
  5
747
100
AcDbEntity
  8
0
100
AcDbEllipse
 62
7
  6
CONTINUOUS
 10
-8.8358517934
 20
-22.4938014694
 30
0.0
 11
0.25
 21
-0.0
 31
0.0
 40
0.0174550649
 41
0.0174532925
 42
1.5707963268
  0
ELLIPSE
  5
748
100
AcDbEntity
  8
RACCORDO
100
AcDbEllipse
 62
7
  6
CONTINUOUS
 10
7.5426155462
 20
-21.0915433857
 30
0.0
 11
0.3
 21
0.0
 31
0.0
 40
0.0087268678
 41
-1.5707963268
 42
-0.0087266463
  0
ELLIPSE
  5
749
100
AcDbEntity
  8
0
100
AcDbEllipse
 62
7
  6
CONTINUOUS
 10
7.3119396284
 20
-20.3385911079
 30
0.0
 11
0.3
 21
0.0
 31
0.0
 40
0.0087268678
 41
-3.1328660073
 42
-1.5707963268
  0
ELLIPSE
  5
74A
100
AcDbEntity
  8
RACCORDO
100
AcDbEllipse
 62
7
  6
CONTINUOUS
 10
-7.6880603716
 20
-21.0915433857
 30
0.0
 11
0.3
 21
0.0
 31
0.0
 40
0.0087268678
 41
-3.1328660073
 42
-1.5707963268
  0
ELLIPSE
  5
74B
100
AcDbEntity
  8
0
100
AcDbEllipse
 62
7
  6
CONTINUOUS
 10
-7.4573844538
 20
-20.3385911079
 30
0.0
 11
0.3
 21
0.0
 31
0.0
 40
0.0087268678
 41
-1.5707963268
 42
-0.0087266463
  0
ELLIPSE
  5
74C
100
AcDbEntity
  8
0
100
AcDbEllipse
 62
7
  6
CONTINUOUS
 10
-8.8358517934
 20
22.2800159332
 30
0.0
 11
0.25
 21
0.0
 31
0.0
 40
0.0174550649
 41
-1.5707963268
 42
-0.0174532925
  0
ELLIPSE
  5
74D
100
AcDbEntity
  8
0
100
AcDbEllipse
 62
7
  6
CONTINUOUS
 10
-8.8358517934
 20
23.4487696646
 30
0.0
 11
0.25
 21
0.0
 31
0.0
 40
0.5773502692
 41
0.0174532925
 42
0.5235987756
  0
ELLIPSE
  5
74E
100
AcDbEntity
  8
0
100
AcDbEllipse
 62
7
  6
CONTINUOUS
 10
8.9641482066
 20
23.4487696646
 30
0.0
 11
0.25
 21
0.0
 31
0.0
 40
0.5773502692
 41
0.0174532925
 42
0.5235987756
  0
ELLIPSE
  5
74F
100
AcDbEntity
  8
0
100
AcDbEllipse
 62
7
  6
CONTINUOUS
 10
8.9641482066
 20
22.2800159332
 30
0.0
 11
0.25
 21
0.0
 31
0.0
 40
0.0174550649
 41
-1.5707963268
 42
-0.0174532925
  0
ELLIPSE
  5
750
100
AcDbEntity
  8
RACCORDO
100
AcDbEllipse
 62
7
  6
CONTINUOUS
 10
-7.6880603716
 20
20.8777578495
 30
0.0
 11
0.3
 21
0.0
 31
0.0
 40
0.0087268678
 41
1.5707963268
 42
3.1328660073
  0
ELLIPSE
  5
751
100
AcDbEntity
  8
0
100
AcDbEllipse
 62
7
  6
CONTINUOUS
 10
-10.4726919471
 20
23.2466970704
 30
0.0
 11
0.0069796346
 21
0.2308610084
 31
0.0
 40
0.8659264732
 41
-4.6774890294
 42
-3.1154190256
  0
ELLIPSE
  5
752
100
AcDbEntity
  8
0
100
AcDbEllipse
 62
7
  6
CONTINUOUS
 10
-7.4573844538
 20
20.1248055718
 30
0.0
 11
0.3
 21
-0.0
 31
0.0
 40
0.0087268678
 41
0.0087266463
 42
1.5707963268
  0
ELLIPSE
  5
753
100
AcDbEntity
  8
0
100
AcDbEllipse
 62
7
  6
CONTINUOUS
 10
-7.4727528783
 20
23.2466970704
 30
0.0
 11
-0.0069796346
 21
0.2308610084
 31
0.0
 40
0.8659264732
 41
-3.1677662815
 42
-1.6056962779
  0
ELLIPSE
  5
754
100
AcDbEntity
  8
0
100
AcDbEllipse
 62
7
  6
CONTINUOUS
 10
7.3273080529
 20
23.2466970704
 30
0.0
 11
0.0069796346
 21
0.2308610084
 31
0.0
 40
0.8659264732
 41
-4.6774890294
 42
-3.1154190256
  0
ELLIPSE
  5
755
100
AcDbEntity
  8
0
100
AcDbEllipse
 62
7
  6
CONTINUOUS
 10
-10.6551911838
 20
-21.9893615391
 30
0.0
 11
-0.3536610946
 21
-0.3536610946
 31
0.0
 40
0.9996954599
 41
-0.7852458701
 42
0.7852458701
  0
ELLIPSE
  5
756
100
AcDbEntity
  8
0
100
AcDbEllipse
 62
7
  6
CONTINUOUS
 10
10.3272471217
 20
23.2466970704
 30
0.0
 11
-0.0069796346
 21
0.2308610084
 31
0.0
 40
0.8659264732
 41
-3.1677662815
 42
-1.6056962779
  0
ELLIPSE
  5
757
100
AcDbEntity
  8
0
100
AcDbEllipse
 62
7
  6
CONTINUOUS
 10
-10.4726919471
 20
-23.4604826066
 30
0.0
 11
-0.0069796346
 21
0.2308610084
 31
0.0
 40
0.8659264732
 41
-0.026173628
 42
1.5358963756
  0
ELLIPSE
  5
758
100
AcDbEntity
  8
0
100
AcDbEllipse
 62
7
  6
CONTINUOUS
 10
7.3273080529
 20
-23.4604826066
 30
0.0
 11
-0.0069796346
 21
0.2308610084
 31
0.0
 40
0.8659264732
 41
-0.026173628
 42
1.5358963756
  0
ELLIPSE
  5
759
100
AcDbEntity
  8
0
100
AcDbEllipse
 62
7
  6
CONTINUOUS
 10
-7.4727528783
 20
-23.4604826066
 30
0.0
 11
0.0069796346
 21
0.2308610084
 31
0.0
 40
0.8659264732
 41
-1.5358963758
 42
0.026173628
  0
ELLIPSE
  5
75A
100
AcDbEntity
  8
0
100
AcDbEllipse
 62
7
  6
CONTINUOUS
 10
10.3272471217
 20
-23.4604826066
 30
0.0
 11
0.0069796346
 21
0.2308610084
 31
0.0
 40
0.8659264732
 41
-1.5358963758
 42
0.026173628
  0
ELLIPSE
  5
75B
100
AcDbEntity
  8
0
100
AcDbEllipse
 62
7
  6
CONTINUOUS
 10
-4.0389948803
 20
22.1951087424
 30
0.0
 11
0.3856702945
 21
-0.0
 31
0.0
 40
0.0174550649
 41
-3.1241393611
 42
-0.0174532925
  0
ELLIPSE
  5
75C
100
AcDbEntity
  8
0
100
AcDbEllipse
 62
7
  6
CONTINUOUS
 10
-4.0389948803
 20
-22.4088942785
 30
0.0
 11
0.3856702945
 21
0.0
 31
0.0
 40
0.0174550649
 41
0.0174532925
 42
3.1241393611
  0
ELLIPSE
  5
75D
100
AcDbEntity
  8
0
100
AcDbEllipse
 62
7
  6
CONTINUOUS
 10
3.8935500548
 20
22.1951087424
 30
0.0
 11
0.3856702945
 21
-0.0
 31
0.0
 40
0.0174550649
 41
-3.1241393611
 42
-0.0174532925
  0
ELLIPSE
  5
75E
100
AcDbEntity
  8
0
100
AcDbEllipse
 62
7
  6
CONTINUOUS
 10
3.8935500548
 20
-22.4088942785
 30
0.0
 11
0.3856702945
 21
0.0
 31
0.0
 40
0.0174550649
 41
0.0174532925
 42
3.1241393611
  0
ELLIPSE
  5
75F
100
AcDbEntity
  8
0
100
AcDbEllipse
 62
7
  6
CONTINUOUS
 10
-3.8227604947
 20
-23.8393996211
 30
0.0
 11
0.1768305473
 21
-0.1768305473
 31
0.0
 40
0.9996954599
 41
-0.7852458701
 42
0.7852458701
  0
ELLIPSE
  5
760
100
AcDbEntity
  8
0
100
AcDbEllipse
 62
7
  6
CONTINUOUS
 10
3.6773156693
 20
-23.8393996211
 30
0.0
 11
0.1768305473
 21
0.1768305473
 31
0.0
 40
0.9996954599
 41
-3.9268385237
 42
-2.3563467834
  0
ELLIPSE
  5
761
100
AcDbEntity
  8
0
100
AcDbEllipse
 62
7
  6
CONTINUOUS
 10
3.6773156693
 20
23.625614085
 30
0.0
 11
-0.1768305473
 21
0.1768305473
 31
0.0
 40
0.9996954599
 41
-0.7852458701
 42
0.7852458701
  0
ELLIPSE
  5
762
100
AcDbEntity
  8
0
100
AcDbEllipse
 62
7
  6
CONTINUOUS
 10
-3.8227604947
 20
23.625614085
 30
0.0
 11
0.1768305473
 21
0.1768305473
 31
0.0
 40
0.9996954599
 41
-0.7852458701
 42
0.7852458701
  0
ELLIPSE
  5
763
100
AcDbEntity
  8
0
100
AcDbEllipse
 62
7
  6
CONTINUOUS
 10
2.7272871069
 20
-22.2393996211
 30
0.0
 11
0.1118178731
 21
0.2236527791
 31
0.0
 40
0.9998096356
 41
-4.2486956813
 42
-2.6780516535
  0
ELLIPSE
  5
764
100
AcDbEntity
  8
0
100
AcDbEllipse
 62
7
  6
CONTINUOUS
 10
-2.8727319323
 20
-22.2393996211
 30
0.0
 11
-0.1118178731
 21
0.2236527791
 31
0.0
 40
0.9998096356
 41
-3.6051336537
 42
-2.0344896259
  0
ELLIPSE
  5
765
100
AcDbEntity
  8
0
100
AcDbEllipse
 62
7
  6
CONTINUOUS
 10
-2.8727319323
 20
22.025614085
 30
0.0
 11
0.1118178731
 21
0.2236527791
 31
0.0
 40
0.9998096356
 41
-1.1071030277
 42
0.4635410001
  0
ELLIPSE
  5
766
100
AcDbEntity
  8
0
100
AcDbEllipse
 62
7
  6
CONTINUOUS
 10
2.7272871069
 20
22.025614085
 30
0.0
 11
-0.1118178731
 21
0.2236527791
 31
0.0
 40
0.9998096356
 41
-0.4635410001
 42
1.1071030277
  0
ENDSEC
  0
SECTION
  2
OBJECTS
  0
DICTIONARY
  5
C
100
AcDbDictionary
280
0
281
1
  3
ACAD_GROUP
350
D
  3
ACAD_MLINESTYLE
350
17
  3
ACAD_LAYOUT
350
1A
  3
ACAD_PLOTSETTINGS
350
19
  3
ACAD_PLOTSTYLENAME
350
E
  0
DICTIONARY
  5
D
102
{ACAD_REACTORS
330
C
102
}
100
AcDbDictionary
280
0
281
1
  0
ACDBDICTIONARYWDFLT
  5
E
102
{ACAD_REACTORS
330
C
102
}
100
AcDbDictionary
281
1
  3
Normal
350
F
100
AcDbDictionaryWithDefault
340
F
  0
DICTIONARY
  5
17
102
{ACAD_REACTORS
330
C
102
}
100
AcDbDictionary
280
0
281
1
  3
Standard
350
18
  0
DICTIONARY
  5
19
102
{ACAD_REACTORS
330
C
102
}
100
AcDbDictionary
281
1
  0
DICTIONARY
  5
1A
102
{ACAD_REACTORS
330
C
102
}
100
AcDbDictionary
281
1
  3
Model
350
767
  3
Layout1
350
768
  0
ACDBPLACEHOLDER
  5
F
102
{ACAD_REACTORS
330
E
102
}
  0
MLINESTYLE
  5
18
102
{ACAD_REACTORS
330
17
102
}
100
AcDbMlineStyle
  2
STANDARD
 70
0
  3

 62
256
 51
90.0
 52
90.0
 71
2
 49
0.5
 62
256
  6
BYLAYER
 49
-0.5
 62
256
  6
BYLAYER
  0
LAYOUT
  5
767
102
{ACAD_REACTORS
330
1A
102
}
100
AcDbPlotSettings
  1

  2
none_device
  4
ISO_A4_(297.00_x_210.00_MM)
  6

 40
0.0
 41
0.0
 42
0.0
 43
0.0
 44
297.0
 45
210.0
 46
0.0
 47
0.0
 48
0.0
 49
0.0
140
0.0
141
0.0
142
1.0
143
1.0
 70
1024
 72
1
 73
0
 74
0
  7

 75
0
147
1.0
148
0.0
149
0.0
100
AcDbLayout
  1
Model
 70
0
 71
0
 10
0.0
 20
0.0
 11
297.0
 21
210.0
 12
0.0
 22
0.0
 32
0.0
 14
0.0
 24
0.0
 34
0.0
 15
0.0
 25
0.0
 35
0.0
146
0.0
 13
0.0
 23
0.0
 33
0.0
 16
1.0
 26
0.0
 36
0.0
 17
0.0
 27
1.0
 37
0.0
 76
0
330
21C
345
0
346
0
  0
LAYOUT
  5
768
102
{ACAD_REACTORS
330
1A
102
}
100
AcDbPlotSettings
  1

  2
none_device
  4
ISO_A4_(297.00_x_210.00_MM)
  6

 40
0.0
 41
0.0
 42
0.0
 43
0.0
 44
297.0
 45
210.0
 46
0.0
 47
0.0
 48
0.0
 49
0.0
140
0.0
141
0.0
142
1.0
143
1.0
 70
0
 72
1
 73
0
 74
0
  7

 75
0
147
1.0
148
0.0
149
0.0
100
AcDbLayout
  1
Layout1
 70
0
 71
1
 10
0.0
 20
0.0
 11
297.0
 21
210.0
 12
0.0
 22
0.0
 32
0.0
 14
0.0
 24
0.0
 34
0.0
 15
0.0
 25
0.0
 35
0.0
146
0.0
 13
0.0
 23
0.0
 33
0.0
 16
1.0
 26
0.0
 36
0.0
 17
0.0
 27
1.0
 37
0.0
 76
0
330
21D
345
0
346
0
  0
ENDSEC
  0
EOF
