  0
SECTION
  2
HEADER
  9
$ACADVER
  1
AC1015
  9
$DWGCODEPAGE
  3
ANSI_1252
  9
$EXTMAX
 10
297.0
 20
210.0
 30
0.0
  9
$EXTMIN
 10
0.0
 20
0.0
 30
0.0
  9
$LIMMIN
 10
0.0
 20
0.0
  9
$LIMMAX
 10
297.0
 20
210.0
  9
$VIEWCTR
 10
148.5
 20
105.0
  9
$VIEWSIZE
 40
210.0
  9
$CLAYER
  8
0
  9
$LTSCALE
 40
16.335
  9
$CELTYPE
  6
BYLAYER
  9
$DIMSCALE
 40
1.0
  9
$DIMASZ
 40
3.0
  9
$DIMEXO
 40
0.5
  9
$DIMDLI
 40
11.286
  9
$DIMEXE
 40
1.5
  9
$DIMCEN
 40
2.673
  9
$DIMLFAC
 40
1.0
  9
$DIMBLK
  1
_FILLED
  9
$DIMTXT
 40
3.0
  9
$DIMTOL
 70
1
  9
$DIMLIM
 70
0
  9
$DIMTFAC
 40
1.0
  9
$DIMTP
 40
0.01
  9
$DIMTM
 40
0.01
  9
$DIMGAP
 40
0.625
  9
$DIMDSEP
 70
44
  9
$PDMODE
 70
3
  9
$PDSIZE
 40
3.0
  9
$HANDSEED
  5
7EA
  9
$TILEMODE
 70
1
  9
$MEASUREMENT
 70
1
  9
$INSUNITS
 70
4
  0
ENDSEC
  0
SECTION
  2
CLASSES
  0
CLASS
  1
ACDBDICTIONARYWDFLT
  2
AcDbDictionaryWithDefault
  3
AutoCAD 2000
 90
0
280
0
281
0
  0
CLASS
  1
ACDBPLACEHOLDER
  2
AcDbPlaceHolder
  3
AutoCAD 2000
 90
0
280
0
281
0
  0
CLASS
  1
LAYOUT
  2
AcDbLayout
  3
AutoCAD 2000
 90
0
280
0
281
0
  0
ENDSEC
  0
SECTION
  2
TABLES
  0
TABLE
  2
VPORT
  5
8
100
AcDbSymbolTable
 70
2
  0
VPORT
  5
1F4
100
AcDbSymbolTableRecord
100
AcDbViewportTableRecord
  2
*ACTIVE
 70
0
 10
0.0
 20
0.0
 11
1.0
 21
1.0
 12
148.5
 22
105.0
 13
0.0
 23
0.0
 14
1.0
 24
1.0
 15
0.0
 25
0.0
 16
0.0
 26
0.0
 36
1.0
 17
0.0
 27
0.0
 37
0.0
 40
210.0
 41
1.4142857143
 42
50.0
 43
0.0
 44
0.0
 50
0.0
 51
0.0
 71
0
 72
100
 73
1
 74
1
 75
0
 76
0
 77
0
 78
0
  0
ENDTAB
  0
TABLE
  2
LTYPE
  5
5
100
AcDbSymbolTable
 70
6
  0
LTYPE
  5
14
100
AcDbSymbolTableRecord
100
AcDbLinetypeTableRecord
  2
BYBLOCK
 70
0
  3

 72
65
 73
0
 40
0.0
  0
LTYPE
  5
15
100
AcDbSymbolTableRecord
100
AcDbLinetypeTableRecord
  2
BYLAYER
 70
0
  3

 72
65
 73
0
 40
0.0
  0
LTYPE
  5
16
100
AcDbSymbolTableRecord
100
AcDbLinetypeTableRecord
  2
CONTINUOUS
 70
64
  3
Solid line
 72
65
 73
0
 40
0.0
  0
LTYPE
  5
1F5
100
AcDbSymbolTableRecord
100
AcDbLinetypeTableRecord
  2
CENTER
 70
64
  3
____ _ ____ _ ____ _ ____ _ ____ _ ____ _ ____
 72
65
 73
4
 40
0.6
 49
0.375
 74
0
 49
-0.075
 74
0
 49
0.075
 74
0
 49
-0.075
 74
0
  0
LTYPE
  5
1F6
100
AcDbSymbolTableRecord
100
AcDbLinetypeTableRecord
  2
HIDDEN
 70
64
  3
- - - - - - - - - - - - - - - - - - - -
 72
65
 73
2
 40
0.2
 49
0.1
 74
0
 49
-0.1
 74
0
  0
LTYPE
  5
1F7
100
AcDbSymbolTableRecord
100
AcDbLinetypeTableRecord
  2
PHANTOM
 70
64
  3
_____ _ _ _____ _ _ _____ _ _ _____
 72
65
 73
6
 40
0.8
 49
0.45
 74
0
 49
-0.05
 74
0
 49
0.1
 74
0
 49
-0.05
 74
0
 49
0.1
 74
0
 49
-0.05
 74
0
  0
LTYPE
  5
1F8
100
AcDbSymbolTableRecord
100
AcDbLinetypeTableRecord
  2
DOT
 70
64
  3
. . . . . . . . . . . . . . . . . . . .
 72
65
 73
2
 40
0.2
 49
0.1
 74
0
 49
-0.1
 74
0
  0
LTYPE
  5
1F9
100
AcDbSymbolTableRecord
100
AcDbLinetypeTableRecord
  2
DASHED
 70
64
  3
- - - - - - - - - - - - - - - - - - - -
 72
65
 73
2
 40
0.2
 49
0.1
 74
0
 49
-0.1
 74
0
  0
ENDTAB
  0
TABLE
  2
LAYER
  5
2
100
AcDbSymbolTable
 70
36
  0
LAYER
  5
10
100
AcDbSymbolTableRecord
100
AcDbLayerTableRecord
  2
0
 70
0
 62
7
  6
CONTINUOUS
370
-3
390
F
  0
LAYER
  5
1FA
100
AcDbSymbolTableRecord
100
AcDbLayerTableRecord
  2
DEFAULT_1
 70
0
 62
7
  6
CENTER
370
-3
390
F
  0
LAYER
  5
1FB
100
AcDbSymbolTableRecord
100
AcDbLayerTableRecord
  2
DEFAULT_2
 70
0
 62
7
  6
HIDDEN
370
-3
390
F
  0
LAYER
  5
1FC
100
AcDbSymbolTableRecord
100
AcDbLayerTableRecord
  2
DEFAULT_3
 70
0
 62
7
  6
PHANTOM
370
-3
390
F
  0
LAYER
  5
1FD
100
AcDbSymbolTableRecord
100
AcDbLayerTableRecord
  2
ASSI
 70
0
 62
7
  6
CONTINUOUS
370
-3
390
F
  0
LAYER
  5
1FE
100
AcDbSymbolTableRecord
100
AcDbLayerTableRecord
  2
COORDINATE
 70
0
 62
7
  6
CONTINUOUS
370
-3
390
F
  0
LAYER
  5
1FF
100
AcDbSymbolTableRecord
100
AcDbLayerTableRecord
  2
COPY_PUBLISH
 70
0
 62
7
  6
CONTINUOUS
370
-3
390
F
  0
LAYER
  5
200
100
AcDbSymbolTableRecord
100
AcDbLayerTableRecord
  2
COSMETIC
 70
0
 62
7
  6
CONTINUOUS
370
-3
390
F
  0
LAYER
  5
201
100
AcDbSymbolTableRecord
100
AcDbLayerTableRecord
  2
COSMETICI
 70
0
 62
7
  6
CONTINUOUS
370
-3
390
F
  0
LAYER
  5
202
100
AcDbSymbolTableRecord
100
AcDbLayerTableRecord
  2
CURVE
 70
0
 62
7
  6
CONTINUOUS
370
-3
390
F
  0
LAYER
  5
203
100
AcDbSymbolTableRecord
100
AcDbLayerTableRecord
  2
DRAFT
 70
0
 62
7
  6
CONTINUOUS
370
-3
390
F
  0
LAYER
  5
204
100
AcDbSymbolTableRecord
100
AcDbLayerTableRecord
  2
IMPORT_IGES
 70
0
 62
7
  6
CONTINUOUS
370
-3
390
F
  0
LAYER
  5
205
100
AcDbSymbolTableRecord
100
AcDbLayerTableRecord
  2
INTFCLR_11
 70
0
 62
7
  6
CONTINUOUS
370
-3
390
F
  0
LAYER
  5
206
100
AcDbSymbolTableRecord
100
AcDbLayerTableRecord
  2
INTF_1
 70
0
 62
7
  6
CONTINUOUS
370
-3
390
F
  0
LAYER
  5
207
100
AcDbSymbolTableRecord
100
AcDbLayerTableRecord
  2
INTF_3
 70
0
 62
7
  6
CONTINUOUS
370
-3
390
F
  0
LAYER
  5
208
100
AcDbSymbolTableRecord
100
AcDbLayerTableRecord
  2
NOTE
 70
0
 62
7
  6
CONTINUOUS
370
-3
390
F
  0
LAYER
  5
209
100
AcDbSymbolTableRecord
100
AcDbLayerTableRecord
  2
PIANI
 70
0
 62
7
  6
CONTINUOUS
370
-3
390
F
  0
LAYER
  5
20A
100
AcDbSymbolTableRecord
100
AcDbLayerTableRecord
  2
PIANI_RIFERIMENTO
 70
0
 62
7
  6
CONTINUOUS
370
-3
390
F
  0
LAYER
  5
20B
100
AcDbSymbolTableRecord
100
AcDbLayerTableRecord
  2
PUNTI
 70
0
 62
7
  6
CONTINUOUS
370
-3
390
F
  0
LAYER
  5
20C
100
AcDbSymbolTableRecord
100
AcDbLayerTableRecord
  2
RACCORDO
 70
0
 62
7
  6
CONTINUOUS
370
-3
390
F
  0
LAYER
  5
20D
100
AcDbSymbolTableRecord
100
AcDbLayerTableRecord
  2
SIMBOLI
 70
0
 62
7
  6
CONTINUOUS
370
-3
390
F
  0
LAYER
  5
20E
100
AcDbSymbolTableRecord
100
AcDbLayerTableRecord
  2
SMUSSO
 70
0
 62
7
  6
CONTINUOUS
370
-3
390
F
  0
LAYER
  5
20F
100
AcDbSymbolTableRecord
100
AcDbLayerTableRecord
  2
SNAPLINE
 70
0
 62
7
  6
CONTINUOUS
370
-3
390
F
  0
LAYER
  5
210
100
AcDbSymbolTableRecord
100
AcDbLayerTableRecord
  2
SUPERFICI
 70
0
 62
7
  6
CONTINUOUS
370
-3
390
F
  0
LAYER
  5
211
100
AcDbSymbolTableRecord
100
AcDbLayerTableRecord
  2
TRASH
 70
0
 62
7
  6
CONTINUOUS
370
-3
390
F
  0
LAYER
  5
212
100
AcDbSymbolTableRecord
100
AcDbLayerTableRecord
  2
___SHELL
 70
0
 62
7
  6
CONTINUOUS
370
-3
390
F
  0
ENDTAB
  0
TABLE
  2
STYLE
  5
3
100
AcDbSymbolTable
 70
1
  0
STYLE
  5
11
100
AcDbSymbolTableRecord
100
AcDbTextStyleTableRecord
  2
STANDARD
 70
0
 40
0.0
 41
0.8
 50
0.0
 71
0
 42
0.2
  3
txt
  4

  0
STYLE
  5
213
100
AcDbSymbolTableRecord
100
AcDbTextStyleTableRecord
  2
TEXTSTYLE_1
 70
0
 40
0.0
 41
0.8
 50
0.0
 71
0
 42
0.2
  3
gdt
  4

  0
ENDTAB
  0
TABLE
  2
VIEW
  5
6
100
AcDbSymbolTable
 70
0
  0
ENDTAB
  0
TABLE
  2
UCS
  5
7
100
AcDbSymbolTable
 70
0
  0
ENDTAB
  0
TABLE
  2
APPID
  5
9
100
AcDbSymbolTable
 70
1
  0
APPID
  5
214
100
AcDbSymbolTableRecord
100
AcDbRegAppTableRecord
  2
ACAD
 70
0
  0
ENDTAB
  0
TABLE
  2
BLOCK_RECORD
  5
1
100
AcDbSymbolTable
 70
0
  0
BLOCK_RECORD
  5
215
100
AcDbSymbolTableRecord
100
AcDbBlockTableRecord
  2
*Model_Space
  0
BLOCK_RECORD
  5
216
100
AcDbSymbolTableRecord
100
AcDbBlockTableRecord
  2
*Paper_Space
  0
ENDTAB
  0
TABLE
  2
DIMSTYLE
  5
A
100
AcDbSymbolTable
 70
1
100
AcDbDimStyleTable
 71
0
  0
DIMSTYLE
105
217
100
AcDbSymbolTableRecord
100
AcDbDimStyleTableRecord
  2
STANDARD
 70
0
  3

  4

 40
1.0
 41
3.0
 42
0.5
 43
0.38
 44
1.5
 45
0.0
 46
0.0
 47
0.01
 48
0.01
140
3.0
141
0.09
142
0.0
143
25.4
144
1.0
145
0.0
146
1.0
147
0.625
 71
1.0
 72
0.0
 73
0
 74
0
 75
0
 76
0
 77
1
 78
8
170
0
171
2
172
0
173
0
174
0
175
0
176
0
177
0
178
0
270
2
271
2
272
2
273
2
274
2
275
0
280
0
281
0
282
0
283
1
284
8
285
0
286
0
287
3
288
0
340
11
278
44
  0
ENDTAB
  0
ENDSEC
  0
SECTION
  2
BLOCKS
  0
BLOCK
  5
20
100
AcDbEntity
  8
0
100
AcDbBlockBegin
  2
*Model_Space
 70
0
 10
0.0
 20
0.0
 30
0.0
  3
*Model_Space
  1

  0
ENDBLK
  5
21
100
AcDbEntity
  8
0
100
AcDbBlockEnd
  0
BLOCK
  5
1C
100
AcDbEntity
  8
0
100
AcDbBlockBegin
  2
*Paper_Space
 70
0
 10
0.0
 20
0.0
 30
0.0
  3
*Paper_Space
  1

  0
ENDBLK
  5
1D
100
AcDbEntity
  8
0
100
AcDbBlockEnd
  0
ENDSEC
  0
SECTION
  2
ENTITIES
  0
LINE
  5
218
100
AcDbEntity
  8
0
100
AcDbLine
 62
7
  6
CONTINUOUS
 10
124.8203469481
 20
111.8142478728
 11
124.7563245016
 21
112.4693618351
  0
LINE
  5
219
100
AcDbEntity
  8
0
100
AcDbLine
 62
7
  6
CONTINUOUS
 10
126.0622557507
 20
111.8142478728
 11
125.9982333042
 21
112.4693618351
  0
LINE
  5
21A
100
AcDbEntity
  8
0
100
AcDbLine
 62
7
  6
CONTINUOUS
 10
124.7802979503
 20
91.2149484536
 11
124.746691973
 21
103.4253079273
  0
LINE
  5
21B
100
AcDbEntity
  8
0
100
AcDbLine
 62
7
  6
CONTINUOUS
 10
126.0222067529
 20
91.2149484536
 11
125.9886007756
 21
103.4253079273
  0
LINE
  5
21C
100
AcDbEntity
  8
DRAFT
100
AcDbLine
 62
7
  6
CONTINUOUS
 10
126.1054463183
 20
118.6512588089
 11
126.0964454492
 21
129.0825167329
  0
LINE
  5
21D
100
AcDbEntity
  8
RACCORDO
100
AcDbLine
 62
7
  6
CONTINUOUS
 10
124.7802979503
 20
129.9000753682
 11
124.7802979503
 21
125.2149484536
  0
LINE
  5
21E
100
AcDbEntity
  8
RACCORDO
100
AcDbLine
 62
7
  6
CONTINUOUS
 10
124.7802979503
 20
86.5298215391
 11
124.7802979503
 21
91.2149484536
  0
LINE
  5
21F
100
AcDbEntity
  8
0
100
AcDbLine
 62
7
  6
CONTINUOUS
 10
124.8300512013
 20
111.3312849596
 11
124.8300512013
 21
105.0986119476
  0
LINE
  5
220
100
AcDbEntity
  8
DRAFT
100
AcDbLine
 62
7
  6
CONTINUOUS
 10
126.0222067529
 20
129.2310960068
 11
126.0222067529
 21
125.2149484536
  0
LINE
  5
221
100
AcDbEntity
  8
DRAFT
100
AcDbLine
 62
7
  6
CONTINUOUS
 10
126.0222067529
 20
87.1988009005
 11
126.0222067529
 21
91.2149484536
  0
LINE
  5
222
100
AcDbEntity
  8
0
100
AcDbLine
 62
7
  6
CONTINUOUS
 10
126.0719600038
 20
111.3312849596
 11
126.0719600038
 21
105.0986119476
  0
LINE
  5
223
100
AcDbEntity
  8
DRAFT
100
AcDbLine
 62
7
  6
CONTINUOUS
 10
126.1084470316
 20
108.2149472275
 11
126.1054463183
 21
118.6512588089
  0
LINE
  5
224
100
AcDbEntity
  8
DRAFT
100
AcDbLine
 62
7
  6
CONTINUOUS
 10
126.1054463172
 20
97.7786360949
 11
126.1084470316
 21
108.2149472275
  0
LINE
  5
225
100
AcDbEntity
  8
DRAFT
100
AcDbLine
 62
7
  6
CONTINUOUS
 10
126.0964454492
 20
87.3473801743
 11
126.1054463172
 21
97.7786360949
  0
LINE
  5
226
100
AcDbEntity
  8
0
100
AcDbLine
 62
7
  6
CONTINUOUS
 10
124.7802979503
 20
125.2149484536
 11
124.746691973
 21
113.0045889799
  0
LINE
  5
227
100
AcDbEntity
  8
0
100
AcDbLine
 62
7
  6
CONTINUOUS
 10
126.0222067529
 20
125.2149484536
 11
125.9886007756
 21
113.0045889799
  0
LINE
  5
228
100
AcDbEntity
  8
0
100
AcDbLine
 62
7
  6
CONTINUOUS
 10
124.8203469481
 20
104.6156490345
 11
124.7563245016
 21
103.9605350721
  0
LINE
  5
229
100
AcDbEntity
  8
0
100
AcDbLine
 62
7
  6
CONTINUOUS
 10
126.0622557507
 20
104.6156490345
 11
125.9982333042
 21
103.9605350721
  0
LINE
  5
22A
100
AcDbEntity
  8
0
100
AcDbLine
 62
7
  6
CONTINUOUS
 10
131.5251641487
 20
129.2156480655
 11
131.4763515799
 21
129.0690912729
  0
LINE
  5
22B
100
AcDbEntity
  8
0
100
AcDbLine
 62
7
  6
CONTINUOUS
 10
153.9763515799
 20
87.3608056344
 11
148.5576788343
 21
87.3472458772
  0
LINE
  5
22C
100
AcDbEntity
  8
0
100
AcDbLine
 62
7
  6
CONTINUOUS
 10
131.4763515799
 20
87.3608056344
 11
126.0964454492
 21
87.3473801743
  0
LINE
  5
22D
100
AcDbEntity
  8
0
100
AcDbLine
 62
7
  6
CONTINUOUS
 10
157.9303092784
 20
87.3640864307
 11
154.7846413509
 21
87.3619296702
  0
LINE
  5
22E
100
AcDbEntity
  8
0
100
AcDbLine
 62
7
  6
CONTINUOUS
 10
135.4303092784
 20
87.3640864307
 11
132.2846413509
 21
87.3619296702
  0
LINE
  5
22F
100
AcDbEntity
  8
RACCORDO
100
AcDbLine
 62
7
  6
CONTINUOUS
 10
168.7808344428
 20
86.0298213039
 11
147.7299312831
 21
86.0298213039
  0
LINE
  5
230
100
AcDbEntity
  8
RACCORDO
100
AcDbLine
 62
7
  6
CONTINUOUS
 10
146.3306872736
 20
86.0298213039
 11
125.2797841139
 21
86.0298213039
  0
LINE
  5
231
100
AcDbEntity
  8
0
100
AcDbLine
 62
7
  6
CONTINUOUS
 10
168.0384118038
 20
87.1988009005
 11
162.2355000994
 21
87.1988009005
  0
LINE
  5
232
100
AcDbEntity
  8
0
100
AcDbLine
 62
7
  6
CONTINUOUS
 10
162.1251184573
 20
87.1988009005
 11
158.3303092784
 21
87.1988009005
  0
LINE
  5
233
100
AcDbEntity
  8
0
100
AcDbLine
 62
7
  6
CONTINUOUS
 10
158.2303092784
 20
87.1988009005
 11
154.4355000994
 21
87.1988009005
  0
LINE
  5
234
100
AcDbEntity
  8
0
100
AcDbLine
 62
7
  6
CONTINUOUS
 10
154.3251184573
 20
87.1988009005
 11
148.5082373822
 21
87.1988009005
  0
LINE
  5
235
100
AcDbEntity
  8
0
100
AcDbLine
 62
7
  6
CONTINUOUS
 10
145.5523811745
 20
87.1988009005
 11
139.7355000994
 21
87.1988009005
  0
LINE
  5
236
100
AcDbEntity
  8
0
100
AcDbLine
 62
7
  6
CONTINUOUS
 10
139.6251184573
 20
87.1988009005
 11
135.8303092784
 21
87.1988009005
  0
LINE
  5
237
100
AcDbEntity
  8
0
100
AcDbLine
 62
7
  6
CONTINUOUS
 10
135.7303092784
 20
87.1988009005
 11
131.9355000994
 21
87.1988009005
  0
LINE
  5
238
100
AcDbEntity
  8
0
100
AcDbLine
 62
7
  6
CONTINUOUS
 10
131.8251184573
 20
87.1988009005
 11
126.0222067529
 21
87.1988009005
  0
LINE
  5
239
100
AcDbEntity
  8
0
100
AcDbLine
 62
7
  6
CONTINUOUS
 10
139.2759772058
 20
87.3619296702
 11
136.1303092784
 21
87.3640864307
  0
LINE
  5
23A
100
AcDbEntity
  8
0
100
AcDbLine
 62
7
  6
CONTINUOUS
 10
161.7759772058
 20
87.3619296702
 11
158.6303092784
 21
87.3640864307
  0
LINE
  5
23B
100
AcDbEntity
  8
0
100
AcDbLine
 62
7
  6
CONTINUOUS
 10
145.5029397224
 20
87.3472458772
 11
140.0842669768
 21
87.3608056344
  0
LINE
  5
23C
100
AcDbEntity
  8
0
100
AcDbLine
 62
7
  6
CONTINUOUS
 10
167.9641731075
 20
87.3473801743
 11
162.5842669768
 21
87.3608056344
  0
LINE
  5
23D
100
AcDbEntity
  8
0
100
AcDbLine
 62
7
  6
CONTINUOUS
 10
131.5251641487
 20
87.2142488417
 11
131.4763515799
 21
87.3608056344
  0
LINE
  5
23E
100
AcDbEntity
  8
0
100
AcDbLine
 62
7
  6
CONTINUOUS
 10
127.1303092784
 20
110.2235998221
 11
127.1303092784
 21
109.5649484536
  0
LINE
  5
23F
100
AcDbEntity
  8
0
100
AcDbLine
 62
7
  6
CONTINUOUS
 10
127.1303092784
 20
106.8649484536
 11
127.1303092784
 21
106.2062970852
  0
LINE
  5
240
100
AcDbEntity
  8
0
100
AcDbLine
 62
7
  6
CONTINUOUS
 10
127.3309262784
 20
102.0649484536
 11
127.3309262784
 21
103.7649484536
  0
LINE
  5
241
100
AcDbEntity
  8
0
100
AcDbLine
 62
7
  6
CONTINUOUS
 10
127.5534792784
 20
103.4903914536
 11
127.5534792784
 21
102.0649484536
  0
LINE
  5
242
100
AcDbEntity
  8
0
100
AcDbLine
 62
7
  6
CONTINUOUS
 10
127.8553092784
 20
107.1649484536
 11
127.8553092784
 21
109.2649484536
  0
LINE
  5
243
100
AcDbEntity
  8
0
100
AcDbLine
 62
7
  6
CONTINUOUS
 10
128.3303092784
 20
107.1649484536
 11
128.3303092784
 21
105.6547036292
  0
LINE
  5
244
100
AcDbEntity
  8
0
100
AcDbLine
 62
7
  6
CONTINUOUS
 10
128.3303092784
 20
109.2649484536
 11
128.3303092784
 21
110.775193278
  0
LINE
  5
245
100
AcDbEntity
  8
0
100
AcDbLine
 62
7
  6
CONTINUOUS
 10
128.7373232784
 20
102.0649484536
 11
128.7373232784
 21
103.4927284536
  0
LINE
  5
246
100
AcDbEntity
  8
0
100
AcDbLine
 62
7
  6
CONTINUOUS
 10
128.9599662784
 20
103.7649484536
 11
128.9599662784
 21
102.0649484536
  0
LINE
  5
247
100
AcDbEntity
  8
0
100
AcDbLine
 62
7
  6
CONTINUOUS
 10
127.0716030563
 20
110.7736546757
 11
127.0716030563
 21
105.6562422315
  0
LWPOLYLINE
  5
248
100
AcDbEntity
  8
0
100
AcDbPolyline
 62
253
  6
CONTINUOUS
 90
9
 70
0
 10
131.51689338
 20
125.4748053396
 10
131.5175240915
 20
125.4780318504
 10
131.518143625
 20
125.4837757148
 10
131.5187519805
 20
125.4920369329
 10
131.5193524815
 20
125.5028847168
 10
131.5199418045
 20
125.5162498543
 10
131.5205099794
 20
125.5319247094
 10
131.5210564154
 20
125.5499430981
 10
131.5220776451
 20
125.5925999442
  0
LINE
  5
249
100
AcDbEntity
  8
0
100
AcDbLine
 62
253
  6
CONTINUOUS
 10
131.4733516574
 20
125.3440739446
 11
131.51689338
 21
125.4748053396
  0
LINE
  5
24A
100
AcDbEntity
  8
0
100
AcDbLine
 62
253
  6
CONTINUOUS
 10
131.772744492
 20
125.0427992925
 11
131.8168476886
 21
125.1752164792
  0
LWPOLYLINE
  5
24B
100
AcDbEntity
  8
0
100
AcDbPolyline
 62
253
  6
CONTINUOUS
 90
13
 70
0
 10
162.1168476886
 20
91.254680428
 10
162.0777173505
 20
91.252084542
 10
162.0392559553
 20
91.2444126872
 10
162.0021208428
 20
91.2317960452
 10
161.9669466453
 20
91.2144502909
 10
161.9343345261
 20
91.1926719432
 10
161.904841884
 20
91.1668333282
 10
161.8789727215
 20
91.1373761422
 10
161.8571690529
 20
91.1048038638
 10
161.8398034231
 20
91.0696732073
 10
161.8271725233
 20
91.0325845941
 10
161.8194921221
 20
90.99417189
 10
161.81689338
 20
90.9550915676
  0
LINE
  5
24C
100
AcDbEntity
  8
0
100
AcDbLine
 62
253
  6
CONTINUOUS
 10
158.6303092784
 20
90.4149484536
 11
157.9303092784
 21
90.4149484536
  0
LINE
  5
24D
100
AcDbEntity
  8
0
100
AcDbLine
 62
253
  6
CONTINUOUS
 10
136.1303092784
 20
90.4149484536
 11
135.4303092784
 21
90.4149484536
  0
LINE
  5
24E
100
AcDbEntity
  8
0
100
AcDbLine
 62
253
  6
CONTINUOUS
 10
162.535454408
 20
90.4557768002
 11
161.8251641487
 21
90.4557768002
  0
LINE
  5
24F
100
AcDbEntity
  8
0
100
AcDbLine
 62
253
  6
CONTINUOUS
 10
154.735454408
 20
90.4557768002
 11
154.0251641487
 21
90.4557768002
  0
LINE
  5
250
100
AcDbEntity
  8
0
100
AcDbLine
 62
253
  6
CONTINUOUS
 10
140.035454408
 20
90.4557768002
 11
139.3251641487
 21
90.4557768002
  0
LINE
  5
251
100
AcDbEntity
  8
0
100
AcDbLine
 62
253
  6
CONTINUOUS
 10
132.235454408
 20
90.4557768002
 11
131.5251641487
 21
90.4557768002
  0
LINE
  5
252
100
AcDbEntity
  8
0
100
AcDbLine
 62
7
  6
CONTINUOUS
 10
133.2865587956
 20
94.2553739842
 11
133.0886422044
 21
94.3766505761
  0
LINE
  5
253
100
AcDbEntity
  8
0
100
AcDbLine
 62
7
  6
CONTINUOUS
 10
133.2469755
 20
94.9426080546
 11
133.0490587956
 21
95.0638846359
  0
LINE
  5
254
100
AcDbEntity
  8
0
100
AcDbLine
 62
7
  6
CONTINUOUS
 10
134.9886420911
 20
94.2553739842
 11
134.7907255
 21
94.3766505761
  0
LINE
  5
255
100
AcDbEntity
  8
0
100
AcDbLine
 62
7
  6
CONTINUOUS
 10
133.2073922044
 20
94.5383526987
 11
133.3261422044
 21
94.4575016445
  0
LINE
  5
256
100
AcDbEntity
  8
0
100
AcDbLine
 62
7
  6
CONTINUOUS
 10
133.1678087956
 20
95.2255867443
 11
133.2865587956
 21
95.1447356901
  0
LINE
  5
257
100
AcDbEntity
  8
0
100
AcDbLine
 62
7
  6
CONTINUOUS
 10
134.9094755
 20
94.5383526987
 11
135.0282255
 21
94.4575016445
  0
LINE
  5
258
100
AcDbEntity
  8
0
100
AcDbLine
 62
7
  6
CONTINUOUS
 10
133.9198922044
 20
95.7915442368
 11
133.8011422044
 21
95.872395291
  0
LINE
  5
259
100
AcDbEntity
  8
0
100
AcDbLine
 62
7
  6
CONTINUOUS
 10
133.0886422044
 20
94.3766505761
 11
132.9698921478
 21
94.5383526987
  0
LINE
  5
25A
100
AcDbEntity
  8
0
100
AcDbLine
 62
7
  6
CONTINUOUS
 10
133.0490587956
 20
95.0638846359
 11
132.9303088522
 21
95.2255867443
  0
LINE
  5
25B
100
AcDbEntity
  8
0
100
AcDbLine
 62
7
  6
CONTINUOUS
 10
134.7907255
 20
94.3766505761
 11
134.6719755
 21
94.5383526987
  0
LINE
  5
25C
100
AcDbEntity
  8
0
100
AcDbLine
 62
7
  6
CONTINUOUS
 10
134.0386420911
 20
95.9532463452
 11
134.1573920911
 21
95.7915442368
  0
LINE
  5
25D
100
AcDbEntity
  8
0
100
AcDbLine
 62
7
  6
CONTINUOUS
 10
133.1282255
 20
94.6596293083
 11
133.2073922044
 21
94.5383526987
  0
LINE
  5
25E
100
AcDbEntity
  8
0
100
AcDbLine
 62
7
  6
CONTINUOUS
 10
133.0886422044
 20
95.3468633255
 11
133.1678087956
 21
95.2255867443
  0
LINE
  5
25F
100
AcDbEntity
  8
0
100
AcDbLine
 62
7
  6
CONTINUOUS
 10
133.9990589088
 20
95.6702676556
 11
133.9198922044
 21
95.7915442368
  0
LINE
  5
260
100
AcDbEntity
  8
0
100
AcDbLine
 62
7
  6
CONTINUOUS
 10
132.9303088522
 20
95.2255867443
 11
132.8511421478
 21
95.4277143797
  0
LINE
  5
261
100
AcDbEntity
  8
0
100
AcDbLine
 62
7
  6
CONTINUOUS
 10
130.4279052784
 20
102.0649484536
 11
130.2598162784
 21
102.5597564536
  0
LINE
  5
262
100
AcDbEntity
  8
0
100
AcDbLine
 62
7
  6
CONTINUOUS
 10
127.6600492784
 20
103.7649484536
 11
128.1477832784
 21
102.3207674536
  0
LINE
  5
263
100
AcDbEntity
  8
0
100
AcDbLine
 62
7
  6
CONTINUOUS
 10
128.0317932784
 20
102.0649484536
 11
127.5534792784
 21
103.4903914536
  0
LINE
  5
264
100
AcDbEntity
  8
0
100
AcDbLine
 62
7
  6
CONTINUOUS
 10
130.1770092784
 20
102.7633714536
 11
129.9237352784
 21
103.5183654536
  0
LINE
  5
265
100
AcDbEntity
  8
0
100
AcDbLine
 62
253
  6
CONTINUOUS
 10
131.4733516574
 20
91.0858229626
 11
131.51689338
 21
90.9550915676
  0
LINE
  5
266
100
AcDbEntity
  8
0
100
AcDbLine
 62
253
  6
CONTINUOUS
 10
131.772744492
 20
91.3870976147
 11
131.8168476886
 21
91.254680428
  0
LWPOLYLINE
  5
267
100
AcDbEntity
  8
0
100
AcDbPolyline
 62
253
  6
CONTINUOUS
 90
8
 70
0
 10
131.51689338
 20
90.9550915676
 10
131.5175236019
 20
90.9518732105
 10
131.5181428495
 20
90.9461342081
 10
131.5187511229
 20
90.9378745603
 10
131.5193518207
 20
90.927024964
 10
131.5199415441
 20
90.9136547223
 10
131.5205100978
 20
90.8979717447
 10
131.5210568409
 20
90.8799404166
  0
LWPOLYLINE
  5
268
100
AcDbEntity
  8
0
100
AcDbPolyline
 62
253
  6
CONTINUOUS
 90
13
 70
0
 10
132.2437251767
 20
90.9550915676
 10
132.2411264806
 20
90.9941715441
 10
132.2334461982
 20
91.0325839827
 10
132.2208154611
 20
91.0696724199
 10
132.2034500098
 20
91.1048029902
 10
132.181646507
 20
91.1373752692
 10
132.1557774683
 20
91.1668325346
 10
132.1262848771
 20
91.1926712951
 10
132.0936727246
 20
91.2144498223
 10
132.0584984215
 20
91.2317957525
 10
132.0213631382
 20
91.2444125434
 10
131.9829015041
 20
91.2520845027
 10
131.9437708681
 20
91.254680428
  0
LINE
  5
269
100
AcDbEntity
  8
0
100
AcDbLine
 62
253
  6
CONTINUOUS
 10
131.5210568409
 20
90.8799404166
 11
131.5220785447
 21
90.8372543053
  0
LINE
  5
26A
100
AcDbEntity
  8
0
100
AcDbLine
 62
253
  6
CONTINUOUS
 10
131.819901612
 20
91.188223183
 11
131.8210145545
 21
91.1342092411
  0
LINE
  5
26B
100
AcDbEntity
  8
0
100
AcDbLine
 62
253
  6
CONTINUOUS
 10
131.5220785447
 20
90.8372543053
 11
131.5229815942
 21
90.7865055696
  0
LINE
  5
26C
100
AcDbEntity
  8
0
100
AcDbLine
 62
253
  6
CONTINUOUS
 10
131.8210145545
 20
91.1342092411
 11
131.8224994599
 21
91.027066247
  0
LINE
  5
26D
100
AcDbEntity
  8
0
100
AcDbLine
 62
253
  6
CONTINUOUS
 10
131.5229815942
 20
90.7865055696
 11
131.5240723607
 21
90.6978779469
  0
LINE
  5
26E
100
AcDbEntity
  8
0
100
AcDbLine
 62
253
  6
CONTINUOUS
 10
131.8224994599
 20
91.027066247
 11
131.8240245188
 21
90.8436141193
  0
LINE
  5
26F
100
AcDbEntity
  8
0
100
AcDbLine
 62
253
  6
CONTINUOUS
 10
131.5240723607
 20
90.6978779469
 11
131.5249612728
 21
90.5629584575
  0
LINE
  5
270
100
AcDbEntity
  8
0
100
AcDbLine
 62
253
  6
CONTINUOUS
 10
131.8240245188
 20
90.8436141193
 11
131.8250946769
 21
90.5135694854
  0
LINE
  5
271
100
AcDbEntity
  8
0
100
AcDbLine
 62
7
  6
CONTINUOUS
 10
131.4763515799
 20
87.3608056344
 11
131.4733516574
 21
91.0858229626
  0
LINE
  5
272
100
AcDbEntity
  8
0
100
AcDbLine
 62
7
  6
CONTINUOUS
 10
130.9014582784
 20
102.0649484536
 11
130.9014582784
 21
103.7649484536
  0
LINE
  5
273
100
AcDbEntity
  8
0
100
AcDbLine
 62
7
  6
CONTINUOUS
 10
131.1311952784
 20
103.5684824536
 11
131.1311952784
 21
102.2614144536
  0
LINE
  5
274
100
AcDbEntity
  8
0
100
AcDbLine
 62
253
  6
CONTINUOUS
 10
131.5249612728
 20
90.5629584575
 11
131.5251641487
 21
87.2142488417
  0
LINE
  5
275
100
AcDbEntity
  8
0
100
AcDbLine
 62
253
  6
CONTINUOUS
 10
131.8250946769
 20
90.5135694854
 11
131.8251184573
 21
87.1988009005
  0
LINE
  5
276
100
AcDbEntity
  8
0
100
AcDbLine
 62
253
  6
CONTINUOUS
 10
131.9355920449
 20
125.8588366177
 11
131.9355000994
 21
129.2310960068
  0
LINE
  5
277
100
AcDbEntity
  8
0
100
AcDbLine
 62
7
  6
CONTINUOUS
 10
131.4733516574
 20
125.3440739446
 11
131.4763515799
 21
129.0690912729
  0
LINE
  5
278
100
AcDbEntity
  8
0
100
AcDbLine
 62
253
  6
CONTINUOUS
 10
131.9355920372
 20
90.5710603123
 11
131.9355000994
 21
87.1988009005
  0
LINE
  5
279
100
AcDbEntity
  8
0
100
AcDbLine
 62
253
  6
CONTINUOUS
 10
131.5249614375
 20
125.8669797041
 11
131.5251641487
 21
129.2156480655
  0
LINE
  5
27A
100
AcDbEntity
  8
0
100
AcDbLine
 62
253
  6
CONTINUOUS
 10
131.8245536554
 20
125.6911626975
 11
131.8251184573
 21
129.2310960068
  0
LINE
  5
27B
100
AcDbEntity
  8
0
100
AcDbLine
 62
253
  6
CONTINUOUS
 10
131.8233347831
 20
125.4894982541
 11
131.8245536554
 21
125.6911626975
  0
LINE
  5
27C
100
AcDbEntity
  8
0
100
AcDbLine
 62
253
  6
CONTINUOUS
 10
131.5240721541
 20
125.7320003517
 11
131.5249614375
 21
125.8669797041
  0
LINE
  5
27D
100
AcDbEntity
  8
0
100
AcDbLine
 62
253
  6
CONTINUOUS
 10
131.8220340991
 20
125.3638651221
 11
131.8233347831
 21
125.4894982541
  0
LINE
  5
27E
100
AcDbEntity
  8
0
100
AcDbLine
 62
253
  6
CONTINUOUS
 10
131.522980664
 20
125.6433293781
 11
131.5240721541
 21
125.7320003517
  0
LINE
  5
27F
100
AcDbEntity
  8
0
100
AcDbLine
 62
253
  6
CONTINUOUS
 10
131.8210144908
 20
125.2956876803
 11
131.8220340991
 21
125.3638651221
  0
LINE
  5
280
100
AcDbEntity
  8
0
100
AcDbLine
 62
253
  6
CONTINUOUS
 10
131.5220776451
 20
125.5925999442
 11
131.522980664
 21
125.6433293781
  0
LWPOLYLINE
  5
281
100
AcDbEntity
  8
0
100
AcDbPolyline
 62
7
  6
CONTINUOUS
 90
16
 70
0
 10
132.2876782354
 20
125.3428389327
 10
132.2860544166
 20
125.311337259
 10
132.2811488378
 20
125.2801779316
 10
132.2730114735
 20
125.249702492
 10
132.2617161506
 20
125.220217362
 10
132.2473895124
 20
125.1920785028
 10
132.2302377511
 20
125.1656735379
 10
132.2105139312
 20
125.1413288714
 10
132.1884180335
 20
125.1192356412
 10
132.1641162496
 20
125.0995528795
 10
132.137820727
 20
125.0824769981
 10
132.1098514353
 20
125.068237577
 10
132.0805521848
 20
125.057014378
 10
132.0502591261
 20
125.0489306782
 10
132.019290111
 20
125.0440659748
 10
131.9879834424
 20
125.0424708925
  0
LWPOLYLINE
  5
282
100
AcDbEntity
  8
0
100
AcDbPolyline
 62
253
  6
CONTINUOUS
 90
7
 70
0
 10
131.8168476886
 20
125.1752164792
 10
131.8174814786
 20
125.1803289807
 10
131.8181031595
 20
125.189590053
 10
131.8187127311
 20
125.2029512742
 10
131.819313222
 20
125.2203427987
 10
131.8199016037
 20
125.2416737114
 10
131.8210144908
 20
125.2956876803
  0
LINE
  5
283
100
AcDbEntity
  8
0
100
AcDbLine
 62
7
  6
CONTINUOUS
 10
132.8524902784
 20
121.8885774536
 11
133.2256982784
 21
123.1963004536
  0
LINE
  5
284
100
AcDbEntity
  8
0
100
AcDbLine
 62
7
  6
CONTINUOUS
 10
133.6219992784
 20
123.1963004536
 11
133.0113132784
 21
121.2964544536
  0
LINE
  5
285
100
AcDbEntity
  8
0
100
AcDbLine
 62
7
  6
CONTINUOUS
 10
128.7373232784
 20
103.4927284536
 11
128.2591012784
 21
102.0649484536
  0
LINE
  5
286
100
AcDbEntity
  8
0
100
AcDbLine
 62
7
  6
CONTINUOUS
 10
128.1477832784
 20
102.3207674536
 11
128.6331782784
 21
103.7649484536
  0
LINE
  5
287
100
AcDbEntity
  8
0
100
AcDbLine
 62
7
  6
CONTINUOUS
 10
135.3394012784
 20
122.1415004536
 11
135.7359732784
 21
123.1963004536
  0
LINE
  5
288
100
AcDbEntity
  8
0
100
AcDbLine
 62
7
  6
CONTINUOUS
 10
135.8365702784
 20
122.5318464536
 11
135.3650452784
 21
121.2964544536
  0
LWPOLYLINE
  5
289
100
AcDbEntity
  8
0
100
AcDbPolyline
 62
7
  6
CONTINUOUS
 90
22
 70
0
 10
156.0134246756
 20
93.2557929949
 10
155.9666990811
 20
93.2490131066
 10
155.91997444
 20
93.2424762034
 10
155.8732839565
 20
93.2362669849
 10
155.8267248459
 20
93.230475499
 10
155.7802640528
 20
93.2251725051
 10
155.7337368171
 20
93.2204165343
 10
155.6871570279
 20
93.2162896537
 10
155.6405690627
 20
93.2128766685
 10
155.5938523161
 20
93.210253452
 10
155.5470009833
 20
93.2085106272
 10
155.5000801925
 20
93.2077436675
 10
155.4530765115
 20
93.208047991
 10
155.4059847768
 20
93.2095246429
 10
155.358873598
 20
93.2122754121
 10
155.311840711
 20
93.2163971644
 10
155.264907021
 20
93.2219907545
 10
155.218116946
 20
93.2291559226
 10
155.1716017517
 20
93.237974018
 10
155.1254261665
 20
93.2485294247
 10
155.0796759182
 20
93.2610199581
 10
155.0346389655
 20
93.275833669
  0
LWPOLYLINE
  5
28A
100
AcDbEntity
  8
0
100
AcDbPolyline
 62
253
  6
CONTINUOUS
 90
13
 70
0
 10
154.3168476886
 20
91.254680428
 10
154.2777173505
 20
91.252084542
 10
154.2392559553
 20
91.2444126872
 10
154.2021208428
 20
91.2317960452
 10
154.1669466453
 20
91.2144502909
 10
154.1343345261
 20
91.1926719432
 10
154.104841884
 20
91.1668333282
 10
154.0789727215
 20
91.1373761422
 10
154.0571690529
 20
91.1048038638
 10
154.0398034231
 20
91.0696732073
 10
154.0271725233
 20
91.0325845941
 10
154.0194921221
 20
90.99417189
 10
154.01689338
 20
90.9550915676
  0
LWPOLYLINE
  5
28B
100
AcDbEntity
  8
0
100
AcDbPolyline
 62
253
  6
CONTINUOUS
 90
13
 70
0
 10
139.6168476886
 20
91.254680428
 10
139.5777173505
 20
91.252084542
 10
139.5392559553
 20
91.2444126872
 10
139.5021208428
 20
91.2317960452
 10
139.4669466453
 20
91.2144502909
 10
139.4343345261
 20
91.1926719432
 10
139.404841884
 20
91.1668333282
 10
139.3789727215
 20
91.1373761422
 10
139.3571690529
 20
91.1048038638
 10
139.3398034231
 20
91.0696732073
 10
139.3271725233
 20
91.0325845941
 10
139.3194921221
 20
90.99417189
 10
139.31689338
 20
90.9550915676
  0
LWPOLYLINE
  5
28C
100
AcDbEntity
  8
0
100
AcDbPolyline
 62
253
  6
CONTINUOUS
 90
13
 70
0
 10
131.8168476886
 20
91.254680428
 10
131.7777173505
 20
91.252084542
 10
131.7392559553
 20
91.2444126872
 10
131.7021208428
 20
91.2317960452
 10
131.6669466453
 20
91.2144502909
 10
131.6343345261
 20
91.1926719432
 10
131.604841884
 20
91.1668333282
 10
131.5789727215
 20
91.1373761422
 10
131.5571690529
 20
91.1048038638
 10
131.5398034231
 20
91.0696732073
 10
131.5271725233
 20
91.0325845941
 10
131.5194921221
 20
90.99417189
 10
131.51689338
 20
90.9550915676
  0
LINE
  5
28D
100
AcDbEntity
  8
0
100
AcDbLine
 62
7
  6
CONTINUOUS
 10
154.4879834424
 20
91.3874260147
 11
154.272744492
 21
91.3870976147
  0
LINE
  5
28E
100
AcDbEntity
  8
0
100
AcDbLine
 62
7
  6
CONTINUOUS
 10
131.9879834424
 20
91.3874260147
 11
131.772744492
 21
91.3870976147
  0
LINE
  5
28F
100
AcDbEntity
  8
0
100
AcDbLine
 62
7
  6
CONTINUOUS
 10
145.5172114897
 20
90.7149484536
 11
146.8303066738
 21
90.7149484536
  0
LINE
  5
290
100
AcDbEntity
  8
0
100
AcDbLine
 62
7
  6
CONTINUOUS
 10
147.2303118829
 20
90.7149484536
 11
148.543407067
 21
90.7149484536
  0
LINE
  5
291
100
AcDbEntity
  8
0
100
AcDbLine
 62
7
  6
CONTINUOUS
 10
158.3303092784
 20
91.2149484536
 11
158.2303092784
 21
91.2149484536
  0
LINE
  5
292
100
AcDbEntity
  8
0
100
AcDbLine
 62
7
  6
CONTINUOUS
 10
135.8303092784
 20
91.2149484536
 11
135.7303092784
 21
91.2149484536
  0
LINE
  5
293
100
AcDbEntity
  8
DRAFT
100
AcDbLine
 62
7
  6
CONTINUOUS
 10
124.7802979503
 20
91.2149484536
 11
126.0222067529
 21
91.2149484536
  0
LINE
  5
294
100
AcDbEntity
  8
DRAFT
100
AcDbLine
 62
7
  6
CONTINUOUS
 10
168.0384118038
 20
91.2149484536
 11
169.2803206064
 21
91.2149484536
  0
LINE
  5
295
100
AcDbEntity
  8
0
100
AcDbLine
 62
253
  6
CONTINUOUS
 10
162.2437708681
 20
91.254680428
 11
162.1168476886
 21
91.254680428
  0
LINE
  5
296
100
AcDbEntity
  8
0
100
AcDbLine
 62
253
  6
CONTINUOUS
 10
154.4437708681
 20
91.254680428
 11
154.3168476886
 21
91.254680428
  0
LINE
  5
297
100
AcDbEntity
  8
0
100
AcDbLine
 62
253
  6
CONTINUOUS
 10
139.7437708681
 20
91.254680428
 11
139.6168476886
 21
91.254680428
  0
LINE
  5
298
100
AcDbEntity
  8
0
100
AcDbLine
 62
253
  6
CONTINUOUS
 10
131.9437708681
 20
91.254680428
 11
131.8168476886
 21
91.254680428
  0
LINE
  5
299
100
AcDbEntity
  8
0
100
AcDbLine
 62
253
  6
CONTINUOUS
 10
146.7811810761
 20
91.4876385599
 11
145.5032555767
 21
91.4876385599
  0
LINE
  5
29A
100
AcDbEntity
  8
0
100
AcDbLine
 62
253
  6
CONTINUOUS
 10
147.2794374806
 20
91.4876385599
 11
148.55736298
 21
91.4876385599
  0
LINE
  5
29B
100
AcDbEntity
  8
0
100
AcDbLine
 62
7
  6
CONTINUOUS
 10
139.7878740647
 20
91.3870976147
 11
139.5726351143
 21
91.3874260147
  0
LINE
  5
29C
100
AcDbEntity
  8
0
100
AcDbLine
 62
7
  6
CONTINUOUS
 10
162.2878740647
 20
91.3870976147
 11
162.0726351143
 21
91.3874260147
  0
LWPOLYLINE
  5
29D
100
AcDbEntity
  8
0
100
AcDbPolyline
 62
7
  6
CONTINUOUS
 90
16
 70
0
 10
131.9879834424
 20
91.3874260147
 10
132.0192972068
 20
91.3858302591
 10
132.0502934543
 20
91.3809590242
 10
132.0806319641
 20
91.3728566745
 10
132.1100069993
 20
91.3615900436
 10
132.1380610483
 20
91.3472809732
 10
132.1644036111
 20
91.3301349329
 10
132.1887057642
 20
91.3104018584
 10
132.2107747191
 20
91.288278127
 10
132.2304501044
 20
91.2639308917
 10
132.247531462
 20
91.23757234
 10
132.2617874808
 20
91.2095190771
 10
132.2730385192
 20
91.1801108941
 10
132.2811566544
 20
91.1496819133
 10
132.2860552881
 20
91.1185510778
 10
132.2876782354
 20
91.0870579745
  0
LWPOLYLINE
  5
29E
100
AcDbEntity
  8
0
100
AcDbPolyline
 62
7
  6
CONTINUOUS
 90
16
 70
0
 10
154.4879834424
 20
91.3874260147
 10
154.5192972068
 20
91.3858302591
 10
154.5502934543
 20
91.3809590242
 10
154.5806319641
 20
91.3728566745
 10
154.6100069993
 20
91.3615900436
 10
154.6380610483
 20
91.3472809732
 10
154.6644036111
 20
91.3301349329
 10
154.6887057642
 20
91.3104018584
 10
154.7107747191
 20
91.288278127
 10
154.7304501044
 20
91.2639308917
 10
154.747531462
 20
91.23757234
 10
154.7617874808
 20
91.2095190771
 10
154.7730385192
 20
91.1801108941
 10
154.7811566544
 20
91.1496819133
 10
154.7860552881
 20
91.1185510778
 10
154.7876782354
 20
91.0870579745
  0
LWPOLYLINE
  5
29F
100
AcDbEntity
  8
0
100
AcDbPolyline
 62
7
  6
CONTINUOUS
 90
16
 70
0
 10
139.7878740647
 20
91.3870976147
 10
139.8191329901
 20
91.3854070656
 10
139.8500810535
 20
91.3804477328
 10
139.8803783555
 20
91.3722623191
 10
139.9097193629
 20
91.360914752
 10
139.9377459396
 20
91.346526394
 10
139.9640664281
 20
91.3293052822
 10
139.9883516459
 20
91.3095006053
 10
140.0104076136
 20
91.2873078409
 10
140.0300720336
 20
91.2628978031
 10
140.0471439625
 20
91.2364833482
 10
140.0613920704
 20
91.2083807046
 10
140.0726365123
 20
91.1789326329
 10
140.0807496165
 20
91.1484745343
 10
140.085645048
 20
91.1173247108
 10
140.0872668993
 20
91.0858229626
  0
LWPOLYLINE
  5
2A0
100
AcDbEntity
  8
0
100
AcDbPolyline
 62
7
  6
CONTINUOUS
 90
16
 70
0
 10
162.2878740647
 20
91.3870976147
 10
162.3191329901
 20
91.3854070656
 10
162.3500810535
 20
91.3804477328
 10
162.3803783555
 20
91.3722623191
 10
162.4097193629
 20
91.360914752
 10
162.4377459396
 20
91.346526394
 10
162.4640664281
 20
91.3293052822
 10
162.4883516459
 20
91.3095006053
 10
162.5104076136
 20
91.2873078409
 10
162.5300720336
 20
91.2628978031
 10
162.5471439625
 20
91.2364833482
 10
162.5613920704
 20
91.2083807046
 10
162.5726365123
 20
91.1789326329
 10
162.5807496165
 20
91.1484745343
 10
162.585645048
 20
91.1173247108
 10
162.5872668993
 20
91.0858229626
  0
LINE
  5
2A1
100
AcDbEntity
  8
0
100
AcDbLine
 62
7
  6
CONTINUOUS
 10
137.0469755
 20
94.2149484536
 11
136.8094755
 21
94.2553739842
  0
LINE
  5
2A2
100
AcDbEntity
  8
0
100
AcDbLine
 62
7
  6
CONTINUOUS
 10
133.4844755
 20
94.2149484536
 11
133.2865587956
 21
94.2553739842
  0
LINE
  5
2A3
100
AcDbEntity
  8
0
100
AcDbLine
 62
7
  6
CONTINUOUS
 10
135.1865589088
 20
94.2149484536
 11
134.9886420911
 21
94.2553739842
  0
LINE
  5
2A4
100
AcDbEntity
  8
0
100
AcDbLine
 62
7
  6
CONTINUOUS
 10
133.4448922044
 20
94.9021824709
 11
133.2469755
 21
94.9426080546
  0
LINE
  5
2A5
100
AcDbEntity
  8
0
100
AcDbLine
 62
7
  6
CONTINUOUS
 10
136.8490586823
 20
94.4575016445
 11
137.0469755
 21
94.4170761174
  0
LINE
  5
2A6
100
AcDbEntity
  8
0
100
AcDbLine
 62
7
  6
CONTINUOUS
 10
138.7094755
 20
94.2149484536
 11
138.5115586823
 21
94.2553739842
  0
LINE
  5
2A7
100
AcDbEntity
  8
0
100
AcDbLine
 62
7
  6
CONTINUOUS
 10
135.0282255
 20
94.4575016445
 11
135.1865589088
 21
94.4170761174
  0
LINE
  5
2A8
100
AcDbEntity
  8
0
100
AcDbLine
 62
7
  6
CONTINUOUS
 10
135.5823920911
 20
95.1851612172
 11
135.4240589088
 21
95.2255867443
  0
LINE
  5
2A9
100
AcDbEntity
  8
0
100
AcDbLine
 62
7
  6
CONTINUOUS
 10
133.3261422044
 20
94.4575016445
 11
133.4448922044
 21
94.4170761174
  0
LINE
  5
2AA
100
AcDbEntity
  8
0
100
AcDbLine
 62
7
  6
CONTINUOUS
 10
133.2865587956
 20
95.1447356901
 11
133.4053087956
 21
95.104310163
  0
LINE
  5
2AB
100
AcDbEntity
  8
0
100
AcDbLine
 62
7
  6
CONTINUOUS
 10
133.8011422044
 20
95.872395291
 11
133.6823922044
 21
95.9128208181
  0
LINE
  5
2AC
100
AcDbEntity
  8
0
100
AcDbLine
 62
7
  6
CONTINUOUS
 10
138.5511423176
 20
94.4575016445
 11
138.6698923176
 21
94.4170761174
  0
LINE
  5
2AD
100
AcDbEntity
  8
0
100
AcDbLine
 62
7
  6
CONTINUOUS
 10
133.8407255
 20
96.0745229265
 11
134.0386420911
 21
95.9532463452
  0
LINE
  5
2AE
100
AcDbEntity
  8
0
100
AcDbLine
 62
7
  6
CONTINUOUS
 10
136.8094755
 20
94.2553739842
 11
136.6115586823
 21
94.3766505761
  0
LINE
  5
2AF
100
AcDbEntity
  8
0
100
AcDbLine
 62
7
  6
CONTINUOUS
 10
135.6219755
 20
95.3872888526
 11
135.8198920911
 21
95.2660122713
  0
LINE
  5
2B0
100
AcDbEntity
  8
0
100
AcDbLine
 62
7
  6
CONTINUOUS
 10
138.5115586823
 20
94.2553739842
 11
138.3136423176
 21
94.3766505761
  0
LINE
  5
2B1
100
AcDbEntity
  8
0
100
AcDbLine
 62
7
  6
CONTINUOUS
 10
137.2844755
 20
96.0745229265
 11
137.4823923176
 21
95.9532463452
  0
LINE
  5
2B2
100
AcDbEntity
  8
0
100
AcDbLine
 62
7
  6
CONTINUOUS
 10
139.1053086823
 20
95.3872888526
 11
139.3032255
 21
95.2660122713
  0
LINE
  5
2B3
100
AcDbEntity
  8
0
100
AcDbLine
 62
7
  6
CONTINUOUS
 10
135.7011420911
 20
95.104310163
 11
135.5823920911
 21
95.1851612172
  0
LINE
  5
2B4
100
AcDbEntity
  8
0
100
AcDbLine
 62
7
  6
CONTINUOUS
 10
136.7303086823
 20
94.5383526987
 11
136.8490586823
 21
94.4575016445
  0
LINE
  5
2B5
100
AcDbEntity
  8
0
100
AcDbLine
 62
7
  6
CONTINUOUS
 10
138.4323923176
 20
94.5383526987
 11
138.5511423176
 21
94.4575016445
  0
LINE
  5
2B6
100
AcDbEntity
  8
0
100
AcDbLine
 62
7
  6
CONTINUOUS
 10
137.3636423176
 20
95.7915442368
 11
137.2448923176
 21
95.872395291
  0
LINE
  5
2B7
100
AcDbEntity
  8
0
100
AcDbLine
 62
7
  6
CONTINUOUS
 10
139.1844755
 20
95.104310163
 11
139.0657255
 21
95.1851612172
  0
LINE
  5
2B8
100
AcDbEntity
  8
0
100
AcDbLine
 62
7
  6
CONTINUOUS
 10
136.6115586823
 20
94.3766505761
 11
136.4928086823
 21
94.4979271716
  0
LINE
  5
2B9
100
AcDbEntity
  8
0
100
AcDbLine
 62
7
  6
CONTINUOUS
 10
137.4823923176
 20
95.9532463452
 11
137.6011423176
 21
95.8319697639
  0
LINE
  5
2BA
100
AcDbEntity
  8
0
100
AcDbLine
 62
7
  6
CONTINUOUS
 10
135.8198920911
 20
95.2660122713
 11
135.9386423176
 21
95.104310163
  0
LINE
  5
2BB
100
AcDbEntity
  8
0
100
AcDbLine
 62
7
  6
CONTINUOUS
 10
138.3136423176
 20
94.3766505761
 11
138.1948923176
 21
94.5383526987
  0
LINE
  5
2BC
100
AcDbEntity
  8
0
100
AcDbLine
 62
7
  6
CONTINUOUS
 10
135.7803089088
 20
94.9830335817
 11
135.7011420911
 21
95.104310163
  0
LINE
  5
2BD
100
AcDbEntity
  8
0
100
AcDbLine
 62
7
  6
CONTINUOUS
 10
136.5719755
 20
94.7809058896
 11
136.7303086823
 21
94.5383526987
  0
LINE
  5
2BE
100
AcDbEntity
  8
0
100
AcDbLine
 62
7
  6
CONTINUOUS
 10
134.6719755
 20
94.5383526987
 11
134.5928089088
 21
94.7000548354
  0
LINE
  5
2BF
100
AcDbEntity
  8
0
100
AcDbLine
 62
7
  6
CONTINUOUS
 10
134.8303089088
 20
94.7000548354
 11
134.9094755
 21
94.5383526987
  0
LINE
  5
2C0
100
AcDbEntity
  8
0
100
AcDbLine
 62
7
  6
CONTINUOUS
 10
136.4928086823
 20
94.4979271716
 11
136.4136423176
 21
94.6596293083
  0
LINE
  5
2C1
100
AcDbEntity
  8
0
100
AcDbLine
 62
7
  6
CONTINUOUS
 10
134.1573920911
 20
95.7915442368
 11
134.2365589088
 21
95.5894164881
  0
LINE
  5
2C2
100
AcDbEntity
  8
0
100
AcDbLine
 62
7
  6
CONTINUOUS
 10
135.9386423176
 20
95.104310163
 11
136.0178086823
 21
94.9021824709
  0
LINE
  5
2C3
100
AcDbEntity
  8
0
100
AcDbLine
 62
7
  6
CONTINUOUS
 10
130.0633372784
 20
103.7649484536
 11
130.6789112784
 21
102.0649484536
  0
LINE
  5
2C4
100
AcDbEntity
  8
0
100
AcDbLine
 62
7
  6
CONTINUOUS
 10
132.9698921478
 20
94.5383526987
 11
132.9303088522
 21
94.6596293083
  0
LINE
  5
2C5
100
AcDbEntity
  8
0
100
AcDbLine
 62
7
  6
CONTINUOUS
 10
133.0490587956
 20
95.4681399068
 11
133.0886422044
 21
95.3468633255
  0
LINE
  5
2C6
100
AcDbEntity
  8
0
100
AcDbLine
 62
7
  6
CONTINUOUS
 10
134.0386420911
 20
95.548990961
 11
133.9990589088
 21
95.6702676556
  0
LWPOLYLINE
  5
2C7
100
AcDbEntity
  8
0
100
AcDbPolyline
 62
253
  6
CONTINUOUS
 90
6
 70
0
 10
131.8168476886
 20
91.254680428
 10
131.8174814709
 20
91.2495679148
 10
131.8181031489
 20
91.2403068251
 10
131.8187127226
 20
91.2269455894
 10
131.8193132194
 20
91.2095540691
 10
131.819901612
 20
91.188223183
  0
LWPOLYLINE
  5
2C8
100
AcDbEntity
  8
0
100
AcDbPolyline
 62
253
  6
CONTINUOUS
 90
13
 70
0
 10
131.51689338
 20
125.4748053396
 10
131.5194920761
 20
125.4357253631
 10
131.5271723585
 20
125.3973129245
 10
131.5398030956
 20
125.3602244873
 10
131.5571685469
 20
125.325093917
 10
131.5789720497
 20
125.292521638
 10
131.6048410884
 20
125.2630643727
 10
131.6343336796
 20
125.2372256121
 10
131.6669458321
 20
125.2154470849
 10
131.7021201352
 20
125.1981011547
 10
131.7392554185
 20
125.1854843638
 10
131.7777170526
 20
125.1778124045
 10
131.8168476886
 20
125.1752164792
  0
LINE
  5
2C9
100
AcDbEntity
  8
0
100
AcDbLine
 62
253
  6
CONTINUOUS
 10
132.2395617158
 20
125.5499564906
 11
132.238540012
 21
125.5926426019
  0
LINE
  5
2CA
100
AcDbEntity
  8
0
100
AcDbLine
 62
253
  6
CONTINUOUS
 10
131.9407169447
 20
125.2416737242
 11
131.9396040022
 21
125.2956876661
  0
LINE
  5
2CB
100
AcDbEntity
  8
0
100
AcDbLine
 62
253
  6
CONTINUOUS
 10
132.238540012
 20
125.5926426019
 11
132.2376369625
 21
125.6433913377
  0
LINE
  5
2CC
100
AcDbEntity
  8
0
100
AcDbLine
 62
253
  6
CONTINUOUS
 10
131.9396040022
 20
125.2956876661
 11
131.9381190968
 21
125.4028306603
  0
LINE
  5
2CD
100
AcDbEntity
  8
0
100
AcDbLine
 62
253
  6
CONTINUOUS
 10
132.2376369625
 20
125.6433913377
 11
132.236546196
 21
125.7320189603
  0
LINE
  5
2CE
100
AcDbEntity
  8
0
100
AcDbLine
 62
253
  6
CONTINUOUS
 10
131.9381190968
 20
125.4028306603
 11
131.9365940379
 21
125.5862827879
  0
LWPOLYLINE
  5
2CF
100
AcDbEntity
  8
0
100
AcDbPolyline
 62
7
  6
CONTINUOUS
 90
34
 70
0
 10
132.3047474411
 20
102.9149484536
 10
132.3049470274
 20
102.8769816638
 10
132.3041621736
 20
102.8390583276
 10
132.3022824998
 20
102.8012157532
 10
132.2992000251
 20
102.7635072112
 10
132.294805279
 20
102.7259684048
 10
132.2889811152
 20
102.6886341805
 10
132.2816130237
 20
102.6515879666
 10
132.2726565487
 20
102.6148967878
 10
132.2621994656
 20
102.5785383549
 10
132.2503523294
 20
102.5425139746
 10
132.237230779
 20
102.5068388736
 10
132.2228771726
 20
102.4715487164
 10
132.2070723777
 20
102.4368350855
 10
132.1895513685
 20
102.4029737159
 10
132.1700675882
 20
102.3702664138
 10
132.1484633057
 20
102.3389141654
 10
132.1249268093
 20
102.3088996744
 10
132.0997439529
 20
102.2801892546
 10
132.0731921419
 20
102.2527371809
 10
132.0454161158
 20
102.2265936802
 10
132.0163555192
 20
102.2020057848
 10
131.9859272239
 20
102.1792391531
 10
131.9540675507
 20
102.1585571218
 10
131.9208649204
 20
102.1400616278
 10
131.8865187656
 20
102.1237151693
 10
131.8512180888
 20
102.1094700211
 10
131.8151508259
 20
102.0972804407
 10
131.7785248198
 20
102.0871080115
 10
131.7414725023
 20
102.0789045357
 10
131.7040438023
 20
102.0726199698
 10
131.6663240735
 20
102.0682194811
 10
131.6284378219
 20
102.065673475
 10
131.5904909969
 20
102.0649484536
  0
LINE
  5
2D0
100
AcDbEntity
  8
0
100
AcDbLine
 62
253
  6
CONTINUOUS
 10
132.236546196
 20
125.7320189603
 11
132.2356572839
 21
125.8669384498
  0
LINE
  5
2D1
100
AcDbEntity
  8
0
100
AcDbLine
 62
253
  6
CONTINUOUS
 10
131.9365940379
 20
125.5862827879
 11
131.9355920449
 21
125.8588366177
  0
LINE
  5
2D2
100
AcDbEntity
  8
0
100
AcDbLine
 62
7
  6
CONTINUOUS
 10
132.2846413509
 20
129.067967237
 11
132.2876782354
 21
125.3428389327
  0
LINE
  5
2D3
100
AcDbEntity
  8
0
100
AcDbLine
 62
7
  6
CONTINUOUS
 10
132.0594755
 20
95.5085654339
 11
132.0594755
 21
95.8319697639
  0
LINE
  5
2D4
100
AcDbEntity
  8
0
100
AcDbLine
 62
253
  6
CONTINUOUS
 10
132.2356572839
 20
125.8669384498
 11
132.235454408
 21
129.2156480655
  0
LINE
  5
2D5
100
AcDbEntity
  8
0
100
AcDbLine
 62
7
  6
CONTINUOUS
 10
132.2969755
 20
94.2149484536
 11
132.2969755
 21
95.7915442368
  0
LINE
  5
2D6
100
AcDbEntity
  8
0
100
AcDbLine
 62
7
  6
CONTINUOUS
 10
132.5344755
 20
96.1149484536
 11
132.5344755
 21
94.2149484536
  0
LINE
  5
2D7
100
AcDbEntity
  8
0
100
AcDbLine
 62
7
  6
CONTINUOUS
 10
132.6228372784
 20
102.0649484536
 11
132.6228372784
 21
103.7649484536
  0
LINE
  5
2D8
100
AcDbEntity
  8
0
100
AcDbLine
 62
7
  6
CONTINUOUS
 10
132.8511421478
 20
95.4277143797
 11
132.8511421478
 21
95.5894164881
  0
LINE
  5
2D9
100
AcDbEntity
  8
0
100
AcDbLine
 62
7
  6
CONTINUOUS
 10
132.8525602784
 20
103.5613334536
 11
132.8525602784
 21
103.0404034536
  0
LINE
  5
2DA
100
AcDbEntity
  8
0
100
AcDbLine
 62
7
  6
CONTINUOUS
 10
132.8525602784
 20
102.8367884536
 11
132.8525602784
 21
102.2685634536
  0
LINE
  5
2DB
100
AcDbEntity
  8
0
100
AcDbLine
 62
7
  6
CONTINUOUS
 10
133.0490587956
 20
95.548990961
 11
133.0490587956
 21
95.4681399068
  0
LINE
  5
2DC
100
AcDbEntity
  8
0
100
AcDbLine
 62
7
  6
CONTINUOUS
 10
133.6816652784
 20
114.0883964536
 11
133.6816652784
 21
114.3308734536
  0
LINE
  5
2DD
100
AcDbEntity
  8
0
100
AcDbLine
 62
7
  6
CONTINUOUS
 10
133.7691682784
 20
121.2964544536
 11
133.7691682784
 21
123.1964144536
  0
LINE
  5
2DE
100
AcDbEntity
  8
0
100
AcDbLine
 62
7
  6
CONTINUOUS
 10
133.7830712784
 20
103.0404034536
 11
133.7830712784
 21
102.8367884536
  0
LINE
  5
2DF
100
AcDbEntity
  8
0
100
AcDbLine
 62
7
  6
CONTINUOUS
 10
133.8612042784
 20
103.7649484536
 11
133.8612042784
 21
103.5613334536
  0
LINE
  5
2E0
100
AcDbEntity
  8
0
100
AcDbLine
 62
7
  6
CONTINUOUS
 10
133.8777982784
 20
102.2685634536
 11
133.8777982784
 21
102.0649484536
  0
LINE
  5
2E1
100
AcDbEntity
  8
0
100
AcDbLine
 62
7
  6
CONTINUOUS
 10
133.9367572784
 20
113.2775764536
 11
133.9367572784
 21
114.0883964536
  0
LINE
  5
2E2
100
AcDbEntity
  8
0
100
AcDbLine
 62
7
  6
CONTINUOUS
 10
133.9367572784
 20
114.3308734536
 11
133.9367572784
 21
114.7768324536
  0
LINE
  5
2E3
100
AcDbEntity
  8
0
100
AcDbLine
 62
7
  6
CONTINUOUS
 10
134.0386420911
 20
95.4681399068
 11
134.0386420911
 21
95.548990961
  0
LINE
  5
2E4
100
AcDbEntity
  8
0
100
AcDbLine
 62
7
  6
CONTINUOUS
 10
134.0782255
 20
95.0234591088
 11
134.0782255
 21
95.104310163
  0
LINE
  5
2E5
100
AcDbEntity
  8
0
100
AcDbLine
 62
7
  6
CONTINUOUS
 10
134.1657402784
 20
123.1964144536
 11
134.1657402784
 21
121.2964544536
  0
LINE
  5
2E6
100
AcDbEntity
  8
0
100
AcDbLine
 62
7
  6
CONTINUOUS
 10
134.1792352784
 20
115.1817364536
 11
134.1792352784
 21
113.2775764536
  0
LINE
  5
2E7
100
AcDbEntity
  8
0
100
AcDbLine
 62
7
  6
CONTINUOUS
 10
134.2761420911
 20
95.3064377984
 11
134.2761420911
 21
95.0234591088
  0
LINE
  5
2E8
100
AcDbEntity
  8
0
100
AcDbLine
 62
7
  6
CONTINUOUS
 10
134.4292344784
 20
114.9392588536
 11
134.4292344784
 21
115.1817362203
  0
LINE
  5
2E9
100
AcDbEntity
  8
0
100
AcDbLine
 62
7
  6
CONTINUOUS
 10
132.2876782354
 20
91.0870579745
 11
132.2846413509
 21
87.3619296702
  0
LINE
  5
2EA
100
AcDbEntity
  8
0
100
AcDbLine
 62
253
  6
CONTINUOUS
 10
132.2356571192
 20
90.5629172031
 11
132.235454408
 21
87.2142488417
  0
LINE
  5
2EB
100
AcDbEntity
  8
0
100
AcDbLine
 62
253
  6
CONTINUOUS
 10
131.9365940405
 20
90.8436140533
 11
131.9355920372
 21
90.5710603123
  0
LINE
  5
2EC
100
AcDbEntity
  8
0
100
AcDbLine
 62
253
  6
CONTINUOUS
 10
132.2365464026
 20
90.6978965555
 11
132.2356571192
 21
90.5629172031
  0
LINE
  5
2ED
100
AcDbEntity
  8
0
100
AcDbLine
 62
253
  6
CONTINUOUS
 10
131.9381192418
 20
91.0270662746
 11
131.9365940405
 21
90.8436140533
  0
LWPOLYLINE
  5
2EE
100
AcDbEntity
  8
0
100
AcDbPolyline
 62
7
  6
CONTINUOUS
 90
34
 70
0
 10
132.0684365907
 20
102.9149484536
 10
132.0687662908
 20
102.9426379348
 10
132.068274777
 20
102.97028829
 10
132.0669832667
 20
102.9978716726
 10
132.0649141283
 20
103.0253456394
 10
132.0620877606
 20
103.0526998626
 10
132.0585187147
 20
103.0799632441
 10
132.0542254831
 20
103.1071162462
 10
132.049224626
 20
103.1341526003
 10
132.0435192354
 20
103.1611227608
 10
132.0370907315
 20
103.1880379664
 10
132.0298184622
 20
103.2147967275
 10
132.0215480996
 20
103.2412790181
 10
132.0121158029
 20
103.2674029681
 10
132.00135953
 20
103.2930858084
 10
131.9892159363
 20
103.3181942341
 10
131.9757125468
 20
103.3426006987
 10
131.9608663463
 20
103.3662077089
 10
131.9446941668
 20
103.3889119347
 10
131.9272160349
 20
103.4106022551
 10
131.9084560577
 20
103.4311622191
 10
131.8884462071
 20
103.4504871268
 10
131.867269081
 20
103.4685043021
 10
131.8450183224
 20
103.4851526259
 10
131.8217832882
 20
103.5003731548
 10
131.7976528019
 20
103.5141054965
 10
131.7727263593
 20
103.5262985138
 10
131.7471107118
 20
103.5369423781
 10
131.7209027197
 20
103.5460403662
 10
131.6941994593
 20
103.553595696
 10
131.6671142709
 20
103.5596103223
 10
131.6397586025
 20
103.5640909752
 10
131.6122359624
 20
103.5670459248
 10
131.5846532415
 20
103.5684824536
  0
LINE
  5
2EF
100
AcDbEntity
  8
0
100
AcDbLine
 62
253
  6
CONTINUOUS
 10
132.2376378927
 20
90.7865675291
 11
132.2365464026
 21
90.6978965555
  0
LINE
  5
2F0
100
AcDbEntity
  8
0
100
AcDbLine
 62
253
  6
CONTINUOUS
 10
131.9396040659
 20
91.1342092269
 11
131.9381192418
 21
91.0270662746
  0
LINE
  5
2F1
100
AcDbEntity
  8
0
100
AcDbLine
 62
253
  6
CONTINUOUS
 10
132.2385409116
 20
90.837296963
 11
132.2376378927
 21
90.7865675291
  0
LWPOLYLINE
  5
2F2
100
AcDbEntity
  8
0
100
AcDbPolyline
 62
7
  6
CONTINUOUS
 90
16
 70
0
 10
131.4733516574
 20
91.0858229626
 10
131.4749742149
 20
91.117331578
 10
131.4798760523
 20
91.1485082552
 10
131.4880074713
 20
91.1790112965
 10
131.4992948355
 20
91.2085348472
 10
131.513611817
 20
91.2367218709
 10
131.530752383
 20
91.2631821745
 10
131.5504636544
 20
91.2875897199
 10
131.5725452779
 20
91.3097525831
 10
131.5968295617
 20
91.329508122
 10
131.6231037123
 20
91.3466607556
 10
131.6510472848
 20
91.3609811776
 10
131.6803144767
 20
91.3722866272
 10
131.7105681314
 20
91.3804542667
 10
131.7414908189
 20
91.3854075808
 10
131.772744492
 20
91.3870976147
  0
LINE
  5
2F3
100
AcDbEntity
  8
0
100
AcDbLine
 62
7
  6
CONTINUOUS
 10
134.8441992784
 20
122.5370184536
 11
134.7586182784
 21
121.2964544536
  0
LINE
  5
2F4
100
AcDbEntity
  8
0
100
AcDbLine
 62
7
  6
CONTINUOUS
 10
134.3792282784
 20
121.2964544536
 11
134.5507732784
 21
123.1963004536
  0
LWPOLYLINE
  5
2F5
100
AcDbEntity
  8
0
100
AcDbPolyline
 62
253
  6
CONTINUOUS
 90
7
 70
0
 10
131.9437708681
 20
91.254680428
 10
131.9431370781
 20
91.2495679265
 10
131.9425153972
 20
91.2403068542
 10
131.9419058256
 20
91.2269456331
 10
131.9413053347
 20
91.2095541085
 10
131.940716953
 20
91.1882231958
 10
131.9396040659
 20
91.1342092269
  0
LINE
  5
2F6
100
AcDbEntity
  8
0
100
AcDbLine
 62
7
  6
CONTINUOUS
 10
137.1485522784
 20
122.6742714536
 11
136.9510922784
 21
121.9692144536
  0
LINE
  5
2F7
100
AcDbEntity
  8
0
100
AcDbLine
 62
7
  6
CONTINUOUS
 10
136.8699712784
 20
121.6757314536
 11
136.7605422784
 21
121.2964544536
  0
LINE
  5
2F8
100
AcDbEntity
  8
0
100
AcDbLine
 62
7
  6
CONTINUOUS
 10
136.3682722784
 20
121.2964544536
 11
136.9641852784
 21
123.1963004536
  0
LINE
  5
2F9
100
AcDbEntity
  8
0
100
AcDbLine
 62
7
  6
CONTINUOUS
 10
139.3251641487
 20
129.2156480655
 11
139.2759772058
 21
129.067967237
  0
LINE
  5
2FA
100
AcDbEntity
  8
0
100
AcDbLine
 62
253
  6
CONTINUOUS
 10
139.2729403213
 20
125.3428389327
 11
139.31689338
 21
125.4748053396
  0
LINE
  5
2FB
100
AcDbEntity
  8
0
100
AcDbLine
 62
7
  6
CONTINUOUS
 10
129.5779462784
 20
102.5597564536
 11
129.4003442784
 21
102.0649484536
  0
LINE
  5
2FC
100
AcDbEntity
  8
0
100
AcDbLine
 62
7
  6
CONTINUOUS
 10
129.9237352784
 20
103.5183654536
 11
129.6489992784
 21
102.7633714536
  0
LINE
  5
2FD
100
AcDbEntity
  8
0
100
AcDbLine
 62
7
  6
CONTINUOUS
 10
129.1635952784
 20
102.0649484536
 11
129.8028442784
 21
103.7649484536
  0
LINE
  5
2FE
100
AcDbEntity
  8
0
100
AcDbLine
 62
7
  6
CONTINUOUS
 10
132.3243662784
 20
113.2775764536
 11
133.9656412784
 21
115.1817364536
  0
LINE
  5
2FF
100
AcDbEntity
  8
0
100
AcDbLine
 62
7
  6
CONTINUOUS
 10
133.9367572784
 20
114.7768324536
 11
132.6445012784
 21
113.2775764536
  0
LINE
  5
300
100
AcDbEntity
  8
0
100
AcDbLine
 62
7
  6
CONTINUOUS
 10
136.9027125693
 20
117.7373517446
 11
136.9224556955
 21
117.7570948707
  0
LWPOLYLINE
  5
301
100
AcDbEntity
  8
0
100
AcDbPolyline
 62
7
  6
CONTINUOUS
 90
31
 70
0
 10
155.4049606225
 20
94.0787987179
 10
155.3890722305
 20
94.0782415003
 10
155.3730894277
 20
94.0772536844
 10
155.3570852279
 20
94.0758021363
 10
155.3411761721
 20
94.0738612674
 10
155.3253847711
 20
94.0713971963
 10
155.30964149
 20
94.0683517759
 10
155.2940145524
 20
94.0646804123
 10
155.2785752007
 20
94.0603380569
 10
155.2632692251
 20
94.0552331123
 10
155.2481071931
 20
94.049268066
 10
155.2332565139
 20
94.0423963344
 10
155.2189028932
 20
94.0345974362
 10
155.2051201942
 20
94.0258036309
 10
155.1920140689
 20
94.0159629148
 10
155.1797848999
 20
94.0051291374
 10
155.1684732156
 20
93.9933815816
 10
155.1580408629
 20
93.9807997234
 10
155.1485059802
 20
93.967528182
 10
155.1398575967
 20
93.9536862087
 10
155.1320643331
 20
93.9393578254
 10
155.1251059211
 20
93.9246367771
 10
155.1189764327
 20
93.9096496171
 10
155.1136390928
 20
93.8944479263
 10
155.1090438625
 20
93.8790004076
 10
155.1051906297
 20
93.8633955427
 10
155.1020719533
 20
93.8476941734
 10
155.0996646531
 20
93.8318138845
 10
155.0979832149
 20
93.8157781091
 10
155.0970556431
 20
93.7997187929
 10
155.0969009702
 20
93.7837199573
  0
LINE
  5
302
100
AcDbEntity
  8
0
100
AcDbLine
 62
7
  6
CONTINUOUS
 10
160.2914502784
 20
93.2334824536
 11
159.8948782784
 21
93.2334824536
  0
LINE
  5
303
100
AcDbEntity
  8
0
100
AcDbLine
 62
7
  6
CONTINUOUS
 10
162.0010732784
 20
93.2335964536
 11
161.5702732784
 21
93.2335964536
  0
LINE
  5
304
100
AcDbEntity
  8
0
100
AcDbLine
 62
7
  6
CONTINUOUS
 10
160.8349202784
 20
93.2335964536
 11
160.4386192784
 21
93.2335964536
  0
LINE
  5
305
100
AcDbEntity
  8
0
100
AcDbLine
 62
7
  6
CONTINUOUS
 10
159.5098452784
 20
93.2335964536
 11
159.1136012784
 21
93.2335964536
  0
LINE
  5
306
100
AcDbEntity
  8
0
100
AcDbLine
 62
7
  6
CONTINUOUS
 10
158.3246452784
 20
93.2335964536
 11
157.9322752784
 21
93.2335964536
  0
LINE
  5
307
100
AcDbEntity
  8
0
100
AcDbLine
 62
7
  6
CONTINUOUS
 10
157.0964332784
 20
93.2335964536
 11
156.7127972784
 21
93.2335964536
  0
LINE
  5
308
100
AcDbEntity
  8
0
100
AcDbLine
 62
7
  6
CONTINUOUS
 10
155.6315977752
 20
94.0787987179
 11
155.4049606225
 21
94.0787987179
  0
LINE
  5
309
100
AcDbEntity
  8
0
100
AcDbLine
 62
7
  6
CONTINUOUS
 10
138.9073923176
 20
94.2149484536
 11
138.7094755
 21
94.2149484536
  0
LINE
  5
30A
100
AcDbEntity
  8
0
100
AcDbLine
 62
7
  6
CONTINUOUS
 10
135.4240589088
 20
94.2149484536
 11
135.1865589088
 21
94.2149484536
  0
LINE
  5
30B
100
AcDbEntity
  8
0
100
AcDbLine
 62
7
  6
CONTINUOUS
 10
133.6428087956
 20
94.2149484536
 11
133.4844755
 21
94.2149484536
  0
LINE
  5
30C
100
AcDbEntity
  8
0
100
AcDbLine
 62
7
  6
CONTINUOUS
 10
132.5344755
 20
94.2149484536
 11
132.2969755
 21
94.2149484536
  0
LINE
  5
30D
100
AcDbEntity
  8
0
100
AcDbLine
 62
7
  6
CONTINUOUS
 10
155.4058154269
 20
94.3899475371
 11
155.6184480335
 21
94.3899475371
  0
LINE
  5
30E
100
AcDbEntity
  8
0
100
AcDbLine
 62
7
  6
CONTINUOUS
 10
133.4448922044
 20
94.4170761174
 11
133.6823922044
 21
94.4170761174
  0
LINE
  5
30F
100
AcDbEntity
  8
0
100
AcDbLine
 62
7
  6
CONTINUOUS
 10
135.1865589088
 20
94.4170761174
 11
135.4240589088
 21
94.4170761174
  0
LINE
  5
310
100
AcDbEntity
  8
0
100
AcDbLine
 62
7
  6
CONTINUOUS
 10
138.6698923176
 20
94.4170761174
 11
138.9469755
 21
94.4170761174
  0
LINE
  5
311
100
AcDbEntity
  8
0
100
AcDbLine
 62
7
  6
CONTINUOUS
 10
157.1095262784
 20
94.4606824536
 11
156.7298362784
 21
94.4606824536
  0
LINE
  5
312
100
AcDbEntity
  8
0
100
AcDbLine
 62
7
  6
CONTINUOUS
 10
132.9303088522
 20
94.6596293083
 11
133.1282255
 21
94.6596293083
  0
LINE
  5
313
100
AcDbEntity
  8
0
100
AcDbLine
 62
7
  6
CONTINUOUS
 10
134.5928089088
 20
94.7000548354
 11
134.8303089088
 21
94.7000548354
  0
LINE
  5
314
100
AcDbEntity
  8
0
100
AcDbLine
 62
7
  6
CONTINUOUS
 10
156.6505812784
 20
94.7541654536
 11
157.1906472784
 21
94.7541654536
  0
LINE
  5
315
100
AcDbEntity
  8
0
100
AcDbLine
 62
7
  6
CONTINUOUS
 10
133.6428087956
 20
94.9021824709
 11
133.4448922044
 21
94.9021824709
  0
LINE
  5
316
100
AcDbEntity
  8
0
100
AcDbLine
 62
7
  6
CONTINUOUS
 10
134.8698920911
 20
95.0638846359
 11
134.5928089088
 21
95.0638846359
  0
LINE
  5
317
100
AcDbEntity
  8
0
100
AcDbLine
 62
7
  6
CONTINUOUS
 10
133.4053087956
 20
95.104310163
 11
133.6823922044
 21
95.104310163
  0
LINE
  5
318
100
AcDbEntity
  8
0
100
AcDbLine
 62
7
  6
CONTINUOUS
 10
154.6296957279
 20
95.1334421996
 11
155.011152213
 21
95.1334421996
  0
LINE
  5
319
100
AcDbEntity
  8
0
100
AcDbLine
 62
7
  6
CONTINUOUS
 10
155.6184480335
 20
95.1334421996
 11
156.0134246756
 21
95.1334421996
  0
LINE
  5
31A
100
AcDbEntity
  8
0
100
AcDbLine
 62
7
  6
CONTINUOUS
 10
156.1298772784
 20
95.1334424536
 11
156.5478482784
 21
95.1334424536
  0
LINE
  5
31B
100
AcDbEntity
  8
0
100
AcDbLine
 62
7
  6
CONTINUOUS
 10
157.3000762784
 20
95.1334424536
 11
157.6923462784
 21
95.1334424536
  0
LINE
  5
31C
100
AcDbEntity
  8
0
100
AcDbLine
 62
7
  6
CONTINUOUS
 10
157.7546182784
 20
95.1334424536
 11
158.1425712784
 21
95.1334424536
  0
LINE
  5
31D
100
AcDbEntity
  8
0
100
AcDbLine
 62
7
  6
CONTINUOUS
 10
158.6955732784
 20
95.1334424536
 11
158.7511922784
 21
95.1334424536
  0
LINE
  5
31E
100
AcDbEntity
  8
0
100
AcDbLine
 62
7
  6
CONTINUOUS
 10
159.3020002784
 20
95.1334424536
 11
159.6813902784
 21
95.1334424536
  0
LINE
  5
31F
100
AcDbEntity
  8
0
100
AcDbLine
 62
7
  6
CONTINUOUS
 10
159.8948782784
 20
95.1334424536
 11
160.2914502784
 21
95.1334424536
  0
LINE
  5
320
100
AcDbEntity
  8
0
100
AcDbLine
 62
7
  6
CONTINUOUS
 10
161.0493052784
 20
95.1334424536
 11
161.3987852784
 21
95.1334424536
  0
LINE
  5
321
100
AcDbEntity
  8
0
100
AcDbLine
 62
7
  6
CONTINUOUS
 10
138.9469755
 20
95.2255867443
 11
138.6698923176
 21
95.2255867443
  0
LINE
  5
322
100
AcDbEntity
  8
0
100
AcDbLine
 62
7
  6
CONTINUOUS
 10
135.4240589088
 20
95.2255867443
 11
135.1865589088
 21
95.2255867443
  0
LINE
  5
323
100
AcDbEntity
  8
0
100
AcDbLine
 62
7
  6
CONTINUOUS
 10
135.1865589088
 20
95.4277143797
 11
135.4240589088
 21
95.4277143797
  0
LINE
  5
324
100
AcDbEntity
  8
0
100
AcDbLine
 62
7
  6
CONTINUOUS
 10
138.7094755
 20
95.4277143797
 11
138.9073923176
 21
95.4277143797
  0
LINE
  5
325
100
AcDbEntity
  8
0
100
AcDbLine
 62
7
  6
CONTINUOUS
 10
139.4219755
 20
95.6702676556
 11
139.2240586823
 21
95.6702676556
  0
LWPOLYLINE
  5
326
100
AcDbEntity
  8
0
100
AcDbPolyline
 62
7
  6
CONTINUOUS
 90
10
 70
0
 10
155.320929168
 20
93.5460691701
 10
155.3543795364
 20
93.5427525497
 10
155.3882021548
 20
93.5405358689
 10
155.4223468802
 20
93.5394424465
 10
155.4567425895
 20
93.5394953944
 10
155.4913533948
 20
93.5407173806
 10
155.5261783049
 20
93.5431369703
 10
155.5611765803
 20
93.5467837058
 10
155.5963060925
 20
93.5515723392
 10
155.6315977752
 20
93.5572540304
  0
LINE
  5
327
100
AcDbEntity
  8
0
100
AcDbLine
 62
7
  6
CONTINUOUS
 10
137.0469755
 20
96.1149484536
 11
137.2844755
 21
96.0745229265
  0
LINE
  5
328
100
AcDbEntity
  8
0
100
AcDbLine
 62
7
  6
CONTINUOUS
 10
135.4240589088
 20
95.4277143797
 11
135.6219755
 21
95.3872888526
  0
LINE
  5
329
100
AcDbEntity
  8
0
100
AcDbLine
 62
7
  6
CONTINUOUS
 10
133.6428087956
 20
96.1149484536
 11
133.8407255
 21
96.0745229265
  0
LINE
  5
32A
100
AcDbEntity
  8
0
100
AcDbLine
 62
7
  6
CONTINUOUS
 10
138.9073923176
 20
95.4277143797
 11
139.1053086823
 21
95.3872888526
  0
LINE
  5
32B
100
AcDbEntity
  8
0
100
AcDbLine
 62
7
  6
CONTINUOUS
 10
137.2448923176
 20
95.872395291
 11
137.0469755
 21
95.9128208181
  0
LINE
  5
32C
100
AcDbEntity
  8
0
100
AcDbLine
 62
7
  6
CONTINUOUS
 10
138.8678086823
 20
96.1149484536
 11
139.0657255
 21
96.0745229265
  0
LINE
  5
32D
100
AcDbEntity
  8
0
100
AcDbLine
 62
7
  6
CONTINUOUS
 10
139.0657255
 20
95.1851612172
 11
138.9469755
 21
95.2255867443
  0
LINE
  5
32E
100
AcDbEntity
  8
0
100
AcDbLine
 62
7
  6
CONTINUOUS
 10
139.0261423176
 20
95.872395291
 11
138.9073923176
 21
95.9128208181
  0
LINE
  5
32F
100
AcDbEntity
  8
0
100
AcDbLine
 62
7
  6
CONTINUOUS
 10
139.0657255
 20
96.0745229265
 11
139.2636423176
 21
95.9532463452
  0
LINE
  5
330
100
AcDbEntity
  8
0
100
AcDbLine
 62
7
  6
CONTINUOUS
 10
139.1448923176
 20
95.7915442368
 11
139.0261423176
 21
95.872395291
  0
LINE
  5
331
100
AcDbEntity
  8
0
100
AcDbLine
 62
7
  6
CONTINUOUS
 10
136.9027125693
 20
98.6925451626
 11
136.9224556955
 21
98.6728020365
  0
LINE
  5
332
100
AcDbEntity
  8
0
100
AcDbLine
 62
7
  6
CONTINUOUS
 10
139.2636423176
 20
95.0234591088
 11
139.1844755
 21
95.104310163
  0
LINE
  5
333
100
AcDbEntity
  8
0
100
AcDbLine
 62
7
  6
CONTINUOUS
 10
139.3032255
 20
95.2660122713
 11
139.4219755
 21
95.1447356901
  0
LINE
  5
334
100
AcDbEntity
  8
0
100
AcDbLine
 62
7
  6
CONTINUOUS
 10
139.2636423176
 20
95.9532463452
 11
139.3823923176
 21
95.7915442368
  0
LINE
  5
335
100
AcDbEntity
  8
0
100
AcDbLine
 62
7
  6
CONTINUOUS
 10
137.5219755
 20
95.548990961
 11
137.3636423176
 21
95.7915442368
  0
LINE
  5
336
100
AcDbEntity
  8
0
100
AcDbLine
 62
7
  6
CONTINUOUS
 10
138.3532255
 20
94.6596293083
 11
138.4323923176
 21
94.5383526987
  0
LINE
  5
337
100
AcDbEntity
  8
0
100
AcDbLine
 62
7
  6
CONTINUOUS
 10
139.2240586823
 20
95.6702676556
 11
139.1448923176
 21
95.7915442368
  0
LINE
  5
338
100
AcDbEntity
  8
0
100
AcDbLine
 62
7
  6
CONTINUOUS
 10
137.6011423176
 20
95.8319697639
 11
137.6803086823
 21
95.6702676556
  0
LINE
  5
339
100
AcDbEntity
  8
0
100
AcDbLine
 62
7
  6
CONTINUOUS
 10
138.1948923176
 20
94.5383526987
 11
138.1157255
 21
94.7404803625
  0
LINE
  5
33A
100
AcDbEntity
  8
0
100
AcDbLine
 62
7
  6
CONTINUOUS
 10
139.3251641487
 20
87.2142488417
 11
139.2759772058
 21
87.3619296702
  0
LINE
  5
33B
100
AcDbEntity
  8
0
100
AcDbLine
 62
253
  6
CONTINUOUS
 10
139.2729403213
 20
91.0870579745
 11
139.31689338
 21
90.9550915676
  0
LINE
  5
33C
100
AcDbEntity
  8
0
100
AcDbLine
 62
7
  6
CONTINUOUS
 10
135.8198920911
 20
94.8617569438
 11
135.7803089088
 21
94.9830335817
  0
LINE
  5
33D
100
AcDbEntity
  8
0
100
AcDbLine
 62
7
  6
CONTINUOUS
 10
136.4136423176
 20
94.6596293083
 11
136.3740586823
 21
94.7809058896
  0
LINE
  5
33E
100
AcDbEntity
  8
0
100
AcDbLine
 62
7
  6
CONTINUOUS
 10
137.6803086823
 20
95.6702676556
 11
137.7198923176
 21
95.548990961
  0
LINE
  5
33F
100
AcDbEntity
  8
0
100
AcDbLine
 62
7
  6
CONTINUOUS
 10
136.3740586823
 20
94.7809058896
 11
136.3344755
 21
94.9830335817
  0
LINE
  5
340
100
AcDbEntity
  8
0
100
AcDbLine
 62
7
  6
CONTINUOUS
 10
134.2365589088
 20
95.5894164881
 11
134.2761420911
 21
95.3064377984
  0
LWPOLYLINE
  5
341
100
AcDbEntity
  8
0
100
AcDbPolyline
 62
253
  6
CONTINUOUS
 90
6
 70
0
 10
131.9437708681
 20
125.1752164792
 10
131.9431370858
 20
125.1803289924
 10
131.9425154078
 20
125.1895900821
 10
131.9419058341
 20
125.2029513178
 10
131.9413053373
 20
125.2203428381
 10
131.9407169447
 20
125.2416737242
  0
LINE
  5
342
100
AcDbEntity
  8
0
100
AcDbLine
 62
7
  6
CONTINUOUS
 10
135.9180472784
 20
121.2964544536
 11
135.8365702784
 21
122.5318464536
  0
LINE
  5
343
100
AcDbEntity
  8
0
100
AcDbLine
 62
7
  6
CONTINUOUS
 10
136.9027125693
 20
98.6925451626
 11
136.9031299769
 21
97.7377691522
  0
LINE
  5
344
100
AcDbEntity
  8
0
100
AcDbLine
 62
7
  6
CONTINUOUS
 10
134.5928089088
 20
95.0638846359
 11
134.5928089088
 21
96.1149484536
  0
LINE
  5
345
100
AcDbEntity
  8
0
100
AcDbLine
 62
7
  6
CONTINUOUS
 10
134.7907255
 20
95.9128208181
 11
134.7907255
 21
95.2660122713
  0
LINE
  5
346
100
AcDbEntity
  8
0
100
AcDbLine
 62
7
  6
CONTINUOUS
 10
134.8722812784
 20
102.0649484536
 11
134.8722812784
 21
103.7649484536
  0
LINE
  5
347
100
AcDbEntity
  8
0
100
AcDbLine
 62
7
  6
CONTINUOUS
 10
135.1019362784
 20
103.7649484536
 11
135.1019362784
 21
102.0649484536
  0
LINE
  5
348
100
AcDbEntity
  8
0
100
AcDbLine
 62
7
  6
CONTINUOUS
 10
135.4303092784
 20
90.9149484536
 11
135.4303092784
 21
87.2145232342
  0
LINE
  5
349
100
AcDbEntity
  8
0
100
AcDbLine
 62
7
  6
CONTINUOUS
 10
135.4303092784
 20
125.5149484536
 11
135.4303092784
 21
129.215373673
  0
LINE
  5
34A
100
AcDbEntity
  8
0
100
AcDbLine
 62
7
  6
CONTINUOUS
 10
135.4949232784
 20
102.0649484536
 11
135.4949232784
 21
103.7649484536
  0
LINE
  5
34B
100
AcDbEntity
  8
0
100
AcDbLine
 62
7
  6
CONTINUOUS
 10
135.7175792784
 20
103.4455514536
 11
135.7175792784
 21
102.0649484536
  0
LINE
  5
34C
100
AcDbEntity
  8
0
100
AcDbLine
 62
253
  6
CONTINUOUS
 10
135.7303092784
 20
91.2149484536
 11
135.7303092784
 21
87.1988009005
  0
LINE
  5
34D
100
AcDbEntity
  8
0
100
AcDbLine
 62
253
  6
CONTINUOUS
 10
135.7303092784
 20
125.2149484536
 11
135.7303092784
 21
129.2310960068
  0
LINE
  5
34E
100
AcDbEntity
  8
0
100
AcDbLine
 62
7
  6
CONTINUOUS
 10
135.8198920911
 20
94.7809058896
 11
135.8198920911
 21
94.8617569438
  0
LINE
  5
34F
100
AcDbEntity
  8
0
100
AcDbLine
 62
253
  6
CONTINUOUS
 10
135.8303092784
 20
91.2149484536
 11
135.8303092784
 21
87.1988009005
  0
LINE
  5
350
100
AcDbEntity
  8
0
100
AcDbLine
 62
253
  6
CONTINUOUS
 10
135.8303092784
 20
125.2149484536
 11
135.8303092784
 21
129.2310960068
  0
LINE
  5
351
100
AcDbEntity
  8
0
100
AcDbLine
 62
7
  6
CONTINUOUS
 10
135.9386423176
 20
96.1149484536
 11
135.9386423176
 21
95.9128208181
  0
LINE
  5
352
100
AcDbEntity
  8
0
100
AcDbLine
 62
7
  6
CONTINUOUS
 10
136.0178086823
 20
94.9021824709
 11
136.0178086823
 21
94.7404803625
  0
LINE
  5
353
100
AcDbEntity
  8
0
100
AcDbLine
 62
7
  6
CONTINUOUS
 10
136.0989912784
 20
113.2870714536
 11
136.0989912784
 21
115.1876314536
  0
LINE
  5
354
100
AcDbEntity
  8
0
100
AcDbLine
 62
7
  6
CONTINUOUS
 10
136.1303092784
 20
90.9149484536
 11
136.1303092784
 21
87.2145232342
  0
LINE
  5
355
100
AcDbEntity
  8
0
100
AcDbLine
 62
7
  6
CONTINUOUS
 10
136.1303092784
 20
125.5149484536
 11
136.1303092784
 21
129.215373673
  0
LINE
  5
356
100
AcDbEntity
  8
0
100
AcDbLine
 62
7
  6
CONTINUOUS
 10
136.3344755
 20
94.9830335817
 11
136.3344755
 21
95.3468633255
  0
LINE
  5
357
100
AcDbEntity
  8
0
100
AcDbLine
 62
7
  6
CONTINUOUS
 10
136.3414692784
 20
115.1876314536
 11
136.3414692784
 21
113.2870714536
  0
LINE
  5
358
100
AcDbEntity
  8
0
100
AcDbLine
 62
7
  6
CONTINUOUS
 10
136.5323923176
 20
95.3064377984
 11
136.5323923176
 21
95.0234591088
  0
LINE
  5
359
100
AcDbEntity
  8
0
100
AcDbLine
 62
7
  6
CONTINUOUS
 10
136.6220782784
 20
102.3840654536
 11
136.6220782784
 21
103.7649484536
  0
LINE
  5
35A
100
AcDbEntity
  8
0
100
AcDbLine
 62
7
  6
CONTINUOUS
 10
136.8446252784
 20
103.7649484536
 11
136.8446252784
 21
102.0649484536
  0
LINE
  5
35B
100
AcDbEntity
  8
0
100
AcDbLine
 62
7
  6
CONTINUOUS
 10
136.9031299769
 20
118.692127755
 11
136.9027125693
 21
117.7373517446
  0
LINE
  5
35C
100
AcDbEntity
  8
0
100
AcDbLine
 62
7
  6
CONTINUOUS
 10
134.2761420911
 20
95.0234591088
 11
134.2365589088
 21
94.7404803625
  0
LINE
  5
35D
100
AcDbEntity
  8
0
100
AcDbLine
 62
7
  6
CONTINUOUS
 10
134.0386420911
 20
94.7809058896
 11
134.0782255
 21
95.0234591088
  0
LWPOLYLINE
  5
35E
100
AcDbEntity
  8
0
100
AcDbPolyline
 62
253
  6
CONTINUOUS
 90
9
 70
0
 10
132.2437251767
 20
90.9550915676
 10
132.2430944652
 20
90.9518650569
 10
132.2424749317
 20
90.9461211924
 10
132.2418665762
 20
90.9378599743
 10
132.2412660752
 20
90.9270121905
 10
132.2406767522
 20
90.9136470529
 10
132.2401085773
 20
90.8979721978
 10
132.2395621413
 20
90.8799538091
 10
132.2385409116
 20
90.837296963
  0
LWPOLYLINE
  5
35F
100
AcDbEntity
  8
0
100
AcDbPolyline
 62
253
  6
CONTINUOUS
 90
9
 70
0
 10
139.31689338
 20
125.4748053396
 10
139.3175240915
 20
125.4780318504
 10
139.318143625
 20
125.4837757148
 10
139.3187519805
 20
125.4920369329
 10
139.3193524815
 20
125.5028847168
 10
139.3199418045
 20
125.5162498543
 10
139.3205099794
 20
125.5319247094
 10
139.3210564154
 20
125.5499430981
 10
139.3220776451
 20
125.5925999442
  0
LINE
  5
360
100
AcDbEntity
  8
0
100
AcDbLine
 62
253
  6
CONTINUOUS
 10
139.5726351143
 20
125.0424708925
 11
139.6168476886
 21
125.1752164792
  0
LINE
  5
361
100
AcDbEntity
  8
0
100
AcDbLine
 62
7
  6
CONTINUOUS
 10
127.1217340623
 20
105.7063732376
 11
127.0716030563
 21
105.6562422315
  0
LINE
  5
362
100
AcDbEntity
  8
0
100
AcDbLine
 62
7
  6
CONTINUOUS
 10
140.1562080197
 20
118.6908471949
 11
140.1381628612
 21
118.6728020365
  0
LINE
  5
363
100
AcDbEntity
  8
0
100
AcDbLine
 62
7
  6
CONTINUOUS
 10
136.4435642784
 20
114.2380774536
 11
137.3967172784
 21
115.1912304536
  0
LINE
  5
364
100
AcDbEntity
  8
0
100
AcDbLine
 62
7
  6
CONTINUOUS
 10
137.7396062784
 20
115.1912304536
 11
136.7864822784
 21
114.2380764536
  0
LINE
  5
365
100
AcDbEntity
  8
0
100
AcDbLine
 62
7
  6
CONTINUOUS
 10
138.4017582784
 20
115.3576464536
 11
138.8316622784
 21
115.7875494536
  0
LINE
  5
366
100
AcDbEntity
  8
0
100
AcDbLine
 62
7
  6
CONTINUOUS
 10
139.1745502784
 20
115.7875494536
 11
138.7446612784
 21
115.3576464536
  0
LINE
  5
367
100
AcDbEntity
  8
0
100
AcDbLine
 62
7
  6
CONTINUOUS
 10
155.1136430567
 20
122.0128207898
 11
154.9948930567
 21
121.9723952627
  0
LINE
  5
368
100
AcDbEntity
  8
0
100
AcDbLine
 62
7
  6
CONTINUOUS
 10
135.4240589088
 20
94.4170761174
 11
135.5823920911
 21
94.4575016445
  0
LINE
  5
369
100
AcDbEntity
  8
0
100
AcDbLine
 62
7
  6
CONTINUOUS
 10
139.1053086823
 20
94.2553739842
 11
138.9073923176
 21
94.2149484536
  0
LINE
  5
36A
100
AcDbEntity
  8
0
100
AcDbLine
 62
7
  6
CONTINUOUS
 10
137.0469755
 20
94.4170761174
 11
137.2448923176
 21
94.4575016445
  0
LINE
  5
36B
100
AcDbEntity
  8
0
100
AcDbLine
 62
7
  6
CONTINUOUS
 10
135.6219755
 20
94.2553739842
 11
135.4240589088
 21
94.2149484536
  0
LINE
  5
36C
100
AcDbEntity
  8
0
100
AcDbLine
 62
7
  6
CONTINUOUS
 10
133.8407255
 20
94.2553739842
 11
133.6428087956
 21
94.2149484536
  0
LINE
  5
36D
100
AcDbEntity
  8
0
100
AcDbLine
 62
7
  6
CONTINUOUS
 10
138.5115586823
 20
95.3872888526
 11
138.7094755
 21
95.4277143797
  0
LINE
  5
36E
100
AcDbEntity
  8
0
100
AcDbLine
 62
7
  6
CONTINUOUS
 10
133.8407255
 20
94.9426080546
 11
133.6428087956
 21
94.9021824709
  0
LINE
  5
36F
100
AcDbEntity
  8
0
100
AcDbLine
 62
7
  6
CONTINUOUS
 10
138.5115586823
 20
96.0745229265
 11
138.7094755
 21
96.1149484536
  0
LINE
  5
370
100
AcDbEntity
  8
0
100
AcDbLine
 62
7
  6
CONTINUOUS
 10
134.9886420911
 20
95.3872888526
 11
135.1865589088
 21
95.4277143797
  0
LINE
  5
371
100
AcDbEntity
  8
0
100
AcDbLine
 62
7
  6
CONTINUOUS
 10
137.0469755
 20
95.9128208181
 11
136.8490586823
 21
95.872395291
  0
LINE
  5
372
100
AcDbEntity
  8
0
100
AcDbLine
 62
7
  6
CONTINUOUS
 10
137.2844755
 20
94.2553739842
 11
137.0469755
 21
94.2149484536
  0
LINE
  5
373
100
AcDbEntity
  8
0
100
AcDbLine
 62
7
  6
CONTINUOUS
 10
136.8094755
 20
96.0745229265
 11
137.0469755
 21
96.1149484536
  0
LINE
  5
374
100
AcDbEntity
  8
0
100
AcDbLine
 62
7
  6
CONTINUOUS
 10
136.9031299769
 20
97.7377691522
 11
140.1562080197
 21
97.7390497123
  0
LINE
  5
375
100
AcDbEntity
  8
0
100
AcDbLine
 62
7
  6
CONTINUOUS
 10
138.9073923176
 20
95.9128208181
 11
138.6698923176
 21
95.9128208181
  0
LINE
  5
376
100
AcDbEntity
  8
0
100
AcDbLine
 62
7
  6
CONTINUOUS
 10
135.9386423176
 20
95.9128208181
 11
134.7907255
 21
95.9128208181
  0
LINE
  5
377
100
AcDbEntity
  8
0
100
AcDbLine
 62
7
  6
CONTINUOUS
 10
133.6823922044
 20
95.9128208181
 11
133.4053087956
 21
95.9128208181
  0
LINE
  5
378
100
AcDbEntity
  8
0
100
AcDbLine
 62
7
  6
CONTINUOUS
 10
132.2969755
 20
96.1149484536
 11
132.5344755
 21
96.1149484536
  0
LINE
  5
379
100
AcDbEntity
  8
0
100
AcDbLine
 62
7
  6
CONTINUOUS
 10
133.4448922044
 20
96.1149484536
 11
133.6428087956
 21
96.1149484536
  0
LINE
  5
37A
100
AcDbEntity
  8
0
100
AcDbLine
 62
7
  6
CONTINUOUS
 10
134.5928089088
 20
96.1149484536
 11
135.9386423176
 21
96.1149484536
  0
LINE
  5
37B
100
AcDbEntity
  8
0
100
AcDbLine
 62
7
  6
CONTINUOUS
 10
138.7094755
 20
96.1149484536
 11
138.8678086823
 21
96.1149484536
  0
LINE
  5
37C
100
AcDbEntity
  8
0
100
AcDbLine
 62
253
  6
CONTINUOUS
 10
157.1381628612
 20
97.7570948707
 11
153.9224556955
 21
97.7570948707
  0
LINE
  5
37D
100
AcDbEntity
  8
0
100
AcDbLine
 62
253
  6
CONTINUOUS
 10
140.1381628612
 20
97.7570948707
 11
136.9224556955
 21
97.7570948707
  0
LINE
  5
37E
100
AcDbEntity
  8
0
100
AcDbLine
 62
7
  6
CONTINUOUS
 10
153.904410537
 20
97.7390497123
 11
157.1574885798
 21
97.7377691522
  0
LWPOLYLINE
  5
37F
100
AcDbEntity
  8
0
100
AcDbPolyline
 62
7
  6
CONTINUOUS
 90
49
 70
0
 10
155.0346389518
 20
93.2758336324
 10
155.0054116039
 20
93.2880943707
 10
154.9762373222
 20
93.3036398564
 10
154.9472525245
 20
93.3221727918
 10
154.9184874503
 20
93.3435320228
 10
154.8903745853
 20
93.3676932531
 10
154.8636069396
 20
93.3943840731
 10
154.8383233294
 20
93.4237848197
 10
154.8149427554
 20
93.4556984477
 10
154.7943092542
 20
93.4889912354
 10
154.7765150374
 20
93.5233024791
 10
154.7615541527
 20
93.5584379937
 10
154.7496332101
 20
93.5933082889
 10
154.7405278881
 20
93.6273455713
 10
154.7338330607
 20
93.6606218757
 10
154.7292190427
 20
93.6930119386
 10
154.7263930545
 20
93.724310863
 10
154.7250970927
 20
93.7544739339
 10
154.7251842137
 20
93.7836592552
 10
154.7265544828
 20
93.8118284993
 10
154.7291040022
 20
93.8388899598
 10
154.7327499624
 20
93.8649442981
 10
154.7374101974
 20
93.8900028634
 10
154.7429898718
 20
93.9140227192
 10
154.749410057
 20
93.9370407535
 10
154.7565744381
 20
93.9590268719
 10
154.7643936244
 20
93.9799939004
 10
154.7728117057
 20
94.0000265416
 10
154.7817423203
 20
94.019099708
 10
154.7910948248
 20
94.0371783801
 10
154.8008390958
 20
94.0543348639
 10
154.8109098156
 20
94.0705604182
 10
154.8212408321
 20
94.0858463477
 10
154.8318242765
 20
94.1002635884
 10
154.8426302126
 20
94.1138376273
 10
154.8535885317
 20
94.1265768724
 10
154.8646377107
 20
94.1385636055
 10
154.8757261229
 20
94.1498844824
 10
154.8868044644
 20
94.1606140247
 10
154.8978182413
 20
94.1708091153
 10
154.908700562
 20
94.1805048859
 10
154.91943682
 20
94.1897719795
 10
154.930059495
 20
94.1987070089
 10
154.9405331941
 20
94.2073272624
 10
154.9508963218
 20
94.2154235136
 10
154.9613299114
 20
94.2226322153
 10
154.9719449286
 20
94.2285824558
 10
154.982770906
 20
94.2329223028
 10
154.9938566697
 20
94.2353846461
  0
LINE
  5
380
100
AcDbEntity
  8
0
100
AcDbLine
 62
7
  6
CONTINUOUS
 10
127.0716030563
 20
110.7736546757
 11
127.1217340623
 21
110.7235236696
  0
LINE
  5
381
100
AcDbEntity
  8
0
100
AcDbLine
 62
7
  6
CONTINUOUS
 10
140.1562080197
 20
97.7390497123
 11
140.1381628612
 21
97.7570948707
  0
LINE
  5
382
100
AcDbEntity
  8
0
100
AcDbLine
 62
7
  6
CONTINUOUS
 10
136.5865522784
 20
102.0649484536
 11
135.7175792784
 21
103.4455514536
  0
LINE
  5
383
100
AcDbEntity
  8
0
100
AcDbLine
 62
7
  6
CONTINUOUS
 10
135.7672662784
 20
103.7649484536
 11
136.6220782784
 21
102.3840654536
  0
LINE
  5
384
100
AcDbEntity
  8
0
100
AcDbLine
 62
7
  6
CONTINUOUS
 10
139.4219755
 20
95.1447356901
 11
139.5011423176
 21
94.9426080546
  0
LINE
  5
385
100
AcDbEntity
  8
0
100
AcDbLine
 62
253
  6
CONTINUOUS
 10
139.5726351143
 20
91.3874260147
 11
139.6168476886
 21
91.254680428
  0
LINE
  5
386
100
AcDbEntity
  8
0
100
AcDbLine
 62
7
  6
CONTINUOUS
 10
138.3136423176
 20
94.7809058896
 11
138.3532255
 21
94.6596293083
  0
LINE
  5
387
100
AcDbEntity
  8
0
100
AcDbLine
 62
7
  6
CONTINUOUS
 10
139.3032255
 20
94.9021824709
 11
139.2636423176
 21
95.0234591088
  0
LINE
  5
388
100
AcDbEntity
  8
0
100
AcDbLine
 62
7
  6
CONTINUOUS
 10
139.3823923176
 20
95.7915442368
 11
139.4219755
 21
95.6702676556
  0
LINE
  5
389
100
AcDbEntity
  8
0
100
AcDbLine
 62
7
  6
CONTINUOUS
 10
132.4903452784
 20
123.1963004536
 11
132.8524902784
 21
121.8885774536
  0
LINE
  5
38A
100
AcDbEntity
  8
0
100
AcDbLine
 62
7
  6
CONTINUOUS
 10
137.7198923176
 20
95.548990961
 11
137.7594755
 21
95.3468633255
  0
LWPOLYLINE
  5
38B
100
AcDbEntity
  8
0
100
AcDbPolyline
 62
253
  6
CONTINUOUS
 90
8
 70
0
 10
132.2437251767
 20
125.4748053396
 10
132.2430949548
 20
125.4780236967
 10
132.2424757072
 20
125.4837626991
 10
132.2418674338
 20
125.4920223469
 10
132.241266736
 20
125.5028719432
 10
132.2406770126
 20
125.5162421849
 10
132.2401084589
 20
125.5319251625
 10
132.2395617158
 20
125.5499564906
  0
LWPOLYLINE
  5
38C
100
AcDbEntity
  8
0
100
AcDbPolyline
 62
253
  6
CONTINUOUS
 90
8
 70
0
 10
139.31689338
 20
90.9550915676
 10
139.3175236019
 20
90.9518732105
 10
139.3181428495
 20
90.9461342081
 10
139.3187511229
 20
90.9378745603
 10
139.3193518207
 20
90.927024964
 10
139.3199415441
 20
90.9136547223
 10
139.3205100978
 20
90.8979717447
 10
139.3210568409
 20
90.8799404166
  0
LWPOLYLINE
  5
38D
100
AcDbEntity
  8
0
100
AcDbPolyline
 62
7
  6
CONTINUOUS
 90
34
 70
0
 10
135.5592138784
 20
114.6892707869
 10
135.5573773478
 20
114.7000193073
 10
135.555282148
 20
114.7107766089
 10
135.5526119585
 20
114.7214708388
 10
135.5494863445
 20
114.7321092234
 10
135.5459129608
 20
114.7426681113
 10
135.5418827657
 20
114.7531117266
 10
135.537393133
 20
114.763404782
 10
135.532443713
 20
114.7735380055
 10
135.5270250356
 20
114.7835125784
 10
135.5211533338
 20
114.7932795572
 10
135.5148186723
 20
114.8028420112
 10
135.5079568749
 20
114.8122687968
 10
135.500566781
 20
114.8215244989
 10
135.4926429884
 20
114.8305808199
 10
135.484093222
 20
114.8394971583
 10
135.4749060324
 20
114.8482347436
 10
135.4650827333
 20
114.856747215
 10
135.4545344643
 20
114.8650612614
 10
135.4432618616
 20
114.8731212674
 10
135.4312619272
 20
114.880880917
 10
135.4184280865
 20
114.8883573043
 10
135.4047347101
 20
114.8955060361
 10
135.3902173449
 20
114.9022556654
 10
135.3748570714
 20
114.9085688081
 10
135.358636667
 20
114.9144076476
 10
135.3416074669
 20
114.9197139123
 10
135.3238593408
 20
114.9244314172
 10
135.3054433523
 20
114.9285284793
 10
135.2863606995
 20
114.9319896948
 10
135.2666301171
 20
114.934796484
 10
135.2462749921
 20
114.9369315015
 10
135.2253224282
 20
114.9383820432
 10
135.2037986117
 20
114.9391416869
  0
LINE
  5
38E
100
AcDbEntity
  8
0
100
AcDbLine
 62
7
  6
CONTINUOUS
 10
136.5323923176
 20
95.0234591088
 11
136.5719755
 21
94.7809058896
  0
LINE
  5
38F
100
AcDbEntity
  8
0
100
AcDbLine
 62
7
  6
CONTINUOUS
 10
137.5615586823
 20
95.3064377984
 11
137.5219755
 21
95.548990961
  0
LINE
  5
390
100
AcDbEntity
  8
0
100
AcDbLine
 62
7
  6
CONTINUOUS
 10
138.1157255
 20
94.7404803625
 11
138.0761423176
 21
95.0234591088
  0
LINE
  5
391
100
AcDbEntity
  8
0
100
AcDbLine
 62
7
  6
CONTINUOUS
 10
136.1283432784
 20
123.1963004536
 11
136.3060002784
 21
121.2964544536
  0
LWPOLYLINE
  5
392
100
AcDbEntity
  8
0
100
AcDbPolyline
 62
253
  6
CONTINUOUS
 90
13
 70
0
 10
140.0437251767
 20
90.9550915676
 10
140.0411264806
 20
90.9941715441
 10
140.0334461982
 20
91.0325839827
 10
140.0208154611
 20
91.0696724199
 10
140.0034500098
 20
91.1048029902
 10
139.981646507
 20
91.1373752692
 10
139.9557774683
 20
91.1668325346
 10
139.9262848771
 20
91.1926712951
 10
139.8936727246
 20
91.2144498223
 10
139.8584984215
 20
91.2317957525
 10
139.8213631382
 20
91.2444125434
 10
139.7829015041
 20
91.2520845027
 10
139.7437708681
 20
91.254680428
  0
LINE
  5
393
100
AcDbEntity
  8
0
100
AcDbLine
 62
253
  6
CONTINUOUS
 10
139.3210568409
 20
90.8799404166
 11
139.3220785447
 21
90.8372543053
  0
LINE
  5
394
100
AcDbEntity
  8
0
100
AcDbLine
 62
253
  6
CONTINUOUS
 10
139.619901612
 20
91.188223183
 11
139.6210145545
 21
91.1342092411
  0
LINE
  5
395
100
AcDbEntity
  8
0
100
AcDbLine
 62
253
  6
CONTINUOUS
 10
139.3220785447
 20
90.8372543053
 11
139.3229815942
 21
90.7865055696
  0
LINE
  5
396
100
AcDbEntity
  8
0
100
AcDbLine
 62
253
  6
CONTINUOUS
 10
139.6210145545
 20
91.1342092411
 11
139.6224994599
 21
91.027066247
  0
LINE
  5
397
100
AcDbEntity
  8
0
100
AcDbLine
 62
253
  6
CONTINUOUS
 10
139.3229815942
 20
90.7865055696
 11
139.3240723607
 21
90.6978779469
  0
LINE
  5
398
100
AcDbEntity
  8
0
100
AcDbLine
 62
253
  6
CONTINUOUS
 10
139.6224994599
 20
91.027066247
 11
139.6240245188
 21
90.8436141193
  0
LINE
  5
399
100
AcDbEntity
  8
0
100
AcDbLine
 62
253
  6
CONTINUOUS
 10
139.3240723607
 20
90.6978779469
 11
139.3249612728
 21
90.5629584575
  0
LINE
  5
39A
100
AcDbEntity
  8
0
100
AcDbLine
 62
253
  6
CONTINUOUS
 10
139.6240245188
 20
90.8436141193
 11
139.6250946769
 21
90.5135694854
  0
LINE
  5
39B
100
AcDbEntity
  8
0
100
AcDbLine
 62
7
  6
CONTINUOUS
 10
139.2759772058
 20
87.3619296702
 11
139.2729403213
 21
91.0870579745
  0
LINE
  5
39C
100
AcDbEntity
  8
0
100
AcDbLine
 62
7
  6
CONTINUOUS
 10
137.5615586823
 20
95.0234591088
 11
137.5615586823
 21
95.3064377984
  0
LINE
  5
39D
100
AcDbEntity
  8
0
100
AcDbLine
 62
7
  6
CONTINUOUS
 10
137.7594755
 20
95.3468633255
 11
137.7594755
 21
94.9830335817
  0
LINE
  5
39E
100
AcDbEntity
  8
0
100
AcDbLine
 62
7
  6
CONTINUOUS
 10
137.8982262784
 20
102.0649484536
 11
137.8982262784
 21
103.7649484536
  0
LINE
  5
39F
100
AcDbEntity
  8
0
100
AcDbLine
 62
7
  6
CONTINUOUS
 10
137.9874572784
 20
113.2870714536
 11
137.9874572784
 21
115.1844644536
  0
LINE
  5
3A0
100
AcDbEntity
  8
0
100
AcDbLine
 62
7
  6
CONTINUOUS
 10
138.0471938811
 20
121.2964547076
 11
138.0471938811
 21
123.1741039123
  0
LINE
  5
3A1
100
AcDbEntity
  8
0
100
AcDbLine
 62
7
  6
CONTINUOUS
 10
138.0761423176
 20
95.0234591088
 11
138.0761423176
 21
95.3064377984
  0
LINE
  5
3A2
100
AcDbEntity
  8
0
100
AcDbLine
 62
7
  6
CONTINUOUS
 10
138.1279502784
 20
103.7649484536
 11
138.1279502784
 21
102.0649484536
  0
LINE
  5
3A3
100
AcDbEntity
  8
0
100
AcDbLine
 62
7
  6
CONTINUOUS
 10
138.2299362784
 20
114.9419874536
 11
138.2299362784
 21
113.5295484536
  0
LINE
  5
3A4
100
AcDbEntity
  8
0
100
AcDbLine
 62
7
  6
CONTINUOUS
 10
138.2740586823
 20
95.3064377984
 11
138.2740586823
 21
95.2255867443
  0
LINE
  5
3A5
100
AcDbEntity
  8
0
100
AcDbLine
 62
7
  6
CONTINUOUS
 10
138.3136423176
 20
94.9021824709
 11
138.3136423176
 21
94.7809058896
  0
LINE
  5
3A6
100
AcDbEntity
  8
0
100
AcDbLine
 62
7
  6
CONTINUOUS
 10
138.3741992784
 20
103.5613334536
 11
138.3741992784
 21
103.7649484536
  0
LINE
  5
3A7
100
AcDbEntity
  8
0
100
AcDbLine
 62
7
  6
CONTINUOUS
 10
138.4290207815
 20
122.8726428768
 11
138.4290207815
 21
122.3510981894
  0
LINE
  5
3A8
100
AcDbEntity
  8
0
100
AcDbLine
 62
7
  6
CONTINUOUS
 10
138.4421705232
 20
122.0399493701
 11
138.4421705232
 21
121.2964547076
  0
LINE
  5
3A9
100
AcDbEntity
  8
0
100
AcDbLine
 62
7
  6
CONTINUOUS
 10
138.5034722784
 20
114.0940574536
 11
138.5034722784
 21
114.3358394536
  0
LINE
  5
3AA
100
AcDbEntity
  8
0
100
AcDbLine
 62
7
  6
CONTINUOUS
 10
138.9495732784
 20
102.0649484536
 11
138.9495732784
 21
103.5613334536
  0
LINE
  5
3AB
100
AcDbEntity
  8
0
100
AcDbLine
 62
7
  6
CONTINUOUS
 10
139.066761887
 20
122.1945122611
 11
139.066761887
 21
122.1832858294
  0
LINE
  5
3AC
100
AcDbEntity
  8
0
100
AcDbLine
 62
7
  6
CONTINUOUS
 10
139.1792142784
 20
103.5613334536
 11
139.1792142784
 21
102.0649484536
  0
LINE
  5
3AD
100
AcDbEntity
  8
0
100
AcDbLine
 62
7
  6
CONTINUOUS
 10
139.2362522784
 20
114.3358394536
 11
139.2362522784
 21
114.0940574536
  0
LINE
  5
3AE
100
AcDbEntity
  8
0
100
AcDbLine
 62
7
  6
CONTINUOUS
 10
139.2700362784
 20
115.1844644536
 11
139.2700362784
 21
114.9419874536
  0
LINE
  5
3AF
100
AcDbEntity
  8
0
100
AcDbLine
 62
7
  6
CONTINUOUS
 10
139.2851792784
 20
113.5295484536
 11
139.2851792784
 21
113.2870714536
  0
LINE
  5
3B0
100
AcDbEntity
  8
0
100
AcDbLine
 62
7
  6
CONTINUOUS
 10
139.3032255
 20
94.7809058896
 11
139.3032255
 21
94.9021824709
  0
LINE
  5
3B1
100
AcDbEntity
  8
0
100
AcDbLine
 62
253
  6
CONTINUOUS
 10
139.3249612728
 20
90.5629584575
 11
139.3251641487
 21
87.2142488417
  0
LINE
  5
3B2
100
AcDbEntity
  8
0
100
AcDbLine
 62
7
  6
CONTINUOUS
 10
139.5011423176
 20
94.9426080546
 11
139.5011423176
 21
94.7404803625
  0
LINE
  5
3B3
100
AcDbEntity
  8
0
100
AcDbLine
 62
253
  6
CONTINUOUS
 10
139.6250946769
 20
90.5135694854
 11
139.6251184573
 21
87.1988009005
  0
LINE
  5
3B4
100
AcDbEntity
  8
0
100
AcDbLine
 62
7
  6
CONTINUOUS
 10
139.2729403213
 20
125.3428389327
 11
139.2759772058
 21
129.067967237
  0
LINE
  5
3B5
100
AcDbEntity
  8
0
100
AcDbLine
 62
253
  6
CONTINUOUS
 10
139.3249614375
 20
125.8669797041
 11
139.3251641487
 21
129.2156480655
  0
LINE
  5
3B6
100
AcDbEntity
  8
0
100
AcDbLine
 62
253
  6
CONTINUOUS
 10
139.6245536554
 20
125.6911626975
 11
139.6251184573
 21
129.2310960068
  0
LINE
  5
3B7
100
AcDbEntity
  8
0
100
AcDbLine
 62
253
  6
CONTINUOUS
 10
139.6233347831
 20
125.4894982541
 11
139.6245536554
 21
125.6911626975
  0
LINE
  5
3B8
100
AcDbEntity
  8
0
100
AcDbLine
 62
253
  6
CONTINUOUS
 10
139.3240721541
 20
125.7320003517
 11
139.3249614375
 21
125.8669797041
  0
LINE
  5
3B9
100
AcDbEntity
  8
0
100
AcDbLine
 62
253
  6
CONTINUOUS
 10
139.6220340991
 20
125.3638651221
 11
139.6233347831
 21
125.4894982541
  0
LINE
  5
3BA
100
AcDbEntity
  8
0
100
AcDbLine
 62
253
  6
CONTINUOUS
 10
139.322980664
 20
125.6433293781
 11
139.3240721541
 21
125.7320003517
  0
LINE
  5
3BB
100
AcDbEntity
  8
0
100
AcDbLine
 62
253
  6
CONTINUOUS
 10
139.6210144908
 20
125.2956876803
 11
139.6220340991
 21
125.3638651221
  0
LINE
  5
3BC
100
AcDbEntity
  8
0
100
AcDbLine
 62
253
  6
CONTINUOUS
 10
139.3220776451
 20
125.5925999442
 11
139.322980664
 21
125.6433293781
  0
LWPOLYLINE
  5
3BD
100
AcDbEntity
  8
0
100
AcDbPolyline
 62
7
  6
CONTINUOUS
 90
16
 70
0
 10
140.0872668993
 20
125.3440739446
 10
140.0856443418
 20
125.3125653292
 10
140.0807425044
 20
125.281388652
 10
140.0726110854
 20
125.2508856107
 10
140.0613237212
 20
125.22136206
 10
140.0470067397
 20
125.1931750363
 10
140.0298661738
 20
125.1667147327
 10
140.0101549023
 20
125.1423071873
 10
139.9880732788
 20
125.1201443241
 10
139.963788995
 20
125.1003887852
 10
139.9375148444
 20
125.0832361516
 10
139.9095712719
 20
125.0689157296
 10
139.88030408
 20
125.05761028
 10
139.8500504253
 20
125.0494426405
 10
139.8191277378
 20
125.0444893264
 10
139.7878740647
 20
125.0427992925
  0
LWPOLYLINE
  5
3BE
100
AcDbEntity
  8
0
100
AcDbPolyline
 62
253
  6
CONTINUOUS
 90
7
 70
0
 10
139.6168476886
 20
125.1752164792
 10
139.6174814786
 20
125.1803289807
 10
139.6181031595
 20
125.189590053
 10
139.6187127311
 20
125.2029512742
 10
139.619313222
 20
125.2203427987
 10
139.6199016037
 20
125.2416737114
 10
139.6210144908
 20
125.2956876803
  0
LINE
  5
3BF
100
AcDbEntity
  8
0
100
AcDbLine
 62
7
  6
CONTINUOUS
 10
136.5719755
 20
95.548990961
 11
136.5323923176
 21
95.3064377984
  0
LINE
  5
3C0
100
AcDbEntity
  8
0
100
AcDbLine
 62
7
  6
CONTINUOUS
 10
136.3344755
 20
95.3468633255
 11
136.3740586823
 21
95.548990961
  0
LINE
  5
3C1
100
AcDbEntity
  8
0
100
AcDbLine
 62
7
  6
CONTINUOUS
 10
133.0886422044
 20
95.6702676556
 11
133.0490587956
 21
95.548990961
  0
LINE
  5
3C2
100
AcDbEntity
  8
0
100
AcDbLine
 62
7
  6
CONTINUOUS
 10
133.9990589088
 20
95.3468633255
 11
134.0386420911
 21
95.4681399068
  0
LINE
  5
3C3
100
AcDbEntity
  8
0
100
AcDbLine
 62
7
  6
CONTINUOUS
 10
133.9990589088
 20
94.6596293083
 11
134.0386420911
 21
94.7809058896
  0
LINE
  5
3C4
100
AcDbEntity
  8
0
100
AcDbLine
 62
253
  6
CONTINUOUS
 10
131.9879834424
 20
91.3874260147
 11
131.9437708681
 21
91.254680428
  0
LINE
  5
3C5
100
AcDbEntity
  8
0
100
AcDbLine
 62
253
  6
CONTINUOUS
 10
132.2876782354
 20
91.0870579745
 11
132.2437251767
 21
90.9550915676
  0
LINE
  5
3C6
100
AcDbEntity
  8
0
100
AcDbLine
 62
7
  6
CONTINUOUS
 10
145.5523811745
 20
129.2310960068
 11
145.5029397224
 21
129.08265103
  0
LINE
  5
3C7
100
AcDbEntity
  8
0
100
AcDbLine
 62
7
  6
CONTINUOUS
 10
132.235454408
 20
87.2142488417
 11
132.2846413509
 21
87.3619296702
  0
LINE
  5
3C8
100
AcDbEntity
  8
0
100
AcDbLine
 62
7
  6
CONTINUOUS
 10
132.8511421478
 20
95.5894164881
 11
132.9303088522
 21
95.7915442368
  0
LINE
  5
3C9
100
AcDbEntity
  8
DRAFT
100
AcDbLine
 62
7
  6
CONTINUOUS
 10
126.0222067529
 20
87.1988009005
 11
126.0964454492
 21
87.3473801743
  0
LINE
  5
3CA
100
AcDbEntity
  8
0
100
AcDbLine
 62
7
  6
CONTINUOUS
 10
154.7573930567
 20
122.0532463311
 11
154.9553098744
 21
122.174522923
  0
LINE
  5
3CB
100
AcDbEntity
  8
0
100
AcDbLine
 62
7
  6
CONTINUOUS
 10
155.3907262391
 20
121.204310163
 11
155.5094762391
 21
121.2447356901
  0
LINE
  5
3CC
100
AcDbEntity
  8
0
100
AcDbLine
 62
7
  6
CONTINUOUS
 10
155.3907262391
 20
120.5170760891
 11
155.5094762391
 21
120.5575016162
  0
LINE
  5
3CD
100
AcDbEntity
  8
0
100
AcDbLine
 62
7
  6
CONTINUOUS
 10
160.3782263523
 20
122.0128207898
 11
160.2594763523
 21
121.9723952627
  0
LINE
  5
3CE
100
AcDbEntity
  8
0
100
AcDbLine
 62
7
  6
CONTINUOUS
 10
160.3782263523
 20
121.3255867443
 11
160.2594763523
 21
121.2851612172
  0
LINE
  5
3CF
100
AcDbEntity
  8
0
100
AcDbLine
 62
7
  6
CONTINUOUS
 10
135.1865589088
 20
95.2255867443
 11
135.0282255
 21
95.1851612172
  0
LINE
  5
3D0
100
AcDbEntity
  8
0
100
AcDbLine
 62
7
  6
CONTINUOUS
 10
133.2469755
 20
96.0745229265
 11
133.4448922044
 21
96.1149484536
  0
LINE
  5
3D1
100
AcDbEntity
  8
0
100
AcDbLine
 62
7
  6
CONTINUOUS
 10
157.1579059874
 20
98.6925451626
 11
153.9040075769
 21
98.6912501551
  0
LINE
  5
3D2
100
AcDbEntity
  8
0
100
AcDbLine
 62
253
  6
CONTINUOUS
 10
157.1381628612
 20
98.6728020365
 11
153.9224556955
 21
98.6728020365
  0
LINE
  5
3D3
100
AcDbEntity
  8
0
100
AcDbLine
 62
253
  6
CONTINUOUS
 10
140.1381628612
 20
98.6728020365
 11
136.9224556955
 21
98.6728020365
  0
LINE
  5
3D4
100
AcDbEntity
  8
0
100
AcDbLine
 62
7
  6
CONTINUOUS
 10
155.2289562784
 20
100.6423474536
 11
154.8860682784
 21
100.6423474536
  0
LINE
  5
3D5
100
AcDbEntity
  8
0
100
AcDbLine
 62
7
  6
CONTINUOUS
 10
140.1566109798
 20
98.6912501551
 11
136.9027125693
 21
98.6925451626
  0
LWPOLYLINE
  5
3D6
100
AcDbEntity
  8
0
100
AcDbPolyline
 62
7
  6
CONTINUOUS
 90
4
 70
0
 10
154.9938566697
 20
94.2466110778
 10
154.9722953884
 20
94.2566288933
 10
154.9524208245
 20
94.2685672163
 10
154.9341196212
 20
94.2821209381
  0
LINE
  5
3D7
100
AcDbEntity
  8
0
100
AcDbLine
 62
7
  6
CONTINUOUS
 10
135.5126493117
 20
113.2870714203
 11
134.9673854117
 21
114.3261991536
  0
LINE
  5
3D8
100
AcDbEntity
  8
0
100
AcDbLine
 62
7
  6
CONTINUOUS
 10
135.356908845
 20
114.1057256869
 11
135.786491245
 21
113.2870714203
  0
LINE
  5
3D9
100
AcDbEntity
  8
DRAFT
100
AcDbLine
 62
7
  6
CONTINUOUS
 10
126.0222067529
 20
129.2310960068
 11
126.0964454492
 21
129.0825167329
  0
LINE
  5
3DA
100
AcDbEntity
  8
0
100
AcDbLine
 62
7
  6
CONTINUOUS
 10
140.7206252784
 20
103.7649484536
 11
141.3363232784
 21
102.0649484536
  0
LINE
  5
3DB
100
AcDbEntity
  8
0
100
AcDbLine
 62
7
  6
CONTINUOUS
 10
141.0852762784
 20
102.0649484536
 11
140.9171732784
 21
102.5597564536
  0
LINE
  5
3DC
100
AcDbEntity
  8
0
100
AcDbLine
 62
7
  6
CONTINUOUS
 10
140.8342842784
 20
102.7633714536
 11
140.5809962784
 21
103.5183654536
  0
LINE
  5
3DD
100
AcDbEntity
  8
0
100
AcDbLine
 62
253
  6
CONTINUOUS
 10
131.9879834424
 20
125.0424708925
 11
131.9437708681
 21
125.1752164792
  0
LINE
  5
3DE
100
AcDbEntity
  8
0
100
AcDbLine
 62
253
  6
CONTINUOUS
 10
132.2876782354
 20
125.3428389327
 11
132.2437251767
 21
125.4748053396
  0
LINE
  5
3DF
100
AcDbEntity
  8
0
100
AcDbLine
 62
7
  6
CONTINUOUS
 10
145.5523811745
 20
87.1988009005
 11
145.5029397224
 21
87.3472458772
  0
LINE
  5
3E0
100
AcDbEntity
  8
0
100
AcDbLine
 62
7
  6
CONTINUOUS
 10
132.235454408
 20
129.2156480655
 11
132.2846413509
 21
129.067967237
  0
LINE
  5
3E1
100
AcDbEntity
  8
0
100
AcDbLine
 62
7
  6
CONTINUOUS
 10
132.6618332784
 20
121.2964544536
 11
132.0595452784
 21
123.1963004536
  0
LWPOLYLINE
  5
3E2
100
AcDbEntity
  8
0
100
AcDbPolyline
 62
253
  6
CONTINUOUS
 90
6
 70
0
 10
139.6168476886
 20
91.254680428
 10
139.6174814709
 20
91.2495679148
 10
139.6181031489
 20
91.2403068251
 10
139.6187127226
 20
91.2269455894
 10
139.6193132194
 20
91.2095540691
 10
139.619901612
 20
91.188223183
  0
LWPOLYLINE
  5
3E3
100
AcDbEntity
  8
0
100
AcDbPolyline
 62
253
  6
CONTINUOUS
 90
13
 70
0
 10
139.31689338
 20
125.4748053396
 10
139.3194920761
 20
125.4357253631
 10
139.3271723585
 20
125.3973129245
 10
139.3398030956
 20
125.3602244873
 10
139.3571685469
 20
125.325093917
 10
139.3789720497
 20
125.292521638
 10
139.4048410884
 20
125.2630643727
 10
139.4343336796
 20
125.2372256121
 10
139.4669458321
 20
125.2154470849
 10
139.5021201352
 20
125.1981011547
 10
139.5392554185
 20
125.1854843638
 10
139.5777170526
 20
125.1778124045
 10
139.6168476886
 20
125.1752164792
  0
LWPOLYLINE
  5
3E4
100
AcDbEntity
  8
0
100
AcDbPolyline
 62
7
  6
CONTINUOUS
 90
19
 70
0
 10
138.963717603
 20
122.6461769502
 10
138.9624315775
 20
122.6671885922
 10
138.9593094301
 20
122.6878243126
 10
138.9545022187
 20
122.7078951781
 10
138.9481816774
 20
122.7271578705
 10
138.9404682901
 20
122.7455434603
 10
138.9313721265
 20
122.7631327217
 10
138.9209559969
 20
122.7797986647
 10
138.9092993913
 20
122.7953880324
 10
138.8963442953
 20
122.8099020768
 10
138.88209666
 20
122.8232588728
 10
138.8667241885
 20
122.83537234
 10
138.8503820861
 20
122.8462142267
 10
138.8332286268
 20
122.855762491
 10
138.8153908066
 20
122.8640143985
 10
138.7969781528
 20
122.8709675234
 10
138.7781214086
 20
122.8766038717
 10
138.7589761192
 20
122.8808977305
 10
138.7396893887
 20
122.8838277373
  0
LINE
  5
3E5
100
AcDbEntity
  8
0
100
AcDbLine
 62
253
  6
CONTINUOUS
 10
140.0395617158
 20
125.5499564906
 11
140.038540012
 21
125.5926426019
  0
LINE
  5
3E6
100
AcDbEntity
  8
0
100
AcDbLine
 62
253
  6
CONTINUOUS
 10
139.7407169447
 20
125.2416737242
 11
139.7396040022
 21
125.2956876661
  0
LINE
  5
3E7
100
AcDbEntity
  8
0
100
AcDbLine
 62
253
  6
CONTINUOUS
 10
140.038540012
 20
125.5926426019
 11
140.0376369625
 21
125.6433913377
  0
LINE
  5
3E8
100
AcDbEntity
  8
0
100
AcDbLine
 62
253
  6
CONTINUOUS
 10
139.7396040022
 20
125.2956876661
 11
139.7381190968
 21
125.4028306603
  0
LINE
  5
3E9
100
AcDbEntity
  8
0
100
AcDbLine
 62
253
  6
CONTINUOUS
 10
140.0376369625
 20
125.6433913377
 11
140.036546196
 21
125.7320189603
  0
LINE
  5
3EA
100
AcDbEntity
  8
0
100
AcDbLine
 62
253
  6
CONTINUOUS
 10
139.7381190968
 20
125.4028306603
 11
139.7365940379
 21
125.5862827879
  0
LINE
  5
3EB
100
AcDbEntity
  8
0
100
AcDbLine
 62
253
  6
CONTINUOUS
 10
140.036546196
 20
125.7320189603
 11
140.0356572839
 21
125.8669384498
  0
LINE
  5
3EC
100
AcDbEntity
  8
0
100
AcDbLine
 62
253
  6
CONTINUOUS
 10
139.7365940379
 20
125.5862827879
 11
139.7355238798
 21
125.9163274218
  0
LINE
  5
3ED
100
AcDbEntity
  8
0
100
AcDbLine
 62
7
  6
CONTINUOUS
 10
140.0842669768
 20
129.0690912729
 11
140.0872668993
 21
125.3440739446
  0
LINE
  5
3EE
100
AcDbEntity
  8
0
100
AcDbLine
 62
7
  6
CONTINUOUS
 10
140.1566109798
 20
117.7386467521
 11
140.1562080197
 21
118.6908471949
  0
LINE
  5
3EF
100
AcDbEntity
  8
0
100
AcDbLine
 62
253
  6
CONTINUOUS
 10
139.7355238798
 20
125.9163274218
 11
139.7355000994
 21
129.2310960068
  0
LINE
  5
3F0
100
AcDbEntity
  8
0
100
AcDbLine
 62
7
  6
CONTINUOUS
 10
139.7545882784
 20
103.7649484536
 11
139.7545882784
 21
103.5613334536
  0
LINE
  5
3F1
100
AcDbEntity
  8
0
100
AcDbLine
 62
253
  6
CONTINUOUS
 10
140.0356572839
 20
125.8669384498
 11
140.035454408
 21
129.2156480655
  0
LINE
  5
3F2
100
AcDbEntity
  8
0
100
AcDbLine
 62
7
  6
CONTINUOUS
 10
141.5469502784
 20
102.0649484536
 11
141.5469502784
 21
103.7649484536
  0
LINE
  5
3F3
100
AcDbEntity
  8
0
100
AcDbLine
 62
7
  6
CONTINUOUS
 10
141.7766872784
 20
103.7649484536
 11
141.7766872784
 21
102.2685634536
  0
LINE
  5
3F4
100
AcDbEntity
  8
0
100
AcDbLine
 62
7
  6
CONTINUOUS
 10
140.1562080197
 20
97.7390497123
 11
140.1566109798
 21
98.6912501551
  0
LINE
  5
3F5
100
AcDbEntity
  8
0
100
AcDbLine
 62
7
  6
CONTINUOUS
 10
140.0872668993
 20
91.0858229626
 11
140.0842669768
 21
87.3608056344
  0
LINE
  5
3F6
100
AcDbEntity
  8
0
100
AcDbLine
 62
253
  6
CONTINUOUS
 10
140.0356571192
 20
90.5629172031
 11
140.035454408
 21
87.2142488417
  0
LINE
  5
3F7
100
AcDbEntity
  8
0
100
AcDbLine
 62
253
  6
CONTINUOUS
 10
139.7360649013
 20
90.7387342097
 11
139.7355000994
 21
87.1988009005
  0
LINE
  5
3F8
100
AcDbEntity
  8
0
100
AcDbLine
 62
253
  6
CONTINUOUS
 10
139.7372837736
 20
90.9403986531
 11
139.7360649013
 21
90.7387342097
  0
LINE
  5
3F9
100
AcDbEntity
  8
0
100
AcDbLine
 62
253
  6
CONTINUOUS
 10
140.0365464026
 20
90.6978965555
 11
140.0356571192
 21
90.5629172031
  0
LINE
  5
3FA
100
AcDbEntity
  8
0
100
AcDbLine
 62
253
  6
CONTINUOUS
 10
139.7385844576
 20
91.0660317852
 11
139.7372837736
 21
90.9403986531
  0
LINE
  5
3FB
100
AcDbEntity
  8
0
100
AcDbLine
 62
253
  6
CONTINUOUS
 10
140.0376378927
 20
90.7865675291
 11
140.0365464026
 21
90.6978965555
  0
LINE
  5
3FC
100
AcDbEntity
  8
0
100
AcDbLine
 62
253
  6
CONTINUOUS
 10
139.7396040659
 20
91.1342092269
 11
139.7385844576
 21
91.0660317852
  0
LINE
  5
3FD
100
AcDbEntity
  8
0
100
AcDbLine
 62
253
  6
CONTINUOUS
 10
140.0385409116
 20
90.837296963
 11
140.0376378927
 21
90.7865675291
  0
LWPOLYLINE
  5
3FE
100
AcDbEntity
  8
0
100
AcDbPolyline
 62
7
  6
CONTINUOUS
 90
16
 70
0
 10
139.2729403213
 20
91.0870579745
 10
139.2745641401
 20
91.1185596482
 10
139.2794697189
 20
91.1497189756
 10
139.2876070832
 20
91.1801944152
 10
139.2989024061
 20
91.2096795452
 10
139.3132290443
 20
91.2378184045
 10
139.3303808056
 20
91.2642233693
 10
139.3501046255
 20
91.2885680359
 10
139.3722005232
 20
91.310661266
 10
139.3965023071
 20
91.3303440277
 10
139.4227978297
 20
91.3474199091
 10
139.4507671214
 20
91.3616593302
 10
139.4800663719
 20
91.3728825293
 10
139.5103594306
 20
91.380966229
 10
139.5413284457
 20
91.3858309324
 10
139.5726351143
 20
91.3874260147
  0
LWPOLYLINE
  5
3FF
100
AcDbEntity
  8
0
100
AcDbPolyline
 62
253
  6
CONTINUOUS
 90
7
 70
0
 10
139.7437708681
 20
91.254680428
 10
139.7431370781
 20
91.2495679265
 10
139.7425153972
 20
91.2403068542
 10
139.7419058256
 20
91.2269456331
 10
139.7413053347
 20
91.2095541085
 10
139.740716953
 20
91.1882231958
 10
139.7396040659
 20
91.1342092269
  0
LINE
  5
400
100
AcDbEntity
  8
0
100
AcDbLine
 62
7
  6
CONTINUOUS
 10
138.0761423176
 20
95.3064377984
 11
138.1157255
 21
95.5894164881
  0
LINE
  5
401
100
AcDbEntity
  8
0
100
AcDbLine
 62
7
  6
CONTINUOUS
 10
137.5219755
 20
94.7809058896
 11
137.5615586823
 21
95.0234591088
  0
LINE
  5
402
100
AcDbEntity
  8
0
100
AcDbLine
 62
7
  6
CONTINUOUS
 10
138.3136423176
 20
95.548990961
 11
138.2740586823
 21
95.3064377984
  0
LINE
  5
403
100
AcDbEntity
  8
0
100
AcDbLine
 62
7
  6
CONTINUOUS
 10
137.7594755
 20
94.9830335817
 11
137.7198923176
 21
94.7809058896
  0
LINE
  5
404
100
AcDbEntity
  8
0
100
AcDbLine
 62
7
  6
CONTINUOUS
 10
135.7803089088
 20
94.6596293083
 11
135.8198920911
 21
94.7809058896
  0
LINE
  5
405
100
AcDbEntity
  8
0
100
AcDbLine
 62
7
  6
CONTINUOUS
 10
136.3740586823
 20
95.548990961
 11
136.4136423176
 21
95.6702676556
  0
LINE
  5
406
100
AcDbEntity
  8
0
100
AcDbLine
 62
7
  6
CONTINUOUS
 10
134.2365589088
 20
94.7404803625
 11
134.1573920911
 21
94.5383526987
  0
LINE
  5
407
100
AcDbEntity
  8
0
100
AcDbLine
 62
7
  6
CONTINUOUS
 10
136.0178086823
 20
94.7404803625
 11
135.9386423176
 21
94.5383526987
  0
LINE
  5
408
100
AcDbEntity
  8
0
100
AcDbLine
 62
7
  6
CONTINUOUS
 10
133.1678087956
 20
95.7915442368
 11
133.0886422044
 21
95.6702676556
  0
LINE
  5
409
100
AcDbEntity
  8
0
100
AcDbLine
 62
7
  6
CONTINUOUS
 10
154.9948930567
 20
121.9723952627
 11
154.8761430567
 21
121.8915442085
  0
LINE
  5
40A
100
AcDbEntity
  8
0
100
AcDbLine
 62
7
  6
CONTINUOUS
 10
155.5094762391
 20
121.2447356901
 11
155.6282262391
 21
121.3255867443
  0
LINE
  5
40B
100
AcDbEntity
  8
0
100
AcDbLine
 62
7
  6
CONTINUOUS
 10
156.8157262391
 20
121.9723952627
 11
156.6969762391
 21
121.8915442085
  0
LINE
  5
40C
100
AcDbEntity
  8
0
100
AcDbLine
 62
7
  6
CONTINUOUS
 10
155.7865598744
 20
121.204310163
 11
155.5490598744
 21
121.0426080546
  0
LINE
  5
40D
100
AcDbEntity
  8
0
100
AcDbLine
 62
7
  6
CONTINUOUS
 10
155.5094762391
 20
120.5575016162
 11
155.6282262391
 21
120.6383526704
  0
LINE
  5
40E
100
AcDbEntity
  8
0
100
AcDbLine
 62
7
  6
CONTINUOUS
 10
158.4782264656
 20
121.9723952627
 11
158.3594764656
 21
121.8915442085
  0
LINE
  5
40F
100
AcDbEntity
  8
0
100
AcDbLine
 62
7
  6
CONTINUOUS
 10
156.5782262391
 20
122.0532463311
 11
156.7761430567
 21
122.174522923
  0
LINE
  5
410
100
AcDbEntity
  8
0
100
AcDbLine
 62
7
  6
CONTINUOUS
 10
158.2407264656
 20
122.0532463311
 11
158.4386430567
 21
122.174522923
  0
LINE
  5
411
100
AcDbEntity
  8
0
100
AcDbLine
 62
7
  6
CONTINUOUS
 10
155.7469762391
 20
120.476650562
 11
155.5490598744
 21
120.3553739807
  0
LINE
  5
412
100
AcDbEntity
  8
0
100
AcDbLine
 62
7
  6
CONTINUOUS
 10
157.4490598744
 20
120.476650562
 11
157.2511430567
 21
120.3553739807
  0
LINE
  5
413
100
AcDbEntity
  8
0
100
AcDbLine
 62
7
  6
CONTINUOUS
 10
160.0219764656
 20
122.0532463311
 11
160.2198930567
 21
122.174522923
  0
LINE
  5
414
100
AcDbEntity
  8
0
100
AcDbLine
 62
7
  6
CONTINUOUS
 10
160.6553097611
 20
120.5170760891
 11
160.7740597611
 21
120.5575016162
  0
LWPOLYLINE
  5
415
100
AcDbEntity
  8
0
100
AcDbPolyline
 62
7
  6
CONTINUOUS
 90
6
 70
0
 10
159.093233145
 20
102.1036977536
 10
159.0664672437
 20
102.1013856577
 10
159.0397463886
 20
102.1004205263
 10
159.0130888926
 20
102.1004455238
 10
158.9865490862
 20
102.1011117678
 10
158.9336726936
 20
102.1030296714
  0
LWPOLYLINE
  5
416
100
AcDbEntity
  8
0
100
AcDbPolyline
 62
7
  6
CONTINUOUS
 90
34
 70
0
 10
131.5846532415
 20
102.2614144536
 10
131.6123238515
 20
102.2628579859
 10
131.6399323917
 20
102.2658294871
 10
131.6673709769
 20
102.2703360988
 10
131.694536085
 20
102.2763861933
 10
131.7213143592
 20
102.2839862182
 10
131.7475889358
 20
102.2931368833
 10
131.7732649579
 20
102.3038420084
 10
131.7982420832
 20
102.316103276
 10
131.8224027254
 20
102.3299031187
 10
131.8456435771
 20
102.3451831431
 10
131.8678821868
 20
102.3618828297
 10
131.8890345923
 20
102.37994409
 10
131.9090057579
 20
102.3993013806
 10
131.9277187009
 20
102.4198821313
 10
131.9451539814
 20
102.4415930142
 10
131.9612903828
 20
102.4643237422
 10
131.9761028907
 20
102.487958803
 10
131.9895725431
 20
102.5123927208
 10
132.0016822047
 20
102.5375286785
 10
132.0124045183
 20
102.5632387429
 10
132.0218050217
 20
102.5893857652
 10
132.0300481348
 20
102.6158917251
 10
132.0372963753
 20
102.6426698237
 10
132.0437001329
 20
102.6695803905
 10
132.049376849
 20
102.6965134145
 10
132.0543469476
 20
102.7234899309
 10
132.0586103236
 20
102.7505686698
 10
132.0621515452
 20
102.7777426058
 10
132.0649535112
 20
102.8049928884
 10
132.0670036247
 20
102.8323590228
 10
132.068282067
 20
102.8598344211
 10
132.068766633
 20
102.8873734027
 10
132.0684365907
 20
102.9149484536
  0
LINE
  5
417
100
AcDbEntity
  8
0
100
AcDbLine
 62
7
  6
CONTINUOUS
 10
159.1041757318
 20
101.4896010709
 11
159.6313840784
 21
101.4906380536
  0
LINE
  5
418
100
AcDbEntity
  8
0
100
AcDbLine
 62
7
  6
CONTINUOUS
 10
155.3159572784
 20
101.0722504536
 11
155.6588602784
 21
101.0722504536
  0
LINE
  5
419
100
AcDbEntity
  8
0
100
AcDbLine
 62
7
  6
CONTINUOUS
 10
156.6639012784
 20
101.2386664536
 11
156.3210122784
 21
101.2386664536
  0
LINE
  5
41A
100
AcDbEntity
  8
0
100
AcDbLine
 62
7
  6
CONTINUOUS
 10
157.9616272784
 20
101.2422654536
 11
157.7191492784
 21
101.2422654536
  0
LINE
  5
41B
100
AcDbEntity
  8
0
100
AcDbLine
 62
7
  6
CONTINUOUS
 10
156.0731612784
 20
101.2454324536
 11
154.7905822784
 21
101.2454324536
  0
LINE
  5
41C
100
AcDbEntity
  8
0
100
AcDbLine
 62
7
  6
CONTINUOUS
 10
160.0949772784
 20
101.2481604536
 11
159.8813832784
 21
101.2481604536
  0
LINE
  5
41D
100
AcDbEntity
  8
0
100
AcDbLine
 62
7
  6
CONTINUOUS
 10
159.6313840784
 20
101.2481606869
 11
158.8684261583
 21
101.2481606869
  0
LINE
  5
41E
100
AcDbEntity
  8
0
100
AcDbLine
 62
7
  6
CONTINUOUS
 10
154.7905822784
 20
101.4879094536
 11
155.8306822784
 21
101.4879094536
  0
LINE
  5
41F
100
AcDbEntity
  8
0
100
AcDbLine
 62
7
  6
CONTINUOUS
 10
143.5879122784
 20
102.0649484536
 11
143.3583132784
 21
102.0649484536
  0
LINE
  5
420
100
AcDbEntity
  8
0
100
AcDbLine
 62
7
  6
CONTINUOUS
 10
142.6385802784
 20
102.0649484536
 11
141.5469502784
 21
102.0649484536
  0
LINE
  5
421
100
AcDbEntity
  8
0
100
AcDbLine
 62
7
  6
CONTINUOUS
 10
141.3363232784
 20
102.0649484536
 11
141.0852762784
 21
102.0649484536
  0
LINE
  5
422
100
AcDbEntity
  8
0
100
AcDbLine
 62
7
  6
CONTINUOUS
 10
140.0576182784
 20
102.0649484536
 11
139.8208832784
 21
102.0649484536
  0
LINE
  5
423
100
AcDbEntity
  8
0
100
AcDbLine
 62
7
  6
CONTINUOUS
 10
139.1792142784
 20
102.0649484536
 11
138.9495732784
 21
102.0649484536
  0
LINE
  5
424
100
AcDbEntity
  8
0
100
AcDbLine
 62
7
  6
CONTINUOUS
 10
138.1279502784
 20
102.0649484536
 11
137.8982262784
 21
102.0649484536
  0
LINE
  5
425
100
AcDbEntity
  8
0
100
AcDbLine
 62
7
  6
CONTINUOUS
 10
136.8446252784
 20
102.0649484536
 11
136.5865522784
 21
102.0649484536
  0
LINE
  5
426
100
AcDbEntity
  8
0
100
AcDbLine
 62
7
  6
CONTINUOUS
 10
135.7175792784
 20
102.0649484536
 11
135.4949232784
 21
102.0649484536
  0
LINE
  5
427
100
AcDbEntity
  8
0
100
AcDbLine
 62
7
  6
CONTINUOUS
 10
135.1019362784
 20
102.0649484536
 11
134.8722812784
 21
102.0649484536
  0
LINE
  5
428
100
AcDbEntity
  8
0
100
AcDbLine
 62
7
  6
CONTINUOUS
 10
133.8777982784
 20
102.0649484536
 11
132.6228372784
 21
102.0649484536
  0
LINE
  5
429
100
AcDbEntity
  8
0
100
AcDbLine
 62
7
  6
CONTINUOUS
 10
131.5904909969
 20
102.0649484536
 11
130.9014582784
 21
102.0649484536
  0
LINE
  5
42A
100
AcDbEntity
  8
0
100
AcDbLine
 62
7
  6
CONTINUOUS
 10
130.6789112784
 20
102.0649484536
 11
130.4279052784
 21
102.0649484536
  0
LINE
  5
42B
100
AcDbEntity
  8
0
100
AcDbLine
 62
7
  6
CONTINUOUS
 10
129.4003442784
 20
102.0649484536
 11
129.1635952784
 21
102.0649484536
  0
LINE
  5
42C
100
AcDbEntity
  8
0
100
AcDbLine
 62
7
  6
CONTINUOUS
 10
128.9599662784
 20
102.0649484536
 11
128.7373232784
 21
102.0649484536
  0
LINE
  5
42D
100
AcDbEntity
  8
0
100
AcDbLine
 62
7
  6
CONTINUOUS
 10
128.2591012784
 20
102.0649484536
 11
128.0317932784
 21
102.0649484536
  0
LINE
  5
42E
100
AcDbEntity
  8
0
100
AcDbLine
 62
7
  6
CONTINUOUS
 10
127.5534792784
 20
102.0649484536
 11
127.3309262784
 21
102.0649484536
  0
LINE
  5
42F
100
AcDbEntity
  8
0
100
AcDbLine
 62
7
  6
CONTINUOUS
 10
155.5571462784
 20
102.0940574536
 11
154.8243662784
 21
102.0940574536
  0
LINE
  5
430
100
AcDbEntity
  8
0
100
AcDbLine
 62
7
  6
CONTINUOUS
 10
160.3789532784
 20
102.0990234536
 11
160.1238612784
 21
102.0990234536
  0
LINE
  5
431
100
AcDbEntity
  8
0
100
AcDbLine
 62
7
  6
CONTINUOUS
 10
131.1311952784
 20
102.2614144536
 11
131.5846532415
 21
102.2614144536
  0
LINE
  5
432
100
AcDbEntity
  8
0
100
AcDbLine
 62
7
  6
CONTINUOUS
 10
132.8525602784
 20
102.2685634536
 11
133.8777982784
 21
102.2685634536
  0
LINE
  5
433
100
AcDbEntity
  8
0
100
AcDbLine
 62
7
  6
CONTINUOUS
 10
141.7766872784
 20
102.2685634536
 11
142.6385802784
 21
102.2685634536
  0
LINE
  5
434
100
AcDbEntity
  8
0
100
AcDbLine
 62
7
  6
CONTINUOUS
 10
154.8243662784
 20
102.3358394536
 11
155.5571462784
 21
102.3358394536
  0
LINE
  5
435
100
AcDbEntity
  8
0
100
AcDbLine
 62
7
  6
CONTINUOUS
 10
160.1238612784
 20
102.3415004536
 11
160.3789532784
 21
102.3415004536
  0
LINE
  5
436
100
AcDbEntity
  8
0
100
AcDbLine
 62
7
  6
CONTINUOUS
 10
140.9171732784
 20
102.5597564536
 11
140.2352352784
 21
102.5597564536
  0
LINE
  5
437
100
AcDbEntity
  8
0
100
AcDbLine
 62
7
  6
CONTINUOUS
 10
130.2598162784
 20
102.5597564536
 11
129.5779462784
 21
102.5597564536
  0
LINE
  5
438
100
AcDbEntity
  8
0
100
AcDbLine
 62
7
  6
CONTINUOUS
 10
129.6489992784
 20
102.7633714536
 11
130.1770092784
 21
102.7633714536
  0
LINE
  5
439
100
AcDbEntity
  8
0
100
AcDbLine
 62
7
  6
CONTINUOUS
 10
140.3062732784
 20
102.7633714536
 11
140.8342842784
 21
102.7633714536
  0
LINE
  5
43A
100
AcDbEntity
  8
0
100
AcDbLine
 62
7
  6
CONTINUOUS
 10
133.7830712784
 20
102.8367884536
 11
132.8525602784
 21
102.8367884536
  0
LINE
  5
43B
100
AcDbEntity
  8
0
100
AcDbLine
 62
7
  6
CONTINUOUS
 10
155.8306822784
 20
102.9003484536
 11
154.7754392784
 21
102.9003484536
  0
LINE
  5
43C
100
AcDbEntity
  8
0
100
AcDbLine
 62
7
  6
CONTINUOUS
 10
132.8525602784
 20
103.0404034536
 11
133.7830712784
 21
103.0404034536
  0
LINE
  5
43D
100
AcDbEntity
  8
0
100
AcDbLine
 62
7
  6
CONTINUOUS
 10
154.7754392784
 20
103.1428254536
 11
156.0731612784
 21
103.1428254536
  0
LINE
  5
43E
100
AcDbEntity
  8
0
100
AcDbLine
 62
7
  6
CONTINUOUS
 10
156.3231612784
 20
103.1428254536
 11
156.6660502784
 21
103.1428254536
  0
LINE
  5
43F
100
AcDbEntity
  8
0
100
AcDbLine
 62
7
  6
CONTINUOUS
 10
157.7191492784
 20
103.1428254536
 11
157.9616272784
 21
103.1428254536
  0
LINE
  5
440
100
AcDbEntity
  8
0
100
AcDbLine
 62
7
  6
CONTINUOUS
 10
158.2741273117
 20
103.1428254869
 11
158.547969245
 21
103.1428254869
  0
LINE
  5
441
100
AcDbEntity
  8
0
100
AcDbLine
 62
7
  6
CONTINUOUS
 10
159.8813832784
 20
103.1523204536
 11
160.1238612784
 21
103.1523204536
  0
LINE
  5
442
100
AcDbEntity
  8
0
100
AcDbLine
 62
7
  6
CONTINUOUS
 10
161.4161172784
 20
103.1523204536
 11
161.7362522784
 21
103.1523204536
  0
LWPOLYLINE
  5
443
100
AcDbEntity
  8
0
100
AcDbPolyline
 62
7
  6
CONTINUOUS
 90
3
 70
0
 10
158.856819945
 20
101.4907552203
 10
158.9380674944
 20
101.4901130531
 10
159.1041757318
 20
101.4896010709
  0
LWPOLYLINE
  5
444
100
AcDbEntity
  8
0
100
AcDbPolyline
 62
7
  6
CONTINUOUS
 90
25
 70
0
 10
158.9336726936
 20
102.1030296714
 10
158.9072624098
 20
102.1036306292
 10
158.8808912291
 20
102.1035594468
 10
158.8544561053
 20
102.1024851484
 10
158.827930788
 20
102.100161926
 10
158.8014492362
 20
102.0965165261
 10
158.7751548846
 20
102.0914607057
 10
158.749162632
 20
102.0849129053
 10
158.7235713201
 20
102.0767927778
 10
158.698526729
 20
102.0670300945
 10
158.6741678063
 20
102.0555635194
 10
158.6506700609
 20
102.0423579525
 10
158.6282486327
 20
102.027425696
 10
158.6070944463
 20
102.0107968636
 10
158.5873726518
 20
101.9925147053
 10
158.5692588031
 20
101.972659158
 10
158.5529617
 20
101.951402081
 10
158.5385759362
 20
101.9288258592
 10
158.526139833
 20
101.9048807888
 10
158.515816368
 20
101.8797033155
 10
158.5077789062
 20
101.8534846578
 10
158.5021145833
 20
101.8262583308
 10
158.4990798491
 20
101.7981689204
 10
158.4987793127
 20
101.769531895
 10
158.5014046784
 20
101.7406261203
  0
LWPOLYLINE
  5
445
100
AcDbEntity
  8
0
100
AcDbPolyline
 62
7
  6
CONTINUOUS
 90
34
 70
0
 10
158.8684261583
 20
101.2481606868
 10
158.8187947903
 20
101.2495428438
 10
158.7688819332
 20
101.2538549018
 10
158.7188975788
 20
101.2613722637
 10
158.6688717035
 20
101.2724574236
 10
158.6193870979
 20
101.2873826927
 10
158.5715316085
 20
101.3061321637
 10
158.5257145439
 20
101.3287588106
 10
158.4823529678
 20
101.3552447231
 10
158.4424225971
 20
101.3850243712
 10
158.4065510806
 20
101.4173637113
 10
158.3744894112
 20
101.4521378945
 10
158.3458808105
 20
101.4896085162
 10
158.3210517805
 20
101.5293104262
 10
158.3000950625
 20
101.5710119766
 10
158.282751392
 20
101.6155995625
 10
158.2692531405
 20
101.6633309538
 10
158.2603172316
 20
101.7133145535
 10
158.2562619283
 20
101.7646549409
 10
158.2572287231
 20
101.8169253207
 10
158.2633654429
 20
101.8695714984
 10
158.2746137515
 20
101.9214837403
 10
158.2908491251
 20
101.9720061159
 10
158.3119646261
 20
102.0208149677
 10
158.3377238433
 20
102.0673340189
 10
158.3679475881
 20
102.1112199806
 10
158.4022809546
 20
102.1519640976
 10
158.4400156641
 20
102.1889013372
 10
158.480738698
 20
102.2218986995
 10
158.5238952214
 20
102.2507946115
 10
158.5683418867
 20
102.2752488369
 10
158.6133126224
 20
102.2953995102
 10
158.6585484629
 20
102.3116679635
 10
158.7037097117
 20
102.3241712203
  0
LWPOLYLINE
  5
446
100
AcDbEntity
  8
0
100
AcDbPolyline
 62
7
  6
CONTINUOUS
 90
34
 70
0
 10
131.5977190122
 20
103.7649484536
 10
131.6355137129
 20
103.7638820658
 10
131.6732291263
 20
103.7610066339
 10
131.7107615259
 20
103.7562872852
 10
131.7479866919
 20
103.7496936192
 10
131.7848234131
 20
103.7411890673
 10
131.821226994
 20
103.7307199924
 10
131.8570628209
 20
103.718234108
 10
131.892114243
 20
103.7036949038
 10
131.926177225
 20
103.6870648216
 10
131.9590575748
 20
103.6683030908
 10
131.9905706399
 20
103.6473775322
 10
132.0206653119
 20
103.6244220314
 10
132.0494095696
 20
103.5997042669
 10
132.0768876349
 20
103.5734860186
 10
132.1031527856
 20
103.5459904463
 10
132.1280338542
 20
103.5172330589
 10
132.1512508466
 20
103.4871711649
 10
132.1725170757
 20
103.4557765701
 10
132.1916818588
 20
103.4230450805
 10
132.2089291541
 20
103.3891983522
 10
132.2244932104
 20
103.3545582053
 10
132.2386368263
 20
103.3194024956
 10
132.2515593267
 20
103.2839031585
 10
132.263200568
 20
103.2480953136
 10
132.2734487704
 20
103.2120046502
 10
132.2822036346
 20
103.1756240825
 10
132.2893928311
 20
103.1389159222
 10
132.295072146
 20
103.1019502118
 10
132.2993552629
 20
103.0648074486
 10
132.3023589724
 20
103.0274990569
 10
132.3041892486
 20
102.990050976
 10
132.3049498147
 20
102.9525220568
 10
132.3047474411
 20
102.9149484536
  0
LWPOLYLINE
  5
447
100
AcDbEntity
  8
0
100
AcDbPolyline
 62
7
  6
CONTINUOUS
 90
17
 70
0
 10
154.9341196212
 20
94.2821209381
 10
154.9172922852
 20
94.297001861
 10
154.901828787
 20
94.3129585614
 10
154.8876130628
 20
94.3297816171
 10
154.8745947623
 20
94.3472099374
 10
154.8626517707
 20
94.3650987835
 10
154.8515958505
 20
94.3834705558
 10
154.8413797965
 20
94.4021787225
 10
154.8319513083
 20
94.4210977381
 10
154.823164491
 20
94.4403310852
 10
154.814993337
 20
94.4597747499
 10
154.8074170531
 20
94.4793129905
 10
154.8003394114
 20
94.4990466592
 10
154.7937277192
 20
94.5189438626
 10
154.787578011
 20
94.5388452056
 10
154.7817903851
 20
94.5587585972
 10
154.7762364795
 20
94.5787432092
  0
LINE
  5
448
100
AcDbEntity
  8
0
100
AcDbLine
 62
7
  6
CONTINUOUS
 10
143.3583132784
 20
102.7492104536
 11
142.7166712784
 21
103.7649484536
  0
LINE
  5
449
100
AcDbEntity
  8
0
100
AcDbLine
 62
7
  6
CONTINUOUS
 10
142.9842172784
 20
103.7649484536
 11
143.4720132784
 21
102.9480134536
  0
LINE
  5
44A
100
AcDbEntity
  8
0
100
AcDbLine
 62
7
  6
CONTINUOUS
 10
135.3094262784
 20
121.2964544536
 11
134.8441992784
 21
122.5370184536
  0
LINE
  5
44B
100
AcDbEntity
  8
0
100
AcDbLine
 62
7
  6
CONTINUOUS
 10
134.9470172784
 20
123.1963004536
 11
135.3394012784
 21
122.1415004536
  0
LINE
  5
44C
100
AcDbEntity
  8
0
100
AcDbLine
 62
7
  6
CONTINUOUS
 10
137.3478212784
 20
123.1963004536
 11
137.9307412784
 21
121.2964544536
  0
LINE
  5
44D
100
AcDbEntity
  8
0
100
AcDbLine
 62
7
  6
CONTINUOUS
 10
137.5127702784
 20
121.2964544536
 11
137.4100372784
 21
121.6757314536
  0
LINE
  5
44E
100
AcDbEntity
  8
0
100
AcDbLine
 62
7
  6
CONTINUOUS
 10
137.3307822784
 20
121.9692144536
 11
137.1485522784
 21
122.6742714536
  0
LWPOLYLINE
  5
44F
100
AcDbEntity
  8
0
100
AcDbPolyline
 62
253
  6
CONTINUOUS
 90
6
 70
0
 10
139.7437708681
 20
125.1752164792
 10
139.7431370858
 20
125.1803289924
 10
139.7425154078
 20
125.1895900821
 10
139.7419058341
 20
125.2029513178
 10
139.7413053373
 20
125.2203428381
 10
139.7407169447
 20
125.2416737242
  0
LINE
  5
450
100
AcDbEntity
  8
0
100
AcDbLine
 62
7
  6
CONTINUOUS
 10
142.6385802784
 20
102.2685634536
 11
142.6385802784
 21
102.0649484536
  0
LINE
  5
451
100
AcDbEntity
  8
0
100
AcDbLine
 62
7
  6
CONTINUOUS
 10
143.3583132784
 20
102.0649484536
 11
143.3583132784
 21
102.7492104536
  0
LINE
  5
452
100
AcDbEntity
  8
0
100
AcDbLine
 62
7
  6
CONTINUOUS
 10
143.5879122784
 20
102.7492104536
 11
143.5879122784
 21
102.0649484536
  0
LINE
  5
453
100
AcDbEntity
  8
0
100
AcDbLine
 62
7
  6
CONTINUOUS
 10
144.3803092784
 20
105.6560998647
 11
144.3803092784
 21
107.1649484536
  0
LINE
  5
454
100
AcDbEntity
  8
0
100
AcDbLine
 62
7
  6
CONTINUOUS
 10
144.3803092784
 20
109.2649484536
 11
144.3803092784
 21
110.7737970425
  0
LWPOLYLINE
  5
455
100
AcDbEntity
  8
0
100
AcDbPolyline
 62
253
  6
CONTINUOUS
 90
9
 70
0
 10
140.0437251767
 20
90.9550915676
 10
140.0430944652
 20
90.9518650569
 10
140.0424749317
 20
90.9461211924
 10
140.0418665762
 20
90.9378599743
 10
140.0412660752
 20
90.9270121905
 10
140.0406767522
 20
90.9136470529
 10
140.0401085773
 20
90.8979721978
 10
140.0395621413
 20
90.8799538091
 10
140.0385409116
 20
90.837296963
  0
LINE
  5
456
100
AcDbEntity
  8
0
100
AcDbLine
 62
7
  6
CONTINUOUS
 10
137.7198923176
 20
94.7809058896
 11
137.6803086823
 21
94.6596293083
  0
LINE
  5
457
100
AcDbEntity
  8
0
100
AcDbLine
 62
7
  6
CONTINUOUS
 10
138.3532255
 20
95.6702676556
 11
138.3136423176
 21
95.548990961
  0
LINE
  5
458
100
AcDbEntity
  8
0
100
AcDbLine
 62
7
  6
CONTINUOUS
 10
138.3532255
 20
95.0234591088
 11
138.3136423176
 21
94.9021824709
  0
LINE
  5
459
100
AcDbEntity
  8
0
100
AcDbLine
 62
7
  6
CONTINUOUS
 10
139.2636423176
 20
94.6596293083
 11
139.3032255
 21
94.7809058896
  0
LINE
  5
45A
100
AcDbEntity
  8
0
100
AcDbLine
 62
7
  6
CONTINUOUS
 10
140.2352352784
 20
102.5597564536
 11
140.0576182784
 21
102.0649484536
  0
LINE
  5
45B
100
AcDbEntity
  8
0
100
AcDbLine
 62
7
  6
CONTINUOUS
 10
140.5809962784
 20
103.5183654536
 11
140.3062732784
 21
102.7633714536
  0
LINE
  5
45C
100
AcDbEntity
  8
0
100
AcDbLine
 62
7
  6
CONTINUOUS
 10
139.8208832784
 20
102.0649484536
 11
140.4602152784
 21
103.7649484536
  0
LINE
  5
45D
100
AcDbEntity
  8
0
100
AcDbLine
 62
7
  6
CONTINUOUS
 10
138.1157255
 20
95.5894164881
 11
138.1948923176
 21
95.7915442368
  0
LINE
  5
45E
100
AcDbEntity
  8
0
100
AcDbLine
 62
7
  6
CONTINUOUS
 10
136.4136423176
 20
95.6702676556
 11
136.4928086823
 21
95.8319697639
  0
LINE
  5
45F
100
AcDbEntity
  8
0
100
AcDbLine
 62
7
  6
CONTINUOUS
 10
137.6803086823
 20
94.6596293083
 11
137.6011423176
 21
94.4979271716
  0
LINE
  5
460
100
AcDbEntity
  8
0
100
AcDbLine
 62
7
  6
CONTINUOUS
 10
133.9198922044
 20
95.2255867443
 11
133.9990589088
 21
95.3468633255
  0
LINE
  5
461
100
AcDbEntity
  8
0
100
AcDbLine
 62
7
  6
CONTINUOUS
 10
133.9198922044
 20
94.5383526987
 11
133.9990589088
 21
94.6596293083
  0
LINE
  5
462
100
AcDbEntity
  8
0
100
AcDbLine
 62
7
  6
CONTINUOUS
 10
132.9303088522
 20
95.7915442368
 11
133.0490587956
 21
95.9532463452
  0
LINE
  5
463
100
AcDbEntity
  8
0
100
AcDbLine
 62
7
  6
CONTINUOUS
 10
134.1573920911
 20
94.5383526987
 11
134.0386420911
 21
94.3766505761
  0
LINE
  5
464
100
AcDbEntity
  8
0
100
AcDbLine
 62
7
  6
CONTINUOUS
 10
132.0594755
 20
95.8319697639
 11
132.2969755
 21
96.1149484536
  0
LINE
  5
465
100
AcDbEntity
  8
0
100
AcDbLine
 62
7
  6
CONTINUOUS
 10
132.2969755
 20
95.7915442368
 11
132.0594755
 21
95.5085654339
  0
LINE
  5
466
100
AcDbEntity
  8
0
100
AcDbLine
 62
7
  6
CONTINUOUS
 10
155.6282262391
 20
121.3255867443
 11
155.7073930567
 21
121.4064377984
  0
LINE
  5
467
100
AcDbEntity
  8
0
100
AcDbLine
 62
7
  6
CONTINUOUS
 10
156.4594762391
 20
121.9319697356
 11
156.5782262391
 21
122.0532463311
  0
LINE
  5
468
100
AcDbEntity
  8
0
100
AcDbLine
 62
7
  6
CONTINUOUS
 10
145.5888844944
 20
110.7235236696
 11
145.6343037978
 21
110.768942973
  0
LINE
  5
469
100
AcDbEntity
  8
0
100
AcDbLine
 62
7
  6
CONTINUOUS
 10
159.0323930567
 20
121.2447356901
 11
159.1907264656
 21
121.3660122713
  0
LINE
  5
46A
100
AcDbEntity
  8
0
100
AcDbLine
 62
7
  6
CONTINUOUS
 10
157.2115598744
 20
120.5575016162
 11
157.3303098744
 21
120.6383526704
  0
LINE
  5
46B
100
AcDbEntity
  8
0
100
AcDbLine
 62
7
  6
CONTINUOUS
 10
160.2594763523
 20
121.9723952627
 11
160.1407263523
 21
121.8915442085
  0
LINE
  5
46C
100
AcDbEntity
  8
0
100
AcDbLine
 62
7
  6
CONTINUOUS
 10
159.9823930567
 20
121.3255867443
 11
160.2198930567
 21
121.4872888526
  0
LINE
  5
46D
100
AcDbEntity
  8
0
100
AcDbLine
 62
7
  6
CONTINUOUS
 10
160.2594763523
 20
121.2851612172
 11
160.1407263523
 21
121.204310163
  0
LINE
  5
46E
100
AcDbEntity
  8
0
100
AcDbLine
 62
7
  6
CONTINUOUS
 10
160.7740597611
 20
120.5575016162
 11
160.8928097611
 21
120.6383526704
  0
LINE
  5
46F
100
AcDbEntity
  8
0
100
AcDbLine
 62
7
  6
CONTINUOUS
 10
159.2698930567
 20
121.1638846359
 11
159.0719764656
 21
121.0426080546
  0
LINE
  5
470
100
AcDbEntity
  8
0
100
AcDbLine
 62
7
  6
CONTINUOUS
 10
161.0115597611
 20
120.476650562
 11
160.8136430567
 21
120.3553739807
  0
LINE
  5
471
100
AcDbEntity
  8
0
100
AcDbLine
 62
7
  6
CONTINUOUS
 10
144.3803092784
 20
105.6560998647
 11
145.4950777326
 21
105.6576450118
  0
LINE
  5
472
100
AcDbEntity
  8
0
100
AcDbLine
 62
7
  6
CONTINUOUS
 10
165.7303092784
 20
105.6547036292
 11
166.9890155004
 21
105.6562422315
  0
LINE
  5
473
100
AcDbEntity
  8
0
100
AcDbLine
 62
253
  6
CONTINUOUS
 10
169.3139265837
 20
103.4253079273
 11
168.0720177811
 21
103.4253079273
  0
LINE
  5
474
100
AcDbEntity
  8
0
100
AcDbLine
 62
253
  6
CONTINUOUS
 10
125.9886007756
 20
103.4253079273
 11
124.746691973
 21
103.4253079273
  0
LINE
  5
475
100
AcDbEntity
  8
0
100
AcDbLine
 62
7
  6
CONTINUOUS
 10
139.7545882784
 20
103.5613334536
 11
139.1792142784
 21
103.5613334536
  0
LINE
  5
476
100
AcDbEntity
  8
0
100
AcDbLine
 62
7
  6
CONTINUOUS
 10
138.9495732784
 20
103.5613334536
 11
138.3741992784
 21
103.5613334536
  0
LINE
  5
477
100
AcDbEntity
  8
0
100
AcDbLine
 62
7
  6
CONTINUOUS
 10
133.8612042784
 20
103.5613334536
 11
132.8525602784
 21
103.5613334536
  0
LINE
  5
478
100
AcDbEntity
  8
0
100
AcDbLine
 62
7
  6
CONTINUOUS
 10
131.5846532415
 20
103.5684824536
 11
131.1311952784
 21
103.5684824536
  0
LINE
  5
479
100
AcDbEntity
  8
0
100
AcDbLine
 62
7
  6
CONTINUOUS
 10
127.3309262784
 20
103.7649484536
 11
127.6600492784
 21
103.7649484536
  0
LINE
  5
47A
100
AcDbEntity
  8
0
100
AcDbLine
 62
7
  6
CONTINUOUS
 10
128.6331782784
 20
103.7649484536
 11
128.9599662784
 21
103.7649484536
  0
LINE
  5
47B
100
AcDbEntity
  8
0
100
AcDbLine
 62
7
  6
CONTINUOUS
 10
129.8028442784
 20
103.7649484536
 11
130.0633372784
 21
103.7649484536
  0
LINE
  5
47C
100
AcDbEntity
  8
0
100
AcDbLine
 62
7
  6
CONTINUOUS
 10
130.9014582784
 20
103.7649484536
 11
131.5977190122
 21
103.7649484536
  0
LINE
  5
47D
100
AcDbEntity
  8
0
100
AcDbLine
 62
7
  6
CONTINUOUS
 10
132.6228372784
 20
103.7649484536
 11
133.8612042784
 21
103.7649484536
  0
LINE
  5
47E
100
AcDbEntity
  8
0
100
AcDbLine
 62
7
  6
CONTINUOUS
 10
134.8722812784
 20
103.7649484536
 11
135.1019362784
 21
103.7649484536
  0
LINE
  5
47F
100
AcDbEntity
  8
0
100
AcDbLine
 62
7
  6
CONTINUOUS
 10
135.4949232784
 20
103.7649484536
 11
135.7672662784
 21
103.7649484536
  0
LINE
  5
480
100
AcDbEntity
  8
0
100
AcDbLine
 62
7
  6
CONTINUOUS
 10
136.6220782784
 20
103.7649484536
 11
136.8446252784
 21
103.7649484536
  0
LINE
  5
481
100
AcDbEntity
  8
0
100
AcDbLine
 62
7
  6
CONTINUOUS
 10
137.8982262784
 20
103.7649484536
 11
138.1279502784
 21
103.7649484536
  0
LINE
  5
482
100
AcDbEntity
  8
0
100
AcDbLine
 62
7
  6
CONTINUOUS
 10
138.3741992784
 20
103.7649484536
 11
139.7545882784
 21
103.7649484536
  0
LINE
  5
483
100
AcDbEntity
  8
0
100
AcDbLine
 62
7
  6
CONTINUOUS
 10
140.4602152784
 20
103.7649484536
 11
140.7206252784
 21
103.7649484536
  0
LINE
  5
484
100
AcDbEntity
  8
0
100
AcDbLine
 62
7
  6
CONTINUOUS
 10
141.5469502784
 20
103.7649484536
 11
141.7766872784
 21
103.7649484536
  0
LINE
  5
485
100
AcDbEntity
  8
0
100
AcDbLine
 62
7
  6
CONTINUOUS
 10
142.7166712784
 20
103.7649484536
 11
142.9842172784
 21
103.7649484536
  0
LINE
  5
486
100
AcDbEntity
  8
0
100
AcDbLine
 62
7
  6
CONTINUOUS
 10
143.9596712784
 20
103.7649484536
 11
144.2296922784
 21
103.7649484536
  0
LINE
  5
487
100
AcDbEntity
  8
0
100
AcDbLine
 62
253
  6
CONTINUOUS
 10
169.3042940551
 20
103.9605350721
 11
168.0623852525
 21
103.9605350721
  0
LINE
  5
488
100
AcDbEntity
  8
0
100
AcDbLine
 62
253
  6
CONTINUOUS
 10
125.9982333042
 20
103.9605350721
 11
124.7563245016
 21
103.9605350721
  0
LINE
  5
489
100
AcDbEntity
  8
0
100
AcDbLine
 62
253
  6
CONTINUOUS
 10
169.2402716086
 20
104.6156490345
 11
167.998362806
 21
104.6156490345
  0
LINE
  5
48A
100
AcDbEntity
  8
0
100
AcDbLine
 62
253
  6
CONTINUOUS
 10
126.0622557507
 20
104.6156490345
 11
124.8203469481
 21
104.6156490345
  0
LINE
  5
48B
100
AcDbEntity
  8
0
100
AcDbLine
 62
253
  6
CONTINUOUS
 10
169.2305673554
 20
105.0986119476
 11
167.9886585529
 21
105.0986119476
  0
LINE
  5
48C
100
AcDbEntity
  8
0
100
AcDbLine
 62
253
  6
CONTINUOUS
 10
126.0719600038
 20
105.0986119476
 11
124.8300512013
 21
105.0986119476
  0
LINE
  5
48D
100
AcDbEntity
  8
0
100
AcDbLine
 62
7
  6
CONTINUOUS
 10
148.5622319017
 20
105.6609539342
 11
148.4263147589
 21
105.6609539342
  0
LINE
  5
48E
100
AcDbEntity
  8
0
100
AcDbLine
 62
7
  6
CONTINUOUS
 10
145.498386655
 20
105.6609539342
 11
145.6343037978
 21
105.6609539342
  0
LINE
  5
48F
100
AcDbEntity
  8
0
100
AcDbLine
 62
253
  6
CONTINUOUS
 10
127.1217340623
 20
105.7063732376
 11
128.3303092784
 21
105.7063732376
  0
LINE
  5
490
100
AcDbEntity
  8
0
100
AcDbLine
 62
253
  6
CONTINUOUS
 10
144.3803092784
 20
105.7063732376
 11
145.5888844944
 21
105.7063732376
  0
LINE
  5
491
100
AcDbEntity
  8
0
100
AcDbLine
 62
253
  6
CONTINUOUS
 10
148.4717340623
 20
105.7063732376
 11
149.6803092784
 21
105.7063732376
  0
LINE
  5
492
100
AcDbEntity
  8
0
100
AcDbLine
 62
253
  6
CONTINUOUS
 10
165.7303092784
 20
105.7063732376
 11
166.9388844944
 21
105.7063732376
  0
LINE
  5
493
100
AcDbEntity
  8
0
100
AcDbLine
 62
7
  6
CONTINUOUS
 10
127.0716030563
 20
105.6562422315
 11
128.3303092784
 21
105.6547036292
  0
LINE
  5
494
100
AcDbEntity
  8
0
100
AcDbLine
 62
7
  6
CONTINUOUS
 10
148.5655408241
 20
105.6576450118
 11
149.6803092784
 21
105.6560998647
  0
LINE
  5
495
100
AcDbEntity
  8
0
100
AcDbLine
 62
7
  6
CONTINUOUS
 10
137.3945682784
 20
113.2870714536
 11
136.4435642784
 21
114.2380774536
  0
LINE
  5
496
100
AcDbEntity
  8
0
100
AcDbLine
 62
7
  6
CONTINUOUS
 10
136.7864822784
 20
114.2380764536
 11
137.7374572784
 21
113.2870714536
  0
LINE
  5
497
100
AcDbEntity
  8
0
100
AcDbLine
 62
7
  6
CONTINUOUS
 10
145.5888844944
 20
105.7063732376
 11
145.6343037978
 21
105.6609539342
  0
LWPOLYLINE
  5
498
100
AcDbEntity
  8
0
100
AcDbPolyline
 62
7
  6
CONTINUOUS
 90
19
 70
0
 10
138.8760101142
 20
121.872669731
 10
138.8697930101
 20
121.8879416412
 10
138.8627263294
 20
121.9029323339
 10
138.8548490628
 20
121.9175447096
 10
138.8462184733
 20
121.9316557459
 10
138.8368558146
 20
121.9452072406
 10
138.8267298313
 20
121.9581946184
 10
138.8158549553
 20
121.9705291161
 10
138.8042584699
 20
121.9821062552
 10
138.7919038555
 20
121.9928764875
 10
138.7787627302
 20
122.0027574795
 10
138.7648846108
 20
122.011600726
 10
138.7503507653
 20
122.0192583207
 10
138.7352497423
 20
122.0256683711
 10
138.7196707056
 20
122.0308631894
 10
138.7037192397
 20
122.0348684271
 10
138.6875092163
 20
122.0377048782
 10
138.6711638981
 20
122.0393916862
 10
138.6548031298
 20
122.0399493701
  0
LWPOLYLINE
  5
499
100
AcDbEntity
  8
0
100
AcDbPolyline
 62
7
  6
CONTINUOUS
 90
4
 70
0
 10
138.9350015349
 20
121.6922550755
 10
138.9163872035
 20
121.7540122965
 10
138.8968596241
 20
121.8141984439
 10
138.8760100933
 20
121.8726697231
  0
LINE
  5
49A
100
AcDbEntity
  8
0
100
AcDbLine
 62
7
  6
CONTINUOUS
 10
139.0494663437
 20
121.2964547076
 11
138.9902297894
 21
121.4992673049
  0
LINE
  5
49B
100
AcDbEntity
  8
0
100
AcDbLine
 62
7
  6
CONTINUOUS
 10
138.9902297894
 20
121.4992673049
 11
138.9350015349
 21
121.6922550755
  0
LINE
  5
49C
100
AcDbEntity
  8
0
100
AcDbLine
 62
7
  6
CONTINUOUS
 10
139.2843820772
 20
121.851153698
 11
139.3112942719
 21
121.7516648507
  0
LINE
  5
49D
100
AcDbEntity
  8
0
100
AcDbLine
 62
7
  6
CONTINUOUS
 10
139.4161708649
 20
121.3516052697
 11
139.4309228288
 21
121.2964547076
  0
LINE
  5
49E
100
AcDbEntity
  8
0
100
AcDbLine
 62
7
  6
CONTINUOUS
 10
139.3112942719
 20
121.7516648507
 11
139.3422006456
 21
121.6350390803
  0
LINE
  5
49F
100
AcDbEntity
  8
0
100
AcDbLine
 62
7
  6
CONTINUOUS
 10
139.3422006456
 20
121.6350390803
 11
139.4161708649
 21
121.3516052697
  0
LWPOLYLINE
  5
4A0
100
AcDbEntity
  8
0
100
AcDbPolyline
 62
253
  6
CONTINUOUS
 90
8
 70
0
 10
140.0437251767
 20
125.4748053396
 10
140.0430949548
 20
125.4780236967
 10
140.0424757072
 20
125.4837626991
 10
140.0418674338
 20
125.4920223469
 10
140.041266736
 20
125.5028719432
 10
140.0406770126
 20
125.5162421849
 10
140.0401084589
 20
125.5319251625
 10
140.0395617158
 20
125.5499564906
  0
LWPOLYLINE
  5
4A1
100
AcDbEntity
  8
0
100
AcDbPolyline
 62
7
  6
CONTINUOUS
 90
3
 70
0
 10
145.4950777326
 20
105.6576450118
 10
145.4955344562
 20
102.60473877
 10
145.5029397224
 20
87.3472458772
  0
LINE
  5
4A2
100
AcDbEntity
  8
0
100
AcDbLine
 62
7
  6
CONTINUOUS
 10
144.8553092784
 20
107.1649484536
 11
144.8553092784
 21
109.2649484536
  0
LINE
  5
4A3
100
AcDbEntity
  8
0
100
AcDbLine
 62
7
  6
CONTINUOUS
 10
145.5523811745
 20
129.2310960068
 11
145.5523811745
 21
125.7149484536
  0
LINE
  5
4A4
100
AcDbEntity
  8
0
100
AcDbLine
 62
7
  6
CONTINUOUS
 10
145.5523811745
 20
87.1988009005
 11
145.5523811745
 21
90.7149484536
  0
LINE
  5
4A5
100
AcDbEntity
  8
0
100
AcDbLine
 62
7
  6
CONTINUOUS
 10
145.5803092784
 20
110.2235998221
 11
145.5803092784
 21
109.5649484536
  0
LINE
  5
4A6
100
AcDbEntity
  8
0
100
AcDbLine
 62
7
  6
CONTINUOUS
 10
145.5803092784
 20
106.8649484536
 11
145.5803092784
 21
106.2062970852
  0
LINE
  5
4A7
100
AcDbEntity
  8
RACCORDO
100
AcDbLine
 62
7
  6
CONTINUOUS
 10
146.8303066738
 20
129.8998467512
 11
146.8303066738
 21
125.7149484536
  0
LINE
  5
4A8
100
AcDbEntity
  8
RACCORDO
100
AcDbLine
 62
7
  6
CONTINUOUS
 10
146.8303066738
 20
86.530050156
 11
146.8303066738
 21
90.7149484536
  0
LINE
  5
4A9
100
AcDbEntity
  8
RACCORDO
100
AcDbLine
 62
7
  6
CONTINUOUS
 10
147.2303118829
 20
129.8998467512
 11
147.2303118829
 21
125.7149484536
  0
LINE
  5
4AA
100
AcDbEntity
  8
RACCORDO
100
AcDbLine
 62
7
  6
CONTINUOUS
 10
147.2303118829
 20
86.530050156
 11
147.2303118829
 21
90.7149484536
  0
LINE
  5
4AB
100
AcDbEntity
  8
0
100
AcDbLine
 62
7
  6
CONTINUOUS
 10
145.5029397224
 20
129.08265103
 11
145.4950777326
 21
110.7722518954
  0
LINE
  5
4AC
100
AcDbEntity
  8
0
100
AcDbLine
 62
253
  6
CONTINUOUS
 10
139.7878740647
 20
91.3870976147
 11
139.7437708681
 21
91.254680428
  0
LINE
  5
4AD
100
AcDbEntity
  8
0
100
AcDbLine
 62
253
  6
CONTINUOUS
 10
140.0872668993
 20
91.0858229626
 11
140.0437251767
 21
90.9550915676
  0
LINE
  5
4AE
100
AcDbEntity
  8
0
100
AcDbLine
 62
7
  6
CONTINUOUS
 10
140.035454408
 20
87.2142488417
 11
140.0842669768
 21
87.3608056344
  0
LINE
  5
4AF
100
AcDbEntity
  8
0
100
AcDbLine
 62
7
  6
CONTINUOUS
 10
154.0251641487
 20
129.2156480655
 11
153.9763515799
 21
129.0690912729
  0
LINE
  5
4B0
100
AcDbEntity
  8
0
100
AcDbLine
 62
7
  6
CONTINUOUS
 10
139.5011423176
 20
94.7404803625
 11
139.4219755
 21
94.5383526987
  0
LINE
  5
4B1
100
AcDbEntity
  8
0
100
AcDbLine
 62
7
  6
CONTINUOUS
 10
143.4720132784
 20
102.9480134536
 11
143.9596712784
 21
103.7649484536
  0
LINE
  5
4B2
100
AcDbEntity
  8
0
100
AcDbLine
 62
7
  6
CONTINUOUS
 10
149.8309262784
 20
112.6649484536
 11
150.4727062784
 21
113.6806864536
  0
LINE
  5
4B3
100
AcDbEntity
  8
0
100
AcDbLine
 62
7
  6
CONTINUOUS
 10
144.2296922784
 20
103.7649484536
 11
143.5879122784
 21
102.7492104536
  0
LINE
  5
4B4
100
AcDbEntity
  8
0
100
AcDbLine
 62
7
  6
CONTINUOUS
 10
135.7011420911
 20
94.5383526987
 11
135.7803089088
 21
94.6596293083
  0
LINE
  5
4B5
100
AcDbEntity
  8
0
100
AcDbLine
 62
7
  6
CONTINUOUS
 10
136.7303086823
 20
95.7915442368
 11
136.5719755
 21
95.548990961
  0
LINE
  5
4B6
100
AcDbEntity
  8
0
100
AcDbLine
 62
7
  6
CONTINUOUS
 10
154.8761430567
 20
121.8915442085
 11
154.7969762391
 21
121.7702675989
  0
LINE
  5
4B7
100
AcDbEntity
  8
0
100
AcDbLine
 62
7
  6
CONTINUOUS
 10
137.3636423176
 20
94.5383526987
 11
137.5219755
 21
94.7809058896
  0
LINE
  5
4B8
100
AcDbEntity
  8
0
100
AcDbLine
 62
7
  6
CONTINUOUS
 10
138.4323923176
 20
95.7915442368
 11
138.3532255
 21
95.6702676556
  0
LINE
  5
4B9
100
AcDbEntity
  8
0
100
AcDbLine
 62
7
  6
CONTINUOUS
 10
154.6386430567
 20
121.8915442085
 11
154.7573930567
 21
122.0532463311
  0
LINE
  5
4BA
100
AcDbEntity
  8
0
100
AcDbLine
 62
7
  6
CONTINUOUS
 10
155.8657262391
 20
120.6383526704
 11
155.7469762391
 21
120.476650562
  0
LINE
  5
4BB
100
AcDbEntity
  8
0
100
AcDbLine
 62
7
  6
CONTINUOUS
 10
138.1948923176
 20
95.7915442368
 11
138.3136423176
 21
95.9532463452
  0
LINE
  5
4BC
100
AcDbEntity
  8
0
100
AcDbLine
 62
7
  6
CONTINUOUS
 10
135.9386423176
 20
94.5383526987
 11
135.8198920911
 21
94.3766505761
  0
LINE
  5
4BD
100
AcDbEntity
  8
0
100
AcDbLine
 62
7
  6
CONTINUOUS
 10
157.5678098744
 20
120.5979271433
 11
157.4490598744
 21
120.476650562
  0
LINE
  5
4BE
100
AcDbEntity
  8
0
100
AcDbLine
 62
7
  6
CONTINUOUS
 10
153.9040075769
 20
117.7386467521
 11
153.9224556955
 21
117.7570948707
  0
LINE
  5
4BF
100
AcDbEntity
  8
0
100
AcDbLine
 62
7
  6
CONTINUOUS
 10
148.5655408241
 20
110.7722518954
 11
148.5622319017
 21
110.768942973
  0
LINE
  5
4C0
100
AcDbEntity
  8
0
100
AcDbLine
 62
7
  6
CONTINUOUS
 10
157.1574885798
 20
118.692127755
 11
157.1381628612
 21
118.6728020365
  0
LINE
  5
4C1
100
AcDbEntity
  8
0
100
AcDbLine
 62
7
  6
CONTINUOUS
 10
136.9031299769
 20
97.7377691522
 11
136.9224556955
 21
97.7570948707
  0
LINE
  5
4C2
100
AcDbEntity
  8
0
100
AcDbLine
 62
253
  6
CONTINUOUS
 10
127.1303092784
 20
106.2062970852
 11
128.3303092784
 21
106.2062970852
  0
LINE
  5
4C3
100
AcDbEntity
  8
0
100
AcDbLine
 62
253
  6
CONTINUOUS
 10
144.3803092784
 20
106.2062970852
 11
145.5803092784
 21
106.2062970852
  0
LINE
  5
4C4
100
AcDbEntity
  8
0
100
AcDbLine
 62
253
  6
CONTINUOUS
 10
148.4803092784
 20
106.2062970852
 11
149.6803092784
 21
106.2062970852
  0
LINE
  5
4C5
100
AcDbEntity
  8
0
100
AcDbLine
 62
253
  6
CONTINUOUS
 10
165.7303092784
 20
106.2062970852
 11
166.9303092784
 21
106.2062970852
  0
LINE
  5
4C6
100
AcDbEntity
  8
0
100
AcDbLine
 62
253
  6
CONTINUOUS
 10
145.5803092784
 20
106.8649484536
 11
144.3803092784
 21
106.8649484536
  0
LINE
  5
4C7
100
AcDbEntity
  8
0
100
AcDbLine
 62
253
  6
CONTINUOUS
 10
128.3303092784
 20
106.8649484536
 11
127.1303092784
 21
106.8649484536
  0
LINE
  5
4C8
100
AcDbEntity
  8
0
100
AcDbLine
 62
253
  6
CONTINUOUS
 10
148.4803092784
 20
106.8649484536
 11
149.6803092784
 21
106.8649484536
  0
LINE
  5
4C9
100
AcDbEntity
  8
0
100
AcDbLine
 62
253
  6
CONTINUOUS
 10
165.7303092784
 20
106.8649484536
 11
166.9303092784
 21
106.8649484536
  0
LINE
  5
4CA
100
AcDbEntity
  8
0
100
AcDbLine
 62
7
  6
CONTINUOUS
 10
145.5855457978
 20
107.1649484536
 11
144.3803092784
 21
107.1649484536
  0
LINE
  5
4CB
100
AcDbEntity
  8
0
100
AcDbLine
 62
7
  6
CONTINUOUS
 10
128.3303092784
 20
107.1649484536
 11
127.1250727589
 21
107.1649484536
  0
LINE
  5
4CC
100
AcDbEntity
  8
0
100
AcDbLine
 62
7
  6
CONTINUOUS
 10
148.4750727589
 20
107.1649484536
 11
149.6803092784
 21
107.1649484536
  0
LINE
  5
4CD
100
AcDbEntity
  8
0
100
AcDbLine
 62
7
  6
CONTINUOUS
 10
165.7303092784
 20
107.1649484536
 11
166.9355457978
 21
107.1649484536
  0
LINE
  5
4CE
100
AcDbEntity
  8
0
100
AcDbLine
 62
7
  6
CONTINUOUS
 10
153.9040075769
 20
98.6912501551
 11
153.9224556955
 21
98.6728020365
  0
LINE
  5
4CF
100
AcDbEntity
  8
0
100
AcDbLine
 62
7
  6
CONTINUOUS
 10
148.5655408241
 20
105.6576450118
 11
148.5622319017
 21
105.6609539342
  0
LINE
  5
4D0
100
AcDbEntity
  8
0
100
AcDbLine
 62
7
  6
CONTINUOUS
 10
157.1574885798
 20
97.7377691522
 11
157.1381628612
 21
97.7570948707
  0
LINE
  5
4D1
100
AcDbEntity
  8
0
100
AcDbLine
 62
7
  6
CONTINUOUS
 10
136.9031299769
 20
118.692127755
 11
136.9224556955
 21
118.6728020365
  0
LINE
  5
4D2
100
AcDbEntity
  8
0
100
AcDbLine
 62
253
  6
CONTINUOUS
 10
139.7878740647
 20
125.0427992925
 11
139.7437708681
 21
125.1752164792
  0
LINE
  5
4D3
100
AcDbEntity
  8
0
100
AcDbLine
 62
253
  6
CONTINUOUS
 10
140.0872668993
 20
125.3440739446
 11
140.0437251767
 21
125.4748053396
  0
LINE
  5
4D4
100
AcDbEntity
  8
0
100
AcDbLine
 62
7
  6
CONTINUOUS
 10
140.035454408
 20
129.2156480655
 11
140.0842669768
 21
129.0690912729
  0
LINE
  5
4D5
100
AcDbEntity
  8
0
100
AcDbLine
 62
7
  6
CONTINUOUS
 10
154.0251641487
 20
87.2142488417
 11
153.9763515799
 21
87.3608056344
  0
LINE
  5
4D6
100
AcDbEntity
  8
0
100
AcDbLine
 62
7
  6
CONTINUOUS
 10
148.5655408241
 20
110.7722518954
 11
148.5576788343
 21
129.08265103
  0
LINE
  5
4D7
100
AcDbEntity
  8
0
100
AcDbLine
 62
7
  6
CONTINUOUS
 10
148.4803092784
 20
106.2062970852
 11
148.4803092784
 21
106.8649484536
  0
LINE
  5
4D8
100
AcDbEntity
  8
0
100
AcDbLine
 62
7
  6
CONTINUOUS
 10
148.4803092784
 20
109.5649484536
 11
148.4803092784
 21
110.2235998221
  0
LINE
  5
4D9
100
AcDbEntity
  8
0
100
AcDbLine
 62
7
  6
CONTINUOUS
 10
148.5082373822
 20
129.2310960068
 11
148.5082373822
 21
125.7149484536
  0
LINE
  5
4DA
100
AcDbEntity
  8
0
100
AcDbLine
 62
7
  6
CONTINUOUS
 10
148.5082373822
 20
87.1988009005
 11
148.5082373822
 21
90.7149484536
  0
LINE
  5
4DB
100
AcDbEntity
  8
0
100
AcDbLine
 62
7
  6
CONTINUOUS
 10
149.2053092784
 20
109.2649484536
 11
149.2053092784
 21
107.1649484536
  0
LINE
  5
4DC
100
AcDbEntity
  8
0
100
AcDbLine
 62
7
  6
CONTINUOUS
 10
149.6803092784
 20
105.6560998647
 11
149.6803092784
 21
107.1649484536
  0
LINE
  5
4DD
100
AcDbEntity
  8
0
100
AcDbLine
 62
7
  6
CONTINUOUS
 10
149.6803092784
 20
109.2649484536
 11
149.6803092784
 21
110.7737970425
  0
LWPOLYLINE
  5
4DE
100
AcDbEntity
  8
0
100
AcDbPolyline
 62
7
  6
CONTINUOUS
 90
3
 70
0
 10
148.5576788343
 20
87.3472458772
 10
148.5598427742
 20
90.3978066041
 10
148.5655408241
 20
105.6576450118
  0
LINE
  5
4DF
100
AcDbEntity
  8
0
100
AcDbLine
 62
253
  6
CONTINUOUS
 10
153.9733516574
 20
125.3440739446
 11
154.01689338
 21
125.4748053396
  0
LINE
  5
4E0
100
AcDbEntity
  8
0
100
AcDbLine
 62
253
  6
CONTINUOUS
 10
154.272744492
 20
125.0427992925
 11
154.3168476886
 21
125.1752164792
  0
LINE
  5
4E1
100
AcDbEntity
  8
0
100
AcDbLine
 62
7
  6
CONTINUOUS
 10
154.5594762391
 20
121.6894165447
 11
154.6386430567
 21
121.8915442085
  0
LINE
  5
4E2
100
AcDbEntity
  8
0
100
AcDbLine
 62
7
  6
CONTINUOUS
 10
156.3803098744
 20
121.7702675989
 11
156.4594762391
 21
121.9319697356
  0
LINE
  5
4E3
100
AcDbEntity
  8
0
100
AcDbLine
 62
7
  6
CONTINUOUS
 10
150.5886052784
 20
113.4818834536
 11
150.1009472784
 21
112.6649484536
  0
LINE
  5
4E4
100
AcDbEntity
  8
0
100
AcDbLine
 62
7
  6
CONTINUOUS
 10
155.6282262391
 20
120.6383526704
 11
155.7073930567
 21
120.7596292517
  0
LINE
  5
4E5
100
AcDbEntity
  8
0
100
AcDbLine
 62
7
  6
CONTINUOUS
 10
156.6969762391
 20
121.8915442085
 11
156.5386430567
 21
121.6489910176
  0
LINE
  5
4E6
100
AcDbEntity
  8
0
100
AcDbLine
 62
7
  6
CONTINUOUS
 10
139.1844755
 20
94.5383526987
 11
139.2636423176
 21
94.6596293083
  0
LINE
  5
4E7
100
AcDbEntity
  8
0
100
AcDbLine
 62
7
  6
CONTINUOUS
 10
157.3303098744
 20
120.6383526704
 11
157.4886430567
 21
120.8809059462
  0
LINE
  5
4E8
100
AcDbEntity
  8
0
100
AcDbLine
 62
7
  6
CONTINUOUS
 10
158.3594764656
 20
121.8915442085
 11
158.2803096479
 21
121.7702675989
  0
LINE
  5
4E9
100
AcDbEntity
  8
0
100
AcDbLine
 62
7
  6
CONTINUOUS
 10
139.4219755
 20
94.5383526987
 11
139.3032255
 21
94.3766505761
  0
LINE
  5
4EA
100
AcDbEntity
  8
0
100
AcDbLine
 62
7
  6
CONTINUOUS
 10
159.9032264656
 20
121.8915442085
 11
160.0219764656
 21
122.0532463311
  0
LINE
  5
4EB
100
AcDbEntity
  8
0
100
AcDbLine
 62
7
  6
CONTINUOUS
 10
158.1219762391
 20
121.8915442085
 11
158.2407264656
 21
122.0532463311
  0
LINE
  5
4EC
100
AcDbEntity
  8
0
100
AcDbLine
 62
7
  6
CONTINUOUS
 10
136.4928086823
 20
95.8319697639
 11
136.6115586823
 21
95.9532463452
  0
LINE
  5
4ED
100
AcDbEntity
  8
0
100
AcDbLine
 62
7
  6
CONTINUOUS
 10
137.6011423176
 20
94.4979271716
 11
137.4823923176
 21
94.3766505761
  0
LINE
  5
4EE
100
AcDbEntity
  8
0
100
AcDbLine
 62
7
  6
CONTINUOUS
 10
145.4950777326
 20
105.6576450118
 11
145.498386655
 21
105.6609539342
  0
LINE
  5
4EF
100
AcDbEntity
  8
0
100
AcDbLine
 62
7
  6
CONTINUOUS
 10
140.1566109798
 20
98.6912501551
 11
140.1381628612
 21
98.6728020365
  0
LINE
  5
4F0
100
AcDbEntity
  8
0
100
AcDbLine
 62
7
  6
CONTINUOUS
 10
148.4717340623
 20
105.7063732376
 11
148.4263147589
 21
105.6609539342
  0
LINE
  5
4F1
100
AcDbEntity
  8
0
100
AcDbLine
 62
7
  6
CONTINUOUS
 10
133.2865587956
 20
95.872395291
 11
133.1678087956
 21
95.7915442368
  0
LINE
  5
4F2
100
AcDbEntity
  8
0
100
AcDbLine
 62
7
  6
CONTINUOUS
 10
149.6803092784
 20
110.7737970425
 11
148.5655408241
 21
110.7722518954
  0
LINE
  5
4F3
100
AcDbEntity
  8
0
100
AcDbLine
 62
7
  6
CONTINUOUS
 10
128.3303092784
 20
110.775193278
 11
127.0716030563
 21
110.7736546757
  0
LINE
  5
4F4
100
AcDbEntity
  8
0
100
AcDbLine
 62
7
  6
CONTINUOUS
 10
145.5855457978
 20
109.2649484536
 11
144.3803092784
 21
109.2649484536
  0
LINE
  5
4F5
100
AcDbEntity
  8
0
100
AcDbLine
 62
7
  6
CONTINUOUS
 10
128.3303092784
 20
109.2649484536
 11
127.1250727589
 21
109.2649484536
  0
LINE
  5
4F6
100
AcDbEntity
  8
0
100
AcDbLine
 62
7
  6
CONTINUOUS
 10
148.4750727589
 20
109.2649484536
 11
149.6803092784
 21
109.2649484536
  0
LINE
  5
4F7
100
AcDbEntity
  8
0
100
AcDbLine
 62
7
  6
CONTINUOUS
 10
165.7303092784
 20
109.2649484536
 11
166.9355457978
 21
109.2649484536
  0
LINE
  5
4F8
100
AcDbEntity
  8
0
100
AcDbLine
 62
253
  6
CONTINUOUS
 10
145.5803092784
 20
109.5649484536
 11
144.3803092784
 21
109.5649484536
  0
LINE
  5
4F9
100
AcDbEntity
  8
0
100
AcDbLine
 62
253
  6
CONTINUOUS
 10
128.3303092784
 20
109.5649484536
 11
127.1303092784
 21
109.5649484536
  0
LINE
  5
4FA
100
AcDbEntity
  8
0
100
AcDbLine
 62
253
  6
CONTINUOUS
 10
148.4803092784
 20
109.5649484536
 11
149.6803092784
 21
109.5649484536
  0
LINE
  5
4FB
100
AcDbEntity
  8
0
100
AcDbLine
 62
253
  6
CONTINUOUS
 10
165.7303092784
 20
109.5649484536
 11
166.9303092784
 21
109.5649484536
  0
LINE
  5
4FC
100
AcDbEntity
  8
0
100
AcDbLine
 62
253
  6
CONTINUOUS
 10
166.9303092784
 20
110.2235998221
 11
165.7303092784
 21
110.2235998221
  0
LINE
  5
4FD
100
AcDbEntity
  8
0
100
AcDbLine
 62
253
  6
CONTINUOUS
 10
149.6803092784
 20
110.2235998221
 11
148.4803092784
 21
110.2235998221
  0
LINE
  5
4FE
100
AcDbEntity
  8
0
100
AcDbLine
 62
253
  6
CONTINUOUS
 10
145.5803092784
 20
110.2235998221
 11
144.3803092784
 21
110.2235998221
  0
LINE
  5
4FF
100
AcDbEntity
  8
0
100
AcDbLine
 62
253
  6
CONTINUOUS
 10
128.3303092784
 20
110.2235998221
 11
127.1303092784
 21
110.2235998221
  0
LINE
  5
500
100
AcDbEntity
  8
0
100
AcDbLine
 62
253
  6
CONTINUOUS
 10
166.9388844944
 20
110.7235236696
 11
165.7303092784
 21
110.7235236696
  0
LINE
  5
501
100
AcDbEntity
  8
0
100
AcDbLine
 62
253
  6
CONTINUOUS
 10
149.6803092784
 20
110.7235236696
 11
148.4717340623
 21
110.7235236696
  0
LINE
  5
502
100
AcDbEntity
  8
0
100
AcDbLine
 62
253
  6
CONTINUOUS
 10
145.5888844944
 20
110.7235236696
 11
144.3803092784
 21
110.7235236696
  0
LINE
  5
503
100
AcDbEntity
  8
0
100
AcDbLine
 62
253
  6
CONTINUOUS
 10
128.3303092784
 20
110.7235236696
 11
127.1217340623
 21
110.7235236696
  0
LINE
  5
504
100
AcDbEntity
  8
0
100
AcDbLine
 62
7
  6
CONTINUOUS
 10
148.5622319017
 20
110.768942973
 11
148.4263147589
 21
110.768942973
  0
LINE
  5
505
100
AcDbEntity
  8
0
100
AcDbLine
 62
7
  6
CONTINUOUS
 10
145.498386655
 20
110.768942973
 11
145.6343037978
 21
110.768942973
  0
LINE
  5
506
100
AcDbEntity
  8
0
100
AcDbLine
 62
7
  6
CONTINUOUS
 10
145.4950777326
 20
110.7722518954
 11
144.3803092784
 21
110.7737970425
  0
LINE
  5
507
100
AcDbEntity
  8
0
100
AcDbLine
 62
7
  6
CONTINUOUS
 10
166.9890155004
 20
110.7736546757
 11
165.7303092784
 21
110.775193278
  0
LINE
  5
508
100
AcDbEntity
  8
0
100
AcDbLine
 62
7
  6
CONTINUOUS
 10
145.4950777326
 20
110.7722518954
 11
145.498386655
 21
110.768942973
  0
LINE
  5
509
100
AcDbEntity
  8
0
100
AcDbLine
 62
7
  6
CONTINUOUS
 10
140.1566109798
 20
117.7386467521
 11
140.1381628612
 21
117.7570948707
  0
LINE
  5
50A
100
AcDbEntity
  8
0
100
AcDbLine
 62
7
  6
CONTINUOUS
 10
148.4717340623
 20
110.7235236696
 11
148.4263147589
 21
110.768942973
  0
LWPOLYLINE
  5
50B
100
AcDbEntity
  8
0
100
AcDbPolyline
 62
7
  6
CONTINUOUS
 90
19
 70
0
 10
155.1846084425
 20
94.5572271762
 10
155.1908255466
 20
94.541955266
 10
155.1978922273
 20
94.5269645733
 10
155.2057694939
 20
94.5123521976
 10
155.2144000834
 20
94.4982411613
 10
155.2237627421
 20
94.4846896667
 10
155.2338887254
 20
94.4717022889
 10
155.2447636014
 20
94.4593677912
 10
155.2563600868
 20
94.447790652
 10
155.2687147012
 20
94.4370204197
 10
155.2818558265
 20
94.4271394277
 10
155.2957339459
 20
94.4182961812
 10
155.3102677914
 20
94.4106385865
 10
155.3253688144
 20
94.4042285361
 10
155.3409478511
 20
94.3990337179
 10
155.356899317
 20
94.3950284801
 10
155.3731093404
 20
94.392192029
 10
155.3894546586
 20
94.390505221
 10
155.4058154269
 20
94.3899475371
  0
LINE
  5
50C
100
AcDbEntity
  8
0
100
AcDbLine
 62
253
  6
CONTINUOUS
 10
153.9733516574
 20
91.0858229626
 11
154.01689338
 21
90.9550915676
  0
LINE
  5
50D
100
AcDbEntity
  8
0
100
AcDbLine
 62
253
  6
CONTINUOUS
 10
154.272744492
 20
91.3870976147
 11
154.3168476886
 21
91.254680428
  0
LINE
  5
50E
100
AcDbEntity
  8
0
100
AcDbLine
 62
7
  6
CONTINUOUS
 10
150.4727062784
 20
113.6806864536
 11
150.4727062784
 21
114.3649484536
  0
LINE
  5
50F
100
AcDbEntity
  8
0
100
AcDbLine
 62
7
  6
CONTINUOUS
 10
150.7023052784
 20
114.3649484536
 11
150.7023052784
 21
113.6806864536
  0
LINE
  5
510
100
AcDbEntity
  8
0
100
AcDbLine
 62
7
  6
CONTINUOUS
 10
151.4220382784
 20
114.1613334536
 11
151.4220382784
 21
114.3649484536
  0
LINE
  5
511
100
AcDbEntity
  8
0
100
AcDbLine
 62
7
  6
CONTINUOUS
 10
152.2839312784
 20
112.6649484536
 11
152.2839312784
 21
114.1613334536
  0
LWPOLYLINE
  5
512
100
AcDbEntity
  8
0
100
AcDbPolyline
 62
253
  6
CONTINUOUS
 90
7
 70
0
 10
154.3168476886
 20
125.1752164792
 10
154.3174814786
 20
125.1803289807
 10
154.3181031595
 20
125.189590053
 10
154.3187127311
 20
125.2029512742
 10
154.319313222
 20
125.2203427987
 10
154.3199016037
 20
125.2416737114
 10
154.3210144908
 20
125.2956876803
  0
LWPOLYLINE
  5
513
100
AcDbEntity
  8
0
100
AcDbPolyline
 62
253
  6
CONTINUOUS
 90
9
 70
0
 10
154.01689338
 20
125.4748053396
 10
154.0175240915
 20
125.4780318504
 10
154.018143625
 20
125.4837757148
 10
154.0187519805
 20
125.4920369329
 10
154.0193524815
 20
125.5028847168
 10
154.0199418045
 20
125.5162498543
 10
154.0205099794
 20
125.5319247094
 10
154.0210564154
 20
125.5499430981
 10
154.0220776451
 20
125.5925999442
  0
LINE
  5
514
100
AcDbEntity
  8
0
100
AcDbLine
 62
7
  6
CONTINUOUS
 10
154.7969762391
 20
121.7702675989
 11
154.7573930567
 21
121.6489910176
  0
LINE
  5
515
100
AcDbEntity
  8
0
100
AcDbLine
 62
7
  6
CONTINUOUS
 10
155.7073930567
 20
121.4064377984
 11
155.7469762391
 21
121.5277144364
  0
LINE
  5
516
100
AcDbEntity
  8
0
100
AcDbLine
 62
7
  6
CONTINUOUS
 10
155.7073930567
 20
120.7596292517
 11
155.7469762391
 21
120.8809059462
  0
LINE
  5
517
100
AcDbEntity
  8
0
100
AcDbLine
 62
7
  6
CONTINUOUS
 10
156.3407262391
 20
121.6489910176
 11
156.3803098744
 21
121.7702675989
  0
LINE
  5
518
100
AcDbEntity
  8
0
100
AcDbLine
 62
7
  6
CONTINUOUS
 10
153.8253832784
 20
113.8701404536
 11
154.0030002784
 21
114.3649484536
  0
LINE
  5
519
100
AcDbEntity
  8
0
100
AcDbLine
 62
7
  6
CONTINUOUS
 10
153.4796222784
 20
112.9115314536
 11
153.7543452784
 21
113.6665254536
  0
LINE
  5
51A
100
AcDbEntity
  8
0
100
AcDbLine
 62
7
  6
CONTINUOUS
 10
154.2397352784
 20
114.3649484536
 11
153.6004032784
 21
112.6649484536
  0
LINE
  5
51B
100
AcDbEntity
  8
0
100
AcDbLine
 62
7
  6
CONTINUOUS
 10
155.9448930567
 20
120.8404804191
 11
155.8657262391
 21
120.6383526704
  0
LINE
  5
51C
100
AcDbEntity
  8
0
100
AcDbLine
 62
7
  6
CONTINUOUS
 10
158.0428098744
 20
121.6894165447
 11
158.1219762391
 21
121.8915442085
  0
LINE
  5
51D
100
AcDbEntity
  8
0
100
AcDbLine
 62
7
  6
CONTINUOUS
 10
157.6469762391
 20
120.7596292517
 11
157.5678098744
 21
120.5979271433
  0
LINE
  5
51E
100
AcDbEntity
  8
0
100
AcDbLine
 62
7
  6
CONTINUOUS
 10
160.1407263523
 20
121.8915442085
 11
160.0615596479
 21
121.7702675989
  0
LINE
  5
51F
100
AcDbEntity
  8
0
100
AcDbLine
 62
7
  6
CONTINUOUS
 10
160.1407263523
 20
121.204310163
 11
160.0615596479
 21
121.0830335817
  0
LINE
  5
520
100
AcDbEntity
  8
0
100
AcDbLine
 62
7
  6
CONTINUOUS
 10
160.8928097611
 20
120.6383526704
 11
160.9719763523
 21
120.7596292517
  0
LINE
  5
521
100
AcDbEntity
  8
0
100
AcDbLine
 62
7
  6
CONTINUOUS
 10
161.1303097045
 20
120.6383526704
 11
161.0115597611
 21
120.476650562
  0
LINE
  5
522
100
AcDbEntity
  8
0
100
AcDbLine
 62
7
  6
CONTINUOUS
 10
161.7636430567
 20
120.6383526704
 11
162.0011430567
 21
120.9213314733
  0
LINE
  5
523
100
AcDbEntity
  8
0
100
AcDbLine
 62
7
  6
CONTINUOUS
 10
162.0011430567
 20
120.5979271433
 11
161.7636430567
 21
120.3149484536
  0
LINE
  5
524
100
AcDbEntity
  8
0
100
AcDbLine
 62
7
  6
CONTINUOUS
 10
138.4323923176
 20
95.104310163
 11
138.3532255
 21
95.0234591088
  0
LINE
  5
525
100
AcDbEntity
  8
0
100
AcDbLine
 62
7
  6
CONTINUOUS
 10
135.0282255
 20
95.1851612172
 11
134.8698920911
 21
95.0638846359
  0
LINE
  5
526
100
AcDbEntity
  8
0
100
AcDbLine
 62
7
  6
CONTINUOUS
 10
133.8011422044
 20
95.1447356901
 11
133.9198922044
 21
95.2255867443
  0
LINE
  5
527
100
AcDbEntity
  8
0
100
AcDbLine
 62
7
  6
CONTINUOUS
 10
134.0782255
 20
95.104310163
 11
133.8407255
 21
94.9426080546
  0
LINE
  5
528
100
AcDbEntity
  8
0
100
AcDbLine
 62
7
  6
CONTINUOUS
 10
133.8011422044
 20
94.4575016445
 11
133.9198922044
 21
94.5383526987
  0
LINE
  5
529
100
AcDbEntity
  8
0
100
AcDbLine
 62
7
  6
CONTINUOUS
 10
136.8490586823
 20
95.872395291
 11
136.7303086823
 21
95.7915442368
  0
LINE
  5
52A
100
AcDbEntity
  8
0
100
AcDbLine
 62
7
  6
CONTINUOUS
 10
135.5823920911
 20
94.4575016445
 11
135.7011420911
 21
94.5383526987
  0
LINE
  5
52B
100
AcDbEntity
  8
0
100
AcDbLine
 62
7
  6
CONTINUOUS
 10
138.5511423176
 20
95.872395291
 11
138.4323923176
 21
95.7915442368
  0
LINE
  5
52C
100
AcDbEntity
  8
0
100
AcDbLine
 62
7
  6
CONTINUOUS
 10
133.0490587956
 20
95.9532463452
 11
133.2469755
 21
96.0745229265
  0
LINE
  5
52D
100
AcDbEntity
  8
0
100
AcDbLine
 62
7
  6
CONTINUOUS
 10
134.7907255
 20
95.2660122713
 11
134.9886420911
 21
95.3872888526
  0
LINE
  5
52E
100
AcDbEntity
  8
0
100
AcDbLine
 62
7
  6
CONTINUOUS
 10
134.0386420911
 20
94.3766505761
 11
133.8407255
 21
94.2553739842
  0
LINE
  5
52F
100
AcDbEntity
  8
0
100
AcDbLine
 62
7
  6
CONTINUOUS
 10
136.6115586823
 20
95.9532463452
 11
136.8094755
 21
96.0745229265
  0
LWPOLYLINE
  5
530
100
AcDbEntity
  8
0
100
AcDbPolyline
 62
7
  6
CONTINUOUS
 90
34
 70
0
 10
162.4759653152
 20
114.1684824536
 10
162.4482947052
 20
114.1670389213
 10
162.420686165
 20
114.1640674201
 10
162.3932475798
 20
114.1595608084
 10
162.3660824717
 20
114.1535107139
 10
162.3393041975
 20
114.145910689
 10
162.3130296209
 20
114.1367600239
 10
162.2873535988
 20
114.1260548989
 10
162.2623764735
 20
114.1137936312
 10
162.2382158313
 20
114.0999937885
 10
162.2149749796
 20
114.0847137642
 10
162.1927363699
 20
114.0680140775
 10
162.1715839644
 20
114.0499528172
 10
162.1516127988
 20
114.0305955266
 10
162.1328998558
 20
114.0100147759
 10
162.1154645753
 20
113.9883038931
 10
162.0993281739
 20
113.9655731651
 10
162.084515666
 20
113.9419381042
 10
162.0710460136
 20
113.9175041864
 10
162.058936352
 20
113.8923682288
 10
162.0482140384
 20
113.8666581643
 10
162.038813535
 20
113.840511142
 10
162.0305704219
 20
113.8140051822
 10
162.0233221814
 20
113.7872270835
 10
162.0169184238
 20
113.7603165167
 10
162.0112417077
 20
113.7333834928
 10
162.0062716091
 20
113.7064069763
 10
162.0020082331
 20
113.6793282374
 10
161.9984670115
 20
113.6521543014
 10
161.9956650455
 20
113.6249040188
 10
161.993614932
 20
113.5975378844
 10
161.9923364897
 20
113.5700624861
 10
161.9918519237
 20
113.5425235045
 10
161.992181966
 20
113.5149484536
  0
LINE
  5
531
100
AcDbEntity
  8
0
100
AcDbLine
 62
253
  6
CONTINUOUS
 10
124.8300512013
 20
111.3312849596
 11
126.0719600038
 21
111.3312849596
  0
LINE
  5
532
100
AcDbEntity
  8
0
100
AcDbLine
 62
253
  6
CONTINUOUS
 10
167.9886585529
 20
111.3312849596
 11
169.2305673554
 21
111.3312849596
  0
LINE
  5
533
100
AcDbEntity
  8
0
100
AcDbLine
 62
253
  6
CONTINUOUS
 10
124.8203469481
 20
111.8142478728
 11
126.0622557507
 21
111.8142478728
  0
LINE
  5
534
100
AcDbEntity
  8
0
100
AcDbLine
 62
253
  6
CONTINUOUS
 10
167.998362806
 20
111.8142478728
 11
169.2402716086
 21
111.8142478728
  0
LINE
  5
535
100
AcDbEntity
  8
0
100
AcDbLine
 62
253
  6
CONTINUOUS
 10
124.7563245016
 20
112.4693618351
 11
125.9982333042
 21
112.4693618351
  0
LINE
  5
536
100
AcDbEntity
  8
0
100
AcDbLine
 62
253
  6
CONTINUOUS
 10
168.0623852525
 20
112.4693618351
 11
169.3042940551
 21
112.4693618351
  0
LINE
  5
537
100
AcDbEntity
  8
0
100
AcDbLine
 62
7
  6
CONTINUOUS
 10
166.7296922784
 20
112.6649484536
 11
166.4005692784
 21
112.6649484536
  0
LINE
  5
538
100
AcDbEntity
  8
0
100
AcDbLine
 62
7
  6
CONTINUOUS
 10
165.4274402784
 20
112.6649484536
 11
165.1006522784
 21
112.6649484536
  0
LINE
  5
539
100
AcDbEntity
  8
0
100
AcDbLine
 62
7
  6
CONTINUOUS
 10
164.2577742784
 20
112.6649484536
 11
163.9972812784
 21
112.6649484536
  0
LINE
  5
53A
100
AcDbEntity
  8
0
100
AcDbLine
 62
7
  6
CONTINUOUS
 10
163.1591602784
 20
112.6649484536
 11
162.4628995445
 21
112.6649484536
  0
LINE
  5
53B
100
AcDbEntity
  8
0
100
AcDbLine
 62
7
  6
CONTINUOUS
 10
161.4377812784
 20
112.6649484536
 11
160.1994142784
 21
112.6649484536
  0
LINE
  5
53C
100
AcDbEntity
  8
0
100
AcDbLine
 62
7
  6
CONTINUOUS
 10
159.1883372784
 20
112.6649484536
 11
158.9586822784
 21
112.6649484536
  0
LINE
  5
53D
100
AcDbEntity
  8
0
100
AcDbLine
 62
7
  6
CONTINUOUS
 10
158.5656952784
 20
112.6649484536
 11
158.2933522784
 21
112.6649484536
  0
LINE
  5
53E
100
AcDbEntity
  8
0
100
AcDbLine
 62
7
  6
CONTINUOUS
 10
157.4385402784
 20
112.6649484536
 11
157.2159932784
 21
112.6649484536
  0
LINE
  5
53F
100
AcDbEntity
  8
0
100
AcDbLine
 62
7
  6
CONTINUOUS
 10
156.1623922784
 20
112.6649484536
 11
155.9326682784
 21
112.6649484536
  0
LINE
  5
540
100
AcDbEntity
  8
0
100
AcDbLine
 62
7
  6
CONTINUOUS
 10
155.6864192784
 20
112.6649484536
 11
154.3060302784
 21
112.6649484536
  0
LINE
  5
541
100
AcDbEntity
  8
0
100
AcDbLine
 62
7
  6
CONTINUOUS
 10
153.6004032784
 20
112.6649484536
 11
153.3399932784
 21
112.6649484536
  0
LINE
  5
542
100
AcDbEntity
  8
0
100
AcDbLine
 62
7
  6
CONTINUOUS
 10
152.5136682784
 20
112.6649484536
 11
152.2839312784
 21
112.6649484536
  0
LINE
  5
543
100
AcDbEntity
  8
0
100
AcDbLine
 62
7
  6
CONTINUOUS
 10
151.3439472784
 20
112.6649484536
 11
151.0764012784
 21
112.6649484536
  0
LINE
  5
544
100
AcDbEntity
  8
0
100
AcDbLine
 62
7
  6
CONTINUOUS
 10
150.1009472784
 20
112.6649484536
 11
149.8309262784
 21
112.6649484536
  0
LINE
  5
545
100
AcDbEntity
  8
0
100
AcDbLine
 62
7
  6
CONTINUOUS
 10
162.4759653152
 20
112.8614144536
 11
162.9294232784
 21
112.8614144536
  0
LINE
  5
546
100
AcDbEntity
  8
0
100
AcDbLine
 62
7
  6
CONTINUOUS
 10
154.3060302784
 20
112.8685634536
 11
154.8814042784
 21
112.8685634536
  0
LINE
  5
547
100
AcDbEntity
  8
0
100
AcDbLine
 62
7
  6
CONTINUOUS
 10
155.1110452784
 20
112.8685634536
 11
155.6864192784
 21
112.8685634536
  0
LINE
  5
548
100
AcDbEntity
  8
0
100
AcDbLine
 62
7
  6
CONTINUOUS
 10
160.1994142784
 20
112.8685634536
 11
161.2080582784
 21
112.8685634536
  0
LINE
  5
549
100
AcDbEntity
  8
0
100
AcDbLine
 62
253
  6
CONTINUOUS
 10
124.746691973
 20
113.0045889799
 11
125.9886007756
 21
113.0045889799
  0
LINE
  5
54A
100
AcDbEntity
  8
0
100
AcDbLine
 62
253
  6
CONTINUOUS
 10
168.0720177811
 20
113.0045889799
 11
169.3139265837
 21
113.0045889799
  0
LINE
  5
54B
100
AcDbEntity
  8
0
100
AcDbLine
 62
7
  6
CONTINUOUS
 10
134.1792352784
 20
113.2775764536
 11
133.9367572784
 21
113.2775764536
  0
LINE
  5
54C
100
AcDbEntity
  8
0
100
AcDbLine
 62
7
  6
CONTINUOUS
 10
132.6445012784
 20
113.2775764536
 11
132.3243662784
 21
113.2775764536
  0
LINE
  5
54D
100
AcDbEntity
  8
0
100
AcDbLine
 62
7
  6
CONTINUOUS
 10
135.786491245
 20
113.2870714203
 11
135.5126493117
 21
113.2870714203
  0
LINE
  5
54E
100
AcDbEntity
  8
0
100
AcDbLine
 62
7
  6
CONTINUOUS
 10
139.2851792784
 20
113.2870714536
 11
137.9874572784
 21
113.2870714536
  0
LINE
  5
54F
100
AcDbEntity
  8
0
100
AcDbLine
 62
7
  6
CONTINUOUS
 10
137.7374572784
 20
113.2870714536
 11
137.3945682784
 21
113.2870714536
  0
LINE
  5
550
100
AcDbEntity
  8
0
100
AcDbLine
 62
7
  6
CONTINUOUS
 10
136.3414692784
 20
113.2870714536
 11
136.0989912784
 21
113.2870714536
  0
LINE
  5
551
100
AcDbEntity
  8
0
100
AcDbLine
 62
7
  6
CONTINUOUS
 10
161.2080582784
 20
113.3894934536
 11
160.2775472784
 21
113.3894934536
  0
LINE
  5
552
100
AcDbEntity
  8
0
100
AcDbLine
 62
7
  6
CONTINUOUS
 10
138.2299362784
 20
113.5295484536
 11
139.2851792784
 21
113.5295484536
  0
LINE
  5
553
100
AcDbEntity
  8
0
100
AcDbLine
 62
7
  6
CONTINUOUS
 10
160.2775472784
 20
113.5931084536
 11
161.2080582784
 21
113.5931084536
  0
LINE
  5
554
100
AcDbEntity
  8
0
100
AcDbLine
 62
7
  6
CONTINUOUS
 10
164.4116192784
 20
113.6665254536
 11
163.8836092784
 21
113.6665254536
  0
LINE
  5
555
100
AcDbEntity
  8
0
100
AcDbLine
 62
7
  6
CONTINUOUS
 10
153.7543452784
 20
113.6665254536
 11
153.2263342784
 21
113.6665254536
  0
LWPOLYLINE
  5
556
100
AcDbEntity
  8
0
100
AcDbPolyline
 62
7
  6
CONTINUOUS
 90
34
 70
0
 10
162.4628995445
 20
112.6649484536
 10
162.4251048438
 20
112.6660148414
 10
162.3873894304
 20
112.6688902733
 10
162.3498570308
 20
112.673609622
 10
162.3126318648
 20
112.680203288
 10
162.2757951436
 20
112.6887078399
 10
162.2393915627
 20
112.6991769148
 10
162.2035557358
 20
112.7116627992
 10
162.1685043137
 20
112.7262020035
 10
162.1344413317
 20
112.7428320856
 10
162.1015609819
 20
112.7615938164
 10
162.0700479168
 20
112.782519375
 10
162.0399532448
 20
112.8054748758
 10
162.0112089871
 20
112.8301926403
 10
161.9837309218
 20
112.8564108886
 10
161.9574657711
 20
112.8839064609
 10
161.9325847025
 20
112.9126638483
 10
161.9093677101
 20
112.9427257423
 10
161.888101481
 20
112.9741203371
 10
161.8689366979
 20
113.0068518267
 10
161.8516894026
 20
113.040698555
 10
161.8361253463
 20
113.0753387019
 10
161.8219817304
 20
113.1104944116
 10
161.80905923
 20
113.1459937487
 10
161.7974179887
 20
113.1818015936
 10
161.7871697863
 20
113.217892257
 10
161.7784149221
 20
113.2542728248
 10
161.7712257256
 20
113.290980985
 10
161.7655464107
 20
113.3279466954
 10
161.7612632938
 20
113.3650894586
 10
161.7582595843
 20
113.4023978503
 10
161.7564293081
 20
113.4398459312
 10
161.755668742
 20
113.4773748504
 10
161.7558711156
 20
113.5149484536
  0
LWPOLYLINE
  5
557
100
AcDbEntity
  8
0
100
AcDbPolyline
 62
7
  6
CONTINUOUS
 90
17
 70
0
 10
139.1264989355
 20
122.1477759691
 10
139.1433262715
 20
122.1328950462
 10
139.1587897697
 20
122.1169383458
 10
139.1730054939
 20
122.1001152901
 10
139.1860237944
 20
122.0826869698
 10
139.197966786
 20
122.0647981237
 10
139.2090227062
 20
122.0464263515
 10
139.2192387602
 20
122.0277181847
 10
139.2286672484
 20
122.0087991691
 10
139.2374540657
 20
121.989565822
 10
139.2456252197
 20
121.9701221573
 10
139.2532015036
 20
121.9505839167
 10
139.2602791453
 20
121.930850248
 10
139.2668908375
 20
121.9109530446
 10
139.2730405457
 20
121.8910517016
 10
139.2788281716
 20
121.87113831
 10
139.2843820772
 20
121.851153698
  0
LINE
  5
558
100
AcDbEntity
  8
0
100
AcDbLine
 62
7
  6
CONTINUOUS
 10
157.2741362784
 20
102.1918204536
 11
156.3231612784
 21
103.1428254536
  0
LINE
  5
559
100
AcDbEntity
  8
0
100
AcDbLine
 62
7
  6
CONTINUOUS
 10
156.6660502784
 20
103.1428254536
 11
157.6170542784
 21
102.1918194536
  0
LINE
  5
55A
100
AcDbEntity
  8
0
100
AcDbLine
 62
7
  6
CONTINUOUS
 10
156.7127972784
 20
93.2335964536
 11
156.1298772784
 21
95.1334424536
  0
LWPOLYLINE
  5
55B
100
AcDbEntity
  8
0
100
AcDbPolyline
 62
7
  6
CONTINUOUS
 90
4
 70
0
 10
155.1256170218
 20
94.7376418317
 10
155.1442313532
 20
94.6758846107
 10
155.1637589326
 20
94.6156984633
 10
155.1846084634
 20
94.5572271841
  0
LINE
  5
55C
100
AcDbEntity
  8
0
100
AcDbLine
 62
7
  6
CONTINUOUS
 10
155.011152213
 20
95.1334421996
 11
155.0703887673
 21
94.9306296024
  0
LINE
  5
55D
100
AcDbEntity
  8
0
100
AcDbLine
 62
7
  6
CONTINUOUS
 10
155.0703887673
 20
94.9306296024
 11
155.1256170218
 21
94.7376418317
  0
LINE
  5
55E
100
AcDbEntity
  8
0
100
AcDbLine
 62
7
  6
CONTINUOUS
 10
154.7762364795
 20
94.5787432092
 11
154.7493242848
 21
94.6782320566
  0
LINE
  5
55F
100
AcDbEntity
  8
0
100
AcDbLine
 62
7
  6
CONTINUOUS
 10
154.6444476918
 20
95.0782916375
 11
154.6296957279
 21
95.1334421996
  0
LINE
  5
560
100
AcDbEntity
  8
0
100
AcDbLine
 62
7
  6
CONTINUOUS
 10
154.7493242848
 20
94.6782320566
 11
154.7184179111
 21
94.7948578269
  0
LINE
  5
561
100
AcDbEntity
  8
0
100
AcDbLine
 62
7
  6
CONTINUOUS
 10
154.7184179111
 20
94.7948578269
 11
154.6444476918
 21
95.0782916375
  0
LWPOLYLINE
  5
562
100
AcDbEntity
  8
0
100
AcDbPolyline
 62
253
  6
CONTINUOUS
 90
8
 70
0
 10
154.01689338
 20
90.9550915676
 10
154.0175236019
 20
90.9518732105
 10
154.0181428495
 20
90.9461342081
 10
154.0187511229
 20
90.9378745603
 10
154.0193518207
 20
90.927024964
 10
154.0199415441
 20
90.9136547223
 10
154.0205100978
 20
90.8979717447
 10
154.0210568409
 20
90.8799404166
  0
LWPOLYLINE
  5
563
100
AcDbEntity
  8
0
100
AcDbPolyline
 62
253
  6
CONTINUOUS
 90
6
 70
0
 10
154.3168476886
 20
91.254680428
 10
154.3174814709
 20
91.2495679148
 10
154.3181031489
 20
91.2403068251
 10
154.3187127226
 20
91.2269455894
 10
154.3193132194
 20
91.2095540691
 10
154.319901612
 20
91.188223183
  0
LWPOLYLINE
  5
564
100
AcDbEntity
  8
0
100
AcDbPolyline
 62
253
  6
CONTINUOUS
 90
13
 70
0
 10
154.7437251767
 20
90.9550915676
 10
154.7411264806
 20
90.9941715441
 10
154.7334461982
 20
91.0325839827
 10
154.7208154611
 20
91.0696724199
 10
154.7034500098
 20
91.1048029902
 10
154.681646507
 20
91.1373752692
 10
154.6557774683
 20
91.1668325346
 10
154.6262848771
 20
91.1926712951
 10
154.5936727246
 20
91.2144498223
 10
154.5584984215
 20
91.2317957525
 10
154.5213631382
 20
91.2444125434
 10
154.4829015041
 20
91.2520845027
 10
154.4437708681
 20
91.254680428
  0
LWPOLYLINE
  5
565
100
AcDbEntity
  8
0
100
AcDbPolyline
 62
7
  6
CONTINUOUS
 90
19
 70
0
 10
155.0969009537
 20
93.783719957
 10
155.0981869792
 20
93.762708315
 10
155.1013091266
 20
93.7420725946
 10
155.106116338
 20
93.7220017291
 10
155.1124368793
 20
93.7027390367
 10
155.1201502666
 20
93.684353447
 10
155.1292464302
 20
93.6667641855
 10
155.1396625598
 20
93.6500982425
 10
155.1513191654
 20
93.6345088748
 10
155.1642742614
 20
93.6199948304
 10
155.1785218967
 20
93.6066380344
 10
155.1938943682
 20
93.5945245673
 10
155.2102364706
 20
93.5836826805
 10
155.2273899299
 20
93.5741344163
 10
155.2452277501
 20
93.5658825087
 10
155.2636404039
 20
93.5589293839
 10
155.2824971481
 20
93.5532930356
 10
155.3016424375
 20
93.5489991767
 10
155.320929168
 20
93.5460691699
  0
LINE
  5
566
100
AcDbEntity
  8
0
100
AcDbLine
 62
253
  6
CONTINUOUS
 10
154.0210568409
 20
90.8799404166
 11
154.0220785447
 21
90.8372543053
  0
LINE
  5
567
100
AcDbEntity
  8
0
100
AcDbLine
 62
253
  6
CONTINUOUS
 10
154.319901612
 20
91.188223183
 11
154.3210145545
 21
91.1342092411
  0
LINE
  5
568
100
AcDbEntity
  8
0
100
AcDbLine
 62
253
  6
CONTINUOUS
 10
154.4407169447
 20
125.2416737242
 11
154.4396040022
 21
125.2956876661
  0
LINE
  5
569
100
AcDbEntity
  8
0
100
AcDbLine
 62
253
  6
CONTINUOUS
 10
154.0220785447
 20
90.8372543053
 11
154.0229815942
 21
90.7865055696
  0
LINE
  5
56A
100
AcDbEntity
  8
0
100
AcDbLine
 62
253
  6
CONTINUOUS
 10
154.738540012
 20
125.5926426019
 11
154.7376369625
 21
125.6433913377
  0
LINE
  5
56B
100
AcDbEntity
  8
0
100
AcDbLine
 62
253
  6
CONTINUOUS
 10
154.3210145545
 20
91.1342092411
 11
154.3224994599
 21
91.027066247
  0
LINE
  5
56C
100
AcDbEntity
  8
0
100
AcDbLine
 62
253
  6
CONTINUOUS
 10
154.4396040022
 20
125.2956876661
 11
154.4381190968
 21
125.4028306603
  0
LINE
  5
56D
100
AcDbEntity
  8
0
100
AcDbLine
 62
253
  6
CONTINUOUS
 10
154.0229815942
 20
90.7865055696
 11
154.0240723607
 21
90.6978779469
  0
LINE
  5
56E
100
AcDbEntity
  8
0
100
AcDbLine
 62
253
  6
CONTINUOUS
 10
154.7376369625
 20
125.6433913377
 11
154.736546196
 21
125.7320189603
  0
LINE
  5
56F
100
AcDbEntity
  8
0
100
AcDbLine
 62
253
  6
CONTINUOUS
 10
154.3224994599
 20
91.027066247
 11
154.3240245188
 21
90.8436141193
  0
LINE
  5
570
100
AcDbEntity
  8
0
100
AcDbLine
 62
253
  6
CONTINUOUS
 10
154.4381190968
 20
125.4028306603
 11
154.4365940379
 21
125.5862827879
  0
LINE
  5
571
100
AcDbEntity
  8
0
100
AcDbLine
 62
253
  6
CONTINUOUS
 10
154.0240723607
 20
90.6978779469
 11
154.0249612728
 21
90.5629584575
  0
LINE
  5
572
100
AcDbEntity
  8
0
100
AcDbLine
 62
253
  6
CONTINUOUS
 10
154.736546196
 20
125.7320189603
 11
154.7356572839
 21
125.8669384498
  0
LINE
  5
573
100
AcDbEntity
  8
0
100
AcDbLine
 62
253
  6
CONTINUOUS
 10
154.3240245188
 20
90.8436141193
 11
154.3250946769
 21
90.5135694854
  0
LINE
  5
574
100
AcDbEntity
  8
0
100
AcDbLine
 62
253
  6
CONTINUOUS
 10
154.4365940379
 20
125.5862827879
 11
154.4355238798
 21
125.9163274218
  0
LINE
  5
575
100
AcDbEntity
  8
0
100
AcDbLine
 62
7
  6
CONTINUOUS
 10
153.9763515799
 20
87.3608056344
 11
153.9733516574
 21
91.0858229626
  0
LINE
  5
576
100
AcDbEntity
  8
0
100
AcDbLine
 62
7
  6
CONTINUOUS
 10
154.7846413509
 20
129.067967237
 11
154.7876782354
 21
125.3428389327
  0
LINE
  5
577
100
AcDbEntity
  8
0
100
AcDbLine
 62
7
  6
CONTINUOUS
 10
153.9040075769
 20
98.6912501551
 11
153.904410537
 21
97.7390497123
  0
LINE
  5
578
100
AcDbEntity
  8
0
100
AcDbLine
 62
7
  6
CONTINUOUS
 10
152.5136682784
 20
114.3649484536
 11
152.5136682784
 21
112.6649484536
  0
LINE
  5
579
100
AcDbEntity
  8
0
100
AcDbLine
 62
253
  6
CONTINUOUS
 10
154.0249612728
 20
90.5629584575
 11
154.0251641487
 21
87.2142488417
  0
LINE
  5
57A
100
AcDbEntity
  8
0
100
AcDbLine
 62
7
  6
CONTINUOUS
 10
154.3060302784
 20
112.6649484536
 11
154.3060302784
 21
112.8685634536
  0
LINE
  5
57B
100
AcDbEntity
  8
0
100
AcDbLine
 62
253
  6
CONTINUOUS
 10
154.3250946769
 20
90.5135694854
 11
154.3251184573
 21
87.1988009005
  0
LINE
  5
57C
100
AcDbEntity
  8
0
100
AcDbLine
 62
253
  6
CONTINUOUS
 10
154.4355238798
 20
125.9163274218
 11
154.4355000994
 21
129.2310960068
  0
LINE
  5
57D
100
AcDbEntity
  8
0
100
AcDbLine
 62
7
  6
CONTINUOUS
 10
154.5594762391
 20
121.4872888526
 11
154.5594762391
 21
121.6894165447
  0
LINE
  5
57E
100
AcDbEntity
  8
0
100
AcDbLine
 62
253
  6
CONTINUOUS
 10
154.7356572839
 20
125.8669384498
 11
154.735454408
 21
129.2156480655
  0
LINE
  5
57F
100
AcDbEntity
  8
0
100
AcDbLine
 62
7
  6
CONTINUOUS
 10
154.7573930567
 20
121.6489910176
 11
154.7573930567
 21
121.5277144364
  0
LINE
  5
580
100
AcDbEntity
  8
0
100
AcDbLine
 62
7
  6
CONTINUOUS
 10
154.7754392784
 20
102.9003484536
 11
154.7754392784
 21
103.1428254536
  0
LINE
  5
581
100
AcDbEntity
  8
0
100
AcDbLine
 62
7
  6
CONTINUOUS
 10
154.7905822784
 20
101.2454324536
 11
154.7905822784
 21
101.4879094536
  0
LINE
  5
582
100
AcDbEntity
  8
0
100
AcDbLine
 62
7
  6
CONTINUOUS
 10
154.8243662784
 20
102.0940574536
 11
154.8243662784
 21
102.3358394536
  0
LINE
  5
583
100
AcDbEntity
  8
0
100
AcDbLine
 62
7
  6
CONTINUOUS
 10
154.8814042784
 20
112.8685634536
 11
154.8814042784
 21
114.3649484536
  0
LINE
  5
584
100
AcDbEntity
  8
0
100
AcDbLine
 62
7
  6
CONTINUOUS
 10
154.9938566697
 20
94.2353846461
 11
154.9938566697
 21
94.2466110778
  0
LINE
  5
585
100
AcDbEntity
  8
0
100
AcDbLine
 62
7
  6
CONTINUOUS
 10
153.904410537
 20
118.6908471949
 11
153.9040075769
 21
117.7386467521
  0
LINE
  5
586
100
AcDbEntity
  8
0
100
AcDbLine
 62
7
  6
CONTINUOUS
 10
153.9733516574
 20
125.3440739446
 11
153.9763515799
 21
129.0690912729
  0
LINE
  5
587
100
AcDbEntity
  8
0
100
AcDbLine
 62
7
  6
CONTINUOUS
 10
154.7876782354
 20
91.0870579745
 11
154.7846413509
 21
87.3619296702
  0
LINE
  5
588
100
AcDbEntity
  8
0
100
AcDbLine
 62
253
  6
CONTINUOUS
 10
154.0249614375
 20
125.8669797041
 11
154.0251641487
 21
129.2156480655
  0
LINE
  5
589
100
AcDbEntity
  8
0
100
AcDbLine
 62
253
  6
CONTINUOUS
 10
154.7356571192
 20
90.5629172031
 11
154.735454408
 21
87.2142488417
  0
LINE
  5
58A
100
AcDbEntity
  8
0
100
AcDbLine
 62
253
  6
CONTINUOUS
 10
154.3245536554
 20
125.6911626975
 11
154.3251184573
 21
129.2310960068
  0
LINE
  5
58B
100
AcDbEntity
  8
0
100
AcDbLine
 62
253
  6
CONTINUOUS
 10
154.4360649013
 20
90.7387342097
 11
154.4355000994
 21
87.1988009005
  0
LINE
  5
58C
100
AcDbEntity
  8
0
100
AcDbLine
 62
253
  6
CONTINUOUS
 10
154.3233347831
 20
125.4894982541
 11
154.3245536554
 21
125.6911626975
  0
LINE
  5
58D
100
AcDbEntity
  8
0
100
AcDbLine
 62
253
  6
CONTINUOUS
 10
154.4372837736
 20
90.9403986531
 11
154.4360649013
 21
90.7387342097
  0
LINE
  5
58E
100
AcDbEntity
  8
0
100
AcDbLine
 62
253
  6
CONTINUOUS
 10
154.0240721541
 20
125.7320003517
 11
154.0249614375
 21
125.8669797041
  0
LINE
  5
58F
100
AcDbEntity
  8
0
100
AcDbLine
 62
253
  6
CONTINUOUS
 10
154.7365464026
 20
90.6978965555
 11
154.7356571192
 21
90.5629172031
  0
LINE
  5
590
100
AcDbEntity
  8
0
100
AcDbLine
 62
253
  6
CONTINUOUS
 10
154.3220340991
 20
125.3638651221
 11
154.3233347831
 21
125.4894982541
  0
LINE
  5
591
100
AcDbEntity
  8
0
100
AcDbLine
 62
253
  6
CONTINUOUS
 10
154.4385844576
 20
91.0660317852
 11
154.4372837736
 21
90.9403986531
  0
LINE
  5
592
100
AcDbEntity
  8
0
100
AcDbLine
 62
253
  6
CONTINUOUS
 10
154.022980664
 20
125.6433293781
 11
154.0240721541
 21
125.7320003517
  0
LINE
  5
593
100
AcDbEntity
  8
0
100
AcDbLine
 62
253
  6
CONTINUOUS
 10
154.7376378927
 20
90.7865675291
 11
154.7365464026
 21
90.6978965555
  0
LINE
  5
594
100
AcDbEntity
  8
0
100
AcDbLine
 62
253
  6
CONTINUOUS
 10
154.3210144908
 20
125.2956876803
 11
154.3220340991
 21
125.3638651221
  0
LINE
  5
595
100
AcDbEntity
  8
0
100
AcDbLine
 62
253
  6
CONTINUOUS
 10
154.4396040659
 20
91.1342092269
 11
154.4385844576
 21
91.0660317852
  0
LINE
  5
596
100
AcDbEntity
  8
0
100
AcDbLine
 62
253
  6
CONTINUOUS
 10
154.0220776451
 20
125.5925999442
 11
154.022980664
 21
125.6433293781
  0
LINE
  5
597
100
AcDbEntity
  8
0
100
AcDbLine
 62
253
  6
CONTINUOUS
 10
154.7385409116
 20
90.837296963
 11
154.7376378927
 21
90.7865675291
  0
LWPOLYLINE
  5
598
100
AcDbEntity
  8
0
100
AcDbPolyline
 62
7
  6
CONTINUOUS
 90
16
 70
0
 10
154.7876782354
 20
125.3428389327
 10
154.7860544166
 20
125.311337259
 10
154.7811488378
 20
125.2801779316
 10
154.7730114735
 20
125.249702492
 10
154.7617161506
 20
125.220217362
 10
154.7473895124
 20
125.1920785028
 10
154.7302377511
 20
125.1656735379
 10
154.7105139312
 20
125.1413288714
 10
154.6884180335
 20
125.1192356412
 10
154.6641162496
 20
125.0995528795
 10
154.637820727
 20
125.0824769981
 10
154.6098514353
 20
125.068237577
 10
154.5805521848
 20
125.057014378
 10
154.5502591261
 20
125.0489306782
 10
154.519290111
 20
125.0440659748
 10
154.4879834424
 20
125.0424708925
  0
LWPOLYLINE
  5
599
100
AcDbEntity
  8
0
100
AcDbPolyline
 62
7
  6
CONTINUOUS
 90
16
 70
0
 10
153.9733516574
 20
91.0858229626
 10
153.9749742149
 20
91.117331578
 10
153.9798760523
 20
91.1485082552
 10
153.9880074713
 20
91.1790112965
 10
153.9992948355
 20
91.2085348472
 10
154.013611817
 20
91.2367218709
 10
154.030752383
 20
91.2631821745
 10
154.0504636544
 20
91.2875897199
 10
154.0725452779
 20
91.3097525831
 10
154.0968295617
 20
91.329508122
 10
154.1231037123
 20
91.3466607556
 10
154.1510472848
 20
91.3609811776
 10
154.1803144767
 20
91.3722866272
 10
154.2105681314
 20
91.3804542667
 10
154.2414908189
 20
91.3854075808
 10
154.272744492
 20
91.3870976147
  0
LINE
  5
59A
100
AcDbEntity
  8
0
100
AcDbLine
 62
7
  6
CONTINUOUS
 10
155.9844762391
 20
121.1234591088
 11
155.9448930567
 21
120.8404804191
  0
LINE
  5
59B
100
AcDbEntity
  8
0
100
AcDbLine
 62
7
  6
CONTINUOUS
 10
155.7469762391
 20
120.8809059462
 11
155.7865598744
 21
121.1234591088
  0
LINE
  5
59C
100
AcDbEntity
  8
0
100
AcDbLine
 62
7
  6
CONTINUOUS
 10
156.5386430567
 20
121.6489910176
 11
156.4990598744
 21
121.4064377984
  0
LINE
  5
59D
100
AcDbEntity
  8
0
100
AcDbLine
 62
7
  6
CONTINUOUS
 10
156.3011430567
 20
121.4468633255
 11
156.3407262391
 21
121.6489910176
  0
LINE
  5
59E
100
AcDbEntity
  8
0
100
AcDbLine
 62
7
  6
CONTINUOUS
 10
157.7261430567
 20
121.0830335817
 11
157.6865598744
 21
120.8809059462
  0
LINE
  5
59F
100
AcDbEntity
  8
0
100
AcDbLine
 62
7
  6
CONTINUOUS
 10
157.6865598744
 20
120.8809059462
 11
157.6469762391
 21
120.7596292517
  0
LINE
  5
5A0
100
AcDbEntity
  8
0
100
AcDbLine
 62
7
  6
CONTINUOUS
 10
158.2803096479
 20
121.7702675989
 11
158.2407264656
 21
121.6489910176
  0
LINE
  5
5A1
100
AcDbEntity
  8
0
100
AcDbLine
 62
7
  6
CONTINUOUS
 10
161.8251641487
 20
129.2156480655
 11
161.7759772058
 21
129.067967237
  0
LINE
  5
5A2
100
AcDbEntity
  8
0
100
AcDbLine
 62
7
  6
CONTINUOUS
 10
148.5082373822
 20
87.1988009005
 11
148.5576788343
 21
87.3472458772
  0
LINE
  5
5A3
100
AcDbEntity
  8
0
100
AcDbLine
 62
7
  6
CONTINUOUS
 10
159.8240596479
 20
121.6894165447
 11
159.9032264656
 21
121.8915442085
  0
LINE
  5
5A4
100
AcDbEntity
  8
0
100
AcDbLine
 62
7
  6
CONTINUOUS
 10
138.2740586823
 20
95.2255867443
 11
138.5115586823
 21
95.3872888526
  0
LINE
  5
5A5
100
AcDbEntity
  8
0
100
AcDbLine
 62
7
  6
CONTINUOUS
 10
137.2448923176
 20
94.4575016445
 11
137.3636423176
 21
94.5383526987
  0
LINE
  5
5A6
100
AcDbEntity
  8
0
100
AcDbLine
 62
7
  6
CONTINUOUS
 10
138.5511423176
 20
95.1851612172
 11
138.4323923176
 21
95.104310163
  0
LINE
  5
5A7
100
AcDbEntity
  8
0
100
AcDbLine
 62
7
  6
CONTINUOUS
 10
139.0657255
 20
94.4575016445
 11
139.1844755
 21
94.5383526987
  0
LINE
  5
5A8
100
AcDbEntity
  8
0
100
AcDbLine
 62
7
  6
CONTINUOUS
 10
138.3136423176
 20
95.9532463452
 11
138.5115586823
 21
96.0745229265
  0
LINE
  5
5A9
100
AcDbEntity
  8
0
100
AcDbLine
 62
7
  6
CONTINUOUS
 10
135.8198920911
 20
94.3766505761
 11
135.6219755
 21
94.2553739842
  0
LINE
  5
5AA
100
AcDbEntity
  8
0
100
AcDbLine
 62
7
  6
CONTINUOUS
 10
137.4823923176
 20
94.3766505761
 11
137.2844755
 21
94.2553739842
  0
LINE
  5
5AB
100
AcDbEntity
  8
0
100
AcDbLine
 62
7
  6
CONTINUOUS
 10
139.3032255
 20
94.3766505761
 11
139.1053086823
 21
94.2553739842
  0
LINE
  5
5AC
100
AcDbEntity
  8
0
100
AcDbLine
 62
7
  6
CONTINUOUS
 10
133.4053087956
 20
95.9128208181
 11
133.2865587956
 21
95.872395291
  0
LWPOLYLINE
  5
5AD
100
AcDbEntity
  8
0
100
AcDbPolyline
 62
7
  6
CONTINUOUS
 90
6
 70
0
 10
134.9673854117
 20
114.3261991536
 10
134.9941513131
 20
114.3285112496
 10
135.0208721681
 20
114.3294763809
 10
135.0475296641
 20
114.3294513834
 10
135.0740694705
 20
114.3287851394
 10
135.1269458631
 20
114.3268672359
  0
LINE
  5
5AE
100
AcDbEntity
  8
0
100
AcDbLine
 62
7
  6
CONTINUOUS
 10
134.9564428249
 20
114.9402958363
 11
134.4292344784
 21
114.9392588536
  0
LINE
  5
5AF
100
AcDbEntity
  8
0
100
AcDbLine
 62
7
  6
CONTINUOUS
 10
153.1434452784
 20
113.8701404536
 11
153.8253832784
 21
113.8701404536
  0
LINE
  5
5B0
100
AcDbEntity
  8
0
100
AcDbLine
 62
7
  6
CONTINUOUS
 10
163.8008022784
 20
113.8701404536
 11
164.4826722784
 21
113.8701404536
  0
LINE
  5
5B1
100
AcDbEntity
  8
0
100
AcDbLine
 62
7
  6
CONTINUOUS
 10
133.9367572784
 20
114.0883964536
 11
133.6816652784
 21
114.0883964536
  0
LINE
  5
5B2
100
AcDbEntity
  8
0
100
AcDbLine
 62
7
  6
CONTINUOUS
 10
139.2362522784
 20
114.0940574536
 11
138.5034722784
 21
114.0940574536
  0
LINE
  5
5B3
100
AcDbEntity
  8
0
100
AcDbLine
 62
7
  6
CONTINUOUS
 10
161.2080582784
 20
114.1613334536
 11
160.1828202784
 21
114.1613334536
  0
LINE
  5
5B4
100
AcDbEntity
  8
0
100
AcDbLine
 62
7
  6
CONTINUOUS
 10
152.2839312784
 20
114.1613334536
 11
151.4220382784
 21
114.1613334536
  0
LINE
  5
5B5
100
AcDbEntity
  8
0
100
AcDbLine
 62
7
  6
CONTINUOUS
 10
162.9294232784
 20
114.1684824536
 11
162.4759653152
 21
114.1684824536
  0
LINE
  5
5B6
100
AcDbEntity
  8
0
100
AcDbLine
 62
7
  6
CONTINUOUS
 10
133.6816652784
 20
114.3308734536
 11
133.9367572784
 21
114.3308734536
  0
LINE
  5
5B7
100
AcDbEntity
  8
0
100
AcDbLine
 62
7
  6
CONTINUOUS
 10
138.5034722784
 20
114.3358394536
 11
139.2362522784
 21
114.3358394536
  0
LINE
  5
5B8
100
AcDbEntity
  8
0
100
AcDbLine
 62
7
  6
CONTINUOUS
 10
150.4727062784
 20
114.3649484536
 11
150.7023052784
 21
114.3649484536
  0
LINE
  5
5B9
100
AcDbEntity
  8
0
100
AcDbLine
 62
7
  6
CONTINUOUS
 10
151.4220382784
 20
114.3649484536
 11
152.5136682784
 21
114.3649484536
  0
LINE
  5
5BA
100
AcDbEntity
  8
0
100
AcDbLine
 62
7
  6
CONTINUOUS
 10
152.7242952784
 20
114.3649484536
 11
152.9753422784
 21
114.3649484536
  0
LINE
  5
5BB
100
AcDbEntity
  8
0
100
AcDbLine
 62
7
  6
CONTINUOUS
 10
154.0030002784
 20
114.3649484536
 11
154.2397352784
 21
114.3649484536
  0
LINE
  5
5BC
100
AcDbEntity
  8
0
100
AcDbLine
 62
7
  6
CONTINUOUS
 10
154.8814042784
 20
114.3649484536
 11
155.1110452784
 21
114.3649484536
  0
LINE
  5
5BD
100
AcDbEntity
  8
0
100
AcDbLine
 62
7
  6
CONTINUOUS
 10
155.9326682784
 20
114.3649484536
 11
156.1623922784
 21
114.3649484536
  0
LINE
  5
5BE
100
AcDbEntity
  8
0
100
AcDbLine
 62
7
  6
CONTINUOUS
 10
157.2159932784
 20
114.3649484536
 11
157.4740662784
 21
114.3649484536
  0
LINE
  5
5BF
100
AcDbEntity
  8
0
100
AcDbLine
 62
7
  6
CONTINUOUS
 10
158.3430392784
 20
114.3649484536
 11
158.5656952784
 21
114.3649484536
  0
LINE
  5
5C0
100
AcDbEntity
  8
0
100
AcDbLine
 62
7
  6
CONTINUOUS
 10
158.9586822784
 20
114.3649484536
 11
159.1883372784
 21
114.3649484536
  0
LINE
  5
5C1
100
AcDbEntity
  8
0
100
AcDbLine
 62
7
  6
CONTINUOUS
 10
160.1828202784
 20
114.3649484536
 11
161.4377812784
 21
114.3649484536
  0
LINE
  5
5C2
100
AcDbEntity
  8
0
100
AcDbLine
 62
7
  6
CONTINUOUS
 10
162.4701275598
 20
114.3649484536
 11
163.1591602784
 21
114.3649484536
  0
LINE
  5
5C3
100
AcDbEntity
  8
0
100
AcDbLine
 62
7
  6
CONTINUOUS
 10
163.3817072784
 20
114.3649484536
 11
163.6327132784
 21
114.3649484536
  0
LINE
  5
5C4
100
AcDbEntity
  8
0
100
AcDbLine
 62
7
  6
CONTINUOUS
 10
164.6602742784
 20
114.3649484536
 11
164.8970232784
 21
114.3649484536
  0
LINE
  5
5C5
100
AcDbEntity
  8
0
100
AcDbLine
 62
7
  6
CONTINUOUS
 10
165.1006522784
 20
114.3649484536
 11
165.3232952784
 21
114.3649484536
  0
LINE
  5
5C6
100
AcDbEntity
  8
0
100
AcDbLine
 62
7
  6
CONTINUOUS
 10
165.8015172784
 20
114.3649484536
 11
166.0288252784
 21
114.3649484536
  0
LINE
  5
5C7
100
AcDbEntity
  8
0
100
AcDbLine
 62
7
  6
CONTINUOUS
 10
166.5071392784
 20
114.3649484536
 11
166.7296922784
 21
114.3649484536
  0
LINE
  5
5C8
100
AcDbEntity
  8
0
100
AcDbLine
 62
7
  6
CONTINUOUS
 10
139.2700362784
 20
114.9419874536
 11
138.2299362784
 21
114.9419874536
  0
LINE
  5
5C9
100
AcDbEntity
  8
0
100
AcDbLine
 62
7
  6
CONTINUOUS
 10
134.4292344784
 20
115.1817362203
 11
135.1921923984
 21
115.1817362203
  0
LINE
  5
5CA
100
AcDbEntity
  8
0
100
AcDbLine
 62
7
  6
CONTINUOUS
 10
133.9656412784
 20
115.1817364536
 11
134.1792352784
 21
115.1817364536
  0
LINE
  5
5CB
100
AcDbEntity
  8
0
100
AcDbLine
 62
7
  6
CONTINUOUS
 10
137.9874572784
 20
115.1844644536
 11
139.2700362784
 21
115.1844644536
  0
LINE
  5
5CC
100
AcDbEntity
  8
0
100
AcDbLine
 62
7
  6
CONTINUOUS
 10
136.0989912784
 20
115.1876314536
 11
136.3414692784
 21
115.1876314536
  0
LINE
  5
5CD
100
AcDbEntity
  8
0
100
AcDbLine
 62
7
  6
CONTINUOUS
 10
137.3967172784
 20
115.1912304536
 11
137.7396062784
 21
115.1912304536
  0
LINE
  5
5CE
100
AcDbEntity
  8
0
100
AcDbLine
 62
7
  6
CONTINUOUS
 10
138.7446612784
 20
115.3576464536
 11
138.4017582784
 21
115.3576464536
  0
LINE
  5
5CF
100
AcDbEntity
  8
0
100
AcDbLine
 62
7
  6
CONTINUOUS
 10
138.8316622784
 20
115.7875494536
 11
139.1745502784
 21
115.7875494536
  0
LWPOLYLINE
  5
5D0
100
AcDbEntity
  8
0
100
AcDbPolyline
 62
7
  6
CONTINUOUS
 90
3
 70
0
 10
135.2037986117
 20
114.9391416869
 10
135.1225510623
 20
114.9397838542
 10
134.9564428249
 20
114.9402958363
  0
LWPOLYLINE
  5
5D1
100
AcDbEntity
  8
0
100
AcDbPolyline
 62
7
  6
CONTINUOUS
 90
25
 70
0
 10
135.1269458631
 20
114.3268672359
 10
135.1533561469
 20
114.326266278
 10
135.1797273276
 20
114.3263374605
 10
135.2061624514
 20
114.3274117589
 10
135.2326877687
 20
114.3297349813
 10
135.2591693205
 20
114.3333803812
 10
135.2854636721
 20
114.3384362016
 10
135.3114559247
 20
114.3449840019
 10
135.3370472366
 20
114.3531041294
 10
135.3620918277
 20
114.3628668127
 10
135.3864507504
 20
114.3743333879
 10
135.4099484958
 20
114.3875389547
 10
135.432369924
 20
114.4024712112
 10
135.4535241104
 20
114.4191000436
 10
135.4732459049
 20
114.4373822019
 10
135.4913597536
 20
114.4572377492
 10
135.5076568567
 20
114.4784948263
 10
135.5220426205
 20
114.501071048
 10
135.5344787237
 20
114.5250161184
 10
135.5448021887
 20
114.5501935917
 10
135.5528396505
 20
114.5764122494
 10
135.5585039734
 20
114.6036385764
 10
135.5615387076
 20
114.6317279868
 10
135.561839244
 20
114.6603650122
 10
135.5592138784
 20
114.6892707869
  0
LWPOLYLINE
  5
5D2
100
AcDbEntity
  8
0
100
AcDbPolyline
 62
7
  6
CONTINUOUS
 90
34
 70
0
 10
135.1921923984
 20
115.1817362205
 10
135.2418237664
 20
115.1803540634
 10
135.2917366235
 20
115.1760420054
 10
135.3417209779
 20
115.1685246435
 10
135.3917468532
 20
115.1574394837
 10
135.4412314588
 20
115.1425142145
 10
135.4890869482
 20
115.1237647435
 10
135.5349040128
 20
115.1011380966
 10
135.5782655889
 20
115.0746521841
 10
135.6181959596
 20
115.044872536
 10
135.6540674761
 20
115.0125331959
 10
135.6861291455
 20
114.9777590127
 10
135.7147377462
 20
114.940288391
 10
135.7395667762
 20
114.900586481
 10
135.7605234942
 20
114.8588849306
 10
135.7778671647
 20
114.8142973447
 10
135.7913654162
 20
114.7665659535
 10
135.8003013251
 20
114.7165823537
 10
135.8043566284
 20
114.6652419663
 10
135.8033898336
 20
114.6129715865
 10
135.7972531138
 20
114.5603254088
 10
135.7860048052
 20
114.5084131669
 10
135.7697694316
 20
114.4578907913
 10
135.7486539306
 20
114.4090819395
 10
135.7228947134
 20
114.3625628883
 10
135.6926709686
 20
114.3186769266
 10
135.6583376021
 20
114.2779328096
 10
135.6206028926
 20
114.24099557
 10
135.5798798587
 20
114.2079982078
 10
135.5367233353
 20
114.1791022957
 10
135.49227667
 20
114.1546480703
 10
135.4473059343
 20
114.134497397
 10
135.4020700938
 20
114.1182289437
 10
135.356908845
 20
114.1057256869
  0
LINE
  5
5D3
100
AcDbEntity
  8
0
100
AcDbLine
 62
7
  6
CONTINUOUS
 10
150.7023052784
 20
113.6806864536
 11
151.3439472784
 21
112.6649484536
  0
LINE
  5
5D4
100
AcDbEntity
  8
0
100
AcDbLine
 62
7
  6
CONTINUOUS
 10
151.0764012784
 20
112.6649484536
 11
150.5886052784
 21
113.4818834536
  0
LINE
  5
5D5
100
AcDbEntity
  8
0
100
AcDbLine
 62
7
  6
CONTINUOUS
 10
158.7037097117
 20
102.3241712203
 11
158.2741273117
 21
103.1428254869
  0
LINE
  5
5D6
100
AcDbEntity
  8
0
100
AcDbLine
 62
7
  6
CONTINUOUS
 10
158.547969245
 20
103.1428254869
 11
159.093233145
 21
102.1036977536
  0
LINE
  5
5D7
100
AcDbEntity
  8
0
100
AcDbLine
 62
7
  6
CONTINUOUS
 10
158.7511922784
 20
95.1334424536
 11
159.2164192784
 21
93.8928784536
  0
LINE
  5
5D8
100
AcDbEntity
  8
0
100
AcDbLine
 62
7
  6
CONTINUOUS
 10
159.1136012784
 20
93.2335964536
 11
158.7212172784
 21
94.2883964536
  0
LINE
  5
5D9
100
AcDbEntity
  8
0
100
AcDbLine
 62
7
  6
CONTINUOUS
 10
153.3399932784
 20
112.6649484536
 11
152.7242952784
 21
114.3649484536
  0
LINE
  5
5DA
100
AcDbEntity
  8
0
100
AcDbLine
 62
7
  6
CONTINUOUS
 10
152.9753422784
 20
114.3649484536
 11
153.1434452784
 21
113.8701404536
  0
LINE
  5
5DB
100
AcDbEntity
  8
0
100
AcDbLine
 62
7
  6
CONTINUOUS
 10
153.2263342784
 20
113.6665254536
 11
153.4796222784
 21
112.9115314536
  0
LINE
  5
5DC
100
AcDbEntity
  8
0
100
AcDbLine
 62
7
  6
CONTINUOUS
 10
161.8251641487
 20
87.2142488417
 11
161.7759772058
 21
87.3619296702
  0
LINE
  5
5DD
100
AcDbEntity
  8
0
100
AcDbLine
 62
7
  6
CONTINUOUS
 10
148.5082373822
 20
129.2310960068
 11
148.5576788343
 21
129.08265103
  0
LINE
  5
5DE
100
AcDbEntity
  8
0
100
AcDbLine
 62
7
  6
CONTINUOUS
 10
156.5478482784
 20
95.1334424536
 11
156.6505812784
 21
94.7541654536
  0
LINE
  5
5DF
100
AcDbEntity
  8
0
100
AcDbLine
 62
7
  6
CONTINUOUS
 10
156.7298362784
 20
94.4606824536
 11
156.9120662784
 21
93.7556254536
  0
LINE
  5
5E0
100
AcDbEntity
  8
0
100
AcDbLine
 62
7
  6
CONTINUOUS
 10
157.9322752784
 20
93.2335964536
 11
157.7546182784
 21
95.1334424536
  0
LWPOLYLINE
  5
5E1
100
AcDbEntity
  8
0
100
AcDbPolyline
 62
253
  6
CONTINUOUS
 90
13
 70
0
 10
154.01689338
 20
125.4748053396
 10
154.0194920761
 20
125.4357253631
 10
154.0271723585
 20
125.3973129245
 10
154.0398030956
 20
125.3602244873
 10
154.0571685469
 20
125.325093917
 10
154.0789720497
 20
125.292521638
 10
154.1048410884
 20
125.2630643727
 10
154.1343336796
 20
125.2372256121
 10
154.1669458321
 20
125.2154470849
 10
154.2021201352
 20
125.1981011547
 10
154.2392554185
 20
125.1854843638
 10
154.2777170526
 20
125.1778124045
 10
154.3168476886
 20
125.1752164792
  0
LINE
  5
5E2
100
AcDbEntity
  8
0
100
AcDbLine
 62
7
  6
CONTINUOUS
 10
158.1425712784
 20
95.1334424536
 11
158.2240482784
 21
93.8980504536
  0
LINE
  5
5E3
100
AcDbEntity
  8
0
100
AcDbLine
 62
253
  6
CONTINUOUS
 10
154.7395617158
 20
125.5499564906
 11
154.738540012
 21
125.5926426019
  0
LINE
  5
5E4
100
AcDbEntity
  8
0
100
AcDbLine
 62
7
  6
CONTINUOUS
 10
157.1579059874
 20
117.7373517446
 11
157.1574885798
 21
118.692127755
  0
LINE
  5
5E5
100
AcDbEntity
  8
0
100
AcDbLine
 62
7
  6
CONTINUOUS
 10
155.1110452784
 20
114.3649484536
 11
155.1110452784
 21
112.8685634536
  0
LINE
  5
5E6
100
AcDbEntity
  8
0
100
AcDbLine
 62
7
  6
CONTINUOUS
 10
155.5571462784
 20
102.3358394536
 11
155.5571462784
 21
102.0940574536
  0
LINE
  5
5E7
100
AcDbEntity
  8
0
100
AcDbLine
 62
7
  6
CONTINUOUS
 10
155.6184480335
 20
94.3899475371
 11
155.6184480335
 21
95.1334421996
  0
LINE
  5
5E8
100
AcDbEntity
  8
0
100
AcDbLine
 62
7
  6
CONTINUOUS
 10
155.6315977752
 20
93.5572540304
 11
155.6315977752
 21
94.0787987179
  0
LINE
  5
5E9
100
AcDbEntity
  8
0
100
AcDbLine
 62
7
  6
CONTINUOUS
 10
155.6864192784
 20
112.8685634536
 11
155.6864192784
 21
112.6649484536
  0
LINE
  5
5EA
100
AcDbEntity
  8
0
100
AcDbLine
 62
7
  6
CONTINUOUS
 10
155.7469762391
 20
121.5277144364
 11
155.7469762391
 21
121.6489910176
  0
LINE
  5
5EB
100
AcDbEntity
  8
0
100
AcDbLine
 62
7
  6
CONTINUOUS
 10
155.7865598744
 20
121.1234591088
 11
155.7865598744
 21
121.204310163
  0
LINE
  5
5EC
100
AcDbEntity
  8
0
100
AcDbLine
 62
7
  6
CONTINUOUS
 10
155.8306822784
 20
101.4879094536
 11
155.8306822784
 21
102.9003484536
  0
LINE
  5
5ED
100
AcDbEntity
  8
0
100
AcDbLine
 62
7
  6
CONTINUOUS
 10
155.9326682784
 20
112.6649484536
 11
155.9326682784
 21
114.3649484536
  0
LINE
  5
5EE
100
AcDbEntity
  8
0
100
AcDbLine
 62
7
  6
CONTINUOUS
 10
155.9844762391
 20
121.4064377984
 11
155.9844762391
 21
121.1234591088
  0
LINE
  5
5EF
100
AcDbEntity
  8
0
100
AcDbLine
 62
7
  6
CONTINUOUS
 10
156.0134246756
 20
95.1334421996
 11
156.0134246756
 21
93.2557929949
  0
LINE
  5
5F0
100
AcDbEntity
  8
0
100
AcDbLine
 62
7
  6
CONTINUOUS
 10
156.0731612784
 20
103.1428254536
 11
156.0731612784
 21
101.2454324536
  0
LINE
  5
5F1
100
AcDbEntity
  8
0
100
AcDbLine
 62
7
  6
CONTINUOUS
 10
156.1623922784
 20
114.3649484536
 11
156.1623922784
 21
112.6649484536
  0
LINE
  5
5F2
100
AcDbEntity
  8
0
100
AcDbLine
 62
7
  6
CONTINUOUS
 10
156.3011430567
 20
121.0830335817
 11
156.3011430567
 21
121.4468633255
  0
LINE
  5
5F3
100
AcDbEntity
  8
0
100
AcDbLine
 62
7
  6
CONTINUOUS
 10
156.4990598744
 20
121.4064377984
 11
156.4990598744
 21
121.1234591088
  0
LINE
  5
5F4
100
AcDbEntity
  8
0
100
AcDbLine
 62
7
  6
CONTINUOUS
 10
157.2159932784
 20
112.6649484536
 11
157.2159932784
 21
114.3649484536
  0
LINE
  5
5F5
100
AcDbEntity
  8
0
100
AcDbLine
 62
7
  6
CONTINUOUS
 10
157.4385402784
 20
114.0458314536
 11
157.4385402784
 21
112.6649484536
  0
LINE
  5
5F6
100
AcDbEntity
  8
0
100
AcDbLine
 62
7
  6
CONTINUOUS
 10
157.5282262391
 20
121.1234591088
 11
157.5282262391
 21
121.4064377984
  0
LINE
  5
5F7
100
AcDbEntity
  8
0
100
AcDbLine
 62
7
  6
CONTINUOUS
 10
157.1574885798
 20
97.7377691522
 11
157.1579059874
 21
98.6925451626
  0
LWPOLYLINE
  5
5F8
100
AcDbEntity
  8
0
100
AcDbPolyline
 62
253
  6
CONTINUOUS
 90
7
 70
0
 10
154.4437708681
 20
91.254680428
 10
154.4431370781
 20
91.2495679265
 10
154.4425153972
 20
91.2403068542
 10
154.4419058256
 20
91.2269456331
 10
154.4413053347
 20
91.2095541085
 10
154.440716953
 20
91.1882231958
 10
154.4396040659
 20
91.1342092269
  0
LINE
  5
5F9
100
AcDbEntity
  8
0
100
AcDbLine
 62
7
  6
CONTINUOUS
 10
157.4886430567
 20
120.8809059462
 11
157.5282262391
 21
121.1234591088
  0
LINE
  5
5FA
100
AcDbEntity
  8
0
100
AcDbLine
 62
7
  6
CONTINUOUS
 10
160.0615596479
 20
121.7702675989
 11
160.0219764656
 21
121.6489910176
  0
LINE
  5
5FB
100
AcDbEntity
  8
0
100
AcDbLine
 62
7
  6
CONTINUOUS
 10
160.0615596479
 20
121.0830335817
 11
160.0219764656
 21
120.9617570004
  0
LINE
  5
5FC
100
AcDbEntity
  8
0
100
AcDbLine
 62
7
  6
CONTINUOUS
 10
160.9719763523
 20
120.7596292517
 11
161.0115597611
 21
120.8809059462
  0
LINE
  5
5FD
100
AcDbEntity
  8
0
100
AcDbLine
 62
253
  6
CONTINUOUS
 10
161.7729403213
 20
125.3428389327
 11
161.81689338
 21
125.4748053396
  0
LINE
  5
5FE
100
AcDbEntity
  8
0
100
AcDbLine
 62
253
  6
CONTINUOUS
 10
162.0726351143
 20
125.0424708925
 11
162.1168476886
 21
125.1752164792
  0
LINE
  5
5FF
100
AcDbEntity
  8
0
100
AcDbLine
 62
7
  6
CONTINUOUS
 10
161.2094764089
 20
120.8404804191
 11
161.1303097045
 21
120.6383526704
  0
LINE
  5
600
100
AcDbEntity
  8
DRAFT
100
AcDbLine
 62
7
  6
CONTINUOUS
 10
168.0384118038
 20
129.2310960068
 11
167.9641731075
 21
129.0825167329
  0
LINE
  5
601
100
AcDbEntity
  8
0
100
AcDbLine
 62
7
  6
CONTINUOUS
 10
133.6823922044
 20
95.104310163
 11
133.8011422044
 21
95.1447356901
  0
LINE
  5
602
100
AcDbEntity
  8
0
100
AcDbLine
 62
7
  6
CONTINUOUS
 10
133.6823922044
 20
94.4170761174
 11
133.8011422044
 21
94.4575016445
  0
LINE
  5
603
100
AcDbEntity
  8
0
100
AcDbLine
 62
7
  6
CONTINUOUS
 10
138.6698923176
 20
95.9128208181
 11
138.5511423176
 21
95.872395291
  0
LINE
  5
604
100
AcDbEntity
  8
0
100
AcDbLine
 62
7
  6
CONTINUOUS
 10
138.6698923176
 20
95.2255867443
 11
138.5511423176
 21
95.1851612172
  0
LINE
  5
605
100
AcDbEntity
  8
0
100
AcDbLine
 62
7
  6
CONTINUOUS
 10
138.9469755
 20
94.4170761174
 11
139.0657255
 21
94.4575016445
  0
LINE
  5
606
100
AcDbEntity
  8
0
100
AcDbLine
 62
7
  6
CONTINUOUS
 10
158.8740596479
 20
121.204310163
 11
159.0323930567
 21
121.2447356901
  0
LINE
  5
607
100
AcDbEntity
  8
0
100
AcDbLine
 62
7
  6
CONTINUOUS
 10
158.6365596479
 20
122.0128207898
 11
158.4782264656
 21
121.9723952627
  0
LINE
  5
608
100
AcDbEntity
  8
0
100
AcDbLine
 62
7
  6
CONTINUOUS
 10
160.8136430567
 20
120.3553739807
 11
160.6157263523
 21
120.3149484536
  0
LINE
  5
609
100
AcDbEntity
  8
0
100
AcDbLine
 62
7
  6
CONTINUOUS
 10
157.0136430567
 20
120.5170760891
 11
157.2115598744
 21
120.5575016162
  0
LINE
  5
60A
100
AcDbEntity
  8
0
100
AcDbLine
 62
7
  6
CONTINUOUS
 10
159.0719764656
 20
121.0426080546
 11
158.8740596479
 21
121.0021825275
  0
LINE
  5
60B
100
AcDbEntity
  8
0
100
AcDbLine
 62
7
  6
CONTINUOUS
 10
155.5490598744
 20
120.3553739807
 11
155.3511430567
 21
120.3149484536
  0
LINE
  5
60C
100
AcDbEntity
  8
0
100
AcDbLine
 62
7
  6
CONTINUOUS
 10
160.2198930567
 20
121.4872888526
 11
160.4178097611
 21
121.5277144364
  0
LINE
  5
60D
100
AcDbEntity
  8
0
100
AcDbLine
 62
7
  6
CONTINUOUS
 10
157.2511430567
 20
120.3553739807
 11
157.0136430567
 21
120.3149484536
  0
LINE
  5
60E
100
AcDbEntity
  8
0
100
AcDbLine
 62
7
  6
CONTINUOUS
 10
136.9027125693
 20
117.7373517446
 11
140.1566109798
 21
117.7386467521
  0
LINE
  5
60F
100
AcDbEntity
  8
0
100
AcDbLine
 62
7
  6
CONTINUOUS
 10
157.1574885798
 20
118.692127755
 11
153.904410537
 21
118.6908471949
  0
LINE
  5
610
100
AcDbEntity
  8
0
100
AcDbLine
 62
253
  6
CONTINUOUS
 10
136.9224556955
 20
117.7570948707
 11
140.1381628612
 21
117.7570948707
  0
LINE
  5
611
100
AcDbEntity
  8
0
100
AcDbLine
 62
253
  6
CONTINUOUS
 10
153.9224556955
 20
117.7570948707
 11
157.1381628612
 21
117.7570948707
  0
LINE
  5
612
100
AcDbEntity
  8
0
100
AcDbLine
 62
253
  6
CONTINUOUS
 10
136.9224556955
 20
118.6728020365
 11
140.1381628612
 21
118.6728020365
  0
LINE
  5
613
100
AcDbEntity
  8
0
100
AcDbLine
 62
253
  6
CONTINUOUS
 10
153.9224556955
 20
118.6728020365
 11
157.1381628612
 21
118.6728020365
  0
LINE
  5
614
100
AcDbEntity
  8
0
100
AcDbLine
 62
7
  6
CONTINUOUS
 10
153.9040075769
 20
117.7386467521
 11
157.1579059874
 21
117.7373517446
  0
LINE
  5
615
100
AcDbEntity
  8
0
100
AcDbLine
 62
7
  6
CONTINUOUS
 10
140.1562080197
 20
118.6908471949
 11
136.9031299769
 21
118.692127755
  0
LWPOLYLINE
  5
616
100
AcDbEntity
  8
0
100
AcDbPolyline
 62
7
  6
CONTINUOUS
 90
4
 70
0
 10
139.066761887
 20
122.1832858294
 10
139.0883231683
 20
122.173268014
 10
139.1081977322
 20
122.1613296909
 10
139.1264989355
 20
122.1477759691
  0
LINE
  5
617
100
AcDbEntity
  8
DRAFT
100
AcDbLine
 62
7
  6
CONTINUOUS
 10
168.0384118038
 20
87.1988009005
 11
167.9641731075
 21
87.3473801743
  0
LINE
  5
618
100
AcDbEntity
  8
0
100
AcDbLine
 62
253
  6
CONTINUOUS
 10
161.7729403213
 20
91.0870579745
 11
161.81689338
 21
90.9550915676
  0
LINE
  5
619
100
AcDbEntity
  8
0
100
AcDbLine
 62
253
  6
CONTINUOUS
 10
162.0726351143
 20
91.3874260147
 11
162.1168476886
 21
91.254680428
  0
LINE
  5
61A
100
AcDbEntity
  8
0
100
AcDbLine
 62
7
  6
CONTINUOUS
 10
161.3987852784
 20
95.1334424536
 11
162.0010732784
 21
93.2335964536
  0
LINE
  5
61B
100
AcDbEntity
  8
0
100
AcDbLine
 62
7
  6
CONTINUOUS
 10
161.5702732784
 20
93.2335964536
 11
161.2081282784
 21
94.5413194536
  0
LWPOLYLINE
  5
61C
100
AcDbEntity
  8
0
100
AcDbPolyline
 62
7
  6
CONTINUOUS
 90
34
 70
0
 10
158.5014046784
 20
101.7406261203
 10
158.5032412089
 20
101.7298775999
 10
158.5053364087
 20
101.7191202983
 10
158.5080065982
 20
101.7084260684
 10
158.5111322122
 20
101.6977876838
 10
158.5147055959
 20
101.6872287959
 10
158.518735791
 20
101.6767851806
 10
158.5232254237
 20
101.6664921252
 10
158.5281748437
 20
101.6563589017
 10
158.5335935211
 20
101.6463843288
 10
158.5394652229
 20
101.63661735
 10
158.5457998844
 20
101.627054896
 10
158.5526616818
 20
101.6176281104
 10
158.5600517757
 20
101.6083724083
 10
158.5679755683
 20
101.5993160873
 10
158.5765253347
 20
101.5903997489
 10
158.5857125243
 20
101.5816621636
 10
158.5955358234
 20
101.5731496922
 10
158.6060840924
 20
101.5648356458
 10
158.6173566951
 20
101.5567756398
 10
158.6293566295
 20
101.5490159902
 10
158.6421904702
 20
101.5415396029
 10
158.6558838466
 20
101.5343908711
 10
158.6704012118
 20
101.5276412418
 10
158.6857614853
 20
101.5213280991
 10
158.7019818897
 20
101.5154892596
 10
158.7190110898
 20
101.5101829949
 10
158.7367592159
 20
101.50546549
 10
158.7551752044
 20
101.5013684279
 10
158.7742578572
 20
101.4979072124
 10
158.7939884396
 20
101.4951004232
 10
158.8143435646
 20
101.4929654057
 10
158.8352961286
 20
101.491514864
 10
158.856819945
 20
101.4907552203
  0
LWPOLYLINE
  5
61D
100
AcDbEntity
  8
0
100
AcDbPolyline
 62
253
  6
CONTINUOUS
 90
6
 70
0
 10
154.4437708681
 20
125.1752164792
 10
154.4431370858
 20
125.1803289924
 10
154.4425154078
 20
125.1895900821
 10
154.4419058341
 20
125.2029513178
 10
154.4413053373
 20
125.2203428381
 10
154.4407169447
 20
125.2416737242
  0
LINE
  5
61E
100
AcDbEntity
  8
0
100
AcDbLine
 62
7
  6
CONTINUOUS
 10
157.7191492784
 20
101.2422654536
 11
157.7191492784
 21
103.1428254536
  0
LINE
  5
61F
100
AcDbEntity
  8
0
100
AcDbLine
 62
7
  6
CONTINUOUS
 10
157.7261430567
 20
121.4468633255
 11
157.7261430567
 21
121.0830335817
  0
LINE
  5
620
100
AcDbEntity
  8
0
100
AcDbLine
 62
7
  6
CONTINUOUS
 10
157.9303092784
 20
90.9149484536
 11
157.9303092784
 21
87.2145232342
  0
LINE
  5
621
100
AcDbEntity
  8
0
100
AcDbLine
 62
7
  6
CONTINUOUS
 10
157.9303092784
 20
125.5149484536
 11
157.9303092784
 21
129.215373673
  0
LINE
  5
622
100
AcDbEntity
  8
0
100
AcDbLine
 62
7
  6
CONTINUOUS
 10
157.9616272784
 20
103.1428254536
 11
157.9616272784
 21
101.2422654536
  0
LINE
  5
623
100
AcDbEntity
  8
0
100
AcDbLine
 62
7
  6
CONTINUOUS
 10
158.0428098744
 20
121.5277144364
 11
158.0428098744
 21
121.6894165447
  0
LINE
  5
624
100
AcDbEntity
  8
0
100
AcDbLine
 62
7
  6
CONTINUOUS
 10
158.1219762391
 20
120.3149484536
 11
158.1219762391
 21
120.5170760891
  0
LINE
  5
625
100
AcDbEntity
  8
0
100
AcDbLine
 62
253
  6
CONTINUOUS
 10
158.2303092784
 20
91.2149484536
 11
158.2303092784
 21
87.1988009005
  0
LINE
  5
626
100
AcDbEntity
  8
0
100
AcDbLine
 62
253
  6
CONTINUOUS
 10
158.2303092784
 20
125.2149484536
 11
158.2303092784
 21
129.2310960068
  0
LINE
  5
627
100
AcDbEntity
  8
0
100
AcDbLine
 62
7
  6
CONTINUOUS
 10
158.2407264656
 20
121.6489910176
 11
158.2407264656
 21
121.5681399635
  0
LINE
  5
628
100
AcDbEntity
  8
0
100
AcDbLine
 62
253
  6
CONTINUOUS
 10
158.3303092784
 20
91.2149484536
 11
158.3303092784
 21
87.1988009005
  0
LINE
  5
629
100
AcDbEntity
  8
0
100
AcDbLine
 62
253
  6
CONTINUOUS
 10
158.3303092784
 20
125.2149484536
 11
158.3303092784
 21
129.2310960068
  0
LINE
  5
62A
100
AcDbEntity
  8
0
100
AcDbLine
 62
7
  6
CONTINUOUS
 10
158.3430392784
 20
112.9843454536
 11
158.3430392784
 21
114.3649484536
  0
LINE
  5
62B
100
AcDbEntity
  8
0
100
AcDbLine
 62
7
  6
CONTINUOUS
 10
158.5656952784
 20
114.3649484536
 11
158.5656952784
 21
112.6649484536
  0
LINE
  5
62C
100
AcDbEntity
  8
0
100
AcDbLine
 62
7
  6
CONTINUOUS
 10
158.6303092784
 20
90.9149484536
 11
158.6303092784
 21
87.2145232342
  0
LINE
  5
62D
100
AcDbEntity
  8
0
100
AcDbLine
 62
7
  6
CONTINUOUS
 10
158.6303092784
 20
125.5149484536
 11
158.6303092784
 21
129.215373673
  0
LINE
  5
62E
100
AcDbEntity
  8
0
100
AcDbLine
 62
7
  6
CONTINUOUS
 10
158.9586822784
 20
112.6649484536
 11
158.9586822784
 21
114.3649484536
  0
LINE
  5
62F
100
AcDbEntity
  8
0
100
AcDbLine
 62
7
  6
CONTINUOUS
 10
159.1883372784
 20
114.3649484536
 11
159.1883372784
 21
112.6649484536
  0
LINE
  5
630
100
AcDbEntity
  8
0
100
AcDbLine
 62
7
  6
CONTINUOUS
 10
159.2698930567
 20
120.5170760891
 11
159.2698930567
 21
121.1638846359
  0
LINE
  5
631
100
AcDbEntity
  8
0
100
AcDbLine
 62
7
  6
CONTINUOUS
 10
159.4678096479
 20
121.3660122713
 11
159.4678096479
 21
120.3149484536
  0
LINE
  5
632
100
AcDbEntity
  8
0
100
AcDbLine
 62
7
  6
CONTINUOUS
 10
159.6313840784
 20
101.4906380536
 11
159.6313840784
 21
101.2481606869
  0
LINE
  5
633
100
AcDbEntity
  8
0
100
AcDbLine
 62
7
  6
CONTINUOUS
 10
159.7844764656
 20
121.1234591088
 11
159.7844764656
 21
121.4064377984
  0
LINE
  5
634
100
AcDbEntity
  8
0
100
AcDbLine
 62
7
  6
CONTINUOUS
 10
159.8813832784
 20
101.2481604536
 11
159.8813832784
 21
103.1523204536
  0
LINE
  5
635
100
AcDbEntity
  8
0
100
AcDbLine
 62
7
  6
CONTINUOUS
 10
159.8948782784
 20
93.2334824536
 11
159.8948782784
 21
95.1334424536
  0
LINE
  5
636
100
AcDbEntity
  8
0
100
AcDbLine
 62
7
  6
CONTINUOUS
 10
159.9823930567
 20
121.4064377984
 11
159.9823930567
 21
121.3255867443
  0
LINE
  5
637
100
AcDbEntity
  8
0
100
AcDbLine
 62
7
  6
CONTINUOUS
 10
160.0219764656
 20
120.9617570004
 11
160.0219764656
 21
120.8809059462
  0
LINE
  5
638
100
AcDbEntity
  8
0
100
AcDbLine
 62
7
  6
CONTINUOUS
 10
160.1238612784
 20
103.1523204536
 11
160.1238612784
 21
102.3415004536
  0
LINE
  5
639
100
AcDbEntity
  8
0
100
AcDbLine
 62
7
  6
CONTINUOUS
 10
160.1238612784
 20
102.0990234536
 11
160.1238612784
 21
101.6530644536
  0
LINE
  5
63A
100
AcDbEntity
  8
0
100
AcDbLine
 62
7
  6
CONTINUOUS
 10
160.1828202784
 20
114.1613334536
 11
160.1828202784
 21
114.3649484536
  0
LINE
  5
63B
100
AcDbEntity
  8
0
100
AcDbLine
 62
7
  6
CONTINUOUS
 10
160.1994142784
 20
112.6649484536
 11
160.1994142784
 21
112.8685634536
  0
LINE
  5
63C
100
AcDbEntity
  8
0
100
AcDbLine
 62
7
  6
CONTINUOUS
 10
159.2164192784
 20
93.8928784536
 11
159.3020002784
 21
95.1334424536
  0
LWPOLYLINE
  5
63D
100
AcDbEntity
  8
0
100
AcDbPolyline
 62
253
  6
CONTINUOUS
 90
7
 70
0
 10
162.1168476886
 20
125.1752164792
 10
162.1174814786
 20
125.1803289807
 10
162.1181031595
 20
125.189590053
 10
162.1187127311
 20
125.2029512742
 10
162.119313222
 20
125.2203427987
 10
162.1199016037
 20
125.2416737114
 10
162.1210144908
 20
125.2956876803
  0
LINE
  5
63E
100
AcDbEntity
  8
0
100
AcDbLine
 62
7
  6
CONTINUOUS
 10
159.7844764656
 20
121.4064377984
 11
159.8240596479
 21
121.6894165447
  0
LINE
  5
63F
100
AcDbEntity
  8
0
100
AcDbLine
 62
7
  6
CONTINUOUS
 10
160.0219764656
 20
121.6489910176
 11
159.9823930567
 21
121.4064377984
  0
LWPOLYLINE
  5
640
100
AcDbEntity
  8
0
100
AcDbPolyline
 62
253
  6
CONTINUOUS
 90
9
 70
0
 10
154.7437251767
 20
90.9550915676
 10
154.7430944652
 20
90.9518650569
 10
154.7424749317
 20
90.9461211924
 10
154.7418665762
 20
90.9378599743
 10
154.7412660752
 20
90.9270121905
 10
154.7406767522
 20
90.9136470529
 10
154.7401085773
 20
90.8979721978
 10
154.7395621413
 20
90.8799538091
 10
154.7385409116
 20
90.837296963
  0
LWPOLYLINE
  5
641
100
AcDbEntity
  8
0
100
AcDbPolyline
 62
253
  6
CONTINUOUS
 90
9
 70
0
 10
161.81689338
 20
125.4748053396
 10
161.8175240915
 20
125.4780318504
 10
161.818143625
 20
125.4837757148
 10
161.8187519805
 20
125.4920369329
 10
161.8193524815
 20
125.5028847168
 10
161.8199418045
 20
125.5162498543
 10
161.8205099794
 20
125.5319247094
 10
161.8210564154
 20
125.5499430981
 10
161.8220776451
 20
125.5925999442
  0
LINE
  5
642
100
AcDbEntity
  8
0
100
AcDbLine
 62
253
  6
CONTINUOUS
 10
154.4879834424
 20
91.3874260147
 11
154.4437708681
 21
91.254680428
  0
LINE
  5
643
100
AcDbEntity
  8
0
100
AcDbLine
 62
253
  6
CONTINUOUS
 10
154.7876782354
 20
91.0870579745
 11
154.7437251767
 21
90.9550915676
  0
LINE
  5
644
100
AcDbEntity
  8
0
100
AcDbLine
 62
7
  6
CONTINUOUS
 10
154.8860682784
 20
100.6423474536
 11
155.3159572784
 21
101.0722504536
  0
LINE
  5
645
100
AcDbEntity
  8
0
100
AcDbLine
 62
7
  6
CONTINUOUS
 10
155.6588602784
 20
101.0722504536
 11
155.2289562784
 21
100.6423474536
  0
LINE
  5
646
100
AcDbEntity
  8
0
100
AcDbLine
 62
7
  6
CONTINUOUS
 10
156.3210122784
 20
101.2386664536
 11
157.2741362784
 21
102.1918204536
  0
LINE
  5
647
100
AcDbEntity
  8
0
100
AcDbLine
 62
7
  6
CONTINUOUS
 10
157.6170542784
 20
102.1918194536
 11
156.6639012784
 21
101.2386664536
  0
LINE
  5
648
100
AcDbEntity
  8
0
100
AcDbLine
 62
7
  6
CONTINUOUS
 10
153.904410537
 20
97.7390497123
 11
153.9224556955
 21
97.7570948707
  0
LINE
  5
649
100
AcDbEntity
  8
0
100
AcDbLine
 62
7
  6
CONTINUOUS
 10
166.9388844944
 20
110.7235236696
 11
166.9890155004
 21
110.7736546757
  0
LINE
  5
64A
100
AcDbEntity
  8
0
100
AcDbLine
 62
7
  6
CONTINUOUS
 10
155.5490598744
 20
121.0426080546
 11
155.3511430567
 21
121.0021825275
  0
LINE
  5
64B
100
AcDbEntity
  8
0
100
AcDbLine
 62
7
  6
CONTINUOUS
 10
160.2198930567
 20
122.174522923
 11
160.4178097611
 21
122.2149484536
  0
LINE
  5
64C
100
AcDbEntity
  8
0
100
AcDbLine
 62
7
  6
CONTINUOUS
 10
158.4386430567
 20
122.174522923
 11
158.6365596479
 21
122.2149484536
  0
LINE
  5
64D
100
AcDbEntity
  8
0
100
AcDbLine
 62
7
  6
CONTINUOUS
 10
157.0136430567
 20
122.0128207898
 11
156.8157262391
 21
121.9723952627
  0
LINE
  5
64E
100
AcDbEntity
  8
0
100
AcDbLine
 62
7
  6
CONTINUOUS
 10
154.9553098744
 20
122.174522923
 11
155.1532262391
 21
122.2149484536
  0
LINE
  5
64F
100
AcDbEntity
  8
0
100
AcDbLine
 62
7
  6
CONTINUOUS
 10
156.7761430567
 20
122.174522923
 11
157.0136430567
 21
122.2149484536
  0
LINE
  5
650
100
AcDbEntity
  8
0
100
AcDbLine
 62
7
  6
CONTINUOUS
 10
161.7636430567
 20
120.3149484536
 11
161.5261430567
 21
120.3149484536
  0
LINE
  5
651
100
AcDbEntity
  8
0
100
AcDbLine
 62
7
  6
CONTINUOUS
 10
160.6157263523
 20
120.3149484536
 11
160.4178097611
 21
120.3149484536
  0
LINE
  5
652
100
AcDbEntity
  8
0
100
AcDbLine
 62
7
  6
CONTINUOUS
 10
159.4678096479
 20
120.3149484536
 11
158.1219762391
 21
120.3149484536
  0
LINE
  5
653
100
AcDbEntity
  8
0
100
AcDbLine
 62
7
  6
CONTINUOUS
 10
155.3511430567
 20
120.3149484536
 11
155.1928098744
 21
120.3149484536
  0
LINE
  5
654
100
AcDbEntity
  8
0
100
AcDbLine
 62
7
  6
CONTINUOUS
 10
155.1532262391
 20
120.5170760891
 11
155.3907262391
 21
120.5170760891
  0
LINE
  5
655
100
AcDbEntity
  8
0
100
AcDbLine
 62
7
  6
CONTINUOUS
 10
158.1219762391
 20
120.5170760891
 11
159.2698930567
 21
120.5170760891
  0
LINE
  5
656
100
AcDbEntity
  8
0
100
AcDbLine
 62
7
  6
CONTINUOUS
 10
160.3782263523
 20
120.5170760891
 11
160.6553097611
 21
120.5170760891
  0
LINE
  5
657
100
AcDbEntity
  8
0
100
AcDbLine
 62
7
  6
CONTINUOUS
 10
154.6386430567
 20
120.7596292517
 11
154.8365598744
 21
120.7596292517
  0
LINE
  5
658
100
AcDbEntity
  8
0
100
AcDbLine
 62
7
  6
CONTINUOUS
 10
158.8740596479
 20
121.0021825275
 11
158.6365596479
 21
121.0021825275
  0
LINE
  5
659
100
AcDbEntity
  8
0
100
AcDbLine
 62
7
  6
CONTINUOUS
 10
155.3511430567
 20
121.0021825275
 11
155.1532262391
 21
121.0021825275
  0
LINE
  5
65A
100
AcDbEntity
  8
0
100
AcDbLine
 62
7
  6
CONTINUOUS
 10
155.1136430567
 20
121.204310163
 11
155.3907262391
 21
121.204310163
  0
LINE
  5
65B
100
AcDbEntity
  8
0
100
AcDbLine
 62
7
  6
CONTINUOUS
 10
158.6365596479
 20
121.204310163
 11
158.8740596479
 21
121.204310163
  0
LINE
  5
65C
100
AcDbEntity
  8
0
100
AcDbLine
 62
7
  6
CONTINUOUS
 10
139.4309228288
 20
121.2964547076
 11
139.0494663437
 21
121.2964547076
  0
LINE
  5
65D
100
AcDbEntity
  8
0
100
AcDbLine
 62
7
  6
CONTINUOUS
 10
138.4421705232
 20
121.2964547076
 11
138.0471938811
 21
121.2964547076
  0
LINE
  5
65E
100
AcDbEntity
  8
0
100
AcDbLine
 62
7
  6
CONTINUOUS
 10
137.9307412784
 20
121.2964544536
 11
137.5127702784
 21
121.2964544536
  0
LINE
  5
65F
100
AcDbEntity
  8
0
100
AcDbLine
 62
7
  6
CONTINUOUS
 10
136.7605422784
 20
121.2964544536
 11
136.3682722784
 21
121.2964544536
  0
LINE
  5
660
100
AcDbEntity
  8
0
100
AcDbLine
 62
7
  6
CONTINUOUS
 10
136.3060002784
 20
121.2964544536
 11
135.9180472784
 21
121.2964544536
  0
LINE
  5
661
100
AcDbEntity
  8
0
100
AcDbLine
 62
7
  6
CONTINUOUS
 10
135.3650452784
 20
121.2964544536
 11
135.3094262784
 21
121.2964544536
  0
LINE
  5
662
100
AcDbEntity
  8
0
100
AcDbLine
 62
7
  6
CONTINUOUS
 10
134.7586182784
 20
121.2964544536
 11
134.3792282784
 21
121.2964544536
  0
LINE
  5
663
100
AcDbEntity
  8
0
100
AcDbLine
 62
7
  6
CONTINUOUS
 10
134.1657402784
 20
121.2964544536
 11
133.7691682784
 21
121.2964544536
  0
LINE
  5
664
100
AcDbEntity
  8
0
100
AcDbLine
 62
7
  6
CONTINUOUS
 10
133.0113132784
 20
121.2964544536
 11
132.6618332784
 21
121.2964544536
  0
LINE
  5
665
100
AcDbEntity
  8
0
100
AcDbLine
 62
7
  6
CONTINUOUS
 10
160.6553097611
 20
121.3255867443
 11
160.3782263523
 21
121.3255867443
  0
LINE
  5
666
100
AcDbEntity
  8
0
100
AcDbLine
 62
7
  6
CONTINUOUS
 10
159.1907264656
 20
121.3660122713
 11
159.4678096479
 21
121.3660122713
  0
LWPOLYLINE
  5
667
100
AcDbEntity
  8
0
100
AcDbPolyline
 62
7
  6
CONTINUOUS
 90
49
 70
0
 10
139.025979605
 20
123.1540632748
 10
139.0552069528
 20
123.1418025365
 10
139.0843812345
 20
123.1262570509
 10
139.1133660322
 20
123.1077241154
 10
139.1421311064
 20
123.0863648844
 10
139.1702439714
 20
123.0622036541
 10
139.1970116171
 20
123.0355128341
 10
139.2222952273
 20
123.0061120875
 10
139.2456758013
 20
122.9741984595
 10
139.2663093025
 20
122.9409056718
 10
139.2841035193
 20
122.9065944282
 10
139.299064404
 20
122.8714589135
 10
139.3109853466
 20
122.8365886183
 10
139.3200906686
 20
122.8025513359
 10
139.326785496
 20
122.7692750315
 10
139.331399514
 20
122.7368849687
 10
139.3342255022
 20
122.7055860442
 10
139.335521464
 20
122.6754229733
 10
139.335434343
 20
122.646237652
 10
139.3340640739
 20
122.6180684079
 10
139.3315145545
 20
122.5910069474
 10
139.3278685943
 20
122.5649526091
 10
139.3232083593
 20
122.5398940438
 10
139.3176286849
 20
122.515874188
 10
139.3112084997
 20
122.4928561537
 10
139.3040441186
 20
122.4708700354
 10
139.2962249323
 20
122.4499030068
 10
139.287806851
 20
122.4298703656
 10
139.2788762364
 20
122.4107971992
 10
139.2695237319
 20
122.3927185272
 10
139.2597794609
 20
122.3755620433
 10
139.2497087411
 20
122.359336489
 10
139.2393777247
 20
122.3440505595
 10
139.2287942802
 20
122.3296333189
 10
139.2179883441
 20
122.3160592799
 10
139.207030025
 20
122.3033200349
 10
139.195980846
 20
122.2913333017
 10
139.1848924338
 20
122.2800124248
 10
139.1738140923
 20
122.2692828825
 10
139.1628003154
 20
122.2590877919
 10
139.1519179947
 20
122.2493920213
 10
139.1411817367
 20
122.2401249277
 10
139.1305590617
 20
122.2311898983
 10
139.1200853626
 20
122.2225696448
 10
139.1097222349
 20
122.2144733936
 10
139.0992886453
 20
122.207264692
 10
139.0886736281
 20
122.2013144514
 10
139.0778476507
 20
122.1969746045
 10
139.066761887
 20
122.1945122611
  0
LINE
  5
668
100
AcDbEntity
  8
0
100
AcDbLine
 62
7
  6
CONTINUOUS
 10
153.904410537
 20
118.6908471949
 11
153.9224556955
 21
118.6728020365
  0
LINE
  5
669
100
AcDbEntity
  8
0
100
AcDbLine
 62
7
  6
CONTINUOUS
 10
166.9890155004
 20
105.6562422315
 11
166.9388844944
 21
105.7063732376
  0
LINE
  5
66A
100
AcDbEntity
  8
0
100
AcDbLine
 62
7
  6
CONTINUOUS
 10
157.4740662784
 20
114.3649484536
 11
158.3430392784
 21
112.9843454536
  0
LINE
  5
66B
100
AcDbEntity
  8
0
100
AcDbLine
 62
7
  6
CONTINUOUS
 10
158.2933522784
 20
112.6649484536
 11
157.4385402784
 21
114.0458314536
  0
LINE
  5
66C
100
AcDbEntity
  8
0
100
AcDbLine
 62
7
  6
CONTINUOUS
 10
154.6386430567
 20
121.2851612172
 11
154.5594762391
 21
121.4872888526
  0
LINE
  5
66D
100
AcDbEntity
  8
0
100
AcDbLine
 62
253
  6
CONTINUOUS
 10
154.4879834424
 20
125.0424708925
 11
154.4437708681
 21
125.1752164792
  0
LINE
  5
66E
100
AcDbEntity
  8
0
100
AcDbLine
 62
253
  6
CONTINUOUS
 10
154.7876782354
 20
125.3428389327
 11
154.7437251767
 21
125.4748053396
  0
LINE
  5
66F
100
AcDbEntity
  8
0
100
AcDbLine
 62
7
  6
CONTINUOUS
 10
154.6782262391
 20
120.6383526704
 11
154.6386430567
 21
120.7596292517
  0
LINE
  5
670
100
AcDbEntity
  8
0
100
AcDbLine
 62
7
  6
CONTINUOUS
 10
154.7573930567
 20
121.5277144364
 11
154.7969762391
 21
121.4064377984
  0
LINE
  5
671
100
AcDbEntity
  8
0
100
AcDbLine
 62
7
  6
CONTINUOUS
 10
155.7469762391
 20
121.6489910176
 11
155.7073930567
 21
121.7702675989
  0
LINE
  5
672
100
AcDbEntity
  8
0
100
AcDbLine
 62
7
  6
CONTINUOUS
 10
156.3803098744
 20
120.7596292517
 11
156.3407262391
 21
120.8809059462
  0
LWPOLYLINE
  5
673
100
AcDbEntity
  8
0
100
AcDbPolyline
 62
253
  6
CONTINUOUS
 90
8
 70
0
 10
154.7437251767
 20
125.4748053396
 10
154.7430949548
 20
125.4780236967
 10
154.7424757072
 20
125.4837626991
 10
154.7418674338
 20
125.4920223469
 10
154.741266736
 20
125.5028719432
 10
154.7406770126
 20
125.5162421849
 10
154.7401084589
 20
125.5319251625
 10
154.7395617158
 20
125.5499564906
  0
LWPOLYLINE
  5
674
100
AcDbEntity
  8
0
100
AcDbPolyline
 62
253
  6
CONTINUOUS
 90
8
 70
0
 10
161.81689338
 20
90.9550915676
 10
161.8175236019
 20
90.9518732105
 10
161.8181428495
 20
90.9461342081
 10
161.8187511229
 20
90.9378745603
 10
161.8193518207
 20
90.927024964
 10
161.8199415441
 20
90.9136547223
 10
161.8205100978
 20
90.8979717447
 10
161.8210568409
 20
90.8799404166
  0
LINE
  5
675
100
AcDbEntity
  8
0
100
AcDbLine
 62
7
  6
CONTINUOUS
 10
156.3407262391
 20
120.8809059462
 11
156.3011430567
 21
121.0830335817
  0
LINE
  5
676
100
AcDbEntity
  8
0
100
AcDbLine
 62
7
  6
CONTINUOUS
 10
157.6865598744
 20
121.6489910176
 11
157.7261430567
 21
121.4468633255
  0
LINE
  5
677
100
AcDbEntity
  8
0
100
AcDbLine
 62
7
  6
CONTINUOUS
 10
156.4990598744
 20
121.1234591088
 11
156.5386430567
 21
120.8809059462
  0
LINE
  5
678
100
AcDbEntity
  8
0
100
AcDbLine
 62
7
  6
CONTINUOUS
 10
157.5282262391
 20
121.4064377984
 11
157.4886430567
 21
121.6489910176
  0
LINE
  5
679
100
AcDbEntity
  8
0
100
AcDbLine
 62
7
  6
CONTINUOUS
 10
155.9448930567
 20
121.6894165447
 11
155.9844762391
 21
121.4064377984
  0
LWPOLYLINE
  5
67A
100
AcDbEntity
  8
0
100
AcDbPolyline
 62
253
  6
CONTINUOUS
 90
6
 70
0
 10
162.1168476886
 20
91.254680428
 10
162.1174814709
 20
91.2495679148
 10
162.1181031489
 20
91.2403068251
 10
162.1187127226
 20
91.2269455894
 10
162.1193132194
 20
91.2095540691
 10
162.119901612
 20
91.188223183
  0
LWPOLYLINE
  5
67B
100
AcDbEntity
  8
0
100
AcDbPolyline
 62
253
  6
CONTINUOUS
 90
13
 70
0
 10
162.5437251767
 20
90.9550915676
 10
162.5411264806
 20
90.9941715441
 10
162.5334461982
 20
91.0325839827
 10
162.5208154611
 20
91.0696724199
 10
162.5034500098
 20
91.1048029902
 10
162.481646507
 20
91.1373752692
 10
162.4557774683
 20
91.1668325346
 10
162.4262848771
 20
91.1926712951
 10
162.3936727246
 20
91.2144498223
 10
162.3584984215
 20
91.2317957525
 10
162.3213631382
 20
91.2444125434
 10
162.2829015041
 20
91.2520845027
 10
162.2437708681
 20
91.254680428
  0
LINE
  5
67C
100
AcDbEntity
  8
0
100
AcDbLine
 62
253
  6
CONTINUOUS
 10
161.8210568409
 20
90.8799404166
 11
161.8220785447
 21
90.8372543053
  0
LINE
  5
67D
100
AcDbEntity
  8
0
100
AcDbLine
 62
253
  6
CONTINUOUS
 10
162.119901612
 20
91.188223183
 11
162.1210145545
 21
91.1342092411
  0
LINE
  5
67E
100
AcDbEntity
  8
0
100
AcDbLine
 62
253
  6
CONTINUOUS
 10
162.2407169447
 20
125.2416737242
 11
162.2396040022
 21
125.2956876661
  0
LINE
  5
67F
100
AcDbEntity
  8
0
100
AcDbLine
 62
253
  6
CONTINUOUS
 10
161.8220785447
 20
90.8372543053
 11
161.8229815942
 21
90.7865055696
  0
LINE
  5
680
100
AcDbEntity
  8
0
100
AcDbLine
 62
253
  6
CONTINUOUS
 10
162.1210145545
 20
91.1342092411
 11
162.1224994599
 21
91.027066247
  0
LINE
  5
681
100
AcDbEntity
  8
0
100
AcDbLine
 62
253
  6
CONTINUOUS
 10
162.2396040022
 20
125.2956876661
 11
162.2381190968
 21
125.4028306603
  0
LINE
  5
682
100
AcDbEntity
  8
0
100
AcDbLine
 62
253
  6
CONTINUOUS
 10
161.8229815942
 20
90.7865055696
 11
161.8240723607
 21
90.6978779469
  0
LINE
  5
683
100
AcDbEntity
  8
0
100
AcDbLine
 62
253
  6
CONTINUOUS
 10
162.5372365509
 20
125.671341891
 11
162.5362606149
 21
125.7642359244
  0
LINE
  5
684
100
AcDbEntity
  8
0
100
AcDbLine
 62
253
  6
CONTINUOUS
 10
162.1224994599
 20
91.027066247
 11
162.1240245188
 21
90.8436141193
  0
LINE
  5
685
100
AcDbEntity
  8
0
100
AcDbLine
 62
253
  6
CONTINUOUS
 10
162.2381190968
 20
125.4028306603
 11
162.2365940379
 21
125.5862827879
  0
LWPOLYLINE
  5
686
100
AcDbEntity
  8
0
100
AcDbPolyline
 62
7
  6
CONTINUOUS
 90
34
 70
0
 10
161.7558711156
 20
113.5149484536
 10
161.7556715293
 20
113.5529152434
 10
161.7564563831
 20
113.5908385796
 10
161.7583360569
 20
113.628681154
 10
161.7614185316
 20
113.666389696
 10
161.7658132777
 20
113.7039285024
 10
161.7716374415
 20
113.7412627267
 10
161.779005533
 20
113.7783089406
 10
161.787962008
 20
113.8150001194
 10
161.7984190911
 20
113.8513585523
 10
161.8102662273
 20
113.8873829327
 10
161.8233877777
 20
113.9230580336
 10
161.8377413841
 20
113.9583481908
 10
161.853546179
 20
113.9930618217
 10
161.8710671882
 20
114.0269231914
 10
161.8905509686
 20
114.0596304934
 10
161.912155251
 20
114.0909827418
 10
161.9356917474
 20
114.1209972328
 10
161.9608746038
 20
114.1497076526
 10
161.9874264148
 20
114.1771597263
 10
162.0152024409
 20
114.2033032271
 10
162.0442630375
 20
114.2278911224
 10
162.0746913328
 20
114.2506577542
 10
162.106551006
 20
114.2713397854
 10
162.1397536363
 20
114.2898352794
 10
162.1740997911
 20
114.3061817379
 10
162.2094004679
 20
114.3204268861
 10
162.2454677308
 20
114.3326164665
 10
162.2820937369
 20
114.3427888958
 10
162.3191460544
 20
114.3509923715
 10
162.3565747544
 20
114.3572769374
 10
162.3942944832
 20
114.3616774261
 10
162.4321807348
 20
114.3642234322
 10
162.4701275598
 20
114.3649484536
  0
LINE
  5
687
100
AcDbEntity
  8
0
100
AcDbLine
 62
253
  6
CONTINUOUS
 10
161.8240723607
 20
90.6978779469
 11
161.8249612728
 21
90.5629584575
  0
LINE
  5
688
100
AcDbEntity
  8
0
100
AcDbLine
 62
253
  6
CONTINUOUS
 10
162.5362606149
 20
125.7642359244
 11
162.5355451635
 21
125.9021679875
  0
LINE
  5
689
100
AcDbEntity
  8
0
100
AcDbLine
 62
253
  6
CONTINUOUS
 10
162.1240245188
 20
90.8436141193
 11
162.1250946769
 21
90.5135694854
  0
LINE
  5
68A
100
AcDbEntity
  8
0
100
AcDbLine
 62
253
  6
CONTINUOUS
 10
162.2365940379
 20
125.5862827879
 11
162.2355238798
 21
125.9163274218
  0
LINE
  5
68B
100
AcDbEntity
  8
0
100
AcDbLine
 62
7
  6
CONTINUOUS
 10
161.7759772058
 20
87.3619296702
 11
161.7729403213
 21
91.0870579745
  0
LINE
  5
68C
100
AcDbEntity
  8
0
100
AcDbLine
 62
7
  6
CONTINUOUS
 10
162.5842669768
 20
129.0690912729
 11
162.5872668993
 21
125.3440739446
  0
LINE
  5
68D
100
AcDbEntity
  8
0
100
AcDbLine
 62
7
  6
CONTINUOUS
 10
160.2775472784
 20
113.3894934536
 11
160.2775472784
 21
113.5931084536
  0
LINE
  5
68E
100
AcDbEntity
  8
0
100
AcDbLine
 62
7
  6
CONTINUOUS
 10
160.2914502784
 20
95.1334424536
 11
160.2914502784
 21
93.2334824536
  0
LINE
  5
68F
100
AcDbEntity
  8
0
100
AcDbLine
 62
7
  6
CONTINUOUS
 10
160.3789532784
 20
102.3415004536
 11
160.3789532784
 21
102.0990234536
  0
LINE
  5
690
100
AcDbEntity
  8
0
100
AcDbLine
 62
7
  6
CONTINUOUS
 10
161.0115597611
 20
120.8809059462
 11
161.0115597611
 21
120.9617570004
  0
LINE
  5
691
100
AcDbEntity
  8
0
100
AcDbLine
 62
7
  6
CONTINUOUS
 10
161.2080582784
 20
112.8685634536
 11
161.2080582784
 21
113.3894934536
  0
LINE
  5
692
100
AcDbEntity
  8
0
100
AcDbLine
 62
7
  6
CONTINUOUS
 10
161.2080582784
 20
113.5931084536
 11
161.2080582784
 21
114.1613334536
  0
LINE
  5
693
100
AcDbEntity
  8
0
100
AcDbLine
 62
7
  6
CONTINUOUS
 10
161.2094764089
 20
121.0021825275
 11
161.2094764089
 21
120.8404804191
  0
LINE
  5
694
100
AcDbEntity
  8
0
100
AcDbLine
 62
7
  6
CONTINUOUS
 10
161.4377812784
 20
114.3649484536
 11
161.4377812784
 21
112.6649484536
  0
LINE
  5
695
100
AcDbEntity
  8
0
100
AcDbLine
 62
7
  6
CONTINUOUS
 10
161.5261430567
 20
120.3149484536
 11
161.5261430567
 21
122.2149484536
  0
LINE
  5
696
100
AcDbEntity
  8
0
100
AcDbLine
 62
7
  6
CONTINUOUS
 10
161.7636430567
 20
122.2149484536
 11
161.7636430567
 21
120.6383526704
  0
LINE
  5
697
100
AcDbEntity
  8
0
100
AcDbLine
 62
253
  6
CONTINUOUS
 10
161.8249612728
 20
90.5629584575
 11
161.8251641487
 21
87.2142488417
  0
LINE
  5
698
100
AcDbEntity
  8
0
100
AcDbLine
 62
7
  6
CONTINUOUS
 10
162.0011430567
 20
120.9213314733
 11
162.0011430567
 21
120.5979271433
  0
LINE
  5
699
100
AcDbEntity
  8
0
100
AcDbLine
 62
253
  6
CONTINUOUS
 10
162.1250946769
 20
90.5135694854
 11
162.1251184573
 21
87.1988009005
  0
LINE
  5
69A
100
AcDbEntity
  8
0
100
AcDbLine
 62
253
  6
CONTINUOUS
 10
162.2355238798
 20
125.9163274218
 11
162.2355000994
 21
129.2310960068
  0
LINE
  5
69B
100
AcDbEntity
  8
0
100
AcDbLine
 62
253
  6
CONTINUOUS
 10
162.5355451635
 20
125.9021679875
 11
162.535454408
 21
129.2156480655
  0
LINE
  5
69C
100
AcDbEntity
  8
0
100
AcDbLine
 62
7
  6
CONTINUOUS
 10
161.7729403213
 20
125.3428389327
 11
161.7759772058
 21
129.067967237
  0
LINE
  5
69D
100
AcDbEntity
  8
0
100
AcDbLine
 62
7
  6
CONTINUOUS
 10
162.5872668993
 20
91.0858229626
 11
162.5842669768
 21
87.3608056344
  0
LINE
  5
69E
100
AcDbEntity
  8
0
100
AcDbLine
 62
253
  6
CONTINUOUS
 10
161.8249614375
 20
125.8669797041
 11
161.8251641487
 21
129.2156480655
  0
LINE
  5
69F
100
AcDbEntity
  8
0
100
AcDbLine
 62
253
  6
CONTINUOUS
 10
162.5356571192
 20
90.5629172031
 11
162.535454408
 21
87.2142488417
  0
LINE
  5
6A0
100
AcDbEntity
  8
0
100
AcDbLine
 62
253
  6
CONTINUOUS
 10
162.1245536554
 20
125.6911626975
 11
162.1251184573
 21
129.2310960068
  0
LINE
  5
6A1
100
AcDbEntity
  8
0
100
AcDbLine
 62
253
  6
CONTINUOUS
 10
162.2360649013
 20
90.7387342097
 11
162.2355000994
 21
87.1988009005
  0
LINE
  5
6A2
100
AcDbEntity
  8
0
100
AcDbLine
 62
253
  6
CONTINUOUS
 10
162.1233347831
 20
125.4894982541
 11
162.1245536554
 21
125.6911626975
  0
LINE
  5
6A3
100
AcDbEntity
  8
0
100
AcDbLine
 62
253
  6
CONTINUOUS
 10
162.2372837736
 20
90.9403986531
 11
162.2360649013
 21
90.7387342097
  0
LINE
  5
6A4
100
AcDbEntity
  8
0
100
AcDbLine
 62
253
  6
CONTINUOUS
 10
161.8240721541
 20
125.7320003517
 11
161.8249614375
 21
125.8669797041
  0
LINE
  5
6A5
100
AcDbEntity
  8
0
100
AcDbLine
 62
253
  6
CONTINUOUS
 10
162.5365464026
 20
90.6978965555
 11
162.5356571192
 21
90.5629172031
  0
LWPOLYLINE
  5
6A6
100
AcDbEntity
  8
0
100
AcDbPolyline
 62
7
  6
CONTINUOUS
 90
34
 70
0
 10
161.992181966
 20
113.5149484536
 10
161.9918522659
 20
113.4872589725
 10
161.9923437797
 20
113.4596086172
 10
161.99363529
 20
113.4320252346
 10
161.9957044284
 20
113.4045512678
 10
161.9985307961
 20
113.3771970446
 10
162.002099842
 20
113.3499336631
 10
162.0063930736
 20
113.322780661
 10
162.0113939308
 20
113.2957443069
 10
162.0170993213
 20
113.2687741464
 10
162.0235278252
 20
113.2418589408
 10
162.0308000945
 20
113.2151001797
 10
162.0390704571
 20
113.1886178892
 10
162.0485027538
 20
113.1624939391
 10
162.0592590267
 20
113.1368110988
 10
162.0714026204
 20
113.1117026731
 10
162.0849060099
 20
113.0872962085
 10
162.0997522104
 20
113.0636891983
 10
162.1159243899
 20
113.0409849725
 10
162.1334025218
 20
113.0192946521
 10
162.152162499
 20
112.9987346881
 10
162.1721723496
 20
112.9794097804
 10
162.1933494757
 20
112.9613926051
 10
162.2156002343
 20
112.9447442813
 10
162.2388352685
 20
112.9295237524
 10
162.2629657548
 20
112.9157914107
 10
162.2878921974
 20
112.9035983934
 10
162.3135078449
 20
112.8929545291
 10
162.339715837
 20
112.883856541
 10
162.3664190974
 20
112.8763012112
 10
162.3935042858
 20
112.8702865849
 10
162.4208599542
 20
112.865805932
 10
162.4483825943
 20
112.8628509824
 10
162.4759653152
 20
112.8614144536
  0
LINE
  5
6A7
100
AcDbEntity
  8
0
100
AcDbLine
 62
253
  6
CONTINUOUS
 10
162.1220340991
 20
125.3638651221
 11
162.1233347831
 21
125.4894982541
  0
LINE
  5
6A8
100
AcDbEntity
  8
0
100
AcDbLine
 62
253
  6
CONTINUOUS
 10
162.2385844576
 20
91.0660317852
 11
162.2372837736
 21
90.9403986531
  0
LINE
  5
6A9
100
AcDbEntity
  8
0
100
AcDbLine
 62
253
  6
CONTINUOUS
 10
162.5372373617
 20
90.7586160259
 11
162.5365464026
 21
90.6978965555
  0
LINE
  5
6AA
100
AcDbEntity
  8
0
100
AcDbLine
 62
253
  6
CONTINUOUS
 10
161.822980664
 20
125.6433293781
 11
161.8240721541
 21
125.7320003517
  0
LINE
  5
6AB
100
AcDbEntity
  8
0
100
AcDbLine
 62
253
  6
CONTINUOUS
 10
162.1210144908
 20
125.2956876803
 11
162.1220340991
 21
125.3638651221
  0
LINE
  5
6AC
100
AcDbEntity
  8
0
100
AcDbLine
 62
253
  6
CONTINUOUS
 10
162.2396040659
 20
91.1342092269
 11
162.2385844576
 21
91.0660317852
  0
LINE
  5
6AD
100
AcDbEntity
  8
0
100
AcDbLine
 62
253
  6
CONTINUOUS
 10
161.8220776451
 20
125.5925999442
 11
161.822980664
 21
125.6433293781
  0
LWPOLYLINE
  5
6AE
100
AcDbEntity
  8
0
100
AcDbPolyline
 62
7
  6
CONTINUOUS
 90
16
 70
0
 10
162.5872668993
 20
125.3440739446
 10
162.5856443418
 20
125.3125653292
 10
162.5807425044
 20
125.281388652
 10
162.5726110854
 20
125.2508856107
 10
162.5613237212
 20
125.22136206
 10
162.5470067397
 20
125.1931750363
 10
162.5298661738
 20
125.1667147327
 10
162.5101549023
 20
125.1423071873
 10
162.4880732788
 20
125.1201443241
 10
162.463788995
 20
125.1003887852
 10
162.4375148444
 20
125.0832361516
 10
162.4095712719
 20
125.0689157296
 10
162.38030408
 20
125.05761028
 10
162.3500504253
 20
125.0494426405
 10
162.3191277378
 20
125.0444893264
 10
162.2878740647
 20
125.0427992925
  0
LWPOLYLINE
  5
6AF
100
AcDbEntity
  8
0
100
AcDbPolyline
 62
7
  6
CONTINUOUS
 90
16
 70
0
 10
161.7729403213
 20
91.0870579745
 10
161.7745641401
 20
91.1185596482
 10
161.7794697189
 20
91.1497189756
 10
161.7876070832
 20
91.1801944152
 10
161.7989024061
 20
91.2096795452
 10
161.8132290443
 20
91.2378184045
 10
161.8303808056
 20
91.2642233693
 10
161.8501046255
 20
91.2885680359
 10
161.8722005232
 20
91.310661266
 10
161.8965023071
 20
91.3303440277
 10
161.9227978297
 20
91.3474199091
 10
161.9507671214
 20
91.3616593302
 10
161.9800663719
 20
91.3728825293
 10
162.0103594306
 20
91.380966229
 10
162.0413284457
 20
91.3858309324
 10
162.0726351143
 20
91.3874260147
  0
LINE
  5
6B0
100
AcDbEntity
  8
0
100
AcDbLine
 62
7
  6
CONTINUOUS
 10
159.6813902784
 20
95.1334424536
 11
159.5098452784
 21
93.2335964536
  0
LINE
  5
6B1
100
AcDbEntity
  8
0
100
AcDbLine
 62
7
  6
CONTINUOUS
 10
156.9120662784
 20
93.7556254536
 11
157.1095262784
 21
94.4606824536
  0
LINE
  5
6B2
100
AcDbEntity
  8
0
100
AcDbLine
 62
7
  6
CONTINUOUS
 10
157.1906472784
 20
94.7541654536
 11
157.3000762784
 21
95.1334424536
  0
LINE
  5
6B3
100
AcDbEntity
  8
0
100
AcDbLine
 62
7
  6
CONTINUOUS
 10
157.6923462784
 20
95.1334424536
 11
157.0964332784
 21
93.2335964536
  0
LINE
  5
6B4
100
AcDbEntity
  8
0
100
AcDbLine
 62
7
  6
CONTINUOUS
 10
154.735454408
 20
87.2142488417
 11
154.7846413509
 21
87.3619296702
  0
LINE
  5
6B5
100
AcDbEntity
  8
0
100
AcDbLine
 62
7
  6
CONTINUOUS
 10
164.4826722784
 20
113.8701404536
 11
164.6602742784
 21
114.3649484536
  0
LINE
  5
6B6
100
AcDbEntity
  8
0
100
AcDbLine
 62
7
  6
CONTINUOUS
 10
164.1368832784
 20
112.9115314536
 11
164.4116192784
 21
113.6665254536
  0
LINE
  5
6B7
100
AcDbEntity
  8
0
100
AcDbLine
 62
7
  6
CONTINUOUS
 10
164.8970232784
 20
114.3649484536
 11
164.2577742784
 21
112.6649484536
  0
LINE
  5
6B8
100
AcDbEntity
  8
0
100
AcDbLine
 62
7
  6
CONTINUOUS
 10
158.2240482784
 20
93.8980504536
 11
158.6955732784
 21
95.1334424536
  0
LINE
  5
6B9
100
AcDbEntity
  8
0
100
AcDbLine
 62
7
  6
CONTINUOUS
 10
160.1238612784
 20
101.6530644536
 11
161.4161172784
 21
103.1523204536
  0
LINE
  5
6BA
100
AcDbEntity
  8
0
100
AcDbLine
 62
7
  6
CONTINUOUS
 10
161.7362522784
 20
103.1523204536
 11
160.0949772784
 21
101.2481604536
  0
LINE
  5
6BB
100
AcDbEntity
  8
0
100
AcDbLine
 62
7
  6
CONTINUOUS
 10
157.1579059874
 20
98.6925451626
 11
157.1381628612
 21
98.6728020365
  0
LWPOLYLINE
  5
6BC
100
AcDbEntity
  8
0
100
AcDbPolyline
 62
7
  6
CONTINUOUS
 90
31
 70
0
 10
138.6556579342
 20
122.3510981894
 10
138.6715463262
 20
122.351655407
 10
138.687529129
 20
122.3526432228
 10
138.7035333288
 20
122.354094771
 10
138.7194423846
 20
122.3560356398
 10
138.7352337856
 20
122.3584997109
 10
138.7509770667
 20
122.3615451313
 10
138.7666040043
 20
122.3652164949
 10
138.782043356
 20
122.3695588504
 10
138.7973493316
 20
122.374663795
 10
138.8125113636
 20
122.3806288412
 10
138.8273620428
 20
122.3875005728
 10
138.8417156635
 20
122.395299471
 10
138.8554983625
 20
122.4040932763
 10
138.8686044878
 20
122.4139339925
 10
138.8808336568
 20
122.4247677698
 10
138.8921453411
 20
122.4365153256
 10
138.9025776938
 20
122.4490971838
 10
138.9121125765
 20
122.4623687252
 10
138.92076096
 20
122.4762106986
 10
138.9285542236
 20
122.4905390818
 10
138.9355126356
 20
122.5052601301
 10
138.941642124
 20
122.5202472901
 10
138.9469794639
 20
122.5354489809
 10
138.9515746942
 20
122.5508964996
 10
138.955427927
 20
122.5665013645
 10
138.9585466034
 20
122.5822027338
 10
138.9609539036
 20
122.5980830227
 10
138.9626353418
 20
122.6141187982
 10
138.9635629136
 20
122.6301781143
 10
138.9637175865
 20
122.6461769499
  0
LINE
  5
6BD
100
AcDbEntity
  8
0
100
AcDbLine
 62
7
  6
CONTINUOUS
 10
160.4178097611
 20
121.5277144364
 11
160.6157263523
 21
121.5277144364
  0
LINE
  5
6BE
100
AcDbEntity
  8
0
100
AcDbLine
 62
7
  6
CONTINUOUS
 10
137.4100372784
 20
121.6757314536
 11
136.8699712784
 21
121.6757314536
  0
LINE
  5
6BF
100
AcDbEntity
  8
0
100
AcDbLine
 62
7
  6
CONTINUOUS
 10
159.4678096479
 20
121.7298420718
 11
159.2303096479
 21
121.7298420718
  0
LINE
  5
6C0
100
AcDbEntity
  8
0
100
AcDbLine
 62
7
  6
CONTINUOUS
 10
161.1303097045
 20
121.7702675989
 11
160.9323930567
 21
121.7702675989
  0
LINE
  5
6C1
100
AcDbEntity
  8
0
100
AcDbLine
 62
7
  6
CONTINUOUS
 10
136.9510922784
 20
121.9692144536
 11
137.3307822784
 21
121.9692144536
  0
LINE
  5
6C2
100
AcDbEntity
  8
0
100
AcDbLine
 62
7
  6
CONTINUOUS
 10
160.6157263523
 20
122.0128207898
 11
160.3782263523
 21
122.0128207898
  0
LINE
  5
6C3
100
AcDbEntity
  8
0
100
AcDbLine
 62
7
  6
CONTINUOUS
 10
158.8740596479
 20
122.0128207898
 11
158.6365596479
 21
122.0128207898
  0
LINE
  5
6C4
100
AcDbEntity
  8
0
100
AcDbLine
 62
7
  6
CONTINUOUS
 10
155.3907262391
 20
122.0128207898
 11
155.1136430567
 21
122.0128207898
  0
LINE
  5
6C5
100
AcDbEntity
  8
0
100
AcDbLine
 62
7
  6
CONTINUOUS
 10
138.6548031298
 20
122.0399493701
 11
138.4421705232
 21
122.0399493701
  0
LINE
  5
6C6
100
AcDbEntity
  8
0
100
AcDbLine
 62
7
  6
CONTINUOUS
 10
155.1532262391
 20
122.2149484536
 11
155.3511430567
 21
122.2149484536
  0
LINE
  5
6C7
100
AcDbEntity
  8
0
100
AcDbLine
 62
7
  6
CONTINUOUS
 10
158.6365596479
 20
122.2149484536
 11
158.8740596479
 21
122.2149484536
  0
LINE
  5
6C8
100
AcDbEntity
  8
0
100
AcDbLine
 62
7
  6
CONTINUOUS
 10
160.4178097611
 20
122.2149484536
 11
160.5761430567
 21
122.2149484536
  0
LINE
  5
6C9
100
AcDbEntity
  8
0
100
AcDbLine
 62
7
  6
CONTINUOUS
 10
161.5261430567
 20
122.2149484536
 11
161.7636430567
 21
122.2149484536
  0
LINE
  5
6CA
100
AcDbEntity
  8
0
100
AcDbLine
 62
7
  6
CONTINUOUS
 10
138.4290207815
 20
122.3510981894
 11
138.6556579342
 21
122.3510981894
  0
LINE
  5
6CB
100
AcDbEntity
  8
0
100
AcDbLine
 62
7
  6
CONTINUOUS
 10
132.0595452784
 20
123.1963004536
 11
132.4903452784
 21
123.1963004536
  0
LINE
  5
6CC
100
AcDbEntity
  8
0
100
AcDbLine
 62
7
  6
CONTINUOUS
 10
133.2256982784
 20
123.1963004536
 11
133.6219992784
 21
123.1963004536
  0
LINE
  5
6CD
100
AcDbEntity
  8
0
100
AcDbLine
 62
7
  6
CONTINUOUS
 10
134.5507732784
 20
123.1963004536
 11
134.9470172784
 21
123.1963004536
  0
LINE
  5
6CE
100
AcDbEntity
  8
0
100
AcDbLine
 62
7
  6
CONTINUOUS
 10
135.7359732784
 20
123.1963004536
 11
136.1283432784
 21
123.1963004536
  0
LINE
  5
6CF
100
AcDbEntity
  8
0
100
AcDbLine
 62
7
  6
CONTINUOUS
 10
136.9641852784
 20
123.1963004536
 11
137.3478212784
 21
123.1963004536
  0
LINE
  5
6D0
100
AcDbEntity
  8
0
100
AcDbLine
 62
7
  6
CONTINUOUS
 10
133.7691682784
 20
123.1964144536
 11
134.1657402784
 21
123.1964144536
  0
LWPOLYLINE
  5
6D1
100
AcDbEntity
  8
0
100
AcDbPolyline
 62
7
  6
CONTINUOUS
 90
10
 70
0
 10
138.7396893887
 20
122.8838277371
 10
138.7062390203
 20
122.8871443575
 10
138.6724164019
 20
122.8893610384
 10
138.6382716765
 20
122.8904544607
 10
138.6038759672
 20
122.8904015128
 10
138.5692651619
 20
122.8891795267
 10
138.5344402518
 20
122.886759937
 10
138.4994419764
 20
122.8831132014
 10
138.4643124642
 20
122.878324568
 10
138.4290207815
 20
122.8726428768
  0
LINE
  5
6D2
100
AcDbEntity
  8
0
100
AcDbLine
 62
7
  6
CONTINUOUS
 10
157.0136430567
 20
120.3149484536
 11
156.7761430567
 21
120.3553739807
  0
LINE
  5
6D3
100
AcDbEntity
  8
0
100
AcDbLine
 62
7
  6
CONTINUOUS
 10
157.0136430567
 20
122.2149484536
 11
157.2511430567
 21
122.174522923
  0
LINE
  5
6D4
100
AcDbEntity
  8
0
100
AcDbLine
 62
7
  6
CONTINUOUS
 10
155.1928098744
 20
120.3149484536
 11
154.9948930567
 21
120.3553739807
  0
LINE
  5
6D5
100
AcDbEntity
  8
0
100
AcDbLine
 62
7
  6
CONTINUOUS
 10
156.8157262391
 20
120.5575016162
 11
157.0136430567
 21
120.5170760891
  0
LINE
  5
6D6
100
AcDbEntity
  8
0
100
AcDbLine
 62
7
  6
CONTINUOUS
 10
155.1532262391
 20
121.0021825275
 11
154.9553098744
 21
121.0426080546
  0
LINE
  5
6D7
100
AcDbEntity
  8
0
100
AcDbLine
 62
7
  6
CONTINUOUS
 10
160.4178097611
 20
120.3149484536
 11
160.2198930567
 21
120.3553739807
  0
LINE
  5
6D8
100
AcDbEntity
  8
0
100
AcDbLine
 62
7
  6
CONTINUOUS
 10
158.6365596479
 20
121.0021825275
 11
158.4386430567
 21
121.0426080546
  0
LINE
  5
6D9
100
AcDbEntity
  8
0
100
AcDbLine
 62
7
  6
CONTINUOUS
 10
155.3511430567
 20
122.2149484536
 11
155.5490598744
 21
122.174522923
  0
LINE
  5
6DA
100
AcDbEntity
  8
0
100
AcDbLine
 62
7
  6
CONTINUOUS
 10
157.2115598744
 20
121.9723952627
 11
157.0136430567
 21
122.0128207898
  0
LINE
  5
6DB
100
AcDbEntity
  8
0
100
AcDbLine
 62
7
  6
CONTINUOUS
 10
158.4782264656
 20
121.2447356901
 11
158.6365596479
 21
121.204310163
  0
LINE
  5
6DC
100
AcDbEntity
  8
0
100
AcDbLine
 62
7
  6
CONTINUOUS
 10
155.0344762391
 20
120.5575016162
 11
155.1532262391
 21
120.5170760891
  0
LINE
  5
6DD
100
AcDbEntity
  8
0
100
AcDbLine
 62
7
  6
CONTINUOUS
 10
154.9948930567
 20
121.2447356901
 11
155.1136430567
 21
121.204310163
  0
LINE
  5
6DE
100
AcDbEntity
  8
0
100
AcDbLine
 62
7
  6
CONTINUOUS
 10
154.9948930567
 20
120.3553739807
 11
154.7969762391
 21
120.476650562
  0
LINE
  5
6DF
100
AcDbEntity
  8
0
100
AcDbLine
 62
7
  6
CONTINUOUS
 10
154.9553098744
 20
121.0426080546
 11
154.7573930567
 21
121.1638846359
  0
LINE
  5
6E0
100
AcDbEntity
  8
0
100
AcDbLine
 62
7
  6
CONTINUOUS
 10
156.7761430567
 20
120.3553739807
 11
156.5782262391
 21
120.476650562
  0
LINE
  5
6E1
100
AcDbEntity
  8
0
100
AcDbLine
 62
7
  6
CONTINUOUS
 10
154.9157262391
 20
120.6383526704
 11
155.0344762391
 21
120.5575016162
  0
LINE
  5
6E2
100
AcDbEntity
  8
0
100
AcDbLine
 62
7
  6
CONTINUOUS
 10
154.8761430567
 20
121.3255867443
 11
154.9948930567
 21
121.2447356901
  0
LINE
  5
6E3
100
AcDbEntity
  8
0
100
AcDbLine
 62
7
  6
CONTINUOUS
 10
156.6969762391
 20
120.6383526704
 11
156.8157262391
 21
120.5575016162
  0
LINE
  5
6E4
100
AcDbEntity
  8
0
100
AcDbLine
 62
7
  6
CONTINUOUS
 10
157.1579059874
 20
117.7373517446
 11
157.1381628612
 21
117.7570948707
  0
LINE
  5
6E5
100
AcDbEntity
  8
0
100
AcDbLine
 62
7
  6
CONTINUOUS
 10
154.7573930567
 20
121.1638846359
 11
154.6386430567
 21
121.2851612172
  0
LINE
  5
6E6
100
AcDbEntity
  8
0
100
AcDbLine
 62
7
  6
CONTINUOUS
 10
154.7969762391
 20
121.4064377984
 11
154.8761430567
 21
121.3255867443
  0
LINE
  5
6E7
100
AcDbEntity
  8
0
100
AcDbLine
 62
7
  6
CONTINUOUS
 10
156.5782262391
 20
120.476650562
 11
156.4594762391
 21
120.5979271433
  0
LINE
  5
6E8
100
AcDbEntity
  8
0
100
AcDbLine
 62
7
  6
CONTINUOUS
 10
154.7969762391
 20
120.476650562
 11
154.6782262391
 21
120.6383526704
  0
LINE
  5
6E9
100
AcDbEntity
  8
0
100
AcDbLine
 62
7
  6
CONTINUOUS
 10
155.7469762391
 20
122.0532463311
 11
155.8657262391
 21
121.8915442085
  0
LINE
  5
6EA
100
AcDbEntity
  8
0
100
AcDbLine
 62
7
  6
CONTINUOUS
 10
154.8365598744
 20
120.7596292517
 11
154.9157262391
 21
120.6383526704
  0
LINE
  5
6EB
100
AcDbEntity
  8
0
100
AcDbLine
 62
7
  6
CONTINUOUS
 10
155.7073930567
 20
121.7702675989
 11
155.6282262391
 21
121.8915442085
  0
LINE
  5
6EC
100
AcDbEntity
  8
0
100
AcDbLine
 62
7
  6
CONTINUOUS
 10
156.5386430567
 20
120.8809059462
 11
156.6969762391
 21
120.6383526704
  0
LINE
  5
6ED
100
AcDbEntity
  8
0
100
AcDbLine
 62
7
  6
CONTINUOUS
 10
156.4594762391
 20
120.5979271433
 11
156.3803098744
 21
120.7596292517
  0
LINE
  5
6EE
100
AcDbEntity
  8
0
100
AcDbLine
 62
7
  6
CONTINUOUS
 10
157.5678098744
 20
121.9319697356
 11
157.6469762391
 21
121.7702675989
  0
LINE
  5
6EF
100
AcDbEntity
  8
0
100
AcDbLine
 62
7
  6
CONTINUOUS
 10
155.8657262391
 20
121.8915442085
 11
155.9448930567
 21
121.6894165447
  0
LINE
  5
6F0
100
AcDbEntity
  8
0
100
AcDbLine
 62
7
  6
CONTINUOUS
 10
158.1219762391
 20
121.3255867443
 11
158.0428098744
 21
121.5277144364
  0
LINE
  5
6F1
100
AcDbEntity
  8
0
100
AcDbLine
 62
7
  6
CONTINUOUS
 10
154.735454408
 20
129.2156480655
 11
154.7846413509
 21
129.067967237
  0
LINE
  5
6F2
100
AcDbEntity
  8
0
100
AcDbLine
 62
7
  6
CONTINUOUS
 10
157.6469762391
 20
121.7702675989
 11
157.6865598744
 21
121.6489910176
  0
LINE
  5
6F3
100
AcDbEntity
  8
0
100
AcDbLine
 62
7
  6
CONTINUOUS
 10
158.2407264656
 20
121.5681399635
 11
158.2803096479
 21
121.4468633255
  0
LINE
  5
6F4
100
AcDbEntity
  8
0
100
AcDbLine
 62
7
  6
CONTINUOUS
 10
159.8240596479
 20
120.8404804191
 11
159.7844764656
 21
121.1234591088
  0
LWPOLYLINE
  5
6F5
100
AcDbEntity
  8
0
100
AcDbPolyline
 62
253
  6
CONTINUOUS
 90
13
 70
0
 10
161.81689338
 20
125.4748053396
 10
161.8194920761
 20
125.4357253631
 10
161.8271723585
 20
125.3973129245
 10
161.8398030956
 20
125.3602244873
 10
161.8571685469
 20
125.325093917
 10
161.8789720497
 20
125.292521638
 10
161.9048410884
 20
125.2630643727
 10
161.9343336796
 20
125.2372256121
 10
161.9669458321
 20
125.2154470849
 10
162.0021201352
 20
125.1981011547
 10
162.0392554185
 20
125.1854843638
 10
162.0777170526
 20
125.1778124045
 10
162.1168476886
 20
125.1752164792
  0
LINE
  5
6F6
100
AcDbEntity
  8
0
100
AcDbLine
 62
253
  6
CONTINUOUS
 10
162.5395617158
 20
125.5499564906
 11
162.538540012
 21
125.5926426019
  0
LWPOLYLINE
  5
6F7
100
AcDbEntity
  8
0
100
AcDbPolyline
 62
253
  6
CONTINUOUS
 90
3
 70
0
 10
162.538540012
 20
125.5926426019
 10
162.5376369625
 20
125.6433913377
 10
162.5372365509
 20
125.671341891
  0
LINE
  5
6F8
100
AcDbEntity
  8
0
100
AcDbLine
 62
7
  6
CONTINUOUS
 10
162.9294232784
 20
112.8614144536
 11
162.9294232784
 21
114.1684824536
  0
LINE
  5
6F9
100
AcDbEntity
  8
0
100
AcDbLine
 62
7
  6
CONTINUOUS
 10
163.1591602784
 20
114.3649484536
 11
163.1591602784
 21
112.6649484536
  0
LINE
  5
6FA
100
AcDbEntity
  8
0
100
AcDbLine
 62
7
  6
CONTINUOUS
 10
165.1006522784
 20
112.6649484536
 11
165.1006522784
 21
114.3649484536
  0
LINE
  5
6FB
100
AcDbEntity
  8
0
100
AcDbLine
 62
7
  6
CONTINUOUS
 10
165.3232952784
 20
114.3649484536
 11
165.3232952784
 21
112.9371684536
  0
LINE
  5
6FC
100
AcDbEntity
  8
0
100
AcDbLine
 62
253
  6
CONTINUOUS
 10
162.5380747291
 20
90.8129325628
 11
162.5372373617
 21
90.7586160259
  0
LWPOLYLINE
  5
6FD
100
AcDbEntity
  8
0
100
AcDbPolyline
 62
253
  6
CONTINUOUS
 90
7
 70
0
 10
162.2437708681
 20
91.254680428
 10
162.2431370781
 20
91.2495679265
 10
162.2425153972
 20
91.2403068542
 10
162.2419058256
 20
91.2269456331
 10
162.2413053347
 20
91.2095541085
 10
162.240716953
 20
91.1882231958
 10
162.2396040659
 20
91.1342092269
  0
LINE
  5
6FE
100
AcDbEntity
  8
0
100
AcDbLine
 62
7
  6
CONTINUOUS
 10
161.2081282784
 20
94.5413194536
 11
160.8349202784
 21
93.2335964536
  0
LINE
  5
6FF
100
AcDbEntity
  8
0
100
AcDbLine
 62
7
  6
CONTINUOUS
 10
160.4386192784
 20
93.2335964536
 11
161.0493052784
 21
95.1334424536
  0
LINE
  5
700
100
AcDbEntity
  8
0
100
AcDbLine
 62
7
  6
CONTINUOUS
 10
165.3232952784
 20
112.9371684536
 11
165.8015172784
 21
114.3649484536
  0
LINE
  5
701
100
AcDbEntity
  8
0
100
AcDbLine
 62
7
  6
CONTINUOUS
 10
165.9128352784
 20
114.1091294536
 11
165.4274402784
 21
112.6649484536
  0
LINE
  5
702
100
AcDbEntity
  8
0
100
AcDbLine
 62
7
  6
CONTINUOUS
 10
158.7212172784
 20
94.2883964536
 11
158.3246452784
 21
93.2335964536
  0
LWPOLYLINE
  5
703
100
AcDbEntity
  8
0
100
AcDbPolyline
 62
7
  6
CONTINUOUS
 90
22
 70
0
 10
138.0471938811
 20
123.1741039123
 10
138.0939194756
 20
123.1808838006
 10
138.1406441167
 20
123.1874207038
 10
138.1873346002
 20
123.1936299223
 10
138.2338937108
 20
123.1994214082
 10
138.2803545039
 20
123.2047244022
 10
138.3268817396
 20
123.2094803729
 10
138.3734615288
 20
123.2136072535
 10
138.420049494
 20
123.2170202388
 10
138.4667662406
 20
123.2196434552
 10
138.5136175734
 20
123.22138628
 10
138.5605383642
 20
123.2221532397
 10
138.6075420452
 20
123.2218489162
 10
138.6546337799
 20
123.2203722643
 10
138.7017449587
 20
123.2176214951
 10
138.7487778457
 20
123.2134997428
 10
138.7957115357
 20
123.2079061527
 10
138.8425016107
 20
123.2007409846
 10
138.889016805
 20
123.1919228892
 10
138.9351923902
 20
123.1813674825
 10
138.9809426385
 20
123.1688769491
 10
139.0259795912
 20
123.1540632382
  0
LWPOLYLINE
  5
704
100
AcDbEntity
  8
0
100
AcDbPolyline
 62
253
  6
CONTINUOUS
 90
13
 70
0
 10
162.2437708681
 20
125.1752164792
 10
162.2829012062
 20
125.1778123652
 10
162.3213626014
 20
125.1854842201
 10
162.358497714
 20
125.198100862
 10
162.3936719114
 20
125.2154466163
 10
162.4262840306
 20
125.237224964
 10
162.4557766727
 20
125.263063579
 10
162.4816458352
 20
125.292520765
 10
162.5034495038
 20
125.3250930435
 10
162.5208151336
 20
125.3602236999
 10
162.5334460334
 20
125.3973123131
 10
162.5411264346
 20
125.4357250173
 10
162.5437251767
 20
125.4748053396
  0
LWPOLYLINE
  5
705
100
AcDbEntity
  8
0
100
AcDbPolyline
 62
253
  6
CONTINUOUS
 90
13
 70
0
 10
154.4437708681
 20
125.1752164792
 10
154.4829012062
 20
125.1778123652
 10
154.5213626014
 20
125.1854842201
 10
154.558497714
 20
125.198100862
 10
154.5936719114
 20
125.2154466163
 10
154.6262840306
 20
125.237224964
 10
154.6557766727
 20
125.263063579
 10
154.6816458352
 20
125.292520765
 10
154.7034495038
 20
125.3250930435
 10
154.7208151336
 20
125.3602236999
 10
154.7334460334
 20
125.3973123131
 10
154.7411264346
 20
125.4357250173
 10
154.7437251767
 20
125.4748053396
  0
LWPOLYLINE
  5
706
100
AcDbEntity
  8
0
100
AcDbPolyline
 62
253
  6
CONTINUOUS
 90
13
 70
0
 10
139.7437708681
 20
125.1752164792
 10
139.7829012062
 20
125.1778123652
 10
139.8213626014
 20
125.1854842201
 10
139.858497714
 20
125.198100862
 10
139.8936719114
 20
125.2154466163
 10
139.9262840306
 20
125.237224964
 10
139.9557766727
 20
125.263063579
 10
139.9816458352
 20
125.292520765
 10
140.0034495038
 20
125.3250930435
 10
140.0208151336
 20
125.3602236999
 10
140.0334460334
 20
125.3973123131
 10
140.0411264346
 20
125.4357250173
 10
140.0437251767
 20
125.4748053396
  0
LWPOLYLINE
  5
707
100
AcDbEntity
  8
0
100
AcDbPolyline
 62
253
  6
CONTINUOUS
 90
13
 70
0
 10
131.9437708681
 20
125.1752164792
 10
131.9829012062
 20
125.1778123652
 10
132.0213626014
 20
125.1854842201
 10
132.058497714
 20
125.198100862
 10
132.0936719114
 20
125.2154466163
 10
132.1262840306
 20
125.237224964
 10
132.1557766727
 20
125.263063579
 10
132.1816458352
 20
125.292520765
 10
132.2034495038
 20
125.3250930435
 10
132.2208151336
 20
125.3602236999
 10
132.2334460334
 20
125.3973123131
 10
132.2411264346
 20
125.4357250173
 10
132.2437251767
 20
125.4748053396
  0
LINE
  5
708
100
AcDbEntity
  8
0
100
AcDbLine
 62
7
  6
CONTINUOUS
 10
162.0726351143
 20
125.0424708925
 11
162.2878740647
 21
125.0427992925
  0
LINE
  5
709
100
AcDbEntity
  8
0
100
AcDbLine
 62
7
  6
CONTINUOUS
 10
139.5726351143
 20
125.0424708925
 11
139.7878740647
 21
125.0427992925
  0
LINE
  5
70A
100
AcDbEntity
  8
0
100
AcDbLine
 62
253
  6
CONTINUOUS
 10
146.7811810761
 20
124.9422583473
 11
145.5032555767
 21
124.9422583473
  0
LINE
  5
70B
100
AcDbEntity
  8
0
100
AcDbLine
 62
253
  6
CONTINUOUS
 10
147.2794374806
 20
124.9422583473
 11
148.55736298
 21
124.9422583473
  0
LINE
  5
70C
100
AcDbEntity
  8
0
100
AcDbLine
 62
253
  6
CONTINUOUS
 10
131.8168476886
 20
125.1752164792
 11
131.9437708681
 21
125.1752164792
  0
LINE
  5
70D
100
AcDbEntity
  8
0
100
AcDbLine
 62
253
  6
CONTINUOUS
 10
139.6168476886
 20
125.1752164792
 11
139.7437708681
 21
125.1752164792
  0
LINE
  5
70E
100
AcDbEntity
  8
0
100
AcDbLine
 62
253
  6
CONTINUOUS
 10
154.3168476886
 20
125.1752164792
 11
154.4437708681
 21
125.1752164792
  0
LINE
  5
70F
100
AcDbEntity
  8
0
100
AcDbLine
 62
253
  6
CONTINUOUS
 10
162.1168476886
 20
125.1752164792
 11
162.2437708681
 21
125.1752164792
  0
LINE
  5
710
100
AcDbEntity
  8
DRAFT
100
AcDbLine
 62
7
  6
CONTINUOUS
 10
169.2803206064
 20
125.2149484536
 11
168.0384118038
 21
125.2149484536
  0
LINE
  5
711
100
AcDbEntity
  8
DRAFT
100
AcDbLine
 62
7
  6
CONTINUOUS
 10
126.0222067529
 20
125.2149484536
 11
124.7802979503
 21
125.2149484536
  0
LINE
  5
712
100
AcDbEntity
  8
0
100
AcDbLine
 62
7
  6
CONTINUOUS
 10
135.7303092784
 20
125.2149484536
 11
135.8303092784
 21
125.2149484536
  0
LINE
  5
713
100
AcDbEntity
  8
0
100
AcDbLine
 62
7
  6
CONTINUOUS
 10
158.2303092784
 20
125.2149484536
 11
158.3303092784
 21
125.2149484536
  0
LINE
  5
714
100
AcDbEntity
  8
0
100
AcDbLine
 62
7
  6
CONTINUOUS
 10
148.543407067
 20
125.7149484536
 11
147.2303118829
 21
125.7149484536
  0
LINE
  5
715
100
AcDbEntity
  8
0
100
AcDbLine
 62
7
  6
CONTINUOUS
 10
146.8303066738
 20
125.7149484536
 11
145.5172114897
 21
125.7149484536
  0
LINE
  5
716
100
AcDbEntity
  8
0
100
AcDbLine
 62
253
  6
CONTINUOUS
 10
131.5251641487
 20
125.974120107
 11
132.235454408
 21
125.974120107
  0
LINE
  5
717
100
AcDbEntity
  8
0
100
AcDbLine
 62
253
  6
CONTINUOUS
 10
139.3251641487
 20
125.974120107
 11
140.035454408
 21
125.974120107
  0
LINE
  5
718
100
AcDbEntity
  8
0
100
AcDbLine
 62
253
  6
CONTINUOUS
 10
154.0251641487
 20
125.974120107
 11
154.735454408
 21
125.974120107
  0
LINE
  5
719
100
AcDbEntity
  8
0
100
AcDbLine
 62
253
  6
CONTINUOUS
 10
161.8251641487
 20
125.974120107
 11
162.535454408
 21
125.974120107
  0
LINE
  5
71A
100
AcDbEntity
  8
0
100
AcDbLine
 62
253
  6
CONTINUOUS
 10
135.4303092784
 20
126.0149484536
 11
136.1303092784
 21
126.0149484536
  0
LINE
  5
71B
100
AcDbEntity
  8
0
100
AcDbLine
 62
253
  6
CONTINUOUS
 10
157.9303092784
 20
126.0149484536
 11
158.6303092784
 21
126.0149484536
  0
LINE
  5
71C
100
AcDbEntity
  8
0
100
AcDbLine
 62
7
  6
CONTINUOUS
 10
131.772744492
 20
125.0427992925
 11
131.9879834424
 21
125.0424708925
  0
LINE
  5
71D
100
AcDbEntity
  8
0
100
AcDbLine
 62
7
  6
CONTINUOUS
 10
154.272744492
 20
125.0427992925
 11
154.4879834424
 21
125.0424708925
  0
LWPOLYLINE
  5
71E
100
AcDbEntity
  8
0
100
AcDbPolyline
 62
7
  6
CONTINUOUS
 90
16
 70
0
 10
139.5726351143
 20
125.0424708925
 10
139.5413213499
 20
125.0440666481
 10
139.5103251024
 20
125.048937883
 10
139.4799865926
 20
125.0570402327
 10
139.4506115574
 20
125.0683068636
 10
139.4225575084
 20
125.082615934
 10
139.3962149456
 20
125.0997619743
 10
139.3719127925
 20
125.1194950488
 10
139.3498438376
 20
125.1416187802
 10
139.3301684523
 20
125.1659660155
 10
139.3130870947
 20
125.1923245672
 10
139.2988310759
 20
125.2203778301
 10
139.2875800375
 20
125.2497860131
 10
139.2794619023
 20
125.2802149939
 10
139.2745632686
 20
125.3113458295
 10
139.2729403213
 20
125.3428389327
  0
LWPOLYLINE
  5
71F
100
AcDbEntity
  8
0
100
AcDbPolyline
 62
7
  6
CONTINUOUS
 90
16
 70
0
 10
162.0726351143
 20
125.0424708925
 10
162.0413213499
 20
125.0440666481
 10
162.0103251024
 20
125.048937883
 10
161.9799865926
 20
125.0570402327
 10
161.9506115574
 20
125.0683068636
 10
161.9225575084
 20
125.082615934
 10
161.8962149456
 20
125.0997619743
 10
161.8719127925
 20
125.1194950488
 10
161.8498438376
 20
125.1416187802
 10
161.8301684523
 20
125.1659660155
 10
161.8130870947
 20
125.1923245672
 10
161.7988310759
 20
125.2203778301
 10
161.7875800375
 20
125.2497860131
 10
161.7794619023
 20
125.2802149939
 10
161.7745632686
 20
125.3113458295
 10
161.7729403213
 20
125.3428389327
  0
LWPOLYLINE
  5
720
100
AcDbEntity
  8
0
100
AcDbPolyline
 62
7
  6
CONTINUOUS
 90
16
 70
0
 10
131.772744492
 20
125.0427992925
 10
131.7414855666
 20
125.0444898417
 10
131.7105375032
 20
125.0494491744
 10
131.6802402012
 20
125.0576345882
 10
131.6508991938
 20
125.0689821552
 10
131.6228726171
 20
125.0833705132
 10
131.5965521286
 20
125.100591625
 10
131.5722669108
 20
125.120396302
 10
131.5502109431
 20
125.1425890663
 10
131.5305465231
 20
125.1669991041
 10
131.5134745942
 20
125.1934135591
 10
131.4992264863
 20
125.2215162026
 10
131.4879820444
 20
125.2509642743
 10
131.4798689402
 20
125.2814223729
 10
131.4749735087
 20
125.3125721964
 10
131.4733516574
 20
125.3440739446
  0
LWPOLYLINE
  5
721
100
AcDbEntity
  8
0
100
AcDbPolyline
 62
7
  6
CONTINUOUS
 90
16
 70
0
 10
154.272744492
 20
125.0427992925
 10
154.2414855666
 20
125.0444898417
 10
154.2105375032
 20
125.0494491744
 10
154.1802402012
 20
125.0576345882
 10
154.1508991938
 20
125.0689821552
 10
154.1228726171
 20
125.0833705132
 10
154.0965521286
 20
125.100591625
 10
154.0722669108
 20
125.120396302
 10
154.0502109431
 20
125.1425890663
 10
154.0305465231
 20
125.1669991041
 10
154.0134745942
 20
125.1934135591
 10
153.9992264863
 20
125.2215162026
 10
153.9879820444
 20
125.2509642743
 10
153.9798689402
 20
125.2814223729
 10
153.9749735087
 20
125.3125721964
 10
153.9733516574
 20
125.3440739446
  0
LINE
  5
722
100
AcDbEntity
  8
0
100
AcDbLine
 62
7
  6
CONTINUOUS
 10
160.6157263523
 20
121.5277144364
 11
160.8136430567
 21
121.4872888526
  0
LINE
  5
723
100
AcDbEntity
  8
0
100
AcDbLine
 62
7
  6
CONTINUOUS
 10
158.8740596479
 20
122.2149484536
 11
159.0719764656
 21
122.174522923
  0
LINE
  5
724
100
AcDbEntity
  8
0
100
AcDbLine
 62
7
  6
CONTINUOUS
 10
160.5761430567
 20
122.2149484536
 11
160.7740597611
 21
122.174522923
  0
LINE
  5
725
100
AcDbEntity
  8
0
100
AcDbLine
 62
7
  6
CONTINUOUS
 10
159.0323930567
 20
121.9723952627
 11
158.8740596479
 21
122.0128207898
  0
LINE
  5
726
100
AcDbEntity
  8
0
100
AcDbLine
 62
7
  6
CONTINUOUS
 10
155.5094762391
 20
121.9723952627
 11
155.3907262391
 21
122.0128207898
  0
LINE
  5
727
100
AcDbEntity
  8
0
100
AcDbLine
 62
7
  6
CONTINUOUS
 10
160.2594763523
 20
120.5575016162
 11
160.3782263523
 21
120.5170760891
  0
LINE
  5
728
100
AcDbEntity
  8
0
100
AcDbLine
 62
7
  6
CONTINUOUS
 10
160.7740597611
 20
121.2851612172
 11
160.6553097611
 21
121.3255867443
  0
LINE
  5
729
100
AcDbEntity
  8
0
100
AcDbLine
 62
7
  6
CONTINUOUS
 10
160.7344763523
 20
121.9723952627
 11
160.6157263523
 21
122.0128207898
  0
LINE
  5
72A
100
AcDbEntity
  8
0
100
AcDbLine
 62
7
  6
CONTINUOUS
 10
155.5490598744
 20
122.174522923
 11
155.7469762391
 21
122.0532463311
  0
LINE
  5
72B
100
AcDbEntity
  8
0
100
AcDbLine
 62
7
  6
CONTINUOUS
 10
158.4386430567
 20
121.0426080546
 11
158.2407264656
 21
121.1638846359
  0
LINE
  5
72C
100
AcDbEntity
  8
0
100
AcDbLine
 62
7
  6
CONTINUOUS
 10
157.2511430567
 20
122.174522923
 11
157.4490598744
 21
122.0532463311
  0
LINE
  5
72D
100
AcDbEntity
  8
0
100
AcDbLine
 62
7
  6
CONTINUOUS
 10
160.2198930567
 20
120.3553739807
 11
160.0219764656
 21
120.476650562
  0
LINE
  5
72E
100
AcDbEntity
  8
0
100
AcDbLine
 62
7
  6
CONTINUOUS
 10
159.0719764656
 20
122.174522923
 11
159.2698930567
 21
122.0532463311
  0
LINE
  5
72F
100
AcDbEntity
  8
0
100
AcDbLine
 62
7
  6
CONTINUOUS
 10
155.6282262391
 20
121.8915442085
 11
155.5094762391
 21
121.9723952627
  0
LINE
  5
730
100
AcDbEntity
  8
0
100
AcDbLine
 62
7
  6
CONTINUOUS
 10
157.3303098744
 20
121.8915442085
 11
157.2115598744
 21
121.9723952627
  0
LINE
  5
731
100
AcDbEntity
  8
0
100
AcDbLine
 62
7
  6
CONTINUOUS
 10
158.3594764656
 20
121.3255867443
 11
158.4782264656
 21
121.2447356901
  0
LINE
  5
732
100
AcDbEntity
  8
0
100
AcDbLine
 62
7
  6
CONTINUOUS
 10
160.1407263523
 20
120.6383526704
 11
160.2594763523
 21
120.5575016162
  0
LINE
  5
733
100
AcDbEntity
  8
0
100
AcDbLine
 62
7
  6
CONTINUOUS
 10
159.1511430567
 20
121.8915442085
 11
159.0323930567
 21
121.9723952627
  0
LINE
  5
734
100
AcDbEntity
  8
0
100
AcDbLine
 62
7
  6
CONTINUOUS
 10
157.4490598744
 20
122.0532463311
 11
157.5678098744
 21
121.9319697356
  0
LINE
  5
735
100
AcDbEntity
  8
0
100
AcDbLine
 62
7
  6
CONTINUOUS
 10
158.2407264656
 20
121.1638846359
 11
158.1219762391
 21
121.3255867443
  0
LINE
  5
736
100
AcDbEntity
  8
0
100
AcDbLine
 62
7
  6
CONTINUOUS
 10
160.0219764656
 20
120.476650562
 11
159.9032264656
 21
120.6383526704
  0
LINE
  5
737
100
AcDbEntity
  8
0
100
AcDbLine
 62
7
  6
CONTINUOUS
 10
159.2698930567
 20
122.0532463311
 11
159.3886430567
 21
121.8915442085
  0
LINE
  5
738
100
AcDbEntity
  8
0
100
AcDbLine
 62
7
  6
CONTINUOUS
 10
157.4886430567
 20
121.6489910176
 11
157.3303098744
 21
121.8915442085
  0
LINE
  5
739
100
AcDbEntity
  8
0
100
AcDbLine
 62
7
  6
CONTINUOUS
 10
158.2803096479
 20
121.4468633255
 11
158.3594764656
 21
121.3255867443
  0
LINE
  5
73A
100
AcDbEntity
  8
0
100
AcDbLine
 62
7
  6
CONTINUOUS
 10
160.0615596479
 20
120.7596292517
 11
160.1407263523
 21
120.6383526704
  0
LINE
  5
73B
100
AcDbEntity
  8
0
100
AcDbLine
 62
7
  6
CONTINUOUS
 10
159.2303096479
 20
121.7298420718
 11
159.1511430567
 21
121.8915442085
  0
LINE
  5
73C
100
AcDbEntity
  8
0
100
AcDbLine
 62
7
  6
CONTINUOUS
 10
159.3886430567
 20
121.8915442085
 11
159.4678096479
 21
121.7298420718
  0
LINE
  5
73D
100
AcDbEntity
  8
0
100
AcDbLine
 62
7
  6
CONTINUOUS
 10
159.9032264656
 20
120.6383526704
 11
159.8240596479
 21
120.8404804191
  0
LINE
  5
73E
100
AcDbEntity
  8
0
100
AcDbLine
 62
7
  6
CONTINUOUS
 10
161.1303097045
 20
121.204310163
 11
161.2094764089
 21
121.0021825275
  0
LINE
  5
73F
100
AcDbEntity
  8
0
100
AcDbLine
 62
7
  6
CONTINUOUS
 10
163.9972812784
 20
112.6649484536
 11
163.3817072784
 21
114.3649484536
  0
LINE
  5
740
100
AcDbEntity
  8
0
100
AcDbLine
 62
7
  6
CONTINUOUS
 10
163.6327132784
 20
114.3649484536
 11
163.8008022784
 21
113.8701404536
  0
LINE
  5
741
100
AcDbEntity
  8
0
100
AcDbLine
 62
7
  6
CONTINUOUS
 10
163.8836092784
 20
113.6665254536
 11
164.1368832784
 21
112.9115314536
  0
LINE
  5
742
100
AcDbEntity
  8
0
100
AcDbLine
 62
7
  6
CONTINUOUS
 10
160.0219764656
 20
120.8809059462
 11
160.0615596479
 21
120.7596292517
  0
LINE
  5
743
100
AcDbEntity
  8
0
100
AcDbLine
 62
7
  6
CONTINUOUS
 10
161.0115597611
 20
120.9617570004
 11
160.9719763523
 21
121.0830335817
  0
LINE
  5
744
100
AcDbEntity
  8
0
100
AcDbLine
 62
7
  6
CONTINUOUS
 10
161.0907264089
 20
121.8915442085
 11
161.1303097045
 21
121.7702675989
  0
LWPOLYLINE
  5
745
100
AcDbEntity
  8
0
100
AcDbPolyline
 62
253
  6
CONTINUOUS
 90
6
 70
0
 10
162.2437708681
 20
125.1752164792
 10
162.2431370858
 20
125.1803289924
 10
162.2425154078
 20
125.1895900821
 10
162.2419058341
 20
125.2029513178
 10
162.2413053373
 20
125.2203428381
 10
162.2407169447
 20
125.2416737242
  0
LINE
  5
746
100
AcDbEntity
  8
0
100
AcDbLine
 62
7
  6
CONTINUOUS
 10
167.998362806
 20
104.6156490345
 11
168.0623852525
 21
103.9605350721
  0
LINE
  5
747
100
AcDbEntity
  8
0
100
AcDbLine
 62
7
  6
CONTINUOUS
 10
165.7303092784
 20
105.6547036292
 11
165.7303092784
 21
107.1649484536
  0
LINE
  5
748
100
AcDbEntity
  8
0
100
AcDbLine
 62
7
  6
CONTINUOUS
 10
165.7303092784
 20
109.2649484536
 11
165.7303092784
 21
110.775193278
  0
LINE
  5
749
100
AcDbEntity
  8
0
100
AcDbLine
 62
7
  6
CONTINUOUS
 10
166.2053092784
 20
109.2649484536
 11
166.2053092784
 21
107.1649484536
  0
LINE
  5
74A
100
AcDbEntity
  8
0
100
AcDbLine
 62
7
  6
CONTINUOUS
 10
166.5071392784
 20
112.9395054536
 11
166.5071392784
 21
114.3649484536
  0
LINE
  5
74B
100
AcDbEntity
  8
0
100
AcDbLine
 62
7
  6
CONTINUOUS
 10
166.7296922784
 20
114.3649484536
 11
166.7296922784
 21
112.6649484536
  0
LINE
  5
74C
100
AcDbEntity
  8
0
100
AcDbLine
 62
7
  6
CONTINUOUS
 10
166.9303092784
 20
106.2062970852
 11
166.9303092784
 21
106.8649484536
  0
LINE
  5
74D
100
AcDbEntity
  8
0
100
AcDbLine
 62
7
  6
CONTINUOUS
 10
166.9303092784
 20
109.5649484536
 11
166.9303092784
 21
110.2235998221
  0
LINE
  5
74E
100
AcDbEntity
  8
0
100
AcDbLine
 62
7
  6
CONTINUOUS
 10
166.9890155004
 20
105.6562422315
 11
166.9890155004
 21
110.7736546757
  0
LINE
  5
74F
100
AcDbEntity
  8
0
100
AcDbLine
 62
7
  6
CONTINUOUS
 10
167.998362806
 20
111.8142478728
 11
168.0623852525
 21
112.4693618351
  0
LWPOLYLINE
  5
750
100
AcDbEntity
  8
0
100
AcDbPolyline
 62
253
  6
CONTINUOUS
 90
10
 70
0
 10
162.5437251767
 20
90.9550915676
 10
162.5430944652
 20
90.9518650569
 10
162.5424749317
 20
90.9461211924
 10
162.5418665762
 20
90.9378599743
 10
162.5412660752
 20
90.9270121905
 10
162.5406767522
 20
90.9136470529
 10
162.5401085773
 20
90.8979721978
 10
162.5395621413
 20
90.8799538091
 10
162.5390368534
 20
90.8596257029
 10
162.5380747291
 20
90.8129325628
  0
LINE
  5
751
100
AcDbEntity
  8
0
100
AcDbLine
 62
253
  6
CONTINUOUS
 10
162.2878740647
 20
91.3870976147
 11
162.2437708681
 21
91.254680428
  0
LINE
  5
752
100
AcDbEntity
  8
0
100
AcDbLine
 62
253
  6
CONTINUOUS
 10
162.5872668993
 20
91.0858229626
 11
162.5437251767
 21
90.9550915676
  0
LINE
  5
753
100
AcDbEntity
  8
0
100
AcDbLine
 62
7
  6
CONTINUOUS
 10
162.5842669768
 20
129.0690912729
 11
167.9641731075
 21
129.0825167329
  0
LINE
  5
754
100
AcDbEntity
  8
0
100
AcDbLine
 62
7
  6
CONTINUOUS
 10
140.0842669768
 20
129.0690912729
 11
145.5029397224
 21
129.08265103
  0
LINE
  5
755
100
AcDbEntity
  8
0
100
AcDbLine
 62
7
  6
CONTINUOUS
 10
158.6303092784
 20
129.0658104765
 11
161.7759772058
 21
129.067967237
  0
LINE
  5
756
100
AcDbEntity
  8
0
100
AcDbLine
 62
7
  6
CONTINUOUS
 10
136.1303092784
 20
129.0658104765
 11
139.2759772058
 21
129.067967237
  0
LINE
  5
757
100
AcDbEntity
  8
0
100
AcDbLine
 62
7
  6
CONTINUOUS
 10
132.2846413509
 20
129.067967237
 11
135.4303092784
 21
129.0658104765
  0
LINE
  5
758
100
AcDbEntity
  8
0
100
AcDbLine
 62
7
  6
CONTINUOUS
 10
154.7846413509
 20
129.067967237
 11
157.9303092784
 21
129.0658104765
  0
LINE
  5
759
100
AcDbEntity
  8
0
100
AcDbLine
 62
7
  6
CONTINUOUS
 10
126.0964454492
 20
129.0825167329
 11
131.4763515799
 21
129.0690912729
  0
LINE
  5
75A
100
AcDbEntity
  8
0
100
AcDbLine
 62
7
  6
CONTINUOUS
 10
148.5576788343
 20
129.08265103
 11
153.9763515799
 21
129.0690912729
  0
LINE
  5
75B
100
AcDbEntity
  8
0
100
AcDbLine
 62
7
  6
CONTINUOUS
 10
160.8136430567
 20
121.4872888526
 11
161.0115597611
 21
121.3660122713
  0
LINE
  5
75C
100
AcDbEntity
  8
0
100
AcDbLine
 62
7
  6
CONTINUOUS
 10
160.7740597611
 20
122.174522923
 11
160.9719763523
 21
122.0532463311
  0
LINE
  5
75D
100
AcDbEntity
  8
0
100
AcDbLine
 62
7
  6
CONTINUOUS
 10
160.8928097611
 20
121.204310163
 11
160.7740597611
 21
121.2851612172
  0
LINE
  5
75E
100
AcDbEntity
  8
0
100
AcDbLine
 62
7
  6
CONTINUOUS
 10
160.8532263523
 20
121.8915442085
 11
160.7344763523
 21
121.9723952627
  0
LINE
  5
75F
100
AcDbEntity
  8
0
100
AcDbLine
 62
7
  6
CONTINUOUS
 10
161.0115597611
 20
121.3660122713
 11
161.1303097045
 21
121.204310163
  0
LINE
  5
760
100
AcDbEntity
  8
0
100
AcDbLine
 62
7
  6
CONTINUOUS
 10
160.9719763523
 20
122.0532463311
 11
161.0907264089
 21
121.8915442085
  0
LINE
  5
761
100
AcDbEntity
  8
0
100
AcDbLine
 62
7
  6
CONTINUOUS
 10
160.9719763523
 20
121.0830335817
 11
160.8928097611
 21
121.204310163
  0
LINE
  5
762
100
AcDbEntity
  8
0
100
AcDbLine
 62
7
  6
CONTINUOUS
 10
160.9323930567
 20
121.7702675989
 11
160.8532263523
 21
121.8915442085
  0
LINE
  5
763
100
AcDbEntity
  8
0
100
AcDbLine
 62
7
  6
CONTINUOUS
 10
166.4005692784
 20
112.6649484536
 11
165.9128352784
 21
114.1091294536
  0
LINE
  5
764
100
AcDbEntity
  8
0
100
AcDbLine
 62
7
  6
CONTINUOUS
 10
166.0288252784
 20
114.3649484536
 11
166.5071392784
 21
112.9395054536
  0
LINE
  5
765
100
AcDbEntity
  8
0
100
AcDbLine
 62
253
  6
CONTINUOUS
 10
162.2878740647
 20
125.0427992925
 11
162.2437708681
 21
125.1752164792
  0
LINE
  5
766
100
AcDbEntity
  8
0
100
AcDbLine
 62
253
  6
CONTINUOUS
 10
162.5872668993
 20
125.3440739446
 11
162.5437251767
 21
125.4748053396
  0
LWPOLYLINE
  5
767
100
AcDbEntity
  8
0
100
AcDbPolyline
 62
253
  6
CONTINUOUS
 90
8
 70
0
 10
162.5437251767
 20
125.4748053396
 10
162.5430949548
 20
125.4780236967
 10
162.5424757072
 20
125.4837626991
 10
162.5418674338
 20
125.4920223469
 10
162.541266736
 20
125.5028719432
 10
162.5406770126
 20
125.5162421849
 10
162.5401084589
 20
125.5319251625
 10
162.5395617158
 20
125.5499564906
  0
LINE
  5
768
100
AcDbEntity
  8
0
100
AcDbLine
 62
7
  6
CONTINUOUS
 10
169.2402716086
 20
104.6156490345
 11
169.3042940551
 21
103.9605350721
  0
LINE
  5
769
100
AcDbEntity
  8
0
100
AcDbLine
 62
7
  6
CONTINUOUS
 10
168.0384118038
 20
125.2149484536
 11
168.0720177811
 21
113.0045889799
  0
LINE
  5
76A
100
AcDbEntity
  8
0
100
AcDbLine
 62
7
  6
CONTINUOUS
 10
169.2803206064
 20
125.2149484536
 11
169.3139265837
 21
113.0045889799
  0
LINE
  5
76B
100
AcDbEntity
  8
DRAFT
100
AcDbLine
 62
7
  6
CONTINUOUS
 10
167.9551722384
 20
97.7786380984
 11
167.9641731075
 21
87.3473801743
  0
LINE
  5
76C
100
AcDbEntity
  8
DRAFT
100
AcDbLine
 62
7
  6
CONTINUOUS
 10
167.9521715251
 20
108.2149496797
 11
167.9551722384
 21
97.7786380984
  0
LINE
  5
76D
100
AcDbEntity
  8
0
100
AcDbLine
 62
7
  6
CONTINUOUS
 10
167.9886585529
 20
105.0986119476
 11
167.9886585529
 21
111.3312849596
  0
LINE
  5
76E
100
AcDbEntity
  8
DRAFT
100
AcDbLine
 62
7
  6
CONTINUOUS
 10
168.0384118038
 20
129.2310960068
 11
168.0384118038
 21
125.2149484536
  0
LINE
  5
76F
100
AcDbEntity
  8
DRAFT
100
AcDbLine
 62
7
  6
CONTINUOUS
 10
168.0384118038
 20
87.1988009005
 11
168.0384118038
 21
91.2149484536
  0
LINE
  5
770
100
AcDbEntity
  8
0
100
AcDbLine
 62
7
  6
CONTINUOUS
 10
169.2305673554
 20
105.0986119476
 11
169.2305673554
 21
111.3312849596
  0
LINE
  5
771
100
AcDbEntity
  8
RACCORDO
100
AcDbLine
 62
7
  6
CONTINUOUS
 10
169.2803206064
 20
129.9000753682
 11
169.2803206064
 21
125.2149484536
  0
LINE
  5
772
100
AcDbEntity
  8
RACCORDO
100
AcDbLine
 62
7
  6
CONTINUOUS
 10
169.2803206064
 20
86.5298215391
 11
169.2803206064
 21
91.2149484536
  0
LINE
  5
773
100
AcDbEntity
  8
DRAFT
100
AcDbLine
 62
7
  6
CONTINUOUS
 10
167.9551722395
 20
118.6512608123
 11
167.9521715251
 21
108.2149496797
  0
LINE
  5
774
100
AcDbEntity
  8
DRAFT
100
AcDbLine
 62
7
  6
CONTINUOUS
 10
167.9641731075
 20
129.0825167329
 11
167.9551722395
 21
118.6512608123
  0
LINE
  5
775
100
AcDbEntity
  8
0
100
AcDbLine
 62
7
  6
CONTINUOUS
 10
168.0384118038
 20
91.2149484536
 11
168.0720177811
 21
103.4253079273
  0
LINE
  5
776
100
AcDbEntity
  8
0
100
AcDbLine
 62
7
  6
CONTINUOUS
 10
169.2803206064
 20
91.2149484536
 11
169.3139265837
 21
103.4253079273
  0
LINE
  5
777
100
AcDbEntity
  8
0
100
AcDbLine
 62
7
  6
CONTINUOUS
 10
169.2402716086
 20
111.8142478728
 11
169.3042940551
 21
112.4693618351
  0
LINE
  5
778
100
AcDbEntity
  8
0
100
AcDbLine
 62
7
  6
CONTINUOUS
 10
162.535454408
 20
87.2142488417
 11
162.5842669768
 21
87.3608056344
  0
LINE
  5
779
100
AcDbEntity
  8
0
100
AcDbLine
 62
7
  6
CONTINUOUS
 10
126.0222067529
 20
129.2310960068
 11
131.8251184573
 21
129.2310960068
  0
LINE
  5
77A
100
AcDbEntity
  8
0
100
AcDbLine
 62
7
  6
CONTINUOUS
 10
131.9355000994
 20
129.2310960068
 11
135.7303092784
 21
129.2310960068
  0
LINE
  5
77B
100
AcDbEntity
  8
0
100
AcDbLine
 62
7
  6
CONTINUOUS
 10
135.8303092784
 20
129.2310960068
 11
139.6251184573
 21
129.2310960068
  0
LINE
  5
77C
100
AcDbEntity
  8
0
100
AcDbLine
 62
7
  6
CONTINUOUS
 10
139.7355000994
 20
129.2310960068
 11
145.5523811745
 21
129.2310960068
  0
LINE
  5
77D
100
AcDbEntity
  8
0
100
AcDbLine
 62
7
  6
CONTINUOUS
 10
148.5082373822
 20
129.2310960068
 11
154.3251184573
 21
129.2310960068
  0
LINE
  5
77E
100
AcDbEntity
  8
0
100
AcDbLine
 62
7
  6
CONTINUOUS
 10
154.4355000994
 20
129.2310960068
 11
158.2303092784
 21
129.2310960068
  0
LINE
  5
77F
100
AcDbEntity
  8
0
100
AcDbLine
 62
7
  6
CONTINUOUS
 10
158.3303092784
 20
129.2310960068
 11
162.1251184573
 21
129.2310960068
  0
LINE
  5
780
100
AcDbEntity
  8
0
100
AcDbLine
 62
7
  6
CONTINUOUS
 10
162.2355000994
 20
129.2310960068
 11
168.0384118038
 21
129.2310960068
  0
LINE
  5
781
100
AcDbEntity
  8
RACCORDO
100
AcDbLine
 62
7
  6
CONTINUOUS
 10
125.2797841139
 20
130.4000756033
 11
146.3306872736
 21
130.4000756033
  0
LINE
  5
782
100
AcDbEntity
  8
RACCORDO
100
AcDbLine
 62
7
  6
CONTINUOUS
 10
147.7299312831
 20
130.4000756033
 11
168.7808344428
 21
130.4000756033
  0
LINE
  5
783
100
AcDbEntity
  8
0
100
AcDbLine
 62
7
  6
CONTINUOUS
 10
162.535454408
 20
129.2156480655
 11
162.5842669768
 21
129.0690912729
  0
ARC
  5
784
100
AcDbEntity
  8
0
100
AcDbCircle
 62
7
  6
CONTINUOUS
 10
135.8303092784
 20
90.9149484536
 40
0.3
100
AcDbArc
 50
0.0
 51
90.0
  0
ARC
  5
785
100
AcDbEntity
  8
0
100
AcDbCircle
 62
7
  6
CONTINUOUS
 10
135.7303092784
 20
125.5149484536
 40
0.3
100
AcDbArc
 50
180.0
 51
270.0
  0
ARC
  5
786
100
AcDbEntity
  8
0
100
AcDbCircle
 62
7
  6
CONTINUOUS
 10
135.7303092784
 20
90.9149484536
 40
0.3
100
AcDbArc
 50
90.0
 51
180.0
  0
ARC
  5
787
100
AcDbEntity
  8
0
100
AcDbCircle
 62
7
  6
CONTINUOUS
 10
135.8303092784
 20
125.5149484536
 40
0.3
100
AcDbArc
 50
270.0
 51
360.0
  0
ARC
  5
788
100
AcDbEntity
  8
0
100
AcDbCircle
 62
7
  6
CONTINUOUS
 10
158.2303092784
 20
125.5149484536
 40
0.3
100
AcDbArc
 50
180.0
 51
270.0
  0
ARC
  5
789
100
AcDbEntity
  8
0
100
AcDbCircle
 62
7
  6
CONTINUOUS
 10
158.3303092784
 20
90.9149484536
 40
0.3
100
AcDbArc
 50
0.0
 51
90.0
  0
ARC
  5
78A
100
AcDbEntity
  8
0
100
AcDbCircle
 62
7
  6
CONTINUOUS
 10
158.3303092784
 20
125.5149484536
 40
0.3
100
AcDbArc
 50
270.0
 51
360.0
  0
ARC
  5
78B
100
AcDbEntity
  8
0
100
AcDbCircle
 62
7
  6
CONTINUOUS
 10
158.2303092784
 20
90.9149484536
 40
0.3
100
AcDbArc
 50
90.0
 51
180.0
  0
ELLIPSE
  5
78C
100
AcDbEntity
  8
0
100
AcDbEllipse
 62
7
  6
CONTINUOUS
 10
146.7951369891
 20
124.9149484536
 30
0.0
 11
-0.0
 21
0.8
 31
0.0
 40
0.0174550649
 41
6.2831853072
 42
7.819837633
  0
ELLIPSE
  5
78D
100
AcDbEntity
  8
0
100
AcDbEllipse
 62
7
  6
CONTINUOUS
 10
124.7597132092
 20
103.477572159
 30
0.0
 11
-0.0
 21
0.5
 31
0.0
 40
0.0261859216
 41
0.2617993878
 42
1.6755160819
  0
ELLIPSE
  5
78E
100
AcDbEntity
  8
0
100
AcDbEllipse
 62
7
  6
CONTINUOUS
 10
124.7597132092
 20
112.9523247483
 30
0.0
 11
0.0
 21
0.5
 31
0.0
 40
0.0261859216
 41
1.4660765717
 42
2.8797932658
  0
ELLIPSE
  5
78F
100
AcDbEntity
  8
RACCORDO
100
AcDbEllipse
 62
7
  6
CONTINUOUS
 10
125.2804693465
 20
129.8993894303
 30
0.0
 11
-0.2238673116
 21
0.4480418466
 31
0.0
 40
0.9982882662
 41
-0.4626886447
 42
1.1067376861
  0
ELLIPSE
  5
790
100
AcDbEntity
  8
RACCORDO
100
AcDbEllipse
 62
7
  6
CONTINUOUS
 10
146.3302305098
 20
129.8993894303
 30
0.0
 11
-0.1582391023
 21
-0.4751033573
 31
0.0
 40
0.9984778551
 41
1.8927600658
 42
3.4626430041
  0
ELLIPSE
  5
791
100
AcDbEntity
  8
RACCORDO
100
AcDbEllipse
 62
7
  6
CONTINUOUS
 10
146.3302305098
 20
86.5305074769
 30
0.0
 11
0.1582391023
 21
-0.4751033573
 31
0.0
 40
0.9984778551
 41
-0.3210503505
 42
1.2488325878
  0
ELLIPSE
  5
792
100
AcDbEntity
  8
RACCORDO
100
AcDbEllipse
 62
7
  6
CONTINUOUS
 10
125.2804693465
 20
86.5305074769
 30
0.0
 11
0.2238673116
 21
0.4480418466
 31
0.0
 40
0.9982882662
 41
2.0348549675
 42
3.6042812983
  0
ELLIPSE
  5
793
100
AcDbEntity
  8
0
100
AcDbEllipse
 62
7
  6
CONTINUOUS
 10
155.3291777874
 20
108.2149484536
 30
0.0
 11
-0.0
 21
490.0
 31
0.0
 40
0.0174550649
 41
1.5366523258
 42
1.6049403278
  0
ELLIPSE
  5
794
100
AcDbEntity
  8
0
100
AcDbEllipse
 62
7
  6
CONTINUOUS
 10
124.8169582405
 20
105.0986119476
 30
0.0
 11
0.0
 21
0.5
 31
0.0
 40
0.0261859216
 41
-2.8797932658
 42
-1.5707963268
  0
ELLIPSE
  5
795
100
AcDbEntity
  8
0
100
AcDbEllipse
 62
7
  6
CONTINUOUS
 10
124.8169582405
 20
111.3312849596
 30
0.0
 11
0.0
 21
0.5
 31
0.0
 40
0.0261859216
 41
-1.5707963268
 42
-0.2617993878
  0
ELLIPSE
  5
796
100
AcDbEntity
  8
0
100
AcDbEllipse
 62
7
  6
CONTINUOUS
 10
146.7951369891
 20
91.5149484536
 30
0.0
 11
0.0
 21
0.8
 31
0.0
 40
0.0174550649
 41
-4.6782449794
 42
-3.1415926536
  0
ELLIPSE
  5
797
100
AcDbEntity
  8
0
100
AcDbEllipse
 62
7
  6
CONTINUOUS
 10
135.7303092784
 20
87.2145232342
 30
0.0
 11
0.3
 21
-0.0
 31
0.0
 40
0.0524077793
 41
3.1415926536
 42
4.7123889804
  0
ELLIPSE
  5
798
100
AcDbEntity
  8
0
100
AcDbEllipse
 62
7
  6
CONTINUOUS
 10
135.7303092784
 20
129.215373673
 30
0.0
 11
0.3
 21
-0.0
 31
0.0
 40
0.0524077793
 41
1.5707963268
 42
3.1415926536
  0
ELLIPSE
  5
799
100
AcDbEntity
  8
0
100
AcDbEllipse
 62
7
  6
CONTINUOUS
 10
135.8303092784
 20
129.215373673
 30
0.0
 11
0.3
 21
0.0
 31
0.0
 40
0.0524077793
 41
-0.0
 42
1.5707963268
  0
ELLIPSE
  5
79A
100
AcDbEntity
  8
0
100
AcDbEllipse
 62
7
  6
CONTINUOUS
 10
139.7355000994
 20
87.2145232342
 30
0.0
 11
0.3
 21
0.0
 31
0.0
 40
0.0524077793
 41
-1.5707963268
 42
-0.0174532925
  0
ELLIPSE
  5
79B
100
AcDbEntity
  8
0
100
AcDbEllipse
 62
7
  6
CONTINUOUS
 10
139.6251184573
 20
87.2145232342
 30
0.0
 11
0.3
 21
-0.0
 31
0.0
 40
0.0524077793
 41
-3.1241393611
 42
-1.5707963268
  0
ELLIPSE
  5
79C
100
AcDbEntity
  8
0
100
AcDbEllipse
 62
7
  6
CONTINUOUS
 10
131.9355000994
 20
87.2145232342
 30
0.0
 11
0.3
 21
-0.0
 31
0.0
 40
0.0524077793
 41
-1.5707963268
 42
-0.0174532925
  0
ELLIPSE
  5
79D
100
AcDbEntity
  8
0
100
AcDbEllipse
 62
7
  6
CONTINUOUS
 10
131.8251184573
 20
87.2145232342
 30
0.0
 11
0.3
 21
-0.0
 31
0.0
 40
0.0524077793
 41
-3.1241393611
 42
-1.5707963268
  0
ELLIPSE
  5
79E
100
AcDbEntity
  8
0
100
AcDbEllipse
 62
7
  6
CONTINUOUS
 10
139.7355000994
 20
129.215373673
 30
0.0
 11
0.3
 21
-0.0
 31
0.0
 40
0.0524077793
 41
0.0174532925
 42
1.5707963268
  0
ELLIPSE
  5
79F
100
AcDbEntity
  8
0
100
AcDbEllipse
 62
7
  6
CONTINUOUS
 10
139.6251184573
 20
129.215373673
 30
0.0
 11
0.3
 21
0.0
 31
0.0
 40
0.0524077793
 41
1.5707963268
 42
3.1241393611
  0
ELLIPSE
  5
7A0
100
AcDbEntity
  8
0
100
AcDbEllipse
 62
7
  6
CONTINUOUS
 10
131.9355000994
 20
129.215373673
 30
0.0
 11
0.3
 21
-0.0
 31
0.0
 40
0.0524077793
 41
0.0174532925
 42
1.5707963268
  0
ELLIPSE
  5
7A1
100
AcDbEntity
  8
0
100
AcDbEllipse
 62
7
  6
CONTINUOUS
 10
131.8251184573
 20
129.215373673
 30
0.0
 11
0.3
 21
0.0
 31
0.0
 40
0.0524077793
 41
1.5707963268
 42
3.1241393611
  0
ELLIPSE
  5
7A2
100
AcDbEntity
  8
0
100
AcDbEllipse
 62
7
  6
CONTINUOUS
 10
126.0588670431
 20
105.0986119476
 30
0.0
 11
0.0
 21
0.5
 31
0.0
 40
0.0261859216
 41
-2.8797932658
 42
-1.5707963268
  0
ELLIPSE
  5
7A3
100
AcDbEntity
  8
0
100
AcDbEllipse
 62
7
  6
CONTINUOUS
 10
136.9223161969
 20
98.2149484536
 30
0.0
 11
-0.0
 21
0.4579233268
 31
0.0
 40
0.0174550649
 41
-3.1241393611
 42
-0.0174532925
  0
ELLIPSE
  5
7A4
100
AcDbEntity
  8
0
100
AcDbEllipse
 62
7
  6
CONTINUOUS
 10
126.0588670431
 20
111.3312849596
 30
0.0
 11
0.0
 21
0.5
 31
0.0
 40
0.0261859216
 41
-1.5707963268
 42
-0.2617993878
  0
ELLIPSE
  5
7A5
100
AcDbEntity
  8
0
100
AcDbEllipse
 62
7
  6
CONTINUOUS
 10
145.5172114897
 20
124.9149484536
 30
0.0
 11
0.0
 21
0.8
 31
0.0
 40
0.0174550649
 41
0.0
 42
1.5366523258
  0
ELLIPSE
  5
7A6
100
AcDbEntity
  8
0
100
AcDbEllipse
 62
7
  6
CONTINUOUS
 10
140.1383023598
 20
98.2149484536
 30
0.0
 11
-0.0
 21
0.4579233268
 31
0.0
 40
0.0174550649
 41
0.0174532925
 42
3.1241393611
  0
ELLIPSE
  5
7A7
100
AcDbEntity
  8
0
100
AcDbEllipse
 62
7
  6
CONTINUOUS
 10
140.1383023598
 20
118.2149484536
 30
0.0
 11
-0.0
 21
0.4579233268
 31
0.0
 40
0.0174550649
 41
0.0174532925
 42
3.1241393611
  0
ELLIPSE
  5
7A8
100
AcDbEntity
  8
0
100
AcDbEllipse
 62
7
  6
CONTINUOUS
 10
136.9223161969
 20
118.2149484536
 30
0.0
 11
-0.0
 21
0.4579233268
 31
0.0
 40
0.0174550649
 41
-3.1241393611
 42
-0.0174532925
  0
ELLIPSE
  5
7A9
100
AcDbEntity
  8
0
100
AcDbEllipse
 62
7
  6
CONTINUOUS
 10
137.0814381648
 20
108.2149484536
 30
0.0
 11
-0.0
 21
490.0
 31
0.0
 40
0.0174550649
 41
4.7071767231
 42
4.7176012377
  0
ELLIPSE
  5
7AA
100
AcDbEntity
  8
0
100
AcDbEllipse
 62
7
  6
CONTINUOUS
 10
126.0016220118
 20
112.9523247483
 30
0.0
 11
0.0
 21
0.5
 31
0.0
 40
0.0261859216
 41
1.4660765717
 42
2.8797932658
  0
ELLIPSE
  5
7AB
100
AcDbEntity
  8
0
100
AcDbEllipse
 62
7
  6
CONTINUOUS
 10
126.0016220118
 20
103.477572159
 30
0.0
 11
0.0
 21
0.5
 31
0.0
 40
0.0261859216
 41
0.2617993878
 42
1.6755160819
  0
ELLIPSE
  5
7AC
100
AcDbEntity
  8
0
100
AcDbEllipse
 62
7
  6
CONTINUOUS
 10
127.1250727589
 20
109.5649484536
 30
0.0
 11
0.0
 21
0.3
 31
0.0
 40
0.0174550649
 41
-3.1415926536
 42
-1.5707963268
  0
ELLIPSE
  5
7AD
100
AcDbEntity
  8
0
100
AcDbEllipse
 62
7
  6
CONTINUOUS
 10
154.051252288
 20
108.2149484536
 30
0.0
 11
-0.0
 21
490.0
 31
0.0
 40
0.0174550649
 41
1.5366523258
 42
1.5655840695
  0
ELLIPSE
  5
7AE
100
AcDbEntity
  8
0
100
AcDbEllipse
 62
7
  6
CONTINUOUS
 10
154.051252288
 20
108.2149484536
 30
0.0
 11
-0.0
 21
490.0
 31
0.0
 40
0.0174550649
 41
-4.7071767231
 42
-4.6782449794
  0
ELLIPSE
  5
7AF
100
AcDbEntity
  8
0
100
AcDbEllipse
 62
7
  6
CONTINUOUS
 10
127.1076176939
 20
108.2149484536
 30
0.0
 11
-0.0
 21
1.25
 31
0.0
 40
0.0174550649
 41
-0.5735131044
 42
3.715105758
  0
ELLIPSE
  5
7B0
100
AcDbEntity
  8
0
100
AcDbEllipse
 62
7
  6
CONTINUOUS
 10
135.8303092784
 20
87.2145232342
 30
0.0
 11
0.3
 21
-0.0
 31
0.0
 40
0.0524077793
 41
-1.5707963268
 42
0.0
  0
ELLIPSE
  5
7B1
100
AcDbEntity
  8
0
100
AcDbEllipse
 62
7
  6
CONTINUOUS
 10
127.1250727589
 20
106.8649484536
 30
0.0
 11
0.0
 21
0.3
 31
0.0
 40
0.0174550649
 41
-1.5707963268
 42
0.0
  0
ELLIPSE
  5
7B2
100
AcDbEntity
  8
0
100
AcDbEllipse
 62
7
  6
CONTINUOUS
 10
127.1215817459
 20
106.2062970852
 30
0.0
 11
-0.0
 21
0.5
 31
0.0
 40
0.0174550649
 41
-3.1241393611
 42
-1.5707963268
  0
ELLIPSE
  5
7B3
100
AcDbEntity
  8
0
100
AcDbEllipse
 62
7
  6
CONTINUOUS
 10
127.1215817459
 20
110.2235998221
 30
0.0
 11
-0.0
 21
0.5
 31
0.0
 40
0.0174550649
 41
-1.5707963268
 42
-0.0174532925
  0
ELLIPSE
  5
7B4
100
AcDbEntity
  8
0
100
AcDbEllipse
 62
7
  6
CONTINUOUS
 10
145.5855457978
 20
106.8649484536
 30
0.0
 11
0.0
 21
0.3
 31
0.0
 40
0.0174550649
 41
-0.0
 42
1.5707963268
  0
ELLIPSE
  5
7B5
100
AcDbEntity
  8
0
100
AcDbEllipse
 62
7
  6
CONTINUOUS
 10
145.6030008628
 20
108.2149484536
 30
0.0
 11
-0.0
 21
1.25
 31
0.0
 40
0.0174550649
 41
2.5680795492
 42
6.8566984116
  0
ELLIPSE
  5
7B6
100
AcDbEntity
  8
0
100
AcDbEllipse
 62
7
  6
CONTINUOUS
 10
145.5172114897
 20
91.5149484536
 30
0.0
 11
-0.0
 21
0.8
 31
0.0
 40
0.0174550649
 41
-4.6782449794
 42
-3.1415926536
  0
ELLIPSE
  5
7B7
100
AcDbEntity
  8
0
100
AcDbEllipse
 62
7
  6
CONTINUOUS
 10
145.5855457978
 20
109.5649484536
 30
0.0
 11
-0.0
 21
0.3
 31
0.0
 40
0.0174550649
 41
1.5707963268
 42
3.1415926536
  0
ELLIPSE
  5
7B8
100
AcDbEntity
  8
0
100
AcDbEllipse
 62
7
  6
CONTINUOUS
 10
145.5890368108
 20
110.2235998221
 30
0.0
 11
-0.0
 21
0.5
 31
0.0
 40
0.0174550649
 41
0.0174532925
 42
1.5707963268
  0
ELLIPSE
  5
7B9
100
AcDbEntity
  8
0
100
AcDbEllipse
 62
7
  6
CONTINUOUS
 10
145.5890368108
 20
106.2062970852
 30
0.0
 11
-0.0
 21
0.5
 31
0.0
 40
0.0174550649
 41
1.5707963268
 42
3.1241393611
  0
ELLIPSE
  5
7BA
100
AcDbEntity
  8
0
100
AcDbEllipse
 62
7
  6
CONTINUOUS
 10
147.2654815676
 20
91.5149484536
 30
0.0
 11
0.0
 21
0.8
 31
0.0
 40
0.0174550649
 41
3.1415926536
 42
4.6782449794
  0
ELLIPSE
  5
7BB
100
AcDbEntity
  8
0
100
AcDbEllipse
 62
7
  6
CONTINUOUS
 10
169.3009053475
 20
112.9523247483
 30
0.0
 11
0.0
 21
0.5
 31
0.0
 40
0.0261859216
 41
-2.8797932658
 42
-1.4660765717
  0
ELLIPSE
  5
7BC
100
AcDbEntity
  8
0
100
AcDbEllipse
 62
7
  6
CONTINUOUS
 10
169.3009053475
 20
103.477572159
 30
0.0
 11
0.0
 21
0.5
 31
0.0
 40
0.0261859216
 41
-1.6755160819
 42
-0.2617993878
  0
ELLIPSE
  5
7BD
100
AcDbEntity
  8
RACCORDO
100
AcDbEllipse
 62
7
  6
CONTINUOUS
 10
168.7801492102
 20
86.5305074769
 30
0.0
 11
0.2238673116
 21
-0.4480418466
 31
0.0
 40
0.9982882662
 41
-0.4626886447
 42
1.1067376861
  0
ELLIPSE
  5
7BE
100
AcDbEntity
  8
RACCORDO
100
AcDbEllipse
 62
7
  6
CONTINUOUS
 10
147.7303880469
 20
86.5305074769
 30
0.0
 11
0.1582391023
 21
0.4751033573
 31
0.0
 40
0.9984778551
 41
1.8927600658
 42
3.4626430041
  0
ELLIPSE
  5
7BF
100
AcDbEntity
  8
RACCORDO
100
AcDbEllipse
 62
7
  6
CONTINUOUS
 10
147.7303880469
 20
129.8993894303
 30
0.0
 11
-0.1582391023
 21
0.4751033573
 31
0.0
 40
0.9984778551
 41
-0.3210503505
 42
1.2488325878
  0
ELLIPSE
  5
7C0
100
AcDbEntity
  8
RACCORDO
100
AcDbEllipse
 62
7
  6
CONTINUOUS
 10
168.7801492102
 20
129.8993894303
 30
0.0
 11
-0.2238673116
 21
-0.4480418466
 31
0.0
 40
0.9982882662
 41
2.0348549675
 42
3.6042812983
  0
ELLIPSE
  5
7C1
100
AcDbEntity
  8
0
100
AcDbEllipse
 62
7
  6
CONTINUOUS
 10
138.7314407693
 20
108.2149484536
 30
0.0
 11
-0.0
 21
490.0
 31
0.0
 40
0.0174550649
 41
-1.6049403278
 42
-1.5366523258
  0
ELLIPSE
  5
7C2
100
AcDbEntity
  8
0
100
AcDbEllipse
 62
7
  6
CONTINUOUS
 10
169.2436603162
 20
111.3312849596
 30
0.0
 11
0.0
 21
0.5
 31
0.0
 40
0.0261859216
 41
0.2617993878
 42
1.5707963268
  0
ELLIPSE
  5
7C3
100
AcDbEntity
  8
0
100
AcDbEllipse
 62
7
  6
CONTINUOUS
 10
169.2436603162
 20
105.0986119476
 30
0.0
 11
-0.0
 21
0.5
 31
0.0
 40
0.0261859216
 41
-4.7123889804
 42
-3.4033920414
  0
ELLIPSE
  5
7C4
100
AcDbEntity
  8
0
100
AcDbEllipse
 62
7
  6
CONTINUOUS
 10
147.2654815676
 20
124.9149484536
 30
0.0
 11
-0.0
 21
0.8
 31
0.0
 40
0.0174550649
 41
-1.5366523258
 42
0.0
  0
ELLIPSE
  5
7C5
100
AcDbEntity
  8
0
100
AcDbEllipse
 62
7
  6
CONTINUOUS
 10
158.3303092784
 20
129.215373673
 30
0.0
 11
0.3
 21
-0.0
 31
0.0
 40
0.0524077793
 41
-0.0
 42
1.5707963268
  0
ELLIPSE
  5
7C6
100
AcDbEntity
  8
0
100
AcDbEllipse
 62
7
  6
CONTINUOUS
 10
158.3303092784
 20
87.2145232342
 30
0.0
 11
0.3
 21
-0.0
 31
0.0
 40
0.0524077793
 41
-1.5707963268
 42
0.0
  0
ELLIPSE
  5
7C7
100
AcDbEntity
  8
0
100
AcDbEllipse
 62
7
  6
CONTINUOUS
 10
158.2303092784
 20
87.2145232342
 30
0.0
 11
0.3
 21
0.0
 31
0.0
 40
0.0524077793
 41
3.1415926536
 42
4.7123889804
  0
ELLIPSE
  5
7C8
100
AcDbEntity
  8
0
100
AcDbEllipse
 62
7
  6
CONTINUOUS
 10
154.3251184573
 20
129.215373673
 30
0.0
 11
0.3
 21
0.0
 31
0.0
 40
0.0524077793
 41
1.5707963268
 42
3.1241393611
  0
ELLIPSE
  5
7C9
100
AcDbEntity
  8
0
100
AcDbEllipse
 62
7
  6
CONTINUOUS
 10
154.4355000994
 20
129.215373673
 30
0.0
 11
0.3
 21
0.0
 31
0.0
 40
0.0524077793
 41
0.0174532925
 42
1.5707963268
  0
ELLIPSE
  5
7CA
100
AcDbEntity
  8
0
100
AcDbEllipse
 62
7
  6
CONTINUOUS
 10
162.1251184573
 20
129.215373673
 30
0.0
 11
0.3
 21
-0.0
 31
0.0
 40
0.0524077793
 41
1.5707963268
 42
3.1241393611
  0
ELLIPSE
  5
7CB
100
AcDbEntity
  8
0
100
AcDbEllipse
 62
7
  6
CONTINUOUS
 10
162.2355000994
 20
129.215373673
 30
0.0
 11
0.3
 21
0.0
 31
0.0
 40
0.0524077793
 41
0.0174532925
 42
1.5707963268
  0
ELLIPSE
  5
7CC
100
AcDbEntity
  8
0
100
AcDbEllipse
 62
7
  6
CONTINUOUS
 10
154.3251184573
 20
87.2145232342
 30
0.0
 11
0.3
 21
0.0
 31
0.0
 40
0.0524077793
 41
-3.1241393611
 42
-1.5707963268
  0
ELLIPSE
  5
7CD
100
AcDbEntity
  8
0
100
AcDbEllipse
 62
7
  6
CONTINUOUS
 10
154.4355000994
 20
87.2145232342
 30
0.0
 11
0.3
 21
0.0
 31
0.0
 40
0.0524077793
 41
-1.5707963268
 42
-0.0174532925
  0
ELLIPSE
  5
7CE
100
AcDbEntity
  8
0
100
AcDbEllipse
 62
7
  6
CONTINUOUS
 10
162.1251184573
 20
87.2145232342
 30
0.0
 11
0.3
 21
-0.0
 31
0.0
 40
0.0524077793
 41
-3.1241393611
 42
-1.5707963268
  0
ELLIPSE
  5
7CF
100
AcDbEntity
  8
0
100
AcDbEllipse
 62
7
  6
CONTINUOUS
 10
162.2355000994
 20
87.2145232342
 30
0.0
 11
0.3
 21
0.0
 31
0.0
 40
0.0524077793
 41
-1.5707963268
 42
-0.0174532925
  0
ELLIPSE
  5
7D0
100
AcDbEntity
  8
0
100
AcDbEllipse
 62
7
  6
CONTINUOUS
 10
168.0017515136
 20
111.3312849596
 30
0.0
 11
0.0
 21
0.5
 31
0.0
 40
0.0261859216
 41
0.2617993878
 42
1.5707963268
  0
ELLIPSE
  5
7D1
100
AcDbEntity
  8
0
100
AcDbEllipse
 62
7
  6
CONTINUOUS
 10
157.1383023598
 20
118.2149484536
 30
0.0
 11
-0.0
 21
0.4579233268
 31
0.0
 40
0.0174550649
 41
0.0174532925
 42
3.1241393611
  0
ELLIPSE
  5
7D2
100
AcDbEntity
  8
0
100
AcDbEllipse
 62
7
  6
CONTINUOUS
 10
168.0017515136
 20
105.0986119476
 30
0.0
 11
-0.0
 21
0.5
 31
0.0
 40
0.0261859216
 41
-4.7123889804
 42
-3.4033920414
  0
ELLIPSE
  5
7D3
100
AcDbEntity
  8
0
100
AcDbEllipse
 62
7
  6
CONTINUOUS
 10
148.543407067
 20
91.5149484536
 30
0.0
 11
0.0
 21
0.8
 31
0.0
 40
0.0174550649
 41
-3.1415926536
 42
-1.6049403278
  0
ELLIPSE
  5
7D4
100
AcDbEntity
  8
0
100
AcDbEllipse
 62
7
  6
CONTINUOUS
 10
153.9223161969
 20
118.2149484536
 30
0.0
 11
-0.0
 21
0.4579233268
 31
0.0
 40
0.0174550649
 41
-3.1241393611
 42
-0.0174532925
  0
ELLIPSE
  5
7D5
100
AcDbEntity
  8
0
100
AcDbEllipse
 62
7
  6
CONTINUOUS
 10
153.9223161969
 20
98.2149484536
 30
0.0
 11
-0.0
 21
0.4579233268
 31
0.0
 40
0.0174550649
 41
-3.1241393611
 42
-0.0174532925
  0
ELLIPSE
  5
7D6
100
AcDbEntity
  8
0
100
AcDbEllipse
 62
7
  6
CONTINUOUS
 10
157.1383023598
 20
98.2149484536
 30
0.0
 11
-0.0
 21
0.4579233268
 31
0.0
 40
0.0174550649
 41
0.0174532925
 42
3.1241393611
  0
ELLIPSE
  5
7D7
100
AcDbEntity
  8
0
100
AcDbEllipse
 62
7
  6
CONTINUOUS
 10
156.9791803919
 20
108.2149484536
 30
0.0
 11
-0.0
 21
490.0
 31
0.0
 40
0.0174550649
 41
1.5655840695
 42
1.5760085841
  0
ELLIPSE
  5
7D8
100
AcDbEntity
  8
0
100
AcDbEllipse
 62
7
  6
CONTINUOUS
 10
168.0589965449
 20
103.477572159
 30
0.0
 11
0.0
 21
0.5
 31
0.0
 40
0.0261859216
 41
-1.6755160819
 42
-0.2617993878
  0
ELLIPSE
  5
7D9
100
AcDbEntity
  8
0
100
AcDbEllipse
 62
7
  6
CONTINUOUS
 10
168.0589965449
 20
112.9523247483
 30
0.0
 11
0.0
 21
0.5
 31
0.0
 40
0.0261859216
 41
-2.8797932658
 42
-1.4660765717
  0
ELLIPSE
  5
7DA
100
AcDbEntity
  8
0
100
AcDbEllipse
 62
7
  6
CONTINUOUS
 10
166.9355457978
 20
106.8649484536
 30
0.0
 11
0.0
 21
0.3
 31
0.0
 40
0.0174550649
 41
0.0
 42
1.5707963268
  0
ELLIPSE
  5
7DB
100
AcDbEntity
  8
0
100
AcDbEllipse
 62
7
  6
CONTINUOUS
 10
140.0093662687
 20
108.2149484536
 30
0.0
 11
-0.0
 21
490.0
 31
0.0
 40
0.0174550649
 41
-1.6049403278
 42
-1.5760085841
  0
ELLIPSE
  5
7DC
100
AcDbEntity
  8
0
100
AcDbEllipse
 62
7
  6
CONTINUOUS
 10
140.0093662687
 20
108.2149484536
 30
0.0
 11
-0.0
 21
490.0
 31
0.0
 40
0.0174550649
 41
-1.5655840695
 42
-1.5366523258
  0
ELLIPSE
  5
7DD
100
AcDbEntity
  8
0
100
AcDbEllipse
 62
7
  6
CONTINUOUS
 10
166.9530008628
 20
108.2149484536
 30
0.0
 11
-0.0
 21
1.25
 31
0.0
 40
0.0174550649
 41
2.5680795492
 42
6.8566984116
  0
ELLIPSE
  5
7DE
100
AcDbEntity
  8
0
100
AcDbEllipse
 62
7
  6
CONTINUOUS
 10
158.2303092784
 20
129.215373673
 30
0.0
 11
0.3
 21
0.0
 31
0.0
 40
0.0524077793
 41
1.5707963268
 42
3.1415926536
  0
ELLIPSE
  5
7DF
100
AcDbEntity
  8
0
100
AcDbEllipse
 62
7
  6
CONTINUOUS
 10
166.9355457978
 20
109.5649484536
 30
0.0
 11
0.0
 21
0.3
 31
0.0
 40
0.0174550649
 41
-4.7123889804
 42
-3.1415926536
  0
ELLIPSE
  5
7E0
100
AcDbEntity
  8
0
100
AcDbEllipse
 62
7
  6
CONTINUOUS
 10
166.9390368108
 20
110.2235998221
 30
0.0
 11
-0.0
 21
0.5
 31
0.0
 40
0.0174550649
 41
0.0174532925
 42
1.5707963268
  0
ELLIPSE
  5
7E1
100
AcDbEntity
  8
0
100
AcDbEllipse
 62
7
  6
CONTINUOUS
 10
166.9390368108
 20
106.2062970852
 30
0.0
 11
-0.0
 21
0.5
 31
0.0
 40
0.0174550649
 41
-4.7123889804
 42
-3.1590459461
  0
ELLIPSE
  5
7E2
100
AcDbEntity
  8
0
100
AcDbEllipse
 62
7
  6
CONTINUOUS
 10
148.4750727589
 20
109.5649484536
 30
0.0
 11
-0.0
 21
0.3
 31
0.0
 40
0.0174550649
 41
-3.1415926536
 42
-1.5707963268
  0
ELLIPSE
  5
7E3
100
AcDbEntity
  8
0
100
AcDbEllipse
 62
7
  6
CONTINUOUS
 10
148.4576176939
 20
108.2149484536
 30
0.0
 11
0.0
 21
1.25
 31
0.0
 40
0.0174550649
 41
-0.5735131044
 42
3.715105758
  0
ELLIPSE
  5
7E4
100
AcDbEntity
  8
0
100
AcDbEllipse
 62
7
  6
CONTINUOUS
 10
148.543407067
 20
124.9149484536
 30
0.0
 11
0.0
 21
0.8
 31
0.0
 40
0.0174550649
 41
-1.5366523258
 42
-0.0
  0
ELLIPSE
  5
7E5
100
AcDbEntity
  8
0
100
AcDbEllipse
 62
7
  6
CONTINUOUS
 10
148.4750727589
 20
106.8649484536
 30
0.0
 11
0.0
 21
0.3
 31
0.0
 40
0.0174550649
 41
-1.5707963268
 42
0.0
  0
ELLIPSE
  5
7E6
100
AcDbEntity
  8
0
100
AcDbEllipse
 62
7
  6
CONTINUOUS
 10
148.4715817459
 20
106.2062970852
 30
0.0
 11
-0.0
 21
0.5
 31
0.0
 40
0.0174550649
 41
-3.1241393611
 42
-1.5707963268
  0
ELLIPSE
  5
7E7
100
AcDbEntity
  8
0
100
AcDbEllipse
 62
7
  6
CONTINUOUS
 10
148.4715817459
 20
110.2235998221
 30
0.0
 11
-0.0
 21
0.5
 31
0.0
 40
0.0174550649
 41
-1.5707963268
 42
-0.0174532925
  0
ENDSEC
  0
SECTION
  2
OBJECTS
  0
DICTIONARY
  5
C
100
AcDbDictionary
280
0
281
1
  3
ACAD_GROUP
350
D
  3
ACAD_MLINESTYLE
350
17
  3
ACAD_LAYOUT
350
1A
  3
ACAD_PLOTSETTINGS
350
19
  3
ACAD_PLOTSTYLENAME
350
E
  0
DICTIONARY
  5
D
102
{ACAD_REACTORS
330
C
102
}
100
AcDbDictionary
280
0
281
1
  0
ACDBDICTIONARYWDFLT
  5
E
102
{ACAD_REACTORS
330
C
102
}
100
AcDbDictionary
281
1
  3
Normal
350
F
100
AcDbDictionaryWithDefault
340
F
  0
DICTIONARY
  5
17
102
{ACAD_REACTORS
330
C
102
}
100
AcDbDictionary
280
0
281
1
  3
Standard
350
18
  0
DICTIONARY
  5
19
102
{ACAD_REACTORS
330
C
102
}
100
AcDbDictionary
281
1
  0
DICTIONARY
  5
1A
102
{ACAD_REACTORS
330
C
102
}
100
AcDbDictionary
281
1
  3
Model
350
7E8
  3
Layout1
350
7E9
  0
ACDBPLACEHOLDER
  5
F
102
{ACAD_REACTORS
330
E
102
}
  0
MLINESTYLE
  5
18
102
{ACAD_REACTORS
330
17
102
}
100
AcDbMlineStyle
  2
STANDARD
 70
0
  3

 62
256
 51
90.0
 52
90.0
 71
2
 49
0.5
 62
256
  6
BYLAYER
 49
-0.5
 62
256
  6
BYLAYER
  0
LAYOUT
  5
7E8
102
{ACAD_REACTORS
330
1A
102
}
100
AcDbPlotSettings
  1

  2
none_device
  4
ISO_A4_(297.00_x_210.00_MM)
  6

 40
0.0
 41
0.0
 42
0.0
 43
0.0
 44
297.0
 45
210.0
 46
0.0
 47
0.0
 48
0.0
 49
0.0
140
0.0
141
0.0
142
1.0
143
1.0
 70
1024
 72
1
 73
0
 74
0
  7

 75
0
147
1.0
148
0.0
149
0.0
100
AcDbLayout
  1
Model
 70
0
 71
0
 10
0.0
 20
0.0
 11
297.0
 21
210.0
 12
0.0
 22
0.0
 32
0.0
 14
0.0
 24
0.0
 34
0.0
 15
0.0
 25
0.0
 35
0.0
146
0.0
 13
0.0
 23
0.0
 33
0.0
 16
1.0
 26
0.0
 36
0.0
 17
0.0
 27
1.0
 37
0.0
 76
0
330
215
345
0
346
0
  0
LAYOUT
  5
7E9
102
{ACAD_REACTORS
330
1A
102
}
100
AcDbPlotSettings
  1

  2
none_device
  4
ISO_A4_(297.00_x_210.00_MM)
  6

 40
0.0
 41
0.0
 42
0.0
 43
0.0
 44
297.0
 45
210.0
 46
0.0
 47
0.0
 48
0.0
 49
0.0
140
0.0
141
0.0
142
1.0
143
1.0
 70
0
 72
1
 73
0
 74
0
  7

 75
0
147
1.0
148
0.0
149
0.0
100
AcDbLayout
  1
Layout1
 70
0
 71
1
 10
0.0
 20
0.0
 11
297.0
 21
210.0
 12
0.0
 22
0.0
 32
0.0
 14
0.0
 24
0.0
 34
0.0
 15
0.0
 25
0.0
 35
0.0
146
0.0
 13
0.0
 23
0.0
 33
0.0
 16
1.0
 26
0.0
 36
0.0
 17
0.0
 27
1.0
 37
0.0
 76
0
330
216
345
0
346
0
  0
ENDSEC
  0
EOF
