  0
SECTION
  2
HEADER
  9
$ACADVER
  1
AC1024
  9
$DWGCODEPAGE
  3
ANSI_1252
  9
$EXTMAX
 10
297.0
 20
210.0
 30
0.0
  9
$EXTMIN
 10
0.0
 20
0.0
 30
0.0
  9
$LIMMIN
 10
0.0
 20
0.0
  9
$LIMMAX
 10
297.0
 20
210.0
  9
$VIEWCTR
 10
148.5
 20
105.0
  9
$VIEWSIZE
 40
210.0
  9
$CLAYER
  8
0
  9
$LTSCALE
 40
16.335
  9
$CELTYPE
  6
BYLAYER
  9
$DIMSCALE
 40
1.0
  9
$DIMASZ
 40
3.0
  9
$DIMEXO
 40
0.5
  9
$DIMDLI
 40
11.286
  9
$DIMEXE
 40
1.5
  9
$DIMCEN
 40
2.673
  9
$DIMLFAC
 40
1.0
  9
$DIMBLK
  1
_FILLED
  9
$DIMALT
 70
0
  9
$DIMALTF
 40
0.0393700787
  9
$DIMTXT
 40
3.0
  9
$DIMTOL
 70
1
  9
$DIMLIM
 70
0
  9
$DIMTFAC
 40
1.0
  9
$DIMTP
 40
0.01
  9
$DIMTM
 40
0.01
  9
$DIMGAP
 40
0.625
  9
$DIMDSEP
 70
44
  9
$AUNITS
 70
0
  9
$PDMODE
 70
3
  9
$PDSIZE
 40
3.0
  9
$HANDSEED
  5
378
  9
$TILEMODE
 70
1
  9
$MEASUREMENT
 70
1
  9
$INSUNITS
 70
4
  0
ENDSEC
  0
SECTION
  2
CLASSES
  0
CLASS
  1
ACDBDICTIONARYWDFLT
  2
AcDbDictionaryWithDefault
  3
AutoCAD 2000
 90
0
 91
1
280
0
281
0
  0
CLASS
  1
ACDBPLACEHOLDER
  2
AcDbPlaceHolder
  3
AutoCAD 2000
 90
0
 91
1
280
0
281
0
  0
CLASS
  1
LAYOUT
  2
AcDbLayout
  3
AutoCAD 2000
 90
0
 91
0
280
0
281
0
  0
ENDSEC
  0
SECTION
  2
TABLES
  0
TABLE
  2
VPORT
  5
8
100
AcDbSymbolTable
 70
2
  0
VPORT
  5
1F4
100
AcDbSymbolTableRecord
100
AcDbViewportTableRecord
  2
*ACTIVE
 70
0
 10
0.0
 20
0.0
 11
1.0
 21
1.0
 12
148.5
 22
105.0
 13
0.0
 23
0.0
 14
1.0
 24
1.0
 15
0.0
 25
0.0
 16
0.0
 26
0.0
 36
1.0
 17
0.0
 27
0.0
 37
0.0
 40
210.0
 41
1.4142857143
 42
50.0
 43
0.0
 44
0.0
 50
0.0
 51
0.0
 71
0
 72
100
 73
1
 74
1
 75
0
 76
0
 77
0
 78
0
  0
ENDTAB
  0
TABLE
  2
LTYPE
  5
5
100
AcDbSymbolTable
 70
6
  0
LTYPE
  5
14
100
AcDbSymbolTableRecord
100
AcDbLinetypeTableRecord
  2
BYBLOCK
 70
0
  3

 72
65
 73
0
 40
0.0
  0
LTYPE
  5
15
100
AcDbSymbolTableRecord
100
AcDbLinetypeTableRecord
  2
BYLAYER
 70
0
  3

 72
65
 73
0
 40
0.0
  0
LTYPE
  5
16
100
AcDbSymbolTableRecord
100
AcDbLinetypeTableRecord
  2
CONTINUOUS
 70
64
  3
Solid line
 72
65
 73
0
 40
0.0
  0
LTYPE
  5
1F5
100
AcDbSymbolTableRecord
100
AcDbLinetypeTableRecord
  2
CENTER
 70
64
  3
____ _ ____ _ ____ _ ____ _ ____ _ ____ _ ____
 72
65
 73
4
 40
0.6
 49
0.375
 74
0
 49
-0.075
 74
0
 49
0.075
 74
0
 49
-0.075
 74
0
  0
LTYPE
  5
1F6
100
AcDbSymbolTableRecord
100
AcDbLinetypeTableRecord
  2
HIDDEN
 70
64
  3
- - - - - - - - - - - - - - - - - - - -
 72
65
 73
2
 40
0.2
 49
0.1
 74
0
 49
-0.1
 74
0
  0
LTYPE
  5
1F7
100
AcDbSymbolTableRecord
100
AcDbLinetypeTableRecord
  2
PHANTOM
 70
64
  3
_____ _ _ _____ _ _ _____ _ _ _____
 72
65
 73
6
 40
0.8
 49
0.45
 74
0
 49
-0.05
 74
0
 49
0.1
 74
0
 49
-0.05
 74
0
 49
0.1
 74
0
 49
-0.05
 74
0
  0
LTYPE
  5
1F8
100
AcDbSymbolTableRecord
100
AcDbLinetypeTableRecord
  2
DOT
 70
64
  3
. . . . . . . . . . . . . . . . . . . .
 72
65
 73
2
 40
0.2
 49
0.1
 74
0
 49
-0.1
 74
0
  0
LTYPE
  5
1F9
100
AcDbSymbolTableRecord
100
AcDbLinetypeTableRecord
  2
DASHED
 70
64
  3
- - - - - - - - - - - - - - - - - - - -
 72
65
 73
2
 40
0.2
 49
0.1
 74
0
 49
-0.1
 74
0
  0
ENDTAB
  0
TABLE
  2
LAYER
  5
2
100
AcDbSymbolTable
 70
36
  0
LAYER
  5
10
100
AcDbSymbolTableRecord
100
AcDbLayerTableRecord
  2
0
 70
0
 62
7
  6
CONTINUOUS
370
-3
390
F
  0
LAYER
  5
1FA
100
AcDbSymbolTableRecord
100
AcDbLayerTableRecord
  2
DEFAULT_1
 70
0
 62
7
  6
CENTER
370
-3
390
F
  0
LAYER
  5
1FB
100
AcDbSymbolTableRecord
100
AcDbLayerTableRecord
  2
DEFAULT_2
 70
0
 62
7
  6
HIDDEN
370
-3
390
F
  0
LAYER
  5
1FC
100
AcDbSymbolTableRecord
100
AcDbLayerTableRecord
  2
DEFAULT_3
 70
0
 62
7
  6
PHANTOM
370
-3
390
F
  0
LAYER
  5
1FD
100
AcDbSymbolTableRecord
100
AcDbLayerTableRecord
  2
ASSI
 70
0
 62
7
  6
CONTINUOUS
370
-3
390
F
  0
LAYER
  5
1FE
100
AcDbSymbolTableRecord
100
AcDbLayerTableRecord
  2
COLOR6
 70
0
 62
7
  6
CONTINUOUS
370
-3
390
F
  0
LAYER
  5
1FF
100
AcDbSymbolTableRecord
100
AcDbLayerTableRecord
  2
COORDINATE
 70
0
 62
7
  6
CONTINUOUS
370
-3
390
F
  0
LAYER
  5
200
100
AcDbSymbolTableRecord
100
AcDbLayerTableRecord
  2
COORD_ORIGINE
 70
0
 62
7
  6
CONTINUOUS
370
-3
390
F
  0
LAYER
  5
201
100
AcDbSymbolTableRecord
100
AcDbLayerTableRecord
  2
COPY_PUBLISH
 70
0
 62
7
  6
CONTINUOUS
370
-3
390
F
  0
LAYER
  5
202
100
AcDbSymbolTableRecord
100
AcDbLayerTableRecord
  2
COSMETIC
 70
0
 62
7
  6
CONTINUOUS
370
-3
390
F
  0
LAYER
  5
203
100
AcDbSymbolTableRecord
100
AcDbLayerTableRecord
  2
COSMETICI
 70
0
 62
7
  6
CONTINUOUS
370
-3
390
F
  0
LAYER
  5
204
100
AcDbSymbolTableRecord
100
AcDbLayerTableRecord
  2
CURVE
 70
0
 62
7
  6
CONTINUOUS
370
-3
390
F
  0
LAYER
  5
205
100
AcDbSymbolTableRecord
100
AcDbLayerTableRecord
  2
DRAFT
 70
0
 62
7
  6
CONTINUOUS
370
-3
390
F
  0
LAYER
  5
206
100
AcDbSymbolTableRecord
100
AcDbLayerTableRecord
  2
IMPORT_IGES
 70
0
 62
7
  6
CONTINUOUS
370
-3
390
F
  0
LAYER
  5
207
100
AcDbSymbolTableRecord
100
AcDbLayerTableRecord
  2
INTFCLR_2
 70
0
 62
7
  6
CONTINUOUS
370
-3
390
F
  0
LAYER
  5
208
100
AcDbSymbolTableRecord
100
AcDbLayerTableRecord
  2
INTF_1
 70
0
 62
7
  6
CONTINUOUS
370
-3
390
F
  0
LAYER
  5
209
100
AcDbSymbolTableRecord
100
AcDbLayerTableRecord
  2
INTF_14
 70
0
 62
7
  6
CONTINUOUS
370
-3
390
F
  0
LAYER
  5
20A
100
AcDbSymbolTableRecord
100
AcDbLayerTableRecord
  2
LINEA_CHIUSURA
 70
0
 62
7
  6
CONTINUOUS
370
-3
390
F
  0
LAYER
  5
20B
100
AcDbSymbolTableRecord
100
AcDbLayerTableRecord
  2
NOTE
 70
0
 62
7
  6
CONTINUOUS
370
-3
390
F
  0
LAYER
  5
20C
100
AcDbSymbolTableRecord
100
AcDbLayerTableRecord
  2
PIANI
 70
0
 62
7
  6
CONTINUOUS
370
-3
390
F
  0
LAYER
  5
20D
100
AcDbSymbolTableRecord
100
AcDbLayerTableRecord
  2
PIANI_ORIGINE
 70
0
 62
7
  6
CONTINUOUS
370
-3
390
F
  0
LAYER
  5
20E
100
AcDbSymbolTableRecord
100
AcDbLayerTableRecord
  2
PUNTI
 70
0
 62
7
  6
CONTINUOUS
370
-3
390
F
  0
LAYER
  5
20F
100
AcDbSymbolTableRecord
100
AcDbLayerTableRecord
  2
RACCORDO
 70
0
 62
7
  6
CONTINUOUS
370
-3
390
F
  0
LAYER
  5
210
100
AcDbSymbolTableRecord
100
AcDbLayerTableRecord
  2
SIMBOLI
 70
0
 62
7
  6
CONTINUOUS
370
-3
390
F
  0
LAYER
  5
211
100
AcDbSymbolTableRecord
100
AcDbLayerTableRecord
  2
SMUSSO
 70
0
 62
7
  6
CONTINUOUS
370
-3
390
F
  0
LAYER
  5
212
100
AcDbSymbolTableRecord
100
AcDbLayerTableRecord
  2
SNAPLINE
 70
0
 62
7
  6
CONTINUOUS
370
-3
390
F
  0
LAYER
  5
213
100
AcDbSymbolTableRecord
100
AcDbLayerTableRecord
  2
SUPERFICI
 70
0
 62
7
  6
CONTINUOUS
370
-3
390
F
  0
LAYER
  5
214
100
AcDbSymbolTableRecord
100
AcDbLayerTableRecord
  2
TRASH
 70
0
 62
7
  6
CONTINUOUS
370
-3
390
F
  0
LAYER
  5
215
100
AcDbSymbolTableRecord
100
AcDbLayerTableRecord
  2
XSEC_DATUMS
 70
0
 62
7
  6
CONTINUOUS
370
-3
390
F
  0
LAYER
  5
216
100
AcDbSymbolTableRecord
100
AcDbLayerTableRecord
  2
___SHELL
 70
0
 62
7
  6
CONTINUOUS
370
-3
390
F
  0
ENDTAB
  0
TABLE
  2
STYLE
  5
3
100
AcDbSymbolTable
 70
1
  0
STYLE
  5
11
100
AcDbSymbolTableRecord
100
AcDbTextStyleTableRecord
  2
STANDARD
 70
0
 40
0.0
 41
0.8
 50
0.0
 71
0
 42
0.2
  3
txt
  4

  0
STYLE
  5
217
100
AcDbSymbolTableRecord
100
AcDbTextStyleTableRecord
  2
TEXTSTYLE_1
 70
0
 40
0.0
 41
0.8
 50
0.0
 71
0
 42
0.2
  3
gdt
  4

  0
ENDTAB
  0
TABLE
  2
VIEW
  5
6
100
AcDbSymbolTable
 70
0
  0
ENDTAB
  0
TABLE
  2
UCS
  5
7
100
AcDbSymbolTable
 70
0
  0
ENDTAB
  0
TABLE
  2
APPID
  5
9
100
AcDbSymbolTable
 70
1
  0
APPID
  5
218
100
AcDbSymbolTableRecord
100
AcDbRegAppTableRecord
  2
ACAD
 70
0
  0
ENDTAB
  0
TABLE
  2
BLOCK_RECORD
  5
1
100
AcDbSymbolTable
 70
0
  0
BLOCK_RECORD
  5
219
100
AcDbSymbolTableRecord
100
AcDbBlockTableRecord
  2
*Model_Space
  0
BLOCK_RECORD
  5
21A
100
AcDbSymbolTableRecord
100
AcDbBlockTableRecord
  2
*Paper_Space
  0
BLOCK_RECORD
  5
21B
100
AcDbSymbolTableRecord
100
AcDbBlockTableRecord
  2
_FILLED
  0
ENDTAB
  0
TABLE
  2
DIMSTYLE
  5
A
100
AcDbSymbolTable
 70
1
100
AcDbDimStyleTable
 71
0
  0
DIMSTYLE
105
21C
100
AcDbSymbolTableRecord
100
AcDbDimStyleTableRecord
  2
STANDARD
 70
0
  3

  4

 40
1.0
 41
3.0
 42
0.5
 43
0.38
 44
1.5
 45
0.0
 46
0.0
 47
0.01
 48
0.01
140
3.0
141
0.09
142
0.0
143
25.4
144
1.0
145
0.0
146
1.0
147
0.625
 71
1.0
 72
0.0
 73
0
 74
0
 75
0
 76
0
 77
1
 78
8
 79
2
170
0
171
1
172
0
173
0
174
0
175
0
176
0
177
0
178
0
270
2
179
2
271
2
272
2
273
2
274
2
275
0
280
0
281
0
282
0
283
1
284
8
285
0
286
0
287
3
288
0
340
11
278
44
341
21B
342
21B
343
21B
344
21B
  0
ENDTAB
  0
ENDSEC
  0
SECTION
  2
BLOCKS
  0
BLOCK
  5
20
100
AcDbEntity
  8
0
100
AcDbBlockBegin
  2
*Model_Space
 70
0
 10
0.0
 20
0.0
 30
0.0
  3
*Model_Space
  1

  0
ENDBLK
  5
21
100
AcDbEntity
  8
0
100
AcDbBlockEnd
  0
BLOCK
  5
1C
100
AcDbEntity
  8
0
100
AcDbBlockBegin
  2
*Paper_Space
 70
0
 10
0.0
 20
0.0
 30
0.0
  3
*Paper_Space
  1

  0
ENDBLK
  5
1D
100
AcDbEntity
  8
0
100
AcDbBlockEnd
  0
BLOCK
  5
21D
100
AcDbEntity
  8
0
100
AcDbBlockBegin
  2
_FILLED
 70
64
 10
0.0
 20
0.0
  3
_FILLED
  1

  0
SOLID
  5
21E
100
AcDbEntity
  8
0
  6
BYBLOCK
 62
0
100
AcDbTrace
 10
0.0
 20
0.0
 11
-1.0
 21
0.3166666667
 12
-1.0
 22
-0.3166666667
 13
-1.0
 23
-0.3166666667
  0
ENDBLK
  5
21F
100
AcDbEntity
  8
0
  6
BYBLOCK
 62
0
100
AcDbBlockEnd
  0
ENDSEC
  0
SECTION
  2
ENTITIES
  0
LWPOLYLINE
  5
220
100
AcDbEntity
  8
0
100
AcDbPolyline
 62
250
  6
CONTINUOUS
 90
16
 70
0
 10
-40.7223839874
 20
41.0861092588
 10
-40.7616311224
 20
41.0746267876
 10
-40.8005756254
 20
41.0598914537
 10
-40.8389169669
 20
41.0420169098
 10
-40.8763593325
 20
41.021140995
 10
-40.9126136941
 20
40.9974247864
 10
-40.9474000653
 20
40.9710514087
 10
-40.9804498472
 20
40.9422245267
 10
-41.0115081677
 20
40.9111664734
 10
-41.0403355946
 20
40.8781166222
 10
-41.0667098397
 20
40.843329635
 10
-41.0904270147
 20
40.8070742335
 10
-41.1113036318
 20
40.7696309221
 10
-41.1291785672
 20
40.7312889463
 10
-41.1439141231
 20
40.6923439756
 10
-41.1553966893
 20
40.6530965569
  0
LWPOLYLINE
  5
221
100
AcDbEntity
  8
0
100
AcDbPolyline
 62
250
  6
CONTINUOUS
 90
16
 70
0
 10
-41.1553966893
 20
-40.7281012896
 10
-41.1439142182
 20
-40.7673484246
 10
-41.1291788842
 20
-40.8062929276
 10
-41.1113043403
 20
-40.8446342691
 10
-41.0904284255
 20
-40.8820766347
 10
-41.0667122169
 20
-40.9183309963
 10
-41.0403388392
 20
-40.9531173675
 10
-41.0115119572
 20
-40.9861671494
 10
-40.9804539039
 20
-41.0172254699
 10
-40.9474040527
 20
-41.0460528968
 10
-40.9126170655
 20
-41.0724271419
 10
-40.8763616641
 20
-41.0961443169
 10
-40.8389183526
 20
-41.117020934
 10
-40.8005763768
 20
-41.1348958694
 10
-40.7616314061
 20
-41.1496314253
 10
-40.7223839874
 20
-41.1611139915
  0
LINE
  5
222
100
AcDbEntity
  8
0
100
AcDbLine
 62
7
  6
CONTINUOUS
 10
-43.3330017605
 20
-3.0584789936
 11
-43.3330017605
 21
2.9834742609
  0
LINE
  5
223
100
AcDbEntity
  8
0
100
AcDbLine
 62
7
  6
CONTINUOUS
 10
-43.0317850642
 20
-42.6044896645
 11
-43.0317850642
 21
42.5294849318
  0
LINE
  5
224
100
AcDbEntity
  8
0
100
AcDbLine
 62
250
  6
CONTINUOUS
 10
-41.1553966893
 20
40.6530965569
 11
-41.1553966893
 21
-40.7281012896
  0
LINE
  5
225
100
AcDbEntity
  8
0
100
AcDbLine
 62
250
  6
CONTINUOUS
 10
-40.7223839874
 20
-41.1611139915
 11
-40.7223839874
 21
41.0861092588
  0
LINE
  5
226
100
AcDbEntity
  8
0
100
AcDbLine
 62
7
  6
CONTINUOUS
 10
-27.4705984913
 20
30.9368449667
 11
-31.0061323973
 21
27.4013110608
  0
LINE
  5
227
100
AcDbEntity
  8
0
100
AcDbLine
 62
7
  6
CONTINUOUS
 10
42.535202234
 20
-43.0375023664
 11
-42.5987723623
 21
-43.0375023664
  0
LINE
  5
228
100
AcDbEntity
  8
0
100
AcDbLine
 62
250
  6
CONTINUOUS
 10
-40.7223839874
 20
-41.1611139915
 11
40.6588138591
 21
-41.1611139915
  0
LINE
  5
229
100
AcDbEntity
  8
0
100
AcDbLine
 62
250
  6
CONTINUOUS
 10
41.091826561
 20
-40.7281012896
 11
-41.1553966893
 21
-40.7281012896
  0
LINE
  5
22A
100
AcDbEntity
  8
0
100
AcDbLine
 62
7
  6
CONTINUOUS
 10
-31.0061323973
 20
-27.4763157935
 11
-27.4705984913
 21
-31.0118496995
  0
LINE
  5
22B
100
AcDbEntity
  8
0
100
AcDbLine
 62
7
  6
CONTINUOUS
 10
-34.0317850642
 20
20.4624976336
 11
-34.0056024668
 21
20.488680231
  0
LINE
  5
22C
100
AcDbEntity
  8
0
100
AcDbLine
 62
7
  6
CONTINUOUS
 10
-34.0369301938
 20
19.957352504
 11
-34.0722833472
 21
19.9219993506
  0
LINE
  5
22D
100
AcDbEntity
  8
0
100
AcDbLine
 62
7
  6
CONTINUOUS
 10
-28.592971637
 20
24.9881503005
 11
-25.0574377311
 21
28.5236842065
  0
LINE
  5
22E
100
AcDbEntity
  8
0
100
AcDbLine
 62
7
  6
CONTINUOUS
 10
-34.0317850642
 20
-20.5375023664
 11
-34.0056024668
 21
-20.5636849637
  0
LINE
  5
22F
100
AcDbEntity
  8
0
100
AcDbLine
 62
7
  6
CONTINUOUS
 10
-34.0369301938
 20
-20.0323572367
 11
-34.0722833472
 21
-19.9970040833
  0
LINE
  5
230
100
AcDbEntity
  8
0
100
AcDbLine
 62
7
  6
CONTINUOUS
 10
-25.0574377311
 20
-28.5986889392
 11
-28.592971637
 21
-25.0631550333
  0
LINE
  5
231
100
AcDbEntity
  8
0
100
AcDbLine
 62
7
  6
CONTINUOUS
 10
-36.0579676615
 20
20.488680231
 11
-36.0579676615
 21
13.4363150363
  0
LINE
  5
232
100
AcDbEntity
  8
0
100
AcDbLine
 62
7
  6
CONTINUOUS
 10
-36.0579676615
 20
-20.5636849637
 11
-36.0579676615
 21
-13.511319769
  0
LINE
  5
233
100
AcDbEntity
  8
0
100
AcDbLine
 62
7
  6
CONTINUOUS
 10
-36.0317850642
 20
20.4624976336
 11
-36.0317850642
 21
13.4624976336
  0
LINE
  5
234
100
AcDbEntity
  8
0
100
AcDbLine
 62
7
  6
CONTINUOUS
 10
-36.0317850642
 20
-20.5375023664
 11
-36.0317850642
 21
-13.5375023664
  0
LINE
  5
235
100
AcDbEntity
  8
0
100
AcDbLine
 62
7
  6
CONTINUOUS
 10
-35.1317850642
 20
-14.4100783261
 11
-35.1317850642
 21
-19.6649264066
  0
LINE
  5
236
100
AcDbEntity
  8
0
100
AcDbLine
 62
7
  6
CONTINUOUS
 10
-35.1317850642
 20
14.3350735934
 11
-35.1317850642
 21
19.5899216739
  0
LINE
  5
237
100
AcDbEntity
  8
0
100
AcDbLine
 62
7
  6
CONTINUOUS
 10
-34.0722833472
 20
-14.0780006494
 11
-34.0722833472
 21
-19.9970040833
  0
LINE
  5
238
100
AcDbEntity
  8
0
100
AcDbLine
 62
7
  6
CONTINUOUS
 10
-34.0722833472
 20
14.0029959167
 11
-34.0722833472
 21
19.9219993506
  0
LINE
  5
239
100
AcDbEntity
  8
0
100
AcDbLine
 62
7
  6
CONTINUOUS
 10
-34.0317850642
 20
-13.5375023664
 11
-34.0317850642
 21
-13.7426931874
  0
LINE
  5
23A
100
AcDbEntity
  8
0
100
AcDbLine
 62
7
  6
CONTINUOUS
 10
-34.0317850642
 20
-20.3323115453
 11
-34.0317850642
 21
-20.5375023664
  0
LINE
  5
23B
100
AcDbEntity
  8
0
100
AcDbLine
 62
7
  6
CONTINUOUS
 10
-34.0317850642
 20
13.4624976336
 11
-34.0317850642
 21
13.6676884547
  0
LINE
  5
23C
100
AcDbEntity
  8
0
100
AcDbLine
 62
7
  6
CONTINUOUS
 10
-34.0317850642
 20
20.2573068126
 11
-34.0317850642
 21
20.4624976336
  0
LINE
  5
23D
100
AcDbEntity
  8
0
100
AcDbLine
 62
7
  6
CONTINUOUS
 10
-34.0056024668
 20
-13.511319769
 11
-34.0056024668
 21
-20.5636849637
  0
LINE
  5
23E
100
AcDbEntity
  8
0
100
AcDbLine
 62
7
  6
CONTINUOUS
 10
-34.0056024668
 20
13.4363150363
 11
-34.0056024668
 21
20.488680231
  0
LINE
  5
23F
100
AcDbEntity
  8
0
100
AcDbLine
 62
7
  6
CONTINUOUS
 10
-36.0317850642
 20
13.4624976336
 11
-36.0579676615
 21
13.4363150363
  0
LINE
  5
240
100
AcDbEntity
  8
0
100
AcDbLine
 62
7
  6
CONTINUOUS
 10
-36.0317850642
 20
-13.5375023664
 11
-36.0579676615
 21
-13.511319769
  0
LINE
  5
241
100
AcDbEntity
  8
DRAFT
100
AcDbLine
 62
7
  6
CONTINUOUS
 10
-22.5858957654
 20
18.68491102
 11
-18.7541984505
 21
22.5166083349
  0
LINE
  5
242
100
AcDbEntity
  8
DRAFT
100
AcDbLine
 62
7
  6
CONTINUOUS
 10
-22.559713168
 20
18.674065833
 11
-18.7433532636
 21
22.4904257375
  0
LINE
  5
243
100
AcDbEntity
  8
DRAFT
100
AcDbLine
 62
7
  6
CONTINUOUS
 10
-18.7541984505
 20
-22.5916130676
 11
-22.5858957654
 21
-18.7599157527
  0
LINE
  5
244
100
AcDbEntity
  8
DRAFT
100
AcDbLine
 62
7
  6
CONTINUOUS
 10
-18.7433532636
 20
-22.5654304702
 11
-22.559713168
 21
-18.7490705658
  0
LINE
  5
245
100
AcDbEntity
  8
DRAFT
100
AcDbLine
 62
7
  6
CONTINUOUS
 10
-13.7817850642
 20
23.9624976336
 11
-13.7538569603
 21
23.9904257375
  0
LINE
  5
246
100
AcDbEntity
  8
DRAFT
100
AcDbLine
 62
7
  6
CONTINUOUS
 10
-11.7817850642
 20
23.9624976336
 11
-11.692764233
 21
24.0515184648
  0
LINE
  5
247
100
AcDbEntity
  8
DRAFT
100
AcDbLine
 62
7
  6
CONTINUOUS
 10
-11.7817850642
 20
22.4624976336
 11
-11.692764233
 21
22.5515184648
  0
LINE
  5
248
100
AcDbEntity
  8
DRAFT
100
AcDbLine
 62
7
  6
CONTINUOUS
 10
15.7997874986
 20
-24.1265231975
 11
11.6291941047
 21
-24.1265231975
  0
LINE
  5
249
100
AcDbEntity
  8
DRAFT
100
AcDbLine
 62
7
  6
CONTINUOUS
 10
10.807235767
 20
-24.1265231975
 11
6.6366423731
 21
-24.1265231975
  0
LINE
  5
24A
100
AcDbEntity
  8
DRAFT
100
AcDbLine
 62
7
  6
CONTINUOUS
 10
-6.7002125014
 20
-24.1265231975
 11
-10.8708058953
 21
-24.1265231975
  0
LINE
  5
24B
100
AcDbEntity
  8
DRAFT
100
AcDbLine
 62
7
  6
CONTINUOUS
 10
-11.692764233
 20
-24.1265231975
 11
-15.8633576269
 21
-24.1265231975
  0
LINE
  5
24C
100
AcDbEntity
  8
DRAFT
100
AcDbLine
 62
7
  6
CONTINUOUS
 10
15.7438063281
 20
-24.0654304702
 11
13.690286832
 21
-24.0654304702
  0
LINE
  5
24D
100
AcDbEntity
  8
DRAFT
100
AcDbLine
 62
7
  6
CONTINUOUS
 10
8.7461430397
 20
-24.0654304702
 11
6.6926235436
 21
-24.0654304702
  0
LINE
  5
24E
100
AcDbEntity
  8
DRAFT
100
AcDbLine
 62
7
  6
CONTINUOUS
 10
-6.7561936719
 20
-24.0654304702
 11
-8.809713168
 21
-24.0654304702
  0
LINE
  5
24F
100
AcDbEntity
  8
DRAFT
100
AcDbLine
 62
7
  6
CONTINUOUS
 10
-13.7538569603
 20
-24.0654304702
 11
-15.8073764564
 21
-24.0654304702
  0
LINE
  5
250
100
AcDbEntity
  8
DRAFT
100
AcDbLine
 62
7
  6
CONTINUOUS
 10
13.7182149358
 20
-24.0375023664
 11
11.7182149358
 21
-24.0375023664
  0
LINE
  5
251
100
AcDbEntity
  8
DRAFT
100
AcDbLine
 62
7
  6
CONTINUOUS
 10
10.7182149358
 20
-24.0375023664
 11
8.7182149358
 21
-24.0375023664
  0
LINE
  5
252
100
AcDbEntity
  8
DRAFT
100
AcDbLine
 62
7
  6
CONTINUOUS
 10
-8.7817850642
 20
-24.0375023664
 11
-10.7817850642
 21
-24.0375023664
  0
LINE
  5
253
100
AcDbEntity
  8
DRAFT
100
AcDbLine
 62
7
  6
CONTINUOUS
 10
-11.7817850642
 20
-24.0375023664
 11
-13.7817850642
 21
-24.0375023664
  0
LINE
  5
254
100
AcDbEntity
  8
DRAFT
100
AcDbLine
 62
7
  6
CONTINUOUS
 10
-13.7538569603
 20
-24.0654304702
 11
-13.7817850642
 21
-24.0375023664
  0
LINE
  5
255
100
AcDbEntity
  8
DRAFT
100
AcDbLine
 62
7
  6
CONTINUOUS
 10
-11.692764233
 20
-24.1265231975
 11
-11.7817850642
 21
-24.0375023664
  0
LINE
  5
256
100
AcDbEntity
  8
DRAFT
100
AcDbLine
 62
7
  6
CONTINUOUS
 10
-11.7817850642
 20
-22.5375023664
 11
-11.692764233
 21
-22.6265231975
  0
LINE
  5
257
100
AcDbEntity
  8
DRAFT
100
AcDbLine
 62
7
  6
CONTINUOUS
 10
-22.6208058953
 20
-22.6265231975
 11
-22.6208058953
 21
22.5515184648
  0
LINE
  5
258
100
AcDbEntity
  8
DRAFT
100
AcDbLine
 62
7
  6
CONTINUOUS
 10
-22.5858957654
 20
-22.5916130676
 11
-22.5858957654
 21
-18.7599157527
  0
LINE
  5
259
100
AcDbEntity
  8
DRAFT
100
AcDbLine
 62
7
  6
CONTINUOUS
 10
-22.5858957654
 20
18.68491102
 11
-22.5858957654
 21
22.5166083349
  0
LINE
  5
25A
100
AcDbEntity
  8
DRAFT
100
AcDbLine
 62
7
  6
CONTINUOUS
 10
-22.5317850642
 20
-18.7769986696
 11
-22.5317850642
 21
18.7019939369
  0
LINE
  5
25B
100
AcDbEntity
  8
DRAFT
100
AcDbLine
 62
7
  6
CONTINUOUS
 10
-6.7002125014
 20
24.0515184648
 11
-6.7561936719
 21
23.9904257375
  0
LINE
  5
25C
100
AcDbEntity
  8
DRAFT
100
AcDbLine
 62
7
  6
CONTINUOUS
 10
-6.6505520689
 20
22.4624976336
 11
-6.5689795062
 21
22.5515184648
  0
LINE
  5
25D
100
AcDbEntity
  8
0
100
AcDbLine
 62
7
  6
CONTINUOUS
 10
34.0087132189
 20
-19.9970040833
 11
34.7682149358
 21
-19.9740420228
  0
LINE
  5
25E
100
AcDbEntity
  8
DRAFT
100
AcDbLine
 62
7
  6
CONTINUOUS
 10
-22.6208058953
 20
-22.6265231975
 11
-15.9945906221
 21
-22.6265231975
  0
LINE
  5
25F
100
AcDbEntity
  8
DRAFT
100
AcDbLine
 62
7
  6
CONTINUOUS
 10
-11.692764233
 20
-22.6265231975
 11
-10.8708058953
 21
-22.6265231975
  0
LINE
  5
260
100
AcDbEntity
  8
DRAFT
100
AcDbLine
 62
7
  6
CONTINUOUS
 10
-6.5689795062
 20
-22.6265231975
 11
6.5054093779
 21
-22.6265231975
  0
LINE
  5
261
100
AcDbEntity
  8
DRAFT
100
AcDbLine
 62
7
  6
CONTINUOUS
 10
10.807235767
 20
-22.6265231975
 11
11.6291941047
 21
-22.6265231975
  0
LINE
  5
262
100
AcDbEntity
  8
DRAFT
100
AcDbLine
 62
7
  6
CONTINUOUS
 10
15.9310204938
 20
-22.6265231975
 11
22.557235767
 21
-22.6265231975
  0
LINE
  5
263
100
AcDbEntity
  8
DRAFT
100
AcDbLine
 62
7
  6
CONTINUOUS
 10
22.5223256371
 20
-22.5916130676
 11
18.6906283222
 21
-22.5916130676
  0
LINE
  5
264
100
AcDbEntity
  8
DRAFT
100
AcDbLine
 62
7
  6
CONTINUOUS
 10
-18.7541984505
 20
-22.5916130676
 11
-22.5858957654
 21
-22.5916130676
  0
LINE
  5
265
100
AcDbEntity
  8
DRAFT
100
AcDbLine
 62
7
  6
CONTINUOUS
 10
-18.7608083285
 20
-22.5479754053
 11
-18.4143299992
 21
-22.5479754053
  0
LINE
  5
266
100
AcDbEntity
  8
DRAFT
100
AcDbLine
 62
7
  6
CONTINUOUS
 10
18.6972382002
 20
-22.5479754053
 11
18.3507598709
 21
-22.5479754053
  0
LINE
  5
267
100
AcDbEntity
  8
DRAFT
100
AcDbLine
 62
7
  6
CONTINUOUS
 10
0.9507598709
 20
-22.5479754053
 11
4.0856700008
 21
-22.5479754053
  0
LINE
  5
268
100
AcDbEntity
  8
DRAFT
100
AcDbLine
 62
7
  6
CONTINUOUS
 10
-1.0143299992
 20
-22.5479754053
 11
-4.1492401291
 21
-22.5479754053
  0
LINE
  5
269
100
AcDbEntity
  8
DRAFT
100
AcDbLine
 62
7
  6
CONTINUOUS
 10
18.340286832
 20
-22.5375023664
 11
15.8494479311
 21
-22.5375023664
  0
LINE
  5
26A
100
AcDbEntity
  8
DRAFT
100
AcDbLine
 62
7
  6
CONTINUOUS
 10
13.7182149358
 20
-22.5375023664
 11
8.7182149358
 21
-22.5375023664
  0
LINE
  5
26B
100
AcDbEntity
  8
DRAFT
100
AcDbLine
 62
7
  6
CONTINUOUS
 10
6.5869819406
 20
-22.5375023664
 11
4.0961430397
 21
-22.5375023664
  0
LINE
  5
26C
100
AcDbEntity
  8
DRAFT
100
AcDbLine
 62
7
  6
CONTINUOUS
 10
0.940286832
 20
-22.5375023664
 11
-1.0038569603
 21
-22.5375023664
  0
LINE
  5
26D
100
AcDbEntity
  8
DRAFT
100
AcDbLine
 62
7
  6
CONTINUOUS
 10
-4.159713168
 20
-22.5375023664
 11
-6.6505520689
 21
-22.5375023664
  0
LINE
  5
26E
100
AcDbEntity
  8
DRAFT
100
AcDbLine
 62
7
  6
CONTINUOUS
 10
-8.7817850642
 20
-22.5375023664
 11
-13.7817850642
 21
-22.5375023664
  0
LINE
  5
26F
100
AcDbEntity
  8
DRAFT
100
AcDbLine
 62
7
  6
CONTINUOUS
 10
-15.9130180594
 20
-22.5375023664
 11
-18.4038569603
 21
-22.5375023664
  0
LINE
  5
270
100
AcDbEntity
  8
0
100
AcDbLine
 62
7
  6
CONTINUOUS
 10
33.9420323385
 20
-20.5636849637
 11
35.9943975332
 21
-20.5636849637
  0
LINE
  5
271
100
AcDbEntity
  8
0
100
AcDbLine
 62
7
  6
CONTINUOUS
 10
-34.0056024668
 20
-20.5636849637
 11
-36.0579676615
 21
-20.5636849637
  0
LINE
  5
272
100
AcDbEntity
  8
0
100
AcDbLine
 62
7
  6
CONTINUOUS
 10
33.9682149358
 20
-20.5375023664
 11
35.9682149358
 21
-20.5375023664
  0
LINE
  5
273
100
AcDbEntity
  8
0
100
AcDbLine
 62
7
  6
CONTINUOUS
 10
-34.0317850642
 20
-20.5375023664
 11
-36.0317850642
 21
-20.5375023664
  0
LINE
  5
274
100
AcDbEntity
  8
0
100
AcDbLine
 62
7
  6
CONTINUOUS
 10
-34.0722833472
 20
-19.9970040833
 11
-34.8317850642
 21
-19.9740420228
  0
LINE
  5
275
100
AcDbEntity
  8
DRAFT
100
AcDbLine
 62
7
  6
CONTINUOUS
 10
-6.7002125014
 20
-24.1265231975
 11
-6.7561936719
 21
-24.0654304702
  0
LINE
  5
276
100
AcDbEntity
  8
DRAFT
100
AcDbLine
 62
7
  6
CONTINUOUS
 10
-6.6505520689
 20
-22.5375023664
 11
-6.5689795062
 21
-22.6265231975
  0
LINE
  5
277
100
AcDbEntity
  8
DRAFT
100
AcDbLine
 62
7
  6
CONTINUOUS
 10
-15.9945906221
 20
-22.6265231975
 11
-15.8633576269
 21
-24.1265231975
  0
LINE
  5
278
100
AcDbEntity
  8
0
100
AcDbLine
 62
7
  6
CONTINUOUS
 10
-15.9130180594
 20
-22.5375023664
 11
-15.7795546274
 21
-24.0629963756
  0
LINE
  5
279
100
AcDbEntity
  8
DRAFT
100
AcDbLine
 62
7
  6
CONTINUOUS
 10
-15.9945906221
 20
22.5515184648
 11
-15.8633576269
 21
24.0515184648
  0
LINE
  5
27A
100
AcDbEntity
  8
0
100
AcDbLine
 62
7
  6
CONTINUOUS
 10
-15.9130180594
 20
22.4624976336
 11
-15.7795546274
 21
23.9879916429
  0
LINE
  5
27B
100
AcDbEntity
  8
DRAFT
100
AcDbLine
 62
7
  6
CONTINUOUS
 10
-4.159713168
 20
22.4624976336
 11
-4.1492401291
 21
22.4729706726
  0
LINE
  5
27C
100
AcDbEntity
  8
0
100
AcDbLine
 62
7
  6
CONTINUOUS
 10
-43.0317850642
 20
3.3624976336
 11
-43.2854263884
 21
3.2830631214
  0
LINE
  5
27D
100
AcDbEntity
  8
0
100
AcDbLine
 62
7
  6
CONTINUOUS
 10
-43.0317850642
 20
-3.4375023664
 11
-43.2854263884
 21
-3.3580678541
  0
LINE
  5
27E
100
AcDbEntity
  8
DRAFT
100
AcDbLine
 62
7
  6
CONTINUOUS
 10
-4.159713168
 20
-22.5375023664
 11
-4.1492401291
 21
-22.5479754053
  0
LINE
  5
27F
100
AcDbEntity
  8
DRAFT
100
AcDbLine
 62
7
  6
CONTINUOUS
 10
-13.7817850642
 20
-24.0654304702
 11
-13.7817850642
 21
-22.5375023664
  0
LINE
  5
280
100
AcDbEntity
  8
DRAFT
100
AcDbLine
 62
7
  6
CONTINUOUS
 10
-13.7817850642
 20
22.4624976336
 11
-13.7817850642
 21
23.9904257375
  0
LINE
  5
281
100
AcDbEntity
  8
DRAFT
100
AcDbLine
 62
7
  6
CONTINUOUS
 10
-11.7817850642
 20
-24.0375023664
 11
-11.7817850642
 21
-22.5375023664
  0
LINE
  5
282
100
AcDbEntity
  8
DRAFT
100
AcDbLine
 62
7
  6
CONTINUOUS
 10
-11.7817850642
 20
22.4624976336
 11
-11.7817850642
 21
23.9624976336
  0
LINE
  5
283
100
AcDbEntity
  8
DRAFT
100
AcDbLine
 62
7
  6
CONTINUOUS
 10
-11.692764233
 20
-22.6265231975
 11
-11.692764233
 21
-24.1265231975
  0
LINE
  5
284
100
AcDbEntity
  8
DRAFT
100
AcDbLine
 62
7
  6
CONTINUOUS
 10
-11.692764233
 20
22.5515184648
 11
-11.692764233
 21
24.0515184648
  0
LINE
  5
285
100
AcDbEntity
  8
DRAFT
100
AcDbLine
 62
7
  6
CONTINUOUS
 10
0.940286832
 20
22.4624976336
 11
0.9507598709
 21
22.4729706726
  0
LINE
  5
286
100
AcDbEntity
  8
0
100
AcDbLine
 62
7
  6
CONTINUOUS
 10
-34.0317850642
 20
-13.5375023664
 11
-34.0056024668
 21
-13.511319769
  0
LINE
  5
287
100
AcDbEntity
  8
0
100
AcDbLine
 62
7
  6
CONTINUOUS
 10
-34.0369301938
 20
-14.042647496
 11
-34.0722833472
 21
-14.0780006494
  0
LINE
  5
288
100
AcDbEntity
  8
0
100
AcDbLine
 62
7
  6
CONTINUOUS
 10
-34.0722833472
 20
-14.0780006494
 11
-34.8317850642
 21
-14.1009627099
  0
LINE
  5
289
100
AcDbEntity
  8
0
100
AcDbLine
 62
7
  6
CONTINUOUS
 10
-36.0317850642
 20
-13.5375023664
 11
-34.0317850642
 21
-13.5375023664
  0
LINE
  5
28A
100
AcDbEntity
  8
0
100
AcDbLine
 62
7
  6
CONTINUOUS
 10
35.9682149358
 20
-13.5375023664
 11
33.9682149358
 21
-13.5375023664
  0
LINE
  5
28B
100
AcDbEntity
  8
0
100
AcDbLine
 62
7
  6
CONTINUOUS
 10
-36.0579676615
 20
-13.511319769
 11
-34.0056024668
 21
-13.511319769
  0
LINE
  5
28C
100
AcDbEntity
  8
0
100
AcDbLine
 62
7
  6
CONTINUOUS
 10
35.9943975332
 20
-13.511319769
 11
33.9420323385
 21
-13.511319769
  0
LINE
  5
28D
100
AcDbEntity
  8
0
100
AcDbLine
 62
7
  6
CONTINUOUS
 10
34.0087132189
 20
-14.0780006494
 11
34.7682149358
 21
-14.1009627099
  0
LINE
  5
28E
100
AcDbEntity
  8
DRAFT
100
AcDbLine
 62
7
  6
CONTINUOUS
 10
0.940286832
 20
-22.5375023664
 11
0.9507598709
 21
-22.5479754053
  0
LINE
  5
28F
100
AcDbEntity
  8
0
100
AcDbLine
 62
7
  6
CONTINUOUS
 10
-34.0317850642
 20
13.4624976336
 11
-34.0056024668
 21
13.4363150363
  0
LINE
  5
290
100
AcDbEntity
  8
0
100
AcDbLine
 62
7
  6
CONTINUOUS
 10
-34.0369301938
 20
13.9676427633
 11
-34.0722833472
 21
14.0029959167
  0
LINE
  5
291
100
AcDbEntity
  8
DRAFT
100
AcDbLine
 62
7
  6
CONTINUOUS
 10
-10.8708058953
 20
-22.6265231975
 11
-10.8708058953
 21
-24.1265231975
  0
LINE
  5
292
100
AcDbEntity
  8
DRAFT
100
AcDbLine
 62
7
  6
CONTINUOUS
 10
-10.8708058953
 20
22.5515184648
 11
-10.8708058953
 21
24.0515184648
  0
LINE
  5
293
100
AcDbEntity
  8
DRAFT
100
AcDbLine
 62
7
  6
CONTINUOUS
 10
-10.7817850642
 20
-24.0375023664
 11
-10.7817850642
 21
-22.5375023664
  0
LINE
  5
294
100
AcDbEntity
  8
DRAFT
100
AcDbLine
 62
7
  6
CONTINUOUS
 10
-10.7817850642
 20
22.4624976336
 11
-10.7817850642
 21
23.9624976336
  0
LINE
  5
295
100
AcDbEntity
  8
DRAFT
100
AcDbLine
 62
7
  6
CONTINUOUS
 10
-8.7817850642
 20
-24.0654304702
 11
-8.7817850642
 21
-22.5375023664
  0
LINE
  5
296
100
AcDbEntity
  8
DRAFT
100
AcDbLine
 62
7
  6
CONTINUOUS
 10
-8.7817850642
 20
22.4624976336
 11
-8.7817850642
 21
23.9904257375
  0
LINE
  5
297
100
AcDbEntity
  8
DRAFT
100
AcDbLine
 62
7
  6
CONTINUOUS
 10
-18.7433532636
 20
-22.5654304702
 11
-18.7541984505
 21
-22.5916130676
  0
LINE
  5
298
100
AcDbEntity
  8
0
100
AcDbLine
 62
7
  6
CONTINUOUS
 10
-36.0317850642
 20
-20.5375023664
 11
-36.0579676615
 21
-20.5636849637
  0
LINE
  5
299
100
AcDbEntity
  8
DRAFT
100
AcDbLine
 62
7
  6
CONTINUOUS
 10
8.7182149358
 20
23.9624976336
 11
8.7461430397
 21
23.9904257375
  0
LINE
  5
29A
100
AcDbEntity
  8
DRAFT
100
AcDbLine
 62
7
  6
CONTINUOUS
 10
10.7182149358
 20
23.9624976336
 11
10.807235767
 21
24.0515184648
  0
LINE
  5
29B
100
AcDbEntity
  8
DRAFT
100
AcDbLine
 62
7
  6
CONTINUOUS
 10
10.7182149358
 20
22.4624976336
 11
10.807235767
 21
22.5515184648
  0
LINE
  5
29C
100
AcDbEntity
  8
DRAFT
100
AcDbLine
 62
7
  6
CONTINUOUS
 10
22.4961430397
 20
18.674065833
 11
22.5223256371
 21
18.68491102
  0
LINE
  5
29D
100
AcDbEntity
  8
DRAFT
100
AcDbLine
 62
7
  6
CONTINUOUS
 10
22.4961430397
 20
-18.7490705658
 11
22.5223256371
 21
-18.7599157527
  0
LINE
  5
29E
100
AcDbEntity
  8
0
100
AcDbLine
 62
7
  6
CONTINUOUS
 10
-36.0317850642
 20
20.4624976336
 11
-36.0579676615
 21
20.488680231
  0
LINE
  5
29F
100
AcDbEntity
  8
DRAFT
100
AcDbLine
 62
7
  6
CONTINUOUS
 10
8.7461430397
 20
-24.0654304702
 11
8.7182149358
 21
-24.0375023664
  0
LINE
  5
2A0
100
AcDbEntity
  8
DRAFT
100
AcDbLine
 62
7
  6
CONTINUOUS
 10
10.807235767
 20
-24.1265231975
 11
10.7182149358
 21
-24.0375023664
  0
LINE
  5
2A1
100
AcDbEntity
  8
DRAFT
100
AcDbLine
 62
7
  6
CONTINUOUS
 10
10.7182149358
 20
-22.5375023664
 11
10.807235767
 21
-22.6265231975
  0
LINE
  5
2A2
100
AcDbEntity
  8
DRAFT
100
AcDbLine
 62
7
  6
CONTINUOUS
 10
-18.7433532636
 20
22.4904257375
 11
-18.7541984505
 21
22.5166083349
  0
LINE
  5
2A3
100
AcDbEntity
  8
0
100
AcDbLine
 62
7
  6
CONTINUOUS
 10
-6.6505520689
 20
22.4624976336
 11
-6.7840155009
 21
23.9879916429
  0
LINE
  5
2A4
100
AcDbEntity
  8
DRAFT
100
AcDbLine
 62
7
  6
CONTINUOUS
 10
-6.5689795062
 20
22.5515184648
 11
-6.7002125014
 21
24.0515184648
  0
LINE
  5
2A5
100
AcDbEntity
  8
0
100
AcDbLine
 62
7
  6
CONTINUOUS
 10
-6.6505520689
 20
-22.5375023664
 11
-6.7840155009
 21
-24.0629963756
  0
LINE
  5
2A6
100
AcDbEntity
  8
DRAFT
100
AcDbLine
 62
7
  6
CONTINUOUS
 10
-6.5689795062
 20
-22.6265231975
 11
-6.7002125014
 21
-24.1265231975
  0
LINE
  5
2A7
100
AcDbEntity
  8
DRAFT
100
AcDbLine
 62
7
  6
CONTINUOUS
 10
15.7997874986
 20
24.0515184648
 11
15.7438063281
 21
23.9904257375
  0
LINE
  5
2A8
100
AcDbEntity
  8
DRAFT
100
AcDbLine
 62
7
  6
CONTINUOUS
 10
15.7997874986
 20
-24.1265231975
 11
15.7438063281
 21
-24.0654304702
  0
LINE
  5
2A9
100
AcDbEntity
  8
DRAFT
100
AcDbLine
 62
7
  6
CONTINUOUS
 10
15.8494479311
 20
22.4624976336
 11
15.9310204938
 21
22.5515184648
  0
LINE
  5
2AA
100
AcDbEntity
  8
DRAFT
100
AcDbLine
 62
7
  6
CONTINUOUS
 10
18.340286832
 20
22.4624976336
 11
18.3507598709
 21
22.4729706726
  0
LINE
  5
2AB
100
AcDbEntity
  8
0
100
AcDbLine
 62
250
  6
CONTINUOUS
 10
-41.1553966893
 20
-40.7281012896
 11
-43.0317850642
 21
-42.6044896645
  0
LINE
  5
2AC
100
AcDbEntity
  8
0
100
AcDbLine
 62
250
  6
CONTINUOUS
 10
40.6588138591
 20
41.0861092588
 11
42.535202234
 21
42.9624976336
  0
LINE
  5
2AD
100
AcDbEntity
  8
DRAFT
100
AcDbLine
 62
7
  6
CONTINUOUS
 10
-22.5858957654
 20
-22.5916130676
 11
-22.6208058953
 21
-22.6265231975
  0
LINE
  5
2AE
100
AcDbEntity
  8
DRAFT
100
AcDbLine
 62
7
  6
CONTINUOUS
 10
22.5223256371
 20
22.5166083349
 11
22.557235767
 21
22.5515184648
  0
LINE
  5
2AF
100
AcDbEntity
  8
0
100
AcDbLine
 62
250
  6
CONTINUOUS
 10
-40.7223839874
 20
-41.1611139915
 11
-42.5987723623
 21
-43.0375023664
  0
LINE
  5
2B0
100
AcDbEntity
  8
0
100
AcDbLine
 62
250
  6
CONTINUOUS
 10
41.091826561
 20
40.6530965569
 11
42.9682149358
 21
42.5294849318
  0
LINE
  5
2B1
100
AcDbEntity
  8
DRAFT
100
AcDbLine
 62
7
  6
CONTINUOUS
 10
18.340286832
 20
-22.5375023664
 11
18.3507598709
 21
-22.5479754053
  0
LINE
  5
2B2
100
AcDbEntity
  8
0
100
AcDbLine
 62
250
  6
CONTINUOUS
 10
40.6588138591
 20
-41.1611139915
 11
42.535202234
 21
-43.0375023664
  0
LINE
  5
2B3
100
AcDbEntity
  8
0
100
AcDbLine
 62
250
  6
CONTINUOUS
 10
-41.1553966893
 20
40.6530965569
 11
-43.0317850642
 21
42.5294849318
  0
LINE
  5
2B4
100
AcDbEntity
  8
DRAFT
100
AcDbLine
 62
7
  6
CONTINUOUS
 10
22.5223256371
 20
-22.5916130676
 11
22.557235767
 21
-22.6265231975
  0
LINE
  5
2B5
100
AcDbEntity
  8
DRAFT
100
AcDbLine
 62
7
  6
CONTINUOUS
 10
-22.5858957654
 20
22.5166083349
 11
-22.6208058953
 21
22.5515184648
  0
LINE
  5
2B6
100
AcDbEntity
  8
0
100
AcDbLine
 62
250
  6
CONTINUOUS
 10
41.091826561
 20
-40.7281012896
 11
42.9682149358
 21
-42.6044896645
  0
LINE
  5
2B7
100
AcDbEntity
  8
0
100
AcDbLine
 62
250
  6
CONTINUOUS
 10
-40.7223839874
 20
41.0861092588
 11
-42.5987723623
 21
42.9624976336
  0
LINE
  5
2B8
100
AcDbEntity
  8
DRAFT
100
AcDbLine
 62
7
  6
CONTINUOUS
 10
15.8494479311
 20
-22.5375023664
 11
15.9310204938
 21
-22.6265231975
  0
LINE
  5
2B9
100
AcDbEntity
  8
DRAFT
100
AcDbLine
 62
7
  6
CONTINUOUS
 10
6.5054093779
 20
-22.6265231975
 11
6.6366423731
 21
-24.1265231975
  0
LINE
  5
2BA
100
AcDbEntity
  8
DRAFT
100
AcDbLine
 62
7
  6
CONTINUOUS
 10
6.5054093779
 20
22.5515184648
 11
6.6366423731
 21
24.0515184648
  0
LINE
  5
2BB
100
AcDbEntity
  8
DRAFT
100
AcDbLine
 62
7
  6
CONTINUOUS
 10
-15.9130180594
 20
-22.5375023664
 11
-15.9945906221
 21
-22.6265231975
  0
LINE
  5
2BC
100
AcDbEntity
  8
DRAFT
100
AcDbLine
 62
7
  6
CONTINUOUS
 10
-15.8633576269
 20
-24.1265231975
 11
-15.8073764564
 21
-24.0654304702
  0
LINE
  5
2BD
100
AcDbEntity
  8
DRAFT
100
AcDbLine
 62
7
  6
CONTINUOUS
 10
-18.4038569603
 20
-22.5375023664
 11
-18.4143299992
 21
-22.5479754053
  0
LINE
  5
2BE
100
AcDbEntity
  8
DRAFT
100
AcDbLine
 62
7
  6
CONTINUOUS
 10
-18.4038569603
 20
22.4624976336
 11
-18.4143299992
 21
22.4729706726
  0
LINE
  5
2BF
100
AcDbEntity
  8
DRAFT
100
AcDbLine
 62
7
  6
CONTINUOUS
 10
-15.9130180594
 20
22.4624976336
 11
-15.9945906221
 21
22.5515184648
  0
LINE
  5
2C0
100
AcDbEntity
  8
DRAFT
100
AcDbLine
 62
7
  6
CONTINUOUS
 10
-15.8633576269
 20
24.0515184648
 11
-15.8073764564
 21
23.9904257375
  0
LINE
  5
2C1
100
AcDbEntity
  8
0
100
AcDbLine
 62
7
  6
CONTINUOUS
 10
6.5869819406
 20
-22.5375023664
 11
6.7204453726
 21
-24.0629963756
  0
LINE
  5
2C2
100
AcDbEntity
  8
0
100
AcDbLine
 62
7
  6
CONTINUOUS
 10
6.5869819406
 20
22.4624976336
 11
6.7204453726
 21
23.9879916429
  0
LINE
  5
2C3
100
AcDbEntity
  8
DRAFT
100
AcDbLine
 62
7
  6
CONTINUOUS
 10
18.6797831352
 20
22.4904257375
 11
18.6906283222
 21
22.5166083349
  0
LINE
  5
2C4
100
AcDbEntity
  8
DRAFT
100
AcDbLine
 62
7
  6
CONTINUOUS
 10
-10.8708058953
 20
-22.6265231975
 11
-10.7817850642
 21
-22.5375023664
  0
LINE
  5
2C5
100
AcDbEntity
  8
DRAFT
100
AcDbLine
 62
7
  6
CONTINUOUS
 10
-22.559713168
 20
-18.7490705658
 11
-22.5858957654
 21
-18.7599157527
  0
LINE
  5
2C6
100
AcDbEntity
  8
DRAFT
100
AcDbLine
 62
7
  6
CONTINUOUS
 10
-22.559713168
 20
18.674065833
 11
-22.5858957654
 21
18.68491102
  0
LINE
  5
2C7
100
AcDbEntity
  8
DRAFT
100
AcDbLine
 62
7
  6
CONTINUOUS
 10
-10.8708058953
 20
22.5515184648
 11
-10.7817850642
 21
22.4624976336
  0
LINE
  5
2C8
100
AcDbEntity
  8
DRAFT
100
AcDbLine
 62
7
  6
CONTINUOUS
 10
18.6797831352
 20
-22.5654304702
 11
18.6906283222
 21
-22.5916130676
  0
LINE
  5
2C9
100
AcDbEntity
  8
DRAFT
100
AcDbLine
 62
7
  6
CONTINUOUS
 10
8.7182149358
 20
-24.0654304702
 11
8.7182149358
 21
-22.5375023664
  0
LINE
  5
2CA
100
AcDbEntity
  8
DRAFT
100
AcDbLine
 62
7
  6
CONTINUOUS
 10
8.7182149358
 20
22.4624976336
 11
8.7182149358
 21
23.9904257375
  0
LINE
  5
2CB
100
AcDbEntity
  8
DRAFT
100
AcDbLine
 62
7
  6
CONTINUOUS
 10
10.7182149358
 20
-24.0375023664
 11
10.7182149358
 21
-22.5375023664
  0
LINE
  5
2CC
100
AcDbEntity
  8
DRAFT
100
AcDbLine
 62
7
  6
CONTINUOUS
 10
10.7182149358
 20
22.4624976336
 11
10.7182149358
 21
23.9624976336
  0
LINE
  5
2CD
100
AcDbEntity
  8
DRAFT
100
AcDbLine
 62
7
  6
CONTINUOUS
 10
10.807235767
 20
-22.6265231975
 11
10.807235767
 21
-24.1265231975
  0
LINE
  5
2CE
100
AcDbEntity
  8
DRAFT
100
AcDbLine
 62
7
  6
CONTINUOUS
 10
10.807235767
 20
22.5515184648
 11
10.807235767
 21
24.0515184648
  0
LINE
  5
2CF
100
AcDbEntity
  8
DRAFT
100
AcDbLine
 62
7
  6
CONTINUOUS
 10
11.6291941047
 20
-22.6265231975
 11
11.6291941047
 21
-24.1265231975
  0
LINE
  5
2D0
100
AcDbEntity
  8
DRAFT
100
AcDbLine
 62
7
  6
CONTINUOUS
 10
11.6291941047
 20
22.5515184648
 11
11.6291941047
 21
24.0515184648
  0
LINE
  5
2D1
100
AcDbEntity
  8
DRAFT
100
AcDbLine
 62
7
  6
CONTINUOUS
 10
11.7182149358
 20
-24.0375023664
 11
11.7182149358
 21
-22.5375023664
  0
LINE
  5
2D2
100
AcDbEntity
  8
DRAFT
100
AcDbLine
 62
7
  6
CONTINUOUS
 10
11.7182149358
 20
22.4624976336
 11
11.7182149358
 21
23.9624976336
  0
LINE
  5
2D3
100
AcDbEntity
  8
DRAFT
100
AcDbLine
 62
7
  6
CONTINUOUS
 10
-10.8708058953
 20
-24.1265231975
 11
-10.7817850642
 21
-24.0375023664
  0
LINE
  5
2D4
100
AcDbEntity
  8
DRAFT
100
AcDbLine
 62
7
  6
CONTINUOUS
 10
-8.809713168
 20
-24.0654304702
 11
-8.7817850642
 21
-24.0375023664
  0
LINE
  5
2D5
100
AcDbEntity
  8
0
100
AcDbLine
 62
7
  6
CONTINUOUS
 10
35.9682149358
 20
20.4624976336
 11
35.9943975332
 21
20.488680231
  0
LINE
  5
2D6
100
AcDbEntity
  8
DRAFT
100
AcDbLine
 62
7
  6
CONTINUOUS
 10
-10.7817850642
 20
23.9624976336
 11
-10.8708058953
 21
24.0515184648
  0
LINE
  5
2D7
100
AcDbEntity
  8
DRAFT
100
AcDbLine
 62
7
  6
CONTINUOUS
 10
-8.7817850642
 20
23.9624976336
 11
-8.809713168
 21
23.9904257375
  0
LINE
  5
2D8
100
AcDbEntity
  8
0
100
AcDbLine
 62
7
  6
CONTINUOUS
 10
35.9682149358
 20
-20.5375023664
 11
35.9943975332
 21
-20.5636849637
  0
LINE
  5
2D9
100
AcDbEntity
  8
DRAFT
100
AcDbLine
 62
7
  6
CONTINUOUS
 10
13.7182149358
 20
-24.0654304702
 11
13.7182149358
 21
-22.5375023664
  0
LINE
  5
2DA
100
AcDbEntity
  8
DRAFT
100
AcDbLine
 62
7
  6
CONTINUOUS
 10
13.7182149358
 20
22.4624976336
 11
13.7182149358
 21
23.9904257375
  0
LINE
  5
2DB
100
AcDbEntity
  8
0
100
AcDbLine
 62
7
  6
CONTINUOUS
 10
33.9733600655
 20
13.9676427633
 11
34.0087132189
 21
14.0029959167
  0
LINE
  5
2DC
100
AcDbEntity
  8
0
100
AcDbLine
 62
7
  6
CONTINUOUS
 10
33.9682149358
 20
13.4624976336
 11
33.9420323385
 21
13.4363150363
  0
LINE
  5
2DD
100
AcDbEntity
  8
DRAFT
100
AcDbLine
 62
7
  6
CONTINUOUS
 10
-1.0038569603
 20
-22.5375023664
 11
-1.0143299992
 21
-22.5479754053
  0
LINE
  5
2DE
100
AcDbEntity
  8
0
100
AcDbLine
 62
7
  6
CONTINUOUS
 10
42.9682149358
 20
-3.4375023664
 11
43.2218562601
 21
-3.3580678541
  0
LINE
  5
2DF
100
AcDbEntity
  8
0
100
AcDbLine
 62
7
  6
CONTINUOUS
 10
34.0087132189
 20
14.0029959167
 11
34.7682149358
 21
14.0259579772
  0
LINE
  5
2E0
100
AcDbEntity
  8
0
100
AcDbLine
 62
7
  6
CONTINUOUS
 10
-36.0579676615
 20
13.4363150363
 11
-34.0056024668
 21
13.4363150363
  0
LINE
  5
2E1
100
AcDbEntity
  8
0
100
AcDbLine
 62
7
  6
CONTINUOUS
 10
35.9943975332
 20
13.4363150363
 11
33.9420323385
 21
13.4363150363
  0
LINE
  5
2E2
100
AcDbEntity
  8
0
100
AcDbLine
 62
7
  6
CONTINUOUS
 10
-36.0317850642
 20
13.4624976336
 11
-34.0317850642
 21
13.4624976336
  0
LINE
  5
2E3
100
AcDbEntity
  8
0
100
AcDbLine
 62
7
  6
CONTINUOUS
 10
35.9682149358
 20
13.4624976336
 11
33.9682149358
 21
13.4624976336
  0
LINE
  5
2E4
100
AcDbEntity
  8
0
100
AcDbLine
 62
7
  6
CONTINUOUS
 10
-34.0722833472
 20
14.0029959167
 11
-34.8317850642
 21
14.0259579772
  0
LINE
  5
2E5
100
AcDbEntity
  8
0
100
AcDbLine
 62
7
  6
CONTINUOUS
 10
42.9682149358
 20
3.3624976336
 11
43.2218562601
 21
3.2830631214
  0
LINE
  5
2E6
100
AcDbEntity
  8
0
100
AcDbLine
 62
7
  6
CONTINUOUS
 10
33.9733600655
 20
-14.042647496
 11
34.0087132189
 21
-14.0780006494
  0
LINE
  5
2E7
100
AcDbEntity
  8
0
100
AcDbLine
 62
7
  6
CONTINUOUS
 10
33.9682149358
 20
-13.5375023664
 11
33.9420323385
 21
-13.511319769
  0
LINE
  5
2E8
100
AcDbEntity
  8
DRAFT
100
AcDbLine
 62
7
  6
CONTINUOUS
 10
-1.0038569603
 20
22.4624976336
 11
-1.0143299992
 21
22.4729706726
  0
LINE
  5
2E9
100
AcDbEntity
  8
0
100
AcDbLine
 62
7
  6
CONTINUOUS
 10
15.8494479311
 20
22.4624976336
 11
15.7159844991
 21
23.9879916429
  0
LINE
  5
2EA
100
AcDbEntity
  8
DRAFT
100
AcDbLine
 62
7
  6
CONTINUOUS
 10
15.9310204938
 20
22.5515184648
 11
15.7997874986
 21
24.0515184648
  0
LINE
  5
2EB
100
AcDbEntity
  8
0
100
AcDbLine
 62
7
  6
CONTINUOUS
 10
15.8494479311
 20
-22.5375023664
 11
15.7159844991
 21
-24.0629963756
  0
LINE
  5
2EC
100
AcDbEntity
  8
DRAFT
100
AcDbLine
 62
7
  6
CONTINUOUS
 10
15.9310204938
 20
-22.6265231975
 11
15.7997874986
 21
-24.1265231975
  0
LINE
  5
2ED
100
AcDbEntity
  8
DRAFT
100
AcDbLine
 62
7
  6
CONTINUOUS
 10
6.5869819406
 20
-22.5375023664
 11
6.5054093779
 21
-22.6265231975
  0
LINE
  5
2EE
100
AcDbEntity
  8
DRAFT
100
AcDbLine
 62
7
  6
CONTINUOUS
 10
4.0961430397
 20
-22.5375023664
 11
4.0856700008
 21
-22.5479754053
  0
LINE
  5
2EF
100
AcDbEntity
  8
0
100
AcDbLine
 62
7
  6
CONTINUOUS
 10
33.9682149358
 20
20.4624976336
 11
35.9682149358
 21
20.4624976336
  0
LINE
  5
2F0
100
AcDbEntity
  8
0
100
AcDbLine
 62
7
  6
CONTINUOUS
 10
-34.0317850642
 20
20.4624976336
 11
-36.0317850642
 21
20.4624976336
  0
LINE
  5
2F1
100
AcDbEntity
  8
0
100
AcDbLine
 62
7
  6
CONTINUOUS
 10
33.9420323385
 20
20.488680231
 11
35.9943975332
 21
20.488680231
  0
LINE
  5
2F2
100
AcDbEntity
  8
0
100
AcDbLine
 62
7
  6
CONTINUOUS
 10
-34.0056024668
 20
20.488680231
 11
-36.0579676615
 21
20.488680231
  0
LINE
  5
2F3
100
AcDbEntity
  8
DRAFT
100
AcDbLine
 62
7
  6
CONTINUOUS
 10
4.0961430397
 20
22.4624976336
 11
4.0856700008
 21
22.4729706726
  0
LINE
  5
2F4
100
AcDbEntity
  8
DRAFT
100
AcDbLine
 62
7
  6
CONTINUOUS
 10
6.5869819406
 20
22.4624976336
 11
6.5054093779
 21
22.5515184648
  0
LINE
  5
2F5
100
AcDbEntity
  8
DRAFT
100
AcDbLine
 62
7
  6
CONTINUOUS
 10
22.4682149358
 20
18.7019939369
 11
22.4682149358
 21
-18.7769986696
  0
LINE
  5
2F6
100
AcDbEntity
  8
DRAFT
100
AcDbLine
 62
7
  6
CONTINUOUS
 10
22.5223256371
 20
22.5166083349
 11
22.5223256371
 21
18.68491102
  0
LINE
  5
2F7
100
AcDbEntity
  8
DRAFT
100
AcDbLine
 62
7
  6
CONTINUOUS
 10
22.5223256371
 20
-18.7599157527
 11
22.5223256371
 21
-22.5916130676
  0
LINE
  5
2F8
100
AcDbEntity
  8
DRAFT
100
AcDbLine
 62
7
  6
CONTINUOUS
 10
22.557235767
 20
22.5515184648
 11
22.557235767
 21
-22.6265231975
  0
LINE
  5
2F9
100
AcDbEntity
  8
DRAFT
100
AcDbLine
 62
7
  6
CONTINUOUS
 10
6.6366423731
 20
-24.1265231975
 11
6.6926235436
 21
-24.0654304702
  0
LINE
  5
2FA
100
AcDbEntity
  8
DRAFT
100
AcDbLine
 62
7
  6
CONTINUOUS
 10
11.6291941047
 20
-22.6265231975
 11
11.7182149358
 21
-22.5375023664
  0
LINE
  5
2FB
100
AcDbEntity
  8
0
100
AcDbLine
 62
7
  6
CONTINUOUS
 10
-34.0722833472
 20
19.9219993506
 11
-34.8317850642
 21
19.8990372901
  0
LINE
  5
2FC
100
AcDbEntity
  8
DRAFT
100
AcDbLine
 62
7
  6
CONTINUOUS
 10
-18.4038569603
 20
22.4624976336
 11
-15.9130180594
 21
22.4624976336
  0
LINE
  5
2FD
100
AcDbEntity
  8
DRAFT
100
AcDbLine
 62
7
  6
CONTINUOUS
 10
13.7182149358
 20
22.4624976336
 11
8.7182149358
 21
22.4624976336
  0
LINE
  5
2FE
100
AcDbEntity
  8
DRAFT
100
AcDbLine
 62
7
  6
CONTINUOUS
 10
-6.6505520689
 20
22.4624976336
 11
-4.159713168
 21
22.4624976336
  0
LINE
  5
2FF
100
AcDbEntity
  8
DRAFT
100
AcDbLine
 62
7
  6
CONTINUOUS
 10
-1.0038569603
 20
22.4624976336
 11
0.940286832
 21
22.4624976336
  0
LINE
  5
300
100
AcDbEntity
  8
DRAFT
100
AcDbLine
 62
7
  6
CONTINUOUS
 10
4.0961430397
 20
22.4624976336
 11
6.5869819406
 21
22.4624976336
  0
LINE
  5
301
100
AcDbEntity
  8
DRAFT
100
AcDbLine
 62
7
  6
CONTINUOUS
 10
-8.7817850642
 20
22.4624976336
 11
-13.7817850642
 21
22.4624976336
  0
LINE
  5
302
100
AcDbEntity
  8
DRAFT
100
AcDbLine
 62
7
  6
CONTINUOUS
 10
15.8494479311
 20
22.4624976336
 11
18.340286832
 21
22.4624976336
  0
LINE
  5
303
100
AcDbEntity
  8
DRAFT
100
AcDbLine
 62
7
  6
CONTINUOUS
 10
-18.7608083285
 20
22.4729706726
 11
-18.4143299992
 21
22.4729706726
  0
LINE
  5
304
100
AcDbEntity
  8
DRAFT
100
AcDbLine
 62
7
  6
CONTINUOUS
 10
18.6972382002
 20
22.4729706726
 11
18.3507598709
 21
22.4729706726
  0
LINE
  5
305
100
AcDbEntity
  8
DRAFT
100
AcDbLine
 62
7
  6
CONTINUOUS
 10
0.9507598709
 20
22.4729706726
 11
4.0856700008
 21
22.4729706726
  0
LINE
  5
306
100
AcDbEntity
  8
DRAFT
100
AcDbLine
 62
7
  6
CONTINUOUS
 10
-1.0143299992
 20
22.4729706726
 11
-4.1492401291
 21
22.4729706726
  0
LINE
  5
307
100
AcDbEntity
  8
DRAFT
100
AcDbLine
 62
7
  6
CONTINUOUS
 10
-22.5858957654
 20
22.5166083349
 11
-18.7541984505
 21
22.5166083349
  0
LINE
  5
308
100
AcDbEntity
  8
DRAFT
100
AcDbLine
 62
7
  6
CONTINUOUS
 10
18.6906283222
 20
22.5166083349
 11
22.5223256371
 21
22.5166083349
  0
LINE
  5
309
100
AcDbEntity
  8
DRAFT
100
AcDbLine
 62
7
  6
CONTINUOUS
 10
22.557235767
 20
22.5515184648
 11
15.9310204938
 21
22.5515184648
  0
LINE
  5
30A
100
AcDbEntity
  8
DRAFT
100
AcDbLine
 62
7
  6
CONTINUOUS
 10
-11.692764233
 20
22.5515184648
 11
-10.8708058953
 21
22.5515184648
  0
LINE
  5
30B
100
AcDbEntity
  8
DRAFT
100
AcDbLine
 62
7
  6
CONTINUOUS
 10
6.5054093779
 20
22.5515184648
 11
-6.5689795062
 21
22.5515184648
  0
LINE
  5
30C
100
AcDbEntity
  8
DRAFT
100
AcDbLine
 62
7
  6
CONTINUOUS
 10
10.807235767
 20
22.5515184648
 11
11.6291941047
 21
22.5515184648
  0
LINE
  5
30D
100
AcDbEntity
  8
DRAFT
100
AcDbLine
 62
7
  6
CONTINUOUS
 10
-15.9945906221
 20
22.5515184648
 11
-22.6208058953
 21
22.5515184648
  0
LINE
  5
30E
100
AcDbEntity
  8
DRAFT
100
AcDbLine
 62
7
  6
CONTINUOUS
 10
13.7182149358
 20
23.9624976336
 11
11.7182149358
 21
23.9624976336
  0
LINE
  5
30F
100
AcDbEntity
  8
DRAFT
100
AcDbLine
 62
7
  6
CONTINUOUS
 10
10.7182149358
 20
23.9624976336
 11
8.7182149358
 21
23.9624976336
  0
LINE
  5
310
100
AcDbEntity
  8
DRAFT
100
AcDbLine
 62
7
  6
CONTINUOUS
 10
-8.7817850642
 20
23.9624976336
 11
-10.7817850642
 21
23.9624976336
  0
LINE
  5
311
100
AcDbEntity
  8
DRAFT
100
AcDbLine
 62
7
  6
CONTINUOUS
 10
-11.7817850642
 20
23.9624976336
 11
-13.7817850642
 21
23.9624976336
  0
LINE
  5
312
100
AcDbEntity
  8
DRAFT
100
AcDbLine
 62
7
  6
CONTINUOUS
 10
-15.8073764564
 20
23.9904257375
 11
-13.7538569603
 21
23.9904257375
  0
LINE
  5
313
100
AcDbEntity
  8
DRAFT
100
AcDbLine
 62
7
  6
CONTINUOUS
 10
-8.809713168
 20
23.9904257375
 11
-6.7561936719
 21
23.9904257375
  0
LINE
  5
314
100
AcDbEntity
  8
DRAFT
100
AcDbLine
 62
7
  6
CONTINUOUS
 10
6.6926235436
 20
23.9904257375
 11
8.7461430397
 21
23.9904257375
  0
LINE
  5
315
100
AcDbEntity
  8
DRAFT
100
AcDbLine
 62
7
  6
CONTINUOUS
 10
13.690286832
 20
23.9904257375
 11
15.7438063281
 21
23.9904257375
  0
LINE
  5
316
100
AcDbEntity
  8
DRAFT
100
AcDbLine
 62
7
  6
CONTINUOUS
 10
-15.8633576269
 20
24.0515184648
 11
-11.692764233
 21
24.0515184648
  0
LINE
  5
317
100
AcDbEntity
  8
DRAFT
100
AcDbLine
 62
7
  6
CONTINUOUS
 10
-10.8708058953
 20
24.0515184648
 11
-6.7002125014
 21
24.0515184648
  0
LINE
  5
318
100
AcDbEntity
  8
DRAFT
100
AcDbLine
 62
7
  6
CONTINUOUS
 10
6.6366423731
 20
24.0515184648
 11
10.807235767
 21
24.0515184648
  0
LINE
  5
319
100
AcDbEntity
  8
DRAFT
100
AcDbLine
 62
7
  6
CONTINUOUS
 10
11.6291941047
 20
24.0515184648
 11
15.7997874986
 21
24.0515184648
  0
LINE
  5
31A
100
AcDbEntity
  8
0
100
AcDbLine
 62
7
  6
CONTINUOUS
 10
34.0087132189
 20
19.9219993506
 11
34.7682149358
 21
19.8990372901
  0
LINE
  5
31B
100
AcDbEntity
  8
DRAFT
100
AcDbLine
 62
7
  6
CONTINUOUS
 10
11.6291941047
 20
22.5515184648
 11
11.7182149358
 21
22.4624976336
  0
LINE
  5
31C
100
AcDbEntity
  8
DRAFT
100
AcDbLine
 62
7
  6
CONTINUOUS
 10
6.6366423731
 20
24.0515184648
 11
6.6926235436
 21
23.9904257375
  0
LINE
  5
31D
100
AcDbEntity
  8
DRAFT
100
AcDbLine
 62
7
  6
CONTINUOUS
 10
11.6291941047
 20
-24.1265231975
 11
11.7182149358
 21
-24.0375023664
  0
LINE
  5
31E
100
AcDbEntity
  8
DRAFT
100
AcDbLine
 62
7
  6
CONTINUOUS
 10
13.690286832
 20
-24.0654304702
 11
13.7182149358
 21
-24.0375023664
  0
LINE
  5
31F
100
AcDbEntity
  8
DRAFT
100
AcDbLine
 62
7
  6
CONTINUOUS
 10
11.7182149358
 20
23.9624976336
 11
11.6291941047
 21
24.0515184648
  0
LINE
  5
320
100
AcDbEntity
  8
DRAFT
100
AcDbLine
 62
7
  6
CONTINUOUS
 10
13.7182149358
 20
23.9624976336
 11
13.690286832
 21
23.9904257375
  0
LINE
  5
321
100
AcDbEntity
  8
DRAFT
100
AcDbLine
 62
7
  6
CONTINUOUS
 10
22.4961430397
 20
-18.7490705658
 11
18.6797831352
 21
-22.5654304702
  0
LINE
  5
322
100
AcDbEntity
  8
DRAFT
100
AcDbLine
 62
7
  6
CONTINUOUS
 10
22.5223256371
 20
-18.7599157527
 11
18.6906283222
 21
-22.5916130676
  0
LINE
  5
323
100
AcDbEntity
  8
DRAFT
100
AcDbLine
 62
7
  6
CONTINUOUS
 10
18.6797831352
 20
22.4904257375
 11
22.4961430397
 21
18.674065833
  0
LINE
  5
324
100
AcDbEntity
  8
DRAFT
100
AcDbLine
 62
7
  6
CONTINUOUS
 10
18.6906283222
 20
22.5166083349
 11
22.5223256371
 21
18.68491102
  0
LINE
  5
325
100
AcDbEntity
  8
0
100
AcDbLine
 62
7
  6
CONTINUOUS
 10
33.9420323385
 20
-13.511319769
 11
33.9420323385
 21
-20.5636849637
  0
LINE
  5
326
100
AcDbEntity
  8
0
100
AcDbLine
 62
7
  6
CONTINUOUS
 10
33.9420323385
 20
13.4363150363
 11
33.9420323385
 21
20.488680231
  0
LINE
  5
327
100
AcDbEntity
  8
0
100
AcDbLine
 62
7
  6
CONTINUOUS
 10
33.9682149358
 20
-13.5375023664
 11
33.9682149358
 21
-13.7426931874
  0
LINE
  5
328
100
AcDbEntity
  8
0
100
AcDbLine
 62
7
  6
CONTINUOUS
 10
33.9682149358
 20
-20.3323115453
 11
33.9682149358
 21
-20.5375023664
  0
LINE
  5
329
100
AcDbEntity
  8
0
100
AcDbLine
 62
7
  6
CONTINUOUS
 10
33.9682149358
 20
13.4624976336
 11
33.9682149358
 21
13.6676884547
  0
LINE
  5
32A
100
AcDbEntity
  8
0
100
AcDbLine
 62
7
  6
CONTINUOUS
 10
33.9682149358
 20
20.2573068126
 11
33.9682149358
 21
20.4624976336
  0
LINE
  5
32B
100
AcDbEntity
  8
0
100
AcDbLine
 62
7
  6
CONTINUOUS
 10
34.0087132189
 20
-14.0780006494
 11
34.0087132189
 21
-19.9970040833
  0
LINE
  5
32C
100
AcDbEntity
  8
0
100
AcDbLine
 62
7
  6
CONTINUOUS
 10
34.0087132189
 20
14.0029959167
 11
34.0087132189
 21
19.9219993506
  0
LINE
  5
32D
100
AcDbEntity
  8
0
100
AcDbLine
 62
7
  6
CONTINUOUS
 10
35.0682149358
 20
-14.4100783261
 11
35.0682149358
 21
-19.6649264066
  0
LINE
  5
32E
100
AcDbEntity
  8
0
100
AcDbLine
 62
7
  6
CONTINUOUS
 10
35.0682149358
 20
14.3350735934
 11
35.0682149358
 21
19.5899216739
  0
LINE
  5
32F
100
AcDbEntity
  8
0
100
AcDbLine
 62
7
  6
CONTINUOUS
 10
35.9682149358
 20
20.4624976336
 11
35.9682149358
 21
13.4624976336
  0
LINE
  5
330
100
AcDbEntity
  8
0
100
AcDbLine
 62
7
  6
CONTINUOUS
 10
35.9682149358
 20
-20.5375023664
 11
35.9682149358
 21
-13.5375023664
  0
LINE
  5
331
100
AcDbEntity
  8
0
100
AcDbLine
 62
7
  6
CONTINUOUS
 10
35.9943975332
 20
20.488680231
 11
35.9943975332
 21
13.4363150363
  0
LINE
  5
332
100
AcDbEntity
  8
0
100
AcDbLine
 62
7
  6
CONTINUOUS
 10
35.9943975332
 20
-20.5636849637
 11
35.9943975332
 21
-13.511319769
  0
LINE
  5
333
100
AcDbEntity
  8
0
100
AcDbLine
 62
7
  6
CONTINUOUS
 10
35.9682149358
 20
-13.5375023664
 11
35.9943975332
 21
-13.511319769
  0
LINE
  5
334
100
AcDbEntity
  8
0
100
AcDbLine
 62
7
  6
CONTINUOUS
 10
35.9682149358
 20
13.4624976336
 11
35.9943975332
 21
13.4363150363
  0
LINE
  5
335
100
AcDbEntity
  8
0
100
AcDbLine
 62
250
  6
CONTINUOUS
 10
40.6588138591
 20
-41.1611139915
 11
40.6588138591
 21
41.0861092588
  0
LINE
  5
336
100
AcDbEntity
  8
0
100
AcDbLine
 62
250
  6
CONTINUOUS
 10
41.091826561
 20
-40.7281012896
 11
41.091826561
 21
40.6530965569
  0
LINE
  5
337
100
AcDbEntity
  8
0
100
AcDbLine
 62
7
  6
CONTINUOUS
 10
28.5294015087
 20
-25.0631550333
 11
24.9938676027
 21
-28.5986889392
  0
LINE
  5
338
100
AcDbEntity
  8
0
100
AcDbLine
 62
7
  6
CONTINUOUS
 10
33.9733600655
 20
-20.0323572367
 11
34.0087132189
 21
-19.9970040833
  0
LINE
  5
339
100
AcDbEntity
  8
0
100
AcDbLine
 62
7
  6
CONTINUOUS
 10
33.9682149358
 20
-20.5375023664
 11
33.9420323385
 21
-20.5636849637
  0
LINE
  5
33A
100
AcDbEntity
  8
0
100
AcDbLine
 62
250
  6
CONTINUOUS
 10
41.091826561
 20
40.6530965569
 11
-41.1553966893
 21
40.6530965569
  0
LINE
  5
33B
100
AcDbEntity
  8
0
100
AcDbLine
 62
250
  6
CONTINUOUS
 10
40.6588138591
 20
41.0861092588
 11
-40.7223839874
 21
41.0861092588
  0
LINE
  5
33C
100
AcDbEntity
  8
0
100
AcDbLine
 62
7
  6
CONTINUOUS
 10
24.9938676027
 20
28.5236842065
 11
28.5294015087
 21
24.9881503005
  0
LINE
  5
33D
100
AcDbEntity
  8
0
100
AcDbLine
 62
7
  6
CONTINUOUS
 10
33.9733600655
 20
19.957352504
 11
34.0087132189
 21
19.9219993506
  0
LINE
  5
33E
100
AcDbEntity
  8
0
100
AcDbLine
 62
7
  6
CONTINUOUS
 10
33.9682149358
 20
20.4624976336
 11
33.9420323385
 21
20.488680231
  0
LINE
  5
33F
100
AcDbEntity
  8
0
100
AcDbLine
 62
7
  6
CONTINUOUS
 10
42.9682149358
 20
42.5294849318
 11
42.9682149358
 21
-42.6044896645
  0
LINE
  5
340
100
AcDbEntity
  8
0
100
AcDbLine
 62
7
  6
CONTINUOUS
 10
43.2694316322
 20
2.9834742609
 11
43.2694316322
 21
-3.0584789936
  0
LINE
  5
341
100
AcDbEntity
  8
0
100
AcDbLine
 62
7
  6
CONTINUOUS
 10
27.407028363
 20
-31.0118496995
 11
30.9425622689
 21
-27.4763157935
  0
LINE
  5
342
100
AcDbEntity
  8
0
100
AcDbLine
 62
7
  6
CONTINUOUS
 10
-42.5987723623
 20
42.9624976336
 11
42.535202234
 21
42.9624976336
  0
LINE
  5
343
100
AcDbEntity
  8
0
100
AcDbLine
 62
7
  6
CONTINUOUS
 10
30.9425622689
 20
27.4013110608
 11
27.407028363
 21
30.9368449667
  0
LWPOLYLINE
  5
344
100
AcDbEntity
  8
0
100
AcDbPolyline
 62
250
  6
CONTINUOUS
 90
16
 70
0
 10
40.6588138591
 20
-41.1611139915
 10
40.6980609941
 20
-41.1496315204
 10
40.7370054971
 20
-41.1348961864
 10
40.7753468386
 20
-41.1170216425
 10
40.8127892042
 20
-41.0961457277
 10
40.8490435657
 20
-41.0724295191
 10
40.883829937
 20
-41.0460561414
 10
40.9168797189
 20
-41.0172292594
 10
40.9479380394
 20
-40.9861712061
 10
40.9767654663
 20
-40.9531213549
 10
41.0031397114
 20
-40.9183343677
 10
41.0268568864
 20
-40.8820789663
 10
41.0477335035
 20
-40.8446356548
 10
41.0656084389
 20
-40.806293679
 10
41.0803439948
 20
-40.7673487083
 10
41.091826561
 20
-40.7281012896
  0
LWPOLYLINE
  5
345
100
AcDbEntity
  8
0
100
AcDbPolyline
 62
250
  6
CONTINUOUS
 90
16
 70
0
 10
41.091826561
 20
40.6530965569
 10
41.0803440898
 20
40.6923436919
 10
41.0656087559
 20
40.7312881949
 10
41.047734212
 20
40.7696295364
 10
41.0268582972
 20
40.807071902
 10
41.0031420886
 20
40.8433262635
 10
40.9767687109
 20
40.8781126348
 10
40.9479418289
 20
40.9111624167
 10
40.9168837756
 20
40.9422207372
 10
40.8838339244
 20
40.9710481641
 10
40.8490469372
 20
40.9974224092
 10
40.8127915357
 20
41.0211395842
 10
40.7753482243
 20
41.0420162013
 10
40.7370062485
 20
41.0598911367
 10
40.6980612778
 20
41.0746266926
 10
40.6588138591
 20
41.0861092588
  0
ARC
  5
346
100
AcDbEntity
  8
0
100
AcDbCircle
 62
7
  6
CONTINUOUS
 10
-0.0317850642
 20
-0.0375023664
 40
31.6063623377
100
AcDbArc
 50
176.5590799622
 51
188.8201478292
  0
ARC
  5
347
100
AcDbEntity
  8
0
100
AcDbCircle
 62
7
  6
CONTINUOUS
 10
-0.0317850642
 20
-0.0375023664
 40
31.6063623377
100
AcDbArc
 50
356.5590799622
 51
8.8201478292
  0
ARC
  5
348
100
AcDbEntity
  8
0
100
AcDbCircle
 62
7
  6
CONTINUOUS
 10
-0.0317850642
 20
-0.0375023664
 40
31.6063623377
100
AcDbArc
 50
86.5590799622
 51
98.8201478292
  0
ARC
  5
349
100
AcDbEntity
  8
0
100
AcDbCircle
 62
7
  6
CONTINUOUS
 10
-0.0317850642
 20
-0.0375023664
 40
31.6063623377
100
AcDbArc
 50
266.5590799622
 51
278.8201478292
  0
ARC
  5
34A
100
AcDbEntity
  8
0
100
AcDbCircle
 62
7
  6
CONTINUOUS
 10
-0.0317850642
 20
-0.0375023664
 40
28.3936376623
100
AcDbArc
 50
176.8554908542
 51
188.8201478292
  0
ARC
  5
34B
100
AcDbEntity
  8
0
100
AcDbCircle
 62
7
  6
CONTINUOUS
 10
-0.0317850642
 20
-0.0375023664
 40
28.3936376623
100
AcDbArc
 50
356.8554908542
 51
8.8201478292
  0
ARC
  5
34C
100
AcDbEntity
  8
0
100
AcDbCircle
 62
7
  6
CONTINUOUS
 10
-0.0317850642
 20
-0.0375023664
 40
28.3936376623
100
AcDbArc
 50
86.8554908542
 51
98.8201478292
  0
ARC
  5
34D
100
AcDbEntity
  8
0
100
AcDbCircle
 62
7
  6
CONTINUOUS
 10
-0.0317850642
 20
-0.0375023664
 40
28.3936376623
100
AcDbArc
 50
266.8554908542
 51
278.8201478292
  0
ARC
  5
34E
100
AcDbEntity
  8
0
100
AcDbCircle
 62
7
  6
CONTINUOUS
 10
-4.6317850642
 20
-29.6827380713
 40
3.3063623377
100
AcDbArc
 50
23.0461299817
 51
324.8370368861
  0
ARC
  5
34F
100
AcDbEntity
  8
0
100
AcDbCircle
 62
7
  6
CONTINUOUS
 10
4.5682149358
 20
29.6077333386
 40
3.3063623377
100
AcDbArc
 50
203.0461299817
 51
144.8370368861
  0
ARC
  5
350
100
AcDbEntity
  8
0
100
AcDbCircle
 62
7
  6
CONTINUOUS
 10
29.6134506408
 20
-4.6375023664
 40
3.3063623377
100
AcDbArc
 50
113.0461299817
 51
54.8370368861
  0
ARC
  5
351
100
AcDbEntity
  8
0
100
AcDbCircle
 62
7
  6
CONTINUOUS
 10
-29.6770207691
 20
4.5624976336
 40
3.3063623377
100
AcDbArc
 50
293.0461299817
 51
234.8370368861
  0
ARC
  5
352
100
AcDbEntity
  8
0
100
AcDbCircle
 62
7
  6
CONTINUOUS
 10
29.7359818888
 20
-26.2697354134
 40
1.7063623377
100
AcDbArc
 50
315.0
 51
135.0
  0
ARC
  5
353
100
AcDbEntity
  8
0
100
AcDbCircle
 62
7
  6
CONTINUOUS
 10
26.2004479829
 20
-29.8052693193
 40
1.7063623377
100
AcDbArc
 50
135.0
 51
315.0
  0
ARC
  5
354
100
AcDbEntity
  8
0
100
AcDbCircle
 62
7
  6
CONTINUOUS
 10
-26.2640181112
 20
-29.8052693193
 40
1.7063623377
100
AcDbArc
 50
225.0
 51
45.0
  0
ARC
  5
355
100
AcDbEntity
  8
0
100
AcDbCircle
 62
7
  6
CONTINUOUS
 10
-29.7995520171
 20
-26.2697354134
 40
1.7063623377
100
AcDbArc
 50
45.0
 51
225.0
  0
ARC
  5
356
100
AcDbEntity
  8
0
100
AcDbCircle
 62
7
  6
CONTINUOUS
 10
26.2004479829
 20
29.7302645866
 40
1.7063623377
100
AcDbArc
 50
45.0
 51
225.0
  0
ARC
  5
357
100
AcDbEntity
  8
0
100
AcDbCircle
 62
7
  6
CONTINUOUS
 10
29.7359818888
 20
26.1947306807
 40
1.7063623377
100
AcDbArc
 50
225.0
 51
45.0
  0
ARC
  5
358
100
AcDbEntity
  8
0
100
AcDbCircle
 62
7
  6
CONTINUOUS
 10
-29.7995520171
 20
26.1947306807
 40
1.7063623377
100
AcDbArc
 50
135.0
 51
315.0
  0
ARC
  5
359
100
AcDbEntity
  8
0
100
AcDbCircle
 62
7
  6
CONTINUOUS
 10
-26.2640181112
 20
29.7302645866
 40
1.7063623377
100
AcDbArc
 50
315.0
 51
135.0
  0
ARC
  5
35A
100
AcDbEntity
  8
0
100
AcDbCircle
 62
7
  6
CONTINUOUS
 10
-29.6770207691
 20
-4.6375023664
 40
1.6063623377
100
AcDbArc
 50
188.8201478292
 51
8.8201478292
  0
ARC
  5
35B
100
AcDbEntity
  8
0
100
AcDbCircle
 62
7
  6
CONTINUOUS
 10
29.6134506408
 20
4.5624976336
 40
1.6063623377
100
AcDbArc
 50
8.8201478292
 51
188.8201478292
  0
ARC
  5
35C
100
AcDbEntity
  8
0
100
AcDbCircle
 62
7
  6
CONTINUOUS
 10
-4.6317850642
 20
29.6077333386
 40
1.6063623377
100
AcDbArc
 50
98.8201478292
 51
278.8201478292
  0
ARC
  5
35D
100
AcDbEntity
  8
0
100
AcDbCircle
 62
7
  6
CONTINUOUS
 10
4.5682149358
 20
-29.6827380713
 40
1.6063623377
100
AcDbArc
 50
278.8201478292
 51
98.8201478292
  0
ELLIPSE
  5
35E
100
AcDbEntity
  8
0
100
AcDbEllipse
 62
7
  6
CONTINUOUS
 10
-34.0370215836
 20
-20.3323115453
 30
0.0
 11
0.0
 21
0.3
 31
0.0
 40
0.0174550649
 41
-1.5707963268
 42
-0.0174532925
  0
ELLIPSE
  5
35F
100
AcDbEntity
  8
0
100
AcDbEllipse
 62
7
  6
CONTINUOUS
 10
-34.0370215836
 20
-13.7426931874
 30
0.0
 11
0.0
 21
0.3
 31
0.0
 40
0.0174550649
 41
-3.1241393611
 42
-1.5707963268
  0
ELLIPSE
  5
360
100
AcDbEntity
  8
0
100
AcDbEllipse
 62
7
  6
CONTINUOUS
 10
-34.8317850642
 20
-19.6739963244
 30
0.0
 11
0.2131980389
 21
-0.2175384252
 31
0.0
 40
0.9702223669
 41
-2.3612323955
 42
-0.7904360687
  0
ELLIPSE
  5
361
100
AcDbEntity
  8
0
100
AcDbEllipse
 62
7
  6
CONTINUOUS
 10
-34.8317850642
 20
-14.4010084083
 30
0.0
 11
0.2131980389
 21
0.2175384252
 31
0.0
 40
0.9702223669
 41
0.7904360687
 42
2.3612323955
  0
ELLIPSE
  5
362
100
AcDbEntity
  8
0
100
AcDbEllipse
 62
7
  6
CONTINUOUS
 10
-34.0370215836
 20
20.2573068126
 30
0.0
 11
0.0
 21
0.3
 31
0.0
 40
0.0174550649
 41
-3.1241393611
 42
-1.5707963268
  0
ELLIPSE
  5
363
100
AcDbEntity
  8
0
100
AcDbEllipse
 62
7
  6
CONTINUOUS
 10
-34.0370215836
 20
13.6676884547
 30
0.0
 11
0.0
 21
0.3
 31
0.0
 40
0.0174550649
 41
-1.5707963268
 42
-0.0174532925
  0
ELLIPSE
  5
364
100
AcDbEntity
  8
0
100
AcDbEllipse
 62
7
  6
CONTINUOUS
 10
-34.8317850642
 20
19.5989915917
 30
0.0
 11
0.2131980389
 21
0.2175384252
 31
0.0
 40
0.9702223669
 41
0.7904360687
 42
2.3612323955
  0
ELLIPSE
  5
365
100
AcDbEntity
  8
0
100
AcDbEllipse
 62
7
  6
CONTINUOUS
 10
-34.8317850642
 20
14.3260036756
 30
0.0
 11
0.2131980389
 21
-0.2175384252
 31
0.0
 40
0.9702223669
 41
-2.3612323955
 42
-0.7904360687
  0
ELLIPSE
  5
366
100
AcDbEntity
  8
0
100
AcDbEllipse
 62
7
  6
CONTINUOUS
 10
33.9734514553
 20
-20.3323115453
 30
0.0
 11
-0.0
 21
0.3
 31
0.0
 40
0.0174550649
 41
0.0174532925
 42
1.5707963268
  0
ELLIPSE
  5
367
100
AcDbEntity
  8
0
100
AcDbEllipse
 62
7
  6
CONTINUOUS
 10
33.9734514553
 20
-13.7426931874
 30
0.0
 11
0.0
 21
0.3
 31
0.0
 40
0.0174550649
 41
-4.7123889804
 42
-3.1590459461
  0
ELLIPSE
  5
368
100
AcDbEntity
  8
0
100
AcDbEllipse
 62
7
  6
CONTINUOUS
 10
34.7682149358
 20
-19.6739963244
 30
0.0
 11
0.2131980389
 21
0.2175384252
 31
0.0
 40
0.9702223669
 41
-2.3511565849
 42
-0.7803602581
  0
ELLIPSE
  5
369
100
AcDbEntity
  8
0
100
AcDbEllipse
 62
7
  6
CONTINUOUS
 10
34.7682149358
 20
-14.4010084083
 30
0.0
 11
0.2131980389
 21
-0.2175384252
 31
0.0
 40
0.9702223669
 41
0.7803602581
 42
2.3511565849
  0
ELLIPSE
  5
36A
100
AcDbEntity
  8
0
100
AcDbEllipse
 62
7
  6
CONTINUOUS
 10
33.9734514553
 20
20.2573068126
 30
0.0
 11
0.0
 21
0.3
 31
0.0
 40
0.0174550649
 41
-4.7123889804
 42
-3.1590459461
  0
ELLIPSE
  5
36B
100
AcDbEntity
  8
0
100
AcDbEllipse
 62
7
  6
CONTINUOUS
 10
33.9734514553
 20
13.6676884547
 30
0.0
 11
0.0
 21
0.3
 31
0.0
 40
0.0174550649
 41
0.0174532925
 42
1.5707963268
  0
ELLIPSE
  5
36C
100
AcDbEntity
  8
0
100
AcDbEllipse
 62
7
  6
CONTINUOUS
 10
34.7682149358
 20
19.5989915917
 30
0.0
 11
0.2131980389
 21
-0.2175384252
 31
0.0
 40
0.9702223669
 41
0.7803602581
 42
2.3511565849
  0
ELLIPSE
  5
36D
100
AcDbEntity
  8
0
100
AcDbEllipse
 62
7
  6
CONTINUOUS
 10
34.7682149358
 20
14.3260036756
 30
0.0
 11
0.2131980389
 21
0.2175384252
 31
0.0
 40
0.9702223669
 41
-2.3511565849
 42
-0.7803602581
  0
ELLIPSE
  5
36E
100
AcDbEntity
  8
0
100
AcDbEllipse
 62
7
  6
CONTINUOUS
 10
-43.2827989778
 20
-3.0584789936
 30
0.0
 11
0.0
 21
0.3
 31
0.0
 40
0.1673426091
 41
-4.7123889804
 42
-3.1939525311
  0
ELLIPSE
  5
36F
100
AcDbEntity
  8
0
100
AcDbEllipse
 62
7
  6
CONTINUOUS
 10
-43.2827989778
 20
2.9834742609
 30
0.0
 11
-0.0
 21
0.3
 31
0.0
 40
0.1673426091
 41
0.0523598776
 42
1.5707963268
  0
ELLIPSE
  5
370
100
AcDbEntity
  8
0
100
AcDbEllipse
 62
7
  6
CONTINUOUS
 10
43.2192288495
 20
2.9834742609
 30
0.0
 11
0.0
 21
0.3
 31
0.0
 40
0.1673426091
 41
-1.5707963268
 42
-0.0523598776
  0
ELLIPSE
  5
371
100
AcDbEntity
  8
0
100
AcDbEllipse
 62
7
  6
CONTINUOUS
 10
43.2192288495
 20
-3.0584789936
 30
0.0
 11
-0.0
 21
0.3
 31
0.0
 40
0.1673426091
 41
-3.089232776
 42
-1.5707963268
  0
ELLIPSE
  5
372
100
AcDbEntity
  8
0
100
AcDbEllipse
 62
7
  6
CONTINUOUS
 10
42.3908646667
 20
42.3851473645
 30
0.0
 11
0.4564354646
 21
0.4564354646
 31
0.0
 40
0.7745966692
 41
-0.6590580358
 42
0.6590580358
  0
ELLIPSE
  5
373
100
AcDbEntity
  8
0
100
AcDbEllipse
 62
7
  6
CONTINUOUS
 10
-42.454434795
 20
42.3851473645
 30
0.0
 11
0.4564354646
 21
-0.4564354646
 31
0.0
 40
0.7745966692
 41
2.4825346178
 42
3.8006506894
  0
ELLIPSE
  5
374
100
AcDbEntity
  8
0
100
AcDbEllipse
 62
7
  6
CONTINUOUS
 10
-42.454434795
 20
-42.4601520972
 30
0.0
 11
0.4564354646
 21
0.4564354646
 31
0.0
 40
0.7745966692
 41
2.4825346178
 42
3.8006506894
  0
ELLIPSE
  5
375
100
AcDbEntity
  8
0
100
AcDbEllipse
 62
7
  6
CONTINUOUS
 10
42.3908646667
 20
-42.4601520972
 30
0.0
 11
-0.4564354646
 21
0.4564354646
 31
0.0
 40
0.7745966692
 41
-3.8006506894
 42
-2.4825346178
  0
ENDSEC
  0
SECTION
  2
OBJECTS
  0
DICTIONARY
  5
C
100
AcDbDictionary
280
0
281
1
  3
ACAD_GROUP
350
D
  3
ACAD_MLINESTYLE
350
17
  3
ACAD_LAYOUT
350
1A
  3
ACAD_PLOTSETTINGS
350
19
  3
ACAD_PLOTSTYLENAME
350
E
  0
DICTIONARY
  5
D
102
{ACAD_REACTORS
330
C
102
}
100
AcDbDictionary
280
0
281
1
  0
ACDBDICTIONARYWDFLT
  5
E
102
{ACAD_REACTORS
330
C
102
}
100
AcDbDictionary
281
1
  3
Normal
350
F
100
AcDbDictionaryWithDefault
340
F
  0
DICTIONARY
  5
17
102
{ACAD_REACTORS
330
C
102
}
100
AcDbDictionary
280
0
281
1
  3
Standard
350
18
  0
DICTIONARY
  5
19
102
{ACAD_REACTORS
330
C
102
}
100
AcDbDictionary
281
1
  0
DICTIONARY
  5
1A
102
{ACAD_REACTORS
330
C
102
}
100
AcDbDictionary
281
1
  3
Model
350
376
  3
Layout1
350
377
  0
ACDBPLACEHOLDER
  5
F
102
{ACAD_REACTORS
330
E
102
}
  0
MLINESTYLE
  5
18
102
{ACAD_REACTORS
330
17
102
}
100
AcDbMlineStyle
  2
STANDARD
 70
0
  3

 62
256
 51
90.0
 52
90.0
 71
2
 49
0.5
 62
256
  6
BYLAYER
 49
-0.5
 62
256
  6
BYLAYER
  0
LAYOUT
  5
376
102
{ACAD_REACTORS
330
1A
102
}
100
AcDbPlotSettings
  1

  2
none_device
  4
ISO_A4_(297.00_x_210.00_MM)
  6

 40
0.0
 41
0.0
 42
0.0
 43
0.0
 44
297.0
 45
210.0
 46
0.0
 47
0.0
 48
0.0
 49
0.0
140
0.0
141
0.0
142
1.0
143
1.0
 70
1024
 72
1
 73
0
 74
0
  7

 75
0
147
1.0
148
0.0
149
0.0
100
AcDbLayout
  1
Model
 70
0
 71
0
 10
0.0
 20
0.0
 11
297.0
 21
210.0
 12
0.0
 22
0.0
 32
0.0
 14
0.0
 24
0.0
 34
0.0
 15
0.0
 25
0.0
 35
0.0
146
0.0
 13
0.0
 23
0.0
 33
0.0
 16
1.0
 26
0.0
 36
0.0
 17
0.0
 27
1.0
 37
0.0
 76
0
330
219
345
0
346
0
  0
LAYOUT
  5
377
102
{ACAD_REACTORS
330
1A
102
}
100
AcDbPlotSettings
  1

  2
none_device
  4
ISO_A4_(297.00_x_210.00_MM)
  6

 40
0.0
 41
0.0
 42
0.0
 43
0.0
 44
297.0
 45
210.0
 46
0.0
 47
0.0
 48
0.0
 49
0.0
140
0.0
141
0.0
142
1.0
143
1.0
 70
0
 72
1
 73
0
 74
0
  7

 75
0
147
1.0
148
0.0
149
0.0
100
AcDbLayout
  1
Layout1
 70
0
 71
1
 10
0.0
 20
0.0
 11
297.0
 21
210.0
 12
0.0
 22
0.0
 32
0.0
 14
0.0
 24
0.0
 34
0.0
 15
0.0
 25
0.0
 35
0.0
146
0.0
 13
0.0
 23
0.0
 33
0.0
 16
1.0
 26
0.0
 36
0.0
 17
0.0
 27
1.0
 37
0.0
 76
0
330
21A
345
0
346
0
  0
ENDSEC
  0
EOF
