  0
SECTION
  2
HEADER
  9
$ACADVER
  1
AC1021
  9
$DWGCODEPAGE
  3
ANSI_1252
  9
$EXTMAX
 10
297.0
 20
210.0
 30
0.0
  9
$EXTMIN
 10
0.0
 20
0.0
 30
0.0
  9
$LIMMIN
 10
0.0
 20
0.0
  9
$LIMMAX
 10
297.0
 20
210.0
  9
$VIEWCTR
 10
148.5
 20
105.0
  9
$VIEWSIZE
 40
210.0
  9
$CLAYER
  8
0
  9
$LTSCALE
 40
16.335
  9
$CELTYPE
  6
BYLAYER
  9
$DIMSCALE
 40
1.0
  9
$DIMASZ
 40
3.0
  9
$DIMEXO
 40
1.85625
  9
$DIMDLI
 40
11.286
  9
$DIMEXE
 40
5.346
  9
$DIMCEN
 40
2.673
  9
$DIMLFAC
 40
1.0
  9
$DIMBLK
  1
_FILLED
  9
$DIMTXT
 40
3.0
  9
$DIMTOL
 70
1
  9
$DIMLIM
 70
0
  9
$DIMTFAC
 40
1.0
  9
$DIMTP
 40
0.01
  9
$DIMTM
 40
0.01
  9
$PDMODE
 70
3
  9
$PDSIZE
 40
3.0
  9
$HANDSEED
  5
6C8
  9
$TILEMODE
 70
1
  9
$MEASUREMENT
 70
1
  9
$INSUNITS
 70
4
  0
ENDSEC
  0
SECTION
  2
CLASSES
  0
CLASS
  1
ACDBDICTIONARYWDFLT
  2
AcDbDictionaryWithDefault
  3
AutoCAD 2000
 90
0
 91
1
280
0
281
0
  0
CLASS
  1
ACDBPLACEHOLDER
  2
AcDbPlaceHolder
  3
AutoCAD 2000
 90
0
 91
1
280
0
281
0
  0
CLASS
  1
LAYOUT
  2
AcDbLayout
  3
AutoCAD 2000
 90
0
 91
0
280
0
281
0
  0
ENDSEC
  0
SECTION
  2
TABLES
  0
TABLE
  2
VPORT
  5
8
100
AcDbSymbolTable
 70
2
  0
VPORT
  5
1F4
100
AcDbSymbolTableRecord
100
AcDbViewportTableRecord
  2
*ACTIVE
 70
0
 10
0.0
 20
0.0
 11
1.0
 21
1.0
 12
148.5
 22
105.0
 13
0.0
 23
0.0
 14
1.0
 24
1.0
 15
0.0
 25
0.0
 16
0.0
 26
0.0
 36
1.0
 17
0.0
 27
0.0
 37
0.0
 40
210.0
 41
1.4142857143
 42
50.0
 43
0.0
 44
0.0
 50
0.0
 51
0.0
 71
0
 72
100
 73
1
 74
1
 75
0
 76
0
 77
0
 78
0
  0
ENDTAB
  0
TABLE
  2
LTYPE
  5
5
100
AcDbSymbolTable
 70
6
  0
LTYPE
  5
14
100
AcDbSymbolTableRecord
100
AcDbLinetypeTableRecord
  2
BYBLOCK
 70
0
  3

 72
65
 73
0
 40
0.0
  0
LTYPE
  5
15
100
AcDbSymbolTableRecord
100
AcDbLinetypeTableRecord
  2
BYLAYER
 70
0
  3

 72
65
 73
0
 40
0.0
  0
LTYPE
  5
16
100
AcDbSymbolTableRecord
100
AcDbLinetypeTableRecord
  2
CONTINUOUS
 70
64
  3
Solid line
 72
65
 73
0
 40
0.0
  0
LTYPE
  5
1F5
100
AcDbSymbolTableRecord
100
AcDbLinetypeTableRecord
  2
CENTER
 70
64
  3
____ _ ____ _ ____ _ ____ _ ____ _ ____ _ ____
 72
65
 73
4
 40
0.6
 49
0.375
 74
0
 49
-0.075
 74
0
 49
0.075
 74
0
 49
-0.075
 74
0
  0
LTYPE
  5
1F6
100
AcDbSymbolTableRecord
100
AcDbLinetypeTableRecord
  2
HIDDEN
 70
64
  3
- - - - - - - - - - - - - - - - - - - -
 72
65
 73
2
 40
0.2
 49
0.1
 74
0
 49
-0.1
 74
0
  0
LTYPE
  5
1F7
100
AcDbSymbolTableRecord
100
AcDbLinetypeTableRecord
  2
PHANTOM
 70
64
  3
_____ _ _ _____ _ _ _____ _ _ _____
 72
65
 73
6
 40
0.8
 49
0.45
 74
0
 49
-0.05
 74
0
 49
0.1
 74
0
 49
-0.05
 74
0
 49
0.1
 74
0
 49
-0.05
 74
0
  0
LTYPE
  5
1F8
100
AcDbSymbolTableRecord
100
AcDbLinetypeTableRecord
  2
DOT
 70
64
  3
. . . . . . . . . . . . . . . . . . . .
 72
65
 73
2
 40
0.2
 49
0.1
 74
0
 49
-0.1
 74
0
  0
LTYPE
  5
1F9
100
AcDbSymbolTableRecord
100
AcDbLinetypeTableRecord
  2
DASHED
 70
64
  3
- - - - - - - - - - - - - - - - - - - -
 72
65
 73
2
 40
0.2
 49
0.1
 74
0
 49
-0.1
 74
0
  0
ENDTAB
  0
TABLE
  2
LAYER
  5
2
100
AcDbSymbolTable
 70
36
  0
LAYER
  5
10
100
AcDbSymbolTableRecord
100
AcDbLayerTableRecord
  2
0
 70
0
 62
7
  6
CONTINUOUS
370
-3
390
F
  0
LAYER
  5
1FA
100
AcDbSymbolTableRecord
100
AcDbLayerTableRecord
  2
DEFAULT_1
 70
0
 62
7
  6
CENTER
370
-3
390
F
  0
LAYER
  5
1FB
100
AcDbSymbolTableRecord
100
AcDbLayerTableRecord
  2
DEFAULT_2
 70
0
 62
7
  6
HIDDEN
370
-3
390
F
  0
LAYER
  5
1FC
100
AcDbSymbolTableRecord
100
AcDbLayerTableRecord
  2
DEFAULT_3
 70
0
 62
7
  6
PHANTOM
370
-3
390
F
  0
LAYER
  5
1FD
100
AcDbSymbolTableRecord
100
AcDbLayerTableRecord
  2
ASSI
 70
0
 62
7
  6
CONTINUOUS
370
-3
390
F
  0
LAYER
  5
1FE
100
AcDbSymbolTableRecord
100
AcDbLayerTableRecord
  2
COORDINATE
 70
0
 62
7
  6
CONTINUOUS
370
-3
390
F
  0
LAYER
  5
1FF
100
AcDbSymbolTableRecord
100
AcDbLayerTableRecord
  2
COPY_PUBLISH
 70
0
 62
7
  6
CONTINUOUS
370
-3
390
F
  0
LAYER
  5
200
100
AcDbSymbolTableRecord
100
AcDbLayerTableRecord
  2
COSMETICI
 70
0
 62
7
  6
CONTINUOUS
370
-3
390
F
  0
LAYER
  5
201
100
AcDbSymbolTableRecord
100
AcDbLayerTableRecord
  2
CURVE
 70
0
 62
7
  6
CONTINUOUS
370
-3
390
F
  0
LAYER
  5
202
100
AcDbSymbolTableRecord
100
AcDbLayerTableRecord
  2
DRAFT
 70
0
 62
7
  6
CONTINUOUS
370
-3
390
F
  0
LAYER
  5
203
100
AcDbSymbolTableRecord
100
AcDbLayerTableRecord
  2
IMPORT_IGES
 70
0
 62
7
  6
CONTINUOUS
370
-3
390
F
  0
LAYER
  5
204
100
AcDbSymbolTableRecord
100
AcDbLayerTableRecord
  2
INTFCLR_1
 70
0
 62
7
  6
CONTINUOUS
370
-3
390
F
  0
LAYER
  5
205
100
AcDbSymbolTableRecord
100
AcDbLayerTableRecord
  2
INTFCLR_383
 70
0
 62
7
  6
CONTINUOUS
370
-3
390
F
  0
LAYER
  5
206
100
AcDbSymbolTableRecord
100
AcDbLayerTableRecord
  2
INTF_2
 70
0
 62
7
  6
CONTINUOUS
370
-3
390
F
  0
LAYER
  5
207
100
AcDbSymbolTableRecord
100
AcDbLayerTableRecord
  2
INTF_5
 70
0
 62
7
  6
CONTINUOUS
370
-3
390
F
  0
LAYER
  5
208
100
AcDbSymbolTableRecord
100
AcDbLayerTableRecord
  2
INTF_9
 70
0
 62
7
  6
CONTINUOUS
370
-3
390
F
  0
LAYER
  5
209
100
AcDbSymbolTableRecord
100
AcDbLayerTableRecord
  2
NOTE
 70
0
 62
7
  6
CONTINUOUS
370
-3
390
F
  0
LAYER
  5
20A
100
AcDbSymbolTableRecord
100
AcDbLayerTableRecord
  2
PIANI
 70
0
 62
7
  6
CONTINUOUS
370
-3
390
F
  0
LAYER
  5
20B
100
AcDbSymbolTableRecord
100
AcDbLayerTableRecord
  2
PUNTI
 70
0
 62
7
  6
CONTINUOUS
370
-3
390
F
  0
LAYER
  5
20C
100
AcDbSymbolTableRecord
100
AcDbLayerTableRecord
  2
RACCORDO
 70
0
 62
7
  6
CONTINUOUS
370
-3
390
F
  0
LAYER
  5
20D
100
AcDbSymbolTableRecord
100
AcDbLayerTableRecord
  2
SIMBOLI
 70
0
 62
7
  6
CONTINUOUS
370
-3
390
F
  0
LAYER
  5
20E
100
AcDbSymbolTableRecord
100
AcDbLayerTableRecord
  2
SMUSSO
 70
0
 62
7
  6
CONTINUOUS
370
-3
390
F
  0
LAYER
  5
20F
100
AcDbSymbolTableRecord
100
AcDbLayerTableRecord
  2
SNAPLINE
 70
0
 62
7
  6
CONTINUOUS
370
-3
390
F
  0
LAYER
  5
210
100
AcDbSymbolTableRecord
100
AcDbLayerTableRecord
  2
SUPERFICI
 70
0
 62
7
  6
CONTINUOUS
370
-3
390
F
  0
LAYER
  5
211
100
AcDbSymbolTableRecord
100
AcDbLayerTableRecord
  2
TRASH
 70
0
 62
7
  6
CONTINUOUS
370
-3
390
F
  0
ENDTAB
  0
TABLE
  2
STYLE
  5
3
100
AcDbSymbolTable
 70
1
  0
STYLE
  5
11
100
AcDbSymbolTableRecord
100
AcDbTextStyleTableRecord
  2
STANDARD
 70
0
 40
0.0
 41
0.8
 50
0.0
 71
0
 42
0.2
  3
txt
  4

  0
STYLE
  5
212
100
AcDbSymbolTableRecord
100
AcDbTextStyleTableRecord
  2
TEXTSTYLE_1
 70
0
 40
0.0
 41
0.8
 50
0.0
 71
0
 42
0.2
  3
gdt
  4

  0
ENDTAB
  0
TABLE
  2
VIEW
  5
6
100
AcDbSymbolTable
 70
0
  0
ENDTAB
  0
TABLE
  2
UCS
  5
7
100
AcDbSymbolTable
 70
0
  0
ENDTAB
  0
TABLE
  2
APPID
  5
9
100
AcDbSymbolTable
 70
1
  0
APPID
  5
213
100
AcDbSymbolTableRecord
100
AcDbRegAppTableRecord
  2
ACAD
 70
0
  0
ENDTAB
  0
TABLE
  2
BLOCK_RECORD
  5
1
100
AcDbSymbolTable
 70
0
  0
BLOCK_RECORD
  5
214
100
AcDbSymbolTableRecord
100
AcDbBlockTableRecord
  2
*Model_Space
  0
BLOCK_RECORD
  5
215
100
AcDbSymbolTableRecord
100
AcDbBlockTableRecord
  2
*Paper_Space
  0
ENDTAB
  0
TABLE
  2
DIMSTYLE
  5
A
100
AcDbSymbolTable
 70
1
100
AcDbDimStyleTable
 71
0
  0
DIMSTYLE
105
216
100
AcDbSymbolTableRecord
100
AcDbDimStyleTableRecord
  2
STANDARD
 70
0
  3

  4

 40
1.0
 41
3.0
 42
0.0625
 43
0.38
 44
0.18
 45
0.0
 46
0.0
 47
0.01
 48
0.01
140
3.0
141
0.09
142
0.0
143
25.4
144
1.0
145
0.0
146
1.0
147
0.09
 71
1.0
 72
0.0
 73
0
 74
0
 75
0
 76
0
 77
1
 78
8
170
0
171
2
172
0
173
0
174
0
175
0
176
0
177
0
178
0
270
2
271
2
272
2
273
2
274
2
275
0
280
0
281
0
282
0
283
1
284
8
285
0
286
0
287
3
288
0
340
11
  0
ENDTAB
  0
ENDSEC
  0
SECTION
  2
BLOCKS
  0
BLOCK
  5
20
100
AcDbEntity
  8
0
100
AcDbBlockBegin
  2
*Model_Space
 70
0
 10
0.0
 20
0.0
 30
0.0
  3
*Model_Space
  1

  0
ENDBLK
  5
21
100
AcDbEntity
  8
0
100
AcDbBlockEnd
  0
BLOCK
  5
1C
100
AcDbEntity
  8
0
100
AcDbBlockBegin
  2
*Paper_Space
 70
0
 10
0.0
 20
0.0
 30
0.0
  3
*Paper_Space
  1

  0
ENDBLK
  5
1D
100
AcDbEntity
  8
0
100
AcDbBlockEnd
  0
ENDSEC
  0
SECTION
  2
ENTITIES
  0
LWPOLYLINE
  5
217
100
AcDbEntity
  8
DRAFT
100
AcDbPolyline
 62
7
  6
CONTINUOUS
 90
3
 70
0
 10
135.9288606493
 20
121.5587776307
 10
135.9554006873
 20
121.5695748276
 10
135.9818481002
 20
121.5804759044
  0
LWPOLYLINE
  5
218
100
AcDbEntity
  8
DRAFT
100
AcDbPolyline
 62
7
  6
CONTINUOUS
 90
7
 70
0
 10
135.7391470429
 20
121.4861419017
 10
135.7669309409
 20
121.4961959338
 10
135.7944733425
 20
121.5063578471
 10
135.8217742479
 20
121.5166276418
 10
135.8487840332
 20
121.5270066516
 10
135.8755523223
 20
121.5374935426
 10
135.9288606493
 20
121.5587776307
  0
LINE
  5
219
100
AcDbEntity
  8
RACCORDO
100
AcDbLine
 62
7
  6
CONTINUOUS
 10
140.088754728
 20
78.5525994814
 11
139.8555378025
 21
78.5314070851
  0
LINE
  5
21A
100
AcDbEntity
  8
RACCORDO
100
AcDbLine
 62
7
  6
CONTINUOUS
 10
131.8540850678
 20
78.5314070851
 11
139.8555378025
 21
78.5314070851
  0
LINE
  5
21B
100
AcDbEntity
  8
RACCORDO
100
AcDbLine
 62
7
  6
CONTINUOUS
 10
144.9951767342
 20
78.5314070851
 11
152.9966294689
 21
78.5314070851
  0
LINE
  5
21C
100
AcDbEntity
  8
RACCORDO
100
AcDbLine
 62
7
  6
CONTINUOUS
 10
140.3485623491
 20
78.5604690447
 11
144.5021521876
 21
78.5604690447
  0
LINE
  5
21D
100
AcDbEntity
  8
RACCORDO
100
AcDbLine
 62
7
  6
CONTINUOUS
 10
144.7619598087
 20
78.5525994814
 11
144.9951767342
 21
78.5314070851
  0
LINE
  5
21E
100
AcDbEntity
  8
DRAFT
100
AcDbLine
 62
7
  6
CONTINUOUS
 10
132.585584888
 20
118.8465653734
 11
132.5517485063
 21
118.8350044348
  0
LINE
  5
21F
100
AcDbEntity
  8
DRAFT
100
AcDbLine
 62
7
  6
CONTINUOUS
 10
132.5517485063
 20
118.8350044348
 11
132.5177059832
 21
118.823596871
  0
LINE
  5
220
100
AcDbEntity
  8
DRAFT
100
AcDbLine
 62
7
  6
CONTINUOUS
 10
132.5177059832
 20
118.823596871
 11
132.4834597938
 21
118.8123349371
  0
LWPOLYLINE
  5
221
100
AcDbEntity
  8
RACCORDO
100
AcDbPolyline
 62
7
  6
CONTINUOUS
 90
10
 70
0
 10
140.088754728
 20
80.129137607
 10
140.108494185
 20
80.1327552156
 10
140.1308179644
 20
80.1359974818
 10
140.1557260662
 20
80.1388644055
 10
140.1836215682
 20
80.1413843479
 10
140.2141013925
 20
80.1435289479
 10
140.2459563061
 20
80.1452131223
 10
140.2787832312
 20
80.14640851
 10
140.3129852455
 20
80.1471434721
 10
140.3485623491
 20
80.1474180085
  0
LINE
  5
222
100
AcDbEntity
  8
RACCORDO
100
AcDbLine
 62
253
  6
CONTINUOUS
 10
134.5181651164
 20
80.4710366954
 11
132.8948932508
 21
80.4594480918
  0
LINE
  5
223
100
AcDbEntity
  8
RACCORDO
100
AcDbLine
 62
253
  6
CONTINUOUS
 10
134.5151010143
 20
80.660582028
 11
132.8822852575
 21
80.6494214908
  0
LWPOLYLINE
  5
224
100
AcDbEntity
  8
RACCORDO
100
AcDbPolyline
 62
253
  6
CONTINUOUS
 90
13
 70
0
 10
152.0684325616
 20
80.7497778467
 10
152.0930442631
 20
80.7499283324
 10
152.1170807609
 20
80.7502066824
 10
152.1401722231
 20
80.7506086141
 10
152.1619633582
 20
80.751127943
 10
152.182118882
 20
80.7517566788
 10
152.200328676
 20
80.7524851476
 10
152.2163125597
 20
80.7533021408
 10
152.2298246005
 20
80.7541950881
 10
152.2406568987
 20
80.7551502504
 10
152.2486427856
 20
80.7561529313
 10
152.2536593882
 20
80.7571877034
 10
152.2556295197
 20
80.7582386453
  0
LINE
  5
225
100
AcDbEntity
  8
RACCORDO
100
AcDbLine
 62
253
  6
CONTINUOUS
 10
136.9162927467
 20
80.4842075481
 11
135.5334238277
 21
80.4771875589
  0
LINE
  5
226
100
AcDbEntity
  8
RACCORDO
100
AcDbLine
 62
253
  6
CONTINUOUS
 10
136.9132307503
 20
80.6731868592
 11
135.5364917142
 21
80.6665013733
  0
LINE
  5
227
100
AcDbEntity
  8
RACCORDO
100
AcDbLine
 62
7
  6
CONTINUOUS
 10
132.8409379755
 20
80.0799092701
 11
139.8555378025
 21
80.0799092701
  0
LINE
  5
228
100
AcDbEntity
  8
RACCORDO
100
AcDbLine
 62
7
  6
CONTINUOUS
 10
144.9951767342
 20
80.0799092701
 11
152.0097765612
 21
80.0799092701
  0
LINE
  5
229
100
AcDbEntity
  8
RACCORDO
100
AcDbLine
 62
7
  6
CONTINUOUS
 10
140.3485623491
 20
80.1474180085
 11
144.5021521876
 21
80.1474180085
  0
LINE
  5
22A
100
AcDbEntity
  8
RACCORDO
100
AcDbLine
 62
7
  6
CONTINUOUS
 10
147.5279639052
 20
80.2853817601
 11
147.3227506315
 21
80.2853817601
  0
LINE
  5
22B
100
AcDbEntity
  8
RACCORDO
100
AcDbLine
 62
7
  6
CONTINUOUS
 10
137.5279639052
 20
80.2853817601
 11
137.3227506315
 21
80.2853817601
  0
LINE
  5
22C
100
AcDbEntity
  8
RACCORDO
100
AcDbLine
 62
7
  6
CONTINUOUS
 10
134.721896721
 20
80.4204447771
 11
135.3288178157
 21
80.4204447771
  0
LINE
  5
22D
100
AcDbEntity
  8
RACCORDO
100
AcDbLine
 62
7
  6
CONTINUOUS
 10
149.521896721
 20
80.4204447771
 11
150.1288178157
 21
80.4204447771
  0
LWPOLYLINE
  5
22E
100
AcDbEntity
  8
RACCORDO
100
AcDbPolyline
 62
253
  6
CONTINUOUS
 90
7
 70
0
 10
146.9126353719
 20
80.6771996894
 10
145.3974524646
 20
80.6815923931
 10
143.8898636059
 20
80.6842176963
 10
142.3900034013
 20
80.685083263
 10
140.8980023242
 20
80.6841966936
 10
139.4139867723
 20
80.6815661534
 10
137.9380791245
 20
80.6771996894
  0
LWPOLYLINE
  5
22F
100
AcDbEntity
  8
RACCORDO
100
AcDbPolyline
 62
253
  6
CONTINUOUS
 90
7
 70
0
 10
146.9156999656
 20
80.4883773618
 10
145.3988803602
 20
80.4929621969
 10
143.8900762373
 20
80.495713098
 10
142.3892875969
 20
80.496630065
 10
140.8965144391
 20
80.495713098
 10
139.4117567638
 20
80.4929621969
 10
137.9350145711
 20
80.4883773618
  0
LINE
  5
230
100
AcDbEntity
  8
RACCORDO
100
AcDbLine
 62
253
  6
CONTINUOUS
 10
149.3142228318
 20
80.6665013733
 11
147.9374837641
 21
80.6731868593
  0
LINE
  5
231
100
AcDbEntity
  8
RACCORDO
100
AcDbLine
 62
253
  6
CONTINUOUS
 10
149.3172907091
 20
80.4771875589
 11
147.93442179
 21
80.4842075481
  0
LWPOLYLINE
  5
232
100
AcDbEntity
  8
RACCORDO
100
AcDbPolyline
 62
253
  6
CONTINUOUS
 90
13
 70
0
 10
132.7822819752
 20
80.7497778467
 10
132.7576702614
 20
80.7499283299
 10
132.7336337508
 20
80.7502066779
 10
132.7105422756
 20
80.7506086079
 10
132.6887511277
 20
80.7511279358
 10
132.6685955915
 20
80.7517566709
 10
132.6503857857
 20
80.7524851395
 10
132.6344018913
 20
80.7533021332
 10
132.6208898409
 20
80.7541950813
 10
132.6100575345
 20
80.7551502448
 10
132.6020716411
 20
80.7561529273
 10
132.5970550336
 20
80.7571877013
 10
132.5950848991
 20
80.7582386453
  0
LINE
  5
233
100
AcDbEntity
  8
RACCORDO
100
AcDbLine
 62
253
  6
CONTINUOUS
 10
151.9684292792
 20
80.6494214908
 11
150.3356135118
 21
80.660582028
  0
LWPOLYLINE
  5
234
100
AcDbEntity
  8
RACCORDO
100
AcDbPolyline
 62
7
  6
CONTINUOUS
 90
10
 70
0
 10
144.5021521876
 20
80.1474180085
 10
144.5377292912
 20
80.1471434721
 10
144.5719313055
 20
80.14640851
 10
144.6047582306
 20
80.1452131223
 10
144.6366131442
 20
80.1435289479
 10
144.6670929685
 20
80.1413843479
 10
144.6949884705
 20
80.1388644055
 10
144.7198965723
 20
80.1359974818
 10
144.7422203517
 20
80.1327552156
 10
144.7619598087
 20
80.129137607
  0
LINE
  5
235
100
AcDbEntity
  8
RACCORDO
100
AcDbLine
 62
253
  6
CONTINUOUS
 10
151.9558212859
 20
80.4594480918
 11
150.3325494203
 21
80.4710366954
  0
LWPOLYLINE
  5
236
100
AcDbEntity
  8
RACCORDO
100
AcDbPolyline
 62
253
  6
CONTINUOUS
 90
16
 70
0
 10
132.8822852575
 20
80.6494214908
 10
132.8716324614
 20
80.6499475747
 10
132.8613211094
 20
80.6515201631
 10
132.8513512041
 20
80.6541392634
 10
132.8416237861
 20
80.6578557981
 10
132.8322378191
 20
80.6626188594
 10
132.8234901841
 20
80.6682757094
 10
132.8153995374
 20
80.6748550871
 10
132.8079472119
 20
80.6823282672
 10
132.8013740949
 20
80.6904563144
 10
132.7957085467
 20
80.6992603707
 10
132.7909221862
 20
80.7087193012
 10
132.7871707822
 20
80.718530751
 10
132.7845062494
 20
80.7285939336
 10
132.7828766504
 20
80.739009633
 10
132.7822819751
 20
80.7497778467
  0
LWPOLYLINE
  5
237
100
AcDbEntity
  8
RACCORDO
100
AcDbPolyline
 62
253
  6
CONTINUOUS
 90
16
 70
0
 10
132.8948932508
 20
80.4594480918
 10
132.8635767038
 20
80.4610468674
 10
132.8326072197
 20
80.4659027769
 10
132.8023227761
 20
80.4739614876
 10
132.7730550443
 20
80.4851335192
 10
132.7451219615
 20
80.4992963654
 10
132.7188248828
 20
80.5162970809
 10
132.6944511496
 20
80.5359517874
 10
132.6722675717
 20
80.5580462044
 10
132.6525148786
 20
80.5823407159
 10
132.6354092383
 20
80.6085748434
 10
132.6211405685
 20
80.6364615637
 10
132.6098670601
 20
80.6656900877
 10
132.6017126943
 20
80.6959399843
 10
132.596767051
 20
80.7268852421
 10
132.5950849648
 20
80.7581896626
  0
LINE
  5
238
100
AcDbEntity
  8
RACCORDO
100
AcDbLine
 62
7
  6
CONTINUOUS
 10
140.088754728
 20
80.129137607
 11
139.8555378025
 21
80.0799092701
  0
LWPOLYLINE
  5
239
100
AcDbEntity
  8
RACCORDO
100
AcDbPolyline
 62
253
  6
CONTINUOUS
 90
16
 70
0
 10
147.3227506315
 20
81.5287371155
 10
147.2913947524
 20
81.5270915129
 10
147.2603823784
 20
81.5221775078
 10
147.2300532562
 20
81.5140489328
 10
147.2007396375
 20
81.5027948322
 10
147.1727626698
 20
81.4885384979
 10
147.1464288731
 20
81.4714361289
 10
147.1220267467
 20
81.4516751032
 10
147.0998235996
 20
81.4294719043
 10
147.0800626535
 20
81.4050697634
 10
147.0629603885
 20
81.3787360091
 10
147.0487041606
 20
81.3507591343
 10
147.0374501417
 20
81.3214456197
 10
147.0293216203
 20
81.2911165944
 10
147.0244076469
 20
81.2601043197
 10
147.0227620546
 20
81.2287485386
  0
LWPOLYLINE
  5
23A
100
AcDbEntity
  8
RACCORDO
100
AcDbPolyline
 62
253
  6
CONTINUOUS
 90
16
 70
0
 10
137.3227506315
 20
81.5287371155
 10
137.2913947524
 20
81.5270915129
 10
137.2603823784
 20
81.5221775078
 10
137.2300532562
 20
81.5140489328
 10
137.2007396375
 20
81.5027948322
 10
137.1727626698
 20
81.4885384979
 10
137.1464288731
 20
81.4714361289
 10
137.1220267467
 20
81.4516751032
 10
137.0998235996
 20
81.4294719043
 10
137.0800626535
 20
81.4050697634
 10
137.0629603885
 20
81.3787360091
 10
137.0487041606
 20
81.3507591343
 10
137.0374501417
 20
81.3214456197
 10
137.0293216203
 20
81.2911165944
 10
137.0244076469
 20
81.2601043197
 10
137.0227620546
 20
81.2287485386
  0
LINE
  5
23B
100
AcDbEntity
  8
RACCORDO
100
AcDbLine
 62
253
  6
CONTINUOUS
 10
137.0227620546
 20
81.2287485386
 11
137.8279524821
 21
81.2287485386
  0
LINE
  5
23C
100
AcDbEntity
  8
RACCORDO
100
AcDbLine
 62
253
  6
CONTINUOUS
 10
147.0227620546
 20
81.2287485386
 11
147.8279524821
 21
81.2287485386
  0
LINE
  5
23D
100
AcDbEntity
  8
RACCORDO
100
AcDbLine
 62
7
  6
CONTINUOUS
 10
147.5279639052
 20
81.5287371155
 11
147.3227506315
 21
81.5287371155
  0
LINE
  5
23E
100
AcDbEntity
  8
RACCORDO
100
AcDbLine
 62
7
  6
CONTINUOUS
 10
137.5279639052
 20
81.5287371155
 11
137.3227506315
 21
81.5287371155
  0
LINE
  5
23F
100
AcDbEntity
  8
RACCORDO
100
AcDbLine
 62
7
  6
CONTINUOUS
 10
147.534968246
 20
81.5357414563
 11
147.3157462907
 21
81.5357414563
  0
LINE
  5
240
100
AcDbEntity
  8
RACCORDO
100
AcDbLine
 62
7
  6
CONTINUOUS
 10
137.534968246
 20
81.5357414563
 11
137.3157462907
 21
81.5357414563
  0
LINE
  5
241
100
AcDbEntity
  8
RACCORDO
100
AcDbLine
 62
7
  6
CONTINUOUS
 10
144.7619598087
 20
80.129137607
 11
144.9951767342
 21
80.0799092701
  0
LINE
  5
242
100
AcDbEntity
  8
RACCORDO
100
AcDbLine
 62
253
  6
CONTINUOUS
 10
134.5134093137
 20
82.9381355478
 11
134.5219271819
 21
82.9296768233
  0
LINE
  5
243
100
AcDbEntity
  8
RACCORDO
100
AcDbLine
 62
253
  6
CONTINUOUS
 10
137.0227620546
 20
120.2235352649
 11
137.0094299862
 21
120.2102031965
  0
LINE
  5
244
100
AcDbEntity
  8
RACCORDO
100
AcDbLine
 62
253
  6
CONTINUOUS
 10
137.3227506315
 20
119.923546688
 11
137.3092043834
 21
119.9100004398
  0
LWPOLYLINE
  5
245
100
AcDbEntity
  8
DRAFT
100
AcDbPolyline
 62
7
  6
CONTINUOUS
 90
7
 70
0
 10
149.9391470429
 20
121.4861419017
 10
149.9669309409
 20
121.4961959338
 10
149.9944733425
 20
121.5063578471
 10
150.0217742479
 20
121.5166276418
 10
150.0487840332
 20
121.5270066516
 10
150.0755523223
 20
121.5374935426
 10
150.1288606493
 20
121.5587776307
  0
LWPOLYLINE
  5
246
100
AcDbEntity
  8
RACCORDO
100
AcDbPolyline
 62
253
  6
CONTINUOUS
 90
16
 70
0
 10
149.6218814905
 20
83.0296024491
 10
149.6113117682
 20
83.0290209479
 10
149.6010609146
 20
83.0274052484
 10
149.5911289297
 20
83.0247553505
 10
149.5814100955
 20
83.021020187
 10
149.5720101299
 20
83.0162508252
 10
149.5632461873
 20
83.0106004667
 10
149.555143551
 20
83.0040416232
 10
149.5476769376
 20
82.9966017829
 10
149.5410876511
 20
82.9885166127
 10
149.5354028552
 20
82.9797649391
 10
149.5305953862
 20
82.9703679355
 10
149.5268250571
 20
82.9606247891
 10
149.5241451386
 20
82.9506352288
 10
149.5225023599
 20
82.9402995256
 10
149.521896721
 20
82.9296176796
  0
LWPOLYLINE
  5
247
100
AcDbEntity
  8
RACCORDO
100
AcDbPolyline
 62
253
  6
CONTINUOUS
 90
16
 70
0
 10
147.2218814905
 20
83.0296024491
 10
147.2113117682
 20
83.0290209479
 10
147.2010609146
 20
83.0274052484
 10
147.1911289297
 20
83.0247553505
 10
147.1814100955
 20
83.021020187
 10
147.1720101299
 20
83.0162508252
 10
147.1632461873
 20
83.0106004667
 10
147.155143551
 20
83.0040416232
 10
147.1476769376
 20
82.9966017829
 10
147.1410876511
 20
82.9885166127
 10
147.1354028552
 20
82.9797649391
 10
147.1305953862
 20
82.9703679355
 10
147.1268250571
 20
82.9606247891
 10
147.1241451386
 20
82.9506352288
 10
147.1225023599
 20
82.9402995256
 10
147.121896721
 20
82.9296176796
  0
LWPOLYLINE
  5
248
100
AcDbEntity
  8
RACCORDO
100
AcDbPolyline
 62
253
  6
CONTINUOUS
 90
16
 70
0
 10
137.2218814905
 20
83.0296024491
 10
137.2113117682
 20
83.0290209479
 10
137.2010609146
 20
83.0274052484
 10
137.1911289297
 20
83.0247553505
 10
137.1814100955
 20
83.021020187
 10
137.1720101299
 20
83.0162508252
 10
137.1632461873
 20
83.0106004667
 10
137.155143551
 20
83.0040416232
 10
137.1476769376
 20
82.9966017829
 10
137.1410876511
 20
82.9885166127
 10
137.1354028552
 20
82.9797649391
 10
137.1305953862
 20
82.9703679355
 10
137.1268250571
 20
82.9606247891
 10
137.1241451386
 20
82.9506352288
 10
137.1225023599
 20
82.9402995256
 10
137.121896721
 20
82.9296176796
  0
LWPOLYLINE
  5
249
100
AcDbEntity
  8
RACCORDO
100
AcDbPolyline
 62
253
  6
CONTINUOUS
 90
16
 70
0
 10
134.8218814905
 20
83.0296024491
 10
134.8113117682
 20
83.0290209479
 10
134.8010609146
 20
83.0274052484
 10
134.7911289297
 20
83.0247553505
 10
134.7814100955
 20
83.021020187
 10
134.7720101299
 20
83.0162508252
 10
134.7632461873
 20
83.0106004667
 10
134.755143551
 20
83.0040416232
 10
134.7476769376
 20
82.9966017829
 10
134.7410876511
 20
82.9885166127
 10
134.7354028552
 20
82.9797649391
 10
134.7305953862
 20
82.9703679355
 10
134.7268250571
 20
82.9606247891
 10
134.7241451386
 20
82.9506352288
 10
134.7225023599
 20
82.9402995256
 10
134.721896721
 20
82.9296176796
  0
LWPOLYLINE
  5
24A
100
AcDbEntity
  8
RACCORDO
100
AcDbPolyline
 62
253
  6
CONTINUOUS
 90
16
 70
0
 10
149.6218814905
 20
83.2295719881
 10
149.5905306901
 20
83.2279229485
 10
149.5595236473
 20
83.2230064919
 10
149.5291999205
 20
83.2148764982
 10
149.4998915852
 20
83.2036220559
 10
149.4719196047
 20
83.1893664322
 10
149.4455903206
 20
83.1722657107
 10
149.4211920588
 20
83.152507137
 10
149.3989920565
 20
83.1303071456
 10
149.3792335194
 20
83.1059089545
 10
149.3621318097
 20
83.0795779855
 10
149.3478755954
 20
83.0516042015
 10
149.336622917
 20
83.0223000293
 10
149.3284955556
 20
82.9919890747
 10
149.3235797069
 20
82.961001589
 10
149.3219272008
 20
82.9296768104
  0
LWPOLYLINE
  5
24B
100
AcDbEntity
  8
RACCORDO
100
AcDbPolyline
 62
253
  6
CONTINUOUS
 90
16
 70
0
 10
147.2218814905
 20
83.2295719881
 10
147.1905306901
 20
83.2279229485
 10
147.1595236473
 20
83.2230064919
 10
147.1291999205
 20
83.2148764982
 10
147.0998915852
 20
83.2036220559
 10
147.0719196047
 20
83.1893664322
 10
147.0455903206
 20
83.1722657107
 10
147.0211920588
 20
83.152507137
 10
146.9989920565
 20
83.1303071456
 10
146.9792335194
 20
83.1059089545
 10
146.9621318097
 20
83.0795779855
 10
146.9478755954
 20
83.0516042015
 10
146.936622917
 20
83.0223000293
 10
146.9284955556
 20
82.9919890747
 10
146.9235797069
 20
82.961001589
 10
146.9219272008
 20
82.9296768103
  0
LWPOLYLINE
  5
24C
100
AcDbEntity
  8
RACCORDO
100
AcDbPolyline
 62
253
  6
CONTINUOUS
 90
16
 70
0
 10
137.2218814905
 20
83.2295719881
 10
137.1905306901
 20
83.2279229485
 10
137.1595236473
 20
83.2230064919
 10
137.1291999205
 20
83.2148764982
 10
137.0998915852
 20
83.2036220559
 10
137.0719196047
 20
83.1893664322
 10
137.0455903206
 20
83.1722657107
 10
137.0211920588
 20
83.152507137
 10
136.9989920565
 20
83.1303071456
 10
136.9792335194
 20
83.1059089545
 10
136.9621318097
 20
83.0795779855
 10
136.9478755954
 20
83.0516042015
 10
136.936622917
 20
83.0223000293
 10
136.9284955556
 20
82.9919890747
 10
136.9235797069
 20
82.961001589
 10
136.9219272008
 20
82.9296768104
  0
LWPOLYLINE
  5
24D
100
AcDbEntity
  8
RACCORDO
100
AcDbPolyline
 62
253
  6
CONTINUOUS
 90
16
 70
0
 10
134.8218814905
 20
83.2295719881
 10
134.7905306901
 20
83.2279229485
 10
134.7595236473
 20
83.2230064919
 10
134.7291999205
 20
83.2148764982
 10
134.6998915852
 20
83.2036220559
 10
134.6719196047
 20
83.1893664322
 10
134.6455903206
 20
83.1722657107
 10
134.6211920588
 20
83.152507137
 10
134.5989920565
 20
83.1303071456
 10
134.5792335194
 20
83.1059089545
 10
134.5621318097
 20
83.0795779855
 10
134.5478755954
 20
83.0516042015
 10
134.536622917
 20
83.0223000293
 10
134.5284955556
 20
82.9919890747
 10
134.5235797069
 20
82.961001589
 10
134.5219272008
 20
82.9296768104
  0
LINE
  5
24E
100
AcDbEntity
  8
RACCORDO
100
AcDbLine
 62
7
  6
CONTINUOUS
 10
135.2382303887
 20
83.2389693307
 11
134.8128704086
 21
83.2385830701
  0
LINE
  5
24F
100
AcDbEntity
  8
RACCORDO
100
AcDbLine
 62
7
  6
CONTINUOUS
 10
137.6399941312
 20
83.2407330732
 11
137.210983478
 21
83.2404700007
  0
LINE
  5
250
100
AcDbEntity
  8
RACCORDO
100
AcDbLine
 62
253
  6
CONTINUOUS
 10
147.7288178157
 20
82.9296176796
 11
147.9287873548
 21
82.9296176921
  0
LINE
  5
251
100
AcDbEntity
  8
RACCORDO
100
AcDbLine
 62
253
  6
CONTINUOUS
 10
150.1288178157
 20
82.9296176796
 11
150.3287873548
 21
82.9296176921
  0
LINE
  5
252
100
AcDbEntity
  8
RACCORDO
100
AcDbLine
 62
253
  6
CONTINUOUS
 10
149.521896721
 20
82.9296176796
 11
149.3219271819
 21
82.9296176796
  0
LINE
  5
253
100
AcDbEntity
  8
RACCORDO
100
AcDbLine
 62
253
  6
CONTINUOUS
 10
147.121896721
 20
82.9296176796
 11
146.9219271819
 21
82.9296176796
  0
LINE
  5
254
100
AcDbEntity
  8
RACCORDO
100
AcDbLine
 62
253
  6
CONTINUOUS
 10
137.121896721
 20
82.9296176796
 11
136.9219271819
 21
82.9296176796
  0
LINE
  5
255
100
AcDbEntity
  8
RACCORDO
100
AcDbLine
 62
253
  6
CONTINUOUS
 10
134.721896721
 20
82.9296176796
 11
134.5219271819
 21
82.9296176796
  0
LINE
  5
256
100
AcDbEntity
  8
RACCORDO
100
AcDbLine
 62
253
  6
CONTINUOUS
 10
135.3288178157
 20
82.9296176796
 11
135.5287873548
 21
82.9296176921
  0
LINE
  5
257
100
AcDbEntity
  8
RACCORDO
100
AcDbLine
 62
253
  6
CONTINUOUS
 10
137.7288178157
 20
82.9296176796
 11
137.9287873548
 21
82.9296176921
  0
LINE
  5
258
100
AcDbEntity
  8
RACCORDO
100
AcDbLine
 62
253
  6
CONTINUOUS
 10
150.0288330462
 20
83.0296024491
 11
149.6218814905
 21
83.0296024491
  0
LINE
  5
259
100
AcDbEntity
  8
RACCORDO
100
AcDbLine
 62
253
  6
CONTINUOUS
 10
147.6288330462
 20
83.0296024491
 11
147.2218814905
 21
83.0296024491
  0
LINE
  5
25A
100
AcDbEntity
  8
RACCORDO
100
AcDbLine
 62
253
  6
CONTINUOUS
 10
137.6288330462
 20
83.0296024491
 11
137.2218814905
 21
83.0296024491
  0
LINE
  5
25B
100
AcDbEntity
  8
RACCORDO
100
AcDbLine
 62
253
  6
CONTINUOUS
 10
135.2288330462
 20
83.0296024491
 11
134.8218814905
 21
83.0296024491
  0
LINE
  5
25C
100
AcDbEntity
  8
RACCORDO
100
AcDbLine
 62
253
  6
CONTINUOUS
 10
150.0288921899
 20
83.2295719881
 11
149.6218814905
 21
83.2295719881
  0
LINE
  5
25D
100
AcDbEntity
  8
RACCORDO
100
AcDbLine
 62
253
  6
CONTINUOUS
 10
147.6288921899
 20
83.2295719881
 11
147.2218814905
 21
83.2295719881
  0
LINE
  5
25E
100
AcDbEntity
  8
RACCORDO
100
AcDbLine
 62
253
  6
CONTINUOUS
 10
137.6288921899
 20
83.2295719881
 11
137.2218814905
 21
83.2295719881
  0
LINE
  5
25F
100
AcDbEntity
  8
RACCORDO
100
AcDbLine
 62
253
  6
CONTINUOUS
 10
135.2288921899
 20
83.2295719881
 11
134.8218814905
 21
83.2295719881
  0
LINE
  5
260
100
AcDbEntity
  8
RACCORDO
100
AcDbLine
 62
7
  6
CONTINUOUS
 10
147.6397310587
 20
83.2404700007
 11
147.2107204055
 21
83.2407330732
  0
LINE
  5
261
100
AcDbEntity
  8
RACCORDO
100
AcDbLine
 62
7
  6
CONTINUOUS
 10
150.0378441281
 20
83.2385830701
 11
149.612484148
 21
83.2389693307
  0
LWPOLYLINE
  5
262
100
AcDbEntity
  8
RACCORDO
100
AcDbPolyline
 62
7
  6
CONTINUOUS
 90
16
 70
0
 10
135.2382303887
 20
83.2389693307
 10
135.269617332
 20
83.2373529308
 10
135.3006793641
 20
83.2324595475
 10
135.331074914
 20
83.2243359558
 10
135.3604970862
 20
83.2130521087
 10
135.3885884261
 20
83.1987320818
 10
135.4149594497
 20
83.181582109
 10
135.4392822249
 20
83.1618541652
 10
135.4613640082
 20
83.1397467339
 10
135.4810444318
 20
83.1154273235
 10
135.4981253163
 20
83.0891088691
 10
135.5123760001
 20
83.0611103838
 10
135.5236164083
 20
83.0317749627
 10
135.5317217576
 20
83.0014388001
 10
135.5366103538
 20
82.9704207797
 10
135.5382299676
 20
82.9390602924
  0
LWPOLYLINE
  5
263
100
AcDbEntity
  8
RACCORDO
100
AcDbPolyline
 62
7
  6
CONTINUOUS
 90
16
 70
0
 10
137.6399941312
 20
83.2407330732
 10
137.6713554796
 20
83.2391088601
 10
137.7023954711
 20
83.2342105943
 10
137.7327728205
 20
83.2260840635
 10
137.7621809257
 20
83.2147979833
 10
137.7902619814
 20
83.2004756197
 10
137.81662567
 20
83.1833231716
 10
137.840943678
 20
83.1635921519
 10
137.8630229681
 20
83.1414804291
 10
137.8827025759
 20
83.117155756
 10
137.8997836804
 20
83.090831265
 10
137.9140354662
 20
83.0628254307
 10
137.9252778101
 20
83.0334806055
 10
137.933385277
 20
83.003132704
 10
137.9382752157
 20
82.9721009349
 10
137.9398946319
 20
82.9407249568
  0
LWPOLYLINE
  5
264
100
AcDbEntity
  8
RACCORDO
100
AcDbPolyline
 62
7
  6
CONTINUOUS
 90
16
 70
0
 10
147.6397310587
 20
83.2404700007
 10
147.6710407113
 20
83.2388080004
 10
147.7020322697
 20
83.2338754783
 10
147.7323647239
 20
83.2257176444
 10
147.7617311831
 20
83.2144022327
 10
147.7897743383
 20
83.2000522918
 10
147.8161051231
 20
83.1828745362
 10
147.8403951915
 20
83.1631199795
 10
147.8624509835
 20
83.1409858547
 10
147.8821118766
 20
83.1166402773
 10
147.8991784112
 20
83.0902964731
 10
147.9134194508
 20
83.0622722485
 10
147.9246552476
 20
83.0329091501
 10
147.9327596326
 20
83.0025427233
 10
147.9376485455
 20
82.9714924537
 10
147.9392679606
 20
82.9400982855
  0
LWPOLYLINE
  5
265
100
AcDbEntity
  8
RACCORDO
100
AcDbPolyline
 62
7
  6
CONTINUOUS
 90
16
 70
0
 10
150.0378441281
 20
83.2385830701
 10
150.0691548963
 20
83.2369106459
 10
150.1001455293
 20
83.2319663996
 10
150.1304748545
 20
83.2237962672
 10
150.1598355652
 20
83.212468757
 10
150.1878709151
 20
83.1981076454
 10
150.2141932162
 20
83.1809199872
 10
150.2384744757
 20
83.1611570802
 10
150.2605212368
 20
83.1390164747
 10
150.280173699
 20
83.1146661926
 10
150.2972327441
 20
83.0883193387
 10
150.3114672764
 20
83.0602939192
 10
150.3226978417
 20
83.0309317015
 10
150.330798561
 20
83.0005682701
 10
150.3356856145
 20
82.9695229498
 10
150.337305223
 20
82.9381355478
  0
LINE
  5
266
100
AcDbEntity
  8
RACCORDO
100
AcDbLine
 62
253
  6
CONTINUOUS
 10
136.9114465761
 20
82.9400982855
 11
136.9219271819
 21
82.9296768233
  0
LINE
  5
267
100
AcDbEntity
  8
RACCORDO
100
AcDbLine
 62
253
  6
CONTINUOUS
 10
134.8128704086
 20
83.2385830701
 11
134.8218814905
 21
83.2295719881
  0
LINE
  5
268
100
AcDbEntity
  8
RACCORDO
100
AcDbLine
 62
253
  6
CONTINUOUS
 10
137.0154901896
 20
81.2360204036
 11
137.0227620546
 21
81.2287485386
  0
LINE
  5
269
100
AcDbEntity
  8
RACCORDO
100
AcDbLine
 62
253
  6
CONTINUOUS
 10
137.3227506315
 20
81.5287371155
 11
137.3157462907
 21
81.5357414563
  0
LWPOLYLINE
  5
26A
100
AcDbEntity
  8
DRAFT
100
AcDbPolyline
 62
7
  6
CONTINUOUS
 90
3
 70
0
 10
150.1288606493
 20
121.5587776307
 10
150.1554006873
 20
121.5695748276
 10
150.1818481002
 20
121.5804759044
  0
LINE
  5
26B
100
AcDbEntity
  8
DRAFT
100
AcDbLine
 62
7
  6
CONTINUOUS
 10
152.2651296487
 20
120.00571843
 11
152.2989660304
 21
120.0172793687
  0
LINE
  5
26C
100
AcDbEntity
  8
DRAFT
100
AcDbLine
 62
7
  6
CONTINUOUS
 10
152.2989660304
 20
120.0172793687
 11
152.3330085535
 21
120.0286869325
  0
LINE
  5
26D
100
AcDbEntity
  8
DRAFT
100
AcDbLine
 62
7
  6
CONTINUOUS
 10
152.3330085535
 20
120.0286869325
 11
152.3672547429
 21
120.0399488664
  0
LINE
  5
26E
100
AcDbEntity
  8
RACCORDO
100
AcDbLine
 62
253
  6
CONTINUOUS
 10
137.210983478
 20
83.2404700007
 11
137.2218814905
 21
83.2295719881
  0
LWPOLYLINE
  5
26F
100
AcDbEntity
  8
DRAFT
100
AcDbPolyline
 62
7
  6
CONTINUOUS
 90
10
 70
0
 10
135.6568094526
 20
121.2282943238
 10
135.6666403565
 20
121.2561566104
 10
135.676292353
 20
121.2842176145
 10
135.6857654421
 20
121.3124773361
 10
135.6950485083
 20
121.3409382504
 10
135.7041526671
 20
121.3695978822
 10
135.7131112653
 20
121.3984488058
 10
135.7219354184
 20
121.427488546
 10
135.730614011
 20
121.456719578
 10
135.7391470429
 20
121.4861419017
  0
LINE
  5
270
100
AcDbEntity
  8
RACCORDO
100
AcDbLine
 62
7
  6
CONTINUOUS
 10
132.5269646777
 20
86.8761419017
 11
132.7844651695
 21
86.8761419017
  0
LINE
  5
271
100
AcDbEntity
  8
RACCORDO
100
AcDbLine
 62
7
  6
CONTINUOUS
 10
152.0662493668
 20
86.8761419017
 11
152.323749859
 21
86.8761419017
  0
LINE
  5
272
100
AcDbEntity
  8
DRAFT
100
AcDbLine
 62
7
  6
CONTINUOUS
 10
132.5253572684
 20
87.8691598758
 11
132.9253572684
 21
87.8761419017
  0
LINE
  5
273
100
AcDbEntity
  8
DRAFT
100
AcDbLine
 62
7
  6
CONTINUOUS
 10
131.3253572684
 20
87.6261419017
 11
132.5253572684
 21
87.6261419017
  0
LINE
  5
274
100
AcDbEntity
  8
DRAFT
100
AcDbLine
 62
7
  6
CONTINUOUS
 10
152.3253572684
 20
87.6261419017
 11
153.5253572684
 21
87.6261419017
  0
LINE
  5
275
100
AcDbEntity
  8
DRAFT
100
AcDbLine
 62
7
  6
CONTINUOUS
 10
151.9253572684
 20
87.8761419017
 11
152.3253572684
 21
87.8691598758
  0
LWPOLYLINE
  5
276
100
AcDbEntity
  8
RACCORDO
100
AcDbPolyline
 62
253
  6
CONTINUOUS
 90
10
 70
0
 10
132.882285258
 20
80.6494214911
 10
132.8827644936
 20
80.6184361298
 10
132.883539263
 20
80.5884137501
 10
132.8845906921
 20
80.5600857296
 10
132.8858931654
 20
80.53414217
 10
132.8874149505
 20
80.5112150842
 10
132.8891189719
 20
80.4918630011
 10
132.8909637133
 20
80.4765573584
 10
132.8929042284
 20
80.4656710182
 10
132.8948932376
 20
80.4594691835
  0
LINE
  5
277
100
AcDbEntity
  8
RACCORDO
100
AcDbLine
 62
7
  6
CONTINUOUS
 10
131.3530015687
 20
79.028210457
 11
131.3253572684
 21
87.6261419017
  0
LINE
  5
278
100
AcDbEntity
  8
RACCORDO
100
AcDbLine
 62
7
  6
CONTINUOUS
 10
132.5408936345
 20
80.3770397977
 11
132.5269646777
 21
86.8761419017
  0
LINE
  5
279
100
AcDbEntity
  8
RACCORDO
100
AcDbLine
 62
253
  6
CONTINUOUS
 10
132.6284949372
 20
113.8761419017
 11
132.6221286731
 21
120.7556535154
  0
LINE
  5
27A
100
AcDbEntity
  8
DRAFT
100
AcDbLine
 62
7
  6
CONTINUOUS
 10
131.3253572684
 20
113.8761419017
 11
131.3253572684
 21
109.7761419017
  0
LINE
  5
27B
100
AcDbEntity
  8
RACCORDO
100
AcDbLine
 62
7
  6
CONTINUOUS
 10
131.3253572684
 20
100.1932713376
 11
131.3253572684
 21
87.6261419017
  0
LINE
  5
27C
100
AcDbEntity
  8
RACCORDO
100
AcDbLine
 62
7
  6
CONTINUOUS
 10
131.3253572684
 20
101.2476675377
 11
131.3253572684
 21
109.7761419017
  0
LINE
  5
27D
100
AcDbEntity
  8
RACCORDO
100
AcDbLine
 62
7
  6
CONTINUOUS
 10
131.3253572684
 20
113.8761419017
 11
131.3253572684
 21
122.5475299977
  0
LINE
  5
27E
100
AcDbEntity
  8
RACCORDO
100
AcDbLine
 62
253
  6
CONTINUOUS
 10
131.5984889531
 20
113.8307818715
 11
131.5984889531
 21
109.821501932
  0
LINE
  5
27F
100
AcDbEntity
  8
RACCORDO
100
AcDbLine
 62
253
  6
CONTINUOUS
 10
132.0957499008
 20
113.8229666146
 11
132.0957499008
 21
109.8293171889
  0
LINE
  5
280
100
AcDbEntity
  8
DRAFT
100
AcDbLine
 62
7
  6
CONTINUOUS
 10
132.4834597938
 20
100.8477436835
 11
132.4834597938
 21
108.2123349371
  0
LINE
  5
281
100
AcDbEntity
  8
DRAFT
100
AcDbLine
 62
7
  6
CONTINUOUS
 10
132.4834597938
 20
109.4399488664
 11
132.4834597938
 21
109.7761419017
  0
LINE
  5
282
100
AcDbEntity
  8
DRAFT
100
AcDbLine
 62
7
  6
CONTINUOUS
 10
132.4834597938
 20
113.8761419017
 11
132.4834597938
 21
118.8123349371
  0
LINE
  5
283
100
AcDbEntity
  8
RACCORDO
100
AcDbLine
 62
7
  6
CONTINUOUS
 10
132.4834597938
 20
120.0399488664
 11
132.4834597938
 21
121.2804757634
  0
LINE
  5
284
100
AcDbEntity
  8
DRAFT
100
AcDbLine
 62
7
  6
CONTINUOUS
 10
132.5253572684
 20
113.8761419017
 11
132.5253572684
 21
113.8508320576
  0
LINE
  5
285
100
AcDbEntity
  8
DRAFT
100
AcDbLine
 62
7
  6
CONTINUOUS
 10
132.5253572684
 20
113.8229666146
 11
132.5253572684
 21
109.8293171889
  0
LINE
  5
286
100
AcDbEntity
  8
DRAFT
100
AcDbLine
 62
7
  6
CONTINUOUS
 10
132.5253572684
 20
109.8014517459
 11
132.5253572684
 21
109.7761419017
  0
LINE
  5
287
100
AcDbEntity
  8
DRAFT
100
AcDbLine
 62
7
  6
CONTINUOUS
 10
132.5253572684
 20
86.8761419017
 11
132.5253572684
 21
100.5931951919
  0
LINE
  5
288
100
AcDbEntity
  8
RACCORDO
100
AcDbLine
 62
7
  6
CONTINUOUS
 10
132.5794679696
 20
99.0487325283
 11
132.5794679696
 21
100.5661419017
  0
LINE
  5
289
100
AcDbEntity
  8
DRAFT
100
AcDbLine
 62
7
  6
CONTINUOUS
 10
132.585584888
 20
120.00571843
 11
132.585584888
 21
118.8465653734
  0
LINE
  5
28A
100
AcDbEntity
  8
DRAFT
100
AcDbLine
 62
7
  6
CONTINUOUS
 10
132.585584888
 20
109.40571843
 11
132.585584888
 21
108.2465653734
  0
LINE
  5
28B
100
AcDbEntity
  8
RACCORDO
100
AcDbLine
 62
7
  6
CONTINUOUS
 10
132.5986778487
 20
100.8861419017
 11
132.5986778487
 21
102.403505589
  0
LINE
  5
28C
100
AcDbEntity
  8
RACCORDO
100
AcDbLine
 62
7
  6
CONTINUOUS
 10
132.6357541966
 20
109.7761419017
 11
132.6379406477
 21
102.4296774655
  0
LINE
  5
28D
100
AcDbEntity
  8
RACCORDO
100
AcDbLine
 62
253
  6
CONTINUOUS
 10
132.6011897759
 20
92.3761419017
 11
132.6024290509
 21
99.025771447
  0
LINE
  5
28E
100
AcDbEntity
  8
RACCORDO
100
AcDbLine
 62
253
  6
CONTINUOUS
 10
132.5950848652
 20
80.7581889903
 11
132.5989247441
 21
86.8761419017
  0
LWPOLYLINE
  5
28F
100
AcDbEntity
  8
RACCORDO
100
AcDbPolyline
 62
253
  6
CONTINUOUS
 90
10
 70
0
 10
132.9092754586
 20
120.8644047237
 10
132.9097531444
 20
120.8953882386
 10
132.910524935
 20
120.9254083685
 10
132.911572033
 20
120.9537339537
 10
132.9128689356
 20
120.9796751059
 10
132.9143840559
 20
121.0026000116
 10
132.9160804923
 20
121.0219503196
 10
132.9179169268
 20
121.0372547404
 10
132.919848632
 20
121.0481405244
 10
132.9218285599
 20
121.0543425411
  0
LWPOLYLINE
  5
290
100
AcDbEntity
  8
RACCORDO
100
AcDbPolyline
 62
253
  6
CONTINUOUS
 90
16
 70
0
 10
132.6221286731
 20
120.7556535154
 10
132.6238236824
 20
120.7869565527
 10
132.628781449
 20
120.8178949154
 10
132.6369453256
 20
120.8481328445
 10
132.6482232814
 20
120.8773433735
 10
132.6624902726
 20
120.905208958
 10
132.6795900528
 20
120.9314247157
 10
132.6993340936
 20
120.9557055876
 10
132.721505712
 20
120.9777899253
 10
132.7458648399
 20
120.9974384816
 10
132.7721464958
 20
121.0144378335
 10
132.8000627543
 20
121.028603387
 10
132.8293088268
 20
121.0397812075
 10
132.8595656973
 20
121.0478497898
 10
132.8905036355
 20
121.0527213069
 10
132.921785608
 20
121.0543425113
  0
LWPOLYLINE
  5
291
100
AcDbEntity
  8
RACCORDO
100
AcDbPolyline
 62
253
  6
CONTINUOUS
 90
16
 70
0
 10
132.8093428226
 20
120.764149904
 10
132.8099353582
 20
120.7749169962
 10
132.8115620203
 20
120.7853290016
 10
132.8142228201
 20
120.7953859178
 10
132.8179695329
 20
120.805187321
 10
132.8227504087
 20
120.8146336326
 10
132.8284101704
 20
120.8234261202
 10
132.8349768658
 20
120.8315450174
 10
132.8424224694
 20
120.8390100978
 10
132.8505075876
 20
120.8455819429
 10
132.8592522025
 20
120.8512315619
 10
132.8686363429
 20
120.8559879594
 10
132.8783606742
 20
120.8596987109
 10
132.8883254144
 20
120.8623130133
 10
132.8986303397
 20
120.8638816844
 10
132.9092754467
 20
120.8644047318
  0
LWPOLYLINE
  5
292
100
AcDbEntity
  8
RACCORDO
100
AcDbPolyline
 62
7
  6
CONTINUOUS
 90
13
 70
0
 10
132.5301149995
 20
121.1871013249
 10
132.5327572757
 20
121.2260299471
 10
132.5404617752
 20
121.2643129107
 10
132.5531036576
 20
121.3012957796
 10
132.5704761393
 20
121.3363476251
 10
132.5922870694
 20
121.3688636928
 10
132.6181592236
 20
121.3982787343
 10
132.6476439612
 20
121.4240829841
 10
132.6802452661
 20
121.4458417755
 10
132.7154226671
 20
121.4631906489
 10
132.7525839919
 20
121.4758275374
 10
132.7910911904
 20
121.4835246078
 10
132.8302861508
 20
121.4861419017
  0
LINE
  5
293
100
AcDbEntity
  8
RACCORDO
100
AcDbLine
 62
253
  6
CONTINUOUS
 10
147.0227620546
 20
120.2235352649
 11
147.009186175
 21
120.2099593853
  0
LINE
  5
294
100
AcDbEntity
  8
RACCORDO
100
AcDbLine
 62
253
  6
CONTINUOUS
 10
147.3227506315
 20
119.923546688
 11
147.3091358048
 21
119.9099318613
  0
LINE
  5
295
100
AcDbEntity
  8
DRAFT
100
AcDbLine
 62
7
  6
CONTINUOUS
 10
132.585584888
 20
108.2465653734
 11
132.5517485063
 21
108.2350044348
  0
LINE
  5
296
100
AcDbEntity
  8
DRAFT
100
AcDbLine
 62
7
  6
CONTINUOUS
 10
132.5517485063
 20
108.2350044348
 11
132.5177059832
 21
108.223596871
  0
LINE
  5
297
100
AcDbEntity
  8
DRAFT
100
AcDbLine
 62
7
  6
CONTINUOUS
 10
132.5177059832
 20
108.223596871
 11
132.4834597938
 21
108.2123349371
  0
LINE
  5
298
100
AcDbEntity
  8
RACCORDO
100
AcDbLine
 62
253
  6
CONTINUOUS
 10
147.0154901896
 20
81.2360204036
 11
147.0227620546
 21
81.2287485386
  0
LINE
  5
299
100
AcDbEntity
  8
RACCORDO
100
AcDbLine
 62
253
  6
CONTINUOUS
 10
147.3227506315
 20
81.5287371155
 11
147.3157462907
 21
81.5357414563
  0
LINE
  5
29A
100
AcDbEntity
  8
RACCORDO
100
AcDbLine
 62
7
  6
CONTINUOUS
 10
134.5219271819
 20
80.444573112
 11
134.5181651164
 21
80.4710366954
  0
LWPOLYLINE
  5
29B
100
AcDbEntity
  8
RACCORDO
100
AcDbPolyline
 62
253
  6
CONTINUOUS
 90
16
 70
0
 10
134.5219271819
 20
95.5226661239
 10
134.5235762216
 20
95.4913153235
 10
134.5284926782
 20
95.4603082807
 10
134.5366226719
 20
95.4299845538
 10
134.5478771142
 20
95.4006762186
 10
134.5621327379
 20
95.3727042381
 10
134.5792334594
 20
95.346374954
 10
134.5989920331
 20
95.3219766922
 10
134.6211920245
 20
95.2997766899
 10
134.6455902156
 20
95.2800181528
 10
134.6719211846
 20
95.2629164431
 10
134.6998949686
 20
95.2486602288
 10
134.7291991407
 20
95.2374075504
 10
134.7595100954
 20
95.229280189
 10
134.7904975811
 20
95.2243643403
 10
134.8218223598
 20
95.2227118342
  0
LWPOLYLINE
  5
29C
100
AcDbEntity
  8
RACCORDO
100
AcDbPolyline
 62
7
  6
CONTINUOUS
 90
16
 70
0
 10
132.6379406477
 20
102.4296774655
 10
132.639581904
 20
102.3984081179
 10
132.6444891889
 20
102.3674485865
 10
132.6526205517
 20
102.3371388105
 10
132.6639121447
 20
102.3077841038
 10
132.6782438857
 20
102.2797433195
 10
132.6954098744
 20
102.2534096151
 10
132.7151606789
 20
102.2291129657
 10
132.7373010795
 20
102.2070472096
 10
132.7616628915
 20
102.1873748271
 10
132.7880328735
 20
102.1702975377
 10
132.8160948949
 20
102.1560470919
 10
132.8455096922
 20
102.1448035689
 10
132.8759427419
 20
102.1366956052
 10
132.9070737898
 20
102.131810763
 10
132.9385621161
 20
102.1302059429
  0
LWPOLYLINE
  5
29D
100
AcDbEntity
  8
RACCORDO
100
AcDbPolyline
 62
7
  6
CONTINUOUS
 90
6
 70
0
 10
134.516318624
 20
80.5177381807
 10
134.5166474247
 20
80.5034414057
 10
134.5169978114
 20
80.4915641252
 10
134.517365327
 20
80.4823021541
 10
134.5177544287
 20
80.4754596775
 10
134.5181651164
 20
80.4710366954
  0
LWPOLYLINE
  5
29E
100
AcDbEntity
  8
RACCORDO
100
AcDbPolyline
 62
7
  6
CONTINUOUS
 90
3
 70
0
 10
134.5155450641
 20
80.5717740721
 10
134.5157674437
 20
80.5519045139
 10
134.516318624
 20
80.5177381807
  0
LINE
  5
29F
100
AcDbEntity
  8
RACCORDO
100
AcDbLine
 62
253
  6
CONTINUOUS
 10
132.813888934
 20
113.8761419017
 11
132.8093428226
 21
120.764149904
  0
LINE
  5
2A0
100
AcDbEntity
  8
DRAFT
100
AcDbLine
 62
7
  6
CONTINUOUS
 10
132.9253572684
 20
87.8761419017
 11
132.9253572684
 21
91.3761419017
  0
LINE
  5
2A1
100
AcDbEntity
  8
DRAFT
100
AcDbLine
 62
7
  6
CONTINUOUS
 10
133.1253572684
 20
109.8074983577
 11
133.1253572684
 21
113.8447854457
  0
LINE
  5
2A2
100
AcDbEntity
  8
RACCORDO
100
AcDbLine
 62
253
  6
CONTINUOUS
 10
132.7857507706
 20
92.3761419017
 11
132.7864539193
 21
99.0250523507
  0
LINE
  5
2A3
100
AcDbEntity
  8
RACCORDO
100
AcDbLine
 62
253
  6
CONTINUOUS
 10
132.7822819751
 20
80.7497778467
 11
132.7844651695
 21
86.8761419017
  0
LWPOLYLINE
  5
2A4
100
AcDbEntity
  8
RACCORDO
100
AcDbPolyline
 62
253
  6
CONTINUOUS
 90
13
 70
0
 10
132.8867467605
 20
99.1249315516
 10
132.8869079713
 20
99.1508109278
 10
132.8873317173
 20
99.1762667697
 10
132.8880108767
 20
99.2008712409
 10
132.8889340349
 20
99.2242108134
 10
132.8900856762
 20
99.2458932189
 10
132.8914464452
 20
99.2655540411
 10
132.8929934713
 20
99.2828628403
 10
132.8947007538
 20
99.2975287067
 10
132.8965395983
 20
99.3093051509
 10
132.8984790993
 20
99.3179942456
 10
132.9004866596
 20
99.3234499524
 10
132.9025285382
 20
99.3255805767
  0
LWPOLYLINE
  5
2A5
100
AcDbEntity
  8
RACCORDO
100
AcDbPolyline
 62
7
  6
CONTINUOUS
 90
5
 70
0
 10
132.6024290509
 20
99.025771447
 10
132.6040787426
 20
99.05711257
 10
132.6089957149
 20
99.0881094685
 10
132.6171263549
 20
99.1184227912
 10
132.6283818287
 20
99.1477202776
  0
LWPOLYLINE
  5
2A6
100
AcDbEntity
  8
RACCORDO
100
AcDbPolyline
 62
253
  6
CONTINUOUS
 90
16
 70
0
 10
132.7864539193
 20
99.0250523507
 10
132.7870550864
 20
99.0356964798
 10
132.7886928257
 20
99.0460001556
 10
132.7913671399
 20
99.0559633754
 10
132.7951295242
 20
99.0656856499
 10
132.7999284917
 20
99.0750674632
 10
132.8056095731
 20
99.0838102734
 10
132.8122015212
 20
99.0918950586
 10
132.8196755983
 20
99.0993408383
 10
132.8277911
 20
99.1059061355
 10
132.836568768
 20
99.1115620638
 10
132.8459878766
 20
99.1163375108
 10
132.8557455154
 20
99.1200776623
 10
132.8657407169
 20
99.1227309155
 10
132.8760744584
 20
99.1243488776
 10
132.8867467449
 20
99.124931551
  0
LINE
  5
2A7
100
AcDbEntity
  8
DRAFT
100
AcDbLine
 62
7
  6
CONTINUOUS
 10
151.9253572684
 20
91.3761419017
 11
152.3253572684
 21
91.3831239277
  0
LINE
  5
2A8
100
AcDbEntity
  8
RACCORDO
100
AcDbLine
 62
7
  6
CONTINUOUS
 10
132.7857507706
 20
92.3761419017
 11
132.5253572684
 21
92.3761419017
  0
LINE
  5
2A9
100
AcDbEntity
  8
RACCORDO
100
AcDbLine
 62
7
  6
CONTINUOUS
 10
152.0649637614
 20
92.3761419017
 11
152.3253572684
 21
92.3761419017
  0
LINE
  5
2AA
100
AcDbEntity
  8
DRAFT
100
AcDbLine
 62
7
  6
CONTINUOUS
 10
132.5253572684
 20
91.3831239277
 11
132.9253572684
 21
91.3761419017
  0
LINE
  5
2AB
100
AcDbEntity
  8
0
100
AcDbLine
 62
7
  6
CONTINUOUS
 10
136.2636551436
 20
94.7073919017
 11
136.3466338571
 21
94.6532251318
  0
LINE
  5
2AC
100
AcDbEntity
  8
0
100
AcDbLine
 62
7
  6
CONTINUOUS
 10
137.0104636233
 20
94.4094751318
 11
137.204080699
 21
94.2469751318
  0
LINE
  5
2AD
100
AcDbEntity
  8
0
100
AcDbLine
 62
7
  6
CONTINUOUS
 10
137.4253572684
 20
94.2469751318
 11
137.2317402702
 21
94.4094751318
  0
LINE
  5
2AE
100
AcDbEntity
  8
0
100
AcDbLine
 62
7
  6
CONTINUOUS
 10
136.3742934476
 20
94.7886419017
 11
136.3189742859
 21
94.8428086717
  0
LINE
  5
2AF
100
AcDbEntity
  8
RACCORDO
100
AcDbLine
 62
253
  6
CONTINUOUS
 10
146.9108199048
 20
82.9407249568
 11
146.9219271819
 21
82.9296768233
  0
LINE
  5
2B0
100
AcDbEntity
  8
RACCORDO
100
AcDbLine
 62
253
  6
CONTINUOUS
 10
135.5440707295
 20
95.5073827491
 11
135.5287873548
 21
95.5226069802
  0
LINE
  5
2B1
100
AcDbEntity
  8
RACCORDO
100
AcDbLine
 62
253
  6
CONTINUOUS
 10
147.2107204055
 20
83.2407330732
 11
147.2218814905
 21
83.2295719881
  0
LINE
  5
2B2
100
AcDbEntity
  8
RACCORDO
100
AcDbLine
 62
253
  6
CONTINUOUS
 10
135.2437502209
 20
95.2077946407
 11
135.2288330462
 21
95.2227118153
  0
LINE
  5
2B3
100
AcDbEntity
  8
RACCORDO
100
AcDbLine
 62
253
  6
CONTINUOUS
 10
132.5794679696
 20
99.0487325283
 11
132.6024290509
 21
99.025771447
  0
LINE
  5
2B4
100
AcDbEntity
  8
0
100
AcDbLine
 62
7
  6
CONTINUOUS
 10
136.2083359916
 20
94.7886419017
 11
136.2636551436
 21
94.7073919017
  0
LINE
  5
2B5
100
AcDbEntity
  8
0
100
AcDbLine
 62
7
  6
CONTINUOUS
 10
136.1530168419
 20
94.8969751318
 11
136.2083359916
 21
94.7886419017
  0
LINE
  5
2B6
100
AcDbEntity
  8
0
100
AcDbLine
 62
7
  6
CONTINUOUS
 10
136.3189742859
 20
94.8428086717
 11
136.2913147147
 21
94.8969751318
  0
LINE
  5
2B7
100
AcDbEntity
  8
RACCORDO
100
AcDbLine
 62
7
  6
CONTINUOUS
 10
136.9219271819
 20
80.444573112
 11
136.9162927467
 21
80.4842075481
  0
LWPOLYLINE
  5
2B8
100
AcDbEntity
  8
RACCORDO
100
AcDbPolyline
 62
253
  6
CONTINUOUS
 90
16
 70
0
 10
135.3288178157
 20
82.9296176796
 10
135.3282363145
 20
82.9401874019
 10
135.326620615
 20
82.9504382555
 10
135.3239707171
 20
82.9603702404
 10
135.3202355536
 20
82.9700890746
 10
135.3154661918
 20
82.9794890401
 10
135.3098158334
 20
82.9882529828
 10
135.3032569898
 20
82.9963556191
 10
135.2958171496
 20
83.0038222325
 10
135.2877319793
 20
83.010411519
 10
135.2789803057
 20
83.0160963149
 10
135.2695833021
 20
83.0209037839
 10
135.2598401557
 20
83.024674113
 10
135.2498505954
 20
83.0273540315
 10
135.2395148922
 20
83.0289968102
 10
135.2288330462
 20
83.0296024491
  0
LWPOLYLINE
  5
2B9
100
AcDbEntity
  8
RACCORDO
100
AcDbPolyline
 62
253
  6
CONTINUOUS
 90
16
 70
0
 10
134.721896721
 20
95.5226661239
 10
134.7224782222
 20
95.5120964016
 10
134.7240939217
 20
95.501845548
 10
134.7267438196
 20
95.4919135631
 10
134.7304789831
 20
95.4821947289
 10
134.7352483449
 20
95.4727947633
 10
134.7408987033
 20
95.4640308207
 10
134.7474575469
 20
95.4559281844
 10
134.7548973871
 20
95.448461571
 10
134.7629825574
 20
95.4418722844
 10
134.771734231
 20
95.4361874886
 10
134.7811312346
 20
95.4313800196
 10
134.790874381
 20
95.4276096904
 10
134.8008639413
 20
95.424929772
 10
134.8111996445
 20
95.4232869933
 10
134.8218814905
 20
95.4226813544
  0
LWPOLYLINE
  5
2BA
100
AcDbEntity
  8
RACCORDO
100
AcDbPolyline
 62
253
  6
CONTINUOUS
 90
16
 70
0
 10
135.5287873548
 20
82.9296176796
 10
135.5271383151
 20
82.96096848
 10
135.5222218585
 20
82.9919755228
 10
135.5140918648
 20
83.0222992496
 10
135.5028374226
 20
83.0516075849
 10
135.4885817988
 20
83.0795795654
 10
135.4714810773
 20
83.1059088495
 10
135.4517225036
 20
83.1303071113
 10
135.4295225122
 20
83.1525071136
 10
135.4051243211
 20
83.1722656507
 10
135.3787933521
 20
83.1893673604
 10
135.3508195681
 20
83.2036235747
 10
135.321515396
 20
83.2148762531
 10
135.2912044413
 20
83.2230036145
 10
135.2602169556
 20
83.2279194632
 10
135.228892177
 20
83.2295719693
  0
LINE
  5
2BB
100
AcDbEntity
  8
DRAFT
100
AcDbLine
 62
7
  6
CONTINUOUS
 10
134.3428123333
 20
99.9661419017
 11
134.3253572684
 21
100.5661419017
  0
LWPOLYLINE
  5
2BC
100
AcDbEntity
  8
RACCORDO
100
AcDbPolyline
 62
7
  6
CONTINUOUS
 90
7
 70
0
 10
135.5435731169
 20
99.2621623434
 10
135.5432366101
 20
99.2793575055
 10
135.54285827
 20
99.2942402006
 10
135.5424565414
 20
99.3060645456
 10
135.5420375724
 20
99.314581913
 10
135.5415952148
 20
99.3200409303
 10
135.5411294687
 20
99.3224415975
  0
LINE
  5
2BD
100
AcDbEntity
  8
RACCORDO
100
AcDbLine
 62
7
  6
CONTINUOUS
 10
135.544116343
 20
99.2206062694
 11
135.5435731169
 21
99.2621623434
  0
LINE
  5
2BE
100
AcDbEntity
  8
RACCORDO
100
AcDbLine
 62
7
  6
CONTINUOUS
 10
134.5152342546
 20
80.6142848555
 11
134.5155450641
 21
80.5717740721
  0
LINE
  5
2BF
100
AcDbEntity
  8
RACCORDO
100
AcDbLine
 62
7
  6
CONTINUOUS
 10
135.5444521906
 20
99.1734283474
 11
135.544116343
 21
99.2206062694
  0
LINE
  5
2C0
100
AcDbEntity
  8
RACCORDO
100
AcDbLine
 62
7
  6
CONTINUOUS
 10
134.5134093137
 20
82.9381355478
 11
134.5152342546
 21
80.6142848555
  0
LINE
  5
2C1
100
AcDbEntity
  8
DRAFT
100
AcDbLine
 62
7
  6
CONTINUOUS
 10
134.3253572684
 20
99.3486868368
 11
134.3253572684
 21
100.5661419017
  0
LINE
  5
2C2
100
AcDbEntity
  8
DRAFT
100
AcDbLine
 62
7
  6
CONTINUOUS
 10
134.3253572684
 20
100.8861419017
 11
134.3253572684
 21
102.1035969667
  0
LINE
  5
2C3
100
AcDbEntity
  8
RACCORDO
100
AcDbLine
 62
7
  6
CONTINUOUS
 10
134.3428123333
 20
99.9661419017
 11
134.3428123333
 21
99.5626813544
  0
LINE
  5
2C4
100
AcDbEntity
  8
RACCORDO
100
AcDbLine
 62
7
  6
CONTINUOUS
 10
134.3428123333
 20
101.4861419017
 11
134.3428123333
 21
101.8896024491
  0
LINE
  5
2C5
100
AcDbEntity
  8
RACCORDO
100
AcDbLine
 62
253
  6
CONTINUOUS
 10
134.5219271819
 20
99.3347837114
 11
134.5219271819
 21
95.5226661239
  0
LINE
  5
2C6
100
AcDbEntity
  8
RACCORDO
100
AcDbLine
 62
253
  6
CONTINUOUS
 10
134.5219271819
 20
82.9296768233
 11
134.5219271819
 21
80.444573112
  0
LINE
  5
2C7
100
AcDbEntity
  8
RACCORDO
100
AcDbLine
 62
253
  6
CONTINUOUS
 10
134.721896721
 20
99.3382137979
 11
134.721896721
 21
95.5226661239
  0
LINE
  5
2C8
100
AcDbEntity
  8
RACCORDO
100
AcDbLine
 62
253
  6
CONTINUOUS
 10
134.721896721
 20
82.9296176796
 11
134.721896721
 21
80.4204447771
  0
LINE
  5
2C9
100
AcDbEntity
  8
RACCORDO
100
AcDbLine
 62
253
  6
CONTINUOUS
 10
134.8218814905
 20
83.0296024491
 11
134.821881478
 21
83.2295719881
  0
LINE
  5
2CA
100
AcDbEntity
  8
RACCORDO
100
AcDbLine
 62
253
  6
CONTINUOUS
 10
134.8218814905
 20
95.4226813544
 11
134.8218814905
 21
95.2227118153
  0
LINE
  5
2CB
100
AcDbEntity
  8
RACCORDO
100
AcDbLine
 62
253
  6
CONTINUOUS
 10
135.2288330462
 20
95.4226813544
 11
135.2288330588
 21
95.2227118153
  0
LINE
  5
2CC
100
AcDbEntity
  8
RACCORDO
100
AcDbLine
 62
253
  6
CONTINUOUS
 10
135.2288330462
 20
83.0296024491
 11
135.2288330462
 21
83.2295719881
  0
LINE
  5
2CD
100
AcDbEntity
  8
RACCORDO
100
AcDbLine
 62
253
  6
CONTINUOUS
 10
135.3288178157
 20
80.4204447771
 11
135.3288178157
 21
82.9296176796
  0
LINE
  5
2CE
100
AcDbEntity
  8
RACCORDO
100
AcDbLine
 62
253
  6
CONTINUOUS
 10
135.3288178157
 20
95.5226661239
 11
135.3288178157
 21
99.3382137979
  0
LINE
  5
2CF
100
AcDbEntity
  8
RACCORDO
100
AcDbLine
 62
253
  6
CONTINUOUS
 10
135.5287873548
 20
80.444573112
 11
135.5287873548
 21
82.9296176796
  0
LINE
  5
2D0
100
AcDbEntity
  8
RACCORDO
100
AcDbLine
 62
253
  6
CONTINUOUS
 10
135.5287873548
 20
95.5226069802
 11
135.5287873548
 21
99.3347837114
  0
LINE
  5
2D1
100
AcDbEntity
  8
RACCORDO
100
AcDbLine
 62
7
  6
CONTINUOUS
 10
135.5440707295
 20
95.5073827491
 11
135.5444521906
 21
99.1734283474
  0
LINE
  5
2D2
100
AcDbEntity
  8
RACCORDO
100
AcDbLine
 62
7
  6
CONTINUOUS
 10
134.5073732964
 20
99.174586218
 11
134.5077396905
 21
95.5084786325
  0
LINE
  5
2D3
100
AcDbEntity
  8
RACCORDO
100
AcDbLine
 62
7
  6
CONTINUOUS
 10
135.5363577497
 20
80.6202725013
 11
135.5382299676
 21
82.9390602924
  0
LINE
  5
2D4
100
AcDbEntity
  8
RACCORDO
100
AcDbLine
 62
7
  6
CONTINUOUS
 10
134.5077088717
 20
99.2217708771
 11
134.5073732964
 21
99.174586218
  0
LINE
  5
2D5
100
AcDbEntity
  8
RACCORDO
100
AcDbLine
 62
7
  6
CONTINUOUS
 10
135.5360462313
 20
80.5778213172
 11
135.5363577497
 21
80.6202725013
  0
LINE
  5
2D6
100
AcDbEntity
  8
DRAFT
100
AcDbLine
 62
7
  6
CONTINUOUS
 10
134.3253572684
 20
100.8861419017
 11
134.3428123333
 21
101.4861419017
  0
LWPOLYLINE
  5
2D7
100
AcDbEntity
  8
RACCORDO
100
AcDbPolyline
 62
7
  6
CONTINUOUS
 90
16
 70
0
 10
134.5134093137
 20
82.9381355478
 10
134.5150295947
 20
82.9695293921
 10
134.519922923
 20
83.0006011105
 10
134.5280417263
 20
83.0310090117
 10
134.5393147765
 20
83.0604459601
 10
134.5536176112
 20
83.0885550389
 10
134.5707450685
 20
83.1149477976
 10
134.5904451802
 20
83.1392968975
 10
134.6125192009
 20
83.1614092897
 10
134.6368009175
 20
83.1811239999
 10
134.6630773364
 20
83.1982431967
 10
134.6910295247
 20
83.2125360906
 10
134.7203160194
 20
83.2238211841
 10
134.7506012184
 20
83.2319732799
 10
134.7815657812
 20
83.2369112907
 10
134.8128704086
 20
83.2385830701
  0
LWPOLYLINE
  5
2D8
100
AcDbEntity
  8
RACCORDO
100
AcDbPolyline
 62
7
  6
CONTINUOUS
 90
16
 70
0
 10
135.5440707295
 20
95.5073827491
 10
135.5424238028
 20
95.4760767856
 10
135.5375080252
 20
95.4450862835
 10
135.5293674888
 20
95.4147519723
 10
135.5180687189
 20
95.3853800956
 10
135.5037336485
 20
95.3573287727
 10
135.4865684857
 20
95.3309890916
 10
135.466823839
 20
95.3066899918
 10
135.4446963798
 20
95.2846250906
 10
135.4203541449
 20
95.2649560236
 10
135.394010532
 20
95.2478829233
 10
135.3659829072
 20
95.2336369727
 10
135.3366119447
 20
95.2223981403
 10
135.3062328769
 20
95.2142932514
 10
135.2751655688
 20
95.2094071781
 10
135.2437502209
 20
95.2077946407
  0
LINE
  5
2D9
100
AcDbEntity
  8
RACCORDO
100
AcDbLine
 62
7
  6
CONTINUOUS
 10
137.011221447
 20
121.0294073165
 11
137.0227620546
 21
121.1917804007
  0
LINE
  5
2DA
100
AcDbEntity
  8
RACCORDO
100
AcDbLine
 62
253
  6
CONTINUOUS
 10
132.5408936345
 20
80.3770397977
 11
132.5950848652
 21
80.7581889903
  0
LINE
  5
2DB
100
AcDbEntity
  8
RACCORDO
100
AcDbLine
 62
253
  6
CONTINUOUS
 10
132.8409379755
 20
80.0799092701
 11
132.8948932508
 21
80.4594480918
  0
LWPOLYLINE
  5
2DC
100
AcDbEntity
  8
RACCORDO
100
AcDbPolyline
 62
7
  6
CONTINUOUS
 90
15
 70
0
 10
137.8398983875
 20
120.1785948157
 10
137.8349989076
 20
120.1475713025
 10
137.8268825227
 20
120.1172287081
 10
137.8156313165
 20
120.0878863488
 10
137.8013705779
 20
120.0598806585
 10
137.7842809862
 20
120.0335547739
 10
137.7645934354
 20
120.0092272992
 10
137.7425067996
 20
119.9871117487
 10
137.7181830888
 20
119.9673766731
 10
137.6918158009
 20
119.9502198204
 10
137.6637334685
 20
119.9358926441
 10
137.6343274306
 20
119.9246016429
 10
137.6039560894
 20
119.9164696803
 10
137.5729260539
 20
119.9115646959
 10
137.5415787319
 20
119.9099318613
  0
LWPOLYLINE
  5
2DD
100
AcDbEntity
  8
RACCORDO
100
AcDbPolyline
 62
7
  6
CONTINUOUS
 90
8
 70
0
 10
134.5106904296
 20
99.3235469591
 10
134.5102257859
 20
99.3211529654
 10
134.5097844022
 20
99.3157011801
 10
134.5093662786
 20
99.307191603
 10
134.5089652594
 20
99.295376396
 10
134.5085875003
 20
99.2805033973
 10
134.5082514679
 20
99.2633161216
 10
134.5077088717
 20
99.2217708771
  0
LWPOLYLINE
  5
2DE
100
AcDbEntity
  8
RACCORDO
100
AcDbPolyline
 62
7
  6
CONTINUOUS
 90
8
 70
0
 10
132.6283818287
 20
99.1477202776
 10
132.6426391535
 20
99.1756814298
 10
132.6597428133
 20
99.2020008865
 10
132.679506232
 20
99.2263902569
 10
132.7017133129
 20
99.2485819046
 10
132.7261211363
 20
99.2683327779
 10
132.7524648789
 20
99.2854270846
 10
132.7804546299
 20
99.299675472
  0
LINE
  5
2DF
100
AcDbEntity
  8
RACCORDO
100
AcDbLine
 62
253
  6
CONTINUOUS
 10
132.5986778487
 20
102.403505589
 11
132.6379406477
 21
102.4296774655
  0
LINE
  5
2E0
100
AcDbEntity
  8
0
100
AcDbLine
 62
7
  6
CONTINUOUS
 10
148.3104636233
 20
93.5780170877
 11
148.4211019855
 21
93.5780170877
  0
LINE
  5
2E1
100
AcDbEntity
  8
0
100
AcDbLine
 62
7
  6
CONTINUOUS
 10
148.4211019855
 20
93.7242670877
 11
148.3381231945
 21
93.7242670877
  0
LINE
  5
2E2
100
AcDbEntity
  8
0
100
AcDbLine
 62
7
  6
CONTINUOUS
 10
136.1253572684
 20
94.0844751318
 11
137.4253572684
 21
94.0844751318
  0
LINE
  5
2E3
100
AcDbEntity
  8
0
100
AcDbLine
 62
7
  6
CONTINUOUS
 10
137.204080699
 20
94.2469751318
 11
136.1253572684
 21
94.2469751318
  0
LINE
  5
2E4
100
AcDbEntity
  8
0
100
AcDbLine
 62
7
  6
CONTINUOUS
 10
136.955144481
 20
94.6803086717
 11
137.0657827656
 21
94.6532251318
  0
LINE
  5
2E5
100
AcDbEntity
  8
0
100
AcDbLine
 62
7
  6
CONTINUOUS
 10
136.3466338571
 20
94.6532251318
 11
136.42961259
 21
94.6261419017
  0
LINE
  5
2E6
100
AcDbEntity
  8
0
100
AcDbLine
 62
7
  6
CONTINUOUS
 10
136.3466338571
 20
95.8719751318
 11
136.4849317323
 21
95.8178086717
  0
LINE
  5
2E7
100
AcDbEntity
  8
0
100
AcDbLine
 62
7
  6
CONTINUOUS
 10
136.42961259
 20
94.7615586717
 11
136.3742934476
 21
94.7886419017
  0
LINE
  5
2E8
100
AcDbEntity
  8
0
100
AcDbLine
 62
7
  6
CONTINUOUS
 10
137.0657827656
 20
94.7886419017
 11
136.955144481
 21
94.8428086717
  0
LINE
  5
2E9
100
AcDbEntity
  8
0
100
AcDbLine
 62
7
  6
CONTINUOUS
 10
136.8721657675
 20
94.7344751318
 11
136.955144481
 21
94.6803086717
  0
LINE
  5
2EA
100
AcDbEntity
  8
0
100
AcDbLine
 62
7
  6
CONTINUOUS
 10
137.1211019855
 20
95.4386419017
 11
137.204080699
 21
95.3844751318
  0
LINE
  5
2EB
100
AcDbEntity
  8
0
100
AcDbLine
 62
7
  6
CONTINUOUS
 10
136.42961259
 20
95.9803085167
 11
136.3466338571
 21
96.0344752867
  0
LINE
  5
2EC
100
AcDbEntity
  8
0
100
AcDbLine
 62
7
  6
CONTINUOUS
 10
136.2359955627
 20
97.1719752867
 11
136.3466338571
 21
97.0907252867
  0
LINE
  5
2ED
100
AcDbEntity
  8
0
100
AcDbLine
 62
7
  6
CONTINUOUS
 10
136.2359955627
 20
95.9532252867
 11
136.3466338571
 21
95.8719751318
  0
LINE
  5
2EE
100
AcDbEntity
  8
0
100
AcDbLine
 62
7
  6
CONTINUOUS
 10
136.955144481
 20
94.8428086717
 11
136.8998253386
 21
94.8969751318
  0
LINE
  5
2EF
100
AcDbEntity
  8
0
100
AcDbLine
 62
7
  6
CONTINUOUS
 10
137.3423785548
 20
95.4386419017
 11
137.2317402702
 21
95.5469751318
  0
LINE
  5
2F0
100
AcDbEntity
  8
RACCORDO
100
AcDbLine
 62
253
  6
CONTINUOUS
 10
149.3124845691
 20
82.9390602924
 11
149.3219271819
 21
82.9296768233
  0
LINE
  5
2F1
100
AcDbEntity
  8
RACCORDO
100
AcDbLine
 62
253
  6
CONTINUOUS
 10
149.612484148
 20
83.2389693307
 11
149.6218814905
 21
83.2295719881
  0
LINE
  5
2F2
100
AcDbEntity
  8
RACCORDO
100
AcDbLine
 62
253
  6
CONTINUOUS
 10
132.8794222782
 20
99.3486868368
 11
132.9024695773
 21
99.3255806547
  0
LINE
  5
2F3
100
AcDbEntity
  8
0
100
AcDbLine
 62
7
  6
CONTINUOUS
 10
136.7891870539
 20
94.8428086717
 11
136.8721657675
 21
94.7344751318
  0
LINE
  5
2F4
100
AcDbEntity
  8
0
100
AcDbLine
 62
7
  6
CONTINUOUS
 10
136.7062083404
 20
96.6032252867
 11
136.7891870539
 21
96.4948919017
  0
LINE
  5
2F5
100
AcDbEntity
  8
0
100
AcDbLine
 62
7
  6
CONTINUOUS
 10
136.3466338571
 20
96.0344752867
 11
136.2913147147
 21
96.1157252867
  0
LINE
  5
2F6
100
AcDbEntity
  8
0
100
AcDbLine
 62
7
  6
CONTINUOUS
 10
137.204080699
 20
95.3844751318
 11
137.2593998413
 21
95.3032251318
  0
LINE
  5
2F7
100
AcDbEntity
  8
0
100
AcDbLine
 62
7
  6
CONTINUOUS
 10
136.3466338571
 20
97.2532252092
 11
136.2913147147
 21
97.3344752092
  0
LINE
  5
2F8
100
AcDbEntity
  8
0
100
AcDbLine
 62
7
  6
CONTINUOUS
 10
136.6232296269
 20
97.3073919017
 11
136.7338679116
 21
97.1448919017
  0
LINE
  5
2F9
100
AcDbEntity
  8
0
100
AcDbLine
 62
7
  6
CONTINUOUS
 10
136.8168466251
 20
97.2532252092
 11
136.7615274828
 21
97.3344752092
  0
LINE
  5
2FA
100
AcDbEntity
  8
0
100
AcDbLine
 62
7
  6
CONTINUOUS
 10
136.1530168419
 20
96.0886419017
 11
136.2359955627
 21
95.9532252867
  0
LINE
  5
2FB
100
AcDbEntity
  8
0
100
AcDbLine
 62
7
  6
CONTINUOUS
 10
136.1530168419
 20
97.3073919017
 11
136.2359955627
 21
97.1719752867
  0
LINE
  5
2FC
100
AcDbEntity
  8
0
100
AcDbLine
 62
7
  6
CONTINUOUS
 10
136.9274849098
 20
96.5219752867
 11
136.8445061963
 21
96.6573919017
  0
LINE
  5
2FD
100
AcDbEntity
  8
0
100
AcDbLine
 62
7
  6
CONTINUOUS
 10
137.3976976972
 20
95.3303086717
 11
137.3423785548
 21
95.4386419017
  0
LINE
  5
2FE
100
AcDbEntity
  8
0
100
AcDbLine
 62
7
  6
CONTINUOUS
 10
136.8998253386
 20
94.8969751318
 11
136.8445061963
 21
95.0594751318
  0
LINE
  5
2FF
100
AcDbEntity
  8
0
100
AcDbLine
 62
7
  6
CONTINUOUS
 10
136.2913147147
 20
97.3344752092
 11
136.2636551436
 21
97.4157252092
  0
LINE
  5
300
100
AcDbEntity
  8
0
100
AcDbLine
 62
7
  6
CONTINUOUS
 10
136.7615274828
 20
97.3344752092
 11
136.7338679116
 21
97.4157252092
  0
LINE
  5
301
100
AcDbEntity
  8
0
100
AcDbLine
 62
7
  6
CONTINUOUS
 10
136.1253572684
 20
95.0053086717
 11
136.1530168419
 21
94.8969751318
  0
LINE
  5
302
100
AcDbEntity
  8
0
100
AcDbLine
 62
7
  6
CONTINUOUS
 10
136.2913147147
 20
96.1157252867
 11
136.2636551436
 21
96.2240585167
  0
LINE
  5
303
100
AcDbEntity
  8
0
100
AcDbLine
 62
7
  6
CONTINUOUS
 10
136.7891870539
 20
96.4948919017
 11
136.8168466251
 21
96.3865585167
  0
LINE
  5
304
100
AcDbEntity
  8
0
100
AcDbLine
 62
7
  6
CONTINUOUS
 10
136.2913147147
 20
94.8969751318
 11
136.2636551436
 21
95.0323919017
  0
LINE
  5
305
100
AcDbEntity
  8
0
100
AcDbLine
 62
7
  6
CONTINUOUS
 10
136.1253572684
 20
96.2240585167
 11
136.1530168419
 21
96.0886419017
  0
LINE
  5
306
100
AcDbEntity
  8
0
100
AcDbLine
 62
7
  6
CONTINUOUS
 10
136.1253572684
 20
97.4428085942
 11
136.1530168419
 21
97.3073919017
  0
LWPOLYLINE
  5
307
100
AcDbEntity
  8
RACCORDO
100
AcDbPolyline
 62
7
  6
CONTINUOUS
 90
9
 70
0
 10
137.8333416138
 20
81.2661385421
 10
137.8289958633
 20
81.2953198693
 10
137.8220808278
 20
81.3235643854
 10
137.8121072442
 20
81.3511927852
 10
137.7992228327
 20
81.3778843738
 10
137.7843426749
 20
81.4026770664
 10
137.7677987398
 20
81.425250168
 10
137.7492594108
 20
81.4459243737
 10
137.7288178157
 20
81.4646996833
  0
LINE
  5
308
100
AcDbEntity
  8
RACCORDO
100
AcDbLine
 62
7
  6
CONTINUOUS
 10
137.8352243471
 20
81.2360204036
 11
137.8333416138
 21
81.2661385421
  0
LWPOLYLINE
  5
309
100
AcDbEntity
  8
RACCORDO
100
AcDbPolyline
 62
253
  6
CONTINUOUS
 90
16
 70
0
 10
137.7288178157
 20
82.9296176796
 10
137.7282363145
 20
82.9401874019
 10
137.726620615
 20
82.9504382555
 10
137.7239707171
 20
82.9603702404
 10
137.7202355536
 20
82.9700890746
 10
137.7154661918
 20
82.9794890401
 10
137.7098158334
 20
82.9882529828
 10
137.7032569898
 20
82.9963556191
 10
137.6958171496
 20
83.0038222325
 10
137.6877319793
 20
83.010411519
 10
137.6789803057
 20
83.0160963149
 10
137.6695833021
 20
83.0209037839
 10
137.6598401557
 20
83.024674113
 10
137.6498505954
 20
83.0273540315
 10
137.6395148922
 20
83.0289968102
 10
137.6288330462
 20
83.0296024491
  0
LWPOLYLINE
  5
30A
100
AcDbEntity
  8
RACCORDO
100
AcDbPolyline
 62
253
  6
CONTINUOUS
 90
16
 70
0
 10
137.9287873548
 20
82.9296176796
 10
137.9271383151
 20
82.96096848
 10
137.9222218585
 20
82.9919755228
 10
137.9140918648
 20
83.0222992496
 10
137.9028374226
 20
83.0516075849
 10
137.8885817988
 20
83.0795795654
 10
137.8714810773
 20
83.1059088495
 10
137.8517225036
 20
83.1303071113
 10
137.8295225122
 20
83.1525071136
 10
137.8051243211
 20
83.1722656507
 10
137.7787933521
 20
83.1893673604
 10
137.7508195681
 20
83.2036235747
 10
137.721515396
 20
83.2148762531
 10
137.6912044413
 20
83.2230036145
 10
137.6602169556
 20
83.2279194632
 10
137.628892177
 20
83.2295719693
  0
LWPOLYLINE
  5
30B
100
AcDbEntity
  8
RACCORDO
100
AcDbPolyline
 62
253
  6
CONTINUOUS
 90
16
 70
0
 10
137.8279524821
 20
81.2287485386
 10
137.8263068795
 20
81.2601044177
 10
137.8213928744
 20
81.2911167917
 10
137.8132642994
 20
81.3214459139
 10
137.8020101988
 20
81.3507595326
 10
137.7877538645
 20
81.3787365003
 10
137.7706514955
 20
81.4050702969
 10
137.7508904698
 20
81.4294724234
 10
137.7286872709
 20
81.4516755705
 10
137.70428513
 20
81.4714365166
 10
137.6779513758
 20
81.4885387815
 10
137.6499745009
 20
81.5027950095
 10
137.6206609863
 20
81.5140490284
 10
137.5903319611
 20
81.5221775498
 10
137.5593196863
 20
81.5270915232
 10
137.5279639052
 20
81.5287371155
  0
LWPOLYLINE
  5
30C
100
AcDbEntity
  8
RACCORDO
100
AcDbPolyline
 62
7
  6
CONTINUOUS
 90
6
 70
0
 10
136.9144504389
 20
80.5307385987
 10
136.9147786856
 20
80.5164940148
 10
136.915128371
 20
80.5046603783
 10
136.9154950576
 20
80.4954318208
 10
136.9158831828
 20
80.4886142108
 10
136.9162927467
 20
80.4842075481
  0
LINE
  5
30D
100
AcDbEntity
  8
RACCORDO
100
AcDbLine
 62
7
  6
CONTINUOUS
 10
136.913899734
 20
80.5647896085
 11
136.9144504389
 21
80.5307385987
  0
LINE
  5
30E
100
AcDbEntity
  8
RACCORDO
100
AcDbLine
 62
7
  6
CONTINUOUS
 10
136.9134982796
 20
80.6054200665
 11
136.913899734
 21
80.5647896085
  0
LINE
  5
30F
100
AcDbEntity
  8
RACCORDO
100
AcDbLine
 62
7
  6
CONTINUOUS
 10
136.9132307752
 20
80.6731868521
 11
136.9134982796
 21
80.6054200665
  0
LINE
  5
310
100
AcDbEntity
  8
RACCORDO
100
AcDbLine
 62
7
  6
CONTINUOUS
 10
136.9114465761
 20
82.9400982855
 11
136.9132307752
 21
80.6731868521
  0
LINE
  5
311
100
AcDbEntity
  8
0
100
AcDbLine
 62
7
  6
CONTINUOUS
 10
136.1253572684
 20
98.3636419017
 11
136.1253572684
 21
98.2011419017
  0
LINE
  5
312
100
AcDbEntity
  8
0
100
AcDbLine
 62
7
  6
CONTINUOUS
 10
136.1253572684
 20
97.5511419017
 11
136.1253572684
 21
97.4428085942
  0
LINE
  5
313
100
AcDbEntity
  8
0
100
AcDbLine
 62
7
  6
CONTINUOUS
 10
136.1253572684
 20
96.3865585167
 11
136.1253572684
 21
96.2240585167
  0
LINE
  5
314
100
AcDbEntity
  8
0
100
AcDbLine
 62
7
  6
CONTINUOUS
 10
136.1253572684
 20
95.2219751318
 11
136.1253572684
 21
95.0053086717
  0
LINE
  5
315
100
AcDbEntity
  8
0
100
AcDbLine
 62
7
  6
CONTINUOUS
 10
136.1253572684
 20
94.2469751318
 11
136.1253572684
 21
94.0844751318
  0
LINE
  5
316
100
AcDbEntity
  8
0
100
AcDbLine
 62
7
  6
CONTINUOUS
 10
136.2636551436
 20
95.0323919017
 11
136.2636551436
 21
95.1948919017
  0
LINE
  5
317
100
AcDbEntity
  8
0
100
AcDbLine
 62
7
  6
CONTINUOUS
 10
136.2636551436
 20
96.2240585167
 11
136.2636551436
 21
96.3865585167
  0
LINE
  5
318
100
AcDbEntity
  8
0
100
AcDbLine
 62
7
  6
CONTINUOUS
 10
136.2636551436
 20
97.4157252092
 11
136.2636551436
 21
97.5782252092
  0
LINE
  5
319
100
AcDbEntity
  8
0
100
AcDbLine
 62
7
  6
CONTINUOUS
 10
136.42961259
 20
95.4657251318
 11
136.42961259
 21
95.6011419017
  0
LINE
  5
31A
100
AcDbEntity
  8
0
100
AcDbLine
 62
7
  6
CONTINUOUS
 10
136.42961259
 20
97.7948919017
 11
136.42961259
 21
97.9303085555
  0
LINE
  5
31B
100
AcDbEntity
  8
0
100
AcDbLine
 62
7
  6
CONTINUOUS
 10
136.4572721611
 20
96.6303085167
 11
136.4572721611
 21
96.7928085167
  0
LINE
  5
31C
100
AcDbEntity
  8
0
100
AcDbLine
 62
7
  6
CONTINUOUS
 10
136.595570017
 20
97.5782252092
 11
136.595570017
 21
97.4428085942
  0
LINE
  5
31D
100
AcDbEntity
  8
0
100
AcDbLine
 62
7
  6
CONTINUOUS
 10
136.7062083404
 20
96.7928085167
 11
136.7062083404
 21
96.6032252867
  0
LINE
  5
31E
100
AcDbEntity
  8
0
100
AcDbLine
 62
7
  6
CONTINUOUS
 10
136.7338679116
 20
95.1678086717
 11
136.7338679116
 21
95.0594751318
  0
LINE
  5
31F
100
AcDbEntity
  8
0
100
AcDbLine
 62
7
  6
CONTINUOUS
 10
136.7338679116
 20
97.4157252092
 11
136.7338679116
 21
97.6053085942
  0
LINE
  5
320
100
AcDbEntity
  8
0
100
AcDbLine
 62
7
  6
CONTINUOUS
 10
136.8168466251
 20
96.3865585167
 11
136.8168466251
 21
96.2240585167
  0
LINE
  5
321
100
AcDbEntity
  8
0
100
AcDbLine
 62
7
  6
CONTINUOUS
 10
136.8445061963
 20
95.0594751318
 11
136.8445061963
 21
95.1678086717
  0
LINE
  5
322
100
AcDbEntity
  8
RACCORDO
100
AcDbLine
 62
253
  6
CONTINUOUS
 10
136.8706948344
 20
99.3627118153
 11
136.8706948344
 21
99.5626813544
  0
LINE
  5
323
100
AcDbEntity
  8
RACCORDO
100
AcDbLine
 62
253
  6
CONTINUOUS
 10
136.8706948344
 20
102.0895719881
 11
136.8706948354
 21
101.8896024492
  0
LINE
  5
324
100
AcDbEntity
  8
RACCORDO
100
AcDbLine
 62
253
  6
CONTINUOUS
 10
136.9219271819
 20
82.9296768233
 11
136.9219271819
 21
80.444573112
  0
LINE
  5
325
100
AcDbEntity
  8
0
100
AcDbLine
 62
7
  6
CONTINUOUS
 10
136.955144481
 20
96.2240585167
 11
136.955144481
 21
96.3865585167
  0
LINE
  5
326
100
AcDbEntity
  8
RACCORDO
100
AcDbLine
 62
7
  6
CONTINUOUS
 10
137.0154901896
 20
81.2360204036
 11
137.0154901896
 21
80.4242087664
  0
LINE
  5
327
100
AcDbEntity
  8
RACCORDO
100
AcDbLine
 62
7
  6
CONTINUOUS
 10
137.0227620546
 20
121.1917804007
 11
137.0227620546
 21
120.2235352649
  0
LINE
  5
328
100
AcDbEntity
  8
RACCORDO
100
AcDbLine
 62
7
  6
CONTINUOUS
 10
137.0227620546
 20
81.2287485386
 11
137.0227620546
 21
80.3218956832
  0
LINE
  5
329
100
AcDbEntity
  8
0
100
AcDbLine
 62
7
  6
CONTINUOUS
 10
137.1211019855
 20
95.5740586717
 11
137.1211019855
 21
95.4386419017
  0
LINE
  5
32A
100
AcDbEntity
  8
RACCORDO
100
AcDbLine
 62
253
  6
CONTINUOUS
 10
137.121896721
 20
82.9296176796
 11
137.121896721
 21
81.4646996833
  0
LINE
  5
32B
100
AcDbEntity
  8
RACCORDO
100
AcDbLine
 62
253
  6
CONTINUOUS
 10
137.2218814905
 20
83.0296024491
 11
137.221881478
 21
83.2295719881
  0
LINE
  5
32C
100
AcDbEntity
  8
0
100
AcDbLine
 62
7
  6
CONTINUOUS
 10
137.2870594125
 20
97.6053085942
 11
137.2870594125
 21
97.4157252092
  0
LINE
  5
32D
100
AcDbEntity
  8
0
100
AcDbLine
 62
7
  6
CONTINUOUS
 10
137.2870594125
 20
96.6573919017
 11
137.2870594125
 21
95.8719751318
  0
LINE
  5
32E
100
AcDbEntity
  8
0
100
AcDbLine
 62
7
  6
CONTINUOUS
 10
137.2870594125
 20
95.1678086717
 11
137.2870594125
 21
95.0594751318
  0
LINE
  5
32F
100
AcDbEntity
  8
RACCORDO
100
AcDbLine
 62
253
  6
CONTINUOUS
 10
137.3227506315
 20
121.2282943238
 11
137.3227506315
 21
119.923546688
  0
LINE
  5
330
100
AcDbEntity
  8
RACCORDO
100
AcDbLine
 62
253
  6
CONTINUOUS
 10
137.3227506315
 20
80.2853817601
 11
137.3227506315
 21
81.5287371155
  0
LINE
  5
331
100
AcDbEntity
  8
0
100
AcDbLine
 62
7
  6
CONTINUOUS
 10
137.4253572684
 20
94.0844751318
 11
137.4253572684
 21
94.2469751318
  0
LINE
  5
332
100
AcDbEntity
  8
0
100
AcDbLine
 62
7
  6
CONTINUOUS
 10
137.4253572684
 20
95.0865586717
 11
137.4253572684
 21
95.1407251318
  0
LINE
  5
333
100
AcDbEntity
  8
0
100
AcDbLine
 62
7
  6
CONTINUOUS
 10
137.4253572684
 20
95.8719751318
 11
137.4253572684
 21
96.7928085167
  0
LINE
  5
334
100
AcDbEntity
  8
0
100
AcDbLine
 62
7
  6
CONTINUOUS
 10
137.4253572684
 20
97.4428085942
 11
137.4253572684
 21
97.5782252092
  0
LINE
  5
335
100
AcDbEntity
  8
0
100
AcDbLine
 62
7
  6
CONTINUOUS
 10
137.4253572684
 20
98.2011419017
 11
137.4253572684
 21
98.3636419017
  0
LINE
  5
336
100
AcDbEntity
  8
RACCORDO
100
AcDbLine
 62
253
  6
CONTINUOUS
 10
137.5279639052
 20
80.2853817601
 11
137.5279639052
 21
81.5287371155
  0
LINE
  5
337
100
AcDbEntity
  8
RACCORDO
100
AcDbLine
 62
253
  6
CONTINUOUS
 10
137.5279639052
 20
119.923546688
 11
137.5279639052
 21
121.2282943238
  0
LINE
  5
338
100
AcDbEntity
  8
RACCORDO
100
AcDbLine
 62
253
  6
CONTINUOUS
 10
137.6288330462
 20
83.0296024491
 11
137.6288330462
 21
83.2295719881
  0
LWPOLYLINE
  5
339
100
AcDbEntity
  8
RACCORDO
100
AcDbPolyline
 62
253
  6
CONTINUOUS
 90
13
 70
0
 10
136.8399441403
 20
99.1205280629
 10
136.8400381965
 20
99.1464136988
 10
136.840286184
 20
99.1718768548
 10
136.8406839329
 20
99.1964893679
 10
136.8412247551
 20
99.2198373787
 10
136.8418995566
 20
99.2415282901
 10
136.8426969905
 20
99.2611973694
 10
136.8436036479
 20
99.2785138809
 10
136.8446042831
 20
99.2931866475
 10
136.84568207
 20
99.3049689464
 10
136.8468188855
 20
99.3136626583
 10
136.8479956138
 20
99.3191215983
 10
136.849192468
 20
99.3212539743
  0
LINE
  5
33A
100
AcDbEntity
  8
RACCORDO
100
AcDbLine
 62
7
  6
CONTINUOUS
 10
137.0099134603
 20
120.929018371
 11
137.0094299862
 21
120.2102031965
  0
LINE
  5
33B
100
AcDbEntity
  8
RACCORDO
100
AcDbLine
 62
7
  6
CONTINUOUS
 10
137.0103000607
 20
120.982868379
 11
137.0099134603
 21
120.929018371
  0
LWPOLYLINE
  5
33C
100
AcDbEntity
  8
RACCORDO
100
AcDbPolyline
 62
7
  6
CONTINUOUS
 90
5
 70
0
 10
137.011221447
 20
121.0294073165
 10
137.011016597
 20
121.0249984082
 10
137.0108224769
 20
121.0181789709
 10
137.0106390868
 20
121.0089490044
 10
137.0103000607
 20
120.982868379
  0
LINE
  5
33D
100
AcDbEntity
  8
RACCORDO
100
AcDbLine
 62
7
  6
CONTINUOUS
 10
137.8415283618
 20
120.2099593853
 11
137.8398983875
 21
120.1785948157
  0
LWPOLYLINE
  5
33E
100
AcDbEntity
  8
RACCORDO
100
AcDbPolyline
 62
7
  6
CONTINUOUS
 90
8
 70
0
 10
135.5334238277
 20
80.4771875589
 10
135.5338348919
 20
80.4816128066
 10
135.5342243374
 20
80.4884530472
 10
135.5345921642
 20
80.4977082805
 10
135.5349428119
 20
80.5095739811
 10
135.5352718408
 20
80.5238546745
 10
135.5355659325
 20
80.5399639374
 10
135.5360462313
 20
80.5778213172
  0
LINE
  5
33F
100
AcDbEntity
  8
0
100
AcDbLine
 62
7
  6
CONTINUOUS
 10
136.1530168419
 20
97.6865585942
 11
136.1253572684
 21
97.5511419017
  0
LINE
  5
340
100
AcDbEntity
  8
0
100
AcDbLine
 62
7
  6
CONTINUOUS
 10
136.1530168419
 20
96.5219752867
 11
136.1253572684
 21
96.3865585167
  0
LINE
  5
341
100
AcDbEntity
  8
0
100
AcDbLine
 62
7
  6
CONTINUOUS
 10
136.6232296269
 20
97.7136419017
 11
136.595570017
 21
97.5782252092
  0
LINE
  5
342
100
AcDbEntity
  8
0
100
AcDbLine
 62
7
  6
CONTINUOUS
 10
136.2636551436
 20
95.1948919017
 11
136.2913147147
 21
95.3303086717
  0
LINE
  5
343
100
AcDbEntity
  8
0
100
AcDbLine
 62
7
  6
CONTINUOUS
 10
136.2636551436
 20
96.3865585167
 11
136.2913147147
 21
96.4948919017
  0
LINE
  5
344
100
AcDbEntity
  8
RACCORDO
100
AcDbLine
 62
7
  6
CONTINUOUS
 10
144.680502398
 20
122.918856781
 11
144.7233586969
 21
123.0475302328
  0
LINE
  5
345
100
AcDbEntity
  8
0
100
AcDbLine
 62
7
  6
CONTINUOUS
 10
136.2636551436
 20
97.5782252092
 11
136.2913147147
 21
97.6594752092
  0
LINE
  5
346
100
AcDbEntity
  8
RACCORDO
100
AcDbLine
 62
253
  6
CONTINUOUS
 10
139.6815225619
 20
105.8322957722
 11
139.6922691559
 21
105.8430423662
  0
LINE
  5
347
100
AcDbEntity
  8
RACCORDO
100
AcDbLine
 62
253
  6
CONTINUOUS
 10
139.9827180352
 20
105.5335140917
 11
139.992345368
 21
105.5431414245
  0
LINE
  5
348
100
AcDbEntity
  8
RACCORDO
100
AcDbLine
 62
253
  6
CONTINUOUS
 10
132.8986435843
 20
102.1035969667
 11
132.9385621161
 21
102.1302059429
  0
LINE
  5
349
100
AcDbEntity
  8
DRAFT
100
AcDbLine
 62
7
  6
CONTINUOUS
 10
152.2651296487
 20
109.40571843
 11
152.2989660304
 21
109.4172793687
  0
LINE
  5
34A
100
AcDbEntity
  8
DRAFT
100
AcDbLine
 62
7
  6
CONTINUOUS
 10
152.2989660304
 20
109.4172793687
 11
152.3330085535
 21
109.4286869325
  0
LINE
  5
34B
100
AcDbEntity
  8
DRAFT
100
AcDbLine
 62
7
  6
CONTINUOUS
 10
152.3330085535
 20
109.4286869325
 11
152.3672547429
 21
109.4399488664
  0
LWPOLYLINE
  5
34C
100
AcDbEntity
  8
RACCORDO
100
AcDbPolyline
 62
253
  6
CONTINUOUS
 90
16
 70
0
 10
150.0288330462
 20
95.4226813544
 10
150.0394027685
 20
95.4232628556
 10
150.0496536221
 20
95.4248785551
 10
150.059585607
 20
95.427528453
 10
150.0693044412
 20
95.4312636164
 10
150.0787044068
 20
95.4360329782
 10
150.0874683494
 20
95.4416833367
 10
150.0955709857
 20
95.4482421803
 10
150.1030375991
 20
95.4556820205
 10
150.1096268856
 20
95.4637671907
 10
150.1153116815
 20
95.4725188644
 10
150.1201191505
 20
95.481915868
 10
150.1238894797
 20
95.4916590144
 10
150.1265693981
 20
95.5016485747
 10
150.1282121768
 20
95.5119842779
 10
150.1288178157
 20
95.5226661239
  0
LWPOLYLINE
  5
34D
100
AcDbEntity
  8
RACCORDO
100
AcDbPolyline
 62
253
  6
CONTINUOUS
 90
16
 70
0
 10
135.2288330462
 20
95.4226813544
 10
135.2394027685
 20
95.4232628556
 10
135.2496536221
 20
95.4248785551
 10
135.259585607
 20
95.427528453
 10
135.2693044412
 20
95.4312636164
 10
135.2787044068
 20
95.4360329782
 10
135.2874683494
 20
95.4416833367
 10
135.2955709857
 20
95.4482421803
 10
135.3030375991
 20
95.4556820205
 10
135.3096268856
 20
95.4637671907
 10
135.3153116815
 20
95.4725188644
 10
135.3201191505
 20
95.481915868
 10
135.3238894797
 20
95.4916590144
 10
135.3265693981
 20
95.5016485747
 10
135.3282121768
 20
95.5119842779
 10
135.3288178157
 20
95.5226661239
  0
LWPOLYLINE
  5
34E
100
AcDbEntity
  8
RACCORDO
100
AcDbPolyline
 62
253
  6
CONTINUOUS
 90
16
 70
0
 10
150.0288330462
 20
95.2227118153
 10
150.0601838466
 20
95.2243608549
 10
150.0911908894
 20
95.2292773116
 10
150.1215146163
 20
95.2374073053
 10
150.1508229515
 20
95.2486617475
 10
150.178794932
 20
95.2629173713
 10
150.2051242161
 20
95.2800180928
 10
150.2295224779
 20
95.2997766665
 10
150.2517224802
 20
95.3219766579
 10
150.2714810173
 20
95.346374849
 10
150.288582727
 20
95.372705818
 10
150.3028389413
 20
95.400679602
 10
150.3140916197
 20
95.4299837741
 10
150.3222189811
 20
95.4602947288
 10
150.3271348298
 20
95.4912822145
 10
150.3287873359
 20
95.5226069931
  0
LWPOLYLINE
  5
34F
100
AcDbEntity
  8
RACCORDO
100
AcDbPolyline
 62
253
  6
CONTINUOUS
 90
16
 70
0
 10
135.2288330462
 20
95.2227118153
 10
135.2601838466
 20
95.2243608549
 10
135.2911908894
 20
95.2292773116
 10
135.3215146163
 20
95.2374073053
 10
135.3508229515
 20
95.2486617475
 10
135.378794932
 20
95.2629173713
 10
135.4051242161
 20
95.2800180928
 10
135.4295224779
 20
95.2997766665
 10
135.4517224802
 20
95.3219766579
 10
135.4714810173
 20
95.346374849
 10
135.488582727
 20
95.372705818
 10
135.5028389413
 20
95.400679602
 10
135.5140916197
 20
95.4299837741
 10
135.5222189811
 20
95.4602947288
 10
135.5271348298
 20
95.4912822145
 10
135.5287873359
 20
95.5226069932
  0
LINE
  5
350
100
AcDbEntity
  8
RACCORDO
100
AcDbLine
 62
7
  6
CONTINUOUS
 10
149.6069643158
 20
95.2077946407
 11
150.0432895685
 21
95.208255293
  0
LINE
  5
351
100
AcDbEntity
  8
RACCORDO
100
AcDbLine
 62
7
  6
CONTINUOUS
 10
145.1584453727
 20
95.6092414292
 11
145.392221575
 21
95.6092890182
  0
LINE
  5
352
100
AcDbEntity
  8
0
100
AcDbLine
 62
7
  6
CONTINUOUS
 10
147.4253572684
 20
94.3336419947
 11
148.0062083404
 21
94.3336419947
  0
LINE
  5
353
100
AcDbEntity
  8
0
100
AcDbLine
 62
7
  6
CONTINUOUS
 10
148.1721657675
 20
94.3336419947
 11
148.5870594125
 21
94.3336419947
  0
LINE
  5
354
100
AcDbEntity
  8
0
100
AcDbLine
 62
7
  6
CONTINUOUS
 10
137.2317402702
 20
94.4094751318
 11
137.0104636233
 21
94.4094751318
  0
LINE
  5
355
100
AcDbEntity
  8
0
100
AcDbLine
 62
7
  6
CONTINUOUS
 10
148.7253572684
 20
94.4798919947
 11
147.4253572684
 21
94.4798919947
  0
LINE
  5
356
100
AcDbEntity
  8
0
100
AcDbLine
 62
7
  6
CONTINUOUS
 10
136.42961259
 20
94.6261419017
 11
136.5402508747
 21
94.6261419017
  0
LINE
  5
357
100
AcDbEntity
  8
0
100
AcDbLine
 62
7
  6
CONTINUOUS
 10
137.0657827656
 20
94.6532251318
 11
137.1211019855
 21
94.6532251318
  0
LINE
  5
358
100
AcDbEntity
  8
0
100
AcDbLine
 62
7
  6
CONTINUOUS
 10
136.5402508747
 20
94.7615586717
 11
136.42961259
 21
94.7615586717
  0
LINE
  5
359
100
AcDbEntity
  8
0
100
AcDbLine
 62
7
  6
CONTINUOUS
 10
137.1211019855
 20
94.7886419017
 11
137.0657827656
 21
94.7886419017
  0
LINE
  5
35A
100
AcDbEntity
  8
0
100
AcDbLine
 62
7
  6
CONTINUOUS
 10
136.8445061963
 20
95.1678086717
 11
136.7338679116
 21
95.1678086717
  0
LINE
  5
35B
100
AcDbEntity
  8
RACCORDO
100
AcDbLine
 62
253
  6
CONTINUOUS
 10
134.8218223468
 20
95.2227118153
 11
135.2288330462
 21
95.2227118153
  0
LINE
  5
35C
100
AcDbEntity
  8
RACCORDO
100
AcDbLine
 62
253
  6
CONTINUOUS
 10
149.6218223468
 20
95.2227118153
 11
150.0288330462
 21
95.2227118153
  0
LINE
  5
35D
100
AcDbEntity
  8
RACCORDO
100
AcDbLine
 62
253
  6
CONTINUOUS
 10
134.8218814905
 20
95.4226813544
 11
135.2288330462
 21
95.4226813544
  0
LINE
  5
35E
100
AcDbEntity
  8
RACCORDO
100
AcDbLine
 62
253
  6
CONTINUOUS
 10
149.6218814905
 20
95.4226813544
 11
150.0288330462
 21
95.4226813544
  0
LINE
  5
35F
100
AcDbEntity
  8
RACCORDO
100
AcDbLine
 62
253
  6
CONTINUOUS
 10
149.521896721
 20
95.5226661239
 11
149.3219271819
 21
95.5226661113
  0
LINE
  5
360
100
AcDbEntity
  8
RACCORDO
100
AcDbLine
 62
253
  6
CONTINUOUS
 10
135.3288178157
 20
95.5226661239
 11
135.5287873548
 21
95.5226661239
  0
LINE
  5
361
100
AcDbEntity
  8
RACCORDO
100
AcDbLine
 62
253
  6
CONTINUOUS
 10
150.1288178157
 20
95.5226661239
 11
150.3287873548
 21
95.5226661239
  0
LINE
  5
362
100
AcDbEntity
  8
RACCORDO
100
AcDbLine
 62
253
  6
CONTINUOUS
 10
134.721896721
 20
95.5226661239
 11
134.5219271819
 21
95.5226661113
  0
LINE
  5
363
100
AcDbEntity
  8
RACCORDO
100
AcDbLine
 62
7
  6
CONTINUOUS
 10
139.4691919748
 20
95.6199880313
 11
139.6815225619
 21
95.6199880313
  0
LINE
  5
364
100
AcDbEntity
  8
RACCORDO
100
AcDbLine
 62
7
  6
CONTINUOUS
 10
145.1691919748
 20
95.6199880313
 11
145.3815225619
 21
95.6199880313
  0
LINE
  5
365
100
AcDbEntity
  8
0
100
AcDbLine
 62
7
  6
CONTINUOUS
 10
136.4849317323
 20
95.8178086717
 11
136.595570017
 21
95.8178086717
  0
LINE
  5
366
100
AcDbEntity
  8
0
100
AcDbLine
 62
7
  6
CONTINUOUS
 10
147.4253572684
 20
95.8448918088
 11
148.7253572684
 21
95.8448918088
  0
LINE
  5
367
100
AcDbEntity
  8
0
100
AcDbLine
 62
7
  6
CONTINUOUS
 10
137.2870594125
 20
95.8719751318
 11
137.4253572684
 21
95.8719751318
  0
LINE
  5
368
100
AcDbEntity
  8
RACCORDO
100
AcDbLine
 62
7
  6
CONTINUOUS
 10
139.4584929617
 20
95.6092890182
 11
139.692269164
 21
95.6092414292
  0
LINE
  5
369
100
AcDbEntity
  8
RACCORDO
100
AcDbLine
 62
7
  6
CONTINUOUS
 10
134.8074249682
 20
95.208255293
 11
135.2437502209
 21
95.2077946407
  0
LWPOLYLINE
  5
36A
100
AcDbEntity
  8
RACCORDO
100
AcDbPolyline
 62
7
  6
CONTINUOUS
 90
16
 70
0
 10
149.6069643158
 20
95.2077946407
 10
149.575541876
 20
95.209407907
 10
149.5444474628
 20
95.2143004746
 10
149.5140231907
 20
95.2224238553
 10
149.4845765487
 20
95.2337058941
 10
149.4564643873
 20
95.2480211342
 10
149.4300746987
 20
95.2651634442
 10
149.4057344503
 20
95.284880247
 10
149.3836364004
 20
95.3069718802
 10
149.3639408969
 20
95.3312707656
 10
149.3468447593
 20
95.3575639724
 10
149.332578265
 20
95.3855315153
 10
149.3213220939
 20
95.4148286788
 10
149.3131996559
 20
95.4451185589
 10
149.3082901083
 20
95.4760828643
 10
149.3066438072
 20
95.5073827491
  0
LWPOLYLINE
  5
36B
100
AcDbEntity
  8
RACCORDO
100
AcDbPolyline
 62
7
  6
CONTINUOUS
 90
16
 70
0
 10
145.1584453727
 20
95.6092414292
 10
145.1270935171
 20
95.6108770227
 10
145.0960796528
 20
95.6157797331
 10
145.0657435579
 20
95.623897464
 10
145.0364043526
 20
95.6351487544
 10
145.0083988272
 20
95.6494087244
 10
144.9820709029
 20
95.6664966346
 10
144.9577393036
 20
95.6861817569
 10
144.9356177737
 20
95.7082654196
 10
144.9158755946
 20
95.732585177
 10
144.8987106218
 20
95.7589472243
 10
144.8843742545
 20
95.7870232155
 10
144.8730732817
 20
95.8164219316
 10
144.864930654
 20
95.846784965
 10
144.860014218
 20
95.8778055896
 10
144.8583691318
 20
95.9091423421
  0
LWPOLYLINE
  5
36C
100
AcDbEntity
  8
RACCORDO
100
AcDbPolyline
 62
7
  6
CONTINUOUS
 90
16
 70
0
 10
139.4584929617
 20
95.6092890182
 10
139.4271612187
 20
95.6109368475
 10
139.3961650838
 20
95.6158502772
 10
139.365844249
 20
95.6239778
 10
139.3365176782
 20
95.6352388074
 10
139.3085225362
 20
95.649508777
 10
139.2822034789
 20
95.6666064871
 10
139.2578794405
 20
95.6863012916
 10
139.2357643063
 20
95.7083947661
 10
139.2160277375
 20
95.7327237325
 10
139.1988676824
 20
95.7590942403
 10
139.1845355569
 20
95.7871779763
 10
139.1732381226
 20
95.8165830229
 10
139.1650981939
 20
95.8469506497
 10
139.1601835158
 20
95.8779742584
 10
139.1585391227
 20
95.909312333
  0
LWPOLYLINE
  5
36D
100
AcDbEntity
  8
RACCORDO
100
AcDbPolyline
 62
7
  6
CONTINUOUS
 90
16
 70
0
 10
134.8074249682
 20
95.208255293
 10
134.7761075808
 20
95.2099320131
 10
134.7451063829
 20
95.2148799349
 10
134.7147629765
 20
95.2230534657
 10
134.6853843135
 20
95.2343846014
 10
134.6573286467
 20
95.2487496778
 10
134.6309866129
 20
95.2659405653
 10
134.6066859555
 20
95.2857055727
 10
134.5846206681
 20
95.3078463297
 10
134.5649533141
 20
95.332191542
 10
134.5478814883
 20
95.3585272964
 10
134.5336354259
 20
95.3865341631
 10
134.5223955576
 20
95.4158648914
 10
134.5142849983
 20
95.4461813789
 10
134.5093829761
 20
95.4771656917
 10
134.5077396905
 20
95.5084786325
  0
LWPOLYLINE
  5
36E
100
AcDbEntity
  8
RACCORDO
100
AcDbPolyline
 62
7
  6
CONTINUOUS
 90
16
 70
0
 10
139.4691919748
 20
95.6199880313
 10
139.4354701128
 20
95.6218816732
 10
139.4025504224
 20
95.6274501872
 10
139.3708178716
 20
95.6364939738
 10
139.340650656
 20
95.64876139
 10
139.3123206132
 20
95.6639970229
 10
139.2860099268
 20
95.6819813914
 10
139.2619383617
 20
95.7024570004
 10
139.2403402224
 20
95.725109521
 10
139.2213818738
 20
95.7496405509
 10
139.20519786
 20
95.7757302086
 10
139.1918808943
 20
95.8030615538
 10
139.1814874257
 20
95.8313394166
 10
139.1740479931
 20
95.860257967
 10
139.1695620741
 20
95.8895009967
 10
139.1679965015
 20
95.9187697118
  0
LWPOLYLINE
  5
36F
100
AcDbEntity
  8
RACCORDO
100
AcDbPolyline
 62
7
  6
CONTINUOUS
 90
16
 70
0
 10
145.1691919748
 20
95.6199880313
 10
145.1354701128
 20
95.6218816732
 10
145.1025504224
 20
95.6274501872
 10
145.0708178716
 20
95.6364939738
 10
145.040650656
 20
95.64876139
 10
145.0123206132
 20
95.6639970229
 10
144.9860099268
 20
95.6819813914
 10
144.9619383617
 20
95.7024570004
 10
144.9403402224
 20
95.725109521
 10
144.9213818738
 20
95.7496405509
 10
144.90519786
 20
95.7757302086
 10
144.8918808943
 20
95.8030615538
 10
144.8814874257
 20
95.8313394166
 10
144.8740479931
 20
95.860257967
 10
144.8695620741
 20
95.8895009967
 10
144.8679965015
 20
95.9187697118
  0
LINE
  5
370
100
AcDbEntity
  8
0
100
AcDbLine
 62
7
  6
CONTINUOUS
 10
137.2317402702
 20
95.5469751318
 11
137.1211019855
 21
95.5740586717
  0
LINE
  5
371
100
AcDbEntity
  8
0
100
AcDbLine
 62
7
  6
CONTINUOUS
 10
148.2274849098
 20
93.6023917158
 11
148.3104636233
 21
93.5780170877
  0
LINE
  5
372
100
AcDbEntity
  8
0
100
AcDbLine
 62
7
  6
CONTINUOUS
 10
148.3381231945
 20
93.7242670877
 11
148.255144481
 21
93.7486417158
  0
LINE
  5
373
100
AcDbEntity
  8
0
100
AcDbLine
 62
7
  6
CONTINUOUS
 10
136.5125913035
 20
95.9532252867
 11
136.42961259
 21
95.9803085167
  0
LINE
  5
374
100
AcDbEntity
  8
0
100
AcDbLine
 62
7
  6
CONTINUOUS
 10
136.5125913035
 20
97.1719752867
 11
136.42961259
 21
97.1990585167
  0
LINE
  5
375
100
AcDbEntity
  8
0
100
AcDbLine
 62
7
  6
CONTINUOUS
 10
136.9828040521
 20
97.1719752867
 11
136.8998253386
 21
97.1990585167
  0
LINE
  5
376
100
AcDbEntity
  8
0
100
AcDbLine
 62
7
  6
CONTINUOUS
 10
136.3466338571
 20
97.0907252867
 11
136.4849317323
 21
97.0365585167
  0
LINE
  5
377
100
AcDbEntity
  8
0
100
AcDbLine
 62
7
  6
CONTINUOUS
 10
136.42961259
 20
97.1990585167
 11
136.3466338571
 21
97.2532252092
  0
LINE
  5
378
100
AcDbEntity
  8
0
100
AcDbLine
 62
7
  6
CONTINUOUS
 10
136.8998253386
 20
97.1990585167
 11
136.8168466251
 21
97.2532252092
  0
LINE
  5
379
100
AcDbEntity
  8
0
100
AcDbLine
 62
7
  6
CONTINUOUS
 10
137.1211019855
 20
97.8219752092
 11
137.204080699
 21
97.7678085942
  0
LINE
  5
37A
100
AcDbEntity
  8
0
100
AcDbLine
 62
7
  6
CONTINUOUS
 10
137.3147189837
 20
97.8490585942
 11
137.204080699
 21
97.9303085555
  0
LWPOLYLINE
  5
37B
100
AcDbEntity
  8
RACCORDO
100
AcDbPolyline
 62
253
  6
CONTINUOUS
 90
8
 70
0
 10
137.4221485839
 20
98.5380317962
 10
137.5368791913
 20
98.4474385659
 10
137.6559382917
 20
98.3629638819
 10
137.7793355006
 20
98.2846111648
 10
137.906369604
 20
98.2127989894
 10
138.0368069746
 20
98.1476667768
 10
138.1708816276
 20
98.0890748055
 10
138.3085937249
 20
98.0370229218
  0
LINE
  5
37C
100
AcDbEntity
  8
0
100
AcDbLine
 62
7
  6
CONTINUOUS
 10
137.0104636233
 20
98.5261419017
 11
137.204080699
 21
98.3636419017
  0
LINE
  5
37D
100
AcDbEntity
  8
0
100
AcDbLine
 62
7
  6
CONTINUOUS
 10
137.4253572684
 20
98.3636419017
 11
137.2317402702
 21
98.5261419017
  0
LINE
  5
37E
100
AcDbEntity
  8
RACCORDO
100
AcDbLine
 62
253
  6
CONTINUOUS
 10
137.3117554512
 20
98.6347472368
 11
137.4221485839
 21
98.5380317962
  0
LINE
  5
37F
100
AcDbEntity
  8
RACCORDO
100
AcDbLine
 62
7
  6
CONTINUOUS
 10
135.5411294687
 20
99.3224415975
 11
135.5287873548
 21
99.3347837114
  0
LINE
  5
380
100
AcDbEntity
  8
RACCORDO
100
AcDbLine
 62
253
  6
CONTINUOUS
 10
139.6815225619
 20
95.6199880313
 11
139.692269164
 21
95.6092414292
  0
LINE
  5
381
100
AcDbEntity
  8
RACCORDO
100
AcDbLine
 62
253
  6
CONTINUOUS
 10
139.9827180352
 20
95.9187697118
 11
139.9923454049
 21
95.9091423421
  0
LWPOLYLINE
  5
382
100
AcDbEntity
  8
RACCORDO
100
AcDbPolyline
 62
253
  6
CONTINUOUS
 90
13
 70
0
 10
137.2804407854
 20
99.3491699874
 10
137.2559057207
 20
99.3813184877
 10
137.2292795972
 20
99.4110633483
 10
137.200562415
 20
99.438404569
 10
137.1695497948
 20
99.4634793946
 10
137.1364461158
 20
99.4861505804
 10
137.1018645161
 20
99.5060063924
 10
137.0657823391
 20
99.5230026818
 10
137.0282222415
 20
99.5371835973
 10
136.9898653314
 20
99.5482698511
 10
136.9509386449
 20
99.5561683472
 10
136.9112151459
 20
99.5609721816
 10
136.8706948344
 20
99.5626813544
  0
LWPOLYLINE
  5
383
100
AcDbEntity
  8
RACCORDO
100
AcDbPolyline
 62
253
  6
CONTINUOUS
 90
10
 70
0
 10
137.0937384168
 20
99.1948930177
 10
137.2000706583
 20
99.0550705845
 10
137.3149231664
 20
98.9231741122
 10
137.4376792278
 20
98.7996796555
 10
137.5674841369
 20
98.6851918589
 10
137.7038733626
 20
98.5798837287
 10
137.8468869908
 20
98.483640434
 10
137.9961711523
 20
98.3967496667
 10
138.1508697112
 20
98.3197556211
 10
138.3103288228
 20
98.2529984283
  0
LWPOLYLINE
  5
384
100
AcDbEntity
  8
RACCORDO
100
AcDbPolyline
 62
253
  6
CONTINUOUS
 90
13
 70
0
 10
137.116508598
 20
99.2346533541
 10
137.1019732827
 20
99.2537663915
 10
137.0859603982
 20
99.2716503741
 10
137.0685736036
 20
99.2881918485
 10
137.0499277967
 20
99.303284175
 10
137.0301409022
 20
99.316834356
 10
137.0093316338
 20
99.3287615026
 10
136.9876301411
 20
99.3389897063
 10
136.9651771363
 20
99.3474514269
 10
136.942114361
 20
99.3540921975
 10
136.9185885253
 20
99.3588684459
 10
136.8947505271
 20
99.3617482072
 10
136.8707528961
 20
99.3627118122
  0
LWPOLYLINE
  5
385
100
AcDbEntity
  8
RACCORDO
100
AcDbPolyline
 62
253
  6
CONTINUOUS
 90
5
 70
0
 10
136.9215726448
 20
99.0783439274
 10
137.011459352
 20
98.9589071726
 10
137.1064112529
 20
98.8451848502
 10
137.2064287751
 20
98.7371769044
 10
137.3117554512
 20
98.6347472368
  0
LINE
  5
386
100
AcDbEntity
  8
0
100
AcDbLine
 62
7
  6
CONTINUOUS
 10
137.204080699
 20
97.7678085942
 11
137.2593998413
 21
97.6865585942
  0
LINE
  5
387
100
AcDbEntity
  8
0
100
AcDbLine
 62
7
  6
CONTINUOUS
 10
137.3976976972
 20
97.7136419017
 11
137.3147189837
 21
97.8490585942
  0
LWPOLYLINE
  5
388
100
AcDbEntity
  8
RACCORDO
100
AcDbPolyline
 62
7
  6
CONTINUOUS
 90
13
 70
0
 10
137.3493875689
 20
99.7764370792
 10
137.3330637127
 20
99.8055580577
 10
137.3147871156
 20
99.8323975513
 10
137.2945577774
 20
99.8569555599
 10
137.2721752317
 20
99.8793395582
 10
137.2478399449
 20
99.8994420716
 10
137.2221533168
 20
99.9169406761
 10
137.1952531161
 20
99.9317450612
 10
137.1670015741
 20
99.9439455373
 10
137.1375867842
 20
99.9534906122
 10
137.1070714444
 20
99.9603631216
 10
137.0753928568
 20
99.9645802297
 10
137.0425510213
 20
99.9661419364
  0
LINE
  5
389
100
AcDbEntity
  8
0
100
AcDbLine
 62
7
  6
CONTINUOUS
 10
137.2593998413
 20
97.6865585942
 11
137.2870594125
 21
97.6053085942
  0
LINE
  5
38A
100
AcDbEntity
  8
RACCORDO
100
AcDbLine
 62
253
  6
CONTINUOUS
 10
132.5301149995
 20
121.1871013249
 11
132.6221286731
 21
120.7556535154
  0
LINE
  5
38B
100
AcDbEntity
  8
RACCORDO
100
AcDbLine
 62
253
  6
CONTINUOUS
 10
132.8297399121
 20
121.4861419017
 11
132.9217855387
 21
121.0543428391
  0
LINE
  5
38C
100
AcDbEntity
  8
0
100
AcDbLine
 62
7
  6
CONTINUOUS
 10
136.595570017
 20
97.4428085942
 11
136.6232296269
 21
97.3073919017
  0
LINE
  5
38D
100
AcDbEntity
  8
0
100
AcDbLine
 62
7
  6
CONTINUOUS
 10
136.955144481
 20
96.3865585167
 11
136.9274849098
 21
96.5219752867
  0
LINE
  5
38E
100
AcDbEntity
  8
0
100
AcDbLine
 62
7
  6
CONTINUOUS
 10
137.2593998413
 20
95.3032251318
 11
137.2870594125
 21
95.1678086717
  0
LINE
  5
38F
100
AcDbEntity
  8
0
100
AcDbLine
 62
7
  6
CONTINUOUS
 10
137.4253572684
 20
97.5782252092
 11
137.3976976972
 21
97.7136419017
  0
LINE
  5
390
100
AcDbEntity
  8
0
100
AcDbLine
 62
7
  6
CONTINUOUS
 10
137.4253572684
 20
95.1407251318
 11
137.3976976972
 21
95.3303086717
  0
LINE
  5
391
100
AcDbEntity
  8
RACCORDO
100
AcDbLine
 62
253
  6
CONTINUOUS
 10
138.3244921971
 20
103.2338975114
 11
138.3085922722
 21
103.393297563
  0
LINE
  5
392
100
AcDbEntity
  8
RACCORDO
100
AcDbLine
 62
253
  6
CONTINUOUS
 10
138.6243438858
 20
103.5341282541
 11
138.6083079552
 21
103.6948917908
  0
LWPOLYLINE
  5
393
100
AcDbEntity
  8
RACCORDO
100
AcDbPolyline
 62
253
  6
CONTINUOUS
 90
16
 70
0
 10
139.1727620546
 20
96.5695604868
 10
139.1746002052
 20
96.5494886873
 10
139.179677219
 20
96.5296349222
 10
139.187937948
 20
96.510214867
 10
139.1992926588
 20
96.4914394861
 10
139.2136180069
 20
96.4735127416
 10
139.2307583763
 20
96.4566293776
 10
139.2505275669
 20
96.440972806
 10
139.2727108275
 20
96.4267131062
 10
139.2970671917
 20
96.4140051805
 10
139.3233320969
 20
96.4029870751
 10
139.3512202064
 20
96.3937784983
 10
139.3804285121
 20
96.3864795026
 10
139.4106396936
 20
96.3811693763
 10
139.4415255741
 20
96.3779057943
 10
139.4727506315
 20
96.3767242039
  0
LINE
  5
394
100
AcDbEntity
  8
RACCORDO
100
AcDbLine
 62
7
  6
CONTINUOUS
 10
137.8397337459
 20
121.0260213523
 11
137.8279524821
 21
121.1917804007
  0
LWPOLYLINE
  5
395
100
AcDbEntity
  8
RACCORDO
100
AcDbPolyline
 62
253
  6
CONTINUOUS
 90
16
 70
0
 10
138.4244883894
 20
98.1683862921
 10
138.4257035784
 20
98.14692554
 10
138.4289935555
 20
98.1261650078
 10
138.4343583208
 20
98.1061046956
 10
138.4419056659
 20
98.0865447469
 10
138.4515277991
 20
98.0676850181
 10
138.4629013454
 20
98.0501250787
 10
138.4760799262
 20
98.033908375
 10
138.4910099202
 20
98.0189914607
 10
138.5072070878
 20
98.0058435657
 10
138.5247206967
 20
97.9945199535
 10
138.5435014793
 20
97.9849653605
 10
138.5629173937
 20
97.9774832266
 10
138.5827577592
 20
97.9721746983
 10
138.6032332566
 20
97.9689386292
 10
138.6243438858
 20
97.9677750191
  0
LWPOLYLINE
  5
396
100
AcDbEntity
  8
RACCORDO
100
AcDbPolyline
 62
253
  6
CONTINUOUS
 90
16
 70
0
 10
138.3244922217
 20
98.1683212689
 10
138.3261496151
 20
98.1369260686
 10
138.3310753679
 20
98.1058788629
 10
138.3392158362
 20
98.07551812
 10
138.3504830808
 20
98.0461710672
 10
138.3647535309
 20
98.0181619434
 10
138.3818668594
 20
97.9918072358
 10
138.4016318916
 20
97.9673957374
 10
138.4238319804
 20
97.9451893227
 10
138.4482235993
 20
97.9254312749
 10
138.4745381583
 20
97.9083362169
 10
138.5024873381
 20
97.8940879163
 10
138.5317676509
 20
97.8828409453
 10
138.5620597137
 20
97.8747173951
 10
138.5930313085
 20
97.8698046872
 10
138.6243438858
 20
97.8681555493
  0
LWPOLYLINE
  5
397
100
AcDbEntity
  8
RACCORDO
100
AcDbPolyline
 62
253
  6
CONTINUOUS
 90
16
 70
0
 10
137.0227620546
 20
120.2235352649
 10
137.0244076572
 20
120.1921793857
 10
137.0293216623
 20
120.1611670117
 10
137.0374502373
 20
120.1308378895
 10
137.048704338
 20
120.1015242707
 10
137.0629606723
 20
120.0735473029
 10
137.0800630414
 20
120.0472135062
 10
137.0998240672
 20
120.0228113798
 10
137.122027266
 20
120.0006082327
 10
137.1464294069
 20
119.9808472867
 10
137.1727631612
 20
119.9637450218
 10
137.200740036
 20
119.9494887939
 10
137.2300535505
 20
119.938234775
 10
137.2603825758
 20
119.9301062537
 10
137.2913948504
 20
119.9251922803
 10
137.3227506315
 20
119.923546688
  0
LWPOLYLINE
  5
398
100
AcDbEntity
  8
RACCORDO
100
AcDbPolyline
 62
7
  6
CONTINUOUS
 90
4
 70
0
 10
137.8403159956
 20
121.0055821603
 10
137.8401326246
 20
121.0148034577
 10
137.8399385413
 20
121.0216165217
 10
137.8397337459
 20
121.0260213523
  0
LINE
  5
399
100
AcDbEntity
  8
RACCORDO
100
AcDbLine
 62
7
  6
CONTINUOUS
 10
137.840655036
 20
120.9795265492
 11
137.8403159956
 21
121.0055821603
  0
LINE
  5
39A
100
AcDbEntity
  8
RACCORDO
100
AcDbLine
 62
253
  6
CONTINUOUS
 10
139.1727620546
 20
104.8827233166
 11
139.1679965015
 21
105.5335140917
  0
LINE
  5
39B
100
AcDbEntity
  8
RACCORDO
100
AcDbLine
 62
7
  6
CONTINUOUS
 10
137.8410418026
 20
120.9257258364
 11
137.840655036
 21
120.9795265492
  0
LINE
  5
39C
100
AcDbEntity
  8
RACCORDO
100
AcDbLine
 62
7
  6
CONTINUOUS
 10
137.8415283618
 20
120.2099593853
 11
137.8410418026
 21
120.9257258364
  0
LINE
  5
39D
100
AcDbEntity
  8
RACCORDO
100
AcDbLine
 62
253
  6
CONTINUOUS
 10
137.7288178157
 20
81.4646996833
 11
137.7288178157
 21
82.9296176796
  0
LINE
  5
39E
100
AcDbEntity
  8
RACCORDO
100
AcDbLine
 62
7
  6
CONTINUOUS
 10
137.8279524821
 20
80.3218956832
 11
137.8279524821
 21
81.2287485386
  0
LINE
  5
39F
100
AcDbEntity
  8
RACCORDO
100
AcDbLine
 62
7
  6
CONTINUOUS
 10
137.8279524821
 20
120.2235352649
 11
137.8279524821
 21
121.1917804007
  0
LINE
  5
3A0
100
AcDbEntity
  8
RACCORDO
100
AcDbLine
 62
7
  6
CONTINUOUS
 10
137.8352243471
 20
80.4242087664
 11
137.8352243471
 21
81.2360204036
  0
LINE
  5
3A1
100
AcDbEntity
  8
RACCORDO
100
AcDbLine
 62
253
  6
CONTINUOUS
 10
137.9287873548
 20
80.444573112
 11
137.9287873548
 21
82.9296176796
  0
LINE
  5
3A2
100
AcDbEntity
  8
RACCORDO
100
AcDbLine
 62
7
  6
CONTINUOUS
 10
138.3244921971
 20
98.2779251737
 11
138.3244921971
 21
98.1683210934
  0
LINE
  5
3A3
100
AcDbEntity
  8
RACCORDO
100
AcDbLine
 62
7
  6
CONTINUOUS
 10
138.3244921971
 20
103.1743586298
 11
138.3244921971
 21
103.2338975114
  0
LINE
  5
3A4
100
AcDbEntity
  8
RACCORDO
100
AcDbLine
 62
253
  6
CONTINUOUS
 10
138.4244883894
 20
98.2442319338
 11
138.4244883894
 21
98.1683862921
  0
LINE
  5
3A5
100
AcDbEntity
  8
RACCORDO
100
AcDbLine
 62
253
  6
CONTINUOUS
 10
138.4244883894
 20
103.2080518697
 11
138.4244883894
 21
103.2338975114
  0
LINE
  5
3A6
100
AcDbEntity
  8
RACCORDO
100
AcDbLine
 62
253
  6
CONTINUOUS
 10
138.6243438858
 20
103.5341282541
 11
138.6243438858
 21
103.4345087843
  0
LINE
  5
3A7
100
AcDbEntity
  8
RACCORDO
100
AcDbLine
 62
253
  6
CONTINUOUS
 10
138.6243438858
 20
97.9677750191
 11
138.6243438858
 21
97.8681555493
  0
LINE
  5
3A8
100
AcDbEntity
  8
RACCORDO
100
AcDbLine
 62
7
  6
CONTINUOUS
 10
139.158387746
 20
97.7060189125
 11
139.1585391227
 21
95.909312333
  0
LINE
  5
3A9
100
AcDbEntity
  8
RACCORDO
100
AcDbLine
 62
7
  6
CONTINUOUS
 10
139.1727620546
 20
104.8827233166
 11
139.1727620546
 21
103.5521594589
  0
LINE
  5
3AA
100
AcDbEntity
  8
RACCORDO
100
AcDbLine
 62
7
  6
CONTINUOUS
 10
139.1727620546
 20
97.8501243446
 11
139.1727620546
 21
96.5695604868
  0
LINE
  5
3AB
100
AcDbEntity
  8
DRAFT
100
AcDbLine
 62
253
  6
CONTINUOUS
 10
139.2503572684
 20
99.2011419017
 11
139.2503572684
 21
98.6011419017
  0
LINE
  5
3AC
100
AcDbEntity
  8
RACCORDO
100
AcDbLine
 62
253
  6
CONTINUOUS
 10
139.2503572684
 20
98.1104323433
 11
139.2503572684
 21
98.3226813544
  0
LINE
  5
3AD
100
AcDbEntity
  8
RACCORDO
100
AcDbLine
 62
253
  6
CONTINUOUS
 10
139.2503572684
 20
103.1296024491
 11
139.2503572684
 21
103.3418514602
  0
LINE
  5
3AE
100
AcDbEntity
  8
DRAFT
100
AcDbLine
 62
253
  6
CONTINUOUS
 10
139.2503575802
 20
102.2511419017
 11
139.2503572684
 21
102.8511419017
  0
LINE
  5
3AF
100
AcDbEntity
  8
RACCORDO
100
AcDbLine
 62
7
  6
CONTINUOUS
 10
138.3085818242
 20
103.2023594745
 11
138.3085922722
 21
103.393297563
  0
LINE
  5
3B0
100
AcDbEntity
  8
RACCORDO
100
AcDbLine
 62
7
  6
CONTINUOUS
 10
139.1585390679
 20
105.5429715253
 11
139.1583844538
 21
103.6962978957
  0
LINE
  5
3B1
100
AcDbEntity
  8
RACCORDO
100
AcDbLine
 62
7
  6
CONTINUOUS
 10
137.9379437187
 20
80.631051312
 11
137.9398946319
 21
82.9407249568
  0
LINE
  5
3B2
100
AcDbEntity
  8
RACCORDO
100
AcDbLine
 62
7
  6
CONTINUOUS
 10
138.3088284574
 20
98.1448899704
 11
138.308595341
 21
98.0090170056
  0
LINE
  5
3B3
100
AcDbEntity
  8
RACCORDO
100
AcDbLine
 62
253
  6
CONTINUOUS
 10
139.1679965015
 20
95.9187697118
 11
139.1727620546
 21
96.5695604868
  0
LINE
  5
3B4
100
AcDbEntity
  8
RACCORDO
100
AcDbLine
 62
7
  6
CONTINUOUS
 10
137.9376316171
 20
80.5886966661
 11
137.9379437187
 21
80.631051312
  0
LINE
  5
3B5
100
AcDbEntity
  8
RACCORDO
100
AcDbLine
 62
7
  6
CONTINUOUS
 10
138.3092796498
 20
98.2079339992
 11
138.3088284574
 21
98.1448899704
  0
LWPOLYLINE
  5
3B6
100
AcDbEntity
  8
RACCORDO
100
AcDbPolyline
 62
7
  6
CONTINUOUS
 90
16
 70
0
 10
136.9114465761
 20
82.9400982855
 10
136.9130666825
 20
82.971499108
 10
136.9179619453
 20
83.0025760112
 10
136.926084556
 20
83.0329871564
 10
136.9373630927
 20
83.0624253114
 10
136.9516727863
 20
83.090533499
 10
136.9688080187
 20
83.1169232687
 10
136.9885165987
 20
83.14126739
 10
137.0105994738
 20
83.1633728932
 10
137.0348897685
 20
83.1830789292
 10
137.0611744576
 20
83.2001880301
 10
137.0891342219
 20
83.2144696325
 10
137.1184262811
 20
83.2257425685
 10
137.1487144984
 20
83.2338823477
 10
137.1796799418
 20
83.2388086382
 10
137.210983478
 20
83.2404700007
  0
LWPOLYLINE
  5
3B7
100
AcDbEntity
  8
RACCORDO
100
AcDbPolyline
 62
7
  6
CONTINUOUS
 90
16
 70
0
 10
138.3085922722
 20
103.393297563
 10
138.3102361261
 20
103.4247607918
 10
138.3151482362
 20
103.4558849852
 10
138.3232756743
 20
103.4863314924
 10
138.334536018
 20
103.5157849895
 10
138.3488037251
 20
103.543907406
 10
138.3658976294
 20
103.5703484673
 10
138.3855870409
 20
103.5947913766
 10
138.4076720064
 20
103.6170231262
 10
138.431986868
 20
103.6368672884
 10
138.4583368095
 20
103.6541283307
 10
138.4863926044
 20
103.6685576767
 10
138.5157591087
 20
103.6799442645
 10
138.5460764344
 20
103.6881666722
 10
138.5770394757
 20
103.6931630987
 10
138.6083079552
 20
103.6948917908
  0
LWPOLYLINE
  5
3B8
100
AcDbEntity
  8
RACCORDO
100
AcDbPolyline
 62
253
  6
CONTINUOUS
 90
16
 70
0
 10
138.3244921971
 20
103.2338975114
 10
138.3261454031
 20
103.2653177663
 10
138.3310709048
 20
103.2963839538
 10
138.3392131144
 20
103.3267572927
 10
138.3504813268
 20
103.3561087627
 10
138.364750574
 20
103.3841166794
 10
138.3818624767
 20
103.4104704645
 10
138.4016272864
 20
103.4348828963
 10
138.4238273371
 20
103.4570902733
 10
138.4482190929
 20
103.4768492498
 10
138.4745339334
 20
103.4939451523
 10
138.5024835527
 20
103.5081942111
 10
138.5317645167
 20
103.5194418504
 10
138.5620574538
 20
103.5275659375
 10
138.5930301031
 20
103.5324789955
 10
138.6243438858
 20
103.5341282541
  0
LWPOLYLINE
  5
3B9
100
AcDbEntity
  8
RACCORDO
100
AcDbPolyline
 62
7
  6
CONTINUOUS
 90
16
 70
0
 10
139.1585390679
 20
105.5429715253
 10
139.1601828355
 20
105.5743036594
 10
139.1650913255
 20
105.6053011491
 10
139.1732132236
 20
105.6356243639
 10
139.1844680843
 20
105.6649545089
 10
139.1987316279
 20
105.6929542492
 10
139.2158228693
 20
105.7192784612
 10
139.2355111915
 20
105.7436080806
 10
139.2575983196
 20
105.7657292698
 10
139.2819214272
 20
105.7854721553
 10
139.3082865894
 20
105.8026386554
 10
139.3363656052
 20
105.8169772612
 10
139.365767063
 20
105.8282809423
 10
139.3961324208
 20
105.8364266064
 10
139.4271549082
 20
105.8413463137
 10
139.4584929445
 20
105.8429948025
  0
LWPOLYLINE
  5
3BA
100
AcDbEntity
  8
RACCORDO
100
AcDbPolyline
 62
7
  6
CONTINUOUS
 90
16
 70
0
 10
139.1679965015
 20
105.5335140917
 10
139.1695620741
 20
105.5627828068
 10
139.1740479931
 20
105.5920258365
 10
139.1814874257
 20
105.6209443868
 10
139.1918808943
 20
105.6492222496
 10
139.20519786
 20
105.6765535948
 10
139.2213818738
 20
105.7026432526
 10
139.2403402224
 20
105.7271742825
 10
139.2619383617
 20
105.7498268031
 10
139.2860099268
 20
105.7703024121
 10
139.3123206132
 20
105.7882867806
 10
139.340650656
 20
105.8035224135
 10
139.3708178716
 20
105.8157898296
 10
139.4025504224
 20
105.8248336163
 10
139.4354701128
 20
105.8304021303
 10
139.4691919748
 20
105.8322957722
  0
LWPOLYLINE
  5
3BB
100
AcDbEntity
  8
RACCORDO
100
AcDbPolyline
 62
253
  6
CONTINUOUS
 90
16
 70
0
 10
138.4244883894
 20
103.2338975114
 10
138.4256736291
 20
103.2552300244
 10
138.4289339016
 20
103.2758972462
 10
138.434269207
 20
103.2958991768
 10
138.4417848749
 20
103.3154446445
 10
138.4513755757
 20
103.3343248211
 10
138.4627253202
 20
103.3519132221
 10
138.4758899026
 20
103.3681605083
 10
138.4908135286
 20
103.3831160189
 10
138.5070128266
 20
103.3963012864
 10
138.524537306
 20
103.407659491
 10
138.5433374573
 20
103.4172474526
 10
138.5627813809
 20
103.4247571635
 10
138.5826584436
 20
103.4300859545
 10
138.6031792785
 20
103.4333364948
 10
138.6243438858
 20
103.4345087843
  0
LINE
  5
3BC
100
AcDbEntity
  8
RACCORDO
100
AcDbLine
 62
253
  6
CONTINUOUS
 10
138.3244921971
 20
98.1683210934
 11
138.308595341
 21
98.0090170056
  0
LINE
  5
3BD
100
AcDbEntity
  8
RACCORDO
100
AcDbLine
 62
253
  6
CONTINUOUS
 10
138.6243438858
 20
97.8681555493
 11
138.6083113049
 21
97.7074255935
  0
LWPOLYLINE
  5
3BE
100
AcDbEntity
  8
RACCORDO
100
AcDbPolyline
 62
7
  6
CONTINUOUS
 90
5
 70
0
 10
138.3103288324
 20
98.2529984286
 10
138.3101007954
 20
98.2507155271
 10
138.3098825751
 20
98.2451173595
 10
138.3096741716
 20
98.2362039257
 10
138.3092796498
 20
98.2079339992
  0
LINE
  5
3BF
100
AcDbEntity
  8
RACCORDO
100
AcDbLine
 62
7
  6
CONTINUOUS
 10
135.5287873548
 20
80.444573112
 11
135.5334238277
 21
80.4771875589
  0
LINE
  5
3C0
100
AcDbEntity
  8
0
100
AcDbLine
 62
7
  6
CONTINUOUS
 10
137.3976976972
 20
94.8969751318
 11
137.4253572684
 21
95.0865586717
  0
LINE
  5
3C1
100
AcDbEntity
  8
0
100
AcDbLine
 62
7
  6
CONTINUOUS
 10
136.7338679116
 20
95.0594751318
 11
136.7062083404
 21
94.8969751318
  0
LINE
  5
3C2
100
AcDbEntity
  8
0
100
AcDbLine
 62
7
  6
CONTINUOUS
 10
136.9274849098
 20
96.0886419017
 11
136.955144481
 21
96.2240585167
  0
LINE
  5
3C3
100
AcDbEntity
  8
0
100
AcDbLine
 62
7
  6
CONTINUOUS
 10
137.3976976972
 20
97.3073919017
 11
137.4253572684
 21
97.4428085942
  0
LINE
  5
3C4
100
AcDbEntity
  8
0
100
AcDbLine
 62
7
  6
CONTINUOUS
 10
137.2870594125
 20
95.0594751318
 11
137.2593998413
 21
94.9240586717
  0
LINE
  5
3C5
100
AcDbEntity
  8
0
100
AcDbLine
 62
7
  6
CONTINUOUS
 10
136.1530168419
 20
95.3303086717
 11
136.1253572684
 21
95.2219751318
  0
LINE
  5
3C6
100
AcDbEntity
  8
0
100
AcDbLine
 62
7
  6
CONTINUOUS
 10
136.8168466251
 20
96.2240585167
 11
136.7891870539
 21
96.1157252867
  0
LINE
  5
3C7
100
AcDbEntity
  8
DRAFT
100
AcDbLine
 62
7
  6
CONTINUOUS
 10
144.7233586969
 20
121.5804759044
 11
144.69193958
 21
121.4861419017
  0
LINE
  5
3C8
100
AcDbEntity
  8
0
100
AcDbLine
 62
7
  6
CONTINUOUS
 10
136.7338679116
 20
97.6053085942
 11
136.7615274828
 21
97.6865585942
  0
LINE
  5
3C9
100
AcDbEntity
  8
0
100
AcDbLine
 62
7
  6
CONTINUOUS
 10
137.2870594125
 20
97.4157252092
 11
137.2593998413
 21
97.3344752092
  0
LWPOLYLINE
  5
3CA
100
AcDbEntity
  8
RACCORDO
100
AcDbPolyline
 62
7
  6
CONTINUOUS
 90
10
 70
0
 10
137.7803081584
 20
101.1382766406
 10
137.78166983
 20
101.141764354
 10
137.7829961885
 20
101.1452536426
 10
137.7842872651
 20
101.148744809
 10
137.785542542
 20
101.1522373456
 10
137.7867625998
 20
101.155732365
 10
137.7879491369
 20
101.1592325857
 10
137.7891027636
 20
101.1627390979
 10
137.7902229826
 20
101.166251378
 10
137.7913098502
 20
101.1697697094
  0
LWPOLYLINE
  5
3CB
100
AcDbEntity
  8
RACCORDO
100
AcDbPolyline
 62
7
  6
CONTINUOUS
 90
13
 70
0
 10
137.7803081499
 20
101.138276643
 10
137.7652893994
 20
101.1048593759
 10
137.7473307818
 20
101.0730912542
 10
137.7266209084
 20
101.0432058173
 10
137.7033937243
 20
101.0154507893
 10
137.6778431011
 20
100.9899961588
 10
137.6500989062
 20
100.9669532735
 10
137.6203813806
 20
100.9465173827
 10
137.5889324869
 20
100.9288532562
 10
137.5559014425
 20
100.9140444808
 10
137.5215043408
 20
100.9022322576
 10
137.486036356
 20
100.8935866442
 10
137.4497713181
 20
100.8882312482
  0
LINE
  5
3CC
100
AcDbEntity
  8
RACCORDO
100
AcDbLine
 62
7
  6
CONTINUOUS
 10
139.9907934829
 20
103.3727262407
 11
139.9779524821
 21
103.347042283
  0
LINE
  5
3CD
100
AcDbEntity
  8
0
100
AcDbLine
 62
7
  6
CONTINUOUS
 10
136.2083359916
 20
95.4386419017
 11
136.1530168419
 21
95.3303086717
  0
LINE
  5
3CE
100
AcDbEntity
  8
RACCORDO
100
AcDbLine
 62
253
  6
CONTINUOUS
 10
136.8638655579
 20
99.3495870634
 11
136.8491924647
 21
99.3212605595
  0
LINE
  5
3CF
100
AcDbEntity
  8
RACCORDO
100
AcDbLine
 62
253
  6
CONTINUOUS
 10
136.8707528948
 20
99.3627118153
 11
136.8638655579
 21
99.3495870634
  0
LINE
  5
3D0
100
AcDbEntity
  8
RACCORDO
100
AcDbLine
 62
253
  6
CONTINUOUS
 10
137.116508602
 20
99.2346533554
 11
137.0937384168
 21
99.1948930177
  0
LINE
  5
3D1
100
AcDbEntity
  8
0
100
AcDbLine
 62
7
  6
CONTINUOUS
 10
136.2359955627
 20
97.8219752092
 11
136.1530168419
 21
97.6865585942
  0
LINE
  5
3D2
100
AcDbEntity
  8
0
100
AcDbLine
 62
7
  6
CONTINUOUS
 10
136.7062083404
 20
97.8490585942
 11
136.6232296269
 21
97.7136419017
  0
LINE
  5
3D3
100
AcDbEntity
  8
0
100
AcDbLine
 62
7
  6
CONTINUOUS
 10
136.2359955627
 20
96.6573919017
 11
136.1530168419
 21
96.5219752867
  0
LWPOLYLINE
  5
3D4
100
AcDbEntity
  8
RACCORDO
100
AcDbPolyline
 62
253
  6
CONTINUOUS
 90
10
 70
0
 10
137.0425513037
 20
99.9661419364
 10
137.0858097332
 20
100.0355470819
 10
137.1298113663
 20
100.1045900501
 10
137.174556203
 20
100.1732708411
 10
137.2203724358
 20
100.2420967668
 10
137.2669318722
 20
100.3105605152
 10
137.3132499346
 20
100.3771401501
 10
137.3589984305
 20
100.4413283593
 10
137.4045055525
 20
100.5036324549
 10
137.4497713005
 20
100.564052437
  0
LINE
  5
3D5
100
AcDbEntity
  8
0
100
AcDbLine
 62
7
  6
CONTINUOUS
 10
136.2913147147
 20
97.6594752092
 11
136.3466338571
 21
97.7407252092
  0
LWPOLYLINE
  5
3D6
100
AcDbEntity
  8
RACCORDO
100
AcDbPolyline
 62
253
  6
CONTINUOUS
 90
9
 70
0
 10
137.3493876033
 20
99.7764369896
 10
137.3955452907
 20
99.8401822248
 10
137.4422400105
 20
99.9035289204
 10
137.4895814495
 20
99.96632193
 10
137.5380597192
 20
100.0287924549
 10
137.5874009623
 20
100.0903556924
 10
137.6364551687
 20
100.1497693306
 10
137.6847774129
 20
100.2066710267
 10
137.7327394409
 20
100.2614201253
  0
LINE
  5
3D7
100
AcDbEntity
  8
RACCORDO
100
AcDbLine
 62
253
  6
CONTINUOUS
 10
137.7327394409
 20
100.2614201253
 11
137.7803081691
 21
100.3140071627
  0
LINE
  5
3D8
100
AcDbEntity
  8
RACCORDO
100
AcDbLine
 62
7
  6
CONTINUOUS
 10
134.3393822469
 20
99.3627118153
 11
134.3253572684
 21
99.3486868368
  0
LINE
  5
3D9
100
AcDbEntity
  8
RACCORDO
100
AcDbLine
 62
7
  6
CONTINUOUS
 10
134.5106904296
 20
99.3235469591
 11
134.5219271819
 21
99.3347837114
  0
LWPOLYLINE
  5
3DA
100
AcDbEntity
  8
RACCORDO
100
AcDbPolyline
 62
7
  6
CONTINUOUS
 90
10
 70
0
 10
138.3085818242
 20
103.2023594745
 10
138.148618923
 20
103.1353502899
 10
137.9933849258
 20
103.0580206231
 10
137.8435448458
 20
102.9707018737
 10
137.6997395698
 20
102.8737666827
 10
137.562586441
 20
102.7676318684
 10
137.4326755793
 20
102.6527572984
 10
137.3105633324
 20
102.5296374684
 10
137.196770945
 20
102.3987987414
 10
137.0917849349
 20
102.2608020734
  0
LINE
  5
3DB
100
AcDbEntity
  8
RACCORDO
100
AcDbLine
 62
7
  6
CONTINUOUS
 10
138.4244883894
 20
103.2080518697
 11
138.4112561437
 21
103.2034899578
  0
LWPOLYLINE
  5
3DC
100
AcDbEntity
  8
RACCORDO
100
AcDbPolyline
 62
7
  6
CONTINUOUS
 90
7
 70
0
 10
138.3631355425
 20
103.1871636854
 10
138.3448178915
 20
103.1808772165
 10
138.3376659744
 20
103.1783992135
 10
138.3320065675
 20
103.1764944134
 10
138.3279068356
 20
103.1752092827
 10
138.325398989
 20
103.1744973548
 10
138.3244921971
 20
103.1743586298
  0
LINE
  5
3DD
100
AcDbEntity
  8
DRAFT
100
AcDbLine
 62
7
  6
CONTINUOUS
 10
132.5986778487
 20
100.8861419017
 11
132.4834597938
 21
100.8477436835
  0
LWPOLYLINE
  5
3DE
100
AcDbEntity
  8
RACCORDO
100
AcDbPolyline
 62
7
  6
CONTINUOUS
 90
4
 70
0
 10
138.4112561437
 20
103.2034899578
 10
138.3858071181
 20
103.1949878588
 10
138.3740207289
 20
103.1909721513
 10
138.3631355425
 20
103.1871636854
  0
LINE
  5
3DF
100
AcDbEntity
  8
0
100
AcDbLine
 62
7
  6
CONTINUOUS
 10
137.1211019855
 20
94.6532251318
 11
137.2317402702
 21
94.6803086717
  0
LINE
  5
3E0
100
AcDbEntity
  8
0
100
AcDbLine
 62
7
  6
CONTINUOUS
 10
136.5402508747
 20
94.6261419017
 11
136.6508891981
 21
94.6532251318
  0
LWPOLYLINE
  5
3E1
100
AcDbEntity
  8
RACCORDO
100
AcDbPolyline
 62
253
  6
CONTINUOUS
 90
16
 70
0
 10
145.3779639052
 20
96.3767242039
 10
145.4091886408
 20
96.3779057713
 10
145.4400742848
 20
96.381169298
 10
145.470285319
 20
96.3864793528
 10
145.4994935789
 20
96.3937782811
 10
145.5273817237
 20
96.4029868077
 10
145.5536466995
 20
96.414004878
 10
145.5780031565
 20
96.4267127859
 10
145.6001865307
 20
96.4409724929
 10
145.6199558353
 20
96.4566290911
 10
145.6370963165
 20
96.4735125057
 10
145.6514217623
 20
96.4914393209
 10
145.6627765373
 20
96.5102147669
 10
145.6710372997
 20
96.5296348691
 10
145.6761143283
 20
96.5494886682
 10
145.6779524821
 20
96.5695604868
  0
LWPOLYLINE
  5
3E2
100
AcDbEntity
  8
RACCORDO
100
AcDbPolyline
 62
253
  6
CONTINUOUS
 90
16
 70
0
 10
139.6779639052
 20
96.3767242039
 10
139.7091886408
 20
96.3779057713
 10
139.7400742848
 20
96.381169298
 10
139.770285319
 20
96.3864793528
 10
139.7994935789
 20
96.3937782811
 10
139.8273817237
 20
96.4029868077
 10
139.8536466995
 20
96.414004878
 10
139.8780031565
 20
96.4267127859
 10
139.9001865307
 20
96.4409724929
 10
139.9199558353
 20
96.4566290911
 10
139.9370963165
 20
96.4735125057
 10
139.9514217623
 20
96.4914393209
 10
139.9627765373
 20
96.5102147669
 10
139.9710372997
 20
96.5296348691
 10
139.9761143283
 20
96.5494886682
 10
139.9779524821
 20
96.5695604868
  0
LINE
  5
3E3
100
AcDbEntity
  8
0
100
AcDbLine
 62
7
  6
CONTINUOUS
 10
136.5679104458
 20
95.9532252867
 11
136.5125913035
 21
95.9532252867
  0
LINE
  5
3E4
100
AcDbEntity
  8
0
100
AcDbLine
 62
7
  6
CONTINUOUS
 10
148.4487615566
 20
95.9911418088
 11
147.4253572684
 21
95.9911418088
  0
LINE
  5
3E5
100
AcDbEntity
  8
RACCORDO
100
AcDbLine
 62
253
  6
CONTINUOUS
 10
139.4727506315
 20
96.3767242039
 11
139.6779639052
 21
96.3767242039
  0
LINE
  5
3E6
100
AcDbEntity
  8
RACCORDO
100
AcDbLine
 62
253
  6
CONTINUOUS
 10
145.1727506315
 20
96.3767242039
 11
145.3779639052
 21
96.3767242039
  0
LINE
  5
3E7
100
AcDbEntity
  8
RACCORDO
100
AcDbLine
 62
253
  6
CONTINUOUS
 10
139.1727620546
 20
96.5695604868
 11
139.9779524821
 21
96.5695604868
  0
LINE
  5
3E8
100
AcDbEntity
  8
RACCORDO
100
AcDbLine
 62
253
  6
CONTINUOUS
 10
144.8727620546
 20
96.5695604868
 11
145.6779524821
 21
96.5695604868
  0
LINE
  5
3E9
100
AcDbEntity
  8
0
100
AcDbLine
 62
7
  6
CONTINUOUS
 10
136.8445061963
 20
96.6573919017
 11
137.2870594125
 21
96.6573919017
  0
LINE
  5
3EA
100
AcDbEntity
  8
0
100
AcDbLine
 62
7
  6
CONTINUOUS
 10
137.4253572684
 20
96.7928085167
 11
136.7062083404
 21
96.7928085167
  0
LINE
  5
3EB
100
AcDbEntity
  8
0
100
AcDbLine
 62
7
  6
CONTINUOUS
 10
147.4253572684
 20
96.8686419482
 11
148.4487615566
 21
96.8686419482
  0
LINE
  5
3EC
100
AcDbEntity
  8
0
100
AcDbLine
 62
7
  6
CONTINUOUS
 10
136.6785487693
 20
97.0094752867
 11
136.8721657675
 21
97.0094752867
  0
LINE
  5
3ED
100
AcDbEntity
  8
0
100
AcDbLine
 62
7
  6
CONTINUOUS
 10
148.7253572684
 20
97.0148919482
 11
147.4253572684
 21
97.0148919482
  0
LINE
  5
3EE
100
AcDbEntity
  8
0
100
AcDbLine
 62
7
  6
CONTINUOUS
 10
136.7338679116
 20
97.1448919017
 11
136.6785487693
 21
97.1448919017
  0
LINE
  5
3EF
100
AcDbEntity
  8
0
100
AcDbLine
 62
7
  6
CONTINUOUS
 10
137.0381231945
 20
97.1719752867
 11
136.9828040521
 21
97.1719752867
  0
LINE
  5
3F0
100
AcDbEntity
  8
0
100
AcDbLine
 62
7
  6
CONTINUOUS
 10
147.4253572684
 20
97.2098919017
 11
148.7253572684
 21
97.2098919017
  0
LINE
  5
3F1
100
AcDbEntity
  8
0
100
AcDbLine
 62
7
  6
CONTINUOUS
 10
148.7253572684
 20
97.3561419017
 11
147.4253572684
 21
97.3561419017
  0
LWPOLYLINE
  5
3F2
100
AcDbEntity
  8
RACCORDO
100
AcDbPolyline
 62
7
  6
CONTINUOUS
 90
16
 70
0
 10
138.6083113049
 20
97.7074255935
 10
138.5770473423
 20
97.709153873
 10
138.5461090366
 20
97.7141444481
 10
138.5158348304
 20
97.7223493046
 10
138.4865417984
 20
97.7336939935
 10
138.4585687878
 20
97.748055644
 10
138.4322649287
 20
97.7652486068
 10
138.4079505484
 20
97.7850443672
 10
138.3858395511
 20
97.8072471341
 10
138.3661033877
 20
97.8316881608
 10
138.3489414493
 20
97.8581749898
 10
138.3346056457
 20
97.8863811272
 10
138.3233031029
 20
97.9159090841
 10
138.3151579234
 20
97.9463992694
 10
138.3102397865
 20
97.9775487464
 10
138.308595341
 20
98.0090170056
  0
LINE
  5
3F3
100
AcDbEntity
  8
0
100
AcDbLine
 62
7
  6
CONTINUOUS
 10
136.4849317323
 20
97.0365585167
 11
136.6785487693
 21
97.0094752867
  0
LINE
  5
3F4
100
AcDbEntity
  8
0
100
AcDbLine
 62
7
  6
CONTINUOUS
 10
136.6785487693
 20
97.1448919017
 11
136.5125913035
 21
97.1719752867
  0
LINE
  5
3F5
100
AcDbEntity
  8
0
100
AcDbLine
 62
7
  6
CONTINUOUS
 10
147.4253572684
 20
95.5036419947
 11
147.7572721611
 21
95.4061418088
  0
LINE
  5
3F6
100
AcDbEntity
  8
0
100
AcDbLine
 62
7
  6
CONTINUOUS
 10
147.8679104458
 20
95.3817669017
 11
148.6147189837
 21
95.1623919017
  0
LINE
  5
3F7
100
AcDbEntity
  8
0
100
AcDbLine
 62
7
  6
CONTINUOUS
 10
148.7253572684
 20
95.2598918088
 11
147.4253572684
 21
95.6498919947
  0
LINE
  5
3F8
100
AcDbEntity
  8
0
100
AcDbLine
 62
7
  6
CONTINUOUS
 10
137.0381231945
 20
97.8490585942
 11
137.1211019855
 21
97.8219752092
  0
LWPOLYLINE
  5
3F9
100
AcDbEntity
  8
RACCORDO
100
AcDbPolyline
 62
7
  6
CONTINUOUS
 90
3
 70
0
 10
138.3859410884
 20
98.2572500717
 10
138.4113130486
 20
98.2487740304
 10
138.4244883894
 20
98.2442319338
  0
LWPOLYLINE
  5
3FA
100
AcDbEntity
  8
RACCORDO
100
AcDbPolyline
 62
7
  6
CONTINUOUS
 90
4
 70
0
 10
138.3449230543
 20
98.2713675859
 10
138.3632987859
 20
98.265065742
 10
138.3741765466
 20
98.2612592655
 10
138.3859410884
 20
98.2572500717
  0
LINE
  5
3FB
100
AcDbEntity
  8
0
100
AcDbLine
 62
7
  6
CONTINUOUS
 10
137.204080699
 20
97.9303085555
 11
137.0657827656
 21
97.984475248
  0
LINE
  5
3FC
100
AcDbEntity
  8
RACCORDO
100
AcDbLine
 62
7
  6
CONTINUOUS
 10
134.3393822469
 20
102.0895719881
 11
134.3253572684
 21
102.1035969667
  0
LINE
  5
3FD
100
AcDbEntity
  8
RACCORDO
100
AcDbLine
 62
253
  6
CONTINUOUS
 10
137.7329068286
 20
101.1906851609
 11
137.7803081584
 21
101.1382766406
  0
LWPOLYLINE
  5
3FE
100
AcDbEntity
  8
RACCORDO
100
AcDbPolyline
 62
253
  6
CONTINUOUS
 90
9
 70
0
 10
137.3493876012
 20
101.675846817
 10
137.3957543969
 20
101.6117961875
 10
137.442609497
 20
101.5482459731
 10
137.4900556711
 20
101.4853439634
 10
137.5385611225
 20
101.4228617974
 10
137.5878595348
 20
101.3613638791
 10
137.6368408907
 20
101.3020536268
 10
137.6850723266
 20
101.2452788312
 10
137.7329068286
 20
101.1906851609
  0
LWPOLYLINE
  5
3FF
100
AcDbEntity
  8
RACCORDO
100
AcDbPolyline
 62
253
  6
CONTINUOUS
 90
10
 70
0
 10
137.0425513068
 20
101.4861418623
 10
137.0860179859
 20
101.416415836
 10
137.13016892
 20
101.3471457856
 10
137.175004109
 20
101.2783317108
 10
137.2208425633
 20
101.2094844054
 10
137.2673652725
 20
101.1410930758
 10
137.3136152057
 20
101.0746253411
 10
137.3592733525
 20
101.0105704077
 10
137.4046587233
 20
100.9484390692
 10
137.4497713181
 20
100.8882313257
  0
LINE
  5
400
100
AcDbEntity
  8
RACCORDO
100
AcDbLine
 62
253
  6
CONTINUOUS
 10
137.0917849349
 20
102.2608020734
 11
137.1165097573
 21
102.217632101
  0
LINE
  5
401
100
AcDbEntity
  8
RACCORDO
100
AcDbLine
 62
253
  6
CONTINUOUS
 10
136.8624445902
 20
102.1054323345
 11
136.8707566515
 21
102.0895719881
  0
LINE
  5
402
100
AcDbEntity
  8
RACCORDO
100
AcDbLine
 62
253
  6
CONTINUOUS
 10
136.847413718
 20
102.1344689264
 11
136.8624445902
 21
102.1054323345
  0
LINE
  5
403
100
AcDbEntity
  8
RACCORDO
100
AcDbLine
 62
7
  6
CONTINUOUS
 10
139.9907935101
 20
98.0795575085
 11
139.9779524821
 21
98.1052415205
  0
LWPOLYLINE
  5
404
100
AcDbEntity
  8
RACCORDO
100
AcDbPolyline
 62
7
  6
CONTINUOUS
 90
10
 70
0
 10
137.7913098503
 20
100.282514094
 10
137.7902229828
 20
100.2860324248
 10
137.7891027641
 20
100.2895447042
 10
137.7879491376
 20
100.2930512158
 10
137.7867626003
 20
100.2965514356
 10
137.7855425425
 20
100.3000464541
 10
137.7842872665
 20
100.3035389905
 10
137.782996192
 20
100.3070301576
 10
137.7816698367
 20
100.3105194474
 10
137.7803081691
 20
100.3140071627
  0
LINE
  5
405
100
AcDbEntity
  8
RACCORDO
100
AcDbLine
 62
7
  6
CONTINUOUS
 10
139.1583844538
 20
103.6962978957
 11
139.1727620546
 21
103.5521594589
  0
LWPOLYLINE
  5
406
100
AcDbEntity
  8
RACCORDO
100
AcDbPolyline
 62
253
  6
CONTINUOUS
 90
16
 70
0
 10
139.9779524821
 20
104.8827233166
 10
139.9761143315
 20
104.9027951164
 10
139.9710373176
 20
104.9226488817
 10
139.9627765884
 20
104.9420689371
 10
139.9514218775
 20
104.960844318
 10
139.9370965291
 20
104.9787710625
 10
139.9199561595
 20
104.9956544266
 10
139.9001869687
 20
105.0113109982
 10
139.8780037079
 20
105.025570698
 10
139.8536473434
 20
105.0382786237
 10
139.8273824373
 20
105.0492967293
 10
139.7994943268
 20
105.0585053062
 10
139.7702860207
 20
105.0658043018
 10
139.7400748397
 20
105.0711144276
 10
139.7091889605
 20
105.0743780093
 10
139.6779639052
 20
105.0755595996
  0
LWPOLYLINE
  5
407
100
AcDbEntity
  8
RACCORDO
100
AcDbPolyline
 62
7
  6
CONTINUOUS
 90
4
 70
0
 10
139.9914563637
 20
98.0631437488
 10
139.9912470917
 20
98.0716849288
 10
139.9910261404
 20
98.077156182
 10
139.9907935101
 20
98.0795575085
  0
LINE
  5
408
100
AcDbEntity
  8
RACCORDO
100
AcDbLine
 62
7
  6
CONTINUOUS
 10
139.9918460628
 20
98.0363524497
 11
139.9914563637
 21
98.0631437488
  0
LINE
  5
409
100
AcDbEntity
  8
RACCORDO
100
AcDbLine
 62
253
  6
CONTINUOUS
 10
139.4727506315
 20
105.0755595996
 11
139.4672092708
 21
105.8322957722
  0
LINE
  5
40A
100
AcDbEntity
  8
RACCORDO
100
AcDbLine
 62
253
  6
CONTINUOUS
 10
139.6779639052
 20
96.3767242039
 11
139.6835052659
 21
95.6199880313
  0
LINE
  5
40B
100
AcDbEntity
  8
RACCORDO
100
AcDbLine
 62
253
  6
CONTINUOUS
 10
139.9779524821
 20
96.5695604868
 11
139.9827180352
 21
95.9187697118
  0
LINE
  5
40C
100
AcDbEntity
  8
RACCORDO
100
AcDbLine
 62
7
  6
CONTINUOUS
 10
139.9922851247
 20
97.9774045687
 11
139.9918460628
 21
98.0363524497
  0
LINE
  5
40D
100
AcDbEntity
  8
RACCORDO
100
AcDbLine
 62
253
  6
CONTINUOUS
 10
139.4727506315
 20
97.9677750191
 11
139.4727506315
 21
96.3767242039
  0
LINE
  5
40E
100
AcDbEntity
  8
RACCORDO
100
AcDbLine
 62
253
  6
CONTINUOUS
 10
139.4727506315
 20
103.4345087843
 11
139.4727506315
 21
105.0755595996
  0
LINE
  5
40F
100
AcDbEntity
  8
RACCORDO
100
AcDbLine
 62
253
  6
CONTINUOUS
 10
139.6779639052
 20
96.3767242039
 11
139.6779639052
 21
98.1104323433
  0
LINE
  5
410
100
AcDbEntity
  8
RACCORDO
100
AcDbLine
 62
253
  6
CONTINUOUS
 10
139.6779639052
 20
103.3418514602
 11
139.6779639052
 21
105.0755595996
  0
LINE
  5
411
100
AcDbEntity
  8
DRAFT
100
AcDbLine
 62
7
  6
CONTINUOUS
 10
139.8555378025
 20
78.5314070851
 11
139.8555378025
 21
80.0799092701
  0
LINE
  5
412
100
AcDbEntity
  8
RACCORDO
100
AcDbLine
 62
7
  6
CONTINUOUS
 10
139.9779524821
 20
96.5695604868
 11
139.9779524821
 21
98.1052415205
  0
LINE
  5
413
100
AcDbEntity
  8
RACCORDO
100
AcDbLine
 62
7
  6
CONTINUOUS
 10
139.9779524821
 20
103.347042283
 11
139.9779524821
 21
104.8827233166
  0
LINE
  5
414
100
AcDbEntity
  8
RACCORDO
100
AcDbLine
 62
253
  6
CONTINUOUS
 10
140.088754728
 20
78.5525994814
 11
140.088754728
 21
80.129137607
  0
LINE
  5
415
100
AcDbEntity
  8
DRAFT
100
AcDbLine
 62
7
  6
CONTINUOUS
 10
140.1273558398
 20
121.5804759044
 11
140.1273558398
 21
123.0475302328
  0
LINE
  5
416
100
AcDbEntity
  8
RACCORDO
100
AcDbLine
 62
253
  6
CONTINUOUS
 10
140.1702121387
 20
121.4056890713
 11
140.1702121387
 21
122.918856781
  0
LINE
  5
417
100
AcDbEntity
  8
RACCORDO
100
AcDbLine
 62
253
  6
CONTINUOUS
 10
140.3485623491
 20
78.5604690447
 11
140.3485623491
 21
80.1474180085
  0
LINE
  5
418
100
AcDbEntity
  8
RACCORDO
100
AcDbLine
 62
253
  6
CONTINUOUS
 10
140.4701664473
 20
121.3694965689
 11
140.4701664473
 21
122.9034088398
  0
LINE
  5
419
100
AcDbEntity
  8
RACCORDO
100
AcDbLine
 62
7
  6
CONTINUOUS
 10
139.9923454049
 20
95.9091423421
 11
139.9922851247
 21
97.9774045687
  0
LINE
  5
41A
100
AcDbEntity
  8
RACCORDO
100
AcDbLine
 62
7
  6
CONTINUOUS
 10
139.9922850978
 20
103.4748792112
 11
139.992345368
 21
105.5431414245
  0
LINE
  5
41B
100
AcDbEntity
  8
RACCORDO
100
AcDbLine
 62
253
  6
CONTINUOUS
 10
139.4672092708
 20
95.6199880313
 11
139.4727506315
 21
96.3767242039
  0
LINE
  5
41C
100
AcDbEntity
  8
RACCORDO
100
AcDbLine
 62
253
  6
CONTINUOUS
 10
139.6835052659
 20
105.8322957722
 11
139.6779639052
 21
105.0755595996
  0
LINE
  5
41D
100
AcDbEntity
  8
RACCORDO
100
AcDbLine
 62
253
  6
CONTINUOUS
 10
139.9827180352
 20
105.5335140917
 11
139.9779524821
 21
104.8827233166
  0
LINE
  5
41E
100
AcDbEntity
  8
RACCORDO
100
AcDbLine
 62
7
  6
CONTINUOUS
 10
139.9918460358
 20
103.4159312928
 11
139.9922850978
 21
103.4748792112
  0
LWPOLYLINE
  5
41F
100
AcDbEntity
  8
RACCORDO
100
AcDbPolyline
 62
7
  6
CONTINUOUS
 90
16
 70
0
 10
139.9923454049
 20
95.9091423421
 10
139.9907009685
 20
95.8778117936
 10
139.9857907912
 20
95.8468174649
 10
139.9776662871
 20
95.8164989314
 10
139.9664079692
 20
95.7871750836
 10
139.9521402346
 20
95.7591829795
 10
139.9350441253
 20
95.7328671506
 10
139.9153502938
 20
95.7085467395
 10
139.8932568961
 20
95.6864353721
 10
139.8689262972
 20
95.666702131
 10
139.8425522056
 20
95.6495453381
 10
139.8144626552
 20
95.6352166362
 10
139.7850484142
 20
95.623922606
 10
139.75466769
 20
95.6157866958
 10
139.7236273831
 20
95.6108776885
 10
139.692269164
 20
95.6092414292
  0
LWPOLYLINE
  5
420
100
AcDbEntity
  8
RACCORDO
100
AcDbPolyline
 62
7
  6
CONTINUOUS
 90
16
 70
0
 10
139.9827180352
 20
95.9187697118
 10
139.9811524626
 20
95.8895009967
 10
139.9766665436
 20
95.860257967
 10
139.969227111
 20
95.8313394166
 10
139.9588336424
 20
95.8030615538
 10
139.9455166767
 20
95.7757302086
 10
139.9293326629
 20
95.7496405509
 10
139.9103743143
 20
95.725109521
 10
139.888776175
 20
95.7024570004
 10
139.8647046099
 20
95.6819813914
 10
139.8383939236
 20
95.6639970229
 10
139.8100638807
 20
95.64876139
 10
139.7798966651
 20
95.6364939738
 10
139.7481641144
 20
95.6274501872
 10
139.7152444239
 20
95.6218816732
 10
139.6815225619
 20
95.6199880313
  0
LWPOLYLINE
  5
421
100
AcDbEntity
  8
RACCORDO
100
AcDbPolyline
 62
7
  6
CONTINUOUS
 90
8
 70
0
 10
137.9350145711
 20
80.4883773618
 10
137.93542439
 20
80.4927856711
 10
137.9358127476
 20
80.4996018943
 10
137.9361796438
 20
80.5088260316
 10
137.9365295046
 20
80.5206520088
 10
137.9368579039
 20
80.5348859
 10
137.9371515646
 20
80.5509459274
 10
137.9376316171
 20
80.5886966661
  0
LWPOLYLINE
  5
422
100
AcDbEntity
  8
RACCORDO
100
AcDbPolyline
 62
7
  6
CONTINUOUS
 90
5
 70
0
 10
139.9907934829
 20
103.3727262407
 10
139.9910261133
 20
103.3751275592
 10
139.9912470646
 20
103.3805988078
 10
139.9914563367
 20
103.3891399865
 10
139.9918460358
 20
103.4159312928
  0
LINE
  5
423
100
AcDbEntity
  8
RACCORDO
100
AcDbLine
 62
7
  6
CONTINUOUS
 10
139.158387746
 20
97.7060189125
 11
139.1727620546
 21
97.8501243446
  0
LINE
  5
424
100
AcDbEntity
  8
RACCORDO
100
AcDbLine
 62
7
  6
CONTINUOUS
 10
137.9287873548
 20
80.444573112
 11
137.9350145711
 21
80.4883773618
  0
LINE
  5
425
100
AcDbEntity
  8
0
100
AcDbLine
 62
7
  6
CONTINUOUS
 10
136.7338679116
 20
94.7073919017
 11
136.7891870539
 21
94.8428086717
  0
LINE
  5
426
100
AcDbEntity
  8
0
100
AcDbLine
 62
7
  6
CONTINUOUS
 10
136.2913147147
 20
95.3303086717
 11
136.3189742859
 21
95.3844751318
  0
LINE
  5
427
100
AcDbEntity
  8
0
100
AcDbLine
 62
7
  6
CONTINUOUS
 10
137.3423785548
 20
94.7886419017
 11
137.3976976972
 21
94.8969751318
  0
LINE
  5
428
100
AcDbEntity
  8
RACCORDO
100
AcDbLine
 62
7
  6
CONTINUOUS
 10
138.3103288324
 20
98.2529984286
 11
138.3244921971
 21
98.2779251737
  0
LINE
  5
429
100
AcDbEntity
  8
0
100
AcDbLine
 62
7
  6
CONTINUOUS
 10
137.3147189837
 20
97.1719752867
 11
137.3976976972
 21
97.3073919017
  0
LINE
  5
42A
100
AcDbEntity
  8
0
100
AcDbLine
 62
7
  6
CONTINUOUS
 10
136.8445061963
 20
95.9532252867
 11
136.9274849098
 21
96.0886419017
  0
LINE
  5
42B
100
AcDbEntity
  8
0
100
AcDbLine
 62
7
  6
CONTINUOUS
 10
136.7615274828
 20
97.6865585942
 11
136.8168466251
 21
97.7678085942
  0
LINE
  5
42C
100
AcDbEntity
  8
0
100
AcDbLine
 62
7
  6
CONTINUOUS
 10
136.2913147147
 20
96.4948919017
 11
136.3466338571
 21
96.5761419017
  0
LINE
  5
42D
100
AcDbEntity
  8
0
100
AcDbLine
 62
7
  6
CONTINUOUS
 10
137.2593998413
 20
97.3344752092
 11
137.204080699
 21
97.2532252092
  0
LINE
  5
42E
100
AcDbEntity
  8
0
100
AcDbLine
 62
7
  6
CONTINUOUS
 10
136.2636551436
 20
95.5198919017
 11
136.2083359916
 21
95.4386419017
  0
LINE
  5
42F
100
AcDbEntity
  8
0
100
AcDbLine
 62
7
  6
CONTINUOUS
 10
136.7891870539
 20
96.1157252867
 11
136.7338679116
 21
96.0344752867
  0
LINE
  5
430
100
AcDbEntity
  8
0
100
AcDbLine
 62
7
  6
CONTINUOUS
 10
136.7062083404
 20
94.8969751318
 11
136.6508891981
 21
94.8157251318
  0
LINE
  5
431
100
AcDbEntity
  8
RACCORDO
100
AcDbLine
 62
253
  6
CONTINUOUS
 10
134.8074249682
 20
95.208255293
 11
134.8218223468
 21
95.2227118153
  0
LINE
  5
432
100
AcDbEntity
  8
RACCORDO
100
AcDbLine
 62
253
  6
CONTINUOUS
 10
134.5077396905
 20
95.5084786325
 11
134.5219271819
 21
95.5226661239
  0
LINE
  5
433
100
AcDbEntity
  8
RACCORDO
100
AcDbLine
 62
253
  6
CONTINUOUS
 10
145.3815225619
 20
105.8322957722
 11
145.3922215922
 21
105.8429948025
  0
LINE
  5
434
100
AcDbEntity
  8
RACCORDO
100
AcDbLine
 62
253
  6
CONTINUOUS
 10
136.9215727147
 20
99.0783439335
 11
136.9646285867
 21
99.1087481707
  0
LINE
  5
435
100
AcDbEntity
  8
RACCORDO
100
AcDbLine
 62
253
  6
CONTINUOUS
 10
137.116542405
 20
99.2346049952
 11
137.2804407838
 21
99.3491699891
  0
LWPOLYLINE
  5
436
100
AcDbEntity
  8
RACCORDO
100
AcDbPolyline
 62
253
  6
CONTINUOUS
 90
10
 70
0
 10
136.9646285867
 20
99.1087481707
 10
137.005307064
 20
99.1370776956
 10
137.0238520196
 20
99.1498345741
 10
137.0407580661
 20
99.1613476378
 10
137.0557277693
 20
99.1714143328
 10
137.0684977565
 20
99.1798575481
 10
137.0788433541
 20
99.1865287346
 10
137.0865825453
 20
99.1913105215
 10
137.0915791698
 20
99.1941187796
 10
137.0937453174
 20
99.1949040999
  0
LWPOLYLINE
  5
437
100
AcDbEntity
  8
RACCORDO
100
AcDbPolyline
 62
7
  6
CONTINUOUS
 90
5
 70
0
 10
132.7804546299
 20
99.299675472
 10
132.8097772955
 20
99.3109196132
 10
132.8401089814
 20
99.3190373172
 10
132.8711195829
 20
99.3239417563
 10
132.9024696411
 20
99.3255805849
  0
LINE
  5
438
100
AcDbEntity
  8
0
100
AcDbLine
 62
7
  6
CONTINUOUS
 10
136.8721657675
 20
97.0094752867
 11
137.0657827656
 21
97.0365585167
  0
LWPOLYLINE
  5
439
100
AcDbEntity
  8
RACCORDO
100
AcDbPolyline
 62
253
  6
CONTINUOUS
 90
13
 70
0
 10
147.9799578801
 20
99.3627118116
 10
147.9559621676
 20
99.3617480583
 10
147.9321288168
 20
99.3588688988
 10
147.9086101882
 20
99.354094651
 10
147.8855616624
 20
99.3474594778
 10
147.8631245424
 20
99.3390066987
 10
147.8414266896
 20
99.3287843189
 10
147.8205994176
 20
99.3168505323
 10
147.8007861385
 20
99.3032837237
 10
147.7821245296
 20
99.2881774468
 10
147.7647364948
 20
99.2716321901
 10
147.7487293256
 20
99.2537519481
 10
147.7342047841
 20
99.2346517029
  0
LWPOLYLINE
  5
43A
100
AcDbEntity
  8
RACCORDO
100
AcDbPolyline
 62
253
  6
CONTINUOUS
 90
3
 70
0
 10
152.2414366194
 20
99.0255957844
 10
152.2463522235
 20
99.0256829493
 10
152.2482854858
 20
99.025771447
  0
LINE
  5
43B
100
AcDbEntity
  8
RACCORDO
100
AcDbLine
 62
253
  6
CONTINUOUS
 10
152.222998291
 20
99.0254306636
 11
152.2414366194
 21
99.0255957844
  0
LINE
  5
43C
100
AcDbEntity
  8
RACCORDO
100
AcDbLine
 62
7
  6
CONTINUOUS
 10
145.6923267907
 20
97.7060189125
 11
146.2424032318
 21
97.7074255935
  0
LINE
  5
43D
100
AcDbEntity
  8
RACCORDO
100
AcDbLine
 62
253
  6
CONTINUOUS
 10
152.1122529839
 20
99.0250909859
 11
152.222998291
 21
99.0254306636
  0
LINE
  5
43E
100
AcDbEntity
  8
RACCORDO
100
AcDbLine
 62
253
  6
CONTINUOUS
 10
150.3434578447
 20
99.1228474327
 11
151.9639677918
 21
99.124931551
  0
LINE
  5
43F
100
AcDbEntity
  8
RACCORDO
100
AcDbLine
 62
253
  6
CONTINUOUS
 10
148.0107703966
 20
99.1205280629
 11
149.306146004
 21
99.1217169319
  0
LINE
  5
440
100
AcDbEntity
  8
RACCORDO
100
AcDbLine
 62
253
  6
CONTINUOUS
 10
152.0642606167
 20
99.0250523507
 11
152.1122529839
 21
99.0250909859
  0
LINE
  5
441
100
AcDbEntity
  8
0
100
AcDbLine
 62
7
  6
CONTINUOUS
 10
136.9828040521
 20
97.8490585942
 11
137.0381231945
 21
97.8490585942
  0
LINE
  5
442
100
AcDbEntity
  8
RACCORDO
100
AcDbLine
 62
253
  6
CONTINUOUS
 10
146.2263706509
 20
97.8681555493
 11
145.5934582417
 21
97.8681555493
  0
LINE
  5
443
100
AcDbEntity
  8
RACCORDO
100
AcDbLine
 62
253
  6
CONTINUOUS
 10
138.6243438858
 20
97.8681555493
 11
139.2572562951
 21
97.8681555493
  0
LINE
  5
444
100
AcDbEntity
  8
RACCORDO
100
AcDbLine
 62
253
  6
CONTINUOUS
 10
146.2263706509
 20
97.9677750191
 11
145.3779639052
 21
97.9677750191
  0
LINE
  5
445
100
AcDbEntity
  8
RACCORDO
100
AcDbLine
 62
253
  6
CONTINUOUS
 10
138.6243438858
 20
97.9677750191
 11
139.4727506315
 21
97.9677750191
  0
LINE
  5
446
100
AcDbEntity
  8
0
100
AcDbLine
 62
7
  6
CONTINUOUS
 10
137.0657827656
 20
97.984475248
 11
136.955144481
 21
97.984475248
  0
LINE
  5
447
100
AcDbEntity
  8
RACCORDO
100
AcDbLine
 62
7
  6
CONTINUOUS
 10
139.2503572684
 20
98.1104323433
 11
139.6779639052
 21
98.1104323433
  0
LINE
  5
448
100
AcDbEntity
  8
RACCORDO
100
AcDbLine
 62
7
  6
CONTINUOUS
 10
145.1727506315
 20
98.1104323433
 11
145.6003572684
 21
98.1104323433
  0
LINE
  5
449
100
AcDbEntity
  8
RACCORDO
100
AcDbLine
 62
253
  6
CONTINUOUS
 10
145.6003572684
 20
98.1227118153
 11
139.2503572684
 21
98.1227118153
  0
LINE
  5
44A
100
AcDbEntity
  8
RACCORDO
100
AcDbLine
 62
253
  6
CONTINUOUS
 10
146.5262223396
 20
98.1683862921
 11
146.4262261473
 21
98.1683862921
  0
LINE
  5
44B
100
AcDbEntity
  8
RACCORDO
100
AcDbLine
 62
253
  6
CONTINUOUS
 10
138.4244883894
 20
98.1683862921
 11
138.3244921971
 21
98.168386292
  0
LINE
  5
44C
100
AcDbEntity
  8
0
100
AcDbLine
 62
7
  6
CONTINUOUS
 10
136.1253572684
 20
98.2011419017
 11
137.4253572684
 21
98.2011419017
  0
LINE
  5
44D
100
AcDbEntity
  8
RACCORDO
100
AcDbLine
 62
253
  6
CONTINUOUS
 10
145.6003572684
 20
98.3226813544
 11
139.2503572684
 21
98.3226813544
  0
LINE
  5
44E
100
AcDbEntity
  8
0
100
AcDbLine
 62
7
  6
CONTINUOUS
 10
137.204080699
 20
98.3636419017
 11
136.1253572684
 21
98.3636419017
  0
LINE
  5
44F
100
AcDbEntity
  8
0
100
AcDbLine
 62
7
  6
CONTINUOUS
 10
137.2317402702
 20
98.5261419017
 11
137.0104636233
 21
98.5261419017
  0
LINE
  5
450
100
AcDbEntity
  8
SMUSSO
100
AcDbLine
 62
7
  6
CONTINUOUS
 10
139.2503572684
 20
98.6011419017
 11
145.6003572684
 21
98.6011419017
  0
LINE
  5
451
100
AcDbEntity
  8
DRAFT
100
AcDbLine
 62
7
  6
CONTINUOUS
 10
139.2503572684
 20
99.2011419017
 11
145.6003569565
 21
99.2011419017
  0
LINE
  5
452
100
AcDbEntity
  8
RACCORDO
100
AcDbLine
 62
253
  6
CONTINUOUS
 10
139.9925090334
 20
97.8781713193
 11
144.8582055035
 21
97.8781713193
  0
LINE
  5
453
100
AcDbEntity
  8
RACCORDO
100
AcDbLine
 62
253
  6
CONTINUOUS
 10
139.9907935101
 20
98.0795575085
 11
144.8599210266
 21
98.0795575085
  0
LINE
  5
454
100
AcDbEntity
  8
RACCORDO
100
AcDbLine
 62
253
  6
CONTINUOUS
 10
135.5445685113
 20
99.121716932
 11
136.8399441401
 21
99.1205280629
  0
LINE
  5
455
100
AcDbEntity
  8
RACCORDO
100
AcDbLine
 62
253
  6
CONTINUOUS
 10
132.8867467449
 20
99.124931551
 11
134.5072566983
 21
99.1228474327
  0
LINE
  5
456
100
AcDbEntity
  8
RACCORDO
100
AcDbLine
 62
7
  6
CONTINUOUS
 10
138.6083113049
 20
97.7074255935
 11
139.158387746
 21
97.7060189125
  0
LINE
  5
457
100
AcDbEntity
  8
RACCORDO
100
AcDbLine
 62
253
  6
CONTINUOUS
 10
132.7864539189
 20
99.0250523507
 11
132.640977395
 21
99.0253552848
  0
LWPOLYLINE
  5
458
100
AcDbEntity
  8
RACCORDO
100
AcDbPolyline
 62
253
  6
CONTINUOUS
 90
5
 70
0
 10
132.640977395
 20
99.0253552848
 10
132.6171212362
 20
99.0255113381
 10
132.6092985574
 20
99.0255958416
 10
132.6043838867
 20
99.0256829863
 10
132.6024512339
 20
99.0257714603
  0
LWPOLYLINE
  5
459
100
AcDbEntity
  8
RACCORDO
100
AcDbPolyline
 62
7
  6
CONTINUOUS
 90
13
 70
0
 10
136.8491924648
 20
99.3212605595
 10
136.873004809
 20
99.3203048288
 10
136.8966632051
 20
99.3174622594
 10
136.9200184472
 20
99.3127516169
 10
136.9429218067
 20
99.3062039086
 10
136.9652306946
 20
99.2978609961
 10
136.9868091191
 20
99.2877741165
 10
137.0075226678
 20
99.2760054676
 10
137.0272386501
 20
99.2626297909
 10
137.0458315532
 20
99.2477321913
 10
137.063183826
 20
99.2314069911
 10
137.0791864125
 20
99.2137568323
 10
137.0937384179
 20
99.1948930197
  0
LWPOLYLINE
  5
45A
100
AcDbEntity
  8
RACCORDO
100
AcDbPolyline
 62
253
  6
CONTINUOUS
 90
13
 70
0
 10
136.8399441401
 20
99.1205280629
 10
136.8479747262
 20
99.1201889516
 10
136.8558554516
 20
99.1192392866
 10
136.8635863158
 20
99.1176790688
 10
136.8712132912
 20
99.1154906011
 10
136.878690404
 20
99.112691582
 10
136.8858797335
 20
99.1093351052
 10
136.8927769225
 20
99.105411162
 10
136.8993863251
 20
99.1009297622
 10
136.9055830861
 20
99.0959740266
 10
136.9113255854
 20
99.0905716621
 10
136.9166554389
 20
99.0846949623
 10
136.9215726448
 20
99.0783439274
  0
LWPOLYLINE
  5
45B
100
AcDbEntity
  8
RACCORDO
100
AcDbPolyline
 62
7
  6
CONTINUOUS
 90
10
 70
0
 10
145.5934582417
 20
97.8681555493
 10
145.5805107548
 20
97.8700429961
 10
145.5665824421
 20
97.8734449646
 10
145.5516733036
 20
97.8782675318
 10
145.5357493023
 20
97.8843730955
 10
145.5188444751
 20
97.8916495715
 10
145.5010609334
 20
97.9000573233
 10
145.4823640841
 20
97.909489205
 10
145.4627885202
 20
97.9198021795
 10
145.4425401314
 20
97.9309367477
  0
LWPOLYLINE
  5
45C
100
AcDbEntity
  8
RACCORDO
100
AcDbPolyline
 62
7
  6
CONTINUOUS
 90
6
 70
0
 10
138.3244921971
 20
98.2779251737
 10
138.325400706
 20
98.2777875993
 10
138.3279157486
 20
98.27707296
 10
138.3320312542
 20
98.2757812558
 10
138.3377230371
 20
98.2738629533
 10
138.3449230543
 20
98.2713675859
  0
LINE
  5
45D
100
AcDbEntity
  8
0
100
AcDbLine
 62
7
  6
CONTINUOUS
 10
148.7253572684
 20
96.0642668088
 11
147.5636551436
 21
96.4298919482
  0
LINE
  5
45E
100
AcDbEntity
  8
0
100
AcDbLine
 62
7
  6
CONTINUOUS
 10
147.4253572684
 20
96.3323919017
 11
148.4487615566
 21
95.9911418088
  0
LINE
  5
45F
100
AcDbEntity
  8
0
100
AcDbLine
 62
7
  6
CONTINUOUS
 10
148.1168466251
 20
93.6755167158
 11
148.2274849098
 21
93.6023917158
  0
LINE
  5
460
100
AcDbEntity
  8
RACCORDO
100
AcDbLine
 62
253
  6
CONTINUOUS
 10
137.116542405
 20
102.2176788083
 11
137.2804407854
 21
102.1031138161
  0
LINE
  5
461
100
AcDbEntity
  8
RACCORDO
100
AcDbLine
 62
253
  6
CONTINUOUS
 10
145.3815225619
 20
95.6199880313
 11
145.392221575
 21
95.6092890182
  0
LINE
  5
462
100
AcDbEntity
  8
RACCORDO
100
AcDbLine
 62
7
  6
CONTINUOUS
 10
138.3085818242
 20
103.2023594745
 11
138.3244921971
 21
103.1743586298
  0
LINE
  5
463
100
AcDbEntity
  8
RACCORDO
100
AcDbLine
 62
7
  6
CONTINUOUS
 10
144.69193958
 20
121.4861419017
 11
144.680502398
 21
121.4056890713
  0
LWPOLYLINE
  5
464
100
AcDbEntity
  8
DRAFT
100
AcDbPolyline
 62
7
  6
CONTINUOUS
 90
10
 70
0
 10
149.8568094526
 20
121.2282943238
 10
149.8666403565
 20
121.2561566104
 10
149.876292353
 20
121.2842176145
 10
149.8857654421
 20
121.3124773361
 10
149.8950485083
 20
121.3409382504
 10
149.9041526671
 20
121.3695978822
 10
149.9131112653
 20
121.3984488058
 10
149.9219354184
 20
121.427488546
 10
149.930614011
 20
121.456719578
 10
149.9391470429
 20
121.4861419017
  0
LINE
  5
465
100
AcDbEntity
  8
RACCORDO
100
AcDbLine
 62
253
  6
CONTINUOUS
 10
152.0675630447
 20
121.5804759044
 11
152.0204283859
 21
121.4861419017
  0
LINE
  5
466
100
AcDbEntity
  8
RACCORDO
100
AcDbLine
 62
253
  6
CONTINUOUS
 10
152.3672547429
 20
121.2804757634
 11
152.3205995372
 21
121.1871013249
  0
LINE
  5
467
100
AcDbEntity
  8
0
100
AcDbLine
 62
7
  6
CONTINUOUS
 10
137.2593998413
 20
94.9240586717
 11
137.204080699
 21
94.8428086717
  0
LINE
  5
468
100
AcDbEntity
  8
RACCORDO
100
AcDbLine
 62
253
  6
CONTINUOUS
 10
145.6827180352
 20
105.5335140917
 11
145.6921754688
 21
105.5429715253
  0
LINE
  5
469
100
AcDbEntity
  8
0
100
AcDbLine
 62
7
  6
CONTINUOUS
 10
136.3189742859
 20
95.3844751318
 11
136.3742934476
 21
95.4386419017
  0
LINE
  5
46A
100
AcDbEntity
  8
0
100
AcDbLine
 62
7
  6
CONTINUOUS
 10
136.3466338571
 20
97.903225248
 11
136.2359955627
 21
97.8219752092
  0
LINE
  5
46B
100
AcDbEntity
  8
0
100
AcDbLine
 62
7
  6
CONTINUOUS
 10
136.8168466251
 20
97.9303085555
 11
136.7062083404
 21
97.8490585942
  0
LINE
  5
46C
100
AcDbEntity
  8
0
100
AcDbLine
 62
7
  6
CONTINUOUS
 10
136.3466338571
 20
96.7386419017
 11
136.2359955627
 21
96.6573919017
  0
LINE
  5
46D
100
AcDbEntity
  8
0
100
AcDbLine
 62
7
  6
CONTINUOUS
 10
137.204080699
 20
97.0907252867
 11
137.3147189837
 21
97.1719752867
  0
LINE
  5
46E
100
AcDbEntity
  8
0
100
AcDbLine
 62
7
  6
CONTINUOUS
 10
136.3466338571
 20
97.7407252092
 11
136.42961259
 21
97.7948919017
  0
LINE
  5
46F
100
AcDbEntity
  8
0
100
AcDbLine
 62
7
  6
CONTINUOUS
 10
136.8168466251
 20
97.7678085942
 11
136.8998253386
 21
97.8219752092
  0
LINE
  5
470
100
AcDbEntity
  8
0
100
AcDbLine
 62
7
  6
CONTINUOUS
 10
137.204080699
 20
97.2532252092
 11
137.1211019855
 21
97.1990585167
  0
LINE
  5
471
100
AcDbEntity
  8
RACCORDO
100
AcDbLine
 62
7
  6
CONTINUOUS
 10
145.3779639052
 20
103.4270107807
 11
145.4238822818
 21
103.4532423776
  0
LWPOLYLINE
  5
472
100
AcDbEntity
  8
RACCORDO
100
AcDbPolyline
 62
7
  6
CONTINUOUS
 90
11
 70
0
 10
145.4238822818
 20
103.4532423776
 10
145.4456977014
 20
103.4656020229
 10
145.466823008
 20
103.4771560305
 10
145.4871858021
 20
103.4877732627
 10
145.5065688852
 20
103.4973941756
 10
145.5249395601
 20
103.5058565632
 10
145.5423305241
 20
103.5130347225
 10
145.5586226708
 20
103.5188769533
 10
145.5737762984
 20
103.5232491572
 10
145.5878311088
 20
103.5259944977
 10
145.600787102
 20
103.527006973
  0
LWPOLYLINE
  5
473
100
AcDbEntity
  8
RACCORDO
100
AcDbPolyline
 62
7
  6
CONTINUOUS
 90
13
 70
0
 10
147.8081635463
 20
99.9661419407
 10
147.7751789007
 20
99.9645510705
 10
147.7433961246
 20
99.9603051501
 10
147.7128152181
 20
99.9534041796
 10
147.6833766912
 20
99.9438209883
 10
147.6551400339
 20
99.9315827469
 10
147.6282837161
 20
99.9167709669
 10
147.6026880778
 20
99.8993232626
 10
147.5784727789
 20
99.8793020198
 10
147.5561752691
 20
99.8569759067
 10
147.5359746982
 20
99.8324344795
 10
147.5176919164
 20
99.8055881821
 10
147.5013269237
 20
99.7764370144
  0
LWPOLYLINE
  5
474
100
AcDbEntity
  8
RACCORDO
100
AcDbPolyline
 62
253
  6
CONTINUOUS
 90
13
 70
0
 10
147.9800197023
 20
99.5626813544
 10
147.9395122196
 20
99.5609725916
 10
147.8998026744
 20
99.5561722615
 10
147.8608910667
 20
99.5482803642
 10
147.8225563292
 20
99.5372082522
 10
147.7850195293
 20
99.523044573
 10
147.7489438687
 20
99.5060552686
 10
147.714336581
 20
99.4861861423
 10
147.6811904326
 20
99.4634913909
 10
147.6501469253
 20
99.4383995464
 10
147.621419893
 20
99.4110534531
 10
147.5947955016
 20
99.3813102667
 10
147.5702737513
 20
99.3491699874
  0
LWPOLYLINE
  5
475
100
AcDbEntity
  8
RACCORDO
100
AcDbPolyline
 62
7
  6
CONTINUOUS
 90
10
 70
0
 10
147.4420910768
 20
100.5661419017
 10
147.4375442789
 20
100.5661167823
 10
147.4329921916
 20
100.5660401963
 10
147.4284348147
 20
100.5659121437
 10
147.4238734913
 20
100.565733016
 10
147.4193068785
 20
100.5655024218
 10
147.4147309475
 20
100.5652191864
 10
147.4101443554
 20
100.5648829183
 10
147.4055484452
 20
100.5644940092
 10
147.4009432168
 20
100.5640524589
  0
LWPOLYLINE
  5
476
100
AcDbEntity
  8
RACCORDO
100
AcDbPolyline
 62
7
  6
CONTINUOUS
 90
10
 70
0
 10
137.40862346
 20
100.8861419017
 10
137.413170257
 20
100.8861670211
 10
137.4177223435
 20
100.8862436071
 10
137.4222797194
 20
100.8863716597
 10
137.4268410417
 20
100.886550788
 10
137.4314076535
 20
100.8867813828
 10
137.4359835841
 20
100.8870646168
 10
137.4405701766
 20
100.8874008807
 10
137.4451660879
 20
100.8877897836
 10
137.4497713181
 20
100.8882313257
  0
LINE
  5
477
100
AcDbEntity
  8
RACCORDO
100
AcDbLine
 62
253
  6
CONTINUOUS
 10
150.3400241071
 20
99.3235469591
 11
151.9481859984
 21
99.3255805767
  0
LINE
  5
478
100
AcDbEntity
  8
RACCORDO
100
AcDbLine
 62
253
  6
CONTINUOUS
 10
148.001522072
 20
99.3212605595
 11
149.309585068
 21
99.3224415975
  0
LINE
  5
479
100
AcDbEntity
  8
RACCORDO
100
AcDbLine
 62
7
  6
CONTINUOUS
 10
134.721896721
 20
99.3382137979
 11
135.3288178157
 21
99.3382137979
  0
LINE
  5
47A
100
AcDbEntity
  8
RACCORDO
100
AcDbLine
 62
7
  6
CONTINUOUS
 10
149.521896721
 20
99.3382137979
 11
150.1288178157
 21
99.3382137979
  0
LINE
  5
47B
100
AcDbEntity
  8
RACCORDO
100
AcDbLine
 62
7
  6
CONTINUOUS
 10
151.9712922585
 20
99.3486868368
 11
150.5253572684
 21
99.3486868368
  0
LINE
  5
47C
100
AcDbEntity
  8
RACCORDO
100
AcDbLine
 62
7
  6
CONTINUOUS
 10
134.3253572684
 20
99.3486868368
 11
132.8794222782
 21
99.3486868368
  0
LINE
  5
47D
100
AcDbEntity
  8
RACCORDO
100
AcDbLine
 62
253
  6
CONTINUOUS
 10
150.5113322898
 20
99.3627118153
 11
147.9799578814
 21
99.3627118153
  0
LINE
  5
47E
100
AcDbEntity
  8
RACCORDO
100
AcDbLine
 62
253
  6
CONTINUOUS
 10
136.8707528948
 20
99.3627118153
 11
134.3393822469
 21
99.3627118153
  0
LINE
  5
47F
100
AcDbEntity
  8
RACCORDO
100
AcDbLine
 62
253
  6
CONTINUOUS
 10
150.5079022034
 20
99.5626813544
 11
147.9800197023
 21
99.5626813544
  0
LINE
  5
480
100
AcDbEntity
  8
RACCORDO
100
AcDbLine
 62
253
  6
CONTINUOUS
 10
136.8706948344
 20
99.5626813544
 11
134.3428123333
 21
99.5626813544
  0
LINE
  5
481
100
AcDbEntity
  8
RACCORDO
100
AcDbLine
 62
7
  6
CONTINUOUS
 10
134.3428123333
 20
99.9661419017
 11
137.0425510213
 21
99.9661419364
  0
LINE
  5
482
100
AcDbEntity
  8
RACCORDO
100
AcDbLine
 62
7
  6
CONTINUOUS
 10
147.8081635463
 20
99.9661419407
 11
150.5079022034
 21
99.9661419017
  0
LINE
  5
483
100
AcDbEntity
  8
DRAFT
100
AcDbLine
 62
7
  6
CONTINUOUS
 10
132.5253572684
 20
100.5661419017
 11
134.3253572684
 21
100.5661419017
  0
LINE
  5
484
100
AcDbEntity
  8
RACCORDO
100
AcDbLine
 62
7
  6
CONTINUOUS
 10
134.3253572684
 20
100.5661419017
 11
137.4086234602
 21
100.5661419017
  0
LINE
  5
485
100
AcDbEntity
  8
RACCORDO
100
AcDbLine
 62
7
  6
CONTINUOUS
 10
147.4420910765
 20
100.5661419017
 11
150.5253572684
 21
100.5661419017
  0
LINE
  5
486
100
AcDbEntity
  8
DRAFT
100
AcDbLine
 62
7
  6
CONTINUOUS
 10
150.5253572684
 20
100.5661419017
 11
152.3253572684
 21
100.5661419017
  0
LINE
  5
487
100
AcDbEntity
  8
RACCORDO
100
AcDbLine
 62
7
  6
CONTINUOUS
 10
153.1253115563
 20
100.5931951919
 11
152.3253572684
 21
100.5931951919
  0
LINE
  5
488
100
AcDbEntity
  8
RACCORDO
100
AcDbLine
 62
7
  6
CONTINUOUS
 10
132.5253572684
 20
100.5931951919
 11
131.7254029804
 21
100.5931951919
  0
LINE
  5
489
100
AcDbEntity
  8
RACCORDO
100
AcDbLine
 62
7
  6
CONTINUOUS
 10
131.7254029804
 20
100.8477436835
 11
132.4834597938
 21
100.8477436835
  0
LINE
  5
48A
100
AcDbEntity
  8
RACCORDO
100
AcDbLine
 62
7
  6
CONTINUOUS
 10
152.3672547429
 20
100.8477436835
 11
153.1253115563
 21
100.8477436835
  0
LINE
  5
48B
100
AcDbEntity
  8
DRAFT
100
AcDbLine
 62
7
  6
CONTINUOUS
 10
152.252036688
 20
100.8861419017
 11
150.5253572684
 21
100.8861419017
  0
LINE
  5
48C
100
AcDbEntity
  8
RACCORDO
100
AcDbLine
 62
7
  6
CONTINUOUS
 10
150.5253572684
 20
100.8861419017
 11
147.4420910765
 21
100.8861419017
  0
LINE
  5
48D
100
AcDbEntity
  8
RACCORDO
100
AcDbLine
 62
7
  6
CONTINUOUS
 10
137.4086234602
 20
100.8861419017
 11
134.3253572684
 21
100.8861419017
  0
LINE
  5
48E
100
AcDbEntity
  8
DRAFT
100
AcDbLine
 62
7
  6
CONTINUOUS
 10
134.3253572684
 20
100.8861419017
 11
132.5986778487
 21
100.8861419017
  0
LINE
  5
48F
100
AcDbEntity
  8
RACCORDO
100
AcDbLine
 62
253
  6
CONTINUOUS
 10
135.5411294687
 20
99.3224415975
 11
136.8491924647
 21
99.3212605595
  0
LINE
  5
490
100
AcDbEntity
  8
RACCORDO
100
AcDbLine
 62
253
  6
CONTINUOUS
 10
132.9024695773
 20
99.3255806547
 11
134.5106904296
 21
99.3235469591
  0
LWPOLYLINE
  5
491
100
AcDbEntity
  8
RACCORDO
100
AcDbPolyline
 62
7
  6
CONTINUOUS
 90
5
 70
0
 10
151.9481859984
 20
99.3255805767
 10
151.9795613731
 20
99.3239452765
 10
152.0105910544
 20
99.3190403836
 10
152.0409352682
 20
99.3109202225
 10
152.0702621217
 20
99.2996744135
  0
LWPOLYLINE
  5
492
100
AcDbEntity
  8
RACCORDO
100
AcDbPolyline
 62
253
  6
CONTINUOUS
 90
16
 70
0
 10
151.9639677918
 20
99.124931551
 10
151.9746471613
 20
99.124346497
 10
151.9849857221
 20
99.1227265251
 10
151.994983479
 20
99.1200716326
 10
152.0047404134
 20
99.1163302508
 10
152.0141565538
 20
99.1115539443
 10
152.0229319788
 20
99.105897412
 10
152.0310473188
 20
99.0993320432
 10
152.0385219594
 20
99.0918864475
 10
152.0451141151
 20
99.0838011575
 10
152.0507947168
 20
99.075055783
 10
152.055592849
 20
99.0656707165
 10
152.0593539571
 20
99.0559476668
 10
152.0620265255
 20
99.0459872053
 10
152.0636620781
 20
99.0356887657
 10
152.0642606175
 20
99.0250523507
  0
LWPOLYLINE
  5
493
100
AcDbEntity
  8
RACCORDO
100
AcDbPolyline
 62
7
  6
CONTINUOUS
 90
10
 70
0
 10
137.4497713005
 20
100.564052437
 10
137.4451660768
 20
100.5644939973
 10
137.4405701704
 20
100.5648829139
 10
137.4359835813
 20
100.5652191869
 10
137.4314076522
 20
100.5655024238
 10
137.4268410404
 20
100.5657330171
 10
137.422279718
 20
100.5659121439
 10
137.4177223426
 20
100.5660401964
 10
137.4131702566
 20
100.5661167823
 10
137.4086234602
 20
100.5661419017
  0
LWPOLYLINE
  5
494
100
AcDbEntity
  8
RACCORDO
100
AcDbPolyline
 62
7
  6
CONTINUOUS
 90
13
 70
0
 10
137.4497713005
 20
100.564052558
 10
137.4860363263
 20
100.5586971675
 10
137.5215043041
 20
100.5500515585
 10
137.555901403
 20
100.538239339
 10
137.5889324475
 20
100.5234305672
 10
137.6203813437
 20
100.5057664441
 10
137.6500988735
 20
100.4853305551
 10
137.677843074
 20
100.4622876694
 10
137.7033937039
 20
100.4368330364
 10
137.7266208942
 20
100.4090780047
 10
137.7473307731
 20
100.3791925627
 10
137.7652893957
 20
100.3474244339
 10
137.7803081509
 20
100.3140071576
  0
LINE
  5
495
100
AcDbEntity
  8
0
100
AcDbLine
 62
7
  6
CONTINUOUS
 10
147.4253572684
 20
97.9411419017
 11
148.7253572684
 21
97.551141925
  0
LINE
  5
496
100
AcDbEntity
  8
0
100
AcDbLine
 62
7
  6
CONTINUOUS
 10
148.7253572684
 20
97.697391925
 11
147.5913147147
 21
98.0386419134
  0
LINE
  5
497
100
AcDbEntity
  8
RACCORDO
100
AcDbLine
 62
7
  6
CONTINUOUS
 10
145.4425401314
 20
97.9309367477
 11
145.3779639052
 21
97.9677750191
  0
LINE
  5
498
100
AcDbEntity
  8
0
100
AcDbLine
 62
7
  6
CONTINUOUS
 10
148.255144481
 20
93.7486417158
 11
148.1998253386
 21
93.7973920877
  0
LINE
  5
499
100
AcDbEntity
  8
RACCORDO
100
AcDbLine
 62
253
  6
CONTINUOUS
 10
145.6827180352
 20
95.9187697118
 11
145.692175414
 21
95.909312333
  0
LWPOLYLINE
  5
49A
100
AcDbEntity
  8
DRAFT
100
AcDbPolyline
 62
7
  6
CONTINUOUS
 90
10
 70
0
 10
134.9939050841
 20
121.2282943238
 10
134.9840741802
 20
121.2561566104
 10
134.9744221838
 20
121.2842176145
 10
134.9649490946
 20
121.3124773361
 10
134.9556660285
 20
121.3409382504
 10
134.9465618696
 20
121.3695978822
 10
134.9376032714
 20
121.3984488058
 10
134.9287791183
 20
121.427488546
 10
134.9201005257
 20
121.456719578
 10
134.9115674938
 20
121.4861419017
  0
LINE
  5
49B
100
AcDbEntity
  8
RACCORDO
100
AcDbLine
 62
7
  6
CONTINUOUS
 10
145.6923396141
 20
103.5431242475
 11
145.6779524821
 21
103.5287371155
  0
LINE
  5
49C
100
AcDbEntity
  8
RACCORDO
100
AcDbLine
 62
253
  6
CONTINUOUS
 10
146.2262337627
 20
103.527006973
 11
146.2422106934
 21
103.5429839037
  0
LINE
  5
49D
100
AcDbEntity
  8
RACCORDO
100
AcDbLine
 62
253
  6
CONTINUOUS
 10
139.1679965015
 20
95.9187697118
 11
139.1585391227
 21
95.909312333
  0
LINE
  5
49E
100
AcDbEntity
  8
RACCORDO
100
AcDbLine
 62
253
  6
CONTINUOUS
 10
139.4691919748
 20
95.6199880313
 11
139.4584929617
 21
95.6092890182
  0
LINE
  5
49F
100
AcDbEntity
  8
RACCORDO
100
AcDbLine
 62
253
  6
CONTINUOUS
 10
146.5262223396
 20
103.2270831705
 11
146.5421305576
 21
103.2429266141
  0
LINE
  5
4A0
100
AcDbEntity
  8
0
100
AcDbLine
 62
7
  6
CONTINUOUS
 10
137.2317402702
 20
94.6803086717
 11
137.3423785548
 21
94.7886419017
  0
LINE
  5
4A1
100
AcDbEntity
  8
0
100
AcDbLine
 62
7
  6
CONTINUOUS
 10
136.7338679116
 20
95.8719751318
 11
136.8445061963
 21
95.9532252867
  0
LINE
  5
4A2
100
AcDbEntity
  8
RACCORDO
100
AcDbLine
 62
253
  6
CONTINUOUS
 10
147.7341721317
 20
102.2176788083
 11
147.5702737529
 21
102.1031138144
  0
LINE
  5
4A3
100
AcDbEntity
  8
0
100
AcDbLine
 62
7
  6
CONTINUOUS
 10
136.7338679116
 20
96.0344752867
 11
136.6508891981
 21
95.9803085167
  0
LINE
  5
4A4
100
AcDbEntity
  8
0
100
AcDbLine
 62
7
  6
CONTINUOUS
 10
136.3466338571
 20
95.5740586717
 11
136.2636551436
 21
95.5198919017
  0
LINE
  5
4A5
100
AcDbEntity
  8
RACCORDO
100
AcDbLine
 62
7
  6
CONTINUOUS
 10
139.4727506315
 20
97.9677750191
 11
139.4288568762
 21
97.9426755696
  0
LWPOLYLINE
  5
4A6
100
AcDbEntity
  8
RACCORDO
100
AcDbPolyline
 62
7
  6
CONTINUOUS
 90
11
 70
0
 10
139.4288568762
 20
97.9426755696
 10
139.4079782177
 20
97.9308276279
 10
139.3877596338
 20
97.9197139344
 10
139.368253196
 20
97.9094400117
 10
139.3496151192
 20
97.9000385092
 10
139.3318633405
 20
97.8916467786
 10
139.3149799227
 20
97.8843796567
 10
139.2990672689
 20
97.878276745
 10
139.2841595136
 20
97.8734520049
 10
139.2702225223
 20
97.8700460291
 10
139.2572562951
 20
97.8681555493
  0
LINE
  5
4A7
100
AcDbEntity
  8
0
100
AcDbLine
 62
7
  6
CONTINUOUS
 10
136.4572721611
 20
96.7928085167
 11
136.3466338571
 21
96.7386419017
  0
LINE
  5
4A8
100
AcDbEntity
  8
0
100
AcDbLine
 62
7
  6
CONTINUOUS
 10
136.3466338571
 20
96.5761419017
 11
136.4572721611
 21
96.6303085167
  0
LINE
  5
4A9
100
AcDbEntity
  8
0
100
AcDbLine
 62
7
  6
CONTINUOUS
 10
136.955144481
 20
97.984475248
 11
136.8168466251
 21
97.9303085555
  0
LINE
  5
4AA
100
AcDbEntity
  8
0
100
AcDbLine
 62
7
  6
CONTINUOUS
 10
137.0657827656
 20
97.0365585167
 11
137.204080699
 21
97.0907252867
  0
LINE
  5
4AB
100
AcDbEntity
  8
0
100
AcDbLine
 62
7
  6
CONTINUOUS
 10
136.42961259
 20
97.9303085555
 11
136.3466338571
 21
97.903225248
  0
LINE
  5
4AC
100
AcDbEntity
  8
0
100
AcDbLine
 62
7
  6
CONTINUOUS
 10
136.8998253386
 20
97.8219752092
 11
136.9828040521
 21
97.8490585942
  0
LINE
  5
4AD
100
AcDbEntity
  8
0
100
AcDbLine
 62
7
  6
CONTINUOUS
 10
137.1211019855
 20
97.1990585167
 11
137.0381231945
 21
97.1719752867
  0
LWPOLYLINE
  5
4AE
100
AcDbEntity
  8
RACCORDO
100
AcDbPolyline
 62
7
  6
CONTINUOUS
 90
10
 70
0
 10
136.847413718
 20
102.1344689264
 10
136.8795944104
 20
102.1363024808
 10
136.910766273
 20
102.1413144548
 10
136.9409292684
 20
102.1495048333
 10
136.9704142306
 20
102.1610436332
 10
136.9988902558
 20
102.1757608091
 10
137.0253646695
 20
102.1931462571
 10
137.0495065239
 20
102.2130299392
 10
137.0716466321
 20
102.2355818796
 10
137.0917849349
 20
102.2608020734
  0
LWPOLYLINE
  5
4AF
100
AcDbEntity
  8
RACCORDO
100
AcDbPolyline
 62
7
  6
CONTINUOUS
 90
16
 70
0
 10
151.9121524206
 20
102.1302059429
 10
151.9436483592
 20
102.1318115385
 10
151.9748070351
 20
102.136703031
 10
152.0052857953
 20
102.1448297538
 10
152.0347769635
 20
102.1561169506
 10
152.0629241358
 20
102.1704372936
 10
152.0893401191
 20
102.1875841226
 10
152.113698825
 20
102.2073037097
 10
152.13580837
 20
102.2293949685
 10
152.1555091586
 20
102.253690286
 10
152.1726059816
 20
102.279977053
 10
152.1868692871
 20
102.3079340012
 10
152.1981184865
 20
102.3372141392
 10
152.2062319487
 20
102.3674797431
 10
152.2111331722
 20
102.3984135405
 10
152.212773889
 20
102.4296774655
  0
LWPOLYLINE
  5
4B0
100
AcDbEntity
  8
RACCORDO
100
AcDbPolyline
 62
7
  6
CONTINUOUS
 90
13
 70
0
 10
137.0425509863
 20
101.4861418623
 10
137.0755358778
 20
101.4877328055
 10
137.1073187865
 20
101.4919787603
 10
137.1378997123
 20
101.4988797266
 10
137.1673380933
 20
101.5084628669
 10
137.1955744915
 20
101.5207010188
 10
137.2224305926
 20
101.5355126951
 10
137.2480260962
 20
101.5529602525
 10
137.2722413026
 20
101.5729813345
 10
137.2945387985
 20
101.5953073842
 10
137.3147394459
 20
101.6198488828
 10
137.3330223828
 20
101.6466953491
 10
137.3493876091
 20
101.6758467833
  0
LWPOLYLINE
  5
4B1
100
AcDbEntity
  8
RACCORDO
100
AcDbPolyline
 62
253
  6
CONTINUOUS
 90
13
 70
0
 10
136.8706948344
 20
101.8896024491
 10
136.9112023362
 20
101.8913112139
 10
136.9509118987
 20
101.8961115481
 10
136.9898235217
 20
101.9040034517
 10
137.0281582724
 20
101.9150755719
 10
137.0656950837
 20
101.9292392615
 10
137.1017707547
 20
101.946228579
 10
137.1363780574
 20
101.9660977281
 10
137.1695242198
 20
101.9887925051
 10
137.2005677255
 20
102.0138843576
 10
137.2292947356
 20
102.0412304349
 10
137.2559190888
 20
102.0709735877
 10
137.2804407854
 20
102.1031138161
  0
LWPOLYLINE
  5
4B2
100
AcDbEntity
  8
RACCORDO
100
AcDbPolyline
 62
253
  6
CONTINUOUS
 90
13
 70
0
 10
136.8707566529
 20
102.0895719919
 10
136.8947523682
 20
102.0905357451
 10
136.9185857213
 20
102.0934149049
 10
136.9421043515
 20
102.0981891532
 10
136.9651528775
 20
102.1048243267
 10
136.9875899971
 20
102.1132771059
 10
137.0092878513
 20
102.1234994868
 10
137.030115129
 20
102.1354332774
 10
137.0499284147
 20
102.1490000921
 10
137.0685900257
 20
102.164106373
 10
137.0859780571
 20
102.1806516291
 10
137.1019852201
 20
102.1985318664
 10
137.1165097537
 20
102.2176321021
  0
LINE
  5
4B3
100
AcDbEntity
  8
RACCORDO
100
AcDbLine
 62
7
  6
CONTINUOUS
 10
132.9385621161
 20
102.1302059429
 11
136.847413718
 21
102.1344689264
  0
LINE
  5
4B4
100
AcDbEntity
  8
RACCORDO
100
AcDbLine
 62
7
  6
CONTINUOUS
 10
137.0425509863
 20
101.4861418623
 11
134.3428123333
 21
101.4861419017
  0
LINE
  5
4B5
100
AcDbEntity
  8
RACCORDO
100
AcDbLine
 62
7
  6
CONTINUOUS
 10
150.5079022034
 20
101.4861419017
 11
147.8081635409
 21
101.4861418637
  0
LINE
  5
4B6
100
AcDbEntity
  8
RACCORDO
100
AcDbLine
 62
253
  6
CONTINUOUS
 10
134.3428123333
 20
101.8896024491
 11
136.8706948344
 21
101.8896024491
  0
LINE
  5
4B7
100
AcDbEntity
  8
RACCORDO
100
AcDbLine
 62
253
  6
CONTINUOUS
 10
147.9800197023
 20
101.8896024491
 11
150.5079022034
 21
101.8896024491
  0
LINE
  5
4B8
100
AcDbEntity
  8
RACCORDO
100
AcDbLine
 62
253
  6
CONTINUOUS
 10
134.3393822469
 20
102.0895719881
 11
136.8707566515
 21
102.0895719881
  0
LINE
  5
4B9
100
AcDbEntity
  8
RACCORDO
100
AcDbLine
 62
253
  6
CONTINUOUS
 10
147.9799616456
 20
102.0895719881
 11
150.5113322898
 21
102.0895719881
  0
LINE
  5
4BA
100
AcDbEntity
  8
RACCORDO
100
AcDbLine
 62
7
  6
CONTINUOUS
 10
132.8986435843
 20
102.1035969667
 11
134.3253572684
 21
102.1035969667
  0
LINE
  5
4BB
100
AcDbEntity
  8
RACCORDO
100
AcDbLine
 62
7
  6
CONTINUOUS
 10
150.5253572684
 20
102.1035969667
 11
151.9520709524
 21
102.1035969667
  0
LINE
  5
4BC
100
AcDbEntity
  8
DRAFT
100
AcDbLine
 62
7
  6
CONTINUOUS
 10
145.6003572684
 20
102.2511419017
 11
139.2503575802
 21
102.2511419017
  0
LINE
  5
4BD
100
AcDbEntity
  8
RACCORDO
100
AcDbLine
 62
7
  6
CONTINUOUS
 10
148.0033008187
 20
102.1344689264
 11
151.9121524206
 21
102.1302059429
  0
LWPOLYLINE
  5
4BE
100
AcDbEntity
  8
RACCORDO
100
AcDbPolyline
 62
7
  6
CONTINUOUS
 90
10
 70
0
 10
147.4009433476
 20
100.888231468
 10
147.405548547
 20
100.8877898608
 10
147.410144433
 20
100.8874009092
 10
147.4147310057
 20
100.8870646132
 10
147.4193069238
 20
100.8867813692
 10
147.4238735285
 20
100.8865507808
 10
147.4284348437
 20
100.8863716588
 10
147.4329922108
 20
100.8862436067
 10
147.4375442884
 20
100.886167021
 10
147.4420910765
 20
100.8861419017
  0
LWPOLYLINE
  5
4BF
100
AcDbEntity
  8
RACCORDO
100
AcDbPolyline
 62
7
  6
CONTINUOUS
 90
13
 70
0
 10
147.4009433476
 20
100.8882312318
 10
147.3646783368
 20
100.8935866066
 10
147.3292103647
 20
100.9022322024
 10
147.2948132647
 20
100.9140444109
 10
147.2617822136
 20
100.9288531728
 10
147.2303333067
 20
100.9465172877
 10
147.2006157633
 20
100.9669531718
 10
147.1728715467
 20
100.9899960573
 10
147.1473208995
 20
101.0154506942
 10
147.1240936928
 20
101.0432057332
 10
147.103383799
 20
101.0730911857
 10
147.0854251628
 20
101.1048593288
 10
147.0704063953
 20
101.1382766237
  0
LINE
  5
4C0
100
AcDbEntity
  8
RACCORDO
100
AcDbLine
 62
7
  6
CONTINUOUS
 10
139.4081705136
 20
103.4713492206
 11
139.4727506315
 21
103.4345087843
  0
LWPOLYLINE
  5
4C1
100
AcDbEntity
  8
RACCORDO
100
AcDbPolyline
 62
253
  6
CONTINUOUS
 90
8
 70
0
 10
147.8268668729
 20
99.1498314296
 10
147.8099618138
 20
99.1613437887
 10
147.7949930406
 20
99.1714098246
 10
147.7822238825
 20
99.1798524569
 10
147.7718789732
 20
99.1865231635
 10
147.7641402993
 20
99.1913045942
 10
147.7591439988
 20
99.1941126344
 10
147.7569779663
 20
99.1948978857
  0
LINE
  5
4C2
100
AcDbEntity
  8
RACCORDO
100
AcDbLine
 62
253
  6
CONTINUOUS
 10
147.8652674491
 20
99.1232997199
 11
147.8268668729
 21
99.1498314296
  0
LINE
  5
4C3
100
AcDbEntity
  8
RACCORDO
100
AcDbLine
 62
253
  6
CONTINUOUS
 10
147.7341721317
 20
99.2346049952
 11
147.5702737513
 21
99.3491699874
  0
LWPOLYLINE
  5
4C4
100
AcDbEntity
  8
RACCORDO
100
AcDbPolyline
 62
253
  6
CONTINUOUS
 90
3
 70
0
 10
147.9291418919
 20
99.0783439274
 10
147.9075044971
 20
99.0936734566
 10
147.8652674491
 20
99.1232997199
  0
LINE
  5
4C5
100
AcDbEntity
  8
RACCORDO
100
AcDbLine
 62
253
  6
CONTINUOUS
 10
150.3429748462
 20
95.5084786325
 11
150.3287873548
 21
95.5226069802
  0
LINE
  5
4C6
100
AcDbEntity
  8
RACCORDO
100
AcDbLine
 62
253
  6
CONTINUOUS
 10
139.1679965015
 20
105.5335140917
 11
139.1585390679
 21
105.5429715253
  0
LINE
  5
4C7
100
AcDbEntity
  8
RACCORDO
100
AcDbLine
 62
253
  6
CONTINUOUS
 10
150.0432895685
 20
95.208255293
 11
150.0288330462
 21
95.2227118153
  0
LINE
  5
4C8
100
AcDbEntity
  8
RACCORDO
100
AcDbLine
 62
253
  6
CONTINUOUS
 10
139.4691919748
 20
105.8322957722
 11
139.4584929445
 21
105.8429948025
  0
LINE
  5
4C9
100
AcDbEntity
  8
0
100
AcDbLine
 62
7
  6
CONTINUOUS
 10
148.0615274828
 20
93.7730169017
 11
148.1168466251
 21
93.6755167158
  0
LINE
  5
4CA
100
AcDbEntity
  8
RACCORDO
100
AcDbLine
 62
253
  6
CONTINUOUS
 10
132.4834597938
 20
121.2804757634
 11
132.5301149995
 21
121.1871013249
  0
LINE
  5
4CB
100
AcDbEntity
  8
RACCORDO
100
AcDbLine
 62
253
  6
CONTINUOUS
 10
132.783151492
 20
121.5804759044
 11
132.8302861508
 21
121.4861419017
  0
LINE
  5
4CC
100
AcDbEntity
  8
RACCORDO
100
AcDbLine
 62
7
  6
CONTINUOUS
 10
140.1587749567
 20
121.4861419017
 11
140.1702121387
 21
121.4056890713
  0
LINE
  5
4CD
100
AcDbEntity
  8
RACCORDO
100
AcDbLine
 62
7
  6
CONTINUOUS
 10
146.9219271819
 20
80.444573112
 11
146.9156999656
 21
80.4883773618
  0
LINE
  5
4CE
100
AcDbEntity
  8
RACCORDO
100
AcDbLine
 62
7
  6
CONTINUOUS
 10
145.6923267907
 20
97.7060189125
 11
145.6779524821
 21
97.8501243446
  0
LINE
  5
4CF
100
AcDbEntity
  8
RACCORDO
100
AcDbLine
 62
253
  6
CONTINUOUS
 10
146.2263706509
 20
97.8681555493
 11
146.2424032318
 21
97.7074255935
  0
LWPOLYLINE
  5
4D0
100
AcDbEntity
  8
RACCORDO
100
AcDbPolyline
 62
253
  6
CONTINUOUS
 90
16
 70
0
 10
144.8727620546
 20
96.5695604868
 10
144.8746002052
 20
96.5494886873
 10
144.879677219
 20
96.5296349222
 10
144.887937948
 20
96.510214867
 10
144.8992926588
 20
96.4914394861
 10
144.9136180069
 20
96.4735127416
 10
144.9307583763
 20
96.4566293776
 10
144.9505275669
 20
96.440972806
 10
144.9727108275
 20
96.4267131062
 10
144.9970671917
 20
96.4140051805
 10
145.0233320969
 20
96.4029870751
 10
145.0512202064
 20
96.3937784983
 10
145.0804285121
 20
96.3864795026
 10
145.1106396936
 20
96.3811693763
 10
145.1415255741
 20
96.3779057943
 10
145.1727506315
 20
96.3767242039
  0
LWPOLYLINE
  5
4D1
100
AcDbEntity
  8
RACCORDO
100
AcDbPolyline
 62
7
  6
CONTINUOUS
 90
4
 70
0
 10
144.8592582
 20
103.3891399777
 10
144.8594674721
 20
103.3805988014
 10
144.8596884234
 20
103.3751275558
 10
144.8599210538
 20
103.3727262407
  0
LINE
  5
4D2
100
AcDbEntity
  8
RACCORDO
100
AcDbLine
 62
7
  6
CONTINUOUS
 10
144.8588685008
 20
103.4159312806
 11
144.8592582
 21
103.3891399777
  0
LINE
  5
4D3
100
AcDbEntity
  8
RACCORDO
100
AcDbLine
 62
253
  6
CONTINUOUS
 10
144.8727620546
 20
104.8827233166
 11
144.8679965015
 21
105.5335140917
  0
LINE
  5
4D4
100
AcDbEntity
  8
RACCORDO
100
AcDbLine
 62
253
  6
CONTINUOUS
 10
145.1727506315
 20
105.0755595996
 11
145.1672092708
 21
105.8322957722
  0
LINE
  5
4D5
100
AcDbEntity
  8
RACCORDO
100
AcDbLine
 62
253
  6
CONTINUOUS
 10
145.3779639052
 20
96.3767242039
 11
145.3835052659
 21
95.6199880313
  0
LINE
  5
4D6
100
AcDbEntity
  8
RACCORDO
100
AcDbLine
 62
253
  6
CONTINUOUS
 10
145.6779524821
 20
96.5695604868
 11
145.6827180352
 21
95.9187697118
  0
LINE
  5
4D7
100
AcDbEntity
  8
RACCORDO
100
AcDbLine
 62
7
  6
CONTINUOUS
 10
144.8584294387
 20
103.4748791988
 11
144.8588685008
 21
103.4159312806
  0
LINE
  5
4D8
100
AcDbEntity
  8
RACCORDO
100
AcDbLine
 62
253
  6
CONTINUOUS
 10
144.3805480894
 20
122.9034088398
 11
144.3805480894
 21
121.3694965689
  0
LINE
  5
4D9
100
AcDbEntity
  8
RACCORDO
100
AcDbLine
 62
253
  6
CONTINUOUS
 10
144.5021521876
 20
80.1474180085
 11
144.5021521876
 21
78.5604690447
  0
LINE
  5
4DA
100
AcDbEntity
  8
RACCORDO
100
AcDbLine
 62
253
  6
CONTINUOUS
 10
144.680502398
 20
122.918856781
 11
144.680502398
 21
121.4056890713
  0
LINE
  5
4DB
100
AcDbEntity
  8
DRAFT
100
AcDbLine
 62
7
  6
CONTINUOUS
 10
144.7233586969
 20
123.0475302328
 11
144.7233586969
 21
121.5804759044
  0
LINE
  5
4DC
100
AcDbEntity
  8
RACCORDO
100
AcDbLine
 62
253
  6
CONTINUOUS
 10
144.7619598087
 20
80.129137607
 11
144.7619598087
 21
78.5525994814
  0
LINE
  5
4DD
100
AcDbEntity
  8
RACCORDO
100
AcDbLine
 62
7
  6
CONTINUOUS
 10
144.8727620546
 20
104.8827233166
 11
144.8727620546
 21
103.347042283
  0
LINE
  5
4DE
100
AcDbEntity
  8
RACCORDO
100
AcDbLine
 62
7
  6
CONTINUOUS
 10
144.8727620546
 20
98.1052415205
 11
144.8727620546
 21
96.5695604868
  0
LINE
  5
4DF
100
AcDbEntity
  8
DRAFT
100
AcDbLine
 62
7
  6
CONTINUOUS
 10
144.9951767342
 20
78.5314070851
 11
144.9951767342
 21
80.0799092701
  0
LINE
  5
4E0
100
AcDbEntity
  8
RACCORDO
100
AcDbLine
 62
253
  6
CONTINUOUS
 10
145.1727506315
 20
98.1104323433
 11
145.1727506315
 21
96.3767242039
  0
LINE
  5
4E1
100
AcDbEntity
  8
RACCORDO
100
AcDbLine
 62
253
  6
CONTINUOUS
 10
145.1727506315
 20
103.3418514602
 11
145.1727506315
 21
105.0755595996
  0
LINE
  5
4E2
100
AcDbEntity
  8
RACCORDO
100
AcDbLine
 62
253
  6
CONTINUOUS
 10
145.3779639052
 20
96.3767242039
 11
145.3779639052
 21
97.9677750191
  0
LINE
  5
4E3
100
AcDbEntity
  8
RACCORDO
100
AcDbLine
 62
253
  6
CONTINUOUS
 10
145.3779639052
 20
103.4270107807
 11
145.3779639052
 21
105.0755595996
  0
LINE
  5
4E4
100
AcDbEntity
  8
DRAFT
100
AcDbLine
 62
253
  6
CONTINUOUS
 10
145.6003569565
 20
99.2011419017
 11
145.6003572684
 21
98.6011419017
  0
LINE
  5
4E5
100
AcDbEntity
  8
RACCORDO
100
AcDbLine
 62
253
  6
CONTINUOUS
 10
145.6003572684
 20
98.1104323433
 11
145.6003572684
 21
98.3226813544
  0
LINE
  5
4E6
100
AcDbEntity
  8
DRAFT
100
AcDbLine
 62
253
  6
CONTINUOUS
 10
145.6003572684
 20
102.2511419017
 11
145.6003572684
 21
102.8511419017
  0
LINE
  5
4E7
100
AcDbEntity
  8
RACCORDO
100
AcDbLine
 62
253
  6
CONTINUOUS
 10
145.6003572684
 20
103.1296024491
 11
145.6003572684
 21
103.3418514602
  0
LINE
  5
4E8
100
AcDbEntity
  8
RACCORDO
100
AcDbLine
 62
7
  6
CONTINUOUS
 10
145.6779524821
 20
96.5695604868
 11
145.6779524821
 21
97.8501243446
  0
LINE
  5
4E9
100
AcDbEntity
  8
RACCORDO
100
AcDbLine
 62
7
  6
CONTINUOUS
 10
145.6779524821
 20
103.5287371155
 11
145.6779524821
 21
104.8827233166
  0
LINE
  5
4EA
100
AcDbEntity
  8
RACCORDO
100
AcDbLine
 62
7
  6
CONTINUOUS
 10
145.6923396141
 20
103.5431242475
 11
145.6921754688
 21
105.5429715253
  0
LINE
  5
4EB
100
AcDbEntity
  8
RACCORDO
100
AcDbLine
 62
7
  6
CONTINUOUS
 10
144.8583691687
 20
105.5431414245
 11
144.8584294387
 21
103.4748791988
  0
LINE
  5
4EC
100
AcDbEntity
  8
RACCORDO
100
AcDbLine
 62
7
  6
CONTINUOUS
 10
145.692175414
 20
95.909312333
 11
145.6923267907
 21
97.7060189125
  0
LINE
  5
4ED
100
AcDbEntity
  8
RACCORDO
100
AcDbLine
 62
7
  6
CONTINUOUS
 10
144.8584294122
 20
97.9774045568
 11
144.8583691318
 21
95.9091423421
  0
LINE
  5
4EE
100
AcDbEntity
  8
RACCORDO
100
AcDbLine
 62
253
  6
CONTINUOUS
 10
144.8679965015
 20
95.9187697118
 11
144.8727620546
 21
96.5695604868
  0
LINE
  5
4EF
100
AcDbEntity
  8
RACCORDO
100
AcDbLine
 62
253
  6
CONTINUOUS
 10
145.1672092708
 20
95.6199880313
 11
145.1727506315
 21
96.3767242039
  0
LINE
  5
4F0
100
AcDbEntity
  8
RACCORDO
100
AcDbLine
 62
253
  6
CONTINUOUS
 10
145.3835052659
 20
105.8322957722
 11
145.3779639052
 21
105.0755595996
  0
LINE
  5
4F1
100
AcDbEntity
  8
RACCORDO
100
AcDbLine
 62
253
  6
CONTINUOUS
 10
145.6827180352
 20
105.5335140917
 11
145.6779524821
 21
104.8827233166
  0
LINE
  5
4F2
100
AcDbEntity
  8
RACCORDO
100
AcDbLine
 62
7
  6
CONTINUOUS
 10
144.858868474
 20
98.0363524381
 11
144.8584294122
 21
97.9774045568
  0
LWPOLYLINE
  5
4F3
100
AcDbEntity
  8
RACCORDO
100
AcDbPolyline
 62
7
  6
CONTINUOUS
 90
16
 70
0
 10
144.8583691687
 20
105.5431414245
 10
144.8600135713
 20
105.574471652
 10
144.8649236659
 20
105.6054657559
 10
144.873048067
 20
105.635784164
 10
144.8843062951
 20
105.6651079951
 10
144.8985739773
 20
105.69310017
 10
144.9156700734
 20
105.7194161118
 10
144.9353639475
 20
105.7437366721
 10
144.957457449
 20
105.7658482052
 10
144.9817881707
 20
105.7855815779
 10
145.0081623982
 20
105.8027384675
 10
145.0362520903
 20
105.8170672307
 10
145.0656664112
 20
105.828361268
 10
145.0960471219
 20
105.8364971484
 10
145.1270873355
 20
105.8414061214
 10
145.1584453808
 20
105.8430423662
  0
LWPOLYLINE
  5
4F4
100
AcDbEntity
  8
RACCORDO
100
AcDbPolyline
 62
7
  6
CONTINUOUS
 90
16
 70
0
 10
145.692175414
 20
95.909312333
 10
145.6905316737
 20
95.8779804527
 10
145.6856232491
 20
95.8469831374
 10
145.677501431
 20
95.8166600152
 10
145.6662466348
 20
95.7873298683
 10
145.6519831217
 20
95.7593300556
 10
145.6348918861
 20
95.7330057533
 10
145.6152035435
 20
95.7086760357
 10
145.5931163627
 20
95.6865547427
 10
145.5687931949
 20
95.6668117758
 10
145.542427976
 20
95.6496452194
 10
145.5143489057
 20
95.635306576
 10
145.4849474116
 20
95.6240028778
 10
145.4545820436
 20
95.6158572111
 10
145.4235595709
 20
95.6109375067
 10
145.392221575
 20
95.6092890182
  0
LWPOLYLINE
  5
4F5
100
AcDbEntity
  8
RACCORDO
100
AcDbPolyline
 62
7
  6
CONTINUOUS
 90
16
 70
0
 10
144.8679965015
 20
105.5335140917
 10
144.8695620741
 20
105.5627828068
 10
144.8740479931
 20
105.5920258365
 10
144.8814874257
 20
105.6209443868
 10
144.8918808943
 20
105.6492222496
 10
144.90519786
 20
105.6765535948
 10
144.9213818738
 20
105.7026432526
 10
144.9403402224
 20
105.7271742825
 10
144.9619383617
 20
105.7498268031
 10
144.9860099268
 20
105.7703024121
 10
145.0123206132
 20
105.7882867806
 10
145.040650656
 20
105.8035224135
 10
145.0708178716
 20
105.8157898296
 10
145.1025504224
 20
105.8248336163
 10
145.1354701128
 20
105.8304021303
 10
145.1691919748
 20
105.8322957722
  0
LWPOLYLINE
  5
4F6
100
AcDbEntity
  8
RACCORDO
100
AcDbPolyline
 62
7
  6
CONTINUOUS
 90
16
 70
0
 10
145.6827180352
 20
95.9187697118
 10
145.6811524626
 20
95.8895009967
 10
145.6766665436
 20
95.860257967
 10
145.669227111
 20
95.8313394166
 10
145.6588336424
 20
95.8030615538
 10
145.6455166767
 20
95.7757302086
 10
145.6293326629
 20
95.7496405509
 10
145.6103743143
 20
95.725109521
 10
145.588776175
 20
95.7024570004
 10
145.5647046099
 20
95.6819813914
 10
145.5383939236
 20
95.6639970229
 10
145.5100638807
 20
95.64876139
 10
145.4798966651
 20
95.6364939738
 10
145.4481641144
 20
95.6274501872
 10
145.4152444239
 20
95.6218816732
 10
145.3815225619
 20
95.6199880313
  0
LINE
  5
4F7
100
AcDbEntity
  8
RACCORDO
100
AcDbLine
 62
7
  6
CONTINUOUS
 10
147.0109807908
 20
121.0260213523
 11
147.0227620546
 21
121.1917804007
  0
LWPOLYLINE
  5
4F8
100
AcDbEntity
  8
RACCORDO
100
AcDbPolyline
 62
7
  6
CONTINUOUS
 90
5
 70
0
 10
144.8599210266
 20
98.0795575085
 10
144.8596883963
 20
98.0771561787
 10
144.8594674451
 20
98.0716849227
 10
144.859258173
 20
98.0631437404
 10
144.858868474
 20
98.0363524381
  0
LWPOLYLINE
  5
4F9
100
AcDbEntity
  8
RACCORDO
100
AcDbPolyline
 62
7
  6
CONTINUOUS
 90
15
 70
0
 10
147.8396541271
 20
120.1788253837
 10
147.8347540671
 20
120.1477900633
 10
147.826637944
 20
120.1174372602
 10
147.8153891101
 20
120.0880866312
 10
147.8011335814
 20
120.060073958
 10
147.7840517122
 20
120.0337409854
 10
147.764374681
 20
120.0094058565
 10
147.742301732
 20
119.9872819246
 10
147.7179939456
 20
119.9675371263
 10
147.6916449567
 20
119.9503689774
 10
147.6635831229
 20
119.9360287307
 10
147.6341979406
 20
119.9247228788
 10
147.6038469927
 20
119.9165745777
 10
147.572837298
 20
119.9116519603
 10
147.5415101533
 20
119.9100004398
  0
LINE
  5
4FA
100
AcDbEntity
  8
RACCORDO
100
AcDbLine
 62
7
  6
CONTINUOUS
 10
144.8599210266
 20
98.0795575085
 11
144.8727620546
 21
98.1052415205
  0
LINE
  5
4FB
100
AcDbEntity
  8
RACCORDO
100
AcDbLine
 62
7
  6
CONTINUOUS
 10
146.5421327125
 20
103.2023594745
 11
146.5262223396
 21
103.1743586298
  0
LWPOLYLINE
  5
4FC
100
AcDbEntity
  8
RACCORDO
100
AcDbPolyline
 62
253
  6
CONTINUOUS
 90
9
 70
0
 10
147.5013269352
 20
101.6758468165
 10
147.4551704759
 20
101.6121012099
 10
147.408481373
 20
101.5487623624
 10
147.3611506525
 20
101.4859846162
 10
147.3126958372
 20
101.4235459985
 10
147.2633851511
 20
101.3620195111
 10
147.21434659
 20
101.3026185617
 10
147.1660152139
 20
101.2456991997
 10
147.1180246724
 20
101.1909144679
  0
LINE
  5
4FD
100
AcDbEntity
  8
RACCORDO
100
AcDbLine
 62
253
  6
CONTINUOUS
 10
147.1180246724
 20
101.1909144679
 11
147.0704063484
 21
101.1382766106
  0
LINE
  5
4FE
100
AcDbEntity
  8
0
100
AcDbLine
 62
7
  6
CONTINUOUS
 10
136.6508891981
 20
94.6532251318
 11
136.7338679116
 21
94.7073919017
  0
LINE
  5
4FF
100
AcDbEntity
  8
0
100
AcDbLine
 62
7
  6
CONTINUOUS
 10
137.204080699
 20
94.8428086717
 11
137.1211019855
 21
94.7886419017
  0
LINE
  5
500
100
AcDbEntity
  8
0
100
AcDbLine
 62
7
  6
CONTINUOUS
 10
136.3742934476
 20
95.4386419017
 11
136.42961259
 21
95.4657251318
  0
LINE
  5
501
100
AcDbEntity
  8
0
100
AcDbLine
 62
7
  6
CONTINUOUS
 10
136.6508891981
 20
94.8157251318
 11
136.5402508747
 21
94.7615586717
  0
LINE
  5
502
100
AcDbEntity
  8
0
100
AcDbLine
 62
7
  6
CONTINUOUS
 10
136.595570017
 20
95.8178086717
 11
136.7338679116
 21
95.8719751318
  0
LINE
  5
503
100
AcDbEntity
  8
0
100
AcDbLine
 62
7
  6
CONTINUOUS
 10
136.6508891981
 20
95.9803085167
 11
136.5679104458
 21
95.9532252867
  0
LINE
  5
504
100
AcDbEntity
  8
0
100
AcDbLine
 62
7
  6
CONTINUOUS
 10
136.42961259
 20
95.6011419017
 11
136.3466338571
 21
95.5740586717
  0
LINE
  5
505
100
AcDbEntity
  8
RACCORDO
100
AcDbLine
 62
7
  6
CONTINUOUS
 10
139.1583844538
 20
103.6962978957
 11
138.6083079552
 21
103.6948917908
  0
LINE
  5
506
100
AcDbEntity
  8
SMUSSO
100
AcDbLine
 62
7
  6
CONTINUOUS
 10
145.6003572684
 20
102.8511419017
 11
139.2503572684
 21
102.8511419017
  0
LINE
  5
507
100
AcDbEntity
  8
RACCORDO
100
AcDbLine
 62
253
  6
CONTINUOUS
 10
139.2503572684
 20
103.1296024491
 11
145.6003572684
 21
103.1296024491
  0
LINE
  5
508
100
AcDbEntity
  8
RACCORDO
100
AcDbLine
 62
253
  6
CONTINUOUS
 10
146.4262261473
 20
103.2270183961
 11
146.5262223396
 21
103.2270183961
  0
LINE
  5
509
100
AcDbEntity
  8
RACCORDO
100
AcDbLine
 62
253
  6
CONTINUOUS
 10
138.3244921971
 20
103.2338975114
 11
138.4244883894
 21
103.2338975114
  0
LINE
  5
50A
100
AcDbEntity
  8
RACCORDO
100
AcDbLine
 62
253
  6
CONTINUOUS
 10
139.2503572684
 20
103.3295719881
 11
145.6003572684
 21
103.3295719881
  0
LINE
  5
50B
100
AcDbEntity
  8
RACCORDO
100
AcDbLine
 62
7
  6
CONTINUOUS
 10
145.6003572684
 20
103.3418514602
 11
145.1727506315
 21
103.3418514602
  0
LINE
  5
50C
100
AcDbEntity
  8
RACCORDO
100
AcDbLine
 62
7
  6
CONTINUOUS
 10
139.6779639052
 20
103.3418514602
 11
139.2503572684
 21
103.3418514602
  0
LINE
  5
50D
100
AcDbEntity
  8
RACCORDO
100
AcDbLine
 62
253
  6
CONTINUOUS
 10
146.2262337627
 20
103.4270107807
 11
145.3779639052
 21
103.4270107807
  0
LINE
  5
50E
100
AcDbEntity
  8
RACCORDO
100
AcDbLine
 62
253
  6
CONTINUOUS
 10
138.6243438858
 20
103.4345087843
 11
139.4727506315
 21
103.4345087843
  0
LINE
  5
50F
100
AcDbEntity
  8
RACCORDO
100
AcDbLine
 62
7
  6
CONTINUOUS
 10
146.2262337627
 20
103.527006973
 11
145.600787102
 21
103.527006973
  0
LINE
  5
510
100
AcDbEntity
  8
RACCORDO
100
AcDbLine
 62
253
  6
CONTINUOUS
 10
138.6243438858
 20
103.5341282541
 11
139.2572562951
 21
103.5341282541
  0
LINE
  5
511
100
AcDbEntity
  8
RACCORDO
100
AcDbLine
 62
253
  6
CONTINUOUS
 10
144.8599210538
 20
103.3727262407
 11
139.9907934829
 21
103.3727262407
  0
LINE
  5
512
100
AcDbEntity
  8
RACCORDO
100
AcDbLine
 62
7
  6
CONTINUOUS
 10
146.2422106934
 20
103.5429839037
 11
145.6923396141
 21
103.5431242475
  0
LINE
  5
513
100
AcDbEntity
  8
RACCORDO
100
AcDbLine
 62
253
  6
CONTINUOUS
 10
144.8582055304
 20
103.5741125621
 11
139.9925090061
 21
103.5741125621
  0
LINE
  5
514
100
AcDbEntity
  8
RACCORDO
100
AcDbLine
 62
7
  6
CONTINUOUS
 10
146.2422106934
 20
103.5429839037
 11
146.2735424083
 21
103.5413337531
  0
LWPOLYLINE
  5
515
100
AcDbEntity
  8
RACCORDO
100
AcDbPolyline
 62
7
  6
CONTINUOUS
 90
10
 70
0
 10
139.2572562951
 20
103.5341282541
 10
139.2702026257
 20
103.5322410155
 10
139.2841299416
 20
103.5288394276
 10
139.2990382427
 20
103.5240173297
 10
139.3149615374
 20
103.517912234
 10
139.3318658174
 20
103.5106361563
 10
139.3496490576
 20
103.5022287027
 10
139.3683458413
 20
103.4927969953
 10
139.3879215851
 20
103.4824840194
 10
139.4081705136
 20
103.4713492206
  0
LWPOLYLINE
  5
516
100
AcDbEntity
  8
RACCORDO
100
AcDbPolyline
 62
7
  6
CONTINUOUS
 90
6
 70
0
 10
146.5262223396
 20
103.1743586298
 10
146.5253138307
 20
103.1744962042
 10
146.5227987881
 20
103.1752108435
 10
146.5186832825
 20
103.1765025477
 10
146.5129914996
 20
103.1784208502
 10
146.5057914824
 20
103.1809162175
  0
LWPOLYLINE
  5
517
100
AcDbEntity
  8
RACCORDO
100
AcDbPolyline
 62
7
  6
CONTINUOUS
 90
15
 70
0
 10
146.2735424083
 20
103.5413337531
 10
146.3045380193
 20
103.5364175492
 10
146.3348577949
 20
103.5282869175
 10
146.3641826967
 20
103.5170225718
 10
146.3921756305
 20
103.5027491742
 10
146.4184921397
 20
103.4856480846
 10
146.442813357
 20
103.4659500059
 10
146.4649254062
 20
103.443853447
 10
146.4846587488
 20
103.4195217293
 10
146.5018155113
 20
103.39314884
 10
146.5161443576
 20
103.3650631393
 10
146.5274386856
 20
103.3356566912
 10
146.5355758123
 20
103.3052882725
 10
146.5404880794
 20
103.2742644213
 10
146.5421305576
 20
103.2429266141
  0
LINE
  5
518
100
AcDbEntity
  8
DRAFT
100
AcDbLine
 62
7
  6
CONTINUOUS
 10
152.3672547429
 20
100.8477436835
 11
152.252036688
 21
100.8861419017
  0
LWPOLYLINE
  5
519
100
AcDbEntity
  8
RACCORDO
100
AcDbPolyline
 62
7
  6
CONTINUOUS
 90
8
 70
0
 10
152.0702621217
 20
99.2996744135
 10
152.0982502888
 20
99.285426587
 10
152.124592604
 20
99.2683331766
 10
152.1490007757
 20
99.2485821245
 10
152.1712081507
 20
99.2263902715
 10
152.1909717185
 20
99.2020007728
 10
152.2080764119
 20
99.1756795713
 10
152.2223343276
 20
99.1477166255
  0
LINE
  5
51A
100
AcDbEntity
  8
RACCORDO
100
AcDbLine
 62
253
  6
CONTINUOUS
 10
147.1179380162
 20
100.2614607473
 11
147.0704063737
 21
100.3140071614
  0
LWPOLYLINE
  5
51B
100
AcDbEntity
  8
RACCORDO
100
AcDbPolyline
 62
253
  6
CONTINUOUS
 90
9
 70
0
 10
147.5013269353
 20
99.7764369868
 10
147.4550906654
 20
99.8402981262
 10
147.4083381647
 20
99.9037177649
 10
147.3609627404
 20
99.9665439654
 10
147.312486634
 20
100.0290019424
 10
147.2631778527
 20
100.0905208929
 10
147.2141595598
 20
100.1498886074
 10
147.1658668709
 20
100.2067516042
 10
147.1179380162
 20
100.2614607473
  0
LINE
  5
51C
100
AcDbEntity
  8
RACCORDO
100
AcDbLine
 62
7
  6
CONTINUOUS
 10
146.5403857041
 20
98.2529984316
 11
146.5262223396
 21
98.2779251737
  0
LINE
  5
51D
100
AcDbEntity
  8
RACCORDO
100
AcDbLine
 62
7
  6
CONTINUOUS
 10
144.8599210538
 20
103.3727262407
 11
144.8727620546
 21
103.347042283
  0
LINE
  5
51E
100
AcDbEntity
  8
0
100
AcDbLine
 62
7
  6
CONTINUOUS
 10
148.1998253386
 20
93.7973920877
 11
148.1721657675
 21
93.8705168088
  0
LWPOLYLINE
  5
51F
100
AcDbEntity
  8
RACCORDO
100
AcDbPolyline
 62
7
  6
CONTINUOUS
 90
9
 70
0
 10
147.8333416138
 20
81.2661385421
 10
147.8289958633
 20
81.2953198693
 10
147.8220808278
 20
81.3235643854
 10
147.8121072442
 20
81.3511927852
 10
147.7992228327
 20
81.3778843738
 10
147.7843426749
 20
81.4026770664
 10
147.7677987398
 20
81.425250168
 10
147.7492594108
 20
81.4459243737
 10
147.7288178157
 20
81.4646996833
  0
LINE
  5
520
100
AcDbEntity
  8
RACCORDO
100
AcDbLine
 62
7
  6
CONTINUOUS
 10
146.5406137418
 20
98.250715562
 11
146.5403857041
 21
98.2529984316
  0
LINE
  5
521
100
AcDbEntity
  8
RACCORDO
100
AcDbLine
 62
253
  6
CONTINUOUS
 10
146.5262223396
 20
98.1683862921
 11
146.5421191957
 21
98.0090170056
  0
LWPOLYLINE
  5
522
100
AcDbEntity
  8
RACCORDO
100
AcDbPolyline
 62
253
  6
CONTINUOUS
 90
16
 70
0
 10
145.6779524821
 20
104.8827233166
 10
145.6761143315
 20
104.9027951164
 10
145.6710373176
 20
104.9226488817
 10
145.6627765884
 20
104.9420689371
 10
145.6514218775
 20
104.960844318
 10
145.6370965291
 20
104.9787710625
 10
145.6199561595
 20
104.9956544266
 10
145.6001869687
 20
105.0113109982
 10
145.5780037079
 20
105.025570698
 10
145.5536473434
 20
105.0382786237
 10
145.5273824373
 20
105.0492967293
 10
145.4994943268
 20
105.0585053062
 10
145.4702860207
 20
105.0658043018
 10
145.4400748397
 20
105.0711144276
 10
145.4091889605
 20
105.0743780093
 10
145.3779639052
 20
105.0755595996
  0
LINE
  5
523
100
AcDbEntity
  8
RACCORDO
100
AcDbLine
 62
7
  6
CONTINUOUS
 10
147.8352243471
 20
81.2360204036
 11
147.8333416138
 21
81.2661385421
  0
LWPOLYLINE
  5
524
100
AcDbEntity
  8
RACCORDO
100
AcDbPolyline
 62
253
  6
CONTINUOUS
 90
16
 70
0
 10
146.4262261473
 20
103.2270183961
 10
146.4250143688
 20
103.2483842674
 10
146.4217279584
 20
103.269057828
 10
146.416366916
 20
103.2890390776
 10
146.4088246319
 20
103.3085274877
 10
146.3992077159
 20
103.327323587
 10
146.3878359972
 20
103.3448289616
 10
146.374655111
 20
103.3610013124
 10
146.3597194222
 20
103.3758829386
 10
146.3435118544
 20
103.3890023241
 10
146.3259818666
 20
103.4003044363
 10
146.3071799999
 20
103.4098443079
 10
146.2877408014
 20
103.41731552
 10
146.2678757869
 20
103.422615933
 10
146.2473734406
 20
103.4258476866
 10
146.2262337627
 20
103.4270107807
  0
LWPOLYLINE
  5
525
100
AcDbEntity
  8
RACCORDO
100
AcDbPolyline
 62
253
  6
CONTINUOUS
 90
16
 70
0
 10
147.7288178157
 20
82.9296176796
 10
147.7282363145
 20
82.9401874019
 10
147.726620615
 20
82.9504382555
 10
147.7239707171
 20
82.9603702404
 10
147.7202355536
 20
82.9700890746
 10
147.7154661918
 20
82.9794890401
 10
147.7098158334
 20
82.9882529828
 10
147.7032569898
 20
82.9963556191
 10
147.6958171496
 20
83.0038222325
 10
147.6877319793
 20
83.010411519
 10
147.6789803057
 20
83.0160963149
 10
147.6695833021
 20
83.0209037839
 10
147.6598401557
 20
83.024674113
 10
147.6498505954
 20
83.0273540315
 10
147.6395148922
 20
83.0289968102
 10
147.6288330462
 20
83.0296024491
  0
LWPOLYLINE
  5
526
100
AcDbEntity
  8
RACCORDO
100
AcDbPolyline
 62
253
  6
CONTINUOUS
 90
16
 70
0
 10
146.5262223304
 20
103.2270831683
 10
146.524574271
 20
103.2584137845
 10
146.5196617901
 20
103.2894073316
 10
146.5115366042
 20
103.3197243903
 10
146.500284769
 20
103.349034616
 10
146.4860280418
 20
103.3770140983
 10
146.4689246645
 20
103.4033499538
 10
146.4491634648
 20
103.4277520351
 10
146.4269598699
 20
103.4499548789
 10
146.4025572909
 20
103.4697151297
 10
146.3762231767
 20
103.4868163039
 10
146.3482459758
 20
103.5010711849
 10
146.318932123
 20
103.5123237171
 10
146.2886027185
 20
103.5204506705
 10
146.2575900257
 20
103.5253630197
 10
146.2262337627
 20
103.527006973
  0
LWPOLYLINE
  5
527
100
AcDbEntity
  8
RACCORDO
100
AcDbPolyline
 62
253
  6
CONTINUOUS
 90
16
 70
0
 10
147.9287873548
 20
82.9296176796
 10
147.9271383151
 20
82.96096848
 10
147.9222218585
 20
82.9919755228
 10
147.9140918648
 20
83.0222992496
 10
147.9028374226
 20
83.0516075849
 10
147.8885817988
 20
83.0795795654
 10
147.8714810773
 20
83.1059088495
 10
147.8517225036
 20
83.1303071113
 10
147.8295225122
 20
83.1525071136
 10
147.8051243211
 20
83.1722656507
 10
147.7787933521
 20
83.1893673604
 10
147.7508195681
 20
83.2036235747
 10
147.721515396
 20
83.2148762531
 10
147.6912044413
 20
83.2230036145
 10
147.6602169556
 20
83.2279194632
 10
147.628892177
 20
83.2295719693
  0
LWPOLYLINE
  5
528
100
AcDbEntity
  8
RACCORDO
100
AcDbPolyline
 62
253
  6
CONTINUOUS
 90
16
 70
0
 10
147.8279524821
 20
81.2287485386
 10
147.8263068795
 20
81.2601044177
 10
147.8213928744
 20
81.2911167917
 10
147.8132642994
 20
81.3214459139
 10
147.8020101988
 20
81.3507595326
 10
147.7877538645
 20
81.3787365003
 10
147.7706514955
 20
81.4050702969
 10
147.7508904698
 20
81.4294724234
 10
147.7286872709
 20
81.4516755705
 10
147.70428513
 20
81.4714365166
 10
147.6779513758
 20
81.4885387815
 10
147.6499745009
 20
81.5027950095
 10
147.6206609863
 20
81.5140490284
 10
147.5903319611
 20
81.5221775498
 10
147.5593196863
 20
81.5270915232
 10
147.5279639052
 20
81.5287371155
  0
LWPOLYLINE
  5
529
100
AcDbEntity
  8
RACCORDO
100
AcDbPolyline
 62
7
  6
CONTINUOUS
 90
3
 70
0
 10
146.5410403664
 20
98.2362039692
 10
146.5408319625
 20
98.2451174079
 10
146.5406137418
 20
98.250715562
  0
LWPOLYLINE
  5
52A
100
AcDbEntity
  8
RACCORDO
100
AcDbPolyline
 62
7
  6
CONTINUOUS
 90
6
 70
0
 10
146.9138566078
 20
80.5348845817
 10
146.9141850126
 20
80.5206508626
 10
146.9145348786
 20
80.5088251055
 10
146.9149017798
 20
80.4996012289
 10
146.9152901421
 20
80.4927853143
 10
146.9156999656
 20
80.4883773618
  0
LINE
  5
52B
100
AcDbEntity
  8
RACCORDO
100
AcDbLine
 62
7
  6
CONTINUOUS
 10
146.9133055379
 20
80.5689067678
 11
146.9138566078
 21
80.5348845817
  0
LINE
  5
52C
100
AcDbEntity
  8
RACCORDO
100
AcDbLine
 62
7
  6
CONTINUOUS
 10
146.5414348886
 20
98.2079339626
 11
146.5410403664
 21
98.2362039692
  0
LINE
  5
52D
100
AcDbEntity
  8
RACCORDO
100
AcDbLine
 62
7
  6
CONTINUOUS
 10
146.9129036524
 20
80.6094997736
 11
146.9133055379
 21
80.5689067678
  0
LINE
  5
52E
100
AcDbEntity
  8
RACCORDO
100
AcDbLine
 62
7
  6
CONTINUOUS
 10
146.5418860806
 20
98.1448898136
 11
146.5414348886
 21
98.2079339626
  0
LINE
  5
52F
100
AcDbEntity
  8
RACCORDO
100
AcDbLine
 62
7
  6
CONTINUOUS
 10
146.912635366
 20
80.6771996875
 11
146.9129036524
 21
80.6094997736
  0
LINE
  5
530
100
AcDbEntity
  8
RACCORDO
100
AcDbLine
 62
7
  6
CONTINUOUS
 10
146.9108199048
 20
82.9407249568
 11
146.912635366
 21
80.6771996875
  0
LINE
  5
531
100
AcDbEntity
  8
RACCORDO
100
AcDbLine
 62
253
  6
CONTINUOUS
 10
146.2262337627
 20
103.4270107807
 11
146.2262337627
 21
103.527006973
  0
LINE
  5
532
100
AcDbEntity
  8
RACCORDO
100
AcDbLine
 62
253
  6
CONTINUOUS
 10
146.2263706509
 20
97.8681555493
 11
146.2263706509
 21
97.9677750191
  0
LINE
  5
533
100
AcDbEntity
  8
RACCORDO
100
AcDbLine
 62
253
  6
CONTINUOUS
 10
146.4262261473
 20
98.2442319338
 11
146.4262261473
 21
98.1683862921
  0
LINE
  5
534
100
AcDbEntity
  8
RACCORDO
100
AcDbLine
 62
253
  6
CONTINUOUS
 10
146.4262261473
 20
103.2080518697
 11
146.4262261473
 21
103.2270183961
  0
LINE
  5
535
100
AcDbEntity
  8
RACCORDO
100
AcDbLine
 62
7
  6
CONTINUOUS
 10
146.5262223396
 20
98.2779251737
 11
146.5262223396
 21
98.1683862921
  0
LINE
  5
536
100
AcDbEntity
  8
RACCORDO
100
AcDbLine
 62
7
  6
CONTINUOUS
 10
146.5262223396
 20
103.1743586298
 11
146.5262223396
 21
103.2270831705
  0
LINE
  5
537
100
AcDbEntity
  8
RACCORDO
100
AcDbLine
 62
7
  6
CONTINUOUS
 10
146.5421305576
 20
103.2429266141
 11
146.5421327125
 21
103.2023594745
  0
LINE
  5
538
100
AcDbEntity
  8
RACCORDO
100
AcDbLine
 62
253
  6
CONTINUOUS
 10
146.9219271819
 20
82.9296768233
 11
146.9219271819
 21
80.444573112
  0
LINE
  5
539
100
AcDbEntity
  8
RACCORDO
100
AcDbLine
 62
7
  6
CONTINUOUS
 10
147.0154901896
 20
81.2360204036
 11
147.0154901896
 21
80.4242087664
  0
LINE
  5
53A
100
AcDbEntity
  8
RACCORDO
100
AcDbLine
 62
7
  6
CONTINUOUS
 10
147.0227620546
 20
121.1917804007
 11
147.0227620546
 21
120.2235352649
  0
LINE
  5
53B
100
AcDbEntity
  8
RACCORDO
100
AcDbLine
 62
7
  6
CONTINUOUS
 10
147.0227620546
 20
81.2287485386
 11
147.0227620546
 21
80.3218956832
  0
LINE
  5
53C
100
AcDbEntity
  8
RACCORDO
100
AcDbLine
 62
253
  6
CONTINUOUS
 10
147.121896721
 20
82.9296176796
 11
147.121896721
 21
81.4646996833
  0
LINE
  5
53D
100
AcDbEntity
  8
RACCORDO
100
AcDbLine
 62
253
  6
CONTINUOUS
 10
147.2218814905
 20
83.0296024491
 11
147.221881478
 21
83.2295719881
  0
LINE
  5
53E
100
AcDbEntity
  8
RACCORDO
100
AcDbLine
 62
253
  6
CONTINUOUS
 10
147.3227506315
 20
121.2282943238
 11
147.3227506315
 21
119.923546688
  0
LINE
  5
53F
100
AcDbEntity
  8
RACCORDO
100
AcDbLine
 62
253
  6
CONTINUOUS
 10
147.3227506315
 20
80.2853817601
 11
147.3227506315
 21
81.5287371155
  0
LINE
  5
540
100
AcDbEntity
  8
0
100
AcDbLine
 62
7
  6
CONTINUOUS
 10
147.4253572684
 20
98.1361418901
 11
147.4253572684
 21
97.9411419017
  0
LINE
  5
541
100
AcDbEntity
  8
0
100
AcDbLine
 62
7
  6
CONTINUOUS
 10
147.4253572684
 20
97.3561419017
 11
147.4253572684
 21
97.2098919017
  0
LINE
  5
542
100
AcDbEntity
  8
0
100
AcDbLine
 62
7
  6
CONTINUOUS
 10
147.4253572684
 20
97.0148919482
 11
147.4253572684
 21
96.8686419482
  0
LINE
  5
543
100
AcDbEntity
  8
0
100
AcDbLine
 62
7
  6
CONTINUOUS
 10
147.4253572684
 20
96.5273918552
 11
147.4253572684
 21
96.3323919017
  0
LINE
  5
544
100
AcDbEntity
  8
0
100
AcDbLine
 62
7
  6
CONTINUOUS
 10
147.4253572684
 20
95.9911418088
 11
147.4253572684
 21
95.8448918088
  0
LINE
  5
545
100
AcDbEntity
  8
0
100
AcDbLine
 62
7
  6
CONTINUOUS
 10
147.4253572684
 20
95.6498919947
 11
147.4253572684
 21
95.5036419947
  0
LINE
  5
546
100
AcDbEntity
  8
0
100
AcDbLine
 62
7
  6
CONTINUOUS
 10
147.4253572684
 20
94.8211418088
 11
147.4253572684
 21
94.6748918088
  0
LINE
  5
547
100
AcDbEntity
  8
0
100
AcDbLine
 62
7
  6
CONTINUOUS
 10
147.4253572684
 20
94.4798919947
 11
147.4253572684
 21
94.3336419947
  0
LINE
  5
548
100
AcDbEntity
  8
0
100
AcDbLine
 62
7
  6
CONTINUOUS
 10
147.4253572684
 20
93.7242670877
 11
147.4253572684
 21
93.5536419017
  0
LINE
  5
549
100
AcDbEntity
  8
RACCORDO
100
AcDbLine
 62
253
  6
CONTINUOUS
 10
147.5279639052
 20
80.2853817601
 11
147.5279639052
 21
81.5287371155
  0
LINE
  5
54A
100
AcDbEntity
  8
RACCORDO
100
AcDbLine
 62
253
  6
CONTINUOUS
 10
147.5279639052
 20
119.923546688
 11
147.5279639052
 21
121.2282943238
  0
LINE
  5
54B
100
AcDbEntity
  8
RACCORDO
100
AcDbLine
 62
253
  6
CONTINUOUS
 10
147.6288330462
 20
83.0296024491
 11
147.6288330462
 21
83.2295719881
  0
LINE
  5
54C
100
AcDbEntity
  8
RACCORDO
100
AcDbLine
 62
7
  6
CONTINUOUS
 10
146.5418860806
 20
98.1448898136
 11
146.5421191957
 21
98.0090170056
  0
LINE
  5
54D
100
AcDbEntity
  8
RACCORDO
100
AcDbLine
 62
7
  6
CONTINUOUS
 10
147.0096727624
 20
120.925724376
 11
147.009186175
 21
120.2099593853
  0
LINE
  5
54E
100
AcDbEntity
  8
RACCORDO
100
AcDbLine
 62
7
  6
CONTINUOUS
 10
147.0100595285
 20
120.9795273367
 11
147.0096727624
 21
120.925724376
  0
LWPOLYLINE
  5
54F
100
AcDbEntity
  8
RACCORDO
100
AcDbPolyline
 62
7
  6
CONTINUOUS
 90
5
 70
0
 10
147.0109807908
 20
121.0260213523
 10
147.0107759898
 20
121.0216155314
 10
147.0105819058
 20
121.0148019674
 10
147.0103985388
 20
121.0055806602
 10
147.0100595285
 20
120.9795273367
  0
LINE
  5
550
100
AcDbEntity
  8
RACCORDO
100
AcDbLine
 62
7
  6
CONTINUOUS
 10
147.8412845505
 20
120.2102031965
 11
147.8396541271
 21
120.1788253837
  0
LWPOLYLINE
  5
551
100
AcDbEntity
  8
RACCORDO
100
AcDbPolyline
 62
7
  6
CONTINUOUS
 90
16
 70
0
 10
146.5421191957
 20
98.0090170056
 10
146.540475353
 20
97.9775545329
 10
146.5355633216
 20
97.9464309655
 10
146.5274359952
 20
97.9159849491
 10
146.5161757529
 20
97.8865317924
 10
146.5019081092
 20
97.8584095936
 10
146.4848142395
 20
97.8319686868
 10
146.4651248299
 20
97.8075258837
 10
146.4430398203
 20
97.785294195
 10
146.4187248926
 20
97.7654500759
 10
146.392374874
 20
97.7481890672
 10
146.3643189854
 20
97.7337597423
 10
146.3349523803
 20
97.7223731639
 10
146.3046349524
 20
97.7141507533
 10
146.2736718093
 20
97.7091543123
 10
146.2424032318
 20
97.7074255935
  0
LWPOLYLINE
  5
552
100
AcDbEntity
  8
RACCORDO
100
AcDbPolyline
 62
253
  6
CONTINUOUS
 90
16
 70
0
 10
146.5262223396
 20
98.1683862921
 10
146.5245691336
 20
98.1369660372
 10
146.5196436319
 20
98.1058998496
 10
146.5115014223
 20
98.0755265108
 10
146.5002332099
 20
98.0461750408
 10
146.4859639627
 20
98.0181671241
 10
146.46885206
 20
97.991813339
 10
146.4490872503
 20
97.9674009072
 10
146.4268871996
 20
97.9451935302
 10
146.4024954439
 20
97.9254345537
 10
146.3761806033
 20
97.9083386512
 10
146.348230984
 20
97.8940895924
 10
146.31895002
 20
97.8828419531
 10
146.2886570829
 20
97.874717866
 10
146.2576844336
 20
97.869804808
 10
146.2263706509
 20
97.8681555493
  0
LWPOLYLINE
  5
553
100
AcDbEntity
  8
RACCORDO
100
AcDbPolyline
 62
253
  6
CONTINUOUS
 90
16
 70
0
 10
146.4262261473
 20
98.1683862921
 10
146.4250409076
 20
98.1470537791
 10
146.4217806351
 20
98.1263865573
 10
146.4164453297
 20
98.1063846267
 10
146.4089296618
 20
98.0868391589
 10
146.399338961
 20
98.0679589824
 10
146.3879892165
 20
98.0503705814
 10
146.3748246341
 20
98.0341232952
 10
146.3599010081
 20
98.0191677846
 10
146.3437017101
 20
98.0059825171
 10
146.3261772307
 20
97.9946243124
 10
146.3073770794
 20
97.9850363508
 10
146.2879331558
 20
97.97752664
 10
146.2680560931
 20
97.972197849
 10
146.2475352582
 20
97.9689473087
 10
146.2263706509
 20
97.9677750191
  0
LINE
  5
554
100
AcDbEntity
  8
RACCORDO
100
AcDbLine
 62
253
  6
CONTINUOUS
 10
151.928928999
 20
121.0543428389
 11
152.0209746246
 21
121.4861419017
  0
LWPOLYLINE
  5
555
100
AcDbEntity
  8
RACCORDO
100
AcDbPolyline
 62
7
  6
CONTINUOUS
 90
10
 70
0
 10
147.0704063737
 20
100.3140071614
 10
147.0690447037
 20
100.3105194474
 10
147.0677183465
 20
100.3070301586
 10
147.0664272707
 20
100.303538992
 10
147.0651719942
 20
100.3000464557
 10
147.0639519365
 20
100.2965514368
 10
147.0627653994
 20
100.2930512165
 10
147.0616117728
 20
100.2895447047
 10
147.060491554
 20
100.2860324251
 10
147.0594046865
 20
100.2825140941
  0
LWPOLYLINE
  5
556
100
AcDbEntity
  8
RACCORDO
100
AcDbPolyline
 62
7
  6
CONTINUOUS
 90
13
 70
0
 10
147.0704063859
 20
100.314007158
 10
147.0854251383
 20
100.347424429
 10
147.1033837579
 20
100.3791925537
 10
147.1240936334
 20
100.4090779929
 10
147.1473208199
 20
100.4368330224
 10
147.1728714456
 20
100.4622876538
 10
147.2006156423
 20
100.4853305391
 10
147.2303331691
 20
100.505766429
 10
147.261782063
 20
100.5234305539
 10
147.2948131063
 20
100.5382393278
 10
147.3292102055
 20
100.5500515496
 10
147.3646781858
 20
100.5586971614
 10
147.4009432168
 20
100.5640525555
  0
LINE
  5
557
100
AcDbEntity
  8
RACCORDO
100
AcDbLine
 62
253
  6
CONTINUOUS
 10
147.9873846205
 20
102.1037277463
 11
148.0033008187
 21
102.1344689264
  0
LINE
  5
558
100
AcDbEntity
  8
RACCORDO
100
AcDbLine
 62
253
  6
CONTINUOUS
 10
147.9799616456
 20
102.0895719881
 11
147.9873846205
 21
102.1037277463
  0
LINE
  5
559
100
AcDbEntity
  8
RACCORDO
100
AcDbLine
 62
253
  6
CONTINUOUS
 10
147.7342059332
 20
102.2176304503
 11
147.7589296018
 21
102.2608020734
  0
LWPOLYLINE
  5
55A
100
AcDbEntity
  8
RACCORDO
100
AcDbPolyline
 62
253
  6
CONTINUOUS
 90
10
 70
0
 10
147.8081632308
 20
101.4861418637
 10
147.7649056945
 20
101.4167388746
 10
147.7209101896
 20
101.3477051094
 10
147.6761767161
 20
101.2790405683
 10
147.6303843551
 20
101.2102480494
 10
147.5838540254
 20
101.1418247545
 10
147.5375484841
 20
101.0752622884
 10
147.4917886502
 20
101.0110578528
 10
147.4462536047
 20
100.948714246
 10
147.4009433476
 20
100.888231468
  0
LWPOLYLINE
  5
55B
100
AcDbEntity
  8
RACCORDO
100
AcDbPolyline
 62
7
  6
CONTINUOUS
 90
13
 70
0
 10
147.7569761225
 20
99.194893025
 10
147.7715281044
 20
99.2137568087
 10
147.7875306716
 20
99.2314069513
 10
147.804882932
 20
99.2477321466
 10
147.8234758313
 20
99.2626297501
 10
147.8431918207
 20
99.2760054376
 10
147.8639053898
 20
99.2877741022
 10
147.8854838635
 20
99.2978610051
 10
147.9077928168
 20
99.3062039371
 10
147.9306962135
 20
99.312751647
 10
147.9540514471
 20
99.317462278
 10
147.9777098018
 20
99.3203048347
 10
148.0015220719
 20
99.3212605595
  0
LINE
  5
55C
100
AcDbEntity
  8
RACCORDO
100
AcDbLine
 62
7
  6
CONTINUOUS
 10
150.5113322898
 20
102.0895719881
 11
150.5253572684
 21
102.1035969667
  0
LINE
  5
55D
100
AcDbEntity
  8
RACCORDO
100
AcDbLine
 62
253
  6
CONTINUOUS
 10
144.8679965015
 20
95.9187697118
 11
144.8583691318
 21
95.9091423421
  0
LWPOLYLINE
  5
55E
100
AcDbEntity
  8
RACCORDO
100
AcDbPolyline
 62
253
  6
CONTINUOUS
 90
10
 70
0
 10
146.5403857215
 20
98.2529984312
 10
146.6958231521
 20
98.3179194152
 10
146.8479901388
 20
98.3932284051
 10
146.9961461694
 20
98.4788453466
 10
147.1396369153
 20
98.5747050236
 10
147.277603872
 20
98.6805604448
 10
147.4090358183
 20
98.7959203134
 10
147.5331508613
 20
98.9203408868
 10
147.6493531658
 20
99.0534866162
 10
147.7569761237
 20
99.194893023
  0
LWPOLYLINE
  5
55F
100
AcDbEntity
  8
RACCORDO
100
AcDbPolyline
 62
253
  6
CONTINUOUS
 90
13
 70
0
 10
146.5421208119
 20
98.0370229218
 10
146.6763063572
 20
98.0873936256
 10
146.807741114
 20
98.1445860184
 10
146.9364251803
 20
98.2086002529
 10
147.0627364827
 20
98.2795317395
 10
147.1862973451
 20
98.3572853732
 10
147.3059745795
 20
98.4415755243
 10
147.4218014827
 20
98.5325172335
 10
147.5337453301
 20
98.6299957273
 10
147.6405740987
 20
98.7333806158
 10
147.7418774329
 20
98.8424618143
 10
147.838066551
 20
98.9574495648
 10
147.9291418919
 20
99.0783439274
  0
LINE
  5
560
100
AcDbEntity
  8
RACCORDO
100
AcDbLine
 62
7
  6
CONTINUOUS
 10
146.4262261473
 20
98.2442319338
 11
146.4394583931
 21
98.2487938457
  0
LWPOLYLINE
  5
561
100
AcDbEntity
  8
RACCORDO
100
AcDbPolyline
 62
7
  6
CONTINUOUS
 90
7
 70
0
 10
146.4875789942
 20
98.2651201181
 10
146.5058966452
 20
98.271406587
 10
146.5130485623
 20
98.27388459
 10
146.5187079692
 20
98.2757893901
 10
146.5228077011
 20
98.2770745208
 10
146.5253155477
 20
98.2777864486
 10
146.5262223396
 20
98.2779251737
  0
LWPOLYLINE
  5
562
100
AcDbEntity
  8
RACCORDO
100
AcDbPolyline
 62
7
  6
CONTINUOUS
 90
4
 70
0
 10
146.4394583931
 20
98.2487938457
 10
146.4649074186
 20
98.2572959446
 10
146.4766938078
 20
98.2613116522
 10
146.4875789942
 20
98.2651201181
  0
LINE
  5
563
100
AcDbEntity
  8
0
100
AcDbLine
 62
7
  6
CONTINUOUS
 10
147.5913147147
 20
98.0386419134
 11
148.7253572684
 21
98.3798919017
  0
LINE
  5
564
100
AcDbEntity
  8
0
100
AcDbLine
 62
7
  6
CONTINUOUS
 10
148.7253572684
 20
98.5261419017
 11
147.4253572684
 21
98.1361418901
  0
LWPOLYLINE
  5
565
100
AcDbEntity
  8
RACCORDO
100
AcDbPolyline
 62
253
  6
CONTINUOUS
 90
16
 70
0
 10
145.1727506315
 20
105.0755595996
 10
145.1415259008
 20
105.0743780326
 10
145.1106402602
 20
105.0711145067
 10
145.0804292276
 20
105.0658044528
 10
145.0512209674
 20
105.0585055252
 10
145.0233328209
 20
105.0492969988
 10
144.9970678435
 20
105.0382789284
 10
144.9727113853
 20
105.0255710205
 10
144.95052801
 20
105.0113113134
 10
144.9307587044
 20
104.9956547151
 10
144.9136182223
 20
104.9787713001
 10
144.8992927757
 20
104.9608444845
 10
144.8879380001
 20
104.942069038
 10
144.8796772373
 20
104.9226489353
 10
144.8746002085
 20
104.9027951357
 10
144.8727620546
 20
104.8827233166
  0
LWPOLYLINE
  5
566
100
AcDbEntity
  8
RACCORDO
100
AcDbPolyline
 62
253
  6
CONTINUOUS
 90
16
 70
0
 10
139.4727506315
 20
105.0755595996
 10
139.4415259008
 20
105.0743780326
 10
139.4106402602
 20
105.0711145067
 10
139.3804292276
 20
105.0658044528
 10
139.3512209674
 20
105.0585055252
 10
139.3233328209
 20
105.0492969988
 10
139.2970678435
 20
105.0382789284
 10
139.2727113853
 20
105.0255710205
 10
139.25052801
 20
105.0113113134
 10
139.2307587044
 20
104.9956547151
 10
139.2136182223
 20
104.9787713001
 10
139.1992927757
 20
104.9608444845
 10
139.1879380001
 20
104.942069038
 10
139.1796772373
 20
104.9226489353
 10
139.1746002085
 20
104.9027951357
 10
139.1727620546
 20
104.8827233166
  0
LINE
  5
567
100
AcDbEntity
  8
RACCORDO
100
AcDbLine
 62
7
  6
CONTINUOUS
 10
139.6922691559
 20
105.8430423662
 11
139.4584929445
 21
105.8429948025
  0
LINE
  5
568
100
AcDbEntity
  8
RACCORDO
100
AcDbLine
 62
253
  6
CONTINUOUS
 10
139.1727620546
 20
104.8827233166
 11
139.9779524821
 21
104.8827233167
  0
LINE
  5
569
100
AcDbEntity
  8
RACCORDO
100
AcDbLine
 62
253
  6
CONTINUOUS
 10
144.8727620546
 20
104.8827233166
 11
145.6779524821
 21
104.8827233167
  0
LINE
  5
56A
100
AcDbEntity
  8
RACCORDO
100
AcDbLine
 62
253
  6
CONTINUOUS
 10
145.3779639052
 20
105.0755595996
 11
145.1727506315
 21
105.0755595996
  0
LINE
  5
56B
100
AcDbEntity
  8
RACCORDO
100
AcDbLine
 62
253
  6
CONTINUOUS
 10
139.6779639052
 20
105.0755595996
 11
139.4727506315
 21
105.0755595996
  0
LINE
  5
56C
100
AcDbEntity
  8
RACCORDO
100
AcDbLine
 62
7
  6
CONTINUOUS
 10
145.3815225619
 20
105.8322957722
 11
145.1691919748
 21
105.8322957722
  0
LINE
  5
56D
100
AcDbEntity
  8
RACCORDO
100
AcDbLine
 62
7
  6
CONTINUOUS
 10
139.6815225619
 20
105.8322957722
 11
139.4691919748
 21
105.8322957722
  0
LINE
  5
56E
100
AcDbEntity
  8
RACCORDO
100
AcDbLine
 62
7
  6
CONTINUOUS
 10
145.3922215922
 20
105.8429948025
 11
145.1584453808
 21
105.8430423662
  0
LWPOLYLINE
  5
56F
100
AcDbEntity
  8
RACCORDO
100
AcDbPolyline
 62
7
  6
CONTINUOUS
 90
16
 70
0
 10
139.6922691559
 20
105.8430423662
 10
139.7236208503
 20
105.8414067859
 10
139.7546346307
 20
105.8365041064
 10
139.7849707182
 20
105.8283864008
 10
139.8143100062
 20
105.8171350986
 10
139.8423156728
 20
105.8028750636
 10
139.8686437312
 20
105.7857870537
 10
139.8929754502
 20
105.7661017981
 10
139.9150970799
 20
105.7440179692
 10
139.9348392972
 20
105.7196980631
 10
139.9520042525
 20
105.6933359044
 10
139.9663405632
 20
105.6652598449
 10
139.9776414427
 20
105.6358611489
 10
139.9857839646
 20
105.6054982452
 10
139.9907003162
 20
105.5744778504
 10
139.992345368
 20
105.5431414245
  0
LWPOLYLINE
  5
570
100
AcDbEntity
  8
RACCORDO
100
AcDbPolyline
 62
7
  6
CONTINUOUS
 90
16
 70
0
 10
139.6815225619
 20
105.8322957722
 10
139.7152444239
 20
105.8304021303
 10
139.7481641144
 20
105.8248336163
 10
139.7798966651
 20
105.8157898296
 10
139.8100638807
 20
105.8035224135
 10
139.8383939236
 20
105.7882867806
 10
139.8647046099
 20
105.7703024121
 10
139.888776175
 20
105.7498268031
 10
139.9103743143
 20
105.7271742825
 10
139.9293326629
 20
105.7026432526
 10
139.9455166767
 20
105.6765535948
 10
139.9588336424
 20
105.6492222496
 10
139.969227111
 20
105.6209443868
 10
139.9766665436
 20
105.5920258365
 10
139.9811524626
 20
105.5627828068
 10
139.9827180352
 20
105.5335140917
  0
LINE
  5
571
100
AcDbEntity
  8
DRAFT
100
AcDbLine
 62
7
  6
CONTINUOUS
 10
132.5177059832
 20
109.4286869325
 11
132.4834597938
 21
109.4399488664
  0
LWPOLYLINE
  5
572
100
AcDbEntity
  8
RACCORDO
100
AcDbPolyline
 62
7
  6
CONTINUOUS
 90
3
 70
0
 10
146.4647734483
 20
103.1950337318
 10
146.4394014881
 20
103.2035097731
 10
146.4262261473
 20
103.2080518697
  0
LINE
  5
573
100
AcDbEntity
  8
DRAFT
100
AcDbLine
 62
7
  6
CONTINUOUS
 10
132.5517485063
 20
109.4172793687
 11
132.5177059832
 21
109.4286869325
  0
LINE
  5
574
100
AcDbEntity
  8
DRAFT
100
AcDbLine
 62
7
  6
CONTINUOUS
 10
132.585584888
 20
109.40571843
 11
132.5517485063
 21
109.4172793687
  0
LWPOLYLINE
  5
575
100
AcDbEntity
  8
RACCORDO
100
AcDbPolyline
 62
7
  6
CONTINUOUS
 90
4
 70
0
 10
146.5057914824
 20
103.1809162175
 10
146.4874157508
 20
103.1872180615
 10
146.4765379901
 20
103.191024538
 10
146.4647734483
 20
103.1950337318
  0
LINE
  5
576
100
AcDbEntity
  8
RACCORDO
100
AcDbLine
 62
7
  6
CONTINUOUS
 10
150.3400241071
 20
99.3235469591
 11
150.3287873548
 21
99.3347837114
  0
LINE
  5
577
100
AcDbEntity
  8
RACCORDO
100
AcDbLine
 62
7
  6
CONTINUOUS
 10
150.5113322898
 20
99.3627118153
 11
150.5253572684
 21
99.3486868368
  0
LINE
  5
578
100
AcDbEntity
  8
RACCORDO
100
AcDbLine
 62
253
  6
CONTINUOUS
 10
144.8679965015
 20
105.5335140917
 11
144.8583691687
 21
105.5431414245
  0
LWPOLYLINE
  5
579
100
AcDbEntity
  8
RACCORDO
100
AcDbPolyline
 62
7
  6
CONTINUOUS
 90
10
 70
0
 10
147.7589296017
 20
102.2608020734
 10
147.7790679046
 20
102.2355818796
 10
147.8012080128
 20
102.2130299392
 10
147.8253498672
 20
102.1931462571
 10
147.8518242809
 20
102.1757608091
 10
147.8803003062
 20
102.1610436332
 10
147.9097852683
 20
102.1495048333
 10
147.9399482637
 20
102.1413144548
 10
147.9711201263
 20
102.1363024808
 10
148.0033008187
 20
102.1344689264
  0
LWPOLYLINE
  5
57A
100
AcDbEntity
  8
RACCORDO
100
AcDbPolyline
 62
253
  6
CONTINUOUS
 90
13
 70
0
 10
147.5702737513
 20
102.1031138161
 10
147.5948087762
 20
102.0709653537
 10
147.6214348712
 20
102.0412205184
 10
147.6501520361
 20
102.0138793099
 10
147.6811646539
 20
101.9888044789
 10
147.7142683418
 20
101.9661332748
 10
147.7488499507
 20
101.9462774464
 10
147.7849321325
 20
101.9292811477
 10
147.8224922353
 20
101.9151002247
 10
147.8608491542
 20
101.9040139646
 10
147.8997758542
 20
101.8961154632
 10
147.9394993702
 20
101.8913116247
 10
147.9800197023
 20
101.8896024491
  0
LWPOLYLINE
  5
57B
100
AcDbEntity
  8
RACCORDO
100
AcDbPolyline
 62
7
  6
CONTINUOUS
 90
10
 70
0
 10
147.7589296018
 20
102.2608020734
 10
147.6538989482
 20
102.3988536023
 10
147.5400699425
 20
102.5297249491
 10
147.4179328001
 20
102.652857542
 10
147.2880166081
 20
102.7677241236
 10
147.1508766207
 20
102.8738377606
 10
147.0070905442
 20
102.9707515344
 10
146.8572707972
 20
103.0580523645
 10
146.702063167
 20
103.1353651483
 10
146.5421327125
 20
103.2023594745
  0
LWPOLYLINE
  5
57C
100
AcDbEntity
  8
RACCORDO
100
AcDbPolyline
 62
253
  6
CONTINUOUS
 90
13
 70
0
 10
147.7342059371
 20
102.2176304516
 10
147.7487412518
 20
102.1985174147
 10
147.7647541362
 20
102.1806334318
 10
147.7821409312
 20
102.1640919566
 10
147.8007867402
 20
102.1489996284
 10
147.8205736377
 20
102.1354494454
 10
147.8413829077
 20
102.1235222984
 10
147.8630843982
 20
102.1132940961
 10
147.8855373987
 20
102.1048323771
 10
147.9086001715
 20
102.0981916071
 10
147.9321260078
 20
102.0934153581
 10
147.9559640087
 20
102.0905355964
 10
147.9799616443
 20
102.0895719913
  0
LWPOLYLINE
  5
57D
100
AcDbEntity
  8
RACCORDO
100
AcDbPolyline
 62
253
  6
CONTINUOUS
 90
10
 70
0
 10
147.8081632302
 20
99.9661419407
 10
147.7648259015
 20
100.0356682367
 10
147.7207706405
 20
100.1047928231
 10
147.6759974472
 20
100.1735157
 10
147.6301855249
 20
100.2423318526
 10
147.5836556704
 20
100.3107462957
 10
147.5373702733
 20
100.3772740734
 10
147.4916501303
 20
100.4414202005
 10
147.4461744448
 20
100.5036796624
 10
147.4009432168
 20
100.5640524589
  0
LINE
  5
57E
100
AcDbEntity
  8
RACCORDO
100
AcDbLine
 62
253
  6
CONTINUOUS
 10
147.7569761237
 20
99.194893023
 11
147.7342047805
 21
99.234651704
  0
LWPOLYLINE
  5
57F
100
AcDbEntity
  8
RACCORDO
100
AcDbPolyline
 62
7
  6
CONTINUOUS
 90
13
 70
0
 10
147.5013268981
 20
101.6758468266
 10
147.5176510225
 20
101.646725544
 10
147.5359278002
 20
101.6198858523
 10
147.5561572313
 20
101.5953277515
 10
147.5785397679
 20
101.5729438069
 10
147.6028749579
 20
101.5528414532
 10
147.628561445
 20
101.5353429944
 10
147.65546142
 20
101.520538709
 10
147.6837126921
 20
101.5083383185
 10
147.7131273331
 20
101.4987932919
 10
147.7436427002
 20
101.4919207853
 10
147.7753214361
 20
101.4877036426
 10
147.8081635409
 20
101.4861418637
  0
LINE
  5
580
100
AcDbEntity
  8
RACCORDO
100
AcDbLine
 62
253
  6
CONTINUOUS
 10
147.9876172909
 20
99.3481081396
 11
147.9799578814
 21
99.3627118153
  0
LINE
  5
581
100
AcDbEntity
  8
RACCORDO
100
AcDbLine
 62
253
  6
CONTINUOUS
 10
148.001522072
 20
99.3212605595
 11
147.9876172909
 21
99.3481081396
  0
LINE
  5
582
100
AcDbEntity
  8
DRAFT
100
AcDbLine
 62
7
  6
CONTINUOUS
 10
140.1273558398
 20
121.5804759044
 11
140.1587749567
 21
121.4861419017
  0
LINE
  5
583
100
AcDbEntity
  8
RACCORDO
100
AcDbLine
 62
7
  6
CONTINUOUS
 10
140.1273558398
 20
123.0475302328
 11
140.1702121387
 21
122.918856781
  0
LWPOLYLINE
  5
584
100
AcDbEntity
  8
RACCORDO
100
AcDbPolyline
 62
7
  6
CONTINUOUS
 90
10
 70
0
 10
147.0594046864
 20
101.1697697095
 10
147.0604915544
 20
101.1662513772
 10
147.0616117736
 20
101.1627390963
 10
147.0627654007
 20
101.1592325832
 10
147.0639519393
 20
101.1557323625
 10
147.0651719986
 20
101.1522373431
 10
147.0664272735
 20
101.148744804
 10
147.0677183432
 20
101.1452536316
 10
147.069044691
 20
101.1417643348
 10
147.0704063484
 20
101.1382766106
  0
LINE
  5
585
100
AcDbEntity
  8
RACCORDO
100
AcDbLine
 62
7
  6
CONTINUOUS
 10
149.3219271819
 20
80.444573112
 11
149.3172907091
 21
80.4771875589
  0
LINE
  5
586
100
AcDbEntity
  8
RACCORDO
100
AcDbLine
 62
7
  6
CONTINUOUS
 10
147.8394930897
 20
121.0294073165
 11
147.8279524821
 21
121.1917804007
  0
LWPOLYLINE
  5
587
100
AcDbEntity
  8
RACCORDO
100
AcDbPolyline
 62
253
  6
CONTINUOUS
 90
16
 70
0
 10
150.1288178157
 20
82.9296176796
 10
150.1282363145
 20
82.9401874019
 10
150.126620615
 20
82.9504382555
 10
150.1239707171
 20
82.9603702404
 10
150.1202355536
 20
82.9700890746
 10
150.1154661918
 20
82.9794890401
 10
150.1098158334
 20
82.9882529828
 10
150.1032569898
 20
82.9963556191
 10
150.0958171496
 20
83.0038222325
 10
150.0877319793
 20
83.010411519
 10
150.0789803057
 20
83.0160963149
 10
150.0695833021
 20
83.0209037839
 10
150.0598401557
 20
83.024674113
 10
150.0498505954
 20
83.0273540315
 10
150.0395148922
 20
83.0289968102
 10
150.0288330462
 20
83.0296024491
  0
LWPOLYLINE
  5
588
100
AcDbEntity
  8
RACCORDO
100
AcDbPolyline
 62
253
  6
CONTINUOUS
 90
16
 70
0
 10
149.521896721
 20
95.5226661239
 10
149.5224782222
 20
95.5120964016
 10
149.5240939217
 20
95.501845548
 10
149.5267438196
 20
95.4919135631
 10
149.5304789831
 20
95.4821947289
 10
149.5352483449
 20
95.4727947633
 10
149.5408987033
 20
95.4640308207
 10
149.5474575469
 20
95.4559281844
 10
149.5548973871
 20
95.448461571
 10
149.5629825574
 20
95.4418722844
 10
149.571734231
 20
95.4361874886
 10
149.5811312346
 20
95.4313800196
 10
149.590874381
 20
95.4276096904
 10
149.6008639413
 20
95.424929772
 10
149.6111996445
 20
95.4232869933
 10
149.6218814905
 20
95.4226813544
  0
LWPOLYLINE
  5
589
100
AcDbEntity
  8
RACCORDO
100
AcDbPolyline
 62
253
  6
CONTINUOUS
 90
16
 70
0
 10
149.3219271819
 20
95.5226661239
 10
149.3235762216
 20
95.4913153235
 10
149.3284926782
 20
95.4603082807
 10
149.3366226719
 20
95.4299845538
 10
149.3478771142
 20
95.4006762186
 10
149.3621327379
 20
95.3727042381
 10
149.3792334594
 20
95.346374954
 10
149.3989920331
 20
95.3219766922
 10
149.4211920245
 20
95.2997766899
 10
149.4455902156
 20
95.2800181528
 10
149.4719211846
 20
95.2629164431
 10
149.4998949686
 20
95.2486602288
 10
149.5291991407
 20
95.2374075504
 10
149.5595100954
 20
95.229280189
 10
149.5904975811
 20
95.2243643403
 10
149.6218223598
 20
95.2227118342
  0
LWPOLYLINE
  5
58A
100
AcDbEntity
  8
RACCORDO
100
AcDbPolyline
 62
253
  6
CONTINUOUS
 90
16
 70
0
 10
147.0227620546
 20
120.2235352649
 10
147.0244076572
 20
120.1921793857
 10
147.0293216623
 20
120.1611670117
 10
147.0374502373
 20
120.1308378895
 10
147.048704338
 20
120.1015242707
 10
147.0629606723
 20
120.0735473029
 10
147.0800630414
 20
120.0472135062
 10
147.0998240672
 20
120.0228113798
 10
147.122027266
 20
120.0006082327
 10
147.1464294069
 20
119.9808472867
 10
147.1727631612
 20
119.9637450218
 10
147.200740036
 20
119.9494887939
 10
147.2300535505
 20
119.938234775
 10
147.2603825758
 20
119.9301062537
 10
147.2913948504
 20
119.9251922803
 10
147.3227506315
 20
119.923546688
  0
LWPOLYLINE
  5
58B
100
AcDbEntity
  8
RACCORDO
100
AcDbPolyline
 62
7
  6
CONTINUOUS
 90
6
 70
0
 10
149.3154427002
 20
80.5238549223
 10
149.3157717282
 20
80.5095741975
 10
149.316122375
 20
80.4977084561
 10
149.3164902009
 20
80.4884531737
 10
149.3168796456
 20
80.4816128747
 10
149.3172907091
 20
80.4771875589
  0
LWPOLYLINE
  5
58C
100
AcDbEntity
  8
RACCORDO
100
AcDbPolyline
 62
7
  6
CONTINUOUS
 90
4
 70
0
 10
147.8400754245
 20
121.0089491006
 10
147.8398920364
 20
121.018179536
 10
147.8396979248
 20
121.0249989413
 10
147.8394930897
 20
121.0294073165
  0
LINE
  5
58D
100
AcDbEntity
  8
RACCORDO
100
AcDbLine
 62
7
  6
CONTINUOUS
 10
149.3148909929
 20
80.5579786155
 11
149.3154427002
 21
80.5238549223
  0
LINE
  5
58E
100
AcDbEntity
  8
RACCORDO
100
AcDbLine
 62
7
  6
CONTINUOUS
 10
147.8404144752
 20
120.9828650815
 11
147.8400754245
 21
121.0089491006
  0
LINE
  5
58F
100
AcDbEntity
  8
RACCORDO
100
AcDbLine
 62
7
  6
CONTINUOUS
 10
149.3144892796
 20
80.5986769562
 11
149.3148909929
 21
80.5579786155
  0
LINE
  5
590
100
AcDbEntity
  8
RACCORDO
100
AcDbLine
 62
7
  6
CONTINUOUS
 10
147.8408010577
 20
120.9290166383
 11
147.8404144752
 21
120.9828650815
  0
LWPOLYLINE
  5
591
100
AcDbEntity
  8
RACCORDO
100
AcDbPolyline
 62
253
  6
CONTINUOUS
 90
13
 70
0
 10
148.0107701403
 20
99.1205280841
 10
148.0106760999
 20
99.1464141394
 10
148.0104281294
 20
99.1718777401
 10
148.0100303988
 20
99.1964907217
 10
148.0094895967
 20
99.2198392276
 10
148.008814817
 20
99.2415306563
 10
148.0080174058
 20
99.2612002659
 10
148.007110772
 20
99.2785173238
 10
148.0061101613
 20
99.2931906584
 10
148.0050323988
 20
99.3049735482
 10
148.0038956071
 20
99.3136678809
 10
148.0027189017
 20
99.3191274801
 10
148.0015220687
 20
99.3212605595
  0
LINE
  5
592
100
AcDbEntity
  8
RACCORDO
100
AcDbLine
 62
7
  6
CONTINUOUS
 10
149.3142227581
 20
80.6665013439
 11
149.3144892796
 21
80.5986769562
  0
LINE
  5
593
100
AcDbEntity
  8
RACCORDO
100
AcDbLine
 62
7
  6
CONTINUOUS
 10
149.3124845691
 20
82.9390602924
 11
149.3142227581
 21
80.6665013439
  0
LINE
  5
594
100
AcDbEntity
  8
RACCORDO
100
AcDbLine
 62
7
  6
CONTINUOUS
 10
147.8412845505
 20
120.2102031965
 11
147.8408010577
 21
120.9290166383
  0
LINE
  5
595
100
AcDbEntity
  8
RACCORDO
100
AcDbLine
 62
253
  6
CONTINUOUS
 10
147.7288178157
 20
81.4646996833
 11
147.7288178157
 21
82.9296176796
  0
LINE
  5
596
100
AcDbEntity
  8
0
100
AcDbLine
 62
7
  6
CONTINUOUS
 10
147.7572721611
 20
95.4061418088
 11
147.7572721611
 21
94.9186419947
  0
LINE
  5
597
100
AcDbEntity
  8
RACCORDO
100
AcDbLine
 62
7
  6
CONTINUOUS
 10
147.8279524821
 20
80.3218956832
 11
147.8279524821
 21
81.2287485386
  0
LINE
  5
598
100
AcDbEntity
  8
RACCORDO
100
AcDbLine
 62
7
  6
CONTINUOUS
 10
147.8279524821
 20
120.2235352649
 11
147.8279524821
 21
121.1917804007
  0
LINE
  5
599
100
AcDbEntity
  8
RACCORDO
100
AcDbLine
 62
7
  6
CONTINUOUS
 10
147.8352243471
 20
80.4242087664
 11
147.8352243471
 21
81.2360204036
  0
LINE
  5
59A
100
AcDbEntity
  8
0
100
AcDbLine
 62
7
  6
CONTINUOUS
 10
147.8679104458
 20
94.9430169017
 11
147.8679104458
 21
95.3817669017
  0
LINE
  5
59B
100
AcDbEntity
  8
RACCORDO
100
AcDbLine
 62
253
  6
CONTINUOUS
 10
147.9287873548
 20
80.444573112
 11
147.9287873548
 21
82.9296176796
  0
LINE
  5
59C
100
AcDbEntity
  8
RACCORDO
100
AcDbLine
 62
253
  6
CONTINUOUS
 10
147.9800197023
 20
99.3627118153
 11
147.9800197013
 21
99.5626813543
  0
LINE
  5
59D
100
AcDbEntity
  8
RACCORDO
100
AcDbLine
 62
253
  6
CONTINUOUS
 10
147.9800197023
 20
102.0895719881
 11
147.9800197023
 21
101.8896024491
  0
LINE
  5
59E
100
AcDbEntity
  8
0
100
AcDbLine
 62
7
  6
CONTINUOUS
 10
148.0062083404
 20
94.3336419947
 11
148.0062083404
 21
93.9192669017
  0
LINE
  5
59F
100
AcDbEntity
  8
0
100
AcDbLine
 62
7
  6
CONTINUOUS
 10
148.1721657675
 20
93.8705168088
 11
148.1721657675
 21
94.3336419947
  0
LINE
  5
5A0
100
AcDbEntity
  8
0
100
AcDbLine
 62
7
  6
CONTINUOUS
 10
148.5870594125
 20
94.3336419947
 11
148.5870594125
 21
93.8705168088
  0
LINE
  5
5A1
100
AcDbEntity
  8
0
100
AcDbLine
 62
7
  6
CONTINUOUS
 10
148.7253572684
 20
93.8948919947
 11
148.7253572684
 21
94.4798919947
  0
LINE
  5
5A2
100
AcDbEntity
  8
0
100
AcDbLine
 62
7
  6
CONTINUOUS
 10
148.7253572684
 20
95.0648919947
 11
148.7253572684
 21
95.2598918088
  0
LINE
  5
5A3
100
AcDbEntity
  8
0
100
AcDbLine
 62
7
  6
CONTINUOUS
 10
148.7253572684
 20
95.8448918088
 11
148.7253572684
 21
96.0642668088
  0
LINE
  5
5A4
100
AcDbEntity
  8
0
100
AcDbLine
 62
7
  6
CONTINUOUS
 10
148.7253572684
 20
96.7955169482
 11
148.7253572684
 21
97.0148919482
  0
LINE
  5
5A5
100
AcDbEntity
  8
0
100
AcDbLine
 62
7
  6
CONTINUOUS
 10
148.7253572684
 20
97.2098919017
 11
148.7253572684
 21
97.3561419017
  0
LINE
  5
5A6
100
AcDbEntity
  8
0
100
AcDbLine
 62
7
  6
CONTINUOUS
 10
148.7253572684
 20
97.551141925
 11
148.7253572684
 21
97.697391925
  0
LINE
  5
5A7
100
AcDbEntity
  8
0
100
AcDbLine
 62
7
  6
CONTINUOUS
 10
148.7253572684
 20
98.3798919017
 11
148.7253572684
 21
98.5261419017
  0
LINE
  5
5A8
100
AcDbEntity
  8
RACCORDO
100
AcDbLine
 62
7
  6
CONTINUOUS
 10
147.9373489412
 20
80.6269900629
 11
147.9392679606
 21
82.9400982855
  0
LWPOLYLINE
  5
5A9
100
AcDbEntity
  8
RACCORDO
100
AcDbPolyline
 62
7
  6
CONTINUOUS
 90
3
 70
0
 10
149.3064013274
 20
99.1974483882
 10
149.3062623323
 20
99.1734286867
 10
149.3066438072
 20
95.5073827491
  0
LINE
  5
5AA
100
AcDbEntity
  8
RACCORDO
100
AcDbLine
 62
7
  6
CONTINUOUS
 10
147.9370373254
 20
80.5845940863
 11
147.9373489412
 21
80.6269900629
  0
LWPOLYLINE
  5
5AB
100
AcDbEntity
  8
RACCORDO
100
AcDbPolyline
 62
7
  6
CONTINUOUS
 90
16
 70
0
 10
146.9108199048
 20
82.9407249568
 10
146.9124400966
 20
82.9721085175
 10
146.9173366917
 20
83.0031678589
 10
146.9254629241
 20
83.0335613947
 10
146.9367488367
 20
83.0629822081
 10
146.9510703672
 20
83.0910728306
 10
146.9682213231
 20
83.1174437664
 10
146.9879497833
 20
83.1417671655
 10
147.0100572341
 20
83.1638501306
 10
147.0343760188
 20
83.1835319856
 10
147.0606931521
 20
83.2006146255
 10
147.0886895583
 20
83.2148674104
 10
147.118021871
 20
83.2261100684
 10
147.148353757
 20
83.2342179326
 10
147.1793663899
 20
83.2391096097
 10
147.2107204055
 20
83.2407330732
  0
LINE
  5
5AC
100
AcDbEntity
  8
RACCORDO
100
AcDbLine
 62
253
  6
CONTINUOUS
 10
152.2285858636
 20
120.7556535154
 11
152.3205995372
 21
121.1871013249
  0
LWPOLYLINE
  5
5AD
100
AcDbEntity
  8
RACCORDO
100
AcDbPolyline
 62
253
  6
CONTINUOUS
 90
13
 70
0
 10
147.9291418919
 20
99.0783439274
 10
147.9340590892
 20
99.0846949546
 10
147.939388937
 20
99.0905716494
 10
147.9451314334
 20
99.0959740117
 10
147.9513281936
 20
99.1009297486
 10
147.9579375982
 20
99.1054111525
 10
147.964834794
 20
99.1093351003
 10
147.9720241406
 20
99.1126915826
 10
147.9795012753
 20
99.1154906077
 10
147.9871282623
 20
99.1176790787
 10
147.9948591229
 20
99.119239296
 10
148.0027398345
 20
99.1201889576
 10
148.0107703966
 20
99.1205280629
  0
LINE
  5
5AE
100
AcDbEntity
  8
RACCORDO
100
AcDbLine
 62
253
  6
CONTINUOUS
 10
145.1691919748
 20
95.6199880313
 11
145.1584453727
 21
95.6092414292
  0
LINE
  5
5AF
100
AcDbEntity
  8
RACCORDO
100
AcDbLine
 62
7
  6
CONTINUOUS
 10
149.309585068
 20
99.3224415975
 11
149.3219271819
 21
99.3347837114
  0
LINE
  5
5B0
100
AcDbEntity
  8
0
100
AcDbLine
 62
7
  6
CONTINUOUS
 10
148.4487615566
 20
96.8686419482
 11
147.4253572684
 21
96.5273918552
  0
LINE
  5
5B1
100
AcDbEntity
  8
0
100
AcDbLine
 62
7
  6
CONTINUOUS
 10
147.5636551436
 20
96.4298919482
 11
148.7253572684
 21
96.7955169482
  0
LWPOLYLINE
  5
5B2
100
AcDbEntity
  8
RACCORDO
100
AcDbPolyline
 62
7
  6
CONTINUOUS
 90
16
 70
0
 10
145.3922215922
 20
105.8429948025
 10
145.4235533823
 20
105.8413469722
 10
145.4545495361
 20
105.836433538
 10
145.4848703622
 20
105.8283060161
 10
145.5141968948
 20
105.817045025
 10
145.5421919784
 20
105.8027750939
 10
145.5685109755
 20
105.7856774415
 10
145.5928349507
 20
105.7659827204
 10
145.6149500296
 20
105.7438893521
 10
145.6346865782
 20
105.7195604843
 10
145.6518466425
 20
105.6931900616
 10
145.6661788021
 20
105.6651063896
 10
145.6774763015
 20
105.6357013398
 10
145.6856163081
 20
105.6053336214
 10
145.6905310494
 20
105.5743098438
 10
145.6921754688
 20
105.5429715253
  0
LWPOLYLINE
  5
5B3
100
AcDbEntity
  8
RACCORDO
100
AcDbPolyline
 62
7
  6
CONTINUOUS
 90
16
 70
0
 10
145.3815225619
 20
105.8322957722
 10
145.4152444239
 20
105.8304021303
 10
145.4481641144
 20
105.8248336163
 10
145.4798966651
 20
105.8157898296
 10
145.5100638807
 20
105.8035224135
 10
145.5383939236
 20
105.7882867806
 10
145.5647046099
 20
105.7703024121
 10
145.588776175
 20
105.7498268031
 10
145.6103743143
 20
105.7271742825
 10
145.6293326629
 20
105.7026432526
 10
145.6455166767
 20
105.6765535948
 10
145.6588336424
 20
105.6492222496
 10
145.669227111
 20
105.6209443868
 10
145.6766665436
 20
105.5920258365
 10
145.6811524626
 20
105.5627828068
 10
145.6827180352
 20
105.5335140917
  0
LINE
  5
5B4
100
AcDbEntity
  8
RACCORDO
100
AcDbLine
 62
253
  6
CONTINUOUS
 10
151.9520709524
 20
102.1035969667
 11
151.9121524206
 21
102.1302059429
  0
LINE
  5
5B5
100
AcDbEntity
  8
RACCORDO
100
AcDbLine
 62
253
  6
CONTINUOUS
 10
152.252036688
 20
102.403505589
 11
152.212773889
 21
102.4296774655
  0
LINE
  5
5B6
100
AcDbEntity
  8
RACCORDO
100
AcDbLine
 62
253
  6
CONTINUOUS
 10
145.1691919748
 20
105.8322957722
 11
145.1584453808
 21
105.8430423662
  0
LINE
  5
5B7
100
AcDbEntity
  8
RACCORDO
100
AcDbLine
 62
253
  6
CONTINUOUS
 10
151.9558212859
 20
80.4594480918
 11
152.0097765612
 21
80.0799092701
  0
LWPOLYLINE
  5
5B8
100
AcDbEntity
  8
RACCORDO
100
AcDbPolyline
 62
253
  6
CONTINUOUS
 90
16
 70
0
 10
150.3287873548
 20
82.9296176796
 10
150.3271383151
 20
82.96096848
 10
150.3222218585
 20
82.9919755228
 10
150.3140918648
 20
83.0222992496
 10
150.3028374226
 20
83.0516075849
 10
150.2885817988
 20
83.0795795654
 10
150.2714810773
 20
83.1059088495
 10
150.2517225036
 20
83.1303071113
 10
150.2295225122
 20
83.1525071136
 10
150.2051243211
 20
83.1722656507
 10
150.1787933521
 20
83.1893673604
 10
150.1508195681
 20
83.2036235747
 10
150.121515396
 20
83.2148762531
 10
150.0912044413
 20
83.2230036145
 10
150.0602169556
 20
83.2279194632
 10
150.028892177
 20
83.2295719693
  0
LINE
  5
5B9
100
AcDbEntity
  8
DRAFT
100
AcDbLine
 62
7
  6
CONTINUOUS
 10
150.5079022034
 20
101.4861419017
 11
150.5253572684
 21
100.8861419017
  0
LWPOLYLINE
  5
5BA
100
AcDbEntity
  8
RACCORDO
100
AcDbPolyline
 62
7
  6
CONTINUOUS
 90
7
 70
0
 10
150.3424630639
 20
99.2633158807
 10
150.3421270324
 20
99.2805031708
 10
150.3417492742
 20
99.2953761967
 10
150.3413482559
 20
99.3071914403
 10
150.3409301331
 20
99.3157010622
 10
150.3404887501
 20
99.3211529018
 10
150.3400241071
 20
99.3235469591
  0
LINE
  5
5BB
100
AcDbEntity
  8
RACCORDO
100
AcDbLine
 62
7
  6
CONTINUOUS
 10
150.3430056575
 20
99.2217706439
 11
150.3424630639
 21
99.2633158807
  0
LINE
  5
5BC
100
AcDbEntity
  8
RACCORDO
100
AcDbLine
 62
7
  6
CONTINUOUS
 10
150.343341234
 20
99.1745860636
 11
150.3430056575
 21
99.2217706439
  0
LINE
  5
5BD
100
AcDbEntity
  8
RACCORDO
100
AcDbLine
 62
253
  6
CONTINUOUS
 10
149.3219271819
 20
99.3347837114
 11
149.3219271819
 21
95.5226661239
  0
LINE
  5
5BE
100
AcDbEntity
  8
RACCORDO
100
AcDbLine
 62
253
  6
CONTINUOUS
 10
149.3219271819
 20
82.9296768233
 11
149.3219271819
 21
80.444573112
  0
LINE
  5
5BF
100
AcDbEntity
  8
RACCORDO
100
AcDbLine
 62
253
  6
CONTINUOUS
 10
149.521896721
 20
99.3382137979
 11
149.521896721
 21
95.5226661239
  0
LINE
  5
5C0
100
AcDbEntity
  8
RACCORDO
100
AcDbLine
 62
253
  6
CONTINUOUS
 10
149.521896721
 20
82.9296176796
 11
149.521896721
 21
80.4204447771
  0
LINE
  5
5C1
100
AcDbEntity
  8
RACCORDO
100
AcDbLine
 62
253
  6
CONTINUOUS
 10
149.6218814905
 20
83.0296024491
 11
149.621881478
 21
83.2295719881
  0
LINE
  5
5C2
100
AcDbEntity
  8
RACCORDO
100
AcDbLine
 62
253
  6
CONTINUOUS
 10
149.6218814905
 20
95.4226813544
 11
149.6218814905
 21
95.2227118153
  0
LINE
  5
5C3
100
AcDbEntity
  8
RACCORDO
100
AcDbLine
 62
253
  6
CONTINUOUS
 10
150.0288330462
 20
95.4226813544
 11
150.0288330588
 21
95.2227118153
  0
LINE
  5
5C4
100
AcDbEntity
  8
RACCORDO
100
AcDbLine
 62
253
  6
CONTINUOUS
 10
150.0288330462
 20
83.0296024491
 11
150.0288330462
 21
83.2295719881
  0
LINE
  5
5C5
100
AcDbEntity
  8
RACCORDO
100
AcDbLine
 62
253
  6
CONTINUOUS
 10
150.1288178157
 20
80.4204447771
 11
150.1288178157
 21
82.9296176796
  0
LINE
  5
5C6
100
AcDbEntity
  8
RACCORDO
100
AcDbLine
 62
253
  6
CONTINUOUS
 10
150.1288178157
 20
95.5226661239
 11
150.1288178157
 21
99.3382137979
  0
LINE
  5
5C7
100
AcDbEntity
  8
RACCORDO
100
AcDbLine
 62
253
  6
CONTINUOUS
 10
150.3287873548
 20
80.444573112
 11
150.3287873548
 21
82.9296176796
  0
LINE
  5
5C8
100
AcDbEntity
  8
RACCORDO
100
AcDbLine
 62
253
  6
CONTINUOUS
 10
150.3287873548
 20
95.5226069802
 11
150.3287873548
 21
99.3347837114
  0
LINE
  5
5C9
100
AcDbEntity
  8
RACCORDO
100
AcDbLine
 62
7
  6
CONTINUOUS
 10
150.5079022034
 20
99.9661419017
 11
150.5079022034
 21
99.5626813544
  0
LINE
  5
5CA
100
AcDbEntity
  8
RACCORDO
100
AcDbLine
 62
7
  6
CONTINUOUS
 10
150.5079022034
 20
101.4861419017
 11
150.5079022034
 21
101.8896024491
  0
LINE
  5
5CB
100
AcDbEntity
  8
DRAFT
100
AcDbLine
 62
7
  6
CONTINUOUS
 10
150.5253572684
 20
102.1035969667
 11
150.5253572684
 21
100.8861419017
  0
LINE
  5
5CC
100
AcDbEntity
  8
DRAFT
100
AcDbLine
 62
7
  6
CONTINUOUS
 10
150.5253572684
 20
100.5661419017
 11
150.5253572684
 21
99.3486868368
  0
LINE
  5
5CD
100
AcDbEntity
  8
RACCORDO
100
AcDbLine
 62
7
  6
CONTINUOUS
 10
150.3429748462
 20
95.5084786325
 11
150.343341234
 21
99.1745860636
  0
LINE
  5
5CE
100
AcDbEntity
  8
RACCORDO
100
AcDbLine
 62
7
  6
CONTINUOUS
 10
150.3354802961
 20
80.6142845134
 11
150.337305223
 21
82.9381355478
  0
LINE
  5
5CF
100
AcDbEntity
  8
RACCORDO
100
AcDbLine
 62
7
  6
CONTINUOUS
 10
150.3351694893
 20
80.5717735682
 11
150.3354802961
 21
80.6142845134
  0
LINE
  5
5D0
100
AcDbEntity
  8
DRAFT
100
AcDbLine
 62
7
  6
CONTINUOUS
 10
150.5253572684
 20
100.5661419017
 11
150.5079022034
 21
99.9661419017
  0
LWPOLYLINE
  5
5D1
100
AcDbEntity
  8
RACCORDO
100
AcDbPolyline
 62
7
  6
CONTINUOUS
 90
16
 70
0
 10
149.3124845691
 20
82.9390602924
 10
149.3141049722
 20
82.9704285197
 10
149.3190002732
 20
83.0014742549
 10
149.3271244671
 20
83.031856176
 10
149.3384085304
 20
83.0612676383
 10
149.35272906
 20
83.0893509472
 10
149.3698799995
 20
83.1157159961
 10
149.3896097579
 20
83.1400345177
 10
149.4117203815
 20
83.1621135839
 10
149.4360444377
 20
83.1817924386
 10
149.4623689401
 20
83.1988723128
 10
149.4903753257
 20
83.2131223538
 10
149.5197212897
 20
83.2243624299
 10
149.5500709501
 20
83.2324671051
 10
149.5811051143
 20
83.2373537371
 10
149.612484148
 20
83.2389693307
  0
LWPOLYLINE
  5
5D2
100
AcDbEntity
  8
RACCORDO
100
AcDbPolyline
 62
7
  6
CONTINUOUS
 90
16
 70
0
 10
150.3429748462
 20
95.5084786325
 10
150.3413309384
 20
95.4771598444
 10
150.3364227777
 20
95.4461495663
 10
150.3282943095
 20
95.4157888699
 10
150.3170121374
 20
95.3863835693
 10
150.302697897
 20
95.3582930371
 10
150.2855575837
 20
95.3319110496
 10
150.2658419978
 20
95.3075661671
 10
150.2437484656
 20
95.2854526664
 10
150.2194466059
 20
95.265735428
 10
150.1931505014
 20
95.2486132422
 10
150.1651785628
 20
95.2343168119
 10
150.1358746591
 20
95.2230283695
 10
150.1055756608
 20
95.2148729845
 10
150.074600725
 20
95.2099313479
 10
150.0432895685
 20
95.208255293
  0
LWPOLYLINE
  5
5D3
100
AcDbEntity
  8
RACCORDO
100
AcDbPolyline
 62
7
  6
CONTINUOUS
 90
8
 70
0
 10
147.93442179
 20
80.4842075481
 10
147.9348313601
 20
80.4886137249
 10
147.9352194919
 20
80.4954309144
 10
147.9355861852
 20
80.5046591168
 10
147.9359358778
 20
80.5164924531
 10
147.936264132
 20
80.5307368022
 10
147.9365576349
 20
80.5468098008
 10
147.9370373254
 20
80.5845940863
  0
LINE
  5
5D4
100
AcDbEntity
  8
RACCORDO
100
AcDbLine
 62
7
  6
CONTINUOUS
 10
147.9287873548
 20
80.444573112
 11
147.93442179
 21
80.4842075481
  0
LWPOLYLINE
  5
5D5
100
AcDbEntity
  8
RACCORDO
100
AcDbPolyline
 62
7
  6
CONTINUOUS
 90
9
 70
0
 10
149.309585068
 20
99.3224415975
 10
149.3091193204
 20
99.3200410723
 10
149.3086769612
 20
99.3145821757
 10
149.3082579905
 20
99.3060649078
 10
149.3078562599
 20
99.294240643
 10
149.3074779178
 20
99.2793580068
 10
149.307141409
 20
99.2621628756
 10
149.3068488765
 20
99.2425410774
 10
149.3064013274
 20
99.1974483882
  0
LINE
  5
5D6
100
AcDbEntity
  8
0
100
AcDbLine
 62
7
  6
CONTINUOUS
 10
148.6976976972
 20
93.7730169017
 11
148.7253572684
 21
93.8948919947
  0
LINE
  5
5D7
100
AcDbEntity
  8
0
100
AcDbLine
 62
7
  6
CONTINUOUS
 10
148.5870594125
 20
93.8705168088
 11
148.5593998413
 21
93.7973920877
  0
LINE
  5
5D8
100
AcDbEntity
  8
RACCORDO
100
AcDbLine
 62
253
  6
CONTINUOUS
 10
135.2382303887
 20
83.2389693307
 11
135.2288921899
 21
83.2295719881
  0
LINE
  5
5D9
100
AcDbEntity
  8
RACCORDO
100
AcDbLine
 62
253
  6
CONTINUOUS
 10
135.5382299676
 20
82.9390602924
 11
135.5287873548
 21
82.9296176796
  0
LINE
  5
5DA
100
AcDbEntity
  8
RACCORDO
100
AcDbLine
 62
253
  6
CONTINUOUS
 10
151.9712922585
 20
99.3486868368
 11
151.9481859984
 21
99.3255805767
  0
LINE
  5
5DB
100
AcDbEntity
  8
RACCORDO
100
AcDbLine
 62
253
  6
CONTINUOUS
 10
149.3066438072
 20
95.5073827491
 11
149.3219271819
 21
95.5226661239
  0
LINE
  5
5DC
100
AcDbEntity
  8
RACCORDO
100
AcDbLine
 62
253
  6
CONTINUOUS
 10
152.2712465671
 20
99.0487325283
 11
152.2482854785
 21
99.025828736
  0
LINE
  5
5DD
100
AcDbEntity
  8
0
100
AcDbLine
 62
7
  6
CONTINUOUS
 10
147.4253572684
 20
93.5536419017
 11
148.0615274828
 21
93.7730169017
  0
LINE
  5
5DE
100
AcDbEntity
  8
0
100
AcDbLine
 62
7
  6
CONTINUOUS
 10
148.0062083404
 20
93.9192669017
 11
147.4253572684
 21
93.7242670877
  0
LINE
  5
5DF
100
AcDbEntity
  8
0
100
AcDbLine
 62
7
  6
CONTINUOUS
 10
147.4253572684
 20
94.6748918088
 11
148.7253572684
 21
95.0648919947
  0
LINE
  5
5E0
100
AcDbEntity
  8
0
100
AcDbLine
 62
7
  6
CONTINUOUS
 10
147.7572721611
 20
94.9186419947
 11
147.4253572684
 21
94.8211418088
  0
LINE
  5
5E1
100
AcDbEntity
  8
0
100
AcDbLine
 62
7
  6
CONTINUOUS
 10
148.6147189837
 20
95.1623919017
 11
147.8679104458
 21
94.9430169017
  0
LINE
  5
5E2
100
AcDbEntity
  8
0
100
AcDbLine
 62
7
  6
CONTINUOUS
 10
148.504080699
 20
93.7486417158
 11
148.4211019855
 21
93.7242670877
  0
LINE
  5
5E3
100
AcDbEntity
  8
0
100
AcDbLine
 62
7
  6
CONTINUOUS
 10
148.4211019855
 20
93.5780170877
 11
148.504080699
 21
93.6023917158
  0
LINE
  5
5E4
100
AcDbEntity
  8
RACCORDO
100
AcDbLine
 62
253
  6
CONTINUOUS
 10
152.2556296715
 20
80.7581889913
 11
152.3098209022
 21
80.3770397977
  0
LWPOLYLINE
  5
5E5
100
AcDbEntity
  8
RACCORDO
100
AcDbPolyline
 62
253
  6
CONTINUOUS
 90
10
 70
0
 10
151.94143909
 20
120.8644047318
 10
151.9409614041
 20
120.8953882585
 10
151.9401896129
 20
120.9254083969
 10
151.9391425139
 20
120.9537339864
 10
151.9378456099
 20
120.979675138
 10
151.936330488
 20
121.0026000375
 10
151.9346340498
 20
121.0219503335
 10
151.9327976134
 20
121.0372547364
 10
151.9308659064
 20
121.0481404971
 10
151.9288859768
 20
121.0543424856
  0
LWPOLYLINE
  5
5E6
100
AcDbEntity
  8
RACCORDO
100
AcDbPolyline
 62
253
  6
CONTINUOUS
 90
13
 70
0
 10
151.9639677908
 20
99.124931551
 10
151.963806444
 20
99.1508086016
 10
151.9633825872
 20
99.1762620397
 10
151.962703344
 20
99.2008640903
 10
151.9617801297
 20
99.2242012868
 10
151.96062846
 20
99.2458814201
 10
151.9592676895
 20
99.2655401299
 10
151.9577206872
 20
99.2828470283
 10
151.9560134515
 20
99.2975112525
 10
151.9541746731
 20
99.3092863529
 10
151.9522352538
 20
99.3179744348
 10
151.9502277871
 20
99.3234294849
 10
151.9481860099
 20
99.3255598245
  0
LINE
  5
5E7
100
AcDbEntity
  8
RACCORDO
100
AcDbLine
 62
253
  6
CONTINUOUS
 10
152.2517897926
 20
86.8761419017
 11
152.2556296715
 21
80.7581889913
  0
LINE
  5
5E8
100
AcDbEntity
  8
RACCORDO
100
AcDbLine
 62
253
  6
CONTINUOUS
 10
152.0662493668
 20
86.8761419017
 11
152.0684325616
 21
80.7497778467
  0
LINE
  5
5E9
100
AcDbEntity
  8
DRAFT
100
AcDbLine
 62
7
  6
CONTINUOUS
 10
151.7253572684
 20
109.8074983577
 11
151.7253572684
 21
113.8447854457
  0
LINE
  5
5EA
100
AcDbEntity
  8
DRAFT
100
AcDbLine
 62
7
  6
CONTINUOUS
 10
151.9253572684
 20
87.8761419017
 11
151.9253572684
 21
91.3761419017
  0
LINE
  5
5EB
100
AcDbEntity
  8
RACCORDO
100
AcDbLine
 62
253
  6
CONTINUOUS
 10
152.0642606175
 20
99.0250523507
 11
152.0649637614
 21
92.3761419017
  0
LINE
  5
5EC
100
AcDbEntity
  8
RACCORDO
100
AcDbLine
 62
253
  6
CONTINUOUS
 10
152.2482854785
 20
99.025828736
 11
152.2495247608
 21
92.3761419017
  0
LINE
  5
5ED
100
AcDbEntity
  8
RACCORDO
100
AcDbLine
 62
7
  6
CONTINUOUS
 10
152.252036688
 20
102.403505589
 11
152.252036688
 21
100.8861419017
  0
LINE
  5
5EE
100
AcDbEntity
  8
DRAFT
100
AcDbLine
 62
7
  6
CONTINUOUS
 10
152.2651296487
 20
120.00571843
 11
152.2651296487
 21
118.8465653734
  0
LINE
  5
5EF
100
AcDbEntity
  8
DRAFT
100
AcDbLine
 62
7
  6
CONTINUOUS
 10
152.2651296487
 20
109.40571843
 11
152.2651296487
 21
108.2465653734
  0
LINE
  5
5F0
100
AcDbEntity
  8
RACCORDO
100
AcDbLine
 62
7
  6
CONTINUOUS
 10
152.2712465671
 20
100.5661419017
 11
152.2712465671
 21
99.0487325283
  0
LINE
  5
5F1
100
AcDbEntity
  8
DRAFT
100
AcDbLine
 62
7
  6
CONTINUOUS
 10
152.3253572684
 20
113.8229666146
 11
152.3253572684
 21
109.8293171889
  0
LINE
  5
5F2
100
AcDbEntity
  8
DRAFT
100
AcDbLine
 62
7
  6
CONTINUOUS
 10
152.3253572684
 20
86.8761419017
 11
152.3253572684
 21
100.5931951919
  0
LINE
  5
5F3
100
AcDbEntity
  8
DRAFT
100
AcDbLine
 62
7
  6
CONTINUOUS
 10
152.3253572684
 20
109.7761419017
 11
152.3253572684
 21
109.8014517459
  0
LINE
  5
5F4
100
AcDbEntity
  8
DRAFT
100
AcDbLine
 62
7
  6
CONTINUOUS
 10
152.3253572684
 20
113.8508320576
 11
152.3253572684
 21
113.8761419017
  0
LINE
  5
5F5
100
AcDbEntity
  8
RACCORDO
100
AcDbLine
 62
7
  6
CONTINUOUS
 10
152.3672547429
 20
121.2804757634
 11
152.3672547429
 21
120.0399488664
  0
LINE
  5
5F6
100
AcDbEntity
  8
DRAFT
100
AcDbLine
 62
7
  6
CONTINUOUS
 10
152.3672547429
 20
118.8123349371
 11
152.3672547429
 21
113.8761419017
  0
LINE
  5
5F7
100
AcDbEntity
  8
DRAFT
100
AcDbLine
 62
7
  6
CONTINUOUS
 10
152.3672547429
 20
109.7761419017
 11
152.3672547429
 21
109.4399488664
  0
LINE
  5
5F8
100
AcDbEntity
  8
DRAFT
100
AcDbLine
 62
7
  6
CONTINUOUS
 10
152.3672547429
 20
108.2123349371
 11
152.3672547429
 21
100.8477436835
  0
LINE
  5
5F9
100
AcDbEntity
  8
RACCORDO
100
AcDbLine
 62
7
  6
CONTINUOUS
 10
152.212773889
 20
102.4296774655
 11
152.2149603401
 21
109.7761419017
  0
LINE
  5
5FA
100
AcDbEntity
  8
RACCORDO
100
AcDbLine
 62
253
  6
CONTINUOUS
 10
152.0413717141
 20
120.764149904
 11
152.0368256
 21
113.8761419017
  0
LINE
  5
5FB
100
AcDbEntity
  8
RACCORDO
100
AcDbLine
 62
253
  6
CONTINUOUS
 10
152.2285858636
 20
120.7556535154
 11
152.2222195995
 21
113.8761419017
  0
LINE
  5
5FC
100
AcDbEntity
  8
RACCORDO
100
AcDbLine
 62
7
  6
CONTINUOUS
 10
152.3098209022
 20
80.3770397977
 11
152.323749859
 21
86.8761419017
  0
LWPOLYLINE
  5
5FD
100
AcDbEntity
  8
RACCORDO
100
AcDbPolyline
 62
253
  6
CONTINUOUS
 90
10
 70
0
 10
151.968429268
 20
80.6494214983
 10
151.9679497766
 20
80.618433394
 10
151.9671748126
 20
80.5884081661
 10
151.9661232556
 20
80.5600772856
 10
151.9648207236
 20
80.5341309465
 10
151.9632989486
 20
80.5112012503
 10
151.9615950035
 20
80.4918468075
 10
151.9597503994
 20
80.4765391292
 10
151.9578100746
 20
80.4656511398
 10
151.955821299
 20
80.4594480917
  0
LWPOLYLINE
  5
5FE
100
AcDbEntity
  8
RACCORDO
100
AcDbPolyline
 62
7
  6
CONTINUOUS
 90
8
 70
0
 10
150.3325494203
 20
80.4710366954
 10
150.3329601096
 20
80.4754595515
 10
150.333349213
 20
80.4823019191
 10
150.3337167304
 20
80.4915637982
 10
150.3340671189
 20
80.5034410009
 10
150.3343959215
 20
80.517737715
 10
150.3346897669
 20
80.5338665043
 10
150.3351694893
 20
80.5717735682
  0
LINE
  5
5FF
100
AcDbEntity
  8
0
100
AcDbLine
 62
7
  6
CONTINUOUS
 10
148.6147189837
 20
93.6755167158
 11
148.6976976972
 21
93.7730169017
  0
LINE
  5
600
100
AcDbEntity
  8
RACCORDO
100
AcDbLine
 62
253
  6
CONTINUOUS
 10
137.6399941312
 20
83.2407330732
 11
137.6288921899
 21
83.2295719881
  0
LINE
  5
601
100
AcDbEntity
  8
RACCORDO
100
AcDbLine
 62
253
  6
CONTINUOUS
 10
149.6069643158
 20
95.2077946407
 11
149.6218223468
 21
95.2227118153
  0
LINE
  5
602
100
AcDbEntity
  8
RACCORDO
100
AcDbLine
 62
253
  6
CONTINUOUS
 10
137.9398946319
 20
82.9407249568
 11
137.9287873548
 21
82.9296176796
  0
LINE
  5
603
100
AcDbEntity
  8
RACCORDO
100
AcDbLine
 62
253
  6
CONTINUOUS
 10
137.5279639052
 20
81.5287371155
 11
137.534968246
 21
81.5357414563
  0
LINE
  5
604
100
AcDbEntity
  8
0
100
AcDbLine
 62
7
  6
CONTINUOUS
 10
148.5593998413
 20
93.7973920877
 11
148.504080699
 21
93.7486417158
  0
LINE
  5
605
100
AcDbEntity
  8
0
100
AcDbLine
 62
7
  6
CONTINUOUS
 10
148.504080699
 20
93.6023917158
 11
148.6147189837
 21
93.6755167158
  0
LINE
  5
606
100
AcDbEntity
  8
DRAFT
100
AcDbLine
 62
7
  6
CONTINUOUS
 10
152.3253572684
 20
109.8293171889
 11
151.7253572684
 21
109.81884415
  0
LINE
  5
607
100
AcDbEntity
  8
DRAFT
100
AcDbLine
 62
7
  6
CONTINUOUS
 10
132.5253572684
 20
109.8014517459
 11
133.1253572684
 21
109.8074983577
  0
LINE
  5
608
100
AcDbEntity
  8
DRAFT
100
AcDbLine
 62
7
  6
CONTINUOUS
 10
132.6357541966
 20
109.7761419017
 11
131.3253572684
 21
109.7761419017
  0
LINE
  5
609
100
AcDbEntity
  8
DRAFT
100
AcDbLine
 62
7
  6
CONTINUOUS
 10
152.2149603401
 20
109.7761419017
 11
153.5253572684
 21
109.7761419017
  0
LINE
  5
60A
100
AcDbEntity
  8
RACCORDO
100
AcDbLine
 62
7
  6
CONTINUOUS
 10
152.7549646359
 20
109.8293171889
 11
152.3253572684
 21
109.8293171889
  0
LINE
  5
60B
100
AcDbEntity
  8
RACCORDO
100
AcDbLine
 62
7
  6
CONTINUOUS
 10
132.5253572684
 20
109.8293171889
 11
132.0957499008
 21
109.8293171889
  0
LINE
  5
60C
100
AcDbEntity
  8
DRAFT
100
AcDbLine
 62
7
  6
CONTINUOUS
 10
151.7253572684
 20
109.8074983577
 11
152.3253572684
 21
109.8014517459
  0
LINE
  5
60D
100
AcDbEntity
  8
DRAFT
100
AcDbLine
 62
7
  6
CONTINUOUS
 10
133.1253572684
 20
109.81884415
 11
132.5253572684
 21
109.8293171889
  0
LINE
  5
60E
100
AcDbEntity
  8
DRAFT
100
AcDbLine
 62
7
  6
CONTINUOUS
 10
152.3444013204
 20
108.2198267119
 11
152.3672547429
 21
108.2123349371
  0
LINE
  5
60F
100
AcDbEntity
  8
RACCORDO
100
AcDbLine
 62
253
  6
CONTINUOUS
 10
137.5279639052
 20
119.923546688
 11
137.5415787319
 21
119.9099318613
  0
LWPOLYLINE
  5
610
100
AcDbEntity
  8
RACCORDO
100
AcDbPolyline
 62
7
  6
CONTINUOUS
 90
5
 70
0
 10
152.2223343276
 20
99.1477166255
 10
152.2335880701
 20
99.1184231788
 10
152.2417161125
 20
99.0881222872
 10
152.2466324454
 20
99.0571444561
 10
152.2482854623
 20
99.0258287253
  0
LWPOLYLINE
  5
611
100
AcDbEntity
  8
RACCORDO
100
AcDbPolyline
 62
7
  6
CONTINUOUS
 90
13
 70
0
 10
152.3205995372
 20
121.1871013249
 10
152.3179508874
 20
121.2260980724
 10
152.3102282268
 20
121.2644142298
 10
152.2975676834
 20
121.3013993981
 10
152.2801920029
 20
121.3364252097
 10
152.2583997188
 20
121.3689005853
 10
152.2325553125
 20
121.3982787349
 10
152.2030904525
 20
121.4240658916
 10
152.1705136224
 20
121.445816068
 10
152.1353958173
 20
121.4631475334
 10
152.0983438263
 20
121.4757683842
 10
152.0599855312
 20
121.4834747632
 10
152.0209746246
 20
121.4861419017
  0
LINE
  5
612
100
AcDbEntity
  8
RACCORDO
100
AcDbLine
 62
253
  6
CONTINUOUS
 10
152.7549646359
 20
109.8293171889
 11
152.7549646359
 21
113.8229666146
  0
LINE
  5
613
100
AcDbEntity
  8
RACCORDO
100
AcDbLine
 62
253
  6
CONTINUOUS
 10
153.2522255836
 20
109.821501932
 11
153.2522255836
 21
113.8307818715
  0
LINE
  5
614
100
AcDbEntity
  8
RACCORDO
100
AcDbLine
 62
7
  6
CONTINUOUS
 10
153.5253572684
 20
87.6261419017
 11
153.5253572684
 21
100.1932713376
  0
LINE
  5
615
100
AcDbEntity
  8
RACCORDO
100
AcDbLine
 62
7
  6
CONTINUOUS
 10
153.5253572684
 20
101.2476675377
 11
153.5253572684
 21
109.7761419017
  0
LINE
  5
616
100
AcDbEntity
  8
DRAFT
100
AcDbLine
 62
7
  6
CONTINUOUS
 10
153.5253572684
 20
109.7761419017
 11
153.5253572684
 21
113.8761419017
  0
LINE
  5
617
100
AcDbEntity
  8
RACCORDO
100
AcDbLine
 62
7
  6
CONTINUOUS
 10
153.5253572684
 20
113.8761419017
 11
153.5253572684
 21
122.5475299977
  0
LINE
  5
618
100
AcDbEntity
  8
RACCORDO
100
AcDbLine
 62
7
  6
CONTINUOUS
 10
153.497712968
 20
79.028210457
 11
153.5253572684
 21
87.6261419017
  0
LWPOLYLINE
  5
619
100
AcDbEntity
  8
RACCORDO
100
AcDbPolyline
 62
253
  6
CONTINUOUS
 90
16
 70
0
 10
152.2556295719
 20
80.7581896632
 10
152.2539475542
 20
80.7268858836
 10
152.2490020525
 20
80.6959409645
 10
152.2408478095
 20
80.6656911069
 10
152.2295742444
 20
80.6364621822
 10
152.2153052951
 20
80.6085748386
 10
152.1981993944
 20
80.5823403544
 10
152.1784467152
 20
80.5580459275
 10
152.1562633459
 20
80.53595175
 10
152.1318898259
 20
80.5162972052
 10
152.1055928705
 20
80.499296535
 10
152.0776598758
 20
80.4851336888
 10
152.0483921668
 20
80.4739616187
 10
152.0181076652
 20
80.4659028505
 10
151.9871380453
 20
80.4610468897
 10
151.9558212859
 20
80.4594480918
  0
LWPOLYLINE
  5
61A
100
AcDbEntity
  8
RACCORDO
100
AcDbPolyline
 62
253
  6
CONTINUOUS
 90
16
 70
0
 10
152.0684325616
 20
80.7497778467
 10
152.0678379578
 20
80.739009838
 10
152.0662083959
 20
80.7285942536
 10
152.0635438657
 20
80.7185310961
 10
152.0597924056
 20
80.7087195284
 10
152.0550059545
 20
80.6992603901
 10
152.0493403543
 20
80.6904561954
 10
152.0427672633
 20
80.6823281615
 10
152.0353150024
 20
80.6748550642
 10
152.027224413
 20
80.6682757519
 10
152.0184768188
 20
80.6626189167
 10
152.0090908854
 20
80.6578558529
 10
151.999363476
 20
80.65413931
 10
151.9893935481
 20
80.6515201998
 10
151.9790821482
 20
80.6499475959
 10
151.9684292792
 20
80.6494214908
  0
LINE
  5
61B
100
AcDbEntity
  8
RACCORDO
100
AcDbLine
 62
7
  6
CONTINUOUS
 10
150.3287873548
 20
80.444573112
 11
150.3325494203
 21
80.4710366954
  0
LINE
  5
61C
100
AcDbEntity
  8
RACCORDO
100
AcDbLine
 62
253
  6
CONTINUOUS
 10
137.8352243471
 20
81.2360204036
 11
137.8279524821
 21
81.2287485386
  0
LWPOLYLINE
  5
61D
100
AcDbEntity
  8
RACCORDO
100
AcDbPolyline
 62
7
  6
CONTINUOUS
 90
10
 70
0
 10
137.121896721
 20
81.4646996833
 10
137.101454673
 20
81.4459237423
 10
137.0829150743
 20
81.4252491346
 10
137.0663710511
 20
81.4026758601
 10
137.0514910517
 20
81.377883319
 10
137.0386069509
 20
81.3511921112
 10
137.0286336016
 20
81.3235640358
 10
137.0217186612
 20
81.2953196926
 10
137.0173729454
 20
81.2661384819
 10
137.0154901896
 20
81.2360204036
  0
LINE
  5
61E
100
AcDbEntity
  8
RACCORDO
100
AcDbLine
 62
7
  6
CONTINUOUS
 10
131.3253572684
 20
109.7761419017
 11
131.5984889531
 21
109.821501932
  0
LINE
  5
61F
100
AcDbEntity
  8
RACCORDO
100
AcDbLine
 62
7
  6
CONTINUOUS
 10
153.5253572684
 20
113.8761419017
 11
153.2522255836
 21
113.8307818715
  0
LINE
  5
620
100
AcDbEntity
  8
RACCORDO
100
AcDbLine
 62
7
  6
CONTINUOUS
 10
153.5253572684
 20
109.7761419017
 11
153.2522255836
 21
109.821501932
  0
LINE
  5
621
100
AcDbEntity
  8
RACCORDO
100
AcDbLine
 62
7
  6
CONTINUOUS
 10
131.3253572684
 20
113.8761419017
 11
131.5984889531
 21
113.8307818715
  0
LINE
  5
622
100
AcDbEntity
  8
DRAFT
100
AcDbLine
 62
7
  6
CONTINUOUS
 10
152.3102907252
 20
108.2311851587
 11
152.3444013204
 21
108.2198267119
  0
LWPOLYLINE
  5
623
100
AcDbEntity
  8
DRAFT
100
AcDbPolyline
 62
7
  6
CONTINUOUS
 90
3
 70
0
 10
152.2651296487
 20
108.2465653734
 10
152.276385538
 20
108.2426946856
 10
152.3102907252
 20
108.2311851587
  0
LINE
  5
624
100
AcDbEntity
  8
RACCORDO
100
AcDbLine
 62
253
  6
CONTINUOUS
 10
137.8279524821
 20
120.2235352649
 11
137.8415283618
 21
120.2099593853
  0
LINE
  5
625
100
AcDbEntity
  8
DRAFT
100
AcDbLine
 62
7
  6
CONTINUOUS
 10
133.1253572684
 20
113.8334396535
 11
132.5253572684
 21
113.8229666146
  0
LINE
  5
626
100
AcDbEntity
  8
DRAFT
100
AcDbLine
 62
7
  6
CONTINUOUS
 10
151.7253572684
 20
113.8447854457
 11
152.3253572684
 21
113.8508320576
  0
LINE
  5
627
100
AcDbEntity
  8
RACCORDO
100
AcDbLine
 62
7
  6
CONTINUOUS
 10
152.7549646359
 20
113.8229666146
 11
152.3253572684
 21
113.8229666146
  0
LINE
  5
628
100
AcDbEntity
  8
RACCORDO
100
AcDbLine
 62
7
  6
CONTINUOUS
 10
132.5253572684
 20
113.8229666146
 11
132.0957499008
 21
113.8229666146
  0
LINE
  5
629
100
AcDbEntity
  8
RACCORDO
100
AcDbLine
 62
7
  6
CONTINUOUS
 10
152.3253572684
 20
113.8761419017
 11
152.0368256
 21
113.8761419017
  0
LINE
  5
62A
100
AcDbEntity
  8
DRAFT
100
AcDbLine
 62
7
  6
CONTINUOUS
 10
132.5253572684
 20
113.8761419017
 11
131.3253572684
 21
113.8761419017
  0
LINE
  5
62B
100
AcDbEntity
  8
RACCORDO
100
AcDbLine
 62
7
  6
CONTINUOUS
 10
132.5253572684
 20
113.8761419017
 11
132.813888934
 21
113.8761419017
  0
LINE
  5
62C
100
AcDbEntity
  8
DRAFT
100
AcDbLine
 62
7
  6
CONTINUOUS
 10
152.3253572684
 20
113.8761419017
 11
153.5253572684
 21
113.8761419017
  0
LINE
  5
62D
100
AcDbEntity
  8
DRAFT
100
AcDbLine
 62
7
  6
CONTINUOUS
 10
132.5253572684
 20
113.8508320576
 11
133.1253572684
 21
113.8447854457
  0
LINE
  5
62E
100
AcDbEntity
  8
DRAFT
100
AcDbLine
 62
7
  6
CONTINUOUS
 10
152.3253572684
 20
113.8229666146
 11
151.7253572684
 21
113.8334396535
  0
LWPOLYLINE
  5
62F
100
AcDbEntity
  8
DRAFT
100
AcDbPolyline
 62
7
  6
CONTINUOUS
 90
10
 70
0
 10
149.1939050841
 20
121.2282943238
 10
149.1840741802
 20
121.2561566104
 10
149.1744221838
 20
121.2842176145
 10
149.1649490946
 20
121.3124773361
 10
149.1556660285
 20
121.3409382504
 10
149.1465618696
 20
121.3695978822
 10
149.1376032714
 20
121.3984488058
 10
149.1287791183
 20
121.427488546
 10
149.1201005257
 20
121.456719578
 10
149.1115674938
 20
121.4861419017
  0
LINE
  5
630
100
AcDbEntity
  8
DRAFT
100
AcDbLine
 62
7
  6
CONTINUOUS
 10
132.5404238116
 20
120.0210986447
 11
132.5063132163
 21
120.0324570915
  0
LWPOLYLINE
  5
631
100
AcDbEntity
  8
DRAFT
100
AcDbPolyline
 62
7
  6
CONTINUOUS
 90
3
 70
0
 10
132.585584888
 20
120.00571843
 10
132.5743289987
 20
120.0095891179
 10
132.5404238116
 20
120.0210986447
  0
LINE
  5
632
100
AcDbEntity
  8
RACCORDO
100
AcDbLine
 62
253
  6
CONTINUOUS
 10
147.6397310587
 20
83.2404700007
 11
147.6288921899
 21
83.2295719881
  0
LINE
  5
633
100
AcDbEntity
  8
RACCORDO
100
AcDbLine
 62
253
  6
CONTINUOUS
 10
147.9392679606
 20
82.9400982855
 11
147.9287873548
 21
82.9296176796
  0
LINE
  5
634
100
AcDbEntity
  8
DRAFT
100
AcDbLine
 62
7
  6
CONTINUOUS
 10
132.5063132163
 20
120.0324570915
 11
132.4834597938
 21
120.0399488664
  0
LWPOLYLINE
  5
635
100
AcDbEntity
  8
DRAFT
100
AcDbPolyline
 62
7
  6
CONTINUOUS
 90
6
 70
0
 10
134.7750305721
 20
121.5375454187
 10
134.801796837
 20
121.52705834
 10
134.8288186226
 20
121.5166740347
 10
134.8561460589
 20
121.5063938836
 10
134.8837290159
 20
121.4962165059
 10
134.9115674938
 20
121.4861419017
  0
LWPOLYLINE
  5
636
100
AcDbEntity
  8
DRAFT
100
AcDbPolyline
 62
7
  6
CONTINUOUS
 90
4
 70
0
 10
134.6688664365
 20
121.5804759044
 10
134.6952623059
 20
121.5695956813
 10
134.7217633066
 20
121.5588140894
 10
134.7750305721
 20
121.5375454187
  0
LINE
  5
637
100
AcDbEntity
  8
RACCORDO
100
AcDbLine
 62
253
  6
CONTINUOUS
 10
150.0378441281
 20
83.2385830701
 11
150.0288921899
 21
83.2295719881
  0
LINE
  5
638
100
AcDbEntity
  8
RACCORDO
100
AcDbLine
 62
253
  6
CONTINUOUS
 10
147.5279639052
 20
81.5287371155
 11
147.534968246
 21
81.5357414563
  0
LINE
  5
639
100
AcDbEntity
  8
RACCORDO
100
AcDbLine
 62
253
  6
CONTINUOUS
 10
147.8352243471
 20
81.2360204036
 11
147.8279524821
 21
81.2287485386
  0
LINE
  5
63A
100
AcDbEntity
  8
RACCORDO
100
AcDbLine
 62
253
  6
CONTINUOUS
 10
150.337305223
 20
82.9381355478
 11
150.3287873548
 21
82.9296176796
  0
LWPOLYLINE
  5
63B
100
AcDbEntity
  8
RACCORDO
100
AcDbPolyline
 62
7
  6
CONTINUOUS
 90
10
 70
0
 10
147.121896721
 20
81.4646996833
 10
147.101454673
 20
81.4459237423
 10
147.0829150743
 20
81.4252491346
 10
147.0663710511
 20
81.4026758601
 10
147.0514910517
 20
81.377883319
 10
147.0386069509
 20
81.3511921112
 10
147.0286336016
 20
81.3235640358
 10
147.0217186612
 20
81.2953196926
 10
147.0173729454
 20
81.2661384819
 10
147.0154901896
 20
81.2360204036
  0
LWPOLYLINE
  5
63C
100
AcDbEntity
  8
RACCORDO
100
AcDbPolyline
 62
7
  6
CONTINUOUS
 90
15
 70
0
 10
137.2778833452
 20
119.9116513205
 10
137.2468997605
 20
119.9165677215
 10
137.2165930489
 20
119.9246979998
 10
137.1872822947
 20
119.9359614263
 10
137.1593038811
 20
119.950233398
 10
137.1330009537
 20
119.9673329804
 10
137.1086927979
 20
119.9870294372
 10
137.086592605
 20
120.0091249966
 10
137.0668678278
 20
120.0334588441
 10
137.0497173171
 20
120.059837765
 10
137.0353932268
 20
120.0879342533
 10
137.0241017369
 20
120.1173597667
 10
137.0159674527
 20
120.1477571338
 10
137.0110610861
 20
120.1788189153
 10
137.0094299862
 20
120.2102031965
  0
LINE
  5
63D
100
AcDbEntity
  8
RACCORDO
100
AcDbLine
 62
253
  6
CONTINUOUS
 10
147.5279639052
 20
119.923546688
 11
147.5415101533
 21
119.9100004398
  0
LINE
  5
63E
100
AcDbEntity
  8
RACCORDO
100
AcDbLine
 62
253
  6
CONTINUOUS
 10
147.8279524821
 20
120.2235352649
 11
147.8412845505
 21
120.2102031965
  0
LWPOLYLINE
  5
63F
100
AcDbEntity
  8
RACCORDO
100
AcDbPolyline
 62
253
  6
CONTINUOUS
 90
16
 70
0
 10
147.5279639052
 20
119.923546688
 10
147.5593197844
 20
119.9251922906
 10
147.5903321584
 20
119.9301062957
 10
147.6206612806
 20
119.9382348707
 10
147.6499748994
 20
119.9494889714
 10
147.6779518672
 20
119.9637453057
 10
147.7042856639
 20
119.9808476748
 10
147.7286877903
 20
120.0006087005
 10
147.7508909374
 20
120.0228118994
 10
147.7706518834
 20
120.0472140403
 10
147.7877541483
 20
120.0735477946
 10
147.8020103762
 20
120.1015246693
 10
147.813264395
 20
120.1308381839
 10
147.8213929164
 20
120.1611672091
 10
147.8263068898
 20
120.1921794838
 10
147.8279524821
 20
120.2235352649
  0
LWPOLYLINE
  5
640
100
AcDbEntity
  8
RACCORDO
100
AcDbPolyline
 62
253
  6
CONTINUOUS
 90
16
 70
0
 10
137.5279639052
 20
119.923546688
 10
137.5593197844
 20
119.9251922906
 10
137.5903321584
 20
119.9301062957
 10
137.6206612806
 20
119.9382348707
 10
137.6499748994
 20
119.9494889714
 10
137.6779518672
 20
119.9637453057
 10
137.7042856639
 20
119.9808476748
 10
137.7286877903
 20
120.0006087005
 10
137.7508909374
 20
120.0228118994
 10
137.7706518834
 20
120.0472140403
 10
137.7877541483
 20
120.0735477946
 10
137.8020103762
 20
120.1015246693
 10
137.813264395
 20
120.1308381839
 10
137.8213929164
 20
120.1611672091
 10
137.8263068898
 20
120.1921794838
 10
137.8279524821
 20
120.2235352649
  0
LWPOLYLINE
  5
641
100
AcDbEntity
  8
RACCORDO
100
AcDbPolyline
 62
253
  6
CONTINUOUS
 90
13
 70
0
 10
132.8093428223
 20
120.7641499042
 10
132.7848704088
 20
120.7639911619
 10
132.7609638443
 20
120.7637055762
 10
132.7379867935
 20
120.7632974914
 10
132.7162887812
 20
120.7627731153
 10
132.6961998756
 20
120.762140425
 10
132.6780256673
 20
120.7614090451
 10
132.6620426208
 20
120.7605901022
 10
132.6484938688
 20
120.7596960543
 10
132.6375855136
 20
120.758740502
 10
132.6294834923
 20
120.7577379816
 10
132.624311052
 20
120.7567037446
 10
132.6221468756
 20
120.7556535247
  0
LWPOLYLINE
  5
642
100
AcDbEntity
  8
RACCORDO
100
AcDbPolyline
 62
253
  6
CONTINUOUS
 90
3
 70
0
 10
147.8410244639
 20
120.8404698166
 10
148.5104683035
 20
120.8434699748
 10
151.94143909
 20
120.8644047318
  0
LINE
  5
643
100
AcDbEntity
  8
RACCORDO
100
AcDbLine
 62
7
  6
CONTINUOUS
 10
147.3091358048
 20
119.9099318613
 11
147.5415101533
 21
119.9100004398
  0
LINE
  5
644
100
AcDbEntity
  8
RACCORDO
100
AcDbLine
 62
7
  6
CONTINUOUS
 10
137.3227506315
 20
119.923546688
 11
137.5279639052
 21
119.923546688
  0
LINE
  5
645
100
AcDbEntity
  8
RACCORDO
100
AcDbLine
 62
7
  6
CONTINUOUS
 10
147.3227506315
 20
119.923546688
 11
147.5279639052
 21
119.923546688
  0
LINE
  5
646
100
AcDbEntity
  8
RACCORDO
100
AcDbLine
 62
253
  6
CONTINUOUS
 10
137.0227620546
 20
120.2235352649
 11
137.8279524821
 21
120.2235352649
  0
LINE
  5
647
100
AcDbEntity
  8
RACCORDO
100
AcDbLine
 62
253
  6
CONTINUOUS
 10
147.0227620546
 20
120.2235352649
 11
147.8279524821
 21
120.2235352649
  0
LINE
  5
648
100
AcDbEntity
  8
RACCORDO
100
AcDbLine
 62
7
  6
CONTINUOUS
 10
137.3092043834
 20
119.9100004398
 11
137.5415787319
 21
119.9099318613
  0
LWPOLYLINE
  5
649
100
AcDbEntity
  8
RACCORDO
100
AcDbPolyline
 62
253
  6
CONTINUOUS
 90
7
 70
0
 10
137.8412655592
 20
120.8372193322
 10
139.3890924466
 20
120.8326427375
 10
140.9292026714
 20
120.8299078737
 10
142.4614413245
 20
120.8290063071
 10
143.9856581803
 20
120.8299298324
 10
145.5017076965
 20
120.832670182
 10
147.0094490116
 20
120.8372193323
  0
LWPOLYLINE
  5
64A
100
AcDbEntity
  8
RACCORDO
100
AcDbPolyline
 62
253
  6
CONTINUOUS
 90
13
 70
0
 10
152.0413717137
 20
120.7641499038
 10
152.0658460376
 20
120.763991114
 10
152.089754581
 20
120.7637054882
 10
152.1127336338
 20
120.7632973714
 10
152.1344336255
 20
120.7627729721
 10
152.1545244436
 20
120.7621402679
 10
152.1727004551
 20
120.7614088837
 10
152.1886851562
 20
120.7605899457
 10
152.2022353786
 20
120.759695912
 10
152.2131449887
 20
120.7587403831
 10
152.2212480231
 20
120.7577378948
 10
152.226421214
 20
120.7567036977
 10
152.2285858636
 20
120.7556535247
  0
LWPOLYLINE
  5
64B
100
AcDbEntity
  8
RACCORDO
100
AcDbPolyline
 62
253
  6
CONTINUOUS
 90
3
 70
0
 10
132.9092754467
 20
120.8644047318
 10
133.6018908355
 20
120.859446122
 10
137.0096900969
 20
120.8404698165
  0
LINE
  5
64C
100
AcDbEntity
  8
RACCORDO
100
AcDbLine
 62
7
  6
CONTINUOUS
 10
147.3091358048
 20
119.9099318613
 11
147.2777955066
 21
119.9115639675
  0
LINE
  5
64D
100
AcDbEntity
  8
RACCORDO
100
AcDbLine
 62
7
  6
CONTINUOUS
 10
137.3092043834
 20
119.9100004398
 11
137.2778833452
 21
119.9116513205
  0
LWPOLYLINE
  5
64E
100
AcDbEntity
  8
RACCORDO
100
AcDbPolyline
 62
7
  6
CONTINUOUS
 90
15
 70
0
 10
147.2777955066
 20
119.9115639675
 10
147.2467925255
 20
119.916462455
 10
147.2164663584
 20
119.9245759133
 10
147.1871358026
 20
119.9358237421
 10
147.1591378472
 20
119.9500816595
 10
147.1328170125
 20
119.9671690034
 10
147.1084926365
 20
119.9868551169
 10
147.0863780717
 20
120.0089420109
 10
147.0666419342
 20
120.0332682119
 10
147.0494827656
 20
120.0596404127
 10
147.0351525473
 20
120.0877306458
 10
147.023857979
 20
120.1171487204
 10
147.0157229666
 20
120.1475366884
 10
147.0108169079
 20
120.1785875038
 10
147.009186175
 20
120.2099593853
  0
LWPOLYLINE
  5
64F
100
AcDbEntity
  8
RACCORDO
100
AcDbPolyline
 62
253
  6
CONTINUOUS
 90
3
 70
0
 10
147.8394930897
 20
121.0294073165
 10
148.5069627518
 20
121.0325281667
 10
151.928928999
 20
121.0543428389
  0
LINE
  5
650
100
AcDbEntity
  8
DRAFT
100
AcDbLine
 62
7
  6
CONTINUOUS
 10
149.8568094526
 20
121.2282943238
 11
149.1939050841
 21
121.2282943238
  0
LINE
  5
651
100
AcDbEntity
  8
DRAFT
100
AcDbLine
 62
7
  6
CONTINUOUS
 10
135.6568094526
 20
121.2282943238
 11
134.9939050841
 21
121.2282943238
  0
LINE
  5
652
100
AcDbEntity
  8
RACCORDO
100
AcDbLine
 62
7
  6
CONTINUOUS
 10
137.3227506315
 20
121.2282943238
 11
137.5279639052
 21
121.2282943238
  0
LINE
  5
653
100
AcDbEntity
  8
RACCORDO
100
AcDbLine
 62
7
  6
CONTINUOUS
 10
147.3227506315
 20
121.2282943238
 11
147.5279639052
 21
121.2282943238
  0
LINE
  5
654
100
AcDbEntity
  8
RACCORDO
100
AcDbLine
 62
7
  6
CONTINUOUS
 10
144.3805480894
 20
121.3694965689
 11
140.4701664473
 21
121.3694965689
  0
LINE
  5
655
100
AcDbEntity
  8
RACCORDO
100
AcDbLine
 62
7
  6
CONTINUOUS
 10
132.8297399121
 20
121.4861419017
 11
134.9115674938
 21
121.4861419017
  0
LINE
  5
656
100
AcDbEntity
  8
DRAFT
100
AcDbLine
 62
7
  6
CONTINUOUS
 10
135.7391470429
 20
121.4861419017
 11
140.1587749567
 21
121.4861419017
  0
LINE
  5
657
100
AcDbEntity
  8
DRAFT
100
AcDbLine
 62
7
  6
CONTINUOUS
 10
144.69193958
 20
121.4861419017
 11
149.1115674938
 21
121.4861419017
  0
LINE
  5
658
100
AcDbEntity
  8
RACCORDO
100
AcDbLine
 62
7
  6
CONTINUOUS
 10
149.9391470429
 20
121.4861419017
 11
152.0209746246
 21
121.4861419017
  0
LINE
  5
659
100
AcDbEntity
  8
RACCORDO
100
AcDbLine
 62
7
  6
CONTINUOUS
 10
132.783151492
 20
121.5804759044
 11
134.6688664365
 21
121.5804759044
  0
LINE
  5
65A
100
AcDbEntity
  8
DRAFT
100
AcDbLine
 62
7
  6
CONTINUOUS
 10
135.9818481002
 20
121.5804759044
 11
140.1273558398
 21
121.5804759044
  0
LINE
  5
65B
100
AcDbEntity
  8
DRAFT
100
AcDbLine
 62
7
  6
CONTINUOUS
 10
144.7233586969
 20
121.5804759044
 11
148.8688664365
 21
121.5804759044
  0
LINE
  5
65C
100
AcDbEntity
  8
RACCORDO
100
AcDbLine
 62
7
  6
CONTINUOUS
 10
150.1818481002
 20
121.5804759044
 11
152.0675630447
 21
121.5804759044
  0
LWPOLYLINE
  5
65D
100
AcDbEntity
  8
RACCORDO
100
AcDbPolyline
 62
253
  6
CONTINUOUS
 90
7
 70
0
 10
137.8397337459
 20
121.0260213523
 10
139.3887089658
 20
121.02124755
 10
140.9295105675
 20
121.0183832687
 10
142.4621385508
 20
121.0174285082
 10
143.9865929158
 20
121.0183832687
 10
145.5028736625
 20
121.02124755
 10
147.0109807908
 20
121.0260213523
  0
LWPOLYLINE
  5
65E
100
AcDbEntity
  8
RACCORDO
100
AcDbPolyline
 62
253
  6
CONTINUOUS
 90
3
 70
0
 10
132.9217855387
 20
121.0543428391
 10
133.6127896453
 20
121.0491801138
 10
137.011221447
 20
121.0294073165
  0
LWPOLYLINE
  5
65F
100
AcDbEntity
  8
RACCORDO
100
AcDbPolyline
 62
253
  6
CONTINUOUS
 90
16
 70
0
 10
151.94143909
 20
120.8644047318
 10
151.952083995
 20
120.8638817549
 10
151.9623888075
 20
120.8623131199
 10
151.9723535239
 20
120.8596988195
 10
151.9820779737
 20
120.8559880107
 10
151.9914623216
 20
120.8512315218
 10
152.0002070736
 20
120.8455818511
 10
152.0082921753
 20
120.8390100351
 10
152.0157376918
 20
120.8315450236
 10
152.0223043191
 20
120.8234261869
 10
152.0279640661
 20
120.814633741
 10
152.0327449462
 20
120.8051874626
 10
152.0364916686
 20
120.7953860668
 10
152.039152479
 20
120.7853291266
 10
152.0407791571
 20
120.7749170715
 10
152.0413717141
 20
120.764149904
  0
LWPOLYLINE
  5
660
100
AcDbEntity
  8
RACCORDO
100
AcDbPolyline
 62
253
  6
CONTINUOUS
 90
16
 70
0
 10
151.9289289298
 20
121.0543425113
 10
151.9602102646
 20
121.0527213745
 10
151.9911478676
 20
121.0478499963
 10
152.0214047026
 20
121.0397815333
 10
152.0506511813
 20
121.0286036524
 10
152.0785680681
 20
121.0144378167
 10
152.1048500793
 20
120.9974382046
 10
152.1292091113
 20
120.9777896689
 10
152.1513804764
 20
120.9557055514
 10
152.1711243483
 20
120.9314249018
 10
152.1882240847
 20
120.9052092674
 10
152.20249108
 20
120.8773437653
 10
152.2137690773
 20
120.8481332538
 10
152.2219330127
 20
120.8178952646
 10
152.2268908315
 20
120.7869567651
 10
152.2285858636
 20
120.7556535154
  0
LINE
  5
661
100
AcDbEntity
  8
DRAFT
100
AcDbLine
 62
7
  6
CONTINUOUS
 10
152.3330085535
 20
118.823596871
 11
152.3672547429
 21
118.8123349371
  0
LINE
  5
662
100
AcDbEntity
  8
DRAFT
100
AcDbLine
 62
7
  6
CONTINUOUS
 10
152.2989660304
 20
118.8350044348
 11
152.3330085535
 21
118.823596871
  0
LINE
  5
663
100
AcDbEntity
  8
DRAFT
100
AcDbLine
 62
7
  6
CONTINUOUS
 10
152.2651296487
 20
118.8465653734
 11
152.2989660304
 21
118.8350044348
  0
LWPOLYLINE
  5
664
100
AcDbEntity
  8
DRAFT
100
AcDbPolyline
 62
7
  6
CONTINUOUS
 90
6
 70
0
 10
148.9750305721
 20
121.5375454187
 10
149.001796837
 20
121.52705834
 10
149.0288186226
 20
121.5166740347
 10
149.0561460589
 20
121.5063938836
 10
149.0837290159
 20
121.4962165059
 10
149.1115674938
 20
121.4861419017
  0
LWPOLYLINE
  5
665
100
AcDbEntity
  8
DRAFT
100
AcDbPolyline
 62
7
  6
CONTINUOUS
 90
4
 70
0
 10
148.8688664365
 20
121.5804759044
 10
148.8952623059
 20
121.5695956813
 10
148.9217633066
 20
121.5588140894
 10
148.9750305721
 20
121.5375454187
  0
LINE
  5
666
100
AcDbEntity
  8
RACCORDO
100
AcDbLine
 62
7
  6
CONTINUOUS
 10
144.3805480894
 20
122.9034088398
 11
140.4701664473
 21
122.9034088398
  0
LINE
  5
667
100
AcDbEntity
  8
RACCORDO
100
AcDbLine
 62
7
  6
CONTINUOUS
 10
153.0258711047
 20
123.0475302328
 11
144.7233586969
 21
123.0475302328
  0
LINE
  5
668
100
AcDbEntity
  8
RACCORDO
100
AcDbLine
 62
7
  6
CONTINUOUS
 10
140.1273558398
 20
123.0475302328
 11
131.824843432
 21
123.0475302328
  0
ARC
  5
669
100
AcDbEntity
  8
RACCORDO
100
AcDbCircle
 62
7
  6
CONTINUOUS
 10
145.6003572684
 20
100.7261419017
 40
2.6157095584
100
AcDbArc
 50
270.0
 51
288.4051404758
  0
ARC
  5
66A
100
AcDbEntity
  8
RACCORDO
100
AcDbCircle
 62
7
  6
CONTINUOUS
 10
139.2503572684
 20
100.7261419017
 40
2.6157095584
100
AcDbArc
 50
251.5948595242
 51
270.0
  0
ARC
  5
66B
100
AcDbEntity
  8
RACCORDO
100
AcDbCircle
 62
7
  6
CONTINUOUS
 10
139.2503572684
 20
100.7261419017
 40
2.6157095584
100
AcDbArc
 50
90.0
 51
108.4051404758
  0
ARC
  5
66C
100
AcDbEntity
  8
RACCORDO
100
AcDbCircle
 62
7
  6
CONTINUOUS
 10
145.6003572684
 20
100.7261419017
 40
2.6157095584
100
AcDbArc
 50
71.5948595242
 51
90.0
  0
ARC
  5
66D
100
AcDbEntity
  8
RACCORDO
100
AcDbCircle
 62
253
  6
CONTINUOUS
 10
145.6003572684
 20
100.7261419017
 40
2.6034300864
100
AcDbArc
 50
270.0
 51
325.0476998797
  0
ARC
  5
66E
100
AcDbEntity
  8
RACCORDO
100
AcDbCircle
 62
253
  6
CONTINUOUS
 10
139.2503572684
 20
100.7261419017
 40
2.6034300864
100
AcDbArc
 50
214.9522557794
 51
270.0
  0
ARC
  5
66F
100
AcDbEntity
  8
RACCORDO
100
AcDbCircle
 62
253
  6
CONTINUOUS
 10
139.2503572684
 20
100.7261419017
 40
2.6034300864
100
AcDbArc
 50
90.0
 51
145.047699839
  0
ARC
  5
670
100
AcDbEntity
  8
RACCORDO
100
AcDbCircle
 62
253
  6
CONTINUOUS
 10
145.6003572684
 20
100.7261419017
 40
2.6034300864
100
AcDbArc
 50
34.9522558387
 51
90.0
  0
ARC
  5
671
100
AcDbEntity
  8
RACCORDO
100
AcDbCircle
 62
253
  6
CONTINUOUS
 10
145.6003572684
 20
100.7261419017
 40
2.4034605474
100
AcDbArc
 50
270.0
 51
325.0464456933
  0
ARC
  5
672
100
AcDbEntity
  8
RACCORDO
100
AcDbCircle
 62
253
  6
CONTINUOUS
 10
139.2503572684
 20
100.7261419017
 40
2.4034605474
100
AcDbArc
 50
214.9535543068
 51
270.0
  0
ARC
  5
673
100
AcDbEntity
  8
RACCORDO
100
AcDbCircle
 62
253
  6
CONTINUOUS
 10
145.6003572684
 20
100.7261419017
 40
2.4034605474
100
AcDbArc
 50
34.9535543069
 51
90.0
  0
ARC
  5
674
100
AcDbEntity
  8
RACCORDO
100
AcDbCircle
 62
253
  6
CONTINUOUS
 10
139.2503572684
 20
100.7261419017
 40
2.4034605474
100
AcDbArc
 50
90.0
 51
145.0464456934
  0
ARC
  5
675
100
AcDbEntity
  8
RACCORDO
100
AcDbCircle
 62
7
  6
CONTINUOUS
 10
139.2503572684
 20
100.7261419017
 40
2.125
100
AcDbArc
 50
206.5462398925
 51
270.0
  0
ARC
  5
676
100
AcDbEntity
  8
RACCORDO
100
AcDbCircle
 62
7
  6
CONTINUOUS
 10
145.6003572684
 20
100.7261419017
 40
2.125
100
AcDbArc
 50
270.0
 51
333.453758012
  0
ARC
  5
677
100
AcDbEntity
  8
RACCORDO
100
AcDbCircle
 62
7
  6
CONTINUOUS
 10
145.6003572684
 20
100.7261419017
 40
2.125
100
AcDbArc
 50
26.5462431996
 51
90.0
  0
ARC
  5
678
100
AcDbEntity
  8
RACCORDO
100
AcDbCircle
 62
7
  6
CONTINUOUS
 10
139.2503572684
 20
100.7261419017
 40
2.125
100
AcDbArc
 50
90.0
 51
153.4537581979
  0
ARC
  5
679
100
AcDbEntity
  8
RACCORDO
100
AcDbCircle
 62
7
  6
CONTINUOUS
 10
145.6003572684
 20
100.7261419017
 40
1.525
100
AcDbArc
 50
269.9999882847
 51
343.0879461817
  0
ARC
  5
67A
100
AcDbEntity
  8
RACCORDO
100
AcDbCircle
 62
7
  6
CONTINUOUS
 10
139.2503572684
 20
100.7261419017
 40
1.525
100
AcDbArc
 50
196.9120538183
 51
270.0
  0
ARC
  5
67B
100
AcDbEntity
  8
RACCORDO
100
AcDbCircle
 62
7
  6
CONTINUOUS
 10
139.2503572684
 20
100.7261419017
 40
1.525
100
AcDbArc
 50
89.9999882847
 51
163.0879461817
  0
ARC
  5
67C
100
AcDbEntity
  8
RACCORDO
100
AcDbCircle
 62
7
  6
CONTINUOUS
 10
145.6003572684
 20
100.7261419017
 40
1.525
100
AcDbArc
 50
16.9120538183
 51
90.0
  0
ARC
  5
67D
100
AcDbEntity
  8
DRAFT
100
AcDbCircle
 62
7
  6
CONTINUOUS
 10
133.3253572684
 20
119.4261419017
 40
1.0418974745
100
AcDbArc
 50
143.9051201278
 51
216.0948798722
  0
ARC
  5
67E
100
AcDbEntity
  8
DRAFT
100
AcDbCircle
 62
7
  6
CONTINUOUS
 10
151.5253572684
 20
108.8261419017
 40
1.0418974745
100
AcDbArc
 50
323.9051201278
 51
36.0948798722
  0
ARC
  5
67F
100
AcDbEntity
  8
DRAFT
100
AcDbCircle
 62
7
  6
CONTINUOUS
 10
133.3253572684
 20
108.8261419017
 40
1.0418974745
100
AcDbArc
 50
143.9051201278
 51
216.0948798722
  0
ARC
  5
680
100
AcDbEntity
  8
DRAFT
100
AcDbCircle
 62
7
  6
CONTINUOUS
 10
151.5253572684
 20
119.4261419017
 40
1.0418974745
100
AcDbArc
 50
323.9051201278
 51
36.0948798722
  0
ARC
  5
681
100
AcDbEntity
  8
DRAFT
100
AcDbCircle
 62
7
  6
CONTINUOUS
 10
149.5253572684
 20
120.8261419017
 40
1.0
100
AcDbArc
 50
48.9672103797
 51
131.0327896203
  0
ARC
  5
682
100
AcDbEntity
  8
DRAFT
100
AcDbCircle
 62
7
  6
CONTINUOUS
 10
135.3253572684
 20
120.8261419017
 40
1.0
100
AcDbArc
 50
48.9672103797
 51
131.0327896203
  0
ARC
  5
683
100
AcDbEntity
  8
DRAFT
100
AcDbCircle
 62
7
  6
CONTINUOUS
 10
133.3253572684
 20
119.4261419017
 40
0.9397723804
100
AcDbArc
 50
141.9229866671
 51
218.0770133329
  0
ARC
  5
684
100
AcDbEntity
  8
DRAFT
100
AcDbCircle
 62
7
  6
CONTINUOUS
 10
133.3253572684
 20
108.8261419017
 40
0.9397723804
100
AcDbArc
 50
141.9229866671
 51
218.0770133329
  0
ARC
  5
685
100
AcDbEntity
  8
DRAFT
100
AcDbCircle
 62
7
  6
CONTINUOUS
 10
151.5253572684
 20
119.4261419017
 40
0.9397723804
100
AcDbArc
 50
321.9229866671
 51
38.0770133329
  0
ARC
  5
686
100
AcDbEntity
  8
DRAFT
100
AcDbCircle
 62
7
  6
CONTINUOUS
 10
151.5253572684
 20
108.8261419017
 40
0.9397723804
100
AcDbArc
 50
321.9229866671
 51
38.0770133329
  0
ARC
  5
687
100
AcDbEntity
  8
DRAFT
100
AcDbCircle
 62
7
  6
CONTINUOUS
 10
135.3253572684
 20
120.8261419017
 40
0.5211402125
100
AcDbArc
 50
50.5048092782
 51
129.4951907218
  0
ARC
  5
688
100
AcDbEntity
  8
DRAFT
100
AcDbCircle
 62
7
  6
CONTINUOUS
 10
149.5253572684
 20
120.8261419017
 40
0.5211402125
100
AcDbArc
 50
50.5048092782
 51
129.4951907218
  0
ELLIPSE
  5
689
100
AcDbEntity
  8
RACCORDO
100
AcDbEllipse
 62
7
  6
CONTINUOUS
 10
131.7254943853
 20
100.1931799605
 30
0.0
 11
-0.3796255539
 21
0.1265161514
 31
0.0
 40
0.9996192872
 41
-1.2489924673
 42
0.3215754254
  0
ELLIPSE
  5
68A
100
AcDbEntity
  8
RACCORDO
100
AcDbEllipse
 62
7
  6
CONTINUOUS
 10
153.1252201514
 20
100.1931799605
 30
0.0
 11
-0.3796255539
 21
-0.1265161514
 31
0.0
 40
0.9996192872
 41
2.8200172282
 42
4.3905851209
  0
ELLIPSE
  5
68B
100
AcDbEntity
  8
RACCORDO
100
AcDbEllipse
 62
7
  6
CONTINUOUS
 10
140.3485623491
 20
78.5447299181
 30
0.0
 11
0.3
 21
-0.0
 31
0.0
 40
0.0524637553
 41
1.5707963268
 42
2.617993878
  0
ELLIPSE
  5
68C
100
AcDbEntity
  8
RACCORDO
100
AcDbEllipse
 62
7
  6
CONTINUOUS
 10
144.5021521876
 20
78.5447299181
 30
0.0
 11
0.3
 21
-0.0
 31
0.0
 40
0.0524637553
 41
0.5235987756
 42
1.5707963268
  0
ELLIPSE
  5
68D
100
AcDbEntity
  8
RACCORDO
100
AcDbEllipse
 62
7
  6
CONTINUOUS
 10
152.9975437631
 20
79.0288920092
 30
0.0
 11
0.4935682621
 21
0.0814692616
 31
0.0
 40
0.9943281033
 41
-1.7352995412
 42
-0.1658732105
  0
ELLIPSE
  5
68E
100
AcDbEntity
  8
RACCORDO
100
AcDbEllipse
 62
7
  6
CONTINUOUS
 10
131.8531707736
 20
79.0288920092
 30
0.0
 11
0.4935682621
 21
-0.0814692616
 31
0.0
 40
0.9943281033
 41
-2.9757194431
 42
-1.4062931124
  0
ELLIPSE
  5
68F
100
AcDbEntity
  8
RACCORDO
100
AcDbEllipse
 62
7
  6
CONTINUOUS
 10
147.7288178157
 20
80.4450016893
 30
0.0
 11
0.2
 21
0.0
 31
0.0
 40
0.1227845609
 41
-1.0097969533
 42
-0.0174532925
  0
ELLIPSE
  5
690
100
AcDbEntity
  8
RACCORDO
100
AcDbEllipse
 62
7
  6
CONTINUOUS
 10
147.121896721
 20
80.4450016893
 30
0.0
 11
0.2
 21
0.0
 31
0.0
 40
0.1227845609
 41
-3.1241393611
 42
-2.1317957003
  0
ELLIPSE
  5
691
100
AcDbEntity
  8
RACCORDO
100
AcDbEllipse
 62
7
  6
CONTINUOUS
 10
150.1288178157
 20
80.4450016893
 30
0.0
 11
0.2
 21
0.0
 31
0.0
 40
0.1227845609
 41
-1.5707963268
 42
-0.0174532925
  0
ELLIPSE
  5
692
100
AcDbEntity
  8
RACCORDO
100
AcDbEllipse
 62
7
  6
CONTINUOUS
 10
150.5113932164
 20
99.5626813544
 30
0.0
 11
-0.0
 21
0.2
 31
0.0
 40
0.0174550649
 41
-4.7123889804
 42
-3.1590459461
  0
ELLIPSE
  5
693
100
AcDbEntity
  8
RACCORDO
100
AcDbEllipse
 62
7
  6
CONTINUOUS
 10
134.3393213203
 20
99.5626813544
 30
0.0
 11
-0.0
 21
0.2
 31
0.0
 40
0.0174550649
 41
-3.1241393611
 42
-1.5707963268
  0
ELLIPSE
  5
694
100
AcDbEntity
  8
RACCORDO
100
AcDbEllipse
 62
7
  6
CONTINUOUS
 10
149.521896721
 20
80.4450016893
 30
0.0
 11
0.2
 21
0.0
 31
0.0
 40
0.1227845609
 41
-3.1241393611
 42
-1.5707963268
  0
ELLIPSE
  5
695
100
AcDbEntity
  8
RACCORDO
100
AcDbEllipse
 62
7
  6
CONTINUOUS
 10
137.7288178157
 20
80.4450016893
 30
0.0
 11
0.2
 21
0.0
 31
0.0
 40
0.1227845609
 41
-1.0097969533
 42
-0.0174532925
  0
ELLIPSE
  5
696
100
AcDbEntity
  8
RACCORDO
100
AcDbEllipse
 62
7
  6
CONTINUOUS
 10
137.121896721
 20
80.4450016893
 30
0.0
 11
0.2
 21
0.0
 31
0.0
 40
0.1227845609
 41
-3.1241393611
 42
-2.1317957003
  0
ELLIPSE
  5
697
100
AcDbEntity
  8
RACCORDO
100
AcDbEllipse
 62
7
  6
CONTINUOUS
 10
135.3288178157
 20
80.4450016893
 30
0.0
 11
0.2
 21
0.0
 31
0.0
 40
0.1227845609
 41
-1.5707963268
 42
-0.0174532925
  0
ELLIPSE
  5
698
100
AcDbEntity
  8
RACCORDO
100
AcDbEllipse
 62
7
  6
CONTINUOUS
 10
134.721896721
 20
80.4450016893
 30
0.0
 11
0.2
 21
0.0
 31
0.0
 40
0.1227845609
 41
-3.1241393611
 42
-1.5707963268
  0
ELLIPSE
  5
699
100
AcDbEntity
  8
RACCORDO
100
AcDbEllipse
 62
7
  6
CONTINUOUS
 10
149.521896721
 20
99.3347227849
 30
0.0
 11
0.2
 21
-0.0
 31
0.0
 40
0.0174550649
 41
1.5707963268
 42
3.1241393611
  0
ELLIPSE
  5
69A
100
AcDbEntity
  8
RACCORDO
100
AcDbEllipse
 62
7
  6
CONTINUOUS
 10
150.1288178157
 20
99.3347227849
 30
0.0
 11
0.2
 21
0.0
 31
0.0
 40
0.0174550649
 41
0.0174532925
 42
1.5707963268
  0
ELLIPSE
  5
69B
100
AcDbEntity
  8
RACCORDO
100
AcDbEllipse
 62
7
  6
CONTINUOUS
 10
134.721896721
 20
99.3347227849
 30
0.0
 11
0.2
 21
0.0
 31
0.0
 40
0.0174550649
 41
1.5707963268
 42
3.1241393611
  0
ELLIPSE
  5
69C
100
AcDbEntity
  8
RACCORDO
100
AcDbEllipse
 62
7
  6
CONTINUOUS
 10
135.3288178157
 20
99.3347227849
 30
0.0
 11
0.2
 21
-0.0
 31
0.0
 40
0.0174550649
 41
0.0174532925
 42
1.5707963268
  0
ELLIPSE
  5
69D
100
AcDbEntity
  8
RACCORDO
100
AcDbEllipse
 62
7
  6
CONTINUOUS
 10
151.9712008687
 20
99.0486411384
 30
0.0
 11
0.2121966568
 21
0.2121966567
 31
0.0
 40
0.9996954599
 41
-0.78524587
 42
0.7852458703
  0
ELLIPSE
  5
69E
100
AcDbEntity
  8
RACCORDO
100
AcDbEllipse
 62
7
  6
CONTINUOUS
 10
132.879513668
 20
99.0486411384
 30
0.0
 11
0.2121966567
 21
-0.2121966568
 31
0.0
 40
0.9996954599
 41
2.3563467835
 42
3.9268385238
  0
ELLIPSE
  5
69F
100
AcDbEntity
  8
RACCORDO
100
AcDbEllipse
 62
7
  6
CONTINUOUS
 10
132.8409379755
 20
80.3776731156
 30
0.0
 11
0.3000450197
 21
-0.0
 31
0.0
 40
0.9923972267
 41
-3.1394657387
 42
-1.5707963268
  0
ELLIPSE
  5
6A0
100
AcDbEntity
  8
RACCORDO
100
AcDbEllipse
 62
7
  6
CONTINUOUS
 10
152.0097765612
 20
80.3776731156
 30
0.0
 11
0.3000450197
 21
-0.0
 31
0.0
 40
0.9923972267
 41
-1.5707963268
 42
-0.0021269149
  0
ELLIPSE
  5
6A1
100
AcDbEntity
  8
RACCORDO
100
AcDbEllipse
 62
7
  6
CONTINUOUS
 10
147.5349453994
 20
81.2357300328
 30
0.0
 11
0.2121481894
 21
0.2121481893
 31
0.0
 40
0.9999238505
 41
0.0828196198
 42
0.7853600871
  0
ELLIPSE
  5
6A2
100
AcDbEntity
  8
RACCORDO
100
AcDbEllipse
 62
7
  6
CONTINUOUS
 10
147.3157691373
 20
81.2357300328
 30
0.0
 11
-0.2121481894
 21
0.2121481893
 31
0.0
 40
0.9999238505
 41
-0.7853600875
 42
-0.08281962
  0
ELLIPSE
  5
6A3
100
AcDbEntity
  8
RACCORDO
100
AcDbEllipse
 62
7
  6
CONTINUOUS
 10
137.5349453994
 20
81.2357300328
 30
0.0
 11
0.2121481893
 21
0.2121481893
 31
0.0
 40
0.9999238505
 41
0.0828196198
 42
0.785360087
  0
ELLIPSE
  5
6A4
100
AcDbEntity
  8
RACCORDO
100
AcDbEllipse
 62
7
  6
CONTINUOUS
 10
137.3157691373
 20
81.2357300328
 30
0.0
 11
-0.2121481893
 21
0.2121481894
 31
0.0
 40
0.9999238505
 41
-0.7853600871
 42
-0.0828196196
  0
ELLIPSE
  5
6A5
100
AcDbEntity
  8
RACCORDO
100
AcDbEllipse
 62
7
  6
CONTINUOUS
 10
137.3227506315
 20
80.3222171284
 30
0.0
 11
0.3
 21
0.0
 31
0.0
 40
0.1227845609
 41
-3.1328660073
 42
-1.5707963268
  0
ELLIPSE
  5
6A6
100
AcDbEntity
  8
RACCORDO
100
AcDbEllipse
 62
7
  6
CONTINUOUS
 10
137.5279639052
 20
80.3222171284
 30
0.0
 11
0.3
 21
-0.0
 31
0.0
 40
0.1227845609
 41
-1.5707963268
 42
-0.0087266463
  0
ELLIPSE
  5
6A7
100
AcDbEntity
  8
RACCORDO
100
AcDbEllipse
 62
7
  6
CONTINUOUS
 10
147.3227506315
 20
80.3222171284
 30
0.0
 11
0.3
 21
0.0
 31
0.0
 40
0.1227845609
 41
-3.1328660073
 42
-1.5707963268
  0
ELLIPSE
  5
6A8
100
AcDbEntity
  8
RACCORDO
100
AcDbEllipse
 62
7
  6
CONTINUOUS
 10
147.5279639052
 20
80.3222171284
 30
0.0
 11
0.3
 21
-0.0
 31
0.0
 40
0.1227845609
 41
-1.5707963268
 42
-0.0087266463
  0
ELLIPSE
  5
6A9
100
AcDbEntity
  8
RACCORDO
100
AcDbEllipse
 62
7
  6
CONTINUOUS
 10
139.6779639052
 20
98.1051958238
 30
0.0
 11
0.3
 21
0.0
 31
0.0
 40
0.0174550649
 41
0.0087266463
 42
1.5707963268
  0
ELLIPSE
  5
6AA
100
AcDbEntity
  8
RACCORDO
100
AcDbEllipse
 62
7
  6
CONTINUOUS
 10
139.4727506315
 20
97.8498953027
 30
0.0
 11
0.3
 21
-0.0
 31
0.0
 40
0.0874886635
 41
2.3721728658
 42
3.1328660073
  0
ELLIPSE
  5
6AB
100
AcDbEntity
  8
RACCORDO
100
AcDbEllipse
 62
7
  6
CONTINUOUS
 10
145.3779639052
 20
97.8498953027
 30
0.0
 11
0.3
 21
-0.0
 31
0.0
 40
0.0874886635
 41
0.0087266463
 42
0.7694197878
  0
ELLIPSE
  5
6AC
100
AcDbEntity
  8
RACCORDO
100
AcDbEllipse
 62
7
  6
CONTINUOUS
 10
145.1727506315
 20
98.1051958238
 30
0.0
 11
0.3
 21
0.0
 31
0.0
 40
0.0174550649
 41
1.5707963268
 42
3.1328660073
  0
ELLIPSE
  5
6AD
100
AcDbEntity
  8
RACCORDO
100
AcDbEllipse
 62
7
  6
CONTINUOUS
 10
153.0251858721
 20
122.5468440598
 30
0.0
 11
-0.2238673116
 21
-0.4480418466
 31
0.0
 40
0.9982882662
 41
2.0348549675
 42
3.6042812983
  0
ELLIPSE
  5
6AE
100
AcDbEntity
  8
RACCORDO
100
AcDbEllipse
 62
7
  6
CONTINUOUS
 10
131.8255286646
 20
122.5468440598
 30
0.0
 11
-0.2238673116
 21
0.4480418466
 31
0.0
 40
0.9982882662
 41
-0.4626886447
 42
1.1067376861
  0
ELLIPSE
  5
6AF
100
AcDbEntity
  8
RACCORDO
100
AcDbEllipse
 62
7
  6
CONTINUOUS
 10
153.1252201514
 20
101.2477589148
 30
0.0
 11
0.3796255539
 21
-0.1265161514
 31
0.0
 40
0.9996192872
 41
-1.2489924673
 42
0.3215754254
  0
ELLIPSE
  5
6B0
100
AcDbEntity
  8
RACCORDO
100
AcDbEllipse
 62
7
  6
CONTINUOUS
 10
131.7254943853
 20
101.2477589148
 30
0.0
 11
0.3796255539
 21
0.1265161514
 31
0.0
 40
0.9996192872
 41
2.8200172282
 42
4.3905851209
  0
ELLIPSE
  5
6B1
100
AcDbEntity
  8
RACCORDO
100
AcDbEllipse
 62
7
  6
CONTINUOUS
 10
144.3805480894
 20
122.9191311736
 30
0.0
 11
0.3
 21
-0.0
 31
0.0
 40
0.0524077793
 41
-1.5707963268
 42
-0.0174532925
  0
ELLIPSE
  5
6B2
100
AcDbEntity
  8
RACCORDO
100
AcDbEllipse
 62
7
  6
CONTINUOUS
 10
140.4701664473
 20
122.9191311736
 30
0.0
 11
0.3
 21
0.0
 31
0.0
 40
0.0524077793
 41
-3.1241393611
 42
-1.5707963268
  0
ELLIPSE
  5
6B3
100
AcDbEntity
  8
RACCORDO
100
AcDbEllipse
 62
7
  6
CONTINUOUS
 10
144.3805480894
 20
121.4063319372
 30
0.0
 11
0.3
 21
-0.0
 31
0.0
 40
0.1227845609
 41
-1.5707963268
 42
-0.0174532925
  0
ELLIPSE
  5
6B4
100
AcDbEntity
  8
RACCORDO
100
AcDbEllipse
 62
7
  6
CONTINUOUS
 10
152.7549646359
 20
109.8205896564
 30
0.0
 11
0.5
 21
0.0
 31
0.0
 40
0.0174550649
 41
0.1047197551
 42
1.5707963268
  0
ELLIPSE
  5
6B5
100
AcDbEntity
  8
RACCORDO
100
AcDbEllipse
 62
7
  6
CONTINUOUS
 10
134.3393213203
 20
101.8896024491
 30
0.0
 11
0.0
 21
0.2
 31
0.0
 40
0.0174550649
 41
-1.5707963268
 42
-0.0174532925
  0
ELLIPSE
  5
6B6
100
AcDbEntity
  8
RACCORDO
100
AcDbEllipse
 62
7
  6
CONTINUOUS
 10
150.5113932164
 20
101.8896024491
 30
0.0
 11
0.0
 21
0.2
 31
0.0
 40
0.0174550649
 41
0.0174532925
 42
1.5707963268
  0
ELLIPSE
  5
6B7
100
AcDbEntity
  8
RACCORDO
100
AcDbEllipse
 62
7
  6
CONTINUOUS
 10
140.4701664473
 20
121.4063319372
 30
0.0
 11
0.3
 21
0.0
 31
0.0
 40
0.1227845609
 41
-3.1241393611
 42
-1.5707963268
  0
ELLIPSE
  5
6B8
100
AcDbEntity
  8
RACCORDO
100
AcDbEllipse
 62
7
  6
CONTINUOUS
 10
139.6779639052
 20
103.3470879797
 30
0.0
 11
0.3
 21
-0.0
 31
0.0
 40
0.0174550649
 41
-1.5707963268
 42
-0.0087266463
  0
ELLIPSE
  5
6B9
100
AcDbEntity
  8
RACCORDO
100
AcDbEllipse
 62
7
  6
CONTINUOUS
 10
139.4727506315
 20
103.5523885008
 30
0.0
 11
0.3
 21
-0.0
 31
0.0
 40
0.0874886635
 41
-3.1328660073
 42
-2.3721728658
  0
ELLIPSE
  5
6BA
100
AcDbEntity
  8
RACCORDO
100
AcDbEllipse
 62
7
  6
CONTINUOUS
 10
145.1727506315
 20
103.3470879797
 30
0.0
 11
0.3
 21
0.0
 31
0.0
 40
0.0174550649
 41
-3.1328660073
 42
-1.5707963268
  0
ELLIPSE
  5
6BB
100
AcDbEntity
  8
RACCORDO
100
AcDbEllipse
 62
7
  6
CONTINUOUS
 10
137.3227506315
 20
121.1914589556
 30
0.0
 11
0.3
 21
-0.0
 31
0.0
 40
0.1227845609
 41
1.5707963268
 42
3.1328660073
  0
ELLIPSE
  5
6BC
100
AcDbEntity
  8
RACCORDO
100
AcDbEllipse
 62
7
  6
CONTINUOUS
 10
137.5279639052
 20
121.1914589556
 30
0.0
 11
0.3
 21
-0.0
 31
0.0
 40
0.1227845609
 41
0.0087266463
 42
1.5707963268
  0
ELLIPSE
  5
6BD
100
AcDbEntity
  8
RACCORDO
100
AcDbEllipse
 62
7
  6
CONTINUOUS
 10
147.3227506315
 20
121.1914589556
 30
0.0
 11
0.3
 21
0.0
 31
0.0
 40
0.1227845609
 41
1.5707963268
 42
3.1328660073
  0
ELLIPSE
  5
6BE
100
AcDbEntity
  8
RACCORDO
100
AcDbEllipse
 62
7
  6
CONTINUOUS
 10
152.7549646359
 20
113.831694147
 30
0.0
 11
0.5
 21
0.0
 31
0.0
 40
0.0174550649
 41
-1.5707963268
 42
-0.1047197551
  0
ELLIPSE
  5
6BF
100
AcDbEntity
  8
RACCORDO
100
AcDbEllipse
 62
7
  6
CONTINUOUS
 10
132.0957499008
 20
113.831694147
 30
0.0
 11
0.5
 21
-0.0
 31
0.0
 40
0.0174550649
 41
-3.0368728985
 42
-1.5707963268
  0
ELLIPSE
  5
6C0
100
AcDbEntity
  8
RACCORDO
100
AcDbEllipse
 62
7
  6
CONTINUOUS
 10
132.0957499008
 20
109.8205896564
 30
0.0
 11
0.5
 21
0.0
 31
0.0
 40
0.0174550649
 41
1.5707963268
 42
3.0368728985
  0
ELLIPSE
  5
6C1
100
AcDbEntity
  8
RACCORDO
100
AcDbEllipse
 62
7
  6
CONTINUOUS
 10
147.5279639052
 20
121.1914589556
 30
0.0
 11
0.3
 21
-0.0
 31
0.0
 40
0.1227845609
 41
0.0087266463
 42
1.5707963268
  0
ELLIPSE
  5
6C2
100
AcDbEntity
  8
RACCORDO
100
AcDbEllipse
 62
7
  6
CONTINUOUS
 10
132.7835626316
 20
121.2800642007
 30
0.0
 11
-0.1343203869
 21
0.2688251079
 31
0.0
 40
0.9982882662
 41
-0.4626886447
 42
1.1067376861
  0
ELLIPSE
  5
6C3
100
AcDbEntity
  8
RACCORDO
100
AcDbEllipse
 62
7
  6
CONTINUOUS
 10
152.0671519051
 20
121.2800642007
 30
0.0
 11
0.1343203869
 21
0.2688251079
 31
0.0
 40
0.9982882662
 41
-1.106737686
 42
0.4626886447
  0
ELLIPSE
  5
6C4
100
AcDbEntity
  8
RACCORDO
100
AcDbEllipse
 62
7
  6
CONTINUOUS
 10
151.9519338502
 20
102.4036426651
 30
0.0
 11
0.2497484196
 21
-0.1664778102
 31
0.0
 40
0.9995051766
 41
-0.9826238685
 42
0.5877156075
  0
ELLIPSE
  5
6C5
100
AcDbEntity
  8
RACCORDO
100
AcDbEllipse
 62
7
  6
CONTINUOUS
 10
132.8987806865
 20
102.4036426651
 30
0.0
 11
0.2497484196
 21
0.1664778102
 31
0.0
 40
0.9995051766
 41
2.5538770461
 42
4.1242165221
  0
ENDSEC
  0
SECTION
  2
OBJECTS
  0
DICTIONARY
  5
C
100
AcDbDictionary
280
0
281
1
  3
ACAD_GROUP
350
D
  3
ACAD_MLINESTYLE
350
17
  3
ACAD_LAYOUT
350
1A
  3
ACAD_PLOTSETTINGS
350
19
  3
ACAD_PLOTSTYLENAME
350
E
  0
DICTIONARY
  5
D
102
{ACAD_REACTORS
330
C
102
}
100
AcDbDictionary
280
0
281
1
  0
ACDBDICTIONARYWDFLT
  5
E
102
{ACAD_REACTORS
330
C
102
}
100
AcDbDictionary
281
1
  3
Normal
350
F
100
AcDbDictionaryWithDefault
340
F
  0
DICTIONARY
  5
17
102
{ACAD_REACTORS
330
C
102
}
100
AcDbDictionary
280
0
281
1
  3
Standard
350
18
  0
DICTIONARY
  5
19
102
{ACAD_REACTORS
330
C
102
}
100
AcDbDictionary
281
1
  0
DICTIONARY
  5
1A
102
{ACAD_REACTORS
330
C
102
}
100
AcDbDictionary
281
1
  3
Model
350
6C6
  3
Layout1
350
6C7
  0
ACDBPLACEHOLDER
  5
F
102
{ACAD_REACTORS
330
E
102
}
  0
MLINESTYLE
  5
18
102
{ACAD_REACTORS
330
17
102
}
100
AcDbMlineStyle
  2
STANDARD
 70
0
  3

 62
256
 51
90.0
 52
90.0
 71
2
 49
0.5
 62
256
  6
BYLAYER
 49
-0.5
 62
256
  6
BYLAYER
  0
LAYOUT
  5
6C6
102
{ACAD_REACTORS
330
1A
102
}
100
AcDbPlotSettings
  1

  2
none_device
  4
ISO_A4_(297.00_x_210.00_MM)
  6

 40
0.0
 41
0.0
 42
0.0
 43
0.0
 44
297.0
 45
210.0
 46
0.0
 47
0.0
 48
0.0
 49
0.0
140
0.0
141
0.0
142
1.0
143
1.0
 70
1024
 72
1
 73
0
 74
0
  7

 75
0
147
1.0
148
0.0
149
0.0
100
AcDbLayout
  1
Model
 70
0
 71
0
 10
0.0
 20
0.0
 11
297.0
 21
210.0
 12
0.0
 22
0.0
 32
0.0
 14
0.0
 24
0.0
 34
0.0
 15
0.0
 25
0.0
 35
0.0
146
0.0
 13
0.0
 23
0.0
 33
0.0
 16
1.0
 26
0.0
 36
0.0
 17
0.0
 27
1.0
 37
0.0
 76
0
330
214
345
0
346
0
  0
LAYOUT
  5
6C7
102
{ACAD_REACTORS
330
1A
102
}
100
AcDbPlotSettings
  1

  2
none_device
  4
ISO_A4_(297.00_x_210.00_MM)
  6

 40
0.0
 41
0.0
 42
0.0
 43
0.0
 44
297.0
 45
210.0
 46
0.0
 47
0.0
 48
0.0
 49
0.0
140
0.0
141
0.0
142
1.0
143
1.0
 70
0
 72
1
 73
0
 74
0
  7

 75
0
147
1.0
148
0.0
149
0.0
100
AcDbLayout
  1
Layout1
 70
0
 71
1
 10
0.0
 20
0.0
 11
297.0
 21
210.0
 12
0.0
 22
0.0
 32
0.0
 14
0.0
 24
0.0
 34
0.0
 15
0.0
 25
0.0
 35
0.0
146
0.0
 13
0.0
 23
0.0
 33
0.0
 16
1.0
 26
0.0
 36
0.0
 17
0.0
 27
1.0
 37
0.0
 76
0
330
215
345
0
346
0
  0
ENDSEC
  0
EOF
