  0
SECTION
  2
HEADER
  9
$ACADVER
  1
AC1021
  9
$DWGCODEPAGE
  3
ANSI_1252
  9
$EXTMAX
 10
297.0
 20
210.0
 30
0.0
  9
$EXTMIN
 10
0.0
 20
0.0
 30
0.0
  9
$LIMMIN
 10
0.0
 20
0.0
  9
$LIMMAX
 10
297.0
 20
210.0
  9
$VIEWCTR
 10
148.5
 20
105.0
  9
$VIEWSIZE
 40
210.0
  9
$CLAYER
  8
0
  9
$LTSCALE
 40
16.335
  9
$CELTYPE
  6
BYLAYER
  9
$DIMSCALE
 40
1.0
  9
$DIMASZ
 40
3.0
  9
$DIMEXO
 40
1.85625
  9
$DIMDLI
 40
11.286
  9
$DIMEXE
 40
5.346
  9
$DIMCEN
 40
2.673
  9
$DIMLFAC
 40
1.0
  9
$DIMBLK
  1
_FILLED
  9
$DIMTXT
 40
3.0
  9
$DIMTOL
 70
1
  9
$DIMLIM
 70
0
  9
$DIMTFAC
 40
1.0
  9
$DIMTP
 40
0.01
  9
$DIMTM
 40
0.01
  9
$PDMODE
 70
3
  9
$PDSIZE
 40
3.0
  9
$HANDSEED
  5
A40
  9
$TILEMODE
 70
1
  9
$MEASUREMENT
 70
1
  9
$INSUNITS
 70
4
  0
ENDSEC
  0
SECTION
  2
CLASSES
  0
CLASS
  1
ACDBDICTIONARYWDFLT
  2
AcDbDictionaryWithDefault
  3
AutoCAD 2000
 90
0
 91
1
280
0
281
0
  0
CLASS
  1
ACDBPLACEHOLDER
  2
AcDbPlaceHolder
  3
AutoCAD 2000
 90
0
 91
1
280
0
281
0
  0
CLASS
  1
LAYOUT
  2
AcDbLayout
  3
AutoCAD 2000
 90
0
 91
0
280
0
281
0
  0
ENDSEC
  0
SECTION
  2
TABLES
  0
TABLE
  2
VPORT
  5
8
100
AcDbSymbolTable
 70
2
  0
VPORT
  5
1F4
100
AcDbSymbolTableRecord
100
AcDbViewportTableRecord
  2
*ACTIVE
 70
0
 10
0.0
 20
0.0
 11
1.0
 21
1.0
 12
148.5
 22
105.0
 13
0.0
 23
0.0
 14
1.0
 24
1.0
 15
0.0
 25
0.0
 16
0.0
 26
0.0
 36
1.0
 17
0.0
 27
0.0
 37
0.0
 40
210.0
 41
1.4142857143
 42
50.0
 43
0.0
 44
0.0
 50
0.0
 51
0.0
 71
0
 72
100
 73
1
 74
1
 75
0
 76
0
 77
0
 78
0
  0
ENDTAB
  0
TABLE
  2
LTYPE
  5
5
100
AcDbSymbolTable
 70
6
  0
LTYPE
  5
14
100
AcDbSymbolTableRecord
100
AcDbLinetypeTableRecord
  2
BYBLOCK
 70
0
  3

 72
65
 73
0
 40
0.0
  0
LTYPE
  5
15
100
AcDbSymbolTableRecord
100
AcDbLinetypeTableRecord
  2
BYLAYER
 70
0
  3

 72
65
 73
0
 40
0.0
  0
LTYPE
  5
16
100
AcDbSymbolTableRecord
100
AcDbLinetypeTableRecord
  2
CONTINUOUS
 70
64
  3
Solid line
 72
65
 73
0
 40
0.0
  0
LTYPE
  5
1F5
100
AcDbSymbolTableRecord
100
AcDbLinetypeTableRecord
  2
CENTER
 70
64
  3
____ _ ____ _ ____ _ ____ _ ____ _ ____ _ ____
 72
65
 73
4
 40
0.6
 49
0.375
 74
0
 49
-0.075
 74
0
 49
0.075
 74
0
 49
-0.075
 74
0
  0
LTYPE
  5
1F6
100
AcDbSymbolTableRecord
100
AcDbLinetypeTableRecord
  2
HIDDEN
 70
64
  3
- - - - - - - - - - - - - - - - - - - -
 72
65
 73
2
 40
0.2
 49
0.1
 74
0
 49
-0.1
 74
0
  0
LTYPE
  5
1F7
100
AcDbSymbolTableRecord
100
AcDbLinetypeTableRecord
  2
PHANTOM
 70
64
  3
_____ _ _ _____ _ _ _____ _ _ _____
 72
65
 73
6
 40
0.8
 49
0.45
 74
0
 49
-0.05
 74
0
 49
0.1
 74
0
 49
-0.05
 74
0
 49
0.1
 74
0
 49
-0.05
 74
0
  0
LTYPE
  5
1F8
100
AcDbSymbolTableRecord
100
AcDbLinetypeTableRecord
  2
DOT
 70
64
  3
. . . . . . . . . . . . . . . . . . . .
 72
65
 73
2
 40
0.2
 49
0.1
 74
0
 49
-0.1
 74
0
  0
LTYPE
  5
1F9
100
AcDbSymbolTableRecord
100
AcDbLinetypeTableRecord
  2
DASHED
 70
64
  3
- - - - - - - - - - - - - - - - - - - -
 72
65
 73
2
 40
0.2
 49
0.1
 74
0
 49
-0.1
 74
0
  0
ENDTAB
  0
TABLE
  2
LAYER
  5
2
100
AcDbSymbolTable
 70
36
  0
LAYER
  5
10
100
AcDbSymbolTableRecord
100
AcDbLayerTableRecord
  2
0
 70
0
 62
7
  6
CONTINUOUS
370
-3
390
F
  0
LAYER
  5
1FA
100
AcDbSymbolTableRecord
100
AcDbLayerTableRecord
  2
DEFAULT_1
 70
0
 62
7
  6
CENTER
370
-3
390
F
  0
LAYER
  5
1FB
100
AcDbSymbolTableRecord
100
AcDbLayerTableRecord
  2
DEFAULT_2
 70
0
 62
7
  6
HIDDEN
370
-3
390
F
  0
LAYER
  5
1FC
100
AcDbSymbolTableRecord
100
AcDbLayerTableRecord
  2
DEFAULT_3
 70
0
 62
7
  6
PHANTOM
370
-3
390
F
  0
LAYER
  5
1FD
100
AcDbSymbolTableRecord
100
AcDbLayerTableRecord
  2
ASSI
 70
0
 62
7
  6
CONTINUOUS
370
-3
390
F
  0
LAYER
  5
1FE
100
AcDbSymbolTableRecord
100
AcDbLayerTableRecord
  2
COORDINATE
 70
0
 62
7
  6
CONTINUOUS
370
-3
390
F
  0
LAYER
  5
1FF
100
AcDbSymbolTableRecord
100
AcDbLayerTableRecord
  2
COPY_PUBLISH
 70
0
 62
7
  6
CONTINUOUS
370
-3
390
F
  0
LAYER
  5
200
100
AcDbSymbolTableRecord
100
AcDbLayerTableRecord
  2
COSMETIC
 70
0
 62
7
  6
CONTINUOUS
370
-3
390
F
  0
LAYER
  5
201
100
AcDbSymbolTableRecord
100
AcDbLayerTableRecord
  2
COSMETICI
 70
0
 62
7
  6
CONTINUOUS
370
-3
390
F
  0
LAYER
  5
202
100
AcDbSymbolTableRecord
100
AcDbLayerTableRecord
  2
CURVE
 70
0
 62
7
  6
CONTINUOUS
370
-3
390
F
  0
LAYER
  5
203
100
AcDbSymbolTableRecord
100
AcDbLayerTableRecord
  2
DRAFT
 70
0
 62
7
  6
CONTINUOUS
370
-3
390
F
  0
LAYER
  5
204
100
AcDbSymbolTableRecord
100
AcDbLayerTableRecord
  2
IMPORT_IGES
 70
0
 62
7
  6
CONTINUOUS
370
-3
390
F
  0
LAYER
  5
205
100
AcDbSymbolTableRecord
100
AcDbLayerTableRecord
  2
INTFCLR_1
 70
0
 62
7
  6
CONTINUOUS
370
-3
390
F
  0
LAYER
  5
206
100
AcDbSymbolTableRecord
100
AcDbLayerTableRecord
  2
NOTE
 70
0
 62
7
  6
CONTINUOUS
370
-3
390
F
  0
LAYER
  5
207
100
AcDbSymbolTableRecord
100
AcDbLayerTableRecord
  2
PIANI
 70
0
 62
7
  6
CONTINUOUS
370
-3
390
F
  0
LAYER
  5
208
100
AcDbSymbolTableRecord
100
AcDbLayerTableRecord
  2
PUNTI
 70
0
 62
7
  6
CONTINUOUS
370
-3
390
F
  0
LAYER
  5
209
100
AcDbSymbolTableRecord
100
AcDbLayerTableRecord
  2
RACCORDO
 70
0
 62
7
  6
CONTINUOUS
370
-3
390
F
  0
LAYER
  5
20A
100
AcDbSymbolTableRecord
100
AcDbLayerTableRecord
  2
SIMBOLI
 70
0
 62
7
  6
CONTINUOUS
370
-3
390
F
  0
LAYER
  5
20B
100
AcDbSymbolTableRecord
100
AcDbLayerTableRecord
  2
SMUSSO
 70
0
 62
7
  6
CONTINUOUS
370
-3
390
F
  0
LAYER
  5
20C
100
AcDbSymbolTableRecord
100
AcDbLayerTableRecord
  2
SNAPLINE
 70
0
 62
7
  6
CONTINUOUS
370
-3
390
F
  0
LAYER
  5
20D
100
AcDbSymbolTableRecord
100
AcDbLayerTableRecord
  2
SUPERFICI
 70
0
 62
7
  6
CONTINUOUS
370
-3
390
F
  0
LAYER
  5
20E
100
AcDbSymbolTableRecord
100
AcDbLayerTableRecord
  2
TRASH
 70
0
 62
7
  6
CONTINUOUS
370
-3
390
F
  0
LAYER
  5
20F
100
AcDbSymbolTableRecord
100
AcDbLayerTableRecord
  2
XSEC_DATUMS
 70
0
 62
7
  6
CONTINUOUS
370
-3
390
F
  0
ENDTAB
  0
TABLE
  2
STYLE
  5
3
100
AcDbSymbolTable
 70
1
  0
STYLE
  5
11
100
AcDbSymbolTableRecord
100
AcDbTextStyleTableRecord
  2
STANDARD
 70
0
 40
0.0
 41
0.8
 50
0.0
 71
0
 42
0.2
  3
txt
  4

  0
STYLE
  5
210
100
AcDbSymbolTableRecord
100
AcDbTextStyleTableRecord
  2
TEXTSTYLE_1
 70
0
 40
0.0
 41
0.8
 50
0.0
 71
0
 42
0.2
  3
gdt
  4

  0
ENDTAB
  0
TABLE
  2
VIEW
  5
6
100
AcDbSymbolTable
 70
0
  0
ENDTAB
  0
TABLE
  2
UCS
  5
7
100
AcDbSymbolTable
 70
0
  0
ENDTAB
  0
TABLE
  2
APPID
  5
9
100
AcDbSymbolTable
 70
1
  0
APPID
  5
211
100
AcDbSymbolTableRecord
100
AcDbRegAppTableRecord
  2
ACAD
 70
0
  0
ENDTAB
  0
TABLE
  2
BLOCK_RECORD
  5
1
100
AcDbSymbolTable
 70
0
  0
BLOCK_RECORD
  5
212
100
AcDbSymbolTableRecord
100
AcDbBlockTableRecord
  2
*Model_Space
  0
BLOCK_RECORD
  5
213
100
AcDbSymbolTableRecord
100
AcDbBlockTableRecord
  2
*Paper_Space
  0
ENDTAB
  0
TABLE
  2
DIMSTYLE
  5
A
100
AcDbSymbolTable
 70
1
100
AcDbDimStyleTable
 71
0
  0
DIMSTYLE
105
214
100
AcDbSymbolTableRecord
100
AcDbDimStyleTableRecord
  2
STANDARD
 70
0
  3

  4

 40
1.0
 41
3.0
 42
0.0625
 43
0.38
 44
0.18
 45
0.0
 46
0.0
 47
0.01
 48
0.01
140
3.0
141
0.09
142
0.0
143
25.4
144
1.0
145
0.0
146
1.0
147
0.09
 71
1.0
 72
0.0
 73
0
 74
0
 75
0
 76
0
 77
1
 78
8
170
0
171
2
172
0
173
0
174
0
175
0
176
0
177
0
178
0
270
2
271
2
272
2
273
2
274
2
275
0
280
0
281
0
282
0
283
1
284
8
285
0
286
0
287
3
288
0
340
11
  0
ENDTAB
  0
ENDSEC
  0
SECTION
  2
BLOCKS
  0
BLOCK
  5
20
100
AcDbEntity
  8
0
100
AcDbBlockBegin
  2
*Model_Space
 70
0
 10
0.0
 20
0.0
 30
0.0
  3
*Model_Space
  1

  0
ENDBLK
  5
21
100
AcDbEntity
  8
0
100
AcDbBlockEnd
  0
BLOCK
  5
1C
100
AcDbEntity
  8
0
100
AcDbBlockBegin
  2
*Paper_Space
 70
0
 10
0.0
 20
0.0
 30
0.0
  3
*Paper_Space
  1

  0
ENDBLK
  5
1D
100
AcDbEntity
  8
0
100
AcDbBlockEnd
  0
ENDSEC
  0
SECTION
  2
ENTITIES
  0
LINE
  5
215
100
AcDbEntity
  8
DRAFT
100
AcDbLine
 62
7
  6
CONTINUOUS
 10
-70.2150898701
 20
3.5
 11
-70.25
 21
3.8526539614
  0
LWPOLYLINE
  5
216
100
AcDbEntity
  8
RACCORDO
100
AcDbPolyline
 62
7
  6
CONTINUOUS
 90
22
 70
0
 10
-70.7500000323
 20
-43.0970750476
 10
-70.7488688096
 20
-43.1307047213
 10
-70.7456530926
 20
-43.163242541
 10
-70.7403528811
 20
-43.1946885067
 10
-70.7329398847
 20
-43.225114215
 10
-70.7234423939
 20
-43.2544480693
 10
-70.7119452806
 20
-43.2824752794
 10
-70.698359257
 20
-43.3092707023
 10
-70.6827736109
 20
-43.334759481
 10
-70.6655410773
 20
-43.3585022541
 10
-70.6466702813
 20
-43.3803856593
 10
-70.626152598
 20
-43.4005230589
 10
-70.6043148877
 20
-43.4188151784
 10
-70.5812767042
 20
-43.435211313
 10
-70.5569184938
 20
-43.4497621676
 10
-70.5312084563
 20
-43.4625205827
 10
-70.5041886221
 20
-43.4735610424
 10
-70.4758169608
 20
-43.4828090626
 10
-70.445935581
 20
-43.4900940311
 10
-70.4144918521
 20
-43.495359077
 10
-70.3815384046
 20
-43.4986610712
 10
-70.3470752386
 20
-43.5000000137
  0
LINE
  5
217
100
AcDbEntity
  8
RACCORDO
100
AcDbLine
 62
253
  6
CONTINUOUS
 10
-70.1585889103
 20
33.9734932945
 11
-70.1811204268
 21
42.7311508878
  0
LINE
  5
218
100
AcDbEntity
  8
RACCORDO
100
AcDbLine
 62
253
  6
CONTINUOUS
 10
-69.9586111591
 20
33.9930572673
 11
-69.9811508878
 21
42.7655612578
  0
LINE
  5
219
100
AcDbEntity
  8
RACCORDO
100
AcDbLine
 62
253
  6
CONTINUOUS
 10
-70.1431484469
 20
24.1068515531
 11
-70.1585889103
 21
33.9734932945
  0
LINE
  5
21A
100
AcDbEntity
  8
RACCORDO
100
AcDbLine
 62
253
  6
CONTINUOUS
 10
-69.943170074
 20
24.1102842918
 11
-69.9586111591
 21
33.9930572673
  0
LINE
  5
21B
100
AcDbEntity
  8
RACCORDO
100
AcDbLine
 62
7
  6
CONTINUOUS
 10
-72.25
 20
-44.0013704652
 11
-72.25
 21
44.0013704652
  0
LINE
  5
21C
100
AcDbEntity
  8
RACCORDO
100
AcDbLine
 62
7
  6
CONTINUOUS
 10
-71.7499999988
 20
44.0006852438
 11
-71.7499999997
 21
-44.0006852355
  0
LINE
  5
21D
100
AcDbEntity
  8
DRAFT
100
AcDbLine
 62
7
  6
CONTINUOUS
 10
-71.645240128
 20
3.5
 11
-71.645240128
 21
-3.5
  0
LINE
  5
21E
100
AcDbEntity
  8
DRAFT
100
AcDbLine
 62
7
  6
CONTINUOUS
 10
-70.7500000141
 20
43.0970752324
 11
-70.75
 21
3.8526539614
  0
LINE
  5
21F
100
AcDbEntity
  8
DRAFT
100
AcDbLine
 62
7
  6
CONTINUOUS
 10
-70.75
 20
-3.8526539614
 11
-70.7500000323
 21
-43.0970750476
  0
LINE
  5
220
100
AcDbEntity
  8
RACCORDO
100
AcDbLine
 62
7
  6
CONTINUOUS
 10
-70.25
 20
42.800030461
 11
-70.25
 21
24.0
  0
LINE
  5
221
100
AcDbEntity
  8
DRAFT
100
AcDbLine
 62
7
  6
CONTINUOUS
 10
-70.25
 20
23.3
 11
-70.25
 21
20.0
  0
LINE
  5
222
100
AcDbEntity
  8
DRAFT
100
AcDbLine
 62
7
  6
CONTINUOUS
 10
-70.25
 20
19.1135864588
 11
-70.25
 21
17.4864135412
  0
LINE
  5
223
100
AcDbEntity
  8
DRAFT
100
AcDbLine
 62
7
  6
CONTINUOUS
 10
-70.25
 20
16.5135864588
 11
-70.25
 21
14.8864135412
  0
LINE
  5
224
100
AcDbEntity
  8
DRAFT
100
AcDbLine
 62
7
  6
CONTINUOUS
 10
-70.25
 20
14.0
 11
-70.25
 21
3.8526539614
  0
LINE
  5
225
100
AcDbEntity
  8
DRAFT
100
AcDbLine
 62
7
  6
CONTINUOUS
 10
-70.25
 20
-3.8526539614
 11
-70.25
 21
-14.0
  0
LINE
  5
226
100
AcDbEntity
  8
DRAFT
100
AcDbLine
 62
7
  6
CONTINUOUS
 10
-70.25
 20
-14.8864135412
 11
-70.25
 21
-16.5135864588
  0
LINE
  5
227
100
AcDbEntity
  8
DRAFT
100
AcDbLine
 62
7
  6
CONTINUOUS
 10
-70.25
 20
-17.4864135412
 11
-70.25
 21
-19.1135864588
  0
LINE
  5
228
100
AcDbEntity
  8
DRAFT
100
AcDbLine
 62
7
  6
CONTINUOUS
 10
-70.25
 20
-20.0
 11
-70.25
 21
-23.3
  0
LINE
  5
229
100
AcDbEntity
  8
RACCORDO
100
AcDbLine
 62
7
  6
CONTINUOUS
 10
-70.25
 20
-24.0
 11
-70.25
 21
-42.800030461
  0
LINE
  5
22A
100
AcDbEntity
  8
DRAFT
100
AcDbLine
 62
7
  6
CONTINUOUS
 10
-70.2150898701
 20
3.5
 11
-70.2150898701
 21
0.3849101299
  0
LINE
  5
22B
100
AcDbEntity
  8
DRAFT
100
AcDbLine
 62
7
  6
CONTINUOUS
 10
-70.2150898701
 20
-0.3849101299
 11
-70.2150898701
 21
-3.5
  0
LINE
  5
22C
100
AcDbEntity
  8
RACCORDO
100
AcDbLine
 62
253
  6
CONTINUOUS
 10
-70.1317502263
 20
0.4682497737
 11
-70.1355634798
 21
14.0
  0
LINE
  5
22D
100
AcDbEntity
  8
RACCORDO
100
AcDbLine
 62
253
  6
CONTINUOUS
 10
-69.9811508878
 20
42.7655612578
 11
-69.9811508878
 21
42.9311204268
  0
LINE
  5
22E
100
AcDbEntity
  8
RACCORDO
100
AcDbLine
 62
253
  6
CONTINUOUS
 10
-69.9317807462
 20
0.4716797974
 11
-69.9355905353
 21
14.0000000057
  0
LINE
  5
22F
100
AcDbEntity
  8
RACCORDO
100
AcDbLine
 62
253
  6
CONTINUOUS
 10
-70.1355634798
 20
-14.0
 11
-70.1317502263
 21
-0.4682497737
  0
LINE
  5
230
100
AcDbEntity
  8
RACCORDO
100
AcDbLine
 62
253
  6
CONTINUOUS
 10
-69.9355905353
 20
-14.0
 11
-69.9317807462
 21
-0.471679798
  0
LINE
  5
231
100
AcDbEntity
  8
RACCORDO
100
AcDbLine
 62
253
  6
CONTINUOUS
 10
-70.1554193977
 20
-32.4013342633
 11
-70.1431484469
 21
-24.1068515531
  0
LINE
  5
232
100
AcDbEntity
  8
RACCORDO
100
AcDbLine
 62
253
  6
CONTINUOUS
 10
-69.9554414323
 20
-32.4188136307
 11
-69.943170074
 21
-24.110284292
  0
LWPOLYLINE
  5
233
100
AcDbEntity
  8
RACCORDO
100
AcDbPolyline
 62
253
  6
CONTINUOUS
 90
3
 70
0
 10
-70.1811204268
 20
-42.7311508878
 10
-70.1748623585
 20
-40.5793669869
 10
-70.1554193977
 20
-32.4013342633
  0
LINE
  5
234
100
AcDbEntity
  8
RACCORDO
100
AcDbLine
 62
253
  6
CONTINUOUS
 10
-69.9811508878
 20
-42.9311204268
 11
-69.9554414323
 21
-32.4188136307
  0
LWPOLYLINE
  5
235
100
AcDbEntity
  8
RACCORDO
100
AcDbPolyline
 62
7
  6
CONTINUOUS
 90
22
 70
0
 10
-71.7499999988
 20
44.0006852438
 10
-71.7485555734
 20
44.0382221511
 10
-71.744414829
 20
44.0751507879
 10
-71.7375777656
 20
44.1114711543
 10
-71.7279875007
 20
44.147367234
 10
-71.7157009169
 20
44.1826550432
 10
-71.7008886614
 20
44.2167826308
 10
-71.6835200177
 20
44.2497376872
 10
-71.6636257024
 20
44.2815325221
 10
-71.6414685132
 20
44.3116521126
 10
-71.6169440155
 20
44.3401188031
 10
-71.5901566439
 20
44.3669102493
 10
-71.5616824998
 20
44.391444396
 10
-71.5315303659
 20
44.413620333
 10
-71.4996914595
 20
44.4335389705
 10
-71.466715533
 20
44.4509209837
 10
-71.4326153489
 20
44.4657245718
 10
-71.3973781447
 20
44.4779915355
 10
-71.3615153852
 20
44.4875679524
 10
-71.3251975587
 20
44.4944025148
 10
-71.2882541769
 20
44.4985465304
 10
-71.2506852399
 20
44.4999999992
  0
LWPOLYLINE
  5
236
100
AcDbEntity
  8
RACCORDO
100
AcDbPolyline
 62
253
  6
CONTINUOUS
 90
19
 70
0
 10
-70.1811204268
 20
42.7311508878
 10
-70.1803544816
 20
42.7485758759
 10
-70.178073086
 20
42.7658683142
 10
-70.1742935926
 20
42.7828966493
 10
-70.1690447543
 20
42.7995313282
 10
-70.1623664976
 20
42.8156458094
 10
-70.1543096114
 20
42.8311175228
 10
-70.1449353694
 20
42.8458287772
 10
-70.1343150874
 20
42.8596676315
 10
-70.1225295757
 20
42.8725287753
 10
-70.1096685022
 20
42.8843143567
 10
-70.0958297016
 20
42.8949347221
 10
-70.0811184525
 20
42.9043090745
 10
-70.0656466698
 20
42.9123660961
 10
-70.0495320599
 20
42.9190444878
 10
-70.032897224
 20
42.9242934385
 10
-70.0158687176
 20
42.9280730147
 10
-69.9985760863
 20
42.9303544632
 10
-69.9811508878
 20
42.9311204268
  0
LINE
  5
237
100
AcDbEntity
  8
DRAFT
100
AcDbLine
 62
7
  6
CONTINUOUS
 10
-70.2150898701
 20
-3.5
 11
-70.25
 21
-3.8526539614
  0
LINE
  5
238
100
AcDbEntity
  8
DRAFT
100
AcDbLine
 62
7
  6
CONTINUOUS
 10
-66.2530264092
 20
24.0526773156
 11
-66.2248138762
 21
23.2464697332
  0
LINE
  5
239
100
AcDbEntity
  8
DRAFT
100
AcDbLine
 62
7
  6
CONTINUOUS
 10
-67.6569219382
 20
-20.0
 11
-67.6569219382
 21
-19.1814885976
  0
LINE
  5
23A
100
AcDbEntity
  8
DRAFT
100
AcDbLine
 62
7
  6
CONTINUOUS
 10
-67.6569219382
 20
-17.4185114024
 11
-67.6569219382
 21
-16.5814885976
  0
LINE
  5
23B
100
AcDbEntity
  8
DRAFT
100
AcDbLine
 62
7
  6
CONTINUOUS
 10
-67.6569219382
 20
-14.8185114024
 11
-67.6569219382
 21
-14.0
  0
LINE
  5
23C
100
AcDbEntity
  8
DRAFT
100
AcDbLine
 62
7
  6
CONTINUOUS
 10
-67.6569219382
 20
14.0
 11
-67.6569219382
 21
14.8185114024
  0
LINE
  5
23D
100
AcDbEntity
  8
DRAFT
100
AcDbLine
 62
7
  6
CONTINUOUS
 10
-67.6569219382
 20
16.5814885976
 11
-67.6569219382
 21
17.4185114024
  0
LINE
  5
23E
100
AcDbEntity
  8
DRAFT
100
AcDbLine
 62
7
  6
CONTINUOUS
 10
-67.6569219382
 20
19.1814885976
 11
-67.6569219382
 21
20.0
  0
LINE
  5
23F
100
AcDbEntity
  8
RACCORDO
100
AcDbLine
 62
253
  6
CONTINUOUS
 10
-67.6348266046
 20
24.0
 11
-67.6348266046
 21
23.3
  0
LINE
  5
240
100
AcDbEntity
  8
RACCORDO
100
AcDbLine
 62
253
  6
CONTINUOUS
 10
-67.6348266046
 20
-23.3
 11
-67.6348266046
 21
-24.0
  0
LINE
  5
241
100
AcDbEntity
  8
RACCORDO
100
AcDbLine
 62
253
  6
CONTINUOUS
 10
-67.3352377442
 20
24.0049624612
 11
-67.3352377442
 21
23.2950375388
  0
LINE
  5
242
100
AcDbEntity
  8
RACCORDO
100
AcDbLine
 62
253
  6
CONTINUOUS
 10
-67.3352377442
 20
-23.2950375388
 11
-67.3352377442
 21
-24.0049624612
  0
LINE
  5
243
100
AcDbEntity
  8
DRAFT
100
AcDbLine
 62
7
  6
CONTINUOUS
 10
-67.2857171432
 20
-24.0214559154
 11
-67.2857171432
 21
-23.2785440846
  0
LINE
  5
244
100
AcDbEntity
  8
DRAFT
100
AcDbLine
 62
7
  6
CONTINUOUS
 10
-67.2857171432
 20
23.2785440846
 11
-67.2857171432
 21
24.0214559154
  0
LINE
  5
245
100
AcDbEntity
  8
DRAFT
100
AcDbLine
 62
7
  6
CONTINUOUS
 10
-66.95
 20
20.0
 11
-66.95
 21
19.2
  0
LINE
  5
246
100
AcDbEntity
  8
DRAFT
100
AcDbLine
 62
7
  6
CONTINUOUS
 10
-66.95
 20
17.4
 11
-66.95
 21
16.6
  0
LINE
  5
247
100
AcDbEntity
  8
DRAFT
100
AcDbLine
 62
7
  6
CONTINUOUS
 10
-66.95
 20
14.8
 11
-66.95
 21
14.0
  0
LINE
  5
248
100
AcDbEntity
  8
DRAFT
100
AcDbLine
 62
7
  6
CONTINUOUS
 10
-66.95
 20
-14.0
 11
-66.95
 21
-14.8
  0
LINE
  5
249
100
AcDbEntity
  8
DRAFT
100
AcDbLine
 62
7
  6
CONTINUOUS
 10
-66.95
 20
-16.6
 11
-66.95
 21
-17.4
  0
LINE
  5
24A
100
AcDbEntity
  8
DRAFT
100
AcDbLine
 62
7
  6
CONTINUOUS
 10
-66.95
 20
-19.2
 11
-66.95
 21
-20.0
  0
LINE
  5
24B
100
AcDbEntity
  8
DRAFT
100
AcDbLine
 62
7
  6
CONTINUOUS
 10
-66.8407005033
 20
-0.3849101299
 11
-66.8407005033
 21
0.3849101299
  0
LINE
  5
24C
100
AcDbEntity
  8
DRAFT
100
AcDbLine
 62
7
  6
CONTINUOUS
 10
-65.8576914846
 20
0.4146294998
 11
-65.8576914846
 21
-0.4146294998
  0
LINE
  5
24D
100
AcDbEntity
  8
DRAFT
100
AcDbLine
 62
7
  6
CONTINUOUS
 10
-66.2248138762
 20
-23.2464697332
 11
-66.2530264092
 21
-24.0526773156
  0
LINE
  5
24E
100
AcDbEntity
  8
RACCORDO
100
AcDbLine
 62
7
  6
CONTINUOUS
 10
-70.25
 20
24.0
 11
-70.1431484469
 21
24.1068515531
  0
LINE
  5
24F
100
AcDbEntity
  8
RACCORDO
100
AcDbLine
 62
7
  6
CONTINUOUS
 10
-46.6188795732
 20
42.9311204268
 11
-46.55
 21
43.0
  0
LINE
  5
250
100
AcDbEntity
  8
RACCORDO
100
AcDbLine
 62
7
  6
CONTINUOUS
 10
-70.25
 20
-24.0
 11
-70.1431484469
 21
-24.1068515531
  0
LINE
  5
251
100
AcDbEntity
  8
RACCORDO
100
AcDbLine
 62
7
  6
CONTINUOUS
 10
-46.6188795732
 20
-42.9311204268
 11
-46.55
 21
-43.0
  0
LINE
  5
252
100
AcDbEntity
  8
DRAFT
100
AcDbLine
 62
7
  6
CONTINUOUS
 10
-57.75
 20
-0.4512393766
 11
-57.75
 21
0.4512393766
  0
LINE
  5
253
100
AcDbEntity
  8
DRAFT
100
AcDbLine
 62
7
  6
CONTINUOUS
 10
-59.4247138769
 20
0.4220071371
 11
-59.4247138769
 21
-0.4220071371
  0
LINE
  5
254
100
AcDbEntity
  8
RACCORDO
100
AcDbLine
 62
7
  6
CONTINUOUS
 10
-46.5714559154
 20
36.5357171432
 11
-46.5549624612
 21
36.5852377442
  0
LINE
  5
255
100
AcDbEntity
  8
RACCORDO
100
AcDbLine
 62
7
  6
CONTINUOUS
 10
-70.2150898701
 20
0.3849101299
 11
-70.1317502263
 21
0.4682497737
  0
LINE
  5
256
100
AcDbEntity
  8
RACCORDO
100
AcDbLine
 62
7
  6
CONTINUOUS
 10
-70.2150898701
 20
-0.3849101299
 11
-70.1317502263
 21
-0.4682497737
  0
LINE
  5
257
100
AcDbEntity
  8
RACCORDO
100
AcDbLine
 62
7
  6
CONTINUOUS
 10
-46.5714559154
 20
-36.5357171432
 11
-46.5549624612
 21
-36.5852377442
  0
LINE
  5
258
100
AcDbEntity
  8
DRAFT
100
AcDbLine
 62
7
  6
CONTINUOUS
 10
-50.0730200998
 20
23.8821420141
 11
-50.023285147
 21
23.4169426433
  0
LINE
  5
259
100
AcDbEntity
  8
DRAFT
100
AcDbLine
 62
7
  6
CONTINUOUS
 10
-50.023285147
 20
23.4169426433
 11
-50.0040797367
 21
23.230869448
  0
LWPOLYLINE
  5
25A
100
AcDbEntity
  8
0
100
AcDbPolyline
 62
253
  6
CONTINUOUS
 90
22
 70
0
 10
-46.5795212939
 20
14.6085591576
 10
-46.5780992523
 20
14.5711983699
 10
-46.5738866079
 20
14.5340466456
 10
-46.566906925
 20
14.4973119614
 10
-46.557199202
 20
14.4611997806
 10
-46.5448177941
 20
14.4259124543
 10
-46.5298322436
 20
14.3916480422
 10
-46.5123267215
 20
14.3585986274
 10
-46.4923991814
 20
14.3269488205
 10
-46.4701609326
 20
14.296875314
 10
-46.4457352918
 20
14.2685452081
 10
-46.4192599474
 20
14.2421185054
 10
-46.3908866789
 20
14.217745997
 10
-46.3607773932
 20
14.1955649867
 10
-46.3290989662
 20
14.1756967388
 10
-46.2960252307
 20
14.1582496524
 10
-46.2617208223
 20
14.1433132899
 10
-46.2263968057
 20
14.1309821688
 10
-46.1903107825
 20
14.1213388963
 10
-46.1536879122
 20
14.1144270421
 10
-46.1167147011
 20
14.1102655147
 10
-46.0795974464
 20
14.1088637441
  0
LINE
  5
25B
100
AcDbEntity
  8
DRAFT
100
AcDbLine
 62
7
  6
CONTINUOUS
 10
-46.5714559154
 20
-36.5357171432
 11
-46.6009554821
 21
-35.5599784182
  0
LINE
  5
25C
100
AcDbEntity
  8
DRAFT
100
AcDbLine
 62
7
  6
CONTINUOUS
 10
-46.6337843117
 20
-25.8
 11
-46.6157928661
 21
-27.5852753877
  0
LINE
  5
25D
100
AcDbEntity
  8
DRAFT
100
AcDbLine
 62
7
  6
CONTINUOUS
 10
-46.6009554821
 20
-35.5599784182
 11
-46.6116021879
 21
-30.2480032534
  0
LINE
  5
25E
100
AcDbEntity
  8
DRAFT
100
AcDbLine
 62
7
  6
CONTINUOUS
 10
-46.6116021879
 20
-30.2480032534
 11
-46.6157928661
 21
-27.5852753877
  0
LINE
  5
25F
100
AcDbEntity
  8
DRAFT
100
AcDbLine
 62
7
  6
CONTINUOUS
 10
-48.55
 20
24.0837843117
 11
-48.55
 21
23.2162156883
  0
LINE
  5
260
100
AcDbEntity
  8
DRAFT
100
AcDbLine
 62
7
  6
CONTINUOUS
 10
-48.55
 20
-23.2162156883
 11
-48.55
 21
-24.0837843117
  0
LINE
  5
261
100
AcDbEntity
  8
DRAFT
100
AcDbLine
 62
7
  6
CONTINUOUS
 10
-46.6512393766
 20
0.4512393766
 11
-46.6512393766
 21
-0.4512393766
  0
LINE
  5
262
100
AcDbEntity
  8
DRAFT
100
AcDbLine
 62
7
  6
CONTINUOUS
 10
-46.6337843117
 20
25.8
 11
-46.6337843117
 21
24.0837843117
  0
LINE
  5
263
100
AcDbEntity
  8
0
100
AcDbLine
 62
7
  6
CONTINUOUS
 10
-46.6337843117
 20
-19.0
 11
-46.6337843117
 21
-23.2162156883
  0
LINE
  5
264
100
AcDbEntity
  8
DRAFT
100
AcDbLine
 62
7
  6
CONTINUOUS
 10
-46.6337843117
 20
-24.0837843117
 11
-46.6337843117
 21
-25.8
  0
LINE
  5
265
100
AcDbEntity
  8
0
100
AcDbLine
 62
7
  6
CONTINUOUS
 10
-46.6337843117
 20
18.4999999536
 11
-46.6337843117
 21
23.2162156883
  0
LINE
  5
266
100
AcDbEntity
  8
0
100
AcDbLine
 62
7
  6
CONTINUOUS
 10
-46.6250567792
 20
-18.9825396153
 11
-46.6250567792
 21
14.5174604312
  0
LINE
  5
267
100
AcDbEntity
  8
0
100
AcDbLine
 62
253
  6
CONTINUOUS
 10
-46.5795212939
 20
14.6085591576
 11
-46.5795212939
 21
18.3914408424
  0
LINE
  5
268
100
AcDbEntity
  8
RACCORDO
100
AcDbLine
 62
7
  6
CONTINUOUS
 10
-46.55
 20
43.0
 11
-46.55
 21
36.8848266046
  0
LINE
  5
269
100
AcDbEntity
  8
RACCORDO
100
AcDbLine
 62
7
  6
CONTINUOUS
 10
-46.55
 20
-36.8848266046
 11
-46.55
 21
-43.0
  0
LINE
  5
26A
100
AcDbEntity
  8
0
100
AcDbLine
 62
253
  6
CONTINUOUS
 10
-46.0795974464
 20
14.1088637441
 11
-46.0795974464
 21
18.8911362559
  0
LINE
  5
26B
100
AcDbEntity
  8
RACCORDO
100
AcDbLine
 62
7
  6
CONTINUOUS
 10
-45.85
 20
-36.8848266046
 11
-45.85
 21
-43.0
  0
LINE
  5
26C
100
AcDbEntity
  8
0
100
AcDbLine
 62
7
  6
CONTINUOUS
 10
-45.85
 20
24.0
 11
-45.85
 21
36.5357171432
  0
LINE
  5
26D
100
AcDbEntity
  8
RACCORDO
100
AcDbLine
 62
7
  6
CONTINUOUS
 10
-45.85
 20
36.5357171432
 11
-45.85
 21
43.0
  0
LINE
  5
26E
100
AcDbEntity
  8
0
100
AcDbLine
 62
7
  6
CONTINUOUS
 10
-45.7662156883
 20
-24.0
 11
-45.7662156883
 21
-25.8
  0
LINE
  5
26F
100
AcDbEntity
  8
0
100
AcDbLine
 62
7
  6
CONTINUOUS
 10
-45.131416724
 20
14.6085591576
 11
-45.131416724
 21
18.3914408424
  0
LINE
  5
270
100
AcDbEntity
  8
0
100
AcDbLine
 62
7
  6
CONTINUOUS
 10
-45.1043634339
 20
14.0174603847
 11
-45.1043634339
 21
-18.9825396153
  0
LINE
  5
271
100
AcDbEntity
  8
0
100
AcDbLine
 62
7
  6
CONTINUOUS
 10
-45.1
 20
21.7010963722
 11
-45.1
 21
19.0
  0
LINE
  5
272
100
AcDbEntity
  8
0
100
AcDbLine
 62
7
  6
CONTINUOUS
 10
-45.1
 20
-19.0
 11
-45.1
 21
-21.7010963722
  0
LINE
  5
273
100
AcDbEntity
  8
DRAFT
100
AcDbLine
 62
7
  6
CONTINUOUS
 10
-45.7837534229
 20
-27.5402540431
 11
-45.7929147584
 21
-32.8825188293
  0
LINE
  5
274
100
AcDbEntity
  8
DRAFT
100
AcDbLine
 62
7
  6
CONTINUOUS
 10
-46.6157928661
 20
27.5852753877
 11
-46.6009554821
 21
35.5599784182
  0
LINE
  5
275
100
AcDbEntity
  8
DRAFT
100
AcDbLine
 62
7
  6
CONTINUOUS
 10
-45.7929147584
 20
-32.8825188293
 11
-45.7986374192
 21
-35.5465130714
  0
LINE
  5
276
100
AcDbEntity
  8
DRAFT
100
AcDbLine
 62
7
  6
CONTINUOUS
 10
-46.6157928661
 20
27.5852753877
 11
-46.6337843117
 21
25.8
  0
LINE
  5
277
100
AcDbEntity
  8
DRAFT
100
AcDbLine
 62
7
  6
CONTINUOUS
 10
-45.7837534229
 20
-27.5402540431
 11
-45.7662156883
 21
-25.8
  0
LINE
  5
278
100
AcDbEntity
  8
DRAFT
100
AcDbLine
 62
7
  6
CONTINUOUS
 10
-46.5714559154
 20
36.5357171432
 11
-46.6009554821
 21
35.5599784182
  0
LINE
  5
279
100
AcDbEntity
  8
DRAFT
100
AcDbLine
 62
7
  6
CONTINUOUS
 10
-45.8285440846
 20
-36.5357171432
 11
-45.7986374192
 21
-35.5465130714
  0
LWPOLYLINE
  5
27A
100
AcDbEntity
  8
0
100
AcDbPolyline
 62
253
  6
CONTINUOUS
 90
22
 70
0
 10
-46.5795212939
 20
18.3914408424
 10
-46.5780992523
 20
18.4288016298
 10
-46.5738866081
 20
18.4659533537
 10
-46.5669069253
 20
18.5026880376
 10
-46.5571992024
 20
18.538800218
 10
-46.5448177947
 20
18.5740875441
 10
-46.5298322445
 20
18.6083519559
 10
-46.5123267227
 20
18.6414013705
 10
-46.492399183
 20
18.6730511772
 10
-46.4701609345
 20
18.7031246835
 10
-46.4457352942
 20
18.7314547894
 10
-46.41925995
 20
18.7578814921
 10
-46.3908866819
 20
18.7822540006
 10
-46.3607773967
 20
18.8044350109
 10
-46.3290989702
 20
18.8243032588
 10
-46.2960252351
 20
18.8417503455
 10
-46.2617208269
 20
18.8566867083
 10
-46.2263968102
 20
18.8690178298
 10
-46.1903107866
 20
18.8786611028
 10
-46.1536879154
 20
18.8855729574
 10
-46.1167147029
 20
18.8897344851
 10
-46.0795974464
 20
18.8911362559
  0
LINE
  5
27B
100
AcDbEntity
  8
DRAFT
100
AcDbLine
 62
7
  6
CONTINUOUS
 10
-50.0040797367
 20
-23.230869448
 11
-50.0528309069
 21
-23.6960595384
  0
LINE
  5
27C
100
AcDbEntity
  8
DRAFT
100
AcDbLine
 62
7
  6
CONTINUOUS
 10
-50.0528309069
 20
-23.6960595384
 11
-50.0936030776
 21
-24.0682283639
  0
LINE
  5
27D
100
AcDbEntity
  8
0
100
AcDbLine
 62
7
  6
CONTINUOUS
 10
-45.1
 20
19.0
 11
-45.1272055718
 21
18.8911362559
  0
LINE
  5
27E
100
AcDbEntity
  8
0
100
AcDbLine
 62
253
  6
CONTINUOUS
 10
-46.6250567792
 20
14.5174604312
 11
-46.5795212939
 21
14.6085591576
  0
LINE
  5
27F
100
AcDbEntity
  8
0
100
AcDbLine
 62
253
  6
CONTINUOUS
 10
-46.1252852017
 20
14.0174603847
 11
-46.0795974464
 21
14.1088637441
  0
LWPOLYLINE
  5
280
100
AcDbEntity
  8
0
100
AcDbPolyline
 62
7
  6
CONTINUOUS
 90
3
 70
0
 10
-33.1043834757
 20
28.6113961839
 10
-33.0807191254
 20
28.6378051504
 10
-33.0678641835
 20
28.6519729641
  0
LWPOLYLINE
  5
281
100
AcDbEntity
  8
0
100
AcDbPolyline
 62
7
  6
CONTINUOUS
 90
3
 70
0
 10
-33.1025941787
 20
28.0111428961
 10
-33.0789262894
 20
28.037442879
 10
-33.0660695886
 20
28.0515626313
  0
LWPOLYLINE
  5
282
100
AcDbEntity
  8
0
100
AcDbPolyline
 62
7
  6
CONTINUOUS
 90
3
 70
0
 10
-33.0678641835
 20
28.6519729641
 10
-33.040275941
 20
28.6817335213
 10
-33.025790439
 20
28.6972298427
  0
LWPOLYLINE
  5
283
100
AcDbEntity
  8
0
100
AcDbPolyline
 62
7
  6
CONTINUOUS
 90
3
 70
0
 10
-33.0660695886
 20
28.0515626313
 10
-33.0384778387
 20
28.0812396503
 10
-33.0239906077
 20
28.0967001885
  0
LINE
  5
284
100
AcDbEntity
  8
0
100
AcDbLine
 62
7
  6
CONTINUOUS
 10
-33.025790439
 20
28.6972298427
 11
-32.9800547023
 21
28.7453238453
  0
LINE
  5
285
100
AcDbEntity
  8
0
100
AcDbLine
 62
7
  6
CONTINUOUS
 10
-33.0239906077
 20
28.0967001885
 11
-32.9782497706
 21
28.1447100402
  0
LINE
  5
286
100
AcDbEntity
  8
0
100
AcDbLine
 62
7
  6
CONTINUOUS
 10
-32.9800547023
 20
28.7453238453
 11
-32.9322299859
 21
28.7947202098
  0
LINE
  5
287
100
AcDbEntity
  8
0
100
AcDbLine
 62
7
  6
CONTINUOUS
 10
-32.9782497706
 20
28.1447100402
 11
-32.9304201002
 21
28.1940553929
  0
LWPOLYLINE
  5
288
100
AcDbEntity
  8
0
100
AcDbPolyline
 62
7
  6
CONTINUOUS
 90
4
 70
0
 10
-32.9322299859
 20
28.7947202098
 10
-32.8838791536
 20
28.8439392567
 10
-32.8678933968
 20
28.8600557844
 10
-32.8519546125
 20
28.8759468191
  0
LWPOLYLINE
  5
289
100
AcDbEntity
  8
0
100
AcDbPolyline
 62
7
  6
CONTINUOUS
 90
4
 70
0
 10
-32.9304201002
 20
28.1940553929
 10
-32.8820645172
 20
28.2432545767
 10
-32.8660772394
 20
28.2593709862
 10
-32.850136964
 20
28.2752649765
  0
LINE
  5
28A
100
AcDbEntity
  8
DRAFT
100
AcDbLine
 62
7
  6
CONTINUOUS
 10
-46.6337843117
 20
23.2162156883
 11
-46.6611990254
 21
23.1888009746
  0
LINE
  5
28B
100
AcDbEntity
  8
0
100
AcDbLine
 62
7
  6
CONTINUOUS
 10
-33.1499542122
 20
27.9500457878
 11
-33.35
 21
27.75
  0
LINE
  5
28C
100
AcDbEntity
  8
0
100
AcDbLine
 62
7
  6
CONTINUOUS
 10
-34.95
 20
27.35
 11
-35.3641963536
 21
26.9465093858
  0
LINE
  5
28D
100
AcDbEntity
  8
RACCORDO
100
AcDbLine
 62
7
  6
CONTINUOUS
 10
-67.2857171432
 20
24.0214559154
 11
-67.3352377442
 21
24.0049624612
  0
LWPOLYLINE
  5
28E
100
AcDbEntity
  8
RACCORDO
100
AcDbPolyline
 62
7
  6
CONTINUOUS
 90
22
 70
0
 10
70.3470750666
 20
-43.5000000314
 10
70.3820966823
 20
-43.4985940697
 10
70.4155092631
 20
-43.4951953969
 10
70.4473128088
 20
-43.489804013
 10
70.4773985585
 20
-43.4823866704
 10
70.5058752733
 20
-43.4729766166
 10
70.533069236
 20
-43.4616735948
 10
70.55918442
 20
-43.44844169
 10
70.584016852
 20
-43.433316817
 10
70.6072808949
 20
-43.4165064631
 10
70.6289533707
 20
-43.39796969
 10
70.6490574575
 20
-43.3777474359
 10
70.6673770514
 20
-43.3561700034
 10
70.6838301888
 20
-43.3333808692
 10
70.6984988333
 20
-43.3092365564
 10
70.7114127724
 20
-43.2836369377
 10
70.7226599777
 20
-43.256630204
 10
70.7321524776
 20
-43.2281681643
 10
70.7396561439
 20
-43.198006118
 10
70.745092934
 20
-43.1660624985
 10
70.7485408907
 20
-43.1324188725
 10
70.7500000138
 20
-43.0970752401
  0
LWPOLYLINE
  5
28F
100
AcDbEntity
  8
RACCORDO
100
AcDbPolyline
 62
253
  6
CONTINUOUS
 90
14
 70
0
 10
70.0222108508
 20
-42.7644786614
 10
70.0422995859
 20
-42.763732563
 10
70.0616772301
 20
-42.7624525865
 10
70.080139921
 20
-42.7606751068
 10
70.0975918871
 20
-42.758783422
 10
70.1138048249
 20
-42.756556415
 10
70.1285476948
 20
-42.7538732072
 10
70.1417322794
 20
-42.751187829
 10
70.1532375823
 20
-42.7482659629
 10
70.1628609256
 20
-42.7449318623
 10
70.170493303
 20
-42.7416732371
 10
70.1761078221
 20
-42.7385251282
 10
70.1796716689
 20
-42.7350816884
 10
70.1811204268
 20
-42.7311508878
  0
LINE
  5
290
100
AcDbEntity
  8
RACCORDO
100
AcDbLine
 62
253
  6
CONTINUOUS
 10
69.9811508878
 20
-42.7655612578
 11
70.0222108508
 21
-42.7644786614
  0
LINE
  5
291
100
AcDbEntity
  8
RACCORDO
100
AcDbLine
 62
7
  6
CONTINUOUS
 10
71.2513704652
 20
-45.0
 11
-71.2513704652
 21
-45.0
  0
LINE
  5
292
100
AcDbEntity
  8
RACCORDO
100
AcDbLine
 62
7
  6
CONTINUOUS
 10
71.2506852376
 20
-44.4999999994
 11
-71.2506852343
 21
-44.4999999998
  0
LINE
  5
293
100
AcDbEntity
  8
RACCORDO
100
AcDbLine
 62
7
  6
CONTINUOUS
 10
70.3470750666
 20
-43.5000000314
 11
-70.3470752386
 21
-43.5000000137
  0
LWPOLYLINE
  5
294
100
AcDbEntity
  8
RACCORDO
100
AcDbPolyline
 62
253
  6
CONTINUOUS
 90
15
 70
0
 10
-69.9811508878
 20
-42.7655612578
 10
-70.0222108547
 20
-42.7644786612
 10
-70.0422995913
 20
-42.7637325627
 10
-70.0616772367
 20
-42.762452586
 10
-70.0801399285
 20
-42.760675106
 10
-70.097591895
 20
-42.758783421
 10
-70.1138048327
 20
-42.7565564138
 10
-70.1285477021
 20
-42.7538732059
 10
-70.1417322858
 20
-42.7511878275
 10
-70.1532375874
 20
-42.7482659614
 10
-70.1628609294
 20
-42.744931861
 10
-70.1704933055
 20
-42.7416732359
 10
-70.1761078234
 20
-42.738525127
 10
-70.1796716693
 20
-42.7350816876
 10
-70.1811204268
 20
-42.7311508878
  0
LWPOLYLINE
  5
295
100
AcDbEntity
  8
RACCORDO
100
AcDbPolyline
 62
7
  6
CONTINUOUS
 90
22
 70
0
 10
-71.2506852343
 20
-44.4999999998
 10
-71.2882541352
 20
-44.4985466998
 10
-71.3251974882
 20
-44.4944028034
 10
-71.3615152933
 20
-44.4875683106
 10
-71.3973780392
 20
-44.4779918969
 10
-71.4326152371
 20
-44.4657248868
 10
-71.4667154207
 20
-44.4509212541
 10
-71.4996913506
 20
-44.4335392158
 10
-71.5315302662
 20
-44.4136205549
 10
-71.5616824187
 20
-44.3914445937
 10
-71.5901565931
 20
-44.3669104211
 10
-71.6169440046
 20
-44.3401189483
 10
-71.6414685494
 20
-44.311652231
 10
-71.6636257933
 20
-44.2815326131
 10
-71.6835201704
 20
-44.2497377507
 10
-71.7008888806
 20
-44.2167826683
 10
-71.7157012323
 20
-44.1826550539
 10
-71.727987917
 20
-44.1473672194
 10
-71.7375782087
 20
-44.1114711244
 10
-71.7444151987
 20
-44.0751507553
 10
-71.7485557957
 20
-44.0382221257
 10
-71.7499999997
 20
-44.0006852355
  0
LWPOLYLINE
  5
296
100
AcDbEntity
  8
RACCORDO
100
AcDbPolyline
 62
253
  6
CONTINUOUS
 90
19
 70
0
 10
-69.9811508878
 20
-42.9311204268
 10
-69.9985758757
 20
-42.9303544817
 10
-70.0158683139
 20
-42.928073086
 10
-70.0328966489
 20
-42.9242935927
 10
-70.0495313276
 20
-42.9190447545
 10
-70.0656458087
 20
-42.9123664978
 10
-70.0811175221
 20
-42.9043096118
 10
-70.0958287765
 20
-42.89493537
 10
-70.1096676307
 20
-42.8843150881
 10
-70.1225287745
 20
-42.8725295765
 10
-70.1343143559
 20
-42.8596685032
 10
-70.1449347212
 20
-42.8458297028
 10
-70.1543090737
 20
-42.8311184539
 10
-70.1623660954
 20
-42.8156466714
 10
-70.1690444872
 20
-42.7995320616
 10
-70.174293438
 20
-42.7828972257
 10
-70.1780730145
 20
-42.7658687189
 10
-70.1803544631
 20
-42.7485760871
 10
-70.1811204268
 20
-42.7311508878
  0
LINE
  5
297
100
AcDbEntity
  8
RACCORDO
100
AcDbLine
 62
7
  6
CONTINUOUS
 10
-67.2857171432
 20
-24.0214559154
 11
-67.3352377442
 21
-24.0049624612
  0
LINE
  5
298
100
AcDbEntity
  8
0
100
AcDbLine
 62
7
  6
CONTINUOUS
 10
-25.6249999642
 20
-35.3468085155
 11
-25.4375000358
 21
-35.4617021289
  0
LINE
  5
299
100
AcDbEntity
  8
0
100
AcDbLine
 62
7
  6
CONTINUOUS
 10
-25.3999999642
 20
-35.2702127665
 11
-25.5124999642
 21
-35.193617031
  0
LINE
  5
29A
100
AcDbEntity
  8
0
100
AcDbLine
 62
7
  6
CONTINUOUS
 10
-35.3641963536
 20
-26.9465093858
 11
-34.95
 21
-27.35
  0
LINE
  5
29B
100
AcDbEntity
  8
0
100
AcDbLine
 62
7
  6
CONTINUOUS
 10
-32.8678933968
 20
-28.8600557844
 11
-32.8519546125
 21
-28.8759468191
  0
LINE
  5
29C
100
AcDbEntity
  8
0
100
AcDbLine
 62
7
  6
CONTINUOUS
 10
-32.8660772393
 20
-28.2593709863
 11
-32.850136964
 21
-28.2752649765
  0
LINE
  5
29D
100
AcDbEntity
  8
DRAFT
100
AcDbLine
 62
7
  6
CONTINUOUS
 10
-46.6337843117
 20
-23.2162156883
 11
-46.6611990254
 21
-23.1888009746
  0
LINE
  5
29E
100
AcDbEntity
  8
0
100
AcDbLine
 62
7
  6
CONTINUOUS
 10
-45.7662156883
 20
-24.0
 11
-45.739628929
 21
-24.0265867593
  0
LINE
  5
29F
100
AcDbEntity
  8
0
100
AcDbLine
 62
7
  6
CONTINUOUS
 10
-33.1499542122
 20
-27.9500457878
 11
-33.35
 21
-27.75
  0
LINE
  5
2A0
100
AcDbEntity
  8
0
100
AcDbLine
 62
7
  6
CONTINUOUS
 10
-32.8980987974
 20
-28.2269621188
 11
-32.8660772393
 21
-28.2593709863
  0
LINE
  5
2A1
100
AcDbEntity
  8
0
100
AcDbLine
 62
7
  6
CONTINUOUS
 10
-32.8999118828
 20
-28.8276434954
 11
-32.8678933968
 21
-28.8600557844
  0
LINE
  5
2A2
100
AcDbEntity
  8
0
100
AcDbLine
 62
7
  6
CONTINUOUS
 10
-32.9304201
 20
-28.1940553931
 11
-32.8980987974
 21
-28.2269621188
  0
LINE
  5
2A3
100
AcDbEntity
  8
0
100
AcDbLine
 62
7
  6
CONTINUOUS
 10
-32.9322299859
 20
-28.7947202098
 11
-32.8999118828
 21
-28.8276434954
  0
LINE
  5
2A4
100
AcDbEntity
  8
0
100
AcDbLine
 62
7
  6
CONTINUOUS
 10
-32.9782497702
 20
-28.1447100405
 11
-32.9304201
 21
-28.1940553931
  0
LINE
  5
2A5
100
AcDbEntity
  8
0
100
AcDbLine
 62
7
  6
CONTINUOUS
 10
-32.9800547023
 20
-28.7453238453
 11
-32.9322299859
 21
-28.7947202098
  0
LINE
  5
2A6
100
AcDbEntity
  8
0
100
AcDbLine
 62
7
  6
CONTINUOUS
 10
-33.0239906074
 20
-28.0967001888
 11
-32.9782497702
 21
-28.1447100405
  0
LINE
  5
2A7
100
AcDbEntity
  8
0
100
AcDbLine
 62
7
  6
CONTINUOUS
 10
-33.025790439
 20
-28.6972298427
 11
-32.9800547023
 21
-28.7453238453
  0
LWPOLYLINE
  5
2A8
100
AcDbEntity
  8
0
100
AcDbPolyline
 62
7
  6
CONTINUOUS
 90
4
 70
0
 10
-33.0789262891
 20
-28.0374428793
 10
-33.0660695883
 20
-28.0515626317
 10
-33.0525096174
 20
-28.0661664709
 10
-33.0239906074
 20
-28.0967001888
  0
LWPOLYLINE
  5
2A9
100
AcDbEntity
  8
0
100
AcDbPolyline
 62
7
  6
CONTINUOUS
 90
4
 70
0
 10
-33.0807191254
 20
-28.6378051504
 10
-33.0678641835
 20
-28.6519729641
 10
-33.0543059731
 20
-28.6666205811
 10
-33.025790439
 20
-28.6972298427
  0
LINE
  5
2AA
100
AcDbEntity
  8
0
100
AcDbLine
 62
7
  6
CONTINUOUS
 10
-45.1
 20
-19.0
 11
-45.1043634339
 21
-18.9825396153
  0
LINE
  5
2AB
100
AcDbEntity
  8
DRAFT
100
AcDbLine
 62
7
  6
CONTINUOUS
 10
-50.0936030776
 20
24.0682283639
 11
-50.0730200998
 21
23.8821420141
  0
LINE
  5
2AC
100
AcDbEntity
  8
0
100
AcDbLine
 62
7
  6
CONTINUOUS
 10
-28.42338
 20
35.612109
 11
-29.209048
 21
32.859121
  0
LWPOLYLINE
  5
2AD
100
AcDbEntity
  8
0
100
AcDbPolyline
 62
7
  6
CONTINUOUS
 90
10
 70
0
 10
-33.1508595627
 20
28.5516984938
 10
-33.1509909161
 20
28.5512603378
 10
-33.1511224032
 20
28.5508697838
 10
-33.151254024
 20
28.5505268316
 10
-33.1513857974
 20
28.5502314486
 10
-33.1515177045
 20
28.5499836674
 10
-33.1516496894
 20
28.5497835863
 10
-33.1517817333
 20
28.5496312377
 10
-33.1519138551
 20
28.5495265891
 10
-33.1520460546
 20
28.5494696404
  0
LINE
  5
2AE
100
AcDbEntity
  8
0
100
AcDbLine
 62
7
  6
CONTINUOUS
 10
-28.874698
 20
31.612597
 11
-27.589095
 21
35.612109
  0
LWPOLYLINE
  5
2AF
100
AcDbEntity
  8
0
100
AcDbPolyline
 62
7
  6
CONTINUOUS
 90
8
 70
0
 10
-33.1508596262
 20
28.5516983052
 10
-33.148644224
 20
28.5557579317
 10
-33.1449132006
 20
28.5616387915
 10
-33.1396665558
 20
28.5691359728
 10
-33.1327427902
 20
28.5780281126
 10
-33.1243034034
 20
28.5881270581
 10
-33.1148328937
 20
28.5993068767
 10
-33.1043834757
 20
28.6113961839
  0
LWPOLYLINE
  5
2B0
100
AcDbEntity
  8
0
100
AcDbPolyline
 62
7
  6
CONTINUOUS
 90
8
 70
0
 10
-33.1490796797
 20
27.9519724288
 10
-33.1468635194
 20
27.9559431926
 10
-33.143131532
 20
27.9617392909
 10
-33.1378837172
 20
27.9691561609
 10
-33.1309585258
 20
27.9779728168
 10
-33.1225175071
 20
27.9880011311
 10
-33.1130453093
 20
27.999114917
 10
-33.1025941787
 20
28.0111428961
  0
LINE
  5
2B1
100
AcDbEntity
  8
0
100
AcDbLine
 62
253
  6
CONTINUOUS
 10
-32.4463209205
 20
27.7534963276
 11
-32.2497754079
 21
27.9500457878
  0
LINE
  5
2B2
100
AcDbEntity
  8
0
100
AcDbLine
 62
253
  6
CONTINUOUS
 10
-32.1360402013
 20
27.4641425506
 11
-31.9482180589
 21
27.6519684658
  0
LINE
  5
2B3
100
AcDbEntity
  8
RACCORDO
100
AcDbLine
 62
7
  6
CONTINUOUS
 10
-11.6688795732
 20
42.9311204268
 11
-11.6
 21
43.0
  0
LWPOLYLINE
  5
2B4
100
AcDbEntity
  8
0
100
AcDbPolyline
 62
7
  6
CONTINUOUS
 90
6
 70
0
 10
-16.0706753899
 20
33.5227732052
 10
-16.0566116347
 20
33.5313234931
 10
-16.0426075079
 20
33.5407180125
 10
-16.0287956092
 20
33.5508857535
 10
-16.0150433389
 20
33.5618976915
 10
-15.9865949597
 20
33.5852846543
  0
LINE
  5
2B5
100
AcDbEntity
  8
0
100
AcDbLine
 62
7
  6
CONTINUOUS
 10
-34.5968102756
 20
24.0265867593
 11
-34.65
 21
24.0
  0
LINE
  5
2B6
100
AcDbEntity
  8
RACCORDO
100
AcDbLine
 62
7
  6
CONTINUOUS
 10
-70.050030461
 20
-43.0
 11
-46.55
 21
-43.0
  0
LINE
  5
2B7
100
AcDbEntity
  8
DRAFT
100
AcDbLine
 62
7
  6
CONTINUOUS
 10
-45.85
 20
-43.0
 11
-11.6
 21
-43.0
  0
LINE
  5
2B8
100
AcDbEntity
  8
DRAFT
100
AcDbLine
 62
7
  6
CONTINUOUS
 10
-10.9
 20
-43.0
 11
10.9
 21
-43.0
  0
LINE
  5
2B9
100
AcDbEntity
  8
DRAFT
100
AcDbLine
 62
7
  6
CONTINUOUS
 10
11.6
 20
-43.0
 11
45.85
 21
-43.0
  0
LINE
  5
2BA
100
AcDbEntity
  8
RACCORDO
100
AcDbLine
 62
7
  6
CONTINUOUS
 10
46.55
 20
-43.0
 11
70.050030461
 21
-43.0
  0
LINE
  5
2BB
100
AcDbEntity
  8
RACCORDO
100
AcDbLine
 62
253
  6
CONTINUOUS
 10
69.9811508878
 20
-42.9311204268
 11
46.6188795732
 21
-42.9311204268
  0
LINE
  5
2BC
100
AcDbEntity
  8
RACCORDO
100
AcDbLine
 62
253
  6
CONTINUOUS
 10
45.7811204268
 20
-42.9311204268
 11
11.6688795732
 21
-42.9311204268
  0
LINE
  5
2BD
100
AcDbEntity
  8
RACCORDO
100
AcDbLine
 62
253
  6
CONTINUOUS
 10
10.8311204268
 20
-42.9311204268
 11
-10.8311204268
 21
-42.9311204268
  0
LINE
  5
2BE
100
AcDbEntity
  8
RACCORDO
100
AcDbLine
 62
253
  6
CONTINUOUS
 10
-11.6688795732
 20
-42.9311204268
 11
-45.7811204268
 21
-42.9311204268
  0
LINE
  5
2BF
100
AcDbEntity
  8
RACCORDO
100
AcDbLine
 62
253
  6
CONTINUOUS
 10
-46.6188795732
 20
-42.9311204268
 11
-69.9811508878
 21
-42.9311204268
  0
LINE
  5
2C0
100
AcDbEntity
  8
RACCORDO
100
AcDbLine
 62
253
  6
CONTINUOUS
 10
69.9811508878
 20
-42.7655612578
 11
46.6222576013
 21
-42.7655612578
  0
LINE
  5
2C1
100
AcDbEntity
  8
RACCORDO
100
AcDbLine
 62
253
  6
CONTINUOUS
 10
45.7777423987
 20
-42.7655612578
 11
11.6722576013
 21
-42.7655612578
  0
LINE
  5
2C2
100
AcDbEntity
  8
RACCORDO
100
AcDbLine
 62
253
  6
CONTINUOUS
 10
10.8277423987
 20
-42.7655612578
 11
-10.8277423987
 21
-42.7655612578
  0
LINE
  5
2C3
100
AcDbEntity
  8
RACCORDO
100
AcDbLine
 62
253
  6
CONTINUOUS
 10
-11.6722576013
 20
-42.7655612578
 11
-45.7777423987
 21
-42.7655612578
  0
LINE
  5
2C4
100
AcDbEntity
  8
RACCORDO
100
AcDbLine
 62
253
  6
CONTINUOUS
 10
-46.6222576013
 20
-42.7655612578
 11
-69.9811508878
 21
-42.7655612578
  0
LINE
  5
2C5
100
AcDbEntity
  8
0
100
AcDbLine
 62
7
  6
CONTINUOUS
 10
-25.4375000358
 20
-35.4617021289
 11
-25.25
 21
-35.5
  0
LINE
  5
2C6
100
AcDbEntity
  8
0
100
AcDbLine
 62
7
  6
CONTINUOUS
 10
-23.7875
 20
-35.4617021289
 11
-23.6000000715
 21
-35.5
  0
LINE
  5
2C7
100
AcDbEntity
  8
0
100
AcDbLine
 62
7
  6
CONTINUOUS
 10
-25.475
 20
-34.8106382728
 11
-25.2874999642
 21
-34.8489361942
  0
LINE
  5
2C8
100
AcDbEntity
  8
0
100
AcDbLine
 62
7
  6
CONTINUOUS
 10
-22.1750001431
 20
-35.4617021289
 11
-21.9875
 21
-35.5
  0
LINE
  5
2C9
100
AcDbEntity
  8
0
100
AcDbLine
 62
7
  6
CONTINUOUS
 10
-23.225
 20
-34.3893617272
 11
-23.4124999285
 21
-34.3510638595
  0
LINE
  5
2CA
100
AcDbEntity
  8
0
100
AcDbLine
 62
7
  6
CONTINUOUS
 10
-24.9125
 20
-33.7382978678
 11
-25.1000000358
 21
-33.7
  0
LINE
  5
2CB
100
AcDbEntity
  8
0
100
AcDbLine
 62
7
  6
CONTINUOUS
 10
-21.5749998569
 20
-34.3893617272
 11
-21.7625
 21
-34.3510638595
  0
LINE
  5
2CC
100
AcDbEntity
  8
0
100
AcDbLine
 62
7
  6
CONTINUOUS
 10
-23.2625000715
 20
-33.7382978678
 11
-23.45
 21
-33.7
  0
LINE
  5
2CD
100
AcDbEntity
  8
0
100
AcDbLine
 62
7
  6
CONTINUOUS
 10
-21.9875
 20
-35.3085106343
 11
-22.1374998569
 21
-35.2702127665
  0
LINE
  5
2CE
100
AcDbEntity
  8
0
100
AcDbLine
 62
7
  6
CONTINUOUS
 10
-21.7625
 20
-34.5425531983
 11
-21.6125001431
 21
-34.5808510661
  0
LWPOLYLINE
  5
2CF
100
AcDbEntity
  8
RACCORDO
100
AcDbPolyline
 62
7
  6
CONTINUOUS
 90
10
 70
0
 10
-70.1431484469
 20
-24.1068515531
 10
-70.1420818444
 20
-24.107152767
 10
-70.1396072927
 20
-24.1074473889
 10
-70.1357247918
 20
-24.1077354187
 10
-70.1304174731
 20
-24.1080184148
 10
-70.1237022053
 20
-24.1082948188
 10
-70.1156295943
 20
-24.1085599557
 10
-70.1061216232
 20
-24.1088148782
 10
-70.0952563089
 20
-24.1090585336
 10
-70.0702531835
 20
-24.1094875253
  0
LINE
  5
2D0
100
AcDbEntity
  8
0
100
AcDbLine
 62
7
  6
CONTINUOUS
 10
-25.2874999642
 20
-35.3085106343
 11
-25.3999999642
 21
-35.2702127665
  0
LINE
  5
2D1
100
AcDbEntity
  8
0
100
AcDbLine
 62
7
  6
CONTINUOUS
 10
-23.6374999285
 20
-35.3085106343
 11
-23.7499999285
 21
-35.2702127665
  0
LINE
  5
2D2
100
AcDbEntity
  8
0
100
AcDbLine
 62
7
  6
CONTINUOUS
 10
-25.3250000358
 20
-34.6574468017
 11
-25.4375000358
 21
-34.6191489339
  0
LINE
  5
2D3
100
AcDbEntity
  8
0
100
AcDbLine
 62
7
  6
CONTINUOUS
 10
-23.3750000715
 20
-34.5425531983
 11
-23.2625000715
 21
-34.5808510661
  0
LINE
  5
2D4
100
AcDbEntity
  8
0
100
AcDbLine
 62
7
  6
CONTINUOUS
 10
-25.0624999642
 20
-33.8914893389
 11
-24.9499999642
 21
-33.9297872066
  0
LINE
  5
2D5
100
AcDbEntity
  8
0
100
AcDbLine
 62
7
  6
CONTINUOUS
 10
-23.4124999285
 20
-33.8914893389
 11
-23.2999999285
 21
-33.9297872066
  0
LWPOLYLINE
  5
2D6
100
AcDbEntity
  8
0
100
AcDbPolyline
 62
7
  6
CONTINUOUS
 90
10
 70
0
 10
-33.1520460546
 20
-28.5494696404
 10
-33.1519138551
 20
-28.5495265891
 10
-33.1517817333
 20
-28.5496312377
 10
-33.1516496894
 20
-28.5497835863
 10
-33.1515177044
 20
-28.5499836679
 10
-33.1513857971
 20
-28.5502314495
 10
-33.151254024
 20
-28.5505268316
 10
-33.151122404
 20
-28.5508697812
 10
-33.1509909183
 20
-28.5512603313
 10
-33.1508595667
 20
-28.551698482
  0
LINE
  5
2D7
100
AcDbEntity
  8
0
100
AcDbLine
 62
7
  6
CONTINUOUS
 10
-34.5968102756
 20
-24.0265867593
 11
-34.65
 21
-24.0
  0
LINE
  5
2D8
100
AcDbEntity
  8
0
100
AcDbLine
 62
7
  6
CONTINUOUS
 10
-25.6625000358
 20
-34.6957446694
 11
-25.475
 21
-34.8106382728
  0
LINE
  5
2D9
100
AcDbEntity
  8
0
100
AcDbLine
 62
7
  6
CONTINUOUS
 10
-23.9749999285
 20
-35.3468085155
 11
-23.7875
 21
-35.4617021289
  0
LINE
  5
2DA
100
AcDbEntity
  8
0
100
AcDbLine
 62
7
  6
CONTINUOUS
 10
-22.3624998569
 20
-35.3468085155
 11
-22.1750001431
 21
-35.4617021289
  0
LINE
  5
2DB
100
AcDbEntity
  8
0
100
AcDbLine
 62
7
  6
CONTINUOUS
 10
-24.7250000715
 20
-33.8531914711
 11
-24.9125
 21
-33.7382978678
  0
LINE
  5
2DC
100
AcDbEntity
  8
0
100
AcDbLine
 62
7
  6
CONTINUOUS
 10
-23.0375000715
 20
-34.5042553306
 11
-23.225
 21
-34.3893617272
  0
LINE
  5
2DD
100
AcDbEntity
  8
0
100
AcDbLine
 62
7
  6
CONTINUOUS
 10
-23.0749999285
 20
-33.8531914711
 11
-23.2625000715
 21
-33.7382978678
  0
LINE
  5
2DE
100
AcDbEntity
  8
0
100
AcDbLine
 62
7
  6
CONTINUOUS
 10
-21.3875001431
 20
-34.5042553306
 11
-21.5749998569
 21
-34.3893617272
  0
LINE
  5
2DF
100
AcDbEntity
  8
0
100
AcDbLine
 62
7
  6
CONTINUOUS
 10
-25.4375000358
 20
-34.6191489339
 11
-25.5500000358
 21
-34.5425531983
  0
LINE
  5
2E0
100
AcDbEntity
  8
0
100
AcDbLine
 62
7
  6
CONTINUOUS
 10
-23.7499999285
 20
-35.2702127665
 11
-23.8624999285
 21
-35.193617031
  0
LINE
  5
2E1
100
AcDbEntity
  8
0
100
AcDbLine
 62
7
  6
CONTINUOUS
 10
-24.9499999642
 20
-33.9297872066
 11
-24.8374999642
 21
-34.0063829422
  0
LINE
  5
2E2
100
AcDbEntity
  8
0
100
AcDbLine
 62
7
  6
CONTINUOUS
 10
-23.2625000715
 20
-34.5808510661
 11
-23.1500000715
 21
-34.6574468017
  0
LINE
  5
2E3
100
AcDbEntity
  8
0
100
AcDbLine
 62
7
  6
CONTINUOUS
 10
-22.1374998569
 20
-35.2702127665
 11
-22.2499998569
 21
-35.193617031
  0
LINE
  5
2E4
100
AcDbEntity
  8
0
100
AcDbLine
 62
7
  6
CONTINUOUS
 10
-23.2999999285
 20
-33.9297872066
 11
-23.1874999285
 21
-34.0063829422
  0
LINE
  5
2E5
100
AcDbEntity
  8
0
100
AcDbLine
 62
7
  6
CONTINUOUS
 10
-21.6125001431
 20
-34.5808510661
 11
-21.5000001431
 21
-34.6574468017
  0
LINE
  5
2E6
100
AcDbEntity
  8
0
100
AcDbLine
 62
253
  6
CONTINUOUS
 10
-32.4463209205
 20
-27.7534963276
 11
-32.249767363
 21
-27.9500457878
  0
LINE
  5
2E7
100
AcDbEntity
  8
0
100
AcDbLine
 62
253
  6
CONTINUOUS
 10
-32.1360402013
 20
-27.4641425506
 11
-31.9482180393
 21
-27.651961212
  0
LINE
  5
2E8
100
AcDbEntity
  8
RACCORDO
100
AcDbLine
 62
7
  6
CONTINUOUS
 10
-11.6688795732
 20
-42.9311204268
 11
-11.6
 21
-43.0
  0
LINE
  5
2E9
100
AcDbEntity
  8
0
100
AcDbLine
 62
7
  6
CONTINUOUS
 10
-23.1500000715
 20
-34.6574468017
 11
-23.0749999285
 21
-34.7340425372
  0
LINE
  5
2EA
100
AcDbEntity
  8
0
100
AcDbLine
 62
7
  6
CONTINUOUS
 10
-22.9249998569
 20
-34.6191489339
 11
-23.0375000715
 21
-34.5042553306
  0
LINE
  5
2EB
100
AcDbEntity
  8
0
100
AcDbLine
 62
7
  6
CONTINUOUS
 10
-25.7375000179
 20
-35.193617031
 11
-25.6249999642
 21
-35.3468085155
  0
LINE
  5
2EC
100
AcDbEntity
  8
0
100
AcDbLine
 62
7
  6
CONTINUOUS
 10
-25.7749999821
 20
-34.5425531983
 11
-25.6625000358
 21
-34.6957446694
  0
LINE
  5
2ED
100
AcDbEntity
  8
0
100
AcDbLine
 62
7
  6
CONTINUOUS
 10
-24.0874999285
 20
-35.193617031
 11
-23.9749999285
 21
-35.3468085155
  0
LINE
  5
2EE
100
AcDbEntity
  8
0
100
AcDbLine
 62
7
  6
CONTINUOUS
 10
-24.6125000715
 20
-34.0063829422
 11
-24.7250000715
 21
-33.8531914711
  0
LINE
  5
2EF
100
AcDbEntity
  8
0
100
AcDbLine
 62
7
  6
CONTINUOUS
 10
-22.4749998569
 20
-35.193617031
 11
-22.3624998569
 21
-35.3468085155
  0
LINE
  5
2F0
100
AcDbEntity
  8
0
100
AcDbLine
 62
7
  6
CONTINUOUS
 10
-22.9625001431
 20
-34.0063829422
 11
-23.0749999285
 21
-33.8531914711
  0
LINE
  5
2F1
100
AcDbEntity
  8
0
100
AcDbLine
 62
7
  6
CONTINUOUS
 10
-21.2750001431
 20
-34.6574468017
 11
-21.3875001431
 21
-34.5042553306
  0
LINE
  5
2F2
100
AcDbEntity
  8
0
100
AcDbLine
 62
7
  6
CONTINUOUS
 10
-25.5124999642
 20
-35.193617031
 11
-25.5875
 21
-35.0787234008
  0
LINE
  5
2F3
100
AcDbEntity
  8
0
100
AcDbLine
 62
7
  6
CONTINUOUS
 10
-25.5500000358
 20
-34.5425531983
 11
-25.6249999642
 21
-34.427659595
  0
LINE
  5
2F4
100
AcDbEntity
  8
0
100
AcDbLine
 62
7
  6
CONTINUOUS
 10
-24.8374999642
 20
-34.0063829422
 11
-24.7624999285
 21
-34.1212765455
  0
LINE
  5
2F5
100
AcDbEntity
  8
0
100
AcDbLine
 62
7
  6
CONTINUOUS
 10
-23.8624999285
 20
-35.193617031
 11
-23.9375000715
 21
-35.0787234008
  0
LINE
  5
2F6
100
AcDbEntity
  8
0
100
AcDbLine
 62
7
  6
CONTINUOUS
 10
-23.1874999285
 20
-34.0063829422
 11
-23.1125
 21
-34.1212765455
  0
LINE
  5
2F7
100
AcDbEntity
  8
0
100
AcDbLine
 62
7
  6
CONTINUOUS
 10
-21.5000001431
 20
-34.6574468017
 11
-21.425
 21
-34.772340405
  0
LWPOLYLINE
  5
2F8
100
AcDbEntity
  8
0
100
AcDbPolyline
 62
7
  6
CONTINUOUS
 90
9
 70
0
 10
-33.1490796797
 20
-27.9519724288
 10
-33.1468635194
 20
-27.9559431926
 10
-33.1431315319
 20
-27.961739291
 10
-33.1378837171
 20
-27.969156161
 10
-33.1309585257
 20
-27.9779728169
 10
-33.1225175069
 20
-27.9880011313
 10
-33.1130453091
 20
-27.9991149172
 10
-33.1025941785
 20
-28.0111428964
 10
-33.0789262891
 20
-28.0374428793
  0
LWPOLYLINE
  5
2F9
100
AcDbEntity
  8
0
100
AcDbPolyline
 62
7
  6
CONTINUOUS
 90
9
 70
0
 10
-33.1508596262
 20
-28.5516983052
 10
-33.148644224
 20
-28.5557579317
 10
-33.1449132006
 20
-28.5616387915
 10
-33.1396665558
 20
-28.5691359728
 10
-33.1327427902
 20
-28.5780281126
 10
-33.1243034034
 20
-28.5881270581
 10
-33.1148328937
 20
-28.5993068767
 10
-33.1043834757
 20
-28.6113961839
 10
-33.0807191254
 20
-28.6378051504
  0
LINE
  5
2FA
100
AcDbEntity
  8
0
100
AcDbLine
 62
7
  6
CONTINUOUS
 10
-28.551521
 20
-32.925
 11
-29.221411
 21
-31.075
  0
LINE
  5
2FB
100
AcDbEntity
  8
0
100
AcDbLine
 62
7
  6
CONTINUOUS
 10
-29.007595
 20
-32.386533
 11
-28.824675
 21
-32.925
  0
LINE
  5
2FC
100
AcDbEntity
  8
0
100
AcDbLine
 62
7
  6
CONTINUOUS
 10
-31.305984
 20
-32.646609
 11
-31.836753
 21
-31.075
  0
LINE
  5
2FD
100
AcDbEntity
  8
0
100
AcDbLine
 62
7
  6
CONTINUOUS
 10
-31.952726
 20
-31.373783
 11
-31.432208
 21
-32.925
  0
LINE
  5
2FE
100
AcDbEntity
  8
0
100
AcDbLine
 62
7
  6
CONTINUOUS
 10
-29.373331
 20
-31.34334
 11
-29.097709
 21
-32.164951
  0
LINE
  5
2FF
100
AcDbEntity
  8
0
100
AcDbLine
 62
7
  6
CONTINUOUS
 10
-45.1043634339
 20
14.0174603847
 11
-45.1272055718
 21
14.1088637441
  0
LWPOLYLINE
  5
300
100
AcDbEntity
  8
0
100
AcDbPolyline
 62
253
  6
CONTINUOUS
 90
25
 70
0
 10
-35.5517819335
 20
-27.6519684582
 10
-35.5510491946
 20
-27.6715255789
 10
-35.5490318281
 20
-27.6909906653
 10
-35.5457392418
 20
-27.7102801042
 10
-35.5411866725
 20
-27.7293081351
 10
-35.5353942838
 20
-27.7479963183
 10
-35.5283853362
 20
-27.7662733558
 10
-35.5201867542
 20
-27.7840648125
 10
-35.5108344027
 20
-27.8012893807
 10
-35.5003721057
 20
-27.8178686011
 10
-35.4888461538
 20
-27.8337298102
 10
-35.4763050037
 20
-27.8488069811
 10
-35.4628035562
 20
-27.8630368513
 10
-35.4483995595
 20
-27.8763587725
 10
-35.4331547925
 20
-27.8887157802
 10
-35.4171359502
 20
-27.9000560822
 10
-35.4004098457
 20
-27.9103325187
 10
-35.3830495565
 20
-27.9195002368
 10
-35.3651362466
 20
-27.9275189703
 10
-35.3467580162
 20
-27.9343523238
 10
-35.3279829047
 20
-27.9399779004
 10
-35.308863708
 20
-27.944379851
 10
-35.2894715722
 20
-27.94753717
 10
-35.2698974686
 20
-27.9494297938
 10
-35.250224586
 20
-27.9500457817
  0
LWPOLYLINE
  5
301
100
AcDbEntity
  8
0
100
AcDbPolyline
 62
253
  6
CONTINUOUS
 90
25
 70
0
 10
-31.9482180665
 20
27.6519684582
 10
-31.9489508054
 20
27.6715255789
 10
-31.9509681719
 20
27.6909906653
 10
-31.9542607582
 20
27.7102801042
 10
-31.9588133275
 20
27.7293081351
 10
-31.9646057162
 20
27.7479963183
 10
-31.9716146638
 20
27.7662733558
 10
-31.9798132458
 20
27.7840648125
 10
-31.9891655973
 20
27.8012893807
 10
-31.9996278943
 20
27.8178686011
 10
-32.0111538462
 20
27.8337298102
 10
-32.0236949963
 20
27.8488069811
 10
-32.0371964438
 20
27.8630368513
 10
-32.0516004405
 20
27.8763587725
 10
-32.0668452075
 20
27.8887157802
 10
-32.0828640498
 20
27.9000560822
 10
-32.0995901543
 20
27.9103325187
 10
-32.1169504435
 20
27.9195002368
 10
-32.1348637534
 20
27.9275189703
 10
-32.1532419838
 20
27.9343523238
 10
-32.1720170953
 20
27.9399779004
 10
-32.191136292
 20
27.944379851
 10
-32.2105284278
 20
27.94753717
 10
-32.2301025314
 20
27.9494297938
 10
-32.249775414
 20
27.9500457817
  0
LWPOLYLINE
  5
302
100
AcDbEntity
  8
0
100
AcDbPolyline
 62
253
  6
CONTINUOUS
 90
25
 70
0
 10
-35.8515991994
 20
-27.6762830578
 10
-35.8501489435
 20
-27.7157959962
 10
-35.8461906404
 20
-27.7547946328
 10
-35.8397242899
 20
-27.793278995
 10
-35.8307024104
 20
-27.8314029679
 10
-35.8191724835
 20
-27.8690127152
 10
-35.8052769543
 20
-27.9056467072
 10
-35.7889825089
 20
-27.9413015746
 10
-35.7703224611
 20
-27.9759807893
 10
-35.7495391981
 20
-28.0092331318
 10
-35.7266069688
 20
-28.0410364538
 10
-35.7015515242
 20
-28.0714130422
 10
-35.6746925043
 20
-28.0999783663
 10
-35.646006959
 20
-28.1267096689
 10
-35.6155178384
 20
-28.1516298589
 10
-35.5836136321
 20
-28.1744229283
 10
-35.5502712169
 20
-28.1950628795
 10
-35.5155137159
 20
-28.2135758513
 10
-35.4797989894
 20
-28.2297240487
 10
-35.4431350675
 20
-28.2434732454
 10
-35.4055139199
 20
-28.2548577767
 10
-35.3673693164
 20
-28.2637426858
 10
-35.3288458468
 20
-28.2700830077
 10
-35.2897989212
 20
-28.2739237663
 10
-35.2502285397
 20
-28.2752649765
  0
LWPOLYLINE
  5
303
100
AcDbEntity
  8
0
100
AcDbPolyline
 62
253
  6
CONTINUOUS
 90
25
 70
0
 10
-31.6484008006
 20
27.6762830578
 10
-31.6498510565
 20
27.7157959962
 10
-31.6538093596
 20
27.7547946328
 10
-31.6602757101
 20
27.793278995
 10
-31.6692975896
 20
27.8314029679
 10
-31.6808275165
 20
27.8690127152
 10
-31.6947230457
 20
27.9056467072
 10
-31.7110174911
 20
27.9413015746
 10
-31.7296775389
 20
27.9759807893
 10
-31.7504608019
 20
28.0092331318
 10
-31.7733930312
 20
28.0410364538
 10
-31.7984484758
 20
28.0714130422
 10
-31.8253074957
 20
28.0999783663
 10
-31.853993041
 20
28.1267096689
 10
-31.8844821616
 20
28.1516298589
 10
-31.9163863679
 20
28.1744229283
 10
-31.9497287831
 20
28.1950628795
 10
-31.9844862841
 20
28.2135758513
 10
-32.0202010106
 20
28.2297240487
 10
-32.0568649325
 20
28.2434732454
 10
-32.0944860801
 20
28.2548577767
 10
-32.1326306836
 20
28.2637426858
 10
-32.1711541532
 20
28.2700830077
 10
-32.2102010788
 20
28.2739237663
 10
-32.2497714603
 20
28.2752649765
  0
LINE
  5
304
100
AcDbEntity
  8
0
100
AcDbLine
 62
253
  6
CONTINUOUS
 10
-34.649863036
 20
-28.2752649765
 11
-34.6480453875
 21
-28.8759468191
  0
LINE
  5
305
100
AcDbEntity
  8
0
100
AcDbLine
 62
253
  6
CONTINUOUS
 10
-34.3509203203
 20
-27.9519724288
 11
-34.3491404373
 21
-28.5516984938
  0
LINE
  5
306
100
AcDbEntity
  8
0
100
AcDbLine
 62
253
  6
CONTINUOUS
 10
-33.1490796797
 20
27.9519724288
 11
-33.1508595627
 21
28.5516984938
  0
LINE
  5
307
100
AcDbEntity
  8
0
100
AcDbLine
 62
253
  6
CONTINUOUS
 10
-32.850136964
 20
28.2752649765
 11
-32.8519546125
 21
28.8759468191
  0
LINE
  5
308
100
AcDbEntity
  8
0
100
AcDbLine
 62
253
  6
CONTINUOUS
 10
-35.860534333
 20
-24.0265867593
 11
-35.8515991994
 21
-27.6762830578
  0
LINE
  5
309
100
AcDbEntity
  8
0
100
AcDbLine
 62
253
  6
CONTINUOUS
 10
-31.639465667
 20
24.0265867593
 11
-31.6484008006
 21
27.6762830578
  0
LINE
  5
30A
100
AcDbEntity
  8
0
100
AcDbLine
 62
253
  6
CONTINUOUS
 10
-35.5606909189
 20
-24.0215290512
 11
-35.5517819411
 21
-27.6519684658
  0
LINE
  5
30B
100
AcDbEntity
  8
0
100
AcDbLine
 62
253
  6
CONTINUOUS
 10
-31.9393090811
 20
24.0215290512
 11
-31.9482180589
 21
27.6519684658
  0
LINE
  5
30C
100
AcDbEntity
  8
0
100
AcDbLine
 62
7
  6
CONTINUOUS
 10
-35.5176196936
 20
26.9081110346
 11
-35.5176196936
 21
24.0
  0
LINE
  5
30D
100
AcDbEntity
  8
0
100
AcDbLine
 62
7
  6
CONTINUOUS
 10
-35.5176196936
 20
-24.0
 11
-35.5176196936
 21
-26.9081110346
  0
LINE
  5
30E
100
AcDbEntity
  8
0
100
AcDbLine
 62
7
  6
CONTINUOUS
 10
-35.3639597987
 20
27.4641425506
 11
-35.3639597987
 21
26.9465113794
  0
LINE
  5
30F
100
AcDbEntity
  8
0
100
AcDbLine
 62
7
  6
CONTINUOUS
 10
-35.3639597987
 20
-26.9465113794
 11
-35.3639597987
 21
-27.4641425506
  0
LINE
  5
310
100
AcDbEntity
  8
0
100
AcDbLine
 62
253
  6
CONTINUOUS
 10
-35.2502285397
 20
28.2752649765
 11
-35.2502285397
 21
27.9500457878
  0
LINE
  5
311
100
AcDbEntity
  8
0
100
AcDbLine
 62
253
  6
CONTINUOUS
 10
-35.2502285397
 20
-28.2752649765
 11
-35.2502285397
 21
-27.9500457878
  0
LINE
  5
312
100
AcDbEntity
  8
0
100
AcDbLine
 62
7
  6
CONTINUOUS
 10
-34.95
 20
27.75
 11
-34.95
 21
27.35
  0
LINE
  5
313
100
AcDbEntity
  8
0
100
AcDbLine
 62
7
  6
CONTINUOUS
 10
-34.95
 20
-27.35
 11
-34.95
 21
-27.75
  0
LINE
  5
314
100
AcDbEntity
  8
0
100
AcDbLine
 62
7
  6
CONTINUOUS
 10
-34.65
 20
-26.9081110346
 11
-34.65
 21
-24.0
  0
LINE
  5
315
100
AcDbEntity
  8
0
100
AcDbLine
 62
7
  6
CONTINUOUS
 10
-34.65
 20
24.0
 11
-34.65
 21
26.9081110346
  0
LINE
  5
316
100
AcDbEntity
  8
DRAFT
100
AcDbLine
 62
7
  6
CONTINUOUS
 10
-34.15
 20
28.5
 11
-34.15
 21
27.75
  0
LINE
  5
317
100
AcDbEntity
  8
DRAFT
100
AcDbLine
 62
7
  6
CONTINUOUS
 10
-34.15
 20
-28.5
 11
-34.15
 21
-27.75
  0
LINE
  5
318
100
AcDbEntity
  8
DRAFT
100
AcDbLine
 62
7
  6
CONTINUOUS
 10
-33.35
 20
28.5
 11
-33.35
 21
27.75
  0
LINE
  5
319
100
AcDbEntity
  8
DRAFT
100
AcDbLine
 62
7
  6
CONTINUOUS
 10
-33.35
 20
-28.5
 11
-33.35
 21
-27.75
  0
LINE
  5
31A
100
AcDbEntity
  8
0
100
AcDbLine
 62
7
  6
CONTINUOUS
 10
-32.85
 20
26.9081110346
 11
-32.85
 21
24.0
  0
LINE
  5
31B
100
AcDbEntity
  8
0
100
AcDbLine
 62
7
  6
CONTINUOUS
 10
-32.85
 20
-24.0
 11
-32.85
 21
-26.9081110346
  0
LINE
  5
31C
100
AcDbEntity
  8
0
100
AcDbLine
 62
7
  6
CONTINUOUS
 10
-32.55
 20
-27.75
 11
-32.55
 21
-27.35
  0
LINE
  5
31D
100
AcDbEntity
  8
0
100
AcDbLine
 62
7
  6
CONTINUOUS
 10
-32.55
 20
27.35
 11
-32.55
 21
27.75
  0
LINE
  5
31E
100
AcDbEntity
  8
0
100
AcDbLine
 62
253
  6
CONTINUOUS
 10
-32.2497714603
 20
28.2752649765
 11
-32.2497714603
 21
27.9500457878
  0
LINE
  5
31F
100
AcDbEntity
  8
0
100
AcDbLine
 62
253
  6
CONTINUOUS
 10
-32.2497714603
 20
-28.2752649765
 11
-32.2497714603
 21
-27.9500457878
  0
LINE
  5
320
100
AcDbEntity
  8
0
100
AcDbLine
 62
7
  6
CONTINUOUS
 10
-32.194916
 20
-31.075
 11
-32.194916
 21
-32.925
  0
LINE
  5
321
100
AcDbEntity
  8
0
100
AcDbLine
 62
7
  6
CONTINUOUS
 10
-32.1360402013
 20
-27.4641425506
 11
-32.1360402013
 21
-26.9465113794
  0
LINE
  5
322
100
AcDbEntity
  8
0
100
AcDbLine
 62
7
  6
CONTINUOUS
 10
-32.1360402013
 20
26.9465113794
 11
-32.1360402013
 21
27.4641425506
  0
LINE
  5
323
100
AcDbEntity
  8
0
100
AcDbLine
 62
7
  6
CONTINUOUS
 10
-31.9823803064
 20
-26.9081110346
 11
-31.9823803064
 21
-24.0
  0
LINE
  5
324
100
AcDbEntity
  8
0
100
AcDbLine
 62
7
  6
CONTINUOUS
 10
-31.9823803064
 20
24.0
 11
-31.9823803064
 21
26.9081110346
  0
LINE
  5
325
100
AcDbEntity
  8
0
100
AcDbLine
 62
7
  6
CONTINUOUS
 10
-31.952726
 20
-32.925
 11
-31.952726
 21
-31.373783
  0
LINE
  5
326
100
AcDbEntity
  8
0
100
AcDbLine
 62
7
  6
CONTINUOUS
 10
-30.664426
 20
-31.371239
 11
-30.664426
 21
-32.925
  0
LINE
  5
327
100
AcDbEntity
  8
0
100
AcDbLine
 62
253
  6
CONTINUOUS
 10
-35.8515991994
 20
27.6762830578
 11
-35.860534333
 21
24.0265867593
  0
LINE
  5
328
100
AcDbEntity
  8
0
100
AcDbLine
 62
253
  6
CONTINUOUS
 10
-31.6484008006
 20
-27.6762830578
 11
-31.639465667
 21
-24.0265867593
  0
LINE
  5
329
100
AcDbEntity
  8
0
100
AcDbLine
 62
253
  6
CONTINUOUS
 10
-35.5517819607
 20
27.651961212
 11
-35.5606909189
 21
24.0215290512
  0
LINE
  5
32A
100
AcDbEntity
  8
0
100
AcDbLine
 62
253
  6
CONTINUOUS
 10
-31.9482180393
 20
-27.651961212
 11
-31.9393090811
 21
-24.0215290512
  0
LINE
  5
32B
100
AcDbEntity
  8
0
100
AcDbLine
 62
253
  6
CONTINUOUS
 10
-34.3491404333
 20
28.551698482
 11
-34.3509203203
 21
27.9519724288
  0
LINE
  5
32C
100
AcDbEntity
  8
0
100
AcDbLine
 62
253
  6
CONTINUOUS
 10
-33.1508595667
 20
-28.551698482
 11
-33.1490796797
 21
-27.9519724288
  0
LINE
  5
32D
100
AcDbEntity
  8
0
100
AcDbLine
 62
253
  6
CONTINUOUS
 10
-34.6480453875
 20
28.8759468191
 11
-34.649863036
 21
28.2752649765
  0
LINE
  5
32E
100
AcDbEntity
  8
0
100
AcDbLine
 62
253
  6
CONTINUOUS
 10
-32.8519546125
 20
-28.8759468191
 11
-32.850136964
 21
-28.2752649765
  0
LINE
  5
32F
100
AcDbEntity
  8
RACCORDO
100
AcDbLine
 62
7
  6
CONTINUOUS
 10
-45.8285440846
 20
-36.5357171432
 11
-45.8450375388
 21
-36.5852377442
  0
LINE
  5
330
100
AcDbEntity
  8
0
100
AcDbLine
 62
7
  6
CONTINUOUS
 10
-23.138804
 20
35.612109
 11
-23.973659
 21
33.391567
  0
LINE
  5
331
100
AcDbEntity
  8
0
100
AcDbLine
 62
7
  6
CONTINUOUS
 10
-23.919674
 20
31.612597
 11
-22.927031
 21
34.213316
  0
LINE
  5
332
100
AcDbEntity
  8
0
100
AcDbLine
 62
7
  6
CONTINUOUS
 10
-46.6337843117
 20
-19.0
 11
-46.6250567792
 21
-18.9825396153
  0
LINE
  5
333
100
AcDbEntity
  8
DRAFT
100
AcDbLine
 62
7
  6
CONTINUOUS
 10
-70.25
 20
-23.3
 11
-70.1388009746
 21
-23.1888009746
  0
LINE
  5
334
100
AcDbEntity
  8
DRAFT
100
AcDbLine
 62
7
  6
CONTINUOUS
 10
-46.6512393766
 20
-0.4512393766
 11
-46.6716797993
 21
-0.4716797993
  0
LWPOLYLINE
  5
335
100
AcDbEntity
  8
0
100
AcDbPolyline
 62
7
  6
CONTINUOUS
 90
54
 70
0
 10
-15.9865949597
 20
33.5852846543
 10
-15.9718988508
 20
33.5976596561
 10
-15.9568776818
 20
33.6105774156
 10
-15.941497996
 20
33.623997522
 10
-15.9257932501
 20
33.637960356
 10
-15.9098202951
 20
33.652632036
 10
-15.8935567457
 20
33.6679986474
 10
-15.8770249872
 20
33.6840740588
 10
-15.8603490266
 20
33.7010660494
 10
-15.8435128193
 20
33.7189634123
 10
-15.8265324099
 20
33.737777285
 10
-15.8095799392
 20
33.7577489439
 10
-15.792672338
 20
33.7789075697
 10
-15.7757926755
 20
33.801223877
 10
-15.7590622996
 20
33.8248514204
 10
-15.7424738263
 20
33.8498064768
 10
-15.7260346395
 20
33.8760726293
 10
-15.709888239
 20
33.903754373
 10
-15.6939985279
 20
33.9328199709
 10
-15.6784016031
 20
33.9633009843
 10
-15.6633492549
 20
33.99539683
 10
-15.648795508
 20
34.0291387444
 10
-15.6347863376
 20
34.0644952538
 10
-15.6217114602
 20
34.1015716792
 10
-15.6095781623
 20
34.1403323322
 10
-15.5983791573
 20
34.1808126115
 10
-15.5884823019
 20
34.2232244301
 10
-15.5798589295
 20
34.2675803556
 10
-15.5725377066
 20
34.3138674416
 10
-15.5669724901
 20
34.3622592796
 10
-15.5631099461
 20
34.4128094761
 10
-15.5610034085
 20
34.465463946
 10
-15.5612667346
 20
34.520234707
 10
-15.5638019841
 20
34.577474413
 10
-15.5687070974
 20
34.636829833
 10
-15.5768897537
 20
34.6972542792
 10
-15.5884603469
 20
34.7589397333
 10
-15.6033084832
 20
34.8216938815
 10
-15.6220106592
 20
34.8838939594
 10
-15.644842639
 20
34.945464229
 10
-15.6715286586
 20
35.0064805743
 10
-15.7018179236
 20
35.0655480904
 10
-15.7360801579
 20
35.1226989191
 10
-15.7739456376
 20
35.1779014245
 10
-15.8140543969
 20
35.2296654097
 10
-15.8564863296
 20
35.2776223825
 10
-15.9011615418
 20
35.3221416539
 10
-15.9464803864
 20
35.3628399233
 10
-15.9925248651
 20
35.3997039368
 10
-16.0392129761
 20
35.4327476405
 10
-16.0846990667
 20
35.4616285511
 10
-16.1283679193
 20
35.4862326937
 10
-16.1708347515
 20
35.5066745718
 10
-16.2120995634
 20
35.5229543863
  0
LINE
  5
336
100
AcDbEntity
  8
0
100
AcDbLine
 62
7
  6
CONTINUOUS
 10
-31.9823803064
 20
24.0
 11
-31.9393090811
 21
24.0215290512
  0
LINE
  5
337
100
AcDbEntity
  8
0
100
AcDbLine
 62
7
  6
CONTINUOUS
 10
33.35
 20
-28.5
 11
33.1520460546
 21
-28.5494696404
  0
LINE
  5
338
100
AcDbEntity
  8
0
100
AcDbLine
 62
7
  6
CONTINUOUS
 10
35.3639677759
 20
-26.9465093858
 11
35.5176196936
 21
-26.9081110346
  0
LINE
  5
339
100
AcDbEntity
  8
DRAFT
100
AcDbLine
 62
7
  6
CONTINUOUS
 10
32.8963883491
 20
-26.8965183637
 11
32.85
 21
-26.9081110346
  0
LWPOLYLINE
  5
33A
100
AcDbEntity
  8
0
100
AcDbPolyline
 62
7
  6
CONTINUOUS
 90
25
 70
0
 10
-27.5595081298
 20
-32.925
 10
-27.5061430115
 20
-32.9233576002
 10
-27.4545447158
 20
-32.9188911016
 10
-27.4047132428
 20
-32.9116004779
 10
-27.3567358566
 20
-32.9014936797
 10
-27.3105252931
 20
-32.888562655
 10
-27.2658197592
 20
-32.8727833492
 10
-27.2225944208
 20
-32.8543263107
 10
-27.180874112
 20
-32.8330207942
 10
-27.1404715417
 20
-32.8083307552
 10
-27.1013138525
 20
-32.7800872055
 10
-27.0634739019
 20
-32.7484587601
 10
-27.0269829714
 20
-32.7134157194
 10
-26.9914245819
 20
-32.6752377434
 10
-26.9572152126
 20
-32.6336446782
 10
-26.9256355824
 20
-32.5877669928
 10
-26.8970260464
 20
-32.5370577109
 10
-26.8710462495
 20
-32.4820629409
 10
-26.8479558457
 20
-32.4235527379
 10
-26.8274110501
 20
-32.3617903826
 10
-26.8097556474
 20
-32.2965117811
 10
-26.7962806461
 20
-32.2276959768
 10
-26.7874163822
 20
-32.1553356602
 10
-26.7827325195
 20
-32.0794371728
 10
-26.7822290582
 20
-32.0
  0
LINE
  5
33B
100
AcDbEntity
  8
DRAFT
100
AcDbLine
 62
7
  6
CONTINUOUS
 10
-46.6009554821
 20
-35.5599784182
 11
-45.7986374192
 21
-35.5465130714
  0
LINE
  5
33C
100
AcDbEntity
  8
DRAFT
100
AcDbLine
 62
7
  6
CONTINUOUS
 10
-11.6526505322
 20
-35.5039123057
 11
-10.8473400057
 21
-35.5035993343
  0
LINE
  5
33D
100
AcDbEntity
  8
RACCORDO
100
AcDbLine
 62
253
  6
CONTINUOUS
 10
-46.55
 20
-36.8848266046
 11
-45.85
 21
-36.8848266046
  0
LINE
  5
33E
100
AcDbEntity
  8
RACCORDO
100
AcDbLine
 62
253
  6
CONTINUOUS
 10
-11.6
 20
-36.8848266046
 11
-10.9
 21
-36.8848266046
  0
LINE
  5
33F
100
AcDbEntity
  8
RACCORDO
100
AcDbLine
 62
253
  6
CONTINUOUS
 10
10.9
 20
-36.8848266046
 11
11.6
 21
-36.8848266046
  0
LINE
  5
340
100
AcDbEntity
  8
RACCORDO
100
AcDbLine
 62
253
  6
CONTINUOUS
 10
45.85
 20
-36.8848266046
 11
46.55
 21
-36.8848266046
  0
LINE
  5
341
100
AcDbEntity
  8
RACCORDO
100
AcDbLine
 62
253
  6
CONTINUOUS
 10
-46.5549624612
 20
-36.5852377442
 11
-45.8450375388
 21
-36.5852377442
  0
LINE
  5
342
100
AcDbEntity
  8
RACCORDO
100
AcDbLine
 62
253
  6
CONTINUOUS
 10
-11.6049624612
 20
-36.5852377442
 11
-10.8950375388
 21
-36.5852377442
  0
LINE
  5
343
100
AcDbEntity
  8
RACCORDO
100
AcDbLine
 62
253
  6
CONTINUOUS
 10
10.8950375388
 20
-36.5852377442
 11
11.6049624612
 21
-36.5852377442
  0
LINE
  5
344
100
AcDbEntity
  8
RACCORDO
100
AcDbLine
 62
253
  6
CONTINUOUS
 10
45.8450375388
 20
-36.5852377442
 11
46.5549624612
 21
-36.5852377442
  0
LINE
  5
345
100
AcDbEntity
  8
DRAFT
100
AcDbLine
 62
7
  6
CONTINUOUS
 10
-11.6214559154
 20
-36.5357171432
 11
-10.8785440846
 21
-36.5357171432
  0
LINE
  5
346
100
AcDbEntity
  8
DRAFT
100
AcDbLine
 62
7
  6
CONTINUOUS
 10
10.8785440846
 20
-36.5357171432
 11
11.6214559154
 21
-36.5357171432
  0
LINE
  5
347
100
AcDbEntity
  8
DRAFT
100
AcDbLine
 62
7
  6
CONTINUOUS
 10
45.8285440846
 20
-36.5357171432
 11
46.5714559154
 21
-36.5357171432
  0
LINE
  5
348
100
AcDbEntity
  8
DRAFT
100
AcDbLine
 62
7
  6
CONTINUOUS
 10
-45.8285440846
 20
-36.5357171432
 11
-46.5714559154
 21
-36.5357171432
  0
LINE
  5
349
100
AcDbEntity
  8
0
100
AcDbLine
 62
7
  6
CONTINUOUS
 10
-26.375
 20
-35.5
 11
-26.15
 21
-35.5
  0
LINE
  5
34A
100
AcDbEntity
  8
0
100
AcDbLine
 62
7
  6
CONTINUOUS
 10
-25.25
 20
-35.5
 11
-25.1000000358
 21
-35.5
  0
LINE
  5
34B
100
AcDbEntity
  8
0
100
AcDbLine
 62
7
  6
CONTINUOUS
 10
-23.6000000715
 20
-35.5
 11
-23.4124999285
 21
-35.5
  0
LINE
  5
34C
100
AcDbEntity
  8
0
100
AcDbLine
 62
7
  6
CONTINUOUS
 10
-21.9875
 20
-35.5
 11
-21.7625
 21
-35.5
  0
LINE
  5
34D
100
AcDbEntity
  8
0
100
AcDbLine
 62
7
  6
CONTINUOUS
 10
-19.9999998569
 20
-35.5
 11
-19.7749998569
 21
-35.5
  0
LINE
  5
34E
100
AcDbEntity
  8
0
100
AcDbLine
 62
7
  6
CONTINUOUS
 10
17.41157
 20
-35.406117
 11
18.593816
 21
-35.406117
  0
LINE
  5
34F
100
AcDbEntity
  8
0
100
AcDbLine
 62
7
  6
CONTINUOUS
 10
-21.7625
 20
-35.3085106343
 11
-21.9875
 21
-35.3085106343
  0
LINE
  5
350
100
AcDbEntity
  8
0
100
AcDbLine
 62
7
  6
CONTINUOUS
 10
-23.3750000715
 20
-35.3085106343
 11
-23.6374999285
 21
-35.3085106343
  0
LINE
  5
351
100
AcDbEntity
  8
0
100
AcDbLine
 62
7
  6
CONTINUOUS
 10
-25.0624999642
 20
-35.3085106343
 11
-25.2874999642
 21
-35.3085106343
  0
LINE
  5
352
100
AcDbEntity
  8
0
100
AcDbLine
 62
7
  6
CONTINUOUS
 10
-25.5875
 20
-35.0787234008
 11
-25.7749999821
 21
-35.0787234008
  0
LINE
  5
353
100
AcDbEntity
  8
0
100
AcDbLine
 62
7
  6
CONTINUOUS
 10
-22.325
 20
-35.0404255331
 11
-22.55
 21
-35.0404255331
  0
LINE
  5
354
100
AcDbEntity
  8
0
100
AcDbLine
 62
7
  6
CONTINUOUS
 10
18.593816
 20
-34.989452
 11
18.224704
 21
-34.989452
  0
LINE
  5
355
100
AcDbEntity
  8
0
100
AcDbLine
 62
7
  6
CONTINUOUS
 10
17.780825
 20
-34.989452
 11
17.41157
 21
-34.989452
  0
LINE
  5
356
100
AcDbEntity
  8
0
100
AcDbLine
 62
7
  6
CONTINUOUS
 10
-20.8999998569
 20
-34.9638297975
 11
-19.9999998569
 21
-34.9638297975
  0
LINE
  5
357
100
AcDbEntity
  8
0
100
AcDbLine
 62
7
  6
CONTINUOUS
 10
-19.7749998569
 20
-34.9638297975
 11
-19.4
 21
-34.9638297975
  0
LINE
  5
358
100
AcDbEntity
  8
0
100
AcDbLine
 62
7
  6
CONTINUOUS
 10
-25.2874999642
 20
-34.8489361942
 11
-25.1000000358
 21
-34.8489361942
  0
LINE
  5
359
100
AcDbEntity
  8
0
100
AcDbLine
 62
7
  6
CONTINUOUS
 10
-19.4
 20
-34.7340425372
 11
-19.7749998569
 21
-34.7340425372
  0
LINE
  5
35A
100
AcDbEntity
  8
0
100
AcDbLine
 62
7
  6
CONTINUOUS
 10
-19.9999998569
 20
-34.7340425372
 11
-20.6375
 21
-34.7340425372
  0
LINE
  5
35B
100
AcDbEntity
  8
0
100
AcDbLine
 62
7
  6
CONTINUOUS
 10
-22.55
 20
-34.6957446694
 11
-22.2875001431
 21
-34.6957446694
  0
LINE
  5
35C
100
AcDbEntity
  8
0
100
AcDbLine
 62
7
  6
CONTINUOUS
 10
-25.0624999642
 20
-34.6574468017
 11
-25.3250000358
 21
-34.6574468017
  0
LINE
  5
35D
100
AcDbEntity
  8
0
100
AcDbLine
 62
7
  6
CONTINUOUS
 10
-23.6374999285
 20
-34.5425531983
 11
-23.3750000715
 21
-34.5425531983
  0
LINE
  5
35E
100
AcDbEntity
  8
0
100
AcDbLine
 62
7
  6
CONTINUOUS
 10
-21.9875
 20
-34.5425531983
 11
-21.7625
 21
-34.5425531983
  0
LINE
  5
35F
100
AcDbEntity
  8
0
100
AcDbLine
 62
7
  6
CONTINUOUS
 10
-21.7625
 20
-34.3510638595
 11
-21.9875
 21
-34.3510638595
  0
LINE
  5
360
100
AcDbEntity
  8
0
100
AcDbLine
 62
7
  6
CONTINUOUS
 10
-23.4124999285
 20
-34.3510638595
 11
-23.6000000715
 21
-34.3510638595
  0
LINE
  5
361
100
AcDbEntity
  8
0
100
AcDbLine
 62
7
  6
CONTINUOUS
 10
-23.1125
 20
-34.1212765455
 11
-22.9249998569
 21
-34.1212765455
  0
LINE
  5
362
100
AcDbEntity
  8
0
100
AcDbLine
 62
7
  6
CONTINUOUS
 10
-25.3250000358
 20
-33.8914893389
 11
-25.0624999642
 21
-33.8914893389
  0
LINE
  5
363
100
AcDbEntity
  8
0
100
AcDbLine
 62
7
  6
CONTINUOUS
 10
-23.6374999285
 20
-33.8914893389
 11
-23.4124999285
 21
-33.8914893389
  0
LINE
  5
364
100
AcDbEntity
  8
0
100
AcDbLine
 62
7
  6
CONTINUOUS
 10
-22.3624998569
 20
-33.8914893389
 11
-21.2750001431
 21
-33.8914893389
  0
LINE
  5
365
100
AcDbEntity
  8
0
100
AcDbLine
 62
7
  6
CONTINUOUS
 10
28.657055
 20
-33.875
 11
30.117556
 21
-33.875
  0
LINE
  5
366
100
AcDbEntity
  8
0
100
AcDbLine
 62
7
  6
CONTINUOUS
 10
-19.7749998569
 20
-33.7
 11
-19.9999998569
 21
-33.7
  0
LINE
  5
367
100
AcDbEntity
  8
0
100
AcDbLine
 62
7
  6
CONTINUOUS
 10
-21.2750001431
 20
-33.7
 11
-22.55
 21
-33.7
  0
LINE
  5
368
100
AcDbEntity
  8
0
100
AcDbLine
 62
7
  6
CONTINUOUS
 10
-23.45
 20
-33.7
 11
-23.6000000715
 21
-33.7
  0
LINE
  5
369
100
AcDbEntity
  8
0
100
AcDbLine
 62
7
  6
CONTINUOUS
 10
-25.1000000358
 20
-33.7
 11
-25.2874999642
 21
-33.7
  0
LINE
  5
36A
100
AcDbEntity
  8
0
100
AcDbLine
 62
7
  6
CONTINUOUS
 10
-26.15
 20
-33.7
 11
-26.375
 21
-33.7
  0
LINE
  5
36B
100
AcDbEntity
  8
0
100
AcDbLine
 62
7
  6
CONTINUOUS
 10
30.117556
 20
-33.125
 11
28.657051888
 21
-33.125
  0
LINE
  5
36C
100
AcDbEntity
  8
0
100
AcDbLine
 62
7
  6
CONTINUOUS
 10
-32.194916
 20
-32.925
 11
-31.952726
 21
-32.925
  0
LINE
  5
36D
100
AcDbEntity
  8
0
100
AcDbLine
 62
7
  6
CONTINUOUS
 10
-31.432208
 20
-32.925
 11
-31.184844
 21
-32.925
  0
LINE
  5
36E
100
AcDbEntity
  8
0
100
AcDbLine
 62
7
  6
CONTINUOUS
 10
-30.664426
 20
-32.925
 11
-30.422138
 21
-32.925
  0
LINE
  5
36F
100
AcDbEntity
  8
0
100
AcDbLine
 62
7
  6
CONTINUOUS
 10
-30.200542
 20
-32.925
 11
-29.942904
 21
-32.925
  0
LINE
  5
370
100
AcDbEntity
  8
0
100
AcDbLine
 62
7
  6
CONTINUOUS
 10
-28.824675
 20
-32.925
 11
-28.551521
 21
-32.925
  0
LINE
  5
371
100
AcDbEntity
  8
0
100
AcDbLine
 62
7
  6
CONTINUOUS
 10
-28.309338
 20
-32.925
 11
-27.5595081298
 21
-32.925
  0
LINE
  5
372
100
AcDbEntity
  8
0
100
AcDbLine
 62
7
  6
CONTINUOUS
 10
-26.436073
 20
-32.925
 11
-25.070379
 21
-32.925
  0
LINE
  5
373
100
AcDbEntity
  8
0
100
AcDbLine
 62
7
  6
CONTINUOUS
 10
-23.988148
 20
-32.925
 11
-23.73823
 21
-32.925
  0
LINE
  5
374
100
AcDbEntity
  8
0
100
AcDbLine
 62
7
  6
CONTINUOUS
 10
-23.310568
 20
-32.925
 11
-23.068265
 21
-32.925
  0
LINE
  5
375
100
AcDbEntity
  8
0
100
AcDbLine
 62
7
  6
CONTINUOUS
 10
-22.122618
 20
-32.925
 11
-21.841774
 21
-32.925
  0
LINE
  5
376
100
AcDbEntity
  8
0
100
AcDbLine
 62
7
  6
CONTINUOUS
 10
-20.695208
 20
-32.925
 11
-20.445215
 21
-32.925
  0
LINE
  5
377
100
AcDbEntity
  8
0
100
AcDbLine
 62
7
  6
CONTINUOUS
 10
-19.551095
 20
-32.925
 11
-19.301192
 21
-32.925
  0
LINE
  5
378
100
AcDbEntity
  8
0
100
AcDbLine
 62
7
  6
CONTINUOUS
 10
-18.602905
 20
-32.925
 11
-18.345281
 21
-32.925
  0
LINE
  5
379
100
AcDbEntity
  8
0
100
AcDbLine
 62
7
  6
CONTINUOUS
 10
-17.226948
 20
-32.925
 11
-16.953749
 21
-32.925
  0
LINE
  5
37A
100
AcDbEntity
  8
0
100
AcDbLine
 62
7
  6
CONTINUOUS
 10
-16.724538
 20
-32.925
 11
-15.536588
 21
-32.925
  0
LINE
  5
37B
100
AcDbEntity
  8
0
100
AcDbLine
 62
7
  6
CONTINUOUS
 10
-14.753349
 20
-32.925
 11
-14.50349
 21
-32.925
  0
LINE
  5
37C
100
AcDbEntity
  8
0
100
AcDbLine
 62
7
  6
CONTINUOUS
 10
-27.5658705306
 20
-32.711199
 11
-28.05933
 21
-32.711199
  0
LINE
  5
37D
100
AcDbEntity
  8
0
100
AcDbLine
 62
7
  6
CONTINUOUS
 10
-15.536588
 20
-32.703419
 11
-16.47453
 21
-32.703419
  0
LINE
  5
37E
100
AcDbEntity
  8
0
100
AcDbLine
 62
7
  6
CONTINUOUS
 10
-25.070379
 20
-32.703419
 11
-26.18608
 21
-32.703419
  0
LINE
  5
37F
100
AcDbEntity
  8
0
100
AcDbLine
 62
7
  6
CONTINUOUS
 10
-29.74963
 20
-32.386533
 11
-29.007595
 21
-32.386533
  0
LINE
  5
380
100
AcDbEntity
  8
0
100
AcDbLine
 62
7
  6
CONTINUOUS
 10
-18.151993
 20
-32.386533
 11
-17.409883
 21
-32.386533
  0
LINE
  5
381
100
AcDbEntity
  8
0
100
AcDbLine
 62
7
  6
CONTINUOUS
 10
-17.500086
 20
-32.164951
 11
-18.074686
 21
-32.164951
  0
LINE
  5
382
100
AcDbEntity
  8
0
100
AcDbLine
 62
7
  6
CONTINUOUS
 10
-29.097709
 20
-32.164951
 11
-29.672308
 21
-32.164951
  0
LINE
  5
383
100
AcDbEntity
  8
0
100
AcDbLine
 62
7
  6
CONTINUOUS
 10
-26.18608
 20
-32.085057
 11
-25.173464
 21
-32.085057
  0
LINE
  5
384
100
AcDbEntity
  8
0
100
AcDbLine
 62
7
  6
CONTINUOUS
 10
17.425177
 20
-32.029254
 11
17.780825
 21
-32.029254
  0
LINE
  5
385
100
AcDbEntity
  8
0
100
AcDbLine
 62
7
  6
CONTINUOUS
 10
18.224704
 20
-32.029254
 11
18.580209
 21
-32.029254
  0
LINE
  5
386
100
AcDbEntity
  8
0
100
AcDbLine
 62
7
  6
CONTINUOUS
 10
-25.173464
 20
-31.863476
 11
-26.18608
 21
-31.863476
  0
LINE
  5
387
100
AcDbEntity
  8
0
100
AcDbLine
 62
7
  6
CONTINUOUS
 10
18.580209
 20
-31.610297
 11
17.425177
 21
-31.610297
  0
LINE
  5
388
100
AcDbEntity
  8
0
100
AcDbLine
 62
7
  6
CONTINUOUS
 10
-26.18608
 20
-31.296581
 11
-25.088438
 21
-31.296581
  0
LINE
  5
389
100
AcDbEntity
  8
0
100
AcDbLine
 62
7
  6
CONTINUOUS
 10
-20.177238
 20
-31.296581
 11
-19.551095
 21
-31.296581
  0
LINE
  5
38A
100
AcDbEntity
  8
0
100
AcDbLine
 62
7
  6
CONTINUOUS
 10
-19.301192
 20
-31.296581
 11
-18.67505
 21
-31.296581
  0
LINE
  5
38B
100
AcDbEntity
  8
0
100
AcDbLine
 62
7
  6
CONTINUOUS
 10
-28.05933
 20
-31.288801
 11
-27.5658705306
 21
-31.288801
  0
LINE
  5
38C
100
AcDbEntity
  8
0
100
AcDbLine
 62
7
  6
CONTINUOUS
 10
-13.805084
 20
-31.075
 11
-14.098929
 21
-31.075
  0
LINE
  5
38D
100
AcDbEntity
  8
0
100
AcDbLine
 62
7
  6
CONTINUOUS
 10
-15.160454
 20
-31.075
 11
-15.451606
 21
-31.075
  0
LINE
  5
38E
100
AcDbEntity
  8
0
100
AcDbLine
 62
7
  6
CONTINUOUS
 10
-16.47453
 20
-31.075
 11
-16.724538
 21
-31.075
  0
LINE
  5
38F
100
AcDbEntity
  8
0
100
AcDbLine
 62
7
  6
CONTINUOUS
 10
-17.623774
 20
-31.075
 11
-17.907161
 21
-31.075
  0
LINE
  5
390
100
AcDbEntity
  8
0
100
AcDbLine
 62
7
  6
CONTINUOUS
 10
-18.67505
 20
-31.075
 11
-20.177238
 21
-31.075
  0
LINE
  5
391
100
AcDbEntity
  8
0
100
AcDbLine
 62
7
  6
CONTINUOUS
 10
-20.445215
 20
-31.075
 11
-20.695208
 21
-31.075
  0
LINE
  5
392
100
AcDbEntity
  8
0
100
AcDbLine
 62
7
  6
CONTINUOUS
 10
-21.841774
 20
-31.075
 11
-22.083957
 21
-31.075
  0
LINE
  5
393
100
AcDbEntity
  8
0
100
AcDbLine
 62
7
  6
CONTINUOUS
 10
-23.014194
 20
-31.075
 11
-23.310568
 21
-31.075
  0
LINE
  5
394
100
AcDbEntity
  8
0
100
AcDbLine
 62
7
  6
CONTINUOUS
 10
-23.73823
 20
-31.075
 11
-23.988148
 21
-31.075
  0
LINE
  5
395
100
AcDbEntity
  8
0
100
AcDbLine
 62
7
  6
CONTINUOUS
 10
-25.088438
 20
-31.075
 11
-26.436073
 21
-31.075
  0
LINE
  5
396
100
AcDbEntity
  8
0
100
AcDbLine
 62
7
  6
CONTINUOUS
 10
-27.5516423485
 20
-31.075
 11
-28.309338
 21
-31.075
  0
LINE
  5
397
100
AcDbEntity
  8
0
100
AcDbLine
 62
7
  6
CONTINUOUS
 10
-29.221411
 20
-31.075
 11
-29.504888
 21
-31.075
  0
LINE
  5
398
100
AcDbEntity
  8
0
100
AcDbLine
 62
7
  6
CONTINUOUS
 10
-30.422138
 20
-31.075
 11
-30.77776
 21
-31.075
  0
LINE
  5
399
100
AcDbEntity
  8
0
100
AcDbLine
 62
7
  6
CONTINUOUS
 10
-31.836753
 20
-31.075
 11
-32.194916
 21
-31.075
  0
LINE
  5
39A
100
AcDbEntity
  8
DRAFT
100
AcDbLine
 62
7
  6
CONTINUOUS
 10
10.8473400057
 20
-35.5035993343
 11
11.6526505322
 21
-35.5039123057
  0
LINE
  5
39B
100
AcDbEntity
  8
DRAFT
100
AcDbLine
 62
7
  6
CONTINUOUS
 10
45.7986374192
 20
-35.5465130714
 11
46.1552359006
 21
-35.5523799512
  0
LWPOLYLINE
  5
39C
100
AcDbEntity
  8
DRAFT
100
AcDbPolyline
 62
7
  6
CONTINUOUS
 90
3
 70
0
 10
46.1552359006
 20
-35.5523799512
 10
46.5118141386
 20
-35.5584351819
 10
46.6009554821
 20
-35.5599784182
  0
LINE
  5
39D
100
AcDbEntity
  8
0
100
AcDbLine
 62
7
  6
CONTINUOUS
 10
26.0295827028
 20
-31.7000374487
 11
26.132446
 21
-31.70278
  0
LWPOLYLINE
  5
39E
100
AcDbEntity
  8
0
100
AcDbPolyline
 62
7
  6
CONTINUOUS
 90
25
 70
0
 10
-27.5658705306
 20
-31.288801
 10
-27.5265970909
 20
-31.2913545032
 10
-27.4885622112
 20
-31.29633377
 10
-27.4517658915
 20
-31.3037387775
 10
-27.416182819
 20
-31.313606687
 10
-27.3818383066
 20
-31.3259002577
 10
-27.3488082926
 20
-31.3405078499
 10
-27.3170613251
 20
-31.3573884187
 10
-27.2866288559
 20
-31.3765828718
 10
-27.2576811795
 20
-31.3981024844
 10
-27.2301762907
 20
-31.4219517836
 10
-27.2041561947
 20
-31.4481260411
 10
-27.1799172012
 20
-31.4766226331
 10
-27.1574632152
 20
-31.5074226609
 10
-27.1367903317
 20
-31.5405447594
 10
-27.1181831456
 20
-31.5760425851
 10
-27.1018338066
 20
-31.6139938254
 10
-27.087550165
 20
-31.6543204509
 10
-27.0750403672
 20
-31.6968425359
 10
-27.0641055631
 20
-31.7414151317
 10
-27.0549446027
 20
-31.7881828196
 10
-27.0478621831
 20
-31.8373999438
 10
-27.04295987
 20
-31.8891511117
 10
-27.0401360976
 20
-31.943351219
 10
-27.039390866
 20
-32.0
  0
LINE
  5
39F
100
AcDbEntity
  8
0
100
AcDbLine
 62
7
  6
CONTINUOUS
 10
-33.35
 20
-28.5
 11
-33.1520460546
 21
-28.5494696404
  0
LINE
  5
3A0
100
AcDbEntity
  8
0
100
AcDbLine
 62
7
  6
CONTINUOUS
 10
-35.3639597987
 20
-26.9465113794
 11
-35.5176196936
 21
-26.9081110346
  0
LINE
  5
3A1
100
AcDbEntity
  8
DRAFT
100
AcDbLine
 62
7
  6
CONTINUOUS
 10
-32.8963883491
 20
-26.8965183637
 11
-32.85
 21
-26.9081110346
  0
LINE
  5
3A2
100
AcDbEntity
  8
0
100
AcDbLine
 62
7
  6
CONTINUOUS
 10
-31.9823803064
 20
-24.0
 11
-31.9393090811
 21
-24.0215290512
  0
LINE
  5
3A3
100
AcDbEntity
  8
DRAFT
100
AcDbLine
 62
7
  6
CONTINUOUS
 10
-70.25
 20
23.3
 11
-70.1388009746
 21
23.1888009746
  0
LINE
  5
3A4
100
AcDbEntity
  8
DRAFT
100
AcDbLine
 62
7
  6
CONTINUOUS
 10
-46.6512393766
 20
0.4512393766
 11
-46.6716797993
 21
0.4716797993
  0
LINE
  5
3A5
100
AcDbEntity
  8
0
100
AcDbLine
 62
7
  6
CONTINUOUS
 10
-23.068265
 20
-31.422579
 11
-22.122618
 21
-32.925
  0
LINE
  5
3A6
100
AcDbEntity
  8
0
100
AcDbLine
 62
7
  6
CONTINUOUS
 10
-22.083957
 20
-32.577726
 11
-23.014194
 21
-31.075
  0
LINE
  5
3A7
100
AcDbEntity
  8
0
100
AcDbLine
 62
253
  6
CONTINUOUS
 10
-46.5795212939
 20
18.3914408424
 11
-46.6337843117
 21
18.4999999536
  0
LINE
  5
3A8
100
AcDbEntity
  8
0
100
AcDbLine
 62
253
  6
CONTINUOUS
 10
-46.0795974464
 20
18.8911362559
 11
-46.1340127341
 21
19.0
  0
LINE
  5
3A9
100
AcDbEntity
  8
0
100
AcDbLine
 62
7
  6
CONTINUOUS
 10
-22.55
 20
-35.0404255331
 11
-22.4749998569
 21
-35.193617031
  0
LINE
  5
3AA
100
AcDbEntity
  8
0
100
AcDbLine
 62
7
  6
CONTINUOUS
 10
-22.2499998569
 20
-35.193617031
 11
-22.325
 21
-35.0404255331
  0
LINE
  5
3AB
100
AcDbEntity
  8
0
100
AcDbLine
 62
7
  6
CONTINUOUS
 10
-25.8500000179
 20
-34.3510638595
 11
-25.7749999821
 21
-34.5425531983
  0
LINE
  5
3AC
100
AcDbEntity
  8
0
100
AcDbLine
 62
7
  6
CONTINUOUS
 10
-24.5374999285
 20
-34.1978723884
 11
-24.6125000715
 21
-34.0063829422
  0
LINE
  5
3AD
100
AcDbEntity
  8
0
100
AcDbLine
 62
7
  6
CONTINUOUS
 10
-24.1625000715
 20
-35.0021276653
 11
-24.0874999285
 21
-35.193617031
  0
LINE
  5
3AE
100
AcDbEntity
  8
0
100
AcDbLine
 62
7
  6
CONTINUOUS
 10
-22.8500001431
 20
-34.8106382728
 11
-22.9249998569
 21
-34.6191489339
  0
LINE
  5
3AF
100
AcDbEntity
  8
0
100
AcDbLine
 62
7
  6
CONTINUOUS
 10
-21.2
 20
-34.8489361942
 11
-21.2750001431
 21
-34.6574468017
  0
LINE
  5
3B0
100
AcDbEntity
  8
0
100
AcDbLine
 62
7
  6
CONTINUOUS
 10
-25.7749999821
 20
-35.0787234008
 11
-25.7375000179
 21
-35.193617031
  0
LINE
  5
3B1
100
AcDbEntity
  8
0
100
AcDbLine
 62
7
  6
CONTINUOUS
 10
-25.6249999642
 20
-34.427659595
 11
-25.6625000358
 21
-34.3127659917
  0
LINE
  5
3B2
100
AcDbEntity
  8
0
100
AcDbLine
 62
7
  6
CONTINUOUS
 10
-24.7624999285
 20
-34.1212765455
 11
-24.7250000715
 21
-34.2361702561
  0
LINE
  5
3B3
100
AcDbEntity
  8
0
100
AcDbLine
 62
7
  6
CONTINUOUS
 10
-23.9375000715
 20
-35.0787234008
 11
-23.9749999285
 21
-34.9638297975
  0
LINE
  5
3B4
100
AcDbEntity
  8
0
100
AcDbLine
 62
7
  6
CONTINUOUS
 10
-23.0749999285
 20
-34.7340425372
 11
-23.0375000715
 21
-34.8489361942
  0
LINE
  5
3B5
100
AcDbEntity
  8
0
100
AcDbLine
 62
7
  6
CONTINUOUS
 10
-22.9249998569
 20
-34.1212765455
 11
-22.9625001431
 21
-34.0063829422
  0
LINE
  5
3B6
100
AcDbEntity
  8
0
100
AcDbLine
 62
7
  6
CONTINUOUS
 10
-21.425
 20
-34.772340405
 11
-21.3875001431
 21
-34.887234062
  0
LWPOLYLINE
  5
3B7
100
AcDbEntity
  8
0
100
AcDbPolyline
 62
7
  6
CONTINUOUS
 90
25
 70
0
 10
-26.7822290582
 20
-32.0
 10
-26.7827028435
 20
-31.9211263675
 10
-26.7873075082
 20
-31.8457326147
 10
-26.7960430522
 20
-31.77381927
 10
-26.8093348979
 20
-31.7053922613
 10
-26.826757623
 20
-31.6404466355
 10
-26.8470349607
 20
-31.5789665572
 10
-26.8698247418
 20
-31.5206908578
 10
-26.8954691355
 20
-31.4658814984
 10
-26.9237183835
 20
-31.4153073779
 10
-26.9549131367
 20
-31.3695089277
 10
-26.9887127441
 20
-31.3279465334
 10
-27.0238454941
 20
-31.289768984
 10
-27.0598944253
 20
-31.2547134137
 10
-27.0972764992
 20
-31.2230431474
 10
-27.1359708885
 20
-31.1946961549
 10
-27.1758972338
 20
-31.1698209172
 10
-27.2171358945
 20
-31.1482692913
 10
-27.2599071219
 20
-31.1295342555
 10
-27.3041923531
 20
-31.1134565793
 10
-27.3500101509
 20
-31.1001956731
 10
-27.3976364553
 20
-31.0897224324
 10
-27.4471632464
 20
-31.0820271867
 10
-27.4984985441
 20
-31.0771197007
 10
-27.5516423485
 20
-31.075
  0
LINE
  5
3B8
100
AcDbEntity
  8
0
100
AcDbLine
 62
7
  6
CONTINUOUS
 10
-30.422138
 20
-32.925
 11
-30.422138
 21
-31.075
  0
LINE
  5
3B9
100
AcDbEntity
  8
0
100
AcDbLine
 62
7
  6
CONTINUOUS
 10
-28.309338
 20
-31.075
 11
-28.309338
 21
-32.925
  0
LINE
  5
3BA
100
AcDbEntity
  8
0
100
AcDbLine
 62
7
  6
CONTINUOUS
 10
-28.05933
 20
-32.711199
 11
-28.05933
 21
-31.288801
  0
LINE
  5
3BB
100
AcDbEntity
  8
0
100
AcDbLine
 62
7
  6
CONTINUOUS
 10
-27.279278
 20
35.612349
 11
-27.279278
 21
31.612597
  0
LINE
  5
3BC
100
AcDbEntity
  8
0
100
AcDbLine
 62
7
  6
CONTINUOUS
 10
-26.6
 20
-33.9680850744
 11
-26.6
 21
-34.2744681239
  0
LINE
  5
3BD
100
AcDbEntity
  8
0
100
AcDbLine
 62
7
  6
CONTINUOUS
 10
-26.444423
 20
31.612597
 11
-26.444423
 21
35.612349
  0
LINE
  5
3BE
100
AcDbEntity
  8
0
100
AcDbLine
 62
7
  6
CONTINUOUS
 10
-26.436073
 20
-31.075
 11
-26.436073
 21
-32.925
  0
LINE
  5
3BF
100
AcDbEntity
  8
0
100
AcDbLine
 62
7
  6
CONTINUOUS
 10
-26.375
 20
-34.0063829422
 11
-26.375
 21
-35.5
  0
LINE
  5
3C0
100
AcDbEntity
  8
0
100
AcDbLine
 62
7
  6
CONTINUOUS
 10
-26.18608
 20
-32.703419
 11
-26.18608
 21
-32.085057
  0
LINE
  5
3C1
100
AcDbEntity
  8
0
100
AcDbLine
 62
7
  6
CONTINUOUS
 10
-26.18608
 20
-31.863476
 11
-26.18608
 21
-31.296581
  0
LINE
  5
3C2
100
AcDbEntity
  8
0
100
AcDbLine
 62
7
  6
CONTINUOUS
 10
-26.15
 20
-35.5
 11
-26.15
 21
-33.7
  0
LINE
  5
3C3
100
AcDbEntity
  8
0
100
AcDbLine
 62
7
  6
CONTINUOUS
 10
-25.8500000179
 20
-34.1978723884
 11
-25.8500000179
 21
-34.3510638595
  0
LINE
  5
3C4
100
AcDbEntity
  8
0
100
AcDbLine
 62
7
  6
CONTINUOUS
 10
-25.6625000358
 20
-34.3127659917
 11
-25.6625000358
 21
-34.2361702561
  0
LINE
  5
3C5
100
AcDbEntity
  8
0
100
AcDbLine
 62
7
  6
CONTINUOUS
 10
-25.173464
 20
-32.085057
 11
-25.173464
 21
-31.863476
  0
LINE
  5
3C6
100
AcDbEntity
  8
0
100
AcDbLine
 62
7
  6
CONTINUOUS
 10
-25.088438
 20
-31.296581
 11
-25.088438
 21
-31.075
  0
LINE
  5
3C7
100
AcDbEntity
  8
0
100
AcDbLine
 62
7
  6
CONTINUOUS
 10
-25.070379
 20
-32.925
 11
-25.070379
 21
-32.703419
  0
LINE
  5
3C8
100
AcDbEntity
  8
0
100
AcDbLine
 62
7
  6
CONTINUOUS
 10
-24.7250000715
 20
-34.2361702561
 11
-24.7250000715
 21
-34.3127659917
  0
LINE
  5
3C9
100
AcDbEntity
  8
0
100
AcDbLine
 62
7
  6
CONTINUOUS
 10
-24.6875
 20
-34.6574468017
 11
-24.6875
 21
-34.7340425372
  0
LINE
  5
3CA
100
AcDbEntity
  8
0
100
AcDbLine
 62
7
  6
CONTINUOUS
 10
-24.5000000715
 20
-34.7340425372
 11
-24.5000000715
 21
-34.4659574628
  0
LWPOLYLINE
  5
3CB
100
AcDbEntity
  8
0
100
AcDbPolyline
 62
7
  6
CONTINUOUS
 90
25
 70
0
 10
-27.039390866
 20
-32.0
 10
-27.0401377627
 20
-32.0566740235
 10
-27.0429642933
 20
-32.1108953426
 10
-27.0478704579
 20
-32.1626642139
 10
-27.0549578291
 20
-32.21189639
 10
-27.0641248342
 20
-32.2586766053
 10
-27.0750667548
 20
-32.30325855
 10
-27.0875851831
 20
-32.3457871091
 10
-27.1018785269
 20
-32.3861177656
 10
-27.1182372907
 20
-32.4240700846
 10
-27.136853371
 20
-32.4595659658
 10
-27.1575348714
 20
-32.4926838611
 10
-27.1799966074
 20
-32.523478158
 10
-27.2042428399
 20
-32.5519680959
 10
-27.230269308
 20
-32.5781347115
 10
-27.2577780446
 20
-32.6019750697
 10
-27.2867264628
 20
-32.6234841318
 10
-27.3171571495
 20
-32.6426671501
 10
-27.3488998981
 20
-32.6595366102
 10
-27.3819238525
 20
-32.6741336914
 10
-27.4162598688
 20
-32.6864173617
 10
-27.4518303086
 20
-32.6962767751
 10
-27.4886092924
 20
-32.7036750128
 10
-27.5266226998
 20
-32.7086490795
 10
-27.5658705306
 20
-32.711199
  0
LINE
  5
3CC
100
AcDbEntity
  8
0
100
AcDbLine
 62
7
  6
CONTINUOUS
 10
-25.19631
 20
31.612597
 11
-25.016148
 21
34.224203
  0
LINE
  5
3CD
100
AcDbEntity
  8
0
100
AcDbLine
 62
7
  6
CONTINUOUS
 10
-25.633862
 20
35.612109
 11
-25.994994
 21
31.612597
  0
LINE
  5
3CE
100
AcDbEntity
  8
0
100
AcDbLine
 62
7
  6
CONTINUOUS
 10
-20.580763
 20
33.028875
 11
-20.165075
 21
34.513145
  0
LINE
  5
3CF
100
AcDbEntity
  8
0
100
AcDbLine
 62
7
  6
CONTINUOUS
 10
-20.981905
 20
31.612597
 11
-20.751537
 21
32.411042
  0
LWPOLYLINE
  5
3D0
100
AcDbEntity
  8
0
100
AcDbPolyline
 62
7
  6
CONTINUOUS
 90
10
 70
0
 10
-34.3491404373
 20
-28.5516984938
 10
-34.3490090839
 20
-28.5512603378
 10
-34.3488775968
 20
-28.5508697838
 10
-34.348745976
 20
-28.5505268316
 10
-34.3486142026
 20
-28.5502314486
 10
-34.3484822955
 20
-28.5499836674
 10
-34.3483503106
 20
-28.5497835863
 10
-34.3482182667
 20
-28.5496312377
 10
-34.3480861449
 20
-28.5495265891
 10
-34.3479539454
 20
-28.5494696404
  0
LINE
  5
3D1
100
AcDbEntity
  8
0
100
AcDbLine
 62
7
  6
CONTINUOUS
 10
-20.553201
 20
35.612109
 11
-21.807703
 21
31.612597
  0
LWPOLYLINE
  5
3D2
100
AcDbEntity
  8
0
100
AcDbPolyline
 62
7
  6
CONTINUOUS
 90
3
 70
0
 10
-10.6006079038
 20
27.3124002606
 10
-10.5769358943
 20
27.3385729905
 10
-10.5640771447
 20
27.352636585
  0
LINE
  5
3D3
100
AcDbEntity
  8
0
100
AcDbLine
 62
7
  6
CONTINUOUS
 10
-10.5640771447
 20
27.352636585
 11
-10.5219920601
 21
27.3976345594
  0
LINE
  5
3D4
100
AcDbEntity
  8
0
100
AcDbLine
 62
7
  6
CONTINUOUS
 10
-10.5219920601
 20
27.3976345594
 11
-10.4762452732
 21
27.44554571
  0
LINE
  5
3D5
100
AcDbEntity
  8
0
100
AcDbLine
 62
7
  6
CONTINUOUS
 10
-10.4762452732
 20
27.44554571
 11
-10.4284098218
 21
27.4948309013
  0
LWPOLYLINE
  5
3D6
100
AcDbEntity
  8
0
100
AcDbPolyline
 62
7
  6
CONTINUOUS
 90
4
 70
0
 10
-10.4284098218
 20
27.4948309013
 10
-10.3800486947
 20
27.5440061689
 10
-10.3640596421
 20
27.5601221769
 10
-10.3481176273
 20
27.5760193457
  0
LINE
  5
3D7
100
AcDbEntity
  8
0
100
AcDbLine
 62
7
  6
CONTINUOUS
 10
-10.6479348754
 20
27.2520651246
 11
-10.85
 21
27.05
  0
LINE
  5
3D8
100
AcDbEntity
  8
0
100
AcDbLine
 62
253
  6
CONTINUOUS
 10
-9.9463209205
 20
27.0534963276
 11
-9.7477560399
 21
27.2520651246
  0
LINE
  5
3D9
100
AcDbEntity
  8
0
100
AcDbLine
 62
7
  6
CONTINUOUS
 10
-12.45
 20
26.65
 11
-12.8641963536
 21
26.2465093858
  0
LINE
  5
3DA
100
AcDbEntity
  8
0
100
AcDbLine
 62
7
  6
CONTINUOUS
 10
-10.8340344151
 20
28.5329802805
 11
-10.7953876324
 21
28.5523022003
  0
LINE
  5
3DB
100
AcDbEntity
  8
0
100
AcDbLine
 62
7
  6
CONTINUOUS
 10
-12.0968102756
 20
24.0265867593
 11
-12.15
 21
24.0
  0
LINE
  5
3DC
100
AcDbEntity
  8
0
100
AcDbLine
 62
7
  6
CONTINUOUS
 10
-9.4823803064
 20
24.0
 11
-9.4393090811
 21
24.0215290512
  0
LINE
  5
3DD
100
AcDbEntity
  8
0
100
AcDbLine
 62
7
  6
CONTINUOUS
 10
22.111109
 20
33.245159
 11
22.182955
 21
33.26789
  0
LINE
  5
3DE
100
AcDbEntity
  8
0
100
AcDbLine
 62
7
  6
CONTINUOUS
 10
22.007021
 20
33.750623
 11
21.955314
 21
33.734524
  0
LINE
  5
3DF
100
AcDbEntity
  8
0
100
AcDbLine
 62
7
  6
CONTINUOUS
 10
-21.6125001431
 20
-35.2702127665
 11
-21.7625
 21
-35.3085106343
  0
LINE
  5
3E0
100
AcDbEntity
  8
0
100
AcDbLine
 62
7
  6
CONTINUOUS
 10
-22.1374998569
 20
-34.5808510661
 11
-21.9875
 21
-34.5425531983
  0
LINE
  5
3E1
100
AcDbEntity
  8
0
100
AcDbLine
 62
7
  6
CONTINUOUS
 10
10.6508537729
 20
-28.5497675973
 11
10.85
 21
-28.5
  0
LINE
  5
3E2
100
AcDbEntity
  8
0
100
AcDbLine
 62
7
  6
CONTINUOUS
 10
12.8639677759
 20
-26.2465093858
 11
13.0176196936
 21
-26.2081110346
  0
LINE
  5
3E3
100
AcDbEntity
  8
DRAFT
100
AcDbLine
 62
7
  6
CONTINUOUS
 10
10.3982094973
 20
-26.19606325
 11
10.35
 21
-26.2081110346
  0
LINE
  5
3E4
100
AcDbEntity
  8
0
100
AcDbLine
 62
7
  6
CONTINUOUS
 10
-11.8491462271
 20
-28.5497675973
 11
-11.65
 21
-28.5
  0
LINE
  5
3E5
100
AcDbEntity
  8
0
100
AcDbLine
 62
7
  6
CONTINUOUS
 10
-21.7625
 20
-35.5
 11
-21.5749998569
 21
-35.4617021289
  0
LINE
  5
3E6
100
AcDbEntity
  8
0
100
AcDbLine
 62
7
  6
CONTINUOUS
 10
-23.4124999285
 20
-35.5
 11
-23.225
 21
-35.4617021289
  0
LINE
  5
3E7
100
AcDbEntity
  8
0
100
AcDbLine
 62
7
  6
CONTINUOUS
 10
-25.1000000358
 20
-35.5
 11
-24.9125
 21
-35.4617021289
  0
LINE
  5
3E8
100
AcDbEntity
  8
0
100
AcDbLine
 62
7
  6
CONTINUOUS
 10
-21.9875
 20
-34.3510638595
 11
-22.1750001431
 21
-34.3893617272
  0
LINE
  5
3E9
100
AcDbEntity
  8
0
100
AcDbLine
 62
7
  6
CONTINUOUS
 10
-25.1000000358
 20
-34.8489361942
 11
-24.9125
 21
-34.8106382728
  0
LINE
  5
3EA
100
AcDbEntity
  8
0
100
AcDbLine
 62
7
  6
CONTINUOUS
 10
-23.6000000715
 20
-34.3510638595
 11
-23.7875
 21
-34.3893617272
  0
LINE
  5
3EB
100
AcDbEntity
  8
0
100
AcDbLine
 62
7
  6
CONTINUOUS
 10
-23.6000000715
 20
-33.7
 11
-23.7875
 21
-33.7382978678
  0
LINE
  5
3EC
100
AcDbEntity
  8
0
100
AcDbLine
 62
7
  6
CONTINUOUS
 10
-25.2874999642
 20
-33.7
 11
-25.475
 21
-33.7382978678
  0
LWPOLYLINE
  5
3ED
100
AcDbEntity
  8
0
100
AcDbPolyline
 62
7
  6
CONTINUOUS
 90
5
 70
0
 10
10.6508537729
 20
-28.5497675973
 10
10.6488004877
 20
-28.5499927261
 10
10.6446858294
 20
-28.5502123997
 10
10.6385097981
 20
-28.550426618
 10
10.6302327162
 20
-28.5506365255
  0
LWPOLYLINE
  5
3EE
100
AcDbEntity
  8
0
100
AcDbPolyline
 62
7
  6
CONTINUOUS
 90
5
 70
0
 10
-11.8491462271
 20
-28.5497675973
 10
-11.8511995123
 20
-28.5499927261
 10
-11.8553141706
 20
-28.5502123997
 10
-11.8614902019
 20
-28.550426618
 10
-11.8697672838
 20
-28.5506365255
  0
LINE
  5
3EF
100
AcDbEntity
  8
DRAFT
100
AcDbLine
 62
7
  6
CONTINUOUS
 10
-46.6157928661
 20
-27.5852753877
 11
-45.7837534229
 21
-27.5402540431
  0
LINE
  5
3F0
100
AcDbEntity
  8
0
100
AcDbLine
 62
7
  6
CONTINUOUS
 10
32.55
 20
-27.75
 11
32.4463209205
 21
-27.7534963276
  0
LWPOLYLINE
  5
3F1
100
AcDbEntity
  8
0
100
AcDbPolyline
 62
253
  6
CONTINUOUS
 90
25
 70
0
 10
12.7522478765
 20
-27.5760193457
 10
12.7916964862
 20
-27.5746917185
 10
12.8306458472
 20
-27.5708683653
 10
12.8690959597
 20
-27.5645492721
 10
12.9071989279
 20
-27.5556895421
 10
12.9448026475
 20
-27.5443340164
 10
12.9814508056
 20
-27.5306172767
 10
13.0171415492
 20
-27.5145067619
 10
13.0518767314
 20
-27.49603493
 10
13.0852055985
 20
-27.4754338874
 10
13.1171077503
 20
-27.4526774635
 10
13.1476035869
 20
-27.4277916949
 10
13.1763035556
 20
-27.4010870063
 10
13.2031860858
 20
-27.3725392609
 10
13.2282727479
 20
-27.3421724512
 10
13.2512387006
 20
-27.310369216
 10
13.272058418
 20
-27.2771046121
 10
13.2907574258
 20
-27.2424034503
 10
13.3070874602
 20
-27.206723037
 10
13.3210136491
 20
-27.1700691232
 10
13.3325708646
 20
-27.1324358607
 10
13.341615459
 20
-27.0942632014
 10
13.3480995498
 20
-27.0556977885
 10
13.3520710196
 20
-27.01659293
 10
13.3535298682
 20
-26.9769485984
  0
LINE
  5
3F2
100
AcDbEntity
  8
0
100
AcDbLine
 62
7
  6
CONTINUOUS
 10
10.05
 20
-27.05
 11
9.9463209205
 21
-27.0534963276
  0
LINE
  5
3F3
100
AcDbEntity
  8
0
100
AcDbLine
 62
7
  6
CONTINUOUS
 10
-12.45
 20
-27.75
 11
-12.5536790795
 21
-27.7534963276
  0
LINE
  5
3F4
100
AcDbEntity
  8
0
100
AcDbLine
 62
7
  6
CONTINUOUS
 10
-34.95
 20
-27.75
 11
-35.0536790795
 21
-27.7534963276
  0
LWPOLYLINE
  5
3F5
100
AcDbEntity
  8
0
100
AcDbPolyline
 62
253
  6
CONTINUOUS
 90
25
 70
0
 10
35.2502285397
 20
-28.2752649765
 10
35.2896700707
 20
-28.2739382669
 10
35.3286135975
 20
-28.2701167543
 10
35.3670591201
 20
-28.2638004238
 10
35.4051586974
 20
-28.2549445546
 10
35.4427602705
 20
-28.243593809
 10
35.4794076623
 20
-28.2298822351
 10
35.5150991359
 20
-28.2137772573
 10
35.5498364282
 20
-28.1953113428
 10
35.5831685727
 20
-28.1747161002
 10
35.6150752482
 20
-28.1519652876
 10
35.6455767759
 20
-28.1270850058
 10
35.6742831527
 20
-28.1003853858
 10
35.7011728321
 20
-28.071842196
 10
35.7262673607
 20
-28.0414795157
 10
35.7492413753
 20
-28.0096799648
 10
35.7700693178
 20
-27.9764185127
 10
35.7887767462
 20
-27.9417200503
 10
35.805114972
 20
-27.906042116
 10
35.8190490431
 20
-27.8693903596
 10
35.8306139116
 20
-27.8317590287
 10
35.8396657447
 20
-27.7935886057
 10
35.8461565983
 20
-27.75502591
 10
35.8501344165
 20
-27.7159240704
 10
35.8515991994
 20
-27.6762830578
  0
LWPOLYLINE
  5
3F6
100
AcDbEntity
  8
0
100
AcDbPolyline
 62
253
  6
CONTINUOUS
 90
25
 70
0
 10
-9.7497714603
 20
-28.2752649765
 10
-9.7103299293
 20
-28.2739382669
 10
-9.6713864025
 20
-28.2701167543
 10
-9.6329408799
 20
-28.2638004238
 10
-9.5948413026
 20
-28.2549445546
 10
-9.5572397295
 20
-28.243593809
 10
-9.5205923377
 20
-28.2298822351
 10
-9.4849008641
 20
-28.2137772573
 10
-9.4501635718
 20
-28.1953113428
 10
-9.4168314273
 20
-28.1747161002
 10
-9.3849247518
 20
-28.1519652876
 10
-9.3544232241
 20
-28.1270850058
 10
-9.3257168473
 20
-28.1003853858
 10
-9.2988271679
 20
-28.071842196
 10
-9.2737326393
 20
-28.0414795157
 10
-9.2507586247
 20
-28.0096799648
 10
-9.2299306822
 20
-27.9764185127
 10
-9.2112232538
 20
-27.9417200503
 10
-9.194885028
 20
-27.906042116
 10
-9.1809509569
 20
-27.8693903596
 10
-9.1693860884
 20
-27.8317590287
 10
-9.1603342553
 20
-27.7935886057
 10
-9.1538434017
 20
-27.75502591
 10
-9.1498655835
 20
-27.7159240704
 10
-9.1484008006
 20
-27.6762830578
  0
LWPOLYLINE
  5
3F7
100
AcDbEntity
  8
0
100
AcDbPolyline
 62
253
  6
CONTINUOUS
 90
25
 70
0
 10
-32.2497714603
 20
-28.2752649765
 10
-32.2103299293
 20
-28.2739382669
 10
-32.1713864025
 20
-28.2701167543
 10
-32.1329408799
 20
-28.2638004238
 10
-32.0948413026
 20
-28.2549445546
 10
-32.0572397295
 20
-28.243593809
 10
-32.0205923377
 20
-28.2298822351
 10
-31.9849008641
 20
-28.2137772573
 10
-31.9501635718
 20
-28.1953113428
 10
-31.9168314273
 20
-28.1747161002
 10
-31.8849247518
 20
-28.1519652876
 10
-31.8544232241
 20
-28.1270850058
 10
-31.8257168473
 20
-28.1003853858
 10
-31.7988271679
 20
-28.071842196
 10
-31.7737326393
 20
-28.0414795157
 10
-31.7507586247
 20
-28.0096799648
 10
-31.7299306822
 20
-27.9764185127
 10
-31.7112232538
 20
-27.9417200503
 10
-31.694885028
 20
-27.906042116
 10
-31.6809509569
 20
-27.8693903596
 10
-31.6693860884
 20
-27.8317590287
 10
-31.6603342553
 20
-27.7935886057
 10
-31.6538434017
 20
-27.75502591
 10
-31.6498655835
 20
-27.7159240704
 10
-31.6484008006
 20
-27.6762830578
  0
LWPOLYLINE
  5
3F8
100
AcDbEntity
  8
0
100
AcDbPolyline
 62
7
  6
CONTINUOUS
 90
7
 70
0
 10
31.8961168447
 20
-24.0240602574
 10
31.9083776641
 20
-24.0236704869
 10
31.9186995995
 20
-24.0232630397
 10
31.9269654309
 20
-24.0228445129
 10
31.9331360849
 20
-24.0224171053
 10
31.937250635
 20
-24.0219786181
 10
31.9393090811
 20
-24.0215290512
  0
LWPOLYLINE
  5
3F9
100
AcDbEntity
  8
0
100
AcDbPolyline
 62
253
  6
CONTINUOUS
 90
25
 70
0
 10
35.2502326434
 20
-27.9500457941
 10
35.269848416
 20
-27.9494329514
 10
35.2893818552
 20
-27.9475488383
 10
35.3087499907
 20
-27.94440223
 10
35.3278674821
 20
-27.9400084884
 10
35.3466565409
 20
-27.9343863439
 10
35.3650466043
 20
-27.9275555931
 10
35.3829636784
 20
-27.9195419883
 10
35.4003261195
 20
-27.9103801638
 10
35.4170545395
 20
-27.9001096841
 10
35.4330761199
 20
-27.8887752407
 10
35.4483238282
 20
-27.8764241594
 10
35.4627317327
 20
-27.8631075342
 10
35.4762383765
 20
-27.8488817232
 10
35.4887853951
 20
-27.8338076828
 10
35.5003172333
 20
-27.81794933
 10
35.5107855952
 20
-27.8013724282
 10
35.5201439958
 20
-27.7841499174
 10
35.5283478898
 20
-27.7663620059
 10
35.5353596691
 20
-27.7480962355
 10
35.5411556769
 20
-27.7294212934
 10
35.5457165237
 20
-27.71039136
 10
35.5490198483
 20
-27.6910784711
 10
35.5510458258
 20
-27.6715738137
 10
35.5517819677
 20
-27.651961219
  0
LWPOLYLINE
  5
3FA
100
AcDbEntity
  8
0
100
AcDbPolyline
 62
253
  6
CONTINUOUS
 90
25
 70
0
 10
12.7522519541
 20
-27.2520651307
 10
12.7718711641
 20
-27.2514518615
 10
12.7914072805
 20
-27.2495665257
 10
12.8107772981
 20
-27.2464179718
 10
12.8298958646
 20
-27.2420216257
 10
12.8486851609
 20
-27.2363963033
 10
12.8670745786
 20
-27.2295619202
 10
12.8849901056
 20
-27.2215443208
 10
12.9023501431
 20
-27.2123782218
 10
12.9190753717
 20
-27.2021032994
 10
12.9350929894
 20
-27.1907643297
 10
12.9503360331
 20
-27.1784087016
 10
12.9647387242
 20
-27.1650875678
 10
12.9782396443
 20
-27.1508573404
 10
12.990780503
 20
-27.1357790091
 10
13.0023059329
 20
-27.1199164823
 10
13.012767675
 20
-27.1033355442
 10
13.0221193065
 20
-27.0861091329
 10
13.0303164641
 20
-27.0683173752
 10
13.0373215544
 20
-27.0500478188
 10
13.0431109501
 20
-27.0313691091
 10
13.0476653921
 20
-27.012335242
 10
13.0509625231
 20
-26.9930181673
 10
13.052982445
 20
-26.9735090994
 10
13.0537126357
 20
-26.953891848
  0
LWPOLYLINE
  5
3FB
100
AcDbEntity
  8
0
100
AcDbPolyline
 62
253
  6
CONTINUOUS
 90
25
 70
0
 10
-9.7497673566
 20
-27.9500457941
 10
-9.730151584
 20
-27.9494329514
 10
-9.7106181448
 20
-27.9475488383
 10
-9.6912500093
 20
-27.94440223
 10
-9.6721325179
 20
-27.9400084884
 10
-9.6533434591
 20
-27.9343863439
 10
-9.6349533957
 20
-27.9275555931
 10
-9.6170363216
 20
-27.9195419883
 10
-9.5996738805
 20
-27.9103801638
 10
-9.5829454605
 20
-27.9001096841
 10
-9.5669238801
 20
-27.8887752407
 10
-9.5516761718
 20
-27.8764241594
 10
-9.5372682673
 20
-27.8631075342
 10
-9.5237616235
 20
-27.8488817232
 10
-9.5112146049
 20
-27.8338076828
 10
-9.4996827667
 20
-27.81794933
 10
-9.4892144048
 20
-27.8013724282
 10
-9.4798560042
 20
-27.7841499174
 10
-9.4716521102
 20
-27.7663620059
 10
-9.4646403309
 20
-27.7480962355
 10
-9.4588443231
 20
-27.7294212934
 10
-9.4542834763
 20
-27.71039136
 10
-9.4509801517
 20
-27.6910784711
 10
-9.4489541742
 20
-27.6715738137
 10
-9.4482180323
 20
-27.651961219
  0
LWPOLYLINE
  5
3FC
100
AcDbEntity
  8
0
100
AcDbPolyline
 62
253
  6
CONTINUOUS
 90
25
 70
0
 10
-32.2497673566
 20
-27.9500457941
 10
-32.230151584
 20
-27.9494329514
 10
-32.2106181448
 20
-27.9475488383
 10
-32.1912500093
 20
-27.94440223
 10
-32.1721325179
 20
-27.9400084884
 10
-32.1533434591
 20
-27.9343863439
 10
-32.1349533957
 20
-27.9275555931
 10
-32.1170363216
 20
-27.9195419883
 10
-32.0996738805
 20
-27.9103801638
 10
-32.0829454605
 20
-27.9001096841
 10
-32.0669238801
 20
-27.8887752407
 10
-32.0516761718
 20
-27.8764241594
 10
-32.0372682673
 20
-27.8631075342
 10
-32.0237616235
 20
-27.8488817232
 10
-32.0112146049
 20
-27.8338076828
 10
-31.9996827667
 20
-27.81794933
 10
-31.9892144048
 20
-27.8013724282
 10
-31.9798560042
 20
-27.7841499174
 10
-31.9716521102
 20
-27.7663620059
 10
-31.9646403309
 20
-27.7480962355
 10
-31.9588443231
 20
-27.7294212934
 10
-31.9542834763
 20
-27.71039136
 10
-31.9509801517
 20
-27.6910784711
 10
-31.9489541742
 20
-27.6715738137
 10
-31.9482180323
 20
-27.651961219
  0
LINE
  5
3FD
100
AcDbEntity
  8
DRAFT
100
AcDbLine
 62
7
  6
CONTINUOUS
 10
67.2857171432
 20
-24.0214559154
 11
66.2530264092
 21
-24.0526773156
  0
LWPOLYLINE
  5
3FE
100
AcDbEntity
  8
RACCORDO
100
AcDbPolyline
 62
7
  6
CONTINUOUS
 90
8
 70
0
 10
70.1061216324
 20
-24.1088148783
 10
70.1156296028
 20
-24.1085599558
 10
70.1237022128
 20
-24.1082948189
 10
70.1304174795
 20
-24.1080184149
 10
70.1357247969
 20
-24.1077354188
 10
70.1396072963
 20
-24.107447389
 10
70.1420818463
 20
-24.1071527671
 10
70.1431484469
 20
-24.1068515531
  0
LINE
  5
3FF
100
AcDbEntity
  8
0
100
AcDbLine
 62
7
  6
CONTINUOUS
 10
31.8655937796
 20
-24.024789156
 11
31.8961168447
 21
-24.0240602574
  0
LINE
  5
400
100
AcDbEntity
  8
RACCORDO
100
AcDbLine
 62
7
  6
CONTINUOUS
 10
70.0833183183
 20
-24.1092830887
 11
70.1061216324
 21
-24.1088148783
  0
LINE
  5
401
100
AcDbEntity
  8
0
100
AcDbLine
 62
7
  6
CONTINUOUS
 10
10.6302327162
 20
-28.5506365255
 11
10.6076134661
 21
-28.5510365414
  0
LINE
  5
402
100
AcDbEntity
  8
0
100
AcDbLine
 62
7
  6
CONTINUOUS
 10
-11.8697672838
 20
-28.5506365255
 11
-11.8923865339
 21
-28.5510365414
  0
LINE
  5
403
100
AcDbEntity
  8
0
100
AcDbLine
 62
7
  6
CONTINUOUS
 10
31.8284274387
 20
-24.025415644
 11
31.8655937796
 21
-24.024789156
  0
LINE
  5
404
100
AcDbEntity
  8
RACCORDO
100
AcDbLine
 62
7
  6
CONTINUOUS
 10
70.0561153823
 20
-24.109672862
 11
70.0833183183
 21
-24.1092830887
  0
LINE
  5
405
100
AcDbEntity
  8
0
100
AcDbLine
 62
7
  6
CONTINUOUS
 10
31.7856192358
 20
-24.0259228651
 11
31.8284274387
 21
-24.025415644
  0
LINE
  5
406
100
AcDbEntity
  8
DRAFT
100
AcDbLine
 62
7
  6
CONTINUOUS
 10
50.0936030776
 20
-24.0682283639
 11
48.55
 21
-24.0837843117
  0
LINE
  5
407
100
AcDbEntity
  8
0
100
AcDbLine
 62
7
  6
CONTINUOUS
 10
10.6076134661
 20
-28.5510365414
 11
10.5592360728
 21
-28.5515664656
  0
LINE
  5
408
100
AcDbEntity
  8
0
100
AcDbLine
 62
7
  6
CONTINUOUS
 10
-11.8923865339
 20
-28.5510365414
 11
-11.9407639272
 21
-28.5515664656
  0
LINE
  5
409
100
AcDbEntity
  8
RACCORDO
100
AcDbLine
 62
7
  6
CONTINUOUS
 10
70.0100585485
 20
-24.1100829689
 11
70.0561153823
 21
-24.109672862
  0
LWPOLYLINE
  5
40A
100
AcDbEntity
  8
0
100
AcDbPolyline
 62
253
  6
CONTINUOUS
 90
19
 70
0
 10
31.6484008006
 20
-27.6762829804
 10
31.6739697277
 20
-27.6761223585
 10
31.6993525842
 20
-27.675785931
 10
31.7243646482
 20
-27.6752761461
 10
31.7488238963
 20
-27.674596714
 10
31.7725523282
 20
-27.6737525789
 10
31.7953772618
 20
-27.6727498842
 10
31.8171325905
 20
-27.6715959268
 10
31.8376599915
 20
-27.6702991045
 10
31.856810078
 20
-27.6688688549
 10
31.8744434867
 20
-27.6673155866
 10
31.8904318919
 20
-27.6656506033
 10
31.904658939
 20
-27.6638860218
 10
31.9170210919
 20
-27.6620346837
 10
31.9274283857
 20
-27.660110062
 10
31.9358050822
 20
-27.658126163
 10
31.9420902207
 20
-27.6560974244
 10
31.9462380615
 20
-27.6540386102
 10
31.9482184189
 20
-27.6519647032
  0
LWPOLYLINE
  5
40B
100
AcDbEntity
  8
0
100
AcDbPolyline
 62
253
  6
CONTINUOUS
 90
19
 70
0
 10
-13.3515991994
 20
-27.6762829804
 10
-13.3260302723
 20
-27.6761223585
 10
-13.3006474158
 20
-27.675785931
 10
-13.2756353518
 20
-27.6752761461
 10
-13.2511761037
 20
-27.674596714
 10
-13.2274476718
 20
-27.6737525789
 10
-13.2046227382
 20
-27.6727498842
 10
-13.1828674095
 20
-27.6715959268
 10
-13.1623400085
 20
-27.6702991045
 10
-13.143189922
 20
-27.6688688549
 10
-13.1255565133
 20
-27.6673155866
 10
-13.1095681081
 20
-27.6656506033
 10
-13.095341061
 20
-27.6638860218
 10
-13.0829789081
 20
-27.6620346837
 10
-13.0725716143
 20
-27.660110062
 10
-13.0641949178
 20
-27.658126163
 10
-13.0579097793
 20
-27.6560974244
 10
-13.0537619385
 20
-27.6540386102
 10
-13.0517815811
 20
-27.6519647032
  0
LWPOLYLINE
  5
40C
100
AcDbEntity
  8
0
100
AcDbPolyline
 62
253
  6
CONTINUOUS
 90
19
 70
0
 10
-35.8515991994
 20
-27.6762829804
 10
-35.8260302723
 20
-27.6761223585
 10
-35.8006474158
 20
-27.675785931
 10
-35.7756353518
 20
-27.6752761461
 10
-35.7511761037
 20
-27.674596714
 10
-35.7274476718
 20
-27.6737525789
 10
-35.7046227382
 20
-27.6727498842
 10
-35.6828674095
 20
-27.6715959268
 10
-35.6623400085
 20
-27.6702991045
 10
-35.643189922
 20
-27.6688688549
 10
-35.6255565133
 20
-27.6673155866
 10
-35.6095681081
 20
-27.6656506033
 10
-35.595341061
 20
-27.6638860218
 10
-35.5829789081
 20
-27.6620346837
 10
-35.5725716143
 20
-27.660110062
 10
-35.5641949178
 20
-27.658126163
 10
-35.5579097793
 20
-27.6560974244
 10
-35.5537619385
 20
-27.6540386102
 10
-35.5517815811
 20
-27.6519647032
  0
LWPOLYLINE
  5
40D
100
AcDbEntity
  8
0
100
AcDbPolyline
 62
253
  6
CONTINUOUS
 90
19
 70
0
 10
9.1464701318
 20
-26.9769485243
 10
9.1720388756
 20
-26.9767962374
 10
9.1974215531
 20
-26.9764772936
 10
9.2224334464
 20
-26.975994014
 10
9.2468925361
 20
-26.9753499156
 10
9.2706208257
 20
-26.9745496855
 10
9.2934456368
 20
-26.9735991475
 10
9.3152008663
 20
-26.9725052188
 10
9.3357281942
 20
-26.9712758604
 10
9.3548782369
 20
-26.9699200185
 10
9.3725116334
 20
-26.9684475602
 10
9.3885000599
 20
-26.966869201
 10
9.4027271635
 20
-26.965196427
 10
9.4150894092
 20
-26.9634414117
 10
9.4254968329
 20
-26.9616169267
 10
9.4338736966
 20
-26.9597362495
 10
9.4401590392
 20
-26.9578130664
 10
9.4443071202
 20
-26.9558613728
 10
9.6360402013
 20
-26.7641425506
  0
LINE
  5
40E
100
AcDbEntity
  8
RACCORDO
100
AcDbLine
 62
7
  6
CONTINUOUS
 10
69.9772340858
 20
-24.1102332408
 11
70.0100585485
 21
-24.1100829689
  0
LINE
  5
40F
100
AcDbEntity
  8
0
100
AcDbLine
 62
7
  6
CONTINUOUS
 10
10.5592360728
 20
-28.5515664656
 11
10.4507128829
 21
-28.5521528265
  0
LINE
  5
410
100
AcDbEntity
  8
0
100
AcDbLine
 62
7
  6
CONTINUOUS
 10
-11.9407639272
 20
-28.5515664656
 11
-12.0492871171
 21
-28.5521528265
  0
LINE
  5
411
100
AcDbEntity
  8
0
100
AcDbLine
 62
253
  6
CONTINUOUS
 10
34.6480453875
 20
-28.8759468191
 11
32.8519546125
 21
-28.8759468191
  0
LINE
  5
412
100
AcDbEntity
  8
0
100
AcDbLine
 62
253
  6
CONTINUOUS
 10
-10.7958828128
 20
-28.8759468191
 11
-10.3519546125
 21
-28.8759468191
  0
LINE
  5
413
100
AcDbEntity
  8
0
100
AcDbLine
 62
253
  6
CONTINUOUS
 10
11.7041171872
 20
-28.8759468191
 11
12.1480453875
 21
-28.8759468191
  0
LINE
  5
414
100
AcDbEntity
  8
0
100
AcDbLine
 62
253
  6
CONTINUOUS
 10
-32.8519546125
 20
-28.8759468191
 11
-34.6480453875
 21
-28.8759468191
  0
LINE
  5
415
100
AcDbEntity
  8
0
100
AcDbLine
 62
7
  6
CONTINUOUS
 10
10.7953876324
 20
-28.5523022003
 11
10.3509657419
 21
-28.5523022003
  0
LINE
  5
416
100
AcDbEntity
  8
0
100
AcDbLine
 62
7
  6
CONTINUOUS
 10
-11.7046123676
 20
-28.5523022003
 11
-12.1490342581
 21
-28.5523022003
  0
LINE
  5
417
100
AcDbEntity
  8
0
100
AcDbLine
 62
7
  6
CONTINUOUS
 10
34.3479539454
 20
-28.5494696404
 11
33.1520460546
 21
-28.5494696404
  0
LINE
  5
418
100
AcDbEntity
  8
0
100
AcDbLine
 62
7
  6
CONTINUOUS
 10
-10.8010531835
 20
-28.5494696404
 11
-10.6520460546
 21
-28.5494696404
  0
LINE
  5
419
100
AcDbEntity
  8
0
100
AcDbLine
 62
7
  6
CONTINUOUS
 10
11.6989468165
 20
-28.5494696404
 11
11.8479539454
 21
-28.5494696404
  0
LINE
  5
41A
100
AcDbEntity
  8
0
100
AcDbLine
 62
7
  6
CONTINUOUS
 10
-33.1520460546
 20
-28.5494696404
 11
-34.3479539454
 21
-28.5494696404
  0
LINE
  5
41B
100
AcDbEntity
  8
0
100
AcDbLine
 62
7
  6
CONTINUOUS
 10
-11.6659565568
 20
-28.5329757668
 11
-10.8340344151
 21
-28.5329802805
  0
LINE
  5
41C
100
AcDbEntity
  8
0
100
AcDbLine
 62
7
  6
CONTINUOUS
 10
10.8340344151
 20
-28.5329802805
 11
11.6659565568
 21
-28.5329757668
  0
LINE
  5
41D
100
AcDbEntity
  8
DRAFT
100
AcDbLine
 62
7
  6
CONTINUOUS
 10
34.15
 20
-28.5
 11
33.35
 21
-28.5
  0
LINE
  5
41E
100
AcDbEntity
  8
0
100
AcDbLine
 62
7
  6
CONTINUOUS
 10
-11.65
 20
-28.5
 11
-10.85
 21
-28.5
  0
LINE
  5
41F
100
AcDbEntity
  8
0
100
AcDbLine
 62
7
  6
CONTINUOUS
 10
10.85
 20
-28.5
 11
11.65
 21
-28.5
  0
LINE
  5
420
100
AcDbEntity
  8
DRAFT
100
AcDbLine
 62
7
  6
CONTINUOUS
 10
-33.35
 20
-28.5
 11
-34.15
 21
-28.5
  0
LINE
  5
421
100
AcDbEntity
  8
0
100
AcDbLine
 62
253
  6
CONTINUOUS
 10
-35.2502285397
 20
-28.2752649765
 11
-34.649863036
 21
-28.2752649765
  0
LINE
  5
422
100
AcDbEntity
  8
0
100
AcDbLine
 62
253
  6
CONTINUOUS
 10
-32.850136964
 20
-28.2752649765
 11
-32.2497714603
 21
-28.2752649765
  0
LINE
  5
423
100
AcDbEntity
  8
0
100
AcDbLine
 62
253
  6
CONTINUOUS
 10
-12.7502285397
 20
-28.2752649765
 11
-12.149863036
 21
-28.2752649765
  0
LINE
  5
424
100
AcDbEntity
  8
0
100
AcDbLine
 62
253
  6
CONTINUOUS
 10
-10.350136964
 20
-28.2752649765
 11
-9.7497714603
 21
-28.2752649765
  0
LINE
  5
425
100
AcDbEntity
  8
0
100
AcDbLine
 62
253
  6
CONTINUOUS
 10
32.2497714603
 20
-28.2752649765
 11
32.850136964
 21
-28.2752649765
  0
LINE
  5
426
100
AcDbEntity
  8
0
100
AcDbLine
 62
253
  6
CONTINUOUS
 10
34.649863036
 20
-28.2752649765
 11
35.2502285397
 21
-28.2752649765
  0
LINE
  5
427
100
AcDbEntity
  8
0
100
AcDbLine
 62
253
  6
CONTINUOUS
 10
-35.2502245921
 20
-27.9500457878
 11
-34.3500457878
 21
-27.9500457878
  0
LINE
  5
428
100
AcDbEntity
  8
0
100
AcDbLine
 62
253
  6
CONTINUOUS
 10
-33.1499542122
 20
-27.9500457878
 11
-32.249767363
 21
-27.9500457878
  0
LINE
  5
429
100
AcDbEntity
  8
0
100
AcDbLine
 62
253
  6
CONTINUOUS
 10
-12.7502245921
 20
-27.9500457878
 11
-11.8500457878
 21
-27.9500457878
  0
LINE
  5
42A
100
AcDbEntity
  8
0
100
AcDbLine
 62
253
  6
CONTINUOUS
 10
-10.6499542122
 20
-27.9500457878
 11
-9.749767363
 21
-27.9500457878
  0
LINE
  5
42B
100
AcDbEntity
  8
0
100
AcDbLine
 62
253
  6
CONTINUOUS
 10
32.2497754079
 20
-27.9500457878
 11
33.1499542122
 21
-27.9500457878
  0
LINE
  5
42C
100
AcDbEntity
  8
0
100
AcDbLine
 62
253
  6
CONTINUOUS
 10
34.3500457878
 20
-27.9500457878
 11
35.250232637
 21
-27.9500457878
  0
LINE
  5
42D
100
AcDbEntity
  8
0
100
AcDbLine
 62
7
  6
CONTINUOUS
 10
-34.95
 20
-27.75
 11
-34.15
 21
-27.75
  0
LINE
  5
42E
100
AcDbEntity
  8
0
100
AcDbLine
 62
7
  6
CONTINUOUS
 10
34.95
 20
-27.75
 11
34.15
 21
-27.75
  0
LINE
  5
42F
100
AcDbEntity
  8
0
100
AcDbLine
 62
7
  6
CONTINUOUS
 10
-33.35
 20
-27.75
 11
-32.55
 21
-27.75
  0
LINE
  5
430
100
AcDbEntity
  8
0
100
AcDbLine
 62
7
  6
CONTINUOUS
 10
33.35
 20
-27.75
 11
32.55
 21
-27.75
  0
LINE
  5
431
100
AcDbEntity
  8
0
100
AcDbLine
 62
7
  6
CONTINUOUS
 10
-10.05
 20
-27.75
 11
-10.85
 21
-27.75
  0
LINE
  5
432
100
AcDbEntity
  8
0
100
AcDbLine
 62
7
  6
CONTINUOUS
 10
-11.65
 20
-27.75
 11
-12.45
 21
-27.75
  0
LINE
  5
433
100
AcDbEntity
  8
0
100
AcDbLine
 62
253
  6
CONTINUOUS
 10
9.7477521235
 20
-27.5760193457
 11
10.3481176273
 21
-27.5760193457
  0
LINE
  5
434
100
AcDbEntity
  8
0
100
AcDbLine
 62
253
  6
CONTINUOUS
 10
12.1518823727
 20
-27.5760193457
 11
12.7522478765
 21
-27.5760193457
  0
LINE
  5
435
100
AcDbEntity
  8
0
100
AcDbLine
 62
7
  6
CONTINUOUS
 10
34.95
 20
-27.35
 11
32.55
 21
-27.35
  0
LINE
  5
436
100
AcDbEntity
  8
0
100
AcDbLine
 62
7
  6
CONTINUOUS
 10
-10.05
 20
-27.35
 11
-12.45
 21
-27.35
  0
LINE
  5
437
100
AcDbEntity
  8
0
100
AcDbLine
 62
7
  6
CONTINUOUS
 10
-32.55
 20
-27.35
 11
-34.95
 21
-27.35
  0
LINE
  5
438
100
AcDbEntity
  8
0
100
AcDbLine
 62
253
  6
CONTINUOUS
 10
9.7477560399
 20
-27.2520651246
 11
10.6479348754
 21
-27.2520651246
  0
LINE
  5
439
100
AcDbEntity
  8
0
100
AcDbLine
 62
253
  6
CONTINUOUS
 10
11.8520651246
 20
-27.2520651246
 11
12.752251948
 21
-27.2520651246
  0
LINE
  5
43A
100
AcDbEntity
  8
0
100
AcDbLine
 62
7
  6
CONTINUOUS
 10
12.45
 20
-27.05
 11
11.65
 21
-27.05
  0
LINE
  5
43B
100
AcDbEntity
  8
0
100
AcDbLine
 62
7
  6
CONTINUOUS
 10
10.85
 20
-27.05
 11
10.05
 21
-27.05
  0
LINE
  5
43C
100
AcDbEntity
  8
0
100
AcDbLine
 62
7
  6
CONTINUOUS
 10
35.3639677759
 20
-26.9465093858
 11
32.1360322241
 21
-26.9465093858
  0
LINE
  5
43D
100
AcDbEntity
  8
0
100
AcDbLine
 62
7
  6
CONTINUOUS
 10
-9.6360322241
 20
-26.9465093858
 11
-12.8639677759
 21
-26.9465093858
  0
LINE
  5
43E
100
AcDbEntity
  8
0
100
AcDbLine
 62
7
  6
CONTINUOUS
 10
-32.1360322241
 20
-26.9465093858
 11
-35.3639677759
 21
-26.9465093858
  0
LINE
  5
43F
100
AcDbEntity
  8
DRAFT
100
AcDbLine
 62
7
  6
CONTINUOUS
 10
-35.5176196936
 20
-26.9081110346
 11
-34.65
 21
-26.9081110346
  0
LINE
  5
440
100
AcDbEntity
  8
DRAFT
100
AcDbLine
 62
7
  6
CONTINUOUS
 10
35.5176196936
 20
-26.9081110346
 11
34.65
 21
-26.9081110346
  0
LINE
  5
441
100
AcDbEntity
  8
DRAFT
100
AcDbLine
 62
7
  6
CONTINUOUS
 10
-32.85
 20
-26.9081110346
 11
-31.9823803064
 21
-26.9081110346
  0
LINE
  5
442
100
AcDbEntity
  8
DRAFT
100
AcDbLine
 62
7
  6
CONTINUOUS
 10
32.85
 20
-26.9081110346
 11
31.9823803064
 21
-26.9081110346
  0
LINE
  5
443
100
AcDbEntity
  8
DRAFT
100
AcDbLine
 62
7
  6
CONTINUOUS
 10
-13.0176196936
 20
-26.9081110346
 11
-12.15
 21
-26.9081110346
  0
LINE
  5
444
100
AcDbEntity
  8
DRAFT
100
AcDbLine
 62
7
  6
CONTINUOUS
 10
-10.35
 20
-26.9081110346
 11
-9.4823803064
 21
-26.9081110346
  0
LINE
  5
445
100
AcDbEntity
  8
DRAFT
100
AcDbLine
 62
7
  6
CONTINUOUS
 10
-34.6036116509
 20
-26.8965183637
 11
-32.8963883491
 21
-26.8965183637
  0
LINE
  5
446
100
AcDbEntity
  8
DRAFT
100
AcDbLine
 62
7
  6
CONTINUOUS
 10
-12.1036116509
 20
-26.8965183637
 11
-10.3963883491
 21
-26.8965183637
  0
LINE
  5
447
100
AcDbEntity
  8
DRAFT
100
AcDbLine
 62
7
  6
CONTINUOUS
 10
32.8963883491
 20
-26.8965183637
 11
34.6036116509
 21
-26.8965183637
  0
LINE
  5
448
100
AcDbEntity
  8
0
100
AcDbLine
 62
7
  6
CONTINUOUS
 10
12.45
 20
-26.65
 11
10.05
 21
-26.65
  0
LINE
  5
449
100
AcDbEntity
  8
0
100
AcDbLine
 62
7
  6
CONTINUOUS
 10
12.8639677759
 20
-26.2465093858
 11
9.6360322241
 21
-26.2465093858
  0
LINE
  5
44A
100
AcDbEntity
  8
DRAFT
100
AcDbLine
 62
7
  6
CONTINUOUS
 10
9.4823803064
 20
-26.2081110346
 11
10.35
 21
-26.2081110346
  0
LINE
  5
44B
100
AcDbEntity
  8
DRAFT
100
AcDbLine
 62
7
  6
CONTINUOUS
 10
12.15
 20
-26.2081110346
 11
13.0176196936
 21
-26.2081110346
  0
LINE
  5
44C
100
AcDbEntity
  8
DRAFT
100
AcDbLine
 62
7
  6
CONTINUOUS
 10
10.3982094973
 20
-26.19606325
 11
12.1017905027
 21
-26.19606325
  0
LINE
  5
44D
100
AcDbEntity
  8
DRAFT
100
AcDbLine
 62
7
  6
CONTINUOUS
 10
45.7662156883
 20
-25.8
 11
46.6337843117
 21
-25.8
  0
LINE
  5
44E
100
AcDbEntity
  8
DRAFT
100
AcDbLine
 62
7
  6
CONTINUOUS
 10
-45.7662156883
 20
-25.8
 11
-46.6337843117
 21
-25.8
  0
LWPOLYLINE
  5
44F
100
AcDbEntity
  8
0
100
AcDbPolyline
 62
253
  6
CONTINUOUS
 90
18
 70
0
 10
13.3535298682
 20
-26.9769485984
 10
13.3279611342
 20
-26.9767963061
 10
13.3025784714
 20
-26.9764773571
 10
13.2775665968
 20
-26.9759940723
 10
13.2531075293
 20
-26.9753499688
 10
13.2293792647
 20
-26.9745497339
 10
13.2065544804
 20
-26.9735991911
 10
13.1847992793
 20
-26.9725052578
 10
13.1642719802
 20
-26.971275895
 10
13.1451219664
 20
-26.9699200489
 10
13.1274885982
 20
-26.9684475866
 10
13.1115001987
 20
-26.9668692235
 10
13.0972731202
 20
-26.965196446
 10
13.0849108973
 20
-26.9634414271
 10
13.0745034937
 20
-26.9616169388
 10
13.0661266469
 20
-26.9597362585
 10
13.0598413179
 20
-26.9578130722
 10
13.0556932467
 20
-26.9558613757
  0
LWPOLYLINE
  5
450
100
AcDbEntity
  8
0
100
AcDbPolyline
 62
253
  6
CONTINUOUS
 90
19
 70
0
 10
-31.6484008006
 20
-27.6762830578
 10
-31.673969718
 20
-27.6761224303
 10
-31.6993525599
 20
-27.6757859972
 10
-31.7243646053
 20
-27.675276207
 10
-31.7488238314
 20
-27.6745967696
 10
-31.7725522385
 20
-27.6737526294
 10
-31.7953771454
 20
-27.6727499297
 10
-31.8171324461
 20
-27.6715959675
 10
-31.8376598183
 20
-27.6702991407
 10
-31.8568098761
 20
-27.6688688867
 10
-31.8744432569
 20
-27.6673156142
 10
-31.8904316353
 20
-27.6656506269
 10
-31.9046586575
 20
-27.6638860416
 10
-31.9170207876
 20
-27.6620346998
 10
-31.9274280615
 20
-27.6601100747
 10
-31.9358047412
 20
-27.6581261724
 10
-31.9420898663
 20
-27.6560974305
 10
-31.9462376973
 20
-27.6540386132
 10
-31.9482180487
 20
-27.6519647032
  0
LWPOLYLINE
  5
451
100
AcDbEntity
  8
0
100
AcDbPolyline
 62
253
  6
CONTINUOUS
 90
19
 70
0
 10
-9.1484008006
 20
-27.6762830578
 10
-9.173969718
 20
-27.6761224303
 10
-9.1993525599
 20
-27.6757859972
 10
-9.2243646053
 20
-27.675276207
 10
-9.2488238314
 20
-27.6745967696
 10
-9.2725522385
 20
-27.6737526294
 10
-9.2953771454
 20
-27.6727499297
 10
-9.3171324461
 20
-27.6715959675
 10
-9.3376598183
 20
-27.6702991407
 10
-9.3568098761
 20
-27.6688688867
 10
-9.3744432569
 20
-27.6673156142
 10
-9.3904316353
 20
-27.6656506269
 10
-9.4046586575
 20
-27.6638860416
 10
-9.4170207876
 20
-27.6620346998
 10
-9.4274280615
 20
-27.6601100747
 10
-9.4358047412
 20
-27.6581261724
 10
-9.4420898663
 20
-27.6560974305
 10
-9.4462376973
 20
-27.6540386132
 10
-9.4482180487
 20
-27.6519647032
  0
LWPOLYLINE
  5
452
100
AcDbEntity
  8
0
100
AcDbPolyline
 62
253
  6
CONTINUOUS
 90
19
 70
0
 10
35.8515991994
 20
-27.6762830578
 10
35.826030282
 20
-27.6761224303
 10
35.8006474401
 20
-27.6757859972
 10
35.7756353947
 20
-27.675276207
 10
35.7511761686
 20
-27.6745967696
 10
35.7274477615
 20
-27.6737526294
 10
35.7046228546
 20
-27.6727499297
 10
35.6828675539
 20
-27.6715959675
 10
35.6623401817
 20
-27.6702991407
 10
35.6431901239
 20
-27.6688688867
 10
35.6255567431
 20
-27.6673156142
 10
35.6095683647
 20
-27.6656506269
 10
35.5953413425
 20
-27.6638860416
 10
35.5829792124
 20
-27.6620346998
 10
35.5725719385
 20
-27.6601100747
 10
35.5641952588
 20
-27.6581261724
 10
35.5579101337
 20
-27.6560974305
 10
35.5537623027
 20
-27.6540386132
 10
35.5517819513
 20
-27.6519647032
  0
LINE
  5
453
100
AcDbEntity
  8
RACCORDO
100
AcDbLine
 62
7
  6
CONTINUOUS
 10
-70.0260180509
 20
-24.1099705833
 11
-69.9772340811
 21
-24.1102332405
  0
LINE
  5
454
100
AcDbEntity
  8
DRAFT
100
AcDbLine
 62
7
  6
CONTINUOUS
 10
-50.0936030776
 20
-24.0682283639
 11
-48.55
 21
-24.0837843117
  0
LINE
  5
455
100
AcDbEntity
  8
0
100
AcDbLine
 62
7
  6
CONTINUOUS
 10
-31.8284274389
 20
-24.025415644
 11
-31.7856192359
 21
-24.0259228651
  0
LINE
  5
456
100
AcDbEntity
  8
RACCORDO
100
AcDbLine
 62
7
  6
CONTINUOUS
 10
-70.0702531835
 20
-24.1094875253
 11
-70.0260180509
 21
-24.1099705833
  0
LINE
  5
457
100
AcDbEntity
  8
0
100
AcDbLine
 62
7
  6
CONTINUOUS
 10
-31.8655937798
 20
-24.024789156
 11
-31.8284274389
 21
-24.025415644
  0
LINE
  5
458
100
AcDbEntity
  8
DRAFT
100
AcDbLine
 62
7
  6
CONTINUOUS
 10
-67.2857171432
 20
-24.0214559154
 11
-66.2530264092
 21
-24.0526773156
  0
LINE
  5
459
100
AcDbEntity
  8
0
100
AcDbLine
 62
7
  6
CONTINUOUS
 10
-32.4463209205
 20
-27.7534963276
 11
-32.55
 21
-27.75
  0
LINE
  5
45A
100
AcDbEntity
  8
0
100
AcDbLine
 62
7
  6
CONTINUOUS
 10
-9.9463209205
 20
-27.7534963276
 11
-10.05
 21
-27.75
  0
LINE
  5
45B
100
AcDbEntity
  8
0
100
AcDbLine
 62
7
  6
CONTINUOUS
 10
12.5536790795
 20
-27.0534963276
 11
12.45
 21
-27.05
  0
LINE
  5
45C
100
AcDbEntity
  8
0
100
AcDbLine
 62
7
  6
CONTINUOUS
 10
35.0536790795
 20
-27.7534963276
 11
34.95
 21
-27.75
  0
LINE
  5
45D
100
AcDbEntity
  8
DRAFT
100
AcDbLine
 62
7
  6
CONTINUOUS
 10
45.7837534229
 20
-27.5402540431
 11
46.6157928661
 21
-27.5852753877
  0
LWPOLYLINE
  5
45E
100
AcDbEntity
  8
0
100
AcDbPolyline
 62
7
  6
CONTINUOUS
 90
8
 70
0
 10
-31.9393090811
 20
-24.0215290512
 10
-31.9372506351
 20
-24.0219786181
 10
-31.933136085
 20
-24.0224171053
 10
-31.9269654309
 20
-24.0228445129
 10
-31.9186995996
 20
-24.0232630397
 10
-31.9083776642
 20
-24.0236704869
 10
-31.8961168448
 20
-24.0240602574
 10
-31.8655937798
 20
-24.024789156
  0
LWPOLYLINE
  5
45F
100
AcDbEntity
  8
0
100
AcDbPolyline
 62
7
  6
CONTINUOUS
 90
9
 70
0
 10
-9.4393090811
 20
-24.0215290512
 10
-9.4372506367
 20
-24.021978618
 10
-9.4331360884
 20
-24.0224171051
 10
-9.4269654362
 20
-24.0228445126
 10
-9.4186996074
 20
-24.0232630394
 10
-9.4083776748
 20
-24.0236704866
 10
-9.3961168562
 20
-24.0240602571
 10
-9.3818247633
 20
-24.0244335448
 10
-9.3478183016
 20
-24.0251169114
  0
LINE
  5
460
100
AcDbEntity
  8
0
100
AcDbLine
 62
7
  6
CONTINUOUS
 10
-10.85
 20
-28.5
 11
-10.6520460546
 21
-28.5494696404
  0
LINE
  5
461
100
AcDbEntity
  8
0
100
AcDbLine
 62
7
  6
CONTINUOUS
 10
-12.8639597987
 20
-26.9465113794
 11
-13.0176196936
 21
-26.9081110346
  0
LINE
  5
462
100
AcDbEntity
  8
DRAFT
100
AcDbLine
 62
7
  6
CONTINUOUS
 10
-10.3963883491
 20
-26.8965183637
 11
-10.35
 21
-26.9081110346
  0
LINE
  5
463
100
AcDbEntity
  8
0
100
AcDbLine
 62
7
  6
CONTINUOUS
 10
11.65
 20
-28.5
 11
11.8479539454
 21
-28.5494696404
  0
LWPOLYLINE
  5
464
100
AcDbEntity
  8
0
100
AcDbPolyline
 62
7
  6
CONTINUOUS
 90
10
 70
0
 10
-10.6520460546
 20
-28.5494696404
 10
-10.6519138551
 20
-28.5495265891
 10
-10.6517817333
 20
-28.5496312377
 10
-10.6516496894
 20
-28.5497835863
 10
-10.6515177045
 20
-28.5499836674
 10
-10.6513857974
 20
-28.5502314486
 10
-10.651254024
 20
-28.5505268316
 10
-10.6511224031
 20
-28.5508697838
 10
-10.650990916
 20
-28.551260338
 10
-10.6508595627
 20
-28.551698494
  0
LINE
  5
465
100
AcDbEntity
  8
0
100
AcDbLine
 62
7
  6
CONTINUOUS
 10
-12.0968102756
 20
-24.0265867593
 11
-12.15
 21
-24.0
  0
LINE
  5
466
100
AcDbEntity
  8
0
100
AcDbLine
 62
7
  6
CONTINUOUS
 10
-9.4823803064
 20
-24.0
 11
-9.4393090811
 21
-24.0215290512
  0
LINE
  5
467
100
AcDbEntity
  8
0
100
AcDbLine
 62
7
  6
CONTINUOUS
 10
-10.8340344151
 20
-28.5329802805
 11
-10.8010531835
 21
-28.5494696404
  0
LINE
  5
468
100
AcDbEntity
  8
0
100
AcDbLine
 62
7
  6
CONTINUOUS
 10
-12.8641963536
 20
-26.9465093858
 11
-12.45
 21
-27.35
  0
LINE
  5
469
100
AcDbEntity
  8
0
100
AcDbLine
 62
7
  6
CONTINUOUS
 10
-10.3678933968
 20
-28.8600557844
 11
-10.3519546125
 21
-28.8759468191
  0
LINE
  5
46A
100
AcDbEntity
  8
0
100
AcDbLine
 62
7
  6
CONTINUOUS
 10
-10.3660772394
 20
-28.2593709862
 11
-10.350136964
 21
-28.2752649765
  0
LINE
  5
46B
100
AcDbEntity
  8
0
100
AcDbLine
 62
7
  6
CONTINUOUS
 10
-10.6499542122
 20
-27.9500457878
 11
-10.85
 21
-27.75
  0
LINE
  5
46C
100
AcDbEntity
  8
0
100
AcDbLine
 62
253
  6
CONTINUOUS
 10
-9.9463209205
 20
-27.7534963276
 11
-9.749767363
 21
-27.9500457878
  0
LINE
  5
46D
100
AcDbEntity
  8
0
100
AcDbLine
 62
253
  6
CONTINUOUS
 10
-9.6360402013
 20
-27.4641425506
 11
-9.4482180393
 21
-27.651961212
  0
LINE
  5
46E
100
AcDbEntity
  8
0
100
AcDbLine
 62
7
  6
CONTINUOUS
 10
-10.3980987975
 20
-28.2269621187
 11
-10.3660772394
 21
-28.2593709862
  0
LINE
  5
46F
100
AcDbEntity
  8
0
100
AcDbLine
 62
7
  6
CONTINUOUS
 10
-10.3999118828
 20
-28.8276434954
 11
-10.3678933968
 21
-28.8600557844
  0
LINE
  5
470
100
AcDbEntity
  8
0
100
AcDbLine
 62
7
  6
CONTINUOUS
 10
-10.4304201002
 20
-28.1940553929
 11
-10.3980987975
 21
-28.2269621187
  0
LINE
  5
471
100
AcDbEntity
  8
0
100
AcDbLine
 62
7
  6
CONTINUOUS
 10
-10.4322299859
 20
-28.7947202098
 11
-10.3999118828
 21
-28.8276434954
  0
LINE
  5
472
100
AcDbEntity
  8
0
100
AcDbLine
 62
7
  6
CONTINUOUS
 10
-10.4782497705
 20
-28.1447100402
 11
-10.4304201002
 21
-28.1940553929
  0
LINE
  5
473
100
AcDbEntity
  8
0
100
AcDbLine
 62
7
  6
CONTINUOUS
 10
-10.4800547023
 20
-28.7453238453
 11
-10.4322299859
 21
-28.7947202098
  0
LINE
  5
474
100
AcDbEntity
  8
0
100
AcDbLine
 62
7
  6
CONTINUOUS
 10
-10.5239906077
 20
-28.0967001885
 11
-10.4782497705
 21
-28.1447100402
  0
LINE
  5
475
100
AcDbEntity
  8
0
100
AcDbLine
 62
7
  6
CONTINUOUS
 10
-10.525790439
 20
-28.6972298427
 11
-10.4800547023
 21
-28.7453238453
  0
LWPOLYLINE
  5
476
100
AcDbEntity
  8
0
100
AcDbPolyline
 62
7
  6
CONTINUOUS
 90
4
 70
0
 10
-10.5789262893
 20
-28.037442879
 10
-10.5660695886
 20
-28.0515626314
 10
-10.5525096177
 20
-28.0661664706
 10
-10.5239906077
 20
-28.0967001885
  0
LWPOLYLINE
  5
477
100
AcDbEntity
  8
0
100
AcDbPolyline
 62
7
  6
CONTINUOUS
 90
4
 70
0
 10
-10.5807191254
 20
-28.6378051504
 10
-10.5678641835
 20
-28.6519729642
 10
-10.5543059731
 20
-28.6666205811
 10
-10.525790439
 20
-28.6972298427
  0
LINE
  5
478
100
AcDbEntity
  8
0
100
AcDbLine
 62
7
  6
CONTINUOUS
 10
-15.451606
 20
-31.075
 11
-14.753349
 21
-32.180362
  0
LINE
  5
479
100
AcDbEntity
  8
0
100
AcDbLine
 62
7
  6
CONTINUOUS
 10
-14.629616
 20
-31.964017
 11
-15.160454
 21
-31.075
  0
LINE
  5
47A
100
AcDbEntity
  8
0
100
AcDbLine
 62
7
  6
CONTINUOUS
 10
-16.953749
 20
-32.925
 11
-17.623774
 21
-31.075
  0
LINE
  5
47B
100
AcDbEntity
  8
0
100
AcDbLine
 62
7
  6
CONTINUOUS
 10
-17.409883
 20
-32.386533
 11
-17.226948
 21
-32.925
  0
LINE
  5
47C
100
AcDbEntity
  8
0
100
AcDbLine
 62
7
  6
CONTINUOUS
 10
-17.775723
 20
-31.34334
 11
-17.500086
 21
-32.164951
  0
LINE
  5
47D
100
AcDbEntity
  8
0
100
AcDbLine
 62
7
  6
CONTINUOUS
 10
-24.5000000715
 20
-34.4659574628
 11
-24.5374999285
 21
-34.1978723884
  0
LINE
  5
47E
100
AcDbEntity
  8
0
100
AcDbLine
 62
7
  6
CONTINUOUS
 10
-24.1999999285
 20
-34.7340425372
 11
-24.1625000715
 21
-35.0021276653
  0
LINE
  5
47F
100
AcDbEntity
  8
0
100
AcDbLine
 62
7
  6
CONTINUOUS
 10
-21.938797
 20
31.612597
 11
-22.312797
 21
35.612109
  0
LINE
  5
480
100
AcDbEntity
  8
0
100
AcDbLine
 62
7
  6
CONTINUOUS
 10
-22.927031
 20
34.213316
 11
-22.755507
 21
31.612597
  0
LINE
  5
481
100
AcDbEntity
  8
0
100
AcDbLine
 62
7
  6
CONTINUOUS
 10
-24.1999999285
 20
-34.4659574628
 11
-24.1999999285
 21
-34.7340425372
  0
LINE
  5
482
100
AcDbEntity
  8
0
100
AcDbLine
 62
7
  6
CONTINUOUS
 10
-24.0125
 20
-34.5425531983
 11
-24.0125
 21
-34.4659574628
  0
LINE
  5
483
100
AcDbEntity
  8
0
100
AcDbLine
 62
7
  6
CONTINUOUS
 10
-23.988148
 20
-31.075
 11
-23.988148
 21
-32.925
  0
LINE
  5
484
100
AcDbEntity
  8
0
100
AcDbLine
 62
7
  6
CONTINUOUS
 10
-23.9749999285
 20
-34.9638297975
 11
-23.9749999285
 21
-34.8489361942
  0
LINE
  5
485
100
AcDbEntity
  8
0
100
AcDbLine
 62
7
  6
CONTINUOUS
 10
-23.73823
 20
-32.925
 11
-23.73823
 21
-31.075
  0
LINE
  5
486
100
AcDbEntity
  8
0
100
AcDbLine
 62
7
  6
CONTINUOUS
 10
-23.310568
 20
-31.075
 11
-23.310568
 21
-32.925
  0
LINE
  5
487
100
AcDbEntity
  8
0
100
AcDbLine
 62
7
  6
CONTINUOUS
 10
-23.068265
 20
-32.925
 11
-23.068265
 21
-31.422579
  0
LINE
  5
488
100
AcDbEntity
  8
0
100
AcDbLine
 62
7
  6
CONTINUOUS
 10
-23.0375000715
 20
-34.8489361942
 11
-23.0375000715
 21
-34.9638297975
  0
LINE
  5
489
100
AcDbEntity
  8
0
100
AcDbLine
 62
7
  6
CONTINUOUS
 10
-22.8500001431
 20
-35.0021276653
 11
-22.8500001431
 21
-34.8106382728
  0
LINE
  5
48A
100
AcDbEntity
  8
0
100
AcDbLine
 62
7
  6
CONTINUOUS
 10
-22.55
 20
-33.7
 11
-22.55
 21
-34.6957446694
  0
LINE
  5
48B
100
AcDbEntity
  8
0
100
AcDbLine
 62
7
  6
CONTINUOUS
 10
-22.3624998569
 20
-34.5042553306
 11
-22.3624998569
 21
-33.8914893389
  0
LINE
  5
48C
100
AcDbEntity
  8
0
100
AcDbLine
 62
7
  6
CONTINUOUS
 10
-22.083957
 20
-31.075
 11
-22.083957
 21
-32.577726
  0
LINE
  5
48D
100
AcDbEntity
  8
0
100
AcDbLine
 62
7
  6
CONTINUOUS
 10
-21.841774
 20
-32.925
 11
-21.841774
 21
-31.075
  0
LINE
  5
48E
100
AcDbEntity
  8
0
100
AcDbLine
 62
7
  6
CONTINUOUS
 10
-21.3875001431
 20
-34.887234062
 11
-21.3875001431
 21
-34.9638297975
  0
LINE
  5
48F
100
AcDbEntity
  8
0
100
AcDbLine
 62
7
  6
CONTINUOUS
 10
-21.2750001431
 20
-33.8914893389
 11
-21.2750001431
 21
-33.7
  0
LINE
  5
490
100
AcDbEntity
  8
0
100
AcDbLine
 62
7
  6
CONTINUOUS
 10
-21.2
 20
-35.0021276653
 11
-21.2
 21
-34.8489361942
  0
LINE
  5
491
100
AcDbEntity
  8
0
100
AcDbLine
 62
7
  6
CONTINUOUS
 10
-20.8999998569
 20
-34.7340425372
 11
-20.8999998569
 21
-34.9638297975
  0
LINE
  5
492
100
AcDbEntity
  8
0
100
AcDbLine
 62
7
  6
CONTINUOUS
 10
-20.695208
 20
-31.075
 11
-20.695208
 21
-32.925
  0
LINE
  5
493
100
AcDbEntity
  8
0
100
AcDbLine
 62
7
  6
CONTINUOUS
 10
-20.445215
 20
-32.925
 11
-20.445215
 21
-31.075
  0
LINE
  5
494
100
AcDbEntity
  8
0
100
AcDbLine
 62
7
  6
CONTINUOUS
 10
-20.177238
 20
-31.075
 11
-20.177238
 21
-31.296581
  0
LINE
  5
495
100
AcDbEntity
  8
0
100
AcDbLine
 62
7
  6
CONTINUOUS
 10
-19.9999998569
 20
-34.0063829422
 11
-19.9999998569
 21
-34.7340425372
  0
LINE
  5
496
100
AcDbEntity
  8
0
100
AcDbLine
 62
7
  6
CONTINUOUS
 10
-19.9999998569
 20
-34.9638297975
 11
-19.9999998569
 21
-35.5
  0
LINE
  5
497
100
AcDbEntity
  8
0
100
AcDbLine
 62
7
  6
CONTINUOUS
 10
-19.7749998569
 20
-35.5
 11
-19.7749998569
 21
-34.9638297975
  0
LINE
  5
498
100
AcDbEntity
  8
0
100
AcDbLine
 62
7
  6
CONTINUOUS
 10
-19.7749998569
 20
-34.7340425372
 11
-19.7749998569
 21
-33.7
  0
LINE
  5
499
100
AcDbEntity
  8
0
100
AcDbLine
 62
7
  6
CONTINUOUS
 10
-19.551095
 20
-31.296581
 11
-19.551095
 21
-32.925
  0
LINE
  5
49A
100
AcDbEntity
  8
0
100
AcDbLine
 62
7
  6
CONTINUOUS
 10
-19.4
 20
-34.9638297975
 11
-19.4
 21
-34.7340425372
  0
LINE
  5
49B
100
AcDbEntity
  8
0
100
AcDbLine
 62
7
  6
CONTINUOUS
 10
-19.301192
 20
-32.925
 11
-19.301192
 21
-31.296581
  0
LINE
  5
49C
100
AcDbEntity
  8
0
100
AcDbLine
 62
7
  6
CONTINUOUS
 10
-18.67505
 20
-31.296581
 11
-18.67505
 21
-31.075
  0
LINE
  5
49D
100
AcDbEntity
  8
0
100
AcDbLine
 62
7
  6
CONTINUOUS
 10
-18.2732753198
 20
35.5653816085
 11
-18.2732753198
 21
31.6125968881
  0
LINE
  5
49E
100
AcDbEntity
  8
0
100
AcDbLine
 62
7
  6
CONTINUOUS
 10
-24.5374999285
 20
-35.0021276653
 11
-24.5000000715
 21
-34.7340425372
  0
LINE
  5
49F
100
AcDbEntity
  8
0
100
AcDbLine
 62
7
  6
CONTINUOUS
 10
-24.1625000715
 20
-34.1978723884
 11
-24.1999999285
 21
-34.4659574628
  0
LINE
  5
4A0
100
AcDbEntity
  8
0
100
AcDbLine
 62
7
  6
CONTINUOUS
 10
-24.6875
 20
-34.7340425372
 11
-24.7250000715
 21
-34.9638297975
  0
LINE
  5
4A1
100
AcDbEntity
  8
0
100
AcDbLine
 62
7
  6
CONTINUOUS
 10
-24.0125
 20
-34.4659574628
 11
-23.9749999285
 21
-34.2361702561
  0
LINE
  5
4A2
100
AcDbEntity
  8
RACCORDO
100
AcDbLine
 62
7
  6
CONTINUOUS
 10
-11.6214559154
 20
36.5357171432
 11
-11.6049624612
 21
36.5852377442
  0
LINE
  5
4A3
100
AcDbEntity
  8
0
100
AcDbLine
 62
7
  6
CONTINUOUS
 10
-31.184844
 20
-32.925
 11
-30.664426
 21
-31.371239
  0
LINE
  5
4A4
100
AcDbEntity
  8
0
100
AcDbLine
 62
7
  6
CONTINUOUS
 10
-30.77776
 20
-31.075
 11
-31.305984
 21
-32.646609
  0
LWPOLYLINE
  5
4A5
100
AcDbEntity
  8
0
100
AcDbPolyline
 62
7
  6
CONTINUOUS
 90
8
 70
0
 10
-10.647104243
 20
27.2538445846
 10
-10.6448872129
 20
27.2577118521
 10
-10.6411541137
 20
27.2634092012
 10
-10.6359049454
 20
27.270732478
 10
-10.6289781004
 20
27.2794611391
 10
-10.6205351863
 20
27.2894070896
 10
-10.6110610263
 20
27.3004438474
 10
-10.6006079038
 20
27.3124002606
  0
LWPOLYLINE
  5
4A6
100
AcDbEntity
  8
RACCORDO
100
AcDbPolyline
 62
253
  6
CONTINUOUS
 90
3
 70
0
 10
-71.1832192034
 20
-44.4251801998
 10
-71.2402064642
 20
-44.4886975858
 10
-71.2506852323
 20
-44.4999999998
  0
LINE
  5
4A7
100
AcDbEntity
  8
RACCORDO
100
AcDbLine
 62
253
  6
CONTINUOUS
 10
-70.5763499806
 20
-43.7538593588
 11
-71.1832192034
 21
-44.4251801998
  0
LWPOLYLINE
  5
4A8
100
AcDbEntity
  8
RACCORDO
100
AcDbPolyline
 62
253
  6
CONTINUOUS
 90
3
 70
0
 10
-70.3470753866
 20
-43.5000000137
 10
-70.4036177776
 20
-43.5620281671
 10
-70.5763499806
 20
-43.7538593588
  0
LINE
  5
4A9
100
AcDbEntity
  8
RACCORDO
100
AcDbLine
 62
7
  6
CONTINUOUS
 10
10.8311204268
 20
42.9311204268
 11
10.9
 21
43.0
  0
LINE
  5
4AA
100
AcDbEntity
  8
RACCORDO
100
AcDbLine
 62
253
  6
CONTINUOUS
 10
-70.1811204268
 20
-42.7311508878
 11
-70.25
 21
-42.800030461
  0
LINE
  5
4AB
100
AcDbEntity
  8
RACCORDO
100
AcDbLine
 62
253
  6
CONTINUOUS
 10
-69.9811508878
 20
-42.9311204268
 11
-70.050030461
 21
-43.0
  0
LINE
  5
4AC
100
AcDbEntity
  8
0
100
AcDbLine
 62
7
  6
CONTINUOUS
 10
22.146455
 20
33.813362
 11
22.102556
 21
33.790152
  0
LINE
  5
4AD
100
AcDbEntity
  8
0
100
AcDbLine
 62
7
  6
CONTINUOUS
 10
22.319177
 20
33.323471
 11
22.383453
 21
33.356176
  0
LINE
  5
4AE
100
AcDbEntity
  8
0
100
AcDbLine
 62
7
  6
CONTINUOUS
 10
11.6659565568
 20
28.5329757668
 11
11.7046123676
 21
28.5523022003
  0
LINE
  5
4AF
100
AcDbEntity
  8
0
100
AcDbLine
 62
7
  6
CONTINUOUS
 10
22.102556
 20
33.790152
 11
22.056088
 21
33.769204
  0
LINE
  5
4B0
100
AcDbEntity
  8
0
100
AcDbLine
 62
7
  6
CONTINUOUS
 10
22.252327
 20
33.294017
 11
22.319177
 21
33.323471
  0
LINE
  5
4B1
100
AcDbEntity
  8
0
100
AcDbLine
 62
7
  6
CONTINUOUS
 10
22.056088
 20
33.769204
 11
22.007021
 21
33.750623
  0
LINE
  5
4B2
100
AcDbEntity
  8
0
100
AcDbLine
 62
7
  6
CONTINUOUS
 10
22.182955
 20
33.26789
 11
22.252327
 21
33.294017
  0
LINE
  5
4B3
100
AcDbEntity
  8
0
100
AcDbLine
 62
7
  6
CONTINUOUS
 10
-9.6360322241
 20
-26.9465093858
 11
-9.4823803064
 21
-26.9081110346
  0
LINE
  5
4B4
100
AcDbEntity
  8
DRAFT
100
AcDbLine
 62
7
  6
CONTINUOUS
 10
-12.1036116509
 20
-26.8965183637
 11
-12.15
 21
-26.9081110346
  0
LINE
  5
4B5
100
AcDbEntity
  8
0
100
AcDbLine
 62
7
  6
CONTINUOUS
 10
-34.15
 20
-28.5
 11
-34.3479539454
 21
-28.5494696404
  0
LINE
  5
4B6
100
AcDbEntity
  8
0
100
AcDbLine
 62
7
  6
CONTINUOUS
 10
-32.1360322241
 20
-26.9465093858
 11
-31.9823803064
 21
-26.9081110346
  0
LWPOLYLINE
  5
4B7
100
AcDbEntity
  8
0
100
AcDbPolyline
 62
7
  6
CONTINUOUS
 90
7
 70
0
 10
9.3961168464
 20
-24.0240602573
 10
9.408377666
 20
-24.0236704868
 10
9.4186996019
 20
-24.0232630396
 10
9.4269654335
 20
-24.0228445127
 10
9.4331360871
 20
-24.0224171052
 10
9.4372506363
 20
-24.021978618
 10
9.4393090811
 20
-24.0215290512
  0
LWPOLYLINE
  5
4B8
100
AcDbEntity
  8
0
100
AcDbPolyline
 62
7
  6
CONTINUOUS
 90
7
 70
0
 10
-13.1038831456
 20
-24.0240602571
 10
-13.0916223268
 20
-24.0236704866
 10
-13.0813003938
 20
-24.0232630394
 10
-13.0730345647
 20
-24.0228445126
 10
-13.0668639122
 20
-24.0224171051
 10
-13.0627493636
 20
-24.021978618
 10
-13.0606909189
 20
-24.0215290512
  0
LWPOLYLINE
  5
4B9
100
AcDbEntity
  8
0
100
AcDbPolyline
 62
7
  6
CONTINUOUS
 90
7
 70
0
 10
-35.6038831553
 20
-24.0240602574
 10
-35.5916223359
 20
-24.0236704869
 10
-35.5813004005
 20
-24.0232630397
 10
-35.5730345691
 20
-24.0228445129
 10
-35.5668639151
 20
-24.0224171053
 10
-35.562749365
 20
-24.0219786181
 10
-35.5606909189
 20
-24.0215290512
  0
LINE
  5
4BA
100
AcDbEntity
  8
DRAFT
100
AcDbLine
 62
7
  6
CONTINUOUS
 10
-67.2857171432
 20
-23.2785440846
 11
-66.2248138762
 21
-23.2464697332
  0
LINE
  5
4BB
100
AcDbEntity
  8
DRAFT
100
AcDbLine
 62
7
  6
CONTINUOUS
 10
66.95
 20
-19.2
 11
70.25
 21
-19.1135864588
  0
LINE
  5
4BC
100
AcDbEntity
  8
DRAFT
100
AcDbLine
 62
7
  6
CONTINUOUS
 10
66.95
 20
-16.6
 11
70.25
 21
-16.5135864588
  0
LINE
  5
4BD
100
AcDbEntity
  8
0
100
AcDbLine
 62
7
  6
CONTINUOUS
 10
9.3655937807
 20
-24.024789156
 11
9.3961168464
 21
-24.0240602573
  0
LINE
  5
4BE
100
AcDbEntity
  8
0
100
AcDbLine
 62
7
  6
CONTINUOUS
 10
-13.1344062165
 20
-24.0247891559
 11
-13.1038831456
 21
-24.0240602571
  0
LINE
  5
4BF
100
AcDbEntity
  8
0
100
AcDbLine
 62
7
  6
CONTINUOUS
 10
-35.6344062204
 20
-24.024789156
 11
-35.6038831553
 21
-24.0240602574
  0
LINE
  5
4C0
100
AcDbEntity
  8
0
100
AcDbLine
 62
7
  6
CONTINUOUS
 10
9.3284274506
 20
-24.0254156439
 11
9.3655937807
 21
-24.024789156
  0
LINE
  5
4C1
100
AcDbEntity
  8
0
100
AcDbLine
 62
7
  6
CONTINUOUS
 10
-13.171572568
 20
-24.0254156441
 11
-13.1344062165
 21
-24.0247891559
  0
LINE
  5
4C2
100
AcDbEntity
  8
0
100
AcDbLine
 62
7
  6
CONTINUOUS
 10
-35.6715725613
 20
-24.025415644
 11
-35.6344062204
 21
-24.024789156
  0
LINE
  5
4C3
100
AcDbEntity
  8
DRAFT
100
AcDbLine
 62
7
  6
CONTINUOUS
 10
-50.0040797367
 20
-23.230869448
 11
-48.55
 21
-23.2162156883
  0
LINE
  5
4C4
100
AcDbEntity
  8
0
100
AcDbLine
 62
7
  6
CONTINUOUS
 10
9.2628796012
 20
-24.0261230287
 11
9.3284274506
 21
-24.0254156439
  0
LINE
  5
4C5
100
AcDbEntity
  8
0
100
AcDbLine
 62
7
  6
CONTINUOUS
 10
-13.2371204618
 20
-24.0261230292
 11
-13.171572568
 21
-24.0254156441
  0
LINE
  5
4C6
100
AcDbEntity
  8
0
100
AcDbLine
 62
7
  6
CONTINUOUS
 10
-35.73712044
 20
-24.026123029
 11
-35.6715725613
 21
-24.025415644
  0
LINE
  5
4C7
100
AcDbEntity
  8
0
100
AcDbLine
 62
7
  6
CONTINUOUS
 10
31.7149829379
 20
-24.0264180221
 11
31.7856192358
 21
-24.0259228651
  0
LINE
  5
4C8
100
AcDbEntity
  8
0
100
AcDbLine
 62
7
  6
CONTINUOUS
 10
9.1903528842
 20
-24.0265105365
 11
9.2628796012
 21
-24.0261230287
  0
LINE
  5
4C9
100
AcDbEntity
  8
0
100
AcDbLine
 62
7
  6
CONTINUOUS
 10
-13.3096471729
 20
-24.0265105367
 11
-13.2371204618
 21
-24.0261230292
  0
LINE
  5
4CA
100
AcDbEntity
  8
0
100
AcDbLine
 62
7
  6
CONTINUOUS
 10
-35.8096471554
 20
-24.0265105367
 11
-35.73712044
 21
-24.026123029
  0
LINE
  5
4CB
100
AcDbEntity
  8
DRAFT
100
AcDbLine
 62
7
  6
CONTINUOUS
 10
66.2530264092
 20
-24.0526773156
 11
57.2797135406
 21
-24.0626481717
  0
LINE
  5
4CC
100
AcDbEntity
  8
DRAFT
100
AcDbLine
 62
7
  6
CONTINUOUS
 10
-66.2248138762
 20
-23.2464697332
 11
-55.41466508
 21
-23.2348598015
  0
LINE
  5
4CD
100
AcDbEntity
  8
DRAFT
100
AcDbLine
 62
7
  6
CONTINUOUS
 10
57.2797135406
 20
-24.0626481717
 11
50.0936030776
 21
-24.0682283639
  0
LINE
  5
4CE
100
AcDbEntity
  8
DRAFT
100
AcDbLine
 62
7
  6
CONTINUOUS
 10
-55.41466508
 20
-23.2348598015
 11
-50.0040797367
 21
-23.230869448
  0
LINE
  5
4CF
100
AcDbEntity
  8
RACCORDO
100
AcDbLine
 62
7
  6
CONTINUOUS
 10
46.6602842764
 20
-24.1102842764
 11
69.9772340858
 21
-24.1102332408
  0
LINE
  5
4D0
100
AcDbEntity
  8
DRAFT
100
AcDbLine
 62
7
  6
CONTINUOUS
 10
46.6337843117
 20
-24.0837843117
 11
48.55
 21
-24.0837843117
  0
LINE
  5
4D1
100
AcDbEntity
  8
DRAFT
100
AcDbLine
 62
7
  6
CONTINUOUS
 10
-46.6337843117
 20
-24.0837843117
 11
-48.55
 21
-24.0837843117
  0
LINE
  5
4D2
100
AcDbEntity
  8
0
100
AcDbLine
 62
7
  6
CONTINUOUS
 10
-45.739628929
 20
-24.0265867593
 11
-35.8096471554
 21
-24.0265105367
  0
LINE
  5
4D3
100
AcDbEntity
  8
0
100
AcDbLine
 62
7
  6
CONTINUOUS
 10
-34.5968102756
 20
-24.0265867593
 11
-32.9031897244
 21
-24.0265867593
  0
LINE
  5
4D4
100
AcDbEntity
  8
0
100
AcDbLine
 62
7
  6
CONTINUOUS
 10
-12.0968102756
 20
-24.0265867593
 11
-10.4031897244
 21
-24.0265867593
  0
LINE
  5
4D5
100
AcDbEntity
  8
0
100
AcDbLine
 62
7
  6
CONTINUOUS
 10
10.4031897244
 20
-24.0265867593
 11
12.0968102756
 21
-24.0265867593
  0
LINE
  5
4D6
100
AcDbEntity
  8
0
100
AcDbLine
 62
7
  6
CONTINUOUS
 10
13.360534333
 20
-24.0265867593
 11
31.7149829379
 21
-24.0264180221
  0
LINE
  5
4D7
100
AcDbEntity
  8
0
100
AcDbLine
 62
7
  6
CONTINUOUS
 10
32.9031897244
 20
-24.0265867593
 11
34.5968102756
 21
-24.0265867593
  0
LINE
  5
4D8
100
AcDbEntity
  8
RACCORDO
100
AcDbLine
 62
7
  6
CONTINUOUS
 10
70.25
 20
-24.0
 11
67.6348266046
 21
-24.0
  0
LINE
  5
4D9
100
AcDbEntity
  8
0
100
AcDbLine
 62
7
  6
CONTINUOUS
 10
-45.7662156883
 20
-24.0
 11
-35.5176196936
 21
-24.0
  0
LINE
  5
4DA
100
AcDbEntity
  8
0
100
AcDbLine
 62
7
  6
CONTINUOUS
 10
-34.65
 20
-24.0
 11
-32.85
 21
-24.0
  0
LINE
  5
4DB
100
AcDbEntity
  8
0
100
AcDbLine
 62
7
  6
CONTINUOUS
 10
-31.9823803064
 20
-24.0
 11
-13.0176196936
 21
-24.0
  0
LINE
  5
4DC
100
AcDbEntity
  8
0
100
AcDbLine
 62
7
  6
CONTINUOUS
 10
-12.15
 20
-24.0
 11
-10.35
 21
-24.0
  0
LINE
  5
4DD
100
AcDbEntity
  8
0
100
AcDbLine
 62
7
  6
CONTINUOUS
 10
-9.4823803064
 20
-24.0
 11
9.4823803064
 21
-24.0
  0
LINE
  5
4DE
100
AcDbEntity
  8
0
100
AcDbLine
 62
7
  6
CONTINUOUS
 10
10.35
 20
-24.0
 11
12.15
 21
-24.0
  0
LINE
  5
4DF
100
AcDbEntity
  8
0
100
AcDbLine
 62
7
  6
CONTINUOUS
 10
13.0176196936
 20
-24.0
 11
31.9823803064
 21
-24.0
  0
LINE
  5
4E0
100
AcDbEntity
  8
0
100
AcDbLine
 62
7
  6
CONTINUOUS
 10
32.85
 20
-24.0
 11
34.65
 21
-24.0
  0
LINE
  5
4E1
100
AcDbEntity
  8
0
100
AcDbLine
 62
7
  6
CONTINUOUS
 10
35.5176196936
 20
-24.0
 11
45.7662156883
 21
-24.0
  0
LINE
  5
4E2
100
AcDbEntity
  8
RACCORDO
100
AcDbLine
 62
7
  6
CONTINUOUS
 10
-67.6348266046
 20
-24.0
 11
-70.25
 21
-24.0
  0
LINE
  5
4E3
100
AcDbEntity
  8
RACCORDO
100
AcDbLine
 62
7
  6
CONTINUOUS
 10
-70.25
 20
-23.3
 11
-67.6348266046
 21
-23.3
  0
LINE
  5
4E4
100
AcDbEntity
  8
RACCORDO
100
AcDbLine
 62
7
  6
CONTINUOUS
 10
67.6348266046
 20
-23.3
 11
70.25
 21
-23.3
  0
LINE
  5
4E5
100
AcDbEntity
  8
DRAFT
100
AcDbLine
 62
7
  6
CONTINUOUS
 10
46.6337843117
 20
-23.2162156883
 11
48.55
 21
-23.2162156883
  0
LINE
  5
4E6
100
AcDbEntity
  8
DRAFT
100
AcDbLine
 62
7
  6
CONTINUOUS
 10
-46.6337843117
 20
-23.2162156883
 11
-48.55
 21
-23.2162156883
  0
LINE
  5
4E7
100
AcDbEntity
  8
DRAFT
100
AcDbLine
 62
7
  6
CONTINUOUS
 10
-70.1388009746
 20
-23.1888009746
 11
-46.6611990254
 21
-23.1888009746
  0
LINE
  5
4E8
100
AcDbEntity
  8
DRAFT
100
AcDbLine
 62
7
  6
CONTINUOUS
 10
46.6611990254
 20
-23.1888009746
 11
70.1388009746
 21
-23.1888009746
  0
LINE
  5
4E9
100
AcDbEntity
  8
DRAFT
100
AcDbLine
 62
253
  6
CONTINUOUS
 10
70.1382521295
 20
-22.5871086096
 11
46.6617478705
 21
-22.5871086096
  0
LINE
  5
4EA
100
AcDbEntity
  8
DRAFT
100
AcDbLine
 62
253
  6
CONTINUOUS
 10
-46.6617478705
 20
-22.5871086096
 11
-70.1382521295
 21
-22.5871086096
  0
LINE
  5
4EB
100
AcDbEntity
  8
0
100
AcDbLine
 62
7
  6
CONTINUOUS
 10
-44.3010963722
 20
-22.5
 11
44.3010963722
 21
-22.5
  0
LINE
  5
4EC
100
AcDbEntity
  8
DRAFT
100
AcDbLine
 62
7
  6
CONTINUOUS
 10
-70.25
 20
-20.0
 11
-67.6569219382
 21
-20.0
  0
LINE
  5
4ED
100
AcDbEntity
  8
0
100
AcDbLine
 62
7
  6
CONTINUOUS
 10
67.6569219382
 20
-20.0
 11
66.95
 21
-20.0
  0
LINE
  5
4EE
100
AcDbEntity
  8
DRAFT
100
AcDbLine
 62
7
  6
CONTINUOUS
 10
67.6569219382
 20
-20.0
 11
70.25
 21
-20.0
  0
LINE
  5
4EF
100
AcDbEntity
  8
0
100
AcDbLine
 62
7
  6
CONTINUOUS
 10
-66.95
 20
-20.0
 11
-67.6569219382
 21
-20.0
  0
LINE
  5
4F0
100
AcDbEntity
  8
0
100
AcDbLine
 62
7
  6
CONTINUOUS
 10
45.1
 20
-19.0
 11
46.1340127341
 21
-19.0
  0
LINE
  5
4F1
100
AcDbEntity
  8
0
100
AcDbLine
 62
7
  6
CONTINUOUS
 10
-45.1
 20
-19.0
 11
-46.6337843117
 21
-19.0
  0
LINE
  5
4F2
100
AcDbEntity
  8
0
100
AcDbLine
 62
7
  6
CONTINUOUS
 10
-46.6250567792
 20
-18.9825396153
 11
-45.1043634339
 21
-18.9825396153
  0
LINE
  5
4F3
100
AcDbEntity
  8
0
100
AcDbLine
 62
253
  6
CONTINUOUS
 10
45.1272055718
 20
-18.8911362559
 11
46.0795974464
 21
-18.8911362559
  0
LINE
  5
4F4
100
AcDbEntity
  8
0
100
AcDbLine
 62
253
  6
CONTINUOUS
 10
45.131416724
 20
-18.3914408424
 11
46.5795212939
 21
-18.3914408424
  0
LINE
  5
4F5
100
AcDbEntity
  8
0
100
AcDbLine
 62
7
  6
CONTINUOUS
 10
-31.665180421
 20
-24.0265667824
 11
-13.3096471729
 21
-24.0265105367
  0
LINE
  5
4F6
100
AcDbEntity
  8
0
100
AcDbLine
 62
7
  6
CONTINUOUS
 10
-9.1651804091
 20
-24.0265667825
 11
9.1903528842
 21
-24.0265105365
  0
LINE
  5
4F7
100
AcDbEntity
  8
DRAFT
100
AcDbLine
 62
7
  6
CONTINUOUS
 10
-66.2530264092
 20
-24.0526773156
 11
-50.0936030776
 21
-24.0682283639
  0
LINE
  5
4F8
100
AcDbEntity
  8
DRAFT
100
AcDbLine
 62
7
  6
CONTINUOUS
 10
66.2248138762
 20
-23.2464697332
 11
50.0040797367
 21
-23.230869448
  0
LINE
  5
4F9
100
AcDbEntity
  8
RACCORDO
100
AcDbLine
 62
7
  6
CONTINUOUS
 10
-69.9772340811
 20
-24.1102332405
 11
-46.6602842764
 21
-24.1102842764
  0
LINE
  5
4FA
100
AcDbEntity
  8
0
100
AcDbLine
 62
7
  6
CONTINUOUS
 10
13.2850170134
 20
-24.0264180219
 11
13.360534333
 21
-24.0265867593
  0
LINE
  5
4FB
100
AcDbEntity
  8
0
100
AcDbLine
 62
7
  6
CONTINUOUS
 10
35.785017062
 20
-24.0264180221
 11
45.739628929
 21
-24.0265867593
  0
LINE
  5
4FC
100
AcDbEntity
  8
0
100
AcDbLine
 62
7
  6
CONTINUOUS
 10
-31.7392024142
 20
-24.02628866
 11
-31.665180421
 21
-24.0265667824
  0
LINE
  5
4FD
100
AcDbEntity
  8
0
100
AcDbLine
 62
7
  6
CONTINUOUS
 10
-9.2392023869
 20
-24.0262886601
 11
-9.1651804091
 21
-24.0265667825
  0
LINE
  5
4FE
100
AcDbEntity
  8
0
100
AcDbLine
 62
7
  6
CONTINUOUS
 10
-31.7856192359
 20
-24.0259228651
 11
-31.7392024142
 21
-24.02628866
  0
LINE
  5
4FF
100
AcDbEntity
  8
0
100
AcDbLine
 62
7
  6
CONTINUOUS
 10
13.2143807317
 20
-24.0259228648
 11
13.2850170134
 21
-24.0264180219
  0
LINE
  5
500
100
AcDbEntity
  8
0
100
AcDbLine
 62
7
  6
CONTINUOUS
 10
35.7143807641
 20
-24.0259228651
 11
35.785017062
 21
-24.0264180221
  0
LINE
  5
501
100
AcDbEntity
  8
DRAFT
100
AcDbLine
 62
7
  6
CONTINUOUS
 10
50.0040797367
 20
-23.230869448
 11
48.55
 21
-23.2162156883
  0
LINE
  5
502
100
AcDbEntity
  8
0
100
AcDbLine
 62
7
  6
CONTINUOUS
 10
-9.3074920566
 20
-24.0256865212
 11
-9.2392023869
 21
-24.0262886601
  0
LINE
  5
503
100
AcDbEntity
  8
0
100
AcDbLine
 62
7
  6
CONTINUOUS
 10
13.1715725493
 20
-24.0254156439
 11
13.2143807317
 21
-24.0259228648
  0
LINE
  5
504
100
AcDbEntity
  8
0
100
AcDbLine
 62
7
  6
CONTINUOUS
 10
35.6715725611
 20
-24.025415644
 11
35.7143807641
 21
-24.0259228651
  0
LINE
  5
505
100
AcDbEntity
  8
0
100
AcDbLine
 62
7
  6
CONTINUOUS
 10
-9.3478183016
 20
-24.0251169114
 11
-9.3074920566
 21
-24.0256865212
  0
LINE
  5
506
100
AcDbEntity
  8
0
100
AcDbLine
 62
7
  6
CONTINUOUS
 10
13.1344062192
 20
-24.024789156
 11
13.1715725493
 21
-24.0254156439
  0
LINE
  5
507
100
AcDbEntity
  8
0
100
AcDbLine
 62
7
  6
CONTINUOUS
 10
35.6344062202
 20
-24.024789156
 11
35.6715725611
 21
-24.025415644
  0
LINE
  5
508
100
AcDbEntity
  8
DRAFT
100
AcDbLine
 62
7
  6
CONTINUOUS
 10
-66.95
 20
-19.2
 11
-70.25
 21
-19.1135864588
  0
LINE
  5
509
100
AcDbEntity
  8
DRAFT
100
AcDbLine
 62
7
  6
CONTINUOUS
 10
-66.95
 20
-16.6
 11
-70.25
 21
-16.5135864588
  0
LINE
  5
50A
100
AcDbEntity
  8
DRAFT
100
AcDbLine
 62
7
  6
CONTINUOUS
 10
67.2857171432
 20
-23.2785440846
 11
66.2248138762
 21
-23.2464697332
  0
LWPOLYLINE
  5
50B
100
AcDbEntity
  8
0
100
AcDbPolyline
 62
7
  6
CONTINUOUS
 90
8
 70
0
 10
13.0606909189
 20
-24.0215290512
 10
13.0627493637
 20
-24.021978618
 10
13.0668639129
 20
-24.0224171052
 10
13.0730345665
 20
-24.0228445127
 10
13.081300398
 20
-24.0232630396
 10
13.0916223339
 20
-24.0236704868
 10
13.1038831535
 20
-24.0240602573
 10
13.1344062192
 20
-24.024789156
  0
LINE
  5
50C
100
AcDbEntity
  8
0
100
AcDbLine
 62
7
  6
CONTINUOUS
 10
9.6360402013
 20
-26.2465113794
 11
9.4823803064
 21
-26.2081110346
  0
LINE
  5
50D
100
AcDbEntity
  8
DRAFT
100
AcDbLine
 62
7
  6
CONTINUOUS
 10
12.1017905027
 20
-26.19606325
 11
12.15
 21
-26.2081110346
  0
LINE
  5
50E
100
AcDbEntity
  8
0
100
AcDbLine
 62
7
  6
CONTINUOUS
 10
34.15
 20
-28.5
 11
34.3479539454
 21
-28.5494696404
  0
LINE
  5
50F
100
AcDbEntity
  8
0
100
AcDbLine
 62
7
  6
CONTINUOUS
 10
32.1360402013
 20
-26.9465113794
 11
31.9823803064
 21
-26.9081110346
  0
LWPOLYLINE
  5
510
100
AcDbEntity
  8
RACCORDO
100
AcDbPolyline
 62
7
  6
CONTINUOUS
 90
10
 70
0
 10
-70.1317502263
 20
-0.4682497737
 10
-70.1306851449
 20
-0.4685506183
 10
-70.1282128784
 20
-0.4688448947
 10
-70.1243334268
 20
-0.469132603
 10
-70.1190301722
 20
-0.4694152992
 10
-70.1123197326
 20
-0.4696914273
 10
-70.104251962
 20
-0.4699563186
 10
-70.0947489931
 20
-0.4702110264
 10
-70.0838886933
 20
-0.4704544974
 10
-70.0588916704
 20
-0.4708832347
  0
LWPOLYLINE
  5
511
100
AcDbEntity
  8
0
100
AcDbPolyline
 62
7
  6
CONTINUOUS
 90
10
 70
0
 10
11.8479539454
 20
-28.5494696404
 10
11.8480861449
 20
-28.5495265891
 10
11.8482182667
 20
-28.5496312377
 10
11.8483503106
 20
-28.5497835863
 10
11.8484822944
 20
-28.5499836642
 10
11.8486142004
 20
-28.550231442
 10
11.848745976
 20
-28.5505268316
 10
11.8488776034
 20
-28.5508698034
 10
11.8490091004
 20
-28.5512603868
 10
11.8491404669
 20
-28.5516985819
  0
LINE
  5
512
100
AcDbEntity
  8
0
100
AcDbLine
 62
7
  6
CONTINUOUS
 10
11.6659565568
 20
-28.5329757668
 11
11.6989468165
 21
-28.5494696404
  0
LINE
  5
513
100
AcDbEntity
  8
RACCORDO
100
AcDbLine
 62
7
  6
CONTINUOUS
 10
10.8311204268
 20
-42.9311204268
 11
10.9
 21
-43.0
  0
LINE
  5
514
100
AcDbEntity
  8
RACCORDO
100
AcDbLine
 62
253
  6
CONTINUOUS
 10
-70.1811204268
 20
42.7311508878
 11
-70.25
 21
42.800030461
  0
LINE
  5
515
100
AcDbEntity
  8
RACCORDO
100
AcDbLine
 62
253
  6
CONTINUOUS
 10
-69.9811508878
 20
42.9311204268
 11
-70.050030461
 21
43.0
  0
LINE
  5
516
100
AcDbEntity
  8
RACCORDO
100
AcDbLine
 62
253
  6
CONTINUOUS
 10
-71.0018378099
 20
44.2246076943
 11
-70.9522200373
 21
44.1704252191
  0
LINE
  5
517
100
AcDbEntity
  8
RACCORDO
100
AcDbLine
 62
253
  6
CONTINUOUS
 10
-70.4014681483
 20
43.559722946
 11
-70.3470753753
 21
43.5000000005
  0
LINE
  5
518
100
AcDbEntity
  8
RACCORDO
100
AcDbLine
 62
253
  6
CONTINUOUS
 10
-71.2506852314
 20
44.4999999992
 11
-71.0018378099
 21
44.2246076943
  0
LINE
  5
519
100
AcDbEntity
  8
RACCORDO
100
AcDbLine
 62
253
  6
CONTINUOUS
 10
-70.9522200373
 20
44.1704252191
 11
-70.4014681483
 21
43.559722946
  0
LWPOLYLINE
  5
51A
100
AcDbEntity
  8
0
100
AcDbPolyline
 62
7
  6
CONTINUOUS
 90
9
 70
0
 10
-10.6490796797
 20
-27.9519724288
 10
-10.6468635194
 20
-27.9559431926
 10
-10.643131532
 20
-27.9617392909
 10
-10.6378837172
 20
-27.9691561609
 10
-10.6309585258
 20
-27.9779728168
 10
-10.6225175071
 20
-27.9880011311
 10
-10.6130453093
 20
-27.999114917
 10
-10.6025941787
 20
-28.0111428961
 10
-10.5789262893
 20
-28.037442879
  0
LWPOLYLINE
  5
51B
100
AcDbEntity
  8
0
100
AcDbPolyline
 62
7
  6
CONTINUOUS
 90
9
 70
0
 10
-10.6508596262
 20
-28.5516983052
 10
-10.648644224
 20
-28.5557579317
 10
-10.6449132006
 20
-28.5616387915
 10
-10.6396665558
 20
-28.5691359728
 10
-10.6327427902
 20
-28.5780281126
 10
-10.6243034034
 20
-28.5881270581
 10
-10.6148328936
 20
-28.5993068767
 10
-10.6043834757
 20
-28.6113961839
 10
-10.5807191254
 20
-28.6378051504
  0
LINE
  5
51C
100
AcDbEntity
  8
RACCORDO
100
AcDbLine
 62
7
  6
CONTINUOUS
 10
-11.6214559154
 20
-36.5357171432
 11
-11.6049624612
 21
-36.5852377442
  0
LINE
  5
51D
100
AcDbEntity
  8
0
100
AcDbLine
 62
7
  6
CONTINUOUS
 10
-30.878338
 20
35.612109
 11
-29.610415
 21
31.612597
  0
LINE
  5
51E
100
AcDbEntity
  8
0
100
AcDbLine
 62
7
  6
CONTINUOUS
 10
-29.209048
 20
32.859121
 11
-29.971428
 21
35.612109
  0
LWPOLYLINE
  5
51F
100
AcDbEntity
  8
0
100
AcDbPolyline
 62
253
  6
CONTINUOUS
 90
25
 70
0
 10
-13.0517819335
 20
-27.6519684582
 10
-13.0510491946
 20
-27.6715255789
 10
-13.0490318281
 20
-27.6909906653
 10
-13.0457392418
 20
-27.7102801042
 10
-13.0411866725
 20
-27.7293081351
 10
-13.0353942838
 20
-27.7479963183
 10
-13.0283853362
 20
-27.7662733558
 10
-13.0201867542
 20
-27.7840648125
 10
-13.0108344027
 20
-27.8012893807
 10
-13.0003721057
 20
-27.8178686011
 10
-12.9888461538
 20
-27.8337298102
 10
-12.9763050037
 20
-27.8488069811
 10
-12.9628035562
 20
-27.8630368513
 10
-12.9483995595
 20
-27.8763587725
 10
-12.9331547925
 20
-27.8887157802
 10
-12.9171359502
 20
-27.9000560822
 10
-12.9004098457
 20
-27.9103325187
 10
-12.8830495565
 20
-27.9195002368
 10
-12.8651362466
 20
-27.9275189703
 10
-12.8467580162
 20
-27.9343523238
 10
-12.8279829047
 20
-27.9399779004
 10
-12.808863708
 20
-27.944379851
 10
-12.7894715722
 20
-27.94753717
 10
-12.7698974686
 20
-27.9494297938
 10
-12.750224586
 20
-27.9500457817
  0
LWPOLYLINE
  5
520
100
AcDbEntity
  8
0
100
AcDbPolyline
 62
253
  6
CONTINUOUS
 90
25
 70
0
 10
-13.3515991994
 20
-27.6762830578
 10
-13.3501489435
 20
-27.7157959962
 10
-13.3461906404
 20
-27.7547946328
 10
-13.3397242899
 20
-27.793278995
 10
-13.3307024104
 20
-27.8314029679
 10
-13.3191724835
 20
-27.8690127152
 10
-13.3052769543
 20
-27.9056467072
 10
-13.2889825089
 20
-27.9413015746
 10
-13.2703224611
 20
-27.9759807893
 10
-13.2495391981
 20
-28.0092331318
 10
-13.2266069688
 20
-28.0410364538
 10
-13.2015515242
 20
-28.0714130422
 10
-13.1746925043
 20
-28.0999783663
 10
-13.146006959
 20
-28.1267096689
 10
-13.1155178384
 20
-28.1516298589
 10
-13.0836136321
 20
-28.1744229283
 10
-13.0502712169
 20
-28.1950628795
 10
-13.0155137159
 20
-28.2135758513
 10
-12.9797989894
 20
-28.2297240487
 10
-12.9431350675
 20
-28.2434732454
 10
-12.9055139199
 20
-28.2548577767
 10
-12.8673693164
 20
-28.2637426858
 10
-12.8288458468
 20
-28.2700830077
 10
-12.7897989212
 20
-28.2739237663
 10
-12.7502285397
 20
-28.2752649765
  0
LINE
  5
521
100
AcDbEntity
  8
DRAFT
100
AcDbLine
 62
7
  6
CONTINUOUS
 10
-11.6214559154
 20
-36.5357171432
 11
-11.6526505322
 21
-35.5039123057
  0
LINE
  5
522
100
AcDbEntity
  8
0
100
AcDbLine
 62
253
  6
CONTINUOUS
 10
-12.1490342581
 20
-28.5523022003
 11
-12.149863036
 21
-28.2752649765
  0
LINE
  5
523
100
AcDbEntity
  8
0
100
AcDbLine
 62
253
  6
CONTINUOUS
 10
-11.8491462271
 20
-28.5497675973
 11
-11.8509203203
 21
-27.9519724288
  0
LINE
  5
524
100
AcDbEntity
  8
0
100
AcDbLine
 62
253
  6
CONTINUOUS
 10
-13.360534333
 20
-24.0265867593
 11
-13.3515991994
 21
-27.6762830578
  0
LINE
  5
525
100
AcDbEntity
  8
0
100
AcDbLine
 62
253
  6
CONTINUOUS
 10
-13.0606909189
 20
-24.0215290512
 11
-13.0517819411
 21
-27.6519684658
  0
LINE
  5
526
100
AcDbEntity
  8
0
100
AcDbLine
 62
7
  6
CONTINUOUS
 10
-17.4694619483
 20
33.8328085387
 11
-17.4694619483
 21
34.9307526417
  0
LINE
  5
527
100
AcDbEntity
  8
0
100
AcDbLine
 62
7
  6
CONTINUOUS
 10
-17.4417794088
 20
31.6125968881
 11
-17.4417794088
 21
33.1777850682
  0
LINE
  5
528
100
AcDbEntity
  8
0
100
AcDbLine
 62
7
  6
CONTINUOUS
 10
-16.724538
 20
-31.075
 11
-16.724538
 21
-32.925
  0
LINE
  5
529
100
AcDbEntity
  8
0
100
AcDbLine
 62
7
  6
CONTINUOUS
 10
-16.47453
 20
-32.703419
 11
-16.47453
 21
-31.075
  0
LINE
  5
52A
100
AcDbEntity
  8
0
100
AcDbLine
 62
7
  6
CONTINUOUS
 10
-16.1269037691
 20
33.4795337467
 11
-16.1269037691
 21
33.5031673774
  0
LINE
  5
52B
100
AcDbEntity
  8
0
100
AcDbLine
 62
7
  6
CONTINUOUS
 10
-15.536588
 20
-32.925
 11
-15.536588
 21
-32.703419
  0
LINE
  5
52C
100
AcDbEntity
  8
0
100
AcDbLine
 62
7
  6
CONTINUOUS
 10
-14.753349
 20
-32.180362
 11
-14.753349
 21
-32.925
  0
LINE
  5
52D
100
AcDbEntity
  8
0
100
AcDbLine
 62
7
  6
CONTINUOUS
 10
-14.50349
 20
-32.925
 11
-14.50349
 21
-32.180362
  0
LINE
  5
52E
100
AcDbEntity
  8
0
100
AcDbLine
 62
7
  6
CONTINUOUS
 10
-13.0176196936
 20
26.2081110346
 11
-13.0176196936
 21
24.0
  0
LINE
  5
52F
100
AcDbEntity
  8
0
100
AcDbLine
 62
7
  6
CONTINUOUS
 10
-13.0176196936
 20
-24.0
 11
-13.0176196936
 21
-26.9081110346
  0
LINE
  5
530
100
AcDbEntity
  8
0
100
AcDbLine
 62
7
  6
CONTINUOUS
 10
-12.8639597987
 20
26.7641425506
 11
-12.8639597987
 21
26.2465113794
  0
LINE
  5
531
100
AcDbEntity
  8
0
100
AcDbLine
 62
7
  6
CONTINUOUS
 10
-12.8639597987
 20
-26.9465113794
 11
-12.8639597987
 21
-27.4641425506
  0
LINE
  5
532
100
AcDbEntity
  8
0
100
AcDbLine
 62
253
  6
CONTINUOUS
 10
-12.7522478765
 20
27.5760193457
 11
-12.7522478765
 21
27.2520651246
  0
LINE
  5
533
100
AcDbEntity
  8
0
100
AcDbLine
 62
253
  6
CONTINUOUS
 10
-12.7502285397
 20
-28.2752649765
 11
-12.7502285397
 21
-27.9500457878
  0
LINE
  5
534
100
AcDbEntity
  8
0
100
AcDbLine
 62
7
  6
CONTINUOUS
 10
-12.45
 20
27.05
 11
-12.45
 21
26.65
  0
LINE
  5
535
100
AcDbEntity
  8
0
100
AcDbLine
 62
7
  6
CONTINUOUS
 10
-12.45
 20
-27.35
 11
-12.45
 21
-27.75
  0
LINE
  5
536
100
AcDbEntity
  8
0
100
AcDbLine
 62
7
  6
CONTINUOUS
 10
-12.15
 20
-26.9081110346
 11
-12.15
 21
-24.0
  0
LINE
  5
537
100
AcDbEntity
  8
0
100
AcDbLine
 62
7
  6
CONTINUOUS
 10
-12.15
 20
24.0
 11
-12.15
 21
26.2081110346
  0
LINE
  5
538
100
AcDbEntity
  8
0
100
AcDbLine
 62
253
  6
CONTINUOUS
 10
-13.3535298682
 20
26.9769485984
 11
-13.360534333
 21
24.0265867593
  0
LINE
  5
539
100
AcDbEntity
  8
0
100
AcDbLine
 62
253
  6
CONTINUOUS
 10
-13.0537126293
 20
26.9538918416
 11
-13.0606909189
 21
24.0215290512
  0
LINE
  5
53A
100
AcDbEntity
  8
0
100
AcDbLine
 62
253
  6
CONTINUOUS
 10
-12.1518823727
 20
27.5760193457
 11
-12.1480453875
 21
28.8759468191
  0
LINE
  5
53B
100
AcDbEntity
  8
0
100
AcDbLine
 62
253
  6
CONTINUOUS
 10
-11.852895757
 20
27.2538445846
 11
-11.8491404669
 21
28.5516985819
  0
LWPOLYLINE
  5
53C
100
AcDbEntity
  8
0
100
AcDbPolyline
 62
7
  6
CONTINUOUS
 90
25
 70
0
 10
-16.343829987
 20
34.4539827314
 10
-16.3442310309
 20
34.4059632705
 10
-16.3468689269
 20
34.3600552888
 10
-16.351743675
 20
34.3162590069
 10
-16.3588418544
 20
34.2746698179
 10
-16.3681768859
 20
34.2351927427
 10
-16.3797890319
 20
34.1975424027
 10
-16.3937216394
 20
34.1616806723
 10
-16.4099313615
 20
34.1276459765
 10
-16.4283284195
 20
34.0952677122
 10
-16.4488380918
 20
34.0644528871
 10
-16.4715351
 20
34.0352947224
 10
-16.4965538308
 20
34.0079019206
 10
-16.5238574663
 20
33.9822430854
 10
-16.5534828244
 20
33.9583498188
 10
-16.585674745
 20
33.9364253279
 10
-16.6205417519
 20
33.9164956527
 10
-16.6579753214
 20
33.8985349347
 10
-16.6978947216
 20
33.8826685354
 10
-16.7401656931
 20
33.8688974111
 10
-16.7849224954
 20
33.857220741
 10
-16.8324871755
 20
33.8477612147
 10
-16.8829670826
 20
33.8405597567
 10
-16.9362548675
 20
33.8355755234
 10
-16.9923505304
 20
33.8328085387
  0
LINE
  5
53D
100
AcDbEntity
  8
DRAFT
100
AcDbLine
 62
7
  6
CONTINUOUS
 10
-11.6214559154
 20
36.5357171432
 11
-11.6526505322
 21
35.5039123057
  0
LINE
  5
53E
100
AcDbEntity
  8
0
100
AcDbLine
 62
7
  6
CONTINUOUS
 10
-25.6625000358
 20
-34.2361702561
 11
-25.6249999642
 21
-34.1212765455
  0
LINE
  5
53F
100
AcDbEntity
  8
0
100
AcDbLine
 62
7
  6
CONTINUOUS
 10
-24.7250000715
 20
-34.3127659917
 11
-24.7624999285
 21
-34.427659595
  0
LINE
  5
540
100
AcDbEntity
  8
0
100
AcDbLine
 62
7
  6
CONTINUOUS
 10
-24.7250000715
 20
-34.9638297975
 11
-24.7624999285
 21
-35.0787234008
  0
LINE
  5
541
100
AcDbEntity
  8
0
100
AcDbLine
 62
7
  6
CONTINUOUS
 10
-23.9749999285
 20
-34.2361702561
 11
-23.9375000715
 21
-34.1212765455
  0
LINE
  5
542
100
AcDbEntity
  8
0
100
AcDbLine
 62
7
  6
CONTINUOUS
 10
-23.9749999285
 20
-34.8489361942
 11
-23.9375000715
 21
-34.7340425372
  0
LINE
  5
543
100
AcDbEntity
  8
0
100
AcDbLine
 62
7
  6
CONTINUOUS
 10
-29.942904
 20
-32.925
 11
-29.74963
 21
-32.386533
  0
LINE
  5
544
100
AcDbEntity
  8
0
100
AcDbLine
 62
7
  6
CONTINUOUS
 10
-29.672308
 20
-32.164951
 11
-29.373331
 21
-31.34334
  0
LINE
  5
545
100
AcDbEntity
  8
0
100
AcDbLine
 62
7
  6
CONTINUOUS
 10
-29.504888
 20
-31.075
 11
-30.200542
 21
-32.925
  0
LWPOLYLINE
  5
546
100
AcDbEntity
  8
0
100
AcDbPolyline
 62
7
  6
CONTINUOUS
 90
8
 70
0
 10
-34.3491403738
 20
-28.5516983052
 10
-34.351355776
 20
-28.5557579317
 10
-34.3550867994
 20
-28.5616387915
 10
-34.3603334442
 20
-28.5691359728
 10
-34.3672572098
 20
-28.5780281126
 10
-34.3756965966
 20
-28.5881270581
 10
-34.3851671063
 20
-28.5993068767
 10
-34.3956165243
 20
-28.6113961839
  0
LWPOLYLINE
  5
547
100
AcDbEntity
  8
0
100
AcDbPolyline
 62
7
  6
CONTINUOUS
 90
8
 70
0
 10
-34.3509203203
 20
-27.9519724288
 10
-34.3531364806
 20
-27.9559431926
 10
-34.356868468
 20
-27.9617392909
 10
-34.3621162828
 20
-27.9691561609
 10
-34.3690414742
 20
-27.9779728168
 10
-34.3774824929
 20
-27.9880011311
 10
-34.3869546907
 20
-27.999114917
 10
-34.3974058213
 20
-28.0111428961
  0
LINE
  5
548
100
AcDbEntity
  8
DRAFT
100
AcDbLine
 62
7
  6
CONTINUOUS
 10
-46.6337843117
 20
-24.0837843117
 11
-46.6602842764
 21
-24.1102842764
  0
LINE
  5
549
100
AcDbEntity
  8
0
100
AcDbLine
 62
7
  6
CONTINUOUS
 10
10.05
 20
27.35
 11
9.6358036464
 21
26.9465093858
  0
LINE
  5
54A
100
AcDbEntity
  8
RACCORDO
100
AcDbLine
 62
253
  6
CONTINUOUS
 10
-71.7386975864
 20
-43.9902064297
 11
-71.7499999997
 21
-44.0006852321
  0
LINE
  5
54B
100
AcDbEntity
  8
RACCORDO
100
AcDbLine
 62
253
  6
CONTINUOUS
 10
-70.7500000323
 20
-43.0970754028
 11
-70.8120282171
 21
-43.1536176709
  0
LINE
  5
54C
100
AcDbEntity
  8
RACCORDO
100
AcDbLine
 62
253
  6
CONTINUOUS
 10
-70.8120282171
 20
-43.1536176709
 11
-71.7386975864
 21
-43.9902064297
  0
LINE
  5
54D
100
AcDbEntity
  8
0
100
AcDbLine
 62
7
  6
CONTINUOUS
 10
22.262906
 20
33.89558
 11
22.226621
 21
33.866166
  0
LINE
  5
54E
100
AcDbEntity
  8
0
100
AcDbLine
 62
7
  6
CONTINUOUS
 10
22.504011
 20
33.431033
 11
22.560145
 21
33.473018
  0
LINE
  5
54F
100
AcDbEntity
  8
0
100
AcDbLine
 62
7
  6
CONTINUOUS
 10
22.226621
 20
33.866166
 11
22.187803
 21
33.83873
  0
LINE
  5
550
100
AcDbEntity
  8
0
100
AcDbLine
 62
7
  6
CONTINUOUS
 10
22.445091
 20
33.392058
 11
22.504011
 21
33.431033
  0
LINE
  5
551
100
AcDbEntity
  8
0
100
AcDbLine
 62
7
  6
CONTINUOUS
 10
22.187803
 20
33.83873
 11
22.146455
 21
33.813362
  0
LINE
  5
552
100
AcDbEntity
  8
0
100
AcDbLine
 62
7
  6
CONTINUOUS
 10
22.383453
 20
33.356176
 11
22.445091
 21
33.392058
  0
LINE
  5
553
100
AcDbEntity
  8
0
100
AcDbLine
 62
7
  6
CONTINUOUS
 10
10.4031897244
 20
24.0265867593
 11
10.35
 21
24.0
  0
LINE
  5
554
100
AcDbEntity
  8
0
100
AcDbLine
 62
7
  6
CONTINUOUS
 10
13.0176196936
 20
24.0
 11
13.0606909189
 21
24.0215290512
  0
LINE
  5
555
100
AcDbEntity
  8
DRAFT
100
AcDbLine
 62
7
  6
CONTINUOUS
 10
-34.6036116509
 20
-26.8965183637
 11
-34.65
 21
-26.9081110346
  0
LINE
  5
556
100
AcDbEntity
  8
DRAFT
100
AcDbLine
 62
7
  6
CONTINUOUS
 10
-66.95
 20
-17.4
 11
-70.25
 21
-17.4864135412
  0
LINE
  5
557
100
AcDbEntity
  8
DRAFT
100
AcDbLine
 62
7
  6
CONTINUOUS
 10
-66.95
 20
-14.8
 11
-70.25
 21
-14.8864135412
  0
LINE
  5
558
100
AcDbEntity
  8
0
100
AcDbLine
 62
253
  6
CONTINUOUS
 10
46.5795212939
 20
-14.6085591576
 11
45.131416724
 21
-14.6085591576
  0
LINE
  5
559
100
AcDbEntity
  8
0
100
AcDbLine
 62
253
  6
CONTINUOUS
 10
46.0795974464
 20
-14.1088637441
 11
45.1272055718
 21
-14.1088637441
  0
LINE
  5
55A
100
AcDbEntity
  8
0
100
AcDbLine
 62
7
  6
CONTINUOUS
 10
45.1043634339
 20
-14.0174603847
 11
46.1252852017
 21
-14.0174603847
  0
LINE
  5
55B
100
AcDbEntity
  8
DRAFT
100
AcDbLine
 62
7
  6
CONTINUOUS
 10
70.25
 20
-14.0
 11
67.6569219382
 21
-14.0
  0
LINE
  5
55C
100
AcDbEntity
  8
0
100
AcDbLine
 62
7
  6
CONTINUOUS
 10
67.6569219382
 20
-14.0
 11
66.95
 21
-14.0
  0
LINE
  5
55D
100
AcDbEntity
  8
0
100
AcDbLine
 62
7
  6
CONTINUOUS
 10
-66.95
 20
-14.0
 11
-67.6569219382
 21
-14.0
  0
LINE
  5
55E
100
AcDbEntity
  8
DRAFT
100
AcDbLine
 62
7
  6
CONTINUOUS
 10
-67.6569219382
 20
-14.0
 11
-70.25
 21
-14.0
  0
LINE
  5
55F
100
AcDbEntity
  8
DRAFT
100
AcDbLine
 62
7
  6
CONTINUOUS
 10
70.25
 20
-17.4864135412
 11
66.95
 21
-17.4
  0
LINE
  5
560
100
AcDbEntity
  8
DRAFT
100
AcDbLine
 62
7
  6
CONTINUOUS
 10
70.25
 20
-14.8864135412
 11
66.95
 21
-14.8
  0
LWPOLYLINE
  5
561
100
AcDbEntity
  8
0
100
AcDbPolyline
 62
7
  6
CONTINUOUS
 90
8
 70
0
 10
35.5606909189
 20
-24.0215290512
 10
35.5627493649
 20
-24.0219786181
 10
35.566863915
 20
-24.0224171053
 10
35.5730345691
 20
-24.0228445129
 10
35.5813004004
 20
-24.0232630397
 10
35.5916223358
 20
-24.0236704869
 10
35.6038831552
 20
-24.0240602574
 10
35.6344062202
 20
-24.024789156
  0
LINE
  5
562
100
AcDbEntity
  8
DRAFT
100
AcDbLine
 62
7
  6
CONTINUOUS
 10
34.6036116509
 20
-26.8965183637
 11
34.65
 21
-26.9081110346
  0
LWPOLYLINE
  5
563
100
AcDbEntity
  8
0
100
AcDbPolyline
 62
7
  6
CONTINUOUS
 90
10
 70
0
 10
34.3479539454
 20
-28.5494696404
 10
34.3480861449
 20
-28.5495265891
 10
34.3482182667
 20
-28.5496312377
 10
34.3483503106
 20
-28.5497835863
 10
34.3484822956
 20
-28.5499836679
 10
34.3486142029
 20
-28.5502314495
 10
34.348745976
 20
-28.5505268316
 10
34.3488775959
 20
-28.5508697811
 10
34.3490090817
 20
-28.5512603312
 10
34.3491404332
 20
-28.5516984818
  0
LINE
  5
564
100
AcDbEntity
  8
0
100
AcDbLine
 62
7
  6
CONTINUOUS
 10
10.4031897244
 20
-24.0265867593
 11
10.35
 21
-24.0
  0
LINE
  5
565
100
AcDbEntity
  8
0
100
AcDbLine
 62
7
  6
CONTINUOUS
 10
13.0176196936
 20
-24.0
 11
13.0606909189
 21
-24.0215290512
  0
LINE
  5
566
100
AcDbEntity
  8
0
100
AcDbLine
 62
7
  6
CONTINUOUS
 10
16.660464
 20
-32.663833
 11
17.780825
 21
-33.607969
  0
LINE
  5
567
100
AcDbEntity
  8
0
100
AcDbLine
 62
7
  6
CONTINUOUS
 10
17.780825
 20
-33.091613
 11
16.608751
 21
-32.1039
  0
LWPOLYLINE
  5
568
100
AcDbEntity
  8
RACCORDO
100
AcDbPolyline
 62
253
  6
CONTINUOUS
 90
3
 70
0
 10
-71.4204252079
 20
43.7022200255
 10
-71.2432131127
 20
43.5428516548
 10
-71.180622447
 20
43.4860295171
  0
LINE
  5
569
100
AcDbEntity
  8
RACCORDO
100
AcDbLine
 62
253
  6
CONTINUOUS
 10
-71.7499999988
 20
44.0006852308
 11
-71.4746076943
 21
43.7518378099
  0
LINE
  5
56A
100
AcDbEntity
  8
RACCORDO
100
AcDbLine
 62
253
  6
CONTINUOUS
 10
-71.180622447
 20
43.4860295171
 11
-70.809722962
 21
43.1514681353
  0
LINE
  5
56B
100
AcDbEntity
  8
RACCORDO
100
AcDbLine
 62
253
  6
CONTINUOUS
 10
-70.809722962
 20
43.1514681353
 11
-70.7500000141
 21
43.097075387
  0
LINE
  5
56C
100
AcDbEntity
  8
RACCORDO
100
AcDbLine
 62
253
  6
CONTINUOUS
 10
-71.4746076943
 20
43.7518378099
 11
-71.4204252079
 21
43.7022200255
  0
LINE
  5
56D
100
AcDbEntity
  8
0
100
AcDbLine
 62
7
  6
CONTINUOUS
 10
9.6358036464
 20
-26.2465093858
 11
10.05
 21
-26.65
  0
LINE
  5
56E
100
AcDbEntity
  8
0
100
AcDbLine
 62
7
  6
CONTINUOUS
 10
12.1321066032
 20
-28.8600557844
 11
12.1480453875
 21
-28.8759468191
  0
LINE
  5
56F
100
AcDbEntity
  8
DRAFT
100
AcDbLine
 62
7
  6
CONTINUOUS
 10
-46.6337843117
 20
24.0837843117
 11
-46.6602842764
 21
24.1102842764
  0
LWPOLYLINE
  5
570
100
AcDbEntity
  8
0
100
AcDbPolyline
 62
7
  6
CONTINUOUS
 90
9
 70
0
 10
-34.3509203203
 20
27.9519724288
 10
-34.3531364806
 20
27.9559431926
 10
-34.3568684681
 20
27.961739291
 10
-34.3621162829
 20
27.969156161
 10
-34.3690414743
 20
27.9779728169
 10
-34.3774824931
 20
27.9880011313
 10
-34.3869546909
 20
27.9991149172
 10
-34.3974058215
 20
28.0111428964
 10
-34.4210737109
 20
28.0374428793
  0
LWPOLYLINE
  5
571
100
AcDbEntity
  8
0
100
AcDbPolyline
 62
7
  6
CONTINUOUS
 90
9
 70
0
 10
-34.3491403738
 20
28.5516983052
 10
-34.351355776
 20
28.5557579317
 10
-34.3550867994
 20
28.5616387915
 10
-34.3603334442
 20
28.5691359728
 10
-34.3672572098
 20
28.5780281126
 10
-34.3756965966
 20
28.5881270581
 10
-34.3851671063
 20
28.5993068767
 10
-34.3956165243
 20
28.6113961839
 10
-34.4192808746
 20
28.6378051504
  0
LWPOLYLINE
  5
572
100
AcDbEntity
  8
0
100
AcDbPolyline
 62
253
  6
CONTINUOUS
 90
25
 70
0
 10
-9.4462873966
 20
26.9538991558
 10
-9.4470141936
 20
26.9734607959
 10
-9.4490255011
 20
26.9929302084
 10
-9.4523118877
 20
27.0122238014
 10
-9.4568580559
 20
27.0312558046
 10
-9.4626438541
 20
27.0499478425
 10
-9.4696461424
 20
27.0682287439
 10
-9.4778380191
 20
27.0860241
 10
-9.4871836366
 20
27.1032526125
 10
-9.4976393455
 20
27.1198358961
 10
-9.5091589116
 20
27.1357012863
 10
-9.5216939152
 20
27.1507827414
 10
-9.5351896452
 20
27.1650170149
 10
-9.5495884257
 20
27.1783434264
 10
-9.5648285161
 20
27.1907049587
 10
-9.5808433815
 20
27.2020497672
 10
-9.5975662772
 20
27.2123306278
 10
-9.6149241437
 20
27.2215026045
 10
-9.6328359008
 20
27.2295253252
 10
-9.6512135175
 20
27.2363623169
 10
-9.669988915
 20
27.2419910772
 10
-9.6891091968
 20
27.2463956246
 10
-9.7085031658
 20
27.249554873
 10
-9.7280798567
 20
27.2514487065
 10
-9.7477560459
 20
27.2520651187
  0
LWPOLYLINE
  5
573
100
AcDbEntity
  8
0
100
AcDbPolyline
 62
253
  6
CONTINUOUS
 90
25
 70
0
 10
-9.1464701318
 20
26.9769485984
 10
-9.147914435
 20
27.0164646417
 10
-9.1518663869
 20
27.0554661701
 10
-9.1583259876
 20
27.0939532095
 10
-9.1673406628
 20
27.1320795058
 10
-9.1788629867
 20
27.1696913591
 10
-9.1927506822
 20
27.2063276502
 10
-9.2090369825
 20
27.2419850616
 10
-9.2276886545
 20
27.2766670078
 10
-9.2484637216
 20
27.3099225135
 10
-9.2713878981
 20
27.3417295086
 10
-9.2964354697
 20
27.3721101945
 10
-9.3232873173
 20
27.400680038
 10
-9.3519664087
 20
27.4274163696
 10
-9.3824497762
 20
27.4523420025
 10
-9.4143493971
 20
27.4751406495
 10
-9.4476884633
 20
27.4957863799
 10
-9.482443783
 20
27.5143052583
 10
-9.5181577589
 20
27.5304589985
 10
-9.5548225283
 20
27.5442133968
 10
-9.5924459538
 20
27.5556027603
 10
-9.630594027
 20
27.5644915653
 10
-9.6691220782
 20
27.5708346566
 10
-9.7081747771
 20
27.5746772454
 10
-9.7477521235
 20
27.5760193457
  0
LINE
  5
574
100
AcDbEntity
  8
DRAFT
100
AcDbLine
 62
7
  6
CONTINUOUS
 10
-10.8785440846
 20
36.5357171432
 11
-10.8473400057
 21
35.5035993343
  0
LINE
  5
575
100
AcDbEntity
  8
0
100
AcDbLine
 62
253
  6
CONTINUOUS
 10
-10.6508537729
 20
28.5497675973
 11
-10.647104243
 21
27.2538445846
  0
LINE
  5
576
100
AcDbEntity
  8
0
100
AcDbLine
 62
253
  6
CONTINUOUS
 10
-10.3509657419
 20
28.5523022003
 11
-10.3481176273
 21
27.5760193457
  0
LINE
  5
577
100
AcDbEntity
  8
0
100
AcDbLine
 62
253
  6
CONTINUOUS
 10
-9.139465667
 20
24.0265867593
 11
-9.1464701318
 21
26.9769485984
  0
LINE
  5
578
100
AcDbEntity
  8
0
100
AcDbLine
 62
253
  6
CONTINUOUS
 10
-9.4393090811
 20
24.0215290512
 11
-9.4462873896
 21
26.9538991627
  0
LINE
  5
579
100
AcDbEntity
  8
0
100
AcDbLine
 62
7
  6
CONTINUOUS
 10
-11.6526505322
 20
-35.5039123057
 11
-11.663448611
 21
-30.084803917
  0
LINE
  5
57A
100
AcDbEntity
  8
0
100
AcDbLine
 62
7
  6
CONTINUOUS
 10
-11.663448611
 20
-30.084803917
 11
-11.6659565568
 21
-28.5329757668
  0
LINE
  5
57B
100
AcDbEntity
  8
0
100
AcDbLine
 62
7
  6
CONTINUOUS
 10
-10.8473400057
 20
35.5035993343
 11
-10.8340344151
 21
28.5329802805
  0
LINE
  5
57C
100
AcDbEntity
  8
0
100
AcDbLine
 62
7
  6
CONTINUOUS
 10
-11.65
 20
28.5
 11
-11.65
 21
27.05
  0
LINE
  5
57D
100
AcDbEntity
  8
0
100
AcDbLine
 62
7
  6
CONTINUOUS
 10
-11.65
 20
-28.5
 11
-11.65
 21
-27.75
  0
LINE
  5
57E
100
AcDbEntity
  8
RACCORDO
100
AcDbLine
 62
7
  6
CONTINUOUS
 10
-11.6
 20
-43.0
 11
-11.6
 21
-36.8848266046
  0
LINE
  5
57F
100
AcDbEntity
  8
RACCORDO
100
AcDbLine
 62
7
  6
CONTINUOUS
 10
-11.6
 20
36.8848266046
 11
-11.6
 21
43.0
  0
LINE
  5
580
100
AcDbEntity
  8
RACCORDO
100
AcDbLine
 62
7
  6
CONTINUOUS
 10
-10.9
 20
43.0
 11
-10.9
 21
36.8848266046
  0
LINE
  5
581
100
AcDbEntity
  8
RACCORDO
100
AcDbLine
 62
7
  6
CONTINUOUS
 10
-10.9
 20
-36.8848266046
 11
-10.9
 21
-43.0
  0
LINE
  5
582
100
AcDbEntity
  8
0
100
AcDbLine
 62
7
  6
CONTINUOUS
 10
-10.85
 20
28.5
 11
-10.85
 21
27.05
  0
LINE
  5
583
100
AcDbEntity
  8
0
100
AcDbLine
 62
7
  6
CONTINUOUS
 10
-10.85
 20
-28.5
 11
-10.85
 21
-27.75
  0
LINE
  5
584
100
AcDbEntity
  8
0
100
AcDbLine
 62
7
  6
CONTINUOUS
 10
-10.35
 20
26.2081110346
 11
-10.35
 21
24.0
  0
LINE
  5
585
100
AcDbEntity
  8
0
100
AcDbLine
 62
7
  6
CONTINUOUS
 10
-10.35
 20
-26.9081110346
 11
-10.35
 21
-24.0
  0
LINE
  5
586
100
AcDbEntity
  8
0
100
AcDbLine
 62
7
  6
CONTINUOUS
 10
-10.05
 20
-27.75
 11
-10.05
 21
-27.35
  0
LINE
  5
587
100
AcDbEntity
  8
0
100
AcDbLine
 62
7
  6
CONTINUOUS
 10
-10.05
 20
26.65
 11
-10.05
 21
27.05
  0
LINE
  5
588
100
AcDbEntity
  8
0
100
AcDbLine
 62
253
  6
CONTINUOUS
 10
-9.7497714603
 20
-28.2752649765
 11
-9.7497714603
 21
-27.9500457878
  0
LINE
  5
589
100
AcDbEntity
  8
0
100
AcDbLine
 62
253
  6
CONTINUOUS
 10
-9.7477521235
 20
27.5760193457
 11
-9.7477521235
 21
27.2520651246
  0
LINE
  5
58A
100
AcDbEntity
  8
0
100
AcDbLine
 62
7
  6
CONTINUOUS
 10
-9.6360402013
 20
-27.4641425506
 11
-9.6360402013
 21
-26.9465113794
  0
LINE
  5
58B
100
AcDbEntity
  8
0
100
AcDbLine
 62
7
  6
CONTINUOUS
 10
-9.6360402013
 20
26.2465113794
 11
-9.6360402013
 21
26.7641425506
  0
LINE
  5
58C
100
AcDbEntity
  8
0
100
AcDbLine
 62
7
  6
CONTINUOUS
 10
-9.4823803064
 20
-26.9081110346
 11
-9.4823803064
 21
-24.0
  0
LINE
  5
58D
100
AcDbEntity
  8
0
100
AcDbLine
 62
7
  6
CONTINUOUS
 10
-9.4823803064
 20
24.0
 11
-9.4823803064
 21
26.2081110346
  0
LINE
  5
58E
100
AcDbEntity
  8
0
100
AcDbLine
 62
7
  6
CONTINUOUS
 10
-10.8340344151
 20
-28.5329802805
 11
-10.8439345909
 21
-33.9574614978
  0
LINE
  5
58F
100
AcDbEntity
  8
0
100
AcDbLine
 62
7
  6
CONTINUOUS
 10
-11.6659565568
 20
28.5329757668
 11
-11.6526505322
 21
35.5039123057
  0
LINE
  5
590
100
AcDbEntity
  8
0
100
AcDbLine
 62
7
  6
CONTINUOUS
 10
-10.8439345909
 20
-33.9574614978
 11
-10.8473400057
 21
-35.5035993343
  0
LINE
  5
591
100
AcDbEntity
  8
0
100
AcDbLine
 62
253
  6
CONTINUOUS
 10
-9.1484008006
 20
-27.6762830578
 11
-9.139465667
 21
-24.0265867593
  0
LINE
  5
592
100
AcDbEntity
  8
0
100
AcDbLine
 62
253
  6
CONTINUOUS
 10
-9.4482180393
 20
-27.651961212
 11
-9.4393090811
 21
-24.0215290512
  0
LINE
  5
593
100
AcDbEntity
  8
0
100
AcDbLine
 62
253
  6
CONTINUOUS
 10
-10.6490796797
 20
-27.9519724288
 11
-10.6508595627
 21
-28.551698494
  0
LINE
  5
594
100
AcDbEntity
  8
0
100
AcDbLine
 62
253
  6
CONTINUOUS
 10
-10.350136964
 20
-28.2752649765
 11
-10.3519546125
 21
-28.8759468191
  0
LINE
  5
595
100
AcDbEntity
  8
DRAFT
100
AcDbLine
 62
7
  6
CONTINUOUS
 10
-10.8785440846
 20
-36.5357171432
 11
-10.8473400057
 21
-35.5035993343
  0
LINE
  5
596
100
AcDbEntity
  8
0
100
AcDbLine
 62
7
  6
CONTINUOUS
 10
-23.0375000715
 20
-34.9638297975
 11
-23.0749999285
 21
-35.0787234008
  0
LINE
  5
597
100
AcDbEntity
  8
0
100
AcDbLine
 62
7
  6
CONTINUOUS
 10
-21.3875001431
 20
-34.9638297975
 11
-21.425
 21
-35.0787234008
  0
LINE
  5
598
100
AcDbEntity
  8
0
100
AcDbLine
 62
7
  6
CONTINUOUS
 10
-18.345281
 20
-32.925
 11
-18.151993
 21
-32.386533
  0
LINE
  5
599
100
AcDbEntity
  8
0
100
AcDbLine
 62
7
  6
CONTINUOUS
 10
-18.074686
 20
-32.164951
 11
-17.775723
 21
-31.34334
  0
LINE
  5
59A
100
AcDbEntity
  8
0
100
AcDbLine
 62
7
  6
CONTINUOUS
 10
-17.907161
 20
-31.075
 11
-18.602905
 21
-32.925
  0
LINE
  5
59B
100
AcDbEntity
  8
0
100
AcDbLine
 62
7
  6
CONTINUOUS
 10
-25.7749999821
 20
-34.0063829422
 11
-25.8500000179
 21
-34.1978723884
  0
LINE
  5
59C
100
AcDbEntity
  8
0
100
AcDbLine
 62
7
  6
CONTINUOUS
 10
-24.6125000715
 20
-35.193617031
 11
-24.5374999285
 21
-35.0021276653
  0
LINE
  5
59D
100
AcDbEntity
  8
0
100
AcDbLine
 62
7
  6
CONTINUOUS
 10
-24.0874999285
 20
-34.0063829422
 11
-24.1625000715
 21
-34.1978723884
  0
LINE
  5
59E
100
AcDbEntity
  8
0
100
AcDbLine
 62
7
  6
CONTINUOUS
 10
-22.9249998569
 20
-35.193617031
 11
-22.8500001431
 21
-35.0021276653
  0
LINE
  5
59F
100
AcDbEntity
  8
0
100
AcDbLine
 62
7
  6
CONTINUOUS
 10
-21.2750001431
 20
-35.193617031
 11
-21.2
 21
-35.0021276653
  0
LINE
  5
5A0
100
AcDbEntity
  8
0
100
AcDbLine
 62
7
  6
CONTINUOUS
 10
19.118438
 20
35.501513
 11
15.654465
 21
31.482709
  0
LINE
  5
5A1
100
AcDbEntity
  8
0
100
AcDbLine
 62
7
  6
CONTINUOUS
 10
16.330121
 20
31.482709
 11
19.057478
 21
34.646947
  0
LWPOLYLINE
  5
5A2
100
AcDbEntity
  8
0
100
AcDbPolyline
 62
7
  6
CONTINUOUS
 90
3
 70
0
 10
-34.3956165243
 20
-28.6113961839
 10
-34.4192808746
 20
-28.6378051504
 10
-34.4321358165
 20
-28.6519729641
  0
LWPOLYLINE
  5
5A3
100
AcDbEntity
  8
0
100
AcDbPolyline
 62
7
  6
CONTINUOUS
 90
3
 70
0
 10
11.8974058215
 20
28.0111428964
 10
11.9210737109
 20
28.0374428794
 10
11.9339304117
 20
28.0515626317
  0
LWPOLYLINE
  5
5A4
100
AcDbEntity
  8
0
100
AcDbPolyline
 62
7
  6
CONTINUOUS
 90
3
 70
0
 10
-34.3974058213
 20
-28.0111428961
 10
-34.4210737106
 20
-28.037442879
 10
-34.4339304114
 20
-28.0515626313
  0
LWPOLYLINE
  5
5A5
100
AcDbEntity
  8
0
100
AcDbPolyline
 62
7
  6
CONTINUOUS
 90
3
 70
0
 10
-34.4321358165
 20
-28.6519729641
 10
-34.459724059
 20
-28.6817335213
 10
-34.474209561
 20
-28.6972298427
  0
LWPOLYLINE
  5
5A6
100
AcDbEntity
  8
0
100
AcDbPolyline
 62
7
  6
CONTINUOUS
 90
3
 70
0
 10
11.9339304117
 20
28.0515626317
 10
11.9615221617
 20
28.0812396507
 10
11.9760093926
 20
28.0967001889
  0
LWPOLYLINE
  5
5A7
100
AcDbEntity
  8
0
100
AcDbPolyline
 62
7
  6
CONTINUOUS
 90
3
 70
0
 10
-34.4339304114
 20
-28.0515626313
 10
-34.4615221613
 20
-28.0812396503
 10
-34.4760093923
 20
-28.0967001885
  0
LINE
  5
5A8
100
AcDbEntity
  8
0
100
AcDbLine
 62
7
  6
CONTINUOUS
 10
22.66368
 20
33.565623
 11
22.710886
 21
33.616029
  0
LINE
  5
5A9
100
AcDbEntity
  8
0
100
AcDbLine
 62
7
  6
CONTINUOUS
 10
22.327831
 20
33.95997
 11
22.296649
 21
33.926877
  0
LINE
  5
5AA
100
AcDbEntity
  8
0
100
AcDbLine
 62
7
  6
CONTINUOUS
 10
11.9760093926
 20
28.0967001889
 11
12.0217502298
 21
28.1447100405
  0
LINE
  5
5AB
100
AcDbEntity
  8
0
100
AcDbLine
 62
7
  6
CONTINUOUS
 10
-34.4760093923
 20
-28.0967001885
 11
-34.5217502294
 21
-28.1447100402
  0
LINE
  5
5AC
100
AcDbEntity
  8
0
100
AcDbLine
 62
7
  6
CONTINUOUS
 10
12.0217502298
 20
28.1447100405
 11
12.0695799
 21
28.1940553931
  0
LWPOLYLINE
  5
5AD
100
AcDbEntity
  8
0
100
AcDbPolyline
 62
7
  6
CONTINUOUS
 90
4
 70
0
 10
12.0695799
 20
28.1940553931
 10
12.1179354829
 20
28.2432545768
 10
12.1339227607
 20
28.2593709863
 10
12.149863036
 20
28.2752649765
  0
LINE
  5
5AE
100
AcDbEntity
  8
0
100
AcDbLine
 62
7
  6
CONTINUOUS
 10
11.8500457878
 20
27.9500457878
 11
11.65
 21
27.75
  0
LINE
  5
5AF
100
AcDbEntity
  8
0
100
AcDbLine
 62
253
  6
CONTINUOUS
 10
12.5536790795
 20
27.7534963276
 11
12.7502245921
 21
27.9500457878
  0
LINE
  5
5B0
100
AcDbEntity
  8
0
100
AcDbLine
 62
253
  6
CONTINUOUS
 10
12.8639597987
 20
27.4641425506
 11
13.0517819411
 21
27.6519684658
  0
LINE
  5
5B1
100
AcDbEntity
  8
0
100
AcDbLine
 62
7
  6
CONTINUOUS
 10
26.35986
 20
35.521553
 11
24.348192
 21
33.509885
  0
LINE
  5
5B2
100
AcDbEntity
  8
0
100
AcDbLine
 62
7
  6
CONTINUOUS
 10
25.071935
 20
33.509883
 11
27.083542
 21
35.521553
  0
LINE
  5
5B3
100
AcDbEntity
  8
0
100
AcDbLine
 62
253
  6
CONTINUOUS
 10
-35.3639597987
 20
-27.4641425506
 11
-35.5517819411
 21
-27.6519684658
  0
LINE
  5
5B4
100
AcDbEntity
  8
0
100
AcDbLine
 62
7
  6
CONTINUOUS
 10
22.613399
 20
33.517915
 11
22.66368
 21
33.565623
  0
LINE
  5
5B5
100
AcDbEntity
  8
0
100
AcDbLine
 62
7
  6
CONTINUOUS
 10
22.296649
 20
33.926877
 11
22.262906
 21
33.89558
  0
LINE
  5
5B6
100
AcDbEntity
  8
0
100
AcDbLine
 62
7
  6
CONTINUOUS
 10
22.560145
 20
33.473018
 11
22.613399
 21
33.517915
  0
LINE
  5
5B7
100
AcDbEntity
  8
0
100
AcDbLine
 62
7
  6
CONTINUOUS
 10
32.9031897244
 20
24.0265867593
 11
32.85
 21
24.0
  0
LINE
  5
5B8
100
AcDbEntity
  8
0
100
AcDbLine
 62
7
  6
CONTINUOUS
 10
35.5176196936
 20
24.0
 11
35.5606909189
 21
24.0215290512
  0
LINE
  5
5B9
100
AcDbEntity
  8
0
100
AcDbLine
 62
7
  6
CONTINUOUS
 10
32.9031897244
 20
-24.0265867593
 11
32.85
 21
-24.0
  0
LINE
  5
5BA
100
AcDbEntity
  8
0
100
AcDbLine
 62
7
  6
CONTINUOUS
 10
35.5176196936
 20
-24.0
 11
35.5606909189
 21
-24.0215290512
  0
LINE
  5
5BB
100
AcDbEntity
  8
0
100
AcDbLine
 62
7
  6
CONTINUOUS
 10
12.1359403577
 20
-27.560122177
 11
12.1518823727
 21
-27.5760193457
  0
LINE
  5
5BC
100
AcDbEntity
  8
0
100
AcDbLine
 62
7
  6
CONTINUOUS
 10
11.8520651246
 20
-27.2520651246
 11
11.65
 21
-27.05
  0
LINE
  5
5BD
100
AcDbEntity
  8
0
100
AcDbLine
 62
253
  6
CONTINUOUS
 10
12.5536790795
 20
-27.0534963276
 11
12.752251948
 21
-27.2520651246
  0
LINE
  5
5BE
100
AcDbEntity
  8
0
100
AcDbLine
 62
253
  6
CONTINUOUS
 10
12.8639597987
 20
-26.7641425506
 11
13.0556932467
 21
-26.9558613757
  0
LINE
  5
5BF
100
AcDbEntity
  8
0
100
AcDbLine
 62
253
  6
CONTINUOUS
 10
-35.3639597987
 20
27.4641425506
 11
-35.5517819607
 21
27.651961212
  0
LINE
  5
5C0
100
AcDbEntity
  8
0
100
AcDbLine
 62
7
  6
CONTINUOUS
 10
12.1000881171
 20
-28.8276434953
 11
12.1321066032
 21
-28.8600557844
  0
LINE
  5
5C1
100
AcDbEntity
  8
0
100
AcDbLine
 62
7
  6
CONTINUOUS
 10
12.0877762151
 20
-27.5113090254
 11
12.1359403577
 21
-27.560122177
  0
LINE
  5
5C2
100
AcDbEntity
  8
0
100
AcDbLine
 62
7
  6
CONTINUOUS
 10
12.067770014
 20
-28.7947202097
 11
12.1000881171
 21
-28.8276434953
  0
LINE
  5
5C3
100
AcDbEntity
  8
0
100
AcDbLine
 62
7
  6
CONTINUOUS
 10
12.0555247179
 20
-27.4783338966
 11
12.0877762151
 21
-27.5113090254
  0
LINE
  5
5C4
100
AcDbEntity
  8
0
100
AcDbLine
 62
7
  6
CONTINUOUS
 10
12.0237547264
 20
-27.4455457096
 11
12.0555247179
 21
-27.4783338966
  0
LINE
  5
5C5
100
AcDbEntity
  8
0
100
AcDbLine
 62
7
  6
CONTINUOUS
 10
12.0199452976
 20
-28.7453238452
 11
12.067770014
 21
-28.7947202097
  0
LINE
  5
5C6
100
AcDbEntity
  8
0
100
AcDbLine
 62
7
  6
CONTINUOUS
 10
11.9780079395
 20
-27.3976345589
 11
12.0237547264
 21
-27.4455457096
  0
LINE
  5
5C7
100
AcDbEntity
  8
0
100
AcDbLine
 62
7
  6
CONTINUOUS
 10
-34.4760093926
 20
28.0967001888
 11
-34.5217502298
 21
28.1447100405
  0
LINE
  5
5C8
100
AcDbEntity
  8
0
100
AcDbLine
 62
7
  6
CONTINUOUS
 10
11.9742095609
 20
-28.6972298425
 11
12.0199452976
 21
-28.7453238452
  0
LWPOLYLINE
  5
5C9
100
AcDbEntity
  8
0
100
AcDbPolyline
 62
7
  6
CONTINUOUS
 90
3
 70
0
 10
11.9230641054
 20
-27.33857299
 10
11.9359228549
 20
-27.3526365845
 10
11.9780079395
 20
-27.3976345589
  0
LWPOLYLINE
  5
5CA
100
AcDbEntity
  8
0
100
AcDbPolyline
 62
7
  6
CONTINUOUS
 90
4
 70
0
 10
-34.4210737109
 20
28.0374428793
 10
-34.4339304117
 20
28.0515626317
 10
-34.4474903826
 20
28.0661664709
 10
-34.4760093926
 20
28.0967001888
  0
LWPOLYLINE
  5
5CB
100
AcDbEntity
  8
0
100
AcDbPolyline
 62
7
  6
CONTINUOUS
 90
4
 70
0
 10
11.9192808745
 20
-28.6378051503
 10
11.9321358164
 20
-28.651972964
 10
11.9456940268
 20
-28.6666205809
 10
11.9742095609
 20
-28.6972298425
  0
LWPOLYLINE
  5
5CC
100
AcDbEntity
  8
0
100
AcDbPolyline
 62
7
  6
CONTINUOUS
 90
4
 70
0
 10
-34.4192808746
 20
28.6378051504
 10
-34.4321358165
 20
28.6519729641
 10
-34.4456940269
 20
28.6666205811
 10
-34.474209561
 20
28.6972298427
  0
LINE
  5
5CD
100
AcDbEntity
  8
0
100
AcDbLine
 62
7
  6
CONTINUOUS
 10
-25.016148
 20
34.224203
 11
-24.036762
 21
31.612597
  0
LINE
  5
5CE
100
AcDbEntity
  8
0
100
AcDbLine
 62
7
  6
CONTINUOUS
 10
-23.973659
 20
33.391567
 11
-24.799696
 21
35.612109
  0
LINE
  5
5CF
100
AcDbEntity
  8
0
100
AcDbLine
 62
7
  6
CONTINUOUS
 10
-18.518429
 20
31.612597
 11
-19.745579
 21
35.612109
  0
LINE
  5
5D0
100
AcDbEntity
  8
0
100
AcDbLine
 62
7
  6
CONTINUOUS
 10
-16.2899555763
 20
32.0462240534
 11
-16.1633139566
 21
31.6125968881
  0
LINE
  5
5D1
100
AcDbEntity
  8
0
100
AcDbLine
 62
7
  6
CONTINUOUS
 10
-19.614604
 20
32.411042
 11
-19.398332
 21
31.612597
  0
LINE
  5
5D2
100
AcDbEntity
  8
0
100
AcDbLine
 62
7
  6
CONTINUOUS
 10
-15.5469658998
 20
32.3250325121
 11
-15.6456834585
 21
32.6950951537
  0
LINE
  5
5D3
100
AcDbEntity
  8
0
100
AcDbLine
 62
7
  6
CONTINUOUS
 10
-15.3602803749
 20
31.6125968881
 11
-15.5469658998
 21
32.3250325121
  0
LINE
  5
5D4
100
AcDbEntity
  8
0
100
AcDbLine
 62
7
  6
CONTINUOUS
 10
-20.165075
 20
34.513145
 11
-19.781449
 21
33.028875
  0
LWPOLYLINE
  5
5D5
100
AcDbEntity
  8
0
100
AcDbPolyline
 62
7
  6
CONTINUOUS
 90
22
 70
0
 10
-15.6456834585
 20
32.6950951537
 10
-15.6605348489
 20
32.7525592611
 10
-15.6760201609
 20
32.8083997397
 10
-15.6921393945
 20
32.8626167689
 10
-15.7087785018
 20
32.9153246403
 10
-15.7260515308
 20
32.9664094002
 10
-15.7443006255
 20
33.0155288904
 10
-15.7636254749
 20
33.062614238
 10
-15.78392639
 20
33.1077347052
 10
-15.8052464476
 20
33.1507553742
 10
-15.8276357269
 20
33.1917396485
 10
-15.8510441488
 20
33.2306244849
 10
-15.8753645529
 20
33.2670853219
 10
-15.9005917251
 20
33.3010577301
 10
-15.9267308796
 20
33.3326064988
 10
-15.9536904984
 20
33.3616009128
 10
-15.9816471554
 20
33.3880767036
 10
-16.0104242767
 20
33.4119984371
 10
-16.0394006227
 20
33.4331286496
 10
-16.0683691135
 20
33.45138827
 10
-16.097536829
 20
33.466856605
 10
-16.1269037691
 20
33.4795337467
  0
LINE
  5
5D6
100
AcDbEntity
  8
RACCORDO
100
AcDbLine
 62
7
  6
CONTINUOUS
 10
10.8785440846
 20
36.5357171432
 11
10.8950375388
 21
36.5852377442
  0
LWPOLYLINE
  5
5D7
100
AcDbEntity
  8
0
100
AcDbPolyline
 62
7
  6
CONTINUOUS
 90
8
 70
0
 10
11.8509203203
 20
27.9519724288
 10
11.8531364806
 20
27.9559431926
 10
11.8568684681
 20
27.961739291
 10
11.8621162829
 20
27.969156161
 10
11.8690414743
 20
27.9779728169
 10
11.8774824931
 20
27.9880011313
 10
11.8869546909
 20
27.9991149172
 10
11.8974058215
 20
28.0111428964
  0
LINE
  5
5D8
100
AcDbEntity
  8
0
100
AcDbLine
 62
7
  6
CONTINUOUS
 10
22.795656
 20
33.724412
 11
22.832998
 21
33.782095
  0
LINE
  5
5D9
100
AcDbEntity
  8
0
100
AcDbLine
 62
7
  6
CONTINUOUS
 10
-25.6249999642
 20
-34.1212765455
 11
-25.5500000358
 21
-34.0063829422
  0
LINE
  5
5DA
100
AcDbEntity
  8
0
100
AcDbLine
 62
7
  6
CONTINUOUS
 10
-24.7624999285
 20
-34.427659595
 11
-24.8374999642
 21
-34.5425531983
  0
LINE
  5
5DB
100
AcDbEntity
  8
0
100
AcDbLine
 62
7
  6
CONTINUOUS
 10
-24.7624999285
 20
-35.0787234008
 11
-24.8374999642
 21
-35.193617031
  0
LINE
  5
5DC
100
AcDbEntity
  8
0
100
AcDbLine
 62
7
  6
CONTINUOUS
 10
-23.9375000715
 20
-34.1212765455
 11
-23.8624999285
 21
-34.0063829422
  0
LINE
  5
5DD
100
AcDbEntity
  8
0
100
AcDbLine
 62
7
  6
CONTINUOUS
 10
-23.0749999285
 20
-35.0787234008
 11
-23.1500000715
 21
-35.193617031
  0
LINE
  5
5DE
100
AcDbEntity
  8
0
100
AcDbLine
 62
7
  6
CONTINUOUS
 10
22.382345
 20
34.031122
 11
22.35641
 21
33.994754
  0
LINE
  5
5DF
100
AcDbEntity
  8
0
100
AcDbLine
 62
7
  6
CONTINUOUS
 10
-25.6625000358
 20
-33.8531914711
 11
-25.7749999821
 21
-34.0063829422
  0
LINE
  5
5E0
100
AcDbEntity
  8
0
100
AcDbLine
 62
7
  6
CONTINUOUS
 10
-23.9749999285
 20
-33.8531914711
 11
-24.0874999285
 21
-34.0063829422
  0
LINE
  5
5E1
100
AcDbEntity
  8
0
100
AcDbLine
 62
7
  6
CONTINUOUS
 10
22.754915
 20
33.669004
 11
22.795656
 21
33.724412
  0
LINE
  5
5E2
100
AcDbEntity
  8
0
100
AcDbLine
 62
7
  6
CONTINUOUS
 10
22.35641
 20
33.994754
 11
22.327831
 21
33.95997
  0
LINE
  5
5E3
100
AcDbEntity
  8
0
100
AcDbLine
 62
7
  6
CONTINUOUS
 10
22.710886
 20
33.616029
 11
22.754915
 21
33.669004
  0
LINE
  5
5E4
100
AcDbEntity
  8
0
100
AcDbLine
 62
7
  6
CONTINUOUS
 10
-34.474209561
 20
-28.6972298427
 11
-34.5199452977
 21
-28.7453238453
  0
LINE
  5
5E5
100
AcDbEntity
  8
0
100
AcDbLine
 62
7
  6
CONTINUOUS
 10
-34.5199452977
 20
-28.7453238453
 11
-34.5677700141
 21
-28.7947202098
  0
LINE
  5
5E6
100
AcDbEntity
  8
0
100
AcDbLine
 62
7
  6
CONTINUOUS
 10
-34.5217502294
 20
-28.1447100402
 11
-34.5695798998
 21
-28.1940553929
  0
LWPOLYLINE
  5
5E7
100
AcDbEntity
  8
0
100
AcDbPolyline
 62
7
  6
CONTINUOUS
 90
4
 70
0
 10
-34.5695798998
 20
-28.1940553929
 10
-34.6179354828
 20
-28.2432545767
 10
-34.6339227606
 20
-28.2593709862
 10
-34.649863036
 20
-28.2752649765
  0
LWPOLYLINE
  5
5E8
100
AcDbEntity
  8
0
100
AcDbPolyline
 62
7
  6
CONTINUOUS
 90
4
 70
0
 10
-34.5677700141
 20
-28.7947202098
 10
-34.6161208464
 20
-28.8439392567
 10
-34.6321066032
 20
-28.8600557844
 10
-34.6480453875
 20
-28.8759468191
  0
LINE
  5
5E9
100
AcDbEntity
  8
0
100
AcDbLine
 62
7
  6
CONTINUOUS
 10
29.388368
 20
36.780106
 11
28.481039
 21
35.872779
  0
LINE
  5
5EA
100
AcDbEntity
  8
0
100
AcDbLine
 62
253
  6
CONTINUOUS
 10
-35.0536790795
 20
-27.7534963276
 11
-35.2502245921
 21
-27.9500457878
  0
LINE
  5
5EB
100
AcDbEntity
  8
0
100
AcDbLine
 62
7
  6
CONTINUOUS
 10
29.20475
 20
35.872779
 11
30.112046
 21
36.780106
  0
LINE
  5
5EC
100
AcDbEntity
  8
0
100
AcDbLine
 62
7
  6
CONTINUOUS
 10
-34.3500457878
 20
-27.9500457878
 11
-34.15
 21
-27.75
  0
LINE
  5
5ED
100
AcDbEntity
  8
RACCORDO
100
AcDbLine
 62
7
  6
CONTINUOUS
 10
-45.7811204268
 20
-42.9311204268
 11
-45.85
 21
-43.0
  0
LINE
  5
5EE
100
AcDbEntity
  8
0
100
AcDbLine
 62
7
  6
CONTINUOUS
 10
-32.55
 20
-27.35
 11
-32.1358036464
 21
-26.9465093858
  0
LINE
  5
5EF
100
AcDbEntity
  8
RACCORDO
100
AcDbLine
 62
7
  6
CONTINUOUS
 10
67.2857171432
 20
23.2785440846
 11
67.3352377442
 21
23.2950375388
  0
LINE
  5
5F0
100
AcDbEntity
  8
RACCORDO
100
AcDbLine
 62
7
  6
CONTINUOUS
 10
-67.2857171432
 20
-23.2785440846
 11
-67.3352377442
 21
-23.2950375388
  0
LINE
  5
5F1
100
AcDbEntity
  8
DRAFT
100
AcDbLine
 62
7
  6
CONTINUOUS
 10
66.8407005033
 20
-0.3849101299
 11
65.8576914846
 21
-0.4146294998
  0
LWPOLYLINE
  5
5F2
100
AcDbEntity
  8
RACCORDO
100
AcDbPolyline
 62
7
  6
CONTINUOUS
 90
8
 70
0
 10
70.0947489339
 20
-0.4702110252
 10
70.1042519073
 20
-0.4699563176
 10
70.1123196837
 20
-0.4696914264
 10
70.1190301305
 20
-0.4694152986
 10
70.1243333935
 20
-0.4691326025
 10
70.1282128548
 20
-0.4688448944
 10
70.1306851324
 20
-0.4685506182
 10
70.1317502263
 20
-0.4682497737
  0
LINE
  5
5F3
100
AcDbEntity
  8
RACCORDO
100
AcDbLine
 62
7
  6
CONTINUOUS
 10
70.0719544542
 20
-0.4706789021
 11
70.0947489339
 21
-0.4702110252
  0
LINE
  5
5F4
100
AcDbEntity
  8
DRAFT
100
AcDbLine
 62
7
  6
CONTINUOUS
 10
57.75
 20
-0.4512393766
 11
59.4247138769
 21
-0.4220071371
  0
LINE
  5
5F5
100
AcDbEntity
  8
RACCORDO
100
AcDbLine
 62
7
  6
CONTINUOUS
 10
70.0447548837
 20
-0.471068499
 11
70.0719544542
 21
-0.4706789021
  0
LINE
  5
5F6
100
AcDbEntity
  8
RACCORDO
100
AcDbLine
 62
7
  6
CONTINUOUS
 10
69.9986933744
 20
-0.4714785101
 11
70.0447548837
 21
-0.471068499
  0
LINE
  5
5F7
100
AcDbEntity
  8
RACCORDO
100
AcDbLine
 62
7
  6
CONTINUOUS
 10
69.9489877383
 20
-0.471666649
 11
69.9986933744
 21
-0.4714785101
  0
LINE
  5
5F8
100
AcDbEntity
  8
DRAFT
100
AcDbLine
 62
7
  6
CONTINUOUS
 10
65.8576914846
 20
-0.4146294998
 11
59.4247138769
 21
-0.4220071371
  0
LINE
  5
5F9
100
AcDbEntity
  8
DRAFT
100
AcDbLine
 62
7
  6
CONTINUOUS
 10
-65.8576914846
 20
0.4146294998
 11
-59.4247138769
 21
0.4220071371
  0
LINE
  5
5FA
100
AcDbEntity
  8
DRAFT
100
AcDbLine
 62
7
  6
CONTINUOUS
 10
70.75
 20
-3.8526539614
 11
70.25
 21
-3.8526539614
  0
LINE
  5
5FB
100
AcDbEntity
  8
DRAFT
100
AcDbLine
 62
7
  6
CONTINUOUS
 10
-70.25
 20
-3.8526539614
 11
-70.75
 21
-3.8526539614
  0
LINE
  5
5FC
100
AcDbEntity
  8
DRAFT
100
AcDbLine
 62
7
  6
CONTINUOUS
 10
71.645240128
 20
-3.5
 11
70.2150898701
 21
-3.5
  0
LINE
  5
5FD
100
AcDbEntity
  8
DRAFT
100
AcDbLine
 62
7
  6
CONTINUOUS
 10
-70.2150898701
 20
-3.5
 11
-71.645240128
 21
-3.5
  0
LINE
  5
5FE
100
AcDbEntity
  8
RACCORDO
100
AcDbLine
 62
7
  6
CONTINUOUS
 10
69.9489877383
 20
-0.471666649
 11
46.6716797993
 21
-0.4716797993
  0
LINE
  5
5FF
100
AcDbEntity
  8
DRAFT
100
AcDbLine
 62
7
  6
CONTINUOUS
 10
46.6512393766
 20
-0.4512393766
 11
57.75
 21
-0.4512393766
  0
LINE
  5
600
100
AcDbEntity
  8
DRAFT
100
AcDbLine
 62
7
  6
CONTINUOUS
 10
-46.6512393766
 20
-0.4512393766
 11
-57.75
 21
-0.4512393766
  0
LINE
  5
601
100
AcDbEntity
  8
DRAFT
100
AcDbLine
 62
7
  6
CONTINUOUS
 10
-70.2150898701
 20
-0.3849101299
 11
-66.8407005033
 21
-0.3849101299
  0
LINE
  5
602
100
AcDbEntity
  8
DRAFT
100
AcDbLine
 62
7
  6
CONTINUOUS
 10
66.8407005033
 20
-0.3849101299
 11
70.2150898701
 21
-0.3849101299
  0
LINE
  5
603
100
AcDbEntity
  8
DRAFT
100
AcDbLine
 62
7
  6
CONTINUOUS
 10
70.2150898701
 20
0.3849101299
 11
66.8407005033
 21
0.3849101299
  0
LINE
  5
604
100
AcDbEntity
  8
DRAFT
100
AcDbLine
 62
7
  6
CONTINUOUS
 10
-66.8407005033
 20
0.3849101299
 11
-70.2150898701
 21
0.3849101299
  0
LINE
  5
605
100
AcDbEntity
  8
DRAFT
100
AcDbLine
 62
7
  6
CONTINUOUS
 10
46.6512393766
 20
0.4512393766
 11
57.75
 21
0.4512393766
  0
LINE
  5
606
100
AcDbEntity
  8
DRAFT
100
AcDbLine
 62
7
  6
CONTINUOUS
 10
-46.6512393766
 20
0.4512393766
 11
-57.75
 21
0.4512393766
  0
LINE
  5
607
100
AcDbEntity
  8
RACCORDO
100
AcDbLine
 62
7
  6
CONTINUOUS
 10
-46.6716797993
 20
0.4716797993
 11
-69.9823956104
 21
0.4715661497
  0
LINE
  5
608
100
AcDbEntity
  8
DRAFT
100
AcDbLine
 62
7
  6
CONTINUOUS
 10
-65.8576914846
 20
-0.4146294998
 11
-59.4247138769
 21
-0.4220071371
  0
LINE
  5
609
100
AcDbEntity
  8
DRAFT
100
AcDbLine
 62
7
  6
CONTINUOUS
 10
65.8576914846
 20
0.4146294998
 11
59.4247138769
 21
0.4220071371
  0
LINE
  5
60A
100
AcDbEntity
  8
RACCORDO
100
AcDbLine
 62
7
  6
CONTINUOUS
 10
-69.9823956538
 20
-0.4715661522
 11
-46.6716797993
 21
-0.4716797993
  0
LINE
  5
60B
100
AcDbEntity
  8
RACCORDO
100
AcDbLine
 62
7
  6
CONTINUOUS
 10
69.9823956535
 20
0.4715661522
 11
46.6716797993
 21
0.4716797993
  0
LINE
  5
60C
100
AcDbEntity
  8
RACCORDO
100
AcDbLine
 62
7
  6
CONTINUOUS
 10
-70.0299921991
 20
-0.4712299055
 11
-69.9823956538
 21
-0.4715661522
  0
LINE
  5
60D
100
AcDbEntity
  8
RACCORDO
100
AcDbLine
 62
7
  6
CONTINUOUS
 10
-70.0588916704
 20
-0.4708832347
 11
-70.0299921991
 21
-0.4712299055
  0
LINE
  5
60E
100
AcDbEntity
  8
DRAFT
100
AcDbLine
 62
7
  6
CONTINUOUS
 10
-59.4247138769
 20
-0.4220071371
 11
-57.75
 21
-0.4512393766
  0
LINE
  5
60F
100
AcDbEntity
  8
DRAFT
100
AcDbLine
 62
7
  6
CONTINUOUS
 10
-66.8407005033
 20
-0.3849101299
 11
-65.8576914846
 21
-0.4146294998
  0
LINE
  5
610
100
AcDbEntity
  8
RACCORDO
100
AcDbLine
 62
7
  6
CONTINUOUS
 10
67.2857171432
 20
-23.2785440846
 11
67.3352377442
 21
-23.2950375388
  0
LINE
  5
611
100
AcDbEntity
  8
RACCORDO
100
AcDbLine
 62
7
  6
CONTINUOUS
 10
-67.2857171432
 20
23.2785440846
 11
-67.3352377442
 21
23.2950375388
  0
LINE
  5
612
100
AcDbEntity
  8
0
100
AcDbLine
 62
7
  6
CONTINUOUS
 10
-32.1358036464
 20
26.9465093858
 11
-32.55
 21
27.35
  0
LINE
  5
613
100
AcDbEntity
  8
0
100
AcDbLine
 62
7
  6
CONTINUOUS
 10
-34.6339227607
 20
28.2593709863
 11
-34.649863036
 21
28.2752649765
  0
LINE
  5
614
100
AcDbEntity
  8
0
100
AcDbLine
 62
7
  6
CONTINUOUS
 10
-34.6321066032
 20
28.8600557844
 11
-34.6480453875
 21
28.8759468191
  0
LINE
  5
615
100
AcDbEntity
  8
0
100
AcDbLine
 62
253
  6
CONTINUOUS
 10
-35.0536790795
 20
27.7534963276
 11
-35.250232637
 21
27.9500457878
  0
LINE
  5
616
100
AcDbEntity
  8
0
100
AcDbLine
 62
7
  6
CONTINUOUS
 10
-34.3500457878
 20
27.9500457878
 11
-34.15
 21
27.75
  0
LINE
  5
617
100
AcDbEntity
  8
0
100
AcDbLine
 62
7
  6
CONTINUOUS
 10
-34.6019012026
 20
28.2269621188
 11
-34.6339227607
 21
28.2593709863
  0
LINE
  5
618
100
AcDbEntity
  8
0
100
AcDbLine
 62
7
  6
CONTINUOUS
 10
-34.6000881172
 20
28.8276434954
 11
-34.6321066032
 21
28.8600557844
  0
LINE
  5
619
100
AcDbEntity
  8
0
100
AcDbLine
 62
7
  6
CONTINUOUS
 10
-34.5695799
 20
28.1940553931
 11
-34.6019012026
 21
28.2269621188
  0
LINE
  5
61A
100
AcDbEntity
  8
0
100
AcDbLine
 62
7
  6
CONTINUOUS
 10
-34.5677700141
 20
28.7947202098
 11
-34.6000881172
 21
28.8276434954
  0
LINE
  5
61B
100
AcDbEntity
  8
0
100
AcDbLine
 62
7
  6
CONTINUOUS
 10
-34.5217502298
 20
28.1447100405
 11
-34.5695799
 21
28.1940553931
  0
LINE
  5
61C
100
AcDbEntity
  8
0
100
AcDbLine
 62
7
  6
CONTINUOUS
 10
-34.5199452977
 20
28.7453238453
 11
-34.5677700141
 21
28.7947202098
  0
LINE
  5
61D
100
AcDbEntity
  8
0
100
AcDbLine
 62
7
  6
CONTINUOUS
 10
-34.474209561
 20
28.6972298427
 11
-34.5199452977
 21
28.7453238453
  0
LWPOLYLINE
  5
61E
100
AcDbEntity
  8
0
100
AcDbPolyline
 62
7
  6
CONTINUOUS
 90
9
 70
0
 10
11.852895757
 20
-27.2538445846
 10
11.8551127871
 20
-27.2577118521
 10
11.8588458863
 20
-27.2634092011
 10
11.8640950545
 20
-27.2707324779
 10
11.8710218995
 20
-27.279461139
 10
11.8794648135
 20
-27.2894070893
 10
11.8889389735
 20
-27.3004438472
 10
11.8993920959
 20
-27.3124002602
 10
11.9230641054
 20
-27.33857299
  0
LINE
  5
61F
100
AcDbEntity
  8
0
100
AcDbLine
 62
7
  6
CONTINUOUS
 10
18.772879
 20
-34.877022
 11
18.964676
 21
-35.218741
  0
LWPOLYLINE
  5
620
100
AcDbEntity
  8
0
100
AcDbPolyline
 62
7
  6
CONTINUOUS
 90
9
 70
0
 10
11.8491403738
 20
-28.5516983052
 10
11.851355776
 20
-28.5557579317
 10
11.8550867994
 20
-28.5616387915
 10
11.8603334442
 20
-28.5691359727
 10
11.8672572097
 20
-28.5780281125
 10
11.8756965966
 20
-28.588127058
 10
11.8851671063
 20
-28.5993068766
 10
11.8956165243
 20
-28.6113961838
 10
11.9192808745
 20
-28.6378051503
  0
LWPOLYLINE
  5
621
100
AcDbEntity
  8
0
100
AcDbPolyline
 62
7
  6
CONTINUOUS
 90
6
 70
0
 10
-16.5285647366
 20
32.8258834445
 10
-16.4870826684
 20
32.70495282
 10
-16.4462861502
 20
32.5804182868
 10
-16.4061751818
 20
32.4522790041
 10
-16.3673642805
 20
32.3203526466
 10
-16.2899555763
 20
32.0462240534
  0
LINE
  5
622
100
AcDbEntity
  8
RACCORDO
100
AcDbLine
 62
7
  6
CONTINUOUS
 10
10.8785440846
 20
-36.5357171432
 11
10.8950375388
 21
-36.5852377442
  0
LINE
  5
623
100
AcDbEntity
  8
RACCORDO
100
AcDbLine
 62
7
  6
CONTINUOUS
 10
-10.8785440846
 20
-36.5357171432
 11
-10.8950375388
 21
-36.5852377442
  0
LINE
  5
624
100
AcDbEntity
  8
0
100
AcDbLine
 62
7
  6
CONTINUOUS
 10
22.443689
 20
34.148394
 11
22.426048
 21
34.108094
  0
LINE
  5
625
100
AcDbEntity
  8
0
100
AcDbLine
 62
7
  6
CONTINUOUS
 10
22.86683
 20
33.841881
 11
22.897046
 21
33.903585
  0
LINE
  5
626
100
AcDbEntity
  8
0
100
AcDbLine
 62
7
  6
CONTINUOUS
 10
22.426048
 20
34.108094
 11
22.405579
 21
34.068948
  0
LWPOLYLINE
  5
627
100
AcDbEntity
  8
0
100
AcDbPolyline
 62
7
  6
CONTINUOUS
 90
8
 70
0
 10
-11.8509203203
 20
-27.9519724288
 10
-11.8531364806
 20
-27.9559431926
 10
-11.8568684681
 20
-27.961739291
 10
-11.8621162829
 20
-27.969156161
 10
-11.8690414743
 20
-27.9779728169
 10
-11.8774824931
 20
-27.9880011313
 10
-11.8869546909
 20
-27.9991149172
 10
-11.8974058215
 20
-28.0111428964
  0
LINE
  5
628
100
AcDbEntity
  8
0
100
AcDbLine
 62
7
  6
CONTINUOUS
 10
22.832998
 20
33.782095
 11
22.86683
 21
33.841881
  0
LINE
  5
629
100
AcDbEntity
  8
0
100
AcDbLine
 62
7
  6
CONTINUOUS
 10
-14.098929
 20
-31.075
 11
-14.629616
 21
-31.964017
  0
LINE
  5
62A
100
AcDbEntity
  8
0
100
AcDbLine
 62
7
  6
CONTINUOUS
 10
22.405579
 20
34.068948
 11
22.382345
 21
34.031122
  0
LINE
  5
62B
100
AcDbEntity
  8
0
100
AcDbLine
 62
7
  6
CONTINUOUS
 10
-14.50349
 20
-32.180362
 11
-13.805084
 21
-31.075
  0
LINE
  5
62C
100
AcDbEntity
  8
0
100
AcDbLine
 62
7
  6
CONTINUOUS
 10
-21.425
 20
-35.0787234008
 11
-21.5000001431
 21
-35.193617031
  0
LINE
  5
62D
100
AcDbEntity
  8
0
100
AcDbLine
 62
7
  6
CONTINUOUS
 10
-24.7250000715
 20
-35.3468085155
 11
-24.6125000715
 21
-35.193617031
  0
LINE
  5
62E
100
AcDbEntity
  8
0
100
AcDbLine
 62
7
  6
CONTINUOUS
 10
-21.3875001431
 20
-35.3468085155
 11
-21.2750001431
 21
-35.193617031
  0
LINE
  5
62F
100
AcDbEntity
  8
0
100
AcDbLine
 62
7
  6
CONTINUOUS
 10
-23.0375000715
 20
-35.3468085155
 11
-22.9249998569
 21
-35.193617031
  0
LINE
  5
630
100
AcDbEntity
  8
0
100
AcDbLine
 62
7
  6
CONTINUOUS
 10
-26.375
 20
-33.7
 11
-26.6
 21
-33.9680850744
  0
LINE
  5
631
100
AcDbEntity
  8
0
100
AcDbLine
 62
7
  6
CONTINUOUS
 10
-26.6
 20
-34.2744681239
 11
-26.375
 21
-34.0063829422
  0
LINE
  5
632
100
AcDbEntity
  8
0
100
AcDbLine
 62
7
  6
CONTINUOUS
 10
-19.9999998569
 20
-33.7
 11
-20.8999998569
 21
-34.7340425372
  0
LWPOLYLINE
  5
633
100
AcDbEntity
  8
0
100
AcDbPolyline
 62
7
  6
CONTINUOUS
 90
3
 70
0
 10
34.3956165243
 20
28.6113961839
 10
34.4192808746
 20
28.6378051504
 10
34.4321358165
 20
28.6519729641
  0
LWPOLYLINE
  5
634
100
AcDbEntity
  8
0
100
AcDbPolyline
 62
7
  6
CONTINUOUS
 90
3
 70
0
 10
34.3974058213
 20
28.0111428961
 10
34.4210737106
 20
28.037442879
 10
34.4339304114
 20
28.0515626313
  0
LWPOLYLINE
  5
635
100
AcDbEntity
  8
0
100
AcDbPolyline
 62
7
  6
CONTINUOUS
 90
3
 70
0
 10
34.4321358165
 20
28.6519729641
 10
34.459724059
 20
28.6817335213
 10
34.474209561
 20
28.6972298427
  0
LWPOLYLINE
  5
636
100
AcDbEntity
  8
0
100
AcDbPolyline
 62
7
  6
CONTINUOUS
 90
3
 70
0
 10
34.4339304114
 20
28.0515626313
 10
34.4615221613
 20
28.0812396503
 10
34.4760093923
 20
28.0967001885
  0
LINE
  5
637
100
AcDbEntity
  8
0
100
AcDbLine
 62
7
  6
CONTINUOUS
 10
34.474209561
 20
28.6972298427
 11
34.5199452977
 21
28.7453238453
  0
LINE
  5
638
100
AcDbEntity
  8
0
100
AcDbLine
 62
7
  6
CONTINUOUS
 10
34.4760093923
 20
28.0967001885
 11
34.5217502294
 21
28.1447100402
  0
LINE
  5
639
100
AcDbEntity
  8
0
100
AcDbLine
 62
7
  6
CONTINUOUS
 10
34.5199452977
 20
28.7453238453
 11
34.5677700141
 21
28.7947202098
  0
LINE
  5
63A
100
AcDbEntity
  8
0
100
AcDbLine
 62
7
  6
CONTINUOUS
 10
34.5217502294
 20
28.1447100402
 11
34.5695798998
 21
28.1940553929
  0
LWPOLYLINE
  5
63B
100
AcDbEntity
  8
0
100
AcDbPolyline
 62
7
  6
CONTINUOUS
 90
4
 70
0
 10
34.5677700141
 20
28.7947202098
 10
34.6161208464
 20
28.8439392567
 10
34.6321066032
 20
28.8600557844
 10
34.6480453875
 20
28.8759468191
  0
LWPOLYLINE
  5
63C
100
AcDbEntity
  8
0
100
AcDbPolyline
 62
7
  6
CONTINUOUS
 90
4
 70
0
 10
34.5695798998
 20
28.1940553929
 10
34.6179354828
 20
28.2432545767
 10
34.6339227606
 20
28.2593709862
 10
34.649863036
 20
28.2752649765
  0
LINE
  5
63D
100
AcDbEntity
  8
RACCORDO
100
AcDbLine
 62
7
  6
CONTINUOUS
 10
45.7811204268
 20
42.9311204268
 11
45.85
 21
43.0
  0
LINE
  5
63E
100
AcDbEntity
  8
0
100
AcDbLine
 62
7
  6
CONTINUOUS
 10
34.3500457878
 20
27.9500457878
 11
34.15
 21
27.75
  0
LINE
  5
63F
100
AcDbEntity
  8
0
100
AcDbLine
 62
253
  6
CONTINUOUS
 10
35.0536790795
 20
27.7534963276
 11
35.2502245921
 21
27.9500457878
  0
LINE
  5
640
100
AcDbEntity
  8
0
100
AcDbLine
 62
253
  6
CONTINUOUS
 10
35.3639597987
 20
27.4641425506
 11
35.5517819411
 21
27.6519684658
  0
LINE
  5
641
100
AcDbEntity
  8
0
100
AcDbLine
 62
7
  6
CONTINUOUS
 10
32.55
 20
27.35
 11
32.1358036464
 21
26.9465093858
  0
LINE
  5
642
100
AcDbEntity
  8
0
100
AcDbLine
 62
7
  6
CONTINUOUS
 10
-35.5176196936
 20
-24.0
 11
-35.5606909189
 21
-24.0215290512
  0
LINE
  5
643
100
AcDbEntity
  8
0
100
AcDbLine
 62
7
  6
CONTINUOUS
 10
-32.9031897244
 20
-24.0265867593
 11
-32.85
 21
-24.0
  0
LINE
  5
644
100
AcDbEntity
  8
DRAFT
100
AcDbLine
 62
7
  6
CONTINUOUS
 10
-66.8407005033
 20
0.3849101299
 11
-65.8576914846
 21
0.4146294998
  0
LWPOLYLINE
  5
645
100
AcDbEntity
  8
RACCORDO
100
AcDbPolyline
 62
7
  6
CONTINUOUS
 90
8
 70
0
 10
-70.0947489343
 20
0.4702110252
 10
-70.1042519076
 20
0.4699563176
 10
-70.112319684
 20
0.4696914264
 10
-70.1190301307
 20
0.4694152986
 10
-70.1243333937
 20
0.4691326025
 10
-70.128212855
 20
0.4688448944
 10
-70.1306851325
 20
0.4685506182
 10
-70.1317502263
 20
0.4682497737
  0
LINE
  5
646
100
AcDbEntity
  8
RACCORDO
100
AcDbLine
 62
7
  6
CONTINUOUS
 10
-70.0719544546
 20
0.4706789021
 11
-70.0947489343
 21
0.4702110252
  0
LINE
  5
647
100
AcDbEntity
  8
DRAFT
100
AcDbLine
 62
7
  6
CONTINUOUS
 10
-59.4247138769
 20
0.4220071371
 11
-57.75
 21
0.4512393766
  0
LINE
  5
648
100
AcDbEntity
  8
RACCORDO
100
AcDbLine
 62
7
  6
CONTINUOUS
 10
-70.044754884
 20
0.471068499
 11
-70.0719544546
 21
0.4706789021
  0
LWPOLYLINE
  5
649
100
AcDbEntity
  8
RACCORDO
100
AcDbPolyline
 62
7
  6
CONTINUOUS
 90
3
 70
0
 10
-69.9823956104
 20
0.4715661497
 10
-69.9986933747
 20
0.4714785101
 10
-70.044754884
 20
0.471068499
  0
LINE
  5
64A
100
AcDbEntity
  8
DRAFT
100
AcDbLine
 62
7
  6
CONTINUOUS
 10
71.645240128
 20
3.5
 11
70.2150898701
 21
3.5
  0
LINE
  5
64B
100
AcDbEntity
  8
DRAFT
100
AcDbLine
 62
7
  6
CONTINUOUS
 10
-70.2150898701
 20
3.5
 11
-71.645240128
 21
3.5
  0
LINE
  5
64C
100
AcDbEntity
  8
DRAFT
100
AcDbLine
 62
7
  6
CONTINUOUS
 10
70.75
 20
3.8526539614
 11
70.25
 21
3.8526539614
  0
LINE
  5
64D
100
AcDbEntity
  8
DRAFT
100
AcDbLine
 62
7
  6
CONTINUOUS
 10
-70.25
 20
3.8526539614
 11
-70.75
 21
3.8526539614
  0
LINE
  5
64E
100
AcDbEntity
  8
RACCORDO
100
AcDbLine
 62
7
  6
CONTINUOUS
 10
70.0299921987
 20
0.4712299055
 11
69.9823956535
 21
0.4715661522
  0
LINE
  5
64F
100
AcDbEntity
  8
RACCORDO
100
AcDbLine
 62
7
  6
CONTINUOUS
 10
70.05889167
 20
0.4708832347
 11
70.0299921987
 21
0.4712299055
  0
LINE
  5
650
100
AcDbEntity
  8
DRAFT
100
AcDbLine
 62
7
  6
CONTINUOUS
 10
57.75
 20
0.4512393766
 11
59.4247138769
 21
0.4220071371
  0
LINE
  5
651
100
AcDbEntity
  8
DRAFT
100
AcDbLine
 62
7
  6
CONTINUOUS
 10
66.8407005033
 20
0.3849101299
 11
65.8576914846
 21
0.4146294998
  0
LINE
  5
652
100
AcDbEntity
  8
0
100
AcDbLine
 62
7
  6
CONTINUOUS
 10
-35.5176196936
 20
24.0
 11
-35.5606909189
 21
24.0215290512
  0
LINE
  5
653
100
AcDbEntity
  8
0
100
AcDbLine
 62
7
  6
CONTINUOUS
 10
-32.9031897244
 20
24.0265867593
 11
-32.85
 21
24.0
  0
LINE
  5
654
100
AcDbEntity
  8
0
100
AcDbLine
 62
7
  6
CONTINUOUS
 10
32.1358036464
 20
-26.9465093858
 11
32.55
 21
-27.35
  0
LINE
  5
655
100
AcDbEntity
  8
0
100
AcDbLine
 62
7
  6
CONTINUOUS
 10
34.6321066032
 20
-28.8600557844
 11
34.6480453875
 21
-28.8759468191
  0
LINE
  5
656
100
AcDbEntity
  8
0
100
AcDbLine
 62
7
  6
CONTINUOUS
 10
34.6339227607
 20
-28.2593709863
 11
34.649863036
 21
-28.2752649765
  0
LINE
  5
657
100
AcDbEntity
  8
RACCORDO
100
AcDbLine
 62
7
  6
CONTINUOUS
 10
45.7811204268
 20
-42.9311204268
 11
45.85
 21
-43.0
  0
LINE
  5
658
100
AcDbEntity
  8
0
100
AcDbLine
 62
7
  6
CONTINUOUS
 10
34.3500457878
 20
-27.9500457878
 11
34.15
 21
-27.75
  0
LINE
  5
659
100
AcDbEntity
  8
0
100
AcDbLine
 62
253
  6
CONTINUOUS
 10
35.0536790795
 20
-27.7534963276
 11
35.250232637
 21
-27.9500457878
  0
LINE
  5
65A
100
AcDbEntity
  8
0
100
AcDbLine
 62
253
  6
CONTINUOUS
 10
35.3639597987
 20
-27.4641425506
 11
35.5517819607
 21
-27.651961212
  0
LINE
  5
65B
100
AcDbEntity
  8
0
100
AcDbLine
 62
7
  6
CONTINUOUS
 10
34.6019012026
 20
-28.2269621188
 11
34.6339227607
 21
-28.2593709863
  0
LINE
  5
65C
100
AcDbEntity
  8
0
100
AcDbLine
 62
7
  6
CONTINUOUS
 10
34.6000881172
 20
-28.8276434954
 11
34.6321066032
 21
-28.8600557844
  0
LINE
  5
65D
100
AcDbEntity
  8
0
100
AcDbLine
 62
7
  6
CONTINUOUS
 10
34.5695799
 20
-28.1940553931
 11
34.6019012026
 21
-28.2269621188
  0
LINE
  5
65E
100
AcDbEntity
  8
0
100
AcDbLine
 62
7
  6
CONTINUOUS
 10
34.5677700141
 20
-28.7947202098
 11
34.6000881172
 21
-28.8276434954
  0
LINE
  5
65F
100
AcDbEntity
  8
0
100
AcDbLine
 62
7
  6
CONTINUOUS
 10
34.5217502298
 20
-28.1447100405
 11
34.5695799
 21
-28.1940553931
  0
LINE
  5
660
100
AcDbEntity
  8
0
100
AcDbLine
 62
7
  6
CONTINUOUS
 10
34.5199452977
 20
-28.7453238453
 11
34.5677700141
 21
-28.7947202098
  0
LINE
  5
661
100
AcDbEntity
  8
0
100
AcDbLine
 62
7
  6
CONTINUOUS
 10
34.4760093926
 20
-28.0967001888
 11
34.5217502298
 21
-28.1447100405
  0
LINE
  5
662
100
AcDbEntity
  8
0
100
AcDbLine
 62
7
  6
CONTINUOUS
 10
34.474209561
 20
-28.6972298427
 11
34.5199452977
 21
-28.7453238453
  0
LWPOLYLINE
  5
663
100
AcDbEntity
  8
0
100
AcDbPolyline
 62
7
  6
CONTINUOUS
 90
4
 70
0
 10
34.4210737109
 20
-28.0374428793
 10
34.4339304117
 20
-28.0515626317
 10
34.4474903826
 20
-28.0661664709
 10
34.4760093926
 20
-28.0967001888
  0
LWPOLYLINE
  5
664
100
AcDbEntity
  8
0
100
AcDbPolyline
 62
7
  6
CONTINUOUS
 90
4
 70
0
 10
34.4192808746
 20
-28.6378051504
 10
34.4321358165
 20
-28.6519729641
 10
34.4456940269
 20
-28.6666205811
 10
34.474209561
 20
-28.6972298427
  0
LWPOLYLINE
  5
665
100
AcDbEntity
  8
0
100
AcDbPolyline
 62
7
  6
CONTINUOUS
 90
9
 70
0
 10
-11.852895757
 20
27.2538445846
 10
-11.8551127871
 20
27.2577118521
 10
-11.8588458863
 20
27.2634092011
 10
-11.8640950545
 20
27.2707324779
 10
-11.8710218995
 20
27.279461139
 10
-11.8794648135
 20
27.2894070893
 10
-11.8889389735
 20
27.3004438472
 10
-11.8993920959
 20
27.3124002602
 10
-11.9230641054
 20
27.33857299
  0
LWPOLYLINE
  5
666
100
AcDbEntity
  8
0
100
AcDbPolyline
 62
7
  6
CONTINUOUS
 90
9
 70
0
 10
-11.8491403738
 20
28.5516983052
 10
-11.851355776
 20
28.5557579317
 10
-11.8550867994
 20
28.5616387915
 10
-11.8603334442
 20
28.5691359727
 10
-11.8672572097
 20
28.5780281125
 10
-11.8756965966
 20
28.588127058
 10
-11.8851671063
 20
28.5993068766
 10
-11.8956165243
 20
28.6113961838
 10
-11.9192808745
 20
28.6378051503
  0
LINE
  5
667
100
AcDbEntity
  8
RACCORDO
100
AcDbLine
 62
7
  6
CONTINUOUS
 10
-10.8785440846
 20
36.5357171432
 11
-10.8950375388
 21
36.5852377442
  0
LWPOLYLINE
  5
668
100
AcDbEntity
  8
0
100
AcDbPolyline
 62
253
  6
CONTINUOUS
 90
25
 70
0
 10
9.4462873966
 20
-26.9538991558
 10
9.4470141936
 20
-26.9734607959
 10
9.4490255011
 20
-26.9929302084
 10
9.4523118877
 20
-27.0122238014
 10
9.4568580559
 20
-27.0312558046
 10
9.4626438541
 20
-27.0499478425
 10
9.4696461424
 20
-27.0682287439
 10
9.4778380191
 20
-27.0860241
 10
9.4871836366
 20
-27.1032526125
 10
9.4976393455
 20
-27.1198358961
 10
9.5091589116
 20
-27.1357012863
 10
9.5216939152
 20
-27.1507827414
 10
9.5351896452
 20
-27.1650170149
 10
9.5495884257
 20
-27.1783434264
 10
9.5648285161
 20
-27.1907049587
 10
9.5808433815
 20
-27.2020497672
 10
9.5975662772
 20
-27.2123306278
 10
9.6149241437
 20
-27.2215026045
 10
9.6328359008
 20
-27.2295253252
 10
9.6512135175
 20
-27.2363623169
 10
9.669988915
 20
-27.2419910772
 10
9.6891091968
 20
-27.2463956246
 10
9.7085031658
 20
-27.249554873
 10
9.7280798567
 20
-27.2514487065
 10
9.7477560459
 20
-27.2520651187
  0
LWPOLYLINE
  5
669
100
AcDbEntity
  8
0
100
AcDbPolyline
 62
253
  6
CONTINUOUS
 90
25
 70
0
 10
9.1464701318
 20
-26.9769485984
 10
9.147914435
 20
-27.0164646417
 10
9.1518663869
 20
-27.0554661701
 10
9.1583259876
 20
-27.0939532095
 10
9.1673406628
 20
-27.1320795058
 10
9.1788629867
 20
-27.1696913591
 10
9.1927506822
 20
-27.2063276502
 10
9.2090369825
 20
-27.2419850616
 10
9.2276886545
 20
-27.2766670078
 10
9.2484637216
 20
-27.3099225135
 10
9.2713878981
 20
-27.3417295086
 10
9.2964354697
 20
-27.3721101945
 10
9.3232873173
 20
-27.400680038
 10
9.3519664087
 20
-27.4274163696
 10
9.3824497762
 20
-27.4523420025
 10
9.4143493971
 20
-27.4751406495
 10
9.4476884633
 20
-27.4957863799
 10
9.482443783
 20
-27.5143052583
 10
9.5181577589
 20
-27.5304589985
 10
9.5548225283
 20
-27.5442133968
 10
9.5924459538
 20
-27.5556027603
 10
9.630594027
 20
-27.5644915653
 10
9.6691220782
 20
-27.5708346566
 10
9.7081747771
 20
-27.5746772454
 10
9.7477521235
 20
-27.5760193457
  0
LINE
  5
66A
100
AcDbEntity
  8
DRAFT
100
AcDbLine
 62
7
  6
CONTINUOUS
 10
10.8785440846
 20
-36.5357171432
 11
10.8473400057
 21
-35.5035993343
  0
LINE
  5
66B
100
AcDbEntity
  8
DRAFT
100
AcDbLine
 62
7
  6
CONTINUOUS
 10
11.6214559154
 20
36.5357171432
 11
11.6526505322
 21
35.5039123057
  0
LINE
  5
66C
100
AcDbEntity
  8
0
100
AcDbLine
 62
253
  6
CONTINUOUS
 10
11.8491462271
 20
28.5497675973
 11
11.8509203203
 21
27.9519724288
  0
LINE
  5
66D
100
AcDbEntity
  8
0
100
AcDbLine
 62
253
  6
CONTINUOUS
 10
12.1490342581
 20
28.5523022003
 11
12.149863036
 21
28.2752649765
  0
LINE
  5
66E
100
AcDbEntity
  8
0
100
AcDbLine
 62
253
  6
CONTINUOUS
 10
10.3509657419
 20
-28.5523022003
 11
10.3481176273
 21
-27.5760193457
  0
LINE
  5
66F
100
AcDbEntity
  8
0
100
AcDbLine
 62
253
  6
CONTINUOUS
 10
10.6508537729
 20
-28.5497675973
 11
10.647104243
 21
-27.2538445846
  0
LINE
  5
670
100
AcDbEntity
  8
0
100
AcDbLine
 62
253
  6
CONTINUOUS
 10
13.360534333
 20
24.0265867593
 11
13.3515991994
 21
27.6762830578
  0
LINE
  5
671
100
AcDbEntity
  8
0
100
AcDbLine
 62
253
  6
CONTINUOUS
 10
9.139465667
 20
-24.0265867593
 11
9.1464701318
 21
-26.9769485984
  0
LINE
  5
672
100
AcDbEntity
  8
0
100
AcDbLine
 62
253
  6
CONTINUOUS
 10
9.4393090811
 20
-24.0215290512
 11
9.4462873896
 21
-26.9538991627
  0
LINE
  5
673
100
AcDbEntity
  8
0
100
AcDbLine
 62
253
  6
CONTINUOUS
 10
13.0606909189
 20
24.0215290512
 11
13.0517819411
 21
27.6519684658
  0
LINE
  5
674
100
AcDbEntity
  8
0
100
AcDbLine
 62
7
  6
CONTINUOUS
 10
10.8473400057
 20
-35.5035993343
 11
10.8365422955
 21
-30.084737551
  0
LINE
  5
675
100
AcDbEntity
  8
0
100
AcDbLine
 62
7
  6
CONTINUOUS
 10
10.8365422955
 20
-30.084737551
 11
10.8340344151
 21
-28.5329802805
  0
LINE
  5
676
100
AcDbEntity
  8
0
100
AcDbLine
 62
7
  6
CONTINUOUS
 10
11.6526505322
 20
35.5039123057
 11
11.6659565568
 21
28.5329757668
  0
LINE
  5
677
100
AcDbEntity
  8
0
100
AcDbLine
 62
7
  6
CONTINUOUS
 10
9.4823803064
 20
26.9081110346
 11
9.4823803064
 21
24.0
  0
LINE
  5
678
100
AcDbEntity
  8
0
100
AcDbLine
 62
7
  6
CONTINUOUS
 10
9.4823803064
 20
-24.0
 11
9.4823803064
 21
-26.2081110346
  0
LINE
  5
679
100
AcDbEntity
  8
0
100
AcDbLine
 62
7
  6
CONTINUOUS
 10
9.6360402013
 20
27.4641425506
 11
9.6360402013
 21
26.9465113794
  0
LINE
  5
67A
100
AcDbEntity
  8
0
100
AcDbLine
 62
7
  6
CONTINUOUS
 10
9.6360402013
 20
-26.2465113794
 11
9.6360402013
 21
-26.7641425506
  0
LINE
  5
67B
100
AcDbEntity
  8
0
100
AcDbLine
 62
253
  6
CONTINUOUS
 10
9.7477521235
 20
-27.5760193457
 11
9.7477521235
 21
-27.2520651246
  0
LINE
  5
67C
100
AcDbEntity
  8
0
100
AcDbLine
 62
253
  6
CONTINUOUS
 10
9.7497714603
 20
28.2752649765
 11
9.7497714603
 21
27.9500457878
  0
LINE
  5
67D
100
AcDbEntity
  8
0
100
AcDbLine
 62
7
  6
CONTINUOUS
 10
10.05
 20
27.75
 11
10.05
 21
27.35
  0
LINE
  5
67E
100
AcDbEntity
  8
0
100
AcDbLine
 62
7
  6
CONTINUOUS
 10
10.05
 20
-26.65
 11
10.05
 21
-27.05
  0
LINE
  5
67F
100
AcDbEntity
  8
0
100
AcDbLine
 62
7
  6
CONTINUOUS
 10
10.35
 20
26.9081110346
 11
10.35
 21
24.0
  0
LINE
  5
680
100
AcDbEntity
  8
0
100
AcDbLine
 62
7
  6
CONTINUOUS
 10
10.35
 20
-26.2081110346
 11
10.35
 21
-24.0
  0
LINE
  5
681
100
AcDbEntity
  8
0
100
AcDbLine
 62
7
  6
CONTINUOUS
 10
10.85
 20
28.5
 11
10.85
 21
27.75
  0
LINE
  5
682
100
AcDbEntity
  8
0
100
AcDbLine
 62
7
  6
CONTINUOUS
 10
10.85
 20
-28.5
 11
10.85
 21
-27.05
  0
LINE
  5
683
100
AcDbEntity
  8
RACCORDO
100
AcDbLine
 62
7
  6
CONTINUOUS
 10
10.9
 20
-43.0
 11
10.9
 21
-36.8848266046
  0
LINE
  5
684
100
AcDbEntity
  8
RACCORDO
100
AcDbLine
 62
7
  6
CONTINUOUS
 10
10.9
 20
36.8848266046
 11
10.9
 21
43.0
  0
LINE
  5
685
100
AcDbEntity
  8
RACCORDO
100
AcDbLine
 62
7
  6
CONTINUOUS
 10
11.6
 20
43.0
 11
11.6
 21
36.8848266046
  0
LINE
  5
686
100
AcDbEntity
  8
RACCORDO
100
AcDbLine
 62
7
  6
CONTINUOUS
 10
11.6
 20
-36.8848266046
 11
11.6
 21
-43.0
  0
LINE
  5
687
100
AcDbEntity
  8
0
100
AcDbLine
 62
7
  6
CONTINUOUS
 10
11.65
 20
28.5
 11
11.65
 21
27.75
  0
LINE
  5
688
100
AcDbEntity
  8
0
100
AcDbLine
 62
7
  6
CONTINUOUS
 10
11.65
 20
-28.5
 11
11.65
 21
-27.05
  0
LINE
  5
689
100
AcDbEntity
  8
0
100
AcDbLine
 62
7
  6
CONTINUOUS
 10
12.15
 20
26.9081110346
 11
12.15
 21
24.0
  0
LINE
  5
68A
100
AcDbEntity
  8
0
100
AcDbLine
 62
7
  6
CONTINUOUS
 10
12.15
 20
-24.0
 11
12.15
 21
-26.2081110346
  0
LINE
  5
68B
100
AcDbEntity
  8
0
100
AcDbLine
 62
7
  6
CONTINUOUS
 10
12.45
 20
-27.05
 11
12.45
 21
-26.65
  0
LINE
  5
68C
100
AcDbEntity
  8
0
100
AcDbLine
 62
7
  6
CONTINUOUS
 10
12.45
 20
27.35
 11
12.45
 21
27.75
  0
LINE
  5
68D
100
AcDbEntity
  8
0
100
AcDbLine
 62
253
  6
CONTINUOUS
 10
12.7502285397
 20
28.2752649765
 11
12.7502285397
 21
27.9500457878
  0
LINE
  5
68E
100
AcDbEntity
  8
0
100
AcDbLine
 62
253
  6
CONTINUOUS
 10
12.7522478765
 20
-27.5760193457
 11
12.7522478765
 21
-27.2520651246
  0
LINE
  5
68F
100
AcDbEntity
  8
0
100
AcDbLine
 62
7
  6
CONTINUOUS
 10
12.8639597987
 20
-26.7641425506
 11
12.8639597987
 21
-26.2465113794
  0
LINE
  5
690
100
AcDbEntity
  8
0
100
AcDbLine
 62
7
  6
CONTINUOUS
 10
12.8639597987
 20
26.9465113794
 11
12.8639597987
 21
27.4641425506
  0
LINE
  5
691
100
AcDbEntity
  8
0
100
AcDbLine
 62
7
  6
CONTINUOUS
 10
13.0176196936
 20
-26.2081110346
 11
13.0176196936
 21
-24.0
  0
LINE
  5
692
100
AcDbEntity
  8
0
100
AcDbLine
 62
7
  6
CONTINUOUS
 10
13.0176196936
 20
24.0
 11
13.0176196936
 21
26.9081110346
  0
LINE
  5
693
100
AcDbEntity
  8
0
100
AcDbLine
 62
7
  6
CONTINUOUS
 10
11.6659565568
 20
-28.5329757668
 11
11.6560560745
 21
-33.9577042689
  0
LINE
  5
694
100
AcDbEntity
  8
0
100
AcDbLine
 62
7
  6
CONTINUOUS
 10
10.8340344151
 20
28.5329802805
 11
10.8473400057
 21
35.5035993343
  0
LINE
  5
695
100
AcDbEntity
  8
0
100
AcDbLine
 62
7
  6
CONTINUOUS
 10
11.6560560745
 20
-33.9577042689
 11
11.6526505322
 21
-35.5039123057
  0
LINE
  5
696
100
AcDbEntity
  8
0
100
AcDbLine
 62
253
  6
CONTINUOUS
 10
9.1484008006
 20
27.6762830578
 11
9.139465667
 21
24.0265867593
  0
LINE
  5
697
100
AcDbEntity
  8
0
100
AcDbLine
 62
253
  6
CONTINUOUS
 10
13.3535298682
 20
-26.9769485984
 11
13.360534333
 21
-24.0265867593
  0
LINE
  5
698
100
AcDbEntity
  8
0
100
AcDbLine
 62
253
  6
CONTINUOUS
 10
13.0537126293
 20
-26.9538918416
 11
13.0606909189
 21
-24.0215290512
  0
LINE
  5
699
100
AcDbEntity
  8
0
100
AcDbLine
 62
253
  6
CONTINUOUS
 10
9.4482180393
 20
27.651961212
 11
9.4393090811
 21
24.0215290512
  0
LINE
  5
69A
100
AcDbEntity
  8
0
100
AcDbLine
 62
253
  6
CONTINUOUS
 10
10.6490796797
 20
27.9519724288
 11
10.6508595627
 21
28.551698494
  0
LINE
  5
69B
100
AcDbEntity
  8
0
100
AcDbLine
 62
253
  6
CONTINUOUS
 10
11.852895757
 20
-27.2538445846
 11
11.8491404669
 21
-28.5516985819
  0
LINE
  5
69C
100
AcDbEntity
  8
0
100
AcDbLine
 62
253
  6
CONTINUOUS
 10
12.1518823727
 20
-27.5760193457
 11
12.1480453875
 21
-28.8759468191
  0
LINE
  5
69D
100
AcDbEntity
  8
0
100
AcDbLine
 62
253
  6
CONTINUOUS
 10
10.350136964
 20
28.2752649765
 11
10.3519546125
 21
28.8759468191
  0
LINE
  5
69E
100
AcDbEntity
  8
DRAFT
100
AcDbLine
 62
7
  6
CONTINUOUS
 10
10.8785440846
 20
36.5357171432
 11
10.8473400057
 21
35.5035993343
  0
LINE
  5
69F
100
AcDbEntity
  8
DRAFT
100
AcDbLine
 62
7
  6
CONTINUOUS
 10
11.6214559154
 20
-36.5357171432
 11
11.6526505322
 21
-35.5039123057
  0
LINE
  5
6A0
100
AcDbEntity
  8
0
100
AcDbLine
 62
7
  6
CONTINUOUS
 10
22.470236
 20
34.231747
 11
22.458439
 21
34.189678
  0
LINE
  5
6A1
100
AcDbEntity
  8
0
100
AcDbLine
 62
7
  6
CONTINUOUS
 10
22.946209
 20
34.031904
 11
22.964972
 21
34.098058
  0
LINE
  5
6A2
100
AcDbEntity
  8
0
100
AcDbLine
 62
7
  6
CONTINUOUS
 10
22.923538
 20
33.966997
 11
22.946209
 21
34.031904
  0
LINE
  5
6A3
100
AcDbEntity
  8
0
100
AcDbLine
 62
7
  6
CONTINUOUS
 10
22.458439
 20
34.189678
 11
22.443689
 21
34.148394
  0
LINE
  5
6A4
100
AcDbEntity
  8
0
100
AcDbLine
 62
7
  6
CONTINUOUS
 10
22.897046
 20
33.903585
 11
22.923538
 21
33.966997
  0
LINE
  5
6A5
100
AcDbEntity
  8
0
100
AcDbLine
 62
7
  6
CONTINUOUS
 10
-20.6375
 20
-34.7340425372
 11
-19.9999998569
 21
-34.0063829422
  0
LWPOLYLINE
  5
6A6
100
AcDbEntity
  8
0
100
AcDbPolyline
 62
7
  6
CONTINUOUS
 90
3
 70
0
 10
-11.8974058215
 20
-28.0111428964
 10
-11.9210737109
 20
-28.0374428794
 10
-11.9339304117
 20
-28.0515626317
  0
LWPOLYLINE
  5
6A7
100
AcDbEntity
  8
0
100
AcDbPolyline
 62
7
  6
CONTINUOUS
 90
3
 70
0
 10
-11.9339304117
 20
-28.0515626317
 10
-11.9615221617
 20
-28.0812396507
 10
-11.9760093926
 20
-28.0967001889
  0
LINE
  5
6A8
100
AcDbEntity
  8
0
100
AcDbLine
 62
7
  6
CONTINUOUS
 10
-11.9760093926
 20
-28.0967001889
 11
-12.0217502298
 21
-28.1447100405
  0
LINE
  5
6A9
100
AcDbEntity
  8
0
100
AcDbLine
 62
7
  6
CONTINUOUS
 10
-12.0217502298
 20
-28.1447100405
 11
-12.0695799
 21
-28.1940553931
  0
LINE
  5
6AA
100
AcDbEntity
  8
0
100
AcDbLine
 62
7
  6
CONTINUOUS
 10
-23.9375000715
 20
-34.7340425372
 11
-23.8624999285
 21
-34.6574468017
  0
LWPOLYLINE
  5
6AB
100
AcDbEntity
  8
0
100
AcDbPolyline
 62
7
  6
CONTINUOUS
 90
4
 70
0
 10
-12.0695799
 20
-28.1940553931
 10
-12.1179354829
 20
-28.2432545768
 10
-12.1339227607
 20
-28.2593709863
 10
-12.149863036
 20
-28.2752649765
  0
LINE
  5
6AC
100
AcDbEntity
  8
0
100
AcDbLine
 62
253
  6
CONTINUOUS
 10
-12.8639597987
 20
-27.4641425506
 11
-13.0517819411
 21
-27.6519684658
  0
LINE
  5
6AD
100
AcDbEntity
  8
0
100
AcDbLine
 62
253
  6
CONTINUOUS
 10
-12.5536790795
 20
-27.7534963276
 11
-12.7502245921
 21
-27.9500457878
  0
LINE
  5
6AE
100
AcDbEntity
  8
0
100
AcDbLine
 62
7
  6
CONTINUOUS
 10
-11.8500457878
 20
-27.9500457878
 11
-11.65
 21
-27.75
  0
LINE
  5
6AF
100
AcDbEntity
  8
0
100
AcDbLine
 62
7
  6
CONTINUOUS
 10
-10.05
 20
-27.35
 11
-9.6358036464
 21
-26.9465093858
  0
LINE
  5
6B0
100
AcDbEntity
  8
DRAFT
100
AcDbLine
 62
7
  6
CONTINUOUS
 10
66.95
 20
14.8
 11
70.25
 21
14.8864135412
  0
LINE
  5
6B1
100
AcDbEntity
  8
DRAFT
100
AcDbLine
 62
7
  6
CONTINUOUS
 10
-66.95
 20
14.8
 11
-70.25
 21
14.8864135412
  0
LWPOLYLINE
  5
6B2
100
AcDbEntity
  8
0
100
AcDbPolyline
 62
7
  6
CONTINUOUS
 90
10
 70
0
 10
-34.3479539454
 20
28.5494696404
 10
-34.3480861449
 20
28.5495265891
 10
-34.3482182667
 20
28.5496312377
 10
-34.3483503106
 20
28.5497835863
 10
-34.3484822956
 20
28.5499836679
 10
-34.3486142029
 20
28.5502314495
 10
-34.348745976
 20
28.5505268316
 10
-34.348877596
 20
28.5508697812
 10
-34.3490090817
 20
28.5512603313
 10
-34.3491404333
 20
28.551698482
  0
LINE
  5
6B3
100
AcDbEntity
  8
0
100
AcDbLine
 62
7
  6
CONTINUOUS
 10
-9.6358036464
 20
26.2465093858
 11
-10.05
 21
26.65
  0
LINE
  5
6B4
100
AcDbEntity
  8
0
100
AcDbLine
 62
7
  6
CONTINUOUS
 10
-12.1359403577
 20
27.560122177
 11
-12.1518823727
 21
27.5760193457
  0
LINE
  5
6B5
100
AcDbEntity
  8
0
100
AcDbLine
 62
7
  6
CONTINUOUS
 10
-12.1321066032
 20
28.8600557844
 11
-12.1480453875
 21
28.8759468191
  0
LINE
  5
6B6
100
AcDbEntity
  8
0
100
AcDbLine
 62
253
  6
CONTINUOUS
 10
-12.8639597987
 20
26.7641425506
 11
-13.0556932467
 21
26.9558613757
  0
LINE
  5
6B7
100
AcDbEntity
  8
0
100
AcDbLine
 62
253
  6
CONTINUOUS
 10
-12.5536790795
 20
27.0534963276
 11
-12.752251948
 21
27.2520651246
  0
LINE
  5
6B8
100
AcDbEntity
  8
0
100
AcDbLine
 62
7
  6
CONTINUOUS
 10
-11.8520651246
 20
27.2520651246
 11
-11.65
 21
27.05
  0
LINE
  5
6B9
100
AcDbEntity
  8
0
100
AcDbLine
 62
7
  6
CONTINUOUS
 10
-12.1000881171
 20
28.8276434953
 11
-12.1321066032
 21
28.8600557844
  0
LINE
  5
6BA
100
AcDbEntity
  8
0
100
AcDbLine
 62
7
  6
CONTINUOUS
 10
-12.0877762151
 20
27.5113090254
 11
-12.1359403577
 21
27.560122177
  0
LINE
  5
6BB
100
AcDbEntity
  8
0
100
AcDbLine
 62
7
  6
CONTINUOUS
 10
-12.067770014
 20
28.7947202097
 11
-12.1000881171
 21
28.8276434953
  0
LINE
  5
6BC
100
AcDbEntity
  8
0
100
AcDbLine
 62
7
  6
CONTINUOUS
 10
-12.0555247179
 20
27.4783338966
 11
-12.0877762151
 21
27.5113090254
  0
LINE
  5
6BD
100
AcDbEntity
  8
0
100
AcDbLine
 62
7
  6
CONTINUOUS
 10
-12.0237547264
 20
27.4455457096
 11
-12.0555247179
 21
27.4783338966
  0
LINE
  5
6BE
100
AcDbEntity
  8
0
100
AcDbLine
 62
7
  6
CONTINUOUS
 10
-12.0199452976
 20
28.7453238452
 11
-12.067770014
 21
28.7947202097
  0
LINE
  5
6BF
100
AcDbEntity
  8
0
100
AcDbLine
 62
7
  6
CONTINUOUS
 10
-11.9780079395
 20
27.3976345589
 11
-12.0237547264
 21
27.4455457096
  0
LINE
  5
6C0
100
AcDbEntity
  8
0
100
AcDbLine
 62
7
  6
CONTINUOUS
 10
-11.9742095609
 20
28.6972298425
 11
-12.0199452976
 21
28.7453238452
  0
LWPOLYLINE
  5
6C1
100
AcDbEntity
  8
0
100
AcDbPolyline
 62
7
  6
CONTINUOUS
 90
3
 70
0
 10
-11.9230641054
 20
27.33857299
 10
-11.9359228549
 20
27.3526365845
 10
-11.9780079395
 20
27.3976345589
  0
LWPOLYLINE
  5
6C2
100
AcDbEntity
  8
0
100
AcDbPolyline
 62
7
  6
CONTINUOUS
 90
4
 70
0
 10
-11.9192808745
 20
28.6378051503
 10
-11.9321358164
 20
28.651972964
 10
-11.9456940268
 20
28.6666205809
 10
-11.9742095609
 20
28.6972298425
  0
LWPOLYLINE
  5
6C3
100
AcDbEntity
  8
0
100
AcDbPolyline
 62
253
  6
CONTINUOUS
 90
25
 70
0
 10
13.0517819335
 20
27.6519684582
 10
13.0510491946
 20
27.6715255789
 10
13.0490318281
 20
27.6909906653
 10
13.0457392418
 20
27.7102801042
 10
13.0411866725
 20
27.7293081351
 10
13.0353942838
 20
27.7479963183
 10
13.0283853362
 20
27.7662733558
 10
13.0201867542
 20
27.7840648125
 10
13.0108344027
 20
27.8012893807
 10
13.0003721057
 20
27.8178686011
 10
12.9888461538
 20
27.8337298102
 10
12.9763050037
 20
27.8488069811
 10
12.9628035562
 20
27.8630368513
 10
12.9483995595
 20
27.8763587725
 10
12.9331547925
 20
27.8887157802
 10
12.9171359502
 20
27.9000560822
 10
12.9004098457
 20
27.9103325187
 10
12.8830495565
 20
27.9195002368
 10
12.8651362466
 20
27.9275189703
 10
12.8467580162
 20
27.9343523238
 10
12.8279829047
 20
27.9399779004
 10
12.808863708
 20
27.944379851
 10
12.7894715722
 20
27.94753717
 10
12.7698974686
 20
27.9494297938
 10
12.750224586
 20
27.9500457817
  0
LWPOLYLINE
  5
6C4
100
AcDbEntity
  8
0
100
AcDbPolyline
 62
253
  6
CONTINUOUS
 90
25
 70
0
 10
13.3515991994
 20
27.6762830578
 10
13.3501489435
 20
27.7157959962
 10
13.3461906404
 20
27.7547946328
 10
13.3397242899
 20
27.793278995
 10
13.3307024104
 20
27.8314029679
 10
13.3191724835
 20
27.8690127152
 10
13.3052769543
 20
27.9056467072
 10
13.2889825089
 20
27.9413015746
 10
13.2703224611
 20
27.9759807893
 10
13.2495391981
 20
28.0092331318
 10
13.2266069688
 20
28.0410364538
 10
13.2015515242
 20
28.0714130422
 10
13.1746925043
 20
28.0999783663
 10
13.146006959
 20
28.1267096689
 10
13.1155178384
 20
28.1516298589
 10
13.0836136321
 20
28.1744229283
 10
13.0502712169
 20
28.1950628795
 10
13.0155137159
 20
28.2135758513
 10
12.9797989894
 20
28.2297240487
 10
12.9431350675
 20
28.2434732454
 10
12.9055139199
 20
28.2548577767
 10
12.8673693164
 20
28.2637426858
 10
12.8288458468
 20
28.2700830077
 10
12.7897989212
 20
28.2739237663
 10
12.7502285397
 20
28.2752649765
  0
LINE
  5
6C5
100
AcDbEntity
  8
0
100
AcDbLine
 62
7
  6
CONTINUOUS
 10
17.41157
 20
-34.989452
 11
17.41157
 21
-35.406117
  0
LINE
  5
6C6
100
AcDbEntity
  8
0
100
AcDbLine
 62
7
  6
CONTINUOUS
 10
17.425177
 20
-31.610297
 11
17.425177
 21
-32.029254
  0
LINE
  5
6C7
100
AcDbEntity
  8
0
100
AcDbLine
 62
7
  6
CONTINUOUS
 10
17.780825
 20
-32.029254
 11
17.780825
 21
-33.091613
  0
LINE
  5
6C8
100
AcDbEntity
  8
0
100
AcDbLine
 62
7
  6
CONTINUOUS
 10
17.780825
 20
-33.607969
 11
17.780825
 21
-34.989452
  0
LINE
  5
6C9
100
AcDbEntity
  8
0
100
AcDbLine
 62
7
  6
CONTINUOUS
 10
18.224704
 20
-34.989452
 11
18.224704
 21
-33.603309
  0
LINE
  5
6CA
100
AcDbEntity
  8
0
100
AcDbLine
 62
7
  6
CONTINUOUS
 10
18.224704
 20
-33.091613
 11
18.224704
 21
-32.029254
  0
LINE
  5
6CB
100
AcDbEntity
  8
0
100
AcDbLine
 62
7
  6
CONTINUOUS
 10
18.519096
 20
33.705734
 11
18.519096
 21
33.193976
  0
LINE
  5
6CC
100
AcDbEntity
  8
0
100
AcDbLine
 62
7
  6
CONTINUOUS
 10
18.580209
 20
-32.029254
 11
18.580209
 21
-31.610297
  0
LINE
  5
6CD
100
AcDbEntity
  8
0
100
AcDbLine
 62
7
  6
CONTINUOUS
 10
18.593816
 20
-35.406117
 11
18.593816
 21
-34.989452
  0
LINE
  5
6CE
100
AcDbEntity
  8
0
100
AcDbLine
 62
7
  6
CONTINUOUS
 10
19.057478
 20
34.646947
 11
19.057478
 21
33.705734
  0
LINE
  5
6CF
100
AcDbEntity
  8
0
100
AcDbLine
 62
7
  6
CONTINUOUS
 10
19.057478
 20
33.193976
 11
19.057478
 21
31.482709
  0
LINE
  5
6D0
100
AcDbEntity
  8
0
100
AcDbLine
 62
7
  6
CONTINUOUS
 10
19.569237
 20
31.482709
 11
19.569237
 21
35.501513
  0
LINE
  5
6D1
100
AcDbEntity
  8
0
100
AcDbLine
 62
7
  6
CONTINUOUS
 10
22.486223
 20
34.334206
 11
22.481503
 21
34.289801
  0
LINE
  5
6D2
100
AcDbEntity
  8
0
100
AcDbLine
 62
7
  6
CONTINUOUS
 10
22.990212
 20
34.231442
 11
22.991541
 21
34.242145
  0
LINE
  5
6D3
100
AcDbEntity
  8
0
100
AcDbLine
 62
7
  6
CONTINUOUS
 10
22.481503
 20
34.289801
 11
22.479308
 21
34.27571
  0
LINE
  5
6D4
100
AcDbEntity
  8
0
100
AcDbLine
 62
7
  6
CONTINUOUS
 10
22.979747
 20
34.16521
 11
22.990212
 21
34.231442
  0
LINE
  5
6D5
100
AcDbEntity
  8
0
100
AcDbLine
 62
7
  6
CONTINUOUS
 10
22.479308
 20
34.27571
 11
22.470236
 21
34.231747
  0
LINE
  5
6D6
100
AcDbEntity
  8
0
100
AcDbLine
 62
7
  6
CONTINUOUS
 10
22.964972
 20
34.098058
 11
22.979747
 21
34.16521
  0
LWPOLYLINE
  5
6D7
100
AcDbEntity
  8
0
100
AcDbPolyline
 62
7
  6
CONTINUOUS
 90
8
 70
0
 10
34.3491403738
 20
28.5516983052
 10
34.351355776
 20
28.5557579317
 10
34.3550867994
 20
28.5616387915
 10
34.3603334442
 20
28.5691359728
 10
34.3672572098
 20
28.5780281126
 10
34.3756965966
 20
28.5881270581
 10
34.3851671063
 20
28.5993068767
 10
34.3956165243
 20
28.6113961839
  0
LWPOLYLINE
  5
6D8
100
AcDbEntity
  8
0
100
AcDbPolyline
 62
7
  6
CONTINUOUS
 90
8
 70
0
 10
34.3509203203
 20
27.9519724288
 10
34.3531364806
 20
27.9559431926
 10
34.356868468
 20
27.9617392909
 10
34.3621162828
 20
27.9691561609
 10
34.3690414742
 20
27.9779728168
 10
34.3774824929
 20
27.9880011311
 10
34.3869546907
 20
27.999114917
 10
34.3974058213
 20
28.0111428961
  0
LINE
  5
6D9
100
AcDbEntity
  8
DRAFT
100
AcDbLine
 62
7
  6
CONTINUOUS
 10
46.6337843117
 20
24.0837843117
 11
46.6602842764
 21
24.1102842764
  0
LINE
  5
6DA
100
AcDbEntity
  8
RACCORDO
100
AcDbLine
 62
253
  6
CONTINUOUS
 10
69.9811508878
 20
42.9311204268
 11
70.050030461
 21
43.0
  0
LINE
  5
6DB
100
AcDbEntity
  8
RACCORDO
100
AcDbLine
 62
253
  6
CONTINUOUS
 10
70.1811204268
 20
42.7311508878
 11
70.25
 21
42.800030461
  0
LINE
  5
6DC
100
AcDbEntity
  8
RACCORDO
100
AcDbLine
 62
253
  6
CONTINUOUS
 10
71.4746076944
 20
43.75183781
 11
71.4204252191
 21
43.7022200374
  0
LINE
  5
6DD
100
AcDbEntity
  8
RACCORDO
100
AcDbLine
 62
253
  6
CONTINUOUS
 10
70.809722946
 20
43.1514681483
 11
70.7500000005
 21
43.0970753753
  0
LINE
  5
6DE
100
AcDbEntity
  8
RACCORDO
100
AcDbLine
 62
253
  6
CONTINUOUS
 10
71.7499999992
 20
44.0006852314
 11
71.4746076944
 21
43.75183781
  0
LINE
  5
6DF
100
AcDbEntity
  8
RACCORDO
100
AcDbLine
 62
253
  6
CONTINUOUS
 10
71.4204252191
 20
43.7022200374
 11
70.809722946
 21
43.1514681483
  0
LINE
  5
6E0
100
AcDbEntity
  8
0
100
AcDbLine
 62
7
  6
CONTINUOUS
 10
-22.2875001431
 20
-34.6957446694
 11
-22.1374998569
 21
-34.5808510661
  0
LINE
  5
6E1
100
AcDbEntity
  8
0
100
AcDbLine
 62
7
  6
CONTINUOUS
 10
-25.5500000358
 20
-34.0063829422
 11
-25.4375000358
 21
-33.9297872066
  0
LINE
  5
6E2
100
AcDbEntity
  8
0
100
AcDbLine
 62
7
  6
CONTINUOUS
 10
-24.8374999642
 20
-34.5425531983
 11
-24.9499999642
 21
-34.6191489339
  0
LINE
  5
6E3
100
AcDbEntity
  8
0
100
AcDbLine
 62
7
  6
CONTINUOUS
 10
-23.8624999285
 20
-34.0063829422
 11
-23.7499999285
 21
-33.9297872066
  0
LINE
  5
6E4
100
AcDbEntity
  8
0
100
AcDbLine
 62
7
  6
CONTINUOUS
 10
-24.9125
 20
-34.8106382728
 11
-24.6875
 21
-34.6574468017
  0
LINE
  5
6E5
100
AcDbEntity
  8
0
100
AcDbLine
 62
7
  6
CONTINUOUS
 10
-23.7875
 20
-34.3893617272
 11
-24.0125
 21
-34.5425531983
  0
LINE
  5
6E6
100
AcDbEntity
  8
0
100
AcDbLine
 62
7
  6
CONTINUOUS
 10
-24.8374999642
 20
-35.193617031
 11
-24.9499999642
 21
-35.2702127665
  0
LINE
  5
6E7
100
AcDbEntity
  8
0
100
AcDbLine
 62
7
  6
CONTINUOUS
 10
-23.8624999285
 20
-34.6574468017
 11
-23.7499999285
 21
-34.5808510661
  0
LINE
  5
6E8
100
AcDbEntity
  8
0
100
AcDbLine
 62
7
  6
CONTINUOUS
 10
-23.1500000715
 20
-35.193617031
 11
-23.2625000715
 21
-35.2702127665
  0
LINE
  5
6E9
100
AcDbEntity
  8
0
100
AcDbLine
 62
7
  6
CONTINUOUS
 10
-21.5000001431
 20
-35.193617031
 11
-21.6125001431
 21
-35.2702127665
  0
LINE
  5
6EA
100
AcDbEntity
  8
0
100
AcDbLine
 62
7
  6
CONTINUOUS
 10
-25.475
 20
-33.7382978678
 11
-25.6625000358
 21
-33.8531914711
  0
LINE
  5
6EB
100
AcDbEntity
  8
0
100
AcDbLine
 62
7
  6
CONTINUOUS
 10
-23.7875
 20
-33.7382978678
 11
-23.9749999285
 21
-33.8531914711
  0
LINE
  5
6EC
100
AcDbEntity
  8
0
100
AcDbLine
 62
7
  6
CONTINUOUS
 10
-24.9125
 20
-35.4617021289
 11
-24.7250000715
 21
-35.3468085155
  0
LINE
  5
6ED
100
AcDbEntity
  8
0
100
AcDbLine
 62
7
  6
CONTINUOUS
 10
-22.1750001431
 20
-34.3893617272
 11
-22.3624998569
 21
-34.5042553306
  0
LINE
  5
6EE
100
AcDbEntity
  8
0
100
AcDbLine
 62
7
  6
CONTINUOUS
 10
-23.225
 20
-35.4617021289
 11
-23.0375000715
 21
-35.3468085155
  0
LINE
  5
6EF
100
AcDbEntity
  8
0
100
AcDbLine
 62
7
  6
CONTINUOUS
 10
-21.5749998569
 20
-35.4617021289
 11
-21.3875001431
 21
-35.3468085155
  0
LINE
  5
6F0
100
AcDbEntity
  8
0
100
AcDbLine
 62
7
  6
CONTINUOUS
 10
-13.0176196936
 20
-24.0
 11
-13.0606909189
 21
-24.0215290512
  0
LINE
  5
6F1
100
AcDbEntity
  8
0
100
AcDbLine
 62
7
  6
CONTINUOUS
 10
-10.4031897244
 20
-24.0265867593
 11
-10.35
 21
-24.0
  0
LINE
  5
6F2
100
AcDbEntity
  8
DRAFT
100
AcDbLine
 62
7
  6
CONTINUOUS
 10
34.6036116509
 20
26.8965183637
 11
34.65
 21
26.9081110346
  0
LINE
  5
6F3
100
AcDbEntity
  8
0
100
AcDbLine
 62
7
  6
CONTINUOUS
 10
32.1360322241
 20
26.9465093858
 11
31.9823803064
 21
26.9081110346
  0
LINE
  5
6F4
100
AcDbEntity
  8
0
100
AcDbLine
 62
7
  6
CONTINUOUS
 10
34.15
 20
28.5
 11
34.3479539454
 21
28.5494696404
  0
LINE
  5
6F5
100
AcDbEntity
  8
DRAFT
100
AcDbLine
 62
7
  6
CONTINUOUS
 10
66.95
 20
17.4
 11
70.25
 21
17.4864135412
  0
LINE
  5
6F6
100
AcDbEntity
  8
DRAFT
100
AcDbLine
 62
7
  6
CONTINUOUS
 10
-66.95
 20
16.6
 11
-70.25
 21
16.5135864588
  0
LINE
  5
6F7
100
AcDbEntity
  8
DRAFT
100
AcDbLine
 62
7
  6
CONTINUOUS
 10
-70.25
 20
14.0
 11
-67.6569219382
 21
14.0
  0
LINE
  5
6F8
100
AcDbEntity
  8
0
100
AcDbLine
 62
7
  6
CONTINUOUS
 10
67.6569219382
 20
14.0
 11
66.95
 21
14.0
  0
LINE
  5
6F9
100
AcDbEntity
  8
0
100
AcDbLine
 62
7
  6
CONTINUOUS
 10
-66.95
 20
14.0
 11
-67.6569219382
 21
14.0
  0
LINE
  5
6FA
100
AcDbEntity
  8
DRAFT
100
AcDbLine
 62
7
  6
CONTINUOUS
 10
67.6569219382
 20
14.0
 11
70.25
 21
14.0
  0
LINE
  5
6FB
100
AcDbEntity
  8
0
100
AcDbLine
 62
7
  6
CONTINUOUS
 10
-45.1043634339
 20
14.0174603847
 11
-46.1252852017
 21
14.0174603847
  0
LINE
  5
6FC
100
AcDbEntity
  8
0
100
AcDbLine
 62
253
  6
CONTINUOUS
 10
-46.0795974464
 20
14.1088637441
 11
-45.1272055718
 21
14.1088637441
  0
LINE
  5
6FD
100
AcDbEntity
  8
0
100
AcDbLine
 62
253
  6
CONTINUOUS
 10
-46.5795212939
 20
14.6085591576
 11
-45.131416724
 21
14.6085591576
  0
LINE
  5
6FE
100
AcDbEntity
  8
0
100
AcDbLine
 62
253
  6
CONTINUOUS
 10
-45.131416724
 20
18.3914408424
 11
-46.5795212939
 21
18.3914408424
  0
LINE
  5
6FF
100
AcDbEntity
  8
0
100
AcDbLine
 62
253
  6
CONTINUOUS
 10
-45.1272055718
 20
18.8911362559
 11
-46.0795974464
 21
18.8911362559
  0
LINE
  5
700
100
AcDbEntity
  8
0
100
AcDbLine
 62
7
  6
CONTINUOUS
 10
46.6250567792
 20
18.9825396153
 11
45.1043634339
 21
18.9825396153
  0
LINE
  5
701
100
AcDbEntity
  8
0
100
AcDbLine
 62
7
  6
CONTINUOUS
 10
45.1
 20
19.0
 11
46.6337843117
 21
19.0
  0
LINE
  5
702
100
AcDbEntity
  8
0
100
AcDbLine
 62
7
  6
CONTINUOUS
 10
-45.1
 20
19.0
 11
-46.1340127341
 21
19.0
  0
LINE
  5
703
100
AcDbEntity
  8
DRAFT
100
AcDbLine
 62
7
  6
CONTINUOUS
 10
-66.95
 20
17.4
 11
-70.25
 21
17.4864135412
  0
LINE
  5
704
100
AcDbEntity
  8
DRAFT
100
AcDbLine
 62
7
  6
CONTINUOUS
 10
70.25
 20
16.5135864588
 11
66.95
 21
16.6
  0
LWPOLYLINE
  5
705
100
AcDbEntity
  8
0
100
AcDbPolyline
 62
7
  6
CONTINUOUS
 90
8
 70
0
 10
-35.5606909189
 20
24.0215290512
 10
-35.5627493649
 20
24.0219786181
 10
-35.566863915
 20
24.0224171053
 10
-35.5730345691
 20
24.0228445129
 10
-35.5813004004
 20
24.0232630397
 10
-35.5916223358
 20
24.0236704869
 10
-35.6038831552
 20
24.0240602574
 10
-35.6344062202
 20
24.024789156
  0
LINE
  5
706
100
AcDbEntity
  8
DRAFT
100
AcDbLine
 62
7
  6
CONTINUOUS
 10
-34.6036116509
 20
26.8965183637
 11
-34.65
 21
26.9081110346
  0
LINE
  5
707
100
AcDbEntity
  8
0
100
AcDbLine
 62
7
  6
CONTINUOUS
 10
-32.1360402013
 20
26.9465113794
 11
-31.9823803064
 21
26.9081110346
  0
LINE
  5
708
100
AcDbEntity
  8
0
100
AcDbLine
 62
7
  6
CONTINUOUS
 10
-34.15
 20
28.5
 11
-34.3479539454
 21
28.5494696404
  0
LWPOLYLINE
  5
709
100
AcDbEntity
  8
RACCORDO
100
AcDbPolyline
 62
7
  6
CONTINUOUS
 90
10
 70
0
 10
70.1317502263
 20
0.4682497737
 10
70.1306851448
 20
0.4685506183
 10
70.1282128782
 20
0.4688448947
 10
70.1243334266
 20
0.469132603
 10
70.119030172
 20
0.4694152992
 10
70.1123197323
 20
0.4696914273
 10
70.1042519616
 20
0.4699563186
 10
70.0947489927
 20
0.4702110263
 10
70.0838886929
 20
0.4704544974
 10
70.05889167
 20
0.4708832347
  0
LINE
  5
70A
100
AcDbEntity
  8
0
100
AcDbLine
 62
7
  6
CONTINUOUS
 10
-13.0176196936
 20
24.0
 11
-13.0606909189
 21
24.0215290512
  0
LINE
  5
70B
100
AcDbEntity
  8
0
100
AcDbLine
 62
7
  6
CONTINUOUS
 10
-10.4031897244
 20
24.0265867593
 11
-10.35
 21
24.0
  0
LWPOLYLINE
  5
70C
100
AcDbEntity
  8
RACCORDO
100
AcDbPolyline
 62
253
  6
CONTINUOUS
 90
3
 70
0
 10
71.6750817902
 20
-43.9331317733
 10
71.7386797081
 20
-43.9901831776
 10
71.7499999997
 20
-44.0006852321
  0
LINE
  5
70D
100
AcDbEntity
  8
RACCORDO
100
AcDbLine
 62
253
  6
CONTINUOUS
 10
71.0049103153
 20
-43.3272963347
 11
71.6750817902
 21
-43.9331317733
  0
LWPOLYLINE
  5
70E
100
AcDbEntity
  8
RACCORDO
100
AcDbPolyline
 62
253
  6
CONTINUOUS
 90
3
 70
0
 10
70.7500000138
 20
-43.0970753868
 10
70.812374385
 20
-43.1539271229
 10
71.0049103153
 20
-43.3272963347
  0
LINE
  5
70F
100
AcDbEntity
  8
DRAFT
100
AcDbLine
 62
7
  6
CONTINUOUS
 10
46.6337843117
 20
-24.0837843117
 11
46.6602842764
 21
-24.1102842764
  0
LINE
  5
710
100
AcDbEntity
  8
RACCORDO
100
AcDbLine
 62
253
  6
CONTINUOUS
 10
69.9811508878
 20
-42.9311204268
 11
70.050030461
 21
-43.0
  0
LINE
  5
711
100
AcDbEntity
  8
RACCORDO
100
AcDbLine
 62
253
  6
CONTINUOUS
 10
70.1811204268
 20
-42.7311508878
 11
70.25
 21
-42.800030461
  0
LWPOLYLINE
  5
712
100
AcDbEntity
  8
0
100
AcDbPolyline
 62
7
  6
CONTINUOUS
 90
9
 70
0
 10
34.3509203203
 20
-27.9519724288
 10
34.3531364806
 20
-27.9559431926
 10
34.3568684681
 20
-27.961739291
 10
34.3621162829
 20
-27.969156161
 10
34.3690414743
 20
-27.9779728169
 10
34.3774824931
 20
-27.9880011313
 10
34.3869546909
 20
-27.9991149172
 10
34.3974058215
 20
-28.0111428964
 10
34.4210737109
 20
-28.0374428793
  0
LWPOLYLINE
  5
713
100
AcDbEntity
  8
0
100
AcDbPolyline
 62
7
  6
CONTINUOUS
 90
9
 70
0
 10
34.3491403738
 20
-28.5516983052
 10
34.351355776
 20
-28.5557579317
 10
34.3550867994
 20
-28.5616387915
 10
34.3603334442
 20
-28.5691359728
 10
34.3672572098
 20
-28.5780281126
 10
34.3756965966
 20
-28.5881270581
 10
34.3851671063
 20
-28.5993068767
 10
34.3956165243
 20
-28.6113961839
 10
34.4192808746
 20
-28.6378051504
  0
LINE
  5
714
100
AcDbEntity
  8
0
100
AcDbLine
 62
7
  6
CONTINUOUS
 10
22.486231
 20
34.420131
 11
22.487743
 21
34.377257
  0
LINE
  5
715
100
AcDbEntity
  8
0
100
AcDbLine
 62
7
  6
CONTINUOUS
 10
22.999636
 20
34.377256
 11
22.997581
 21
34.445433
  0
LINE
  5
716
100
AcDbEntity
  8
0
100
AcDbLine
 62
7
  6
CONTINUOUS
 10
20.096871
 20
35.501513
 11
20.096871
 21
34.989755
  0
LINE
  5
717
100
AcDbEntity
  8
0
100
AcDbLine
 62
7
  6
CONTINUOUS
 10
23.620958
 20
35.513955
 11
23.620958
 21
31.502748
  0
LINE
  5
718
100
AcDbEntity
  8
0
100
AcDbLine
 62
7
  6
CONTINUOUS
 10
24.132716
 20
31.502748
 11
24.132716
 21
35.513955
  0
LINE
  5
719
100
AcDbEntity
  8
0
100
AcDbLine
 62
7
  6
CONTINUOUS
 10
22.997576
 20
34.308826
 11
22.999636
 21
34.377256
  0
LINE
  5
71A
100
AcDbEntity
  8
0
100
AcDbLine
 62
7
  6
CONTINUOUS
 10
22.487743
 20
34.377257
 11
22.486223
 21
34.334206
  0
LINE
  5
71B
100
AcDbEntity
  8
0
100
AcDbLine
 62
7
  6
CONTINUOUS
 10
22.991541
 20
34.242145
 11
22.997576
 21
34.308826
  0
LWPOLYLINE
  5
71C
100
AcDbEntity
  8
0
100
AcDbPolyline
 62
7
  6
CONTINUOUS
 90
10
 70
0
 10
34.3491404373
 20
28.5516984938
 10
34.3490090839
 20
28.5512603378
 10
34.3488775968
 20
28.5508697838
 10
34.348745976
 20
28.5505268316
 10
34.3486142026
 20
28.5502314486
 10
34.3484822955
 20
28.5499836674
 10
34.3483503106
 20
28.5497835863
 10
34.3482182667
 20
28.5496312377
 10
34.3480861449
 20
28.5495265891
 10
34.3479539454
 20
28.5494696404
  0
LINE
  5
71D
100
AcDbEntity
  8
RACCORDO
100
AcDbLine
 62
7
  6
CONTINUOUS
 10
11.6214559154
 20
-36.5357171432
 11
11.6049624612
 21
-36.5852377442
  0
LWPOLYLINE
  5
71E
100
AcDbEntity
  8
0
100
AcDbPolyline
 62
7
  6
CONTINUOUS
 90
8
 70
0
 10
10.647104243
 20
-27.2538445846
 10
10.6448872129
 20
-27.2577118521
 10
10.6411541137
 20
-27.2634092012
 10
10.6359049454
 20
-27.270732478
 10
10.6289781004
 20
-27.2794611391
 10
10.6205351863
 20
-27.2894070896
 10
10.6110610263
 20
-27.3004438474
 10
10.6006079038
 20
-27.3124002606
  0
LWPOLYLINE
  5
71F
100
AcDbEntity
  8
RACCORDO
100
AcDbPolyline
 62
253
  6
CONTINUOUS
 90
3
 70
0
 10
70.9522200255
 20
44.1704252079
 10
70.7928516549
 20
43.9932131127
 10
70.7360295171
 20
43.930622447
  0
LINE
  5
720
100
AcDbEntity
  8
RACCORDO
100
AcDbLine
 62
253
  6
CONTINUOUS
 10
71.2506852308
 20
44.4999999988
 11
71.00183781
 21
44.2246076944
  0
LINE
  5
721
100
AcDbEntity
  8
RACCORDO
100
AcDbLine
 62
253
  6
CONTINUOUS
 10
70.7360295171
 20
43.930622447
 11
70.4014681353
 21
43.559722962
  0
LINE
  5
722
100
AcDbEntity
  8
RACCORDO
100
AcDbLine
 62
253
  6
CONTINUOUS
 10
70.4014681353
 20
43.559722962
 11
70.347075387
 21
43.5000000141
  0
LINE
  5
723
100
AcDbEntity
  8
RACCORDO
100
AcDbLine
 62
253
  6
CONTINUOUS
 10
71.00183781
 20
44.2246076944
 11
70.9522200255
 21
44.1704252079
  0
LINE
  5
724
100
AcDbEntity
  8
RACCORDO
100
AcDbLine
 62
7
  6
CONTINUOUS
 10
-10.8311204268
 20
-42.9311204268
 11
-10.9
 21
-43.0
  0
LINE
  5
725
100
AcDbEntity
  8
0
100
AcDbLine
 62
7
  6
CONTINUOUS
 10
-11.6659565568
 20
-28.5329757668
 11
-11.7046123676
 21
-28.5523022003
  0
LINE
  5
726
100
AcDbEntity
  8
0
100
AcDbLine
 62
7
  6
CONTINUOUS
 10
9.4823803064
 20
-24.0
 11
9.4393090811
 21
-24.0215290512
  0
LINE
  5
727
100
AcDbEntity
  8
0
100
AcDbLine
 62
7
  6
CONTINUOUS
 10
-25.4375000358
 20
-33.9297872066
 11
-25.3250000358
 21
-33.8914893389
  0
LINE
  5
728
100
AcDbEntity
  8
0
100
AcDbLine
 62
7
  6
CONTINUOUS
 10
-23.7499999285
 20
-33.9297872066
 11
-23.6374999285
 21
-33.8914893389
  0
LINE
  5
729
100
AcDbEntity
  8
0
100
AcDbLine
 62
7
  6
CONTINUOUS
 10
-24.9499999642
 20
-34.6191489339
 11
-25.0624999642
 21
-34.6574468017
  0
LINE
  5
72A
100
AcDbEntity
  8
0
100
AcDbLine
 62
7
  6
CONTINUOUS
 10
-23.7499999285
 20
-34.5808510661
 11
-23.6374999285
 21
-34.5425531983
  0
LINE
  5
72B
100
AcDbEntity
  8
0
100
AcDbLine
 62
7
  6
CONTINUOUS
 10
-24.9499999642
 20
-35.2702127665
 11
-25.0624999642
 21
-35.3085106343
  0
LINE
  5
72C
100
AcDbEntity
  8
0
100
AcDbLine
 62
7
  6
CONTINUOUS
 10
-23.2625000715
 20
-35.2702127665
 11
-23.3750000715
 21
-35.3085106343
  0
LINE
  5
72D
100
AcDbEntity
  8
DRAFT
100
AcDbLine
 62
7
  6
CONTINUOUS
 10
12.1036116509
 20
26.8965183637
 11
12.15
 21
26.9081110346
  0
LINE
  5
72E
100
AcDbEntity
  8
0
100
AcDbLine
 62
7
  6
CONTINUOUS
 10
9.6360322241
 20
26.9465093858
 11
9.4823803064
 21
26.9081110346
  0
LINE
  5
72F
100
AcDbEntity
  8
0
100
AcDbLine
 62
7
  6
CONTINUOUS
 10
11.8491462271
 20
28.5497675973
 11
11.65
 21
28.5
  0
LINE
  5
730
100
AcDbEntity
  8
DRAFT
100
AcDbLine
 62
7
  6
CONTINUOUS
 10
46.6157928661
 20
27.5852753877
 11
45.7837534229
 21
27.5402540431
  0
LWPOLYLINE
  5
731
100
AcDbEntity
  8
0
100
AcDbPolyline
 62
7
  6
CONTINUOUS
 90
7
 70
0
 10
35.6038831553
 20
24.0240602574
 10
35.5916223359
 20
24.0236704869
 10
35.5813004005
 20
24.0232630397
 10
35.5730345691
 20
24.0228445129
 10
35.5668639151
 20
24.0224171053
 10
35.562749365
 20
24.0219786181
 10
35.5606909189
 20
24.0215290512
  0
LWPOLYLINE
  5
732
100
AcDbEntity
  8
0
100
AcDbPolyline
 62
7
  6
CONTINUOUS
 90
7
 70
0
 10
13.1038831454
 20
24.0240602571
 10
13.0916223267
 20
24.0236704866
 10
13.0813003937
 20
24.0232630394
 10
13.0730345646
 20
24.0228445126
 10
13.0668639121
 20
24.0224171051
 10
13.0627493636
 20
24.021978618
 10
13.0606909189
 20
24.0215290512
  0
LWPOLYLINE
  5
733
100
AcDbEntity
  8
0
100
AcDbPolyline
 62
7
  6
CONTINUOUS
 90
7
 70
0
 10
-9.3961168464
 20
24.0240602573
 10
-9.408377666
 20
24.0236704868
 10
-9.4186996019
 20
24.0232630396
 10
-9.4269654335
 20
24.0228445127
 10
-9.4331360871
 20
24.0224171052
 10
-9.4372506363
 20
24.021978618
 10
-9.4393090811
 20
24.0215290512
  0
LWPOLYLINE
  5
734
100
AcDbEntity
  8
0
100
AcDbPolyline
 62
7
  6
CONTINUOUS
 90
7
 70
0
 10
-31.8961168447
 20
24.0240602574
 10
-31.9083776641
 20
24.0236704869
 10
-31.9186995995
 20
24.0232630397
 10
-31.9269654309
 20
24.0228445129
 10
-31.9331360849
 20
24.0224171053
 10
-31.937250635
 20
24.0219786181
 10
-31.9393090811
 20
24.0215290512
  0
LINE
  5
735
100
AcDbEntity
  8
DRAFT
100
AcDbLine
 62
7
  6
CONTINUOUS
 10
67.2857171432
 20
23.2785440846
 11
66.2248138762
 21
23.2464697332
  0
LWPOLYLINE
  5
736
100
AcDbEntity
  8
RACCORDO
100
AcDbPolyline
 62
7
  6
CONTINUOUS
 90
8
 70
0
 10
-70.1061216324
 20
24.1088148783
 10
-70.1156296028
 20
24.1085599558
 10
-70.1237022128
 20
24.1082948189
 10
-70.1304174795
 20
24.1080184149
 10
-70.1357247969
 20
24.1077354188
 10
-70.1396072963
 20
24.107447389
 10
-70.1420818463
 20
24.1071527671
 10
-70.1431484469
 20
24.1068515531
  0
LINE
  5
737
100
AcDbEntity
  8
DRAFT
100
AcDbLine
 62
7
  6
CONTINUOUS
 10
-66.95
 20
19.2
 11
-70.25
 21
19.1135864588
  0
LINE
  5
738
100
AcDbEntity
  8
0
100
AcDbLine
 62
7
  6
CONTINUOUS
 10
35.6344062204
 20
24.024789156
 11
35.6038831553
 21
24.0240602574
  0
LINE
  5
739
100
AcDbEntity
  8
0
100
AcDbLine
 62
7
  6
CONTINUOUS
 10
13.1344062165
 20
24.0247891559
 11
13.1038831454
 21
24.0240602571
  0
LINE
  5
73A
100
AcDbEntity
  8
0
100
AcDbLine
 62
7
  6
CONTINUOUS
 10
-9.3655937807
 20
24.024789156
 11
-9.3961168464
 21
24.0240602573
  0
LINE
  5
73B
100
AcDbEntity
  8
0
100
AcDbLine
 62
7
  6
CONTINUOUS
 10
-31.8655937796
 20
24.024789156
 11
-31.8961168447
 21
24.0240602574
  0
LINE
  5
73C
100
AcDbEntity
  8
RACCORDO
100
AcDbLine
 62
7
  6
CONTINUOUS
 10
-70.0833183183
 20
24.1092830887
 11
-70.1061216324
 21
24.1088148783
  0
LINE
  5
73D
100
AcDbEntity
  8
0
100
AcDbLine
 62
7
  6
CONTINUOUS
 10
35.6715725613
 20
24.025415644
 11
35.6344062204
 21
24.024789156
  0
LINE
  5
73E
100
AcDbEntity
  8
0
100
AcDbLine
 62
7
  6
CONTINUOUS
 10
13.1715725682
 20
24.0254156441
 11
13.1344062165
 21
24.0247891559
  0
LINE
  5
73F
100
AcDbEntity
  8
0
100
AcDbLine
 62
7
  6
CONTINUOUS
 10
-9.3284274506
 20
24.0254156439
 11
-9.3655937807
 21
24.024789156
  0
LINE
  5
740
100
AcDbEntity
  8
0
100
AcDbLine
 62
7
  6
CONTINUOUS
 10
-31.8284274387
 20
24.025415644
 11
-31.8655937796
 21
24.024789156
  0
LINE
  5
741
100
AcDbEntity
  8
RACCORDO
100
AcDbLine
 62
7
  6
CONTINUOUS
 10
-70.0561153823
 20
24.109672862
 11
-70.0833183183
 21
24.1092830887
  0
LINE
  5
742
100
AcDbEntity
  8
DRAFT
100
AcDbLine
 62
7
  6
CONTINUOUS
 10
50.0040797367
 20
23.230869448
 11
48.55
 21
23.2162156883
  0
LINE
  5
743
100
AcDbEntity
  8
DRAFT
100
AcDbLine
 62
7
  6
CONTINUOUS
 10
-50.0936030776
 20
24.0682283639
 11
-48.55
 21
24.0837843117
  0
LINE
  5
744
100
AcDbEntity
  8
0
100
AcDbLine
 62
7
  6
CONTINUOUS
 10
35.73712044
 20
24.026123029
 11
35.6715725613
 21
24.025415644
  0
LINE
  5
745
100
AcDbEntity
  8
0
100
AcDbLine
 62
7
  6
CONTINUOUS
 10
13.2371204622
 20
24.0261230292
 11
13.1715725682
 21
24.0254156441
  0
LINE
  5
746
100
AcDbEntity
  8
0
100
AcDbLine
 62
7
  6
CONTINUOUS
 10
-9.2628796012
 20
24.0261230287
 11
-9.3284274506
 21
24.0254156439
  0
LINE
  5
747
100
AcDbEntity
  8
0
100
AcDbLine
 62
7
  6
CONTINUOUS
 10
-31.76287956
 20
24.026123029
 11
-31.8284274387
 21
24.025415644
  0
LINE
  5
748
100
AcDbEntity
  8
RACCORDO
100
AcDbLine
 62
7
  6
CONTINUOUS
 10
-70.0100585485
 20
24.1100829689
 11
-70.0561153823
 21
24.109672862
  0
LINE
  5
749
100
AcDbEntity
  8
0
100
AcDbLine
 62
7
  6
CONTINUOUS
 10
35.8096471554
 20
24.0265105367
 11
35.73712044
 21
24.026123029
  0
LINE
  5
74A
100
AcDbEntity
  8
0
100
AcDbLine
 62
7
  6
CONTINUOUS
 10
13.3096471733
 20
24.0265105367
 11
13.2371204622
 21
24.0261230292
  0
LINE
  5
74B
100
AcDbEntity
  8
0
100
AcDbLine
 62
7
  6
CONTINUOUS
 10
-9.1903528842
 20
24.0265105365
 11
-9.2628796012
 21
24.0261230287
  0
LINE
  5
74C
100
AcDbEntity
  8
0
100
AcDbLine
 62
7
  6
CONTINUOUS
 10
-31.6903528446
 20
24.0265105367
 11
-31.76287956
 21
24.026123029
  0
LINE
  5
74D
100
AcDbEntity
  8
RACCORDO
100
AcDbLine
 62
7
  6
CONTINUOUS
 10
-69.9603691343
 20
24.1102711274
 11
-70.0100585485
 21
24.1100829689
  0
LINE
  5
74E
100
AcDbEntity
  8
DRAFT
100
AcDbLine
 62
7
  6
CONTINUOUS
 10
66.2248138762
 20
23.2464697332
 11
57.2174758758
 21
23.2364588459
  0
LINE
  5
74F
100
AcDbEntity
  8
DRAFT
100
AcDbLine
 62
7
  6
CONTINUOUS
 10
-66.2530264092
 20
24.0526773156
 11
-55.4837200377
 21
24.0642430118
  0
LINE
  5
750
100
AcDbEntity
  8
DRAFT
100
AcDbLine
 62
7
  6
CONTINUOUS
 10
57.2174758758
 20
23.2364588459
 11
50.0040797367
 21
23.230869448
  0
LINE
  5
751
100
AcDbEntity
  8
DRAFT
100
AcDbLine
 62
7
  6
CONTINUOUS
 10
-55.4837200377
 20
24.0642430118
 11
-50.0936030776
 21
24.0682283639
  0
LINE
  5
752
100
AcDbEntity
  8
DRAFT
100
AcDbLine
 62
7
  6
CONTINUOUS
 10
70.25
 20
20.0
 11
67.6569219382
 21
20.0
  0
LINE
  5
753
100
AcDbEntity
  8
0
100
AcDbLine
 62
7
  6
CONTINUOUS
 10
67.6569219382
 20
20.0
 11
66.95
 21
20.0
  0
LINE
  5
754
100
AcDbEntity
  8
0
100
AcDbLine
 62
7
  6
CONTINUOUS
 10
-66.95
 20
20.0
 11
-67.6569219382
 21
20.0
  0
LINE
  5
755
100
AcDbEntity
  8
DRAFT
100
AcDbLine
 62
7
  6
CONTINUOUS
 10
-67.6569219382
 20
20.0
 11
-70.25
 21
20.0
  0
LINE
  5
756
100
AcDbEntity
  8
0
100
AcDbLine
 62
7
  6
CONTINUOUS
 10
44.3010963722
 20
22.5
 11
-44.3010963722
 21
22.5
  0
LINE
  5
757
100
AcDbEntity
  8
DRAFT
100
AcDbLine
 62
253
  6
CONTINUOUS
 10
70.1382521295
 20
22.5871086096
 11
46.6617478705
 21
22.5871086096
  0
LINE
  5
758
100
AcDbEntity
  8
DRAFT
100
AcDbLine
 62
253
  6
CONTINUOUS
 10
-46.6617478705
 20
22.5871086096
 11
-70.1382521295
 21
22.5871086096
  0
LINE
  5
759
100
AcDbEntity
  8
DRAFT
100
AcDbLine
 62
7
  6
CONTINUOUS
 10
70.1388009746
 20
23.1888009746
 11
46.6611990254
 21
23.1888009746
  0
LINE
  5
75A
100
AcDbEntity
  8
DRAFT
100
AcDbLine
 62
7
  6
CONTINUOUS
 10
-46.6611990254
 20
23.1888009746
 11
-70.1388009746
 21
23.1888009746
  0
LINE
  5
75B
100
AcDbEntity
  8
DRAFT
100
AcDbLine
 62
7
  6
CONTINUOUS
 10
46.6337843117
 20
23.2162156883
 11
48.55
 21
23.2162156883
  0
LINE
  5
75C
100
AcDbEntity
  8
DRAFT
100
AcDbLine
 62
7
  6
CONTINUOUS
 10
-46.6337843117
 20
23.2162156883
 11
-48.55
 21
23.2162156883
  0
LINE
  5
75D
100
AcDbEntity
  8
RACCORDO
100
AcDbLine
 62
7
  6
CONTINUOUS
 10
70.25
 20
23.3
 11
67.6348266046
 21
23.3
  0
LINE
  5
75E
100
AcDbEntity
  8
RACCORDO
100
AcDbLine
 62
7
  6
CONTINUOUS
 10
-67.6348266046
 20
23.3
 11
-70.25
 21
23.3
  0
LINE
  5
75F
100
AcDbEntity
  8
RACCORDO
100
AcDbLine
 62
7
  6
CONTINUOUS
 10
-70.25
 20
24.0
 11
-67.6348266046
 21
24.0
  0
LINE
  5
760
100
AcDbEntity
  8
0
100
AcDbLine
 62
7
  6
CONTINUOUS
 10
45.7662156883
 20
24.0
 11
35.5176196936
 21
24.0
  0
LINE
  5
761
100
AcDbEntity
  8
0
100
AcDbLine
 62
7
  6
CONTINUOUS
 10
34.65
 20
24.0
 11
32.85
 21
24.0
  0
LINE
  5
762
100
AcDbEntity
  8
0
100
AcDbLine
 62
7
  6
CONTINUOUS
 10
31.9823803064
 20
24.0
 11
13.0176196936
 21
24.0
  0
LINE
  5
763
100
AcDbEntity
  8
0
100
AcDbLine
 62
7
  6
CONTINUOUS
 10
12.15
 20
24.0
 11
10.35
 21
24.0
  0
LINE
  5
764
100
AcDbEntity
  8
0
100
AcDbLine
 62
7
  6
CONTINUOUS
 10
9.4823803064
 20
24.0
 11
-9.4823803064
 21
24.0
  0
LINE
  5
765
100
AcDbEntity
  8
0
100
AcDbLine
 62
7
  6
CONTINUOUS
 10
-10.35
 20
24.0
 11
-12.15
 21
24.0
  0
LINE
  5
766
100
AcDbEntity
  8
0
100
AcDbLine
 62
7
  6
CONTINUOUS
 10
-13.0176196936
 20
24.0
 11
-31.9823803064
 21
24.0
  0
LINE
  5
767
100
AcDbEntity
  8
0
100
AcDbLine
 62
7
  6
CONTINUOUS
 10
-32.85
 20
24.0
 11
-34.65
 21
24.0
  0
LINE
  5
768
100
AcDbEntity
  8
0
100
AcDbLine
 62
7
  6
CONTINUOUS
 10
-35.5176196936
 20
24.0
 11
-45.85
 21
24.0
  0
LINE
  5
769
100
AcDbEntity
  8
RACCORDO
100
AcDbLine
 62
7
  6
CONTINUOUS
 10
67.6348266046
 20
24.0
 11
70.25
 21
24.0
  0
LINE
  5
76A
100
AcDbEntity
  8
0
100
AcDbLine
 62
7
  6
CONTINUOUS
 10
45.739628929
 20
24.0265867593
 11
35.8096471554
 21
24.0265105367
  0
LINE
  5
76B
100
AcDbEntity
  8
0
100
AcDbLine
 62
7
  6
CONTINUOUS
 10
34.5968102756
 20
24.0265867593
 11
32.9031897244
 21
24.0265867593
  0
LINE
  5
76C
100
AcDbEntity
  8
0
100
AcDbLine
 62
7
  6
CONTINUOUS
 10
12.0968102756
 20
24.0265867593
 11
10.4031897244
 21
24.0265867593
  0
LINE
  5
76D
100
AcDbEntity
  8
0
100
AcDbLine
 62
7
  6
CONTINUOUS
 10
-10.4031897244
 20
24.0265867593
 11
-12.0968102756
 21
24.0265867593
  0
LINE
  5
76E
100
AcDbEntity
  8
0
100
AcDbLine
 62
7
  6
CONTINUOUS
 10
-32.9031897244
 20
24.0265867593
 11
-34.5968102756
 21
24.0265867593
  0
LINE
  5
76F
100
AcDbEntity
  8
DRAFT
100
AcDbLine
 62
7
  6
CONTINUOUS
 10
46.6337843117
 20
24.0837843117
 11
48.55
 21
24.0837843117
  0
LINE
  5
770
100
AcDbEntity
  8
DRAFT
100
AcDbLine
 62
7
  6
CONTINUOUS
 10
-46.6337843117
 20
24.0837843117
 11
-48.55
 21
24.0837843117
  0
LINE
  5
771
100
AcDbEntity
  8
RACCORDO
100
AcDbLine
 62
7
  6
CONTINUOUS
 10
-46.6602842764
 20
24.1102842764
 11
-69.9603691343
 21
24.1102711274
  0
LINE
  5
772
100
AcDbEntity
  8
DRAFT
100
AcDbLine
 62
7
  6
CONTINUOUS
 10
45.7662156883
 20
25.8
 11
46.6337843117
 21
25.8
  0
LINE
  5
773
100
AcDbEntity
  8
DRAFT
100
AcDbLine
 62
7
  6
CONTINUOUS
 10
-45.85
 20
25.8
 11
-46.6337843117
 21
25.8
  0
LINE
  5
774
100
AcDbEntity
  8
0
100
AcDbLine
 62
7
  6
CONTINUOUS
 10
-13.3348195556
 20
24.0265667823
 11
-31.6903528446
 21
24.0265105367
  0
LINE
  5
775
100
AcDbEntity
  8
0
100
AcDbLine
 62
7
  6
CONTINUOUS
 10
9.1651804089
 20
24.0265667825
 11
-9.1903528842
 21
24.0265105365
  0
LINE
  5
776
100
AcDbEntity
  8
0
100
AcDbLine
 62
7
  6
CONTINUOUS
 10
31.665180421
 20
24.0265667824
 11
13.3096471733
 21
24.0265105367
  0
LINE
  5
777
100
AcDbEntity
  8
DRAFT
100
AcDbLine
 62
7
  6
CONTINUOUS
 10
-66.2248138762
 20
23.2464697332
 11
-50.0040797367
 21
23.230869448
  0
LINE
  5
778
100
AcDbEntity
  8
DRAFT
100
AcDbLine
 62
7
  6
CONTINUOUS
 10
66.2530264092
 20
24.0526773156
 11
50.0936030776
 21
24.0682283639
  0
LINE
  5
779
100
AcDbEntity
  8
0
100
AcDbLine
 62
7
  6
CONTINUOUS
 10
-35.785017062
 20
24.0264180221
 11
-45.85
 21
24.0265867593
  0
LINE
  5
77A
100
AcDbEntity
  8
RACCORDO
100
AcDbLine
 62
7
  6
CONTINUOUS
 10
69.9937649269
 20
24.1101706161
 11
46.6602842764
 21
24.1102842764
  0
LINE
  5
77B
100
AcDbEntity
  8
0
100
AcDbLine
 62
7
  6
CONTINUOUS
 10
-13.2607975373
 20
24.0262886597
 11
-13.3348195556
 21
24.0265667823
  0
LINE
  5
77C
100
AcDbEntity
  8
0
100
AcDbLine
 62
7
  6
CONTINUOUS
 10
9.2392023864
 20
24.0262886602
 11
9.1651804089
 21
24.0265667825
  0
LINE
  5
77D
100
AcDbEntity
  8
0
100
AcDbLine
 62
7
  6
CONTINUOUS
 10
31.7392024142
 20
24.02628866
 11
31.665180421
 21
24.0265667824
  0
LINE
  5
77E
100
AcDbEntity
  8
0
100
AcDbLine
 62
7
  6
CONTINUOUS
 10
-35.7143807641
 20
24.0259228651
 11
-35.785017062
 21
24.0264180221
  0
LINE
  5
77F
100
AcDbEntity
  8
RACCORDO
100
AcDbLine
 62
7
  6
CONTINUOUS
 10
70.0413528442
 20
24.1098343171
 11
69.9937649269
 21
24.1101706161
  0
LINE
  5
780
100
AcDbEntity
  8
DRAFT
100
AcDbLine
 62
7
  6
CONTINUOUS
 10
-50.0040797367
 20
23.230869448
 11
-48.55
 21
23.2162156883
  0
LINE
  5
781
100
AcDbEntity
  8
DRAFT
100
AcDbLine
 62
7
  6
CONTINUOUS
 10
50.0936030776
 20
24.0682283639
 11
48.55
 21
24.0837843117
  0
LINE
  5
782
100
AcDbEntity
  8
0
100
AcDbLine
 62
7
  6
CONTINUOUS
 10
-13.1925079048
 20
24.0256865208
 11
-13.2607975373
 21
24.0262886597
  0
LINE
  5
783
100
AcDbEntity
  8
0
100
AcDbLine
 62
7
  6
CONTINUOUS
 10
9.3074920563
 20
24.0256865212
 11
9.2392023864
 21
24.0262886602
  0
LINE
  5
784
100
AcDbEntity
  8
0
100
AcDbLine
 62
7
  6
CONTINUOUS
 10
31.8074920725
 20
24.0256865211
 11
31.7392024142
 21
24.02628866
  0
LINE
  5
785
100
AcDbEntity
  8
0
100
AcDbLine
 62
7
  6
CONTINUOUS
 10
-35.6715725611
 20
24.025415644
 11
-35.7143807641
 21
24.0259228651
  0
LINE
  5
786
100
AcDbEntity
  8
RACCORDO
100
AcDbLine
 62
7
  6
CONTINUOUS
 10
70.0702531835
 20
24.1094875253
 11
70.0413528442
 21
24.1098343171
  0
LINE
  5
787
100
AcDbEntity
  8
0
100
AcDbLine
 62
7
  6
CONTINUOUS
 10
-13.1521816937
 20
24.0251169113
 11
-13.1925079048
 21
24.0256865208
  0
LINE
  5
788
100
AcDbEntity
  8
0
100
AcDbLine
 62
7
  6
CONTINUOUS
 10
9.3478183016
 20
24.0251169114
 11
9.3074920563
 21
24.0256865212
  0
LINE
  5
789
100
AcDbEntity
  8
0
100
AcDbLine
 62
7
  6
CONTINUOUS
 10
31.8478183025
 20
24.0251169114
 11
31.8074920725
 21
24.0256865211
  0
LINE
  5
78A
100
AcDbEntity
  8
0
100
AcDbLine
 62
7
  6
CONTINUOUS
 10
-35.6344062202
 20
24.024789156
 11
-35.6715725611
 21
24.025415644
  0
LINE
  5
78B
100
AcDbEntity
  8
DRAFT
100
AcDbLine
 62
7
  6
CONTINUOUS
 10
70.25
 20
19.1135864588
 11
66.95
 21
19.2
  0
LINE
  5
78C
100
AcDbEntity
  8
DRAFT
100
AcDbLine
 62
7
  6
CONTINUOUS
 10
-67.2857171432
 20
23.2785440846
 11
-66.2248138762
 21
23.2464697332
  0
LINE
  5
78D
100
AcDbEntity
  8
DRAFT
100
AcDbLine
 62
7
  6
CONTINUOUS
 10
-45.85
 20
27.5437164486
 11
-46.6157928661
 21
27.5852753877
  0
LWPOLYLINE
  5
78E
100
AcDbEntity
  8
0
100
AcDbPolyline
 62
7
  6
CONTINUOUS
 90
9
 70
0
 10
-13.0606909189
 20
24.0215290512
 10
-13.0627493637
 20
24.021978618
 10
-13.0668639129
 20
24.0224171052
 10
-13.0730345665
 20
24.0228445127
 10
-13.081300398
 20
24.0232630396
 10
-13.0916223339
 20
24.0236704868
 10
-13.1038831535
 20
24.0240602573
 10
-13.1181752445
 20
24.024433545
 10
-13.1521816937
 20
24.0251169113
  0
LWPOLYLINE
  5
78F
100
AcDbEntity
  8
0
100
AcDbPolyline
 62
7
  6
CONTINUOUS
 90
9
 70
0
 10
9.4393090811
 20
24.0215290512
 10
9.4372506367
 20
24.021978618
 10
9.4331360884
 20
24.0224171051
 10
9.4269654362
 20
24.0228445125
 10
9.4186996076
 20
24.0232630394
 10
9.408377675
 20
24.0236704866
 10
9.3961168564
 20
24.0240602571
 10
9.3818247634
 20
24.0244335448
 10
9.3478183016
 20
24.0251169114
  0
LINE
  5
790
100
AcDbEntity
  8
DRAFT
100
AcDbLine
 62
7
  6
CONTINUOUS
 10
-12.1017905027
 20
26.19606325
 11
-12.15
 21
26.2081110346
  0
LINE
  5
791
100
AcDbEntity
  8
0
100
AcDbLine
 62
7
  6
CONTINUOUS
 10
-9.6360402013
 20
26.2465113794
 11
-9.4823803064
 21
26.2081110346
  0
LINE
  5
792
100
AcDbEntity
  8
0
100
AcDbLine
 62
7
  6
CONTINUOUS
 10
-11.65
 20
28.5
 11
-11.8479539454
 21
28.5494696404
  0
LWPOLYLINE
  5
793
100
AcDbEntity
  8
0
100
AcDbPolyline
 62
7
  6
CONTINUOUS
 90
10
 70
0
 10
-11.8479539454
 20
28.5494696404
 10
-11.8480861449
 20
28.5495265891
 10
-11.8482182667
 20
28.5496312377
 10
-11.8483503106
 20
28.5497835863
 10
-11.8484822944
 20
28.5499836642
 10
-11.8486142004
 20
28.550231442
 10
-11.848745976
 20
28.5505268316
 10
-11.8488776034
 20
28.5508698034
 10
-11.8490091004
 20
28.5512603868
 10
-11.8491404669
 20
28.5516985819
  0
LINE
  5
794
100
AcDbEntity
  8
0
100
AcDbLine
 62
7
  6
CONTINUOUS
 10
9.4823803064
 20
24.0
 11
9.4393090811
 21
24.0215290512
  0
LINE
  5
795
100
AcDbEntity
  8
0
100
AcDbLine
 62
7
  6
CONTINUOUS
 10
-11.6659565568
 20
28.5329757668
 11
-11.6989468165
 21
28.5494696404
  0
LINE
  5
796
100
AcDbEntity
  8
RACCORDO
100
AcDbLine
 62
7
  6
CONTINUOUS
 10
-10.8311204268
 20
42.9311204268
 11
-10.9
 21
43.0
  0
LINE
  5
797
100
AcDbEntity
  8
RACCORDO
100
AcDbLine
 62
253
  6
CONTINUOUS
 10
71.2401831403
 20
-44.4886797087
 11
71.2506852317
 21
-44.4999999994
  0
LINE
  5
798
100
AcDbEntity
  8
RACCORDO
100
AcDbLine
 62
253
  6
CONTINUOUS
 10
70.3470754019
 20
-43.5000000314
 11
70.4039270116
 21
-43.5623744358
  0
LINE
  5
799
100
AcDbEntity
  8
RACCORDO
100
AcDbLine
 62
253
  6
CONTINUOUS
 10
70.4039270116
 20
-43.5623744358
 11
71.183131691
 21
-44.425081794
  0
LINE
  5
79A
100
AcDbEntity
  8
RACCORDO
100
AcDbLine
 62
253
  6
CONTINUOUS
 10
71.183131691
 20
-44.425081794
 11
71.2401831403
 21
-44.4886797087
  0
LWPOLYLINE
  5
79B
100
AcDbEntity
  8
0
100
AcDbPolyline
 62
7
  6
CONTINUOUS
 90
9
 70
0
 10
10.6490796797
 20
27.9519724288
 10
10.6468635194
 20
27.9559431926
 10
10.643131532
 20
27.9617392909
 10
10.6378837172
 20
27.9691561609
 10
10.6309585258
 20
27.9779728168
 10
10.6225175071
 20
27.9880011311
 10
10.6130453093
 20
27.999114917
 10
10.6025941787
 20
28.0111428961
 10
10.5789262893
 20
28.037442879
  0
LWPOLYLINE
  5
79C
100
AcDbEntity
  8
0
100
AcDbPolyline
 62
7
  6
CONTINUOUS
 90
9
 70
0
 10
10.6508596262
 20
28.5516983052
 10
10.648644224
 20
28.5557579317
 10
10.6449132006
 20
28.5616387915
 10
10.6396665558
 20
28.5691359728
 10
10.6327427902
 20
28.5780281126
 10
10.6243034034
 20
28.5881270581
 10
10.6148328936
 20
28.5993068767
 10
10.6043834757
 20
28.6113961839
 10
10.5807191254
 20
28.6378051504
  0
LINE
  5
79D
100
AcDbEntity
  8
RACCORDO
100
AcDbLine
 62
7
  6
CONTINUOUS
 10
11.6214559154
 20
36.5357171432
 11
11.6049624612
 21
36.5852377442
  0
LINE
  5
79E
100
AcDbEntity
  8
0
100
AcDbLine
 62
7
  6
CONTINUOUS
 10
22.481737
 20
34.462145
 11
22.486231
 21
34.420131
  0
LINE
  5
79F
100
AcDbEntity
  8
0
100
AcDbLine
 62
7
  6
CONTINUOUS
 10
22.997581
 20
34.445433
 11
22.991427
 21
34.512887
  0
LWPOLYLINE
  5
7A0
100
AcDbEntity
  8
0
100
AcDbPolyline
 62
253
  6
CONTINUOUS
 90
25
 70
0
 10
31.9482180665
 20
-27.6519684582
 10
31.9489508054
 20
-27.6715255789
 10
31.9509681719
 20
-27.6909906653
 10
31.9542607582
 20
-27.7102801042
 10
31.9588133275
 20
-27.7293081351
 10
31.9646057162
 20
-27.7479963183
 10
31.9716146638
 20
-27.7662733558
 10
31.9798132458
 20
-27.7840648125
 10
31.9891655973
 20
-27.8012893807
 10
31.9996278943
 20
-27.8178686011
 10
32.0111538462
 20
-27.8337298102
 10
32.0236949963
 20
-27.8488069811
 10
32.0371964438
 20
-27.8630368513
 10
32.0516004405
 20
-27.8763587725
 10
32.0668452075
 20
-27.8887157802
 10
32.0828640498
 20
-27.9000560822
 10
32.0995901543
 20
-27.9103325187
 10
32.1169504435
 20
-27.9195002368
 10
32.1348637534
 20
-27.9275189703
 10
32.1532419838
 20
-27.9343523238
 10
32.1720170953
 20
-27.9399779004
 10
32.191136292
 20
-27.944379851
 10
32.2105284278
 20
-27.94753717
 10
32.2301025314
 20
-27.9494297938
 10
32.249775414
 20
-27.9500457817
  0
LWPOLYLINE
  5
7A1
100
AcDbEntity
  8
0
100
AcDbPolyline
 62
253
  6
CONTINUOUS
 90
25
 70
0
 10
31.6484008006
 20
-27.6762830578
 10
31.6498510565
 20
-27.7157959962
 10
31.6538093596
 20
-27.7547946328
 10
31.6602757101
 20
-27.793278995
 10
31.6692975896
 20
-27.8314029679
 10
31.6808275165
 20
-27.8690127152
 10
31.6947230457
 20
-27.9056467072
 10
31.7110174911
 20
-27.9413015746
 10
31.7296775389
 20
-27.9759807893
 10
31.7504608019
 20
-28.0092331318
 10
31.7733930312
 20
-28.0410364538
 10
31.7984484758
 20
-28.0714130422
 10
31.8253074957
 20
-28.0999783663
 10
31.853993041
 20
-28.1267096689
 10
31.8844821616
 20
-28.1516298589
 10
31.9163863679
 20
-28.1744229283
 10
31.9497287831
 20
-28.1950628795
 10
31.9844862841
 20
-28.2135758513
 10
32.0202010106
 20
-28.2297240487
 10
32.0568649325
 20
-28.2434732454
 10
32.0944860801
 20
-28.2548577767
 10
32.1326306836
 20
-28.2637426858
 10
32.1711541532
 20
-28.2700830077
 10
32.2102010788
 20
-28.2739237663
 10
32.2497714603
 20
-28.2752649765
  0
LINE
  5
7A2
100
AcDbEntity
  8
0
100
AcDbLine
 62
253
  6
CONTINUOUS
 10
31.639465667
 20
-24.0265867593
 11
31.6484008006
 21
-27.6762830578
  0
LINE
  5
7A3
100
AcDbEntity
  8
0
100
AcDbLine
 62
253
  6
CONTINUOUS
 10
31.9393090811
 20
-24.0215290512
 11
31.9482180589
 21
-27.6519684658
  0
LINE
  5
7A4
100
AcDbEntity
  8
0
100
AcDbLine
 62
7
  6
CONTINUOUS
 10
26.132446
 20
-36.048037
 11
26.132446
 21
-35.29722
  0
LINE
  5
7A5
100
AcDbEntity
  8
0
100
AcDbLine
 62
7
  6
CONTINUOUS
 10
26.132446
 20
-31.70278
 11
26.132446
 21
-30.951963
  0
LINE
  5
7A6
100
AcDbEntity
  8
0
100
AcDbLine
 62
7
  6
CONTINUOUS
 10
27.60664
 20
35.507272
 11
27.60664
 21
31.502748
  0
LINE
  5
7A7
100
AcDbEntity
  8
0
100
AcDbLine
 62
7
  6
CONTINUOUS
 10
28.118401
 20
32.014506
 11
28.118401
 21
34.995513
  0
LINE
  5
7A8
100
AcDbEntity
  8
0
100
AcDbLine
 62
7
  6
CONTINUOUS
 10
28.695711
 20
33.716214
 11
28.695711
 21
33.205925
  0
LINE
  5
7A9
100
AcDbEntity
  8
0
100
AcDbLine
 62
7
  6
CONTINUOUS
 10
30.117556
 20
-33.875
 11
30.117556
 21
-33.125
  0
LINE
  5
7AA
100
AcDbEntity
  8
0
100
AcDbLine
 62
7
  6
CONTINUOUS
 10
30.24227
 20
33.205925
 11
30.24227
 21
33.716214
  0
LINE
  5
7AB
100
AcDbEntity
  8
0
100
AcDbLine
 62
7
  6
CONTINUOUS
 10
30.313575
 20
34.995513
 11
30.313575
 21
35.507272
  0
LINE
  5
7AC
100
AcDbEntity
  8
0
100
AcDbLine
 62
7
  6
CONTINUOUS
 10
30.345535
 20
31.502748
 11
30.345535
 21
32.014506
  0
LINE
  5
7AD
100
AcDbEntity
  8
0
100
AcDbLine
 62
7
  6
CONTINUOUS
 10
30.517556
 20
-36.0480371177
 11
30.517556
 21
-35.2972169516
  0
LINE
  5
7AE
100
AcDbEntity
  8
0
100
AcDbLine
 62
7
  6
CONTINUOUS
 10
30.517556
 20
-31.70278
 11
30.517556
 21
-30.9519628823
  0
LINE
  5
7AF
100
AcDbEntity
  8
0
100
AcDbLine
 62
7
  6
CONTINUOUS
 10
31.9823803064
 20
26.9081110346
 11
31.9823803064
 21
24.0
  0
LINE
  5
7B0
100
AcDbEntity
  8
0
100
AcDbLine
 62
7
  6
CONTINUOUS
 10
31.9823803064
 20
-24.0
 11
31.9823803064
 21
-26.9081110346
  0
LINE
  5
7B1
100
AcDbEntity
  8
0
100
AcDbLine
 62
7
  6
CONTINUOUS
 10
32.1360402013
 20
27.4641425506
 11
32.1360402013
 21
26.9465113794
  0
LINE
  5
7B2
100
AcDbEntity
  8
0
100
AcDbLine
 62
7
  6
CONTINUOUS
 10
32.1360402013
 20
-26.9465113794
 11
32.1360402013
 21
-27.4641425506
  0
LINE
  5
7B3
100
AcDbEntity
  8
0
100
AcDbLine
 62
253
  6
CONTINUOUS
 10
32.2497714603
 20
28.2752649765
 11
32.2497714603
 21
27.9500457878
  0
LINE
  5
7B4
100
AcDbEntity
  8
0
100
AcDbLine
 62
253
  6
CONTINUOUS
 10
32.2497714603
 20
-28.2752649765
 11
32.2497714603
 21
-27.9500457878
  0
LINE
  5
7B5
100
AcDbEntity
  8
0
100
AcDbLine
 62
253
  6
CONTINUOUS
 10
31.6484008006
 20
27.6762830578
 11
31.639465667
 21
24.0265867593
  0
LINE
  5
7B6
100
AcDbEntity
  8
0
100
AcDbLine
 62
253
  6
CONTINUOUS
 10
31.9482180393
 20
27.651961212
 11
31.9393090811
 21
24.0215290512
  0
LINE
  5
7B7
100
AcDbEntity
  8
RACCORDO
100
AcDbLine
 62
7
  6
CONTINUOUS
 10
45.8285440846
 20
36.5357171432
 11
45.8450375388
 21
36.5852377442
  0
LINE
  5
7B8
100
AcDbEntity
  8
0
100
AcDbLine
 62
7
  6
CONTINUOUS
 10
17.0353241763
 20
-35.2187406859
 11
17.2271209364
 21
-34.8770221132
  0
LWPOLYLINE
  5
7B9
100
AcDbEntity
  8
0
100
AcDbPolyline
 62
7
  6
CONTINUOUS
 90
3
 70
0
 10
10.6006079038
 20
-27.3124002606
 10
10.5769358943
 20
-27.3385729905
 10
10.5640771447
 20
-27.352636585
  0
LINE
  5
7BA
100
AcDbEntity
  8
0
100
AcDbLine
 62
7
  6
CONTINUOUS
 10
10.5640771447
 20
-27.352636585
 11
10.5219920601
 21
-27.3976345594
  0
LINE
  5
7BB
100
AcDbEntity
  8
0
100
AcDbLine
 62
7
  6
CONTINUOUS
 10
10.5219920601
 20
-27.3976345594
 11
10.4762452732
 21
-27.44554571
  0
LINE
  5
7BC
100
AcDbEntity
  8
0
100
AcDbLine
 62
7
  6
CONTINUOUS
 10
10.4762452732
 20
-27.44554571
 11
10.4284098218
 21
-27.4948309013
  0
LWPOLYLINE
  5
7BD
100
AcDbEntity
  8
0
100
AcDbPolyline
 62
7
  6
CONTINUOUS
 90
4
 70
0
 10
10.4284098218
 20
-27.4948309013
 10
10.3800486947
 20
-27.5440061689
 10
10.3640596421
 20
-27.5601221769
 10
10.3481176273
 20
-27.5760193457
  0
LINE
  5
7BE
100
AcDbEntity
  8
0
100
AcDbLine
 62
253
  6
CONTINUOUS
 10
9.9463209205
 20
-27.0534963276
 11
9.7477560399
 21
-27.2520651246
  0
LINE
  5
7BF
100
AcDbEntity
  8
0
100
AcDbLine
 62
7
  6
CONTINUOUS
 10
10.6479348754
 20
-27.2520651246
 11
10.85
 21
-27.05
  0
LINE
  5
7C0
100
AcDbEntity
  8
0
100
AcDbLine
 62
7
  6
CONTINUOUS
 10
12.45
 20
-26.65
 11
12.8641963536
 21
-26.2465093858
  0
LINE
  5
7C1
100
AcDbEntity
  8
0
100
AcDbLine
 62
7
  6
CONTINUOUS
 10
12.0968102756
 20
-24.0265867593
 11
12.15
 21
-24.0
  0
LINE
  5
7C2
100
AcDbEntity
  8
0
100
AcDbLine
 62
7
  6
CONTINUOUS
 10
10.8340344151
 20
-28.5329802805
 11
10.7953876324
 21
-28.5523022003
  0
LINE
  5
7C3
100
AcDbEntity
  8
0
100
AcDbLine
 62
7
  6
CONTINUOUS
 10
22.054764
 20
33.23055
 11
22.111109
 21
33.245159
  0
LINE
  5
7C4
100
AcDbEntity
  8
DRAFT
100
AcDbLine
 62
7
  6
CONTINUOUS
 10
-10.3982094973
 20
26.19606325
 11
-10.35
 21
26.2081110346
  0
LINE
  5
7C5
100
AcDbEntity
  8
0
100
AcDbLine
 62
7
  6
CONTINUOUS
 10
-12.8639677759
 20
26.2465093858
 11
-13.0176196936
 21
26.2081110346
  0
LINE
  5
7C6
100
AcDbEntity
  8
0
100
AcDbLine
 62
7
  6
CONTINUOUS
 10
-10.6508537729
 20
28.5497675973
 11
-10.85
 21
28.5
  0
LINE
  5
7C7
100
AcDbEntity
  8
0
100
AcDbLine
 62
7
  6
CONTINUOUS
 10
21.955314
 20
33.734524
 11
21.900936
 21
33.721027
  0
LINE
  5
7C8
100
AcDbEntity
  8
0
100
AcDbLine
 62
7
  6
CONTINUOUS
 10
21.900936
 20
33.721027
 11
21.843844
 21
33.710274
  0
LINE
  5
7C9
100
AcDbEntity
  8
0
100
AcDbLine
 62
7
  6
CONTINUOUS
 10
21.843844
 20
33.710274
 11
21.783993
 21
33.702401
  0
LWPOLYLINE
  5
7CA
100
AcDbEntity
  8
0
100
AcDbPolyline
 62
7
  6
CONTINUOUS
 90
5
 70
0
 10
11.8491462271
 20
28.5497675973
 10
11.8511995123
 20
28.5499927261
 10
11.8553141706
 20
28.5502123997
 10
11.8614902019
 20
28.550426618
 10
11.8697672838
 20
28.5506365255
  0
LWPOLYLINE
  5
7CB
100
AcDbEntity
  8
0
100
AcDbPolyline
 62
7
  6
CONTINUOUS
 90
5
 70
0
 10
-10.6508537729
 20
28.5497675973
 10
-10.6488004877
 20
28.5499927261
 10
-10.6446858294
 20
28.5502123997
 10
-10.6385097981
 20
28.550426618
 10
-10.6302327162
 20
28.5506365255
  0
LINE
  5
7CC
100
AcDbEntity
  8
0
100
AcDbLine
 62
7
  6
CONTINUOUS
 10
21.783993
 20
33.702401
 11
21.721348
 21
33.697558
  0
LINE
  5
7CD
100
AcDbEntity
  8
0
100
AcDbLine
 62
7
  6
CONTINUOUS
 10
34.95
 20
27.75
 11
35.0536790795
 21
27.7534963276
  0
LINE
  5
7CE
100
AcDbEntity
  8
0
100
AcDbLine
 62
7
  6
CONTINUOUS
 10
12.45
 20
27.75
 11
12.5536790795
 21
27.7534963276
  0
LINE
  5
7CF
100
AcDbEntity
  8
0
100
AcDbLine
 62
7
  6
CONTINUOUS
 10
-10.05
 20
27.05
 11
-9.9463209205
 21
27.0534963276
  0
LWPOLYLINE
  5
7D0
100
AcDbEntity
  8
0
100
AcDbPolyline
 62
253
  6
CONTINUOUS
 90
25
 70
0
 10
-12.7522478765
 20
27.5760193457
 10
-12.7916964862
 20
27.5746917185
 10
-12.8306458472
 20
27.5708683653
 10
-12.8690959597
 20
27.5645492721
 10
-12.9071989279
 20
27.5556895421
 10
-12.9448026475
 20
27.5443340164
 10
-12.9814508056
 20
27.5306172767
 10
-13.0171415492
 20
27.5145067619
 10
-13.0518767314
 20
27.49603493
 10
-13.0852055985
 20
27.4754338874
 10
-13.1171077503
 20
27.4526774635
 10
-13.1476035869
 20
27.4277916949
 10
-13.1763035556
 20
27.4010870063
 10
-13.2031860858
 20
27.3725392609
 10
-13.2282727479
 20
27.3421724512
 10
-13.2512387006
 20
27.310369216
 10
-13.272058418
 20
27.2771046121
 10
-13.2907574258
 20
27.2424034503
 10
-13.3070874602
 20
27.206723037
 10
-13.3210136491
 20
27.1700691232
 10
-13.3325708646
 20
27.1324358607
 10
-13.341615459
 20
27.0942632014
 10
-13.3480995498
 20
27.0556977885
 10
-13.3520710196
 20
27.01659293
 10
-13.3535298682
 20
26.9769485984
  0
LINE
  5
7D1
100
AcDbEntity
  8
0
100
AcDbLine
 62
7
  6
CONTINUOUS
 10
-32.55
 20
27.75
 11
-32.4463209205
 21
27.7534963276
  0
LWPOLYLINE
  5
7D2
100
AcDbEntity
  8
0
100
AcDbPolyline
 62
253
  6
CONTINUOUS
 90
25
 70
0
 10
32.2497714603
 20
28.2752649765
 10
32.2103299293
 20
28.2739382669
 10
32.1713864025
 20
28.2701167543
 10
32.1329408799
 20
28.2638004238
 10
32.0948413026
 20
28.2549445546
 10
32.0572397295
 20
28.243593809
 10
32.0205923377
 20
28.2298822351
 10
31.9849008641
 20
28.2137772573
 10
31.9501635718
 20
28.1953113428
 10
31.9168314273
 20
28.1747161002
 10
31.8849247518
 20
28.1519652876
 10
31.8544232241
 20
28.1270850058
 10
31.8257168473
 20
28.1003853858
 10
31.7988271679
 20
28.071842196
 10
31.7737326393
 20
28.0414795157
 10
31.7507586247
 20
28.0096799648
 10
31.7299306822
 20
27.9764185127
 10
31.7112232538
 20
27.9417200503
 10
31.694885028
 20
27.906042116
 10
31.6809509569
 20
27.8693903596
 10
31.6693860884
 20
27.8317590287
 10
31.6603342553
 20
27.7935886057
 10
31.6538434017
 20
27.75502591
 10
31.6498655835
 20
27.7159240704
 10
31.6484008006
 20
27.6762830578
  0
LWPOLYLINE
  5
7D3
100
AcDbEntity
  8
0
100
AcDbPolyline
 62
253
  6
CONTINUOUS
 90
25
 70
0
 10
9.7497714603
 20
28.2752649765
 10
9.7103299293
 20
28.2739382669
 10
9.6713864025
 20
28.2701167543
 10
9.6329408799
 20
28.2638004238
 10
9.5948413026
 20
28.2549445546
 10
9.5572397295
 20
28.243593809
 10
9.5205923377
 20
28.2298822351
 10
9.4849008641
 20
28.2137772573
 10
9.4501635718
 20
28.1953113428
 10
9.4168314273
 20
28.1747161002
 10
9.3849247518
 20
28.1519652876
 10
9.3544232241
 20
28.1270850058
 10
9.3257168473
 20
28.1003853858
 10
9.2988271679
 20
28.071842196
 10
9.2737326393
 20
28.0414795157
 10
9.2507586247
 20
28.0096799648
 10
9.2299306822
 20
27.9764185127
 10
9.2112232538
 20
27.9417200503
 10
9.194885028
 20
27.906042116
 10
9.1809509569
 20
27.8693903596
 10
9.1693860884
 20
27.8317590287
 10
9.1603342553
 20
27.7935886057
 10
9.1538434017
 20
27.75502591
 10
9.1498655835
 20
27.7159240704
 10
9.1484008006
 20
27.6762830578
  0
LWPOLYLINE
  5
7D4
100
AcDbEntity
  8
0
100
AcDbPolyline
 62
253
  6
CONTINUOUS
 90
25
 70
0
 10
-35.2502285397
 20
28.2752649765
 10
-35.2896700707
 20
28.2739382669
 10
-35.3286135975
 20
28.2701167543
 10
-35.3670591201
 20
28.2638004238
 10
-35.4051586974
 20
28.2549445546
 10
-35.4427602705
 20
28.243593809
 10
-35.4794076623
 20
28.2298822351
 10
-35.5150991359
 20
28.2137772573
 10
-35.5498364282
 20
28.1953113428
 10
-35.5831685727
 20
28.1747161002
 10
-35.6150752482
 20
28.1519652876
 10
-35.6455767759
 20
28.1270850058
 10
-35.6742831527
 20
28.1003853858
 10
-35.7011728321
 20
28.071842196
 10
-35.7262673607
 20
28.0414795157
 10
-35.7492413753
 20
28.0096799648
 10
-35.7700693178
 20
27.9764185127
 10
-35.7887767462
 20
27.9417200503
 10
-35.805114972
 20
27.906042116
 10
-35.8190490431
 20
27.8693903596
 10
-35.8306139116
 20
27.8317590287
 10
-35.8396657447
 20
27.7935886057
 10
-35.8461565983
 20
27.75502591
 10
-35.8501344165
 20
27.7159240704
 10
-35.8515991994
 20
27.6762830578
  0
LWPOLYLINE
  5
7D5
100
AcDbEntity
  8
0
100
AcDbPolyline
 62
253
  6
CONTINUOUS
 90
25
 70
0
 10
32.2497673566
 20
27.9500457941
 10
32.230151584
 20
27.9494329514
 10
32.2106181448
 20
27.9475488383
 10
32.1912500093
 20
27.94440223
 10
32.1721325179
 20
27.9400084884
 10
32.1533434591
 20
27.9343863439
 10
32.1349533957
 20
27.9275555931
 10
32.1170363216
 20
27.9195419883
 10
32.0996738805
 20
27.9103801638
 10
32.0829454605
 20
27.9001096841
 10
32.0669238801
 20
27.8887752407
 10
32.0516761718
 20
27.8764241594
 10
32.0372682673
 20
27.8631075342
 10
32.0237616235
 20
27.8488817232
 10
32.0112146049
 20
27.8338076828
 10
31.9996827667
 20
27.81794933
 10
31.9892144048
 20
27.8013724282
 10
31.9798560042
 20
27.7841499174
 10
31.9716521102
 20
27.7663620059
 10
31.9646403309
 20
27.7480962355
 10
31.9588443231
 20
27.7294212934
 10
31.9542834763
 20
27.71039136
 10
31.9509801517
 20
27.6910784711
 10
31.9489541742
 20
27.6715738137
 10
31.9482180323
 20
27.651961219
  0
LWPOLYLINE
  5
7D6
100
AcDbEntity
  8
0
100
AcDbPolyline
 62
253
  6
CONTINUOUS
 90
25
 70
0
 10
9.7497673566
 20
27.9500457941
 10
9.730151584
 20
27.9494329514
 10
9.7106181448
 20
27.9475488383
 10
9.6912500093
 20
27.94440223
 10
9.6721325179
 20
27.9400084884
 10
9.6533434591
 20
27.9343863439
 10
9.6349533957
 20
27.9275555931
 10
9.6170363216
 20
27.9195419883
 10
9.5996738805
 20
27.9103801638
 10
9.5829454605
 20
27.9001096841
 10
9.5669238801
 20
27.8887752407
 10
9.5516761718
 20
27.8764241594
 10
9.5372682673
 20
27.8631075342
 10
9.5237616235
 20
27.8488817232
 10
9.5112146049
 20
27.8338076828
 10
9.4996827667
 20
27.81794933
 10
9.4892144048
 20
27.8013724282
 10
9.4798560042
 20
27.7841499174
 10
9.4716521102
 20
27.7663620059
 10
9.4646403309
 20
27.7480962355
 10
9.4588443231
 20
27.7294212934
 10
9.4542834763
 20
27.71039136
 10
9.4509801517
 20
27.6910784711
 10
9.4489541742
 20
27.6715738137
 10
9.4482180323
 20
27.651961219
  0
LWPOLYLINE
  5
7D7
100
AcDbEntity
  8
0
100
AcDbPolyline
 62
253
  6
CONTINUOUS
 90
25
 70
0
 10
-12.7522519541
 20
27.2520651307
 10
-12.7718711641
 20
27.2514518615
 10
-12.7914072805
 20
27.2495665257
 10
-12.8107772981
 20
27.2464179718
 10
-12.8298958646
 20
27.2420216257
 10
-12.8486851609
 20
27.2363963033
 10
-12.8670745786
 20
27.2295619202
 10
-12.8849901056
 20
27.2215443208
 10
-12.9023501431
 20
27.2123782218
 10
-12.9190753717
 20
27.2021032994
 10
-12.9350929894
 20
27.1907643297
 10
-12.9503360331
 20
27.1784087016
 10
-12.9647387242
 20
27.1650875678
 10
-12.9782396443
 20
27.1508573404
 10
-12.990780503
 20
27.1357790091
 10
-13.0023059329
 20
27.1199164823
 10
-13.0127676749
 20
27.1033355442
 10
-13.0221193065
 20
27.0861091329
 10
-13.0303164641
 20
27.0683173752
 10
-13.0373215544
 20
27.0500478188
 10
-13.0431109501
 20
27.0313691091
 10
-13.0476653921
 20
27.012335242
 10
-13.0509625231
 20
26.9930181673
 10
-13.052982445
 20
26.9735090994
 10
-13.0537126357
 20
26.953891848
  0
LWPOLYLINE
  5
7D8
100
AcDbEntity
  8
0
100
AcDbPolyline
 62
253
  6
CONTINUOUS
 90
25
 70
0
 10
-35.2502326434
 20
27.9500457941
 10
-35.269848416
 20
27.9494329514
 10
-35.2893818552
 20
27.9475488383
 10
-35.3087499907
 20
27.94440223
 10
-35.3278674821
 20
27.9400084884
 10
-35.3466565409
 20
27.9343863439
 10
-35.3650466043
 20
27.9275555931
 10
-35.3829636784
 20
27.9195419883
 10
-35.4003261195
 20
27.9103801638
 10
-35.4170545395
 20
27.9001096841
 10
-35.4330761199
 20
27.8887752407
 10
-35.4483238282
 20
27.8764241594
 10
-35.4627317327
 20
27.8631075342
 10
-35.4762383765
 20
27.8488817232
 10
-35.4887853951
 20
27.8338076828
 10
-35.5003172333
 20
27.81794933
 10
-35.5107855952
 20
27.8013724282
 10
-35.5201439958
 20
27.7841499174
 10
-35.5283478898
 20
27.7663620059
 10
-35.5353596691
 20
27.7480962355
 10
-35.5411556769
 20
27.7294212934
 10
-35.5457165237
 20
27.71039136
 10
-35.5490198483
 20
27.6910784711
 10
-35.5510458258
 20
27.6715738137
 10
-35.5517819677
 20
27.651961219
  0
LINE
  5
7D9
100
AcDbEntity
  8
DRAFT
100
AcDbLine
 62
7
  6
CONTINUOUS
 10
-67.2857171432
 20
24.0214559154
 11
-66.2530264092
 21
24.0526773156
  0
LINE
  5
7DA
100
AcDbEntity
  8
0
100
AcDbLine
 62
7
  6
CONTINUOUS
 10
11.8697672838
 20
28.5506365255
 11
11.8923865339
 21
28.5510365414
  0
LINE
  5
7DB
100
AcDbEntity
  8
0
100
AcDbLine
 62
7
  6
CONTINUOUS
 10
-10.6302327162
 20
28.5506365255
 11
-10.6076134661
 21
28.5510365414
  0
LINE
  5
7DC
100
AcDbEntity
  8
0
100
AcDbLine
 62
7
  6
CONTINUOUS
 10
11.8923865339
 20
28.5510365414
 11
11.9407639272
 21
28.5515664656
  0
LINE
  5
7DD
100
AcDbEntity
  8
0
100
AcDbLine
 62
7
  6
CONTINUOUS
 10
-10.6076134661
 20
28.5510365414
 11
-10.5592360728
 21
28.5515664656
  0
LWPOLYLINE
  5
7DE
100
AcDbEntity
  8
0
100
AcDbPolyline
 62
253
  6
CONTINUOUS
 90
19
 70
0
 10
35.8515991994
 20
27.6762829804
 10
35.8260302723
 20
27.6761223585
 10
35.8006474158
 20
27.675785931
 10
35.7756353518
 20
27.6752761461
 10
35.7511761037
 20
27.674596714
 10
35.7274476718
 20
27.6737525789
 10
35.7046227382
 20
27.6727498842
 10
35.6828674095
 20
27.6715959268
 10
35.6623400085
 20
27.6702991045
 10
35.643189922
 20
27.6688688549
 10
35.6255565133
 20
27.6673155866
 10
35.6095681081
 20
27.6656506033
 10
35.595341061
 20
27.6638860218
 10
35.5829789081
 20
27.6620346837
 10
35.5725716143
 20
27.660110062
 10
35.5641949178
 20
27.658126163
 10
35.5579097793
 20
27.6560974244
 10
35.5537619385
 20
27.6540386102
 10
35.5517815811
 20
27.6519647032
  0
LWPOLYLINE
  5
7DF
100
AcDbEntity
  8
0
100
AcDbPolyline
 62
253
  6
CONTINUOUS
 90
19
 70
0
 10
13.3515991994
 20
27.6762829804
 10
13.3260302723
 20
27.6761223585
 10
13.3006474158
 20
27.675785931
 10
13.2756353518
 20
27.6752761461
 10
13.2511761037
 20
27.674596714
 10
13.2274476718
 20
27.6737525789
 10
13.2046227382
 20
27.6727498842
 10
13.1828674095
 20
27.6715959268
 10
13.1623400085
 20
27.6702991045
 10
13.143189922
 20
27.6688688549
 10
13.1255565133
 20
27.6673155866
 10
13.1095681081
 20
27.6656506033
 10
13.095341061
 20
27.6638860218
 10
13.0829789081
 20
27.6620346837
 10
13.0725716143
 20
27.660110062
 10
13.0641949178
 20
27.658126163
 10
13.0579097793
 20
27.6560974244
 10
13.0537619385
 20
27.6540386102
 10
13.0517815811
 20
27.6519647032
  0
LWPOLYLINE
  5
7E0
100
AcDbEntity
  8
0
100
AcDbPolyline
 62
253
  6
CONTINUOUS
 90
19
 70
0
 10
-31.6484008006
 20
27.6762829804
 10
-31.6739697277
 20
27.6761223585
 10
-31.6993525842
 20
27.675785931
 10
-31.7243646482
 20
27.6752761461
 10
-31.7488238963
 20
27.674596714
 10
-31.7725523282
 20
27.6737525789
 10
-31.7953772618
 20
27.6727498842
 10
-31.8171325905
 20
27.6715959268
 10
-31.8376599915
 20
27.6702991045
 10
-31.856810078
 20
27.6688688549
 10
-31.8744434867
 20
27.6673155866
 10
-31.8904318919
 20
27.6656506033
 10
-31.904658939
 20
27.6638860218
 10
-31.9170210919
 20
27.6620346837
 10
-31.9274283857
 20
27.660110062
 10
-31.9358050822
 20
27.658126163
 10
-31.9420902207
 20
27.6560974244
 10
-31.9462380615
 20
27.6540386102
 10
-31.9482184189
 20
27.6519647032
  0
LWPOLYLINE
  5
7E1
100
AcDbEntity
  8
0
100
AcDbPolyline
 62
253
  6
CONTINUOUS
 90
19
 70
0
 10
-9.1464701318
 20
26.9769485243
 10
-9.1720388756
 20
26.9767962374
 10
-9.1974215531
 20
26.9764772936
 10
-9.2224334464
 20
26.975994014
 10
-9.2468925361
 20
26.9753499156
 10
-9.2706208257
 20
26.9745496855
 10
-9.2934456368
 20
26.9735991475
 10
-9.3152008663
 20
26.9725052188
 10
-9.3357281942
 20
26.9712758604
 10
-9.3548782369
 20
26.9699200185
 10
-9.3725116334
 20
26.9684475602
 10
-9.3885000599
 20
26.966869201
 10
-9.4027271635
 20
26.965196427
 10
-9.4150894092
 20
26.9634414117
 10
-9.4254968329
 20
26.9616169267
 10
-9.4338736966
 20
26.9597362495
 10
-9.4401590392
 20
26.9578130664
 10
-9.4443071202
 20
26.9558613728
 10
-9.6360402013
 20
26.7641425506
  0
LINE
  5
7E2
100
AcDbEntity
  8
0
100
AcDbLine
 62
7
  6
CONTINUOUS
 10
11.9407639272
 20
28.5515664656
 11
12.0492871171
 21
28.5521528265
  0
LINE
  5
7E3
100
AcDbEntity
  8
0
100
AcDbLine
 62
7
  6
CONTINUOUS
 10
-10.5592360728
 20
28.5515664656
 11
-10.4507128829
 21
28.5521528265
  0
LINE
  5
7E4
100
AcDbEntity
  8
DRAFT
100
AcDbLine
 62
7
  6
CONTINUOUS
 10
-10.3982094973
 20
26.19606325
 11
-12.1017905027
 21
26.19606325
  0
LINE
  5
7E5
100
AcDbEntity
  8
DRAFT
100
AcDbLine
 62
7
  6
CONTINUOUS
 10
-9.4823803064
 20
26.2081110346
 11
-10.35
 21
26.2081110346
  0
LINE
  5
7E6
100
AcDbEntity
  8
DRAFT
100
AcDbLine
 62
7
  6
CONTINUOUS
 10
-12.15
 20
26.2081110346
 11
-13.0176196936
 21
26.2081110346
  0
LINE
  5
7E7
100
AcDbEntity
  8
0
100
AcDbLine
 62
7
  6
CONTINUOUS
 10
-12.8639677759
 20
26.2465093858
 11
-9.6360322241
 21
26.2465093858
  0
LINE
  5
7E8
100
AcDbEntity
  8
0
100
AcDbLine
 62
7
  6
CONTINUOUS
 10
-12.45
 20
26.65
 11
-10.05
 21
26.65
  0
LINE
  5
7E9
100
AcDbEntity
  8
DRAFT
100
AcDbLine
 62
7
  6
CONTINUOUS
 10
34.6036116509
 20
26.8965183637
 11
32.8963883491
 21
26.8965183637
  0
LINE
  5
7EA
100
AcDbEntity
  8
DRAFT
100
AcDbLine
 62
7
  6
CONTINUOUS
 10
12.1036116509
 20
26.8965183637
 11
10.3963883491
 21
26.8965183637
  0
LINE
  5
7EB
100
AcDbEntity
  8
DRAFT
100
AcDbLine
 62
7
  6
CONTINUOUS
 10
-32.8963883491
 20
26.8965183637
 11
-34.6036116509
 21
26.8965183637
  0
LINE
  5
7EC
100
AcDbEntity
  8
DRAFT
100
AcDbLine
 62
7
  6
CONTINUOUS
 10
35.5176196936
 20
26.9081110346
 11
34.65
 21
26.9081110346
  0
LINE
  5
7ED
100
AcDbEntity
  8
DRAFT
100
AcDbLine
 62
7
  6
CONTINUOUS
 10
32.85
 20
26.9081110346
 11
31.9823803064
 21
26.9081110346
  0
LINE
  5
7EE
100
AcDbEntity
  8
DRAFT
100
AcDbLine
 62
7
  6
CONTINUOUS
 10
13.0176196936
 20
26.9081110346
 11
12.15
 21
26.9081110346
  0
LINE
  5
7EF
100
AcDbEntity
  8
DRAFT
100
AcDbLine
 62
7
  6
CONTINUOUS
 10
10.35
 20
26.9081110346
 11
9.4823803064
 21
26.9081110346
  0
LINE
  5
7F0
100
AcDbEntity
  8
DRAFT
100
AcDbLine
 62
7
  6
CONTINUOUS
 10
-31.9823803064
 20
26.9081110346
 11
-32.85
 21
26.9081110346
  0
LINE
  5
7F1
100
AcDbEntity
  8
DRAFT
100
AcDbLine
 62
7
  6
CONTINUOUS
 10
-34.65
 20
26.9081110346
 11
-35.5176196936
 21
26.9081110346
  0
LINE
  5
7F2
100
AcDbEntity
  8
0
100
AcDbLine
 62
7
  6
CONTINUOUS
 10
-35.3639677759
 20
26.9465093858
 11
-32.1360322241
 21
26.9465093858
  0
LINE
  5
7F3
100
AcDbEntity
  8
0
100
AcDbLine
 62
7
  6
CONTINUOUS
 10
9.6360322241
 20
26.9465093858
 11
12.8639677759
 21
26.9465093858
  0
LINE
  5
7F4
100
AcDbEntity
  8
0
100
AcDbLine
 62
7
  6
CONTINUOUS
 10
32.1360322241
 20
26.9465093858
 11
35.3639677759
 21
26.9465093858
  0
LINE
  5
7F5
100
AcDbEntity
  8
0
100
AcDbLine
 62
7
  6
CONTINUOUS
 10
-12.45
 20
27.05
 11
-11.65
 21
27.05
  0
LINE
  5
7F6
100
AcDbEntity
  8
0
100
AcDbLine
 62
7
  6
CONTINUOUS
 10
-10.85
 20
27.05
 11
-10.05
 21
27.05
  0
LINE
  5
7F7
100
AcDbEntity
  8
0
100
AcDbLine
 62
253
  6
CONTINUOUS
 10
-9.7477560399
 20
27.2520651246
 11
-10.6479348754
 21
27.2520651246
  0
LINE
  5
7F8
100
AcDbEntity
  8
0
100
AcDbLine
 62
253
  6
CONTINUOUS
 10
-11.8520651246
 20
27.2520651246
 11
-12.752251948
 21
27.2520651246
  0
LINE
  5
7F9
100
AcDbEntity
  8
0
100
AcDbLine
 62
7
  6
CONTINUOUS
 10
-34.95
 20
27.35
 11
-32.55
 21
27.35
  0
LINE
  5
7FA
100
AcDbEntity
  8
0
100
AcDbLine
 62
7
  6
CONTINUOUS
 10
10.05
 20
27.35
 11
12.45
 21
27.35
  0
LINE
  5
7FB
100
AcDbEntity
  8
0
100
AcDbLine
 62
7
  6
CONTINUOUS
 10
32.55
 20
27.35
 11
34.95
 21
27.35
  0
LINE
  5
7FC
100
AcDbEntity
  8
0
100
AcDbLine
 62
253
  6
CONTINUOUS
 10
-9.7477521235
 20
27.5760193457
 11
-10.3481176273
 21
27.5760193457
  0
LINE
  5
7FD
100
AcDbEntity
  8
0
100
AcDbLine
 62
253
  6
CONTINUOUS
 10
-12.1518823727
 20
27.5760193457
 11
-12.7522478765
 21
27.5760193457
  0
LINE
  5
7FE
100
AcDbEntity
  8
0
100
AcDbLine
 62
7
  6
CONTINUOUS
 10
-34.95
 20
27.75
 11
-34.15
 21
27.75
  0
LINE
  5
7FF
100
AcDbEntity
  8
0
100
AcDbLine
 62
7
  6
CONTINUOUS
 10
34.95
 20
27.75
 11
34.15
 21
27.75
  0
LINE
  5
800
100
AcDbEntity
  8
0
100
AcDbLine
 62
7
  6
CONTINUOUS
 10
-33.35
 20
27.75
 11
-32.55
 21
27.75
  0
LINE
  5
801
100
AcDbEntity
  8
0
100
AcDbLine
 62
7
  6
CONTINUOUS
 10
33.35
 20
27.75
 11
32.55
 21
27.75
  0
LINE
  5
802
100
AcDbEntity
  8
0
100
AcDbLine
 62
7
  6
CONTINUOUS
 10
10.05
 20
27.75
 11
10.85
 21
27.75
  0
LINE
  5
803
100
AcDbEntity
  8
0
100
AcDbLine
 62
7
  6
CONTINUOUS
 10
11.65
 20
27.75
 11
12.45
 21
27.75
  0
LINE
  5
804
100
AcDbEntity
  8
0
100
AcDbLine
 62
253
  6
CONTINUOUS
 10
35.2502245921
 20
27.9500457878
 11
34.3500457878
 21
27.9500457878
  0
LINE
  5
805
100
AcDbEntity
  8
0
100
AcDbLine
 62
253
  6
CONTINUOUS
 10
33.1499542122
 20
27.9500457878
 11
32.249767363
 21
27.9500457878
  0
LINE
  5
806
100
AcDbEntity
  8
0
100
AcDbLine
 62
253
  6
CONTINUOUS
 10
12.7502245921
 20
27.9500457878
 11
11.8500457878
 21
27.9500457878
  0
LINE
  5
807
100
AcDbEntity
  8
0
100
AcDbLine
 62
253
  6
CONTINUOUS
 10
10.6499542122
 20
27.9500457878
 11
9.749767363
 21
27.9500457878
  0
LINE
  5
808
100
AcDbEntity
  8
0
100
AcDbLine
 62
253
  6
CONTINUOUS
 10
-32.2497754079
 20
27.9500457878
 11
-33.1499542122
 21
27.9500457878
  0
LINE
  5
809
100
AcDbEntity
  8
0
100
AcDbLine
 62
253
  6
CONTINUOUS
 10
-34.3500457878
 20
27.9500457878
 11
-35.250232637
 21
27.9500457878
  0
LINE
  5
80A
100
AcDbEntity
  8
0
100
AcDbLine
 62
253
  6
CONTINUOUS
 10
35.2502285397
 20
28.2752649765
 11
34.649863036
 21
28.2752649765
  0
LINE
  5
80B
100
AcDbEntity
  8
0
100
AcDbLine
 62
253
  6
CONTINUOUS
 10
32.850136964
 20
28.2752649765
 11
32.2497714603
 21
28.2752649765
  0
LINE
  5
80C
100
AcDbEntity
  8
0
100
AcDbLine
 62
253
  6
CONTINUOUS
 10
12.7502285397
 20
28.2752649765
 11
12.149863036
 21
28.2752649765
  0
LINE
  5
80D
100
AcDbEntity
  8
0
100
AcDbLine
 62
253
  6
CONTINUOUS
 10
10.350136964
 20
28.2752649765
 11
9.7497714603
 21
28.2752649765
  0
LINE
  5
80E
100
AcDbEntity
  8
0
100
AcDbLine
 62
253
  6
CONTINUOUS
 10
-32.2497714603
 20
28.2752649765
 11
-32.850136964
 21
28.2752649765
  0
LINE
  5
80F
100
AcDbEntity
  8
0
100
AcDbLine
 62
253
  6
CONTINUOUS
 10
-34.649863036
 20
28.2752649765
 11
-35.2502285397
 21
28.2752649765
  0
LINE
  5
810
100
AcDbEntity
  8
DRAFT
100
AcDbLine
 62
7
  6
CONTINUOUS
 10
-34.15
 20
28.5
 11
-33.35
 21
28.5
  0
LINE
  5
811
100
AcDbEntity
  8
0
100
AcDbLine
 62
7
  6
CONTINUOUS
 10
11.65
 20
28.5
 11
10.85
 21
28.5
  0
LINE
  5
812
100
AcDbEntity
  8
0
100
AcDbLine
 62
7
  6
CONTINUOUS
 10
-10.85
 20
28.5
 11
-11.65
 21
28.5
  0
LINE
  5
813
100
AcDbEntity
  8
DRAFT
100
AcDbLine
 62
7
  6
CONTINUOUS
 10
33.35
 20
28.5
 11
34.15
 21
28.5
  0
LINE
  5
814
100
AcDbEntity
  8
0
100
AcDbLine
 62
7
  6
CONTINUOUS
 10
11.6659565568
 20
28.5329757668
 11
10.8340344151
 21
28.5329802805
  0
LINE
  5
815
100
AcDbEntity
  8
0
100
AcDbLine
 62
7
  6
CONTINUOUS
 10
-10.8340344151
 20
28.5329802805
 11
-11.6659565568
 21
28.5329757668
  0
LINE
  5
816
100
AcDbEntity
  8
0
100
AcDbLine
 62
7
  6
CONTINUOUS
 10
-34.3479539454
 20
28.5494696404
 11
-33.1520460546
 21
28.5494696404
  0
LINE
  5
817
100
AcDbEntity
  8
0
100
AcDbLine
 62
7
  6
CONTINUOUS
 10
10.8010531835
 20
28.5494696404
 11
10.6520460546
 21
28.5494696404
  0
LINE
  5
818
100
AcDbEntity
  8
0
100
AcDbLine
 62
7
  6
CONTINUOUS
 10
-11.6989468165
 20
28.5494696404
 11
-11.8479539454
 21
28.5494696404
  0
LINE
  5
819
100
AcDbEntity
  8
0
100
AcDbLine
 62
7
  6
CONTINUOUS
 10
33.1520460546
 20
28.5494696404
 11
34.3479539454
 21
28.5494696404
  0
LINE
  5
81A
100
AcDbEntity
  8
0
100
AcDbLine
 62
7
  6
CONTINUOUS
 10
-10.7953876324
 20
28.5523022003
 11
-10.3509657419
 21
28.5523022003
  0
LINE
  5
81B
100
AcDbEntity
  8
0
100
AcDbLine
 62
7
  6
CONTINUOUS
 10
11.7046123676
 20
28.5523022003
 11
12.1490342581
 21
28.5523022003
  0
LINE
  5
81C
100
AcDbEntity
  8
0
100
AcDbLine
 62
253
  6
CONTINUOUS
 10
-34.6480453875
 20
28.8759468191
 11
-32.8519546125
 21
28.8759468191
  0
LINE
  5
81D
100
AcDbEntity
  8
0
100
AcDbLine
 62
253
  6
CONTINUOUS
 10
10.7958828128
 20
28.8759468191
 11
10.3519546125
 21
28.8759468191
  0
LINE
  5
81E
100
AcDbEntity
  8
0
100
AcDbLine
 62
253
  6
CONTINUOUS
 10
-11.7041171872
 20
28.8759468191
 11
-12.1480453875
 21
28.8759468191
  0
LINE
  5
81F
100
AcDbEntity
  8
0
100
AcDbLine
 62
253
  6
CONTINUOUS
 10
32.8519546125
 20
28.8759468191
 11
34.6480453875
 21
28.8759468191
  0
LINE
  5
820
100
AcDbEntity
  8
0
100
AcDbLine
 62
7
  6
CONTINUOUS
 10
15.654465
 20
31.482709
 11
16.330121
 21
31.482709
  0
LINE
  5
821
100
AcDbEntity
  8
0
100
AcDbLine
 62
7
  6
CONTINUOUS
 10
19.057478
 20
31.482709
 11
19.569237
 21
31.482709
  0
LINE
  5
822
100
AcDbEntity
  8
0
100
AcDbLine
 62
7
  6
CONTINUOUS
 10
22.383461
 20
31.502748
 11
22.961415
 21
31.502748
  0
LINE
  5
823
100
AcDbEntity
  8
0
100
AcDbLine
 62
7
  6
CONTINUOUS
 10
23.620958
 20
31.502748
 11
24.132716
 21
31.502748
  0
LINE
  5
824
100
AcDbEntity
  8
0
100
AcDbLine
 62
7
  6
CONTINUOUS
 10
26.355325
 20
31.502748
 11
27.079006
 21
31.502748
  0
LINE
  5
825
100
AcDbEntity
  8
0
100
AcDbLine
 62
7
  6
CONTINUOUS
 10
27.60664
 20
31.502748
 11
30.345535
 21
31.502748
  0
LINE
  5
826
100
AcDbEntity
  8
0
100
AcDbLine
 62
7
  6
CONTINUOUS
 10
-29.610415
 20
31.612597
 11
-28.874698
 21
31.612597
  0
LINE
  5
827
100
AcDbEntity
  8
0
100
AcDbLine
 62
7
  6
CONTINUOUS
 10
-27.279278
 20
31.612597
 11
-26.444423
 21
31.612597
  0
LINE
  5
828
100
AcDbEntity
  8
0
100
AcDbLine
 62
7
  6
CONTINUOUS
 10
-25.994994
 20
31.612597
 11
-25.19631
 21
31.612597
  0
LINE
  5
829
100
AcDbEntity
  8
0
100
AcDbLine
 62
7
  6
CONTINUOUS
 10
-24.036762
 20
31.612597
 11
-23.919674
 21
31.612597
  0
LINE
  5
82A
100
AcDbEntity
  8
0
100
AcDbLine
 62
7
  6
CONTINUOUS
 10
-22.755507
 20
31.612597
 11
-21.938797
 21
31.612597
  0
LINE
  5
82B
100
AcDbEntity
  8
0
100
AcDbLine
 62
7
  6
CONTINUOUS
 10
-21.807703
 20
31.612597
 11
-20.981905
 21
31.612597
  0
LINE
  5
82C
100
AcDbEntity
  8
0
100
AcDbLine
 62
7
  6
CONTINUOUS
 10
-19.398332
 20
31.612597
 11
-18.518429
 21
31.612597
  0
LINE
  5
82D
100
AcDbEntity
  8
0
100
AcDbLine
 62
7
  6
CONTINUOUS
 10
-18.2732753198
 20
31.6125968881
 11
-17.4417794088
 21
31.6125968881
  0
LINE
  5
82E
100
AcDbEntity
  8
0
100
AcDbLine
 62
7
  6
CONTINUOUS
 10
-16.1633139566
 20
31.6125968881
 11
-15.3602803749
 21
31.6125968881
  0
LINE
  5
82F
100
AcDbEntity
  8
0
100
AcDbLine
 62
7
  6
CONTINUOUS
 10
30.345535
 20
32.014506
 11
28.118401
 21
32.014506
  0
LWPOLYLINE
  5
830
100
AcDbEntity
  8
0
100
AcDbPolyline
 62
253
  6
CONTINUOUS
 90
18
 70
0
 10
-13.3535298682
 20
26.9769485984
 10
-13.3279611342
 20
26.9767963061
 10
-13.3025784714
 20
26.9764773571
 10
-13.2775665968
 20
26.9759940723
 10
-13.2531075293
 20
26.9753499688
 10
-13.2293792647
 20
26.9745497339
 10
-13.2065544804
 20
26.9735991911
 10
-13.1847992793
 20
26.9725052578
 10
-13.1642719802
 20
26.971275895
 10
-13.1451219664
 20
26.9699200489
 10
-13.1274885982
 20
26.9684475866
 10
-13.1115001987
 20
26.9668692235
 10
-13.0972731202
 20
26.965196446
 10
-13.0849108973
 20
26.9634414271
 10
-13.0745034937
 20
26.9616169388
 10
-13.0661266469
 20
26.9597362585
 10
-13.0598413179
 20
26.9578130722
 10
-13.0556932467
 20
26.9558613757
  0
LWPOLYLINE
  5
831
100
AcDbEntity
  8
0
100
AcDbPolyline
 62
253
  6
CONTINUOUS
 90
19
 70
0
 10
-35.8515991994
 20
27.6762830578
 10
-35.826030282
 20
27.6761224303
 10
-35.8006474401
 20
27.6757859972
 10
-35.7756353947
 20
27.675276207
 10
-35.7511761686
 20
27.6745967696
 10
-35.7274477615
 20
27.6737526294
 10
-35.7046228546
 20
27.6727499297
 10
-35.6828675539
 20
27.6715959675
 10
-35.6623401817
 20
27.6702991407
 10
-35.6431901239
 20
27.6688688867
 10
-35.6255567431
 20
27.6673156142
 10
-35.6095683647
 20
27.6656506269
 10
-35.5953413425
 20
27.6638860416
 10
-35.5829792124
 20
27.6620346998
 10
-35.5725719385
 20
27.6601100747
 10
-35.5641952588
 20
27.6581261724
 10
-35.5579101337
 20
27.6560974305
 10
-35.5537623027
 20
27.6540386132
 10
-35.5517819513
 20
27.6519647032
  0
LWPOLYLINE
  5
832
100
AcDbEntity
  8
0
100
AcDbPolyline
 62
253
  6
CONTINUOUS
 90
19
 70
0
 10
9.1484008006
 20
27.6762830578
 10
9.173969718
 20
27.6761224303
 10
9.1993525599
 20
27.6757859972
 10
9.2243646053
 20
27.675276207
 10
9.2488238314
 20
27.6745967696
 10
9.2725522385
 20
27.6737526294
 10
9.2953771455
 20
27.6727499297
 10
9.3171324461
 20
27.6715959675
 10
9.3376598183
 20
27.6702991407
 10
9.3568098761
 20
27.6688688867
 10
9.3744432569
 20
27.6673156142
 10
9.3904316353
 20
27.6656506269
 10
9.4046586575
 20
27.6638860416
 10
9.4170207876
 20
27.6620346998
 10
9.4274280615
 20
27.6601100747
 10
9.4358047412
 20
27.6581261724
 10
9.4420898663
 20
27.6560974305
 10
9.4462376973
 20
27.6540386132
 10
9.4482180487
 20
27.6519647032
  0
LWPOLYLINE
  5
833
100
AcDbEntity
  8
0
100
AcDbPolyline
 62
253
  6
CONTINUOUS
 90
19
 70
0
 10
31.6484008006
 20
27.6762830578
 10
31.673969718
 20
27.6761224303
 10
31.6993525599
 20
27.6757859972
 10
31.7243646053
 20
27.675276207
 10
31.7488238314
 20
27.6745967696
 10
31.7725522385
 20
27.6737526294
 10
31.7953771454
 20
27.6727499297
 10
31.8171324461
 20
27.6715959675
 10
31.8376598183
 20
27.6702991407
 10
31.8568098761
 20
27.6688688867
 10
31.8744432569
 20
27.6673156142
 10
31.8904316353
 20
27.6656506269
 10
31.9046586575
 20
27.6638860416
 10
31.9170207876
 20
27.6620346998
 10
31.9274280615
 20
27.6601100747
 10
31.9358047412
 20
27.6581261724
 10
31.9420898663
 20
27.6560974305
 10
31.9462376973
 20
27.6540386132
 10
31.9482180487
 20
27.6519647032
  0
LINE
  5
834
100
AcDbEntity
  8
DRAFT
100
AcDbLine
 62
7
  6
CONTINUOUS
 10
67.2857171432
 20
24.0214559154
 11
66.2530264092
 21
24.0526773156
  0
LINE
  5
835
100
AcDbEntity
  8
0
100
AcDbLine
 62
7
  6
CONTINUOUS
 10
-35.0536790795
 20
27.7534963276
 11
-34.95
 21
27.75
  0
LINE
  5
836
100
AcDbEntity
  8
0
100
AcDbLine
 62
7
  6
CONTINUOUS
 10
-12.5536790795
 20
27.0534963276
 11
-12.45
 21
27.05
  0
LINE
  5
837
100
AcDbEntity
  8
0
100
AcDbLine
 62
7
  6
CONTINUOUS
 10
9.9463209205
 20
27.7534963276
 11
10.05
 21
27.75
  0
LINE
  5
838
100
AcDbEntity
  8
0
100
AcDbLine
 62
7
  6
CONTINUOUS
 10
32.4463209205
 20
27.7534963276
 11
32.55
 21
27.75
  0
LWPOLYLINE
  5
839
100
AcDbEntity
  8
0
100
AcDbPolyline
 62
7
  6
CONTINUOUS
 90
22
 70
0
 10
-16.8154282111
 20
34.9542962966
 10
-16.7778186186
 20
34.9486210126
 10
-16.7410983455
 20
34.9407341777
 10
-16.7052673916
 20
34.9306357516
 10
-16.6701415634
 20
34.9182626196
 10
-16.6359050544
 20
34.9036777813
 10
-16.6031104458
 20
34.8870703578
 10
-16.5718105745
 20
34.8684838656
 10
-16.5419526036
 20
34.8478746266
 10
-16.513930603
 20
34.8253009653
 10
-16.4877369474
 20
34.8005611465
 10
-16.4633792622
 20
34.7738566866
 10
-16.4412744933
 20
34.7458508178
 10
-16.4215886334
 20
34.7166196956
 10
-16.4041556898
 20
34.6860869998
 10
-16.388894631
 20
34.6546873142
 10
-16.3757394022
 20
34.6223790394
 10
-16.3647560582
 20
34.58920365
 10
-16.3560617314
 20
34.5557204094
 10
-16.349695466
 20
34.5221157429
 10
-16.3456182179
 20
34.4882031909
 10
-16.343829987
 20
34.4539827314
  0
LWPOLYLINE
  5
83A
100
AcDbEntity
  8
0
100
AcDbPolyline
 62
7
  6
CONTINUOUS
 90
9
 70
0
 10
31.9393090811
 20
24.0215290512
 10
31.9372506351
 20
24.0219786181
 10
31.933136085
 20
24.0224171053
 10
31.9269654309
 20
24.0228445129
 10
31.9186995996
 20
24.0232630397
 10
31.9083776642
 20
24.0236704869
 10
31.8961168448
 20
24.0240602574
 10
31.8818247543
 20
24.0244335451
 10
31.8478183025
 20
24.0251169114
  0
LINE
  5
83B
100
AcDbEntity
  8
DRAFT
100
AcDbLine
 62
7
  6
CONTINUOUS
 10
10.3963883491
 20
26.8965183637
 11
10.35
 21
26.9081110346
  0
LINE
  5
83C
100
AcDbEntity
  8
0
100
AcDbLine
 62
7
  6
CONTINUOUS
 10
12.8639597987
 20
26.9465113794
 11
13.0176196936
 21
26.9081110346
  0
LINE
  5
83D
100
AcDbEntity
  8
0
100
AcDbLine
 62
7
  6
CONTINUOUS
 10
10.85
 20
28.5
 11
10.6520460546
 21
28.5494696404
  0
LWPOLYLINE
  5
83E
100
AcDbEntity
  8
0
100
AcDbPolyline
 62
7
  6
CONTINUOUS
 90
28
 70
0
 10
-16.2120995634
 20
35.5229543863
 10
-16.2814907407
 20
35.5459994726
 10
-16.3516755809
 20
35.5665962034
 10
-16.422654084
 20
35.584744698
 10
-16.4946110766
 20
35.6002542957
 10
-16.567361732
 20
35.6133158575
 10
-16.64035157
 20
35.6245017461
 10
-16.7134977776
 20
35.6338373096
 10
-16.7868831679
 20
35.6412972909
 10
-16.8602016993
 20
35.6473781056
 10
-16.9333835428
 20
35.6521746718
 10
-17.0064985275
 20
35.6555921063
 10
-17.0794500997
 20
35.6578421051
 10
-17.1520119178
 20
35.6589495394
 10
-17.2244103235
 20
35.6588895472
 10
-17.2972277868
 20
35.657799219
 10
-17.3704140431
 20
35.6557119181
 10
-17.4440193572
 20
35.6525942733
 10
-17.5187769939
 20
35.6484832693
 10
-17.5946759669
 20
35.6434032093
 10
-17.6717272626
 20
35.6373297684
 10
-17.7506971048
 20
35.6302269859
 10
-17.8315839667
 20
35.6221028414
 10
-17.914389375
 20
35.6129493181
 10
-17.9998841341
 20
35.6027064551
 10
-18.0883251786
 20
35.5913542462
 10
-18.1794555739
 20
35.5789126413
 10
-18.2732753198
 20
35.5653816085
  0
LWPOLYLINE
  5
83F
100
AcDbEntity
  8
0
100
AcDbPolyline
 62
7
  6
CONTINUOUS
 90
10
 70
0
 10
10.6520460546
 20
28.5494696404
 10
10.6519138551
 20
28.5495265891
 10
10.6517817333
 20
28.5496312377
 10
10.6516496894
 20
28.5497835863
 10
10.6515177045
 20
28.5499836674
 10
10.6513857974
 20
28.5502314486
 10
10.651254024
 20
28.5505268316
 10
10.6511224031
 20
28.5508697838
 10
10.650990916
 20
28.551260338
 10
10.6508595627
 20
28.551698494
  0
LINE
  5
840
100
AcDbEntity
  8
0
100
AcDbLine
 62
7
  6
CONTINUOUS
 10
12.0968102756
 20
24.0265867593
 11
12.15
 21
24.0
  0
LINE
  5
841
100
AcDbEntity
  8
0
100
AcDbLine
 62
7
  6
CONTINUOUS
 10
10.8340344151
 20
28.5329802805
 11
10.8010531835
 21
28.5494696404
  0
LINE
  5
842
100
AcDbEntity
  8
0
100
AcDbLine
 62
7
  6
CONTINUOUS
 10
12.8641963536
 20
26.9465093858
 11
12.45
 21
27.35
  0
LINE
  5
843
100
AcDbEntity
  8
0
100
AcDbLine
 62
7
  6
CONTINUOUS
 10
10.3660772394
 20
28.2593709862
 11
10.350136964
 21
28.2752649765
  0
LINE
  5
844
100
AcDbEntity
  8
0
100
AcDbLine
 62
7
  6
CONTINUOUS
 10
10.3678933968
 20
28.8600557844
 11
10.3519546125
 21
28.8759468191
  0
LINE
  5
845
100
AcDbEntity
  8
0
100
AcDbLine
 62
253
  6
CONTINUOUS
 10
9.6360402013
 20
27.4641425506
 11
9.4482180393
 21
27.651961212
  0
LINE
  5
846
100
AcDbEntity
  8
0
100
AcDbLine
 62
253
  6
CONTINUOUS
 10
9.9463209205
 20
27.7534963276
 11
9.749767363
 21
27.9500457878
  0
LINE
  5
847
100
AcDbEntity
  8
0
100
AcDbLine
 62
7
  6
CONTINUOUS
 10
10.6499542122
 20
27.9500457878
 11
10.85
 21
27.75
  0
LINE
  5
848
100
AcDbEntity
  8
0
100
AcDbLine
 62
7
  6
CONTINUOUS
 10
10.3980987975
 20
28.2269621187
 11
10.3660772394
 21
28.2593709862
  0
LINE
  5
849
100
AcDbEntity
  8
0
100
AcDbLine
 62
7
  6
CONTINUOUS
 10
10.3999118828
 20
28.8276434954
 11
10.3678933968
 21
28.8600557844
  0
LINE
  5
84A
100
AcDbEntity
  8
0
100
AcDbLine
 62
7
  6
CONTINUOUS
 10
10.4304201002
 20
28.1940553929
 11
10.3980987975
 21
28.2269621187
  0
LINE
  5
84B
100
AcDbEntity
  8
0
100
AcDbLine
 62
7
  6
CONTINUOUS
 10
10.4322299859
 20
28.7947202098
 11
10.3999118828
 21
28.8276434954
  0
LINE
  5
84C
100
AcDbEntity
  8
0
100
AcDbLine
 62
7
  6
CONTINUOUS
 10
10.4782497705
 20
28.1447100402
 11
10.4304201002
 21
28.1940553929
  0
LINE
  5
84D
100
AcDbEntity
  8
0
100
AcDbLine
 62
7
  6
CONTINUOUS
 10
10.4800547023
 20
28.7453238453
 11
10.4322299859
 21
28.7947202098
  0
LINE
  5
84E
100
AcDbEntity
  8
0
100
AcDbLine
 62
7
  6
CONTINUOUS
 10
10.5239906077
 20
28.0967001885
 11
10.4782497705
 21
28.1447100402
  0
LINE
  5
84F
100
AcDbEntity
  8
0
100
AcDbLine
 62
7
  6
CONTINUOUS
 10
10.525790439
 20
28.6972298427
 11
10.4800547023
 21
28.7453238453
  0
LWPOLYLINE
  5
850
100
AcDbEntity
  8
0
100
AcDbPolyline
 62
7
  6
CONTINUOUS
 90
4
 70
0
 10
10.5789262893
 20
28.037442879
 10
10.5660695886
 20
28.0515626314
 10
10.5525096177
 20
28.0661664706
 10
10.5239906077
 20
28.0967001885
  0
LWPOLYLINE
  5
851
100
AcDbEntity
  8
0
100
AcDbPolyline
 62
7
  6
CONTINUOUS
 90
4
 70
0
 10
10.5807191254
 20
28.6378051504
 10
10.5678641835
 20
28.6519729642
 10
10.5543059731
 20
28.6666205811
 10
10.525790439
 20
28.6972298427
  0
LINE
  5
852
100
AcDbEntity
  8
RACCORDO
100
AcDbLine
 62
7
  6
CONTINUOUS
 10
45.8285440846
 20
-36.5357171432
 11
45.8450375388
 21
-36.5852377442
  0
LINE
  5
853
100
AcDbEntity
  8
0
100
AcDbLine
 62
7
  6
CONTINUOUS
 10
22.966974
 20
34.644936
 11
22.949234
 21
34.707528
  0
LINE
  5
854
100
AcDbEntity
  8
0
100
AcDbLine
 62
7
  6
CONTINUOUS
 10
22.46185
 20
34.550508
 11
22.4736428993
 21
34.5070052584
  0
LINE
  5
855
100
AcDbEntity
  8
0
100
AcDbLine
 62
7
  6
CONTINUOUS
 10
22.981212
 20
34.579448
 11
22.966974
 21
34.644936
  0
LINE
  5
856
100
AcDbEntity
  8
0
100
AcDbLine
 62
7
  6
CONTINUOUS
 10
22.4736428993
 20
34.5070052584
 11
22.481737
 21
34.462145
  0
LINE
  5
857
100
AcDbEntity
  8
0
100
AcDbLine
 62
7
  6
CONTINUOUS
 10
22.991427
 20
34.512887
 11
22.981212
 21
34.579448
  0
LWPOLYLINE
  5
858
100
AcDbEntity
  8
0
100
AcDbPolyline
 62
253
  6
CONTINUOUS
 90
25
 70
0
 10
35.5517819335
 20
27.6519684582
 10
35.5510491946
 20
27.6715255789
 10
35.5490318281
 20
27.6909906653
 10
35.5457392418
 20
27.7102801042
 10
35.5411866725
 20
27.7293081351
 10
35.5353942838
 20
27.7479963183
 10
35.5283853362
 20
27.7662733558
 10
35.5201867542
 20
27.7840648125
 10
35.5108344027
 20
27.8012893807
 10
35.5003721057
 20
27.8178686011
 10
35.4888461538
 20
27.8337298102
 10
35.4763050037
 20
27.8488069811
 10
35.4628035562
 20
27.8630368513
 10
35.4483995595
 20
27.8763587725
 10
35.4331547925
 20
27.8887157802
 10
35.4171359502
 20
27.9000560822
 10
35.4004098457
 20
27.9103325187
 10
35.3830495565
 20
27.9195002368
 10
35.3651362466
 20
27.9275189703
 10
35.3467580162
 20
27.9343523238
 10
35.3279829047
 20
27.9399779004
 10
35.308863708
 20
27.944379851
 10
35.2894715722
 20
27.94753717
 10
35.2698974686
 20
27.9494297938
 10
35.250224586
 20
27.9500457817
  0
LWPOLYLINE
  5
859
100
AcDbEntity
  8
0
100
AcDbPolyline
 62
253
  6
CONTINUOUS
 90
25
 70
0
 10
35.8515991994
 20
27.6762830578
 10
35.8501489435
 20
27.7157959962
 10
35.8461906404
 20
27.7547946328
 10
35.8397242899
 20
27.793278995
 10
35.8307024104
 20
27.8314029679
 10
35.8191724835
 20
27.8690127152
 10
35.8052769543
 20
27.9056467072
 10
35.7889825089
 20
27.9413015746
 10
35.7703224611
 20
27.9759807893
 10
35.7495391981
 20
28.0092331318
 10
35.7266069688
 20
28.0410364538
 10
35.7015515242
 20
28.0714130422
 10
35.6746925043
 20
28.0999783663
 10
35.646006959
 20
28.1267096689
 10
35.6155178384
 20
28.1516298589
 10
35.5836136321
 20
28.1744229283
 10
35.5502712169
 20
28.1950628795
 10
35.5155137159
 20
28.2135758513
 10
35.4797989894
 20
28.2297240487
 10
35.4431350675
 20
28.2434732454
 10
35.4055139199
 20
28.2548577767
 10
35.3673693164
 20
28.2637426858
 10
35.3288458468
 20
28.2700830077
 10
35.2897989212
 20
28.2739237663
 10
35.2502285397
 20
28.2752649765
  0
LINE
  5
85A
100
AcDbEntity
  8
0
100
AcDbLine
 62
253
  6
CONTINUOUS
 10
32.850136964
 20
-28.2752649765
 11
32.8519546125
 21
-28.8759468191
  0
LINE
  5
85B
100
AcDbEntity
  8
0
100
AcDbLine
 62
253
  6
CONTINUOUS
 10
33.1490796797
 20
-27.9519724288
 11
33.1508595627
 21
-28.5516984938
  0
LINE
  5
85C
100
AcDbEntity
  8
0
100
AcDbLine
 62
253
  6
CONTINUOUS
 10
34.3509203203
 20
27.9519724288
 11
34.3491404373
 21
28.5516984938
  0
LINE
  5
85D
100
AcDbEntity
  8
0
100
AcDbLine
 62
253
  6
CONTINUOUS
 10
34.649863036
 20
28.2752649765
 11
34.6480453875
 21
28.8759468191
  0
LINE
  5
85E
100
AcDbEntity
  8
0
100
AcDbLine
 62
253
  6
CONTINUOUS
 10
35.860534333
 20
24.0265867593
 11
35.8515991994
 21
27.6762830578
  0
LINE
  5
85F
100
AcDbEntity
  8
0
100
AcDbLine
 62
253
  6
CONTINUOUS
 10
35.5606909189
 20
24.0215290512
 11
35.5517819411
 21
27.6519684658
  0
LINE
  5
860
100
AcDbEntity
  8
0
100
AcDbLine
 62
7
  6
CONTINUOUS
 10
32.55
 20
27.75
 11
32.55
 21
27.35
  0
LINE
  5
861
100
AcDbEntity
  8
0
100
AcDbLine
 62
7
  6
CONTINUOUS
 10
32.55
 20
-27.35
 11
32.55
 21
-27.75
  0
LINE
  5
862
100
AcDbEntity
  8
0
100
AcDbLine
 62
7
  6
CONTINUOUS
 10
32.85
 20
-26.9081110346
 11
32.85
 21
-24.0
  0
LINE
  5
863
100
AcDbEntity
  8
0
100
AcDbLine
 62
7
  6
CONTINUOUS
 10
32.85
 20
24.0
 11
32.85
 21
26.9081110346
  0
LINE
  5
864
100
AcDbEntity
  8
DRAFT
100
AcDbLine
 62
7
  6
CONTINUOUS
 10
33.35
 20
28.5
 11
33.35
 21
27.75
  0
LINE
  5
865
100
AcDbEntity
  8
DRAFT
100
AcDbLine
 62
7
  6
CONTINUOUS
 10
33.35
 20
-28.5
 11
33.35
 21
-27.75
  0
LINE
  5
866
100
AcDbEntity
  8
DRAFT
100
AcDbLine
 62
7
  6
CONTINUOUS
 10
34.15
 20
28.5
 11
34.15
 21
27.75
  0
LINE
  5
867
100
AcDbEntity
  8
DRAFT
100
AcDbLine
 62
7
  6
CONTINUOUS
 10
34.15
 20
-28.5
 11
34.15
 21
-27.75
  0
LINE
  5
868
100
AcDbEntity
  8
0
100
AcDbLine
 62
7
  6
CONTINUOUS
 10
34.65
 20
26.9081110346
 11
34.65
 21
24.0
  0
LINE
  5
869
100
AcDbEntity
  8
0
100
AcDbLine
 62
7
  6
CONTINUOUS
 10
34.65
 20
-24.0
 11
34.65
 21
-26.9081110346
  0
LINE
  5
86A
100
AcDbEntity
  8
0
100
AcDbLine
 62
7
  6
CONTINUOUS
 10
34.95
 20
-27.75
 11
34.95
 21
-27.35
  0
LINE
  5
86B
100
AcDbEntity
  8
0
100
AcDbLine
 62
7
  6
CONTINUOUS
 10
34.95
 20
27.35
 11
34.95
 21
27.75
  0
LINE
  5
86C
100
AcDbEntity
  8
0
100
AcDbLine
 62
253
  6
CONTINUOUS
 10
35.2502285397
 20
28.2752649765
 11
35.2502285397
 21
27.9500457878
  0
LINE
  5
86D
100
AcDbEntity
  8
0
100
AcDbLine
 62
253
  6
CONTINUOUS
 10
35.2502285397
 20
-28.2752649765
 11
35.2502285397
 21
-27.9500457878
  0
LINE
  5
86E
100
AcDbEntity
  8
0
100
AcDbLine
 62
7
  6
CONTINUOUS
 10
35.3639597987
 20
-27.4641425506
 11
35.3639597987
 21
-26.9465113794
  0
LINE
  5
86F
100
AcDbEntity
  8
0
100
AcDbLine
 62
7
  6
CONTINUOUS
 10
35.3639597987
 20
26.9465113794
 11
35.3639597987
 21
27.4641425506
  0
LINE
  5
870
100
AcDbEntity
  8
0
100
AcDbLine
 62
7
  6
CONTINUOUS
 10
35.5176196936
 20
-26.9081110346
 11
35.5176196936
 21
-24.0
  0
LINE
  5
871
100
AcDbEntity
  8
0
100
AcDbLine
 62
7
  6
CONTINUOUS
 10
35.5176196936
 20
24.0
 11
35.5176196936
 21
26.9081110346
  0
LINE
  5
872
100
AcDbEntity
  8
0
100
AcDbLine
 62
253
  6
CONTINUOUS
 10
35.8515991994
 20
-27.6762830578
 11
35.860534333
 21
-24.0265867593
  0
LINE
  5
873
100
AcDbEntity
  8
0
100
AcDbLine
 62
253
  6
CONTINUOUS
 10
35.5517819607
 20
-27.651961212
 11
35.5606909189
 21
-24.0215290512
  0
LINE
  5
874
100
AcDbEntity
  8
0
100
AcDbLine
 62
253
  6
CONTINUOUS
 10
33.1508595668
 20
28.5516984818
 11
33.1490796797
 21
27.9519724288
  0
LINE
  5
875
100
AcDbEntity
  8
0
100
AcDbLine
 62
253
  6
CONTINUOUS
 10
34.3491404332
 20
-28.5516984818
 11
34.3509203203
 21
-27.9519724288
  0
LINE
  5
876
100
AcDbEntity
  8
0
100
AcDbLine
 62
253
  6
CONTINUOUS
 10
32.8519546125
 20
28.8759468191
 11
32.850136964
 21
28.2752649765
  0
LINE
  5
877
100
AcDbEntity
  8
0
100
AcDbLine
 62
253
  6
CONTINUOUS
 10
34.6480453875
 20
-28.8759468191
 11
34.649863036
 21
-28.2752649765
  0
LINE
  5
878
100
AcDbEntity
  8
0
100
AcDbLine
 62
7
  6
CONTINUOUS
 10
46.6337843117
 20
19.0
 11
46.6250567792
 21
18.9825396153
  0
LINE
  5
879
100
AcDbEntity
  8
0
100
AcDbLine
 62
7
  6
CONTINUOUS
 10
19.508932
 20
-36.729018
 11
19.72636
 21
-36.42078
  0
LINE
  5
87A
100
AcDbEntity
  8
DRAFT
100
AcDbLine
 62
7
  6
CONTINUOUS
 10
46.6512393766
 20
0.4512393766
 11
46.6716797993
 21
0.4716797993
  0
LINE
  5
87B
100
AcDbEntity
  8
DRAFT
100
AcDbLine
 62
7
  6
CONTINUOUS
 10
70.25
 20
23.3
 11
70.1388009746
 21
23.1888009746
  0
LINE
  5
87C
100
AcDbEntity
  8
0
100
AcDbLine
 62
7
  6
CONTINUOUS
 10
19.3937793924
 20
-32.1064256693
 11
18.224704
 21
-33.091613
  0
LINE
  5
87D
100
AcDbEntity
  8
0
100
AcDbLine
 62
7
  6
CONTINUOUS
 10
18.224704
 20
-33.603309
 11
19.3395358997
 21
-32.6638330845
  0
LINE
  5
87E
100
AcDbEntity
  8
0
100
AcDbLine
 62
7
  6
CONTINUOUS
 10
31.9823803064
 20
-24.0
 11
31.9393090811
 21
-24.0215290512
  0
LINE
  5
87F
100
AcDbEntity
  8
0
100
AcDbLine
 62
7
  6
CONTINUOUS
 10
34.5968102756
 20
-24.0265867593
 11
34.65
 21
-24.0
  0
LINE
  5
880
100
AcDbEntity
  8
DRAFT
100
AcDbLine
 62
7
  6
CONTINUOUS
 10
-32.8963883491
 20
26.8965183637
 11
-32.85
 21
26.9081110346
  0
LINE
  5
881
100
AcDbEntity
  8
0
100
AcDbLine
 62
7
  6
CONTINUOUS
 10
-35.3639677759
 20
26.9465093858
 11
-35.5176196936
 21
26.9081110346
  0
LINE
  5
882
100
AcDbEntity
  8
0
100
AcDbLine
 62
7
  6
CONTINUOUS
 10
-33.35
 20
28.5
 11
-33.1520460546
 21
28.5494696404
  0
LWPOLYLINE
  5
883
100
AcDbEntity
  8
0
100
AcDbPolyline
 62
7
  6
CONTINUOUS
 90
5
 70
0
 10
-16.1269037691
 20
33.5031673774
 10
-16.1128468953
 20
33.5059167896
 10
-16.0987930202
 20
33.5100698335
 10
-16.0847421439
 20
33.5156264965
 10
-16.0706753899
 20
33.5227732052
  0
LWPOLYLINE
  5
884
100
AcDbEntity
  8
0
100
AcDbPolyline
 62
7
  6
CONTINUOUS
 90
10
 70
0
 10
-17.4694619483
 20
34.9307526417
 10
-17.3948903935
 20
34.943095875
 10
-17.3209014029
 20
34.9530033265
 10
-17.2474949765
 20
34.9604750516
 10
-17.1748141533
 20
34.9655059163
 10
-17.1027158944
 20
34.9681011247
 10
-17.0307710824
 20
34.9682762199
 10
-16.9588366783
 20
34.9660363789
 10
-16.8870557212
 20
34.9613764131
 10
-16.8154282111
 20
34.9542962966
  0
LINE
  5
885
100
AcDbEntity
  8
0
100
AcDbLine
 62
7
  6
CONTINUOUS
 10
21.721348
 20
33.697558
 11
21.654308
 21
33.695868
  0
LINE
  5
886
100
AcDbEntity
  8
DRAFT
100
AcDbLine
 62
7
  6
CONTINUOUS
 10
46.6009554821
 20
35.5599784182
 11
46.3335275984
 21
35.5553840238
  0
LINE
  5
887
100
AcDbEntity
  8
DRAFT
100
AcDbLine
 62
7
  6
CONTINUOUS
 10
46.3335275984
 20
35.5553840238
 11
45.9769391643
 21
35.5494229668
  0
LINE
  5
888
100
AcDbEntity
  8
DRAFT
100
AcDbLine
 62
7
  6
CONTINUOUS
 10
45.9769391643
 20
35.5494229668
 11
45.7986374192
 21
35.5465130714
  0
LINE
  5
889
100
AcDbEntity
  8
DRAFT
100
AcDbLine
 62
7
  6
CONTINUOUS
 10
11.6526505322
 20
35.5039123057
 11
10.8473400057
 21
35.5035993343
  0
LINE
  5
88A
100
AcDbEntity
  8
0
100
AcDbLine
 62
7
  6
CONTINUOUS
 10
-20.751537
 20
32.411042
 11
-19.614604
 21
32.411042
  0
LINE
  5
88B
100
AcDbEntity
  8
0
100
AcDbLine
 62
7
  6
CONTINUOUS
 10
-19.781449
 20
33.028875
 11
-20.580763
 21
33.028875
  0
LINE
  5
88C
100
AcDbEntity
  8
0
100
AcDbLine
 62
7
  6
CONTINUOUS
 10
-17.4417794088
 20
33.1777850682
 11
-16.9941500454
 21
33.1777850682
  0
LINE
  5
88D
100
AcDbEntity
  8
0
100
AcDbLine
 62
7
  6
CONTINUOUS
 10
18.519096
 20
33.193976
 11
19.057478
 21
33.193976
  0
LINE
  5
88E
100
AcDbEntity
  8
0
100
AcDbLine
 62
7
  6
CONTINUOUS
 10
28.695711
 20
33.205925
 11
30.24227
 21
33.205925
  0
LINE
  5
88F
100
AcDbEntity
  8
0
100
AcDbLine
 62
7
  6
CONTINUOUS
 10
21.654308
 20
33.695868
 11
21.23266
 21
33.695868
  0
LINE
  5
890
100
AcDbEntity
  8
0
100
AcDbLine
 62
7
  6
CONTINUOUS
 10
19.057478
 20
33.705734
 11
18.519096
 21
33.705734
  0
LINE
  5
891
100
AcDbEntity
  8
0
100
AcDbLine
 62
7
  6
CONTINUOUS
 10
30.24227
 20
33.716214
 11
28.695711
 21
33.716214
  0
LINE
  5
892
100
AcDbEntity
  8
0
100
AcDbLine
 62
7
  6
CONTINUOUS
 10
-16.9923505304
 20
33.8328085387
 11
-17.4694619483
 21
33.8328085387
  0
LINE
  5
893
100
AcDbEntity
  8
0
100
AcDbLine
 62
7
  6
CONTINUOUS
 10
20.096871
 20
34.989755
 11
21.705248
 21
34.989755
  0
LINE
  5
894
100
AcDbEntity
  8
0
100
AcDbLine
 62
7
  6
CONTINUOUS
 10
28.118401
 20
34.995513
 11
30.313575
 21
34.995513
  0
LINE
  5
895
100
AcDbEntity
  8
0
100
AcDbLine
 62
7
  6
CONTINUOUS
 10
21.707162
 20
35.501513
 11
20.096871
 21
35.501513
  0
LINE
  5
896
100
AcDbEntity
  8
0
100
AcDbLine
 62
7
  6
CONTINUOUS
 10
19.569237
 20
35.501513
 11
19.118438
 21
35.501513
  0
LINE
  5
897
100
AcDbEntity
  8
0
100
AcDbLine
 62
7
  6
CONTINUOUS
 10
30.313575
 20
35.507272
 11
27.60664
 21
35.507272
  0
LINE
  5
898
100
AcDbEntity
  8
0
100
AcDbLine
 62
7
  6
CONTINUOUS
 10
24.132716
 20
35.513955
 11
23.620958
 21
35.513955
  0
LINE
  5
899
100
AcDbEntity
  8
0
100
AcDbLine
 62
7
  6
CONTINUOUS
 10
27.083542
 20
35.521553
 11
26.35986
 21
35.521553
  0
LINE
  5
89A
100
AcDbEntity
  8
0
100
AcDbLine
 62
7
  6
CONTINUOUS
 10
-19.745579
 20
35.612109
 11
-20.553201
 21
35.612109
  0
LINE
  5
89B
100
AcDbEntity
  8
0
100
AcDbLine
 62
7
  6
CONTINUOUS
 10
-22.312797
 20
35.612109
 11
-23.138804
 21
35.612109
  0
LINE
  5
89C
100
AcDbEntity
  8
0
100
AcDbLine
 62
7
  6
CONTINUOUS
 10
-24.799696
 20
35.612109
 11
-25.633862
 21
35.612109
  0
LINE
  5
89D
100
AcDbEntity
  8
0
100
AcDbLine
 62
7
  6
CONTINUOUS
 10
-27.589095
 20
35.612109
 11
-28.42338
 21
35.612109
  0
LINE
  5
89E
100
AcDbEntity
  8
0
100
AcDbLine
 62
7
  6
CONTINUOUS
 10
-29.971428
 20
35.612109
 11
-30.878338
 21
35.612109
  0
LINE
  5
89F
100
AcDbEntity
  8
0
100
AcDbLine
 62
7
  6
CONTINUOUS
 10
-26.444423
 20
35.612349
 11
-27.279278
 21
35.612349
  0
LINE
  5
8A0
100
AcDbEntity
  8
0
100
AcDbLine
 62
7
  6
CONTINUOUS
 10
28.481039
 20
35.872779
 11
29.20475
 21
35.872779
  0
LINE
  5
8A1
100
AcDbEntity
  8
DRAFT
100
AcDbLine
 62
7
  6
CONTINUOUS
 10
-46.5714559154
 20
36.5357171432
 11
-45.85
 21
36.5357171432
  0
LINE
  5
8A2
100
AcDbEntity
  8
DRAFT
100
AcDbLine
 62
7
  6
CONTINUOUS
 10
11.6214559154
 20
36.5357171432
 11
10.8785440846
 21
36.5357171432
  0
LINE
  5
8A3
100
AcDbEntity
  8
DRAFT
100
AcDbLine
 62
7
  6
CONTINUOUS
 10
-10.8785440846
 20
36.5357171432
 11
-11.6214559154
 21
36.5357171432
  0
LINE
  5
8A4
100
AcDbEntity
  8
DRAFT
100
AcDbLine
 62
7
  6
CONTINUOUS
 10
45.8285440846
 20
36.5357171432
 11
46.5714559154
 21
36.5357171432
  0
LINE
  5
8A5
100
AcDbEntity
  8
RACCORDO
100
AcDbLine
 62
253
  6
CONTINUOUS
 10
46.5549624612
 20
36.5852377442
 11
45.8450375388
 21
36.5852377442
  0
LINE
  5
8A6
100
AcDbEntity
  8
RACCORDO
100
AcDbLine
 62
253
  6
CONTINUOUS
 10
11.6049624612
 20
36.5852377442
 11
10.8950375388
 21
36.5852377442
  0
LINE
  5
8A7
100
AcDbEntity
  8
RACCORDO
100
AcDbLine
 62
253
  6
CONTINUOUS
 10
-10.8950375388
 20
36.5852377442
 11
-11.6049624612
 21
36.5852377442
  0
LINE
  5
8A8
100
AcDbEntity
  8
RACCORDO
100
AcDbLine
 62
253
  6
CONTINUOUS
 10
-45.85
 20
36.5852377442
 11
-46.5549624612
 21
36.5852377442
  0
LINE
  5
8A9
100
AcDbEntity
  8
0
100
AcDbLine
 62
7
  6
CONTINUOUS
 10
30.112046
 20
36.780106
 11
29.388368
 21
36.780106
  0
LINE
  5
8AA
100
AcDbEntity
  8
RACCORDO
100
AcDbLine
 62
253
  6
CONTINUOUS
 10
46.55
 20
36.8848266046
 11
45.85
 21
36.8848266046
  0
LINE
  5
8AB
100
AcDbEntity
  8
RACCORDO
100
AcDbLine
 62
253
  6
CONTINUOUS
 10
11.6
 20
36.8848266046
 11
10.9
 21
36.8848266046
  0
LINE
  5
8AC
100
AcDbEntity
  8
RACCORDO
100
AcDbLine
 62
253
  6
CONTINUOUS
 10
-10.9
 20
36.8848266046
 11
-11.6
 21
36.8848266046
  0
LINE
  5
8AD
100
AcDbEntity
  8
RACCORDO
100
AcDbLine
 62
253
  6
CONTINUOUS
 10
-45.85
 20
36.8848266046
 11
-46.55
 21
36.8848266046
  0
LINE
  5
8AE
100
AcDbEntity
  8
DRAFT
100
AcDbLine
 62
7
  6
CONTINUOUS
 10
-10.8473400057
 20
35.5035993343
 11
-11.6526505322
 21
35.5039123057
  0
LINE
  5
8AF
100
AcDbEntity
  8
0
100
AcDbLine
 62
7
  6
CONTINUOUS
 10
21.705248
 20
34.989755
 11
21.731619
 21
34.989508
  0
LWPOLYLINE
  5
8B0
100
AcDbEntity
  8
DRAFT
100
AcDbPolyline
 62
7
  6
CONTINUOUS
 90
3
 70
0
 10
-45.85
 20
35.5473464748
 10
-46.517520467
 20
35.5585336179
 10
-46.6009554821
 20
35.5599784182
  0
LINE
  5
8B1
100
AcDbEntity
  8
0
100
AcDbLine
 62
7
  6
CONTINUOUS
 10
21.787147
 20
35.49982
 11
21.707162
 21
35.501513
  0
LWPOLYLINE
  5
8B2
100
AcDbEntity
  8
0
100
AcDbPolyline
 62
7
  6
CONTINUOUS
 90
25
 70
0
 10
-16.9941500454
 20
33.1777850682
 10
-16.9687948555
 20
33.1771847704
 10
-16.9436217418
 20
33.1752862738
 10
-16.9186307044
 20
33.1720895734
 10
-16.8937373713
 20
33.1676175945
 10
-16.8690261145
 20
33.1618473909
 10
-16.8447500494
 20
33.1547101441
 10
-16.8208827567
 20
33.1461608234
 10
-16.7974506557
 20
33.1362444141
 10
-16.7747861203
 20
33.1250271162
 10
-16.7529835835
 20
33.1124538646
 10
-16.7319486124
 20
33.098579659
 10
-16.7117302816
 20
33.0836357998
 10
-16.6923702673
 20
33.0676634108
 10
-16.6738268934
 20
33.0506213004
 10
-16.6560242066
 20
33.0326173035
 10
-16.6389487424
 20
33.0136946403
 10
-16.6226139652
 20
32.9938100183
 10
-16.6069843145
 20
32.9729415035
 10
-16.5920249072
 20
32.9511239344
 10
-16.5777706264
 20
32.9283223871
 10
-16.5642905601
 20
32.9044102748
 10
-16.5516077377
 20
32.8793453622
 10
-16.5396991299
 20
32.8531697719
 10
-16.5285647366
 20
32.8258834445
  0
LINE
  5
8B3
100
AcDbEntity
  8
0
100
AcDbLine
 62
7
  6
CONTINUOUS
 10
21.731619
 20
34.989508
 11
21.798989
 21
34.986578
  0
LINE
  5
8B4
100
AcDbEntity
  8
0
100
AcDbLine
 62
7
  6
CONTINUOUS
 10
21.870679
 20
35.494308
 11
21.787147
 21
35.49982
  0
LINE
  5
8B5
100
AcDbEntity
  8
0
100
AcDbLine
 62
7
  6
CONTINUOUS
 10
21.798989
 20
34.986578
 11
21.86199
 21
34.980611
  0
LINE
  5
8B6
100
AcDbEntity
  8
0
100
AcDbLine
 62
7
  6
CONTINUOUS
 10
21.951709
 20
35.485084
 11
21.870679
 21
35.494308
  0
LINE
  5
8B7
100
AcDbEntity
  8
0
100
AcDbLine
 62
7
  6
CONTINUOUS
 10
21.86199
 20
34.980611
 11
21.921547
 21
34.971761
  0
LINE
  5
8B8
100
AcDbEntity
  8
0
100
AcDbLine
 62
7
  6
CONTINUOUS
 10
22.030128
 20
35.472241
 11
21.951709
 21
35.485084
  0
LINE
  5
8B9
100
AcDbEntity
  8
DRAFT
100
AcDbLine
 62
7
  6
CONTINUOUS
 10
32.8963883491
 20
26.8965183637
 11
32.85
 21
26.9081110346
  0
LINE
  5
8BA
100
AcDbEntity
  8
0
100
AcDbLine
 62
7
  6
CONTINUOUS
 10
35.3639597987
 20
26.9465113794
 11
35.5176196936
 21
26.9081110346
  0
LINE
  5
8BB
100
AcDbEntity
  8
0
100
AcDbLine
 62
7
  6
CONTINUOUS
 10
33.35
 20
28.5
 11
33.1520460546
 21
28.5494696404
  0
LINE
  5
8BC
100
AcDbEntity
  8
0
100
AcDbLine
 62
7
  6
CONTINUOUS
 10
31.9823803064
 20
24.0
 11
31.9393090811
 21
24.0215290512
  0
LINE
  5
8BD
100
AcDbEntity
  8
0
100
AcDbLine
 62
7
  6
CONTINUOUS
 10
34.5968102756
 20
24.0265867593
 11
34.65
 21
24.0
  0
LINE
  5
8BE
100
AcDbEntity
  8
DRAFT
100
AcDbLine
 62
7
  6
CONTINUOUS
 10
46.6512393766
 20
-0.4512393766
 11
46.6716797993
 21
-0.4716797993
  0
LINE
  5
8BF
100
AcDbEntity
  8
DRAFT
100
AcDbLine
 62
7
  6
CONTINUOUS
 10
70.25
 20
-23.3
 11
70.1388009746
 21
-23.1888009746
  0
LINE
  5
8C0
100
AcDbEntity
  8
0
100
AcDbLine
 62
7
  6
CONTINUOUS
 10
22.367574
 20
34.729444
 11
22.391632
 21
34.696605
  0
LINE
  5
8C1
100
AcDbEntity
  8
0
100
AcDbLine
 62
7
  6
CONTINUOUS
 10
22.833115
 20
34.957049
 11
22.795733
 21
35.012007
  0
LINE
  5
8C2
100
AcDbEntity
  8
0
100
AcDbLine
 62
7
  6
CONTINUOUS
 10
22.391632
 20
34.696605
 11
22.413139
 21
34.662202
  0
LINE
  5
8C3
100
AcDbEntity
  8
0
100
AcDbLine
 62
7
  6
CONTINUOUS
 10
22.866941
 20
34.899936
 11
22.833115
 21
34.957049
  0
LINE
  5
8C4
100
AcDbEntity
  8
0
100
AcDbLine
 62
7
  6
CONTINUOUS
 10
22.413139
 20
34.662202
 11
22.432045
 21
34.626326
  0
LINE
  5
8C5
100
AcDbEntity
  8
0
100
AcDbLine
 62
7
  6
CONTINUOUS
 10
21.23266
 20
33.695868
 11
22.383461
 21
31.502748
  0
LINE
  5
8C6
100
AcDbEntity
  8
0
100
AcDbLine
 62
7
  6
CONTINUOUS
 10
22.961415
 20
31.502748
 11
22.054764
 21
33.23055
  0
LINE
  5
8C7
100
AcDbEntity
  8
0
100
AcDbLine
 62
7
  6
CONTINUOUS
 10
22.897113
 20
34.840828
 11
22.866941
 21
34.899936
  0
LINE
  5
8C8
100
AcDbEntity
  8
0
100
AcDbLine
 62
253
  6
CONTINUOUS
 10
46.0795974464
 20
-18.8911362559
 11
46.1340127341
 21
-19.0
  0
LINE
  5
8C9
100
AcDbEntity
  8
0
100
AcDbLine
 62
253
  6
CONTINUOUS
 10
46.5795212939
 20
-18.3914408424
 11
46.6337843117
 21
-18.4999999536
  0
LINE
  5
8CA
100
AcDbEntity
  8
0
100
AcDbLine
 62
7
  6
CONTINUOUS
 10
22.432045
 20
34.626326
 11
22.448301
 21
34.589064
  0
LINE
  5
8CB
100
AcDbEntity
  8
0
100
AcDbLine
 62
7
  6
CONTINUOUS
 10
22.923539
 20
34.779897
 11
22.897113
 21
34.840828
  0
LINE
  5
8CC
100
AcDbEntity
  8
0
100
AcDbLine
 62
7
  6
CONTINUOUS
 10
22.945567
 20
34.718919
 11
22.923539
 21
34.779897
  0
LINE
  5
8CD
100
AcDbEntity
  8
0
100
AcDbLine
 62
7
  6
CONTINUOUS
 10
22.448301
 20
34.589064
 11
22.46185
 21
34.550508
  0
LINE
  5
8CE
100
AcDbEntity
  8
0
100
AcDbLine
 62
7
  6
CONTINUOUS
 10
22.949234
 20
34.707528
 11
22.945567
 21
34.718919
  0
LINE
  5
8CF
100
AcDbEntity
  8
DRAFT
100
AcDbLine
 62
7
  6
CONTINUOUS
 10
45.8285440846
 20
-36.5357171432
 11
45.7986374192
 21
-35.5465130714
  0
LINE
  5
8D0
100
AcDbEntity
  8
DRAFT
100
AcDbLine
 62
7
  6
CONTINUOUS
 10
45.8285440846
 20
36.5357171432
 11
45.7986374192
 21
35.5465130714
  0
LWPOLYLINE
  5
8D1
100
AcDbEntity
  8
0
100
AcDbPolyline
 62
7
  6
CONTINUOUS
 90
10
 70
0
 10
33.1508595627
 20
-28.5516984938
 10
33.1509909161
 20
-28.5512603378
 10
33.1511224032
 20
-28.5508697838
 10
33.151254024
 20
-28.5505268316
 10
33.1513857974
 20
-28.5502314486
 10
33.1515177045
 20
-28.5499836674
 10
33.1516496894
 20
-28.5497835863
 10
33.1517817333
 20
-28.5496312377
 10
33.1519138551
 20
-28.5495265891
 10
33.1520460546
 20
-28.5494696404
  0
LWPOLYLINE
  5
8D2
100
AcDbEntity
  8
0
100
AcDbPolyline
 62
7
  6
CONTINUOUS
 90
8
 70
0
 10
33.1508596262
 20
-28.5516983052
 10
33.148644224
 20
-28.5557579317
 10
33.1449132006
 20
-28.5616387915
 10
33.1396665558
 20
-28.5691359728
 10
33.1327427902
 20
-28.5780281126
 10
33.1243034034
 20
-28.5881270581
 10
33.1148328937
 20
-28.5993068767
 10
33.1043834757
 20
-28.6113961839
  0
LWPOLYLINE
  5
8D3
100
AcDbEntity
  8
0
100
AcDbPolyline
 62
7
  6
CONTINUOUS
 90
8
 70
0
 10
33.1490796797
 20
-27.9519724288
 10
33.1468635194
 20
-27.9559431926
 10
33.143131532
 20
-27.9617392909
 10
33.1378837172
 20
-27.9691561609
 10
33.1309585258
 20
-27.9779728168
 10
33.1225175071
 20
-27.9880011311
 10
33.1130453093
 20
-27.999114917
 10
33.1025941787
 20
-28.0111428961
  0
LWPOLYLINE
  5
8D4
100
AcDbEntity
  8
0
100
AcDbPolyline
 62
7
  6
CONTINUOUS
 90
3
 70
0
 10
33.1043834757
 20
-28.6113961839
 10
33.0807191254
 20
-28.6378051504
 10
33.0678641835
 20
-28.6519729641
  0
LWPOLYLINE
  5
8D5
100
AcDbEntity
  8
0
100
AcDbPolyline
 62
7
  6
CONTINUOUS
 90
3
 70
0
 10
33.1025941787
 20
-28.0111428961
 10
33.0789262894
 20
-28.037442879
 10
33.0660695886
 20
-28.0515626313
  0
LWPOLYLINE
  5
8D6
100
AcDbEntity
  8
0
100
AcDbPolyline
 62
7
  6
CONTINUOUS
 90
3
 70
0
 10
33.0678641835
 20
-28.6519729641
 10
33.040275941
 20
-28.6817335213
 10
33.025790439
 20
-28.6972298427
  0
LWPOLYLINE
  5
8D7
100
AcDbEntity
  8
0
100
AcDbPolyline
 62
7
  6
CONTINUOUS
 90
3
 70
0
 10
33.0660695886
 20
-28.0515626313
 10
33.0384778387
 20
-28.0812396503
 10
33.0239906077
 20
-28.0967001885
  0
LINE
  5
8D8
100
AcDbEntity
  8
0
100
AcDbLine
 62
7
  6
CONTINUOUS
 10
33.025790439
 20
-28.6972298427
 11
32.9800547023
 21
-28.7453238453
  0
LINE
  5
8D9
100
AcDbEntity
  8
0
100
AcDbLine
 62
7
  6
CONTINUOUS
 10
33.0239906077
 20
-28.0967001885
 11
32.9782497706
 21
-28.1447100402
  0
LINE
  5
8DA
100
AcDbEntity
  8
0
100
AcDbLine
 62
7
  6
CONTINUOUS
 10
32.9800547023
 20
-28.7453238453
 11
32.9322299859
 21
-28.7947202098
  0
LINE
  5
8DB
100
AcDbEntity
  8
0
100
AcDbLine
 62
7
  6
CONTINUOUS
 10
32.9782497706
 20
-28.1447100402
 11
32.9304201002
 21
-28.1940553929
  0
LWPOLYLINE
  5
8DC
100
AcDbEntity
  8
0
100
AcDbPolyline
 62
7
  6
CONTINUOUS
 90
4
 70
0
 10
32.9304201002
 20
-28.1940553929
 10
32.8820645172
 20
-28.2432545767
 10
32.8660772394
 20
-28.2593709862
 10
32.850136964
 20
-28.2752649765
  0
LWPOLYLINE
  5
8DD
100
AcDbEntity
  8
0
100
AcDbPolyline
 62
7
  6
CONTINUOUS
 90
4
 70
0
 10
32.9322299859
 20
-28.7947202098
 10
32.8838791536
 20
-28.8439392567
 10
32.8678933968
 20
-28.8600557844
 10
32.8519546125
 20
-28.8759468191
  0
LINE
  5
8DE
100
AcDbEntity
  8
RACCORDO
100
AcDbLine
 62
7
  6
CONTINUOUS
 10
11.6688795732
 20
-42.9311204268
 11
11.6
 21
-43.0
  0
LINE
  5
8DF
100
AcDbEntity
  8
0
100
AcDbLine
 62
253
  6
CONTINUOUS
 10
32.1360402013
 20
-27.4641425506
 11
31.9482180589
 21
-27.6519684658
  0
LINE
  5
8E0
100
AcDbEntity
  8
0
100
AcDbLine
 62
253
  6
CONTINUOUS
 10
32.4463209205
 20
-27.7534963276
 11
32.2497754079
 21
-27.9500457878
  0
LINE
  5
8E1
100
AcDbEntity
  8
0
100
AcDbLine
 62
7
  6
CONTINUOUS
 10
33.1499542122
 20
-27.9500457878
 11
33.35
 21
-27.75
  0
LINE
  5
8E2
100
AcDbEntity
  8
0
100
AcDbLine
 62
7
  6
CONTINUOUS
 10
34.95
 20
-27.35
 11
35.3641963536
 21
-26.9465093858
  0
LINE
  5
8E3
100
AcDbEntity
  8
RACCORDO
100
AcDbLine
 62
7
  6
CONTINUOUS
 10
67.2857171432
 20
-24.0214559154
 11
67.3352377442
 21
-24.0049624612
  0
LINE
  5
8E4
100
AcDbEntity
  8
RACCORDO
100
AcDbLine
 62
253
  6
CONTINUOUS
 10
-69.9811508878
 20
42.7655612578
 11
-70.0222108508
 21
42.7644786614
  0
LINE
  5
8E5
100
AcDbEntity
  8
RACCORDO
100
AcDbLine
 62
253
  6
CONTINUOUS
 10
-69.9811508878
 20
42.7655612578
 11
-46.6222576013
 21
42.7655612578
  0
LINE
  5
8E6
100
AcDbEntity
  8
RACCORDO
100
AcDbLine
 62
253
  6
CONTINUOUS
 10
-45.85
 20
42.7655612578
 11
-11.6722576013
 21
42.7655612578
  0
LINE
  5
8E7
100
AcDbEntity
  8
RACCORDO
100
AcDbLine
 62
253
  6
CONTINUOUS
 10
-10.8277423987
 20
42.7655612578
 11
10.8277423987
 21
42.7655612578
  0
LINE
  5
8E8
100
AcDbEntity
  8
RACCORDO
100
AcDbLine
 62
253
  6
CONTINUOUS
 10
11.6722576013
 20
42.7655612578
 11
45.7777423987
 21
42.7655612578
  0
LINE
  5
8E9
100
AcDbEntity
  8
RACCORDO
100
AcDbLine
 62
253
  6
CONTINUOUS
 10
46.6222576013
 20
42.7655612578
 11
69.9811508878
 21
42.7655612578
  0
LINE
  5
8EA
100
AcDbEntity
  8
RACCORDO
100
AcDbLine
 62
253
  6
CONTINUOUS
 10
-69.9811508878
 20
42.9311204268
 11
-46.6188795732
 21
42.9311204268
  0
LINE
  5
8EB
100
AcDbEntity
  8
RACCORDO
100
AcDbLine
 62
253
  6
CONTINUOUS
 10
-45.85
 20
42.9311204268
 11
-11.6688795732
 21
42.9311204268
  0
LINE
  5
8EC
100
AcDbEntity
  8
RACCORDO
100
AcDbLine
 62
253
  6
CONTINUOUS
 10
-10.8311204268
 20
42.9311204268
 11
10.8311204268
 21
42.9311204268
  0
LINE
  5
8ED
100
AcDbEntity
  8
RACCORDO
100
AcDbLine
 62
253
  6
CONTINUOUS
 10
11.6688795732
 20
42.9311204268
 11
45.7811204268
 21
42.9311204268
  0
LINE
  5
8EE
100
AcDbEntity
  8
RACCORDO
100
AcDbLine
 62
253
  6
CONTINUOUS
 10
46.6188795732
 20
42.9311204268
 11
69.9811508878
 21
42.9311204268
  0
LINE
  5
8EF
100
AcDbEntity
  8
RACCORDO
100
AcDbLine
 62
7
  6
CONTINUOUS
 10
70.050030461
 20
43.0
 11
46.55
 21
43.0
  0
LINE
  5
8F0
100
AcDbEntity
  8
DRAFT
100
AcDbLine
 62
7
  6
CONTINUOUS
 10
45.85
 20
43.0
 11
11.6
 21
43.0
  0
LINE
  5
8F1
100
AcDbEntity
  8
DRAFT
100
AcDbLine
 62
7
  6
CONTINUOUS
 10
10.9
 20
43.0
 11
-10.9
 21
43.0
  0
LINE
  5
8F2
100
AcDbEntity
  8
DRAFT
100
AcDbLine
 62
7
  6
CONTINUOUS
 10
-11.6
 20
43.0
 11
-45.85
 21
43.0
  0
LINE
  5
8F3
100
AcDbEntity
  8
RACCORDO
100
AcDbLine
 62
7
  6
CONTINUOUS
 10
-46.55
 20
43.0
 11
-70.050030461
 21
43.0
  0
LINE
  5
8F4
100
AcDbEntity
  8
RACCORDO
100
AcDbLine
 62
7
  6
CONTINUOUS
 10
70.3470752324
 20
43.5000000141
 11
-70.3470753694
 21
43.5000000005
  0
LINE
  5
8F5
100
AcDbEntity
  8
RACCORDO
100
AcDbLine
 62
7
  6
CONTINUOUS
 10
71.2506852438
 20
44.4999999988
 11
-71.2506852399
 21
44.4999999992
  0
LWPOLYLINE
  5
8F6
100
AcDbEntity
  8
RACCORDO
100
AcDbPolyline
 62
253
  6
CONTINUOUS
 90
15
 70
0
 10
69.9811508878
 20
42.7655612578
 10
70.0222108547
 20
42.7644786612
 10
70.0422995913
 20
42.7637325627
 10
70.0616772367
 20
42.762452586
 10
70.0801399285
 20
42.760675106
 10
70.097591895
 20
42.758783421
 10
70.1138048327
 20
42.7565564138
 10
70.1285477021
 20
42.7538732059
 10
70.1417322858
 20
42.7511878275
 10
70.1532375874
 20
42.7482659614
 10
70.1628609294
 20
42.744931861
 10
70.1704933055
 20
42.7416732359
 10
70.1761078234
 20
42.738525127
 10
70.1796716693
 20
42.7350816876
 10
70.1811204268
 20
42.7311508878
  0
LINE
  5
8F7
100
AcDbEntity
  8
0
100
AcDbLine
 62
7
  6
CONTINUOUS
 10
21.921547
 20
34.971761
 11
21.97767
 21
34.960221
  0
LINE
  5
8F8
100
AcDbEntity
  8
0
100
AcDbLine
 62
7
  6
CONTINUOUS
 10
22.105889
 20
35.455871
 11
22.030128
 21
35.472241
  0
LINE
  5
8F9
100
AcDbEntity
  8
0
100
AcDbLine
 62
7
  6
CONTINUOUS
 10
21.97767
 20
34.960221
 11
22.030399
 21
34.946178
  0
LINE
  5
8FA
100
AcDbEntity
  8
0
100
AcDbLine
 62
7
  6
CONTINUOUS
 10
22.178963
 20
35.436059
 11
22.105889
 21
35.455871
  0
LWPOLYLINE
  5
8FB
100
AcDbEntity
  8
RACCORDO
100
AcDbPolyline
 62
7
  6
CONTINUOUS
 90
10
 70
0
 10
70.1431484469
 20
24.1068515531
 10
70.1420818444
 20
24.107152767
 10
70.1396072927
 20
24.1074473889
 10
70.1357247918
 20
24.1077354187
 10
70.1304174731
 20
24.1080184148
 10
70.1237022053
 20
24.1082948188
 10
70.1156295943
 20
24.1085599557
 10
70.1061216232
 20
24.1088148782
 10
70.0952563089
 20
24.1090585336
 10
70.0702531835
 20
24.1094875253
  0
LINE
  5
8FC
100
AcDbEntity
  8
0
100
AcDbLine
 62
7
  6
CONTINUOUS
 10
22.249315
 20
35.412888
 11
22.178963
 21
35.436059
  0
LINE
  5
8FD
100
AcDbEntity
  8
0
100
AcDbLine
 62
7
  6
CONTINUOUS
 10
22.030399
 20
34.946178
 11
22.079796
 21
34.929808
  0
LINE
  5
8FE
100
AcDbEntity
  8
RACCORDO
100
AcDbLine
 62
7
  6
CONTINUOUS
 10
67.2857171432
 20
24.0214559154
 11
67.3352377442
 21
24.0049624612
  0
LINE
  5
8FF
100
AcDbEntity
  8
0
100
AcDbLine
 62
7
  6
CONTINUOUS
 10
22.316921
 20
35.386431
 11
22.249315
 21
35.412888
  0
LINE
  5
900
100
AcDbEntity
  8
0
100
AcDbLine
 62
7
  6
CONTINUOUS
 10
22.079796
 20
34.929808
 11
22.125941
 21
34.911274
  0
LWPOLYLINE
  5
901
100
AcDbEntity
  8
0
100
AcDbPolyline
 62
7
  6
CONTINUOUS
 90
10
 70
0
 10
33.1520460546
 20
28.5494696404
 10
33.1519138551
 20
28.5495265891
 10
33.1517817333
 20
28.5496312377
 10
33.1516496894
 20
28.5497835863
 10
33.1515177044
 20
28.5499836679
 10
33.1513857971
 20
28.5502314495
 10
33.151254024
 20
28.5505268316
 10
33.1511224041
 20
28.5508697811
 10
33.1509909183
 20
28.5512603312
 10
33.1508595668
 20
28.5516984818
  0
LINE
  5
902
100
AcDbEntity
  8
0
100
AcDbLine
 62
7
  6
CONTINUOUS
 10
22.381752
 20
35.356765
 11
22.316921
 21
35.386431
  0
LINE
  5
903
100
AcDbEntity
  8
0
100
AcDbLine
 62
7
  6
CONTINUOUS
 10
22.125941
 20
34.911274
 11
22.168943
 21
34.890711
  0
LINE
  5
904
100
AcDbEntity
  8
0
100
AcDbLine
 62
7
  6
CONTINUOUS
 10
22.443781
 20
35.323952
 11
22.381752
 21
35.356765
  0
LINE
  5
905
100
AcDbEntity
  8
0
100
AcDbLine
 62
7
  6
CONTINUOUS
 10
22.168943
 20
34.890711
 11
22.208914
 21
34.868242
  0
LINE
  5
906
100
AcDbEntity
  8
0
100
AcDbLine
 62
7
  6
CONTINUOUS
 10
22.502978
 20
35.288059
 11
22.443781
 21
35.323952
  0
LINE
  5
907
100
AcDbEntity
  8
0
100
AcDbLine
 62
7
  6
CONTINUOUS
 10
22.208914
 20
34.868242
 11
22.245982
 21
34.843955
  0
LINE
  5
908
100
AcDbEntity
  8
0
100
AcDbLine
 62
7
  6
CONTINUOUS
 10
22.559312
 20
35.249142
 11
22.502978
 21
35.288059
  0
LINE
  5
909
100
AcDbEntity
  8
0
100
AcDbLine
 62
7
  6
CONTINUOUS
 10
22.245982
 20
34.843955
 11
22.280283
 21
34.817901
  0
LINE
  5
90A
100
AcDbEntity
  8
0
100
AcDbLine
 62
7
  6
CONTINUOUS
 10
22.612746
 20
35.207256
 11
22.559312
 21
35.249142
  0
LINE
  5
90B
100
AcDbEntity
  8
0
100
AcDbLine
 62
7
  6
CONTINUOUS
 10
22.280283
 20
34.817901
 11
22.311942
 21
34.790111
  0
LINE
  5
90C
100
AcDbEntity
  8
0
100
AcDbLine
 62
7
  6
CONTINUOUS
 10
22.663245
 20
35.162452
 11
22.612746
 21
35.207256
  0
LINE
  5
90D
100
AcDbEntity
  8
0
100
AcDbLine
 62
7
  6
CONTINUOUS
 10
35.3641963536
 20
26.9465093858
 11
34.95
 21
27.35
  0
LINE
  5
90E
100
AcDbEntity
  8
0
100
AcDbLine
 62
7
  6
CONTINUOUS
 10
32.8660772393
 20
28.2593709863
 11
32.850136964
 21
28.2752649765
  0
LINE
  5
90F
100
AcDbEntity
  8
0
100
AcDbLine
 62
7
  6
CONTINUOUS
 10
32.8678933968
 20
28.8600557844
 11
32.8519546125
 21
28.8759468191
  0
LINE
  5
910
100
AcDbEntity
  8
RACCORDO
100
AcDbLine
 62
7
  6
CONTINUOUS
 10
11.6688795732
 20
42.9311204268
 11
11.6
 21
43.0
  0
LINE
  5
911
100
AcDbEntity
  8
0
100
AcDbLine
 62
7
  6
CONTINUOUS
 10
24.348192
 20
33.509885
 11
26.355325
 21
31.502748
  0
LINE
  5
912
100
AcDbEntity
  8
0
100
AcDbLine
 62
7
  6
CONTINUOUS
 10
27.079006
 20
31.502748
 11
25.071935
 21
33.509883
  0
LINE
  5
913
100
AcDbEntity
  8
0
100
AcDbLine
 62
253
  6
CONTINUOUS
 10
32.1360402013
 20
27.4641425506
 11
31.9482180393
 21
27.651961212
  0
LINE
  5
914
100
AcDbEntity
  8
0
100
AcDbLine
 62
253
  6
CONTINUOUS
 10
32.4463209205
 20
27.7534963276
 11
32.249767363
 21
27.9500457878
  0
LINE
  5
915
100
AcDbEntity
  8
0
100
AcDbLine
 62
7
  6
CONTINUOUS
 10
33.1499542122
 20
27.9500457878
 11
33.35
 21
27.75
  0
LINE
  5
916
100
AcDbEntity
  8
0
100
AcDbLine
 62
7
  6
CONTINUOUS
 10
22.710693
 20
35.114853
 11
22.663245
 21
35.162452
  0
LINE
  5
917
100
AcDbEntity
  8
0
100
AcDbLine
 62
7
  6
CONTINUOUS
 10
22.311942
 20
34.790111
 11
22.341005
 21
34.760638
  0
LINE
  5
918
100
AcDbEntity
  8
0
100
AcDbLine
 62
7
  6
CONTINUOUS
 10
32.8980987974
 20
28.2269621188
 11
32.8660772393
 21
28.2593709863
  0
LINE
  5
919
100
AcDbEntity
  8
0
100
AcDbLine
 62
7
  6
CONTINUOUS
 10
32.8999118828
 20
28.8276434954
 11
32.8678933968
 21
28.8600557844
  0
LINE
  5
91A
100
AcDbEntity
  8
0
100
AcDbLine
 62
7
  6
CONTINUOUS
 10
32.9304201
 20
28.1940553931
 11
32.8980987974
 21
28.2269621188
  0
LINE
  5
91B
100
AcDbEntity
  8
0
100
AcDbLine
 62
7
  6
CONTINUOUS
 10
32.9322299859
 20
28.7947202098
 11
32.8999118828
 21
28.8276434954
  0
LINE
  5
91C
100
AcDbEntity
  8
0
100
AcDbLine
 62
7
  6
CONTINUOUS
 10
32.9782497702
 20
28.1447100405
 11
32.9304201
 21
28.1940553931
  0
LINE
  5
91D
100
AcDbEntity
  8
0
100
AcDbLine
 62
7
  6
CONTINUOUS
 10
32.9800547023
 20
28.7453238453
 11
32.9322299859
 21
28.7947202098
  0
LINE
  5
91E
100
AcDbEntity
  8
0
100
AcDbLine
 62
7
  6
CONTINUOUS
 10
33.0239906074
 20
28.0967001888
 11
32.9782497702
 21
28.1447100405
  0
LINE
  5
91F
100
AcDbEntity
  8
0
100
AcDbLine
 62
7
  6
CONTINUOUS
 10
33.025790439
 20
28.6972298427
 11
32.9800547023
 21
28.7453238453
  0
LWPOLYLINE
  5
920
100
AcDbEntity
  8
0
100
AcDbPolyline
 62
7
  6
CONTINUOUS
 90
4
 70
0
 10
33.0789262891
 20
28.0374428793
 10
33.0660695883
 20
28.0515626317
 10
33.0525096174
 20
28.0661664709
 10
33.0239906074
 20
28.0967001888
  0
LWPOLYLINE
  5
921
100
AcDbEntity
  8
0
100
AcDbPolyline
 62
7
  6
CONTINUOUS
 90
4
 70
0
 10
33.0807191254
 20
28.6378051504
 10
33.0678641835
 20
28.6519729641
 10
33.0543059731
 20
28.6666205811
 10
33.025790439
 20
28.6972298427
  0
LINE
  5
922
100
AcDbEntity
  8
0
100
AcDbLine
 62
7
  6
CONTINUOUS
 10
22.754891
 20
35.064658
 11
22.710693
 21
35.114853
  0
LINE
  5
923
100
AcDbEntity
  8
0
100
AcDbLine
 62
7
  6
CONTINUOUS
 10
22.341005
 20
34.760638
 11
22.367574
 21
34.729444
  0
LINE
  5
924
100
AcDbEntity
  8
0
100
AcDbLine
 62
7
  6
CONTINUOUS
 10
22.795733
 20
35.012007
 11
22.754891
 21
35.064658
  0
LWPOLYLINE
  5
925
100
AcDbEntity
  8
0
100
AcDbPolyline
 62
7
  6
CONTINUOUS
 90
9
 70
0
 10
33.1490796797
 20
27.9519724288
 10
33.1468635194
 20
27.9559431926
 10
33.1431315319
 20
27.961739291
 10
33.1378837171
 20
27.969156161
 10
33.1309585257
 20
27.9779728169
 10
33.1225175069
 20
27.9880011313
 10
33.1130453091
 20
27.9991149172
 10
33.1025941785
 20
28.0111428964
 10
33.0789262891
 20
28.0374428793
  0
LWPOLYLINE
  5
926
100
AcDbEntity
  8
0
100
AcDbPolyline
 62
7
  6
CONTINUOUS
 90
9
 70
0
 10
33.1508596262
 20
28.5516983052
 10
33.148644224
 20
28.5557579317
 10
33.1449132006
 20
28.5616387915
 10
33.1396665558
 20
28.5691359728
 10
33.1327427902
 20
28.5780281126
 10
33.1243034034
 20
28.5881270581
 10
33.1148328937
 20
28.5993068767
 10
33.1043834757
 20
28.6113961839
 10
33.0807191254
 20
28.6378051504
  0
LINE
  5
927
100
AcDbEntity
  8
0
100
AcDbLine
 62
7
  6
CONTINUOUS
 10
45.1043634339
 20
-14.0174603847
 11
45.1272055718
 21
-14.1088637441
  0
LINE
  5
928
100
AcDbEntity
  8
DRAFT
100
AcDbLine
 62
7
  6
CONTINUOUS
 10
50.0730200998
 20
-23.8821420141
 11
50.023285147
 21
-23.4169426433
  0
LINE
  5
929
100
AcDbEntity
  8
DRAFT
100
AcDbLine
 62
7
  6
CONTINUOUS
 10
50.023285147
 20
-23.4169426433
 11
50.0040797367
 21
-23.230869448
  0
LWPOLYLINE
  5
92A
100
AcDbEntity
  8
0
100
AcDbPolyline
 62
253
  6
CONTINUOUS
 90
22
 70
0
 10
46.5795212939
 20
-14.6085591576
 10
46.5780992523
 20
-14.5711983699
 10
46.5738866079
 20
-14.5340466456
 10
46.566906925
 20
-14.4973119614
 10
46.557199202
 20
-14.4611997806
 10
46.5448177941
 20
-14.4259124543
 10
46.5298322436
 20
-14.3916480422
 10
46.5123267215
 20
-14.3585986274
 10
46.4923991814
 20
-14.3269488205
 10
46.4701609326
 20
-14.296875314
 10
46.4457352918
 20
-14.2685452081
 10
46.4192599474
 20
-14.2421185054
 10
46.3908866789
 20
-14.217745997
 10
46.3607773932
 20
-14.1955649867
 10
46.3290989662
 20
-14.1756967388
 10
46.2960252307
 20
-14.1582496524
 10
46.2617208223
 20
-14.1433132899
 10
46.2263968057
 20
-14.1309821688
 10
46.1903107825
 20
-14.1213388963
 10
46.1536879122
 20
-14.1144270421
 10
46.1167147011
 20
-14.1102655147
 10
46.0795974464
 20
-14.1088637441
  0
LINE
  5
92B
100
AcDbEntity
  8
DRAFT
100
AcDbLine
 62
7
  6
CONTINUOUS
 10
46.5714559154
 20
36.5357171432
 11
46.6009554821
 21
35.5599784182
  0
LINE
  5
92C
100
AcDbEntity
  8
DRAFT
100
AcDbLine
 62
7
  6
CONTINUOUS
 10
45.7837534229
 20
-27.5402540431
 11
45.7662156883
 21
-25.8
  0
LINE
  5
92D
100
AcDbEntity
  8
DRAFT
100
AcDbLine
 62
7
  6
CONTINUOUS
 10
46.6157928661
 20
27.5852753877
 11
46.6337843117
 21
25.8
  0
LINE
  5
92E
100
AcDbEntity
  8
DRAFT
100
AcDbLine
 62
7
  6
CONTINUOUS
 10
45.7986374192
 20
-35.5465130714
 11
45.7879529858
 21
-30.2135284215
  0
LINE
  5
92F
100
AcDbEntity
  8
DRAFT
100
AcDbLine
 62
7
  6
CONTINUOUS
 10
46.6009554821
 20
35.5599784182
 11
46.6144799237
 21
28.4733245587
  0
LINE
  5
930
100
AcDbEntity
  8
DRAFT
100
AcDbLine
 62
7
  6
CONTINUOUS
 10
45.7879529858
 20
-30.2135284215
 11
45.7837534229
 21
-27.5402540431
  0
LINE
  5
931
100
AcDbEntity
  8
DRAFT
100
AcDbLine
 62
7
  6
CONTINUOUS
 10
46.6144799237
 20
28.4733245587
 11
46.6157928661
 21
27.5852753877
  0
LINE
  5
932
100
AcDbEntity
  8
0
100
AcDbLine
 62
7
  6
CONTINUOUS
 10
45.1
 20
-21.7010963722
 11
45.1
 21
-19.0
  0
LINE
  5
933
100
AcDbEntity
  8
0
100
AcDbLine
 62
7
  6
CONTINUOUS
 10
45.1
 20
19.0
 11
45.1
 21
21.7010963722
  0
LINE
  5
934
100
AcDbEntity
  8
0
100
AcDbLine
 62
7
  6
CONTINUOUS
 10
45.1043634339
 20
-14.0174603847
 11
45.1043634339
 21
18.9825396153
  0
LINE
  5
935
100
AcDbEntity
  8
0
100
AcDbLine
 62
7
  6
CONTINUOUS
 10
45.131416724
 20
-14.6085591576
 11
45.131416724
 21
-18.3914408424
  0
LINE
  5
936
100
AcDbEntity
  8
0
100
AcDbLine
 62
7
  6
CONTINUOUS
 10
45.7662156883
 20
-24.0
 11
45.7662156883
 21
-25.8
  0
LINE
  5
937
100
AcDbEntity
  8
0
100
AcDbLine
 62
7
  6
CONTINUOUS
 10
45.7662156883
 20
24.0
 11
45.7662156883
 21
25.8
  0
LINE
  5
938
100
AcDbEntity
  8
RACCORDO
100
AcDbLine
 62
7
  6
CONTINUOUS
 10
45.85
 20
-43.0
 11
45.85
 21
-36.8848266046
  0
LINE
  5
939
100
AcDbEntity
  8
RACCORDO
100
AcDbLine
 62
7
  6
CONTINUOUS
 10
45.85
 20
36.8848266046
 11
45.85
 21
43.0
  0
LINE
  5
93A
100
AcDbEntity
  8
0
100
AcDbLine
 62
253
  6
CONTINUOUS
 10
46.0795974464
 20
-14.1088637441
 11
46.0795974464
 21
-18.8911362559
  0
LINE
  5
93B
100
AcDbEntity
  8
RACCORDO
100
AcDbLine
 62
7
  6
CONTINUOUS
 10
46.55
 20
-43.0
 11
46.55
 21
-36.8848266046
  0
LINE
  5
93C
100
AcDbEntity
  8
RACCORDO
100
AcDbLine
 62
7
  6
CONTINUOUS
 10
46.55
 20
36.8848266046
 11
46.55
 21
43.0
  0
LINE
  5
93D
100
AcDbEntity
  8
0
100
AcDbLine
 62
253
  6
CONTINUOUS
 10
46.5795212939
 20
-14.6085591576
 11
46.5795212939
 21
-18.3914408424
  0
LINE
  5
93E
100
AcDbEntity
  8
0
100
AcDbLine
 62
7
  6
CONTINUOUS
 10
46.6250567792
 20
18.9825396153
 11
46.6250567792
 21
-14.5174604312
  0
LINE
  5
93F
100
AcDbEntity
  8
DRAFT
100
AcDbLine
 62
7
  6
CONTINUOUS
 10
46.6337843117
 20
25.8
 11
46.6337843117
 21
24.0837843117
  0
LINE
  5
940
100
AcDbEntity
  8
0
100
AcDbLine
 62
7
  6
CONTINUOUS
 10
46.6337843117
 20
-18.4999999536
 11
46.6337843117
 21
-23.2162156883
  0
LINE
  5
941
100
AcDbEntity
  8
DRAFT
100
AcDbLine
 62
7
  6
CONTINUOUS
 10
46.6337843117
 20
-24.0837843117
 11
46.6337843117
 21
-25.8
  0
LINE
  5
942
100
AcDbEntity
  8
0
100
AcDbLine
 62
7
  6
CONTINUOUS
 10
46.6337843117
 20
19.0
 11
46.6337843117
 21
23.2162156883
  0
LINE
  5
943
100
AcDbEntity
  8
DRAFT
100
AcDbLine
 62
7
  6
CONTINUOUS
 10
46.6512393766
 20
-0.4512393766
 11
46.6512393766
 21
0.4512393766
  0
LINE
  5
944
100
AcDbEntity
  8
DRAFT
100
AcDbLine
 62
7
  6
CONTINUOUS
 10
48.55
 20
-24.0837843117
 11
48.55
 21
-23.2162156883
  0
LINE
  5
945
100
AcDbEntity
  8
DRAFT
100
AcDbLine
 62
7
  6
CONTINUOUS
 10
48.55
 20
23.2162156883
 11
48.55
 21
24.0837843117
  0
LINE
  5
946
100
AcDbEntity
  8
DRAFT
100
AcDbLine
 62
7
  6
CONTINUOUS
 10
46.6157928661
 20
-27.5852753877
 11
46.6066559569
 21
-32.9064721773
  0
LINE
  5
947
100
AcDbEntity
  8
DRAFT
100
AcDbLine
 62
7
  6
CONTINUOUS
 10
45.7837534229
 20
27.5402540431
 11
45.7986374192
 21
35.5465130714
  0
LINE
  5
948
100
AcDbEntity
  8
DRAFT
100
AcDbLine
 62
7
  6
CONTINUOUS
 10
46.6066559569
 20
-32.9064721773
 11
46.6009554821
 21
-35.5599784182
  0
LINE
  5
949
100
AcDbEntity
  8
DRAFT
100
AcDbLine
 62
7
  6
CONTINUOUS
 10
45.7837534229
 20
27.5402540431
 11
45.7662156883
 21
25.8
  0
LINE
  5
94A
100
AcDbEntity
  8
DRAFT
100
AcDbLine
 62
7
  6
CONTINUOUS
 10
46.6337843117
 20
-25.8
 11
46.6157928661
 21
-27.5852753877
  0
LINE
  5
94B
100
AcDbEntity
  8
DRAFT
100
AcDbLine
 62
7
  6
CONTINUOUS
 10
46.5714559154
 20
-36.5357171432
 11
46.6009554821
 21
-35.5599784182
  0
LWPOLYLINE
  5
94C
100
AcDbEntity
  8
0
100
AcDbPolyline
 62
253
  6
CONTINUOUS
 90
22
 70
0
 10
46.5795212939
 20
-18.3914408424
 10
46.5780992523
 20
-18.4288016298
 10
46.5738866081
 20
-18.4659533537
 10
46.5669069253
 20
-18.5026880376
 10
46.5571992024
 20
-18.538800218
 10
46.5448177947
 20
-18.5740875441
 10
46.5298322445
 20
-18.6083519559
 10
46.5123267227
 20
-18.6414013705
 10
46.492399183
 20
-18.6730511772
 10
46.4701609345
 20
-18.7031246835
 10
46.4457352942
 20
-18.7314547894
 10
46.41925995
 20
-18.7578814921
 10
46.3908866819
 20
-18.7822540006
 10
46.3607773967
 20
-18.8044350109
 10
46.3290989702
 20
-18.8243032588
 10
46.2960252351
 20
-18.8417503455
 10
46.2617208269
 20
-18.8566867083
 10
46.2263968102
 20
-18.8690178298
 10
46.1903107866
 20
-18.8786611028
 10
46.1536879154
 20
-18.8855729574
 10
46.1167147029
 20
-18.8897344851
 10
46.0795974464
 20
-18.8911362559
  0
LINE
  5
94D
100
AcDbEntity
  8
DRAFT
100
AcDbLine
 62
7
  6
CONTINUOUS
 10
50.0040797367
 20
23.230869448
 11
50.0528309069
 21
23.6960595384
  0
LINE
  5
94E
100
AcDbEntity
  8
DRAFT
100
AcDbLine
 62
7
  6
CONTINUOUS
 10
50.0528309069
 20
23.6960595384
 11
50.0936030776
 21
24.0682283639
  0
LINE
  5
94F
100
AcDbEntity
  8
0
100
AcDbLine
 62
7
  6
CONTINUOUS
 10
45.1
 20
-19.0
 11
45.1272055718
 21
-18.8911362559
  0
LINE
  5
950
100
AcDbEntity
  8
0
100
AcDbLine
 62
253
  6
CONTINUOUS
 10
46.1252852017
 20
-14.0174603847
 11
46.0795974464
 21
-14.1088637441
  0
LINE
  5
951
100
AcDbEntity
  8
0
100
AcDbLine
 62
253
  6
CONTINUOUS
 10
46.6250567792
 20
-14.5174604312
 11
46.5795212939
 21
-14.6085591576
  0
LINE
  5
952
100
AcDbEntity
  8
0
100
AcDbLine
 62
7
  6
CONTINUOUS
 10
45.7662156883
 20
-24.0
 11
45.739628929
 21
-24.0265867593
  0
LINE
  5
953
100
AcDbEntity
  8
DRAFT
100
AcDbLine
 62
7
  6
CONTINUOUS
 10
46.6337843117
 20
-23.2162156883
 11
46.6611990254
 21
-23.1888009746
  0
LINE
  5
954
100
AcDbEntity
  8
RACCORDO
100
AcDbLine
 62
7
  6
CONTINUOUS
 10
70.2150898701
 20
-0.3849101299
 11
70.1317502263
 21
-0.4682497737
  0
LWPOLYLINE
  5
955
100
AcDbEntity
  8
RACCORDO
100
AcDbPolyline
 62
7
  6
CONTINUOUS
 90
22
 70
0
 10
-70.3470753694
 20
43.5000000005
 10
-70.3815384947
 20
43.4986610081
 10
-70.4144919167
 20
43.4953589788
 10
-70.4459356354
 20
43.4900939127
 10
-70.4758170247
 20
43.4828089461
 10
-70.5041887107
 20
43.4735609426
 10
-70.5312085721
 20
43.4625204938
 10
-70.5569186376
 20
43.4497620769
 10
-70.5812768785
 20
43.4352112147
 10
-70.6043150871
 20
43.4188150672
 10
-70.626152817
 20
43.4005229263
 10
-70.6466705146
 20
43.3803855001
 10
-70.6655413122
 20
43.3585020733
 10
-70.6827738311
 20
43.3347592851
 10
-70.6983594499
 20
43.3092704963
 10
-70.7119454366
 20
43.2824750735
 10
-70.7234424954
 20
43.2544478694
 10
-70.7329399221
 20
43.2251140314
 10
-70.7403528718
 20
43.1946883678
 10
-70.7456530628
 20
43.1632424815
 10
-70.748868777
 20
43.1307047697
 10
-70.7500000141
 20
43.0970752324
  0
LWPOLYLINE
  5
956
100
AcDbEntity
  8
RACCORDO
100
AcDbPolyline
 62
253
  6
CONTINUOUS
 90
14
 70
0
 10
-70.0222108508
 20
42.7644786614
 10
-70.0422995859
 20
42.763732563
 10
-70.0616772301
 20
42.7624525865
 10
-70.080139921
 20
42.7606751068
 10
-70.0975918871
 20
42.758783422
 10
-70.1138048249
 20
42.756556415
 10
-70.1285476948
 20
42.7538732072
 10
-70.1417322794
 20
42.751187829
 10
-70.1532375823
 20
42.7482659629
 10
-70.1628609256
 20
42.7449318623
 10
-70.170493303
 20
42.7416732371
 10
-70.1761078221
 20
42.7385251282
 10
-70.1796716689
 20
42.7350816884
 10
-70.1811204268
 20
42.7311508878
  0
LINE
  5
957
100
AcDbEntity
  8
RACCORDO
100
AcDbLine
 62
7
  6
CONTINUOUS
 10
71.2513704652
 20
45.0
 11
-71.2513704652
 21
45.0
  0
LWPOLYLINE
  5
958
100
AcDbEntity
  8
RACCORDO
100
AcDbPolyline
 62
7
  6
CONTINUOUS
 90
22
 70
0
 10
71.2506852438
 20
44.4999999988
 10
71.2882221511
 20
44.4985555734
 10
71.3251507879
 20
44.494414829
 10
71.3614711543
 20
44.4875777656
 10
71.397367234
 20
44.4779875007
 10
71.4326550432
 20
44.4657009169
 10
71.4667826307
 20
44.4508886614
 10
71.4997376872
 20
44.4335200177
 10
71.531532522
 20
44.4136257024
 10
71.5616521126
 20
44.3914685132
 10
71.5901188031
 20
44.3669440155
 10
71.6169102493
 20
44.3401566439
 10
71.641444396
 20
44.3116824998
 10
71.663620333
 20
44.2815303659
 10
71.6835389706
 20
44.2496914595
 10
71.7009209837
 20
44.216715533
 10
71.7157245718
 20
44.1826153489
 10
71.7279915355
 20
44.1473781447
 10
71.7375679523
 20
44.1115153852
 10
71.7444025148
 20
44.0751975587
 10
71.7485465304
 20
44.038254177
 10
71.7499999992
 20
44.0006852399
  0
LWPOLYLINE
  5
959
100
AcDbEntity
  8
RACCORDO
100
AcDbPolyline
 62
253
  6
CONTINUOUS
 90
19
 70
0
 10
69.9811508878
 20
42.9311204268
 10
69.9985758757
 20
42.9303544817
 10
70.0158683139
 20
42.928073086
 10
70.0328966489
 20
42.9242935927
 10
70.0495313276
 20
42.9190447545
 10
70.0656458087
 20
42.9123664978
 10
70.0811175221
 20
42.9043096118
 10
70.0958287765
 20
42.89493537
 10
70.1096676307
 20
42.8843150881
 10
70.1225287745
 20
42.8725295765
 10
70.1343143559
 20
42.8596685032
 10
70.1449347212
 20
42.8458297028
 10
70.1543090737
 20
42.8311184539
 10
70.1623660954
 20
42.8156466714
 10
70.1690444872
 20
42.7995320616
 10
70.174293438
 20
42.7828972257
 10
70.1780730145
 20
42.7658687189
 10
70.1803544631
 20
42.7485760871
 10
70.1811204268
 20
42.7311508878
  0
LINE
  5
95A
100
AcDbEntity
  8
0
100
AcDbLine
 62
7
  6
CONTINUOUS
 10
45.7662156883
 20
24.0
 11
45.739628929
 21
24.0265867593
  0
LINE
  5
95B
100
AcDbEntity
  8
DRAFT
100
AcDbLine
 62
7
  6
CONTINUOUS
 10
46.6337843117
 20
23.2162156883
 11
46.6611990254
 21
23.1888009746
  0
LINE
  5
95C
100
AcDbEntity
  8
RACCORDO
100
AcDbLine
 62
7
  6
CONTINUOUS
 10
70.2150898701
 20
0.3849101299
 11
70.1317502263
 21
0.4682497737
  0
LINE
  5
95D
100
AcDbEntity
  8
0
100
AcDbLine
 62
7
  6
CONTINUOUS
 10
45.1
 20
19.0
 11
45.1043634339
 21
18.9825396153
  0
LINE
  5
95E
100
AcDbEntity
  8
DRAFT
100
AcDbLine
 62
7
  6
CONTINUOUS
 10
50.0936030776
 20
-24.0682283639
 11
50.0730200998
 21
-23.8821420141
  0
LINE
  5
95F
100
AcDbEntity
  8
RACCORDO
100
AcDbLine
 62
7
  6
CONTINUOUS
 10
46.5714559154
 20
-36.5357171432
 11
46.5549624612
 21
-36.5852377442
  0
LINE
  5
960
100
AcDbEntity
  8
RACCORDO
100
AcDbLine
 62
7
  6
CONTINUOUS
 10
46.5714559154
 20
36.5357171432
 11
46.5549624612
 21
36.5852377442
  0
LINE
  5
961
100
AcDbEntity
  8
DRAFT
100
AcDbLine
 62
7
  6
CONTINUOUS
 10
57.75
 20
0.4512393766
 11
57.75
 21
-0.4512393766
  0
LINE
  5
962
100
AcDbEntity
  8
DRAFT
100
AcDbLine
 62
7
  6
CONTINUOUS
 10
59.4247138769
 20
-0.4220071371
 11
59.4247138769
 21
0.4220071371
  0
LINE
  5
963
100
AcDbEntity
  8
RACCORDO
100
AcDbLine
 62
7
  6
CONTINUOUS
 10
46.6188795732
 20
-42.9311204268
 11
46.55
 21
-43.0
  0
LINE
  5
964
100
AcDbEntity
  8
RACCORDO
100
AcDbLine
 62
7
  6
CONTINUOUS
 10
46.6188795732
 20
42.9311204268
 11
46.55
 21
43.0
  0
LINE
  5
965
100
AcDbEntity
  8
DRAFT
100
AcDbLine
 62
7
  6
CONTINUOUS
 10
70.2150898701
 20
-3.5
 11
70.25
 21
-3.8526539614
  0
LINE
  5
966
100
AcDbEntity
  8
DRAFT
100
AcDbLine
 62
7
  6
CONTINUOUS
 10
66.2530264092
 20
-24.0526773156
 11
66.2248138762
 21
-23.2464697332
  0
LINE
  5
967
100
AcDbEntity
  8
RACCORDO
100
AcDbLine
 62
253
  6
CONTINUOUS
 10
69.9586111591
 20
-33.9930572673
 11
69.9811508878
 21
-42.7655612578
  0
LINE
  5
968
100
AcDbEntity
  8
RACCORDO
100
AcDbLine
 62
253
  6
CONTINUOUS
 10
69.943170074
 20
-24.1102842918
 11
69.9586111591
 21
-33.9930572673
  0
LINE
  5
969
100
AcDbEntity
  8
DRAFT
100
AcDbLine
 62
7
  6
CONTINUOUS
 10
66.8407005033
 20
0.3849101299
 11
66.8407005033
 21
-0.3849101299
  0
LINE
  5
96A
100
AcDbEntity
  8
DRAFT
100
AcDbLine
 62
7
  6
CONTINUOUS
 10
66.95
 20
20.0
 11
66.95
 21
19.2
  0
LINE
  5
96B
100
AcDbEntity
  8
DRAFT
100
AcDbLine
 62
7
  6
CONTINUOUS
 10
66.95
 20
17.4
 11
66.95
 21
16.6
  0
LINE
  5
96C
100
AcDbEntity
  8
DRAFT
100
AcDbLine
 62
7
  6
CONTINUOUS
 10
66.95
 20
14.8
 11
66.95
 21
14.0
  0
LINE
  5
96D
100
AcDbEntity
  8
DRAFT
100
AcDbLine
 62
7
  6
CONTINUOUS
 10
66.95
 20
-14.0
 11
66.95
 21
-14.8
  0
LINE
  5
96E
100
AcDbEntity
  8
DRAFT
100
AcDbLine
 62
7
  6
CONTINUOUS
 10
66.95
 20
-16.6
 11
66.95
 21
-17.4
  0
LINE
  5
96F
100
AcDbEntity
  8
DRAFT
100
AcDbLine
 62
7
  6
CONTINUOUS
 10
66.95
 20
-19.2
 11
66.95
 21
-20.0
  0
LINE
  5
970
100
AcDbEntity
  8
DRAFT
100
AcDbLine
 62
7
  6
CONTINUOUS
 10
67.2857171432
 20
24.0214559154
 11
67.2857171432
 21
23.2785440846
  0
LINE
  5
971
100
AcDbEntity
  8
DRAFT
100
AcDbLine
 62
7
  6
CONTINUOUS
 10
67.2857171432
 20
-23.2785440846
 11
67.2857171432
 21
-24.0214559154
  0
LINE
  5
972
100
AcDbEntity
  8
RACCORDO
100
AcDbLine
 62
253
  6
CONTINUOUS
 10
67.3352377442
 20
-24.0049624612
 11
67.3352377442
 21
-23.2950375388
  0
LINE
  5
973
100
AcDbEntity
  8
RACCORDO
100
AcDbLine
 62
253
  6
CONTINUOUS
 10
67.3352377442
 20
23.2950375388
 11
67.3352377442
 21
24.0049624612
  0
LINE
  5
974
100
AcDbEntity
  8
RACCORDO
100
AcDbLine
 62
253
  6
CONTINUOUS
 10
67.6348266046
 20
-24.0
 11
67.6348266046
 21
-23.3
  0
LINE
  5
975
100
AcDbEntity
  8
RACCORDO
100
AcDbLine
 62
253
  6
CONTINUOUS
 10
67.6348266046
 20
23.3
 11
67.6348266046
 21
24.0
  0
LINE
  5
976
100
AcDbEntity
  8
DRAFT
100
AcDbLine
 62
7
  6
CONTINUOUS
 10
67.6569219382
 20
20.0
 11
67.6569219382
 21
19.1814885976
  0
LINE
  5
977
100
AcDbEntity
  8
DRAFT
100
AcDbLine
 62
7
  6
CONTINUOUS
 10
67.6569219382
 20
17.4185114024
 11
67.6569219382
 21
16.5814885976
  0
LINE
  5
978
100
AcDbEntity
  8
DRAFT
100
AcDbLine
 62
7
  6
CONTINUOUS
 10
67.6569219382
 20
14.8185114024
 11
67.6569219382
 21
14.0
  0
LINE
  5
979
100
AcDbEntity
  8
DRAFT
100
AcDbLine
 62
7
  6
CONTINUOUS
 10
67.6569219382
 20
-14.0
 11
67.6569219382
 21
-14.8185114024
  0
LINE
  5
97A
100
AcDbEntity
  8
DRAFT
100
AcDbLine
 62
7
  6
CONTINUOUS
 10
67.6569219382
 20
-16.5814885976
 11
67.6569219382
 21
-17.4185114024
  0
LINE
  5
97B
100
AcDbEntity
  8
DRAFT
100
AcDbLine
 62
7
  6
CONTINUOUS
 10
67.6569219382
 20
-19.1814885976
 11
67.6569219382
 21
-20.0
  0
LINE
  5
97C
100
AcDbEntity
  8
RACCORDO
100
AcDbLine
 62
253
  6
CONTINUOUS
 10
69.9317807462
 20
-0.4716797974
 11
69.9355905353
 21
-14.0000000057
  0
LINE
  5
97D
100
AcDbEntity
  8
RACCORDO
100
AcDbLine
 62
253
  6
CONTINUOUS
 10
69.9811508878
 20
-42.7655612578
 11
69.9811508878
 21
-42.9311204268
  0
LINE
  5
97E
100
AcDbEntity
  8
DRAFT
100
AcDbLine
 62
7
  6
CONTINUOUS
 10
65.8576914846
 20
-0.4146294998
 11
65.8576914846
 21
0.4146294998
  0
LINE
  5
97F
100
AcDbEntity
  8
RACCORDO
100
AcDbLine
 62
253
  6
CONTINUOUS
 10
69.9355905353
 20
14.0
 11
69.9317807462
 21
0.471679798
  0
LINE
  5
980
100
AcDbEntity
  8
RACCORDO
100
AcDbLine
 62
253
  6
CONTINUOUS
 10
69.9554414323
 20
32.4188136307
 11
69.943170074
 21
24.110284292
  0
LINE
  5
981
100
AcDbEntity
  8
RACCORDO
100
AcDbLine
 62
253
  6
CONTINUOUS
 10
69.9811508878
 20
42.9311204268
 11
69.9554414323
 21
32.4188136307
  0
LINE
  5
982
100
AcDbEntity
  8
DRAFT
100
AcDbLine
 62
7
  6
CONTINUOUS
 10
66.2248138762
 20
23.2464697332
 11
66.2530264092
 21
24.0526773156
  0
LINE
  5
983
100
AcDbEntity
  8
DRAFT
100
AcDbLine
 62
7
  6
CONTINUOUS
 10
70.2150898701
 20
3.5
 11
70.25
 21
3.8526539614
  0
LINE
  5
984
100
AcDbEntity
  8
RACCORDO
100
AcDbLine
 62
7
  6
CONTINUOUS
 10
70.25
 20
-24.0
 11
70.1431484469
 21
-24.1068515531
  0
LINE
  5
985
100
AcDbEntity
  8
RACCORDO
100
AcDbLine
 62
7
  6
CONTINUOUS
 10
70.25
 20
24.0
 11
70.1431484469
 21
24.1068515531
  0
LWPOLYLINE
  5
986
100
AcDbEntity
  8
RACCORDO
100
AcDbPolyline
 62
7
  6
CONTINUOUS
 90
22
 70
0
 10
70.7500000005
 20
43.0970753694
 10
70.7486610081
 20
43.1315384946
 10
70.7453589788
 20
43.1644919165
 10
70.7400939128
 20
43.1959356352
 10
70.7328089461
 20
43.2258170244
 10
70.7235609427
 20
43.2541887104
 10
70.712520494
 20
43.2812085718
 10
70.6997620771
 20
43.3069186373
 10
70.6852112149
 20
43.3312768782
 10
70.6688150674
 20
43.3543150869
 10
70.6505229265
 20
43.3761528168
 10
70.6303855003
 20
43.3966705145
 10
70.6085020734
 20
43.4155413121
 10
70.5847592852
 20
43.432773831
 10
70.5592704964
 20
43.4483594499
 10
70.5324750735
 20
43.4619454366
 10
70.5044478694
 20
43.4734424954
 10
70.4751140313
 20
43.4829399221
 10
70.4446883677
 20
43.4903528718
 10
70.4132424814
 20
43.4956530629
 10
70.3807047696
 20
43.498868777
 10
70.3470752324
 20
43.5000000141
  0
LINE
  5
987
100
AcDbEntity
  8
RACCORDO
100
AcDbLine
 62
253
  6
CONTINUOUS
 10
70.1585889103
 20
-33.9734932945
 11
70.1811204268
 21
-42.7311508878
  0
LINE
  5
988
100
AcDbEntity
  8
RACCORDO
100
AcDbLine
 62
253
  6
CONTINUOUS
 10
70.1431484469
 20
-24.1068515531
 11
70.1585889103
 21
-33.9734932945
  0
LINE
  5
989
100
AcDbEntity
  8
RACCORDO
100
AcDbLine
 62
253
  6
CONTINUOUS
 10
70.1317502263
 20
-0.4682497737
 11
70.1355634798
 21
-14.0
  0
LINE
  5
98A
100
AcDbEntity
  8
DRAFT
100
AcDbLine
 62
7
  6
CONTINUOUS
 10
70.2150898701
 20
3.5
 11
70.2150898701
 21
0.3849101299
  0
LINE
  5
98B
100
AcDbEntity
  8
DRAFT
100
AcDbLine
 62
7
  6
CONTINUOUS
 10
70.2150898701
 20
-0.3849101299
 11
70.2150898701
 21
-3.5
  0
LINE
  5
98C
100
AcDbEntity
  8
RACCORDO
100
AcDbLine
 62
7
  6
CONTINUOUS
 10
70.25
 20
-42.800030461
 11
70.25
 21
-24.0
  0
LINE
  5
98D
100
AcDbEntity
  8
DRAFT
100
AcDbLine
 62
7
  6
CONTINUOUS
 10
70.25
 20
-23.3
 11
70.25
 21
-20.0
  0
LINE
  5
98E
100
AcDbEntity
  8
DRAFT
100
AcDbLine
 62
7
  6
CONTINUOUS
 10
70.25
 20
-19.1135864588
 11
70.25
 21
-17.4864135412
  0
LINE
  5
98F
100
AcDbEntity
  8
DRAFT
100
AcDbLine
 62
7
  6
CONTINUOUS
 10
70.25
 20
-16.5135864588
 11
70.25
 21
-14.8864135412
  0
LINE
  5
990
100
AcDbEntity
  8
DRAFT
100
AcDbLine
 62
7
  6
CONTINUOUS
 10
70.25
 20
-14.0
 11
70.25
 21
-3.8526539614
  0
LINE
  5
991
100
AcDbEntity
  8
DRAFT
100
AcDbLine
 62
7
  6
CONTINUOUS
 10
70.25
 20
3.8526539614
 11
70.25
 21
14.0
  0
LINE
  5
992
100
AcDbEntity
  8
DRAFT
100
AcDbLine
 62
7
  6
CONTINUOUS
 10
70.25
 20
14.8864135412
 11
70.25
 21
16.5135864588
  0
LINE
  5
993
100
AcDbEntity
  8
DRAFT
100
AcDbLine
 62
7
  6
CONTINUOUS
 10
70.25
 20
17.4864135412
 11
70.25
 21
19.1135864588
  0
LINE
  5
994
100
AcDbEntity
  8
DRAFT
100
AcDbLine
 62
7
  6
CONTINUOUS
 10
70.25
 20
20.0
 11
70.25
 21
23.3
  0
LINE
  5
995
100
AcDbEntity
  8
RACCORDO
100
AcDbLine
 62
7
  6
CONTINUOUS
 10
70.25
 20
24.0
 11
70.25
 21
42.800030461
  0
LINE
  5
996
100
AcDbEntity
  8
DRAFT
100
AcDbLine
 62
7
  6
CONTINUOUS
 10
70.7500000138
 20
-43.0970752401
 11
70.75
 21
-3.8526539614
  0
LINE
  5
997
100
AcDbEntity
  8
DRAFT
100
AcDbLine
 62
7
  6
CONTINUOUS
 10
70.75
 20
3.8526539614
 11
70.7500000005
 21
43.0970753694
  0
LINE
  5
998
100
AcDbEntity
  8
DRAFT
100
AcDbLine
 62
7
  6
CONTINUOUS
 10
71.645240128
 20
-3.5
 11
71.645240128
 21
3.5
  0
LINE
  5
999
100
AcDbEntity
  8
RACCORDO
100
AcDbLine
 62
7
  6
CONTINUOUS
 10
71.7499999997
 20
-44.0006852356
 11
71.7499999992
 21
44.0006852399
  0
LINE
  5
99A
100
AcDbEntity
  8
RACCORDO
100
AcDbLine
 62
7
  6
CONTINUOUS
 10
72.25
 20
-44.0013704652
 11
72.25
 21
44.0013704652
  0
LINE
  5
99B
100
AcDbEntity
  8
RACCORDO
100
AcDbLine
 62
253
  6
CONTINUOUS
 10
70.1355634798
 20
14.0
 11
70.1317502263
 21
0.4682497737
  0
LINE
  5
99C
100
AcDbEntity
  8
RACCORDO
100
AcDbLine
 62
253
  6
CONTINUOUS
 10
70.1554193977
 20
32.4013342633
 11
70.1431484469
 21
24.1068515531
  0
LWPOLYLINE
  5
99D
100
AcDbEntity
  8
RACCORDO
100
AcDbPolyline
 62
253
  6
CONTINUOUS
 90
3
 70
0
 10
70.1811204268
 20
42.7311508878
 10
70.1748623585
 20
40.5793669869
 10
70.1554193977
 20
32.4013342633
  0
LWPOLYLINE
  5
99E
100
AcDbEntity
  8
RACCORDO
100
AcDbPolyline
 62
7
  6
CONTINUOUS
 90
22
 70
0
 10
71.7499999997
 20
-44.0006852356
 10
71.7485466419
 20
-44.0382541041
 10
71.7444027018
 20
-44.0751974271
 10
71.7375681794
 20
-44.1115152047
 10
71.7279917544
 20
-44.1473779257
 10
71.715724747
 20
-44.1826151013
 10
71.7009211185
 20
-44.2167152648
 10
71.6835390822
 20
-44.2496911769
 10
71.6636204247
 20
-44.281530077
 10
71.641444468
 20
-44.3116822165
 10
71.6169103008
 20
-44.3401563804
 10
71.5901188344
 20
-44.3669437837
 10
71.5616521237
 20
-44.391468323
 10
71.531532512
 20
-44.413625564
 10
71.4997376561
 20
-44.433519941
 10
71.4667825815
 20
-44.4508886529
 10
71.4326549767
 20
-44.4657010014
 10
71.3973671532
 20
-44.4779876848
 10
71.3614710715
 20
-44.4875779969
 10
71.3251507184
 20
-44.4944150357
 10
71.2882221071
 20
-44.4985557032
 10
71.2506852376
 20
-44.4999999994
  0
LWPOLYLINE
  5
99F
100
AcDbEntity
  8
RACCORDO
100
AcDbPolyline
 62
253
  6
CONTINUOUS
 90
19
 70
0
 10
70.1811204268
 20
-42.7311508878
 10
70.1803544816
 20
-42.7485758759
 10
70.178073086
 20
-42.7658683142
 10
70.1742935926
 20
-42.7828966493
 10
70.1690447543
 20
-42.7995313282
 10
70.1623664976
 20
-42.8156458094
 10
70.1543096114
 20
-42.8311175228
 10
70.1449353694
 20
-42.8458287772
 10
70.1343150874
 20
-42.8596676315
 10
70.1225295757
 20
-42.8725287753
 10
70.1096685022
 20
-42.8843143567
 10
70.0958297016
 20
-42.8949347221
 10
70.0811184525
 20
-42.9043090745
 10
70.0656466698
 20
-42.9123660961
 10
70.0495320599
 20
-42.9190444878
 10
70.032897224
 20
-42.9242934385
 10
70.0158687176
 20
-42.9280730147
 10
69.9985760863
 20
-42.9303544632
 10
69.9811508878
 20
-42.9311204268
  0
ARC
  5
9A0
100
AcDbEntity
  8
0
100
AcDbCircle
 62
7
  6
CONTINUOUS
 10
18.0
 20
-33.5
 40
2.6237424326
100
AcDbArc
 50
292.0885393584
 51
273.4297246723
  0
ARC
  5
9A1
100
AcDbEntity
  8
0
100
AcDbCircle
 62
7
  6
CONTINUOUS
 10
30.417556
 20
-33.5
 40
2.5499986575
100
AcDbArc
 50
87.752529198
 51
272.247470802
  0
ARC
  5
9A2
100
AcDbEntity
  8
0
100
AcDbCircle
 62
7
  6
CONTINUOUS
 10
26.032446
 20
-33.5
 40
2.5499985399
100
AcDbArc
 50
87.7525290943
 51
272.2474709057
  0
ARC
  5
9A3
100
AcDbEntity
  8
0
100
AcDbCircle
 62
7
  6
CONTINUOUS
 10
17.920643
 20
-38.446093
 40
2.3390187052
100
AcDbArc
 50
47.2312712626
 51
84.2012841963
  0
ARC
  5
9A4
100
AcDbEntity
  8
0
100
AcDbCircle
 62
7
  6
CONTINUOUS
 10
18.104722
 20
-38.067224
 40
2.3109495123
100
AcDbArc
 50
45.4348886633
 51
67.5658613447
  0
CIRCLE
  5
9A5
100
AcDbEntity
  8
0
100
AcDbCircle
 62
7
  6
CONTINUOUS
 10
18.0
 20
-33.5
 40
2.20376
  0
ARC
  5
9A6
100
AcDbEntity
  8
0
100
AcDbCircle
 62
7
  6
CONTINUOUS
 10
18.0
 20
-33.5
 40
1.9709567246
100
AcDbArc
 50
299.3041457634
 51
44.9957848293
  0
ARC
  5
9A7
100
AcDbEntity
  8
0
100
AcDbCircle
 62
7
  6
CONTINUOUS
 10
18.0
 20
-33.5
 40
1.9709563643
100
AcDbArc
 50
134.9002846268
 51
240.6958542366
  0
ARC
  5
9A8
100
AcDbEntity
  8
0
100
AcDbCircle
 62
7
  6
CONTINUOUS
 10
30.417556
 20
-33.5
 40
1.7999999246
100
AcDbArc
 50
86.8152613297
 51
167.9753003079
  0
ARC
  5
9A9
100
AcDbEntity
  8
0
100
AcDbCircle
 62
7
  6
CONTINUOUS
 10
26.032446
 20
-33.5
 40
1.7999999246
100
AcDbArc
 50
90.0911434008
 51
273.1847386703
  0
ARC
  5
9AA
100
AcDbEntity
  8
0
100
AcDbCircle
 62
7
  6
CONTINUOUS
 10
30.417556
 20
-33.5
 40
1.7999968808
100
AcDbArc
 50
192.0247203293
 51
273.1847440612
  0
ARC
  5
9AB
100
AcDbEntity
  8
0
100
AcDbCircle
 62
7
  6
CONTINUOUS
 10
18.0
 20
-33.5
 40
1.5790921275
100
AcDbArc
 50
148.0267086216
 51
240.6958772397
  0
ARC
  5
9AC
100
AcDbEntity
  8
0
100
AcDbCircle
 62
7
  6
CONTINUOUS
 10
18.0
 20
-33.5
 40
1.5790919977
100
AcDbArc
 50
299.3041227603
 51
31.9732907039
  0
ELLIPSE
  5
9AD
100
AcDbEntity
  8
RACCORDO
100
AcDbEllipse
 62
7
  6
CONTINUOUS
 10
71.248627654
 20
-43.998627654
 30
0.0
 11
-0.7090462434
 21
0.7090462434
 31
0.0
 40
0.9972646886
 41
2.3575640181
 42
3.9256212891
  0
ELLIPSE
  5
9AE
100
AcDbEntity
  8
RACCORDO
100
AcDbEllipse
 62
7
  6
CONTINUOUS
 10
-71.248627654
 20
-43.998627654
 30
0.0
 11
0.7090462434
 21
0.7090462434
 31
0.0
 40
0.9972646886
 41
2.3575640181
 42
3.9256212891
  0
ELLIPSE
  5
9AF
100
AcDbEntity
  8
RACCORDO
100
AcDbEllipse
 62
7
  6
CONTINUOUS
 10
-71.248627654
 20
43.998627654
 30
0.0
 11
0.7090462434
 21
-0.7090462434
 31
0.0
 40
0.9972646886
 41
2.3575640181
 42
3.9256212891
  0
ELLIPSE
  5
9B0
100
AcDbEntity
  8
RACCORDO
100
AcDbEllipse
 62
7
  6
CONTINUOUS
 10
71.248627654
 20
43.998627654
 30
0.0
 11
-0.7090462434
 21
-0.7090462434
 31
0.0
 40
0.9972646886
 41
2.3575640181
 42
3.9256212891
  0
ELLIPSE
  5
9B1
100
AcDbEntity
  8
0
100
AcDbEllipse
 62
7
  6
CONTINUOUS
 10
-44.2989021232
 20
-21.6989021232
 30
0.0
 11
-0.5672369947
 21
-0.5672369947
 31
0.0
 40
0.9972646886
 41
-0.7840286355
 42
0.7840286355
  0
ELLIPSE
  5
9B2
100
AcDbEntity
  8
0
100
AcDbEllipse
 62
7
  6
CONTINUOUS
 10
-44.2989021232
 20
21.6989021232
 30
0.0
 11
-0.5672369947
 21
0.5672369947
 31
0.0
 40
0.9972646886
 41
-0.7840286355
 42
0.7840286355
  0
ELLIPSE
  5
9B3
100
AcDbEntity
  8
0
100
AcDbEllipse
 62
7
  6
CONTINUOUS
 10
44.2989021232
 20
21.6989021232
 30
0.0
 11
0.5672369947
 21
0.5672369947
 31
0.0
 40
0.9972646886
 41
-0.7840286355
 42
0.7840286355
  0
ELLIPSE
  5
9B4
100
AcDbEntity
  8
0
100
AcDbEllipse
 62
7
  6
CONTINUOUS
 10
44.2989021232
 20
-21.6989021232
 30
0.0
 11
0.5672369947
 21
-0.5672369947
 31
0.0
 40
0.9972646886
 41
-0.7840286355
 42
0.7840286355
  0
ELLIPSE
  5
9B5
100
AcDbEntity
  8
RACCORDO
100
AcDbEllipse
 62
7
  6
CONTINUOUS
 10
-43.7707924873
 20
14.2336437913
 30
0.0
 11
-0.0
 21
165.8332498099
 31
0.0
 40
0.0174550649
 41
1.397884124
 42
1.5112033998
  0
ELLIPSE
  5
9B6
100
AcDbEntity
  8
0
100
AcDbEllipse
 62
7
  6
CONTINUOUS
 10
-8.8207924873
 20
14.2336437913
 30
0.0
 11
-0.0
 21
165.8332498099
 31
0.0
 40
0.0174550649
 41
1.397884124
 42
1.4823858573
  0
ELLIPSE
  5
9B7
100
AcDbEntity
  8
RACCORDO
100
AcDbEllipse
 62
7
  6
CONTINUOUS
 10
-13.6792075127
 20
14.2336437913
 30
0.0
 11
-0.0
 21
165.8332498099
 31
0.0
 40
0.0174550649
 41
-1.4843449675
 42
-1.397884124
  0
ELLIPSE
  5
9B8
100
AcDbEntity
  8
0
100
AcDbEllipse
 62
7
  6
CONTINUOUS
 10
13.6792075127
 20
14.2336437913
 30
0.0
 11
-0.0
 21
165.8332498099
 31
0.0
 40
0.0174550649
 41
1.397884124
 42
1.4823858573
  0
ELLIPSE
  5
9B9
100
AcDbEntity
  8
RACCORDO
100
AcDbEllipse
 62
7
  6
CONTINUOUS
 10
8.8207924873
 20
14.2336437913
 30
0.0
 11
-0.0
 21
165.8332498099
 31
0.0
 40
0.0174550649
 41
-1.4843449675
 42
-1.397884124
  0
ELLIPSE
  5
9BA
100
AcDbEntity
  8
RACCORDO
100
AcDbEllipse
 62
7
  6
CONTINUOUS
 10
48.6292075127
 20
14.2336437913
 30
0.0
 11
-0.0
 21
165.8332498099
 31
0.0
 40
0.0174550649
 41
1.397884124
 42
1.5117089986
  0
ELLIPSE
  5
9BB
100
AcDbEntity
  8
DRAFT
100
AcDbEllipse
 62
7
  6
CONTINUOUS
 10
-66.5698565139
 20
-3.3110691991
 30
0.0
 11
5.1872524353
 21
0.0
 31
0.0
 40
0.1763269807
 41
-2.9335346414
 42
-2.5079046503
  0
ELLIPSE
  5
9BC
100
AcDbEntity
  8
DRAFT
100
AcDbEllipse
 62
7
  6
CONTINUOUS
 10
-77.9551669842
 20
-0.0
 30
0.0
 11
-0.0
 21
448.4
 31
0.0
 40
0.0174550649
 41
-1.5261784914
 42
-1.5204023222
  0
ELLIPSE
  5
9BD
100
AcDbEntity
  8
DRAFT
100
AcDbEllipse
 62
7
  6
CONTINUOUS
 10
-38.8448330158
 20
-0.0
 30
0.0
 11
-0.0
 21
448.4
 31
0.0
 40
0.0174550649
 41
1.5204023222
 42
1.5697444091
  0
ELLIPSE
  5
9BE
100
AcDbEntity
  8
DRAFT
100
AcDbEllipse
 62
7
  6
CONTINUOUS
 10
-38.8448330158
 20
-0.0
 30
0.0
 11
-0.0
 21
448.4
 31
0.0
 40
0.0174550649
 41
-4.7113370627
 42
-4.6619949758
  0
ELLIPSE
  5
9BF
100
AcDbEntity
  8
DRAFT
100
AcDbEllipse
 62
7
  6
CONTINUOUS
 10
-77.9551669842
 20
-0.0
 30
0.0
 11
-0.0
 21
448.4
 31
0.0
 40
0.0174550649
 41
-1.6211903314
 42
-1.6154141622
  0
ELLIPSE
  5
9C0
100
AcDbEntity
  8
DRAFT
100
AcDbEllipse
 62
7
  6
CONTINUOUS
 10
-66.5698565139
 20
3.3110691991
 30
0.0
 11
5.1872524353
 21
0.0
 31
0.0
 40
0.1763269807
 41
2.5079046503
 42
2.9335346414
  0
ELLIPSE
  5
9C1
100
AcDbEntity
  8
DRAFT
100
AcDbEllipse
 62
7
  6
CONTINUOUS
 10
66.5698565139
 20
-3.3110691991
 30
0.0
 11
5.1872524353
 21
0.0
 31
0.0
 40
0.1763269807
 41
-0.6336880033
 42
-0.2080580122
  0
ELLIPSE
  5
9C2
100
AcDbEntity
  8
DRAFT
100
AcDbEllipse
 62
7
  6
CONTINUOUS
 10
77.9551669842
 20
0.0
 30
0.0
 11
-0.0
 21
448.4
 31
0.0
 40
0.0174550649
 41
-4.667771145
 42
-4.6619949758
  0
ELLIPSE
  5
9C3
100
AcDbEntity
  8
DRAFT
100
AcDbEllipse
 62
7
  6
CONTINUOUS
 10
38.8448330158
 20
0.0
 30
0.0
 11
-0.0
 21
448.4
 31
0.0
 40
0.0174550649
 41
-1.6211903314
 42
-1.5718482445
  0
ELLIPSE
  5
9C4
100
AcDbEntity
  8
DRAFT
100
AcDbEllipse
 62
7
  6
CONTINUOUS
 10
38.8448330158
 20
0.0
 30
0.0
 11
-0.0
 21
448.4
 31
0.0
 40
0.0174550649
 41
-1.5697444091
 42
-1.5204023222
  0
ELLIPSE
  5
9C5
100
AcDbEntity
  8
DRAFT
100
AcDbEllipse
 62
7
  6
CONTINUOUS
 10
77.9551669842
 20
-0.0
 30
0.0
 11
-0.0
 21
448.4
 31
0.0
 40
0.0174550649
 41
1.5204023222
 42
1.5261784914
  0
ELLIPSE
  5
9C6
100
AcDbEntity
  8
DRAFT
100
AcDbEllipse
 62
7
  6
CONTINUOUS
 10
66.5698565139
 20
3.3110691991
 30
0.0
 11
5.1872524353
 21
0.0
 31
0.0
 40
0.1763269807
 41
0.2080580122
 42
0.6336880033
  0
ELLIPSE
  5
9C7
100
AcDbEntity
  8
DRAFT
100
AcDbEllipse
 62
7
  6
CONTINUOUS
 10
-43.7707924873
 20
14.2336437913
 30
0.0
 11
-0.0
 21
165.8332498099
 31
0.0
 40
0.0174550649
 41
1.5167690718
 42
1.5204023222
  0
ELLIPSE
  5
9C8
100
AcDbEntity
  8
DRAFT
100
AcDbEllipse
 62
7
  6
CONTINUOUS
 10
-73.0292075127
 20
14.2336437913
 30
0.0
 11
-0.0
 21
165.8332498099
 31
0.0
 40
0.0174550649
 41
-1.5204023222
 42
-1.5167690718
  0
ELLIPSE
  5
9C9
100
AcDbEntity
  8
DRAFT
100
AcDbEllipse
 62
7
  6
CONTINUOUS
 10
43.7707924873
 20
14.2336437913
 30
0.0
 11
-0.0
 21
165.8332498099
 31
0.0
 40
0.0174550649
 41
-1.5204023222
 42
-1.5167690718
  0
ELLIPSE
  5
9CA
100
AcDbEntity
  8
DRAFT
100
AcDbEllipse
 62
7
  6
CONTINUOUS
 10
73.0292075127
 20
14.2336437913
 30
0.0
 11
-0.0
 21
165.8332498099
 31
0.0
 40
0.0174550649
 41
1.5167690718
 42
1.5204023222
  0
ELLIPSE
  5
9CB
100
AcDbEntity
  8
0
100
AcDbEllipse
 62
7
  6
CONTINUOUS
 10
27.1222712309
 20
14.2336437913
 30
0.0
 11
-0.0
 21
165.8332498099
 31
0.0
 40
0.0349207695
 41
-1.5117089986
 42
-1.4943628457
  0
ELLIPSE
  5
9CC
100
AcDbEntity
  8
0
100
AcDbEllipse
 62
7
  6
CONTINUOUS
 10
40.3777287691
 20
14.2336437913
 30
0.0
 11
-0.0
 21
165.8332498099
 31
0.0
 40
0.0349207695
 41
1.4943628457
 42
1.5117089986
  0
ELLIPSE
  5
9CD
100
AcDbEntity
  8
DRAFT
100
AcDbEllipse
 62
7
  6
CONTINUOUS
 10
-43.7707924873
 20
-14.2336437913
 30
0.0
 11
-0.0
 21
165.8332498099
 31
0.0
 40
0.0174550649
 41
-4.6619949758
 42
-4.6583617254
  0
ELLIPSE
  5
9CE
100
AcDbEntity
  8
DRAFT
100
AcDbEllipse
 62
7
  6
CONTINUOUS
 10
-73.0292075127
 20
-14.2336437913
 30
0.0
 11
-0.0
 21
165.8332498099
 31
0.0
 40
0.0174550649
 41
-1.6248235818
 42
-1.6211903314
  0
ELLIPSE
  5
9CF
100
AcDbEntity
  8
DRAFT
100
AcDbEllipse
 62
7
  6
CONTINUOUS
 10
43.7707924873
 20
-14.2336437913
 30
0.0
 11
-0.0
 21
165.8332498099
 31
0.0
 40
0.0174550649
 41
-1.6248235818
 42
-1.6211903314
  0
ELLIPSE
  5
9D0
100
AcDbEntity
  8
DRAFT
100
AcDbEllipse
 62
7
  6
CONTINUOUS
 10
73.0292075127
 20
-14.2336437913
 30
0.0
 11
-0.0
 21
165.8332498099
 31
0.0
 40
0.0174550649
 41
-4.6619949758
 42
-4.6583617254
  0
ELLIPSE
  5
9D1
100
AcDbEntity
  8
0
100
AcDbEllipse
 62
7
  6
CONTINUOUS
 10
27.1222712309
 20
-14.2336437913
 30
0.0
 11
-0.0
 21
165.8332498099
 31
0.0
 40
0.0349207695
 41
-1.6472298079
 42
-1.629883655
  0
ELLIPSE
  5
9D2
100
AcDbEntity
  8
0
100
AcDbEllipse
 62
7
  6
CONTINUOUS
 10
40.3777287691
 20
-14.2336437913
 30
0.0
 11
-0.0
 21
165.8332498099
 31
0.0
 40
0.0349207695
 41
-4.6533016522
 42
-4.6359554993
  0
ELLIPSE
  5
9D3
100
AcDbEntity
  8
0
100
AcDbEllipse
 62
7
  6
CONTINUOUS
 10
-27.1222712309
 20
-14.2336437913
 30
0.0
 11
-0.0
 21
165.8332498099
 31
0.0
 40
0.0349207695
 41
-4.6533016522
 42
-4.6359554993
  0
ELLIPSE
  5
9D4
100
AcDbEntity
  8
0
100
AcDbEllipse
 62
7
  6
CONTINUOUS
 10
-46.1249806152
 20
14.5177651569
 30
0.0
 11
0.2237225876
 21
0.4475815441
 31
0.0
 40
0.9992388003
 41
-4.2485586408
 42
-2.6783713943
  0
ELLIPSE
  5
9D5
100
AcDbEntity
  8
0
100
AcDbEllipse
 62
7
  6
CONTINUOUS
 10
-46.1337081476
 20
18.4996952279
 30
0.0
 11
-0.2237225876
 21
0.4475815441
 31
0.0
 40
0.9992388003
 41
-0.4632212593
 42
1.1069659872
  0
ELLIPSE
  5
9D6
100
AcDbEntity
  8
0
100
AcDbEllipse
 62
7
  6
CONTINUOUS
 10
46.1249806152
 20
-14.5177651569
 30
0.0
 11
0.2237225876
 21
0.4475815441
 31
0.0
 40
0.9992388003
 41
-1.1069659872
 42
0.4632212593
  0
ELLIPSE
  5
9D7
100
AcDbEntity
  8
0
100
AcDbEllipse
 62
7
  6
CONTINUOUS
 10
46.1337081476
 20
-18.4996952279
 30
0.0
 11
-0.2237225876
 21
0.4475815441
 31
0.0
 40
0.9992388003
 41
-3.6048139129
 42
-2.0346266664
  0
ELLIPSE
  5
9D8
100
AcDbEntity
  8
0
100
AcDbEllipse
 62
7
  6
CONTINUOUS
 10
-9.9466992955
 20
26.7533007045
 30
0.0
 11
0.2870477648
 21
0.1248082944
 31
0.0
 40
0.9518332917
 41
-0.3923945879
 42
1.1771837637
  0
ELLIPSE
  5
9D9
100
AcDbEntity
  8
0
100
AcDbEllipse
 62
7
  6
CONTINUOUS
 10
-12.5533007045
 20
26.7533007045
 30
0.0
 11
0.2870477648
 21
-0.1248082944
 31
0.0
 40
0.9518332917
 41
1.9644088899
 42
3.5339872415
  0
ELLIPSE
  5
9DA
100
AcDbEntity
  8
0
100
AcDbEllipse
 62
7
  6
CONTINUOUS
 10
9.9466992955
 20
27.4533007045
 30
0.0
 11
0.2870477648
 21
-0.1248082944
 31
0.0
 40
0.9518332917
 41
1.9644088899
 42
3.5339872415
  0
ELLIPSE
  5
9DB
100
AcDbEntity
  8
0
100
AcDbEllipse
 62
7
  6
CONTINUOUS
 10
12.5533007045
 20
27.4533007045
 30
0.0
 11
0.2870477648
 21
0.1248082944
 31
0.0
 40
0.9518332917
 41
-0.3923945879
 42
1.1771837637
  0
ELLIPSE
  5
9DC
100
AcDbEntity
  8
0
100
AcDbEllipse
 62
7
  6
CONTINUOUS
 10
35.0533007045
 20
27.4533007045
 30
0.0
 11
0.2870477648
 21
0.1248082944
 31
0.0
 40
0.9518332917
 41
-0.3923945879
 42
1.1771837637
  0
ELLIPSE
  5
9DD
100
AcDbEntity
  8
0
100
AcDbEllipse
 62
7
  6
CONTINUOUS
 10
32.4466992955
 20
27.4533007045
 30
0.0
 11
0.2870477648
 21
-0.1248082944
 31
0.0
 40
0.9518332917
 41
1.9644088899
 42
3.5339872415
  0
ELLIPSE
  5
9DE
100
AcDbEntity
  8
0
100
AcDbEllipse
 62
7
  6
CONTINUOUS
 10
35.0533007045
 20
-27.4533007045
 30
0.0
 11
0.2870477648
 21
-0.1248082944
 31
0.0
 40
0.9518332917
 41
-1.1771837637
 42
0.3923945879
  0
ELLIPSE
  5
9DF
100
AcDbEntity
  8
0
100
AcDbEllipse
 62
7
  6
CONTINUOUS
 10
32.4466992955
 20
-27.4533007045
 30
0.0
 11
0.2870477648
 21
0.1248082944
 31
0.0
 40
0.9518332917
 41
2.7491980657
 42
4.3187764173
  0
ELLIPSE
  5
9E0
100
AcDbEntity
  8
0
100
AcDbEllipse
 62
7
  6
CONTINUOUS
 10
12.5533007045
 20
-26.7533007045
 30
0.0
 11
0.2870477648
 21
-0.1248082944
 31
0.0
 40
0.9518332917
 41
-1.1771837637
 42
0.3923945879
  0
ELLIPSE
  5
9E1
100
AcDbEntity
  8
0
100
AcDbEllipse
 62
7
  6
CONTINUOUS
 10
9.9466992955
 20
-26.7533007045
 30
0.0
 11
0.2870477648
 21
0.1248082944
 31
0.0
 40
0.9518332917
 41
2.7491980657
 42
4.3187764173
  0
ELLIPSE
  5
9E2
100
AcDbEntity
  8
0
100
AcDbEllipse
 62
7
  6
CONTINUOUS
 10
-9.9466992955
 20
-27.4533007045
 30
0.0
 11
0.2870477648
 21
-0.1248082944
 31
0.0
 40
0.9518332917
 41
-1.1771837637
 42
0.3923945879
  0
ELLIPSE
  5
9E3
100
AcDbEntity
  8
0
100
AcDbEllipse
 62
7
  6
CONTINUOUS
 10
-12.5533007045
 20
-27.4533007045
 30
0.0
 11
0.2870477648
 21
0.1248082944
 31
0.0
 40
0.9518332917
 41
2.7491980657
 42
4.3187764173
  0
ELLIPSE
  5
9E4
100
AcDbEntity
  8
0
100
AcDbEllipse
 62
7
  6
CONTINUOUS
 10
-32.4466992955
 20
27.4533007045
 30
0.0
 11
0.2870477648
 21
0.1248082944
 31
0.0
 40
0.9518332917
 41
-0.3923945879
 42
1.1771837637
  0
ELLIPSE
  5
9E5
100
AcDbEntity
  8
0
100
AcDbEllipse
 62
7
  6
CONTINUOUS
 10
-35.0533007045
 20
27.4533007045
 30
0.0
 11
0.2870477648
 21
-0.1248082944
 31
0.0
 40
0.9518332917
 41
1.9644088899
 42
3.5339872415
  0
ELLIPSE
  5
9E6
100
AcDbEntity
  8
0
100
AcDbEllipse
 62
7
  6
CONTINUOUS
 10
-32.4466992955
 20
-27.4533007045
 30
0.0
 11
0.2870477648
 21
-0.1248082944
 31
0.0
 40
0.9518332917
 41
-1.1771837637
 42
0.3923945879
  0
ELLIPSE
  5
9E7
100
AcDbEntity
  8
0
100
AcDbEllipse
 62
7
  6
CONTINUOUS
 10
-35.0533007045
 20
-27.4533007045
 30
0.0
 11
0.2870477648
 21
0.1248082944
 31
0.0
 40
0.9518332917
 41
2.7491980657
 42
4.3187764173
  0
ELLIPSE
  5
9E8
100
AcDbEntity
  8
RACCORDO
100
AcDbEllipse
 62
7
  6
CONTINUOUS
 10
-70.0499695344
 20
42.7999695344
 30
0.0
 11
0.1414644378
 21
-0.1414644378
 31
0.0
 40
0.9996954599
 41
2.3563467834
 42
3.9268385237
  0
ELLIPSE
  5
9E9
100
AcDbEntity
  8
RACCORDO
100
AcDbEllipse
 62
7
  6
CONTINUOUS
 10
-70.0499695344
 20
-42.7999695344
 30
0.0
 11
0.1414644378
 21
0.1414644378
 31
0.0
 40
0.9996954599
 41
-3.9268385237
 42
-2.3563467834
  0
ELLIPSE
  5
9EA
100
AcDbEntity
  8
RACCORDO
100
AcDbEllipse
 62
7
  6
CONTINUOUS
 10
70.0499695344
 20
-42.7999695344
 30
0.0
 11
0.1414644378
 21
-0.1414644378
 31
0.0
 40
0.9996954599
 41
-0.7852458701
 42
0.7852458702
  0
ELLIPSE
  5
9EB
100
AcDbEntity
  8
RACCORDO
100
AcDbEllipse
 62
7
  6
CONTINUOUS
 10
70.0499695344
 20
42.7999695344
 30
0.0
 11
0.1414644378
 21
0.1414644378
 31
0.0
 40
0.9996954599
 41
-0.7852458701
 42
0.7852458701
  0
ELLIPSE
  5
9EC
100
AcDbEntity
  8
0
100
AcDbEllipse
 62
7
  6
CONTINUOUS
 10
-40.3777287691
 20
-14.2336437913
 30
0.0
 11
-0.0
 21
165.8332498099
 31
0.0
 40
0.0349207695
 41
-1.6472298079
 42
-1.629883655
  0
ELLIPSE
  5
9ED
100
AcDbEntity
  8
0
100
AcDbEllipse
 62
7
  6
CONTINUOUS
 10
4.6222712309
 20
-14.2336437913
 30
0.0
 11
-0.0
 21
165.8332498099
 31
0.0
 40
0.0349207695
 41
-1.642994262
 42
-1.629883655
  0
ELLIPSE
  5
9EE
100
AcDbEntity
  8
0
100
AcDbEllipse
 62
7
  6
CONTINUOUS
 10
-33.1503198273
 20
28.249863036
 30
0.0
 11
0.0
 21
0.3
 31
0.0
 40
0.0349207695
 41
-3.1066860685
 42
-3.0229371447
  0
ELLIPSE
  5
9EF
100
AcDbEntity
  8
0
100
AcDbEllipse
 62
7
  6
CONTINUOUS
 10
17.8777287691
 20
-14.2336437913
 30
0.0
 11
-0.0
 21
165.8332498099
 31
0.0
 40
0.0349207695
 41
-4.6533016522
 42
-4.6401910452
  0
ELLIPSE
  5
9F0
100
AcDbEntity
  8
0
100
AcDbEllipse
 62
7
  6
CONTINUOUS
 10
-4.6222712309
 20
-14.2336437913
 30
0.0
 11
-0.0
 21
165.8332498099
 31
0.0
 40
0.0349207695
 41
-4.6533016522
 42
-4.6359554993
  0
ELLIPSE
  5
9F1
100
AcDbEntity
  8
0
100
AcDbEllipse
 62
7
  6
CONTINUOUS
 10
-17.8777287691
 20
-14.2336437913
 30
0.0
 11
-0.0
 21
165.8332498099
 31
0.0
 40
0.0349207695
 41
-1.6472298079
 42
-1.629883655
  0
ELLIPSE
  5
9F2
100
AcDbEntity
  8
RACCORDO
100
AcDbEllipse
 62
7
  6
CONTINUOUS
 10
-43.7707924873
 20
-14.2336437913
 30
0.0
 11
-0.0
 21
165.8332498099
 31
0.0
 40
0.0174550649
 41
-4.6527960534
 42
-4.5394767776
  0
ELLIPSE
  5
9F3
100
AcDbEntity
  8
RACCORDO
100
AcDbEllipse
 62
7
  6
CONTINUOUS
 10
43.7707924873
 20
-14.2336437913
 30
0.0
 11
-0.0
 21
165.8332498099
 31
0.0
 40
0.0174550649
 41
-1.7437085295
 42
-1.6303892538
  0
ELLIPSE
  5
9F4
100
AcDbEntity
  8
RACCORDO
100
AcDbEllipse
 62
7
  6
CONTINUOUS
 10
48.6292075127
 20
-14.2336437913
 30
0.0
 11
-0.0
 21
165.8332498099
 31
0.0
 40
0.0174550649
 41
-4.6533016522
 42
-4.5394767776
  0
ELLIPSE
  5
9F5
100
AcDbEntity
  8
0
100
AcDbEllipse
 62
7
  6
CONTINUOUS
 10
8.8207924873
 20
-14.2336437913
 30
0.0
 11
-0.0
 21
165.8332498099
 31
0.0
 40
0.0174550649
 41
-1.7437085295
 42
-1.6592067963
  0
ELLIPSE
  5
9F6
100
AcDbEntity
  8
0
100
AcDbEllipse
 62
7
  6
CONTINUOUS
 10
-34.3496801727
 20
28.249863036
 30
0.0
 11
-0.0
 21
0.3
 31
0.0
 40
0.0349207695
 41
-3.2602481624
 42
-3.1764992386
  0
ELLIPSE
  5
9F7
100
AcDbEntity
  8
0
100
AcDbEllipse
 62
7
  6
CONTINUOUS
 10
-34.3496801727
 20
-28.249863036
 30
0.0
 11
-0.0
 21
0.3
 31
0.0
 40
0.0349207695
 41
0.034906585
 42
0.1186555088
  0
ELLIPSE
  5
9F8
100
AcDbEntity
  8
0
100
AcDbEllipse
 62
7
  6
CONTINUOUS
 10
-33.1503198273
 20
-28.249863036
 30
0.0
 11
-0.0
 21
0.3
 31
0.0
 40
0.0349207695
 41
-0.1186555088
 42
-0.034906585
  0
ELLIPSE
  5
9F9
100
AcDbEntity
  8
RACCORDO
100
AcDbEllipse
 62
7
  6
CONTINUOUS
 10
13.6792075127
 20
-14.2336437913
 30
0.0
 11
-0.0
 21
165.8332498099
 31
0.0
 40
0.0174550649
 41
-4.6259376211
 42
-4.5394767776
  0
ELLIPSE
  5
9FA
100
AcDbEntity
  8
0
100
AcDbEllipse
 62
7
  6
CONTINUOUS
 10
-13.6792075127
 20
-14.2336437913
 30
0.0
 11
-0.0
 21
165.8332498099
 31
0.0
 40
0.0174550649
 41
-1.7437085295
 42
-1.6592067963
  0
ELLIPSE
  5
9FB
100
AcDbEntity
  8
0
100
AcDbEllipse
 62
7
  6
CONTINUOUS
 10
11.8496801727
 20
28.249863036
 30
0.0
 11
-0.0
 21
0.3
 31
0.0
 40
0.0349207695
 41
-3.1066860686
 42
-3.0229371448
  0
ELLIPSE
  5
9FC
100
AcDbEntity
  8
0
100
AcDbEllipse
 62
7
  6
CONTINUOUS
 10
10.6503198273
 20
28.249863036
 30
0.0
 11
0.0
 21
0.3
 31
0.0
 40
0.0349207695
 41
-3.2602481624
 42
-3.1764992386
  0
ELLIPSE
  5
9FD
100
AcDbEntity
  8
0
100
AcDbEllipse
 62
7
  6
CONTINUOUS
 10
10.6483004906
 20
-27.5518823727
 30
0.0
 11
-0.0
 21
0.3
 31
0.0
 40
0.0349207695
 41
0.034906585
 42
0.1144364343
  0
ELLIPSE
  5
9FE
100
AcDbEntity
  8
0
100
AcDbEllipse
 62
7
  6
CONTINUOUS
 10
11.8516995094
 20
-27.5518823727
 30
0.0
 11
-0.0
 21
0.3
 31
0.0
 40
0.0349207695
 41
-0.1144364342
 42
-0.034906585
  0
ELLIPSE
  5
9FF
100
AcDbEntity
  8
0
100
AcDbEllipse
 62
7
  6
CONTINUOUS
 10
-10.6483004906
 20
27.5518823727
 30
0.0
 11
0.0
 21
0.3
 31
0.0
 40
0.0349207695
 41
-3.1066860685
 42
-3.0271562193
  0
ELLIPSE
  5
A00
100
AcDbEntity
  8
RACCORDO
100
AcDbEllipse
 62
7
  6
CONTINUOUS
 10
-8.8207924873
 20
-14.2336437913
 30
0.0
 11
-0.0
 21
165.8332498099
 31
0.0
 40
0.0174550649
 41
-4.6259376211
 42
-4.5394767776
  0
ELLIPSE
  5
A01
100
AcDbEntity
  8
RACCORDO
100
AcDbEllipse
 62
7
  6
CONTINUOUS
 10
-48.6292075127
 20
-14.2336437913
 30
0.0
 11
-0.0
 21
165.8332498099
 31
0.0
 40
0.0174550649
 41
-1.7437085295
 42
-1.629883655
  0
ELLIPSE
  5
A02
100
AcDbEntity
  8
0
100
AcDbEllipse
 62
7
  6
CONTINUOUS
 10
-11.8516995094
 20
27.5518823727
 30
0.0
 11
-0.0
 21
0.3
 31
0.0
 40
0.0349207695
 41
-3.2560290878
 42
-3.1764992386
  0
ELLIPSE
  5
A03
100
AcDbEntity
  8
0
100
AcDbEllipse
 62
7
  6
CONTINUOUS
 10
34.3496801727
 20
28.249863036
 30
0.0
 11
-0.0
 21
0.3
 31
0.0
 40
0.0349207695
 41
-3.1066860686
 42
-3.0229371447
  0
ELLIPSE
  5
A04
100
AcDbEntity
  8
0
100
AcDbEllipse
 62
7
  6
CONTINUOUS
 10
33.1503198273
 20
28.249863036
 30
0.0
 11
0.0
 21
0.3
 31
0.0
 40
0.0349207695
 41
-3.2602481624
 42
-3.1764992386
  0
ELLIPSE
  5
A05
100
AcDbEntity
  8
0
100
AcDbEllipse
 62
7
  6
CONTINUOUS
 10
-40.3777287691
 20
14.2336437913
 30
0.0
 11
-0.0
 21
165.8332498099
 31
0.0
 40
0.0349207695
 41
-1.5117089986
 42
-1.4943628457
  0
ELLIPSE
  5
A06
100
AcDbEntity
  8
0
100
AcDbEllipse
 62
7
  6
CONTINUOUS
 10
-27.1222712309
 20
14.2336437913
 30
0.0
 11
-0.0
 21
165.8332498099
 31
0.0
 40
0.0349207695
 41
1.4943628457
 42
1.5117089986
  0
ELLIPSE
  5
A07
100
AcDbEntity
  8
0
100
AcDbEllipse
 62
7
  6
CONTINUOUS
 10
4.6222712309
 20
14.2336437913
 30
0.0
 11
-0.0
 21
165.8332498099
 31
0.0
 40
0.0349207695
 41
-1.5117089986
 42
-1.4943628457
  0
ELLIPSE
  5
A08
100
AcDbEntity
  8
0
100
AcDbEllipse
 62
7
  6
CONTINUOUS
 10
17.8777287691
 20
14.2336437913
 30
0.0
 11
-0.0
 21
165.8332498099
 31
0.0
 40
0.0349207695
 41
1.4943628457
 42
1.5117089986
  0
ELLIPSE
  5
A09
100
AcDbEntity
  8
0
100
AcDbEllipse
 62
7
  6
CONTINUOUS
 10
-11.8496801727
 20
-28.249863036
 30
0.0
 11
0.0
 21
0.3
 31
0.0
 40
0.0349207695
 41
0.034906585
 42
0.1186555088
  0
ELLIPSE
  5
A0A
100
AcDbEntity
  8
0
100
AcDbEllipse
 62
7
  6
CONTINUOUS
 10
-10.6503198273
 20
-28.249863036
 30
0.0
 11
0.0
 21
0.3
 31
0.0
 40
0.0349207695
 41
-0.1186555088
 42
-0.034906585
  0
ELLIPSE
  5
A0B
100
AcDbEntity
  8
0
100
AcDbEllipse
 62
7
  6
CONTINUOUS
 10
45.1270532902
 20
-18.3914408424
 30
0.0
 11
-0.0
 21
0.5
 31
0.0
 40
0.0087268678
 41
-3.1066860685
 42
-1.5707963268
  0
ELLIPSE
  5
A0C
100
AcDbEntity
  8
0
100
AcDbEllipse
 62
7
  6
CONTINUOUS
 10
45.1270532902
 20
-14.6085591576
 30
0.0
 11
-0.0
 21
0.5
 31
0.0
 40
0.0087268678
 41
-1.5707963268
 42
-0.034906585
  0
ELLIPSE
  5
A0D
100
AcDbEntity
  8
0
100
AcDbEllipse
 62
7
  6
CONTINUOUS
 10
-45.1270532902
 20
18.3914408424
 30
0.0
 11
-0.0
 21
0.5
 31
0.0
 40
0.0087268678
 41
0.034906585
 42
1.5707963268
  0
ELLIPSE
  5
A0E
100
AcDbEntity
  8
0
100
AcDbEllipse
 62
7
  6
CONTINUOUS
 10
-45.1270532902
 20
14.6085591576
 30
0.0
 11
-0.0
 21
0.5
 31
0.0
 40
0.0087268678
 41
-4.7123889804
 42
-3.1764992386
  0
ELLIPSE
  5
A0F
100
AcDbEntity
  8
RACCORDO
100
AcDbEllipse
 62
7
  6
CONTINUOUS
 10
-46.5552365195
 20
36.8848266046
 30
0.0
 11
0.0
 21
0.3
 31
0.0
 40
0.0174550649
 41
-3.089232776
 42
-1.5707963268
  0
ELLIPSE
  5
A10
100
AcDbEntity
  8
RACCORDO
100
AcDbEllipse
 62
7
  6
CONTINUOUS
 10
-46.6188186466
 20
42.7311508878
 30
0.0
 11
-0.0
 21
0.2
 31
0.0
 40
0.0174550649
 41
0.0174532925
 42
1.397884124
  0
ELLIPSE
  5
A11
100
AcDbEntity
  8
RACCORDO
100
AcDbEllipse
 62
7
  6
CONTINUOUS
 10
-46.5552365195
 20
-36.8848266046
 30
0.0
 11
-0.0
 21
0.3
 31
0.0
 40
0.0174550649
 41
-1.5707963268
 42
-0.0523598776
  0
ELLIPSE
  5
A12
100
AcDbEntity
  8
RACCORDO
100
AcDbEllipse
 62
7
  6
CONTINUOUS
 10
-46.6188186466
 20
-42.7311508878
 30
0.0
 11
-0.0
 21
0.2
 31
0.0
 40
0.0174550649
 41
-4.5394767776
 42
-3.1590459461
  0
ELLIPSE
  5
A13
100
AcDbEntity
  8
RACCORDO
100
AcDbEllipse
 62
7
  6
CONTINUOUS
 10
-67.6348266046
 20
23.2947634805
 30
0.0
 11
0.3
 21
-0.0
 31
0.0
 40
0.0174550649
 41
0.0523598776
 42
1.5707963268
  0
ELLIPSE
  5
A14
100
AcDbEntity
  8
RACCORDO
100
AcDbEllipse
 62
7
  6
CONTINUOUS
 10
-67.6348266046
 20
24.0052365195
 30
0.0
 11
0.3
 21
-0.0
 31
0.0
 40
0.0174550649
 41
-1.5707963268
 42
-0.0523598776
  0
ELLIPSE
  5
A15
100
AcDbEntity
  8
RACCORDO
100
AcDbEllipse
 62
7
  6
CONTINUOUS
 10
-67.6348266046
 20
-24.0052365195
 30
0.0
 11
0.3
 21
-0.0
 31
0.0
 40
0.0174550649
 41
0.0523598776
 42
1.5707963268
  0
ELLIPSE
  5
A16
100
AcDbEntity
  8
RACCORDO
100
AcDbEllipse
 62
7
  6
CONTINUOUS
 10
-67.6348266046
 20
-23.2947634805
 30
0.0
 11
0.3
 21
-0.0
 31
0.0
 40
0.0174550649
 41
-1.5707963268
 42
-0.0523598776
  0
ELLIPSE
  5
A17
100
AcDbEntity
  8
0
100
AcDbEllipse
 62
7
  6
CONTINUOUS
 10
-4.6222712309
 20
14.2336437913
 30
0.0
 11
-0.0
 21
165.8332498099
 31
0.0
 40
0.0349207695
 41
1.4985983916
 42
1.5117089986
  0
ELLIPSE
  5
A18
100
AcDbEntity
  8
RACCORDO
100
AcDbEllipse
 62
7
  6
CONTINUOUS
 10
46.5552365195
 20
36.8848266046
 30
0.0
 11
0.0
 21
0.3
 31
0.0
 40
0.0174550649
 41
-4.7123889804
 42
-3.1939525311
  0
ELLIPSE
  5
A19
100
AcDbEntity
  8
RACCORDO
100
AcDbEllipse
 62
7
  6
CONTINUOUS
 10
46.6188186466
 20
42.7311508878
 30
0.0
 11
-0.0
 21
0.2
 31
0.0
 40
0.0174550649
 41
-1.397884124
 42
-0.0174532925
  0
ELLIPSE
  5
A1A
100
AcDbEntity
  8
RACCORDO
100
AcDbEllipse
 62
7
  6
CONTINUOUS
 10
46.5552365195
 20
-36.8848266046
 30
0.0
 11
0.0
 21
0.3
 31
0.0
 40
0.0174550649
 41
0.0523598776
 42
1.5707963268
  0
ELLIPSE
  5
A1B
100
AcDbEntity
  8
RACCORDO
100
AcDbEllipse
 62
7
  6
CONTINUOUS
 10
46.6188186466
 20
-42.7311508878
 30
0.0
 11
-0.0
 21
0.2
 31
0.0
 40
0.0174550649
 41
-3.1241393611
 42
-1.7437085295
  0
ELLIPSE
  5
A1C
100
AcDbEntity
  8
RACCORDO
100
AcDbEllipse
 62
7
  6
CONTINUOUS
 10
67.6348266046
 20
24.0052365195
 30
0.0
 11
0.3
 21
0.0
 31
0.0
 40
0.0174550649
 41
-3.089232776
 42
-1.5707963268
  0
ELLIPSE
  5
A1D
100
AcDbEntity
  8
RACCORDO
100
AcDbEllipse
 62
7
  6
CONTINUOUS
 10
67.6348266046
 20
23.2947634805
 30
0.0
 11
0.3
 21
-0.0
 31
0.0
 40
0.0174550649
 41
1.5707963268
 42
3.089232776
  0
ELLIPSE
  5
A1E
100
AcDbEntity
  8
RACCORDO
100
AcDbEllipse
 62
7
  6
CONTINUOUS
 10
67.6348266046
 20
-23.2947634805
 30
0.0
 11
0.3
 21
0.0
 31
0.0
 40
0.0174550649
 41
-3.089232776
 42
-1.5707963268
  0
ELLIPSE
  5
A1F
100
AcDbEntity
  8
RACCORDO
100
AcDbEllipse
 62
7
  6
CONTINUOUS
 10
67.6348266046
 20
-24.0052365195
 30
0.0
 11
0.3
 21
0.0
 31
0.0
 40
0.0174550649
 41
1.5707963268
 42
3.089232776
  0
ELLIPSE
  5
A20
100
AcDbEntity
  8
RACCORDO
100
AcDbEllipse
 62
7
  6
CONTINUOUS
 10
45.8447634805
 20
36.8848266046
 30
0.0
 11
-0.0
 21
0.3
 31
0.0
 40
0.0174550649
 41
-3.089232776
 42
-1.5707963268
  0
ELLIPSE
  5
A21
100
AcDbEntity
  8
RACCORDO
100
AcDbEllipse
 62
7
  6
CONTINUOUS
 10
45.7811813534
 20
42.7311508878
 30
0.0
 11
0.0
 21
0.2
 31
0.0
 40
0.0174550649
 41
0.0174532925
 42
1.397884124
  0
ELLIPSE
  5
A22
100
AcDbEntity
  8
RACCORDO
100
AcDbEllipse
 62
7
  6
CONTINUOUS
 10
-45.8447634805
 20
-36.8848266046
 30
0.0
 11
-0.0
 21
0.3
 31
0.0
 40
0.0174550649
 41
0.0523598776
 42
1.5707963268
  0
ELLIPSE
  5
A23
100
AcDbEntity
  8
RACCORDO
100
AcDbEllipse
 62
7
  6
CONTINUOUS
 10
-45.7811813534
 20
-42.7311508878
 30
0.0
 11
0.0
 21
0.2
 31
0.0
 40
0.0174550649
 41
-3.1241393611
 42
-1.7437085295
  0
ELLIPSE
  5
A24
100
AcDbEntity
  8
RACCORDO
100
AcDbEllipse
 62
7
  6
CONTINUOUS
 10
45.8447634805
 20
-36.8848266046
 30
0.0
 11
-0.0
 21
0.3
 31
0.0
 40
0.0174550649
 41
-1.5707963268
 42
-0.0523598776
  0
ELLIPSE
  5
A25
100
AcDbEntity
  8
RACCORDO
100
AcDbEllipse
 62
7
  6
CONTINUOUS
 10
45.7811813534
 20
-42.7311508878
 30
0.0
 11
0.0
 21
0.2
 31
0.0
 40
0.0174550649
 41
-4.5394767776
 42
-3.1590459461
  0
ELLIPSE
  5
A26
100
AcDbEntity
  8
0
100
AcDbEllipse
 62
7
  6
CONTINUOUS
 10
-11.6989011198
 20
28.8494582174
 30
0.0
 11
0.0
 21
0.3
 31
0.0
 40
0.0174550649
 41
1.4823858573
 42
3.1328660073
  0
ELLIPSE
  5
A27
100
AcDbEntity
  8
RACCORDO
100
AcDbEllipse
 62
7
  6
CONTINUOUS
 10
-11.6688186466
 20
42.7311508878
 30
0.0
 11
0.0
 21
0.2
 31
0.0
 40
0.0174550649
 41
0.0174532925
 42
1.397884124
  0
ELLIPSE
  5
A28
100
AcDbEntity
  8
RACCORDO
100
AcDbEllipse
 62
7
  6
CONTINUOUS
 10
-11.6052365195
 20
36.8848266046
 30
0.0
 11
0.0
 21
0.3
 31
0.0
 40
0.0174550649
 41
-3.089232776
 42
-1.5707963268
  0
ELLIPSE
  5
A29
100
AcDbEntity
  8
RACCORDO
100
AcDbEllipse
 62
7
  6
CONTINUOUS
 10
-10.8947634805
 20
36.8848266046
 30
0.0
 11
0.0
 21
0.3
 31
0.0
 40
0.0174550649
 41
-4.7123889804
 42
-3.1939525311
  0
ELLIPSE
  5
A2A
100
AcDbEntity
  8
RACCORDO
100
AcDbEllipse
 62
7
  6
CONTINUOUS
 10
-10.8311813534
 20
42.7311508878
 30
0.0
 11
0.0
 21
0.2
 31
0.0
 40
0.0174550649
 41
-1.397884124
 42
-0.0174532925
  0
ELLIPSE
  5
A2B
100
AcDbEntity
  8
0
100
AcDbEllipse
 62
7
  6
CONTINUOUS
 10
10.8010988802
 20
28.8494582174
 30
0.0
 11
0.0
 21
0.3
 31
0.0
 40
0.0174550649
 41
1.4823858573
 42
3.1328660073
  0
ELLIPSE
  5
A2C
100
AcDbEntity
  8
RACCORDO
100
AcDbEllipse
 62
7
  6
CONTINUOUS
 10
10.8311813534
 20
42.7311508878
 30
0.0
 11
0.0
 21
0.2
 31
0.0
 40
0.0174550649
 41
0.0174532925
 42
1.397884124
  0
ELLIPSE
  5
A2D
100
AcDbEntity
  8
RACCORDO
100
AcDbEllipse
 62
7
  6
CONTINUOUS
 10
10.8947634805
 20
36.8848266046
 30
0.0
 11
-0.0
 21
0.3
 31
0.0
 40
0.0174550649
 41
-3.089232776
 42
-1.5707963268
  0
ELLIPSE
  5
A2E
100
AcDbEntity
  8
RACCORDO
100
AcDbEllipse
 62
7
  6
CONTINUOUS
 10
11.6052365195
 20
36.8848266046
 30
0.0
 11
0.0
 21
0.3
 31
0.0
 40
0.0174550649
 41
-4.7123889804
 42
-3.1939525311
  0
ELLIPSE
  5
A2F
100
AcDbEntity
  8
RACCORDO
100
AcDbEllipse
 62
7
  6
CONTINUOUS
 10
11.6688186466
 20
42.7311508878
 30
0.0
 11
0.0
 21
0.2
 31
0.0
 40
0.0174550649
 41
-1.397884124
 42
-0.0174532925
  0
ELLIPSE
  5
A30
100
AcDbEntity
  8
0
100
AcDbEllipse
 62
7
  6
CONTINUOUS
 10
-10.8010988802
 20
-28.8494582174
 30
0.0
 11
-0.0
 21
0.3
 31
0.0
 40
0.0174550649
 41
-1.6592067963
 42
-0.0087266463
  0
ELLIPSE
  5
A31
100
AcDbEntity
  8
RACCORDO
100
AcDbEllipse
 62
7
  6
CONTINUOUS
 10
-10.8311813534
 20
-42.7311508878
 30
0.0
 11
0.0
 21
0.2
 31
0.0
 40
0.0174550649
 41
-3.1241393611
 42
-1.7437085295
  0
ELLIPSE
  5
A32
100
AcDbEntity
  8
RACCORDO
100
AcDbEllipse
 62
7
  6
CONTINUOUS
 10
-10.8947634805
 20
-36.8848266046
 30
0.0
 11
0.0
 21
0.3
 31
0.0
 40
0.0174550649
 41
0.0523598776
 42
1.5707963268
  0
ELLIPSE
  5
A33
100
AcDbEntity
  8
RACCORDO
100
AcDbEllipse
 62
7
  6
CONTINUOUS
 10
-11.6052365195
 20
-36.8848266046
 30
0.0
 11
0.0
 21
0.3
 31
0.0
 40
0.0174550649
 41
-1.5707963268
 42
-0.0523598776
  0
ELLIPSE
  5
A34
100
AcDbEntity
  8
RACCORDO
100
AcDbEllipse
 62
7
  6
CONTINUOUS
 10
-11.6688186466
 20
-42.7311508878
 30
0.0
 11
0.0
 21
0.2
 31
0.0
 40
0.0174550649
 41
-4.5394767776
 42
-3.1590459461
  0
ELLIPSE
  5
A35
100
AcDbEntity
  8
0
100
AcDbEllipse
 62
7
  6
CONTINUOUS
 10
11.6989011198
 20
-28.8494582174
 30
0.0
 11
-0.0
 21
0.3
 31
0.0
 40
0.0174550649
 41
-1.6592067963
 42
-0.0087266463
  0
ELLIPSE
  5
A36
100
AcDbEntity
  8
RACCORDO
100
AcDbEllipse
 62
7
  6
CONTINUOUS
 10
11.6688186466
 20
-42.7311508878
 30
0.0
 11
0.0
 21
0.2
 31
0.0
 40
0.0174550649
 41
-3.1241393611
 42
-1.7437085295
  0
ELLIPSE
  5
A37
100
AcDbEntity
  8
RACCORDO
100
AcDbEllipse
 62
7
  6
CONTINUOUS
 10
11.6052365195
 20
-36.8848266046
 30
0.0
 11
0.0
 21
0.3
 31
0.0
 40
0.0174550649
 41
0.0523598776
 42
1.5707963268
  0
ELLIPSE
  5
A38
100
AcDbEntity
  8
RACCORDO
100
AcDbEllipse
 62
7
  6
CONTINUOUS
 10
10.8947634805
 20
-36.8848266046
 30
0.0
 11
0.0
 21
0.3
 31
0.0
 40
0.0174550649
 41
-1.5707963268
 42
-0.0523598776
  0
ELLIPSE
  5
A39
100
AcDbEntity
  8
RACCORDO
100
AcDbEllipse
 62
7
  6
CONTINUOUS
 10
10.8311813534
 20
-42.7311508878
 30
0.0
 11
0.0
 21
0.2
 31
0.0
 40
0.0174550649
 41
-4.5394767776
 42
-3.1590459461
  0
ELLIPSE
  5
A3A
100
AcDbEntity
  8
0
100
AcDbEllipse
 62
7
  6
CONTINUOUS
 10
-17.8777287691
 20
14.2336437913
 30
0.0
 11
-0.0
 21
165.8332498099
 31
0.0
 40
0.0349207695
 41
-1.5117089986
 42
-1.4985983916
  0
ELLIPSE
  5
A3B
100
AcDbEntity
  8
0
100
AcDbEllipse
 62
7
  6
CONTINUOUS
 10
34.3496801727
 20
-28.249863036
 30
0.0
 11
-0.0
 21
0.3
 31
0.0
 40
0.0349207695
 41
-0.1186555088
 42
-0.034906585
  0
ELLIPSE
  5
A3C
100
AcDbEntity
  8
0
100
AcDbEllipse
 62
7
  6
CONTINUOUS
 10
33.1503198273
 20
-28.249863036
 30
0.0
 11
0.0
 21
0.3
 31
0.0
 40
0.0349207695
 41
0.034906585
 42
0.1186555088
  0
ELLIPSE
  5
A3D
100
AcDbEntity
  8
RACCORDO
100
AcDbEllipse
 62
7
  6
CONTINUOUS
 10
43.7707924873
 20
14.2336437913
 30
0.0
 11
-0.0
 21
165.8332498099
 31
0.0
 40
0.0174550649
 41
-1.5112033998
 42
-1.397884124
  0
ENDSEC
  0
SECTION
  2
OBJECTS
  0
DICTIONARY
  5
C
100
AcDbDictionary
280
0
281
1
  3
ACAD_GROUP
350
D
  3
ACAD_MLINESTYLE
350
17
  3
ACAD_LAYOUT
350
1A
  3
ACAD_PLOTSETTINGS
350
19
  3
ACAD_PLOTSTYLENAME
350
E
  0
DICTIONARY
  5
D
102
{ACAD_REACTORS
330
C
102
}
100
AcDbDictionary
280
0
281
1
  0
ACDBDICTIONARYWDFLT
  5
E
102
{ACAD_REACTORS
330
C
102
}
100
AcDbDictionary
281
1
  3
Normal
350
F
100
AcDbDictionaryWithDefault
340
F
  0
DICTIONARY
  5
17
102
{ACAD_REACTORS
330
C
102
}
100
AcDbDictionary
280
0
281
1
  3
Standard
350
18
  0
DICTIONARY
  5
19
102
{ACAD_REACTORS
330
C
102
}
100
AcDbDictionary
281
1
  0
DICTIONARY
  5
1A
102
{ACAD_REACTORS
330
C
102
}
100
AcDbDictionary
281
1
  3
Model
350
A3E
  3
Layout1
350
A3F
  0
ACDBPLACEHOLDER
  5
F
102
{ACAD_REACTORS
330
E
102
}
  0
MLINESTYLE
  5
18
102
{ACAD_REACTORS
330
17
102
}
100
AcDbMlineStyle
  2
STANDARD
 70
0
  3

 62
256
 51
90.0
 52
90.0
 71
2
 49
0.5
 62
256
  6
BYLAYER
 49
-0.5
 62
256
  6
BYLAYER
  0
LAYOUT
  5
A3E
102
{ACAD_REACTORS
330
1A
102
}
100
AcDbPlotSettings
  1

  2
none_device
  4
ISO_A4_(297.00_x_210.00_MM)
  6

 40
0.0
 41
0.0
 42
0.0
 43
0.0
 44
297.0
 45
210.0
 46
0.0
 47
0.0
 48
0.0
 49
0.0
140
0.0
141
0.0
142
1.0
143
1.0
 70
1024
 72
1
 73
0
 74
0
  7

 75
0
147
1.0
148
0.0
149
0.0
100
AcDbLayout
  1
Model
 70
0
 71
0
 10
0.0
 20
0.0
 11
297.0
 21
210.0
 12
0.0
 22
0.0
 32
0.0
 14
0.0
 24
0.0
 34
0.0
 15
0.0
 25
0.0
 35
0.0
146
0.0
 13
0.0
 23
0.0
 33
0.0
 16
1.0
 26
0.0
 36
0.0
 17
0.0
 27
1.0
 37
0.0
 76
0
330
212
345
0
346
0
  0
LAYOUT
  5
A3F
102
{ACAD_REACTORS
330
1A
102
}
100
AcDbPlotSettings
  1

  2
none_device
  4
ISO_A4_(297.00_x_210.00_MM)
  6

 40
0.0
 41
0.0
 42
0.0
 43
0.0
 44
297.0
 45
210.0
 46
0.0
 47
0.0
 48
0.0
 49
0.0
140
0.0
141
0.0
142
1.0
143
1.0
 70
0
 72
1
 73
0
 74
0
  7

 75
0
147
1.0
148
0.0
149
0.0
100
AcDbLayout
  1
Layout1
 70
0
 71
1
 10
0.0
 20
0.0
 11
297.0
 21
210.0
 12
0.0
 22
0.0
 32
0.0
 14
0.0
 24
0.0
 34
0.0
 15
0.0
 25
0.0
 35
0.0
146
0.0
 13
0.0
 23
0.0
 33
0.0
 16
1.0
 26
0.0
 36
0.0
 17
0.0
 27
1.0
 37
0.0
 76
0
330
213
345
0
346
0
  0
ENDSEC
  0
EOF
