  0
SECTION
  2
HEADER
  9
$ACADVER
  1
AC1021
  9
$DWGCODEPAGE
  3
ANSI_1252
  9
$EXTMAX
 10
297.0
 20
210.0
 30
0.0
  9
$EXTMIN
 10
0.0
 20
0.0
 30
0.0
  9
$LIMMIN
 10
0.0
 20
0.0
  9
$LIMMAX
 10
297.0
 20
210.0
  9
$VIEWCTR
 10
148.5
 20
105.0
  9
$VIEWSIZE
 40
210.0
  9
$CLAYER
  8
0
  9
$LTSCALE
 40
16.335
  9
$CELTYPE
  6
BYLAYER
  9
$DIMSCALE
 40
1.0
  9
$DIMASZ
 40
3.0
  9
$DIMEXO
 40
1.85625
  9
$DIMDLI
 40
11.286
  9
$DIMEXE
 40
5.346
  9
$DIMCEN
 40
2.673
  9
$DIMLFAC
 40
1.0
  9
$DIMBLK
  1
_FILLED
  9
$DIMTXT
 40
3.0
  9
$DIMTOL
 70
1
  9
$DIMLIM
 70
0
  9
$DIMTFAC
 40
1.0
  9
$DIMTP
 40
0.01
  9
$DIMTM
 40
0.01
  9
$PDMODE
 70
3
  9
$PDSIZE
 40
3.0
  9
$HANDSEED
  5
751
  9
$TILEMODE
 70
1
  9
$MEASUREMENT
 70
1
  9
$INSUNITS
 70
4
  0
ENDSEC
  0
SECTION
  2
CLASSES
  0
CLASS
  1
ACDBDICTIONARYWDFLT
  2
AcDbDictionaryWithDefault
  3
AutoCAD 2000
 90
0
 91
1
280
0
281
0
  0
CLASS
  1
ACDBPLACEHOLDER
  2
AcDbPlaceHolder
  3
AutoCAD 2000
 90
0
 91
1
280
0
281
0
  0
CLASS
  1
LAYOUT
  2
AcDbLayout
  3
AutoCAD 2000
 90
0
 91
0
280
0
281
0
  0
ENDSEC
  0
SECTION
  2
TABLES
  0
TABLE
  2
VPORT
  5
8
100
AcDbSymbolTable
 70
2
  0
VPORT
  5
1F4
100
AcDbSymbolTableRecord
100
AcDbViewportTableRecord
  2
*ACTIVE
 70
0
 10
0.0
 20
0.0
 11
1.0
 21
1.0
 12
148.5
 22
105.0
 13
0.0
 23
0.0
 14
1.0
 24
1.0
 15
0.0
 25
0.0
 16
0.0
 26
0.0
 36
1.0
 17
0.0
 27
0.0
 37
0.0
 40
210.0
 41
1.4142857143
 42
50.0
 43
0.0
 44
0.0
 50
0.0
 51
0.0
 71
0
 72
100
 73
1
 74
1
 75
0
 76
0
 77
0
 78
0
  0
ENDTAB
  0
TABLE
  2
LTYPE
  5
5
100
AcDbSymbolTable
 70
6
  0
LTYPE
  5
14
100
AcDbSymbolTableRecord
100
AcDbLinetypeTableRecord
  2
BYBLOCK
 70
0
  3

 72
65
 73
0
 40
0.0
  0
LTYPE
  5
15
100
AcDbSymbolTableRecord
100
AcDbLinetypeTableRecord
  2
BYLAYER
 70
0
  3

 72
65
 73
0
 40
0.0
  0
LTYPE
  5
16
100
AcDbSymbolTableRecord
100
AcDbLinetypeTableRecord
  2
CONTINUOUS
 70
64
  3
Solid line
 72
65
 73
0
 40
0.0
  0
LTYPE
  5
1F5
100
AcDbSymbolTableRecord
100
AcDbLinetypeTableRecord
  2
CENTER
 70
64
  3
____ _ ____ _ ____ _ ____ _ ____ _ ____ _ ____
 72
65
 73
4
 40
0.6
 49
0.375
 74
0
 49
-0.075
 74
0
 49
0.075
 74
0
 49
-0.075
 74
0
  0
LTYPE
  5
1F6
100
AcDbSymbolTableRecord
100
AcDbLinetypeTableRecord
  2
HIDDEN
 70
64
  3
- - - - - - - - - - - - - - - - - - - -
 72
65
 73
2
 40
0.2
 49
0.1
 74
0
 49
-0.1
 74
0
  0
LTYPE
  5
1F7
100
AcDbSymbolTableRecord
100
AcDbLinetypeTableRecord
  2
PHANTOM
 70
64
  3
_____ _ _ _____ _ _ _____ _ _ _____
 72
65
 73
6
 40
0.8
 49
0.45
 74
0
 49
-0.05
 74
0
 49
0.1
 74
0
 49
-0.05
 74
0
 49
0.1
 74
0
 49
-0.05
 74
0
  0
LTYPE
  5
1F8
100
AcDbSymbolTableRecord
100
AcDbLinetypeTableRecord
  2
DOT
 70
64
  3
. . . . . . . . . . . . . . . . . . . .
 72
65
 73
2
 40
0.2
 49
0.1
 74
0
 49
-0.1
 74
0
  0
LTYPE
  5
1F9
100
AcDbSymbolTableRecord
100
AcDbLinetypeTableRecord
  2
DASHED
 70
64
  3
- - - - - - - - - - - - - - - - - - - -
 72
65
 73
2
 40
0.2
 49
0.1
 74
0
 49
-0.1
 74
0
  0
ENDTAB
  0
TABLE
  2
LAYER
  5
2
100
AcDbSymbolTable
 70
36
  0
LAYER
  5
10
100
AcDbSymbolTableRecord
100
AcDbLayerTableRecord
  2
0
 70
0
 62
7
  6
CONTINUOUS
370
-3
390
F
  0
LAYER
  5
1FA
100
AcDbSymbolTableRecord
100
AcDbLayerTableRecord
  2
DEFAULT_1
 70
0
 62
7
  6
CENTER
370
-3
390
F
  0
LAYER
  5
1FB
100
AcDbSymbolTableRecord
100
AcDbLayerTableRecord
  2
DEFAULT_2
 70
0
 62
7
  6
HIDDEN
370
-3
390
F
  0
LAYER
  5
1FC
100
AcDbSymbolTableRecord
100
AcDbLayerTableRecord
  2
DEFAULT_3
 70
0
 62
7
  6
PHANTOM
370
-3
390
F
  0
LAYER
  5
1FD
100
AcDbSymbolTableRecord
100
AcDbLayerTableRecord
  2
ASSI
 70
0
 62
7
  6
CONTINUOUS
370
-3
390
F
  0
LAYER
  5
1FE
100
AcDbSymbolTableRecord
100
AcDbLayerTableRecord
  2
COORDINATE
 70
0
 62
7
  6
CONTINUOUS
370
-3
390
F
  0
LAYER
  5
1FF
100
AcDbSymbolTableRecord
100
AcDbLayerTableRecord
  2
COPY_PUBLISH
 70
0
 62
7
  6
CONTINUOUS
370
-3
390
F
  0
LAYER
  5
200
100
AcDbSymbolTableRecord
100
AcDbLayerTableRecord
  2
COSMETIC
 70
0
 62
7
  6
CONTINUOUS
370
-3
390
F
  0
LAYER
  5
201
100
AcDbSymbolTableRecord
100
AcDbLayerTableRecord
  2
COSMETICI
 70
0
 62
7
  6
CONTINUOUS
370
-3
390
F
  0
LAYER
  5
202
100
AcDbSymbolTableRecord
100
AcDbLayerTableRecord
  2
CURVE
 70
0
 62
7
  6
CONTINUOUS
370
-3
390
F
  0
LAYER
  5
203
100
AcDbSymbolTableRecord
100
AcDbLayerTableRecord
  2
DRAFT
 70
0
 62
7
  6
CONTINUOUS
370
-3
390
F
  0
LAYER
  5
204
100
AcDbSymbolTableRecord
100
AcDbLayerTableRecord
  2
IMPORT_IGES
 70
0
 62
7
  6
CONTINUOUS
370
-3
390
F
  0
LAYER
  5
205
100
AcDbSymbolTableRecord
100
AcDbLayerTableRecord
  2
INTFCLR_1
 70
0
 62
7
  6
CONTINUOUS
370
-3
390
F
  0
LAYER
  5
206
100
AcDbSymbolTableRecord
100
AcDbLayerTableRecord
  2
INTF_1
 70
0
 62
7
  6
CONTINUOUS
370
-3
390
F
  0
LAYER
  5
207
100
AcDbSymbolTableRecord
100
AcDbLayerTableRecord
  2
NOTE
 70
0
 62
7
  6
CONTINUOUS
370
-3
390
F
  0
LAYER
  5
208
100
AcDbSymbolTableRecord
100
AcDbLayerTableRecord
  2
PIANI
 70
0
 62
7
  6
CONTINUOUS
370
-3
390
F
  0
LAYER
  5
209
100
AcDbSymbolTableRecord
100
AcDbLayerTableRecord
  2
PUNTI
 70
0
 62
7
  6
CONTINUOUS
370
-3
390
F
  0
LAYER
  5
20A
100
AcDbSymbolTableRecord
100
AcDbLayerTableRecord
  2
RACCORDO
 70
0
 62
7
  6
CONTINUOUS
370
-3
390
F
  0
LAYER
  5
20B
100
AcDbSymbolTableRecord
100
AcDbLayerTableRecord
  2
SIMBOLI
 70
0
 62
7
  6
CONTINUOUS
370
-3
390
F
  0
LAYER
  5
20C
100
AcDbSymbolTableRecord
100
AcDbLayerTableRecord
  2
SMUSSO
 70
0
 62
7
  6
CONTINUOUS
370
-3
390
F
  0
LAYER
  5
20D
100
AcDbSymbolTableRecord
100
AcDbLayerTableRecord
  2
SNAPLINE
 70
0
 62
7
  6
CONTINUOUS
370
-3
390
F
  0
LAYER
  5
20E
100
AcDbSymbolTableRecord
100
AcDbLayerTableRecord
  2
SUPERFICI
 70
0
 62
7
  6
CONTINUOUS
370
-3
390
F
  0
LAYER
  5
20F
100
AcDbSymbolTableRecord
100
AcDbLayerTableRecord
  2
TRASH
 70
0
 62
7
  6
CONTINUOUS
370
-3
390
F
  0
LAYER
  5
210
100
AcDbSymbolTableRecord
100
AcDbLayerTableRecord
  2
XSEC_DATUMS
 70
0
 62
7
  6
CONTINUOUS
370
-3
390
F
  0
ENDTAB
  0
TABLE
  2
STYLE
  5
3
100
AcDbSymbolTable
 70
1
  0
STYLE
  5
11
100
AcDbSymbolTableRecord
100
AcDbTextStyleTableRecord
  2
STANDARD
 70
0
 40
0.0
 41
0.8
 50
0.0
 71
0
 42
0.2
  3
txt
  4

  0
STYLE
  5
211
100
AcDbSymbolTableRecord
100
AcDbTextStyleTableRecord
  2
TEXTSTYLE_1
 70
0
 40
0.0
 41
0.8
 50
0.0
 71
0
 42
0.2
  3
gdt
  4

  0
ENDTAB
  0
TABLE
  2
VIEW
  5
6
100
AcDbSymbolTable
 70
0
  0
ENDTAB
  0
TABLE
  2
UCS
  5
7
100
AcDbSymbolTable
 70
0
  0
ENDTAB
  0
TABLE
  2
APPID
  5
9
100
AcDbSymbolTable
 70
1
  0
APPID
  5
212
100
AcDbSymbolTableRecord
100
AcDbRegAppTableRecord
  2
ACAD
 70
0
  0
ENDTAB
  0
TABLE
  2
BLOCK_RECORD
  5
1
100
AcDbSymbolTable
 70
0
  0
BLOCK_RECORD
  5
213
100
AcDbSymbolTableRecord
100
AcDbBlockTableRecord
  2
*Model_Space
  0
BLOCK_RECORD
  5
214
100
AcDbSymbolTableRecord
100
AcDbBlockTableRecord
  2
*Paper_Space
  0
ENDTAB
  0
TABLE
  2
DIMSTYLE
  5
A
100
AcDbSymbolTable
 70
1
100
AcDbDimStyleTable
 71
0
  0
DIMSTYLE
105
215
100
AcDbSymbolTableRecord
100
AcDbDimStyleTableRecord
  2
STANDARD
 70
0
  3

  4

 40
1.0
 41
3.0
 42
0.0625
 43
0.38
 44
0.18
 45
0.0
 46
0.0
 47
0.01
 48
0.01
140
3.0
141
0.09
142
0.0
143
25.4
144
1.0
145
0.0
146
1.0
147
0.09
 71
1.0
 72
0.0
 73
0
 74
0
 75
0
 76
0
 77
1
 78
8
170
0
171
2
172
0
173
0
174
0
175
0
176
0
177
0
178
0
270
2
271
2
272
2
273
2
274
2
275
0
280
0
281
0
282
0
283
1
284
8
285
0
286
0
287
3
288
0
340
11
  0
ENDTAB
  0
ENDSEC
  0
SECTION
  2
BLOCKS
  0
BLOCK
  5
20
100
AcDbEntity
  8
0
100
AcDbBlockBegin
  2
*Model_Space
 70
0
 10
0.0
 20
0.0
 30
0.0
  3
*Model_Space
  1

  0
ENDBLK
  5
21
100
AcDbEntity
  8
0
100
AcDbBlockEnd
  0
BLOCK
  5
1C
100
AcDbEntity
  8
0
100
AcDbBlockBegin
  2
*Paper_Space
 70
0
 10
0.0
 20
0.0
 30
0.0
  3
*Paper_Space
  1

  0
ENDBLK
  5
1D
100
AcDbEntity
  8
0
100
AcDbBlockEnd
  0
ENDSEC
  0
SECTION
  2
ENTITIES
  0
LINE
  5
216
100
AcDbEntity
  8
RACCORDO
100
AcDbLine
 62
7
  6
CONTINUOUS
 10
164.4411675468
 20
69.0668458962
 11
126.4384266163
 21
69.0668458962
  0
LINE
  5
217
100
AcDbEntity
  8
RACCORDO
100
AcDbLine
 62
7
  6
CONTINUOUS
 10
164.4404823132
 20
69.566845896
 11
126.4391118492
 21
69.5668458961
  0
LINE
  5
218
100
AcDbEntity
  8
0
100
AcDbLine
 62
7
  6
CONTINUOUS
 10
148.9397970815
 20
69.6716057682
 11
141.9397970815
 21
69.6716057682
  0
LWPOLYLINE
  5
219
100
AcDbEntity
  8
RACCORDO
100
AcDbPolyline
 62
7
  6
CONTINUOUS
 90
19
 70
0
 10
126.4391118492
 20
69.5668458961
 10
126.3954878833
 20
69.5687240882
 10
126.3526339862
 20
69.5743251682
 10
126.3105501577
 20
69.583649136
 10
126.2687959935
 20
69.596877192
 10
126.227811898
 20
69.6138281358
 10
126.1889190845
 20
69.6339583662
 10
126.1523783649
 20
69.6572553913
 10
126.1179289274
 20
69.6837317029
 10
126.0861095499
 20
69.7128811752
 10
126.0569116621
 20
69.7447290387
 10
126.0303438344
 20
69.7792500628
 10
126.006970556
 20
69.8158624306
 10
125.986800298
 20
69.8548214831
 10
125.9698245893
 20
69.8958718793
 10
125.9565825057
 20
69.9376657795
 10
125.9472537391
 20
69.9797539038
 10
125.9416585977
 20
70.0225855321
 10
125.9397970814
 20
70.0661606645
  0
LWPOLYLINE
  5
21A
100
AcDbEntity
  8
0
100
AcDbPolyline
 62
253
  6
CONTINUOUS
 90
25
 70
0
 10
135.1681477748
 20
148.6217603087
 10
135.1863267722
 20
148.6336309435
 10
135.2031274599
 20
148.6474237048
 10
135.2183459525
 20
148.6629813528
 10
135.2318006646
 20
148.6801313464
 10
135.2433193828
 20
148.6986690224
 10
135.252748848
 20
148.7183551884
 10
135.2599741802
 20
148.7389467705
 10
135.2649134024
 20
148.7602059195
 10
135.2675077565
 20
148.7818810478
 10
135.2677256813
 20
148.8037150667
 10
135.2655637824
 20
148.8254464648
 10
135.2610477343
 20
148.8468142576
 10
135.2542310084
 20
148.867564648
 10
135.2451950806
 20
148.8874490928
 10
135.2340505645
 20
148.9062262147
 10
135.2209338712
 20
148.9236705118
 10
135.2060010492
 20
148.9395781293
 10
135.1894272998
 20
148.9537637342
 10
135.17139191
 20
148.966069482
 10
135.1521253751
 20
148.9763340628
 10
135.1319131394
 20
148.9844163677
 10
135.111021196
 20
148.9902341456
 10
135.0896829874
 20
148.9937455638
 10
135.068151554
 20
148.9949283352
  0
LINE
  5
21B
100
AcDbEntity
  8
0
100
AcDbLine
 62
253
  6
CONTINUOUS
 10
131.9080409426
 20
146.0045350444
 11
130.3689121226
 21
145.0660223317
  0
LINE
  5
21C
100
AcDbEntity
  8
0
100
AcDbLine
 62
253
  6
CONTINUOUS
 10
132.1915171372
 20
145.937940502
 11
130.6654327234
 21
145.0073828236
  0
LINE
  5
21D
100
AcDbEntity
  8
0
100
AcDbLine
 62
253
  6
CONTINUOUS
 10
134.3259719471
 20
146.9331212863
 11
133.359915559
 21
146.3731123989
  0
LINE
  5
21E
100
AcDbEntity
  8
0
100
AcDbLine
 62
253
  6
CONTINUOUS
 10
137.8774851136
 20
148.9921778948
 11
135.1768312311
 21
147.4263804924
  0
LINE
  5
21F
100
AcDbEntity
  8
0
100
AcDbLine
 62
253
  6
CONTINUOUS
 10
132.5092537567
 20
145.8800243861
 11
130.7654308362
 21
144.8692960482
  0
LINE
  5
220
100
AcDbEntity
  8
0
100
AcDbLine
 62
253
  6
CONTINUOUS
 10
134.2379794214
 20
147.0739387635
 11
133.2814908029
 21
146.5206079147
  0
LINE
  5
221
100
AcDbEntity
  8
0
100
AcDbLine
 62
253
  6
CONTINUOUS
 10
137.558385911
 20
148.9950627993
 11
135.0992805351
 21
147.5722321396
  0
LINE
  5
222
100
AcDbEntity
  8
0
100
AcDbLine
 62
253
  6
CONTINUOUS
 10
132.4202745139
 20
146.0224209415
 11
130.6654327234
 21
145.0073828236
  0
LINE
  5
223
100
AcDbEntity
  8
0
100
AcDbLine
 62
7
  6
CONTINUOUS
 10
135.3645415114
 20
148.6936474094
 11
131.7915171372
 21
146.6307608251
  0
LINE
  5
224
100
AcDbEntity
  8
0
100
AcDbLine
 62
7
  6
CONTINUOUS
 10
132.1915171372
 20
145.937940502
 11
132.398419793
 21
146.0573958061
  0
LINE
  5
225
100
AcDbEntity
  8
0
100
AcDbLine
 62
7
  6
CONTINUOUS
 10
133.2625210222
 20
146.5562848834
 11
134.2170731409
 21
147.1073958061
  0
LINE
  5
226
100
AcDbEntity
  8
0
100
AcDbLine
 62
7
  6
CONTINUOUS
 10
135.0811743701
 20
147.6062848834
 11
137.6109402518
 21
149.0668458962
  0
LINE
  5
227
100
AcDbEntity
  8
0
100
AcDbLine
 62
253
  6
CONTINUOUS
 10
135.2317329283
 20
147.3231254183
 11
134.3870171518
 21
146.8354285374
  0
LINE
  5
228
100
AcDbEntity
  8
0
100
AcDbLine
 62
253
  6
CONTINUOUS
 10
133.4130795804
 20
146.2731254183
 11
132.5683638039
 21
145.7854285374
  0
LINE
  5
229
100
AcDbEntity
  8
0
100
AcDbLine
 62
253
  6
CONTINUOUS
 10
135.4302611221
 20
146.9497481901
 11
134.6111072198
 21
146.4768094641
  0
LINE
  5
22A
100
AcDbEntity
  8
0
100
AcDbLine
 62
253
  6
CONTINUOUS
 10
133.6116077742
 20
145.8997481901
 11
132.7924538718
 21
145.4268094641
  0
LINE
  5
22B
100
AcDbEntity
  8
0
100
AcDbLine
 62
253
  6
CONTINUOUS
 10
130.1904271996
 20
146.0221007728
 11
135.068151586
 21
148.8381746808
  0
LINE
  5
22C
100
AcDbEntity
  8
0
100
AcDbLine
 62
253
  6
CONTINUOUS
 10
130.2904233919
 20
145.8114374179
 11
135.1681477748
 21
148.6217603087
  0
LINE
  5
22D
100
AcDbEntity
  8
0
100
AcDbLine
 62
253
  6
CONTINUOUS
 10
130.2904233919
 20
145.8114374179
 11
131.7915171372
 21
146.6307608251
  0
LINE
  5
22E
100
AcDbEntity
  8
0
100
AcDbLine
 62
253
  6
CONTINUOUS
 10
130.1504985633
 20
145.5021520198
 11
131.7074516053
 21
146.351965968
  0
LWPOLYLINE
  5
22F
100
AcDbEntity
  8
0
100
AcDbPolyline
 62
253
  6
CONTINUOUS
 90
22
 70
0
 10
130.6654324794
 20
145.0073826748
 10
130.6474930666
 20
144.9976984106
 10
130.6293755746
 20
144.9894021874
 10
130.6111856242
 20
144.9824953299
 10
130.5930100543
 20
144.976961215
 10
130.5749644072
 20
144.9727925208
 10
130.5571926994
 20
144.9699898373
 10
130.5398074636
 20
144.9685245618
 10
130.522873038
 20
144.9683500558
 10
130.5064539388
 20
144.9694350852
 10
130.4906297821
 20
144.9717376334
 10
130.4754663941
 20
144.9752068938
 10
130.4610018706
 20
144.9798049467
 10
130.4473208373
 20
144.9854718141
 10
130.4344559255
 20
144.9921614201
 10
130.4223716658
 20
144.9998773731
 10
130.4111188207
 20
145.00858085
 10
130.4007624982
 20
145.0182250002
 10
130.3913055005
 20
145.0288274863
 10
130.3827952919
 20
145.0403704917
 10
130.375311223
 20
145.0527861727
 10
130.368912106
 20
145.0660223216
  0
LWPOLYLINE
  5
230
100
AcDbEntity
  8
0
100
AcDbPolyline
 62
253
  6
CONTINUOUS
 90
22
 70
0
 10
130.7654308362
 20
144.8692960482
 10
130.7336289758
 20
144.8526097802
 10
130.7016330028
 20
144.8385261555
 10
130.669442917
 20
144.8270453775
 10
130.6368516462
 20
144.8182067318
 10
130.6040662627
 20
144.8119712274
 10
130.5717079832
 20
144.808221592
 10
130.5398361829
 20
144.806995955
 10
130.5083914866
 20
144.8082562557
 10
130.4778169856
 20
144.8117708835
 10
130.4481426598
 20
144.8175555095
 10
130.4193385293
 20
144.8255943462
 10
130.3917577453
 20
144.8356085665
 10
130.365464009
 20
144.8475662835
 10
130.340393619
 20
144.8614991447
 10
130.3167086225
 20
144.8772236178
 10
130.2943839151
 20
144.894729213
 10
130.2734446011
 20
144.9140260892
 10
130.2541280403
 20
144.9349616899
 10
130.2365133527
 20
144.9574850374
 10
130.2205214182
 20
144.9816467145
 10
130.2061522369
 20
145.0074464983
  0
LINE
  5
231
100
AcDbEntity
  8
0
100
AcDbLine
 62
253
  6
CONTINUOUS
 10
135.0681515825
 20
148.9949283334
 11
135.2646285409
 21
149.0668458962
  0
LINE
  5
232
100
AcDbEntity
  8
0
100
AcDbLine
 62
253
  6
CONTINUOUS
 10
135.1681477748
 20
148.6217603087
 11
135.3645415114
 21
148.6936474094
  0
LINE
  5
233
100
AcDbEntity
  8
0
100
AcDbLine
 62
7
  6
CONTINUOUS
 10
141.9397970815
 20
71.101756026
 11
141.7648197545
 21
71.0668458962
  0
LWPOLYLINE
  5
234
100
AcDbEntity
  8
0
100
AcDbPolyline
 62
253
  6
CONTINUOUS
 90
10
 70
0
 10
160.7290943266
 20
74.6315374653
 10
160.7399108739
 20
74.6327470977
 10
160.7531433663
 20
74.6354316232
 10
160.7685814037
 20
74.6395483481
 10
160.7859795167
 20
74.6450318064
 10
160.8050610691
 20
74.6517948008
 10
160.8255226569
 20
74.6597297889
 10
160.8470389327
 20
74.6687105938
 10
160.8692677785
 20
74.6785944097
 10
160.8918557456
 20
74.6892240732
  0
LWPOLYLINE
  5
235
100
AcDbEntity
  8
0
100
AcDbPolyline
 62
253
  6
CONTINUOUS
 90
9
 70
0
 10
137.5118881804
 20
71.1655345123
 10
137.5144220245
 20
71.1657993588
 10
137.5187069799
 20
71.1680606071
 10
137.52444681
 20
71.1724466593
 10
137.5311143162
 20
71.1791270634
 10
137.5385907666
 20
71.1880124711
 10
137.5472196224
 20
71.1987838568
 10
137.5566732132
 20
71.2113990259
 10
137.5775463686
 20
71.2414694751
  0
LWPOLYLINE
  5
236
100
AcDbEntity
  8
0
100
AcDbPolyline
 62
253
  6
CONTINUOUS
 90
11
 70
0
 10
163.2189816066
 20
71.2975902681
 10
163.2436582286
 20
71.2990155808
 10
163.266961135
 20
71.3014852888
 10
163.2885077895
 20
71.3048902124
 10
163.308120224
 20
71.3084318257
 10
163.3254372229
 20
71.3125680386
 10
163.3400220182
 20
71.3175285081
 10
163.3516913144
 20
71.3223628589
 10
163.3603160136
 20
71.3270588503
 10
163.3657487061
 20
71.3324023402
 10
163.3678795188
 20
71.338732998
  0
LWPOLYLINE
  5
237
100
AcDbEntity
  8
RACCORDO
100
AcDbPolyline
 62
7
  6
CONTINUOUS
 90
19
 70
0
 10
163.5368722273
 20
70.5668458703
 10
163.5753225934
 20
70.5684265878
 10
163.61211984
 20
70.5725861682
 10
163.6472639672
 20
70.5793246112
 10
163.6808035528
 20
70.5887127948
 10
163.7126900189
 20
70.6006798411
 10
163.7427776321
 20
70.6150131167
 10
163.7710382344
 20
70.6316010095
 10
163.7974999838
 20
70.6505551315
 10
163.8221016205
 20
70.6719976857
 10
163.8450029134
 20
70.6959884867
 10
163.8660440935
 20
70.7224677198
 10
163.8846845951
 20
70.7513781433
 10
163.9009381227
 20
70.7829232874
 10
163.9147909717
 20
70.8168996218
 10
163.9256614624
 20
70.8526393144
 10
163.9333557014
 20
70.8899197545
 10
163.938067582
 20
70.9289635528
 10
163.9397971042
 20
70.9697707093
  0
LINE
  5
238
100
AcDbEntity
  8
0
100
AcDbLine
 62
253
  6
CONTINUOUS
 10
163.1679099797
 20
71.2955171135
 11
163.2189816066
 21
71.2975902681
  0
LINE
  5
239
100
AcDbEntity
  8
RACCORDO
100
AcDbLine
 62
7
  6
CONTINUOUS
 10
163.5368722273
 20
70.5668458703
 11
149.1147744086
 21
70.5668458962
  0
LINE
  5
23A
100
AcDbEntity
  8
RACCORDO
100
AcDbLine
 62
7
  6
CONTINUOUS
 10
141.7648197545
 20
70.5668458962
 11
127.3427219706
 21
70.5668458643
  0
LINE
  5
23B
100
AcDbEntity
  8
0
100
AcDbLine
 62
7
  6
CONTINUOUS
 10
127.6397666206
 20
71.0668458962
 11
135.2646285409
 21
71.0668458962
  0
LINE
  5
23C
100
AcDbEntity
  8
0
100
AcDbLine
 62
7
  6
CONTINUOUS
 10
137.6645371597
 20
71.0668458962
 11
139.4397970815
 21
71.0668458962
  0
LINE
  5
23D
100
AcDbEntity
  8
0
100
AcDbLine
 62
7
  6
CONTINUOUS
 10
140.1397970815
 20
71.0668458962
 11
141.7648197545
 21
71.0668458962
  0
LINE
  5
23E
100
AcDbEntity
  8
0
100
AcDbLine
 62
7
  6
CONTINUOUS
 10
149.1147744086
 20
71.0668458962
 11
150.7397970815
 21
71.0668458962
  0
LINE
  5
23F
100
AcDbEntity
  8
0
100
AcDbLine
 62
7
  6
CONTINUOUS
 10
151.4397970815
 20
71.0668458962
 11
153.2150570034
 21
71.0668458962
  0
LINE
  5
240
100
AcDbEntity
  8
0
100
AcDbLine
 62
7
  6
CONTINUOUS
 10
155.6149656222
 20
71.0668458962
 11
163.2398275425
 21
71.0668458962
  0
LINE
  5
241
100
AcDbEntity
  8
0
100
AcDbLine
 62
7
  6
CONTINUOUS
 10
148.9397970815
 20
71.101756026
 11
141.9397970815
 21
71.101756026
  0
LINE
  5
242
100
AcDbEntity
  8
0
100
AcDbLine
 62
253
  6
CONTINUOUS
 10
163.1679099797
 20
71.1387634589
 11
155.8114425806
 21
71.1387634589
  0
LINE
  5
243
100
AcDbEntity
  8
0
100
AcDbLine
 62
253
  6
CONTINUOUS
 10
153.2677097904
 20
71.1387634589
 11
151.5117146443
 21
71.1387634589
  0
LINE
  5
244
100
AcDbEntity
  8
0
100
AcDbLine
 62
253
  6
CONTINUOUS
 10
150.6678795188
 20
71.1387634589
 11
140.2117146443
 21
71.1387634589
  0
LINE
  5
245
100
AcDbEntity
  8
0
100
AcDbLine
 62
253
  6
CONTINUOUS
 10
139.3678795188
 20
71.1387634589
 11
137.6118843727
 21
71.1387634589
  0
LINE
  5
246
100
AcDbEntity
  8
0
100
AcDbLine
 62
253
  6
CONTINUOUS
 10
135.0681515825
 20
71.1387634589
 11
127.7116841834
 21
71.1387634589
  0
LINE
  5
247
100
AcDbEntity
  8
0
100
AcDbLine
 62
253
  6
CONTINUOUS
 10
163.1679099797
 20
71.2955171135
 11
155.8114425788
 21
71.2955171124
  0
LINE
  5
248
100
AcDbEntity
  8
0
100
AcDbLine
 62
253
  6
CONTINUOUS
 10
153.267709787
 20
71.2955171115
 11
151.5150622583
 21
71.2955171135
  0
LINE
  5
249
100
AcDbEntity
  8
0
100
AcDbLine
 62
253
  6
CONTINUOUS
 10
150.6645319048
 20
71.2955171135
 11
140.2150622583
 21
71.2955171135
  0
LINE
  5
24A
100
AcDbEntity
  8
0
100
AcDbLine
 62
253
  6
CONTINUOUS
 10
139.3645319048
 20
71.2955171135
 11
137.6118843764
 21
71.2955171113
  0
LINE
  5
24B
100
AcDbEntity
  8
0
100
AcDbLine
 62
253
  6
CONTINUOUS
 10
135.0681515843
 20
71.2955171124
 11
127.7116841834
 21
71.2955171135
  0
LINE
  5
24C
100
AcDbEntity
  8
0
100
AcDbLine
 62
253
  6
CONTINUOUS
 10
151.4397970815
 20
71.8318820569
 11
150.7397970815
 21
71.8318820569
  0
LINE
  5
24D
100
AcDbEntity
  8
0
100
AcDbLine
 62
253
  6
CONTINUOUS
 10
140.1397970815
 20
71.8318820569
 11
139.4397970815
 21
71.8318820569
  0
LINE
  5
24E
100
AcDbEntity
  8
0
100
AcDbLine
 62
253
  6
CONTINUOUS
 10
151.4447595428
 20
72.1314709174
 11
150.7348346203
 21
72.1314709174
  0
LINE
  5
24F
100
AcDbEntity
  8
0
100
AcDbLine
 62
253
  6
CONTINUOUS
 10
140.1447595428
 20
72.1314709174
 11
139.4348346203
 21
72.1314709174
  0
LINE
  5
250
100
AcDbEntity
  8
0
100
AcDbLine
 62
253
  6
CONTINUOUS
 10
139.381969329
 20
72.2901957648
 11
140.197624834
 21
72.2901957648
  0
LINE
  5
251
100
AcDbEntity
  8
0
100
AcDbLine
 62
253
  6
CONTINUOUS
 10
150.681969329
 20
72.2901957648
 11
151.497624834
 21
72.2901957648
  0
LINE
  5
252
100
AcDbEntity
  8
0
100
AcDbLine
 62
253
  6
CONTINUOUS
 10
139.3772298245
 20
72.5031777379
 11
140.2023643386
 21
72.5031777379
  0
LINE
  5
253
100
AcDbEntity
  8
0
100
AcDbLine
 62
253
  6
CONTINUOUS
 10
150.6772298245
 20
72.5031777379
 11
151.5023643386
 21
72.5031777379
  0
LINE
  5
254
100
AcDbEntity
  8
0
100
AcDbLine
 62
7
  6
CONTINUOUS
 10
137.6002709321
 20
71.1390983366
 11
137.6118843337
 21
71.138763457
  0
LWPOLYLINE
  5
255
100
AcDbEntity
  8
0
100
AcDbPolyline
 62
253
  6
CONTINUOUS
 90
12
 70
0
 10
127.7116841834
 20
71.2955171135
 10
127.6606125291
 20
71.2975902702
 10
127.6359358983
 20
71.2990155841
 10
127.6126329861
 20
71.3014852937
 10
127.5910863295
 20
71.3048902193
 10
127.5714738976
 20
71.3084318347
 10
127.5541569048
 20
71.3125680482
 10
127.5395721177
 20
71.3175285171
 10
127.5279028308
 20
71.322362868
 10
127.5192781405
 20
71.3270588593
 10
127.5138454544
 20
71.3324023468
 10
127.5117146443
 20
71.338732998
  0
LWPOLYLINE
  5
256
100
AcDbEntity
  8
0
100
AcDbPolyline
 62
253
  6
CONTINUOUS
 90
16
 70
0
 10
127.7116841834
 20
71.1387634589
 10
127.6907858066
 20
71.139864844
 10
127.6701163083
 20
71.1431442059
 10
127.6499020579
 20
71.1485656286
 10
127.6303644527
 20
71.1560697307
 10
127.6117174503
 20
71.1655743309
 10
127.5941652328
 20
71.1769753624
 10
127.5779000212
 20
71.1901479881
 10
127.5630999785
 20
71.2049479418
 10
127.5499272157
 20
71.2212131282
 10
127.5385260053
 20
71.2387654181
 10
127.5290212224
 20
71.2574125797
 10
127.5215169794
 20
71.2769503637
 10
127.5160954639
 20
71.2971647813
 10
127.5128160473
 20
71.3178344512
 10
127.5117146443
 20
71.338732998
  0
LWPOLYLINE
  5
257
100
AcDbEntity
  8
0
100
AcDbPolyline
 62
253
  6
CONTINUOUS
 90
8
 70
0
 10
153.3677059827
 20
71.1655345123
 10
153.3651721388
 20
71.1657993589
 10
153.3608871835
 20
71.1680606071
 10
153.3551473533
 20
71.1724466592
 10
153.3484798472
 20
71.1791270631
 10
153.341003397
 20
71.1880124708
 10
153.3323745414
 20
71.1987838564
 10
153.3229209507
 20
71.2113990255
  0
LWPOLYLINE
  5
258
100
AcDbEntity
  8
0
100
AcDbPolyline
 62
253
  6
CONTINUOUS
 90
10
 70
0
 10
130.1504979532
 20
74.6315385526
 10
130.1396813785
 20
74.6327478655
 10
130.1264489445
 20
74.6354320409
 10
130.1110110439
 20
74.6395484011
 10
130.093613136
 20
74.6450314969
 10
130.0745318436
 20
74.6517941483
 10
130.054070555
 20
74.6597288305
 10
130.0325546001
 20
74.668709384
 10
130.0103260779
 20
74.6785930199
 10
129.9877384169
 20
74.6892225906
  0
LINE
  5
259
100
AcDbEntity
  8
0
100
AcDbLine
 62
7
  6
CONTINUOUS
 10
148.9397970815
 20
71.101756026
 11
149.1147744086
 21
71.0668458962
  0
LINE
  5
25A
100
AcDbEntity
  8
0
100
AcDbLine
 62
253
  6
CONTINUOUS
 10
135.2646285409
 20
71.0668458962
 11
135.0681515825
 21
71.1387634589
  0
LINE
  5
25B
100
AcDbEntity
  8
0
100
AcDbLine
 62
253
  6
CONTINUOUS
 10
135.3645415114
 20
71.440044383
 11
135.1681477748
 21
71.5119314836
  0
LWPOLYLINE
  5
25C
100
AcDbEntity
  8
0
100
AcDbPolyline
 62
7
  6
CONTINUOUS
 90
9
 70
0
 10
137.5118881804
 20
71.1655345123
 10
137.5221324044
 20
71.1600134046
 10
137.5326806096
 20
71.1550976152
 10
137.5434970693
 20
71.1508037929
 10
137.5545467632
 20
71.1471459969
 10
137.5657907076
 20
71.1441372858
 10
137.577185828
 20
71.141788728
 10
137.5886916993
 20
71.140107604
 10
137.6002709321
 20
71.1390983366
  0
LINE
  5
25D
100
AcDbEntity
  8
0
100
AcDbLine
 62
253
  6
CONTINUOUS
 10
131.7915171372
 20
73.5029309672
 11
130.2904233919
 21
74.3222543744
  0
LINE
  5
25E
100
AcDbEntity
  8
0
100
AcDbLine
 62
253
  6
CONTINUOUS
 10
131.7074516053
 20
73.7817258243
 11
130.1504978753
 21
74.6315383969
  0
LINE
  5
25F
100
AcDbEntity
  8
0
100
AcDbLine
 62
253
  6
CONTINUOUS
 10
135.1681477748
 20
71.5119314836
 11
130.2904233919
 21
74.3222543744
  0
LINE
  5
260
100
AcDbEntity
  8
0
100
AcDbLine
 62
253
  6
CONTINUOUS
 10
135.0681515843
 20
71.2955171124
 11
130.1904271996
 21
74.1115910195
  0
LINE
  5
261
100
AcDbEntity
  8
0
100
AcDbLine
 62
7
  6
CONTINUOUS
 10
131.7915171372
 20
73.5029309672
 11
135.3645415114
 21
71.440044383
  0
LINE
  5
262
100
AcDbEntity
  8
0
100
AcDbLine
 62
7
  6
CONTINUOUS
 10
137.5645186652
 20
71.0936474117
 11
135.0811743701
 21
72.527406909
  0
LINE
  5
263
100
AcDbEntity
  8
0
100
AcDbLine
 62
7
  6
CONTINUOUS
 10
132.398419793
 20
74.0762959862
 11
132.1915171372
 21
74.1957512903
  0
LINE
  5
264
100
AcDbEntity
  8
0
100
AcDbLine
 62
7
  6
CONTINUOUS
 10
133.2625210222
 20
73.577406909
 11
134.2170731409
 21
73.0262959862
  0
LINE
  5
265
100
AcDbEntity
  8
0
100
AcDbLine
 62
253
  6
CONTINUOUS
 10
132.5683638039
 20
74.3482632549
 11
133.4130795804
 21
73.860566374
  0
LINE
  5
266
100
AcDbEntity
  8
0
100
AcDbLine
 62
253
  6
CONTINUOUS
 10
134.3870171518
 20
73.2982632549
 11
135.2317329283
 21
72.810566374
  0
LINE
  5
267
100
AcDbEntity
  8
0
100
AcDbLine
 62
253
  6
CONTINUOUS
 10
132.7924538718
 20
74.7068823283
 11
133.6116077742
 21
74.2339436022
  0
LINE
  5
268
100
AcDbEntity
  8
0
100
AcDbLine
 62
253
  6
CONTINUOUS
 10
134.6111072198
 20
73.6568823283
 11
135.4302611221
 21
73.1839436022
  0
LINE
  5
269
100
AcDbEntity
  8
0
100
AcDbLine
 62
253
  6
CONTINUOUS
 10
130.6654329448
 20
75.1263088407
 11
132.4202745139
 21
74.1112708508
  0
LINE
  5
26A
100
AcDbEntity
  8
0
100
AcDbLine
 62
253
  6
CONTINUOUS
 10
133.2814908029
 20
73.6130838776
 11
134.2379794214
 21
73.0597530288
  0
LINE
  5
26B
100
AcDbEntity
  8
0
100
AcDbLine
 62
253
  6
CONTINUOUS
 10
135.0992805351
 20
72.5614596527
 11
137.5118881804
 21
71.1655345123
  0
LINE
  5
26C
100
AcDbEntity
  8
0
100
AcDbLine
 62
253
  6
CONTINUOUS
 10
130.7654308362
 20
75.2643957441
 11
132.5092537568
 21
74.2536674061
  0
LINE
  5
26D
100
AcDbEntity
  8
0
100
AcDbLine
 62
253
  6
CONTINUOUS
 10
133.3599155592
 20
73.7605793933
 11
134.3259719471
 21
73.200570506
  0
LINE
  5
26E
100
AcDbEntity
  8
0
100
AcDbLine
 62
253
  6
CONTINUOUS
 10
135.1768312315
 20
72.7073112997
 11
137.6118843764
 21
71.2955171113
  0
LINE
  5
26F
100
AcDbEntity
  8
0
100
AcDbLine
 62
253
  6
CONTINUOUS
 10
130.3689107874
 20
75.0676667979
 11
131.9080409426
 21
74.1291567479
  0
LINE
  5
270
100
AcDbEntity
  8
0
100
AcDbLine
 62
253
  6
CONTINUOUS
 10
130.6654329448
 20
75.1263088407
 11
132.1915171372
 21
74.1957512903
  0
LWPOLYLINE
  5
271
100
AcDbEntity
  8
0
100
AcDbPolyline
 62
253
  6
CONTINUOUS
 90
19
 70
0
 10
130.2904233919
 20
74.3222543744
 10
130.2709471056
 20
74.3343275162
 10
130.2523258968
 20
74.3477712509
 10
130.2346730062
 20
74.3625072504
 10
130.2180187912
 20
74.3785025437
 10
130.20254163
 20
74.3956045597
 10
130.1885419313
 20
74.4135222592
 10
130.1760832882
 20
74.432115317
 10
130.1651967567
 20
74.4512545435
 10
130.1560691419
 20
74.4706328737
 10
130.1487137183
 20
74.4900746906
 10
130.143084634
 20
74.5094694645
 10
130.139229201
 20
74.5286034421
 10
130.1371098012
 20
74.5473115724
 10
130.1366473974
 20
74.5655134008
 10
130.1378165824
 20
74.5831324322
 10
130.1405690351
 20
74.6000766185
 10
130.1448213846
 20
74.6162405392
 10
130.15049789
 20
74.6315383888
  0
LWPOLYLINE
  5
272
100
AcDbEntity
  8
0
100
AcDbPolyline
 62
253
  6
CONTINUOUS
 90
19
 70
0
 10
130.1904271996
 20
74.1115910195
 10
130.156411389
 20
74.133194016
 10
130.1245771018
 20
74.1571683174
 10
130.0949243382
 20
74.1835142595
 10
130.0672084849
 20
74.2125487398
 10
130.041674155
 20
74.2439556681
 10
130.0190551887
 20
74.2767857715
 10
129.9994965345
 20
74.3110866589
 10
129.9828532439
 20
74.3468112812
 10
129.9694243102
 20
74.3828679922
 10
129.959351747
 20
74.4191964415
 10
129.9524935408
 20
74.4558571004
 10
129.9487226441
 20
74.4919391333
 10
129.948105532
 20
74.5273323321
 10
129.9505757294
 20
74.5621466384
 10
129.9558067639
 20
74.5958011335
 10
129.9636898112
 20
74.6281019763
 10
129.9743336956
 20
74.6592425326
 10
129.9877384169
 20
74.6892225906
  0
LWPOLYLINE
  5
273
100
AcDbEntity
  8
0
100
AcDbPolyline
 62
253
  6
CONTINUOUS
 90
25
 70
0
 10
135.1681477748
 20
71.5119314836
 10
135.1863268147
 20
71.5000608177
 10
135.2031275288
 20
71.4862680243
 10
135.2183460336
 20
71.4707103471
 10
135.2318007446
 20
71.4535603316
 10
135.2433194522
 20
71.4350226433
 10
135.2527489018
 20
71.4153364737
 10
135.2599742152
 20
71.3947449014
 10
135.26491342
 20
71.3734857728
 10
135.2675077618
 20
71.3518106627
 10
135.267725678
 20
71.3299766518
 10
135.2655637716
 20
71.3082452582
 10
135.261047718
 20
71.2868774742
 10
135.2542309912
 20
71.2661271002
 10
135.2451950674
 20
71.2462426743
 10
135.2340505589
 20
71.2274655691
 10
135.2209338756
 20
71.2100212859
 10
135.2060010661
 20
71.1941136792
 10
135.1894273285
 20
71.1799280801
 10
135.1713919482
 20
71.1676223332
 10
135.15212542
 20
71.1573577501
 10
135.1319131871
 20
71.1492754407
 10
135.111021242
 20
71.1434576575
 10
135.0896830269
 20
71.1399462341
 10
135.0681515825
 20
71.1387634589
  0
LINE
  5
274
100
AcDbEntity
  8
0
100
AcDbLine
 62
7
  6
CONTINUOUS
 10
135.7388351872
 20
146.3694047794
 11
134.9594123238
 21
145.9194047794
  0
LINE
  5
275
100
AcDbEntity
  8
0
100
AcDbLine
 62
7
  6
CONTINUOUS
 10
133.9201818393
 20
145.3194047794
 11
133.1407589759
 21
144.8694047794
  0
LWPOLYLINE
  5
276
100
AcDbEntity
  8
0
100
AcDbPolyline
 62
7
  6
CONTINUOUS
 90
37
 70
0
 10
144.9049754815
 20
74.9288802962
 10
144.9597707669
 20
74.9437400835
 10
145.0130789646
 20
74.9625428755
 10
145.0649000749
 20
74.9852890923
 10
145.1156866407
 20
75.0120682142
 10
145.1649861189
 20
75.0427918726
 10
145.2114408805
 20
75.0771937978
 10
145.2549463468
 20
75.1154572582
 10
145.2956070964
 20
75.1574005055
 10
145.3323792366
 20
75.2022096167
 10
145.365128264
 20
75.2500437742
 10
145.3939886819
 20
75.3007452846
 10
145.4183201078
 20
75.3530244204
 10
145.4379530679
 20
75.4068617012
 10
145.4530570358
 20
75.462277496
 10
145.4635000503
 20
75.5180411307
 10
145.4692154069
 20
75.5741437214
 10
145.47026981
 20
75.6305943223
 10
145.4667314113
 20
75.6861884209
 10
145.4585402472
 20
75.7408346577
 10
145.4457562813
 20
75.7946238219
 10
145.4286275555
 20
75.8466239935
 10
145.4071168914
 20
75.8967737019
 10
145.3812614676
 20
75.9451333931
 10
145.3514208615
 20
75.9909535889
 10
145.3176599066
 20
76.034164042
 10
145.2799137695
 20
76.0748337641
 10
145.2383475285
 20
76.1124219136
 10
145.1929760683
 20
76.1469550238
 10
145.1437845041
 20
76.1784053796
 10
145.0908932602
 20
76.2061506267
 10
145.0343112884
 20
76.2301864013
 10
144.974029637
 20
76.2505160553
 10
144.9101418737
 20
76.2665287514
 10
144.8426791881
 20
76.278020643
 10
144.7716103907
 20
76.2851949452
 10
144.6969354815
 20
76.2880514962
  0
LWPOLYLINE
  5
277
100
AcDbEntity
  8
0
100
AcDbPolyline
 62
253
  6
CONTINUOUS
 90
10
 70
0
 10
160.5106823899
 20
75.0676687637
 10
160.5214702748
 20
75.0689813191
 10
160.5346830023
 20
75.0717722947
 10
160.5501097518
 20
75.0759971578
 10
160.5675043757
 20
75.081588497
 10
160.5865893273
 20
75.0884570976
 10
160.6070600894
 20
75.0964933649
 10
160.6285900326
 20
75.1055690732
 10
160.6508356276
 20
75.1155394114
 10
160.6734419262
 20
75.126245294
  0
LINE
  5
278
100
AcDbEntity
  8
0
100
AcDbLine
 62
7
  6
CONTINUOUS
 10
143.7331762815
 20
75.9817642962
 11
144.3866448118
 21
75.9830785897
  0
LINE
  5
279
100
AcDbEntity
  8
0
100
AcDbLine
 62
7
  6
CONTINUOUS
 10
141.0743960815
 20
73.8827968962
 11
141.4787760815
 21
73.8827968962
  0
LINE
  5
27A
100
AcDbEntity
  8
0
100
AcDbLine
 62
7
  6
CONTINUOUS
 10
143.1110990815
 20
73.8827968962
 11
143.4173870815
 21
73.8827968962
  0
LINE
  5
27B
100
AcDbEntity
  8
0
100
AcDbLine
 62
7
  6
CONTINUOUS
 10
145.1017002815
 20
73.8947906962
 11
145.4476058815
 21
73.8947906962
  0
LINE
  5
27C
100
AcDbEntity
  8
0
100
AcDbLine
 62
7
  6
CONTINUOUS
 10
145.8423430815
 20
73.8947908962
 11
146.1486300815
 21
73.8947908962
  0
LINE
  5
27D
100
AcDbEntity
  8
0
100
AcDbLine
 62
7
  6
CONTINUOUS
 10
147.4788610815
 20
73.8947908962
 11
147.9119840815
 21
73.8947908962
  0
LINE
  5
27E
100
AcDbEntity
  8
0
100
AcDbLine
 62
7
  6
CONTINUOUS
 10
148.2277730815
 20
73.8947908962
 11
149.8670020815
 21
73.8947908962
  0
LINE
  5
27F
100
AcDbEntity
  8
0
100
AcDbLine
 62
7
  6
CONTINUOUS
 10
149.8670020815
 20
74.2010778962
 11
148.5340620815
 21
74.2010778962
  0
LINE
  5
280
100
AcDbEntity
  8
0
100
AcDbLine
 62
7
  6
CONTINUOUS
 10
142.7888780815
 20
74.9069908962
 11
143.1110990815
 21
74.9069908962
  0
LINE
  5
281
100
AcDbEntity
  8
0
100
AcDbLine
 62
7
  6
CONTINUOUS
 10
148.8795820815
 20
74.9141418962
 11
149.8051980815
 21
74.9141418962
  0
LINE
  5
282
100
AcDbEntity
  8
0
100
AcDbLine
 62
7
  6
CONTINUOUS
 10
139.3661919563
 20
75.0584122162
 11
140.2134022067
 21
75.0584122162
  0
LINE
  5
283
100
AcDbEntity
  8
0
100
AcDbLine
 62
7
  6
CONTINUOUS
 10
150.6661919563
 20
75.0584122162
 11
151.5134022067
 21
75.0584122162
  0
LINE
  5
284
100
AcDbEntity
  8
0
100
AcDbLine
 62
7
  6
CONTINUOUS
 10
139.3512936497
 20
75.0733105228
 11
140.2283005133
 21
75.0733105228
  0
LINE
  5
285
100
AcDbEntity
  8
0
100
AcDbLine
 62
7
  6
CONTINUOUS
 10
150.6512936497
 20
75.0733105228
 11
151.5283005133
 21
75.0733105228
  0
LINE
  5
286
100
AcDbEntity
  8
0
100
AcDbLine
 62
7
  6
CONTINUOUS
 10
143.1110990815
 20
75.2132778962
 11
142.7888780815
 21
75.2132778962
  0
LINE
  5
287
100
AcDbEntity
  8
0
100
AcDbLine
 62
7
  6
CONTINUOUS
 10
149.8051980815
 20
75.2195498962
 11
148.8795820815
 21
75.2195498962
  0
LINE
  5
288
100
AcDbEntity
  8
0
100
AcDbLine
 62
7
  6
CONTINUOUS
 10
148.5340620815
 20
75.9852108962
 11
149.8478740815
 21
75.9852108962
  0
LINE
  5
289
100
AcDbEntity
  8
0
100
AcDbLine
 62
7
  6
CONTINUOUS
 10
144.6969354815
 20
76.2880514962
 11
143.7331762815
 21
76.2880514962
  0
LINE
  5
28A
100
AcDbEntity
  8
0
100
AcDbLine
 62
7
  6
CONTINUOUS
 10
143.4173870815
 20
76.2880518962
 11
143.1475840815
 21
76.2880518962
  0
LINE
  5
28B
100
AcDbEntity
  8
0
100
AcDbLine
 62
7
  6
CONTINUOUS
 10
149.8478740815
 20
76.2914978962
 11
148.2277730815
 21
76.2914978962
  0
LINE
  5
28C
100
AcDbEntity
  8
0
100
AcDbLine
 62
7
  6
CONTINUOUS
 10
146.1486300815
 20
76.2954978962
 11
145.8423430815
 21
76.2954978962
  0
LINE
  5
28D
100
AcDbEntity
  8
0
100
AcDbLine
 62
7
  6
CONTINUOUS
 10
147.9146980815
 20
76.3000448962
 11
147.4815760815
 21
76.3000448962
  0
LINE
  5
28E
100
AcDbEntity
  8
0
100
AcDbLine
 62
7
  6
CONTINUOUS
 10
148.7511010815
 20
76.5102538962
 11
149.1842420815
 21
76.5102538962
  0
LINE
  5
28F
100
AcDbEntity
  8
0
100
AcDbLine
 62
7
  6
CONTINUOUS
 10
149.7272590815
 20
77.0532888962
 11
149.2941370815
 21
77.0532888962
  0
LINE
  5
290
100
AcDbEntity
  8
0
100
AcDbLine
 62
7
  6
CONTINUOUS
 10
144.3866448118
 20
75.9830785897
 11
144.7115730815
 21
75.9816162962
  0
LWPOLYLINE
  5
291
100
AcDbEntity
  8
0
100
AcDbPolyline
 62
7
  6
CONTINUOUS
 90
5
 70
0
 10
144.5207519833
 20
75.2114442995
 10
144.4938441209
 20
75.211625107
 10
144.4669034216
 20
75.2108977466
 10
144.4399373418
 20
75.2094804079
 10
144.4129458815
 20
75.2073730962
  0
LWPOLYLINE
  5
292
100
AcDbEntity
  8
0
100
AcDbPolyline
 62
7
  6
CONTINUOUS
 90
28
 70
0
 10
144.7115730815
 20
75.9816162962
 10
144.740529964
 20
75.9804908421
 10
144.7683868719
 20
75.9784839873
 10
144.7951438053
 20
75.9755957414
 10
144.8207515473
 20
75.9717974417
 10
144.8452593147
 20
75.9671177824
 10
144.8688147583
 20
75.9616428129
 10
144.8914138487
 20
75.9554023942
 10
144.9130606153
 20
75.9483667142
 10
144.933914797
 20
75.9405323151
 10
144.9540299553
 20
75.9319022985
 10
144.9733525288
 20
75.922473633
 10
144.9918815718
 20
75.9122336675
 10
145.0096143333
 20
75.9012044261
 10
145.0265535642
 20
75.8893639765
 10
145.0427065724
 20
75.8766337439
 10
145.0581358472
 20
75.8629615711
 10
145.0727788993
 20
75.8483997444
 10
145.0864555677
 20
75.833026359
 10
145.0991603193
 20
75.8167985348
 10
145.1108986872
 20
75.7997592932
 10
145.1215071104
 20
75.7821155628
 10
145.1309526611
 20
75.7638617464
 10
145.1392682671
 20
75.7450035599
 10
145.1463891499
 20
75.7257648635
 10
145.1522937169
 20
75.706220294
 10
145.1570035608
 20
75.6862952909
 10
145.1605186815
 20
75.6659898962
  0
LWPOLYLINE
  5
293
100
AcDbEntity
  8
0
100
AcDbPolyline
 62
253
  6
CONTINUOUS
 90
10
 70
0
 10
130.3689139914
 20
75.0676674829
 10
130.3581261185
 20
75.0689804127
 10
130.3449133085
 20
75.071771794
 10
130.3294863904
 20
75.0759970757
 10
130.3120915233
 20
75.0815888265
 10
130.2930062686
 20
75.0884578114
 10
130.272535161
 20
75.0964944154
 10
130.2510048496
 20
75.1055703925
 10
130.2287588849
 20
75.1155409127
 10
130.2061522375
 20
75.1262468723
  0
LINE
  5
294
100
AcDbEntity
  8
0
100
AcDbLine
 62
7
  6
CONTINUOUS
 10
135.7388351872
 20
73.7642870129
 11
134.9594123238
 21
74.2142870129
  0
LINE
  5
295
100
AcDbEntity
  8
0
100
AcDbLine
 62
7
  6
CONTINUOUS
 10
133.9201818393
 20
74.8142870129
 11
133.1407589759
 21
75.2642870129
  0
LINE
  5
296
100
AcDbEntity
  8
0
100
AcDbLine
 62
7
  6
CONTINUOUS
 10
137.558385911
 20
148.9950627993
 11
137.6109402518
 21
149.0668458962
  0
LINE
  5
297
100
AcDbEntity
  8
0
100
AcDbLine
 62
7
  6
CONTINUOUS
 10
139.3651290814
 20
148.992177896
 11
139.4397970815
 21
149.0668458962
  0
LINE
  5
298
100
AcDbEntity
  8
0
100
AcDbLine
 62
7
  6
CONTINUOUS
 10
127.4397970815
 20
133.9668458962
 11
127.5483560817
 21
134.0754048963
  0
LWPOLYLINE
  5
299
100
AcDbEntity
  8
0
100
AcDbPolyline
 62
253
  6
CONTINUOUS
 90
13
 70
0
 10
130.6654346439
 20
75.1263078579
 10
130.6680305502
 20
75.1266354814
 10
130.6719686515
 20
75.1293452991
 10
130.6771946799
 20
75.1343999691
 10
130.6836366198
 20
75.1417298373
 10
130.6912056999
 20
75.1512338965
 10
130.699797617
 20
75.1627811789
 10
130.7092939726
 20
75.1762125607
 10
130.7195639051
 20
75.1913429549
 10
130.730465893
 20
75.2079638618
 10
130.7418497046
 20
75.2258462419
 10
130.7535584688
 20
75.2447436727
 10
130.7654308366
 20
75.2643957437
  0
LWPOLYLINE
  5
29A
100
AcDbEntity
  8
0
100
AcDbPolyline
 62
253
  6
CONTINUOUS
 90
13
 70
0
 10
160.2141585496
 20
75.1263095372
 10
160.2115626645
 20
75.1266370563
 10
160.2076246081
 20
75.1293467201
 10
160.2023986459
 20
75.1344011899
 10
160.1959567905
 20
75.1417308164
 10
160.1883878091
 20
75.1512345988
 10
160.1797960006
 20
75.162781577
 10
160.170299758
 20
75.1762126364
 10
160.1600299376
 20
75.1913426998
 10
160.1491280551
 20
75.2079632784
 10
160.137744336
 20
75.2258453444
 10
160.1260356454
 20
75.2447424868
 10
160.1141633265
 20
75.2643943072
  0
LINE
  5
29B
100
AcDbEntity
  8
0
100
AcDbLine
 62
7
  6
CONTINUOUS
 10
139.3678795188
 20
71.1387634589
 11
139.4397970815
 21
71.0668458962
  0
LINE
  5
29C
100
AcDbEntity
  8
0
100
AcDbLine
 62
7
  6
CONTINUOUS
 10
127.4397970815
 20
86.1668458962
 11
127.5483560817
 21
86.058286896
  0
LINE
  5
29D
100
AcDbEntity
  8
0
100
AcDbLine
 62
253
  6
CONTINUOUS
 10
137.5118881804
 20
71.1655345123
 11
137.5645186652
 21
71.0936474117
  0
LINE
  5
29E
100
AcDbEntity
  8
0
100
AcDbLine
 62
253
  6
CONTINUOUS
 10
137.6118843727
 20
71.1387634589
 11
137.6645371597
 21
71.0668458962
  0
LWPOLYLINE
  5
29F
100
AcDbEntity
  8
0
100
AcDbPolyline
 62
253
  6
CONTINUOUS
 90
16
 70
0
 10
130.2904233919
 20
145.8114374179
 10
130.291547106
 20
145.8138418622
 10
130.2913348947
 20
145.8185027178
 10
130.2897895615
 20
145.825358409
 10
130.2869315222
 20
145.8343183629
 10
130.2827985353
 20
145.8452642071
 10
130.2774452029
 20
145.8580513327
 10
130.2709422496
 20
145.8725108051
 10
130.2633755877
 20
145.8884515959
 10
130.2548451827
 20
145.9056631065
 10
130.2454637324
 20
145.9239179504
 10
130.2353551779
 20
145.9429749575
 10
130.2246530664
 20
145.9625823598
 10
130.2134987867
 20
145.9824811182
 10
130.2020397013
 20
146.0024083441
 10
130.1904271996
 20
146.0221007729
  0
LINE
  5
2A0
100
AcDbEntity
  8
0
100
AcDbLine
 62
7
  6
CONTINUOUS
 10
139.3661919563
 20
145.0752795761
 11
139.3512936497
 21
145.0603812695
  0
LINE
  5
2A1
100
AcDbEntity
  8
0
100
AcDbLine
 62
7
  6
CONTINUOUS
 10
128.832540073
 20
134.0267383505
 11
128.6628491508
 21
133.9718083574
  0
LINE
  5
2A2
100
AcDbEntity
  8
0
100
AcDbLine
 62
7
  6
CONTINUOUS
 10
145.0397970815
 20
82.4668458962
 11
144.8379891592
 21
82.4164131284
  0
LINE
  5
2A3
100
AcDbEntity
  8
0
100
AcDbLine
 62
7
  6
CONTINUOUS
 10
147.0537648575
 20
83.8703365104
 11
147.2039246981
 21
83.9078621748
  0
LWPOLYLINE
  5
2A4
100
AcDbEntity
  8
0
100
AcDbPolyline
 62
7
  6
CONTINUOUS
 90
7
 70
0
 10
162.0470540901
 20
86.1069534418
 10
162.0444670512
 20
86.1064982513
 10
162.039746986
 20
86.1060545964
 10
162.0328938946
 20
86.1056224773
 10
162.0238194535
 20
86.1051986459
 10
162.0126119861
 20
86.1047863502
 10
161.9995364628
 20
86.1043953339
  0
LWPOLYLINE
  5
2A5
100
AcDbEntity
  8
0
100
AcDbPolyline
 62
253
  6
CONTINUOUS
 90
22
 70
0
 10
146.9436878327
 20
82.5329205342
 10
146.9888418656
 20
82.5346759287
 10
147.0332497858
 20
82.5396625322
 10
147.0769115933
 20
82.5478803952
 10
147.120048667
 20
82.5594058135
 10
147.1624396281
 20
82.5741626924
 10
147.2034203403
 20
82.5919225343
 10
147.2429822911
 20
82.612736908
 10
147.2811339929
 20
82.6365546062
 10
147.3172368468
 20
82.6629929695
 10
147.351257784
 20
82.6920960716
 10
147.3832298732
 20
82.723820287
 10
147.412613722
 20
82.7576513589
 10
147.4393681424
 20
82.7936281744
 10
147.4635343223
 20
82.8317122905
 10
147.4846964334
 20
82.8712733502
 10
147.5028036048
 20
82.9123262082
 10
147.5179067074
 20
82.9548563572
 10
147.5297425256
 20
82.9981892457
 10
147.5382233207
 20
83.0421000484
 10
147.5434368313
 20
83.0868137621
 10
147.5453830574
 20
83.1323304838
  0
LWPOLYLINE
  5
2A6
100
AcDbEntity
  8
0
100
AcDbPolyline
 62
253
  6
CONTINUOUS
 90
22
 70
0
 10
146.9436850287
 20
82.8631379017
 10
146.9661028167
 20
82.863940689
 10
146.9883927713
 20
82.866400343
 10
147.0104314827
 20
82.8705005962
 10
147.0320913524
 20
82.8762135951
 10
147.0532592819
 20
82.8835065328
 10
147.0738356873
 20
82.8923465684
 10
147.0937121353
 20
82.9026895453
 10
147.112770985
 20
82.9144769965
 10
147.1309030039
 20
82.9276459989
 10
147.1480063138
 20
82.9421239175
 10
147.1639851596
 20
82.9578313422
 10
147.1787478113
 20
82.9746839346
 10
147.1922115224
 20
82.9925893623
 10
147.204299127
 20
83.0114473731
 10
147.2149383788
 20
83.0311523567
 10
147.2240667955
 20
83.0515885197
 10
147.2316356437
 20
83.0726466428
 10
147.2376031815
 20
83.0942253307
 10
147.241931942
 20
83.116209792
 10
147.2445925519
 20
83.1384712519
 10
147.2455657505
 20
83.1608842463
  0
LINE
  5
2A7
100
AcDbEntity
  8
0
100
AcDbLine
 62
7
  6
CONTINUOUS
 10
144.2294582755
 20
83.0668458962
 11
144.1364788212
 21
83.0637103877
  0
LWPOLYLINE
  5
2A8
100
AcDbEntity
  8
0
100
AcDbPolyline
 62
253
  6
CONTINUOUS
 90
16
 70
0
 10
143.3342111057
 20
83.132330635
 10
143.3648782548
 20
83.1325817631
 10
143.395224107
 20
83.1331295314
 10
143.4249307193
 20
83.1339682008
 10
143.4536868465
 20
83.1350889843
 10
143.4811912019
 20
83.1364801391
 10
143.5071556138
 20
83.1381270898
 10
143.5313080453
 20
83.1400125807
 10
143.5533954437
 20
83.142116857
 10
143.5731863928
 20
83.1444178715
 10
143.5904735366
 20
83.146891516
 10
143.6050757525
 20
83.1495118732
 10
143.6168400486
 20
83.152251489
 10
143.6256431667
 20
83.1550816595
 10
143.6313928738
 20
83.1579727322
 10
143.6340289286
 20
83.1608944165
  0
LINE
  5
2A9
100
AcDbEntity
  8
0
100
AcDbLine
 62
253
  6
CONTINUOUS
 10
146.341696446
 20
82.0846512467
 11
144.5378977171
 21
82.0846512467
  0
LINE
  5
2AA
100
AcDbEntity
  8
0
100
AcDbLine
 62
7
  6
CONTINUOUS
 10
146.0416050039
 20
82.4164131284
 11
144.8379891592
 21
82.4164131284
  0
LINE
  5
2AB
100
AcDbEntity
  8
0
100
AcDbLine
 62
7
  6
CONTINUOUS
 10
145.0397970815
 20
82.4668458962
 11
145.8397970815
 21
82.4668458962
  0
LINE
  5
2AC
100
AcDbEntity
  8
0
100
AcDbLine
 62
253
  6
CONTINUOUS
 10
143.9359063303
 20
82.5329205342
 11
144.5362718341
 21
82.5329205342
  0
LINE
  5
2AD
100
AcDbEntity
  8
0
100
AcDbLine
 62
253
  6
CONTINUOUS
 10
146.3433223289
 20
82.5329205342
 11
146.9436878327
 21
82.5329205342
  0
LINE
  5
2AE
100
AcDbEntity
  8
0
100
AcDbLine
 62
253
  6
CONTINUOUS
 10
143.9358976559
 20
82.8631378969
 11
144.8360890822
 21
82.8631378969
  0
LINE
  5
2AF
100
AcDbEntity
  8
0
100
AcDbLine
 62
253
  6
CONTINUOUS
 10
146.0435050808
 20
82.8631378969
 11
146.9436850335
 21
82.8631378969
  0
LINE
  5
2B0
100
AcDbEntity
  8
0
100
AcDbLine
 62
7
  6
CONTINUOUS
 10
144.2294582755
 20
83.0668458962
 11
145.0397970815
 21
83.0668458962
  0
LINE
  5
2B1
100
AcDbEntity
  8
0
100
AcDbLine
 62
7
  6
CONTINUOUS
 10
145.8397970815
 20
83.0668458962
 11
146.6501358876
 21
83.0668458962
  0
LINE
  5
2B2
100
AcDbEntity
  8
0
100
AcDbLine
 62
7
  6
CONTINUOUS
 10
146.6501358876
 20
83.4668458962
 11
144.2294582755
 21
83.4668458962
  0
LINE
  5
2B3
100
AcDbEntity
  8
0
100
AcDbLine
 62
7
  6
CONTINUOUS
 10
147.0537648575
 20
83.8703365104
 11
143.8258293056
 21
83.8703365104
  0
LINE
  5
2B4
100
AcDbEntity
  8
0
100
AcDbLine
 62
7
  6
CONTINUOUS
 10
147.2039246981
 20
83.9078621748
 11
146.2897970815
 21
83.9078621748
  0
LINE
  5
2B5
100
AcDbEntity
  8
0
100
AcDbLine
 62
7
  6
CONTINUOUS
 10
143.6756694649
 20
83.9078621748
 11
144.5897970815
 21
83.9078621748
  0
LINE
  5
2B6
100
AcDbEntity
  8
0
100
AcDbLine
 62
7
  6
CONTINUOUS
 10
144.6169024644
 20
83.921413834
 11
146.2626916987
 21
83.921413834
  0
LWPOLYLINE
  5
2B7
100
AcDbEntity
  8
0
100
AcDbPolyline
 62
253
  6
CONTINUOUS
 90
16
 70
0
 10
147.5453830574
 20
83.132330484
 10
147.5147159232
 20
83.1325816222
 10
147.4843700966
 20
83.133129401
 10
147.4546635186
 20
83.133968081
 10
147.4259074329
 20
83.1350888753
 10
147.3984031243
 20
83.1364800409
 10
147.3724387627
 20
83.1381270023
 10
147.3482863834
 20
83.1400125039
 10
147.3261990373
 20
83.1421167906
 10
147.3064081392
 20
83.1444178154
 10
147.2891210434
 20
83.1468914699
 10
147.2745188714
 20
83.1495118369
 10
147.2627546139
 20
83.1522514621
 10
147.2539515281
 20
83.1550816419
 10
147.2482018463
 20
83.1579727235
 10
147.2455658093
 20
83.1608944165
  0
LINE
  5
2B8
100
AcDbEntity
  8
0
100
AcDbLine
 62
7
  6
CONTINUOUS
 10
146.7431153419
 20
83.0637103877
 11
146.6501358876
 21
83.0668458962
  0
LWPOLYLINE
  5
2B9
100
AcDbEntity
  8
0
100
AcDbPolyline
 62
7
  6
CONTINUOUS
 90
8
 70
0
 10
128.6628491508
 20
86.1618834349
 10
128.6604076965
 20
86.162324893
 10
128.65589989
 20
86.1627567558
 10
128.6493257313
 20
86.1631790234
 10
128.640578423
 20
86.1635956158
 10
128.6297647624
 20
86.164002613
 10
128.617205142
 20
86.1643882549
 10
128.5868706236
 20
86.1650910042
  0
LINE
  5
2BA
100
AcDbEntity
  8
0
100
AcDbLine
 62
7
  6
CONTINUOUS
 10
145.8397970815
 20
82.4668458962
 11
146.0416050039
 21
82.4164131284
  0
LINE
  5
2BB
100
AcDbEntity
  8
0
100
AcDbLine
 62
7
  6
CONTINUOUS
 10
143.8258293056
 20
83.8703365104
 11
143.6756694649
 21
83.9078621748
  0
LWPOLYLINE
  5
2BC
100
AcDbEntity
  8
0
100
AcDbPolyline
 62
7
  6
CONTINUOUS
 90
9
 70
0
 10
127.5483560817
 20
86.058286896
 10
127.5498094459
 20
86.0579228235
 10
127.5533332018
 20
86.0575689714
 10
127.5589273492
 20
86.0572253398
 10
127.5667447457
 20
86.056887148
 10
127.5766325337
 20
86.0565591767
 10
127.5881321411
 20
86.0562557673
 10
127.6011809601
 20
86.055980278
 10
127.6318433079
 20
86.0555072522
  0
LINE
  5
2BD
100
AcDbEntity
  8
0
100
AcDbLine
 62
7
  6
CONTINUOUS
 10
128.6628491508
 20
86.1618834349
 11
128.832540073
 21
86.1069534418
  0
LINE
  5
2BE
100
AcDbEntity
  8
0
100
AcDbLine
 62
7
  6
CONTINUOUS
 10
139.3661919563
 20
75.0584122162
 11
139.3512936497
 21
75.0733105228
  0
LWPOLYLINE
  5
2BF
100
AcDbEntity
  8
0
100
AcDbPolyline
 62
253
  6
CONTINUOUS
 90
16
 70
0
 10
130.290422102
 20
74.3222521404
 10
130.2915458462
 20
74.3198475902
 10
130.291333682
 20
74.3151866669
 10
130.2897884128
 20
74.3083309452
 10
130.2869304534
 20
74.2993709952
 10
130.2827975608
 20
74.288425186
 10
130.2774443348
 20
74.2756381214
 10
130.2709414968
 20
74.2611787301
 10
130.2633749559
 20
74.2452380339
 10
130.2548446735
 20
74.2280266237
 10
130.245463343
 20
74.209771878
 10
130.2353549008
 20
74.1907149585
 10
130.2246528893
 20
74.1711076245
 10
130.2134986923
 20
74.1512089069
 10
130.2020396674
 20
74.1312816859
 10
130.1904271992
 20
74.1115892182
  0
LINE
  5
2C0
100
AcDbEntity
  8
0
100
AcDbLine
 62
7
  6
CONTINUOUS
 10
129.7247560815
 20
126.8977678962
 11
128.9628050815
 21
125.9935968962
  0
LINE
  5
2C1
100
AcDbEntity
  8
0
100
AcDbLine
 62
7
  6
CONTINUOUS
 10
129.3947540815
 20
126.0334898962
 11
130.1230870815
 21
126.8977678962
  0
LINE
  5
2C2
100
AcDbEntity
  8
0
100
AcDbLine
 62
7
  6
CONTINUOUS
 10
132.7955660119
 20
133.1905760214
 11
132.7588622248
 21
133.1538722342
  0
LINE
  5
2C3
100
AcDbEntity
  8
0
100
AcDbLine
 62
7
  6
CONTINUOUS
 10
150.6678795188
 20
148.9949283334
 11
150.7397970815
 21
149.0668458962
  0
LINE
  5
2C4
100
AcDbEntity
  8
0
100
AcDbLine
 62
7
  6
CONTINUOUS
 10
131.1020710815
 20
127.6630668962
 11
131.3656830815
 21
127.8110238962
  0
LINE
  5
2C5
100
AcDbEntity
  8
0
100
AcDbLine
 62
7
  6
CONTINUOUS
 10
146.2897970815
 20
136.2258296175
 11
146.2626916987
 21
136.2122779583
  0
LWPOLYLINE
  5
2C6
100
AcDbEntity
  8
0
100
AcDbPolyline
 62
7
  6
CONTINUOUS
 90
7
 70
0
 10
143.5820033279
 20
86.0573613431
 10
143.5944106596
 20
86.0577550133
 10
143.6050113792
 20
86.0581702083
 10
143.6134888424
 20
86.0585947676
 10
143.6197375013
 20
86.0590246377
 10
143.6238629037
 20
86.059463872
 10
143.6258650498
 20
86.0599124706
  0
LWPOLYLINE
  5
2C7
100
AcDbEntity
  8
0
100
AcDbPolyline
 62
7
  6
CONTINUOUS
 90
7
 70
0
 10
128.5663664207
 20
86.8693030088
 10
128.5788645774
 20
86.8696886615
 10
128.5896163595
 20
86.8700957102
 10
128.5983013366
 20
86.8705123815
 10
128.6048126986
 20
86.8709347509
 10
128.6092572557
 20
86.8713667428
 10
128.6116350078
 20
86.8718083574
  0
LWPOLYLINE
  5
2C8
100
AcDbEntity
  8
0
100
AcDbPolyline
 62
7
  6
CONTINUOUS
 90
7
 70
0
 10
162.2623890211
 20
86.1643882549
 10
162.2498294007
 20
86.164002613
 10
162.2390157401
 20
86.1635956158
 10
162.2302684318
 20
86.1631790234
 10
162.2236942731
 20
86.1627567558
 10
162.2191864666
 20
86.162324893
 10
162.2167450123
 20
86.1618834349
  0
LWPOLYLINE
  5
2C9
100
AcDbEntity
  8
0
100
AcDbPolyline
 62
7
  6
CONTINUOUS
 90
7
 70
0
 10
163.2914620736
 20
86.0562557665
 10
163.302961676
 20
86.056559176
 10
163.3128494576
 20
86.0568871475
 10
163.3206668462
 20
86.0572253394
 10
163.3262609843
 20
86.0575689712
 10
163.3297847293
 20
86.0579228234
 10
163.3312380814
 20
86.058286896
  0
LWPOLYLINE
  5
2CA
100
AcDbEntity
  8
0
100
AcDbPolyline
 62
7
  6
CONTINUOUS
 90
7
 70
0
 10
127.5891389864
 20
86.9784155697
 10
127.5776335291
 20
86.9781116975
 10
127.5677389587
 20
86.9777831927
 10
127.5599154804
 20
86.9774443981
 10
127.5543164959
 20
86.9771000945
 10
127.5507886035
 20
86.9767455011
 10
127.5493318032
 20
86.9763806178
  0
LINE
  5
2CB
100
AcDbEntity
  8
0
100
AcDbLine
 62
7
  6
CONTINUOUS
 10
143.5517563623
 20
86.0566427975
 11
143.5820033279
 21
86.0573613431
  0
LINE
  5
2CC
100
AcDbEntity
  8
0
100
AcDbLine
 62
7
  6
CONTINUOUS
 10
128.5361544618
 20
86.8686003975
 11
128.5663664207
 21
86.8693030088
  0
LINE
  5
2CD
100
AcDbEntity
  8
0
100
AcDbLine
 62
7
  6
CONTINUOUS
 10
162.2927235394
 20
86.1650910042
 11
162.2623890211
 21
86.1643882549
  0
LINE
  5
2CE
100
AcDbEntity
  8
0
100
AcDbLine
 62
7
  6
CONTINUOUS
 10
128.8195161392
 20
86.9290536961
 11
128.8510903471
 21
86.9297687909
  0
LINE
  5
2CF
100
AcDbEntity
  8
0
100
AcDbLine
 62
7
  6
CONTINUOUS
 10
161.9995364628
 20
86.1043953339
 11
161.967722887
 21
86.1036788289
  0
LINE
  5
2D0
100
AcDbEntity
  8
0
100
AcDbLine
 62
7
  6
CONTINUOUS
 10
163.2637526233
 20
86.0557293496
 11
163.2914620736
 21
86.0562557665
  0
LINE
  5
2D1
100
AcDbEntity
  8
0
100
AcDbLine
 62
7
  6
CONTINUOUS
 10
127.6168569378
 20
86.9789426904
 11
127.5891389864
 21
86.9784155697
  0
LINE
  5
2D2
100
AcDbEntity
  8
0
100
AcDbLine
 62
7
  6
CONTINUOUS
 10
143.5153016113
 20
86.0560282244
 11
143.5517563623
 21
86.0566427975
  0
LINE
  5
2D3
100
AcDbEntity
  8
0
100
AcDbLine
 62
7
  6
CONTINUOUS
 10
162.3291950514
 20
86.1656932054
 11
162.2927235394
 21
86.1650910042
  0
LINE
  5
2D4
100
AcDbEntity
  8
0
100
AcDbLine
 62
7
  6
CONTINUOUS
 10
128.4998002474
 20
86.8679983664
 11
128.5361544618
 21
86.8686003975
  0
LINE
  5
2D5
100
AcDbEntity
  8
0
100
AcDbLine
 62
7
  6
CONTINUOUS
 10
128.8510903471
 20
86.9297687909
 11
128.8891720039
 21
86.9303779011
  0
LINE
  5
2D6
100
AcDbEntity
  8
0
100
AcDbLine
 62
7
  6
CONTINUOUS
 10
161.967722887
 20
86.1036788289
 11
161.9294548978
 21
86.1030694827
  0
LINE
  5
2D7
100
AcDbEntity
  8
0
100
AcDbLine
 62
7
  6
CONTINUOUS
 10
163.230234012
 20
86.0553130089
 11
163.2637526233
 21
86.0557293496
  0
LINE
  5
2D8
100
AcDbEntity
  8
0
100
AcDbLine
 62
7
  6
CONTINUOUS
 10
127.6503771344
 20
86.9793594906
 11
127.6168569378
 21
86.9789426904
  0
LWPOLYLINE
  5
2D9
100
AcDbEntity
  8
0
100
AcDbPolyline
 62
253
  6
CONTINUOUS
 90
12
 70
0
 10
163.1555793993
 20
87.5374863917
 10
163.1809645519
 20
87.5377593817
 10
163.2054929291
 20
87.53819413
 10
163.2287540936
 20
87.5387833618
 10
163.250358813
 20
87.5395172173
 10
163.2699455723
 20
87.540383417
 10
163.2871866232
 20
87.5413674666
 10
163.3017934684
 20
87.5424528998
 10
163.313521689
 20
87.5436215539
 10
163.3221750347
 20
87.5448538736
 10
163.3276087072
 20
87.5461292385
 10
163.3297317839
 20
87.5474263075
  0
LINE
  5
2DA
100
AcDbEntity
  8
0
100
AcDbLine
 62
7
  6
CONTINUOUS
 10
162.3940148484
 20
86.1663828708
 11
162.3291950514
 21
86.1656932054
  0
LINE
  5
2DB
100
AcDbEntity
  8
0
100
AcDbLine
 62
7
  6
CONTINUOUS
 10
143.4503580408
 20
86.0553259331
 11
143.5153016113
 21
86.0560282244
  0
LINE
  5
2DC
100
AcDbEntity
  8
0
100
AcDbLine
 62
7
  6
CONTINUOUS
 10
128.4351385231
 20
86.8673088922
 11
128.4998002474
 21
86.8679983664
  0
LINE
  5
2DD
100
AcDbEntity
  8
0
100
AcDbLine
 62
7
  6
CONTINUOUS
 10
161.9294548978
 20
86.1030694827
 11
161.8621990702
 21
86.1023896188
  0
LINE
  5
2DE
100
AcDbEntity
  8
0
100
AcDbLine
 62
7
  6
CONTINUOUS
 10
128.8891720039
 20
86.9303779011
 11
128.956194636
 21
86.9310585185
  0
LINE
  5
2DF
100
AcDbEntity
  8
0
100
AcDbLine
 62
7
  6
CONTINUOUS
 10
161.8621990702
 20
86.1023896188
 11
161.8123522616
 21
86.1021112743
  0
LINE
  5
2E0
100
AcDbEntity
  8
0
100
AcDbLine
 62
7
  6
CONTINUOUS
 10
128.956194636
 20
86.9310585185
 11
129.0058335981
 21
86.9313370774
  0
LINE
  5
2E1
100
AcDbEntity
  8
0
100
AcDbLine
 62
7
  6
CONTINUOUS
 10
163.1722805379
 20
86.0549271993
 11
163.230234012
 21
86.0553130089
  0
LINE
  5
2E2
100
AcDbEntity
  8
0
100
AcDbLine
 62
7
  6
CONTINUOUS
 10
127.7083158944
 20
86.9797456061
 11
127.6503771344
 21
86.9793594906
  0
LINE
  5
2E3
100
AcDbEntity
  8
0
100
AcDbLine
 62
7
  6
CONTINUOUS
 10
143.3769472373
 20
86.0549290529
 11
143.4503580408
 21
86.0553259331
  0
LINE
  5
2E4
100
AcDbEntity
  8
0
100
AcDbLine
 62
7
  6
CONTINUOUS
 10
162.4670045589
 20
86.1667715991
 11
162.3940148484
 21
86.1663828708
  0
LINE
  5
2E5
100
AcDbEntity
  8
0
100
AcDbLine
 62
7
  6
CONTINUOUS
 10
128.3622646672
 20
86.8669202171
 11
128.4351385231
 21
86.8673088922
  0
LINE
  5
2E6
100
AcDbEntity
  8
0
100
AcDbLine
 62
7
  6
CONTINUOUS
 10
144.6197509281
 20
86.0548532444
 11
146.259843235
 21
86.0548532444
  0
LINE
  5
2E7
100
AcDbEntity
  8
0
100
AcDbLine
 62
7
  6
CONTINUOUS
 10
137.9397970815
 20
86.084807091
 11
143.6756694649
 21
86.084807091
  0
LINE
  5
2E8
100
AcDbEntity
  8
0
100
AcDbLine
 62
7
  6
CONTINUOUS
 10
144.5897970815
 20
86.084807091
 11
146.2897970815
 21
86.084807091
  0
LINE
  5
2E9
100
AcDbEntity
  8
0
100
AcDbLine
 62
7
  6
CONTINUOUS
 10
147.2039246981
 20
86.084807091
 11
152.9397970815
 21
86.084807091
  0
LINE
  5
2EA
100
AcDbEntity
  8
0
100
AcDbLine
 62
7
  6
CONTINUOUS
 10
163.4397970815
 20
86.1668458962
 11
162.4670045589
 21
86.1667715991
  0
LINE
  5
2EB
100
AcDbEntity
  8
0
100
AcDbLine
 62
7
  6
CONTINUOUS
 10
128.3622646672
 20
86.8669202171
 11
127.4397970815
 21
86.8668458962
  0
LINE
  5
2EC
100
AcDbEntity
  8
0
100
AcDbLine
 62
7
  6
CONTINUOUS
 10
127.7083158944
 20
86.9797456061
 11
132.7588622248
 21
86.9798195581
  0
LINE
  5
2ED
100
AcDbEntity
  8
0
100
AcDbLine
 62
253
  6
CONTINUOUS
 10
163.1555793993
 20
87.5374863917
 11
158.1212492532
 21
87.5373797228
  0
LINE
  5
2EE
100
AcDbEntity
  8
RACCORDO
100
AcDbLine
 62
7
  6
CONTINUOUS
 10
137.9397970815
 20
87.5668458962
 11
134.9897970815
 21
87.5668458962
  0
LINE
  5
2EF
100
AcDbEntity
  8
DRAFT
100
AcDbLine
 62
7
  6
CONTINUOUS
 10
137.9397970815
 20
87.5668458962
 11
152.9397970815
 21
87.5668458962
  0
LINE
  5
2F0
100
AcDbEntity
  8
RACCORDO
100
AcDbLine
 62
7
  6
CONTINUOUS
 10
152.9397970815
 20
87.5668458962
 11
155.8897970815
 21
87.5668458962
  0
LINE
  5
2F1
100
AcDbEntity
  8
0
100
AcDbLine
 62
7
  6
CONTINUOUS
 10
127.7275511631
 20
86.0548722168
 11
143.3769472373
 21
86.0549290529
  0
LINE
  5
2F2
100
AcDbEntity
  8
0
100
AcDbLine
 62
7
  6
CONTINUOUS
 10
147.527882437
 20
86.0548725045
 11
163.1722805379
 21
86.0549271993
  0
LINE
  5
2F3
100
AcDbEntity
  8
0
100
AcDbLine
 62
7
  6
CONTINUOUS
 10
163.1712783319
 20
86.9797456094
 11
158.1207319383
 21
86.9798195581
  0
LINE
  5
2F4
100
AcDbEntity
  8
0
100
AcDbLine
 62
7
  6
CONTINUOUS
 10
128.4372159131
 20
86.166679653
 11
127.4397970815
 21
86.1668458962
  0
LINE
  5
2F5
100
AcDbEntity
  8
0
100
AcDbLine
 62
7
  6
CONTINUOUS
 10
162.4927339528
 20
86.8670121593
 11
163.4397970815
 21
86.8668458962
  0
LWPOLYLINE
  5
2F6
100
AcDbEntity
  8
0
100
AcDbPolyline
 62
253
  6
CONTINUOUS
 90
13
 70
0
 10
132.7583449099
 20
87.5373797228
 10
127.7240147535
 20
87.5374863873
 10
127.6986295916
 20
87.5377593776
 10
127.6741012065
 20
87.5381941261
 10
127.6508400357
 20
87.5387833583
 10
127.6292353122
 20
87.5395172144
 10
127.6096485512
 20
87.5403834146
 10
127.5924075013
 20
87.5413674647
 10
127.5778006597
 20
87.5424528984
 10
127.5660724451
 20
87.543621553
 10
127.5574191075
 20
87.5448538731
 10
127.5519854448
 20
87.5461292383
 10
127.5498623792
 20
87.5474263075
  0
LINE
  5
2F7
100
AcDbEntity
  8
0
100
AcDbLine
 62
7
  6
CONTINUOUS
 10
147.4533237683
 20
86.0551557672
 11
147.527882437
 21
86.0548725045
  0
LINE
  5
2F8
100
AcDbEntity
  8
0
100
AcDbLine
 62
7
  6
CONTINUOUS
 10
127.6682181754
 20
86.0551475976
 11
127.7275511631
 21
86.0548722168
  0
LINE
  5
2F9
100
AcDbEntity
  8
0
100
AcDbLine
 62
7
  6
CONTINUOUS
 10
129.0672419016
 20
86.1021112743
 11
128.9940601117
 21
86.1025802591
  0
LINE
  5
2FA
100
AcDbEntity
  8
0
100
AcDbLine
 62
7
  6
CONTINUOUS
 10
161.873760565
 20
86.9313370774
 11
161.9466866989
 21
86.9308673277
  0
LINE
  5
2FB
100
AcDbEntity
  8
0
100
AcDbLine
 62
7
  6
CONTINUOUS
 10
128.5084014474
 20
86.1661846243
 11
128.4372159131
 21
86.166679653
  0
LINE
  5
2FC
100
AcDbEntity
  8
0
100
AcDbLine
 62
7
  6
CONTINUOUS
 10
162.4216815545
 20
86.867507106
 11
162.4927339528
 21
86.8670121593
  0
LINE
  5
2FD
100
AcDbEntity
  8
0
100
AcDbLine
 62
7
  6
CONTINUOUS
 10
163.2292171499
 20
86.9793594942
 11
163.1712783319
 21
86.9797456094
  0
LINE
  5
2FE
100
AcDbEntity
  8
0
100
AcDbLine
 62
7
  6
CONTINUOUS
 10
147.3847205139
 20
86.0557621617
 11
147.4533237683
 21
86.0551557672
  0
LINE
  5
2FF
100
AcDbEntity
  8
0
100
AcDbLine
 62
7
  6
CONTINUOUS
 10
127.6318433079
 20
86.0555072522
 11
127.6682181754
 21
86.0551475976
  0
LINE
  5
300
100
AcDbEntity
  8
0
100
AcDbLine
 62
7
  6
CONTINUOUS
 10
128.9940601117
 20
86.1025802591
 11
128.9500905858
 21
86.1030702677
  0
LINE
  5
301
100
AcDbEntity
  8
0
100
AcDbLine
 62
7
  6
CONTINUOUS
 10
161.9466866989
 20
86.9308673277
 11
161.9903699385
 21
86.9303787323
  0
LINE
  5
302
100
AcDbEntity
  8
0
100
AcDbLine
 62
7
  6
CONTINUOUS
 10
128.5503991117
 20
86.1656932054
 11
128.5084014474
 21
86.1661846243
  0
LINE
  5
303
100
AcDbEntity
  8
0
100
AcDbLine
 62
7
  6
CONTINUOUS
 10
162.379795292
 20
86.8679983447
 11
162.4216815545
 21
86.867507106
  0
LINE
  5
304
100
AcDbEntity
  8
0
100
AcDbLine
 62
7
  6
CONTINUOUS
 10
163.2627373541
 20
86.9789426931
 11
163.2292171499
 21
86.9793594942
  0
LINE
  5
305
100
AcDbEntity
  8
0
100
AcDbLine
 62
7
  6
CONTINUOUS
 10
147.3453358582
 20
86.0563216414
 11
147.3847205139
 21
86.0557621617
  0
LINE
  5
306
100
AcDbEntity
  8
0
100
AcDbLine
 62
7
  6
CONTINUOUS
 10
128.9500905858
 20
86.1030702677
 11
128.9117920494
 21
86.1036802891
  0
LINE
  5
307
100
AcDbEntity
  8
0
100
AcDbLine
 62
7
  6
CONTINUOUS
 10
161.9903699385
 20
86.9303787323
 11
162.0284177671
 21
86.9297703918
  0
LINE
  5
308
100
AcDbEntity
  8
0
100
AcDbLine
 62
7
  6
CONTINUOUS
 10
128.5868706236
 20
86.1650910042
 11
128.5503991117
 21
86.1656932054
  0
LINE
  5
309
100
AcDbEntity
  8
0
100
AcDbLine
 62
7
  6
CONTINUOUS
 10
162.3434431598
 20
86.8686003312
 11
162.379795292
 21
86.8679983447
  0
LWPOLYLINE
  5
30A
100
AcDbEntity
  8
0
100
AcDbPolyline
 62
7
  6
CONTINUOUS
 90
8
 70
0
 10
128.9117920494
 20
86.1036802891
 10
128.8800066305
 20
86.1043967169
 10
128.8669527787
 20
86.1047870866
 10
128.855771294
 20
86.1051984822
 10
128.8467140897
 20
86.1056217326
 10
128.839865137
 20
86.1060537808
 10
128.8351404648
 20
86.1064976839
 10
128.832540073
 20
86.1069534418
  0
LWPOLYLINE
  5
30B
100
AcDbEntity
  8
0
100
AcDbPolyline
 62
7
  6
CONTINUOUS
 90
8
 70
0
 10
162.0284177671
 20
86.9297703918
 10
162.0600158061
 20
86.9290553899
 10
162.0729912113
 20
86.9286652722
 10
162.084103194
 20
86.9282539445
 10
162.09308937
 20
86.9278309534
 10
162.0998622777
 20
86.9273994808
 10
162.1045093786
 20
86.9269563447
 10
162.1070306728
 20
86.9265015451
  0
LWPOLYLINE
  5
30C
100
AcDbEntity
  8
0
100
AcDbPolyline
 62
7
  6
CONTINUOUS
 90
9
 70
0
 10
147.2537291132
 20
86.0599124706
 10
147.2557312594
 20
86.059463872
 10
147.2598566618
 20
86.0590246377
 10
147.2661053206
 20
86.0585947676
 10
147.2745827838
 20
86.0581702083
 10
147.2851835034
 20
86.0577550133
 10
147.2975908351
 20
86.0573613431
 10
147.3118110119
 20
86.0569913079
 10
147.3453358582
 20
86.0563216414
  0
LINE
  5
30D
100
AcDbEntity
  8
0
100
AcDbLine
 62
7
  6
CONTINUOUS
 10
129.3397970815
 20
92.2924948962
 11
130.6990260815
 21
91.8356528962
  0
LWPOLYLINE
  5
30E
100
AcDbEntity
  8
0
100
AcDbPolyline
 62
7
  6
CONTINUOUS
 90
10
 70
0
 10
146.0416050039
 20
82.4164131284
 10
146.0417570233
 20
82.4163435103
 10
146.0419089274
 20
82.4162108462
 10
146.0420607162
 20
82.4160151361
 10
146.0422124179
 20
82.4157563244
 10
146.0423640043
 20
82.4154344667
 10
146.0425153907
 20
82.4150497298
 10
146.0426665487
 20
82.4146021695
 10
146.0428175068
 20
82.41409173
 10
146.0429682648
 20
82.4135184114
  0
LINE
  5
30F
100
AcDbEntity
  8
0
100
AcDbLine
 62
7
  6
CONTINUOUS
 10
146.2897970815
 20
83.9078621748
 11
146.2626916987
 21
83.921413834
  0
LINE
  5
310
100
AcDbEntity
  8
0
100
AcDbLine
 62
7
  6
CONTINUOUS
 10
132.7955660119
 20
86.9431157709
 11
132.7588622248
 21
86.9798195581
  0
LINE
  5
311
100
AcDbEntity
  8
0
100
AcDbLine
 62
7
  6
CONTINUOUS
 10
146.2775920815
 20
75.0960618962
 11
147.4788610815
 21
73.8947908962
  0
LINE
  5
312
100
AcDbEntity
  8
0
100
AcDbLine
 62
7
  6
CONTINUOUS
 10
150.6678795188
 20
71.1387634589
 11
150.7397970815
 21
71.0668458962
  0
LINE
  5
313
100
AcDbEntity
  8
0
100
AcDbLine
 62
7
  6
CONTINUOUS
 10
147.9119840815
 20
73.8947908962
 11
146.7107520815
 21
75.0960608962
  0
LINE
  5
314
100
AcDbEntity
  8
0
100
AcDbLine
 62
253
  6
CONTINUOUS
 10
128.8034017971
 20
86.4884859847
 11
128.832540073
 21
86.1069534418
  0
LWPOLYLINE
  5
315
100
AcDbEntity
  8
0
100
AcDbPolyline
 62
253
  6
CONTINUOUS
 90
3
 70
0
 10
129.0305814437
 20
86.5804829639
 10
129.0373644331
 20
86.4884971239
 10
129.0672419015
 20
86.1021112743
  0
LWPOLYLINE
  5
316
100
AcDbEntity
  8
0
100
AcDbPolyline
 62
253
  6
CONTINUOUS
 90
3
 70
0
 10
128.7725634903
 20
86.9265015451
 10
128.7782836575
 20
86.8421706098
 10
128.8034017971
 20
86.4884859847
  0
LWPOLYLINE
  5
317
100
AcDbEntity
  8
RACCORDO
100
AcDbPolyline
 62
7
  6
CONTINUOUS
 90
19
 70
0
 10
126.9397970438
 20
70.9697708552
 10
126.9413777094
 20
70.9313206038
 10
126.9455372343
 20
70.8945234582
 10
126.9522756184
 20
70.8593794184
 10
126.9616637347
 20
70.8258399154
 10
126.9736307103
 20
70.7939535181
 10
126.9879639264
 20
70.7638659338
 10
127.0045517678
 20
70.735605305
 10
127.0235058497
 20
70.7091434892
 10
127.0449484
 20
70.6845417658
 10
127.0689392537
 20
70.6616403579
 10
127.0954185757
 20
70.6405990425
 10
127.1243290881
 20
70.6219584292
 10
127.1558743146
 20
70.6057048269
 10
127.1898507315
 20
70.5918519267
 10
127.2255904904
 20
70.5809814121
 10
127.2628709752
 20
70.5732871773
 10
127.3019148019
 20
70.5685753281
 10
127.3427219706
 20
70.5668458643
  0
LINE
  5
318
100
AcDbEntity
  8
RACCORDO
100
AcDbLine
 62
7
  6
CONTINUOUS
 10
125.4397970815
 20
70.0654754309
 11
125.4397970815
 21
150.0682163614
  0
LINE
  5
319
100
AcDbEntity
  8
RACCORDO
100
AcDbLine
 62
7
  6
CONTINUOUS
 10
125.9397970832
 20
150.0675311413
 11
125.9397970814
 21
70.0661606645
  0
LINE
  5
31A
100
AcDbEntity
  8
RACCORDO
100
AcDbLine
 62
7
  6
CONTINUOUS
 10
126.939797007
 20
149.1639206117
 11
126.9397970438
 21
70.9697708552
  0
LWPOLYLINE
  5
31B
100
AcDbEntity
  8
RACCORDO
100
AcDbPolyline
 62
7
  6
CONTINUOUS
 90
19
 70
0
 10
125.9397970832
 20
150.0675311413
 10
125.9416591387
 20
150.111106249
 10
125.9472546637
 20
150.1539378355
 10
125.9565836582
 20
150.1960259008
 10
125.9698257639
 20
150.2378197175
 10
125.9868013392
 20
150.2788700131
 10
126.0069714586
 20
150.3178289697
 10
126.0303446354
 20
150.3544412491
 10
126.0569123564
 20
150.3889621896
 10
126.0861101565
 20
150.4208099885
 10
126.117929482
 20
150.4499594284
 10
126.1523788866
 20
150.4764357267
 10
126.1889195659
 20
150.4997327338
 10
126.2278123248
 20
150.5198628987
 10
126.2687963585
 20
150.5368137724
 10
126.3105504487
 20
150.5500418585
 10
126.3526341894
 20
150.5593659916
 10
126.3954879866
 20
150.5649673371
 10
126.4391118404
 20
150.566845895
  0
LWPOLYLINE
  5
31C
100
AcDbEntity
  8
0
100
AcDbPolyline
 62
253
  6
CONTINUOUS
 90
16
 70
0
 10
127.5117146443
 20
148.7949587943
 10
127.5128160293
 20
148.8158571705
 10
127.516095391
 20
148.8365266683
 10
127.5215168135
 20
148.8567409183
 10
127.5290209153
 20
148.8762785232
 10
127.5385255151
 20
148.8949255254
 10
127.5499265462
 20
148.9124777428
 10
127.5630991715
 20
148.9287429543
 10
127.5778991247
 20
148.943542997
 10
127.5941643107
 20
148.9567157599
 10
127.6117166001
 20
148.9681169704
 10
127.6303637611
 20
148.9776217536
 10
127.6499015452
 20
148.985125997
 10
127.6701159634
 20
148.9905475131
 10
127.6907856346
 20
148.9938269302
 10
127.7116841834
 20
148.9949283334
  0
LINE
  5
31D
100
AcDbEntity
  8
0
100
AcDbLine
 62
253
  6
CONTINUOUS
 10
128.7725634903
 20
133.2071902472
 11
128.7968033261
 21
133.55473315
  0
LWPOLYLINE
  5
31E
100
AcDbEntity
  8
0
100
AcDbPolyline
 62
253
  6
CONTINUOUS
 90
3
 70
0
 10
128.7968033261
 20
133.55473315
 10
128.824869044
 20
133.9289404394
 10
128.832540073
 20
134.0267383505
  0
LWPOLYLINE
  5
31F
100
AcDbEntity
  8
0
100
AcDbPolyline
 62
253
  6
CONTINUOUS
 90
3
 70
0
 10
129.030609008
 20
133.5535822372
 10
129.0593843044
 20
133.9325093239
 10
129.0672419015
 20
134.031580518
  0
LWPOLYLINE
  5
320
100
AcDbEntity
  8
0
100
AcDbPolyline
 62
7
  6
CONTINUOUS
 90
3
 70
0
 10
146.1453545317
 20
137.8451002145
 10
146.1785973183
 20
137.8808923201
 10
146.1959158062
 20
137.8993583415
  0
LWPOLYLINE
  5
321
100
AcDbEntity
  8
0
100
AcDbPolyline
 62
7
  6
CONTINUOUS
 90
3
 70
0
 10
146.1469547054
 20
137.3970814532
 10
146.1802024564
 20
137.4327735871
 10
146.1975233814
 20
137.4511992245
  0
LWPOLYLINE
  5
322
100
AcDbEntity
  8
0
100
AcDbPolyline
 62
7
  6
CONTINUOUS
 90
3
 70
0
 10
146.1959158062
 20
137.8993583415
 10
146.231725446
 20
137.9368936724
 10
146.249961424
 20
137.9558537297
  0
LWPOLYLINE
  5
323
100
AcDbEntity
  8
0
100
AcDbPolyline
 62
7
  6
CONTINUOUS
 90
3
 70
0
 10
146.1975233814
 20
137.4511992245
 10
146.2333378109
 20
137.4886724767
 10
146.2515761453
 20
137.5076104948
  0
LWPOLYLINE
  5
324
100
AcDbEntity
  8
0
100
AcDbPolyline
 62
7
  6
CONTINUOUS
 90
4
 70
0
 10
146.249961424
 20
137.9558537297
 10
146.305159609
 20
138.0123885235
 10
146.3234430479
 20
138.0308673116
 10
146.341696446
 20
138.0490405456
  0
LWPOLYLINE
  5
325
100
AcDbEntity
  8
0
100
AcDbPolyline
 62
7
  6
CONTINUOUS
 90
4
 70
0
 10
146.2515761453
 20
137.5076104948
 10
146.3067811692
 20
137.5641135578
 10
146.3250667923
 20
137.5825926362
 10
146.3433223289
 20
137.6007712581
  0
LINE
  5
326
100
AcDbEntity
  8
0
100
AcDbLine
 62
7
  6
CONTINUOUS
 10
150.6661919563
 20
145.0752795761
 11
150.6512936497
 21
145.0603812695
  0
LINE
  5
327
100
AcDbEntity
  8
0
100
AcDbLine
 62
7
  6
CONTINUOUS
 10
146.0435050808
 20
137.2705538955
 11
145.8397970815
 21
137.0668458962
  0
LINE
  5
328
100
AcDbEntity
  8
0
100
AcDbLine
 62
253
  6
CONTINUOUS
 10
146.7431153419
 20
137.0699814046
 11
146.9436965072
 21
137.2705538955
  0
LINE
  5
329
100
AcDbEntity
  8
0
100
AcDbLine
 62
7
  6
CONTINUOUS
 10
143.826198102
 20
136.2740087944
 11
144.2294582755
 21
136.6668458962
  0
LINE
  5
32A
100
AcDbEntity
  8
0
100
AcDbLine
 62
7
  6
CONTINUOUS
 10
147.2537291132
 20
134.0737793217
 11
147.2039246981
 21
134.0488847013
  0
LINE
  5
32B
100
AcDbEntity
  8
0
100
AcDbLine
 62
7
  6
CONTINUOUS
 10
161.0074560815
 20
91.7749248962
 11
159.8373870815
 21
91.4509008962
  0
LWPOLYLINE
  5
32C
100
AcDbEntity
  8
0
100
AcDbPolyline
 62
7
  6
CONTINUOUS
 90
7
 70
0
 10
128.7725634903
 20
86.9265015451
 10
128.7750923993
 20
86.9269565711
 10
128.7797399213
 20
86.9273997301
 10
128.7865060563
 20
86.9278310221
 10
128.795474247
 20
86.9282534819
 10
128.8065610507
 20
86.9286640748
 10
128.8195161392
 20
86.9290536961
  0
LINE
  5
32D
100
AcDbEntity
  8
0
100
AcDbLine
 62
7
  6
CONTINUOUS
 10
129.3397970815
 20
91.0668458962
 11
130.9397970815
 21
91.0668458962
  0
LINE
  5
32E
100
AcDbEntity
  8
0
100
AcDbLine
 62
7
  6
CONTINUOUS
 10
130.9397970815
 20
91.2763078962
 11
129.5982040815
 21
91.2763078962
  0
LWPOLYLINE
  5
32F
100
AcDbEntity
  8
0
100
AcDbPolyline
 62
7
  6
CONTINUOUS
 90
8
 70
0
 10
162.2679591553
 20
86.8718083574
 10
162.2703390617
 20
86.8713666096
 10
162.2747852023
 20
86.8709345295
 10
162.2812975768
 20
86.8705121173
 10
162.2899828529
 20
86.8700954658
 10
162.300734363
 20
86.8696884822
 10
162.3132321047
 20
86.8693028873
 10
162.3434431598
 20
86.8686003312
  0
LINE
  5
330
100
AcDbEntity
  8
0
100
AcDbLine
 62
7
  6
CONTINUOUS
 10
130.9397970815
 20
91.9404218962
 11
129.5960040815
 21
92.3905128962
  0
LINE
  5
331
100
AcDbEntity
  8
0
100
AcDbLine
 62
7
  6
CONTINUOUS
 10
130.9397970815
 20
93.0145328962
 11
130.4740950815
 21
93.1816878962
  0
LINE
  5
332
100
AcDbEntity
  8
0
100
AcDbLine
 62
7
  6
CONTINUOUS
 10
130.2824580815
 20
93.2485608962
 11
129.5718750815
 21
93.5071368962
  0
LINE
  5
333
100
AcDbEntity
  8
0
100
AcDbLine
 62
7
  6
CONTINUOUS
 10
129.3397970815
 20
93.3933568962
 11
130.9397970815
 21
92.7917098962
  0
LINE
  5
334
100
AcDbEntity
  8
0
100
AcDbLine
 62
7
  6
CONTINUOUS
 10
147.2537291132
 20
86.0599124706
 11
147.2039246981
 21
86.084807091
  0
LINE
  5
335
100
AcDbEntity
  8
0
100
AcDbLine
 62
7
  6
CONTINUOUS
 10
143.826198102
 20
83.8596829979
 11
144.2294582755
 21
83.4668458962
  0
LINE
  5
336
100
AcDbEntity
  8
0
100
AcDbLine
 62
7
  6
CONTINUOUS
 10
150.6661919563
 20
75.0584122162
 11
150.6512936497
 21
75.0733105228
  0
LINE
  5
337
100
AcDbEntity
  8
0
100
AcDbLine
 62
7
  6
CONTINUOUS
 10
146.0435050808
 20
82.8631378969
 11
145.8397970815
 21
83.0668458962
  0
LINE
  5
338
100
AcDbEntity
  8
0
100
AcDbLine
 62
253
  6
CONTINUOUS
 10
146.7431153419
 20
83.0637103877
 11
146.9436850335
 21
82.8631378969
  0
LWPOLYLINE
  5
339
100
AcDbEntity
  8
0
100
AcDbPolyline
 62
7
  6
CONTINUOUS
 90
3
 70
0
 10
146.3067811694
 20
82.5695782343
 10
146.3250667925
 20
82.551099156
 10
146.3433223289
 20
82.5329205342
  0
LWPOLYLINE
  5
33A
100
AcDbEntity
  8
0
100
AcDbPolyline
 62
7
  6
CONTINUOUS
 90
3
 70
0
 10
146.305159609
 20
82.1213032688
 10
146.3234430479
 20
82.1028244807
 10
146.341696446
 20
82.0846512467
  0
LINE
  5
33B
100
AcDbEntity
  8
0
100
AcDbLine
 62
7
  6
CONTINUOUS
 10
146.2515761459
 20
82.6260812968
 11
146.3067811694
 21
82.5695782343
  0
LINE
  5
33C
100
AcDbEntity
  8
0
100
AcDbLine
 62
7
  6
CONTINUOUS
 10
146.249961424
 20
82.1778380626
 11
146.305159609
 21
82.1213032688
  0
LWPOLYLINE
  5
33D
100
AcDbEntity
  8
0
100
AcDbPolyline
 62
7
  6
CONTINUOUS
 90
3
 70
0
 10
146.1975233823
 20
82.6824925669
 10
146.215319914
 20
82.6638489461
 10
146.2515761459
 20
82.6260812968
  0
LWPOLYLINE
  5
33E
100
AcDbEntity
  8
0
100
AcDbPolyline
 62
7
  6
CONTINUOUS
 90
3
 70
0
 10
146.1959158062
 20
82.2343334508
 10
146.2137099286
 20
82.2156557503
 10
146.249961424
 20
82.1778380626
  0
LWPOLYLINE
  5
33F
100
AcDbEntity
  8
0
100
AcDbPolyline
 62
7
  6
CONTINUOUS
 90
4
 70
0
 10
146.1297499018
 20
82.3058002369
 10
146.1453545317
 20
82.2885915778
 10
146.1617381077
 20
82.2709195353
 10
146.1959158062
 20
82.2343334508
  0
LINE
  5
340
100
AcDbEntity
  8
0
100
AcDbLine
 62
253
  6
CONTINUOUS
 10
129.0058335981
 20
86.9313370774
 11
129.0305814437
 21
86.5804829639
  0
LWPOLYLINE
  5
341
100
AcDbEntity
  8
0
100
AcDbPolyline
 62
7
  6
CONTINUOUS
 90
34
 70
0
 10
130.9397970815
 20
95.0793262657
 10
130.9391546619
 20
95.1135832912
 10
130.9367664819
 20
95.1479171246
 10
130.9326325415
 20
95.1823277661
 10
130.9267849549
 20
95.2170358458
 10
130.919191608
 20
95.2518207357
 10
130.9097561575
 20
95.2860205435
 10
130.8983908457
 20
95.3196835093
 10
130.8851834305
 20
95.3527613842
 10
130.8703008419
 20
95.384447532
 10
130.8536594596
 20
95.4144945599
 10
130.835342904
 20
95.4431498404
 10
130.815768967
 20
95.4703488809
 10
130.7950155488
 20
95.495935852
 10
130.7730047492
 20
95.5200665654
 10
130.7499206592
 20
95.5431439922
 10
130.7259531115
 20
95.5653843083
 10
130.7009122733
 20
95.586571328
 10
130.6744127382
 20
95.6064594816
 10
130.6463578395
 20
95.6249171398
 10
130.6168442439
 20
95.6420759207
 10
130.5857765434
 20
95.6580851258
 10
130.552998693
 20
95.6730038725
 10
130.5186667378
 20
95.6867730359
 10
130.4831534057
 20
95.6993645557
 10
130.4463303729
 20
95.7109455402
 10
130.4083259632
 20
95.7213488753
 10
130.3698978758
 20
95.7300451658
 10
130.3310079528
 20
95.7367552407
 10
130.2916943521
 20
95.7417582651
 10
130.2528292472
 20
95.7453623481
 10
130.2147033628
 20
95.7476701923
 10
130.1770259742
 20
95.7485790932
 10
130.1397970815
 20
95.7480890508
  0
LINE
  5
342
100
AcDbEntity
  8
0
100
AcDbLine
 62
253
  6
CONTINUOUS
 10
127.5336513947
 20
141.9841522432
 11
127.5117146443
 21
148.7949587943
  0
LINE
  5
343
100
AcDbEntity
  8
0
100
AcDbLine
 62
253
  6
CONTINUOUS
 10
127.733632079
 20
142.008733415
 11
127.7116841834
 21
148.8381746788
  0
LWPOLYLINE
  5
344
100
AcDbEntity
  8
0
100
AcDbPolyline
 62
253
  6
CONTINUOUS
 90
3
 70
0
 10
127.5483560817
 20
134.0754048963
 10
127.5464279593
 20
135.6086060225
 10
127.5336513947
 20
141.9841522432
  0
LWPOLYLINE
  5
345
100
AcDbEntity
  8
0
100
AcDbPolyline
 62
253
  6
CONTINUOUS
 90
3
 70
0
 10
127.748336653
 20
134.0788385841
 10
127.7464099763
 20
135.6151701821
 10
127.733632079
 20
142.008733415
  0
LINE
  5
346
100
AcDbEntity
  8
0
100
AcDbLine
 62
253
  6
CONTINUOUS
 10
127.559466718
 20
113.8219153281
 11
127.5493318032
 21
133.1573111745
  0
LINE
  5
347
100
AcDbEntity
  8
0
100
AcDbLine
 62
253
  6
CONTINUOUS
 10
127.7594362561
 20
113.8236763794
 11
127.7493156598
 21
133.1538722614
  0
LINE
  5
348
100
AcDbEntity
  8
0
100
AcDbLine
 62
7
  6
CONTINUOUS
 10
127.4397970815
 20
148.8668763571
 11
127.4397970815
 21
133.9668458962
  0
LINE
  5
349
100
AcDbEntity
  8
0
100
AcDbLine
 62
7
  6
CONTINUOUS
 10
127.4397970815
 20
133.2668458962
 11
127.4397970815
 21
86.8668458962
  0
LINE
  5
34A
100
AcDbEntity
  8
0
100
AcDbLine
 62
7
  6
CONTINUOUS
 10
127.4397970815
 20
86.1668458962
 11
127.4397970815
 21
71.2668154352
  0
LINE
  5
34B
100
AcDbEntity
  8
0
100
AcDbLine
 62
253
  6
CONTINUOUS
 10
127.7116841834
 20
148.8381746788
 11
127.7116841832
 21
148.9949283334
  0
LINE
  5
34C
100
AcDbEntity
  8
0
100
AcDbLine
 62
7
  6
CONTINUOUS
 10
128.5820260815
 20
127.5144358962
 11
128.5820260815
 21
126.6234108962
  0
LINE
  5
34D
100
AcDbEntity
  8
0
100
AcDbLine
 62
7
  6
CONTINUOUS
 10
128.9052210815
 20
126.6234108962
 11
128.9052210815
 21
126.8977678962
  0
LINE
  5
34E
100
AcDbEntity
  8
0
100
AcDbLine
 62
7
  6
CONTINUOUS
 10
128.9052210815
 20
127.2401888962
 11
128.9052210815
 21
127.5144358962
  0
LINE
  5
34F
100
AcDbEntity
  8
0
100
AcDbLine
 62
7
  6
CONTINUOUS
 10
129.3397970815
 20
106.9715658962
 11
129.3397970815
 21
106.7174298962
  0
LINE
  5
350
100
AcDbEntity
  8
0
100
AcDbLine
 62
7
  6
CONTINUOUS
 10
129.3397970815
 20
105.7993538962
 11
129.3397970815
 21
105.5475468962
  0
LINE
  5
351
100
AcDbEntity
  8
0
100
AcDbLine
 62
7
  6
CONTINUOUS
 10
129.3397970815
 20
104.6628558962
 11
129.3397970815
 21
104.4466328962
  0
LINE
  5
352
100
AcDbEntity
  8
0
100
AcDbLine
 62
7
  6
CONTINUOUS
 10
129.3397970815
 20
103.6689148962
 11
129.3397970815
 21
103.4238238962
  0
LINE
  5
353
100
AcDbEntity
  8
0
100
AcDbLine
 62
7
  6
CONTINUOUS
 10
129.3397970815
 20
102.7597038962
 11
129.3397970815
 21
101.4605138962
  0
LINE
  5
354
100
AcDbEntity
  8
0
100
AcDbLine
 62
7
  6
CONTINUOUS
 10
129.3397970815
 20
101.2287498962
 11
129.3397970815
 21
101.0125398962
  0
LINE
  5
355
100
AcDbEntity
  8
0
100
AcDbLine
 62
7
  6
CONTINUOUS
 10
129.3397970815
 20
100.0209148962
 11
129.3397970815
 21
99.8114598962
  0
LINE
  5
356
100
AcDbEntity
  8
0
100
AcDbLine
 62
7
  6
CONTINUOUS
 10
129.3397970815
 20
99.0069308962
 11
129.3397970815
 21
98.7506068962
  0
LINE
  5
357
100
AcDbEntity
  8
0
100
AcDbLine
 62
7
  6
CONTINUOUS
 10
129.3397970815
 20
98.3807368962
 11
129.3397970815
 21
98.1645918962
  0
LINE
  5
358
100
AcDbEntity
  8
0
100
AcDbLine
 62
7
  6
CONTINUOUS
 10
129.3397970815
 20
97.2129898962
 11
129.3397970815
 21
96.0474678962
  0
LINE
  5
359
100
AcDbEntity
  8
0
100
AcDbLine
 62
7
  6
CONTINUOUS
 10
129.3397970815
 20
95.0826505295
 11
129.3397970815
 21
94.4273458962
  0
LINE
  5
35A
100
AcDbEntity
  8
0
100
AcDbLine
 62
7
  6
CONTINUOUS
 10
129.3397970815
 20
93.6385258962
 11
129.3397970815
 21
93.3933568962
  0
LINE
  5
35B
100
AcDbEntity
  8
0
100
AcDbLine
 62
7
  6
CONTINUOUS
 10
129.3397970815
 20
92.6000598962
 11
129.3397970815
 21
92.2924948962
  0
LINE
  5
35C
100
AcDbEntity
  8
0
100
AcDbLine
 62
7
  6
CONTINUOUS
 10
129.3397970815
 20
91.3766088962
 11
129.3397970815
 21
91.0668458962
  0
LINE
  5
35D
100
AcDbEntity
  8
0
100
AcDbLine
 62
7
  6
CONTINUOUS
 10
129.5247060815
 20
94.6435698962
 11
129.5247060815
 21
95.0703461718
  0
LINE
  5
35E
100
AcDbEntity
  8
0
100
AcDbLine
 62
7
  6
CONTINUOUS
 10
129.5314350815
 20
96.2636778962
 11
129.5314350815
 21
97.2129898962
  0
LINE
  5
35F
100
AcDbEntity
  8
0
100
AcDbLine
 62
7
  6
CONTINUOUS
 10
129.5314350815
 20
101.4605138962
 11
129.5314350815
 21
102.0020428962
  0
LINE
  5
360
100
AcDbEntity
  8
0
100
AcDbLine
 62
7
  6
CONTINUOUS
 10
129.5314350815
 20
102.2181748962
 11
129.5314350815
 21
102.7597038962
  0
LINE
  5
361
100
AcDbEntity
  8
0
100
AcDbLine
 62
7
  6
CONTINUOUS
 10
130.0217220815
 20
97.1394528962
 11
130.0217220815
 21
96.2636778962
  0
LINE
  5
362
100
AcDbEntity
  8
0
100
AcDbLine
 62
7
  6
CONTINUOUS
 10
130.2133590815
 20
96.2636778962
 11
130.2133590815
 21
97.1394528962
  0
LINE
  5
363
100
AcDbEntity
  8
0
100
AcDbLine
 62
7
  6
CONTINUOUS
 10
130.2824580815
 20
103.7758878962
 11
130.2824580815
 21
103.2789368962
  0
LINE
  5
364
100
AcDbEntity
  8
0
100
AcDbLine
 62
7
  6
CONTINUOUS
 10
130.2824580815
 20
93.7455118962
 11
130.2824580815
 21
93.2485608962
  0
LINE
  5
365
100
AcDbEntity
  8
0
100
AcDbLine
 62
7
  6
CONTINUOUS
 10
130.4740950815
 20
93.1816878962
 11
130.4740950815
 21
93.8234478962
  0
LINE
  5
366
100
AcDbEntity
  8
0
100
AcDbLine
 62
7
  6
CONTINUOUS
 10
130.4740950815
 20
103.2120768962
 11
130.4740950815
 21
103.8539018962
  0
LINE
  5
367
100
AcDbEntity
  8
0
100
AcDbLine
 62
7
  6
CONTINUOUS
 10
130.7481590815
 20
105.4740488962
 11
130.7481590815
 21
104.6628558962
  0
LINE
  5
368
100
AcDbEntity
  8
0
100
AcDbLine
 62
7
  6
CONTINUOUS
 10
130.7481590815
 20
97.2286078962
 11
130.7481590815
 21
96.2636778962
  0
LINE
  5
369
100
AcDbEntity
  8
0
100
AcDbLine
 62
7
  6
CONTINUOUS
 10
130.7548880815
 20
95.0703461718
 11
130.7548880815
 21
94.6435698962
  0
LINE
  5
36A
100
AcDbEntity
  8
0
100
AcDbLine
 62
7
  6
CONTINUOUS
 10
130.9397970815
 20
91.0668458962
 11
130.9397970815
 21
91.2763078962
  0
LINE
  5
36B
100
AcDbEntity
  8
0
100
AcDbLine
 62
7
  6
CONTINUOUS
 10
130.9397970815
 20
91.7264858962
 11
130.9397970815
 21
91.9404218962
  0
LINE
  5
36C
100
AcDbEntity
  8
0
100
AcDbLine
 62
7
  6
CONTINUOUS
 10
130.9397970815
 20
92.3905128962
 11
130.9397970815
 21
92.6000598962
  0
LINE
  5
36D
100
AcDbEntity
  8
0
100
AcDbLine
 62
7
  6
CONTINUOUS
 10
130.9397970815
 20
92.7917098962
 11
130.9397970815
 21
93.0145328962
  0
LINE
  5
36E
100
AcDbEntity
  8
0
100
AcDbLine
 62
7
  6
CONTINUOUS
 10
130.9397970815
 20
93.9816498962
 11
130.9397970815
 21
94.2178908962
  0
LINE
  5
36F
100
AcDbEntity
  8
0
100
AcDbLine
 62
7
  6
CONTINUOUS
 10
130.9397970815
 20
94.4273458962
 11
130.9397970815
 21
95.0793262657
  0
LINE
  5
370
100
AcDbEntity
  8
0
100
AcDbLine
 62
7
  6
CONTINUOUS
 10
130.9397970815
 20
96.0474678962
 11
130.9397970815
 21
97.2286078962
  0
LINE
  5
371
100
AcDbEntity
  8
0
100
AcDbLine
 62
7
  6
CONTINUOUS
 10
130.9397970815
 20
98.1645918962
 11
130.9397970815
 21
98.3807368962
  0
LINE
  5
372
100
AcDbEntity
  8
0
100
AcDbLine
 62
7
  6
CONTINUOUS
 10
130.9397970815
 20
98.7506068962
 11
130.9397970815
 21
98.9601658962
  0
LINE
  5
373
100
AcDbEntity
  8
0
100
AcDbLine
 62
7
  6
CONTINUOUS
 10
130.9397970815
 20
99.7780228962
 11
130.9397970815
 21
100.0209148962
  0
LINE
  5
374
100
AcDbEntity
  8
0
100
AcDbLine
 62
7
  6
CONTINUOUS
 10
130.9397970815
 20
101.0125398962
 11
130.9397970815
 21
101.2287498962
  0
LINE
  5
375
100
AcDbEntity
  8
0
100
AcDbLine
 62
7
  6
CONTINUOUS
 10
130.9397970815
 20
102.0020428962
 11
130.9397970815
 21
102.2181748962
  0
LINE
  5
376
100
AcDbEntity
  8
0
100
AcDbLine
 62
7
  6
CONTINUOUS
 10
130.9397970815
 20
102.8220988962
 11
130.9397970815
 21
103.0449088962
  0
LINE
  5
377
100
AcDbEntity
  8
0
100
AcDbLine
 62
7
  6
CONTINUOUS
 10
130.9397970815
 20
104.0121158962
 11
130.9397970815
 21
104.2483958962
  0
LINE
  5
378
100
AcDbEntity
  8
0
100
AcDbLine
 62
7
  6
CONTINUOUS
 10
130.9397970815
 20
104.4466328962
 11
130.9397970815
 21
105.4740488962
  0
LINE
  5
379
100
AcDbEntity
  8
0
100
AcDbLine
 62
7
  6
CONTINUOUS
 10
130.9397970815
 20
106.1514448962
 11
130.9397970815
 21
106.3675388962
  0
LINE
  5
37A
100
AcDbEntity
  8
0
100
AcDbLine
 62
253
  6
CONTINUOUS
 10
127.5572707982
 20
98.8026385376
 11
127.559466718
 21
113.8219153281
  0
LINE
  5
37B
100
AcDbEntity
  8
0
100
AcDbLine
 62
253
  6
CONTINUOUS
 10
127.7572403421
 20
98.7976243509
 11
127.7594362561
 21
113.8236763794
  0
LINE
  5
37C
100
AcDbEntity
  8
0
100
AcDbLine
 62
253
  6
CONTINUOUS
 10
127.5493318032
 20
86.9763806178
 11
127.5572707982
 21
98.8026385376
  0
LINE
  5
37D
100
AcDbEntity
  8
0
100
AcDbLine
 62
253
  6
CONTINUOUS
 10
127.7493156598
 20
86.9798195261
 11
127.7572403421
 21
98.7976243509
  0
LINE
  5
37E
100
AcDbEntity
  8
0
100
AcDbLine
 62
253
  6
CONTINUOUS
 10
127.5371030889
 20
79.5526742489
 11
127.5483560817
 21
86.058286896
  0
LINE
  5
37F
100
AcDbEntity
  8
0
100
AcDbLine
 62
253
  6
CONTINUOUS
 10
127.7370844935
 20
79.5314037186
 11
127.748336653
 21
86.0548532068
  0
LWPOLYLINE
  5
380
100
AcDbEntity
  8
0
100
AcDbPolyline
 62
253
  6
CONTINUOUS
 90
3
 70
0
 10
127.5117146443
 20
71.338732998
 10
127.5179527828
 20
73.0370169355
 10
127.5371030889
 20
79.5526742489
  0
LWPOLYLINE
  5
381
100
AcDbEntity
  8
0
100
AcDbPolyline
 62
253
  6
CONTINUOUS
 90
3
 70
0
 10
127.7116841834
 20
71.1387634589
 10
127.7179258973
 20
72.9970366568
 10
127.7370844935
 20
79.5314037186
  0
LWPOLYLINE
  5
382
100
AcDbEntity
  8
0
100
AcDbPolyline
 62
7
  6
CONTINUOUS
 90
34
 70
0
 10
129.5247060815
 20
95.0703461718
 10
129.5258071635
 20
95.093630923
 10
129.5281015234
 20
95.1168390395
 10
129.5315891612
 20
95.1399705208
 10
129.5362687094
 20
95.1631399375
 10
129.5421415356
 20
95.1862327185
 10
129.5492117422
 20
95.2089051496
 10
129.5575296821
 20
95.2311656361
 10
129.5670450024
 20
95.2530057684
 10
129.5776107471
 20
95.2740566072
 10
129.5892072466
 20
95.2942078423
 10
129.6018541705
 20
95.3135697762
 10
129.6154635721
 20
95.3321043876
 10
129.6299544505
 20
95.3497666445
 10
129.6454078065
 20
95.366601572
 10
129.6619786971
 20
95.3827062341
 10
129.6796619983
 20
95.3981273653
 10
129.698462834
 20
95.4128182262
 10
129.718551632
 20
95.4267356703
 10
129.7399377276
 20
95.4399284536
 10
129.7626117854
 20
95.4523478157
 10
129.786716227
 20
95.4638043347
 10
129.812419266
 20
95.4742249338
 10
129.8395526887
 20
95.4836826852
 10
129.8677542768
 20
95.4922073905
 10
129.8971757313
 20
95.4998166965
 10
129.9276653511
 20
95.5064929532
 10
129.958405814
 20
95.5122130171
 10
129.9893722559
 20
95.5169961427
 10
130.0205895408
 20
95.5208230734
 10
130.0513149388
 20
95.5236128998
 10
130.0813008733
 20
95.5253386515
 10
130.1107949209
 20
95.5260272978
 10
130.1397970815
 20
95.5256788386
  0
LINE
  5
383
100
AcDbEntity
  8
0
100
AcDbLine
 62
253
  6
CONTINUOUS
 10
129.0058335981
 20
133.2023547149
 11
129.030609008
 21
133.5535822372
  0
LINE
  5
384
100
AcDbEntity
  8
0
100
AcDbLine
 62
7
  6
CONTINUOUS
 10
139.4348346203
 20
148.0022208749
 11
139.381969329
 21
147.8434960275
  0
LWPOLYLINE
  5
385
100
AcDbEntity
  8
0
100
AcDbPolyline
 62
253
  6
CONTINUOUS
 90
4
 70
0
 10
153.3020477945
 20
148.8922223172
 10
153.2904452766
 20
148.8753177264
 10
153.2788345982
 20
148.8572490427
 10
153.2677097904
 20
148.8381746788
  0
LWPOLYLINE
  5
386
100
AcDbEntity
  8
0
100
AcDbPolyline
 62
7
  6
CONTINUOUS
 90
3
 70
0
 10
146.1007912672
 20
137.7955165625
 10
146.1297499018
 20
137.8278915554
 10
146.1453545317
 20
137.8451002145
  0
LWPOLYLINE
  5
387
100
AcDbEntity
  8
0
100
AcDbPolyline
 62
7
  6
CONTINUOUS
 90
3
 70
0
 10
146.1023838132
 20
137.3476988127
 10
146.1313475626
 20
137.3799328804
 10
146.1469547054
 20
137.3970814532
  0
LINE
  5
388
100
AcDbEntity
  8
0
100
AcDbLine
 62
253
  6
CONTINUOUS
 10
147.0533960611
 20
136.7806276276
 11
147.2455658194
 21
136.97279417
  0
LINE
  5
389
100
AcDbEntity
  8
0
100
AcDbLine
 62
7
  6
CONTINUOUS
 10
144.5897970815
 20
134.0488847013
 11
144.6197509281
 21
134.0788385479
  0
LINE
  5
38A
100
AcDbEntity
  8
0
100
AcDbLine
 62
253
  6
CONTINUOUS
 10
163.1679099797
 20
148.9949283334
 11
163.2398275425
 21
149.0668458962
  0
LINE
  5
38B
100
AcDbEntity
  8
0
100
AcDbLine
 62
253
  6
CONTINUOUS
 10
163.3678795188
 20
148.7949587943
 11
163.4397970815
 21
148.8668763571
  0
LINE
  5
38C
100
AcDbEntity
  8
RACCORDO
100
AcDbLine
 62
253
  6
CONTINUOUS
 10
164.9397970804
 20
150.0675311269
 11
164.2169947131
 21
149.4143997728
  0
LWPOLYLINE
  5
38D
100
AcDbEntity
  8
RACCORDO
100
AcDbPolyline
 62
253
  6
CONTINUOUS
 90
3
 70
0
 10
164.2169947131
 20
149.4143997728
 10
164.1271056639
 20
149.3336735206
 10
163.9397970615
 20
149.1639212541
  0
LINE
  5
38E
100
AcDbEntity
  8
0
100
AcDbLine
 62
7
  6
CONTINUOUS
 10
162.2679591553
 20
133.2618834349
 11
162.1070306728
 21
133.2071902472
  0
LINE
  5
38F
100
AcDbEntity
  8
0
100
AcDbLine
 62
7
  6
CONTINUOUS
 10
161.1978970815
 20
95.8527318962
 11
161.5372500815
 21
95.9446508962
  0
LINE
  5
390
100
AcDbEntity
  8
0
100
AcDbLine
 62
7
  6
CONTINUOUS
 10
161.2332805401
 20
97.5812417464
 11
161.0771697258
 21
97.5395926918
  0
LWPOLYLINE
  5
391
100
AcDbEntity
  8
0
100
AcDbPolyline
 62
7
  6
CONTINUOUS
 90
28
 70
0
 10
161.0771697258
 20
97.5395926918
 10
161.0591891566
 20
97.5348537085
 10
161.0417612589
 20
97.5300979788
 10
161.0248860327
 20
97.5253255029
 10
161.0085923827
 20
97.5205826385
 10
160.9928514042
 20
97.5158230278
 10
160.9775763835
 20
97.5109075976
 10
160.9627730887
 20
97.5058081997
 10
160.9484357518
 20
97.5005529826
 10
160.9344603545
 20
97.4950873188
 10
160.9208371495
 20
97.4894167971
 10
160.9075758841
 20
97.483535829
 10
160.8946017827
 20
97.4773730205
 10
160.8819029459
 20
97.4709420077
 10
160.869491273
 20
97.4642291551
 10
160.8573276865
 20
97.4571221618
 10
160.8453579863
 20
97.4496064381
 10
160.8336363725
 20
97.4416965749
 10
160.8222863674
 20
97.4333240426
 10
160.8112965738
 20
97.4244932586
 10
160.800678389
 20
97.415199807
 10
160.790589527
 20
97.4053619088
 10
160.7809980401
 20
97.3949401578
 10
160.771935876
 20
97.3839739625
 10
160.7636565921
 20
97.3724997664
 10
160.7562447074
 20
97.3605297182
 10
160.7496157029
 20
97.3480516715
 10
160.7437695785
 20
97.3350656276
  0
LINE
  5
392
100
AcDbEntity
  8
0
100
AcDbLine
 62
7
  6
CONTINUOUS
 10
161.5372504568
 20
97.6608940033
 11
161.2332805401
 21
97.5812417464
  0
LINE
  5
393
100
AcDbEntity
  8
0
100
AcDbLine
 62
7
  6
CONTINUOUS
 10
160.3044660815
 20
95.6187718962
 11
160.9353070815
 21
95.7818198962
  0
LINE
  5
394
100
AcDbEntity
  8
0
100
AcDbLine
 62
7
  6
CONTINUOUS
 10
161.5372500815
 20
94.8649088962
 11
159.8373870815
 21
94.7059528962
  0
LINE
  5
395
100
AcDbEntity
  8
0
100
AcDbLine
 62
7
  6
CONTINUOUS
 10
160.4318990815
 20
94.4448918962
 11
161.5372500815
 21
94.5177928962
  0
LINE
  5
396
100
AcDbEntity
  8
0
100
AcDbLine
 62
7
  6
CONTINUOUS
 10
129.5960040815
 20
92.3905128962
 11
130.9397970815
 21
92.3905128962
  0
LINE
  5
397
100
AcDbEntity
  8
0
100
AcDbLine
 62
7
  6
CONTINUOUS
 10
159.8372850815
 20
92.5951108962
 11
161.5372500815
 21
92.5951108962
  0
LINE
  5
398
100
AcDbEntity
  8
0
100
AcDbLine
 62
7
  6
CONTINUOUS
 10
130.9397970815
 20
92.6000598962
 11
129.3397970815
 21
92.6000598962
  0
LINE
  5
399
100
AcDbEntity
  8
0
100
AcDbLine
 62
7
  6
CONTINUOUS
 10
161.5372500815
 20
92.9499388962
 11
159.8372850815
 21
92.9499388962
  0
LINE
  5
39A
100
AcDbEntity
  8
0
100
AcDbLine
 62
7
  6
CONTINUOUS
 10
129.3397970815
 20
94.4273458962
 11
130.9397970815
 21
94.4273458962
  0
LINE
  5
39B
100
AcDbEntity
  8
0
100
AcDbLine
 62
7
  6
CONTINUOUS
 10
130.7548880815
 20
94.6435698962
 11
129.5247060815
 21
94.6435698962
  0
LWPOLYLINE
  5
39C
100
AcDbEntity
  8
0
100
AcDbPolyline
 62
7
  6
CONTINUOUS
 90
34
 70
0
 10
130.1397970815
 20
95.7480890508
 10
130.1025116921
 20
95.7485820217
 10
130.0647679061
 20
95.747668424
 10
130.0265657236
 20
95.7453482579
 10
129.9876093122
 20
95.7417242152
 10
129.9481945042
 20
95.7366936059
 10
129.9092087963
 20
95.7299483582
 10
129.8706911626
 20
95.7212061888
 10
129.832602629
 20
95.7107493871
 10
129.7957137698
 20
95.6991167396
 10
129.7601548237
 20
95.6864770525
 10
129.725795552
 20
95.6726615254
 10
129.6930158134
 20
95.6577025343
 10
129.6619770065
 20
95.6416549741
 10
129.6325177327
 20
95.6244639574
 10
129.6045336544
 20
95.605997188
 10
129.5781211732
 20
95.5861272502
 10
129.5531838875
 20
95.5649815708
 10
129.5293282561
 20
95.5428101169
 10
129.5063664282
 20
95.5198291516
 10
129.4844862545
 20
95.4958224213
 10
129.463857746
 20
95.4703911199
 10
129.4444037507
 20
95.4433830167
 10
129.4262014204
 20
95.4149503595
 10
129.4096522214
 20
95.3851510615
 10
129.3948362162
 20
95.3537424513
 10
129.3816733423
 20
95.3209672201
 10
129.3703248774
 20
95.2876113203
 10
129.3608765125
 20
95.2537220471
 10
129.3532425567
 20
95.2192521139
 10
129.3473272152
 20
95.18484559
 10
129.3430985563
 20
95.1507171624
 10
129.3405885118
 20
95.1166521423
 10
129.3397970815
 20
95.0826505295
  0
LINE
  5
39D
100
AcDbEntity
  8
0
100
AcDbLine
 62
7
  6
CONTINUOUS
 10
161.5372500815
 20
93.4804088962
 11
160.4272720815
 21
93.5569808962
  0
LINE
  5
39E
100
AcDbEntity
  8
0
100
AcDbLine
 62
7
  6
CONTINUOUS
 10
159.8373870815
 20
93.2944418962
 11
161.5372500815
 21
93.1409538962
  0
LWPOLYLINE
  5
39F
100
AcDbEntity
  8
0
100
AcDbPolyline
 62
7
  6
CONTINUOUS
 90
8
 70
0
 10
163.3302623599
 20
86.9763806178
 10
163.3288055864
 20
86.9767455013
 10
163.3252777176
 20
86.977100095
 10
163.3196787535
 20
86.9774443989
 10
163.3118552924
 20
86.9777831939
 10
163.301960736
 20
86.9781116991
 10
163.2904552896
 20
86.9784155717
 10
163.2627373541
 20
86.9789426931
  0
LINE
  5
3A0
100
AcDbEntity
  8
0
100
AcDbLine
 62
7
  6
CONTINUOUS
 10
162.1070306728
 20
86.9265015451
 11
162.2679591553
 21
86.8718083574
  0
LWPOLYLINE
  5
3A1
100
AcDbEntity
  8
RACCORDO
100
AcDbPolyline
 62
253
  6
CONTINUOUS
 90
3
 70
0
 10
164.8648604958
 20
70.1337959585
 10
164.9285441721
 20
70.0765356319
 10
164.9397970816
 20
70.0661606634
  0
LINE
  5
3A2
100
AcDbEntity
  8
RACCORDO
100
AcDbLine
 62
253
  6
CONTINUOUS
 10
163.9397971042
 20
70.9697705023
 11
164.8648604958
 21
70.1337959585
  0
LINE
  5
3A3
100
AcDbEntity
  8
0
100
AcDbLine
 62
253
  6
CONTINUOUS
 10
147.0533960611
 20
83.3530641647
 11
147.245565777
 21
83.16088422
  0
LINE
  5
3A4
100
AcDbEntity
  8
0
100
AcDbLine
 62
7
  6
CONTINUOUS
 10
144.5897970815
 20
86.084807091
 11
144.6197509281
 21
86.0548532444
  0
LINE
  5
3A5
100
AcDbEntity
  8
0
100
AcDbLine
 62
253
  6
CONTINUOUS
 10
163.1679099797
 20
71.1387634589
 11
163.2398275425
 21
71.0668458962
  0
LINE
  5
3A6
100
AcDbEntity
  8
0
100
AcDbLine
 62
253
  6
CONTINUOUS
 10
163.3678795188
 20
71.338732998
 11
163.4397970815
 21
71.2668154352
  0
LWPOLYLINE
  5
3A7
100
AcDbEntity
  8
0
100
AcDbPolyline
 62
7
  6
CONTINUOUS
 90
4
 70
0
 10
146.1313475634
 20
82.753758911
 10
146.1469547062
 20
82.7366103382
 10
146.1633407784
 20
82.7189915145
 10
146.1975233823
 20
82.6824925669
  0
LWPOLYLINE
  5
3A8
100
AcDbEntity
  8
0
100
AcDbPolyline
 62
253
  6
CONTINUOUS
 90
5
 70
0
 10
153.3229209507
 20
71.2113990255
 10
153.3020477957
 20
71.2414694749
 10
153.2904452779
 20
71.258374066
 10
153.2788345994
 20
71.2764427499
 10
153.2677097915
 20
71.2955171141
  0
LINE
  5
3A9
100
AcDbEntity
  8
0
100
AcDbLine
 62
7
  6
CONTINUOUS
 10
144.4129458815
 20
75.2073730962
 11
145.1017002815
 21
73.8947906962
  0
LINE
  5
3AA
100
AcDbEntity
  8
0
100
AcDbLine
 62
7
  6
CONTINUOUS
 10
145.4476058815
 20
73.8947906962
 11
144.9049754815
 21
74.9288802962
  0
LINE
  5
3AB
100
AcDbEntity
  8
0
100
AcDbLine
 62
7
  6
CONTINUOUS
 10
139.4348346203
 20
72.1314709174
 11
139.381969329
 21
72.2901957648
  0
LINE
  5
3AC
100
AcDbEntity
  8
0
100
AcDbLine
 62
7
  6
CONTINUOUS
 10
131.1888030815
 20
127.5249328962
 11
131.1888030815
 21
127.2401888962
  0
LINE
  5
3AD
100
AcDbEntity
  8
0
100
AcDbLine
 62
7
  6
CONTINUOUS
 10
131.1888030815
 20
126.8977678962
 11
131.1888030815
 21
126.6129138962
  0
LINE
  5
3AE
100
AcDbEntity
  8
0
100
AcDbLine
 62
7
  6
CONTINUOUS
 10
131.5102300815
 20
126.6129138962
 11
131.5102300815
 21
127.5249328962
  0
LINE
  5
3AF
100
AcDbEntity
  8
0
100
AcDbLine
 62
7
  6
CONTINUOUS
 10
132.7955660119
 20
86.9431157709
 11
132.7955660119
 21
133.1905760214
  0
LINE
  5
3B0
100
AcDbEntity
  8
RACCORDO
100
AcDbLine
 62
7
  6
CONTINUOUS
 10
134.1897970815
 20
88.3668458962
 11
134.1897970815
 21
131.7668458962
  0
LWPOLYLINE
  5
3B1
100
AcDbEntity
  8
0
100
AcDbPolyline
 62
7
  6
CONTINUOUS
 90
8
 70
0
 10
146.0429681649
 20
137.7201730432
 10
146.0457588115
 20
137.725437105
 10
146.0504295218
 20
137.7330190962
 10
146.0569802959
 20
137.7426155554
 10
146.0656339624
 20
137.7538936494
 10
146.0761676927
 20
137.7665843628
 10
146.0879130004
 20
137.780534622
 10
146.1007912672
 20
137.7955165625
  0
LWPOLYLINE
  5
3B2
100
AcDbEntity
  8
0
100
AcDbPolyline
 62
7
  6
CONTINUOUS
 90
8
 70
0
 10
146.044546455
 20
137.2730890499
 10
146.0473383439
 20
137.2782255169
 10
146.0520105824
 20
137.2856868546
 10
146.0585631706
 20
137.2951702085
 10
146.067219015
 20
137.3063434056
 10
146.0777552091
 20
137.3189373701
 10
146.0895030329
 20
137.332798428
 10
146.1023838132
 20
137.3476988127
  0
LINE
  5
3B3
100
AcDbEntity
  8
RACCORDO
100
AcDbLine
 62
253
  6
CONTINUOUS
 10
164.4404823114
 20
150.5668458945
 11
163.6231319346
 21
149.6616234309
  0
LINE
  5
3B4
100
AcDbEntity
  8
RACCORDO
100
AcDbLine
 62
253
  6
CONTINUOUS
 10
163.6231319346
 20
149.6616234309
 11
163.5368725192
 21
149.5668459707
  0
LINE
  5
3B5
100
AcDbEntity
  8
0
100
AcDbLine
 62
7
  6
CONTINUOUS
 10
160.8270311018
 20
129.33351269
 11
160.6568183561
 21
129.2668458962
  0
LINE
  5
3B6
100
AcDbEntity
  8
0
100
AcDbLine
 62
7
  6
CONTINUOUS
 10
160.9972438951
 20
128.1668458962
 11
161.1674566646
 21
128.23351269
  0
LINE
  5
3B7
100
AcDbEntity
  8
0
100
AcDbLine
 62
7
  6
CONTINUOUS
 10
160.8270311018
 20
127.8668458962
 11
160.6568183561
 21
127.8001791023
  0
LINE
  5
3B8
100
AcDbEntity
  8
0
100
AcDbLine
 62
7
  6
CONTINUOUS
 10
160.214265122
 20
129.2668458962
 11
160.1121374746
 21
129.23351269
  0
LINE
  5
3B9
100
AcDbEntity
  8
0
100
AcDbLine
 62
7
  6
CONTINUOUS
 10
160.7589460035
 20
129.13351269
 11
160.8610736986
 21
129.1668458962
  0
LINE
  5
3BA
100
AcDbEntity
  8
0
100
AcDbLine
 62
7
  6
CONTINUOUS
 10
161.0653289934
 20
128.3668458962
 11
160.963201346
 21
128.33351269
  0
LINE
  5
3BB
100
AcDbEntity
  8
0
100
AcDbLine
 62
7
  6
CONTINUOUS
 10
160.214265122
 20
127.8001791023
 11
160.1121374746
 21
127.7668458962
  0
LINE
  5
3BC
100
AcDbEntity
  8
0
100
AcDbLine
 62
7
  6
CONTINUOUS
 10
160.7589460035
 20
127.6668458962
 11
160.8610736986
 21
127.7001791023
  0
LINE
  5
3BD
100
AcDbEntity
  8
0
100
AcDbLine
 62
7
  6
CONTINUOUS
 10
161.0653289934
 20
126.9001791023
 11
160.963201346
 21
126.8668458962
  0
LINE
  5
3BE
100
AcDbEntity
  8
0
100
AcDbLine
 62
7
  6
CONTINUOUS
 10
160.214265122
 20
126.33351269
 11
160.1121374746
 21
126.3001791023
  0
LWPOLYLINE
  5
3BF
100
AcDbEntity
  8
0
100
AcDbPolyline
 62
7
  6
CONTINUOUS
 90
34
 70
0
 10
130.1397970815
 20
95.5256788386
 10
130.1688066016
 20
95.5260273028
 10
130.1983083149
 20
95.5253380998
 10
130.2283022213
 20
95.5236112298
 10
130.2590361618
 20
95.5208196909
 10
130.2902622956
 20
95.5169904861
 10
130.3212370998
 20
95.512204623
 10
130.3519854654
 20
95.5064814193
 10
130.3824825015
 20
95.4998015595
 10
130.4119100123
 20
95.4921881018
 10
130.4401159498
 20
95.4836584861
 10
130.4672523619
 20
95.4741952759
 10
130.4929571973
 20
95.4637692148
 10
130.5170622404
 20
95.4523072184
 10
130.5397357068
 20
95.4398823759
 10
130.561120191
 20
95.4266846912
 10
130.5812063027
 20
95.4127630161
 10
130.6000034323
 20
95.3980685033
 10
130.6176823448
 20
95.3826446076
 10
130.6342481284
 20
95.3665381082
 10
130.6496956949
 20
95.349702231
 10
130.6641805453
 20
95.3320401018
 10
130.6777836756
 20
95.3135067552
 10
130.6904240898
 20
95.2941471634
 10
130.7020143001
 20
95.2739993593
 10
130.7125739571
 20
95.2529532448
 10
130.7220834103
 20
95.2311189255
 10
130.7303962205
 20
95.2088647381
 10
130.73746219
 20
95.1861991276
 10
130.7433315166
 20
95.1631136531
 10
130.7480083537
 20
95.1399513198
 10
130.7514940858
 20
95.116826462
 10
130.7537873284
 20
95.0936247459
 10
130.7548880815
 20
95.0703461718
  0
LINE
  5
3C0
100
AcDbEntity
  8
0
100
AcDbLine
 62
7
  6
CONTINUOUS
 10
129.3397970815
 20
96.0474678962
 11
130.9397970815
 21
96.0474678962
  0
LINE
  5
3C1
100
AcDbEntity
  8
0
100
AcDbLine
 62
7
  6
CONTINUOUS
 10
130.7481590815
 20
96.2636778962
 11
130.2133590815
 21
96.2636778962
  0
LINE
  5
3C2
100
AcDbEntity
  8
0
100
AcDbLine
 62
7
  6
CONTINUOUS
 10
130.0217220815
 20
96.2636778962
 11
129.5314350815
 21
96.2636778962
  0
LINE
  5
3C3
100
AcDbEntity
  8
0
100
AcDbLine
 62
7
  6
CONTINUOUS
 10
159.8572476879
 20
96.4228201088
 11
161.5372504568
 21
96.4228201088
  0
LINE
  5
3C4
100
AcDbEntity
  8
0
100
AcDbLine
 62
7
  6
CONTINUOUS
 10
160.5936216016
 20
96.7644548765
 11
160.1269761191
 21
96.7644548765
  0
LINE
  5
3C5
100
AcDbEntity
  8
0
100
AcDbLine
 62
7
  6
CONTINUOUS
 10
161.5372504568
 20
96.7762204408
 11
160.8720180542
 21
96.7762204408
  0
LINE
  5
3C6
100
AcDbEntity
  8
0
100
AcDbLine
 62
7
  6
CONTINUOUS
 10
130.2133590815
 20
97.1394528962
 11
130.0217220815
 21
97.1394528962
  0
LINE
  5
3C7
100
AcDbEntity
  8
0
100
AcDbLine
 62
7
  6
CONTINUOUS
 10
129.5314350815
 20
97.2129898962
 11
129.3397970815
 21
97.2129898962
  0
LINE
  5
3C8
100
AcDbEntity
  8
0
100
AcDbLine
 62
7
  6
CONTINUOUS
 10
130.9397970815
 20
97.2286078962
 11
130.7481590815
 21
97.2286078962
  0
LINE
  5
3C9
100
AcDbEntity
  8
0
100
AcDbLine
 62
7
  6
CONTINUOUS
 10
160.7437695785
 20
97.3350656276
 11
160.7337248713
 21
97.3350656276
  0
LINE
  5
3CA
100
AcDbEntity
  8
0
100
AcDbLine
 62
7
  6
CONTINUOUS
 10
129.3397970815
 20
98.1645918962
 11
130.9397970815
 21
98.1645918962
  0
LINE
  5
3CB
100
AcDbEntity
  8
0
100
AcDbLine
 62
7
  6
CONTINUOUS
 10
130.9397970815
 20
98.3807368962
 11
129.3397970815
 21
98.3807368962
  0
LINE
  5
3CC
100
AcDbEntity
  8
0
100
AcDbLine
 62
7
  6
CONTINUOUS
 10
129.3397970815
 20
98.7506068962
 11
130.9397970815
 21
98.7506068962
  0
LINE
  5
3CD
100
AcDbEntity
  8
0
100
AcDbLine
 62
7
  6
CONTINUOUS
 10
130.9397970815
 20
98.9601658962
 11
129.6404060815
 21
98.9601658962
  0
LWPOLYLINE
  5
3CE
100
AcDbEntity
  8
0
100
AcDbPolyline
 62
7
  6
CONTINUOUS
 90
25
 70
0
 10
160.3294636489
 20
97.2428659233
 10
160.3477906472
 20
97.242541683
 10
160.3659359117
 20
97.2411671595
 10
160.3838994425
 20
97.2387423532
 10
160.401746848
 20
97.2352798693
 10
160.4194125198
 20
97.2307671038
 10
160.4366996322
 20
97.2251662427
 10
160.4536774212
 20
97.2184903254
 10
160.470276651
 20
97.2107263152
 10
160.4860927883
 20
97.2017972851
 10
160.5011472522
 20
97.1916676979
 10
160.5154186236
 20
97.1803730951
 10
160.5284381124
 20
97.1679431691
 10
160.5400575197
 20
97.1542432117
 10
160.5504250444
 20
97.1394079371
 10
160.5595164927
 20
97.1238711703
 10
160.5672334982
 20
97.1076238782
 10
160.5736744273
 20
97.0906750983
 10
160.5791101855
 20
97.0734857581
 10
160.5835398287
 20
97.0561718797
 10
160.586964301
 20
97.0386174426
 10
160.5896573407
 20
97.0209353084
 10
160.5917101937
 20
97.003163098
 10
160.593031614
 20
96.9852631915
 10
160.5936216016
 20
96.9672355893
  0
LINE
  5
3CF
100
AcDbEntity
  8
0
100
AcDbLine
 62
7
  6
CONTINUOUS
 10
159.8373870815
 20
92.1088478962
 11
161.0074560815
 21
91.7749248962
  0
LINE
  5
3D0
100
AcDbEntity
  8
0
100
AcDbLine
 62
7
  6
CONTINUOUS
 10
161.5372500815
 20
91.9170298962
 11
159.8373870815
 21
92.4634338962
  0
LINE
  5
3D1
100
AcDbEntity
  8
0
100
AcDbLine
 62
7
  6
CONTINUOUS
 10
130.9397970815
 20
103.0449088962
 11
130.4740950815
 21
103.2120768962
  0
LINE
  5
3D2
100
AcDbEntity
  8
0
100
AcDbLine
 62
7
  6
CONTINUOUS
 10
130.2824580815
 20
103.2789368962
 11
129.5718750815
 21
103.5374998962
  0
LINE
  5
3D3
100
AcDbEntity
  8
0
100
AcDbLine
 62
7
  6
CONTINUOUS
 10
129.3397970815
 20
103.4238238962
 11
130.9397970815
 21
102.8220988962
  0
LINE
  5
3D4
100
AcDbEntity
  8
0
100
AcDbLine
 62
7
  6
CONTINUOUS
 10
129.3397970815
 20
106.7174298962
 11
130.1086770815
 21
106.2584568962
  0
LINE
  5
3D5
100
AcDbEntity
  8
0
100
AcDbLine
 62
7
  6
CONTINUOUS
 10
130.2957860815
 20
106.3675388962
 11
129.3397970815
 21
106.9715658962
  0
LINE
  5
3D6
100
AcDbEntity
  8
RACCORDO
100
AcDbLine
 62
253
  6
CONTINUOUS
 10
164.430107257
 20
69.5780988055
 11
164.4404823144
 21
69.566845896
  0
LINE
  5
3D7
100
AcDbEntity
  8
RACCORDO
100
AcDbLine
 62
253
  6
CONTINUOUS
 10
163.5368724781
 20
70.5668458703
 11
164.430107257
 21
69.5780988055
  0
LWPOLYLINE
  5
3D8
100
AcDbEntity
  8
0
100
AcDbPolyline
 62
7
  6
CONTINUOUS
 90
9
 70
0
 10
146.044546455
 20
82.8606027424
 10
146.0473383439
 20
82.8554662753
 10
146.0520105825
 20
82.8480049375
 10
146.0585631708
 20
82.8385215835
 10
146.0672190153
 20
82.8273483863
 10
146.0777552096
 20
82.8147544217
 10
146.0895030335
 20
82.8008933637
 10
146.1023838139
 20
82.7859929789
 10
146.1313475634
 20
82.753758911
  0
LWPOLYLINE
  5
3D9
100
AcDbEntity
  8
0
100
AcDbPolyline
 62
7
  6
CONTINUOUS
 90
9
 70
0
 10
146.0429681649
 20
82.4135187491
 10
146.0457588115
 20
82.4082546873
 10
146.0504295218
 20
82.4006726961
 10
146.0569802959
 20
82.3910762369
 10
146.0656339624
 20
82.3797981429
 10
146.0761676927
 20
82.3671074295
 10
146.0879130004
 20
82.3531571703
 10
146.1007912672
 20
82.3381752298
 10
146.1297499018
 20
82.3058002369
  0
LINE
  5
3DA
100
AcDbEntity
  8
0
100
AcDbLine
 62
253
  6
CONTINUOUS
 10
135.0681515825
 20
71.1387634589
 11
135.0681515825
 21
71.2955171124
  0
LINE
  5
3DB
100
AcDbEntity
  8
0
100
AcDbLine
 62
253
  6
CONTINUOUS
 10
135.0681515825
 20
148.8381746808
 11
135.0681515825
 21
148.9949283334
  0
LINE
  5
3DC
100
AcDbEntity
  8
0
100
AcDbLine
 62
253
  6
CONTINUOUS
 10
137.6118843727
 20
71.2955171113
 11
137.6118843727
 21
71.1387634589
  0
LINE
  5
3DD
100
AcDbEntity
  8
0
100
AcDbLine
 62
253
  6
CONTINUOUS
 10
137.9397970815
 20
134.0488847013
 11
137.9397970815
 21
132.5668458962
  0
LINE
  5
3DE
100
AcDbEntity
  8
0
100
AcDbLine
 62
253
  6
CONTINUOUS
 10
137.9397970815
 20
87.5668458962
 11
137.9397970815
 21
86.084807091
  0
LINE
  5
3DF
100
AcDbEntity
  8
0
100
AcDbLine
 62
7
  6
CONTINUOUS
 10
150.7348346203
 20
148.0022208749
 11
150.681969329
 21
147.8434960275
  0
LINE
  5
3E0
100
AcDbEntity
  8
0
100
AcDbLine
 62
7
  6
CONTINUOUS
 10
155.1407589759
 20
146.3694047794
 11
155.798419793
 21
147.6062848834
  0
LINE
  5
3E1
100
AcDbEntity
  8
0
100
AcDbLine
 62
7
  6
CONTINUOUS
 10
156.6625210222
 20
147.1073958061
 11
155.9201818393
 21
145.9194047794
  0
LINE
  5
3E2
100
AcDbEntity
  8
0
100
AcDbLine
 62
7
  6
CONTINUOUS
 10
158.4811743701
 20
146.0573958061
 11
157.7388351872
 21
144.8694047794
  0
LINE
  5
3E3
100
AcDbEntity
  8
0
100
AcDbLine
 62
7
  6
CONTINUOUS
 10
160.1121374746
 20
129.03351269
 11
160.214265122
 21
129.1001791023
  0
LINE
  5
3E4
100
AcDbEntity
  8
0
100
AcDbLine
 62
7
  6
CONTINUOUS
 10
160.9972438951
 20
126.7001791023
 11
161.1674566646
 21
126.7668458962
  0
LINE
  5
3E5
100
AcDbEntity
  8
0
100
AcDbLine
 62
7
  6
CONTINUOUS
 10
160.8270311018
 20
126.4001791023
 11
160.6568183561
 21
126.33351269
  0
LINE
  5
3E6
100
AcDbEntity
  8
0
100
AcDbLine
 62
7
  6
CONTINUOUS
 10
160.9972438951
 20
125.2335124992
 11
161.1674566646
 21
125.3001792931
  0
LINE
  5
3E7
100
AcDbEntity
  8
0
100
AcDbLine
 62
7
  6
CONTINUOUS
 10
160.2823503156
 20
124.9001792931
 11
160.1121374746
 21
124.8335124992
  0
LINE
  5
3E8
100
AcDbEntity
  8
0
100
AcDbLine
 62
7
  6
CONTINUOUS
 10
160.4185205122
 20
123.7335125469
 11
160.5887332578
 21
123.8001792454
  0
LINE
  5
3E9
100
AcDbEntity
  8
0
100
AcDbLine
 62
7
  6
CONTINUOUS
 10
160.7589460035
 20
126.2001792931
 11
160.8610736986
 21
126.2335124992
  0
LINE
  5
3EA
100
AcDbEntity
  8
0
100
AcDbLine
 62
7
  6
CONTINUOUS
 10
161.0653289934
 20
125.4335124992
 11
160.963201346
 21
125.4001792931
  0
LINE
  5
3EB
100
AcDbEntity
  8
0
100
AcDbLine
 62
7
  6
CONTINUOUS
 10
160.214265122
 20
124.7001792931
 11
160.3163928648
 21
124.7335124992
  0
LINE
  5
3EC
100
AcDbEntity
  8
0
100
AcDbLine
 62
7
  6
CONTINUOUS
 10
160.4866056104
 20
123.9335125946
 11
160.384477963
 21
123.9001791977
  0
LINE
  5
3ED
100
AcDbEntity
  8
0
100
AcDbLine
 62
7
  6
CONTINUOUS
 10
161.0653289934
 20
123.8001792454
 11
161.1674566646
 21
123.8335125469
  0
LINE
  5
3EE
100
AcDbEntity
  8
0
100
AcDbLine
 62
7
  6
CONTINUOUS
 10
129.3397970815
 20
99.8114598962
 11
130.6394520815
 21
99.8114598962
  0
LINE
  5
3EF
100
AcDbEntity
  8
0
100
AcDbLine
 62
7
  6
CONTINUOUS
 10
130.9397970815
 20
100.0209148962
 11
129.3397970815
 21
100.0209148962
  0
LINE
  5
3F0
100
AcDbEntity
  8
0
100
AcDbLine
 62
7
  6
CONTINUOUS
 10
129.3397970815
 20
101.0125398962
 11
130.9397970815
 21
101.0125398962
  0
LINE
  5
3F1
100
AcDbEntity
  8
0
100
AcDbLine
 62
7
  6
CONTINUOUS
 10
130.9397970815
 20
101.2287498962
 11
129.3397970815
 21
101.2287498962
  0
LINE
  5
3F2
100
AcDbEntity
  8
0
100
AcDbLine
 62
7
  6
CONTINUOUS
 10
129.3397970815
 20
101.4605138962
 11
129.5314350815
 21
101.4605138962
  0
LINE
  5
3F3
100
AcDbEntity
  8
0
100
AcDbLine
 62
7
  6
CONTINUOUS
 10
129.5314350815
 20
102.0020428962
 11
130.9397970815
 21
102.0020428962
  0
LINE
  5
3F4
100
AcDbEntity
  8
0
100
AcDbLine
 62
7
  6
CONTINUOUS
 10
130.9397970815
 20
102.2181748962
 11
129.5314350815
 21
102.2181748962
  0
LINE
  5
3F5
100
AcDbEntity
  8
0
100
AcDbLine
 62
7
  6
CONTINUOUS
 10
129.5314350815
 20
102.7597038962
 11
129.3397970815
 21
102.7597038962
  0
LINE
  5
3F6
100
AcDbEntity
  8
0
100
AcDbLine
 62
7
  6
CONTINUOUS
 10
160.9353070815
 20
95.4420968962
 11
160.3044660815
 21
95.6187718962
  0
LINE
  5
3F7
100
AcDbEntity
  8
0
100
AcDbLine
 62
7
  6
CONTINUOUS
 10
161.5372500815
 20
95.2716048962
 11
161.1978970815
 21
95.3695148962
  0
LINE
  5
3F8
100
AcDbEntity
  8
0
100
AcDbLine
 62
7
  6
CONTINUOUS
 10
159.8373870815
 20
95.4538118962
 11
161.5372500815
 21
94.9206268962
  0
LINE
  5
3F9
100
AcDbEntity
  8
0
100
AcDbLine
 62
7
  6
CONTINUOUS
 10
159.8373870815
 20
94.3548848962
 11
160.7811560815
 21
94.0000568962
  0
LINE
  5
3FA
100
AcDbEntity
  8
0
100
AcDbLine
 62
7
  6
CONTINUOUS
 10
161.5372500815
 20
94.0230018962
 11
160.4318990815
 21
94.4448918962
  0
LINE
  5
3FB
100
AcDbEntity
  8
0
100
AcDbLine
 62
7
  6
CONTINUOUS
 10
155.9201818393
 20
74.2142870129
 11
156.6625210222
 21
73.0262959862
  0
LINE
  5
3FC
100
AcDbEntity
  8
0
100
AcDbLine
 62
7
  6
CONTINUOUS
 10
157.7388351872
 20
75.2642870129
 11
158.4811743701
 21
74.0762959862
  0
LINE
  5
3FD
100
AcDbEntity
  8
0
100
AcDbLine
 62
7
  6
CONTINUOUS
 10
155.798419793
 20
72.527406909
 11
155.1407589759
 21
73.7642870129
  0
LINE
  5
3FE
100
AcDbEntity
  8
0
100
AcDbLine
 62
7
  6
CONTINUOUS
 10
150.7348346203
 20
72.1314709174
 11
150.681969329
 21
72.2901957648
  0
LWPOLYLINE
  5
3FF
100
AcDbEntity
  8
0
100
AcDbPolyline
 62
7
  6
CONTINUOUS
 90
27
 70
0
 10
145.1605186815
 20
75.6659898962
 10
145.1639735505
 20
75.6321721666
 10
145.1639640767
 20
75.5980506928
 10
145.16049026
 20
75.5636255362
 10
145.1534909956
 20
75.5283448673
 10
145.1430273884
 20
75.4927607113
 10
145.1292827535
 20
75.4585285915
 10
145.11193728
 20
75.4258038494
 10
145.0913107788
 20
75.3944306349
 10
145.0685459974
 20
75.3655971724
 10
145.0434940276
 20
75.3396212911
 10
145.0163037775
 20
75.316184364
 10
144.9885647196
 20
75.2955197478
 10
144.9606196986
 20
75.2779439031
 10
144.9321258697
 20
75.2631397592
 10
144.9036441705
 20
75.2503904684
 10
144.8752845464
 20
75.2396419055
 10
144.8469370521
 20
75.2309479293
 10
144.8188327885
 20
75.2237537897
 10
144.7910717745
 20
75.2180072521
 10
144.7635539914
 20
75.2137604441
 10
144.7362104834
 20
75.2106152141
 10
144.7090611308
 20
75.2086022748
 10
144.6820860535
 20
75.2076908815
 10
144.655156655
 20
75.2073907189
 10
144.6282462998
 20
75.2077538995
 10
144.5207519833
 20
75.2114442995
  0
LWPOLYLINE
  5
400
100
AcDbEntity
  8
0
100
AcDbPolyline
 62
253
  6
CONTINUOUS
 90
22
 70
0
 10
143.3342111057
 20
83.1323304838
 10
143.3361447388
 20
83.0869396934
 10
143.3413360714
 20
83.0423319537
 10
143.3497851033
 20
82.9985071706
 10
143.3615760526
 20
82.9552388798
 10
143.3766247012
 20
82.9127533795
 10
143.3946783957
 20
82.8717296351
 10
143.4157898771
 20
82.8321820035
 10
143.4399064044
 20
82.7940957844
 10
143.4666171003
 20
82.7581062044
 10
143.4959632181
 20
82.7242515568
 10
143.5279035045
 20
82.6924931064
 10
143.5619033225
 20
82.6633504303
 10
143.5979960566
 20
82.6368672387
 10
143.6361483222
 20
82.6129993736
 10
143.6757253288
 20
82.5921345597
 10
143.7167351468
 20
82.5743224977
 10
143.7591697059
 20
82.5595131246
 10
143.802370004
 20
82.5479445209
 10
143.8461163738
 20
82.5396959753
 10
143.8906284825
 20
82.5346879967
 10
143.9359063303
 20
82.5329205342
  0
LINE
  5
401
100
AcDbEntity
  8
0
100
AcDbLine
 62
7
  6
CONTINUOUS
 10
139.4397970815
 20
149.0668458962
 11
139.4397970815
 21
148.3018097354
  0
LINE
  5
402
100
AcDbEntity
  8
0
100
AcDbLine
 62
7
  6
CONTINUOUS
 10
139.4397970815
 20
71.8318820569
 11
139.4397970815
 21
71.0668458962
  0
LINE
  5
403
100
AcDbEntity
  8
0
100
AcDbLine
 62
7
  6
CONTINUOUS
 10
140.1397970815
 20
71.0668458962
 11
140.1397970815
 21
71.8318820569
  0
LINE
  5
404
100
AcDbEntity
  8
0
100
AcDbLine
 62
7
  6
CONTINUOUS
 10
140.1397970815
 20
148.3018097354
 11
140.1397970815
 21
149.0668458962
  0
LINE
  5
405
100
AcDbEntity
  8
0
100
AcDbLine
 62
7
  6
CONTINUOUS
 10
141.7648197545
 20
70.5668458962
 11
141.7648197545
 21
71.0668458962
  0
LINE
  5
406
100
AcDbEntity
  8
0
100
AcDbLine
 62
7
  6
CONTINUOUS
 10
141.9397970815
 20
71.101756026
 11
141.9397970815
 21
69.6716057682
  0
LWPOLYLINE
  5
407
100
AcDbEntity
  8
0
100
AcDbPolyline
 62
7
  6
CONTINUOUS
 90
10
 70
0
 10
146.0429682706
 20
137.7201734005
 10
146.04281751
 20
137.7196000732
 10
146.04266655
 20
137.7190896272
 10
146.0425153907
 20
137.7186420625
 10
146.0423640039
 20
137.7182573242
 10
146.0422124177
 20
137.7179354672
 10
146.0420607162
 20
137.7176766562
 10
146.0419089274
 20
137.7174809461
 10
146.0417570233
 20
137.717348282
 10
146.0416050039
 20
137.7172786639
  0
LINE
  5
408
100
AcDbEntity
  8
0
100
AcDbLine
 62
7
  6
CONTINUOUS
 10
156.9594123238
 20
145.3194047794
 11
157.6170731409
 21
146.5562848834
  0
LWPOLYLINE
  5
409
100
AcDbEntity
  8
0
100
AcDbPolyline
 62
253
  6
CONTINUOUS
 90
22
 70
0
 10
160.6734419262
 20
145.0074464983
 10
160.6591066058
 20
144.9816961421
 10
160.6431495263
 20
144.9575745385
 10
160.6255706876
 20
144.9350819085
 10
160.6063037032
 20
144.914171731
 10
160.5854149596
 20
144.8948909198
 10
160.5631036165
 20
144.8773798402
 10
160.5393572991
 20
144.8616105252
 10
160.5141883823
 20
144.8476112682
 10
160.4878331498
 20
144.8356068315
 10
160.4602731883
 20
144.8255872172
 10
160.4315269113
 20
144.8175626665
 10
160.4018858425
 20
144.8117882956
 10
160.371289146
 20
144.8082694119
 10
160.3397976577
 20
144.8070008238
 10
160.3078854101
 20
144.8082218691
 10
160.2755015514
 20
144.8119756208
 10
160.2426969333
 20
144.8182189372
 10
160.2100981431
 20
144.8270617802
 10
160.1779140432
 20
144.8385407046
 10
160.1459357711
 20
144.8526188616
 10
160.1141633269
 20
144.8692960482
  0
LINE
  5
40A
100
AcDbEntity
  8
0
100
AcDbLine
 62
7
  6
CONTINUOUS
 10
159.1721425577
 20
146.351965968
 11
158.9715532205
 21
146.0045350444
  0
LINE
  5
40B
100
AcDbEntity
  8
0
100
AcDbLine
 62
7
  6
CONTINUOUS
 10
163.4397970815
 20
133.2668458962
 11
163.3302623599
 21
133.1573111745
  0
LINE
  5
40C
100
AcDbEntity
  8
0
100
AcDbLine
 62
7
  6
CONTINUOUS
 10
160.1121374746
 20
129.23351269
 11
159.9759672781
 21
129.13351269
  0
LINE
  5
40D
100
AcDbEntity
  8
0
100
AcDbLine
 62
7
  6
CONTINUOUS
 10
160.1121374746
 20
127.7668458962
 11
159.9759672781
 21
127.6668458962
  0
LINE
  5
40E
100
AcDbEntity
  8
0
100
AcDbLine
 62
7
  6
CONTINUOUS
 10
161.1674566646
 20
128.23351269
 11
161.3036268731
 21
128.33351269
  0
LINE
  5
40F
100
AcDbEntity
  8
0
100
AcDbLine
 62
7
  6
CONTINUOUS
 10
160.1121374746
 20
126.3001791023
 11
159.9759672781
 21
126.2001792931
  0
LINE
  5
410
100
AcDbEntity
  8
0
100
AcDbLine
 62
7
  6
CONTINUOUS
 10
161.1674566646
 20
126.7668458962
 11
161.3036268731
 21
126.8668458962
  0
LINE
  5
411
100
AcDbEntity
  8
0
100
AcDbLine
 62
7
  6
CONTINUOUS
 10
161.1674566646
 20
128.43351269
 11
161.0653289934
 21
128.3668458962
  0
LINE
  5
412
100
AcDbEntity
  8
0
100
AcDbLine
 62
7
  6
CONTINUOUS
 10
160.1121374746
 20
127.5668458962
 11
160.214265122
 21
127.63351269
  0
LINE
  5
413
100
AcDbEntity
  8
0
100
AcDbLine
 62
7
  6
CONTINUOUS
 10
161.1674566646
 20
126.9668458962
 11
161.0653289934
 21
126.9001791023
  0
LINE
  5
414
100
AcDbEntity
  8
0
100
AcDbLine
 62
7
  6
CONTINUOUS
 10
160.1121374746
 20
126.1001792931
 11
160.214265122
 21
126.1668458962
  0
LINE
  5
415
100
AcDbEntity
  8
0
100
AcDbLine
 62
7
  6
CONTINUOUS
 10
161.1674566646
 20
125.5001792931
 11
161.0653289934
 21
125.4335124992
  0
LINE
  5
416
100
AcDbEntity
  8
0
100
AcDbLine
 62
7
  6
CONTINUOUS
 10
160.1121374746
 20
124.6335125946
 11
160.214265122
 21
124.7001792931
  0
LINE
  5
417
100
AcDbEntity
  8
0
100
AcDbLine
 62
7
  6
CONTINUOUS
 10
160.5887332578
 20
124.0001791977
 11
160.4866056104
 21
123.9335125946
  0
LINE
  5
418
100
AcDbEntity
  8
0
100
AcDbLine
 62
7
  6
CONTINUOUS
 10
129.3397970815
 20
105.5475468962
 11
130.2957860815
 21
106.1514448962
  0
LINE
  5
419
100
AcDbEntity
  8
0
100
AcDbLine
 62
7
  6
CONTINUOUS
 10
130.1086770815
 20
106.2584568962
 11
129.3397970815
 21
105.7993538962
  0
LINE
  5
41A
100
AcDbEntity
  8
0
100
AcDbLine
 62
7
  6
CONTINUOUS
 10
129.3397970815
 20
104.4466328962
 11
130.9397970815
 21
104.4466328962
  0
LINE
  5
41B
100
AcDbEntity
  8
0
100
AcDbLine
 62
7
  6
CONTINUOUS
 10
130.7481590815
 20
104.6628558962
 11
129.3397970815
 21
104.6628558962
  0
LINE
  5
41C
100
AcDbEntity
  8
0
100
AcDbLine
 62
7
  6
CONTINUOUS
 10
130.9397970815
 20
105.4740488962
 11
130.7481590815
 21
105.4740488962
  0
LINE
  5
41D
100
AcDbEntity
  8
0
100
AcDbLine
 62
7
  6
CONTINUOUS
 10
130.2957860815
 20
106.1514448962
 11
130.9397970815
 21
106.1514448962
  0
LINE
  5
41E
100
AcDbEntity
  8
0
100
AcDbLine
 62
7
  6
CONTINUOUS
 10
130.9397970815
 20
106.3675388962
 11
130.2957860815
 21
106.3675388962
  0
LINE
  5
41F
100
AcDbEntity
  8
0
100
AcDbLine
 62
7
  6
CONTINUOUS
 10
163.4397970815
 20
86.8668458962
 11
163.3302623599
 21
86.9763806178
  0
LINE
  5
420
100
AcDbEntity
  8
0
100
AcDbLine
 62
7
  6
CONTINUOUS
 10
159.1721425577
 20
73.7817258243
 11
158.9715532205
 21
74.1291567479
  0
LINE
  5
421
100
AcDbEntity
  8
0
100
AcDbLine
 62
7
  6
CONTINUOUS
 10
157.6170731409
 20
73.577406909
 11
156.9594123238
 21
74.8142870129
  0
LWPOLYLINE
  5
422
100
AcDbEntity
  8
0
100
AcDbPolyline
 62
253
  6
CONTINUOUS
 90
22
 70
0
 10
143.6340283354
 20
83.160897614
 10
143.6349983351
 20
83.1385116684
 10
143.6376523205
 20
83.1162725698
 10
143.6419720389
 20
83.0943055051
 10
143.6479292948
 20
83.0727385744
 10
143.655487555
 20
83.051687161
 10
143.6646053516
 20
83.0312543749
 10
143.6752345284
 20
83.0115496574
 10
143.6873132018
 20
82.9926889183
 10
143.7007687627
 20
82.9747791527
 10
143.715523993
 20
82.9579210877
 10
143.7314966299
 20
82.9422068839
 10
143.7485950642
 20
82.927721157
 10
143.7667233651
 20
82.9145437605
 10
143.7857800859
 20
82.9027473002
 10
143.805657092
 20
82.8923944893
 10
143.8262364322
 20
82.8835444948
 10
143.8474102148
 20
82.876241708
 10
143.8690814561
 20
82.8705188658
 10
143.8911379951
 20
82.8664097506
 10
143.9134512846
 20
82.8639436252
 10
143.935897641
 20
82.8631378821
  0
LINE
  5
423
100
AcDbEntity
  8
0
100
AcDbLine
 62
7
  6
CONTINUOUS
 10
143.826198102
 20
83.8596829979
 11
143.8258293056
 21
83.8703365104
  0
LINE
  5
424
100
AcDbEntity
  8
0
100
AcDbLine
 62
253
  6
CONTINUOUS
 10
144.5362718341
 20
82.5329205342
 11
144.5378977171
 21
82.0846512467
  0
LINE
  5
425
100
AcDbEntity
  8
0
100
AcDbLine
 62
253
  6
CONTINUOUS
 10
144.8350477081
 20
82.8606027424
 11
144.8366258925
 21
82.4135183918
  0
LINE
  5
426
100
AcDbEntity
  8
0
100
AcDbLine
 62
253
  6
CONTINUOUS
 10
143.3260144727
 20
86.0548532444
 11
143.3342111057
 21
83.1323304838
  0
LINE
  5
427
100
AcDbEntity
  8
0
100
AcDbLine
 62
253
  6
CONTINUOUS
 10
143.6258650498
 20
86.0599124706
 11
143.6340283437
 21
83.1608976223
  0
LINE
  5
428
100
AcDbEntity
  8
0
100
AcDbLine
 62
7
  6
CONTINUOUS
 10
142.7888780815
 20
75.2132778962
 11
142.7888780815
 21
74.9069908962
  0
LINE
  5
429
100
AcDbEntity
  8
0
100
AcDbLine
 62
7
  6
CONTINUOUS
 10
143.1110990815
 20
75.7765938962
 11
143.1110990815
 21
75.2132778962
  0
LINE
  5
42A
100
AcDbEntity
  8
0
100
AcDbLine
 62
7
  6
CONTINUOUS
 10
143.1110990815
 20
74.9069908962
 11
143.1110990815
 21
73.8827968962
  0
LINE
  5
42B
100
AcDbEntity
  8
0
100
AcDbLine
 62
7
  6
CONTINUOUS
 10
143.4173870815
 20
73.8827968962
 11
143.4173870815
 21
76.2880518962
  0
LINE
  5
42C
100
AcDbEntity
  8
0
100
AcDbLine
 62
7
  6
CONTINUOUS
 10
143.6756694649
 20
136.2258296175
 11
143.6756694649
 21
134.0488847013
  0
LINE
  5
42D
100
AcDbEntity
  8
0
100
AcDbLine
 62
7
  6
CONTINUOUS
 10
143.6756694649
 20
86.084807091
 11
143.6756694649
 21
83.9078621748
  0
LINE
  5
42E
100
AcDbEntity
  8
0
100
AcDbLine
 62
7
  6
CONTINUOUS
 10
143.7331762815
 20
76.2880514962
 11
143.7331762815
 21
75.9817642962
  0
LINE
  5
42F
100
AcDbEntity
  8
0
100
AcDbLine
 62
7
  6
CONTINUOUS
 10
143.826198102
 20
136.7806276276
 11
143.826198102
 21
136.2740087944
  0
LINE
  5
430
100
AcDbEntity
  8
0
100
AcDbLine
 62
7
  6
CONTINUOUS
 10
143.826198102
 20
83.8596829979
 11
143.826198102
 21
83.3530641647
  0
LINE
  5
431
100
AcDbEntity
  8
0
100
AcDbLine
 62
253
  6
CONTINUOUS
 10
143.9359063303
 20
137.6007712581
 11
143.9359063303
 21
137.2705538955
  0
LINE
  5
432
100
AcDbEntity
  8
0
100
AcDbLine
 62
253
  6
CONTINUOUS
 10
143.9359063303
 20
82.5329205342
 11
143.9359063304
 21
82.8631378969
  0
LINE
  5
433
100
AcDbEntity
  8
0
100
AcDbLine
 62
7
  6
CONTINUOUS
 10
144.2294582755
 20
137.0668458962
 11
144.2294582755
 21
136.6668458962
  0
LINE
  5
434
100
AcDbEntity
  8
0
100
AcDbLine
 62
7
  6
CONTINUOUS
 10
144.2294582755
 20
83.4668458962
 11
144.2294582755
 21
83.0668458962
  0
LINE
  5
435
100
AcDbEntity
  8
0
100
AcDbLine
 62
7
  6
CONTINUOUS
 10
144.5722430815
 20
142.5188088962
 11
144.5722430815
 21
143.2696258962
  0
LINE
  5
436
100
AcDbEntity
  8
0
100
AcDbLine
 62
7
  6
CONTINUOUS
 10
144.5722430815
 20
146.8640658962
 11
144.5722430815
 21
147.6148828962
  0
LINE
  5
437
100
AcDbEntity
  8
0
100
AcDbLine
 62
7
  6
CONTINUOUS
 10
144.5897970815
 20
83.9078621748
 11
144.5897970815
 21
86.084807091
  0
LINE
  5
438
100
AcDbEntity
  8
0
100
AcDbLine
 62
7
  6
CONTINUOUS
 10
144.5897970815
 20
134.0488847013
 11
144.5897970815
 21
136.2258296175
  0
LINE
  5
439
100
AcDbEntity
  8
0
100
AcDbLine
 62
7
  6
CONTINUOUS
 10
145.0397970815
 20
137.6668458962
 11
145.0397970815
 21
137.0668458962
  0
LINE
  5
43A
100
AcDbEntity
  8
0
100
AcDbLine
 62
7
  6
CONTINUOUS
 10
145.0397970815
 20
82.4668458962
 11
145.0397970815
 21
83.0668458962
  0
LINE
  5
43B
100
AcDbEntity
  8
0
100
AcDbLine
 62
7
  6
CONTINUOUS
 10
145.8397970815
 20
137.6668458962
 11
145.8397970815
 21
137.0668458962
  0
LINE
  5
43C
100
AcDbEntity
  8
0
100
AcDbLine
 62
7
  6
CONTINUOUS
 10
145.8397970815
 20
82.4668458962
 11
145.8397970815
 21
83.0668458962
  0
LINE
  5
43D
100
AcDbEntity
  8
0
100
AcDbLine
 62
7
  6
CONTINUOUS
 10
145.8423430815
 20
76.2954978962
 11
145.8423430815
 21
73.8947908962
  0
LINE
  5
43E
100
AcDbEntity
  8
0
100
AcDbLine
 62
253
  6
CONTINUOUS
 10
143.3342111057
 20
137.0013613085
 11
143.3260144727
 21
134.0788385479
  0
LINE
  5
43F
100
AcDbEntity
  8
0
100
AcDbLine
 62
253
  6
CONTINUOUS
 10
143.634028386
 20
136.9728075723
 11
143.6258650498
 21
134.0737793217
  0
LINE
  5
440
100
AcDbEntity
  8
0
100
AcDbLine
 62
253
  6
CONTINUOUS
 10
144.8366258983
 20
137.7201733809
 11
144.8350477081
 21
137.2730890499
  0
LINE
  5
441
100
AcDbEntity
  8
0
100
AcDbLine
 62
253
  6
CONTINUOUS
 10
144.5378977171
 20
138.0490405456
 11
144.5362718341
 21
137.6007712581
  0
LINE
  5
442
100
AcDbEntity
  8
0
100
AcDbLine
 62
7
  6
CONTINUOUS
 10
143.8258293056
 20
136.263355282
 11
143.826198102
 21
136.2740087944
  0
LWPOLYLINE
  5
443
100
AcDbEntity
  8
0
100
AcDbPolyline
 62
253
  6
CONTINUOUS
 90
16
 70
0
 10
135.1681477748
 20
71.5119314836
 10
135.1678534763
 20
71.5103245817
 10
135.1682752617
 20
71.5051929005
 10
135.1683081188
 20
71.4971454257
 10
135.1660400309
 20
71.4871578476
 10
135.1613605724
 20
71.475841258
 10
135.1563190438
 20
71.4631432588
 10
135.150977299
 20
71.4475250786
 10
135.1428908204
 20
71.4304071443
 10
135.1336348761
 20
71.414049592
 10
135.1252498922
 20
71.3964585365
 10
135.1152546938
 20
71.3761791045
 10
135.1030073031
 20
71.3558196982
 10
135.0900642141
 20
71.3363253918
 10
135.0779604281
 20
71.3163501656
 10
135.0681515814
 20
71.2955171141
  0
LWPOLYLINE
  5
444
100
AcDbEntity
  8
0
100
AcDbPolyline
 62
253
  6
CONTINUOUS
 90
22
 70
0
 10
160.5106833287
 20
145.0660250231
 10
160.5043007897
 20
145.0528181029
 10
160.4968358597
 20
145.0404252027
 10
160.488346416
 20
145.0288986419
 10
160.4789157641
 20
145.0183100529
 10
160.4685862219
 20
145.0086734562
 10
160.4573438576
 20
144.9999627276
 10
160.445233348
 20
144.9922186416
 10
160.4323200241
 20
144.9854957762
 10
160.4186066229
 20
144.9798104453
 10
160.4041526551
 20
144.9752125558
 10
160.3890205876
 20
144.9717472129
 10
160.3732144517
 20
144.9694430168
 10
160.3567818001
 20
144.9683522872
 10
160.3398192995
 20
144.9685233739
 10
160.3224092933
 20
144.9699888931
 10
160.3046210709
 20
144.9727941731
 10
160.2865626656
 20
144.9769669606
 10
160.2683816115
 20
144.982504512
 10
160.2501943182
 20
144.9894122696
 10
160.2320859548
 20
144.9977059078
 10
160.2141614342
 20
145.0073828199
  0
LINE
  5
445
100
AcDbEntity
  8
0
100
AcDbLine
 62
253
  6
CONTINUOUS
 10
160.8918557462
 20
145.4444692017
 11
160.6734419262
 21
145.0074464983
  0
LINE
  5
446
100
AcDbEntity
  8
0
100
AcDbLine
 62
253
  6
CONTINUOUS
 10
160.7290962878
 20
145.5021533955
 11
160.5106833757
 21
145.0660249944
  0
LINE
  5
447
100
AcDbEntity
  8
0
100
AcDbLine
 62
7
  6
CONTINUOUS
 10
160.6568183561
 20
129.2668458962
 11
160.5546907087
 21
129.1668458962
  0
LINE
  5
448
100
AcDbEntity
  8
0
100
AcDbLine
 62
7
  6
CONTINUOUS
 10
160.6908609052
 20
129.0668458962
 11
160.7589460035
 21
129.13351269
  0
LINE
  5
449
100
AcDbEntity
  8
0
100
AcDbLine
 62
7
  6
CONTINUOUS
 10
160.6568183561
 20
127.8001791023
 11
160.5546907087
 21
127.7001791023
  0
LINE
  5
44A
100
AcDbEntity
  8
0
100
AcDbLine
 62
7
  6
CONTINUOUS
 10
160.6908609052
 20
127.6001791023
 11
160.7589460035
 21
127.6668458962
  0
LINE
  5
44B
100
AcDbEntity
  8
0
100
AcDbLine
 62
7
  6
CONTINUOUS
 10
160.6568183561
 20
126.33351269
 11
160.5546907087
 21
126.2335124992
  0
LINE
  5
44C
100
AcDbEntity
  8
0
100
AcDbLine
 62
7
  6
CONTINUOUS
 10
160.6908609052
 20
126.1335124992
 11
160.7589460035
 21
126.2001792931
  0
LINE
  5
44D
100
AcDbEntity
  8
0
100
AcDbLine
 62
7
  6
CONTINUOUS
 10
160.1121374746
 20
124.8335124992
 11
159.9759672781
 21
124.7335124992
  0
LINE
  5
44E
100
AcDbEntity
  8
0
100
AcDbLine
 62
7
  6
CONTINUOUS
 10
161.1674566646
 20
125.3001792931
 11
161.3036268731
 21
125.4001792931
  0
LINE
  5
44F
100
AcDbEntity
  8
0
100
AcDbLine
 62
7
  6
CONTINUOUS
 10
160.5887332578
 20
123.8001792454
 11
160.7249034544
 21
123.9001791977
  0
LINE
  5
450
100
AcDbEntity
  8
0
100
AcDbLine
 62
7
  6
CONTINUOUS
 10
161.1674566646
 20
123.8335125469
 11
161.3036268731
 21
123.9335125946
  0
LINE
  5
451
100
AcDbEntity
  8
0
100
AcDbLine
 62
7
  6
CONTINUOUS
 10
161.1674566646
 20
124.0335125946
 11
161.0653289934
 21
123.9668458962
  0
LINE
  5
452
100
AcDbEntity
  8
0
100
AcDbLine
 62
7
  6
CONTINUOUS
 10
128.9647546373
 20
128.1420474233
 11
129.7247560815
 21
127.2401888962
  0
LINE
  5
453
100
AcDbEntity
  8
0
100
AcDbLine
 62
7
  6
CONTINUOUS
 10
130.1194930815
 20
127.2401888962
 11
129.3947539647
 21
128.1002020348
  0
LINE
  5
454
100
AcDbEntity
  8
0
100
AcDbLine
 62
253
  6
CONTINUOUS
 10
160.5106820405
 20
75.0676694606
 11
160.7290955997
 21
74.6315397725
  0
LINE
  5
455
100
AcDbEntity
  8
0
100
AcDbLine
 62
253
  6
CONTINUOUS
 10
160.6734419262
 20
75.126245294
 11
160.8918557462
 21
74.6892225906
  0
LWPOLYLINE
  5
456
100
AcDbEntity
  8
0
100
AcDbPolyline
 62
253
  6
CONTINUOUS
 90
19
 70
0
 10
160.8918557462
 20
74.6892225906
 10
160.9052406575
 20
74.6593287822
 10
160.915872992
 20
74.6282457386
 10
160.9237527496
 20
74.5959736763
 10
160.9289927867
 20
74.5623085361
 10
160.9314802469
 20
74.5274548646
 10
160.9308765617
 20
74.4920256779
 10
160.9271089707
 20
74.4559194682
 10
160.9202502343
 20
74.4192380076
 10
160.9101800644
 20
74.3828989162
 10
160.896762212
 20
74.3468510038
 10
160.8801329261
 20
74.3111453341
 10
160.8605806662
 20
74.2768524907
 10
160.8379532377
 20
74.2440067221
 10
160.8124028353
 20
74.2125732257
 10
160.7846745023
 20
74.1835186229
 10
160.7550165866
 20
74.1571647843
 10
160.7231807403
 20
74.1331890287
 10
160.6891669635
 20
74.1115910195
  0
LWPOLYLINE
  5
457
100
AcDbEntity
  8
0
100
AcDbPolyline
 62
253
  6
CONTINUOUS
 90
19
 70
0
 10
129.9877384169
 20
145.4444692017
 10
129.9743535056
 20
145.4743630101
 10
129.9637211711
 20
145.5054460537
 10
129.9558414134
 20
145.537718116
 10
129.9506013764
 20
145.5713832562
 10
129.9481139161
 20
145.6062369277
 10
129.9487176014
 20
145.6416661144
 10
129.9524851923
 20
145.6777723241
 10
129.9593439288
 20
145.7144537847
 10
129.9694140987
 20
145.7507928761
 10
129.9828319511
 20
145.7868407886
 10
129.999461237
 20
145.8225464582
 10
130.0190134969
 20
145.8568393016
 10
130.0416409253
 20
145.8896850703
 10
130.0671913278
 20
145.9211185666
 10
130.0949196608
 20
145.9501731694
 10
130.1245775765
 20
145.976527008
 10
130.1564134228
 20
146.0005027636
 10
130.1904271996
 20
146.0221007728
  0
LWPOLYLINE
  5
458
100
AcDbEntity
  8
0
100
AcDbPolyline
 62
253
  6
CONTINUOUS
 90
19
 70
0
 10
130.1504984485
 20
145.5021519571
 10
130.1448338122
 20
145.5174053966
 10
130.1405838039
 20
145.533537894
 10
130.1378271528
 20
145.5504655296
 10
130.1366501108
 20
145.5680907085
 10
130.1371059785
 20
145.586315835
 10
130.1392223258
 20
145.6050448042
 10
130.1430768384
 20
145.6241908591
 10
130.148706231
 20
145.6435946133
 10
130.1560612193
 20
145.6630403048
 10
130.1651841289
 20
145.6824132052
 10
130.1760623255
 20
145.7015427427
 10
130.1885154624
 20
145.7201329996
 10
130.2025191324
 20
145.7380604224
 10
130.2180067347
 20
145.7551767991
 10
130.2346702175
 20
145.7711820482
 10
130.2523272911
 20
145.7859216292
 10
130.2709496179
 20
145.7993659599
 10
130.2904233919
 20
145.8114374179
  0
LWPOLYLINE
  5
459
100
AcDbEntity
  8
0
100
AcDbPolyline
 62
253
  6
CONTINUOUS
 90
16
 70
0
 10
135.1681477748
 20
148.6217603087
 10
135.1678534759
 20
148.6233672104
 10
135.1682752613
 20
148.6284988918
 10
135.1683081188
 20
148.636546367
 10
135.1660400301
 20
148.6465339447
 10
135.1613605713
 20
148.657850534
 10
135.1563190437
 20
148.6705485346
 10
135.1509772997
 20
148.6861667174
 10
135.1428908202
 20
148.703284652
 10
135.1336348763
 20
148.7196422019
 10
135.1252498944
 20
148.7372332561
 10
135.1152546962
 20
148.757512689
 10
135.1030073038
 20
148.7778720954
 10
135.0900642136
 20
148.7973664009
 10
135.0779604274
 20
148.8173416266
 10
135.0681515825
 20
148.8381746788
  0
LWPOLYLINE
  5
45A
100
AcDbEntity
  8
0
100
AcDbPolyline
 62
253
  6
CONTINUOUS
 90
22
 70
0
 10
147.2455658277
 20
136.9727941783
 10
147.244595828
 20
136.9951801239
 10
147.2419418426
 20
137.0174192225
 10
147.2376221242
 20
137.0393862872
 10
147.2316648683
 20
137.0609532179
 10
147.2241066081
 20
137.0820046313
 10
147.2149888115
 20
137.1024374174
 10
147.2043596347
 20
137.1221421349
 10
147.1922809613
 20
137.141002874
 10
147.1788254004
 20
137.1589126397
 10
147.1640701701
 20
137.1757707046
 10
147.1480975332
 20
137.1914849084
 10
147.1309990989
 20
137.2059706353
 10
147.112870798
 20
137.2191480319
 10
147.0938140772
 20
137.2309444921
 10
147.073937071
 20
137.241297303
 10
147.0533577309
 20
137.2501472975
 10
147.0321839483
 20
137.2574500843
 10
147.010512707
 20
137.2631729265
 10
146.988456168
 20
137.2672820417
 10
146.9661428785
 20
137.2697481671
 10
146.9436965221
 20
137.2705539102
  0
LWPOLYLINE
  5
45B
100
AcDbEntity
  8
0
100
AcDbPolyline
 62
253
  6
CONTINUOUS
 90
22
 70
0
 10
147.5453830574
 20
137.0013613085
 10
147.5434494242
 20
137.0467520989
 10
147.5382580917
 20
137.0913598386
 10
147.5298090597
 20
137.1351846217
 10
147.5180181105
 20
137.1784529125
 10
147.5029694618
 20
137.2209384128
 10
147.4849157674
 20
137.2619621572
 10
147.4638042859
 20
137.3015097888
 10
147.4396877587
 20
137.3395960079
 10
147.4129770628
 20
137.375585588
 10
147.383630945
 20
137.4094402355
 10
147.3516906586
 20
137.4411986859
 10
147.3176908406
 20
137.470341362
 10
147.2815981065
 20
137.4968245536
 10
147.2434458409
 20
137.5206924187
 10
147.2038688343
 20
137.5415572326
 10
147.1628590162
 20
137.5593692946
 10
147.1204244572
 20
137.5741786677
 10
147.0772241591
 20
137.5857472714
 10
147.0334777893
 20
137.593995817
 10
146.9889656805
 20
137.5990037956
 10
146.9436878327
 20
137.6007712581
  0
LINE
  5
45C
100
AcDbEntity
  8
0
100
AcDbLine
 62
7
  6
CONTINUOUS
 10
147.0533960611
 20
136.2740087944
 11
147.0537648575
 21
136.263355282
  0
LINE
  5
45D
100
AcDbEntity
  8
0
100
AcDbLine
 62
253
  6
CONTINUOUS
 10
146.3433223289
 20
137.6007712581
 11
146.341696446
 21
138.0490405456
  0
LINE
  5
45E
100
AcDbEntity
  8
0
100
AcDbLine
 62
253
  6
CONTINUOUS
 10
146.044546455
 20
137.2730890499
 11
146.0429682706
 21
137.7201734005
  0
LINE
  5
45F
100
AcDbEntity
  8
0
100
AcDbLine
 62
253
  6
CONTINUOUS
 10
147.5535796903
 20
134.0788385479
 11
147.5453830574
 21
137.0013613085
  0
LINE
  5
460
100
AcDbEntity
  8
0
100
AcDbLine
 62
253
  6
CONTINUOUS
 10
147.2537291132
 20
134.0737793217
 11
147.2455658194
 21
136.97279417
  0
LINE
  5
461
100
AcDbEntity
  8
0
100
AcDbLine
 62
7
  6
CONTINUOUS
 10
146.1486300815
 20
73.8947908962
 11
146.1486300815
 21
76.2954978962
  0
LINE
  5
462
100
AcDbEntity
  8
0
100
AcDbLine
 62
7
  6
CONTINUOUS
 10
146.2897970815
 20
136.2258296175
 11
146.2897970815
 21
134.0488847013
  0
LINE
  5
463
100
AcDbEntity
  8
0
100
AcDbLine
 62
7
  6
CONTINUOUS
 10
146.2897970815
 20
86.084807091
 11
146.2897970815
 21
83.9078621748
  0
LINE
  5
464
100
AcDbEntity
  8
0
100
AcDbLine
 62
7
  6
CONTINUOUS
 10
146.6501358876
 20
83.0668458962
 11
146.6501358876
 21
83.4668458962
  0
LINE
  5
465
100
AcDbEntity
  8
0
100
AcDbLine
 62
7
  6
CONTINUOUS
 10
146.6501358876
 20
136.6668458962
 11
146.6501358876
 21
137.0668458962
  0
LINE
  5
466
100
AcDbEntity
  8
0
100
AcDbLine
 62
253
  6
CONTINUOUS
 10
146.9436878327
 20
137.6007712581
 11
146.9436878327
 21
137.2705538955
  0
LINE
  5
467
100
AcDbEntity
  8
0
100
AcDbLine
 62
253
  6
CONTINUOUS
 10
146.9436878327
 20
82.5329205342
 11
146.9436878327
 21
82.8631378969
  0
LINE
  5
468
100
AcDbEntity
  8
0
100
AcDbLine
 62
7
  6
CONTINUOUS
 10
147.0533960611
 20
83.3530641647
 11
147.0533960611
 21
83.8596829979
  0
LINE
  5
469
100
AcDbEntity
  8
0
100
AcDbLine
 62
7
  6
CONTINUOUS
 10
147.0533960611
 20
136.2740087944
 11
147.0533960611
 21
136.7806276276
  0
LINE
  5
46A
100
AcDbEntity
  8
0
100
AcDbLine
 62
7
  6
CONTINUOUS
 10
147.2039246981
 20
83.9078621748
 11
147.2039246981
 21
86.084807091
  0
LINE
  5
46B
100
AcDbEntity
  8
0
100
AcDbLine
 62
7
  6
CONTINUOUS
 10
147.2039246981
 20
134.0488847013
 11
147.2039246981
 21
136.2258296175
  0
LINE
  5
46C
100
AcDbEntity
  8
0
100
AcDbLine
 62
7
  6
CONTINUOUS
 10
148.2277730815
 20
76.2914978962
 11
148.2277730815
 21
73.8947908962
  0
LINE
  5
46D
100
AcDbEntity
  8
0
100
AcDbLine
 62
7
  6
CONTINUOUS
 10
148.5340620815
 20
74.2010778962
 11
148.5340620815
 21
75.9852108962
  0
LINE
  5
46E
100
AcDbEntity
  8
0
100
AcDbLine
 62
7
  6
CONTINUOUS
 10
148.5573530815
 20
144.6918458962
 11
148.5573530815
 21
145.4418458962
  0
LINE
  5
46F
100
AcDbEntity
  8
0
100
AcDbLine
 62
7
  6
CONTINUOUS
 10
148.8795820815
 20
75.2195498962
 11
148.8795820815
 21
74.9141418962
  0
LINE
  5
470
100
AcDbEntity
  8
0
100
AcDbLine
 62
7
  6
CONTINUOUS
 10
148.9397970815
 20
71.101756026
 11
148.9397970815
 21
69.6716057682
  0
LINE
  5
471
100
AcDbEntity
  8
0
100
AcDbLine
 62
7
  6
CONTINUOUS
 10
148.9573530815
 20
142.5188087784
 11
148.9573530815
 21
143.2696289446
  0
LINE
  5
472
100
AcDbEntity
  8
0
100
AcDbLine
 62
7
  6
CONTINUOUS
 10
148.9573530815
 20
146.8640658962
 11
148.9573530815
 21
147.6148830139
  0
LINE
  5
473
100
AcDbEntity
  8
0
100
AcDbLine
 62
7
  6
CONTINUOUS
 10
149.1147744086
 20
70.5668458962
 11
149.1147744086
 21
71.0668458962
  0
LINE
  5
474
100
AcDbEntity
  8
0
100
AcDbLine
 62
253
  6
CONTINUOUS
 10
147.5453830574
 20
83.1323304838
 11
147.5535796903
 21
86.0548532444
  0
LINE
  5
475
100
AcDbEntity
  8
0
100
AcDbLine
 62
253
  6
CONTINUOUS
 10
147.245565777
 20
83.16088422
 11
147.2537291132
 21
86.0599124706
  0
LINE
  5
476
100
AcDbEntity
  8
0
100
AcDbLine
 62
253
  6
CONTINUOUS
 10
146.0429682648
 20
82.4135184114
 11
146.044546455
 21
82.8606027424
  0
LINE
  5
477
100
AcDbEntity
  8
0
100
AcDbLine
 62
253
  6
CONTINUOUS
 10
146.341696446
 20
82.0846512467
 11
146.3433223289
 21
82.5329205342
  0
LINE
  5
478
100
AcDbEntity
  8
0
100
AcDbLine
 62
7
  6
CONTINUOUS
 10
147.0537648575
 20
83.8703365104
 11
147.0533960611
 21
83.8596829979
  0
LWPOLYLINE
  5
479
100
AcDbEntity
  8
0
100
AcDbPolyline
 62
253
  6
CONTINUOUS
 90
16
 70
0
 10
155.7114463883
 20
148.6217603087
 10
155.7117406868
 20
148.6233672107
 10
155.7113189014
 20
148.628498892
 10
155.7112860443
 20
148.6365463668
 10
155.7135541323
 20
148.646533945
 10
155.7182335908
 20
148.6578505347
 10
155.7232751195
 20
148.670548534
 10
155.7286168643
 20
148.6861667141
 10
155.7367033429
 20
148.7032846484
 10
155.7459592872
 20
148.7196422008
 10
155.7543442711
 20
148.7372332562
 10
155.7643394695
 20
148.7575126882
 10
155.7765868601
 20
148.7778720944
 10
155.7895299491
 20
148.7973664007
 10
155.801633735
 20
148.8173416268
 10
155.8114425817
 20
148.8381746782
  0
LWPOLYLINE
  5
47A
100
AcDbEntity
  8
0
100
AcDbPolyline
 62
253
  6
CONTINUOUS
 90
22
 70
0
 10
130.3689108343
 20
75.0676667693
 10
130.3752933734
 20
75.0808736894
 10
130.3827583034
 20
75.0932665896
 10
130.3912477471
 20
75.1047931504
 10
130.4006783989
 20
75.1153817394
 10
130.4110079412
 20
75.1250183361
 10
130.4222503055
 20
75.1337290647
 10
130.4343608151
 20
75.1414731507
 10
130.4472741389
 20
75.1481960161
 10
130.4609875402
 20
75.153881347
 10
130.475441508
 20
75.1584792365
 10
130.4905735754
 20
75.1619445794
 10
130.5063797114
 20
75.1642487755
 10
130.522812363
 20
75.1653395052
 10
130.5397748636
 20
75.1651684184
 10
130.5571848698
 20
75.1637028992
 10
130.5749730922
 20
75.1608976192
 10
130.5930314975
 20
75.1567248317
 10
130.6112125516
 20
75.1511872803
 10
130.6293998448
 20
75.1442795227
 10
130.6475082083
 20
75.1359858846
 10
130.6654327288
 20
75.1263089724
  0
LINE
  5
47B
100
AcDbEntity
  8
0
100
AcDbLine
 62
253
  6
CONTINUOUS
 10
129.9877384169
 20
74.6892225906
 11
130.2061522369
 21
75.126245294
  0
LINE
  5
47C
100
AcDbEntity
  8
0
100
AcDbLine
 62
253
  6
CONTINUOUS
 10
130.1504978753
 20
74.6315383969
 11
130.3689107874
 21
75.0676667979
  0
LWPOLYLINE
  5
47D
100
AcDbEntity
  8
0
100
AcDbPolyline
 62
253
  6
CONTINUOUS
 90
22
 70
0
 10
130.2061522369
 20
75.126245294
 10
130.2204875572
 20
75.1519956502
 10
130.2364446368
 20
75.1761172538
 10
130.2540234755
 20
75.1986098838
 10
130.2732904599
 20
75.2195200613
 10
130.2941792035
 20
75.2388008725
 10
130.3164905466
 20
75.2563119521
 10
130.340236864
 20
75.2720812671
 10
130.3654057808
 20
75.2860805241
 10
130.3917610133
 20
75.2980849608
 10
130.4193209748
 20
75.3081045751
 10
130.4480672518
 20
75.3161291258
 10
130.4777083206
 20
75.3219034967
 10
130.5083050171
 20
75.3254223804
 10
130.5397965054
 20
75.3266909685
 10
130.571708753
 20
75.3254699232
 10
130.6040926117
 20
75.3217161715
 10
130.6368972297
 20
75.3154728551
 10
130.66949602
 20
75.3066300121
 10
130.7016801199
 20
75.2951510877
 10
130.733658392
 20
75.2810729307
 10
130.7654308362
 20
75.2643957441
  0
LINE
  5
47E
100
AcDbEntity
  8
0
100
AcDbLine
 62
7
  6
CONTINUOUS
 10
159.9759672781
 20
129.13351269
 11
159.8738396307
 21
128.9668458962
  0
LINE
  5
47F
100
AcDbEntity
  8
0
100
AcDbLine
 62
7
  6
CONTINUOUS
 10
160.5546907087
 20
129.1668458962
 11
160.4525630613
 21
129.0001791023
  0
LINE
  5
480
100
AcDbEntity
  8
0
100
AcDbLine
 62
7
  6
CONTINUOUS
 10
159.9759672781
 20
127.6668458962
 11
159.8738396307
 21
127.5001791023
  0
LINE
  5
481
100
AcDbEntity
  8
0
100
AcDbLine
 62
7
  6
CONTINUOUS
 10
160.5546907087
 20
127.7001791023
 11
160.4525630613
 21
127.53351269
  0
LINE
  5
482
100
AcDbEntity
  8
0
100
AcDbLine
 62
7
  6
CONTINUOUS
 10
159.9759672781
 20
126.2001792931
 11
159.8738396307
 21
126.0335124992
  0
LINE
  5
483
100
AcDbEntity
  8
0
100
AcDbLine
 62
7
  6
CONTINUOUS
 10
161.3036268731
 20
128.33351269
 11
161.4057545294
 21
128.5001791023
  0
LINE
  5
484
100
AcDbEntity
  8
0
100
AcDbLine
 62
7
  6
CONTINUOUS
 10
160.0440523763
 20
128.93351269
 11
160.1121374746
 21
129.03351269
  0
LINE
  5
485
100
AcDbEntity
  8
0
100
AcDbLine
 62
7
  6
CONTINUOUS
 10
160.622775807
 20
128.9668458962
 11
160.6908609052
 21
129.0668458962
  0
LINE
  5
486
100
AcDbEntity
  8
0
100
AcDbLine
 62
7
  6
CONTINUOUS
 10
160.0440523763
 20
127.4668458962
 11
160.1121374746
 21
127.5668458962
  0
LINE
  5
487
100
AcDbEntity
  8
0
100
AcDbLine
 62
7
  6
CONTINUOUS
 10
161.2355417629
 20
128.53351269
 11
161.1674566646
 21
128.43351269
  0
LINE
  5
488
100
AcDbEntity
  8
0
100
AcDbLine
 62
7
  6
CONTINUOUS
 10
160.622775807
 20
127.5001791023
 11
160.6908609052
 21
127.6001791023
  0
LINE
  5
489
100
AcDbEntity
  8
0
100
AcDbLine
 62
7
  6
CONTINUOUS
 10
160.0440523763
 20
126.0001792931
 11
160.1121374746
 21
126.1001792931
  0
LINE
  5
48A
100
AcDbEntity
  8
0
100
AcDbLine
 62
7
  6
CONTINUOUS
 10
161.2355417629
 20
127.0668458962
 11
161.1674566646
 21
126.9668458962
  0
LINE
  5
48B
100
AcDbEntity
  8
0
100
AcDbLine
 62
7
  6
CONTINUOUS
 10
160.622775807
 20
126.0335124992
 11
160.6908609052
 21
126.1335124992
  0
LINE
  5
48C
100
AcDbEntity
  8
0
100
AcDbLine
 62
7
  6
CONTINUOUS
 10
160.0440523763
 20
124.5335125946
 11
160.1121374746
 21
124.6335125946
  0
LINE
  5
48D
100
AcDbEntity
  8
0
100
AcDbLine
 62
7
  6
CONTINUOUS
 10
127.4397970815
 20
86.8668458962
 11
127.5493318032
 21
86.9763806178
  0
LINE
  5
48E
100
AcDbEntity
  8
0
100
AcDbLine
 62
7
  6
CONTINUOUS
 10
129.6404060815
 20
98.9601658962
 11
130.9397970815
 21
99.7780228962
  0
LINE
  5
48F
100
AcDbEntity
  8
0
100
AcDbLine
 62
7
  6
CONTINUOUS
 10
130.6394520815
 20
99.8114598962
 11
129.3397970815
 21
99.0069308962
  0
LINE
  5
490
100
AcDbEntity
  8
0
100
AcDbLine
 62
7
  6
CONTINUOUS
 10
130.9397970815
 20
104.2483958962
 11
129.3397970815
 21
103.6689148962
  0
LINE
  5
491
100
AcDbEntity
  8
0
100
AcDbLine
 62
7
  6
CONTINUOUS
 10
130.4740950815
 20
103.8539018962
 11
130.9397970815
 21
104.0121158962
  0
LINE
  5
492
100
AcDbEntity
  8
0
100
AcDbLine
 62
7
  6
CONTINUOUS
 10
129.5718750815
 20
103.5374998962
 11
130.2824580815
 21
103.7758878962
  0
LINE
  5
493
100
AcDbEntity
  8
0
100
AcDbLine
 62
7
  6
CONTINUOUS
 10
127.4397970815
 20
133.2668458962
 11
127.5493318032
 21
133.1573111745
  0
LWPOLYLINE
  5
494
100
AcDbEntity
  8
0
100
AcDbPolyline
 62
7
  6
CONTINUOUS
 90
45
 70
0
 10
160.6830950861
 20
97.4129919542
 10
160.6759134138
 20
97.4210616942
 10
160.6683532858
 20
97.4292268735
 10
160.6604233092
 20
97.437502019
 10
160.652114877
 20
97.4458726042
 10
160.6433014943
 20
97.4542531096
 10
160.6339725306
 20
97.4626536379
 10
160.6241386165
 20
97.4710640864
 10
160.6137051487
 20
97.4793686265
 10
160.6026614148
 20
97.4875542823
 10
160.5910181273
 20
97.4956340293
 10
160.5787128199
 20
97.5035309658
 10
160.565743029
 20
97.5112539458
 10
160.5521112182
 20
97.5187941147
 10
160.5377623116
 20
97.5260480086
 10
160.5226966277
 20
97.533030561
 10
160.506913848
 20
97.5397268376
 10
160.4903579413
 20
97.5459885723
 10
160.4730191723
 20
97.5518284146
 10
160.4549072764
 20
97.557233714
 10
160.4359954284
 20
97.5620182542
 10
160.416265226
 20
97.5661843444
 10
160.3957350715
 20
97.5697296743
 10
160.3744333459
 20
97.5724610973
 10
160.3524078947
 20
97.5743901549
 10
160.3296108724
 20
97.5755053049
 10
160.3059271236
 20
97.5755787758
 10
160.2813127471
 20
97.5747060398
 10
160.2558116442
 20
97.572791625
 10
160.2294403629
 20
97.5693213442
 10
160.2020286003
 20
97.5643440738
 10
160.1737466592
 20
97.5578109399
 10
160.1451219961
 20
97.5490611317
 10
160.1158977215
 20
97.5378474729
 10
160.0863307248
 20
97.5244171484
 10
160.0577191302
 20
97.5088508912
 10
160.0302206164
 20
97.490980436
 10
160.0036775048
 20
97.4709740619
 10
159.978914884
 20
97.4494173172
 10
159.9559942664
 20
97.4261427569
 10
159.9348541396
 20
97.4013178397
 10
159.9161350547
 20
97.3760304625
 10
159.9000505288
 20
97.3506432569
 10
159.8863870448
 20
97.3247935947
 10
159.8751446027
 20
97.2984814784
  0
LINE
  5
495
100
AcDbEntity
  8
0
100
AcDbLine
 62
7
  6
CONTINUOUS
 10
160.6966749751
 20
97.3973292866
 11
160.6830950861
 21
97.4129919542
  0
LINE
  5
496
100
AcDbEntity
  8
0
100
AcDbLine
 62
253
  6
CONTINUOUS
 10
130.3689121226
 20
145.0660223317
 11
130.1504985633
 21
145.5021520198
  0
LINE
  5
497
100
AcDbEntity
  8
0
100
AcDbLine
 62
253
  6
CONTINUOUS
 10
130.2061522369
 20
145.0074464983
 11
129.9877384169
 21
145.4444692017
  0
LWPOLYLINE
  5
498
100
AcDbEntity
  8
0
100
AcDbPolyline
 62
253
  6
CONTINUOUS
 90
19
 70
0
 10
160.7290957146
 20
74.6315398352
 10
160.7347603509
 20
74.6162863957
 10
160.7390103591
 20
74.6001538983
 10
160.7417670102
 20
74.5832262627
 10
160.7429440522
 20
74.5656010838
 10
160.7424881845
 20
74.5473759573
 10
160.7403718373
 20
74.5286469881
 10
160.7365173247
 20
74.5095009332
 10
160.7308879321
 20
74.490097179
 10
160.7235329438
 20
74.4706514875
 10
160.7144100342
 20
74.4512785871
 10
160.7035318376
 20
74.4321490497
 10
160.6910787006
 20
74.4135587927
 10
160.6770750307
 20
74.3956313699
 10
160.6615874284
 20
74.3785149932
 10
160.6449239456
 20
74.3625097442
 10
160.627266872
 20
74.3477701631
 10
160.6086445452
 20
74.3343258325
 10
160.5891707712
 20
74.3222543744
  0
LWPOLYLINE
  5
499
100
AcDbEntity
  8
0
100
AcDbPolyline
 62
253
  6
CONTINUOUS
 90
16
 70
0
 10
155.7114463883
 20
71.5119314836
 10
155.7117406872
 20
71.5103245819
 10
155.7113189018
 20
71.5051929006
 10
155.7112860443
 20
71.4971454253
 10
155.7135541329
 20
71.4871578476
 10
155.7182335918
 20
71.4758412583
 10
155.7232751194
 20
71.4631432577
 10
155.7286168634
 20
71.4475250749
 10
155.7367033429
 20
71.4304071403
 10
155.7459592868
 20
71.4140495904
 10
155.7543442686
 20
71.3964585362
 10
155.7643394669
 20
71.3761791034
 10
155.7765868593
 20
71.3558196969
 10
155.7895299494
 20
71.3363253914
 10
155.8016337357
 20
71.3163501657
 10
155.8114425806
 20
71.2955171135
  0
LINE
  5
49A
100
AcDbEntity
  8
0
100
AcDbLine
 62
7
  6
CONTINUOUS
 10
149.8051980815
 20
74.9141418962
 11
149.8051980815
 21
75.2195498962
  0
LINE
  5
49B
100
AcDbEntity
  8
0
100
AcDbLine
 62
7
  6
CONTINUOUS
 10
149.8478740815
 20
75.9852108962
 11
149.8478740815
 21
76.2914978962
  0
LINE
  5
49C
100
AcDbEntity
  8
0
100
AcDbLine
 62
7
  6
CONTINUOUS
 10
149.8670020815
 20
73.8947908962
 11
149.8670020815
 21
74.2010778962
  0
LINE
  5
49D
100
AcDbEntity
  8
0
100
AcDbLine
 62
7
  6
CONTINUOUS
 10
150.7397970815
 20
149.0668458962
 11
150.7397970815
 21
148.3018097354
  0
LINE
  5
49E
100
AcDbEntity
  8
0
100
AcDbLine
 62
7
  6
CONTINUOUS
 10
150.7397970815
 20
71.8318820569
 11
150.7397970815
 21
71.0668458962
  0
LINE
  5
49F
100
AcDbEntity
  8
0
100
AcDbLine
 62
7
  6
CONTINUOUS
 10
151.4397970815
 20
71.0668458962
 11
151.4397970815
 21
71.8318820569
  0
LINE
  5
4A0
100
AcDbEntity
  8
0
100
AcDbLine
 62
7
  6
CONTINUOUS
 10
151.4397970815
 20
148.3018097354
 11
151.4397970815
 21
149.0668458962
  0
LINE
  5
4A1
100
AcDbEntity
  8
0
100
AcDbLine
 62
253
  6
CONTINUOUS
 10
152.9397970815
 20
86.084807091
 11
152.9397970815
 21
87.5668458962
  0
LINE
  5
4A2
100
AcDbEntity
  8
0
100
AcDbLine
 62
253
  6
CONTINUOUS
 10
152.9397970815
 20
132.5668458962
 11
152.9397970815
 21
134.0488847013
  0
LINE
  5
4A3
100
AcDbEntity
  8
0
100
AcDbLine
 62
253
  6
CONTINUOUS
 10
153.2677097904
 20
71.1387634589
 11
153.2677097904
 21
71.2955171115
  0
LINE
  5
4A4
100
AcDbEntity
  8
0
100
AcDbLine
 62
253
  6
CONTINUOUS
 10
153.2677097904
 20
148.8381746824
 11
153.2677097904
 21
148.9949283334
  0
LWPOLYLINE
  5
4A5
100
AcDbEntity
  8
0
100
AcDbPolyline
 62
7
  6
CONTINUOUS
 90
10
 70
0
 10
144.8366258925
 20
82.4135183918
 10
144.8367766531
 20
82.4140917191
 10
144.8369276131
 20
82.4146021651
 10
144.8370787724
 20
82.4150497298
 10
144.8372301592
 20
82.4154344681
 10
144.8373817454
 20
82.4157563251
 10
144.8375334469
 20
82.4160151361
 10
144.8376852357
 20
82.4162108462
 10
144.8378371398
 20
82.4163435103
 10
144.8379891592
 20
82.4164131284
  0
LINE
  5
4A6
100
AcDbEntity
  8
0
100
AcDbLine
 62
7
  6
CONTINUOUS
 10
140.1447595428
 20
72.1314709174
 11
140.197624834
 21
72.2901957648
  0
LINE
  5
4A7
100
AcDbEntity
  8
0
100
AcDbLine
 62
7
  6
CONTINUOUS
 10
160.0100098272
 20
128.83351269
 11
160.0440523763
 21
128.93351269
  0
LINE
  5
4A8
100
AcDbEntity
  8
0
100
AcDbLine
 62
7
  6
CONTINUOUS
 10
133.2625210222
 20
73.577406909
 11
133.9201818393
 21
74.8142870129
  0
LINE
  5
4A9
100
AcDbEntity
  8
0
100
AcDbLine
 62
7
  6
CONTINUOUS
 10
131.7074516053
 20
73.7817258243
 11
131.9080409426
 21
74.1291567479
  0
LINE
  5
4AA
100
AcDbEntity
  8
0
100
AcDbLine
 62
7
  6
CONTINUOUS
 10
160.5546907087
 20
126.2335124992
 11
160.4525630613
 21
126.0668458962
  0
LINE
  5
4AB
100
AcDbEntity
  8
0
100
AcDbLine
 62
7
  6
CONTINUOUS
 10
159.9759672781
 20
124.7335124992
 11
159.8738396307
 21
124.5668458962
  0
LINE
  5
4AC
100
AcDbEntity
  8
0
100
AcDbLine
 62
7
  6
CONTINUOUS
 10
161.3036268731
 20
126.8668458962
 11
161.4057545294
 21
127.03351269
  0
LINE
  5
4AD
100
AcDbEntity
  8
0
100
AcDbLine
 62
7
  6
CONTINUOUS
 10
161.3036268731
 20
125.4001792931
 11
161.4057545294
 21
125.5668458962
  0
LINE
  5
4AE
100
AcDbEntity
  8
0
100
AcDbLine
 62
7
  6
CONTINUOUS
 10
160.7249034544
 20
123.9001791977
 11
160.8270311018
 21
124.0668458962
  0
LINE
  5
4AF
100
AcDbEntity
  8
0
100
AcDbLine
 62
7
  6
CONTINUOUS
 10
161.3036268731
 20
123.9335125946
 11
161.4057545294
 21
124.1001791977
  0
LINE
  5
4B0
100
AcDbEntity
  8
0
100
AcDbLine
 62
7
  6
CONTINUOUS
 10
161.2355417629
 20
125.6001792931
 11
161.1674566646
 21
125.5001792931
  0
LINE
  5
4B1
100
AcDbEntity
  8
0
100
AcDbLine
 62
7
  6
CONTINUOUS
 10
160.6568183561
 20
124.1001791977
 11
160.5887332578
 21
124.0001791977
  0
LINE
  5
4B2
100
AcDbEntity
  8
0
100
AcDbLine
 62
7
  6
CONTINUOUS
 10
161.2355417629
 20
124.1335125946
 11
161.1674566646
 21
124.0335125946
  0
LINE
  5
4B3
100
AcDbEntity
  8
0
100
AcDbLine
 62
7
  6
CONTINUOUS
 10
131.3656832546
 20
126.322667799
 11
131.102070925
 21
126.470624984
  0
LINE
  5
4B4
100
AcDbEntity
  8
0
100
AcDbLine
 62
7
  6
CONTINUOUS
 10
132.5307530815
 20
128.2308788962
 11
132.2929700815
 21
128.3986088962
  0
LINE
  5
4B5
100
AcDbEntity
  8
0
100
AcDbLine
 62
7
  6
CONTINUOUS
 10
131.7074516053
 20
146.351965968
 11
131.9080409426
 21
146.0045350444
  0
LINE
  5
4B6
100
AcDbEntity
  8
0
100
AcDbLine
 62
7
  6
CONTINUOUS
 10
133.9201818393
 20
145.3194047794
 11
133.2625210222
 21
146.5562848834
  0
LINE
  5
4B7
100
AcDbEntity
  8
0
100
AcDbLine
 62
7
  6
CONTINUOUS
 10
140.1447595428
 20
148.0022208749
 11
140.197624834
 21
147.8434960275
  0
LINE
  5
4B8
100
AcDbEntity
  8
0
100
AcDbLine
 62
253
  6
CONTINUOUS
 10
155.8114425806
 20
148.9949283334
 11
155.8114425806
 21
148.8381746808
  0
LINE
  5
4B9
100
AcDbEntity
  8
0
100
AcDbLine
 62
253
  6
CONTINUOUS
 10
155.8114425806
 20
71.2955171124
 11
155.8114425806
 21
71.1387634589
  0
LINE
  5
4BA
100
AcDbEntity
  8
RACCORDO
100
AcDbLine
 62
7
  6
CONTINUOUS
 10
156.6897970815
 20
131.7668458962
 11
156.6897970815
 21
88.3668458962
  0
LINE
  5
4BB
100
AcDbEntity
  8
0
100
AcDbLine
 62
7
  6
CONTINUOUS
 10
159.8738396307
 20
128.9668458962
 11
159.8397970815
 21
128.8001791023
  0
LINE
  5
4BC
100
AcDbEntity
  8
0
100
AcDbLine
 62
7
  6
CONTINUOUS
 10
159.8738396307
 20
127.5001791023
 11
159.8397970815
 21
127.33351269
  0
LINE
  5
4BD
100
AcDbEntity
  8
0
100
AcDbLine
 62
7
  6
CONTINUOUS
 10
160.4525630613
 20
129.0001791023
 11
160.4185205122
 21
128.83351269
  0
LINE
  5
4BE
100
AcDbEntity
  8
0
100
AcDbLine
 62
7
  6
CONTINUOUS
 10
159.8738396307
 20
126.0335124992
 11
159.8397970815
 21
125.8668458962
  0
LINE
  5
4BF
100
AcDbEntity
  8
0
100
AcDbLine
 62
7
  6
CONTINUOUS
 10
160.4525630613
 20
127.53351269
 11
160.4185205122
 21
127.3668458962
  0
LINE
  5
4C0
100
AcDbEntity
  8
0
100
AcDbLine
 62
7
  6
CONTINUOUS
 10
159.8738396307
 20
124.5668458962
 11
159.8397970815
 21
124.4001791977
  0
LINE
  5
4C1
100
AcDbEntity
  8
0
100
AcDbLine
 62
7
  6
CONTINUOUS
 10
160.4525630613
 20
126.0668458962
 11
160.4185205122
 21
125.9001792931
  0
LINE
  5
4C2
100
AcDbEntity
  8
0
100
AcDbLine
 62
7
  6
CONTINUOUS
 10
160.0100098272
 20
127.3668458962
 11
160.0440523763
 21
127.4668458962
  0
LINE
  5
4C3
100
AcDbEntity
  8
0
100
AcDbLine
 62
7
  6
CONTINUOUS
 10
160.5887332578
 20
128.8668458962
 11
160.622775807
 21
128.9668458962
  0
LINE
  5
4C4
100
AcDbEntity
  8
0
100
AcDbLine
 62
7
  6
CONTINUOUS
 10
160.0100098272
 20
125.9001792931
 11
160.0440523763
 21
126.0001792931
  0
LINE
  5
4C5
100
AcDbEntity
  8
0
100
AcDbLine
 62
7
  6
CONTINUOUS
 10
160.5887332578
 20
127.4001791023
 11
160.622775807
 21
127.5001791023
  0
LINE
  5
4C6
100
AcDbEntity
  8
0
100
AcDbLine
 62
7
  6
CONTINUOUS
 10
161.269584312
 20
128.63351269
 11
161.2355417629
 21
128.53351269
  0
LINE
  5
4C7
100
AcDbEntity
  8
0
100
AcDbLine
 62
7
  6
CONTINUOUS
 10
160.0100098272
 20
124.4335125946
 11
160.0440523763
 21
124.5335125946
  0
LINE
  5
4C8
100
AcDbEntity
  8
0
100
AcDbLine
 62
7
  6
CONTINUOUS
 10
160.5887332578
 20
125.9335124992
 11
160.622775807
 21
126.0335124992
  0
LINE
  5
4C9
100
AcDbEntity
  8
0
100
AcDbLine
 62
7
  6
CONTINUOUS
 10
161.269584312
 20
127.1668458962
 11
161.2355417629
 21
127.0668458962
  0
LINE
  5
4CA
100
AcDbEntity
  8
0
100
AcDbLine
 62
7
  6
CONTINUOUS
 10
160.6908609052
 20
124.2001791977
 11
160.6568183561
 21
124.1001791977
  0
LINE
  5
4CB
100
AcDbEntity
  8
0
100
AcDbLine
 62
7
  6
CONTINUOUS
 10
161.269584312
 20
125.7001792931
 11
161.2355417629
 21
125.6001792931
  0
LINE
  5
4CC
100
AcDbEntity
  8
0
100
AcDbLine
 62
7
  6
CONTINUOUS
 10
161.269584312
 20
124.2335125946
 11
161.2355417629
 21
124.1335125946
  0
LINE
  5
4CD
100
AcDbEntity
  8
0
100
AcDbLine
 62
7
  6
CONTINUOUS
 10
135.0811743701
 20
72.527406909
 11
135.7388351872
 21
73.7642870129
  0
LINE
  5
4CE
100
AcDbEntity
  8
0
100
AcDbLine
 62
7
  6
CONTINUOUS
 10
132.398419793
 20
74.0762959862
 11
133.1407589759
 21
75.2642870129
  0
LINE
  5
4CF
100
AcDbEntity
  8
0
100
AcDbLine
 62
7
  6
CONTINUOUS
 10
134.2170731409
 20
73.0262959862
 11
134.9594123238
 21
74.2142870129
  0
LINE
  5
4D0
100
AcDbEntity
  8
0
100
AcDbLine
 62
7
  6
CONTINUOUS
 10
130.9397970815
 20
94.2178908962
 11
129.3397970815
 21
93.6385258962
  0
LINE
  5
4D1
100
AcDbEntity
  8
0
100
AcDbLine
 62
7
  6
CONTINUOUS
 10
130.4740950815
 20
93.8234478962
 11
130.9397970815
 21
93.9816498962
  0
LINE
  5
4D2
100
AcDbEntity
  8
0
100
AcDbLine
 62
7
  6
CONTINUOUS
 10
129.5718750815
 20
93.5071368962
 11
130.2824580815
 21
93.7455118962
  0
LINE
  5
4D3
100
AcDbEntity
  8
0
100
AcDbLine
 62
7
  6
CONTINUOUS
 10
133.1407589759
 20
144.8694047794
 11
132.398419793
 21
146.0573958061
  0
LINE
  5
4D4
100
AcDbEntity
  8
0
100
AcDbLine
 62
7
  6
CONTINUOUS
 10
134.9594123238
 20
145.9194047794
 11
134.2170731409
 21
147.1073958061
  0
LINE
  5
4D5
100
AcDbEntity
  8
0
100
AcDbLine
 62
7
  6
CONTINUOUS
 10
135.0811743701
 20
147.6062848834
 11
135.7388351872
 21
146.3694047794
  0
LINE
  5
4D6
100
AcDbEntity
  8
0
100
AcDbLine
 62
7
  6
CONTINUOUS
 10
158.0840281512
 20
133.1905760214
 11
158.0840281512
 21
86.9431157709
  0
LINE
  5
4D7
100
AcDbEntity
  8
0
100
AcDbLine
 62
7
  6
CONTINUOUS
 10
159.8372850815
 20
92.9499388962
 11
159.8372850815
 21
92.5951108962
  0
LINE
  5
4D8
100
AcDbEntity
  8
0
100
AcDbLine
 62
7
  6
CONTINUOUS
 10
159.8373870815
 20
95.7970658962
 11
159.8373870815
 21
95.4538118962
  0
LINE
  5
4D9
100
AcDbEntity
  8
0
100
AcDbLine
 62
7
  6
CONTINUOUS
 10
159.8373870815
 20
94.7059528962
 11
159.8373870815
 21
94.3548848962
  0
LINE
  5
4DA
100
AcDbEntity
  8
0
100
AcDbLine
 62
7
  6
CONTINUOUS
 10
159.8373870815
 20
93.6489768962
 11
159.8373870815
 21
93.2944418962
  0
LINE
  5
4DB
100
AcDbEntity
  8
0
100
AcDbLine
 62
7
  6
CONTINUOUS
 10
159.8373870815
 20
92.4634338962
 11
159.8373870815
 21
92.1088478962
  0
LINE
  5
4DC
100
AcDbEntity
  8
0
100
AcDbLine
 62
7
  6
CONTINUOUS
 10
159.8373870815
 20
91.4509008962
 11
159.8373870815
 21
91.0654478962
  0
LINE
  5
4DD
100
AcDbEntity
  8
0
100
AcDbLine
 62
7
  6
CONTINUOUS
 10
159.8397970815
 20
128.8001791023
 11
159.8397970815
 21
128.6668458962
  0
LINE
  5
4DE
100
AcDbEntity
  8
0
100
AcDbLine
 62
7
  6
CONTINUOUS
 10
159.8397970815
 20
127.33351269
 11
159.8397970815
 21
127.2001791023
  0
LINE
  5
4DF
100
AcDbEntity
  8
0
100
AcDbLine
 62
7
  6
CONTINUOUS
 10
159.8397970815
 20
125.8668458962
 11
159.8397970815
 21
125.7335124992
  0
LINE
  5
4E0
100
AcDbEntity
  8
0
100
AcDbLine
 62
7
  6
CONTINUOUS
 10
159.8397970815
 20
124.4001791977
 11
159.8397970815
 21
124.2335125946
  0
LINE
  5
4E1
100
AcDbEntity
  8
0
100
AcDbLine
 62
7
  6
CONTINUOUS
 10
159.8397970815
 20
123.4668458962
 11
159.8397970815
 21
123.2668458962
  0
LINE
  5
4E2
100
AcDbEntity
  8
0
100
AcDbLine
 62
7
  6
CONTINUOUS
 10
160.0100098272
 20
124.2001791977
 11
160.0100098272
 21
124.4335125946
  0
LINE
  5
4E3
100
AcDbEntity
  8
0
100
AcDbLine
 62
7
  6
CONTINUOUS
 10
160.0100098272
 20
125.7001792931
 11
160.0100098272
 21
125.9001792931
  0
LINE
  5
4E4
100
AcDbEntity
  8
0
100
AcDbLine
 62
7
  6
CONTINUOUS
 10
160.0100098272
 20
127.1668458962
 11
160.0100098272
 21
127.3668458962
  0
LINE
  5
4E5
100
AcDbEntity
  8
0
100
AcDbLine
 62
7
  6
CONTINUOUS
 10
160.0100098272
 20
128.63351269
 11
160.0100098272
 21
128.83351269
  0
LINE
  5
4E6
100
AcDbEntity
  8
0
100
AcDbLine
 62
7
  6
CONTINUOUS
 10
160.214265122
 20
126.1668458962
 11
160.214265122
 21
126.33351269
  0
LINE
  5
4E7
100
AcDbEntity
  8
0
100
AcDbLine
 62
7
  6
CONTINUOUS
 10
160.214265122
 20
127.63351269
 11
160.214265122
 21
127.8001791023
  0
LINE
  5
4E8
100
AcDbEntity
  8
0
100
AcDbLine
 62
7
  6
CONTINUOUS
 10
160.214265122
 20
129.1001791023
 11
160.214265122
 21
129.2668458962
  0
LINE
  5
4E9
100
AcDbEntity
  8
0
100
AcDbLine
 62
7
  6
CONTINUOUS
 10
160.4185205122
 20
128.83351269
 11
160.4185205122
 21
128.6668458962
  0
LINE
  5
4EA
100
AcDbEntity
  8
0
100
AcDbLine
 62
7
  6
CONTINUOUS
 10
160.4185205122
 20
127.3668458962
 11
160.4185205122
 21
127.2001791023
  0
LINE
  5
4EB
100
AcDbEntity
  8
0
100
AcDbLine
 62
7
  6
CONTINUOUS
 10
160.4185205122
 20
125.9001792931
 11
160.4185205122
 21
125.7335124992
  0
LINE
  5
4EC
100
AcDbEntity
  8
0
100
AcDbLine
 62
7
  6
CONTINUOUS
 10
160.5887332578
 20
125.7001792931
 11
160.5887332578
 21
125.9335124992
  0
LINE
  5
4ED
100
AcDbEntity
  8
0
100
AcDbLine
 62
7
  6
CONTINUOUS
 10
160.5887332578
 20
127.1668458962
 11
160.5887332578
 21
127.4001791023
  0
LINE
  5
4EE
100
AcDbEntity
  8
0
100
AcDbLine
 62
7
  6
CONTINUOUS
 10
160.5887332578
 20
128.63351269
 11
160.5887332578
 21
128.8668458962
  0
LINE
  5
4EF
100
AcDbEntity
  8
0
100
AcDbLine
 62
7
  6
CONTINUOUS
 10
160.5936216016
 20
96.9672355893
 11
160.5936216016
 21
96.7644548765
  0
LINE
  5
4F0
100
AcDbEntity
  8
0
100
AcDbLine
 62
7
  6
CONTINUOUS
 10
160.6908609052
 20
124.4335125946
 11
160.6908609052
 21
124.2001791977
  0
LINE
  5
4F1
100
AcDbEntity
  8
0
100
AcDbLine
 62
7
  6
CONTINUOUS
 10
161.4057545294
 20
128.5001791023
 11
161.4397970815
 21
128.6668458962
  0
LINE
  5
4F2
100
AcDbEntity
  8
0
100
AcDbLine
 62
7
  6
CONTINUOUS
 10
161.4057545294
 20
127.03351269
 11
161.4397970815
 21
127.2001791023
  0
LINE
  5
4F3
100
AcDbEntity
  8
0
100
AcDbLine
 62
7
  6
CONTINUOUS
 10
160.8270311018
 20
124.0668458962
 11
160.8610736986
 21
124.2335125946
  0
LINE
  5
4F4
100
AcDbEntity
  8
0
100
AcDbLine
 62
7
  6
CONTINUOUS
 10
161.4057545294
 20
125.5668458962
 11
161.4397970815
 21
125.7335124992
  0
LINE
  5
4F5
100
AcDbEntity
  8
0
100
AcDbLine
 62
7
  6
CONTINUOUS
 10
161.4057545294
 20
124.1001791977
 11
161.4397970815
 21
124.2668458962
  0
LWPOLYLINE
  5
4F6
100
AcDbEntity
  8
0
100
AcDbPolyline
 62
7
  6
CONTINUOUS
 90
8
 70
0
 10
144.8366259982
 20
82.4135187491
 10
144.8338353516
 20
82.4082546873
 10
144.8291646413
 20
82.4006726961
 10
144.8226138672
 20
82.3910762369
 10
144.8139602007
 20
82.3797981429
 10
144.8034264704
 20
82.3671074295
 10
144.7916811627
 20
82.3531571703
 10
144.7788028959
 20
82.3381752298
  0
LWPOLYLINE
  5
4F7
100
AcDbEntity
  8
0
100
AcDbPolyline
 62
7
  6
CONTINUOUS
 90
8
 70
0
 10
144.8350477081
 20
82.8606027424
 10
144.8322558192
 20
82.8554662754
 10
144.8275835807
 20
82.8480049377
 10
144.8210309925
 20
82.8385215838
 10
144.812375148
 20
82.8273483867
 10
144.8018389539
 20
82.8147544222
 10
144.7900911302
 20
82.8008933644
 10
144.7772103498
 20
82.7859929796
  0
LWPOLYLINE
  5
4F8
100
AcDbEntity
  8
RACCORDO
100
AcDbPolyline
 62
253
  6
CONTINUOUS
 90
3
 70
0
 10
126.5066952695
 20
69.6417264919
 10
126.4494777306
 20
69.5780909019
 10
126.4391118488
 20
69.5668458961
  0
LINE
  5
4F9
100
AcDbEntity
  8
RACCORDO
100
AcDbLine
 62
253
  6
CONTINUOUS
 10
127.34272168
 20
70.5668458643
 11
126.5066952695
 21
69.6417264919
  0
LINE
  5
4FA
100
AcDbEntity
  8
0
100
AcDbLine
 62
253
  6
CONTINUOUS
 10
127.5117146443
 20
71.338732998
 11
127.4397970815
 21
71.2668154352
  0
LINE
  5
4FB
100
AcDbEntity
  8
0
100
AcDbLine
 62
253
  6
CONTINUOUS
 10
127.7116841834
 20
71.1387634589
 11
127.6397666206
 21
71.0668458962
  0
LINE
  5
4FC
100
AcDbEntity
  8
0
100
AcDbLine
 62
7
  6
CONTINUOUS
 10
130.6990260815
 20
91.8356528962
 11
129.3397970815
 21
91.3766088962
  0
LINE
  5
4FD
100
AcDbEntity
  8
0
100
AcDbLine
 62
7
  6
CONTINUOUS
 10
129.5982040815
 20
91.2763078962
 11
130.9397970815
 21
91.7264858962
  0
LINE
  5
4FE
100
AcDbEntity
  8
0
100
AcDbLine
 62
7
  6
CONTINUOUS
 10
160.5206481596
 20
124.9335124992
 11
160.2823503156
 21
124.9001792931
  0
LINE
  5
4FF
100
AcDbEntity
  8
0
100
AcDbLine
 62
7
  6
CONTINUOUS
 10
160.7589460035
 20
125.2001792931
 11
160.9972438951
 21
125.2335124992
  0
LINE
  5
500
100
AcDbEntity
  8
0
100
AcDbLine
 62
7
  6
CONTINUOUS
 10
160.7589460035
 20
126.6668458962
 11
160.9972438951
 21
126.7001791023
  0
LINE
  5
501
100
AcDbEntity
  8
0
100
AcDbLine
 62
7
  6
CONTINUOUS
 10
160.0780949255
 20
123.0668458962
 11
160.3504354139
 21
123.0668458962
  0
LINE
  5
502
100
AcDbEntity
  8
0
100
AcDbLine
 62
7
  6
CONTINUOUS
 10
160.1121374746
 20
123.2668458962
 11
161.4397970815
 21
123.2668458962
  0
LINE
  5
503
100
AcDbEntity
  8
0
100
AcDbLine
 62
7
  6
CONTINUOUS
 10
161.4397970815
 20
123.4668458962
 11
159.8397970815
 21
123.4668458962
  0
LINE
  5
504
100
AcDbEntity
  8
0
100
AcDbLine
 62
7
  6
CONTINUOUS
 10
160.2823503156
 20
123.7335125469
 11
160.4185205122
 21
123.7335125469
  0
LINE
  5
505
100
AcDbEntity
  8
0
100
AcDbLine
 62
7
  6
CONTINUOUS
 10
160.384477963
 20
123.9001791977
 11
160.3163928648
 21
123.9001791977
  0
LINE
  5
506
100
AcDbEntity
  8
0
100
AcDbLine
 62
7
  6
CONTINUOUS
 10
160.3163928648
 20
124.7335124992
 11
160.384477963
 21
124.7335124992
  0
LINE
  5
507
100
AcDbEntity
  8
0
100
AcDbLine
 62
7
  6
CONTINUOUS
 10
160.6908609052
 20
124.7668458962
 11
160.7589460035
 21
124.7668458962
  0
LINE
  5
508
100
AcDbEntity
  8
0
100
AcDbLine
 62
7
  6
CONTINUOUS
 10
160.7589460035
 20
124.9335124992
 11
160.5206481596
 21
124.9335124992
  0
LINE
  5
509
100
AcDbEntity
  8
0
100
AcDbLine
 62
7
  6
CONTINUOUS
 10
160.5206481596
 20
125.2001792931
 11
160.7589460035
 21
125.2001792931
  0
LINE
  5
50A
100
AcDbEntity
  8
0
100
AcDbLine
 62
7
  6
CONTINUOUS
 10
160.5887332578
 20
125.3668458962
 11
160.5206481596
 21
125.3668458962
  0
LINE
  5
50B
100
AcDbEntity
  8
0
100
AcDbLine
 62
7
  6
CONTINUOUS
 10
160.963201346
 20
125.4001792931
 11
160.8610736986
 21
125.4001792931
  0
LINE
  5
50C
100
AcDbEntity
  8
0
100
AcDbLine
 62
253
  6
CONTINUOUS
 10
127.5117146443
 20
148.7949587943
 11
127.4397970815
 21
148.8668763571
  0
LINE
  5
50D
100
AcDbEntity
  8
0
100
AcDbLine
 62
253
  6
CONTINUOUS
 10
127.7116841834
 20
148.9949283334
 11
127.6397666206
 21
149.0668458962
  0
LINE
  5
50E
100
AcDbEntity
  8
RACCORDO
100
AcDbLine
 62
253
  6
CONTINUOUS
 10
126.4391118508
 20
150.566845895
 11
127.0922432049
 21
149.8440435278
  0
LWPOLYLINE
  5
50F
100
AcDbEntity
  8
RACCORDO
100
AcDbPolyline
 62
253
  6
CONTINUOUS
 90
3
 70
0
 10
127.0922432049
 20
149.8440435278
 10
127.1729694571
 20
149.7541544785
 10
127.3427217236
 20
149.5668458761
  0
LWPOLYLINE
  5
510
100
AcDbEntity
  8
0
100
AcDbPolyline
 62
7
  6
CONTINUOUS
 90
9
 70
0
 10
144.8350477081
 20
137.2730890499
 10
144.8322558192
 20
137.278225517
 10
144.8275835806
 20
137.2856868548
 10
144.8210309923
 20
137.2951702088
 10
144.8123751477
 20
137.306343406
 10
144.8018389535
 20
137.3189373706
 10
144.7900911296
 20
137.3327984286
 10
144.7772103492
 20
137.3476988134
 10
144.7482465997
 20
137.3799328813
  0
LWPOLYLINE
  5
511
100
AcDbEntity
  8
0
100
AcDbPolyline
 62
7
  6
CONTINUOUS
 90
9
 70
0
 10
144.8366259982
 20
137.7201730432
 10
144.8338353516
 20
137.725437105
 10
144.8291646413
 20
137.7330190962
 10
144.8226138672
 20
137.7426155554
 10
144.8139602007
 20
137.7538936494
 10
144.8034264704
 20
137.7665843628
 10
144.7916811627
 20
137.780534622
 10
144.7788028959
 20
137.7955165625
 10
144.7498442613
 20
137.8278915554
  0
LWPOLYLINE
  5
512
100
AcDbEntity
  8
0
100
AcDbPolyline
 62
7
  6
CONTINUOUS
 90
9
 70
0
 10
160.7337248713
 20
97.3350656276
 10
160.7318029299
 20
97.343169606
 10
160.7290110826
 20
97.3511695325
 10
160.7253493295
 20
97.3590654068
 10
160.7206366264
 20
97.3668274496
 10
160.7150540174
 20
97.3744854399
 10
160.7091446348
 20
97.3821287156
 10
160.7030731918
 20
97.3897363584
 10
160.6966749751
 20
97.3973292866
  0
LWPOLYLINE
  5
513
100
AcDbEntity
  8
0
100
AcDbPolyline
 62
7
  6
CONTINUOUS
 90
10
 70
0
 10
160.1269761191
 20
96.7644548765
 10
160.1217609129
 20
96.7958358579
 10
160.1175682748
 20
96.8270733286
 10
160.114398205
 20
96.8581672876
 10
160.1122463739
 20
96.8890916441
 10
160.1111171111
 20
96.9198724866
 10
160.1110234042
 20
96.9505880836
 10
160.1119695827
 20
96.9812645243
 10
160.1139513171
 20
97.0118757184
 10
160.1169686075
 20
97.0424216655
  0
LINE
  5
514
100
AcDbEntity
  8
0
100
AcDbLine
 62
253
  6
CONTINUOUS
 10
161.84222973
 20
133.6451946684
 11
161.8123522616
 21
134.031580518
  0
LINE
  5
515
100
AcDbEntity
  8
0
100
AcDbLine
 62
253
  6
CONTINUOUS
 10
162.0761923659
 20
133.6452058076
 11
162.0470540901
 21
134.0267383505
  0
LWPOLYLINE
  5
516
100
AcDbEntity
  8
0
100
AcDbPolyline
 62
253
  6
CONTINUOUS
 90
3
 70
0
 10
161.873760565
 20
133.2023547149
 10
161.8679331709
 20
133.2874973383
 10
161.84222973
 20
133.6451946684
  0
LWPOLYLINE
  5
517
100
AcDbEntity
  8
0
100
AcDbPolyline
 62
253
  6
CONTINUOUS
 90
3
 70
0
 10
162.1070306728
 20
133.2071902472
 10
162.1013105055
 20
133.2915211825
 10
162.0761923659
 20
133.6452058076
  0
LINE
  5
518
100
AcDbEntity
  8
0
100
AcDbLine
 62
253
  6
CONTINUOUS
 10
163.1459620841
 20
78.1249583773
 11
163.1679099797
 21
71.2955171135
  0
LINE
  5
519
100
AcDbEntity
  8
0
100
AcDbLine
 62
253
  6
CONTINUOUS
 10
163.3459427684
 20
78.1495395492
 11
163.3678795188
 21
71.338732998
  0
LWPOLYLINE
  5
51A
100
AcDbEntity
  8
0
100
AcDbPolyline
 62
253
  6
CONTINUOUS
 90
3
 70
0
 10
163.13125751
 20
86.0548532082
 10
163.1331841867
 20
84.5185216102
 10
163.1459620841
 20
78.1249583773
  0
LWPOLYLINE
  5
51B
100
AcDbEntity
  8
0
100
AcDbPolyline
 62
253
  6
CONTINUOUS
 90
3
 70
0
 10
163.3312380814
 20
86.058286896
 10
163.3331662038
 20
84.5250857698
 10
163.3459427684
 20
78.1495395492
  0
LINE
  5
51C
100
AcDbEntity
  8
0
100
AcDbLine
 62
253
  6
CONTINUOUS
 10
163.122353821
 20
98.7976243509
 11
163.1302785033
 21
86.9798195309
  0
LINE
  5
51D
100
AcDbEntity
  8
0
100
AcDbLine
 62
253
  6
CONTINUOUS
 10
163.3223233649
 20
98.8026385376
 11
163.3302623599
 21
86.9763806178
  0
LINE
  5
51E
100
AcDbEntity
  8
0
100
AcDbLine
 62
7
  6
CONTINUOUS
 10
160.8610736986
 20
124.2335125946
 11
160.8610736986
 21
124.4001791977
  0
LINE
  5
51F
100
AcDbEntity
  8
0
100
AcDbLine
 62
7
  6
CONTINUOUS
 10
160.8720180542
 20
96.7762204408
 11
160.8720180542
 21
96.9664707639
  0
LINE
  5
520
100
AcDbEntity
  8
0
100
AcDbLine
 62
7
  6
CONTINUOUS
 10
160.9353070815
 20
95.7818198962
 11
160.9353070815
 21
95.4420968962
  0
LINE
  5
521
100
AcDbEntity
  8
0
100
AcDbLine
 62
7
  6
CONTINUOUS
 10
161.0653289934
 20
123.9668458962
 11
161.0653289934
 21
123.8001792454
  0
LINE
  5
522
100
AcDbEntity
  8
0
100
AcDbLine
 62
7
  6
CONTINUOUS
 10
161.1978970815
 20
95.3695148962
 11
161.1978970815
 21
95.8527318962
  0
LINE
  5
523
100
AcDbEntity
  8
0
100
AcDbLine
 62
7
  6
CONTINUOUS
 10
161.269584312
 20
128.8668458962
 11
161.269584312
 21
128.63351269
  0
LINE
  5
524
100
AcDbEntity
  8
0
100
AcDbLine
 62
7
  6
CONTINUOUS
 10
161.269584312
 20
127.4001791023
 11
161.269584312
 21
127.1668458962
  0
LINE
  5
525
100
AcDbEntity
  8
0
100
AcDbLine
 62
7
  6
CONTINUOUS
 10
161.269584312
 20
125.9335124992
 11
161.269584312
 21
125.7001792931
  0
LINE
  5
526
100
AcDbEntity
  8
0
100
AcDbLine
 62
7
  6
CONTINUOUS
 10
161.269584312
 20
124.4335125946
 11
161.269584312
 21
124.2335125946
  0
LINE
  5
527
100
AcDbEntity
  8
0
100
AcDbLine
 62
7
  6
CONTINUOUS
 10
161.4397970815
 20
123.2668458962
 11
161.4397970815
 21
123.4668458962
  0
LINE
  5
528
100
AcDbEntity
  8
0
100
AcDbLine
 62
7
  6
CONTINUOUS
 10
161.4397970815
 20
124.2668458962
 11
161.4397970815
 21
124.4001791977
  0
LINE
  5
529
100
AcDbEntity
  8
0
100
AcDbLine
 62
7
  6
CONTINUOUS
 10
161.4397970815
 20
125.7335124992
 11
161.4397970815
 21
125.9001792931
  0
LINE
  5
52A
100
AcDbEntity
  8
0
100
AcDbLine
 62
7
  6
CONTINUOUS
 10
161.4397970815
 20
127.2001791023
 11
161.4397970815
 21
127.3668458962
  0
LINE
  5
52B
100
AcDbEntity
  8
0
100
AcDbLine
 62
7
  6
CONTINUOUS
 10
161.4397970815
 20
128.6668458962
 11
161.4397970815
 21
128.83351269
  0
LINE
  5
52C
100
AcDbEntity
  8
0
100
AcDbLine
 62
7
  6
CONTINUOUS
 10
161.5372500815
 20
91.6043368962
 11
161.5372500815
 21
91.9170298962
  0
LINE
  5
52D
100
AcDbEntity
  8
0
100
AcDbLine
 62
7
  6
CONTINUOUS
 10
161.5372500815
 20
92.5951108962
 11
161.5372500815
 21
92.9499388962
  0
LINE
  5
52E
100
AcDbEntity
  8
0
100
AcDbLine
 62
7
  6
CONTINUOUS
 10
161.5372500815
 20
93.1409538962
 11
161.5372500815
 21
93.4804088962
  0
LINE
  5
52F
100
AcDbEntity
  8
0
100
AcDbLine
 62
7
  6
CONTINUOUS
 10
161.5372500815
 20
93.9732368962
 11
161.5372500815
 21
94.0230018962
  0
LINE
  5
530
100
AcDbEntity
  8
0
100
AcDbLine
 62
7
  6
CONTINUOUS
 10
161.5372500815
 20
94.5177928962
 11
161.5372500815
 21
94.8649088962
  0
LINE
  5
531
100
AcDbEntity
  8
0
100
AcDbLine
 62
7
  6
CONTINUOUS
 10
161.5372500815
 20
94.9206268962
 11
161.5372500815
 21
95.2716048962
  0
LINE
  5
532
100
AcDbEntity
  8
0
100
AcDbLine
 62
7
  6
CONTINUOUS
 10
161.5372500815
 20
95.9446508962
 11
161.5372500815
 21
96.3186258962
  0
LINE
  5
533
100
AcDbEntity
  8
0
100
AcDbLine
 62
7
  6
CONTINUOUS
 10
161.5372504568
 20
96.4228201088
 11
161.5372504568
 21
96.7762204408
  0
LINE
  5
534
100
AcDbEntity
  8
0
100
AcDbLine
 62
7
  6
CONTINUOUS
 10
161.5372504568
 20
97.3195906599
 11
161.5372504568
 21
97.6608940033
  0
LINE
  5
535
100
AcDbEntity
  8
0
100
AcDbLine
 62
253
  6
CONTINUOUS
 10
163.1679099797
 20
71.2955171135
 11
163.1679099799
 21
71.1387634589
  0
LINE
  5
536
100
AcDbEntity
  8
0
100
AcDbLine
 62
7
  6
CONTINUOUS
 10
163.4397970815
 20
71.2668154352
 11
163.4397970815
 21
86.1668458962
  0
LINE
  5
537
100
AcDbEntity
  8
0
100
AcDbLine
 62
7
  6
CONTINUOUS
 10
163.4397970815
 20
86.8668458962
 11
163.4397970815
 21
133.2668458962
  0
LINE
  5
538
100
AcDbEntity
  8
0
100
AcDbLine
 62
7
  6
CONTINUOUS
 10
163.4397970815
 20
133.9668458962
 11
163.4397970815
 21
148.8668763571
  0
LINE
  5
539
100
AcDbEntity
  8
RACCORDO
100
AcDbLine
 62
7
  6
CONTINUOUS
 10
163.9397971042
 20
70.9697707093
 11
163.9397970615
 21
149.1639214368
  0
LINE
  5
53A
100
AcDbEntity
  8
0
100
AcDbLine
 62
253
  6
CONTINUOUS
 10
163.1201579075
 20
113.8236770755
 11
163.122353821
 21
98.7976243509
  0
LINE
  5
53B
100
AcDbEntity
  8
0
100
AcDbLine
 62
253
  6
CONTINUOUS
 10
163.3201274451
 20
113.8219153281
 11
163.3223233649
 21
98.8026385376
  0
LINE
  5
53C
100
AcDbEntity
  8
0
100
AcDbLine
 62
253
  6
CONTINUOUS
 10
163.1267440712
 20
128.8442645839
 11
163.1201579075
 21
113.8236770755
  0
LINE
  5
53D
100
AcDbEntity
  8
0
100
AcDbLine
 62
253
  6
CONTINUOUS
 10
163.3267136583
 20
128.8355280472
 11
163.3201274451
 21
113.8219153281
  0
LINE
  5
53E
100
AcDbEntity
  8
0
100
AcDbLine
 62
253
  6
CONTINUOUS
 10
163.1302785033
 20
133.1538722663
 11
163.1267440712
 21
128.8442645839
  0
LINE
  5
53F
100
AcDbEntity
  8
0
100
AcDbLine
 62
253
  6
CONTINUOUS
 10
163.3302623599
 20
133.1573111745
 11
163.3267136583
 21
128.8355280472
  0
LINE
  5
540
100
AcDbEntity
  8
0
100
AcDbLine
 62
253
  6
CONTINUOUS
 10
163.1425096696
 20
140.6022880737
 11
163.1312575101
 21
134.0788385855
  0
LINE
  5
541
100
AcDbEntity
  8
0
100
AcDbLine
 62
253
  6
CONTINUOUS
 10
163.3424910742
 20
140.5810175434
 11
163.3312380814
 21
134.0754048963
  0
LWPOLYLINE
  5
542
100
AcDbEntity
  8
0
100
AcDbPolyline
 62
253
  6
CONTINUOUS
 90
3
 70
0
 10
163.1679099797
 20
148.9949283334
 10
163.1616682658
 20
147.1366551355
 10
163.1425096696
 20
140.6022880737
  0
LWPOLYLINE
  5
543
100
AcDbEntity
  8
0
100
AcDbPolyline
 62
253
  6
CONTINUOUS
 90
3
 70
0
 10
163.3678795188
 20
148.7949587943
 10
163.3616413803
 20
147.0966748568
 10
163.3424910742
 20
140.5810175434
  0
LINE
  5
544
100
AcDbEntity
  8
0
100
AcDbLine
 62
253
  6
CONTINUOUS
 10
162.1070306728
 20
86.9265015451
 11
162.082790837
 21
86.5789586423
  0
LWPOLYLINE
  5
545
100
AcDbEntity
  8
0
100
AcDbPolyline
 62
7
  6
CONTINUOUS
 90
13
 70
0
 10
160.8720180542
 20
96.9664707639
 10
160.8737429002
 20
96.9904113925
 10
160.8779510406
 20
97.0131060875
 10
160.8846424756
 20
97.0345548434
 10
160.8941796022
 20
97.0548322977
 10
160.9062000234
 20
97.0738638028
 10
160.9196165471
 20
97.0914254248
 10
160.9342750746
 20
97.1074835117
 10
160.9503297046
 20
97.1220717058
 10
160.9671555421
 20
97.1350670138
 10
160.9845442885
 20
97.1464284355
 10
161.0027042424
 20
97.1561969636
 10
161.0216354036
 20
97.164372595
  0
LINE
  5
546
100
AcDbEntity
  8
0
100
AcDbLine
 62
253
  6
CONTINUOUS
 10
161.873760565
 20
86.9313370774
 11
161.8489851551
 21
86.5801095551
  0
LWPOLYLINE
  5
547
100
AcDbEntity
  8
0
100
AcDbPolyline
 62
253
  6
CONTINUOUS
 90
3
 70
0
 10
162.082790837
 20
86.5789586423
 10
162.0547251191
 20
86.2047513529
 10
162.0470540901
 20
86.1069534418
  0
LWPOLYLINE
  5
548
100
AcDbEntity
  8
0
100
AcDbPolyline
 62
253
  6
CONTINUOUS
 90
3
 70
0
 10
161.8489851551
 20
86.5801095551
 10
161.8202098586
 20
86.2011824684
 10
161.8123522616
 20
86.1021112743
  0
LWPOLYLINE
  5
549
100
AcDbEntity
  8
0
100
AcDbPolyline
 62
7
  6
CONTINUOUS
 90
25
 70
0
 10
160.1169686075
 20
97.0424216655
 10
160.1190131944
 20
97.0563323014
 10
160.1217610016
 20
97.0699487601
 10
160.1252120292
 20
97.0832710409
 10
160.1293781522
 20
97.0963319129
 10
160.1342474955
 20
97.1090986055
 10
160.139784434
 20
97.1214728081
 10
160.1459883814
 20
97.1334708584
 10
160.152859924
 20
97.1450764168
 10
160.1603651962
 20
97.1561421565
 10
160.1685189639
 20
97.1666618112
 10
160.1773064611
 20
97.176641645
 10
160.1866495243
 20
97.1859531251
 10
160.1965706107
 20
97.1945605885
 10
160.207047263
 20
97.202499696
 10
160.2179339457
 20
97.2097489004
 10
160.229225933
 20
97.2163076742
 10
160.2409279507
 20
97.2221765431
 10
160.25290864
 20
97.2273355396
 10
160.2651582335
 20
97.2317956487
 10
160.2776864987
 20
97.235545884
 10
160.2903913785
 20
97.2385333219
 10
160.3032388539
 20
97.2407403207
 10
160.3162629441
 20
97.2421845212
 10
160.3294636489
 20
97.2428659233
  0
LWPOLYLINE
  5
54A
100
AcDbEntity
  8
0
100
AcDbPolyline
 62
7
  6
CONTINUOUS
 90
16
 70
0
 10
159.8751446027
 20
97.2984814784
 10
159.8605967777
 20
97.2532561011
 10
159.8480223102
 20
97.2059549076
 10
159.8374212001
 20
97.1565779174
 10
159.8287798329
 20
97.1050387686
 10
159.8221118232
 20
97.0514238652
 10
159.8174580149
 20
96.9959923745
 10
159.8148940134
 20
96.9387538218
 10
159.8143442133
 20
96.8796987235
 10
159.8156226422
 20
96.8190577293
 10
159.8188179162
 20
96.7568910774
 10
159.823841419
 20
96.6931385699
 10
159.8302413298
 20
96.6278502003
 10
159.8378670413
 20
96.5610426475
 10
159.8468691607
 20
96.492699276
 10
159.8572476879
 20
96.4228201088
  0
LINE
  5
54B
100
AcDbEntity
  8
0
100
AcDbLine
 62
7
  6
CONTINUOUS
 10
151.4447595428
 20
72.1314709174
 11
151.497624834
 21
72.2901957648
  0
LWPOLYLINE
  5
54C
100
AcDbEntity
  8
0
100
AcDbPolyline
 62
253
  6
CONTINUOUS
 90
4
 70
0
 10
137.5775463686
 20
71.2414694751
 10
137.5891488865
 20
71.2583740659
 10
137.6007595649
 20
71.2764427496
 10
137.6118843727
 20
71.2955171135
  0
LWPOLYLINE
  5
54D
100
AcDbEntity
  8
0
100
AcDbPolyline
 62
7
  6
CONTINUOUS
 90
3
 70
0
 10
144.7788028959
 20
82.3381752298
 10
144.7498442613
 20
82.3058002369
 10
144.7342396314
 20
82.2885915778
  0
LWPOLYLINE
  5
54E
100
AcDbEntity
  8
0
100
AcDbPolyline
 62
7
  6
CONTINUOUS
 90
3
 70
0
 10
144.7772103498
 20
82.7859929796
 10
144.7482466005
 20
82.7537589119
 10
144.7326394577
 20
82.7366103391
  0
LWPOLYLINE
  5
54F
100
AcDbEntity
  8
0
100
AcDbPolyline
 62
7
  6
CONTINUOUS
 90
3
 70
0
 10
144.7342396314
 20
82.2885915778
 10
144.7009968447
 20
82.2527994722
 10
144.6836783569
 20
82.2343334508
  0
LWPOLYLINE
  5
550
100
AcDbEntity
  8
0
100
AcDbPolyline
 62
7
  6
CONTINUOUS
 90
3
 70
0
 10
144.7326394577
 20
82.7366103391
 10
144.6993917066
 20
82.7009182052
 10
144.6820707816
 20
82.6824925678
  0
LWPOLYLINE
  5
551
100
AcDbEntity
  8
0
100
AcDbPolyline
 62
7
  6
CONTINUOUS
 90
3
 70
0
 10
144.6836783569
 20
82.2343334508
 10
144.647868717
 20
82.1967981199
 10
144.629632739
 20
82.1778380626
  0
LWPOLYLINE
  5
552
100
AcDbEntity
  8
0
100
AcDbPolyline
 62
7
  6
CONTINUOUS
 90
3
 70
0
 10
144.6820707816
 20
82.6824925678
 10
144.6462563522
 20
82.6450193156
 10
144.6280180178
 20
82.6260812975
  0
LWPOLYLINE
  5
553
100
AcDbEntity
  8
0
100
AcDbPolyline
 62
7
  6
CONTINUOUS
 90
4
 70
0
 10
144.629632739
 20
82.1778380626
 10
144.5744345541
 20
82.1213032688
 10
144.5561511152
 20
82.1028244807
 10
144.5378977171
 20
82.0846512467
  0
LWPOLYLINE
  5
554
100
AcDbEntity
  8
0
100
AcDbPolyline
 62
7
  6
CONTINUOUS
 90
4
 70
0
 10
144.6280180178
 20
82.6260812975
 10
144.5728129939
 20
82.5695782346
 10
144.5545273707
 20
82.5510991561
 10
144.5362718341
 20
82.5329205342
  0
LINE
  5
555
100
AcDbEntity
  8
0
100
AcDbLine
 62
7
  6
CONTINUOUS
 10
146.2897970815
 20
86.084807091
 11
146.259843235
 21
86.0548532444
  0
LINE
  5
556
100
AcDbEntity
  8
0
100
AcDbLine
 62
253
  6
CONTINUOUS
 10
143.826198102
 20
83.3530641647
 11
143.6340283437
 21
83.1608976223
  0
LINE
  5
557
100
AcDbEntity
  8
0
100
AcDbLine
 62
253
  6
CONTINUOUS
 10
144.1364788212
 20
83.0637103877
 11
143.9358976559
 21
82.8631378969
  0
LINE
  5
558
100
AcDbEntity
  8
0
100
AcDbLine
 62
7
  6
CONTINUOUS
 10
144.8360890822
 20
82.8631378969
 11
145.0397970815
 21
83.0668458962
  0
LINE
  5
559
100
AcDbEntity
  8
RACCORDO
100
AcDbLine
 62
253
  6
CONTINUOUS
 10
125.9510420872
 20
70.0765266387
 11
125.9397970814
 21
70.0661606633
  0
LINE
  5
55A
100
AcDbEntity
  8
RACCORDO
100
AcDbLine
 62
253
  6
CONTINUOUS
 10
126.9397970438
 20
70.9697704897
 11
125.9510420872
 21
70.0765266387
  0
LWPOLYLINE
  5
55B
100
AcDbEntity
  8
0
100
AcDbPolyline
 62
7
  6
CONTINUOUS
 90
6
 70
0
 10
161.0216354036
 20
97.164372595
 10
161.0744767805
 20
97.1824257953
 10
161.128493802
 20
97.2000824853
 10
161.183686468
 20
97.2173426635
 10
161.240139243
 20
97.2339465616
 10
161.3563183329
 20
97.2667441144
  0
LINE
  5
55C
100
AcDbEntity
  8
0
100
AcDbLine
 62
7
  6
CONTINUOUS
 10
128.6116350078
 20
86.8718083574
 11
128.7725634903
 21
86.9265015451
  0
LINE
  5
55D
100
AcDbEntity
  8
0
100
AcDbLine
 62
7
  6
CONTINUOUS
 10
161.5372500815
 20
96.3186258962
 11
159.8373870815
 21
95.7970658962
  0
LINE
  5
55E
100
AcDbEntity
  8
0
100
AcDbLine
 62
7
  6
CONTINUOUS
 10
161.3563183329
 20
97.2667441144
 11
161.5372504568
 21
97.3195906599
  0
LINE
  5
55F
100
AcDbEntity
  8
0
100
AcDbLine
 62
7
  6
CONTINUOUS
 10
160.7589460035
 20
128.13351269
 11
160.9972438951
 21
128.1668458962
  0
LINE
  5
560
100
AcDbEntity
  8
0
100
AcDbLine
 62
7
  6
CONTINUOUS
 10
160.8610736986
 20
126.2335124992
 11
160.963201346
 21
126.2335124992
  0
LINE
  5
561
100
AcDbEntity
  8
0
100
AcDbLine
 62
7
  6
CONTINUOUS
 10
160.9972438951
 20
126.4001791023
 11
160.8270311018
 21
126.4001791023
  0
LINE
  5
562
100
AcDbEntity
  8
0
100
AcDbLine
 62
7
  6
CONTINUOUS
 10
131.1888030815
 20
126.6129138962
 11
131.5102300815
 21
126.6129138962
  0
LINE
  5
563
100
AcDbEntity
  8
0
100
AcDbLine
 62
7
  6
CONTINUOUS
 10
128.5820260815
 20
126.6234108962
 11
128.9052210815
 21
126.6234108962
  0
LINE
  5
564
100
AcDbEntity
  8
0
100
AcDbLine
 62
7
  6
CONTINUOUS
 10
160.5206481596
 20
126.6668458962
 11
160.7589460035
 21
126.6668458962
  0
LINE
  5
565
100
AcDbEntity
  8
0
100
AcDbLine
 62
7
  6
CONTINUOUS
 10
160.5887332578
 20
126.83351269
 11
160.5206481596
 21
126.83351269
  0
LINE
  5
566
100
AcDbEntity
  8
0
100
AcDbLine
 62
7
  6
CONTINUOUS
 10
160.963201346
 20
126.8668458962
 11
160.8610736986
 21
126.8668458962
  0
LINE
  5
567
100
AcDbEntity
  8
0
100
AcDbLine
 62
7
  6
CONTINUOUS
 10
128.9052210815
 20
126.8977678962
 11
129.7247560815
 21
126.8977678962
  0
LINE
  5
568
100
AcDbEntity
  8
0
100
AcDbLine
 62
7
  6
CONTINUOUS
 10
130.1230870815
 20
126.8977678962
 11
131.1888030815
 21
126.8977678962
  0
LINE
  5
569
100
AcDbEntity
  8
0
100
AcDbLine
 62
7
  6
CONTINUOUS
 10
131.1888030815
 20
127.2401888962
 11
130.1194930815
 21
127.2401888962
  0
LINE
  5
56A
100
AcDbEntity
  8
0
100
AcDbLine
 62
7
  6
CONTINUOUS
 10
129.7247560815
 20
127.2401888962
 11
128.9052210815
 21
127.2401888962
  0
LINE
  5
56B
100
AcDbEntity
  8
0
100
AcDbLine
 62
7
  6
CONTINUOUS
 10
128.9052210815
 20
127.5144358962
 11
128.5820260815
 21
127.5144358962
  0
LINE
  5
56C
100
AcDbEntity
  8
0
100
AcDbLine
 62
7
  6
CONTINUOUS
 10
131.5102300815
 20
127.5249328962
 11
131.1888030815
 21
127.5249328962
  0
LINE
  5
56D
100
AcDbEntity
  8
0
100
AcDbLine
 62
7
  6
CONTINUOUS
 10
160.8610736986
 20
127.7001791023
 11
160.963201346
 21
127.7001791023
  0
LINE
  5
56E
100
AcDbEntity
  8
0
100
AcDbLine
 62
7
  6
CONTINUOUS
 10
160.9972438951
 20
127.8668458962
 11
160.8270311018
 21
127.8668458962
  0
LINE
  5
56F
100
AcDbEntity
  8
0
100
AcDbLine
 62
7
  6
CONTINUOUS
 10
160.5206481596
 20
128.13351269
 11
160.7589460035
 21
128.13351269
  0
LINE
  5
570
100
AcDbEntity
  8
0
100
AcDbLine
 62
7
  6
CONTINUOUS
 10
160.5887332578
 20
128.3001791023
 11
160.5206481596
 21
128.3001791023
  0
LINE
  5
571
100
AcDbEntity
  8
0
100
AcDbLine
 62
7
  6
CONTINUOUS
 10
160.963201346
 20
128.33351269
 11
160.8610736986
 21
128.33351269
  0
LINE
  5
572
100
AcDbEntity
  8
0
100
AcDbLine
 62
7
  6
CONTINUOUS
 10
160.9972438951
 20
124.9001792931
 11
160.7589460035
 21
124.9335124992
  0
LINE
  5
573
100
AcDbEntity
  8
0
100
AcDbLine
 62
7
  6
CONTINUOUS
 10
160.2823503156
 20
125.2335124992
 11
160.5206481596
 21
125.2001792931
  0
LINE
  5
574
100
AcDbEntity
  8
0
100
AcDbLine
 62
7
  6
CONTINUOUS
 10
160.2823503156
 20
126.7001791023
 11
160.5206481596
 21
126.6668458962
  0
LINE
  5
575
100
AcDbEntity
  8
0
100
AcDbLine
 62
7
  6
CONTINUOUS
 10
160.7589460035
 20
124.7668458962
 11
160.963201346
 21
124.7335124992
  0
LINE
  5
576
100
AcDbEntity
  8
0
100
AcDbLine
 62
7
  6
CONTINUOUS
 10
160.5206481596
 20
125.3668458962
 11
160.3163928648
 21
125.4001792931
  0
LINE
  5
577
100
AcDbEntity
  8
0
100
AcDbLine
 62
7
  6
CONTINUOUS
 10
160.5206481596
 20
126.83351269
 11
160.3163928648
 21
126.8668458962
  0
LWPOLYLINE
  5
578
100
AcDbEntity
  8
0
100
AcDbPolyline
 62
7
  6
CONTINUOUS
 90
8
 70
0
 10
127.5493318032
 20
133.1573111745
 10
127.5507885767
 20
133.156946291
 10
127.5543164455
 20
133.1565916973
 10
127.5599154095
 20
133.1562473934
 10
127.5677388707
 20
133.1559085984
 10
127.5776334271
 20
133.1555800932
 10
127.5891388735
 20
133.1552762206
 10
127.616856809
 20
133.1547490992
  0
LINE
  5
579
100
AcDbEntity
  8
0
100
AcDbLine
 62
7
  6
CONTINUOUS
 10
160.3163928648
 20
123.9001791977
 11
160.214265122
 21
123.9335125946
  0
LINE
  5
57A
100
AcDbEntity
  8
0
100
AcDbLine
 62
7
  6
CONTINUOUS
 10
160.384477963
 20
124.7335124992
 11
160.4866056104
 21
124.7001792931
  0
LINE
  5
57B
100
AcDbEntity
  8
0
100
AcDbLine
 62
7
  6
CONTINUOUS
 10
160.963201346
 20
124.7335124992
 11
161.0653289934
 21
124.7001792931
  0
LINE
  5
57C
100
AcDbEntity
  8
0
100
AcDbLine
 62
7
  6
CONTINUOUS
 10
128.7725634903
 20
133.2071902472
 11
128.6116350078
 21
133.2618834349
  0
LINE
  5
57D
100
AcDbEntity
  8
0
100
AcDbLine
 62
7
  6
CONTINUOUS
 10
160.1121374746
 20
123.8001792454
 11
160.2823503156
 21
123.7335125469
  0
LINE
  5
57E
100
AcDbEntity
  8
RACCORDO
100
AcDbLine
 62
253
  6
CONTINUOUS
 10
125.9397970832
 20
150.067531126
 11
126.8450195468
 21
149.2501807492
  0
LINE
  5
57F
100
AcDbEntity
  8
RACCORDO
100
AcDbLine
 62
253
  6
CONTINUOUS
 10
126.8450195468
 20
149.2501807492
 11
126.939797007
 21
149.1639213338
  0
LINE
  5
580
100
AcDbEntity
  8
0
100
AcDbLine
 62
7
  6
CONTINUOUS
 10
146.2897970815
 20
134.0488847013
 11
146.259843235
 21
134.0788385479
  0
LINE
  5
581
100
AcDbEntity
  8
0
100
AcDbLine
 62
253
  6
CONTINUOUS
 10
143.826198102
 20
136.7806276276
 11
143.634028386
 21
136.9728075723
  0
LINE
  5
582
100
AcDbEntity
  8
0
100
AcDbLine
 62
253
  6
CONTINUOUS
 10
144.1364788212
 20
137.0699814046
 11
143.9359091296
 21
137.2705538955
  0
LINE
  5
583
100
AcDbEntity
  8
0
100
AcDbLine
 62
7
  6
CONTINUOUS
 10
144.8360890822
 20
137.2705538955
 11
145.0397970815
 21
137.0668458962
  0
LWPOLYLINE
  5
584
100
AcDbEntity
  8
0
100
AcDbPolyline
 62
7
  6
CONTINUOUS
 90
3
 70
0
 10
144.5728129936
 20
137.564113558
 10
144.5545273706
 20
137.5825926363
 10
144.5362718341
 20
137.6007712581
  0
LWPOLYLINE
  5
585
100
AcDbEntity
  8
0
100
AcDbPolyline
 62
7
  6
CONTINUOUS
 90
3
 70
0
 10
144.5744345541
 20
138.0123885235
 10
144.5561511152
 20
138.0308673116
 10
144.5378977171
 20
138.0490405456
  0
LINE
  5
586
100
AcDbEntity
  8
0
100
AcDbLine
 62
7
  6
CONTINUOUS
 10
144.6280180172
 20
137.5076104955
 11
144.5728129936
 21
137.564113558
  0
LINE
  5
587
100
AcDbEntity
  8
0
100
AcDbLine
 62
7
  6
CONTINUOUS
 10
144.629632739
 20
137.9558537297
 11
144.5744345541
 21
138.0123885235
  0
LWPOLYLINE
  5
588
100
AcDbEntity
  8
0
100
AcDbPolyline
 62
7
  6
CONTINUOUS
 90
3
 70
0
 10
144.6820707808
 20
137.4511992254
 10
144.6642742491
 20
137.4698428462
 10
144.6280180172
 20
137.5076104955
  0
LWPOLYLINE
  5
589
100
AcDbEntity
  8
0
100
AcDbPolyline
 62
7
  6
CONTINUOUS
 90
3
 70
0
 10
144.6836783569
 20
137.8993583415
 10
144.6658842345
 20
137.918036042
 10
144.629632739
 20
137.9558537297
  0
LWPOLYLINE
  5
58A
100
AcDbEntity
  8
0
100
AcDbPolyline
 62
7
  6
CONTINUOUS
 90
4
 70
0
 10
144.7482465997
 20
137.3799328813
 10
144.7326394568
 20
137.3970814542
 10
144.7162533847
 20
137.4147002778
 10
144.6820707808
 20
137.4511992254
  0
LWPOLYLINE
  5
58B
100
AcDbEntity
  8
0
100
AcDbPolyline
 62
7
  6
CONTINUOUS
 90
4
 70
0
 10
144.7498442613
 20
137.8278915554
 10
144.7342396314
 20
137.8451002145
 10
144.7178560553
 20
137.862772257
 10
144.6836783569
 20
137.8993583415
  0
LINE
  5
58C
100
AcDbEntity
  8
0
100
AcDbLine
 62
7
  6
CONTINUOUS
 10
160.0440523763
 20
124.1001791977
 11
160.0100098272
 21
124.2001791977
  0
LINE
  5
58D
100
AcDbEntity
  8
0
100
AcDbLine
 62
7
  6
CONTINUOUS
 10
160.0440523763
 20
125.6001792931
 11
160.0100098272
 21
125.7001792931
  0
LINE
  5
58E
100
AcDbEntity
  8
0
100
AcDbLine
 62
7
  6
CONTINUOUS
 10
160.6568183561
 20
124.5335125946
 11
160.6908609052
 21
124.4335125946
  0
LINE
  5
58F
100
AcDbEntity
  8
0
100
AcDbLine
 62
7
  6
CONTINUOUS
 10
151.4447595428
 20
148.0022208749
 11
151.497624834
 21
147.8434960275
  0
LINE
  5
590
100
AcDbEntity
  8
0
100
AcDbLine
 62
7
  6
CONTINUOUS
 10
159.8397970815
 20
124.2335125946
 11
159.8738396307
 21
124.0668458962
  0
LINE
  5
591
100
AcDbEntity
  8
0
100
AcDbLine
 62
7
  6
CONTINUOUS
 10
159.8397970815
 20
125.7335124992
 11
159.8738396307
 21
125.5668458962
  0
LINE
  5
592
100
AcDbEntity
  8
0
100
AcDbLine
 62
7
  6
CONTINUOUS
 10
159.8397970815
 20
127.2001791023
 11
159.8738396307
 21
127.03351269
  0
LINE
  5
593
100
AcDbEntity
  8
0
100
AcDbLine
 62
7
  6
CONTINUOUS
 10
160.4185205122
 20
125.7335124992
 11
160.4525630613
 21
125.5668458962
  0
LINE
  5
594
100
AcDbEntity
  8
0
100
AcDbLine
 62
7
  6
CONTINUOUS
 10
159.8397970815
 20
128.6668458962
 11
159.8738396307
 21
128.5001791023
  0
LINE
  5
595
100
AcDbEntity
  8
0
100
AcDbLine
 62
7
  6
CONTINUOUS
 10
160.8610736986
 20
124.4001791977
 11
160.8270311018
 21
124.5668458962
  0
LINE
  5
596
100
AcDbEntity
  8
0
100
AcDbLine
 62
7
  6
CONTINUOUS
 10
160.4185205122
 20
127.2001791023
 11
160.4525630613
 21
127.03351269
  0
LINE
  5
597
100
AcDbEntity
  8
0
100
AcDbLine
 62
7
  6
CONTINUOUS
 10
160.4185205122
 20
128.6668458962
 11
160.4525630613
 21
128.5001791023
  0
LINE
  5
598
100
AcDbEntity
  8
0
100
AcDbLine
 62
7
  6
CONTINUOUS
 10
161.4397970815
 20
124.4001791977
 11
161.4057545294
 21
124.5668458962
  0
LINE
  5
599
100
AcDbEntity
  8
0
100
AcDbLine
 62
7
  6
CONTINUOUS
 10
161.4397970815
 20
125.9001792931
 11
161.4057545294
 21
126.0668458962
  0
LWPOLYLINE
  5
59A
100
AcDbEntity
  8
RACCORDO
100
AcDbPolyline
 62
7
  6
CONTINUOUS
 90
19
 70
0
 10
163.9397970615
 20
149.1639214368
 10
163.9380676023
 20
149.2047291017
 10
163.9333557699
 20
149.2437733805
 10
163.9256615645
 20
149.2810542731
 10
163.9147911009
 20
149.3167944111
 10
163.9009382642
 20
149.350771163
 10
163.8846847097
 20
149.382316634
 10
163.8660441135
 20
149.4112272737
 10
163.8450027995
 20
149.4377066325
 10
163.8221013943
 20
149.4616974673
 10
163.7974996876
 20
149.4831399491
 10
163.7710378897
 20
149.5020939067
 10
163.742777258
 20
149.5186815837
 10
163.712689644
 20
149.5330146266
 10
163.6808031961
 20
149.5449813889
 10
163.6472636172
 20
149.554369174
 10
163.6121194749
 20
149.5611070833
 10
163.5753222015
 20
149.5652660155
 10
163.536871797
 20
149.5668459707
  0
LINE
  5
59B
100
AcDbEntity
  8
RACCORDO
100
AcDbLine
 62
7
  6
CONTINUOUS
 10
164.9397970816
 20
70.066160664
 11
164.9397970804
 21
150.0675311373
  0
LINE
  5
59C
100
AcDbEntity
  8
RACCORDO
100
AcDbLine
 62
7
  6
CONTINUOUS
 10
165.4397970815
 20
70.0654754309
 11
165.4397970815
 21
150.0682163614
  0
LWPOLYLINE
  5
59D
100
AcDbEntity
  8
RACCORDO
100
AcDbPolyline
 62
7
  6
CONTINUOUS
 90
19
 70
0
 10
164.9397970816
 20
70.066160664
 10
164.9379188857
 20
70.0225367185
 10
164.9323178005
 20
69.9796828378
 10
164.9229938261
 20
69.9375990219
 10
164.9097657616
 20
69.8958448658
 10
164.8928148079
 20
69.8548607745
 10
164.8726845672
 20
69.8159679632
 10
164.8493875298
 20
69.7794272429
 10
164.8229112055
 20
69.7449778025
 10
164.7937617253
 20
69.7131584239
 10
164.7619138615
 20
69.6839605394
 10
164.7273928419
 20
69.6573927167
 10
164.690780481
 20
69.6340194399
 10
164.651821438
 20
69.6138491783
 10
164.6107710538
 20
69.5968734626
 10
164.5689771655
 20
69.5836313689
 10
164.5268890522
 20
69.5743025892
 10
164.4840574347
 20
69.5687074316
 10
164.4404823132
 20
69.566845896
  0
LWPOLYLINE
  5
59E
100
AcDbEntity
  8
0
100
AcDbPolyline
 62
253
  6
CONTINUOUS
 90
16
 70
0
 10
163.3678795188
 20
71.338732998
 10
163.3667781337
 20
71.3178346218
 10
163.3634987721
 20
71.297165124
 10
163.3580773496
 20
71.276950874
 10
163.3505732478
 20
71.2574132691
 10
163.3410686479
 20
71.2387662669
 10
163.3296676168
 20
71.2212140495
 10
163.3164949916
 20
71.204948838
 10
163.3016950383
 20
71.1901487953
 10
163.2854298524
 20
71.1769760324
 10
163.267877563
 20
71.1655748219
 10
163.249230402
 20
71.1560700388
 10
163.2296926179
 20
71.1485657953
 10
163.2094781997
 20
71.1431442793
 10
163.1888085284
 20
71.1398648621
 10
163.1679099797
 20
71.1387634589
  0
LINE
  5
59F
100
AcDbEntity
  8
0
100
AcDbLine
 62
7
  6
CONTINUOUS
 10
143.1475840815
 20
76.2880518962
 11
141.0743960815
 21
73.8827968962
  0
LINE
  5
5A0
100
AcDbEntity
  8
0
100
AcDbLine
 62
7
  6
CONTINUOUS
 10
141.4787760815
 20
73.8827968962
 11
143.1110990815
 21
75.7765938962
  0
LINE
  5
5A1
100
AcDbEntity
  8
0
100
AcDbLine
 62
7
  6
CONTINUOUS
 10
140.2134022067
 20
75.0584122162
 11
140.2283005133
 21
75.0733105228
  0
LINE
  5
5A2
100
AcDbEntity
  8
0
100
AcDbLine
 62
7
  6
CONTINUOUS
 10
147.0533960611
 20
83.8596829979
 11
146.6501358876
 21
83.4668458962
  0
LINE
  5
5A3
100
AcDbEntity
  8
0
100
AcDbLine
 62
7
  6
CONTINUOUS
 10
143.6258650498
 20
86.0599124706
 11
143.6756694649
 21
86.084807091
  0
LINE
  5
5A4
100
AcDbEntity
  8
0
100
AcDbLine
 62
7
  6
CONTINUOUS
 10
160.4272720815
 20
93.5569808962
 11
161.5372500815
 21
93.9732368962
  0
LINE
  5
5A5
100
AcDbEntity
  8
0
100
AcDbLine
 62
7
  6
CONTINUOUS
 10
160.7811560815
 20
94.0000568962
 11
159.8373870815
 21
93.6489768962
  0
LINE
  5
5A6
100
AcDbEntity
  8
0
100
AcDbLine
 62
7
  6
CONTINUOUS
 10
159.8373870815
 20
91.0654478962
 11
161.5372500815
 21
91.6043368962
  0
LWPOLYLINE
  5
5A7
100
AcDbEntity
  8
0
100
AcDbPolyline
 62
7
  6
CONTINUOUS
 90
7
 70
0
 10
162.1070306728
 20
133.2071902472
 10
162.1045017637
 20
133.2067352212
 10
162.0998542417
 20
133.2062920622
 10
162.0930881067
 20
133.2058607703
 10
162.0841199161
 20
133.2054383104
 10
162.0730331124
 20
133.2050277175
 10
162.0600780238
 20
133.2046380962
  0
LWPOLYLINE
  5
5A8
100
AcDbEntity
  8
0
100
AcDbPolyline
 62
7
  6
CONTINUOUS
 90
7
 70
0
 10
163.2904551766
 20
133.1552762226
 10
163.301960634
 20
133.1555800948
 10
163.3118552044
 20
133.1559085996
 10
163.3196786827
 20
133.1562473942
 10
163.3252776672
 20
133.1565916978
 10
163.3288055596
 20
133.1569462912
 10
163.3302623599
 20
133.1573111745
  0
LWPOLYLINE
  5
5A9
100
AcDbEntity
  8
0
100
AcDbPolyline
 62
7
  6
CONTINUOUS
 90
8
 70
0
 10
162.3274605345
 20
133.2647507872
 10
162.3132277424
 20
133.2643887835
 10
162.3007295856
 20
133.2640031309
 10
162.2899778036
 20
133.2635960821
 10
162.2812928265
 20
133.2631794108
 10
162.2747814645
 20
133.2627570415
 10
162.2703369074
 20
133.2623250495
 10
162.2679591553
 20
133.2618834349
  0
LINE
  5
5AA
100
AcDbEntity
  8
0
100
AcDbLine
 62
7
  6
CONTINUOUS
 10
162.0600780238
 20
133.2046380962
 11
162.0285038159
 21
133.2039230014
  0
LINE
  5
5AB
100
AcDbEntity
  8
0
100
AcDbLine
 62
7
  6
CONTINUOUS
 10
163.2627372252
 20
133.1547491019
 11
163.2904551766
 21
133.1552762226
  0
LWPOLYLINE
  5
5AC
100
AcDbEntity
  8
0
100
AcDbPolyline
 62
253
  6
CONTINUOUS
 90
12
 70
0
 10
127.7240147637
 20
132.5962054006
 10
127.6986296111
 20
132.5959324106
 10
127.674101234
 20
132.5954976623
 10
127.6508400695
 20
132.5949084305
 10
127.6292353501
 20
132.594174575
 10
127.6096485908
 20
132.5933083753
 10
127.5924075398
 20
132.5923243257
 10
127.5778006947
 20
132.5912388926
 10
127.5660724741
 20
132.5900702385
 10
127.5574191284
 20
132.5888379187
 10
127.5519854558
 20
132.5875625539
 10
127.5498623792
 20
132.5862654848
  0
LINE
  5
5AD
100
AcDbEntity
  8
0
100
AcDbLine
 62
7
  6
CONTINUOUS
 10
160.8610736986
 20
129.1668458962
 11
160.963201346
 21
129.1668458962
  0
LINE
  5
5AE
100
AcDbEntity
  8
0
100
AcDbLine
 62
7
  6
CONTINUOUS
 10
160.9972438951
 20
129.33351269
 11
160.8270311018
 21
129.33351269
  0
LINE
  5
5AF
100
AcDbEntity
  8
RACCORDO
100
AcDbLine
 62
7
  6
CONTINUOUS
 10
137.9397970815
 20
132.5668458962
 11
134.9897970815
 21
132.5668458962
  0
LINE
  5
5B0
100
AcDbEntity
  8
DRAFT
100
AcDbLine
 62
7
  6
CONTINUOUS
 10
137.9397970815
 20
132.5668458962
 11
152.9397970815
 21
132.5668458962
  0
LINE
  5
5B1
100
AcDbEntity
  8
RACCORDO
100
AcDbLine
 62
7
  6
CONTINUOUS
 10
152.9397970815
 20
132.5668458962
 11
155.8897970815
 21
132.5668458962
  0
LINE
  5
5B2
100
AcDbEntity
  8
0
100
AcDbLine
 62
253
  6
CONTINUOUS
 10
132.7583449099
 20
132.5963120695
 11
127.7240147637
 21
132.5962054006
  0
LWPOLYLINE
  5
5B3
100
AcDbEntity
  8
0
100
AcDbPolyline
 62
253
  6
CONTINUOUS
 90
13
 70
0
 10
158.1212492532
 20
132.5963120695
 10
163.1555794095
 20
132.596205405
 10
163.1809645713
 20
132.5959324147
 10
163.2054929563
 20
132.5954976661
 10
163.2287541271
 20
132.5949084339
 10
163.2503588506
 20
132.5941745779
 10
163.2699456115
 20
132.5933083777
 10
163.2871866614
 20
132.5923243276
 10
163.3017935031
 20
132.5912388939
 10
163.3135217177
 20
132.5900702393
 10
163.3221750553
 20
132.5888379192
 10
163.3276087182
 20
132.587562554
 10
163.3297317839
 20
132.5862654848
  0
LWPOLYLINE
  5
5B4
100
AcDbEntity
  8
0
100
AcDbPolyline
 62
7
  6
CONTINUOUS
 90
8
 70
0
 10
128.8511763959
 20
133.2039214005
 10
128.819578357
 20
133.2046364024
 10
128.8066029518
 20
133.2050265201
 10
128.795490969
 20
133.2054378478
 10
128.7865047931
 20
133.2058608389
 10
128.7797318854
 20
133.2062923115
 10
128.7750847845
 20
133.2067354476
 10
128.7725634903
 20
133.2071902472
  0
LINE
  5
5B5
100
AcDbEntity
  8
0
100
AcDbLine
 62
7
  6
CONTINUOUS
 10
160.2823503156
 20
128.1668458962
 11
160.5206481596
 21
128.13351269
  0
LINE
  5
5B6
100
AcDbEntity
  8
0
100
AcDbLine
 62
7
  6
CONTINUOUS
 10
160.5206481596
 20
128.3001791023
 11
160.3163928648
 21
128.33351269
  0
LWPOLYLINE
  5
5B7
100
AcDbEntity
  8
0
100
AcDbPolyline
 62
7
  6
CONTINUOUS
 90
10
 70
0
 10
128.6116350078
 20
133.2618834349
 10
128.6092551013
 20
133.2623251828
 10
128.6048089608
 20
133.2627572628
 10
128.5982965862
 20
133.263179675
 10
128.5896113102
 20
133.2635963265
 10
128.5788598
 20
133.2640033101
 10
128.5663620583
 20
133.264388905
 10
128.5521296466
 20
133.2647508774
 10
128.5361510033
 20
133.2650914611
 10
128.4997988711
 20
133.2656934476
  0
LINE
  5
5B8
100
AcDbEntity
  8
0
100
AcDbLine
 62
7
  6
CONTINUOUS
 10
160.3163928648
 20
125.4001792931
 11
160.214265122
 21
125.4335124992
  0
LINE
  5
5B9
100
AcDbEntity
  8
0
100
AcDbLine
 62
7
  6
CONTINUOUS
 10
160.8610736986
 20
125.4001792931
 11
160.7589460035
 21
125.4335124992
  0
LINE
  5
5BA
100
AcDbEntity
  8
0
100
AcDbLine
 62
7
  6
CONTINUOUS
 10
160.963201346
 20
126.2335124992
 11
161.0653289934
 21
126.2001792931
  0
LINE
  5
5BB
100
AcDbEntity
  8
0
100
AcDbLine
 62
7
  6
CONTINUOUS
 10
160.3163928648
 20
126.8668458962
 11
160.214265122
 21
126.9001791023
  0
LINE
  5
5BC
100
AcDbEntity
  8
0
100
AcDbLine
 62
7
  6
CONTINUOUS
 10
160.8610736986
 20
126.8668458962
 11
160.7589460035
 21
126.9001791023
  0
LINE
  5
5BD
100
AcDbEntity
  8
0
100
AcDbLine
 62
7
  6
CONTINUOUS
 10
160.963201346
 20
127.7001791023
 11
161.0653289934
 21
127.6668458962
  0
LINE
  5
5BE
100
AcDbEntity
  8
0
100
AcDbLine
 62
7
  6
CONTINUOUS
 10
160.3163928648
 20
128.33351269
 11
160.214265122
 21
128.3668458962
  0
LINE
  5
5BF
100
AcDbEntity
  8
0
100
AcDbLine
 62
7
  6
CONTINUOUS
 10
160.8610736986
 20
128.33351269
 11
160.7589460035
 21
128.3668458962
  0
LINE
  5
5C0
100
AcDbEntity
  8
0
100
AcDbLine
 62
7
  6
CONTINUOUS
 10
161.1674566646
 20
124.8335124992
 11
160.9972438951
 21
124.9001792931
  0
LINE
  5
5C1
100
AcDbEntity
  8
0
100
AcDbLine
 62
7
  6
CONTINUOUS
 10
160.1121374746
 20
125.3001792931
 11
160.2823503156
 21
125.2335124992
  0
LINE
  5
5C2
100
AcDbEntity
  8
0
100
AcDbLine
 62
7
  6
CONTINUOUS
 10
161.1674566646
 20
126.33351269
 11
160.9972438951
 21
126.4001791023
  0
LINE
  5
5C3
100
AcDbEntity
  8
0
100
AcDbLine
 62
7
  6
CONTINUOUS
 10
160.1121374746
 20
126.7668458962
 11
160.2823503156
 21
126.7001791023
  0
LINE
  5
5C4
100
AcDbEntity
  8
0
100
AcDbLine
 62
7
  6
CONTINUOUS
 10
161.1674566646
 20
127.8001791023
 11
160.9972438951
 21
127.8668458962
  0
LINE
  5
5C5
100
AcDbEntity
  8
0
100
AcDbLine
 62
7
  6
CONTINUOUS
 10
160.1121374746
 20
128.23351269
 11
160.2823503156
 21
128.1668458962
  0
LINE
  5
5C6
100
AcDbEntity
  8
0
100
AcDbLine
 62
7
  6
CONTINUOUS
 10
143.6258650498
 20
134.0737793217
 11
143.6756694649
 21
134.0488847013
  0
LINE
  5
5C7
100
AcDbEntity
  8
0
100
AcDbLine
 62
7
  6
CONTINUOUS
 10
160.214265122
 20
123.9335125946
 11
160.1121374746
 21
124.0001791977
  0
LINE
  5
5C8
100
AcDbEntity
  8
0
100
AcDbLine
 62
7
  6
CONTINUOUS
 10
160.4866056104
 20
124.7001792931
 11
160.5887332578
 21
124.6335125946
  0
LINE
  5
5C9
100
AcDbEntity
  8
0
100
AcDbLine
 62
7
  6
CONTINUOUS
 10
161.0653289934
 20
124.7001792931
 11
161.1674566646
 21
124.6335125946
  0
LINE
  5
5CA
100
AcDbEntity
  8
0
100
AcDbLine
 62
7
  6
CONTINUOUS
 10
160.214265122
 20
125.4335124992
 11
160.1121374746
 21
125.5001792931
  0
LINE
  5
5CB
100
AcDbEntity
  8
0
100
AcDbLine
 62
7
  6
CONTINUOUS
 10
161.0653289934
 20
126.2001792931
 11
161.1674566646
 21
126.1335124992
  0
LINE
  5
5CC
100
AcDbEntity
  8
0
100
AcDbLine
 62
7
  6
CONTINUOUS
 10
160.214265122
 20
126.9001791023
 11
160.1121374746
 21
126.9668458962
  0
LINE
  5
5CD
100
AcDbEntity
  8
0
100
AcDbLine
 62
7
  6
CONTINUOUS
 10
159.9759672781
 20
123.9001791977
 11
160.1121374746
 21
123.8001792454
  0
LINE
  5
5CE
100
AcDbEntity
  8
0
100
AcDbLine
 62
7
  6
CONTINUOUS
 10
159.9759672781
 20
125.4001792931
 11
160.1121374746
 21
125.3001792931
  0
LINE
  5
5CF
100
AcDbEntity
  8
0
100
AcDbLine
 62
7
  6
CONTINUOUS
 10
161.3036268731
 20
124.7335124992
 11
161.1674566646
 21
124.8335124992
  0
LINE
  5
5D0
100
AcDbEntity
  8
0
100
AcDbLine
 62
7
  6
CONTINUOUS
 10
159.9759672781
 20
126.8668458962
 11
160.1121374746
 21
126.7668458962
  0
LINE
  5
5D1
100
AcDbEntity
  8
0
100
AcDbLine
 62
7
  6
CONTINUOUS
 10
161.3036268731
 20
126.2335124992
 11
161.1674566646
 21
126.33351269
  0
LINE
  5
5D2
100
AcDbEntity
  8
0
100
AcDbLine
 62
7
  6
CONTINUOUS
 10
159.8397970815
 20
123.2668458962
 11
160.0780949255
 21
123.0668458962
  0
LINE
  5
5D3
100
AcDbEntity
  8
0
100
AcDbLine
 62
7
  6
CONTINUOUS
 10
160.3504354139
 20
123.0668458962
 11
160.1121374746
 21
123.2668458962
  0
LINE
  5
5D4
100
AcDbEntity
  8
0
100
AcDbLine
 62
7
  6
CONTINUOUS
 10
147.0533960611
 20
136.2740087944
 11
146.6501358876
 21
136.6668458962
  0
LINE
  5
5D5
100
AcDbEntity
  8
0
100
AcDbLine
 62
7
  6
CONTINUOUS
 10
160.7589460035
 20
125.4335124992
 11
160.6908609052
 21
125.5001792931
  0
LINE
  5
5D6
100
AcDbEntity
  8
0
100
AcDbLine
 62
7
  6
CONTINUOUS
 10
160.7589460035
 20
126.9001791023
 11
160.6908609052
 21
126.9668458962
  0
LINE
  5
5D7
100
AcDbEntity
  8
0
100
AcDbLine
 62
7
  6
CONTINUOUS
 10
140.2134022067
 20
145.0752795761
 11
140.2283005133
 21
145.0603812695
  0
LINE
  5
5D8
100
AcDbEntity
  8
0
100
AcDbLine
 62
7
  6
CONTINUOUS
 10
160.1121374746
 20
124.0001791977
 11
160.0440523763
 21
124.1001791977
  0
LINE
  5
5D9
100
AcDbEntity
  8
0
100
AcDbLine
 62
7
  6
CONTINUOUS
 10
160.5887332578
 20
124.6335125946
 11
160.6568183561
 21
124.5335125946
  0
LINE
  5
5DA
100
AcDbEntity
  8
0
100
AcDbLine
 62
7
  6
CONTINUOUS
 10
160.1121374746
 20
125.5001792931
 11
160.0440523763
 21
125.6001792931
  0
LINE
  5
5DB
100
AcDbEntity
  8
0
100
AcDbLine
 62
7
  6
CONTINUOUS
 10
160.8270311018
 20
124.5668458962
 11
160.6908609052
 21
124.7668458962
  0
LINE
  5
5DC
100
AcDbEntity
  8
0
100
AcDbLine
 62
7
  6
CONTINUOUS
 10
160.4525630613
 20
125.5668458962
 11
160.5887332578
 21
125.3668458962
  0
LINE
  5
5DD
100
AcDbEntity
  8
0
100
AcDbLine
 62
7
  6
CONTINUOUS
 10
161.1674566646
 20
124.6335125946
 11
161.2355417629
 21
124.5335125946
  0
LINE
  5
5DE
100
AcDbEntity
  8
0
100
AcDbLine
 62
7
  6
CONTINUOUS
 10
160.6908609052
 20
125.5001792931
 11
160.622775807
 21
125.6001792931
  0
LINE
  5
5DF
100
AcDbEntity
  8
0
100
AcDbLine
 62
7
  6
CONTINUOUS
 10
160.1121374746
 20
126.9668458962
 11
160.0440523763
 21
127.0668458962
  0
LINE
  5
5E0
100
AcDbEntity
  8
0
100
AcDbLine
 62
7
  6
CONTINUOUS
 10
160.4525630613
 20
127.03351269
 11
160.5887332578
 21
126.83351269
  0
LINE
  5
5E1
100
AcDbEntity
  8
0
100
AcDbLine
 62
7
  6
CONTINUOUS
 10
161.1674566646
 20
126.1335124992
 11
161.2355417629
 21
126.0335124992
  0
LINE
  5
5E2
100
AcDbEntity
  8
0
100
AcDbLine
 62
7
  6
CONTINUOUS
 10
160.6908609052
 20
126.9668458962
 11
160.622775807
 21
127.0668458962
  0
LINE
  5
5E3
100
AcDbEntity
  8
0
100
AcDbLine
 62
7
  6
CONTINUOUS
 10
160.1121374746
 20
128.43351269
 11
160.0440523763
 21
128.53351269
  0
LINE
  5
5E4
100
AcDbEntity
  8
0
100
AcDbLine
 62
7
  6
CONTINUOUS
 10
160.4525630613
 20
128.5001791023
 11
160.5887332578
 21
128.3001791023
  0
LINE
  5
5E5
100
AcDbEntity
  8
0
100
AcDbLine
 62
7
  6
CONTINUOUS
 10
159.8738396307
 20
124.0668458962
 11
159.9759672781
 21
123.9001791977
  0
LINE
  5
5E6
100
AcDbEntity
  8
0
100
AcDbLine
 62
7
  6
CONTINUOUS
 10
159.8738396307
 20
125.5668458962
 11
159.9759672781
 21
125.4001792931
  0
LINE
  5
5E7
100
AcDbEntity
  8
0
100
AcDbLine
 62
7
  6
CONTINUOUS
 10
159.8738396307
 20
127.03351269
 11
159.9759672781
 21
126.8668458962
  0
LINE
  5
5E8
100
AcDbEntity
  8
0
100
AcDbLine
 62
7
  6
CONTINUOUS
 10
161.4057545294
 20
124.5668458962
 11
161.3036268731
 21
124.7335124992
  0
LINE
  5
5E9
100
AcDbEntity
  8
0
100
AcDbLine
 62
7
  6
CONTINUOUS
 10
159.8738396307
 20
128.5001791023
 11
159.9759672781
 21
128.33351269
  0
LINE
  5
5EA
100
AcDbEntity
  8
0
100
AcDbLine
 62
7
  6
CONTINUOUS
 10
161.4057545294
 20
126.0668458962
 11
161.3036268731
 21
126.2335124992
  0
LINE
  5
5EB
100
AcDbEntity
  8
0
100
AcDbLine
 62
7
  6
CONTINUOUS
 10
161.4057545294
 20
127.53351269
 11
161.3036268731
 21
127.7001791023
  0
LINE
  5
5EC
100
AcDbEntity
  8
0
100
AcDbLine
 62
7
  6
CONTINUOUS
 10
160.0440523763
 20
127.0668458962
 11
160.0100098272
 21
127.1668458962
  0
LINE
  5
5ED
100
AcDbEntity
  8
0
100
AcDbLine
 62
7
  6
CONTINUOUS
 10
160.622775807
 20
125.6001792931
 11
160.5887332578
 21
125.7001792931
  0
LINE
  5
5EE
100
AcDbEntity
  8
0
100
AcDbLine
 62
7
  6
CONTINUOUS
 10
161.2355417629
 20
124.5335125946
 11
161.269584312
 21
124.4335125946
  0
LINE
  5
5EF
100
AcDbEntity
  8
0
100
AcDbLine
 62
7
  6
CONTINUOUS
 10
160.0440523763
 20
128.53351269
 11
160.0100098272
 21
128.63351269
  0
LINE
  5
5F0
100
AcDbEntity
  8
0
100
AcDbLine
 62
7
  6
CONTINUOUS
 10
160.622775807
 20
127.0668458962
 11
160.5887332578
 21
127.1668458962
  0
LINE
  5
5F1
100
AcDbEntity
  8
0
100
AcDbLine
 62
7
  6
CONTINUOUS
 10
161.2355417629
 20
126.0335124992
 11
161.269584312
 21
125.9335124992
  0
LINE
  5
5F2
100
AcDbEntity
  8
0
100
AcDbLine
 62
7
  6
CONTINUOUS
 10
160.622775807
 20
128.53351269
 11
160.5887332578
 21
128.63351269
  0
LINE
  5
5F3
100
AcDbEntity
  8
0
100
AcDbLine
 62
7
  6
CONTINUOUS
 10
161.2355417629
 20
127.5001791023
 11
161.269584312
 21
127.4001791023
  0
LINE
  5
5F4
100
AcDbEntity
  8
0
100
AcDbLine
 62
7
  6
CONTINUOUS
 10
161.2355417629
 20
128.9668458962
 11
161.269584312
 21
128.8668458962
  0
LINE
  5
5F5
100
AcDbEntity
  8
0
100
AcDbLine
 62
7
  6
CONTINUOUS
 10
161.4397970815
 20
127.3668458962
 11
161.4057545294
 21
127.53351269
  0
LINE
  5
5F6
100
AcDbEntity
  8
0
100
AcDbLine
 62
7
  6
CONTINUOUS
 10
161.4397970815
 20
128.83351269
 11
161.4057545294
 21
129.0001791023
  0
LINE
  5
5F7
100
AcDbEntity
  8
0
100
AcDbLine
 62
7
  6
CONTINUOUS
 10
140.2117146443
 20
71.1387634589
 11
140.1397970815
 21
71.0668458962
  0
LINE
  5
5F8
100
AcDbEntity
  8
0
100
AcDbLine
 62
7
  6
CONTINUOUS
 10
158.0840281512
 20
86.9431157709
 11
158.1207319383
 21
86.9798195581
  0
LINE
  5
5F9
100
AcDbEntity
  8
0
100
AcDbLine
 62
7
  6
CONTINUOUS
 10
147.4815760815
 20
76.3000448962
 11
146.2775920815
 21
75.0960618962
  0
LINE
  5
5FA
100
AcDbEntity
  8
0
100
AcDbLine
 62
7
  6
CONTINUOUS
 10
146.7107520815
 20
75.0960608962
 11
147.9146980815
 21
76.3000448962
  0
LINE
  5
5FB
100
AcDbEntity
  8
0
100
AcDbLine
 62
7
  6
CONTINUOUS
 10
149.2941370815
 20
77.0532888962
 11
148.7511010815
 21
76.5102538962
  0
LINE
  5
5FC
100
AcDbEntity
  8
0
100
AcDbLine
 62
7
  6
CONTINUOUS
 10
149.1842420815
 20
76.5102538962
 11
149.7272590815
 21
77.0532888962
  0
LINE
  5
5FD
100
AcDbEntity
  8
0
100
AcDbLine
 62
7
  6
CONTINUOUS
 10
144.5897970815
 20
83.9078621748
 11
144.6169024644
 21
83.921413834
  0
LINE
  5
5FE
100
AcDbEntity
  8
0
100
AcDbLine
 62
7
  6
CONTINUOUS
 10
143.8258293056
 20
136.263355282
 11
143.6756694649
 21
136.2258296175
  0
LWPOLYLINE
  5
5FF
100
AcDbEntity
  8
0
100
AcDbPolyline
 62
7
  6
CONTINUOUS
 90
7
 70
0
 10
128.832540073
 20
134.0267383505
 10
128.8351271119
 20
134.027193541
 10
128.839847177
 20
134.0276371959
 10
128.8467002685
 20
134.0280693151
 10
128.8557747096
 20
134.0284931464
 10
128.866982177
 20
134.0289054421
 10
128.8800577003
 20
134.0292964584
  0
LWPOLYLINE
  5
600
100
AcDbEntity
  8
0
100
AcDbPolyline
 62
7
  6
CONTINUOUS
 90
7
 70
0
 10
147.2975908351
 20
134.0763304493
 10
147.2851835035
 20
134.075936779
 10
147.2745827839
 20
134.075521584
 10
147.2661053206
 20
134.0750970247
 10
147.2598566618
 20
134.0746671546
 10
147.2557312594
 20
134.0742279203
 10
147.2537291132
 20
134.0737793217
  0
LWPOLYLINE
  5
601
100
AcDbEntity
  8
0
100
AcDbPolyline
 62
7
  6
CONTINUOUS
 90
7
 70
0
 10
128.617205142
 20
133.9693035374
 10
128.6297647624
 20
133.9696891794
 10
128.640578423
 20
133.9700961765
 10
128.6493257313
 20
133.9705127689
 10
128.65589989
 20
133.9709350365
 10
128.6604076965
 20
133.9713668993
 10
128.6628491508
 20
133.9718083574
  0
LWPOLYLINE
  5
602
100
AcDbEntity
  8
0
100
AcDbPolyline
 62
7
  6
CONTINUOUS
 90
7
 70
0
 10
127.5881320894
 20
134.0774360259
 10
127.576632487
 20
134.0771326163
 10
127.5667447055
 20
134.0768046448
 10
127.5589273169
 20
134.0764664529
 10
127.5533331788
 20
134.0761228211
 10
127.5498094337
 20
134.0757689689
 10
127.5483560817
 20
134.0754048963
  0
LINE
  5
603
100
AcDbEntity
  8
0
100
AcDbLine
 62
7
  6
CONTINUOUS
 10
147.3278378007
 20
134.0770489949
 11
147.2975908351
 21
134.0763304493
  0
LINE
  5
604
100
AcDbEntity
  8
0
100
AcDbLine
 62
7
  6
CONTINUOUS
 10
128.5868706236
 20
133.9686007881
 11
128.617205142
 21
133.9693035374
  0
LINE
  5
605
100
AcDbEntity
  8
0
100
AcDbLine
 62
7
  6
CONTINUOUS
 10
128.8800577003
 20
134.0292964584
 11
128.9118712761
 21
134.0300129634
  0
LINE
  5
606
100
AcDbEntity
  8
0
100
AcDbLine
 62
7
  6
CONTINUOUS
 10
162.3608800305
 20
133.2654055913
 11
162.3274605345
 21
133.2647507872
  0
LINE
  5
607
100
AcDbEntity
  8
0
100
AcDbLine
 62
7
  6
CONTINUOUS
 10
127.6158415398
 20
134.0779624427
 11
127.5881320894
 21
134.0774360259
  0
LINE
  5
608
100
AcDbEntity
  8
0
100
AcDbLine
 62
7
  6
CONTINUOUS
 10
147.3642925518
 20
134.077663568
 11
147.3278378007
 21
134.0770489949
  0
LINE
  5
609
100
AcDbEntity
  8
0
100
AcDbLine
 62
7
  6
CONTINUOUS
 10
128.5503991117
 20
133.9679985869
 11
128.5868706236
 21
133.9686007881
  0
LINE
  5
60A
100
AcDbEntity
  8
0
100
AcDbLine
 62
7
  6
CONTINUOUS
 10
162.0285038159
 20
133.2039230014
 11
161.9904221592
 21
133.2033138912
  0
LINE
  5
60B
100
AcDbEntity
  8
0
100
AcDbLine
 62
7
  6
CONTINUOUS
 10
128.9118712761
 20
134.0300129634
 11
128.9501392653
 21
134.0306223096
  0
LINE
  5
60C
100
AcDbEntity
  8
0
100
AcDbLine
 62
7
  6
CONTINUOUS
 10
162.4001689634
 20
133.2659548493
 11
162.3608800305
 21
133.2654055913
  0
LINE
  5
60D
100
AcDbEntity
  8
0
100
AcDbLine
 62
7
  6
CONTINUOUS
 10
163.2292170286
 20
133.1543323017
 11
163.2627372252
 21
133.1547491019
  0
LINE
  5
60E
100
AcDbEntity
  8
0
100
AcDbLine
 62
7
  6
CONTINUOUS
 10
127.6493601511
 20
134.0783787834
 11
127.6158415398
 21
134.0779624427
  0
LINE
  5
60F
100
AcDbEntity
  8
0
100
AcDbLine
 62
7
  6
CONTINUOUS
 10
147.4292361223
 20
134.0783658592
 11
147.3642925518
 21
134.077663568
  0
LINE
  5
610
100
AcDbEntity
  8
0
100
AcDbLine
 62
7
  6
CONTINUOUS
 10
128.4855793146
 20
133.9673089215
 11
128.5503991117
 21
133.9679985869
  0
LINE
  5
611
100
AcDbEntity
  8
0
100
AcDbLine
 62
7
  6
CONTINUOUS
 10
161.9904221592
 20
133.2033138912
 11
161.9233995271
 21
133.2026332738
  0
LINE
  5
612
100
AcDbEntity
  8
0
100
AcDbLine
 62
7
  6
CONTINUOUS
 10
128.9501392653
 20
134.0306223096
 11
129.0173950929
 21
134.0313021735
  0
LINE
  5
613
100
AcDbEntity
  8
0
100
AcDbLine
 62
7
  6
CONTINUOUS
 10
162.468367269
 20
133.2665495275
 11
162.4001689634
 21
133.2659548493
  0
LINE
  5
614
100
AcDbEntity
  8
0
100
AcDbLine
 62
7
  6
CONTINUOUS
 10
161.9233995271
 20
133.2026332738
 11
161.873760565
 21
133.2023547149
  0
LINE
  5
615
100
AcDbEntity
  8
0
100
AcDbLine
 62
7
  6
CONTINUOUS
 10
129.0173950929
 20
134.0313021735
 11
129.0672419015
 21
134.031580518
  0
LINE
  5
616
100
AcDbEntity
  8
0
100
AcDbLine
 62
7
  6
CONTINUOUS
 10
163.1712782687
 20
133.1539461862
 11
163.2292170286
 21
133.1543323017
  0
LINE
  5
617
100
AcDbEntity
  8
0
100
AcDbLine
 62
7
  6
CONTINUOUS
 10
127.7073136252
 20
134.078764593
 11
127.6493601511
 21
134.0783787834
  0
LINE
  5
618
100
AcDbEntity
  8
0
100
AcDbLine
 62
7
  6
CONTINUOUS
 10
128.4125896042
 20
133.9669201932
 11
128.4855793146
 21
133.9673089215
  0
LINE
  5
619
100
AcDbEntity
  8
0
100
AcDbLine
 62
7
  6
CONTINUOUS
 10
147.5026469258
 20
134.0787627394
 11
147.4292361223
 21
134.0783658592
  0
LINE
  5
61A
100
AcDbEntity
  8
0
100
AcDbLine
 62
7
  6
CONTINUOUS
 10
162.5423800938
 20
133.2668269955
 11
162.468367269
 21
133.2665495275
  0
LINE
  5
61B
100
AcDbEntity
  8
0
100
AcDbLine
 62
7
  6
CONTINUOUS
 10
163.1712782687
 20
133.1539461862
 11
158.1207319383
 21
133.1538722342
  0
LINE
  5
61C
100
AcDbEntity
  8
0
100
AcDbLine
 62
7
  6
CONTINUOUS
 10
162.5423800938
 20
133.2668269955
 11
163.4397970815
 21
133.2668458962
  0
LINE
  5
61D
100
AcDbEntity
  8
0
100
AcDbLine
 62
7
  6
CONTINUOUS
 10
127.4397970815
 20
133.9668458962
 11
128.4125896042
 21
133.9669201932
  0
LINE
  5
61E
100
AcDbEntity
  8
0
100
AcDbLine
 62
7
  6
CONTINUOUS
 10
137.9397970815
 20
134.0488847013
 11
143.6756694649
 21
134.0488847013
  0
LINE
  5
61F
100
AcDbEntity
  8
0
100
AcDbLine
 62
7
  6
CONTINUOUS
 10
144.5897970815
 20
134.0488847013
 11
146.2897970815
 21
134.0488847013
  0
LINE
  5
620
100
AcDbEntity
  8
0
100
AcDbLine
 62
7
  6
CONTINUOUS
 10
147.2039246981
 20
134.0488847013
 11
152.9397970815
 21
134.0488847013
  0
LINE
  5
621
100
AcDbEntity
  8
0
100
AcDbLine
 62
7
  6
CONTINUOUS
 10
146.259843235
 20
134.0788385479
 11
144.6197509281
 21
134.0788385479
  0
LINE
  5
622
100
AcDbEntity
  8
0
100
AcDbLine
 62
7
  6
CONTINUOUS
 10
146.2626916987
 20
136.2122779583
 11
144.6169024644
 21
136.2122779583
  0
LINE
  5
623
100
AcDbEntity
  8
0
100
AcDbLine
 62
7
  6
CONTINUOUS
 10
143.6756694649
 20
136.2258296175
 11
144.5897970815
 21
136.2258296175
  0
LINE
  5
624
100
AcDbEntity
  8
0
100
AcDbLine
 62
7
  6
CONTINUOUS
 10
146.2897970815
 20
136.2258296175
 11
147.2039246981
 21
136.2258296175
  0
LINE
  5
625
100
AcDbEntity
  8
0
100
AcDbLine
 62
7
  6
CONTINUOUS
 10
143.8258293056
 20
136.263355282
 11
147.0537648575
 21
136.263355282
  0
LINE
  5
626
100
AcDbEntity
  8
0
100
AcDbLine
 62
7
  6
CONTINUOUS
 10
143.351711726
 20
134.0788192878
 11
127.7073136252
 21
134.078764593
  0
LINE
  5
627
100
AcDbEntity
  8
0
100
AcDbLine
 62
7
  6
CONTINUOUS
 10
163.152043
 20
134.0788195755
 11
147.5026469258
 21
134.0787627394
  0
LINE
  5
628
100
AcDbEntity
  8
0
100
AcDbLine
 62
7
  6
CONTINUOUS
 10
127.7083158311
 20
133.1539461829
 11
132.7588622248
 21
133.1538722342
  0
LINE
  5
629
100
AcDbEntity
  8
0
100
AcDbLine
 62
7
  6
CONTINUOUS
 10
128.3868602103
 20
133.266679633
 11
127.4397970815
 21
133.2668458962
  0
LINE
  5
62A
100
AcDbEntity
  8
0
100
AcDbLine
 62
7
  6
CONTINUOUS
 10
162.44237825
 20
133.9670121394
 11
163.4397970815
 21
133.9668458962
  0
LINE
  5
62B
100
AcDbEntity
  8
0
100
AcDbLine
 62
7
  6
CONTINUOUS
 10
143.4262703948
 20
134.0785360251
 11
143.351711726
 21
134.0788192878
  0
LINE
  5
62C
100
AcDbEntity
  8
0
100
AcDbLine
 62
7
  6
CONTINUOUS
 10
163.2113759877
 20
134.0785441947
 11
163.152043
 21
134.0788195755
  0
LINE
  5
62D
100
AcDbEntity
  8
0
100
AcDbLine
 62
7
  6
CONTINUOUS
 10
129.0058335981
 20
133.2023547149
 11
128.9329074642
 21
133.2028244646
  0
LINE
  5
62E
100
AcDbEntity
  8
0
100
AcDbLine
 62
7
  6
CONTINUOUS
 10
161.8123522615
 20
134.031580518
 11
161.8855340514
 21
134.0311115332
  0
LINE
  5
62F
100
AcDbEntity
  8
0
100
AcDbLine
 62
7
  6
CONTINUOUS
 10
128.4579126086
 20
133.2661846863
 11
128.3868602103
 21
133.266679633
  0
LINE
  5
630
100
AcDbEntity
  8
0
100
AcDbLine
 62
7
  6
CONTINUOUS
 10
162.3711927157
 20
133.967507168
 11
162.44237825
 21
133.9670121394
  0
LINE
  5
631
100
AcDbEntity
  8
0
100
AcDbLine
 62
7
  6
CONTINUOUS
 10
127.6503770131
 20
133.1543322981
 11
127.7083158311
 21
133.1539461829
  0
LINE
  5
632
100
AcDbEntity
  8
0
100
AcDbLine
 62
7
  6
CONTINUOUS
 10
143.4948736491
 20
134.0779296306
 11
143.4262703948
 21
134.0785360251
  0
LINE
  5
633
100
AcDbEntity
  8
0
100
AcDbLine
 62
7
  6
CONTINUOUS
 10
163.2477508552
 20
134.0781845402
 11
163.2113759877
 21
134.0785441947
  0
LINE
  5
634
100
AcDbEntity
  8
0
100
AcDbLine
 62
7
  6
CONTINUOUS
 10
128.9329074642
 20
133.2028244646
 11
128.8892242246
 21
133.20331306
  0
LINE
  5
635
100
AcDbEntity
  8
0
100
AcDbLine
 62
7
  6
CONTINUOUS
 10
161.8855340514
 20
134.0311115332
 11
161.9295035773
 21
134.0306215246
  0
LINE
  5
636
100
AcDbEntity
  8
0
100
AcDbLine
 62
7
  6
CONTINUOUS
 10
128.4997988711
 20
133.2656934476
 11
128.4579126086
 21
133.2661846863
  0
LINE
  5
637
100
AcDbEntity
  8
0
100
AcDbLine
 62
7
  6
CONTINUOUS
 10
162.3291950514
 20
133.9679985869
 11
162.3711927157
 21
133.967507168
  0
LINE
  5
638
100
AcDbEntity
  8
0
100
AcDbLine
 62
7
  6
CONTINUOUS
 10
127.616856809
 20
133.1547490992
 11
127.6503770131
 21
133.1543322981
  0
LINE
  5
639
100
AcDbEntity
  8
0
100
AcDbLine
 62
7
  6
CONTINUOUS
 10
143.5342583048
 20
134.0773701509
 11
143.4948736491
 21
134.0779296306
  0
LINE
  5
63A
100
AcDbEntity
  8
0
100
AcDbLine
 62
7
  6
CONTINUOUS
 10
128.8892242246
 20
133.20331306
 11
128.8511763959
 21
133.2039214005
  0
LINE
  5
63B
100
AcDbEntity
  8
0
100
AcDbLine
 62
7
  6
CONTINUOUS
 10
161.9295035773
 20
134.0306215246
 11
161.9678021136
 21
134.0300115032
  0
LINE
  5
63C
100
AcDbEntity
  8
0
100
AcDbLine
 62
7
  6
CONTINUOUS
 10
162.2927235394
 20
133.9686007881
 11
162.3291950514
 21
133.9679985869
  0
LWPOLYLINE
  5
63D
100
AcDbEntity
  8
0
100
AcDbPolyline
 62
7
  6
CONTINUOUS
 90
8
 70
0
 10
161.9678021136
 20
134.0300115032
 10
161.9995875326
 20
134.0292950754
 10
162.0126413844
 20
134.0289047057
 10
162.0238228691
 20
134.0284933101
 10
162.0328800733
 20
134.0280700597
 10
162.039729026
 20
134.0276380115
 10
162.0444536983
 20
134.0271941084
 10
162.0470540901
 20
134.0267383505
  0
LWPOLYLINE
  5
63E
100
AcDbEntity
  8
0
100
AcDbPolyline
 62
7
  6
CONTINUOUS
 90
8
 70
0
 10
162.2167450123
 20
133.9718083574
 10
162.2191864666
 20
133.9713668993
 10
162.2236942731
 20
133.9709350365
 10
162.2302684318
 20
133.9705127689
 10
162.2390157401
 20
133.9700961765
 10
162.2498294007
 20
133.9696891794
 10
162.2623890211
 20
133.9693035374
 10
162.2927235394
 20
133.9686007881
  0
LWPOLYLINE
  5
63F
100
AcDbEntity
  8
0
100
AcDbPolyline
 62
7
  6
CONTINUOUS
 90
9
 70
0
 10
143.6258650498
 20
134.0737793217
 10
143.6238629037
 20
134.0742279203
 10
143.6197375013
 20
134.0746671546
 10
143.6134888425
 20
134.0750970247
 10
143.6050113792
 20
134.075521584
 10
143.5944106596
 20
134.075936779
 10
143.582003328
 20
134.0763304493
 10
143.5677831512
 20
134.0767004844
 10
143.5342583048
 20
134.0773701509
  0
LINE
  5
640
100
AcDbEntity
  8
0
100
AcDbLine
 62
7
  6
CONTINUOUS
 10
147.0537648575
 20
136.263355282
 11
147.2039246981
 21
136.2258296175
  0
LINE
  5
641
100
AcDbEntity
  8
0
100
AcDbLine
 62
7
  6
CONTINUOUS
 10
160.963201346
 20
129.1668458962
 11
161.0653289934
 21
129.13351269
  0
LINE
  5
642
100
AcDbEntity
  8
0
100
AcDbLine
 62
7
  6
CONTINUOUS
 10
161.1674566646
 20
129.2668458962
 11
160.9972438951
 21
129.33351269
  0
LWPOLYLINE
  5
643
100
AcDbEntity
  8
0
100
AcDbPolyline
 62
7
  6
CONTINUOUS
 90
10
 70
0
 10
144.8379891592
 20
137.7172786639
 10
144.8378371398
 20
137.717348282
 10
144.8376852357
 20
137.7174809461
 10
144.8375334469
 20
137.7176766562
 10
144.8373817452
 20
137.7179354679
 10
144.8372301588
 20
137.7182573256
 10
144.8370787724
 20
137.7186420625
 10
144.8369276143
 20
137.7190896228
 10
144.8367766563
 20
137.7196000623
 10
144.8366258983
 20
137.7201733809
  0
LINE
  5
644
100
AcDbEntity
  8
0
100
AcDbLine
 62
7
  6
CONTINUOUS
 10
144.5897970815
 20
136.2258296175
 11
144.6169024644
 21
136.2122779583
  0
LINE
  5
645
100
AcDbEntity
  8
0
100
AcDbLine
 62
7
  6
CONTINUOUS
 10
161.0653289934
 20
127.6668458962
 11
161.1674566646
 21
127.6001791023
  0
LINE
  5
646
100
AcDbEntity
  8
0
100
AcDbLine
 62
7
  6
CONTINUOUS
 10
160.214265122
 20
128.3668458962
 11
160.1121374746
 21
128.43351269
  0
LINE
  5
647
100
AcDbEntity
  8
0
100
AcDbLine
 62
7
  6
CONTINUOUS
 10
161.0653289934
 20
129.13351269
 11
161.1674566646
 21
129.0668458962
  0
LINE
  5
648
100
AcDbEntity
  8
0
100
AcDbLine
 62
7
  6
CONTINUOUS
 10
159.9759672781
 20
128.33351269
 11
160.1121374746
 21
128.23351269
  0
LINE
  5
649
100
AcDbEntity
  8
0
100
AcDbLine
 62
7
  6
CONTINUOUS
 10
161.3036268731
 20
127.7001791023
 11
161.1674566646
 21
127.8001791023
  0
LINE
  5
64A
100
AcDbEntity
  8
0
100
AcDbLine
 62
7
  6
CONTINUOUS
 10
161.3036268731
 20
129.1668458962
 11
161.1674566646
 21
129.2668458962
  0
LINE
  5
64B
100
AcDbEntity
  8
0
100
AcDbLine
 62
7
  6
CONTINUOUS
 10
160.7589460035
 20
128.3668458962
 11
160.6908609052
 21
128.43351269
  0
LINE
  5
64C
100
AcDbEntity
  8
0
100
AcDbLine
 62
7
  6
CONTINUOUS
 10
140.2117146443
 20
148.9949283334
 11
140.1397970815
 21
149.0668458962
  0
LINE
  5
64D
100
AcDbEntity
  8
0
100
AcDbLine
 62
7
  6
CONTINUOUS
 10
158.0840281512
 20
133.1905760214
 11
158.1207319383
 21
133.1538722342
  0
LINE
  5
64E
100
AcDbEntity
  8
0
100
AcDbLine
 62
7
  6
CONTINUOUS
 10
161.1674566646
 20
127.6001791023
 11
161.2355417629
 21
127.5001791023
  0
LINE
  5
64F
100
AcDbEntity
  8
0
100
AcDbLine
 62
7
  6
CONTINUOUS
 10
160.6908609052
 20
128.43351269
 11
160.622775807
 21
128.53351269
  0
LINE
  5
650
100
AcDbEntity
  8
0
100
AcDbLine
 62
7
  6
CONTINUOUS
 10
161.1674566646
 20
129.0668458962
 11
161.2355417629
 21
128.9668458962
  0
LINE
  5
651
100
AcDbEntity
  8
0
100
AcDbLine
 62
7
  6
CONTINUOUS
 10
161.4057545294
 20
129.0001791023
 11
161.3036268731
 21
129.1668458962
  0
LWPOLYLINE
  5
652
100
AcDbEntity
  8
0
100
AcDbPolyline
 62
253
  6
CONTINUOUS
 90
16
 70
0
 10
160.5891707712
 20
74.3222543744
 10
160.588047057
 20
74.3198499301
 10
160.5882592684
 20
74.3151890745
 10
160.5898046016
 20
74.3083333833
 10
160.5926626409
 20
74.2993734294
 10
160.5967956278
 20
74.2884275851
 10
160.6021489601
 20
74.2756404596
 10
160.6086519135
 20
74.2611809872
 10
160.6162185754
 20
74.2452401964
 10
160.6247489804
 20
74.2280286858
 10
160.6341304307
 20
74.2097738419
 10
160.6442389852
 20
74.1907168348
 10
160.6549410967
 20
74.1711094325
 10
160.6660953764
 20
74.1512106741
 10
160.6775544618
 20
74.1312834483
 10
160.6891669635
 20
74.1115910194
  0
LINE
  5
653
100
AcDbEntity
  8
0
100
AcDbLine
 62
253
  6
CONTINUOUS
 10
153.2150570034
 20
71.0668458962
 11
153.2677097904
 21
71.1387634589
  0
LINE
  5
654
100
AcDbEntity
  8
0
100
AcDbLine
 62
253
  6
CONTINUOUS
 10
153.3150754978
 20
71.0936474117
 11
153.3677059827
 21
71.1655345123
  0
LINE
  5
655
100
AcDbEntity
  8
0
100
AcDbLine
 62
7
  6
CONTINUOUS
 10
151.5134022067
 20
75.0584122162
 11
151.5283005133
 21
75.0733105228
  0
LINE
  5
656
100
AcDbEntity
  8
0
100
AcDbLine
 62
7
  6
CONTINUOUS
 10
163.4397970815
 20
86.1668458962
 11
163.3312380814
 21
86.058286896
  0
LINE
  5
657
100
AcDbEntity
  8
0
100
AcDbLine
 62
7
  6
CONTINUOUS
 10
162.0470540901
 20
86.1069534418
 11
162.2167450123
 21
86.1618834349
  0
LINE
  5
658
100
AcDbEntity
  8
0
100
AcDbLine
 62
7
  6
CONTINUOUS
 10
145.8397970815
 20
137.6668458962
 11
146.0416050039
 21
137.7172786639
  0
LWPOLYLINE
  5
659
100
AcDbEntity
  8
0
100
AcDbPolyline
 62
253
  6
CONTINUOUS
 90
22
 70
0
 10
143.9359063303
 20
137.6007712581
 10
143.8907522975
 20
137.5990158636
 10
143.8463443773
 20
137.5940292601
 10
143.8026825698
 20
137.5858113971
 10
143.759545496
 20
137.5742859788
 10
143.7171545349
 20
137.5595290999
 10
143.6761738228
 20
137.5417692581
 10
143.636611872
 20
137.5209548843
 10
143.5984601702
 20
137.4971371861
 10
143.5623573162
 20
137.4706988228
 10
143.5283363791
 20
137.4415957207
 10
143.4963642899
 20
137.4098715053
 10
143.4669804411
 20
137.3760404334
 10
143.4402260207
 20
137.3400636179
 10
143.4160598408
 20
137.3019795018
 10
143.3948977297
 20
137.2624184421
 10
143.3767905582
 20
137.2213655841
 10
143.3616874556
 20
137.1788354351
 10
143.3498516375
 20
137.1355025467
 10
143.3413708424
 20
137.091591744
 10
143.3361573318
 20
137.0468780302
 10
143.3342111057
 20
137.0013613085
  0
LWPOLYLINE
  5
65A
100
AcDbEntity
  8
0
100
AcDbPolyline
 62
253
  6
CONTINUOUS
 90
22
 70
0
 10
143.9359091344
 20
137.2705538906
 10
143.9134913463
 20
137.2697511033
 10
143.8912013918
 20
137.2672914493
 10
143.8691626804
 20
137.2631911961
 10
143.8475028107
 20
137.2574781972
 10
143.8263348812
 20
137.2501852595
 10
143.8057584758
 20
137.241345224
 10
143.7858820278
 20
137.231002247
 10
143.7668231781
 20
137.2192147958
 10
143.7486911592
 20
137.2060457934
 10
143.7315878493
 20
137.1915678748
 10
143.7156090035
 20
137.1758604501
 10
143.7008463518
 20
137.1590078577
 10
143.6873826407
 20
137.14110243
 10
143.675295036
 20
137.1222444193
 10
143.6646557842
 20
137.1025394356
 10
143.6555273676
 20
137.0821032726
 10
143.6479585194
 20
137.0610451495
 10
143.6419909816
 20
137.0394664616
 10
143.6376622211
 20
137.0174820003
 10
143.6350016112
 20
136.9952205404
 10
143.6340284125
 20
136.972807546
  0
LINE
  5
65B
100
AcDbEntity
  8
0
100
AcDbLine
 62
7
  6
CONTINUOUS
 10
146.6501358876
 20
137.0668458962
 11
146.7431153419
 21
137.0699814046
  0
LWPOLYLINE
  5
65C
100
AcDbEntity
  8
0
100
AcDbPolyline
 62
253
  6
CONTINUOUS
 90
16
 70
0
 10
147.5453830574
 20
137.0013611573
 10
147.5147159082
 20
137.0011100292
 10
147.4843700561
 20
137.0005622609
 10
147.4546634438
 20
136.9997235915
 10
147.4259073165
 20
136.998602808
 10
147.3984029612
 20
136.9972116532
 10
147.3724385492
 20
136.9955647025
 10
147.3482861178
 20
136.9936792116
 10
147.3261987194
 20
136.9915749353
 10
147.3064077703
 20
136.9892739208
 10
147.2891206265
 20
136.9868002763
 10
147.2745184106
 20
136.9841799191
 10
147.2627541145
 20
136.9814403034
 10
147.2539509964
 20
136.9786101329
 10
147.2482012893
 20
136.9757190601
 10
147.2455652345
 20
136.9727973758
  0
LINE
  5
65D
100
AcDbEntity
  8
0
100
AcDbLine
 62
7
  6
CONTINUOUS
 10
144.2294582755
 20
136.6668458962
 11
146.6501358876
 21
136.6668458962
  0
LINE
  5
65E
100
AcDbEntity
  8
0
100
AcDbLine
 62
7
  6
CONTINUOUS
 10
144.2294582755
 20
137.0668458962
 11
145.0397970815
 21
137.0668458962
  0
LINE
  5
65F
100
AcDbEntity
  8
0
100
AcDbLine
 62
7
  6
CONTINUOUS
 10
145.8397970815
 20
137.0668458962
 11
146.6501358876
 21
137.0668458962
  0
LINE
  5
660
100
AcDbEntity
  8
0
100
AcDbLine
 62
253
  6
CONTINUOUS
 10
146.9436965072
 20
137.2705538955
 11
146.0435050808
 21
137.2705538955
  0
LINE
  5
661
100
AcDbEntity
  8
0
100
AcDbLine
 62
253
  6
CONTINUOUS
 10
144.8360890822
 20
137.2705538955
 11
143.9359091296
 21
137.2705538955
  0
LINE
  5
662
100
AcDbEntity
  8
0
100
AcDbLine
 62
253
  6
CONTINUOUS
 10
146.9436878327
 20
137.6007712581
 11
146.3433223289
 21
137.6007712581
  0
LINE
  5
663
100
AcDbEntity
  8
0
100
AcDbLine
 62
253
  6
CONTINUOUS
 10
144.5362718341
 20
137.6007712581
 11
143.9359063303
 21
137.6007712581
  0
LINE
  5
664
100
AcDbEntity
  8
0
100
AcDbLine
 62
7
  6
CONTINUOUS
 10
145.8397970815
 20
137.6668458962
 11
145.0397970815
 21
137.6668458962
  0
LINE
  5
665
100
AcDbEntity
  8
0
100
AcDbLine
 62
7
  6
CONTINUOUS
 10
144.8379891592
 20
137.7172786639
 11
146.0416050039
 21
137.7172786639
  0
LINE
  5
666
100
AcDbEntity
  8
0
100
AcDbLine
 62
253
  6
CONTINUOUS
 10
144.5378977171
 20
138.0490405456
 11
146.341696446
 21
138.0490405456
  0
LWPOLYLINE
  5
667
100
AcDbEntity
  8
0
100
AcDbPolyline
 62
253
  6
CONTINUOUS
 90
16
 70
0
 10
143.3342111057
 20
137.0013613083
 10
143.3648782398
 20
137.0011101701
 10
143.3952240665
 20
137.0005623913
 10
143.4249306444
 20
136.9997237113
 10
143.4536867302
 20
136.998602917
 10
143.4811910388
 20
136.9972117514
 10
143.5071554004
 20
136.99556479
 10
143.5313077796
 20
136.9936792885
 10
143.5533951258
 20
136.9915750017
 10
143.5731860239
 20
136.9892739769
 10
143.5904731197
 20
136.9868003224
 10
143.6050752917
 20
136.9841799554
 10
143.6168395492
 20
136.9814403302
 10
143.625642635
 20
136.9786101504
 10
143.6313923168
 20
136.9757190688
 10
143.6340283538
 20
136.9727973758
  0
LINE
  5
668
100
AcDbEntity
  8
0
100
AcDbLine
 62
7
  6
CONTINUOUS
 10
144.1364788212
 20
137.0699814046
 11
144.2294582755
 21
137.0668458962
  0
LINE
  5
669
100
AcDbEntity
  8
0
100
AcDbLine
 62
7
  6
CONTINUOUS
 10
145.0397970815
 20
137.6668458962
 11
144.8379891592
 21
137.7172786639
  0
LWPOLYLINE
  5
66A
100
AcDbEntity
  8
0
100
AcDbPolyline
 62
7
  6
CONTINUOUS
 90
9
 70
0
 10
163.3312380814
 20
134.0754048963
 10
163.3297847171
 20
134.0757689688
 10
163.3262609613
 20
134.0761228209
 10
163.3206668138
 20
134.0764664526
 10
163.3128494174
 20
134.0768046443
 10
163.3029616294
 20
134.0771326156
 10
163.291462022
 20
134.077436025
 10
163.278413203
 20
134.0777115143
 10
163.2477508552
 20
134.0781845402
  0
LINE
  5
66B
100
AcDbEntity
  8
0
100
AcDbLine
 62
7
  6
CONTINUOUS
 10
162.2167450123
 20
133.9718083574
 11
162.0470540901
 21
134.0267383505
  0
LINE
  5
66C
100
AcDbEntity
  8
0
100
AcDbLine
 62
7
  6
CONTINUOUS
 10
151.5134022067
 20
145.0752795761
 11
151.5283005133
 21
145.0603812695
  0
LINE
  5
66D
100
AcDbEntity
  8
0
100
AcDbLine
 62
7
  6
CONTINUOUS
 10
163.4397970815
 20
133.9668458962
 11
163.3312380814
 21
134.0754048963
  0
LINE
  5
66E
100
AcDbEntity
  8
0
100
AcDbLine
 62
253
  6
CONTINUOUS
 10
153.2677097904
 20
148.9949283334
 11
153.2150570034
 21
149.0668458962
  0
LINE
  5
66F
100
AcDbEntity
  8
0
100
AcDbLine
 62
253
  6
CONTINUOUS
 10
153.3677059827
 20
148.96815728
 11
153.3150754978
 21
149.0400443806
  0
LWPOLYLINE
  5
670
100
AcDbEntity
  8
0
100
AcDbPolyline
 62
253
  6
CONTINUOUS
 90
16
 70
0
 10
160.5891720611
 20
145.8114396519
 10
160.5880483169
 20
145.8138442021
 10
160.5882604811
 20
145.8185051254
 10
160.5898057503
 20
145.8253608471
 10
160.5926637096
 20
145.8343207971
 10
160.5967966022
 20
145.8452666063
 10
160.6021498283
 20
145.8580536709
 10
160.6086526663
 20
145.8725130622
 10
160.6162192072
 20
145.8884537584
 10
160.6247494896
 20
145.9056651686
 10
160.6341308201
 20
145.9239199144
 10
160.6442392622
 20
145.9429768338
 10
160.6549412737
 20
145.9625841678
 10
160.6660954707
 20
145.9824828854
 10
160.6775544957
 20
146.0024101064
 10
160.6891669638
 20
146.0221025741
  0
LINE
  5
671
100
AcDbEntity
  8
0
100
AcDbLine
 62
7
  6
CONTINUOUS
 10
151.5117146443
 20
71.1387634589
 11
151.4397970815
 21
71.0668458962
  0
LWPOLYLINE
  5
672
100
AcDbEntity
  8
0
100
AcDbPolyline
 62
253
  6
CONTINUOUS
 90
13
 70
0
 10
160.2141595192
 20
145.0073839344
 10
160.2115636129
 20
145.0070563109
 10
160.2076255116
 20
145.0043464932
 10
160.2023994832
 20
144.9992918232
 10
160.1959575433
 20
144.991961955
 10
160.1883884631
 20
144.9824578958
 10
160.1797965461
 20
144.9709106134
 10
160.1703001905
 20
144.9574792316
 10
160.160030258
 20
144.9423488374
 10
160.1491282701
 20
144.9257279305
 10
160.1377444585
 20
144.9078455504
 10
160.1260356943
 20
144.8889481196
 10
160.1141633264
 20
144.8692960486
  0
LWPOLYLINE
  5
673
100
AcDbEntity
  8
0
100
AcDbPolyline
 62
253
  6
CONTINUOUS
 90
13
 70
0
 10
130.6654356135
 20
145.0073822551
 10
130.6680314986
 20
145.007054736
 10
130.671969555
 20
145.0043450722
 10
130.6771955171
 20
144.9992906024
 10
130.6836373726
 20
144.9919609759
 10
130.691206354
 20
144.9824571935
 10
130.6997981625
 20
144.9709102153
 10
130.709294405
 20
144.9574791559
 10
130.7195642255
 20
144.9423490925
 10
130.730466108
 20
144.9257285139
 10
130.7418498271
 20
144.9078464479
 10
130.7535585176
 20
144.8889493055
 10
130.7654308366
 20
144.8692974851
  0
LINE
  5
674
100
AcDbEntity
  8
0
100
AcDbLine
 62
7
  6
CONTINUOUS
 10
151.5117146443
 20
148.9949283334
 11
151.4397970815
 21
149.0668458962
  0
LINE
  5
675
100
AcDbEntity
  8
0
100
AcDbLine
 62
253
  6
CONTINUOUS
 10
158.6880770259
 20
74.1957512903
 11
160.2141614396
 21
75.1263089687
  0
LINE
  5
676
100
AcDbEntity
  8
0
100
AcDbLine
 62
253
  6
CONTINUOUS
 10
153.267709787
 20
71.2955171115
 11
155.7027629316
 21
72.7073112997
  0
LINE
  5
677
100
AcDbEntity
  8
0
100
AcDbLine
 62
253
  6
CONTINUOUS
 10
156.553622216
 20
73.200570506
 11
157.519678604
 21
73.7605793934
  0
LINE
  5
678
100
AcDbEntity
  8
0
100
AcDbLine
 62
253
  6
CONTINUOUS
 10
158.3703404064
 20
74.2536674062
 11
160.1141633269
 21
75.2643957441
  0
LINE
  5
679
100
AcDbEntity
  8
0
100
AcDbLine
 62
253
  6
CONTINUOUS
 10
153.3677059827
 20
71.1655345123
 11
155.7803136279
 21
72.5614596527
  0
LINE
  5
67A
100
AcDbEntity
  8
0
100
AcDbLine
 62
253
  6
CONTINUOUS
 10
156.6416147416
 20
73.0597530288
 11
157.5981033602
 21
73.6130838776
  0
LINE
  5
67B
100
AcDbEntity
  8
0
100
AcDbLine
 62
253
  6
CONTINUOUS
 10
158.4593196492
 20
74.1112708508
 11
160.2141614396
 21
75.1263089687
  0
LINE
  5
67C
100
AcDbEntity
  8
0
100
AcDbLine
 62
7
  6
CONTINUOUS
 10
155.1407589759
 20
73.7642870129
 11
155.9201818393
 21
74.2142870129
  0
LINE
  5
67D
100
AcDbEntity
  8
0
100
AcDbLine
 62
7
  6
CONTINUOUS
 10
156.9594123238
 20
74.8142870129
 11
157.7388351872
 21
75.2642870129
  0
LINE
  5
67E
100
AcDbEntity
  8
0
100
AcDbLine
 62
253
  6
CONTINUOUS
 10
155.4493330409
 20
73.1839436022
 11
156.2684869433
 21
73.6568823283
  0
LINE
  5
67F
100
AcDbEntity
  8
0
100
AcDbLine
 62
253
  6
CONTINUOUS
 10
157.2679863889
 20
74.2339436022
 11
158.0871402913
 21
74.7068823283
  0
LINE
  5
680
100
AcDbEntity
  8
0
100
AcDbLine
 62
253
  6
CONTINUOUS
 10
155.6478612347
 20
72.810566374
 11
156.4925770112
 21
73.2982632549
  0
LINE
  5
681
100
AcDbEntity
  8
0
100
AcDbLine
 62
253
  6
CONTINUOUS
 10
157.4665145827
 20
73.860566374
 11
158.3112303592
 21
74.3482632549
  0
LWPOLYLINE
  5
682
100
AcDbEntity
  8
0
100
AcDbPolyline
 62
253
  6
CONTINUOUS
 90
22
 70
0
 10
160.1141633269
 20
75.2643957441
 10
160.1459651872
 20
75.2810820121
 10
160.1779611603
 20
75.2951656368
 10
160.2101512461
 20
75.3066464148
 10
160.2427425169
 20
75.3154850605
 10
160.2755279004
 20
75.3217205649
 10
160.3078861798
 20
75.3254702003
 10
160.3397579802
 20
75.3266958374
 10
160.3712026765
 20
75.3254355366
 10
160.4017771775
 20
75.3219209088
 10
160.4314515033
 20
75.3161362829
 10
160.4602556337
 20
75.3080974461
 10
160.4878364178
 20
75.2980832259
 10
160.5141301541
 20
75.2861255088
 10
160.539200544
 20
75.2721926476
 10
160.5628855406
 20
75.2564681745
 10
160.5852102479
 20
75.2389625793
 10
160.6061495619
 20
75.2196657031
 10
160.6254661227
 20
75.1987301024
 10
160.6430808104
 20
75.1762067549
 10
160.6590727449
 20
75.1520450778
 10
160.6734419262
 20
75.126245294
  0
LWPOLYLINE
  5
683
100
AcDbEntity
  8
0
100
AcDbPolyline
 62
253
  6
CONTINUOUS
 90
10
 70
0
 10
130.3689117732
 20
145.0660230286
 10
130.3581238883
 20
145.0647104732
 10
130.3449111607
 20
145.0619194976
 10
130.3294844113
 20
145.0576946345
 10
130.3120897874
 20
145.0521032953
 10
130.2930048357
 20
145.0452346947
 10
130.2725340737
 20
145.0371984274
 10
130.2510041305
 20
145.0281227191
 10
130.2287585355
 20
145.0181523809
 10
130.2061522369
 20
145.0074464983
  0
LWPOLYLINE
  5
684
100
AcDbEntity
  8
0
100
AcDbPolyline
 62
253
  6
CONTINUOUS
 90
10
 70
0
 10
130.1504998365
 20
145.502154327
 10
130.1396832892
 20
145.5009446946
 10
130.1264507968
 20
145.4982601691
 10
130.1110127593
 20
145.4941434442
 10
130.0936146464
 20
145.4886599859
 10
130.074533094
 20
145.4818969915
 10
130.0540715061
 20
145.4739620034
 10
130.0325552303
 20
145.4649811985
 10
130.0103263846
 20
145.4550973826
 10
129.9877384174
 20
145.4444677191
  0
LINE
  5
685
100
AcDbEntity
  8
0
100
AcDbLine
 62
7
  6
CONTINUOUS
 10
147.0968520815
 20
144.6918458962
 11
148.5573530815
 21
144.6918458962
  0
LINE
  5
686
100
AcDbEntity
  8
0
100
AcDbLine
 62
7
  6
CONTINUOUS
 10
151.5283005133
 20
145.0603812695
 11
150.6512936497
 21
145.0603812695
  0
LINE
  5
687
100
AcDbEntity
  8
0
100
AcDbLine
 62
7
  6
CONTINUOUS
 10
140.2283005133
 20
145.0603812695
 11
139.3512936497
 21
145.0603812695
  0
LINE
  5
688
100
AcDbEntity
  8
0
100
AcDbLine
 62
7
  6
CONTINUOUS
 10
151.5134022067
 20
145.0752795761
 11
150.6661919563
 21
145.0752795761
  0
LINE
  5
689
100
AcDbEntity
  8
0
100
AcDbLine
 62
7
  6
CONTINUOUS
 10
140.2134022067
 20
145.0752795761
 11
139.3661919563
 21
145.0752795761
  0
LINE
  5
68A
100
AcDbEntity
  8
0
100
AcDbLine
 62
7
  6
CONTINUOUS
 10
148.5573530815
 20
145.4418458962
 11
147.0968489695
 21
145.4418458962
  0
LINE
  5
68B
100
AcDbEntity
  8
0
100
AcDbLine
 62
253
  6
CONTINUOUS
 10
151.5023643386
 20
147.6305140544
 11
150.6772298245
 21
147.6305140544
  0
LINE
  5
68C
100
AcDbEntity
  8
0
100
AcDbLine
 62
253
  6
CONTINUOUS
 10
140.2023643386
 20
147.6305140544
 11
139.3772298245
 21
147.6305140544
  0
LINE
  5
68D
100
AcDbEntity
  8
0
100
AcDbLine
 62
7
  6
CONTINUOUS
 10
144.4581873786
 20
146.8667636232
 11
144.5722430815
 21
146.8640658962
  0
LWPOLYLINE
  5
68E
100
AcDbEntity
  8
0
100
AcDbPolyline
 62
253
  6
CONTINUOUS
 90
10
 70
0
 10
160.7290962099
 20
145.5021532397
 10
160.7399127846
 20
145.5009439268
 10
160.7531452186
 20
145.4982597514
 10
160.7685831191
 20
145.4941433912
 10
160.7859810271
 20
145.4886602954
 10
160.8050623195
 20
145.481897644
 10
160.8255236081
 20
145.4739629618
 10
160.847039563
 20
145.4649824083
 10
160.8692680852
 20
145.4550987724
 10
160.8918557462
 20
145.4444692017
  0
LWPOLYLINE
  5
68F
100
AcDbEntity
  8
0
100
AcDbPolyline
 62
253
  6
CONTINUOUS
 90
10
 70
0
 10
160.5106801716
 20
145.0660243094
 10
160.5214680446
 20
145.0647113796
 10
160.5346808546
 20
145.0619199983
 10
160.5501077727
 20
145.0576947167
 10
160.5675026398
 20
145.0521029658
 10
160.5865878945
 20
145.0452339809
 10
160.607059002
 20
145.037197377
 10
160.6285893135
 20
145.0281213998
 10
160.6508352782
 20
145.0181508796
 10
160.6734419256
 20
145.00744492
  0
LWPOLYLINE
  5
690
100
AcDbEntity
  8
0
100
AcDbPolyline
 62
7
  6
CONTINUOUS
 90
7
 70
0
 10
137.558385911
 20
148.9950627993
 10
137.5591400935
 20
148.9948222918
 10
137.5617803934
 20
148.9945875258
 10
137.5663068108
 20
148.9943585016
 10
137.5728015439
 20
148.9941333769
 10
137.5811823944
 20
148.9939139938
 10
137.6029491291
 20
148.9935098318
  0
LINE
  5
691
100
AcDbEntity
  8
0
100
AcDbLine
 62
7
  6
CONTINUOUS
 10
155.1407589759
 20
146.3694047794
 11
155.9201818393
 21
145.9194047794
  0
LINE
  5
692
100
AcDbEntity
  8
0
100
AcDbLine
 62
7
  6
CONTINUOUS
 10
156.9594123238
 20
145.3194047794
 11
157.7388351872
 21
144.8694047794
  0
LINE
  5
693
100
AcDbEntity
  8
0
100
AcDbLine
 62
253
  6
CONTINUOUS
 10
158.0871402913
 20
145.4268094641
 11
157.2679863889
 21
145.8997481901
  0
LINE
  5
694
100
AcDbEntity
  8
0
100
AcDbLine
 62
253
  6
CONTINUOUS
 10
156.2684869433
 20
146.4768094641
 11
155.4493330409
 21
146.9497481901
  0
LINE
  5
695
100
AcDbEntity
  8
0
100
AcDbLine
 62
253
  6
CONTINUOUS
 10
158.3112303592
 20
145.7854285374
 11
157.4665145827
 21
146.2731254183
  0
LINE
  5
696
100
AcDbEntity
  8
0
100
AcDbLine
 62
253
  6
CONTINUOUS
 10
156.4925770112
 20
146.8354285374
 11
155.6478612347
 21
147.3231254183
  0
LINE
  5
697
100
AcDbEntity
  8
0
100
AcDbLine
 62
253
  6
CONTINUOUS
 10
157.5981033602
 20
146.5206079147
 11
156.6416147416
 21
147.0739387635
  0
LINE
  5
698
100
AcDbEntity
  8
0
100
AcDbLine
 62
253
  6
CONTINUOUS
 10
160.2141612183
 20
145.0073829516
 11
158.4593196492
 21
146.0224209415
  0
LINE
  5
699
100
AcDbEntity
  8
0
100
AcDbLine
 62
253
  6
CONTINUOUS
 10
155.7803136279
 20
147.5722321396
 11
153.3677059827
 21
148.96815728
  0
LINE
  5
69A
100
AcDbEntity
  8
0
100
AcDbLine
 62
253
  6
CONTINUOUS
 10
157.5196786036
 20
146.3731123991
 11
156.5536222164
 21
146.9331212861
  0
LINE
  5
69B
100
AcDbEntity
  8
0
100
AcDbLine
 62
253
  6
CONTINUOUS
 10
160.1141633269
 20
144.8692960482
 11
158.3703404063
 21
145.8800243862
  0
LINE
  5
69C
100
AcDbEntity
  8
0
100
AcDbLine
 62
253
  6
CONTINUOUS
 10
155.7027629316
 20
147.4263804926
 11
153.2677097843
 21
148.8381746824
  0
LINE
  5
69D
100
AcDbEntity
  8
0
100
AcDbLine
 62
253
  6
CONTINUOUS
 10
160.2141612183
 20
145.0073829516
 11
158.6880770259
 21
145.937940502
  0
LWPOLYLINE
  5
69E
100
AcDbEntity
  8
0
100
AcDbPolyline
 62
253
  6
CONTINUOUS
 90
25
 70
0
 10
155.7114463883
 20
71.5119314836
 10
155.6932673908
 20
71.5000608488
 10
155.6764667032
 20
71.4862680875
 10
155.6612482105
 20
71.4707104395
 10
155.6477934985
 20
71.4535604459
 10
155.6362747803
 20
71.4350227699
 10
155.6268453151
 20
71.4153366039
 10
155.6196199829
 20
71.3947450218
 10
155.6146807607
 20
71.3734858728
 10
155.6120864065
 20
71.3518107445
 10
155.6118684818
 20
71.3299767256
 10
155.6140303807
 20
71.3082453275
 10
155.6185464288
 20
71.2868775347
 10
155.6253631547
 20
71.2661271443
 10
155.6343990825
 20
71.2462426995
 10
155.6455435985
 20
71.2274655776
 10
155.6586602919
 20
71.2100212805
 10
155.6735931139
 20
71.1941136631
 10
155.6901668633
 20
71.1799280581
 10
155.7082022531
 20
71.1676223103
 10
155.727468788
 20
71.1573577295
 10
155.7476810237
 20
71.1492754246
 10
155.768572967
 20
71.1434576467
 10
155.7899111757
 20
71.1399462285
 10
155.8114426091
 20
71.1387634572
  0
LINE
  5
69F
100
AcDbEntity
  8
0
100
AcDbLine
 62
253
  6
CONTINUOUS
 10
158.9715532205
 20
74.1291567479
 11
160.5106820405
 21
75.0676694606
  0
LINE
  5
6A0
100
AcDbEntity
  8
0
100
AcDbLine
 62
7
  6
CONTINUOUS
 10
158.6880770259
 20
74.1957512903
 11
158.4811743701
 21
74.0762959862
  0
LINE
  5
6A1
100
AcDbEntity
  8
0
100
AcDbLine
 62
7
  6
CONTINUOUS
 10
157.6170731409
 20
73.577406909
 11
156.6625210222
 21
73.0262959862
  0
LINE
  5
6A2
100
AcDbEntity
  8
0
100
AcDbLine
 62
7
  6
CONTINUOUS
 10
155.798419793
 20
72.527406909
 11
153.3150754978
 21
71.0936474117
  0
LINE
  5
6A3
100
AcDbEntity
  8
0
100
AcDbLine
 62
7
  6
CONTINUOUS
 10
155.5150526517
 20
71.440044383
 11
159.0880770259
 21
73.5029309672
  0
LINE
  5
6A4
100
AcDbEntity
  8
0
100
AcDbLine
 62
253
  6
CONTINUOUS
 10
160.6891669635
 20
74.1115910195
 11
155.8114425788
 21
71.2955171124
  0
LINE
  5
6A5
100
AcDbEntity
  8
0
100
AcDbLine
 62
253
  6
CONTINUOUS
 10
160.5891707712
 20
74.3222543744
 11
155.7114463883
 21
71.5119314836
  0
LINE
  5
6A6
100
AcDbEntity
  8
0
100
AcDbLine
 62
253
  6
CONTINUOUS
 10
160.7290955997
 20
74.6315397725
 11
159.1721425577
 21
73.7817258243
  0
LINE
  5
6A7
100
AcDbEntity
  8
0
100
AcDbLine
 62
253
  6
CONTINUOUS
 10
160.5891707712
 20
74.3222543744
 11
159.0880770259
 21
73.5029309672
  0
LWPOLYLINE
  5
6A8
100
AcDbEntity
  8
0
100
AcDbPolyline
 62
253
  6
CONTINUOUS
 90
22
 70
0
 10
160.2141616836
 20
75.1263091175
 10
160.2321010965
 20
75.1359933818
 10
160.2502185884
 20
75.144289605
 10
160.2684085388
 20
75.1511964624
 10
160.2865841088
 20
75.1567305773
 10
160.3046297558
 20
75.1608992716
 10
160.3224014637
 20
75.163701955
 10
160.3397866994
 20
75.1651672305
 10
160.3567211251
 20
75.1653417365
 10
160.3731402243
 20
75.1642567071
 10
160.3889643809
 20
75.1619541589
 10
160.404127769
 20
75.1584848985
 10
160.4185922925
 20
75.1538868456
 10
160.4322733257
 20
75.1482199782
 10
160.4451382376
 20
75.1415303722
 10
160.4572224973
 20
75.1338144192
 10
160.4684753424
 20
75.1251109423
 10
160.4788316649
 20
75.1154667921
 10
160.4882886625
 20
75.104864306
 10
160.4967988712
 20
75.0933213006
 10
160.5042829401
 20
75.0809056196
 10
160.510682057
 20
75.0676694707
  0
LWPOLYLINE
  5
6A9
100
AcDbEntity
  8
0
100
AcDbPolyline
 62
7
  6
CONTINUOUS
 90
10
 70
0
 10
153.3677059827
 20
71.1655345123
 10
153.3574617526
 20
71.1600134015
 10
153.3469135415
 20
71.15509761
 10
153.336097076
 20
71.1508037865
 10
153.3250473765
 20
71.1471459899
 10
153.3138034269
 20
71.1441372789
 10
153.3024083022
 20
71.1417887223
 10
153.2909024278
 20
71.1401076002
 10
153.2793231929
 20
71.1390983354
 10
153.2677097904
 20
71.1387634589
  0
LINE
  5
6AA
100
AcDbEntity
  8
0
100
AcDbLine
 62
253
  6
CONTINUOUS
 10
155.7114463883
 20
71.5119314836
 11
155.5150526517
 21
71.440044383
  0
LINE
  5
6AB
100
AcDbEntity
  8
0
100
AcDbLine
 62
253
  6
CONTINUOUS
 10
155.8114425806
 20
71.1387634589
 11
155.6149656222
 21
71.0668458962
  0
LWPOLYLINE
  5
6AC
100
AcDbEntity
  8
0
100
AcDbPolyline
 62
253
  6
CONTINUOUS
 90
9
 70
0
 10
153.3677059827
 20
148.96815728
 10
153.3651721386
 20
148.9678924335
 10
153.3608871832
 20
148.9656311852
 10
153.3551473531
 20
148.961245133
 10
153.3484798469
 20
148.9545647289
 10
153.3410033964
 20
148.9456793212
 10
153.3323745407
 20
148.9349079355
 10
153.3229209498
 20
148.9222927664
 10
153.3020477945
 20
148.8922223172
  0
LWPOLYLINE
  5
6AD
100
AcDbEntity
  8
0
100
AcDbPolyline
 62
253
  6
CONTINUOUS
 90
11
 70
0
 10
127.6606125564
 20
148.8361015242
 10
127.6359359345
 20
148.8346762115
 10
127.6126330281
 20
148.8322065035
 10
127.5910863736
 20
148.8288015799
 10
127.5714739391
 20
148.8252599666
 10
127.5541569402
 20
148.8211237537
 10
127.5395721449
 20
148.8161632842
 10
127.5279028486
 20
148.8113289334
 10
127.5192781495
 20
148.8066329421
 10
127.513845457
 20
148.8012894521
 10
127.5117146443
 20
148.7949587943
  0
LWPOLYLINE
  5
6AE
100
AcDbEntity
  8
RACCORDO
100
AcDbPolyline
 62
7
  6
CONTINUOUS
 90
19
 70
0
 10
127.3427215409
 20
149.5668458761
 10
127.3019138759
 20
149.5651164169
 10
127.2628695972
 20
149.5604045845
 10
127.2255887046
 20
149.5527103791
 10
127.1898485666
 20
149.5418399155
 10
127.1558718147
 20
149.5279870788
 10
127.1243263438
 20
149.5117335243
 10
127.0954157041
 20
149.4930929282
 10
127.0689363453
 20
149.4720516143
 10
127.0449455105
 20
149.4491502091
 10
127.0235030287
 20
149.4245485023
 10
127.004549071
 20
149.3980867044
 10
126.987961394
 20
149.3698260726
 10
126.973628351
 20
149.3397384586
 10
126.9616615888
 20
149.3078520107
 10
126.9522738037
 20
149.2743124318
 10
126.9455358944
 20
149.2391682895
 10
126.9413769622
 20
149.2023710161
 10
126.939797007
 20
149.1639206117
  0
LINE
  5
6AF
100
AcDbEntity
  8
0
100
AcDbLine
 62
253
  6
CONTINUOUS
 10
127.7116841834
 20
148.8381746788
 11
127.6606125564
 21
148.8361015242
  0
LINE
  5
6B0
100
AcDbEntity
  8
0
100
AcDbLine
 62
253
  6
CONTINUOUS
 10
151.497624834
 20
147.8434960275
 11
150.681969329
 21
147.8434960275
  0
LINE
  5
6B1
100
AcDbEntity
  8
0
100
AcDbLine
 62
253
  6
CONTINUOUS
 10
140.197624834
 20
147.8434960275
 11
139.381969329
 21
147.8434960275
  0
LINE
  5
6B2
100
AcDbEntity
  8
0
100
AcDbLine
 62
253
  6
CONTINUOUS
 10
139.4348346203
 20
148.0022208749
 11
140.1447595428
 21
148.0022208749
  0
LINE
  5
6B3
100
AcDbEntity
  8
0
100
AcDbLine
 62
253
  6
CONTINUOUS
 10
150.7348346203
 20
148.0022208749
 11
151.4447595428
 21
148.0022208749
  0
LINE
  5
6B4
100
AcDbEntity
  8
0
100
AcDbLine
 62
253
  6
CONTINUOUS
 10
139.4397970815
 20
148.3018097354
 11
140.1397970815
 21
148.3018097354
  0
LINE
  5
6B5
100
AcDbEntity
  8
0
100
AcDbLine
 62
253
  6
CONTINUOUS
 10
150.7397970815
 20
148.3018097354
 11
151.4397970815
 21
148.3018097354
  0
LINE
  5
6B6
100
AcDbEntity
  8
0
100
AcDbLine
 62
253
  6
CONTINUOUS
 10
127.7116841834
 20
148.8381746788
 11
135.068151586
 21
148.8381746808
  0
LINE
  5
6B7
100
AcDbEntity
  8
0
100
AcDbLine
 62
253
  6
CONTINUOUS
 10
140.2150622583
 20
148.8381746788
 11
150.6645319048
 21
148.8381746788
  0
LINE
  5
6B8
100
AcDbEntity
  8
0
100
AcDbLine
 62
253
  6
CONTINUOUS
 10
151.5150622583
 20
148.8381746788
 11
153.2677097843
 21
148.8381746824
  0
LINE
  5
6B9
100
AcDbEntity
  8
0
100
AcDbLine
 62
253
  6
CONTINUOUS
 10
155.8114425771
 20
148.8381746808
 11
163.1679099797
 21
148.8381746788
  0
LINE
  5
6BA
100
AcDbEntity
  8
0
100
AcDbLine
 62
253
  6
CONTINUOUS
 10
127.7116841834
 20
148.9949283334
 11
135.0681515825
 21
148.9949283334
  0
LINE
  5
6BB
100
AcDbEntity
  8
0
100
AcDbLine
 62
253
  6
CONTINUOUS
 10
140.2117146443
 20
148.9949283334
 11
150.6678795188
 21
148.9949283334
  0
LINE
  5
6BC
100
AcDbEntity
  8
0
100
AcDbLine
 62
253
  6
CONTINUOUS
 10
151.5117146443
 20
148.9949283334
 11
153.2677097904
 21
148.9949283334
  0
LINE
  5
6BD
100
AcDbEntity
  8
0
100
AcDbLine
 62
253
  6
CONTINUOUS
 10
155.8114425806
 20
148.9949283334
 11
163.1679099797
 21
148.9949283334
  0
LINE
  5
6BE
100
AcDbEntity
  8
0
100
AcDbLine
 62
7
  6
CONTINUOUS
 10
163.2398275425
 20
149.0668458962
 11
155.6149656222
 21
149.0668458962
  0
LINE
  5
6BF
100
AcDbEntity
  8
0
100
AcDbLine
 62
7
  6
CONTINUOUS
 10
153.2150570034
 20
149.0668458962
 11
151.4397970815
 21
149.0668458962
  0
LINE
  5
6C0
100
AcDbEntity
  8
0
100
AcDbLine
 62
7
  6
CONTINUOUS
 10
150.7397970815
 20
149.0668458962
 11
140.1397970815
 21
149.0668458962
  0
LINE
  5
6C1
100
AcDbEntity
  8
0
100
AcDbLine
 62
7
  6
CONTINUOUS
 10
139.4397970815
 20
149.0668458962
 11
137.6109402518
 21
149.0668458962
  0
LINE
  5
6C2
100
AcDbEntity
  8
0
100
AcDbLine
 62
7
  6
CONTINUOUS
 10
135.2646285409
 20
149.0668458962
 11
127.6397666206
 21
149.0668458962
  0
LINE
  5
6C3
100
AcDbEntity
  8
RACCORDO
100
AcDbLine
 62
7
  6
CONTINUOUS
 10
163.536871797
 20
149.5668459707
 11
127.3427215409
 21
149.5668458761
  0
LINE
  5
6C4
100
AcDbEntity
  8
RACCORDO
100
AcDbLine
 62
7
  6
CONTINUOUS
 10
164.4404823267
 20
150.5668458945
 11
126.4391118404
 21
150.566845895
  0
LINE
  5
6C5
100
AcDbEntity
  8
RACCORDO
100
AcDbLine
 62
7
  6
CONTINUOUS
 10
164.4411675468
 20
151.0668458962
 11
126.4384266163
 21
151.0668458962
  0
LINE
  5
6C6
100
AcDbEntity
  8
0
100
AcDbLine
 62
7
  6
CONTINUOUS
 10
137.7184644027
 20
148.9925187912
 11
139.3651290814
 21
148.992177896
  0
LINE
  5
6C7
100
AcDbEntity
  8
0
100
AcDbLine
 62
7
  6
CONTINUOUS
 10
137.6464164587
 20
148.9930000671
 11
137.7184644027
 21
148.9925187912
  0
LINE
  5
6C8
100
AcDbEntity
  8
0
100
AcDbLine
 62
7
  6
CONTINUOUS
 10
137.6029491291
 20
148.9935098318
 11
137.6464164587
 21
148.9930000671
  0
LINE
  5
6C9
100
AcDbEntity
  8
0
100
AcDbLine
 62
7
  6
CONTINUOUS
 10
153.279323231
 20
148.9945934557
 11
153.2677098294
 21
148.9949283353
  0
LWPOLYLINE
  5
6CA
100
AcDbEntity
  8
0
100
AcDbPolyline
 62
253
  6
CONTINUOUS
 90
12
 70
0
 10
163.1679099797
 20
148.8381746788
 10
163.2189816339
 20
148.8361015221
 10
163.2436582648
 20
148.8346762082
 10
163.266961177
 20
148.8322064986
 10
163.2885078335
 20
148.828801573
 10
163.3081202655
 20
148.8252599576
 10
163.3254372583
 20
148.8211237441
 10
163.3400220454
 20
148.8161632752
 10
163.3516913323
 20
148.8113289243
 10
163.3603160226
 20
148.806632933
 10
163.3657487087
 20
148.8012894455
 10
163.3678795188
 20
148.7949587943
  0
LWPOLYLINE
  5
6CB
100
AcDbEntity
  8
RACCORDO
100
AcDbPolyline
 62
7
  6
CONTINUOUS
 90
19
 70
0
 10
164.4404823267
 20
150.5668458945
 10
164.4840574343
 20
150.564983839
 10
164.5268890207
 20
150.5593883141
 10
164.568977086
 20
150.5500593196
 10
164.6107709027
 20
150.5368172138
 10
164.6518211983
 20
150.5198416386
 10
164.690780155
 20
150.4996715191
 10
164.7273924344
 20
150.4762983423
 10
164.7619133749
 20
150.4497306213
 10
164.7937611739
 20
150.4205328212
 10
164.8229106137
 20
150.3887134957
 10
164.8493869121
 20
150.3542640911
 10
164.8726839192
 20
150.3177234117
 10
164.8928140841
 20
150.2788306528
 10
164.9097649578
 20
150.237846619
 10
164.9229930439
 20
150.1960925288
 10
164.932317177
 20
150.1540087881
 10
164.9379185225
 20
150.111154991
 10
164.9397970804
 20
150.0675311373
  0
LWPOLYLINE
  5
6CC
100
AcDbEntity
  8
0
100
AcDbPolyline
 62
253
  6
CONTINUOUS
 90
16
 70
0
 10
163.1679099797
 20
148.9949283334
 10
163.1888083565
 20
148.9938269483
 10
163.2094778548
 20
148.9905475865
 10
163.2296921052
 20
148.9851261637
 10
163.2492297104
 20
148.9776220616
 10
163.2678767127
 20
148.9681174614
 10
163.2854289303
 20
148.9567164299
 10
163.3016941419
 20
148.9435438042
 10
163.3164941846
 20
148.9287438505
 10
163.3296669474
 20
148.9124786641
 10
163.3410681577
 20
148.8949263742
 10
163.3505729407
 20
148.8762792126
 10
163.3580771837
 20
148.8567414286
 10
163.3634986991
 20
148.836527011
 10
163.3667781157
 20
148.8158573411
 10
163.3678795188
 20
148.7949587943
  0
LINE
  5
6CD
100
AcDbEntity
  8
0
100
AcDbLine
 62
253
  6
CONTINUOUS
 10
155.5150526517
 20
148.6936474094
 11
155.7114463883
 21
148.6217603087
  0
LINE
  5
6CE
100
AcDbEntity
  8
0
100
AcDbLine
 62
253
  6
CONTINUOUS
 10
155.6149656222
 20
149.0668458962
 11
155.8114425806
 21
148.9949283334
  0
LWPOLYLINE
  5
6CF
100
AcDbEntity
  8
0
100
AcDbPolyline
 62
7
  6
CONTINUOUS
 90
9
 70
0
 10
153.3677059827
 20
148.96815728
 10
153.3574617587
 20
148.9736783877
 10
153.3469135535
 20
148.9785941771
 10
153.3360970938
 20
148.9828879994
 10
153.3250473998
 20
148.9865457954
 10
153.3138034555
 20
148.9895545065
 10
153.3024083351
 20
148.9919030643
 10
153.2909024638
 20
148.9935841884
 10
153.279323231
 20
148.9945934557
  0
LINE
  5
6D0
100
AcDbEntity
  8
0
100
AcDbLine
 62
253
  6
CONTINUOUS
 10
159.1721425577
 20
146.351965968
 11
160.7290962878
 21
145.5021533955
  0
LINE
  5
6D1
100
AcDbEntity
  8
0
100
AcDbLine
 62
253
  6
CONTINUOUS
 10
159.0880770259
 20
146.6307608251
 11
160.5891707712
 21
145.8114374179
  0
LINE
  5
6D2
100
AcDbEntity
  8
0
100
AcDbLine
 62
253
  6
CONTINUOUS
 10
155.7114463883
 20
148.6217603087
 11
160.5891707712
 21
145.8114374179
  0
LINE
  5
6D3
100
AcDbEntity
  8
0
100
AcDbLine
 62
7
  6
CONTINUOUS
 10
157.6170731409
 20
146.5562848834
 11
156.6625210222
 21
147.1073958061
  0
LINE
  5
6D4
100
AcDbEntity
  8
0
100
AcDbLine
 62
7
  6
CONTINUOUS
 10
153.3150754978
 20
149.0400443806
 11
155.798419793
 21
147.6062848834
  0
LINE
  5
6D5
100
AcDbEntity
  8
0
100
AcDbLine
 62
7
  6
CONTINUOUS
 10
158.4811743701
 20
146.0573958061
 11
158.6880770259
 21
145.937940502
  0
LINE
  5
6D6
100
AcDbEntity
  8
0
100
AcDbLine
 62
7
  6
CONTINUOUS
 10
159.0880770259
 20
146.6307608251
 11
155.5150526517
 21
148.6936474094
  0
LINE
  5
6D7
100
AcDbEntity
  8
0
100
AcDbLine
 62
253
  6
CONTINUOUS
 10
155.8114425771
 20
148.8381746808
 11
160.6891669635
 21
146.0221007728
  0
LINE
  5
6D8
100
AcDbEntity
  8
0
100
AcDbLine
 62
253
  6
CONTINUOUS
 10
160.5106833757
 20
145.0660249944
 11
158.9715532205
 21
146.0045350444
  0
LWPOLYLINE
  5
6D9
100
AcDbEntity
  8
0
100
AcDbPolyline
 62
253
  6
CONTINUOUS
 90
19
 70
0
 10
160.5891707712
 20
145.8114374179
 10
160.6086470575
 20
145.7993642761
 10
160.6272682662
 20
145.7859205414
 10
160.6449211569
 20
145.7711845419
 10
160.6615753718
 20
145.7551892486
 10
160.6770525331
 20
145.7380872326
 10
160.6910522318
 20
145.7201695331
 10
160.7035108748
 20
145.7015764753
 10
160.7143974064
 20
145.6824372488
 10
160.7235250212
 20
145.6630589186
 10
160.7308804447
 20
145.6436171017
 10
160.7365095291
 20
145.6242223278
 10
160.7403649621
 20
145.6050883502
 10
160.7424843619
 20
145.5863802199
 10
160.7429467657
 20
145.5681783915
 10
160.7417775807
 20
145.5505593601
 10
160.739025128
 20
145.5336151738
 10
160.7347727785
 20
145.5174512532
 10
160.7290962731
 20
145.5021534035
  0
LWPOLYLINE
  5
6DA
100
AcDbEntity
  8
0
100
AcDbPolyline
 62
253
  6
CONTINUOUS
 90
19
 70
0
 10
160.6891669635
 20
146.0221007728
 10
160.7231827741
 20
146.0004977763
 10
160.7550170612
 20
145.9765234749
 10
160.7846698248
 20
145.9501775329
 10
160.8123856782
 20
145.9211430525
 10
160.837920008
 20
145.8897361242
 10
160.8605389744
 20
145.8569060208
 10
160.8800976285
 20
145.8226051334
 10
160.8967409192
 20
145.7868805111
 10
160.9101698529
 20
145.7508238001
 10
160.920242416
 20
145.7144953508
 10
160.9271006223
 20
145.6778346919
 10
160.930871519
 20
145.641752659
 10
160.9314886311
 20
145.6063594602
 10
160.9290184336
 20
145.5715451539
 10
160.9237873992
 20
145.5378906588
 10
160.9159043519
 20
145.505589816
 10
160.9052604675
 20
145.4744492597
 10
160.8918557462
 20
145.4444692017
  0
LWPOLYLINE
  5
6DB
100
AcDbEntity
  8
0
100
AcDbPolyline
 62
253
  6
CONTINUOUS
 90
25
 70
0
 10
155.7114463883
 20
148.6217603087
 10
155.6932673484
 20
148.6336309746
 10
155.6764666342
 20
148.6474237681
 10
155.6612481295
 20
148.6629814452
 10
155.6477934185
 20
148.6801314607
 10
155.6362747108
 20
148.698669149
 10
155.6268452613
 20
148.7183553186
 10
155.6196199478
 20
148.7389468909
 10
155.6146807431
 20
148.7602060195
 10
155.6120864012
 20
148.7818811296
 10
155.6118684851
 20
148.8037151405
 10
155.6140303914
 20
148.8254465341
 10
155.6185464451
 20
148.8468143181
 10
155.6253631719
 20
148.8675646921
 10
155.6343990957
 20
148.887449118
 10
155.6455436042
 20
148.9062262232
 10
155.6586602874
 20
148.9236705065
 10
155.673593097
 20
148.9395781131
 10
155.6901668346
 20
148.9537637122
 10
155.7082022149
 20
148.9660694591
 10
155.7274687431
 20
148.9763340422
 10
155.747680976
 20
148.9844163516
 10
155.7685729211
 20
148.9902341348
 10
155.7899111362
 20
148.9937455582
 10
155.8114425806
 20
148.9949283334
  0
ARC
  5
6DC
100
AcDbEntity
  8
0
100
AcDbCircle
 62
253
  6
CONTINUOUS
 10
92.2397970815
 20
91.5668458962
 40
70.4849638392
100
AcDbArc
 50
355.6061455101
 51
356.1766296144
  0
ARC
  5
6DD
100
AcDbEntity
  8
0
100
AcDbCircle
 62
253
  6
CONTINUOUS
 10
92.2397970815
 20
128.5668458962
 40
70.4849638392
100
AcDbArc
 50
3.8233703856
 51
4.3938544899
  0
ARC
  5
6DE
100
AcDbEntity
  8
0
100
AcDbCircle
 62
253
  6
CONTINUOUS
 10
198.6397970815
 20
128.5668458962
 40
70.4849638392
100
AcDbArc
 50
175.6061455101
 51
176.1766296144
  0
ARC
  5
6DF
100
AcDbEntity
  8
0
100
AcDbCircle
 62
253
  6
CONTINUOUS
 10
198.6397970815
 20
91.5668458962
 40
70.4849638392
100
AcDbArc
 50
183.8233703856
 51
184.3938544899
  0
ARC
  5
6E0
100
AcDbEntity
  8
0
100
AcDbCircle
 62
253
  6
CONTINUOUS
 10
198.6397970815
 20
128.5668458962
 40
70.1853749788
100
AcDbArc
 50
175.5832899334
 51
176.1643451994
  0
ARC
  5
6E1
100
AcDbEntity
  8
0
100
AcDbCircle
 62
253
  6
CONTINUOUS
 10
198.6397970815
 20
91.5668458962
 40
70.1853749788
100
AcDbArc
 50
183.8356548006
 51
184.4167100666
  0
ARC
  5
6E2
100
AcDbEntity
  8
0
100
AcDbCircle
 62
253
  6
CONTINUOUS
 10
92.2397970815
 20
91.5668458962
 40
70.1853749788
100
AcDbArc
 50
355.5832899334
 51
356.1643451994
  0
ARC
  5
6E3
100
AcDbEntity
  8
0
100
AcDbCircle
 62
253
  6
CONTINUOUS
 10
92.2397970815
 20
128.5668458962
 40
70.1853749788
100
AcDbArc
 50
3.8356548006
 51
4.4167100666
  0
ARC
  5
6E4
100
AcDbEntity
  8
0
100
AcDbCircle
 62
7
  6
CONTINUOUS
 10
148.8573530815
 20
145.0668458962
 40
2.5499986575
100
AcDbArc
 50
87.752529198
 51
272.247470802
  0
ARC
  5
6E5
100
AcDbEntity
  8
0
100
AcDbCircle
 62
7
  6
CONTINUOUS
 10
144.4722430815
 20
145.0668458962
 40
2.5499985399
100
AcDbArc
 50
87.7525290943
 51
272.2474709057
  0
ARC
  5
6E6
100
AcDbEntity
  8
0
100
AcDbCircle
 62
7
  6
CONTINUOUS
 10
130.0397970815
 20
127.0668458962
 40
2.0240299518
100
AcDbArc
 50
22.0885283167
 51
3.4299000434
  0
ARC
  5
6E7
100
AcDbEntity
  8
0
100
AcDbCircle
 62
7
  6
CONTINUOUS
 10
133.8553540815
 20
127.0056268962
 40
1.8043863978
100
AcDbArc
 50
137.231266101
 51
174.2010647067
  0
ARC
  5
6E8
100
AcDbEntity
  8
0
100
AcDbCircle
 62
7
  6
CONTINUOUS
 10
148.8573530815
 20
145.0668458962
 40
1.7999999246
100
AcDbArc
 50
86.8152613297
 51
167.9753003079
  0
ARC
  5
6E9
100
AcDbEntity
  8
0
100
AcDbCircle
 62
7
  6
CONTINUOUS
 10
144.4722430815
 20
145.0668458962
 40
1.7999999246
100
AcDbArc
 50
90.4474182772
 51
273.1847386703
  0
ARC
  5
6EA
100
AcDbEntity
  8
0
100
AcDbCircle
 62
7
  6
CONTINUOUS
 10
148.8573530815
 20
145.0668458962
 40
1.7999968808
100
AcDbArc
 50
192.0247203293
 51
273.1847440612
  0
ARC
  5
6EB
100
AcDbEntity
  8
0
100
AcDbCircle
 62
7
  6
CONTINUOUS
 10
133.5630840815
 20
127.1476318962
 40
1.7827319001
100
AcDbArc
 50
135.4349102329
 51
157.565881117
  0
CIRCLE
  5
6EC
100
AcDbEntity
  8
0
100
AcDbCircle
 62
7
  6
CONTINUOUS
 10
130.0397970815
 20
127.0668458962
 40
1.700044
  0
ARC
  5
6ED
100
AcDbEntity
  8
0
100
AcDbCircle
 62
7
  6
CONTINUOUS
 10
130.0397970815
 20
127.0668458962
 40
1.5204522959
100
AcDbArc
 50
224.9002633258
 51
330.6958764731
  0
ARC
  5
6EE
100
AcDbEntity
  8
0
100
AcDbCircle
 62
7
  6
CONTINUOUS
 10
130.0397970815
 20
127.0668458962
 40
1.5204520975
100
AcDbArc
 50
29.3041235269
 51
134.9957610488
  0
ARC
  5
6EF
100
AcDbEntity
  8
0
100
AcDbCircle
 62
7
  6
CONTINUOUS
 10
130.0397970815
 20
127.0668458962
 40
1.2181566122
100
AcDbArc
 50
29.3041277351
 51
121.9732965665
  0
ARC
  5
6F0
100
AcDbEntity
  8
0
100
AcDbCircle
 62
7
  6
CONTINUOUS
 10
130.0397970815
 20
127.0668458962
 40
1.2181564327
100
AcDbArc
 50
238.0267046423
 51
330.6958722649
  0
ARC
  5
6F1
100
AcDbEntity
  8
RACCORDO
100
AcDbCircle
 62
7
  6
CONTINUOUS
 10
155.8897970815
 20
88.3668458962
 40
0.8
100
AcDbArc
 50
270.0
 51
360.0
  0
ARC
  5
6F2
100
AcDbEntity
  8
RACCORDO
100
AcDbCircle
 62
7
  6
CONTINUOUS
 10
155.8897970815
 20
131.7668458962
 40
0.8
100
AcDbArc
 50
0.0
 51
90.0
  0
ARC
  5
6F3
100
AcDbEntity
  8
RACCORDO
100
AcDbCircle
 62
7
  6
CONTINUOUS
 10
134.9897970815
 20
131.7668458962
 40
0.8
100
AcDbArc
 50
90.0
 51
180.0
  0
ARC
  5
6F4
100
AcDbEntity
  8
RACCORDO
100
AcDbCircle
 62
7
  6
CONTINUOUS
 10
134.9897970815
 20
88.3668458962
 40
0.8
100
AcDbArc
 50
180.0
 51
270.0
  0
ELLIPSE
  5
6F5
100
AcDbEntity
  8
RACCORDO
100
AcDbEllipse
 62
7
  6
CONTINUOUS
 10
164.4384247355
 20
70.0682182422
 30
0.0
 11
-0.7090462434
 21
0.7090462434
 31
0.0
 40
0.9972646886
 41
2.3575640181
 42
3.9256212891
  0
ELLIPSE
  5
6F6
100
AcDbEntity
  8
RACCORDO
100
AcDbEllipse
 62
7
  6
CONTINUOUS
 10
126.4411694275
 20
70.0682182422
 30
0.0
 11
0.7090462434
 21
0.7090462434
 31
0.0
 40
0.9972646886
 41
2.3575640181
 42
3.9256212891
  0
ELLIPSE
  5
6F7
100
AcDbEntity
  8
RACCORDO
100
AcDbEllipse
 62
7
  6
CONTINUOUS
 10
126.4411694275
 20
150.0654735502
 30
0.0
 11
0.7090462434
 21
-0.7090462434
 31
0.0
 40
0.9972646886
 41
2.3575640181
 42
3.9256212891
  0
ELLIPSE
  5
6F8
100
AcDbEntity
  8
RACCORDO
100
AcDbEllipse
 62
7
  6
CONTINUOUS
 10
164.4384247355
 20
150.0654735502
 30
0.0
 11
-0.7090462434
 21
-0.7090462434
 31
0.0
 40
0.9972646886
 41
2.3575640181
 42
3.9256212891
  0
ELLIPSE
  5
6F9
100
AcDbEntity
  8
0
100
AcDbEllipse
 62
7
  6
CONTINUOUS
 10
150.3025360029
 20
110.0668458962
 30
0.0
 11
0.0
 21
448.5
 31
0.0
 40
0.0174550649
 41
-1.6210504001
 42
-1.5205422535
  0
ELLIPSE
  5
6FA
100
AcDbEntity
  8
0
100
AcDbEllipse
 62
7
  6
CONTINUOUS
 10
140.5770581602
 20
110.0668458962
 30
0.0
 11
0.0
 21
448.5
 31
0.0
 40
0.0174550649
 41
1.5205422535
 42
1.6210504001
  0
ELLIPSE
  5
6FB
100
AcDbEntity
  8
0
100
AcDbEllipse
 62
7
  6
CONTINUOUS
 10
158.7875306999
 20
74.0222219942
 30
0.0
 11
0.1817233154
 21
0.1108090981
 31
0.0
 40
0.9396610255
 41
-0.0225263213
 42
1.5452853501
  0
ELLIPSE
  5
6FC
100
AcDbEntity
  8
0
100
AcDbEllipse
 62
7
  6
CONTINUOUS
 10
158.9875230842
 20
73.6758250235
 30
0.0
 11
-0.1868251516
 21
-0.1019724586
 31
0.0
 40
0.9396610255
 41
1.5963073035
 42
3.1641189749
  0
ELLIPSE
  5
6FD
100
AcDbEntity
  8
0
100
AcDbEllipse
 62
7
  6
CONTINUOUS
 10
158.9875230842
 20
146.4578667689
 30
0.0
 11
0.1868251516
 21
-0.1019724586
 31
0.0
 40
0.9396610255
 41
-0.0225263213
 42
1.5452853501
  0
ELLIPSE
  5
6FE
100
AcDbEntity
  8
0
100
AcDbEllipse
 62
7
  6
CONTINUOUS
 10
140.1973507758
 20
72.5897846252
 30
0.0
 11
0.0
 21
0.3
 31
0.0
 40
0.0174550649
 41
-3.089232776
 42
-1.8636542326
  0
ELLIPSE
  5
6FF
100
AcDbEntity
  8
0
100
AcDbEllipse
 62
7
  6
CONTINUOUS
 10
139.3822433873
 20
72.5897846252
 30
0.0
 11
0.0
 21
0.3
 31
0.0
 40
0.0174550649
 41
-4.4195310746
 42
-3.1939525311
  0
ELLIPSE
  5
700
100
AcDbEntity
  8
0
100
AcDbEllipse
 62
7
  6
CONTINUOUS
 10
151.4973507758
 20
72.5897846252
 30
0.0
 11
-0.0
 21
0.3
 31
0.0
 40
0.0174550649
 41
-3.089232776
 42
-1.8636542326
  0
ELLIPSE
  5
701
100
AcDbEntity
  8
0
100
AcDbEllipse
 62
7
  6
CONTINUOUS
 10
150.6822433873
 20
72.5897846252
 30
0.0
 11
0.0
 21
0.3
 31
0.0
 40
0.0174550649
 41
-4.4195310746
 42
-3.1939525311
  0
ELLIPSE
  5
702
100
AcDbEntity
  8
0
100
AcDbEllipse
 62
7
  6
CONTINUOUS
 10
150.6822433873
 20
147.5439071671
 30
0.0
 11
0.0
 21
0.3
 31
0.0
 40
0.0174550649
 41
0.0523598776
 42
1.277938421
  0
ELLIPSE
  5
703
100
AcDbEntity
  8
0
100
AcDbEllipse
 62
7
  6
CONTINUOUS
 10
151.4973507758
 20
147.5439071671
 30
0.0
 11
0.0
 21
0.3
 31
0.0
 40
0.0174550649
 41
-1.277938421
 42
-0.0523598776
  0
ELLIPSE
  5
704
100
AcDbEntity
  8
0
100
AcDbEllipse
 62
7
  6
CONTINUOUS
 10
139.3822433873
 20
147.5439071671
 30
0.0
 11
0.0
 21
0.3
 31
0.0
 40
0.0174550649
 41
0.0523598776
 42
1.277938421
  0
ELLIPSE
  5
705
100
AcDbEntity
  8
0
100
AcDbEllipse
 62
7
  6
CONTINUOUS
 10
140.1973507758
 20
147.5439071671
 30
0.0
 11
0.0
 21
0.3
 31
0.0
 40
0.0174550649
 41
-1.277938421
 42
-0.0523598776
  0
ELLIPSE
  5
706
100
AcDbEntity
  8
0
100
AcDbEllipse
 62
7
  6
CONTINUOUS
 10
135.264462091
 20
71.2668763618
 30
0.0
 11
0.1880555441
 21
-0.0688350253
 31
0.0
 40
0.9987131335
 41
-1.2194920612
 42
1.3978678259
  0
ELLIPSE
  5
707
100
AcDbEntity
  8
0
100
AcDbEllipse
 62
7
  6
CONTINUOUS
 10
137.6644925537
 20
71.2668763618
 30
0.0
 11
-0.1181737429
 21
0.1614115426
 31
0.0
 40
0.9997660869
 41
-4.2970689654
 42
-3.7734450476
  0
ELLIPSE
  5
708
100
AcDbEntity
  8
0
100
AcDbEllipse
 62
7
  6
CONTINUOUS
 10
147.9656155153
 20
127.6768458962
 30
0.0
 11
0.0
 21
97.9331051068
 31
0.0
 40
0.0174550649
 41
1.4835298688
 42
1.5053785998
  0
ELLIPSE
  5
709
100
AcDbEntity
  8
0
100
AcDbEllipse
 62
7
  6
CONTINUOUS
 10
142.9139786477
 20
127.6768458962
 30
0.0
 11
0.0
 21
97.9331051068
 31
0.0
 40
0.0174550649
 41
-1.5053785998
 42
-1.4835298688
  0
ELLIPSE
  5
70A
100
AcDbEntity
  8
0
100
AcDbEllipse
 62
7
  6
CONTINUOUS
 10
156.4139786477
 20
127.6768458962
 30
0.0
 11
0.0
 21
97.9331051068
 31
0.0
 40
0.0174550649
 41
-1.5205422535
 42
-1.5148409328
  0
ELLIPSE
  5
70B
100
AcDbEntity
  8
0
100
AcDbEllipse
 62
7
  6
CONTINUOUS
 10
134.4656155153
 20
127.6768458962
 30
0.0
 11
0.0
 21
97.9331051068
 31
0.0
 40
0.0174550649
 41
1.5148409328
 42
1.5205422535
  0
ELLIPSE
  5
70C
100
AcDbEntity
  8
0
100
AcDbEllipse
 62
7
  6
CONTINUOUS
 10
155.6151320721
 20
71.2668763618
 30
0.0
 11
0.1880555441
 21
0.0688350253
 31
0.0
 40
0.9987131335
 41
1.7437248277
 42
4.3610847147
  0
ELLIPSE
  5
70D
100
AcDbEntity
  8
0
100
AcDbEllipse
 62
7
  6
CONTINUOUS
 10
153.2151016094
 20
71.2668763618
 30
0.0
 11
0.118173743
 21
0.1614115426
 31
0.0
 40
0.9997660869
 41
-2.5097402594
 42
-1.9861163416
  0
ELLIPSE
  5
70E
100
AcDbEntity
  8
0
100
AcDbEllipse
 62
7
  6
CONTINUOUS
 10
158.7875306999
 20
146.1114697981
 30
0.0
 11
-0.1817233154
 21
0.1108090981
 31
0.0
 40
0.9396610255
 41
1.5963073035
 42
3.1641189749
  0
ELLIPSE
  5
70F
100
AcDbEntity
  8
0
100
AcDbEllipse
 62
7
  6
CONTINUOUS
 10
155.6151320721
 20
148.8668154305
 30
0.0
 11
0.1880555441
 21
-0.0688350253
 31
0.0
 40
0.9987131335
 41
1.9221005924
 42
4.5394604795
  0
ELLIPSE
  5
710
100
AcDbEntity
  8
0
100
AcDbEllipse
 62
7
  6
CONTINUOUS
 10
141.0335767102
 20
127.6768458962
 30
0.0
 11
0.0
 21
97.9331051068
 31
0.0
 40
0.0174550649
 41
1.3513882206
 42
1.3923465531
  0
ELLIPSE
  5
711
100
AcDbEntity
  8
0
100
AcDbEllipse
 62
7
  6
CONTINUOUS
 10
138.5460174529
 20
127.6768458962
 30
0.0
 11
0.0
 21
97.9331051068
 31
0.0
 40
0.0174550649
 41
-1.3923465531
 42
-1.3529990921
  0
ELLIPSE
  5
712
100
AcDbEntity
  8
0
100
AcDbEllipse
 62
7
  6
CONTINUOUS
 10
152.3335767102
 20
127.6768458962
 30
0.0
 11
0.0
 21
97.9331051068
 31
0.0
 40
0.0174550649
 41
1.3529990921
 42
1.3923465531
  0
ELLIPSE
  5
713
100
AcDbEntity
  8
0
100
AcDbEllipse
 62
7
  6
CONTINUOUS
 10
149.8460174529
 20
127.6768458962
 30
0.0
 11
0.0
 21
97.9331051068
 31
0.0
 40
0.0174550649
 41
-1.3923465531
 42
-1.3529990921
  0
ELLIPSE
  5
714
100
AcDbEntity
  8
0
100
AcDbEllipse
 62
7
  6
CONTINUOUS
 10
153.2151016094
 20
148.8668154305
 30
0.0
 11
-0.118173743
 21
0.1614115426
 31
0.0
 40
0.9997660869
 41
-1.155476312
 42
-0.6318523942
  0
ELLIPSE
  5
715
100
AcDbEntity
  8
0
100
AcDbEllipse
 62
7
  6
CONTINUOUS
 10
135.264462091
 20
148.8668154305
 30
0.0
 11
0.1880555441
 21
0.0688350253
 31
0.0
 40
0.9987131335
 41
-1.3978678259
 42
1.2194920612
  0
ELLIPSE
  5
716
100
AcDbEntity
  8
0
100
AcDbEllipse
 62
7
  6
CONTINUOUS
 10
142.9139786477
 20
92.4568458962
 30
0.0
 11
0.0
 21
97.9331051068
 31
0.0
 40
0.0174550649
 41
-1.6580627848
 42
-1.6362140538
  0
ELLIPSE
  5
717
100
AcDbEntity
  8
0
100
AcDbEllipse
 62
7
  6
CONTINUOUS
 10
147.9656155153
 20
92.4568458962
 30
0.0
 11
0.0
 21
97.9331051068
 31
0.0
 40
0.0174550649
 41
-4.6469712534
 42
-4.6251225224
  0
ELLIPSE
  5
718
100
AcDbEntity
  8
0
100
AcDbEllipse
 62
7
  6
CONTINUOUS
 10
156.4139786477
 20
92.4568458962
 30
0.0
 11
0.0
 21
97.9331051068
 31
0.0
 40
0.0174550649
 41
-1.6267517208
 42
-1.6210504001
  0
ELLIPSE
  5
719
100
AcDbEntity
  8
0
100
AcDbEllipse
 62
7
  6
CONTINUOUS
 10
134.4656155153
 20
92.4568458962
 30
0.0
 11
0.0
 21
97.9331051068
 31
0.0
 40
0.0174550649
 41
-4.6621349071
 42
-4.6564335864
  0
ELLIPSE
  5
71A
100
AcDbEntity
  8
0
100
AcDbEllipse
 62
7
  6
CONTINUOUS
 10
149.8460174529
 20
92.4568458962
 30
0.0
 11
0.0
 21
97.9331051068
 31
0.0
 40
0.0174550649
 41
-1.7885935615
 42
-1.7492461005
  0
ELLIPSE
  5
71B
100
AcDbEntity
  8
0
100
AcDbEllipse
 62
7
  6
CONTINUOUS
 10
152.3335767102
 20
92.4568458962
 30
0.0
 11
0.0
 21
97.9331051068
 31
0.0
 40
0.0174550649
 41
-4.5339392067
 42
-4.4945917456
  0
ELLIPSE
  5
71C
100
AcDbEntity
  8
0
100
AcDbEllipse
 62
7
  6
CONTINUOUS
 10
138.5460174529
 20
92.4568458962
 30
0.0
 11
0.0
 21
97.9331051068
 31
0.0
 40
0.0174550649
 41
-1.7885935615
 42
-1.7492461005
  0
ELLIPSE
  5
71D
100
AcDbEntity
  8
0
100
AcDbEllipse
 62
7
  6
CONTINUOUS
 10
141.0335767102
 20
92.4568458962
 30
0.0
 11
0.0
 21
97.9331051068
 31
0.0
 40
0.0174550649
 41
-4.5339392067
 42
-4.4945917456
  0
ELLIPSE
  5
71E
100
AcDbEntity
  8
0
100
AcDbEllipse
 62
7
  6
CONTINUOUS
 10
144.1368571961
 20
136.7697857816
 30
0.0
 11
0.2870477648
 21
-0.1248082944
 31
0.0
 40
0.9518332917
 41
1.9644088899
 42
3.5339872415
  0
ELLIPSE
  5
71F
100
AcDbEntity
  8
0
100
AcDbEllipse
 62
7
  6
CONTINUOUS
 10
146.742736967
 20
136.7697857816
 30
0.0
 11
0.2870477648
 21
0.1248082944
 31
0.0
 40
0.9518332917
 41
-0.3923945879
 42
1.1771837637
  0
ELLIPSE
  5
720
100
AcDbEntity
  8
0
100
AcDbEllipse
 62
7
  6
CONTINUOUS
 10
144.1368571961
 20
83.3639060107
 30
0.0
 11
0.2870477648
 21
0.1248082944
 31
0.0
 40
0.9518332917
 41
2.7491980657
 42
4.3187764173
  0
ELLIPSE
  5
721
100
AcDbEntity
  8
0
100
AcDbEllipse
 62
7
  6
CONTINUOUS
 10
146.742736967
 20
83.3639060107
 30
0.0
 11
0.2870477648
 21
-0.1248082944
 31
0.0
 40
0.9518332917
 41
-1.1771837637
 42
0.3923945879
  0
ELLIPSE
  5
722
100
AcDbEntity
  8
0
100
AcDbEllipse
 62
7
  6
CONTINUOUS
 10
127.6398275471
 20
71.2668763618
 30
0.0
 11
0.1414644378
 21
0.1414644378
 31
0.0
 40
0.9996954599
 41
-3.9268385237
 42
-2.3563467834
  0
ELLIPSE
  5
723
100
AcDbEntity
  8
0
100
AcDbEllipse
 62
7
  6
CONTINUOUS
 10
163.2397666159
 20
71.2668763618
 30
0.0
 11
-0.1414644378
 21
0.1414644378
 31
0.0
 40
0.9996954599
 41
-3.9268385237
 42
-2.3563467834
  0
ELLIPSE
  5
724
100
AcDbEntity
  8
0
100
AcDbEllipse
 62
7
  6
CONTINUOUS
 10
163.2397666159
 20
148.8668154305
 30
0.0
 11
0.1414644379
 21
0.1414644378
 31
0.0
 40
0.9996954599
 41
-0.78524587
 42
0.7852458703
  0
ELLIPSE
  5
725
100
AcDbEntity
  8
0
100
AcDbEllipse
 62
7
  6
CONTINUOUS
 10
127.6398275471
 20
148.8668154305
 30
0.0
 11
0.1414644378
 21
-0.1414644379
 31
0.0
 40
0.9996954599
 41
2.3563467836
 42
3.9268385239
  0
ELLIPSE
  5
726
100
AcDbEntity
  8
0
100
AcDbEllipse
 62
7
  6
CONTINUOUS
 10
144.8364546974
 20
82.5633206487
 30
0.0
 11
0.0
 21
0.3
 31
0.0
 40
0.0349207695
 41
0.034906585
 42
0.1347100638
  0
ELLIPSE
  5
727
100
AcDbEntity
  8
0
100
AcDbEllipse
 62
7
  6
CONTINUOUS
 10
146.0431394657
 20
82.5633206487
 30
0.0
 11
0.0
 21
0.3
 31
0.0
 40
0.0349207695
 41
-0.1347100637
 42
-0.034906585
  0
ELLIPSE
  5
728
100
AcDbEntity
  8
0
100
AcDbEllipse
 62
7
  6
CONTINUOUS
 10
142.0335394187
 20
74.7469893823
 30
0.0
 11
-0.0
 21
5.1872524353
 31
0.0
 40
0.0874886635
 41
-3.7752806569
 42
-3.3496506657
  0
ELLIPSE
  5
729
100
AcDbEntity
  8
0
100
AcDbEllipse
 62
7
  6
CONTINUOUS
 10
148.8460547444
 20
74.7469893823
 30
0.0
 11
-0.0
 21
5.1872524353
 31
0.0
 40
0.0874886635
 41
-2.9335346414
 42
-2.5079046503
  0
ELLIPSE
  5
72A
100
AcDbEntity
  8
0
100
AcDbEllipse
 62
7
  6
CONTINUOUS
 10
132.0920634632
 20
146.1114697981
 30
0.0
 11
-0.1817233154
 21
-0.1108090981
 31
0.0
 40
0.9396610255
 41
-0.0225263213
 42
1.5452853501
  0
ELLIPSE
  5
72B
100
AcDbEntity
  8
0
100
AcDbEllipse
 62
7
  6
CONTINUOUS
 10
131.8920710788
 20
146.4578667689
 30
0.0
 11
0.1868251516
 21
0.1019724586
 31
0.0
 40
0.9396610255
 41
1.5963073035
 42
3.1641189749
  0
ELLIPSE
  5
72C
100
AcDbEntity
  8
0
100
AcDbEllipse
 62
7
  6
CONTINUOUS
 10
146.0431394657
 20
137.5703711436
 30
0.0
 11
-0.0
 21
0.3
 31
0.0
 40
0.0349207695
 41
-3.1066860685
 42
-3.0068825898
  0
ELLIPSE
  5
72D
100
AcDbEntity
  8
0
100
AcDbEllipse
 62
7
  6
CONTINUOUS
 10
144.8364546974
 20
137.5703711436
 30
0.0
 11
-0.0
 21
0.3
 31
0.0
 40
0.0349207695
 41
-3.2763027173
 42
-3.1764992386
  0
ELLIPSE
  5
72E
100
AcDbEntity
  8
0
100
AcDbEllipse
 62
7
  6
CONTINUOUS
 10
131.8920710788
 20
73.6758250235
 30
0.0
 11
-0.1868251516
 21
0.1019724586
 31
0.0
 40
0.9396610255
 41
-0.0225263213
 42
1.5452853501
  0
ELLIPSE
  5
72F
100
AcDbEntity
  8
0
100
AcDbEllipse
 62
7
  6
CONTINUOUS
 10
132.0920634632
 20
74.0222219942
 30
0.0
 11
0.1817233154
 21
-0.1108090981
 31
0.0
 40
0.9396610255
 41
1.5963073035
 42
3.1641189749
  0
ELLIPSE
  5
730
100
AcDbEntity
  8
0
100
AcDbEllipse
 62
7
  6
CONTINUOUS
 10
152.9397970815
 20
86.2471910912
 30
0.0
 11
40.2
 21
-0.0
 31
0.0
 40
0.0174550649
 41
1.3466871571
 42
1.4424785344
  0
ELLIPSE
  5
731
100
AcDbEntity
  8
0
100
AcDbEllipse
 62
7
  6
CONTINUOUS
 10
137.9397970815
 20
86.2471910912
 30
0.0
 11
40.2
 21
-0.0
 31
0.0
 40
0.0174550649
 41
1.6991141192
 42
1.7949054965
  0
ELLIPSE
  5
732
100
AcDbEntity
  8
0
100
AcDbEllipse
 62
7
  6
CONTINUOUS
 10
152.9397970815
 20
133.8865007011
 30
0.0
 11
40.2
 21
0.0
 31
0.0
 40
0.0174550649
 41
-1.4424785344
 42
-1.3466871571
  0
ELLIPSE
  5
733
100
AcDbEntity
  8
0
100
AcDbEllipse
 62
7
  6
CONTINUOUS
 10
137.9397970815
 20
133.8865007011
 30
0.0
 11
40.2
 21
-0.0
 31
0.0
 40
0.0174550649
 41
-1.7949054965
 42
-1.6991141192
  0
ELLIPSE
  5
734
100
AcDbEntity
  8
0
100
AcDbEllipse
 62
7
  6
CONTINUOUS
 10
150.6679404453
 20
71.338732998
 30
0.0
 11
0.0
 21
0.2
 31
0.0
 40
0.0174550649
 41
-4.4945917456
 42
-3.1590459461
  0
ELLIPSE
  5
735
100
AcDbEntity
  8
0
100
AcDbEllipse
 62
7
  6
CONTINUOUS
 10
150.7345605621
 20
71.8318820569
 30
0.0
 11
0.0
 21
0.3
 31
0.0
 40
0.0174550649
 41
-1.5707963268
 42
-0.0523598776
  0
ELLIPSE
  5
736
100
AcDbEntity
  8
0
100
AcDbEllipse
 62
7
  6
CONTINUOUS
 10
151.1150809775
 20
80.0668458962
 30
0.0
 11
0.0
 21
26.2
 31
0.0
 40
0.0174550649
 41
-4.5200435552
 42
-4.4195310746
  0
ELLIPSE
  5
737
100
AcDbEntity
  8
0
100
AcDbEllipse
 62
7
  6
CONTINUOUS
 10
151.445033601
 20
71.8318820569
 30
0.0
 11
-0.0
 21
0.3
 31
0.0
 40
0.0174550649
 41
0.0523598776
 42
1.5707963268
  0
ELLIPSE
  5
738
100
AcDbEntity
  8
0
100
AcDbEllipse
 62
7
  6
CONTINUOUS
 10
151.5116537177
 20
71.338732998
 30
0.0
 11
-0.0
 21
0.2
 31
0.0
 40
0.0174550649
 41
-3.1241393611
 42
-1.7885935615
  0
ELLIPSE
  5
739
100
AcDbEntity
  8
0
100
AcDbEllipse
 62
7
  6
CONTINUOUS
 10
151.0645131856
 20
80.0668458962
 30
0.0
 11
-0.0
 21
26.2
 31
0.0
 40
0.0174550649
 41
-1.8636542326
 42
-1.7631417519
  0
ELLIPSE
  5
73A
100
AcDbEntity
  8
0
100
AcDbEllipse
 62
7
  6
CONTINUOUS
 10
139.3679404453
 20
71.338732998
 30
0.0
 11
0.0
 21
0.2
 31
0.0
 40
0.0174550649
 41
-4.4945917456
 42
-3.1590459461
  0
ELLIPSE
  5
73B
100
AcDbEntity
  8
0
100
AcDbEllipse
 62
7
  6
CONTINUOUS
 10
139.4345605621
 20
71.8318820569
 30
0.0
 11
-0.0
 21
0.3
 31
0.0
 40
0.0174550649
 41
-1.5707963268
 42
-0.0523598776
  0
ELLIPSE
  5
73C
100
AcDbEntity
  8
0
100
AcDbEllipse
 62
7
  6
CONTINUOUS
 10
139.8150809775
 20
80.0668458962
 30
0.0
 11
-0.0
 21
26.2
 31
0.0
 40
0.0174550649
 41
-4.5200435552
 42
-4.4195310746
  0
ELLIPSE
  5
73D
100
AcDbEntity
  8
0
100
AcDbEllipse
 62
7
  6
CONTINUOUS
 10
140.145033601
 20
71.8318820569
 30
0.0
 11
-0.0
 21
0.3
 31
0.0
 40
0.0174550649
 41
0.0523598776
 42
1.5707963268
  0
ELLIPSE
  5
73E
100
AcDbEntity
  8
0
100
AcDbEllipse
 62
7
  6
CONTINUOUS
 10
140.2116537177
 20
71.338732998
 30
0.0
 11
0.0
 21
0.2
 31
0.0
 40
0.0174550649
 41
-3.1241393611
 42
-1.7885935615
  0
ELLIPSE
  5
73F
100
AcDbEntity
  8
0
100
AcDbEllipse
 62
7
  6
CONTINUOUS
 10
139.7645131856
 20
80.0668458962
 30
0.0
 11
-0.0
 21
26.2
 31
0.0
 40
0.0174550649
 41
-1.8636542326
 42
-1.7631417519
  0
ELLIPSE
  5
740
100
AcDbEntity
  8
0
100
AcDbEllipse
 62
7
  6
CONTINUOUS
 10
151.5116537177
 20
148.7949587943
 30
0.0
 11
-0.0
 21
0.2
 31
0.0
 40
0.0174550649
 41
-1.3529990921
 42
-0.0174532925
  0
ELLIPSE
  5
741
100
AcDbEntity
  8
0
100
AcDbEllipse
 62
7
  6
CONTINUOUS
 10
151.445033601
 20
148.3018097354
 30
0.0
 11
0.0
 21
0.3
 31
0.0
 40
0.0174550649
 41
-4.7123889804
 42
-3.1939525312
  0
ELLIPSE
  5
742
100
AcDbEntity
  8
0
100
AcDbEllipse
 62
7
  6
CONTINUOUS
 10
151.0645131856
 20
140.0668458962
 30
0.0
 11
0.0
 21
26.2
 31
0.0
 40
0.0174550649
 41
-1.3784509016
 42
-1.277938421
  0
ELLIPSE
  5
743
100
AcDbEntity
  8
0
100
AcDbEllipse
 62
7
  6
CONTINUOUS
 10
150.7345605621
 20
148.3018097354
 30
0.0
 11
-0.0
 21
0.3
 31
0.0
 40
0.0174550649
 41
-3.089232776
 42
-1.5707963268
  0
ELLIPSE
  5
744
100
AcDbEntity
  8
0
100
AcDbEllipse
 62
7
  6
CONTINUOUS
 10
150.6679404453
 20
148.7949587943
 30
0.0
 11
0.0
 21
0.2
 31
0.0
 40
0.0174550649
 41
0.0174532925
 42
1.3529990921
  0
ELLIPSE
  5
745
100
AcDbEntity
  8
0
100
AcDbEllipse
 62
7
  6
CONTINUOUS
 10
151.1150809775
 20
140.0668458962
 30
0.0
 11
0.0
 21
26.2
 31
0.0
 40
0.0174550649
 41
1.277938421
 42
1.3784509016
  0
ELLIPSE
  5
746
100
AcDbEntity
  8
0
100
AcDbEllipse
 62
7
  6
CONTINUOUS
 10
140.2116537177
 20
148.7949587943
 30
0.0
 11
-0.0
 21
0.2
 31
0.0
 40
0.0174550649
 41
-1.3529990921
 42
-0.0174532925
  0
ELLIPSE
  5
747
100
AcDbEntity
  8
0
100
AcDbEllipse
 62
7
  6
CONTINUOUS
 10
140.145033601
 20
148.3018097354
 30
0.0
 11
-0.0
 21
0.3
 31
0.0
 40
0.0174550649
 41
-4.7123889804
 42
-3.1939525312
  0
ELLIPSE
  5
748
100
AcDbEntity
  8
0
100
AcDbEllipse
 62
7
  6
CONTINUOUS
 10
139.7645131856
 20
140.0668458962
 30
0.0
 11
0.0
 21
26.2
 31
0.0
 40
0.0174550649
 41
-1.3784509016
 42
-1.277938421
  0
ELLIPSE
  5
749
100
AcDbEntity
  8
0
100
AcDbEllipse
 62
7
  6
CONTINUOUS
 10
139.4345605621
 20
148.3018097354
 30
0.0
 11
0.0
 21
0.3
 31
0.0
 40
0.0174550649
 41
-3.089232776
 42
-1.5707963268
  0
ELLIPSE
  5
74A
100
AcDbEntity
  8
0
100
AcDbEllipse
 62
7
  6
CONTINUOUS
 10
139.8150809775
 20
140.0668458962
 30
0.0
 11
0.0
 21
26.2
 31
0.0
 40
0.0174550649
 41
1.277938421
 42
1.3784509016
  0
ELLIPSE
  5
74B
100
AcDbEntity
  8
0
100
AcDbEllipse
 62
7
  6
CONTINUOUS
 10
152.9397970815
 20
133.3471910912
 30
0.0
 11
40.2
 21
0.0
 31
0.0
 40
0.0174550649
 41
1.3482536284
 42
1.5707963268
  0
ELLIPSE
  5
74C
100
AcDbEntity
  8
0
100
AcDbEllipse
 62
7
  6
CONTINUOUS
 10
137.9397970815
 20
133.3471910912
 30
0.0
 11
40.2
 21
0.0
 31
0.0
 40
0.0174550649
 41
1.5707963268
 42
1.7933390252
  0
ELLIPSE
  5
74D
100
AcDbEntity
  8
0
100
AcDbEllipse
 62
7
  6
CONTINUOUS
 10
137.9397970815
 20
86.7865007011
 30
0.0
 11
40.2
 21
-0.0
 31
0.0
 40
0.0174550649
 41
-1.7933390252
 42
-1.5707963268
  0
ELLIPSE
  5
74E
100
AcDbEntity
  8
0
100
AcDbEllipse
 62
7
  6
CONTINUOUS
 10
152.9397970815
 20
86.7865007011
 30
0.0
 11
40.2
 21
-0.0
 31
0.0
 40
0.0174550649
 41
-1.5707963268
 42
-1.3482536284
  0
ENDSEC
  0
SECTION
  2
OBJECTS
  0
DICTIONARY
  5
C
100
AcDbDictionary
280
0
281
1
  3
ACAD_GROUP
350
D
  3
ACAD_MLINESTYLE
350
17
  3
ACAD_LAYOUT
350
1A
  3
ACAD_PLOTSETTINGS
350
19
  3
ACAD_PLOTSTYLENAME
350
E
  0
DICTIONARY
  5
D
102
{ACAD_REACTORS
330
C
102
}
100
AcDbDictionary
280
0
281
1
  0
ACDBDICTIONARYWDFLT
  5
E
102
{ACAD_REACTORS
330
C
102
}
100
AcDbDictionary
281
1
  3
Normal
350
F
100
AcDbDictionaryWithDefault
340
F
  0
DICTIONARY
  5
17
102
{ACAD_REACTORS
330
C
102
}
100
AcDbDictionary
280
0
281
1
  3
Standard
350
18
  0
DICTIONARY
  5
19
102
{ACAD_REACTORS
330
C
102
}
100
AcDbDictionary
281
1
  0
DICTIONARY
  5
1A
102
{ACAD_REACTORS
330
C
102
}
100
AcDbDictionary
281
1
  3
Model
350
74F
  3
Layout1
350
750
  0
ACDBPLACEHOLDER
  5
F
102
{ACAD_REACTORS
330
E
102
}
  0
MLINESTYLE
  5
18
102
{ACAD_REACTORS
330
17
102
}
100
AcDbMlineStyle
  2
STANDARD
 70
0
  3

 62
256
 51
90.0
 52
90.0
 71
2
 49
0.5
 62
256
  6
BYLAYER
 49
-0.5
 62
256
  6
BYLAYER
  0
LAYOUT
  5
74F
102
{ACAD_REACTORS
330
1A
102
}
100
AcDbPlotSettings
  1

  2
none_device
  4
ISO_A4_(297.00_x_210.00_MM)
  6

 40
0.0
 41
0.0
 42
0.0
 43
0.0
 44
297.0
 45
210.0
 46
0.0
 47
0.0
 48
0.0
 49
0.0
140
0.0
141
0.0
142
1.0
143
1.0
 70
1024
 72
1
 73
0
 74
0
  7

 75
0
147
1.0
148
0.0
149
0.0
100
AcDbLayout
  1
Model
 70
0
 71
0
 10
0.0
 20
0.0
 11
297.0
 21
210.0
 12
0.0
 22
0.0
 32
0.0
 14
0.0
 24
0.0
 34
0.0
 15
0.0
 25
0.0
 35
0.0
146
0.0
 13
0.0
 23
0.0
 33
0.0
 16
1.0
 26
0.0
 36
0.0
 17
0.0
 27
1.0
 37
0.0
 76
0
330
213
345
0
346
0
  0
LAYOUT
  5
750
102
{ACAD_REACTORS
330
1A
102
}
100
AcDbPlotSettings
  1

  2
none_device
  4
ISO_A4_(297.00_x_210.00_MM)
  6

 40
0.0
 41
0.0
 42
0.0
 43
0.0
 44
297.0
 45
210.0
 46
0.0
 47
0.0
 48
0.0
 49
0.0
140
0.0
141
0.0
142
1.0
143
1.0
 70
0
 72
1
 73
0
 74
0
  7

 75
0
147
1.0
148
0.0
149
0.0
100
AcDbLayout
  1
Layout1
 70
0
 71
1
 10
0.0
 20
0.0
 11
297.0
 21
210.0
 12
0.0
 22
0.0
 32
0.0
 14
0.0
 24
0.0
 34
0.0
 15
0.0
 25
0.0
 35
0.0
146
0.0
 13
0.0
 23
0.0
 33
0.0
 16
1.0
 26
0.0
 36
0.0
 17
0.0
 27
1.0
 37
0.0
 76
0
330
214
345
0
346
0
  0
ENDSEC
  0
EOF
