  0
SECTION
  2
HEADER
  9
$ACADVER
  1
AC1021
  9
$DWGCODEPAGE
  3
ANSI_1252
  9
$EXTMAX
 10
297.0
 20
210.0
 30
0.0
  9
$EXTMIN
 10
0.0
 20
0.0
 30
0.0
  9
$LIMMIN
 10
0.0
 20
0.0
  9
$LIMMAX
 10
297.0
 20
210.0
  9
$VIEWCTR
 10
148.5
 20
105.0
  9
$VIEWSIZE
 40
210.0
  9
$CLAYER
  8
0
  9
$LTSCALE
 40
16.335
  9
$CELTYPE
  6
BYLAYER
  9
$DIMSCALE
 40
1.0
  9
$DIMASZ
 40
3.0
  9
$DIMEXO
 40
1.85625
  9
$DIMDLI
 40
11.286
  9
$DIMEXE
 40
5.346
  9
$DIMCEN
 40
2.673
  9
$DIMLFAC
 40
1.0
  9
$DIMBLK
  1
_FILLED
  9
$DIMTXT
 40
3.0
  9
$DIMTOL
 70
1
  9
$DIMLIM
 70
0
  9
$DIMTFAC
 40
1.0
  9
$DIMTP
 40
0.01
  9
$DIMTM
 40
0.01
  9
$PDMODE
 70
3
  9
$PDSIZE
 40
3.0
  9
$HANDSEED
  5
851
  9
$TILEMODE
 70
1
  9
$MEASUREMENT
 70
1
  9
$INSUNITS
 70
4
  0
ENDSEC
  0
SECTION
  2
CLASSES
  0
CLASS
  1
ACDBDICTIONARYWDFLT
  2
AcDbDictionaryWithDefault
  3
AutoCAD 2000
 90
0
 91
1
280
0
281
0
  0
CLASS
  1
ACDBPLACEHOLDER
  2
AcDbPlaceHolder
  3
AutoCAD 2000
 90
0
 91
1
280
0
281
0
  0
CLASS
  1
LAYOUT
  2
AcDbLayout
  3
AutoCAD 2000
 90
0
 91
0
280
0
281
0
  0
ENDSEC
  0
SECTION
  2
TABLES
  0
TABLE
  2
VPORT
  5
8
100
AcDbSymbolTable
 70
2
  0
VPORT
  5
1F4
100
AcDbSymbolTableRecord
100
AcDbViewportTableRecord
  2
*ACTIVE
 70
0
 10
0.0
 20
0.0
 11
1.0
 21
1.0
 12
148.5
 22
105.0
 13
0.0
 23
0.0
 14
1.0
 24
1.0
 15
0.0
 25
0.0
 16
0.0
 26
0.0
 36
1.0
 17
0.0
 27
0.0
 37
0.0
 40
210.0
 41
1.4142857143
 42
50.0
 43
0.0
 44
0.0
 50
0.0
 51
0.0
 71
0
 72
100
 73
1
 74
1
 75
0
 76
0
 77
0
 78
0
  0
ENDTAB
  0
TABLE
  2
LTYPE
  5
5
100
AcDbSymbolTable
 70
6
  0
LTYPE
  5
14
100
AcDbSymbolTableRecord
100
AcDbLinetypeTableRecord
  2
BYBLOCK
 70
0
  3

 72
65
 73
0
 40
0.0
  0
LTYPE
  5
15
100
AcDbSymbolTableRecord
100
AcDbLinetypeTableRecord
  2
BYLAYER
 70
0
  3

 72
65
 73
0
 40
0.0
  0
LTYPE
  5
16
100
AcDbSymbolTableRecord
100
AcDbLinetypeTableRecord
  2
CONTINUOUS
 70
64
  3
Solid line
 72
65
 73
0
 40
0.0
  0
LTYPE
  5
1F5
100
AcDbSymbolTableRecord
100
AcDbLinetypeTableRecord
  2
CENTER
 70
64
  3
____ _ ____ _ ____ _ ____ _ ____ _ ____ _ ____
 72
65
 73
4
 40
0.6
 49
0.375
 74
0
 49
-0.075
 74
0
 49
0.075
 74
0
 49
-0.075
 74
0
  0
LTYPE
  5
1F6
100
AcDbSymbolTableRecord
100
AcDbLinetypeTableRecord
  2
HIDDEN
 70
64
  3
- - - - - - - - - - - - - - - - - - - -
 72
65
 73
2
 40
0.2
 49
0.1
 74
0
 49
-0.1
 74
0
  0
LTYPE
  5
1F7
100
AcDbSymbolTableRecord
100
AcDbLinetypeTableRecord
  2
PHANTOM
 70
64
  3
_____ _ _ _____ _ _ _____ _ _ _____
 72
65
 73
6
 40
0.8
 49
0.45
 74
0
 49
-0.05
 74
0
 49
0.1
 74
0
 49
-0.05
 74
0
 49
0.1
 74
0
 49
-0.05
 74
0
  0
LTYPE
  5
1F8
100
AcDbSymbolTableRecord
100
AcDbLinetypeTableRecord
  2
DOT
 70
64
  3
. . . . . . . . . . . . . . . . . . . .
 72
65
 73
2
 40
0.2
 49
0.1
 74
0
 49
-0.1
 74
0
  0
LTYPE
  5
1F9
100
AcDbSymbolTableRecord
100
AcDbLinetypeTableRecord
  2
DASHED
 70
64
  3
- - - - - - - - - - - - - - - - - - - -
 72
65
 73
2
 40
0.2
 49
0.1
 74
0
 49
-0.1
 74
0
  0
ENDTAB
  0
TABLE
  2
LAYER
  5
2
100
AcDbSymbolTable
 70
36
  0
LAYER
  5
10
100
AcDbSymbolTableRecord
100
AcDbLayerTableRecord
  2
0
 70
0
 62
7
  6
CONTINUOUS
370
-3
390
F
  0
LAYER
  5
1FA
100
AcDbSymbolTableRecord
100
AcDbLayerTableRecord
  2
DEFAULT_1
 70
0
 62
7
  6
CENTER
370
-3
390
F
  0
LAYER
  5
1FB
100
AcDbSymbolTableRecord
100
AcDbLayerTableRecord
  2
DEFAULT_2
 70
0
 62
7
  6
HIDDEN
370
-3
390
F
  0
LAYER
  5
1FC
100
AcDbSymbolTableRecord
100
AcDbLayerTableRecord
  2
DEFAULT_3
 70
0
 62
7
  6
PHANTOM
370
-3
390
F
  0
LAYER
  5
1FD
100
AcDbSymbolTableRecord
100
AcDbLayerTableRecord
  2
ASSI
 70
0
 62
7
  6
CONTINUOUS
370
-3
390
F
  0
LAYER
  5
1FE
100
AcDbSymbolTableRecord
100
AcDbLayerTableRecord
  2
COORDINATE
 70
0
 62
7
  6
CONTINUOUS
370
-3
390
F
  0
LAYER
  5
1FF
100
AcDbSymbolTableRecord
100
AcDbLayerTableRecord
  2
COPY_PUBLISH
 70
0
 62
7
  6
CONTINUOUS
370
-3
390
F
  0
LAYER
  5
200
100
AcDbSymbolTableRecord
100
AcDbLayerTableRecord
  2
COSMETIC
 70
0
 62
7
  6
CONTINUOUS
370
-3
390
F
  0
LAYER
  5
201
100
AcDbSymbolTableRecord
100
AcDbLayerTableRecord
  2
COSMETICI
 70
0
 62
7
  6
CONTINUOUS
370
-3
390
F
  0
LAYER
  5
202
100
AcDbSymbolTableRecord
100
AcDbLayerTableRecord
  2
CURVE
 70
0
 62
7
  6
CONTINUOUS
370
-3
390
F
  0
LAYER
  5
203
100
AcDbSymbolTableRecord
100
AcDbLayerTableRecord
  2
DRAFT
 70
0
 62
7
  6
CONTINUOUS
370
-3
390
F
  0
LAYER
  5
204
100
AcDbSymbolTableRecord
100
AcDbLayerTableRecord
  2
IMPORT_IGES
 70
0
 62
7
  6
CONTINUOUS
370
-3
390
F
  0
LAYER
  5
205
100
AcDbSymbolTableRecord
100
AcDbLayerTableRecord
  2
INTFCLR_1
 70
0
 62
7
  6
CONTINUOUS
370
-3
390
F
  0
LAYER
  5
206
100
AcDbSymbolTableRecord
100
AcDbLayerTableRecord
  2
INTF_1
 70
0
 62
7
  6
CONTINUOUS
370
-3
390
F
  0
LAYER
  5
207
100
AcDbSymbolTableRecord
100
AcDbLayerTableRecord
  2
NOTE
 70
0
 62
7
  6
CONTINUOUS
370
-3
390
F
  0
LAYER
  5
208
100
AcDbSymbolTableRecord
100
AcDbLayerTableRecord
  2
PIANI
 70
0
 62
7
  6
CONTINUOUS
370
-3
390
F
  0
LAYER
  5
209
100
AcDbSymbolTableRecord
100
AcDbLayerTableRecord
  2
PUNTI
 70
0
 62
7
  6
CONTINUOUS
370
-3
390
F
  0
LAYER
  5
20A
100
AcDbSymbolTableRecord
100
AcDbLayerTableRecord
  2
RACCORDO
 70
0
 62
7
  6
CONTINUOUS
370
-3
390
F
  0
LAYER
  5
20B
100
AcDbSymbolTableRecord
100
AcDbLayerTableRecord
  2
SIMBOLI
 70
0
 62
7
  6
CONTINUOUS
370
-3
390
F
  0
LAYER
  5
20C
100
AcDbSymbolTableRecord
100
AcDbLayerTableRecord
  2
SMUSSO
 70
0
 62
7
  6
CONTINUOUS
370
-3
390
F
  0
LAYER
  5
20D
100
AcDbSymbolTableRecord
100
AcDbLayerTableRecord
  2
SNAPLINE
 70
0
 62
7
  6
CONTINUOUS
370
-3
390
F
  0
LAYER
  5
20E
100
AcDbSymbolTableRecord
100
AcDbLayerTableRecord
  2
SUPERFICI
 70
0
 62
7
  6
CONTINUOUS
370
-3
390
F
  0
LAYER
  5
20F
100
AcDbSymbolTableRecord
100
AcDbLayerTableRecord
  2
TRASH
 70
0
 62
7
  6
CONTINUOUS
370
-3
390
F
  0
LAYER
  5
210
100
AcDbSymbolTableRecord
100
AcDbLayerTableRecord
  2
XSEC_DATUMS
 70
0
 62
7
  6
CONTINUOUS
370
-3
390
F
  0
ENDTAB
  0
TABLE
  2
STYLE
  5
3
100
AcDbSymbolTable
 70
1
  0
STYLE
  5
11
100
AcDbSymbolTableRecord
100
AcDbTextStyleTableRecord
  2
STANDARD
 70
0
 40
0.0
 41
0.8
 50
0.0
 71
0
 42
0.2
  3
txt
  4

  0
STYLE
  5
211
100
AcDbSymbolTableRecord
100
AcDbTextStyleTableRecord
  2
TEXTSTYLE_1
 70
0
 40
0.0
 41
0.8
 50
0.0
 71
0
 42
0.2
  3
gdt
  4

  0
ENDTAB
  0
TABLE
  2
VIEW
  5
6
100
AcDbSymbolTable
 70
0
  0
ENDTAB
  0
TABLE
  2
UCS
  5
7
100
AcDbSymbolTable
 70
0
  0
ENDTAB
  0
TABLE
  2
APPID
  5
9
100
AcDbSymbolTable
 70
1
  0
APPID
  5
212
100
AcDbSymbolTableRecord
100
AcDbRegAppTableRecord
  2
ACAD
 70
0
  0
ENDTAB
  0
TABLE
  2
BLOCK_RECORD
  5
1
100
AcDbSymbolTable
 70
0
  0
BLOCK_RECORD
  5
213
100
AcDbSymbolTableRecord
100
AcDbBlockTableRecord
  2
*Model_Space
  0
BLOCK_RECORD
  5
214
100
AcDbSymbolTableRecord
100
AcDbBlockTableRecord
  2
*Paper_Space
  0
ENDTAB
  0
TABLE
  2
DIMSTYLE
  5
A
100
AcDbSymbolTable
 70
1
100
AcDbDimStyleTable
 71
0
  0
DIMSTYLE
105
215
100
AcDbSymbolTableRecord
100
AcDbDimStyleTableRecord
  2
STANDARD
 70
0
  3

  4

 40
1.0
 41
3.0
 42
0.0625
 43
0.38
 44
0.18
 45
0.0
 46
0.0
 47
0.01
 48
0.01
140
3.0
141
0.09
142
0.0
143
25.4
144
1.0
145
0.0
146
1.0
147
0.09
 71
1.0
 72
0.0
 73
0
 74
0
 75
0
 76
0
 77
1
 78
8
170
0
171
2
172
0
173
0
174
0
175
0
176
0
177
0
178
0
270
2
271
2
272
2
273
2
274
2
275
0
280
0
281
0
282
0
283
1
284
8
285
0
286
0
287
3
288
0
340
11
  0
ENDTAB
  0
ENDSEC
  0
SECTION
  2
BLOCKS
  0
BLOCK
  5
20
100
AcDbEntity
  8
0
100
AcDbBlockBegin
  2
*Model_Space
 70
0
 10
0.0
 20
0.0
 30
0.0
  3
*Model_Space
  1

  0
ENDBLK
  5
21
100
AcDbEntity
  8
0
100
AcDbBlockEnd
  0
BLOCK
  5
1C
100
AcDbEntity
  8
0
100
AcDbBlockBegin
  2
*Paper_Space
 70
0
 10
0.0
 20
0.0
 30
0.0
  3
*Paper_Space
  1

  0
ENDBLK
  5
1D
100
AcDbEntity
  8
0
100
AcDbBlockEnd
  0
ENDSEC
  0
SECTION
  2
ENTITIES
  0
LWPOLYLINE
  5
216
100
AcDbEntity
  8
RACCORDO
100
AcDbPolyline
 62
7
  6
CONTINUOUS
 90
22
 70
0
 10
116.8413105582
 20
37.5436590494
 10
116.8037425505
 20
37.545114414
 10
116.7668000351
 20
37.5492598529
 10
116.730483012
 20
37.556095366
 10
116.6946209985
 20
37.5656721154
 10
116.6593844773
 20
37.5779389391
 10
116.6252848967
 20
37.5927423512
 10
116.5923094813
 20
37.6101242953
 10
116.5604710065
 20
37.6300428279
 10
116.5303192458
 20
37.6522186322
 10
116.5018454253
 20
37.6767526158
 10
116.4750583189
 20
37.7035438713
 10
116.4505340229
 20
37.7320103592
 10
116.4283769652
 20
37.7621297533
 10
116.4084827179
 20
37.7939243798
 10
116.3911140934
 20
37.8268791784
 10
116.3763020364
 20
37.8610064524
 10
116.3640156022
 20
37.8962938984
 10
116.3544247688
 20
37.9321895461
 10
116.3475861955
 20
37.9685094054
 10
116.343443223
 20
38.0054374664
 10
116.3419958512
 20
38.0429737291
  0
LINE
  5
217
100
AcDbEntity
  8
0
100
AcDbLine
 62
253
  6
CONTINUOUS
 10
125.4703503429
 20
173.9717414809
 11
125.6668273013
 21
174.0436590437
  0
LINE
  5
218
100
AcDbEntity
  8
0
100
AcDbLine
 62
253
  6
CONTINUOUS
 10
125.5703465353
 20
173.5985734562
 11
125.7667402719
 21
173.6704605569
  0
LINE
  5
219
100
AcDbEntity
  8
0
100
AcDbLine
 62
7
  6
CONTINUOUS
 10
132.341995842
 20
39.0785691735
 11
132.1670185149
 21
39.0436590437
  0
LWPOLYLINE
  5
21A
100
AcDbEntity
  8
0
100
AcDbPolyline
 62
253
  6
CONTINUOUS
 90
13
 70
0
 10
150.9128811504
 20
43.0444819112
 10
150.9207373266
 20
43.0453265008
 10
150.9299845997
 20
43.0470073888
 10
150.9405399253
 20
43.0495094803
 10
150.9523085123
 20
43.0528103053
 10
150.9651846737
 20
43.0568802211
 10
150.9790527762
 20
43.0616826781
 10
150.9937882786
 20
43.0671745483
 10
151.0092588498
 20
43.0733065124
 10
151.0253255577
 20
43.0800235028
 10
151.0418441164
 20
43.0872651981
 10
151.0586661824
 20
43.0949665648
 10
151.0756406866
 20
43.1030584415
  0
LWPOLYLINE
  5
21B
100
AcDbEntity
  8
0
100
AcDbPolyline
 62
253
  6
CONTINUOUS
 90
9
 70
0
 10
127.9140869408
 20
39.1423476598
 10
127.9166207855
 20
39.1426125069
 10
127.9209057424
 20
39.1448737564
 10
127.9266455744
 20
39.1492598105
 10
127.9333130825
 20
39.1559402171
 10
127.9407895346
 20
39.1648256276
 10
127.9494183916
 20
39.1755970156
 10
127.9588719831
 20
39.1882121861
 10
127.979745137
 20
39.2182826346
  0
LWPOLYLINE
  5
21C
100
AcDbEntity
  8
0
100
AcDbPolyline
 62
253
  6
CONTINUOUS
 90
13
 70
0
 10
151.1312930871
 20
42.6083506128
 10
151.1391716047
 20
42.6091184098
 10
151.1484361734
 20
42.6107202712
 10
151.1590038837
 20
42.6131418581
 10
151.1707801642
 20
42.6163614956
 10
151.1836596275
 20
42.6203503671
 10
151.1975270135
 20
42.6250727722
 10
151.2122582208
 20
42.6304864457
 10
151.2277214174
 20
42.6365429365
 10
151.2437782205
 20
42.6431880408
 10
151.2602849349
 20
42.6503622873
 10
151.2770938389
 20
42.6580014697
 10
151.2940545061
 20
42.6660372207
  0
LWPOLYLINE
  5
21D
100
AcDbEntity
  8
RACCORDO
100
AcDbPolyline
 62
7
  6
CONTINUOUS
 90
22
 70
0
 10
153.9390709388
 20
38.5436590149
 10
153.9745817306
 20
38.5450944868
 10
154.0084689757
 20
38.5485947688
 10
154.0407326741
 20
38.5541598609
 10
154.071406833
 20
38.5619282362
 10
154.1004574452
 20
38.5717614215
 10
154.1277824898
 20
38.5832439979
 10
154.1532564856
 20
38.596256222
 10
154.1770049137
 20
38.6109178373
 10
154.1993021963
 20
38.6271726552
 10
154.2202641284
 20
38.6450010138
 10
154.2397749148
 20
38.664422575
 10
154.2577615927
 20
38.685440136
 10
154.2742739031
 20
38.7080540129
 10
154.2892621049
 20
38.7322638896
 10
154.3025040114
 20
38.7580716146
 10
154.3140308576
 20
38.7854738291
 10
154.3238114084
 20
38.8144738919
 10
154.3315297728
 20
38.8450837277
 10
154.3370806535
 20
38.8773073112
 10
154.3405693476
 20
38.9111406676
 10
154.3419958552
 20
38.9465837969
  0
LWPOLYLINE
  5
21E
100
AcDbEntity
  8
0
100
AcDbPolyline
 62
253
  6
CONTINUOUS
 90
16
 70
0
 10
153.5701087402
 20
39.272330261
 10
153.5906945911
 20
39.272915696
 10
153.6111725639
 20
39.2736275541
 10
153.6312630674
 20
39.2746253266
 10
153.6506415965
 20
39.2762424557
 10
153.6691053881
 20
39.2784403762
 10
153.6865593229
 20
39.2808402644
 10
153.7027701792
 20
39.2836519292
 10
153.7175112014
 20
39.2869827058
 10
153.7307005878
 20
39.2903797358
 10
153.742202075
 20
39.2940802133
 10
153.751819364
 20
39.2982331445
 10
153.7594584963
 20
39.3023299394
 10
153.765080529
 20
39.3063424753
 10
153.7686392696
 20
39.3106854159
 10
153.7700782792
 20
39.3155461455
  0
LINE
  5
21F
100
AcDbEntity
  8
RACCORDO
100
AcDbLine
 62
7
  6
CONTINUOUS
 10
154.8433663072
 20
37.0436590437
 11
116.8406253768
 21
37.0436590437
  0
LINE
  5
220
100
AcDbEntity
  8
RACCORDO
100
AcDbLine
 62
7
  6
CONTINUOUS
 10
154.8426811607
 20
37.5436590533
 11
116.8413105582
 21
37.5436590494
  0
LINE
  5
221
100
AcDbEntity
  8
0
100
AcDbLine
 62
7
  6
CONTINUOUS
 10
139.341995842
 20
37.6484189157
 11
132.341995842
 21
37.6484189157
  0
LINE
  5
222
100
AcDbEntity
  8
RACCORDO
100
AcDbLine
 62
7
  6
CONTINUOUS
 10
153.9390709388
 20
38.5436590149
 11
139.516973169
 21
38.5436590437
  0
LINE
  5
223
100
AcDbEntity
  8
RACCORDO
100
AcDbLine
 62
7
  6
CONTINUOUS
 10
132.1670185149
 20
38.5436590437
 11
117.7449205936
 21
38.5436590304
  0
LINE
  5
224
100
AcDbEntity
  8
0
100
AcDbLine
 62
7
  6
CONTINUOUS
 10
118.041965381
 20
39.0436590437
 11
125.6668273013
 21
39.0436590437
  0
LINE
  5
225
100
AcDbEntity
  8
0
100
AcDbLine
 62
7
  6
CONTINUOUS
 10
128.0667359201
 20
39.0436590437
 11
129.841995842
 21
39.0436590437
  0
LINE
  5
226
100
AcDbEntity
  8
0
100
AcDbLine
 62
7
  6
CONTINUOUS
 10
130.541995842
 20
39.0436590437
 11
132.1670185149
 21
39.0436590437
  0
LINE
  5
227
100
AcDbEntity
  8
0
100
AcDbLine
 62
7
  6
CONTINUOUS
 10
139.516973169
 20
39.0436590437
 11
141.141995842
 21
39.0436590437
  0
LINE
  5
228
100
AcDbEntity
  8
0
100
AcDbLine
 62
7
  6
CONTINUOUS
 10
141.841995842
 20
39.0436590437
 11
143.6172557638
 21
39.0436590437
  0
LINE
  5
229
100
AcDbEntity
  8
0
100
AcDbLine
 62
7
  6
CONTINUOUS
 10
146.0171643827
 20
39.0436590437
 11
153.642026303
 21
39.0436590437
  0
LINE
  5
22A
100
AcDbEntity
  8
0
100
AcDbLine
 62
7
  6
CONTINUOUS
 10
139.341995842
 20
39.0785691735
 11
132.341995842
 21
39.0785691735
  0
LINE
  5
22B
100
AcDbEntity
  8
0
100
AcDbLine
 62
253
  6
CONTINUOUS
 10
153.5701087402
 20
39.1155766064
 11
146.213641341
 21
39.1155766064
  0
LINE
  5
22C
100
AcDbEntity
  8
0
100
AcDbLine
 62
253
  6
CONTINUOUS
 10
143.6699085509
 20
39.1155766064
 11
141.9139134048
 21
39.1155766064
  0
LINE
  5
22D
100
AcDbEntity
  8
0
100
AcDbLine
 62
253
  6
CONTINUOUS
 10
141.0700782792
 20
39.1155766064
 11
130.6139134048
 21
39.1155766064
  0
LINE
  5
22E
100
AcDbEntity
  8
0
100
AcDbLine
 62
253
  6
CONTINUOUS
 10
129.7700782792
 20
39.1155766064
 11
128.0140831331
 21
39.1155766064
  0
LINE
  5
22F
100
AcDbEntity
  8
0
100
AcDbLine
 62
253
  6
CONTINUOUS
 10
125.4703503429
 20
39.1155766064
 11
118.1138829438
 21
39.1155766064
  0
LINE
  5
230
100
AcDbEntity
  8
0
100
AcDbLine
 62
253
  6
CONTINUOUS
 10
153.5701087402
 20
39.272330261
 11
146.2136413392
 21
39.27233026
  0
LINE
  5
231
100
AcDbEntity
  8
0
100
AcDbLine
 62
253
  6
CONTINUOUS
 10
143.6699085475
 20
39.272330259
 11
141.9172610188
 21
39.272330261
  0
LINE
  5
232
100
AcDbEntity
  8
0
100
AcDbLine
 62
253
  6
CONTINUOUS
 10
141.0667306652
 20
39.272330261
 11
130.6172610188
 21
39.272330261
  0
LINE
  5
233
100
AcDbEntity
  8
0
100
AcDbLine
 62
253
  6
CONTINUOUS
 10
129.7667306652
 20
39.272330261
 11
128.0140831369
 21
39.2723302588
  0
LINE
  5
234
100
AcDbEntity
  8
0
100
AcDbLine
 62
253
  6
CONTINUOUS
 10
125.4703503448
 20
39.27233026
 11
118.1138829438
 21
39.272330261
  0
LINE
  5
235
100
AcDbEntity
  8
0
100
AcDbLine
 62
253
  6
CONTINUOUS
 10
141.841995842
 20
39.8086952044
 11
141.141995842
 21
39.8086952044
  0
LINE
  5
236
100
AcDbEntity
  8
0
100
AcDbLine
 62
253
  6
CONTINUOUS
 10
130.541995842
 20
39.8086952044
 11
129.841995842
 21
39.8086952044
  0
LINE
  5
237
100
AcDbEntity
  8
0
100
AcDbLine
 62
253
  6
CONTINUOUS
 10
141.8469583032
 20
40.1082840649
 11
141.1370333808
 21
40.1082840649
  0
LINE
  5
238
100
AcDbEntity
  8
0
100
AcDbLine
 62
253
  6
CONTINUOUS
 10
130.5469583032
 20
40.1082840649
 11
129.8370333808
 21
40.1082840649
  0
LINE
  5
239
100
AcDbEntity
  8
0
100
AcDbLine
 62
253
  6
CONTINUOUS
 10
129.7841680895
 20
40.2670089123
 11
130.5998235945
 21
40.2670089123
  0
LINE
  5
23A
100
AcDbEntity
  8
0
100
AcDbLine
 62
253
  6
CONTINUOUS
 10
141.0841680895
 20
40.2670089123
 11
141.8998235945
 21
40.2670089123
  0
LINE
  5
23B
100
AcDbEntity
  8
0
100
AcDbLine
 62
253
  6
CONTINUOUS
 10
129.7794285849
 20
40.4799908854
 11
130.6045630991
 21
40.4799908854
  0
LINE
  5
23C
100
AcDbEntity
  8
0
100
AcDbLine
 62
253
  6
CONTINUOUS
 10
141.0794285849
 20
40.4799908854
 11
141.9045630991
 21
40.4799908854
  0
LINE
  5
23D
100
AcDbEntity
  8
0
100
AcDbLine
 62
7
  6
CONTINUOUS
 10
131.476594842
 20
41.8596100437
 11
131.880974842
 21
41.8596100437
  0
LINE
  5
23E
100
AcDbEntity
  8
0
100
AcDbLine
 62
7
  6
CONTINUOUS
 10
133.513297842
 20
41.8596100437
 11
133.819585842
 21
41.8596100437
  0
LINE
  5
23F
100
AcDbEntity
  8
0
100
AcDbLine
 62
7
  6
CONTINUOUS
 10
135.503899042
 20
41.8716038437
 11
135.849804642
 21
41.8716038437
  0
LINE
  5
240
100
AcDbEntity
  8
0
100
AcDbLine
 62
7
  6
CONTINUOUS
 10
136.244541842
 20
41.8716040437
 11
136.550828842
 21
41.8716040437
  0
LINE
  5
241
100
AcDbEntity
  8
0
100
AcDbLine
 62
7
  6
CONTINUOUS
 10
137.881059842
 20
41.8716040437
 11
138.314182842
 21
41.8716040437
  0
LINE
  5
242
100
AcDbEntity
  8
0
100
AcDbLine
 62
7
  6
CONTINUOUS
 10
138.629971842
 20
41.8716040437
 11
140.269200842
 21
41.8716040437
  0
LINE
  5
243
100
AcDbEntity
  8
0
100
AcDbLine
 62
7
  6
CONTINUOUS
 10
140.269200842
 20
42.1778910437
 11
138.936260842
 21
42.1778910437
  0
LWPOLYLINE
  5
244
100
AcDbEntity
  8
0
100
AcDbPolyline
 62
253
  6
CONTINUOUS
 90
16
 70
0
 10
118.1138829438
 20
39.272330261
 10
118.0932970859
 20
39.2729156964
 10
118.0728191067
 20
39.273627555
 10
118.052728598
 20
39.274625328
 10
118.0333500646
 20
39.2762424578
 10
118.0148862701
 20
39.2784403795
 10
117.9974323341
 20
39.2808402687
 10
117.9812214782
 20
39.2836519343
 10
117.9664804578
 20
39.2869827116
 10
117.9532910746
 20
39.2903797422
 10
117.9417895916
 20
39.2940802197
 10
117.9321723071
 20
39.2982331502
 10
117.9245331795
 20
39.3023299447
 10
117.9189111509
 20
39.3063424801
 10
117.9153524132
 20
39.3106854191
 10
117.9139134048
 20
39.3155461455
  0
LINE
  5
245
100
AcDbEntity
  8
0
100
AcDbLine
 62
7
  6
CONTINUOUS
 10
128.0024696966
 20
39.1159114843
 11
128.0140830971
 21
39.1155766054
  0
LWPOLYLINE
  5
246
100
AcDbEntity
  8
0
100
AcDbPolyline
 62
253
  6
CONTINUOUS
 90
16
 70
0
 10
118.1138829438
 20
39.1155766064
 10
118.0929846497
 20
39.1166779828
 10
118.0723151952
 20
39.1199573265
 10
118.0521009498
 20
39.1253787333
 10
118.0325632998
 20
39.1328828396
 10
118.0139162233
 20
39.1423874712
 10
117.996363947
 20
39.1537885435
 10
117.9800986997
 20
39.1669612094
 10
117.9652986357
 20
39.181761204
 10
117.9521258744
 20
39.1980264157
 10
117.9407246906
 20
39.2155786958
 10
117.9312199413
 20
39.2342258204
 10
117.9237157214
 20
39.253763568
 10
117.9182942174
 20
39.2739779619
 10
117.9150148063
 20
39.2946476125
 10
117.9139134048
 20
39.3155461455
  0
LWPOLYLINE
  5
247
100
AcDbEntity
  8
0
100
AcDbPolyline
 62
253
  6
CONTINUOUS
 90
13
 70
0
 10
120.5526967136
 20
42.6083517001
 10
120.5448181672
 20
42.6091192609
 10
120.5355536187
 20
42.6107208668
 10
120.5249859752
 20
42.6131421854
 10
120.5132098044
 20
42.6163615486
 10
120.5003304892
 20
42.6203501472
 10
120.4864632842
 20
42.6250722876
 10
120.4717322846
 20
42.6304857125
 10
120.4562693154
 20
42.636541978
 10
120.440212752
 20
42.6431868878
 10
120.4237062815
 20
42.6503609776
 10
120.4068976174
 20
42.658000048
 10
120.3899371774
 20
42.6660357381
  0
LWPOLYLINE
  5
248
100
AcDbEntity
  8
0
100
AcDbPolyline
 62
253
  6
CONTINUOUS
 90
8
 70
0
 10
143.7699047432
 20
39.1423476598
 10
143.7673708993
 20
39.1426125064
 10
143.7630859439
 20
39.1448737547
 10
143.7573461138
 20
39.1492598067
 10
143.7506786076
 20
39.1559402106
 10
143.7432021573
 20
39.1648256182
 10
143.7345733017
 20
39.1755970038
 10
143.7251197109
 20
39.1882121729
  0
LWPOLYLINE
  5
249
100
AcDbEntity
  8
0
100
AcDbPolyline
 62
253
  6
CONTINUOUS
 90
13
 70
0
 10
120.7711116
 20
43.0444812956
 10
120.7632554292
 20
43.0453260422
 10
120.754008138
 20
43.047007093
 10
120.7434527714
 20
43.0495093483
 10
120.7316841222
 20
43.052810334
 10
120.7188078791
 20
43.0568804027
 10
120.7049396778
 20
43.0616830003
 10
120.6902040626
 20
43.0671749942
 10
120.6747333674
 20
43.0733070607
 10
120.6586665281
 20
43.080024128
 10
120.642147834
 20
43.0872658708
 10
120.6253256328
 20
43.0949672519
 10
120.6083509977
 20
43.1030591064
  0
LINE
  5
24A
100
AcDbEntity
  8
0
100
AcDbLine
 62
7
  6
CONTINUOUS
 10
139.341995842
 20
39.0785691735
 11
139.516973169
 21
39.0436590437
  0
LINE
  5
24B
100
AcDbEntity
  8
0
100
AcDbLine
 62
253
  6
CONTINUOUS
 10
125.6668273013
 20
39.0436590437
 11
125.4703503429
 21
39.1155766064
  0
LINE
  5
24C
100
AcDbEntity
  8
0
100
AcDbLine
 62
253
  6
CONTINUOUS
 10
125.7667402719
 20
39.4168575305
 11
125.5703465353
 21
39.4887446311
  0
LWPOLYLINE
  5
24D
100
AcDbEntity
  8
0
100
AcDbPolyline
 62
253
  6
CONTINUOUS
 90
28
 70
0
 10
125.5703465353
 20
173.5985734562
 10
125.5865698074
 20
173.6090275459
 10
125.6017229478
 20
173.6210137306
 10
125.6156606983
 20
173.6344243469
 10
125.6282516117
 20
173.6491418277
 10
125.6393692152
 20
173.6650282248
 10
125.6488973069
 20
173.681923545
 10
125.6567438826
 20
173.6996662348
 10
125.6628355991
 20
173.7180923817
 10
125.6671128853
 20
173.7370231842
 10
125.6695355537
 20
173.7562769383
 10
125.6700820219
 20
173.7756753449
 10
125.6687470442
 20
173.7950397388
 10
125.6655416027
 20
173.8141912797
 10
125.6604951992
 20
173.8329455603
 10
125.6536574721
 20
173.8511189877
 10
125.6450961763
 20
173.8685368688
 10
125.634891722
 20
173.8850399092
 10
125.6231373438
 20
173.9004780562
 10
125.6099389143
 20
173.9147099716
 10
125.5954239193
 20
173.9275961498
 10
125.5797392045
 20
173.9390079735
 10
125.5630269898
 20
173.9488443425
 10
125.5454525146
 20
173.9570102296
 10
125.5272177465
 20
173.9634211273
 10
125.5085099253
 20
173.9680277253
 10
125.4894948233
 20
173.9708052122
 10
125.4703503138
 20
173.9717414819
  0
LINE
  5
24E
100
AcDbEntity
  8
0
100
AcDbLine
 62
253
  6
CONTINUOUS
 10
122.310239703
 20
170.981348192
 11
120.7711151352
 21
170.0428269997
  0
LINE
  5
24F
100
AcDbEntity
  8
0
100
AcDbLine
 62
253
  6
CONTINUOUS
 10
122.5937158976
 20
170.9147536495
 11
121.0676356236
 21
169.9841983655
  0
LINE
  5
250
100
AcDbEntity
  8
0
100
AcDbLine
 62
253
  6
CONTINUOUS
 10
124.7281707076
 20
171.9099344338
 11
123.7621143195
 21
171.3499255464
  0
LINE
  5
251
100
AcDbEntity
  8
0
100
AcDbLine
 62
253
  6
CONTINUOUS
 10
128.2796838741
 20
173.9689910424
 11
125.5790299916
 21
172.4031936399
  0
LINE
  5
252
100
AcDbEntity
  8
0
100
AcDbLine
 62
253
  6
CONTINUOUS
 10
122.9114525171
 20
170.8568375336
 11
121.1676295966
 21
169.8461091957
  0
LINE
  5
253
100
AcDbEntity
  8
0
100
AcDbLine
 62
253
  6
CONTINUOUS
 10
124.6401781819
 20
172.050751911
 11
123.6836895634
 21
171.4974210622
  0
LINE
  5
254
100
AcDbEntity
  8
0
100
AcDbLine
 62
253
  6
CONTINUOUS
 10
127.9605846714
 20
173.9718759468
 11
125.5014792956
 21
172.5490452871
  0
LINE
  5
255
100
AcDbEntity
  8
0
100
AcDbLine
 62
253
  6
CONTINUOUS
 10
122.8224732743
 20
170.999234089
 11
121.0676356236
 21
169.9841983655
  0
LINE
  5
256
100
AcDbEntity
  8
0
100
AcDbLine
 62
7
  6
CONTINUOUS
 10
125.7667402719
 20
173.6704605569
 11
122.1937158976
 21
171.6075739726
  0
LINE
  5
257
100
AcDbEntity
  8
0
100
AcDbLine
 62
7
  6
CONTINUOUS
 10
122.5937158976
 20
170.9147536495
 11
122.8006185534
 21
171.0342089536
  0
LINE
  5
258
100
AcDbEntity
  8
0
100
AcDbLine
 62
7
  6
CONTINUOUS
 10
123.6647197826
 20
171.5330980309
 11
124.6192719014
 21
172.0842089536
  0
LINE
  5
259
100
AcDbEntity
  8
0
100
AcDbLine
 62
7
  6
CONTINUOUS
 10
125.4833731306
 20
172.5830980309
 11
128.0131390123
 21
174.0436590437
  0
LINE
  5
25A
100
AcDbEntity
  8
0
100
AcDbLine
 62
253
  6
CONTINUOUS
 10
125.6339316888
 20
172.2999385658
 11
124.7892159123
 21
171.8122416849
  0
LINE
  5
25B
100
AcDbEntity
  8
0
100
AcDbLine
 62
253
  6
CONTINUOUS
 10
123.8152783408
 20
171.2499385658
 11
122.9705625644
 21
170.7622416849
  0
LINE
  5
25C
100
AcDbEntity
  8
0
100
AcDbLine
 62
253
  6
CONTINUOUS
 10
125.8324598826
 20
171.9265613376
 11
125.0133059802
 21
171.4536226116
  0
LINE
  5
25D
100
AcDbEntity
  8
0
100
AcDbLine
 62
253
  6
CONTINUOUS
 10
124.0138065347
 20
170.8765613376
 11
123.1946526323
 21
170.4036226116
  0
LINE
  5
25E
100
AcDbEntity
  8
0
100
AcDbLine
 62
7
  6
CONTINUOUS
 10
126.1410339477
 20
171.3462179269
 11
125.3616110843
 21
170.8962179269
  0
LINE
  5
25F
100
AcDbEntity
  8
0
100
AcDbLine
 62
7
  6
CONTINUOUS
 10
124.3223805997
 20
170.2962179269
 11
123.5429577363
 21
169.8462179269
  0
LINE
  5
260
100
AcDbEntity
  8
0
100
AcDbLine
 62
253
  6
CONTINUOUS
 10
120.5926259601
 20
170.9989139203
 11
125.4703503464
 21
173.8149878283
  0
LINE
  5
261
100
AcDbEntity
  8
0
100
AcDbLine
 62
253
  6
CONTINUOUS
 10
120.6926221524
 20
170.7882505654
 11
125.5703465353
 21
173.5985734562
  0
LINE
  5
262
100
AcDbEntity
  8
0
100
AcDbLine
 62
253
  6
CONTINUOUS
 10
120.6926221524
 20
170.7882505654
 11
122.1937158976
 21
171.6075739726
  0
LINE
  5
263
100
AcDbEntity
  8
0
100
AcDbLine
 62
253
  6
CONTINUOUS
 10
120.5526973238
 20
170.4789651673
 11
122.1096503658
 21
171.3287791155
  0
LWPOLYLINE
  5
264
100
AcDbEntity
  8
0
100
AcDbPolyline
 62
253
  6
CONTINUOUS
 90
22
 70
0
 10
121.0676359057
 20
169.9841985375
 10
121.0496948891
 20
169.9745130356
 10
121.0315774842
 20
169.9662164822
 10
121.0133894615
 20
169.9593098398
 10
120.9952194256
 20
169.9537765346
 10
120.9771813213
 20
169.9496082188
 10
120.9594139913
 20
169.9468045356
 10
120.9420269063
 20
169.9453373218
 10
120.9250873028
 20
169.9451611861
 10
120.9086633956
 20
169.9462455656
 10
120.8928381168
 20
169.9485481114
 10
120.8776740236
 20
169.952017983
 10
120.8632033111
 20
169.9566188914
 10
120.8495043501
 20
169.9622949289
 10
120.8366175887
 20
169.9689988359
 10
120.8245217865
 20
169.9767260834
 10
120.8132734446
 20
169.9854306553
 10
120.8029291073
 20
169.9950683365
 10
120.7934837091
 20
170.005662233
 10
120.7849824524
 20
170.017196975
 10
120.7775066791
 20
170.0296025738
 10
120.7711149164
 20
170.0428268662
  0
LWPOLYLINE
  5
265
100
AcDbEntity
  8
0
100
AcDbPolyline
 62
253
  6
CONTINUOUS
 90
22
 70
0
 10
121.1676295966
 20
169.8461091957
 10
121.1358033241
 20
169.8294133257
 10
121.1037904928
 20
169.8153236443
 10
121.0715911028
 20
169.8038403555
 10
121.0389996862
 20
169.7950041454
 10
121.0062217108
 20
169.7887746227
 10
120.9738735805
 20
169.7850303143
 10
120.9420125599
 20
169.7838090439
 10
120.9105813844
 20
169.7850730563
 10
120.880024663
 20
169.7885874557
 10
120.8503811129
 20
169.7943629926
 10
120.8216120169
 20
169.8023888008
 10
120.794045833
 20
169.8123975308
 10
120.7677266248
 20
169.8243664357
 10
120.7426103288
 20
169.8383180216
 10
120.718893212
 20
169.8540528126
 10
120.6965671712
 20
169.8715501742
 10
120.6756403097
 20
169.8908304121
 10
120.6563332038
 20
169.9117554639
 10
120.6387193793
 20
169.934279182
 10
120.6227253105
 20
169.9584473171
 10
120.6083509974
 20
169.9842596458
  0
LWPOLYLINE
  5
266
100
AcDbEntity
  8
0
100
AcDbPolyline
 62
7
  6
CONTINUOUS
 90
40
 70
0
 10
135.307174242
 20
42.9056934437
 10
135.3575408851
 20
42.9192227078
 10
135.4067619229
 20
42.936118614
 10
135.4548373552
 20
42.956381485
 10
135.5021517
 20
42.9800820565
 10
135.5483204393
 20
43.0071504354
 10
135.5921900197
 20
43.0373760627
 10
135.6336316318
 20
43.0708355512
 10
135.672774085
 20
43.1074534241
 10
135.7088502539
 20
43.1467909478
 10
135.7418435881
 20
43.1890800524
 10
135.7717706382
 20
43.2340900713
 10
135.7979139299
 20
43.2806880599
 10
135.8200802195
 20
43.3287498632
 10
135.8384627509
 20
43.378400425
 10
135.8529237818
 20
43.4288799748
 10
135.8634257963
 20
43.480345077
 10
135.8700063104
 20
43.5326396308
 10
135.8726401298
 20
43.584534312
 10
135.8712904623
 20
43.635809851
 10
135.8659941002
 20
43.6866852189
 10
135.8568362261
 20
43.7365879464
 10
135.843727172
 20
43.7856435402
 10
135.8267566059
 20
43.8337259675
 10
135.8062787144
 20
43.8798850565
 10
135.7823701347
 20
43.9238964411
 10
135.7549542297
 20
43.9659835012
 10
135.7241552746
 20
44.0058674109
 10
135.6899525922
 20
44.0436393563
 10
135.6523668597
 20
44.0792072415
 10
135.6115843833
 20
44.1120171932
 10
135.5677049011
 20
44.1420240923
 10
135.520628675
 20
44.1692721318
 10
135.4702427969
 20
44.1933413054
 10
135.4164749929
 20
44.2142867751
 10
135.3593975369
 20
44.2320526296
 10
135.2991143424
 20
44.2460522198
 10
135.2356600474
 20
44.2560898152
 10
135.1690000139
 20
44.2623606643
 10
135.099134242
 20
44.2648646437
  0
LWPOLYLINE
  5
267
100
AcDbEntity
  8
0
100
AcDbPolyline
 62
253
  6
CONTINUOUS
 90
13
 70
0
 10
121.0676334043
 20
43.1031210055
 10
121.0702293107
 20
43.1034486289
 10
121.0741674119
 20
43.1061584466
 10
121.0793934404
 20
43.1112131167
 10
121.0858353802
 20
43.1185429848
 10
121.0934044604
 20
43.128047044
 10
121.1019963774
 20
43.1395943265
 10
121.1114927329
 20
43.1530257084
 10
121.1217626654
 20
43.1681561027
 10
121.1326646531
 20
43.1847770096
 10
121.1440484646
 20
43.2026593898
 10
121.1557572287
 20
43.2215568206
 10
121.1676295964
 20
43.2412088917
  0
LINE
  5
268
100
AcDbEntity
  8
0
100
AcDbLine
 62
7
  6
CONTINUOUS
 10
134.135375042
 20
43.9585774437
 11
134.7889606522
 21
43.9598917103
  0
LINE
  5
269
100
AcDbEntity
  8
0
100
AcDbLine
 62
7
  6
CONTINUOUS
 10
133.191076842
 20
42.8838040437
 11
133.513297842
 21
42.8838040437
  0
LINE
  5
26A
100
AcDbEntity
  8
0
100
AcDbLine
 62
7
  6
CONTINUOUS
 10
139.281780842
 20
42.8909550437
 11
140.207396842
 21
42.8909550437
  0
LINE
  5
26B
100
AcDbEntity
  8
0
100
AcDbLine
 62
7
  6
CONTINUOUS
 10
129.7683907168
 20
43.0352253637
 11
130.6156009672
 21
43.0352253637
  0
LINE
  5
26C
100
AcDbEntity
  8
0
100
AcDbLine
 62
7
  6
CONTINUOUS
 10
141.0683907168
 20
43.0352253637
 11
141.9156009672
 21
43.0352253637
  0
LINE
  5
26D
100
AcDbEntity
  8
0
100
AcDbLine
 62
7
  6
CONTINUOUS
 10
129.7534924102
 20
43.0501236703
 11
130.6304992738
 21
43.0501236703
  0
LINE
  5
26E
100
AcDbEntity
  8
0
100
AcDbLine
 62
7
  6
CONTINUOUS
 10
141.0534924102
 20
43.0501236703
 11
141.9304992738
 21
43.0501236703
  0
LINE
  5
26F
100
AcDbEntity
  8
0
100
AcDbLine
 62
7
  6
CONTINUOUS
 10
133.513297842
 20
43.1900910437
 11
133.191076842
 21
43.1900910437
  0
LINE
  5
270
100
AcDbEntity
  8
0
100
AcDbLine
 62
7
  6
CONTINUOUS
 10
140.207396842
 20
43.1963630437
 11
139.281780842
 21
43.1963630437
  0
LINE
  5
271
100
AcDbEntity
  8
0
100
AcDbLine
 62
7
  6
CONTINUOUS
 10
138.936260842
 20
43.9620240437
 11
140.250072842
 21
43.9620240437
  0
LINE
  5
272
100
AcDbEntity
  8
0
100
AcDbLine
 62
7
  6
CONTINUOUS
 10
135.099134242
 20
44.2648646437
 11
134.135375042
 21
44.2648646437
  0
LINE
  5
273
100
AcDbEntity
  8
0
100
AcDbLine
 62
7
  6
CONTINUOUS
 10
133.819585842
 20
44.2648650437
 11
133.549782842
 21
44.2648650437
  0
LINE
  5
274
100
AcDbEntity
  8
0
100
AcDbLine
 62
7
  6
CONTINUOUS
 10
140.250072842
 20
44.2683110437
 11
138.629971842
 21
44.2683110437
  0
LINE
  5
275
100
AcDbEntity
  8
0
100
AcDbLine
 62
7
  6
CONTINUOUS
 10
136.550828842
 20
44.2723110437
 11
136.244541842
 21
44.2723110437
  0
LINE
  5
276
100
AcDbEntity
  8
0
100
AcDbLine
 62
7
  6
CONTINUOUS
 10
138.316896842
 20
44.2768580437
 11
137.883774842
 21
44.2768580437
  0
LINE
  5
277
100
AcDbEntity
  8
0
100
AcDbLine
 62
7
  6
CONTINUOUS
 10
139.153299842
 20
44.4870670437
 11
139.586440842
 21
44.4870670437
  0
LINE
  5
278
100
AcDbEntity
  8
0
100
AcDbLine
 62
7
  6
CONTINUOUS
 10
140.129457842
 20
45.0301020437
 11
139.696335842
 21
45.0301020437
  0
LINE
  5
279
100
AcDbEntity
  8
0
100
AcDbLine
 62
7
  6
CONTINUOUS
 10
134.7889606522
 20
43.9598917103
 11
135.113771842
 21
43.9584294437
  0
LWPOLYLINE
  5
27A
100
AcDbEntity
  8
0
100
AcDbPolyline
 62
7
  6
CONTINUOUS
 90
5
 70
0
 10
134.9259947787
 20
43.1882058043
 10
134.8984468244
 20
43.188439811
 10
134.8707721599
 20
43.1877301642
 10
134.8430047658
 20
43.1863123066
 10
134.815144642
 20
43.1841862437
  0
LWPOLYLINE
  5
27B
100
AcDbEntity
  8
0
100
AcDbPolyline
 62
7
  6
CONTINUOUS
 90
19
 70
0
 10
135.113771842
 20
43.9584294437
 10
135.1575297972
 20
43.9563090322
 10
135.1991486455
 20
43.9520744821
 10
135.2386283869
 20
43.9457258409
 10
135.275982443
 20
43.9371960887
 10
135.3111973923
 20
43.926552415
 10
135.3442329698
 20
43.9139962063
 10
135.3751081644
 20
43.8995140322
 10
135.4038039873
 20
43.8831196004
 10
135.4302232076
 20
43.8650550015
 10
135.4543750987
 20
43.8452426461
 10
135.4762503872
 20
43.8237604694
 10
135.4957240222
 20
43.8010837955
 10
135.5127233409
 20
43.7773005707
 10
135.5273210061
 20
43.752323143
 10
135.5396099551
 20
43.7263633677
 10
135.5496211669
 20
43.6994919455
 10
135.5573236626
 20
43.6716384539
 10
135.562717442
 20
43.6428030437
  0
LWPOLYLINE
  5
27C
100
AcDbEntity
  8
0
100
AcDbPolyline
 62
253
  6
CONTINUOUS
 90
13
 70
0
 10
150.6163576372
 20
43.1031221183
 10
150.6137617401
 20
43.1034496708
 10
150.609823664
 20
43.106159385
 10
150.6045976755
 20
43.1112139213
 10
150.5981557883
 20
43.1185436287
 10
150.5905867711
 20
43.1280475044
 10
150.5819949246
 20
43.139594586
 10
150.5724986439
 20
43.1530257555
 10
150.5622287869
 20
43.1681559327
 10
150.5513268716
 20
43.184776625
 10
150.5399431255
 20
43.2026588005
 10
150.5282344158
 20
43.2215560446
 10
150.5163620876
 20
43.2412079547
  0
LWPOLYLINE
  5
27D
100
AcDbEntity
  8
0
100
AcDbPolyline
 62
7
  6
CONTINUOUS
 90
9
 70
0
 10
127.9140869408
 20
39.1423476598
 10
127.9243311656
 20
39.1368265517
 10
127.9348793715
 20
39.1319107621
 10
127.945695832
 20
39.1276169396
 10
127.9567455269
 20
39.1239591434
 10
127.9679894723
 20
39.1209504323
 10
127.9793845932
 20
39.1186018747
 10
127.9908904644
 20
39.1169207511
 10
128.0024696966
 20
39.1159114843
  0
LINE
  5
27E
100
AcDbEntity
  8
0
100
AcDbLine
 62
253
  6
CONTINUOUS
 10
122.1937158976
 20
41.4797441147
 11
120.6926221524
 21
42.2990675219
  0
LINE
  5
27F
100
AcDbEntity
  8
0
100
AcDbLine
 62
253
  6
CONTINUOUS
 10
122.1096503658
 20
41.7585389718
 11
120.5526966358
 21
42.6083515444
  0
LINE
  5
280
100
AcDbEntity
  8
0
100
AcDbLine
 62
253
  6
CONTINUOUS
 10
125.5703465353
 20
39.4887446311
 11
120.6926221524
 21
42.2990675219
  0
LINE
  5
281
100
AcDbEntity
  8
0
100
AcDbLine
 62
253
  6
CONTINUOUS
 10
125.4703503448
 20
39.27233026
 11
120.5926259601
 21
42.088404167
  0
LINE
  5
282
100
AcDbEntity
  8
0
100
AcDbLine
 62
7
  6
CONTINUOUS
 10
122.1937158976
 20
41.4797441147
 11
125.7667402719
 21
39.4168575305
  0
LINE
  5
283
100
AcDbEntity
  8
0
100
AcDbLine
 62
7
  6
CONTINUOUS
 10
127.9667174257
 20
39.0704605592
 11
125.4833731306
 21
40.5042200565
  0
LINE
  5
284
100
AcDbEntity
  8
0
100
AcDbLine
 62
7
  6
CONTINUOUS
 10
122.8006185534
 20
42.0531091337
 11
122.5937158976
 21
42.1725644378
  0
LINE
  5
285
100
AcDbEntity
  8
0
100
AcDbLine
 62
7
  6
CONTINUOUS
 10
123.6647197826
 20
41.5542200565
 11
124.6192719014
 21
41.0031091337
  0
LINE
  5
286
100
AcDbEntity
  8
0
100
AcDbLine
 62
253
  6
CONTINUOUS
 10
122.9705625644
 20
42.3250764024
 11
123.8152783408
 21
41.8373795215
  0
LINE
  5
287
100
AcDbEntity
  8
0
100
AcDbLine
 62
253
  6
CONTINUOUS
 10
124.7892159123
 20
41.2750764024
 11
125.6339316888
 21
40.7873795215
  0
LINE
  5
288
100
AcDbEntity
  8
0
100
AcDbLine
 62
253
  6
CONTINUOUS
 10
123.1946526323
 20
42.6836954758
 11
124.0138065347
 21
42.2107567497
  0
LINE
  5
289
100
AcDbEntity
  8
0
100
AcDbLine
 62
253
  6
CONTINUOUS
 10
125.0133059802
 20
41.6336954758
 11
125.8324598826
 21
41.1607567497
  0
LINE
  5
28A
100
AcDbEntity
  8
0
100
AcDbLine
 62
7
  6
CONTINUOUS
 10
126.1410339477
 20
41.7411001604
 11
125.3616110843
 21
42.1911001604
  0
LINE
  5
28B
100
AcDbEntity
  8
0
100
AcDbLine
 62
7
  6
CONTINUOUS
 10
124.3223805997
 20
42.7911001604
 11
123.5429577363
 21
43.2411001604
  0
LINE
  5
28C
100
AcDbEntity
  8
0
100
AcDbLine
 62
253
  6
CONTINUOUS
 10
121.0676357742
 20
43.1031196347
 11
122.8224732743
 21
42.0880839983
  0
LINE
  5
28D
100
AcDbEntity
  8
0
100
AcDbLine
 62
253
  6
CONTINUOUS
 10
123.6836895634
 20
41.5898970251
 11
124.6401781819
 21
41.0365661763
  0
LINE
  5
28E
100
AcDbEntity
  8
0
100
AcDbLine
 62
253
  6
CONTINUOUS
 10
125.5014792956
 20
40.5382728002
 11
127.9140869408
 21
39.1423476598
  0
LINE
  5
28F
100
AcDbEntity
  8
0
100
AcDbLine
 62
253
  6
CONTINUOUS
 10
121.1676295966
 20
43.2412088916
 11
122.9114525172
 21
42.2304805536
  0
LINE
  5
290
100
AcDbEntity
  8
0
100
AcDbLine
 62
253
  6
CONTINUOUS
 10
123.7621143197
 20
41.7373925408
 11
124.7281707076
 21
41.1773836535
  0
LINE
  5
291
100
AcDbEntity
  8
0
100
AcDbLine
 62
253
  6
CONTINUOUS
 10
125.5790299919
 20
40.6841244472
 11
128.0140831369
 21
39.2723302588
  0
LINE
  5
292
100
AcDbEntity
  8
0
100
AcDbLine
 62
253
  6
CONTINUOUS
 10
120.7711144394
 20
43.0444897001
 11
122.310239703
 21
42.1059698954
  0
LINE
  5
293
100
AcDbEntity
  8
0
100
AcDbLine
 62
253
  6
CONTINUOUS
 10
121.0676357742
 20
43.1031196347
 11
122.5937158976
 21
42.1725644378
  0
LWPOLYLINE
  5
294
100
AcDbEntity
  8
0
100
AcDbPolyline
 62
253
  6
CONTINUOUS
 90
19
 70
0
 10
120.6926221524
 20
42.2990675219
 10
120.673145866
 20
42.3111406637
 10
120.6545246573
 20
42.3245843984
 10
120.6368717667
 20
42.3393203979
 10
120.6202175517
 20
42.3553156912
 10
120.6047403904
 20
42.3724177072
 10
120.5907406918
 20
42.3903354067
 10
120.5782820487
 20
42.4089284645
 10
120.5673955172
 20
42.428067691
 10
120.5582679023
 20
42.4474460212
 10
120.5509124788
 20
42.4668878381
 10
120.5452833944
 20
42.486282612
 10
120.5414279614
 20
42.5054165896
 10
120.5393085617
 20
42.5241247199
 10
120.5388461578
 20
42.5423265484
 10
120.5400153429
 20
42.5599455797
 10
120.5427677956
 20
42.576889766
 10
120.547020145
 20
42.5930536867
 10
120.5526966504
 20
42.6083515364
  0
LWPOLYLINE
  5
295
100
AcDbEntity
  8
0
100
AcDbPolyline
 62
253
  6
CONTINUOUS
 90
19
 70
0
 10
120.5926259601
 20
42.088404167
 10
120.5586101494
 20
42.1100071635
 10
120.5267758623
 20
42.1339814649
 10
120.4971230987
 20
42.160327407
 10
120.4694072453
 20
42.1893618873
 10
120.4438729155
 20
42.2207688156
 10
120.4212539491
 20
42.253598919
 10
120.401695295
 20
42.2878998064
 10
120.3850520044
 20
42.3236244287
 10
120.3716230706
 20
42.3596811397
 10
120.3615505075
 20
42.396009589
 10
120.3546923013
 20
42.4326702479
 10
120.3509214046
 20
42.4687522808
 10
120.3503042925
 20
42.5041454796
 10
120.3527744899
 20
42.5389597859
 10
120.3580055244
 20
42.572614281
 10
120.3658885717
 20
42.6049151238
 10
120.376532456
 20
42.6360556801
 10
120.3899371774
 20
42.6660357381
  0
LWPOLYLINE
  5
296
100
AcDbEntity
  8
0
100
AcDbPolyline
 62
253
  6
CONTINUOUS
 90
28
 70
0
 10
125.5703465353
 20
39.4887446311
 10
125.5865698077
 20
39.4782905412
 10
125.6017229482
 20
39.4663043562
 10
125.6156606988
 20
39.4528937399
 10
125.628251612
 20
39.4381762592
 10
125.6393692152
 20
39.4222898624
 10
125.6488973067
 20
39.4053945428
 10
125.6567438821
 20
39.3876518538
 10
125.6628355985
 20
39.3692257079
 10
125.6671128847
 20
39.3502949063
 10
125.6695355534
 20
39.3310411531
 10
125.670082022
 20
39.3116427472
 10
125.6687470448
 20
39.2922783539
 10
125.6655416039
 20
39.2731268135
 10
125.6604952013
 20
39.2543725335
 10
125.6536574751
 20
39.2361991066
 10
125.6450961805
 20
39.218781226
 10
125.6348917275
 20
39.2022781861
 10
125.6231373507
 20
39.1868400392
 10
125.6099389222
 20
39.1726081234
 10
125.5954239281
 20
39.1597219446
 10
125.5797392145
 20
39.1483101204
 10
125.5630270012
 20
39.1384737507
 10
125.5454525277
 20
39.1303078629
 10
125.5272177621
 20
39.1238969647
 10
125.5085099446
 20
39.1192903661
 10
125.4894948472
 20
39.1165128782
 10
125.4703503429
 20
39.1155766064
  0
LINE
  5
297
100
AcDbEntity
  8
0
100
AcDbLine
 62
7
  6
CONTINUOUS
 10
119.2347388334
 20
159.003551498
 11
119.0650479112
 21
158.9486215049
  0
LINE
  5
298
100
AcDbEntity
  8
0
100
AcDbLine
 62
7
  6
CONTINUOUS
 10
135.441995842
 20
50.4436590437
 11
135.2401879196
 21
50.3932262759
  0
LINE
  5
299
100
AcDbEntity
  8
0
100
AcDbLine
 62
7
  6
CONTINUOUS
 10
137.4559636179
 20
51.8471496579
 11
137.6061234586
 21
51.8846753223
  0
LWPOLYLINE
  5
29A
100
AcDbEntity
  8
0
100
AcDbPolyline
 62
7
  6
CONTINUOUS
 90
7
 70
0
 10
152.4492528506
 20
54.0837665894
 10
152.4467066653
 20
54.0833130356
 10
152.4419984763
 20
54.0828700212
 10
152.4351282837
 20
54.0824375461
 10
152.4259778013
 20
54.0820115008
 10
152.4146653152
 20
54.0815959948
 10
152.4015456841
 20
54.0812033568
  0
LWPOLYLINE
  5
29B
100
AcDbEntity
  8
0
100
AcDbPolyline
 62
253
  6
CONTINUOUS
 90
16
 70
0
 10
133.7357296581
 20
51.3157280186
 10
133.7663966697
 20
51.3159736047
 10
133.7967423839
 20
51.3165092566
 10
133.8264488629
 20
51.317329362
 10
133.8552048662
 20
51.3184253285
 10
133.8827091118
 20
51.3197856736
 10
133.9086734322
 20
51.3213961446
 10
133.9328257945
 20
51.3232398683
 10
133.9549131496
 20
51.3252975276
 10
133.9747040842
 20
51.3275475642
 10
133.9919912448
 20
51.329966404
 10
134.0065935105
 20
51.3325287042
 10
134.0183578906
 20
51.3352076193
 10
134.0271611274
 20
51.3379750817
 10
134.0329109878
 20
51.3408020962
 10
134.0355472294
 20
51.3436590437
  0
LINE
  5
29C
100
AcDbEntity
  8
0
100
AcDbLine
 62
253
  6
CONTINUOUS
 10
136.7438952064
 20
50.0614643942
 11
134.9400964775
 21
50.0614643942
  0
LINE
  5
29D
100
AcDbEntity
  8
0
100
AcDbLine
 62
7
  6
CONTINUOUS
 10
136.4438037644
 20
50.3932262759
 11
135.2401879196
 21
50.3932262759
  0
LINE
  5
29E
100
AcDbEntity
  8
0
100
AcDbLine
 62
7
  6
CONTINUOUS
 10
135.441995842
 20
50.4436590437
 11
136.241995842
 21
50.4436590437
  0
LINE
  5
29F
100
AcDbEntity
  8
0
100
AcDbLine
 62
253
  6
CONTINUOUS
 10
137.3458717723
 20
50.7138843069
 11
136.7462374989
 21
50.7138843069
  0
LINE
  5
2A0
100
AcDbEntity
  8
0
100
AcDbLine
 62
253
  6
CONTINUOUS
 10
134.3381199117
 20
50.7138843069
 11
134.9377541851
 21
50.7138843069
  0
LINE
  5
2A1
100
AcDbEntity
  8
0
100
AcDbLine
 62
7
  6
CONTINUOUS
 10
134.3381199117
 20
51.0436590437
 11
135.441995842
 21
51.0436590437
  0
LINE
  5
2A2
100
AcDbEntity
  8
0
100
AcDbLine
 62
7
  6
CONTINUOUS
 10
136.241995842
 20
51.0436590437
 11
137.3458775214
 21
51.0436590437
  0
LINE
  5
2A3
100
AcDbEntity
  8
0
100
AcDbLine
 62
253
  6
CONTINUOUS
 10
137.4555948216
 20
51.3436590437
 11
137.6484447834
 21
51.3436608746
  0
LINE
  5
2A4
100
AcDbEntity
  8
0
100
AcDbLine
 62
253
  6
CONTINUOUS
 10
134.2283968624
 20
51.3436590437
 11
134.0355469162
 21
51.3436558153
  0
LINE
  5
2A5
100
AcDbEntity
  8
0
100
AcDbLine
 62
7
  6
CONTINUOUS
 10
137.052334648
 20
51.4436590437
 11
134.631657036
 21
51.4436590437
  0
LINE
  5
2A6
100
AcDbEntity
  8
0
100
AcDbLine
 62
7
  6
CONTINUOUS
 10
137.4559636179
 20
51.8471496579
 11
134.2280280661
 21
51.8471496579
  0
LINE
  5
2A7
100
AcDbEntity
  8
0
100
AcDbLine
 62
7
  6
CONTINUOUS
 10
137.6061234586
 20
51.8846753223
 11
136.691995842
 21
51.8846753223
  0
LINE
  5
2A8
100
AcDbEntity
  8
0
100
AcDbLine
 62
7
  6
CONTINUOUS
 10
134.0778682254
 20
51.8846753223
 11
134.991995842
 21
51.8846753223
  0
LINE
  5
2A9
100
AcDbEntity
  8
0
100
AcDbLine
 62
7
  6
CONTINUOUS
 10
135.0191012248
 20
51.8982269815
 11
136.6648904592
 21
51.8982269815
  0
LWPOLYLINE
  5
2AA
100
AcDbEntity
  8
0
100
AcDbPolyline
 62
7
  6
CONTINUOUS
 90
8
 70
0
 10
119.0650479112
 20
54.1386965824
 10
119.0626484782
 20
54.1391356191
 10
119.0581680695
 20
54.1395659684
 10
119.051606685
 20
54.1399876305
 10
119.0428517244
 20
54.1404049339
 10
119.032015788
 20
54.1408135501
 10
119.0194366772
 20
54.1412004932
 10
118.9890810291
 20
54.1419039355
  0
LINE
  5
2AB
100
AcDbEntity
  8
0
100
AcDbLine
 62
7
  6
CONTINUOUS
 10
136.241995842
 20
50.4436590437
 11
136.4438037644
 21
50.3932262759
  0
LINE
  5
2AC
100
AcDbEntity
  8
0
100
AcDbLine
 62
7
  6
CONTINUOUS
 10
134.2280280661
 20
51.8471496579
 11
134.0778682254
 21
51.8846753223
  0
LWPOLYLINE
  5
2AD
100
AcDbEntity
  8
0
100
AcDbPolyline
 62
7
  6
CONTINUOUS
 90
9
 70
0
 10
117.9505548421
 20
54.0351000435
 10
117.9516220776
 20
54.0347987018
 10
117.954097507
 20
54.0345039609
 10
117.9579811304
 20
54.0342158208
 10
117.9632899017
 20
54.0339327225
 10
117.970006867
 20
54.033656225
 10
117.978081164
 20
54.0333910052
 10
117.9875908625
 20
54.0331360103
 10
118.010397183
 20
54.0326676888
  0
LINE
  5
2AE
100
AcDbEntity
  8
0
100
AcDbLine
 62
7
  6
CONTINUOUS
 10
119.0650479112
 20
54.1386965824
 11
119.2347388334
 21
54.0837665894
  0
LINE
  5
2AF
100
AcDbEntity
  8
0
100
AcDbLine
 62
7
  6
CONTINUOUS
 10
129.7673278419
 20
173.9689910435
 11
129.841995842
 21
174.0436590437
  0
LINE
  5
2B0
100
AcDbEntity
  8
0
100
AcDbLine
 62
7
  6
CONTINUOUS
 10
117.841995842
 20
158.9436590437
 11
117.9505548421
 21
159.0522180438
  0
LINE
  5
2B1
100
AcDbEntity
  8
0
100
AcDbLine
 62
7
  6
CONTINUOUS
 10
129.7683907168
 20
170.0520927236
 11
129.7534924102
 21
170.037194417
  0
LINE
  5
2B2
100
AcDbEntity
  8
0
100
AcDbLine
 62
7
  6
CONTINUOUS
 10
136.691995842
 20
161.202642765
 11
136.6648904592
 21
161.1890911058
  0
LINE
  5
2B3
100
AcDbEntity
  8
SUPERFICI
100
AcDbLine
 62
7
  6
CONTINUOUS
 10
151.409654842
 20
59.7517380437
 11
150.239585842
 21
59.4277140437
  0
LWPOLYLINE
  5
2B4
100
AcDbEntity
  8
0
100
AcDbPolyline
 62
7
  6
CONTINUOUS
 90
7
 70
0
 10
133.9841471899
 20
54.0341729221
 10
133.9965850404
 20
54.0345679411
 10
134.0072314159
 20
54.0349851135
 10
134.0157373748
 20
54.0354108285
 10
134.0219866032
 20
54.0358405491
 10
134.026095415
 20
54.0362788123
 10
134.0280638103
 20
54.0367256181
  0
LWPOLYLINE
  5
2B5
100
AcDbEntity
  8
0
100
AcDbPolyline
 62
7
  6
CONTINUOUS
 90
7
 70
0
 10
118.9685954629
 20
54.8461170002
 10
118.9811129686
 20
54.8465039325
 10
118.9918867405
 20
54.8469125737
 10
119.0005794403
 20
54.847329949
 10
119.0070786217
 20
54.8477517335
 10
119.0114967311
 20
54.8481822522
 10
119.0138337683
 20
54.8486215049
  0
LWPOLYLINE
  5
2B6
100
AcDbEntity
  8
0
100
AcDbPolyline
 62
7
  6
CONTINUOUS
 90
7
 70
0
 10
152.6645550068
 20
54.1412004932
 10
152.651975896
 20
54.1408135501
 10
152.6411399596
 20
54.1404049339
 10
152.632384999
 20
54.1399876305
 10
152.6258236145
 20
54.1395659684
 10
152.6213432058
 20
54.1391356191
 10
152.6189437728
 20
54.1386965824
  0
LWPOLYLINE
  5
2B7
100
AcDbEntity
  8
0
100
AcDbPolyline
 62
7
  6
CONTINUOUS
 90
8
 70
0
 10
153.6964008697
 20
54.0331360095
 10
153.7059105645
 20
54.0333910045
 10
153.7139848566
 20
54.0336562244
 10
153.720701816
 20
54.0339327221
 10
153.7260105805
 20
54.0342158205
 10
153.7298941959
 20
54.0345039607
 10
153.7323696163
 20
54.0347987017
 10
153.7334368418
 20
54.0351000435
  0
LWPOLYLINE
  5
2B8
100
AcDbEntity
  8
0
100
AcDbPolyline
 62
7
  6
CONTINUOUS
 90
8
 70
0
 10
117.9886146137
 20
54.9551619687
 10
117.9790956056
 20
54.9549065486
 10
117.9710121799
 20
54.9546408379
 10
117.9642859875
 20
54.9543637856
 10
117.9589694841
 20
54.954080083
 10
117.9550801549
 20
54.953791294
 10
117.9526005148
 20
54.9534958548
 10
117.9515305636
 20
54.9531937653
  0
LINE
  5
2B9
100
AcDbEntity
  8
0
100
AcDbLine
 62
7
  6
CONTINUOUS
 10
133.9539241935
 20
54.033455081
 11
133.9841471899
 21
54.0341729221
  0
LINE
  5
2BA
100
AcDbEntity
  8
0
100
AcDbLine
 62
7
  6
CONTINUOUS
 10
118.9383615323
 20
54.8454137004
 11
118.9685954629
 21
54.8461170002
  0
LINE
  5
2BB
100
AcDbEntity
  8
0
100
AcDbLine
 62
7
  6
CONTINUOUS
 10
152.6949106549
 20
54.1419039355
 11
152.6645550068
 21
54.1412004932
  0
LINE
  5
2BC
100
AcDbEntity
  8
0
100
AcDbLine
 62
7
  6
CONTINUOUS
 10
152.4015456841
 20
54.0812033568
 11
152.3699798833
 21
54.0804920241
  0
LINE
  5
2BD
100
AcDbEntity
  8
0
100
AcDbLine
 62
7
  6
CONTINUOUS
 10
119.2219580008
 20
54.9058734535
 11
119.2533110982
 21
54.9065833782
  0
LINE
  5
2BE
100
AcDbEntity
  8
0
100
AcDbLine
 62
7
  6
CONTINUOUS
 10
153.6735945536
 20
54.0326676877
 11
153.6964008697
 21
54.0331360095
  0
LINE
  5
2BF
100
AcDbEntity
  8
0
100
AcDbLine
 62
7
  6
CONTINUOUS
 10
118.011436827
 20
54.9556309401
 11
117.9886146137
 21
54.9551619687
  0
LINE
  5
2C0
100
AcDbEntity
  8
0
100
AcDbLine
 62
7
  6
CONTINUOUS
 10
133.9174640357
 20
54.0328409058
 11
133.9539241935
 21
54.033455081
  0
LINE
  5
2C1
100
AcDbEntity
  8
0
100
AcDbLine
 62
7
  6
CONTINUOUS
 10
152.7313694838
 20
54.1425061562
 11
152.6949106549
 21
54.1419039355
  0
LINE
  5
2C2
100
AcDbEntity
  8
0
100
AcDbLine
 62
7
  6
CONTINUOUS
 10
118.9020205963
 20
54.8448116692
 11
118.9383615323
 21
54.8454137004
  0
LINE
  5
2C3
100
AcDbEntity
  8
0
100
AcDbLine
 62
7
  6
CONTINUOUS
 10
152.3699798833
 20
54.0804920241
 11
152.3316864355
 21
54.07988389
  0
LINE
  5
2C4
100
AcDbEntity
  8
0
100
AcDbLine
 62
7
  6
CONTINUOUS
 10
119.2533110982
 20
54.9065833782
 11
119.2913865059
 21
54.9071905685
  0
LINE
  5
2C5
100
AcDbEntity
  8
0
100
AcDbLine
 62
7
  6
CONTINUOUS
 10
153.6463905699
 20
54.0322778574
 11
153.6735945536
 21
54.0326676877
  0
LINE
  5
2C6
100
AcDbEntity
  8
0
100
AcDbLine
 62
7
  6
CONTINUOUS
 10
118.0386450838
 20
54.9560211006
 11
118.011436827
 21
54.9556309401
  0
LINE
  5
2C7
100
AcDbEntity
  8
0
100
AcDbLine
 62
7
  6
CONTINUOUS
 10
133.8523832712
 20
54.0321379037
 11
133.9174640357
 21
54.0328409058
  0
LINE
  5
2C8
100
AcDbEntity
  8
0
100
AcDbLine
 62
7
  6
CONTINUOUS
 10
118.8372963237
 20
54.8441220005
 11
118.9020205963
 21
54.8448116692
  0
LWPOLYLINE
  5
2C9
100
AcDbEntity
  8
0
100
AcDbPolyline
 62
253
  6
CONTINUOUS
 90
15
 70
0
 10
153.5526355235
 20
55.5142648028
 10
153.5730885228
 20
55.5144436048
 10
153.5931008573
 20
55.5147273654
 10
153.6124581027
 20
55.5151130444
 10
153.630952854
 20
55.5155965093
 10
153.6483869473
 20
55.5161725799
 10
153.6645735833
 20
55.5168350841
 10
153.6793393284
 20
55.5175769231
 10
153.6925259735
 20
55.5183901487
 10
153.7039922288
 20
55.5192660473
 10
153.7136152379
 20
55.520195234
 10
153.7212918938
 20
55.5211677531
 10
153.726939944
 20
55.5221731844
 10
153.7304988718
 20
55.523200755
 10
153.7319305443
 20
55.524239455
  0
LINE
  5
2CA
100
AcDbEntity
  8
0
100
AcDbLine
 62
7
  6
CONTINUOUS
 10
152.7962538428
 20
54.143196054
 11
152.7313694838
 21
54.1425061562
  0
LINE
  5
2CB
100
AcDbEntity
  8
0
100
AcDbLine
 62
7
  6
CONTINUOUS
 10
152.3316864355
 20
54.07988389
 11
152.2641560937
 21
54.079200464
  0
LINE
  5
2CC
100
AcDbEntity
  8
0
100
AcDbLine
 62
7
  6
CONTINUOUS
 10
119.2913865059
 20
54.9071905685
 11
119.3586057065
 21
54.9078736498
  0
LINE
  5
2CD
100
AcDbEntity
  8
0
100
AcDbLine
 62
7
  6
CONTINUOUS
 10
153.6003355843
 20
54.0318677242
 11
153.6463905699
 21
54.0322778574
  0
LINE
  5
2CE
100
AcDbEntity
  8
0
100
AcDbLine
 62
7
  6
CONTINUOUS
 10
118.0846859327
 20
54.956431402
 11
118.0386450838
 21
54.9560211006
  0
LINE
  5
2CF
100
AcDbEntity
  8
0
100
AcDbLine
 62
7
  6
CONTINUOUS
 10
152.2641560937
 20
54.079200464
 11
152.214551022
 21
54.0789244218
  0
LINE
  5
2D0
100
AcDbEntity
  8
0
100
AcDbLine
 62
7
  6
CONTINUOUS
 10
119.3586057065
 20
54.9078736498
 11
119.4080323585
 21
54.9081502249
  0
LINE
  5
2D1
100
AcDbEntity
  8
0
100
AcDbLine
 62
7
  6
CONTINUOUS
 10
133.7788958628
 20
54.0317411215
 11
133.8523832712
 21
54.0321379037
  0
LINE
  5
2D2
100
AcDbEntity
  8
0
100
AcDbLine
 62
7
  6
CONTINUOUS
 10
152.8693912084
 20
54.143585611
 11
152.7962538428
 21
54.143196054
  0
LINE
  5
2D3
100
AcDbEntity
  8
0
100
AcDbLine
 62
7
  6
CONTINUOUS
 10
118.7642747984
 20
54.8437324961
 11
118.8372963237
 21
54.8441220005
  0
LINE
  5
2D4
100
AcDbEntity
  8
0
100
AcDbLine
 62
7
  6
CONTINUOUS
 10
153.5506523208
 20
54.0316795491
 11
153.6003355843
 21
54.0318677242
  0
LINE
  5
2D5
100
AcDbEntity
  8
0
100
AcDbLine
 62
7
  6
CONTINUOUS
 10
118.1343342332
 20
54.9566195733
 11
118.0846859327
 21
54.956431402
  0
LINE
  5
2D6
100
AcDbEntity
  8
0
100
AcDbLine
 62
7
  6
CONTINUOUS
 10
135.0219496886
 20
54.0316663919
 11
136.6620419954
 21
54.0316663919
  0
LINE
  5
2D7
100
AcDbEntity
  8
0
100
AcDbLine
 62
7
  6
CONTINUOUS
 10
143.341995842
 20
54.0616202385
 11
137.6061234586
 21
54.0616202385
  0
LINE
  5
2D8
100
AcDbEntity
  8
0
100
AcDbLine
 62
7
  6
CONTINUOUS
 10
136.691995842
 20
54.0616202385
 11
134.991995842
 21
54.0616202385
  0
LINE
  5
2D9
100
AcDbEntity
  8
0
100
AcDbLine
 62
7
  6
CONTINUOUS
 10
134.0778682254
 20
54.0616202385
 11
128.341995842
 21
54.0616202385
  0
LINE
  5
2DA
100
AcDbEntity
  8
0
100
AcDbLine
 62
7
  6
CONTINUOUS
 10
153.841995842
 20
54.1436590437
 11
152.8693912084
 21
54.143585611
  0
LINE
  5
2DB
100
AcDbEntity
  8
0
100
AcDbLine
 62
7
  6
CONTINUOUS
 10
118.7642747984
 20
54.8437324961
 11
117.841995842
 21
54.8436590437
  0
LINE
  5
2DC
100
AcDbEntity
  8
0
100
AcDbLine
 62
7
  6
CONTINUOUS
 10
118.1343342332
 20
54.9566195733
 11
123.1610609852
 21
54.9566327056
  0
LINE
  5
2DD
100
AcDbEntity
  8
0
100
AcDbLine
 62
253
  6
CONTINUOUS
 10
153.5526355235
 20
55.5142648028
 11
148.5234480136
 21
55.5141928703
  0
LINE
  5
2DE
100
AcDbEntity
  8
DRAFT
100
AcDbLine
 62
7
  6
CONTINUOUS
 10
143.341995842
 20
55.5436590437
 11
128.341995842
 21
55.5436590437
  0
LINE
  5
2DF
100
AcDbEntity
  8
RACCORDO
100
AcDbLine
 62
7
  6
CONTINUOUS
 10
128.341995842
 20
55.5436590437
 11
125.391995842
 21
55.5436590437
  0
LINE
  5
2E0
100
AcDbEntity
  8
RACCORDO
100
AcDbLine
 62
7
  6
CONTINUOUS
 10
143.341995842
 20
55.5436590437
 11
146.291995842
 21
55.5436590437
  0
LINE
  5
2E1
100
AcDbEntity
  8
0
100
AcDbLine
 62
7
  6
CONTINUOUS
 10
118.1333393767
 20
54.0316795499
 11
133.7788958628
 21
54.0317411215
  0
LINE
  5
2E2
100
AcDbEntity
  8
0
100
AcDbLine
 62
7
  6
CONTINUOUS
 10
137.9049942185
 20
54.0317414124
 11
153.5506523208
 21
54.0316795491
  0
LWPOLYLINE
  5
2E3
100
AcDbEntity
  8
0
100
AcDbPolyline
 62
253
  6
CONTINUOUS
 90
16
 70
0
 10
123.1605436704
 20
55.5141928703
 10
118.1313561516
 20
55.5142647978
 10
118.110903144
 20
55.5144436
 10
118.090890802
 20
55.5147273609
 10
118.0715335499
 20
55.5151130401
 10
118.0530387932
 20
55.5155965054
 10
118.0356046961
 20
55.5161725765
 10
118.019418058
 20
55.5168350811
 10
118.0046523125
 20
55.5175769206
 10
117.9914656688
 20
55.5183901466
 10
117.9799994167
 20
55.5192660457
 10
117.9703764126
 20
55.5201952329
 10
117.9626997633
 20
55.5211677524
 10
117.957051721
 20
55.522173184
 10
117.9534928023
 20
55.5232007548
 10
117.9520611397
 20
55.524239455
  0
LINE
  5
2E4
100
AcDbEntity
  8
0
100
AcDbLine
 62
7
  6
CONTINUOUS
 10
118.839208004
 20
54.1434937274
 11
117.841995842
 21
54.1436590437
  0
LINE
  5
2E5
100
AcDbEntity
  8
0
100
AcDbLine
 62
7
  6
CONTINUOUS
 10
152.8951397238
 20
54.843824377
 11
153.841995842
 21
54.8436590437
  0
LINE
  5
2E6
100
AcDbEntity
  8
0
100
AcDbLine
 62
7
  6
CONTINUOUS
 10
153.5830235881
 20
54.9565190625
 11
148.5229306987
 21
54.9566327056
  0
LINE
  5
2E7
100
AcDbEntity
  8
0
100
AcDbLine
 62
7
  6
CONTINUOUS
 10
118.0836561415
 20
54.0318677261
 11
118.1333393767
 21
54.0316795499
  0
LINE
  5
2E8
100
AcDbEntity
  8
0
100
AcDbLine
 62
7
  6
CONTINUOUS
 10
137.8313560116
 20
54.0321399624
 11
137.9049942185
 21
54.0317414124
  0
LINE
  5
2E9
100
AcDbEntity
  8
0
100
AcDbLine
 62
7
  6
CONTINUOUS
 10
119.469440662
 20
54.0789244218
 11
119.3964906792
 21
54.0793912963
  0
LINE
  5
2EA
100
AcDbEntity
  8
0
100
AcDbLine
 62
7
  6
CONTINUOUS
 10
152.2759593255
 20
54.9081502249
 11
152.3486333841
 21
54.9076827801
  0
LINE
  5
2EB
100
AcDbEntity
  8
0
100
AcDbLine
 62
7
  6
CONTINUOUS
 10
118.9106378536
 20
54.1429974073
 11
118.839208004
 21
54.1434937274
  0
LINE
  5
2EC
100
AcDbEntity
  8
0
100
AcDbLine
 62
7
  6
CONTINUOUS
 10
152.8238430461
 20
54.8443206152
 11
152.8951397238
 21
54.843824377
  0
LINE
  5
2ED
100
AcDbEntity
  8
0
100
AcDbLine
 62
7
  6
CONTINUOUS
 10
153.6305863073
 20
54.9561826651
 11
153.5830235881
 21
54.9565190625
  0
LINE
  5
2EE
100
AcDbEntity
  8
0
100
AcDbLine
 62
7
  6
CONTINUOUS
 10
118.0376011661
 20
54.0322778588
 11
118.0836561415
 21
54.0318677261
  0
LINE
  5
2EF
100
AcDbEntity
  8
0
100
AcDbLine
 62
7
  6
CONTINUOUS
 10
119.3964906792
 20
54.0793912963
 11
119.3523045927
 21
54.0798839009
  0
LINE
  5
2F0
100
AcDbEntity
  8
0
100
AcDbLine
 62
7
  6
CONTINUOUS
 10
152.3486333841
 20
54.9076827801
 11
152.3926055252
 21
54.9071905622
  0
LINE
  5
2F1
100
AcDbEntity
  8
0
100
AcDbLine
 62
7
  6
CONTINUOUS
 10
118.9526222002
 20
54.1425061562
 11
118.9106378536
 21
54.1429974073
  0
LINE
  5
2F2
100
AcDbEntity
  8
0
100
AcDbLine
 62
7
  6
CONTINUOUS
 10
152.7819693573
 20
54.8448116973
 11
152.8238430461
 21
54.8443206152
  0
LINE
  5
2F3
100
AcDbEntity
  8
0
100
AcDbLine
 62
7
  6
CONTINUOUS
 10
137.7662093682
 20
54.0328455144
 11
137.8313560116
 21
54.0321399624
  0
LINE
  5
2F4
100
AcDbEntity
  8
0
100
AcDbLine
 62
7
  6
CONTINUOUS
 10
153.65948575
 20
54.9558356155
 11
153.6305863073
 21
54.9561826651
  0
LINE
  5
2F5
100
AcDbEntity
  8
0
100
AcDbLine
 62
7
  6
CONTINUOUS
 10
118.010397183
 20
54.0326676888
 11
118.0376011661
 21
54.0322778588
  0
LINE
  5
2F6
100
AcDbEntity
  8
0
100
AcDbLine
 62
7
  6
CONTINUOUS
 10
119.3523045927
 20
54.0798839009
 11
119.3140124892
 21
54.0804920082
  0
LINE
  5
2F7
100
AcDbEntity
  8
0
100
AcDbLine
 62
7
  6
CONTINUOUS
 10
152.3926055252
 20
54.9071905622
 11
152.4306799167
 21
54.9065833931
  0
LINE
  5
2F8
100
AcDbEntity
  8
0
100
AcDbLine
 62
7
  6
CONTINUOUS
 10
118.9890810291
 20
54.1419039355
 11
118.9526222002
 21
54.1425061562
  0
LINE
  5
2F9
100
AcDbEntity
  8
0
100
AcDbLine
 62
7
  6
CONTINUOUS
 10
152.7456303702
 20
54.8454136887
 11
152.7819693573
 21
54.8448116973
  0
LINE
  5
2FA
100
AcDbEntity
  8
0
100
AcDbLine
 62
7
  6
CONTINUOUS
 10
137.7297923804
 20
54.0334604816
 11
137.7662093682
 21
54.0328455144
  0
LWPOLYLINE
  5
2FB
100
AcDbEntity
  8
0
100
AcDbPolyline
 62
7
  6
CONTINUOUS
 90
8
 70
0
 10
119.3140124892
 20
54.0804920082
 10
119.2824488163
 20
54.0812032807
 10
119.2693297644
 20
54.0815958713
 10
119.2580176024
 20
54.0820113257
 10
119.2488669648
 20
54.0824373538
 10
119.2419960632
 20
54.0828698587
 10
119.2372866861
 20
54.0833129372
 10
119.2347388334
 20
54.0837665894
  0
LWPOLYLINE
  5
2FC
100
AcDbEntity
  8
0
100
AcDbPolyline
 62
7
  6
CONTINUOUS
 90
8
 70
0
 10
152.4306799167
 20
54.9065833931
 10
152.462031406
 20
54.9058735153
 10
152.4750509183
 20
54.9054817139
 10
152.4862675774
 20
54.9050671042
 10
152.4953289971
 20
54.904641878
 10
152.5021177153
 20
54.9042100993
 10
152.506751194
 20
54.9037677042
 10
152.5092294332
 20
54.9033146926
  0
LWPOLYLINE
  5
2FD
100
AcDbEntity
  8
0
100
AcDbPolyline
 62
7
  6
CONTINUOUS
 90
8
 70
0
 10
137.6559278737
 20
54.0367256181
 10
137.6578905795
 20
54.0362797268
 10
137.6619843849
 20
54.0358423438
 10
137.6682092899
 20
54.035413469
 10
137.6766787301
 20
54.0349886318
 10
137.6872792698
 20
54.0345723028
 10
137.699670603
 20
54.0341778944
 10
137.7297923804
 20
54.0334604816
  0
LINE
  5
2FE
100
AcDbEntity
  8
SUPERFICI
100
AcDbLine
 62
7
  6
CONTINUOUS
 10
121.341995842
 20
59.9172350437
 11
119.998202842
 21
60.3673260437
  0
LINE
  5
2FF
100
AcDbEntity
  8
SUPERFICI
100
AcDbLine
 62
7
  6
CONTINUOUS
 10
119.741995842
 20
60.2693080437
 11
121.101224842
 21
59.8124660437
  0
LWPOLYLINE
  5
300
100
AcDbEntity
  8
0
100
AcDbPolyline
 62
7
  6
CONTINUOUS
 90
10
 70
0
 10
136.4438037644
 20
50.3932262759
 10
136.4439557838
 20
50.3931566578
 10
136.4441076879
 20
50.3930239937
 10
136.4442594766
 20
50.3928282836
 10
136.4444111785
 20
50.3925694712
 10
136.4445627651
 20
50.3922476129
 10
136.4447141511
 20
50.3918628773
 10
136.4448653081
 20
50.3914153208
 10
136.4450162644
 20
50.390904887
 10
136.4451670202
 20
50.3903315761
  0
LINE
  5
301
100
AcDbEntity
  8
0
100
AcDbLine
 62
7
  6
CONTINUOUS
 10
136.691995842
 20
51.8846753223
 11
136.6648904592
 21
51.8982269815
  0
LINE
  5
302
100
AcDbEntity
  8
0
100
AcDbLine
 62
7
  6
CONTINUOUS
 10
129.7700782792
 20
39.1155766064
 11
129.841995842
 21
39.0436590437
  0
LINE
  5
303
100
AcDbEntity
  8
0
100
AcDbLine
 62
7
  6
CONTINUOUS
 10
117.841995842
 20
54.1436590437
 11
117.9505548421
 21
54.0351000435
  0
LINE
  5
304
100
AcDbEntity
  8
0
100
AcDbLine
 62
7
  6
CONTINUOUS
 10
129.7683907168
 20
43.0352253637
 11
129.7534924102
 21
43.0501236703
  0
LINE
  5
305
100
AcDbEntity
  8
0
100
AcDbLine
 62
7
  6
CONTINUOUS
 10
127.9605846714
 20
173.9718759468
 11
128.0131390123
 21
174.0436590437
  0
LINE
  5
306
100
AcDbEntity
  8
0
100
AcDbLine
 62
7
  6
CONTINUOUS
 10
123.1977647724
 20
158.1673891689
 11
123.1610609852
 21
158.1306853817
  0
LINE
  5
307
100
AcDbEntity
  8
0
100
AcDbLine
 62
7
  6
CONTINUOUS
 10
141.0700782792
 20
173.9717414809
 11
141.141995842
 21
174.0436590437
  0
LINE
  5
308
100
AcDbEntity
  8
0
100
AcDbLine
 62
7
  6
CONTINUOUS
 10
121.504269842
 20
152.6398800437
 11
121.767881842
 21
152.7878370437
  0
LINE
  5
309
100
AcDbEntity
  8
0
100
AcDbLine
 62
7
  6
CONTINUOUS
 10
137.6559278737
 20
159.0505924692
 11
137.6061234586
 21
159.0256978488
  0
LINE
  5
30A
100
AcDbEntity
  8
0
100
AcDbLine
 62
7
  6
CONTINUOUS
 10
152.6701579157
 20
158.2386965824
 11
152.5092294332
 21
158.1840033947
  0
LINE
  5
30B
100
AcDbEntity
  8
SUPERFICI
100
AcDbLine
 62
7
  6
CONTINUOUS
 10
151.600095842
 20
63.8295450437
 11
151.939448842
 21
63.9214640437
  0
LINE
  5
30C
100
AcDbEntity
  8
SUPERFICI
100
AcDbLine
 62
7
  6
CONTINUOUS
 10
151.6357519678
 20
65.5581264531
 11
151.4793684863
 21
65.5164058393
  0
LWPOLYLINE
  5
30D
100
AcDbEntity
  8
SUPERFICI
100
AcDbPolyline
 62
7
  6
CONTINUOUS
 90
28
 70
0
 10
151.4793684863
 20
65.5164058393
 10
151.4611274042
 20
65.51159857
 10
151.4434826103
 20
65.5067816209
 10
151.4264341045
 20
65.5019549919
 10
151.4100149059
 20
65.4971649596
 10
151.3941919954
 20
65.4923652475
 10
151.3788663162
 20
65.4874170259
 10
151.3640441929
 20
65.4822922442
 10
151.3497193009
 20
65.4770189534
 10
151.3357736092
 20
65.4715424766
 10
151.3221968325
 20
65.4658692172
 10
151.3089992562
 20
65.4599927721
 10
151.2960937054
 20
65.4538392546
 10
151.283467743
 20
65.4474231824
 10
151.2711338062
 20
65.4407300384
 10
151.2590420309
 20
65.433642383
 10
151.2471348476
 20
65.4261444971
 10
151.2354698258
 20
65.418252101
 10
151.2241698108
 20
65.409894914
 10
151.2132209335
 20
65.4010746376
 10
151.202637063
 20
65.3917895719
 10
151.1925826507
 20
65.381964334
 10
151.1830286384
 20
65.3715604568
 10
151.1740040844
 20
65.3606164095
 10
151.1657606148
 20
65.3491722144
 10
151.1583821051
 20
65.3372412131
 10
151.1517846798
 20
65.3248100663
 10
151.1459683389
 20
65.3118787751
  0
LINE
  5
30E
100
AcDbEntity
  8
SUPERFICI
100
AcDbLine
 62
7
  6
CONTINUOUS
 10
151.9394492173
 20
65.6377071508
 11
151.6357519678
 21
65.5581264531
  0
LINE
  5
30F
100
AcDbEntity
  8
SUPERFICI
100
AcDbLine
 62
7
  6
CONTINUOUS
 10
150.706664842
 20
63.5955850437
 11
151.337505842
 21
63.7586330437
  0
LWPOLYLINE
  5
310
100
AcDbEntity
  8
0
100
AcDbPolyline
 62
7
  6
CONTINUOUS
 90
7
 70
0
 10
119.1747622508
 20
54.9033146926
 10
119.1772391552
 20
54.9037676246
 10
119.1818716812
 20
54.9042099679
 10
119.1886598287
 20
54.9046417224
 10
119.1977211236
 20
54.9050669626
 10
119.2089380399
 20
54.905481614
 10
119.2219580008
 20
54.9058734535
  0
LINE
  5
311
100
AcDbEntity
  8
SUPERFICI
100
AcDbLine
 62
7
  6
CONTINUOUS
 10
151.939448842
 20
62.8417220437
 11
150.239585842
 21
62.6827660437
  0
LINE
  5
312
100
AcDbEntity
  8
SUPERFICI
100
AcDbLine
 62
7
  6
CONTINUOUS
 10
150.834097842
 20
62.4217050437
 11
151.939448842
 21
62.4946060437
  0
LWPOLYLINE
  5
313
100
AcDbEntity
  8
SUPERFICI
100
AcDbPolyline
 62
7
  6
CONTINUOUS
 90
22
 70
0
 10
120.541995842
 20
63.7249021983
 10
120.4665196431
 20
63.7240489432
 10
120.3947975542
 20
63.7189741296
 10
120.3268295753
 20
63.7096777621
 10
120.2626113438
 20
63.6957458094
 10
120.2021472223
 20
63.6775923245
 10
120.1454502983
 20
63.6564594389
 10
120.0924049302
 20
63.632617213
 10
120.0431267597
 20
63.6057956145
 10
119.9979757997
 20
63.5764266312
 10
119.9573033666
 20
63.5443898472
 10
119.9207581439
 20
63.509805713
 10
119.8876461964
 20
63.4734675102
 10
119.8577265254
 20
63.4357397036
 10
119.8312401295
 20
63.3962578551
 10
119.8082160691
 20
63.3547218895
 10
119.7886952544
 20
63.3111172391
 10
119.7726367753
 20
63.2654585107
 10
119.7599469615
 20
63.2174893971
 10
119.7505945897
 20
63.1671244808
 10
119.7446108832
 20
63.1144492315
 10
119.741995842
 20
63.059463677
  0
LWPOLYLINE
  5
314
100
AcDbEntity
  8
SUPERFICI
100
AcDbPolyline
 62
7
  6
CONTINUOUS
 90
28
 70
0
 10
120.541995842
 20
63.5024919861
 10
120.5714865694
 20
63.5027505575
 10
120.600936828
 20
63.5020650873
 10
120.6303466178
 20
63.5004355756
 10
120.6597478488
 20
63.4978402147
 10
120.689108611
 20
63.4943008132
 10
120.7183331748
 20
63.4898827962
 10
120.7474585051
 20
63.4846707968
 10
120.776447637
 20
63.4785801837
 10
120.8050939465
 20
63.4714224853
 10
120.8333921179
 20
63.4633225583
 10
120.8613474668
 20
63.4541555494
 10
120.8887693162
 20
63.4433584244
 10
120.9157013881
 20
63.4308313526
 10
120.9420999606
 20
63.4166741731
 10
120.9676431907
 20
63.4006233586
 10
120.9924056782
 20
63.3826298863
 10
121.0163128234
 20
63.3627427932
 10
121.0388189852
 20
63.3408456434
 10
121.0598928256
 20
63.316997757
 10
121.0795656826
 20
63.291139834
 10
121.097385928
 20
63.2629775118
 10
121.1134775545
 20
63.2323335694
 10
121.1277165694
 20
63.1993852587
 10
121.1392793663
 20
63.1643699285
 10
121.1478914096
 20
63.1273667056
 10
121.1538272348
 20
63.0882964965
 10
121.157086842
 20
63.0471593193
  0
LINE
  5
315
100
AcDbEntity
  8
SUPERFICI
100
AcDbLine
 62
7
  6
CONTINUOUS
 10
119.741995842
 20
59.0436590437
 11
121.341995842
 21
59.0436590437
  0
LINE
  5
316
100
AcDbEntity
  8
SUPERFICI
100
AcDbLine
 62
7
  6
CONTINUOUS
 10
121.341995842
 20
59.2531210437
 11
120.000402842
 21
59.2531210437
  0
LINE
  5
317
100
AcDbEntity
  8
SUPERFICI
100
AcDbLine
 62
7
  6
CONTINUOUS
 10
119.998202842
 20
60.3673260437
 11
121.341995842
 21
60.3673260437
  0
LINE
  5
318
100
AcDbEntity
  8
SUPERFICI
100
AcDbLine
 62
7
  6
CONTINUOUS
 10
150.239483842
 20
60.5719240437
 11
151.939448842
 21
60.5719240437
  0
LINE
  5
319
100
AcDbEntity
  8
SUPERFICI
100
AcDbLine
 62
7
  6
CONTINUOUS
 10
121.341995842
 20
60.5768730437
 11
119.741995842
 21
60.5768730437
  0
LINE
  5
31A
100
AcDbEntity
  8
SUPERFICI
100
AcDbLine
 62
7
  6
CONTINUOUS
 10
151.939448842
 20
60.9267520437
 11
150.239483842
 21
60.9267520437
  0
LINE
  5
31B
100
AcDbEntity
  8
SUPERFICI
100
AcDbLine
 62
7
  6
CONTINUOUS
 10
119.741995842
 20
62.4041590437
 11
121.341995842
 21
62.4041590437
  0
LINE
  5
31C
100
AcDbEntity
  8
SUPERFICI
100
AcDbLine
 62
7
  6
CONTINUOUS
 10
121.157086842
 20
62.6203830437
 11
119.926904842
 21
62.6203830437
  0
LINE
  5
31D
100
AcDbEntity
  8
SUPERFICI
100
AcDbLine
 62
7
  6
CONTINUOUS
 10
151.939448842
 20
61.4572220437
 11
150.829470842
 21
61.5337940437
  0
LINE
  5
31E
100
AcDbEntity
  8
SUPERFICI
100
AcDbLine
 62
7
  6
CONTINUOUS
 10
150.239585842
 20
61.2712550437
 11
151.939448842
 21
61.1177670437
  0
LWPOLYLINE
  5
31F
100
AcDbEntity
  8
0
100
AcDbPolyline
 62
7
  6
CONTINUOUS
 90
8
 70
0
 10
152.6701579157
 20
54.8486215049
 10
152.6724960801
 20
54.8481821786
 10
152.676915094
 20
54.8477516096
 10
152.6834149573
 20
54.8473297976
 10
152.6921082403
 20
54.8469124234
 10
152.7028823728
 20
54.8465038064
 10
152.7153996443
 20
54.8461169048
 10
152.7456303702
 20
54.8454136887
  0
LWPOLYLINE
  5
320
100
AcDbEntity
  8
0
100
AcDbPolyline
 62
7
  6
CONTINUOUS
 90
10
 70
0
 10
153.7324611204
 20
54.9531937653
 10
153.7313911728
 20
54.9534958566
 10
153.7289115336
 20
54.9537912973
 10
153.7250222027
 20
54.9540800873
 10
153.7197056888
 20
54.9543637905
 10
153.7129794832
 20
54.9546408431
 10
153.7048960603
 20
54.9549065538
 10
153.6953770817
 20
54.9551619732
 10
153.6845008858
 20
54.9554060507
 10
153.65948575
 20
54.9558356155
  0
LINE
  5
321
100
AcDbEntity
  8
0
100
AcDbLine
 62
7
  6
CONTINUOUS
 10
152.5092294332
 20
54.9033146926
 11
152.6701579157
 21
54.8486215049
  0
LINE
  5
322
100
AcDbEntity
  8
SUPERFICI
100
AcDbLine
 62
7
  6
CONTINUOUS
 10
121.341995842
 20
60.9913460437
 11
120.876293842
 21
61.1585010437
  0
LINE
  5
323
100
AcDbEntity
  8
SUPERFICI
100
AcDbLine
 62
7
  6
CONTINUOUS
 10
120.684656842
 20
61.2253740437
 11
119.974073842
 21
61.4839500437
  0
LINE
  5
324
100
AcDbEntity
  8
SUPERFICI
100
AcDbLine
 62
7
  6
CONTINUOUS
 10
119.741995842
 20
61.3701700437
 11
121.341995842
 21
60.7685230437
  0
LINE
  5
325
100
AcDbEntity
  8
0
100
AcDbLine
 62
7
  6
CONTINUOUS
 10
137.6559278737
 20
54.0367256181
 11
137.6061234586
 21
54.0616202385
  0
LINE
  5
326
100
AcDbEntity
  8
0
100
AcDbLine
 62
7
  6
CONTINUOUS
 10
123.1977647724
 20
54.9199289184
 11
123.1610609852
 21
54.9566327056
  0
LINE
  5
327
100
AcDbEntity
  8
0
100
AcDbLine
 62
7
  6
CONTINUOUS
 10
136.679790842
 20
43.0728750437
 11
137.881059842
 21
41.8716040437
  0
LINE
  5
328
100
AcDbEntity
  8
0
100
AcDbLine
 62
7
  6
CONTINUOUS
 10
141.0700782792
 20
39.1155766064
 11
141.141995842
 21
39.0436590437
  0
LINE
  5
329
100
AcDbEntity
  8
0
100
AcDbLine
 62
7
  6
CONTINUOUS
 10
138.314182842
 20
41.8716040437
 11
137.112950842
 21
43.0728740437
  0
LINE
  5
32A
100
AcDbEntity
  8
0
100
AcDbLine
 62
253
  6
CONTINUOUS
 10
127.9140869408
 20
39.1423476598
 11
127.9667174257
 21
39.0704605592
  0
LINE
  5
32B
100
AcDbEntity
  8
0
100
AcDbLine
 62
253
  6
CONTINUOUS
 10
128.0140831331
 20
39.1155766064
 11
128.0667359201
 21
39.0436590437
  0
LWPOLYLINE
  5
32C
100
AcDbEntity
  8
0
100
AcDbPolyline
 62
253
  6
CONTINUOUS
 90
16
 70
0
 10
120.6926221524
 20
170.7882505654
 10
120.6937458665
 20
170.7906550097
 10
120.6935336552
 20
170.7953158653
 10
120.6919883219
 20
170.8021715565
 10
120.6891302826
 20
170.8111315104
 10
120.6849972958
 20
170.8220773547
 10
120.6796439634
 20
170.8348644802
 10
120.67314101
 20
170.8493239526
 10
120.6655743481
 20
170.8652647434
 10
120.6570439432
 20
170.882476254
 10
120.6476624929
 20
170.9007310979
 10
120.6375539384
 20
170.919788105
 10
120.6268518268
 20
170.9393955073
 10
120.6156975471
 20
170.9592942657
 10
120.6042384617
 20
170.9792214916
 10
120.5926259601
 20
170.9989139204
  0
LINE
  5
32D
100
AcDbEntity
  8
0
100
AcDbLine
 62
7
  6
CONTINUOUS
 10
120.126954842
 20
151.8745810437
 11
119.365003842
 21
150.9704100437
  0
LINE
  5
32E
100
AcDbEntity
  8
0
100
AcDbLine
 62
7
  6
CONTINUOUS
 10
119.796952842
 20
151.0103030437
 11
120.525285842
 21
151.8745810437
  0
LWPOLYLINE
  5
32F
100
AcDbEntity
  8
0
100
AcDbPolyline
 62
7
  6
CONTINUOUS
 90
3
 70
0
 10
136.5280947243
 20
162.8004966808
 10
136.555665465
 20
162.8306614162
 10
136.5701423423
 20
162.8463325884
  0
LINE
  5
330
100
AcDbEntity
  8
0
100
AcDbLine
 62
7
  6
CONTINUOUS
 10
136.5432433725
 20
162.3673586057
 11
136.5717459292
 21
162.3982423208
  0
LWPOLYLINE
  5
331
100
AcDbEntity
  8
0
100
AcDbPolyline
 62
7
  6
CONTINUOUS
 90
3
 70
0
 10
136.5701423423
 20
162.8463325884
 10
136.6003294621
 20
162.8784616441
 10
136.6158528896
 20
162.8948449866
  0
LWPOLYLINE
  5
332
100
AcDbEntity
  8
0
100
AcDbPolyline
 62
7
  6
CONTINUOUS
 90
3
 70
0
 10
136.5717459292
 20
162.3982423208
 10
136.6019373292
 20
162.4302979787
 10
136.6174628662
 20
162.4466517922
  0
LWPOLYLINE
  5
333
100
AcDbEntity
  8
0
100
AcDbPolyline
 62
7
  6
CONTINUOUS
 90
3
 70
0
 10
136.6158528896
 20
162.8948449866
 10
136.6475997639
 20
162.9279084139
 10
136.6636540585
 20
162.9445065519
  0
LINE
  5
334
100
AcDbEntity
  8
0
100
AcDbLine
 62
7
  6
CONTINUOUS
 10
136.6174628662
 20
162.4466517922
 11
136.665270231
 21
162.4962525244
  0
LWPOLYLINE
  5
335
100
AcDbEntity
  8
0
100
AcDbPolyline
 62
7
  6
CONTINUOUS
 90
4
 70
0
 10
136.6636540585
 20
162.9445065519
 10
136.7119835209
 20
162.9938441728
 10
136.7279627131
 20
163.0099690963
 10
136.7438952064
 20
163.0258536931
  0
LWPOLYLINE
  5
336
100
AcDbEntity
  8
0
100
AcDbPolyline
 62
7
  6
CONTINUOUS
 90
4
 70
0
 10
136.665270231
 20
162.4962525244
 10
136.7136056342
 20
162.5455687901
 10
136.7295867298
 20
162.5616948203
 10
136.7455210894
 20
162.5775844056
  0
LINE
  5
337
100
AcDbEntity
  8
0
100
AcDbLine
 62
7
  6
CONTINUOUS
 10
141.0683907168
 20
170.0520927236
 11
141.0534924102
 21
170.037194417
  0
LINE
  5
338
100
AcDbEntity
  8
0
100
AcDbLine
 62
7
  6
CONTINUOUS
 10
136.4457038413
 20
162.247367043
 11
136.241995842
 21
162.0436590437
  0
LINE
  5
339
100
AcDbEntity
  8
0
100
AcDbLine
 62
253
  6
CONTINUOUS
 10
137.1453141024
 20
162.0467945522
 11
137.3458824003
 21
162.247367043
  0
LINE
  5
33A
100
AcDbEntity
  8
0
100
AcDbLine
 62
253
  6
CONTINUOUS
 10
137.4555948216
 20
161.7574407751
 11
137.6477645584
 21
161.9496141178
  0
LINE
  5
33B
100
AcDbEntity
  8
0
100
AcDbLine
 62
7
  6
CONTINUOUS
 10
134.991995842
 20
159.0256978488
 11
135.0219496886
 21
159.0556516954
  0
LINE
  5
33C
100
AcDbEntity
  8
0
100
AcDbLine
 62
7
  6
CONTINUOUS
 10
134.2283968624
 20
161.2508219419
 11
134.631657036
 21
161.6436590437
  0
LINE
  5
33D
100
AcDbEntity
  8
RACCORDO
100
AcDbLine
 62
253
  6
CONTINUOUS
 10
155.0666035364
 20
174.7954968536
 11
155.0124687773
 21
174.7459297127
  0
LINE
  5
33E
100
AcDbEntity
  8
RACCORDO
100
AcDbLine
 62
253
  6
CONTINUOUS
 10
154.4016742557
 20
174.1950886051
 11
154.3419958429
 21
174.1407344193
  0
LINE
  5
33F
100
AcDbEntity
  8
RACCORDO
100
AcDbLine
 62
253
  6
CONTINUOUS
 10
155.3419958412
 20
175.0443442751
 11
155.0666035364
 21
174.7954968536
  0
LINE
  5
340
100
AcDbEntity
  8
RACCORDO
100
AcDbLine
 62
253
  6
CONTINUOUS
 10
155.0124687773
 20
174.7459297127
 11
154.4016742557
 21
174.1950886051
  0
LINE
  5
341
100
AcDbEntity
  8
0
100
AcDbLine
 62
7
  6
CONTINUOUS
 10
151.2292298622
 20
152.8436590437
 11
151.0590171166
 21
152.7769922498
  0
LINE
  5
342
100
AcDbEntity
  8
0
100
AcDbLine
 62
7
  6
CONTINUOUS
 10
150.6164638825
 20
152.7769922498
 11
150.5143362351
 21
152.7436590437
  0
LINE
  5
343
100
AcDbEntity
  8
0
100
AcDbLine
 62
7
  6
CONTINUOUS
 10
151.161144764
 20
152.6436590437
 11
151.263272459
 21
152.6769922498
  0
LINE
  5
344
100
AcDbEntity
  8
0
100
AcDbLine
 62
7
  6
CONTINUOUS
 10
151.4675277538
 20
151.8769922498
 11
151.3654001064
 21
151.8436590437
  0
LINE
  5
345
100
AcDbEntity
  8
0
100
AcDbLine
 62
7
  6
CONTINUOUS
 10
150.6164638825
 20
151.3103258375
 11
150.5143362351
 21
151.2769922498
  0
LINE
  5
346
100
AcDbEntity
  8
0
100
AcDbLine
 62
7
  6
CONTINUOUS
 10
151.161144764
 20
151.1769924406
 11
151.263272459
 21
151.2103256467
  0
LINE
  5
347
100
AcDbEntity
  8
SUPERFICI
100
AcDbLine
 62
7
  6
CONTINUOUS
 10
119.741995842
 20
64.0242810437
 11
121.341995842
 21
64.0242810437
  0
LINE
  5
348
100
AcDbEntity
  8
SUPERFICI
100
AcDbLine
 62
7
  6
CONTINUOUS
 10
121.150357842
 20
64.2404910437
 11
120.615557842
 21
64.2404910437
  0
LINE
  5
349
100
AcDbEntity
  8
SUPERFICI
100
AcDbLine
 62
7
  6
CONTINUOUS
 10
120.423920842
 20
64.2404910437
 11
119.933633842
 21
64.2404910437
  0
LINE
  5
34A
100
AcDbEntity
  8
SUPERFICI
100
AcDbLine
 62
7
  6
CONTINUOUS
 10
150.2594464484
 20
64.3996332563
 11
151.9394492173
 21
64.3996332563
  0
LINE
  5
34B
100
AcDbEntity
  8
SUPERFICI
100
AcDbLine
 62
7
  6
CONTINUOUS
 10
150.995820362
 20
64.741268024
 11
150.5291748796
 21
64.741268024
  0
LINE
  5
34C
100
AcDbEntity
  8
SUPERFICI
100
AcDbLine
 62
7
  6
CONTINUOUS
 10
151.9394492173
 20
64.7530335883
 11
151.2742168147
 21
64.7530335883
  0
LINE
  5
34D
100
AcDbEntity
  8
SUPERFICI
100
AcDbLine
 62
7
  6
CONTINUOUS
 10
120.615557842
 20
65.1162660437
 11
120.423920842
 21
65.1162660437
  0
LINE
  5
34E
100
AcDbEntity
  8
SUPERFICI
100
AcDbLine
 62
7
  6
CONTINUOUS
 10
119.933633842
 20
65.1898030437
 11
119.741995842
 21
65.1898030437
  0
LINE
  5
34F
100
AcDbEntity
  8
SUPERFICI
100
AcDbLine
 62
7
  6
CONTINUOUS
 10
121.341995842
 20
65.2054210437
 11
121.150357842
 21
65.2054210437
  0
LINE
  5
350
100
AcDbEntity
  8
SUPERFICI
100
AcDbLine
 62
7
  6
CONTINUOUS
 10
151.1459683389
 20
65.3118787751
 11
151.1359236318
 21
65.3118787751
  0
LINE
  5
351
100
AcDbEntity
  8
SUPERFICI
100
AcDbLine
 62
7
  6
CONTINUOUS
 10
119.741995842
 20
66.1414050437
 11
121.341995842
 21
66.1414050437
  0
LINE
  5
352
100
AcDbEntity
  8
SUPERFICI
100
AcDbLine
 62
7
  6
CONTINUOUS
 10
121.341995842
 20
66.3575500437
 11
119.741995842
 21
66.3575500437
  0
LINE
  5
353
100
AcDbEntity
  8
SUPERFICI
100
AcDbLine
 62
7
  6
CONTINUOUS
 10
119.741995842
 20
66.7274200437
 11
121.341995842
 21
66.7274200437
  0
LINE
  5
354
100
AcDbEntity
  8
SUPERFICI
100
AcDbLine
 62
7
  6
CONTINUOUS
 10
121.341995842
 20
66.9369790437
 11
120.042604842
 21
66.9369790437
  0
LINE
  5
355
100
AcDbEntity
  8
SUPERFICI
100
AcDbLine
 62
7
  6
CONTINUOUS
 10
119.741995842
 20
67.7882730437
 11
121.041650842
 21
67.7882730437
  0
LINE
  5
356
100
AcDbEntity
  8
SUPERFICI
100
AcDbLine
 62
7
  6
CONTINUOUS
 10
121.341995842
 20
67.9977280437
 11
119.741995842
 21
67.9977280437
  0
LINE
  5
357
100
AcDbEntity
  8
SUPERFICI
100
AcDbLine
 62
7
  6
CONTINUOUS
 10
119.741995842
 20
68.9893530437
 11
121.341995842
 21
68.9893530437
  0
LINE
  5
358
100
AcDbEntity
  8
SUPERFICI
100
AcDbLine
 62
7
  6
CONTINUOUS
 10
121.341995842
 20
69.2055630437
 11
119.741995842
 21
69.2055630437
  0
LWPOLYLINE
  5
359
100
AcDbEntity
  8
SUPERFICI
100
AcDbPolyline
 62
7
  6
CONTINUOUS
 90
31
 70
0
 10
150.7316624093
 20
65.2196790708
 10
150.7533069158
 20
65.2189005316
 10
150.7738614852
 20
65.2170988943
 10
150.7933261176
 20
65.2142741591
 10
150.8116974348
 20
65.2103017666
 10
150.828978815
 20
65.2053062777
 10
150.8451803925
 20
65.1996613729
 10
150.860240583
 20
65.1934602947
 10
150.8742209709
 20
65.186609802
 10
150.8873164433
 20
65.1792038493
 10
150.8995927399
 20
65.1712512158
 10
150.910984121
 20
65.1627431241
 10
150.9214882543
 20
65.1537471936
 10
150.9310828823
 20
65.1442357771
 10
150.9397902624
 20
65.1342365237
 10
150.9476748349
 20
65.1238999968
 10
150.9546883024
 20
65.1132515461
 10
150.9608789623
 20
65.1022658234
 10
150.9664561471
 20
65.0910173446
 10
150.9714499079
 20
65.0795000872
 10
150.9758301936
 20
65.0677200748
 10
150.9797161826
 20
65.0557698933
 10
150.983118775
 20
65.0436462397
 10
150.9860270706
 20
65.0313524177
 10
150.9885275483
 20
65.0189909225
 10
150.9906238057
 20
65.0065795148
 10
150.9923122452
 20
64.9941004343
 10
150.993668552
 20
64.9816028948
 10
150.9947179546
 20
64.969103301
 10
150.9954352246
 20
64.9565852483
 10
150.995820362
 20
64.9440487368
  0
LINE
  5
35A
100
AcDbEntity
  8
SUPERFICI
100
AcDbLine
 62
7
  6
CONTINUOUS
 10
151.337505842
 20
63.4189100437
 11
150.706664842
 21
63.5955850437
  0
LINE
  5
35B
100
AcDbEntity
  8
SUPERFICI
100
AcDbLine
 62
7
  6
CONTINUOUS
 10
150.239585842
 20
60.0856610437
 11
151.409654842
 21
59.7517380437
  0
LINE
  5
35C
100
AcDbEntity
  8
SUPERFICI
100
AcDbLine
 62
7
  6
CONTINUOUS
 10
151.939448842
 20
59.8938430437
 11
150.239585842
 21
60.4402470437
  0
LINE
  5
35D
100
AcDbEntity
  8
SUPERFICI
100
AcDbLine
 62
7
  6
CONTINUOUS
 10
121.341995842
 20
71.0217220437
 11
120.876293842
 21
71.1888900437
  0
LINE
  5
35E
100
AcDbEntity
  8
SUPERFICI
100
AcDbLine
 62
7
  6
CONTINUOUS
 10
120.684656842
 20
71.2557500437
 11
119.974073842
 21
71.5143130437
  0
LINE
  5
35F
100
AcDbEntity
  8
SUPERFICI
100
AcDbLine
 62
7
  6
CONTINUOUS
 10
119.741995842
 20
71.4006370437
 11
121.341995842
 21
70.7989120437
  0
LWPOLYLINE
  5
360
100
AcDbEntity
  8
RACCORDO
100
AcDbPolyline
 62
253
  6
CONTINUOUS
 90
5
 70
0
 10
155.2916904582
 20
38.0883408814
 10
155.3083377933
 20
38.0733913371
 10
155.3224092361
 20
38.0608665251
 10
155.3336820727
 20
38.0507273528
 10
155.341995836
 20
38.0429738203
  0
LINE
  5
361
100
AcDbEntity
  8
RACCORDO
100
AcDbLine
 62
253
  6
CONTINUOUS
 10
154.5971804063
 20
38.7161158957
 11
155.2916904582
 21
38.0883408814
  0
LWPOLYLINE
  5
362
100
AcDbEntity
  8
RACCORDO
100
AcDbPolyline
 62
253
  6
CONTINUOUS
 90
3
 70
0
 10
154.3419958552
 20
38.9465836574
 10
154.4044600172
 20
38.8896516699
 10
154.5971804063
 20
38.7161158957
  0
LINE
  5
363
100
AcDbEntity
  8
0
100
AcDbLine
 62
7
  6
CONTINUOUS
 10
134.2283968624
 20
51.8364961454
 11
134.631657036
 21
51.4436590437
  0
LINE
  5
364
100
AcDbEntity
  8
0
100
AcDbLine
 62
7
  6
CONTINUOUS
 10
136.7303022877
 20
50.7297760531
 11
136.7462374989
 21
50.7138843069
  0
LINE
  5
365
100
AcDbEntity
  8
0
100
AcDbLine
 62
7
  6
CONTINUOUS
 10
141.0683907168
 20
43.0352253637
 11
141.0534924102
 21
43.0501236703
  0
LINE
  5
366
100
AcDbEntity
  8
0
100
AcDbLine
 62
7
  6
CONTINUOUS
 10
134.991995842
 20
54.0616202385
 11
135.0219496886
 21
54.0316663919
  0
LWPOLYLINE
  5
367
100
AcDbEntity
  8
0
100
AcDbPolyline
 62
7
  6
CONTINUOUS
 90
3
 70
0
 10
136.7119835209
 20
50.0934739145
 10
136.7279627131
 20
50.077348991
 10
136.7438952064
 20
50.0614643942
  0
LINE
  5
368
100
AcDbEntity
  8
0
100
AcDbLine
 62
7
  6
CONTINUOUS
 10
136.6982916069
 20
50.7622175599
 11
136.7303022877
 21
50.7297760531
  0
LINE
  5
369
100
AcDbEntity
  8
0
100
AcDbLine
 62
7
  6
CONTINUOUS
 10
136.6659822094
 20
50.7952086801
 11
136.6982916069
 21
50.7622175599
  0
LINE
  5
36A
100
AcDbEntity
  8
0
100
AcDbLine
 62
7
  6
CONTINUOUS
 10
136.6636540585
 20
50.1428115354
 11
136.7119835209
 21
50.0934739145
  0
LINE
  5
36B
100
AcDbEntity
  8
0
100
AcDbLine
 62
7
  6
CONTINUOUS
 10
136.618172017
 20
50.8447813782
 11
136.6659822094
 21
50.7952086801
  0
LWPOLYLINE
  5
36C
100
AcDbEntity
  8
0
100
AcDbPolyline
 62
7
  6
CONTINUOUS
 90
3
 70
0
 10
136.6158528896
 20
50.1924731007
 10
136.6316659065
 20
50.1759808052
 10
136.6636540585
 20
50.1428115354
  0
LWPOLYLINE
  5
36D
100
AcDbEntity
  8
0
100
AcDbPolyline
 62
7
  6
CONTINUOUS
 90
3
 70
0
 10
136.5701423423
 20
50.2409854989
 10
136.5850911075
 20
50.2250479278
 10
136.6158528896
 20
50.1924731007
  0
LWPOLYLINE
  5
36E
100
AcDbEntity
  8
0
100
AcDbPolyline
 62
7
  6
CONTINUOUS
 90
4
 70
0
 10
136.5579721279
 20
50.9087504861
 10
136.5724521649
 20
50.8931436615
 10
136.5874040616
 20
50.877263117
 10
136.618172017
 20
50.8447813782
  0
LWPOLYLINE
  5
36F
100
AcDbEntity
  8
0
100
AcDbPolyline
 62
253
  6
CONTINUOUS
 90
16
 70
0
 10
120.6926208624
 20
42.2990652879
 10
120.6937446067
 20
42.2966607377
 10
120.6935324425
 20
42.2919998144
 10
120.6919871732
 20
42.2851440927
 10
120.6891292139
 20
42.2761841427
 10
120.6849963213
 20
42.2652383335
 10
120.6796430952
 20
42.2524512689
 10
120.6731402573
 20
42.2379918777
 10
120.6655737163
 20
42.2220511814
 10
120.657043434
 20
42.2048397712
 10
120.6476621035
 20
42.1865850255
 10
120.6375536613
 20
42.167528106
 10
120.6268516498
 20
42.147920772
 10
120.6156974528
 20
42.1280220544
 10
120.6042384279
 20
42.1080948334
 10
120.5926259597
 20
42.0884023657
  0
LWPOLYLINE
  5
370
100
AcDbEntity
  8
0
100
AcDbPolyline
 62
7
  6
CONTINUOUS
 90
3
 70
0
 10
136.4916012443
 20
162.7591695042
 10
136.5152484594
 20
162.7860981877
 10
136.5280947243
 20
162.8004966808
  0
LWPOLYLINE
  5
371
100
AcDbEntity
  8
0
100
AcDbPolyline
 62
7
  6
CONTINUOUS
 90
4
 70
0
 10
136.493191564
 20
162.3114226938
 10
136.5168432503
 20
162.3382153899
 10
136.5296917315
 20
162.3525540963
 10
136.5432433725
 20
162.3673586057
  0
LWPOLYLINE
  5
372
100
AcDbEntity
  8
RACCORDO
100
AcDbPolyline
 62
253
  6
CONTINUOUS
 90
3
 70
0
 10
154.544266507
 20
175.2141319705
 10
154.3848934815
 20
175.036928771
 10
154.3280135323
 20
174.9742733328
  0
LINE
  5
373
100
AcDbEntity
  8
RACCORDO
100
AcDbLine
 62
253
  6
CONTINUOUS
 10
154.8426810728
 20
175.5436590425
 11
154.5938336519
 21
175.268266738
  0
LINE
  5
374
100
AcDbEntity
  8
RACCORDO
100
AcDbLine
 62
253
  6
CONTINUOUS
 10
154.3280135323
 20
174.9742733328
 11
153.9934253874
 21
174.6033374742
  0
LINE
  5
375
100
AcDbEntity
  8
RACCORDO
100
AcDbLine
 62
253
  6
CONTINUOUS
 10
153.9934253874
 20
174.6033374742
 11
153.93907123
 21
174.5436590588
  0
LINE
  5
376
100
AcDbEntity
  8
RACCORDO
100
AcDbLine
 62
253
  6
CONTINUOUS
 10
154.5938336519
 20
175.268266738
 11
154.544266507
 21
175.2141319705
  0
LINE
  5
377
100
AcDbEntity
  8
0
100
AcDbLine
 62
253
  6
CONTINUOUS
 10
153.5701087402
 20
173.9717414809
 11
153.642026303
 21
174.0436590437
  0
LINE
  5
378
100
AcDbEntity
  8
0
100
AcDbLine
 62
253
  6
CONTINUOUS
 10
153.7700782792
 20
173.7717719418
 11
153.841995842
 21
173.8436895046
  0
LINE
  5
379
100
AcDbEntity
  8
0
100
AcDbLine
 62
7
  6
CONTINUOUS
 10
151.3994426556
 20
151.6769922498
 11
151.5696554251
 21
151.7436590437
  0
LINE
  5
37A
100
AcDbEntity
  8
0
100
AcDbLine
 62
7
  6
CONTINUOUS
 10
151.2292298622
 20
151.3769922498
 11
151.0590171166
 21
151.3103258375
  0
LINE
  5
37B
100
AcDbEntity
  8
0
100
AcDbLine
 62
7
  6
CONTINUOUS
 10
151.3994426556
 20
150.2103256467
 11
151.5696554251
 21
150.2769924406
  0
LINE
  5
37C
100
AcDbEntity
  8
0
100
AcDbLine
 62
7
  6
CONTINUOUS
 10
150.6845490761
 20
149.8769924406
 11
150.5143362351
 21
149.8103256467
  0
LINE
  5
37D
100
AcDbEntity
  8
0
100
AcDbLine
 62
7
  6
CONTINUOUS
 10
150.8207192726
 20
148.7103256944
 11
150.9909320183
 21
148.7769923929
  0
LINE
  5
37E
100
AcDbEntity
  8
0
100
AcDbLine
 62
7
  6
CONTINUOUS
 10
151.4675277538
 20
150.4103256467
 11
151.3654001064
 21
150.3769924406
  0
LINE
  5
37F
100
AcDbEntity
  8
0
100
AcDbLine
 62
7
  6
CONTINUOUS
 10
150.6164638825
 20
149.6769924406
 11
150.7185916252
 21
149.7103256467
  0
LINE
  5
380
100
AcDbEntity
  8
0
100
AcDbLine
 62
7
  6
CONTINUOUS
 10
150.8888043709
 20
148.9103257421
 11
150.7866767235
 21
148.8769923452
  0
LINE
  5
381
100
AcDbEntity
  8
0
100
AcDbLine
 62
7
  6
CONTINUOUS
 10
151.4675277538
 20
148.7769923929
 11
151.5696554251
 21
148.8103256944
  0
LINE
  5
382
100
AcDbEntity
  8
SUPERFICI
100
AcDbLine
 62
7
  6
CONTINUOUS
 10
119.741995842
 20
69.4373270437
 11
119.933633842
 21
69.4373270437
  0
LINE
  5
383
100
AcDbEntity
  8
SUPERFICI
100
AcDbLine
 62
7
  6
CONTINUOUS
 10
119.933633842
 20
69.9788560437
 11
121.341995842
 21
69.9788560437
  0
LINE
  5
384
100
AcDbEntity
  8
SUPERFICI
100
AcDbLine
 62
7
  6
CONTINUOUS
 10
121.341995842
 20
70.1949880437
 11
119.933633842
 21
70.1949880437
  0
LINE
  5
385
100
AcDbEntity
  8
SUPERFICI
100
AcDbLine
 62
7
  6
CONTINUOUS
 10
119.933633842
 20
70.7365170437
 11
119.741995842
 21
70.7365170437
  0
LINE
  5
386
100
AcDbEntity
  8
SUPERFICI
100
AcDbLine
 62
7
  6
CONTINUOUS
 10
119.741995842
 20
72.4234460437
 11
121.341995842
 21
72.4234460437
  0
LINE
  5
387
100
AcDbEntity
  8
SUPERFICI
100
AcDbLine
 62
7
  6
CONTINUOUS
 10
121.150357842
 20
72.6396690437
 11
119.741995842
 21
72.6396690437
  0
LINE
  5
388
100
AcDbEntity
  8
SUPERFICI
100
AcDbLine
 62
7
  6
CONTINUOUS
 10
121.341995842
 20
73.4508620437
 11
121.150357842
 21
73.4508620437
  0
LINE
  5
389
100
AcDbEntity
  8
SUPERFICI
100
AcDbLine
 62
7
  6
CONTINUOUS
 10
120.697984842
 20
74.1282580437
 11
121.341995842
 21
74.1282580437
  0
LINE
  5
38A
100
AcDbEntity
  8
SUPERFICI
100
AcDbLine
 62
7
  6
CONTINUOUS
 10
121.341995842
 20
74.3443520437
 11
120.697984842
 21
74.3443520437
  0
LINE
  5
38B
100
AcDbEntity
  8
SUPERFICI
100
AcDbLine
 62
7
  6
CONTINUOUS
 10
151.939448842
 20
63.2484180437
 11
151.600095842
 21
63.3463280437
  0
LINE
  5
38C
100
AcDbEntity
  8
SUPERFICI
100
AcDbLine
 62
7
  6
CONTINUOUS
 10
150.239585842
 20
63.4306250437
 11
151.939448842
 21
62.8974400437
  0
LINE
  5
38D
100
AcDbEntity
  8
SUPERFICI
100
AcDbLine
 62
7
  6
CONTINUOUS
 10
150.239585842
 20
62.3316980437
 11
151.183354842
 21
61.9768700437
  0
LINE
  5
38E
100
AcDbEntity
  8
SUPERFICI
100
AcDbLine
 62
7
  6
CONTINUOUS
 10
151.939448842
 20
61.9998150437
 11
150.834097842
 21
62.4217050437
  0
LINE
  5
38F
100
AcDbEntity
  8
SUPERFICI
100
AcDbLine
 62
7
  6
CONTINUOUS
 10
119.741995842
 20
74.6942430437
 11
120.510875842
 21
74.2352700437
  0
LINE
  5
390
100
AcDbEntity
  8
SUPERFICI
100
AcDbLine
 62
7
  6
CONTINUOUS
 10
120.697984842
 20
74.3443520437
 11
119.741995842
 21
74.9483790437
  0
LINE
  5
391
100
AcDbEntity
  8
0
100
AcDbLine
 62
253
  6
CONTINUOUS
 10
153.5701087402
 20
39.1155766064
 11
153.642026303
 21
39.0436590437
  0
LINE
  5
392
100
AcDbEntity
  8
0
100
AcDbLine
 62
253
  6
CONTINUOUS
 10
153.7700782792
 20
39.3155461455
 11
153.841995842
 21
39.2436285827
  0
LWPOLYLINE
  5
393
100
AcDbEntity
  8
0
100
AcDbPolyline
 62
253
  6
CONTINUOUS
 90
16
 70
0
 10
137.6484452698
 20
51.3436590437
 10
137.6510814967
 20
51.3408020921
 10
137.6568313302
 20
51.3379750731
 10
137.6656345285
 20
51.3352076057
 10
137.6773988594
 20
51.332528685
 10
137.6920010667
 20
51.3299663782
 10
137.7092881613
 20
51.327547531
 10
137.7290790241
 20
51.3252974859
 10
137.7511663039
 20
51.3232398169
 10
137.7753185897
 20
51.3213960823
 10
137.801282835
 20
51.3197855993
 10
137.8287870093
 20
51.318425241
 10
137.8575429481
 20
51.31732926
 10
137.8872493718
 20
51.3165091391
 10
137.9175950429
 20
51.3159734707
 10
137.9482620259
 20
51.3157278671
  0
LINE
  5
394
100
AcDbEntity
  8
RACCORDO
100
AcDbLine
 62
253
  6
CONTINUOUS
 10
153.9390712416
 20
38.5436590149
 11
153.996003107
 21
38.4811948185
  0
LWPOLYLINE
  5
395
100
AcDbEntity
  8
0
100
AcDbPolyline
 62
7
  6
CONTINUOUS
 90
3
 70
0
 10
136.517545476
 20
50.9530757305
 10
136.5303949672
 20
50.9387643406
 10
136.5579721279
 20
50.9087504861
  0
LINE
  5
396
100
AcDbEntity
  8
RACCORDO
100
AcDbLine
 62
253
  6
CONTINUOUS
 10
153.996003107
 20
38.4811948185
 11
154.8122636338
 21
37.5773170898
  0
LWPOLYLINE
  5
397
100
AcDbEntity
  8
0
100
AcDbPolyline
 62
7
  6
CONTINUOUS
 90
4
 70
0
 10
136.5152484594
 20
50.3012198996
 10
136.5280947243
 20
50.2868214065
 10
136.5416441507
 20
50.2719625674
 10
136.5701423423
 20
50.2409854989
  0
LWPOLYLINE
  5
398
100
AcDbEntity
  8
0
100
AcDbPolyline
 62
253
  6
CONTINUOUS
 90
5
 70
0
 10
143.7251197109
 20
39.1882121729
 10
143.7042465558
 20
39.2182826222
 10
143.6926440379
 20
39.2351872133
 10
143.6810333594
 20
39.2532558971
 10
143.6699085515
 20
39.2723302613
  0
LWPOLYLINE
  5
399
100
AcDbEntity
  8
0
100
AcDbPolyline
 62
253
  6
CONTINUOUS
 90
19
 70
0
 10
125.5703465353
 20
173.5985734562
 10
125.5707447114
 20
173.6000709739
 10
125.5712630247
 20
173.6038098018
 10
125.5713420329
 20
173.6094814995
 10
125.5698277217
 20
173.6163685135
 10
125.5669113973
 20
173.6244027332
 10
125.5638034424
 20
173.6341035507
 10
125.5599928334
 20
173.6457733417
 10
125.5543883806
 20
173.6581523612
 10
125.5483677995
 20
173.6703589702
 10
125.5425470019
 20
173.6840806418
 10
125.5351080349
 20
173.6996561379
 10
125.5263394634
 20
173.7151840668
 10
125.5179653613
 20
173.7308977472
 10
125.5093235859
 20
173.7478168307
 10
125.499579892
 20
173.7647909926
 10
125.4890793819
 20
173.7813222663
 10
125.4790729834
 20
173.798001022
 10
125.4703503429
 20
173.8149878263
  0
LINE
  5
39A
100
AcDbEntity
  8
0
100
AcDbLine
 62
7
  6
CONTINUOUS
 10
129.8370333808
 20
172.9790340224
 11
129.7841680895
 21
172.8203091751
  0
LWPOLYLINE
  5
39B
100
AcDbEntity
  8
0
100
AcDbPolyline
 62
253
  6
CONTINUOUS
 90
4
 70
0
 10
143.704246547
 20
173.8690354528
 10
143.6926440314
 20
173.8521308642
 10
143.6810333558
 20
173.8340621846
 10
143.6699085509
 20
173.8149878263
  0
LINE
  5
39C
100
AcDbEntity
  8
0
100
AcDbLine
 62
7
  6
CONTINUOUS
 10
150.5143362351
 20
152.7436590437
 11
150.3781660385
 21
152.6436590437
  0
LINE
  5
39D
100
AcDbEntity
  8
0
100
AcDbLine
 62
7
  6
CONTINUOUS
 10
150.5143362351
 20
151.2769922498
 11
150.3781660385
 21
151.1769924406
  0
LINE
  5
39E
100
AcDbEntity
  8
0
100
AcDbLine
 62
7
  6
CONTINUOUS
 10
151.5696554251
 20
151.7436590437
 11
151.7058256335
 21
151.8436590437
  0
LINE
  5
39F
100
AcDbEntity
  8
0
100
AcDbLine
 62
7
  6
CONTINUOUS
 10
150.5143362351
 20
152.5436590437
 11
150.6164638825
 21
152.6103258375
  0
LINE
  5
3A0
100
AcDbEntity
  8
0
100
AcDbLine
 62
7
  6
CONTINUOUS
 10
151.5696554251
 20
151.9436590437
 11
151.4675277538
 21
151.8769922498
  0
LINE
  5
3A1
100
AcDbEntity
  8
0
100
AcDbLine
 62
7
  6
CONTINUOUS
 10
150.5143362351
 20
151.0769924406
 11
150.6164638825
 21
151.1436590437
  0
LINE
  5
3A2
100
AcDbEntity
  8
0
100
AcDbLine
 62
7
  6
CONTINUOUS
 10
151.5696554251
 20
150.4769924406
 11
151.4675277538
 21
150.4103256467
  0
LINE
  5
3A3
100
AcDbEntity
  8
0
100
AcDbLine
 62
7
  6
CONTINUOUS
 10
150.5143362351
 20
149.6103257421
 11
150.6164638825
 21
149.6769924406
  0
LINE
  5
3A4
100
AcDbEntity
  8
0
100
AcDbLine
 62
7
  6
CONTINUOUS
 10
150.9909320183
 20
148.9769923452
 11
150.8888043709
 21
148.9103257421
  0
LINE
  5
3A5
100
AcDbEntity
  8
0
100
AcDbLine
 62
7
  6
CONTINUOUS
 10
151.5696554251
 20
149.0103257421
 11
151.4675277538
 21
148.9436590437
  0
LINE
  5
3A6
100
AcDbEntity
  8
0
100
AcDbLine
 62
253
  6
CONTINUOUS
 10
123.1506603003
 20
78.0436590437
 11
117.9619401024
 21
78.0436590437
  0
LINE
  5
3A7
100
AcDbEntity
  8
0
100
AcDbLine
 62
253
  6
CONTINUOUS
 10
148.5333313837
 20
78.0436590437
 11
153.7220515816
 21
78.0436590437
  0
LWPOLYLINE
  5
3A8
100
AcDbEntity
  8
RACCORDO
100
AcDbPolyline
 62
253
  6
CONTINUOUS
 90
4
 70
0
 10
154.8122636338
 20
37.5773170898
 10
154.8247884222
 20
37.563245649
 10
154.8349275642
 20
37.5519728148
 10
154.8426810598
 20
37.5436590533
  0
LINE
  5
3A9
100
AcDbEntity
  8
0
100
AcDbLine
 62
7
  6
CONTINUOUS
 10
134.815144642
 20
43.1841862437
 11
135.503899042
 21
41.8716038437
  0
LINE
  5
3AA
100
AcDbEntity
  8
0
100
AcDbLine
 62
7
  6
CONTINUOUS
 10
135.849804642
 20
41.8716038437
 11
135.307174242
 21
42.9056934437
  0
LINE
  5
3AB
100
AcDbEntity
  8
0
100
AcDbLine
 62
7
  6
CONTINUOUS
 10
129.8370333808
 20
40.1082840649
 11
129.7841680895
 21
40.2670089123
  0
LWPOLYLINE
  5
3AC
100
AcDbEntity
  8
0
100
AcDbPolyline
 62
253
  6
CONTINUOUS
 90
19
 70
0
 10
125.5703465353
 20
39.4887446311
 10
125.5707447118
 20
39.487247114
 10
125.5712630253
 20
39.4835082879
 10
125.5713420339
 20
39.4778365931
 10
125.5698277239
 20
39.4709495824
 10
125.5669114014
 20
39.4629153661
 10
125.5638034481
 20
39.4532145521
 10
125.5599928403
 20
39.4415447651
 10
125.5543883893
 20
39.4291657486
 10
125.5483678099
 20
39.4169591403
 10
125.5425470124
 20
39.4032374686
 10
125.5351080454
 20
39.3876619726
 10
125.5263394744
 20
39.3721340429
 10
125.5179653721
 20
39.35642036
 10
125.5093235948
 20
39.3395012733
 10
125.4995798985
 20
39.3225271077
 10
125.4890793863
 20
39.30599583
 10
125.4790729854
 20
39.2893170701
 10
125.4703503424
 20
39.2723302613
  0
LWPOLYLINE
  5
3AD
100
AcDbEntity
  8
RACCORDO
100
AcDbPolyline
 62
7
  6
CONTINUOUS
 90
22
 70
0
 10
117.341995812
 20
38.9465839604
 10
117.343381572
 20
38.9112671154
 10
117.3468608261
 20
38.877477447
 10
117.3524335744
 20
38.8452149553
 10
117.3602716532
 20
38.8143669172
 10
117.3702032261
 20
38.7850460557
 10
117.381712784
 20
38.7575905398
 10
117.3946809279
 20
38.7322227952
 10
117.4092270568
 20
38.7087203961
 10
117.4251938587
 20
38.6867542347
 10
117.442425705
 20
38.6662864637
 10
117.4610782243
 20
38.6473549304
 10
117.48146099
 20
38.6297440683
 10
117.5036248254
 20
38.6132700171
 10
117.5275189072
 20
38.5981166371
 10
117.5533003393
 20
38.5846199423
 10
117.5811332266
 20
38.5727231655
 10
117.6108534642
 20
38.5624830739
 10
117.6421258408
 20
38.554405983
 10
117.6748386193
 20
38.5486606648
 10
117.709103537
 20
38.5450783472
 10
117.7449205936
 20
38.5436590304
  0
LWPOLYLINE
  5
3AE
100
AcDbEntity
  8
RACCORDO
100
AcDbPolyline
 62
7
  6
CONTINUOUS
 90
22
 70
0
 10
116.3419958432
 20
175.044344287
 10
116.3434402552
 20
175.0818811971
 10
116.3475809897
 20
175.1188098361
 10
116.3544180468
 20
175.1551302043
 10
116.3640083099
 20
175.191026285
 10
116.3762948955
 20
175.2263140947
 10
116.3911071529
 20
175.260441683
 10
116.4084757976
 20
175.2933967404
 10
116.428370114
 20
175.3251915764
 10
116.4505273045
 20
175.355311168
 10
116.4750518036
 20
175.3837778595
 10
116.5018391767
 20
175.4105693066
 10
116.5303133225
 20
175.4351034541
 10
116.5604654582
 20
175.457279392
 10
116.5923043665
 20
175.4771980302
 10
116.6252802949
 20
175.4945800439
 10
116.6593804807
 20
175.509383633
 10
116.6946176865
 20
175.5216505976
 10
116.7304804481
 20
175.5312270134
 10
116.7667982771
 20
175.5380615721
 10
116.8037416619
 20
175.5422055819
 10
116.8413106023
 20
175.5436590429
  0
LWPOLYLINE
  5
3AF
100
AcDbEntity
  8
0
100
AcDbPolyline
 62
253
  6
CONTINUOUS
 90
16
 70
0
 10
117.9139134048
 20
173.7717719418
 10
117.9150147812
 20
173.7926702361
 10
117.9182941249
 20
173.8133396908
 10
117.9237155318
 20
173.8335539363
 10
117.9312196382
 20
173.8530915865
 10
117.94072427
 20
173.8717386632
 10
117.9521253425
 20
173.8892909396
 10
117.9652980087
 20
173.905556187
 10
117.9800980036
 20
173.9203562511
 10
117.9963632156
 20
173.9335290124
 10
118.013915496
 20
173.9449301961
 10
118.0325626209
 20
173.9544349453
 10
118.0521003686
 20
173.961939165
 10
118.072314762
 20
173.9673606687
 10
118.0929844119
 20
173.9706400794
 10
118.1138829438
 20
173.9717414809
  0
LWPOLYLINE
  5
3B0
100
AcDbEntity
  8
0
100
AcDbPolyline
 62
7
  6
CONTINUOUS
 90
8
 70
0
 10
136.4451669253
 20
162.6969861907
 10
136.4473791737
 20
162.7014628915
 10
136.4511060549
 20
162.7077419543
 10
136.4563475689
 20
162.7156169031
 10
136.4632650299
 20
162.7248646601
 10
136.4716971237
 20
162.7352969983
 10
136.4811599078
 20
162.7467892294
 10
136.4916012443
 20
162.7591695042
  0
LWPOLYLINE
  5
3B1
100
AcDbEntity
  8
0
100
AcDbPolyline
 62
7
  6
CONTINUOUS
 90
8
 70
0
 10
136.4467452154
 20
162.2499021974
 10
136.4489584792
 20
162.2542668165
 10
136.4526866269
 20
162.2604391054
 10
136.4579296584
 20
162.2682130153
 10
136.4648489499
 20
162.27736593
 10
136.4732831253
 20
162.2877096434
 10
136.4827480559
 20
162.2991191399
 10
136.493191564
 20
162.3114226938
  0
LINE
  5
3B2
100
AcDbEntity
  8
0
100
AcDbLine
 62
7
  6
CONTINUOUS
 10
145.5429577363
 20
171.3462179269
 11
146.2006185534
 21
172.5830980309
  0
LINE
  5
3B3
100
AcDbEntity
  8
0
100
AcDbLine
 62
7
  6
CONTINUOUS
 10
147.0647197826
 20
172.0842089536
 11
146.3223805997
 21
170.8962179269
  0
LINE
  5
3B4
100
AcDbEntity
  8
0
100
AcDbLine
 62
7
  6
CONTINUOUS
 10
148.8833731306
 20
171.0342089536
 11
148.1410339477
 21
169.8462179269
  0
LINE
  5
3B5
100
AcDbEntity
  8
0
100
AcDbLine
 62
7
  6
CONTINUOUS
 10
153.841995842
 20
158.2436590437
 11
153.7324611204
 21
158.134124322
  0
LINE
  5
3B6
100
AcDbEntity
  8
0
100
AcDbLine
 62
7
  6
CONTINUOUS
 10
151.0590171166
 20
152.7769922498
 11
150.9568894692
 21
152.6769922498
  0
LINE
  5
3B7
100
AcDbEntity
  8
0
100
AcDbLine
 62
7
  6
CONTINUOUS
 10
151.0930596657
 20
152.5769922498
 11
151.161144764
 21
152.6436590437
  0
LINE
  5
3B8
100
AcDbEntity
  8
0
100
AcDbLine
 62
7
  6
CONTINUOUS
 10
151.0590171166
 20
151.3103258375
 11
150.9568894692
 21
151.2103256467
  0
LINE
  5
3B9
100
AcDbEntity
  8
0
100
AcDbLine
 62
7
  6
CONTINUOUS
 10
151.0930596657
 20
151.1103256467
 11
151.161144764
 21
151.1769924406
  0
LINE
  5
3BA
100
AcDbEntity
  8
0
100
AcDbLine
 62
7
  6
CONTINUOUS
 10
150.5143362351
 20
149.8103256467
 11
150.3781660385
 21
149.7103256467
  0
LINE
  5
3BB
100
AcDbEntity
  8
0
100
AcDbLine
 62
7
  6
CONTINUOUS
 10
151.5696554251
 20
150.2769924406
 11
151.7058256335
 21
150.3769924406
  0
LINE
  5
3BC
100
AcDbEntity
  8
0
100
AcDbLine
 62
7
  6
CONTINUOUS
 10
150.9909320183
 20
148.7769923929
 11
151.1271022148
 21
148.8769923452
  0
LINE
  5
3BD
100
AcDbEntity
  8
0
100
AcDbLine
 62
7
  6
CONTINUOUS
 10
151.5696554251
 20
148.8103256944
 11
151.7058256335
 21
148.9103257421
  0
LINE
  5
3BE
100
AcDbEntity
  8
0
100
AcDbLine
 62
7
  6
CONTINUOUS
 10
153.841995842
 20
54.8436590437
 11
153.7324611204
 21
54.9531937653
  0
LINE
  5
3BF
100
AcDbEntity
  8
0
100
AcDbLine
 62
7
  6
CONTINUOUS
 10
146.3223805997
 20
42.1911001604
 11
147.0647197826
 21
41.0031091337
  0
LINE
  5
3C0
100
AcDbEntity
  8
0
100
AcDbLine
 62
7
  6
CONTINUOUS
 10
148.1410339477
 20
43.2411001604
 11
148.8833731306
 21
42.0531091337
  0
LINE
  5
3C1
100
AcDbEntity
  8
0
100
AcDbLine
 62
7
  6
CONTINUOUS
 10
146.2006185534
 20
40.5042200565
 11
145.5429577363
 21
41.7411001604
  0
LWPOLYLINE
  5
3C2
100
AcDbEntity
  8
0
100
AcDbPolyline
 62
7
  6
CONTINUOUS
 90
9
 70
0
 10
136.4474399452
 20
51.0410246182
 10
136.4496536662
 20
51.036711065
 10
136.4533823863
 20
51.0305874362
 10
136.4586261054
 20
51.0228595846
 10
136.465546228
 20
51.0137499152
 10
136.4739813497
 20
51.0034466233
 10
136.4834472567
 20
50.992074873
 10
136.4938917532
 20
50.9798063327
 10
136.517545476
 20
50.9530757305
  0
LWPOLYLINE
  5
3C3
100
AcDbEntity
  8
0
100
AcDbPolyline
 62
7
  6
CONTINUOUS
 90
9
 70
0
 10
136.4451669253
 20
50.3903318966
 10
136.4473791737
 20
50.3858551958
 10
136.4511060549
 20
50.379576133
 10
136.4563475689
 20
50.3717011842
 10
136.4632650299
 20
50.3624534272
 10
136.4716971237
 20
50.352021089
 10
136.4811599078
 20
50.3405288579
 10
136.4916012443
 20
50.3281485831
 10
136.5152484594
 20
50.3012198996
  0
LINE
  5
3C4
100
AcDbEntity
  8
0
100
AcDbLine
 62
253
  6
CONTINUOUS
 10
119.4694406619
 20
54.0789244218
 11
119.4421677095
 21
54.4305260747
  0
LINE
  5
3C5
100
AcDbEntity
  8
0
100
AcDbLine
 62
253
  6
CONTINUOUS
 10
119.2347388334
 20
54.0837665893
 11
119.2081229467
 21
54.4311403439
  0
LWPOLYLINE
  5
3C6
100
AcDbEntity
  8
0
100
AcDbPolyline
 62
253
  6
CONTINUOUS
 90
3
 70
0
 10
119.4421677095
 20
54.4305260747
 10
119.4148317509
 20
54.8093117554
 10
119.4080323585
 20
54.9081502249
  0
LWPOLYLINE
  5
3C7
100
AcDbEntity
  8
0
100
AcDbPolyline
 62
253
  6
CONTINUOUS
 90
3
 70
0
 10
119.2081229467
 20
54.4311403439
 10
119.1813923362
 20
54.8057118496
 10
119.1747622508
 20
54.9033146926
  0
LWPOLYLINE
  5
3C8
100
AcDbEntity
  8
SUPERFICI
100
AcDbPolyline
 62
7
  6
CONTINUOUS
 90
22
 70
0
 10
121.341995842
 20
63.0561394132
 10
121.3396118928
 20
63.111330191
 10
121.3338329686
 20
63.1642153778
 10
121.3246590692
 20
63.2147949458
 10
121.3121182464
 20
63.2629871184
 10
121.2961824484
 20
63.3088736199
 10
121.2767675206
 20
63.3526996777
 10
121.2538396025
 20
63.3944483423
 10
121.2274325546
 20
63.4341365235
 10
121.197563803
 20
63.4720602444
 10
121.164465511
 20
63.5085810364
 10
121.1279055153
 20
63.5433373407
 10
121.087204753
 20
63.5755405429
 10
121.0420217748
 20
63.6050759886
 10
120.9926980299
 20
63.6320582973
 10
120.9395788035
 20
63.6560427581
 10
120.8827737486
 20
63.6772960252
 10
120.8221732122
 20
63.6955514161
 10
120.7577935207
 20
63.7095642106
 10
120.6896401162
 20
63.718919493
 10
120.6177075567
 20
63.7240321571
 10
120.541995842
 20
63.7249021983
  0
LINE
  5
3C9
100
AcDbEntity
  8
0
100
AcDbLine
 62
253
  6
CONTINUOUS
 10
117.9358501551
 20
166.9609653911
 11
117.9139134048
 21
173.7717719418
  0
LINE
  5
3CA
100
AcDbEntity
  8
0
100
AcDbLine
 62
253
  6
CONTINUOUS
 10
118.1358308395
 20
166.985546563
 11
118.1138829438
 21
173.8149878263
  0
LWPOLYLINE
  5
3CB
100
AcDbEntity
  8
0
100
AcDbPolyline
 62
253
  6
CONTINUOUS
 90
3
 70
0
 10
117.9505548421
 20
159.0522180438
 10
117.9486267197
 20
160.58541917
 10
117.9358501551
 20
166.9609653911
  0
LWPOLYLINE
  5
3CC
100
AcDbEntity
  8
0
100
AcDbPolyline
 62
253
  6
CONTINUOUS
 90
3
 70
0
 10
118.1505354135
 20
159.0556517316
 10
118.1486087368
 20
160.5919833297
 10
118.1358308395
 20
166.985546563
  0
LINE
  5
3CD
100
AcDbEntity
  8
RACCORDO
100
AcDbLine
 62
7
  6
CONTINUOUS
 10
115.841995842
 20
38.0422885784
 11
115.841995842
 21
175.0450295089
  0
LINE
  5
3CE
100
AcDbEntity
  8
RACCORDO
100
AcDbLine
 62
7
  6
CONTINUOUS
 10
116.3419958432
 20
175.044344287
 11
116.3419958512
 21
38.0429737291
  0
LINE
  5
3CF
100
AcDbEntity
  8
RACCORDO
100
AcDbLine
 62
7
  6
CONTINUOUS
 10
117.3419958268
 20
174.1407342648
 11
117.341995812
 21
38.9465839604
  0
LINE
  5
3D0
100
AcDbEntity
  8
0
100
AcDbLine
 62
7
  6
CONTINUOUS
 10
117.841995842
 20
173.8436895046
 11
117.841995842
 21
158.9436590437
  0
LINE
  5
3D1
100
AcDbEntity
  8
0
100
AcDbLine
 62
7
  6
CONTINUOUS
 10
117.841995842
 20
158.2436590437
 11
117.841995842
 21
111.8436590437
  0
LINE
  5
3D2
100
AcDbEntity
  8
0
100
AcDbLine
 62
7
  6
CONTINUOUS
 10
117.841995842
 20
111.1436590437
 11
117.841995842
 21
101.9436590437
  0
LINE
  5
3D3
100
AcDbEntity
  8
0
100
AcDbLine
 62
7
  6
CONTINUOUS
 10
117.841995842
 20
101.2436590437
 11
117.841995842
 21
54.8436590437
  0
LINE
  5
3D4
100
AcDbEntity
  8
0
100
AcDbLine
 62
7
  6
CONTINUOUS
 10
117.841995842
 20
54.1436590437
 11
117.841995842
 21
39.2436285827
  0
LINE
  5
3D5
100
AcDbEntity
  8
0
100
AcDbLine
 62
253
  6
CONTINUOUS
 10
117.9619401024
 20
102.0636033041
 11
117.9619401024
 21
111.0237147832
  0
LWPOLYLINE
  5
3D6
100
AcDbEntity
  8
0
100
AcDbPolyline
 62
253
  6
CONTINUOUS
 90
3
 70
0
 10
117.9619401024
 20
111.9636033041
 10
117.9618714655
 20
136.9212659849
 10
117.9515305636
 20
158.134124322
  0
LINE
  5
3D7
100
AcDbEntity
  8
0
100
AcDbLine
 62
253
  6
CONTINUOUS
 10
118.1138829438
 20
173.8149878263
 11
118.1138829437
 21
173.9717414809
  0
LINE
  5
3D8
100
AcDbEntity
  8
0
100
AcDbLine
 62
253
  6
CONTINUOUS
 10
118.1619096415
 20
102.0670333905
 11
118.1619096415
 21
111.0202846968
  0
LWPOLYLINE
  5
3D9
100
AcDbEntity
  8
0
100
AcDbPolyline
 62
253
  6
CONTINUOUS
 90
3
 70
0
 10
118.1619096415
 20
111.9670333905
 10
118.1618410045
 20
136.9220988851
 10
118.1515144203
 20
158.1306854089
  0
LINE
  5
3DA
100
AcDbEntity
  8
0
100
AcDbLine
 62
253
  6
CONTINUOUS
 10
118.5570320028
 20
101.2436590437
 11
118.5570320028
 21
101.9436590437
  0
LINE
  5
3DB
100
AcDbEntity
  8
0
100
AcDbLine
 62
253
  6
CONTINUOUS
 10
118.5570320028
 20
111.1436590437
 11
118.5570320028
 21
111.8436590437
  0
LINE
  5
3DC
100
AcDbEntity
  8
0
100
AcDbLine
 62
253
  6
CONTINUOUS
 10
118.8566208632
 20
101.2386965824
 11
118.8566208632
 21
101.9486215049
  0
LINE
  5
3DD
100
AcDbEntity
  8
0
100
AcDbLine
 62
253
  6
CONTINUOUS
 10
118.8566208632
 20
111.1386965824
 11
118.8566208632
 21
111.8486215049
  0
LINE
  5
3DE
100
AcDbEntity
  8
0
100
AcDbLine
 62
7
  6
CONTINUOUS
 10
118.984224842
 20
152.4912490437
 11
118.984224842
 21
151.6002240437
  0
LINE
  5
3DF
100
AcDbEntity
  8
0
100
AcDbLine
 62
253
  6
CONTINUOUS
 10
119.0189633022
 20
111.9026916802
 11
119.0189633022
 21
111.0846264071
  0
LINE
  5
3E0
100
AcDbEntity
  8
0
100
AcDbLine
 62
253
  6
CONTINUOUS
 10
119.0189633022
 20
101.1846264071
 11
119.0189633022
 21
102.0026916802
  0
LINE
  5
3E1
100
AcDbEntity
  8
0
100
AcDbLine
 62
253
  6
CONTINUOUS
 10
119.2507067215
 20
111.9075184744
 11
119.2507067215
 21
111.0797996129
  0
LINE
  5
3E2
100
AcDbEntity
  8
0
100
AcDbLine
 62
253
  6
CONTINUOUS
 10
119.2507067215
 20
101.1797996129
 11
119.2507067215
 21
102.0075184744
  0
LINE
  5
3E3
100
AcDbEntity
  8
0
100
AcDbLine
 62
7
  6
CONTINUOUS
 10
119.307419842
 20
151.6002240437
 11
119.307419842
 21
151.8745810437
  0
LINE
  5
3E4
100
AcDbEntity
  8
0
100
AcDbLine
 62
7
  6
CONTINUOUS
 10
119.307419842
 20
152.2170020437
 11
119.307419842
 21
152.4912490437
  0
LINE
  5
3E5
100
AcDbEntity
  8
SUPERFICI
100
AcDbLine
 62
7
  6
CONTINUOUS
 10
119.741995842
 20
74.9483790437
 11
119.741995842
 21
74.6942430437
  0
LINE
  5
3E6
100
AcDbEntity
  8
SUPERFICI
100
AcDbLine
 62
7
  6
CONTINUOUS
 10
119.741995842
 20
73.7761670437
 11
119.741995842
 21
73.5243600437
  0
LINE
  5
3E7
100
AcDbEntity
  8
SUPERFICI
100
AcDbLine
 62
7
  6
CONTINUOUS
 10
119.741995842
 20
72.6396690437
 11
119.741995842
 21
72.4234460437
  0
LINE
  5
3E8
100
AcDbEntity
  8
SUPERFICI
100
AcDbLine
 62
7
  6
CONTINUOUS
 10
119.741995842
 20
71.6457280437
 11
119.741995842
 21
71.4006370437
  0
LINE
  5
3E9
100
AcDbEntity
  8
SUPERFICI
100
AcDbLine
 62
7
  6
CONTINUOUS
 10
119.741995842
 20
70.7365170437
 11
119.741995842
 21
69.4373270437
  0
LINE
  5
3EA
100
AcDbEntity
  8
SUPERFICI
100
AcDbLine
 62
7
  6
CONTINUOUS
 10
119.741995842
 20
69.2055630437
 11
119.741995842
 21
68.9893530437
  0
LINE
  5
3EB
100
AcDbEntity
  8
SUPERFICI
100
AcDbLine
 62
7
  6
CONTINUOUS
 10
119.741995842
 20
67.9977280437
 11
119.741995842
 21
67.7882730437
  0
LINE
  5
3EC
100
AcDbEntity
  8
SUPERFICI
100
AcDbLine
 62
7
  6
CONTINUOUS
 10
119.741995842
 20
66.9837440437
 11
119.741995842
 21
66.7274200437
  0
LINE
  5
3ED
100
AcDbEntity
  8
SUPERFICI
100
AcDbLine
 62
7
  6
CONTINUOUS
 10
119.741995842
 20
66.3575500437
 11
119.741995842
 21
66.1414050437
  0
LINE
  5
3EE
100
AcDbEntity
  8
SUPERFICI
100
AcDbLine
 62
7
  6
CONTINUOUS
 10
119.741995842
 20
65.1898030437
 11
119.741995842
 21
64.0242810437
  0
LINE
  5
3EF
100
AcDbEntity
  8
SUPERFICI
100
AcDbLine
 62
7
  6
CONTINUOUS
 10
119.741995842
 20
63.059463677
 11
119.741995842
 21
62.4041590437
  0
LINE
  5
3F0
100
AcDbEntity
  8
SUPERFICI
100
AcDbLine
 62
7
  6
CONTINUOUS
 10
119.741995842
 20
61.6153390437
 11
119.741995842
 21
61.3701700437
  0
LINE
  5
3F1
100
AcDbEntity
  8
SUPERFICI
100
AcDbLine
 62
7
  6
CONTINUOUS
 10
119.741995842
 20
60.5768730437
 11
119.741995842
 21
60.2693080437
  0
LINE
  5
3F2
100
AcDbEntity
  8
SUPERFICI
100
AcDbLine
 62
7
  6
CONTINUOUS
 10
119.741995842
 20
59.3534220437
 11
119.741995842
 21
59.0436590437
  0
LINE
  5
3F3
100
AcDbEntity
  8
SUPERFICI
100
AcDbLine
 62
7
  6
CONTINUOUS
 10
119.926904842
 20
62.6203830437
 11
119.926904842
 21
63.0471593193
  0
LINE
  5
3F4
100
AcDbEntity
  8
SUPERFICI
100
AcDbLine
 62
7
  6
CONTINUOUS
 10
119.933633842
 20
64.2404910437
 11
119.933633842
 21
65.1898030437
  0
LINE
  5
3F5
100
AcDbEntity
  8
SUPERFICI
100
AcDbLine
 62
7
  6
CONTINUOUS
 10
119.933633842
 20
69.4373270437
 11
119.933633842
 21
69.9788560437
  0
LINE
  5
3F6
100
AcDbEntity
  8
SUPERFICI
100
AcDbLine
 62
7
  6
CONTINUOUS
 10
119.933633842
 20
70.1949880437
 11
119.933633842
 21
70.7365170437
  0
LINE
  5
3F7
100
AcDbEntity
  8
0
100
AcDbLine
 62
253
  6
CONTINUOUS
 10
117.9515305636
 20
54.9531937653
 11
117.9619401024
 21
101.1237147832
  0
LINE
  5
3F8
100
AcDbEntity
  8
0
100
AcDbLine
 62
253
  6
CONTINUOUS
 10
118.1515144203
 20
54.9566326736
 11
118.1619096415
 21
101.1202846968
  0
LINE
  5
3F9
100
AcDbEntity
  8
0
100
AcDbLine
 62
253
  6
CONTINUOUS
 10
117.9393018493
 20
47.5294874068
 11
117.9505548421
 21
54.0351000435
  0
LINE
  5
3FA
100
AcDbEntity
  8
0
100
AcDbLine
 62
253
  6
CONTINUOUS
 10
118.139283254
 20
47.5082168766
 11
118.1505354135
 21
54.0316663543
  0
LWPOLYLINE
  5
3FB
100
AcDbEntity
  8
0
100
AcDbPolyline
 62
253
  6
CONTINUOUS
 90
3
 70
0
 10
117.9139134048
 20
39.3155461455
 10
117.9201515432
 20
41.0138300848
 10
117.9393018493
 20
47.5294874068
  0
LWPOLYLINE
  5
3FC
100
AcDbEntity
  8
0
100
AcDbPolyline
 62
253
  6
CONTINUOUS
 90
3
 70
0
 10
118.1138829438
 20
39.1155766064
 10
118.1201246577
 20
40.973849806
 10
118.139283254
 20
47.5082168766
  0
LINE
  5
3FD
100
AcDbEntity
  8
0
100
AcDbLine
 62
253
  6
CONTINUOUS
 10
119.1747622508
 20
158.1840033947
 11
119.1990031188
 21
158.5315604827
  0
LINE
  5
3FE
100
AcDbEntity
  8
0
100
AcDbLine
 62
253
  6
CONTINUOUS
 10
119.4080323585
 20
158.1791678624
 11
119.4328156108
 21
158.5304932863
  0
LWPOLYLINE
  5
3FF
100
AcDbEntity
  8
0
100
AcDbPolyline
 62
253
  6
CONTINUOUS
 90
3
 70
0
 10
119.1990031188
 20
158.5315604827
 10
119.2270901785
 20
158.9060415636
 10
119.2347388334
 20
159.003551498
  0
LWPOLYLINE
  5
400
100
AcDbEntity
  8
0
100
AcDbPolyline
 62
253
  6
CONTINUOUS
 90
3
 70
0
 10
119.4328156108
 20
158.5304932863
 10
119.4616094072
 20
158.9096704491
 10
119.4694406619
 20
159.0083936655
  0
LINE
  5
401
100
AcDbEntity
  8
0
100
AcDbLine
 62
7
  6
CONTINUOUS
 10
141.1370333808
 20
172.9790340224
 11
141.0841680895
 21
172.8203091751
  0
LINE
  5
402
100
AcDbEntity
  8
0
100
AcDbLine
 62
7
  6
CONTINUOUS
 10
147.3616110843
 20
170.2962179269
 11
148.0192719014
 21
171.5330980309
  0
LWPOLYLINE
  5
403
100
AcDbEntity
  8
0
100
AcDbPolyline
 62
253
  6
CONTINUOUS
 90
22
 70
0
 10
151.0756406866
 20
169.9842596458
 10
151.0613417021
 20
169.9585453602
 10
151.0454060644
 20
169.9344456835
 10
151.0278337733
 20
169.9119608345
 10
151.0085515373
 20
169.8910373475
 10
150.9876326479
 20
169.871729077
 10
150.9652969806
 20
169.8541972172
 10
150.9415394735
 20
169.838422862
 10
150.9163651885
 20
169.8244252459
 10
150.8900091854
 20
169.8124227814
 10
150.8624524376
 20
169.8024039708
 10
150.8337139718
 20
169.7943805549
 10
150.8040859279
 20
169.7886057986
 10
150.7735124667
 20
169.7850839369
 10
150.7420494275
 20
169.7838108503
 10
150.7101564681
 20
169.7850272424
 10
150.6777767196
 20
169.7887752999
 10
150.6449670509
 20
169.7950127672
 10
150.6123577268
 20
169.8038536305
 10
150.5801588357
 20
169.8153357853
 10
150.5481602892
 20
169.8294210416
 10
150.5163620874
 20
169.8461091957
  0
LINE
  5
404
100
AcDbEntity
  8
0
100
AcDbLine
 62
7
  6
CONTINUOUS
 10
149.5743413182
 20
171.3287791155
 11
149.3737519809
 21
170.981348192
  0
LINE
  5
405
100
AcDbEntity
  8
0
100
AcDbLine
 62
7
  6
CONTINUOUS
 10
117.9619401024
 20
111.9636033041
 11
117.841995842
 21
111.8436590437
  0
LINE
  5
406
100
AcDbEntity
  8
0
100
AcDbLine
 62
7
  6
CONTINUOUS
 10
117.9619401024
 20
101.1237147832
 11
117.841995842
 21
101.2436590437
  0
LWPOLYLINE
  5
407
100
AcDbEntity
  8
SUPERFICI
100
AcDbPolyline
 62
7
  6
CONTINUOUS
 90
45
 70
0
 10
151.0871263047
 20
65.3877201222
 10
151.0801158483
 20
65.3956568098
 10
151.0727290458
 20
65.4037089596
 10
151.0649764953
 20
65.4118906499
 10
151.0568475987
 20
65.4201878028
 10
151.0482133351
 20
65.4285211602
 10
151.0390677792
 20
65.4369031309
 10
151.0294168564
 20
65.4453213063
 10
151.0191493222
 20
65.4536592023
 10
151.0082532978
 20
65.4619053593
 10
150.9967406619
 20
65.4700712367
 10
150.9845358065
 20
65.4780747287
 10
150.971632207
 20
65.4859259947
 10
150.9580363878
 20
65.4936148748
 10
150.9436923145
 20
65.5010287843
 10
150.9286041646
 20
65.5081816419
 10
150.9127677605
 20
65.5150595281
 10
150.896114535
 20
65.5215081005
 10
150.8786435209
 20
65.5275420637
 10
150.8603556854
 20
65.533146712
 10
150.8411853624
 20
65.5381235877
 10
150.8211153774
 20
65.542481534
 10
150.8001629049
 20
65.5462117065
 10
150.7783138022
 20
65.5490891158
 10
150.7555795705
 20
65.5511289552
 10
150.7319487086
 20
65.5523160305
 10
150.7073725699
 20
65.5523797713
 10
150.6817843461
 20
65.5514086703
 10
150.6552508456
 20
65.5493142349
 10
150.627923847
 20
65.545560417
 10
150.5996397145
 20
65.5401692355
 10
150.5705620839
 20
65.5331186743
 10
150.5413336413
 20
65.5238066346
 10
150.51172997
 20
65.5119577433
 10
150.4819754866
 20
65.4978473827
 10
150.4533861281
 20
65.4816995882
 10
150.4261508604
 20
65.4633490557
 10
150.4000807175
 20
65.442961103
 10
150.3759247381
 20
65.4212556963
 10
150.3537600468
 20
65.3980840211
 10
150.333509519
 20
65.3735949036
 10
150.3156908203
 20
65.3489547638
 10
150.3004765056
 20
65.3245524063
 10
150.2876940199
 20
65.2999990267
 10
150.2773433632
 20
65.2752946259
  0
LINE
  5
408
100
AcDbEntity
  8
0
100
AcDbLine
 62
7
  6
CONTINUOUS
 10
149.5743413182
 20
41.7585389718
 11
149.3737519809
 21
42.1059698954
  0
LINE
  5
409
100
AcDbEntity
  8
0
100
AcDbLine
 62
7
  6
CONTINUOUS
 10
147.3616110843
 20
42.7911001604
 11
148.0192719014
 21
41.5542200565
  0
LINE
  5
40A
100
AcDbEntity
  8
0
100
AcDbLine
 62
7
  6
CONTINUOUS
 10
141.1370333808
 20
40.1082840649
 11
141.0841680895
 21
40.2670089123
  0
LINE
  5
40B
100
AcDbEntity
  8
SUPERFICI
100
AcDbLine
 62
7
  6
CONTINUOUS
 10
120.423920842
 20
65.1162660437
 11
120.423920842
 21
64.2404910437
  0
LINE
  5
40C
100
AcDbEntity
  8
SUPERFICI
100
AcDbLine
 62
7
  6
CONTINUOUS
 10
120.615557842
 20
64.2404910437
 11
120.615557842
 21
65.1162660437
  0
LINE
  5
40D
100
AcDbEntity
  8
SUPERFICI
100
AcDbLine
 62
7
  6
CONTINUOUS
 10
120.684656842
 20
71.7527010437
 11
120.684656842
 21
71.2557500437
  0
LINE
  5
40E
100
AcDbEntity
  8
SUPERFICI
100
AcDbLine
 62
7
  6
CONTINUOUS
 10
120.684656842
 20
61.7223250437
 11
120.684656842
 21
61.2253740437
  0
LINE
  5
40F
100
AcDbEntity
  8
SUPERFICI
100
AcDbLine
 62
7
  6
CONTINUOUS
 10
120.876293842
 20
61.1585010437
 11
120.876293842
 21
61.8002610437
  0
LINE
  5
410
100
AcDbEntity
  8
SUPERFICI
100
AcDbLine
 62
7
  6
CONTINUOUS
 10
120.876293842
 20
71.1888900437
 11
120.876293842
 21
71.8307150437
  0
LINE
  5
411
100
AcDbEntity
  8
SUPERFICI
100
AcDbLine
 62
7
  6
CONTINUOUS
 10
121.150357842
 20
73.4508620437
 11
121.150357842
 21
72.6396690437
  0
LINE
  5
412
100
AcDbEntity
  8
SUPERFICI
100
AcDbLine
 62
7
  6
CONTINUOUS
 10
121.150357842
 20
65.2054210437
 11
121.150357842
 21
64.2404910437
  0
LINE
  5
413
100
AcDbEntity
  8
SUPERFICI
100
AcDbLine
 62
7
  6
CONTINUOUS
 10
121.157086842
 20
63.0471593193
 11
121.157086842
 21
62.6203830437
  0
LINE
  5
414
100
AcDbEntity
  8
SUPERFICI
100
AcDbLine
 62
7
  6
CONTINUOUS
 10
121.341995842
 20
59.0436590437
 11
121.341995842
 21
59.2531210437
  0
LINE
  5
415
100
AcDbEntity
  8
SUPERFICI
100
AcDbLine
 62
7
  6
CONTINUOUS
 10
121.341995842
 20
59.7032990437
 11
121.341995842
 21
59.9172350437
  0
LINE
  5
416
100
AcDbEntity
  8
SUPERFICI
100
AcDbLine
 62
7
  6
CONTINUOUS
 10
121.341995842
 20
60.3673260437
 11
121.341995842
 21
60.5768730437
  0
LINE
  5
417
100
AcDbEntity
  8
SUPERFICI
100
AcDbLine
 62
7
  6
CONTINUOUS
 10
121.341995842
 20
60.7685230437
 11
121.341995842
 21
60.9913460437
  0
LINE
  5
418
100
AcDbEntity
  8
SUPERFICI
100
AcDbLine
 62
7
  6
CONTINUOUS
 10
121.341995842
 20
61.9584630437
 11
121.341995842
 21
62.1947040437
  0
LINE
  5
419
100
AcDbEntity
  8
SUPERFICI
100
AcDbLine
 62
7
  6
CONTINUOUS
 10
121.341995842
 20
62.4041590437
 11
121.341995842
 21
63.0561394132
  0
LINE
  5
41A
100
AcDbEntity
  8
SUPERFICI
100
AcDbLine
 62
7
  6
CONTINUOUS
 10
121.341995842
 20
64.0242810437
 11
121.341995842
 21
65.2054210437
  0
LINE
  5
41B
100
AcDbEntity
  8
SUPERFICI
100
AcDbLine
 62
7
  6
CONTINUOUS
 10
121.341995842
 20
66.1414050437
 11
121.341995842
 21
66.3575500437
  0
LINE
  5
41C
100
AcDbEntity
  8
SUPERFICI
100
AcDbLine
 62
7
  6
CONTINUOUS
 10
121.341995842
 20
66.7274200437
 11
121.341995842
 21
66.9369790437
  0
LINE
  5
41D
100
AcDbEntity
  8
SUPERFICI
100
AcDbLine
 62
7
  6
CONTINUOUS
 10
121.341995842
 20
67.7548360437
 11
121.341995842
 21
67.9977280437
  0
LINE
  5
41E
100
AcDbEntity
  8
SUPERFICI
100
AcDbLine
 62
7
  6
CONTINUOUS
 10
121.341995842
 20
68.9893530437
 11
121.341995842
 21
69.2055630437
  0
LINE
  5
41F
100
AcDbEntity
  8
SUPERFICI
100
AcDbLine
 62
7
  6
CONTINUOUS
 10
121.341995842
 20
69.9788560437
 11
121.341995842
 21
70.1949880437
  0
LINE
  5
420
100
AcDbEntity
  8
SUPERFICI
100
AcDbLine
 62
7
  6
CONTINUOUS
 10
121.341995842
 20
70.7989120437
 11
121.341995842
 21
71.0217220437
  0
LINE
  5
421
100
AcDbEntity
  8
SUPERFICI
100
AcDbLine
 62
7
  6
CONTINUOUS
 10
121.341995842
 20
71.9889290437
 11
121.341995842
 21
72.2252090437
  0
LINE
  5
422
100
AcDbEntity
  8
SUPERFICI
100
AcDbLine
 62
7
  6
CONTINUOUS
 10
121.341995842
 20
72.4234460437
 11
121.341995842
 21
73.4508620437
  0
LINE
  5
423
100
AcDbEntity
  8
SUPERFICI
100
AcDbLine
 62
7
  6
CONTINUOUS
 10
121.341995842
 20
74.1282580437
 11
121.341995842
 21
74.3443520437
  0
LINE
  5
424
100
AcDbEntity
  8
0
100
AcDbLine
 62
7
  6
CONTINUOUS
 10
121.591001842
 20
152.5017460437
 11
121.591001842
 21
152.2170020437
  0
LINE
  5
425
100
AcDbEntity
  8
0
100
AcDbLine
 62
7
  6
CONTINUOUS
 10
121.591001842
 20
151.8745810437
 11
121.591001842
 21
151.5897270437
  0
LINE
  5
426
100
AcDbEntity
  8
0
100
AcDbLine
 62
7
  6
CONTINUOUS
 10
121.912428842
 20
151.5897270437
 11
121.912428842
 21
152.5017460437
  0
LINE
  5
427
100
AcDbEntity
  8
0
100
AcDbLine
 62
7
  6
CONTINUOUS
 10
123.1506603003
 20
135.0436590437
 11
123.1506603003
 21
111.9670333905
  0
LINE
  5
428
100
AcDbEntity
  8
0
100
AcDbLine
 62
7
  6
CONTINUOUS
 10
123.1506603003
 20
78.0436590437
 11
123.1506603003
 21
101.1202846968
  0
LINE
  5
429
100
AcDbEntity
  8
0
100
AcDbLine
 62
7
  6
CONTINUOUS
 10
123.1977647724
 20
54.9199289184
 11
123.1977647724
 21
101.1673891689
  0
LINE
  5
42A
100
AcDbEntity
  8
0
100
AcDbLine
 62
7
  6
CONTINUOUS
 10
123.1977647724
 20
111.9199289184
 11
123.1977647724
 21
158.1673891689
  0
LINE
  5
42B
100
AcDbEntity
  8
RACCORDO
100
AcDbLine
 62
7
  6
CONTINUOUS
 10
124.591995842
 20
56.3436590437
 11
124.591995842
 21
99.7436590437
  0
LINE
  5
42C
100
AcDbEntity
  8
RACCORDO
100
AcDbLine
 62
7
  6
CONTINUOUS
 10
124.591995842
 20
113.3436590437
 11
124.591995842
 21
156.7436590437
  0
LINE
  5
42D
100
AcDbEntity
  8
0
100
AcDbLine
 62
253
  6
CONTINUOUS
 10
125.4703503429
 20
39.1155766064
 11
125.4703503429
 21
39.27233026
  0
LINE
  5
42E
100
AcDbEntity
  8
0
100
AcDbLine
 62
253
  6
CONTINUOUS
 10
125.4703503429
 20
173.8149878283
 11
125.4703503429
 21
173.9717414809
  0
LWPOLYLINE
  5
42F
100
AcDbEntity
  8
SUPERFICI
100
AcDbPolyline
 62
7
  6
CONTINUOUS
 90
28
 70
0
 10
119.926904842
 20
63.0471593193
 10
119.9301647478
 20
63.0882998052
 10
119.9361015183
 20
63.1273733126
 10
119.9447151535
 20
63.1643798233
 10
119.9562802978
 20
63.1993986258
 10
119.9705223068
 20
63.2323503984
 10
119.9866172473
 20
63.2629972068
 10
120.0044411682
 20
63.2911616315
 10
120.0241180206
 20
63.3170210611
 10
120.0451957246
 20
63.340869775
 10
120.067705652
 20
63.3627669964
 10
120.091616431
 20
63.382653482
 10
120.1163818666
 20
63.4006458156
 10
120.1419272818
 20
63.4166948689
 10
120.1683273535
 20
63.430849756
 10
120.1952599176
 20
63.4433744261
 10
120.2226810647
 20
63.4541690575
 10
120.2506347041
 20
63.4633334635
 10
120.2789304005
 20
63.4714310497
 10
120.307573327
 20
63.4785867989
 10
120.3365583104
 20
63.4846757248
 10
120.3656793962
 20
63.4898862807
 10
120.394899648
 20
63.4943030882
 10
120.4242560023
 20
63.4978415238
 10
120.4536533134
 20
63.5004361732
 10
120.4830598661
 20
63.5020652313
 10
120.5125073757
 20
63.5027505023
 10
120.541995842
 20
63.5024919861
  0
LWPOLYLINE
  5
430
100
AcDbEntity
  8
0
100
AcDbPolyline
 62
7
  6
CONTINUOUS
 90
10
 70
0
 10
136.445167031
 20
162.696986548
 10
136.4450162705
 20
162.6964132207
 10
136.4448653105
 20
162.6959027747
 10
136.4447141511
 20
162.69545521
 10
136.4445627643
 20
162.6950704717
 10
136.4444111781
 20
162.6947486147
 10
136.4442594766
 20
162.6944898037
 10
136.4441076879
 20
162.6942940936
 10
136.4439557838
 20
162.6941614295
 10
136.4438037644
 20
162.6940918114
  0
LWPOLYLINE
  5
431
100
AcDbEntity
  8
0
100
AcDbPolyline
 62
253
  6
CONTINUOUS
 90
22
 70
0
 10
150.9128774312
 20
170.0428282734
 10
150.9065167055
 20
170.0296570729
 10
150.8990702723
 20
170.0172857292
 10
150.8905935065
 20
170.0057678678
 10
150.8811639253
 20
169.9951731366
 10
150.8708250036
 20
169.9855216639
 10
150.8595731557
 20
169.9767988535
 10
150.8474588783
 20
169.9690488709
 10
150.8345428612
 20
169.9623217284
 10
150.8208240128
 20
169.9566317074
 10
150.8063577546
 20
169.9520279282
 10
150.7912103396
 20
169.9485579492
 10
150.7753939077
 20
169.9462523984
 10
150.7589610684
 20
169.9451629418
 10
150.7420040565
 20
169.9453355619
 10
150.7245992269
 20
169.9468018967
 10
150.7068140796
 20
169.9496075272
 10
150.6887583352
 20
169.9537803264
 10
150.6705787475
 20
169.9593178643
 10
150.652391514
 20
169.9662259096
 10
150.634282128
 20
169.974520297
 10
150.6163556085
 20
169.9841986363
  0
LINE
  5
432
100
AcDbEntity
  8
0
100
AcDbLine
 62
253
  6
CONTINUOUS
 10
151.2940545066
 20
170.4212823492
 11
151.0756406866
 21
169.9842596458
  0
LINE
  5
433
100
AcDbEntity
  8
0
100
AcDbLine
 62
253
  6
CONTINUOUS
 10
151.1312950482
 20
170.478966543
 11
150.9128772445
 21
170.0428283872
  0
LINE
  5
434
100
AcDbEntity
  8
0
100
AcDbLine
 62
7
  6
CONTINUOUS
 10
150.3781660385
 20
152.6436590437
 11
150.2760383911
 21
152.4769922498
  0
LINE
  5
435
100
AcDbEntity
  8
0
100
AcDbLine
 62
7
  6
CONTINUOUS
 10
150.9568894692
 20
152.6769922498
 11
150.8547618218
 21
152.5103258375
  0
LINE
  5
436
100
AcDbEntity
  8
0
100
AcDbLine
 62
7
  6
CONTINUOUS
 10
150.3781660385
 20
151.1769924406
 11
150.2760383911
 21
151.0103256467
  0
LINE
  5
437
100
AcDbEntity
  8
0
100
AcDbLine
 62
7
  6
CONTINUOUS
 10
150.9568894692
 20
151.2103256467
 11
150.8547618218
 21
151.0436590437
  0
LINE
  5
438
100
AcDbEntity
  8
0
100
AcDbLine
 62
7
  6
CONTINUOUS
 10
150.3781660385
 20
149.7103256467
 11
150.2760383911
 21
149.5436590437
  0
LINE
  5
439
100
AcDbEntity
  8
0
100
AcDbLine
 62
7
  6
CONTINUOUS
 10
151.7058256335
 20
151.8436590437
 11
151.8079532899
 21
152.0103258375
  0
LINE
  5
43A
100
AcDbEntity
  8
0
100
AcDbLine
 62
7
  6
CONTINUOUS
 10
150.4462511368
 20
152.4436590437
 11
150.5143362351
 21
152.5436590437
  0
LINE
  5
43B
100
AcDbEntity
  8
0
100
AcDbLine
 62
7
  6
CONTINUOUS
 10
151.0249745674
 20
152.4769922498
 11
151.0930596657
 21
152.5769922498
  0
LINE
  5
43C
100
AcDbEntity
  8
0
100
AcDbLine
 62
7
  6
CONTINUOUS
 10
150.4462511368
 20
150.9769924406
 11
150.5143362351
 21
151.0769924406
  0
LINE
  5
43D
100
AcDbEntity
  8
0
100
AcDbLine
 62
7
  6
CONTINUOUS
 10
151.6377405234
 20
152.0436590437
 11
151.5696554251
 21
151.9436590437
  0
LINE
  5
43E
100
AcDbEntity
  8
0
100
AcDbLine
 62
7
  6
CONTINUOUS
 10
151.0249745674
 20
151.0103256467
 11
151.0930596657
 21
151.1103256467
  0
LINE
  5
43F
100
AcDbEntity
  8
0
100
AcDbLine
 62
7
  6
CONTINUOUS
 10
150.4462511368
 20
149.5103257421
 11
150.5143362351
 21
149.6103257421
  0
LINE
  5
440
100
AcDbEntity
  8
0
100
AcDbLine
 62
7
  6
CONTINUOUS
 10
151.6377405234
 20
150.5769924406
 11
151.5696554251
 21
150.4769924406
  0
LINE
  5
441
100
AcDbEntity
  8
0
100
AcDbLine
 62
7
  6
CONTINUOUS
 10
151.0590171166
 20
149.0769923452
 11
150.9909320183
 21
148.9769923452
  0
LINE
  5
442
100
AcDbEntity
  8
0
100
AcDbLine
 62
7
  6
CONTINUOUS
 10
151.6377405234
 20
149.1103257421
 11
151.5696554251
 21
149.0103257421
  0
LINE
  5
443
100
AcDbEntity
  8
0
100
AcDbLine
 62
7
  6
CONTINUOUS
 10
118.8566208632
 20
111.8486215049
 11
119.0189633022
 21
111.9026916802
  0
LINE
  5
444
100
AcDbEntity
  8
0
100
AcDbLine
 62
7
  6
CONTINUOUS
 10
118.8566208632
 20
101.2386965824
 11
119.0189633022
 21
101.1846264071
  0
LINE
  5
445
100
AcDbEntity
  8
SUPERFICI
100
AcDbLine
 62
7
  6
CONTINUOUS
 10
151.1003639814
 20
65.3723697376
 11
151.0871263047
 21
65.3877201222
  0
LINE
  5
446
100
AcDbEntity
  8
0
100
AcDbLine
 62
253
  6
CONTINUOUS
 10
150.9128765488
 20
43.0444910877
 11
151.1312943602
 21
42.60835292
  0
LINE
  5
447
100
AcDbEntity
  8
0
100
AcDbLine
 62
253
  6
CONTINUOUS
 10
151.0756406866
 20
43.1030584415
 11
151.2940545066
 21
42.6660357381
  0
LWPOLYLINE
  5
448
100
AcDbEntity
  8
0
100
AcDbPolyline
 62
253
  6
CONTINUOUS
 90
19
 70
0
 10
151.2940545066
 20
42.6660357381
 10
151.3074394179
 20
42.6361419298
 10
151.3180717524
 20
42.6050588861
 10
151.3259515101
 20
42.5727868238
 10
151.3311915472
 20
42.5391216836
 10
151.3336790074
 20
42.5042680122
 10
151.3330753221
 20
42.4688388254
 10
151.3293077312
 20
42.4327326157
 10
151.3224489947
 20
42.3960511551
 10
151.3123788249
 20
42.3597120637
 10
151.2989609724
 20
42.3236641513
 10
151.2823316865
 20
42.2879584816
 10
151.2627794267
 20
42.2536656382
 10
151.2401519982
 20
42.2208198696
 10
151.2146015958
 20
42.1893863732
 10
151.1868732628
 20
42.1603317704
 10
151.157215347
 20
42.1339779318
 10
151.1253795008
 20
42.1100021762
 10
151.0913657239
 20
42.088404167
  0
LWPOLYLINE
  5
449
100
AcDbEntity
  8
0
100
AcDbPolyline
 62
7
  6
CONTINUOUS
 90
27
 70
0
 10
135.562717442
 20
43.6428030437
 10
135.5660810616
 20
43.6121418038
 10
135.5664406624
 20
43.580880013
 10
135.5637962443
 20
43.5490177772
 10
135.5582065211
 20
43.5161058576
 10
135.5496127791
 20
43.4825937666
 10
135.5378388771
 20
43.4498294948
 10
135.5225876201
 20
43.4178240059
 10
135.5041562031
 20
43.3865660767
 10
135.4832600707
 20
43.3573699496
 10
135.4596359525
 20
43.3304645363
 10
135.4335471188
 20
43.3056202669
 10
135.4064988247
 20
43.2834633842
 10
135.3787590681
 20
43.2643750556
 10
135.3500598511
 20
43.2479734708
 10
135.3211024358
 20
43.2337404257
 10
135.2919789472
 20
43.2216707195
 10
135.2625972603
 20
43.2117692359
 10
135.2333822619
 20
43.2035330128
 10
135.2044377119
 20
43.1969386309
 10
135.1756598503
 20
43.1920093722
 10
135.1471622842
 20
43.1883123895
 10
135.1190338403
 20
43.1858819967
 10
135.0911856918
 20
43.1846838373
 10
135.0634649649
 20
43.1841820875
 10
135.0358601049
 20
43.1844309076
 10
134.9259947787
 20
43.1882058043
  0
LINE
  5
44A
100
AcDbEntity
  8
0
100
AcDbLine
 62
253
  6
CONTINUOUS
 10
128.0140831331
 20
39.2723302588
 11
128.0140831331
 21
39.1155766064
  0
LINE
  5
44B
100
AcDbEntity
  8
0
100
AcDbLine
 62
253
  6
CONTINUOUS
 10
128.341995842
 20
159.0256978488
 11
128.341995842
 21
157.5436590437
  0
LINE
  5
44C
100
AcDbEntity
  8
0
100
AcDbLine
 62
253
  6
CONTINUOUS
 10
128.341995842
 20
112.5436590437
 11
128.341995842
 21
111.0616202385
  0
LINE
  5
44D
100
AcDbEntity
  8
0
100
AcDbLine
 62
253
  6
CONTINUOUS
 10
128.341995842
 20
102.0256978488
 11
128.341995842
 21
100.5436590437
  0
LINE
  5
44E
100
AcDbEntity
  8
0
100
AcDbLine
 62
253
  6
CONTINUOUS
 10
128.341995842
 20
55.5436590437
 11
128.341995842
 21
54.0616202385
  0
LINE
  5
44F
100
AcDbEntity
  8
0
100
AcDbLine
 62
7
  6
CONTINUOUS
 10
129.841995842
 20
174.0436590437
 11
129.841995842
 21
173.2786228829
  0
LINE
  5
450
100
AcDbEntity
  8
0
100
AcDbLine
 62
7
  6
CONTINUOUS
 10
129.841995842
 20
39.8086952044
 11
129.841995842
 21
39.0436590437
  0
LINE
  5
451
100
AcDbEntity
  8
0
100
AcDbLine
 62
7
  6
CONTINUOUS
 10
130.541995842
 20
39.0436590437
 11
130.541995842
 21
39.8086952044
  0
LINE
  5
452
100
AcDbEntity
  8
0
100
AcDbLine
 62
7
  6
CONTINUOUS
 10
130.541995842
 20
173.2786228829
 11
130.541995842
 21
174.0436590437
  0
LINE
  5
453
100
AcDbEntity
  8
0
100
AcDbLine
 62
7
  6
CONTINUOUS
 10
151.7058256335
 20
150.3769924406
 11
151.8079532899
 21
150.5436590437
  0
LINE
  5
454
100
AcDbEntity
  8
0
100
AcDbLine
 62
7
  6
CONTINUOUS
 10
151.1271022148
 20
148.8769923452
 11
151.2292298622
 21
149.0436590437
  0
LINE
  5
455
100
AcDbEntity
  8
0
100
AcDbLine
 62
7
  6
CONTINUOUS
 10
151.7058256335
 20
148.9103257421
 11
151.8079532899
 21
149.0769923452
  0
LINE
  5
456
100
AcDbEntity
  8
0
100
AcDbLine
 62
7
  6
CONTINUOUS
 10
117.9619401024
 20
102.0636033041
 11
117.841995842
 21
101.9436590437
  0
LINE
  5
457
100
AcDbEntity
  8
0
100
AcDbLine
 62
7
  6
CONTINUOUS
 10
123.1977647724
 20
101.1673891689
 11
123.1506603003
 21
101.1202846968
  0
LINE
  5
458
100
AcDbEntity
  8
0
100
AcDbLine
 62
7
  6
CONTINUOUS
 10
134.0052825618
 20
111.0253384644
 11
134.0778682254
 21
111.0616202385
  0
LINE
  5
459
100
AcDbEntity
  8
DRAFT
100
AcDbLine
 62
7
  6
CONTINUOUS
 10
143.341995842
 20
100.5436590437
 11
128.341995842
 21
100.5436590437
  0
LINE
  5
45A
100
AcDbEntity
  8
RACCORDO
100
AcDbLine
 62
7
  6
CONTINUOUS
 10
128.341995842
 20
100.5436590437
 11
125.391995842
 21
100.5436590437
  0
LINE
  5
45B
100
AcDbEntity
  8
RACCORDO
100
AcDbLine
 62
7
  6
CONTINUOUS
 10
143.341995842
 20
100.5436590437
 11
146.291995842
 21
100.5436590437
  0
LINE
  5
45C
100
AcDbEntity
  8
0
100
AcDbLine
 62
7
  6
CONTINUOUS
 10
153.5220820425
 20
101.1202846968
 11
148.5333313837
 21
101.1202846968
  0
LINE
  5
45D
100
AcDbEntity
  8
0
100
AcDbLine
 62
7
  6
CONTINUOUS
 10
118.1619096415
 20
101.1202846968
 11
123.1506603003
 21
101.1202846968
  0
LINE
  5
45E
100
AcDbEntity
  8
0
100
AcDbLine
 62
7
  6
CONTINUOUS
 10
117.841995842
 20
101.2436590437
 11
118.5570320028
 21
101.2436590437
  0
LINE
  5
45F
100
AcDbEntity
  8
0
100
AcDbLine
 62
7
  6
CONTINUOUS
 10
153.1269596812
 20
101.2436590437
 11
153.841995842
 21
101.2436590437
  0
LINE
  5
460
100
AcDbEntity
  8
0
100
AcDbLine
 62
7
  6
CONTINUOUS
 10
134.0052825618
 20
102.0619796229
 11
134.0778682254
 21
102.0256978488
  0
LINE
  5
461
100
AcDbEntity
  8
0
100
AcDbLine
 62
7
  6
CONTINUOUS
 10
117.9619401024
 20
111.0237147832
 11
117.841995842
 21
111.1436590437
  0
LINE
  5
462
100
AcDbEntity
  8
0
100
AcDbLine
 62
7
  6
CONTINUOUS
 10
123.1977647724
 20
111.9199289184
 11
123.1506603003
 21
111.9670333905
  0
LWPOLYLINE
  5
463
100
AcDbEntity
  8
0
100
AcDbPolyline
 62
253
  6
CONTINUOUS
 90
19
 70
0
 10
151.1312944751
 20
42.6083529827
 10
151.1369591113
 20
42.5930995432
 10
151.1412091196
 20
42.5769670459
 10
151.1439657707
 20
42.5600394102
 10
151.1451428127
 20
42.5424142313
 10
151.144686945
 20
42.5241891048
 10
151.1425705977
 20
42.5054601356
 10
151.1387160852
 20
42.4863140807
 10
151.1330866925
 20
42.4669103265
 10
151.1257317042
 20
42.447464635
 10
151.1166087946
 20
42.4280917346
 10
151.1057305981
 20
42.4089621972
 10
151.0932774611
 20
42.3903719402
 10
151.0792737912
 20
42.3724445174
 10
151.0637861889
 20
42.3553281408
 10
151.0471227061
 20
42.3393228917
 10
151.0294656325
 20
42.3245833106
 10
151.0108433056
 20
42.31113898
 10
150.9913695316
 20
42.2990675219
  0
LWPOLYLINE
  5
464
100
AcDbEntity
  8
0
100
AcDbPolyline
 62
7
  6
CONTINUOUS
 90
25
 70
0
 10
134.0355469281
 20
51.3436558153
 10
134.0363254479
 20
51.3239608419
 10
134.038396005
 20
51.3043558055
 10
134.0417492693
 20
51.284925154
 10
134.0463705851
 20
51.2657540772
 10
134.0522392908
 20
51.2469232841
 10
134.0593298548
 20
51.2285089671
 10
134.0676144776
 20
51.210586202
 10
134.0770565147
 20
51.1932366172
 10
134.087608852
 20
51.17654248
 10
134.0992236576
 20
51.1605765795
 10
134.1118513849
 20
51.1454044217
 10
134.1254337957
 20
51.1310913574
 10
134.1399114267
 20
51.1176974237
 10
134.1552214968
 20
51.1052782924
 10
134.1712948214
 20
51.0938861885
 10
134.1880630484
 20
51.0835670717
 10
134.20545265
 20
51.0743638823
 10
134.2233818236
 20
51.0663160062
 10
134.2417610867
 20
51.0594584914
 10
134.2605230925
 20
51.053811513
 10
134.2796180538
 20
51.0493893434
 10
134.2989761497
 20
51.0462119537
 10
134.3185058515
 20
51.0442982485
 10
134.3381199097
 20
51.0436590437
  0
LWPOLYLINE
  5
465
100
AcDbEntity
  8
0
100
AcDbPolyline
 62
253
  6
CONTINUOUS
 90
25
 70
0
 10
133.7357296581
 20
51.3157279439
 10
133.7372056196
 20
51.2759523564
 10
133.7412051406
 20
51.2366933101
 10
133.7477282208
 20
51.1979507527
 10
133.7568241082
 20
51.1595667355
 10
133.7684435548
 20
51.1216991155
 10
133.7824388181
 20
51.0848214967
 10
133.7988447451
 20
51.0489386074
 10
133.8176264886
 20
51.0140455168
 10
133.8385317639
 20
50.980601244
 10
133.8615867509
 20
50.9486299714
 10
133.8867652697
 20
50.9181072398
 10
133.9137364953
 20
50.8894190308
 10
133.9425226655
 20
50.8625900371
 10
133.9731015426
 20
50.8375952624
 10
134.0050755886
 20
50.8147461099
 10
134.0384661933
 20
50.7940699071
 10
134.073251967
 20
50.7755390438
 10
134.1089712014
 20
50.7593825004
 10
134.1456124371
 20
50.7456347647
 10
134.1831871336
 20
50.7342611317
 10
134.2212679622
 20
50.7253867998
 10
134.2597124799
 20
50.7190534613
 10
134.2986631298
 20
50.7152193068
 10
134.3381199117
 20
50.7138843069
  0
LINE
  5
466
100
AcDbEntity
  8
0
100
AcDbLine
 62
7
  6
CONTINUOUS
 10
134.2283968624
 20
51.8364961454
 11
134.2280280661
 21
51.8471496579
  0
LINE
  5
467
100
AcDbEntity
  8
0
100
AcDbLine
 62
7
  6
CONTINUOUS
 10
134.2283968624
 20
108.8364961454
 11
134.2280280661
 21
108.8471496579
  0
LWPOLYLINE
  5
468
100
AcDbEntity
  8
0
100
AcDbPolyline
 62
253
  6
CONTINUOUS
 90
25
 70
0
 10
133.7054653137
 20
108.1067630116
 10
133.7068044986
 20
108.0672237425
 10
133.7106478993
 20
108.0282042135
 10
133.7169955158
 20
107.9897044246
 10
133.7258945818
 20
107.9515724437
 10
133.7372978636
 20
107.913960203
 10
133.7510636604
 20
107.8773234982
 10
133.7672239566
 20
107.8416655176
 10
133.7857467678
 20
107.8069830731
 10
133.8063944401
 20
107.7737223957
 10
133.8291918915
 20
107.741904705
 10
133.8541142039
 20
107.7115087816
 10
133.8808489686
 20
107.6829171976
 10
133.9094190013
 20
107.6561514592
 10
133.9398014862
 20
107.6311900602
 10
133.9716155672
 20
107.6083510544
 10
134.004885111
 20
107.5876592306
 10
134.0395862509
 20
107.5690897999
 10
134.075266531
 20
107.5528864496
 10
134.111919778
 20
107.539082738
 10
134.1495521651
 20
107.5276451067
 10
134.1877297555
 20
107.5187165676
 10
134.2263079036
 20
107.5123447914
 10
134.2654312551
 20
107.5084821073
 10
134.3050998099
 20
107.5071285154
  0
LWPOLYLINE
  5
469
100
AcDbEntity
  8
0
100
AcDbPolyline
 62
253
  6
CONTINUOUS
 90
25
 70
0
 10
134.0052825581
 20
108.106759056
 10
134.0059026147
 20
108.0870964428
 10
134.0078071548
 20
108.0675301826
 10
134.0109861503
 20
108.0481436984
 10
134.0154231184
 20
108.0290227501
 10
134.021097889
 20
108.0102451288
 10
134.0279889107
 20
107.9918809815
 10
134.0360691607
 20
107.974004459
 10
134.0453027637
 20
107.9566964938
 10
134.0556486219
 20
107.9400345882
 10
134.0670609664
 20
107.9240913274
 10
134.0794916612
 20
107.9089327165
 10
134.0928889743
 20
107.8946217073
 10
134.1071960206
 20
107.8812192855
 10
134.1223514959
 20
107.8687829113
 10
134.138291754
 20
107.8573649543
 10
134.1549509741
 20
107.8470133978
 10
134.1722563425
 20
107.8377741328
 10
134.1901287795
 20
107.829688869
 10
134.2084810769
 20
107.8227952187
 10
134.2272448932
 20
107.8171169498
 10
134.2463675578
 20
107.8126717487
 10
134.2657778182
 20
107.8094820511
 10
134.2853843813
 20
107.8075689987
 10
134.3051036064
 20
107.8069457672
  0
LINE
  5
46A
100
AcDbEntity
  8
0
100
AcDbLine
 62
253
  6
CONTINUOUS
 10
134.9377541851
 20
50.7138843069
 11
134.9400964775
 21
50.0614643942
  0
LINE
  5
46B
100
AcDbEntity
  8
0
100
AcDbLine
 62
253
  6
CONTINUOUS
 10
135.2365517388
 20
51.0410246182
 11
135.2388246536
 21
50.3903315413
  0
LINE
  5
46C
100
AcDbEntity
  8
0
100
AcDbLine
 62
253
  6
CONTINUOUS
 10
134.0335233037
 20
51.9874052742
 11
134.0355469162
 21
51.3436558153
  0
LINE
  5
46D
100
AcDbEntity
  8
0
100
AcDbLine
 62
253
  6
CONTINUOUS
 10
133.7282132332
 20
54.0316663919
 11
133.7357296581
 21
51.3157279439
  0
LINE
  5
46E
100
AcDbEntity
  8
0
100
AcDbLine
 62
253
  6
CONTINUOUS
 10
134.0317313613
 20
52.5989413495
 11
134.0335233037
 21
51.9874052742
  0
LINE
  5
46F
100
AcDbEntity
  8
0
100
AcDbLine
 62
253
  6
CONTINUOUS
 10
134.0294179586
 20
53.4706835172
 11
134.0317313613
 21
52.5989413495
  0
LINE
  5
470
100
AcDbEntity
  8
0
100
AcDbLine
 62
253
  6
CONTINUOUS
 10
134.0280638103
 20
54.0367256181
 11
134.0294179586
 21
53.4706835172
  0
LINE
  5
471
100
AcDbEntity
  8
0
100
AcDbLine
 62
7
  6
CONTINUOUS
 10
132.1670185149
 20
38.5436590437
 11
132.1670185149
 21
39.0436590437
  0
LINE
  5
472
100
AcDbEntity
  8
0
100
AcDbLine
 62
7
  6
CONTINUOUS
 10
132.341995842
 20
39.0785691735
 11
132.341995842
 21
37.6484189157
  0
LINE
  5
473
100
AcDbEntity
  8
0
100
AcDbLine
 62
7
  6
CONTINUOUS
 10
133.191076842
 20
43.1900910437
 11
133.191076842
 21
42.8838040437
  0
LINE
  5
474
100
AcDbEntity
  8
0
100
AcDbLine
 62
7
  6
CONTINUOUS
 10
133.513297842
 20
43.7534070437
 11
133.513297842
 21
43.1900910437
  0
LINE
  5
475
100
AcDbEntity
  8
0
100
AcDbLine
 62
7
  6
CONTINUOUS
 10
133.513297842
 20
42.8838040437
 11
133.513297842
 21
41.8596100437
  0
LINE
  5
476
100
AcDbEntity
  8
0
100
AcDbLine
 62
253
  6
CONTINUOUS
 10
133.7054653137
 20
111.0202846968
 11
133.7054653137
 21
108.1067630116
  0
LINE
  5
477
100
AcDbEntity
  8
0
100
AcDbLine
 62
253
  6
CONTINUOUS
 10
133.7054653137
 20
102.0670333905
 11
133.7054653137
 21
104.7436590437
  0
LINE
  5
478
100
AcDbEntity
  8
0
100
AcDbLine
 62
7
  6
CONTINUOUS
 10
133.819585842
 20
41.8596100437
 11
133.819585842
 21
44.2648650437
  0
LINE
  5
479
100
AcDbEntity
  8
0
100
AcDbLine
 62
253
  6
CONTINUOUS
 10
134.0052825618
 20
111.0253384644
 11
134.0052825618
 21
108.1067590598
  0
LINE
  5
47A
100
AcDbEntity
  8
0
100
AcDbLine
 62
253
  6
CONTINUOUS
 10
134.0052825618
 20
102.0619796229
 11
134.0052825618
 21
104.7436559173
  0
LINE
  5
47B
100
AcDbEntity
  8
0
100
AcDbLine
 62
7
  6
CONTINUOUS
 10
134.0778682254
 20
161.202642765
 11
134.0778682254
 21
159.0256978488
  0
LINE
  5
47C
100
AcDbEntity
  8
0
100
AcDbLine
 62
7
  6
CONTINUOUS
 10
134.0778682254
 20
111.0616202385
 11
134.0778682254
 21
108.8846753223
  0
LINE
  5
47D
100
AcDbEntity
  8
0
100
AcDbLine
 62
7
  6
CONTINUOUS
 10
134.0778682254
 20
104.202642765
 11
134.0778682254
 21
102.0256978488
  0
LINE
  5
47E
100
AcDbEntity
  8
0
100
AcDbLine
 62
7
  6
CONTINUOUS
 10
134.0778682254
 20
54.0616202385
 11
134.0778682254
 21
51.8846753223
  0
LINE
  5
47F
100
AcDbEntity
  8
0
100
AcDbLine
 62
7
  6
CONTINUOUS
 10
134.135375042
 20
44.2648646437
 11
134.135375042
 21
43.9585774437
  0
LINE
  5
480
100
AcDbEntity
  8
0
100
AcDbLine
 62
7
  6
CONTINUOUS
 10
134.2283968624
 20
161.7574407751
 11
134.2283968624
 21
161.2508219419
  0
LINE
  5
481
100
AcDbEntity
  8
0
100
AcDbLine
 62
7
  6
CONTINUOUS
 10
134.2283968624
 20
108.8364961454
 11
134.2283968624
 21
108.3298773122
  0
LINE
  5
482
100
AcDbEntity
  8
0
100
AcDbLine
 62
7
  6
CONTINUOUS
 10
134.2283968624
 20
104.7436590437
 11
134.2283968624
 21
104.2508219419
  0
LINE
  5
483
100
AcDbEntity
  8
0
100
AcDbLine
 62
7
  6
CONTINUOUS
 10
134.2283968624
 20
51.8364961454
 11
134.2283968624
 21
51.3436590437
  0
LINE
  5
484
100
AcDbEntity
  8
0
100
AcDbLine
 62
253
  6
CONTINUOUS
 10
134.3050998099
 20
107.5071285154
 11
134.3050998099
 21
107.8069457635
  0
LINE
  5
485
100
AcDbEntity
  8
0
100
AcDbLine
 62
253
  6
CONTINUOUS
 10
134.3058310403
 20
105.0436590437
 11
134.3058310403
 21
105.3436590437
  0
LINE
  5
486
100
AcDbEntity
  8
0
100
AcDbLine
 62
253
  6
CONTINUOUS
 10
134.3381050908
 20
162.5775844056
 11
134.3381050908
 21
162.247367043
  0
LINE
  5
487
100
AcDbEntity
  8
0
100
AcDbLine
 62
253
  6
CONTINUOUS
 10
134.3381199117
 20
50.7138843069
 11
134.3381199117
 21
51.0436590437
  0
LINE
  5
488
100
AcDbEntity
  8
0
100
AcDbLine
 62
7
  6
CONTINUOUS
 10
134.631657036
 20
162.0436590437
 11
134.631657036
 21
161.6436590437
  0
LINE
  5
489
100
AcDbEntity
  8
0
100
AcDbLine
 62
7
  6
CONTINUOUS
 10
134.631657036
 20
108.4436590437
 11
134.631657036
 21
108.0436590437
  0
LINE
  5
48A
100
AcDbEntity
  8
0
100
AcDbLine
 62
7
  6
CONTINUOUS
 10
134.631657036
 20
105.0436590437
 11
134.631657036
 21
104.6436590437
  0
LINE
  5
48B
100
AcDbEntity
  8
0
100
AcDbLine
 62
7
  6
CONTINUOUS
 10
134.631657036
 20
51.4436590437
 11
134.631657036
 21
51.0436590437
  0
LINE
  5
48C
100
AcDbEntity
  8
0
100
AcDbLine
 62
253
  6
CONTINUOUS
 10
134.9054653137
 20
107.5071285154
 11
134.9054653137
 21
107.084583205
  0
LINE
  5
48D
100
AcDbEntity
  8
0
100
AcDbLine
 62
253
  6
CONTINUOUS
 10
134.9054653137
 20
106.0027348823
 11
134.9054653137
 21
105.3436590437
  0
LINE
  5
48E
100
AcDbEntity
  8
0
100
AcDbLine
 62
7
  6
CONTINUOUS
 10
134.974441842
 20
167.4956220437
 11
134.974441842
 21
168.2464390437
  0
LINE
  5
48F
100
AcDbEntity
  8
0
100
AcDbLine
 62
7
  6
CONTINUOUS
 10
134.974441842
 20
171.8408790437
 11
134.974441842
 21
172.5916960437
  0
LINE
  5
490
100
AcDbEntity
  8
0
100
AcDbLine
 62
7
  6
CONTINUOUS
 10
134.991995842
 20
51.8846753223
 11
134.991995842
 21
54.0616202385
  0
LINE
  5
491
100
AcDbEntity
  8
0
100
AcDbLine
 62
7
  6
CONTINUOUS
 10
134.991995842
 20
102.0256978488
 11
134.991995842
 21
104.202642765
  0
LINE
  5
492
100
AcDbEntity
  8
0
100
AcDbLine
 62
7
  6
CONTINUOUS
 10
134.991995842
 20
108.8846753223
 11
134.991995842
 21
111.0616202385
  0
LINE
  5
493
100
AcDbEntity
  8
0
100
AcDbLine
 62
7
  6
CONTINUOUS
 10
134.991995842
 20
159.0256978488
 11
134.991995842
 21
161.202642765
  0
LINE
  5
494
100
AcDbEntity
  8
0
100
AcDbLine
 62
7
  6
CONTINUOUS
 10
135.0333313837
 20
102.0670333905
 11
135.0333313837
 21
104.1819765682
  0
LINE
  5
495
100
AcDbEntity
  8
0
100
AcDbLine
 62
7
  6
CONTINUOUS
 10
135.0333313837
 20
108.9053415191
 11
135.0333313837
 21
111.0202846968
  0
LINE
  5
496
100
AcDbEntity
  8
0
100
AcDbLine
 62
253
  6
CONTINUOUS
 10
135.2052825618
 20
107.8069457635
 11
135.2052825618
 21
107.3844004531
  0
LINE
  5
497
100
AcDbEntity
  8
0
100
AcDbLine
 62
253
  6
CONTINUOUS
 10
135.2052825618
 20
105.7029176342
 11
135.2052825618
 21
105.0438417956
  0
LINE
  5
498
100
AcDbEntity
  8
0
100
AcDbLine
 62
7
  6
CONTINUOUS
 10
135.441995842
 20
162.6436590437
 11
135.441995842
 21
162.0436590437
  0
LINE
  5
499
100
AcDbEntity
  8
0
100
AcDbLine
 62
7
  6
CONTINUOUS
 10
135.441995842
 20
108.0436590437
 11
135.441995842
 21
107.4436590437
  0
LINE
  5
49A
100
AcDbEntity
  8
0
100
AcDbLine
 62
7
  6
CONTINUOUS
 10
135.441995842
 20
105.6436590437
 11
135.441995842
 21
105.0436590437
  0
LINE
  5
49B
100
AcDbEntity
  8
0
100
AcDbLine
 62
7
  6
CONTINUOUS
 10
135.441995842
 20
50.4436590437
 11
135.441995842
 21
51.0436590437
  0
LINE
  5
49C
100
AcDbEntity
  8
0
100
AcDbLine
 62
7
  6
CONTINUOUS
 10
136.241995842
 20
162.6436590437
 11
136.241995842
 21
162.0436590437
  0
LINE
  5
49D
100
AcDbEntity
  8
0
100
AcDbLine
 62
7
  6
CONTINUOUS
 10
136.241995842
 20
50.4436590437
 11
136.241995842
 21
51.0436590437
  0
LINE
  5
49E
100
AcDbEntity
  8
0
100
AcDbLine
 62
7
  6
CONTINUOUS
 10
136.241995842
 20
105.0436590437
 11
136.241995842
 21
105.6436590437
  0
LINE
  5
49F
100
AcDbEntity
  8
0
100
AcDbLine
 62
7
  6
CONTINUOUS
 10
136.241995842
 20
107.4436590437
 11
136.241995842
 21
108.0436590437
  0
LINE
  5
4A0
100
AcDbEntity
  8
0
100
AcDbLine
 62
7
  6
CONTINUOUS
 10
136.244541842
 20
44.2723110437
 11
136.244541842
 21
41.8716040437
  0
LINE
  5
4A1
100
AcDbEntity
  8
0
100
AcDbLine
 62
253
  6
CONTINUOUS
 10
136.4787091222
 20
105.0438417956
 11
136.4787091222
 21
105.7029176342
  0
LINE
  5
4A2
100
AcDbEntity
  8
0
100
AcDbLine
 62
253
  6
CONTINUOUS
 10
136.4787091222
 20
107.3844004531
 11
136.4787091222
 21
107.8069457635
  0
LINE
  5
4A3
100
AcDbEntity
  8
0
100
AcDbLine
 62
7
  6
CONTINUOUS
 10
136.550828842
 20
41.8716040437
 11
136.550828842
 21
44.2723110437
  0
LINE
  5
4A4
100
AcDbEntity
  8
0
100
AcDbLine
 62
253
  6
CONTINUOUS
 10
133.7364098661
 20
161.978174456
 11
133.7282132332
 21
159.0556516954
  0
LINE
  5
4A5
100
AcDbEntity
  8
0
100
AcDbLine
 62
253
  6
CONTINUOUS
 10
134.036227104
 20
161.9496072764
 11
134.0280638103
 21
159.0505924692
  0
LINE
  5
4A6
100
AcDbEntity
  8
0
100
AcDbLine
 62
253
  6
CONTINUOUS
 10
135.2388246588
 20
162.6969865285
 11
135.2372464686
 21
162.2499021974
  0
LINE
  5
4A7
100
AcDbEntity
  8
0
100
AcDbLine
 62
253
  6
CONTINUOUS
 10
134.9400964775
 20
163.0258536931
 11
134.9384705946
 21
162.5775844056
  0
LINE
  5
4A8
100
AcDbEntity
  8
0
100
AcDbLine
 62
7
  6
CONTINUOUS
 10
134.2280280661
 20
161.2401684295
 11
134.2283968624
 21
161.2508219419
  0
LINE
  5
4A9
100
AcDbEntity
  8
0
100
AcDbLine
 62
7
  6
CONTINUOUS
 10
134.2280280661
 20
104.2401684295
 11
134.2283968624
 21
104.2508219419
  0
LWPOLYLINE
  5
4AA
100
AcDbEntity
  8
0
100
AcDbPolyline
 62
7
  6
CONTINUOUS
 90
22
 70
0
 10
134.005282561
 20
104.7436559173
 10
134.0061277035
 20
104.7661397392
 10
134.0086551417
 20
104.7884749699
 10
134.0128457331
 20
104.8105367912
 10
134.0186690504
 20
104.8321954801
 10
134.0260887983
 20
104.8533386183
 10
134.0350682882
 20
104.8738699199
 10
134.0455612888
 20
104.8936813411
 10
134.0575065749
 20
104.9126554539
 10
134.0708370679
 20
104.930686336
 10
134.0854777787
 20
104.9476725822
 10
134.1013477658
 20
104.9635204267
 10
134.1183606374
 20
104.9781436013
 10
134.1364230864
 20
104.9914606194
 10
134.1554340733
 20
105.0033958427
 10
134.1752873167
 20
105.0138820639
 10
134.1958666713
 20
105.0228578062
 10
134.2170632157
 20
105.030275485
 10
134.2387767023
 20
105.0360972555
 10
134.2608931535
 20
105.0402867284
 10
134.2832839552
 20
105.0428136933
 10
134.3058241031
 20
105.0436590436
  0
LWPOLYLINE
  5
4AB
100
AcDbEntity
  8
0
100
AcDbPolyline
 62
253
  6
CONTINUOUS
 90
22
 70
0
 10
133.7054653137
 20
104.7436590437
 10
133.7072477644
 20
104.7890254029
 10
133.7122831262
 20
104.8336051474
 10
133.7205713992
 20
104.8773982772
 10
133.7321946093
 20
104.9206250469
 10
133.7470707305
 20
104.9630652019
 10
133.7649536848
 20
105.0040579788
 10
133.7858938798
 20
105.0435936958
 10
133.8098409079
 20
105.0816820348
 10
133.8363974687
 20
105.117691278
 10
133.8656049709
 20
105.1515857878
 10
133.8974220059
 20
105.1834012018
 10
133.9313270471
 20
105.212612715
 10
133.9673566161
 20
105.2391793099
 10
134.0054741913
 20
105.2631420039
 10
134.045048682
 20
105.2840990438
 10
134.0860918593
 20
105.3020002157
 10
134.1285919521
 20
105.3168957336
 10
134.171882557
 20
105.3285344864
 10
134.2157415394
 20
105.3368327705
 10
134.2603910338
 20
105.3418742896
 10
134.3058310403
 20
105.3436590437
  0
LINE
  5
4AC
100
AcDbEntity
  8
0
100
AcDbLine
 62
7
  6
CONTINUOUS
 10
150.4122085877
 20
152.3436590437
 11
150.4462511368
 21
152.4436590437
  0
LINE
  5
4AD
100
AcDbEntity
  8
0
100
AcDbLine
 62
7
  6
CONTINUOUS
 10
150.4122085877
 20
150.8769924406
 11
150.4462511368
 21
150.9769924406
  0
LINE
  5
4AE
100
AcDbEntity
  8
0
100
AcDbLine
 62
7
  6
CONTINUOUS
 10
150.9909320183
 20
152.3769922498
 11
151.0249745674
 21
152.4769922498
  0
LINE
  5
4AF
100
AcDbEntity
  8
0
100
AcDbLine
 62
7
  6
CONTINUOUS
 10
150.4122085877
 20
149.4103257421
 11
150.4462511368
 21
149.5103257421
  0
LINE
  5
4B0
100
AcDbEntity
  8
0
100
AcDbLine
 62
7
  6
CONTINUOUS
 10
150.9909320183
 20
150.9103256467
 11
151.0249745674
 21
151.0103256467
  0
LINE
  5
4B1
100
AcDbEntity
  8
0
100
AcDbLine
 62
7
  6
CONTINUOUS
 10
151.6717830725
 20
152.1436590437
 11
151.6377405234
 21
152.0436590437
  0
LINE
  5
4B2
100
AcDbEntity
  8
0
100
AcDbLine
 62
7
  6
CONTINUOUS
 10
151.0930596657
 20
149.1769923452
 11
151.0590171166
 21
149.0769923452
  0
LWPOLYLINE
  5
4B3
100
AcDbEntity
  8
0
100
AcDbPolyline
 62
7
  6
CONTINUOUS
 90
6
 70
0
 10
135.2052825618
 20
107.8069457635
 10
135.2033792499
 20
107.8047156156
 10
135.1995627088
 20
107.8009643684
 10
135.1940288202
 20
107.7956920218
 10
135.1869891295
 20
107.7887358889
 10
135.1786306377
 20
107.7802586566
  0
LWPOLYLINE
  5
4B4
100
AcDbEntity
  8
0
100
AcDbPolyline
 62
7
  6
CONTINUOUS
 90
6
 70
0
 10
135.2052825618
 20
107.3844004531
 10
135.2033792499
 20
107.3821703053
 10
135.1995627088
 20
107.378419058
 10
135.1940288202
 20
107.3731467115
 10
135.1869891295
 20
107.3661905785
 10
135.1786306377
 20
107.3577133462
  0
LINE
  5
4B5
100
AcDbEntity
  8
0
100
AcDbLine
 62
7
  6
CONTINUOUS
 10
136.691995842
 20
111.0616202385
 11
136.6506603003
 21
111.0202846968
  0
LINE
  5
4B6
100
AcDbEntity
  8
0
100
AcDbLine
 62
253
  6
CONTINUOUS
 10
134.2283968624
 20
108.3298773122
 11
134.0052825618
 21
108.1067590598
  0
LINE
  5
4B7
100
AcDbEntity
  8
0
100
AcDbLine
 62
253
  6
CONTINUOUS
 10
134.5386775816
 20
108.0405235352
 11
134.3051036028
 21
107.8069457635
  0
LINE
  5
4B8
100
AcDbEntity
  8
0
100
AcDbLine
 62
7
  6
CONTINUOUS
 10
135.2052825618
 20
107.8069457635
 11
135.441995842
 21
108.0436590437
  0
LWPOLYLINE
  5
4B9
100
AcDbEntity
  8
0
100
AcDbPolyline
 62
7
  6
CONTINUOUS
 90
3
 70
0
 10
135.1470908842
 20
107.7487345148
 10
134.9373925125
 20
107.5391258319
 10
134.9054653137
 20
107.5071285154
  0
LWPOLYLINE
  5
4BA
100
AcDbEntity
  8
0
100
AcDbPolyline
 62
7
  6
CONTINUOUS
 90
3
 70
0
 10
135.1470908842
 20
107.3261892045
 10
134.9373925125
 20
107.1165805215
 10
134.9054653137
 20
107.084583205
  0
LWPOLYLINE
  5
4BB
100
AcDbEntity
  8
0
100
AcDbPolyline
 62
7
  6
CONTINUOUS
 90
3
 70
0
 10
135.1786306377
 20
107.7802586566
 10
135.1585210784
 20
107.7602579696
 10
135.1470908842
 20
107.7487345148
  0
LWPOLYLINE
  5
4BC
100
AcDbEntity
  8
0
100
AcDbPolyline
 62
7
  6
CONTINUOUS
 90
3
 70
0
 10
135.1786306377
 20
107.3577133462
 10
135.1585210784
 20
107.3377126592
 10
135.1470908842
 20
107.3261892045
  0
LINE
  5
4BD
100
AcDbEntity
  8
0
100
AcDbLine
 62
7
  6
CONTINUOUS
 10
137.4555948216
 20
108.8364961454
 11
137.052334648
 21
108.4436590437
  0
LINE
  5
4BE
100
AcDbEntity
  8
0
100
AcDbLine
 62
7
  6
CONTINUOUS
 10
134.2283968624
 20
104.2508219419
 11
134.631657036
 21
104.6436590437
  0
LINE
  5
4BF
100
AcDbEntity
  8
0
100
AcDbLine
 62
7
  6
CONTINUOUS
 10
134.991995842
 20
108.8846753223
 11
135.0333313837
 21
108.9053415191
  0
LINE
  5
4C0
100
AcDbEntity
  8
0
100
AcDbLine
 62
7
  6
CONTINUOUS
 10
118.8566208632
 20
101.9486215049
 11
119.0189633022
 21
102.0026916802
  0
LINE
  5
4C1
100
AcDbEntity
  8
0
100
AcDbLine
 62
7
  6
CONTINUOUS
 10
134.2280280661
 20
104.2401684295
 11
134.0778682254
 21
104.202642765
  0
LINE
  5
4C2
100
AcDbEntity
  8
0
100
AcDbLine
 62
7
  6
CONTINUOUS
 10
136.241995842
 20
105.6436590437
 11
136.4784349282
 21
105.7027463054
  0
LINE
  5
4C3
100
AcDbEntity
  8
0
100
AcDbLine
 62
7
  6
CONTINUOUS
 10
117.841995842
 20
101.9436590437
 11
118.5570320028
 21
101.9436590437
  0
LINE
  5
4C4
100
AcDbEntity
  8
0
100
AcDbLine
 62
7
  6
CONTINUOUS
 10
153.1269596812
 20
101.9436590437
 11
153.841995842
 21
101.9436590437
  0
LINE
  5
4C5
100
AcDbEntity
  8
0
100
AcDbLine
 62
7
  6
CONTINUOUS
 10
143.341995842
 20
102.0256978488
 11
137.6061234586
 21
102.0256978488
  0
LINE
  5
4C6
100
AcDbEntity
  8
0
100
AcDbLine
 62
7
  6
CONTINUOUS
 10
136.691995842
 20
102.0256978488
 11
134.991995842
 21
102.0256978488
  0
LINE
  5
4C7
100
AcDbEntity
  8
0
100
AcDbLine
 62
7
  6
CONTINUOUS
 10
134.0778682254
 20
102.0256978488
 11
128.341995842
 21
102.0256978488
  0
LINE
  5
4C8
100
AcDbEntity
  8
0
100
AcDbLine
 62
7
  6
CONTINUOUS
 10
153.5220820425
 20
102.0670333905
 11
137.9785263703
 21
102.0670333905
  0
LINE
  5
4C9
100
AcDbEntity
  8
0
100
AcDbLine
 62
7
  6
CONTINUOUS
 10
136.6506603003
 20
102.0670333905
 11
135.0333313837
 21
102.0670333905
  0
LINE
  5
4CA
100
AcDbEntity
  8
0
100
AcDbLine
 62
7
  6
CONTINUOUS
 10
133.7054653137
 20
102.0670333905
 11
118.1619096415
 21
102.0670333905
  0
LINE
  5
4CB
100
AcDbEntity
  8
0
100
AcDbLine
 62
7
  6
CONTINUOUS
 10
135.0333313837
 20
104.1819765682
 11
136.6506603003
 21
104.1819765682
  0
LINE
  5
4CC
100
AcDbEntity
  8
0
100
AcDbLine
 62
7
  6
CONTINUOUS
 10
137.6061234586
 20
104.202642765
 11
136.691995842
 21
104.202642765
  0
LINE
  5
4CD
100
AcDbEntity
  8
0
100
AcDbLine
 62
7
  6
CONTINUOUS
 10
134.0778682254
 20
104.202642765
 11
134.991995842
 21
104.202642765
  0
LINE
  5
4CE
100
AcDbEntity
  8
0
100
AcDbLine
 62
7
  6
CONTINUOUS
 10
134.2280280661
 20
104.2401684295
 11
137.4559636179
 21
104.2401684295
  0
LINE
  5
4CF
100
AcDbEntity
  8
0
100
AcDbLine
 62
7
  6
CONTINUOUS
 10
134.631657036
 20
104.6436590437
 11
137.052334648
 21
104.6436590437
  0
LINE
  5
4D0
100
AcDbEntity
  8
0
100
AcDbLine
 62
253
  6
CONTINUOUS
 10
137.9785263703
 20
104.7436590437
 11
137.4555948216
 21
104.7436590437
  0
LINE
  5
4D1
100
AcDbEntity
  8
0
100
AcDbLine
 62
253
  6
CONTINUOUS
 10
134.2283968624
 20
104.7436590437
 11
133.7054653137
 21
104.7436590437
  0
LINE
  5
4D2
100
AcDbEntity
  8
0
100
AcDbLine
 62
7
  6
CONTINUOUS
 10
134.3058241114
 20
105.0436590437
 11
135.441995842
 21
105.0436590437
  0
LINE
  5
4D3
100
AcDbEntity
  8
0
100
AcDbLine
 62
7
  6
CONTINUOUS
 10
136.241995842
 20
105.0436590437
 11
137.3781606437
 21
105.0436590437
  0
LINE
  5
4D4
100
AcDbEntity
  8
0
100
AcDbLine
 62
253
  6
CONTINUOUS
 10
137.3781606437
 20
105.3436590437
 11
136.7785263703
 21
105.3436590437
  0
LINE
  5
4D5
100
AcDbEntity
  8
0
100
AcDbLine
 62
253
  6
CONTINUOUS
 10
134.3058310403
 20
105.3436590437
 11
134.9054653137
 21
105.3436590437
  0
LINE
  5
4D6
100
AcDbEntity
  8
0
100
AcDbLine
 62
7
  6
CONTINUOUS
 10
136.241995842
 20
105.6436590437
 11
135.441995842
 21
105.6436590437
  0
LINE
  5
4D7
100
AcDbEntity
  8
0
100
AcDbLine
 62
7
  6
CONTINUOUS
 10
135.2055567558
 20
105.7027463054
 11
136.4784349282
 21
105.7027463054
  0
LINE
  5
4D8
100
AcDbEntity
  8
0
100
AcDbLine
 62
253
  6
CONTINUOUS
 10
134.9054653137
 20
106.0027348823
 11
136.7785263703
 21
106.0027348823
  0
LINE
  5
4D9
100
AcDbEntity
  8
0
100
AcDbLine
 62
253
  6
CONTINUOUS
 10
136.7785263703
 20
107.084583205
 11
134.9054653137
 21
107.084583205
  0
LINE
  5
4DA
100
AcDbEntity
  8
0
100
AcDbLine
 62
7
  6
CONTINUOUS
 10
137.4559636179
 20
104.2401684295
 11
137.6061234586
 21
104.202642765
  0
LINE
  5
4DB
100
AcDbEntity
  8
0
100
AcDbLine
 62
7
  6
CONTINUOUS
 10
135.441995842
 20
105.6436590437
 11
135.2055567558
 21
105.7027463054
  0
LINE
  5
4DC
100
AcDbEntity
  8
0
100
AcDbLine
 62
7
  6
CONTINUOUS
 10
118.8566208632
 20
111.1386965824
 11
119.0189633022
 21
111.0846264071
  0
LINE
  5
4DD
100
AcDbEntity
  8
0
100
AcDbLine
 62
7
  6
CONTINUOUS
 10
134.991995842
 20
104.202642765
 11
135.0333313837
 21
104.1819765682
  0
LWPOLYLINE
  5
4DE
100
AcDbEntity
  8
0
100
AcDbPolyline
 62
7
  6
CONTINUOUS
 90
6
 70
0
 10
135.2052825618
 20
105.7029176342
 10
135.2030524139
 20
105.7048209461
 10
135.1993011667
 20
105.7086374872
 10
135.1940288202
 20
105.7141713758
 10
135.1870726872
 20
105.7212110665
 10
135.1785954549
 20
105.7295695583
  0
LINE
  5
4DF
100
AcDbEntity
  8
0
100
AcDbLine
 62
7
  6
CONTINUOUS
 10
137.4555948216
 20
104.2508219419
 11
137.052334648
 21
104.6436590437
  0
LINE
  5
4E0
100
AcDbEntity
  8
0
100
AcDbLine
 62
7
  6
CONTINUOUS
 10
134.2283968624
 20
108.8364961454
 11
134.631657036
 21
108.4436590437
  0
LINE
  5
4E1
100
AcDbEntity
  8
0
100
AcDbLine
 62
7
  6
CONTINUOUS
 10
136.691995842
 20
102.0256978488
 11
136.6506603003
 21
102.0670333905
  0
LINE
  5
4E2
100
AcDbEntity
  8
0
100
AcDbLine
 62
7
  6
CONTINUOUS
 10
135.1083611702
 20
105.1407804272
 11
134.921353667
 21
105.3276843523
  0
LWPOLYLINE
  5
4E3
100
AcDbEntity
  8
0
100
AcDbPolyline
 62
7
  6
CONTINUOUS
 90
3
 70
0
 10
135.1470713131
 20
105.7611093118
 10
134.9374626302
 20
105.9708076835
 10
134.9054653137
 20
106.0027348823
  0
LINE
  5
4E4
100
AcDbEntity
  8
0
100
AcDbLine
 62
7
  6
CONTINUOUS
 10
135.1218927374
 20
105.1271784631
 11
135.1083611702
 21
105.1407804272
  0
LINE
  5
4E5
100
AcDbEntity
  8
0
100
AcDbLine
 62
7
  6
CONTINUOUS
 10
134.921353667
 20
105.3276843523
 11
134.9054653137
 21
105.3436590437
  0
LWPOLYLINE
  5
4E6
100
AcDbEntity
  8
0
100
AcDbPolyline
 62
7
  6
CONTINUOUS
 90
3
 70
0
 10
135.1785954549
 20
105.7295695583
 10
135.1585947679
 20
105.7496791176
 10
135.1470713131
 20
105.7611093118
  0
LWPOLYLINE
  5
4E7
100
AcDbEntity
  8
0
100
AcDbPolyline
 62
7
  6
CONTINUOUS
 90
3
 70
0
 10
135.1585210784
 20
105.0905295895
 10
135.1470908842
 20
105.1020530442
 10
135.1218927374
 20
105.1271784631
  0
LWPOLYLINE
  5
4E8
100
AcDbEntity
  8
0
100
AcDbPolyline
 62
7
  6
CONTINUOUS
 90
7
 70
0
 10
135.2052825618
 20
105.0438417956
 10
135.2033792499
 20
105.0460719434
 10
135.1995627088
 20
105.0498231907
 10
135.1940288202
 20
105.0550955372
 10
135.1869891295
 20
105.0620516702
 10
135.1786306377
 20
105.0705289025
 10
135.1585210784
 20
105.0905295895
  0
LWPOLYLINE
  5
4E9
100
AcDbEntity
  8
0
100
AcDbPolyline
 62
253
  6
CONTINUOUS
 90
25
 70
0
 10
137.6477645492
 20
161.9496141086
 10
137.6470105397
 20
161.9691721389
 10
137.6449692449
 20
161.9886378096
 10
137.6416501293
 20
162.0079272448
 10
137.6370682993
 20
162.0269547557
 10
137.6312441747
 20
162.045641312
 10
137.6242019303
 20
162.0639144458
 10
137.615968882
 20
162.0816995453
 10
137.6065812695
 20
162.0989152767
 10
137.5960842604
 20
162.1154824855
 10
137.5845248022
 20
162.1313285518
 10
137.5719518103
 20
162.1463877635
 10
137.5584215084
 20
162.1605968712
 10
137.5439923324
 20
162.1738955802
 10
137.528726453
 20
162.1862275255
 10
137.5126915086
 20
162.1975415382
 10
137.495954914
 20
162.2077910364
 10
137.478589862
 20
162.2169319954
 10
137.4606776111
 20
162.2249252094
 10
137.4423067073
 20
162.2317349265
 10
137.4235448641
 20
162.2373396017
 10
137.4044435807
 20
162.2417244802
 10
137.3850733799
 20
162.2448691323
 10
137.3655253629
 20
162.2467538161
 10
137.3458823934
 20
162.247367036
  0
LWPOLYLINE
  5
4EA
100
AcDbEntity
  8
0
100
AcDbPolyline
 62
253
  6
CONTINUOUS
 90
25
 70
0
 10
137.9475818178
 20
161.978174456
 10
137.9461086803
 20
162.0177595627
 10
137.9421224441
 20
162.056827986
 10
137.9356231092
 20
162.0953797794
 10
137.9265623822
 20
162.1335701923
 10
137.9149885564
 20
162.1712440695
 10
137.9010465124
 20
162.2079359086
 10
137.8847023468
 20
162.2436418361
 10
137.8659899631
 20
162.2783659301
 10
137.8451559513
 20
162.3116547131
 10
137.8221744563
 20
162.3434852403
 10
137.7970713333
 20
162.3738807357
 10
137.7701707383
 20
162.4024570507
 10
137.7414500818
 20
162.4291907188
 10
137.7109319533
 20
162.454105513
 10
137.6790082781
 20
162.47688819
 10
137.6456567417
 20
162.4975123066
 10
137.6108996586
 20
162.516004592
 10
137.5751958973
 20
162.532131579
 10
137.5385548672
 20
162.5458590848
 10
137.5009671588
 20
162.5572215128
 10
137.4628634131
 20
162.5660882673
 10
137.4243871771
 20
162.5724158576
 10
137.3853949038
 20
162.5762478938
 10
137.3458865932
 20
162.5775844056
  0
LINE
  5
4EB
100
AcDbEntity
  8
0
100
AcDbLine
 62
7
  6
CONTINUOUS
 10
137.4555948216
 20
104.2508219419
 11
137.4559636179
 21
104.2401684295
  0
LINE
  5
4EC
100
AcDbEntity
  8
0
100
AcDbLine
 62
7
  6
CONTINUOUS
 10
137.4555948216
 20
161.2508219419
 11
137.4559636179
 21
161.2401684295
  0
LWPOLYLINE
  5
4ED
100
AcDbEntity
  8
0
100
AcDbPolyline
 62
253
  6
CONTINUOUS
 90
25
 70
0
 10
137.9785263703
 20
104.7436590437
 10
137.977188657
 20
104.78317433
 10
137.9733448047
 20
104.822177097
 10
137.9669948135
 20
104.8606673448
 10
137.9580921628
 20
104.8987974135
 10
137.9466833731
 20
104.9364149629
 10
137.9329080058
 20
104.9730629724
 10
137.9167336866
 20
105.0087387363
 10
137.8981927898
 20
105.0434449603
 10
137.8775219996
 20
105.0767327415
 10
137.8546958602
 20
105.1085810095
 10
137.8297398275
 20
105.1390108347
 10
137.8029669538
 20
105.1676365244
 10
137.7743539012
 20
105.1944364146
 10
137.7439240076
 20
105.2194321694
 10
137.712060339
 20
105.2423030875
 10
137.6787386781
 20
105.2630239663
 10
137.6439832421
 20
105.2816200084
 10
137.6082497488
 20
105.2978461217
 10
137.5715441918
 20
105.3116682036
 10
137.5338605775
 20
105.3231203566
 10
137.4956366418
 20
105.3320597956
 10
137.457018297
 20
105.3384389256
 10
137.417859631
 20
105.3423053416
 10
137.3781606437
 20
105.3436590437
  0
LWPOLYLINE
  5
4EE
100
AcDbEntity
  8
0
100
AcDbPolyline
 62
7
  6
CONTINUOUS
 90
25
 70
0
 10
137.6787091212
 20
104.7436630444
 10
137.6780648939
 20
104.7632901111
 10
137.6761365494
 20
104.7828265945
 10
137.6729335963
 20
104.8021889649
 10
137.668471818
 20
104.8212911898
 10
137.662771084
 20
104.8400553773
 10
137.6558530595
 20
104.8584114563
 10
137.6477442876
 20
104.8762851272
 10
137.6384802809
 20
104.8935949411
 10
137.6281025609
 20
104.9102628977
 10
137.6166566309
 20
104.9262161526
 10
137.6041904413
 20
104.9413881772
 10
137.590756506
 20
104.9557152148
 10
137.5764116819
 20
104.9691360276
 10
137.5612172982
 20
104.9815927294
 10
137.545238118
 20
104.9930320909
 10
137.5285401499
 20
105.0034060114
 10
137.5111963979
 20
105.0126683604
 10
137.4932872757
 20
105.0207766965
 10
137.4749003034
 20
105.0276935064
 10
137.4561041057
 20
105.0333950548
 10
137.4369527713
 20
105.0378632014
 10
137.4175182394
 20
105.0410756654
 10
137.3978916979
 20
105.0430118749
 10
137.3781606501
 20
105.0436590437
  0
LINE
  5
4EF
100
AcDbEntity
  8
0
100
AcDbLine
 62
253
  6
CONTINUOUS
 10
136.7455210894
 20
162.5775844056
 11
136.7438952064
 21
163.0258536931
  0
LINE
  5
4F0
100
AcDbEntity
  8
0
100
AcDbLine
 62
253
  6
CONTINUOUS
 10
136.4467452154
 20
162.2499021974
 11
136.445167031
 21
162.696986548
  0
LINE
  5
4F1
100
AcDbEntity
  8
0
100
AcDbLine
 62
253
  6
CONTINUOUS
 10
137.9557784508
 20
159.0556516954
 11
137.9475818178
 21
161.978174456
  0
LINE
  5
4F2
100
AcDbEntity
  8
0
100
AcDbLine
 62
253
  6
CONTINUOUS
 10
137.6559278737
 20
159.0505924692
 11
137.6477645584
 21
161.9496141178
  0
LINE
  5
4F3
100
AcDbEntity
  8
0
100
AcDbLine
 62
7
  6
CONTINUOUS
 10
136.6506603003
 20
111.0202846968
 11
136.6506603003
 21
108.9053415191
  0
LINE
  5
4F4
100
AcDbEntity
  8
0
100
AcDbLine
 62
7
  6
CONTINUOUS
 10
136.6506603003
 20
104.1819765682
 11
136.6506603003
 21
102.0670333905
  0
LINE
  5
4F5
100
AcDbEntity
  8
0
100
AcDbLine
 62
7
  6
CONTINUOUS
 10
136.691995842
 20
161.202642765
 11
136.691995842
 21
159.0256978488
  0
LINE
  5
4F6
100
AcDbEntity
  8
0
100
AcDbLine
 62
7
  6
CONTINUOUS
 10
136.691995842
 20
111.0616202385
 11
136.691995842
 21
108.8846753223
  0
LINE
  5
4F7
100
AcDbEntity
  8
0
100
AcDbLine
 62
7
  6
CONTINUOUS
 10
136.691995842
 20
104.202642765
 11
136.691995842
 21
102.0256978488
  0
LINE
  5
4F8
100
AcDbEntity
  8
0
100
AcDbLine
 62
7
  6
CONTINUOUS
 10
136.691995842
 20
54.0616202385
 11
136.691995842
 21
51.8846753223
  0
LINE
  5
4F9
100
AcDbEntity
  8
0
100
AcDbLine
 62
253
  6
CONTINUOUS
 10
136.7785263703
 20
105.3436590437
 11
136.7785263703
 21
106.0027348823
  0
LINE
  5
4FA
100
AcDbEntity
  8
0
100
AcDbLine
 62
253
  6
CONTINUOUS
 10
136.7785263703
 20
107.084583205
 11
136.7785263703
 21
107.5071285154
  0
LINE
  5
4FB
100
AcDbEntity
  8
0
100
AcDbLine
 62
7
  6
CONTINUOUS
 10
137.052334648
 20
51.0436590437
 11
137.052334648
 21
51.4436590437
  0
LINE
  5
4FC
100
AcDbEntity
  8
0
100
AcDbLine
 62
7
  6
CONTINUOUS
 10
137.052334648
 20
104.6436590437
 11
137.052334648
 21
105.0436590437
  0
LINE
  5
4FD
100
AcDbEntity
  8
0
100
AcDbLine
 62
7
  6
CONTINUOUS
 10
137.052334648
 20
108.0436590437
 11
137.052334648
 21
108.4436590437
  0
LINE
  5
4FE
100
AcDbEntity
  8
0
100
AcDbLine
 62
7
  6
CONTINUOUS
 10
137.052334648
 20
161.6436590437
 11
137.052334648
 21
162.0436590437
  0
LINE
  5
4FF
100
AcDbEntity
  8
0
100
AcDbLine
 62
253
  6
CONTINUOUS
 10
137.3458717723
 20
51.0436590437
 11
137.3458717723
 21
50.7138843069
  0
LINE
  5
500
100
AcDbEntity
  8
0
100
AcDbLine
 62
253
  6
CONTINUOUS
 10
137.3458865932
 20
162.5775844056
 11
137.3458865932
 21
162.247367043
  0
LINE
  5
501
100
AcDbEntity
  8
0
100
AcDbLine
 62
253
  6
CONTINUOUS
 10
137.3781606437
 20
105.3436590437
 11
137.3781606437
 21
105.0436590437
  0
LINE
  5
502
100
AcDbEntity
  8
0
100
AcDbLine
 62
253
  6
CONTINUOUS
 10
137.378891874
 20
107.5071285154
 11
137.378891874
 21
107.8069457635
  0
LINE
  5
503
100
AcDbEntity
  8
0
100
AcDbLine
 62
7
  6
CONTINUOUS
 10
137.4555948216
 20
51.3436590437
 11
137.4555948216
 21
51.8364961454
  0
LINE
  5
504
100
AcDbEntity
  8
0
100
AcDbLine
 62
7
  6
CONTINUOUS
 10
137.4555948216
 20
104.2508219419
 11
137.4555948216
 21
104.7436590437
  0
LINE
  5
505
100
AcDbEntity
  8
0
100
AcDbLine
 62
7
  6
CONTINUOUS
 10
137.4555948216
 20
108.3298773122
 11
137.4555948216
 21
108.8364961454
  0
LINE
  5
506
100
AcDbEntity
  8
0
100
AcDbLine
 62
7
  6
CONTINUOUS
 10
137.4555948216
 20
161.2508219419
 11
137.4555948216
 21
161.7574407751
  0
LINE
  5
507
100
AcDbEntity
  8
0
100
AcDbLine
 62
7
  6
CONTINUOUS
 10
137.6061234586
 20
51.8846753223
 11
137.6061234586
 21
54.0616202385
  0
LINE
  5
508
100
AcDbEntity
  8
0
100
AcDbLine
 62
7
  6
CONTINUOUS
 10
137.6061234586
 20
102.0256978488
 11
137.6061234586
 21
104.202642765
  0
LINE
  5
509
100
AcDbEntity
  8
0
100
AcDbLine
 62
7
  6
CONTINUOUS
 10
137.6061234586
 20
108.8846753223
 11
137.6061234586
 21
111.0616202385
  0
LINE
  5
50A
100
AcDbEntity
  8
0
100
AcDbLine
 62
7
  6
CONTINUOUS
 10
137.6061234586
 20
159.0256978488
 11
137.6061234586
 21
161.202642765
  0
LINE
  5
50B
100
AcDbEntity
  8
0
100
AcDbLine
 62
253
  6
CONTINUOUS
 10
137.6787091222
 20
102.0619796229
 11
137.6787091222
 21
104.7436630444
  0
LINE
  5
50C
100
AcDbEntity
  8
0
100
AcDbLine
 62
253
  6
CONTINUOUS
 10
137.6787091222
 20
108.1067668044
 11
137.6787091222
 21
111.0253384644
  0
LINE
  5
50D
100
AcDbEntity
  8
0
100
AcDbLine
 62
253
  6
CONTINUOUS
 10
137.9785263703
 20
102.0670333905
 11
137.9785263703
 21
104.7436590437
  0
LINE
  5
50E
100
AcDbEntity
  8
0
100
AcDbLine
 62
253
  6
CONTINUOUS
 10
137.9785263703
 20
108.1067630116
 11
137.9785263703
 21
111.0202846968
  0
LINE
  5
50F
100
AcDbEntity
  8
0
100
AcDbLine
 62
7
  6
CONTINUOUS
 10
138.629971842
 20
44.2683110437
 11
138.629971842
 21
41.8716040437
  0
LINE
  5
510
100
AcDbEntity
  8
0
100
AcDbLine
 62
7
  6
CONTINUOUS
 10
138.936260842
 20
42.1778910437
 11
138.936260842
 21
43.9620240437
  0
LINE
  5
511
100
AcDbEntity
  8
0
100
AcDbLine
 62
7
  6
CONTINUOUS
 10
138.959551842
 20
169.6686590437
 11
138.959551842
 21
170.4186590437
  0
LINE
  5
512
100
AcDbEntity
  8
0
100
AcDbLine
 62
7
  6
CONTINUOUS
 10
139.281780842
 20
43.1963630437
 11
139.281780842
 21
42.8909550437
  0
LINE
  5
513
100
AcDbEntity
  8
0
100
AcDbLine
 62
7
  6
CONTINUOUS
 10
139.341995842
 20
39.0785691735
 11
139.341995842
 21
37.6484189157
  0
LINE
  5
514
100
AcDbEntity
  8
0
100
AcDbLine
 62
7
  6
CONTINUOUS
 10
139.359551842
 20
167.4956219259
 11
139.359551842
 21
168.2464420921
  0
LINE
  5
515
100
AcDbEntity
  8
0
100
AcDbLine
 62
7
  6
CONTINUOUS
 10
139.359551842
 20
171.8408790437
 11
139.359551842
 21
172.5916961614
  0
LINE
  5
516
100
AcDbEntity
  8
0
100
AcDbLine
 62
7
  6
CONTINUOUS
 10
139.516973169
 20
38.5436590437
 11
139.516973169
 21
39.0436590437
  0
LINE
  5
517
100
AcDbEntity
  8
0
100
AcDbLine
 62
7
  6
CONTINUOUS
 10
140.207396842
 20
42.8909550437
 11
140.207396842
 21
43.1963630437
  0
LINE
  5
518
100
AcDbEntity
  8
0
100
AcDbLine
 62
7
  6
CONTINUOUS
 10
140.250072842
 20
43.9620240437
 11
140.250072842
 21
44.2683110437
  0
LINE
  5
519
100
AcDbEntity
  8
0
100
AcDbLine
 62
7
  6
CONTINUOUS
 10
140.269200842
 20
41.8716040437
 11
140.269200842
 21
42.1778910437
  0
LINE
  5
51A
100
AcDbEntity
  8
0
100
AcDbLine
 62
7
  6
CONTINUOUS
 10
141.141995842
 20
174.0436590437
 11
141.141995842
 21
173.2786228829
  0
LINE
  5
51B
100
AcDbEntity
  8
0
100
AcDbLine
 62
7
  6
CONTINUOUS
 10
141.141995842
 20
39.8086952044
 11
141.141995842
 21
39.0436590437
  0
LINE
  5
51C
100
AcDbEntity
  8
0
100
AcDbLine
 62
7
  6
CONTINUOUS
 10
141.841995842
 20
39.0436590437
 11
141.841995842
 21
39.8086952044
  0
LINE
  5
51D
100
AcDbEntity
  8
0
100
AcDbLine
 62
7
  6
CONTINUOUS
 10
141.841995842
 20
173.2786228829
 11
141.841995842
 21
174.0436590437
  0
LINE
  5
51E
100
AcDbEntity
  8
0
100
AcDbLine
 62
253
  6
CONTINUOUS
 10
137.6559278737
 20
54.0367256181
 11
137.6552711207
 21
53.7557023459
  0
LINE
  5
51F
100
AcDbEntity
  8
0
100
AcDbLine
 62
253
  6
CONTINUOUS
 10
137.6552711207
 20
53.7557023459
 11
137.6538396977
 21
53.1832431758
  0
LINE
  5
520
100
AcDbEntity
  8
0
100
AcDbLine
 62
253
  6
CONTINUOUS
 10
137.9557784508
 20
54.0316663919
 11
137.9482620259
 21
51.3157279439
  0
LINE
  5
521
100
AcDbEntity
  8
0
100
AcDbLine
 62
253
  6
CONTINUOUS
 10
137.6538396977
 20
53.1832431758
 11
137.651397771
 21
52.2985228567
  0
LINE
  5
522
100
AcDbEntity
  8
0
100
AcDbLine
 62
253
  6
CONTINUOUS
 10
137.651397771
 20
52.2985228567
 11
137.6484447834
 21
51.3436608746
  0
LINE
  5
523
100
AcDbEntity
  8
0
100
AcDbLine
 62
253
  6
CONTINUOUS
 10
136.4451670202
 20
50.3903315761
 11
136.4474399452
 21
51.0410246182
  0
LINE
  5
524
100
AcDbEntity
  8
0
100
AcDbLine
 62
253
  6
CONTINUOUS
 10
136.7438952064
 20
50.0614643942
 11
136.7462374989
 21
50.7138843069
  0
LINE
  5
525
100
AcDbEntity
  8
0
100
AcDbLine
 62
7
  6
CONTINUOUS
 10
137.4559636179
 20
108.8471496579
 11
137.4555948216
 21
108.8364961454
  0
LINE
  5
526
100
AcDbEntity
  8
0
100
AcDbLine
 62
7
  6
CONTINUOUS
 10
137.4559636179
 20
51.8471496579
 11
137.4555948216
 21
51.8364961454
  0
LWPOLYLINE
  5
527
100
AcDbEntity
  8
0
100
AcDbPolyline
 62
253
  6
CONTINUOUS
 90
22
 70
0
 10
137.9482620259
 20
51.3157279439
 10
137.9463188111
 20
51.2700614891
 10
137.9411008262
 20
51.2251893553
 10
137.9326080712
 20
51.1811114489
 10
137.9207535129
 20
51.1375993163
 10
137.9056241845
 20
51.0948812456
 10
137.8874811859
 20
51.0536421713
 10
137.8662706178
 20
51.0138961971
 10
137.8420463796
 20
50.975628878
 10
137.8152312694
 20
50.9394821742
 10
137.7857840912
 20
50.9054973117
 10
137.7537460411
 20
50.8736326252
 10
137.7196635048
 20
50.8444056333
 10
137.6835038308
 20
50.8178617898
 10
137.6452996706
 20
50.7939551977
 10
137.6056953648
 20
50.7730663015
 10
137.5646865595
 20
50.7552466961
 10
137.5222776085
 20
50.74044443
 10
137.4791259141
 20
50.7288846305
 10
137.4354506102
 20
50.7206422705
 10
137.391032563
 20
50.7156421793
 10
137.3458717723
 20
50.7138843069
  0
LWPOLYLINE
  5
528
100
AcDbEntity
  8
0
100
AcDbPolyline
 62
253
  6
CONTINUOUS
 90
22
 70
0
 10
137.6484447902
 20
51.3436608746
 10
137.6474446482
 20
51.321099775
 10
137.6447523111
 20
51.2986869961
 10
137.6403867803
 20
51.2765487146
 10
137.634376809
 20
51.2548132685
 10
137.6267601007
 20
51.2335973753
 10
137.6175798647
 20
51.213006584
 10
137.6068848177
 20
51.1931499942
 10
137.5947381055
 20
51.1741446728
 10
137.5812156001
 20
51.1561018071
 10
137.5663963004
 20
51.1391221757
 10
137.5503634507
 20
51.1232969827
 10
137.5332112188
 20
51.108712789
 10
137.5150368898
 20
51.0954485214
 10
137.4959428315
 20
51.0835754284
 10
137.476039071
 20
51.0731569975
 10
137.4554449643
 20
51.0642511141
 10
137.4342682673
 20
51.0569000108
 10
137.4126051938
 20
51.0511358794
 10
137.390567519
 20
51.0469913868
 10
137.3682838862
 20
51.0444938311
 10
137.3458775328
 20
51.0436590437
  0
LINE
  5
529
100
AcDbEntity
  8
0
100
AcDbLine
 62
7
  6
CONTINUOUS
 10
150.2760383911
 20
152.4769922498
 11
150.241995842
 21
152.3103258375
  0
LINE
  5
52A
100
AcDbEntity
  8
0
100
AcDbLine
 62
7
  6
CONTINUOUS
 10
150.2760383911
 20
151.0103256467
 11
150.241995842
 21
150.8436590437
  0
LINE
  5
52B
100
AcDbEntity
  8
0
100
AcDbLine
 62
7
  6
CONTINUOUS
 10
150.8547618218
 20
152.5103258375
 11
150.8207192726
 21
152.3436590437
  0
LINE
  5
52C
100
AcDbEntity
  8
0
100
AcDbLine
 62
7
  6
CONTINUOUS
 10
150.2760383911
 20
149.5436590437
 11
150.241995842
 21
149.3769923452
  0
LINE
  5
52D
100
AcDbEntity
  8
0
100
AcDbLine
 62
7
  6
CONTINUOUS
 10
150.8547618218
 20
151.0436590437
 11
150.8207192726
 21
150.8769924406
  0
LINE
  5
52E
100
AcDbEntity
  8
0
100
AcDbLine
 62
7
  6
CONTINUOUS
 10
151.6717830725
 20
150.6769924406
 11
151.6377405234
 21
150.5769924406
  0
LINE
  5
52F
100
AcDbEntity
  8
0
100
AcDbLine
 62
7
  6
CONTINUOUS
 10
151.6717830725
 20
149.2103257421
 11
151.6377405234
 21
149.1103257421
  0
LWPOLYLINE
  5
530
100
AcDbEntity
  8
0
100
AcDbPolyline
 62
7
  6
CONTINUOUS
 90
6
 70
0
 10
136.4787091222
 20
105.7029176342
 10
136.4806124341
 20
105.7051477821
 10
136.4844289752
 20
105.7088990293
 10
136.4899628638
 20
105.7141713758
 10
136.4970025545
 20
105.7211275088
 10
136.5053610463
 20
105.7296047411
  0
LINE
  5
531
100
AcDbEntity
  8
0
100
AcDbLine
 62
7
  6
CONTINUOUS
 10
134.991995842
 20
102.0256978488
 11
135.0333313837
 21
102.0670333905
  0
LINE
  5
532
100
AcDbEntity
  8
0
100
AcDbLine
 62
7
  6
CONTINUOUS
 10
148.4862269116
 20
111.9199289184
 11
148.5333313837
 21
111.9670333905
  0
LINE
  5
533
100
AcDbEntity
  8
0
100
AcDbLine
 62
7
  6
CONTINUOUS
 10
136.5756477538
 20
105.1407631872
 11
136.7625516788
 21
105.3277706904
  0
LWPOLYLINE
  5
534
100
AcDbEntity
  8
0
100
AcDbPolyline
 62
7
  6
CONTINUOUS
 90
3
 70
0
 10
136.5369007998
 20
105.7611288829
 10
136.7465991715
 20
105.9707375658
 10
136.7785263703
 20
106.0027348823
  0
LINE
  5
535
100
AcDbEntity
  8
0
100
AcDbLine
 62
7
  6
CONTINUOUS
 10
136.5620457897
 20
105.12723162
 11
136.5756477538
 21
105.1407631872
  0
LINE
  5
536
100
AcDbEntity
  8
0
100
AcDbLine
 62
7
  6
CONTINUOUS
 10
136.7625516788
 20
105.3277706904
 11
136.7785263703
 21
105.3436590437
  0
LWPOLYLINE
  5
537
100
AcDbEntity
  8
0
100
AcDbPolyline
 62
7
  6
CONTINUOUS
 90
3
 70
0
 10
136.5053610463
 20
105.7296047411
 10
136.5254706056
 20
105.7496054281
 10
136.5369007998
 20
105.7611288829
  0
LWPOLYLINE
  5
538
100
AcDbEntity
  8
0
100
AcDbPolyline
 62
7
  6
CONTINUOUS
 90
3
 70
0
 10
136.5253969161
 20
105.090603279
 10
136.5369203708
 20
105.1020334732
 10
136.5620457897
 20
105.12723162
  0
LWPOLYLINE
  5
539
100
AcDbEntity
  8
0
100
AcDbPolyline
 62
7
  6
CONTINUOUS
 90
7
 70
0
 10
136.4787091222
 20
105.0438417956
 10
136.48093927
 20
105.0457451075
 10
136.4846905173
 20
105.0495616486
 10
136.4899628638
 20
105.0550955372
 10
136.4969189968
 20
105.0621352279
 10
136.5053962291
 20
105.0704937197
 10
136.5253969161
 20
105.090603279
  0
LINE
  5
53A
100
AcDbEntity
  8
0
100
AcDbLine
 62
7
  6
CONTINUOUS
 10
136.691995842
 20
104.202642765
 11
136.6506603003
 21
104.1819765682
  0
LINE
  5
53B
100
AcDbEntity
  8
0
100
AcDbLine
 62
7
  6
CONTINUOUS
 10
137.6787091222
 20
102.0619796229
 11
137.6061234586
 21
102.0256978488
  0
LINE
  5
53C
100
AcDbEntity
  8
0
100
AcDbLine
 62
7
  6
CONTINUOUS
 10
152.8273708208
 20
111.1386965824
 11
152.6650283818
 21
111.0846264071
  0
LINE
  5
53D
100
AcDbEntity
  8
0
100
AcDbLine
 62
7
  6
CONTINUOUS
 10
135.441995842
 20
107.4436590437
 11
135.2055567558
 21
107.384571782
  0
LINE
  5
53E
100
AcDbEntity
  8
0
100
AcDbLine
 62
7
  6
CONTINUOUS
 10
137.4559636179
 20
108.8471496579
 11
137.6061234586
 21
108.8846753223
  0
LWPOLYLINE
  5
53F
100
AcDbEntity
  8
0
100
AcDbPolyline
 62
253
  6
CONTINUOUS
 90
25
 70
0
 10
137.378891874
 20
107.5071285154
 10
137.4184311431
 20
107.5084677003
 10
137.4574506721
 20
107.5123111009
 10
137.4959504611
 20
107.5186587175
 10
137.5340824419
 20
107.5275577834
 10
137.5716946827
 20
107.5389610652
 10
137.6083313875
 20
107.552726862
 10
137.643989368
 20
107.5688871582
 10
137.6786718126
 20
107.5874099695
 10
137.71193249
 20
107.6080576417
 10
137.7437501806
 20
107.6308550932
 10
137.7741461041
 20
107.6557774056
 10
137.8027376881
 20
107.6825121702
 10
137.8295034265
 20
107.7110822029
 10
137.8544648254
 20
107.7414646878
 10
137.8773038312
 20
107.7732787689
 10
137.8979956551
 20
107.8065483127
 10
137.9165650857
 20
107.8412494526
 10
137.9327684361
 20
107.8769297326
 10
137.9465721477
 20
107.9135829796
 10
137.9580097789
 20
107.9512153667
 10
137.966938318
 20
107.9893929571
 10
137.9733100943
 20
108.0279711053
 10
137.9771727784
 20
108.0670944568
 10
137.9785263703
 20
108.1067630116
  0
LINE
  5
540
100
AcDbEntity
  8
0
100
AcDbLine
 62
7
  6
CONTINUOUS
 10
134.631657036
 20
108.0436590437
 11
134.5386775816
 21
108.0405235352
  0
LWPOLYLINE
  5
541
100
AcDbEntity
  8
0
100
AcDbPolyline
 62
253
  6
CONTINUOUS
 90
25
 70
0
 10
137.3788958297
 20
107.8069457597
 10
137.3985584429
 20
107.8075658164
 10
137.4181247031
 20
107.8094703565
 10
137.4375111873
 20
107.812649352
 10
137.4566321356
 20
107.8170863201
 10
137.4754097568
 20
107.8227610906
 10
137.4937739042
 20
107.8296521123
 10
137.5116504267
 20
107.8377323624
 10
137.5289583919
 20
107.8469659654
 10
137.5456202974
 20
107.8573118236
 10
137.5615635582
 20
107.8687241681
 10
137.5767221692
 20
107.8811548629
 10
137.5910331784
 20
107.894552176
 10
137.6044356001
 20
107.9088592223
 10
137.6168719744
 20
107.9240146976
 10
137.6282899314
 20
107.9399549556
 10
137.6386414878
 20
107.9566141758
 10
137.6478807528
 20
107.9739195442
 10
137.6559660167
 20
107.9917919811
 10
137.6628596669
 20
108.0101442786
 10
137.6685379358
 20
108.0289080948
 10
137.672983137
 20
108.0480307594
 10
137.6761728345
 20
108.0674410199
 10
137.678085887
 20
108.087047583
 10
137.6787091185
 20
108.1067668081
  0
LINE
  5
542
100
AcDbEntity
  8
0
100
AcDbLine
 62
7
  6
CONTINUOUS
 10
136.4784349282
 20
107.384571782
 11
135.2055567558
 21
107.384571782
  0
LINE
  5
543
100
AcDbEntity
  8
0
100
AcDbLine
 62
7
  6
CONTINUOUS
 10
135.441995842
 20
107.4436590437
 11
136.241995842
 21
107.4436590437
  0
LINE
  5
544
100
AcDbEntity
  8
0
100
AcDbLine
 62
253
  6
CONTINUOUS
 10
134.3050998099
 20
107.5071285154
 11
134.9054653137
 21
107.5071285154
  0
LINE
  5
545
100
AcDbEntity
  8
0
100
AcDbLine
 62
253
  6
CONTINUOUS
 10
136.7785263703
 20
107.5071285154
 11
137.378891874
 21
107.5071285154
  0
LINE
  5
546
100
AcDbEntity
  8
0
100
AcDbLine
 62
253
  6
CONTINUOUS
 10
134.3051036028
 20
107.8069457635
 11
135.2052825618
 21
107.8069457635
  0
LINE
  5
547
100
AcDbEntity
  8
0
100
AcDbLine
 62
253
  6
CONTINUOUS
 10
136.4787091222
 20
107.8069457635
 11
137.3788958259
 21
107.8069457635
  0
LINE
  5
548
100
AcDbEntity
  8
0
100
AcDbLine
 62
7
  6
CONTINUOUS
 10
134.631657036
 20
108.0436590437
 11
135.441995842
 21
108.0436590437
  0
LINE
  5
549
100
AcDbEntity
  8
0
100
AcDbLine
 62
7
  6
CONTINUOUS
 10
136.241995842
 20
108.0436590437
 11
137.052334648
 21
108.0436590437
  0
LINE
  5
54A
100
AcDbEntity
  8
0
100
AcDbLine
 62
253
  6
CONTINUOUS
 10
137.9785263703
 20
108.1067630116
 11
137.6787091222
 21
108.1067630116
  0
LINE
  5
54B
100
AcDbEntity
  8
0
100
AcDbLine
 62
253
  6
CONTINUOUS
 10
133.7054653137
 20
108.1067630116
 11
134.0052825618
 21
108.1067630116
  0
LINE
  5
54C
100
AcDbEntity
  8
0
100
AcDbLine
 62
7
  6
CONTINUOUS
 10
137.052334648
 20
108.4436590437
 11
134.631657036
 21
108.4436590437
  0
LINE
  5
54D
100
AcDbEntity
  8
0
100
AcDbLine
 62
7
  6
CONTINUOUS
 10
137.4559636179
 20
108.8471496579
 11
134.2280280661
 21
108.8471496579
  0
LINE
  5
54E
100
AcDbEntity
  8
0
100
AcDbLine
 62
7
  6
CONTINUOUS
 10
137.6061234586
 20
108.8846753223
 11
136.691995842
 21
108.8846753223
  0
LINE
  5
54F
100
AcDbEntity
  8
0
100
AcDbLine
 62
7
  6
CONTINUOUS
 10
134.991995842
 20
108.8846753223
 11
134.0778682254
 21
108.8846753223
  0
LINE
  5
550
100
AcDbEntity
  8
0
100
AcDbLine
 62
7
  6
CONTINUOUS
 10
136.6506603003
 20
108.9053415191
 11
135.0333313837
 21
108.9053415191
  0
LINE
  5
551
100
AcDbEntity
  8
0
100
AcDbLine
 62
7
  6
CONTINUOUS
 10
153.5220820425
 20
111.0202846968
 11
137.9785263703
 21
111.0202846968
  0
LINE
  5
552
100
AcDbEntity
  8
0
100
AcDbLine
 62
7
  6
CONTINUOUS
 10
136.6506603003
 20
111.0202846968
 11
135.0333313837
 21
111.0202846968
  0
LINE
  5
553
100
AcDbEntity
  8
0
100
AcDbLine
 62
7
  6
CONTINUOUS
 10
133.7054653137
 20
111.0202846968
 11
118.1619096415
 21
111.0202846968
  0
LINE
  5
554
100
AcDbEntity
  8
0
100
AcDbLine
 62
7
  6
CONTINUOUS
 10
143.341995842
 20
111.0616202385
 11
137.6061234586
 21
111.0616202385
  0
LINE
  5
555
100
AcDbEntity
  8
0
100
AcDbLine
 62
7
  6
CONTINUOUS
 10
136.691995842
 20
111.0616202385
 11
134.991995842
 21
111.0616202385
  0
LINE
  5
556
100
AcDbEntity
  8
0
100
AcDbLine
 62
7
  6
CONTINUOUS
 10
134.0778682254
 20
111.0616202385
 11
128.341995842
 21
111.0616202385
  0
LINE
  5
557
100
AcDbEntity
  8
0
100
AcDbLine
 62
7
  6
CONTINUOUS
 10
153.841995842
 20
111.1436590437
 11
153.1269596812
 21
111.1436590437
  0
LINE
  5
558
100
AcDbEntity
  8
0
100
AcDbLine
 62
7
  6
CONTINUOUS
 10
118.5570320028
 20
111.1436590437
 11
117.841995842
 21
111.1436590437
  0
LINE
  5
559
100
AcDbEntity
  8
0
100
AcDbLine
 62
7
  6
CONTINUOUS
 10
153.841995842
 20
111.8436590437
 11
153.1269596812
 21
111.8436590437
  0
LINE
  5
55A
100
AcDbEntity
  8
0
100
AcDbLine
 62
7
  6
CONTINUOUS
 10
118.5570320028
 20
111.8436590437
 11
117.841995842
 21
111.8436590437
  0
LINE
  5
55B
100
AcDbEntity
  8
0
100
AcDbLine
 62
7
  6
CONTINUOUS
 10
153.5220820425
 20
111.9670333905
 11
148.5333313837
 21
111.9670333905
  0
LINE
  5
55C
100
AcDbEntity
  8
0
100
AcDbLine
 62
7
  6
CONTINUOUS
 10
118.1619096415
 20
111.9670333905
 11
123.1506603003
 21
111.9670333905
  0
LINE
  5
55D
100
AcDbEntity
  8
DRAFT
100
AcDbLine
 62
7
  6
CONTINUOUS
 10
143.341995842
 20
112.5436590437
 11
128.341995842
 21
112.5436590437
  0
LINE
  5
55E
100
AcDbEntity
  8
RACCORDO
100
AcDbLine
 62
7
  6
CONTINUOUS
 10
128.341995842
 20
112.5436590437
 11
125.391995842
 21
112.5436590437
  0
LINE
  5
55F
100
AcDbEntity
  8
RACCORDO
100
AcDbLine
 62
7
  6
CONTINUOUS
 10
143.341995842
 20
112.5436590437
 11
146.291995842
 21
112.5436590437
  0
LINE
  5
560
100
AcDbEntity
  8
0
100
AcDbLine
 62
7
  6
CONTINUOUS
 10
137.1453141024
 20
108.0405235352
 11
137.052334648
 21
108.0436590437
  0
LINE
  5
561
100
AcDbEntity
  8
0
100
AcDbLine
 62
7
  6
CONTINUOUS
 10
136.241995842
 20
107.4436590437
 11
136.4784349282
 21
107.384571782
  0
LINE
  5
562
100
AcDbEntity
  8
0
100
AcDbLine
 62
7
  6
CONTINUOUS
 10
134.2280280661
 20
108.8471496579
 11
134.0778682254
 21
108.8846753223
  0
LINE
  5
563
100
AcDbEntity
  8
0
100
AcDbLine
 62
7
  6
CONTINUOUS
 10
152.8273708208
 20
101.9486215049
 11
152.6650283818
 21
102.0026916802
  0
LINE
  5
564
100
AcDbEntity
  8
0
100
AcDbLine
 62
7
  6
CONTINUOUS
 10
137.6787091222
 20
111.0253384644
 11
137.6061234586
 21
111.0616202385
  0
LINE
  5
565
100
AcDbEntity
  8
0
100
AcDbLine
 62
7
  6
CONTINUOUS
 10
136.691995842
 20
108.8846753223
 11
136.6506603003
 21
108.9053415191
  0
LWPOLYLINE
  5
566
100
AcDbEntity
  8
0
100
AcDbPolyline
 62
7
  6
CONTINUOUS
 90
6
 70
0
 10
136.4787091222
 20
107.3844004531
 10
136.48093927
 20
107.3824971412
 10
136.4846905173
 20
107.3786806001
 10
136.4899628638
 20
107.3731467115
 10
136.4969189968
 20
107.3661070208
 10
136.5053962291
 20
107.357748529
  0
LWPOLYLINE
  5
567
100
AcDbEntity
  8
0
100
AcDbPolyline
 62
7
  6
CONTINUOUS
 90
7
 70
0
 10
136.5254706056
 20
107.7602579696
 10
136.5053610463
 20
107.7802586566
 10
136.4970025545
 20
107.7887358889
 10
136.4899628638
 20
107.7956920218
 10
136.4844289752
 20
107.8009643684
 10
136.4806124341
 20
107.8047156156
 10
136.4787091222
 20
107.8069457635
  0
LWPOLYLINE
  5
568
100
AcDbEntity
  8
0
100
AcDbPolyline
 62
7
  6
CONTINUOUS
 90
3
 70
0
 10
136.5620989466
 20
107.723609096
 10
136.5369007998
 20
107.7487345148
 10
136.5254706056
 20
107.7602579696
  0
LINE
  5
569
100
AcDbEntity
  8
0
100
AcDbLine
 62
7
  6
CONTINUOUS
 10
136.4787091222
 20
107.8069457635
 11
136.241995842
 21
108.0436590437
  0
LINE
  5
56A
100
AcDbEntity
  8
0
100
AcDbLine
 62
253
  6
CONTINUOUS
 10
137.1453141024
 20
108.0405235352
 11
137.3788958259
 21
107.8069457635
  0
LINE
  5
56B
100
AcDbEntity
  8
0
100
AcDbLine
 62
253
  6
CONTINUOUS
 10
137.4555948216
 20
108.3298773122
 11
137.6787091222
 21
108.1067668044
  0
LINE
  5
56C
100
AcDbEntity
  8
0
100
AcDbLine
 62
7
  6
CONTINUOUS
 10
134.991995842
 20
111.0616202385
 11
135.0333313837
 21
111.0202846968
  0
LINE
  5
56D
100
AcDbEntity
  8
0
100
AcDbLine
 62
7
  6
CONTINUOUS
 10
148.4862269116
 20
101.1673891689
 11
148.5333313837
 21
101.1202846968
  0
LINE
  5
56E
100
AcDbEntity
  8
0
100
AcDbLine
 62
7
  6
CONTINUOUS
 10
136.762638017
 20
107.5231032068
 11
136.5756305138
 21
107.7100071319
  0
LWPOLYLINE
  5
56F
100
AcDbEntity
  8
0
100
AcDbPolyline
 62
7
  6
CONTINUOUS
 90
3
 70
0
 10
136.5369203708
 20
107.3262087755
 10
136.7465290538
 20
107.1165104038
 10
136.7785263703
 20
107.084583205
  0
LINE
  5
570
100
AcDbEntity
  8
0
100
AcDbLine
 62
7
  6
CONTINUOUS
 10
136.5756305138
 20
107.7100071319
 11
136.5620989466
 21
107.723609096
  0
LINE
  5
571
100
AcDbEntity
  8
0
100
AcDbLine
 62
7
  6
CONTINUOUS
 10
136.7785263703
 20
107.5071285154
 11
136.762638017
 21
107.5231032068
  0
LWPOLYLINE
  5
572
100
AcDbEntity
  8
0
100
AcDbPolyline
 62
7
  6
CONTINUOUS
 90
3
 70
0
 10
136.5053962291
 20
107.357748529
 10
136.5253969161
 20
107.3376389697
 10
136.5369203708
 20
107.3262087755
  0
LWPOLYLINE
  5
573
100
AcDbEntity
  8
SUPERFICI
100
AcDbPolyline
 62
7
  6
CONTINUOUS
 90
9
 70
0
 10
151.1359236318
 20
65.3118787751
 10
151.1341227979
 20
65.3196902523
 10
151.1314789989
 20
65.3274209037
 10
151.1279922349
 20
65.3350707291
 10
151.123496274
 20
65.3426151511
 10
151.118157348
 20
65.3500787468
 10
151.1124741521
 20
65.3575352484
 10
151.1065912017
 20
65.3649560401
 10
151.1003639814
 20
65.3723697376
  0
LINE
  5
574
100
AcDbEntity
  8
0
100
AcDbLine
 62
253
  6
CONTINUOUS
 10
143.341995842
 20
54.0616202385
 11
143.341995842
 21
55.5436590437
  0
LINE
  5
575
100
AcDbEntity
  8
0
100
AcDbLine
 62
253
  6
CONTINUOUS
 10
143.341995842
 20
100.5436590437
 11
143.341995842
 21
102.0256978488
  0
LINE
  5
576
100
AcDbEntity
  8
0
100
AcDbLine
 62
253
  6
CONTINUOUS
 10
143.341995842
 20
111.0616202385
 11
143.341995842
 21
112.5436590437
  0
LINE
  5
577
100
AcDbEntity
  8
0
100
AcDbLine
 62
253
  6
CONTINUOUS
 10
143.341995842
 20
157.5436590437
 11
143.341995842
 21
159.0256978488
  0
LINE
  5
578
100
AcDbEntity
  8
0
100
AcDbLine
 62
253
  6
CONTINUOUS
 10
143.6699085509
 20
39.1155766064
 11
143.6699085509
 21
39.272330259
  0
LINE
  5
579
100
AcDbEntity
  8
0
100
AcDbLine
 62
253
  6
CONTINUOUS
 10
143.6699085509
 20
173.8149878299
 11
143.6699085509
 21
173.9717414809
  0
LINE
  5
57A
100
AcDbEntity
  8
0
100
AcDbLine
 62
253
  6
CONTINUOUS
 10
146.213641341
 20
173.9717414809
 11
146.213641341
 21
173.8149878283
  0
LINE
  5
57B
100
AcDbEntity
  8
0
100
AcDbLine
 62
253
  6
CONTINUOUS
 10
146.213641341
 20
39.27233026
 11
146.213641341
 21
39.1155766064
  0
LINE
  5
57C
100
AcDbEntity
  8
RACCORDO
100
AcDbLine
 62
7
  6
CONTINUOUS
 10
147.091995842
 20
156.7436590437
 11
147.091995842
 21
113.3436590437
  0
LINE
  5
57D
100
AcDbEntity
  8
RACCORDO
100
AcDbLine
 62
7
  6
CONTINUOUS
 10
147.091995842
 20
99.7436590437
 11
147.091995842
 21
56.3436590437
  0
LINE
  5
57E
100
AcDbEntity
  8
0
100
AcDbLine
 62
7
  6
CONTINUOUS
 10
151.8079532899
 20
152.0103258375
 11
151.841995842
 21
152.1769922498
  0
LINE
  5
57F
100
AcDbEntity
  8
0
100
AcDbLine
 62
7
  6
CONTINUOUS
 10
151.2292298622
 20
149.0436590437
 11
151.263272459
 21
149.2103257421
  0
LINE
  5
580
100
AcDbEntity
  8
0
100
AcDbLine
 62
7
  6
CONTINUOUS
 10
151.8079532899
 20
150.5436590437
 11
151.841995842
 21
150.7103256467
  0
LINE
  5
581
100
AcDbEntity
  8
0
100
AcDbLine
 62
7
  6
CONTINUOUS
 10
151.8079532899
 20
149.0769923452
 11
151.841995842
 21
149.2436590437
  0
LINE
  5
582
100
AcDbEntity
  8
0
100
AcDbLine
 62
7
  6
CONTINUOUS
 10
153.7220515816
 20
111.0237147832
 11
153.841995842
 21
111.1436590437
  0
LINE
  5
583
100
AcDbEntity
  8
0
100
AcDbLine
 62
7
  6
CONTINUOUS
 10
152.8273708208
 20
101.2386965824
 11
152.6650283818
 21
101.1846264071
  0
LINE
  5
584
100
AcDbEntity
  8
0
100
AcDbLine
 62
7
  6
CONTINUOUS
 10
152.8273708208
 20
111.8486215049
 11
152.6650283818
 21
111.9026916802
  0
LINE
  5
585
100
AcDbEntity
  8
0
100
AcDbLine
 62
7
  6
CONTINUOUS
 10
153.7220515816
 20
102.0636033041
 11
153.841995842
 21
101.9436590437
  0
LWPOLYLINE
  5
586
100
AcDbEntity
  8
0
100
AcDbPolyline
 62
253
  6
CONTINUOUS
 90
19
 70
0
 10
120.5526972089
 20
170.4789651046
 10
120.5470325727
 20
170.4942185441
 10
120.5427825644
 20
170.5103510415
 10
120.5400259133
 20
170.5272786771
 10
120.5388488713
 20
170.544903856
 10
120.539304739
 20
170.5631289825
 10
120.5414210862
 20
170.5818579517
 10
120.5452755988
 20
170.6010040066
 10
120.5509049915
 20
170.6204077608
 10
120.5582599798
 20
170.6398534523
 10
120.5673828894
 20
170.6592263527
 10
120.5782610859
 20
170.6783558902
 10
120.5907142229
 20
170.6969461471
 10
120.6047178928
 20
170.7148735699
 10
120.6202054951
 20
170.7319899466
 10
120.6368689779
 20
170.7479951957
 10
120.6545260515
 20
170.7627347767
 10
120.6731483784
 20
170.7761791074
 10
120.6926221524
 20
170.7882505654
  0
LWPOLYLINE
  5
587
100
AcDbEntity
  8
SUPERFICI
100
AcDbPolyline
 62
7
  6
CONTINUOUS
 90
10
 70
0
 10
150.5291748796
 20
64.741268024
 10
150.5239523669
 20
64.7727230401
 10
150.5197554151
 20
64.8040099025
 10
150.5165840244
 20
64.8351286098
 10
150.5144354203
 20
64.8660448917
 10
150.5133123772
 20
64.8967930162
 10
150.5132232181
 20
64.9274757902
 10
150.5141707174
 20
64.9581274826
 10
150.5161521006
 20
64.9887138238
 10
150.5191673679
 20
65.019234813
  0
LINE
  5
588
100
AcDbEntity
  8
0
100
AcDbLine
 62
7
  6
CONTINUOUS
 10
148.4862269116
 20
158.1673891689
 11
148.4862269116
 21
111.9199289184
  0
LINE
  5
589
100
AcDbEntity
  8
0
100
AcDbLine
 62
7
  6
CONTINUOUS
 10
148.4862269116
 20
101.1673891689
 11
148.4862269116
 21
54.9199289184
  0
LINE
  5
58A
100
AcDbEntity
  8
0
100
AcDbLine
 62
7
  6
CONTINUOUS
 10
148.5333313837
 20
135.0436590437
 11
148.5333313837
 21
111.9670333905
  0
LINE
  5
58B
100
AcDbEntity
  8
0
100
AcDbLine
 62
7
  6
CONTINUOUS
 10
148.5333313837
 20
78.0436590437
 11
148.5333313837
 21
101.1202846968
  0
LINE
  5
58C
100
AcDbEntity
  8
SUPERFICI
100
AcDbLine
 62
7
  6
CONTINUOUS
 10
150.239483842
 20
60.9267520437
 11
150.239483842
 21
60.5719240437
  0
LINE
  5
58D
100
AcDbEntity
  8
SUPERFICI
100
AcDbLine
 62
7
  6
CONTINUOUS
 10
150.239585842
 20
63.7738790437
 11
150.239585842
 21
63.4306250437
  0
LINE
  5
58E
100
AcDbEntity
  8
SUPERFICI
100
AcDbLine
 62
7
  6
CONTINUOUS
 10
150.239585842
 20
62.6827660437
 11
150.239585842
 21
62.3316980437
  0
LINE
  5
58F
100
AcDbEntity
  8
SUPERFICI
100
AcDbLine
 62
7
  6
CONTINUOUS
 10
150.239585842
 20
61.6257900437
 11
150.239585842
 21
61.2712550437
  0
LINE
  5
590
100
AcDbEntity
  8
SUPERFICI
100
AcDbLine
 62
7
  6
CONTINUOUS
 10
150.239585842
 20
60.4402470437
 11
150.239585842
 21
60.0856610437
  0
LINE
  5
591
100
AcDbEntity
  8
SUPERFICI
100
AcDbLine
 62
7
  6
CONTINUOUS
 10
150.239585842
 20
59.4277140437
 11
150.239585842
 21
59.0422610437
  0
LINE
  5
592
100
AcDbEntity
  8
0
100
AcDbLine
 62
7
  6
CONTINUOUS
 10
150.241995842
 20
154.3103258375
 11
150.241995842
 21
153.1103258375
  0
LINE
  5
593
100
AcDbEntity
  8
0
100
AcDbLine
 62
7
  6
CONTINUOUS
 10
150.241995842
 20
152.3103258375
 11
150.241995842
 21
152.1769922498
  0
LINE
  5
594
100
AcDbEntity
  8
0
100
AcDbLine
 62
7
  6
CONTINUOUS
 10
150.241995842
 20
150.8436590437
 11
150.241995842
 21
150.7103256467
  0
LINE
  5
595
100
AcDbEntity
  8
0
100
AcDbLine
 62
7
  6
CONTINUOUS
 10
150.241995842
 20
149.3769923452
 11
150.241995842
 21
149.2103257421
  0
LINE
  5
596
100
AcDbEntity
  8
0
100
AcDbLine
 62
7
  6
CONTINUOUS
 10
150.241995842
 20
148.4436590437
 11
150.241995842
 21
148.2436590437
  0
LINE
  5
597
100
AcDbEntity
  8
0
100
AcDbLine
 62
7
  6
CONTINUOUS
 10
150.4122085877
 20
149.1769923452
 11
150.4122085877
 21
149.4103257421
  0
LINE
  5
598
100
AcDbEntity
  8
0
100
AcDbLine
 62
7
  6
CONTINUOUS
 10
150.4122085877
 20
150.6769924406
 11
150.4122085877
 21
150.8769924406
  0
LINE
  5
599
100
AcDbEntity
  8
0
100
AcDbLine
 62
7
  6
CONTINUOUS
 10
150.4122085877
 20
152.1436590437
 11
150.4122085877
 21
152.3436590437
  0
LINE
  5
59A
100
AcDbEntity
  8
0
100
AcDbLine
 62
7
  6
CONTINUOUS
 10
150.4122085877
 20
153.1103258375
 11
150.4122085877
 21
154.1103258375
  0
LINE
  5
59B
100
AcDbEntity
  8
0
100
AcDbLine
 62
7
  6
CONTINUOUS
 10
150.6164638825
 20
151.1436590437
 11
150.6164638825
 21
151.3103258375
  0
LINE
  5
59C
100
AcDbEntity
  8
0
100
AcDbLine
 62
7
  6
CONTINUOUS
 10
150.6164638825
 20
152.6103258375
 11
150.6164638825
 21
152.7769922498
  0
LINE
  5
59D
100
AcDbEntity
  8
0
100
AcDbLine
 62
7
  6
CONTINUOUS
 10
150.8207192726
 20
152.3436590437
 11
150.8207192726
 21
152.1769922498
  0
LINE
  5
59E
100
AcDbEntity
  8
0
100
AcDbLine
 62
7
  6
CONTINUOUS
 10
150.8207192726
 20
150.8769924406
 11
150.8207192726
 21
150.7103256467
  0
LINE
  5
59F
100
AcDbEntity
  8
0
100
AcDbLine
 62
7
  6
CONTINUOUS
 10
150.9909320183
 20
150.6769924406
 11
150.9909320183
 21
150.9103256467
  0
LINE
  5
5A0
100
AcDbEntity
  8
0
100
AcDbLine
 62
7
  6
CONTINUOUS
 10
150.9909320183
 20
152.1436590437
 11
150.9909320183
 21
152.3769922498
  0
LINE
  5
5A1
100
AcDbEntity
  8
SUPERFICI
100
AcDbLine
 62
7
  6
CONTINUOUS
 10
150.995820362
 20
64.9440487368
 11
150.995820362
 21
64.741268024
  0
LINE
  5
5A2
100
AcDbEntity
  8
0
100
AcDbLine
 62
7
  6
CONTINUOUS
 10
151.0930596657
 20
149.4103257421
 11
151.0930596657
 21
149.1769923452
  0
LINE
  5
5A3
100
AcDbEntity
  8
0
100
AcDbLine
 62
7
  6
CONTINUOUS
 10
151.263272459
 20
149.2103257421
 11
151.263272459
 21
149.3769923452
  0
LINE
  5
5A4
100
AcDbEntity
  8
SUPERFICI
100
AcDbLine
 62
7
  6
CONTINUOUS
 10
151.2742168147
 20
64.7530335883
 11
151.2742168147
 21
64.9432839114
  0
LINE
  5
5A5
100
AcDbEntity
  8
SUPERFICI
100
AcDbLine
 62
7
  6
CONTINUOUS
 10
151.337505842
 20
63.7586330437
 11
151.337505842
 21
63.4189100437
  0
LINE
  5
5A6
100
AcDbEntity
  8
0
100
AcDbLine
 62
7
  6
CONTINUOUS
 10
151.4675277538
 20
148.9436590437
 11
151.4675277538
 21
148.7769923929
  0
LINE
  5
5A7
100
AcDbEntity
  8
SUPERFICI
100
AcDbLine
 62
7
  6
CONTINUOUS
 10
151.600095842
 20
63.3463280437
 11
151.600095842
 21
63.8295450437
  0
LINE
  5
5A8
100
AcDbEntity
  8
0
100
AcDbLine
 62
7
  6
CONTINUOUS
 10
151.6717830725
 20
152.3769922498
 11
151.6717830725
 21
152.1436590437
  0
LINE
  5
5A9
100
AcDbEntity
  8
0
100
AcDbLine
 62
7
  6
CONTINUOUS
 10
151.6717830725
 20
150.9103256467
 11
151.6717830725
 21
150.6769924406
  0
LINE
  5
5AA
100
AcDbEntity
  8
0
100
AcDbLine
 62
7
  6
CONTINUOUS
 10
151.6717830725
 20
149.4103257421
 11
151.6717830725
 21
149.2103257421
  0
LINE
  5
5AB
100
AcDbEntity
  8
0
100
AcDbLine
 62
7
  6
CONTINUOUS
 10
151.841995842
 20
148.2436590437
 11
151.841995842
 21
148.4436590437
  0
LINE
  5
5AC
100
AcDbEntity
  8
0
100
AcDbLine
 62
7
  6
CONTINUOUS
 10
151.841995842
 20
149.2436590437
 11
151.841995842
 21
149.3769923452
  0
LINE
  5
5AD
100
AcDbEntity
  8
0
100
AcDbLine
 62
7
  6
CONTINUOUS
 10
151.841995842
 20
150.7103256467
 11
151.841995842
 21
150.8769924406
  0
LINE
  5
5AE
100
AcDbEntity
  8
0
100
AcDbLine
 62
7
  6
CONTINUOUS
 10
151.841995842
 20
152.1769922498
 11
151.841995842
 21
152.3436590437
  0
LINE
  5
5AF
100
AcDbEntity
  8
0
100
AcDbLine
 62
7
  6
CONTINUOUS
 10
151.841995842
 20
153.4436590437
 11
151.841995842
 21
153.6436590437
  0
LINE
  5
5B0
100
AcDbEntity
  8
SUPERFICI
100
AcDbLine
 62
7
  6
CONTINUOUS
 10
151.939448842
 20
59.5811500437
 11
151.939448842
 21
59.8938430437
  0
LINE
  5
5B1
100
AcDbEntity
  8
SUPERFICI
100
AcDbLine
 62
7
  6
CONTINUOUS
 10
151.939448842
 20
60.5719240437
 11
151.939448842
 21
60.9267520437
  0
LINE
  5
5B2
100
AcDbEntity
  8
SUPERFICI
100
AcDbLine
 62
7
  6
CONTINUOUS
 10
151.939448842
 20
61.1177670437
 11
151.939448842
 21
61.4572220437
  0
LINE
  5
5B3
100
AcDbEntity
  8
SUPERFICI
100
AcDbLine
 62
7
  6
CONTINUOUS
 10
151.939448842
 20
61.9500500437
 11
151.939448842
 21
61.9998150437
  0
LINE
  5
5B4
100
AcDbEntity
  8
SUPERFICI
100
AcDbLine
 62
7
  6
CONTINUOUS
 10
151.939448842
 20
62.4946060437
 11
151.939448842
 21
62.8417220437
  0
LINE
  5
5B5
100
AcDbEntity
  8
SUPERFICI
100
AcDbLine
 62
7
  6
CONTINUOUS
 10
151.939448842
 20
62.8974400437
 11
151.939448842
 21
63.2484180437
  0
LINE
  5
5B6
100
AcDbEntity
  8
SUPERFICI
100
AcDbLine
 62
7
  6
CONTINUOUS
 10
151.939448842
 20
63.9214640437
 11
151.939448842
 21
64.2954390437
  0
LINE
  5
5B7
100
AcDbEntity
  8
SUPERFICI
100
AcDbLine
 62
7
  6
CONTINUOUS
 10
151.9394492173
 20
64.3996332563
 11
151.9394492173
 21
64.7530335883
  0
LINE
  5
5B8
100
AcDbEntity
  8
SUPERFICI
100
AcDbLine
 62
7
  6
CONTINUOUS
 10
151.9394492173
 20
65.2964038074
 11
151.9394492173
 21
65.6377071508
  0
LINE
  5
5B9
100
AcDbEntity
  8
0
100
AcDbLine
 62
253
  6
CONTINUOUS
 10
152.4332849625
 20
111.9075184744
 11
152.4332849625
 21
111.0797996129
  0
LINE
  5
5BA
100
AcDbEntity
  8
0
100
AcDbLine
 62
253
  6
CONTINUOUS
 10
152.4332849625
 20
101.1797996129
 11
152.4332849625
 21
102.0075184744
  0
LINE
  5
5BB
100
AcDbEntity
  8
0
100
AcDbLine
 62
253
  6
CONTINUOUS
 10
152.6650283818
 20
111.9026916802
 11
152.6650283818
 21
111.0846264071
  0
LINE
  5
5BC
100
AcDbEntity
  8
0
100
AcDbLine
 62
253
  6
CONTINUOUS
 10
152.6650283818
 20
101.1846264071
 11
152.6650283818
 21
102.0026916802
  0
LWPOLYLINE
  5
5BD
100
AcDbEntity
  8
SUPERFICI
100
AcDbPolyline
 62
7
  6
CONTINUOUS
 90
22
 70
0
 10
151.2742168147
 20
64.9432839114
 10
151.2745162816
 20
64.9567895546
 10
151.2757876769
 20
64.9700047969
 10
151.2780310007
 20
64.9829296374
 10
151.281327836
 20
64.9956295421
 10
151.2855965997
 20
65.0080390437
 10
151.2905925424
 20
65.019961741
 10
151.2963131954
 20
65.0313337435
 10
151.3027610274
 20
65.0422189395
 10
151.3096986944
 20
65.0526125951
 10
151.31707603
 20
65.0624931531
 10
151.3249432006
 20
65.0718821688
 10
151.3332133614
 20
65.0808395768
 10
151.3418760776
 20
65.0893909923
 10
151.3509417839
 20
65.0975107986
 10
151.3603549406
 20
65.1051820836
 10
151.3701038898
 20
65.1124203665
 10
151.3802002893
 20
65.1192101267
 10
151.3906235731
 20
65.1254878922
 10
151.4013668858
 20
65.1312325051
 10
151.4124370828
 20
65.1364651221
 10
151.4238341641
 20
65.1411857425
  0
LWPOLYLINE
  5
5BE
100
AcDbEntity
  8
0
100
AcDbPolyline
 62
7
  6
CONTINUOUS
 90
10
 70
0
 10
135.2388246536
 20
50.3903315413
 10
135.2389754139
 20
50.3909048678
 10
135.2391263736
 20
50.3914153131
 10
135.2392775329
 20
50.3918628773
 10
135.2394289196
 20
50.3922476155
 10
135.2395805058
 20
50.3925694725
 10
135.2397322073
 20
50.3928282836
 10
135.2398839961
 20
50.3930239937
 10
135.2400359002
 20
50.3931566578
 10
135.2401879196
 20
50.3932262759
  0
LINE
  5
5BF
100
AcDbEntity
  8
0
100
AcDbLine
 62
7
  6
CONTINUOUS
 10
130.5469583032
 20
40.1082840649
 11
130.5998235945
 21
40.2670089123
  0
LWPOLYLINE
  5
5C0
100
AcDbEntity
  8
0
100
AcDbPolyline
 62
253
  6
CONTINUOUS
 90
22
 70
0
 10
120.7711142528
 20
43.044489814
 10
120.7774749785
 20
43.0576610144
 10
120.7849214117
 20
43.0700323581
 10
120.7933981775
 20
43.0815502195
 10
120.8028277586
 20
43.0921449507
 10
120.8131666804
 20
43.1017964234
 10
120.8244185283
 20
43.1105192338
 10
120.8365328057
 20
43.1182692164
 10
120.8494488228
 20
43.1249963589
 10
120.8631676712
 20
43.1306863799
 10
120.8776339294
 20
43.1352901591
 10
120.8927813444
 20
43.1387601381
 10
120.9085977763
 20
43.141065689
 10
120.9250306155
 20
43.1421551455
 10
120.9419876275
 20
43.1419825255
 10
120.9593924571
 20
43.1405161907
 10
120.9771776044
 20
43.1377105601
 10
120.9952333488
 20
43.1335377609
 10
121.0134129365
 20
43.128000223
 10
121.03160017
 20
43.1210921777
 10
121.049709556
 20
43.1127977903
 10
121.0676360754
 20
43.103119451
  0
LINE
  5
5C1
100
AcDbEntity
  8
0
100
AcDbLine
 62
253
  6
CONTINUOUS
 10
120.3899371774
 20
42.6660357381
 11
120.6083509974
 21
43.1030584415
  0
LINE
  5
5C2
100
AcDbEntity
  8
0
100
AcDbLine
 62
253
  6
CONTINUOUS
 10
120.5526966358
 20
42.6083515444
 11
120.7711144394
 21
43.0444897001
  0
LINE
  5
5C3
100
AcDbEntity
  8
0
100
AcDbLine
 62
7
  6
CONTINUOUS
 10
153.7220515816
 20
101.1237147832
 11
153.841995842
 21
101.2436590437
  0
LINE
  5
5C4
100
AcDbEntity
  8
0
100
AcDbLine
 62
7
  6
CONTINUOUS
 10
153.7220515816
 20
111.9636033041
 11
153.841995842
 21
111.8436590437
  0
LINE
  5
5C5
100
AcDbEntity
  8
0
100
AcDbLine
 62
253
  6
CONTINUOUS
 10
120.7711151352
 20
170.0428269997
 11
120.5526973238
 21
170.4789651673
  0
LINE
  5
5C6
100
AcDbEntity
  8
0
100
AcDbLine
 62
253
  6
CONTINUOUS
 10
120.6083509974
 20
169.9842596458
 11
120.3899371774
 21
170.4212823492
  0
LWPOLYLINE
  5
5C7
100
AcDbEntity
  8
0
100
AcDbPolyline
 62
253
  6
CONTINUOUS
 90
19
 70
0
 10
120.3899371774
 20
170.4212823492
 10
120.3765522661
 20
170.4511761576
 10
120.3659199316
 20
170.4822592012
 10
120.3580401739
 20
170.5145312635
 10
120.3528001368
 20
170.5481964037
 10
120.3503126766
 20
170.5830500752
 10
120.3509163618
 20
170.6184792619
 10
120.3546839528
 20
170.6545854716
 10
120.3615426892
 20
170.6912669322
 10
120.3716128591
 20
170.7276060236
 10
120.3850307116
 20
170.7636539361
 10
120.4016599975
 20
170.7993596057
 10
120.4212122573
 20
170.8336524491
 10
120.4438396858
 20
170.8664982178
 10
120.4693900882
 20
170.8979317141
 10
120.4971184212
 20
170.9269863169
 10
120.526776337
 20
170.9533401555
 10
120.5586121832
 20
170.9773159111
 10
120.5926259601
 20
170.9989139203
  0
LINE
  5
5C8
100
AcDbEntity
  8
0
100
AcDbLine
 62
7
  6
CONTINUOUS
 10
130.5469583032
 20
172.9790340224
 11
130.5998235945
 21
172.8203091751
  0
LINE
  5
5C9
100
AcDbEntity
  8
0
100
AcDbLine
 62
253
  6
CONTINUOUS
 10
152.2443879288
 20
158.6225457117
 11
152.2145510221
 21
159.0083936655
  0
LINE
  5
5CA
100
AcDbEntity
  8
0
100
AcDbLine
 62
253
  6
CONTINUOUS
 10
152.4783531412
 20
158.6225350222
 11
152.4492528506
 21
159.003551498
  0
LWPOLYLINE
  5
5CB
100
AcDbEntity
  8
0
100
AcDbPolyline
 62
253
  6
CONTINUOUS
 90
3
 70
0
 10
152.2759593254
 20
158.1791678624
 10
152.2701300544
 20
158.2643405037
 10
152.2443879288
 20
158.6225457117
  0
LWPOLYLINE
  5
5CC
100
AcDbEntity
  8
0
100
AcDbPolyline
 62
253
  6
CONTINUOUS
 90
3
 70
0
 10
152.5092294332
 20
158.1840033947
 10
152.5035052219
 20
158.2683934315
 10
152.4783531412
 20
158.6225350222
  0
LWPOLYLINE
  5
5CD
100
AcDbEntity
  8
RACCORDO
100
AcDbPolyline
 62
7
  6
CONTINUOUS
 90
22
 70
0
 10
154.3419958429
 20
174.1407344097
 10
154.3407571312
 20
174.1756580419
 10
154.3372971544
 20
174.2093576203
 10
154.3316159125
 20
174.2418331448
 10
154.3236084199
 20
174.2732361647
 10
154.3133796622
 20
174.3034151307
 10
154.3012445962
 20
174.3319153954
 10
154.2871635424
 20
174.3586489374
 10
154.2711761804
 20
174.3837037782
 10
154.2537165063
 20
174.4068893337
 10
154.2348682064
 20
174.4281050771
 10
154.2145475944
 20
174.4474515354
 10
154.1929376069
 20
174.4650397061
 10
154.1701452717
 20
174.4808909095
 10
154.146063561
 20
174.4949838254
 10
154.1205543279
 20
174.5073654897
 10
154.0935038792
 20
174.5181313666
 10
154.0650259082
 20
174.5271859919
 10
154.0353233476
 20
174.5342900094
 10
154.0044638417
 20
174.5393636337
 10
153.9723797461
 20
174.5424866502
 10
153.939071061
 20
174.5436590588
  0
LINE
  5
5CE
100
AcDbEntity
  8
0
100
AcDbLine
 62
253
  6
CONTINUOUS
 10
153.5481608445
 20
46.1017715244
 11
153.5701087402
 21
39.272330261
  0
LINE
  5
5CF
100
AcDbEntity
  8
0
100
AcDbLine
 62
253
  6
CONTINUOUS
 10
153.7481415288
 20
46.1263526962
 11
153.7700782792
 21
39.3155461455
  0
LWPOLYLINE
  5
5D0
100
AcDbEntity
  8
0
100
AcDbPolyline
 62
253
  6
CONTINUOUS
 90
3
 70
0
 10
153.5334562705
 20
54.0316663557
 10
153.5353829472
 20
52.4953347576
 10
153.5481608445
 20
46.1017715244
  0
LWPOLYLINE
  5
5D1
100
AcDbEntity
  8
0
100
AcDbPolyline
 62
253
  6
CONTINUOUS
 90
3
 70
0
 10
153.7334368418
 20
54.0351000435
 10
153.7353649643
 20
52.5018989173
 10
153.7481415288
 20
46.1263526962
  0
LINE
  5
5D2
100
AcDbEntity
  8
0
100
AcDbLine
 62
253
  6
CONTINUOUS
 10
152.8273708208
 20
111.8486215049
 11
152.8273708208
 21
111.1386965824
  0
LINE
  5
5D3
100
AcDbEntity
  8
0
100
AcDbLine
 62
253
  6
CONTINUOUS
 10
152.8273708208
 20
101.9486215049
 11
152.8273708208
 21
101.2386965824
  0
LINE
  5
5D4
100
AcDbEntity
  8
0
100
AcDbLine
 62
253
  6
CONTINUOUS
 10
153.1269596812
 20
111.8436590437
 11
153.1269596812
 21
111.1436590437
  0
LINE
  5
5D5
100
AcDbEntity
  8
0
100
AcDbLine
 62
253
  6
CONTINUOUS
 10
153.1269596812
 20
101.9436590437
 11
153.1269596812
 21
101.2436590437
  0
LINE
  5
5D6
100
AcDbEntity
  8
0
100
AcDbLine
 62
253
  6
CONTINUOUS
 10
153.5220820425
 20
78.0436595774
 11
153.5324772637
 21
54.9566326784
  0
LINE
  5
5D7
100
AcDbEntity
  8
0
100
AcDbLine
 62
253
  6
CONTINUOUS
 10
153.5220820425
 20
111.0202846968
 11
153.5220820425
 21
102.0670333905
  0
LINE
  5
5D8
100
AcDbEntity
  8
0
100
AcDbLine
 62
253
  6
CONTINUOUS
 10
153.5220820425
 20
101.1202846968
 11
153.5220820425
 21
78.0436595774
  0
LINE
  5
5D9
100
AcDbEntity
  8
0
100
AcDbLine
 62
253
  6
CONTINUOUS
 10
153.5701087402
 20
39.272330261
 11
153.5701087403
 21
39.1155766064
  0
LINE
  5
5DA
100
AcDbEntity
  8
0
100
AcDbLine
 62
253
  6
CONTINUOUS
 10
153.7220515816
 20
78.0436590437
 11
153.7324611204
 21
54.9531937653
  0
LINE
  5
5DB
100
AcDbEntity
  8
0
100
AcDbLine
 62
253
  6
CONTINUOUS
 10
153.7220515816
 20
111.0237147832
 11
153.7220515816
 21
102.0636033041
  0
LINE
  5
5DC
100
AcDbEntity
  8
0
100
AcDbLine
 62
253
  6
CONTINUOUS
 10
153.7220515816
 20
101.1237147832
 11
153.7220515816
 21
78.0436590437
  0
LINE
  5
5DD
100
AcDbEntity
  8
0
100
AcDbLine
 62
7
  6
CONTINUOUS
 10
153.841995842
 20
39.2436285827
 11
153.841995842
 21
54.1436590437
  0
LINE
  5
5DE
100
AcDbEntity
  8
0
100
AcDbLine
 62
7
  6
CONTINUOUS
 10
153.841995842
 20
54.8436590437
 11
153.841995842
 21
101.2436590437
  0
LINE
  5
5DF
100
AcDbEntity
  8
0
100
AcDbLine
 62
7
  6
CONTINUOUS
 10
153.841995842
 20
101.9436590437
 11
153.841995842
 21
111.1436590437
  0
LINE
  5
5E0
100
AcDbEntity
  8
0
100
AcDbLine
 62
7
  6
CONTINUOUS
 10
153.841995842
 20
111.8436590437
 11
153.841995842
 21
158.2436590437
  0
LINE
  5
5E1
100
AcDbEntity
  8
0
100
AcDbLine
 62
7
  6
CONTINUOUS
 10
153.841995842
 20
158.9436590437
 11
153.841995842
 21
173.8436895046
  0
LINE
  5
5E2
100
AcDbEntity
  8
RACCORDO
100
AcDbLine
 62
7
  6
CONTINUOUS
 10
154.3419958552
 20
38.9465837969
 11
154.3419958429
 21
174.1407344097
  0
LINE
  5
5E3
100
AcDbEntity
  8
RACCORDO
100
AcDbLine
 62
7
  6
CONTINUOUS
 10
155.341995836
 20
38.0429737573
 11
155.3419958412
 21
175.0443442834
  0
LINE
  5
5E4
100
AcDbEntity
  8
RACCORDO
100
AcDbLine
 62
7
  6
CONTINUOUS
 10
155.841995842
 20
38.0422885784
 11
155.841995842
 21
175.0450295089
  0
LINE
  5
5E5
100
AcDbEntity
  8
0
100
AcDbLine
 62
253
  6
CONTINUOUS
 10
153.5324772637
 20
158.1306854138
 11
153.5220820425
 21
111.9670333905
  0
LINE
  5
5E6
100
AcDbEntity
  8
0
100
AcDbLine
 62
253
  6
CONTINUOUS
 10
153.7324611204
 20
158.134124322
 11
153.7220515816
 21
111.9636033041
  0
LINE
  5
5E7
100
AcDbEntity
  8
0
100
AcDbLine
 62
253
  6
CONTINUOUS
 10
153.54470843
 20
165.5791012107
 11
153.5334562705
 21
159.055651733
  0
LINE
  5
5E8
100
AcDbEntity
  8
0
100
AcDbLine
 62
253
  6
CONTINUOUS
 10
153.7446898346
 20
165.5578306805
 11
153.7334368418
 21
159.0522180438
  0
LWPOLYLINE
  5
5E9
100
AcDbEntity
  8
0
100
AcDbPolyline
 62
253
  6
CONTINUOUS
 90
3
 70
0
 10
153.5701087402
 20
173.9717414809
 10
153.5638670263
 20
172.1134682813
 10
153.54470843
 20
165.5791012107
  0
LWPOLYLINE
  5
5EA
100
AcDbEntity
  8
0
100
AcDbPolyline
 62
253
  6
CONTINUOUS
 90
3
 70
0
 10
153.7700782792
 20
173.7717719418
 10
153.7638401408
 20
172.0734880025
 10
153.7446898346
 20
165.5578306805
  0
LWPOLYLINE
  5
5EB
100
AcDbEntity
  8
RACCORDO
100
AcDbPolyline
 62
7
  6
CONTINUOUS
 90
22
 70
0
 10
155.341995836
 20
38.0429737573
 10
155.3405403657
 20
38.0054057929
 10
155.336394848
 20
37.9684633175
 10
155.3295592828
 20
37.9321463311
 10
155.3199825165
 20
37.8962843506
 10
155.3077157028
 20
37.861047859
 10
155.2929123026
 20
37.8269483057
 10
155.2755303644
 20
37.793972916
 10
155.2556118398
 20
37.7621344645
 10
155.2334360447
 20
37.7319827249
 10
155.2089020715
 20
37.703508923
 10
155.1821108276
 20
37.6767218329
 10
155.1536443516
 20
37.6521975506
 10
155.1235249686
 20
37.6300405036
 10
155.0917303534
 20
37.6101462644
 10
155.0587755688
 20
37.5927776464
 10
155.0246483125
 20
37.5779656078
 10
154.9893608867
 20
37.5656791903
 10
154.9534652616
 20
37.5560883322
 10
154.9171454273
 20
37.5492496798
 10
154.8802173936
 20
37.5451065868
 10
154.8426811607
 20
37.5436590533
  0
LWPOLYLINE
  5
5EC
100
AcDbEntity
  8
0
100
AcDbPolyline
 62
253
  6
CONTINUOUS
 90
16
 70
0
 10
153.7700782792
 20
39.3155461455
 10
153.7689769028
 20
39.2946478513
 10
153.7656975591
 20
39.2739783965
 10
153.7602761522
 20
39.253764151
 10
153.7527720458
 20
39.2342265008
 10
153.743267414
 20
39.2155794241
 10
153.7318663414
 20
39.1980271477
 10
153.7186936753
 20
39.1817619003
 10
153.7038936804
 20
39.1669618362
 10
153.6876284684
 20
39.153789075
 10
153.670076188
 20
39.1423878912
 10
153.6514290631
 20
39.132883142
 10
153.6318913154
 20
39.1253789224
 10
153.611676922
 20
39.1199574186
 10
153.5910072721
 20
39.1166780079
 10
153.5701087402
 20
39.1155766064
  0
LINE
  5
5ED
100
AcDbEntity
  8
0
100
AcDbLine
 62
253
  6
CONTINUOUS
 10
152.5092294332
 20
54.9033146926
 11
152.4849885652
 21
54.5557576046
  0
LINE
  5
5EE
100
AcDbEntity
  8
0
100
AcDbLine
 62
253
  6
CONTINUOUS
 10
152.2759593254
 20
54.9081502249
 11
152.2511760732
 21
54.556824801
  0
LWPOLYLINE
  5
5EF
100
AcDbEntity
  8
0
100
AcDbPolyline
 62
253
  6
CONTINUOUS
 90
3
 70
0
 10
152.4849885652
 20
54.5557576046
 10
152.4569015055
 20
54.1812765237
 10
152.4492528506
 20
54.0837665893
  0
LWPOLYLINE
  5
5F0
100
AcDbEntity
  8
0
100
AcDbPolyline
 62
253
  6
CONTINUOUS
 90
3
 70
0
 10
152.2511760732
 20
54.556824801
 10
152.2223822768
 20
54.1776476382
 10
152.2145510221
 20
54.0789244218
  0
LWPOLYLINE
  5
5F1
100
AcDbEntity
  8
SUPERFICI
100
AcDbPolyline
 62
7
  6
CONTINUOUS
 90
25
 70
0
 10
150.5191673679
 20
65.019234813
 10
150.5212115796
 20
65.033136219
 10
150.52395569
 20
65.0467399169
 10
150.5273996991
 20
65.0600459057
 10
150.5315553029
 20
65.0730852237
 10
150.5364108054
 20
65.0858268311
 10
150.5419311187
 20
65.0981776105
 10
150.5481145017
 20
65.1101540507
 10
150.5549626954
 20
65.121739661
 10
150.5624458356
 20
65.1327918533
 10
150.5705783197
 20
65.143306151
 10
150.5793457502
 20
65.1532870283
 10
150.5886750704
 20
65.1626053226
 10
150.5985903709
 20
65.1712267846
 10
150.6090675611
 20
65.1791856612
 10
150.6199613124
 20
65.1864555337
 10
150.6312686638
 20
65.1930355199
 10
150.6429925763
 20
65.1989265001
 10
150.6549966041
 20
65.2041046997
 10
150.6672711131
 20
65.2085799285
 10
150.6798257374
 20
65.2123423753
 10
150.6925529335
 20
65.2153388338
 10
150.7054168536
 20
65.2175515685
 10
150.7184533456
 20
65.2189983143
 10
150.7316624093
 20
65.2196790708
  0
LINE
  5
5F2
100
AcDbEntity
  8
0
100
AcDbLine
 62
7
  6
CONTINUOUS
 10
123.6647197826
 20
41.5542200565
 11
124.3223805997
 21
42.7911001604
  0
LINE
  5
5F3
100
AcDbEntity
  8
0
100
AcDbLine
 62
7
  6
CONTINUOUS
 10
125.4833731306
 20
40.5042200565
 11
126.1410339477
 21
41.7411001604
  0
LWPOLYLINE
  5
5F4
100
AcDbEntity
  8
0
100
AcDbPolyline
 62
253
  6
CONTINUOUS
 90
22
 70
0
 10
120.6083509974
 20
43.1030584415
 10
120.6226499818
 20
43.1287727271
 10
120.6385856196
 20
43.1528724039
 10
120.6561579106
 20
43.1753572528
 10
120.6754401467
 20
43.1962807398
 10
120.6963590361
 20
43.2155890103
 10
120.7186947034
 20
43.2331208701
 10
120.7424522104
 20
43.2488952253
 10
120.7676264955
 20
43.2628928414
 10
120.7939824986
 20
43.274895306
 10
120.8215392464
 20
43.2849141165
 10
120.8502777122
 20
43.2929375324
 10
120.879905756
 20
43.2987122888
 10
120.9104792172
 20
43.3022341504
 10
120.9419422565
 20
43.303507237
 10
120.9738352159
 20
43.3022908449
 10
121.0062149644
 20
43.2985427874
 10
121.0390246331
 20
43.2923053201
 10
121.0716339572
 20
43.2834644569
 10
121.1038328483
 20
43.271982302
 10
121.1358313948
 20
43.2578970457
 10
121.1676295966
 20
43.2412088916
  0
LINE
  5
5F5
100
AcDbEntity
  8
0
100
AcDbLine
 62
7
  6
CONTINUOUS
 10
122.1096503658
 20
41.7585389718
 11
122.310239703
 21
42.1059698954
  0
LINE
  5
5F6
100
AcDbEntity
  8
SUPERFICI
100
AcDbLine
 62
7
  6
CONTINUOUS
 10
119.741995842
 20
73.5243600437
 11
120.697984842
 21
74.1282580437
  0
LINE
  5
5F7
100
AcDbEntity
  8
SUPERFICI
100
AcDbLine
 62
7
  6
CONTINUOUS
 10
120.510875842
 20
74.2352700437
 11
119.741995842
 21
73.7761670437
  0
LINE
  5
5F8
100
AcDbEntity
  8
0
100
AcDbLine
 62
7
  6
CONTINUOUS
 10
119.3669533978
 20
153.1188605708
 11
120.126954842
 21
152.2170020437
  0
LINE
  5
5F9
100
AcDbEntity
  8
0
100
AcDbLine
 62
7
  6
CONTINUOUS
 10
120.521691842
 20
152.2170020437
 11
119.7969527251
 21
153.0770151823
  0
LINE
  5
5FA
100
AcDbEntity
  8
0
100
AcDbLine
 62
7
  6
CONTINUOUS
 10
122.1096503658
 20
171.3287791155
 11
122.310239703
 21
170.981348192
  0
LINE
  5
5FB
100
AcDbEntity
  8
0
100
AcDbLine
 62
7
  6
CONTINUOUS
 10
124.3223805997
 20
170.2962179269
 11
123.6647197826
 21
171.5330980309
  0
LINE
  5
5FC
100
AcDbEntity
  8
0
100
AcDbLine
 62
7
  6
CONTINUOUS
 10
125.4833731306
 20
172.5830980309
 11
126.1410339477
 21
171.3462179269
  0
LWPOLYLINE
  5
5FD
100
AcDbEntity
  8
0
100
AcDbPolyline
 62
253
  6
CONTINUOUS
 90
19
 70
0
 10
146.1136451487
 20
39.4887446311
 10
146.1132469726
 20
39.4872471135
 10
146.1127286593
 20
39.4835082856
 10
146.1126496511
 20
39.4778365878
 10
146.1141639623
 20
39.4709495739
 10
146.1170802867
 20
39.4629153541
 10
146.1201882416
 20
39.4532145366
 10
146.1239988506
 20
39.4415447456
 10
146.1296033034
 20
39.4291657261
 10
146.1356238845
 20
39.4169591171
 10
146.1414446821
 20
39.4032374455
 10
146.1488836491
 20
39.3876619494
 10
146.1576522206
 20
39.3721340205
 10
146.1660263227
 20
39.3564203401
 10
146.1746680981
 20
39.3395012566
 10
146.184411792
 20
39.3225270948
 10
146.1949123021
 20
39.305995821
 10
146.2049187006
 20
39.2893170653
 10
146.213641341
 20
39.272330261
  0
LWPOLYLINE
  5
5FE
100
AcDbEntity
  8
SUPERFICI
100
AcDbPolyline
 62
7
  6
CONTINUOUS
 90
28
 70
0
 10
150.2773433632
 20
65.2752946259
 10
150.267529965
 20
65.2454938527
 10
150.2586518374
 20
65.2153962795
 10
150.2507089804
 20
65.185001908
 10
150.2437459121
 20
65.1542513014
 10
150.2377181144
 20
65.1232039005
 10
150.232492033
 20
65.0920380235
 10
150.2280572257
 20
65.0607749424
 10
150.2244241346
 20
65.0293933868
 10
150.2214905316
 20
64.9980078586
 10
150.2192611179
 20
64.9666323585
 10
150.2177311923
 20
64.9352528861
 10
150.2167844235
 20
64.9039419409
 10
150.2164145163
 20
64.872791314
 10
150.2166277659
 20
64.8417092134
 10
150.2173267257
 20
64.8104927644
 10
150.2184963859
 20
64.7791641092
 10
150.2201517562
 20
64.7477011074
 10
150.2222404195
 20
64.7158344634
 10
150.2247534278
 20
64.6835702258
 10
150.2276997291
 20
64.6509023514
 10
150.2310537495
 20
64.6175434094
 10
150.2348159412
 20
64.5834964654
 10
150.2389858519
 20
64.5487584636
 10
150.243536551
 20
64.5130327954
 10
150.2484590617
 20
64.4762205973
 10
150.2537623608
 20
64.4384207483
 10
150.2594464484
 20
64.3996332563
  0
LINE
  5
5FF
100
AcDbEntity
  8
0
100
AcDbLine
 62
7
  6
CONTINUOUS
 10
141.8469583032
 20
40.1082840649
 11
141.8998235945
 21
40.2670089123
  0
LWPOLYLINE
  5
600
100
AcDbEntity
  8
0
100
AcDbPolyline
 62
7
  6
CONTINUOUS
 90
8
 70
0
 10
135.2388247586
 20
50.3903318966
 10
135.2366125103
 20
50.3858551958
 10
135.2328856291
 20
50.379576133
 10
135.2276441151
 20
50.3717011842
 10
135.2207266541
 20
50.3624534272
 10
135.2122945603
 20
50.352021089
 10
135.2028317761
 20
50.3405288579
 10
135.1923904397
 20
50.3281485831
  0
LWPOLYLINE
  5
601
100
AcDbEntity
  8
0
100
AcDbPolyline
 62
7
  6
CONTINUOUS
 90
8
 70
0
 10
135.2365517388
 20
51.0410246182
 10
135.2343380178
 20
51.036711065
 10
135.2306092978
 20
51.0305874363
 10
135.2253655787
 20
51.0228595848
 10
135.2184454562
 20
51.0137499155
 10
135.2100103346
 20
51.0034466236
 10
135.2005444277
 20
50.9920748734
 10
135.1900999312
 20
50.9798063331
  0
LINE
  5
602
100
AcDbEntity
  8
0
100
AcDbLine
 62
7
  6
CONTINUOUS
 10
122.8006185534
 20
42.0531091337
 11
123.5429577363
 21
43.2411001604
  0
LINE
  5
603
100
AcDbEntity
  8
0
100
AcDbLine
 62
7
  6
CONTINUOUS
 10
124.6192719014
 20
41.0031091337
 11
125.3616110843
 21
42.1911001604
  0
LINE
  5
604
100
AcDbEntity
  8
0
100
AcDbLine
 62
7
  6
CONTINUOUS
 10
117.841995842
 20
54.8436590437
 11
117.9515305636
 21
54.9531937653
  0
LINE
  5
605
100
AcDbEntity
  8
SUPERFICI
100
AcDbLine
 62
7
  6
CONTINUOUS
 10
120.042604842
 20
66.9369790437
 11
121.341995842
 21
67.7548360437
  0
LINE
  5
606
100
AcDbEntity
  8
SUPERFICI
100
AcDbLine
 62
7
  6
CONTINUOUS
 10
121.041650842
 20
67.7882730437
 11
119.741995842
 21
66.9837440437
  0
LINE
  5
607
100
AcDbEntity
  8
SUPERFICI
100
AcDbLine
 62
7
  6
CONTINUOUS
 10
121.341995842
 20
72.2252090437
 11
119.741995842
 21
71.6457280437
  0
LINE
  5
608
100
AcDbEntity
  8
0
100
AcDbLine
 62
7
  6
CONTINUOUS
 10
117.841995842
 20
158.2436590437
 11
117.9515305636
 21
158.134124322
  0
LINE
  5
609
100
AcDbEntity
  8
0
100
AcDbLine
 62
7
  6
CONTINUOUS
 10
123.5429577363
 20
169.8462179269
 11
122.8006185534
 21
171.0342089536
  0
LINE
  5
60A
100
AcDbEntity
  8
0
100
AcDbLine
 62
7
  6
CONTINUOUS
 10
125.3616110843
 20
170.8962179269
 11
124.6192719014
 21
172.0842089536
  0
LWPOLYLINE
  5
60B
100
AcDbEntity
  8
0
100
AcDbPolyline
 62
7
  6
CONTINUOUS
 90
9
 70
0
 10
135.2372464686
 20
162.2499021974
 10
135.2350332047
 20
162.2542668166
 10
135.231305057
 20
162.2604391055
 10
135.2260620254
 20
162.2682130155
 10
135.2191427338
 20
162.2773659303
 10
135.2107085583
 20
162.2877096438
 10
135.2012436276
 20
162.2991191404
 10
135.1908001194
 20
162.3114226944
 10
135.167148433
 20
162.3382153907
  0
LWPOLYLINE
  5
60C
100
AcDbEntity
  8
0
100
AcDbPolyline
 62
7
  6
CONTINUOUS
 90
9
 70
0
 10
135.2388247586
 20
162.6969861907
 10
135.2366125103
 20
162.7014628915
 10
135.2328856291
 20
162.7077419543
 10
135.2276441151
 20
162.7156169031
 10
135.2207266541
 20
162.7248646601
 10
135.2122945603
 20
162.7352969983
 10
135.2028317762
 20
162.7467892294
 10
135.1923904397
 20
162.7591695042
 10
135.1687432246
 20
162.7860981877
  0
LINE
  5
60D
100
AcDbEntity
  8
0
100
AcDbLine
 62
7
  6
CONTINUOUS
 10
150.4462511368
 20
149.0769923452
 11
150.4122085877
 21
149.1769923452
  0
LINE
  5
60E
100
AcDbEntity
  8
0
100
AcDbLine
 62
7
  6
CONTINUOUS
 10
141.8469583032
 20
172.9790340224
 11
141.8998235945
 21
172.8203091751
  0
LWPOLYLINE
  5
60F
100
AcDbEntity
  8
0
100
AcDbPolyline
 62
253
  6
CONTINUOUS
 90
19
 70
0
 10
146.1136451487
 20
173.5985734562
 10
146.1132469722
 20
173.6000709734
 10
146.1127286587
 20
173.6038097994
 10
146.1126496501
 20
173.6094814943
 10
146.1141639602
 20
173.6163685051
 10
146.1170802826
 20
173.6244027215
 10
146.120188236
 20
173.6341035356
 10
146.1239988439
 20
173.6457733226
 10
146.1296032949
 20
173.6581523392
 10
146.1356238743
 20
173.6703589475
 10
146.1414446718
 20
173.6840806192
 10
146.1488836389
 20
173.6996561152
 10
146.1576522099
 20
173.7151840448
 10
146.1660263122
 20
173.7308977277
 10
146.1746680894
 20
173.7478168144
 10
146.1844117856
 20
173.7647909798
 10
146.1949122978
 20
173.7813222575
 10
146.2049186986
 20
173.7980010174
 10
146.2136413416
 20
173.814987826
  0
LINE
  5
610
100
AcDbEntity
  8
0
100
AcDbLine
 62
7
  6
CONTINUOUS
 10
150.241995842
 20
149.2103257421
 11
150.2760383911
 21
149.0436590437
  0
LINE
  5
611
100
AcDbEntity
  8
0
100
AcDbLine
 62
7
  6
CONTINUOUS
 10
150.241995842
 20
150.7103256467
 11
150.2760383911
 21
150.5436590437
  0
LINE
  5
612
100
AcDbEntity
  8
0
100
AcDbLine
 62
7
  6
CONTINUOUS
 10
150.241995842
 20
152.1769922498
 11
150.2760383911
 21
152.0103258375
  0
LINE
  5
613
100
AcDbEntity
  8
0
100
AcDbLine
 62
7
  6
CONTINUOUS
 10
150.8207192726
 20
150.7103256467
 11
150.8547618218
 21
150.5436590437
  0
LINE
  5
614
100
AcDbEntity
  8
0
100
AcDbLine
 62
7
  6
CONTINUOUS
 10
151.263272459
 20
149.3769923452
 11
151.2292298622
 21
149.5436590437
  0
LINE
  5
615
100
AcDbEntity
  8
0
100
AcDbLine
 62
7
  6
CONTINUOUS
 10
150.8207192726
 20
152.1769922498
 11
150.8547618218
 21
152.0103258375
  0
LINE
  5
616
100
AcDbEntity
  8
0
100
AcDbLine
 62
7
  6
CONTINUOUS
 10
151.841995842
 20
149.3769923452
 11
151.8079532899
 21
149.5436590437
  0
LINE
  5
617
100
AcDbEntity
  8
0
100
AcDbLine
 62
7
  6
CONTINUOUS
 10
151.841995842
 20
150.8769924406
 11
151.8079532899
 21
151.0436590437
  0
LINE
  5
618
100
AcDbEntity
  8
0
100
AcDbLine
 62
7
  6
CONTINUOUS
 10
151.841995842
 20
152.3436590437
 11
151.8079532899
 21
152.5103258375
  0
LWPOLYLINE
  5
619
100
AcDbEntity
  8
0
100
AcDbPolyline
 62
253
  6
CONTINUOUS
 90
4
 70
0
 10
127.979745137
 20
39.2182826346
 10
127.9913476526
 20
39.2351872231
 10
128.0029583282
 20
39.2532559028
 10
128.0140831331
 20
39.272330261
  0
LINE
  5
61A
100
AcDbEntity
  8
RACCORDO
100
AcDbLine
 62
253
  6
CONTINUOUS
 10
116.8866022543
 20
37.5938805174
 11
116.8591702984
 21
37.5632118382
  0
LWPOLYLINE
  5
61B
100
AcDbEntity
  8
RACCORDO
100
AcDbPolyline
 62
253
  6
CONTINUOUS
 90
3
 70
0
 10
116.8591702984
 20
37.5632118382
 10
116.849048508
 20
37.5519589431
 10
116.8413106182
 20
37.5436590494
  0
LINE
  5
61C
100
AcDbEntity
  8
RACCORDO
100
AcDbLine
 62
253
  6
CONTINUOUS
 10
117.5154012102
 20
38.2895277796
 11
116.8866022543
 21
37.5938805174
  0
LWPOLYLINE
  5
61D
100
AcDbEntity
  8
RACCORDO
100
AcDbPolyline
 62
253
  6
CONTINUOUS
 90
3
 70
0
 10
117.7449204557
 20
38.5436590304
 10
117.688299025
 20
38.4815425114
 10
117.5154012102
 20
38.2895277796
  0
LINE
  5
61E
100
AcDbEntity
  8
SUPERFICI
100
AcDbLine
 62
7
  6
CONTINUOUS
 10
120.876293842
 20
71.8307150437
 11
121.341995842
 21
71.9889290437
  0
LINE
  5
61F
100
AcDbEntity
  8
SUPERFICI
100
AcDbLine
 62
7
  6
CONTINUOUS
 10
119.974073842
 20
71.5143130437
 11
120.684656842
 21
71.7527010437
  0
LINE
  5
620
100
AcDbEntity
  8
0
100
AcDbLine
 62
253
  6
CONTINUOUS
 10
117.9619401024
 20
135.0436590437
 11
123.1506603003
 21
135.0436590437
  0
LINE
  5
621
100
AcDbEntity
  8
0
100
AcDbLine
 62
253
  6
CONTINUOUS
 10
148.5333313837
 20
135.0436590437
 11
153.7220515816
 21
135.0436590437
  0
LINE
  5
622
100
AcDbEntity
  8
0
100
AcDbLine
 62
7
  6
CONTINUOUS
 10
121.767882015
 20
151.2994809465
 11
121.5042696855
 21
151.4474381315
  0
LINE
  5
623
100
AcDbEntity
  8
0
100
AcDbLine
 62
7
  6
CONTINUOUS
 10
122.932951842
 20
153.2076920437
 11
122.695168842
 21
153.3754220437
  0
LINE
  5
624
100
AcDbEntity
  8
RACCORDO
100
AcDbLine
 62
253
  6
CONTINUOUS
 10
117.0901580321
 20
175.268266738
 11
117.139725173
 21
175.214131979
  0
LINE
  5
625
100
AcDbEntity
  8
RACCORDO
100
AcDbLine
 62
253
  6
CONTINUOUS
 10
117.6905662806
 20
174.6033374573
 11
117.7449204664
 21
174.5436590446
  0
LINE
  5
626
100
AcDbEntity
  8
RACCORDO
100
AcDbLine
 62
253
  6
CONTINUOUS
 10
116.8413106106
 20
175.5436590429
 11
117.0901580321
 21
175.268266738
  0
LINE
  5
627
100
AcDbEntity
  8
RACCORDO
100
AcDbLine
 62
253
  6
CONTINUOUS
 10
117.139725173
 20
175.214131979
 11
117.6905662806
 21
174.6033374573
  0
LINE
  5
628
100
AcDbEntity
  8
0
100
AcDbLine
 62
7
  6
CONTINUOUS
 10
150.4462511368
 20
150.5769924406
 11
150.4122085877
 21
150.6769924406
  0
LINE
  5
629
100
AcDbEntity
  8
0
100
AcDbLine
 62
7
  6
CONTINUOUS
 10
151.0590171166
 20
149.5103257421
 11
151.0930596657
 21
149.4103257421
  0
LINE
  5
62A
100
AcDbEntity
  8
0
100
AcDbLine
 62
7
  6
CONTINUOUS
 10
150.4462511368
 20
152.0436590437
 11
150.4122085877
 21
152.1436590437
  0
LINE
  5
62B
100
AcDbEntity
  8
0
100
AcDbLine
 62
7
  6
CONTINUOUS
 10
151.0249745674
 20
150.5769924406
 11
150.9909320183
 21
150.6769924406
  0
LINE
  5
62C
100
AcDbEntity
  8
0
100
AcDbLine
 62
7
  6
CONTINUOUS
 10
151.6377405234
 20
149.5103257421
 11
151.6717830725
 21
149.4103257421
  0
LINE
  5
62D
100
AcDbEntity
  8
0
100
AcDbLine
 62
7
  6
CONTINUOUS
 10
151.0249745674
 20
152.0436590437
 11
150.9909320183
 21
152.1436590437
  0
LINE
  5
62E
100
AcDbEntity
  8
0
100
AcDbLine
 62
7
  6
CONTINUOUS
 10
151.6377405234
 20
151.0103256467
 11
151.6717830725
 21
150.9103256467
  0
LINE
  5
62F
100
AcDbEntity
  8
0
100
AcDbLine
 62
7
  6
CONTINUOUS
 10
151.6377405234
 20
152.4769922498
 11
151.6717830725
 21
152.3769922498
  0
LWPOLYLINE
  5
630
100
AcDbEntity
  8
0
100
AcDbPolyline
 62
7
  6
CONTINUOUS
 90
3
 70
0
 10
135.1923904397
 20
50.3281485831
 10
135.1687432245
 20
50.3012198996
 10
135.1558969597
 20
50.2868214065
  0
LWPOLYLINE
  5
631
100
AcDbEntity
  8
0
100
AcDbPolyline
 62
7
  6
CONTINUOUS
 90
3
 70
0
 10
135.1900999312
 20
50.9798063331
 10
135.1664462086
 20
50.9530757311
 10
135.1535967173
 20
50.9387643412
  0
LWPOLYLINE
  5
632
100
AcDbEntity
  8
0
100
AcDbPolyline
 62
7
  6
CONTINUOUS
 90
3
 70
0
 10
135.1558969597
 20
50.2868214065
 10
135.128326219
 20
50.2566566712
 10
135.1138493417
 20
50.2409854989
  0
LWPOLYLINE
  5
633
100
AcDbEntity
  8
0
100
AcDbPolyline
 62
7
  6
CONTINUOUS
 90
3
 70
0
 10
135.1535967173
 20
50.9387643412
 10
135.1260195568
 20
50.9087504868
 10
135.1115395198
 20
50.8931436623
  0
LWPOLYLINE
  5
634
100
AcDbEntity
  8
0
100
AcDbPolyline
 62
7
  6
CONTINUOUS
 90
3
 70
0
 10
135.1138493417
 20
50.2409854989
 10
135.0836622219
 20
50.2088564432
 10
135.0681387944
 20
50.1924731007
  0
LWPOLYLINE
  5
635
100
AcDbEntity
  8
0
100
AcDbPolyline
 62
7
  6
CONTINUOUS
 90
3
 70
0
 10
135.1115395198
 20
50.8931436623
 10
135.0813461672
 20
50.8611216376
 10
135.0658196677
 20
50.8447813788
  0
LWPOLYLINE
  5
636
100
AcDbEntity
  8
0
100
AcDbPolyline
 62
7
  6
CONTINUOUS
 90
3
 70
0
 10
135.0681387944
 20
50.1924731007
 10
135.0363919201
 20
50.1594096734
 10
135.0203376255
 20
50.1428115354
  0
LINE
  5
637
100
AcDbEntity
  8
0
100
AcDbLine
 62
7
  6
CONTINUOUS
 10
135.0658196677
 20
50.8447813788
 11
135.0180094751
 21
50.7952086805
  0
LWPOLYLINE
  5
638
100
AcDbEntity
  8
0
100
AcDbPolyline
 62
7
  6
CONTINUOUS
 90
4
 70
0
 10
135.0180094751
 20
50.7952086805
 10
134.9696713605
 20
50.7459024758
 10
134.9536893964
 20
50.7297760532
 10
134.9377541851
 20
50.7138843069
  0
LINE
  5
639
100
AcDbEntity
  8
0
100
AcDbLine
 62
253
  6
CONTINUOUS
 10
117.9139134048
 20
39.3155461455
 11
117.841995842
 21
39.2436285827
  0
LINE
  5
63A
100
AcDbEntity
  8
0
100
AcDbLine
 62
253
  6
CONTINUOUS
 10
118.1138829438
 20
39.1155766064
 11
118.041965381
 21
39.0436590437
  0
LINE
  5
63B
100
AcDbEntity
  8
0
100
AcDbLine
 62
7
  6
CONTINUOUS
 10
136.691995842
 20
54.0616202385
 11
136.6620419954
 21
54.0316663919
  0
LINE
  5
63C
100
AcDbEntity
  8
RACCORDO
100
AcDbLine
 62
253
  6
CONTINUOUS
 10
117.341995812
 20
38.9465836429
 11
117.2798792602
 21
38.8899623319
  0
LINE
  5
63D
100
AcDbEntity
  8
RACCORDO
100
AcDbLine
 62
253
  6
CONTINUOUS
 10
117.2798792602
 20
38.8899623319
 11
116.3755961875
 21
38.0733391099
  0
LWPOLYLINE
  5
63E
100
AcDbEntity
  8
RACCORDO
100
AcDbPolyline
 62
253
  6
CONTINUOUS
 90
4
 70
0
 10
116.3755961875
 20
38.0733391099
 10
116.3615486358
 20
38.0608334426
 10
116.3502957431
 20
38.050711681
 10
116.3419958512
 20
38.0429738251
  0
LINE
  5
63F
100
AcDbEntity
  8
SUPERFICI
100
AcDbLine
 62
7
  6
CONTINUOUS
 10
121.341995842
 20
62.1947040437
 11
119.741995842
 21
61.6153390437
  0
LINE
  5
640
100
AcDbEntity
  8
SUPERFICI
100
AcDbLine
 62
7
  6
CONTINUOUS
 10
120.876293842
 20
61.8002610437
 11
121.341995842
 21
61.9584630437
  0
LINE
  5
641
100
AcDbEntity
  8
SUPERFICI
100
AcDbLine
 62
7
  6
CONTINUOUS
 10
119.974073842
 20
61.4839500437
 11
120.684656842
 21
61.7223250437
  0
LWPOLYLINE
  5
642
100
AcDbEntity
  8
RACCORDO
100
AcDbPolyline
 62
253
  6
CONTINUOUS
 90
3
 70
0
 10
116.6715229152
 20
174.7459297087
 10
116.8487261147
 20
174.5865566832
 10
116.9113815529
 20
174.529676734
  0
LINE
  5
643
100
AcDbEntity
  8
RACCORDO
100
AcDbLine
 62
253
  6
CONTINUOUS
 10
116.3419958432
 20
175.0443442745
 11
116.6173881476
 21
174.7954968536
  0
LINE
  5
644
100
AcDbEntity
  8
RACCORDO
100
AcDbLine
 62
253
  6
CONTINUOUS
 10
116.9113815529
 20
174.529676734
 11
117.2823174114
 21
174.1950885891
  0
LINE
  5
645
100
AcDbEntity
  8
RACCORDO
100
AcDbLine
 62
253
  6
CONTINUOUS
 10
117.2823174114
 20
174.1950885891
 11
117.3419958268
 21
174.1407344316
  0
LINE
  5
646
100
AcDbEntity
  8
RACCORDO
100
AcDbLine
 62
253
  6
CONTINUOUS
 10
116.6173881476
 20
174.7954968536
 11
116.6715229152
 21
174.7459297087
  0
LINE
  5
647
100
AcDbEntity
  8
0
100
AcDbLine
 62
253
  6
CONTINUOUS
 10
117.9139134048
 20
173.7717719418
 11
117.841995842
 21
173.8436895046
  0
LINE
  5
648
100
AcDbEntity
  8
0
100
AcDbLine
 62
253
  6
CONTINUOUS
 10
118.1138829438
 20
173.9717414809
 11
118.041965381
 21
174.0436590437
  0
LINE
  5
649
100
AcDbEntity
  8
0
100
AcDbLine
 62
7
  6
CONTINUOUS
 10
136.691995842
 20
159.0256978488
 11
136.6620419954
 21
159.0556516954
  0
LINE
  5
64A
100
AcDbEntity
  8
0
100
AcDbLine
 62
253
  6
CONTINUOUS
 10
134.2283968624
 20
161.7574407751
 11
134.036227104
 21
161.9496072764
  0
LINE
  5
64B
100
AcDbEntity
  8
0
100
AcDbLine
 62
253
  6
CONTINUOUS
 10
134.5386775816
 20
162.0467945522
 11
134.3381007992
 21
162.247367043
  0
LINE
  5
64C
100
AcDbEntity
  8
0
100
AcDbLine
 62
7
  6
CONTINUOUS
 10
135.0187214524
 20
162.496252525
 11
134.9703860495
 21
162.5455687903
  0
LINE
  5
64D
100
AcDbEntity
  8
0
100
AcDbLine
 62
7
  6
CONTINUOUS
 10
135.066528817
 20
162.4466517931
 11
135.0187214524
 21
162.496252525
  0
LWPOLYLINE
  5
64E
100
AcDbEntity
  8
0
100
AcDbPolyline
 62
7
  6
CONTINUOUS
 90
3
 70
0
 10
135.0681387944
 20
162.8948449866
 10
135.0523257775
 20
162.9113372821
 10
135.0203376255
 20
162.9445065519
  0
LWPOLYLINE
  5
64F
100
AcDbEntity
  8
0
100
AcDbPolyline
 62
7
  6
CONTINUOUS
 90
3
 70
0
 10
135.112245754
 20
162.3982423217
 10
135.0972948382
 20
162.4141407807
 10
135.066528817
 20
162.4466517931
  0
LWPOLYLINE
  5
650
100
AcDbEntity
  8
0
100
AcDbPolyline
 62
7
  6
CONTINUOUS
 90
3
 70
0
 10
135.1138493417
 20
162.8463325884
 10
135.0989005765
 20
162.8622701595
 10
135.0681387944
 20
162.8948449866
  0
LWPOLYLINE
  5
651
100
AcDbEntity
  8
0
100
AcDbPolyline
 62
7
  6
CONTINUOUS
 90
4
 70
0
 10
135.167148433
 20
162.3382153907
 10
135.1542999517
 20
162.3525540972
 10
135.1407483107
 20
162.3673586066
 10
135.112245754
 20
162.3982423217
  0
LWPOLYLINE
  5
652
100
AcDbEntity
  8
0
100
AcDbPolyline
 62
7
  6
CONTINUOUS
 90
4
 70
0
 10
135.1687432246
 20
162.7860981877
 10
135.1558969597
 20
162.8004966808
 10
135.1423475333
 20
162.8153555199
 10
135.1138493417
 20
162.8463325884
  0
LINE
  5
653
100
AcDbEntity
  8
0
100
AcDbLine
 62
7
  6
CONTINUOUS
 10
150.5143362351
 20
148.9769923452
 11
150.4462511368
 21
149.0769923452
  0
LINE
  5
654
100
AcDbEntity
  8
0
100
AcDbLine
 62
7
  6
CONTINUOUS
 10
150.9909320183
 20
149.6103257421
 11
151.0590171166
 21
149.5103257421
  0
LINE
  5
655
100
AcDbEntity
  8
0
100
AcDbLine
 62
7
  6
CONTINUOUS
 10
150.5143362351
 20
150.4769924406
 11
150.4462511368
 21
150.5769924406
  0
LINE
  5
656
100
AcDbEntity
  8
0
100
AcDbLine
 62
7
  6
CONTINUOUS
 10
151.2292298622
 20
149.5436590437
 11
151.0930596657
 21
149.7436590437
  0
LINE
  5
657
100
AcDbEntity
  8
0
100
AcDbLine
 62
7
  6
CONTINUOUS
 10
150.8547618218
 20
150.5436590437
 11
150.9909320183
 21
150.3436590437
  0
LINE
  5
658
100
AcDbEntity
  8
0
100
AcDbLine
 62
7
  6
CONTINUOUS
 10
151.5696554251
 20
149.6103257421
 11
151.6377405234
 21
149.5103257421
  0
LINE
  5
659
100
AcDbEntity
  8
0
100
AcDbLine
 62
7
  6
CONTINUOUS
 10
151.0930596657
 20
150.4769924406
 11
151.0249745674
 21
150.5769924406
  0
LINE
  5
65A
100
AcDbEntity
  8
0
100
AcDbLine
 62
7
  6
CONTINUOUS
 10
150.5143362351
 20
151.9436590437
 11
150.4462511368
 21
152.0436590437
  0
LINE
  5
65B
100
AcDbEntity
  8
0
100
AcDbLine
 62
7
  6
CONTINUOUS
 10
150.8547618218
 20
152.0103258375
 11
150.9909320183
 21
151.8103258375
  0
LINE
  5
65C
100
AcDbEntity
  8
0
100
AcDbLine
 62
7
  6
CONTINUOUS
 10
151.5696554251
 20
151.1103256467
 11
151.6377405234
 21
151.0103256467
  0
LINE
  5
65D
100
AcDbEntity
  8
0
100
AcDbLine
 62
7
  6
CONTINUOUS
 10
151.0930596657
 20
151.9436590437
 11
151.0249745674
 21
152.0436590437
  0
LINE
  5
65E
100
AcDbEntity
  8
0
100
AcDbLine
 62
7
  6
CONTINUOUS
 10
150.2760383911
 20
149.0436590437
 11
150.3781660385
 21
148.8769923452
  0
LINE
  5
65F
100
AcDbEntity
  8
0
100
AcDbLine
 62
7
  6
CONTINUOUS
 10
150.2760383911
 20
150.5436590437
 11
150.3781660385
 21
150.3769924406
  0
LINE
  5
660
100
AcDbEntity
  8
0
100
AcDbLine
 62
7
  6
CONTINUOUS
 10
150.2760383911
 20
152.0103258375
 11
150.3781660385
 21
151.8436590437
  0
LINE
  5
661
100
AcDbEntity
  8
0
100
AcDbLine
 62
7
  6
CONTINUOUS
 10
151.8079532899
 20
149.5436590437
 11
151.7058256335
 21
149.7103256467
  0
LINE
  5
662
100
AcDbEntity
  8
0
100
AcDbLine
 62
7
  6
CONTINUOUS
 10
151.8079532899
 20
151.0436590437
 11
151.7058256335
 21
151.2103256467
  0
LINE
  5
663
100
AcDbEntity
  8
0
100
AcDbLine
 62
7
  6
CONTINUOUS
 10
151.8079532899
 20
152.5103258375
 11
151.7058256335
 21
152.6769922498
  0
LWPOLYLINE
  5
664
100
AcDbEntity
  8
0
100
AcDbPolyline
 62
253
  6
CONTINUOUS
 90
16
 70
0
 10
150.9913695316
 20
42.2990675219
 10
150.9902458175
 20
42.2966630776
 10
150.9904580288
 20
42.292002222
 10
150.9920033621
 20
42.2851465308
 10
150.9948614014
 20
42.2761865769
 10
150.9989943882
 20
42.2652407327
 10
151.0043477206
 20
42.2524536071
 10
151.010850674
 20
42.2379941347
 10
151.0184173359
 20
42.2220533439
 10
151.0269477408
 20
42.2048418333
 10
151.0363291911
 20
42.1865869894
 10
151.0464377456
 20
42.1675299823
 10
151.0571398572
 20
42.14792258
 10
151.0682941369
 20
42.1280238216
 10
151.0797532223
 20
42.1080965958
 10
151.0913657239
 20
42.088404167
  0
LINE
  5
665
100
AcDbEntity
  8
0
100
AcDbLine
 62
7
  6
CONTINUOUS
 10
133.549782842
 20
44.2648650437
 11
131.476594842
 21
41.8596100437
  0
LINE
  5
666
100
AcDbEntity
  8
0
100
AcDbLine
 62
7
  6
CONTINUOUS
 10
131.880974842
 20
41.8596100437
 11
133.513297842
 21
43.7534070437
  0
LWPOLYLINE
  5
667
100
AcDbEntity
  8
0
100
AcDbPolyline
 62
7
  6
CONTINUOUS
 90
4
 70
0
 10
135.0203376255
 20
50.1428115354
 10
134.9720081631
 20
50.0934739145
 10
134.9560289709
 20
50.077348991
 10
134.9400964775
 20
50.0614643942
  0
LINE
  5
668
100
AcDbEntity
  8
0
100
AcDbLine
 62
7
  6
CONTINUOUS
 10
130.6156009672
 20
43.0352253637
 11
130.6304992738
 21
43.0501236703
  0
LINE
  5
669
100
AcDbEntity
  8
0
100
AcDbLine
 62
7
  6
CONTINUOUS
 10
130.6139134048
 20
39.1155766064
 11
130.541995842
 21
39.0436590437
  0
LINE
  5
66A
100
AcDbEntity
  8
0
100
AcDbLine
 62
7
  6
CONTINUOUS
 10
137.4555948216
 20
51.8364961454
 11
137.052334648
 21
51.4436590437
  0
LINE
  5
66B
100
AcDbEntity
  8
0
100
AcDbLine
 62
7
  6
CONTINUOUS
 10
119.0138337683
 20
54.8486215049
 11
119.1747622508
 21
54.9033146926
  0
LINE
  5
66C
100
AcDbEntity
  8
SUPERFICI
100
AcDbLine
 62
7
  6
CONTINUOUS
 10
121.101224842
 20
59.8124660437
 11
119.741995842
 21
59.3534220437
  0
LINE
  5
66D
100
AcDbEntity
  8
SUPERFICI
100
AcDbLine
 62
7
  6
CONTINUOUS
 10
120.000402842
 20
59.2531210437
 11
121.341995842
 21
59.7032990437
  0
LINE
  5
66E
100
AcDbEntity
  8
0
100
AcDbLine
 62
7
  6
CONTINUOUS
 10
150.92284692
 20
149.9103256467
 11
150.6845490761
 21
149.8769924406
  0
LINE
  5
66F
100
AcDbEntity
  8
0
100
AcDbLine
 62
7
  6
CONTINUOUS
 10
151.161144764
 20
150.1769924406
 11
151.3994426556
 21
150.2103256467
  0
LINE
  5
670
100
AcDbEntity
  8
0
100
AcDbLine
 62
7
  6
CONTINUOUS
 10
151.161144764
 20
151.6436590437
 11
151.3994426556
 21
151.6769922498
  0
LINE
  5
671
100
AcDbEntity
  8
0
100
AcDbLine
 62
7
  6
CONTINUOUS
 10
150.4802936859
 20
148.0436590437
 11
150.7526341744
 21
148.0436590437
  0
LINE
  5
672
100
AcDbEntity
  8
0
100
AcDbLine
 62
7
  6
CONTINUOUS
 10
150.5143362351
 20
148.2436590437
 11
151.841995842
 21
148.2436590437
  0
LINE
  5
673
100
AcDbEntity
  8
0
100
AcDbLine
 62
7
  6
CONTINUOUS
 10
151.841995842
 20
148.4436590437
 11
150.241995842
 21
148.4436590437
  0
LINE
  5
674
100
AcDbEntity
  8
0
100
AcDbLine
 62
7
  6
CONTINUOUS
 10
150.6845490761
 20
148.7103256944
 11
150.8207192726
 21
148.7103256944
  0
LINE
  5
675
100
AcDbEntity
  8
0
100
AcDbLine
 62
7
  6
CONTINUOUS
 10
150.7866767235
 20
148.8769923452
 11
150.7185916252
 21
148.8769923452
  0
LINE
  5
676
100
AcDbEntity
  8
0
100
AcDbLine
 62
7
  6
CONTINUOUS
 10
150.7185916252
 20
149.7103256467
 11
150.7866767235
 21
149.7103256467
  0
LINE
  5
677
100
AcDbEntity
  8
0
100
AcDbLine
 62
7
  6
CONTINUOUS
 10
151.0930596657
 20
149.7436590437
 11
151.161144764
 21
149.7436590437
  0
LINE
  5
678
100
AcDbEntity
  8
0
100
AcDbLine
 62
7
  6
CONTINUOUS
 10
151.161144764
 20
149.9103256467
 11
150.92284692
 21
149.9103256467
  0
LINE
  5
679
100
AcDbEntity
  8
0
100
AcDbLine
 62
7
  6
CONTINUOUS
 10
150.92284692
 20
150.1769924406
 11
151.161144764
 21
150.1769924406
  0
LINE
  5
67A
100
AcDbEntity
  8
0
100
AcDbLine
 62
7
  6
CONTINUOUS
 10
150.9909320183
 20
150.3436590437
 11
150.92284692
 21
150.3436590437
  0
LINE
  5
67B
100
AcDbEntity
  8
0
100
AcDbLine
 62
7
  6
CONTINUOUS
 10
151.3654001064
 20
150.3769924406
 11
151.263272459
 21
150.3769924406
  0
LINE
  5
67C
100
AcDbEntity
  8
0
100
AcDbLine
 62
7
  6
CONTINUOUS
 10
119.1747622508
 20
158.1840033947
 11
119.0138337683
 21
158.2386965824
  0
LINE
  5
67D
100
AcDbEntity
  8
0
100
AcDbLine
 62
7
  6
CONTINUOUS
 10
150.6164638825
 20
148.9103257421
 11
150.5143362351
 21
148.9769923452
  0
LINE
  5
67E
100
AcDbEntity
  8
0
100
AcDbLine
 62
7
  6
CONTINUOUS
 10
150.3781660385
 20
148.8769923452
 11
150.5143362351
 21
148.7769923929
  0
LINE
  5
67F
100
AcDbEntity
  8
0
100
AcDbLine
 62
7
  6
CONTINUOUS
 10
150.3781660385
 20
150.3769924406
 11
150.5143362351
 21
150.2769924406
  0
LINE
  5
680
100
AcDbEntity
  8
0
100
AcDbLine
 62
7
  6
CONTINUOUS
 10
150.241995842
 20
148.2436590437
 11
150.4802936859
 21
148.0436590437
  0
LINE
  5
681
100
AcDbEntity
  8
0
100
AcDbLine
 62
7
  6
CONTINUOUS
 10
150.7526341744
 20
148.0436590437
 11
150.5143362351
 21
148.2436590437
  0
LINE
  5
682
100
AcDbEntity
  8
0
100
AcDbLine
 62
7
  6
CONTINUOUS
 10
137.4555948216
 20
161.2508219419
 11
137.052334648
 21
161.6436590437
  0
LINE
  5
683
100
AcDbEntity
  8
0
100
AcDbLine
 62
7
  6
CONTINUOUS
 10
151.161144764
 20
150.4103256467
 11
151.0930596657
 21
150.4769924406
  0
LINE
  5
684
100
AcDbEntity
  8
0
100
AcDbLine
 62
7
  6
CONTINUOUS
 10
151.161144764
 20
151.8769922498
 11
151.0930596657
 21
151.9436590437
  0
LINE
  5
685
100
AcDbEntity
  8
0
100
AcDbLine
 62
7
  6
CONTINUOUS
 10
135.2382878427
 20
162.247367043
 11
135.441995842
 21
162.0436590437
  0
LINE
  5
686
100
AcDbEntity
  8
0
100
AcDbLine
 62
7
  6
CONTINUOUS
 10
130.6156009672
 20
170.0520927236
 11
130.6304992738
 21
170.037194417
  0
LINE
  5
687
100
AcDbEntity
  8
0
100
AcDbLine
 62
7
  6
CONTINUOUS
 10
130.6139134048
 20
173.9717414809
 11
130.541995842
 21
174.0436590437
  0
LWPOLYLINE
  5
688
100
AcDbEntity
  8
0
100
AcDbPolyline
 62
7
  6
CONTINUOUS
 90
3
 70
0
 10
134.9703860495
 20
162.5455687903
 10
134.9544049541
 20
162.5616948204
 10
134.9384705946
 20
162.5775844056
  0
LWPOLYLINE
  5
689
100
AcDbEntity
  8
0
100
AcDbPolyline
 62
7
  6
CONTINUOUS
 90
3
 70
0
 10
134.9720081631
 20
162.9938441728
 10
134.9560289709
 20
163.0099690963
 10
134.9400964775
 20
163.0258536931
  0
LINE
  5
68A
100
AcDbEntity
  8
0
100
AcDbLine
 62
7
  6
CONTINUOUS
 10
135.0203376255
 20
162.9445065519
 11
134.9720081631
 21
162.9938441728
  0
LINE
  5
68B
100
AcDbEntity
  8
0
100
AcDbLine
 62
7
  6
CONTINUOUS
 10
151.5696554251
 20
152.5769922498
 11
151.6377405234
 21
152.4769922498
  0
LWPOLYLINE
  5
68C
100
AcDbEntity
  8
0
100
AcDbPolyline
 62
253
  6
CONTINUOUS
 90
16
 70
0
 10
150.9913708216
 20
170.7882527994
 10
150.9902470773
 20
170.7906573496
 10
150.9904592415
 20
170.7953182729
 10
150.9920045108
 20
170.8021739946
 10
150.9948624701
 20
170.8111339446
 10
150.9989953627
 20
170.8220797538
 10
151.0043485888
 20
170.8348668184
 10
151.0108514267
 20
170.8493262097
 10
151.0184179677
 20
170.8652669059
 10
151.02694825
 20
170.8824783161
 10
151.0363295805
 20
170.9007330619
 10
151.0464380227
 20
170.9197899813
 10
151.0571400342
 20
170.9393973153
 10
151.0682942312
 20
170.9592960329
 10
151.0797532561
 20
170.979223254
 10
151.0913657243
 20
170.9989157216
  0
LINE
  5
68D
100
AcDbEntity
  8
0
100
AcDbLine
 62
253
  6
CONTINUOUS
 10
143.6172557638
 20
39.0436590437
 11
143.6699085509
 21
39.1155766064
  0
LINE
  5
68E
100
AcDbEntity
  8
0
100
AcDbLine
 62
253
  6
CONTINUOUS
 10
143.7172742583
 20
39.0704605592
 11
143.7699047432
 21
39.1423476598
  0
LINE
  5
68F
100
AcDbEntity
  8
0
100
AcDbLine
 62
7
  6
CONTINUOUS
 10
148.4862269116
 20
54.9199289184
 11
148.5229306987
 21
54.9566327056
  0
LINE
  5
690
100
AcDbEntity
  8
0
100
AcDbLine
 62
7
  6
CONTINUOUS
 10
137.883774842
 20
44.2768580437
 11
136.679790842
 21
43.0728750437
  0
LINE
  5
691
100
AcDbEntity
  8
0
100
AcDbLine
 62
7
  6
CONTINUOUS
 10
137.112950842
 20
43.0728740437
 11
138.316896842
 21
44.2768580437
  0
LINE
  5
692
100
AcDbEntity
  8
0
100
AcDbLine
 62
7
  6
CONTINUOUS
 10
139.696335842
 20
45.0301020437
 11
139.153299842
 21
44.4870670437
  0
LINE
  5
693
100
AcDbEntity
  8
0
100
AcDbLine
 62
7
  6
CONTINUOUS
 10
139.586440842
 20
44.4870670437
 11
140.129457842
 21
45.0301020437
  0
LINE
  5
694
100
AcDbEntity
  8
0
100
AcDbLine
 62
7
  6
CONTINUOUS
 10
141.9156009672
 20
43.0352253637
 11
141.9304992738
 21
43.0501236703
  0
LINE
  5
695
100
AcDbEntity
  8
0
100
AcDbLine
 62
7
  6
CONTINUOUS
 10
134.0280638103
 20
54.0367256181
 11
134.0778682254
 21
54.0616202385
  0
LINE
  5
696
100
AcDbEntity
  8
0
100
AcDbLine
 62
7
  6
CONTINUOUS
 10
134.991995842
 20
51.8846753223
 11
135.0191012248
 21
51.8982269815
  0
LINE
  5
697
100
AcDbEntity
  8
SUPERFICI
100
AcDbLine
 62
7
  6
CONTINUOUS
 10
150.829470842
 20
61.5337940437
 11
151.939448842
 21
61.9500500437
  0
LINE
  5
698
100
AcDbEntity
  8
SUPERFICI
100
AcDbLine
 62
7
  6
CONTINUOUS
 10
151.183354842
 20
61.9768700437
 11
150.239585842
 21
61.6257900437
  0
LWPOLYLINE
  5
699
100
AcDbEntity
  8
SUPERFICI
100
AcDbPolyline
 62
7
  6
CONTINUOUS
 90
6
 70
0
 10
151.4238341641
 20
65.1411857425
 10
151.4763239651
 20
65.1591357566
 10
151.5300764889
 20
65.1767149683
 10
151.5850917355
 20
65.1939233763
 10
151.6414530818
 20
65.2105010946
 10
151.757713812
 20
65.243323766
  0
LINE
  5
69A
100
AcDbEntity
  8
SUPERFICI
100
AcDbLine
 62
7
  6
CONTINUOUS
 10
151.939448842
 20
64.2954390437
 11
150.239585842
 21
63.7738790437
  0
LINE
  5
69B
100
AcDbEntity
  8
SUPERFICI
100
AcDbLine
 62
7
  6
CONTINUOUS
 10
151.757713812
 20
65.243323766
 11
151.9394492173
 21
65.2964038074
  0
LWPOLYLINE
  5
69C
100
AcDbEntity
  8
0
100
AcDbPolyline
 62
7
  6
CONTINUOUS
 90
7
 70
0
 10
152.5092294332
 20
158.1840033947
 10
152.5067599915
 20
158.1835513351
 10
152.5021421763
 20
158.1831097934
 10
152.4953759876
 20
158.1826787695
 10
152.4863483501
 20
158.1822542619
 10
152.4751723391
 20
158.1818402721
 10
152.4621871808
 20
158.1814488049
  0
LINE
  5
69D
100
AcDbEntity
  8
0
100
AcDbLine
 62
7
  6
CONTINUOUS
 10
151.263272459
 20
151.2103256467
 11
151.3654001064
 21
151.2103256467
  0
LINE
  5
69E
100
AcDbEntity
  8
0
100
AcDbLine
 62
7
  6
CONTINUOUS
 10
151.3994426556
 20
151.3769922498
 11
151.2292298622
 21
151.3769922498
  0
LINE
  5
69F
100
AcDbEntity
  8
0
100
AcDbLine
 62
7
  6
CONTINUOUS
 10
121.591001842
 20
151.5897270437
 11
121.912428842
 21
151.5897270437
  0
LINE
  5
6A0
100
AcDbEntity
  8
0
100
AcDbLine
 62
7
  6
CONTINUOUS
 10
118.984224842
 20
151.6002240437
 11
119.307419842
 21
151.6002240437
  0
LINE
  5
6A1
100
AcDbEntity
  8
0
100
AcDbLine
 62
7
  6
CONTINUOUS
 10
150.92284692
 20
151.6436590437
 11
151.161144764
 21
151.6436590437
  0
LINE
  5
6A2
100
AcDbEntity
  8
0
100
AcDbLine
 62
7
  6
CONTINUOUS
 10
150.9909320183
 20
151.8103258375
 11
150.92284692
 21
151.8103258375
  0
LINE
  5
6A3
100
AcDbEntity
  8
0
100
AcDbLine
 62
7
  6
CONTINUOUS
 10
151.3654001064
 20
151.8436590437
 11
151.263272459
 21
151.8436590437
  0
LINE
  5
6A4
100
AcDbEntity
  8
0
100
AcDbLine
 62
7
  6
CONTINUOUS
 10
119.307419842
 20
151.8745810437
 11
120.126954842
 21
151.8745810437
  0
LINE
  5
6A5
100
AcDbEntity
  8
0
100
AcDbLine
 62
7
  6
CONTINUOUS
 10
120.525285842
 20
151.8745810437
 11
121.591001842
 21
151.8745810437
  0
LINE
  5
6A6
100
AcDbEntity
  8
0
100
AcDbLine
 62
7
  6
CONTINUOUS
 10
121.591001842
 20
152.2170020437
 11
120.521691842
 21
152.2170020437
  0
LINE
  5
6A7
100
AcDbEntity
  8
0
100
AcDbLine
 62
7
  6
CONTINUOUS
 10
120.126954842
 20
152.2170020437
 11
119.307419842
 21
152.2170020437
  0
LINE
  5
6A8
100
AcDbEntity
  8
0
100
AcDbLine
 62
7
  6
CONTINUOUS
 10
119.307419842
 20
152.4912490437
 11
118.984224842
 21
152.4912490437
  0
LINE
  5
6A9
100
AcDbEntity
  8
0
100
AcDbLine
 62
7
  6
CONTINUOUS
 10
121.912428842
 20
152.5017460437
 11
121.591001842
 21
152.5017460437
  0
LINE
  5
6AA
100
AcDbEntity
  8
0
100
AcDbLine
 62
7
  6
CONTINUOUS
 10
151.263272459
 20
152.6769922498
 11
151.3654001064
 21
152.6769922498
  0
LINE
  5
6AB
100
AcDbEntity
  8
0
100
AcDbLine
 62
7
  6
CONTINUOUS
 10
151.3994426556
 20
152.8436590437
 11
151.2292298622
 21
152.8436590437
  0
LINE
  5
6AC
100
AcDbEntity
  8
0
100
AcDbLine
 62
7
  6
CONTINUOUS
 10
150.241995842
 20
153.1103258375
 11
150.4122085877
 21
153.1103258375
  0
LINE
  5
6AD
100
AcDbEntity
  8
0
100
AcDbLine
 62
7
  6
CONTINUOUS
 10
150.4122085877
 20
154.3103258375
 11
150.241995842
 21
154.3103258375
  0
LINE
  5
6AE
100
AcDbEntity
  8
0
100
AcDbLine
 62
7
  6
CONTINUOUS
 10
151.3994426556
 20
149.8769924406
 11
151.161144764
 21
149.9103256467
  0
LINE
  5
6AF
100
AcDbEntity
  8
0
100
AcDbLine
 62
7
  6
CONTINUOUS
 10
150.6845490761
 20
150.2103256467
 11
150.92284692
 21
150.1769924406
  0
LINE
  5
6B0
100
AcDbEntity
  8
0
100
AcDbLine
 62
7
  6
CONTINUOUS
 10
150.6845490761
 20
151.6769922498
 11
150.92284692
 21
151.6436590437
  0
LINE
  5
6B1
100
AcDbEntity
  8
0
100
AcDbLine
 62
7
  6
CONTINUOUS
 10
151.161144764
 20
149.7436590437
 11
151.3654001064
 21
149.7103256467
  0
LINE
  5
6B2
100
AcDbEntity
  8
0
100
AcDbLine
 62
7
  6
CONTINUOUS
 10
150.92284692
 20
150.3436590437
 11
150.7185916252
 21
150.3769924406
  0
LINE
  5
6B3
100
AcDbEntity
  8
0
100
AcDbLine
 62
7
  6
CONTINUOUS
 10
150.92284692
 20
151.8103258375
 11
150.7185916252
 21
151.8436590437
  0
LWPOLYLINE
  5
6B4
100
AcDbEntity
  8
0
100
AcDbPolyline
 62
7
  6
CONTINUOUS
 90
8
 70
0
 10
119.0138337683
 20
158.2386965824
 10
119.0114956039
 20
158.2391359087
 10
119.00707659
 20
158.2395664777
 10
119.0005767267
 20
158.2399882897
 10
118.9918834437
 20
158.2404056639
 10
118.9811093112
 20
158.240814281
 10
118.9685920397
 20
158.2412011825
 10
118.9383613138
 20
158.2419043987
  0
LWPOLYLINE
  5
6B5
100
AcDbEntity
  8
0
100
AcDbPolyline
 62
7
  6
CONTINUOUS
 90
10
 70
0
 10
117.9515305636
 20
158.134124322
 10
117.9526005112
 20
158.1338222307
 10
117.9550801504
 20
158.1335267901
 10
117.9589694813
 20
158.133238
 10
117.9642859952
 20
158.1329542968
 10
117.9710122008
 20
158.1326772442
 10
117.9790956237
 20
158.1324115336
 10
117.9886146023
 20
158.1321561142
 10
117.9994907981
 20
158.1319120367
 10
118.024505934
 20
158.1314824718
  0
LINE
  5
6B6
100
AcDbEntity
  8
0
100
AcDbLine
 62
7
  6
CONTINUOUS
 10
150.7185916252
 20
148.8769923452
 11
150.6164638825
 21
148.9103257421
  0
LINE
  5
6B7
100
AcDbEntity
  8
0
100
AcDbLine
 62
7
  6
CONTINUOUS
 10
150.7866767235
 20
149.7103256467
 11
150.8888043709
 21
149.6769924406
  0
LINE
  5
6B8
100
AcDbEntity
  8
0
100
AcDbLine
 62
7
  6
CONTINUOUS
 10
151.3654001064
 20
149.7103256467
 11
151.4675277538
 21
149.6769924406
  0
LINE
  5
6B9
100
AcDbEntity
  8
0
100
AcDbLine
 62
7
  6
CONTINUOUS
 10
150.7185916252
 20
150.3769924406
 11
150.6164638825
 21
150.4103256467
  0
LINE
  5
6BA
100
AcDbEntity
  8
0
100
AcDbLine
 62
7
  6
CONTINUOUS
 10
151.263272459
 20
150.3769924406
 11
151.161144764
 21
150.4103256467
  0
LINE
  5
6BB
100
AcDbEntity
  8
0
100
AcDbLine
 62
7
  6
CONTINUOUS
 10
151.3654001064
 20
151.2103256467
 11
151.4675277538
 21
151.1769924406
  0
LINE
  5
6BC
100
AcDbEntity
  8
0
100
AcDbLine
 62
7
  6
CONTINUOUS
 10
150.7185916252
 20
151.8436590437
 11
150.6164638825
 21
151.8769922498
  0
LINE
  5
6BD
100
AcDbEntity
  8
0
100
AcDbLine
 62
7
  6
CONTINUOUS
 10
151.263272459
 20
151.8436590437
 11
151.161144764
 21
151.8769922498
  0
LINE
  5
6BE
100
AcDbEntity
  8
0
100
AcDbLine
 62
7
  6
CONTINUOUS
 10
151.3654001064
 20
152.6769922498
 11
151.4675277538
 21
152.6436590437
  0
LINE
  5
6BF
100
AcDbEntity
  8
0
100
AcDbLine
 62
7
  6
CONTINUOUS
 10
150.5143362351
 20
148.7769923929
 11
150.6845490761
 21
148.7103256944
  0
LINE
  5
6C0
100
AcDbEntity
  8
0
100
AcDbLine
 62
7
  6
CONTINUOUS
 10
151.5696554251
 20
149.8103256467
 11
151.3994426556
 21
149.8769924406
  0
LINE
  5
6C1
100
AcDbEntity
  8
0
100
AcDbLine
 62
7
  6
CONTINUOUS
 10
150.5143362351
 20
150.2769924406
 11
150.6845490761
 21
150.2103256467
  0
LINE
  5
6C2
100
AcDbEntity
  8
0
100
AcDbLine
 62
7
  6
CONTINUOUS
 10
151.5696554251
 20
151.3103258375
 11
151.3994426556
 21
151.3769922498
  0
LINE
  5
6C3
100
AcDbEntity
  8
0
100
AcDbLine
 62
7
  6
CONTINUOUS
 10
150.5143362351
 20
151.7436590437
 11
150.6845490761
 21
151.6769922498
  0
LINE
  5
6C4
100
AcDbEntity
  8
0
100
AcDbLine
 62
7
  6
CONTINUOUS
 10
151.5696554251
 20
152.7769922498
 11
151.3994426556
 21
152.8436590437
  0
LINE
  5
6C5
100
AcDbEntity
  8
0
100
AcDbLine
 62
7
  6
CONTINUOUS
 10
150.4122085877
 20
154.1103258375
 11
151.841995842
 21
153.4436590437
  0
LINE
  5
6C6
100
AcDbEntity
  8
0
100
AcDbLine
 62
7
  6
CONTINUOUS
 10
151.841995842
 20
153.6436590437
 11
150.4122085877
 21
154.3103258375
  0
LINE
  5
6C7
100
AcDbEntity
  8
0
100
AcDbLine
 62
7
  6
CONTINUOUS
 10
134.0280638103
 20
159.0505924692
 11
134.0778682254
 21
159.0256978488
  0
LINE
  5
6C8
100
AcDbEntity
  8
0
100
AcDbLine
 62
7
  6
CONTINUOUS
 10
134.991995842
 20
161.202642765
 11
135.0191012248
 21
161.1890911058
  0
LINE
  5
6C9
100
AcDbEntity
  8
0
100
AcDbLine
 62
7
  6
CONTINUOUS
 10
150.8888043709
 20
149.6769924406
 11
150.9909320183
 21
149.6103257421
  0
LINE
  5
6CA
100
AcDbEntity
  8
0
100
AcDbLine
 62
7
  6
CONTINUOUS
 10
151.4675277538
 20
149.6769924406
 11
151.5696554251
 21
149.6103257421
  0
LINE
  5
6CB
100
AcDbEntity
  8
0
100
AcDbLine
 62
7
  6
CONTINUOUS
 10
150.6164638825
 20
150.4103256467
 11
150.5143362351
 21
150.4769924406
  0
LINE
  5
6CC
100
AcDbEntity
  8
0
100
AcDbLine
 62
7
  6
CONTINUOUS
 10
151.4675277538
 20
151.1769924406
 11
151.5696554251
 21
151.1103256467
  0
LINE
  5
6CD
100
AcDbEntity
  8
0
100
AcDbLine
 62
7
  6
CONTINUOUS
 10
150.6164638825
 20
151.8769922498
 11
150.5143362351
 21
151.9436590437
  0
LINE
  5
6CE
100
AcDbEntity
  8
0
100
AcDbLine
 62
7
  6
CONTINUOUS
 10
151.4675277538
 20
152.6436590437
 11
151.5696554251
 21
152.5769922498
  0
LINE
  5
6CF
100
AcDbEntity
  8
0
100
AcDbLine
 62
7
  6
CONTINUOUS
 10
151.7058256335
 20
149.7103256467
 11
151.5696554251
 21
149.8103256467
  0
LINE
  5
6D0
100
AcDbEntity
  8
0
100
AcDbLine
 62
7
  6
CONTINUOUS
 10
150.3781660385
 20
151.8436590437
 11
150.5143362351
 21
151.7436590437
  0
LINE
  5
6D1
100
AcDbEntity
  8
0
100
AcDbLine
 62
7
  6
CONTINUOUS
 10
151.7058256335
 20
152.6769922498
 11
151.5696554251
 21
152.7769922498
  0
LINE
  5
6D2
100
AcDbEntity
  8
0
100
AcDbLine
 62
7
  6
CONTINUOUS
 10
151.7058256335
 20
151.2103256467
 11
151.5696554251
 21
151.3103258375
  0
LINE
  5
6D3
100
AcDbEntity
  8
0
100
AcDbLine
 62
7
  6
CONTINUOUS
 10
148.4862269116
 20
158.1673891689
 11
148.5229306987
 21
158.1306853817
  0
LINE
  5
6D4
100
AcDbEntity
  8
0
100
AcDbLine
 62
7
  6
CONTINUOUS
 10
141.9156009672
 20
170.0520927236
 11
141.9304992738
 21
170.037194417
  0
LINE
  5
6D5
100
AcDbEntity
  8
0
100
AcDbLine
 62
253
  6
CONTINUOUS
 10
143.6699085509
 20
173.9717414809
 11
143.6172557638
 21
174.0436590437
  0
LINE
  5
6D6
100
AcDbEntity
  8
0
100
AcDbLine
 62
253
  6
CONTINUOUS
 10
143.7699047432
 20
173.9449704275
 11
143.7172742583
 21
174.0168575281
  0
LINE
  5
6D7
100
AcDbEntity
  8
0
100
AcDbLine
 62
7
  6
CONTINUOUS
 10
153.841995842
 20
54.1436590437
 11
153.7334368418
 21
54.0351000435
  0
LINE
  5
6D8
100
AcDbEntity
  8
0
100
AcDbLine
 62
7
  6
CONTINUOUS
 10
141.9139134048
 20
39.1155766064
 11
141.841995842
 21
39.0436590437
  0
LINE
  5
6D9
100
AcDbEntity
  8
SUPERFICI
100
AcDbLine
 62
7
  6
CONTINUOUS
 10
150.239585842
 20
59.0422610437
 11
151.939448842
 21
59.5811500437
  0
LINE
  5
6DA
100
AcDbEntity
  8
0
100
AcDbLine
 62
7
  6
CONTINUOUS
 10
134.2280280661
 20
161.2401684295
 11
134.0778682254
 21
161.202642765
  0
LINE
  5
6DB
100
AcDbEntity
  8
0
100
AcDbLine
 62
7
  6
CONTINUOUS
 10
136.241995842
 20
162.6436590437
 11
136.4438037644
 21
162.6940918114
  0
LWPOLYLINE
  5
6DC
100
AcDbEntity
  8
0
100
AcDbPolyline
 62
7
  6
CONTINUOUS
 90
7
 70
0
 10
119.2347388334
 20
159.003551498
 10
119.2372850187
 20
159.0040050517
 10
119.2419932077
 20
159.0044480661
 10
119.2488634003
 20
159.0048805412
 10
119.2580138827
 20
159.0053065865
 10
119.2693263688
 20
159.0057220925
 10
119.2824459999
 20
159.0061147305
  0
LWPOLYLINE
  5
6DD
100
AcDbEntity
  8
0
100
AcDbPolyline
 62
7
  6
CONTINUOUS
 90
7
 70
0
 10
137.6998445181
 20
159.0531451659
 10
137.6874066603
 20
159.0527501467
 10
137.6767602781
 20
159.0523329742
 10
137.668254314
 20
159.0519072591
 10
137.6620050824
 20
159.0514775383
 10
137.657896269
 20
159.051039275
 10
137.6559278737
 20
159.0505924692
  0
LWPOLYLINE
  5
6DE
100
AcDbEntity
  8
0
100
AcDbPolyline
 62
7
  6
CONTINUOUS
 90
7
 70
0
 10
152.7153962211
 20
158.2412010871
 10
152.7028787154
 20
158.2408141548
 10
152.6921049435
 20
158.2404055136
 10
152.6834122437
 20
158.2399881383
 10
152.6769130622
 20
158.2395663538
 10
152.6724949529
 20
158.2391358352
 10
152.6701579157
 20
158.2386965824
  0
LWPOLYLINE
  5
6DF
100
AcDbEntity
  8
0
100
AcDbPolyline
 62
7
  6
CONTINUOUS
 90
7
 70
0
 10
119.0194366772
 20
158.9461175941
 10
119.032015788
 20
158.9465045372
 10
119.0428517244
 20
158.9469131534
 10
119.051606685
 20
158.9473304568
 10
119.0581680695
 20
158.9477521189
 10
119.0626484782
 20
158.9481824683
 10
119.0650479112
 20
158.9486215049
  0
LWPOLYLINE
  5
6E0
100
AcDbEntity
  8
0
100
AcDbPolyline
 62
7
  6
CONTINUOUS
 90
8
 70
0
 10
153.6953770708
 20
158.1321561187
 10
153.704896079
 20
158.1324115387
 10
153.7129795046
 20
158.1326772494
 10
153.7197056969
 20
158.1329543018
 10
153.7250222002
 20
158.1332380043
 10
153.7289115292
 20
158.1335267933
 10
153.7313911693
 20
158.1338222325
 10
153.7324611204
 20
158.134124322
  0
LWPOLYLINE
  5
6E1
100
AcDbEntity
  8
0
100
AcDbPolyline
 62
7
  6
CONTINUOUS
 90
8
 70
0
 10
117.9875908143
 20
159.0541820778
 10
117.9780811195
 20
159.0539270828
 10
117.9700068274
 20
159.0536618629
 10
117.963289868
 20
159.0533853653
 10
117.9579811035
 20
159.0531022668
 10
117.9540974881
 20
159.0528141266
 10
117.9516220677
 20
159.0525193856
 10
117.9505548421
 20
159.0522180438
  0
LINE
  5
6E2
100
AcDbEntity
  8
0
100
AcDbLine
 62
7
  6
CONTINUOUS
 10
137.7300675323
 20
159.0538630072
 11
137.6998445181
 21
159.0531451659
  0
LINE
  5
6E3
100
AcDbEntity
  8
0
100
AcDbLine
 62
7
  6
CONTINUOUS
 10
152.7456301517
 20
158.241904387
 11
152.7153962211
 21
158.2412010871
  0
LINE
  5
6E4
100
AcDbEntity
  8
0
100
AcDbLine
 62
7
  6
CONTINUOUS
 10
118.9890810291
 20
158.9454141518
 11
119.0194366772
 21
158.9461175941
  0
LINE
  5
6E5
100
AcDbEntity
  8
0
100
AcDbLine
 62
7
  6
CONTINUOUS
 10
152.4621871808
 20
158.1814488049
 11
152.4308820641
 21
158.1807385136
  0
LINE
  5
6E6
100
AcDbEntity
  8
0
100
AcDbLine
 62
7
  6
CONTINUOUS
 10
119.2824459999
 20
159.0061147305
 11
119.3140118007
 21
159.0068260632
  0
LINE
  5
6E7
100
AcDbEntity
  8
0
100
AcDbLine
 62
7
  6
CONTINUOUS
 10
153.6725548571
 20
158.1316871472
 11
153.6953770708
 21
158.1321561187
  0
LINE
  5
6E8
100
AcDbEntity
  8
0
100
AcDbLine
 62
7
  6
CONTINUOUS
 10
118.0103971304
 20
159.0546503996
 11
117.9875908143
 21
159.0541820778
  0
LINE
  5
6E9
100
AcDbEntity
  8
0
100
AcDbLine
 62
7
  6
CONTINUOUS
 10
137.7665277001
 20
159.0544771823
 11
137.7300675323
 21
159.0538630072
  0
LINE
  5
6EA
100
AcDbEntity
  8
0
100
AcDbLine
 62
7
  6
CONTINUOUS
 10
152.7819710877
 20
158.2425064181
 11
152.7456301517
 21
158.241904387
  0
LINE
  5
6EB
100
AcDbEntity
  8
0
100
AcDbLine
 62
7
  6
CONTINUOUS
 10
118.9526222002
 20
158.9448119311
 11
118.9890810291
 21
158.9454141518
  0
LINE
  5
6EC
100
AcDbEntity
  8
0
100
AcDbLine
 62
7
  6
CONTINUOUS
 10
152.4308820641
 20
158.1807385136
 11
152.3927995548
 21
158.1801302047
  0
LINE
  5
6ED
100
AcDbEntity
  8
0
100
AcDbLine
 62
7
  6
CONTINUOUS
 10
119.3140118007
 20
159.0068260632
 11
119.3523052485
 21
159.0074341973
  0
LINE
  5
6EE
100
AcDbEntity
  8
0
100
AcDbLine
 62
7
  6
CONTINUOUS
 10
153.6453465997
 20
158.1312969867
 11
153.6725548571
 21
158.1316871472
  0
LINE
  5
6EF
100
AcDbEntity
  8
0
100
AcDbLine
 62
7
  6
CONTINUOUS
 10
118.0376011141
 20
159.0550402299
 11
118.0103971304
 21
159.0546503996
  0
LWPOLYLINE
  5
6F0
100
AcDbEntity
  8
0
100
AcDbPolyline
 62
253
  6
CONTINUOUS
 90
15
 70
0
 10
118.1313561605
 20
157.5730532845
 10
118.1109031612
 20
157.5728744826
 10
118.0908908267
 20
157.5725907219
 10
118.0715335813
 20
157.5722050429
 10
118.05303883
 20
157.571721578
 10
118.0356047366
 20
157.5711455074
 10
118.0194181007
 20
157.5704830033
 10
118.0046523556
 20
157.5697411642
 10
117.9914657105
 20
157.5689279387
 10
117.9799994552
 20
157.5680520401
 10
117.9703764461
 20
157.5671228533
 10
117.9626997902
 20
157.5661503342
 10
117.95705174
 20
157.5651449029
 10
117.9534928122
 20
157.5641173323
 10
117.9520611397
 20
157.5630786323
  0
LINE
  5
6F1
100
AcDbEntity
  8
0
100
AcDbLine
 62
7
  6
CONTINUOUS
 10
152.8466953603
 20
158.2431960869
 11
152.7819710877
 21
158.2425064181
  0
LINE
  5
6F2
100
AcDbEntity
  8
0
100
AcDbLine
 62
7
  6
CONTINUOUS
 10
137.8316084582
 20
159.055180184
 11
137.7665277001
 21
159.0544771823
  0
LINE
  5
6F3
100
AcDbEntity
  8
0
100
AcDbLine
 62
7
  6
CONTINUOUS
 10
118.8877378412
 20
158.9441220333
 11
118.9526222002
 21
158.9448119311
  0
LINE
  5
6F4
100
AcDbEntity
  8
0
100
AcDbLine
 62
7
  6
CONTINUOUS
 10
152.3927995548
 20
158.1801302047
 11
152.3254802549
 21
158.1794451398
  0
LINE
  5
6F5
100
AcDbEntity
  8
0
100
AcDbLine
 62
7
  6
CONTINUOUS
 10
119.3523052485
 20
159.0074341973
 11
119.4198355903
 21
159.0081176233
  0
LINE
  5
6F6
100
AcDbEntity
  8
0
100
AcDbLine
 62
7
  6
CONTINUOUS
 10
153.5993057504
 20
158.1308866853
 11
153.6453465997
 21
158.1312969867
  0
LINE
  5
6F7
100
AcDbEntity
  8
0
100
AcDbLine
 62
7
  6
CONTINUOUS
 10
118.0836560997
 20
159.0554503632
 11
118.0376011141
 21
159.0550402299
  0
LINE
  5
6F8
100
AcDbEntity
  8
0
100
AcDbLine
 62
7
  6
CONTINUOUS
 10
152.3254802549
 20
158.1794451398
 11
152.2759593254
 21
158.1791678624
  0
LINE
  5
6F9
100
AcDbEntity
  8
0
100
AcDbLine
 62
7
  6
CONTINUOUS
 10
119.4198355903
 20
159.0081176233
 11
119.469440662
 21
159.0083936655
  0
LINE
  5
6FA
100
AcDbEntity
  8
0
100
AcDbLine
 62
7
  6
CONTINUOUS
 10
152.9197168856
 20
158.2435855912
 11
152.8466953603
 21
158.2431960869
  0
LINE
  5
6FB
100
AcDbEntity
  8
0
100
AcDbLine
 62
7
  6
CONTINUOUS
 10
118.8146004755
 20
158.9437324763
 11
118.8877378412
 21
158.9441220333
  0
LINE
  5
6FC
100
AcDbEntity
  8
0
100
AcDbLine
 62
7
  6
CONTINUOUS
 10
137.9050958405
 20
159.0555769659
 11
137.8316084582
 21
159.055180184
  0
LINE
  5
6FD
100
AcDbEntity
  8
0
100
AcDbLine
 62
7
  6
CONTINUOUS
 10
153.5496574504
 20
158.130698514
 11
153.5993057504
 21
158.1308866853
  0
LINE
  5
6FE
100
AcDbEntity
  8
0
100
AcDbLine
 62
7
  6
CONTINUOUS
 10
118.1333393632
 20
159.0556385382
 11
118.0836560997
 21
159.0554503632
  0
LINE
  5
6FF
100
AcDbEntity
  8
DRAFT
100
AcDbLine
 62
7
  6
CONTINUOUS
 10
143.341995842
 20
157.5436590437
 11
128.341995842
 21
157.5436590437
  0
LINE
  5
700
100
AcDbEntity
  8
RACCORDO
100
AcDbLine
 62
7
  6
CONTINUOUS
 10
128.341995842
 20
157.5436590437
 11
125.391995842
 21
157.5436590437
  0
LINE
  5
701
100
AcDbEntity
  8
RACCORDO
100
AcDbLine
 62
7
  6
CONTINUOUS
 10
143.341995842
 20
157.5436590437
 11
146.291995842
 21
157.5436590437
  0
LINE
  5
702
100
AcDbEntity
  8
0
100
AcDbLine
 62
253
  6
CONTINUOUS
 10
118.1313561605
 20
157.5730532845
 11
123.1605436704
 21
157.573125217
  0
LINE
  5
703
100
AcDbEntity
  8
0
100
AcDbLine
 62
7
  6
CONTINUOUS
 10
153.5496574504
 20
158.130698514
 11
148.5229306987
 21
158.1306853817
  0
LINE
  5
704
100
AcDbEntity
  8
0
100
AcDbLine
 62
7
  6
CONTINUOUS
 10
152.9197168856
 20
158.2435855912
 11
153.841995842
 21
158.2436590437
  0
LINE
  5
705
100
AcDbEntity
  8
0
100
AcDbLine
 62
7
  6
CONTINUOUS
 10
117.841995842
 20
158.9436590437
 11
118.8146004755
 21
158.9437324763
  0
LINE
  5
706
100
AcDbEntity
  8
0
100
AcDbLine
 62
7
  6
CONTINUOUS
 10
143.341995842
 20
159.0256978488
 11
137.6061234586
 21
159.0256978488
  0
LINE
  5
707
100
AcDbEntity
  8
0
100
AcDbLine
 62
7
  6
CONTINUOUS
 10
136.691995842
 20
159.0256978488
 11
134.991995842
 21
159.0256978488
  0
LINE
  5
708
100
AcDbEntity
  8
0
100
AcDbLine
 62
7
  6
CONTINUOUS
 10
134.0778682254
 20
159.0256978488
 11
128.341995842
 21
159.0256978488
  0
LINE
  5
709
100
AcDbEntity
  8
0
100
AcDbLine
 62
7
  6
CONTINUOUS
 10
136.6620419954
 20
159.0556516954
 11
135.0219496886
 21
159.0556516954
  0
LINE
  5
70A
100
AcDbEntity
  8
0
100
AcDbLine
 62
7
  6
CONTINUOUS
 10
136.6648904592
 20
161.1890911058
 11
135.0191012248
 21
161.1890911058
  0
LINE
  5
70B
100
AcDbEntity
  8
0
100
AcDbLine
 62
7
  6
CONTINUOUS
 10
134.0778682254
 20
161.202642765
 11
134.991995842
 21
161.202642765
  0
LINE
  5
70C
100
AcDbEntity
  8
0
100
AcDbLine
 62
7
  6
CONTINUOUS
 10
136.691995842
 20
161.202642765
 11
137.6061234586
 21
161.202642765
  0
LINE
  5
70D
100
AcDbEntity
  8
0
100
AcDbLine
 62
7
  6
CONTINUOUS
 10
134.2280280661
 20
161.2401684295
 11
137.4559636179
 21
161.2401684295
  0
LINE
  5
70E
100
AcDbEntity
  8
0
100
AcDbLine
 62
7
  6
CONTINUOUS
 10
153.5506523072
 20
159.0556385374
 11
137.9050958405
 21
159.0555769659
  0
LINE
  5
70F
100
AcDbEntity
  8
0
100
AcDbLine
 62
7
  6
CONTINUOUS
 10
133.7788958428
 20
159.0555769659
 11
118.1333393632
 21
159.0556385382
  0
LWPOLYLINE
  5
710
100
AcDbEntity
  8
0
100
AcDbPolyline
 62
253
  6
CONTINUOUS
 90
16
 70
0
 10
148.5234480136
 20
157.573125217
 10
153.5526355324
 20
157.5730532895
 10
153.57308854
 20
157.5728744873
 10
153.593100882
 20
157.5725907265
 10
153.6124581341
 20
157.5722050472
 10
153.6309528908
 20
157.5717215819
 10
153.6483869879
 20
157.5711455108
 10
153.664573626
 20
157.5704830062
 10
153.6793393715
 20
157.5697411667
 10
153.6925260152
 20
157.5689279407
 10
153.7039922673
 20
157.5680520416
 10
153.7136152714
 20
157.5671228544
 10
153.7212919207
 20
157.5661503349
 10
153.726939963
 20
157.5651449033
 10
153.7304988817
 20
157.5641173325
 10
153.7319305443
 20
157.5630786323
  0
LINE
  5
711
100
AcDbEntity
  8
0
100
AcDbLine
 62
7
  6
CONTINUOUS
 10
118.1009680959
 20
158.1307990248
 11
123.1610609852
 21
158.1306853817
  0
LINE
  5
712
100
AcDbEntity
  8
0
100
AcDbLine
 62
7
  6
CONTINUOUS
 10
118.7888519602
 20
158.2434937103
 11
117.841995842
 21
158.2436590437
  0
LINE
  5
713
100
AcDbEntity
  8
0
100
AcDbLine
 62
7
  6
CONTINUOUS
 10
152.8447836799
 20
158.94382436
 11
153.841995842
 21
158.9436590437
  0
LINE
  5
714
100
AcDbEntity
  8
0
100
AcDbLine
 62
7
  6
CONTINUOUS
 10
153.6003355425
 20
159.0554503613
 11
153.5506523072
 21
159.0556385374
  0
LINE
  5
715
100
AcDbEntity
  8
0
100
AcDbLine
 62
7
  6
CONTINUOUS
 10
133.852383226
 20
159.055180184
 11
133.7788958428
 21
159.0555769659
  0
LINE
  5
716
100
AcDbEntity
  8
0
100
AcDbLine
 62
7
  6
CONTINUOUS
 10
119.4080323585
 20
158.1791678624
 11
119.3353582999
 21
158.1796353072
  0
LINE
  5
717
100
AcDbEntity
  8
0
100
AcDbLine
 62
7
  6
CONTINUOUS
 10
152.2145510221
 20
159.0083936655
 11
152.2876320025
 21
159.007925599
  0
LINE
  5
718
100
AcDbEntity
  8
0
100
AcDbLine
 62
7
  6
CONTINUOUS
 10
118.8601486379
 20
158.2429974722
 11
118.7888519602
 21
158.2434937103
  0
LINE
  5
719
100
AcDbEntity
  8
0
100
AcDbLine
 62
7
  6
CONTINUOUS
 10
152.7733538304
 20
158.9443206801
 11
152.8447836799
 21
158.94382436
  0
LINE
  5
71A
100
AcDbEntity
  8
0
100
AcDbLine
 62
7
  6
CONTINUOUS
 10
118.0534053767
 20
158.1311354222
 11
118.1009680959
 21
158.1307990248
  0
LINE
  5
71B
100
AcDbEntity
  8
0
100
AcDbLine
 62
7
  6
CONTINUOUS
 10
153.6463905179
 20
159.0550402285
 11
153.6003355425
 21
159.0554503613
  0
LINE
  5
71C
100
AcDbEntity
  8
0
100
AcDbLine
 62
7
  6
CONTINUOUS
 10
119.3353582999
 20
158.1796353072
 11
119.2913861587
 21
158.1801275251
  0
LINE
  5
71D
100
AcDbEntity
  8
0
100
AcDbLine
 62
7
  6
CONTINUOUS
 10
152.2876320025
 20
159.007925599
 11
152.331880671
 21
159.0074315205
  0
LINE
  5
71E
100
AcDbEntity
  8
0
100
AcDbLine
 62
7
  6
CONTINUOUS
 10
118.9020223267
 20
158.24250639
 11
118.8601486379
 21
158.2429974722
  0
LINE
  5
71F
100
AcDbEntity
  8
0
100
AcDbLine
 62
7
  6
CONTINUOUS
 10
152.7313694838
 20
158.9448119311
 11
152.7733538304
 21
158.9443206801
  0
LINE
  5
720
100
AcDbEntity
  8
0
100
AcDbLine
 62
7
  6
CONTINUOUS
 10
118.024505934
 20
158.1314824718
 11
118.0534053767
 21
158.1311354222
  0
LINE
  5
721
100
AcDbEntity
  8
0
100
AcDbLine
 62
7
  6
CONTINUOUS
 10
133.9174639839
 20
159.0544771823
 11
133.852383226
 21
159.055180184
  0
LINE
  5
722
100
AcDbEntity
  8
0
100
AcDbLine
 62
7
  6
CONTINUOUS
 10
153.673594501
 20
159.0546503985
 11
153.6463905179
 21
159.0550402285
  0
LINE
  5
723
100
AcDbEntity
  8
0
100
AcDbLine
 62
7
  6
CONTINUOUS
 10
119.2913861587
 20
158.1801275251
 11
119.2533117673
 21
158.1807346943
  0
LINE
  5
724
100
AcDbEntity
  8
0
100
AcDbLine
 62
7
  6
CONTINUOUS
 10
152.331880671
 20
159.0074315205
 11
152.3701797117
 21
159.0068223132
  0
LINE
  5
725
100
AcDbEntity
  8
0
100
AcDbLine
 62
7
  6
CONTINUOUS
 10
118.9383613138
 20
158.2419043987
 11
118.9020223267
 21
158.24250639
  0
LINE
  5
726
100
AcDbEntity
  8
0
100
AcDbLine
 62
7
  6
CONTINUOUS
 10
152.6949106549
 20
158.9454141518
 11
152.7313694838
 21
158.9448119311
  0
LINE
  5
727
100
AcDbEntity
  8
0
100
AcDbLine
 62
7
  6
CONTINUOUS
 10
133.9539241518
 20
159.0538630072
 11
133.9174639839
 21
159.0544771823
  0
LWPOLYLINE
  5
728
100
AcDbEntity
  8
0
100
AcDbPolyline
 62
7
  6
CONTINUOUS
 90
8
 70
0
 10
119.2533117673
 20
158.1807346943
 10
119.221960278
 20
158.181444572
 10
119.2089407657
 20
158.1818363734
 10
119.1977241066
 20
158.1822509831
 10
119.1886626869
 20
158.1826762093
 10
119.1818739687
 20
158.183107988
 10
119.17724049
 20
158.1835503831
 10
119.1747622508
 20
158.1840033947
  0
LWPOLYLINE
  5
729
100
AcDbEntity
  8
0
100
AcDbPolyline
 62
7
  6
CONTINUOUS
 90
8
 70
0
 10
152.3701797117
 20
159.0068223132
 10
152.4016949281
 20
159.0061106965
 10
152.4147796341
 20
159.0057184654
 10
152.4260516164
 20
159.0053036498
 10
152.4351691061
 20
159.0048783366
 10
152.4420181802
 20
159.0044465547
 10
152.4467127617
 20
159.0040042752
 10
152.4492528506
 20
159.003551498
  0
LWPOLYLINE
  5
72A
100
AcDbEntity
  8
0
100
AcDbPolyline
 62
7
  6
CONTINUOUS
 90
8
 70
0
 10
152.6189437728
 20
158.9486215049
 10
152.6213432058
 20
158.9481824683
 10
152.6258236145
 20
158.9477521189
 10
152.632384999
 20
158.9473304568
 10
152.6411399596
 20
158.9469131534
 10
152.651975896
 20
158.9465045372
 10
152.6645550068
 20
158.9461175941
 10
152.6949106549
 20
158.9454141518
  0
LWPOLYLINE
  5
72B
100
AcDbEntity
  8
0
100
AcDbPolyline
 62
7
  6
CONTINUOUS
 90
8
 70
0
 10
134.0280638103
 20
159.0505924692
 10
134.026095415
 20
159.051039275
 10
134.0219866016
 20
159.0514775383
 10
134.01573737
 20
159.0519072591
 10
134.007231406
 20
159.0523329742
 10
133.9965850238
 20
159.0527501467
 10
133.9841471659
 20
159.0531451659
 10
133.9539241518
 20
159.0538630072
  0
LINE
  5
72C
100
AcDbEntity
  8
0
100
AcDbLine
 62
7
  6
CONTINUOUS
 10
137.4559636179
 20
161.2401684295
 11
137.6061234586
 21
161.202642765
  0
LINE
  5
72D
100
AcDbEntity
  8
0
100
AcDbLine
 62
7
  6
CONTINUOUS
 10
135.441995842
 20
162.6436590437
 11
135.2401879196
 21
162.6940918114
  0
LWPOLYLINE
  5
72E
100
AcDbEntity
  8
0
100
AcDbPolyline
 62
7
  6
CONTINUOUS
 90
10
 70
0
 10
135.2401879196
 20
162.6940918114
 10
135.2400359002
 20
162.6941614295
 10
135.2398839961
 20
162.6942940936
 10
135.2397322073
 20
162.6944898037
 10
135.2395805056
 20
162.6947486155
 10
135.2394289192
 20
162.6950704732
 10
135.2392775329
 20
162.69545521
 10
135.2391263748
 20
162.6959027703
 10
135.2389754168
 20
162.6964132098
 10
135.2388246588
 20
162.6969865285
  0
LINE
  5
72F
100
AcDbEntity
  8
0
100
AcDbLine
 62
7
  6
CONTINUOUS
 10
153.841995842
 20
158.9436590437
 11
153.7334368418
 21
159.0522180438
  0
LINE
  5
730
100
AcDbEntity
  8
0
100
AcDbLine
 62
7
  6
CONTINUOUS
 10
141.9139134048
 20
173.9717414809
 11
141.841995842
 21
174.0436590437
  0
LINE
  5
731
100
AcDbEntity
  8
0
100
AcDbLine
 62
7
  6
CONTINUOUS
 10
152.4492528506
 20
54.0837665894
 11
152.6189437728
 21
54.1386965824
  0
LINE
  5
732
100
AcDbEntity
  8
0
100
AcDbLine
 62
7
  6
CONTINUOUS
 10
137.052334648
 20
162.0436590437
 11
137.1453141024
 21
162.0467945522
  0
LWPOLYLINE
  5
733
100
AcDbEntity
  8
0
100
AcDbPolyline
 62
253
  6
CONTINUOUS
 90
25
 70
0
 10
134.3381050908
 20
162.5775844056
 10
134.2987262335
 20
162.5762625833
 10
134.2598375989
 20
162.5724498464
 10
134.2214391871
 20
162.5661461652
 10
134.1833797166
 20
162.5573081392
 10
134.1458104688
 20
162.5459790502
 10
134.109185288
 20
162.5322888675
 10
134.0735049226
 20
162.5162050458
 10
134.0387686241
 20
162.4977599108
 10
134.0054279921
 20
162.47718073
 10
133.9735024761
 20
162.4544407094
 10
133.9429726265
 20
162.4295663571
 10
133.9142316931
 20
162.4028649098
 10
133.8873008082
 20
162.374311285
 10
133.8621588395
 20
162.3439302573
 10
133.8391356404
 20
162.3121038944
 10
133.8182568327
 20
162.2788062211
 10
133.7994967946
 20
162.2440629312
 10
133.7831085143
 20
162.2083336703
 10
133.7691275009
 20
162.1716231997
 10
133.7575182453
 20
162.1339265534
 10
133.748427208
 20
162.095688881
 10
133.7419032091
 20
162.0570585511
 10
133.7378974285
 20
162.0178870949
 10
133.7364098661
 20
161.978174456
  0
LWPOLYLINE
  5
734
100
AcDbEntity
  8
0
100
AcDbPolyline
 62
253
  6
CONTINUOUS
 90
25
 70
0
 10
134.3381007921
 20
162.24736705
 10
134.3185158274
 20
162.2467569921
 10
134.2990090796
 20
162.2448809061
 10
134.2796631922
 20
162.2417470716
 10
134.2605635131
 20
162.237370446
 10
134.241787349
 20
162.2317691495
 10
134.2234043493
 20
162.2249619756
 10
134.2054883214
 20
162.2169739096
 10
134.188121196
 20
162.2078389139
 10
134.1713823772
 20
162.1975954671
 10
134.1553447936
 20
162.1862874344
 10
134.1400760759
 20
162.1739615675
 10
134.125643038
 20
162.1606682887
 10
134.112107526
 20
162.1464633418
 10
134.0995286076
 20
162.1314073269
 10
134.0879631447
 20
162.1155641014
 10
134.0774598908
 20
162.098999074
 10
134.0680660264
 20
162.0817851602
 10
134.0598274824
 20
162.0640033087
 10
134.0527822272
 20
162.0457410012
 10
134.0469543513
 20
162.0270671882
 10
134.0423642182
 20
162.0080375462
 10
134.0390344058
 20
161.9887248246
 10
134.036984534
 20
161.9692200395
 10
134.0362270957
 20
161.9496072847
  0
LWPOLYLINE
  5
735
100
AcDbEntity
  8
0
100
AcDbPolyline
 62
253
  6
CONTINUOUS
 90
16
 70
0
 10
137.9475818178
 20
161.9781743661
 10
137.9169146736
 20
161.9779232354
 10
137.8865688303
 20
161.9773754641
 10
137.8568622302
 20
161.9765367914
 10
137.828106118
 20
161.9754160043
 10
137.8006017798
 20
161.9740248455
 10
137.7746373864
 20
161.9723778908
 10
137.7504849744
 20
161.9704923956
 10
137.7283975956
 20
161.9683881149
 10
137.7086066657
 20
161.9660870958
 10
137.6913195403
 20
161.9636134467
 10
137.6767173413
 20
161.9609930849
 10
137.6649530604
 20
161.9582534645
 10
137.6561499553
 20
161.9554232894
 10
137.6504002586
 20
161.9525322121
 10
137.6477642117
 20
161.9496105233
  0
LINE
  5
736
100
AcDbEntity
  8
0
100
AcDbLine
 62
7
  6
CONTINUOUS
 10
134.631657036
 20
161.6436590437
 11
137.052334648
 21
161.6436590437
  0
LINE
  5
737
100
AcDbEntity
  8
0
100
AcDbLine
 62
7
  6
CONTINUOUS
 10
134.631657036
 20
162.0436590437
 11
135.441995842
 21
162.0436590437
  0
LINE
  5
738
100
AcDbEntity
  8
0
100
AcDbLine
 62
7
  6
CONTINUOUS
 10
136.241995842
 20
162.0436590437
 11
137.052334648
 21
162.0436590437
  0
LINE
  5
739
100
AcDbEntity
  8
0
100
AcDbLine
 62
253
  6
CONTINUOUS
 10
137.3458824003
 20
162.247367043
 11
136.4457038413
 21
162.247367043
  0
LINE
  5
73A
100
AcDbEntity
  8
0
100
AcDbLine
 62
253
  6
CONTINUOUS
 10
135.2382878427
 20
162.247367043
 11
134.3381007992
 21
162.247367043
  0
LINE
  5
73B
100
AcDbEntity
  8
0
100
AcDbLine
 62
253
  6
CONTINUOUS
 10
137.3458865932
 20
162.5775844056
 11
136.7455210894
 21
162.5775844056
  0
LINE
  5
73C
100
AcDbEntity
  8
0
100
AcDbLine
 62
253
  6
CONTINUOUS
 10
134.9384705946
 20
162.5775844056
 11
134.3381050908
 21
162.5775844056
  0
LINE
  5
73D
100
AcDbEntity
  8
0
100
AcDbLine
 62
7
  6
CONTINUOUS
 10
136.241995842
 20
162.6436590437
 11
135.441995842
 21
162.6436590437
  0
LINE
  5
73E
100
AcDbEntity
  8
0
100
AcDbLine
 62
7
  6
CONTINUOUS
 10
135.2401879196
 20
162.6940918114
 11
136.4438037644
 21
162.6940918114
  0
LINE
  5
73F
100
AcDbEntity
  8
0
100
AcDbLine
 62
253
  6
CONTINUOUS
 10
134.9400964775
 20
163.0258536931
 11
136.7438952064
 21
163.0258536931
  0
LWPOLYLINE
  5
740
100
AcDbEntity
  8
0
100
AcDbPolyline
 62
253
  6
CONTINUOUS
 90
16
 70
0
 10
133.7364098661
 20
161.9781744559
 10
133.7670770003
 20
161.9779233176
 10
133.7974228269
 20
161.9773755389
 10
133.8271294049
 20
161.9765368588
 10
133.8558854907
 20
161.9754160645
 10
133.8833897992
 20
161.9740248989
 10
133.9093541608
 20
161.9723779375
 10
133.9335065401
 20
161.970492436
 10
133.9555938862
 20
161.9683881492
 10
133.9753847844
 20
161.9660871244
 10
133.9926718801
 20
161.9636134699
 10
134.0072740522
 20
161.9609931029
 10
134.0190383096
 20
161.9582534777
 10
134.0278413954
 20
161.955423298
 10
134.0335910773
 20
161.9525322163
 10
134.0362271143
 20
161.9496105233
  0
LINE
  5
741
100
AcDbEntity
  8
0
100
AcDbLine
 62
7
  6
CONTINUOUS
 10
134.5386775816
 20
162.0467945522
 11
134.631657036
 21
162.0436590437
  0
LWPOLYLINE
  5
742
100
AcDbEntity
  8
0
100
AcDbPolyline
 62
7
  6
CONTINUOUS
 90
9
 70
0
 10
153.7334368418
 20
159.0522180438
 10
153.7323696064
 20
159.0525193855
 10
153.729894177
 20
159.0528141264
 10
153.7260105536
 20
159.0531022665
 10
153.7207017823
 20
159.0533853648
 10
153.713984817
 20
159.0536618623
 10
153.70591052
 20
159.0539270821
 10
153.6964008215
 20
159.054182077
 10
153.673594501
 20
159.0546503985
  0
LINE
  5
743
100
AcDbEntity
  8
0
100
AcDbLine
 62
7
  6
CONTINUOUS
 10
152.6189437728
 20
158.9486215049
 11
152.4492528506
 21
159.003551498
  0
LWPOLYLINE
  5
744
100
AcDbEntity
  8
0
100
AcDbPolyline
 62
7
  6
CONTINUOUS
 90
9
 70
0
 10
127.9605846714
 20
173.9718759468
 10
127.9610630132
 20
173.9716718406
 10
127.9629650395
 20
173.9714705128
 10
127.9662907504
 20
173.9712719637
 10
127.9710704929
 20
173.9710747334
 10
127.9772739199
 20
173.9708802818
 10
127.9848099908
 20
173.9706929876
 10
127.9937559537
 20
173.9705132099
 10
128.0153230262
 20
173.9701784291
  0
LWPOLYLINE
  5
745
100
AcDbEntity
  8
0
100
AcDbPolyline
 62
253
  6
CONTINUOUS
 90
28
 70
0
 10
146.1136451487
 20
39.4887446311
 10
146.0974218766
 20
39.4782905414
 10
146.0822687362
 20
39.4663043567
 10
146.0683309857
 20
39.4528937404
 10
146.0557400723
 20
39.4381762596
 10
146.0446224688
 20
39.4222898625
 10
146.035094377
 20
39.4053945423
 10
146.0272478014
 20
39.3876518526
 10
146.0211560848
 20
39.3692257056
 10
146.0168787987
 20
39.3502949031
 10
146.0144561303
 20
39.331041149
 10
146.013909662
 20
39.3116427424
 10
146.0152446398
 20
39.2922783485
 10
146.0184500813
 20
39.2731268076
 10
146.0234964848
 20
39.254372527
 10
146.0303342119
 20
39.2361990996
 10
146.0388955077
 20
39.2187812185
 10
146.049099962
 20
39.2022781782
 10
146.0608543401
 20
39.1868400311
 10
146.0740527697
 20
39.1726081157
 10
146.0885677647
 20
39.1597219375
 10
146.1042524795
 20
39.1483101138
 10
146.1209646942
 20
39.1384737449
 10
146.1385391694
 20
39.1303078577
 10
146.1567739375
 20
39.12389696
 10
146.1754817587
 20
39.119290362
 10
146.1944968606
 20
39.1165128751
 10
146.2136413702
 20
39.1155766054
  0
LINE
  5
746
100
AcDbEntity
  8
0
100
AcDbLine
 62
253
  6
CONTINUOUS
 10
149.0902757864
 20
42.1725644378
 11
150.6163560603
 21
43.1031197218
  0
LINE
  5
747
100
AcDbEntity
  8
0
100
AcDbLine
 62
253
  6
CONTINUOUS
 10
149.3737519809
 20
42.1059698954
 11
150.9128765488
 21
43.0444910877
  0
LINE
  5
748
100
AcDbEntity
  8
0
100
AcDbLine
 62
253
  6
CONTINUOUS
 10
143.6699085475
 20
39.272330259
 11
146.1049616921
 21
40.6841244472
  0
LINE
  5
749
100
AcDbEntity
  8
0
100
AcDbLine
 62
253
  6
CONTINUOUS
 10
146.9558209764
 20
41.1773836535
 11
147.9218773645
 21
41.7373925409
  0
LINE
  5
74A
100
AcDbEntity
  8
0
100
AcDbLine
 62
253
  6
CONTINUOUS
 10
148.7725391669
 20
42.2304805537
 11
150.5163620874
 21
43.2412088916
  0
LINE
  5
74B
100
AcDbEntity
  8
0
100
AcDbLine
 62
253
  6
CONTINUOUS
 10
143.7699047432
 20
39.1423476598
 11
146.1825123884
 21
40.5382728002
  0
LINE
  5
74C
100
AcDbEntity
  8
0
100
AcDbLine
 62
253
  6
CONTINUOUS
 10
147.0438135021
 20
41.0365661763
 11
148.0003021206
 21
41.5898970251
  0
LINE
  5
74D
100
AcDbEntity
  8
0
100
AcDbLine
 62
253
  6
CONTINUOUS
 10
148.8615184096
 20
42.0880839983
 11
150.6163560603
 21
43.1031197218
  0
LINE
  5
74E
100
AcDbEntity
  8
0
100
AcDbLine
 62
7
  6
CONTINUOUS
 10
145.5429577363
 20
41.7411001604
 11
146.3223805997
 21
42.1911001604
  0
LINE
  5
74F
100
AcDbEntity
  8
0
100
AcDbLine
 62
7
  6
CONTINUOUS
 10
147.3616110843
 20
42.7911001604
 11
148.1410339477
 21
43.2411001604
  0
LINE
  5
750
100
AcDbEntity
  8
0
100
AcDbLine
 62
253
  6
CONTINUOUS
 10
145.8515318014
 20
41.1607567497
 11
146.6706857038
 21
41.6336954758
  0
LINE
  5
751
100
AcDbEntity
  8
0
100
AcDbLine
 62
253
  6
CONTINUOUS
 10
147.6701851493
 20
42.2107567497
 11
148.4893390517
 21
42.6836954758
  0
LINE
  5
752
100
AcDbEntity
  8
0
100
AcDbLine
 62
253
  6
CONTINUOUS
 10
146.0500599952
 20
40.7873795215
 11
146.8947757717
 21
41.2750764024
  0
LINE
  5
753
100
AcDbEntity
  8
0
100
AcDbLine
 62
253
  6
CONTINUOUS
 10
147.8687133431
 20
41.8373795215
 11
148.7134291196
 21
42.3250764024
  0
LINE
  5
754
100
AcDbEntity
  8
0
100
AcDbLine
 62
7
  6
CONTINUOUS
 10
149.0902757864
 20
42.1725644378
 11
148.8833731306
 21
42.0531091337
  0
LINE
  5
755
100
AcDbEntity
  8
0
100
AcDbLine
 62
7
  6
CONTINUOUS
 10
148.0192719014
 20
41.5542200565
 11
147.0647197826
 21
41.0031091337
  0
LINE
  5
756
100
AcDbEntity
  8
0
100
AcDbLine
 62
7
  6
CONTINUOUS
 10
146.2006185534
 20
40.5042200565
 11
143.7172742583
 21
39.0704605592
  0
LINE
  5
757
100
AcDbEntity
  8
0
100
AcDbLine
 62
7
  6
CONTINUOUS
 10
145.9172514121
 20
39.4168575305
 11
149.4902757864
 21
41.4797441147
  0
LINE
  5
758
100
AcDbEntity
  8
0
100
AcDbLine
 62
253
  6
CONTINUOUS
 10
151.0913657239
 20
42.088404167
 11
146.2136413392
 21
39.27233026
  0
LINE
  5
759
100
AcDbEntity
  8
0
100
AcDbLine
 62
253
  6
CONTINUOUS
 10
150.9913695316
 20
42.2990675219
 11
146.1136451487
 21
39.4887446311
  0
LINE
  5
75A
100
AcDbEntity
  8
0
100
AcDbLine
 62
253
  6
CONTINUOUS
 10
151.1312943602
 20
42.60835292
 11
149.5743413182
 21
41.7585389718
  0
LINE
  5
75B
100
AcDbEntity
  8
0
100
AcDbLine
 62
253
  6
CONTINUOUS
 10
150.9913695316
 20
42.2990675219
 11
149.4902757864
 21
41.4797441147
  0
LWPOLYLINE
  5
75C
100
AcDbEntity
  8
0
100
AcDbPolyline
 62
253
  6
CONTINUOUS
 90
22
 70
0
 10
150.6163557783
 20
43.1031195498
 10
150.6342967949
 20
43.1128050517
 10
150.6524141998
 20
43.1211016051
 10
150.6706022225
 20
43.1280082475
 10
150.6887722584
 20
43.1335415528
 10
150.7068103627
 20
43.1377098686
 10
150.7245776926
 20
43.1405135517
 10
150.7419647776
 20
43.1419807656
 10
150.7589043812
 20
43.1421569012
 10
150.7753282884
 20
43.1410725218
 10
150.7911535672
 20
43.1387699759
 10
150.8063176604
 20
43.1353001043
 10
150.8207883729
 20
43.1306991959
 10
150.8344873338
 20
43.1250231584
 10
150.8473740953
 20
43.1183192514
 10
150.8594698975
 20
43.110592004
 10
150.8707182394
 20
43.101887432
 10
150.8810625767
 20
43.0922497509
 10
150.8905079749
 20
43.0816558543
 10
150.8990092316
 20
43.0701211123
 10
150.9064850049
 20
43.0577155136
 10
150.9128767676
 20
43.0444912211
  0
LWPOLYLINE
  5
75D
100
AcDbEntity
  8
0
100
AcDbPolyline
 62
7
  6
CONTINUOUS
 90
10
 70
0
 10
143.7699047432
 20
39.1423476598
 10
143.7596605143
 20
39.1368265497
 10
143.749112304
 20
39.1319107584
 10
143.7382958391
 20
39.1276169349
 10
143.7272461394
 20
39.1239591381
 10
143.7160021891
 20
39.1209504269
 10
143.7046070638
 20
39.11860187
 10
143.693101189
 20
39.1169207477
 10
143.6815219537
 20
39.115911483
 10
143.6699085509
 20
39.1155766064
  0
LWPOLYLINE
  5
75E
100
AcDbEntity
  8
0
100
AcDbPolyline
 62
253
  6
CONTINUOUS
 90
22
 70
0
 10
150.5163620874
 20
43.2412088916
 10
150.5481883599
 20
43.2579047617
 10
150.5802011912
 20
43.271994443
 10
150.6124005812
 20
43.2834777318
 10
150.6449919978
 20
43.292313942
 10
150.6777699732
 20
43.2985434646
 10
150.7101181035
 20
43.3022877731
 10
150.7419791241
 20
43.3035090435
 10
150.7734102996
 20
43.3022450311
 10
150.8039670209
 20
43.2987306316
 10
150.8336105711
 20
43.2929550947
 10
150.8623796671
 20
43.2849292865
 10
150.889945851
 20
43.2749205565
 10
150.9162650592
 20
43.2629516517
 10
150.9413813552
 20
43.2490000657
 10
150.965098472
 20
43.2332652747
 10
150.9874245128
 20
43.2157679131
 10
151.0083513743
 20
43.1964876753
 10
151.0276584801
 20
43.1755626235
 10
151.0452723047
 20
43.1530389053
 10
151.0612663735
 20
43.1288707702
 10
151.0756406866
 20
43.1030584415
  0
LWPOLYLINE
  5
75F
100
AcDbEntity
  8
0
100
AcDbPolyline
 62
253
  6
CONTINUOUS
 90
13
 70
0
 10
150.6163582797
 20
169.9841970819
 10
150.6137623733
 20
169.9838694584
 10
150.6098242721
 20
169.9811596407
 10
150.6045982436
 20
169.9761049707
 10
150.5981563037
 20
169.9687751025
 10
150.5905872236
 20
169.9592710433
 10
150.5819953066
 20
169.9477237609
 10
150.5724989511
 20
169.9342923789
 10
150.5622290186
 20
169.9191619846
 10
150.5513270309
 20
169.9025410777
 10
150.5399432194
 20
169.8846586975
 10
150.5282344553
 20
169.8657612667
 10
150.5163620876
 20
169.8461091957
  0
LWPOLYLINE
  5
760
100
AcDbEntity
  8
0
100
AcDbPolyline
 62
253
  6
CONTINUOUS
 90
13
 70
0
 10
120.7711105336
 20
170.0428361761
 10
120.7632543574
 20
170.0419915866
 10
120.7540070843
 20
170.0403106985
 10
120.7434517587
 20
170.0378086071
 10
120.7316831717
 20
170.034507782
 10
120.7188070103
 20
170.0304378662
 10
120.7049389077
 20
170.0256354092
 10
120.6902034054
 20
170.020143539
 10
120.6747328342
 20
170.0140115749
 10
120.6586661263
 20
170.0072945845
 10
120.6421475676
 20
170.0000528892
 10
120.6253255016
 20
169.9923515225
 10
120.6083509974
 20
169.9842596458
  0
LWPOLYLINE
  5
761
100
AcDbEntity
  8
0
100
AcDbPolyline
 62
253
  6
CONTINUOUS
 90
13
 70
0
 10
120.5526985969
 20
170.4789674745
 10
120.5448200793
 20
170.4781996775
 10
120.5355555106
 20
170.4765978161
 10
120.5249878003
 20
170.4741762292
 10
120.5132115198
 20
170.4709565917
 10
120.5003320565
 20
170.4669677202
 10
120.4864646705
 20
170.4622453151
 10
120.4717334632
 20
170.4568316416
 10
120.4562702666
 20
170.4507751509
 10
120.4402134635
 20
170.4441300466
 10
120.4237067491
 20
170.4369558
 10
120.4068978451
 20
170.4293166176
 10
120.3899371779
 20
170.4212808666
  0
LINE
  5
762
100
AcDbEntity
  8
0
100
AcDbLine
 62
7
  6
CONTINUOUS
 10
137.499050842
 20
169.6686590437
 11
138.959551842
 21
169.6686590437
  0
LINE
  5
763
100
AcDbEntity
  8
0
100
AcDbLine
 62
7
  6
CONTINUOUS
 10
141.9304992738
 20
170.037194417
 11
141.0534924102
 21
170.037194417
  0
LINE
  5
764
100
AcDbEntity
  8
0
100
AcDbLine
 62
7
  6
CONTINUOUS
 10
130.6304992738
 20
170.037194417
 11
129.7534924102
 21
170.037194417
  0
LINE
  5
765
100
AcDbEntity
  8
0
100
AcDbLine
 62
7
  6
CONTINUOUS
 10
141.9156009672
 20
170.0520927236
 11
141.0683907168
 21
170.0520927236
  0
LINE
  5
766
100
AcDbEntity
  8
0
100
AcDbLine
 62
7
  6
CONTINUOUS
 10
130.6156009672
 20
170.0520927236
 11
129.7683907168
 21
170.0520927236
  0
LINE
  5
767
100
AcDbEntity
  8
0
100
AcDbLine
 62
7
  6
CONTINUOUS
 10
138.959551842
 20
170.4186590437
 11
137.49904773
 21
170.4186590437
  0
LINE
  5
768
100
AcDbEntity
  8
0
100
AcDbLine
 62
7
  6
CONTINUOUS
 10
134.8667293428
 20
171.8436068149
 11
134.974441842
 21
171.8408790437
  0
LWPOLYLINE
  5
769
100
AcDbEntity
  8
0
100
AcDbPolyline
 62
253
  6
CONTINUOUS
 90
13
 70
0
 10
151.1312949703
 20
170.4789663872
 10
151.1391735168
 20
170.4781988264
 10
151.1484380652
 20
170.4765972205
 10
151.1590057088
 20
170.474175902
 10
151.1707818796
 20
170.4709565387
 10
151.1836611948
 20
170.4669679402
 10
151.1975283998
 20
170.4622457997
 10
151.2122593994
 20
170.4568323748
 10
151.2277223686
 20
170.4507761093
 10
151.243778932
 20
170.4441311996
 10
151.2602854025
 20
170.4369571097
 10
151.2770940666
 20
170.4293180394
 10
151.2940545066
 20
170.4212823492
  0
LWPOLYLINE
  5
76A
100
AcDbEntity
  8
0
100
AcDbPolyline
 62
253
  6
CONTINUOUS
 90
13
 70
0
 10
150.912880084
 20
170.0428367917
 10
150.9207362547
 20
170.0419920451
 10
150.929983546
 20
170.0403109944
 10
150.9405389126
 20
170.037808739
 10
150.9523075618
 20
170.0345077533
 10
150.9651838049
 20
170.0304376846
 10
150.9790520061
 20
170.0256350871
 10
150.9937876214
 20
170.0201430932
 10
151.0092583166
 20
170.0140110266
 10
151.0253251559
 20
170.0072939593
 10
151.04184385
 20
170.0000522165
 10
151.0586660512
 20
169.9923508354
 10
151.0756406863
 20
169.9842589809
  0
LWPOLYLINE
  5
76B
100
AcDbEntity
  8
0
100
AcDbPolyline
 62
253
  6
CONTINUOUS
 90
13
 70
0
 10
121.0676340468
 20
169.984195969
 10
121.0702299439
 20
169.9838684165
 10
121.0741680199
 20
169.9811587023
 10
121.0793940085
 20
169.976104166
 10
121.0858358957
 20
169.9687744586
 10
121.0934049129
 20
169.9592705829
 10
121.1019967593
 20
169.9477235014
 10
121.1114930401
 20
169.9342923318
 10
121.1217628971
 20
169.9191621546
 10
121.1326648124
 20
169.9025414624
 10
121.1440485585
 20
169.8846592868
 10
121.1557572682
 20
169.8657620427
 10
121.1676295963
 20
169.8461101327
  0
LWPOLYLINE
  5
76C
100
AcDbEntity
  8
0
100
AcDbPolyline
 62
7
  6
CONTINUOUS
 90
9
 70
0
 10
143.7699047432
 20
173.9449704275
 10
143.7596605184
 20
173.9504915356
 10
143.7491123124
 20
173.9554073253
 10
143.7382958519
 20
173.9597011477
 10
143.727246157
 20
173.9633589439
 10
143.7160022117
 20
173.966367655
 10
143.7046070908
 20
173.9687162126
 10
143.6931012196
 20
173.9703973362
 10
143.6815219874
 20
173.971406603
  0
LINE
  5
76D
100
AcDbEntity
  8
0
100
AcDbLine
 62
253
  6
CONTINUOUS
 10
149.5743413182
 20
171.3287791155
 11
151.1312950482
 21
170.478966543
  0
LINE
  5
76E
100
AcDbEntity
  8
0
100
AcDbLine
 62
253
  6
CONTINUOUS
 10
149.4902757864
 20
171.6075739726
 11
150.9913695316
 21
170.7882505654
  0
LINE
  5
76F
100
AcDbEntity
  8
0
100
AcDbLine
 62
253
  6
CONTINUOUS
 10
146.1136451487
 20
173.5985734562
 11
150.9913695316
 21
170.7882505654
  0
LINE
  5
770
100
AcDbEntity
  8
0
100
AcDbLine
 62
7
  6
CONTINUOUS
 10
145.5429577363
 20
171.3462179269
 11
146.3223805997
 21
170.8962179269
  0
LINE
  5
771
100
AcDbEntity
  8
0
100
AcDbLine
 62
7
  6
CONTINUOUS
 10
147.3616110843
 20
170.2962179269
 11
148.1410339477
 21
169.8462179269
  0
LINE
  5
772
100
AcDbEntity
  8
0
100
AcDbLine
 62
253
  6
CONTINUOUS
 10
148.4893390517
 20
170.4036226116
 11
147.6701851493
 21
170.8765613376
  0
LINE
  5
773
100
AcDbEntity
  8
0
100
AcDbLine
 62
253
  6
CONTINUOUS
 10
146.6706857038
 20
171.4536226116
 11
145.8515318014
 21
171.9265613376
  0
LINE
  5
774
100
AcDbEntity
  8
0
100
AcDbLine
 62
253
  6
CONTINUOUS
 10
148.7134291196
 20
170.7622416849
 11
147.8687133431
 21
171.2499385658
  0
LINE
  5
775
100
AcDbEntity
  8
0
100
AcDbLine
 62
253
  6
CONTINUOUS
 10
146.8947757717
 20
171.8122416849
 11
146.0500599952
 21
172.2999385658
  0
LINE
  5
776
100
AcDbEntity
  8
0
100
AcDbLine
 62
7
  6
CONTINUOUS
 10
148.0192719014
 20
171.5330980309
 11
147.0647197826
 21
172.0842089536
  0
LINE
  5
777
100
AcDbEntity
  8
0
100
AcDbLine
 62
7
  6
CONTINUOUS
 10
143.7172742583
 20
174.0168575281
 11
146.2006185534
 21
172.5830980309
  0
LINE
  5
778
100
AcDbEntity
  8
0
100
AcDbLine
 62
7
  6
CONTINUOUS
 10
148.8833731306
 20
171.0342089536
 11
149.0902757864
 21
170.9147536495
  0
LINE
  5
779
100
AcDbEntity
  8
0
100
AcDbLine
 62
7
  6
CONTINUOUS
 10
149.4902757864
 20
171.6075739726
 11
145.9172514121
 21
173.6704605569
  0
LINE
  5
77A
100
AcDbEntity
  8
0
100
AcDbLine
 62
253
  6
CONTINUOUS
 10
146.2136413376
 20
173.8149878283
 11
151.0913657239
 21
170.9989139203
  0
LINE
  5
77B
100
AcDbEntity
  8
0
100
AcDbLine
 62
253
  6
CONTINUOUS
 10
148.0003021206
 20
171.4974210622
 11
147.0438135021
 21
172.050751911
  0
LINE
  5
77C
100
AcDbEntity
  8
0
100
AcDbLine
 62
253
  6
CONTINUOUS
 10
150.6163559098
 20
169.9841984526
 11
148.8615184096
 21
170.999234089
  0
LINE
  5
77D
100
AcDbEntity
  8
0
100
AcDbLine
 62
253
  6
CONTINUOUS
 10
146.1825123884
 20
172.5490452871
 11
143.7699047432
 21
173.9449704275
  0
LINE
  5
77E
100
AcDbEntity
  8
0
100
AcDbLine
 62
253
  6
CONTINUOUS
 10
147.921877364
 20
171.3499255466
 11
146.9558209769
 21
171.9099344336
  0
LINE
  5
77F
100
AcDbEntity
  8
0
100
AcDbLine
 62
253
  6
CONTINUOUS
 10
150.5163620874
 20
169.8461091957
 11
148.7725391668
 21
170.8568375337
  0
LINE
  5
780
100
AcDbEntity
  8
0
100
AcDbLine
 62
253
  6
CONTINUOUS
 10
146.1049616921
 20
172.4031936401
 11
143.6699085447
 21
173.8149878299
  0
LINE
  5
781
100
AcDbEntity
  8
0
100
AcDbLine
 62
253
  6
CONTINUOUS
 10
150.6163559098
 20
169.9841984526
 11
149.0902757864
 21
170.9147536495
  0
LINE
  5
782
100
AcDbEntity
  8
0
100
AcDbLine
 62
253
  6
CONTINUOUS
 10
150.9128772445
 20
170.0428283872
 11
149.3737519809
 21
170.981348192
  0
LWPOLYLINE
  5
783
100
AcDbEntity
  8
0
100
AcDbPolyline
 62
253
  6
CONTINUOUS
 90
19
 70
0
 10
150.9913695316
 20
170.7882505654
 10
151.010845818
 20
170.7761774236
 10
151.0294670267
 20
170.7627336889
 10
151.0471199173
 20
170.7479976894
 10
151.0637741323
 20
170.7320023961
 10
151.0792512936
 20
170.7149003801
 10
151.0932509922
 20
170.6969826806
 10
151.1057096353
 20
170.6783896228
 10
151.1165961668
 20
170.6592503963
 10
151.1257237817
 20
170.6398720661
 10
151.1330792052
 20
170.6204302492
 10
151.1387082896
 20
170.6010354753
 10
151.1425637225
 20
170.5819014977
 10
151.1446831223
 20
170.5631933674
 10
151.1451455262
 20
170.544991539
 10
151.1439763411
 20
170.5273725076
 10
151.1412238884
 20
170.5104283213
 10
151.136971539
 20
170.4942644007
 10
151.1312950336
 20
170.478966551
  0
LWPOLYLINE
  5
784
100
AcDbEntity
  8
0
100
AcDbPolyline
 62
253
  6
CONTINUOUS
 90
19
 70
0
 10
151.0913657239
 20
170.9989139203
 10
151.1253815346
 20
170.9773109238
 10
151.1572158217
 20
170.9533366224
 10
151.1868685853
 20
170.9269906804
 10
151.2145844387
 20
170.8979562
 10
151.2401187685
 20
170.8665492717
 10
151.2627377349
 20
170.8337191683
 10
151.282296389
 20
170.799418281
 10
151.2989396796
 20
170.7636936586
 10
151.3123686133
 20
170.7276369476
 10
151.3224411765
 20
170.6913084983
 10
151.3292993827
 20
170.6546478394
 10
151.3330702794
 20
170.6185658066
 10
151.3336873915
 20
170.5831726077
 10
151.3312171941
 20
170.5483583014
 10
151.3259861596
 20
170.5147038063
 10
151.3181031123
 20
170.4824029635
 10
151.307459228
 20
170.4512624072
 10
151.2940545066
 20
170.4212823492
  0
LWPOLYLINE
  5
785
100
AcDbEntity
  8
0
100
AcDbPolyline
 62
253
  6
CONTINUOUS
 90
28
 70
0
 10
146.1136451487
 20
173.5985734562
 10
146.0974218763
 20
173.6090275461
 10
146.0822687358
 20
173.6210137311
 10
146.0683309852
 20
173.6344243474
 10
146.055740072
 20
173.6491418281
 10
146.0446224688
 20
173.6650282249
 10
146.0350943773
 20
173.6819235446
 10
146.0272478019
 20
173.6996662335
 10
146.0211560855
 20
173.7180923795
 10
146.0168787993
 20
173.737023181
 10
146.0144561306
 20
173.7562769342
 10
146.013909662
 20
173.7756753402
 10
146.0152446391
 20
173.7950397334
 10
146.01845008
 20
173.8141912738
 10
146.0234964827
 20
173.8329455538
 10
146.0303342089
 20
173.8511189807
 10
146.0388955035
 20
173.8685368613
 10
146.0490999565
 20
173.8850399012
 10
146.0608543333
 20
173.9004780481
 10
146.0740527618
 20
173.9147099639
 10
146.0885677559
 20
173.9275961427
 10
146.1042524695
 20
173.9390079669
 10
146.1209646828
 20
173.9488443366
 10
146.1385391563
 20
173.9570102244
 10
146.1567739219
 20
173.9634211226
 10
146.1754817394
 20
173.9680277212
 10
146.1944968368
 20
173.9708052092
 10
146.213641341
 20
173.9717414809
  0
LINE
  5
786
100
AcDbEntity
  8
0
100
AcDbLine
 62
253
  6
CONTINUOUS
 10
146.1136451487
 20
39.4887446311
 11
145.9172514121
 21
39.4168575305
  0
LINE
  5
787
100
AcDbEntity
  8
0
100
AcDbLine
 62
253
  6
CONTINUOUS
 10
146.213641341
 20
39.1155766064
 11
146.0171643827
 21
39.0436590437
  0
LWPOLYLINE
  5
788
100
AcDbEntity
  8
0
100
AcDbPolyline
 62
253
  6
CONTINUOUS
 90
9
 70
0
 10
143.7699047432
 20
173.9449704275
 10
143.7673708985
 20
173.9447055805
 10
143.7630859416
 20
173.9424443309
 10
143.7573461096
 20
173.9380582768
 10
143.7506786015
 20
173.9313778702
 10
143.7432021494
 20
173.9224924597
 10
143.7345732924
 20
173.9117210717
 10
143.7251197009
 20
173.8991059012
 10
143.704246547
 20
173.8690354528
  0
LWPOLYLINE
  5
789
100
AcDbEntity
  8
RACCORDO
100
AcDbPolyline
 62
7
  6
CONTINUOUS
 90
22
 70
0
 10
117.7449204759
 20
174.5436590446
 10
117.7099230031
 20
174.542416648
 10
117.6761513348
 20
174.5389411964
 10
117.6436054709
 20
174.53323269
 10
117.6121249182
 20
174.5251801751
 10
117.5818701701
 20
174.5148946054
 10
117.5533227061
 20
174.5027088412
 10
117.5265779921
 20
174.4885768929
 10
117.5015405623
 20
174.4725447502
 10
117.4784054983
 20
174.4550832426
 10
117.4572866298
 20
174.4362857384
 10
117.4380701272
 20
174.4160588692
 10
117.4206095835
 20
174.394593359
 10
117.4048862967
 20
174.3720251579
 10
117.3909189688
 20
174.3482183159
 10
117.3786172999
 20
174.3229557069
 10
117.3678626601
 20
174.2961516385
 10
117.3587736793
 20
174.2678918033
 10
117.3516159466
 20
174.2382161531
 10
117.3464779919
 20
174.2071380052
 10
117.3432712853
 20
174.1746440425
 10
117.3419958268
 20
174.1407342648
  0
LWPOLYLINE
  5
78A
100
AcDbEntity
  8
0
100
AcDbPolyline
 62
253
  6
CONTINUOUS
 90
16
 70
0
 10
118.1138829438
 20
173.8149878263
 10
118.0932970929
 20
173.8144023913
 10
118.0728191201
 20
173.8136905332
 10
118.0527286166
 20
173.8126927607
 10
118.0333500875
 20
173.8110756317
 10
118.0148862959
 20
173.8088777111
 10
117.9974323611
 20
173.8064778229
 10
117.9812215048
 20
173.8036661581
 10
117.9664804826
 20
173.8003353815
 10
117.9532910962
 20
173.7969383515
 10
117.941789609
 20
173.793237874
 10
117.93217232
 20
173.7890849428
 10
117.9245331877
 20
173.7849881479
 10
117.918911155
 20
173.780975612
 10
117.9153524144
 20
173.7766326714
 10
117.9139134048
 20
173.7717719418
  0
LINE
  5
78B
100
AcDbEntity
  8
0
100
AcDbLine
 62
253
  6
CONTINUOUS
 10
141.9045630991
 20
172.6073272019
 11
141.0794285849
 21
172.6073272019
  0
LINE
  5
78C
100
AcDbEntity
  8
0
100
AcDbLine
 62
253
  6
CONTINUOUS
 10
130.6045630991
 20
172.6073272019
 11
129.7794285849
 21
172.6073272019
  0
LINE
  5
78D
100
AcDbEntity
  8
0
100
AcDbLine
 62
253
  6
CONTINUOUS
 10
141.8998235945
 20
172.8203091751
 11
141.0841680895
 21
172.8203091751
  0
LINE
  5
78E
100
AcDbEntity
  8
0
100
AcDbLine
 62
253
  6
CONTINUOUS
 10
130.5998235945
 20
172.8203091751
 11
129.7841680895
 21
172.8203091751
  0
LINE
  5
78F
100
AcDbEntity
  8
0
100
AcDbLine
 62
253
  6
CONTINUOUS
 10
129.8370333808
 20
172.9790340224
 11
130.5469583032
 21
172.9790340224
  0
LINE
  5
790
100
AcDbEntity
  8
0
100
AcDbLine
 62
253
  6
CONTINUOUS
 10
141.1370333808
 20
172.9790340224
 11
141.8469583032
 21
172.9790340224
  0
LINE
  5
791
100
AcDbEntity
  8
0
100
AcDbLine
 62
253
  6
CONTINUOUS
 10
129.841995842
 20
173.2786228829
 11
130.541995842
 21
173.2786228829
  0
LINE
  5
792
100
AcDbEntity
  8
0
100
AcDbLine
 62
253
  6
CONTINUOUS
 10
141.141995842
 20
173.2786228829
 11
141.841995842
 21
173.2786228829
  0
LINE
  5
793
100
AcDbEntity
  8
0
100
AcDbLine
 62
253
  6
CONTINUOUS
 10
118.1138829438
 20
173.8149878263
 11
125.4703503464
 21
173.8149878283
  0
LINE
  5
794
100
AcDbEntity
  8
0
100
AcDbLine
 62
253
  6
CONTINUOUS
 10
130.6172610188
 20
173.8149878263
 11
141.0667306652
 21
173.8149878263
  0
LINE
  5
795
100
AcDbEntity
  8
0
100
AcDbLine
 62
253
  6
CONTINUOUS
 10
141.9172610188
 20
173.8149878263
 11
143.6699085447
 21
173.8149878299
  0
LINE
  5
796
100
AcDbEntity
  8
0
100
AcDbLine
 62
253
  6
CONTINUOUS
 10
146.2136413376
 20
173.8149878283
 11
153.5701087402
 21
173.8149878263
  0
LINE
  5
797
100
AcDbEntity
  8
0
100
AcDbLine
 62
253
  6
CONTINUOUS
 10
118.1138829438
 20
173.9717414809
 11
125.4703503429
 21
173.9717414809
  0
LINE
  5
798
100
AcDbEntity
  8
0
100
AcDbLine
 62
253
  6
CONTINUOUS
 10
130.6139134048
 20
173.9717414809
 11
141.0700782792
 21
173.9717414809
  0
LINE
  5
799
100
AcDbEntity
  8
0
100
AcDbLine
 62
253
  6
CONTINUOUS
 10
141.9139134048
 20
173.9717414809
 11
143.6699085509
 21
173.9717414809
  0
LINE
  5
79A
100
AcDbEntity
  8
0
100
AcDbLine
 62
253
  6
CONTINUOUS
 10
146.213641341
 20
173.9717414809
 11
153.5701087402
 21
173.9717414809
  0
LINE
  5
79B
100
AcDbEntity
  8
0
100
AcDbLine
 62
7
  6
CONTINUOUS
 10
153.642026303
 20
174.0436590437
 11
146.0171643827
 21
174.0436590437
  0
LINE
  5
79C
100
AcDbEntity
  8
0
100
AcDbLine
 62
7
  6
CONTINUOUS
 10
143.6172557638
 20
174.0436590437
 11
141.841995842
 21
174.0436590437
  0
LINE
  5
79D
100
AcDbEntity
  8
0
100
AcDbLine
 62
7
  6
CONTINUOUS
 10
141.141995842
 20
174.0436590437
 11
130.541995842
 21
174.0436590437
  0
LINE
  5
79E
100
AcDbEntity
  8
0
100
AcDbLine
 62
7
  6
CONTINUOUS
 10
129.841995842
 20
174.0436590437
 11
128.0131390123
 21
174.0436590437
  0
LINE
  5
79F
100
AcDbEntity
  8
0
100
AcDbLine
 62
7
  6
CONTINUOUS
 10
125.6668273013
 20
174.0436590437
 11
118.041965381
 21
174.0436590437
  0
LINE
  5
7A0
100
AcDbEntity
  8
RACCORDO
100
AcDbLine
 62
7
  6
CONTINUOUS
 10
153.939071061
 20
174.5436590588
 11
117.7449204759
 21
174.5436590446
  0
LINE
  5
7A1
100
AcDbEntity
  8
RACCORDO
100
AcDbLine
 62
7
  6
CONTINUOUS
 10
154.8426810854
 20
175.5436590425
 11
116.8413106023
 21
175.5436590429
  0
LINE
  5
7A2
100
AcDbEntity
  8
RACCORDO
100
AcDbLine
 62
7
  6
CONTINUOUS
 10
154.8433663072
 20
176.0436590437
 11
116.8406253768
 21
176.0436590437
  0
LINE
  5
7A3
100
AcDbEntity
  8
0
100
AcDbLine
 62
7
  6
CONTINUOUS
 10
128.1361593693
 20
173.9692630584
 11
129.7673278419
 21
173.9689910435
  0
LINE
  5
7A4
100
AcDbEntity
  8
0
100
AcDbLine
 62
7
  6
CONTINUOUS
 10
128.0549247928
 20
173.9697580071
 11
128.1361593693
 21
173.9692630584
  0
LINE
  5
7A5
100
AcDbEntity
  8
0
100
AcDbLine
 62
7
  6
CONTINUOUS
 10
128.0153230262
 20
173.9701784291
 11
128.0549247928
 21
173.9697580071
  0
LWPOLYLINE
  5
7A6
100
AcDbEntity
  8
0
100
AcDbPolyline
 62
253
  6
CONTINUOUS
 90
16
 70
0
 10
153.5701087402
 20
173.8149878263
 10
153.5906945981
 20
173.8144023909
 10
153.6111725772
 20
173.8136905324
 10
153.631263086
 20
173.8126927593
 10
153.6506416194
 20
173.8110756295
 10
153.6691054139
 20
173.8088777079
 10
153.6865593499
 20
173.8064778186
 10
153.7027702058
 20
173.8036661531
 10
153.7175112262
 20
173.8003353758
 10
153.7307006094
 20
173.7969383451
 10
153.7422020924
 20
173.7932378676
 10
153.7518193769
 20
173.7890849371
 10
153.7594585045
 20
173.7849881427
 10
153.7650805331
 20
173.7809756073
 10
153.7686392708
 20
173.7766326682
 10
153.7700782792
 20
173.7717719418
  0
LINE
  5
7A7
100
AcDbEntity
  8
0
100
AcDbLine
 62
7
  6
CONTINUOUS
 10
143.6815219874
 20
173.971406603
 11
143.6699085869
 21
173.9717414819
  0
LWPOLYLINE
  5
7A8
100
AcDbEntity
  8
RACCORDO
100
AcDbPolyline
 62
7
  6
CONTINUOUS
 90
22
 70
0
 10
154.8426810854
 20
175.5436590425
 10
154.8802179954
 20
175.5422146304
 10
154.9171466345
 20
175.5380738959
 10
154.9534670026
 20
175.5312368389
 10
154.9893630833
 20
175.5216465758
 10
155.0246508931
 20
175.5093599901
 10
155.0587784813
 20
175.4945477328
 10
155.0917335388
 20
175.4771790881
 10
155.1235283747
 20
175.4572847716
 10
155.1536479664
 20
175.4351275812
 10
155.1821146578
 20
175.4106030821
 10
155.208906105
 20
175.3838157089
 10
155.2334402525
 20
175.3553415631
 10
155.2556161903
 20
175.3251894275
 10
155.2755348285
 20
175.2933505192
 10
155.2929168423
 20
175.2603745907
 10
155.3077204314
 20
175.226274405
 10
155.319987396
 20
175.1910371991
 10
155.3295638117
 20
175.1551744376
 10
155.3363983704
 20
175.1188566085
 10
155.3405423802
 20
175.0819132238
 10
155.3419958412
 20
175.0443442834
  0
LWPOLYLINE
  5
7A9
100
AcDbEntity
  8
0
100
AcDbPolyline
 62
253
  6
CONTINUOUS
 90
16
 70
0
 10
153.5701087402
 20
173.9717414809
 10
153.5910070343
 20
173.9706401045
 10
153.6116764888
 20
173.9673607609
 10
153.6318907342
 20
173.961939354
 10
153.6514283842
 20
173.9544352477
 10
153.6700754607
 20
173.9449306161
 10
153.687627737
 20
173.9335295438
 10
153.7038929843
 20
173.920356878
 10
153.7186930483
 20
173.9055568833
 10
153.7318658096
 20
173.8892916716
 10
153.7432669934
 20
173.8717393915
 10
153.7527717427
 20
173.853092267
 10
153.7602759626
 20
173.8335545193
 10
153.7656974666
 20
173.8133401254
 10
153.7689768777
 20
173.7926704748
 10
153.7700782792
 20
173.7717719418
  0
LINE
  5
7AA
100
AcDbEntity
  8
0
100
AcDbLine
 62
253
  6
CONTINUOUS
 10
145.9172514121
 20
173.6704605569
 11
146.1136451487
 21
173.5985734562
  0
LINE
  5
7AB
100
AcDbEntity
  8
0
100
AcDbLine
 62
253
  6
CONTINUOUS
 10
146.0171643827
 20
174.0436590437
 11
146.213641341
 21
173.9717414809
  0
ARC
  5
7AC
100
AcDbEntity
  8
0
100
AcDbCircle
 62
253
  6
CONTINUOUS
 10
189.041995842
 20
59.5436590437
 40
70.4849638392
100
AcDbArc
 50
183.8233703856
 51
184.3938544899
  0
ARC
  5
7AD
100
AcDbEntity
  8
0
100
AcDbCircle
 62
253
  6
CONTINUOUS
 10
82.641995842
 20
59.5436590437
 40
70.4849638392
100
AcDbArc
 50
355.6061455101
 51
356.1766296144
  0
ARC
  5
7AE
100
AcDbEntity
  8
0
100
AcDbCircle
 62
253
  6
CONTINUOUS
 10
82.641995842
 20
153.5436590437
 40
70.4849638392
100
AcDbArc
 50
3.8233703856
 51
4.3938544899
  0
ARC
  5
7AF
100
AcDbEntity
  8
0
100
AcDbCircle
 62
253
  6
CONTINUOUS
 10
189.041995842
 20
153.5436590437
 40
70.4849638392
100
AcDbArc
 50
175.6061455101
 51
176.1766296144
  0
ARC
  5
7B0
100
AcDbEntity
  8
0
100
AcDbCircle
 62
253
  6
CONTINUOUS
 10
82.641995842
 20
59.5436590437
 40
70.1853749788
100
AcDbArc
 50
355.5832899334
 51
356.1643451994
  0
ARC
  5
7B1
100
AcDbEntity
  8
0
100
AcDbCircle
 62
253
  6
CONTINUOUS
 10
82.641995842
 20
153.5436590437
 40
70.1853749788
100
AcDbArc
 50
3.8356548006
 51
4.4167100666
  0
ARC
  5
7B2
100
AcDbEntity
  8
0
100
AcDbCircle
 62
253
  6
CONTINUOUS
 10
189.041995842
 20
153.5436590437
 40
70.1853749788
100
AcDbArc
 50
175.5832899334
 51
176.1643451994
  0
ARC
  5
7B3
100
AcDbEntity
  8
0
100
AcDbCircle
 62
253
  6
CONTINUOUS
 10
189.041995842
 20
59.5436590437
 40
70.1853749788
100
AcDbArc
 50
183.8356548006
 51
184.4167100666
  0
ARC
  5
7B4
100
AcDbEntity
  8
0
100
AcDbCircle
 62
7
  6
CONTINUOUS
 10
139.259551842
 20
170.0436590437
 40
2.5499986575
100
AcDbArc
 50
87.752529198
 51
272.247470802
  0
ARC
  5
7B5
100
AcDbEntity
  8
0
100
AcDbCircle
 62
7
  6
CONTINUOUS
 10
134.874441842
 20
170.0436590437
 40
2.5499985399
100
AcDbArc
 50
87.7525290943
 51
272.2474709057
  0
ARC
  5
7B6
100
AcDbEntity
  8
0
100
AcDbCircle
 62
7
  6
CONTINUOUS
 10
120.441995842
 20
152.0436590437
 40
2.0240299518
100
AcDbArc
 50
22.0885283167
 51
3.4299000434
  0
ARC
  5
7B7
100
AcDbEntity
  8
0
100
AcDbCircle
 62
7
  6
CONTINUOUS
 10
124.257552842
 20
151.9824400437
 40
1.8043863978
100
AcDbArc
 50
137.231266101
 51
174.2010647067
  0
ARC
  5
7B8
100
AcDbEntity
  8
0
100
AcDbCircle
 62
7
  6
CONTINUOUS
 10
139.259551842
 20
170.0436590437
 40
1.7999999246
100
AcDbArc
 50
86.8152613297
 51
167.9753003079
  0
ARC
  5
7B9
100
AcDbEntity
  8
0
100
AcDbCircle
 62
7
  6
CONTINUOUS
 10
134.874441842
 20
170.0436590437
 40
1.7999999246
100
AcDbArc
 50
90.2455020945
 51
273.1847386703
  0
ARC
  5
7BA
100
AcDbEntity
  8
0
100
AcDbCircle
 62
7
  6
CONTINUOUS
 10
139.259551842
 20
170.0436590437
 40
1.7999968808
100
AcDbArc
 50
192.0247203293
 51
273.1847440612
  0
ARC
  5
7BB
100
AcDbEntity
  8
0
100
AcDbCircle
 62
7
  6
CONTINUOUS
 10
123.965282842
 20
152.1244450437
 40
1.7827319001
100
AcDbArc
 50
135.4349102329
 51
157.565881117
  0
CIRCLE
  5
7BC
100
AcDbEntity
  8
0
100
AcDbCircle
 62
7
  6
CONTINUOUS
 10
120.441995842
 20
152.0436590437
 40
1.700044
  0
ARC
  5
7BD
100
AcDbEntity
  8
0
100
AcDbCircle
 62
7
  6
CONTINUOUS
 10
120.441995842
 20
152.0436590437
 40
1.5204522959
100
AcDbArc
 50
224.9002633258
 51
330.6958764731
  0
ARC
  5
7BE
100
AcDbEntity
  8
0
100
AcDbCircle
 62
7
  6
CONTINUOUS
 10
120.441995842
 20
152.0436590437
 40
1.5204520975
100
AcDbArc
 50
29.3041235269
 51
134.9957610488
  0
ARC
  5
7BF
100
AcDbEntity
  8
0
100
AcDbCircle
 62
7
  6
CONTINUOUS
 10
120.441995842
 20
152.0436590437
 40
1.2181566122
100
AcDbArc
 50
29.3041277351
 51
121.9732965665
  0
ARC
  5
7C0
100
AcDbEntity
  8
0
100
AcDbCircle
 62
7
  6
CONTINUOUS
 10
120.441995842
 20
152.0436590437
 40
1.2181564327
100
AcDbArc
 50
238.0267046423
 51
330.6958722649
  0
ARC
  5
7C1
100
AcDbEntity
  8
RACCORDO
100
AcDbCircle
 62
7
  6
CONTINUOUS
 10
125.391995842
 20
56.3436590437
 40
0.8
100
AcDbArc
 50
180.0
 51
270.0
  0
ARC
  5
7C2
100
AcDbEntity
  8
RACCORDO
100
AcDbCircle
 62
7
  6
CONTINUOUS
 10
146.291995842
 20
56.3436590437
 40
0.8
100
AcDbArc
 50
270.0
 51
360.0
  0
ARC
  5
7C3
100
AcDbEntity
  8
RACCORDO
100
AcDbCircle
 62
7
  6
CONTINUOUS
 10
146.291995842
 20
99.7436590437
 40
0.8
100
AcDbArc
 50
0.0
 51
90.0
  0
ARC
  5
7C4
100
AcDbEntity
  8
RACCORDO
100
AcDbCircle
 62
7
  6
CONTINUOUS
 10
125.391995842
 20
99.7436590437
 40
0.8
100
AcDbArc
 50
90.0
 51
180.0
  0
ARC
  5
7C5
100
AcDbEntity
  8
RACCORDO
100
AcDbCircle
 62
7
  6
CONTINUOUS
 10
146.291995842
 20
113.3436590437
 40
0.8
100
AcDbArc
 50
270.0
 51
360.0
  0
ARC
  5
7C6
100
AcDbEntity
  8
RACCORDO
100
AcDbCircle
 62
7
  6
CONTINUOUS
 10
146.291995842
 20
156.7436590437
 40
0.8
100
AcDbArc
 50
0.0
 51
90.0
  0
ARC
  5
7C7
100
AcDbEntity
  8
RACCORDO
100
AcDbCircle
 62
7
  6
CONTINUOUS
 10
125.391995842
 20
156.7436590437
 40
0.8
100
AcDbArc
 50
90.0
 51
180.0
  0
ARC
  5
7C8
100
AcDbEntity
  8
RACCORDO
100
AcDbCircle
 62
7
  6
CONTINUOUS
 10
125.391995842
 20
113.3436590437
 40
0.8
100
AcDbArc
 50
180.0
 51
270.0
  0
ELLIPSE
  5
7C9
100
AcDbEntity
  8
RACCORDO
100
AcDbEllipse
 62
7
  6
CONTINUOUS
 10
154.840623496
 20
38.0450313897
 30
0.0
 11
-0.7090462434
 21
0.7090462434
 31
0.0
 40
0.9972646886
 41
2.3575640181
 42
3.9256212891
  0
ELLIPSE
  5
7CA
100
AcDbEntity
  8
RACCORDO
100
AcDbEllipse
 62
7
  6
CONTINUOUS
 10
116.843368188
 20
38.0450313897
 30
0.0
 11
0.7090462434
 21
0.7090462434
 31
0.0
 40
0.9972646886
 41
2.3575640181
 42
3.9256212891
  0
ELLIPSE
  5
7CB
100
AcDbEntity
  8
RACCORDO
100
AcDbEllipse
 62
7
  6
CONTINUOUS
 10
116.843368188
 20
175.0422866977
 30
0.0
 11
0.7090462434
 21
-0.7090462434
 31
0.0
 40
0.9972646886
 41
2.3575640181
 42
3.9256212891
  0
ELLIPSE
  5
7CC
100
AcDbEntity
  8
RACCORDO
100
AcDbEllipse
 62
7
  6
CONTINUOUS
 10
154.840623496
 20
175.0422866977
 30
0.0
 11
-0.7090462434
 21
-0.7090462434
 31
0.0
 40
0.9972646886
 41
2.3575640181
 42
3.9256212891
  0
ELLIPSE
  5
7CD
100
AcDbEntity
  8
0
100
AcDbEllipse
 62
7
  6
CONTINUOUS
 10
122.2942698393
 20
41.652638171
 30
0.0
 11
-0.1868251516
 21
0.1019724586
 31
0.0
 40
0.9396610255
 41
-0.0225263213
 42
1.5452853501
  0
ELLIPSE
  5
7CE
100
AcDbEntity
  8
0
100
AcDbEllipse
 62
7
  6
CONTINUOUS
 10
122.4942622236
 20
41.9990351417
 30
0.0
 11
0.1817233154
 21
-0.1108090981
 31
0.0
 40
0.9396610255
 41
1.5963073035
 42
3.1641189749
  0
ELLIPSE
  5
7CF
100
AcDbEntity
  8
0
100
AcDbEllipse
 62
7
  6
CONTINUOUS
 10
149.3897218447
 20
41.652638171
 30
0.0
 11
-0.1868251516
 21
-0.1019724586
 31
0.0
 40
0.9396610255
 41
1.5963073035
 42
3.1641189749
  0
ELLIPSE
  5
7D0
100
AcDbEntity
  8
0
100
AcDbEllipse
 62
7
  6
CONTINUOUS
 10
133.3161774082
 20
60.4336590437
 30
0.0
 11
0.0
 21
97.9331051068
 31
0.0
 40
0.0174550649
 41
-1.6580627848
 42
-1.6362140538
  0
ELLIPSE
  5
7D1
100
AcDbEntity
  8
0
100
AcDbEllipse
 62
7
  6
CONTINUOUS
 10
138.3678142758
 20
60.4336590437
 30
0.0
 11
0.0
 21
97.9331051068
 31
0.0
 40
0.0174550649
 41
-4.6469712534
 42
-4.6251225224
  0
ELLIPSE
  5
7D2
100
AcDbEntity
  8
0
100
AcDbEllipse
 62
7
  6
CONTINUOUS
 10
124.8678142758
 20
60.4336590437
 30
0.0
 11
-0.0
 21
97.9331051068
 31
0.0
 40
0.0174550649
 41
-4.6621349071
 42
-4.6564335864
  0
ELLIPSE
  5
7D3
100
AcDbEntity
  8
0
100
AcDbEllipse
 62
7
  6
CONTINUOUS
 10
146.8161774082
 20
60.4336590437
 30
0.0
 11
0.0
 21
97.9331051068
 31
0.0
 40
0.0174550649
 41
-1.6267517208
 42
-1.6210504001
  0
ELLIPSE
  5
7D4
100
AcDbEntity
  8
0
100
AcDbEllipse
 62
7
  6
CONTINUOUS
 10
140.2482162133
 20
60.4336590437
 30
0.0
 11
0.0
 21
97.9331051068
 31
0.0
 40
0.0174550649
 41
-1.7885935615
 42
-1.7492461005
  0
ELLIPSE
  5
7D5
100
AcDbEntity
  8
0
100
AcDbEllipse
 62
7
  6
CONTINUOUS
 10
142.7357754706
 20
60.4336590437
 30
0.0
 11
-0.0
 21
97.9331051068
 31
0.0
 40
0.0174550649
 41
-4.5339392067
 42
-4.4945917456
  0
ELLIPSE
  5
7D6
100
AcDbEntity
  8
0
100
AcDbEllipse
 62
7
  6
CONTINUOUS
 10
128.9482162133
 20
60.4336590437
 30
0.0
 11
0.0
 21
97.9331051068
 31
0.0
 40
0.0174550649
 41
-1.7885935615
 42
-1.7492461005
  0
ELLIPSE
  5
7D7
100
AcDbEntity
  8
0
100
AcDbEllipse
 62
7
  6
CONTINUOUS
 10
131.4357754706
 20
60.4336590437
 30
0.0
 11
0.0
 21
97.9331051068
 31
0.0
 40
0.0174550649
 41
-4.5339392067
 42
-4.4945917456
  0
ELLIPSE
  5
7D8
100
AcDbEntity
  8
0
100
AcDbEllipse
 62
7
  6
CONTINUOUS
 10
132.4357381791
 20
42.7238025298
 30
0.0
 11
-0.0
 21
5.1872524353
 31
0.0
 40
0.0874886635
 41
-3.7752806569
 42
-3.3496506657
  0
ELLIPSE
  5
7D9
100
AcDbEntity
  8
0
100
AcDbEllipse
 62
7
  6
CONTINUOUS
 10
139.2482535049
 20
42.7238025298
 30
0.0
 11
-0.0
 21
5.1872524353
 31
0.0
 40
0.0874886635
 41
-2.9335346414
 42
-2.5079046503
  0
ELLIPSE
  5
7DA
100
AcDbEntity
  8
0
100
AcDbEllipse
 62
7
  6
CONTINUOUS
 10
140.7047347634
 20
78.0436590437
 30
0.0
 11
-0.0
 21
448.5
 31
0.0
 40
0.0174550649
 41
-1.6210504001
 42
-1.5707963268
  0
ELLIPSE
  5
7DB
100
AcDbEntity
  8
0
100
AcDbEllipse
 62
7
  6
CONTINUOUS
 10
130.9792569206
 20
78.0436590437
 30
0.0
 11
-0.0
 21
448.5
 31
0.0
 40
0.0174550649
 41
-4.7123889804
 42
-4.6621349071
  0
ELLIPSE
  5
7DC
100
AcDbEntity
  8
0
100
AcDbEllipse
 62
7
  6
CONTINUOUS
 10
138.3678142758
 20
152.6536590437
 30
0.0
 11
-0.0
 21
97.9331051068
 31
0.0
 40
0.0174550649
 41
1.4835298688
 42
1.5053785998
  0
ELLIPSE
  5
7DD
100
AcDbEntity
  8
0
100
AcDbEllipse
 62
7
  6
CONTINUOUS
 10
141.0844421477
 20
172.5207203146
 30
0.0
 11
0.0
 21
0.3
 31
0.0
 40
0.0174550649
 41
0.0523598776
 42
1.277938421
  0
ELLIPSE
  5
7DE
100
AcDbEntity
  8
0
100
AcDbEllipse
 62
7
  6
CONTINUOUS
 10
141.8995495362
 20
172.5207203146
 30
0.0
 11
0.0
 21
0.3
 31
0.0
 40
0.0174550649
 41
-1.277938421
 42
-0.0523598776
  0
ELLIPSE
  5
7DF
100
AcDbEntity
  8
0
100
AcDbEllipse
 62
7
  6
CONTINUOUS
 10
152.3654395213
 20
111.0849004654
 30
0.0
 11
0.3
 21
-0.0
 31
0.0
 40
0.0174550649
 41
-1.3426713563
 42
-0.0523598776
  0
ELLIPSE
  5
7E0
100
AcDbEntity
  8
0
100
AcDbEllipse
 62
7
  6
CONTINUOUS
 10
152.3654395213
 20
111.9024176219
 30
0.0
 11
0.3
 21
0.0
 31
0.0
 40
0.0174550649
 41
0.0523598776
 42
1.3426713563
  0
ELLIPSE
  5
7E1
100
AcDbEntity
  8
0
100
AcDbEllipse
 62
7
  6
CONTINUOUS
 10
152.3654395213
 20
102.0024176219
 30
0.0
 11
0.3
 21
0.0
 31
0.0
 40
0.0174550649
 41
0.0523598776
 42
1.3426713563
  0
ELLIPSE
  5
7E2
100
AcDbEntity
  8
0
100
AcDbEllipse
 62
7
  6
CONTINUOUS
 10
152.3654395213
 20
101.1849004654
 30
0.0
 11
0.3
 21
0.0
 31
0.0
 40
0.0174550649
 41
-1.3426713563
 42
-0.0523598776
  0
ELLIPSE
  5
7E3
100
AcDbEntity
  8
0
100
AcDbEllipse
 62
7
  6
CONTINUOUS
 10
141.8995495362
 20
40.5665977727
 30
0.0
 11
-0.0
 21
0.3
 31
0.0
 40
0.0174550649
 41
-3.089232776
 42
-1.8636542326
  0
ELLIPSE
  5
7E4
100
AcDbEntity
  8
0
100
AcDbEllipse
 62
7
  6
CONTINUOUS
 10
141.0844421477
 20
40.5665977727
 30
0.0
 11
-0.0
 21
0.3
 31
0.0
 40
0.0174550649
 41
-4.4195310746
 42
-3.1939525311
  0
ELLIPSE
  5
7E5
100
AcDbEntity
  8
0
100
AcDbEllipse
 62
7
  6
CONTINUOUS
 10
130.5995495362
 20
40.5665977727
 30
0.0
 11
0.0
 21
0.3
 31
0.0
 40
0.0174550649
 41
-3.089232776
 42
-1.8636542326
  0
ELLIPSE
  5
7E6
100
AcDbEntity
  8
0
100
AcDbEllipse
 62
7
  6
CONTINUOUS
 10
129.7844421477
 20
40.5665977727
 30
0.0
 11
0.0
 21
0.3
 31
0.0
 40
0.0174550649
 41
-4.4195310746
 42
-3.1939525312
  0
ELLIPSE
  5
7E7
100
AcDbEntity
  8
0
100
AcDbEllipse
 62
7
  6
CONTINUOUS
 10
119.3185521627
 20
102.0024176219
 30
0.0
 11
0.3
 21
-0.0
 31
0.0
 40
0.0174550649
 41
1.7989212973
 42
3.089232776
  0
ELLIPSE
  5
7E8
100
AcDbEntity
  8
0
100
AcDbEllipse
 62
7
  6
CONTINUOUS
 10
119.3185521627
 20
101.1849004654
 30
0.0
 11
0.3
 21
0.0
 31
0.0
 40
0.0174550649
 41
-3.089232776
 42
-1.7989212973
  0
ELLIPSE
  5
7E9
100
AcDbEntity
  8
0
100
AcDbEllipse
 62
7
  6
CONTINUOUS
 10
119.3185521627
 20
111.0849004654
 30
0.0
 11
0.3
 21
-0.0
 31
0.0
 40
0.0174550649
 41
-3.089232776
 42
-1.7989212973
  0
ELLIPSE
  5
7EA
100
AcDbEntity
  8
0
100
AcDbEllipse
 62
7
  6
CONTINUOUS
 10
119.3185521627
 20
111.9024176219
 30
0.0
 11
0.3
 21
0.0
 31
0.0
 40
0.0174550649
 41
1.7989212973
 42
3.089232776
  0
ELLIPSE
  5
7EB
100
AcDbEntity
  8
0
100
AcDbEllipse
 62
7
  6
CONTINUOUS
 10
129.7844421477
 20
172.5207203146
 30
0.0
 11
0.0
 21
0.3
 31
0.0
 40
0.0174550649
 41
0.0523598776
 42
1.277938421
  0
ELLIPSE
  5
7EC
100
AcDbEntity
  8
0
100
AcDbEllipse
 62
7
  6
CONTINUOUS
 10
130.5995495362
 20
172.5207203146
 30
0.0
 11
0.0
 21
0.3
 31
0.0
 40
0.0174550649
 41
-1.277938421
 42
-0.0523598776
  0
ELLIPSE
  5
7ED
100
AcDbEntity
  8
0
100
AcDbEllipse
 62
7
  6
CONTINUOUS
 10
125.6666608514
 20
39.2436895093
 30
0.0
 11
0.1880555441
 21
-0.0688350253
 31
0.0
 40
0.9987131335
 41
-1.2194920612
 42
1.3978678259
  0
ELLIPSE
  5
7EE
100
AcDbEntity
  8
0
100
AcDbEllipse
 62
7
  6
CONTINUOUS
 10
128.0666913142
 20
39.2436895093
 30
0.0
 11
-0.1181737429
 21
0.1614115426
 31
0.0
 40
0.9997660869
 41
-4.2970689655
 42
-3.7734450477
  0
ELLIPSE
  5
7EF
100
AcDbEntity
  8
0
100
AcDbEllipse
 62
7
  6
CONTINUOUS
 10
133.3161774082
 20
152.6536590437
 30
0.0
 11
0.0
 21
97.9331051068
 31
0.0
 40
0.0174550649
 41
-1.5053785998
 42
-1.4835298688
  0
ELLIPSE
  5
7F0
100
AcDbEntity
  8
0
100
AcDbEllipse
 62
7
  6
CONTINUOUS
 10
146.0173308325
 20
39.2436895093
 30
0.0
 11
0.1880555441
 21
0.0688350253
 31
0.0
 40
0.9987131335
 41
1.7437248277
 42
4.3610847147
  0
ELLIPSE
  5
7F1
100
AcDbEntity
  8
0
100
AcDbEllipse
 62
7
  6
CONTINUOUS
 10
143.6173003698
 20
39.2436895093
 30
0.0
 11
0.118173743
 21
0.1614115426
 31
0.0
 40
0.9997660869
 41
-2.5097402593
 42
-1.9861163415
  0
ELLIPSE
  5
7F2
100
AcDbEntity
  8
0
100
AcDbEllipse
 62
7
  6
CONTINUOUS
 10
146.0173308325
 20
173.8436285781
 30
0.0
 11
0.1880555441
 21
-0.0688350253
 31
0.0
 40
0.9987131335
 41
1.9221005925
 42
4.5394604796
  0
ELLIPSE
  5
7F3
100
AcDbEntity
  8
0
100
AcDbEllipse
 62
7
  6
CONTINUOUS
 10
143.6173003698
 20
173.8436285781
 30
0.0
 11
-0.118173743
 21
0.1614115426
 31
0.0
 40
0.9997660869
 41
-1.155476312
 42
-0.6318523942
  0
ELLIPSE
  5
7F4
100
AcDbEntity
  8
0
100
AcDbEllipse
 62
7
  6
CONTINUOUS
 10
125.6666608514
 20
173.8436285781
 30
0.0
 11
0.1880555441
 21
0.0688350253
 31
0.0
 40
0.9987131335
 41
-1.397867826
 42
1.2194920611
  0
ELLIPSE
  5
7F5
100
AcDbEntity
  8
0
100
AcDbEllipse
 62
7
  6
CONTINUOUS
 10
124.8678142758
 20
152.6536590437
 30
0.0
 11
-0.0
 21
97.9331051068
 31
0.0
 40
0.0174550649
 41
1.5148409328
 42
1.5205422535
  0
ELLIPSE
  5
7F6
100
AcDbEntity
  8
0
100
AcDbEllipse
 62
7
  6
CONTINUOUS
 10
146.8161774082
 20
152.6536590437
 30
0.0
 11
-0.0
 21
97.9331051068
 31
0.0
 40
0.0174550649
 41
-1.5205422535
 42
-1.5148409328
  0
ELLIPSE
  5
7F7
100
AcDbEntity
  8
0
100
AcDbEllipse
 62
7
  6
CONTINUOUS
 10
137.1449357274
 20
51.3436590437
 30
0.0
 11
0.3106590941
 21
0.0
 31
0.0
 40
0.9656887748
 41
-1.5707963268
 42
-0.0
  0
ELLIPSE
  5
7F8
100
AcDbEntity
  8
0
100
AcDbEllipse
 62
7
  6
CONTINUOUS
 10
134.5390559566
 20
51.3436590437
 30
0.0
 11
0.3106590941
 21
-0.0
 31
0.0
 40
0.9656887748
 41
3.1415926536
 42
4.7123889804
  0
ELLIPSE
  5
7F9
100
AcDbEntity
  8
0
100
AcDbEllipse
 62
7
  6
CONTINUOUS
 10
134.5390559566
 20
104.7436590437
 30
0.0
 11
0.3106590941
 21
-0.0
 31
0.0
 40
0.9656887748
 41
1.5707963268
 42
3.1415926536
  0
ELLIPSE
  5
7FA
100
AcDbEntity
  8
0
100
AcDbEllipse
 62
7
  6
CONTINUOUS
 10
137.1449357274
 20
104.7436590437
 30
0.0
 11
0.3106590941
 21
-0.0
 31
0.0
 40
0.9656887748
 41
6.2831853072
 42
7.853981634
  0
ELLIPSE
  5
7FB
100
AcDbEntity
  8
0
100
AcDbEllipse
 62
7
  6
CONTINUOUS
 10
134.5390559566
 20
161.7465989291
 30
0.0
 11
0.2870477648
 21
-0.1248082944
 31
0.0
 40
0.9518332917
 41
1.9644088899
 42
3.5339872415
  0
ELLIPSE
  5
7FC
100
AcDbEntity
  8
0
100
AcDbEllipse
 62
7
  6
CONTINUOUS
 10
137.1449357274
 20
161.7465989291
 30
0.0
 11
0.2870477648
 21
0.1248082944
 31
0.0
 40
0.9518332917
 41
-0.3923945879
 42
1.1771837637
  0
ELLIPSE
  5
7FD
100
AcDbEntity
  8
0
100
AcDbEllipse
 62
7
  6
CONTINUOUS
 10
134.5390559566
 20
108.3407191582
 30
0.0
 11
0.2870477648
 21
0.1248082944
 31
0.0
 40
0.9518332917
 41
2.7491980657
 42
4.3187764173
  0
ELLIPSE
  5
7FE
100
AcDbEntity
  8
0
100
AcDbEllipse
 62
7
  6
CONTINUOUS
 10
137.1449357274
 20
108.3407191582
 30
0.0
 11
0.2870477648
 21
-0.1248082944
 31
0.0
 40
0.9518332917
 41
-1.1771837637
 42
0.3923945879
  0
ELLIPSE
  5
7FF
100
AcDbEntity
  8
0
100
AcDbEllipse
 62
7
  6
CONTINUOUS
 10
118.0420263076
 20
39.2436895093
 30
0.0
 11
0.1414644378
 21
0.1414644379
 31
0.0
 40
0.9996954599
 41
-3.9268385239
 42
-2.3563467836
  0
ELLIPSE
  5
800
100
AcDbEntity
  8
0
100
AcDbEllipse
 62
7
  6
CONTINUOUS
 10
153.6419653764
 20
39.2436895093
 30
0.0
 11
-0.1414644378
 21
0.1414644378
 31
0.0
 40
0.9996954599
 41
-3.9268385237
 42
-2.3563467834
  0
ELLIPSE
  5
801
100
AcDbEntity
  8
0
100
AcDbEllipse
 62
7
  6
CONTINUOUS
 10
153.6419653764
 20
173.8436285781
 30
0.0
 11
0.1414644378
 21
0.1414644378
 31
0.0
 40
0.9996954599
 41
-0.7852458701
 42
0.7852458702
  0
ELLIPSE
  5
802
100
AcDbEntity
  8
0
100
AcDbEllipse
 62
7
  6
CONTINUOUS
 10
118.0420263076
 20
173.8436285781
 30
0.0
 11
0.1414644378
 21
-0.1414644379
 31
0.0
 40
0.9996954599
 41
2.3563467836
 42
3.9268385239
  0
ELLIPSE
  5
803
100
AcDbEntity
  8
0
100
AcDbEllipse
 62
7
  6
CONTINUOUS
 10
131.4357754706
 20
152.6536590437
 30
0.0
 11
0.0
 21
97.9331051068
 31
0.0
 40
0.0174550649
 41
1.3513882206
 42
1.3923465531
  0
ELLIPSE
  5
804
100
AcDbEntity
  8
0
100
AcDbEllipse
 62
7
  6
CONTINUOUS
 10
128.9482162133
 20
152.6536590437
 30
0.0
 11
0.0
 21
97.9331051068
 31
0.0
 40
0.0174550649
 41
-1.3923465531
 42
-1.3529990921
  0
ELLIPSE
  5
805
100
AcDbEntity
  8
0
100
AcDbEllipse
 62
7
  6
CONTINUOUS
 10
142.7357754706
 20
152.6536590437
 30
0.0
 11
0.0
 21
97.9331051068
 31
0.0
 40
0.0174550649
 41
1.3529990921
 42
1.3923465531
  0
ELLIPSE
  5
806
100
AcDbEntity
  8
0
100
AcDbEllipse
 62
7
  6
CONTINUOUS
 10
140.2482162133
 20
152.6536590437
 30
0.0
 11
0.0
 21
97.9331051068
 31
0.0
 40
0.0174550649
 41
-1.3923465531
 42
-1.3529990921
  0
ELLIPSE
  5
807
100
AcDbEntity
  8
0
100
AcDbEllipse
 62
7
  6
CONTINUOUS
 10
149.3897218447
 20
171.4346799164
 30
0.0
 11
0.1868251516
 21
-0.1019724586
 31
0.0
 40
0.9396610255
 41
-0.0225263213
 42
1.5452853501
  0
ELLIPSE
  5
808
100
AcDbEntity
  8
0
100
AcDbEllipse
 62
7
  6
CONTINUOUS
 10
135.205648177
 20
106.0027348823
 30
0.0
 11
-0.0
 21
0.3
 31
0.0
 40
0.0349207695
 41
-3.1764992386
 42
-3.1503192998
  0
ELLIPSE
  5
809
100
AcDbEntity
  8
0
100
AcDbEllipse
 62
7
  6
CONTINUOUS
 10
136.478343507
 20
106.0027348823
 30
0.0
 11
0.0
 21
0.3
 31
0.0
 40
0.0349207695
 41
-3.1328660073
 42
-3.1066860685
  0
ELLIPSE
  5
80A
100
AcDbEntity
  8
0
100
AcDbEllipse
 62
7
  6
CONTINUOUS
 10
149.1897294604
 20
171.0882829456
 30
0.0
 11
-0.1817233154
 21
0.1108090981
 31
0.0
 40
0.9396610255
 41
1.5963073035
 42
3.1641189749
  0
ELLIPSE
  5
80B
100
AcDbEntity
  8
0
100
AcDbEllipse
 62
7
  6
CONTINUOUS
 10
136.478343507
 20
107.084583205
 30
0.0
 11
-0.0
 21
0.3
 31
0.0
 40
0.0349207695
 41
-0.034906585
 42
-0.0087266463
  0
ELLIPSE
  5
80C
100
AcDbEntity
  8
0
100
AcDbEllipse
 62
7
  6
CONTINUOUS
 10
135.205648177
 20
107.084583205
 30
0.0
 11
0.0
 21
0.3
 31
0.0
 40
0.0349207695
 41
0.0087266463
 42
0.034906585
  0
ELLIPSE
  5
80D
100
AcDbEntity
  8
0
100
AcDbEllipse
 62
7
  6
CONTINUOUS
 10
136.4453382261
 20
162.5471842911
 30
0.0
 11
0.0
 21
0.3
 31
0.0
 40
0.0349207695
 41
-3.1066860685
 42
-3.0068825898
  0
ELLIPSE
  5
80E
100
AcDbEntity
  8
0
100
AcDbEllipse
 62
7
  6
CONTINUOUS
 10
135.2386534579
 20
162.5471842911
 30
0.0
 11
0.0
 21
0.3
 31
0.0
 40
0.0349207695
 41
-3.2763027173
 42
-3.1764992386
  0
ELLIPSE
  5
80F
100
AcDbEntity
  8
0
100
AcDbEllipse
 62
7
  6
CONTINUOUS
 10
140.7047347634
 20
135.0436590437
 30
0.0
 11
-0.0
 21
448.5
 31
0.0
 40
0.0174550649
 41
-1.5707963268
 42
-1.5205422535
  0
ELLIPSE
  5
810
100
AcDbEntity
  8
0
100
AcDbEllipse
 62
7
  6
CONTINUOUS
 10
130.9792569206
 20
135.0436590437
 30
0.0
 11
-0.0
 21
448.5
 31
0.0
 40
0.0174550649
 41
1.5205422535
 42
1.5707963268
  0
ELLIPSE
  5
811
100
AcDbEntity
  8
0
100
AcDbEllipse
 62
7
  6
CONTINUOUS
 10
149.1897294604
 20
41.9990351417
 30
0.0
 11
0.1817233154
 21
0.1108090981
 31
0.0
 40
0.9396610255
 41
-0.0225263213
 42
1.5452853501
  0
ELLIPSE
  5
812
100
AcDbEntity
  8
0
100
AcDbEllipse
 62
7
  6
CONTINUOUS
 10
122.4942622236
 20
171.0882829456
 30
0.0
 11
-0.1817233154
 21
-0.1108090981
 31
0.0
 40
0.9396610255
 41
-0.0225263213
 42
1.5452853501
  0
ELLIPSE
  5
813
100
AcDbEntity
  8
0
100
AcDbEllipse
 62
7
  6
CONTINUOUS
 10
122.2942698393
 20
171.4346799164
 30
0.0
 11
0.1868251516
 21
0.1019724586
 31
0.0
 40
0.9396610255
 41
1.5963073035
 42
3.1641189749
  0
ELLIPSE
  5
814
100
AcDbEntity
  8
0
100
AcDbEllipse
 62
7
  6
CONTINUOUS
 10
118.5570320028
 20
101.2384225242
 30
0.0
 11
0.3
 21
0.0
 31
0.0
 40
0.0174550649
 41
0.0523598776
 42
1.5707963268
  0
ELLIPSE
  5
815
100
AcDbEntity
  8
0
100
AcDbEllipse
 62
7
  6
CONTINUOUS
 10
118.1619096415
 20
101.1237757098
 30
0.0
 11
0.2
 21
0.0
 31
0.0
 40
0.0174550649
 41
-3.1241393611
 42
-1.5707963268
  0
ELLIPSE
  5
816
100
AcDbEntity
  8
0
100
AcDbEllipse
 62
7
  6
CONTINUOUS
 10
128.341995842
 20
101.8633138486
 30
0.0
 11
40.2
 21
-0.0
 31
0.0
 40
0.0174550649
 41
-1.7989212973
 42
-1.6991141192
  0
ELLIPSE
  5
817
100
AcDbEntity
  8
0
100
AcDbEllipse
 62
7
  6
CONTINUOUS
 10
118.1619096415
 20
111.9635423775
 30
0.0
 11
0.2
 21
0.0
 31
0.0
 40
0.0174550649
 41
1.5707963268
 42
3.1241393611
  0
ELLIPSE
  5
818
100
AcDbEntity
  8
0
100
AcDbEllipse
 62
7
  6
CONTINUOUS
 10
118.5570320028
 20
111.8488955631
 30
0.0
 11
0.3
 21
0.0
 31
0.0
 40
0.0174550649
 41
-1.5707963268
 42
-0.0523598776
  0
ELLIPSE
  5
819
100
AcDbEntity
  8
0
100
AcDbEllipse
 62
7
  6
CONTINUOUS
 10
128.341995842
 20
111.2240042387
 30
0.0
 11
40.2
 21
0.0
 31
0.0
 40
0.0174550649
 41
1.6991141192
 42
1.7989212973
  0
ELLIPSE
  5
81A
100
AcDbEntity
  8
0
100
AcDbEllipse
 62
7
  6
CONTINUOUS
 10
153.5220820425
 20
101.1237757098
 30
0.0
 11
0.2
 21
0.0
 31
0.0
 40
0.0174550649
 41
-1.5707963268
 42
-0.0174532925
  0
ELLIPSE
  5
81B
100
AcDbEntity
  8
0
100
AcDbEllipse
 62
7
  6
CONTINUOUS
 10
153.1269596812
 20
101.2384225242
 30
0.0
 11
0.3
 21
-0.0
 31
0.0
 40
0.0174550649
 41
1.5707963268
 42
3.089232776
  0
ELLIPSE
  5
81C
100
AcDbEntity
  8
0
100
AcDbEllipse
 62
7
  6
CONTINUOUS
 10
143.341995842
 20
101.8633138486
 30
0.0
 11
40.2
 21
-0.0
 31
0.0
 40
0.0174550649
 41
-1.4424785344
 42
-1.3426713563
  0
ELLIPSE
  5
81D
100
AcDbEntity
  8
0
100
AcDbEllipse
 62
7
  6
CONTINUOUS
 10
153.1269596812
 20
111.8488955631
 30
0.0
 11
0.3
 21
-0.0
 31
0.0
 40
0.0174550649
 41
-3.089232776
 42
-1.5707963268
  0
ELLIPSE
  5
81E
100
AcDbEntity
  8
0
100
AcDbEllipse
 62
7
  6
CONTINUOUS
 10
153.5220820425
 20
111.9635423775
 30
0.0
 11
0.2
 21
0.0
 31
0.0
 40
0.0174550649
 41
0.0174532925
 42
1.5707963268
  0
ELLIPSE
  5
81F
100
AcDbEntity
  8
0
100
AcDbEllipse
 62
7
  6
CONTINUOUS
 10
143.341995842
 20
111.2240042387
 30
0.0
 11
40.2
 21
-0.0
 31
0.0
 40
0.0174550649
 41
1.3426713563
 42
1.4424785344
  0
ELLIPSE
  5
820
100
AcDbEntity
  8
0
100
AcDbEllipse
 62
7
  6
CONTINUOUS
 10
143.341995842
 20
158.3240042387
 30
0.0
 11
40.2
 21
0.0
 31
0.0
 40
0.0174550649
 41
1.3482536284
 42
1.5707963268
  0
ELLIPSE
  5
821
100
AcDbEntity
  8
0
100
AcDbEllipse
 62
7
  6
CONTINUOUS
 10
128.341995842
 20
158.3240042387
 30
0.0
 11
40.2
 21
0.0
 31
0.0
 40
0.0174550649
 41
1.5707963268
 42
1.7933390252
  0
ELLIPSE
  5
822
100
AcDbEntity
  8
0
100
AcDbEllipse
 62
7
  6
CONTINUOUS
 10
128.341995842
 20
111.7633138486
 30
0.0
 11
40.2
 21
-0.0
 31
0.0
 40
0.0174550649
 41
-1.7989212973
 42
-1.5707963268
  0
ELLIPSE
  5
823
100
AcDbEntity
  8
0
100
AcDbEllipse
 62
7
  6
CONTINUOUS
 10
133.7054653137
 20
111.0255212163
 30
0.0
 11
0.3
 21
-0.0
 31
0.0
 40
0.0174550649
 41
-1.5707963268
 42
-0.034906585
  0
ELLIPSE
  5
824
100
AcDbEntity
  8
0
100
AcDbEllipse
 62
7
  6
CONTINUOUS
 10
118.1619096415
 20
111.0237757098
 30
0.0
 11
0.2
 21
0.0
 31
0.0
 40
0.0174550649
 41
-3.1241393611
 42
-1.5707963268
  0
ELLIPSE
  5
825
100
AcDbEntity
  8
0
100
AcDbEllipse
 62
7
  6
CONTINUOUS
 10
118.5570320028
 20
111.1384225242
 30
0.0
 11
0.3
 21
-0.0
 31
0.0
 40
0.0174550649
 41
0.0523598776
 42
1.5707963268
  0
ELLIPSE
  5
826
100
AcDbEntity
  8
0
100
AcDbEllipse
 62
7
  6
CONTINUOUS
 10
143.341995842
 20
111.7633138486
 30
0.0
 11
40.2
 21
-0.0
 31
0.0
 40
0.0174550649
 41
-1.5707963268
 42
-1.3426713563
  0
ELLIPSE
  5
827
100
AcDbEntity
  8
0
100
AcDbEllipse
 62
7
  6
CONTINUOUS
 10
153.1269596812
 20
111.1384225242
 30
0.0
 11
0.3
 21
-0.0
 31
0.0
 40
0.0174550649
 41
1.5707963268
 42
3.089232776
  0
ELLIPSE
  5
828
100
AcDbEntity
  8
0
100
AcDbEllipse
 62
7
  6
CONTINUOUS
 10
153.5220820425
 20
111.0237757098
 30
0.0
 11
0.2
 21
-0.0
 31
0.0
 40
0.0174550649
 41
-1.5707963268
 42
-0.0174532925
  0
ELLIPSE
  5
829
100
AcDbEntity
  8
0
100
AcDbEllipse
 62
7
  6
CONTINUOUS
 10
137.9785263703
 20
111.0255212163
 30
0.0
 11
0.3
 21
-0.0
 31
0.0
 40
0.0174550649
 41
-3.1066860685
 42
-1.5707963268
  0
ELLIPSE
  5
82A
100
AcDbEntity
  8
0
100
AcDbEllipse
 62
7
  6
CONTINUOUS
 10
130.217279738
 20
165.0436590437
 30
0.0
 11
-0.0
 21
26.2
 31
0.0
 40
0.0174550649
 41
1.277938421
 42
1.3784509016
  0
ELLIPSE
  5
82B
100
AcDbEntity
  8
0
100
AcDbEllipse
 62
7
  6
CONTINUOUS
 10
129.8367593225
 20
173.2786228829
 30
0.0
 11
0.0
 21
0.3
 31
0.0
 40
0.0174550649
 41
-3.089232776
 42
-1.5707963268
  0
ELLIPSE
  5
82C
100
AcDbEntity
  8
0
100
AcDbEllipse
 62
7
  6
CONTINUOUS
 10
130.166711946
 20
165.0436590437
 30
0.0
 11
-0.0
 21
26.2
 31
0.0
 40
0.0174550649
 41
-1.3784509016
 42
-1.277938421
  0
ELLIPSE
  5
82D
100
AcDbEntity
  8
0
100
AcDbEllipse
 62
7
  6
CONTINUOUS
 10
130.5472323615
 20
173.2786228829
 30
0.0
 11
0.0
 21
0.3
 31
0.0
 40
0.0174550649
 41
1.5707963268
 42
3.089232776
  0
ELLIPSE
  5
82E
100
AcDbEntity
  8
0
100
AcDbEllipse
 62
7
  6
CONTINUOUS
 10
130.6138524782
 20
173.7717719418
 30
0.0
 11
0.0
 21
0.2
 31
0.0
 40
0.0174550649
 41
-1.3529990921
 42
-0.0174532925
  0
ELLIPSE
  5
82F
100
AcDbEntity
  8
0
100
AcDbEllipse
 62
7
  6
CONTINUOUS
 10
141.517279738
 20
165.0436590437
 30
0.0
 11
0.0
 21
26.2
 31
0.0
 40
0.0174550649
 41
1.277938421
 42
1.3784509016
  0
ELLIPSE
  5
830
100
AcDbEntity
  8
0
100
AcDbEllipse
 62
7
  6
CONTINUOUS
 10
141.0701392058
 20
173.7717719418
 30
0.0
 11
-0.0
 21
0.2
 31
0.0
 40
0.0174550649
 41
0.0174532925
 42
1.3529990921
  0
ELLIPSE
  5
831
100
AcDbEntity
  8
0
100
AcDbEllipse
 62
7
  6
CONTINUOUS
 10
141.1367593225
 20
173.2786228829
 30
0.0
 11
0.0
 21
0.3
 31
0.0
 40
0.0174550649
 41
-3.089232776
 42
-1.5707963268
  0
ELLIPSE
  5
832
100
AcDbEntity
  8
0
100
AcDbEllipse
 62
7
  6
CONTINUOUS
 10
141.466711946
 20
165.0436590437
 30
0.0
 11
-0.0
 21
26.2
 31
0.0
 40
0.0174550649
 41
-1.3784509016
 42
-1.277938421
  0
ELLIPSE
  5
833
100
AcDbEntity
  8
0
100
AcDbEllipse
 62
7
  6
CONTINUOUS
 10
141.8472323615
 20
173.2786228829
 30
0.0
 11
0.0
 21
0.3
 31
0.0
 40
0.0174550649
 41
1.5707963268
 42
3.089232776
  0
ELLIPSE
  5
834
100
AcDbEntity
  8
0
100
AcDbEllipse
 62
7
  6
CONTINUOUS
 10
141.9138524782
 20
173.7717719418
 30
0.0
 11
0.0
 21
0.2
 31
0.0
 40
0.0174550649
 41
-1.3529990921
 42
-0.0174532925
  0
ELLIPSE
  5
835
100
AcDbEntity
  8
0
100
AcDbEllipse
 62
7
  6
CONTINUOUS
 10
130.166711946
 20
48.0436590437
 30
0.0
 11
-0.0
 21
26.2
 31
0.0
 40
0.0174550649
 41
-1.8636542326
 42
-1.7631417519
  0
ELLIPSE
  5
836
100
AcDbEntity
  8
0
100
AcDbEllipse
 62
7
  6
CONTINUOUS
 10
130.6138524782
 20
39.3155461455
 30
0.0
 11
0.0
 21
0.2
 31
0.0
 40
0.0174550649
 41
-3.1241393611
 42
-1.7885935615
  0
ELLIPSE
  5
837
100
AcDbEntity
  8
0
100
AcDbEllipse
 62
7
  6
CONTINUOUS
 10
130.5472323615
 20
39.8086952044
 30
0.0
 11
-0.0
 21
0.3
 31
0.0
 40
0.0174550649
 41
0.0523598776
 42
1.5707963268
  0
ELLIPSE
  5
838
100
AcDbEntity
  8
0
100
AcDbEllipse
 62
7
  6
CONTINUOUS
 10
130.217279738
 20
48.0436590437
 30
0.0
 11
-0.0
 21
26.2
 31
0.0
 40
0.0174550649
 41
-4.5200435552
 42
-4.4195310746
  0
ELLIPSE
  5
839
100
AcDbEntity
  8
0
100
AcDbEllipse
 62
7
  6
CONTINUOUS
 10
129.8367593225
 20
39.8086952044
 30
0.0
 11
0.0
 21
0.3
 31
0.0
 40
0.0174550649
 41
-1.5707963268
 42
-0.0523598776
  0
ELLIPSE
  5
83A
100
AcDbEntity
  8
0
100
AcDbEllipse
 62
7
  6
CONTINUOUS
 10
129.7701392058
 20
39.3155461455
 30
0.0
 11
0.0
 21
0.2
 31
0.0
 40
0.0174550649
 41
-4.4945917456
 42
-3.1590459461
  0
ELLIPSE
  5
83B
100
AcDbEntity
  8
0
100
AcDbEllipse
 62
7
  6
CONTINUOUS
 10
141.466711946
 20
48.0436590437
 30
0.0
 11
0.0
 21
26.2
 31
0.0
 40
0.0174550649
 41
-1.8636542326
 42
-1.7631417519
  0
ELLIPSE
  5
83C
100
AcDbEntity
  8
0
100
AcDbEllipse
 62
7
  6
CONTINUOUS
 10
141.9138524782
 20
39.3155461455
 30
0.0
 11
0.0
 21
0.2
 31
0.0
 40
0.0174550649
 41
-3.1241393611
 42
-1.7885935615
  0
ELLIPSE
  5
83D
100
AcDbEntity
  8
0
100
AcDbEllipse
 62
7
  6
CONTINUOUS
 10
141.8472323615
 20
39.8086952044
 30
0.0
 11
-0.0
 21
0.3
 31
0.0
 40
0.0174550649
 41
0.0523598776
 42
1.5707963268
  0
ELLIPSE
  5
83E
100
AcDbEntity
  8
0
100
AcDbEllipse
 62
7
  6
CONTINUOUS
 10
141.517279738
 20
48.0436590437
 30
0.0
 11
-0.0
 21
26.2
 31
0.0
 40
0.0174550649
 41
-4.5200435552
 42
-4.4195310746
  0
ELLIPSE
  5
83F
100
AcDbEntity
  8
0
100
AcDbEllipse
 62
7
  6
CONTINUOUS
 10
141.1367593225
 20
39.8086952044
 30
0.0
 11
-0.0
 21
0.3
 31
0.0
 40
0.0174550649
 41
-1.5707963268
 42
-0.0523598776
  0
ELLIPSE
  5
840
100
AcDbEntity
  8
0
100
AcDbEllipse
 62
7
  6
CONTINUOUS
 10
141.0701392058
 20
39.3155461455
 30
0.0
 11
-0.0
 21
0.2
 31
0.0
 40
0.0174550649
 41
-4.4945917456
 42
-3.1590459461
  0
ELLIPSE
  5
841
100
AcDbEntity
  8
0
100
AcDbEllipse
 62
7
  6
CONTINUOUS
 10
128.341995842
 20
158.8633138486
 30
0.0
 11
40.2
 21
-0.0
 31
0.0
 40
0.0174550649
 41
-1.7949054965
 42
-1.6991141192
  0
ELLIPSE
  5
842
100
AcDbEntity
  8
0
100
AcDbEllipse
 62
7
  6
CONTINUOUS
 10
143.341995842
 20
158.8633138486
 30
0.0
 11
40.2
 21
0.0
 31
0.0
 40
0.0174550649
 41
-1.4424785344
 42
-1.3466871571
  0
ELLIPSE
  5
843
100
AcDbEntity
  8
0
100
AcDbEllipse
 62
7
  6
CONTINUOUS
 10
128.341995842
 20
54.2240042387
 30
0.0
 11
40.2
 21
0.0
 31
0.0
 40
0.0174550649
 41
1.6991141192
 42
1.7949054965
  0
ELLIPSE
  5
844
100
AcDbEntity
  8
0
100
AcDbEllipse
 62
7
  6
CONTINUOUS
 10
143.341995842
 20
54.2240042387
 30
0.0
 11
40.2
 21
0.0
 31
0.0
 40
0.0174550649
 41
1.3466871571
 42
1.4424785344
  0
ELLIPSE
  5
845
100
AcDbEntity
  8
0
100
AcDbEllipse
 62
7
  6
CONTINUOUS
 10
128.341995842
 20
101.3240042387
 30
0.0
 11
40.2
 21
0.0
 31
0.0
 40
0.0174550649
 41
1.5707963268
 42
1.7989212973
  0
ELLIPSE
  5
846
100
AcDbEntity
  8
0
100
AcDbEllipse
 62
7
  6
CONTINUOUS
 10
118.5570320028
 20
101.9488955631
 30
0.0
 11
0.3
 21
0.0
 31
0.0
 40
0.0174550649
 41
-1.5707963268
 42
-0.0523598776
  0
ELLIPSE
  5
847
100
AcDbEntity
  8
0
100
AcDbEllipse
 62
7
  6
CONTINUOUS
 10
118.1619096415
 20
102.0635423775
 30
0.0
 11
0.2
 21
0.0
 31
0.0
 40
0.0174550649
 41
1.5707963268
 42
3.1241393611
  0
ELLIPSE
  5
848
100
AcDbEntity
  8
0
100
AcDbEllipse
 62
7
  6
CONTINUOUS
 10
133.7054653137
 20
102.061796871
 30
0.0
 11
0.3
 21
0.0
 31
0.0
 40
0.0174550649
 41
0.034906585
 42
1.5707963268
  0
ELLIPSE
  5
849
100
AcDbEntity
  8
0
100
AcDbEllipse
 62
7
  6
CONTINUOUS
 10
143.341995842
 20
101.3240042387
 30
0.0
 11
40.2
 21
0.0
 31
0.0
 40
0.0174550649
 41
1.3426713563
 42
1.5707963268
  0
ELLIPSE
  5
84A
100
AcDbEntity
  8
0
100
AcDbEllipse
 62
7
  6
CONTINUOUS
 10
137.9785263703
 20
102.061796871
 30
0.0
 11
0.3
 21
-0.0
 31
0.0
 40
0.0174550649
 41
1.5707963268
 42
3.1066860686
  0
ELLIPSE
  5
84B
100
AcDbEntity
  8
0
100
AcDbEllipse
 62
7
  6
CONTINUOUS
 10
153.5220820425
 20
102.0635423775
 30
0.0
 11
0.2
 21
-0.0
 31
0.0
 40
0.0174550649
 41
0.0174532925
 42
1.5707963268
  0
ELLIPSE
  5
84C
100
AcDbEntity
  8
0
100
AcDbEllipse
 62
7
  6
CONTINUOUS
 10
153.1269596812
 20
101.9488955631
 30
0.0
 11
0.3
 21
0.0
 31
0.0
 40
0.0174550649
 41
-3.089232776
 42
-1.5707963268
  0
ELLIPSE
  5
84D
100
AcDbEntity
  8
0
100
AcDbEllipse
 62
7
  6
CONTINUOUS
 10
128.341995842
 20
54.7633138486
 30
0.0
 11
40.2
 21
0.0
 31
0.0
 40
0.0174550649
 41
-1.7933390252
 42
-1.5707963268
  0
ELLIPSE
  5
84E
100
AcDbEntity
  8
0
100
AcDbEllipse
 62
7
  6
CONTINUOUS
 10
143.341995842
 20
54.7633138486
 30
0.0
 11
40.2
 21
0.0
 31
0.0
 40
0.0174550649
 41
-1.5707963268
 42
-1.3482536284
  0
ENDSEC
  0
SECTION
  2
OBJECTS
  0
DICTIONARY
  5
C
100
AcDbDictionary
280
0
281
1
  3
ACAD_GROUP
350
D
  3
ACAD_MLINESTYLE
350
17
  3
ACAD_LAYOUT
350
1A
  3
ACAD_PLOTSETTINGS
350
19
  3
ACAD_PLOTSTYLENAME
350
E
  0
DICTIONARY
  5
D
102
{ACAD_REACTORS
330
C
102
}
100
AcDbDictionary
280
0
281
1
  0
ACDBDICTIONARYWDFLT
  5
E
102
{ACAD_REACTORS
330
C
102
}
100
AcDbDictionary
281
1
  3
Normal
350
F
100
AcDbDictionaryWithDefault
340
F
  0
DICTIONARY
  5
17
102
{ACAD_REACTORS
330
C
102
}
100
AcDbDictionary
280
0
281
1
  3
Standard
350
18
  0
DICTIONARY
  5
19
102
{ACAD_REACTORS
330
C
102
}
100
AcDbDictionary
281
1
  0
DICTIONARY
  5
1A
102
{ACAD_REACTORS
330
C
102
}
100
AcDbDictionary
281
1
  3
Model
350
84F
  3
Layout1
350
850
  0
ACDBPLACEHOLDER
  5
F
102
{ACAD_REACTORS
330
E
102
}
  0
MLINESTYLE
  5
18
102
{ACAD_REACTORS
330
17
102
}
100
AcDbMlineStyle
  2
STANDARD
 70
0
  3

 62
256
 51
90.0
 52
90.0
 71
2
 49
0.5
 62
256
  6
BYLAYER
 49
-0.5
 62
256
  6
BYLAYER
  0
LAYOUT
  5
84F
102
{ACAD_REACTORS
330
1A
102
}
100
AcDbPlotSettings
  1

  2
none_device
  4
ISO_A4_(297.00_x_210.00_MM)
  6

 40
0.0
 41
0.0
 42
0.0
 43
0.0
 44
297.0
 45
210.0
 46
0.0
 47
0.0
 48
0.0
 49
0.0
140
0.0
141
0.0
142
1.0
143
1.0
 70
1024
 72
1
 73
0
 74
0
  7

 75
0
147
1.0
148
0.0
149
0.0
100
AcDbLayout
  1
Model
 70
0
 71
0
 10
0.0
 20
0.0
 11
297.0
 21
210.0
 12
0.0
 22
0.0
 32
0.0
 14
0.0
 24
0.0
 34
0.0
 15
0.0
 25
0.0
 35
0.0
146
0.0
 13
0.0
 23
0.0
 33
0.0
 16
1.0
 26
0.0
 36
0.0
 17
0.0
 27
1.0
 37
0.0
 76
0
330
213
345
0
346
0
  0
LAYOUT
  5
850
102
{ACAD_REACTORS
330
1A
102
}
100
AcDbPlotSettings
  1

  2
none_device
  4
ISO_A4_(297.00_x_210.00_MM)
  6

 40
0.0
 41
0.0
 42
0.0
 43
0.0
 44
297.0
 45
210.0
 46
0.0
 47
0.0
 48
0.0
 49
0.0
140
0.0
141
0.0
142
1.0
143
1.0
 70
0
 72
1
 73
0
 74
0
  7

 75
0
147
1.0
148
0.0
149
0.0
100
AcDbLayout
  1
Layout1
 70
0
 71
1
 10
0.0
 20
0.0
 11
297.0
 21
210.0
 12
0.0
 22
0.0
 32
0.0
 14
0.0
 24
0.0
 34
0.0
 15
0.0
 25
0.0
 35
0.0
146
0.0
 13
0.0
 23
0.0
 33
0.0
 16
1.0
 26
0.0
 36
0.0
 17
0.0
 27
1.0
 37
0.0
 76
0
330
214
345
0
346
0
  0
ENDSEC
  0
EOF
