  0
SECTION
  2
HEADER
  9
$ACADVER
  1
AC1021
  9
$DWGCODEPAGE
  3
ANSI_1252
  9
$EXTMAX
 10
297.0
 20
210.0
 30
0.0
  9
$EXTMIN
 10
0.0
 20
0.0
 30
0.0
  9
$LIMMIN
 10
0.0
 20
0.0
  9
$LIMMAX
 10
297.0
 20
210.0
  9
$VIEWCTR
 10
148.5
 20
105.0
  9
$VIEWSIZE
 40
210.0
  9
$CLAYER
  8
0
  9
$LTSCALE
 40
16.335
  9
$CELTYPE
  6
BYLAYER
  9
$DIMSCALE
 40
1.0
  9
$DIMASZ
 40
3.0
  9
$DIMEXO
 40
1.85625
  9
$DIMDLI
 40
11.286
  9
$DIMEXE
 40
5.346
  9
$DIMCEN
 40
2.673
  9
$DIMLFAC
 40
1.0
  9
$DIMBLK
  1
_FILLED
  9
$DIMTXT
 40
3.0
  9
$DIMTOL
 70
1
  9
$DIMLIM
 70
0
  9
$DIMTFAC
 40
1.0
  9
$DIMTP
 40
0.01
  9
$DIMTM
 40
0.01
  9
$PDMODE
 70
3
  9
$PDSIZE
 40
3.0
  9
$HANDSEED
  5
746
  9
$TILEMODE
 70
1
  9
$MEASUREMENT
 70
1
  9
$INSUNITS
 70
4
  0
ENDSEC
  0
SECTION
  2
CLASSES
  0
CLASS
  1
ACDBDICTIONARYWDFLT
  2
AcDbDictionaryWithDefault
  3
AutoCAD 2000
 90
0
 91
1
280
0
281
0
  0
CLASS
  1
ACDBPLACEHOLDER
  2
AcDbPlaceHolder
  3
AutoCAD 2000
 90
0
 91
1
280
0
281
0
  0
CLASS
  1
LAYOUT
  2
AcDbLayout
  3
AutoCAD 2000
 90
0
 91
0
280
0
281
0
  0
ENDSEC
  0
SECTION
  2
TABLES
  0
TABLE
  2
VPORT
  5
8
100
AcDbSymbolTable
 70
2
  0
VPORT
  5
1F4
100
AcDbSymbolTableRecord
100
AcDbViewportTableRecord
  2
*ACTIVE
 70
0
 10
0.0
 20
0.0
 11
1.0
 21
1.0
 12
148.5
 22
105.0
 13
0.0
 23
0.0
 14
1.0
 24
1.0
 15
0.0
 25
0.0
 16
0.0
 26
0.0
 36
1.0
 17
0.0
 27
0.0
 37
0.0
 40
210.0
 41
1.4142857143
 42
50.0
 43
0.0
 44
0.0
 50
0.0
 51
0.0
 71
0
 72
100
 73
1
 74
1
 75
0
 76
0
 77
0
 78
0
  0
ENDTAB
  0
TABLE
  2
LTYPE
  5
5
100
AcDbSymbolTable
 70
6
  0
LTYPE
  5
14
100
AcDbSymbolTableRecord
100
AcDbLinetypeTableRecord
  2
BYBLOCK
 70
0
  3

 72
65
 73
0
 40
0.0
  0
LTYPE
  5
15
100
AcDbSymbolTableRecord
100
AcDbLinetypeTableRecord
  2
BYLAYER
 70
0
  3

 72
65
 73
0
 40
0.0
  0
LTYPE
  5
16
100
AcDbSymbolTableRecord
100
AcDbLinetypeTableRecord
  2
CONTINUOUS
 70
64
  3
Solid line
 72
65
 73
0
 40
0.0
  0
LTYPE
  5
1F5
100
AcDbSymbolTableRecord
100
AcDbLinetypeTableRecord
  2
CENTER
 70
64
  3
____ _ ____ _ ____ _ ____ _ ____ _ ____ _ ____
 72
65
 73
4
 40
0.6
 49
0.375
 74
0
 49
-0.075
 74
0
 49
0.075
 74
0
 49
-0.075
 74
0
  0
LTYPE
  5
1F6
100
AcDbSymbolTableRecord
100
AcDbLinetypeTableRecord
  2
HIDDEN
 70
64
  3
- - - - - - - - - - - - - - - - - - - -
 72
65
 73
2
 40
0.2
 49
0.1
 74
0
 49
-0.1
 74
0
  0
LTYPE
  5
1F7
100
AcDbSymbolTableRecord
100
AcDbLinetypeTableRecord
  2
PHANTOM
 70
64
  3
_____ _ _ _____ _ _ _____ _ _ _____
 72
65
 73
6
 40
0.8
 49
0.45
 74
0
 49
-0.05
 74
0
 49
0.1
 74
0
 49
-0.05
 74
0
 49
0.1
 74
0
 49
-0.05
 74
0
  0
LTYPE
  5
1F8
100
AcDbSymbolTableRecord
100
AcDbLinetypeTableRecord
  2
DOT
 70
64
  3
. . . . . . . . . . . . . . . . . . . .
 72
65
 73
2
 40
0.2
 49
0.1
 74
0
 49
-0.1
 74
0
  0
LTYPE
  5
1F9
100
AcDbSymbolTableRecord
100
AcDbLinetypeTableRecord
  2
DASHED
 70
64
  3
- - - - - - - - - - - - - - - - - - - -
 72
65
 73
2
 40
0.2
 49
0.1
 74
0
 49
-0.1
 74
0
  0
ENDTAB
  0
TABLE
  2
LAYER
  5
2
100
AcDbSymbolTable
 70
36
  0
LAYER
  5
10
100
AcDbSymbolTableRecord
100
AcDbLayerTableRecord
  2
0
 70
0
 62
7
  6
CONTINUOUS
370
-3
390
F
  0
LAYER
  5
1FA
100
AcDbSymbolTableRecord
100
AcDbLayerTableRecord
  2
DEFAULT_1
 70
0
 62
7
  6
CENTER
370
-3
390
F
  0
LAYER
  5
1FB
100
AcDbSymbolTableRecord
100
AcDbLayerTableRecord
  2
DEFAULT_2
 70
0
 62
7
  6
HIDDEN
370
-3
390
F
  0
LAYER
  5
1FC
100
AcDbSymbolTableRecord
100
AcDbLayerTableRecord
  2
DEFAULT_3
 70
0
 62
7
  6
PHANTOM
370
-3
390
F
  0
LAYER
  5
1FD
100
AcDbSymbolTableRecord
100
AcDbLayerTableRecord
  2
ASSI
 70
0
 62
7
  6
CONTINUOUS
370
-3
390
F
  0
LAYER
  5
1FE
100
AcDbSymbolTableRecord
100
AcDbLayerTableRecord
  2
COORDINATE
 70
0
 62
7
  6
CONTINUOUS
370
-3
390
F
  0
LAYER
  5
1FF
100
AcDbSymbolTableRecord
100
AcDbLayerTableRecord
  2
COPY_PUBLISH
 70
0
 62
7
  6
CONTINUOUS
370
-3
390
F
  0
LAYER
  5
200
100
AcDbSymbolTableRecord
100
AcDbLayerTableRecord
  2
COSMETIC
 70
0
 62
7
  6
CONTINUOUS
370
-3
390
F
  0
LAYER
  5
201
100
AcDbSymbolTableRecord
100
AcDbLayerTableRecord
  2
COSMETICI
 70
0
 62
7
  6
CONTINUOUS
370
-3
390
F
  0
LAYER
  5
202
100
AcDbSymbolTableRecord
100
AcDbLayerTableRecord
  2
CURVE
 70
0
 62
7
  6
CONTINUOUS
370
-3
390
F
  0
LAYER
  5
203
100
AcDbSymbolTableRecord
100
AcDbLayerTableRecord
  2
DRAFT
 70
0
 62
7
  6
CONTINUOUS
370
-3
390
F
  0
LAYER
  5
204
100
AcDbSymbolTableRecord
100
AcDbLayerTableRecord
  2
IMPORT_IGES
 70
0
 62
7
  6
CONTINUOUS
370
-3
390
F
  0
LAYER
  5
205
100
AcDbSymbolTableRecord
100
AcDbLayerTableRecord
  2
INTFCLR_377
 70
0
 62
7
  6
CONTINUOUS
370
-3
390
F
  0
LAYER
  5
206
100
AcDbSymbolTableRecord
100
AcDbLayerTableRecord
  2
INTFCLR_4497
 70
0
 62
7
  6
CONTINUOUS
370
-3
390
F
  0
LAYER
  5
207
100
AcDbSymbolTableRecord
100
AcDbLayerTableRecord
  2
INTFCLR_9765
 70
0
 62
7
  6
CONTINUOUS
370
-3
390
F
  0
LAYER
  5
208
100
AcDbSymbolTableRecord
100
AcDbLayerTableRecord
  2
INTF_1
 70
0
 62
7
  6
CONTINUOUS
370
-3
390
F
  0
LAYER
  5
209
100
AcDbSymbolTableRecord
100
AcDbLayerTableRecord
  2
INTF_2
 70
0
 62
7
  6
CONTINUOUS
370
-3
390
F
  0
LAYER
  5
20A
100
AcDbSymbolTableRecord
100
AcDbLayerTableRecord
  2
INTF_3
 70
0
 62
7
  6
CONTINUOUS
370
-3
390
F
  0
LAYER
  5
20B
100
AcDbSymbolTableRecord
100
AcDbLayerTableRecord
  2
INTF_7
 70
0
 62
7
  6
CONTINUOUS
370
-3
390
F
  0
LAYER
  5
20C
100
AcDbSymbolTableRecord
100
AcDbLayerTableRecord
  2
INTF_9
 70
0
 62
7
  6
CONTINUOUS
370
-3
390
F
  0
LAYER
  5
20D
100
AcDbSymbolTableRecord
100
AcDbLayerTableRecord
  2
NOTE
 70
0
 62
7
  6
CONTINUOUS
370
-3
390
F
  0
LAYER
  5
20E
100
AcDbSymbolTableRecord
100
AcDbLayerTableRecord
  2
PIANI
 70
0
 62
7
  6
CONTINUOUS
370
-3
390
F
  0
LAYER
  5
20F
100
AcDbSymbolTableRecord
100
AcDbLayerTableRecord
  2
PUNTI
 70
0
 62
7
  6
CONTINUOUS
370
-3
390
F
  0
LAYER
  5
210
100
AcDbSymbolTableRecord
100
AcDbLayerTableRecord
  2
RACCORDO
 70
0
 62
7
  6
CONTINUOUS
370
-3
390
F
  0
LAYER
  5
211
100
AcDbSymbolTableRecord
100
AcDbLayerTableRecord
  2
SIMBOLI
 70
0
 62
7
  6
CONTINUOUS
370
-3
390
F
  0
LAYER
  5
212
100
AcDbSymbolTableRecord
100
AcDbLayerTableRecord
  2
SMUSSO
 70
0
 62
7
  6
CONTINUOUS
370
-3
390
F
  0
LAYER
  5
213
100
AcDbSymbolTableRecord
100
AcDbLayerTableRecord
  2
SNAPLINE
 70
0
 62
7
  6
CONTINUOUS
370
-3
390
F
  0
LAYER
  5
214
100
AcDbSymbolTableRecord
100
AcDbLayerTableRecord
  2
SUPERFICI
 70
0
 62
7
  6
CONTINUOUS
370
-3
390
F
  0
LAYER
  5
215
100
AcDbSymbolTableRecord
100
AcDbLayerTableRecord
  2
TRASH
 70
0
 62
7
  6
CONTINUOUS
370
-3
390
F
  0
LAYER
  5
216
100
AcDbSymbolTableRecord
100
AcDbLayerTableRecord
  2
XSEC_DATUMS
 70
0
 62
7
  6
CONTINUOUS
370
-3
390
F
  0
ENDTAB
  0
TABLE
  2
STYLE
  5
3
100
AcDbSymbolTable
 70
1
  0
STYLE
  5
11
100
AcDbSymbolTableRecord
100
AcDbTextStyleTableRecord
  2
STANDARD
 70
0
 40
0.0
 41
0.8
 50
0.0
 71
0
 42
0.2
  3
txt
  4

  0
STYLE
  5
217
100
AcDbSymbolTableRecord
100
AcDbTextStyleTableRecord
  2
TEXTSTYLE_1
 70
0
 40
0.0
 41
0.8
 50
0.0
 71
0
 42
0.2
  3
gdt
  4

  0
ENDTAB
  0
TABLE
  2
VIEW
  5
6
100
AcDbSymbolTable
 70
0
  0
ENDTAB
  0
TABLE
  2
UCS
  5
7
100
AcDbSymbolTable
 70
0
  0
ENDTAB
  0
TABLE
  2
APPID
  5
9
100
AcDbSymbolTable
 70
1
  0
APPID
  5
218
100
AcDbSymbolTableRecord
100
AcDbRegAppTableRecord
  2
ACAD
 70
0
  0
ENDTAB
  0
TABLE
  2
BLOCK_RECORD
  5
1
100
AcDbSymbolTable
 70
0
  0
BLOCK_RECORD
  5
219
100
AcDbSymbolTableRecord
100
AcDbBlockTableRecord
  2
*Model_Space
  0
BLOCK_RECORD
  5
21A
100
AcDbSymbolTableRecord
100
AcDbBlockTableRecord
  2
*Paper_Space
  0
ENDTAB
  0
TABLE
  2
DIMSTYLE
  5
A
100
AcDbSymbolTable
 70
1
100
AcDbDimStyleTable
 71
0
  0
DIMSTYLE
105
21B
100
AcDbSymbolTableRecord
100
AcDbDimStyleTableRecord
  2
STANDARD
 70
0
  3

  4

 40
1.0
 41
3.0
 42
0.0625
 43
0.38
 44
0.18
 45
0.0
 46
0.0
 47
0.01
 48
0.01
140
3.0
141
0.09
142
0.0
143
25.4
144
1.0
145
0.0
146
1.0
147
0.09
 71
1.0
 72
0.0
 73
0
 74
0
 75
0
 76
0
 77
1
 78
8
170
0
171
2
172
0
173
0
174
0
175
0
176
0
177
0
178
0
270
2
271
2
272
2
273
2
274
2
275
0
280
0
281
0
282
0
283
1
284
8
285
0
286
0
287
3
288
0
340
11
  0
ENDTAB
  0
ENDSEC
  0
SECTION
  2
BLOCKS
  0
BLOCK
  5
20
100
AcDbEntity
  8
0
100
AcDbBlockBegin
  2
*Model_Space
 70
0
 10
0.0
 20
0.0
 30
0.0
  3
*Model_Space
  1

  0
ENDBLK
  5
21
100
AcDbEntity
  8
0
100
AcDbBlockEnd
  0
BLOCK
  5
1C
100
AcDbEntity
  8
0
100
AcDbBlockBegin
  2
*Paper_Space
 70
0
 10
0.0
 20
0.0
 30
0.0
  3
*Paper_Space
  1

  0
ENDBLK
  5
1D
100
AcDbEntity
  8
0
100
AcDbBlockEnd
  0
ENDSEC
  0
SECTION
  2
ENTITIES
  0
LINE
  5
21C
100
AcDbEntity
  8
0
100
AcDbLine
 62
253
  6
CONTINUOUS
 10
126.6638981366
 20
145.1081291407
 11
125.8191823601
 21
144.6204322598
  0
LINE
  5
21D
100
AcDbEntity
  8
0
100
AcDbLine
 62
253
  6
CONTINUOUS
 10
124.8452447886
 20
144.0581291407
 11
124.0005290121
 21
143.5704322598
  0
LINE
  5
21E
100
AcDbEntity
  8
0
100
AcDbLine
 62
253
  6
CONTINUOUS
 10
126.8624263304
 20
144.7347519125
 11
126.043272428
 21
144.2618131865
  0
LINE
  5
21F
100
AcDbEntity
  8
0
100
AcDbLine
 62
253
  6
CONTINUOUS
 10
125.0437729824
 20
143.6847519125
 11
124.2246190801
 21
143.2118131865
  0
LINE
  5
220
100
AcDbEntity
  8
0
100
AcDbLine
 62
7
  6
CONTINUOUS
 10
124.5729241841
 20
142.6544085018
 11
125.3523470475
 21
143.1044085018
  0
LINE
  5
221
100
AcDbEntity
  8
0
100
AcDbLine
 62
7
  6
CONTINUOUS
 10
126.391577532
 20
143.7044085018
 11
127.1710003954
 21
144.1544085018
  0
LWPOLYLINE
  5
222
100
AcDbEntity
  8
0
100
AcDbPolyline
 62
253
  6
CONTINUOUS
 90
7
 70
0
 10
124.5861724415
 20
144.5453733485
 10
124.744597187
 20
144.6366119403
 10
124.9045541292
 20
144.7242441944
 10
125.0659574213
 20
144.808254411
 10
125.2287214482
 20
144.8886289344
 10
125.3927608731
 20
144.9653561306
 10
125.5579906818
 20
145.0384263642
  0
LWPOLYLINE
  5
223
100
AcDbEntity
  8
0
100
AcDbPolyline
 62
253
  6
CONTINUOUS
 90
7
 70
0
 10
124.6643687683
 20
144.3983074588
 10
124.8252590257
 20
144.4907505403
 10
124.9873560925
 20
144.5793017061
 10
125.1506622414
 20
144.6639619173
 10
125.3151798632
 20
144.7447320997
 10
125.4809114631
 20
144.8216131426
 10
125.6478596568
 20
144.8946058977
  0
LWPOLYLINE
  5
224
100
AcDbEntity
  8
0
100
AcDbPolyline
 62
253
  6
CONTINUOUS
 90
7
 70
0
 10
126.517010918
 20
145.3843837293
 10
126.638239666
 20
145.4191393274
 10
126.7625382762
 20
145.4527786301
 10
126.8899097399
 20
145.4851782981
 10
127.0203539933
 20
145.5162121129
 10
127.1538677175
 20
145.5457510256
 10
127.2904441345
 20
145.5736632135
  0
LWPOLYLINE
  5
225
100
AcDbEntity
  8
0
100
AcDbPolyline
 62
253
  6
CONTINUOUS
 90
7
 70
0
 10
147.1462787184
 20
70.4709676887
 10
147.0333471035
 20
70.4389559912
 10
146.9177125935
 20
70.4081541205
 10
146.7993746997
 20
70.3785619664
 10
146.6783329092
 20
70.3501794227
 10
146.5545866859
 20
70.3230063874
 10
146.4281354709
 20
70.2970427627
  0
LWPOLYLINE
  5
226
100
AcDbEntity
  8
0
100
AcDbPolyline
 62
253
  6
CONTINUOUS
 90
10
 70
0
 10
146.4534810195
 20
70.1300361376
 10
146.1110877464
 20
70.0645664628
 10
145.7680994248
 20
70.002180809
 10
145.4245437471
 20
69.9428847657
 10
145.0804290097
 20
69.8866806028
 10
144.7358024075
 20
69.8335768369
 10
144.3907503004
 20
69.7835864732
 10
144.0453203278
 20
69.7367150654
 10
143.6995211374
 20
69.6929624729
 10
143.3533808687
 20
69.6523311977
  0
LWPOLYLINE
  5
227
100
AcDbEntity
  8
0
100
AcDbPolyline
 62
253
  6
CONTINUOUS
 90
10
 70
0
 10
146.4281354709
 20
70.2970427627
 10
146.0869769547
 20
70.2318114711
 10
145.7452862293
 20
70.169664921
 10
145.4030622714
 20
70.1106025438
 10
145.0602472332
 20
70.0546154348
 10
144.7168967922
 20
70.0017114395
 10
144.3731801698
 20
69.9519151491
 10
144.0291529932
 20
69.9052344562
 10
143.684757281
 20
69.8616605599
 10
143.3399918048
 20
69.8211930481
  0
LINE
  5
228
100
AcDbEntity
  8
0
100
AcDbLine
 62
253
  6
CONTINUOUS
 10
143.3399918048
 20
69.8211930481
 11
143.0864564801
 21
69.7931573104
  0
LINE
  5
229
100
AcDbEntity
  8
0
100
AcDbLine
 62
253
  6
CONTINUOUS
 10
143.3533808695
 20
69.6523311903
 11
143.0887606017
 21
69.6230932181
  0
LINE
  5
22A
100
AcDbEntity
  8
0
100
AcDbLine
 62
253
  6
CONTINUOUS
 10
143.0864564801
 20
69.7931573104
 11
142.9599701768
 21
69.7795935698
  0
LINE
  5
22B
100
AcDbEntity
  8
0
100
AcDbLine
 62
253
  6
CONTINUOUS
 10
143.0887606017
 20
69.6230932181
 11
142.9565899485
 21
69.6089513127
  0
LINE
  5
22C
100
AcDbEntity
  8
0
100
AcDbLine
 62
253
  6
CONTINUOUS
 10
142.8719622898
 20
69.6643340077
 11
142.1719622898
 21
69.6643340077
  0
LINE
  5
22D
100
AcDbEntity
  8
0
100
AcDbLine
 62
253
  6
CONTINUOUS
 10
131.5719622898
 20
69.6643340077
 11
130.8719622898
 21
69.6643340077
  0
LINE
  5
22E
100
AcDbEntity
  8
0
100
AcDbLine
 62
253
  6
CONTINUOUS
 10
142.8760976741
 20
69.9139913914
 11
142.1678269054
 21
69.9139913914
  0
LINE
  5
22F
100
AcDbEntity
  8
0
100
AcDbLine
 62
253
  6
CONTINUOUS
 10
131.5760976741
 20
69.9139913914
 11
130.8678269054
 21
69.9139913914
  0
LINE
  5
230
100
AcDbEntity
  8
0
100
AcDbLine
 62
253
  6
CONTINUOUS
 10
142.9297900423
 20
70.0751994872
 11
142.1141345373
 21
70.0751994872
  0
LINE
  5
231
100
AcDbEntity
  8
0
100
AcDbLine
 62
253
  6
CONTINUOUS
 10
131.6297900423
 20
70.0751994872
 11
130.8141345373
 21
70.0751994872
  0
LINE
  5
232
100
AcDbEntity
  8
0
100
AcDbLine
 62
253
  6
CONTINUOUS
 10
142.9345295468
 20
70.2881814603
 11
142.1093950327
 21
70.2881814603
  0
LINE
  5
233
100
AcDbEntity
  8
0
100
AcDbLine
 62
253
  6
CONTINUOUS
 10
131.6345295468
 20
70.2881814603
 11
130.8093950327
 21
70.2881814603
  0
LINE
  5
234
100
AcDbEntity
  8
0
100
AcDbLine
 62
7
  6
CONTINUOUS
 10
132.5065612898
 20
71.6678006186
 11
132.9109412898
 21
71.6678006186
  0
LINE
  5
235
100
AcDbEntity
  8
0
100
AcDbLine
 62
7
  6
CONTINUOUS
 10
134.5432642898
 20
71.6678006186
 11
134.8495522898
 21
71.6678006186
  0
LINE
  5
236
100
AcDbEntity
  8
0
100
AcDbLine
 62
7
  6
CONTINUOUS
 10
136.5338654898
 20
71.6797944186
 11
136.8797710898
 21
71.6797944186
  0
LINE
  5
237
100
AcDbEntity
  8
0
100
AcDbLine
 62
7
  6
CONTINUOUS
 10
137.2745082898
 20
71.6797946186
 11
137.5807952898
 21
71.6797946186
  0
LINE
  5
238
100
AcDbEntity
  8
0
100
AcDbLine
 62
7
  6
CONTINUOUS
 10
138.9110262898
 20
71.6797946186
 11
139.3441492898
 21
71.6797946186
  0
LINE
  5
239
100
AcDbEntity
  8
0
100
AcDbLine
 62
7
  6
CONTINUOUS
 10
139.6599382898
 20
71.6797946186
 11
141.2991672898
 21
71.6797946186
  0
LWPOLYLINE
  5
23A
100
AcDbEntity
  8
0
100
AcDbPolyline
 62
253
  6
CONTINUOUS
 90
10
 70
0
 10
131.656959086
 20
69.5235552595
 10
132.7264347106
 20
69.4366963789
 10
133.8206448433
 20
69.3684525102
 10
134.9392805923
 20
69.3201790682
 10
136.0839565899
 20
69.2932331099
 10
137.2522863047
 20
69.2891170036
 10
138.4378790111
 20
69.3090763439
 10
139.6382484394
 20
69.3540790649
 10
140.8548116972
 20
69.4252142597
 10
142.0869656556
 20
69.5235552742
  0
LWPOLYLINE
  5
23B
100
AcDbEntity
  8
0
100
AcDbPolyline
 62
253
  6
CONTINUOUS
 90
10
 70
0
 10
131.6603443527
 20
69.6933543607
 10
132.7299996406
 20
69.6041147673
 10
133.8235597408
 20
69.5362668662
 10
134.9410427644
 20
69.489806147
 10
136.0848844448
 20
69.463498093
 10
137.2526693361
 20
69.4585724513
 10
138.4371451677
 20
69.4787231842
 10
139.6359078566
 20
69.5251833668
 10
140.8513855079
 20
69.5967252327
 10
142.0835802595
 20
69.6933543626
  0
LINE
  5
23C
100
AcDbEntity
  8
0
100
AcDbLine
 62
253
  6
CONTINUOUS
 10
130.7873346953
 20
69.6089513059
 11
130.5276814078
 21
69.6370248064
  0
LINE
  5
23D
100
AcDbEntity
  8
0
100
AcDbLine
 62
253
  6
CONTINUOUS
 10
130.783954408
 20
69.7795935693
 11
130.5352280392
 21
69.8065377363
  0
LINE
  5
23E
100
AcDbEntity
  8
0
100
AcDbLine
 62
253
  6
CONTINUOUS
 10
130.5276814078
 20
69.6370248064
 11
130.3903452323
 21
69.6523535847
  0
LINE
  5
23F
100
AcDbEntity
  8
0
100
AcDbLine
 62
253
  6
CONTINUOUS
 10
130.5352280392
 20
69.8065377363
 11
130.4039327747
 21
69.8211930481
  0
LWPOLYLINE
  5
240
100
AcDbEntity
  8
0
100
AcDbPolyline
 62
253
  6
CONTINUOUS
 90
10
 70
0
 10
130.3903452323
 20
69.6523535853
 10
130.0442932925
 20
69.692975905
 10
129.698560242
 20
69.7367208357
 10
129.3531742791
 20
69.7835864732
 10
129.0081373868
 20
69.833574562
 10
128.6635040381
 20
69.8866792584
 10
128.3193808324
 20
69.9428847657
 10
127.9758216795
 20
70.0021814249
 10
127.6328281592
 20
70.064568081
 10
127.2904279737
 20
70.1300391912
  0
LWPOLYLINE
  5
241
100
AcDbEntity
  8
0
100
AcDbPolyline
 62
253
  6
CONTINUOUS
 90
10
 70
0
 10
130.4039327747
 20
69.8211930481
 10
130.0591672985
 20
69.8616605599
 10
129.7147715863
 20
69.9052344562
 10
129.3707444097
 20
69.9519151491
 10
129.0270277873
 20
70.0017114395
 10
128.6836773463
 20
70.0546154348
 10
128.3408623081
 20
70.1106025438
 10
127.9986383503
 20
70.169664921
 10
127.6569476249
 20
70.2318114711
 10
127.3157891087
 20
70.2970427627
  0
LWPOLYLINE
  5
242
100
AcDbEntity
  8
0
100
AcDbPolyline
 62
253
  6
CONTINUOUS
 90
7
 70
0
 10
127.2904279735
 20
70.1300391902
 10
127.157050942
 20
70.1572710426
 10
127.0254400954
 20
70.1863206207
 10
126.8956144717
 20
70.2171184592
 10
126.7675911965
 20
70.2495956513
 10
126.6413855349
 20
70.2836838888
 10
126.5170109441
 20
70.3193155001
  0
LWPOLYLINE
  5
243
100
AcDbEntity
  8
0
100
AcDbPolyline
 62
253
  6
CONTINUOUS
 90
7
 70
0
 10
127.3157891087
 20
70.2970427627
 10
127.1922111089
 20
70.3223070854
 10
127.0701888017
 20
70.3490605092
 10
126.9497216426
 20
70.377303153
 10
126.8308091037
 20
70.4070351421
 10
126.7134506743
 20
70.438256608
 10
126.5976458612
 20
70.4709676887
  0
LWPOLYLINE
  5
244
100
AcDbEntity
  8
0
100
AcDbPolyline
 62
253
  6
CONTINUOUS
 90
10
 70
0
 10
125.6478596567
 20
70.8090933395
 10
125.5461788942
 20
70.852863274
 10
125.4426196704
 20
70.8993548943
 10
125.3371807582
 20
70.9485685661
 10
125.2298843945
 20
71.0003434213
 10
125.120705991
 20
71.0548411024
 10
125.0095737877
 20
71.1125458476
 10
124.8964627414
 20
71.1736194652
 10
124.7813948798
 20
71.2379012483
 10
124.6643687682
 20
71.3053917784
  0
LWPOLYLINE
  5
245
100
AcDbEntity
  8
0
100
AcDbPolyline
 62
253
  6
CONTINUOUS
 90
10
 70
0
 10
125.5579906625
 20
70.6652728813
 10
125.4575708745
 20
70.7091845544
 10
125.3551566621
 20
70.7555594969
 10
125.2508115375
 20
70.8044909555
 10
125.1446825465
 20
70.8560336344
 10
125.0367599954
 20
70.9103200576
 10
124.9268832471
 20
70.9675716314
 10
124.8150593142
 20
71.0279382585
 10
124.701457366
 20
71.0914869338
 10
124.5861724432
 20
71.1583258877
  0
LINE
  5
246
100
AcDbEntity
  8
0
100
AcDbLine
 62
253
  6
CONTINUOUS
 10
124.0005290121
 20
72.1332669774
 11
124.8452447886
 21
71.6455700964
  0
LINE
  5
247
100
AcDbEntity
  8
0
100
AcDbLine
 62
253
  6
CONTINUOUS
 10
125.8191823601
 20
71.0832669774
 11
126.6638981366
 21
70.5955700964
  0
LINE
  5
248
100
AcDbEntity
  8
0
100
AcDbLine
 62
253
  6
CONTINUOUS
 10
124.2246190801
 20
72.4918860507
 11
125.0437729824
 21
72.0189473246
  0
LINE
  5
249
100
AcDbEntity
  8
0
100
AcDbLine
 62
253
  6
CONTINUOUS
 10
126.043272428
 20
71.4418860507
 11
126.8624263304
 21
70.9689473246
  0
LINE
  5
24A
100
AcDbEntity
  8
0
100
AcDbLine
 62
7
  6
CONTINUOUS
 10
124.5729241841
 20
73.0492907353
 11
125.3523470475
 21
72.5992907353
  0
LINE
  5
24B
100
AcDbEntity
  8
0
100
AcDbLine
 62
7
  6
CONTINUOUS
 10
126.391577532
 20
71.9992907353
 11
127.1710003954
 21
71.5492907353
  0
LWPOLYLINE
  5
24C
100
AcDbEntity
  8
0
100
AcDbPolyline
 62
253
  6
CONTINUOUS
 90
22
 70
0
 10
123.833107594
 20
71.865336701
 10
123.6175028813
 20
72.0340937798
 10
123.4032393782
 20
72.2156184676
 10
123.1903096458
 20
72.4099168489
 10
122.9766124814
 20
72.6184769958
 10
122.7642369001
 20
72.8398245229
 10
122.5594668888
 20
73.0695196601
 10
122.3638460579
 20
73.3066647776
 10
122.1758357735
 20
73.5521661029
 10
121.9971038311
 20
73.8042860275
 10
121.8278876335
 20
74.0630187118
 10
121.6679630896
 20
74.3283768795
 10
121.5183092019
 20
74.5986485415
 10
121.3796764449
 20
74.8716783347
 10
121.2513344933
 20
75.14962517
 10
121.1320430223
 20
75.4372503914
 10
121.0207205392
 20
75.7357351614
 10
120.9184752185
 20
76.0439093744
 10
120.8273559551
 20
76.3630113905
 10
120.7480611598
 20
76.6934583833
 10
120.6799360377
 20
77.0348453786
 10
120.6230051733
 20
77.3871782622
  0
LWPOLYLINE
  5
24D
100
AcDbEntity
  8
0
100
AcDbPolyline
 62
253
  6
CONTINUOUS
 90
22
 70
0
 10
123.7450877807
 20
71.7244755534
 10
123.526021722
 20
71.8973231674
 10
123.3065841791
 20
72.0825681087
 10
123.0875501156
 20
72.2806253857
 10
122.8681887233
 20
72.4934434768
 10
122.6510474374
 20
72.7199251753
 10
122.441371726
 20
72.9553653361
 10
122.2406912773
 20
73.1981493587
 10
122.0481871583
 20
73.4493731358
 10
121.8649472019
 20
73.7077851921
 10
121.6913308215
 20
73.9729201957
 10
121.5275128773
 20
74.2445534132
 10
121.3741063553
 20
74.5216511588
 10
121.2323061388
 20
74.801674152
 10
121.1010722135
 20
75.0862719873
 10
120.9782029386
 20
75.3809356927
 10
120.8640158188
 20
75.6868056136
 10
120.7598608283
 20
76.0024057137
 10
120.6659825526
 20
76.3296001124
 10
120.5832957934
 20
76.6688489956
 10
120.5131106674
 20
77.0191152505
 10
120.4565378639
 20
77.3799825503
  0
LWPOLYLINE
  5
24E
100
AcDbEntity
  8
0
100
AcDbPolyline
 62
7
  6
CONTINUOUS
 90
37
 70
0
 10
136.3371406898
 20
72.7138840186
 10
136.3922319587
 20
72.7288560728
 10
136.4457687226
 20
72.7477682091
 10
136.4977514666
 20
72.770620626
 10
136.5486233002
 20
72.7975086121
 10
136.5979420176
 20
72.828337404
 10
136.6443799288
 20
72.8628221603
 10
136.6878334336
 20
72.9011420114
 10
136.7284064365
 20
72.9431185397
 10
136.7650820585
 20
72.9879305179
 10
136.7977273907
 20
73.0357360535
 10
136.8264748715
 20
73.086377734
 10
136.8507051648
 20
73.1385608189
 10
136.8702484769
 20
73.1922530876
 10
136.8852734664
 20
73.2474871698
 10
136.8956681771
 20
73.3030652645
 10
136.9013722608
 20
73.3589835954
 10
136.9024446989
 20
73.4152460211
 10
136.8989524659
 20
73.4706658492
 10
136.8908408429
 20
73.5251498415
 10
136.8781632584
 20
73.5787909738
 10
136.8611490134
 20
73.6306815836
 10
136.8397574223
 20
73.6807745811
 10
136.8140282082
 20
73.7291165853
 10
136.7843115054
 20
73.774940292
 10
136.7506784898
 20
73.8181686758
 10
136.7130575123
 20
73.8588781822
 10
136.6715847096
 20
73.8965315913
 10
136.626268811
 20
73.9311654333
 10
136.5771010792
 20
73.9627426222
 10
136.5241916988
 20
73.9906154442
 10
136.4675534601
 20
74.0147788529
 10
136.40717415
 20
74.0352374124
 10
136.3431267463
 20
74.0513577942
 10
136.2754360377
 20
74.0629287761
 10
136.204078513
 20
74.0701612768
 10
136.12905493
 20
74.0730552186
  0
LINE
  5
24F
100
AcDbEntity
  8
0
100
AcDbLine
 62
7
  6
CONTINUOUS
 10
130.7763815284
 20
72.8653915748
 11
131.6681556715
 21
72.8660041951
  0
LINE
  5
250
100
AcDbEntity
  8
0
100
AcDbLine
 62
7
  6
CONTINUOUS
 10
135.1653414898
 20
73.7667680186
 11
135.8188769452
 21
73.7680822968
  0
LINE
  5
251
100
AcDbEntity
  8
0
100
AcDbLine
 62
7
  6
CONTINUOUS
 10
141.2991672898
 20
71.9860816186
 11
139.9662272898
 21
71.9860816186
  0
LINE
  5
252
100
AcDbEntity
  8
0
100
AcDbLine
 62
7
  6
CONTINUOUS
 10
134.2210432898
 20
72.6919946186
 11
134.5432642898
 21
72.6919946186
  0
LINE
  5
253
100
AcDbEntity
  8
0
100
AcDbLine
 62
7
  6
CONTINUOUS
 10
140.3117472898
 20
72.6991456186
 11
141.2373632898
 21
72.6991456186
  0
LINE
  5
254
100
AcDbEntity
  8
0
100
AcDbLine
 62
7
  6
CONTINUOUS
 10
130.7983571646
 20
72.8434159386
 11
131.645567415
 21
72.8434159386
  0
LINE
  5
255
100
AcDbEntity
  8
0
100
AcDbLine
 62
7
  6
CONTINUOUS
 10
142.0983571646
 20
72.8434159386
 11
142.945567415
 21
72.8434159386
  0
LINE
  5
256
100
AcDbEntity
  8
0
100
AcDbLine
 62
7
  6
CONTINUOUS
 10
134.5432642898
 20
72.9982816186
 11
134.2210432898
 21
72.9982816186
  0
LINE
  5
257
100
AcDbEntity
  8
0
100
AcDbLine
 62
7
  6
CONTINUOUS
 10
141.2373632898
 20
73.0045536186
 11
140.3117472898
 21
73.0045536186
  0
LINE
  5
258
100
AcDbEntity
  8
0
100
AcDbLine
 62
7
  6
CONTINUOUS
 10
139.9662272898
 20
73.7702146186
 11
141.2800392898
 21
73.7702146186
  0
LINE
  5
259
100
AcDbEntity
  8
0
100
AcDbLine
 62
7
  6
CONTINUOUS
 10
136.12905493
 20
74.0730552186
 11
135.1653414898
 21
74.0730552186
  0
LINE
  5
25A
100
AcDbEntity
  8
0
100
AcDbLine
 62
7
  6
CONTINUOUS
 10
134.8495522898
 20
74.0730556186
 11
134.5797492898
 21
74.0730556186
  0
LINE
  5
25B
100
AcDbEntity
  8
0
100
AcDbLine
 62
7
  6
CONTINUOUS
 10
141.2800392898
 20
74.0765016186
 11
139.6599382898
 21
74.0765016186
  0
LINE
  5
25C
100
AcDbEntity
  8
0
100
AcDbLine
 62
7
  6
CONTINUOUS
 10
137.5807952898
 20
74.0805016186
 11
137.2745082898
 21
74.0805016186
  0
LINE
  5
25D
100
AcDbEntity
  8
0
100
AcDbLine
 62
7
  6
CONTINUOUS
 10
139.3468632898
 20
74.0850486186
 11
138.9137412898
 21
74.0850486186
  0
LINE
  5
25E
100
AcDbEntity
  8
0
100
AcDbLine
 62
7
  6
CONTINUOUS
 10
140.1832662898
 20
74.2952576186
 11
140.6164072898
 21
74.2952576186
  0
LINE
  5
25F
100
AcDbEntity
  8
0
100
AcDbLine
 62
7
  6
CONTINUOUS
 10
141.1594242898
 20
74.8382926186
 11
140.7263022898
 21
74.8382926186
  0
LINE
  5
260
100
AcDbEntity
  8
0
100
AcDbLine
 62
7
  6
CONTINUOUS
 10
142.0757689081
 20
72.8660041951
 11
142.9675430512
 21
72.8653915748
  0
LINE
  5
261
100
AcDbEntity
  8
0
100
AcDbLine
 62
7
  6
CONTINUOUS
 10
135.8188769452
 20
73.7680822968
 11
136.1437382898
 21
73.7666200186
  0
LWPOLYLINE
  5
262
100
AcDbEntity
  8
0
100
AcDbPolyline
 62
7
  6
CONTINUOUS
 90
5
 70
0
 10
135.953880204
 20
72.9964323973
 10
135.9267722
 20
72.9966299087
 10
135.8995999562
 20
72.9959080448
 10
135.8723795685
 20
72.9944903472
 10
135.8451110898
 20
72.9923768186
  0
LWPOLYLINE
  5
263
100
AcDbEntity
  8
0
100
AcDbPolyline
 62
7
  6
CONTINUOUS
 90
28
 70
0
 10
136.1437382898
 20
73.7666200186
 10
136.1726986844
 20
73.7654924558
 10
136.200549946
 20
73.7634863372
 10
136.2272920132
 20
73.7606016673
 10
136.2528736208
 20
73.7568091451
 10
136.2773459265
 20
73.7521380866
 10
136.3008625155
 20
73.7466764235
 10
136.323419325
 20
73.7404547049
 10
136.3450203493
 20
73.7334424048
 10
136.3658312671
 20
73.7256358435
 10
136.385905494
 20
73.717039341
 10
136.4051895606
 20
73.7076486102
 10
136.4236888191
 20
73.6974470638
 10
136.4414018928
 20
73.6864574596
 10
136.4583301242
 20
73.674657083
 10
136.4744829449
 20
73.6619611439
 10
136.4899246781
 20
73.6483174168
 10
136.5045909762
 20
73.6337781885
 10
136.5182982758
 20
73.6184154395
 10
136.5310427462
 20
73.60218378
 10
136.5428282382
 20
73.5851286677
 10
136.5534827409
 20
73.5674583451
 10
136.5629724064
 20
73.5491659902
 10
136.5713311563
 20
73.5302584823
 10
136.5784886618
 20
73.5109645981
 10
136.5844215196
 20
73.4913606046
 10
136.5891532429
 20
73.4713702713
 10
136.5926838898
 20
73.4509936186
  0
LINE
  5
264
100
AcDbEntity
  8
0
100
AcDbLine
 62
7
  6
CONTINUOUS
 10
130.8719622898
 20
146.1887705335
 11
130.7873346953
 21
146.0947479312
  0
LINE
  5
265
100
AcDbEntity
  8
0
100
AcDbLine
 62
7
  6
CONTINUOUS
 10
130.7983571646
 20
142.8602832985
 11
130.7763815284
 21
142.8383076623
  0
LINE
  5
266
100
AcDbEntity
  8
0
100
AcDbLine
 62
7
  6
CONTINUOUS
 10
119.7962009616
 20
131.7518496186
 11
119.893307263
 21
131.8443900728
  0
LINE
  5
267
100
AcDbEntity
  8
0
100
AcDbLine
 62
7
  6
CONTINUOUS
 10
119.893307263
 20
83.8593091643
 11
119.7962009616
 21
83.9518496186
  0
LINE
  5
268
100
AcDbEntity
  8
0
100
AcDbLine
 62
7
  6
CONTINUOUS
 10
130.7983571646
 20
72.8434159386
 11
130.7763815284
 21
72.8653915748
  0
LINE
  5
269
100
AcDbEntity
  8
0
100
AcDbLine
 62
7
  6
CONTINUOUS
 10
130.8719622898
 20
69.5149287037
 11
130.7873346953
 21
69.6089513059
  0
LINE
  5
26A
100
AcDbEntity
  8
0
100
AcDbLine
 62
7
  6
CONTINUOUS
 10
124.2277312202
 20
130.9755797438
 11
124.1975040945
 21
130.9453526182
  0
LINE
  5
26B
100
AcDbEntity
  8
0
100
AcDbLine
 62
7
  6
CONTINUOUS
 10
120.2647052812
 20
131.8117420729
 11
120.0924598389
 21
131.7559850029
  0
LINE
  5
26C
100
AcDbEntity
  8
0
100
AcDbLine
 62
7
  6
CONTINUOUS
 10
136.4719622898
 20
80.2518496186
 11
136.2607240951
 21
80.1990601805
  0
LINE
  5
26D
100
AcDbEntity
  8
0
100
AcDbLine
 62
7
  6
CONTINUOUS
 10
138.4859300657
 20
81.6553402328
 11
138.6360899064
 21
81.6928658972
  0
LWPOLYLINE
  5
26E
100
AcDbEntity
  8
0
100
AcDbPolyline
 62
7
  6
CONTINUOUS
 90
7
 70
0
 10
153.4792192983
 20
83.8919571643
 10
153.4766322594
 20
83.8915019737
 10
153.4719121943
 20
83.8910583188
 10
153.4650591028
 20
83.8906261997
 10
153.4559846617
 20
83.8902023683
 10
153.4447771943
 20
83.8897900727
 10
153.431701671
 20
83.8893990563
  0
LINE
  5
26F
100
AcDbEntity
  8
0
100
AcDbLine
 62
253
  6
CONTINUOUS
 10
120.3719622898
 20
77.3683162873
 11
120.4565378639
 21
77.3799825503
  0
LWPOLYLINE
  5
270
100
AcDbEntity
  8
0
100
AcDbPolyline
 62
253
  6
CONTINUOUS
 90
13
 70
0
 10
120.623005173
 20
77.387178262
 10
120.6007262026
 20
77.3845800606
 10
120.5791625263
 20
77.3822770707
 10
120.5585999524
 20
77.3802998165
 10
120.5393110207
 20
77.3786745048
 10
120.5215513896
 20
77.3774226778
 10
120.505556448
 20
77.3765609274
 10
120.4915381956
 20
77.3761006754
 10
120.4796824324
 20
77.376048022
 10
120.4701462966
 20
77.376403665
 10
120.4630561816
 20
77.3771628908
 10
120.458506061
 20
77.3783156365
 10
120.4565562428
 20
77.3798466233
  0
LINE
  5
271
100
AcDbEntity
  8
0
100
AcDbLine
 62
253
  6
CONTINUOUS
 10
118.3975671691
 20
77.4473100304
 11
119.7393336438
 21
77.5961815429
  0
LINE
  5
272
100
AcDbEntity
  8
0
100
AcDbLine
 62
253
  6
CONTINUOUS
 10
118.0709495816
 20
81.4359505936
 11
119.4190604268
 21
81.5073449153
  0
LWPOLYLINE
  5
273
100
AcDbEntity
  8
0
100
AcDbPolyline
 62
253
  6
CONTINUOUS
 90
22
 70
0
 10
138.3877942125
 20
80.3159164884
 10
138.4331632497
 20
80.3177040294
 10
138.4777636873
 20
80.3227340351
 10
138.521595755
 20
80.3310065315
 10
138.5648830006
 20
80.3426020903
 10
138.6074023089
 20
80.3574402435
 10
138.6484838734
 20
80.3752794763
 10
138.6881159582
 20
80.3961707976
 10
138.7263105942
 20
80.4200633838
 10
138.7624335342
 20
80.4465629715
 10
138.7964495498
 20
80.4757113122
 10
138.8283939678
 20
80.507466883
 10
138.8577382575
 20
80.5413104834
 10
138.8844408612
 20
80.577278062
 10
138.9085432214
 20
80.6153338962
 10
138.929641195
 20
80.6548512247
 10
138.9476852736
 20
80.6958425835
 10
138.9627246614
 20
80.7382956137
 10
138.9745031973
 20
80.781546135
 10
138.9829353418
 20
80.8253727677
 10
138.9881062036
 20
80.8699969806
 10
138.990015555
 20
80.9154188239
  0
LWPOLYLINE
  5
274
100
AcDbEntity
  8
0
100
AcDbPolyline
 62
253
  6
CONTINUOUS
 90
22
 70
0
 10
138.3846597624
 20
80.6393319569
 10
138.4071283552
 20
80.6401580028
 10
138.4294587822
 20
80.6426528858
 10
138.4515267654
 20
80.646798716
 10
138.4732045904
 20
80.6525663632
 10
138.4943782163
 20
80.6599209987
 10
138.514946465
 20
80.66882653
 10
138.5348004956
 20
80.6792363717
 10
138.5538240184
 20
80.6910902015
 10
138.5719094435
 20
80.7043223638
 10
138.5889555423
 20
80.7188580498
 10
138.6048685173
 20
80.7346165807
 10
138.6195603136
 20
80.7515128066
 10
138.6329493765
 20
80.7694531118
 10
138.6449604797
 20
80.7883369249
 10
138.6555254349
 20
80.8080602738
 10
138.6645827728
 20
80.8285071429
 10
138.6720849679
 20
80.8495688494
 10
138.677993112
 20
80.8711476922
 10
138.6822703379
 20
80.8931307042
 10
138.6848866245
 20
80.9153887143
 10
138.6858226825
 20
80.9377969331
  0
LINE
  5
275
100
AcDbEntity
  8
0
100
AcDbLine
 62
7
  6
CONTINUOUS
 10
135.6616234837
 20
80.8518496186
 11
135.5686440294
 21
80.8487141101
  0
LWPOLYLINE
  5
276
100
AcDbEntity
  8
0
100
AcDbPolyline
 62
253
  6
CONTINUOUS
 90
16
 70
0
 10
134.7539090477
 20
80.9154189427
 10
134.7848852871
 20
80.9155851645
 10
134.8155775452
 20
80.9159886254
 10
134.8456581448
 20
80.9166250181
 10
134.8748059389
 20
80.9174875482
 10
134.9027097394
 20
80.9185670072
 10
134.9290716391
 20
80.9198518705
 10
134.9536101928
 20
80.9213284207
 10
134.9760634214
 20
80.9229808938
 10
134.9961916095
 20
80.9247916476
 10
135.0137798641
 20
80.9267413501
 10
135.0286404091
 20
80.928809186
 10
135.0406145902
 20
80.9309730784
 10
135.0495745685
 20
80.9332099253
 10
135.0554246851
 20
80.9354958455
 10
135.0581024831
 20
80.9378064341
  0
LINE
  5
277
100
AcDbEntity
  8
0
100
AcDbLine
 62
253
  6
CONTINUOUS
 10
137.7863616739
 20
80.3157406887
 11
138.3877942125
 21
80.3159164884
  0
LINE
  5
278
100
AcDbEntity
  8
0
100
AcDbLine
 62
253
  6
CONTINUOUS
 10
137.4847105062
 20
80.6391014022
 11
138.3846597656
 21
80.6393319536
  0
LINE
  5
279
100
AcDbEntity
  8
0
100
AcDbLine
 62
253
  6
CONTINUOUS
 10
137.7851232212
 20
79.8745959938
 11
135.9588013583
 21
79.8745959938
  0
LINE
  5
27A
100
AcDbEntity
  8
0
100
AcDbLine
 62
253
  6
CONTINUOUS
 10
137.4832004845
 20
80.1990601805
 11
136.2607240951
 21
80.1990601805
  0
LINE
  5
27B
100
AcDbEntity
  8
0
100
AcDbLine
 62
7
  6
CONTINUOUS
 10
136.4719622898
 20
80.2518496186
 11
137.2719622898
 21
80.2518496186
  0
LINE
  5
27C
100
AcDbEntity
  8
0
100
AcDbLine
 62
7
  6
CONTINUOUS
 10
138.0823010958
 20
80.8518496186
 11
137.2719622898
 21
80.8518496186
  0
LINE
  5
27D
100
AcDbEntity
  8
0
100
AcDbLine
 62
7
  6
CONTINUOUS
 10
136.4719622898
 20
80.8518496186
 11
135.6616234837
 21
80.8518496186
  0
LINE
  5
27E
100
AcDbEntity
  8
0
100
AcDbLine
 62
7
  6
CONTINUOUS
 10
138.0823010958
 20
81.2518496186
 11
135.6616234837
 21
81.2518496186
  0
LINE
  5
27F
100
AcDbEntity
  8
0
100
AcDbLine
 62
7
  6
CONTINUOUS
 10
138.4859300657
 20
81.6553402328
 11
135.2579945138
 21
81.6553402328
  0
LINE
  5
280
100
AcDbEntity
  8
0
100
AcDbLine
 62
7
  6
CONTINUOUS
 10
135.1078346732
 20
81.6928658972
 11
136.0219622898
 21
81.6928658972
  0
LINE
  5
281
100
AcDbEntity
  8
0
100
AcDbLine
 62
7
  6
CONTINUOUS
 10
137.7219622898
 20
81.6928658972
 11
138.6360899064
 21
81.6928658972
  0
LINE
  5
282
100
AcDbEntity
  8
0
100
AcDbLine
 62
7
  6
CONTINUOUS
 10
137.6908362498
 20
81.7084277319
 11
136.0530883297
 21
81.7084277319
  0
LINE
  5
283
100
AcDbEntity
  8
0
100
AcDbLine
 62
253
  6
CONTINUOUS
 10
135.356130367
 20
80.3159164884
 11
135.9575629056
 21
80.3157406887
  0
LINE
  5
284
100
AcDbEntity
  8
0
100
AcDbLine
 62
253
  6
CONTINUOUS
 10
135.3592525949
 20
80.6393319574
 11
136.2592140734
 21
80.6391014022
  0
LWPOLYLINE
  5
285
100
AcDbEntity
  8
0
100
AcDbPolyline
 62
253
  6
CONTINUOUS
 90
16
 70
0
 10
138.990015555
 20
80.915418824
 10
138.9590393383
 20
80.9155850558
 10
138.9283471141
 20
80.9159885267
 10
138.8982665577
 20
80.916624929
 10
138.8691188138
 20
80.9174874684
 10
138.8412150685
 20
80.9185669365
 10
138.8148532266
 20
80.9198518084
 10
138.7903147314
 20
80.9213283669
 10
138.7678615597
 20
80.9229808478
 10
138.7477334253
 20
80.924791609
 10
138.7301452193
 20
80.9267413187
 10
138.7152847162
 20
80.9288091613
 10
138.7033105692
 20
80.9309730602
 10
138.6943506162
 20
80.9332099133
 10
138.688500515
 20
80.9354958395
 10
138.6858227224
 20
80.9378064341
  0
LINE
  5
286
100
AcDbEntity
  8
0
100
AcDbLine
 62
7
  6
CONTINUOUS
 10
138.1752805502
 20
80.8487141101
 11
138.0823010958
 21
80.8518496186
  0
LINE
  5
287
100
AcDbEntity
  8
0
100
AcDbLine
 62
253
  6
CONTINUOUS
 10
155.6729749979
 20
81.4359505936
 11
154.3248641528
 21
81.5073449153
  0
LINE
  5
288
100
AcDbEntity
  8
0
100
AcDbLine
 62
253
  6
CONTINUOUS
 10
155.3463574105
 20
77.4473100304
 11
154.0045909357
 21
77.5961815429
  0
LWPOLYLINE
  5
289
100
AcDbEntity
  8
0
100
AcDbPolyline
 62
253
  6
CONTINUOUS
 90
13
 70
0
 10
153.1209194072
 20
77.3871782616
 10
153.1431983445
 20
77.3845800685
 10
153.1647619806
 20
77.3822770873
 10
153.1853245088
 20
77.3802998419
 10
153.2046133907
 20
77.3786745388
 10
153.2223729698
 20
77.3774227199
 10
153.2383678592
 20
77.3765609769
 10
153.2523860611
 20
77.3761007312
 10
153.2642417773
 20
77.3760480829
 10
153.2737778716
 20
77.3764037297
 10
153.280867952
 20
77.3771629578
 10
153.2854180461
 20
77.3783157041
 10
153.287367847
 20
77.3798466901
  0
LINE
  5
28A
100
AcDbEntity
  8
0
100
AcDbLine
 62
253
  6
CONTINUOUS
 10
153.3719622898
 20
77.3683162873
 11
153.2873745873
 21
77.3798927726
  0
LWPOLYLINE
  5
28B
100
AcDbEntity
  8
0
100
AcDbPolyline
 62
7
  6
CONTINUOUS
 90
8
 70
0
 10
120.0924598389
 20
83.9477142342
 10
120.0897795002
 20
83.9481567193
 10
120.0846637954
 20
83.9485855144
 10
120.0771127245
 20
83.9490006194
 10
120.0669497994
 20
83.9494072551
 10
120.0543515082
 20
83.9498002007
 10
120.0398473153
 20
83.9501637941
 10
120.0052703744
 20
83.9507959633
  0
LINE
  5
28C
100
AcDbEntity
  8
0
100
AcDbLine
 62
7
  6
CONTINUOUS
 10
137.2719622898
 20
80.2518496186
 11
137.4832004845
 21
80.1990601805
  0
LINE
  5
28D
100
AcDbEntity
  8
0
100
AcDbLine
 62
7
  6
CONTINUOUS
 10
135.2579945138
 20
81.6553402328
 11
135.1078346732
 21
81.6928658972
  0
LWPOLYLINE
  5
28E
100
AcDbEntity
  8
0
100
AcDbPolyline
 62
7
  6
CONTINUOUS
 90
9
 70
0
 10
119.893307263
 20
83.8593091643
 10
119.894499871
 20
83.8589862185
 10
119.8973499032
 20
83.8586704216
 10
119.9018573597
 20
83.8583617737
 10
119.9081202918
 20
83.8580567297
 10
119.9160406482
 20
83.8577588346
 10
119.9253242748
 20
83.8574787237
 10
119.9359329564
 20
83.8572188318
 10
119.9610606214
 20
83.8567557304
  0
LINE
  5
28F
100
AcDbEntity
  8
0
100
AcDbLine
 62
7
  6
CONTINUOUS
 10
120.0924598389
 20
83.9477142342
 11
120.2647052812
 21
83.8919571643
  0
LWPOLYLINE
  5
290
100
AcDbEntity
  8
0
100
AcDbPolyline
 62
7
  6
CONTINUOUS
 90
10
 70
0
 10
137.4832004845
 20
80.1990601805
 10
137.4833186534
 20
80.1990115425
 10
137.4834367656
 20
80.1989247706
 10
137.483554821
 20
80.1987998647
 10
137.4836728332
 20
80.1986368031
 10
137.4837907886
 20
80.1984356076
 10
137.4839086464
 20
80.1981963437
 10
137.4840263932
 20
80.1979190333
 10
137.4841440425
 20
80.1976036544
 10
137.4842615943
 20
80.1972502072
  0
LINE
  5
291
100
AcDbEntity
  8
0
100
AcDbLine
 62
7
  6
CONTINUOUS
 10
124.2277312202
 20
84.7281194934
 11
124.1975040945
 21
84.758346619
  0
LINE
  5
292
100
AcDbEntity
  8
0
100
AcDbLine
 62
7
  6
CONTINUOUS
 10
120.9678212898
 20
123.9508506186
 11
121.6074832898
 21
124.7099076186
  0
LINE
  5
293
100
AcDbEntity
  8
0
100
AcDbLine
 62
7
  6
CONTINUOUS
 10
121.9418852898
 20
124.7099076186
 11
121.3304452898
 21
123.9843406186
  0
LINE
  5
294
100
AcDbEntity
  8
0
100
AcDbLine
 62
7
  6
CONTINUOUS
 10
142.1719622898
 20
146.2577073336
 11
142.084025547
 21
146.1774592798
  0
LINE
  5
295
100
AcDbEntity
  8
0
100
AcDbLine
 62
7
  6
CONTINUOUS
 10
122.9850512898
 20
125.4765916186
 11
122.7637472898
 21
125.3523806186
  0
LINE
  5
296
100
AcDbEntity
  8
0
100
AcDbLine
 62
7
  6
CONTINUOUS
 10
137.7219622898
 20
134.01083334
 11
137.6908362498
 21
133.9952715052
  0
LINE
  5
297
100
AcDbEntity
  8
0
100
AcDbLine
 62
7
  6
CONTINUOUS
 10
151.2695522898
 20
89.2359046186
 11
152.4396212898
 21
89.5599286186
  0
LINE
  5
298
100
AcDbEntity
  8
0
100
AcDbLine
 62
253
  6
CONTINUOUS
 10
119.8355909819
 20
83.1462207644
 11
119.9273998545
 21
83.1507928175
  0
LWPOLYLINE
  5
299
100
AcDbEntity
  8
0
100
AcDbPolyline
 62
7
  6
CONTINUOUS
 90
22
 70
0
 10
147.3219622898
 20
85.3395588187
 10
147.3832489179
 20
85.3418715063
 10
147.4435912867
 20
85.3486401245
 10
147.5029895806
 20
85.3598646733
 10
147.5618366651
 20
85.3756941866
 10
147.6197399747
 20
85.3959796306
 10
147.6755219667
 20
85.420273903
 10
147.7289805046
 20
85.4485454354
 10
147.7803189925
 20
85.4808257963
 10
147.8289687851
 20
85.5167625899
 10
147.875069038
 20
85.5565695033
 10
147.918482077
 20
85.6000328493
 10
147.9582244414
 20
85.6461591711
 10
147.9940825432
 20
85.6948093152
 10
148.026271797
 20
85.7461224349
 10
148.0544524958
 20
85.7995225333
 10
148.0786550444
 20
85.8552156875
 10
148.0988504568
 20
85.9129958204
 10
148.1146099241
 20
85.9716687028
 10
148.1257908139
 20
86.0308362585
 10
148.1325366007
 20
86.0908965637
 10
148.1348474945
 20
86.1518496186
  0
LWPOLYLINE
  5
29A
100
AcDbEntity
  8
0
100
AcDbPolyline
 62
253
  6
CONTINUOUS
 90
13
 70
0
 10
120.0938779889
 20
83.1487932077
 10
120.0714379874
 20
83.1479697029
 10
120.0497374214
 20
83.1473153961
 10
120.0290644491
 20
83.1468389757
 10
120.0096935837
 20
83.1465467681
 10
119.9918820476
 20
83.1464426534
 10
119.9758663575
 20
83.1465280142
 10
119.961859183
 20
83.1468017169
 10
119.9500465232
 20
83.1472601271
 10
119.9405852365
 20
83.1478971577
 10
119.9336009577
 20
83.1487043495
 10
119.92918643
 20
83.1496709842
 10
119.9274002732
 20
83.1507842257
  0
LWPOLYLINE
  5
29B
100
AcDbEntity
  8
0
100
AcDbPolyline
 62
253
  6
CONTINUOUS
 90
13
 70
0
 10
119.9929515756
 20
85.3046970825
 10
119.9705238495
 20
85.3038932156
 10
119.948838598
 20
85.3032196379
 10
119.9281835374
 20
85.3026852864
 10
119.9088327158
 20
85.3022972509
 10
119.8910428766
 20
85.3020606796
 10
119.8750500527
 20
85.3019787114
 10
119.8610664342
 20
85.3020524339
 10
119.8492775535
 20
85.3022808688
 10
119.8398398235
 20
85.3026609853
 10
119.8328784626
 20
85.3031877402
 10
119.8284858329
 20
85.3038541445
 10
119.8267202151
 20
85.3046513565
  0
LWPOLYLINE
  5
29C
100
AcDbEntity
  8
0
100
AcDbPolyline
 62
7
  6
CONTINUOUS
 90
7
 70
0
 10
135.0068967119
 20
83.8390885122
 10
135.019521061
 20
83.8394848016
 10
135.0303107638
 20
83.8399031775
 10
135.038937903
 20
83.8403311419
 10
135.0452931728
 20
83.8407645286
 10
135.049485879
 20
83.8412075037
 10
135.0515160217
 20
83.8416600672
  0
LWPOLYLINE
  5
29D
100
AcDbEntity
  8
0
100
AcDbPolyline
 62
7
  6
CONTINUOUS
 90
7
 70
0
 10
153.818603916
 20
83.8574788211
 10
153.8278866877
 20
83.8577589227
 10
153.8358060352
 20
83.8580568011
 10
153.8420681524
 20
83.8583618274
 10
153.846575104
 20
83.8586704585
 10
153.8494248254
 20
83.8589862375
 10
153.8506173165
 20
83.8593091643
  0
LWPOLYLINE
  5
29E
100
AcDbEntity
  8
0
100
AcDbPolyline
 62
7
  6
CONTINUOUS
 90
7
 70
0
 10
119.8838860582
 20
84.7469149588
 10
119.8746279866
 20
84.7466344722
 10
119.8667332952
 20
84.7463361618
 10
119.8604965322
 20
84.7460306519
 10
119.8560158805
 20
84.7457214838
 10
119.8531931572
 20
84.7454051162
 10
119.8520283623
 20
84.745081549
  0
LWPOLYLINE
  5
29F
100
AcDbEntity
  8
0
100
AcDbPolyline
 62
7
  6
CONTINUOUS
 90
7
 70
0
 10
119.989127087
 20
84.6535350254
 10
120.0035704282
 20
84.6538985824
 10
120.0161068074
 20
84.6542915215
 10
120.0262075103
 20
84.6546981976
 10
120.0336962989
 20
84.6551133957
 10
120.0387494112
 20
84.6555423308
 10
120.0413668473
 20
84.6559850029
  0
LWPOLYLINE
  5
2A0
100
AcDbEntity
  8
0
100
AcDbPolyline
 62
7
  6
CONTINUOUS
 90
7
 70
0
 10
153.7040772643
 20
83.9501637941
 10
153.6895730714
 20
83.9498002007
 10
153.6769747801
 20
83.9494072551
 10
153.666811855
 20
83.9490006194
 10
153.6592607841
 20
83.9485855144
 10
153.6541450793
 20
83.9481567193
 10
153.6514647406
 20
83.9477142342
  0
LINE
  5
2A1
100
AcDbEntity
  8
0
100
AcDbLine
 62
7
  6
CONTINUOUS
 10
134.9761315114
 20
83.8383665564
 11
135.0068967119
 21
83.8390885122
  0
LINE
  5
2A2
100
AcDbEntity
  8
0
100
AcDbLine
 62
7
  6
CONTINUOUS
 10
120.2516813475
 20
84.7140574185
 11
120.2832555554
 21
84.7147725133
  0
LINE
  5
2A3
100
AcDbEntity
  8
0
100
AcDbLine
 62
7
  6
CONTINUOUS
 10
153.431701671
 20
83.8893990563
 11
153.3998880952
 21
83.8886825513
  0
LINE
  5
2A4
100
AcDbEntity
  8
0
100
AcDbLine
 62
7
  6
CONTINUOUS
 10
153.796024262
 20
83.8569768098
 11
153.818603916
 21
83.8574788211
  0
LINE
  5
2A5
100
AcDbEntity
  8
0
100
AcDbLine
 62
7
  6
CONTINUOUS
 10
119.9064157599
 20
84.7474175848
 11
119.8838860582
 21
84.7469149588
  0
LINE
  5
2A6
100
AcDbEntity
  8
0
100
AcDbLine
 62
7
  6
CONTINUOUS
 10
119.9546695656
 20
84.6529030365
 11
119.989127087
 21
84.6535350254
  0
LINE
  5
2A7
100
AcDbEntity
  8
0
100
AcDbLine
 62
7
  6
CONTINUOUS
 10
153.7386542051
 20
83.9507959633
 11
153.7040772643
 21
83.9501637941
  0
LINE
  5
2A8
100
AcDbEntity
  8
0
100
AcDbLine
 62
7
  6
CONTINUOUS
 10
134.9390807292
 20
83.8377511977
 11
134.9761315114
 21
83.8383665564
  0
LINE
  5
2A9
100
AcDbEntity
  8
0
100
AcDbLine
 62
7
  6
CONTINUOUS
 10
120.2832555554
 20
84.7147725133
 11
120.3213372121
 21
84.7153816235
  0
LINE
  5
2AA
100
AcDbEntity
  8
0
100
AcDbLine
 62
7
  6
CONTINUOUS
 10
153.3998880952
 20
83.8886825513
 11
153.361620106
 21
83.8880732051
  0
LINE
  5
2AB
100
AcDbEntity
  8
0
100
AcDbLine
 62
7
  6
CONTINUOUS
 10
119.933973425
 20
84.7478399194
 11
119.9064157599
 21
84.7474175848
  0
LINE
  5
2AC
100
AcDbEntity
  8
0
100
AcDbLine
 62
7
  6
CONTINUOUS
 10
153.7684157438
 20
83.8565549852
 11
153.796024262
 21
83.8569768098
  0
LINE
  5
2AD
100
AcDbEntity
  8
0
100
AcDbLine
 62
7
  6
CONTINUOUS
 10
153.7801451149
 20
83.9512962007
 11
153.7386542051
 21
83.9507959633
  0
LINE
  5
2AE
100
AcDbEntity
  8
0
100
AcDbLine
 62
7
  6
CONTINUOUS
 10
119.9132882299
 20
84.6524029558
 11
119.9546695656
 21
84.6529030365
  0
LINE
  5
2AF
100
AcDbEntity
  8
0
100
AcDbLine
 62
7
  6
CONTINUOUS
 10
134.8731481745
 20
83.8370532272
 11
134.9390807292
 21
83.8377511977
  0
LINE
  5
2B0
100
AcDbEntity
  8
0
100
AcDbLine
 62
7
  6
CONTINUOUS
 10
153.361620106
 20
83.8880732051
 11
153.2943642785
 21
83.8873933412
  0
LINE
  5
2B1
100
AcDbEntity
  8
0
100
AcDbLine
 62
7
  6
CONTINUOUS
 10
120.3213372121
 20
84.7153816235
 11
120.3883598442
 21
84.7160622409
  0
LINE
  5
2B2
100
AcDbEntity
  8
0
100
AcDbLine
 62
7
  6
CONTINUOUS
 10
153.7196903545
 20
83.8560996215
 11
153.7684157438
 21
83.8565549852
  0
LINE
  5
2B3
100
AcDbEntity
  8
0
100
AcDbLine
 62
7
  6
CONTINUOUS
 10
119.9826243189
 20
84.7482959476
 11
119.933973425
 21
84.7478399194
  0
LINE
  5
2B4
100
AcDbEntity
  8
0
100
AcDbLine
 62
7
  6
CONTINUOUS
 10
153.2943642785
 20
83.8873933412
 11
153.2445174699
 21
83.8871149967
  0
LINE
  5
2B5
100
AcDbEntity
  8
0
100
AcDbLine
 62
7
  6
CONTINUOUS
 10
120.3883598442
 20
84.7160622409
 11
120.4379988063
 21
84.7163407998
  0
LINE
  5
2B6
100
AcDbEntity
  8
0
100
AcDbLine
 62
7
  6
CONTINUOUS
 10
153.8515991324
 20
83.9517601815
 11
153.7801451149
 21
83.9512962007
  0
LINE
  5
2B7
100
AcDbEntity
  8
0
100
AcDbLine
 62
7
  6
CONTINUOUS
 10
119.8419621061
 20
84.6519390765
 11
119.9132882299
 21
84.6524029558
  0
LINE
  5
2B8
100
AcDbEntity
  8
0
100
AcDbLine
 62
7
  6
CONTINUOUS
 10
134.7987682676
 20
83.8366678877
 11
134.8731481745
 21
83.8370532272
  0
LINE
  5
2B9
100
AcDbEntity
  8
0
100
AcDbLine
 62
7
  6
CONTINUOUS
 10
150.5780638603
 20
83.8481561526
 11
153.7196903545
 21
83.8560996215
  0
LINE
  5
2BA
100
AcDbEntity
  8
0
100
AcDbLine
 62
7
  6
CONTINUOUS
 10
124.1975040945
 20
84.758346619
 11
119.9826243189
 21
84.7482959476
  0
LINE
  5
2BB
100
AcDbEntity
  8
0
100
AcDbLine
 62
7
  6
CONTINUOUS
 10
143.5400561922
 20
83.8390073636
 11
150.5780638603
 21
83.8481561526
  0
LINE
  5
2BC
100
AcDbEntity
  8
0
100
AcDbLine
 62
7
  6
CONTINUOUS
 10
129.3719622898
 20
83.8698108134
 11
135.1078346732
 21
83.8698108134
  0
LINE
  5
2BD
100
AcDbEntity
  8
0
100
AcDbLine
 62
7
  6
CONTINUOUS
 10
136.0219622898
 20
83.8698108134
 11
137.7219622898
 21
83.8698108134
  0
LINE
  5
2BE
100
AcDbEntity
  8
0
100
AcDbLine
 62
7
  6
CONTINUOUS
 10
138.6360899064
 20
83.8698108134
 11
144.3719622898
 21
83.8698108134
  0
LINE
  5
2BF
100
AcDbEntity
  8
0
100
AcDbLine
 62
7
  6
CONTINUOUS
 10
153.8515991324
 20
83.9517601815
 11
153.947723618
 21
83.9518496186
  0
LINE
  5
2C0
100
AcDbEntity
  8
0
100
AcDbLine
 62
7
  6
CONTINUOUS
 10
119.8419621061
 20
84.6519390765
 11
119.7630381092
 21
84.6518496186
  0
LINE
  5
2C1
100
AcDbEntity
  8
0
100
AcDbLine
 62
253
  6
CONTINUOUS
 10
124.197054659
 20
85.3046970826
 11
119.9929516558
 21
85.3046952993
  0
LINE
  5
2C2
100
AcDbEntity
  8
0
100
AcDbLine
 62
253
  6
CONTINUOUS
 10
149.5468699206
 20
85.3046970826
 11
153.7509728961
 21
85.304694683
  0
LINE
  5
2C3
100
AcDbEntity
  8
0
100
AcDbLine
 62
7
  6
CONTINUOUS
 10
129.3719622898
 20
85.3405046904
 11
144.3719622898
 21
85.3405046904
  0
LINE
  5
2C4
100
AcDbEntity
  8
0
100
AcDbLine
 62
7
  6
CONTINUOUS
 10
126.4219622898
 20
85.3518496186
 11
147.3219622898
 21
85.3518496186
  0
LINE
  5
2C5
100
AcDbEntity
  8
0
100
AcDbLine
 62
253
  6
CONTINUOUS
 10
148.1348474945
 20
86.1518496186
 11
148.1219622898
 21
86.1518496186
  0
LINE
  5
2C6
100
AcDbEntity
  8
0
100
AcDbLine
 62
253
  6
CONTINUOUS
 10
125.609077085
 20
86.1518496186
 11
125.6219622898
 21
86.1518496186
  0
LINE
  5
2C7
100
AcDbEntity
  8
0
100
AcDbLine
 62
7
  6
CONTINUOUS
 10
136.0554006801
 20
83.8363724231
 11
137.6885238995
 21
83.8363724231
  0
LINE
  5
2C8
100
AcDbEntity
  8
0
100
AcDbLine
 62
7
  6
CONTINUOUS
 10
130.2038638792
 20
83.8390073673
 11
134.7987682676
 21
83.8366678877
  0
LINE
  5
2C9
100
AcDbEntity
  8
0
100
AcDbLine
 62
7
  6
CONTINUOUS
 10
119.8923254471
 20
83.9517601815
 11
119.7962009616
 21
83.9518496186
  0
LINE
  5
2CA
100
AcDbEntity
  8
0
100
AcDbLine
 62
7
  6
CONTINUOUS
 10
153.9019618931
 20
84.6519390787
 11
153.9808864704
 21
84.6518496186
  0
LINE
  5
2CB
100
AcDbEntity
  8
0
100
AcDbLine
 62
7
  6
CONTINUOUS
 10
138.9200822249
 20
83.8367570729
 11
143.5400561922
 21
83.8390073636
  0
LINE
  5
2CC
100
AcDbEntity
  8
0
100
AcDbLine
 62
7
  6
CONTINUOUS
 10
120.0416880582
 20
83.8560036565
 11
130.2038638792
 21
83.8390073673
  0
LINE
  5
2CD
100
AcDbEntity
  8
0
100
AcDbLine
 62
7
  6
CONTINUOUS
 10
153.7613002607
 20
84.7482959476
 11
149.546420485
 21
84.758346619
  0
LINE
  5
2CE
100
AcDbEntity
  8
0
100
AcDbLine
 62
7
  6
CONTINUOUS
 10
120.4994071098
 20
83.8871149967
 11
120.42622532
 21
83.8875839815
  0
LINE
  5
2CF
100
AcDbEntity
  8
0
100
AcDbLine
 62
7
  6
CONTINUOUS
 10
153.3059257732
 20
84.7163407998
 11
153.3788519072
 21
84.7158710502
  0
LINE
  5
2D0
100
AcDbEntity
  8
0
100
AcDbLine
 62
7
  6
CONTINUOUS
 10
119.9637794647
 20
83.9512962007
 11
119.8923254471
 21
83.9517601815
  0
LINE
  5
2D1
100
AcDbEntity
  8
0
100
AcDbLine
 62
7
  6
CONTINUOUS
 10
153.8306349222
 20
84.652402973
 11
153.9019618931
 21
84.6519390787
  0
LINE
  5
2D2
100
AcDbEntity
  8
0
100
AcDbLine
 62
7
  6
CONTINUOUS
 10
138.8475248372
 20
83.8372531709
 11
138.9200822249
 21
83.8367570729
  0
LINE
  5
2D3
100
AcDbEntity
  8
0
100
AcDbLine
 62
7
  6
CONTINUOUS
 10
119.9911514416
 20
83.8563752222
 11
120.0416880582
 21
83.8560036565
  0
LINE
  5
2D4
100
AcDbEntity
  8
0
100
AcDbLine
 62
7
  6
CONTINUOUS
 10
153.8099511547
 20
84.7478399194
 11
153.7613002607
 21
84.7482959476
  0
LINE
  5
2D5
100
AcDbEntity
  8
0
100
AcDbLine
 62
7
  6
CONTINUOUS
 10
120.42622532
 20
83.8875839815
 11
120.3822557941
 21
83.8880739901
  0
LINE
  5
2D6
100
AcDbEntity
  8
0
100
AcDbLine
 62
7
  6
CONTINUOUS
 10
153.3788519072
 20
84.7158710502
 11
153.4225351467
 21
84.7153824547
  0
LINE
  5
2D7
100
AcDbEntity
  8
0
100
AcDbLine
 62
7
  6
CONTINUOUS
 10
138.8048438501
 20
83.8377511977
 11
138.8475248372
 21
83.8372531709
  0
LINE
  5
2D8
100
AcDbEntity
  8
0
100
AcDbLine
 62
7
  6
CONTINUOUS
 10
120.0052703744
 20
83.9507959633
 11
119.9637794647
 21
83.9512962007
  0
LINE
  5
2D9
100
AcDbEntity
  8
0
100
AcDbLine
 62
7
  6
CONTINUOUS
 10
153.7892546969
 20
84.6529030374
 11
153.8306349222
 21
84.652402973
  0
LINE
  5
2DA
100
AcDbEntity
  8
0
100
AcDbLine
 62
7
  6
CONTINUOUS
 10
119.9610606214
 20
83.8567557304
 11
119.9911514416
 21
83.8563752222
  0
LINE
  5
2DB
100
AcDbEntity
  8
0
100
AcDbLine
 62
7
  6
CONTINUOUS
 10
153.8375088199
 20
84.7474175848
 11
153.8099511547
 21
84.7478399194
  0
LINE
  5
2DC
100
AcDbEntity
  8
0
100
AcDbLine
 62
7
  6
CONTINUOUS
 10
120.3822557941
 20
83.8880739901
 11
120.3439572578
 21
83.8886840115
  0
LINE
  5
2DD
100
AcDbEntity
  8
0
100
AcDbLine
 62
7
  6
CONTINUOUS
 10
153.4225351467
 20
84.7153824547
 11
153.4605829754
 21
84.7147741142
  0
LINE
  5
2DE
100
AcDbEntity
  8
0
100
AcDbLine
 62
7
  6
CONTINUOUS
 10
138.7677930679
 20
83.8383665564
 11
138.8048438501
 21
83.8377511977
  0
LWPOLYLINE
  5
2DF
100
AcDbEntity
  8
0
100
AcDbPolyline
 62
7
  6
CONTINUOUS
 90
8
 70
0
 10
120.3439572578
 20
83.8886840115
 10
120.3121718388
 20
83.8894004393
 10
120.299117987
 20
83.889790809
 10
120.2879365022
 20
83.8902022046
 10
120.278879298
 20
83.890625455
 10
120.2720303453
 20
83.8910575033
 10
120.267305673
 20
83.8915014063
 10
120.2647052812
 20
83.8919571643
  0
LWPOLYLINE
  5
2E0
100
AcDbEntity
  8
0
100
AcDbPolyline
 62
7
  6
CONTINUOUS
 90
8
 70
0
 10
153.4605829754
 20
84.7147741142
 10
153.4921810143
 20
84.7140591123
 10
153.5051564196
 20
84.7136689946
 10
153.5162684023
 20
84.713257667
 10
153.5252545782
 20
84.7128346758
 10
153.5320274859
 20
84.7124032033
 10
153.5366745869
 20
84.7119600672
 10
153.539195881
 20
84.7115052675
  0
LWPOLYLINE
  5
2E1
100
AcDbEntity
  8
0
100
AcDbPolyline
 62
253
  6
CONTINUOUS
 90
13
 70
0
 10
153.7509730037
 20
85.3046970826
 10
153.7734007299
 20
85.3038932156
 10
153.7950859815
 20
85.3032196379
 10
153.8157410422
 20
85.3026852865
 10
153.8350918639
 20
85.3022972509
 10
153.8528817032
 20
85.3020606796
 10
153.8688745272
 20
85.3019787114
 10
153.8828581459
 20
85.3020524338
 10
153.8946470267
 20
85.3022808687
 10
153.9040847568
 20
85.3026609853
 10
153.9110461179
 20
85.3031877402
 10
153.9154387478
 20
85.3038541445
 10
153.9172043657
 20
85.3046513564
  0
LWPOLYLINE
  5
2E2
100
AcDbEntity
  8
0
100
AcDbPolyline
 62
253
  6
CONTINUOUS
 90
13
 70
0
 10
153.6500465907
 20
83.1487932077
 10
153.6724865912
 20
83.147969703
 10
153.6941871562
 20
83.1473153963
 10
153.7148601274
 20
83.146838976
 10
153.7342309917
 20
83.1465467685
 10
153.7520425267
 20
83.1464426538
 10
153.7680582157
 20
83.1465280147
 10
153.7820653892
 20
83.1468017174
 10
153.7938780481
 20
83.1472601276
 10
153.803339334
 20
83.1478971582
 10
153.8103236121
 20
83.1487043501
 10
153.8147381393
 20
83.1496709847
 10
153.8165242957
 20
83.1507842263
  0
LINE
  5
2E3
100
AcDbEntity
  8
0
100
AcDbLine
 62
253
  6
CONTINUOUS
 10
153.9083335977
 20
83.1462207644
 11
153.8165247256
 21
83.1507928291
  0
LWPOLYLINE
  5
2E4
100
AcDbEntity
  8
0
100
AcDbPolyline
 62
7
  6
CONTINUOUS
 90
8
 70
0
 10
138.6924085579
 20
83.8416600672
 10
138.6944387005
 20
83.8412075037
 10
138.6986314066
 20
83.8407645286
 10
138.7049866764
 20
83.8403311419
 10
138.7136138156
 20
83.8399031775
 10
138.7244035184
 20
83.8394848016
 10
138.7370278675
 20
83.8390885122
 10
138.7677930679
 20
83.8383665564
  0
LINE
  5
2E5
100
AcDbEntity
  8
0
100
AcDbLine
 62
7
  6
CONTINUOUS
 10
121.0281692898
 20
90.1755166186
 11
122.3719622898
 21
89.7254256186
  0
LINE
  5
2E6
100
AcDbEntity
  8
0
100
AcDbLine
 62
7
  6
CONTINUOUS
 10
122.1311912898
 20
89.6206566186
 11
120.7719622898
 21
90.0774986186
  0
LINE
  5
2E7
100
AcDbEntity
  8
0
100
AcDbLine
 62
7
  6
CONTINUOUS
 10
137.7219622898
 20
81.6928658972
 11
137.6908362498
 21
81.7084277319
  0
LINE
  5
2E8
100
AcDbEntity
  8
0
100
AcDbLine
 62
7
  6
CONTINUOUS
 10
142.1719622898
 20
69.4459919035
 11
142.0869654801
 21
69.5235552761
  0
LINE
  5
2E9
100
AcDbEntity
  8
0
100
AcDbLine
 62
7
  6
CONTINUOUS
 10
137.7097572898
 20
72.8810656186
 11
138.9110262898
 21
71.6797946186
  0
LINE
  5
2EA
100
AcDbEntity
  8
0
100
AcDbLine
 62
7
  6
CONTINUOUS
 10
139.3441492898
 20
71.6797946186
 11
138.1429172898
 21
72.8810646186
  0
LINE
  5
2EB
100
AcDbEntity
  8
0
100
AcDbLine
 62
253
  6
CONTINUOUS
 10
120.4695756907
 20
84.2728948809
 11
120.4994071097
 21
83.8871149967
  0
LINE
  5
2EC
100
AcDbEntity
  8
0
100
AcDbLine
 62
253
  6
CONTINUOUS
 10
120.2356062431
 20
84.2729566894
 11
120.2647052812
 21
83.8919571643
  0
LWPOLYLINE
  5
2ED
100
AcDbEntity
  8
0
100
AcDbPolyline
 62
253
  6
CONTINUOUS
 90
3
 70
0
 10
120.4379988063
 20
84.7163407998
 10
120.4438169534
 20
84.6313219344
 10
120.4695756907
 20
84.2728948809
  0
LWPOLYLINE
  5
2EE
100
AcDbEntity
  8
0
100
AcDbPolyline
 62
253
  6
CONTINUOUS
 90
3
 70
0
 10
120.2047286985
 20
84.7115052675
 10
120.2104398836
 20
84.627305458
 10
120.2356062431
 20
84.2729566894
  0
LINE
  5
2EF
100
AcDbEntity
  8
0
100
AcDbLine
 62
253
  6
CONTINUOUS
 10
119.9273998537
 20
83.1507928174
 11
119.893307263
 21
83.8593091643
  0
LINE
  5
2F0
100
AcDbEntity
  8
0
100
AcDbLine
 62
253
  6
CONTINUOUS
 10
120.0938779889
 20
83.1487932077
 11
120.0597998088
 21
83.8559349624
  0
LWPOLYLINE
  5
2F1
100
AcDbEntity
  8
0
100
AcDbPolyline
 62
253
  6
CONTINUOUS
 90
21
 70
0
 10
120.0181452368
 20
84.7484610251
 10
119.9204501083
 20
86.9411194046
 10
119.8508366444
 20
88.6992228435
 10
119.7843404269
 20
90.5790350779
 10
119.7197993369
 20
92.5951108411
 10
119.6589100162
 20
94.7329373321
 10
119.6061353873
 20
96.948914852
 10
119.5622318357
 20
99.2430414518
 10
119.5268680874
 20
101.6152729128
 10
119.5026948172
 20
104.0219081914
 10
119.4905070494
 20
106.4656560958
 10
119.4897186976
 20
108.9437015167
 10
119.50065968
 20
111.4040410277
 10
119.524150463
 20
113.8495042143
 10
119.5592547894
 20
116.277146964
 10
119.6033708304
 20
118.6263214954
 10
119.6570949291
 20
120.8972719069
 10
119.7193908271
 20
123.0897017651
 10
119.7849423816
 20
125.142201536
 10
119.8517264703
 20
127.0343296704
 10
119.9211487563
 20
128.7865849236
  0
LWPOLYLINE
  5
2F2
100
AcDbEntity
  8
0
100
AcDbPolyline
 62
253
  6
CONTINUOUS
 90
21
 70
0
 10
119.8520283623
 20
84.7450815489
 10
119.7562708627
 20
86.9410780953
 10
119.6864643837
 20
88.699184432
 10
119.6185901218
 20
90.5789999235
 10
119.5536048217
 20
92.5950801512
 10
119.493522825
 20
94.7329114429
 10
119.4407934739
 20
96.9488925997
 10
119.3964490339
 20
99.2430238868
 10
119.3615786538
 20
101.6152611608
 10
119.3375888901
 20
104.0219003603
 10
119.3249572462
 20
106.4656527021
 10
119.3242360973
 20
108.94370443
 10
119.3355583879
 20
111.4040482804
 10
119.3586805519
 20
113.8495154364
 10
119.3933508159
 20
116.2771641765
 10
119.4380352337
 20
118.6263434756
 10
119.4916164681
 20
120.8972975003
 10
119.5530313456
 20
123.0897322803
 10
119.6191906915
 20
125.1422367007
 10
119.6876028146
 20
127.0343681428
 10
119.757271687
 20
128.7866261397
  0
LINE
  5
2F3
100
AcDbEntity
  8
0
100
AcDbLine
 62
253
  6
CONTINUOUS
 10
119.757271687
 20
128.7866261397
 11
119.8520283623
 21
130.9586176882
  0
LINE
  5
2F4
100
AcDbEntity
  8
0
100
AcDbLine
 62
253
  6
CONTINUOUS
 10
119.9211487563
 20
128.7865849236
 11
120.0181452368
 21
130.9552382121
  0
LINE
  5
2F5
100
AcDbEntity
  8
0
100
AcDbLine
 62
253
  6
CONTINUOUS
 10
119.893307263
 20
131.8443900728
 11
119.9273998524
 21
132.5529063918
  0
LINE
  5
2F6
100
AcDbEntity
  8
0
100
AcDbLine
 62
253
  6
CONTINUOUS
 10
120.0597998088
 20
131.8477642747
 11
120.0938779889
 21
132.5549060295
  0
LWPOLYLINE
  5
2F7
100
AcDbEntity
  8
0
100
AcDbPolyline
 62
253
  6
CONTINUOUS
 90
10
 70
0
 10
119.9273998532
 20
132.5529063917
 10
119.961862912
 20
133.1964460776
 10
120.0024254182
 20
133.8395355108
 10
120.0490809889
 20
134.4821172592
 10
120.1018225914
 20
135.1241315859
 10
120.1606428384
 20
135.7655236386
 10
120.2255342165
 20
136.4062434429
 10
120.2964885906
 20
137.0462363296
 10
120.3734969761
 20
137.6854429516
 10
120.4565499936
 20
138.3238064644
  0
LWPOLYLINE
  5
2F8
100
AcDbEntity
  8
0
100
AcDbPolyline
 62
253
  6
CONTINUOUS
 90
10
 70
0
 10
120.0938779889
 20
132.5549060295
 10
120.1283182462
 20
133.1974736226
 10
120.1688782258
 20
133.8395042559
 10
120.2155424839
 20
134.4809861947
 10
120.2682826344
 20
135.1219516327
 10
120.3270924786
 20
135.7623450078
 10
120.3919876372
 20
136.4020231522
 10
120.462958883
 20
137.0409308169
 10
120.5399725035
 20
137.6791005217
 10
120.6230051733
 20
138.316520975
  0
LINE
  5
2F9
100
AcDbEntity
  8
0
100
AcDbLine
 62
253
  6
CONTINUOUS
 10
120.2047286985
 20
130.9921939696
 11
120.22895663
 21
131.3395721312
  0
LINE
  5
2FA
100
AcDbEntity
  8
0
100
AcDbLine
 62
253
  6
CONTINUOUS
 10
120.4379988063
 20
130.9873584373
 11
120.4627645418
 21
131.3384513302
  0
LWPOLYLINE
  5
2FB
100
AcDbEntity
  8
0
100
AcDbPolyline
 62
253
  6
CONTINUOUS
 90
3
 70
0
 10
120.22895663
 20
131.3395721312
 10
120.2570353405
 20
131.7139581817
 10
120.2647052812
 20
131.8117420729
  0
LWPOLYLINE
  5
2FC
100
AcDbEntity
  8
0
100
AcDbPolyline
 62
253
  6
CONTINUOUS
 90
3
 70
0
 10
120.4627645418
 20
131.3384513302
 10
120.491550576
 20
131.7175280739
 10
120.4994071097
 20
131.8165842404
  0
LWPOLYLINE
  5
2FD
100
AcDbEntity
  8
0
100
AcDbPolyline
 62
253
  6
CONTINUOUS
 90
25
 70
0
 10
120.6230051733
 20
138.316520975
 10
120.6546614213
 20
138.5314850945
 10
120.6924836989
 20
138.7470511534
 10
120.7364669911
 20
138.9632184132
 10
120.785690033
 20
139.1781637209
 10
120.8410640958
 20
139.3937092891
 10
120.9053334588
 20
139.6153198792
 10
120.9788863131
 20
139.8454954744
 10
121.0613251316
 20
140.081728177
 10
121.1542138423
 20
140.3219692209
 10
121.2576600949
 20
140.5663431208
 10
121.3715410566
 20
140.8147195175
 10
121.4970717399
 20
141.0646696674
 10
121.6347550025
 20
141.3167036268
 10
121.7840693388
 20
141.5703077331
 10
121.9446925677
 20
141.8215214714
 10
122.1171130662
 20
142.0703367143
 10
122.3008257345
 20
142.3167630772
 10
122.4940214997
 20
142.5568716164
 10
122.696668706
 20
142.7900535515
 10
122.9087908329
 20
143.0169244153
 10
123.1286668363
 20
143.2353954499
 10
123.3557242453
 20
143.4447738783
 10
123.590537115
 20
143.645761495
 10
123.833107592
 20
143.8383625345
  0
LWPOLYLINE
  5
2FE
100
AcDbEntity
  8
0
100
AcDbPolyline
 62
253
  6
CONTINUOUS
 90
25
 70
0
 10
120.4565499923
 20
138.3238064645
 10
120.4891590514
 20
138.5438163207
 10
120.527838228
 20
138.7647941382
 10
120.5727095595
 20
138.9865615132
 10
120.6233597134
 20
139.2067612541
 10
120.6803171604
 20
139.4274016166
 10
120.7456305278
 20
139.654707236
 10
120.8207279708
 20
139.8906781603
 10
120.9056031384
 20
140.1324773596
 10
121.0006174804
 20
140.3788942423
 10
121.1063651036
 20
140.6294522284
 10
121.2234186159
 20
140.8835875672
 10
121.3519558589
 20
141.1399455239
 10
121.4927492171
 20
141.3984350155
 10
121.6460075608
 20
141.6578752492
 10
121.8107228783
 20
141.9153843014
 10
121.987177384
 20
142.1705196479
 10
122.1754373012
 20
142.4225313188
 10
122.3736188057
 20
142.6683872636
 10
122.581181534
 20
142.9072507395
 10
122.7982860067
 20
143.1391490135
 10
123.0236785162
 20
143.3626663253
 10
123.2566669512
 20
143.5771921115
 10
123.4972522127
 20
143.7827984467
 10
123.7450876941
 20
143.9792236177
  0
LINE
  5
2FF
100
AcDbEntity
  8
0
100
AcDbLine
 62
7
  6
CONTINUOUS
 10
130.8678269054
 20
145.7897078458
 11
130.8141345373
 21
145.62849975
  0
LWPOLYLINE
  5
300
100
AcDbEntity
  8
0
100
AcDbPolyline
 62
7
  6
CONTINUOUS
 90
10
 70
0
 10
137.4847105062
 20
135.064597835
 10
137.4847946712
 20
135.064691708
 10
137.4848787962
 20
135.06480494
 10
137.4849628813
 20
135.0649375309
 10
137.4850469317
 20
135.0650894917
 10
137.4851309422
 20
135.0652608115
 10
137.4852148963
 20
135.0654514568
 10
137.4852987888
 20
135.0656614165
 10
137.4853826249
 20
135.0658907017
 10
137.4854664047
 20
135.0661393124
  0
LWPOLYLINE
  5
301
100
AcDbEntity
  8
0
100
AcDbPolyline
 62
7
  6
CONTINUOUS
 90
3
 70
0
 10
137.5568264563
 20
135.5930200945
 10
137.5718454023
 20
135.6092346507
 10
137.6040702042
 20
135.6435860894
  0
LINE
  5
302
100
AcDbEntity
  8
0
100
AcDbLine
 62
7
  6
CONTINUOUS
 10
137.5438456935
 20
135.1367761196
 11
137.5887932752
 21
135.1852023262
  0
LINE
  5
303
100
AcDbEntity
  8
0
100
AcDbLine
 62
7
  6
CONTINUOUS
 10
137.5887932752
 20
135.1852023262
 11
137.6397468622
 21
135.2387051385
  0
LINE
  5
304
100
AcDbEntity
  8
0
100
AcDbLine
 62
7
  6
CONTINUOUS
 10
137.6040702042
 20
135.6435860894
 11
137.6564233596
 21
135.6983056776
  0
LINE
  5
305
100
AcDbEntity
  8
0
100
AcDbLine
 62
7
  6
CONTINUOUS
 10
137.6397468622
 20
135.2387051385
 11
137.6941598027
 21
135.2947955193
  0
LINE
  5
306
100
AcDbEntity
  8
0
100
AcDbLine
 62
7
  6
CONTINUOUS
 10
137.6564233596
 20
135.6983056776
 11
137.7114793132
 21
135.7548266198
  0
LWPOLYLINE
  5
307
100
AcDbEntity
  8
0
100
AcDbPolyline
 62
7
  6
CONTINUOUS
 90
4
 70
0
 10
137.6941598027
 20
135.2947955193
 10
137.7496664014
 20
135.3512292241
 10
137.7680337702
 20
135.3697332468
 10
137.7863616739
 20
135.3879585483
  0
LINE
  5
308
100
AcDbEntity
  8
0
100
AcDbLine
 62
7
  6
CONTINUOUS
 10
137.7114793132
 20
135.7548266198
 11
137.7300285055
 21
135.7736528694
  0
LINE
  5
309
100
AcDbEntity
  8
0
100
AcDbLine
 62
7
  6
CONTINUOUS
 10
137.7300285055
 20
135.7736528694
 11
137.7851232212
 21
135.8291032434
  0
LINE
  5
30A
100
AcDbEntity
  8
0
100
AcDbLine
 62
7
  6
CONTINUOUS
 10
142.0983571646
 20
142.8602832985
 11
142.0757689081
 21
142.837695042
  0
LINE
  5
30B
100
AcDbEntity
  8
0
100
AcDbLine
 62
7
  6
CONTINUOUS
 10
137.4847105062
 20
135.064597835
 11
137.2719622898
 21
134.8518496186
  0
LINE
  5
30C
100
AcDbEntity
  8
0
100
AcDbLine
 62
253
  6
CONTINUOUS
 10
138.1752805502
 20
134.8549851271
 11
138.3846719847
 21
135.0643672797
  0
LINE
  5
30D
100
AcDbEntity
  8
0
100
AcDbLine
 62
253
  6
CONTINUOUS
 10
138.4855612693
 20
134.56563135
 11
138.6858227298
 21
134.7658898078
  0
LINE
  5
30E
100
AcDbEntity
  8
0
100
AcDbLine
 62
7
  6
CONTINUOUS
 10
135.2583633102
 20
134.0590125168
 11
135.6616234837
 21
134.4518496186
  0
LINE
  5
30F
100
AcDbEntity
  8
0
100
AcDbLine
 62
7
  6
CONTINUOUS
 10
138.6924085579
 20
131.8620391699
 11
138.6360899064
 21
131.8338884237
  0
LINE
  5
310
100
AcDbEntity
  8
0
100
AcDbLine
 62
7
  6
CONTINUOUS
 10
152.9694152898
 20
93.7296546186
 11
152.6300622898
 21
93.6377356186
  0
LWPOLYLINE
  5
311
100
AcDbEntity
  8
0
100
AcDbPolyline
 62
7
  6
CONTINUOUS
 90
7
 70
0
 10
120.2047286985
 20
84.7115052675
 10
120.2072576076
 20
84.7119602935
 10
120.2119051296
 20
84.7124034525
 10
120.2186712646
 20
84.7128347445
 10
120.2276394553
 20
84.7132572043
 10
120.2387262589
 20
84.7136677972
 10
120.2516813475
 20
84.7140574185
  0
LINE
  5
312
100
AcDbEntity
  8
0
100
AcDbLine
 62
7
  6
CONTINUOUS
 10
122.3719622898
 20
88.8518496186
 11
120.7719622898
 21
88.8518496186
  0
LINE
  5
313
100
AcDbEntity
  8
0
100
AcDbLine
 62
7
  6
CONTINUOUS
 10
121.0303692898
 20
89.0613116186
 11
122.3719622898
 21
89.0613116186
  0
LWPOLYLINE
  5
314
100
AcDbEntity
  8
0
100
AcDbPolyline
 62
7
  6
CONTINUOUS
 90
8
 70
0
 10
153.7025577323
 20
84.6559850029
 10
153.7051767548
 20
84.6555422499
 10
153.7102309665
 20
84.6551132629
 10
153.7177203675
 20
84.654698042
 10
153.7278211225
 20
84.6542913833
 10
153.7403570667
 20
84.6538984907
 10
153.7547997057
 20
84.6535349758
 10
153.7892546969
 20
84.6529030374
  0
LWPOLYLINE
  5
315
100
AcDbEntity
  8
0
100
AcDbPolyline
 62
7
  6
CONTINUOUS
 90
8
 70
0
 10
153.8918962172
 20
84.745081549
 10
153.8907314225
 20
84.7454051162
 10
153.8879086993
 20
84.7457214838
 10
153.8834280476
 20
84.7460306519
 10
153.8771912846
 20
84.7463361618
 10
153.8692965932
 20
84.7466344722
 10
153.8600385216
 20
84.7469149588
 10
153.8375088199
 20
84.7474175848
  0
LINE
  5
316
100
AcDbEntity
  8
0
100
AcDbLine
 62
7
  6
CONTINUOUS
 10
121.9062602898
 20
90.9666916186
 11
122.3719622898
 21
90.7995366186
  0
LINE
  5
317
100
AcDbEntity
  8
0
100
AcDbLine
 62
7
  6
CONTINUOUS
 10
121.0040402898
 20
91.2921406186
 11
121.7146232898
 21
91.0335646186
  0
LINE
  5
318
100
AcDbEntity
  8
0
100
AcDbLine
 62
7
  6
CONTINUOUS
 10
122.3719622898
 20
90.5767136186
 11
120.7719622898
 21
91.1783606186
  0
LINE
  5
319
100
AcDbEntity
  8
0
100
AcDbLine
 62
7
  6
CONTINUOUS
 10
138.6924085579
 20
83.8416600672
 11
138.6360899064
 21
83.8698108134
  0
LINE
  5
31A
100
AcDbEntity
  8
0
100
AcDbLine
 62
7
  6
CONTINUOUS
 10
135.2583633102
 20
81.6446867203
 11
135.6616234837
 21
81.2518496186
  0
LINE
  5
31B
100
AcDbEntity
  8
0
100
AcDbLine
 62
7
  6
CONTINUOUS
 10
142.0983571646
 20
72.8434159386
 11
142.0757689081
 21
72.8660041951
  0
LINE
  5
31C
100
AcDbEntity
  8
0
100
AcDbLine
 62
7
  6
CONTINUOUS
 10
137.4847105062
 20
80.6391014022
 11
137.2719622898
 21
80.8518496186
  0
LINE
  5
31D
100
AcDbEntity
  8
0
100
AcDbLine
 62
253
  6
CONTINUOUS
 10
138.1752805502
 20
80.8487141101
 11
138.3846597656
 21
80.6393319536
  0
LINE
  5
31E
100
AcDbEntity
  8
0
100
AcDbLine
 62
253
  6
CONTINUOUS
 10
138.4855612693
 20
81.1380678871
 11
138.6858226986
 21
80.9377969172
  0
LWPOLYLINE
  5
31F
100
AcDbEntity
  8
0
100
AcDbPolyline
 62
7
  6
CONTINUOUS
 90
3
 70
0
 10
137.7484327927
 20
79.9113281583
 10
137.7667977485
 20
79.8928210508
 10
137.7851232212
 20
79.8745959938
  0
LINE
  5
320
100
AcDbEntity
  8
0
100
AcDbLine
 62
7
  6
CONTINUOUS
 10
137.7312597315
 20
80.3711816589
 11
137.7863616739
 21
80.3157406887
  0
LINE
  5
321
100
AcDbEntity
  8
0
100
AcDbLine
 62
7
  6
CONTINUOUS
 10
137.7127082144
 20
80.3899977249
 11
137.7312597315
 21
80.3711816589
  0
LINE
  5
322
100
AcDbEntity
  8
0
100
AcDbLine
 62
7
  6
CONTINUOUS
 10
137.6929331698
 20
79.9677924979
 11
137.7484327927
 21
79.9113281583
  0
LINE
  5
323
100
AcDbEntity
  8
0
100
AcDbLine
 62
7
  6
CONTINUOUS
 10
137.6576456807
 20
80.4464654886
 11
137.7127082144
 21
80.3899977249
  0
LINE
  5
324
100
AcDbEntity
  8
0
100
AcDbLine
 62
7
  6
CONTINUOUS
 10
137.6385265703
 20
80.0239476992
 11
137.6929331698
 21
79.9677924979
  0
LINE
  5
325
100
AcDbEntity
  8
0
100
AcDbLine
 62
7
  6
CONTINUOUS
 10
137.5875784496
 20
80.0775518697
 11
137.6385265703
 21
80.0239476992
  0
LWPOLYLINE
  5
326
100
AcDbEntity
  8
0
100
AcDbPolyline
 62
7
  6
CONTINUOUS
 90
3
 70
0
 10
137.5730586303
 20
80.5353672149
 10
137.6052867433
 20
80.5010961381
 10
137.6576456807
 20
80.4464654886
  0
LWPOLYLINE
  5
327
100
AcDbEntity
  8
0
100
AcDbPolyline
 62
7
  6
CONTINUOUS
 90
3
 70
0
 10
137.5308497029
 20
80.581417581
 10
137.558038212
 20
80.551534899
 10
137.5730586303
 20
80.5353672149
  0
LWPOLYLINE
  5
328
100
AcDbEntity
  8
0
100
AcDbPolyline
 62
7
  6
CONTINUOUS
 90
4
 70
0
 10
137.5296405095
 20
80.1406693997
 10
137.542635281
 20
80.1261186963
 10
137.5568496195
 20
80.1107021743
 10
137.5875784496
 20
80.0775518697
  0
LINE
  5
329
100
AcDbEntity
  8
0
100
AcDbLine
 62
7
  6
CONTINUOUS
 10
130.8678269054
 20
69.9139913914
 11
130.8141345373
 21
70.0751994872
  0
LWPOLYLINE
  5
32A
100
AcDbEntity
  8
0
100
AcDbPolyline
 62
253
  6
CONTINUOUS
 90
10
 70
0
 10
120.6230051733
 20
77.3871782622
 10
120.5399724938
 20
78.0245988058
 10
120.4629588675
 20
78.6627685651
 10
120.3919876198
 20
79.3016762486
 10
120.327092465
 20
79.9413543584
 10
120.2682826284
 20
80.581747663
 10
120.2155424835
 20
81.2227130476
 10
120.1688782274
 20
81.8641949676
 10
120.1283182478
 20
82.5062255992
 10
120.0938779889
 20
83.1487932077
  0
LWPOLYLINE
  5
32B
100
AcDbEntity
  8
0
100
AcDbPolyline
 62
253
  6
CONTINUOUS
 90
10
 70
0
 10
120.4565378734
 20
77.3799825516
 10
120.3734907069
 20
78.0183063142
 10
120.2964862612
 20
78.6574830506
 10
120.2255341991
 20
79.2974559582
 10
120.1606434694
 20
79.9381690496
 10
120.1018228761
 20
80.5795643695
 10
120.0490809885
 20
81.2215819831
 10
120.0024254195
 20
81.8641637065
 10
119.9618629137
 20
82.5072531286
 10
119.9273998545
 20
83.1507928175
  0
LWPOLYLINE
  5
32C
100
AcDbEntity
  8
0
100
AcDbPolyline
 62
7
  6
CONTINUOUS
 90
34
 70
0
 10
122.1870532898
 20
92.8553498942
 10
122.1859507431
 20
92.8786538935
 10
122.1836531694
 20
92.9018804573
 10
122.180160545
 20
92.9250295854
 10
122.175473775
 20
92.9482167463
 10
122.1695919363
 20
92.9713264711
 10
122.1625122734
 20
92.9940123511
 10
122.1541837056
 20
93.016282688
 10
122.1446573509
 20
93.0381291767
 10
122.1340837596
 20
93.0591804952
 10
122.1224833939
 20
93.0793245528
 10
122.1098358802
 20
93.0986734342
 10
122.0962305196
 20
93.1171920787
 10
122.0817502876
 20
93.1348345241
 10
122.0663123425
 20
93.1516467272
 10
122.04975728
 20
93.1677315072
 10
122.0320907035
 20
93.1831370046
 10
122.0133072301
 20
93.197815075
 10
121.9932310239
 20
93.2117241101
 10
121.9718518595
 20
93.2249142314
 10
121.949180301
 20
93.2373353139
 10
121.9250717618
 20
93.2487953789
 10
121.8993568224
 20
93.2592213606
 10
121.8722054132
 20
93.268686321
 10
121.8439819641
 20
93.2772174735
 10
121.8145323888
 20
93.2848321289
 10
121.7840112612
 20
93.2915129737
 10
121.7532457974
 20
93.2972352854
 10
121.7222604685
 20
93.3020170411
 10
121.6910309905
 20
93.3058402619
 10
121.6603111358
 20
93.3086262904
 10
121.6303520575
 20
93.3103489071
 10
121.60090246
 20
93.3110343307
 10
121.5719622898
 20
93.310682561
  0
LINE
  5
32D
100
AcDbEntity
  8
0
100
AcDbLine
 62
7
  6
CONTINUOUS
 10
120.6481542898
 20
124.4795836186
 11
120.6481542898
 21
125.2276036186
  0
LINE
  5
32E
100
AcDbEntity
  8
0
100
AcDbLine
 62
7
  6
CONTINUOUS
 10
120.7719622898
 20
88.8518496186
 11
120.7719622898
 21
89.1616126186
  0
LINE
  5
32F
100
AcDbEntity
  8
0
100
AcDbLine
 62
7
  6
CONTINUOUS
 10
120.7719622898
 20
90.0774986186
 11
120.7719622898
 21
90.3850636186
  0
LINE
  5
330
100
AcDbEntity
  8
0
100
AcDbLine
 62
7
  6
CONTINUOUS
 10
120.7719622898
 20
91.1783606186
 11
120.7719622898
 21
91.4235296186
  0
LINE
  5
331
100
AcDbEntity
  8
0
100
AcDbLine
 62
7
  6
CONTINUOUS
 10
120.7719622898
 20
92.2123496186
 11
120.7719622898
 21
92.8676542519
  0
LINE
  5
332
100
AcDbEntity
  8
0
100
AcDbLine
 62
7
  6
CONTINUOUS
 10
120.7719622898
 20
93.8324716186
 11
120.7719622898
 21
94.9979936186
  0
LINE
  5
333
100
AcDbEntity
  8
0
100
AcDbLine
 62
7
  6
CONTINUOUS
 10
120.7719622898
 20
95.9495956186
 11
120.7719622898
 21
96.1657406186
  0
LINE
  5
334
100
AcDbEntity
  8
0
100
AcDbLine
 62
7
  6
CONTINUOUS
 10
120.7719622898
 20
96.5356106186
 11
120.7719622898
 21
96.7919346186
  0
LINE
  5
335
100
AcDbEntity
  8
0
100
AcDbLine
 62
7
  6
CONTINUOUS
 10
120.7719622898
 20
97.5964636186
 11
120.7719622898
 21
97.8059186186
  0
LINE
  5
336
100
AcDbEntity
  8
0
100
AcDbLine
 62
7
  6
CONTINUOUS
 10
120.7719622898
 20
98.7975436186
 11
120.7719622898
 21
99.0137536186
  0
LINE
  5
337
100
AcDbEntity
  8
0
100
AcDbLine
 62
7
  6
CONTINUOUS
 10
120.7719622898
 20
99.2455176186
 11
120.7719622898
 21
100.5447076186
  0
LINE
  5
338
100
AcDbEntity
  8
0
100
AcDbLine
 62
7
  6
CONTINUOUS
 10
120.7719622898
 20
101.2088276186
 11
120.7719622898
 21
101.4539186186
  0
LINE
  5
339
100
AcDbEntity
  8
0
100
AcDbLine
 62
7
  6
CONTINUOUS
 10
120.7719622898
 20
102.2316366186
 11
120.7719622898
 21
102.4478596186
  0
LINE
  5
33A
100
AcDbEntity
  8
0
100
AcDbLine
 62
7
  6
CONTINUOUS
 10
120.7719622898
 20
103.3325506186
 11
120.7719622898
 21
103.5843576186
  0
LINE
  5
33B
100
AcDbEntity
  8
0
100
AcDbLine
 62
7
  6
CONTINUOUS
 10
120.7719622898
 20
104.5024336186
 11
120.7719622898
 21
104.7565696186
  0
LINE
  5
33C
100
AcDbEntity
  8
0
100
AcDbLine
 62
7
  6
CONTINUOUS
 10
120.9194792898
 20
125.2276036186
 11
120.9194792898
 21
124.9973726186
  0
LINE
  5
33D
100
AcDbEntity
  8
0
100
AcDbLine
 62
7
  6
CONTINUOUS
 10
120.9194792898
 20
124.7099076186
 11
120.9194792898
 21
124.4795836186
  0
LINE
  5
33E
100
AcDbEntity
  8
0
100
AcDbLine
 62
7
  6
CONTINUOUS
 10
120.9568712898
 20
92.8553498942
 11
120.9568712898
 21
92.4285736186
  0
LINE
  5
33F
100
AcDbEntity
  8
0
100
AcDbLine
 62
7
  6
CONTINUOUS
 10
120.9636002898
 20
100.5447076186
 11
120.9636002898
 21
100.0031786186
  0
LINE
  5
340
100
AcDbEntity
  8
0
100
AcDbLine
 62
7
  6
CONTINUOUS
 10
120.9636002898
 20
99.7870466186
 11
120.9636002898
 21
99.2455176186
  0
LINE
  5
341
100
AcDbEntity
  8
0
100
AcDbLine
 62
7
  6
CONTINUOUS
 10
120.9636002898
 20
94.9979936186
 11
120.9636002898
 21
94.0486816186
  0
LINE
  5
342
100
AcDbEntity
  8
0
100
AcDbLine
 62
7
  6
CONTINUOUS
 10
121.4538872898
 20
94.0486816186
 11
121.4538872898
 21
94.9244566186
  0
LINE
  5
343
100
AcDbEntity
  8
0
100
AcDbLine
 62
7
  6
CONTINUOUS
 10
121.6455242898
 20
94.9244566186
 11
121.6455242898
 21
94.0486816186
  0
LINE
  5
344
100
AcDbEntity
  8
0
100
AcDbLine
 62
7
  6
CONTINUOUS
 10
121.7146232898
 20
91.0335646186
 11
121.7146232898
 21
91.5305156186
  0
LINE
  5
345
100
AcDbEntity
  8
0
100
AcDbLine
 62
7
  6
CONTINUOUS
 10
121.7146232898
 20
101.0639406186
 11
121.7146232898
 21
101.5608916186
  0
LINE
  5
346
100
AcDbEntity
  8
0
100
AcDbLine
 62
7
  6
CONTINUOUS
 10
121.9062602898
 20
101.6389056186
 11
121.9062602898
 21
100.9970806186
  0
LINE
  5
347
100
AcDbEntity
  8
0
100
AcDbLine
 62
7
  6
CONTINUOUS
 10
121.9062602898
 20
91.6084516186
 11
121.9062602898
 21
90.9666916186
  0
LINE
  5
348
100
AcDbEntity
  8
0
100
AcDbLine
 62
7
  6
CONTINUOUS
 10
122.1803242898
 20
94.0486816186
 11
122.1803242898
 21
95.0136116186
  0
LINE
  5
349
100
AcDbEntity
  8
0
100
AcDbLine
 62
7
  6
CONTINUOUS
 10
122.1803242898
 20
102.4478596186
 11
122.1803242898
 21
103.2590526186
  0
LINE
  5
34A
100
AcDbEntity
  8
0
100
AcDbLine
 62
7
  6
CONTINUOUS
 10
122.1870532898
 20
92.4285736186
 11
122.1870532898
 21
92.8553498942
  0
LINE
  5
34B
100
AcDbEntity
  8
0
100
AcDbLine
 62
7
  6
CONTINUOUS
 10
122.3719622898
 20
104.1525426186
 11
122.3719622898
 21
103.9364486186
  0
LINE
  5
34C
100
AcDbEntity
  8
0
100
AcDbLine
 62
7
  6
CONTINUOUS
 10
122.3719622898
 20
103.2590526186
 11
122.3719622898
 21
102.2316366186
  0
LINE
  5
34D
100
AcDbEntity
  8
0
100
AcDbLine
 62
7
  6
CONTINUOUS
 10
122.3719622898
 20
102.0333996186
 11
122.3719622898
 21
101.7971196186
  0
LINE
  5
34E
100
AcDbEntity
  8
0
100
AcDbLine
 62
7
  6
CONTINUOUS
 10
122.3719622898
 20
100.8299126186
 11
122.3719622898
 21
100.6071026186
  0
LINE
  5
34F
100
AcDbEntity
  8
0
100
AcDbLine
 62
7
  6
CONTINUOUS
 10
122.3719622898
 20
100.0031786186
 11
122.3719622898
 21
99.7870466186
  0
LINE
  5
350
100
AcDbEntity
  8
0
100
AcDbLine
 62
7
  6
CONTINUOUS
 10
122.3719622898
 20
99.0137536186
 11
122.3719622898
 21
98.7975436186
  0
LINE
  5
351
100
AcDbEntity
  8
0
100
AcDbLine
 62
7
  6
CONTINUOUS
 10
122.3719622898
 20
97.8059186186
 11
122.3719622898
 21
97.5630266186
  0
LINE
  5
352
100
AcDbEntity
  8
0
100
AcDbLine
 62
7
  6
CONTINUOUS
 10
122.3719622898
 20
96.7451696186
 11
122.3719622898
 21
96.5356106186
  0
LINE
  5
353
100
AcDbEntity
  8
0
100
AcDbLine
 62
7
  6
CONTINUOUS
 10
122.3719622898
 20
96.1657406186
 11
122.3719622898
 21
95.9495956186
  0
LINE
  5
354
100
AcDbEntity
  8
0
100
AcDbLine
 62
7
  6
CONTINUOUS
 10
122.3719622898
 20
95.0136116186
 11
122.3719622898
 21
93.8324716186
  0
LINE
  5
355
100
AcDbEntity
  8
0
100
AcDbLine
 62
7
  6
CONTINUOUS
 10
122.3719622898
 20
92.860851414
 11
122.3719622898
 21
92.2123496186
  0
LINE
  5
356
100
AcDbEntity
  8
0
100
AcDbLine
 62
7
  6
CONTINUOUS
 10
122.3719622898
 20
92.0028946186
 11
122.3719622898
 21
91.7666536186
  0
LINE
  5
357
100
AcDbEntity
  8
0
100
AcDbLine
 62
7
  6
CONTINUOUS
 10
122.3719622898
 20
90.7995366186
 11
122.3719622898
 21
90.5767136186
  0
LINE
  5
358
100
AcDbEntity
  8
0
100
AcDbLine
 62
7
  6
CONTINUOUS
 10
122.3719622898
 20
90.3850636186
 11
122.3719622898
 21
90.1755166186
  0
LINE
  5
359
100
AcDbEntity
  8
0
100
AcDbLine
 62
7
  6
CONTINUOUS
 10
122.3719622898
 20
89.7254256186
 11
122.3719622898
 21
89.5114896186
  0
LINE
  5
35A
100
AcDbEntity
  8
0
100
AcDbLine
 62
7
  6
CONTINUOUS
 10
122.3719622898
 20
89.0613116186
 11
122.3719622898
 21
88.8518496186
  0
LINE
  5
35B
100
AcDbEntity
  8
0
100
AcDbLine
 62
7
  6
CONTINUOUS
 10
122.8365592898
 20
124.4707716186
 11
122.8365592898
 21
124.7099076186
  0
LINE
  5
35C
100
AcDbEntity
  8
0
100
AcDbLine
 62
7
  6
CONTINUOUS
 10
122.8365592898
 20
124.9973726186
 11
122.8365592898
 21
125.2364166186
  0
LWPOLYLINE
  5
35D
100
AcDbEntity
  8
0
100
AcDbPolyline
 62
7
  6
CONTINUOUS
 90
34
 70
0
 10
120.7719622898
 20
92.8676542519
 10
120.7727646076
 20
92.9018048689
 10
120.7752934876
 20
92.9359998028
 10
120.7795490508
 20
92.9702390537
 10
120.7855027845
 20
93.0047392044
 10
120.793183515
 20
93.0392836733
 10
120.8026773871
 20
93.07322271
 10
120.8140714627
 20
93.1066010602
 10
120.827279093
 20
93.1393739709
 10
120.8421258056
 20
93.1707574348
 10
120.8586884749
 20
93.2005031414
 10
120.8768906117
 20
93.2288593852
 10
120.8963275816
 20
93.2557870624
 10
120.9169174532
 20
93.2811363714
 10
120.9387424469
 20
93.3050571
 10
120.9616440834
 20
93.3279595312
 10
120.9854366181
 20
93.3500624722
 10
121.0103061018
 20
93.3711471082
 10
121.0366518212
 20
93.3909672892
 10
121.0645694336
 20
93.4093976889
 10
121.0939638085
 20
93.4265636249
 10
121.1249481732
 20
93.4425949128
 10
121.1576854236
 20
93.4575464547
 10
121.1920133508
 20
93.4713633426
 10
121.2275574754
 20
93.4840106777
 10
121.2644526287
 20
93.4956590615
 10
121.3025645178
 20
93.5061378878
 10
121.3411146243
 20
93.5149004463
 10
121.3801430983
 20
93.5216625672
 10
121.4196097946
 20
93.5267084153
 10
121.4586152549
 20
93.5303437814
 10
121.4968594054
 20
93.5326705954
 10
121.5346418215
 20
93.5335869261
 10
121.5719622898
 20
93.5330927732
  0
LWPOLYLINE
  5
35E
100
AcDbEntity
  8
0
100
AcDbPolyline
 62
7
  6
CONTINUOUS
 90
9
 70
0
 10
130.7873346953
 20
146.0947479312
 10
130.7870087919
 20
146.0935140459
 10
130.7866901752
 20
146.0905808684
 10
130.7863788453
 20
146.0859483988
 10
130.7860711458
 20
146.0795153414
 10
130.7857707331
 20
146.0713829917
 10
130.7854885761
 20
146.0618552369
 10
130.7852271729
 20
146.0509720597
 10
130.7847626082
 20
146.0252034281
  0
LWPOLYLINE
  5
35F
100
AcDbEntity
  8
0
100
AcDbPolyline
 62
7
  6
CONTINUOUS
 90
5
 70
0
 10
137.4854664047
 20
135.0661393124
 10
137.4882861527
 20
135.0705338388
 10
137.4930032707
 20
135.0773131515
 10
137.4996179352
 20
135.0861744962
 10
137.5083564999
 20
135.0967859579
  0
LWPOLYLINE
  5
360
100
AcDbEntity
  8
0
100
AcDbPolyline
 62
7
  6
CONTINUOUS
 90
3
 70
0
 10
137.5083564999
 20
135.0967859579
 10
137.5308497028
 20
135.1222816554
 10
137.5438456935
 20
135.1367761196
  0
LINE
  5
361
100
AcDbEntity
  8
0
100
AcDbLine
 62
7
  6
CONTINUOUS
 10
136.0219622898
 20
131.8338884237
 11
136.0554006801
 21
131.867326814
  0
LINE
  5
362
100
AcDbEntity
  8
0
100
AcDbLine
 62
7
  6
CONTINUOUS
 10
153.7025577323
 20
131.0477142342
 11
153.539195881
 21
130.9921939696
  0
LWPOLYLINE
  5
363
100
AcDbEntity
  8
0
100
AcDbPolyline
 62
7
  6
CONTINUOUS
 90
6
 70
0
 10
152.7882115478
 20
95.0516687686
 10
152.6720609039
 20
95.0188780972
 10
152.6156701345
 20
95.0022932214
 10
152.5605629238
 20
94.9850611764
 10
152.5066599008
 20
94.9674423686
 10
152.4539615737
 20
94.949436799
  0
LINE
  5
364
100
AcDbEntity
  8
0
100
AcDbLine
 62
7
  6
CONTINUOUS
 10
152.5094076559
 20
95.3246162267
 11
152.6660375601
 21
95.366400781
  0
LINE
  5
365
100
AcDbEntity
  8
0
100
AcDbLine
 62
7
  6
CONTINUOUS
 10
152.6660375601
 20
95.366400781
 11
152.969415665
 21
95.4458977257
  0
LINE
  5
366
100
AcDbEntity
  8
0
100
AcDbLine
 62
7
  6
CONTINUOUS
 10
152.3674722898
 20
93.5668236186
 11
151.7366312898
 21
93.4037756186
  0
LINE
  5
367
100
AcDbEntity
  8
0
100
AcDbLine
 62
7
  6
CONTINUOUS
 10
151.2695522898
 20
92.4909566186
 11
152.9694152898
 21
92.6499126186
  0
LINE
  5
368
100
AcDbEntity
  8
0
100
AcDbLine
 62
7
  6
CONTINUOUS
 10
152.9694152898
 20
92.3027966186
 11
151.8640642898
 21
92.2298956186
  0
LWPOLYLINE
  5
369
100
AcDbEntity
  8
0
100
AcDbPolyline
 62
7
  6
CONTINUOUS
 90
34
 70
0
 10
121.5719622898
 20
93.5330927732
 10
121.6091892589
 20
93.533587402
 10
121.6468863227
 20
93.5326771098
 10
121.6850535155
 20
93.5303618968
 10
121.7239852184
 20
93.5267463787
 10
121.7633871738
 20
93.5217259413
 10
121.8023762115
 20
93.5149867407
 10
121.8409157254
 20
93.5062461873
 10
121.8790419022
 20
93.4957868755
 10
121.9159803623
 20
93.4841427386
 10
121.9515989655
 20
93.4714842412
 10
121.986029178
 20
93.4576409233
 10
122.0188918146
 20
93.4426353308
 10
122.0500267199
 20
93.4265210905
 10
122.0795933432
 20
93.4092445817
 10
122.1076918785
 20
93.39066748
 10
122.1342273627
 20
93.3706612586
 10
122.1592942317
 20
93.3493544532
 10
122.1832768809
 20
93.3269943325
 10
122.2063660861
 20
93.3038019496
 10
122.2283707881
 20
93.2795562593
 10
122.2491026796
 20
93.2538413843
 10
122.268635873
 20
93.2264950233
 10
122.2868959984
 20
93.1976794919
 10
122.3034719958
 20
93.16746584
 10
122.3182829055
 20
93.1356060051
 10
122.3314094989
 20
93.1023480662
 10
122.3426833111
 20
93.0685072799
 10
122.3520154999
 20
93.0341332499
 10
122.3594948575
 20
92.9991763797
 10
122.3652193859
 20
92.9643031174
 10
122.3692217685
 20
92.9297356101
 10
122.3714693828
 20
92.8952517091
 10
122.3719622898
 20
92.860851414
  0
LINE
  5
36A
100
AcDbEntity
  8
0
100
AcDbLine
 62
7
  6
CONTINUOUS
 10
122.3719622898
 20
90.1755166186
 11
121.0281692898
 21
90.1755166186
  0
LINE
  5
36B
100
AcDbEntity
  8
0
100
AcDbLine
 62
7
  6
CONTINUOUS
 10
152.9694152898
 20
90.3801146186
 11
151.2694502898
 21
90.3801146186
  0
LINE
  5
36C
100
AcDbEntity
  8
0
100
AcDbLine
 62
7
  6
CONTINUOUS
 10
120.7719622898
 20
90.3850636186
 11
122.3719622898
 21
90.3850636186
  0
LINE
  5
36D
100
AcDbEntity
  8
0
100
AcDbLine
 62
7
  6
CONTINUOUS
 10
151.2694502898
 20
90.7349426186
 11
152.9694152898
 21
90.7349426186
  0
LINE
  5
36E
100
AcDbEntity
  8
0
100
AcDbLine
 62
7
  6
CONTINUOUS
 10
122.3719622898
 20
92.2123496186
 11
120.7719622898
 21
92.2123496186
  0
LINE
  5
36F
100
AcDbEntity
  8
0
100
AcDbLine
 62
7
  6
CONTINUOUS
 10
120.9568712898
 20
92.4285736186
 11
122.1870532898
 21
92.4285736186
  0
LWPOLYLINE
  5
370
100
AcDbEntity
  8
0
100
AcDbPolyline
 62
7
  6
CONTINUOUS
 90
28
 70
0
 10
121.5719622898
 20
93.310682561
 10
121.5432031619
 20
93.3109378596
 10
121.5145493459
 20
93.31030906
 10
121.4860008636
 20
93.3087961622
 10
121.4575516676
 20
93.3063780106
 10
121.4292078516
 20
93.3030757615
 10
121.4009876429
 20
93.2989528828
 10
121.3728631593
 20
93.2940829961
 10
121.3448623186
 20
93.288392481
 10
121.3170870289
 20
93.2817239436
 10
121.2895276684
 20
93.2742231759
 10
121.2621938635
 20
93.2657443882
 10
121.2352163814
 20
93.255692815
 10
121.2085471609
 20
93.2440015467
 10
121.1822342856
 20
93.230737499
 10
121.1565527044
 20
93.215506647
 10
121.1313902268
 20
93.1982590061
 10
121.1068590091
 20
93.1790445722
 10
121.0835703721
 20
93.1576192946
 10
121.0615318831
 20
93.1340351392
 10
121.0407357216
 20
93.1082401575
 10
121.0217699342
 20
93.079834431
 10
121.004486163
 20
93.0486263489
 10
120.9890324282
 20
93.0148075506
 10
120.9764411007
 20
92.9785529952
 10
120.967056051
 20
92.9399210131
 10
120.9605328453
 20
92.8988533067
 10
120.9568712898
 20
92.8553498942
  0
LINE
  5
371
100
AcDbEntity
  8
0
100
AcDbLine
 62
7
  6
CONTINUOUS
 10
151.8594372898
 20
91.3419846186
 11
152.9694152898
 21
91.2654126186
  0
LINE
  5
372
100
AcDbEntity
  8
0
100
AcDbLine
 62
7
  6
CONTINUOUS
 10
152.9694152898
 20
90.9259576186
 11
151.2695522898
 21
91.0794456186
  0
LINE
  5
373
100
AcDbEntity
  8
0
100
AcDbLine
 62
7
  6
CONTINUOUS
 10
153.539195881
 20
84.7115052675
 11
153.7025577323
 21
84.6559850029
  0
LINE
  5
374
100
AcDbEntity
  8
0
100
AcDbLine
 62
7
  6
CONTINUOUS
 10
136.0219622898
 20
83.8698108134
 11
136.0554006801
 21
83.8363724231
  0
LWPOLYLINE
  5
375
100
AcDbEntity
  8
0
100
AcDbPolyline
 62
7
  6
CONTINUOUS
 90
6
 70
0
 10
137.4842615552
 20
80.1972503119
 10
137.4870809715
 20
80.1927714608
 10
137.4917975703
 20
80.1859117629
 10
137.498411554
 20
80.1769744902
 10
137.5071493111
 20
80.166292092
 10
137.5296405095
 20
80.1406693997
  0
LINE
  5
376
100
AcDbEntity
  8
0
100
AcDbLine
 62
7
  6
CONTINUOUS
 10
135.8451110898
 20
72.9923768186
 11
136.5338654898
 21
71.6797944186
  0
LINE
  5
377
100
AcDbEntity
  8
0
100
AcDbLine
 62
7
  6
CONTINUOUS
 10
136.8797710898
 20
71.6797944186
 11
136.3371406898
 21
72.7138840186
  0
LWPOLYLINE
  5
378
100
AcDbEntity
  8
0
100
AcDbPolyline
 62
7
  6
CONTINUOUS
 90
19
 70
0
 10
133.3719622898
 20
67.5786193825
 10
133.3607671942
 20
67.6148524077
 10
133.3497072943
 20
67.6551653614
 10
133.3387825901
 20
67.6995582437
 10
133.327981274
 20
67.748094474
 10
133.3173151536
 20
67.8007106327
 10
133.3068196511
 20
67.8572164618
 10
133.2964966749
 20
67.9176155904
 10
133.2863443166
 20
67.9819043893
 10
133.2763922735
 20
68.0498817129
 10
133.2666405685
 20
68.1215600923
 10
133.2570891787
 20
68.1969269965
 10
133.2477677327
 20
68.2757436868
 10
133.2386765573
 20
68.3580239176
 10
133.2298153258
 20
68.4437539345
 10
133.2212126858
 20
68.5326537356
 10
133.2128781866
 20
68.6246299869
 10
133.2048022789
 20
68.7197760224
 10
133.1969849627
 20
68.8180918422
  0
LWPOLYLINE
  5
379
100
AcDbEntity
  8
0
100
AcDbPolyline
 62
7
  6
CONTINUOUS
 90
22
 70
0
 10
125.609077085
 20
86.1518496186
 10
125.6113879789
 20
86.0908965637
 10
125.6181337656
 20
86.0308362585
 10
125.6293146554
 20
85.9716687028
 10
125.6450741227
 20
85.9129958204
 10
125.6652695351
 20
85.8552156875
 10
125.6894720838
 20
85.7995225333
 10
125.7176527825
 20
85.7461224349
 10
125.7498420363
 20
85.6948093152
 10
125.7857001381
 20
85.6461591711
 10
125.8254425025
 20
85.6000328493
 10
125.8688555415
 20
85.5565695033
 10
125.9149557944
 20
85.5167625899
 10
125.9636055871
 20
85.4808257963
 10
126.0149440749
 20
85.4485454354
 10
126.0684026129
 20
85.420273903
 10
126.1241846048
 20
85.3959796306
 10
126.1820879144
 20
85.3756941866
 10
126.2409349989
 20
85.3598646733
 10
126.3003332929
 20
85.3486401245
 10
126.3606756617
 20
85.3418715063
 10
126.4219622898
 20
85.3395588187
  0
LINE
  5
37A
100
AcDbEntity
  8
0
100
AcDbLine
 62
253
  6
CONTINUOUS
 10
125.7332323615
 20
73.8380781838
 11
125.7624857684
 21
70.9925334641
  0
LINE
  5
37B
100
AcDbEntity
  8
0
100
AcDbLine
 62
253
  6
CONTINUOUS
 10
125.7082339526
 20
76.6904045898
 11
125.7332323615
 21
73.8380781838
  0
LINE
  5
37C
100
AcDbEntity
  8
0
100
AcDbLine
 62
253
  6
CONTINUOUS
 10
125.6874998753
 20
79.5484477331
 11
125.7082339526
 21
76.6904045898
  0
LWPOLYLINE
  5
37D
100
AcDbEntity
  8
0
100
AcDbPolyline
 62
253
  6
CONTINUOUS
 90
3
 70
0
 10
125.6644108791
 20
83.8438965997
 10
125.6710378709
 20
82.4111405302
 10
125.6874998753
 20
79.5484477331
  0
LINE
  5
37E
100
AcDbEntity
  8
0
100
AcDbLine
 62
7
  6
CONTINUOUS
 10
124.1903763717
 20
96.5752313941
 11
124.1975040945
 21
84.758346619
  0
LINE
  5
37F
100
AcDbEntity
  8
0
100
AcDbLine
 62
7
  6
CONTINUOUS
 10
123.1064002898
 20
125.2364166186
 11
123.1064002898
 21
124.4707716186
  0
LINE
  5
380
100
AcDbEntity
  8
0
100
AcDbLine
 62
7
  6
CONTINUOUS
 10
124.2277312202
 20
84.7281194934
 11
124.2277312202
 21
130.9755797438
  0
LINE
  5
381
100
AcDbEntity
  8
0
100
AcDbLine
 62
7
  6
CONTINUOUS
 10
125.609077085
 20
86.1518496186
 11
125.609077085
 21
129.5518496186
  0
LINE
  5
382
100
AcDbEntity
  8
0
100
AcDbLine
 62
7
  6
CONTINUOUS
 10
125.6219622898
 20
129.5518496186
 11
125.6219622898
 21
86.1518496186
  0
LINE
  5
383
100
AcDbEntity
  8
0
100
AcDbLine
 62
253
  6
CONTINUOUS
 10
126.4219622898
 20
130.3641404184
 11
126.4219622898
 21
130.3518496186
  0
LINE
  5
384
100
AcDbEntity
  8
0
100
AcDbLine
 62
253
  6
CONTINUOUS
 10
126.4219622898
 20
85.3395588187
 11
126.4219622898
 21
85.3518496186
  0
LINE
  5
385
100
AcDbEntity
  8
0
100
AcDbLine
 62
7
  6
CONTINUOUS
 10
124.1883973029
 20
111.6109476902
 11
124.1903763717
 21
96.5752313941
  0
LINE
  5
386
100
AcDbEntity
  8
0
100
AcDbLine
 62
7
  6
CONTINUOUS
 10
124.1943339205
 20
126.6428333744
 11
124.1883973029
 21
111.6109476902
  0
LINE
  5
387
100
AcDbEntity
  8
0
100
AcDbLine
 62
7
  6
CONTINUOUS
 10
124.1975040945
 20
130.9453526182
 11
124.1943339205
 21
126.6428333744
  0
LINE
  5
388
100
AcDbEntity
  8
0
100
AcDbLine
 62
253
  6
CONTINUOUS
 10
125.6644108791
 20
131.8598026374
 11
125.6787344425
 21
134.724419547
  0
LINE
  5
389
100
AcDbEntity
  8
0
100
AcDbLine
 62
253
  6
CONTINUOUS
 10
125.6787344425
 20
134.724419547
 11
125.6973333514
 21
137.5849210204
  0
LINE
  5
38A
100
AcDbEntity
  8
0
100
AcDbLine
 62
253
  6
CONTINUOUS
 10
125.6973333514
 20
137.5849210204
 11
125.7202006617
 21
140.4402390565
  0
LWPOLYLINE
  5
38B
100
AcDbEntity
  8
0
100
AcDbPolyline
 62
253
  6
CONTINUOUS
 90
3
 70
0
 10
125.7202006617
 20
140.4402390565
 10
125.7473278356
 20
143.2893075891
 10
125.7624857684
 20
144.711165773
  0
LWPOLYLINE
  5
38C
100
AcDbEntity
  8
0
100
AcDbPolyline
 62
7
  6
CONTINUOUS
 90
8
 70
0
 10
137.4842615552
 20
135.5064489252
 10
137.4865981474
 20
135.5114077769
 10
137.4914115098
 20
135.5181712793
 10
137.498411554
 20
135.526724747
 10
137.5072795631
 20
135.5372776587
 10
137.5177448149
 20
135.54960199
 10
137.5296405094
 20
135.5630298374
 10
137.5568264563
 20
135.5930200945
  0
LINE
  5
38D
100
AcDbEntity
  8
0
100
AcDbLine
 62
7
  6
CONTINUOUS
 10
152.25919631
 20
127.1185164124
 11
152.0889835643
 21
127.0518496186
  0
LINE
  5
38E
100
AcDbEntity
  8
0
100
AcDbLine
 62
7
  6
CONTINUOUS
 10
152.4294091034
 20
125.9518496186
 11
152.5996218729
 21
126.0185164124
  0
LINE
  5
38F
100
AcDbEntity
  8
0
100
AcDbLine
 62
7
  6
CONTINUOUS
 10
151.7145155239
 20
125.6185164124
 11
151.5443026828
 21
125.5518496186
  0
LINE
  5
390
100
AcDbEntity
  8
0
100
AcDbLine
 62
7
  6
CONTINUOUS
 10
151.6464303302
 20
127.0518496186
 11
151.5443026828
 21
127.0185164124
  0
LINE
  5
391
100
AcDbEntity
  8
0
100
AcDbLine
 62
7
  6
CONTINUOUS
 10
152.1911112117
 20
126.9185164124
 11
152.2932389068
 21
126.9518496186
  0
LINE
  5
392
100
AcDbEntity
  8
0
100
AcDbLine
 62
7
  6
CONTINUOUS
 10
152.4974942016
 20
126.1518496186
 11
152.3953665542
 21
126.1185164124
  0
LINE
  5
393
100
AcDbEntity
  8
0
100
AcDbLine
 62
7
  6
CONTINUOUS
 10
151.6464303302
 20
125.4185164124
 11
151.748558073
 21
125.4518496186
  0
LINE
  5
394
100
AcDbEntity
  8
0
100
AcDbLine
 62
7
  6
CONTINUOUS
 10
151.9187708187
 20
124.6518496186
 11
151.8166431713
 21
124.6185164124
  0
LINE
  5
395
100
AcDbEntity
  8
0
100
AcDbLine
 62
7
  6
CONTINUOUS
 10
152.4974942016
 20
124.5185164124
 11
152.5996218729
 21
124.5518496186
  0
LINE
  5
396
100
AcDbEntity
  8
0
100
AcDbLine
 62
7
  6
CONTINUOUS
 10
151.6464303302
 20
124.1185164124
 11
151.5443026828
 21
124.0851828247
  0
LINE
  5
397
100
AcDbEntity
  8
0
100
AcDbLine
 62
7
  6
CONTINUOUS
 10
152.1911112117
 20
123.9851830155
 11
152.2932389068
 21
124.0185162217
  0
LWPOLYLINE
  5
398
100
AcDbEntity
  8
0
100
AcDbPolyline
 62
7
  6
CONTINUOUS
 90
25
 70
0
 10
151.761908696
 20
95.0278738269
 10
151.7487141261
 20
95.0272196818
 10
151.735667486
 20
95.0257885622
 10
151.7227688006
 20
95.0235804681
 10
151.7099750016
 20
95.0205784852
 10
151.697329202
 20
95.0167995286
 10
151.6849607064
 20
95.0122943427
 10
151.6728598266
 20
95.007067787
 10
151.6610363089
 20
95.0011150032
 10
151.6496486277
 20
94.9944721592
 10
151.6387003935
 20
94.9871370444
 10
151.6281880641
 20
94.9791118708
 10
151.6182594001
 20
94.9704394404
 10
151.6089442016
 20
94.961089614
 10
151.6002127362
 20
94.9510925326
 10
151.5921234714
 20
94.9405814178
 10
151.5846904648
 20
94.9295578164
 10
151.5778997079
 20
94.9180201833
 10
151.5717675658
 20
94.9060971024
 10
151.5662885822
 20
94.8938053626
 10
151.5614682411
 20
94.8811281765
 10
151.5573393139
 20
94.8681437635
 10
151.5539127271
 20
94.8548781971
 10
151.5511775616
 20
94.841305405
 10
151.5491338156
 20
94.8274253879
  0
LINE
  5
399
100
AcDbEntity
  8
0
100
AcDbLine
 62
7
  6
CONTINUOUS
 10
122.3719622898
 20
93.8324716186
 11
120.7719622898
 21
93.8324716186
  0
LINE
  5
39A
100
AcDbEntity
  8
0
100
AcDbLine
 62
7
  6
CONTINUOUS
 10
120.9636002898
 20
94.0486816186
 11
121.4538872898
 21
94.0486816186
  0
LINE
  5
39B
100
AcDbEntity
  8
0
100
AcDbLine
 62
7
  6
CONTINUOUS
 10
121.6455242898
 20
94.0486816186
 11
122.1803242898
 21
94.0486816186
  0
LINE
  5
39C
100
AcDbEntity
  8
0
100
AcDbLine
 62
7
  6
CONTINUOUS
 10
152.969415665
 20
94.2078238312
 11
151.2894128961
 21
94.2078238312
  0
LINE
  5
39D
100
AcDbEntity
  8
0
100
AcDbLine
 62
7
  6
CONTINUOUS
 10
151.5591413273
 20
94.5494585989
 11
152.0257868098
 21
94.5494585989
  0
LINE
  5
39E
100
AcDbEntity
  8
0
100
AcDbLine
 62
7
  6
CONTINUOUS
 10
152.3041832624
 20
94.5612241632
 11
152.969415665
 21
94.5612241632
  0
LINE
  5
39F
100
AcDbEntity
  8
0
100
AcDbLine
 62
7
  6
CONTINUOUS
 10
121.4538872898
 20
94.9244566186
 11
121.6455242898
 21
94.9244566186
  0
LINE
  5
3A0
100
AcDbEntity
  8
0
100
AcDbLine
 62
7
  6
CONTINUOUS
 10
120.7719622898
 20
94.9979936186
 11
120.9636002898
 21
94.9979936186
  0
LINE
  5
3A1
100
AcDbEntity
  8
0
100
AcDbLine
 62
7
  6
CONTINUOUS
 10
122.1803242898
 20
95.0136116186
 11
122.3719622898
 21
95.0136116186
  0
LINE
  5
3A2
100
AcDbEntity
  8
0
100
AcDbLine
 62
7
  6
CONTINUOUS
 10
152.1658900795
 20
95.12006935
 11
152.1759347867
 21
95.12006935
  0
LINE
  5
3A3
100
AcDbEntity
  8
0
100
AcDbLine
 62
7
  6
CONTINUOUS
 10
122.3719622898
 20
95.9495956186
 11
120.7719622898
 21
95.9495956186
  0
LINE
  5
3A4
100
AcDbEntity
  8
0
100
AcDbLine
 62
7
  6
CONTINUOUS
 10
120.7719622898
 20
96.1657406186
 11
122.3719622898
 21
96.1657406186
  0
LINE
  5
3A5
100
AcDbEntity
  8
0
100
AcDbLine
 62
7
  6
CONTINUOUS
 10
122.3719622898
 20
96.5356106186
 11
120.7719622898
 21
96.5356106186
  0
LINE
  5
3A6
100
AcDbEntity
  8
0
100
AcDbLine
 62
7
  6
CONTINUOUS
 10
121.0725712898
 20
96.7451696186
 11
122.3719622898
 21
96.7451696186
  0
LINE
  5
3A7
100
AcDbEntity
  8
0
100
AcDbLine
 62
7
  6
CONTINUOUS
 10
152.4396212898
 20
89.5599286186
 11
151.2695522898
 21
89.8938516186
  0
LINE
  5
3A8
100
AcDbEntity
  8
0
100
AcDbLine
 62
7
  6
CONTINUOUS
 10
151.2695522898
 20
90.2484376186
 11
152.9694152898
 21
89.7020336186
  0
LINE
  5
3A9
100
AcDbEntity
  8
0
100
AcDbLine
 62
7
  6
CONTINUOUS
 10
121.9062602898
 20
100.9970806186
 11
122.3719622898
 21
100.8299126186
  0
LINE
  5
3AA
100
AcDbEntity
  8
0
100
AcDbLine
 62
7
  6
CONTINUOUS
 10
121.0040402898
 20
101.3225036186
 11
121.7146232898
 21
101.0639406186
  0
LINE
  5
3AB
100
AcDbEntity
  8
0
100
AcDbLine
 62
7
  6
CONTINUOUS
 10
122.3719622898
 20
100.6071026186
 11
120.7719622898
 21
101.2088276186
  0
LINE
  5
3AC
100
AcDbEntity
  8
0
100
AcDbLine
 62
7
  6
CONTINUOUS
 10
121.5408422898
 20
104.0434606186
 11
120.7719622898
 21
104.5024336186
  0
LINE
  5
3AD
100
AcDbEntity
  8
0
100
AcDbLine
 62
7
  6
CONTINUOUS
 10
120.7719622898
 20
104.7565696186
 11
121.7279512898
 21
104.1525426186
  0
LWPOLYLINE
  5
3AE
100
AcDbEntity
  8
0
100
AcDbPolyline
 62
7
  6
CONTINUOUS
 90
7
 70
0
 10
137.4854664047
 20
80.6375599247
 10
137.4878034167
 20
80.6326852822
 10
137.4926172789
 20
80.6260021868
 10
137.4996179352
 20
80.6175247406
 10
137.5084867261
 20
80.6070427947
 10
137.5189529337
 20
80.5947842951
 10
137.5308497029
 20
80.581417581
  0
LWPOLYLINE
  5
3AF
100
AcDbEntity
  8
0
100
AcDbPolyline
 62
7
  6
CONTINUOUS
 90
7
 70
0
 10
130.7854885761
 20
69.6418440002
 10
130.7857707331
 20
69.6323162454
 10
130.7860711458
 20
69.6241838958
 10
130.7863788453
 20
69.6177508383
 10
130.7866901752
 20
69.6131183687
 10
130.7870087919
 20
69.6101851912
 10
130.7873346953
 20
69.6089513059
  0
LWPOLYLINE
  5
3B0
100
AcDbEntity
  8
0
100
AcDbPolyline
 62
7
  6
CONTINUOUS
 90
3
 70
0
 10
130.7847626082
 20
69.678495809
 10
130.7849840253
 20
69.6650057599
 10
130.7854885761
 20
69.6418440002
  0
LINE
  5
3B1
100
AcDbEntity
  8
0
100
AcDbLine
 62
253
  6
CONTINUOUS
 10
129.3719622898
 20
131.8338884237
 11
129.3719622898
 21
130.3631945467
  0
LINE
  5
3B2
100
AcDbEntity
  8
0
100
AcDbLine
 62
253
  6
CONTINUOUS
 10
129.3719622898
 20
85.3405046904
 11
129.3719622898
 21
83.8698108134
  0
LWPOLYLINE
  5
3B3
100
AcDbEntity
  8
0
100
AcDbPolyline
 62
7
  6
CONTINUOUS
 90
10
 70
0
 10
137.4842615964
 20
135.5064490356
 10
137.4841440437
 20
135.5060955859
 10
137.4840263937
 20
135.5057802052
 10
137.4839086464
 20
135.5055028935
 10
137.4837907884
 20
135.5052636291
 10
137.4836728331
 20
135.5050624338
 10
137.483554821
 20
135.5048993724
 10
137.4834367656
 20
135.5047744666
 10
137.4833186534
 20
135.5046876946
 10
137.4832004845
 20
135.5046390566
  0
LINE
  5
3B4
100
AcDbEntity
  8
0
100
AcDbLine
 62
7
  6
CONTINUOUS
 10
142.1678269054
 20
145.7897078458
 11
142.1141345373
 21
145.62849975
  0
LINE
  5
3B5
100
AcDbEntity
  8
0
100
AcDbLine
 62
7
  6
CONTINUOUS
 10
146.5729241841
 20
144.1544085018
 11
147.2663107114
 21
145.4584788945
  0
LINE
  5
3B6
100
AcDbEntity
  8
0
100
AcDbLine
 62
7
  6
CONTINUOUS
 10
148.2298173655
 20
145.10865455
 11
147.3523470475
 21
143.7044085018
  0
LINE
  5
3B7
100
AcDbEntity
  8
0
100
AcDbLine
 62
7
  6
CONTINUOUS
 10
150.0422062968
 20
144.0486293876
 11
149.1710003954
 21
142.6544085018
  0
LINE
  5
3B8
100
AcDbEntity
  8
0
100
AcDbLine
 62
7
  6
CONTINUOUS
 10
151.5443026828
 20
127.0185164124
 11
151.4081324863
 21
126.9185164124
  0
LINE
  5
3B9
100
AcDbEntity
  8
0
100
AcDbLine
 62
7
  6
CONTINUOUS
 10
151.5443026828
 20
126.8185164124
 11
151.6464303302
 21
126.8851828247
  0
LINE
  5
3BA
100
AcDbEntity
  8
0
100
AcDbLine
 62
7
  6
CONTINUOUS
 10
152.5996218729
 20
126.2185164124
 11
152.4974942016
 21
126.1518496186
  0
LINE
  5
3BB
100
AcDbEntity
  8
0
100
AcDbLine
 62
7
  6
CONTINUOUS
 10
151.8506857204
 20
124.4518496186
 11
152.0208984661
 21
124.5185164124
  0
LINE
  5
3BC
100
AcDbEntity
  8
0
100
AcDbLine
 62
7
  6
CONTINUOUS
 10
152.25919631
 20
124.1851828247
 11
152.0889835643
 21
124.1185164124
  0
LINE
  5
3BD
100
AcDbEntity
  8
0
100
AcDbLine
 62
7
  6
CONTINUOUS
 10
152.4294091034
 20
123.0185162217
 11
152.5996218729
 21
123.0851830155
  0
LINE
  5
3BE
100
AcDbEntity
  8
0
100
AcDbLine
 62
7
  6
CONTINUOUS
 10
151.7145155239
 20
122.6851830155
 11
151.5443026828
 21
122.6185162217
  0
LINE
  5
3BF
100
AcDbEntity
  8
0
100
AcDbLine
 62
7
  6
CONTINUOUS
 10
151.8506857204
 20
121.5185162693
 11
152.0208984661
 21
121.5851829678
  0
LINE
  5
3C0
100
AcDbEntity
  8
0
100
AcDbLine
 62
7
  6
CONTINUOUS
 10
152.4974942016
 20
123.2185162217
 11
152.3953665542
 21
123.1851830155
  0
LINE
  5
3C1
100
AcDbEntity
  8
0
100
AcDbLine
 62
7
  6
CONTINUOUS
 10
151.6464303302
 20
122.4851830155
 11
151.748558073
 21
122.5185162217
  0
LINE
  5
3C2
100
AcDbEntity
  8
0
100
AcDbLine
 62
7
  6
CONTINUOUS
 10
151.9187708187
 20
121.718516317
 11
151.8166431713
 21
121.6851829201
  0
LINE
  5
3C3
100
AcDbEntity
  8
0
100
AcDbLine
 62
7
  6
CONTINUOUS
 10
152.4974942016
 20
121.5851829678
 11
152.5996218729
 21
121.6185162693
  0
LINE
  5
3C4
100
AcDbEntity
  8
0
100
AcDbLine
 62
7
  6
CONTINUOUS
 10
122.0716172898
 20
97.5964636186
 11
120.7719622898
 21
97.5964636186
  0
LINE
  5
3C5
100
AcDbEntity
  8
0
100
AcDbLine
 62
7
  6
CONTINUOUS
 10
120.7719622898
 20
97.8059186186
 11
122.3719622898
 21
97.8059186186
  0
LINE
  5
3C6
100
AcDbEntity
  8
0
100
AcDbLine
 62
7
  6
CONTINUOUS
 10
122.3719622898
 20
98.7975436186
 11
120.7719622898
 21
98.7975436186
  0
LINE
  5
3C7
100
AcDbEntity
  8
0
100
AcDbLine
 62
7
  6
CONTINUOUS
 10
120.7719622898
 20
99.0137536186
 11
122.3719622898
 21
99.0137536186
  0
LINE
  5
3C8
100
AcDbEntity
  8
0
100
AcDbLine
 62
7
  6
CONTINUOUS
 10
120.9636002898
 20
99.2455176186
 11
120.7719622898
 21
99.2455176186
  0
LINE
  5
3C9
100
AcDbEntity
  8
0
100
AcDbLine
 62
7
  6
CONTINUOUS
 10
122.3719622898
 20
99.7870466186
 11
120.9636002898
 21
99.7870466186
  0
LINE
  5
3CA
100
AcDbEntity
  8
0
100
AcDbLine
 62
7
  6
CONTINUOUS
 10
120.9636002898
 20
100.0031786186
 11
122.3719622898
 21
100.0031786186
  0
LINE
  5
3CB
100
AcDbEntity
  8
0
100
AcDbLine
 62
7
  6
CONTINUOUS
 10
120.7719622898
 20
100.5447076186
 11
120.9636002898
 21
100.5447076186
  0
LINE
  5
3CC
100
AcDbEntity
  8
0
100
AcDbLine
 62
7
  6
CONTINUOUS
 10
151.7366312898
 20
93.4037756186
 11
152.3674722898
 21
93.2271006186
  0
LINE
  5
3CD
100
AcDbEntity
  8
0
100
AcDbLine
 62
7
  6
CONTINUOUS
 10
152.6300622898
 20
93.1545186186
 11
152.9694152898
 21
93.0566086186
  0
LINE
  5
3CE
100
AcDbEntity
  8
0
100
AcDbLine
 62
7
  6
CONTINUOUS
 10
152.9694152898
 20
92.7056306186
 11
151.2695522898
 21
93.2388156186
  0
LINE
  5
3CF
100
AcDbEntity
  8
0
100
AcDbLine
 62
7
  6
CONTINUOUS
 10
152.2133212898
 20
91.7850606186
 11
151.2695522898
 21
92.1398886186
  0
LINE
  5
3D0
100
AcDbEntity
  8
0
100
AcDbLine
 62
7
  6
CONTINUOUS
 10
151.8640642898
 20
92.2298956186
 11
152.9694152898
 21
91.8080056186
  0
LINE
  5
3D1
100
AcDbEntity
  8
0
100
AcDbLine
 62
7
  6
CONTINUOUS
 10
147.3523470475
 20
71.9992907353
 11
148.2298173655
 21
70.5950446871
  0
LINE
  5
3D2
100
AcDbEntity
  8
0
100
AcDbLine
 62
7
  6
CONTINUOUS
 10
149.1710003954
 20
73.0492907353
 11
150.0422062968
 21
71.6550698495
  0
LINE
  5
3D3
100
AcDbEntity
  8
0
100
AcDbLine
 62
7
  6
CONTINUOUS
 10
147.2663107114
 20
70.2452203426
 11
146.5729241841
 21
71.5492907353
  0
LWPOLYLINE
  5
3D4
100
AcDbEntity
  8
0
100
AcDbPolyline
 62
7
  6
CONTINUOUS
 90
10
 70
0
 10
137.4854664047
 20
80.6375599247
 10
137.4853826249
 20
80.6378085354
 10
137.4852987888
 20
80.6380378206
 10
137.4852148963
 20
80.6382477803
 10
137.4851309422
 20
80.6384384256
 10
137.4850469317
 20
80.6386097454
 10
137.4849628813
 20
80.6387617063
 10
137.4848787962
 20
80.6388942971
 10
137.4847946712
 20
80.6390075291
 10
137.4847105062
 20
80.6391014022
  0
LINE
  5
3D5
100
AcDbEntity
  8
0
100
AcDbLine
 62
7
  6
CONTINUOUS
 10
142.1678269054
 20
69.9139913914
 11
142.1141345373
 21
70.0751994872
  0
LWPOLYLINE
  5
3D6
100
AcDbEntity
  8
0
100
AcDbPolyline
 62
7
  6
CONTINUOUS
 90
27
 70
0
 10
136.5926838898
 20
73.4509936186
 10
136.5961446356
 20
73.4184118567
 10
136.5962785804
 20
73.3853398036
 10
136.5930860146
 20
73.3517775028
 10
136.5865461996
 20
73.3171675742
 10
136.5766804969
 20
73.2820675208
 10
136.56355231
 20
73.248149561
 10
136.5468423969
 20
73.2155615137
 10
136.5268705035
 20
73.1841553508
 10
136.5046582811
 20
73.1551592743
 10
136.4800223779
 20
73.1288674313
 10
136.4531461766
 20
73.1049853148
 10
136.4256011083
 20
73.0838580466
 10
136.3977112254
 20
73.0658223389
 10
136.3691521081
 20
73.0505411859
 10
136.340522361
 20
73.0373491676
 10
136.3119238048
 20
73.0262042395
 10
136.2832543019
 20
73.0171483134
 10
136.2548065772
 20
73.0096419609
 10
136.2266830109
 20
73.0036416834
 10
136.1987809793
 20
72.999190925
 10
136.1710857701
 20
72.9958806977
 10
136.1436378045
 20
72.9937425105
 10
136.1163964873
 20
72.9927448379
 10
136.0892256534
 20
72.9923841524
 10
136.0621034095
 20
72.9927133452
 10
135.953880204
 20
72.9964323973
  0
LWPOLYLINE
  5
3D7
100
AcDbEntity
  8
0
100
AcDbPolyline
 62
253
  6
CONTINUOUS
 90
22
 70
0
 10
134.7539090245
 20
80.9154188239
 10
134.7558059384
 20
80.8701217887
 10
134.7609549763
 20
80.8256024323
 10
134.7693559119
 20
80.7818607059
 10
134.7810904805
 20
80.7386734763
 10
134.796076518
 20
80.6962637906
 10
134.8140679856
 20
80.6553008282
 10
134.8351158556
 20
80.6157971145
 10
134.8591688507
 20
80.577739949
 10
134.8858276432
 20
80.5417605954
 10
134.9151336365
 20
80.5078946279
 10
134.9470453101
 20
80.4761062475
 10
134.9810390639
 20
80.4469196038
 10
135.0171503752
 20
80.4203762589
 10
135.0553438632
 20
80.3964344225
 10
135.0949897554
 20
80.3754931896
 10
135.1360999039
 20
80.3576016612
 10
135.1786627508
 20
80.3427105508
 10
135.2220135003
 20
80.331071372
 10
135.2659307085
 20
80.3227679256
 10
135.3106362537
 20
80.3177163064
 10
135.356130367
 20
80.3159164884
  0
LINE
  5
3D8
100
AcDbEntity
  8
0
100
AcDbLine
 62
7
  6
CONTINUOUS
 10
130.7843830585
 20
69.7093517895
 11
130.7847626082
 21
69.678495809
  0
LINE
  5
3D9
100
AcDbEntity
  8
0
100
AcDbLine
 62
7
  6
CONTINUOUS
 10
130.7840189447
 20
69.7610806807
 11
130.7843830585
 21
69.7093517895
  0
LINE
  5
3DA
100
AcDbEntity
  8
0
100
AcDbLine
 62
7
  6
CONTINUOUS
 10
130.7763815284
 20
72.8653915748
 11
130.7840189447
 21
69.7610806807
  0
LINE
  5
3DB
100
AcDbEntity
  8
0
100
AcDbLine
 62
7
  6
CONTINUOUS
 10
131.6681556715
 20
142.837695042
 11
131.6598990326
 21
146.1774592798
  0
LINE
  5
3DC
100
AcDbEntity
  8
0
100
AcDbLine
 62
7
  6
CONTINUOUS
 10
130.8719622898
 20
146.1887705335
 11
130.8719622898
 21
146.0393652294
  0
LINE
  5
3DD
100
AcDbEntity
  8
0
100
AcDbLine
 62
7
  6
CONTINUOUS
 10
130.8719622898
 20
69.6643340077
 11
130.8719622898
 21
69.5149287037
  0
LINE
  5
3DE
100
AcDbEntity
  8
0
100
AcDbLine
 62
7
  6
CONTINUOUS
 10
131.5719622898
 20
69.4459919035
 11
131.5719622898
 21
69.6643340077
  0
LINE
  5
3DF
100
AcDbEntity
  8
0
100
AcDbLine
 62
7
  6
CONTINUOUS
 10
131.5719622898
 20
146.0393652294
 11
131.5719622898
 21
146.2577073336
  0
LINE
  5
3E0
100
AcDbEntity
  8
0
100
AcDbLine
 62
7
  6
CONTINUOUS
 10
133.1969849627
 20
69.3191020599
 11
133.1969849627
 21
68.8180918422
  0
LINE
  5
3E1
100
AcDbEntity
  8
0
100
AcDbLine
 62
7
  6
CONTINUOUS
 10
133.3719622898
 20
69.3431669633
 11
133.3719622898
 21
67.5786193823
  0
LINE
  5
3E2
100
AcDbEntity
  8
0
100
AcDbLine
 62
7
  6
CONTINUOUS
 10
130.7841115468
 20
145.9604661402
 11
130.7763815284
 21
142.8383076623
  0
LINE
  5
3E3
100
AcDbEntity
  8
0
100
AcDbLine
 62
7
  6
CONTINUOUS
 10
131.6601867256
 20
69.6570339933
 11
131.6681556715
 21
72.8660041951
  0
LINE
  5
3E4
100
AcDbEntity
  8
0
100
AcDbLine
 62
7
  6
CONTINUOUS
 10
131.6597330127
 20
69.6071080259
 11
131.6601867256
 21
69.6570339933
  0
LWPOLYLINE
  5
3E5
100
AcDbEntity
  8
0
100
AcDbPolyline
 62
7
  6
CONTINUOUS
 90
3
 70
0
 10
130.7847626082
 20
146.0252034281
 10
130.7845619682
 20
146.0103811712
 10
130.7841115468
 20
145.9604661402
  0
LINE
  5
3E6
100
AcDbEntity
  8
0
100
AcDbLine
 62
7
  6
CONTINUOUS
 10
131.6593088258
 20
69.5788715973
 11
131.6597330127
 21
69.6071080259
  0
LWPOLYLINE
  5
3E7
100
AcDbEntity
  8
0
100
AcDbPolyline
 62
253
  6
CONTINUOUS
 90
9
 70
0
 10
130.3953018149
 20
69.7360193341
 10
130.3936728066
 20
69.7179444276
 10
130.3923041904
 20
69.7016776112
 10
130.3912145568
 20
69.6874398457
 10
130.3904187069
 20
69.6754245297
 10
130.3899274512
 20
69.6657948736
 10
130.3897474626
 20
69.6586816819
 10
130.389881186
 20
69.6541815767
 10
130.390326805
 20
69.6523556854
  0
LINE
  5
3E8
100
AcDbEntity
  8
0
100
AcDbLine
 62
7
  6
CONTINUOUS
 10
148.391577532
 20
143.1044085018
 11
149.1961033115
 21
144.6175014274
  0
LINE
  5
3E9
100
AcDbEntity
  8
0
100
AcDbLine
 62
7
  6
CONTINUOUS
 10
153.8918962172
 20
130.9586176882
 11
153.9808864704
 21
131.0518496186
  0
LINE
  5
3EA
100
AcDbEntity
  8
0
100
AcDbLine
 62
7
  6
CONTINUOUS
 10
152.0889835643
 20
127.0518496186
 11
151.9868559169
 21
126.9518496186
  0
LINE
  5
3EB
100
AcDbEntity
  8
0
100
AcDbLine
 62
7
  6
CONTINUOUS
 10
151.5443026828
 20
125.5518496186
 11
151.4081324863
 21
125.4518496186
  0
LINE
  5
3EC
100
AcDbEntity
  8
0
100
AcDbLine
 62
7
  6
CONTINUOUS
 10
152.5996218729
 20
126.0185164124
 11
152.7357920813
 21
126.1185164124
  0
LINE
  5
3ED
100
AcDbEntity
  8
0
100
AcDbLine
 62
7
  6
CONTINUOUS
 10
152.0208984661
 20
124.5185164124
 11
152.1570686626
 21
124.6185164124
  0
LINE
  5
3EE
100
AcDbEntity
  8
0
100
AcDbLine
 62
7
  6
CONTINUOUS
 10
151.5443026828
 20
124.0851828247
 11
151.4081324863
 21
123.9851830155
  0
LINE
  5
3EF
100
AcDbEntity
  8
0
100
AcDbLine
 62
7
  6
CONTINUOUS
 10
152.5996218729
 20
124.5518496186
 11
152.7357920813
 21
124.6518496186
  0
LINE
  5
3F0
100
AcDbEntity
  8
0
100
AcDbLine
 62
7
  6
CONTINUOUS
 10
151.5443026828
 20
122.6185162217
 11
151.4081324863
 21
122.5185162217
  0
LINE
  5
3F1
100
AcDbEntity
  8
0
100
AcDbLine
 62
7
  6
CONTINUOUS
 10
151.5443026828
 20
125.3518496186
 11
151.6464303302
 21
125.4185164124
  0
LINE
  5
3F2
100
AcDbEntity
  8
0
100
AcDbLine
 62
7
  6
CONTINUOUS
 10
152.0208984661
 20
124.7185164124
 11
151.9187708187
 21
124.6518496186
  0
LINE
  5
3F3
100
AcDbEntity
  8
0
100
AcDbLine
 62
7
  6
CONTINUOUS
 10
152.5996218729
 20
124.7518496186
 11
152.4974942016
 21
124.6851828247
  0
LINE
  5
3F4
100
AcDbEntity
  8
0
100
AcDbLine
 62
7
  6
CONTINUOUS
 10
151.5443026828
 20
123.8851830155
 11
151.6464303302
 21
123.9518496186
  0
LINE
  5
3F5
100
AcDbEntity
  8
0
100
AcDbLine
 62
7
  6
CONTINUOUS
 10
152.5996218729
 20
123.2851830155
 11
152.4974942016
 21
123.2185162217
  0
LINE
  5
3F6
100
AcDbEntity
  8
0
100
AcDbLine
 62
7
  6
CONTINUOUS
 10
151.5443026828
 20
122.418516317
 11
151.6464303302
 21
122.4851830155
  0
LINE
  5
3F7
100
AcDbEntity
  8
0
100
AcDbLine
 62
7
  6
CONTINUOUS
 10
152.0208984661
 20
121.7851829201
 11
151.9187708187
 21
121.718516317
  0
LINE
  5
3F8
100
AcDbEntity
  8
0
100
AcDbLine
 62
7
  6
CONTINUOUS
 10
152.5996218729
 20
121.818516317
 11
152.4974942016
 21
121.7518496186
  0
LINE
  5
3F9
100
AcDbEntity
  8
0
100
AcDbLine
 62
7
  6
CONTINUOUS
 10
121.7279512898
 20
103.9364486186
 11
120.7719622898
 21
103.3325506186
  0
LINE
  5
3FA
100
AcDbEntity
  8
0
100
AcDbLine
 62
7
  6
CONTINUOUS
 10
120.7719622898
 20
103.5843576186
 11
121.5408422898
 21
104.0434606186
  0
LINE
  5
3FB
100
AcDbEntity
  8
0
100
AcDbLine
 62
7
  6
CONTINUOUS
 10
122.3719622898
 20
102.2316366186
 11
120.7719622898
 21
102.2316366186
  0
LINE
  5
3FC
100
AcDbEntity
  8
0
100
AcDbLine
 62
7
  6
CONTINUOUS
 10
120.7719622898
 20
102.4478596186
 11
122.1803242898
 21
102.4478596186
  0
LINE
  5
3FD
100
AcDbEntity
  8
0
100
AcDbLine
 62
7
  6
CONTINUOUS
 10
122.1803242898
 20
103.2590526186
 11
122.3719622898
 21
103.2590526186
  0
LINE
  5
3FE
100
AcDbEntity
  8
0
100
AcDbLine
 62
7
  6
CONTINUOUS
 10
122.3719622898
 20
103.9364486186
 11
121.7279512898
 21
103.9364486186
  0
LINE
  5
3FF
100
AcDbEntity
  8
0
100
AcDbLine
 62
7
  6
CONTINUOUS
 10
121.7279512898
 20
104.1525426186
 11
122.3719622898
 21
104.1525426186
  0
LINE
  5
400
100
AcDbEntity
  8
0
100
AcDbLine
 62
7
  6
CONTINUOUS
 10
153.9808864704
 20
84.6518496186
 11
153.8918962172
 21
84.745081549
  0
LINE
  5
401
100
AcDbEntity
  8
0
100
AcDbLine
 62
7
  6
CONTINUOUS
 10
149.1961033115
 20
71.0861978098
 11
148.391577532
 21
72.5992907353
  0
LINE
  5
402
100
AcDbEntity
  8
0
100
AcDbLine
 62
253
  6
CONTINUOUS
 10
130.4039327747
 20
145.882506189
 11
130.3992492597
 21
145.9271091331
  0
LWPOLYLINE
  5
403
100
AcDbEntity
  8
0
100
AcDbPolyline
 62
253
  6
CONTINUOUS
 90
10
 70
0
 10
130.3992492597
 20
145.9271091331
 10
130.3953018135
 20
145.9676799136
 10
130.3936728049
 20
145.9857548225
 10
130.3923041884
 20
146.0020216409
 10
130.3912145546
 20
146.0162594084
 10
130.3904187046
 20
146.028274726
 10
130.3899274488
 20
146.0379043833
 10
130.3897474601
 20
146.0450175759
 10
130.3898811836
 20
146.0495176815
 10
130.3903268026
 20
146.0513435729
  0
LINE
  5
404
100
AcDbEntity
  8
0
100
AcDbLine
 62
253
  6
CONTINUOUS
 10
131.5536183441
 20
148.1136857163
 11
131.6742866521
 21
146.7690894351
  0
LWPOLYLINE
  5
405
100
AcDbEntity
  8
0
100
AcDbPolyline
 62
253
  6
CONTINUOUS
 90
22
 70
0
 10
135.0581018447
 20
80.9378094243
 10
135.0590347897
 20
80.9154286103
 10
135.0616445374
 20
80.8931930562
 10
135.0659128637
 20
80.8712272809
 10
135.0718110313
 20
80.8496596529
 10
135.0793031313
 20
80.8286039046
 10
135.0883503651
 20
80.808159889
 10
135.0989056502
 20
80.7884366373
 10
135.110908138
 20
80.7695501196
 10
135.1242892589
 20
80.751605657
 10
135.1389736884
 20
80.7347042899
 10
135.1548803398
 20
80.7189394121
 10
135.1719213296
 20
80.7043963597
 10
135.1900026269
 20
80.6911562741
 10
135.2090234795
 20
80.6792938679
 10
135.2288776553
 20
80.6688744366
 10
135.2494488016
 20
80.6599589502
 10
135.2706284382
 20
80.652594396
 10
135.2923176
 20
80.6468169138
 10
135.3144030374
 20
80.6426622903
 10
135.3367562153
 20
80.6401609775
 10
135.3592525847
 20
80.6393319474
  0
LINE
  5
406
100
AcDbEntity
  8
0
100
AcDbLine
 62
7
  6
CONTINUOUS
 10
135.2583633102
 20
81.6446867203
 11
135.2579945138
 21
81.6553402328
  0
LWPOLYLINE
  5
407
100
AcDbEntity
  8
0
100
AcDbPolyline
 62
253
  6
CONTINUOUS
 90
5
 70
0
 10
135.3579535683
 20
135.0961012259
 10
135.3582671586
 20
135.0831863494
 10
135.3585922635
 20
135.0735242175
 10
135.3589251196
 20
135.0672266767
 10
135.3592618739
 20
135.0643666255
  0
LINE
  5
408
100
AcDbEntity
  8
0
100
AcDbLine
 62
253
  6
CONTINUOUS
 10
135.3573752761
 20
135.1310552943
 11
135.3579535683
 21
135.0961012259
  0
LINE
  5
409
100
AcDbEntity
  8
0
100
AcDbLine
 62
253
  6
CONTINUOUS
 10
135.3566784284
 20
135.2030248088
 11
135.3573752761
 21
135.1310552943
  0
LINE
  5
40A
100
AcDbEntity
  8
0
100
AcDbLine
 62
253
  6
CONTINUOUS
 10
135.9575629056
 20
80.3157406887
 11
135.9588013583
 21
79.8745959938
  0
LINE
  5
40B
100
AcDbEntity
  8
0
100
AcDbLine
 62
253
  6
CONTINUOUS
 10
136.2584581749
 20
80.6375599247
 11
136.2596629831
 21
80.1972502015
  0
LINE
  5
40C
100
AcDbEntity
  8
0
100
AcDbLine
 62
253
  6
CONTINUOUS
 10
135.3561733267
 20
135.3233487973
 11
135.3566784284
 21
135.2030248088
  0
LINE
  5
40D
100
AcDbEntity
  8
0
100
AcDbLine
 62
253
  6
CONTINUOUS
 10
134.7472876571
 20
83.8366037885
 11
134.7539090245
 21
80.9154188239
  0
LINE
  5
40E
100
AcDbEntity
  8
0
100
AcDbLine
 62
253
  6
CONTINUOUS
 10
135.0515160217
 20
83.8416600672
 11
135.0581018497
 21
80.9378094293
  0
LINE
  5
40F
100
AcDbEntity
  8
0
100
AcDbLine
 62
7
  6
CONTINUOUS
 10
136.0554006801
 20
131.867326814
 11
136.0530883297
 21
133.9952715052
  0
LINE
  5
410
100
AcDbEntity
  8
0
100
AcDbLine
 62
7
  6
CONTINUOUS
 10
134.2210432898
 20
72.9982816186
 11
134.2210432898
 21
72.6919946186
  0
LINE
  5
411
100
AcDbEntity
  8
0
100
AcDbLine
 62
7
  6
CONTINUOUS
 10
134.5432642898
 20
73.5615976186
 11
134.5432642898
 21
72.9982816186
  0
LINE
  5
412
100
AcDbEntity
  8
0
100
AcDbLine
 62
7
  6
CONTINUOUS
 10
134.5432642898
 20
72.6919946186
 11
134.5432642898
 21
71.6678006186
  0
LINE
  5
413
100
AcDbEntity
  8
0
100
AcDbLine
 62
7
  6
CONTINUOUS
 10
134.8495522898
 20
71.6678006186
 11
134.8495522898
 21
74.0730556186
  0
LINE
  5
414
100
AcDbEntity
  8
0
100
AcDbLine
 62
7
  6
CONTINUOUS
 10
135.1078346732
 20
134.01083334
 11
135.1078346732
 21
131.8338884237
  0
LINE
  5
415
100
AcDbEntity
  8
0
100
AcDbLine
 62
7
  6
CONTINUOUS
 10
135.1078346732
 20
83.8698108134
 11
135.1078346732
 21
81.6928658972
  0
LINE
  5
416
100
AcDbEntity
  8
0
100
AcDbLine
 62
7
  6
CONTINUOUS
 10
135.1653414898
 20
74.0730552186
 11
135.1653414898
 21
73.7667680186
  0
LINE
  5
417
100
AcDbEntity
  8
0
100
AcDbLine
 62
7
  6
CONTINUOUS
 10
135.2583633102
 20
134.56563135
 11
135.2583633102
 21
134.0590125168
  0
LINE
  5
418
100
AcDbEntity
  8
0
100
AcDbLine
 62
7
  6
CONTINUOUS
 10
135.2583633102
 20
81.6446867203
 11
135.2583633102
 21
81.1380678871
  0
LINE
  5
419
100
AcDbEntity
  8
0
100
AcDbLine
 62
253
  6
CONTINUOUS
 10
135.356130385
 20
135.3877826137
 11
135.3561733267
 21
135.3233487973
  0
LINE
  5
41A
100
AcDbEntity
  8
0
100
AcDbLine
 62
7
  6
CONTINUOUS
 10
135.6616234837
 20
134.8518496186
 11
135.6616234837
 21
134.4518496186
  0
LINE
  5
41B
100
AcDbEntity
  8
0
100
AcDbLine
 62
7
  6
CONTINUOUS
 10
135.6616234837
 20
81.2518496186
 11
135.6616234837
 21
80.8518496186
  0
LINE
  5
41C
100
AcDbEntity
  8
0
100
AcDbLine
 62
7
  6
CONTINUOUS
 10
136.0044082898
 20
140.3038126186
 11
136.0044082898
 21
141.0546296186
  0
LINE
  5
41D
100
AcDbEntity
  8
0
100
AcDbLine
 62
7
  6
CONTINUOUS
 10
136.0044082898
 20
144.6490696186
 11
136.0044082898
 21
145.3998866186
  0
LINE
  5
41E
100
AcDbEntity
  8
0
100
AcDbLine
 62
7
  6
CONTINUOUS
 10
136.0219622898
 20
81.6928658972
 11
136.0219622898
 21
83.8698108134
  0
LINE
  5
41F
100
AcDbEntity
  8
0
100
AcDbLine
 62
7
  6
CONTINUOUS
 10
136.0219622898
 20
131.8338884237
 11
136.0219622898
 21
134.01083334
  0
LINE
  5
420
100
AcDbEntity
  8
0
100
AcDbLine
 62
7
  6
CONTINUOUS
 10
136.4719622898
 20
135.4518496186
 11
136.4719622898
 21
134.8518496186
  0
LINE
  5
421
100
AcDbEntity
  8
0
100
AcDbLine
 62
7
  6
CONTINUOUS
 10
136.4719622898
 20
80.2518496186
 11
136.4719622898
 21
80.8518496186
  0
LINE
  5
422
100
AcDbEntity
  8
0
100
AcDbLine
 62
7
  6
CONTINUOUS
 10
137.2719622898
 20
135.4518496186
 11
137.2719622898
 21
134.8518496186
  0
LINE
  5
423
100
AcDbEntity
  8
0
100
AcDbLine
 62
7
  6
CONTINUOUS
 10
137.2719622898
 20
80.2518496186
 11
137.2719622898
 21
80.8518496186
  0
LINE
  5
424
100
AcDbEntity
  8
0
100
AcDbLine
 62
7
  6
CONTINUOUS
 10
137.2745082898
 20
74.0805016186
 11
137.2745082898
 21
71.6797946186
  0
LINE
  5
425
100
AcDbEntity
  8
0
100
AcDbLine
 62
7
  6
CONTINUOUS
 10
136.0530883297
 20
81.7084277319
 11
136.0554006801
 21
83.8363724231
  0
LINE
  5
426
100
AcDbEntity
  8
0
100
AcDbLine
 62
253
  6
CONTINUOUS
 10
134.7539090245
 20
134.7882804132
 11
134.7472876571
 21
131.8670954486
  0
LINE
  5
427
100
AcDbEntity
  8
0
100
AcDbLine
 62
253
  6
CONTINUOUS
 10
135.0581018809
 20
134.7659023199
 11
135.0515160217
 21
131.8620391699
  0
LINE
  5
428
100
AcDbEntity
  8
0
100
AcDbLine
 62
253
  6
CONTINUOUS
 10
135.9588013583
 20
135.8291032434
 11
135.9575629056
 21
135.3879585485
  0
LINE
  5
429
100
AcDbEntity
  8
0
100
AcDbLine
 62
253
  6
CONTINUOUS
 10
136.2596629853
 20
135.5064490299
 11
136.2584581749
 21
135.0661393125
  0
LINE
  5
42A
100
AcDbEntity
  8
0
100
AcDbLine
 62
253
  6
CONTINUOUS
 10
135.3561303671
 20
80.3159164884
 11
135.3563588501
 21
80.442898716
  0
LINE
  5
42B
100
AcDbEntity
  8
0
100
AcDbLine
 62
253
  6
CONTINUOUS
 10
135.3563588501
 20
80.442898716
 11
135.3568840768
 21
80.5269261873
  0
LINE
  5
42C
100
AcDbEntity
  8
0
100
AcDbLine
 62
253
  6
CONTINUOUS
 10
135.3568840768
 20
80.5269261873
 11
135.3573752693
 21
80.5726434197
  0
LWPOLYLINE
  5
42D
100
AcDbEntity
  8
0
100
AcDbPolyline
 62
253
  6
CONTINUOUS
 90
6
 70
0
 10
135.3573752693
 20
80.5726434197
 10
135.3579535638
 20
80.6075974062
 10
135.3582671553
 20
80.6205122542
 10
135.3585922613
 20
80.6301743674
 10
135.3589251185
 20
80.6364719002
 10
135.3592618739
 20
80.6393319545
  0
LINE
  5
42E
100
AcDbEntity
  8
0
100
AcDbLine
 62
7
  6
CONTINUOUS
 10
135.2579945138
 20
134.0483590044
 11
135.2583633102
 21
134.0590125168
  0
LINE
  5
42F
100
AcDbEntity
  8
0
100
AcDbLine
 62
253
  6
CONTINUOUS
 10
131.5536183441
 20
67.5900135208
 11
131.6742866521
 21
68.934609802
  0
LINE
  5
430
100
AcDbEntity
  8
0
100
AcDbLine
 62
253
  6
CONTINUOUS
 10
130.3992492606
 20
69.7765901097
 11
130.3953018149
 21
69.7360193341
  0
LINE
  5
431
100
AcDbEntity
  8
0
100
AcDbLine
 62
253
  6
CONTINUOUS
 10
130.403932775
 20
69.821193049
 11
130.3992492606
 21
69.7765901097
  0
LINE
  5
432
100
AcDbEntity
  8
0
100
AcDbLine
 62
253
  6
CONTINUOUS
 10
130.3808192292
 20
69.5684527067
 11
130.3903452323
 21
69.6523535847
  0
LWPOLYLINE
  5
433
100
AcDbEntity
  8
0
100
AcDbPolyline
 62
253
  6
CONTINUOUS
 90
13
 70
0
 10
127.315789111
 20
70.2970427679
 10
127.311599696
 20
70.2747018385
 10
127.3076450854
 20
70.2530585886
 10
127.3039787889
 20
70.2324058725
 10
127.3006504152
 20
70.213023142
 10
127.2977050003
 20
70.1951726639
 10
127.2951823985
 20
70.1790959724
 10
127.293116743
 20
70.1650106005
 10
127.2915359839
 20
70.1531071366
 10
127.2904615105
 20
70.1435466457
 10
127.2899078613
 20
70.1364584901
 10
127.2898825276
 20
70.1319385794
 10
127.2903858522
 20
70.130048072
  0
LINE
  5
434
100
AcDbEntity
  8
0
100
AcDbLine
 62
253
  6
CONTINUOUS
 10
127.2744412182
 20
70.0489272233
 11
127.2904279737
 21
70.1300391912
  0
LINE
  5
435
100
AcDbEntity
  8
0
100
AcDbLine
 62
253
  6
CONTINUOUS
 10
126.6161850916
 20
68.3419940497
 11
126.9012721192
 21
69.6615490454
  0
LINE
  5
436
100
AcDbEntity
  8
0
100
AcDbLine
 62
7
  6
CONTINUOUS
 10
152.1230261135
 20
126.8518496186
 11
152.1911112117
 21
126.9185164124
  0
LINE
  5
437
100
AcDbEntity
  8
0
100
AcDbLine
 62
7
  6
CONTINUOUS
 10
152.0889835643
 20
124.1185164124
 11
151.9868559169
 21
124.0185162217
  0
LINE
  5
438
100
AcDbEntity
  8
0
100
AcDbLine
 62
7
  6
CONTINUOUS
 10
152.1230261135
 20
123.9185162217
 11
152.1911112117
 21
123.9851830155
  0
LINE
  5
439
100
AcDbEntity
  8
0
100
AcDbLine
 62
7
  6
CONTINUOUS
 10
152.5996218729
 20
123.0851830155
 11
152.7357920813
 21
123.1851830155
  0
LINE
  5
43A
100
AcDbEntity
  8
0
100
AcDbLine
 62
7
  6
CONTINUOUS
 10
152.0208984661
 20
121.5851829678
 11
152.1570686626
 21
121.6851829201
  0
LINE
  5
43B
100
AcDbEntity
  8
0
100
AcDbLine
 62
7
  6
CONTINUOUS
 10
152.5996218729
 20
121.6185162693
 11
152.7357920813
 21
121.718516317
  0
LINE
  5
43C
100
AcDbEntity
  8
0
100
AcDbLine
 62
7
  6
CONTINUOUS
 10
120.7719622898
 20
101.4539186186
 11
122.3719622898
 21
102.0333996186
  0
LINE
  5
43D
100
AcDbEntity
  8
0
100
AcDbLine
 62
7
  6
CONTINUOUS
 10
121.6074832898
 20
124.9973726186
 11
120.9694575293
 21
125.7544873343
  0
LINE
  5
43E
100
AcDbEntity
  8
0
100
AcDbLine
 62
7
  6
CONTINUOUS
 10
121.3304455311
 20
125.7193583322
 11
121.9388672898
 21
124.9973726186
  0
LINE
  5
43F
100
AcDbEntity
  8
0
100
AcDbLine
 62
253
  6
CONTINUOUS
 10
126.6161850916
 20
147.3617051874
 11
126.9012721192
 21
146.0421501917
  0
LINE
  5
440
100
AcDbEntity
  8
0
100
AcDbLine
 62
253
  6
CONTINUOUS
 10
127.2744412182
 20
145.6547720138
 11
127.2904441348
 21
145.5736632121
  0
LWPOLYLINE
  5
441
100
AcDbEntity
  8
0
100
AcDbPolyline
 62
253
  6
CONTINUOUS
 90
13
 70
0
 10
127.3157891089
 20
145.406656474
 10
127.3115996823
 20
145.4289974511
 10
127.3076450592
 20
145.4506407556
 10
127.3039787497
 20
145.4712935313
 10
127.3006503628
 20
145.4906763247
 10
127.297704935
 20
145.5085268665
 10
127.2951823209
 20
145.5246036204
 10
127.2931166543
 20
145.5386890513
 10
127.2915358856
 20
145.5505925686
 10
127.2904614043
 20
145.5601531055
 10
127.2899077494
 20
145.567241298
 10
127.2898824122
 20
145.5717612355
 10
127.2903857356
 20
145.5736517585
  0
LINE
  5
442
100
AcDbEntity
  8
0
100
AcDbLine
 62
253
  6
CONTINUOUS
 10
130.3808192292
 20
146.1352465305
 11
130.3903452156
 21
146.0513456506
  0
LINE
  5
443
100
AcDbEntity
  8
0
100
AcDbLine
 62
253
  6
CONTINUOUS
 10
143.3399918009
 20
69.821193061
 11
143.3446753101
 21
69.7765901604
  0
LWPOLYLINE
  5
444
100
AcDbEntity
  8
0
100
AcDbPolyline
 62
253
  6
CONTINUOUS
 90
10
 70
0
 10
143.3446753101
 20
69.7765901604
 10
143.3486227503
 20
69.7360194306
 10
143.350251756
 20
69.7179445472
 10
143.35162037
 20
69.7016777527
 10
143.3527100017
 20
69.6874400065
 10
143.3535058502
 20
69.6754247069
 10
143.3539971051
 20
69.665795063
 10
143.3541770934
 20
69.6586818788
 10
143.3540433703
 20
69.6541817763
 10
143.3535977522
 20
69.6523558825
  0
LINE
  5
445
100
AcDbEntity
  8
0
100
AcDbLine
 62
253
  6
CONTINUOUS
 10
142.1903062355
 20
67.5900135208
 11
142.0696379275
 21
68.934609802
  0
LWPOLYLINE
  5
446
100
AcDbEntity
  8
0
100
AcDbPolyline
 62
253
  6
CONTINUOUS
 90
22
 70
0
 10
138.990015555
 20
134.7882804132
 10
138.9881186411
 20
134.8335774484
 10
138.9829696033
 20
134.8780968049
 10
138.9745686677
 20
134.9218385312
 10
138.962834099
 20
134.9650257609
 10
138.9478480615
 20
135.0074354466
 10
138.929856594
 20
135.048398409
 10
138.9088087239
 20
135.0879021227
 10
138.8847557288
 20
135.1259592881
 10
138.8580969364
 20
135.1619386417
 10
138.8287909431
 20
135.1958046093
 10
138.7968792694
 20
135.2275929897
 10
138.7628855157
 20
135.2567796333
 10
138.7267742044
 20
135.2833229782
 10
138.6885807164
 20
135.3072648146
 10
138.6489348242
 20
135.3282060475
 10
138.6078246756
 20
135.3460975759
 10
138.5652618288
 20
135.3609886863
 10
138.5219110792
 20
135.3726278651
 10
138.477993871
 20
135.3809313116
 10
138.4332883258
 20
135.3859829307
 10
138.3877942125
 20
135.3877827488
  0
LWPOLYLINE
  5
447
100
AcDbEntity
  8
0
100
AcDbPolyline
 62
253
  6
CONTINUOUS
 90
22
 70
0
 10
138.6858227348
 20
134.7658898129
 10
138.6848897899
 20
134.7882706268
 10
138.6822800422
 20
134.810506181
 10
138.6780117158
 20
134.8324719562
 10
138.6721135482
 20
134.8540395843
 10
138.6646214482
 20
134.8750953325
 10
138.6555742144
 20
134.8955393481
 10
138.6450189294
 20
134.9152625998
 10
138.6330164415
 20
134.9341491175
 10
138.6196353207
 20
134.9520935802
 10
138.6049508912
 20
134.9689949472
 10
138.5890442398
 20
134.984759825
 10
138.5720032499
 20
134.9993028774
 10
138.5539219526
 20
135.0125429631
 10
138.5349011
 20
135.0244053692
 10
138.5150469242
 20
135.0348248006
 10
138.4944757779
 20
135.0437402869
 10
138.4732961413
 20
135.0511048411
 10
138.4516069795
 20
135.0568823233
 10
138.4295215421
 20
135.0610369468
 10
138.4071683643
 20
135.0635382597
 10
138.3846719948
 20
135.0643672897
  0
LINE
  5
448
100
AcDbEntity
  8
0
100
AcDbLine
 62
7
  6
CONTINUOUS
 10
138.4855612693
 20
134.0590125168
 11
138.4859300657
 21
134.0483590044
  0
LWPOLYLINE
  5
449
100
AcDbEntity
  8
0
100
AcDbPolyline
 62
253
  6
CONTINUOUS
 90
5
 70
0
 10
138.3859710113
 20
80.6075980112
 10
138.3856574209
 20
80.6205128878
 10
138.3853323161
 20
80.6301750196
 10
138.38499946
 20
80.6364725604
 10
138.3846627057
 20
80.6393326116
  0
LWPOLYLINE
  5
44A
100
AcDbEntity
  8
0
100
AcDbPolyline
 62
7
  6
CONTINUOUS
 90
8
 70
0
 10
142.084859652
 20
69.56668795
 10
142.0851212809
 20
69.5559049655
 10
142.0854028828
 20
69.5464897779
 10
142.0857022857
 20
69.5384799941
 10
142.086009269
 20
69.5321538304
 10
142.0863204257
 20
69.5276040255
 10
142.0866391627
 20
69.5247378408
 10
142.0869654801
 20
69.5235552761
  0
LINE
  5
44B
100
AcDbEntity
  8
0
100
AcDbLine
 62
253
  6
CONTINUOUS
 10
138.3865493034
 20
80.5726439429
 11
138.3859710113
 21
80.6075980112
  0
LINE
  5
44C
100
AcDbEntity
  8
0
100
AcDbLine
 62
253
  6
CONTINUOUS
 10
138.3872461512
 20
80.5006744283
 11
138.3865493034
 21
80.5726439429
  0
LINE
  5
44D
100
AcDbEntity
  8
0
100
AcDbLine
 62
253
  6
CONTINUOUS
 10
137.7863616739
 20
135.3879585485
 11
137.7851232212
 21
135.8291032434
  0
LINE
  5
44E
100
AcDbEntity
  8
0
100
AcDbLine
 62
253
  6
CONTINUOUS
 10
137.4854664047
 20
135.0661393124
 11
137.4842615964
 21
135.5064490356
  0
LINE
  5
44F
100
AcDbEntity
  8
0
100
AcDbLine
 62
253
  6
CONTINUOUS
 10
138.3877512529
 20
80.3803504399
 11
138.3872461512
 21
80.5006744283
  0
LINE
  5
450
100
AcDbEntity
  8
0
100
AcDbLine
 62
253
  6
CONTINUOUS
 10
138.6924085579
 20
131.8620391699
 11
138.6858227298
 21
134.7658898078
  0
LINE
  5
451
100
AcDbEntity
  8
0
100
AcDbLine
 62
253
  6
CONTINUOUS
 10
138.9966369224
 20
131.8670954486
 11
138.990015555
 21
134.7882804132
  0
LINE
  5
452
100
AcDbEntity
  8
0
100
AcDbLine
 62
7
  6
CONTINUOUS
 10
137.6885238995
 20
83.8363724231
 11
137.6908362498
 21
81.7084277319
  0
LINE
  5
453
100
AcDbEntity
  8
0
100
AcDbLine
 62
7
  6
CONTINUOUS
 10
137.5807952898
 20
71.6797946186
 11
137.5807952898
 21
74.0805016186
  0
LINE
  5
454
100
AcDbEntity
  8
0
100
AcDbLine
 62
7
  6
CONTINUOUS
 10
137.7219622898
 20
134.01083334
 11
137.7219622898
 21
131.8338884237
  0
LINE
  5
455
100
AcDbEntity
  8
0
100
AcDbLine
 62
7
  6
CONTINUOUS
 10
137.7219622898
 20
83.8698108134
 11
137.7219622898
 21
81.6928658972
  0
LINE
  5
456
100
AcDbEntity
  8
0
100
AcDbLine
 62
7
  6
CONTINUOUS
 10
138.0823010958
 20
80.8518496186
 11
138.0823010958
 21
81.2518496186
  0
LINE
  5
457
100
AcDbEntity
  8
0
100
AcDbLine
 62
7
  6
CONTINUOUS
 10
138.0823010958
 20
134.4518496186
 11
138.0823010958
 21
134.8518496186
  0
LINE
  5
458
100
AcDbEntity
  8
0
100
AcDbLine
 62
253
  6
CONTINUOUS
 10
138.3877941946
 20
80.3159166235
 11
138.3877512529
 21
80.3803504399
  0
LINE
  5
459
100
AcDbEntity
  8
0
100
AcDbLine
 62
7
  6
CONTINUOUS
 10
138.4855612693
 20
81.1380678871
 11
138.4855612693
 21
81.6446867203
  0
LINE
  5
45A
100
AcDbEntity
  8
0
100
AcDbLine
 62
7
  6
CONTINUOUS
 10
138.4855612693
 20
134.0590125168
 11
138.4855612693
 21
134.56563135
  0
LINE
  5
45B
100
AcDbEntity
  8
0
100
AcDbLine
 62
7
  6
CONTINUOUS
 10
138.6360899064
 20
81.6928658972
 11
138.6360899064
 21
83.8698108134
  0
LINE
  5
45C
100
AcDbEntity
  8
0
100
AcDbLine
 62
7
  6
CONTINUOUS
 10
138.6360899064
 20
131.8338884237
 11
138.6360899064
 21
134.01083334
  0
LINE
  5
45D
100
AcDbEntity
  8
0
100
AcDbLine
 62
7
  6
CONTINUOUS
 10
139.6599382898
 20
74.0765016186
 11
139.6599382898
 21
71.6797946186
  0
LINE
  5
45E
100
AcDbEntity
  8
0
100
AcDbLine
 62
7
  6
CONTINUOUS
 10
139.9662272898
 20
71.9860816186
 11
139.9662272898
 21
73.7702146186
  0
LINE
  5
45F
100
AcDbEntity
  8
0
100
AcDbLine
 62
7
  6
CONTINUOUS
 10
139.9895182898
 20
142.4768496186
 11
139.9895182898
 21
143.2268496186
  0
LINE
  5
460
100
AcDbEntity
  8
0
100
AcDbLine
 62
7
  6
CONTINUOUS
 10
140.3117472898
 20
73.0045536186
 11
140.3117472898
 21
72.6991456186
  0
LINE
  5
461
100
AcDbEntity
  8
0
100
AcDbLine
 62
7
  6
CONTINUOUS
 10
140.3719622898
 20
69.3431669633
 11
140.3719622898
 21
67.5786193823
  0
LINE
  5
462
100
AcDbEntity
  8
0
100
AcDbLine
 62
7
  6
CONTINUOUS
 10
140.3895182898
 20
140.3038125008
 11
140.3895182898
 21
141.054632667
  0
LINE
  5
463
100
AcDbEntity
  8
0
100
AcDbLine
 62
7
  6
CONTINUOUS
 10
140.3895182898
 20
144.6490696186
 11
140.3895182898
 21
145.3998867363
  0
LINE
  5
464
100
AcDbEntity
  8
0
100
AcDbLine
 62
7
  6
CONTINUOUS
 10
140.5469396168
 20
69.3191020599
 11
140.5469396168
 21
68.8180918422
  0
LINE
  5
465
100
AcDbEntity
  8
0
100
AcDbLine
 62
7
  6
CONTINUOUS
 10
137.6908362498
 20
133.9952715052
 11
137.6885238995
 21
131.867326814
  0
LINE
  5
466
100
AcDbEntity
  8
0
100
AcDbLine
 62
253
  6
CONTINUOUS
 10
138.6858226986
 20
80.9377969172
 11
138.6924085579
 21
83.8416600672
  0
LINE
  5
467
100
AcDbEntity
  8
0
100
AcDbLine
 62
253
  6
CONTINUOUS
 10
138.990015555
 20
80.9154188239
 11
138.9966369224
 21
83.8366037885
  0
LINE
  5
468
100
AcDbEntity
  8
0
100
AcDbLine
 62
253
  6
CONTINUOUS
 10
137.4842615943
 20
80.1972502072
 11
137.4854664047
 21
80.6375599247
  0
LINE
  5
469
100
AcDbEntity
  8
0
100
AcDbLine
 62
253
  6
CONTINUOUS
 10
137.7851232212
 20
79.8745959938
 11
137.7863616739
 21
80.3157406887
  0
LINE
  5
46A
100
AcDbEntity
  8
0
100
AcDbLine
 62
253
  6
CONTINUOUS
 10
138.3877942125
 20
135.3877827488
 11
138.3875657294
 21
135.2608005211
  0
LINE
  5
46B
100
AcDbEntity
  8
0
100
AcDbLine
 62
253
  6
CONTINUOUS
 10
138.3875657294
 20
135.2608005211
 11
138.3870405027
 21
135.1767730498
  0
LINE
  5
46C
100
AcDbEntity
  8
0
100
AcDbLine
 62
253
  6
CONTINUOUS
 10
138.3870405027
 20
135.1767730498
 11
138.3865493102
 21
135.1310558175
  0
LWPOLYLINE
  5
46D
100
AcDbEntity
  8
0
100
AcDbPolyline
 62
253
  6
CONTINUOUS
 90
6
 70
0
 10
138.3865493102
 20
135.1310558175
 10
138.3859710157
 20
135.0961018309
 10
138.3856574243
 20
135.0831869829
 10
138.3853323183
 20
135.0735248698
 10
138.384999461
 20
135.0672273369
 10
138.3846627057
 20
135.0643672826
  0
LINE
  5
46E
100
AcDbEntity
  8
0
100
AcDbLine
 62
7
  6
CONTINUOUS
 10
138.4859300657
 20
81.6553402328
 11
138.4855612693
 21
81.6446867203
  0
LINE
  5
46F
100
AcDbEntity
  8
0
100
AcDbLine
 62
253
  6
CONTINUOUS
 10
142.1903062355
 20
148.1136857163
 11
142.0696379275
 21
146.7690894351
  0
LWPOLYLINE
  5
470
100
AcDbEntity
  8
0
100
AcDbPolyline
 62
253
  6
CONTINUOUS
 90
9
 70
0
 10
143.3486227646
 20
145.9676799031
 10
143.3502517729
 20
145.9857548096
 10
143.3516203892
 20
146.0020216259
 10
143.3527100228
 20
146.0162593915
 10
143.3535058727
 20
146.0282747074
 10
143.3539971284
 20
146.0379043635
 10
143.3541771169
 20
146.0450175552
 10
143.3540433935
 20
146.0495176604
 10
143.3535977745
 20
146.0513435518
  0
LINE
  5
471
100
AcDbEntity
  8
0
100
AcDbLine
 62
253
  6
CONTINUOUS
 10
143.3446753189
 20
145.9271091275
 11
143.3486227646
 21
145.9676799031
  0
LINE
  5
472
100
AcDbEntity
  8
0
100
AcDbLine
 62
253
  6
CONTINUOUS
 10
143.3399918046
 20
145.8825061882
 11
143.3446753189
 21
145.9271091275
  0
LINE
  5
473
100
AcDbEntity
  8
0
100
AcDbLine
 62
253
  6
CONTINUOUS
 10
143.3631053503
 20
146.1352465305
 11
143.3535793014
 21
146.0513456577
  0
LWPOLYLINE
  5
474
100
AcDbEntity
  8
0
100
AcDbPolyline
 62
253
  6
CONTINUOUS
 90
13
 70
0
 10
146.4281354685
 20
145.4066564693
 10
146.4323248837
 20
145.4289973992
 10
146.4362794944
 20
145.4506406497
 10
146.439945791
 20
145.4712933663
 10
146.4432741648
 20
145.4906760975
 10
146.4462195798
 20
145.5085265761
 10
146.4487421818
 20
145.5246032683
 10
146.4508078374
 20
145.5386886408
 10
146.4523885966
 20
145.5505921052
 10
146.4534630701
 20
145.5601525965
 10
146.4540167194
 20
145.5672407525
 10
146.4540420531
 20
145.5717606634
 10
146.4535387285
 20
145.573651171
  0
LINE
  5
475
100
AcDbEntity
  8
0
100
AcDbLine
 62
253
  6
CONTINUOUS
 10
146.4694833613
 20
145.6547720138
 11
146.4534970288
 21
145.5736599631
  0
LINE
  5
476
100
AcDbEntity
  8
0
100
AcDbLine
 62
253
  6
CONTINUOUS
 10
147.1277394879
 20
147.3617051874
 11
146.8426524603
 21
146.0421501917
  0
LINE
  5
477
100
AcDbEntity
  8
0
100
AcDbLine
 62
7
  6
CONTINUOUS
 10
151.4081324863
 20
126.9185164124
 11
151.3060048389
 21
126.7518496186
  0
LINE
  5
478
100
AcDbEntity
  8
0
100
AcDbLine
 62
7
  6
CONTINUOUS
 10
151.9868559169
 20
126.9518496186
 11
151.8847282695
 21
126.7851828247
  0
LINE
  5
479
100
AcDbEntity
  8
0
100
AcDbLine
 62
7
  6
CONTINUOUS
 10
151.4081324863
 20
125.4518496186
 11
151.3060048389
 21
125.2851828247
  0
LINE
  5
47A
100
AcDbEntity
  8
0
100
AcDbLine
 62
7
  6
CONTINUOUS
 10
151.4081324863
 20
123.9851830155
 11
151.3060048389
 21
123.8185162217
  0
LINE
  5
47B
100
AcDbEntity
  8
0
100
AcDbLine
 62
7
  6
CONTINUOUS
 10
152.7357920813
 20
126.1185164124
 11
152.8379197377
 21
126.2851828247
  0
LINE
  5
47C
100
AcDbEntity
  8
0
100
AcDbLine
 62
7
  6
CONTINUOUS
 10
152.1570686626
 20
124.6185164124
 11
152.25919631
 21
124.7851828247
  0
LINE
  5
47D
100
AcDbEntity
  8
0
100
AcDbLine
 62
7
  6
CONTINUOUS
 10
151.4762175846
 20
126.7185164124
 11
151.5443026828
 21
126.8185164124
  0
LINE
  5
47E
100
AcDbEntity
  8
0
100
AcDbLine
 62
7
  6
CONTINUOUS
 10
152.0549410152
 20
126.7518496186
 11
152.1230261135
 21
126.8518496186
  0
LINE
  5
47F
100
AcDbEntity
  8
0
100
AcDbLine
 62
7
  6
CONTINUOUS
 10
151.4762175846
 20
125.2518496186
 11
151.5443026828
 21
125.3518496186
  0
LINE
  5
480
100
AcDbEntity
  8
0
100
AcDbLine
 62
7
  6
CONTINUOUS
 10
152.6677069711
 20
126.3185164124
 11
152.5996218729
 21
126.2185164124
  0
LINE
  5
481
100
AcDbEntity
  8
0
100
AcDbLine
 62
7
  6
CONTINUOUS
 10
152.0889835643
 20
124.8185164124
 11
152.0208984661
 21
124.7185164124
  0
LINE
  5
482
100
AcDbEntity
  8
0
100
AcDbLine
 62
7
  6
CONTINUOUS
 10
151.4762175846
 20
123.7851830155
 11
151.5443026828
 21
123.8851830155
  0
LINE
  5
483
100
AcDbEntity
  8
0
100
AcDbLine
 62
7
  6
CONTINUOUS
 10
152.6677069711
 20
124.8518496186
 11
152.5996218729
 21
124.7518496186
  0
LINE
  5
484
100
AcDbEntity
  8
0
100
AcDbLine
 62
7
  6
CONTINUOUS
 10
152.0549410152
 20
123.8185162217
 11
152.1230261135
 21
123.9185162217
  0
LINE
  5
485
100
AcDbEntity
  8
0
100
AcDbLine
 62
7
  6
CONTINUOUS
 10
151.4762175846
 20
122.318516317
 11
151.5443026828
 21
122.418516317
  0
LINE
  5
486
100
AcDbEntity
  8
0
100
AcDbLine
 62
7
  6
CONTINUOUS
 10
119.7630381092
 20
84.6518496186
 11
119.8520283623
 21
84.745081549
  0
LINE
  5
487
100
AcDbEntity
  8
0
100
AcDbLine
 62
7
  6
CONTINUOUS
 10
122.3719622898
 20
97.5630266186
 11
121.0725712898
 21
96.7451696186
  0
LINE
  5
488
100
AcDbEntity
  8
0
100
AcDbLine
 62
7
  6
CONTINUOUS
 10
120.7719622898
 20
96.7919346186
 11
122.0716172898
 21
97.5964636186
  0
LINE
  5
489
100
AcDbEntity
  8
0
100
AcDbLine
 62
7
  6
CONTINUOUS
 10
122.3719622898
 20
101.7971196186
 11
121.9062602898
 21
101.6389056186
  0
LINE
  5
48A
100
AcDbEntity
  8
0
100
AcDbLine
 62
7
  6
CONTINUOUS
 10
121.7146232898
 20
101.5608916186
 11
121.0040402898
 21
101.3225036186
  0
LINE
  5
48B
100
AcDbEntity
  8
0
100
AcDbLine
 62
7
  6
CONTINUOUS
 10
119.8520283623
 20
130.9586176882
 11
119.7630381092
 21
131.0518496186
  0
LWPOLYLINE
  5
48C
100
AcDbEntity
  8
0
100
AcDbPolyline
 62
7
  6
CONTINUOUS
 90
10
 70
0
 10
152.1157634289
 20
95.1974244687
 10
152.1292984621
 20
95.1817898942
 10
152.1356680066
 20
95.1742234864
 10
152.1416979144
 20
95.1666511358
 10
152.1475447888
 20
95.1590490389
 10
152.153052055
 20
95.1514409992
 10
152.1576928692
 20
95.143747011
 10
152.1612916483
 20
95.1359404056
 10
152.1640240438
 20
95.1280478519
 10
152.1658900795
 20
95.12006935
  0
LINE
  5
48D
100
AcDbEntity
  8
0
100
AcDbLine
 62
253
  6
CONTINUOUS
 10
147.1277394879
 20
68.3419940497
 11
146.8426524603
 21
69.6615490454
  0
LINE
  5
48E
100
AcDbEntity
  8
0
100
AcDbLine
 62
253
  6
CONTINUOUS
 10
146.4694833613
 20
70.0489272233
 11
146.4534810195
 21
70.1300361376
  0
LWPOLYLINE
  5
48F
100
AcDbEntity
  8
0
100
AcDbPolyline
 62
253
  6
CONTINUOUS
 90
13
 70
0
 10
146.4281354707
 20
70.2970427631
 10
146.4323248972
 20
70.2747017861
 10
146.4362795203
 20
70.2530584815
 10
146.4399458298
 20
70.2324057058
 10
146.4432742168
 20
70.2130229124
 10
146.4462196446
 20
70.1951723706
 10
146.4487422586
 20
70.1790956167
 10
146.4508079253
 20
70.1650101858
 10
146.4523886939
 20
70.1531066685
 10
146.4534631752
 20
70.1435461316
 10
146.4540168302
 20
70.1364579391
 10
146.4540421674
 20
70.1319380016
 10
146.4535388439
 20
70.1300474786
  0
LINE
  5
490
100
AcDbEntity
  8
0
100
AcDbLine
 62
253
  6
CONTINUOUS
 10
143.3631053503
 20
69.5684527067
 11
143.3533808695
 21
69.6523311903
  0
LWPOLYLINE
  5
491
100
AcDbEntity
  8
0
100
AcDbPolyline
 62
7
  6
CONTINUOUS
 90
7
 70
0
 10
142.9584360035
 20
146.061855237
 10
142.9581538464
 20
146.0713829918
 10
142.9578534337
 20
146.0795153414
 10
142.9575457342
 20
146.0859483988
 10
142.9572344043
 20
146.0905808685
 10
142.9569157876
 20
146.0935140459
 10
142.9565898842
 20
146.0947479312
  0
LINE
  5
492
100
AcDbEntity
  8
0
100
AcDbLine
 62
7
  6
CONTINUOUS
 10
142.9589405542
 20
146.0386934773
 11
142.9584360035
 21
146.061855237
  0
LINE
  5
493
100
AcDbEntity
  8
0
100
AcDbLine
 62
7
  6
CONTINUOUS
 10
142.0843935018
 20
69.5923047346
 11
142.084859652
 21
69.56668795
  0
LINE
  5
494
100
AcDbEntity
  8
0
100
AcDbLine
 62
7
  6
CONTINUOUS
 10
142.9593626114
 20
146.0103811712
 11
142.9589405542
 21
146.0386934773
  0
LINE
  5
495
100
AcDbEntity
  8
0
100
AcDbLine
 62
7
  6
CONTINUOUS
 10
142.0840112785
 20
69.6231586939
 11
142.0843935018
 21
69.5923047346
  0
LINE
  5
496
100
AcDbEntity
  8
0
100
AcDbLine
 62
7
  6
CONTINUOUS
 10
142.9598130328
 20
145.9604661402
 11
142.9593626114
 21
146.0103811712
  0
LINE
  5
497
100
AcDbEntity
  8
0
100
AcDbLine
 62
7
  6
CONTINUOUS
 10
142.0836448869
 20
69.6748656413
 11
142.0840112785
 21
69.6231586939
  0
LINE
  5
498
100
AcDbEntity
  8
0
100
AcDbLine
 62
7
  6
CONTINUOUS
 10
142.0757689081
 20
72.8660041951
 11
142.0836448869
 21
69.6748656413
  0
LINE
  5
499
100
AcDbEntity
  8
0
100
AcDbLine
 62
7
  6
CONTINUOUS
 10
142.9675430512
 20
142.8383076623
 11
142.9598130328
 21
145.9604661402
  0
LINE
  5
49A
100
AcDbEntity
  8
0
100
AcDbLine
 62
7
  6
CONTINUOUS
 10
141.2373632898
 20
72.6991456186
 11
141.2373632898
 21
73.0045536186
  0
LINE
  5
49B
100
AcDbEntity
  8
0
100
AcDbLine
 62
7
  6
CONTINUOUS
 10
141.2800392898
 20
73.7702146186
 11
141.2800392898
 21
74.0765016186
  0
LINE
  5
49C
100
AcDbEntity
  8
0
100
AcDbLine
 62
7
  6
CONTINUOUS
 10
141.2991672898
 20
71.6797946186
 11
141.2991672898
 21
71.9860816186
  0
LINE
  5
49D
100
AcDbEntity
  8
0
100
AcDbLine
 62
7
  6
CONTINUOUS
 10
142.1719622898
 20
146.2577073336
 11
142.1719622898
 21
146.0393652294
  0
LINE
  5
49E
100
AcDbEntity
  8
0
100
AcDbLine
 62
7
  6
CONTINUOUS
 10
142.1719622898
 20
69.6643340077
 11
142.1719622898
 21
69.4459919035
  0
LINE
  5
49F
100
AcDbEntity
  8
0
100
AcDbLine
 62
7
  6
CONTINUOUS
 10
142.8719622898
 20
69.5149287037
 11
142.8719622898
 21
69.6643340077
  0
LINE
  5
4A0
100
AcDbEntity
  8
0
100
AcDbLine
 62
7
  6
CONTINUOUS
 10
142.8719622898
 20
146.0393652294
 11
142.8719622898
 21
146.1887705335
  0
LINE
  5
4A1
100
AcDbEntity
  8
0
100
AcDbLine
 62
253
  6
CONTINUOUS
 10
144.3719622898
 20
83.8698108134
 11
144.3719622898
 21
85.3405046904
  0
LINE
  5
4A2
100
AcDbEntity
  8
0
100
AcDbLine
 62
253
  6
CONTINUOUS
 10
144.3719622898
 20
130.3631945467
 11
144.3719622898
 21
131.8338884237
  0
LINE
  5
4A3
100
AcDbEntity
  8
0
100
AcDbLine
 62
7
  6
CONTINUOUS
 10
142.084025547
 20
146.1774592798
 11
142.0757689081
 21
142.837695042
  0
LINE
  5
4A4
100
AcDbEntity
  8
0
100
AcDbLine
 62
7
  6
CONTINUOUS
 10
142.9598130159
 20
69.7432336724
 11
142.9675430512
 21
72.8653915748
  0
LINE
  5
4A5
100
AcDbEntity
  8
0
100
AcDbLine
 62
7
  6
CONTINUOUS
 10
142.9593625874
 20
69.6933193497
 11
142.9598130159
 21
69.7432336724
  0
LINE
  5
4A6
100
AcDbEntity
  8
0
100
AcDbLine
 62
7
  6
CONTINUOUS
 10
142.9589405304
 20
69.6650074136
 11
142.9593625874
 21
69.6933193497
  0
LWPOLYLINE
  5
4A7
100
AcDbEntity
  8
0
100
AcDbPolyline
 62
7
  6
CONTINUOUS
 90
19
 70
0
 10
140.5469396168
 20
68.8180918422
 10
140.5391223008
 20
68.7197760238
 10
140.5310463932
 20
68.62462999
 10
140.5227118942
 20
68.5326537408
 10
140.5141092546
 20
68.4437539425
 10
140.5052480234
 20
68.3580239287
 10
140.4961568485
 20
68.2757437008
 10
140.4868354029
 20
68.196927013
 10
140.4772840135
 20
68.1215601109
 10
140.4675323088
 20
68.0498817329
 10
140.457580266
 20
67.9819044098
 10
140.447427908
 20
67.9176156108
 10
140.4371049319
 20
67.8572164813
 10
140.4266094294
 20
67.8007106504
 10
140.4159433088
 20
67.7480944891
 10
140.4051419923
 20
67.6995582558
 10
140.3942172873
 20
67.6551653699
 10
140.3831573865
 20
67.6148524121
 10
140.3719622898
 20
67.5786193823
  0
LWPOLYLINE
  5
4A8
100
AcDbEntity
  8
0
100
AcDbPolyline
 62
7
  6
CONTINUOUS
 90
8
 70
0
 10
131.6569590976
 20
69.5235552596
 10
131.6572854321
 20
69.5247346492
 10
131.657604184
 20
69.5275985586
 10
131.6579153534
 20
69.5321469879
 10
131.6582223474
 20
69.5384729743
 10
131.6585217587
 20
69.5464834805
 10
131.6588033665
 20
69.5558993948
 10
131.6593088258
 20
69.5788715973
  0
LINE
  5
4A9
100
AcDbEntity
  8
0
100
AcDbLine
 62
7
  6
CONTINUOUS
 10
131.5760976741
 20
69.9139913914
 11
131.6297900423
 21
70.0751994872
  0
LINE
  5
4AA
100
AcDbEntity
  8
0
100
AcDbLine
 62
7
  6
CONTINUOUS
 10
151.4421750354
 20
126.6185164124
 11
151.4762175846
 21
126.7185164124
  0
LINE
  5
4AB
100
AcDbEntity
  8
0
100
AcDbLine
 62
7
  6
CONTINUOUS
 10
124.547821268
 20
71.0861978098
 11
125.3523470475
 21
72.5992907353
  0
LINE
  5
4AC
100
AcDbEntity
  8
0
100
AcDbLine
 62
7
  6
CONTINUOUS
 10
151.9868559169
 20
124.0185162217
 11
151.8847282695
 21
123.8518496186
  0
LINE
  5
4AD
100
AcDbEntity
  8
0
100
AcDbLine
 62
7
  6
CONTINUOUS
 10
151.4081324863
 20
122.5185162217
 11
151.3060048389
 21
122.3518496186
  0
LINE
  5
4AE
100
AcDbEntity
  8
0
100
AcDbLine
 62
7
  6
CONTINUOUS
 10
152.7357920813
 20
124.6518496186
 11
152.8379197377
 21
124.8185164124
  0
LINE
  5
4AF
100
AcDbEntity
  8
0
100
AcDbLine
 62
7
  6
CONTINUOUS
 10
152.7357920813
 20
123.1851830155
 11
152.8379197377
 21
123.3518496186
  0
LINE
  5
4B0
100
AcDbEntity
  8
0
100
AcDbLine
 62
7
  6
CONTINUOUS
 10
152.1570686626
 20
121.6851829201
 11
152.25919631
 21
121.8518496186
  0
LINE
  5
4B1
100
AcDbEntity
  8
0
100
AcDbLine
 62
7
  6
CONTINUOUS
 10
152.7357920813
 20
121.718516317
 11
152.8379197377
 21
121.8851829201
  0
LINE
  5
4B2
100
AcDbEntity
  8
0
100
AcDbLine
 62
7
  6
CONTINUOUS
 10
152.6677069711
 20
123.3851830155
 11
152.5996218729
 21
123.2851830155
  0
LINE
  5
4B3
100
AcDbEntity
  8
0
100
AcDbLine
 62
7
  6
CONTINUOUS
 10
152.0889835643
 20
121.8851829201
 11
152.0208984661
 21
121.7851829201
  0
LINE
  5
4B4
100
AcDbEntity
  8
0
100
AcDbLine
 62
7
  6
CONTINUOUS
 10
152.6677069711
 20
121.918516317
 11
152.5996218729
 21
121.818516317
  0
LINE
  5
4B5
100
AcDbEntity
  8
0
100
AcDbLine
 62
7
  6
CONTINUOUS
 10
122.763747613
 20
124.3513184371
 11
122.985051446
 21
124.2271075309
  0
LINE
  5
4B6
100
AcDbEntity
  8
0
100
AcDbLine
 62
7
  6
CONTINUOUS
 10
123.7635152898
 20
125.9698736186
 11
123.9631352898
 21
125.8290626186
  0
LINE
  5
4B7
100
AcDbEntity
  8
0
100
AcDbLine
 62
7
  6
CONTINUOUS
 10
124.547821268
 20
144.6175014274
 11
125.3523470475
 21
143.1044085018
  0
LINE
  5
4B8
100
AcDbEntity
  8
0
100
AcDbLine
 62
7
  6
CONTINUOUS
 10
131.5760976741
 20
145.7897078458
 11
131.6297900423
 21
145.62849975
  0
LINE
  5
4B9
100
AcDbEntity
  8
0
100
AcDbLine
 62
253
  6
CONTINUOUS
 10
148.010692218
 20
141.8656210533
 11
147.9814388111
 21
144.711165773
  0
LINE
  5
4BA
100
AcDbEntity
  8
0
100
AcDbLine
 62
253
  6
CONTINUOUS
 10
148.0356906269
 20
139.0132946473
 11
148.010692218
 21
141.8656210533
  0
LINE
  5
4BB
100
AcDbEntity
  8
0
100
AcDbLine
 62
253
  6
CONTINUOUS
 10
148.0564247042
 20
136.155251504
 11
148.0356906269
 21
139.0132946473
  0
LWPOLYLINE
  5
4BC
100
AcDbEntity
  8
0
100
AcDbPolyline
 62
253
  6
CONTINUOUS
 90
3
 70
0
 10
148.0795137005
 20
131.8598026374
 10
148.0728867087
 20
133.2925587069
 10
148.0564247042
 20
136.155251504
  0
LINE
  5
4BD
100
AcDbEntity
  8
0
100
AcDbLine
 62
253
  6
CONTINUOUS
 10
147.3219622898
 20
130.3641404184
 11
147.3219622898
 21
130.3518496186
  0
LINE
  5
4BE
100
AcDbEntity
  8
0
100
AcDbLine
 62
253
  6
CONTINUOUS
 10
147.3219622898
 20
85.3395588187
 11
147.3219622898
 21
85.3518496186
  0
LINE
  5
4BF
100
AcDbEntity
  8
0
100
AcDbLine
 62
7
  6
CONTINUOUS
 10
148.1219622898
 20
129.5518496186
 11
148.1219622898
 21
86.1518496186
  0
LINE
  5
4C0
100
AcDbEntity
  8
0
100
AcDbLine
 62
7
  6
CONTINUOUS
 10
148.1348474945
 20
129.5518496186
 11
148.1348474945
 21
86.1518496186
  0
LINE
  5
4C1
100
AcDbEntity
  8
0
100
AcDbLine
 62
253
  6
CONTINUOUS
 10
148.0795137005
 20
83.8438965997
 11
148.0651901371
 21
80.9792796902
  0
LINE
  5
4C2
100
AcDbEntity
  8
0
100
AcDbLine
 62
253
  6
CONTINUOUS
 10
148.0651901371
 20
80.9792796902
 11
148.0465912282
 21
78.1187782167
  0
LINE
  5
4C3
100
AcDbEntity
  8
0
100
AcDbLine
 62
253
  6
CONTINUOUS
 10
148.0465912282
 20
78.1187782167
 11
148.0237239179
 21
75.2634601807
  0
LWPOLYLINE
  5
4C4
100
AcDbEntity
  8
0
100
AcDbPolyline
 62
253
  6
CONTINUOUS
 90
3
 70
0
 10
148.0237239179
 20
75.2634601807
 10
147.9965967439
 20
72.4143916481
 10
147.9814388111
 20
70.9925334641
  0
LINE
  5
4C5
100
AcDbEntity
  8
0
100
AcDbLine
 62
7
  6
CONTINUOUS
 10
151.3060048389
 20
126.7518496186
 11
151.2719622898
 21
126.5851828247
  0
LINE
  5
4C6
100
AcDbEntity
  8
0
100
AcDbLine
 62
7
  6
CONTINUOUS
 10
151.3060048389
 20
125.2851828247
 11
151.2719622898
 21
125.1185164124
  0
LINE
  5
4C7
100
AcDbEntity
  8
0
100
AcDbLine
 62
7
  6
CONTINUOUS
 10
151.8847282695
 20
126.7851828247
 11
151.8506857204
 21
126.6185164124
  0
LINE
  5
4C8
100
AcDbEntity
  8
0
100
AcDbLine
 62
7
  6
CONTINUOUS
 10
151.3060048389
 20
123.8185162217
 11
151.2719622898
 21
123.6518496186
  0
LINE
  5
4C9
100
AcDbEntity
  8
0
100
AcDbLine
 62
7
  6
CONTINUOUS
 10
151.3060048389
 20
122.3518496186
 11
151.2719622898
 21
122.1851829201
  0
LINE
  5
4CA
100
AcDbEntity
  8
0
100
AcDbLine
 62
7
  6
CONTINUOUS
 10
151.8847282695
 20
123.8518496186
 11
151.8506857204
 21
123.6851830155
  0
LWPOLYLINE
  5
4CB
100
AcDbEntity
  8
0
100
AcDbPolyline
 62
7
  6
CONTINUOUS
 90
10
 70
0
 10
136.2596629831
 20
80.1972502015
 10
136.2597805359
 20
80.1976036513
 10
136.2598981858
 20
80.197919032
 10
136.2600159331
 20
80.1981963437
 10
136.2601337911
 20
80.198435608
 10
136.2602517465
 20
80.1986368033
 10
136.2603697586
 20
80.1987998647
 10
136.2604878139
 20
80.1989247706
 10
136.2606059261
 20
80.1990115425
 10
136.2607240951
 20
80.1990601805
  0
LINE
  5
4CC
100
AcDbEntity
  8
0
100
AcDbLine
 62
7
  6
CONTINUOUS
 10
151.4421750354
 20
125.1518496186
 11
151.4762175846
 21
125.2518496186
  0
LINE
  5
4CD
100
AcDbEntity
  8
0
100
AcDbLine
 62
7
  6
CONTINUOUS
 10
152.0208984661
 20
126.6518496186
 11
152.0549410152
 21
126.7518496186
  0
LINE
  5
4CE
100
AcDbEntity
  8
0
100
AcDbLine
 62
7
  6
CONTINUOUS
 10
151.4421750354
 20
123.6851830155
 11
151.4762175846
 21
123.7851830155
  0
LINE
  5
4CF
100
AcDbEntity
  8
0
100
AcDbLine
 62
7
  6
CONTINUOUS
 10
152.1230261135
 20
124.9185164124
 11
152.0889835643
 21
124.8185164124
  0
LINE
  5
4D0
100
AcDbEntity
  8
0
100
AcDbLine
 62
7
  6
CONTINUOUS
 10
152.7017495203
 20
126.4185164124
 11
152.6677069711
 21
126.3185164124
  0
LINE
  5
4D1
100
AcDbEntity
  8
0
100
AcDbLine
 62
7
  6
CONTINUOUS
 10
151.4421750354
 20
122.218516317
 11
151.4762175846
 21
122.318516317
  0
LINE
  5
4D2
100
AcDbEntity
  8
0
100
AcDbLine
 62
7
  6
CONTINUOUS
 10
152.0208984661
 20
123.7185162217
 11
152.0549410152
 21
123.8185162217
  0
LINE
  5
4D3
100
AcDbEntity
  8
0
100
AcDbLine
 62
7
  6
CONTINUOUS
 10
152.7017495203
 20
124.9518496186
 11
152.6677069711
 21
124.8518496186
  0
LINE
  5
4D4
100
AcDbEntity
  8
0
100
AcDbLine
 62
7
  6
CONTINUOUS
 10
152.1230261135
 20
121.9851829201
 11
152.0889835643
 21
121.8851829201
  0
LINE
  5
4D5
100
AcDbEntity
  8
0
100
AcDbLine
 62
7
  6
CONTINUOUS
 10
152.7017495203
 20
123.4851830155
 11
152.6677069711
 21
123.3851830155
  0
LINE
  5
4D6
100
AcDbEntity
  8
0
100
AcDbLine
 62
7
  6
CONTINUOUS
 10
152.7017495203
 20
122.018516317
 11
152.6677069711
 21
121.918516317
  0
LWPOLYLINE
  5
4D7
100
AcDbEntity
  8
0
100
AcDbPolyline
 62
7
  6
CONTINUOUS
 90
8
 70
0
 10
136.2596630243
 20
80.1972503119
 10
136.2573264321
 20
80.1922914602
 10
136.2525130697
 20
80.1855279578
 10
136.2455130256
 20
80.1769744902
 10
136.2366450165
 20
80.1664215785
 10
136.2261797646
 20
80.1540972472
 10
136.2142840701
 20
80.1406693997
 10
136.1870981232
 20
80.1106791426
  0
LINE
  5
4D8
100
AcDbEntity
  8
0
100
AcDbLine
 62
7
  6
CONTINUOUS
 10
126.4776138681
 20
70.2452203426
 11
127.1710003954
 21
71.5492907353
  0
LINE
  5
4D9
100
AcDbEntity
  8
0
100
AcDbLine
 62
7
  6
CONTINUOUS
 10
123.7017182828
 20
71.6550698495
 11
124.5729241841
 21
73.0492907353
  0
LINE
  5
4DA
100
AcDbEntity
  8
0
100
AcDbLine
 62
7
  6
CONTINUOUS
 10
125.514107214
 20
70.5950446871
 11
126.391577532
 21
71.9992907353
  0
LINE
  5
4DB
100
AcDbEntity
  8
0
100
AcDbLine
 62
7
  6
CONTINUOUS
 10
120.7719622898
 20
91.4235296186
 11
122.3719622898
 21
92.0028946186
  0
LINE
  5
4DC
100
AcDbEntity
  8
0
100
AcDbLine
 62
7
  6
CONTINUOUS
 10
122.3719622898
 20
91.7666536186
 11
121.9062602898
 21
91.6084516186
  0
LINE
  5
4DD
100
AcDbEntity
  8
0
100
AcDbLine
 62
7
  6
CONTINUOUS
 10
121.7146232898
 20
91.5305156186
 11
121.0040402898
 21
91.2921406186
  0
LINE
  5
4DE
100
AcDbEntity
  8
0
100
AcDbLine
 62
7
  6
CONTINUOUS
 10
124.5729241841
 20
142.6544085018
 11
123.7017182828
 21
144.0486293876
  0
LINE
  5
4DF
100
AcDbEntity
  8
0
100
AcDbLine
 62
7
  6
CONTINUOUS
 10
126.391577532
 20
143.7044085018
 11
125.514107214
 21
145.10865455
  0
LINE
  5
4E0
100
AcDbEntity
  8
0
100
AcDbLine
 62
7
  6
CONTINUOUS
 10
126.4776138681
 20
145.4584788945
 11
127.1710003954
 21
144.1544085018
  0
LWPOLYLINE
  5
4E1
100
AcDbEntity
  8
0
100
AcDbPolyline
 62
7
  6
CONTINUOUS
 90
7
 70
0
 10
136.2584581749
 20
135.0661393125
 10
136.2561211628
 20
135.0710139549
 10
136.2513073006
 20
135.0776970504
 10
136.2443066443
 20
135.0861744966
 10
136.2354378534
 20
135.0966564425
 10
136.2249716458
 20
135.1089149421
 10
136.2130748766
 20
135.1222816562
  0
LWPOLYLINE
  5
4E2
100
AcDbEntity
  8
0
100
AcDbPolyline
 62
7
  6
CONTINUOUS
 90
10
 70
0
 10
136.2584581749
 20
135.0661393125
 10
136.2585419547
 20
135.0658907018
 10
136.2586257908
 20
135.0656614166
 10
136.2587096832
 20
135.0654514569
 10
136.2587936374
 20
135.0652608116
 10
136.2588776478
 20
135.0650894918
 10
136.2589616983
 20
135.0649375309
 10
136.2590457833
 20
135.06480494
 10
136.2591299083
 20
135.064691708
 10
136.2592140734
 20
135.064597835
  0
LWPOLYLINE
  5
4E3
100
AcDbEntity
  8
0
100
AcDbPolyline
 62
7
  6
CONTINUOUS
 90
22
 70
0
 10
148.1348474945
 20
129.5518496186
 10
148.1325366007
 20
129.6128026734
 10
148.1257908139
 20
129.6728629787
 10
148.1146099241
 20
129.7320305343
 10
148.0988504568
 20
129.7907034168
 10
148.0786550444
 20
129.8484835496
 10
148.0544524958
 20
129.9041767039
 10
148.026271797
 20
129.9575768022
 10
147.9940825432
 20
130.008889922
 10
147.9582244414
 20
130.0575400661
 10
147.918482077
 20
130.1036663878
 10
147.875069038
 20
130.1471297339
 10
147.8289687851
 20
130.1869366473
 10
147.7803189925
 20
130.2228734409
 10
147.7289805046
 20
130.2551538018
 10
147.6755219667
 20
130.2834253341
 10
147.6197399747
 20
130.3077196066
 10
147.5618366651
 20
130.3280050505
 10
147.5029895806
 20
130.3438345639
 10
147.4435912867
 20
130.3550591126
 10
147.3832489179
 20
130.3618277308
 10
147.3219622898
 20
130.3641404184
  0
LWPOLYLINE
  5
4E4
100
AcDbEntity
  8
0
100
AcDbPolyline
 62
7
  6
CONTINUOUS
 90
25
 70
0
 10
152.0257868098
 20
94.7522393117
 10
152.0251960376
 20
94.7703740178
 10
152.0238593269
 20
94.7883907327
 10
152.0217766558
 20
94.8062894558
 10
152.0190404821
 20
94.82411647
 10
152.0155582959
 20
94.8418254918
 10
152.0110526079
 20
94.8592776716
 10
152.0055148391
 20
94.8765907279
 10
151.9989534626
 20
94.8936469409
 10
151.9911165418
 20
94.9099543016
 10
151.9818977961
 20
94.9254882647
 10
151.9714033389
 20
94.9402733717
 10
151.9596998223
 20
94.9538912406
 10
151.9466536177
 20
94.9661995616
 10
151.9323981685
 20
94.9773406397
 10
151.9174007921
 20
94.9873230144
 10
151.9016941588
 20
94.9961184188
 10
151.8852454955
 20
95.0037551165
 10
151.8684240439
 20
95.0103264438
 10
151.8512971974
 20
95.0158521946
 10
151.8337975361
 20
95.0203125731
 10
151.8160921416
 20
95.0237415308
 10
151.7982367178
 20
95.0261503846
 10
151.7801755689
 20
95.0275278167
 10
151.761908696
 20
95.0278738269
  0
LINE
  5
4E5
100
AcDbEntity
  8
0
100
AcDbLine
 62
7
  6
CONTINUOUS
 10
149.5161933594
 20
130.9755797438
 11
149.5161933594
 21
84.7281194934
  0
LINE
  5
4E6
100
AcDbEntity
  8
0
100
AcDbLine
 62
7
  6
CONTINUOUS
 10
151.2694502898
 20
90.3801146186
 11
151.2694502898
 21
90.7349426186
  0
LINE
  5
4E7
100
AcDbEntity
  8
0
100
AcDbLine
 62
7
  6
CONTINUOUS
 10
151.2695522898
 20
88.8504516186
 11
151.2695522898
 21
89.2359046186
  0
LINE
  5
4E8
100
AcDbEntity
  8
0
100
AcDbLine
 62
7
  6
CONTINUOUS
 10
151.2695522898
 20
89.8938516186
 11
151.2695522898
 21
90.2484376186
  0
LINE
  5
4E9
100
AcDbEntity
  8
0
100
AcDbLine
 62
7
  6
CONTINUOUS
 10
151.2695522898
 20
91.0794456186
 11
151.2695522898
 21
91.4339806186
  0
LINE
  5
4EA
100
AcDbEntity
  8
0
100
AcDbLine
 62
7
  6
CONTINUOUS
 10
151.2695522898
 20
92.1398886186
 11
151.2695522898
 21
92.4909566186
  0
LINE
  5
4EB
100
AcDbEntity
  8
0
100
AcDbLine
 62
7
  6
CONTINUOUS
 10
151.2695522898
 20
93.2388156186
 11
151.2695522898
 21
93.5820696186
  0
LINE
  5
4EC
100
AcDbEntity
  8
0
100
AcDbLine
 62
7
  6
CONTINUOUS
 10
151.2719622898
 20
126.5851828247
 11
151.2719622898
 21
126.4518496186
  0
LINE
  5
4ED
100
AcDbEntity
  8
0
100
AcDbLine
 62
7
  6
CONTINUOUS
 10
151.2719622898
 20
125.1185164124
 11
151.2719622898
 21
124.9518496186
  0
LINE
  5
4EE
100
AcDbEntity
  8
0
100
AcDbLine
 62
7
  6
CONTINUOUS
 10
151.2719622898
 20
123.6518496186
 11
151.2719622898
 21
123.5185162217
  0
LINE
  5
4EF
100
AcDbEntity
  8
0
100
AcDbLine
 62
7
  6
CONTINUOUS
 10
151.2719622898
 20
122.1851829201
 11
151.2719622898
 21
122.018516317
  0
LINE
  5
4F0
100
AcDbEntity
  8
0
100
AcDbLine
 62
7
  6
CONTINUOUS
 10
151.2719622898
 20
121.2518496186
 11
151.2719622898
 21
121.0518496186
  0
LINE
  5
4F1
100
AcDbEntity
  8
0
100
AcDbLine
 62
7
  6
CONTINUOUS
 10
151.4421750354
 20
121.9851829201
 11
151.4421750354
 21
122.218516317
  0
LINE
  5
4F2
100
AcDbEntity
  8
0
100
AcDbLine
 62
7
  6
CONTINUOUS
 10
151.4421750354
 20
123.4851830155
 11
151.4421750354
 21
123.6851830155
  0
LINE
  5
4F3
100
AcDbEntity
  8
0
100
AcDbLine
 62
7
  6
CONTINUOUS
 10
151.4421750354
 20
124.9185164124
 11
151.4421750354
 21
125.1518496186
  0
LINE
  5
4F4
100
AcDbEntity
  8
0
100
AcDbLine
 62
7
  6
CONTINUOUS
 10
151.4421750354
 20
126.4185164124
 11
151.4421750354
 21
126.6185164124
  0
LINE
  5
4F5
100
AcDbEntity
  8
0
100
AcDbLine
 62
7
  6
CONTINUOUS
 10
151.6464303302
 20
123.9518496186
 11
151.6464303302
 21
124.1185164124
  0
LINE
  5
4F6
100
AcDbEntity
  8
0
100
AcDbLine
 62
7
  6
CONTINUOUS
 10
151.6464303302
 20
126.8851828247
 11
151.6464303302
 21
127.0518496186
  0
LINE
  5
4F7
100
AcDbEntity
  8
0
100
AcDbLine
 62
7
  6
CONTINUOUS
 10
151.8506857204
 20
126.6185164124
 11
151.8506857204
 21
126.4518496186
  0
LINE
  5
4F8
100
AcDbEntity
  8
0
100
AcDbLine
 62
7
  6
CONTINUOUS
 10
151.8506857204
 20
123.6851830155
 11
151.8506857204
 21
123.5185162217
  0
LINE
  5
4F9
100
AcDbEntity
  8
0
100
AcDbLine
 62
7
  6
CONTINUOUS
 10
152.0208984661
 20
123.4851830155
 11
152.0208984661
 21
123.7185162217
  0
LINE
  5
4FA
100
AcDbEntity
  8
0
100
AcDbLine
 62
7
  6
CONTINUOUS
 10
152.0208984661
 20
126.4185164124
 11
152.0208984661
 21
126.6518496186
  0
LINE
  5
4FB
100
AcDbEntity
  8
0
100
AcDbLine
 62
7
  6
CONTINUOUS
 10
152.0257868098
 20
94.5494585989
 11
152.0257868098
 21
94.7522393117
  0
LINE
  5
4FC
100
AcDbEntity
  8
0
100
AcDbLine
 62
7
  6
CONTINUOUS
 10
149.5555272766
 20
104.0927515469
 11
149.546420485
 21
130.9453526182
  0
LINE
  5
4FD
100
AcDbEntity
  8
0
100
AcDbLine
 62
7
  6
CONTINUOUS
 10
149.549590659
 20
89.0608658627
 11
149.5555272766
 21
104.0927515469
  0
LINE
  5
4FE
100
AcDbEntity
  8
0
100
AcDbLine
 62
7
  6
CONTINUOUS
 10
149.546420485
 20
84.758346619
 11
149.549590659
 21
89.0608658627
  0
LINE
  5
4FF
100
AcDbEntity
  8
0
100
AcDbLine
 62
7
  6
CONTINUOUS
 10
152.25919631
 20
124.7851828247
 11
152.2932389068
 21
124.9518496186
  0
LINE
  5
500
100
AcDbEntity
  8
0
100
AcDbLine
 62
7
  6
CONTINUOUS
 10
152.8379197377
 20
126.2851828247
 11
152.8719622898
 21
126.4518496186
  0
LINE
  5
501
100
AcDbEntity
  8
0
100
AcDbLine
 62
7
  6
CONTINUOUS
 10
152.8379197377
 20
124.8185164124
 11
152.8719622898
 21
124.9851828247
  0
LINE
  5
502
100
AcDbEntity
  8
0
100
AcDbLine
 62
7
  6
CONTINUOUS
 10
152.25919631
 20
121.8518496186
 11
152.2932389068
 21
122.018516317
  0
LINE
  5
503
100
AcDbEntity
  8
0
100
AcDbLine
 62
7
  6
CONTINUOUS
 10
152.8379197377
 20
123.3518496186
 11
152.8719622898
 21
123.5185162217
  0
LINE
  5
504
100
AcDbEntity
  8
0
100
AcDbLine
 62
7
  6
CONTINUOUS
 10
152.8379197377
 20
121.8851829201
 11
152.8719622898
 21
122.0518496186
  0
LWPOLYLINE
  5
505
100
AcDbEntity
  8
0
100
AcDbPolyline
 62
7
  6
CONTINUOUS
 90
5
 70
0
 10
136.2584581749
 20
80.6375599247
 10
136.2556384268
 20
80.6331653983
 10
136.2509213088
 20
80.6263860856
 10
136.2443066443
 20
80.617524741
 10
136.2355680796
 20
80.6069132792
  0
LINE
  5
506
100
AcDbEntity
  8
0
100
AcDbLine
 62
7
  6
CONTINUOUS
 10
120.7719622898
 20
89.1616126186
 11
122.1311912898
 21
89.6206566186
  0
LINE
  5
507
100
AcDbEntity
  8
0
100
AcDbLine
 62
7
  6
CONTINUOUS
 10
122.3719622898
 20
89.5114896186
 11
121.0303692898
 21
89.0613116186
  0
LINE
  5
508
100
AcDbEntity
  8
0
100
AcDbLine
 62
7
  6
CONTINUOUS
 10
151.9528133678
 20
122.7185162217
 11
151.7145155239
 21
122.6851830155
  0
LINE
  5
509
100
AcDbEntity
  8
0
100
AcDbLine
 62
7
  6
CONTINUOUS
 10
152.1911112117
 20
122.9851830155
 11
152.4294091034
 21
123.0185162217
  0
LINE
  5
50A
100
AcDbEntity
  8
0
100
AcDbLine
 62
7
  6
CONTINUOUS
 10
151.5102601337
 20
120.8518496186
 11
151.7826006221
 21
120.8518496186
  0
LINE
  5
50B
100
AcDbEntity
  8
0
100
AcDbLine
 62
7
  6
CONTINUOUS
 10
151.5443026828
 20
121.0518496186
 11
152.8719622898
 21
121.0518496186
  0
LINE
  5
50C
100
AcDbEntity
  8
0
100
AcDbLine
 62
7
  6
CONTINUOUS
 10
152.8719622898
 20
121.2518496186
 11
151.2719622898
 21
121.2518496186
  0
LINE
  5
50D
100
AcDbEntity
  8
0
100
AcDbLine
 62
7
  6
CONTINUOUS
 10
151.7145155239
 20
121.5185162693
 11
151.8506857204
 21
121.5185162693
  0
LINE
  5
50E
100
AcDbEntity
  8
0
100
AcDbLine
 62
7
  6
CONTINUOUS
 10
151.8166431713
 20
121.6851829201
 11
151.748558073
 21
121.6851829201
  0
LINE
  5
50F
100
AcDbEntity
  8
0
100
AcDbLine
 62
7
  6
CONTINUOUS
 10
151.748558073
 20
122.5185162217
 11
151.8166431713
 21
122.5185162217
  0
LINE
  5
510
100
AcDbEntity
  8
0
100
AcDbLine
 62
7
  6
CONTINUOUS
 10
152.1230261135
 20
122.5518496186
 11
152.1911112117
 21
122.5518496186
  0
LINE
  5
511
100
AcDbEntity
  8
0
100
AcDbLine
 62
7
  6
CONTINUOUS
 10
152.1911112117
 20
122.7185162217
 11
151.9528133678
 21
122.7185162217
  0
LWPOLYLINE
  5
512
100
AcDbEntity
  8
0
100
AcDbPolyline
 62
7
  6
CONTINUOUS
 90
6
 70
0
 10
136.2596630243
 20
135.5064489252
 10
136.2568436081
 20
135.5109277763
 10
136.2521270092
 20
135.5177874743
 10
136.2455130256
 20
135.5267247469
 10
136.2367752684
 20
135.5374071452
 10
136.2142840701
 20
135.5630298374
  0
LWPOLYLINE
  5
513
100
AcDbEntity
  8
0
100
AcDbPolyline
 62
7
  6
CONTINUOUS
 90
25
 70
0
 10
151.2894128961
 20
94.2078238312
 10
151.2830114062
 20
94.2514589497
 10
151.2770896546
 20
94.294017968
 10
151.2716477311
 20
94.3355008783
 10
151.2666656924
 20
94.3758025467
 10
151.2621636512
 20
94.4150280919
 10
151.2582017695
 20
94.4534928873
 10
151.2547813987
 20
94.4912068927
 10
151.251901319
 20
94.5281601387
 10
151.2496178181
 20
94.5646381081
 10
151.2479207695
 20
94.6006475848
 10
151.2468203995
 20
94.6361817791
 10
151.246403511
 20
94.6715058167
 10
151.2466572078
 20
94.7066767121
 10
151.2475944588
 20
94.7416374484
 10
151.2493408585
 20
94.7764821063
 10
151.2518921429
 20
94.8112488174
 10
151.2552526305
 20
94.8458994488
 10
151.2595607896
 20
94.8804136852
 10
151.2647939542
 20
94.9148117907
 10
151.2709748206
 20
94.9490734995
 10
151.2783098975
 20
94.9831177013
 10
151.2868680184
 20
95.0169173582
 10
151.2965803388
 20
95.0504995052
 10
151.3074468388
 20
95.0838641412
  0
LINE
  5
514
100
AcDbEntity
  8
0
100
AcDbLine
 62
253
  6
CONTINUOUS
 10
153.2743944311
 20
131.430206264
 11
153.2445174699
 21
131.8165842405
  0
LINE
  5
515
100
AcDbEntity
  8
0
100
AcDbLine
 62
253
  6
CONTINUOUS
 10
153.5083561404
 20
131.4302290188
 11
153.4792192983
 21
131.8117420729
  0
LWPOLYLINE
  5
516
100
AcDbEntity
  8
0
100
AcDbPolyline
 62
253
  6
CONTINUOUS
 90
3
 70
0
 10
153.3059257732
 20
130.9873584373
 10
153.3000955709
 20
131.0725400674
 10
153.2743944311
 20
131.430206264
  0
LWPOLYLINE
  5
517
100
AcDbEntity
  8
0
100
AcDbPolyline
 62
253
  6
CONTINUOUS
 90
3
 70
0
 10
153.539195881
 20
130.9921939696
 10
153.5334738822
 20
131.076551654
 10
153.5083561404
 20
131.4302290188
  0
LINE
  5
518
100
AcDbEntity
  8
0
100
AcDbLine
 62
253
  6
CONTINUOUS
 10
153.6500465907
 20
132.5549060295
 11
153.6841247708
 21
131.8477642747
  0
LINE
  5
519
100
AcDbEntity
  8
0
100
AcDbLine
 62
253
  6
CONTINUOUS
 10
153.8165247232
 20
132.5529064722
 11
153.8506173165
 21
131.8443900728
  0
LWPOLYLINE
  5
51A
100
AcDbEntity
  8
0
100
AcDbPolyline
 62
253
  6
CONTINUOUS
 90
21
 70
0
 10
153.7257793428
 20
130.9552382121
 10
153.821697075
 20
128.8019807364
 10
153.889741548
 20
127.0892652276
 10
153.9548943287
 20
125.2608300198
 10
154.0182163678
 20
123.3051822995
 10
154.0781566035
 20
121.2337755487
 10
154.1306210748
 20
119.0810247807
 10
154.1750052899
 20
116.8468981017
 10
154.2114888691
 20
114.5314643008
 10
154.2372871692
 20
112.169321841
 10
154.2517099353
 20
109.7559884552
 10
154.2551752356
 20
107.296043539
 10
154.246771545
 20
104.8376958024
 10
154.225603928
 20
102.3752484294
 10
154.1925918762
 20
99.9145173801
 10
154.1498479191
 20
97.5209682638
 10
154.0966325968
 20
95.1941271067
 10
154.0340821957
 20
92.9345342642
 10
153.9674251847
 20
90.8091266669
 10
153.898665307
 20
88.8401904888
 10
153.8264266895
 20
87.0053911146
  0
LWPOLYLINE
  5
51B
100
AcDbEntity
  8
0
100
AcDbPolyline
 62
253
  6
CONTINUOUS
 90
21
 70
0
 10
153.8918962172
 20
130.9586176882
 10
153.9860216494
 20
128.8020221043
 10
154.0542367508
 20
127.0893038082
 10
154.1206554133
 20
125.260865436
 10
154.184337013
 20
123.3052134341
 10
154.2434961926
 20
121.2338020647
 10
154.2959793707
 20
119.081047676
 10
154.3407402806
 20
116.8469163779
 10
154.3766767506
 20
114.5314769635
 10
154.4024020767
 20
112.1693306449
 10
154.4172799684
 20
109.7559927565
 10
154.4205614477
 20
107.2960415916
 10
154.411864851
 20
104.8376896222
 10
154.39116684
 20
102.3752381909
 10
154.3584815516
 20
99.9145010065
 10
154.3151622815
 20
97.5209471521
 10
154.2621808385
 20
95.1941023332
 10
154.2004698454
 20
92.9345043201
 10
154.1331574714
 20
90.8090919608
 10
154.0627870253
 20
88.8401525266
 10
153.9903083206
 20
87.0053503199
  0
LINE
  5
51C
100
AcDbEntity
  8
0
100
AcDbLine
 62
7
  6
CONTINUOUS
 10
152.1230261135
 20
125.1518496186
 11
152.1230261135
 21
124.9185164124
  0
LINE
  5
51D
100
AcDbEntity
  8
0
100
AcDbLine
 62
7
  6
CONTINUOUS
 10
152.1230261135
 20
122.218516317
 11
152.1230261135
 21
121.9851829201
  0
LINE
  5
51E
100
AcDbEntity
  8
0
100
AcDbLine
 62
7
  6
CONTINUOUS
 10
152.2932389068
 20
122.018516317
 11
152.2932389068
 21
122.1851829201
  0
LINE
  5
51F
100
AcDbEntity
  8
0
100
AcDbLine
 62
7
  6
CONTINUOUS
 10
152.2932389068
 20
124.9518496186
 11
152.2932389068
 21
125.1185164124
  0
LINE
  5
520
100
AcDbEntity
  8
0
100
AcDbLine
 62
7
  6
CONTINUOUS
 10
152.3041832624
 20
94.7514744863
 11
152.3041832624
 21
94.5612241632
  0
LINE
  5
521
100
AcDbEntity
  8
0
100
AcDbLine
 62
7
  6
CONTINUOUS
 10
152.3674722898
 20
93.2271006186
 11
152.3674722898
 21
93.5668236186
  0
LINE
  5
522
100
AcDbEntity
  8
0
100
AcDbLine
 62
7
  6
CONTINUOUS
 10
152.4974942016
 20
124.6851828247
 11
152.4974942016
 21
124.5185164124
  0
LINE
  5
523
100
AcDbEntity
  8
0
100
AcDbLine
 62
7
  6
CONTINUOUS
 10
152.4974942016
 20
121.7518496186
 11
152.4974942016
 21
121.5851829678
  0
LINE
  5
524
100
AcDbEntity
  8
0
100
AcDbLine
 62
7
  6
CONTINUOUS
 10
152.6300622898
 20
93.6377356186
 11
152.6300622898
 21
93.1545186186
  0
LINE
  5
525
100
AcDbEntity
  8
0
100
AcDbLine
 62
7
  6
CONTINUOUS
 10
152.7017495203
 20
126.6518496186
 11
152.7017495203
 21
126.4185164124
  0
LINE
  5
526
100
AcDbEntity
  8
0
100
AcDbLine
 62
7
  6
CONTINUOUS
 10
152.7017495203
 20
125.1518496186
 11
152.7017495203
 21
124.9518496186
  0
LINE
  5
527
100
AcDbEntity
  8
0
100
AcDbLine
 62
7
  6
CONTINUOUS
 10
152.7017495203
 20
123.7185162217
 11
152.7017495203
 21
123.4851830155
  0
LINE
  5
528
100
AcDbEntity
  8
0
100
AcDbLine
 62
7
  6
CONTINUOUS
 10
152.7017495203
 20
122.218516317
 11
152.7017495203
 21
122.018516317
  0
LINE
  5
529
100
AcDbEntity
  8
0
100
AcDbLine
 62
7
  6
CONTINUOUS
 10
152.8719622898
 20
121.0518496186
 11
152.8719622898
 21
121.2518496186
  0
LINE
  5
52A
100
AcDbEntity
  8
0
100
AcDbLine
 62
7
  6
CONTINUOUS
 10
152.8719622898
 20
122.0518496186
 11
152.8719622898
 21
122.1851829201
  0
LINE
  5
52B
100
AcDbEntity
  8
0
100
AcDbLine
 62
7
  6
CONTINUOUS
 10
152.8719622898
 20
123.5185162217
 11
152.8719622898
 21
123.6851830155
  0
LINE
  5
52C
100
AcDbEntity
  8
0
100
AcDbLine
 62
7
  6
CONTINUOUS
 10
152.8719622898
 20
124.9851828247
 11
152.8719622898
 21
125.1185164124
  0
LINE
  5
52D
100
AcDbEntity
  8
0
100
AcDbLine
 62
7
  6
CONTINUOUS
 10
152.8719622898
 20
126.4518496186
 11
152.8719622898
 21
126.6185164124
  0
LINE
  5
52E
100
AcDbEntity
  8
0
100
AcDbLine
 62
7
  6
CONTINUOUS
 10
152.969415665
 20
95.4458977257
 11
152.969415665
 21
95.1045943824
  0
LINE
  5
52F
100
AcDbEntity
  8
0
100
AcDbLine
 62
7
  6
CONTINUOUS
 10
152.969415665
 20
94.5612241632
 11
152.969415665
 21
94.2078238312
  0
LINE
  5
530
100
AcDbEntity
  8
0
100
AcDbLine
 62
7
  6
CONTINUOUS
 10
152.9694152898
 20
94.1036296186
 11
152.9694152898
 21
93.7296546186
  0
LINE
  5
531
100
AcDbEntity
  8
0
100
AcDbLine
 62
7
  6
CONTINUOUS
 10
152.9694152898
 20
93.0566086186
 11
152.9694152898
 21
92.7056306186
  0
LINE
  5
532
100
AcDbEntity
  8
0
100
AcDbLine
 62
7
  6
CONTINUOUS
 10
152.9694152898
 20
92.6499126186
 11
152.9694152898
 21
92.3027966186
  0
LINE
  5
533
100
AcDbEntity
  8
0
100
AcDbLine
 62
7
  6
CONTINUOUS
 10
152.9694152898
 20
91.8080056186
 11
152.9694152898
 21
91.7582406186
  0
LINE
  5
534
100
AcDbEntity
  8
0
100
AcDbLine
 62
7
  6
CONTINUOUS
 10
152.9694152898
 20
91.2654126186
 11
152.9694152898
 21
90.9259576186
  0
LINE
  5
535
100
AcDbEntity
  8
0
100
AcDbLine
 62
7
  6
CONTINUOUS
 10
152.9694152898
 20
90.7349426186
 11
152.9694152898
 21
90.3801146186
  0
LINE
  5
536
100
AcDbEntity
  8
0
100
AcDbLine
 62
7
  6
CONTINUOUS
 10
152.9694152898
 20
89.7020336186
 11
152.9694152898
 21
89.3893406186
  0
LINE
  5
537
100
AcDbEntity
  8
0
100
AcDbLine
 62
253
  6
CONTINUOUS
 10
153.8264266895
 20
87.0053911146
 11
153.7257793428
 21
84.7484610251
  0
LINE
  5
538
100
AcDbEntity
  8
0
100
AcDbLine
 62
253
  6
CONTINUOUS
 10
153.9903083206
 20
87.0053503199
 11
153.8918962172
 21
84.745081549
  0
LINE
  5
539
100
AcDbEntity
  8
0
100
AcDbLine
 62
253
  6
CONTINUOUS
 10
153.6841247708
 20
83.8559349624
 11
153.6500465907
 21
83.1487932077
  0
LINE
  5
53A
100
AcDbEntity
  8
0
100
AcDbLine
 62
253
  6
CONTINUOUS
 10
153.8506173165
 20
83.8593091643
 11
153.8165247264
 21
83.150792829
  0
LWPOLYLINE
  5
53B
100
AcDbEntity
  8
0
100
AcDbPolyline
 62
253
  6
CONTINUOUS
 90
10
 70
0
 10
153.6500465907
 20
83.1487932077
 10
153.6156063334
 20
82.5062256146
 10
153.5750463537
 20
81.8641949812
 10
153.5283820956
 20
81.2227130425
 10
153.4756419451
 20
80.5817476044
 10
153.4168321009
 20
79.9413542293
 10
153.3519369423
 20
79.301676085
 10
153.2809656966
 20
78.6627684202
 10
153.2039520761
 20
78.0245987155
 10
153.1209194063
 20
77.3871782622
  0
LWPOLYLINE
  5
53C
100
AcDbEntity
  8
0
100
AcDbPolyline
 62
253
  6
CONTINUOUS
 90
10
 70
0
 10
153.8165247256
 20
83.1507928291
 10
153.7820616671
 20
82.5072531505
 10
153.7414991611
 20
81.8641637227
 10
153.6948435907
 20
81.221581978
 10
153.6421019882
 20
80.5795676525
 10
153.5832817412
 20
79.9381755992
 10
153.518390363
 20
79.2974557943
 10
153.4474359889
 20
78.6574629075
 10
153.3704276035
 20
78.0182562856
 10
153.287374586
 20
77.3798927728
  0
LINE
  5
53D
100
AcDbEntity
  8
0
100
AcDbLine
 62
253
  6
CONTINUOUS
 10
153.539195881
 20
84.7115052675
 11
153.5149361054
 21
84.3636865742
  0
LINE
  5
53E
100
AcDbEntity
  8
0
100
AcDbLine
 62
253
  6
CONTINUOUS
 10
153.3059257732
 20
84.7163407998
 11
153.2811227778
 21
84.3647451802
  0
LWPOLYLINE
  5
53F
100
AcDbEntity
  8
0
100
AcDbPolyline
 62
253
  6
CONTINUOUS
 90
3
 70
0
 10
153.5149361054
 20
84.3636865742
 10
153.4868604326
 20
83.9893703221
 10
153.4792192983
 20
83.8919571643
  0
LWPOLYLINE
  5
540
100
AcDbEntity
  8
0
100
AcDbPolyline
 62
253
  6
CONTINUOUS
 90
3
 70
0
 10
153.2811227778
 20
84.3647451802
 10
153.2523398976
 20
83.9857233034
 10
153.2445174699
 20
83.8871149967
  0
LWPOLYLINE
  5
541
100
AcDbEntity
  8
0
100
AcDbPolyline
 62
7
  6
CONTINUOUS
 90
10
 70
0
 10
151.5491338156
 20
94.8274253879
 10
151.5461173644
 20
94.7968986192
 10
151.5441358543
 20
94.7663026449
 10
151.5431892568
 20
94.7356374651
 10
151.543281202
 20
94.7049302846
 10
151.5444079815
 20
94.6741538995
 10
151.5465585467
 20
94.6432266987
 10
151.5497291721
 20
94.6121214791
 10
151.553923457
 20
94.5808654455
 10
151.5591413273
 20
94.5494585989
  0
LWPOLYLINE
  5
542
100
AcDbEntity
  8
0
100
AcDbPolyline
 62
7
  6
CONTINUOUS
 90
8
 70
0
 10
142.956589885
 20
69.6089513137
 10
142.9569157826
 20
69.6101862921
 10
142.9572343942
 20
69.6131202541
 10
142.9575457197
 20
69.6177531996
 10
142.9578534156
 20
69.6241863227
 10
142.9581538256
 20
69.6323184293
 10
142.9584359806
 20
69.641845938
 10
142.9589405304
 20
69.6650074136
  0
LINE
  5
543
100
AcDbEntity
  8
0
100
AcDbLine
 62
7
  6
CONTINUOUS
 10
142.8760976741
 20
69.9139913914
 11
142.9297900423
 21
70.0751994872
  0
LWPOLYLINE
  5
544
100
AcDbEntity
  8
0
100
AcDbPolyline
 62
7
  6
CONTINUOUS
 90
45
 70
0
 10
151.3074468388
 20
95.0838641412
 10
151.3183726341
 20
95.1095275659
 10
151.3317114633
 20
95.1348434281
 10
151.3474632002
 20
95.1598117264
 10
151.3658274643
 20
95.1848048784
 10
151.3866042522
 20
95.2094504647
 10
151.4091939966
 20
95.2326312241
 10
151.4336589161
 20
95.2541821875
 10
151.4599363031
 20
95.2742683137
 10
151.4872393093
 20
95.2922672283
 10
151.515734161
 20
95.3080155546
 10
151.5452541893
 20
95.3216766583
 10
151.5745134976
 20
95.3331182776
 10
151.6032732188
 20
95.3420863703
 10
151.6317722002
 20
95.3488349716
 10
151.6594414504
 20
95.3539939365
 10
151.6861153483
 20
95.3575999941
 10
151.7119597153
 20
95.3596164133
 10
151.7369028664
 20
95.3605628611
 10
151.7608926376
 20
95.3605315861
 10
151.783981419
 20
95.3594303396
 10
151.8062543732
 20
95.3575020431
 10
151.8277431362
 20
95.3547600766
 10
151.848416258
 20
95.3511910606
 10
151.8682642693
 20
95.3469977781
 10
151.8872697245
 20
95.3421852825
 10
151.9054502562
 20
95.3367485212
 10
151.9228490142
 20
95.3308751174
 10
151.9394610295
 20
95.3245777516
 10
151.9552914372
 20
95.317843744
 10
151.9703985348
 20
95.3108226769
 10
151.9847838325
 20
95.3035291105
 10
151.9984459618
 20
95.2959484851
 10
152.0114388923
 20
95.2881867035
 10
152.0237592407
 20
95.2802529177
 10
152.0354105096
 20
95.2721379761
 10
152.0464569862
 20
95.2639203252
 10
152.0568873272
 20
95.2555873264
 10
152.0667129726
 20
95.2471516187
 10
152.0760323715
 20
95.2387295647
 10
152.084836507
 20
95.2303308748
 10
152.0931344701
 20
95.2219458386
 10
152.1010518578
 20
95.2136616876
 10
152.1085979056
 20
95.2054926356
 10
152.1157634289
 20
95.1974244687
  0
LWPOLYLINE
  5
545
100
AcDbEntity
  8
0
100
AcDbPolyline
 62
7
  6
CONTINUOUS
 90
3
 70
0
 10
136.2355680796
 20
80.6069132792
 10
136.2130748767
 20
80.5814175817
 10
136.2000788861
 20
80.5669231175
  0
LWPOLYLINE
  5
546
100
AcDbEntity
  8
0
100
AcDbPolyline
 62
7
  6
CONTINUOUS
 90
10
 70
0
 10
136.2592140734
 20
80.6391014022
 10
136.2591299083
 20
80.6390075291
 10
136.2590457833
 20
80.6388942971
 10
136.2589616983
 20
80.6387617063
 10
136.2588776478
 20
80.6386097454
 10
136.2587936374
 20
80.6384384256
 10
136.2587096832
 20
80.6382477803
 10
136.2586257908
 20
80.6380378206
 10
136.2585419547
 20
80.6378085354
 10
136.2584581749
 20
80.6375599247
  0
LWPOLYLINE
  5
547
100
AcDbEntity
  8
0
100
AcDbPolyline
 62
7
  6
CONTINUOUS
 90
3
 70
0
 10
136.1870981232
 20
80.1106791426
 10
136.1720791772
 20
80.0944645864
 10
136.1398543753
 20
80.0601131477
  0
LINE
  5
548
100
AcDbEntity
  8
0
100
AcDbLine
 62
7
  6
CONTINUOUS
 10
136.2000788861
 20
80.5669231175
 11
136.1551313043
 21
80.5184969109
  0
LINE
  5
549
100
AcDbEntity
  8
0
100
AcDbLine
 62
7
  6
CONTINUOUS
 10
136.1551313043
 20
80.5184969109
 11
136.1041777173
 21
80.4649940986
  0
LINE
  5
54A
100
AcDbEntity
  8
0
100
AcDbLine
 62
7
  6
CONTINUOUS
 10
136.1398543753
 20
80.0601131477
 11
136.0875012199
 21
80.0053935595
  0
LINE
  5
54B
100
AcDbEntity
  8
0
100
AcDbLine
 62
7
  6
CONTINUOUS
 10
136.0875012199
 20
80.0053935595
 11
136.0693426672
 21
79.9866714378
  0
LINE
  5
54C
100
AcDbEntity
  8
0
100
AcDbLine
 62
7
  6
CONTINUOUS
 10
136.1041777173
 20
80.4649940986
 11
136.0497647769
 21
80.4089037177
  0
LINE
  5
54D
100
AcDbEntity
  8
0
100
AcDbLine
 62
7
  6
CONTINUOUS
 10
136.0497647769
 20
80.4089037177
 11
135.9942581782
 21
80.3524700129
  0
LWPOLYLINE
  5
54E
100
AcDbEntity
  8
0
100
AcDbPolyline
 62
7
  6
CONTINUOUS
 90
3
 70
0
 10
135.9942581782
 20
80.3524700129
 10
135.9758908094
 20
80.3339659903
 10
135.9575629056
 20
80.3157406889
  0
LINE
  5
54F
100
AcDbEntity
  8
0
100
AcDbLine
 62
7
  6
CONTINUOUS
 10
137.7219622898
 20
83.8698108134
 11
137.6885238995
 21
83.8363724231
  0
LINE
  5
550
100
AcDbEntity
  8
0
100
AcDbLine
 62
253
  6
CONTINUOUS
 10
135.2583633102
 20
81.1380678871
 11
135.0581018497
 21
80.9378094293
  0
LINE
  5
551
100
AcDbEntity
  8
0
100
AcDbLine
 62
253
  6
CONTINUOUS
 10
135.5686440294
 20
80.8487141101
 11
135.3592525949
 21
80.6393319574
  0
LINE
  5
552
100
AcDbEntity
  8
0
100
AcDbLine
 62
7
  6
CONTINUOUS
 10
136.2592140734
 20
80.6391014022
 11
136.4719622898
 21
80.8518496186
  0
LWPOLYLINE
  5
553
100
AcDbEntity
  8
0
100
AcDbPolyline
 62
7
  6
CONTINUOUS
 90
13
 70
0
 10
152.4539615737
 20
94.949436799
 10
152.4349444035
 20
94.9412291663
 10
152.4167152527
 20
94.9314294458
 10
152.3992742388
 20
94.92003764
 10
152.3824156805
 20
94.9070114538
 10
152.3663454512
 20
94.8923931884
 10
152.3516810436
 20
94.8763097405
 10
152.3382681855
 20
94.8587226615
 10
152.326261372
 20
94.8396704078
 10
152.3167413373
 20
94.8193952345
 10
152.3100683972
 20
94.7979778955
 10
152.3058823776
 20
94.7753376446
 10
152.3041832624
 20
94.7514744863
  0
LINE
  5
554
100
AcDbEntity
  8
0
100
AcDbLine
 62
7
  6
CONTINUOUS
 10
120.0413668473
 20
84.6559850029
 11
120.2047286985
 21
84.7115052675
  0
LINE
  5
555
100
AcDbEntity
  8
0
100
AcDbLine
 62
7
  6
CONTINUOUS
 10
151.2695522898
 20
93.5820696186
 11
152.9694152898
 21
94.1036296186
  0
LINE
  5
556
100
AcDbEntity
  8
0
100
AcDbLine
 62
7
  6
CONTINUOUS
 10
152.969415665
 20
95.1045943824
 11
152.7882115478
 21
95.0516687686
  0
LINE
  5
557
100
AcDbEntity
  8
0
100
AcDbLine
 62
7
  6
CONTINUOUS
 10
151.9528133678
 20
125.6518496186
 11
151.7145155239
 21
125.6185164124
  0
LINE
  5
558
100
AcDbEntity
  8
0
100
AcDbLine
 62
7
  6
CONTINUOUS
 10
152.1911112117
 20
125.9185164124
 11
152.4294091034
 21
125.9518496186
  0
LINE
  5
559
100
AcDbEntity
  8
0
100
AcDbLine
 62
7
  6
CONTINUOUS
 10
151.9528133678
 20
122.9851830155
 11
152.1911112117
 21
122.9851830155
  0
LINE
  5
55A
100
AcDbEntity
  8
0
100
AcDbLine
 62
7
  6
CONTINUOUS
 10
152.0208984661
 20
123.1518496186
 11
151.9528133678
 21
123.1518496186
  0
LINE
  5
55B
100
AcDbEntity
  8
0
100
AcDbLine
 62
7
  6
CONTINUOUS
 10
152.3953665542
 20
123.1851830155
 11
152.2932389068
 21
123.1851830155
  0
LINE
  5
55C
100
AcDbEntity
  8
0
100
AcDbLine
 62
7
  6
CONTINUOUS
 10
152.2932389068
 20
124.0185162217
 11
152.3953665542
 21
124.0185162217
  0
LINE
  5
55D
100
AcDbEntity
  8
0
100
AcDbLine
 62
7
  6
CONTINUOUS
 10
152.4294091034
 20
124.1851828247
 11
152.25919631
 21
124.1851828247
  0
LINE
  5
55E
100
AcDbEntity
  8
0
100
AcDbLine
 62
7
  6
CONTINUOUS
 10
151.7145155239
 20
124.4518496186
 11
151.8506857204
 21
124.4518496186
  0
LINE
  5
55F
100
AcDbEntity
  8
0
100
AcDbLine
 62
7
  6
CONTINUOUS
 10
123.1064002898
 20
124.4707716186
 11
122.8365592898
 21
124.4707716186
  0
LINE
  5
560
100
AcDbEntity
  8
0
100
AcDbLine
 62
7
  6
CONTINUOUS
 10
120.9194792898
 20
124.4795836186
 11
120.6481542898
 21
124.4795836186
  0
LINE
  5
561
100
AcDbEntity
  8
0
100
AcDbLine
 62
7
  6
CONTINUOUS
 10
151.8166431713
 20
124.6185164124
 11
151.748558073
 21
124.6185164124
  0
LINE
  5
562
100
AcDbEntity
  8
0
100
AcDbLine
 62
7
  6
CONTINUOUS
 10
122.8365592898
 20
124.7099076186
 11
121.9418852898
 21
124.7099076186
  0
LINE
  5
563
100
AcDbEntity
  8
0
100
AcDbLine
 62
7
  6
CONTINUOUS
 10
121.6074832898
 20
124.7099076186
 11
120.9194792898
 21
124.7099076186
  0
LINE
  5
564
100
AcDbEntity
  8
0
100
AcDbLine
 62
7
  6
CONTINUOUS
 10
120.9194792898
 20
124.9973726186
 11
121.6074832898
 21
124.9973726186
  0
LINE
  5
565
100
AcDbEntity
  8
0
100
AcDbLine
 62
7
  6
CONTINUOUS
 10
121.9388672898
 20
124.9973726186
 11
122.8365592898
 21
124.9973726186
  0
LINE
  5
566
100
AcDbEntity
  8
0
100
AcDbLine
 62
7
  6
CONTINUOUS
 10
120.6481542898
 20
125.2276036186
 11
120.9194792898
 21
125.2276036186
  0
LINE
  5
567
100
AcDbEntity
  8
0
100
AcDbLine
 62
7
  6
CONTINUOUS
 10
122.8365592898
 20
125.2364166186
 11
123.1064002898
 21
125.2364166186
  0
LINE
  5
568
100
AcDbEntity
  8
0
100
AcDbLine
 62
7
  6
CONTINUOUS
 10
151.748558073
 20
125.4518496186
 11
151.8166431713
 21
125.4518496186
  0
LINE
  5
569
100
AcDbEntity
  8
0
100
AcDbLine
 62
7
  6
CONTINUOUS
 10
152.1230261135
 20
125.4851828247
 11
152.1911112117
 21
125.4851828247
  0
LINE
  5
56A
100
AcDbEntity
  8
0
100
AcDbLine
 62
7
  6
CONTINUOUS
 10
152.1911112117
 20
125.6518496186
 11
151.9528133678
 21
125.6518496186
  0
LINE
  5
56B
100
AcDbEntity
  8
0
100
AcDbLine
 62
7
  6
CONTINUOUS
 10
151.9528133678
 20
125.9185164124
 11
152.1911112117
 21
125.9185164124
  0
LINE
  5
56C
100
AcDbEntity
  8
0
100
AcDbLine
 62
7
  6
CONTINUOUS
 10
152.0208984661
 20
126.0851828247
 11
151.9528133678
 21
126.0851828247
  0
LINE
  5
56D
100
AcDbEntity
  8
0
100
AcDbLine
 62
7
  6
CONTINUOUS
 10
152.3953665542
 20
126.1185164124
 11
152.2932389068
 21
126.1185164124
  0
LINE
  5
56E
100
AcDbEntity
  8
0
100
AcDbLine
 62
7
  6
CONTINUOUS
 10
152.4294091034
 20
122.6851830155
 11
152.1911112117
 21
122.7185162217
  0
LINE
  5
56F
100
AcDbEntity
  8
0
100
AcDbLine
 62
7
  6
CONTINUOUS
 10
151.7145155239
 20
123.0185162217
 11
151.9528133678
 21
122.9851830155
  0
LINE
  5
570
100
AcDbEntity
  8
0
100
AcDbLine
 62
7
  6
CONTINUOUS
 10
152.1911112117
 20
122.5518496186
 11
152.3953665542
 21
122.5185162217
  0
LINE
  5
571
100
AcDbEntity
  8
0
100
AcDbLine
 62
7
  6
CONTINUOUS
 10
151.9528133678
 20
123.1518496186
 11
151.748558073
 21
123.1851830155
  0
LWPOLYLINE
  5
572
100
AcDbEntity
  8
0
100
AcDbPolyline
 62
7
  6
CONTINUOUS
 90
8
 70
0
 10
119.8520283623
 20
130.9586176882
 10
119.8531931571
 20
130.958294121
 10
119.8560158803
 20
130.9579777533
 10
119.860496532
 20
130.9576685852
 10
119.866733295
 20
130.9573630753
 10
119.8746279864
 20
130.9570647649
 10
119.883886058
 20
130.9567842783
 10
119.9064157597
 20
130.9562816523
  0
LINE
  5
573
100
AcDbEntity
  8
0
100
AcDbLine
 62
7
  6
CONTINUOUS
 10
151.748558073
 20
121.6851829201
 11
151.6464303302
 21
121.718516317
  0
LINE
  5
574
100
AcDbEntity
  8
0
100
AcDbLine
 62
7
  6
CONTINUOUS
 10
151.8166431713
 20
122.5185162217
 11
151.9187708187
 21
122.4851830155
  0
LINE
  5
575
100
AcDbEntity
  8
0
100
AcDbLine
 62
7
  6
CONTINUOUS
 10
152.3953665542
 20
122.5185162217
 11
152.4974942016
 21
122.4851830155
  0
LINE
  5
576
100
AcDbEntity
  8
0
100
AcDbLine
 62
7
  6
CONTINUOUS
 10
120.2047286985
 20
130.9921939696
 11
120.0413668473
 21
131.0477142342
  0
LINE
  5
577
100
AcDbEntity
  8
0
100
AcDbLine
 62
7
  6
CONTINUOUS
 10
151.5443026828
 20
121.5851829678
 11
151.7145155239
 21
121.5185162693
  0
LINE
  5
578
100
AcDbEntity
  8
0
100
AcDbLine
 62
7
  6
CONTINUOUS
 10
137.7219622898
 20
131.8338884237
 11
137.6885238995
 21
131.867326814
  0
LINE
  5
579
100
AcDbEntity
  8
0
100
AcDbLine
 62
253
  6
CONTINUOUS
 10
135.2583633102
 20
134.56563135
 11
135.0581018809
 21
134.7659023199
  0
LINE
  5
57A
100
AcDbEntity
  8
0
100
AcDbLine
 62
253
  6
CONTINUOUS
 10
135.5686440294
 20
134.8549851271
 11
135.359264814
 21
135.0643672835
  0
LINE
  5
57B
100
AcDbEntity
  8
0
100
AcDbLine
 62
7
  6
CONTINUOUS
 10
136.2592140734
 20
135.064597835
 11
136.4719622898
 21
134.8518496186
  0
LINE
  5
57C
100
AcDbEntity
  8
0
100
AcDbLine
 62
7
  6
CONTINUOUS
 10
136.0126648482
 20
135.3325175783
 11
135.9575629056
 21
135.3879585485
  0
LINE
  5
57D
100
AcDbEntity
  8
0
100
AcDbLine
 62
7
  6
CONTINUOUS
 10
136.0312163652
 20
135.3137015124
 11
136.0126648482
 21
135.3325175783
  0
LINE
  5
57E
100
AcDbEntity
  8
0
100
AcDbLine
 62
7
  6
CONTINUOUS
 10
136.0862788989
 20
135.2572337486
 11
136.0312163652
 21
135.3137015124
  0
LINE
  5
57F
100
AcDbEntity
  8
0
100
AcDbLine
 62
7
  6
CONTINUOUS
 10
136.1053980092
 20
135.679751538
 11
136.0693426671
 21
135.7170277994
  0
LINE
  5
580
100
AcDbEntity
  8
0
100
AcDbLine
 62
7
  6
CONTINUOUS
 10
136.1563461299
 20
135.6261473675
 11
136.1053980092
 21
135.679751538
  0
LWPOLYLINE
  5
581
100
AcDbEntity
  8
0
100
AcDbPolyline
 62
7
  6
CONTINUOUS
 90
3
 70
0
 10
136.1708659493
 20
135.1683320222
 10
136.1386378362
 20
135.2026030991
 10
136.0862788989
 20
135.2572337486
  0
LWPOLYLINE
  5
582
100
AcDbEntity
  8
0
100
AcDbPolyline
 62
7
  6
CONTINUOUS
 90
3
 70
0
 10
136.2130748766
 20
135.1222816562
 10
136.1858863675
 20
135.1521643382
 10
136.1708659493
 20
135.1683320222
  0
LWPOLYLINE
  5
583
100
AcDbEntity
  8
0
100
AcDbPolyline
 62
7
  6
CONTINUOUS
 90
4
 70
0
 10
136.2142840701
 20
135.5630298374
 10
136.2012892985
 20
135.5775805409
 10
136.1870749601
 20
135.5929970629
 10
136.1563461299
 20
135.6261473675
  0
LINE
  5
584
100
AcDbEntity
  8
0
100
AcDbLine
 62
7
  6
CONTINUOUS
 10
151.4762175846
 20
121.8851829201
 11
151.4421750354
 21
121.9851829201
  0
LINE
  5
585
100
AcDbEntity
  8
0
100
AcDbLine
 62
7
  6
CONTINUOUS
 10
151.4762175846
 20
123.3851830155
 11
151.4421750354
 21
123.4851830155
  0
LINE
  5
586
100
AcDbEntity
  8
0
100
AcDbLine
 62
7
  6
CONTINUOUS
 10
142.8760976741
 20
145.7897078458
 11
142.9297900423
 21
145.62849975
  0
LINE
  5
587
100
AcDbEntity
  8
0
100
AcDbLine
 62
7
  6
CONTINUOUS
 10
151.2719622898
 20
122.018516317
 11
151.3060048389
 21
121.8518496186
  0
LINE
  5
588
100
AcDbEntity
  8
0
100
AcDbLine
 62
7
  6
CONTINUOUS
 10
151.2719622898
 20
123.5185162217
 11
151.3060048389
 21
123.3518496186
  0
LINE
  5
589
100
AcDbEntity
  8
0
100
AcDbLine
 62
7
  6
CONTINUOUS
 10
151.2719622898
 20
124.9518496186
 11
151.3060048389
 21
124.7851828247
  0
LINE
  5
58A
100
AcDbEntity
  8
0
100
AcDbLine
 62
7
  6
CONTINUOUS
 10
151.8506857204
 20
123.5185162217
 11
151.8847282695
 21
123.3518496186
  0
LINE
  5
58B
100
AcDbEntity
  8
0
100
AcDbLine
 62
7
  6
CONTINUOUS
 10
151.2719622898
 20
126.4518496186
 11
151.3060048389
 21
126.2851828247
  0
LINE
  5
58C
100
AcDbEntity
  8
0
100
AcDbLine
 62
7
  6
CONTINUOUS
 10
152.2932389068
 20
122.1851829201
 11
152.25919631
 21
122.3518496186
  0
LINE
  5
58D
100
AcDbEntity
  8
0
100
AcDbLine
 62
7
  6
CONTINUOUS
 10
151.8506857204
 20
126.4518496186
 11
151.8847282695
 21
126.2851828247
  0
LINE
  5
58E
100
AcDbEntity
  8
0
100
AcDbLine
 62
7
  6
CONTINUOUS
 10
152.8719622898
 20
122.1851829201
 11
152.8379197377
 21
122.3518496186
  0
LINE
  5
58F
100
AcDbEntity
  8
0
100
AcDbLine
 62
7
  6
CONTINUOUS
 10
152.2932389068
 20
125.1185164124
 11
152.25919631
 21
125.2851828247
  0
LINE
  5
590
100
AcDbEntity
  8
0
100
AcDbLine
 62
7
  6
CONTINUOUS
 10
152.8719622898
 20
123.6851830155
 11
152.8379197377
 21
123.8518496186
  0
LWPOLYLINE
  5
591
100
AcDbEntity
  8
0
100
AcDbPolyline
 62
253
  6
CONTINUOUS
 90
25
 70
0
 10
153.1209194063
 20
77.3871782622
 10
153.0892631582
 20
77.1722141426
 10
153.0514408807
 20
76.9566480837
 10
153.0074575885
 20
76.7404808239
 10
152.9582345465
 20
76.5255355162
 10
152.9028604837
 20
76.3099899481
 10
152.8385911207
 20
76.088379358
 10
152.7650382664
 20
75.8582037627
 10
152.682599448
 20
75.6219710601
 10
152.5897107373
 20
75.3817300163
 10
152.4862644847
 20
75.1373561164
 10
152.372383523
 20
74.8889797197
 10
152.2468528396
 20
74.6390295697
 10
152.1091695771
 20
74.3869956103
 10
151.9598552408
 20
74.1333915041
 10
151.7992320119
 20
73.8821777658
 10
151.6268115133
 20
73.6333625229
 10
151.443098845
 20
73.38693616
 10
151.2499030799
 20
73.1468276207
 10
151.0472558736
 20
72.9136456856
 10
150.8351337467
 20
72.6867748219
 10
150.6152577433
 20
72.4683037872
 10
150.3882003343
 20
72.2589253589
 10
150.1533874646
 20
72.0579377421
 10
149.9108169876
 20
71.8653367027
  0
LWPOLYLINE
  5
592
100
AcDbEntity
  8
0
100
AcDbPolyline
 62
253
  6
CONTINUOUS
 90
25
 70
0
 10
153.2873745873
 20
77.3798927726
 10
153.2547655281
 20
77.1598829165
 10
153.2160863515
 20
76.9389050989
 10
153.17121502
 20
76.7171377239
 10
153.1205648661
 20
76.496937983
 10
153.0636074191
 20
76.2762976205
 10
152.9982940518
 20
76.0489920011
 10
152.9231966087
 20
75.8130210769
 10
152.8383214411
 20
75.5712218776
 10
152.7433070992
 20
75.3248049948
 10
152.637559476
 20
75.0742470088
 10
152.5205059637
 20
74.8201116699
 10
152.3919687206
 20
74.5637537132
 10
152.2511753625
 20
74.3052642216
 10
152.0979170187
 20
74.045823988
 10
151.9332017012
 20
73.7883149357
 10
151.7567471956
 20
73.5331795893
 10
151.5684872783
 20
73.2811679183
 10
151.3703057739
 20
73.0353119735
 10
151.1627430456
 20
72.7964484976
 10
150.9456385729
 20
72.5645502236
 10
150.7202460633
 20
72.3410329118
 10
150.4872576283
 20
72.1265071257
 10
150.2466723669
 20
71.9209007905
 10
149.9988368854
 20
71.7244756194
  0
LWPOLYLINE
  5
593
100
AcDbEntity
  8
0
100
AcDbPolyline
 62
7
  6
CONTINUOUS
 90
6
 70
0
 10
152.1759347867
 20
95.12006935
 10
152.1818637417
 20
95.1332361059
 10
152.1886180718
 20
95.1458994783
 10
152.1961977522
 20
95.158059466
 10
152.2046976856
 20
95.1697384322
 10
152.2140228985
 20
95.1809140121
  0
LINE
  5
594
100
AcDbEntity
  8
0
100
AcDbLine
 62
7
  6
CONTINUOUS
 10
134.5797492898
 20
74.0730556186
 11
132.5065612898
 21
71.6678006186
  0
LINE
  5
595
100
AcDbEntity
  8
0
100
AcDbLine
 62
7
  6
CONTINUOUS
 10
132.9109412898
 20
71.6678006186
 11
134.5432642898
 21
73.5615976186
  0
LWPOLYLINE
  5
596
100
AcDbEntity
  8
0
100
AcDbPolyline
 62
7
  6
CONTINUOUS
 90
23
 70
0
 10
152.2140228985
 20
95.1809140121
 10
152.2238885576
 20
95.1915191125
 10
152.2342674573
 20
95.2015087272
 10
152.2451867366
 20
95.2109278608
 10
152.2564431014
 20
95.219844436
 10
152.2680191327
 20
95.2282559082
 10
152.279932196
 20
95.2361648207
 10
152.2920311974
 20
95.2436467296
 10
152.3042487606
 20
95.2506825181
 10
152.3166522281
 20
95.257291302
 10
152.3292925923
 20
95.2636059857
 10
152.3421544163
 20
95.2696421856
 10
152.3552530915
 20
95.2753842848
 10
152.3686858409
 20
95.2809183377
 10
152.3824419943
 20
95.2862518091
 10
152.3965321561
 20
95.291377234
 10
152.4110854409
 20
95.2963582723
 10
152.4261070099
 20
95.3011688651
 10
152.4415916034
 20
95.305835071
 10
152.4576526804
 20
95.3104987265
 10
152.4743280124
 20
95.3152071103
 10
152.4915796941
 20
95.3199129437
 10
152.5094076559
 20
95.3246162267
  0
LWPOLYLINE
  5
597
100
AcDbEntity
  8
0
100
AcDbPolyline
 62
7
  6
CONTINUOUS
 90
3
 70
0
 10
136.0693426672
 20
79.9866714378
 10
136.0324452663
 20
79.9488726173
 10
136.013896074
 20
79.9300463678
  0
LINE
  5
598
100
AcDbEntity
  8
0
100
AcDbLine
 62
7
  6
CONTINUOUS
 10
136.013896074
 20
79.9300463678
 11
135.9588013583
 21
79.8745959938
  0
LINE
  5
599
100
AcDbEntity
  8
0
100
AcDbLine
 62
7
  6
CONTINUOUS
 10
131.645567415
 20
72.8434159386
 11
131.6681556715
 21
72.8660041951
  0
LINE
  5
59A
100
AcDbEntity
  8
0
100
AcDbLine
 62
7
  6
CONTINUOUS
 10
138.4855612693
 20
81.6446867203
 11
138.0823010958
 21
81.2518496186
  0
LINE
  5
59B
100
AcDbEntity
  8
0
100
AcDbLine
 62
7
  6
CONTINUOUS
 10
135.0515160217
 20
83.8416600672
 11
135.1078346732
 21
83.8698108134
  0
LINE
  5
59C
100
AcDbEntity
  8
0
100
AcDbLine
 62
7
  6
CONTINUOUS
 10
152.9694152898
 20
91.7582406186
 11
151.8594372898
 21
91.3419846186
  0
LINE
  5
59D
100
AcDbEntity
  8
0
100
AcDbLine
 62
7
  6
CONTINUOUS
 10
151.2695522898
 20
91.4339806186
 11
152.2133212898
 21
91.7850606186
  0
LWPOLYLINE
  5
59E
100
AcDbEntity
  8
0
100
AcDbPolyline
 62
7
  6
CONTINUOUS
 90
7
 70
0
 10
153.539195881
 20
130.9921939696
 10
153.536666972
 20
130.9917389436
 10
153.53201945
 20
130.9912957847
 10
153.525253315
 20
130.9908644927
 10
153.5162851243
 20
130.9904420328
 10
153.5051983206
 20
130.9900314399
 10
153.4922432321
 20
130.9896418186
  0
LWPOLYLINE
  5
59F
100
AcDbEntity
  8
0
100
AcDbPolyline
 62
253
  6
CONTINUOUS
 90
13
 70
0
 10
153.7509730039
 20
130.3990021546
 10
153.77340073
 20
130.3998060216
 10
153.7950859815
 20
130.4004795992
 10
153.8157410421
 20
130.4010139507
 10
153.8350918638
 20
130.4014019863
 10
153.8528817029
 20
130.4016385575
 10
153.8688745268
 20
130.4017205257
 10
153.8828581454
 20
130.4016468033
 10
153.8946470261
 20
130.4014183684
 10
153.9040847561
 20
130.4010382518
 10
153.911046117
 20
130.4005114969
 10
153.9154387468
 20
130.3998450926
 10
153.9172043646
 20
130.3990478807
  0
LINE
  5
5A0
100
AcDbEntity
  8
0
100
AcDbLine
 62
7
  6
CONTINUOUS
 10
152.2932389068
 20
126.9518496186
 11
152.3953665542
 21
126.9518496186
  0
LINE
  5
5A1
100
AcDbEntity
  8
0
100
AcDbLine
 62
7
  6
CONTINUOUS
 10
152.4294091034
 20
127.1185164124
 11
152.25919631
 21
127.1185164124
  0
LINE
  5
5A2
100
AcDbEntity
  8
0
100
AcDbLine
 62
253
  6
CONTINUOUS
 10
148.1348474945
 20
129.5518496186
 11
148.1219622898
 21
129.5518496186
  0
LINE
  5
5A3
100
AcDbEntity
  8
0
100
AcDbLine
 62
253
  6
CONTINUOUS
 10
125.609077085
 20
129.5518496186
 11
125.6219622898
 21
129.5518496186
  0
LWPOLYLINE
  5
5A4
100
AcDbEntity
  8
0
100
AcDbPolyline
 62
253
  6
CONTINUOUS
 90
13
 70
0
 10
119.9929515758
 20
130.3990021546
 10
119.9705238497
 20
130.3998060215
 10
119.948838598
 20
130.4004795992
 10
119.9281835374
 20
130.4010139507
 10
119.9088327156
 20
130.4014019862
 10
119.8910428764
 20
130.4016385575
 10
119.8750500523
 20
130.4017205257
 10
119.8610664337
 20
130.4016468033
 10
119.8492775528
 20
130.4014183684
 10
119.8398398227
 20
130.4010382519
 10
119.8328784616
 20
130.400511497
 10
119.8284858317
 20
130.3998450927
 10
119.8267202138
 20
130.3990478807
  0
LINE
  5
5A5
100
AcDbEntity
  8
0
100
AcDbLine
 62
7
  6
CONTINUOUS
 10
152.4294091034
 20
125.6185164124
 11
152.1911112117
 21
125.6518496186
  0
LINE
  5
5A6
100
AcDbEntity
  8
0
100
AcDbLine
 62
7
  6
CONTINUOUS
 10
151.7145155239
 20
125.9518496186
 11
151.9528133678
 21
125.9185164124
  0
LINE
  5
5A7
100
AcDbEntity
  8
0
100
AcDbLine
 62
7
  6
CONTINUOUS
 10
152.1911112117
 20
125.4851828247
 11
152.3953665542
 21
125.4518496186
  0
LINE
  5
5A8
100
AcDbEntity
  8
0
100
AcDbLine
 62
7
  6
CONTINUOUS
 10
151.9528133678
 20
126.0851828247
 11
151.748558073
 21
126.1185164124
  0
LWPOLYLINE
  5
5A9
100
AcDbEntity
  8
0
100
AcDbPolyline
 62
7
  6
CONTINUOUS
 90
8
 70
0
 10
120.0413668473
 20
131.0477142342
 10
120.0387478248
 20
131.0481569873
 10
120.033693613
 20
131.0485859743
 10
120.026204212
 20
131.0490011952
 10
120.0161034571
 20
131.0494078538
 10
120.0035675129
 20
131.0498007464
 10
119.9891248738
 20
131.0501642614
 10
119.9546698826
 20
131.0507961997
  0
LINE
  5
5AA
100
AcDbEntity
  8
0
100
AcDbLine
 62
7
  6
CONTINUOUS
 10
151.748558073
 20
123.1851830155
 11
151.6464303302
 21
123.2185162217
  0
LINE
  5
5AB
100
AcDbEntity
  8
0
100
AcDbLine
 62
7
  6
CONTINUOUS
 10
152.2932389068
 20
123.1851830155
 11
152.1911112117
 21
123.2185162217
  0
LINE
  5
5AC
100
AcDbEntity
  8
0
100
AcDbLine
 62
7
  6
CONTINUOUS
 10
152.3953665542
 20
124.0185162217
 11
152.4974942016
 21
123.9851830155
  0
LINE
  5
5AD
100
AcDbEntity
  8
0
100
AcDbLine
 62
7
  6
CONTINUOUS
 10
151.748558073
 20
124.6185164124
 11
151.6464303302
 21
124.6518496186
  0
LINE
  5
5AE
100
AcDbEntity
  8
0
100
AcDbLine
 62
7
  6
CONTINUOUS
 10
151.8166431713
 20
125.4518496186
 11
151.9187708187
 21
125.4185164124
  0
LINE
  5
5AF
100
AcDbEntity
  8
0
100
AcDbLine
 62
7
  6
CONTINUOUS
 10
152.3953665542
 20
125.4518496186
 11
152.4974942016
 21
125.4185164124
  0
LINE
  5
5B0
100
AcDbEntity
  8
0
100
AcDbLine
 62
7
  6
CONTINUOUS
 10
151.748558073
 20
126.1185164124
 11
151.6464303302
 21
126.1518496186
  0
LINE
  5
5B1
100
AcDbEntity
  8
0
100
AcDbLine
 62
7
  6
CONTINUOUS
 10
152.2932389068
 20
126.1185164124
 11
152.1911112117
 21
126.1518496186
  0
LINE
  5
5B2
100
AcDbEntity
  8
0
100
AcDbLine
 62
7
  6
CONTINUOUS
 10
152.5996218729
 20
122.6185162217
 11
152.4294091034
 21
122.6851830155
  0
LINE
  5
5B3
100
AcDbEntity
  8
0
100
AcDbLine
 62
7
  6
CONTINUOUS
 10
151.5443026828
 20
123.0851830155
 11
151.7145155239
 21
123.0185162217
  0
LINE
  5
5B4
100
AcDbEntity
  8
0
100
AcDbLine
 62
7
  6
CONTINUOUS
 10
151.5443026828
 20
124.5185164124
 11
151.7145155239
 21
124.4518496186
  0
LINE
  5
5B5
100
AcDbEntity
  8
0
100
AcDbLine
 62
7
  6
CONTINUOUS
 10
152.5996218729
 20
124.1185164124
 11
152.4294091034
 21
124.1851828247
  0
LINE
  5
5B6
100
AcDbEntity
  8
0
100
AcDbLine
 62
7
  6
CONTINUOUS
 10
152.5996218729
 20
125.5518496186
 11
152.4294091034
 21
125.6185164124
  0
LINE
  5
5B7
100
AcDbEntity
  8
0
100
AcDbLine
 62
7
  6
CONTINUOUS
 10
151.5443026828
 20
126.0185164124
 11
151.7145155239
 21
125.9518496186
  0
LINE
  5
5B8
100
AcDbEntity
  8
0
100
AcDbLine
 62
7
  6
CONTINUOUS
 10
135.0515160217
 20
131.8620391699
 11
135.1078346732
 21
131.8338884237
  0
LINE
  5
5B9
100
AcDbEntity
  8
0
100
AcDbLine
 62
7
  6
CONTINUOUS
 10
151.6464303302
 20
121.718516317
 11
151.5443026828
 21
121.7851829201
  0
LINE
  5
5BA
100
AcDbEntity
  8
0
100
AcDbLine
 62
7
  6
CONTINUOUS
 10
151.9187708187
 20
122.4851830155
 11
152.0208984661
 21
122.418516317
  0
LINE
  5
5BB
100
AcDbEntity
  8
0
100
AcDbLine
 62
7
  6
CONTINUOUS
 10
152.4974942016
 20
122.4851830155
 11
152.5996218729
 21
122.418516317
  0
LINE
  5
5BC
100
AcDbEntity
  8
0
100
AcDbLine
 62
7
  6
CONTINUOUS
 10
151.6464303302
 20
123.2185162217
 11
151.5443026828
 21
123.2851830155
  0
LINE
  5
5BD
100
AcDbEntity
  8
0
100
AcDbLine
 62
7
  6
CONTINUOUS
 10
152.4974942016
 20
123.9851830155
 11
152.5996218729
 21
123.9185162217
  0
LINE
  5
5BE
100
AcDbEntity
  8
0
100
AcDbLine
 62
7
  6
CONTINUOUS
 10
151.6464303302
 20
124.6518496186
 11
151.5443026828
 21
124.7185164124
  0
LINE
  5
5BF
100
AcDbEntity
  8
0
100
AcDbLine
 62
7
  6
CONTINUOUS
 10
151.4081324863
 20
121.6851829201
 11
151.5443026828
 21
121.5851829678
  0
LINE
  5
5C0
100
AcDbEntity
  8
0
100
AcDbLine
 62
7
  6
CONTINUOUS
 10
151.4081324863
 20
123.1851830155
 11
151.5443026828
 21
123.0851830155
  0
LINE
  5
5C1
100
AcDbEntity
  8
0
100
AcDbLine
 62
7
  6
CONTINUOUS
 10
152.7357920813
 20
122.5185162217
 11
152.5996218729
 21
122.6185162217
  0
LINE
  5
5C2
100
AcDbEntity
  8
0
100
AcDbLine
 62
7
  6
CONTINUOUS
 10
151.4081324863
 20
124.6185164124
 11
151.5443026828
 21
124.5185164124
  0
LINE
  5
5C3
100
AcDbEntity
  8
0
100
AcDbLine
 62
7
  6
CONTINUOUS
 10
152.7357920813
 20
124.0185162217
 11
152.5996218729
 21
124.1185164124
  0
LINE
  5
5C4
100
AcDbEntity
  8
0
100
AcDbLine
 62
7
  6
CONTINUOUS
 10
151.2719622898
 20
121.0518496186
 11
151.5102601337
 21
120.8518496186
  0
LINE
  5
5C5
100
AcDbEntity
  8
0
100
AcDbLine
 62
7
  6
CONTINUOUS
 10
151.7826006221
 20
120.8518496186
 11
151.5443026828
 21
121.0518496186
  0
LINE
  5
5C6
100
AcDbEntity
  8
0
100
AcDbLine
 62
7
  6
CONTINUOUS
 10
138.4855612693
 20
134.0590125168
 11
138.0823010958
 21
134.4518496186
  0
LINE
  5
5C7
100
AcDbEntity
  8
0
100
AcDbLine
 62
7
  6
CONTINUOUS
 10
152.1911112117
 20
123.2185162217
 11
152.1230261135
 21
123.2851830155
  0
LINE
  5
5C8
100
AcDbEntity
  8
0
100
AcDbLine
 62
7
  6
CONTINUOUS
 10
131.645567415
 20
142.8602832985
 11
131.6681556715
 21
142.837695042
  0
LWPOLYLINE
  5
5C9
100
AcDbEntity
  8
0
100
AcDbPolyline
 62
7
  6
CONTINUOUS
 90
3
 70
0
 10
135.9954917868
 20
135.7923710788
 10
135.977126831
 20
135.8108781864
 10
135.9588013583
 20
135.8291032434
  0
LWPOLYLINE
  5
5CA
100
AcDbEntity
  8
0
100
AcDbPolyline
 62
7
  6
CONTINUOUS
 90
3
 70
0
 10
136.0693426671
 20
135.7170277994
 10
136.0509914098
 20
135.7359067392
 10
135.9954917868
 20
135.7923710788
  0
LINE
  5
5CB
100
AcDbEntity
  8
0
100
AcDbLine
 62
7
  6
CONTINUOUS
 10
151.5443026828
 20
121.7851829201
 11
151.4762175846
 21
121.8851829201
  0
LINE
  5
5CC
100
AcDbEntity
  8
0
100
AcDbLine
 62
7
  6
CONTINUOUS
 10
152.0208984661
 20
122.418516317
 11
152.0889835643
 21
122.318516317
  0
LINE
  5
5CD
100
AcDbEntity
  8
0
100
AcDbLine
 62
7
  6
CONTINUOUS
 10
151.5443026828
 20
123.2851830155
 11
151.4762175846
 21
123.3851830155
  0
LINE
  5
5CE
100
AcDbEntity
  8
0
100
AcDbLine
 62
7
  6
CONTINUOUS
 10
152.25919631
 20
122.3518496186
 11
152.1230261135
 21
122.5518496186
  0
LINE
  5
5CF
100
AcDbEntity
  8
0
100
AcDbLine
 62
7
  6
CONTINUOUS
 10
151.8847282695
 20
123.3518496186
 11
152.0208984661
 21
123.1518496186
  0
LINE
  5
5D0
100
AcDbEntity
  8
0
100
AcDbLine
 62
7
  6
CONTINUOUS
 10
152.5996218729
 20
122.418516317
 11
152.6677069711
 21
122.318516317
  0
LINE
  5
5D1
100
AcDbEntity
  8
0
100
AcDbLine
 62
7
  6
CONTINUOUS
 10
152.1230261135
 20
123.2851830155
 11
152.0549410152
 21
123.3851830155
  0
LINE
  5
5D2
100
AcDbEntity
  8
0
100
AcDbLine
 62
7
  6
CONTINUOUS
 10
151.5443026828
 20
124.7185164124
 11
151.4762175846
 21
124.8185164124
  0
LINE
  5
5D3
100
AcDbEntity
  8
0
100
AcDbLine
 62
7
  6
CONTINUOUS
 10
152.5996218729
 20
123.9185162217
 11
152.6677069711
 21
123.8185162217
  0
LINE
  5
5D4
100
AcDbEntity
  8
0
100
AcDbLine
 62
7
  6
CONTINUOUS
 10
152.0208984661
 20
125.3518496186
 11
152.0889835643
 21
125.2518496186
  0
LINE
  5
5D5
100
AcDbEntity
  8
0
100
AcDbLine
 62
7
  6
CONTINUOUS
 10
151.5443026828
 20
126.2185164124
 11
151.4762175846
 21
126.3185164124
  0
LINE
  5
5D6
100
AcDbEntity
  8
0
100
AcDbLine
 62
7
  6
CONTINUOUS
 10
151.3060048389
 20
121.8518496186
 11
151.4081324863
 21
121.6851829201
  0
LINE
  5
5D7
100
AcDbEntity
  8
0
100
AcDbLine
 62
7
  6
CONTINUOUS
 10
151.3060048389
 20
123.3518496186
 11
151.4081324863
 21
123.1851830155
  0
LINE
  5
5D8
100
AcDbEntity
  8
0
100
AcDbLine
 62
7
  6
CONTINUOUS
 10
151.3060048389
 20
124.7851828247
 11
151.4081324863
 21
124.6185164124
  0
LINE
  5
5D9
100
AcDbEntity
  8
0
100
AcDbLine
 62
7
  6
CONTINUOUS
 10
152.8379197377
 20
122.3518496186
 11
152.7357920813
 21
122.5185162217
  0
LINE
  5
5DA
100
AcDbEntity
  8
0
100
AcDbLine
 62
7
  6
CONTINUOUS
 10
151.3060048389
 20
126.2851828247
 11
151.4081324863
 21
126.1185164124
  0
LINE
  5
5DB
100
AcDbEntity
  8
0
100
AcDbLine
 62
7
  6
CONTINUOUS
 10
152.8379197377
 20
123.8518496186
 11
152.7357920813
 21
124.0185162217
  0
LINE
  5
5DC
100
AcDbEntity
  8
0
100
AcDbLine
 62
7
  6
CONTINUOUS
 10
152.0889835643
 20
122.318516317
 11
152.1230261135
 21
122.218516317
  0
LINE
  5
5DD
100
AcDbEntity
  8
0
100
AcDbLine
 62
7
  6
CONTINUOUS
 10
151.4762175846
 20
124.8185164124
 11
151.4421750354
 21
124.9185164124
  0
LINE
  5
5DE
100
AcDbEntity
  8
0
100
AcDbLine
 62
7
  6
CONTINUOUS
 10
152.0549410152
 20
123.3851830155
 11
152.0208984661
 21
123.4851830155
  0
LINE
  5
5DF
100
AcDbEntity
  8
0
100
AcDbLine
 62
7
  6
CONTINUOUS
 10
152.6677069711
 20
122.318516317
 11
152.7017495203
 21
122.218516317
  0
LINE
  5
5E0
100
AcDbEntity
  8
0
100
AcDbLine
 62
7
  6
CONTINUOUS
 10
151.4762175846
 20
126.3185164124
 11
151.4421750354
 21
126.4185164124
  0
LINE
  5
5E1
100
AcDbEntity
  8
0
100
AcDbLine
 62
7
  6
CONTINUOUS
 10
152.0889835643
 20
125.2518496186
 11
152.1230261135
 21
125.1518496186
  0
LINE
  5
5E2
100
AcDbEntity
  8
0
100
AcDbLine
 62
7
  6
CONTINUOUS
 10
152.6677069711
 20
123.8185162217
 11
152.7017495203
 21
123.7185162217
  0
LINE
  5
5E3
100
AcDbEntity
  8
0
100
AcDbLine
 62
7
  6
CONTINUOUS
 10
152.0549410152
 20
126.3185164124
 11
152.0208984661
 21
126.4185164124
  0
LINE
  5
5E4
100
AcDbEntity
  8
0
100
AcDbLine
 62
7
  6
CONTINUOUS
 10
152.6677069711
 20
125.2518496186
 11
152.7017495203
 21
125.1518496186
  0
LINE
  5
5E5
100
AcDbEntity
  8
0
100
AcDbLine
 62
7
  6
CONTINUOUS
 10
152.6677069711
 20
126.7518496186
 11
152.7017495203
 21
126.6518496186
  0
LINE
  5
5E6
100
AcDbEntity
  8
0
100
AcDbLine
 62
7
  6
CONTINUOUS
 10
152.8719622898
 20
125.1185164124
 11
152.8379197377
 21
125.2851828247
  0
LINE
  5
5E7
100
AcDbEntity
  8
0
100
AcDbLine
 62
7
  6
CONTINUOUS
 10
152.8719622898
 20
126.6185164124
 11
152.8379197377
 21
126.7851828247
  0
LWPOLYLINE
  5
5E8
100
AcDbEntity
  8
0
100
AcDbPolyline
 62
253
  6
CONTINUOUS
 90
10
 70
0
 10
153.1209194063
 20
138.316520975
 10
153.2039520858
 20
137.6791004314
 10
153.2809657121
 20
137.0409306721
 10
153.3519369597
 20
136.4020229885
 10
153.4168321145
 20
135.7623448787
 10
153.4756419512
 20
135.1219515741
 10
153.528382096
 20
134.4809861895
 10
153.5750463522
 20
133.8395042695
 10
153.6156063317
 20
133.1974736379
 10
153.6500465907
 20
132.5549060295
  0
LWPOLYLINE
  5
5E9
100
AcDbEntity
  8
0
100
AcDbPolyline
 62
253
  6
CONTINUOUS
 90
10
 70
0
 10
153.2873878962
 20
138.3237078703
 10
153.3704344871
 20
137.6853880196
 10
153.4474385454
 20
137.046214223
 10
153.5183903804
 20
136.4062432789
 10
153.5832810471
 20
135.7655308415
 10
153.6421016753
 20
135.124135192
 10
153.6948435911
 20
134.482117254
 10
153.7414991592
 20
133.8395355423
 10
153.7820616641
 20
133.1964461376
 10
153.8165247225
 20
132.5529064721
  0
LINE
  5
5EA
100
AcDbEntity
  8
0
100
AcDbLine
 62
7
  6
CONTINUOUS
 10
149.5161933594
 20
84.7281194934
 11
149.546420485
 21
84.758346619
  0
LINE
  5
5EB
100
AcDbEntity
  8
0
100
AcDbLine
 62
7
  6
CONTINUOUS
 10
138.9137412898
 20
74.0850486186
 11
137.7097572898
 21
72.8810656186
  0
LINE
  5
5EC
100
AcDbEntity
  8
0
100
AcDbLine
 62
7
  6
CONTINUOUS
 10
138.1429172898
 20
72.8810646186
 11
139.3468632898
 21
74.0850486186
  0
LINE
  5
5ED
100
AcDbEntity
  8
0
100
AcDbLine
 62
7
  6
CONTINUOUS
 10
140.7263022898
 20
74.8382926186
 11
140.1832662898
 21
74.2952576186
  0
LINE
  5
5EE
100
AcDbEntity
  8
0
100
AcDbLine
 62
7
  6
CONTINUOUS
 10
131.6569590976
 20
69.5235552596
 11
131.5719622898
 21
69.4459919035
  0
LINE
  5
5EF
100
AcDbEntity
  8
0
100
AcDbLine
 62
7
  6
CONTINUOUS
 10
136.0219622898
 20
81.6928658972
 11
136.0530883297
 21
81.7084277319
  0
LINE
  5
5F0
100
AcDbEntity
  8
0
100
AcDbLine
 62
7
  6
CONTINUOUS
 10
152.9694152898
 20
89.3893406186
 11
151.2695522898
 21
88.8504516186
  0
LINE
  5
5F1
100
AcDbEntity
  8
0
100
AcDbLine
 62
7
  6
CONTINUOUS
 10
135.2579945138
 20
134.0483590044
 11
135.1078346732
 21
134.01083334
  0
LINE
  5
5F2
100
AcDbEntity
  8
0
100
AcDbLine
 62
253
  6
CONTINUOUS
 10
155.6729749979
 20
134.2677486436
 11
154.3248641528
 21
134.1963543219
  0
LINE
  5
5F3
100
AcDbEntity
  8
0
100
AcDbLine
 62
253
  6
CONTINUOUS
 10
153.9083335977
 20
132.5574784728
 11
153.8165247225
 21
132.5529064721
  0
LWPOLYLINE
  5
5F4
100
AcDbEntity
  8
0
100
AcDbPolyline
 62
7
  6
CONTINUOUS
 90
22
 70
0
 10
126.4219622898
 20
130.3641404184
 10
126.3606756617
 20
130.3618277308
 10
126.3003332929
 20
130.3550591126
 10
126.2409349989
 20
130.3438345639
 10
126.1820879144
 20
130.3280050505
 10
126.1241846048
 20
130.3077196066
 10
126.0684026129
 20
130.2834253341
 10
126.0149440749
 20
130.2551538018
 10
125.9636055871
 20
130.2228734409
 10
125.9149557944
 20
130.1869366473
 10
125.8688555415
 20
130.1471297339
 10
125.8254425025
 20
130.1036663878
 10
125.7857001381
 20
130.0575400661
 10
125.7498420363
 20
130.008889922
 10
125.7176527825
 20
129.9575768022
 10
125.6894720838
 20
129.9041767039
 10
125.6652695351
 20
129.8484835496
 10
125.6450741227
 20
129.7907034168
 10
125.6293146554
 20
129.7320305343
 10
125.6181337656
 20
129.6728629787
 10
125.6113879789
 20
129.6128026734
 10
125.609077085
 20
129.5518496186
  0
LWPOLYLINE
  5
5F5
100
AcDbEntity
  8
0
100
AcDbPolyline
 62
253
  6
CONTINUOUS
 90
13
 70
0
 10
153.6500465907
 20
132.5549060295
 10
153.6724865921
 20
132.5557295343
 10
153.6941871582
 20
132.5563838411
 10
153.7148601305
 20
132.5568602614
 10
153.7342309959
 20
132.557152469
 10
153.752042532
 20
132.5572565837
 10
153.7680582221
 20
132.557171223
 10
153.7820653966
 20
132.5568975202
 10
153.7938780564
 20
132.55643911
 10
153.8033393431
 20
132.5558020795
 10
153.8103236219
 20
132.5549948876
 10
153.8147381496
 20
132.554028253
 10
153.8165243064
 20
132.5529150114
  0
LWPOLYLINE
  5
5F6
100
AcDbEntity
  8
0
100
AcDbPolyline
 62
7
  6
CONTINUOUS
 90
7
 70
0
 10
138.7370278677
 20
131.864610725
 10
138.7244035186
 20
131.8642144356
 10
138.7136138158
 20
131.8637960596
 10
138.7049866766
 20
131.8633680952
 10
138.6986314067
 20
131.8629347085
 10
138.6944387005
 20
131.8624917334
 10
138.6924085579
 20
131.8620391699
  0
LWPOLYLINE
  5
5F7
100
AcDbEntity
  8
0
100
AcDbPolyline
 62
7
  6
CONTINUOUS
 90
7
 70
0
 10
153.8600385219
 20
130.9567842783
 10
153.8692965935
 20
130.9570647649
 10
153.877191285
 20
130.9573630753
 10
153.8834280479
 20
130.9576685852
 10
153.8879086995
 20
130.9579777533
 10
153.8907314226
 20
130.958294121
 10
153.8918962172
 20
130.9586176882
  0
LWPOLYLINE
  5
5F8
100
AcDbEntity
  8
0
100
AcDbPolyline
 62
7
  6
CONTINUOUS
 90
7
 70
0
 10
119.9253206635
 20
131.8462204161
 10
119.9160378918
 20
131.8459403144
 10
119.9081185443
 20
131.845642436
 10
119.9018564271
 20
131.8453374097
 10
119.8973494755
 20
131.8450287786
 10
119.8944997541
 20
131.8447129996
 10
119.893307263
 20
131.8443900728
  0
LWPOLYLINE
  5
5F9
100
AcDbEntity
  8
0
100
AcDbPolyline
 62
7
  6
CONTINUOUS
 90
7
 70
0
 10
153.7547974926
 20
131.0501642117
 10
153.7403541513
 20
131.0498006548
 10
153.7278177722
 20
131.0494077157
 10
153.7177170692
 20
131.0490010395
 10
153.7102282807
 20
131.0485858414
 10
153.7051751683
 20
131.0481569063
 10
153.7025577323
 20
131.0477142342
  0
LWPOLYLINE
  5
5FA
100
AcDbEntity
  8
0
100
AcDbPolyline
 62
7
  6
CONTINUOUS
 90
7
 70
0
 10
120.0398473153
 20
131.753535443
 10
120.0543515082
 20
131.7538990364
 10
120.0669497994
 20
131.7542919821
 10
120.0771127245
 20
131.7546986178
 10
120.0846637954
 20
131.7551137228
 10
120.0897795002
 20
131.7555425178
 10
120.0924598389
 20
131.7559850029
  0
LINE
  5
5FB
100
AcDbEntity
  8
0
100
AcDbLine
 62
7
  6
CONTINUOUS
 10
138.7677930681
 20
131.8653326808
 11
138.7370278677
 21
131.864610725
  0
LINE
  5
5FC
100
AcDbEntity
  8
0
100
AcDbLine
 62
7
  6
CONTINUOUS
 10
153.4922432321
 20
130.9896418186
 11
153.4606690242
 21
130.9889267239
  0
LINE
  5
5FD
100
AcDbEntity
  8
0
100
AcDbLine
 62
7
  6
CONTINUOUS
 10
120.3122229085
 20
131.8143001809
 11
120.3440364842
 21
131.8150166858
  0
LINE
  5
5FE
100
AcDbEntity
  8
0
100
AcDbLine
 62
7
  6
CONTINUOUS
 10
153.8375088202
 20
130.9562816523
 11
153.8600385219
 21
130.9567842783
  0
LINE
  5
5FF
100
AcDbEntity
  8
0
100
AcDbLine
 62
7
  6
CONTINUOUS
 10
119.9479003175
 20
131.8467224273
 11
119.9253206635
 21
131.8462204161
  0
LINE
  5
600
100
AcDbEntity
  8
0
100
AcDbLine
 62
7
  6
CONTINUOUS
 10
153.7892550139
 20
131.0507962007
 11
153.7547974926
 21
131.0501642117
  0
LINE
  5
601
100
AcDbEntity
  8
0
100
AcDbLine
 62
7
  6
CONTINUOUS
 10
120.0052703744
 20
131.7529032739
 11
120.0398473153
 21
131.753535443
  0
LINE
  5
602
100
AcDbEntity
  8
0
100
AcDbLine
 62
7
  6
CONTINUOUS
 10
138.8048438503
 20
131.8659480395
 11
138.7677930681
 21
131.8653326808
  0
LINE
  5
603
100
AcDbEntity
  8
0
100
AcDbLine
 62
7
  6
CONTINUOUS
 10
153.4606690242
 20
130.9889267239
 11
153.4225873674
 21
130.9883176136
  0
LINE
  5
604
100
AcDbEntity
  8
0
100
AcDbLine
 62
7
  6
CONTINUOUS
 10
120.3440364842
 20
131.8150166858
 11
120.3823044734
 21
131.8156260321
  0
LINE
  5
605
100
AcDbEntity
  8
0
100
AcDbLine
 62
7
  6
CONTINUOUS
 10
153.809951155
 20
130.9558593177
 11
153.8375088202
 21
130.9562816523
  0
LINE
  5
606
100
AcDbEntity
  8
0
100
AcDbLine
 62
7
  6
CONTINUOUS
 10
119.9755088357
 20
131.847144252
 11
119.9479003175
 21
131.8467224273
  0
LINE
  5
607
100
AcDbEntity
  8
0
100
AcDbLine
 62
7
  6
CONTINUOUS
 10
153.8306363496
 20
131.0512962813
 11
153.7892550139
 21
131.0507962007
  0
LINE
  5
608
100
AcDbEntity
  8
0
100
AcDbLine
 62
7
  6
CONTINUOUS
 10
119.9637794647
 20
131.7524030365
 11
120.0052703744
 21
131.7529032739
  0
LINE
  5
609
100
AcDbEntity
  8
0
100
AcDbLine
 62
7
  6
CONTINUOUS
 10
138.8707764051
 20
131.86664601
 11
138.8048438503
 21
131.8659480395
  0
LINE
  5
60A
100
AcDbEntity
  8
0
100
AcDbLine
 62
7
  6
CONTINUOUS
 10
153.4225873674
 20
130.9883176136
 11
153.3555647354
 21
130.9876369962
  0
LINE
  5
60B
100
AcDbEntity
  8
0
100
AcDbLine
 62
7
  6
CONTINUOUS
 10
120.3823044734
 20
131.8156260321
 11
120.449560301
 21
131.8163058959
  0
LINE
  5
60C
100
AcDbEntity
  8
0
100
AcDbLine
 62
7
  6
CONTINUOUS
 10
153.7613002609
 20
130.9554032895
 11
153.809951155
 21
130.9558593177
  0
LINE
  5
60D
100
AcDbEntity
  8
0
100
AcDbLine
 62
7
  6
CONTINUOUS
 10
120.024234225
 20
131.8475996157
 11
119.9755088357
 21
131.847144252
  0
LINE
  5
60E
100
AcDbEntity
  8
0
100
AcDbLine
 62
7
  6
CONTINUOUS
 10
153.3555647354
 20
130.9876369962
 11
153.3059257732
 21
130.9873584373
  0
LINE
  5
60F
100
AcDbEntity
  8
0
100
AcDbLine
 62
7
  6
CONTINUOUS
 10
120.449560301
 20
131.8163058959
 11
120.4994071098
 21
131.8165842404
  0
LINE
  5
610
100
AcDbEntity
  8
0
100
AcDbLine
 62
7
  6
CONTINUOUS
 10
153.9019624734
 20
131.0517601607
 11
153.8306363496
 21
131.0512962813
  0
LINE
  5
611
100
AcDbEntity
  8
0
100
AcDbLine
 62
7
  6
CONTINUOUS
 10
119.8923254471
 20
131.7519390556
 11
119.9637794647
 21
131.7524030365
  0
LINE
  5
612
100
AcDbEntity
  8
0
100
AcDbLine
 62
7
  6
CONTINUOUS
 10
138.9451563119
 20
131.8670313495
 11
138.8707764051
 21
131.86664601
  0
LINE
  5
613
100
AcDbEntity
  8
0
100
AcDbLine
 62
7
  6
CONTINUOUS
 10
123.1658607192
 20
131.8555430846
 11
120.024234225
 21
131.8475996157
  0
LWPOLYLINE
  5
614
100
AcDbEntity
  8
0
100
AcDbPolyline
 62
7
  6
CONTINUOUS
 90
3
 70
0
 10
149.546420485
 20
130.9453526182
 10
150.0126079792
 20
130.9462076622
 10
153.7613002609
 20
130.9554032895
  0
LINE
  5
615
100
AcDbEntity
  8
0
100
AcDbLine
 62
7
  6
CONTINUOUS
 10
130.2038638792
 20
131.8646918699
 11
123.1658607192
 21
131.8555430846
  0
LINE
  5
616
100
AcDbEntity
  8
0
100
AcDbLine
 62
7
  6
CONTINUOUS
 10
126.4219622898
 20
130.3518496186
 11
147.3219622898
 21
130.3518496186
  0
LINE
  5
617
100
AcDbEntity
  8
0
100
AcDbLine
 62
7
  6
CONTINUOUS
 10
129.3719622898
 20
130.3631945467
 11
144.3719622898
 21
130.3631945467
  0
LINE
  5
618
100
AcDbEntity
  8
0
100
AcDbLine
 62
253
  6
CONTINUOUS
 10
124.197054659
 20
130.3990021546
 11
119.9929516806
 21
130.3990044902
  0
LINE
  5
619
100
AcDbEntity
  8
0
100
AcDbLine
 62
253
  6
CONTINUOUS
 10
149.5468699206
 20
130.3990021546
 11
153.7509729197
 21
130.3990040273
  0
LINE
  5
61A
100
AcDbEntity
  8
0
100
AcDbLine
 62
7
  6
CONTINUOUS
 10
153.9019624734
 20
131.0517601607
 11
153.9808864704
 21
131.0518496186
  0
LINE
  5
61B
100
AcDbEntity
  8
0
100
AcDbLine
 62
7
  6
CONTINUOUS
 10
119.8923254471
 20
131.7519390556
 11
119.7962009616
 21
131.7518496186
  0
LINE
  5
61C
100
AcDbEntity
  8
0
100
AcDbLine
 62
7
  6
CONTINUOUS
 10
129.3719622898
 20
131.8338884237
 11
135.1078346732
 21
131.8338884237
  0
LINE
  5
61D
100
AcDbEntity
  8
0
100
AcDbLine
 62
7
  6
CONTINUOUS
 10
136.0219622898
 20
131.8338884237
 11
137.7219622898
 21
131.8338884237
  0
LINE
  5
61E
100
AcDbEntity
  8
0
100
AcDbLine
 62
7
  6
CONTINUOUS
 10
138.6360899064
 20
131.8338884237
 11
144.3719622898
 21
131.8338884237
  0
LINE
  5
61F
100
AcDbEntity
  8
0
100
AcDbLine
 62
7
  6
CONTINUOUS
 10
137.6885238995
 20
131.867326814
 11
136.0554006801
 21
131.867326814
  0
LINE
  5
620
100
AcDbEntity
  8
0
100
AcDbLine
 62
7
  6
CONTINUOUS
 10
143.5400561922
 20
131.8646918735
 11
138.9451563119
 21
131.8670313495
  0
LINE
  5
621
100
AcDbEntity
  8
0
100
AcDbLine
 62
7
  6
CONTINUOUS
 10
119.8419626864
 20
131.0517601584
 11
119.7630381092
 21
131.0518496186
  0
LINE
  5
622
100
AcDbEntity
  8
0
100
AcDbLine
 62
7
  6
CONTINUOUS
 10
153.8515991324
 20
131.7519390556
 11
153.947723618
 21
131.7518496186
  0
LINE
  5
623
100
AcDbEntity
  8
0
100
AcDbLine
 62
7
  6
CONTINUOUS
 10
134.8238423547
 20
131.8669421643
 11
130.2038638792
 21
131.8646918699
  0
LINE
  5
624
100
AcDbEntity
  8
0
100
AcDbLine
 62
7
  6
CONTINUOUS
 10
153.7022365214
 20
131.8476955806
 11
143.5400561922
 21
131.8646918735
  0
LINE
  5
625
100
AcDbEntity
  8
0
100
AcDbLine
 62
7
  6
CONTINUOUS
 10
119.9826243188
 20
130.9554032895
 11
124.1975040945
 21
130.9453526182
  0
LINE
  5
626
100
AcDbEntity
  8
0
100
AcDbLine
 62
7
  6
CONTINUOUS
 10
120.4379988063
 20
130.9873584373
 11
120.3650726725
 21
130.987828187
  0
LINE
  5
627
100
AcDbEntity
  8
0
100
AcDbLine
 62
7
  6
CONTINUOUS
 10
153.2445174698
 20
131.8165842404
 11
153.3176992596
 21
131.8161152556
  0
LINE
  5
628
100
AcDbEntity
  8
0
100
AcDbLine
 62
7
  6
CONTINUOUS
 10
119.9132896574
 20
131.0512962641
 11
119.8419626864
 21
131.0517601584
  0
LINE
  5
629
100
AcDbEntity
  8
0
100
AcDbLine
 62
7
  6
CONTINUOUS
 10
153.7801451149
 20
131.7524030365
 11
153.8515991324
 21
131.7519390556
  0
LINE
  5
62A
100
AcDbEntity
  8
0
100
AcDbLine
 62
7
  6
CONTINUOUS
 10
134.8963997424
 20
131.8664460662
 11
134.8238423547
 21
131.8669421643
  0
LINE
  5
62B
100
AcDbEntity
  8
0
100
AcDbLine
 62
7
  6
CONTINUOUS
 10
153.7527731379
 20
131.847324015
 11
153.7022365214
 21
131.8476955806
  0
LINE
  5
62C
100
AcDbEntity
  8
0
100
AcDbLine
 62
7
  6
CONTINUOUS
 10
119.9339734248
 20
130.9558593177
 11
119.9826243188
 21
130.9554032895
  0
LINE
  5
62D
100
AcDbEntity
  8
0
100
AcDbLine
 62
7
  6
CONTINUOUS
 10
120.3650726725
 20
130.987828187
 11
120.321389433
 21
130.9883167825
  0
LINE
  5
62E
100
AcDbEntity
  8
0
100
AcDbLine
 62
7
  6
CONTINUOUS
 10
153.3176992596
 20
131.8161152556
 11
153.3616687855
 21
131.815625247
  0
LINE
  5
62F
100
AcDbEntity
  8
0
100
AcDbLine
 62
7
  6
CONTINUOUS
 10
134.9390807295
 20
131.8659480395
 11
134.8963997424
 21
131.8664460662
  0
LINE
  5
630
100
AcDbEntity
  8
0
100
AcDbLine
 62
7
  6
CONTINUOUS
 10
119.9546698826
 20
131.0507961997
 11
119.9132896574
 21
131.0512962641
  0
LINE
  5
631
100
AcDbEntity
  8
0
100
AcDbLine
 62
7
  6
CONTINUOUS
 10
153.7386542051
 20
131.7529032739
 11
153.7801451149
 21
131.7524030365
  0
LINE
  5
632
100
AcDbEntity
  8
0
100
AcDbLine
 62
7
  6
CONTINUOUS
 10
153.7828639582
 20
131.8469435067
 11
153.7527731379
 21
131.847324015
  0
LINE
  5
633
100
AcDbEntity
  8
0
100
AcDbLine
 62
7
  6
CONTINUOUS
 10
119.9064157597
 20
130.9562816523
 11
119.9339734248
 21
130.9558593177
  0
LINE
  5
634
100
AcDbEntity
  8
0
100
AcDbLine
 62
7
  6
CONTINUOUS
 10
120.321389433
 20
130.9883167825
 11
120.2833416043
 21
130.9889251229
  0
LINE
  5
635
100
AcDbEntity
  8
0
100
AcDbLine
 62
7
  6
CONTINUOUS
 10
153.3616687855
 20
131.815625247
 11
153.3999673219
 21
131.8150152256
  0
LINE
  5
636
100
AcDbEntity
  8
0
100
AcDbLine
 62
7
  6
CONTINUOUS
 10
134.9761315116
 20
131.8653326808
 11
134.9390807295
 21
131.8659480395
  0
LWPOLYLINE
  5
637
100
AcDbEntity
  8
0
100
AcDbPolyline
 62
7
  6
CONTINUOUS
 90
8
 70
0
 10
153.3999673219
 20
131.8150152256
 10
153.4317527409
 20
131.8142987979
 10
153.4448065927
 20
131.8139084281
 10
153.4559880773
 20
131.8134970325
 10
153.4650452816
 20
131.8130737821
 10
153.4718942343
 20
131.8126417339
 10
153.4766189065
 20
131.8121978308
 10
153.4792192983
 20
131.8117420729
  0
LWPOLYLINE
  5
638
100
AcDbEntity
  8
0
100
AcDbPolyline
 62
7
  6
CONTINUOUS
 90
8
 70
0
 10
120.2833416043
 20
130.9889251229
 10
120.2517435653
 20
130.9896401249
 10
120.23876816
 20
130.9900302426
 10
120.2276561773
 20
130.9904415702
 10
120.2186700014
 20
130.9908645613
 10
120.2118970936
 20
130.9912960339
 10
120.2072499927
 20
130.99173917
 10
120.2047286985
 20
130.9921939696
  0
LWPOLYLINE
  5
639
100
AcDbEntity
  8
0
100
AcDbPolyline
 62
253
  6
CONTINUOUS
 90
13
 70
0
 10
120.0938779888
 20
132.5549060295
 10
120.0714379883
 20
132.5557295342
 10
120.0497374233
 20
132.5563838409
 10
120.0290644521
 20
132.5568602611
 10
120.0096935878
 20
132.5571524687
 10
119.9918820529
 20
132.5572565833
 10
119.9758663638
 20
132.5571712225
 10
119.9618591903
 20
132.5568975197
 10
119.9500465314
 20
132.5564391095
 10
119.9405852455
 20
132.5558020789
 10
119.9336009674
 20
132.5549948871
 10
119.9291864402
 20
132.5540282524
 10
119.9274002838
 20
132.5529150109
  0
LINE
  5
63A
100
AcDbEntity
  8
0
100
AcDbLine
 62
253
  6
CONTINUOUS
 10
119.8355909819
 20
132.5574784728
 11
119.9273998532
 21
132.5529063917
  0
LINE
  5
63B
100
AcDbEntity
  8
0
100
AcDbLine
 62
253
  6
CONTINUOUS
 10
118.0709495816
 20
134.2677486436
 11
119.4190604268
 21
134.1963543219
  0
LWPOLYLINE
  5
63C
100
AcDbEntity
  8
0
100
AcDbPolyline
 62
7
  6
CONTINUOUS
 90
8
 70
0
 10
135.0515160217
 20
131.8620391699
 10
135.0494858791
 20
131.8624917334
 10
135.0452931729
 20
131.8629347085
 10
135.0389379031
 20
131.8633680952
 10
135.0303107639
 20
131.8637960596
 10
135.0195210612
 20
131.8642144356
 10
135.0068967121
 20
131.864610725
 10
134.9761315116
 20
131.8653326808
  0
LINE
  5
63D
100
AcDbEntity
  8
0
100
AcDbLine
 62
7
  6
CONTINUOUS
 10
138.4859300657
 20
134.0483590044
 11
138.6360899064
 21
134.01083334
  0
LINE
  5
63E
100
AcDbEntity
  8
0
100
AcDbLine
 62
7
  6
CONTINUOUS
 10
152.3953665542
 20
126.9518496186
 11
152.4974942016
 21
126.9185164124
  0
LINE
  5
63F
100
AcDbEntity
  8
0
100
AcDbLine
 62
7
  6
CONTINUOUS
 10
152.5996218729
 20
127.0518496186
 11
152.4294091034
 21
127.1185164124
  0
LWPOLYLINE
  5
640
100
AcDbEntity
  8
0
100
AcDbPolyline
 62
7
  6
CONTINUOUS
 90
10
 70
0
 10
136.2607240951
 20
135.5046390566
 10
136.2606059261
 20
135.5046876946
 10
136.2604878139
 20
135.5047744666
 10
136.2603697586
 20
135.5048993724
 10
136.2602517464
 20
135.505062434
 10
136.260133791
 20
135.5052636296
 10
136.2600159331
 20
135.5055028934
 10
136.2598981863
 20
135.5057802039
 10
136.259780537
 20
135.5060955827
 10
136.2596629853
 20
135.5064490299
  0
LINE
  5
641
100
AcDbEntity
  8
0
100
AcDbLine
 62
7
  6
CONTINUOUS
 10
136.0219622898
 20
134.01083334
 11
136.0530883297
 21
133.9952715052
  0
LINE
  5
642
100
AcDbEntity
  8
0
100
AcDbLine
 62
7
  6
CONTINUOUS
 10
151.9187708187
 20
125.4185164124
 11
152.0208984661
 21
125.3518496186
  0
LINE
  5
643
100
AcDbEntity
  8
0
100
AcDbLine
 62
7
  6
CONTINUOUS
 10
152.4974942016
 20
125.4185164124
 11
152.5996218729
 21
125.3518496186
  0
LINE
  5
644
100
AcDbEntity
  8
0
100
AcDbLine
 62
7
  6
CONTINUOUS
 10
151.6464303302
 20
126.1518496186
 11
151.5443026828
 21
126.2185164124
  0
LINE
  5
645
100
AcDbEntity
  8
0
100
AcDbLine
 62
7
  6
CONTINUOUS
 10
152.4974942016
 20
126.9185164124
 11
152.5996218729
 21
126.8518496186
  0
LINE
  5
646
100
AcDbEntity
  8
0
100
AcDbLine
 62
7
  6
CONTINUOUS
 10
151.4081324863
 20
126.1185164124
 11
151.5443026828
 21
126.0185164124
  0
LINE
  5
647
100
AcDbEntity
  8
0
100
AcDbLine
 62
7
  6
CONTINUOUS
 10
152.7357920813
 20
125.4518496186
 11
152.5996218729
 21
125.5518496186
  0
LINE
  5
648
100
AcDbEntity
  8
0
100
AcDbLine
 62
7
  6
CONTINUOUS
 10
152.7357920813
 20
126.9518496186
 11
152.5996218729
 21
127.0518496186
  0
LINE
  5
649
100
AcDbEntity
  8
0
100
AcDbLine
 62
7
  6
CONTINUOUS
 10
131.6598990326
 20
146.1774592798
 11
131.5719622898
 21
146.2577073336
  0
LINE
  5
64A
100
AcDbEntity
  8
0
100
AcDbLine
 62
7
  6
CONTINUOUS
 10
152.1911112117
 20
126.1518496186
 11
152.1230261135
 21
126.2185164124
  0
LINE
  5
64B
100
AcDbEntity
  8
0
100
AcDbLine
 62
7
  6
CONTINUOUS
 10
149.5161933594
 20
130.9755797438
 11
149.546420485
 21
130.9453526182
  0
LINE
  5
64C
100
AcDbEntity
  8
0
100
AcDbLine
 62
7
  6
CONTINUOUS
 10
152.25919631
 20
125.2851828247
 11
152.1230261135
 21
125.4851828247
  0
LINE
  5
64D
100
AcDbEntity
  8
0
100
AcDbLine
 62
7
  6
CONTINUOUS
 10
151.8847282695
 20
126.2851828247
 11
152.0208984661
 21
126.0851828247
  0
LINE
  5
64E
100
AcDbEntity
  8
0
100
AcDbLine
 62
7
  6
CONTINUOUS
 10
152.5996218729
 20
125.3518496186
 11
152.6677069711
 21
125.2518496186
  0
LINE
  5
64F
100
AcDbEntity
  8
0
100
AcDbLine
 62
7
  6
CONTINUOUS
 10
152.1230261135
 20
126.2185164124
 11
152.0549410152
 21
126.3185164124
  0
LINE
  5
650
100
AcDbEntity
  8
0
100
AcDbLine
 62
7
  6
CONTINUOUS
 10
152.5996218729
 20
126.8518496186
 11
152.6677069711
 21
126.7518496186
  0
LINE
  5
651
100
AcDbEntity
  8
0
100
AcDbLine
 62
7
  6
CONTINUOUS
 10
152.8379197377
 20
125.2851828247
 11
152.7357920813
 21
125.4518496186
  0
LINE
  5
652
100
AcDbEntity
  8
0
100
AcDbLine
 62
7
  6
CONTINUOUS
 10
152.8379197377
 20
126.7851828247
 11
152.7357920813
 21
126.9518496186
  0
LINE
  5
653
100
AcDbEntity
  8
0
100
AcDbLine
 62
7
  6
CONTINUOUS
 10
140.6164072898
 20
74.2952576186
 11
141.1594242898
 21
74.8382926186
  0
LINE
  5
654
100
AcDbEntity
  8
0
100
AcDbLine
 62
7
  6
CONTINUOUS
 10
142.945567415
 20
72.8434159386
 11
142.9675430512
 21
72.8653915748
  0
LINE
  5
655
100
AcDbEntity
  8
0
100
AcDbLine
 62
7
  6
CONTINUOUS
 10
153.8506173165
 20
83.8593091643
 11
153.947723618
 21
83.9518496186
  0
LINE
  5
656
100
AcDbEntity
  8
0
100
AcDbLine
 62
7
  6
CONTINUOUS
 10
153.4792192983
 20
83.8919571643
 11
153.6514647406
 21
83.9477142342
  0
LINE
  5
657
100
AcDbEntity
  8
0
100
AcDbLine
 62
7
  6
CONTINUOUS
 10
137.2719622898
 20
135.4518496186
 11
137.4832004845
 21
135.5046390566
  0
LWPOLYLINE
  5
658
100
AcDbEntity
  8
0
100
AcDbPolyline
 62
7
  6
CONTINUOUS
 90
7
 70
0
 10
120.2647052812
 20
131.8117420729
 10
120.2672923201
 20
131.8121972634
 10
120.2720123853
 20
131.8126409183
 10
120.2788654767
 20
131.8130730375
 10
120.2879399178
 20
131.8134968688
 10
120.2991473852
 20
131.8139091645
 10
120.3122229085
 20
131.8143001809
  0
LINE
  5
659
100
AcDbEntity
  8
0
100
AcDbLine
 62
253
  6
CONTINUOUS
 10
153.3719622898
 20
138.3353829498
 11
153.2873879059
 21
138.3237078717
  0
LWPOLYLINE
  5
65A
100
AcDbEntity
  8
0
100
AcDbPolyline
 62
253
  6
CONTINUOUS
 90
13
 70
0
 10
153.1209194065
 20
138.3165209751
 10
153.1431983769
 20
138.3191191765
 10
153.1647620533
 20
138.3214221664
 10
153.1853246271
 20
138.3233994207
 10
153.2046135589
 20
138.3250247323
 10
153.22237319
 20
138.3262765593
 10
153.2383681315
 20
138.3271383097
 10
153.2523863839
 20
138.3275985618
 10
153.2642421471
 20
138.3276512152
 10
153.2737782829
 20
138.3272955721
 10
153.2808683979
 20
138.3265363463
 10
153.2854185185
 20
138.3253836006
 10
153.2873683368
 20
138.3238526138
  0
LINE
  5
65B
100
AcDbEntity
  8
0
100
AcDbLine
 62
253
  6
CONTINUOUS
 10
155.3463574105
 20
138.2563892068
 11
154.0045909357
 21
138.1075176943
  0
LWPOLYLINE
  5
65C
100
AcDbEntity
  8
0
100
AcDbPolyline
 62
253
  6
CONTINUOUS
 90
22
 70
0
 10
135.356130367
 20
135.3877827488
 10
135.3107613298
 20
135.3859952078
 10
135.2661608923
 20
135.3809652021
 10
135.2223288246
 20
135.3726927057
 10
135.1790415789
 20
135.3610971468
 10
135.1365222706
 20
135.3462589937
 10
135.0954407061
 20
135.3284197609
 10
135.0558086213
 20
135.3075284395
 10
135.0176139853
 20
135.2836358533
 10
134.9814910454
 20
135.2571362656
 10
134.9474750297
 20
135.2279879249
 10
134.9155306118
 20
135.1962323542
 10
134.886186322
 20
135.1623887538
 10
134.8594837184
 20
135.1264211751
 10
134.8353813581
 20
135.0883653409
 10
134.8142833845
 20
135.0488480125
 10
134.7962393059
 20
135.0078566536
 10
134.7811999181
 20
134.9654036235
 10
134.7694213823
 20
134.9221531022
 10
134.7609892377
 20
134.8783264694
 10
134.7558183759
 20
134.8337022565
 10
134.7539090245
 20
134.7882804132
  0
LWPOLYLINE
  5
65D
100
AcDbEntity
  8
0
100
AcDbPolyline
 62
253
  6
CONTINUOUS
 90
22
 70
0
 10
135.3592648172
 20
135.0643672803
 10
135.3367962243
 20
135.0635412344
 10
135.3144657974
 20
135.0610463514
 10
135.2923978142
 20
135.0569005211
 10
135.2707199892
 20
135.0511328739
 10
135.2495463633
 20
135.0437782384
 10
135.2289781145
 20
135.0348727072
 10
135.209124084
 20
135.0244628654
 10
135.1901005611
 20
135.0126090356
 10
135.172015136
 20
134.9993768734
 10
135.1549690372
 20
134.9848411873
 10
135.1390560622
 20
134.9690826564
 10
135.124364266
 20
134.9521864305
 10
135.110975203
 20
134.9342461253
 10
135.0989640998
 20
134.9153623123
 10
135.0883991446
 20
134.8956389634
 10
135.0793418068
 20
134.8751920943
 10
135.0718396117
 20
134.8541303877
 10
135.0659314675
 20
134.8325515449
 10
135.0616542417
 20
134.810568533
 10
135.059037955
 20
134.7883105229
 10
135.058101897
 20
134.765902304
  0
LINE
  5
65E
100
AcDbEntity
  8
0
100
AcDbLine
 62
7
  6
CONTINUOUS
 10
138.0823010958
 20
134.8518496186
 11
138.1752805502
 21
134.8549851271
  0
LWPOLYLINE
  5
65F
100
AcDbEntity
  8
0
100
AcDbPolyline
 62
253
  6
CONTINUOUS
 90
16
 70
0
 10
138.9900155318
 20
134.7882802945
 10
138.9590392925
 20
134.7881140727
 10
138.9283470344
 20
134.7877106117
 10
138.8982664347
 20
134.7870742191
 10
138.8691186406
 20
134.786211689
 10
138.8412148401
 20
134.78513223
 10
138.8148529404
 20
134.7838473666
 10
138.7903143867
 20
134.7823708164
 10
138.7678611581
 20
134.7807183434
 10
138.7477329701
 20
134.7789075895
 10
138.7301447155
 20
134.776957887
 10
138.7152841704
 20
134.7748900512
 10
138.7033099893
 20
134.7727261587
 10
138.6943500111
 20
134.7704893119
 10
138.6884998944
 20
134.7682033917
 10
138.6858220964
 20
134.765892803
  0
LINE
  5
660
100
AcDbEntity
  8
0
100
AcDbLine
 62
253
  6
CONTINUOUS
 10
136.2592140734
 20
135.064597835
 11
135.359264814
 21
135.0643672835
  0
LINE
  5
661
100
AcDbEntity
  8
0
100
AcDbLine
 62
253
  6
CONTINUOUS
 10
135.9575629056
 20
135.3879585485
 11
135.356130367
 21
135.3877827488
  0
LINE
  5
662
100
AcDbEntity
  8
0
100
AcDbLine
 62
7
  6
CONTINUOUS
 10
136.0530883297
 20
133.9952715052
 11
137.6908362498
 21
133.9952715052
  0
LINE
  5
663
100
AcDbEntity
  8
0
100
AcDbLine
 62
7
  6
CONTINUOUS
 10
138.6360899064
 20
134.01083334
 11
137.7219622898
 21
134.01083334
  0
LINE
  5
664
100
AcDbEntity
  8
0
100
AcDbLine
 62
7
  6
CONTINUOUS
 10
136.0219622898
 20
134.01083334
 11
135.1078346732
 21
134.01083334
  0
LINE
  5
665
100
AcDbEntity
  8
0
100
AcDbLine
 62
7
  6
CONTINUOUS
 10
135.2579945138
 20
134.0483590044
 11
138.4859300657
 21
134.0483590044
  0
LINE
  5
666
100
AcDbEntity
  8
0
100
AcDbLine
 62
7
  6
CONTINUOUS
 10
135.6616234837
 20
134.4518496186
 11
138.0823010958
 21
134.4518496186
  0
LINE
  5
667
100
AcDbEntity
  8
0
100
AcDbLine
 62
7
  6
CONTINUOUS
 10
138.0823010958
 20
134.8518496186
 11
137.2719622898
 21
134.8518496186
  0
LINE
  5
668
100
AcDbEntity
  8
0
100
AcDbLine
 62
7
  6
CONTINUOUS
 10
136.4719622898
 20
134.8518496186
 11
135.6616234837
 21
134.8518496186
  0
LINE
  5
669
100
AcDbEntity
  8
0
100
AcDbLine
 62
7
  6
CONTINUOUS
 10
137.2719622898
 20
135.4518496186
 11
136.4719622898
 21
135.4518496186
  0
LINE
  5
66A
100
AcDbEntity
  8
0
100
AcDbLine
 62
253
  6
CONTINUOUS
 10
136.2607240951
 20
135.5046390566
 11
137.4832004845
 21
135.5046390566
  0
LINE
  5
66B
100
AcDbEntity
  8
0
100
AcDbLine
 62
253
  6
CONTINUOUS
 10
135.9588013583
 20
135.8291032434
 11
137.7851232212
 21
135.8291032434
  0
LINE
  5
66C
100
AcDbEntity
  8
0
100
AcDbLine
 62
253
  6
CONTINUOUS
 10
138.3846719847
 20
135.0643672797
 11
137.4847105062
 21
135.064597835
  0
LINE
  5
66D
100
AcDbEntity
  8
0
100
AcDbLine
 62
253
  6
CONTINUOUS
 10
138.3877942125
 20
135.3877827488
 11
137.7863616739
 21
135.3879585485
  0
LWPOLYLINE
  5
66E
100
AcDbEntity
  8
0
100
AcDbPolyline
 62
253
  6
CONTINUOUS
 90
16
 70
0
 10
134.7539090245
 20
134.7882804132
 10
134.7848852413
 20
134.7881141813
 10
134.8155774654
 20
134.7877107105
 10
134.8456580219
 20
134.7870743082
 10
134.8748057657
 20
134.7862117687
 10
134.9027095111
 20
134.7851323007
 10
134.929071353
 20
134.7838474287
 10
134.9536098482
 20
134.7823708703
 10
134.9760630198
 20
134.7807183894
 10
134.9961911543
 20
134.7789076281
 10
135.0137793602
 20
134.7769579185
 10
135.0286398633
 20
134.7748900759
 10
135.0406140103
 20
134.772726177
 10
135.0495739633
 20
134.7704893239
 10
135.0554240645
 20
134.7682033976
 10
135.0581018572
 20
134.765892803
  0
LINE
  5
66F
100
AcDbEntity
  8
0
100
AcDbLine
 62
7
  6
CONTINUOUS
 10
135.5686440294
 20
134.8549851271
 11
135.6616234837
 21
134.8518496186
  0
LINE
  5
670
100
AcDbEntity
  8
0
100
AcDbLine
 62
253
  6
CONTINUOUS
 10
118.3975671691
 20
138.2563892068
 11
119.7393336438
 21
138.1075176943
  0
LWPOLYLINE
  5
671
100
AcDbEntity
  8
0
100
AcDbPolyline
 62
253
  6
CONTINUOUS
 90
13
 70
0
 10
120.6230051723
 20
138.3165209756
 10
120.6007262351
 20
138.3191191686
 10
120.5791625989
 20
138.3214221498
 10
120.5586000708
 20
138.3233993953
 10
120.5393111888
 20
138.3250246983
 10
120.5215516098
 20
138.3262765172
 10
120.5055567204
 20
138.3271382603
 10
120.4915385185
 20
138.327598506
 10
120.4796828023
 20
138.3276511543
 10
120.4701467079
 20
138.3272955075
 10
120.4630566275
 20
138.3265362794
 10
120.4585065334
 20
138.325383533
 10
120.4565567326
 20
138.323852547
  0
LINE
  5
672
100
AcDbEntity
  8
0
100
AcDbLine
 62
253
  6
CONTINUOUS
 10
120.3719622898
 20
138.3353829498
 11
120.4565499923
 21
138.3238064645
  0
LWPOLYLINE
  5
673
100
AcDbEntity
  8
0
100
AcDbPolyline
 62
7
  6
CONTINUOUS
 90
8
 70
0
 10
153.6514647406
 20
131.7559850029
 10
153.6541450793
 20
131.7555425178
 10
153.6592607841
 20
131.7551137228
 10
153.666811855
 20
131.7546986178
 10
153.6769747801
 20
131.7542919821
 10
153.6895730714
 20
131.7538990364
 10
153.7040772643
 20
131.753535443
 10
153.7386542051
 20
131.7529032739
  0
LINE
  5
674
100
AcDbEntity
  8
0
100
AcDbLine
 62
7
  6
CONTINUOUS
 10
136.4719622898
 20
135.4518496186
 11
136.2607240951
 21
135.5046390566
  0
LWPOLYLINE
  5
675
100
AcDbEntity
  8
0
100
AcDbPolyline
 62
7
  6
CONTINUOUS
 90
9
 70
0
 10
153.8506173165
 20
131.8443900728
 10
153.8494247086
 20
131.8447130187
 10
153.8465746764
 20
131.8450288155
 10
153.8420672199
 20
131.8453374635
 10
153.8358042877
 20
131.8456425075
 10
153.8278839313
 20
131.8459404025
 10
153.8186003047
 20
131.8462205135
 10
153.8079916231
 20
131.8464804053
 10
153.7828639582
 20
131.8469435067
  0
LINE
  5
676
100
AcDbEntity
  8
0
100
AcDbLine
 62
7
  6
CONTINUOUS
 10
153.6514647406
 20
131.7559850029
 11
153.4792192983
 21
131.8117420729
  0
LINE
  5
677
100
AcDbEntity
  8
0
100
AcDbLine
 62
7
  6
CONTINUOUS
 10
153.947723618
 20
131.7518496186
 11
153.8506173165
 21
131.8443900728
  0
LINE
  5
678
100
AcDbEntity
  8
0
100
AcDbLine
 62
7
  6
CONTINUOUS
 10
142.945567415
 20
142.8602832985
 11
142.9675430512
 21
142.8383076623
  0
LINE
  5
679
100
AcDbEntity
  8
0
100
AcDbLine
 62
7
  6
CONTINUOUS
 10
142.956589885
 20
69.6089513137
 11
142.8719622898
 21
69.5149287037
  0
LINE
  5
67A
100
AcDbEntity
  8
0
100
AcDbLine
 62
7
  6
CONTINUOUS
 10
142.9565898842
 20
146.0947479312
 11
142.8719622898
 21
146.1887705335
  0
LINE
  5
67B
100
AcDbEntity
  8
0
100
AcDbLine
 62
7
  6
CONTINUOUS
 10
149.1710003954
 20
73.0492907353
 11
148.391577532
 21
72.5992907353
  0
LINE
  5
67C
100
AcDbEntity
  8
0
100
AcDbLine
 62
7
  6
CONTINUOUS
 10
147.3523470475
 20
71.9992907353
 11
146.5729241841
 21
71.5492907353
  0
LINE
  5
67D
100
AcDbEntity
  8
0
100
AcDbLine
 62
253
  6
CONTINUOUS
 10
146.8814982492
 20
70.9689473246
 11
147.7006521515
 21
71.4418860507
  0
LINE
  5
67E
100
AcDbEntity
  8
0
100
AcDbLine
 62
253
  6
CONTINUOUS
 10
148.7001515971
 20
72.0189473246
 11
149.5193054995
 21
72.4918860507
  0
LINE
  5
67F
100
AcDbEntity
  8
0
100
AcDbLine
 62
7
  6
CONTINUOUS
 10
142.9675430512
 20
142.8383076623
 11
142.0757689081
 21
142.837695042
  0
LINE
  5
680
100
AcDbEntity
  8
0
100
AcDbLine
 62
7
  6
CONTINUOUS
 10
138.5290172898
 20
142.4768496186
 11
139.9895182898
 21
142.4768496186
  0
LINE
  5
681
100
AcDbEntity
  8
0
100
AcDbLine
 62
7
  6
CONTINUOUS
 10
131.645567415
 20
142.8602832985
 11
130.7983571646
 21
142.8602832985
  0
LINE
  5
682
100
AcDbEntity
  8
0
100
AcDbLine
 62
7
  6
CONTINUOUS
 10
142.0983571646
 20
142.8602832985
 11
142.945567415
 21
142.8602832985
  0
LINE
  5
683
100
AcDbEntity
  8
0
100
AcDbLine
 62
7
  6
CONTINUOUS
 10
139.9895182898
 20
143.2268496186
 11
138.5290141778
 21
143.2268496186
  0
LINE
  5
684
100
AcDbEntity
  8
0
100
AcDbLine
 62
7
  6
CONTINUOUS
 10
131.6681556715
 20
142.837695042
 11
130.7763815284
 21
142.8383076623
  0
LINE
  5
685
100
AcDbEntity
  8
0
100
AcDbLine
 62
7
  6
CONTINUOUS
 10
135.8902537872
 20
144.6517938895
 11
136.0044082898
 21
144.6490696186
  0
LINE
  5
686
100
AcDbEntity
  8
0
100
AcDbLine
 62
7
  6
CONTINUOUS
 10
149.1710003954
 20
142.6544085018
 11
148.391577532
 21
143.1044085018
  0
LINE
  5
687
100
AcDbEntity
  8
0
100
AcDbLine
 62
7
  6
CONTINUOUS
 10
147.3523470475
 20
143.7044085018
 11
146.5729241841
 21
144.1544085018
  0
LINE
  5
688
100
AcDbEntity
  8
0
100
AcDbLine
 62
253
  6
CONTINUOUS
 10
149.5193054995
 20
143.2118131865
 11
148.7001515971
 21
143.6847519125
  0
LINE
  5
689
100
AcDbEntity
  8
0
100
AcDbLine
 62
253
  6
CONTINUOUS
 10
147.7006521515
 20
144.2618131865
 11
146.8814982492
 21
144.7347519125
  0
LWPOLYLINE
  5
68A
100
AcDbEntity
  8
0
100
AcDbPolyline
 62
253
  6
CONTINUOUS
 90
22
 70
0
 10
149.9988368398
 20
143.9792236525
 10
150.2437478125
 20
143.7852042863
 10
150.4811131854
 20
143.582637481
 10
150.7106451587
 20
143.3718261915
 10
150.9319315708
 20
143.1532237739
 10
151.1448568487
 20
142.9270196035
 10
151.3495501483
 20
142.6930899084
 10
151.545852461
 20
142.4515681102
 10
151.7333490517
 20
142.2029142334
 10
151.911756753
 20
141.9474689437
 10
152.0808841042
 20
141.685465007
 10
152.2404246216
 20
141.417334373
 10
152.389977529
 20
141.1437536408
 10
152.5284651346
 20
140.8669810817
 10
152.6567595762
 20
140.5855776537
 10
152.7768584298
 20
140.2944385413
 10
152.8884213253
 20
139.9925736919
 10
152.9902050205
 20
139.681306159
 10
153.0820080737
 20
139.3587263328
 10
153.16295515
 20
139.0243501454
 10
153.2317724485
 20
138.6792116503
 10
153.2873879059
 20
138.3237078717
  0
LWPOLYLINE
  5
68B
100
AcDbEntity
  8
0
100
AcDbPolyline
 62
253
  6
CONTINUOUS
 90
22
 70
0
 10
149.9108169863
 20
143.8383625356
 10
150.1503060253
 20
143.6481642157
 10
150.3818919562
 20
143.4502600461
 10
150.6055763915
 20
143.2446462145
 10
150.8214978202
 20
143.0311534497
 10
151.0295183114
 20
142.8099431193
 10
151.2292230112
 20
142.5815075633
 10
151.4207312647
 20
142.3456851401
 10
151.6039176404
 20
142.1026298864
 10
151.7779976012
 20
141.8533085128
 10
151.9429568337
 20
141.5975987271
 10
152.0987965304
 20
141.335616393
 10
152.244752881
 20
141.0686869281
 10
152.3802099123
 20
140.7987170887
 10
152.505764233
 20
140.5237964295
 10
152.622469139
 20
140.2395226458
 10
152.731304947
 20
139.9448621815
 10
152.8312654865
 20
139.6408381283
 10
152.9204197194
 20
139.326129465
 10
152.9981090999
 20
139.0002915877
 10
153.0649502017
 20
138.6637573178
 10
153.1209194063
 20
138.316520975
  0
LINE
  5
68C
100
AcDbEntity
  8
0
100
AcDbLine
 62
253
  6
CONTINUOUS
 10
147.080026443
 20
70.5955700964
 11
147.9247422195
 21
71.0832669774
  0
LINE
  5
68D
100
AcDbEntity
  8
0
100
AcDbLine
 62
253
  6
CONTINUOUS
 10
148.8986797909
 20
71.6455700964
 11
149.7433955674
 21
72.1332669774
  0
LWPOLYLINE
  5
68E
100
AcDbEntity
  8
0
100
AcDbPolyline
 62
253
  6
CONTINUOUS
 90
7
 70
0
 10
149.1577521381
 20
71.1583258887
 10
148.9993273925
 20
71.0670872969
 10
148.8393704503
 20
70.9794550427
 10
148.6779671583
 20
70.8954448261
 10
148.5152031313
 20
70.8150703028
 10
148.3511637065
 20
70.7383431065
 10
148.1859338978
 20
70.665272873
  0
LWPOLYLINE
  5
68F
100
AcDbEntity
  8
0
100
AcDbPolyline
 62
253
  6
CONTINUOUS
 90
7
 70
0
 10
149.0795558112
 20
71.3053917783
 10
148.9186655538
 20
71.2129486968
 10
148.756568487
 20
71.1243975311
 10
148.5932623382
 20
71.0397373198
 10
148.4287447164
 20
70.9589671374
 10
148.2630131165
 20
70.8820860946
 10
148.0960649227
 20
70.8090933394
  0
LWPOLYLINE
  5
690
100
AcDbEntity
  8
0
100
AcDbPolyline
 62
253
  6
CONTINUOUS
 90
7
 70
0
 10
147.2269136607
 20
70.3193155075
 10
147.105710382
 20
70.2845670071
 10
146.9814272569
 20
70.2509313591
 10
146.8540611635
 20
70.2185323445
 10
146.7236120433
 20
70.1874966457
 10
146.5900831028
 20
70.1579537989
 10
146.4534810198
 20
70.1300361363
  0
LWPOLYLINE
  5
691
100
AcDbEntity
  8
0
100
AcDbPolyline
 62
253
  6
CONTINUOUS
 90
7
 70
0
 10
126.5976458611
 20
145.2327315484
 10
126.7105966409
 20
145.2647478864
 10
126.8262426498
 20
145.2955525411
 10
126.9445843766
 20
145.3251456231
 10
127.0656223342
 20
145.3535272385
 10
127.1893570586
 20
145.3806974897
 10
127.3157891087
 20
145.4066564745
  0
LWPOLYLINE
  5
692
100
AcDbEntity
  8
0
100
AcDbPolyline
 62
253
  6
CONTINUOUS
 90
10
 70
0
 10
127.3157891087
 20
145.4066564745
 10
127.6569476249
 20
145.471887766
 10
127.9986383503
 20
145.5340343161
 10
128.3408623081
 20
145.5930966934
 10
128.6836773463
 20
145.6490838024
 10
129.0270277873
 20
145.7019877976
 10
129.3707444097
 20
145.7517840881
 10
129.7147715863
 20
145.798464781
 10
130.0591672985
 20
145.8420386773
 10
130.4039327747
 20
145.882506189
  0
LWPOLYLINE
  5
693
100
AcDbEntity
  8
0
100
AcDbPolyline
 62
253
  6
CONTINUOUS
 90
10
 70
0
 10
127.2904441348
 20
145.5736632121
 10
127.632837153
 20
145.639132834
 10
127.9758252829
 20
145.7015184508
 10
128.3193808324
 20
145.7608144714
 10
128.663502834
 20
145.8170197877
 10
129.0081367848
 20
145.8701245852
 10
129.3531742791
 20
145.9201127639
 10
129.6985602383
 20
145.9669784009
 10
130.0442932832
 20
146.010723331
 10
130.3903452157
 20
146.05134565
  0
LINE
  5
694
100
AcDbEntity
  8
0
100
AcDbLine
 62
253
  6
CONTINUOUS
 10
130.4039327747
 20
145.882506189
 11
130.6576017849
 21
145.9105574784
  0
LINE
  5
695
100
AcDbEntity
  8
0
100
AcDbLine
 62
253
  6
CONTINUOUS
 10
130.3903452156
 20
146.0513456506
 11
130.6553100653
 21
146.0806218149
  0
LINE
  5
696
100
AcDbEntity
  8
0
100
AcDbLine
 62
253
  6
CONTINUOUS
 10
130.6576017849
 20
145.9105574784
 11
130.783954408
 21
145.9241056679
  0
LINE
  5
697
100
AcDbEntity
  8
0
100
AcDbLine
 62
253
  6
CONTINUOUS
 10
130.6553100653
 20
146.0806218149
 11
130.7873346953
 21
146.0947479312
  0
LWPOLYLINE
  5
698
100
AcDbEntity
  8
0
100
AcDbPolyline
 62
7
  6
CONTINUOUS
 90
10
 70
0
 10
131.6598990326
 20
146.1774592798
 10
132.815973672
 20
146.2704327251
 10
133.9736719326
 20
146.3401949182
 10
135.1325298734
 20
146.3867182553
 10
136.2920827495
 20
146.4099843605
 10
137.4518662485
 20
146.4099841158
 10
138.611416674
 20
146.3867175941
 10
139.7702697193
 20
146.3401940603
 10
140.9279606514
 20
146.2704320388
 10
142.084025547
 20
146.1774592798
  0
LINE
  5
699
100
AcDbEntity
  8
0
100
AcDbLine
 62
253
  6
CONTINUOUS
 10
130.8093950327
 20
145.4155177768
 11
131.6345295468
 21
145.4155177768
  0
LINE
  5
69A
100
AcDbEntity
  8
0
100
AcDbLine
 62
253
  6
CONTINUOUS
 10
142.1093950327
 20
145.4155177768
 11
142.9345295468
 21
145.4155177768
  0
LINE
  5
69B
100
AcDbEntity
  8
0
100
AcDbLine
 62
253
  6
CONTINUOUS
 10
130.8141345373
 20
145.62849975
 11
131.6297900423
 21
145.62849975
  0
LINE
  5
69C
100
AcDbEntity
  8
0
100
AcDbLine
 62
253
  6
CONTINUOUS
 10
142.1141345373
 20
145.62849975
 11
142.9297900423
 21
145.62849975
  0
LINE
  5
69D
100
AcDbEntity
  8
0
100
AcDbLine
 62
253
  6
CONTINUOUS
 10
130.8678269054
 20
145.7897078458
 11
131.5760976741
 21
145.7897078458
  0
LINE
  5
69E
100
AcDbEntity
  8
0
100
AcDbLine
 62
253
  6
CONTINUOUS
 10
142.1678269054
 20
145.7897078458
 11
142.8760976741
 21
145.7897078458
  0
LINE
  5
69F
100
AcDbEntity
  8
0
100
AcDbLine
 62
253
  6
CONTINUOUS
 10
130.8719622898
 20
146.0393652294
 11
131.5719622898
 21
146.0393652294
  0
LINE
  5
6A0
100
AcDbEntity
  8
0
100
AcDbLine
 62
253
  6
CONTINUOUS
 10
142.1719622898
 20
146.0393652294
 11
142.8719622898
 21
146.0393652294
  0
LINE
  5
6A1
100
AcDbEntity
  8
0
100
AcDbLine
 62
253
  6
CONTINUOUS
 10
142.9565898842
 20
146.0947479312
 11
143.2159083966
 21
146.0667113923
  0
LINE
  5
6A2
100
AcDbEntity
  8
0
100
AcDbLine
 62
253
  6
CONTINUOUS
 10
142.9599701715
 20
145.9241056679
 11
143.2084007114
 21
145.8971938562
  0
LINE
  5
6A3
100
AcDbEntity
  8
0
100
AcDbLine
 62
253
  6
CONTINUOUS
 10
143.2084007114
 20
145.8971938562
 11
143.3399918048
 21
145.882506189
  0
LINE
  5
6A4
100
AcDbEntity
  8
0
100
AcDbLine
 62
253
  6
CONTINUOUS
 10
143.2159083966
 20
146.0667113923
 11
143.3535793014
 21
146.0513456577
  0
LWPOLYLINE
  5
6A5
100
AcDbEntity
  8
0
100
AcDbPolyline
 62
253
  6
CONTINUOUS
 90
10
 70
0
 10
143.3399918048
 20
145.882506189
 10
143.684757281
 20
145.8420386773
 10
144.0291529932
 20
145.798464781
 10
144.3731801698
 20
145.7517840881
 10
144.7168967922
 20
145.7019877976
 10
145.0602472332
 20
145.6490838024
 10
145.4030622714
 20
145.5930966934
 10
145.7452862293
 20
145.5340343161
 10
146.0869769547
 20
145.471887766
 10
146.4281354709
 20
145.4066564745
  0
LWPOLYLINE
  5
6A6
100
AcDbEntity
  8
0
100
AcDbPolyline
 62
253
  6
CONTINUOUS
 90
10
 70
0
 10
143.3535793013
 20
146.051345657
 10
143.6996312616
 20
146.0107233352
 10
144.0453643274
 20
145.9669784028
 10
144.3907503004
 20
145.9201127639
 10
144.7357871803
 20
145.870124677
 10
145.0804205116
 20
145.8170199834
 10
145.4245437471
 20
145.7608144714
 10
145.7681029943
 20
145.7015177955
 10
146.1110966557
 20
145.6391311122
 10
146.4534970288
 20
145.5736599631
  0
LWPOLYLINE
  5
6A7
100
AcDbEntity
  8
0
100
AcDbPolyline
 62
253
  6
CONTINUOUS
 90
7
 70
0
 10
146.453497029
 20
145.5736599641
 10
146.5868867693
 20
145.5464254037
 10
146.7185051423
 20
145.5173738852
 10
146.848333158
 20
145.4865751196
 10
146.9763537458
 20
145.4540982531
 10
147.1025517016
 20
145.4200118264
 10
147.226913635
 20
145.3843837372
  0
LWPOLYLINE
  5
6A8
100
AcDbEntity
  8
0
100
AcDbPolyline
 62
253
  6
CONTINUOUS
 90
7
 70
0
 10
146.4281354709
 20
145.4066564745
 10
146.5517229906
 20
145.381389856
 10
146.6737510097
 20
145.3546350546
 10
146.7942200728
 20
145.3263919515
 10
146.9131307077
 20
145.2966604215
 10
147.0304834252
 20
145.265440333
 10
147.1462787184
 20
145.2327315484
  0
LWPOLYLINE
  5
6A9
100
AcDbEntity
  8
0
100
AcDbPolyline
 62
253
  6
CONTINUOUS
 90
10
 70
0
 10
148.0960649229
 20
144.8946058977
 10
148.1977456854
 20
144.8508359631
 10
148.3013049092
 20
144.8043443429
 10
148.4067438214
 20
144.755130671
 10
148.514040185
 20
144.7033558158
 10
148.6232185886
 20
144.6488581347
 10
148.7343507919
 20
144.5911533896
 10
148.8474618381
 20
144.5300797719
 10
148.9625296998
 20
144.4657979889
 10
149.0795558114
 20
144.3983074588
  0
LWPOLYLINE
  5
6AA
100
AcDbEntity
  8
0
100
AcDbPolyline
 62
253
  6
CONTINUOUS
 90
10
 70
0
 10
148.1859339171
 20
145.0384263559
 10
148.286353705
 20
144.9945146827
 10
148.3887679174
 20
144.9481397402
 10
148.493113042
 20
144.8992082817
 10
148.599242033
 20
144.8476656028
 10
148.7071645841
 20
144.7933791795
 10
148.8170413325
 20
144.7361276057
 10
148.9288652654
 20
144.6757609787
 10
149.0424672135
 20
144.6122123033
 10
149.1577521363
 20
144.5453733495
  0
LINE
  5
6AB
100
AcDbEntity
  8
0
100
AcDbLine
 62
253
  6
CONTINUOUS
 10
149.7433955674
 20
143.5704322598
 11
148.8986797909
 21
144.0581291407
  0
LINE
  5
6AC
100
AcDbEntity
  8
0
100
AcDbLine
 62
253
  6
CONTINUOUS
 10
147.9247422195
 20
144.6204322598
 11
147.080026443
 21
145.1081291407
  0
ARC
  5
6AD
100
AcDbEntity
  8
DRAFT
100
AcDbCircle
 62
7
  6
CONTINUOUS
 10
-343.1280377102
 20
107.8518496186
 40
500.0
100
AcDbArc
 50
356.968516687
 51
3.031483313
  0
ARC
  5
6AE
100
AcDbEntity
  8
0
100
AcDbCircle
 62
7
  6
CONTINUOUS
 10
-343.1280377102
 20
107.8518496186
 40
499.5
100
AcDbArc
 50
356.968516687
 51
3.031483313
  0
ARC
  5
6AF
100
AcDbEntity
  8
0
100
AcDbCircle
 62
7
  6
CONTINUOUS
 10
-343.1280377102
 20
107.8518496186
 40
498.15
100
AcDbArc
 50
356.968516687
 51
3.031483313
  0
ARC
  5
6B0
100
AcDbEntity
  8
0
100
AcDbCircle
 62
7
  6
CONTINUOUS
 10
-343.1280377102
 20
107.8518496186
 40
497.65
100
AcDbArc
 50
357.1544049881
 51
357.2472700112
  0
ARC
  5
6B1
100
AcDbEntity
  8
0
100
AcDbCircle
 62
7
  6
CONTINUOUS
 10
-343.1280377102
 20
107.8518496186
 40
497.65
100
AcDbArc
 50
357.3279532879
 51
2.6720467121
  0
ARC
  5
6B2
100
AcDbEntity
  8
0
100
AcDbCircle
 62
7
  6
CONTINUOUS
 10
-343.1280377102
 20
107.8518496186
 40
497.65
100
AcDbArc
 50
2.7527299888
 51
2.8455950119
  0
ARC
  5
6B3
100
AcDbEntity
  8
0
100
AcDbCircle
 62
253
  6
CONTINUOUS
 10
83.6719622898
 20
89.3518496186
 40
70.4375156109
100
AcDbArc
 50
355.6031798933
 51
356.1740502762
  0
ARC
  5
6B4
100
AcDbEntity
  8
0
100
AcDbCircle
 62
253
  6
CONTINUOUS
 10
83.6719622898
 20
89.3518496186
 40
70.1878582272
100
AcDbArc
 50
355.5841236772
 51
356.1638044324
  0
ARC
  5
6B5
100
AcDbEntity
  8
DRAFT
100
AcDbCircle
 62
7
  6
CONTINUOUS
 10
86.270231488
 20
85.1114360435
 40
70.0
100
AcDbArc
 50
353.66882044
 51
356.968516687
  0
ARC
  5
6B6
100
AcDbEntity
  8
0
100
AcDbCircle
 62
7
  6
CONTINUOUS
 10
86.2702314881
 20
85.1114360435
 40
69.4999999999
100
AcDbArc
 50
353.66882044
 51
356.968516687
  0
ARC
  5
6B7
100
AcDbEntity
  8
0
100
AcDbCircle
 62
7
  6
CONTINUOUS
 10
86.2702314881
 20
85.1114360435
 40
68.1499999999
100
AcDbArc
 50
353.66882044
 51
356.968516687
  0
ARC
  5
6B8
100
AcDbEntity
  8
0
100
AcDbCircle
 62
7
  6
CONTINUOUS
 10
86.341749615
 20
86.5046770931
 40
67.65
100
AcDbArc
 50
352.2382936946
 51
357.1544049881
  0
ARC
  5
6B9
100
AcDbEntity
  8
DRAFT
100
AcDbCircle
 62
7
  6
CONTINUOUS
 10
135.1772429417
 20
107.9677418469
 40
41.04
100
AcDbArc
 50
257.8087471083
 51
264.8718338568
  0
ARC
  5
6BA
100
AcDbEntity
  8
DRAFT
100
AcDbCircle
 62
7
  6
CONTINUOUS
 10
135.1772429417
 20
107.7359573902
 40
41.04
100
AcDbArc
 50
95.1281661432
 51
102.1912528917
  0
ARC
  5
6BB
100
AcDbEntity
  8
0
100
AcDbCircle
 62
7
  6
CONTINUOUS
 10
135.1772429417
 20
107.9677418468
 40
40.5399999998
100
AcDbArc
 50
257.8087471082
 51
264.8718338568
  0
ARC
  5
6BC
100
AcDbEntity
  8
0
100
AcDbCircle
 62
7
  6
CONTINUOUS
 10
135.1772429417
 20
107.7359573904
 40
40.5399999998
100
AcDbArc
 50
95.1281661432
 51
102.1912528918
  0
ARC
  5
6BD
100
AcDbEntity
  8
0
100
AcDbCircle
 62
7
  6
CONTINUOUS
 10
135.1772429417
 20
107.9677418468
 40
39.1899999998
100
AcDbArc
 50
257.8087471082
 51
264.8718338568
  0
ARC
  5
6BE
100
AcDbEntity
  8
0
100
AcDbCircle
 62
7
  6
CONTINUOUS
 10
135.1772429417
 20
107.7359573904
 40
39.1899999998
100
AcDbArc
 50
95.1281661432
 51
102.1912528918
  0
ARC
  5
6BF
100
AcDbEntity
  8
0
100
AcDbCircle
 62
7
  6
CONTINUOUS
 10
134.7382734607
 20
107.6813443537
 40
38.7
100
AcDbArc
 50
96.4649690006
 51
101.1199644793
  0
ARC
  5
6C0
100
AcDbEntity
  8
0
100
AcDbCircle
 62
7
  6
CONTINUOUS
 10
134.7382734607
 20
108.0223548834
 40
38.7
100
AcDbArc
 50
258.8800355207
 51
263.5350309994
  0
ARC
  5
6C1
100
AcDbEntity
  8
DRAFT
100
AcDbCircle
 62
7
  6
CONTINUOUS
 10
128.8335286394
 20
78.6051995719
 40
11.0
100
AcDbArc
 50
186.33117956
 51
257.8087471083
  0
ARC
  5
6C2
100
AcDbEntity
  8
0
100
AcDbCircle
 62
7
  6
CONTINUOUS
 10
128.8335286394
 20
78.6051995719
 40
10.5
100
AcDbArc
 50
186.33117956
 51
257.8087471083
  0
ARC
  5
6C3
100
AcDbEntity
  8
0
100
AcDbCircle
 62
7
  6
CONTINUOUS
 10
128.8335286394
 20
78.6051995719
 40
9.15
100
AcDbArc
 50
186.33117956
 51
257.8087471083
  0
ARC
  5
6C4
100
AcDbEntity
  8
0
100
AcDbCircle
 62
7
  6
CONTINUOUS
 10
128.9427137996
 20
78.5365279794
 40
8.65
100
AcDbArc
 50
187.7617063054
 51
232.7066957023
  0
ARC
  5
6C5
100
AcDbEntity
  8
0
100
AcDbCircle
 62
7
  6
CONTINUOUS
 10
128.9427137996
 20
78.5365279794
 40
8.65
100
AcDbArc
 50
239.4639719851
 51
246.6485112129
  0
ARC
  5
6C6
100
AcDbEntity
  8
0
100
AcDbCircle
 62
7
  6
CONTINUOUS
 10
128.9427137996
 20
78.5365279794
 40
8.65
100
AcDbArc
 50
253.4421884414
 51
258.8800355207
  0
ARC
  5
6C7
100
AcDbEntity
  8
0
100
AcDbCircle
 62
7
  6
CONTINUOUS
 10
126.4219622898
 20
86.1518496186
 40
0.8
100
AcDbArc
 50
180.0
 51
270.0
  0
ARC
  5
6C8
100
AcDbEntity
  8
0
100
AcDbCircle
 62
253
  6
CONTINUOUS
 10
83.6719622898
 20
126.3518496186
 40
70.4375156109
100
AcDbArc
 50
3.8259497238
 51
4.3968201067
  0
ARC
  5
6C9
100
AcDbEntity
  8
0
100
AcDbCircle
 62
253
  6
CONTINUOUS
 10
83.6719622898
 20
126.3518496186
 40
70.1878582272
100
AcDbArc
 50
3.8361955676
 51
4.4158763228
  0
ARC
  5
6CA
100
AcDbEntity
  8
DRAFT
100
AcDbCircle
 62
7
  6
CONTINUOUS
 10
86.270231488
 20
130.5922631937
 40
70.0
100
AcDbArc
 50
3.031483313
 51
6.33117956
  0
ARC
  5
6CB
100
AcDbEntity
  8
0
100
AcDbCircle
 62
7
  6
CONTINUOUS
 10
86.2702314881
 20
130.5922631937
 40
69.4999999999
100
AcDbArc
 50
3.031483313
 51
6.33117956
  0
ARC
  5
6CC
100
AcDbEntity
  8
0
100
AcDbCircle
 62
7
  6
CONTINUOUS
 10
86.2702314881
 20
130.5922631937
 40
68.1499999999
100
AcDbArc
 50
3.031483313
 51
6.33117956
  0
ARC
  5
6CD
100
AcDbEntity
  8
0
100
AcDbCircle
 62
7
  6
CONTINUOUS
 10
86.341749615
 20
129.199022144
 40
67.65
100
AcDbArc
 50
2.8455950119
 51
7.7617063054
  0
ARC
  5
6CE
100
AcDbEntity
  8
DRAFT
100
AcDbCircle
 62
7
  6
CONTINUOUS
 10
128.8335286394
 20
137.0984996652
 40
11.0
100
AcDbArc
 50
102.1912528917
 51
173.66882044
  0
ARC
  5
6CF
100
AcDbEntity
  8
0
100
AcDbCircle
 62
7
  6
CONTINUOUS
 10
128.8335286394
 20
137.0984996652
 40
10.5
100
AcDbArc
 50
102.1912528917
 51
173.66882044
  0
ARC
  5
6D0
100
AcDbEntity
  8
0
100
AcDbCircle
 62
7
  6
CONTINUOUS
 10
128.8335286394
 20
137.0984996652
 40
9.15
100
AcDbArc
 50
102.1912528917
 51
173.66882044
  0
ARC
  5
6D1
100
AcDbEntity
  8
0
100
AcDbCircle
 62
7
  6
CONTINUOUS
 10
128.9427137996
 20
137.1671712577
 40
8.65
100
AcDbArc
 50
101.1199644793
 51
106.5578115586
  0
ARC
  5
6D2
100
AcDbEntity
  8
0
100
AcDbCircle
 62
7
  6
CONTINUOUS
 10
128.9427137996
 20
137.1671712577
 40
8.65
100
AcDbArc
 50
113.3514887871
 51
120.5360280149
  0
ARC
  5
6D3
100
AcDbEntity
  8
0
100
AcDbCircle
 62
7
  6
CONTINUOUS
 10
128.9427137996
 20
137.1671712577
 40
8.65
100
AcDbArc
 50
127.2933042977
 51
172.2382936946
  0
ARC
  5
6D4
100
AcDbEntity
  8
0
100
AcDbCircle
 62
7
  6
CONTINUOUS
 10
135.9044082898
 20
142.8518496186
 40
2.5499985399
100
AcDbArc
 50
87.7525290943
 51
272.2474709057
  0
ARC
  5
6D5
100
AcDbEntity
  8
0
100
AcDbCircle
 62
7
  6
CONTINUOUS
 10
135.9044082898
 20
142.8518496186
 40
1.7999999246
100
AcDbArc
 50
90.450556473
 51
273.1847386703
  0
ARC
  5
6D6
100
AcDbEntity
  8
0
100
AcDbCircle
 62
7
  6
CONTINUOUS
 10
121.8719622898
 20
124.8518496186
 40
1.6991856757
100
AcDbArc
 50
22.0885495278
 51
3.4298066134
  0
ARC
  5
6D7
100
AcDbEntity
  8
0
100
AcDbCircle
 62
7
  6
CONTINUOUS
 10
125.0751462898
 20
124.8004566186
 40
1.5147933085
100
AcDbArc
 50
137.231290534
 51
174.2011966588
  0
ARC
  5
6D8
100
AcDbEntity
  8
0
100
AcDbCircle
 62
7
  6
CONTINUOUS
 10
124.8297832898
 20
124.9196696186
 40
1.49661481
100
AcDbArc
 50
135.4348660075
 51
157.5658480123
  0
CIRCLE
  5
6D9
100
AcDbEntity
  8
0
100
AcDbCircle
 62
7
  6
CONTINUOUS
 10
121.8719622898
 20
124.8518496186
 40
1.427197
  0
ARC
  5
6DA
100
AcDbEntity
  8
0
100
AcDbCircle
 62
7
  6
CONTINUOUS
 10
121.8719622898
 20
124.8518496186
 40
1.2764286685
100
AcDbArc
 50
224.9002719139
 51
330.6958668615
  0
ARC
  5
6DB
100
AcDbEntity
  8
0
100
AcDbCircle
 62
7
  6
CONTINUOUS
 10
121.8719622898
 20
124.8518496186
 40
1.2764284894
100
AcDbArc
 50
29.3041331385
 51
134.9957799582
  0
ARC
  5
6DC
100
AcDbEntity
  8
0
100
AcDbCircle
 62
7
  6
CONTINUOUS
 10
121.8719622898
 20
124.8518496186
 40
1.0226497574
100
AcDbArc
 50
238.0267399114
 51
330.6958666074
  0
ARC
  5
6DD
100
AcDbEntity
  8
0
100
AcDbCircle
 62
7
  6
CONTINUOUS
 10
121.8719622898
 20
124.8518496186
 40
1.0226493867
100
AcDbArc
 50
29.3041333926
 51
121.973257115
  0
ARC
  5
6DE
100
AcDbEntity
  8
0
100
AcDbCircle
 62
7
  6
CONTINUOUS
 10
126.4219622898
 20
129.5518496186
 40
0.8
100
AcDbArc
 50
90.0
 51
180.0
  0
ARC
  5
6DF
100
AcDbEntity
  8
DRAFT
100
AcDbCircle
 62
7
  6
CONTINUOUS
 10
616.8719622898
 20
107.8518496186
 40
500.0
100
AcDbArc
 50
176.968516687
 51
183.031483313
  0
ARC
  5
6E0
100
AcDbEntity
  8
0
100
AcDbCircle
 62
7
  6
CONTINUOUS
 10
616.8719622898
 20
107.8518496186
 40
499.5
100
AcDbArc
 50
176.968516687
 51
183.031483313
  0
ARC
  5
6E1
100
AcDbEntity
  8
0
100
AcDbCircle
 62
7
  6
CONTINUOUS
 10
616.8719622898
 20
107.8518496186
 40
498.15
100
AcDbArc
 50
176.968516687
 51
183.031483313
  0
ARC
  5
6E2
100
AcDbEntity
  8
0
100
AcDbCircle
 62
7
  6
CONTINUOUS
 10
616.8719622898
 20
107.8518496186
 40
497.65
100
AcDbArc
 50
177.1544049881
 51
177.2472700112
  0
ARC
  5
6E3
100
AcDbEntity
  8
0
100
AcDbCircle
 62
7
  6
CONTINUOUS
 10
616.8719622898
 20
107.8518496186
 40
497.65
100
AcDbArc
 50
177.3279532879
 51
182.6720467121
  0
ARC
  5
6E4
100
AcDbEntity
  8
0
100
AcDbCircle
 62
7
  6
CONTINUOUS
 10
616.8719622898
 20
107.8518496186
 40
497.65
100
AcDbArc
 50
182.7527299888
 51
182.8455950119
  0
ARC
  5
6E5
100
AcDbEntity
  8
0
100
AcDbCircle
 62
253
  6
CONTINUOUS
 10
190.0719622898
 20
89.3518496186
 40
70.4375156109
100
AcDbArc
 50
183.8259497238
 51
184.3968201067
  0
ARC
  5
6E6
100
AcDbEntity
  8
0
100
AcDbCircle
 62
253
  6
CONTINUOUS
 10
190.0719622898
 20
89.3518496186
 40
70.1878582272
100
AcDbArc
 50
183.8361955676
 51
184.4158763228
  0
ARC
  5
6E7
100
AcDbEntity
  8
DRAFT
100
AcDbCircle
 62
7
  6
CONTINUOUS
 10
187.4736930915
 20
85.1114360435
 40
70.0
100
AcDbArc
 50
183.031483313
 51
186.33117956
  0
ARC
  5
6E8
100
AcDbEntity
  8
0
100
AcDbCircle
 62
7
  6
CONTINUOUS
 10
187.4736930914
 20
85.1114360435
 40
69.4999999999
100
AcDbArc
 50
183.031483313
 51
186.33117956
  0
ARC
  5
6E9
100
AcDbEntity
  8
0
100
AcDbCircle
 62
7
  6
CONTINUOUS
 10
187.4736930914
 20
85.1114360435
 40
68.1499999999
100
AcDbArc
 50
183.031483313
 51
186.33117956
  0
ARC
  5
6EA
100
AcDbEntity
  8
0
100
AcDbCircle
 62
7
  6
CONTINUOUS
 10
187.4021749646
 20
86.5046770931
 40
67.65
100
AcDbArc
 50
182.8455950119
 51
187.7617063054
  0
ARC
  5
6EB
100
AcDbEntity
  8
DRAFT
100
AcDbCircle
 62
7
  6
CONTINUOUS
 10
136.8719622898
 20
88.8518496186
 40
60.0
100
AcDbArc
 50
84.8718338568
 51
95.1281661432
  0
ARC
  5
6EC
100
AcDbEntity
  8
0
100
AcDbCircle
 62
7
  6
CONTINUOUS
 10
136.8719622898
 20
88.8518496186
 40
59.5
100
AcDbArc
 50
84.8718338568
 51
95.1281661432
  0
ARC
  5
6ED
100
AcDbEntity
  8
0
100
AcDbCircle
 62
7
  6
CONTINUOUS
 10
136.8719622898
 20
88.8518496186
 40
58.15
100
AcDbArc
 50
84.8718338568
 51
95.1281661432
  0
ARC
  5
6EE
100
AcDbEntity
  8
0
100
AcDbCircle
 62
7
  6
CONTINUOUS
 10
136.8719622898
 20
88.8518496186
 40
57.65
100
AcDbArc
 50
83.5350309994
 51
84.0260478246
  0
ARC
  5
6EF
100
AcDbEntity
  8
0
100
AcDbCircle
 62
7
  6
CONTINUOUS
 10
136.8719622898
 20
88.8518496186
 40
57.65
100
AcDbArc
 50
84.7251166216
 51
95.2748833784
  0
ARC
  5
6F0
100
AcDbEntity
  8
0
100
AcDbCircle
 62
7
  6
CONTINUOUS
 10
136.8719622898
 20
88.8518496186
 40
57.65
100
AcDbArc
 50
95.9739521754
 51
96.4649690006
  0
ARC
  5
6F1
100
AcDbEntity
  8
DRAFT
100
AcDbCircle
 62
7
  6
CONTINUOUS
 10
138.5666816379
 20
107.9677418469
 40
41.04
100
AcDbArc
 50
275.1281661432
 51
282.1912528917
  0
ARC
  5
6F2
100
AcDbEntity
  8
DRAFT
100
AcDbCircle
 62
7
  6
CONTINUOUS
 10
138.5666816379
 20
107.7359573902
 40
41.04
100
AcDbArc
 50
77.8087471083
 51
84.8718338568
  0
ARC
  5
6F3
100
AcDbEntity
  8
0
100
AcDbCircle
 62
7
  6
CONTINUOUS
 10
138.5666816379
 20
107.9677418468
 40
40.5399999998
100
AcDbArc
 50
275.1281661432
 51
282.1912528918
  0
ARC
  5
6F4
100
AcDbEntity
  8
0
100
AcDbCircle
 62
7
  6
CONTINUOUS
 10
138.5666816379
 20
107.7359573904
 40
40.5399999998
100
AcDbArc
 50
77.8087471082
 51
84.8718338568
  0
ARC
  5
6F5
100
AcDbEntity
  8
0
100
AcDbCircle
 62
7
  6
CONTINUOUS
 10
138.5666816379
 20
107.9677418468
 40
39.1899999998
100
AcDbArc
 50
275.1281661432
 51
282.1912528918
  0
ARC
  5
6F6
100
AcDbEntity
  8
0
100
AcDbCircle
 62
7
  6
CONTINUOUS
 10
138.5666816379
 20
107.7359573904
 40
39.1899999998
100
AcDbArc
 50
77.8087471082
 51
84.8718338568
  0
ARC
  5
6F7
100
AcDbEntity
  8
0
100
AcDbCircle
 62
7
  6
CONTINUOUS
 10
139.0056511189
 20
108.0223548834
 40
38.7
100
AcDbArc
 50
276.4649690006
 51
281.1199644793
  0
ARC
  5
6F8
100
AcDbEntity
  8
0
100
AcDbCircle
 62
7
  6
CONTINUOUS
 10
139.0056511189
 20
107.6813443537
 40
38.7
100
AcDbArc
 50
78.8800355207
 51
83.5350309994
  0
ARC
  5
6F9
100
AcDbEntity
  8
DRAFT
100
AcDbCircle
 62
7
  6
CONTINUOUS
 10
144.9103959402
 20
78.6051995719
 40
11.0
100
AcDbArc
 50
282.1912528917
 51
353.66882044
  0
ARC
  5
6FA
100
AcDbEntity
  8
0
100
AcDbCircle
 62
7
  6
CONTINUOUS
 10
144.9103959402
 20
78.6051995719
 40
10.5
100
AcDbArc
 50
282.1912528917
 51
353.66882044
  0
ARC
  5
6FB
100
AcDbEntity
  8
0
100
AcDbCircle
 62
7
  6
CONTINUOUS
 10
144.9103959402
 20
78.6051995719
 40
9.15
100
AcDbArc
 50
282.1912528917
 51
353.66882044
  0
ARC
  5
6FC
100
AcDbEntity
  8
0
100
AcDbCircle
 62
7
  6
CONTINUOUS
 10
144.80121078
 20
78.5365279794
 40
8.65
100
AcDbArc
 50
281.1199644793
 51
286.5578115586
  0
ARC
  5
6FD
100
AcDbEntity
  8
0
100
AcDbCircle
 62
7
  6
CONTINUOUS
 10
144.80121078
 20
78.5365279794
 40
8.65
100
AcDbArc
 50
293.3514887871
 51
300.5360280149
  0
ARC
  5
6FE
100
AcDbEntity
  8
0
100
AcDbCircle
 62
7
  6
CONTINUOUS
 10
144.80121078
 20
78.5365279794
 40
8.65
100
AcDbArc
 50
307.2933042977
 51
352.2382936946
  0
ARC
  5
6FF
100
AcDbEntity
  8
0
100
AcDbCircle
 62
7
  6
CONTINUOUS
 10
147.3219622898
 20
86.1518496186
 40
0.8
100
AcDbArc
 50
270.0
 51
360.0
  0
ARC
  5
700
100
AcDbEntity
  8
0
100
AcDbCircle
 62
253
  6
CONTINUOUS
 10
190.0719622898
 20
126.3518496186
 40
70.4375156109
100
AcDbArc
 50
175.6031798933
 51
176.1740502762
  0
ARC
  5
701
100
AcDbEntity
  8
0
100
AcDbCircle
 62
253
  6
CONTINUOUS
 10
190.0719622898
 20
126.3518496186
 40
70.1878582272
100
AcDbArc
 50
175.5841236772
 51
176.1638044324
  0
ARC
  5
702
100
AcDbEntity
  8
DRAFT
100
AcDbCircle
 62
7
  6
CONTINUOUS
 10
187.4736930915
 20
130.5922631937
 40
70.0
100
AcDbArc
 50
173.66882044
 51
176.968516687
  0
ARC
  5
703
100
AcDbEntity
  8
0
100
AcDbCircle
 62
7
  6
CONTINUOUS
 10
187.4736930914
 20
130.5922631937
 40
69.4999999999
100
AcDbArc
 50
173.66882044
 51
176.968516687
  0
ARC
  5
704
100
AcDbEntity
  8
0
100
AcDbCircle
 62
7
  6
CONTINUOUS
 10
187.4736930914
 20
130.5922631937
 40
68.1499999999
100
AcDbArc
 50
173.66882044
 51
176.968516687
  0
ARC
  5
705
100
AcDbEntity
  8
0
100
AcDbCircle
 62
7
  6
CONTINUOUS
 10
187.4021749646
 20
129.199022144
 40
67.65
100
AcDbArc
 50
172.2382936946
 51
177.1544049881
  0
ARC
  5
706
100
AcDbEntity
  8
DRAFT
100
AcDbCircle
 62
7
  6
CONTINUOUS
 10
136.8719622898
 20
126.8518496186
 40
60.0
100
AcDbArc
 50
264.8718338568
 51
275.1281661432
  0
ARC
  5
707
100
AcDbEntity
  8
0
100
AcDbCircle
 62
7
  6
CONTINUOUS
 10
136.8719622898
 20
126.8518496186
 40
59.5
100
AcDbArc
 50
264.8718338568
 51
275.1281661432
  0
ARC
  5
708
100
AcDbEntity
  8
0
100
AcDbCircle
 62
7
  6
CONTINUOUS
 10
136.8719622898
 20
126.8518496186
 40
59.3764753303
100
AcDbArc
 50
266.6206895957
 51
273.3793104043
  0
ARC
  5
709
100
AcDbEntity
  8
0
100
AcDbCircle
 62
7
  6
CONTINUOUS
 10
136.8719622898
 20
126.8518496186
 40
58.15
100
AcDbArc
 50
273.623406827
 51
275.1281661432
  0
ARC
  5
70A
100
AcDbEntity
  8
0
100
AcDbCircle
 62
7
  6
CONTINUOUS
 10
136.8719622898
 20
126.8518496186
 40
58.15
100
AcDbArc
 50
264.8718338568
 51
266.376593173
  0
ARC
  5
70B
100
AcDbEntity
  8
0
100
AcDbCircle
 62
7
  6
CONTINUOUS
 10
136.8719622898
 20
126.8518496186
 40
57.65
100
AcDbArc
 50
273.6548752421
 51
275.2748833784
  0
ARC
  5
70C
100
AcDbEntity
  8
0
100
AcDbCircle
 62
7
  6
CONTINUOUS
 10
136.8719622898
 20
126.8518496186
 40
57.65
100
AcDbArc
 50
275.9739521754
 51
276.4649690006
  0
ARC
  5
70D
100
AcDbEntity
  8
0
100
AcDbCircle
 62
7
  6
CONTINUOUS
 10
136.8719622898
 20
126.8518496186
 40
57.65
100
AcDbArc
 50
263.5350309994
 51
264.0260478246
  0
ARC
  5
70E
100
AcDbEntity
  8
0
100
AcDbCircle
 62
7
  6
CONTINUOUS
 10
136.8719622898
 20
126.8518496186
 40
57.65
100
AcDbArc
 50
264.7251166216
 51
266.3451247579
  0
ARC
  5
70F
100
AcDbEntity
  8
0
100
AcDbCircle
 62
7
  6
CONTINUOUS
 10
136.8719622898
 20
126.8518496186
 40
57.6150898701
100
AcDbArc
 50
266.5172531404
 51
273.4827468596
  0
ARC
  5
710
100
AcDbEntity
  8
DRAFT
100
AcDbCircle
 62
7
  6
CONTINUOUS
 10
144.9103959402
 20
137.0984996652
 40
11.0
100
AcDbArc
 50
6.33117956
 51
77.8087471083
  0
ARC
  5
711
100
AcDbEntity
  8
0
100
AcDbCircle
 62
7
  6
CONTINUOUS
 10
144.9103959402
 20
137.0984996652
 40
10.5
100
AcDbArc
 50
6.33117956
 51
77.8087471083
  0
ARC
  5
712
100
AcDbEntity
  8
0
100
AcDbCircle
 62
7
  6
CONTINUOUS
 10
144.9103959402
 20
137.0984996652
 40
9.15
100
AcDbArc
 50
6.33117956
 51
77.8087471083
  0
ARC
  5
713
100
AcDbEntity
  8
0
100
AcDbCircle
 62
7
  6
CONTINUOUS
 10
144.80121078
 20
137.1671712577
 40
8.65
100
AcDbArc
 50
7.7617063054
 51
52.7066957023
  0
ARC
  5
714
100
AcDbEntity
  8
0
100
AcDbCircle
 62
7
  6
CONTINUOUS
 10
144.80121078
 20
137.1671712577
 40
8.65
100
AcDbArc
 50
59.4639719851
 51
66.6485112129
  0
ARC
  5
715
100
AcDbEntity
  8
0
100
AcDbCircle
 62
7
  6
CONTINUOUS
 10
144.80121078
 20
137.1671712577
 40
8.65
100
AcDbArc
 50
73.4421884414
 51
78.8800355207
  0
ARC
  5
716
100
AcDbEntity
  8
0
100
AcDbCircle
 62
7
  6
CONTINUOUS
 10
140.2895182898
 20
142.8518496186
 40
2.5499986575
100
AcDbArc
 50
87.752529198
 51
272.247470802
  0
ARC
  5
717
100
AcDbEntity
  8
0
100
AcDbCircle
 62
7
  6
CONTINUOUS
 10
140.2895182898
 20
142.8518496186
 40
1.7999999246
100
AcDbArc
 50
86.8152613297
 51
167.9753003079
  0
ARC
  5
718
100
AcDbEntity
  8
0
100
AcDbCircle
 62
7
  6
CONTINUOUS
 10
140.2895182898
 20
142.8518496186
 40
1.7999968808
100
AcDbArc
 50
192.0247203293
 51
273.1847440612
  0
ARC
  5
719
100
AcDbEntity
  8
0
100
AcDbCircle
 62
7
  6
CONTINUOUS
 10
147.3219622898
 20
129.5518496186
 40
0.8
100
AcDbArc
 50
0.0
 51
90.0
  0
ELLIPSE
  5
71A
100
AcDbEntity
  8
0
100
AcDbEllipse
 62
7
  6
CONTINUOUS
 10
144.3719622898
 20
84.9896846053
 30
0.0
 11
40.2
 21
-0.0
 31
0.0
 40
0.0087268678
 41
1.4973472198
 42
1.5707963268
  0
ELLIPSE
  5
71B
100
AcDbEntity
  8
0
100
AcDbEllipse
 62
7
  6
CONTINUOUS
 10
130.8144085955
 20
70.3747883476
 30
0.0
 11
-0.0
 21
0.3
 31
0.0
 40
0.0174550649
 41
-4.4195310746
 42
-3.1939525311
  0
ELLIPSE
  5
71C
100
AcDbEntity
  8
0
100
AcDbEllipse
 62
7
  6
CONTINUOUS
 10
131.629515984
 20
70.3747883476
 30
0.0
 11
0.0
 21
0.3
 31
0.0
 40
0.0174550649
 41
-3.089232776
 42
-1.8636542326
  0
ELLIPSE
  5
71D
100
AcDbEntity
  8
0
100
AcDbEllipse
 62
7
  6
CONTINUOUS
 10
142.1144085955
 20
70.3747883476
 30
0.0
 11
-0.0
 21
0.3
 31
0.0
 40
0.0174550649
 41
-4.4195310746
 42
-3.1939525311
  0
ELLIPSE
  5
71E
100
AcDbEntity
  8
0
100
AcDbEllipse
 62
7
  6
CONTINUOUS
 10
142.929515984
 20
70.3747883476
 30
0.0
 11
-0.0
 21
0.3
 31
0.0
 40
0.0174550649
 41
-3.089232776
 42
-1.8636542326
  0
ELLIPSE
  5
71F
100
AcDbEntity
  8
0
100
AcDbEllipse
 62
7
  6
CONTINUOUS
 10
142.929515984
 20
145.3289108895
 30
0.0
 11
0.0
 21
0.3
 31
0.0
 40
0.0174550649
 41
-1.277938421
 42
-0.0523598776
  0
ELLIPSE
  5
720
100
AcDbEntity
  8
0
100
AcDbEllipse
 62
7
  6
CONTINUOUS
 10
142.1144085955
 20
145.3289108895
 30
0.0
 11
0.0
 21
0.3
 31
0.0
 40
0.0174550649
 41
0.0523598776
 42
1.277938421
  0
ELLIPSE
  5
721
100
AcDbEntity
  8
0
100
AcDbEllipse
 62
7
  6
CONTINUOUS
 10
131.629515984
 20
145.3289108895
 30
0.0
 11
0.0
 21
0.3
 31
0.0
 40
0.0174550649
 41
-1.277938421
 42
-0.0523598776
  0
ELLIPSE
  5
722
100
AcDbEntity
  8
0
100
AcDbEllipse
 62
7
  6
CONTINUOUS
 10
130.8144085955
 20
145.3289108895
 30
0.0
 11
0.0
 21
0.3
 31
0.0
 40
0.0174550649
 41
0.0523598776
 42
1.277938421
  0
ELLIPSE
  5
723
100
AcDbEntity
  8
0
100
AcDbEllipse
 62
7
  6
CONTINUOUS
 10
138.1749021752
 20
81.1489097332
 30
0.0
 11
0.2870477648
 21
-0.1248082944
 31
0.0
 40
0.9518332917
 41
-1.1771837637
 42
0.3923945879
  0
ELLIPSE
  5
724
100
AcDbEntity
  8
0
100
AcDbEllipse
 62
7
  6
CONTINUOUS
 10
135.5690224044
 20
81.1489097332
 30
0.0
 11
0.2870477648
 21
0.1248082944
 31
0.0
 40
0.9518332917
 41
2.7491980657
 42
4.3187764173
  0
ELLIPSE
  5
725
100
AcDbEntity
  8
0
100
AcDbEllipse
 62
7
  6
CONTINUOUS
 10
138.1749021752
 20
134.554789504
 30
0.0
 11
0.2870477648
 21
0.1248082944
 31
0.0
 40
0.9518332917
 41
-0.3923945879
 42
1.1771837637
  0
ELLIPSE
  5
726
100
AcDbEntity
  8
0
100
AcDbEllipse
 62
7
  6
CONTINUOUS
 10
135.5690224044
 20
134.554789504
 30
0.0
 11
0.2870477648
 21
-0.1248082944
 31
0.0
 40
0.9518332917
 41
1.9644088899
 42
3.5339872415
  0
ELLIPSE
  5
727
100
AcDbEntity
  8
0
100
AcDbEllipse
 62
7
  6
CONTINUOUS
 10
129.3719622898
 20
130.7140146319
 30
0.0
 11
40.2
 21
0.0
 31
0.0
 40
0.0087268678
 41
-1.6442454337
 42
-1.5707963268
  0
ELLIPSE
  5
728
100
AcDbEntity
  8
0
100
AcDbEllipse
 62
7
  6
CONTINUOUS
 10
144.3719622898
 20
130.7140146319
 30
0.0
 11
40.2
 21
0.0
 31
0.0
 40
0.0087268678
 41
-1.5707963268
 42
-1.4973472198
  0
ELLIPSE
  5
729
100
AcDbEntity
  8
0
100
AcDbEllipse
 62
7
  6
CONTINUOUS
 10
131.576326056
 20
69.6643340077
 30
0.0
 11
-0.0
 21
0.25
 31
0.0
 40
0.0174550649
 41
0.0523598776
 42
1.5707963268
  0
ELLIPSE
  5
72A
100
AcDbEntity
  8
0
100
AcDbEllipse
 62
7
  6
CONTINUOUS
 10
131.1966783938
 20
77.8518496186
 30
0.0
 11
0.0
 21
26.2
 31
0.0
 40
0.0174550649
 41
-1.8636542326
 42
-1.7631417519
  0
ELLIPSE
  5
72B
100
AcDbEntity
  8
0
100
AcDbEllipse
 62
7
  6
CONTINUOUS
 10
130.8675985235
 20
69.6643340077
 30
0.0
 11
-0.0
 21
0.25
 31
0.0
 40
0.0174550649
 41
-1.5707963268
 42
-0.0523598776
  0
ELLIPSE
  5
72C
100
AcDbEntity
  8
0
100
AcDbEllipse
 62
7
  6
CONTINUOUS
 10
131.2472461857
 20
77.8518496186
 30
0.0
 11
-0.0
 21
26.2
 31
0.0
 40
0.0174550649
 41
-4.5200435552
 42
-4.4195310746
  0
ELLIPSE
  5
72D
100
AcDbEntity
  8
0
100
AcDbEllipse
 62
7
  6
CONTINUOUS
 10
142.876326056
 20
69.6643340077
 30
0.0
 11
-0.0
 21
0.25
 31
0.0
 40
0.0174550649
 41
0.0523598776
 42
1.5707963268
  0
ELLIPSE
  5
72E
100
AcDbEntity
  8
0
100
AcDbEllipse
 62
7
  6
CONTINUOUS
 10
142.4966783938
 20
77.8518496186
 30
0.0
 11
0.0
 21
26.2
 31
0.0
 40
0.0174550649
 41
-1.8636542326
 42
-1.7631417519
  0
ELLIPSE
  5
72F
100
AcDbEntity
  8
0
100
AcDbEllipse
 62
7
  6
CONTINUOUS
 10
129.3719622898
 20
84.9896846053
 30
0.0
 11
40.2
 21
0.0
 31
0.0
 40
0.0087268678
 41
1.5707963268
 42
1.6442454337
  0
ELLIPSE
  5
730
100
AcDbEntity
  8
0
100
AcDbEllipse
 62
7
  6
CONTINUOUS
 10
142.1675985235
 20
69.6643340077
 30
0.0
 11
-0.0
 21
0.25
 31
0.0
 40
0.0174550649
 41
-1.5707963268
 42
-0.0523598776
  0
ELLIPSE
  5
731
100
AcDbEntity
  8
0
100
AcDbEllipse
 62
7
  6
CONTINUOUS
 10
142.5472461857
 20
77.8518496186
 30
0.0
 11
-0.0
 21
26.2
 31
0.0
 40
0.0174550649
 41
-4.5200435552
 42
-4.4195310746
  0
ELLIPSE
  5
732
100
AcDbEntity
  8
0
100
AcDbEllipse
 62
7
  6
CONTINUOUS
 10
130.8675985235
 20
146.0393652294
 30
0.0
 11
0.0
 21
0.25
 31
0.0
 40
0.0174550649
 41
-3.089232776
 42
-1.5707963268
  0
ELLIPSE
  5
733
100
AcDbEntity
  8
0
100
AcDbEllipse
 62
7
  6
CONTINUOUS
 10
131.2472461857
 20
137.8518496186
 30
0.0
 11
-0.0
 21
26.2
 31
0.0
 40
0.0174550649
 41
1.277938421
 42
1.3784509016
  0
ELLIPSE
  5
734
100
AcDbEntity
  8
0
100
AcDbEllipse
 62
7
  6
CONTINUOUS
 10
131.576326056
 20
146.0393652294
 30
0.0
 11
0.0
 21
0.25
 31
0.0
 40
0.0174550649
 41
-4.7123889804
 42
-3.1939525311
  0
ELLIPSE
  5
735
100
AcDbEntity
  8
0
100
AcDbEllipse
 62
7
  6
CONTINUOUS
 10
131.1966783938
 20
137.8518496186
 30
0.0
 11
0.0
 21
26.2
 31
0.0
 40
0.0174550649
 41
-1.3784509016
 42
-1.277938421
  0
ELLIPSE
  5
736
100
AcDbEntity
  8
0
100
AcDbEllipse
 62
7
  6
CONTINUOUS
 10
144.3719622898
 20
84.0321948136
 30
0.0
 11
40.2
 21
-0.0
 31
0.0
 40
0.0174550649
 41
1.3466871571
 42
1.4424785344
  0
ELLIPSE
  5
737
100
AcDbEntity
  8
0
100
AcDbEllipse
 62
7
  6
CONTINUOUS
 10
144.3719622898
 20
131.6715044235
 30
0.0
 11
40.2
 21
0.0
 31
0.0
 40
0.0174550649
 41
-1.4424785344
 42
-1.3466871571
  0
ELLIPSE
  5
738
100
AcDbEntity
  8
0
100
AcDbEllipse
 62
7
  6
CONTINUOUS
 10
129.3719622898
 20
84.0321948136
 30
0.0
 11
40.2
 21
-0.0
 31
0.0
 40
0.0174550649
 41
1.6991141192
 42
1.7949054965
  0
ELLIPSE
  5
739
100
AcDbEntity
  8
0
100
AcDbEllipse
 62
7
  6
CONTINUOUS
 10
129.3719622898
 20
131.6715044235
 30
0.0
 11
40.2
 21
-0.0
 31
0.0
 40
0.0174550649
 41
-1.7949054965
 42
-1.6991141192
  0
ELLIPSE
  5
73A
100
AcDbEntity
  8
0
100
AcDbEllipse
 62
7
  6
CONTINUOUS
 10
142.1675985235
 20
146.0393652294
 30
0.0
 11
0.0
 21
0.25
 31
0.0
 40
0.0174550649
 41
-3.089232776
 42
-1.5707963268
  0
ELLIPSE
  5
73B
100
AcDbEntity
  8
0
100
AcDbEllipse
 62
7
  6
CONTINUOUS
 10
142.5472461857
 20
137.8518496186
 30
0.0
 11
0.0
 21
26.2
 31
0.0
 40
0.0174550649
 41
1.277938421
 42
1.3784509016
  0
ELLIPSE
  5
73C
100
AcDbEntity
  8
0
100
AcDbEllipse
 62
7
  6
CONTINUOUS
 10
142.876326056
 20
146.0393652294
 30
0.0
 11
0.0
 21
0.25
 31
0.0
 40
0.0174550649
 41
-4.7123889804
 42
-3.1939525311
  0
ELLIPSE
  5
73D
100
AcDbEntity
  8
0
100
AcDbEllipse
 62
7
  6
CONTINUOUS
 10
142.4966783938
 20
137.8518496186
 30
0.0
 11
0.0
 21
26.2
 31
0.0
 40
0.0174550649
 41
-1.3784509016
 42
-1.277938421
  0
ELLIPSE
  5
73E
100
AcDbEntity
  8
0
100
AcDbEllipse
 62
7
  6
CONTINUOUS
 10
144.3719622898
 20
84.5715044235
 30
0.0
 11
40.2
 21
0.0
 31
0.0
 40
0.0174550649
 41
-1.5707963268
 42
-1.3482536284
  0
ELLIPSE
  5
73F
100
AcDbEntity
  8
0
100
AcDbEllipse
 62
7
  6
CONTINUOUS
 10
129.3719622898
 20
84.5715044235
 30
0.0
 11
40.2
 21
-0.0
 31
0.0
 40
0.0174550649
 41
-1.7933390252
 42
-1.5707963268
  0
ELLIPSE
  5
740
100
AcDbEntity
  8
0
100
AcDbEllipse
 62
7
  6
CONTINUOUS
 10
144.3719622898
 20
131.1321948136
 30
0.0
 11
40.2
 21
0.0
 31
0.0
 40
0.0174550649
 41
1.3482536284
 42
1.5707963268
  0
ELLIPSE
  5
741
100
AcDbEntity
  8
0
100
AcDbEllipse
 62
7
  6
CONTINUOUS
 10
129.3719622898
 20
131.1321948136
 30
0.0
 11
40.2
 21
0.0
 31
0.0
 40
0.0174550649
 41
1.5707963268
 42
1.7933390252
  0
ELLIPSE
  5
742
100
AcDbEntity
  8
0
100
AcDbEllipse
 62
7
  6
CONTINUOUS
 10
125.0456111648
 20
126.8518496186
 30
0.0
 11
59.276299376
 21
0.0
 31
0.0
 40
0.979895321
 41
-1.4328442974
 42
-1.4298634698
  0
ELLIPSE
  5
743
100
AcDbEntity
  8
0
100
AcDbEllipse
 62
7
  6
CONTINUOUS
 10
148.6983134147
 20
126.8518496186
 30
0.0
 11
59.276299376
 21
0.0
 31
0.0
 40
0.979895321
 41
-1.7117291838
 42
-1.7087483562
  0
ENDSEC
  0
SECTION
  2
OBJECTS
  0
DICTIONARY
  5
C
100
AcDbDictionary
280
0
281
1
  3
ACAD_GROUP
350
D
  3
ACAD_MLINESTYLE
350
17
  3
ACAD_LAYOUT
350
1A
  3
ACAD_PLOTSETTINGS
350
19
  3
ACAD_PLOTSTYLENAME
350
E
  0
DICTIONARY
  5
D
102
{ACAD_REACTORS
330
C
102
}
100
AcDbDictionary
280
0
281
1
  0
ACDBDICTIONARYWDFLT
  5
E
102
{ACAD_REACTORS
330
C
102
}
100
AcDbDictionary
281
1
  3
Normal
350
F
100
AcDbDictionaryWithDefault
340
F
  0
DICTIONARY
  5
17
102
{ACAD_REACTORS
330
C
102
}
100
AcDbDictionary
280
0
281
1
  3
Standard
350
18
  0
DICTIONARY
  5
19
102
{ACAD_REACTORS
330
C
102
}
100
AcDbDictionary
281
1
  0
DICTIONARY
  5
1A
102
{ACAD_REACTORS
330
C
102
}
100
AcDbDictionary
281
1
  3
Model
350
744
  3
Layout1
350
745
  0
ACDBPLACEHOLDER
  5
F
102
{ACAD_REACTORS
330
E
102
}
  0
MLINESTYLE
  5
18
102
{ACAD_REACTORS
330
17
102
}
100
AcDbMlineStyle
  2
STANDARD
 70
0
  3

 62
256
 51
90.0
 52
90.0
 71
2
 49
0.5
 62
256
  6
BYLAYER
 49
-0.5
 62
256
  6
BYLAYER
  0
LAYOUT
  5
744
102
{ACAD_REACTORS
330
1A
102
}
100
AcDbPlotSettings
  1

  2
none_device
  4
ISO_A4_(297.00_x_210.00_MM)
  6

 40
0.0
 41
0.0
 42
0.0
 43
0.0
 44
297.0
 45
210.0
 46
0.0
 47
0.0
 48
0.0
 49
0.0
140
0.0
141
0.0
142
1.0
143
1.0
 70
1024
 72
1
 73
0
 74
0
  7

 75
0
147
1.0
148
0.0
149
0.0
100
AcDbLayout
  1
Model
 70
0
 71
0
 10
0.0
 20
0.0
 11
297.0
 21
210.0
 12
0.0
 22
0.0
 32
0.0
 14
0.0
 24
0.0
 34
0.0
 15
0.0
 25
0.0
 35
0.0
146
0.0
 13
0.0
 23
0.0
 33
0.0
 16
1.0
 26
0.0
 36
0.0
 17
0.0
 27
1.0
 37
0.0
 76
0
330
219
345
0
346
0
  0
LAYOUT
  5
745
102
{ACAD_REACTORS
330
1A
102
}
100
AcDbPlotSettings
  1

  2
none_device
  4
ISO_A4_(297.00_x_210.00_MM)
  6

 40
0.0
 41
0.0
 42
0.0
 43
0.0
 44
297.0
 45
210.0
 46
0.0
 47
0.0
 48
0.0
 49
0.0
140
0.0
141
0.0
142
1.0
143
1.0
 70
0
 72
1
 73
0
 74
0
  7

 75
0
147
1.0
148
0.0
149
0.0
100
AcDbLayout
  1
Layout1
 70
0
 71
1
 10
0.0
 20
0.0
 11
297.0
 21
210.0
 12
0.0
 22
0.0
 32
0.0
 14
0.0
 24
0.0
 34
0.0
 15
0.0
 25
0.0
 35
0.0
146
0.0
 13
0.0
 23
0.0
 33
0.0
 16
1.0
 26
0.0
 36
0.0
 17
0.0
 27
1.0
 37
0.0
 76
0
330
21A
345
0
346
0
  0
ENDSEC
  0
EOF
