  0
SECTION
  2
HEADER
  9
$ACADVER
  1
AC1021
  9
$DWGCODEPAGE
  3
ANSI_1252
  9
$EXTMAX
 10
297.0
 20
210.0
 30
0.0
  9
$EXTMIN
 10
0.0
 20
0.0
 30
0.0
  9
$LIMMIN
 10
0.0
 20
0.0
  9
$LIMMAX
 10
297.0
 20
210.0
  9
$VIEWCTR
 10
148.5
 20
105.0
  9
$VIEWSIZE
 40
210.0
  9
$CLAYER
  8
0
  9
$LTSCALE
 40
16.335
  9
$CELTYPE
  6
BYLAYER
  9
$DIMSCALE
 40
1.0
  9
$DIMASZ
 40
3.0
  9
$DIMEXO
 40
1.85625
  9
$DIMDLI
 40
11.286
  9
$DIMEXE
 40
5.346
  9
$DIMCEN
 40
2.673
  9
$DIMLFAC
 40
1.0
  9
$DIMBLK
  1
_FILLED
  9
$DIMTXT
 40
3.0
  9
$DIMTOL
 70
1
  9
$DIMLIM
 70
0
  9
$DIMTFAC
 40
1.0
  9
$DIMTP
 40
0.01
  9
$DIMTM
 40
0.01
  9
$PDMODE
 70
3
  9
$PDSIZE
 40
3.0
  9
$HANDSEED
  5
882
  9
$TILEMODE
 70
1
  9
$MEASUREMENT
 70
1
  9
$INSUNITS
 70
4
  0
ENDSEC
  0
SECTION
  2
CLASSES
  0
CLASS
  1
ACDBDICTIONARYWDFLT
  2
AcDbDictionaryWithDefault
  3
AutoCAD 2000
 90
0
 91
1
280
0
281
0
  0
CLASS
  1
ACDBPLACEHOLDER
  2
AcDbPlaceHolder
  3
AutoCAD 2000
 90
0
 91
1
280
0
281
0
  0
CLASS
  1
LAYOUT
  2
AcDbLayout
  3
AutoCAD 2000
 90
0
 91
0
280
0
281
0
  0
ENDSEC
  0
SECTION
  2
TABLES
  0
TABLE
  2
VPORT
  5
8
100
AcDbSymbolTable
 70
2
  0
VPORT
  5
1F4
100
AcDbSymbolTableRecord
100
AcDbViewportTableRecord
  2
*ACTIVE
 70
0
 10
0.0
 20
0.0
 11
1.0
 21
1.0
 12
148.5
 22
105.0
 13
0.0
 23
0.0
 14
1.0
 24
1.0
 15
0.0
 25
0.0
 16
0.0
 26
0.0
 36
1.0
 17
0.0
 27
0.0
 37
0.0
 40
210.0
 41
1.4142857143
 42
50.0
 43
0.0
 44
0.0
 50
0.0
 51
0.0
 71
0
 72
100
 73
1
 74
1
 75
0
 76
0
 77
0
 78
0
  0
ENDTAB
  0
TABLE
  2
LTYPE
  5
5
100
AcDbSymbolTable
 70
6
  0
LTYPE
  5
14
100
AcDbSymbolTableRecord
100
AcDbLinetypeTableRecord
  2
BYBLOCK
 70
0
  3

 72
65
 73
0
 40
0.0
  0
LTYPE
  5
15
100
AcDbSymbolTableRecord
100
AcDbLinetypeTableRecord
  2
BYLAYER
 70
0
  3

 72
65
 73
0
 40
0.0
  0
LTYPE
  5
16
100
AcDbSymbolTableRecord
100
AcDbLinetypeTableRecord
  2
CONTINUOUS
 70
64
  3
Solid line
 72
65
 73
0
 40
0.0
  0
LTYPE
  5
1F5
100
AcDbSymbolTableRecord
100
AcDbLinetypeTableRecord
  2
CENTER
 70
64
  3
____ _ ____ _ ____ _ ____ _ ____ _ ____ _ ____
 72
65
 73
4
 40
0.6
 49
0.375
 74
0
 49
-0.075
 74
0
 49
0.075
 74
0
 49
-0.075
 74
0
  0
LTYPE
  5
1F6
100
AcDbSymbolTableRecord
100
AcDbLinetypeTableRecord
  2
HIDDEN
 70
64
  3
- - - - - - - - - - - - - - - - - - - -
 72
65
 73
2
 40
0.2
 49
0.1
 74
0
 49
-0.1
 74
0
  0
LTYPE
  5
1F7
100
AcDbSymbolTableRecord
100
AcDbLinetypeTableRecord
  2
PHANTOM
 70
64
  3
_____ _ _ _____ _ _ _____ _ _ _____
 72
65
 73
6
 40
0.8
 49
0.45
 74
0
 49
-0.05
 74
0
 49
0.1
 74
0
 49
-0.05
 74
0
 49
0.1
 74
0
 49
-0.05
 74
0
  0
LTYPE
  5
1F8
100
AcDbSymbolTableRecord
100
AcDbLinetypeTableRecord
  2
DOT
 70
64
  3
. . . . . . . . . . . . . . . . . . . .
 72
65
 73
2
 40
0.2
 49
0.1
 74
0
 49
-0.1
 74
0
  0
LTYPE
  5
1F9
100
AcDbSymbolTableRecord
100
AcDbLinetypeTableRecord
  2
DASHED
 70
64
  3
- - - - - - - - - - - - - - - - - - - -
 72
65
 73
2
 40
0.2
 49
0.1
 74
0
 49
-0.1
 74
0
  0
ENDTAB
  0
TABLE
  2
LAYER
  5
2
100
AcDbSymbolTable
 70
36
  0
LAYER
  5
10
100
AcDbSymbolTableRecord
100
AcDbLayerTableRecord
  2
0
 70
0
 62
7
  6
CONTINUOUS
370
-3
390
F
  0
LAYER
  5
1FA
100
AcDbSymbolTableRecord
100
AcDbLayerTableRecord
  2
DEFAULT_1
 70
0
 62
7
  6
CENTER
370
-3
390
F
  0
LAYER
  5
1FB
100
AcDbSymbolTableRecord
100
AcDbLayerTableRecord
  2
DEFAULT_2
 70
0
 62
7
  6
HIDDEN
370
-3
390
F
  0
LAYER
  5
1FC
100
AcDbSymbolTableRecord
100
AcDbLayerTableRecord
  2
DEFAULT_3
 70
0
 62
7
  6
PHANTOM
370
-3
390
F
  0
LAYER
  5
1FD
100
AcDbSymbolTableRecord
100
AcDbLayerTableRecord
  2
ASSI
 70
0
 62
7
  6
CONTINUOUS
370
-3
390
F
  0
LAYER
  5
1FE
100
AcDbSymbolTableRecord
100
AcDbLayerTableRecord
  2
COORDINATE
 70
0
 62
7
  6
CONTINUOUS
370
-3
390
F
  0
LAYER
  5
1FF
100
AcDbSymbolTableRecord
100
AcDbLayerTableRecord
  2
COPY_PUBLISH
 70
0
 62
7
  6
CONTINUOUS
370
-3
390
F
  0
LAYER
  5
200
100
AcDbSymbolTableRecord
100
AcDbLayerTableRecord
  2
COSMETIC
 70
0
 62
7
  6
CONTINUOUS
370
-3
390
F
  0
LAYER
  5
201
100
AcDbSymbolTableRecord
100
AcDbLayerTableRecord
  2
COSMETICI
 70
0
 62
7
  6
CONTINUOUS
370
-3
390
F
  0
LAYER
  5
202
100
AcDbSymbolTableRecord
100
AcDbLayerTableRecord
  2
CURVE
 70
0
 62
7
  6
CONTINUOUS
370
-3
390
F
  0
LAYER
  5
203
100
AcDbSymbolTableRecord
100
AcDbLayerTableRecord
  2
DRAFT
 70
0
 62
7
  6
CONTINUOUS
370
-3
390
F
  0
LAYER
  5
204
100
AcDbSymbolTableRecord
100
AcDbLayerTableRecord
  2
IMPORT_IGES
 70
0
 62
7
  6
CONTINUOUS
370
-3
390
F
  0
LAYER
  5
205
100
AcDbSymbolTableRecord
100
AcDbLayerTableRecord
  2
INTFCLR_377
 70
0
 62
7
  6
CONTINUOUS
370
-3
390
F
  0
LAYER
  5
206
100
AcDbSymbolTableRecord
100
AcDbLayerTableRecord
  2
INTFCLR_4497
 70
0
 62
7
  6
CONTINUOUS
370
-3
390
F
  0
LAYER
  5
207
100
AcDbSymbolTableRecord
100
AcDbLayerTableRecord
  2
INTFCLR_473
 70
0
 62
7
  6
CONTINUOUS
370
-3
390
F
  0
LAYER
  5
208
100
AcDbSymbolTableRecord
100
AcDbLayerTableRecord
  2
INTFCLR_6927
 70
0
 62
7
  6
CONTINUOUS
370
-3
390
F
  0
LAYER
  5
209
100
AcDbSymbolTableRecord
100
AcDbLayerTableRecord
  2
INTFCLR_9765
 70
0
 62
7
  6
CONTINUOUS
370
-3
390
F
  0
LAYER
  5
20A
100
AcDbSymbolTableRecord
100
AcDbLayerTableRecord
  2
INTF_1
 70
0
 62
7
  6
CONTINUOUS
370
-3
390
F
  0
LAYER
  5
20B
100
AcDbSymbolTableRecord
100
AcDbLayerTableRecord
  2
INTF_2
 70
0
 62
7
  6
CONTINUOUS
370
-3
390
F
  0
LAYER
  5
20C
100
AcDbSymbolTableRecord
100
AcDbLayerTableRecord
  2
INTF_3
 70
0
 62
7
  6
CONTINUOUS
370
-3
390
F
  0
LAYER
  5
20D
100
AcDbSymbolTableRecord
100
AcDbLayerTableRecord
  2
INTF_7
 70
0
 62
7
  6
CONTINUOUS
370
-3
390
F
  0
LAYER
  5
20E
100
AcDbSymbolTableRecord
100
AcDbLayerTableRecord
  2
INTF_9
 70
0
 62
7
  6
CONTINUOUS
370
-3
390
F
  0
LAYER
  5
20F
100
AcDbSymbolTableRecord
100
AcDbLayerTableRecord
  2
NOTE
 70
0
 62
7
  6
CONTINUOUS
370
-3
390
F
  0
LAYER
  5
210
100
AcDbSymbolTableRecord
100
AcDbLayerTableRecord
  2
PIANI
 70
0
 62
7
  6
CONTINUOUS
370
-3
390
F
  0
LAYER
  5
211
100
AcDbSymbolTableRecord
100
AcDbLayerTableRecord
  2
PUNTI
 70
0
 62
7
  6
CONTINUOUS
370
-3
390
F
  0
LAYER
  5
212
100
AcDbSymbolTableRecord
100
AcDbLayerTableRecord
  2
RACCORDO
 70
0
 62
7
  6
CONTINUOUS
370
-3
390
F
  0
LAYER
  5
213
100
AcDbSymbolTableRecord
100
AcDbLayerTableRecord
  2
SIMBOLI
 70
0
 62
7
  6
CONTINUOUS
370
-3
390
F
  0
LAYER
  5
214
100
AcDbSymbolTableRecord
100
AcDbLayerTableRecord
  2
SMUSSO
 70
0
 62
7
  6
CONTINUOUS
370
-3
390
F
  0
LAYER
  5
215
100
AcDbSymbolTableRecord
100
AcDbLayerTableRecord
  2
SNAPLINE
 70
0
 62
7
  6
CONTINUOUS
370
-3
390
F
  0
LAYER
  5
216
100
AcDbSymbolTableRecord
100
AcDbLayerTableRecord
  2
SUPERFICI
 70
0
 62
7
  6
CONTINUOUS
370
-3
390
F
  0
LAYER
  5
217
100
AcDbSymbolTableRecord
100
AcDbLayerTableRecord
  2
TRASH
 70
0
 62
7
  6
CONTINUOUS
370
-3
390
F
  0
LAYER
  5
218
100
AcDbSymbolTableRecord
100
AcDbLayerTableRecord
  2
XSEC_DATUMS
 70
0
 62
7
  6
CONTINUOUS
370
-3
390
F
  0
ENDTAB
  0
TABLE
  2
STYLE
  5
3
100
AcDbSymbolTable
 70
1
  0
STYLE
  5
11
100
AcDbSymbolTableRecord
100
AcDbTextStyleTableRecord
  2
STANDARD
 70
0
 40
0.0
 41
0.8
 50
0.0
 71
0
 42
0.2
  3
txt
  4

  0
STYLE
  5
219
100
AcDbSymbolTableRecord
100
AcDbTextStyleTableRecord
  2
TEXTSTYLE_1
 70
0
 40
0.0
 41
0.8
 50
0.0
 71
0
 42
0.2
  3
gdt
  4

  0
ENDTAB
  0
TABLE
  2
VIEW
  5
6
100
AcDbSymbolTable
 70
0
  0
ENDTAB
  0
TABLE
  2
UCS
  5
7
100
AcDbSymbolTable
 70
0
  0
ENDTAB
  0
TABLE
  2
APPID
  5
9
100
AcDbSymbolTable
 70
1
  0
APPID
  5
21A
100
AcDbSymbolTableRecord
100
AcDbRegAppTableRecord
  2
ACAD
 70
0
  0
ENDTAB
  0
TABLE
  2
BLOCK_RECORD
  5
1
100
AcDbSymbolTable
 70
0
  0
BLOCK_RECORD
  5
21B
100
AcDbSymbolTableRecord
100
AcDbBlockTableRecord
  2
*Model_Space
  0
BLOCK_RECORD
  5
21C
100
AcDbSymbolTableRecord
100
AcDbBlockTableRecord
  2
*Paper_Space
  0
ENDTAB
  0
TABLE
  2
DIMSTYLE
  5
A
100
AcDbSymbolTable
 70
1
100
AcDbDimStyleTable
 71
0
  0
DIMSTYLE
105
21D
100
AcDbSymbolTableRecord
100
AcDbDimStyleTableRecord
  2
STANDARD
 70
0
  3

  4

 40
1.0
 41
3.0
 42
0.0625
 43
0.38
 44
0.18
 45
0.0
 46
0.0
 47
0.01
 48
0.01
140
3.0
141
0.09
142
0.0
143
25.4
144
1.0
145
0.0
146
1.0
147
0.09
 71
1.0
 72
0.0
 73
0
 74
0
 75
0
 76
0
 77
1
 78
8
170
0
171
2
172
0
173
0
174
0
175
0
176
0
177
0
178
0
270
2
271
2
272
2
273
2
274
2
275
0
280
0
281
0
282
0
283
1
284
8
285
0
286
0
287
3
288
0
340
11
  0
ENDTAB
  0
ENDSEC
  0
SECTION
  2
BLOCKS
  0
BLOCK
  5
20
100
AcDbEntity
  8
0
100
AcDbBlockBegin
  2
*Model_Space
 70
0
 10
0.0
 20
0.0
 30
0.0
  3
*Model_Space
  1

  0
ENDBLK
  5
21
100
AcDbEntity
  8
0
100
AcDbBlockEnd
  0
BLOCK
  5
1C
100
AcDbEntity
  8
0
100
AcDbBlockBegin
  2
*Paper_Space
 70
0
 10
0.0
 20
0.0
 30
0.0
  3
*Paper_Space
  1

  0
ENDBLK
  5
1D
100
AcDbEntity
  8
0
100
AcDbBlockEnd
  0
ENDSEC
  0
SECTION
  2
ENTITIES
  0
LWPOLYLINE
  5
21E
100
AcDbEntity
  8
0
100
AcDbPolyline
 62
253
  6
CONTINUOUS
 90
7
 70
0
 10
129.0133652073
 20
173.411189127
 10
129.1342490177
 20
173.4458483577
 10
129.2583298585
 20
173.4794358012
 10
129.3856123947
 20
173.5118225197
 10
129.5160981312
 20
173.5428764007
 10
129.6497851918
 20
173.572462206
 10
129.7866680949
 20
173.6004416288
  0
LWPOLYLINE
  5
21F
100
AcDbEntity
  8
0
100
AcDbPolyline
 62
253
  6
CONTINUOUS
 90
7
 70
0
 10
149.6426041431
 20
41.4978273718
 10
149.529972582
 20
41.4658896444
 10
149.4145260772
 20
41.4351338062
 10
149.2962641405
 20
41.4055597495
 10
149.1751862592
 20
41.3771673708
 10
149.0512918967
 20
41.3499565705
 10
148.9245804928
 20
41.3239272528
  0
LWPOLYLINE
  5
220
100
AcDbEntity
  8
0
100
AcDbPolyline
 62
253
  6
CONTINUOUS
 90
10
 70
0
 10
148.9499367328
 20
41.1569226817
 10
148.6074026611
 20
41.091422132
 10
148.2642739392
 20
41.029008311
 10
147.9205782982
 20
40.9696867903
 10
147.5763215335
 20
40.9134594185
 10
147.23155341
 20
40.8603351426
 10
146.8863679641
 20
40.8103280198
 10
146.5408154503
 20
40.7634437104
 10
146.1949020347
 20
40.7196814655
 10
145.8486559134
 20
40.6790435578
  0
LWPOLYLINE
  5
221
100
AcDbEntity
  8
0
100
AcDbPolyline
 62
253
  6
CONTINUOUS
 90
10
 70
0
 10
148.9245804928
 20
41.3239272528
 10
148.5832853421
 20
41.2586659577
 10
148.241457533
 20
41.1964918854
 10
147.8990960407
 20
41.1374044665
 10
147.5561429495
 20
41.0813947862
 10
147.2126540023
 20
41.0284706989
 10
146.8687986198
 20
40.9786568242
 10
146.5246324943
 20
40.9319610639
 10
146.1800975763
 20
40.8883746068
 10
145.8351926358
 20
40.8478970405
  0
LINE
  5
222
100
AcDbEntity
  8
0
100
AcDbLine
 62
253
  6
CONTINUOUS
 10
145.8351926358
 20
40.8478970405
 11
145.5823721214
 21
40.8199434324
  0
LINE
  5
223
100
AcDbEntity
  8
0
100
AcDbLine
 62
253
  6
CONTINUOUS
 10
145.8486559139
 20
40.679043553
 11
145.5846601662
 21
40.6498780857
  0
LINE
  5
224
100
AcDbEntity
  8
0
100
AcDbLine
 62
253
  6
CONTINUOUS
 10
145.5823721214
 20
40.8199434324
 11
145.4563100588
 21
40.8064260586
  0
LINE
  5
225
100
AcDbEntity
  8
0
100
AcDbLine
 62
253
  6
CONTINUOUS
 10
145.5846601662
 20
40.6498780857
 11
145.4529298073
 21
40.6357837991
  0
LWPOLYLINE
  5
226
100
AcDbEntity
  8
0
100
AcDbPolyline
 62
253
  6
CONTINUOUS
 90
10
 70
0
 10
144.5799201143
 20
40.7201868499
 10
143.5386605505
 20
40.6330055941
 10
142.4730061006
 20
40.5661127155
 10
141.3829394453
 20
40.5195039974
 10
140.2748378599
 20
40.4911604947
 10
139.1423070751
 20
40.4830965602
 10
137.9661568907
 20
40.5013597029
 10
136.73997316
 20
40.547967539
 10
135.4701452899
 20
40.6209079301
 10
134.1566842194
 20
40.7201868507
  0
LWPOLYLINE
  5
227
100
AcDbEntity
  8
0
100
AcDbPolyline
 62
253
  6
CONTINUOUS
 90
10
 70
0
 10
144.583305394
 20
40.55038775
 10
143.5419166214
 20
40.4655548595
 10
142.475451061
 20
40.3982628648
 10
141.3841883295
 20
40.3498546113
 10
140.2753233659
 20
40.3218145169
 10
139.1423712394
 20
40.3151464228
 10
137.965160308
 20
40.3317276895
 10
136.7373545433
 20
40.3745773422
 10
135.4664736408
 20
40.4464963705
 10
134.1532988839
 20
40.5503877564
  0
LINE
  5
228
100
AcDbEntity
  8
0
100
AcDbLine
 62
253
  6
CONTINUOUS
 10
145.3683021738
 20
40.6911664967
 11
144.6683021738
 21
40.6911664967
  0
LINE
  5
229
100
AcDbEntity
  8
0
100
AcDbLine
 62
253
  6
CONTINUOUS
 10
134.0683021738
 20
40.6911664967
 11
133.3683021738
 21
40.6911664967
  0
LINE
  5
22A
100
AcDbEntity
  8
0
100
AcDbLine
 62
253
  6
CONTINUOUS
 10
145.3724375582
 20
40.9408238804
 11
144.6641667895
 21
40.9408238804
  0
LINE
  5
22B
100
AcDbEntity
  8
0
100
AcDbLine
 62
253
  6
CONTINUOUS
 10
134.0724375582
 20
40.9408238804
 11
133.3641667895
 21
40.9408238804
  0
LINE
  5
22C
100
AcDbEntity
  8
0
100
AcDbLine
 62
253
  6
CONTINUOUS
 10
145.4261299263
 20
41.1020319762
 11
144.6104744213
 21
41.1020319762
  0
LINE
  5
22D
100
AcDbEntity
  8
0
100
AcDbLine
 62
253
  6
CONTINUOUS
 10
134.1261299263
 20
41.1020319762
 11
133.3104744213
 21
41.1020319762
  0
LINE
  5
22E
100
AcDbEntity
  8
0
100
AcDbLine
 62
253
  6
CONTINUOUS
 10
145.4308694309
 20
41.3150139493
 11
144.6057349168
 21
41.3150139493
  0
LINE
  5
22F
100
AcDbEntity
  8
0
100
AcDbLine
 62
253
  6
CONTINUOUS
 10
134.1308694309
 20
41.3150139493
 11
133.3057349168
 21
41.3150139493
  0
LINE
  5
230
100
AcDbEntity
  8
0
100
AcDbLine
 62
7
  6
CONTINUOUS
 10
135.0029011738
 20
42.6946331076
 11
135.4072811738
 21
42.6946331076
  0
LINE
  5
231
100
AcDbEntity
  8
0
100
AcDbLine
 62
7
  6
CONTINUOUS
 10
137.0396041738
 20
42.6946331076
 11
137.3458921738
 21
42.6946331076
  0
LINE
  5
232
100
AcDbEntity
  8
0
100
AcDbLine
 62
7
  6
CONTINUOUS
 10
139.0302053738
 20
42.7066269076
 11
139.3761109738
 21
42.7066269076
  0
LINE
  5
233
100
AcDbEntity
  8
0
100
AcDbLine
 62
7
  6
CONTINUOUS
 10
139.7708481738
 20
42.7066271076
 11
140.0771351738
 21
42.7066271076
  0
LINE
  5
234
100
AcDbEntity
  8
0
100
AcDbLine
 62
7
  6
CONTINUOUS
 10
141.4073661738
 20
42.7066271076
 11
141.8404891738
 21
42.7066271076
  0
LINE
  5
235
100
AcDbEntity
  8
0
100
AcDbLine
 62
7
  6
CONTINUOUS
 10
142.1562781738
 20
42.7066271076
 11
143.7955071738
 21
42.7066271076
  0
LINE
  5
236
100
AcDbEntity
  8
0
100
AcDbLine
 62
253
  6
CONTINUOUS
 10
133.2836745237
 20
40.6357838009
 11
133.0202506197
 21
40.6642737412
  0
LINE
  5
237
100
AcDbEntity
  8
0
100
AcDbLine
 62
253
  6
CONTINUOUS
 10
133.2802942875
 20
40.8064260588
 11
133.0281211973
 21
40.8337473108
  0
LINE
  5
238
100
AcDbEntity
  8
0
100
AcDbLine
 62
253
  6
CONTINUOUS
 10
133.0202506197
 20
40.6642737412
 11
132.8879971691
 21
40.6790380552
  0
LINE
  5
239
100
AcDbEntity
  8
0
100
AcDbLine
 62
253
  6
CONTINUOUS
 10
133.0281211973
 20
40.8337473108
 11
132.9014117119
 21
40.8478970405
  0
LWPOLYLINE
  5
23A
100
AcDbEntity
  8
0
100
AcDbPolyline
 62
253
  6
CONTINUOUS
 90
10
 70
0
 10
132.8879971698
 20
40.6790380616
 10
132.5417293597
 20
40.7196781677
 10
132.1957997037
 20
40.7634422937
 10
131.8502363836
 20
40.8103280198
 10
131.5050476014
 20
40.8603356415
 10
131.1602815328
 20
40.913459622
 10
130.8160260495
 20
40.9696867903
 10
130.4723288753
 20
41.0290085827
 10
130.1291978598
 20
41.091422846
 10
129.7866607385
 20
41.156924029
  0
LWPOLYLINE
  5
23B
100
AcDbEntity
  8
0
100
AcDbPolyline
 62
253
  6
CONTINUOUS
 90
10
 70
0
 10
132.9014117119
 20
40.8478970405
 10
132.5565067714
 20
40.8883746068
 10
132.2119718534
 20
40.9319610639
 10
131.8678057279
 20
40.9786568242
 10
131.5239503453
 20
41.0284706989
 10
131.1804613981
 20
41.0813947862
 10
130.837508307
 20
41.1374044665
 10
130.4951468147
 20
41.1964918854
 10
130.1533190056
 20
41.2586659577
 10
129.8120238549
 20
41.3239272528
  0
LWPOLYLINE
  5
23C
100
AcDbEntity
  8
0
100
AcDbPolyline
 62
253
  6
CONTINUOUS
 90
7
 70
0
 10
129.7866607383
 20
41.156924028
 10
129.6532913491
 20
41.1841560286
 10
129.521693279
 20
41.21320432
 10
129.3918855037
 20
41.2439992005
 10
129.2638850803
 20
41.2764715337
 10
129.1377071997
 20
41.3105527888
 10
129.0133652402
 20
41.3461750785
  0
LWPOLYLINE
  5
23D
100
AcDbEntity
  8
0
100
AcDbPolyline
 62
253
  6
CONTINUOUS
 90
7
 70
0
 10
129.8120238549
 20
41.3239272528
 10
129.6884578596
 20
41.3491909398
 10
129.5664507281
 20
41.3759423284
 10
129.4460019157
 20
41.4041815377
 10
129.3271108951
 20
41.4339086927
 10
129.2097771557
 20
41.4651239248
 10
129.0940002046
 20
41.4978273718
  0
LWPOLYLINE
  5
23E
100
AcDbEntity
  8
0
100
AcDbPolyline
 62
253
  6
CONTINUOUS
 90
7
 70
0
 10
128.1556167942
 20
41.8311172165
 10
127.9826245767
 20
41.9066422266
 10
127.8117716255
 20
41.9857988807
 10
127.6430554834
 20
42.0685879954
 10
127.4764738052
 20
42.1550104188
 10
127.3120243615
 20
42.2450670302
 10
127.1497050439
 20
42.3387587388
  0
LWPOLYLINE
  5
23F
100
AcDbEntity
  8
0
100
AcDbPolyline
 62
253
  6
CONTINUOUS
 90
7
 70
0
 10
128.0670958204
 20
41.6866639424
 10
127.8963658931
 20
41.7619060185
 10
127.7273682085
 20
41.8408256309
 10
127.5601814336
 20
41.9233818519
 10
127.3948832499
 20
42.009532085
 10
127.2315503182
 20
42.0992320893
 10
127.0702582442
 20
42.1924360041
  0
LWPOLYLINE
  5
240
100
AcDbEntity
  8
0
100
AcDbPolyline
 62
253
  6
CONTINUOUS
 90
7
 70
0
 10
127.0702582471
 20
172.5649282128
 10
127.2326876866
 20
172.6587727927
 10
127.3967249339
 20
172.74881729
 10
127.5622769495
 20
172.8350452959
 10
127.7292509784
 20
172.917442678
 10
127.8975546029
 20
172.9959975536
 10
128.0670957942
 20
173.0707002616
  0
LINE
  5
241
100
AcDbEntity
  8
0
100
AcDbLine
 62
253
  6
CONTINUOUS
 10
129.1602380206
 20
173.1349616298
 11
128.3236882106
 21
172.6519793718
  0
LINE
  5
242
100
AcDbEntity
  8
0
100
AcDbLine
 62
253
  6
CONTINUOUS
 10
127.3334187062
 20
172.0802470068
 11
126.4968688962
 21
171.5972647488
  0
LINE
  5
243
100
AcDbEntity
  8
0
100
AcDbLine
 62
253
  6
CONTINUOUS
 10
129.3587662145
 20
172.7615844015
 11
128.5445813404
 21
172.2915145453
  0
LINE
  5
244
100
AcDbEntity
  8
0
100
AcDbLine
 62
253
  6
CONTINUOUS
 10
127.5351438382
 20
171.7087155317
 11
126.7209589641
 21
171.2386456755
  0
LINE
  5
245
100
AcDbEntity
  8
0
100
AcDbLine
 62
7
  6
CONTINUOUS
 10
127.0692640682
 20
170.6812409908
 11
127.8486869316
 21
171.1312409908
  0
LINE
  5
246
100
AcDbEntity
  8
0
100
AcDbLine
 62
7
  6
CONTINUOUS
 10
128.8879174161
 20
171.7312409908
 11
129.6673402795
 21
172.1812409908
  0
LWPOLYLINE
  5
247
100
AcDbEntity
  8
0
100
AcDbPolyline
 62
253
  6
CONTINUOUS
 90
7
 70
0
 10
127.1497050443
 20
172.4186054766
 10
127.314115359
 20
172.5133515964
 10
127.4798189813
 20
172.6040407077
 10
127.646818328
 20
172.6906738362
 10
127.8151159449
 20
172.7732519691
 10
127.984714503
 20
172.8517760542
 10
128.1556167938
 20
172.9262469985
  0
LWPOLYLINE
  5
248
100
AcDbEntity
  8
0
100
AcDbPolyline
 62
7
  6
CONTINUOUS
 90
40
 70
0
 10
138.8334805738
 20
43.7407165076
 10
138.8843610522
 20
43.7544541612
 10
138.9339433945
 20
43.7715153041
 10
138.982227982
 20
43.7919000874
 10
139.0295379278
 20
43.8156540393
 10
139.0755508307
 20
43.8427320235
 10
139.1192986743
 20
43.8729982284
 10
139.1607636611
 20
43.9066260655
 10
139.199963926
 20
43.9434426707
 10
139.2359850395
 20
43.9827927856
 10
139.2686817727
 20
44.0247186292
 10
139.2981990979
 20
44.0691785224
 10
139.3240575426
 20
44.1153912282
 10
139.3461877567
 20
44.1634283817
 10
139.3646583714
 20
44.2132187765
 10
139.3791966323
 20
44.2637667039
 10
139.389732838
 20
44.3150126561
 10
139.3963356586
 20
44.3670163233
 10
139.3989397689
 20
44.4189605566
 10
139.3974698573
 20
44.4709945731
 10
139.3920001317
 20
44.5229691395
 10
139.3826895703
 20
44.5736191537
 10
139.3694879418
 20
44.622701183
 10
139.3524445628
 20
44.6704582898
 10
139.331867878
 20
44.7163548895
 10
139.3077498178
 20
44.7603779825
 10
139.2800978578
 20
44.8025401345
 10
139.2492439476
 20
44.8423440052
 10
139.2153280294
 20
44.8797109783
 10
139.1782099495
 20
44.9147192013
 10
139.1378016623
 20
44.9471064264
 10
139.094062667
 20
44.9769691527
 10
139.0470335188
 20
45.0042104748
 10
138.9967479087
 20
45.0282780048
 10
138.9432668513
 20
45.0491738573
 10
138.8865298319
 20
45.0668955611
 10
138.8263884724
 20
45.0808838264
 10
138.7627936856
 20
45.0909521385
 10
138.6957955946
 20
45.0972867851
 10
138.6253948134
 20
45.0998877076
  0
LINE
  5
249
100
AcDbEntity
  8
0
100
AcDbLine
 62
7
  6
CONTINUOUS
 10
133.2727214124
 20
43.8922240638
 11
134.1644955556
 21
43.8928366841
  0
LINE
  5
24A
100
AcDbEntity
  8
0
100
AcDbLine
 62
7
  6
CONTINUOUS
 10
137.6616813738
 20
44.7936005076
 11
138.31532808
 21
44.7949147601
  0
LINE
  5
24B
100
AcDbEntity
  8
0
100
AcDbLine
 62
7
  6
CONTINUOUS
 10
143.7955071738
 20
43.0129141076
 11
142.4625671738
 21
43.0129141076
  0
LINE
  5
24C
100
AcDbEntity
  8
0
100
AcDbLine
 62
7
  6
CONTINUOUS
 10
136.7173831738
 20
43.7188271076
 11
137.0396041738
 21
43.7188271076
  0
LINE
  5
24D
100
AcDbEntity
  8
0
100
AcDbLine
 62
7
  6
CONTINUOUS
 10
142.8080871738
 20
43.7259781076
 11
143.7337031738
 21
43.7259781076
  0
LINE
  5
24E
100
AcDbEntity
  8
0
100
AcDbLine
 62
7
  6
CONTINUOUS
 10
133.2946970486
 20
43.8702484276
 11
134.1419072991
 21
43.8702484276
  0
LINE
  5
24F
100
AcDbEntity
  8
0
100
AcDbLine
 62
7
  6
CONTINUOUS
 10
144.5946970486
 20
43.8702484276
 11
145.4419072991
 21
43.8702484276
  0
LINE
  5
250
100
AcDbEntity
  8
0
100
AcDbLine
 62
7
  6
CONTINUOUS
 10
137.0396041738
 20
44.0251141076
 11
136.7173831738
 21
44.0251141076
  0
LINE
  5
251
100
AcDbEntity
  8
0
100
AcDbLine
 62
7
  6
CONTINUOUS
 10
143.7337031738
 20
44.0313861076
 11
142.8080871738
 21
44.0313861076
  0
LINE
  5
252
100
AcDbEntity
  8
0
100
AcDbLine
 62
7
  6
CONTINUOUS
 10
142.4625671738
 20
44.7970471076
 11
143.7763791738
 21
44.7970471076
  0
LINE
  5
253
100
AcDbEntity
  8
0
100
AcDbLine
 62
7
  6
CONTINUOUS
 10
138.6253948134
 20
45.0998877076
 11
137.6616813738
 21
45.0998877076
  0
LINE
  5
254
100
AcDbEntity
  8
0
100
AcDbLine
 62
7
  6
CONTINUOUS
 10
137.3458921738
 20
45.0998881076
 11
137.0760891738
 21
45.0998881076
  0
LINE
  5
255
100
AcDbEntity
  8
0
100
AcDbLine
 62
7
  6
CONTINUOUS
 10
143.7763791738
 20
45.1033341076
 11
142.1562781738
 21
45.1033341076
  0
LINE
  5
256
100
AcDbEntity
  8
0
100
AcDbLine
 62
7
  6
CONTINUOUS
 10
140.0771351738
 20
45.1073341076
 11
139.7708481738
 21
45.1073341076
  0
LINE
  5
257
100
AcDbEntity
  8
0
100
AcDbLine
 62
7
  6
CONTINUOUS
 10
141.8432031738
 20
45.1118811076
 11
141.4100811738
 21
45.1118811076
  0
LINE
  5
258
100
AcDbEntity
  8
0
100
AcDbLine
 62
7
  6
CONTINUOUS
 10
142.6796061738
 20
45.3220901076
 11
143.1127471738
 21
45.3220901076
  0
LINE
  5
259
100
AcDbEntity
  8
0
100
AcDbLine
 62
7
  6
CONTINUOUS
 10
143.6557641738
 20
45.8651251076
 11
143.2226421738
 21
45.8651251076
  0
LINE
  5
25A
100
AcDbEntity
  8
0
100
AcDbLine
 62
7
  6
CONTINUOUS
 10
144.5721087921
 20
43.8928366841
 11
145.4638829353
 21
43.8922240638
  0
LINE
  5
25B
100
AcDbEntity
  8
0
100
AcDbLine
 62
7
  6
CONTINUOUS
 10
138.31532808
 20
44.7949147601
 11
138.6400781738
 21
44.7934525076
  0
LWPOLYLINE
  5
25C
100
AcDbEntity
  8
0
100
AcDbPolyline
 62
7
  6
CONTINUOUS
 90
6
 70
0
 10
138.5643755931
 20
44.0194068124
 10
138.4533750157
 20
44.0232074125
 10
138.4255514365
 20
44.0234622083
 10
138.3976062477
 20
44.0227596068
 10
138.3695727415
 20
44.0213419723
 10
138.3414509738
 20
44.0192093076
  0
LWPOLYLINE
  5
25D
100
AcDbEntity
  8
0
100
AcDbPolyline
 62
7
  6
CONTINUOUS
 90
19
 70
0
 10
138.6400781738
 20
44.7934525076
 10
138.6839765744
 20
44.791316222
 10
138.7257108624
 20
44.7870590802
 10
138.7652808215
 20
44.7806811049
 10
138.8026971312
 20
44.7721124828
 10
138.8379487511
 20
44.7614231082
 10
138.8710029422
 20
44.7488225773
 10
138.9018791671
 20
44.734296978
 10
138.9305577888
 20
44.717860354
 10
138.9569474945
 20
44.6997642332
 10
138.9810555783
 20
44.6799333226
 10
139.0028747432
 20
44.6584430778
 10
139.0222918756
 20
44.635771123
 10
139.0392362873
 20
44.6120047088
 10
139.0537788457
 20
44.5870567219
 10
139.0660188273
 20
44.561143207
 10
139.0759894114
 20
44.5343362167
 10
139.0836576777
 20
44.506563827
 10
139.0890237738
 20
44.4778261076
  0
LINE
  5
25E
100
AcDbEntity
  8
0
100
AcDbLine
 62
253
  6
CONTINUOUS
 10
126.4968688962
 20
43.1600994664
 11
127.3334187062
 21
42.6771172084
  0
LINE
  5
25F
100
AcDbEntity
  8
0
100
AcDbLine
 62
253
  6
CONTINUOUS
 10
128.3236882106
 20
42.1053848434
 11
129.1602380206
 21
41.6224025854
  0
LINE
  5
260
100
AcDbEntity
  8
0
100
AcDbLine
 62
253
  6
CONTINUOUS
 10
126.7209589641
 20
43.5187185397
 11
127.5351438382
 21
43.0486486835
  0
LINE
  5
261
100
AcDbEntity
  8
0
100
AcDbLine
 62
253
  6
CONTINUOUS
 10
128.5445813404
 20
42.4658496699
 11
129.3587662145
 21
41.9957798136
  0
LINE
  5
262
100
AcDbEntity
  8
0
100
AcDbLine
 62
7
  6
CONTINUOUS
 10
127.0692640682
 20
44.0761232243
 11
127.8486869316
 21
43.6261232243
  0
LINE
  5
263
100
AcDbEntity
  8
0
100
AcDbLine
 62
7
  6
CONTINUOUS
 10
128.8879174161
 20
43.0261232243
 11
129.6673402795
 21
42.5761232243
  0
LINE
  5
264
100
AcDbEntity
  8
0
100
AcDbLine
 62
7
  6
CONTINUOUS
 10
122.7610451653
 20
159.8385745619
 11
122.588799723
 21
159.7828174919
  0
LINE
  5
265
100
AcDbEntity
  8
0
100
AcDbLine
 62
7
  6
CONTINUOUS
 10
138.9683021738
 20
51.2786821076
 11
138.7570639792
 21
51.2258926695
  0
LWPOLYLINE
  5
266
100
AcDbEntity
  8
0
100
AcDbPolyline
 62
7
  6
CONTINUOUS
 90
7
 70
0
 10
155.9755591824
 20
54.9187896533
 10
155.9730204658
 20
54.9183369555
 10
155.9683268237
 20
54.9178947267
 10
155.9614782562
 20
54.9174629669
 10
155.9523607875
 20
54.9170376366
 10
155.9410883933
 20
54.9166227754
 10
155.9280030014
 20
54.9162305019
  0
LINE
  5
267
100
AcDbEntity
  8
0
100
AcDbLine
 62
253
  6
CONTINUOUS
 10
122.8683021738
 20
48.3951779724
 11
122.9528803234
 21
48.4068255605
  0
LWPOLYLINE
  5
268
100
AcDbEntity
  8
0
100
AcDbPolyline
 62
253
  6
CONTINUOUS
 90
13
 70
0
 10
123.1193450993
 20
48.4140400642
 10
123.0970661294
 20
48.4114418558
 10
123.0755024537
 20
48.4091388585
 10
123.0549398804
 20
48.4071615966
 10
123.0356509492
 20
48.405536277
 10
123.0178913186
 20
48.4042844419
 10
123.0018963775
 20
48.4034226834
 10
122.9878781256
 20
48.4029624234
 10
122.9760223629
 20
48.4029097622
 10
122.9664862275
 20
48.4032653978
 10
122.9593961129
 20
48.4040246166
 10
122.9548459927
 20
48.4051773557
 10
122.9528961748
 20
48.4067083365
  0
LINE
  5
269
100
AcDbEntity
  8
0
100
AcDbLine
 62
253
  6
CONTINUOUS
 10
120.8939070532
 20
48.4741425194
 11
122.2356735279
 21
48.6230140319
  0
LINE
  5
26A
100
AcDbEntity
  8
0
100
AcDbLine
 62
253
  6
CONTINUOUS
 10
120.5672894657
 20
52.4627830826
 11
121.9154003108
 21
52.5341774043
  0
LWPOLYLINE
  5
26B
100
AcDbEntity
  8
0
100
AcDbPolyline
 62
253
  6
CONTINUOUS
 90
25
 70
0
 10
140.8841340966
 20
51.3427489774
 10
140.9237004825
 20
51.3440964235
 10
140.9627603338
 20
51.3479445152
 10
141.0013138063
 20
51.3542932678
 10
141.0395140075
 20
51.3631888491
 10
141.0772081273
 20
51.3745851525
 10
141.1139374239
 20
51.3883437943
 10
141.1496993484
 20
51.4044973648
 10
141.1844966759
 20
51.4230133863
 10
141.2178786027
 20
51.4436558775
 10
141.2498240177
 20
51.4664505363
 10
141.2803541506
 20
51.4913718106
 10
141.3090816443
 20
51.5181068353
 10
141.3359846133
 20
51.54667907
 10
141.3610849373
 20
51.5770652116
 10
141.3840608379
 20
51.6088822266
 10
141.4048868263
 20
51.6421543291
 10
141.4235882629
 20
51.6768574481
 10
141.4399195788
 20
51.7125360837
 10
141.4538462972
 20
51.7491841211
 10
141.4654026636
 20
51.7868077797
 10
141.4744461485
 20
51.8249700118
 10
141.4809291396
 20
51.8635251432
 10
141.4848989545
 20
51.9026189004
 10
141.4863554391
 20
51.9422513129
  0
LINE
  5
26C
100
AcDbEntity
  8
0
100
AcDbLine
 62
7
  6
CONTINUOUS
 10
138.1579633678
 20
51.8786821076
 11
138.0649839135
 21
51.8755465991
  0
LWPOLYLINE
  5
26D
100
AcDbEntity
  8
0
100
AcDbPolyline
 62
253
  6
CONTINUOUS
 90
25
 70
0
 10
140.8810065846
 20
51.6661644406
 10
140.9006362549
 20
51.6667940088
 10
140.920180071
 20
51.6686989438
 10
140.939554777
 20
51.6718699395
 10
140.9586749423
 20
51.676291226
 10
140.977462494
 20
51.6819433963
 10
140.9958464323
 20
51.6888055797
 10
141.0137526344
 20
51.6968512929
 10
141.0310997547
 20
51.7060452683
 10
141.0478087844
 20
51.7163468846
 10
141.0638070204
 20
51.7277106857
 10
141.0790280109
 20
51.740088868
 10
141.0934069693
 20
51.7534298246
 10
141.1068827858
 20
51.7676766831
 10
141.1193976971
 20
51.7827682361
 10
141.1308975429
 20
51.7986407282
 10
141.1413343775
 20
51.8152281377
 10
141.1506622315
 20
51.8324575828
 10
141.1588378446
 20
51.8502498114
 10
141.1658238371
 20
51.8685173997
 10
141.1715967024
 20
51.8871918289
 10
141.1761377136
 20
51.9062201837
 10
141.1794245445
 20
51.9255310289
 10
141.1814370568
 20
51.9450330283
 10
141.1821626215
 20
51.9646425415
  0
LWPOLYLINE
  5
26E
100
AcDbEntity
  8
0
100
AcDbPolyline
 62
253
  6
CONTINUOUS
 90
19
 70
0
 10
137.2502489218
 20
51.9422513807
 10
137.2760732557
 20
51.9423733479
 10
137.3017385301
 20
51.9426604376
 10
137.3270544104
 20
51.9431105207
 10
137.351833153
 20
51.9437202593
 10
137.3758909976
 20
51.9444851316
 10
137.3990495303
 20
51.9453994652
 10
137.4211370064
 20
51.9464564795
 10
137.4419896244
 20
51.9476483356
 10
137.4614527402
 20
51.9489661946
 10
137.4793820147
 20
51.9504002832
 10
137.4956444835
 20
51.9519399662
 10
137.5101195436
 20
51.9535738251
 10
137.5226998472
 20
51.9552897433
 10
137.5332920985
 20
51.9570749955
 10
137.5418177446
 20
51.958916342
 10
137.5482135592
 20
51.9608001275
 10
137.5524321105
 20
51.9627123816
 10
137.5544421137
 20
51.9646389231
  0
LINE
  5
26F
100
AcDbEntity
  8
0
100
AcDbLine
 62
253
  6
CONTINUOUS
 10
140.282701558
 20
51.3425731777
 11
140.8841340966
 21
51.3427489774
  0
LINE
  5
270
100
AcDbEntity
  8
0
100
AcDbLine
 62
253
  6
CONTINUOUS
 10
139.9810503903
 20
51.6659338912
 11
140.8810065803
 21
51.6661644448
  0
LINE
  5
271
100
AcDbEntity
  8
0
100
AcDbLine
 62
253
  6
CONTINUOUS
 10
140.2814631053
 20
50.9014284828
 11
138.4551412424
 21
50.9014284828
  0
LINE
  5
272
100
AcDbEntity
  8
0
100
AcDbLine
 62
253
  6
CONTINUOUS
 10
139.9795403685
 20
51.2258926695
 11
138.7570639792
 21
51.2258926695
  0
LINE
  5
273
100
AcDbEntity
  8
0
100
AcDbLine
 62
7
  6
CONTINUOUS
 10
138.9683021738
 20
51.2786821076
 11
139.7683021738
 21
51.2786821076
  0
LINE
  5
274
100
AcDbEntity
  8
0
100
AcDbLine
 62
7
  6
CONTINUOUS
 10
140.5786409799
 20
51.8786821076
 11
139.7683021738
 21
51.8786821076
  0
LINE
  5
275
100
AcDbEntity
  8
0
100
AcDbLine
 62
7
  6
CONTINUOUS
 10
138.9683021738
 20
51.8786821076
 11
138.1579633678
 21
51.8786821076
  0
LINE
  5
276
100
AcDbEntity
  8
0
100
AcDbLine
 62
7
  6
CONTINUOUS
 10
140.5786409799
 20
52.2786821076
 11
138.1579633678
 21
52.2786821076
  0
LINE
  5
277
100
AcDbEntity
  8
0
100
AcDbLine
 62
7
  6
CONTINUOUS
 10
140.9822699498
 20
52.6821727218
 11
137.7543343979
 21
52.6821727218
  0
LINE
  5
278
100
AcDbEntity
  8
0
100
AcDbLine
 62
7
  6
CONTINUOUS
 10
141.1324297905
 20
52.7196983862
 11
140.2183021738
 21
52.7196983862
  0
LINE
  5
279
100
AcDbEntity
  8
0
100
AcDbLine
 62
7
  6
CONTINUOUS
 10
138.5183021738
 20
52.7196983862
 11
137.6041745572
 21
52.7196983862
  0
LINE
  5
27A
100
AcDbEntity
  8
0
100
AcDbLine
 62
7
  6
CONTINUOUS
 10
140.1871761339
 20
52.7352602209
 11
138.5494282138
 21
52.7352602209
  0
LINE
  5
27B
100
AcDbEntity
  8
0
100
AcDbLine
 62
253
  6
CONTINUOUS
 10
137.8524702511
 20
51.3427489774
 11
138.4539027897
 21
51.3425731777
  0
LINE
  5
27C
100
AcDbEntity
  8
0
100
AcDbLine
 62
253
  6
CONTINUOUS
 10
137.8556055718
 20
51.6661644424
 11
138.7555539574
 21
51.6659338912
  0
LWPOLYLINE
  5
27D
100
AcDbEntity
  8
0
100
AcDbPolyline
 62
253
  6
CONTINUOUS
 90
19
 70
0
 10
141.4863554391
 20
51.9422513129
 10
141.4605311159
 20
51.9423732851
 10
141.434865857
 20
51.9426603796
 10
141.4095499963
 20
51.9431104675
 10
141.3847712767
 20
51.9437202107
 10
141.3607134577
 20
51.9444850875
 10
141.3375549526
 20
51.9453994255
 10
141.3154675051
 20
51.9464564439
 10
141.2946149162
 20
51.947648304
 10
141.275151829
 20
51.9489661668
 10
141.2572225823
 20
51.950400259
 10
141.2409601395
 20
51.9519399454
 10
141.2264851034
 20
51.9535738077
 10
141.2139048209
 20
51.9552897291
 10
141.2033125877
 20
51.9570749842
 10
141.194786956
 20
51.9589163337
 10
141.1883911521
 20
51.960800122
 10
141.1841726073
 20
51.9627123789
 10
141.1821626064
 20
51.9646389231
  0
LINE
  5
27E
100
AcDbEntity
  8
0
100
AcDbLine
 62
7
  6
CONTINUOUS
 10
140.6716204342
 20
51.8755465991
 11
140.5786409799
 21
51.8786821076
  0
LINE
  5
27F
100
AcDbEntity
  8
0
100
AcDbLine
 62
253
  6
CONTINUOUS
 10
158.169314882
 20
52.4627830826
 11
156.8212040369
 21
52.5341774043
  0
LINE
  5
280
100
AcDbEntity
  8
0
100
AcDbLine
 62
253
  6
CONTINUOUS
 10
157.8426972945
 20
48.4741425194
 11
156.5009308198
 21
48.6230140319
  0
LWPOLYLINE
  5
281
100
AcDbEntity
  8
0
100
AcDbPolyline
 62
253
  6
CONTINUOUS
 90
13
 70
0
 10
155.6172592516
 20
48.4140400622
 10
155.639538032
 20
48.411441895
 10
155.6611015009
 20
48.4091389382
 10
155.6816638562
 20
48.4071617152
 10
155.7009525646
 20
48.4055364321
 10
155.7187119738
 20
48.4042846303
 10
155.7347067008
 20
48.4034229012
 10
155.7487247518
 20
48.402962666
 10
155.7605803319
 20
48.4029100247
 10
155.7701163077
 20
48.403265675
 10
155.7772062897
 20
48.404024903
 10
155.7817563074
 20
48.4051776459
 10
155.7837060552
 20
48.4067086253
  0
LINE
  5
282
100
AcDbEntity
  8
0
100
AcDbLine
 62
253
  6
CONTINUOUS
 10
155.8683021738
 20
48.3951779724
 11
155.7837258262
 21
48.4068389037
  0
LWPOLYLINE
  5
283
100
AcDbEntity
  8
0
100
AcDbPolyline
 62
7
  6
CONTINUOUS
 90
8
 70
0
 10
122.588799723
 20
54.9745467232
 10
122.5868085669
 20
54.9749120086
 10
122.5830824299
 20
54.9752702163
 10
122.5776213121
 20
54.9756213462
 10
122.5703326026
 20
54.9759690358
 10
122.5613089123
 20
54.9763096478
 10
122.5508280735
 20
54.9766322697
 10
122.525518365
 20
54.9772190277
  0
LINE
  5
284
100
AcDbEntity
  8
0
100
AcDbLine
 62
7
  6
CONTINUOUS
 10
139.7683021738
 20
51.2786821076
 11
139.9795403685
 21
51.2258926695
  0
LWPOLYLINE
  5
285
100
AcDbEntity
  8
0
100
AcDbPolyline
 62
7
  6
CONTINUOUS
 90
9
 70
0
 10
122.3896471471
 20
54.8861416534
 10
122.390839755
 20
54.8858187075
 10
122.3936897872
 20
54.8855029106
 10
122.3981972437
 20
54.8851942627
 10
122.4044601758
 20
54.8848892187
 10
122.4123805322
 20
54.8845913236
 10
122.4216641588
 20
54.8843112127
 10
122.4322728404
 20
54.8840513208
 10
122.4574005054
 20
54.8835882195
  0
LINE
  5
286
100
AcDbEntity
  8
0
100
AcDbLine
 62
7
  6
CONTINUOUS
 10
122.588799723
 20
54.9745467232
 11
122.7610451653
 21
54.9187896533
  0
LWPOLYLINE
  5
287
100
AcDbEntity
  8
0
100
AcDbPolyline
 62
253
  6
CONTINUOUS
 90
22
 70
0
 10
126.2414408055
 20
42.7513292274
 10
125.9919560999
 20
42.9491114853
 10
125.750060161
 20
43.1559861303
 10
125.516082501
 20
43.3716598822
 10
125.290387026
 20
43.5957792003
 10
125.0732305692
 20
43.8280725911
 10
124.8647807631
 20
44.0683677265
 10
124.665310846
 20
44.3163736875
 10
124.4751356602
 20
44.5717238331
 10
124.294490522
 20
44.8341350407
 10
124.1236083009
 20
45.1033140909
 10
123.9627852518
 20
45.3788412318
 10
123.8123263816
 20
45.6602249102
 10
123.6725636608
 20
45.9468255046
 10
123.5435628106
 20
46.2384872758
 10
123.4252657213
 20
46.5354559736
 10
123.3178320618
 20
46.8375980669
 10
123.2215950351
 20
47.1442712454
 10
123.1367967703
 20
47.4549681112
 10
123.0636354157
 20
47.7692328827
 10
123.0022767266
 20
48.0866657723
 10
122.9528803234
 20
48.4068255605
  0
LWPOLYLINE
  5
288
100
AcDbEntity
  8
0
100
AcDbPolyline
 62
253
  6
CONTINUOUS
 90
22
 70
0
 10
126.3294606933
 20
42.8921903421
 10
126.0853968766
 20
43.086093293
 10
125.8493712414
 20
43.2882403535
 10
125.621381865
 20
43.4986356982
 10
125.4011787376
 20
43.717550919
 10
125.1890109535
 20
43.9447231327
 10
124.9856275324
 20
44.1793544341
 10
124.7910292264
 20
44.4215002571
 10
124.6052222832
 20
44.6711131414
 10
124.4289668839
 20
44.9272397882
 10
124.2622799199
 20
45.1899681491
 10
124.105158963
 20
45.4592170719
 10
123.9583378285
 20
45.7337781742
 10
123.8219536171
 20
46.0134284765
 10
123.6958903966
 20
46.2983958405
 10
123.5805043789
 20
46.5881469271
 10
123.4757207767
 20
46.8829530205
 10
123.3816411069
 20
47.1825469062
 10
123.2988873536
 20
47.4855861664
 10
123.2276772112
 20
47.7916235397
 10
123.1678242179
 20
48.1011079023
 10
123.1193450995
 20
48.4140400643
  0
LINE
  5
289
100
AcDbEntity
  8
0
100
AcDbLine
 62
7
  6
CONTINUOUS
 10
133.3683021738
 20
174.2156030225
 11
133.2836745789
 21
174.1215804151
  0
LINE
  5
28A
100
AcDbEntity
  8
0
100
AcDbLine
 62
7
  6
CONTINUOUS
 10
133.2946970486
 20
170.8871157875
 11
133.2727214124
 21
170.8651401513
  0
LINE
  5
28B
100
AcDbEntity
  8
0
100
AcDbLine
 62
7
  6
CONTINUOUS
 10
122.2925408457
 20
159.7786821076
 11
122.3896471471
 21
159.8712225618
  0
LINE
  5
28C
100
AcDbEntity
  8
0
100
AcDbLine
 62
7
  6
CONTINUOUS
 10
140.2183021738
 20
162.037665829
 11
140.1871761339
 21
162.0221039943
  0
LINE
  5
28D
100
AcDbEntity
  8
0
100
AcDbLine
 62
7
  6
CONTINUOUS
 10
153.7658921738
 20
60.2627371076
 11
154.9359611738
 21
60.5867611076
  0
LINE
  5
28E
100
AcDbEntity
  8
0
100
AcDbLine
 62
7
  6
CONTINUOUS
 10
140.9822699498
 20
52.6821727218
 11
141.1324297905
 21
52.7196983862
  0
LINE
  5
28F
100
AcDbEntity
  8
0
100
AcDbLine
 62
253
  6
CONTINUOUS
 10
122.3319282224
 20
54.1731064376
 11
122.4237371433
 21
54.1776784966
  0
LWPOLYLINE
  5
290
100
AcDbEntity
  8
0
100
AcDbPolyline
 62
253
  6
CONTINUOUS
 90
13
 70
0
 10
122.5902152721
 20
54.1756789238
 10
122.567775271
 20
54.1748554195
 10
122.5460747053
 20
54.1742011122
 10
122.5254017335
 20
54.1737246905
 10
122.5060308686
 20
54.1734324805
 10
122.4882193331
 20
54.1733283625
 10
122.4722036435
 20
54.1734137192
 10
122.4581964696
 20
54.1736874169
 10
122.4463838104
 20
54.1741458215
 10
122.4369225243
 20
54.1747828457
 10
122.4299382461
 20
54.1755900306
 10
122.425523719
 20
54.1765566578
 10
122.4237375627
 20
54.1776698916
  0
LWPOLYLINE
  5
291
100
AcDbEntity
  8
0
100
AcDbPolyline
 62
253
  6
CONTINUOUS
 90
13
 70
0
 10
122.4892914598
 20
56.3315295716
 10
122.4668637338
 20
56.3307257046
 10
122.4451784823
 20
56.330052127
 10
122.4245234217
 20
56.3295177755
 10
122.4051726001
 20
56.3291297399
 10
122.387382761
 20
56.3288931687
 10
122.3713899371
 20
56.3288112005
 10
122.3574063186
 20
56.3288849229
 10
122.3456174378
 20
56.3291133578
 10
122.3361797078
 20
56.3294934744
 10
122.3292183468
 20
56.3300202292
 10
122.324825717
 20
56.3306866335
 10
122.3230600992
 20
56.3314838455
  0
LWPOLYLINE
  5
292
100
AcDbEntity
  8
0
100
AcDbPolyline
 62
7
  6
CONTINUOUS
 90
25
 70
0
 10
149.8183021738
 20
56.3663913077
 10
149.8717418238
 20
56.3681197469
 10
149.924602509
 20
56.3732942812
 10
149.9768843091
 20
56.3819149107
 10
150.0288958898
 20
56.3940836783
 10
150.0803286937
 20
56.4096985411
 10
150.1302572542
 20
56.4284533704
 10
150.1784775951
 20
56.4503074258
 10
150.2251944823
 20
56.4753014478
 10
150.2700959356
 20
56.5032515282
 10
150.3132993577
 20
56.5342615973
 10
150.3546882317
 20
56.5682277248
 10
150.3935999545
 20
56.6046542118
 10
150.4299763245
 20
56.6435976794
 10
150.4638767136
 20
56.6850015065
 10
150.4948151255
 20
56.7282001304
 10
150.5226890094
 20
56.7730785084
 10
150.5476020781
 20
56.8197516833
 10
150.5693777966
 20
56.8678992209
 10
150.5880549616
 20
56.9177262763
 10
150.6035956405
 20
56.9690276946
 10
150.6157081716
 20
57.0208675767
 10
150.6242955131
 20
57.0729339564
 10
150.6294552073
 20
57.1255388
 10
150.6311873786
 20
57.1786821076
  0
LWPOLYLINE
  5
293
100
AcDbEntity
  8
0
100
AcDbPolyline
 62
7
  6
CONTINUOUS
 90
7
 70
0
 10
137.503917547
 20
54.8659403389
 10
137.516391777
 20
54.8663327308
 10
137.526895059
 20
54.866743288
 10
137.5353053202
 20
54.8671652274
 10
137.5415818695
 20
54.8675962881
 10
137.5457653981
 20
54.868038731
 10
137.5478559058
 20
54.8684925562
  0
LWPOLYLINE
  5
294
100
AcDbEntity
  8
0
100
AcDbPolyline
 62
7
  6
CONTINUOUS
 90
7
 70
0
 10
122.5000496774
 20
55.6807315629
 10
122.5104790525
 20
55.6810542028
 10
122.5194505661
 20
55.6813948611
 10
122.5266868296
 20
55.6817426117
 10
122.5320953802
 20
55.6820938127
 10
122.5357686808
 20
55.6824521061
 10
122.5377067313
 20
55.6828174919
  0
LWPOLYLINE
  5
295
100
AcDbEntity
  8
0
100
AcDbPolyline
 62
7
  6
CONTINUOUS
 90
7
 70
0
 10
156.1857762742
 20
54.9766322697
 10
156.1752954354
 20
54.9763096478
 10
156.1662717451
 20
54.9759690358
 10
156.1589830356
 20
54.9756213462
 10
156.1535219178
 20
54.9752702163
 10
156.1497957808
 20
54.9749120086
 10
156.1478046247
 20
54.9745467232
  0
LWPOLYLINE
  5
296
100
AcDbEntity
  8
0
100
AcDbPolyline
 62
7
  6
CONTINUOUS
 90
7
 70
0
 10
156.3149438002
 20
54.8843113101
 10
156.3242265718
 20
54.8845914117
 10
156.3321459193
 20
54.8848892901
 10
156.3384080365
 20
54.8851943164
 10
156.3429149882
 20
54.8855029475
 10
156.3457647095
 20
54.8858187265
 10
156.3469572006
 20
54.8861416534
  0
LWPOLYLINE
  5
297
100
AcDbEntity
  8
0
100
AcDbPolyline
 62
7
  6
CONTINUOUS
 90
7
 70
0
 10
122.3802259424
 20
55.7737474478
 10
122.3709678707
 20
55.7734669612
 10
122.3630731793
 20
55.7731686509
 10
122.3568364164
 20
55.772863141
 10
122.3523557646
 20
55.7725539729
 10
122.3495330413
 20
55.7722376052
 10
122.3483682464
 20
55.771914038
  0
LINE
  5
298
100
AcDbEntity
  8
0
100
AcDbLine
 62
7
  6
CONTINUOUS
 10
137.4728654237
 20
54.8652076294
 11
137.503917547
 21
54.8659403389
  0
LINE
  5
299
100
AcDbEntity
  8
0
100
AcDbLine
 62
7
  6
CONTINUOUS
 10
122.4748406591
 20
55.6801448764
 11
122.5000496774
 21
55.6807315629
  0
LINE
  5
29A
100
AcDbEntity
  8
0
100
AcDbLine
 62
7
  6
CONTINUOUS
 10
156.2110859827
 20
54.9772190277
 11
156.1857762742
 21
54.9766322697
  0
LINE
  5
29B
100
AcDbEntity
  8
0
100
AcDbLine
 62
7
  6
CONTINUOUS
 10
122.7481108351
 20
55.7408923464
 11
122.7794159519
 21
55.7416026376
  0
LINE
  5
29C
100
AcDbEntity
  8
0
100
AcDbLine
 62
7
  6
CONTINUOUS
 10
155.9280030014
 20
54.9162305019
 11
155.8964852305
 21
54.9155188267
  0
LINE
  5
29D
100
AcDbEntity
  8
0
100
AcDbLine
 62
7
  6
CONTINUOUS
 10
156.2923641461
 20
54.8838092988
 11
156.3149438002
 21
54.8843113101
  0
LINE
  5
29E
100
AcDbEntity
  8
0
100
AcDbLine
 62
7
  6
CONTINUOUS
 10
122.402755644
 20
55.7742500739
 11
122.3802259424
 21
55.7737474478
  0
LINE
  5
29F
100
AcDbEntity
  8
0
100
AcDbLine
 62
7
  6
CONTINUOUS
 10
156.2414965606
 20
54.9777214075
 11
156.2110859827
 21
54.9772190277
  0
LINE
  5
2A0
100
AcDbEntity
  8
0
100
AcDbLine
 62
7
  6
CONTINUOUS
 10
137.4350814689
 20
54.8645800438
 11
137.4728654237
 21
54.8652076294
  0
LINE
  5
2A1
100
AcDbEntity
  8
0
100
AcDbLine
 62
7
  6
CONTINUOUS
 10
122.4445277449
 20
55.6796426232
 11
122.4748406591
 21
55.6801448764
  0
LINE
  5
2A2
100
AcDbEntity
  8
0
100
AcDbLine
 62
7
  6
CONTINUOUS
 10
122.7794159519
 20
55.7416026376
 11
122.8174984612
 21
55.7422109465
  0
LINE
  5
2A3
100
AcDbEntity
  8
0
100
AcDbLine
 62
7
  6
CONTINUOUS
 10
155.8964852305
 20
54.9155188267
 11
155.8581849709
 21
54.9149096003
  0
LINE
  5
2A4
100
AcDbEntity
  8
0
100
AcDbLine
 62
7
  6
CONTINUOUS
 10
122.4303133091
 20
55.7746724085
 11
122.402755644
 21
55.7742500739
  0
LINE
  5
2A5
100
AcDbEntity
  8
0
100
AcDbLine
 62
7
  6
CONTINUOUS
 10
156.2647556279
 20
54.8833874742
 11
156.2923641461
 21
54.8838092988
  0
LINE
  5
2A6
100
AcDbEntity
  8
0
100
AcDbLine
 62
7
  6
CONTINUOUS
 10
122.3905307645
 20
55.6790674565
 11
122.4445277449
 21
55.6796426232
  0
LINE
  5
2A7
100
AcDbEntity
  8
0
100
AcDbLine
 62
7
  6
CONTINUOUS
 10
156.2956259911
 20
54.9782967438
 11
156.2414965606
 21
54.9777214075
  0
LINE
  5
2A8
100
AcDbEntity
  8
0
100
AcDbLine
 62
7
  6
CONTINUOUS
 10
137.3685309895
 20
54.863876836
 11
137.4350814689
 21
54.8645800438
  0
LINE
  5
2A9
100
AcDbEntity
  8
0
100
AcDbLine
 62
7
  6
CONTINUOUS
 10
155.8581849709
 20
54.9149096003
 11
155.7905553957
 21
54.9142242171
  0
LINE
  5
2AA
100
AcDbEntity
  8
0
100
AcDbLine
 62
7
  6
CONTINUOUS
 10
122.8174984612
 20
55.7422109465
 11
122.884817761
 21
55.7428960114
  0
LINE
  5
2AB
100
AcDbEntity
  8
0
100
AcDbLine
 62
7
  6
CONTINUOUS
 10
156.2160302386
 20
54.8829321105
 11
156.2647556279
 21
54.8833874742
  0
LINE
  5
2AC
100
AcDbEntity
  8
0
100
AcDbLine
 62
7
  6
CONTINUOUS
 10
122.478964203
 20
55.7751284366
 11
122.4303133091
 21
55.7746724085
  0
LINE
  5
2AD
100
AcDbEntity
  8
0
100
AcDbLine
 62
7
  6
CONTINUOUS
 10
155.7905553957
 20
54.9142242171
 11
155.7408573539
 21
54.9139474857
  0
LINE
  5
2AE
100
AcDbEntity
  8
0
100
AcDbLine
 62
7
  6
CONTINUOUS
 10
122.884817761
 20
55.7428960114
 11
122.9343386904
 21
55.7431732889
  0
LINE
  5
2AF
100
AcDbEntity
  8
0
100
AcDbLine
 62
7
  6
CONTINUOUS
 10
156.3565853495
 20
54.9786212219
 11
156.2956259911
 21
54.9782967438
  0
LINE
  5
2B0
100
AcDbEntity
  8
0
100
AcDbLine
 62
7
  6
CONTINUOUS
 10
122.3296663432
 20
55.6787430077
 11
122.3905307645
 21
55.6790674565
  0
LINE
  5
2B1
100
AcDbEntity
  8
0
100
AcDbLine
 62
7
  6
CONTINUOUS
 10
137.2950650687
 20
54.8635008542
 11
137.3685309895
 21
54.863876836
  0
LINE
  5
2B2
100
AcDbEntity
  8
0
100
AcDbLine
 62
7
  6
CONTINUOUS
 10
153.0744027267
 20
54.8749886395
 11
156.2160302386
 21
54.8829321105
  0
LINE
  5
2B3
100
AcDbEntity
  8
0
100
AcDbLine
 62
7
  6
CONTINUOUS
 10
126.6938439786
 20
55.785179108
 11
122.478964203
 21
55.7751284366
  0
LINE
  5
2B4
100
AcDbEntity
  8
0
100
AcDbLine
 62
7
  6
CONTINUOUS
 10
146.0363960762
 20
54.8658398527
 11
153.0744027267
 21
54.8749886395
  0
LINE
  5
2B5
100
AcDbEntity
  8
0
100
AcDbLine
 62
7
  6
CONTINUOUS
 10
146.8683021738
 20
54.8966433024
 11
141.1324297905
 21
54.8966433024
  0
LINE
  5
2B6
100
AcDbEntity
  8
0
100
AcDbLine
 62
7
  6
CONTINUOUS
 10
140.2183021738
 20
54.8966433024
 11
138.5183021738
 21
54.8966433024
  0
LINE
  5
2B7
100
AcDbEntity
  8
0
100
AcDbLine
 62
7
  6
CONTINUOUS
 10
137.6041745572
 20
54.8966433024
 11
131.8683021738
 21
54.8966433024
  0
LINE
  5
2B8
100
AcDbEntity
  8
0
100
AcDbLine
 62
7
  6
CONTINUOUS
 10
156.3565853495
 20
54.9786212219
 11
156.444063502
 21
54.9786821076
  0
LINE
  5
2B9
100
AcDbEntity
  8
0
100
AcDbLine
 62
7
  6
CONTINUOUS
 10
122.3296663432
 20
55.6787430077
 11
122.2593779932
 21
55.6786821076
  0
LINE
  5
2BA
100
AcDbEntity
  8
0
100
AcDbLine
 62
7
  6
CONTINUOUS
 10
152.0125332435
 20
55.6786821076
 11
156.4772263545
 21
55.6786821076
  0
LINE
  5
2BB
100
AcDbEntity
  8
0
100
AcDbLine
 62
253
  6
CONTINUOUS
 10
126.693394543
 20
56.3315295716
 11
122.4892915377
 21
56.3315278359
  0
LINE
  5
2BC
100
AcDbEntity
  8
0
100
AcDbLine
 62
253
  6
CONTINUOUS
 10
152.0432098046
 20
56.3315295716
 11
156.2473128012
 21
56.3315276428
  0
LINE
  5
2BD
100
AcDbEntity
  8
0
100
AcDbLine
 62
7
  6
CONTINUOUS
 10
146.8683021738
 20
56.3673371795
 11
131.8683021738
 21
56.3673371795
  0
LINE
  5
2BE
100
AcDbEntity
  8
0
100
AcDbLine
 62
7
  6
CONTINUOUS
 10
128.9183021738
 20
56.3786821076
 11
149.8183021738
 21
56.3786821076
  0
LINE
  5
2BF
100
AcDbEntity
  8
0
100
AcDbLine
 62
253
  6
CONTINUOUS
 10
150.6311873786
 20
57.1786821076
 11
150.6183021738
 21
57.1786821076
  0
LINE
  5
2C0
100
AcDbEntity
  8
0
100
AcDbLine
 62
253
  6
CONTINUOUS
 10
128.1054169691
 20
57.1786821076
 11
128.1183021738
 21
57.1786821076
  0
LINE
  5
2C1
100
AcDbEntity
  8
0
100
AcDbLine
 62
7
  6
CONTINUOUS
 10
138.5517405642
 20
54.8632049121
 11
140.1848637835
 21
54.8632049121
  0
LINE
  5
2C2
100
AcDbEntity
  8
0
100
AcDbLine
 62
7
  6
CONTINUOUS
 10
132.7002037634
 20
54.8658398563
 11
137.2950650687
 21
54.8635008542
  0
LINE
  5
2C3
100
AcDbEntity
  8
0
100
AcDbLine
 62
7
  6
CONTINUOUS
 10
141.4166128925
 20
54.8635887373
 11
146.0363960762
 21
54.8658398527
  0
LINE
  5
2C4
100
AcDbEntity
  8
0
100
AcDbLine
 62
7
  6
CONTINUOUS
 10
122.5380279422
 20
54.8828361455
 11
132.7002037634
 21
54.8658398563
  0
LINE
  5
2C5
100
AcDbEntity
  8
0
100
AcDbLine
 62
7
  6
CONTINUOUS
 10
122.4005108531
 20
54.9785447411
 11
122.2925408457
 21
54.9786821076
  0
LINE
  5
2C6
100
AcDbEntity
  8
0
100
AcDbLine
 62
7
  6
CONTINUOUS
 10
122.9957469939
 20
54.9139474857
 11
122.9226660131
 21
54.9144155523
  0
LINE
  5
2C7
100
AcDbEntity
  8
0
100
AcDbLine
 62
7
  6
CONTINUOUS
 10
141.3450032247
 20
54.8640747662
 11
141.4166128925
 21
54.8635887373
  0
LINE
  5
2C8
100
AcDbEntity
  8
0
100
AcDbLine
 62
7
  6
CONTINUOUS
 10
122.4600829769
 20
54.9781311471
 11
122.4005108531
 21
54.9785447411
  0
LINE
  5
2C9
100
AcDbEntity
  8
0
100
AcDbLine
 62
7
  6
CONTINUOUS
 10
122.4874913257
 20
54.8832077112
 11
122.5380279422
 21
54.8828361455
  0
LINE
  5
2CA
100
AcDbEntity
  8
0
100
AcDbLine
 62
7
  6
CONTINUOUS
 10
122.9226660131
 20
54.9144155523
 11
122.8784173445
 21
54.9149096307
  0
LINE
  5
2CB
100
AcDbEntity
  8
0
100
AcDbLine
 62
7
  6
CONTINUOUS
 10
141.3015228794
 20
54.8645800438
 11
141.3450032247
 21
54.8640747662
  0
LINE
  5
2CC
100
AcDbEntity
  8
0
100
AcDbLine
 62
7
  6
CONTINUOUS
 10
122.495107787
 20
54.9777214075
 11
122.4600829769
 21
54.9781311471
  0
LINE
  5
2CD
100
AcDbEntity
  8
0
100
AcDbLine
 62
7
  6
CONTINUOUS
 10
122.4574005054
 20
54.8835882195
 11
122.4874913257
 21
54.8832077112
  0
LINE
  5
2CE
100
AcDbEntity
  8
0
100
AcDbLine
 62
7
  6
CONTINUOUS
 10
122.8784173445
 20
54.9149096307
 11
122.8401183039
 21
54.915518838
  0
LINE
  5
2CF
100
AcDbEntity
  8
0
100
AcDbLine
 62
7
  6
CONTINUOUS
 10
122.525518365
 20
54.9772190277
 11
122.495107787
 21
54.9777214075
  0
LINE
  5
2D0
100
AcDbEntity
  8
0
100
AcDbLine
 62
7
  6
CONTINUOUS
 10
141.2637389233
 20
54.8652076294
 11
141.3015228794
 21
54.8645800438
  0
LWPOLYLINE
  5
2D1
100
AcDbEntity
  8
0
100
AcDbPolyline
 62
7
  6
CONTINUOUS
 90
8
 70
0
 10
122.8401183039
 20
54.915518838
 10
122.8086030875
 20
54.9162304547
 10
122.7955183816
 20
54.9166226858
 10
122.7842463993
 20
54.9170375014
 10
122.7751289097
 20
54.9174628146
 10
122.7682798356
 20
54.9178945965
 10
122.7635852542
 20
54.9183368761
 10
122.7610451653
 20
54.9187896533
  0
LWPOLYLINE
  5
2D2
100
AcDbEntity
  8
0
100
AcDbPolyline
 62
253
  6
CONTINUOUS
 90
13
 70
0
 10
156.2473128878
 20
56.3315295716
 10
156.269740614
 20
56.3307257046
 10
156.2914258656
 20
56.3300521269
 10
156.3120809262
 20
56.3295177755
 10
156.331431748
 20
56.3291297399
 10
156.3492215872
 20
56.3288931686
 10
156.3652144113
 20
56.3288112004
 10
156.3791980299
 20
56.3288849229
 10
156.3909869108
 20
56.3291133578
 10
156.4004246409
 20
56.3294934743
 10
156.407386002
 20
56.3300202292
 10
156.4117786319
 20
56.3306866335
 10
156.4135442498
 20
56.3314838454
  0
LWPOLYLINE
  5
2D3
100
AcDbEntity
  8
0
100
AcDbPolyline
 62
253
  6
CONTINUOUS
 90
13
 70
0
 10
156.1463890757
 20
54.1756789238
 10
156.1688290759
 20
54.1748554196
 10
156.1905296405
 20
54.1742011124
 10
156.2112026112
 20
54.1737246907
 10
156.2305734751
 20
54.1734324808
 10
156.2483850095
 20
54.1733283629
 10
156.2644006979
 20
54.1734137196
 10
156.2784078708
 20
54.1736874174
 10
156.2902205291
 20
54.174145822
 10
156.2996818144
 20
54.1747828462
 10
156.3066660919
 20
54.1755900311
 10
156.3110806185
 20
54.1765566583
 10
156.3128667744
 20
54.1776698921
  0
LINE
  5
2D4
100
AcDbEntity
  8
0
100
AcDbLine
 62
253
  6
CONTINUOUS
 10
156.4046761253
 20
54.1731064376
 11
156.3128672052
 21
54.1776785137
  0
LWPOLYLINE
  5
2D5
100
AcDbEntity
  8
0
100
AcDbPolyline
 62
7
  6
CONTINUOUS
 90
8
 70
0
 10
141.1887484419
 20
54.8684925562
 10
141.1908389494
 20
54.8680387311
 10
141.1950224778
 20
54.8675962881
 10
141.2012990269
 20
54.8671652274
 10
141.2097092878
 20
54.866743288
 10
141.2202125695
 20
54.8663327308
 10
141.2326867994
 20
54.865940339
 10
141.2637389233
 20
54.8652076294
  0
LINE
  5
2D6
100
AcDbEntity
  8
0
100
AcDbLine
 62
7
  6
CONTINUOUS
 10
137.7543343979
 20
52.6821727218
 11
137.6041745572
 21
52.7196983862
  0
LINE
  5
2D7
100
AcDbEntity
  8
0
100
AcDbLine
 62
7
  6
CONTINUOUS
 10
124.8683021738
 20
60.7522581076
 11
123.5245091738
 21
61.2023491076
  0
LINE
  5
2D8
100
AcDbEntity
  8
0
100
AcDbLine
 62
7
  6
CONTINUOUS
 10
123.2683021738
 20
61.1043311076
 11
124.6275311738
 21
60.6474891076
  0
LWPOLYLINE
  5
2D9
100
AcDbEntity
  8
0
100
AcDbPolyline
 62
7
  6
CONTINUOUS
 90
5
 70
0
 10
139.9795403685
 20
51.2258926695
 10
139.9796585375
 20
51.2258440315
 10
139.9797766497
 20
51.2257572596
 10
139.9798947051
 20
51.2256323537
 10
139.9800127172
 20
51.2254692922
  0
LINE
  5
2DA
100
AcDbEntity
  8
0
100
AcDbLine
 62
7
  6
CONTINUOUS
 10
140.2183021738
 20
52.7196983862
 11
140.1871761339
 21
52.7352602209
  0
LINE
  5
2DB
100
AcDbEntity
  8
0
100
AcDbLine
 62
7
  6
CONTINUOUS
 10
122.2925408457
 20
54.9786821076
 11
122.3896471471
 21
54.8861416534
  0
LINE
  5
2DC
100
AcDbEntity
  8
0
100
AcDbLine
 62
7
  6
CONTINUOUS
 10
133.2946970486
 20
43.8702484276
 11
133.2727214124
 21
43.8922240638
  0
LINE
  5
2DD
100
AcDbEntity
  8
0
100
AcDbLine
 62
7
  6
CONTINUOUS
 10
133.3683021738
 20
40.5417611927
 11
133.2836745787
 21
40.6357838017
  0
LINE
  5
2DE
100
AcDbEntity
  8
0
100
AcDbLine
 62
7
  6
CONTINUOUS
 10
126.7240711042
 20
159.0024122328
 11
126.6938439786
 21
158.9721851072
  0
LINE
  5
2DF
100
AcDbEntity
  8
0
100
AcDbLine
 62
7
  6
CONTINUOUS
 10
144.6683021738
 20
174.2845398226
 11
144.5833053657
 21
174.2069764636
  0
LINE
  5
2E0
100
AcDbEntity
  8
0
100
AcDbLine
 62
7
  6
CONTINUOUS
 10
125.4813911738
 20
153.5034241076
 11
125.2600871738
 21
153.3792131076
  0
LINE
  5
2E1
100
AcDbEntity
  8
0
100
AcDbLine
 62
7
  6
CONTINUOUS
 10
141.1887484419
 20
159.8888716589
 11
141.1324297905
 21
159.8607209128
  0
LINE
  5
2E2
100
AcDbEntity
  8
0
100
AcDbLine
 62
7
  6
CONTINUOUS
 10
156.1988976163
 20
159.0745467232
 11
156.0355357651
 21
159.0190264586
  0
LWPOLYLINE
  5
2E3
100
AcDbEntity
  8
0
100
AcDbPolyline
 62
7
  6
CONTINUOUS
 90
6
 70
0
 10
155.2838050164
 20
66.0782843061
 10
155.167580023
 20
66.0454707037
 10
155.1112746332
 20
66.0289102692
 10
155.05633203
 20
66.011726268
 10
155.002674127
 20
65.9941792739
 10
154.9503014578
 20
65.976269288
  0
LINE
  5
2E4
100
AcDbEntity
  8
0
100
AcDbLine
 62
7
  6
CONTINUOUS
 10
155.4657551738
 20
64.7564871076
 11
155.1264021738
 21
64.6645681076
  0
LINE
  5
2E5
100
AcDbEntity
  8
0
100
AcDbLine
 62
7
  6
CONTINUOUS
 10
155.00574754
 20
66.3514487157
 11
155.1626658552
 21
66.3933089543
  0
LINE
  5
2E6
100
AcDbEntity
  8
0
100
AcDbLine
 62
7
  6
CONTINUOUS
 10
155.1626658552
 20
66.3933089543
 11
155.4657555491
 21
66.4727302147
  0
LINE
  5
2E7
100
AcDbEntity
  8
0
100
AcDbLine
 62
7
  6
CONTINUOUS
 10
154.8638121738
 20
64.5936561076
 11
154.2329711738
 21
64.4306081076
  0
LWPOLYLINE
  5
2E8
100
AcDbEntity
  8
0
100
AcDbPolyline
 62
7
  6
CONTINUOUS
 90
7
 70
0
 10
122.7010685826
 20
55.7383377565
 10
122.7035380244
 20
55.7387898161
 10
122.7081558396
 20
55.7392313579
 10
122.7149220283
 20
55.7396623817
 10
122.7239496658
 20
55.7400868894
 10
122.7351256768
 20
55.7405008792
 10
122.7481108351
 20
55.7408923464
  0
LINE
  5
2E9
100
AcDbEntity
  8
0
100
AcDbLine
 62
7
  6
CONTINUOUS
 10
153.7658921738
 20
63.5177891076
 11
155.4657551738
 21
63.6767451076
  0
LINE
  5
2EA
100
AcDbEntity
  8
0
100
AcDbLine
 62
7
  6
CONTINUOUS
 10
155.4657551738
 20
63.3296291076
 11
154.3604041738
 21
63.2567281076
  0
LWPOLYLINE
  5
2EB
100
AcDbEntity
  8
0
100
AcDbPolyline
 62
7
  6
CONTINUOUS
 90
28
 70
0
 10
124.0683021738
 20
64.33751505
 10
124.0979101109
 20
64.3377770341
 10
124.1275063818
 20
64.3370809499
 10
124.1570909372
 20
64.3354267978
 10
124.186704444
 20
64.3327932569
 10
124.2163061442
 20
64.3292016487
 10
124.2457738309
 20
64.3247159371
 10
124.2751452765
 20
64.319422921
 10
124.3043825823
 20
64.3132358031
 10
124.3332499635
 20
64.3059581529
 10
124.3617356763
 20
64.2977101409
 10
124.3898512429
 20
64.2883715995
 10
124.4173956779
 20
64.2773855926
 10
124.4444155889
 20
64.2646430454
 10
124.4708640754
 20
64.2502530397
 10
124.4963997893
 20
64.2339858773
 10
124.5210848075
 20
64.215793245
 10
124.5448567088
 20
64.1957234674
 10
124.5671872916
 20
64.1736918043
 10
124.5880404141
 20
64.1497585418
 10
124.6074518476
 20
64.1238634096
 10
124.6250011917
 20
64.0957408354
 10
124.6408057733
 20
64.0652103122
 10
124.6547480177
 20
64.0324523709
 10
124.6660551566
 20
63.9977429977
 10
124.6744695834
 20
63.9611741955
 10
124.6802488916
 20
63.9226539861
 10
124.6833931738
 20
63.8821823833
  0
LINE
  5
2EC
100
AcDbEntity
  8
0
100
AcDbLine
 62
7
  6
CONTINUOUS
 10
123.2683021738
 20
59.8786821076
 11
124.8683021738
 21
59.8786821076
  0
LINE
  5
2ED
100
AcDbEntity
  8
0
100
AcDbLine
 62
7
  6
CONTINUOUS
 10
124.8683021738
 20
60.0881441076
 11
123.5267091738
 21
60.0881441076
  0
LINE
  5
2EE
100
AcDbEntity
  8
0
100
AcDbLine
 62
7
  6
CONTINUOUS
 10
123.5245091738
 20
61.2023491076
 11
124.8683021738
 21
61.2023491076
  0
LINE
  5
2EF
100
AcDbEntity
  8
0
100
AcDbLine
 62
7
  6
CONTINUOUS
 10
155.4657551738
 20
61.4069471076
 11
153.7657901738
 21
61.4069471076
  0
LINE
  5
2F0
100
AcDbEntity
  8
0
100
AcDbLine
 62
7
  6
CONTINUOUS
 10
124.8683021738
 20
61.4118961076
 11
123.2683021738
 21
61.4118961076
  0
LINE
  5
2F1
100
AcDbEntity
  8
0
100
AcDbLine
 62
7
  6
CONTINUOUS
 10
153.7657901738
 20
61.7617751076
 11
155.4657551738
 21
61.7617751076
  0
LINE
  5
2F2
100
AcDbEntity
  8
0
100
AcDbLine
 62
7
  6
CONTINUOUS
 10
123.2683021738
 20
63.2391821076
 11
124.8683021738
 21
63.2391821076
  0
LINE
  5
2F3
100
AcDbEntity
  8
0
100
AcDbLine
 62
7
  6
CONTINUOUS
 10
124.6833931738
 20
63.4554061076
 11
123.4532111738
 21
63.4554061076
  0
LINE
  5
2F4
100
AcDbEntity
  8
0
100
AcDbLine
 62
7
  6
CONTINUOUS
 10
154.3557771738
 20
62.3688171076
 11
155.4657551738
 21
62.2922451076
  0
LINE
  5
2F5
100
AcDbEntity
  8
0
100
AcDbLine
 62
7
  6
CONTINUOUS
 10
155.4657551738
 20
61.9527901076
 11
153.7658921738
 21
62.1062781076
  0
LINE
  5
2F6
100
AcDbEntity
  8
0
100
AcDbLine
 62
7
  6
CONTINUOUS
 10
124.8683021738
 20
61.8263691076
 11
124.4026001738
 21
61.9935241076
  0
LINE
  5
2F7
100
AcDbEntity
  8
0
100
AcDbLine
 62
7
  6
CONTINUOUS
 10
124.2109631738
 20
62.0603971076
 11
123.5003801738
 21
62.3189731076
  0
LINE
  5
2F8
100
AcDbEntity
  8
0
100
AcDbLine
 62
7
  6
CONTINUOUS
 10
123.2683021738
 20
62.2051931076
 11
124.8683021738
 21
61.6035461076
  0
LINE
  5
2F9
100
AcDbEntity
  8
0
100
AcDbLine
 62
7
  6
CONTINUOUS
 10
141.1887484419
 20
54.8684925562
 11
141.1324297905
 21
54.8966433024
  0
LINE
  5
2FA
100
AcDbEntity
  8
0
100
AcDbLine
 62
7
  6
CONTINUOUS
 10
144.6683021738
 20
40.4728243925
 11
144.5833053659
 21
40.5503877503
  0
LINE
  5
2FB
100
AcDbEntity
  8
0
100
AcDbLine
 62
7
  6
CONTINUOUS
 10
126.7240711042
 20
55.7549519824
 11
126.6938439786
 21
55.785179108
  0
LINE
  5
2FC
100
AcDbEntity
  8
0
100
AcDbLine
 62
7
  6
CONTINUOUS
 10
140.2060971738
 20
43.9078981076
 11
141.4073661738
 21
42.7066271076
  0
LINE
  5
2FD
100
AcDbEntity
  8
0
100
AcDbLine
 62
7
  6
CONTINUOUS
 10
141.8404891738
 20
42.7066271076
 11
140.6392571738
 21
43.9078971076
  0
LINE
  5
2FE
100
AcDbEntity
  8
0
100
AcDbLine
 62
7
  6
CONTINUOUS
 10
123.4641611738
 20
151.9776831076
 11
124.1038231738
 21
152.7367401076
  0
LINE
  5
2FF
100
AcDbEntity
  8
0
100
AcDbLine
 62
7
  6
CONTINUOUS
 10
124.4382251738
 20
152.7367401076
 11
123.8267851738
 21
152.0111731076
  0
LINE
  5
300
100
AcDbEntity
  8
0
100
AcDbLine
 62
7
  6
CONTINUOUS
 10
140.0513420271
 20
163.617844199
 11
140.0779433636
 21
163.6465454748
  0
LINE
  5
301
100
AcDbEntity
  8
0
100
AcDbLine
 62
7
  6
CONTINUOUS
 10
140.0660883207
 20
162.9781822096
 11
140.1084825894
 21
163.0231550364
  0
LWPOLYLINE
  5
302
100
AcDbEntity
  8
0
100
AcDbPolyline
 62
7
  6
CONTINUOUS
 90
3
 70
0
 10
140.0779433636
 20
163.6465454748
 10
140.1067246075
 20
163.6770185219
 10
140.1217308422
 20
163.6928314267
  0
LINE
  5
303
100
AcDbEntity
  8
0
100
AcDbLine
 62
7
  6
CONTINUOUS
 10
140.1084825894
 20
163.0231550364
 11
140.154533096
 21
163.0711067937
  0
LINE
  5
304
100
AcDbEntity
  8
0
100
AcDbLine
 62
7
  6
CONTINUOUS
 10
140.1217308422
 20
163.6928314267
 11
140.1686325756
 21
163.7415190846
  0
LINE
  5
305
100
AcDbEntity
  8
0
100
AcDbLine
 62
7
  6
CONTINUOUS
 10
140.154533096
 20
163.0711067937
 11
140.2026460742
 21
163.1204776263
  0
LINE
  5
306
100
AcDbEntity
  8
0
100
AcDbLine
 62
7
  6
CONTINUOUS
 10
140.1686325756
 20
163.7415190846
 11
140.2170889501
 21
163.7910827082
  0
LWPOLYLINE
  5
307
100
AcDbEntity
  8
0
100
AcDbPolyline
 62
7
  6
CONTINUOUS
 90
3
 70
0
 10
140.2026460742
 20
163.1204776263
 10
140.26728646
 20
163.1859156929
 10
140.2832828365
 20
163.2018506786
  0
LINE
  5
308
100
AcDbEntity
  8
0
100
AcDbLine
 62
7
  6
CONTINUOUS
 10
140.2170889501
 20
163.7910827082
 11
140.2814631053
 21
163.8559357324
  0
LINE
  5
309
100
AcDbEntity
  8
0
100
AcDbLine
 62
7
  6
CONTINUOUS
 10
144.5946970486
 20
170.8871157875
 11
144.5721087921
 21
170.864527531
  0
LINE
  5
30A
100
AcDbEntity
  8
0
100
AcDbLine
 62
7
  6
CONTINUOUS
 10
138.5183021738
 20
159.8607209128
 11
138.5517405642
 21
159.8941593031
  0
LINE
  5
30B
100
AcDbEntity
  8
0
100
AcDbLine
 62
7
  6
CONTINUOUS
 10
137.7547031943
 20
162.0858450058
 11
138.1579633678
 21
162.4786821076
  0
LINE
  5
30C
100
AcDbEntity
  8
0
100
AcDbLine
 62
7
  6
CONTINUOUS
 10
154.2108554079
 20
153.6453489014
 11
154.0406425669
 21
153.5786821076
  0
LINE
  5
30D
100
AcDbEntity
  8
0
100
AcDbLine
 62
7
  6
CONTINUOUS
 10
154.1427702143
 20
153.4453489014
 11
154.2448979571
 21
153.4786821076
  0
LINE
  5
30E
100
AcDbEntity
  8
0
100
AcDbLine
 62
7
  6
CONTINUOUS
 10
154.4151107027
 20
152.6786821076
 11
154.3129830553
 21
152.6453489014
  0
LINE
  5
30F
100
AcDbEntity
  8
0
100
AcDbLine
 62
7
  6
CONTINUOUS
 10
154.9938340857
 20
152.5453489014
 11
155.0959617569
 21
152.5786821076
  0
LINE
  5
310
100
AcDbEntity
  8
0
100
AcDbLine
 62
7
  6
CONTINUOUS
 10
154.1427702143
 20
152.1453489014
 11
154.0406425669
 21
152.1120153138
  0
LINE
  5
311
100
AcDbEntity
  8
0
100
AcDbLine
 62
7
  6
CONTINUOUS
 10
154.6874510958
 20
152.0120155045
 11
154.7895787909
 21
152.0453487107
  0
LWPOLYLINE
  5
312
100
AcDbEntity
  8
0
100
AcDbPolyline
 62
7
  6
CONTINUOUS
 90
25
 70
0
 10
154.2582485801
 20
66.0547063159
 10
154.2450494422
 20
66.0540517866
 10
154.2319983591
 20
66.0526197599
 10
154.2190953556
 20
66.0504102361
 10
154.2062972926
 20
66.047406278
 10
154.1936473541
 20
66.0436248233
 10
154.1812750572
 20
66.0391166847
 10
154.1691707755
 20
66.03388677
 10
154.1573441936
 20
66.0279301725
 10
154.1459538128
 20
66.0212829829
 10
154.1350030752
 20
66.0139427569
 10
154.1244886072
 20
66.0059119404
 10
154.1145587026
 20
65.9972339597
 10
154.1052433633
 20
65.9878785877
 10
154.0965126552
 20
65.9778760534
 10
154.0884249735
 20
65.9673604676
 10
154.0809944097
 20
65.9563332293
 10
154.0742069213
 20
65.9447929413
 10
154.0680786986
 20
65.9328695196
 10
154.0626045264
 20
65.9205797953
 10
154.0577896475
 20
65.9079069389
 10
154.0536659352
 20
65.8949303758
 10
154.0502440166
 20
65.8816765815
 10
154.0475132721
 20
65.8681190816
 10
154.0454736997
 20
65.8542578769
  0
LWPOLYLINE
  5
313
100
AcDbEntity
  8
0
100
AcDbPolyline
 62
7
  6
CONTINUOUS
 90
25
 70
0
 10
124.0683021738
 20
64.5599252622
 10
124.0017918146
 20
64.5595772338
 10
123.9381928342
 20
64.5558409327
 10
123.8775042997
 20
64.5487163611
 10
123.8197588317
 20
64.5378580809
 10
123.7649220315
 20
64.5236115411
 10
123.7128924267
 20
64.5070130745
 10
123.6634544997
 20
64.4883810389
 10
123.6168220914
 20
64.4673970902
 10
123.5735375567
 20
64.4441425072
 10
123.5339957316
 20
64.4183585081
 10
123.4977998466
 20
64.3903038948
 10
123.4643048581
 20
64.3608363193
 10
123.4332732767
 20
64.3302339473
 10
123.4049413281
 20
64.2982186271
 10
123.3793747165
 20
64.2648135309
 10
123.3566706018
 20
64.2301025137
 10
123.3367307308
 20
64.194001737
 10
123.3193277979
 20
64.1562828347
 10
123.3043640539
 20
64.1169084322
 10
123.2919365577
 20
64.0759159268
 10
123.2821103291
 20
64.0331891128
 10
123.2749068807
 20
63.9886892646
 10
123.2703042218
 20
63.9424551357
 10
123.2683021738
 20
63.8944867409
  0
LINE
  5
314
100
AcDbEntity
  8
0
100
AcDbLine
 62
7
  6
CONTINUOUS
 10
123.2683021738
 20
64.8593041076
 11
124.8683021738
 21
64.8593041076
  0
LINE
  5
315
100
AcDbEntity
  8
0
100
AcDbLine
 62
7
  6
CONTINUOUS
 10
124.6766641738
 20
65.0755141076
 11
124.1418641738
 21
65.0755141076
  0
LINE
  5
316
100
AcDbEntity
  8
0
100
AcDbLine
 62
7
  6
CONTINUOUS
 10
123.9502271738
 20
65.0755141076
 11
123.4599401738
 21
65.0755141076
  0
LINE
  5
317
100
AcDbEntity
  8
0
100
AcDbLine
 62
7
  6
CONTINUOUS
 10
155.4657555491
 20
65.2346563202
 11
153.7857527802
 21
65.2346563202
  0
LINE
  5
318
100
AcDbEntity
  8
0
100
AcDbLine
 62
7
  6
CONTINUOUS
 10
154.0554812114
 20
65.5762910879
 11
154.5221266939
 21
65.5762910879
  0
LINE
  5
319
100
AcDbEntity
  8
0
100
AcDbLine
 62
7
  6
CONTINUOUS
 10
154.8005231465
 20
65.5880566523
 11
155.4657555491
 21
65.5880566523
  0
LINE
  5
31A
100
AcDbEntity
  8
0
100
AcDbLine
 62
7
  6
CONTINUOUS
 10
124.1418641738
 20
65.9512891076
 11
123.9502271738
 21
65.9512891076
  0
LINE
  5
31B
100
AcDbEntity
  8
0
100
AcDbLine
 62
7
  6
CONTINUOUS
 10
123.4599401738
 20
66.0248261076
 11
123.2683021738
 21
66.0248261076
  0
LINE
  5
31C
100
AcDbEntity
  8
0
100
AcDbLine
 62
7
  6
CONTINUOUS
 10
124.8683021738
 20
66.0404441076
 11
124.6766641738
 21
66.0404441076
  0
LINE
  5
31D
100
AcDbEntity
  8
0
100
AcDbLine
 62
7
  6
CONTINUOUS
 10
154.6622299636
 20
66.146901839
 11
154.6722746708
 21
66.146901839
  0
LINE
  5
31E
100
AcDbEntity
  8
0
100
AcDbLine
 62
7
  6
CONTINUOUS
 10
123.2683021738
 20
66.9764281076
 11
124.8683021738
 21
66.9764281076
  0
LINE
  5
31F
100
AcDbEntity
  8
0
100
AcDbLine
 62
7
  6
CONTINUOUS
 10
124.8683021738
 20
67.1925731076
 11
123.2683021738
 21
67.1925731076
  0
LINE
  5
320
100
AcDbEntity
  8
0
100
AcDbLine
 62
7
  6
CONTINUOUS
 10
123.2683021738
 20
67.5624431076
 11
124.8683021738
 21
67.5624431076
  0
LINE
  5
321
100
AcDbEntity
  8
0
100
AcDbLine
 62
7
  6
CONTINUOUS
 10
124.8683021738
 20
67.7720021076
 11
123.5689111738
 21
67.7720021076
  0
LINE
  5
322
100
AcDbEntity
  8
0
100
AcDbLine
 62
7
  6
CONTINUOUS
 10
123.2683021738
 20
68.6232961076
 11
124.5679571738
 21
68.6232961076
  0
LINE
  5
323
100
AcDbEntity
  8
0
100
AcDbLine
 62
7
  6
CONTINUOUS
 10
124.8683021738
 20
68.8327511076
 11
123.2683021738
 21
68.8327511076
  0
LINE
  5
324
100
AcDbEntity
  8
0
100
AcDbLine
 62
7
  6
CONTINUOUS
 10
123.2683021738
 20
69.8243761076
 11
124.8683021738
 21
69.8243761076
  0
LINE
  5
325
100
AcDbEntity
  8
0
100
AcDbLine
 62
7
  6
CONTINUOUS
 10
124.8683021738
 20
70.0405861076
 11
123.2683021738
 21
70.0405861076
  0
LINE
  5
326
100
AcDbEntity
  8
0
100
AcDbLine
 62
7
  6
CONTINUOUS
 10
154.2329711738
 20
64.4306081076
 11
154.8638121738
 21
64.2539331076
  0
LINE
  5
327
100
AcDbEntity
  8
0
100
AcDbLine
 62
7
  6
CONTINUOUS
 10
154.9359611738
 20
60.5867611076
 11
153.7658921738
 21
60.9206841076
  0
LINE
  5
328
100
AcDbEntity
  8
0
100
AcDbLine
 62
7
  6
CONTINUOUS
 10
153.7658921738
 20
61.2752701076
 11
155.4657551738
 21
60.7288661076
  0
LINE
  5
329
100
AcDbEntity
  8
0
100
AcDbLine
 62
7
  6
CONTINUOUS
 10
124.8683021738
 20
71.8567451076
 11
124.4026001738
 21
72.0239131076
  0
LINE
  5
32A
100
AcDbEntity
  8
0
100
AcDbLine
 62
7
  6
CONTINUOUS
 10
124.2109631738
 20
72.0907731076
 11
123.5003801738
 21
72.3493361076
  0
LINE
  5
32B
100
AcDbEntity
  8
0
100
AcDbLine
 62
7
  6
CONTINUOUS
 10
123.2683021738
 20
72.2356601076
 11
124.8683021738
 21
71.6339351076
  0
LINE
  5
32C
100
AcDbEntity
  8
0
100
AcDbLine
 62
7
  6
CONTINUOUS
 10
137.7547031943
 20
52.6715192093
 11
138.1579633678
 21
52.2786821076
  0
LINE
  5
32D
100
AcDbEntity
  8
0
100
AcDbLine
 62
7
  6
CONTINUOUS
 10
140.2654685107
 20
50.9173595451
 11
140.2814631053
 21
50.9014284828
  0
LINE
  5
32E
100
AcDbEntity
  8
0
100
AcDbLine
 62
7
  6
CONTINUOUS
 10
144.5946970486
 20
43.8702484276
 11
144.5721087921
 21
43.8928366841
  0
LINE
  5
32F
100
AcDbEntity
  8
0
100
AcDbLine
 62
7
  6
CONTINUOUS
 10
139.9810503903
 20
51.6659338912
 11
139.7683021738
 21
51.8786821076
  0
LINE
  5
330
100
AcDbEntity
  8
0
100
AcDbLine
 62
253
  6
CONTINUOUS
 10
140.6716204342
 20
51.8755465991
 11
140.8810065803
 21
51.6661644448
  0
LINE
  5
331
100
AcDbEntity
  8
0
100
AcDbLine
 62
253
  6
CONTINUOUS
 10
140.9819011534
 20
52.1649003761
 11
141.1821626155
 21
51.9646425475
  0
LINE
  5
332
100
AcDbEntity
  8
0
100
AcDbLine
 62
7
  6
CONTINUOUS
 10
138.5183021738
 20
54.8966433024
 11
138.5517405642
 21
54.8632049121
  0
LINE
  5
333
100
AcDbEntity
  8
0
100
AcDbLine
 62
7
  6
CONTINUOUS
 10
140.2183190062
 20
51.407412159
 11
140.282701558
 21
51.3425731777
  0
LINE
  5
334
100
AcDbEntity
  8
0
100
AcDbLine
 62
7
  6
CONTINUOUS
 10
140.2171032264
 20
50.9662956944
 11
140.2654685107
 21
50.9173595451
  0
LINE
  5
335
100
AcDbEntity
  8
0
100
AcDbLine
 62
7
  6
CONTINUOUS
 10
140.1846844153
 20
50.9993661802
 11
140.2171032264
 21
50.9662956944
  0
LINE
  5
336
100
AcDbEntity
  8
0
100
AcDbLine
 62
7
  6
CONTINUOUS
 10
140.1698567435
 20
51.4569361518
 11
140.2183190062
 21
51.407412159
  0
LINE
  5
337
100
AcDbEntity
  8
0
100
AcDbLine
 62
7
  6
CONTINUOUS
 10
140.1527292755
 20
51.032253027
 11
140.1846844153
 21
50.9993661802
  0
LINE
  5
338
100
AcDbEntity
  8
0
100
AcDbLine
 62
7
  6
CONTINUOUS
 10
140.1066855081
 20
51.0803068195
 11
140.1527292755
 21
51.032253027
  0
LWPOLYLINE
  5
339
100
AcDbEntity
  8
0
100
AcDbPolyline
 62
7
  6
CONTINUOUS
 90
3
 70
0
 10
140.1079418123
 20
51.5213418429
 10
140.1229496777
 20
51.5055573016
 10
140.1698567435
 20
51.4569361518
  0
LINE
  5
33A
100
AcDbEntity
  8
0
100
AcDbLine
 62
7
  6
CONTINUOUS
 10
140.0791575761
 20
51.5517482975
 11
140.1079418123
 21
51.5213418429
  0
LINE
  5
33B
100
AcDbEntity
  8
0
100
AcDbLine
 62
7
  6
CONTINUOUS
 10
140.0642982988
 20
51.1254248045
 11
140.1066855081
 21
51.0803068195
  0
LWPOLYLINE
  5
33C
100
AcDbEntity
  8
0
100
AcDbPolyline
 62
7
  6
CONTINUOUS
 90
3
 70
0
 10
140.0402499707
 20
51.5937796771
 10
140.0525536059
 20
51.5803695726
 10
140.0791575761
 20
51.5517482975
  0
LWPOLYLINE
  5
33D
100
AcDbEntity
  8
0
100
AcDbPolyline
 62
7
  6
CONTINUOUS
 90
3
 70
0
 10
140.0006529828
 20
162.9053640369
 10
140.018725362
 20
162.9261694304
 10
140.0292657622
 20
162.9380615009
  0
LWPOLYLINE
  5
33E
100
AcDbEntity
  8
0
100
AcDbPolyline
 62
7
  6
CONTINUOUS
 90
3
 70
0
 10
140.0169449248
 20
163.5796603332
 10
140.0390395614
 20
163.6043888055
 10
140.0513420271
 20
163.617844199
  0
LWPOLYLINE
  5
33F
100
AcDbEntity
  8
0
100
AcDbPolyline
 62
7
  6
CONTINUOUS
 90
3
 70
0
 10
140.0292657622
 20
162.9380615009
 10
140.0531296558
 20
162.9641455522
 10
140.0660883207
 20
162.9781822096
  0
LINE
  5
340
100
AcDbEntity
  8
0
100
AcDbLine
 62
7
  6
CONTINUOUS
 10
154.3470256045
 20
152.4786821076
 11
154.5172383501
 21
152.5453489014
  0
LINE
  5
341
100
AcDbEntity
  8
0
100
AcDbLine
 62
7
  6
CONTINUOUS
 10
154.7555361941
 20
152.2120153138
 11
154.5853234484
 21
152.1453489014
  0
LINE
  5
342
100
AcDbEntity
  8
0
100
AcDbLine
 62
7
  6
CONTINUOUS
 10
154.9257489874
 20
151.0453487107
 11
155.0959617569
 21
151.1120155045
  0
LINE
  5
343
100
AcDbEntity
  8
0
100
AcDbLine
 62
7
  6
CONTINUOUS
 10
154.2108554079
 20
150.7120155045
 11
154.0406425669
 21
150.6453487107
  0
LINE
  5
344
100
AcDbEntity
  8
0
100
AcDbLine
 62
7
  6
CONTINUOUS
 10
154.3470256045
 20
149.5453487584
 11
154.5172383501
 21
149.6120154568
  0
LINE
  5
345
100
AcDbEntity
  8
0
100
AcDbLine
 62
7
  6
CONTINUOUS
 10
154.9938340857
 20
151.2453487107
 11
154.8917064383
 21
151.2120155045
  0
LINE
  5
346
100
AcDbEntity
  8
0
100
AcDbLine
 62
7
  6
CONTINUOUS
 10
154.1427702143
 20
150.5120155045
 11
154.2448979571
 21
150.5453487107
  0
LINE
  5
347
100
AcDbEntity
  8
0
100
AcDbLine
 62
7
  6
CONTINUOUS
 10
154.4151107027
 20
149.745348806
 11
154.3129830553
 21
149.7120154091
  0
LINE
  5
348
100
AcDbEntity
  8
0
100
AcDbLine
 62
7
  6
CONTINUOUS
 10
154.9938340857
 20
149.6120154568
 11
155.0959617569
 21
149.6453487584
  0
LINE
  5
349
100
AcDbEntity
  8
0
100
AcDbLine
 62
7
  6
CONTINUOUS
 10
123.2683021738
 20
70.2723501076
 11
123.4599401738
 21
70.2723501076
  0
LINE
  5
34A
100
AcDbEntity
  8
0
100
AcDbLine
 62
7
  6
CONTINUOUS
 10
123.4599401738
 20
70.8138791076
 11
124.8683021738
 21
70.8138791076
  0
LINE
  5
34B
100
AcDbEntity
  8
0
100
AcDbLine
 62
7
  6
CONTINUOUS
 10
124.8683021738
 20
71.0300111076
 11
123.4599401738
 21
71.0300111076
  0
LINE
  5
34C
100
AcDbEntity
  8
0
100
AcDbLine
 62
7
  6
CONTINUOUS
 10
123.4599401738
 20
71.5715401076
 11
123.2683021738
 21
71.5715401076
  0
LINE
  5
34D
100
AcDbEntity
  8
0
100
AcDbLine
 62
7
  6
CONTINUOUS
 10
123.2683021738
 20
73.2584691076
 11
124.8683021738
 21
73.2584691076
  0
LINE
  5
34E
100
AcDbEntity
  8
0
100
AcDbLine
 62
7
  6
CONTINUOUS
 10
124.6766641738
 20
73.4746921076
 11
123.2683021738
 21
73.4746921076
  0
LINE
  5
34F
100
AcDbEntity
  8
0
100
AcDbLine
 62
7
  6
CONTINUOUS
 10
124.8683021738
 20
74.2858851076
 11
124.6766641738
 21
74.2858851076
  0
LINE
  5
350
100
AcDbEntity
  8
0
100
AcDbLine
 62
7
  6
CONTINUOUS
 10
124.2242911738
 20
74.9632811076
 11
124.8683021738
 21
74.9632811076
  0
LINE
  5
351
100
AcDbEntity
  8
0
100
AcDbLine
 62
7
  6
CONTINUOUS
 10
124.8683021738
 20
75.1793751076
 11
124.2242911738
 21
75.1793751076
  0
LINE
  5
352
100
AcDbEntity
  8
0
100
AcDbLine
 62
7
  6
CONTINUOUS
 10
155.1264021738
 20
64.1813511076
 11
155.4657551738
 21
64.0834411076
  0
LINE
  5
353
100
AcDbEntity
  8
0
100
AcDbLine
 62
7
  6
CONTINUOUS
 10
155.4657551738
 20
63.7324631076
 11
153.7658921738
 21
64.2656481076
  0
LINE
  5
354
100
AcDbEntity
  8
0
100
AcDbLine
 62
7
  6
CONTINUOUS
 10
154.7096611738
 20
62.8118931076
 11
153.7658921738
 21
63.1667211076
  0
LINE
  5
355
100
AcDbEntity
  8
0
100
AcDbLine
 62
7
  6
CONTINUOUS
 10
154.3604041738
 20
63.2567281076
 11
155.4657551738
 21
62.8348381076
  0
LINE
  5
356
100
AcDbEntity
  8
0
100
AcDbLine
 62
7
  6
CONTINUOUS
 10
123.2683021738
 20
75.5292661076
 11
124.0371821738
 21
75.0702931076
  0
LINE
  5
357
100
AcDbEntity
  8
0
100
AcDbLine
 62
7
  6
CONTINUOUS
 10
124.2242911738
 20
75.1793751076
 11
123.2683021738
 21
75.7834021076
  0
LINE
  5
358
100
AcDbEntity
  8
0
100
AcDbLine
 62
7
  6
CONTINUOUS
 10
133.3641667895
 20
173.8165403348
 11
133.3104744213
 21
173.655332239
  0
LWPOLYLINE
  5
359
100
AcDbEntity
  8
0
100
AcDbPolyline
 62
7
  6
CONTINUOUS
 90
5
 70
0
 10
139.9823715794
 20
162.8803605481
 10
139.9846071188
 20
162.8840374416
 10
139.9883717748
 20
162.8895702325
 10
139.9936657166
 20
162.8967531483
 10
140.0006529828
 20
162.9053640369
  0
LINE
  5
35A
100
AcDbEntity
  8
0
100
AcDbLine
 62
7
  6
CONTINUOUS
 10
154.0406425669
 20
153.5786821076
 11
153.9044723704
 21
153.4786821076
  0
LINE
  5
35B
100
AcDbEntity
  8
0
100
AcDbLine
 62
7
  6
CONTINUOUS
 10
154.5172383501
 20
152.5453489014
 11
154.6534085467
 21
152.6453489014
  0
LINE
  5
35C
100
AcDbEntity
  8
0
100
AcDbLine
 62
7
  6
CONTINUOUS
 10
154.0406425669
 20
152.1120153138
 11
153.9044723704
 21
152.0120155045
  0
LINE
  5
35D
100
AcDbEntity
  8
0
100
AcDbLine
 62
7
  6
CONTINUOUS
 10
155.0959617569
 20
152.5786821076
 11
155.2321319654
 21
152.6786821076
  0
LINE
  5
35E
100
AcDbEntity
  8
0
100
AcDbLine
 62
7
  6
CONTINUOUS
 10
154.0406425669
 20
153.3786821076
 11
154.1427702143
 21
153.4453489014
  0
LINE
  5
35F
100
AcDbEntity
  8
0
100
AcDbLine
 62
7
  6
CONTINUOUS
 10
154.5172383501
 20
152.7453489014
 11
154.4151107027
 21
152.6786821076
  0
LINE
  5
360
100
AcDbEntity
  8
0
100
AcDbLine
 62
7
  6
CONTINUOUS
 10
155.0959617569
 20
152.7786821076
 11
154.9938340857
 21
152.7120153138
  0
LINE
  5
361
100
AcDbEntity
  8
0
100
AcDbLine
 62
7
  6
CONTINUOUS
 10
154.0406425669
 20
151.9120155045
 11
154.1427702143
 21
151.9786821076
  0
LINE
  5
362
100
AcDbEntity
  8
0
100
AcDbLine
 62
7
  6
CONTINUOUS
 10
155.0959617569
 20
151.3120155045
 11
154.9938340857
 21
151.2453487107
  0
LINE
  5
363
100
AcDbEntity
  8
0
100
AcDbLine
 62
7
  6
CONTINUOUS
 10
154.0406425669
 20
150.445348806
 11
154.1427702143
 21
150.5120155045
  0
LINE
  5
364
100
AcDbEntity
  8
0
100
AcDbLine
 62
7
  6
CONTINUOUS
 10
154.5172383501
 20
149.8120154091
 11
154.4151107027
 21
149.745348806
  0
LINE
  5
365
100
AcDbEntity
  8
0
100
AcDbLine
 62
7
  6
CONTINUOUS
 10
155.0959617569
 20
149.845348806
 11
154.9938340857
 21
149.7786821076
  0
LINE
  5
366
100
AcDbEntity
  8
0
100
AcDbLine
 62
253
  6
CONTINUOUS
 10
158.8683021738
 20
78.8786821076
 11
157.5183021738
 21
78.8786821076
  0
LINE
  5
367
100
AcDbEntity
  8
0
100
AcDbLine
 62
253
  6
CONTINUOUS
 10
119.8683021738
 20
78.8786821076
 11
121.2183021738
 21
78.8786821076
  0
LINE
  5
368
100
AcDbEntity
  8
0
100
AcDbLine
 62
253
  6
CONTINUOUS
 10
121.7183021738
 20
78.8786821076
 11
126.6844897525
 21
78.8786821076
  0
LINE
  5
369
100
AcDbEntity
  8
0
100
AcDbLine
 62
253
  6
CONTINUOUS
 10
157.0183021738
 20
78.8786821076
 11
152.0521145952
 21
78.8786821076
  0
LWPOLYLINE
  5
36A
100
AcDbEntity
  8
0
100
AcDbPolyline
 62
7
  6
CONTINUOUS
 90
10
 70
0
 10
139.9806014393
 20
51.2240828009
 10
139.9828360064
 20
51.2202970856
 10
139.9865993942
 20
51.2146605458
 10
139.9918917707
 20
51.2073793803
 10
139.9988770985
 20
51.1986762071
 10
140.0073918881
 20
51.1887414375
 10
140.0169449249
 20
51.1777038819
 10
140.0274829782
 20
51.1657369617
 10
140.0390593025
 20
51.1529950388
 10
140.0642982988
 20
51.1254248045
  0
LINE
  5
36B
100
AcDbEntity
  8
0
100
AcDbLine
 62
7
  6
CONTINUOUS
 10
138.3414509738
 20
44.0192093076
 11
139.0302053738
 21
42.7066269076
  0
LINE
  5
36C
100
AcDbEntity
  8
0
100
AcDbLine
 62
7
  6
CONTINUOUS
 10
139.3761109738
 20
42.7066269076
 11
138.8334805738
 21
43.7407165076
  0
LINE
  5
36D
100
AcDbEntity
  8
0
100
AcDbLine
 62
7
  6
CONTINUOUS
 10
133.3641667895
 20
40.9408238804
 11
133.3104744213
 21
41.1020319762
  0
LWPOLYLINE
  5
36E
100
AcDbEntity
  8
0
100
AcDbPolyline
 62
253
  6
CONTINUOUS
 90
22
 70
0
 10
122.9528785215
 20
166.3505253115
 10
123.0018218455
 20
166.668078515
 10
123.0625842481
 20
166.9831892302
 10
123.1350366015
 20
167.2954207538
 10
123.2189979625
 20
167.6042199981
 10
123.3143344359
 20
167.9092904143
 10
123.4210052637
 20
168.2105783401
 10
123.5389322791
 20
168.5078344064
 10
123.6678898068
 20
168.8004653121
 10
123.8076155122
 20
169.0879057158
 10
123.957848831
 20
169.3696791423
 10
124.1184011689
 20
169.6454882925
 10
124.2890897209
 20
169.9150520367
 10
124.4696536624
 20
170.1779773647
 10
124.6598479593
 20
170.4339259185
 10
124.8595212329
 20
170.6826945548
 10
125.0684327361
 20
170.9239597042
 10
125.2862752641
 20
171.1573443583
 10
125.5128006382
 20
171.3825627004
 10
125.7477227997
 20
171.5993018647
 10
125.9907118943
 20
171.8072278982
 10
126.2414408115
 20
172.0060349923
  0
LWPOLYLINE
  5
36F
100
AcDbEntity
  8
0
100
AcDbPolyline
 62
253
  6
CONTINUOUS
 90
22
 70
0
 10
123.1193450995
 20
166.3433241509
 10
123.1673206048
 20
166.6536523824
 10
123.2265912559
 20
166.9608310633
 10
123.2971407758
 20
167.2648608284
 10
123.3790561563
 20
167.5660562521
 10
123.4722199371
 20
167.8641040692
 10
123.5763099905
 20
168.1580638571
 10
123.6914067179
 20
168.4480713528
 10
123.8174031378
 20
168.7339937857
 10
123.9536971444
 20
169.0144895668
 10
124.1002851775
 20
169.2894524504
 10
124.2571495516
 20
169.5589938548
 10
124.423668867
 20
169.8221003151
 10
124.5998460307
 20
170.0787376591
 10
124.7856634556
 20
170.3289467293
 10
124.9804714689
 20
170.5718278525
 10
125.1843189418
 20
170.8073978767
 10
125.3971495821
 20
171.0356477433
 10
125.6181589293
 20
171.2556400313
 10
125.8470794076
 20
171.4670654011
 10
126.0841793762
 20
171.6702419511
 10
126.3294606935
 20
171.8651738732
  0
LWPOLYLINE
  5
370
100
AcDbEntity
  8
0
100
AcDbPolyline
 62
7
  6
CONTINUOUS
 90
8
 70
0
 10
133.2836745789
 20
174.1215804151
 10
133.2833486793
 20
174.1203458034
 10
133.2830300661
 20
174.1174121045
 10
133.282718739
 20
174.1127793183
 10
133.2824110419
 20
174.1063462168
 10
133.282110631
 20
174.0982140281
 10
133.2818284753
 20
174.0886864363
 10
133.2813239252
 20
174.0655248646
  0
LWPOLYLINE
  5
371
100
AcDbEntity
  8
0
100
AcDbPolyline
 62
7
  6
CONTINUOUS
 90
7
 70
0
 10
139.9806014393
 20
163.5332814143
 10
139.9825068882
 20
163.5373943203
 10
139.9863359829
 20
163.5429655396
 10
139.9918917707
 20
163.5499848349
 10
139.9989611452
 20
163.5586044563
 10
140.0073562383
 20
163.568658225
 10
140.0169449248
 20
163.5796603332
  0
LINE
  5
372
100
AcDbEntity
  8
0
100
AcDbLine
 62
7
  6
CONTINUOUS
 10
149.0692640682
 20
172.1812409908
 11
149.7626362468
 21
173.4852843975
  0
LINE
  5
373
100
AcDbEntity
  8
0
100
AcDbLine
 62
7
  6
CONTINUOUS
 10
150.7127339949
 20
173.1412376489
 11
149.8486869316
 21
171.7312409908
  0
LINE
  5
374
100
AcDbEntity
  8
0
100
AcDbLine
 62
7
  6
CONTINUOUS
 10
152.5385330068
 20
172.0754407937
 11
151.6673402795
 21
170.6812409908
  0
LINE
  5
375
100
AcDbEntity
  8
0
100
AcDbLine
 62
7
  6
CONTINUOUS
 10
156.3882361013
 20
158.9854501772
 11
156.4772263545
 21
159.0786821076
  0
LINE
  5
376
100
AcDbEntity
  8
0
100
AcDbLine
 62
7
  6
CONTINUOUS
 10
154.5853234484
 20
152.1453489014
 11
154.483195801
 21
152.0453487107
  0
LINE
  5
377
100
AcDbEntity
  8
0
100
AcDbLine
 62
7
  6
CONTINUOUS
 10
154.6193659975
 20
151.9453487107
 11
154.6874510958
 21
152.0120155045
  0
LINE
  5
378
100
AcDbEntity
  8
0
100
AcDbLine
 62
7
  6
CONTINUOUS
 10
154.0406425669
 20
150.6453487107
 11
153.9044723704
 21
150.5453487107
  0
LINE
  5
379
100
AcDbEntity
  8
0
100
AcDbLine
 62
7
  6
CONTINUOUS
 10
155.0959617569
 20
151.1120155045
 11
155.2321319654
 21
151.2120155045
  0
LINE
  5
37A
100
AcDbEntity
  8
0
100
AcDbLine
 62
7
  6
CONTINUOUS
 10
154.5172383501
 20
149.6120154568
 11
154.6534085467
 21
149.7120154091
  0
LINE
  5
37B
100
AcDbEntity
  8
0
100
AcDbLine
 62
7
  6
CONTINUOUS
 10
155.0959617569
 20
149.6453487584
 11
155.2321319654
 21
149.745348806
  0
LINE
  5
37C
100
AcDbEntity
  8
0
100
AcDbLine
 62
7
  6
CONTINUOUS
 10
151.6673402795
 20
44.0761232243
 11
152.5385330068
 21
42.6819234215
  0
LINE
  5
37D
100
AcDbEntity
  8
0
100
AcDbLine
 62
7
  6
CONTINUOUS
 10
149.8486869316
 20
43.0261232243
 11
150.7127339949
 21
41.6161265662
  0
LINE
  5
37E
100
AcDbEntity
  8
0
100
AcDbLine
 62
7
  6
CONTINUOUS
 10
149.7626362468
 20
41.2720798176
 11
149.0692640682
 21
42.5761232243
  0
LWPOLYLINE
  5
37F
100
AcDbEntity
  8
0
100
AcDbPolyline
 62
7
  6
CONTINUOUS
 90
5
 70
0
 10
139.9801306726
 20
51.2252680967
 10
139.9802485305
 20
51.2250288327
 10
139.9803662774
 20
51.2247515221
 10
139.9804839267
 20
51.224436143
 10
139.9806014786
 20
51.2240826954
  0
LWPOLYLINE
  5
380
100
AcDbEntity
  8
0
100
AcDbPolyline
 62
7
  6
CONTINUOUS
 90
8
 70
0
 10
139.9818062887
 20
51.6643924137
 10
139.983712088
 20
51.6603534507
 10
139.9875415988
 20
51.6548532749
 10
139.9930978908
 20
51.647901716
 10
140.0001678977
 20
51.6393460605
 10
140.0085637541
 20
51.6293523876
 10
140.0181532968
 20
51.6184067328
 10
140.0402499707
 20
51.5937796771
  0
LWPOLYLINE
  5
381
100
AcDbEntity
  8
0
100
AcDbPolyline
 62
7
  6
CONTINUOUS
 90
19
 70
0
 10
135.8683021738
 20
38.6054518715
 10
135.857106409
 20
38.6416874667
 10
135.8460459764
 20
38.682002699
 10
135.835120876
 20
38.7263975685
 10
135.8243193186
 20
38.7749355424
 10
135.8136530933
 20
38.8275531535
 10
135.8031575678
 20
38.8840599997
 10
135.7928346473
 20
38.9444596534
 10
135.7826824265
 20
39.0087485423
 10
135.7727305569
 20
39.0767255472
 10
135.7629790604
 20
39.1484031306
 10
135.753427915
 20
39.2237688299
 10
135.7441067067
 20
39.3025841383
 10
135.7350157589
 20
39.3848627546
 10
135.7261547483
 20
39.4705909801
 10
135.7175522903
 20
39.5594892108
 10
135.7092179232
 20
39.6514642456
 10
135.7011421087
 20
39.7466092858
 10
135.6933248468
 20
39.8449243312
  0
LWPOLYLINE
  5
382
100
AcDbEntity
  8
0
100
AcDbPolyline
 62
253
  6
CONTINUOUS
 90
10
 70
0
 10
123.1193450995
 20
48.4140400643
 10
123.0363110299
 20
49.0514766197
 10
122.9592974017
 20
49.6896449428
 10
122.888327512
 20
50.3285337214
 10
122.8234364915
 20
50.9681565995
 10
122.764632063
 20
51.6084771549
 10
122.7118942917
 20
52.2494088144
 10
122.6652280329
 20
52.8909149306
 10
122.6246631855
 20
53.5330088686
 10
122.5902152721
 20
54.1756789238
  0
LWPOLYLINE
  5
383
100
AcDbEntity
  8
0
100
AcDbPolyline
 62
253
  6
CONTINUOUS
 90
10
 70
0
 10
122.9528803303
 20
48.4068255614
 10
122.8698297707
 20
49.0451736079
 10
122.7928246581
 20
49.6843551548
 10
122.7218740977
 20
50.3243133318
 10
122.6569883666
 20
50.9649725486
 10
122.5981734478
 20
51.6062943149
 10
122.5454328037
 20
52.2482773966
 10
122.4987738373
 20
52.8908833005
 10
122.4582061153
 20
53.5340361271
 10
122.4237371433
 20
54.1776784966
  0
LINE
  5
384
100
AcDbEntity
  8
0
100
AcDbLine
 62
253
  6
CONTINUOUS
 10
122.9658606644
 20
55.3004516436
 11
122.9957469938
 21
54.9139474857
  0
LINE
  5
385
100
AcDbEntity
  8
0
100
AcDbLine
 62
253
  6
CONTINUOUS
 10
122.7319005011
 20
55.300409
 11
122.7610451653
 21
54.9187896533
  0
LWPOLYLINE
  5
386
100
AcDbEntity
  8
0
100
AcDbPolyline
 62
253
  6
CONTINUOUS
 90
3
 70
0
 10
122.9343386904
 20
55.7431732889
 10
122.9401637517
 20
55.6580638971
 10
122.9658606644
 20
55.3004516436
  0
LWPOLYLINE
  5
387
100
AcDbEntity
  8
0
100
AcDbPolyline
 62
253
  6
CONTINUOUS
 90
3
 70
0
 10
122.7010685826
 20
55.7383377565
 10
122.7067866893
 20
55.6540369194
 10
122.7319005011
 20
55.300409
  0
LINE
  5
388
100
AcDbEntity
  8
0
100
AcDbLine
 62
253
  6
CONTINUOUS
 10
122.4237371425
 20
54.1776784965
 11
122.3896471471
 21
54.8861416534
  0
LINE
  5
389
100
AcDbEntity
  8
0
100
AcDbLine
 62
253
  6
CONTINUOUS
 10
122.5902152721
 20
54.1756789238
 11
122.5561396928
 21
54.8827674514
  0
LINE
  5
38A
100
AcDbEntity
  8
0
100
AcDbLine
 62
253
  6
CONTINUOUS
 10
122.5144851209
 20
55.7752935141
 11
122.4892915377
 21
56.3315278359
  0
LINE
  5
38B
100
AcDbEntity
  8
0
100
AcDbLine
 62
253
  6
CONTINUOUS
 10
122.3483682464
 20
55.771914038
 11
122.3230600978
 21
56.3314838454
  0
LWPOLYLINE
  5
38C
100
AcDbEntity
  8
0
100
AcDbPolyline
 62
253
  6
CONTINUOUS
 90
10
 70
0
 10
122.4892915266
 20
56.3315278359
 10
122.3836083976
 20
58.8318144415
 10
122.2901890281
 20
61.333256613
 10
122.2091220255
 20
63.8357920613
 10
122.1405277462
 20
66.3390540291
 10
122.0844276281
 20
68.8432843012
 10
122.0407464701
 20
71.3493335503
 10
122.0094858242
 20
73.8574436947
 10
121.9907217173
 20
76.3672475555
 10
121.9844755195
 20
78.8786821076
  0
LWPOLYLINE
  5
38D
100
AcDbEntity
  8
0
100
AcDbPolyline
 62
253
  6
CONTINUOUS
 90
10
 70
0
 10
122.3230600978
 20
56.3314838454
 10
122.2175127111
 20
58.8317781723
 10
122.1243339295
 20
61.333224039
 10
122.0435359978
 20
63.8357612966
 10
121.9751382473
 20
66.3390273117
 10
121.919141937
 20
68.8432640276
 10
121.8755454775
 20
71.3493182937
 10
121.8443708843
 20
73.857432164
 10
121.8256485507
 20
76.367242571
 10
121.8194027453
 20
78.8786886157
  0
LWPOLYLINE
  5
38E
100
AcDbEntity
  8
0
100
AcDbPolyline
 62
7
  6
CONTINUOUS
 90
22
 70
0
 10
124.8683021738
 20
63.887683903
 10
124.8664065438
 20
63.940568779
 10
124.8613112353
 20
63.9914774761
 10
124.853016051
 20
64.0404099759
 10
124.8416135531
 20
64.0872513271
 10
124.8270110449
 20
64.1321164456
 10
124.8089305859
 20
64.1753501172
 10
124.7873810512
 20
64.2170207577
 10
124.7623540125
 20
64.2570599266
 10
124.7335457652
 20
64.2956071301
 10
124.7010997031
 20
64.3330100229
 10
124.6648735575
 20
64.3689209316
 10
124.62413549
 20
64.4024363655
 10
124.5784785776
 20
64.4335343704
 10
124.5283121521
 20
64.4622368733
 10
124.4741290813
 20
64.4877061973
 10
124.4160005287
 20
64.5100714054
 10
124.3538585144
 20
64.5292034082
 10
124.2879873222
 20
64.543877295
 10
124.218483108
 20
64.5536847542
 10
124.145253929
 20
64.5590340779
 10
124.0683021738
 20
64.5599252622
  0
LINE
  5
38F
100
AcDbEntity
  8
DRAFT
100
AcDbLine
 62
7
  6
CONTINUOUS
 10
119.3683021738
 20
78.8786821076
 11
119.3683021738
 21
135.8786821076
  0
LINE
  5
390
100
AcDbEntity
  8
0
100
AcDbLine
 62
7
  6
CONTINUOUS
 10
119.8683021738
 20
135.8786821076
 11
119.8683021738
 21
78.8786821076
  0
LINE
  5
391
100
AcDbEntity
  8
0
100
AcDbLine
 62
7
  6
CONTINUOUS
 10
121.2183021738
 20
78.8786821076
 11
121.2183021738
 21
135.8786821076
  0
LINE
  5
392
100
AcDbEntity
  8
0
100
AcDbLine
 62
7
  6
CONTINUOUS
 10
121.7183021738
 20
135.8786821076
 11
121.7183021738
 21
112.6786821076
  0
LINE
  5
393
100
AcDbEntity
  8
0
100
AcDbLine
 62
7
  6
CONTINUOUS
 10
121.7183021738
 20
111.9786821076
 11
121.7183021738
 21
102.7786821076
  0
LINE
  5
394
100
AcDbEntity
  8
0
100
AcDbLine
 62
7
  6
CONTINUOUS
 10
121.7183021738
 20
102.0786821076
 11
121.7183021738
 21
78.8786821076
  0
LINE
  5
395
100
AcDbEntity
  8
0
100
AcDbLine
 62
253
  6
CONTINUOUS
 10
121.8194027446
 20
78.8786886157
 11
121.8194027446
 21
101.9775815369
  0
LINE
  5
396
100
AcDbEntity
  8
0
100
AcDbLine
 62
253
  6
CONTINUOUS
 10
121.8194027446
 20
102.8797826783
 11
121.8194027446
 21
111.8775815369
  0
LINE
  5
397
100
AcDbEntity
  8
0
100
AcDbLine
 62
253
  6
CONTINUOUS
 10
121.8194027446
 20
112.7797826783
 11
121.8194027446
 21
135.878675652
  0
LINE
  5
398
100
AcDbEntity
  8
0
100
AcDbLine
 62
253
  6
CONTINUOUS
 10
121.9844755195
 20
78.8786821076
 11
121.9844755195
 21
101.9742050025
  0
LINE
  5
399
100
AcDbEntity
  8
0
100
AcDbLine
 62
253
  6
CONTINUOUS
 10
121.9844755195
 20
102.8831592127
 11
121.9844755195
 21
111.8742050025
  0
LINE
  5
39A
100
AcDbEntity
  8
0
100
AcDbLine
 62
253
  6
CONTINUOUS
 10
121.9844755195
 20
112.7831592127
 11
121.9844755195
 21
135.8786821076
  0
LINE
  5
39B
100
AcDbEntity
  8
0
100
AcDbLine
 62
253
  6
CONTINUOUS
 10
122.130786563
 20
102.0786821076
 11
122.130786563
 21
102.7786821076
  0
LINE
  5
39C
100
AcDbEntity
  8
0
100
AcDbLine
 62
253
  6
CONTINUOUS
 10
122.130786563
 20
111.9786821076
 11
122.130786563
 21
112.6786821076
  0
LINE
  5
39D
100
AcDbEntity
  8
0
100
AcDbLine
 62
253
  6
CONTINUOUS
 10
122.3804439467
 20
102.0745467232
 11
122.3804439467
 21
102.7828174919
  0
LINE
  5
39E
100
AcDbEntity
  8
0
100
AcDbLine
 62
253
  6
CONTINUOUS
 10
122.3804439467
 20
111.9745467232
 11
122.3804439467
 21
112.6828174919
  0
LINE
  5
39F
100
AcDbEntity
  8
0
100
AcDbLine
 62
253
  6
CONTINUOUS
 10
122.5452696341
 20
102.019649471
 11
122.5452696341
 21
102.8377147441
  0
LINE
  5
3A0
100
AcDbEntity
  8
0
100
AcDbLine
 62
253
  6
CONTINUOUS
 10
122.5452696341
 20
111.919649471
 11
122.5452696341
 21
112.7377147441
  0
LINE
  5
3A1
100
AcDbEntity
  8
0
100
AcDbLine
 62
253
  6
CONTINUOUS
 10
122.7770130533
 20
102.0148226768
 11
122.7770130533
 21
102.8425415384
  0
LINE
  5
3A2
100
AcDbEntity
  8
0
100
AcDbLine
 62
253
  6
CONTINUOUS
 10
122.7770130533
 20
111.9148226768
 11
122.7770130533
 21
112.7425415384
  0
LINE
  5
3A3
100
AcDbEntity
  8
0
100
AcDbLine
 62
7
  6
CONTINUOUS
 10
123.1444941738
 20
152.5064161076
 11
123.1444941738
 21
153.2544361076
  0
LINE
  5
3A4
100
AcDbEntity
  8
0
100
AcDbLine
 62
7
  6
CONTINUOUS
 10
123.2683021738
 20
75.7834021076
 11
123.2683021738
 21
75.5292661076
  0
LINE
  5
3A5
100
AcDbEntity
  8
0
100
AcDbLine
 62
7
  6
CONTINUOUS
 10
123.2683021738
 20
74.6111901076
 11
123.2683021738
 21
74.3593831076
  0
LINE
  5
3A6
100
AcDbEntity
  8
0
100
AcDbLine
 62
7
  6
CONTINUOUS
 10
123.2683021738
 20
73.4746921076
 11
123.2683021738
 21
73.2584691076
  0
LINE
  5
3A7
100
AcDbEntity
  8
0
100
AcDbLine
 62
7
  6
CONTINUOUS
 10
123.2683021738
 20
72.4807511076
 11
123.2683021738
 21
72.2356601076
  0
LINE
  5
3A8
100
AcDbEntity
  8
0
100
AcDbLine
 62
7
  6
CONTINUOUS
 10
123.2683021738
 20
71.5715401076
 11
123.2683021738
 21
70.2723501076
  0
LINE
  5
3A9
100
AcDbEntity
  8
0
100
AcDbLine
 62
7
  6
CONTINUOUS
 10
123.2683021738
 20
70.0405861076
 11
123.2683021738
 21
69.8243761076
  0
LINE
  5
3AA
100
AcDbEntity
  8
0
100
AcDbLine
 62
7
  6
CONTINUOUS
 10
123.2683021738
 20
68.8327511076
 11
123.2683021738
 21
68.6232961076
  0
LINE
  5
3AB
100
AcDbEntity
  8
0
100
AcDbLine
 62
7
  6
CONTINUOUS
 10
123.2683021738
 20
67.8187671076
 11
123.2683021738
 21
67.5624431076
  0
LINE
  5
3AC
100
AcDbEntity
  8
0
100
AcDbLine
 62
7
  6
CONTINUOUS
 10
123.2683021738
 20
67.1925731076
 11
123.2683021738
 21
66.9764281076
  0
LINE
  5
3AD
100
AcDbEntity
  8
0
100
AcDbLine
 62
7
  6
CONTINUOUS
 10
123.2683021738
 20
66.0248261076
 11
123.2683021738
 21
64.8593041076
  0
LINE
  5
3AE
100
AcDbEntity
  8
0
100
AcDbLine
 62
7
  6
CONTINUOUS
 10
123.2683021738
 20
63.8944867409
 11
123.2683021738
 21
63.2391821076
  0
LINE
  5
3AF
100
AcDbEntity
  8
0
100
AcDbLine
 62
7
  6
CONTINUOUS
 10
123.2683021738
 20
62.4503621076
 11
123.2683021738
 21
62.2051931076
  0
LINE
  5
3B0
100
AcDbEntity
  8
0
100
AcDbLine
 62
7
  6
CONTINUOUS
 10
123.2683021738
 20
61.4118961076
 11
123.2683021738
 21
61.1043311076
  0
LINE
  5
3B1
100
AcDbEntity
  8
0
100
AcDbLine
 62
7
  6
CONTINUOUS
 10
123.2683021738
 20
60.1884451076
 11
123.2683021738
 21
59.8786821076
  0
LINE
  5
3B2
100
AcDbEntity
  8
0
100
AcDbLine
 62
7
  6
CONTINUOUS
 10
123.4158191738
 20
153.2544361076
 11
123.4158191738
 21
153.0242051076
  0
LINE
  5
3B3
100
AcDbEntity
  8
0
100
AcDbLine
 62
7
  6
CONTINUOUS
 10
123.4158191738
 20
152.7367401076
 11
123.4158191738
 21
152.5064161076
  0
LINE
  5
3B4
100
AcDbEntity
  8
0
100
AcDbLine
 62
7
  6
CONTINUOUS
 10
123.4532111738
 20
63.4554061076
 11
123.4532111738
 21
63.8821823833
  0
LINE
  5
3B5
100
AcDbEntity
  8
0
100
AcDbLine
 62
7
  6
CONTINUOUS
 10
123.4599401738
 20
65.0755141076
 11
123.4599401738
 21
66.0248261076
  0
LINE
  5
3B6
100
AcDbEntity
  8
0
100
AcDbLine
 62
7
  6
CONTINUOUS
 10
123.4599401738
 20
70.2723501076
 11
123.4599401738
 21
70.8138791076
  0
LINE
  5
3B7
100
AcDbEntity
  8
0
100
AcDbLine
 62
7
  6
CONTINUOUS
 10
123.4599401738
 20
71.0300111076
 11
123.4599401738
 21
71.5715401076
  0
LWPOLYLINE
  5
3B8
100
AcDbEntity
  8
0
100
AcDbPolyline
 62
253
  6
CONTINUOUS
 90
9
 70
0
 10
121.8194027453
 20
135.878675652
 10
121.825648557
 20
138.3901229388
 10
121.8443709059
 20
140.8999342389
 10
121.8755455182
 20
143.4080486531
 10
121.9191419942
 20
145.9141030646
 10
121.9751383137
 20
148.4183395769
 10
122.0435360654
 20
150.9216051876
 10
122.1243339891
 20
153.4241418894
 10
122.2175127492
 20
155.9255869997
  0
LWPOLYLINE
  5
3B9
100
AcDbEntity
  8
0
100
AcDbPolyline
 62
253
  6
CONTINUOUS
 90
9
 70
0
 10
121.9844755195
 20
135.8786821076
 10
121.990721731
 20
138.3901179216
 10
122.0094858518
 20
140.8999226897
 10
122.0407465109
 20
143.4080333871
 10
122.0844276825
 20
145.9140827758
 10
122.1405278117
 20
148.4183128331
 10
122.2091220928
 20
150.9215744088
 10
122.2901890855
 20
153.4241093469
 10
122.3836084352
 20
155.925550831
  0
LWPOLYLINE
  5
3BA
100
AcDbEntity
  8
0
100
AcDbPolyline
 62
253
  6
CONTINUOUS
 90
3
 70
0
 10
122.2175127492
 20
155.9255869997
 10
122.3441487173
 20
158.8930622227
 10
122.3483682464
 20
158.9854501772
  0
LWPOLYLINE
  5
3BB
100
AcDbEntity
  8
0
100
AcDbPolyline
 62
253
  6
CONTINUOUS
 90
3
 70
0
 10
122.3836084352
 20
155.925550831
 10
122.5102845493
 20
158.8902264415
 10
122.5144851209
 20
158.9820707011
  0
LINE
  5
3BC
100
AcDbEntity
  8
0
100
AcDbLine
 62
253
  6
CONTINUOUS
 10
122.3896471471
 20
159.8712225618
 11
122.4237371417
 21
160.5796857015
  0
LINE
  5
3BD
100
AcDbEntity
  8
0
100
AcDbLine
 62
253
  6
CONTINUOUS
 10
122.5561396928
 20
159.8745967637
 11
122.5902152721
 21
160.5816852914
  0
LWPOLYLINE
  5
3BE
100
AcDbEntity
  8
0
100
AcDbPolyline
 62
253
  6
CONTINUOUS
 90
10
 70
0
 10
122.4237371425
 20
160.5796857015
 10
122.4582060934
 20
161.223327712
 10
122.4987737976
 20
161.8664803288
 10
122.5454327537
 20
162.509086172
 10
122.5981734491
 20
163.1510699165
 10
122.6569884462
 20
163.7923924929
 10
122.7218741042
 20
164.4330509454
 10
122.7928243291
 20
165.0730062148
 10
122.8698288539
 20
165.7121832911
 10
122.952878529
 20
166.3505253105
  0
LWPOLYLINE
  5
3BF
100
AcDbEntity
  8
0
100
AcDbPolyline
 62
253
  6
CONTINUOUS
 90
10
 70
0
 10
122.5902152721
 20
160.5816852914
 10
122.6246631575
 20
161.2243549808
 10
122.665227988
 20
161.8664487037
 10
122.7118942417
 20
162.5079547553
 10
122.7646320259
 20
163.148886579
 10
122.8234364796
 20
163.7892074488
 10
122.8883275186
 20
164.4288305556
 10
122.9592974133
 20
165.067719399
 10
123.0363110393
 20
165.7058877015
 10
123.1193450995
 20
166.3433241509
  0
LINE
  5
3C0
100
AcDbEntity
  8
0
100
AcDbLine
 62
253
  6
CONTINUOUS
 10
122.7010685826
 20
159.0190264586
 11
122.7253025628
 21
159.3664883875
  0
LINE
  5
3C1
100
AcDbEntity
  8
0
100
AcDbLine
 62
253
  6
CONTINUOUS
 10
122.9343386904
 20
159.0141909263
 11
122.9591120181
 21
159.365394961
  0
LWPOLYLINE
  5
3C2
100
AcDbEntity
  8
0
100
AcDbPolyline
 62
253
  6
CONTINUOUS
 90
3
 70
0
 10
122.7253025628
 20
159.3664883875
 10
122.7533612655
 20
159.7406109887
 10
122.7610451653
 20
159.8385745619
  0
LWPOLYLINE
  5
3C3
100
AcDbEntity
  8
0
100
AcDbPolyline
 62
253
  6
CONTINUOUS
 90
3
 70
0
 10
122.9591120181
 20
159.365394961
 10
122.987876316
 20
159.7441725488
 10
122.9957469938
 20
159.8434167295
  0
LWPOLYLINE
  5
3C4
100
AcDbEntity
  8
0
100
AcDbPolyline
 62
7
  6
CONTINUOUS
 90
10
 70
0
 10
139.9806014811
 20
163.5332815263
 10
139.9804839281
 20
163.5329280758
 10
139.9803662779
 20
163.5326126945
 10
139.9802485305
 20
163.5323353825
 10
139.9801306724
 20
163.532096118
 10
139.9800127171
 20
163.5318949228
 10
139.9798947051
 20
163.5317318615
 10
139.9797766497
 20
163.5316069556
 10
139.9796585375
 20
163.5315201837
 10
139.9795403685
 20
163.5314715456
  0
LINE
  5
3C5
100
AcDbEntity
  8
0
100
AcDbLine
 62
7
  6
CONTINUOUS
 10
144.6641667895
 20
173.8165403348
 11
144.6104744213
 21
173.655332239
  0
LINE
  5
3C6
100
AcDbEntity
  8
0
100
AcDbLine
 62
7
  6
CONTINUOUS
 10
150.8879174161
 20
171.1312409908
 11
151.7053128246
 21
172.6366960566
  0
LINE
  5
3C7
100
AcDbEntity
  8
0
100
AcDbLine
 62
7
  6
CONTINUOUS
 10
121.7183021738
 20
112.6786821076
 11
121.8194027446
 21
112.7797826783
  0
LINE
  5
3C8
100
AcDbEntity
  8
0
100
AcDbLine
 62
7
  6
CONTINUOUS
 10
121.7183021738
 20
102.0786821076
 11
121.8194027446
 21
101.9775815369
  0
LINE
  5
3C9
100
AcDbEntity
  8
0
100
AcDbLine
 62
7
  6
CONTINUOUS
 10
151.7053128246
 20
42.1206681586
 11
150.8879174161
 21
43.6261232243
  0
LWPOLYLINE
  5
3CA
100
AcDbEntity
  8
0
100
AcDbPolyline
 62
7
  6
CONTINUOUS
 90
10
 70
0
 10
139.9818062887
 20
51.6643924137
 10
139.9817225089
 20
51.6646410244
 10
139.9816386728
 20
51.6648703096
 10
139.9815547804
 20
51.6650802693
 10
139.9814708263
 20
51.6652709146
 10
139.9813868158
 20
51.6654422344
 10
139.9813027653
 20
51.6655941953
 10
139.9812186803
 20
51.6657267861
 10
139.9811345553
 20
51.6658400181
 10
139.9810503903
 20
51.6659338912
  0
LINE
  5
3CB
100
AcDbEntity
  8
0
100
AcDbLine
 62
7
  6
CONTINUOUS
 10
144.6641667895
 20
40.9408238804
 11
144.6104744213
 21
41.1020319762
  0
LWPOLYLINE
  5
3CC
100
AcDbEntity
  8
0
100
AcDbPolyline
 62
7
  6
CONTINUOUS
 90
25
 70
0
 10
128.1054169691
 20
57.1786821076
 10
128.1071491404
 20
57.1255388
 10
128.1123088346
 20
57.0729339564
 10
128.1208961761
 20
57.0208675767
 10
128.1330087071
 20
56.9690276946
 10
128.1485493861
 20
56.9177262763
 10
128.167226551
 20
56.8678992209
 10
128.1890022695
 20
56.8197516833
 10
128.2139153383
 20
56.7730785084
 10
128.2417892222
 20
56.7282001304
 10
128.2727276341
 20
56.6850015065
 10
128.3066280231
 20
56.6435976794
 10
128.3430043932
 20
56.6046542118
 10
128.381916116
 20
56.5682277248
 10
128.42330499
 20
56.5342615973
 10
128.4665084121
 20
56.5032515282
 10
128.5114098654
 20
56.4753014478
 10
128.5581267526
 20
56.4503074258
 10
128.6063470935
 20
56.4284533704
 10
128.656275654
 20
56.4096985411
 10
128.7077084579
 20
56.3940836783
 10
128.7597200386
 20
56.3819149107
 10
128.8120018387
 20
56.3732942812
 10
128.8648625239
 20
56.3681197469
 10
128.9183021738
 20
56.3663913077
  0
LWPOLYLINE
  5
3CD
100
AcDbEntity
  8
0
100
AcDbPolyline
 62
7
  6
CONTINUOUS
 90
25
 70
0
 10
128.1054169691
 20
114.1786821076
 10
128.1071491404
 20
114.1255388
 10
128.1123088346
 20
114.0729339564
 10
128.1208961761
 20
114.0208675767
 10
128.1330087071
 20
113.9690276946
 10
128.1485493861
 20
113.9177262763
 10
128.167226551
 20
113.8678992209
 10
128.1890022695
 20
113.8197516833
 10
128.2139153383
 20
113.7730785084
 10
128.2417892222
 20
113.7282001304
 10
128.2727276341
 20
113.6850015065
 10
128.3066280231
 20
113.6435976794
 10
128.3430043932
 20
113.6046542118
 10
128.381916116
 20
113.5682277248
 10
128.42330499
 20
113.5342615973
 10
128.4665084121
 20
113.5032515282
 10
128.5114098654
 20
113.4753014478
 10
128.5581267526
 20
113.4503074258
 10
128.6063470935
 20
113.4284533704
 10
128.656275654
 20
113.4096985411
 10
128.7077084579
 20
113.3940836783
 10
128.7597200386
 20
113.3819149107
 10
128.8120018387
 20
113.3732942812
 10
128.8648625239
 20
113.3681197469
 10
128.9183021738
 20
113.3663913077
  0
LINE
  5
3CE
100
AcDbEntity
  8
0
100
AcDbLine
 62
253
  6
CONTINUOUS
 10
128.2297169098
 20
44.8497235641
 11
128.2590407973
 21
41.9998898529
  0
LINE
  5
3CF
100
AcDbEntity
  8
0
100
AcDbLine
 62
253
  6
CONTINUOUS
 10
128.2046609363
 20
47.7063653213
 11
128.2297169098
 21
44.8497235641
  0
LINE
  5
3D0
100
AcDbEntity
  8
0
100
AcDbLine
 62
253
  6
CONTINUOUS
 10
128.1838822605
 20
50.5687453132
 11
128.2046609363
 21
47.7063653213
  0
LWPOLYLINE
  5
3D1
100
AcDbEntity
  8
0
100
AcDbPolyline
 62
253
  6
CONTINUOUS
 90
3
 70
0
 10
128.1607507631
 20
54.8707290887
 10
128.1673886638
 20
53.4357915793
 10
128.1838822605
 20
50.5687453132
  0
LINE
  5
3D2
100
AcDbEntity
  8
0
100
AcDbLine
 62
7
  6
CONTINUOUS
 10
126.6849296002
 20
73.8663703015
 11
126.6938439786
 21
55.785179108
  0
LINE
  5
3D3
100
AcDbEntity
  8
0
100
AcDbLine
 62
7
  6
CONTINUOUS
 10
123.9502271738
 20
65.9512891076
 11
123.9502271738
 21
65.0755141076
  0
LINE
  5
3D4
100
AcDbEntity
  8
0
100
AcDbLine
 62
7
  6
CONTINUOUS
 10
124.1418641738
 20
65.0755141076
 11
124.1418641738
 21
65.9512891076
  0
LINE
  5
3D5
100
AcDbEntity
  8
0
100
AcDbLine
 62
7
  6
CONTINUOUS
 10
124.2109631738
 20
72.5877241076
 11
124.2109631738
 21
72.0907731076
  0
LINE
  5
3D6
100
AcDbEntity
  8
0
100
AcDbLine
 62
7
  6
CONTINUOUS
 10
124.2109631738
 20
62.5573481076
 11
124.2109631738
 21
62.0603971076
  0
LINE
  5
3D7
100
AcDbEntity
  8
0
100
AcDbLine
 62
7
  6
CONTINUOUS
 10
124.4026001738
 20
61.9935241076
 11
124.4026001738
 21
62.6352841076
  0
LINE
  5
3D8
100
AcDbEntity
  8
0
100
AcDbLine
 62
7
  6
CONTINUOUS
 10
124.4026001738
 20
72.0239131076
 11
124.4026001738
 21
72.6657381076
  0
LINE
  5
3D9
100
AcDbEntity
  8
0
100
AcDbLine
 62
7
  6
CONTINUOUS
 10
124.6766641738
 20
74.2858851076
 11
124.6766641738
 21
73.4746921076
  0
LINE
  5
3DA
100
AcDbEntity
  8
0
100
AcDbLine
 62
7
  6
CONTINUOUS
 10
124.6766641738
 20
66.0404441076
 11
124.6766641738
 21
65.0755141076
  0
LINE
  5
3DB
100
AcDbEntity
  8
0
100
AcDbLine
 62
7
  6
CONTINUOUS
 10
124.6833931738
 20
63.8821823833
 11
124.6833931738
 21
63.4554061076
  0
LINE
  5
3DC
100
AcDbEntity
  8
0
100
AcDbLine
 62
7
  6
CONTINUOUS
 10
124.8683021738
 20
59.8786821076
 11
124.8683021738
 21
60.0881441076
  0
LINE
  5
3DD
100
AcDbEntity
  8
0
100
AcDbLine
 62
7
  6
CONTINUOUS
 10
124.8683021738
 20
60.5383221076
 11
124.8683021738
 21
60.7522581076
  0
LINE
  5
3DE
100
AcDbEntity
  8
0
100
AcDbLine
 62
7
  6
CONTINUOUS
 10
124.8683021738
 20
61.2023491076
 11
124.8683021738
 21
61.4118961076
  0
LINE
  5
3DF
100
AcDbEntity
  8
0
100
AcDbLine
 62
7
  6
CONTINUOUS
 10
124.8683021738
 20
61.6035461076
 11
124.8683021738
 21
61.8263691076
  0
LINE
  5
3E0
100
AcDbEntity
  8
0
100
AcDbLine
 62
7
  6
CONTINUOUS
 10
124.8683021738
 20
62.7934861076
 11
124.8683021738
 21
63.0297271076
  0
LINE
  5
3E1
100
AcDbEntity
  8
0
100
AcDbLine
 62
7
  6
CONTINUOUS
 10
124.8683021738
 20
63.2391821076
 11
124.8683021738
 21
63.887683903
  0
LINE
  5
3E2
100
AcDbEntity
  8
0
100
AcDbLine
 62
7
  6
CONTINUOUS
 10
124.8683021738
 20
64.8593041076
 11
124.8683021738
 21
66.0404441076
  0
LINE
  5
3E3
100
AcDbEntity
  8
0
100
AcDbLine
 62
7
  6
CONTINUOUS
 10
124.8683021738
 20
66.9764281076
 11
124.8683021738
 21
67.1925731076
  0
LINE
  5
3E4
100
AcDbEntity
  8
0
100
AcDbLine
 62
7
  6
CONTINUOUS
 10
124.8683021738
 20
67.5624431076
 11
124.8683021738
 21
67.7720021076
  0
LINE
  5
3E5
100
AcDbEntity
  8
0
100
AcDbLine
 62
7
  6
CONTINUOUS
 10
124.8683021738
 20
68.5898591076
 11
124.8683021738
 21
68.8327511076
  0
LINE
  5
3E6
100
AcDbEntity
  8
0
100
AcDbLine
 62
7
  6
CONTINUOUS
 10
124.8683021738
 20
69.8243761076
 11
124.8683021738
 21
70.0405861076
  0
LINE
  5
3E7
100
AcDbEntity
  8
0
100
AcDbLine
 62
7
  6
CONTINUOUS
 10
124.8683021738
 20
70.8138791076
 11
124.8683021738
 21
71.0300111076
  0
LINE
  5
3E8
100
AcDbEntity
  8
0
100
AcDbLine
 62
7
  6
CONTINUOUS
 10
124.8683021738
 20
71.6339351076
 11
124.8683021738
 21
71.8567451076
  0
LINE
  5
3E9
100
AcDbEntity
  8
0
100
AcDbLine
 62
7
  6
CONTINUOUS
 10
124.8683021738
 20
72.8239521076
 11
124.8683021738
 21
73.0602321076
  0
LINE
  5
3EA
100
AcDbEntity
  8
0
100
AcDbLine
 62
7
  6
CONTINUOUS
 10
124.8683021738
 20
73.2584691076
 11
124.8683021738
 21
74.2858851076
  0
LINE
  5
3EB
100
AcDbEntity
  8
0
100
AcDbLine
 62
7
  6
CONTINUOUS
 10
124.8683021738
 20
74.9632811076
 11
124.8683021738
 21
75.1793751076
  0
LINE
  5
3EC
100
AcDbEntity
  8
0
100
AcDbLine
 62
7
  6
CONTINUOUS
 10
125.3328991738
 20
152.4976041076
 11
125.3328991738
 21
152.7367401076
  0
LINE
  5
3ED
100
AcDbEntity
  8
0
100
AcDbLine
 62
7
  6
CONTINUOUS
 10
125.3328991738
 20
153.0242051076
 11
125.3328991738
 21
153.2632491076
  0
LINE
  5
3EE
100
AcDbEntity
  8
0
100
AcDbLine
 62
7
  6
CONTINUOUS
 10
125.6027401738
 20
153.2632491076
 11
125.6027401738
 21
152.4976041076
  0
LINE
  5
3EF
100
AcDbEntity
  8
0
100
AcDbLine
 62
7
  6
CONTINUOUS
 10
126.6849296002
 20
73.8663703015
 11
126.6844897525
 21
101.9628308811
  0
LINE
  5
3F0
100
AcDbEntity
  8
0
100
AcDbLine
 62
7
  6
CONTINUOUS
 10
126.7240711042
 20
55.7549519824
 11
126.7240711042
 21
102.0024122328
  0
LINE
  5
3F1
100
AcDbEntity
  8
0
100
AcDbLine
 62
7
  6
CONTINUOUS
 10
126.7240711042
 20
112.7549519824
 11
126.7240711042
 21
159.0024122328
  0
LINE
  5
3F2
100
AcDbEntity
  8
0
100
AcDbLine
 62
7
  6
CONTINUOUS
 10
128.1054169691
 20
57.1786821076
 11
128.1054169691
 21
100.5786821076
  0
LINE
  5
3F3
100
AcDbEntity
  8
0
100
AcDbLine
 62
7
  6
CONTINUOUS
 10
128.1054169691
 20
114.1786821076
 11
128.1054169691
 21
157.5786821076
  0
LINE
  5
3F4
100
AcDbEntity
  8
0
100
AcDbLine
 62
253
  6
CONTINUOUS
 10
128.1157978235
 20
111.8606075444
 11
128.1157978235
 21
102.8967566707
  0
LINE
  5
3F5
100
AcDbEntity
  8
0
100
AcDbLine
 62
7
  6
CONTINUOUS
 10
128.1183021738
 20
157.5786821076
 11
128.1183021738
 21
114.1786821076
  0
LINE
  5
3F6
100
AcDbEntity
  8
0
100
AcDbLine
 62
7
  6
CONTINUOUS
 10
128.1183021738
 20
57.1786821076
 11
128.1183021738
 21
100.5786821076
  0
LINE
  5
3F7
100
AcDbEntity
  8
0
100
AcDbLine
 62
253
  6
CONTINUOUS
 10
128.9183021738
 20
158.3909729074
 11
128.9183021738
 21
158.3786821076
  0
LINE
  5
3F8
100
AcDbEntity
  8
0
100
AcDbLine
 62
253
  6
CONTINUOUS
 10
128.9183021738
 20
101.3909729074
 11
128.9183021738
 21
101.3786821076
  0
LINE
  5
3F9
100
AcDbEntity
  8
0
100
AcDbLine
 62
253
  6
CONTINUOUS
 10
128.9183021738
 20
56.3663913077
 11
128.9183021738
 21
56.3786821076
  0
LINE
  5
3FA
100
AcDbEntity
  8
0
100
AcDbLine
 62
253
  6
CONTINUOUS
 10
128.9183021738
 20
113.3663913077
 11
128.9183021738
 21
113.3786821076
  0
LINE
  5
3FB
100
AcDbEntity
  8
0
100
AcDbLine
 62
7
  6
CONTINUOUS
 10
126.6938439786
 20
158.9721851072
 11
126.6844897525
 21
112.7945333341
  0
LINE
  5
3FC
100
AcDbEntity
  8
0
100
AcDbLine
 62
253
  6
CONTINUOUS
 10
128.1607507631
 20
159.8866351264
 11
128.1750994035
 21
162.7556119828
  0
LINE
  5
3FD
100
AcDbEntity
  8
0
100
AcDbLine
 62
253
  6
CONTINUOUS
 10
128.1750994035
 20
162.7556119828
 11
128.1937364123
 21
165.6204592254
  0
LINE
  5
3FE
100
AcDbEntity
  8
0
100
AcDbLine
 62
253
  6
CONTINUOUS
 10
128.1937364123
 20
165.6204592254
 11
128.2166548098
 21
168.4801039701
  0
LWPOLYLINE
  5
3FF
100
AcDbEntity
  8
0
100
AcDbPolyline
 62
253
  6
CONTINUOUS
 90
3
 70
0
 10
128.2166548098
 20
168.4801039701
 10
128.2438460132
 20
171.3334752807
 10
128.2590407973
 20
172.7574743622
  0
LWPOLYLINE
  5
400
100
AcDbEntity
  8
0
100
AcDbPolyline
 62
7
  6
CONTINUOUS
 90
28
 70
0
 10
123.4532111738
 20
63.8821823833
 10
123.4563607898
 20
63.9226875075
 10
123.4621483303
 20
63.9612369474
 10
123.4705739708
 20
63.9978306892
 10
123.4818977219
 20
64.0325618767
 10
123.4958600715
 20
64.0653373413
 10
123.5116818394
 20
64.0958776002
 10
123.5292448983
 20
64.1239997176
 10
123.5486677398
 20
64.1498866053
 10
123.5695259432
 20
64.1738075527
 10
123.5918538764
 20
64.1958223711
 10
123.6156175165
 20
64.2158712333
 10
123.640289707
 20
64.2340439736
 10
123.6658082542
 20
64.2502935357
 10
123.6922355154
 20
64.2646669643
 10
123.7192310033
 20
64.2773952474
 10
123.7467477053
 20
64.2883698652
 10
123.7748326917
 20
64.2976993305
 10
123.803286526
 20
64.3059401817
 10
123.8321177237
 20
64.3132121476
 10
123.8613178165
 20
64.3193954966
 10
123.8906618366
 20
64.3246875786
 10
123.9201116093
 20
64.329176513
 10
123.9497052719
 20
64.3327741789
 10
123.9793322595
 20
64.3354135668
 10
124.008955677
 20
64.33707234
 10
124.0386123289
 20
64.3377728344
 10
124.0683021738
 20
64.33751505
  0
LWPOLYLINE
  5
401
100
AcDbEntity
  8
0
100
AcDbPolyline
 62
7
  6
CONTINUOUS
 90
8
 70
0
 10
144.5833053657
 20
174.2069764636
 10
144.5829786514
 20
174.2058018043
 10
144.5826593141
 20
174.2029272461
 10
144.582347354
 20
174.198352789
 10
144.5820391198
 20
174.1919768889
 10
144.5817382627
 20
174.1839010899
 10
144.5814557362
 20
174.1744300243
 10
144.5809506922
 20
174.1513827527
  0
LINE
  5
402
100
AcDbEntity
  8
0
100
AcDbLine
 62
7
  6
CONTINUOUS
 10
153.9044723704
 20
153.4786821076
 11
153.802344723
 21
153.3120153138
  0
LINE
  5
403
100
AcDbEntity
  8
0
100
AcDbLine
 62
7
  6
CONTINUOUS
 10
153.9044723704
 20
152.0120155045
 11
153.802344723
 21
151.8453487107
  0
LINE
  5
404
100
AcDbEntity
  8
0
100
AcDbLine
 62
7
  6
CONTINUOUS
 10
154.6534085467
 20
152.6453489014
 11
154.7555361941
 21
152.8120153138
  0
LINE
  5
405
100
AcDbEntity
  8
0
100
AcDbLine
 62
7
  6
CONTINUOUS
 10
154.483195801
 20
152.0453487107
 11
154.3810681536
 21
151.8786821076
  0
LINE
  5
406
100
AcDbEntity
  8
0
100
AcDbLine
 62
7
  6
CONTINUOUS
 10
153.9044723704
 20
150.5453487107
 11
153.802344723
 21
150.3786821076
  0
LINE
  5
407
100
AcDbEntity
  8
0
100
AcDbLine
 62
7
  6
CONTINUOUS
 10
155.2321319654
 20
152.6786821076
 11
155.3342596217
 21
152.8453489014
  0
LINE
  5
408
100
AcDbEntity
  8
0
100
AcDbLine
 62
7
  6
CONTINUOUS
 10
153.9725574686
 20
153.2786821076
 11
154.0406425669
 21
153.3786821076
  0
LINE
  5
409
100
AcDbEntity
  8
0
100
AcDbLine
 62
7
  6
CONTINUOUS
 10
154.5853234484
 20
152.8453489014
 11
154.5172383501
 21
152.7453489014
  0
LINE
  5
40A
100
AcDbEntity
  8
0
100
AcDbLine
 62
7
  6
CONTINUOUS
 10
153.9725574686
 20
151.8120155045
 11
154.0406425669
 21
151.9120155045
  0
LINE
  5
40B
100
AcDbEntity
  8
0
100
AcDbLine
 62
7
  6
CONTINUOUS
 10
155.1640468552
 20
152.8786821076
 11
155.0959617569
 21
152.7786821076
  0
LINE
  5
40C
100
AcDbEntity
  8
0
100
AcDbLine
 62
7
  6
CONTINUOUS
 10
154.5512808993
 20
151.8453487107
 11
154.6193659975
 21
151.9453487107
  0
LINE
  5
40D
100
AcDbEntity
  8
0
100
AcDbLine
 62
7
  6
CONTINUOUS
 10
153.9725574686
 20
150.345348806
 11
154.0406425669
 21
150.445348806
  0
LINE
  5
40E
100
AcDbEntity
  8
0
100
AcDbLine
 62
7
  6
CONTINUOUS
 10
155.1640468552
 20
151.4120155045
 11
155.0959617569
 21
151.3120155045
  0
LINE
  5
40F
100
AcDbEntity
  8
0
100
AcDbLine
 62
7
  6
CONTINUOUS
 10
154.5853234484
 20
149.9120154091
 11
154.5172383501
 21
149.8120154091
  0
LINE
  5
410
100
AcDbEntity
  8
0
100
AcDbLine
 62
7
  6
CONTINUOUS
 10
155.1640468552
 20
149.945348806
 11
155.0959617569
 21
149.845348806
  0
LINE
  5
411
100
AcDbEntity
  8
0
100
AcDbLine
 62
7
  6
CONTINUOUS
 10
122.3804439467
 20
112.6828174919
 11
122.5452696341
 21
112.7377147441
  0
LINE
  5
412
100
AcDbEntity
  8
0
100
AcDbLine
 62
7
  6
CONTINUOUS
 10
122.3804439467
 20
102.0745467232
 11
122.5452696341
 21
102.019649471
  0
LWPOLYLINE
  5
413
100
AcDbEntity
  8
0
100
AcDbPolyline
 62
7
  6
CONTINUOUS
 90
10
 70
0
 10
154.6174031171
 20
66.2181785247
 10
154.6296575488
 20
66.2038034867
 10
154.6354542386
 20
66.1968509861
 10
154.6409030495
 20
66.1898773586
 10
154.6461108224
 20
66.1828437037
 10
154.6509707437
 20
66.1757889222
 10
154.6550553401
 20
66.1686714965
 10
154.6582221452
 20
66.1614775879
 10
154.66061368
 20
66.1542210353
 10
154.6622299636
 20
66.146901839
  0
LWPOLYLINE
  5
414
100
AcDbEntity
  8
0
100
AcDbPolyline
 62
7
  6
CONTINUOUS
 90
7
 70
0
 10
133.2818284799
 20
40.6686781706
 10
133.2821106353
 20
40.659150629
 10
133.2824110456
 20
40.6510184899
 10
133.2827187419
 20
40.6445853754
 10
133.2830300681
 20
40.6399524929
 10
133.2833486804
 20
40.637018635
 10
133.2836745787
 20
40.6357838017
  0
LINE
  5
415
100
AcDbEntity
  8
0
100
AcDbLine
 62
7
  6
CONTINUOUS
 10
133.28132393
 20
40.6918396844
 11
133.2818284799
 21
40.6686781706
  0
LINE
  5
416
100
AcDbEntity
  8
0
100
AcDbLine
 62
7
  6
CONTINUOUS
 10
133.280901873
 20
40.7201516691
 11
133.28132393
 21
40.6918396844
  0
LINE
  5
417
100
AcDbEntity
  8
0
100
AcDbLine
 62
7
  6
CONTINUOUS
 10
133.2804514455
 20
40.7700660845
 11
133.280901873
 21
40.7201516691
  0
LINE
  5
418
100
AcDbEntity
  8
0
100
AcDbLine
 62
7
  6
CONTINUOUS
 10
134.1566195947
 20
174.0556403596
 11
134.1562551127
 21
174.1072089244
  0
LINE
  5
419
100
AcDbEntity
  8
0
100
AcDbLine
 62
7
  6
CONTINUOUS
 10
133.2727214124
 20
43.8922240638
 11
133.2804514455
 21
40.7700660845
  0
LINE
  5
41A
100
AcDbEntity
  8
0
100
AcDbLine
 62
7
  6
CONTINUOUS
 10
134.1644955556
 20
170.864527531
 11
134.1566195947
 21
174.0556403596
  0
LINE
  5
41B
100
AcDbEntity
  8
0
100
AcDbLine
 62
253
  6
CONTINUOUS
 10
131.8683021738
 20
159.8607209128
 11
131.8683021738
 21
158.3900270357
  0
LINE
  5
41C
100
AcDbEntity
  8
0
100
AcDbLine
 62
253
  6
CONTINUOUS
 10
131.8683021738
 20
113.3673371795
 11
131.8683021738
 21
111.8966433024
  0
LINE
  5
41D
100
AcDbEntity
  8
0
100
AcDbLine
 62
253
  6
CONTINUOUS
 10
131.8683021738
 20
102.8607209128
 11
131.8683021738
 21
101.3900270357
  0
LINE
  5
41E
100
AcDbEntity
  8
0
100
AcDbLine
 62
253
  6
CONTINUOUS
 10
131.8683021738
 20
56.3673371795
 11
131.8683021738
 21
54.8966433024
  0
LINE
  5
41F
100
AcDbEntity
  8
0
100
AcDbLine
 62
7
  6
CONTINUOUS
 10
133.3683021738
 20
174.2156030225
 11
133.3683021738
 21
174.0661977185
  0
LINE
  5
420
100
AcDbEntity
  8
0
100
AcDbLine
 62
7
  6
CONTINUOUS
 10
133.3683021738
 20
40.6911664967
 11
133.3683021738
 21
40.5417611927
  0
LINE
  5
421
100
AcDbEntity
  8
0
100
AcDbLine
 62
7
  6
CONTINUOUS
 10
134.0683021738
 20
40.4728243925
 11
134.0683021738
 21
40.6911664967
  0
LINE
  5
422
100
AcDbEntity
  8
0
100
AcDbLine
 62
7
  6
CONTINUOUS
 10
134.0683021738
 20
174.0661977185
 11
134.0683021738
 21
174.2845398226
  0
LINE
  5
423
100
AcDbEntity
  8
0
100
AcDbLine
 62
7
  6
CONTINUOUS
 10
133.2804514421
 20
173.9872982471
 11
133.2727214124
 21
170.8651401513
  0
LINE
  5
424
100
AcDbEntity
  8
0
100
AcDbLine
 62
7
  6
CONTINUOUS
 10
134.1565268523
 20
40.683928635
 11
134.1644955556
 21
43.8928366841
  0
LINE
  5
425
100
AcDbEntity
  8
0
100
AcDbLine
 62
7
  6
CONTINUOUS
 10
134.1562550781
 20
40.650156749
 11
134.1565268523
 21
40.683928635
  0
LINE
  5
426
100
AcDbEntity
  8
0
100
AcDbLine
 62
7
  6
CONTINUOUS
 10
133.2809018682
 20
174.0372128051
 11
133.2804514421
 21
173.9872982471
  0
LINE
  5
427
100
AcDbEntity
  8
0
100
AcDbLine
 62
7
  6
CONTINUOUS
 10
133.2813239252
 20
174.0655248646
 11
133.2809018682
 21
174.0372128051
  0
LINE
  5
428
100
AcDbEntity
  8
0
100
AcDbLine
 62
7
  6
CONTINUOUS
 10
155.2321319654
 20
151.2120155045
 11
155.3342596217
 21
151.3786821076
  0
LINE
  5
429
100
AcDbEntity
  8
0
100
AcDbLine
 62
7
  6
CONTINUOUS
 10
154.6534085467
 20
149.7120154091
 11
154.7555361941
 21
149.8786821076
  0
LINE
  5
42A
100
AcDbEntity
  8
0
100
AcDbLine
 62
7
  6
CONTINUOUS
 10
155.2321319654
 20
149.745348806
 11
155.3342596217
 21
149.9120154091
  0
LINE
  5
42B
100
AcDbEntity
  8
0
100
AcDbLine
 62
7
  6
CONTINUOUS
 10
121.7183021738
 20
102.7786821076
 11
121.8194027446
 21
102.8797826783
  0
LINE
  5
42C
100
AcDbEntity
  8
0
100
AcDbLine
 62
7
  6
CONTINUOUS
 10
126.7240711042
 20
102.0024122328
 11
126.6844897525
 21
101.9628308811
  0
LINE
  5
42D
100
AcDbEntity
  8
0
100
AcDbLine
 62
7
  6
CONTINUOUS
 10
137.5275339565
 20
111.8583346775
 11
137.6041745572
 21
111.8966433024
  0
LWPOLYLINE
  5
42E
100
AcDbEntity
  8
0
100
AcDbPolyline
 62
7
  6
CONTINUOUS
 90
25
 70
0
 10
128.9183021738
 20
101.3909729074
 10
128.8648625239
 20
101.3892444683
 10
128.8120018387
 20
101.384069934
 10
128.7597200386
 20
101.3754493045
 10
128.7077084579
 20
101.3632805369
 10
128.656275654
 20
101.3476656741
 10
128.6063470935
 20
101.3289108448
 10
128.5581267526
 20
101.3070567893
 10
128.5114098654
 20
101.2820627674
 10
128.4665084121
 20
101.254112687
 10
128.42330499
 20
101.2231026179
 10
128.381916116
 20
101.1891364904
 10
128.3430043932
 20
101.1527100034
 10
128.3066280231
 20
101.1137665358
 10
128.2727276341
 20
101.0723627087
 10
128.2417892222
 20
101.0291640847
 10
128.2139153383
 20
100.9842857068
 10
128.1890022695
 20
100.9376125319
 10
128.167226551
 20
100.8894649942
 10
128.1485493861
 20
100.8396379388
 10
128.1330087071
 20
100.7883365206
 10
128.1208961761
 20
100.7364966385
 10
128.1123088346
 20
100.6844302588
 10
128.1071491404
 20
100.6318254151
 10
128.1054169691
 20
100.5786821076
  0
LINE
  5
42F
100
AcDbEntity
  8
0
100
AcDbLine
 62
253
  6
CONTINUOUS
 10
150.6311873786
 20
100.5786821076
 11
150.6183021738
 21
100.5786821076
  0
LINE
  5
430
100
AcDbEntity
  8
0
100
AcDbLine
 62
253
  6
CONTINUOUS
 10
128.1054169691
 20
100.5786821076
 11
128.1183021738
 21
100.5786821076
  0
LINE
  5
431
100
AcDbEntity
  8
0
100
AcDbLine
 62
7
  6
CONTINUOUS
 10
128.9183021738
 20
101.3786821076
 11
149.8183021738
 21
101.3786821076
  0
LINE
  5
432
100
AcDbEntity
  8
0
100
AcDbLine
 62
7
  6
CONTINUOUS
 10
146.8683021738
 20
101.3900270357
 11
131.8683021738
 21
101.3900270357
  0
LINE
  5
433
100
AcDbEntity
  8
0
100
AcDbLine
 62
7
  6
CONTINUOUS
 10
121.7183021738
 20
102.0786821076
 11
122.130786563
 21
102.0786821076
  0
LINE
  5
434
100
AcDbEntity
  8
0
100
AcDbLine
 62
7
  6
CONTINUOUS
 10
156.6058177847
 20
102.0786821076
 11
157.0183021738
 21
102.0786821076
  0
LINE
  5
435
100
AcDbEntity
  8
0
100
AcDbLine
 62
7
  6
CONTINUOUS
 10
137.5275339565
 20
102.8990295377
 11
137.6041745572
 21
102.8607209128
  0
LINE
  5
436
100
AcDbEntity
  8
0
100
AcDbLine
 62
7
  6
CONTINUOUS
 10
121.7183021738
 20
111.9786821076
 11
121.8194027446
 21
111.8775815369
  0
LINE
  5
437
100
AcDbEntity
  8
0
100
AcDbLine
 62
7
  6
CONTINUOUS
 10
126.7240711042
 20
112.7549519824
 11
126.6844897525
 21
112.7945333341
  0
LWPOLYLINE
  5
438
100
AcDbEntity
  8
0
100
AcDbPolyline
 62
7
  6
CONTINUOUS
 90
26
 70
0
 10
139.0890237738
 20
44.4778261076
 10
139.0923603374
 20
44.4475512269
 10
139.0927635144
 20
44.4166678042
 10
139.0902335435
 20
44.3851758892
 10
139.0848339318
 20
44.3526409572
 10
139.0765016847
 20
44.3194976607
 10
139.0650472909
 20
44.2870497054
 10
139.0501901849
 20
44.2553053184
 10
139.0322114376
 20
44.2242561596
 10
139.0117638455
 20
44.1951808719
 10
138.9885857533
 20
44.1682877239
 10
138.962938966
 20
44.1433681507
 10
138.9362611734
 20
44.1210754149
 10
138.9088008571
 20
44.1017833606
 10
138.8803092434
 20
44.0851178448
 10
138.8514779778
 20
44.0706101544
 10
138.8223879609
 20
44.0582610245
 10
138.7929579796
 20
44.0480695679
 10
138.763636531
 20
44.0395646895
 10
138.7345217159
 20
44.0327302304
 10
138.7055151632
 20
44.0275822816
 10
138.6767707172
 20
44.0236981528
 10
138.6483860851
 20
44.0211150168
 10
138.6202633579
 20
44.019795679
 10
138.5922630316
 20
44.0192059122
 10
138.5643755931
 20
44.0194068124
  0
LINE
  5
439
100
AcDbEntity
  8
0
100
AcDbLine
 62
253
  6
CONTINUOUS
 10
145.8351926335
 20
40.8478970483
 11
145.8389900376
 21
40.8119670026
  0
LINE
  5
43A
100
AcDbEntity
  8
0
100
AcDbLine
 62
253
  6
CONTINUOUS
 10
132.9014117155
 20
173.9094671627
 11
132.8976143131
 21
173.9453971947
  0
LINE
  5
43B
100
AcDbEntity
  8
0
100
AcDbLine
 62
253
  6
CONTINUOUS
 10
145.8389900376
 20
40.8119670026
 11
145.8423464011
 21
40.7783207116
  0
LINE
  5
43C
100
AcDbEntity
  8
0
100
AcDbLine
 62
253
  6
CONTINUOUS
 10
132.8976143131
 20
173.9453971947
 11
132.8942579514
 21
173.9790434716
  0
LWPOLYLINE
  5
43D
100
AcDbEntity
  8
0
100
AcDbPolyline
 62
253
  6
CONTINUOUS
 90
11
 70
0
 10
132.8942579514
 20
173.9790434716
 10
132.8914591375
 20
174.0092380527
 10
132.8903000247
 20
174.0227077091
 10
132.8893150247
 20
174.0349328137
 10
132.888512704
 20
174.0458070449
 10
132.8879000404
 20
174.0552358295
 10
132.8874823621
 20
174.0631371655
 10
132.8872633017
 20
174.0694423351
 10
132.8872447645
 20
174.0740965021
 10
132.8874269116
 20
174.0770591894
 10
132.8878081588
 20
174.0783046305
  0
LWPOLYLINE
  5
43E
100
AcDbEntity
  8
0
100
AcDbPolyline
 62
253
  6
CONTINUOUS
 90
11
 70
0
 10
145.8423464011
 20
40.7783207116
 10
145.8451452165
 20
40.7481261171
 10
145.8463043298
 20
40.7346564547
 10
145.8472893304
 20
40.7224313446
 10
145.8480916515
 20
40.7115571086
 10
145.8487043155
 20
40.70212832
 10
145.849121994
 20
40.6942269808
 10
145.8493410545
 20
40.6879218091
 10
145.8493595917
 20
40.6832676408
 10
145.8491774445
 20
40.6803049533
 10
145.848796197
 20
40.6790595131
  0
LINE
  5
43F
100
AcDbEntity
  8
0
100
AcDbLine
 62
253
  6
CONTINUOUS
 10
144.6866461196
 20
38.6168460099
 11
144.5659778116
 21
39.9614422911
  0
LINE
  5
440
100
AcDbEntity
  8
0
100
AcDbLine
 62
253
  6
CONTINUOUS
 10
134.0499582281
 20
176.1405182053
 11
134.1706265361
 21
174.7959219241
  0
LWPOLYLINE
  5
441
100
AcDbEntity
  8
0
100
AcDbPolyline
 62
253
  6
CONTINUOUS
 90
25
 70
0
 10
137.5544417572
 20
51.9646350843
 10
137.555163933
 20
51.9450814645
 10
137.5571678186
 20
51.9256192809
 10
137.5604438975
 20
51.906331957
 10
137.5649766628
 20
51.8873053496
 10
137.5707460095
 20
51.8686173649
 10
137.5777293097
 20
51.8503382127
 10
137.5858997769
 20
51.8325421939
 10
137.5952217797
 20
51.8153104698
 10
137.6056527315
 20
51.7987206104
 10
137.6171468218
 20
51.7828452411
 10
137.6296559467
 20
51.7677506093
 10
137.6431265999
 20
51.753499788
 10
137.6575016154
 20
51.7401536739
 10
137.6727195639
 20
51.7277697283
 10
137.6887149407
 20
51.716400215
 10
137.7054215088
 20
51.7060927739
 10
137.722766314
 20
51.6968930157
 10
137.740668651
 20
51.6888422318
 10
137.7590408155
 20
51.6819774402
 10
137.777814558
 20
51.6763218177
 10
137.7969364519
 20
51.6718923274
 10
137.8163349974
 20
51.6687106386
 10
137.8359191967
 20
51.6667971932
 10
137.8556055759
 20
51.6661644464
  0
LWPOLYLINE
  5
442
100
AcDbEntity
  8
0
100
AcDbPolyline
 62
253
  6
CONTINUOUS
 90
25
 70
0
 10
137.2502489086
 20
51.9422513129
 10
137.2516907382
 20
51.9027473141
 10
137.2556410161
 20
51.8637568464
 10
137.2620995892
 20
51.8252798821
 10
137.2711133608
 20
51.7871635232
 10
137.2826351339
 20
51.7495606186
 10
137.2965236232
 20
51.7129297347
 10
137.3128114255
 20
51.6772739488
 10
137.3314657131
 20
51.642590079
 10
137.352247108
 20
51.6093272542
 10
137.3751811237
 20
51.5775068387
 10
137.4002421173
 20
51.5471073262
 10
137.4271140389
 20
51.5185135008
 10
137.4558201136
 20
51.4917473383
 10
137.4863371088
 20
51.4667867069
 10
137.5182793586
 20
51.4439502067
 10
137.5516708436
 20
51.4232632439
 10
137.5864877006
 20
51.4047002662
 10
137.6222725634
 20
51.3885034262
 10
137.6590186771
 20
51.3747068791
 10
137.6967330233
 20
51.3632763566
 10
137.7349788887
 20
51.3543513795
 10
137.7736108065
 20
51.3479784334
 10
137.8127745417
 20
51.3441109712
 10
137.8524702511
 20
51.3427489774
  0
LINE
  5
443
100
AcDbEntity
  8
0
100
AcDbLine
 62
7
  6
CONTINUOUS
 10
137.7547031943
 20
52.6715192093
 11
137.7543343979
 21
52.6821727218
  0
LINE
  5
444
100
AcDbEntity
  8
0
100
AcDbLine
 62
7
  6
CONTINUOUS
 10
137.7547031943
 20
109.6715192093
 11
137.7543343979
 21
109.6821727218
  0
LWPOLYLINE
  5
445
100
AcDbEntity
  8
0
100
AcDbPolyline
 62
253
  6
CONTINUOUS
 90
25
 70
0
 10
137.2232966078
 20
109.1786821076
 10
137.2246328767
 20
109.1392079969
 10
137.2284751116
 20
109.1002431366
 10
137.2348233154
 20
109.0617875265
 10
137.2437232864
 20
109.0236895028
 10
137.255129238
 20
108.9861007293
 10
137.2689037975
 20
108.9494761981
 10
137.2850791103
 20
108.9138181435
 10
137.3036230518
 20
108.8791243313
 10
137.3243018449
 20
108.8458430501
 10
137.3471411117
 20
108.8139947166
 10
137.3721152561
 20
108.7835589141
 10
137.398913672
 20
108.7549226823
 10
137.4275601195
 20
108.7281072411
 10
137.4580308648
 20
108.7030913706
 10
137.489944056
 20
108.6801984496
 10
137.5233245999
 20
108.6594534689
 10
137.5581476117
 20
108.6408314378
 10
137.5939565447
 20
108.6245807633
 10
137.6307460968
 20
108.6107357261
 10
137.6685215837
 20
108.5992620455
 10
137.7068423772
 20
108.5903052868
 10
137.7455616012
 20
108.5839139718
 10
137.7848261355
 20
108.5800395787
 10
137.8246359821
 20
108.5786821076
  0
LWPOLYLINE
  5
446
100
AcDbEntity
  8
0
100
AcDbPolyline
 62
7
  6
CONTINUOUS
 90
25
 70
0
 10
137.5275339571
 20
109.1786780541
 10
137.528176141
 20
109.1590713778
 10
137.5300986458
 20
109.1395540329
 10
137.5332921912
 20
109.120209321
 10
137.5377411341
 20
109.101123311
 10
137.5434259409
 20
109.0823734823
 10
137.5503256246
 20
109.0640290916
 10
137.55841404
 20
109.0461643538
 10
137.5676560962
 20
109.0288607509
 10
137.5780112239
 20
109.0121958158
 10
137.5894344703
 20
108.9962424496
 10
137.6018782891
 20
108.9810675191
 10
137.6152909971
 20
108.9667349048
 10
137.6296162138
 20
108.9533061353
 10
137.6447929189
 20
108.9408395752
 10
137.6607568794
 20
108.9293889456
 10
137.6774424597
 20
108.9190027449
 10
137.6947767236
 20
108.9097276995
 10
137.7126791822
 20
108.9016069823
 10
137.7310624403
 20
108.8946785278
 10
137.7498577353
 20
108.8889665617
 10
137.769010336
 20
108.8844898299
 10
137.788447947
 20
108.8812709424
 10
137.808079359
 20
108.8793306848
 10
137.8278169275
 20
108.8786821076
  0
LWPOLYLINE
  5
447
100
AcDbEntity
  8
0
100
AcDbPolyline
 62
7
  6
CONTINUOUS
 90
7
 70
0
 10
134.1551486207
 20
174.174430726
 10
134.1548660934
 20
174.1839018892
 10
134.1545652352
 20
174.1919777859
 10
134.1542569995
 20
174.1983536668
 10
134.1539450377
 20
174.2029279489
 10
134.1536256984
 20
174.2058022152
 10
134.1532989817
 20
174.2069764658
  0
LWPOLYLINE
  5
448
100
AcDbEntity
  8
0
100
AcDbPolyline
 62
253
  6
CONTINUOUS
 90
5
 70
0
 10
137.8258178956
 20
106.1486816428
 10
137.8261231066
 20
106.1369150896
 10
137.8264384037
 20
106.1281089933
 10
137.8267604843
 20
106.1223555993
 10
137.8270859745
 20
106.1197151751
  0
LWPOLYLINE
  5
449
100
AcDbEntity
  8
0
100
AcDbPolyline
 62
253
  6
CONTINUOUS
 90
6
 70
0
 10
140.8823617859
 20
51.6319714946
 10
140.8821032987
 20
51.6433949524
 10
140.8818359606
 20
51.6525906594
 10
140.8815619214
 20
51.6594846723
 10
140.8812833845
 20
51.664021556
 10
140.8810025898
 20
51.6661648291
  0
LINE
  5
44A
100
AcDbEntity
  8
0
100
AcDbLine
 62
7
  6
CONTINUOUS
 10
134.1556536651
 20
174.1513833415
 11
134.1551486207
 21
174.174430726
  0
LINE
  5
44B
100
AcDbEntity
  8
0
100
AcDbLine
 62
253
  6
CONTINUOUS
 10
137.8252503818
 20
106.1805733739
 11
137.8258178956
 21
106.1486816428
  0
LINE
  5
44C
100
AcDbEntity
  8
0
100
AcDbLine
 62
253
  6
CONTINUOUS
 10
137.8543651152
 20
162.9095748089
 11
137.8538753166
 21
162.9382198337
  0
LWPOLYLINE
  5
44D
100
AcDbEntity
  8
0
100
AcDbPolyline
 62
253
  6
CONTINUOUS
 90
3
 70
0
 10
140.8830638127
 20
51.5853381802
 10
140.8828439816
 20
51.6028259278
 10
140.8823617859
 20
51.6319714946
  0
LWPOLYLINE
  5
44E
100
AcDbEntity
  8
0
100
AcDbPolyline
 62
7
  6
CONTINUOUS
 90
3
 70
0
 10
134.1562551127
 20
174.1072089244
 10
134.1560760673
 20
174.1231854702
 10
134.1556536651
 20
174.1513833415
  0
LINE
  5
44F
100
AcDbEntity
  8
0
100
AcDbLine
 62
253
  6
CONTINUOUS
 10
137.8245495043
 20
106.2466027749
 11
137.8252503818
 21
106.1805733739
  0
LINE
  5
450
100
AcDbEntity
  8
0
100
AcDbLine
 62
253
  6
CONTINUOUS
 10
137.8538753166
 20
162.9382198337
 11
137.8532629196
 21
162.9958905196
  0
LINE
  5
451
100
AcDbEntity
  8
0
100
AcDbLine
 62
253
  6
CONTINUOUS
 10
137.8532629196
 20
162.9958905196
 11
137.8527428078
 21
163.0932014066
  0
LINE
  5
452
100
AcDbEntity
  8
0
100
AcDbLine
 62
253
  6
CONTINUOUS
 10
137.8239926178
 20
106.358525614
 11
137.8245495043
 21
106.2466027749
  0
LINE
  5
453
100
AcDbEntity
  8
0
100
AcDbLine
 62
253
  6
CONTINUOUS
 10
138.4539027897
 20
51.3425731777
 11
138.4551412424
 21
50.9014284828
  0
LINE
  5
454
100
AcDbEntity
  8
0
100
AcDbLine
 62
253
  6
CONTINUOUS
 10
138.754798059
 20
51.6643924137
 11
138.7560028672
 21
51.2240826905
  0
LINE
  5
455
100
AcDbEntity
  8
0
100
AcDbLine
 62
253
  6
CONTINUOUS
 10
139.9823715794
 20
162.8803605481
 11
139.9806014811
 21
163.5332815263
  0
LINE
  5
456
100
AcDbEntity
  8
0
100
AcDbLine
 62
253
  6
CONTINUOUS
 10
137.2436275412
 20
54.8634362775
 11
137.2502489086
 21
51.9422513129
  0
LINE
  5
457
100
AcDbEntity
  8
0
100
AcDbLine
 62
253
  6
CONTINUOUS
 10
137.5478559058
 20
54.8684925562
 11
137.5544417508
 21
51.9646350779
  0
LINE
  5
458
100
AcDbEntity
  8
0
100
AcDbLine
 62
253
  6
CONTINUOUS
 10
137.8239035236
 20
106.4195328031
 11
137.8239926178
 21
106.358525614
  0
LINE
  5
459
100
AcDbEntity
  8
0
100
AcDbLine
 62
7
  6
CONTINUOUS
 10
138.5517405642
 20
159.8941593031
 11
138.5494282138
 21
162.0221039943
  0
LINE
  5
45A
100
AcDbEntity
  8
0
100
AcDbLine
 62
7
  6
CONTINUOUS
 10
140.1848637835
 20
54.8632049121
 11
140.1871761339
 21
52.7352602209
  0
LINE
  5
45B
100
AcDbEntity
  8
0
100
AcDbLine
 62
7
  6
CONTINUOUS
 10
135.6933248468
 20
40.345934549
 11
135.6933248468
 21
39.8449243312
  0
LINE
  5
45C
100
AcDbEntity
  8
0
100
AcDbLine
 62
7
  6
CONTINUOUS
 10
135.8683021738
 20
40.3699994523
 11
135.8683021738
 21
38.6054518713
  0
LINE
  5
45D
100
AcDbEntity
  8
0
100
AcDbLine
 62
7
  6
CONTINUOUS
 10
136.7173831738
 20
44.0251141076
 11
136.7173831738
 21
43.7188271076
  0
LINE
  5
45E
100
AcDbEntity
  8
0
100
AcDbLine
 62
7
  6
CONTINUOUS
 10
137.0396041738
 20
44.5884301076
 11
137.0396041738
 21
44.0251141076
  0
LINE
  5
45F
100
AcDbEntity
  8
0
100
AcDbLine
 62
7
  6
CONTINUOUS
 10
137.0396041738
 20
43.7188271076
 11
137.0396041738
 21
42.6946331076
  0
LINE
  5
460
100
AcDbEntity
  8
0
100
AcDbLine
 62
253
  6
CONTINUOUS
 10
137.2232966078
 20
111.8532814783
 11
137.2232966078
 21
109.1786821076
  0
LINE
  5
461
100
AcDbEntity
  8
0
100
AcDbLine
 62
253
  6
CONTINUOUS
 10
137.2232966078
 20
105.8196330768
 11
137.2232966078
 21
102.9040827369
  0
LINE
  5
462
100
AcDbEntity
  8
0
100
AcDbLine
 62
7
  6
CONTINUOUS
 10
137.3458921738
 20
42.6946331076
 11
137.3458921738
 21
45.0998881076
  0
LINE
  5
463
100
AcDbEntity
  8
0
100
AcDbLine
 62
253
  6
CONTINUOUS
 10
137.5275339565
 20
111.8583346775
 11
137.5275339565
 21
109.1786780541
  0
LINE
  5
464
100
AcDbEntity
  8
0
100
AcDbLine
 62
253
  6
CONTINUOUS
 10
137.5275339565
 20
105.8196292241
 11
137.5275339565
 21
102.8990295377
  0
LINE
  5
465
100
AcDbEntity
  8
0
100
AcDbLine
 62
7
  6
CONTINUOUS
 10
137.6041745572
 20
162.037665829
 11
137.6041745572
 21
159.8607209128
  0
LINE
  5
466
100
AcDbEntity
  8
0
100
AcDbLine
 62
7
  6
CONTINUOUS
 10
137.6041745572
 20
111.8966433024
 11
137.6041745572
 21
109.7196983862
  0
LINE
  5
467
100
AcDbEntity
  8
0
100
AcDbLine
 62
7
  6
CONTINUOUS
 10
137.6041745572
 20
105.037665829
 11
137.6041745572
 21
102.8607209128
  0
LINE
  5
468
100
AcDbEntity
  8
0
100
AcDbLine
 62
7
  6
CONTINUOUS
 10
137.6041745572
 20
54.8966433024
 11
137.6041745572
 21
52.7196983862
  0
LINE
  5
469
100
AcDbEntity
  8
0
100
AcDbLine
 62
7
  6
CONTINUOUS
 10
137.6616813738
 20
45.0998877076
 11
137.6616813738
 21
44.7936005076
  0
LINE
  5
46A
100
AcDbEntity
  8
0
100
AcDbLine
 62
7
  6
CONTINUOUS
 10
137.7547031943
 20
162.5786821076
 11
137.7547031943
 21
162.0858450058
  0
LINE
  5
46B
100
AcDbEntity
  8
0
100
AcDbLine
 62
7
  6
CONTINUOUS
 10
137.7547031943
 20
109.6715192093
 11
137.7547031943
 21
109.1786821076
  0
LINE
  5
46C
100
AcDbEntity
  8
0
100
AcDbLine
 62
7
  6
CONTINUOUS
 10
137.7547031943
 20
105.592463839
 11
137.7547031943
 21
105.0858450058
  0
LINE
  5
46D
100
AcDbEntity
  8
0
100
AcDbLine
 62
7
  6
CONTINUOUS
 10
137.7547031943
 20
52.6715192093
 11
137.7547031943
 21
52.1649003761
  0
LINE
  5
46E
100
AcDbEntity
  8
0
100
AcDbLine
 62
7
  6
CONTINUOUS
 10
138.1579633678
 20
162.8786821076
 11
138.1579633678
 21
162.4786821076
  0
LINE
  5
46F
100
AcDbEntity
  8
0
100
AcDbLine
 62
7
  6
CONTINUOUS
 10
138.1579633678
 20
109.2786821076
 11
138.1579633678
 21
108.8786821076
  0
LINE
  5
470
100
AcDbEntity
  8
0
100
AcDbLine
 62
7
  6
CONTINUOUS
 10
138.1579633678
 20
105.8786821076
 11
138.1579633678
 21
105.4786821076
  0
LINE
  5
471
100
AcDbEntity
  8
0
100
AcDbLine
 62
7
  6
CONTINUOUS
 10
138.1579633678
 20
52.2786821076
 11
138.1579633678
 21
51.8786821076
  0
LINE
  5
472
100
AcDbEntity
  8
0
100
AcDbLine
 62
253
  6
CONTINUOUS
 10
138.4253292912
 20
108.5786821076
 11
138.4253292912
 21
107.9184818924
  0
LINE
  5
473
100
AcDbEntity
  8
0
100
AcDbLine
 62
253
  6
CONTINUOUS
 10
138.4253292912
 20
106.8388823228
 11
138.4253292912
 21
106.4197118554
  0
LINE
  5
474
100
AcDbEntity
  8
0
100
AcDbLine
 62
7
  6
CONTINUOUS
 10
138.5007481738
 20
168.3306451076
 11
138.5007481738
 21
169.0814621076
  0
LINE
  5
475
100
AcDbEntity
  8
0
100
AcDbLine
 62
7
  6
CONTINUOUS
 10
138.5007481738
 20
172.6759021076
 11
138.5007481738
 21
173.4267191076
  0
LINE
  5
476
100
AcDbEntity
  8
0
100
AcDbLine
 62
7
  6
CONTINUOUS
 10
138.5183021738
 20
52.7196983862
 11
138.5183021738
 21
54.8966433024
  0
LINE
  5
477
100
AcDbEntity
  8
0
100
AcDbLine
 62
7
  6
CONTINUOUS
 10
138.5183021738
 20
102.8607209128
 11
138.5183021738
 21
105.037665829
  0
LINE
  5
478
100
AcDbEntity
  8
0
100
AcDbLine
 62
7
  6
CONTINUOUS
 10
138.5183021738
 20
109.7196983862
 11
138.5183021738
 21
111.8966433024
  0
LINE
  5
479
100
AcDbEntity
  8
0
100
AcDbLine
 62
7
  6
CONTINUOUS
 10
138.5183021738
 20
159.8607209128
 11
138.5183021738
 21
162.037665829
  0
LINE
  5
47A
100
AcDbEntity
  8
0
100
AcDbLine
 62
7
  6
CONTINUOUS
 10
138.5619008528
 20
111.8530446235
 11
138.5619008528
 21
109.7414960655
  0
LINE
  5
47B
100
AcDbEntity
  8
0
100
AcDbLine
 62
7
  6
CONTINUOUS
 10
138.5619008528
 20
105.0158681497
 11
138.5619008528
 21
102.9043195917
  0
LINE
  5
47C
100
AcDbEntity
  8
0
100
AcDbLine
 62
253
  6
CONTINUOUS
 10
138.7270896741
 20
108.8785519208
 11
138.7270896741
 21
108.2183374567
  0
LINE
  5
47D
100
AcDbEntity
  8
0
100
AcDbLine
 62
253
  6
CONTINUOUS
 10
138.7270896741
 20
106.5390267585
 11
138.7270896741
 21
106.1198946073
  0
LINE
  5
47E
100
AcDbEntity
  8
0
100
AcDbLine
 62
7
  6
CONTINUOUS
 10
138.9683021738
 20
163.4786821076
 11
138.9683021738
 21
162.8786821076
  0
LINE
  5
47F
100
AcDbEntity
  8
0
100
AcDbLine
 62
7
  6
CONTINUOUS
 10
138.9683021738
 20
106.4786821076
 11
138.9683021738
 21
105.8786821076
  0
LINE
  5
480
100
AcDbEntity
  8
0
100
AcDbLine
 62
7
  6
CONTINUOUS
 10
138.9683021738
 20
51.2786821076
 11
138.9683021738
 21
51.8786821076
  0
LINE
  5
481
100
AcDbEntity
  8
0
100
AcDbLine
 62
7
  6
CONTINUOUS
 10
138.9683021738
 20
108.2786821076
 11
138.9683021738
 21
108.8786821076
  0
LINE
  5
482
100
AcDbEntity
  8
0
100
AcDbLine
 62
7
  6
CONTINUOUS
 10
139.7683021738
 20
163.4786821076
 11
139.7683021738
 21
162.8786821076
  0
LINE
  5
483
100
AcDbEntity
  8
0
100
AcDbLine
 62
7
  6
CONTINUOUS
 10
139.7683021738
 20
106.4786821076
 11
139.7683021738
 21
105.8786821076
  0
LINE
  5
484
100
AcDbEntity
  8
0
100
AcDbLine
 62
7
  6
CONTINUOUS
 10
139.7683021738
 20
51.2786821076
 11
139.7683021738
 21
51.8786821076
  0
LINE
  5
485
100
AcDbEntity
  8
0
100
AcDbLine
 62
7
  6
CONTINUOUS
 10
139.7683021738
 20
108.2786821076
 11
139.7683021738
 21
108.8786821076
  0
LINE
  5
486
100
AcDbEntity
  8
0
100
AcDbLine
 62
7
  6
CONTINUOUS
 10
139.7708481738
 20
45.1073341076
 11
139.7708481738
 21
42.7066271076
  0
LINE
  5
487
100
AcDbEntity
  8
0
100
AcDbLine
 62
253
  6
CONTINUOUS
 10
140.0095146736
 20
106.1198946073
 11
140.0095146736
 21
106.5390267585
  0
LINE
  5
488
100
AcDbEntity
  8
0
100
AcDbLine
 62
253
  6
CONTINUOUS
 10
140.0095146736
 20
108.2183374567
 11
140.0095146736
 21
108.8785519208
  0
LINE
  5
489
100
AcDbEntity
  8
0
100
AcDbLine
 62
7
  6
CONTINUOUS
 10
140.0771351738
 20
42.7066271076
 11
140.0771351738
 21
45.1073341076
  0
LINE
  5
48A
100
AcDbEntity
  8
0
100
AcDbLine
 62
7
  6
CONTINUOUS
 10
140.1747034949
 20
111.8530446235
 11
140.1747034949
 21
109.7414960655
  0
LINE
  5
48B
100
AcDbEntity
  8
0
100
AcDbLine
 62
7
  6
CONTINUOUS
 10
140.1747034949
 20
105.0158681497
 11
140.1747034949
 21
102.9043195917
  0
LINE
  5
48C
100
AcDbEntity
  8
0
100
AcDbLine
 62
7
  6
CONTINUOUS
 10
140.2183021738
 20
162.037665829
 11
140.2183021738
 21
159.8607209128
  0
LINE
  5
48D
100
AcDbEntity
  8
0
100
AcDbLine
 62
7
  6
CONTINUOUS
 10
140.2183021738
 20
111.8966433024
 11
140.2183021738
 21
109.7196983862
  0
LINE
  5
48E
100
AcDbEntity
  8
0
100
AcDbLine
 62
7
  6
CONTINUOUS
 10
140.2183021738
 20
105.037665829
 11
140.2183021738
 21
102.8607209128
  0
LINE
  5
48F
100
AcDbEntity
  8
0
100
AcDbLine
 62
7
  6
CONTINUOUS
 10
140.2183021738
 20
54.8966433024
 11
140.2183021738
 21
52.7196983862
  0
LINE
  5
490
100
AcDbEntity
  8
0
100
AcDbLine
 62
253
  6
CONTINUOUS
 10
137.8527428078
 20
163.0932014066
 11
137.8526220004
 21
163.2018506785
  0
LINE
  5
491
100
AcDbEntity
  8
0
100
AcDbLine
 62
7
  6
CONTINUOUS
 10
138.5494282138
 20
52.7352602209
 11
138.5517405642
 21
54.8632049121
  0
LINE
  5
492
100
AcDbEntity
  8
0
100
AcDbLine
 62
7
  6
CONTINUOUS
 10
140.1871761339
 20
162.0221039943
 11
140.1848637835
 21
159.8941593031
  0
LINE
  5
493
100
AcDbEntity
  8
0
100
AcDbLine
 62
253
  6
CONTINUOUS
 10
137.2436275412
 20
159.8939279377
 11
137.2496940861
 21
162.6006366141
  0
LINE
  5
494
100
AcDbEntity
  8
0
100
AcDbLine
 62
253
  6
CONTINUOUS
 10
137.5478559058
 20
159.8888716589
 11
137.5538880482
 21
162.5786796604
  0
LINE
  5
495
100
AcDbEntity
  8
0
100
AcDbLine
 62
253
  6
CONTINUOUS
 10
138.4551412424
 20
163.8559357324
 11
138.4533215112
 21
163.2018506786
  0
LINE
  5
496
100
AcDbEntity
  8
0
100
AcDbLine
 62
253
  6
CONTINUOUS
 10
138.7560028707
 20
163.5332815154
 11
138.7542327683
 21
162.8803605481
  0
LINE
  5
497
100
AcDbEntity
  8
0
100
AcDbLine
 62
253
  6
CONTINUOUS
 10
139.9806014786
 20
51.2240826954
 11
139.9818062887
 21
51.6643924137
  0
LINE
  5
498
100
AcDbEntity
  8
0
100
AcDbLine
 62
253
  6
CONTINUOUS
 10
137.8524702511
 20
51.3427489774
 11
137.8527204098
 21
51.4747667262
  0
LINE
  5
499
100
AcDbEntity
  8
0
100
AcDbLine
 62
253
  6
CONTINUOUS
 10
137.8246359821
 20
108.5786821076
 11
137.8249340125
 21
108.7054675861
  0
LINE
  5
49A
100
AcDbEntity
  8
0
100
AcDbLine
 62
253
  6
CONTINUOUS
 10
137.8527204098
 20
51.4747667262
 11
137.8533372737
 21
51.5660892591
  0
LINE
  5
49B
100
AcDbEntity
  8
0
100
AcDbLine
 62
253
  6
CONTINUOUS
 10
137.8249340125
 20
108.7054675861
 11
137.8255676614
 21
108.790814142
  0
LINE
  5
49C
100
AcDbEntity
  8
0
100
AcDbLine
 62
253
  6
CONTINUOUS
 10
137.8533372737
 20
51.5660892591
 11
137.8537603626
 21
51.6028256174
  0
LINE
  5
49D
100
AcDbEntity
  8
0
100
AcDbLine
 62
7
  6
CONTINUOUS
 10
134.1558752298
 20
40.6194158921
 11
134.1562550781
 21
40.650156749
  0
LINE
  5
49E
100
AcDbEntity
  8
0
100
AcDbLine
 62
253
  6
CONTINUOUS
 10
137.8255676614
 20
108.790814142
 11
137.825992415
 21
108.8244277209
  0
LWPOLYLINE
  5
49F
100
AcDbEntity
  8
0
100
AcDbPolyline
 62
253
  6
CONTINUOUS
 90
8
 70
0
 10
140.8829513294
 20
162.955628575
 10
140.8824910008
 20
162.9228255894
 10
140.8822392325
 20
162.9095748089
 10
140.8819758356
 20
162.8985785019
 10
140.8817030165
 20
162.8899287912
 10
140.881423061
 20
162.8836981405
 10
140.8811383143
 20
162.8799387477
 10
140.880851162
 20
162.8786821076
  0
LWPOLYLINE
  5
4A0
100
AcDbEntity
  8
0
100
AcDbPolyline
 62
253
  6
CONTINUOUS
 90
7
 70
0
 10
137.8537603626
 20
51.6028256174
 10
137.8542425593
 20
51.6319711436
 10
137.854501047
 20
51.6433945862
 10
137.8547683856
 20
51.6525902818
 10
137.8550424253
 20
51.6594842876
 10
137.8553209627
 20
51.6640211686
 10
137.8556017579
 20
51.6661644436
  0
LWPOLYLINE
  5
4A1
100
AcDbEntity
  8
0
100
AcDbPolyline
 62
253
  6
CONTINUOUS
 90
7
 70
0
 10
137.825992415
 20
108.8244277209
 10
137.8264726057
 20
108.8505744437
 10
137.8267289845
 20
108.8605898938
 10
137.8269936432
 20
108.8684598555
 10
137.8272645676
 20
108.8741244335
 10
137.8275396959
 20
108.877540517
 10
137.8278169341
 20
108.8786821076
  0
LINE
  5
4A2
100
AcDbEntity
  8
0
100
AcDbLine
 62
7
  6
CONTINUOUS
 10
137.7543343979
 20
162.0751914934
 11
137.7547031943
 21
162.0858450058
  0
LINE
  5
4A3
100
AcDbEntity
  8
0
100
AcDbLine
 62
7
  6
CONTINUOUS
 10
137.7543343979
 20
105.0751914934
 11
137.7547031943
 21
105.0858450058
  0
LWPOLYLINE
  5
4A4
100
AcDbEntity
  8
0
100
AcDbPolyline
 62
253
  6
CONTINUOUS
 90
22
 70
0
 10
137.2496940861
 20
162.6006366141
 10
137.2516006147
 20
162.646160278
 10
137.2567736348
 20
162.6908934366
 10
137.265212922
 20
162.7348361385
 10
137.2770025933
 20
162.7782121919
 10
137.2920581074
 20
162.8207978749
 10
137.3101262899
 20
162.8619219834
 10
137.3312588083
 20
162.9015728753
 10
137.3554036944
 20
162.9397623668
 10
137.3821524055
 20
162.9758545164
 10
137.4115463164
 20
163.0098115661
 10
137.4435439387
 20
163.0416714973
 10
137.4776125465
 20
163.0709120314
 10
137.5137873765
 20
163.0974904418
 10
137.5520332896
 20
163.121449681
 10
137.5917121094
 20
163.1423960141
 10
137.6328329564
 20
163.1602786046
 10
137.6753870014
 20
163.1751484719
 10
137.7187092336
 20
163.186764664
 10
137.7625781337
 20
163.1950468999
 10
137.8072156472
 20
163.2000755629
 10
137.8526220004
 20
163.2018506786
  0
LWPOLYLINE
  5
4A5
100
AcDbEntity
  8
0
100
AcDbPolyline
 62
253
  6
CONTINUOUS
 90
22
 70
0
 10
137.5538880413
 20
162.5786796604
 10
137.5548512991
 20
162.6011950212
 10
137.5574984506
 20
162.6235618266
 10
137.561810394
 20
162.6456547083
 10
137.5677575871
 20
162.6673445359
 10
137.5753029297
 20
162.6885171244
 10
137.584406397
 20
162.7090723601
 10
137.5950206216
 20
162.7289016968
 10
137.6070836586
 20
162.7478879741
 10
137.6205244829
 20
162.7659233383
 10
137.6352664673
 20
162.7829066627
 10
137.6512277907
 20
162.7987451802
 10
137.6683186855
 20
162.8133525609
 10
137.6864442509
 20
162.8266483582
 10
137.7055029442
 20
162.8385586395
 10
137.7253867677
 20
162.8490176396
 10
137.7459782883
 20
162.8579653372
 10
137.7671690516
 20
162.8653562619
 10
137.788860187
 20
162.8711547801
 10
137.8109385071
 20
162.8753260338
 10
137.8332754602
 20
162.8778410563
 10
137.8557467553
 20
162.8786821075
  0
LWPOLYLINE
  5
4A6
100
AcDbEntity
  8
0
100
AcDbPolyline
 62
253
  6
CONTINUOUS
 90
10
 70
0
 10
132.8914591212
 20
40.748126044
 10
132.8903000069
 20
40.7346563723
 10
132.8893150055
 20
40.7224312538
 10
132.8885126837
 20
40.7115570107
 10
132.8879000192
 20
40.7021282161
 10
132.8874823404
 20
40.6942268724
 10
132.8872632799
 20
40.6879216975
 10
132.8872447427
 20
40.6832675277
 10
132.8874268901
 20
40.6803048402
 10
132.8878081381
 20
40.6790594015
  0
LWPOLYLINE
  5
4A7
100
AcDbEntity
  8
0
100
AcDbPolyline
 62
253
  6
CONTINUOUS
 90
10
 70
0
 10
145.8451452265
 20
174.0092381711
 10
145.8463043408
 20
174.0227078429
 10
145.8472893422
 20
174.0349329613
 10
145.848091664
 20
174.0458072045
 10
145.8487043285
 20
174.0552359991
 10
145.8491220073
 20
174.0631373428
 10
145.8493410678
 20
174.0694425177
 10
145.849359605
 20
174.0740966875
 10
145.8491774575
 20
174.077059375
 10
145.8487962096
 20
174.0783048136
  0
LINE
  5
4A8
100
AcDbEntity
  8
0
100
AcDbLine
 62
253
  6
CONTINUOUS
 10
144.6866461196
 20
176.1405182053
 11
144.5659778116
 21
174.7959219241
  0
LINE
  5
4A9
100
AcDbEntity
  8
0
100
AcDbLine
 62
253
  6
CONTINUOUS
 10
134.0499582281
 20
38.6168460099
 11
134.1706265361
 21
39.9614422911
  0
LINE
  5
4AA
100
AcDbEntity
  8
0
100
AcDbLine
 62
253
  6
CONTINUOUS
 10
132.8942579389
 20
40.7783206594
 11
132.8914591212
 21
40.748126044
  0
LINE
  5
4AB
100
AcDbEntity
  8
0
100
AcDbLine
 62
253
  6
CONTINUOUS
 10
145.8423464088
 20
173.9790435558
 11
145.8451452265
 21
174.0092381711
  0
LINE
  5
4AC
100
AcDbEntity
  8
0
100
AcDbLine
 62
253
  6
CONTINUOUS
 10
145.8389900426
 20
173.9453972421
 11
145.8423464088
 21
173.9790435558
  0
LINE
  5
4AD
100
AcDbEntity
  8
0
100
AcDbLine
 62
253
  6
CONTINUOUS
 10
132.8976143051
 20
40.811966973
 11
132.8942579389
 21
40.7783206594
  0
LINE
  5
4AE
100
AcDbEntity
  8
0
100
AcDbLine
 62
253
  6
CONTINUOUS
 10
145.8351926355
 20
173.9094671738
 11
145.8389900426
 21
173.9453972421
  0
LINE
  5
4AF
100
AcDbEntity
  8
0
100
AcDbLine
 62
253
  6
CONTINUOUS
 10
132.9014117121
 20
40.8478970414
 11
132.8976143051
 21
40.811966973
  0
LINE
  5
4B0
100
AcDbEntity
  8
0
100
AcDbLine
 62
253
  6
CONTINUOUS
 10
145.8583021738
 20
174.1622085353
 11
145.8486293671
 21
174.0783236569
  0
LWPOLYLINE
  5
4B1
100
AcDbEntity
  8
0
100
AcDbPolyline
 62
253
  6
CONTINUOUS
 90
12
 70
0
 10
148.937085935
 20
173.5020604778
 10
148.9397202971
 20
173.5174563595
 10
148.942109455
 20
173.5318712039
 10
148.9442327109
 20
173.5451801303
 10
148.9460716701
 20
173.5572678391
 10
148.9476104013
 20
173.5680296106
 10
148.948835574
 20
173.5773722121
 10
148.949736574
 20
173.5852147056
 10
148.9503055958
 20
173.5914891493
 10
148.9505377098
 20
173.5961411856
 10
148.9504309051
 20
173.5991305125
 10
148.949986107
 20
173.6004312326
  0
LINE
  5
4B2
100
AcDbEntity
  8
0
100
AcDbLine
 62
253
  6
CONTINUOUS
 10
148.9311748147
 20
173.4688664645
 11
148.937085935
 21
173.5020604778
  0
LINE
  5
4B3
100
AcDbEntity
  8
0
100
AcDbLine
 62
253
  6
CONTINUOUS
 10
148.9245804905
 20
173.4334369571
 11
148.9311748147
 21
173.4688664645
  0
LINE
  5
4B4
100
AcDbEntity
  8
0
100
AcDbLine
 62
253
  6
CONTINUOUS
 10
148.9659317776
 20
173.6815518882
 11
148.9499440457
 21
173.6004401007
  0
LINE
  5
4B5
100
AcDbEntity
  8
0
100
AcDbLine
 62
253
  6
CONTINUOUS
 10
149.624079372
 20
175.3885376764
 11
149.3389923444
 21
174.0689826807
  0
LINE
  5
4B6
100
AcDbEntity
  8
0
100
AcDbLine
 62
7
  6
CONTINUOUS
 10
153.9385149195
 20
153.1786821076
 11
153.9725574686
 21
153.2786821076
  0
LINE
  5
4B7
100
AcDbEntity
  8
0
100
AcDbLine
 62
7
  6
CONTINUOUS
 10
153.9385149195
 20
151.7120155045
 11
153.9725574686
 21
151.8120155045
  0
LINE
  5
4B8
100
AcDbEntity
  8
0
100
AcDbLine
 62
7
  6
CONTINUOUS
 10
154.6193659975
 20
152.9453489014
 11
154.5853234484
 21
152.8453489014
  0
LINE
  5
4B9
100
AcDbEntity
  8
0
100
AcDbLine
 62
7
  6
CONTINUOUS
 10
153.9385149195
 20
150.245348806
 11
153.9725574686
 21
150.345348806
  0
LINE
  5
4BA
100
AcDbEntity
  8
0
100
AcDbLine
 62
7
  6
CONTINUOUS
 10
154.5172383501
 20
151.7453487107
 11
154.5512808993
 21
151.8453487107
  0
LINE
  5
4BB
100
AcDbEntity
  8
0
100
AcDbLine
 62
7
  6
CONTINUOUS
 10
155.1980894043
 20
152.9786821076
 11
155.1640468552
 21
152.8786821076
  0
LINE
  5
4BC
100
AcDbEntity
  8
0
100
AcDbLine
 62
7
  6
CONTINUOUS
 10
154.6193659975
 20
150.0120154091
 11
154.5853234484
 21
149.9120154091
  0
LINE
  5
4BD
100
AcDbEntity
  8
0
100
AcDbLine
 62
7
  6
CONTINUOUS
 10
155.1980894043
 20
151.5120155045
 11
155.1640468552
 21
151.4120155045
  0
LWPOLYLINE
  5
4BE
100
AcDbEntity
  8
0
100
AcDbPolyline
 62
7
  6
CONTINUOUS
 90
6
 70
0
 10
138.7002151388
 20
108.8522741175
 10
138.7086451185
 20
108.8607077927
 10
138.7157448878
 20
108.8676018249
 10
138.721325354
 20
108.8727914999
 10
138.7251729086
 20
108.8764415318
 10
138.7270896741
 20
108.8785519208
  0
LWPOLYLINE
  5
4BF
100
AcDbEntity
  8
0
100
AcDbPolyline
 62
7
  6
CONTINUOUS
 90
6
 70
0
 10
138.7002159072
 20
108.1920614488
 10
138.7086456842
 20
108.2004945758
 10
138.7157452549
 20
108.2073881488
 10
138.7213255451
 20
108.2125774721
 10
138.7251729698
 20
108.2162272414
 10
138.7270896741
 20
108.2183374567
  0
LINE
  5
4C0
100
AcDbEntity
  8
0
100
AcDbLine
 62
7
  6
CONTINUOUS
 10
140.1747034949
 20
111.8530446235
 11
140.2183021738
 21
111.8966433024
  0
LWPOLYLINE
  5
4C1
100
AcDbEntity
  8
0
100
AcDbPolyline
 62
7
  6
CONTINUOUS
 90
3
 70
0
 10
138.6684136672
 20
108.8208070578
 10
138.6799369805
 20
108.8323237501
 10
138.7002151388
 20
108.8522741175
  0
LWPOLYLINE
  5
4C2
100
AcDbEntity
  8
0
100
AcDbPolyline
 62
7
  6
CONTINUOUS
 90
3
 70
0
 10
138.6684149681
 20
108.160596212
 10
138.6799381286
 20
108.1721122668
 10
138.7002159072
 20
108.1920614488
  0
LINE
  5
4C3
100
AcDbEntity
  8
0
100
AcDbLine
 62
7
  6
CONTINUOUS
 10
138.4253292912
 20
108.5786821076
 11
138.4573761453
 21
108.6107563542
  0
LINE
  5
4C4
100
AcDbEntity
  8
0
100
AcDbLine
 62
7
  6
CONTINUOUS
 10
138.4253292912
 20
107.9184818924
 11
138.4573766418
 21
107.9505548561
  0
LINE
  5
4C5
100
AcDbEntity
  8
0
100
AcDbLine
 62
7
  6
CONTINUOUS
 10
138.4573761453
 20
108.6107563542
 11
138.6430166668
 21
108.7956711753
  0
LINE
  5
4C6
100
AcDbEntity
  8
0
100
AcDbLine
 62
7
  6
CONTINUOUS
 10
138.4573766418
 20
107.9505548561
 11
138.6430181973
 21
108.1354616335
  0
LINE
  5
4C7
100
AcDbEntity
  8
0
100
AcDbLine
 62
7
  6
CONTINUOUS
 10
138.6430166668
 20
108.7956711753
 11
138.6684136672
 21
108.8208070578
  0
LINE
  5
4C8
100
AcDbEntity
  8
0
100
AcDbLine
 62
7
  6
CONTINUOUS
 10
138.6430181973
 20
108.1354616335
 11
138.6684149681
 21
108.160596212
  0
LINE
  5
4C9
100
AcDbEntity
  8
0
100
AcDbLine
 62
7
  6
CONTINUOUS
 10
140.9819011534
 20
109.6715192093
 11
140.5786409799
 21
109.2786821076
  0
LINE
  5
4CA
100
AcDbEntity
  8
0
100
AcDbLine
 62
7
  6
CONTINUOUS
 10
137.7547031943
 20
105.0858450058
 11
138.1579633678
 21
105.4786821076
  0
LINE
  5
4CB
100
AcDbEntity
  8
0
100
AcDbLine
 62
7
  6
CONTINUOUS
 10
138.7270896741
 20
108.2183374567
 11
138.7273068223
 21
108.2184562133
  0
LINE
  5
4CC
100
AcDbEntity
  8
0
100
AcDbLine
 62
7
  6
CONTINUOUS
 10
138.5619008528
 20
109.7414960655
 11
138.5183021738
 21
109.7196983862
  0
LINE
  5
4CD
100
AcDbEntity
  8
0
100
AcDbLine
 62
7
  6
CONTINUOUS
 10
122.3804439467
 20
102.7828174919
 11
122.5452696341
 21
102.8377147441
  0
LINE
  5
4CE
100
AcDbEntity
  8
0
100
AcDbLine
 62
7
  6
CONTINUOUS
 10
137.7543343979
 20
105.0751914934
 11
137.6041745572
 21
105.037665829
  0
LINE
  5
4CF
100
AcDbEntity
  8
0
100
AcDbLine
 62
7
  6
CONTINUOUS
 10
139.7683021738
 20
106.4786821076
 11
140.0092975253
 21
106.5389080018
  0
LWPOLYLINE
  5
4D0
100
AcDbEntity
  8
0
100
AcDbPolyline
 62
253
  6
CONTINUOUS
 90
25
 70
0
 10
137.8239035131
 20
106.4195328031
 10
137.7842634674
 20
106.4181760965
 10
137.7451465065
 20
106.4143113474
 10
137.7065526287
 20
106.4079385556
 10
137.6683289636
 20
106.3990098122
 10
137.6306283783
 20
106.3875730263
 10
137.5939094733
 20
106.3737719251
 10
137.5581758125
 20
106.3575741742
 10
137.5234238186
 20
106.339012108
 10
137.4901013716
 20
106.3183264576
 10
137.4582303116
 20
106.2954922991
 10
137.4277887769
 20
106.2705345564
 10
137.3991590877
 20
106.2437687319
 10
137.3723632404
 20
106.2151722543
 10
137.3473792125
 20
106.1847676949
 10
137.3245232913
 20
106.1529382706
 10
137.3038206046
 20
106.1196606645
 10
137.2852459986
 20
106.0849581935
 10
137.2690403361
 20
106.0492840243
 10
137.255237186
 20
106.0126450127
 10
137.2438029585
 20
105.9750343029
 10
137.2348777794
 20
105.9368844945
 10
137.2285083531
 20
105.8983397872
 10
137.2246479636
 20
105.8592559814
 10
137.2232966078
 20
105.8196330768
  0
LINE
  5
4D1
100
AcDbEntity
  8
0
100
AcDbLine
 62
7
  6
CONTINUOUS
 10
140.5786409799
 20
105.8786821076
 11
140.6716204342
 21
105.8818176161
  0
LWPOLYLINE
  5
4D2
100
AcDbEntity
  8
0
100
AcDbPolyline
 62
253
  6
CONTINUOUS
 90
25
 70
0
 10
137.8270820672
 20
106.1197155558
 10
137.807417501
 20
106.1190795419
 10
137.7878501456
 20
106.1171567679
 10
137.7684636221
 20
106.1139573879
 10
137.7493437168
 20
106.1094978807
 10
137.7305685515
 20
106.103798688
 10
137.7122088605
 20
106.0968820595
 10
137.6943388933
 20
106.0887753207
 10
137.6770395918
 20
106.0795146698
 10
137.6603887526
 20
106.0691421935
 10
137.6444589259
 20
106.0577041409
 10
137.6293158624
 20
106.045248987
 10
137.6150222927
 20
106.0318293894
 10
137.6016389354
 20
106.017502685
 10
137.5892228471
 20
106.0023304659
 10
137.5778258321
 20
105.9863770731
 10
137.5674954691
 20
105.9697087272
 10
137.5582770899
 20
105.9523983198
 10
137.5502115792
 20
105.9345250507
 10
137.5433360594
 20
105.916176296
 10
137.5376737932
 20
105.8974202917
 10
137.5332417405
 20
105.8783092783
 10
137.530061868
 20
105.8589142465
 10
137.528155009
 20
105.8393264248
 10
137.5275339606
 20
105.81962922
  0
LINE
  5
4D3
100
AcDbEntity
  8
0
100
AcDbLine
 62
253
  6
CONTINUOUS
 10
138.7270326706
 20
106.1199516108
 11
137.8270820692
 21
106.1197155538
  0
LINE
  5
4D4
100
AcDbEntity
  8
0
100
AcDbLine
 62
253
  6
CONTINUOUS
 10
138.4253292912
 20
106.4197118554
 11
137.8239035131
 21
106.4195328031
  0
LINE
  5
4D5
100
AcDbEntity
  8
0
100
AcDbLine
 62
7
  6
CONTINUOUS
 10
157.0183021738
 20
102.7786821076
 11
156.6058177847
 21
102.7786821076
  0
LINE
  5
4D6
100
AcDbEntity
  8
0
100
AcDbLine
 62
7
  6
CONTINUOUS
 10
122.130786563
 20
102.7786821076
 11
121.7183021738
 21
102.7786821076
  0
LINE
  5
4D7
100
AcDbEntity
  8
0
100
AcDbLine
 62
7
  6
CONTINUOUS
 10
146.8683021738
 20
102.8607209128
 11
141.1324297905
 21
102.8607209128
  0
LINE
  5
4D8
100
AcDbEntity
  8
0
100
AcDbLine
 62
7
  6
CONTINUOUS
 10
140.2183021738
 20
102.8607209128
 11
138.5183021738
 21
102.8607209128
  0
LINE
  5
4D9
100
AcDbEntity
  8
0
100
AcDbLine
 62
7
  6
CONTINUOUS
 10
137.6041745572
 20
102.8607209128
 11
131.8683021738
 21
102.8607209128
  0
LINE
  5
4DA
100
AcDbEntity
  8
0
100
AcDbLine
 62
7
  6
CONTINUOUS
 10
137.6041745572
 20
105.037665829
 11
138.5183021738
 21
105.037665829
  0
LINE
  5
4DB
100
AcDbEntity
  8
0
100
AcDbLine
 62
7
  6
CONTINUOUS
 10
140.2183021738
 20
105.037665829
 11
141.1324297905
 21
105.037665829
  0
LINE
  5
4DC
100
AcDbEntity
  8
0
100
AcDbLine
 62
7
  6
CONTINUOUS
 10
137.7543343979
 20
105.0751914934
 11
140.9822699498
 21
105.0751914934
  0
LINE
  5
4DD
100
AcDbEntity
  8
0
100
AcDbLine
 62
7
  6
CONTINUOUS
 10
138.1579633678
 20
105.4786821076
 11
140.5786409799
 21
105.4786821076
  0
LINE
  5
4DE
100
AcDbEntity
  8
0
100
AcDbLine
 62
253
  6
CONTINUOUS
 10
141.5133077399
 20
105.8196330768
 11
141.2090703912
 21
105.8196330768
  0
LINE
  5
4DF
100
AcDbEntity
  8
0
100
AcDbLine
 62
253
  6
CONTINUOUS
 10
137.2232966078
 20
105.8196330768
 11
137.5275339565
 21
105.8196330768
  0
LINE
  5
4E0
100
AcDbEntity
  8
0
100
AcDbLine
 62
7
  6
CONTINUOUS
 10
140.5786409799
 20
105.8786821076
 11
139.7683021738
 21
105.8786821076
  0
LINE
  5
4E1
100
AcDbEntity
  8
0
100
AcDbLine
 62
7
  6
CONTINUOUS
 10
138.9683021738
 20
105.8786821076
 11
138.1579633678
 21
105.8786821076
  0
LINE
  5
4E2
100
AcDbEntity
  8
0
100
AcDbLine
 62
7
  6
CONTINUOUS
 10
139.7683021738
 20
106.4786821076
 11
138.9683021738
 21
106.4786821076
  0
LINE
  5
4E3
100
AcDbEntity
  8
0
100
AcDbLine
 62
253
  6
CONTINUOUS
 10
138.7273068223
 20
106.5389080018
 11
140.0092975253
 21
106.5389080018
  0
LINE
  5
4E4
100
AcDbEntity
  8
0
100
AcDbLine
 62
253
  6
CONTINUOUS
 10
138.4253292912
 20
106.8388823228
 11
140.3112750565
 21
106.8388823228
  0
LINE
  5
4E5
100
AcDbEntity
  8
0
100
AcDbLine
 62
253
  6
CONTINUOUS
 10
140.3112750565
 20
107.9184818924
 11
138.4253292912
 21
107.9184818924
  0
LINE
  5
4E6
100
AcDbEntity
  8
0
100
AcDbLine
 62
253
  6
CONTINUOUS
 10
140.9095146555
 20
106.1197155562
 11
140.0095716771
 21
106.1199516108
  0
LINE
  5
4E7
100
AcDbEntity
  8
0
100
AcDbLine
 62
253
  6
CONTINUOUS
 10
140.9127008346
 20
106.4195328031
 11
140.3112750565
 21
106.4197118554
  0
LINE
  5
4E8
100
AcDbEntity
  8
0
100
AcDbLine
 62
7
  6
CONTINUOUS
 10
138.0649839135
 20
105.8818176161
 11
138.1579633678
 21
105.8786821076
  0
LINE
  5
4E9
100
AcDbEntity
  8
0
100
AcDbLine
 62
7
  6
CONTINUOUS
 10
140.9822699498
 20
105.0751914934
 11
141.1324297905
 21
105.037665829
  0
LINE
  5
4EA
100
AcDbEntity
  8
0
100
AcDbLine
 62
7
  6
CONTINUOUS
 10
138.9683021738
 20
106.4786821076
 11
138.7273068223
 21
106.5389080018
  0
LINE
  5
4EB
100
AcDbEntity
  8
0
100
AcDbLine
 62
7
  6
CONTINUOUS
 10
122.3804439467
 20
111.9745467232
 11
122.5452696341
 21
111.919649471
  0
LINE
  5
4EC
100
AcDbEntity
  8
0
100
AcDbLine
 62
7
  6
CONTINUOUS
 10
138.5183021738
 20
105.037665829
 11
138.5619008528
 21
105.0158681497
  0
LINE
  5
4ED
100
AcDbEntity
  8
0
100
AcDbLine
 62
7
  6
CONTINUOUS
 10
138.7273068223
 20
106.5389080018
 11
138.7270896741
 21
106.5390267585
  0
LINE
  5
4EE
100
AcDbEntity
  8
0
100
AcDbLine
 62
7
  6
CONTINUOUS
 10
140.9819011534
 20
105.0858450058
 11
140.5786409799
 21
105.4786821076
  0
LINE
  5
4EF
100
AcDbEntity
  8
0
100
AcDbLine
 62
7
  6
CONTINUOUS
 10
137.7547031943
 20
109.6715192093
 11
138.1579633678
 21
109.2786821076
  0
LWPOLYLINE
  5
4F0
100
AcDbEntity
  8
0
100
AcDbPolyline
 62
7
  6
CONTINUOUS
 90
7
 70
0
 10
138.6799381285
 20
106.5852519484
 10
138.7002159072
 20
106.5653027665
 10
138.7086456841
 20
106.5568696394
 10
138.7157452549
 20
106.5499760664
 10
138.7213255451
 20
106.5447867431
 10
138.7251729698
 20
106.5411369738
 10
138.7270896741
 20
106.5390267585
  0
LWPOLYLINE
  5
4F1
100
AcDbEntity
  8
0
100
AcDbPolyline
 62
7
  6
CONTINUOUS
 90
7
 70
0
 10
138.6797523565
 20
106.1663042239
 10
138.7000319343
 20
106.1463423185
 10
138.7084639918
 20
106.1379023687
 10
138.7156001533
 20
106.1309893403
 10
138.7212406636
 20
106.1257641747
 10
138.7251431884
 20
106.1220659304
 10
138.7270896741
 20
106.1198946073
  0
LWPOLYLINE
  5
4F2
100
AcDbEntity
  8
0
100
AcDbPolyline
 62
7
  6
CONTINUOUS
 90
3
 70
0
 10
138.6428074792
 20
106.2029746142
 10
138.668220918
 20
106.1778261795
 10
138.6797523565
 20
106.1663042239
  0
LWPOLYLINE
  5
4F3
100
AcDbEntity
  8
0
100
AcDbPolyline
 62
7
  6
CONTINUOUS
 90
3
 70
0
 10
138.6430181972
 20
106.6219025818
 10
138.668414968
 20
106.5967680033
 10
138.6799381285
 20
106.5852519484
  0
LINE
  5
4F4
100
AcDbEntity
  8
0
100
AcDbLine
 62
7
  6
CONTINUOUS
 10
138.4412146448
 20
106.4037622322
 11
138.6428074792
 21
106.2029746142
  0
LINE
  5
4F5
100
AcDbEntity
  8
0
100
AcDbLine
 62
7
  6
CONTINUOUS
 10
140.2183021738
 20
102.8607209128
 11
140.1747034949
 21
102.9043195917
  0
LINE
  5
4F6
100
AcDbEntity
  8
0
100
AcDbLine
 62
253
  6
CONTINUOUS
 10
137.7547031943
 20
105.592463839
 11
137.5275339565
 21
105.8196292241
  0
LINE
  5
4F7
100
AcDbEntity
  8
0
100
AcDbLine
 62
253
  6
CONTINUOUS
 10
138.0649839135
 20
105.8818176161
 11
137.8270820692
 21
106.1197155538
  0
LINE
  5
4F8
100
AcDbEntity
  8
0
100
AcDbLine
 62
7
  6
CONTINUOUS
 10
138.7270326706
 20
106.1199516108
 11
138.9683021738
 21
105.8786821076
  0
LINE
  5
4F9
100
AcDbEntity
  8
0
100
AcDbLine
 62
7
  6
CONTINUOUS
 10
138.4412737762
 20
106.8228705524
 11
138.6430181972
 21
106.6219025818
  0
LINE
  5
4FA
100
AcDbEntity
  8
0
100
AcDbLine
 62
7
  6
CONTINUOUS
 10
138.4253292912
 20
106.4197118554
 11
138.4412146448
 21
106.4037622322
  0
LINE
  5
4FB
100
AcDbEntity
  8
0
100
AcDbLine
 62
7
  6
CONTINUOUS
 10
138.4253292912
 20
106.8388823228
 11
138.4412737762
 21
106.8228705524
  0
LINE
  5
4FC
100
AcDbEntity
  8
0
100
AcDbLine
 62
253
  6
CONTINUOUS
 10
149.624079372
 20
39.3688265387
 11
149.3389923444
 21
40.6883815344
  0
LINE
  5
4FD
100
AcDbEntity
  8
0
100
AcDbLine
 62
253
  6
CONTINUOUS
 10
148.9659317776
 20
41.075812327
 11
148.9499367328
 21
41.1569226817
  0
LINE
  5
4FE
100
AcDbEntity
  8
0
100
AcDbLine
 62
253
  6
CONTINUOUS
 10
148.9245804926
 20
41.3239272533
 11
148.9311748356
 21
41.288497667
  0
LWPOLYLINE
  5
4FF
100
AcDbEntity
  8
0
100
AcDbPolyline
 62
253
  6
CONTINUOUS
 90
13
 70
0
 10
148.9311748356
 20
41.288497667
 10
148.9370859767
 20
41.2553035594
 10
148.9397203493
 20
41.2399076274
 10
148.9421095176
 20
41.2254927321
 10
148.9442327834
 20
41.2121837553
 10
148.9460717521
 20
41.2000959978
 10
148.9476104918
 20
41.1893341802
 10
148.948835672
 20
41.1799915365
 10
148.9497366785
 20
41.1721490054
 10
148.9503057054
 20
41.1658745298
 10
148.9505378231
 20
41.1612224679
 10
148.9504310207
 20
41.1582331222
 10
148.9499862234
 20
41.1569323906
  0
LINE
  5
500
100
AcDbEntity
  8
0
100
AcDbLine
 62
253
  6
CONTINUOUS
 10
145.8583021738
 20
40.5951556798
 11
145.8486559139
 21
40.679043553
  0
LWPOLYLINE
  5
501
100
AcDbEntity
  8
0
100
AcDbPolyline
 62
7
  6
CONTINUOUS
 90
25
 70
0
 10
141.1827162747
 20
162.5786856797
 10
141.1819693346
 20
162.5983405141
 10
141.1799368163
 20
162.6179049697
 10
141.1766281678
 20
162.637295144
 10
141.1720585623
 20
162.6564253921
 10
141.16624836
 20
162.6752166361
 10
141.159221313
 20
162.6935961978
 10
141.1510045832
 20
162.711489372
 10
141.1416341127
 20
162.7288147703
 10
141.1311539859
 20
162.7454928653
 10
141.1196106619
 20
162.7614508622
 10
141.1070527056
 20
162.7766226232
 10
141.0935351231
 20
162.7909438341
 10
141.0791158152
 20
162.8043537452
 10
141.0638566635
 20
162.8167953253
 10
141.0478243414
 20
162.8282157496
 10
141.0310857521
 20
162.8385677945
 10
141.0137141293
 20
162.84780654
 10
140.9957906974
 20
162.8558906689
 10
140.9774038543
 20
162.8627836551
 10
140.958621645
 20
162.8684632318
 10
140.9394964669
 20
162.8729128197
 10
140.920099424
 20
162.8761110911
 10
140.9005218326
 20
162.8780381759
 10
140.8808511661
 20
162.8786821076
  0
LWPOLYLINE
  5
502
100
AcDbEntity
  8
0
100
AcDbPolyline
 62
253
  6
CONTINUOUS
 90
25
 70
0
 10
141.4869102616
 20
162.6006366141
 10
141.4854655104
 20
162.6402886568
 10
141.4815038145
 20
162.6794260187
 10
141.475025325
 20
162.718048727
 10
141.4659823592
 20
162.7563115998
 10
141.4544228902
 20
162.7940598673
 10
141.4404905345
 20
162.8308292011
 10
141.4241520645
 20
162.8666158704
 10
141.4054409357
 20
162.9014237095
 10
141.3846007458
 20
162.9347997868
 10
141.3616057822
 20
162.9667218668
 10
141.3364818848
 20
162.9972123257
 10
141.3095499179
 20
163.0258851878
 10
141.2807868957
 20
163.0527176488
 10
141.2502158104
 20
163.0777326674
 10
141.2182264243
 20
163.1006129352
 10
141.1847953538
 20
163.1213324504
 10
141.1499458657
 20
163.139917359
 10
141.1141376334
 20
163.1561285842
 10
141.0773787963
 20
163.1699317475
 10
141.0396609913
 20
163.1813613387
 10
141.0014190906
 20
163.1902815793
 10
140.9627979494
 20
163.1966472309
 10
140.9236524196
 20
163.2005035922
 10
140.8839823473
 20
163.2018506786
  0
LINE
  5
503
100
AcDbEntity
  8
0
100
AcDbLine
 62
7
  6
CONTINUOUS
 10
140.9819011534
 20
105.0858450058
 11
140.9822699498
 21
105.0751914934
  0
LINE
  5
504
100
AcDbEntity
  8
0
100
AcDbLine
 62
7
  6
CONTINUOUS
 10
140.9819011534
 20
162.0858450058
 11
140.9822699498
 21
162.0751914934
  0
LWPOLYLINE
  5
505
100
AcDbEntity
  8
0
100
AcDbPolyline
 62
253
  6
CONTINUOUS
 90
25
 70
0
 10
141.5133077399
 20
105.8196330768
 10
141.5119707881
 20
105.8591272661
 10
141.5081296255
 20
105.8981077375
 10
141.5017842493
 20
105.936574491
 10
141.4928883255
 20
105.9746790646
 10
141.4814881765
 20
106.0122699202
 10
141.4677227815
 20
106.0488924438
 10
141.4515601839
 20
106.0845440055
 10
141.4330323196
 20
106.1192272352
 10
141.4123740058
 20
106.1524954084
 10
141.3895599813
 20
106.1843278893
 10
141.3646154814
 20
106.2147453137
 10
141.3378510708
 20
106.2433628646
 10
141.3092434295
 20
106.2701593109
 10
141.2788158513
 20
106.2951558836
 10
141.2469488258
 20
106.3180314588
 10
141.2136178395
 20
106.3387612683
 10
141.1788473842
 20
106.3573700803
 10
141.1430914644
 20
106.3736110744
 10
141.1063557865
 20
106.3874503631
 10
141.0686346308
 20
106.3989218341
 10
141.0303648715
 20
106.4078803293
 10
140.9916921337
 20
106.4142774629
 10
140.9524707888
 20
106.4181616209
 10
140.9127008346
 20
106.4195328031
  0
LWPOLYLINE
  5
506
100
AcDbEntity
  8
0
100
AcDbPolyline
 62
253
  6
CONTINUOUS
 90
25
 70
0
 10
141.2090703954
 20
105.819637077
 10
141.2084525081
 20
105.8392776409
 10
141.2065541427
 20
105.858825142
 10
141.2033849503
 20
105.8781963909
 10
141.1989611044
 20
105.8973057047
 10
141.193302307
 20
105.9160755422
 10
141.1864293916
 20
105.9344361509
 10
141.1783688858
 20
105.9523134684
 10
141.1691561745
 20
105.9696264153
 10
141.1588315241
 20
105.9862973895
 10
141.147440144
 20
106.0022537299
 10
141.135029766
 20
106.0174290317
 10
141.1216515458
 20
106.0317596647
 10
141.1073619602
 20
106.0451843582
 10
141.0922220454
 20
106.0576451935
 10
141.0762952194
 20
106.0690888741
 10
141.0596470369
 20
106.0794670794
 10
141.0423502837
 20
106.0887334287
 10
141.024484356
 20
106.0968452083
 10
141.0061364671
 20
106.1037644806
 10
140.9873750642
 20
106.1094671802
 10
140.9682534471
 20
106.1139349272
 10
140.9488432134
 20
106.1171450211
 10
140.9292356693
 20
106.119076329
 10
140.9095146536
 20
106.1197155543
  0
LWPOLYLINE
  5
507
100
AcDbEntity
  8
0
100
AcDbPolyline
 62
7
  6
CONTINUOUS
 90
7
 70
0
 10
144.5814557308
 20
40.5829337966
 10
144.5817382578
 20
40.5734626746
 10
144.5820391156
 20
40.5653868188
 10
144.5823473507
 20
40.5590109286
 10
144.5826593118
 20
40.5544365704
 10
144.5829786502
 20
40.5515621776
 10
144.5833053659
 20
40.5503877503
  0
LINE
  5
508
100
AcDbEntity
  8
0
100
AcDbLine
 62
7
  6
CONTINUOUS
 10
144.5809506866
 20
40.6059811337
 11
144.5814557308
 21
40.5829337966
  0
LINE
  5
509
100
AcDbEntity
  8
0
100
AcDbLine
 62
253
  6
CONTINUOUS
 10
140.910131742
 20
108.8505744437
 11
140.9106119327
 21
108.8244277209
  0
LINE
  5
50A
100
AcDbEntity
  8
0
100
AcDbLine
 62
7
  6
CONTINUOUS
 10
144.5805282845
 20
40.6341789432
 11
144.5809506866
 21
40.6059811337
  0
LINE
  5
50B
100
AcDbEntity
  8
0
100
AcDbLine
 62
253
  6
CONTINUOUS
 10
140.9106119327
 20
108.8244277209
 11
140.9112241642
 21
108.7715183905
  0
LINE
  5
50C
100
AcDbEntity
  8
0
100
AcDbLine
 62
253
  6
CONTINUOUS
 10
140.8836174684
 20
51.5229414925
 11
140.8830638127
 21
51.5853381802
  0
LINE
  5
50D
100
AcDbEntity
  8
0
100
AcDbLine
 62
7
  6
CONTINUOUS
 10
144.5800774742
 20
40.6839279306
 11
144.5805282845
 21
40.6341789432
  0
LINE
  5
50E
100
AcDbEntity
  8
0
100
AcDbLine
 62
253
  6
CONTINUOUS
 10
140.9112241642
 20
108.7715183905
 11
140.9117765307
 21
108.6812881506
  0
LINE
  5
50F
100
AcDbEntity
  8
0
100
AcDbLine
 62
253
  6
CONTINUOUS
 10
140.2832828365
 20
163.2018506786
 11
140.2814631053
 21
163.8559357324
  0
LINE
  5
510
100
AcDbEntity
  8
0
100
AcDbLine
 62
7
  6
CONTINUOUS
 10
144.5721087921
 20
43.8928366841
 11
144.5800774742
 21
40.6839279306
  0
LINE
  5
511
100
AcDbEntity
  8
0
100
AcDbLine
 62
7
  6
CONTINUOUS
 10
145.4638829353
 20
170.8651401513
 11
145.4562455114
 21
173.9694507932
  0
LINE
  5
512
100
AcDbEntity
  8
0
100
AcDbLine
 62
253
  6
CONTINUOUS
 10
140.8841083397
 20
51.396494815
 11
140.8836174684
 21
51.5229414925
  0
LINE
  5
513
100
AcDbEntity
  8
0
100
AcDbLine
 62
253
  6
CONTINUOUS
 10
141.1887484419
 20
159.8888716589
 11
141.1827162848
 21
162.5786856797
  0
LINE
  5
514
100
AcDbEntity
  8
0
100
AcDbLine
 62
253
  6
CONTINUOUS
 10
141.4929768065
 20
159.8939279377
 11
141.4869102616
 21
162.6006366141
  0
LINE
  5
515
100
AcDbEntity
  8
0
100
AcDbLine
 62
253
  6
CONTINUOUS
 10
140.9117765307
 20
108.6812881506
 11
140.9119683656
 21
108.5786821076
  0
LINE
  5
516
100
AcDbEntity
  8
0
100
AcDbLine
 62
253
  6
CONTINUOUS
 10
140.3112750565
 20
106.4197118554
 11
140.3112750565
 21
106.8388823228
  0
LINE
  5
517
100
AcDbEntity
  8
0
100
AcDbLine
 62
253
  6
CONTINUOUS
 10
140.3112750565
 20
107.9184818924
 11
140.3112750565
 21
108.5786821076
  0
LINE
  5
518
100
AcDbEntity
  8
0
100
AcDbLine
 62
7
  6
CONTINUOUS
 10
140.5786409799
 20
51.8786821076
 11
140.5786409799
 21
52.2786821076
  0
LINE
  5
519
100
AcDbEntity
  8
0
100
AcDbLine
 62
7
  6
CONTINUOUS
 10
140.5786409799
 20
105.4786821076
 11
140.5786409799
 21
105.8786821076
  0
LINE
  5
51A
100
AcDbEntity
  8
0
100
AcDbLine
 62
7
  6
CONTINUOUS
 10
140.5786409799
 20
108.8786821076
 11
140.5786409799
 21
109.2786821076
  0
LINE
  5
51B
100
AcDbEntity
  8
0
100
AcDbLine
 62
7
  6
CONTINUOUS
 10
140.5786409799
 20
162.4786821076
 11
140.5786409799
 21
162.8786821076
  0
LINE
  5
51C
100
AcDbEntity
  8
0
100
AcDbLine
 62
253
  6
CONTINUOUS
 10
140.8841340865
 20
51.3427490534
 11
140.8841083397
 21
51.396494815
  0
LINE
  5
51D
100
AcDbEntity
  8
0
100
AcDbLine
 62
7
  6
CONTINUOUS
 10
140.9819011534
 20
52.1649003761
 11
140.9819011534
 21
52.6715192093
  0
LINE
  5
51E
100
AcDbEntity
  8
0
100
AcDbLine
 62
7
  6
CONTINUOUS
 10
140.9819011534
 20
105.0858450058
 11
140.9819011534
 21
105.592463839
  0
LINE
  5
51F
100
AcDbEntity
  8
0
100
AcDbLine
 62
7
  6
CONTINUOUS
 10
140.9819011534
 20
109.1786821076
 11
140.9819011534
 21
109.6715192093
  0
LINE
  5
520
100
AcDbEntity
  8
0
100
AcDbLine
 62
7
  6
CONTINUOUS
 10
140.9819011534
 20
162.0858450058
 11
140.9819011534
 21
162.5786821076
  0
LINE
  5
521
100
AcDbEntity
  8
0
100
AcDbLine
 62
7
  6
CONTINUOUS
 10
141.1324297905
 20
52.7196983862
 11
141.1324297905
 21
54.8966433024
  0
LINE
  5
522
100
AcDbEntity
  8
0
100
AcDbLine
 62
7
  6
CONTINUOUS
 10
141.1324297905
 20
102.8607209128
 11
141.1324297905
 21
105.037665829
  0
LINE
  5
523
100
AcDbEntity
  8
0
100
AcDbLine
 62
7
  6
CONTINUOUS
 10
141.1324297905
 20
109.7196983862
 11
141.1324297905
 21
111.8966433024
  0
LINE
  5
524
100
AcDbEntity
  8
0
100
AcDbLine
 62
7
  6
CONTINUOUS
 10
141.1324297905
 20
159.8607209128
 11
141.1324297905
 21
162.037665829
  0
LINE
  5
525
100
AcDbEntity
  8
0
100
AcDbLine
 62
253
  6
CONTINUOUS
 10
141.2090703912
 20
111.8583346775
 11
141.2090703912
 21
109.17868534
  0
LINE
  5
526
100
AcDbEntity
  8
0
100
AcDbLine
 62
253
  6
CONTINUOUS
 10
141.2090703912
 20
102.8990295377
 11
141.2090703912
 21
105.8196370728
  0
LINE
  5
527
100
AcDbEntity
  8
0
100
AcDbLine
 62
253
  6
CONTINUOUS
 10
141.5133077399
 20
111.8532814783
 11
141.5133077399
 21
109.1786821076
  0
LINE
  5
528
100
AcDbEntity
  8
0
100
AcDbLine
 62
253
  6
CONTINUOUS
 10
141.5133077399
 20
102.9040827369
 11
141.5133077399
 21
105.8196330768
  0
LINE
  5
529
100
AcDbEntity
  8
0
100
AcDbLine
 62
7
  6
CONTINUOUS
 10
142.1562781738
 20
45.1033341076
 11
142.1562781738
 21
42.7066271076
  0
LINE
  5
52A
100
AcDbEntity
  8
0
100
AcDbLine
 62
7
  6
CONTINUOUS
 10
142.4625671738
 20
43.0129141076
 11
142.4625671738
 21
44.7970471076
  0
LINE
  5
52B
100
AcDbEntity
  8
0
100
AcDbLine
 62
7
  6
CONTINUOUS
 10
142.4858581738
 20
170.5036821076
 11
142.4858581738
 21
171.2536821076
  0
LINE
  5
52C
100
AcDbEntity
  8
0
100
AcDbLine
 62
7
  6
CONTINUOUS
 10
142.8080871738
 20
44.0313861076
 11
142.8080871738
 21
43.7259781076
  0
LINE
  5
52D
100
AcDbEntity
  8
0
100
AcDbLine
 62
7
  6
CONTINUOUS
 10
142.8683021738
 20
40.3699994523
 11
142.8683021738
 21
38.6054518713
  0
LINE
  5
52E
100
AcDbEntity
  8
0
100
AcDbLine
 62
7
  6
CONTINUOUS
 10
142.8858581738
 20
168.3306449898
 11
142.8858581738
 21
169.081465156
  0
LINE
  5
52F
100
AcDbEntity
  8
0
100
AcDbLine
 62
7
  6
CONTINUOUS
 10
142.8858581738
 20
172.6759021076
 11
142.8858581738
 21
173.4267192253
  0
LINE
  5
530
100
AcDbEntity
  8
0
100
AcDbLine
 62
7
  6
CONTINUOUS
 10
143.0432795009
 20
40.345934549
 11
143.0432795009
 21
39.8449243312
  0
LINE
  5
531
100
AcDbEntity
  8
0
100
AcDbLine
 62
7
  6
CONTINUOUS
 10
143.7337031738
 20
43.7259781076
 11
143.7337031738
 21
44.0313861076
  0
LINE
  5
532
100
AcDbEntity
  8
0
100
AcDbLine
 62
7
  6
CONTINUOUS
 10
143.7763791738
 20
44.7970471076
 11
143.7763791738
 21
45.1033341076
  0
LINE
  5
533
100
AcDbEntity
  8
0
100
AcDbLine
 62
7
  6
CONTINUOUS
 10
143.7955071738
 20
42.7066271076
 11
143.7955071738
 21
43.0129141076
  0
LINE
  5
534
100
AcDbEntity
  8
0
100
AcDbLine
 62
7
  6
CONTINUOUS
 10
144.6683021738
 20
174.2845398226
 11
144.6683021738
 21
174.0661977185
  0
LINE
  5
535
100
AcDbEntity
  8
0
100
AcDbLine
 62
7
  6
CONTINUOUS
 10
144.6683021738
 20
40.6911664967
 11
144.6683021738
 21
40.4728243925
  0
LINE
  5
536
100
AcDbEntity
  8
0
100
AcDbLine
 62
7
  6
CONTINUOUS
 10
145.3683021738
 20
40.5417611927
 11
145.3683021738
 21
40.6911664967
  0
LINE
  5
537
100
AcDbEntity
  8
0
100
AcDbLine
 62
7
  6
CONTINUOUS
 10
145.3683021738
 20
174.0661977185
 11
145.3683021738
 21
174.2156030225
  0
LINE
  5
538
100
AcDbEntity
  8
0
100
AcDbLine
 62
253
  6
CONTINUOUS
 10
141.1821626155
 20
51.9646425475
 11
141.1887484419
 21
54.8684925562
  0
LINE
  5
539
100
AcDbEntity
  8
0
100
AcDbLine
 62
253
  6
CONTINUOUS
 10
141.4863554391
 20
51.9422513129
 11
141.4929768065
 21
54.8634362775
  0
LINE
  5
53A
100
AcDbEntity
  8
0
100
AcDbLine
 62
253
  6
CONTINUOUS
 10
140.2814631053
 20
50.9014284828
 11
140.282701558
 21
51.3425731777
  0
LINE
  5
53B
100
AcDbEntity
  8
0
100
AcDbLine
 62
7
  6
CONTINUOUS
 10
145.4562455131
 20
40.7879133638
 11
145.4638829353
 21
43.8922240638
  0
LINE
  5
53C
100
AcDbEntity
  8
0
100
AcDbLine
 62
253
  6
CONTINUOUS
 10
140.8839823473
 20
163.2018506786
 11
140.8837671101
 21
163.0672665332
  0
LINE
  5
53D
100
AcDbEntity
  8
0
100
AcDbLine
 62
253
  6
CONTINUOUS
 10
140.9127008346
 20
106.4195328031
 11
140.9123933657
 21
106.300068024
  0
LINE
  5
53E
100
AcDbEntity
  8
0
100
AcDbLine
 62
7
  6
CONTINUOUS
 10
144.580077478
 20
174.0734361714
 11
144.5721087921
 21
170.864527531
  0
LINE
  5
53F
100
AcDbEntity
  8
0
100
AcDbLine
 62
253
  6
CONTINUOUS
 10
140.9123933657
 20
106.300068024
 11
140.9118447704
 21
106.2224515907
  0
LWPOLYLINE
  5
540
100
AcDbEntity
  8
0
100
AcDbPolyline
 62
253
  6
CONTINUOUS
 90
3
 70
0
 10
140.8837671101
 20
163.0672665332
 10
140.8831560334
 20
162.9749059697
 10
140.8829513294
 20
162.955628575
  0
LINE
  5
541
100
AcDbEntity
  8
0
100
AcDbLine
 62
7
  6
CONTINUOUS
 10
144.5805282901
 20
174.1231850201
 11
144.580077478
 21
174.0734361714
  0
LINE
  5
542
100
AcDbEntity
  8
0
100
AcDbLine
 62
253
  6
CONTINUOUS
 10
140.9118447704
 20
106.2224515907
 11
140.9113539669
 21
106.1805736304
  0
LINE
  5
543
100
AcDbEntity
  8
0
100
AcDbLine
 62
7
  6
CONTINUOUS
 10
144.5809506922
 20
174.1513827527
 11
144.5805282901
 21
174.1231850201
  0
LWPOLYLINE
  5
544
100
AcDbEntity
  8
0
100
AcDbPolyline
 62
253
  6
CONTINUOUS
 90
6
 70
0
 10
140.9113539669
 20
106.1805736304
 10
140.9107864525
 20
106.1486819581
 10
140.9104812414
 20
106.1369154286
 10
140.9101659441
 20
106.1281093513
 10
140.9098438634
 20
106.122355971
 10
140.9095183732
 20
106.119715555
  0
LINE
  5
545
100
AcDbEntity
  8
0
100
AcDbLine
 62
7
  6
CONTINUOUS
 10
140.9822699498
 20
109.6821727218
 11
140.9819011534
 21
109.6715192093
  0
LINE
  5
546
100
AcDbEntity
  8
0
100
AcDbLine
 62
7
  6
CONTINUOUS
 10
140.9822699498
 20
52.6821727218
 11
140.9819011534
 21
52.6715192093
  0
LWPOLYLINE
  5
547
100
AcDbEntity
  8
0
100
AcDbPolyline
 62
7
  6
CONTINUOUS
 90
22
 70
0
 10
141.2090703917
 20
109.17868534
 10
141.2082279573
 20
109.156224823
 10
141.2057081286
 20
109.1339111083
 10
141.2015296739
 20
109.1118686855
 10
141.1957228043
 20
109.0902273694
 10
141.1883232604
 20
109.0690989772
 10
141.1793665779
 20
109.0485785923
 10
141.168898275
 20
109.02877412
 10
141.1569789463
 20
109.0098032481
 10
141.1436743078
 20
108.9917715867
 10
141.1290585519
 20
108.9747807724
 10
141.1132120713
 20
108.9589251827
 10
141.0962202236
 20
108.9442915731
 10
141.0781756828
 20
108.930961961
 10
141.0591792282
 20
108.9190128147
 10
141.0393368462
 20
108.9085123007
 10
141.0187643119
 20
108.8995225162
 10
140.9975707281
 20
108.8920918878
 10
140.9758571606
 20
108.8862592535
 10
140.9537380585
 20
108.8820615423
 10
140.9313420669
 20
108.8795293133
 10
140.9087945286
 20
108.8786821077
  0
LWPOLYLINE
  5
548
100
AcDbEntity
  8
0
100
AcDbPolyline
 62
253
  6
CONTINUOUS
 90
22
 70
0
 10
141.5133077399
 20
109.1786821076
 10
141.5115273981
 20
109.1333633947
 10
141.5064940542
 20
109.0888265748
 10
141.4982077032
 20
109.0450716479
 10
141.4865875328
 20
109.0018792772
 10
141.4717143357
 20
108.9594687995
 10
141.4538305118
 20
108.9184982252
 10
141.4328858008
 20
108.8789762146
 10
141.4089304291
 20
108.8408941074
 10
141.3823575265
 20
108.8048839335
 10
141.3531251965
 20
108.7709803912
 10
141.3212752959
 20
108.7391487823
 10
141.2873265902
 20
108.7099170419
 10
141.2512416048
 20
108.6833256758
 10
141.2130577783
 20
108.6593341782
 10
141.1734062555
 20
108.6383489679
 10
141.1322740396
 20
108.6204203498
 10
141.0896741033
 20
108.6054980189
 10
141.046276559
 20
108.5938374789
 10
141.0023047777
 20
108.5855238976
 10
140.9575353812
 20
108.5804721071
 10
140.9119683656
 20
108.5786821076
  0
LINE
  5
549
100
AcDbEntity
  8
0
100
AcDbLine
 62
253
  6
CONTINUOUS
 10
132.8783021738
 20
40.5951556798
 11
132.8879971691
 21
40.6790380552
  0
LWPOLYLINE
  5
54A
100
AcDbEntity
  8
0
100
AcDbPolyline
 62
253
  6
CONTINUOUS
 90
12
 70
0
 10
129.7995184131
 20
41.2553037392
 10
129.7968840512
 20
41.239907858
 10
129.7944948933
 20
41.2254930141
 10
129.7923716375
 20
41.2121840882
 10
129.7905326784
 20
41.20009638
 10
129.7889939473
 20
41.1893346089
 10
129.7877687747
 20
41.1799920078
 10
129.7868677747
 20
41.1721495147
 10
129.786298753
 20
41.1658750713
 10
129.786066639
 20
41.1612230352
 10
129.7861734438
 20
41.1582337085
 10
129.7866182419
 20
41.1569329886
  0
LINE
  5
54B
100
AcDbEntity
  8
0
100
AcDbLine
 62
253
  6
CONTINUOUS
 10
129.8054295332
 20
41.2884977516
 11
129.7995184131
 21
41.2553037392
  0
LINE
  5
54C
100
AcDbEntity
  8
0
100
AcDbLine
 62
253
  6
CONTINUOUS
 10
129.8120238572
 20
41.3239272581
 11
129.8054295332
 21
41.2884977516
  0
LINE
  5
54D
100
AcDbEntity
  8
0
100
AcDbLine
 62
253
  6
CONTINUOUS
 10
129.7706725701
 20
41.075812327
 11
129.7866607385
 21
41.156924029
  0
LINE
  5
54E
100
AcDbEntity
  8
0
100
AcDbLine
 62
7
  6
CONTINUOUS
 10
153.802344723
 20
153.3120153138
 11
153.7683021738
 21
153.1453489014
  0
LINE
  5
54F
100
AcDbEntity
  8
0
100
AcDbLine
 62
7
  6
CONTINUOUS
 10
153.802344723
 20
151.8453487107
 11
153.7683021738
 21
151.6786821076
  0
LINE
  5
550
100
AcDbEntity
  8
0
100
AcDbLine
 62
7
  6
CONTINUOUS
 10
153.802344723
 20
150.3786821076
 11
153.7683021738
 21
150.2120154091
  0
LINE
  5
551
100
AcDbEntity
  8
0
100
AcDbLine
 62
7
  6
CONTINUOUS
 10
154.3810681536
 20
151.8786821076
 11
154.3470256045
 21
151.7120155045
  0
LINE
  5
552
100
AcDbEntity
  8
0
100
AcDbLine
 62
7
  6
CONTINUOUS
 10
154.7555361941
 20
152.8120153138
 11
154.7895787909
 21
152.9786821076
  0
LINE
  5
553
100
AcDbEntity
  8
0
100
AcDbLine
 62
253
  6
CONTINUOUS
 10
129.1125249757
 20
39.3688265387
 11
129.3976120033
 21
40.6883815344
  0
LINE
  5
554
100
AcDbEntity
  8
0
100
AcDbLine
 62
7
  6
CONTINUOUS
 10
155.1980894043
 20
150.045348806
 11
155.1640468552
 21
149.945348806
  0
LWPOLYLINE
  5
555
100
AcDbEntity
  8
0
100
AcDbPolyline
 62
7
  6
CONTINUOUS
 90
6
 70
0
 10
140.0366951284
 20
106.146462689
 10
140.0282411017
 20
106.1379977084
 10
140.0210753966
 20
106.1310591543
 10
140.0154030917
 20
106.1258112121
 10
140.0114744289
 20
106.1220896965
 10
140.0095146736
 20
106.1198946073
  0
LWPOLYLINE
  5
556
100
AcDbEntity
  8
0
100
AcDbPolyline
 62
7
  6
CONTINUOUS
 90
6
 70
0
 10
140.0363884405
 20
106.5653027665
 10
140.0279586636
 20
106.5568696394
 10
140.0208590928
 20
106.5499760664
 10
140.0152788026
 20
106.5447867431
 10
140.0114313779
 20
106.5411369738
 10
140.0095146736
 20
106.5390267585
  0
LINE
  5
557
100
AcDbEntity
  8
0
100
AcDbLine
 62
7
  6
CONTINUOUS
 10
140.0095716771
 20
106.1199516108
 11
139.7683021738
 21
105.8786821076
  0
LINE
  5
558
100
AcDbEntity
  8
0
100
AcDbLine
 62
253
  6
CONTINUOUS
 10
140.6716204342
 20
105.8818176161
 11
140.9095146555
 21
106.1197155562
  0
LINE
  5
559
100
AcDbEntity
  8
0
100
AcDbLine
 62
253
  6
CONTINUOUS
 10
140.9819011534
 20
105.592463839
 11
141.2090703912
 21
105.8196370728
  0
LINE
  5
55A
100
AcDbEntity
  8
0
100
AcDbLine
 62
7
  6
CONTINUOUS
 10
138.5183021738
 20
102.8607209128
 11
138.5619008528
 21
102.9043195917
  0
LINE
  5
55B
100
AcDbEntity
  8
0
100
AcDbLine
 62
7
  6
CONTINUOUS
 10
152.0125332435
 20
112.7549519824
 11
152.0521145952
 21
112.7945333341
  0
LWPOLYLINE
  5
55C
100
AcDbEntity
  8
0
100
AcDbPolyline
 62
7
  6
CONTINUOUS
 90
3
 70
0
 10
140.0681893796
 20
106.5967680033
 10
140.0566662191
 20
106.5852519484
 10
140.0363884405
 20
106.5653027665
  0
LWPOLYLINE
  5
55D
100
AcDbEntity
  8
0
100
AcDbPolyline
 62
7
  6
CONTINUOUS
 90
3
 70
0
 10
140.0685124385
 20
106.1779530007
 10
140.0569915842
 20
106.1664403351
 10
140.0366951284
 20
106.146462689
  0
LINE
  5
55E
100
AcDbEntity
  8
0
100
AcDbLine
 62
7
  6
CONTINUOUS
 10
140.3112750565
 20
106.8388823228
 11
140.2792277061
 21
106.806809359
  0
LINE
  5
55F
100
AcDbEntity
  8
0
100
AcDbLine
 62
7
  6
CONTINUOUS
 10
140.3112750565
 20
106.4197118554
 11
140.2791879885
 21
106.3876049318
  0
LINE
  5
560
100
AcDbEntity
  8
0
100
AcDbLine
 62
7
  6
CONTINUOUS
 10
140.2792277061
 20
106.806809359
 11
140.0935861504
 21
106.6219025817
  0
LINE
  5
561
100
AcDbEntity
  8
0
100
AcDbLine
 62
7
  6
CONTINUOUS
 10
140.2791879885
 20
106.3876049318
 11
140.0938776104
 21
106.2030540985
  0
LINE
  5
562
100
AcDbEntity
  8
0
100
AcDbLine
 62
7
  6
CONTINUOUS
 10
140.0935861504
 20
106.6219025817
 11
140.0681893796
 21
106.5967680033
  0
LINE
  5
563
100
AcDbEntity
  8
0
100
AcDbLine
 62
7
  6
CONTINUOUS
 10
140.0938776104
 20
106.2030540985
 11
140.0685124385
 21
106.1779530007
  0
LINE
  5
564
100
AcDbEntity
  8
0
100
AcDbLine
 62
7
  6
CONTINUOUS
 10
140.0095146736
 20
106.5390267585
 11
140.0092975253
 21
106.5389080018
  0
LINE
  5
565
100
AcDbEntity
  8
0
100
AcDbLine
 62
7
  6
CONTINUOUS
 10
140.2183021738
 20
105.037665829
 11
140.1747034949
 21
105.0158681497
  0
LINE
  5
566
100
AcDbEntity
  8
0
100
AcDbLine
 62
7
  6
CONTINUOUS
 10
141.2090703912
 20
102.8990295377
 11
141.1324297905
 21
102.8607209128
  0
LINE
  5
567
100
AcDbEntity
  8
0
100
AcDbLine
 62
7
  6
CONTINUOUS
 10
156.356160401
 20
111.9745467232
 11
156.1913347136
 21
111.919649471
  0
LINE
  5
568
100
AcDbEntity
  8
0
100
AcDbLine
 62
7
  6
CONTINUOUS
 10
138.9683021738
 20
108.2786821076
 11
138.7273068223
 21
108.2184562133
  0
LINE
  5
569
100
AcDbEntity
  8
0
100
AcDbLine
 62
7
  6
CONTINUOUS
 10
140.9822699498
 20
109.6821727218
 11
141.1324297905
 21
109.7196983862
  0
LWPOLYLINE
  5
56A
100
AcDbEntity
  8
0
100
AcDbPolyline
 62
7
  6
CONTINUOUS
 90
25
 70
0
 10
149.8183021738
 20
113.3663913077
 10
149.8717418238
 20
113.3681197469
 10
149.924602509
 20
113.3732942812
 10
149.9768843091
 20
113.3819149107
 10
150.0288958898
 20
113.3940836783
 10
150.0803286937
 20
113.4096985411
 10
150.1302572542
 20
113.4284533704
 10
150.1784775951
 20
113.4503074258
 10
150.2251944823
 20
113.4753014478
 10
150.2700959356
 20
113.5032515282
 10
150.3132993577
 20
113.5342615973
 10
150.3546882317
 20
113.5682277248
 10
150.3935999545
 20
113.6046542118
 10
150.4299763245
 20
113.6435976794
 10
150.4638767136
 20
113.6850015065
 10
150.4948151255
 20
113.7282001304
 10
150.5226890094
 20
113.7730785084
 10
150.5476020781
 20
113.8197516833
 10
150.5693777966
 20
113.8678992209
 10
150.5880549616
 20
113.9177262763
 10
150.6035956405
 20
113.9690276946
 10
150.6157081716
 20
114.0208675767
 10
150.6242955131
 20
114.0729339564
 10
150.6294552073
 20
114.1255388
 10
150.6311873786
 20
114.1786821076
  0
LINE
  5
56B
100
AcDbEntity
  8
0
100
AcDbLine
 62
253
  6
CONTINUOUS
 10
140.0092975253
 20
108.2184562133
 11
138.7273068223
 21
108.2184562133
  0
LINE
  5
56C
100
AcDbEntity
  8
0
100
AcDbLine
 62
7
  6
CONTINUOUS
 10
138.9683021738
 20
108.2786821076
 11
139.7683021738
 21
108.2786821076
  0
LINE
  5
56D
100
AcDbEntity
  8
0
100
AcDbLine
 62
253
  6
CONTINUOUS
 10
140.9119683656
 20
108.5786821076
 11
140.3112750565
 21
108.5786821076
  0
LINE
  5
56E
100
AcDbEntity
  8
0
100
AcDbLine
 62
253
  6
CONTINUOUS
 10
137.8246359821
 20
108.5786821076
 11
138.4253292912
 21
108.5786821076
  0
LINE
  5
56F
100
AcDbEntity
  8
0
100
AcDbLine
 62
7
  6
CONTINUOUS
 10
137.8278169341
 20
108.8786821076
 11
138.9683021738
 21
108.8786821076
  0
LINE
  5
570
100
AcDbEntity
  8
0
100
AcDbLine
 62
7
  6
CONTINUOUS
 10
139.7683021738
 20
108.8786821076
 11
140.9087945233
 21
108.8786821076
  0
LINE
  5
571
100
AcDbEntity
  8
0
100
AcDbLine
 62
253
  6
CONTINUOUS
 10
140.9819011534
 20
109.1786821076
 11
141.5133077399
 21
109.1786821076
  0
LINE
  5
572
100
AcDbEntity
  8
0
100
AcDbLine
 62
253
  6
CONTINUOUS
 10
137.7547031943
 20
109.1786821076
 11
137.2232966078
 21
109.1786821076
  0
LINE
  5
573
100
AcDbEntity
  8
0
100
AcDbLine
 62
7
  6
CONTINUOUS
 10
140.5786409799
 20
109.2786821076
 11
138.1579633678
 21
109.2786821076
  0
LINE
  5
574
100
AcDbEntity
  8
0
100
AcDbLine
 62
7
  6
CONTINUOUS
 10
140.9822699498
 20
109.6821727218
 11
137.7543343979
 21
109.6821727218
  0
LINE
  5
575
100
AcDbEntity
  8
0
100
AcDbLine
 62
7
  6
CONTINUOUS
 10
141.1324297905
 20
109.7196983862
 11
140.2183021738
 21
109.7196983862
  0
LINE
  5
576
100
AcDbEntity
  8
0
100
AcDbLine
 62
7
  6
CONTINUOUS
 10
137.6041745572
 20
109.7196983862
 11
138.5183021738
 21
109.7196983862
  0
LINE
  5
577
100
AcDbEntity
  8
0
100
AcDbLine
 62
7
  6
CONTINUOUS
 10
146.8683021738
 20
111.8966433024
 11
141.1324297905
 21
111.8966433024
  0
LINE
  5
578
100
AcDbEntity
  8
0
100
AcDbLine
 62
7
  6
CONTINUOUS
 10
140.2183021738
 20
111.8966433024
 11
138.5183021738
 21
111.8966433024
  0
LINE
  5
579
100
AcDbEntity
  8
0
100
AcDbLine
 62
7
  6
CONTINUOUS
 10
137.6041745572
 20
111.8966433024
 11
131.8683021738
 21
111.8966433024
  0
LINE
  5
57A
100
AcDbEntity
  8
0
100
AcDbLine
 62
7
  6
CONTINUOUS
 10
121.7183021738
 20
111.9786821076
 11
122.130786563
 21
111.9786821076
  0
LINE
  5
57B
100
AcDbEntity
  8
0
100
AcDbLine
 62
7
  6
CONTINUOUS
 10
156.6058177847
 20
111.9786821076
 11
157.0183021738
 21
111.9786821076
  0
LINE
  5
57C
100
AcDbEntity
  8
0
100
AcDbLine
 62
7
  6
CONTINUOUS
 10
157.0183021738
 20
112.6786821076
 11
156.6058177847
 21
112.6786821076
  0
LINE
  5
57D
100
AcDbEntity
  8
0
100
AcDbLine
 62
7
  6
CONTINUOUS
 10
122.130786563
 20
112.6786821076
 11
121.7183021738
 21
112.6786821076
  0
LINE
  5
57E
100
AcDbEntity
  8
0
100
AcDbLine
 62
7
  6
CONTINUOUS
 10
146.8683021738
 20
113.3673371795
 11
131.8683021738
 21
113.3673371795
  0
LINE
  5
57F
100
AcDbEntity
  8
0
100
AcDbLine
 62
7
  6
CONTINUOUS
 10
128.9183021738
 20
113.3786821076
 11
149.8183021738
 21
113.3786821076
  0
LINE
  5
580
100
AcDbEntity
  8
0
100
AcDbLine
 62
7
  6
CONTINUOUS
 10
139.7683021738
 20
108.2786821076
 11
140.0092975253
 21
108.2184562133
  0
LINE
  5
581
100
AcDbEntity
  8
0
100
AcDbLine
 62
7
  6
CONTINUOUS
 10
137.7543343979
 20
109.6821727218
 11
137.6041745572
 21
109.7196983862
  0
LINE
  5
582
100
AcDbEntity
  8
0
100
AcDbLine
 62
7
  6
CONTINUOUS
 10
156.356160401
 20
102.7828174919
 11
156.1913347136
 21
102.8377147441
  0
LINE
  5
583
100
AcDbEntity
  8
0
100
AcDbLine
 62
7
  6
CONTINUOUS
 10
141.2090703912
 20
111.8583346775
 11
141.1324297905
 21
111.8966433024
  0
LINE
  5
584
100
AcDbEntity
  8
0
100
AcDbLine
 62
7
  6
CONTINUOUS
 10
140.1747034949
 20
109.7414960655
 11
140.2183021738
 21
109.7196983862
  0
LINE
  5
585
100
AcDbEntity
  8
0
100
AcDbLine
 62
7
  6
CONTINUOUS
 10
140.0092975253
 20
108.2184562133
 11
140.0095146736
 21
108.2183374567
  0
LWPOLYLINE
  5
586
100
AcDbEntity
  8
0
100
AcDbPolyline
 62
7
  6
CONTINUOUS
 90
7
 70
0
 10
140.0566662192
 20
108.1721122667
 10
140.0363884405
 20
108.1920614487
 10
140.0279586636
 20
108.2004945758
 10
140.0208590928
 20
108.2073881488
 10
140.0152788026
 20
108.2125774721
 10
140.0114313779
 20
108.2162272414
 10
140.0095146736
 20
108.2183374567
  0
LWPOLYLINE
  5
587
100
AcDbEntity
  8
0
100
AcDbPolyline
 62
7
  6
CONTINUOUS
 90
3
 70
0
 10
140.0935861505
 20
108.1354616334
 10
140.0681893797
 20
108.1605962119
 10
140.0566662192
 20
108.1721122667
  0
LWPOLYLINE
  5
588
100
AcDbEntity
  8
0
100
AcDbPolyline
 62
7
  6
CONTINUOUS
 90
3
 70
0
 10
140.0566673672
 20
108.8323237501
 10
140.0681906805
 20
108.8208070578
 10
140.0935876809
 20
108.7956711753
  0
LINE
  5
589
100
AcDbEntity
  8
0
100
AcDbLine
 62
7
  6
CONTINUOUS
 10
140.2953305715
 20
107.9344936629
 11
140.0935861505
 21
108.1354616334
  0
LINE
  5
58A
100
AcDbEntity
  8
0
100
AcDbLine
 62
7
  6
CONTINUOUS
 10
140.0935876809
 20
108.7956711753
 11
140.2953308281
 21
108.5946945156
  0
LINE
  5
58B
100
AcDbEntity
  8
0
100
AcDbLine
 62
7
  6
CONTINUOUS
 10
138.5619008528
 20
111.8530446235
 11
138.5183021738
 21
111.8966433024
  0
LINE
  5
58C
100
AcDbEntity
  8
0
100
AcDbLine
 62
7
  6
CONTINUOUS
 10
152.0125332435
 20
102.0024122328
 11
152.0521145952
 21
101.9628308811
  0
LINE
  5
58D
100
AcDbEntity
  8
0
100
AcDbLine
 62
7
  6
CONTINUOUS
 10
140.3112750565
 20
107.9184818924
 11
140.2953305715
 21
107.9344936629
  0
LINE
  5
58E
100
AcDbEntity
  8
0
100
AcDbLine
 62
7
  6
CONTINUOUS
 10
140.2953308281
 20
108.5946945156
 11
140.3112750565
 21
108.5786821076
  0
LWPOLYLINE
  5
58F
100
AcDbEntity
  8
0
100
AcDbPolyline
 62
7
  6
CONTINUOUS
 90
7
 70
0
 10
140.0095146736
 20
108.8785519208
 10
140.0114314391
 20
108.8764415318
 10
140.0152789936
 20
108.8727914999
 10
140.0208594599
 20
108.8676018249
 10
140.0279592292
 20
108.8607077927
 10
140.0363892089
 20
108.8522741175
 10
140.0566673672
 20
108.8323237501
  0
LWPOLYLINE
  5
590
100
AcDbEntity
  8
0
100
AcDbPolyline
 62
253
  6
CONTINUOUS
 90
6
 70
0
 10
140.9087874135
 20
108.8786821076
 10
140.9090646518
 20
108.877540517
 10
140.9093397801
 20
108.8741244335
 10
140.9096107045
 20
108.8684598555
 10
140.9098753632
 20
108.8605898938
 10
140.910131742
 20
108.8505744437
  0
LINE
  5
591
100
AcDbEntity
  8
0
100
AcDbLine
 62
253
  6
CONTINUOUS
 10
129.1125249757
 20
175.3885376764
 11
129.3976120033
 21
174.0689826807
  0
LINE
  5
592
100
AcDbEntity
  8
0
100
AcDbLine
 62
253
  6
CONTINUOUS
 10
129.7706725701
 20
173.6815518882
 11
129.7866680951
 21
173.6004416276
  0
LINE
  5
593
100
AcDbEntity
  8
0
100
AcDbLine
 62
253
  6
CONTINUOUS
 10
129.8120238551
 20
173.4334369619
 11
129.8054295121
 21
173.4688665482
  0
LWPOLYLINE
  5
594
100
AcDbEntity
  8
0
100
AcDbPolyline
 62
253
  6
CONTINUOUS
 90
13
 70
0
 10
129.8054295121
 20
173.4688665482
 10
129.799518371
 20
173.5020606557
 10
129.7968839984
 20
173.5174565878
 10
129.7944948301
 20
173.5318714831
 10
129.7923715643
 20
173.5451804598
 10
129.7905325956
 20
173.5572682174
 10
129.7889938559
 20
173.5680300349
 10
129.7877686757
 20
173.5773726787
 10
129.7868676692
 20
173.5852152097
 10
129.7862986423
 20
173.5914896853
 10
129.7860665246
 20
173.5961417473
 10
129.786173327
 20
173.5991310929
 10
129.7866181243
 20
173.6004318245
  0
LINE
  5
595
100
AcDbEntity
  8
0
100
AcDbLine
 62
253
  6
CONTINUOUS
 10
132.8783021738
 20
174.1622085353
 11
132.8879642866
 21
174.0783224505
  0
LWPOLYLINE
  5
596
100
AcDbEntity
  8
0
100
AcDbPolyline
 62
7
  6
CONTINUOUS
 90
25
 70
0
 10
150.6311873786
 20
100.5786821076
 10
150.6294552073
 20
100.6318254151
 10
150.6242955131
 20
100.6844302588
 10
150.6157081716
 20
100.7364966385
 10
150.6035956405
 20
100.7883365206
 10
150.5880549616
 20
100.8396379388
 10
150.5693777966
 20
100.8894649942
 10
150.5476020781
 20
100.9376125319
 10
150.5226890094
 20
100.9842857068
 10
150.4948151255
 20
101.0291640847
 10
150.4638767136
 20
101.0723627087
 10
150.4299763245
 20
101.1137665358
 10
150.3935999545
 20
101.1527100034
 10
150.3546882317
 20
101.1891364904
 10
150.3132993577
 20
101.2231026179
 10
150.2700959356
 20
101.254112687
 10
150.2251944823
 20
101.2820627674
 10
150.1784775951
 20
101.3070567893
 10
150.1302572542
 20
101.3289108448
 10
150.0803286937
 20
101.3476656741
 10
150.0288958898
 20
101.3632805369
 10
149.9768843091
 20
101.3754493045
 10
149.924602509
 20
101.384069934
 10
149.8717418238
 20
101.3892444683
 10
149.8183021738
 20
101.3909729074
  0
LWPOLYLINE
  5
597
100
AcDbEntity
  8
0
100
AcDbPolyline
 62
7
  6
CONTINUOUS
 90
7
 70
0
 10
145.4547758696
 20
174.0886861952
 10
145.4544937141
 20
174.0982137564
 10
145.4541933036
 20
174.106345915
 10
145.4538856069
 20
174.1127790247
 10
145.4535742804
 20
174.11741187
 10
145.4532556677
 20
174.1203456665
 10
145.4529297689
 20
174.1215804141
  0
LINE
  5
598
100
AcDbEntity
  8
0
100
AcDbLine
 62
7
  6
CONTINUOUS
 10
145.4552804196
 20
174.0655246588
 11
145.4547758696
 21
174.0886861952
  0
LINE
  5
599
100
AcDbEntity
  8
0
100
AcDbLine
 62
7
  6
CONTINUOUS
 10
145.4557024766
 20
174.0372126451
 11
145.4552804196
 21
174.0655246588
  0
LINE
  5
59A
100
AcDbEntity
  8
0
100
AcDbLine
 62
253
  6
CONTINUOUS
 10
150.5199495379
 20
168.4801039701
 11
150.4927583345
 21
171.3334752807
  0
LINE
  5
59B
100
AcDbEntity
  8
0
100
AcDbLine
 62
253
  6
CONTINUOUS
 10
150.5428679354
 20
165.6204592254
 11
150.5199495379
 21
168.4801039701
  0
LINE
  5
59C
100
AcDbEntity
  8
0
100
AcDbLine
 62
253
  6
CONTINUOUS
 10
150.5615049442
 20
162.7556119828
 11
150.5428679354
 21
165.6204592254
  0
LWPOLYLINE
  5
59D
100
AcDbEntity
  8
0
100
AcDbPolyline
 62
7
  6
CONTINUOUS
 90
3
 70
0
 10
145.4562455114
 20
173.9694507932
 10
145.4561529035
 20
173.987298175
 10
145.4557024766
 20
174.0372126451
  0
LINE
  5
59E
100
AcDbEntity
  8
0
100
AcDbLine
 62
253
  6
CONTINUOUS
 10
150.5758535845
 20
159.8866351264
 11
150.5615049442
 21
162.7556119828
  0
LINE
  5
59F
100
AcDbEntity
  8
0
100
AcDbLine
 62
253
  6
CONTINUOUS
 10
146.8683021738
 20
54.8966433024
 11
146.8683021738
 21
56.3673371795
  0
LINE
  5
5A0
100
AcDbEntity
  8
0
100
AcDbLine
 62
253
  6
CONTINUOUS
 10
146.8683021738
 20
101.3900270357
 11
146.8683021738
 21
102.8607209128
  0
LINE
  5
5A1
100
AcDbEntity
  8
0
100
AcDbLine
 62
253
  6
CONTINUOUS
 10
146.8683021738
 20
111.8966433024
 11
146.8683021738
 21
113.3673371795
  0
LINE
  5
5A2
100
AcDbEntity
  8
0
100
AcDbLine
 62
253
  6
CONTINUOUS
 10
146.8683021738
 20
158.3900270357
 11
146.8683021738
 21
159.8607209128
  0
LINE
  5
5A3
100
AcDbEntity
  8
0
100
AcDbLine
 62
253
  6
CONTINUOUS
 10
149.8183021738
 20
158.3909729074
 11
149.8183021738
 21
158.3786821076
  0
LINE
  5
5A4
100
AcDbEntity
  8
0
100
AcDbLine
 62
253
  6
CONTINUOUS
 10
149.8183021738
 20
101.3909729074
 11
149.8183021738
 21
101.3786821076
  0
LINE
  5
5A5
100
AcDbEntity
  8
0
100
AcDbLine
 62
253
  6
CONTINUOUS
 10
149.8183021738
 20
56.3663913077
 11
149.8183021738
 21
56.3786821076
  0
LINE
  5
5A6
100
AcDbEntity
  8
0
100
AcDbLine
 62
253
  6
CONTINUOUS
 10
149.8183021738
 20
113.3663913077
 11
149.8183021738
 21
113.3786821076
  0
LINE
  5
5A7
100
AcDbEntity
  8
0
100
AcDbLine
 62
7
  6
CONTINUOUS
 10
150.6183021738
 20
157.5786821076
 11
150.6183021738
 21
114.1786821076
  0
LINE
  5
5A8
100
AcDbEntity
  8
0
100
AcDbLine
 62
7
  6
CONTINUOUS
 10
150.6183021738
 20
57.1786821076
 11
150.6183021738
 21
100.5786821076
  0
LINE
  5
5A9
100
AcDbEntity
  8
0
100
AcDbLine
 62
253
  6
CONTINUOUS
 10
150.6208065242
 20
111.8606075444
 11
150.6208065242
 21
102.8967566707
  0
LINE
  5
5AA
100
AcDbEntity
  8
0
100
AcDbLine
 62
7
  6
CONTINUOUS
 10
150.6311873786
 20
157.5786821076
 11
150.6311873786
 21
114.1786821076
  0
LINE
  5
5AB
100
AcDbEntity
  8
0
100
AcDbLine
 62
7
  6
CONTINUOUS
 10
150.6311873786
 20
100.5786821076
 11
150.6311873786
 21
57.1786821076
  0
LINE
  5
5AC
100
AcDbEntity
  8
0
100
AcDbLine
 62
253
  6
CONTINUOUS
 10
150.5758535845
 20
54.8707290887
 11
150.5615049442
 21
52.0017522324
  0
LINE
  5
5AD
100
AcDbEntity
  8
0
100
AcDbLine
 62
253
  6
CONTINUOUS
 10
150.5615049442
 20
52.0017522324
 11
150.5428679354
 21
49.1369049898
  0
LINE
  5
5AE
100
AcDbEntity
  8
0
100
AcDbLine
 62
253
  6
CONTINUOUS
 10
150.5428679354
 20
49.1369049898
 11
150.5199495379
 21
46.2772602451
  0
LINE
  5
5AF
100
AcDbEntity
  8
0
100
AcDbLine
 62
7
  6
CONTINUOUS
 10
145.4558813905
 20
40.7361849222
 11
145.4562455131
 21
40.7879133638
  0
LWPOLYLINE
  5
5B0
100
AcDbEntity
  8
0
100
AcDbPolyline
 62
253
  6
CONTINUOUS
 90
3
 70
0
 10
150.5199495379
 20
46.2772602451
 10
150.4927583345
 20
43.4238889345
 10
150.4775635504
 20
41.9998898529
  0
LINE
  5
5B1
100
AcDbEntity
  8
0
100
AcDbLine
 62
7
  6
CONTINUOUS
 10
145.4555018411
 20
40.705329204
 11
145.4558813905
 21
40.7361849222
  0
LWPOLYLINE
  5
5B2
100
AcDbEntity
  8
0
100
AcDbPolyline
 62
7
  6
CONTINUOUS
 90
19
 70
0
 10
143.0432795009
 20
39.8449243312
 10
143.0354622391
 20
39.7466092871
 10
143.0273864247
 20
39.6514642488
 10
143.0190520579
 20
39.5594892162
 10
143.0104496002
 20
39.4705909883
 10
143.00158859
 20
39.3848627661
 10
142.9924976427
 20
39.3025841526
 10
142.9831764348
 20
39.2237688467
 10
142.9736252898
 20
39.1484031496
 10
142.9638737936
 20
39.0767255676
 10
142.9539219243
 20
39.0087485634
 10
142.9437697038
 20
38.9444596743
 10
142.9334467834
 20
38.8840600196
 10
142.9229512579
 20
38.8275531716
 10
142.9122850324
 20
38.7749355579
 10
142.9014834746
 20
38.7263975808
 10
142.8905583734
 20
38.6820027077
 10
142.8794979398
 20
38.6416874712
 10
142.8683021738
 20
38.6054518713
  0
LINE
  5
5B3
100
AcDbEntity
  8
0
100
AcDbLine
 62
7
  6
CONTINUOUS
 10
155.3342596217
 20
152.8453489014
 11
155.3683021738
 21
153.0120153138
  0
LINE
  5
5B4
100
AcDbEntity
  8
0
100
AcDbLine
 62
7
  6
CONTINUOUS
 10
154.7555361941
 20
149.8786821076
 11
154.7895787909
 21
150.045348806
  0
LINE
  5
5B5
100
AcDbEntity
  8
0
100
AcDbLine
 62
7
  6
CONTINUOUS
 10
155.3342596217
 20
151.3786821076
 11
155.3683021738
 21
151.5453487107
  0
LINE
  5
5B6
100
AcDbEntity
  8
0
100
AcDbLine
 62
7
  6
CONTINUOUS
 10
155.3342596217
 20
149.9120154091
 11
155.3683021738
 21
150.0786821076
  0
LINE
  5
5B7
100
AcDbEntity
  8
0
100
AcDbLine
 62
7
  6
CONTINUOUS
 10
157.0183021738
 20
111.9786821076
 11
156.9172016031
 21
111.8775815369
  0
LINE
  5
5B8
100
AcDbEntity
  8
0
100
AcDbLine
 62
7
  6
CONTINUOUS
 10
156.356160401
 20
102.0745467232
 11
156.1913347136
 21
102.019649471
  0
LINE
  5
5B9
100
AcDbEntity
  8
0
100
AcDbLine
 62
253
  6
CONTINUOUS
 10
150.6311873786
 20
114.1786821076
 11
150.6183021738
 21
114.1786821076
  0
LINE
  5
5BA
100
AcDbEntity
  8
0
100
AcDbLine
 62
253
  6
CONTINUOUS
 10
128.1054169691
 20
114.1786821076
 11
128.1183021738
 21
114.1786821076
  0
LINE
  5
5BB
100
AcDbEntity
  8
0
100
AcDbLine
 62
7
  6
CONTINUOUS
 10
156.356160401
 20
112.6828174919
 11
156.1913347136
 21
112.7377147441
  0
LINE
  5
5BC
100
AcDbEntity
  8
0
100
AcDbLine
 62
7
  6
CONTINUOUS
 10
157.0183021738
 20
102.7786821076
 11
156.9172016031
 21
102.8797826783
  0
LWPOLYLINE
  5
5BD
100
AcDbEntity
  8
0
100
AcDbPolyline
 62
253
  6
CONTINUOUS
 90
6
 70
0
 10
137.8557531857
 20
162.8786821076
 10
137.8554660334
 20
162.8799387477
 10
137.8551812867
 20
162.8836981405
 10
137.8549013312
 20
162.8899287912
 10
137.8546285121
 20
162.8985785019
 10
137.8543651152
 20
162.9095748089
  0
LWPOLYLINE
  5
5BE
100
AcDbEntity
  8
0
100
AcDbPolyline
 62
7
  6
CONTINUOUS
 90
25
 70
0
 10
153.7857527802
 20
65.2346563202
 10
153.7792873548
 20
65.2787494623
 10
153.7733177091
 20
65.321681554
 10
153.7678439386
 20
65.3634525869
 10
153.7628489141
 20
65.4039473825
 10
153.758349945
 20
65.4432811027
 10
153.7543987708
 20
65.4817992518
 10
153.7509964368
 20
65.5195117209
 10
153.7481420342
 20
65.5564086084
 10
153.7458843504
 20
65.5928057337
 10
153.7442118341
 20
65.6287102203
 10
153.7431361375
 20
65.6641149385
 10
153.7427408361
 20
65.6993143317
 10
153.7430116231
 20
65.7343722394
 10
153.743962877
 20
65.7692248197
 10
153.7457211943
 20
65.8039749969
 10
153.7482828535
 20
65.8386682165
 10
153.7516516296
 20
65.8732590316
 10
153.7559653638
 20
65.9077140281
 10
153.761202659
 20
65.9420527452
 10
153.7673849423
 20
65.9762556419
 10
153.7747142887
 20
66.0102306835
 10
153.7832580541
 20
66.0439471907
 10
153.792948872
 20
66.0774358401
 10
153.8037867229
 20
66.1106966302
  0
LWPOLYLINE
  5
5BF
100
AcDbEntity
  8
0
100
AcDbPolyline
 62
7
  6
CONTINUOUS
 90
25
 70
0
 10
150.6311873786
 20
157.5786821076
 10
150.6294552073
 20
157.6318254151
 10
150.6242955131
 20
157.6844302588
 10
150.6157081716
 20
157.7364966385
 10
150.6035956405
 20
157.7883365206
 10
150.5880549616
 20
157.8396379388
 10
150.5693777966
 20
157.8894649942
 10
150.5476020781
 20
157.9376125319
 10
150.5226890094
 20
157.9842857068
 10
150.4948151255
 20
158.0291640847
 10
150.4638767136
 20
158.0723627087
 10
150.4299763245
 20
158.1137665358
 10
150.3935999545
 20
158.1527100034
 10
150.3546882317
 20
158.1891364904
 10
150.3132993577
 20
158.2231026179
 10
150.2700959356
 20
158.254112687
 10
150.2251944823
 20
158.2820627674
 10
150.1784775951
 20
158.3070567893
 10
150.1302572542
 20
158.3289108448
 10
150.0803286937
 20
158.3476656741
 10
150.0288958898
 20
158.3632805369
 10
149.9768843091
 20
158.3754493045
 10
149.924602509
 20
158.384069934
 10
149.8717418238
 20
158.3892444683
 10
149.8183021738
 20
158.3909729074
  0
LWPOLYLINE
  5
5C0
100
AcDbEntity
  8
0
100
AcDbPolyline
 62
7
  6
CONTINUOUS
 90
31
 70
0
 10
154.5221266939
 20
65.7790718007
 10
154.5217392778
 20
65.7916680159
 10
154.5210164718
 20
65.8042445232
 10
154.519958269
 20
65.8168013224
 10
154.5185900073
 20
65.8293556896
 10
154.5168863332
 20
65.8418903487
 10
154.5147712011
 20
65.8543534719
 10
154.5122477319
 20
65.8667632858
 10
154.5093127806
 20
65.8791015634
 10
154.5058808973
 20
65.8912617967
 10
154.5019622979
 20
65.9032402924
 10
154.4975467322
 20
65.9150407429
 10
154.4925180448
 20
65.926567718
 10
154.4869053917
 20
65.9378141061
 10
154.480679565
 20
65.9487870178
 10
154.4736368463
 20
65.9594123561
 10
154.4657287945
 20
65.9697131482
 10
154.457003757
 20
65.9796663658
 10
154.4474031812
 20
65.9891288275
 10
154.43690715
 20
65.9980734201
 10
154.4255354613
 20
66.0065272554
 10
154.4132891294
 20
66.0144284892
 10
154.4002338211
 20
66.0217868257
 10
154.3863037336
 20
66.0285925595
 10
154.3713026546
 20
66.0347547322
 10
154.3551709749
 20
66.0403661618
 10
154.3379680921
 20
66.0453340293
 10
154.3196762841
 20
66.0492889203
 10
154.3002895719
 20
66.0521076964
 10
154.2798137108
 20
66.0539134951
 10
154.2582485801
 20
66.0547063159
  0
LINE
  5
5C1
100
AcDbEntity
  8
0
100
AcDbLine
 62
253
  6
CONTINUOUS
 10
150.4927583345
 20
171.3334752807
 11
150.4775635504
 21
172.7574743622
  0
LINE
  5
5C2
100
AcDbEntity
  8
0
100
AcDbLine
 62
7
  6
CONTINUOUS
 10
152.0125332435
 20
159.0024122328
 11
152.0125332435
 21
112.7549519824
  0
LINE
  5
5C3
100
AcDbEntity
  8
0
100
AcDbLine
 62
7
  6
CONTINUOUS
 10
152.0125332435
 20
102.0024122328
 11
152.0125332435
 21
55.6786821076
  0
LINE
  5
5C4
100
AcDbEntity
  8
0
100
AcDbLine
 62
7
  6
CONTINUOUS
 10
152.0521145952
 20
135.8786821076
 11
152.0521145952
 21
112.7945333341
  0
LINE
  5
5C5
100
AcDbEntity
  8
0
100
AcDbLine
 62
7
  6
CONTINUOUS
 10
152.0521145952
 20
135.8786821076
 11
152.0427603691
 21
158.9721851072
  0
LINE
  5
5C6
100
AcDbEntity
  8
0
100
AcDbLine
 62
7
  6
CONTINUOUS
 10
153.7657901738
 20
61.4069471076
 11
153.7657901738
 21
61.7617751076
  0
LINE
  5
5C7
100
AcDbEntity
  8
0
100
AcDbLine
 62
7
  6
CONTINUOUS
 10
153.7658921738
 20
59.8772841076
 11
153.7658921738
 21
60.2627371076
  0
LINE
  5
5C8
100
AcDbEntity
  8
0
100
AcDbLine
 62
7
  6
CONTINUOUS
 10
153.7658921738
 20
60.9206841076
 11
153.7658921738
 21
61.2752701076
  0
LINE
  5
5C9
100
AcDbEntity
  8
0
100
AcDbLine
 62
7
  6
CONTINUOUS
 10
153.7658921738
 20
62.1062781076
 11
153.7658921738
 21
62.4608131076
  0
LINE
  5
5CA
100
AcDbEntity
  8
0
100
AcDbLine
 62
7
  6
CONTINUOUS
 10
153.7658921738
 20
63.1667211076
 11
153.7658921738
 21
63.5177891076
  0
LINE
  5
5CB
100
AcDbEntity
  8
0
100
AcDbLine
 62
7
  6
CONTINUOUS
 10
153.7658921738
 20
64.2656481076
 11
153.7658921738
 21
64.6089021076
  0
LINE
  5
5CC
100
AcDbEntity
  8
0
100
AcDbLine
 62
7
  6
CONTINUOUS
 10
153.7683021738
 20
155.1453489014
 11
153.7683021738
 21
153.9453489014
  0
LINE
  5
5CD
100
AcDbEntity
  8
0
100
AcDbLine
 62
7
  6
CONTINUOUS
 10
153.7683021738
 20
153.1453489014
 11
153.7683021738
 21
152.9786821076
  0
LINE
  5
5CE
100
AcDbEntity
  8
0
100
AcDbLine
 62
7
  6
CONTINUOUS
 10
153.7683021738
 20
151.6786821076
 11
153.7683021738
 21
151.5453487107
  0
LINE
  5
5CF
100
AcDbEntity
  8
0
100
AcDbLine
 62
7
  6
CONTINUOUS
 10
153.7683021738
 20
150.2120154091
 11
153.7683021738
 21
150.045348806
  0
LINE
  5
5D0
100
AcDbEntity
  8
0
100
AcDbLine
 62
7
  6
CONTINUOUS
 10
153.7683021738
 20
149.2786821076
 11
153.7683021738
 21
149.0786821076
  0
LINE
  5
5D1
100
AcDbEntity
  8
0
100
AcDbLine
 62
7
  6
CONTINUOUS
 10
153.9385149195
 20
150.0120154091
 11
153.9385149195
 21
150.245348806
  0
LINE
  5
5D2
100
AcDbEntity
  8
0
100
AcDbLine
 62
7
  6
CONTINUOUS
 10
153.9385149195
 20
151.5120155045
 11
153.9385149195
 21
151.7120155045
  0
LINE
  5
5D3
100
AcDbEntity
  8
0
100
AcDbLine
 62
7
  6
CONTINUOUS
 10
153.9385149195
 20
152.9453489014
 11
153.9385149195
 21
153.1786821076
  0
LINE
  5
5D4
100
AcDbEntity
  8
0
100
AcDbLine
 62
7
  6
CONTINUOUS
 10
153.9385149195
 20
153.9453489014
 11
153.9385149195
 21
154.9453489014
  0
LINE
  5
5D5
100
AcDbEntity
  8
0
100
AcDbLine
 62
7
  6
CONTINUOUS
 10
154.1427702143
 20
151.9786821076
 11
154.1427702143
 21
152.1453489014
  0
LINE
  5
5D6
100
AcDbEntity
  8
0
100
AcDbLine
 62
7
  6
CONTINUOUS
 10
154.3470256045
 20
151.7120155045
 11
154.3470256045
 21
151.5453487107
  0
LINE
  5
5D7
100
AcDbEntity
  8
0
100
AcDbLine
 62
7
  6
CONTINUOUS
 10
154.5172383501
 20
151.5120155045
 11
154.5172383501
 21
151.7453487107
  0
LINE
  5
5D8
100
AcDbEntity
  8
0
100
AcDbLine
 62
7
  6
CONTINUOUS
 10
154.5221266939
 20
65.5762910879
 11
154.5221266939
 21
65.7790718007
  0
LINE
  5
5D9
100
AcDbEntity
  8
0
100
AcDbLine
 62
7
  6
CONTINUOUS
 10
154.6193659975
 20
153.1786821076
 11
154.6193659975
 21
152.9453489014
  0
LINE
  5
5DA
100
AcDbEntity
  8
0
100
AcDbLine
 62
7
  6
CONTINUOUS
 10
154.6193659975
 20
150.245348806
 11
154.6193659975
 21
150.0120154091
  0
LINE
  5
5DB
100
AcDbEntity
  8
0
100
AcDbLine
 62
7
  6
CONTINUOUS
 10
154.7895787909
 20
150.045348806
 11
154.7895787909
 21
150.2120154091
  0
LINE
  5
5DC
100
AcDbEntity
  8
0
100
AcDbLine
 62
7
  6
CONTINUOUS
 10
154.7895787909
 20
152.9786821076
 11
154.7895787909
 21
153.1453489014
  0
LINE
  5
5DD
100
AcDbEntity
  8
0
100
AcDbLine
 62
7
  6
CONTINUOUS
 10
154.8005231465
 20
65.7783069753
 11
154.8005231465
 21
65.5880566523
  0
LINE
  5
5DE
100
AcDbEntity
  8
0
100
AcDbLine
 62
7
  6
CONTINUOUS
 10
154.8638121738
 20
64.2539331076
 11
154.8638121738
 21
64.5936561076
  0
LINE
  5
5DF
100
AcDbEntity
  8
0
100
AcDbLine
 62
7
  6
CONTINUOUS
 10
154.9938340857
 20
152.7120153138
 11
154.9938340857
 21
152.5453489014
  0
LINE
  5
5E0
100
AcDbEntity
  8
0
100
AcDbLine
 62
7
  6
CONTINUOUS
 10
154.9938340857
 20
149.7786821076
 11
154.9938340857
 21
149.6120154568
  0
LINE
  5
5E1
100
AcDbEntity
  8
0
100
AcDbLine
 62
7
  6
CONTINUOUS
 10
155.1264021738
 20
64.6645681076
 11
155.1264021738
 21
64.1813511076
  0
LINE
  5
5E2
100
AcDbEntity
  8
0
100
AcDbLine
 62
7
  6
CONTINUOUS
 10
155.1980894043
 20
153.1786821076
 11
155.1980894043
 21
152.9786821076
  0
LINE
  5
5E3
100
AcDbEntity
  8
0
100
AcDbLine
 62
7
  6
CONTINUOUS
 10
155.1980894043
 20
151.7453487107
 11
155.1980894043
 21
151.5120155045
  0
LINE
  5
5E4
100
AcDbEntity
  8
0
100
AcDbLine
 62
7
  6
CONTINUOUS
 10
155.1980894043
 20
150.245348806
 11
155.1980894043
 21
150.045348806
  0
LINE
  5
5E5
100
AcDbEntity
  8
0
100
AcDbLine
 62
7
  6
CONTINUOUS
 10
155.3683021738
 20
149.0786821076
 11
155.3683021738
 21
149.2786821076
  0
LINE
  5
5E6
100
AcDbEntity
  8
0
100
AcDbLine
 62
7
  6
CONTINUOUS
 10
155.3683021738
 20
150.0786821076
 11
155.3683021738
 21
150.2120154091
  0
LINE
  5
5E7
100
AcDbEntity
  8
0
100
AcDbLine
 62
7
  6
CONTINUOUS
 10
155.3683021738
 20
151.5453487107
 11
155.3683021738
 21
151.7120155045
  0
LINE
  5
5E8
100
AcDbEntity
  8
0
100
AcDbLine
 62
7
  6
CONTINUOUS
 10
155.3683021738
 20
153.0120153138
 11
155.3683021738
 21
153.1453489014
  0
LINE
  5
5E9
100
AcDbEntity
  8
0
100
AcDbLine
 62
7
  6
CONTINUOUS
 10
155.3683021738
 20
154.2786821076
 11
155.3683021738
 21
154.4786821076
  0
LINE
  5
5EA
100
AcDbEntity
  8
0
100
AcDbLine
 62
7
  6
CONTINUOUS
 10
155.4657555491
 20
66.4727302147
 11
155.4657555491
 21
66.1314268714
  0
LINE
  5
5EB
100
AcDbEntity
  8
0
100
AcDbLine
 62
7
  6
CONTINUOUS
 10
155.4657555491
 20
65.5880566523
 11
155.4657555491
 21
65.2346563202
  0
LINE
  5
5EC
100
AcDbEntity
  8
0
100
AcDbLine
 62
7
  6
CONTINUOUS
 10
155.4657551738
 20
65.1304621076
 11
155.4657551738
 21
64.7564871076
  0
LINE
  5
5ED
100
AcDbEntity
  8
0
100
AcDbLine
 62
7
  6
CONTINUOUS
 10
155.4657551738
 20
64.0834411076
 11
155.4657551738
 21
63.7324631076
  0
LINE
  5
5EE
100
AcDbEntity
  8
0
100
AcDbLine
 62
7
  6
CONTINUOUS
 10
155.4657551738
 20
63.6767451076
 11
155.4657551738
 21
63.3296291076
  0
LINE
  5
5EF
100
AcDbEntity
  8
0
100
AcDbLine
 62
7
  6
CONTINUOUS
 10
155.4657551738
 20
62.8348381076
 11
155.4657551738
 21
62.7850731076
  0
LINE
  5
5F0
100
AcDbEntity
  8
0
100
AcDbLine
 62
7
  6
CONTINUOUS
 10
155.4657551738
 20
62.2922451076
 11
155.4657551738
 21
61.9527901076
  0
LINE
  5
5F1
100
AcDbEntity
  8
0
100
AcDbLine
 62
7
  6
CONTINUOUS
 10
155.4657551738
 20
61.7617751076
 11
155.4657551738
 21
61.4069471076
  0
LINE
  5
5F2
100
AcDbEntity
  8
0
100
AcDbLine
 62
7
  6
CONTINUOUS
 10
155.4657551738
 20
60.7288661076
 11
155.4657551738
 21
60.4161731076
  0
LINE
  5
5F3
100
AcDbEntity
  8
0
100
AcDbLine
 62
253
  6
CONTINUOUS
 10
155.9595912944
 20
102.8425415384
 11
155.9595912944
 21
102.0148226768
  0
LINE
  5
5F4
100
AcDbEntity
  8
0
100
AcDbLine
 62
253
  6
CONTINUOUS
 10
155.9595912944
 20
111.9148226768
 11
155.9595912944
 21
112.7425415384
  0
LINE
  5
5F5
100
AcDbEntity
  8
0
100
AcDbLine
 62
253
  6
CONTINUOUS
 10
156.1913347136
 20
102.8377147441
 11
156.1913347136
 21
102.019649471
  0
LINE
  5
5F6
100
AcDbEntity
  8
0
100
AcDbLine
 62
253
  6
CONTINUOUS
 10
156.1913347136
 20
111.919649471
 11
156.1913347136
 21
112.7377147441
  0
LINE
  5
5F7
100
AcDbEntity
  8
0
100
AcDbLine
 62
253
  6
CONTINUOUS
 10
156.356160401
 20
112.6828174919
 11
156.356160401
 21
111.9745467232
  0
LINE
  5
5F8
100
AcDbEntity
  8
0
100
AcDbLine
 62
253
  6
CONTINUOUS
 10
156.356160401
 20
102.7828174919
 11
156.356160401
 21
102.0745467232
  0
LINE
  5
5F9
100
AcDbEntity
  8
0
100
AcDbLine
 62
7
  6
CONTINUOUS
 10
152.0450784916
 20
58.8353422728
 11
152.0521145952
 21
101.9628308811
  0
LINE
  5
5FA
100
AcDbEntity
  8
0
100
AcDbLine
 62
7
  6
CONTINUOUS
 10
152.0426686509
 20
55.6786821076
 11
152.0450784916
 21
58.8353422728
  0
LWPOLYLINE
  5
5FB
100
AcDbEntity
  8
0
100
AcDbPolyline
 62
7
  6
CONTINUOUS
 90
9
 70
0
 10
134.1532989826
 20
40.5503877574
 10
134.1536256909
 20
40.551563555
 10
134.1539450229
 20
40.5544389298
 10
134.1542569786
 20
40.5590138819
 10
134.154565209
 20
40.5653898492
 10
134.1548660632
 20
40.5734653937
 10
134.1551485876
 20
40.5829362017
 10
134.155410274
 20
40.5937620569
 10
134.1558752298
 20
40.6194158921
  0
LWPOLYLINE
  5
5FC
100
AcDbEntity
  8
0
100
AcDbPolyline
 62
7
  6
CONTINUOUS
 90
10
 70
0
 10
138.7560028672
 20
51.2240826905
 10
138.7561204199
 20
51.2244361403
 10
138.7562380699
 20
51.224751521
 10
138.7563558172
 20
51.2250288327
 10
138.7564736752
 20
51.225268097
 10
138.7565916305
 20
51.2254692923
 10
138.7567096426
 20
51.2256323537
 10
138.756827698
 20
51.2257572596
 10
138.7569458102
 20
51.2258440315
 10
138.7570639792
 20
51.2258926695
  0
LINE
  5
5FD
100
AcDbEntity
  8
0
100
AcDbLine
 62
7
  6
CONTINUOUS
 10
134.0724375582
 20
40.9408238804
 11
134.1261299263
 21
41.1020319762
  0
LINE
  5
5FE
100
AcDbEntity
  8
0
100
AcDbLine
 62
7
  6
CONTINUOUS
 10
157.0183021738
 20
102.0786821076
 11
156.9172016031
 21
101.9775815369
  0
LINE
  5
5FF
100
AcDbEntity
  8
0
100
AcDbLine
 62
7
  6
CONTINUOUS
 10
157.0183021738
 20
112.6786821076
 11
156.9172016031
 21
112.7797826783
  0
LINE
  5
600
100
AcDbEntity
  8
0
100
AcDbLine
 62
7
  6
CONTINUOUS
 10
134.0724375582
 20
173.8165403348
 11
134.1261299263
 21
173.655332239
  0
LINE
  5
601
100
AcDbEntity
  8
0
100
AcDbLine
 62
253
  6
CONTINUOUS
 10
155.7707436833
 20
159.4569125716
 11
155.7408573539
 21
159.8434167295
  0
LINE
  5
602
100
AcDbEntity
  8
0
100
AcDbLine
 62
253
  6
CONTINUOUS
 10
156.0047038466
 20
159.4569552152
 11
155.9755591824
 21
159.8385745619
  0
LWPOLYLINE
  5
603
100
AcDbEntity
  8
0
100
AcDbPolyline
 62
253
  6
CONTINUOUS
 90
3
 70
0
 10
155.8022656573
 20
159.0141909263
 10
155.796440596
 20
159.099300318
 10
155.7707436833
 20
159.4569125716
  0
LWPOLYLINE
  5
604
100
AcDbEntity
  8
0
100
AcDbPolyline
 62
253
  6
CONTINUOUS
 90
3
 70
0
 10
156.0355357651
 20
159.0190264586
 10
156.0298176584
 20
159.1033272958
 10
156.0047038466
 20
159.4569552152
  0
LINE
  5
605
100
AcDbEntity
  8
0
100
AcDbLine
 62
253
  6
CONTINUOUS
 10
156.1463890756
 20
160.5816852914
 11
156.1804646548
 21
159.8745967637
  0
LINE
  5
606
100
AcDbEntity
  8
0
100
AcDbLine
 62
253
  6
CONTINUOUS
 10
156.3128672051
 20
160.5796857187
 11
156.3469572006
 21
159.8712225618
  0
LINE
  5
607
100
AcDbEntity
  8
0
100
AcDbLine
 62
253
  6
CONTINUOUS
 10
156.2221192268
 20
158.9820707011
 11
156.2473128099
 21
158.4258363793
  0
LINE
  5
608
100
AcDbEntity
  8
0
100
AcDbLine
 62
253
  6
CONTINUOUS
 10
156.3882361013
 20
158.9854501772
 11
156.4135442499
 21
158.4258803697
  0
LWPOLYLINE
  5
609
100
AcDbEntity
  8
0
100
AcDbPolyline
 62
253
  6
CONTINUOUS
 90
10
 70
0
 10
156.2473128211
 20
158.4258363793
 10
156.3529959501
 20
155.9255497736
 10
156.4464153196
 20
153.4241076021
 10
156.5274823222
 20
150.9215721537
 10
156.5960766015
 20
148.4183101859
 10
156.6521767196
 20
145.9140799138
 10
156.6958578776
 20
143.4080306648
 10
156.7271185235
 20
140.8999205203
 10
156.7458826303
 20
138.3901166596
 10
156.7521288282
 20
135.8786821076
  0
LWPOLYLINE
  5
60A
100
AcDbEntity
  8
0
100
AcDbPolyline
 62
253
  6
CONTINUOUS
 90
10
 70
0
 10
156.4135442499
 20
158.4258803697
 10
156.5190916366
 20
155.9255860428
 10
156.6122704182
 20
153.4241401761
 10
156.6930683499
 20
150.9216029185
 10
156.7614661004
 20
148.4183369034
 10
156.8174624107
 20
145.9141001874
 10
156.8610588702
 20
143.4080459214
 10
156.8922334634
 20
140.8999320511
 10
156.9109557969
 20
138.3901216441
 10
156.9172016024
 20
135.8786755995
  0
LINE
  5
60B
100
AcDbEntity
  8
0
100
AcDbLine
 62
253
  6
CONTINUOUS
 10
156.6058177847
 20
112.6786821076
 11
156.6058177847
 21
111.9786821076
  0
LINE
  5
60C
100
AcDbEntity
  8
0
100
AcDbLine
 62
253
  6
CONTINUOUS
 10
156.6058177847
 20
102.7786821076
 11
156.6058177847
 21
102.0786821076
  0
LINE
  5
60D
100
AcDbEntity
  8
0
100
AcDbLine
 62
253
  6
CONTINUOUS
 10
156.7521288282
 20
135.8786821076
 11
156.7521288282
 21
112.7831592127
  0
LINE
  5
60E
100
AcDbEntity
  8
0
100
AcDbLine
 62
253
  6
CONTINUOUS
 10
156.7521288282
 20
111.8742050025
 11
156.7521288282
 21
102.8831592127
  0
LINE
  5
60F
100
AcDbEntity
  8
0
100
AcDbLine
 62
253
  6
CONTINUOUS
 10
156.7521288282
 20
101.9742050025
 11
156.7521288282
 21
78.8786821076
  0
LINE
  5
610
100
AcDbEntity
  8
0
100
AcDbLine
 62
253
  6
CONTINUOUS
 10
156.9172016031
 20
135.8786755995
 11
156.9172016031
 21
112.7797826783
  0
LINE
  5
611
100
AcDbEntity
  8
0
100
AcDbLine
 62
253
  6
CONTINUOUS
 10
156.9172016031
 20
111.8775815369
 11
156.9172016031
 21
102.8797826783
  0
LINE
  5
612
100
AcDbEntity
  8
0
100
AcDbLine
 62
253
  6
CONTINUOUS
 10
156.9172016031
 20
101.9775815369
 11
156.9172016031
 21
78.8786885632
  0
LINE
  5
613
100
AcDbEntity
  8
0
100
AcDbLine
 62
7
  6
CONTINUOUS
 10
157.0183021738
 20
135.8786821076
 11
157.0183021738
 21
112.6786821076
  0
LINE
  5
614
100
AcDbEntity
  8
0
100
AcDbLine
 62
7
  6
CONTINUOUS
 10
157.0183021738
 20
111.9786821076
 11
157.0183021738
 21
102.7786821076
  0
LINE
  5
615
100
AcDbEntity
  8
0
100
AcDbLine
 62
7
  6
CONTINUOUS
 10
157.0183021738
 20
102.0786821076
 11
157.0183021738
 21
78.8786821076
  0
LINE
  5
616
100
AcDbEntity
  8
0
100
AcDbLine
 62
7
  6
CONTINUOUS
 10
157.5183021738
 20
135.8786821076
 11
157.5183021738
 21
78.8786821076
  0
LINE
  5
617
100
AcDbEntity
  8
0
100
AcDbLine
 62
7
  6
CONTINUOUS
 10
158.8683021738
 20
78.8786821076
 11
158.8683021738
 21
135.8786821076
  0
LINE
  5
618
100
AcDbEntity
  8
DRAFT
100
AcDbLine
 62
7
  6
CONTINUOUS
 10
159.3683021738
 20
135.8786821076
 11
159.3683021738
 21
78.8786821076
  0
LWPOLYLINE
  5
619
100
AcDbEntity
  8
0
100
AcDbPolyline
 62
253
  6
CONTINUOUS
 90
9
 70
0
 10
156.7521288282
 20
78.8786821076
 10
156.7458826167
 20
76.3672462936
 10
156.7271184959
 20
73.8574415254
 10
156.6958578368
 20
71.3493308279
 10
156.6521766652
 20
68.8432814393
 10
156.596076536
 20
66.339051382
 10
156.5274822549
 20
63.8357898062
 10
156.4464152622
 20
61.3332548682
 10
156.3529959125
 20
58.8318133841
  0
LWPOLYLINE
  5
61A
100
AcDbEntity
  8
0
100
AcDbPolyline
 62
253
  6
CONTINUOUS
 90
9
 70
0
 10
156.9172016024
 20
78.8786885632
 10
156.9109557906
 20
76.3672412763
 10
156.8922334418
 20
73.8574299762
 10
156.8610588294
 20
71.349315562
 10
156.8174623535
 20
68.8432611505
 10
156.761466034
 20
66.3390246381
 10
156.6930682823
 20
63.8357590275
 10
156.6122703586
 20
61.3332223257
 10
156.5190915985
 20
58.8317772154
  0
LWPOLYLINE
  5
61B
100
AcDbEntity
  8
0
100
AcDbPolyline
 62
253
  6
CONTINUOUS
 90
3
 70
0
 10
156.5190915985
 20
58.8317772154
 10
156.3888936654
 20
55.7862888506
 10
156.3839615532
 20
55.6786821076
  0
LWPOLYLINE
  5
61C
100
AcDbEntity
  8
0
100
AcDbPolyline
 62
253
  6
CONTINUOUS
 90
3
 70
0
 10
156.3529959125
 20
58.8318133841
 10
156.2226235503
 20
55.7862981561
 10
156.2176834371
 20
55.6786821076
  0
LINE
  5
61D
100
AcDbEntity
  8
0
100
AcDbLine
 62
253
  6
CONTINUOUS
 10
156.1804646548
 20
54.8827674514
 11
156.1463890756
 21
54.1756789238
  0
LINE
  5
61E
100
AcDbEntity
  8
0
100
AcDbLine
 62
253
  6
CONTINUOUS
 10
156.3469572006
 20
54.8861416534
 11
156.312867206
 21
54.1776785136
  0
LWPOLYLINE
  5
61F
100
AcDbEntity
  8
0
100
AcDbPolyline
 62
253
  6
CONTINUOUS
 90
10
 70
0
 10
156.1463890756
 20
54.1756789238
 10
156.1119411902
 20
53.5330092344
 10
156.0713763596
 20
52.8909155115
 10
156.024710106
 20
52.2494094599
 10
155.9719723218
 20
51.6084776362
 10
155.9131678681
 20
50.9681567664
 10
155.8482768291
 20
50.3285336595
 10
155.7773069344
 20
49.6896448162
 10
155.7002933084
 20
49.0514765137
 10
155.6172592482
 20
48.4140400643
  0
LWPOLYLINE
  5
620
100
AcDbEntity
  8
0
100
AcDbPolyline
 62
253
  6
CONTINUOUS
 90
10
 70
0
 10
156.3128672052
 20
54.1776785137
 10
156.2783982543
 20
53.5340365032
 10
156.2378305501
 20
52.8908838863
 10
156.191171594
 20
52.2482780432
 10
156.1384308986
 20
51.6062942987
 10
156.0796159015
 20
50.9649717222
 10
156.0147302435
 20
50.3243132698
 10
155.9437800186
 20
49.6843580004
 10
155.8667754938
 20
49.0451809241
 10
155.7837258187
 20
48.4068389047
  0
LINE
  5
621
100
AcDbEntity
  8
0
100
AcDbLine
 62
253
  6
CONTINUOUS
 10
156.0065447104
 20
55.3254859802
 11
156.0314999476
 21
55.6786821076
  0
LINE
  5
622
100
AcDbEntity
  8
0
100
AcDbLine
 62
253
  6
CONTINUOUS
 10
155.7724304542
 20
55.3231613979
 11
155.7978530051
 21
55.6786821076
  0
LWPOLYLINE
  5
623
100
AcDbEntity
  8
0
100
AcDbPolyline
 62
253
  6
CONTINUOUS
 90
3
 70
0
 10
155.9755591824
 20
54.9187896533
 10
155.981712974
 20
54.9970998987
 10
156.0065447104
 20
55.3254859802
  0
LWPOLYLINE
  5
624
100
AcDbEntity
  8
0
100
AcDbPolyline
 62
253
  6
CONTINUOUS
 90
3
 70
0
 10
155.7408573539
 20
54.9139474857
 10
155.747143475
 20
54.9928209509
 10
155.7724304542
 20
55.3231613979
  0
LWPOLYLINE
  5
625
100
AcDbEntity
  8
0
100
AcDbPolyline
 62
7
  6
CONTINUOUS
 90
10
 70
0
 10
154.0454736997
 20
65.8542578769
 10
154.0424591155
 20
65.8237540953
 10
154.0404779301
 20
65.7931810267
 10
154.039530115
 20
65.7625386717
 10
154.039617866
 20
65.7318617887
 10
154.0407389093
 20
65.70111562
 10
154.0428864992
 20
65.6701958919
 10
154.0460583432
 20
65.6390678475
 10
154.0502566057
 20
65.6077662459
 10
154.0554812114
 20
65.5762910879
  0
LINE
  5
626
100
AcDbEntity
  8
0
100
AcDbLine
 62
7
  6
CONTINUOUS
 10
128.9739681009
 20
41.2720798176
 11
129.6673402795
 21
42.5761232243
  0
LINE
  5
627
100
AcDbEntity
  8
0
100
AcDbLine
 62
7
  6
CONTINUOUS
 10
127.0312915231
 20
42.1206681586
 11
127.8486869316
 21
43.6261232243
  0
LINE
  5
628
100
AcDbEntity
  8
0
100
AcDbLine
 62
7
  6
CONTINUOUS
 10
123.2683021738
 20
74.3593831076
 11
124.2242911738
 21
74.9632811076
  0
LINE
  5
629
100
AcDbEntity
  8
0
100
AcDbLine
 62
7
  6
CONTINUOUS
 10
124.0371821738
 20
75.0702931076
 11
123.2683021738
 21
74.6111901076
  0
LINE
  5
62A
100
AcDbEntity
  8
0
100
AcDbLine
 62
7
  6
CONTINUOUS
 10
124.1038231738
 20
153.0242051076
 11
123.4657974134
 21
153.7813198233
  0
LINE
  5
62B
100
AcDbEntity
  8
0
100
AcDbLine
 62
7
  6
CONTINUOUS
 10
123.8267854152
 20
153.7461908212
 11
124.4352071738
 21
153.0242051076
  0
LINE
  5
62C
100
AcDbEntity
  8
0
100
AcDbLine
 62
7
  6
CONTINUOUS
 10
127.0312915231
 20
172.6366960566
 11
127.8486869316
 21
171.1312409908
  0
LINE
  5
62D
100
AcDbEntity
  8
0
100
AcDbLine
 62
7
  6
CONTINUOUS
 10
128.9739681009
 20
173.4852843975
 11
129.6673402795
 21
172.1812409908
  0
LWPOLYLINE
  5
62E
100
AcDbEntity
  8
0
100
AcDbPolyline
 62
253
  6
CONTINUOUS
 90
22
 70
0
 10
155.7837258262
 20
48.4068389037
 10
155.7347825022
 20
48.0892857001
 10
155.6740200995
 20
47.774174985
 10
155.6015677462
 20
47.4619434613
 10
155.5176063852
 20
47.1531442171
 10
155.4222699117
 20
46.8480738008
 10
155.315599084
 20
46.546785875
 10
155.1976720686
 20
46.2495298087
 10
155.0687145409
 20
45.956898903
 10
154.9289888354
 20
45.6694584993
 10
154.7787555167
 20
45.3876850728
 10
154.6182031788
 20
45.1118759226
 10
154.4475146268
 20
44.8423121785
 10
154.2669506853
 20
44.5793868505
 10
154.0767563884
 20
44.3234382967
 10
153.8770831148
 20
44.0746696604
 10
153.6681716116
 20
43.833404511
 10
153.4503290836
 20
43.6000198569
 10
153.2238037095
 20
43.3748015148
 10
152.988881548
 20
43.1580623504
 10
152.7458924534
 20
42.950136317
 10
152.4951635362
 20
42.7513292229
  0
LWPOLYLINE
  5
62F
100
AcDbEntity
  8
0
100
AcDbPolyline
 62
253
  6
CONTINUOUS
 90
22
 70
0
 10
155.6172592482
 20
48.4140400643
 10
155.5692837429
 20
48.1037118328
 10
155.5100130918
 20
47.7965331519
 10
155.4394635719
 20
47.4925033868
 10
155.3575481914
 20
47.191307963
 10
155.2643844105
 20
46.893260146
 10
155.1602943572
 20
46.599300358
 10
155.0451976298
 20
46.3092928623
 10
154.9192012098
 20
46.0233704295
 10
154.7829072033
 20
45.7428746483
 10
154.6363191701
 20
45.4679117647
 10
154.4794547961
 20
45.1983703603
 10
154.3129354807
 20
44.9352639001
 10
154.136758317
 20
44.6786265561
 10
153.9509408921
 20
44.4284174859
 10
153.7561328788
 20
44.1855363627
 10
153.5522854059
 20
43.9499663385
 10
153.3394547656
 20
43.7217164719
 10
153.1184454184
 20
43.5017241839
 10
152.8895249401
 20
43.2902988141
 10
152.6524249715
 20
43.087122264
 10
152.4071436542
 20
42.892190342
  0
LWPOLYLINE
  5
630
100
AcDbEntity
  8
0
100
AcDbPolyline
 62
7
  6
CONTINUOUS
 90
9
 70
0
 10
145.4529297688
 20
40.6357837997
 10
145.4532556686
 20
40.6370183485
 10
145.4535742822
 20
40.6399520024
 10
145.4538856095
 20
40.6445847613
 10
145.4541933069
 20
40.6510178592
 10
145.4544937179
 20
40.6591500621
 10
145.4547758737
 20
40.6686776682
 10
145.4550372764
 20
40.6795607607
 10
145.4555018411
 20
40.705329204
  0
LINE
  5
631
100
AcDbEntity
  8
0
100
AcDbLine
 62
7
  6
CONTINUOUS
 10
145.3724375582
 20
40.9408238804
 11
145.4261299263
 21
41.1020319762
  0
LWPOLYLINE
  5
632
100
AcDbEntity
  8
0
100
AcDbPolyline
 62
7
  6
CONTINUOUS
 90
7
 70
0
 10
138.7560029084
 20
51.2240828009
 10
138.7540974594
 20
51.2199698949
 10
138.7502683648
 20
51.2143986756
 10
138.744712577
 20
51.2073793803
 10
138.7376432025
 20
51.1987597589
 10
138.7292481094
 20
51.1887059902
 10
138.7196594228
 20
51.1777038819
  0
LINE
  5
633
100
AcDbEntity
  8
0
100
AcDbLine
 62
7
  6
CONTINUOUS
 10
128.0238703528
 20
41.6161265662
 11
128.8879174161
 21
43.0261232243
  0
LINE
  5
634
100
AcDbEntity
  8
0
100
AcDbLine
 62
7
  6
CONTINUOUS
 10
126.1980713409
 20
42.6819234215
 11
127.0692640682
 21
44.0761232243
  0
LINE
  5
635
100
AcDbEntity
  8
0
100
AcDbLine
 62
7
  6
CONTINUOUS
 10
122.3483682464
 20
55.771914038
 11
122.2593779932
 21
55.6786821076
  0
LINE
  5
636
100
AcDbEntity
  8
0
100
AcDbLine
 62
7
  6
CONTINUOUS
 10
123.5689111738
 20
67.7720021076
 11
124.8683021738
 21
68.5898591076
  0
LINE
  5
637
100
AcDbEntity
  8
0
100
AcDbLine
 62
7
  6
CONTINUOUS
 10
124.5679571738
 20
68.6232961076
 11
123.2683021738
 21
67.8187671076
  0
LINE
  5
638
100
AcDbEntity
  8
0
100
AcDbLine
 62
7
  6
CONTINUOUS
 10
124.8683021738
 20
73.0602321076
 11
123.2683021738
 21
72.4807511076
  0
LINE
  5
639
100
AcDbEntity
  8
0
100
AcDbLine
 62
7
  6
CONTINUOUS
 10
122.3483682464
 20
158.9854501772
 11
122.2593779932
 21
159.0786821076
  0
LINE
  5
63A
100
AcDbEntity
  8
0
100
AcDbLine
 62
7
  6
CONTINUOUS
 10
127.0692640682
 20
170.6812409908
 11
126.1980713409
 21
172.0754407937
  0
LINE
  5
63B
100
AcDbEntity
  8
0
100
AcDbLine
 62
7
  6
CONTINUOUS
 10
128.8879174161
 20
171.7312409908
 11
128.0238703528
 21
173.1412376489
  0
LWPOLYLINE
  5
63C
100
AcDbEntity
  8
0
100
AcDbPolyline
 62
7
  6
CONTINUOUS
 90
10
 70
0
 10
138.7560029084
 20
163.5332814143
 10
138.7537683413
 20
163.5370671296
 10
138.7500049535
 20
163.5427036694
 10
138.744712577
 20
163.5499848349
 10
138.7377272492
 20
163.5586880081
 10
138.7292124596
 20
163.5686227777
 10
138.7196594228
 20
163.5796603332
 10
138.7091213694
 20
163.5916272535
 10
138.6975450452
 20
163.6043691764
 10
138.6723060489
 20
163.6319394107
  0
LWPOLYLINE
  5
63D
100
AcDbEntity
  8
0
100
AcDbPolyline
 62
7
  6
CONTINUOUS
 90
5
 70
0
 10
138.756473675
 20
163.5320961188
 10
138.7563558172
 20
163.5323353825
 10
138.7562380707
 20
163.5326126921
 10
138.7561204218
 20
163.5329280698
 10
138.7560028707
 20
163.5332815154
  0
LINE
  5
63E
100
AcDbEntity
  8
0
100
AcDbLine
 62
7
  6
CONTINUOUS
 10
153.9725574686
 20
149.9120154091
 11
153.9385149195
 21
150.0120154091
  0
LINE
  5
63F
100
AcDbEntity
  8
0
100
AcDbLine
 62
7
  6
CONTINUOUS
 10
153.9725574686
 20
151.4120155045
 11
153.9385149195
 21
151.5120155045
  0
LINE
  5
640
100
AcDbEntity
  8
0
100
AcDbLine
 62
7
  6
CONTINUOUS
 10
145.3724375582
 20
173.8165403348
 11
145.4261299263
 21
173.655332239
  0
LINE
  5
641
100
AcDbEntity
  8
0
100
AcDbLine
 62
7
  6
CONTINUOUS
 10
153.7683021738
 20
150.045348806
 11
153.802344723
 21
149.8786821076
  0
LINE
  5
642
100
AcDbEntity
  8
0
100
AcDbLine
 62
7
  6
CONTINUOUS
 10
153.7683021738
 20
151.5453487107
 11
153.802344723
 21
151.3786821076
  0
LINE
  5
643
100
AcDbEntity
  8
0
100
AcDbLine
 62
7
  6
CONTINUOUS
 10
153.7683021738
 20
152.9786821076
 11
153.802344723
 21
152.8120153138
  0
LINE
  5
644
100
AcDbEntity
  8
0
100
AcDbLine
 62
7
  6
CONTINUOUS
 10
154.3470256045
 20
151.5453487107
 11
154.3810681536
 21
151.3786821076
  0
LINE
  5
645
100
AcDbEntity
  8
0
100
AcDbLine
 62
7
  6
CONTINUOUS
 10
154.7895787909
 20
150.2120154091
 11
154.7555361941
 21
150.3786821076
  0
LINE
  5
646
100
AcDbEntity
  8
0
100
AcDbLine
 62
7
  6
CONTINUOUS
 10
155.3683021738
 20
150.2120154091
 11
155.3342596217
 21
150.3786821076
  0
LINE
  5
647
100
AcDbEntity
  8
0
100
AcDbLine
 62
7
  6
CONTINUOUS
 10
154.7895787909
 20
153.1453489014
 11
154.7555361941
 21
153.3120153138
  0
LINE
  5
648
100
AcDbEntity
  8
0
100
AcDbLine
 62
7
  6
CONTINUOUS
 10
155.3683021738
 20
151.7120155045
 11
155.3342596217
 21
151.8786821076
  0
LINE
  5
649
100
AcDbEntity
  8
0
100
AcDbLine
 62
7
  6
CONTINUOUS
 10
155.3683021738
 20
153.1453489014
 11
155.3342596217
 21
153.3120153138
  0
LWPOLYLINE
  5
64A
100
AcDbEntity
  8
0
100
AcDbPolyline
 62
253
  6
CONTINUOUS
 90
10
 70
0
 10
155.6172592482
 20
166.3433241509
 10
155.7002933178
 20
165.7058875955
 10
155.777306946
 20
165.0677192724
 10
155.8482768357
 20
164.4288304938
 10
155.9131678562
 20
163.7892076157
 10
155.9719722847
 20
163.1488870603
 10
156.0247100559
 20
162.5079554008
 10
156.0713763148
 20
161.8664492846
 10
156.1119411621
 20
161.2243553466
 10
156.1463890756
 20
160.5816852914
  0
LWPOLYLINE
  5
64B
100
AcDbEntity
  8
0
100
AcDbPolyline
 62
253
  6
CONTINUOUS
 90
10
 70
0
 10
155.7837240174
 20
166.3505386538
 10
155.866774577
 20
165.7121906072
 10
155.9437796896
 20
165.0730090604
 10
156.01473025
 20
164.4330508834
 10
156.0796159811
 20
163.7923916665
 10
156.1384308999
 20
163.1510699003
 10
156.191171544
 20
162.5090868186
 10
156.2378305103
 20
161.8664809147
 10
156.2783982324
 20
161.2233280881
 10
156.3128672044
 20
160.5796857186
  0
LWPOLYLINE
  5
64C
100
AcDbEntity
  8
0
100
AcDbPolyline
 62
7
  6
CONTINUOUS
 90
48
 70
0
 10
153.8037867229
 20
66.1106966302
 10
153.8133212516
 20
66.1336412166
 10
153.8250689942
 20
66.1565777751
 10
153.8390298497
 20
66.1795063057
 10
153.8553482135
 20
66.2027759142
 10
153.8738793862
 20
66.2260374954
 10
153.89418961
 20
66.2482437294
 10
153.9163134502
 20
66.2692661999
 10
153.9402159294
 20
66.2892333158
 10
153.9653590282
 20
66.3074829899
 10
153.9919332878
 20
66.3239123447
 10
154.0197477188
 20
66.3386242484
 10
154.0476922067
 20
66.35126523
 10
154.0756461256
 20
66.3615856854
 10
154.103729952
 20
66.3698352113
 10
154.1311955259
 20
66.3764091384
 10
154.1578620112
 20
66.3812593658
 10
154.183910367
 20
66.3844339915
 10
154.2091353128
 20
66.3864726461
 10
154.233480756
 20
66.3874606342
 10
154.2570029881
 20
66.3873126506
 10
154.279665365
 20
66.3863124119
 10
154.3014397579
 20
66.3844869136
 10
154.3223545009
 20
66.3818091606
 10
154.3424576521
 20
66.3784818828
 10
154.3617553967
 20
66.3745101352
 10
154.3802417304
 20
66.3698888636
 10
154.3979464223
 20
66.3648056345
 10
154.4148510414
 20
66.3592745045
 10
154.4309741859
 20
66.3532814177
 10
154.4464011585
 20
66.346971772
 10
154.4611482811
 20
66.3403536505
 10
154.4751993667
 20
66.3334189707
 10
154.4885909443
 20
66.3262888815
 10
154.5013139898
 20
66.3189788257
 10
154.5133776467
 20
66.3114733609
 10
154.524845686
 20
66.3038473074
 10
154.5357181143
 20
66.2960976315
 10
154.5459950213
 20
66.2882273672
 10
154.5557402917
 20
66.2803204358
 10
154.5649385131
 20
66.2723727385
 10
154.5736051761
 20
66.2643883742
 10
154.5818505086
 20
66.2564635605
 10
154.5896770618
 20
66.2486105399
 10
154.5970823408
 20
66.2408170698
 10
154.6041689917
 20
66.23314264
 10
154.6109453487
 20
66.2256010624
 10
154.6174031171
 20
66.2181785247
  0
LWPOLYLINE
  5
64D
100
AcDbEntity
  8
0
100
AcDbPolyline
 62
7
  6
CONTINUOUS
 90
6
 70
0
 10
154.6722746708
 20
66.146901839
 10
154.6781776002
 20
66.1600187877
 10
154.6849015101
 20
66.1726372885
 10
154.6924463762
 20
66.1847573403
 10
154.7009060872
 20
66.1964015168
 10
154.7101866844
 20
66.2075472425
  0
LWPOLYLINE
  5
64E
100
AcDbEntity
  8
0
100
AcDbPolyline
 62
7
  6
CONTINUOUS
 90
8
 70
0
 10
138.754798059
 20
51.6643924137
 10
138.7525632032
 20
51.660680719
 10
138.7487993859
 20
51.6551152082
 10
138.7435064569
 20
51.6479017163
 10
138.7365204795
 20
51.6392624904
 10
138.7280049462
 20
51.6293878474
 10
138.718451051
 20
51.6184067334
 10
138.7079120276
 20
51.6064924377
  0
LINE
  5
64F
100
AcDbEntity
  8
0
100
AcDbLine
 62
7
  6
CONTINUOUS
 10
124.4026001738
 20
72.6657381076
 11
124.8683021738
 21
72.8239521076
  0
LINE
  5
650
100
AcDbEntity
  8
0
100
AcDbLine
 62
7
  6
CONTINUOUS
 10
123.5003801738
 20
72.3493361076
 11
124.2109631738
 21
72.5877241076
  0
LINE
  5
651
100
AcDbEntity
  8
0
100
AcDbLine
 62
253
  6
CONTINUOUS
 10
158.8683021738
 20
135.8786821076
 11
157.5183021738
 21
135.8786821076
  0
LINE
  5
652
100
AcDbEntity
  8
0
100
AcDbLine
 62
253
  6
CONTINUOUS
 10
119.8683021738
 20
135.8786821076
 11
121.2183021738
 21
135.8786821076
  0
LINE
  5
653
100
AcDbEntity
  8
0
100
AcDbLine
 62
253
  6
CONTINUOUS
 10
152.0521145952
 20
135.8786821076
 11
157.0183021738
 21
135.8786821076
  0
LINE
  5
654
100
AcDbEntity
  8
0
100
AcDbLine
 62
253
  6
CONTINUOUS
 10
121.7183021738
 20
135.8786821076
 11
126.6844897525
 21
135.8786821076
  0
LINE
  5
655
100
AcDbEntity
  8
0
100
AcDbLine
 62
7
  6
CONTINUOUS
 10
125.2600874971
 20
152.3781509262
 11
125.4813913301
 21
152.2539400199
  0
LINE
  5
656
100
AcDbEntity
  8
0
100
AcDbLine
 62
7
  6
CONTINUOUS
 10
126.2598551738
 20
153.9967061076
 11
126.4594751738
 21
153.8558951076
  0
LWPOLYLINE
  5
657
100
AcDbEntity
  8
0
100
AcDbPolyline
 62
7
  6
CONTINUOUS
 90
6
 70
0
 10
138.7542327683
 20
162.8803605481
 10
138.7519972289
 20
162.8840374417
 10
138.7482325729
 20
162.8895702326
 10
138.742938631
 20
162.8967531484
 10
138.7359513648
 20
162.905364037
 10
138.7178789855
 20
162.9261694305
  0
LINE
  5
658
100
AcDbEntity
  8
0
100
AcDbLine
 62
7
  6
CONTINUOUS
 10
154.5853234484
 20
150.345348806
 11
154.6193659975
 21
150.245348806
  0
LINE
  5
659
100
AcDbEntity
  8
0
100
AcDbLine
 62
7
  6
CONTINUOUS
 10
153.9725574686
 20
152.8453489014
 11
153.9385149195
 21
152.9453489014
  0
LINE
  5
65A
100
AcDbEntity
  8
0
100
AcDbLine
 62
7
  6
CONTINUOUS
 10
154.5512808993
 20
151.4120155045
 11
154.5172383501
 21
151.5120155045
  0
LINE
  5
65B
100
AcDbEntity
  8
0
100
AcDbLine
 62
7
  6
CONTINUOUS
 10
155.1640468552
 20
150.345348806
 11
155.1980894043
 21
150.245348806
  0
LINE
  5
65C
100
AcDbEntity
  8
0
100
AcDbLine
 62
7
  6
CONTINUOUS
 10
154.5853234484
 20
153.2786821076
 11
154.6193659975
 21
153.1786821076
  0
LINE
  5
65D
100
AcDbEntity
  8
0
100
AcDbLine
 62
7
  6
CONTINUOUS
 10
155.1640468552
 20
151.8453487107
 11
155.1980894043
 21
151.7453487107
  0
LINE
  5
65E
100
AcDbEntity
  8
0
100
AcDbLine
 62
7
  6
CONTINUOUS
 10
155.1640468552
 20
153.2786821076
 11
155.1980894043
 21
153.1786821076
  0
LWPOLYLINE
  5
65F
100
AcDbEntity
  8
0
100
AcDbPolyline
 62
7
  6
CONTINUOUS
 90
3
 70
0
 10
138.7196594228
 20
51.1777038819
 10
138.6975647863
 20
51.1529754097
 10
138.6852623206
 20
51.1395200162
  0
LWPOLYLINE
  5
660
100
AcDbEntity
  8
0
100
AcDbPolyline
 62
7
  6
CONTINUOUS
 90
10
 70
0
 10
138.7555539574
 20
51.6659338912
 10
138.7554697924
 20
51.6658400181
 10
138.7553856674
 20
51.6657267862
 10
138.7553015824
 20
51.6655941953
 10
138.7552175319
 20
51.6654422344
 10
138.7551335214
 20
51.6652709146
 10
138.7550495673
 20
51.6650802693
 10
138.7549656749
 20
51.6648703096
 10
138.7548818388
 20
51.6646410244
 10
138.754798059
 20
51.6643924137
  0
LWPOLYLINE
  5
661
100
AcDbEntity
  8
0
100
AcDbPolyline
 62
7
  6
CONTINUOUS
 90
3
 70
0
 10
138.7079120276
 20
51.6064924377
 10
138.6840507419
 20
51.5803695736
 10
138.6710931999
 20
51.5663161298
  0
LINE
  5
662
100
AcDbEntity
  8
0
100
AcDbLine
 62
7
  6
CONTINUOUS
 10
138.6852623206
 20
51.1395200162
 11
138.6586609841
 21
51.1108187404
  0
LINE
  5
663
100
AcDbEntity
  8
0
100
AcDbLine
 62
7
  6
CONTINUOUS
 10
138.6710931999
 20
51.5663161298
 11
138.6287016308
 21
51.5213029584
  0
LWPOLYLINE
  5
664
100
AcDbEntity
  8
0
100
AcDbPolyline
 62
7
  6
CONTINUOUS
 90
3
 70
0
 10
138.6586609841
 20
51.1108187404
 10
138.6298797401
 20
51.0803456932
 10
138.6148735055
 20
51.0645327885
  0
LINE
  5
665
100
AcDbEntity
  8
0
100
AcDbLine
 62
7
  6
CONTINUOUS
 10
138.6287016308
 20
51.5213029584
 11
138.5826527537
 21
51.4733249527
  0
LINE
  5
666
100
AcDbEntity
  8
0
100
AcDbLine
 62
7
  6
CONTINUOUS
 10
138.6148735055
 20
51.0645327885
 11
138.567971772
 21
51.0158451306
  0
LINE
  5
667
100
AcDbEntity
  8
0
100
AcDbLine
 62
7
  6
CONTINUOUS
 10
138.5826527537
 20
51.4733249527
 11
138.5345404279
 21
51.4239411006
  0
LINE
  5
668
100
AcDbEntity
  8
0
100
AcDbLine
 62
7
  6
CONTINUOUS
 10
138.567971772
 20
51.0158451306
 11
138.5195153976
 21
50.966281507
  0
LWPOLYLINE
  5
669
100
AcDbEntity
  8
0
100
AcDbPolyline
 62
7
  6
CONTINUOUS
 90
3
 70
0
 10
138.5345404279
 20
51.4239411006
 10
138.4698995139
 20
51.358504638
 10
138.4539027897
 20
51.3425731779
  0
LINE
  5
66A
100
AcDbEntity
  8
0
100
AcDbLine
 62
7
  6
CONTINUOUS
 10
140.2183021738
 20
54.8966433024
 11
140.1848637835
 21
54.8632049121
  0
LINE
  5
66B
100
AcDbEntity
  8
0
100
AcDbLine
 62
253
  6
CONTINUOUS
 10
137.7547031943
 20
52.1649003761
 11
137.5544417508
 21
51.9646350779
  0
LINE
  5
66C
100
AcDbEntity
  8
0
100
AcDbLine
 62
253
  6
CONTINUOUS
 10
138.0649839135
 20
51.8755465991
 11
137.8556055718
 21
51.6661644424
  0
LINE
  5
66D
100
AcDbEntity
  8
0
100
AcDbLine
 62
7
  6
CONTINUOUS
 10
124.8683021738
 20
63.0297271076
 11
123.2683021738
 21
62.4503621076
  0
LINE
  5
66E
100
AcDbEntity
  8
0
100
AcDbLine
 62
7
  6
CONTINUOUS
 10
124.4026001738
 20
62.6352841076
 11
124.8683021738
 21
62.7934861076
  0
LINE
  5
66F
100
AcDbEntity
  8
0
100
AcDbLine
 62
7
  6
CONTINUOUS
 10
123.5003801738
 20
62.3189731076
 11
124.2109631738
 21
62.5573481076
  0
LINE
  5
670
100
AcDbEntity
  8
0
100
AcDbLine
 62
7
  6
CONTINUOUS
 10
138.4693178876
 20
163.185915693
 11
138.4533215112
 21
163.2018506786
  0
LINE
  5
671
100
AcDbEntity
  8
0
100
AcDbLine
 62
7
  6
CONTINUOUS
 10
140.2183021738
 20
159.8607209128
 11
140.1848637835
 21
159.8941593031
  0
LINE
  5
672
100
AcDbEntity
  8
0
100
AcDbLine
 62
7
  6
CONTINUOUS
 10
138.5339582733
 20
163.1204776265
 11
138.4693178876
 21
163.185915693
  0
LINE
  5
673
100
AcDbEntity
  8
0
100
AcDbLine
 62
7
  6
CONTINUOUS
 10
138.5820712514
 20
163.0711067939
 11
138.5339582733
 21
163.1204776265
  0
LINE
  5
674
100
AcDbEntity
  8
0
100
AcDbLine
 62
7
  6
CONTINUOUS
 10
138.5838750722
 20
163.7251111882
 11
138.5357684707
 21
163.7745434511
  0
LINE
  5
675
100
AcDbEntity
  8
0
100
AcDbLine
 62
7
  6
CONTINUOUS
 10
138.628121758
 20
163.0231550367
 11
138.5820712514
 21
163.0711067939
  0
LINE
  5
676
100
AcDbEntity
  8
0
100
AcDbLine
 62
7
  6
CONTINUOUS
 10
138.6299188396
 20
163.6770573957
 11
138.5838750722
 21
163.7251111882
  0
LINE
  5
677
100
AcDbEntity
  8
0
100
AcDbLine
 62
7
  6
CONTINUOUS
 10
138.6705160267
 20
162.9781822098
 11
138.628121758
 21
163.0231550367
  0
LINE
  5
678
100
AcDbEntity
  8
0
100
AcDbLine
 62
7
  6
CONTINUOUS
 10
138.6723060489
 20
163.6319394107
 11
138.6299188396
 21
163.6770573957
  0
LWPOLYLINE
  5
679
100
AcDbEntity
  8
0
100
AcDbPolyline
 62
7
  6
CONTINUOUS
 90
4
 70
0
 10
138.7178789855
 20
162.9261694305
 10
138.7073385853
 20
162.9380615011
 10
138.6957598352
 20
162.9507343389
 10
138.6705160267
 20
162.9781822098
  0
LINE
  5
67A
100
AcDbEntity
  8
0
100
AcDbLine
 62
7
  6
CONTINUOUS
 10
154.0406425669
 20
149.8120154091
 11
153.9725574686
 21
149.9120154091
  0
LINE
  5
67B
100
AcDbEntity
  8
0
100
AcDbLine
 62
7
  6
CONTINUOUS
 10
154.5172383501
 20
150.445348806
 11
154.5853234484
 21
150.345348806
  0
LINE
  5
67C
100
AcDbEntity
  8
0
100
AcDbLine
 62
7
  6
CONTINUOUS
 10
154.0406425669
 20
151.3120155045
 11
153.9725574686
 21
151.4120155045
  0
LINE
  5
67D
100
AcDbEntity
  8
0
100
AcDbLine
 62
7
  6
CONTINUOUS
 10
154.7555361941
 20
150.3786821076
 11
154.6193659975
 21
150.5786821076
  0
LINE
  5
67E
100
AcDbEntity
  8
0
100
AcDbLine
 62
7
  6
CONTINUOUS
 10
154.3810681536
 20
151.3786821076
 11
154.5172383501
 21
151.1786821076
  0
LINE
  5
67F
100
AcDbEntity
  8
0
100
AcDbLine
 62
7
  6
CONTINUOUS
 10
155.0959617569
 20
150.445348806
 11
155.1640468552
 21
150.345348806
  0
LINE
  5
680
100
AcDbEntity
  8
0
100
AcDbLine
 62
7
  6
CONTINUOUS
 10
154.6193659975
 20
151.3120155045
 11
154.5512808993
 21
151.4120155045
  0
LINE
  5
681
100
AcDbEntity
  8
0
100
AcDbLine
 62
7
  6
CONTINUOUS
 10
154.0406425669
 20
152.7453489014
 11
153.9725574686
 21
152.8453489014
  0
LINE
  5
682
100
AcDbEntity
  8
0
100
AcDbLine
 62
7
  6
CONTINUOUS
 10
155.0959617569
 20
151.9453487107
 11
155.1640468552
 21
151.8453487107
  0
LINE
  5
683
100
AcDbEntity
  8
0
100
AcDbLine
 62
7
  6
CONTINUOUS
 10
154.5172383501
 20
153.3786821076
 11
154.5853234484
 21
153.2786821076
  0
LINE
  5
684
100
AcDbEntity
  8
0
100
AcDbLine
 62
7
  6
CONTINUOUS
 10
154.7555361941
 20
153.3120153138
 11
154.6193659975
 21
153.5120153138
  0
LINE
  5
685
100
AcDbEntity
  8
0
100
AcDbLine
 62
7
  6
CONTINUOUS
 10
155.0959617569
 20
153.3786821076
 11
155.1640468552
 21
153.2786821076
  0
LINE
  5
686
100
AcDbEntity
  8
0
100
AcDbLine
 62
7
  6
CONTINUOUS
 10
153.802344723
 20
149.8786821076
 11
153.9044723704
 21
149.7120154091
  0
LINE
  5
687
100
AcDbEntity
  8
0
100
AcDbLine
 62
7
  6
CONTINUOUS
 10
153.802344723
 20
151.3786821076
 11
153.9044723704
 21
151.2120155045
  0
LINE
  5
688
100
AcDbEntity
  8
0
100
AcDbLine
 62
7
  6
CONTINUOUS
 10
153.802344723
 20
152.8120153138
 11
153.9044723704
 21
152.6453489014
  0
LINE
  5
689
100
AcDbEntity
  8
0
100
AcDbLine
 62
7
  6
CONTINUOUS
 10
155.3342596217
 20
150.3786821076
 11
155.2321319654
 21
150.5453487107
  0
LINE
  5
68A
100
AcDbEntity
  8
0
100
AcDbLine
 62
7
  6
CONTINUOUS
 10
155.3342596217
 20
151.8786821076
 11
155.2321319654
 21
152.0453487107
  0
LINE
  5
68B
100
AcDbEntity
  8
0
100
AcDbLine
 62
7
  6
CONTINUOUS
 10
155.3342596217
 20
153.3120153138
 11
155.2321319654
 21
153.4786821076
  0
LINE
  5
68C
100
AcDbEntity
  8
0
100
AcDbLine
 62
7
  6
CONTINUOUS
 10
137.0760891738
 20
45.0998881076
 11
135.0029011738
 21
42.6946331076
  0
LINE
  5
68D
100
AcDbEntity
  8
0
100
AcDbLine
 62
7
  6
CONTINUOUS
 10
135.4072811738
 20
42.6946331076
 11
137.0396041738
 21
44.5884301076
  0
LWPOLYLINE
  5
68E
100
AcDbEntity
  8
0
100
AcDbPolyline
 62
7
  6
CONTINUOUS
 90
23
 70
0
 10
154.7101866844
 20
66.2075472425
 10
154.7200063763
 20
66.2181267931
 10
154.7303400732
 20
66.2280963782
 10
154.7412127988
 20
66.2374997864
 10
154.7524179548
 20
66.2464006623
 10
154.7639356245
 20
66.254794276
 10
154.7757856722
 20
66.2626853561
 10
154.787821194
 20
66.2701517346
 10
154.7999733575
 20
66.2771741147
 10
154.8123109619
 20
66.2837717923
 10
154.8248935571
 20
66.2900804889
 10
154.8377057883
 20
66.2961164962
 10
154.8507629639
 20
66.301863522
 10
154.8641706165
 20
66.3074084121
 10
154.8779177822
 20
66.3127591433
 10
154.8920153564
 20
66.3179077386
 10
154.9066016382
 20
66.3229171133
 10
154.9216822471
 20
66.3277610852
 10
154.9372514597
 20
66.3324658362
 10
154.953430535
 20
66.3371728286
 10
154.9702598411
 20
66.3419292163
 10
154.9876988676
 20
66.3466878453
 10
155.00574754
 20
66.3514487157
  0
LINE
  5
68F
100
AcDbEntity
  8
0
100
AcDbLine
 62
7
  6
CONTINUOUS
 10
138.5195153976
 20
50.966281507
 11
138.4551412424
 21
50.9014284828
  0
LINE
  5
690
100
AcDbEntity
  8
0
100
AcDbLine
 62
7
  6
CONTINUOUS
 10
138.7555539574
 20
51.6659338912
 11
138.9683021738
 21
51.8786821076
  0
LINE
  5
691
100
AcDbEntity
  8
0
100
AcDbLine
 62
7
  6
CONTINUOUS
 10
134.1419072991
 20
43.8702484276
 11
134.1644955556
 21
43.8928366841
  0
LINE
  5
692
100
AcDbEntity
  8
0
100
AcDbLine
 62
7
  6
CONTINUOUS
 10
140.9819011534
 20
52.6715192093
 11
140.5786409799
 21
52.2786821076
  0
LWPOLYLINE
  5
693
100
AcDbEntity
  8
0
100
AcDbPolyline
 62
7
  6
CONTINUOUS
 90
22
 70
0
 10
154.9503014578
 20
65.976269288
 10
154.9389535737
 20
65.9715830576
 10
154.9279242087
 20
65.9663841963
 10
154.9172133912
 20
65.9606727046
 10
154.9068139237
 20
65.9544282618
 10
154.8967330556
 20
65.9476711896
 10
154.8869924842
 20
65.9404624514
 10
154.8775804954
 20
65.9328173395
 10
154.8685088483
 20
65.9247205626
 10
154.859834452
 20
65.9161872095
 10
154.8515469157
 20
65.9072432686
 10
154.8436566719
 20
65.8978627526
 10
154.8362518688
 20
65.887982786
 10
154.8292811835
 20
65.8775810984
 10
154.8227959751
 20
65.8666799618
 10
154.8170384222
 20
65.8552833151
 10
154.8120054029
 20
65.8433257562
 10
154.8077000696
 20
65.8308726891
 10
154.8043740173
 20
65.8181242622
 10
154.8021111137
 20
65.8051471917
 10
154.8008274937
 20
65.7918747626
 10
154.8005231465
 20
65.7783069753
  0
LINE
  5
694
100
AcDbEntity
  8
0
100
AcDbLine
 62
7
  6
CONTINUOUS
 10
122.5377067313
 20
55.6828174919
 11
122.7010685826
 21
55.7383377565
  0
LINE
  5
695
100
AcDbEntity
  8
0
100
AcDbLine
 62
7
  6
CONTINUOUS
 10
124.6275311738
 20
60.6474891076
 11
123.2683021738
 21
60.1884451076
  0
LINE
  5
696
100
AcDbEntity
  8
0
100
AcDbLine
 62
7
  6
CONTINUOUS
 10
123.5267091738
 20
60.0881441076
 11
124.8683021738
 21
60.5383221076
  0
LINE
  5
697
100
AcDbEntity
  8
0
100
AcDbLine
 62
7
  6
CONTINUOUS
 10
155.4657555491
 20
66.1314268714
 11
155.2838050164
 21
66.0782843061
  0
LINE
  5
698
100
AcDbEntity
  8
0
100
AcDbLine
 62
7
  6
CONTINUOUS
 10
154.4491532519
 20
150.7453487107
 11
154.2108554079
 21
150.7120155045
  0
LINE
  5
699
100
AcDbEntity
  8
0
100
AcDbLine
 62
7
  6
CONTINUOUS
 10
154.6874510958
 20
151.0120155045
 11
154.9257489874
 21
151.0453487107
  0
LINE
  5
69A
100
AcDbEntity
  8
0
100
AcDbLine
 62
7
  6
CONTINUOUS
 10
154.4491532519
 20
153.6786821076
 11
154.2108554079
 21
153.6453489014
  0
LINE
  5
69B
100
AcDbEntity
  8
0
100
AcDbLine
 62
7
  6
CONTINUOUS
 10
154.0066000178
 20
148.8786821076
 11
154.2789405062
 21
148.8786821076
  0
LINE
  5
69C
100
AcDbEntity
  8
0
100
AcDbLine
 62
7
  6
CONTINUOUS
 10
154.0406425669
 20
149.0786821076
 11
155.3683021738
 21
149.0786821076
  0
LINE
  5
69D
100
AcDbEntity
  8
0
100
AcDbLine
 62
7
  6
CONTINUOUS
 10
155.3683021738
 20
149.2786821076
 11
153.7683021738
 21
149.2786821076
  0
LINE
  5
69E
100
AcDbEntity
  8
0
100
AcDbLine
 62
7
  6
CONTINUOUS
 10
154.2108554079
 20
149.5453487584
 11
154.3470256045
 21
149.5453487584
  0
LINE
  5
69F
100
AcDbEntity
  8
0
100
AcDbLine
 62
7
  6
CONTINUOUS
 10
154.3129830553
 20
149.7120154091
 11
154.2448979571
 21
149.7120154091
  0
LINE
  5
6A0
100
AcDbEntity
  8
0
100
AcDbLine
 62
7
  6
CONTINUOUS
 10
154.2448979571
 20
150.5453487107
 11
154.3129830553
 21
150.5453487107
  0
LINE
  5
6A1
100
AcDbEntity
  8
0
100
AcDbLine
 62
7
  6
CONTINUOUS
 10
154.6193659975
 20
150.5786821076
 11
154.6874510958
 21
150.5786821076
  0
LINE
  5
6A2
100
AcDbEntity
  8
0
100
AcDbLine
 62
7
  6
CONTINUOUS
 10
154.6874510958
 20
150.7453487107
 11
154.4491532519
 21
150.7453487107
  0
LINE
  5
6A3
100
AcDbEntity
  8
0
100
AcDbLine
 62
7
  6
CONTINUOUS
 10
154.4491532519
 20
151.0120155045
 11
154.6874510958
 21
151.0120155045
  0
LINE
  5
6A4
100
AcDbEntity
  8
0
100
AcDbLine
 62
7
  6
CONTINUOUS
 10
154.5172383501
 20
151.1786821076
 11
154.4491532519
 21
151.1786821076
  0
LINE
  5
6A5
100
AcDbEntity
  8
0
100
AcDbLine
 62
7
  6
CONTINUOUS
 10
154.8917064383
 20
151.2120155045
 11
154.7895787909
 21
151.2120155045
  0
LINE
  5
6A6
100
AcDbEntity
  8
0
100
AcDbLine
 62
7
  6
CONTINUOUS
 10
122.7010685826
 20
159.0190264586
 11
122.5377067313
 21
159.0745467232
  0
LINE
  5
6A7
100
AcDbEntity
  8
0
100
AcDbLine
 62
7
  6
CONTINUOUS
 10
154.1427702143
 20
149.745348806
 11
154.0406425669
 21
149.8120154091
  0
LINE
  5
6A8
100
AcDbEntity
  8
0
100
AcDbLine
 62
7
  6
CONTINUOUS
 10
153.9044723704
 20
149.7120154091
 11
154.0406425669
 21
149.6120154568
  0
LINE
  5
6A9
100
AcDbEntity
  8
0
100
AcDbLine
 62
7
  6
CONTINUOUS
 10
153.9044723704
 20
151.2120155045
 11
154.0406425669
 21
151.1120155045
  0
LINE
  5
6AA
100
AcDbEntity
  8
0
100
AcDbLine
 62
7
  6
CONTINUOUS
 10
155.2321319654
 20
150.5453487107
 11
155.0959617569
 21
150.6453487107
  0
LINE
  5
6AB
100
AcDbEntity
  8
0
100
AcDbLine
 62
7
  6
CONTINUOUS
 10
153.7683021738
 20
149.0786821076
 11
154.0066000178
 21
148.8786821076
  0
LINE
  5
6AC
100
AcDbEntity
  8
0
100
AcDbLine
 62
7
  6
CONTINUOUS
 10
154.2789405062
 20
148.8786821076
 11
154.0406425669
 21
149.0786821076
  0
LWPOLYLINE
  5
6AD
100
AcDbEntity
  8
0
100
AcDbPolyline
 62
253
  6
CONTINUOUS
 90
19
 70
0
 10
137.5538875975
 20
162.5786821076
 10
137.5518775042
 20
162.5805713826
 10
137.5476588726
 20
162.5824466467
 10
137.5412629881
 20
162.5842939931
 10
137.5327372824
 20
162.5860997219
 10
137.5221449822
 20
162.5878504416
 10
137.5095646398
 20
162.5895331692
 10
137.4950895508
 20
162.5911354253
 10
137.4788270626
 20
162.5926453278
 10
137.4608977773
 20
162.5940516792
 10
137.4414346586
 20
162.59534405
 10
137.4205820446
 20
162.596512856
 10
137.3984945781
 20
162.5975494294
 10
137.3753360596
 20
162.5984460829
 10
137.3512782325
 20
162.5991961669
 10
137.3264995092
 20
162.5997941189
 10
137.3011836486
 20
162.6002355044
 10
137.2755183929
 20
162.6005170501
 10
137.2496940753
 20
162.6006366681
  0
LINE
  5
6AE
100
AcDbEntity
  8
0
100
AcDbLine
 62
7
  6
CONTINUOUS
 10
140.9819011534
 20
162.0858450058
 11
140.5786409799
 21
162.4786821076
  0
LINE
  5
6AF
100
AcDbEntity
  8
0
100
AcDbLine
 62
7
  6
CONTINUOUS
 10
154.6874510958
 20
151.2453487107
 11
154.6193659975
 21
151.3120155045
  0
LINE
  5
6B0
100
AcDbEntity
  8
0
100
AcDbLine
 62
7
  6
CONTINUOUS
 10
138.471135837
 20
163.84000467
 11
138.4551412424
 21
163.8559357324
  0
LINE
  5
6B1
100
AcDbEntity
  8
0
100
AcDbLine
 62
7
  6
CONTINUOUS
 10
134.1419072991
 20
170.8871157875
 11
134.1644955556
 21
170.864527531
  0
LWPOLYLINE
  5
6B2
100
AcDbEntity
  8
0
100
AcDbPolyline
 62
7
  6
CONTINUOUS
 90
3
 70
0
 10
138.5357684707
 20
163.7745434511
 10
138.5195011212
 20
163.7910685208
 10
138.471135837
 20
163.84000467
  0
LINE
  5
6B3
100
AcDbEntity
  8
0
100
AcDbLine
 62
7
  6
CONTINUOUS
 10
145.4529297688
 20
40.6357837997
 11
145.3683021738
 21
40.5417611927
  0
LINE
  5
6B4
100
AcDbEntity
  8
0
100
AcDbLine
 62
7
  6
CONTINUOUS
 10
141.4100811738
 20
45.1118811076
 11
140.2060971738
 21
43.9078981076
  0
LINE
  5
6B5
100
AcDbEntity
  8
0
100
AcDbLine
 62
7
  6
CONTINUOUS
 10
140.6392571738
 20
43.9078971076
 11
141.8432031738
 21
45.1118811076
  0
LINE
  5
6B6
100
AcDbEntity
  8
0
100
AcDbLine
 62
7
  6
CONTINUOUS
 10
143.2226421738
 20
45.8651251076
 11
142.6796061738
 21
45.3220901076
  0
LINE
  5
6B7
100
AcDbEntity
  8
0
100
AcDbLine
 62
7
  6
CONTINUOUS
 10
143.1127471738
 20
45.3220901076
 11
143.6557641738
 21
45.8651251076
  0
LINE
  5
6B8
100
AcDbEntity
  8
0
100
AcDbLine
 62
7
  6
CONTINUOUS
 10
145.4419072991
 20
43.8702484276
 11
145.4638829353
 21
43.8922240638
  0
LINE
  5
6B9
100
AcDbEntity
  8
0
100
AcDbLine
 62
7
  6
CONTINUOUS
 10
156.444063502
 20
54.9786821076
 11
156.3469572006
 21
54.8861416534
  0
LINE
  5
6BA
100
AcDbEntity
  8
0
100
AcDbLine
 62
7
  6
CONTINUOUS
 10
134.1532989826
 20
40.5503877574
 11
134.0683021738
 21
40.4728243925
  0
LINE
  5
6BB
100
AcDbEntity
  8
0
100
AcDbLine
 62
7
  6
CONTINUOUS
 10
137.5478559058
 20
54.8684925562
 11
137.6041745572
 21
54.8966433024
  0
LINE
  5
6BC
100
AcDbEntity
  8
0
100
AcDbLine
 62
7
  6
CONTINUOUS
 10
138.5183021738
 20
52.7196983862
 11
138.5494282138
 21
52.7352602209
  0
LINE
  5
6BD
100
AcDbEntity
  8
0
100
AcDbLine
 62
7
  6
CONTINUOUS
 10
155.4657551738
 20
62.7850731076
 11
154.3557771738
 21
62.3688171076
  0
LINE
  5
6BE
100
AcDbEntity
  8
0
100
AcDbLine
 62
7
  6
CONTINUOUS
 10
153.7658921738
 20
62.4608131076
 11
154.7096611738
 21
62.8118931076
  0
LINE
  5
6BF
100
AcDbEntity
  8
0
100
AcDbLine
 62
7
  6
CONTINUOUS
 10
155.4657551738
 20
60.4161731076
 11
153.7658921738
 21
59.8772841076
  0
LINE
  5
6C0
100
AcDbEntity
  8
0
100
AcDbLine
 62
7
  6
CONTINUOUS
 10
153.7658921738
 20
64.6089021076
 11
155.4657551738
 21
65.1304621076
  0
LWPOLYLINE
  5
6C1
100
AcDbEntity
  8
0
100
AcDbPolyline
 62
7
  6
CONTINUOUS
 90
7
 70
0
 10
156.0355357651
 20
159.0190264586
 10
156.0330663233
 20
159.0185743991
 10
156.0284485081
 20
159.0181328573
 10
156.0216823194
 20
159.0177018334
 10
156.0126546819
 20
159.0172773258
 10
156.0014786709
 20
159.016863336
 10
155.9884935126
 20
159.0164718688
  0
LINE
  5
6C2
100
AcDbEntity
  8
0
100
AcDbLine
 62
7
  6
CONTINUOUS
 10
154.7895787909
 20
152.0453487107
 11
154.8917064383
 21
152.0453487107
  0
LINE
  5
6C3
100
AcDbEntity
  8
0
100
AcDbLine
 62
7
  6
CONTINUOUS
 10
154.9257489874
 20
152.2120153138
 11
154.7555361941
 21
152.2120153138
  0
LINE
  5
6C4
100
AcDbEntity
  8
0
100
AcDbLine
 62
7
  6
CONTINUOUS
 10
154.2108554079
 20
152.4786821076
 11
154.3470256045
 21
152.4786821076
  0
LINE
  5
6C5
100
AcDbEntity
  8
0
100
AcDbLine
 62
7
  6
CONTINUOUS
 10
125.6027401738
 20
152.4976041076
 11
125.3328991738
 21
152.4976041076
  0
LINE
  5
6C6
100
AcDbEntity
  8
0
100
AcDbLine
 62
7
  6
CONTINUOUS
 10
123.4158191738
 20
152.5064161076
 11
123.1444941738
 21
152.5064161076
  0
LINE
  5
6C7
100
AcDbEntity
  8
0
100
AcDbLine
 62
7
  6
CONTINUOUS
 10
154.3129830553
 20
152.6453489014
 11
154.2448979571
 21
152.6453489014
  0
LINE
  5
6C8
100
AcDbEntity
  8
0
100
AcDbLine
 62
7
  6
CONTINUOUS
 10
125.3328991738
 20
152.7367401076
 11
124.4382251738
 21
152.7367401076
  0
LINE
  5
6C9
100
AcDbEntity
  8
0
100
AcDbLine
 62
7
  6
CONTINUOUS
 10
124.1038231738
 20
152.7367401076
 11
123.4158191738
 21
152.7367401076
  0
LINE
  5
6CA
100
AcDbEntity
  8
0
100
AcDbLine
 62
7
  6
CONTINUOUS
 10
123.4158191738
 20
153.0242051076
 11
124.1038231738
 21
153.0242051076
  0
LINE
  5
6CB
100
AcDbEntity
  8
0
100
AcDbLine
 62
7
  6
CONTINUOUS
 10
124.4352071738
 20
153.0242051076
 11
125.3328991738
 21
153.0242051076
  0
LINE
  5
6CC
100
AcDbEntity
  8
0
100
AcDbLine
 62
7
  6
CONTINUOUS
 10
123.1444941738
 20
153.2544361076
 11
123.4158191738
 21
153.2544361076
  0
LINE
  5
6CD
100
AcDbEntity
  8
0
100
AcDbLine
 62
7
  6
CONTINUOUS
 10
125.3328991738
 20
153.2632491076
 11
125.6027401738
 21
153.2632491076
  0
LINE
  5
6CE
100
AcDbEntity
  8
0
100
AcDbLine
 62
7
  6
CONTINUOUS
 10
154.2448979571
 20
153.4786821076
 11
154.3129830553
 21
153.4786821076
  0
LINE
  5
6CF
100
AcDbEntity
  8
0
100
AcDbLine
 62
7
  6
CONTINUOUS
 10
154.6193659975
 20
153.5120153138
 11
154.6874510958
 21
153.5120153138
  0
LINE
  5
6D0
100
AcDbEntity
  8
0
100
AcDbLine
 62
7
  6
CONTINUOUS
 10
154.6874510958
 20
153.6786821076
 11
154.4491532519
 21
153.6786821076
  0
LINE
  5
6D1
100
AcDbEntity
  8
0
100
AcDbLine
 62
7
  6
CONTINUOUS
 10
153.7683021738
 20
153.9453489014
 11
153.9385149195
 21
153.9453489014
  0
LINE
  5
6D2
100
AcDbEntity
  8
0
100
AcDbLine
 62
7
  6
CONTINUOUS
 10
153.9385149195
 20
155.1453489014
 11
153.7683021738
 21
155.1453489014
  0
LINE
  5
6D3
100
AcDbEntity
  8
0
100
AcDbLine
 62
7
  6
CONTINUOUS
 10
154.9257489874
 20
150.7120155045
 11
154.6874510958
 21
150.7453487107
  0
LINE
  5
6D4
100
AcDbEntity
  8
0
100
AcDbLine
 62
7
  6
CONTINUOUS
 10
154.2108554079
 20
151.0453487107
 11
154.4491532519
 21
151.0120155045
  0
LINE
  5
6D5
100
AcDbEntity
  8
0
100
AcDbLine
 62
7
  6
CONTINUOUS
 10
154.9257489874
 20
153.6453489014
 11
154.6874510958
 21
153.6786821076
  0
LINE
  5
6D6
100
AcDbEntity
  8
0
100
AcDbLine
 62
7
  6
CONTINUOUS
 10
154.6874510958
 20
150.5786821076
 11
154.8917064383
 21
150.5453487107
  0
LINE
  5
6D7
100
AcDbEntity
  8
0
100
AcDbLine
 62
7
  6
CONTINUOUS
 10
154.4491532519
 20
151.1786821076
 11
154.2448979571
 21
151.2120155045
  0
LINE
  5
6D8
100
AcDbEntity
  8
0
100
AcDbLine
 62
7
  6
CONTINUOUS
 10
154.6874510958
 20
153.5120153138
 11
154.8917064383
 21
153.4786821076
  0
LWPOLYLINE
  5
6D9
100
AcDbEntity
  8
0
100
AcDbPolyline
 62
7
  6
CONTINUOUS
 90
8
 70
0
 10
122.5377067313
 20
159.0745467232
 10
122.5357668529
 20
159.0749122307
 10
122.5320920352
 20
159.0752706089
 10
122.5266822781
 20
159.0756218577
 10
122.519444983
 20
159.0759696095
 10
122.5104727486
 20
159.0763102319
 10
122.5000433709
 20
159.0766328282
 10
122.4748375686
 20
159.0772194077
  0
LWPOLYLINE
  5
6DA
100
AcDbEntity
  8
0
100
AcDbPolyline
 62
7
  6
CONTINUOUS
 90
8
 70
0
 10
122.3483682464
 20
158.9854501772
 10
122.3495330411
 20
158.98512661
 10
122.3523557644
 20
158.9848102423
 10
122.3568364161
 20
158.9845010742
 10
122.363073179
 20
158.9841955643
 10
122.3709678705
 20
158.983897254
 10
122.3802259421
 20
158.9836167673
 10
122.4027556438
 20
158.9831141413
  0
LINE
  5
6DB
100
AcDbEntity
  8
0
100
AcDbLine
 62
7
  6
CONTINUOUS
 10
154.2448979571
 20
149.7120154091
 11
154.1427702143
 21
149.745348806
  0
LINE
  5
6DC
100
AcDbEntity
  8
0
100
AcDbLine
 62
7
  6
CONTINUOUS
 10
154.3129830553
 20
150.5453487107
 11
154.4151107027
 21
150.5120155045
  0
LINE
  5
6DD
100
AcDbEntity
  8
0
100
AcDbLine
 62
7
  6
CONTINUOUS
 10
154.8917064383
 20
150.5453487107
 11
154.9938340857
 21
150.5120155045
  0
LINE
  5
6DE
100
AcDbEntity
  8
0
100
AcDbLine
 62
7
  6
CONTINUOUS
 10
154.2448979571
 20
151.2120155045
 11
154.1427702143
 21
151.2453487107
  0
LINE
  5
6DF
100
AcDbEntity
  8
0
100
AcDbLine
 62
7
  6
CONTINUOUS
 10
154.7895787909
 20
151.2120155045
 11
154.6874510958
 21
151.2453487107
  0
LINE
  5
6E0
100
AcDbEntity
  8
0
100
AcDbLine
 62
7
  6
CONTINUOUS
 10
154.8917064383
 20
152.0453487107
 11
154.9938340857
 21
152.0120155045
  0
LINE
  5
6E1
100
AcDbEntity
  8
0
100
AcDbLine
 62
7
  6
CONTINUOUS
 10
154.2448979571
 20
152.6453489014
 11
154.1427702143
 21
152.6786821076
  0
LINE
  5
6E2
100
AcDbEntity
  8
0
100
AcDbLine
 62
7
  6
CONTINUOUS
 10
154.3129830553
 20
153.4786821076
 11
154.4151107027
 21
153.4453489014
  0
LINE
  5
6E3
100
AcDbEntity
  8
0
100
AcDbLine
 62
7
  6
CONTINUOUS
 10
154.8917064383
 20
153.4786821076
 11
154.9938340857
 21
153.4453489014
  0
LINE
  5
6E4
100
AcDbEntity
  8
0
100
AcDbLine
 62
7
  6
CONTINUOUS
 10
154.0406425669
 20
149.6120154568
 11
154.2108554079
 21
149.5453487584
  0
LINE
  5
6E5
100
AcDbEntity
  8
0
100
AcDbLine
 62
7
  6
CONTINUOUS
 10
155.0959617569
 20
150.6453487107
 11
154.9257489874
 21
150.7120155045
  0
LINE
  5
6E6
100
AcDbEntity
  8
0
100
AcDbLine
 62
7
  6
CONTINUOUS
 10
154.0406425669
 20
151.1120155045
 11
154.2108554079
 21
151.0453487107
  0
LINE
  5
6E7
100
AcDbEntity
  8
0
100
AcDbLine
 62
7
  6
CONTINUOUS
 10
154.0406425669
 20
152.5453489014
 11
154.2108554079
 21
152.4786821076
  0
LINE
  5
6E8
100
AcDbEntity
  8
0
100
AcDbLine
 62
7
  6
CONTINUOUS
 10
155.0959617569
 20
152.1453489014
 11
154.9257489874
 21
152.2120153138
  0
LINE
  5
6E9
100
AcDbEntity
  8
0
100
AcDbLine
 62
7
  6
CONTINUOUS
 10
155.0959617569
 20
153.5786821076
 11
154.9257489874
 21
153.6453489014
  0
LINE
  5
6EA
100
AcDbEntity
  8
0
100
AcDbLine
 62
7
  6
CONTINUOUS
 10
153.9385149195
 20
154.9453489014
 11
155.3683021738
 21
154.2786821076
  0
LINE
  5
6EB
100
AcDbEntity
  8
0
100
AcDbLine
 62
7
  6
CONTINUOUS
 10
155.3683021738
 20
154.4786821076
 11
153.9385149195
 21
155.1453489014
  0
LINE
  5
6EC
100
AcDbEntity
  8
0
100
AcDbLine
 62
7
  6
CONTINUOUS
 10
137.5478559058
 20
159.8888716589
 11
137.6041745572
 21
159.8607209128
  0
LINE
  5
6ED
100
AcDbEntity
  8
0
100
AcDbLine
 62
7
  6
CONTINUOUS
 10
138.5183021738
 20
162.037665829
 11
138.5494282138
 21
162.0221039943
  0
LINE
  5
6EE
100
AcDbEntity
  8
0
100
AcDbLine
 62
7
  6
CONTINUOUS
 10
154.4151107027
 20
150.5120155045
 11
154.5172383501
 21
150.445348806
  0
LINE
  5
6EF
100
AcDbEntity
  8
0
100
AcDbLine
 62
7
  6
CONTINUOUS
 10
154.9938340857
 20
150.5120155045
 11
155.0959617569
 21
150.445348806
  0
LINE
  5
6F0
100
AcDbEntity
  8
0
100
AcDbLine
 62
7
  6
CONTINUOUS
 10
154.1427702143
 20
151.2453487107
 11
154.0406425669
 21
151.3120155045
  0
LINE
  5
6F1
100
AcDbEntity
  8
0
100
AcDbLine
 62
7
  6
CONTINUOUS
 10
154.9938340857
 20
152.0120155045
 11
155.0959617569
 21
151.9453487107
  0
LINE
  5
6F2
100
AcDbEntity
  8
0
100
AcDbLine
 62
7
  6
CONTINUOUS
 10
154.1427702143
 20
152.6786821076
 11
154.0406425669
 21
152.7453489014
  0
LINE
  5
6F3
100
AcDbEntity
  8
0
100
AcDbLine
 62
7
  6
CONTINUOUS
 10
154.4151107027
 20
153.4453489014
 11
154.5172383501
 21
153.3786821076
  0
LINE
  5
6F4
100
AcDbEntity
  8
0
100
AcDbLine
 62
7
  6
CONTINUOUS
 10
154.9938340857
 20
153.4453489014
 11
155.0959617569
 21
153.3786821076
  0
LINE
  5
6F5
100
AcDbEntity
  8
0
100
AcDbLine
 62
7
  6
CONTINUOUS
 10
153.9044723704
 20
152.6453489014
 11
154.0406425669
 21
152.5453489014
  0
LINE
  5
6F6
100
AcDbEntity
  8
0
100
AcDbLine
 62
7
  6
CONTINUOUS
 10
155.2321319654
 20
153.4786821076
 11
155.0959617569
 21
153.5786821076
  0
LINE
  5
6F7
100
AcDbEntity
  8
0
100
AcDbLine
 62
7
  6
CONTINUOUS
 10
155.2321319654
 20
152.0453487107
 11
155.0959617569
 21
152.1453489014
  0
LINE
  5
6F8
100
AcDbEntity
  8
0
100
AcDbLine
 62
7
  6
CONTINUOUS
 10
134.1532989817
 20
174.2069764658
 11
134.0683021738
 21
174.2845398226
  0
LINE
  5
6F9
100
AcDbEntity
  8
0
100
AcDbLine
 62
7
  6
CONTINUOUS
 10
156.444063502
 20
159.7786821076
 11
156.3469572006
 21
159.8712225618
  0
LINE
  5
6FA
100
AcDbEntity
  8
0
100
AcDbLine
 62
7
  6
CONTINUOUS
 10
152.0125332435
 20
159.0024122328
 11
152.0427603691
 21
158.9721851072
  0
LINE
  5
6FB
100
AcDbEntity
  8
0
100
AcDbLine
 62
7
  6
CONTINUOUS
 10
145.4419072991
 20
170.8871157875
 11
145.4638829353
 21
170.8651401513
  0
LINE
  5
6FC
100
AcDbEntity
  8
0
100
AcDbLine
 62
7
  6
CONTINUOUS
 10
145.4529297689
 20
174.1215804141
 11
145.3683021738
 21
174.2156030225
  0
LINE
  5
6FD
100
AcDbEntity
  8
0
100
AcDbLine
 62
7
  6
CONTINUOUS
 10
155.9755591824
 20
54.9187896533
 11
156.1478046247
 21
54.9745467232
  0
LINE
  5
6FE
100
AcDbEntity
  8
0
100
AcDbLine
 62
7
  6
CONTINUOUS
 10
137.7543343979
 20
162.0751914934
 11
137.6041745572
 21
162.037665829
  0
LINE
  5
6FF
100
AcDbEntity
  8
0
100
AcDbLine
 62
7
  6
CONTINUOUS
 10
139.7683021738
 20
163.4786821076
 11
139.9795403685
 21
163.5314715456
  0
LWPOLYLINE
  5
700
100
AcDbEntity
  8
0
100
AcDbPolyline
 62
7
  6
CONTINUOUS
 90
7
 70
0
 10
122.7610451653
 20
159.8385745619
 10
122.7635913506
 20
159.8390281156
 10
122.7682995395
 20
159.83947113
 10
122.7751697321
 20
159.8399036051
 10
122.7843202145
 20
159.8403296504
 10
122.7956327005
 20
159.8407451564
 10
122.8087523315
 20
159.8411377945
  0
LINE
  5
701
100
AcDbEntity
  8
0
100
AcDbLine
 62
253
  6
CONTINUOUS
 10
158.169314882
 20
162.2945811326
 11
156.8212040369
 21
162.2231868109
  0
LINE
  5
702
100
AcDbEntity
  8
0
100
AcDbLine
 62
253
  6
CONTINUOUS
 10
156.4046761253
 20
160.5842577775
 11
156.3128672044
 21
160.5796857186
  0
LWPOLYLINE
  5
703
100
AcDbEntity
  8
0
100
AcDbPolyline
 62
253
  6
CONTINUOUS
 90
13
 70
0
 10
156.1463890756
 20
160.5816852914
 10
156.1688290767
 20
160.5825087957
 10
156.1905296424
 20
160.5831631029
 10
156.2112026142
 20
160.5836395247
 10
156.2305734791
 20
160.5839317347
 10
156.2483850146
 20
160.5840358526
 10
156.2644007042
 20
160.583950496
 10
156.2784078781
 20
160.5836767983
 10
156.2902205372
 20
160.5832183937
 10
156.2996818234
 20
160.5825813695
 10
156.3066661016
 20
160.5817741846
 10
156.3110806287
 20
160.5808075574
 10
156.312866785
 20
160.5796943236
  0
LWPOLYLINE
  5
704
100
AcDbEntity
  8
0
100
AcDbPolyline
 62
253
  6
CONTINUOUS
 90
13
 70
0
 10
156.2473128879
 20
158.4258346436
 10
156.2697406139
 20
158.4266385106
 10
156.2914258654
 20
158.4273120882
 10
156.312080926
 20
158.4278464397
 10
156.3314317476
 20
158.4282344752
 10
156.3492215867
 20
158.4284710465
 10
156.3652144106
 20
158.4285530147
 10
156.3791980291
 20
158.4284792923
 10
156.3909869099
 20
158.4282508574
 10
156.4004246399
 20
158.4278707408
 10
156.4073860009
 20
158.4273439859
 10
156.4117786306
 20
158.4266775816
 10
156.4135442485
 20
158.4258803697
  0
LWPOLYLINE
  5
705
100
AcDbEntity
  8
0
100
AcDbPolyline
 62
7
  6
CONTINUOUS
 90
25
 70
0
 10
128.9183021738
 20
158.3909729074
 10
128.8648625239
 20
158.3892444683
 10
128.8120018387
 20
158.384069934
 10
128.7597200386
 20
158.3754493045
 10
128.7077084579
 20
158.3632805369
 10
128.656275654
 20
158.3476656741
 10
128.6063470935
 20
158.3289108448
 10
128.5581267526
 20
158.3070567893
 10
128.5114098654
 20
158.2820627674
 10
128.4665084121
 20
158.254112687
 10
128.42330499
 20
158.2231026179
 10
128.381916116
 20
158.1891364904
 10
128.3430043932
 20
158.1527100034
 10
128.3066280231
 20
158.1137665358
 10
128.2727276341
 20
158.0723627087
 10
128.2417892222
 20
158.0291640847
 10
128.2139153383
 20
157.9842857068
 10
128.1890022695
 20
157.9376125319
 10
128.167226551
 20
157.8894649942
 10
128.1485493861
 20
157.8396379388
 10
128.1330087071
 20
157.7883365206
 10
128.1208961761
 20
157.7364966385
 10
128.1123088346
 20
157.6844302588
 10
128.1071491404
 20
157.6318254151
 10
128.1054169691
 20
157.5786821076
  0
LWPOLYLINE
  5
706
100
AcDbEntity
  8
0
100
AcDbPolyline
 62
7
  6
CONTINUOUS
 90
7
 70
0
 10
141.2326868006
 20
159.8914238763
 10
141.2202125706
 20
159.8910314844
 10
141.2097092886
 20
159.8906209272
 10
141.2012990275
 20
159.8901989878
 10
141.1950224781
 20
159.8897679271
 10
141.1908389496
 20
159.8893254841
 10
141.1887484419
 20
159.8888716589
  0
LWPOLYLINE
  5
707
100
AcDbEntity
  8
0
100
AcDbPolyline
 62
7
  6
CONTINUOUS
 90
7
 70
0
 10
156.2365546703
 20
159.0766326523
 10
156.2261252952
 20
159.0763100123
 10
156.2171537816
 20
159.0759693541
 10
156.2099175181
 20
159.0756216035
 10
156.2045089675
 20
159.0752704025
 10
156.2008356669
 20
159.074912109
 10
156.1988976163
 20
159.0745467232
  0
LWPOLYLINE
  5
708
100
AcDbEntity
  8
0
100
AcDbPolyline
 62
7
  6
CONTINUOUS
 90
7
 70
0
 10
122.5508280735
 20
159.7807319454
 10
122.5613089123
 20
159.7810545674
 10
122.5703326026
 20
159.7813951793
 10
122.5776213121
 20
159.781742869
 10
122.5830824299
 20
159.7820939989
 10
122.5868085669
 20
159.7824522066
 10
122.588799723
 20
159.7828174919
  0
LWPOLYLINE
  5
709
100
AcDbEntity
  8
0
100
AcDbPolyline
 62
7
  6
CONTINUOUS
 90
7
 70
0
 10
156.3563784053
 20
158.9836167673
 10
156.3656364769
 20
158.983897254
 10
156.3735311684
 20
158.9841955643
 10
156.3797679313
 20
158.9845010742
 10
156.3842485831
 20
158.9848102423
 10
156.3870713064
 20
158.98512661
 10
156.3882361013
 20
158.9854501772
  0
LWPOLYLINE
  5
70A
100
AcDbEntity
  8
0
100
AcDbPolyline
 62
7
  6
CONTINUOUS
 90
7
 70
0
 10
122.4216605475
 20
159.8730529051
 10
122.4123777759
 20
159.8727728034
 10
122.4044584284
 20
159.872474925
 10
122.3981963111
 20
159.8721698988
 10
122.3936893595
 20
159.8718612676
 10
122.3908396382
 20
159.8715454886
 10
122.3896471471
 20
159.8712225618
  0
LINE
  5
70B
100
AcDbEntity
  8
0
100
AcDbLine
 62
7
  6
CONTINUOUS
 10
141.2637389239
 20
159.8921565858
 11
141.2326868006
 21
159.8914238763
  0
LINE
  5
70C
100
AcDbEntity
  8
0
100
AcDbLine
 62
7
  6
CONTINUOUS
 10
156.2617636886
 20
159.0772193387
 11
156.2365546703
 21
159.0766326523
  0
LINE
  5
70D
100
AcDbEntity
  8
0
100
AcDbLine
 62
7
  6
CONTINUOUS
 10
122.525518365
 20
159.7801451875
 11
122.5508280735
 21
159.7807319454
  0
LINE
  5
70E
100
AcDbEntity
  8
0
100
AcDbLine
 62
7
  6
CONTINUOUS
 10
155.9884935126
 20
159.0164718688
 11
155.9571883958
 21
159.0157615776
  0
LINE
  5
70F
100
AcDbEntity
  8
0
100
AcDbLine
 62
7
  6
CONTINUOUS
 10
122.8087523315
 20
159.8411377945
 11
122.8403181322
 21
159.8418491271
  0
LINE
  5
710
100
AcDbEntity
  8
0
100
AcDbLine
 62
7
  6
CONTINUOUS
 10
156.3338487037
 20
158.9831141413
 11
156.3563784053
 21
158.9836167673
  0
LINE
  5
711
100
AcDbEntity
  8
0
100
AcDbLine
 62
7
  6
CONTINUOUS
 10
122.4442402016
 20
159.8735549164
 11
122.4216605475
 21
159.8730529051
  0
LINE
  5
712
100
AcDbEntity
  8
0
100
AcDbLine
 62
7
  6
CONTINUOUS
 10
156.2920766028
 20
159.077721592
 11
156.2617636886
 21
159.0772193387
  0
LINE
  5
713
100
AcDbEntity
  8
0
100
AcDbLine
 62
7
  6
CONTINUOUS
 10
141.3015228787
 20
159.8927841714
 11
141.2637389239
 21
159.8921565858
  0
LINE
  5
714
100
AcDbEntity
  8
0
100
AcDbLine
 62
7
  6
CONTINUOUS
 10
122.495107787
 20
159.7796428076
 11
122.525518365
 21
159.7801451875
  0
LINE
  5
715
100
AcDbEntity
  8
0
100
AcDbLine
 62
7
  6
CONTINUOUS
 10
155.9571883958
 20
159.0157615776
 11
155.9191058865
 21
159.0151532687
  0
LINE
  5
716
100
AcDbEntity
  8
0
100
AcDbLine
 62
7
  6
CONTINUOUS
 10
122.8403181322
 20
159.8418491271
 11
122.87861158
 21
159.8424572613
  0
LINE
  5
717
100
AcDbEntity
  8
0
100
AcDbLine
 62
7
  6
CONTINUOUS
 10
156.3062910385
 20
158.9826918067
 11
156.3338487037
 21
158.9831141413
  0
LINE
  5
718
100
AcDbEntity
  8
0
100
AcDbLine
 62
7
  6
CONTINUOUS
 10
122.4718487198
 20
159.873976741
 11
122.4442402016
 21
159.8735549164
  0
LINE
  5
719
100
AcDbEntity
  8
0
100
AcDbLine
 62
7
  6
CONTINUOUS
 10
156.3460735832
 20
159.0782967587
 11
156.2920766028
 21
159.077721592
  0
LINE
  5
71A
100
AcDbEntity
  8
0
100
AcDbLine
 62
7
  6
CONTINUOUS
 10
141.3680733581
 20
159.8934873792
 11
141.3015228787
 21
159.8927841714
  0
LINE
  5
71B
100
AcDbEntity
  8
0
100
AcDbLine
 62
7
  6
CONTINUOUS
 10
122.4409783566
 20
159.7790674714
 11
122.495107787
 21
159.7796428076
  0
LINE
  5
71C
100
AcDbEntity
  8
0
100
AcDbLine
 62
7
  6
CONTINUOUS
 10
155.9191058865
 20
159.0151532687
 11
155.8517865867
 21
159.0144682038
  0
LINE
  5
71D
100
AcDbEntity
  8
0
100
AcDbLine
 62
7
  6
CONTINUOUS
 10
122.87861158
 20
159.8424572613
 11
122.9461419219
 21
159.8431406872
  0
LINE
  5
71E
100
AcDbEntity
  8
0
100
AcDbLine
 62
7
  6
CONTINUOUS
 10
156.2576401447
 20
158.9822357786
 11
156.3062910385
 21
158.9826918067
  0
LINE
  5
71F
100
AcDbEntity
  8
0
100
AcDbLine
 62
7
  6
CONTINUOUS
 10
122.5205741091
 20
159.8744321047
 11
122.4718487198
 21
159.873976741
  0
LINE
  5
720
100
AcDbEntity
  8
0
100
AcDbLine
 62
7
  6
CONTINUOUS
 10
155.8517865867
 20
159.0144682038
 11
155.8022656573
 21
159.0141909263
  0
LINE
  5
721
100
AcDbEntity
  8
0
100
AcDbLine
 62
7
  6
CONTINUOUS
 10
122.9461419219
 20
159.8431406872
 11
122.9957469939
 21
159.8434167295
  0
LINE
  5
722
100
AcDbEntity
  8
0
100
AcDbLine
 62
7
  6
CONTINUOUS
 10
156.4069380045
 20
159.0786212075
 11
156.3460735832
 21
159.0782967587
  0
LINE
  5
723
100
AcDbEntity
  8
0
100
AcDbLine
 62
7
  6
CONTINUOUS
 10
122.3800189982
 20
159.7787429933
 11
122.4409783566
 21
159.7790674714
  0
LINE
  5
724
100
AcDbEntity
  8
0
100
AcDbLine
 62
7
  6
CONTINUOUS
 10
141.441539279
 20
159.893863361
 11
141.3680733581
 21
159.8934873792
  0
LINE
  5
725
100
AcDbEntity
  8
0
100
AcDbLine
 62
7
  6
CONTINUOUS
 10
125.662201621
 20
159.8823755756
 11
122.5205741091
 21
159.8744321047
  0
LWPOLYLINE
  5
726
100
AcDbEntity
  8
0
100
AcDbPolyline
 62
7
  6
CONTINUOUS
 90
3
 70
0
 10
152.0427603691
 20
158.9721851072
 10
152.5089476266
 20
158.9730401507
 10
156.2576401447
 20
158.9822357786
  0
LINE
  5
727
100
AcDbEntity
  8
0
100
AcDbLine
 62
7
  6
CONTINUOUS
 10
132.7002037634
 20
159.8915243589
 11
125.662201621
 21
159.8823755756
  0
LINE
  5
728
100
AcDbEntity
  8
0
100
AcDbLine
 62
253
  6
CONTINUOUS
 10
150.6311873786
 20
157.5786821076
 11
150.6183021738
 21
157.5786821076
  0
LINE
  5
729
100
AcDbEntity
  8
0
100
AcDbLine
 62
253
  6
CONTINUOUS
 10
128.1054169691
 20
157.5786821076
 11
128.1183021738
 21
157.5786821076
  0
LINE
  5
72A
100
AcDbEntity
  8
0
100
AcDbLine
 62
7
  6
CONTINUOUS
 10
128.9183021738
 20
158.3786821076
 11
149.8183021738
 21
158.3786821076
  0
LINE
  5
72B
100
AcDbEntity
  8
0
100
AcDbLine
 62
7
  6
CONTINUOUS
 10
146.8683021738
 20
158.3900270357
 11
131.8683021738
 21
158.3900270357
  0
LINE
  5
72C
100
AcDbEntity
  8
0
100
AcDbLine
 62
253
  6
CONTINUOUS
 10
126.693394543
 20
158.4258346436
 11
122.4892915464
 21
158.4258365724
  0
LINE
  5
72D
100
AcDbEntity
  8
0
100
AcDbLine
 62
253
  6
CONTINUOUS
 10
152.0432098046
 20
158.4258346436
 11
156.2473128099
 21
158.4258363793
  0
LINE
  5
72E
100
AcDbEntity
  8
0
100
AcDbLine
 62
7
  6
CONTINUOUS
 10
156.4069380045
 20
159.0786212075
 11
156.4772263545
 21
159.0786821076
  0
LINE
  5
72F
100
AcDbEntity
  8
0
100
AcDbLine
 62
7
  6
CONTINUOUS
 10
122.3800189982
 20
159.7787429933
 11
122.2925408457
 21
159.7786821076
  0
LINE
  5
730
100
AcDbEntity
  8
0
100
AcDbLine
 62
7
  6
CONTINUOUS
 10
146.8683021738
 20
159.8607209128
 11
141.1324297905
 21
159.8607209128
  0
LINE
  5
731
100
AcDbEntity
  8
0
100
AcDbLine
 62
7
  6
CONTINUOUS
 10
140.2183021738
 20
159.8607209128
 11
138.5183021738
 21
159.8607209128
  0
LINE
  5
732
100
AcDbEntity
  8
0
100
AcDbLine
 62
7
  6
CONTINUOUS
 10
137.6041745572
 20
159.8607209128
 11
131.8683021738
 21
159.8607209128
  0
LINE
  5
733
100
AcDbEntity
  8
0
100
AcDbLine
 62
7
  6
CONTINUOUS
 10
138.5494282138
 20
162.0221039943
 11
140.1871761339
 21
162.0221039943
  0
LINE
  5
734
100
AcDbEntity
  8
0
100
AcDbLine
 62
7
  6
CONTINUOUS
 10
141.1324297905
 20
162.037665829
 11
140.2183021738
 21
162.037665829
  0
LINE
  5
735
100
AcDbEntity
  8
0
100
AcDbLine
 62
7
  6
CONTINUOUS
 10
137.6041745572
 20
162.037665829
 11
138.5183021738
 21
162.037665829
  0
LINE
  5
736
100
AcDbEntity
  8
0
100
AcDbLine
 62
7
  6
CONTINUOUS
 10
137.7543343979
 20
162.0751914934
 11
140.9822699498
 21
162.0751914934
  0
LINE
  5
737
100
AcDbEntity
  8
0
100
AcDbLine
 62
7
  6
CONTINUOUS
 10
138.1579633678
 20
162.4786821076
 11
140.5786409799
 21
162.4786821076
  0
LINE
  5
738
100
AcDbEntity
  8
0
100
AcDbLine
 62
7
  6
CONTINUOUS
 10
140.1848637835
 20
159.8941593031
 11
138.5517405642
 21
159.8941593031
  0
LINE
  5
739
100
AcDbEntity
  8
0
100
AcDbLine
 62
7
  6
CONTINUOUS
 10
146.0363960762
 20
159.8915243625
 11
141.441539279
 21
159.893863361
  0
LINE
  5
73A
100
AcDbEntity
  8
0
100
AcDbLine
 62
7
  6
CONTINUOUS
 10
137.3201007007
 20
159.893775006
 11
132.7002037634
 21
159.8915243589
  0
LINE
  5
73B
100
AcDbEntity
  8
0
100
AcDbLine
 62
7
  6
CONTINUOUS
 10
122.3501321736
 20
159.078544731
 11
122.2593779932
 21
159.0786821076
  0
LINE
  5
73C
100
AcDbEntity
  8
0
100
AcDbLine
 62
7
  6
CONTINUOUS
 10
156.3360934946
 20
159.7788194741
 11
156.444063502
 21
159.7786821076
  0
LINE
  5
73D
100
AcDbEntity
  8
0
100
AcDbLine
 62
7
  6
CONTINUOUS
 10
156.1985764055
 20
159.8745280697
 11
146.0363960762
 21
159.8915243625
  0
LINE
  5
73E
100
AcDbEntity
  8
0
100
AcDbLine
 62
7
  6
CONTINUOUS
 10
122.4789642029
 20
158.9822357786
 11
126.6938439786
 21
158.9721851072
  0
LINE
  5
73F
100
AcDbEntity
  8
0
100
AcDbLine
 62
7
  6
CONTINUOUS
 10
122.9343386904
 20
159.0141909263
 11
122.8616646317
 21
159.0146583712
  0
LINE
  5
740
100
AcDbEntity
  8
0
100
AcDbLine
 62
7
  6
CONTINUOUS
 10
155.7408573538
 20
159.8434167295
 11
155.8139383346
 21
159.8429486629
  0
LINE
  5
741
100
AcDbEntity
  8
0
100
AcDbLine
 62
7
  6
CONTINUOUS
 10
137.3916758277
 20
159.8932887376
 11
137.3201007007
 21
159.893775006
  0
LINE
  5
742
100
AcDbEntity
  8
0
100
AcDbLine
 62
7
  6
CONTINUOUS
 10
122.4095936874
 20
159.0781312057
 11
122.3501321736
 21
159.078544731
  0
LINE
  5
743
100
AcDbEntity
  8
0
100
AcDbLine
 62
7
  6
CONTINUOUS
 10
156.2765213708
 20
159.7792330681
 11
156.3360934946
 21
159.7788194741
  0
LINE
  5
744
100
AcDbEntity
  8
0
100
AcDbLine
 62
7
  6
CONTINUOUS
 10
156.249113022
 20
159.874156504
 11
156.1985764055
 21
159.8745280697
  0
LINE
  5
745
100
AcDbEntity
  8
0
100
AcDbLine
 62
7
  6
CONTINUOUS
 10
122.4303133089
 20
158.9826918067
 11
122.4789642029
 21
158.9822357786
  0
LINE
  5
746
100
AcDbEntity
  8
0
100
AcDbLine
 62
7
  6
CONTINUOUS
 10
122.8616646317
 20
159.0146583712
 11
122.8176924905
 21
159.0151505891
  0
LINE
  5
747
100
AcDbEntity
  8
0
100
AcDbLine
 62
7
  6
CONTINUOUS
 10
155.8139383346
 20
159.8429486629
 11
155.8581870032
 21
159.8424545845
  0
LINE
  5
748
100
AcDbEntity
  8
0
100
AcDbLine
 62
7
  6
CONTINUOUS
 10
137.4351146948
 20
159.892783785
 11
137.3916758277
 21
159.8932887376
  0
LINE
  5
749
100
AcDbEntity
  8
0
100
AcDbLine
 62
7
  6
CONTINUOUS
 10
122.4445265903
 20
159.0777216033
 11
122.4095936874
 21
159.0781312057
  0
LINE
  5
74A
100
AcDbEntity
  8
0
100
AcDbLine
 62
7
  6
CONTINUOUS
 10
156.2414965606
 20
159.7796428076
 11
156.2765213708
 21
159.7792330681
  0
LINE
  5
74B
100
AcDbEntity
  8
0
100
AcDbLine
 62
7
  6
CONTINUOUS
 10
156.2792038423
 20
159.8737759957
 11
156.249113022
 21
159.874156504
  0
LINE
  5
74C
100
AcDbEntity
  8
0
100
AcDbLine
 62
7
  6
CONTINUOUS
 10
122.4027556438
 20
158.9831141413
 11
122.4303133089
 21
158.9826918067
  0
LINE
  5
74D
100
AcDbEntity
  8
0
100
AcDbLine
 62
7
  6
CONTINUOUS
 10
122.8176924905
 20
159.0151505891
 11
122.7796180991
 21
159.0157577582
  0
LINE
  5
74E
100
AcDbEntity
  8
0
100
AcDbLine
 62
7
  6
CONTINUOUS
 10
155.8581870032
 20
159.8424545845
 11
155.8964860438
 21
159.8418453771
  0
LINE
  5
74F
100
AcDbEntity
  8
0
100
AcDbLine
 62
7
  6
CONTINUOUS
 10
122.4748375686
 20
159.0772194077
 11
122.4445265903
 21
159.0777216033
  0
LINE
  5
750
100
AcDbEntity
  8
0
100
AcDbLine
 62
7
  6
CONTINUOUS
 10
156.2110859827
 20
159.7801451875
 11
156.2414965606
 21
159.7796428076
  0
LINE
  5
751
100
AcDbEntity
  8
0
100
AcDbLine
 62
7
  6
CONTINUOUS
 10
137.472888985
 20
159.8921560296
 11
137.4351146948
 21
159.892783785
  0
LWPOLYLINE
  5
752
100
AcDbEntity
  8
0
100
AcDbPolyline
 62
7
  6
CONTINUOUS
 90
8
 70
0
 10
122.7796180991
 20
159.0157577582
 10
122.7482666099
 20
159.016467636
 10
122.7352470975
 20
159.0168594373
 10
122.7240304384
 20
159.017274047
 10
122.7149690187
 20
159.0176992732
 10
122.7081803006
 20
159.0181310519
 10
122.7035468219
 20
159.018573447
 10
122.7010685826
 20
159.0190264586
  0
LWPOLYLINE
  5
753
100
AcDbEntity
  8
0
100
AcDbPolyline
 62
7
  6
CONTINUOUS
 90
8
 70
0
 10
155.8964860438
 20
159.8418453771
 10
155.9280012602
 20
159.8411337604
 10
155.9410859661
 20
159.8407415293
 10
155.9523579483
 20
159.8403267138
 10
155.961475438
 20
159.8399014006
 10
155.9683245121
 20
159.8394696187
 10
155.9730190935
 20
159.8390273391
 10
155.9755591824
 20
159.8385745619
  0
LWPOLYLINE
  5
754
100
AcDbEntity
  8
0
100
AcDbPolyline
 62
253
  6
CONTINUOUS
 90
13
 70
0
 10
122.4892914599
 20
158.4258346436
 10
122.4668637337
 20
158.4266385106
 10
122.4451784821
 20
158.4273120882
 10
122.4245234214
 20
158.4278464397
 10
122.4051725997
 20
158.4282344753
 10
122.3873827605
 20
158.4284710465
 10
122.3713899364
 20
158.4285530147
 10
122.3574063178
 20
158.4284792923
 10
122.3456174369
 20
158.4282508574
 10
122.3361797068
 20
158.4278707409
 10
122.3292183457
 20
158.427343986
 10
122.3248257158
 20
158.4266775817
 10
122.3230600979
 20
158.4258803697
  0
LWPOLYLINE
  5
755
100
AcDbEntity
  8
0
100
AcDbPolyline
 62
253
  6
CONTINUOUS
 90
13
 70
0
 10
122.590215272
 20
160.5816852914
 10
122.5677752718
 20
160.5825087956
 10
122.5460747072
 20
160.5831631028
 10
122.5254017365
 20
160.5836395245
 10
122.5060308726
 20
160.5839317344
 10
122.4882193382
 20
160.5840358523
 10
122.4722036497
 20
160.5839504956
 10
122.4581964769
 20
160.5836767978
 10
122.4463838186
 20
160.5832183932
 10
122.4369225333
 20
160.582581369
 10
122.4299382558
 20
160.581774184
 10
122.4255237292
 20
160.5808075568
 10
122.4237375733
 20
160.5796943231
  0
LINE
  5
756
100
AcDbEntity
  8
0
100
AcDbLine
 62
253
  6
CONTINUOUS
 10
122.3319282224
 20
160.5842577775
 11
122.4237371425
 21
160.5796857015
  0
LINE
  5
757
100
AcDbEntity
  8
0
100
AcDbLine
 62
253
  6
CONTINUOUS
 10
120.5672894657
 20
162.2945811326
 11
121.9154003108
 21
162.2231868109
  0
LWPOLYLINE
  5
758
100
AcDbEntity
  8
0
100
AcDbPolyline
 62
7
  6
CONTINUOUS
 90
8
 70
0
 10
156.1478046247
 20
159.7828174919
 10
156.1497957808
 20
159.7824522066
 10
156.1535219178
 20
159.7820939989
 10
156.1589830356
 20
159.781742869
 10
156.1662717451
 20
159.7813951793
 10
156.1752954354
 20
159.7810545674
 10
156.1857762742
 20
159.7807319454
 10
156.2110859827
 20
159.7801451875
  0
LWPOLYLINE
  5
759
100
AcDbEntity
  8
0
100
AcDbPolyline
 62
7
  6
CONTINUOUS
 90
8
 70
0
 10
137.5478559058
 20
159.8888716589
 10
137.545778392
 20
159.8893245855
 10
137.5416055915
 20
159.8897664056
 10
137.5353375043
 20
159.8901971192
 10
137.5269340052
 20
159.8906190678
 10
137.5164352193
 20
159.8910299099
 10
137.5039615219
 20
159.891422621
 10
137.472888985
 20
159.8921560296
  0
LINE
  5
75A
100
AcDbEntity
  8
0
100
AcDbLine
 62
7
  6
CONTINUOUS
 10
140.9822699498
 20
162.0751914934
 11
141.1324297905
 21
162.037665829
  0
LINE
  5
75B
100
AcDbEntity
  8
0
100
AcDbLine
 62
7
  6
CONTINUOUS
 10
138.9683021738
 20
163.4786821076
 11
138.7570639792
 21
163.5314715456
  0
LWPOLYLINE
  5
75C
100
AcDbEntity
  8
0
100
AcDbPolyline
 62
7
  6
CONTINUOUS
 90
9
 70
0
 10
156.3469572006
 20
159.8712225618
 10
156.3457645927
 20
159.8715455077
 10
156.3429145605
 20
159.8718613046
 10
156.338407104
 20
159.8721699525
 10
156.3321441719
 20
159.8724749965
 10
156.3242238155
 20
159.8727728915
 10
156.3149401889
 20
159.8730530025
 10
156.3043315073
 20
159.8733128944
 10
156.2792038423
 20
159.8737759957
  0
LINE
  5
75D
100
AcDbEntity
  8
0
100
AcDbLine
 62
7
  6
CONTINUOUS
 10
156.1478046247
 20
159.7828174919
 11
155.9755591824
 21
159.8385745619
  0
LWPOLYLINE
  5
75E
100
AcDbEntity
  8
0
100
AcDbPolyline
 62
7
  6
CONTINUOUS
 90
5
 70
0
 10
138.7570639792
 20
163.5314715456
 10
138.7569458102
 20
163.5315201837
 10
138.756827698
 20
163.5316069556
 10
138.7567096426
 20
163.5317318614
 10
138.7565916304
 20
163.5318949232
  0
LINE
  5
75F
100
AcDbEntity
  8
0
100
AcDbLine
 62
253
  6
CONTINUOUS
 10
155.8683021738
 20
166.3621862428
 11
155.7837240243
 21
166.3505386547
  0
LWPOLYLINE
  5
760
100
AcDbEntity
  8
0
100
AcDbPolyline
 62
253
  6
CONTINUOUS
 90
13
 70
0
 10
155.6172592484
 20
166.343324151
 10
155.6395382183
 20
166.3459223594
 10
155.661101894
 20
166.3482253567
 10
155.6816644673
 20
166.3502026186
 10
155.7009533985
 20
166.3518279382
 10
155.7187130291
 20
166.3530797733
 10
155.7347079701
 20
166.3539415318
 10
155.7487262221
 20
166.3544017918
 10
155.7605819848
 20
166.354454453
 10
155.7701181202
 20
166.3540988174
 10
155.7772082348
 20
166.3533395986
 10
155.781758355
 20
166.3521868595
 10
155.7837081729
 20
166.3506558787
  0
LINE
  5
761
100
AcDbEntity
  8
0
100
AcDbLine
 62
253
  6
CONTINUOUS
 10
157.8426972945
 20
166.2832216958
 11
156.5009308198
 21
166.1343501833
  0
LWPOLYLINE
  5
762
100
AcDbEntity
  8
0
100
AcDbPolyline
 62
253
  6
CONTINUOUS
 90
19
 70
0
 10
141.4869102499
 20
162.6006365553
 10
141.4610859098
 20
162.6005169473
 10
141.4354206211
 20
162.6002354112
 10
141.4101047186
 20
162.599794035
 10
141.3853259461
 20
162.5991960918
 10
141.3612680638
 20
162.5984460161
 10
141.3381094861
 20
162.5975493704
 10
141.3160219579
 20
162.5965128044
 10
141.2951692811
 20
162.5953440051
 10
141.2757061002
 20
162.5940516406
 10
141.2577767548
 20
162.592645295
 10
141.2415142097
 20
162.5911353978
 10
141.2270390686
 20
162.5895331465
 10
141.2144586797
 20
162.5878504234
 10
141.2038663396
 20
162.5860997078
 10
141.1953406017
 20
162.5842939829
 10
141.1889446931
 20
162.58244664
 10
141.1847260461
 20
162.5805713793
 10
141.1827159464
 20
162.5786821076
  0
LINE
  5
763
100
AcDbEntity
  8
0
100
AcDbLine
 62
253
  6
CONTINUOUS
 10
140.9819011534
 20
162.5786821076
 11
141.1827162848
 21
162.5786856797
  0
LINE
  5
764
100
AcDbEntity
  8
0
100
AcDbLine
 62
253
  6
CONTINUOUS
 10
137.7547031943
 20
162.5786821076
 11
137.5538880482
 21
162.5786796604
  0
LINE
  5
765
100
AcDbEntity
  8
0
100
AcDbLine
 62
7
  6
CONTINUOUS
 10
137.855746764
 20
162.8786821076
 11
138.9683021738
 21
162.8786821076
  0
LINE
  5
766
100
AcDbEntity
  8
0
100
AcDbLine
 62
7
  6
CONTINUOUS
 10
139.7683021738
 20
162.8786821076
 11
140.880851162
 21
162.8786821076
  0
LINE
  5
767
100
AcDbEntity
  8
0
100
AcDbLine
 62
253
  6
CONTINUOUS
 10
140.8839823473
 20
163.2018506786
 11
140.2832828365
 21
163.2018506786
  0
LINE
  5
768
100
AcDbEntity
  8
0
100
AcDbLine
 62
253
  6
CONTINUOUS
 10
137.8526220004
 20
163.2018506786
 11
138.4533215112
 21
163.2018506786
  0
LINE
  5
769
100
AcDbEntity
  8
0
100
AcDbLine
 62
7
  6
CONTINUOUS
 10
139.7683021738
 20
163.4786821076
 11
138.9683021738
 21
163.4786821076
  0
LINE
  5
76A
100
AcDbEntity
  8
0
100
AcDbLine
 62
253
  6
CONTINUOUS
 10
138.7570639792
 20
163.5314715456
 11
139.9795403685
 21
163.5314715456
  0
LINE
  5
76B
100
AcDbEntity
  8
0
100
AcDbLine
 62
253
  6
CONTINUOUS
 10
138.4551412424
 20
163.8559357324
 11
140.2814631053
 21
163.8559357324
  0
LINE
  5
76C
100
AcDbEntity
  8
0
100
AcDbLine
 62
253
  6
CONTINUOUS
 10
120.8939070532
 20
166.2832216958
 11
122.2356735279
 21
166.1343501833
  0
LWPOLYLINE
  5
76D
100
AcDbEntity
  8
0
100
AcDbPolyline
 62
253
  6
CONTINUOUS
 90
13
 70
0
 10
123.1193450961
 20
166.343324153
 10
123.0970663157
 20
166.3459223202
 10
123.0755028468
 20
166.348225277
 10
123.0549404915
 20
166.3502025
 10
123.0356517831
 20
166.3518277831
 10
123.0178923739
 20
166.3530795849
 10
123.0018976469
 20
166.353941314
 10
122.9878795959
 20
166.3544015492
 10
122.9760240158
 20
166.3544541904
 10
122.96648804
 20
166.3540985402
 10
122.959398058
 20
166.3533393122
 10
122.9548480403
 20
166.3521865693
 10
122.9528982925
 20
166.3506555899
  0
LINE
  5
76E
100
AcDbEntity
  8
0
100
AcDbLine
 62
253
  6
CONTINUOUS
 10
122.8683021738
 20
166.3621862428
 11
122.9528785215
 21
166.3505253115
  0
LWPOLYLINE
  5
76F
100
AcDbEntity
  8
0
100
AcDbPolyline
 62
253
  6
CONTINUOUS
 90
22
 70
0
 10
152.4951635422
 20
172.0060349877
 10
152.7446482478
 20
171.8082527299
 10
152.9865441867
 20
171.6013780849
 10
153.2205218467
 20
171.385704333
 10
153.4462173217
 20
171.1615850149
 10
153.6633737785
 20
170.929291624
 10
153.8718235846
 20
170.6889964887
 10
154.0712935017
 20
170.4409905277
 10
154.2614686875
 20
170.185640382
 10
154.4421138257
 20
169.9232291745
 10
154.6129960468
 20
169.6540501243
 10
154.7738190959
 20
169.3785229833
 10
154.924277966
 20
169.097139305
 10
155.0640406869
 20
168.8105387106
 10
155.1930415371
 20
168.5188769393
 10
155.3113386264
 20
168.2219082416
 10
155.4187722859
 20
167.9197661483
 10
155.5150093126
 20
167.6130929698
 10
155.5998075774
 20
167.3023961039
 10
155.672968932
 20
166.9881313325
 10
155.7343276211
 20
166.6706984429
 10
155.7837240243
 20
166.3505386547
  0
LWPOLYLINE
  5
770
100
AcDbEntity
  8
0
100
AcDbPolyline
 62
253
  6
CONTINUOUS
 90
22
 70
0
 10
152.4071436543
 20
171.8651738731
 10
152.6512074711
 20
171.6712709222
 10
152.8872331062
 20
171.4691238617
 10
153.1152224827
 20
171.258728517
 10
153.3354256101
 20
171.0398132962
 10
153.5475933942
 20
170.8126410825
 10
153.7509768153
 20
170.5780097811
 10
153.9455751213
 20
170.3358639581
 10
154.1313820645
 20
170.0862510737
 10
154.3076374638
 20
169.8301244269
 10
154.4743244278
 20
169.5673960661
 10
154.6314453847
 20
169.2981471432
 10
154.7782665192
 20
169.023586041
 10
154.9146507306
 20
168.7439357387
 10
155.0407139511
 20
168.4589683747
 10
155.1560999688
 20
168.1692172881
 10
155.260883571
 20
167.8744111947
 10
155.3549632408
 20
167.574817309
 10
155.4377169941
 20
167.2717780488
 10
155.5089271365
 20
166.9657406754
 10
155.5687801297
 20
166.6562563129
 10
155.6172592482
 20
166.3433241509
  0
LWPOLYLINE
  5
771
100
AcDbEntity
  8
0
100
AcDbPolyline
 62
253
  6
CONTINUOUS
 90
7
 70
0
 10
151.6663461005
 20
42.1924360024
 10
151.5039166611
 20
42.0985914225
 10
151.3398794137
 20
42.0085469252
 10
151.1743273982
 20
41.9223189193
 10
151.0073533693
 20
41.8399215371
 10
150.8390497447
 20
41.7613666615
 10
150.6695085535
 20
41.6866639536
  0
LINE
  5
772
100
AcDbEntity
  8
0
100
AcDbLine
 62
7
  6
CONTINUOUS
 10
151.6673402795
 20
44.0761232243
 11
150.8879174161
 21
43.6261232243
  0
LINE
  5
773
100
AcDbEntity
  8
0
100
AcDbLine
 62
7
  6
CONTINUOUS
 10
149.8486869316
 20
43.0261232243
 11
149.0692640682
 21
42.5761232243
  0
LINE
  5
774
100
AcDbEntity
  8
0
100
AcDbLine
 62
253
  6
CONTINUOUS
 10
149.3778381332
 20
41.9957798136
 11
150.1920230073
 21
42.4658496699
  0
LINE
  5
775
100
AcDbEntity
  8
0
100
AcDbLine
 62
253
  6
CONTINUOUS
 10
151.2014605095
 20
43.0486486835
 11
152.0156453836
 21
43.5187185397
  0
LINE
  5
776
100
AcDbEntity
  8
0
100
AcDbLine
 62
253
  6
CONTINUOUS
 10
149.576366327
 20
41.6224025854
 11
150.4129161371
 21
42.1053848434
  0
LINE
  5
777
100
AcDbEntity
  8
0
100
AcDbLine
 62
253
  6
CONTINUOUS
 10
151.4031856415
 20
42.6771172084
 11
152.2397354515
 21
43.1600994664
  0
LWPOLYLINE
  5
778
100
AcDbEntity
  8
0
100
AcDbPolyline
 62
253
  6
CONTINUOUS
 90
7
 70
0
 10
151.5868993034
 20
42.3387587386
 10
151.4224889887
 20
42.2440126187
 10
151.2567853664
 20
42.1533235075
 10
151.0897860197
 20
42.066690379
 10
150.9214884028
 20
41.9841122461
 10
150.7518898447
 20
41.905588161
 10
150.5809875539
 20
41.8311172167
  0
LINE
  5
779
100
AcDbEntity
  8
0
100
AcDbLine
 62
7
  6
CONTINUOUS
 10
145.4638829353
 20
170.8651401513
 11
144.5721087921
 21
170.864527531
  0
LINE
  5
77A
100
AcDbEntity
  8
0
100
AcDbLine
 62
7
  6
CONTINUOUS
 10
141.0253571738
 20
170.5036821076
 11
142.4858581738
 21
170.5036821076
  0
LINE
  5
77B
100
AcDbEntity
  8
0
100
AcDbLine
 62
7
  6
CONTINUOUS
 10
145.4419072991
 20
170.8871157875
 11
144.5946970486
 21
170.8871157875
  0
LINE
  5
77C
100
AcDbEntity
  8
0
100
AcDbLine
 62
7
  6
CONTINUOUS
 10
134.1419072991
 20
170.8871157875
 11
133.2946970486
 21
170.8871157875
  0
LINE
  5
77D
100
AcDbEntity
  8
0
100
AcDbLine
 62
7
  6
CONTINUOUS
 10
142.4858581738
 20
171.2536821076
 11
141.0253540618
 21
171.2536821076
  0
LINE
  5
77E
100
AcDbEntity
  8
0
100
AcDbLine
 62
7
  6
CONTINUOUS
 10
134.1644955556
 20
170.864527531
 11
133.2727214124
 21
170.8651401513
  0
LINE
  5
77F
100
AcDbEntity
  8
0
100
AcDbLine
 62
7
  6
CONTINUOUS
 10
138.3986173916
 20
172.678680771
 11
138.5007481738
 21
172.6759021076
  0
LWPOLYLINE
  5
780
100
AcDbEntity
  8
0
100
AcDbPolyline
 62
253
  6
CONTINUOUS
 90
7
 70
0
 10
150.5809875535
 20
172.9262469987
 10
150.753979771
 20
172.8507219886
 10
150.9248327222
 20
172.7715653344
 10
151.0935488643
 20
172.6887762197
 10
151.2601305425
 20
172.6023537963
 10
151.4245799862
 20
172.512297185
 10
151.5868993038
 20
172.4186054764
  0
LWPOLYLINE
  5
781
100
AcDbEntity
  8
0
100
AcDbPolyline
 62
253
  6
CONTINUOUS
 90
7
 70
0
 10
150.6695085273
 20
173.0707002728
 10
150.8402384546
 20
172.9954581966
 10
151.0092361392
 20
172.9165385842
 10
151.1764229141
 20
172.8339823633
 10
151.3417210978
 20
172.7478321302
 10
151.5050540295
 20
172.6581321259
 10
151.6663461034
 20
172.5649282111
  0
LINE
  5
782
100
AcDbEntity
  8
0
100
AcDbLine
 62
7
  6
CONTINUOUS
 10
151.6673402795
 20
170.6812409908
 11
150.8879174161
 21
171.1312409908
  0
LINE
  5
783
100
AcDbEntity
  8
0
100
AcDbLine
 62
7
  6
CONTINUOUS
 10
149.8486869316
 20
171.7312409908
 11
149.0692640682
 21
172.1812409908
  0
LINE
  5
784
100
AcDbEntity
  8
0
100
AcDbLine
 62
253
  6
CONTINUOUS
 10
152.0156453836
 20
171.2386456755
 11
151.2014605095
 21
171.7087155317
  0
LINE
  5
785
100
AcDbEntity
  8
0
100
AcDbLine
 62
253
  6
CONTINUOUS
 10
150.1920230073
 20
172.2915145453
 11
149.3778381332
 21
172.7615844015
  0
LINE
  5
786
100
AcDbEntity
  8
0
100
AcDbLine
 62
253
  6
CONTINUOUS
 10
152.2397354515
 20
171.5972647488
 11
151.4031856415
 21
172.0802470068
  0
LINE
  5
787
100
AcDbEntity
  8
0
100
AcDbLine
 62
253
  6
CONTINUOUS
 10
150.4129161371
 20
172.6519793718
 11
149.576366327
 21
173.1349616298
  0
LWPOLYLINE
  5
788
100
AcDbEntity
  8
0
100
AcDbPolyline
 62
253
  6
CONTINUOUS
 90
7
 70
0
 10
149.7232391396
 20
41.3461750879
 10
149.6023834215
 20
41.311523687
 10
149.4783196503
 20
41.2779402739
 10
149.3510430169
 20
41.2455542721
 10
149.2205518818
 20
41.214498306
 10
149.086847997
 20
41.1849081518
 10
148.9499367331
 20
41.1569226805
  0
LWPOLYLINE
  5
789
100
AcDbEntity
  8
0
100
AcDbPolyline
 62
253
  6
CONTINUOUS
 90
7
 70
0
 10
129.0940002046
 20
173.2595368434
 10
129.2066532207
 20
173.2914797712
 10
129.3221125985
 20
173.3222387296
 10
129.4403788262
 20
173.3518138261
 10
129.5614524166
 20
173.3802051644
 10
129.6853339062
 20
173.4074128446
 10
129.8120238549
 20
173.4334369623
  0
LWPOLYLINE
  5
78A
100
AcDbEntity
  8
0
100
AcDbPolyline
 62
253
  6
CONTINUOUS
 90
10
 70
0
 10
129.8120238549
 20
173.4334369623
 10
130.1533190055
 20
173.4986982574
 10
130.4951468147
 20
173.5608723298
 10
130.837508307
 20
173.6199597487
 10
131.1804613981
 20
173.675969429
 10
131.5239503453
 20
173.7288935163
 10
131.8678057279
 20
173.778707391
 10
132.2119718534
 20
173.8254031513
 10
132.5565067714
 20
173.8689896083
 10
132.9014117119
 20
173.9094671747
  0
LWPOLYLINE
  5
78B
100
AcDbEntity
  8
0
100
AcDbPolyline
 62
253
  6
CONTINUOUS
 90
10
 70
0
 10
129.7866680951
 20
173.6004416276
 10
130.1292019539
 20
173.665942133
 10
130.4723305156
 20
173.7283559232
 10
130.8160260494
 20
173.7876774248
 10
131.1602821948
 20
173.8439046983
 10
131.505049751
 20
173.8970288952
 10
131.8502363836
 20
173.9470361954
 10
132.1957924125
 20
173.9939209656
 10
132.5417111109
 20
174.0376838224
 10
132.8879642872
 20
174.0783224452
  0
LINE
  5
78C
100
AcDbEntity
  8
0
100
AcDbLine
 62
253
  6
CONTINUOUS
 10
132.9014117119
 20
173.9094671747
 11
133.154231187
 21
173.9374205731
  0
LINE
  5
78D
100
AcDbEntity
  8
0
100
AcDbLine
 62
253
  6
CONTINUOUS
 10
132.8879642866
 20
174.0783224505
 11
133.1519413111
 21
174.1074858195
  0
LINE
  5
78E
100
AcDbEntity
  8
0
100
AcDbLine
 62
253
  6
CONTINUOUS
 10
133.154231187
 20
173.9374205731
 11
133.2802942885
 21
173.9509381565
  0
LINE
  5
78F
100
AcDbEntity
  8
0
100
AcDbLine
 62
253
  6
CONTINUOUS
 10
133.1519413111
 20
174.1074858195
 11
133.2836745367
 21
174.1215804157
  0
LWPOLYLINE
  5
790
100
AcDbEntity
  8
0
100
AcDbPolyline
 62
253
  6
CONTINUOUS
 90
10
 70
0
 10
134.1566842353
 20
174.0371773654
 10
135.2011333421
 20
174.1245095761
 10
136.2691012915
 20
174.1914833112
 10
137.3606051047
 20
174.2381028072
 10
138.4691620787
 20
174.2663439015
 10
139.6012719086
 20
174.2742353634
 10
140.7764405693
 20
174.2558590287
 10
142.0011872204
 20
174.2092403962
 10
143.2690172882
 20
174.1363484939
 10
144.5799201169
 20
174.0371773651
  0
LWPOLYLINE
  5
791
100
AcDbEntity
  8
0
100
AcDbPolyline
 62
253
  6
CONTINUOUS
 90
10
 70
0
 10
134.1532989628
 20
174.206976466
 10
135.1978593531
 20
174.2920391717
 10
136.2666428332
 20
174.3593968247
 10
137.3593644892
 20
174.4077516188
 10
138.4687357798
 20
174.4356660929
 10
139.6013294463
 20
174.4421896543
 10
140.7775864463
 20
174.4254870745
 10
142.003933944
 20
174.3825730612
 10
143.2727655913
 20
174.3106892506
 10
144.5833054059
 20
174.2069764641
  0
LINE
  5
792
100
AcDbEntity
  8
0
100
AcDbLine
 62
253
  6
CONTINUOUS
 10
133.3057349168
 20
173.4423502659
 11
134.1308694309
 21
173.4423502659
  0
LINE
  5
793
100
AcDbEntity
  8
0
100
AcDbLine
 62
253
  6
CONTINUOUS
 10
144.6057349168
 20
173.4423502659
 11
145.4308694309
 21
173.4423502659
  0
LINE
  5
794
100
AcDbEntity
  8
0
100
AcDbLine
 62
253
  6
CONTINUOUS
 10
133.3104744213
 20
173.655332239
 11
134.1261299263
 21
173.655332239
  0
LINE
  5
795
100
AcDbEntity
  8
0
100
AcDbLine
 62
253
  6
CONTINUOUS
 10
144.6104744213
 20
173.655332239
 11
145.4261299263
 21
173.655332239
  0
LINE
  5
796
100
AcDbEntity
  8
0
100
AcDbLine
 62
253
  6
CONTINUOUS
 10
133.3641667895
 20
173.8165403348
 11
134.0724375582
 21
173.8165403348
  0
LINE
  5
797
100
AcDbEntity
  8
0
100
AcDbLine
 62
253
  6
CONTINUOUS
 10
144.6641667895
 20
173.8165403348
 11
145.3724375582
 21
173.8165403348
  0
LINE
  5
798
100
AcDbEntity
  8
0
100
AcDbLine
 62
253
  6
CONTINUOUS
 10
133.3683021738
 20
174.0661977185
 11
134.0683021738
 21
174.0661977185
  0
LINE
  5
799
100
AcDbEntity
  8
0
100
AcDbLine
 62
253
  6
CONTINUOUS
 10
144.6683021738
 20
174.0661977185
 11
145.3683021738
 21
174.0661977185
  0
LINE
  5
79A
100
AcDbEntity
  8
0
100
AcDbLine
 62
253
  6
CONTINUOUS
 10
145.452929819
 20
174.1215804148
 11
145.7163583269
 21
174.0930899655
  0
LINE
  5
79B
100
AcDbEntity
  8
0
100
AcDbLine
 62
253
  6
CONTINUOUS
 10
145.4563100598
 20
173.9509381565
 11
145.7084828411
 21
173.9236170635
  0
LINE
  5
79C
100
AcDbEntity
  8
0
100
AcDbLine
 62
253
  6
CONTINUOUS
 10
145.7084828411
 20
173.9236170635
 11
145.8351926358
 21
173.9094671747
  0
LINE
  5
79D
100
AcDbEntity
  8
0
100
AcDbLine
 62
253
  6
CONTINUOUS
 10
145.7163583269
 20
174.0930899655
 11
145.8486293671
 21
174.0783236569
  0
LWPOLYLINE
  5
79E
100
AcDbEntity
  8
0
100
AcDbPolyline
 62
253
  6
CONTINUOUS
 90
10
 70
0
 10
145.8351926358
 20
173.9094671747
 10
146.1800975763
 20
173.8689896083
 10
146.5246324943
 20
173.8254031513
 10
146.8687986198
 20
173.778707391
 10
147.2126540023
 20
173.7288935163
 10
147.5561429495
 20
173.675969429
 10
147.8990960407
 20
173.6199597487
 10
148.241457533
 20
173.5608723298
 10
148.5832853421
 20
173.4986982574
 10
148.9245804928
 20
173.4334369623
  0
LWPOLYLINE
  5
79F
100
AcDbEntity
  8
0
100
AcDbPolyline
 62
253
  6
CONTINUOUS
 90
10
 70
0
 10
145.8486293664
 20
174.0783236512
 10
146.1948873019
 20
174.0376845461
 10
146.5408095639
 20
173.9939212765
 10
146.8863679641
 20
173.9470361954
 10
147.2315550942
 20
173.8970288207
 10
147.5763219656
 20
173.843904728
 10
147.9205782982
 20
173.7876774248
 10
148.2642755697
 20
173.7283556152
 10
148.6074067308
 20
173.6659413239
 10
148.9499440457
 20
173.6004401007
  0
LWPOLYLINE
  5
7A0
100
AcDbEntity
  8
0
100
AcDbPolyline
 62
253
  6
CONTINUOUS
 90
7
 70
0
 10
148.9499440459
 20
173.6004401017
 10
149.0833271416
 20
173.5732051806
 10
149.2149333302
 20
173.5441547965
 10
149.344743688
 20
173.5133589158
 10
149.4727412171
 20
173.480886933
 10
149.5989107923
 20
173.4468076297
 10
149.7232391073
 20
173.4111891368
  0
LWPOLYLINE
  5
7A1
100
AcDbEntity
  8
0
100
AcDbPolyline
 62
253
  6
CONTINUOUS
 90
7
 70
0
 10
148.9245804928
 20
173.4334369623
 10
149.0481567666
 20
173.408170796
 10
149.1701700653
 20
173.3814179195
 10
149.2906209333
 20
173.3531782142
 10
149.4095098982
 20
173.323451555
 10
149.5268374705
 20
173.2922378106
 10
149.6426041431
 20
173.2595368434
  0
ARC
  5
7A2
100
AcDbEntity
  8
DRAFT
100
AcDbCircle
 62
7
  6
CONTINUOUS
 10
-340.6316978262
 20
78.8786821076
 40
500.0
100
AcDbArc
 50
356.968516687
 51
360.0
  0
ARC
  5
7A3
100
AcDbEntity
  8
0
100
AcDbCircle
 62
7
  6
CONTINUOUS
 10
-340.6316978262
 20
78.8786821076
 40
499.5
100
AcDbArc
 50
356.968516687
 51
360.0
  0
ARC
  5
7A4
100
AcDbEntity
  8
0
100
AcDbCircle
 62
7
  6
CONTINUOUS
 10
-340.6316978262
 20
78.8786821076
 40
498.15
100
AcDbArc
 50
356.968516687
 51
360.0
  0
ARC
  5
7A5
100
AcDbEntity
  8
0
100
AcDbCircle
 62
7
  6
CONTINUOUS
 10
-340.6316978262
 20
78.8786821076
 40
497.65
100
AcDbArc
 50
357.1544111189
 51
357.2472700112
  0
ARC
  5
7A6
100
AcDbEntity
  8
0
100
AcDbCircle
 62
7
  6
CONTINUOUS
 10
-340.6316978262
 20
78.8786821076
 40
497.65
100
AcDbArc
 50
357.3279532879
 51
360.0
  0
ARC
  5
7A7
100
AcDbEntity
  8
0
100
AcDbCircle
 62
253
  6
CONTINUOUS
 10
86.1683021738
 20
60.3786821076
 40
70.4375156109
100
AcDbArc
 50
355.6031798933
 51
356.1740502762
  0
ARC
  5
7A8
100
AcDbEntity
  8
0
100
AcDbCircle
 62
253
  6
CONTINUOUS
 10
86.1683021738
 20
60.3786821076
 40
70.1878582272
100
AcDbArc
 50
355.5841236772
 51
356.1604210464
  0
ARC
  5
7A9
100
AcDbEntity
  8
DRAFT
100
AcDbCircle
 62
7
  6
CONTINUOUS
 10
88.7665713721
 20
56.1382685325
 40
70.0
100
AcDbArc
 50
353.66882044
 51
356.968516687
  0
ARC
  5
7AA
100
AcDbEntity
  8
0
100
AcDbCircle
 62
7
  6
CONTINUOUS
 10
88.7665713721
 20
56.1382685325
 40
69.5
100
AcDbArc
 50
353.66882044
 51
356.968516687
  0
ARC
  5
7AB
100
AcDbEntity
  8
0
100
AcDbCircle
 62
7
  6
CONTINUOUS
 10
88.7665713721
 20
56.1382685325
 40
68.15
100
AcDbArc
 50
353.66882044
 51
356.968516687
  0
ARC
  5
7AC
100
AcDbEntity
  8
0
100
AcDbCircle
 62
7
  6
CONTINUOUS
 10
88.8380917833
 20
57.5315555365
 40
67.65
100
AcDbArc
 50
352.23827937
 51
357.1544111189
  0
ARC
  5
7AD
100
AcDbEntity
  8
DRAFT
100
AcDbCircle
 62
7
  6
CONTINUOUS
 10
137.6735828258
 20
78.9945743359
 40
41.04
100
AcDbArc
 50
257.8087471083
 51
264.8718338568
  0
ARC
  5
7AE
100
AcDbEntity
  8
0
100
AcDbCircle
 62
7
  6
CONTINUOUS
 10
137.6735828258
 20
78.9945743359
 40
40.54
100
AcDbArc
 50
257.8087471083
 51
264.8718338568
  0
ARC
  5
7AF
100
AcDbEntity
  8
0
100
AcDbCircle
 62
7
  6
CONTINUOUS
 10
137.6735828258
 20
78.9945743359
 40
39.19
100
AcDbArc
 50
257.8087471083
 51
264.8718338568
  0
ARC
  5
7B0
100
AcDbEntity
  8
0
100
AcDbCircle
 62
7
  6
CONTINUOUS
 10
137.2349890776
 20
79.0491447996
 40
38.7
100
AcDbArc
 50
258.879304842
 51
263.5361743058
  0
ARC
  5
7B1
100
AcDbEntity
  8
DRAFT
100
AcDbCircle
 62
7
  6
CONTINUOUS
 10
131.3298685235
 20
49.6320320609
 40
11.0
100
AcDbArc
 50
186.33117956
 51
257.8087471083
  0
ARC
  5
7B2
100
AcDbEntity
  8
0
100
AcDbCircle
 62
7
  6
CONTINUOUS
 10
131.3298685235
 20
49.6320320609
 40
10.5
100
AcDbArc
 50
186.33117956
 51
257.8087471083
  0
ARC
  5
7B3
100
AcDbEntity
  8
0
100
AcDbCircle
 62
7
  6
CONTINUOUS
 10
131.3298685235
 20
49.6320320609
 40
9.15
100
AcDbArc
 50
186.33117956
 51
257.8087471083
  0
ARC
  5
7B4
100
AcDbEntity
  8
0
100
AcDbCircle
 62
7
  6
CONTINUOUS
 10
131.4390533916
 20
49.5633918073
 40
8.65
100
AcDbArc
 50
187.76172063
 51
232.7068078228
  0
ARC
  5
7B5
100
AcDbEntity
  8
0
100
AcDbCircle
 62
7
  6
CONTINUOUS
 10
131.4390533916
 20
49.5633918073
 40
8.65
100
AcDbArc
 50
239.3649515266
 51
246.7453234182
  0
ARC
  5
7B6
100
AcDbEntity
  8
0
100
AcDbCircle
 62
7
  6
CONTINUOUS
 10
131.4390533916
 20
49.5633918073
 40
8.65
100
AcDbArc
 50
253.4422896142
 51
258.879304842
  0
ARC
  5
7B7
100
AcDbEntity
  8
0
100
AcDbCircle
 62
7
  6
CONTINUOUS
 10
128.9183021738
 20
100.5786821076
 40
0.8
100
AcDbArc
 50
90.0
 51
180.0
  0
ARC
  5
7B8
100
AcDbEntity
  8
0
100
AcDbCircle
 62
7
  6
CONTINUOUS
 10
128.9183021738
 20
57.1786821076
 40
0.8
100
AcDbArc
 50
180.0
 51
270.0
  0
ARC
  5
7B9
100
AcDbEntity
  8
DRAFT
100
AcDbCircle
 62
7
  6
CONTINUOUS
 10
-340.6316978262
 20
135.8786821076
 40
500.0
100
AcDbArc
 50
0.0
 51
3.031483313
  0
ARC
  5
7BA
100
AcDbEntity
  8
0
100
AcDbCircle
 62
7
  6
CONTINUOUS
 10
-340.6316978262
 20
135.8786821076
 40
499.5
100
AcDbArc
 50
0.0
 51
3.031483313
  0
ARC
  5
7BB
100
AcDbEntity
  8
0
100
AcDbCircle
 62
7
  6
CONTINUOUS
 10
-340.6316978262
 20
135.8786821076
 40
498.15
100
AcDbArc
 50
0.0
 51
3.031483313
  0
ARC
  5
7BC
100
AcDbEntity
  8
0
100
AcDbCircle
 62
7
  6
CONTINUOUS
 10
-340.6316978262
 20
135.8786821076
 40
497.65
100
AcDbArc
 50
0.0
 51
2.6720467121
  0
ARC
  5
7BD
100
AcDbEntity
  8
0
100
AcDbCircle
 62
7
  6
CONTINUOUS
 10
-340.6316978262
 20
135.8786821076
 40
497.65
100
AcDbArc
 50
2.7527299888
 51
2.8455888811
  0
ARC
  5
7BE
100
AcDbEntity
  8
0
100
AcDbCircle
 62
253
  6
CONTINUOUS
 10
86.1683021738
 20
154.3786821076
 40
70.4375156109
100
AcDbArc
 50
3.8259497238
 51
4.3968201067
  0
ARC
  5
7BF
100
AcDbEntity
  8
0
100
AcDbCircle
 62
253
  6
CONTINUOUS
 10
86.1683021738
 20
154.3786821076
 40
70.1878582272
100
AcDbArc
 50
3.8361955676
 51
4.4158763228
  0
ARC
  5
7C0
100
AcDbEntity
  8
DRAFT
100
AcDbCircle
 62
7
  6
CONTINUOUS
 10
88.7665713721
 20
158.6190956827
 40
70.0
100
AcDbArc
 50
3.031483313
 51
6.33117956
  0
ARC
  5
7C1
100
AcDbEntity
  8
0
100
AcDbCircle
 62
7
  6
CONTINUOUS
 10
88.7665713721
 20
158.6190956827
 40
69.5
100
AcDbArc
 50
3.031483313
 51
6.33117956
  0
ARC
  5
7C2
100
AcDbEntity
  8
0
100
AcDbCircle
 62
7
  6
CONTINUOUS
 10
88.7665713721
 20
158.6190956827
 40
68.15
100
AcDbArc
 50
3.031483313
 51
6.33117956
  0
ARC
  5
7C3
100
AcDbEntity
  8
0
100
AcDbCircle
 62
7
  6
CONTINUOUS
 10
88.8380917833
 20
157.2258086786
 40
67.65
100
AcDbArc
 50
2.8455888811
 51
7.76172063
  0
ARC
  5
7C4
100
AcDbEntity
  8
DRAFT
100
AcDbCircle
 62
7
  6
CONTINUOUS
 10
137.6735828258
 20
135.7627898792
 40
41.04
100
AcDbArc
 50
95.1281661432
 51
102.1912528917
  0
ARC
  5
7C5
100
AcDbEntity
  8
0
100
AcDbCircle
 62
7
  6
CONTINUOUS
 10
137.6735828258
 20
135.7627898792
 40
40.54
100
AcDbArc
 50
95.1281661432
 51
102.1912528917
  0
ARC
  5
7C6
100
AcDbEntity
  8
0
100
AcDbCircle
 62
7
  6
CONTINUOUS
 10
137.6735828258
 20
135.7627898792
 40
39.19
100
AcDbArc
 50
95.1281661432
 51
102.1912528917
  0
ARC
  5
7C7
100
AcDbEntity
  8
0
100
AcDbCircle
 62
7
  6
CONTINUOUS
 10
137.2349890776
 20
135.7082194156
 40
38.7
100
AcDbArc
 50
96.4638256942
 51
101.120695158
  0
ARC
  5
7C8
100
AcDbEntity
  8
DRAFT
100
AcDbCircle
 62
7
  6
CONTINUOUS
 10
131.3298685235
 20
165.1253321542
 40
11.0
100
AcDbArc
 50
102.1912528917
 51
173.66882044
  0
ARC
  5
7C9
100
AcDbEntity
  8
0
100
AcDbCircle
 62
7
  6
CONTINUOUS
 10
131.3298685235
 20
165.1253321542
 40
10.5
100
AcDbArc
 50
102.1912528917
 51
173.66882044
  0
ARC
  5
7CA
100
AcDbEntity
  8
0
100
AcDbCircle
 62
7
  6
CONTINUOUS
 10
131.3298685235
 20
165.1253321542
 40
9.15
100
AcDbArc
 50
102.1912528917
 51
173.66882044
  0
ARC
  5
7CB
100
AcDbEntity
  8
0
100
AcDbCircle
 62
7
  6
CONTINUOUS
 10
131.4390533916
 20
165.1939724079
 40
8.65
100
AcDbArc
 50
127.2931921772
 51
172.23827937
  0
ARC
  5
7CC
100
AcDbEntity
  8
0
100
AcDbCircle
 62
7
  6
CONTINUOUS
 10
131.4390533916
 20
165.1939724079
 40
8.65
100
AcDbArc
 50
101.120695158
 51
106.5577103858
  0
ARC
  5
7CD
100
AcDbEntity
  8
0
100
AcDbCircle
 62
7
  6
CONTINUOUS
 10
131.4390533916
 20
165.1939724079
 40
8.65
100
AcDbArc
 50
113.2546765818
 51
120.6350484734
  0
ARC
  5
7CE
100
AcDbEntity
  8
0
100
AcDbCircle
 62
7
  6
CONTINUOUS
 10
138.4007481738
 20
170.8786821076
 40
2.5499985399
100
AcDbArc
 50
87.7525290943
 51
272.2474709057
  0
ARC
  5
7CF
100
AcDbEntity
  8
0
100
AcDbCircle
 62
7
  6
CONTINUOUS
 10
138.4007481738
 20
170.8786821076
 40
1.7999999246
100
AcDbArc
 50
90.0678249228
 51
273.1847386703
  0
ARC
  5
7D0
100
AcDbEntity
  8
0
100
AcDbCircle
 62
7
  6
CONTINUOUS
 10
124.3683021738
 20
152.8786821076
 40
1.6991856757
100
AcDbArc
 50
22.0885495278
 51
3.4298066134
  0
ARC
  5
7D1
100
AcDbEntity
  8
0
100
AcDbCircle
 62
7
  6
CONTINUOUS
 10
127.5714861738
 20
152.8272891076
 40
1.5147933085
100
AcDbArc
 50
137.231290534
 51
174.2011966588
  0
ARC
  5
7D2
100
AcDbEntity
  8
0
100
AcDbCircle
 62
7
  6
CONTINUOUS
 10
127.3261231738
 20
152.9465021076
 40
1.49661481
100
AcDbArc
 50
135.4348660075
 51
157.5658480123
  0
CIRCLE
  5
7D3
100
AcDbEntity
  8
0
100
AcDbCircle
 62
7
  6
CONTINUOUS
 10
124.3683021738
 20
152.8786821076
 40
1.427197
  0
ARC
  5
7D4
100
AcDbEntity
  8
0
100
AcDbCircle
 62
7
  6
CONTINUOUS
 10
124.3683021738
 20
152.8786821076
 40
1.2764286685
100
AcDbArc
 50
224.9002719139
 51
330.6958668615
  0
ARC
  5
7D5
100
AcDbEntity
  8
0
100
AcDbCircle
 62
7
  6
CONTINUOUS
 10
124.3683021738
 20
152.8786821076
 40
1.2764284894
100
AcDbArc
 50
29.3041331385
 51
134.9957799582
  0
ARC
  5
7D6
100
AcDbEntity
  8
0
100
AcDbCircle
 62
7
  6
CONTINUOUS
 10
124.3683021738
 20
152.8786821076
 40
1.0226497574
100
AcDbArc
 50
238.0267399114
 51
330.6958666074
  0
ARC
  5
7D7
100
AcDbEntity
  8
0
100
AcDbCircle
 62
7
  6
CONTINUOUS
 10
124.3683021738
 20
152.8786821076
 40
1.0226493867
100
AcDbArc
 50
29.3041333926
 51
121.973257115
  0
ARC
  5
7D8
100
AcDbEntity
  8
0
100
AcDbCircle
 62
7
  6
CONTINUOUS
 10
128.9183021738
 20
157.5786821076
 40
0.8
100
AcDbArc
 50
90.0
 51
180.0
  0
ARC
  5
7D9
100
AcDbEntity
  8
0
100
AcDbCircle
 62
7
  6
CONTINUOUS
 10
128.9183021738
 20
114.1786821076
 40
0.8
100
AcDbArc
 50
180.0
 51
270.0
  0
ARC
  5
7DA
100
AcDbEntity
  8
DRAFT
100
AcDbCircle
 62
7
  6
CONTINUOUS
 10
619.3683021738
 20
78.8786821076
 40
500.0
100
AcDbArc
 50
180.0
 51
183.031483313
  0
ARC
  5
7DB
100
AcDbEntity
  8
0
100
AcDbCircle
 62
7
  6
CONTINUOUS
 10
619.3683021738
 20
78.8786821076
 40
499.5
100
AcDbArc
 50
180.0
 51
183.031483313
  0
ARC
  5
7DC
100
AcDbEntity
  8
0
100
AcDbCircle
 62
7
  6
CONTINUOUS
 10
619.3683021738
 20
78.8786821076
 40
498.15
100
AcDbArc
 50
180.0
 51
183.031483313
  0
ARC
  5
7DD
100
AcDbEntity
  8
0
100
AcDbCircle
 62
7
  6
CONTINUOUS
 10
619.3683021738
 20
78.8786821076
 40
497.65
100
AcDbArc
 50
180.0
 51
182.6720467121
  0
ARC
  5
7DE
100
AcDbEntity
  8
0
100
AcDbCircle
 62
7
  6
CONTINUOUS
 10
619.3683021738
 20
78.8786821076
 40
497.65
100
AcDbArc
 50
182.7527299888
 51
182.8455888811
  0
ARC
  5
7DF
100
AcDbEntity
  8
0
100
AcDbCircle
 62
253
  6
CONTINUOUS
 10
192.5683021738
 20
60.3786821076
 40
70.4375156109
100
AcDbArc
 50
183.8259497238
 51
184.3968201067
  0
ARC
  5
7E0
100
AcDbEntity
  8
0
100
AcDbCircle
 62
253
  6
CONTINUOUS
 10
192.5683021738
 20
60.3786821076
 40
70.1878582272
100
AcDbArc
 50
183.8361955676
 51
184.4158763228
  0
ARC
  5
7E1
100
AcDbEntity
  8
DRAFT
100
AcDbCircle
 62
7
  6
CONTINUOUS
 10
189.9700329756
 20
56.1382685325
 40
70.0
100
AcDbArc
 50
183.031483313
 51
186.33117956
  0
ARC
  5
7E2
100
AcDbEntity
  8
0
100
AcDbCircle
 62
7
  6
CONTINUOUS
 10
189.9700329756
 20
56.1382685325
 40
69.5
100
AcDbArc
 50
183.031483313
 51
186.33117956
  0
ARC
  5
7E3
100
AcDbEntity
  8
0
100
AcDbCircle
 62
7
  6
CONTINUOUS
 10
189.9700329756
 20
56.1382685325
 40
68.15
100
AcDbArc
 50
183.031483313
 51
186.33117956
  0
ARC
  5
7E4
100
AcDbEntity
  8
0
100
AcDbCircle
 62
7
  6
CONTINUOUS
 10
189.8985125644
 20
57.5315555365
 40
67.65
100
AcDbArc
 50
182.8455888811
 51
187.76172063
  0
ARC
  5
7E5
100
AcDbEntity
  8
DRAFT
100
AcDbCircle
 62
7
  6
CONTINUOUS
 10
139.3683021738
 20
97.8786821076
 40
60.0
100
AcDbArc
 50
264.8718338568
 51
275.1281661432
  0
ARC
  5
7E6
100
AcDbEntity
  8
0
100
AcDbCircle
 62
7
  6
CONTINUOUS
 10
139.3683021738
 20
97.8786821076
 40
59.5
100
AcDbArc
 50
264.8718338568
 51
275.1281661432
  0
ARC
  5
7E7
100
AcDbEntity
  8
0
100
AcDbCircle
 62
7
  6
CONTINUOUS
 10
139.3683021738
 20
97.8786821076
 40
59.3764753303
100
AcDbArc
 50
266.6206895957
 51
273.3793104043
  0
ARC
  5
7E8
100
AcDbEntity
  8
0
100
AcDbCircle
 62
7
  6
CONTINUOUS
 10
139.3683021738
 20
97.8786821076
 40
58.15
100
AcDbArc
 50
264.8718338568
 51
266.376593173
  0
ARC
  5
7E9
100
AcDbEntity
  8
0
100
AcDbCircle
 62
7
  6
CONTINUOUS
 10
139.3683021738
 20
97.8786821076
 40
58.15
100
AcDbArc
 50
273.623406827
 51
275.1281661432
  0
ARC
  5
7EA
100
AcDbEntity
  8
0
100
AcDbCircle
 62
7
  6
CONTINUOUS
 10
139.3683021738
 20
97.8786821076
 40
57.65
100
AcDbArc
 50
263.5361743058
 51
264.0260478246
  0
ARC
  5
7EB
100
AcDbEntity
  8
0
100
AcDbCircle
 62
7
  6
CONTINUOUS
 10
139.3683021738
 20
97.8786821076
 40
57.65
100
AcDbArc
 50
264.7251166216
 51
266.3451247579
  0
ARC
  5
7EC
100
AcDbEntity
  8
0
100
AcDbCircle
 62
7
  6
CONTINUOUS
 10
139.3683021738
 20
97.8786821076
 40
57.65
100
AcDbArc
 50
273.6548752421
 51
275.2748833784
  0
ARC
  5
7ED
100
AcDbEntity
  8
0
100
AcDbCircle
 62
7
  6
CONTINUOUS
 10
139.3683021738
 20
97.8786821076
 40
57.65
100
AcDbArc
 50
275.9739521754
 51
276.4638256942
  0
ARC
  5
7EE
100
AcDbEntity
  8
0
100
AcDbCircle
 62
7
  6
CONTINUOUS
 10
139.3683021738
 20
97.8786821076
 40
57.6150898701
100
AcDbArc
 50
266.5172531404
 51
273.4827468596
  0
ARC
  5
7EF
100
AcDbEntity
  8
DRAFT
100
AcDbCircle
 62
7
  6
CONTINUOUS
 10
141.0630215219
 20
78.9945743359
 40
41.04
100
AcDbArc
 50
275.1281661432
 51
282.1912528917
  0
ARC
  5
7F0
100
AcDbEntity
  8
0
100
AcDbCircle
 62
7
  6
CONTINUOUS
 10
141.0630215219
 20
78.9945743359
 40
40.54
100
AcDbArc
 50
275.1281661432
 51
282.1912528917
  0
ARC
  5
7F1
100
AcDbEntity
  8
0
100
AcDbCircle
 62
7
  6
CONTINUOUS
 10
141.0630215219
 20
78.9945743359
 40
39.19
100
AcDbArc
 50
275.1281661432
 51
282.1912528917
  0
ARC
  5
7F2
100
AcDbEntity
  8
0
100
AcDbCircle
 62
7
  6
CONTINUOUS
 10
141.5016152701
 20
79.0491447996
 40
38.7
100
AcDbArc
 50
276.4638256942
 51
281.120695158
  0
ARC
  5
7F3
100
AcDbEntity
  8
DRAFT
100
AcDbCircle
 62
7
  6
CONTINUOUS
 10
147.4067358242
 20
49.6320320609
 40
11.0
100
AcDbArc
 50
282.1912528917
 51
353.66882044
  0
ARC
  5
7F4
100
AcDbEntity
  8
0
100
AcDbCircle
 62
7
  6
CONTINUOUS
 10
147.4067358242
 20
49.6320320609
 40
10.5
100
AcDbArc
 50
282.1912528917
 51
353.66882044
  0
ARC
  5
7F5
100
AcDbEntity
  8
0
100
AcDbCircle
 62
7
  6
CONTINUOUS
 10
147.4067358242
 20
49.6320320609
 40
9.15
100
AcDbArc
 50
282.1912528917
 51
353.66882044
  0
ARC
  5
7F6
100
AcDbEntity
  8
0
100
AcDbCircle
 62
7
  6
CONTINUOUS
 10
147.2975509561
 20
49.5633918073
 40
8.65
100
AcDbArc
 50
281.120695158
 51
286.5577103858
  0
ARC
  5
7F7
100
AcDbEntity
  8
0
100
AcDbCircle
 62
7
  6
CONTINUOUS
 10
147.2975509561
 20
49.5633918073
 40
8.65
100
AcDbArc
 50
293.2546765818
 51
300.6350484734
  0
ARC
  5
7F8
100
AcDbEntity
  8
0
100
AcDbCircle
 62
7
  6
CONTINUOUS
 10
147.2975509561
 20
49.5633918073
 40
8.65
100
AcDbArc
 50
307.2931921772
 51
352.23827937
  0
ARC
  5
7F9
100
AcDbEntity
  8
0
100
AcDbCircle
 62
7
  6
CONTINUOUS
 10
149.8183021738
 20
57.1786821076
 40
0.8
100
AcDbArc
 50
270.0
 51
360.0
  0
ARC
  5
7FA
100
AcDbEntity
  8
0
100
AcDbCircle
 62
7
  6
CONTINUOUS
 10
149.8183021738
 20
100.5786821076
 40
0.8
100
AcDbArc
 50
0.0
 51
90.0
  0
ARC
  5
7FB
100
AcDbEntity
  8
DRAFT
100
AcDbCircle
 62
7
  6
CONTINUOUS
 10
619.3683021738
 20
135.8786821076
 40
500.0
100
AcDbArc
 50
176.968516687
 51
180.0
  0
ARC
  5
7FC
100
AcDbEntity
  8
0
100
AcDbCircle
 62
7
  6
CONTINUOUS
 10
619.3683021738
 20
135.8786821076
 40
499.5
100
AcDbArc
 50
176.968516687
 51
180.0
  0
ARC
  5
7FD
100
AcDbEntity
  8
0
100
AcDbCircle
 62
7
  6
CONTINUOUS
 10
619.3683021738
 20
135.8786821076
 40
498.15
100
AcDbArc
 50
176.968516687
 51
180.0
  0
ARC
  5
7FE
100
AcDbEntity
  8
0
100
AcDbCircle
 62
7
  6
CONTINUOUS
 10
619.3683021738
 20
135.8786821076
 40
497.65
100
AcDbArc
 50
177.1544111189
 51
177.2472700112
  0
ARC
  5
7FF
100
AcDbEntity
  8
0
100
AcDbCircle
 62
7
  6
CONTINUOUS
 10
619.3683021738
 20
135.8786821076
 40
497.65
100
AcDbArc
 50
177.3279532879
 51
180.0
  0
ARC
  5
800
100
AcDbEntity
  8
0
100
AcDbCircle
 62
253
  6
CONTINUOUS
 10
192.5683021738
 20
154.3786821076
 40
70.4375156109
100
AcDbArc
 50
175.6031798933
 51
176.1740502762
  0
ARC
  5
801
100
AcDbEntity
  8
0
100
AcDbCircle
 62
253
  6
CONTINUOUS
 10
192.5683021738
 20
154.3786821076
 40
70.1878582272
100
AcDbArc
 50
175.5841236772
 51
176.1638044324
  0
ARC
  5
802
100
AcDbEntity
  8
DRAFT
100
AcDbCircle
 62
7
  6
CONTINUOUS
 10
189.9700329756
 20
158.6190956827
 40
70.0
100
AcDbArc
 50
173.66882044
 51
176.968516687
  0
ARC
  5
803
100
AcDbEntity
  8
0
100
AcDbCircle
 62
7
  6
CONTINUOUS
 10
189.9700329756
 20
158.6190956827
 40
69.5
100
AcDbArc
 50
173.66882044
 51
176.968516687
  0
ARC
  5
804
100
AcDbEntity
  8
0
100
AcDbCircle
 62
7
  6
CONTINUOUS
 10
189.9700329756
 20
158.6190956827
 40
68.15
100
AcDbArc
 50
173.66882044
 51
176.968516687
  0
ARC
  5
805
100
AcDbEntity
  8
0
100
AcDbCircle
 62
7
  6
CONTINUOUS
 10
189.8985125644
 20
157.2258086786
 40
67.65
100
AcDbArc
 50
172.23827937
 51
177.1544111189
  0
ARC
  5
806
100
AcDbEntity
  8
DRAFT
100
AcDbCircle
 62
7
  6
CONTINUOUS
 10
139.3683021738
 20
116.8786821076
 40
60.0
100
AcDbArc
 50
84.8718338568
 51
95.1281661432
  0
ARC
  5
807
100
AcDbEntity
  8
0
100
AcDbCircle
 62
7
  6
CONTINUOUS
 10
139.3683021738
 20
116.8786821076
 40
59.5
100
AcDbArc
 50
84.8718338568
 51
95.1281661432
  0
ARC
  5
808
100
AcDbEntity
  8
0
100
AcDbCircle
 62
7
  6
CONTINUOUS
 10
139.3683021738
 20
116.8786821076
 40
58.15
100
AcDbArc
 50
84.8718338568
 51
95.1281661432
  0
ARC
  5
809
100
AcDbEntity
  8
0
100
AcDbCircle
 62
7
  6
CONTINUOUS
 10
139.3683021738
 20
116.8786821076
 40
57.65
100
AcDbArc
 50
83.5361743058
 51
84.0260478246
  0
ARC
  5
80A
100
AcDbEntity
  8
0
100
AcDbCircle
 62
7
  6
CONTINUOUS
 10
139.3683021738
 20
116.8786821076
 40
57.65
100
AcDbArc
 50
84.7251166216
 51
95.2748833784
  0
ARC
  5
80B
100
AcDbEntity
  8
0
100
AcDbCircle
 62
7
  6
CONTINUOUS
 10
139.3683021738
 20
116.8786821076
 40
57.65
100
AcDbArc
 50
95.9739521754
 51
96.4638256942
  0
ARC
  5
80C
100
AcDbEntity
  8
DRAFT
100
AcDbCircle
 62
7
  6
CONTINUOUS
 10
141.0630215219
 20
135.7627898792
 40
41.04
100
AcDbArc
 50
77.8087471083
 51
84.8718338568
  0
ARC
  5
80D
100
AcDbEntity
  8
0
100
AcDbCircle
 62
7
  6
CONTINUOUS
 10
141.0630215219
 20
135.7627898792
 40
40.54
100
AcDbArc
 50
77.8087471083
 51
84.8718338568
  0
ARC
  5
80E
100
AcDbEntity
  8
0
100
AcDbCircle
 62
7
  6
CONTINUOUS
 10
141.0630215219
 20
135.7627898792
 40
39.19
100
AcDbArc
 50
77.8087471083
 51
84.8718338568
  0
ARC
  5
80F
100
AcDbEntity
  8
0
100
AcDbCircle
 62
7
  6
CONTINUOUS
 10
141.5016152701
 20
135.7082194156
 40
38.7
100
AcDbArc
 50
78.879304842
 51
83.5361743058
  0
ARC
  5
810
100
AcDbEntity
  8
DRAFT
100
AcDbCircle
 62
7
  6
CONTINUOUS
 10
147.4067358242
 20
165.1253321542
 40
11.0
100
AcDbArc
 50
6.33117956
 51
77.8087471083
  0
ARC
  5
811
100
AcDbEntity
  8
0
100
AcDbCircle
 62
7
  6
CONTINUOUS
 10
147.4067358242
 20
165.1253321542
 40
10.5
100
AcDbArc
 50
6.33117956
 51
77.8087471083
  0
ARC
  5
812
100
AcDbEntity
  8
0
100
AcDbCircle
 62
7
  6
CONTINUOUS
 10
147.4067358242
 20
165.1253321542
 40
9.15
100
AcDbArc
 50
6.33117956
 51
77.8087471083
  0
ARC
  5
813
100
AcDbEntity
  8
0
100
AcDbCircle
 62
7
  6
CONTINUOUS
 10
147.2975509561
 20
165.1939724079
 40
8.65
100
AcDbArc
 50
7.76172063
 51
52.7068078228
  0
ARC
  5
814
100
AcDbEntity
  8
0
100
AcDbCircle
 62
7
  6
CONTINUOUS
 10
147.2975509561
 20
165.1939724079
 40
8.65
100
AcDbArc
 50
59.3649515266
 51
66.7453234182
  0
ARC
  5
815
100
AcDbEntity
  8
0
100
AcDbCircle
 62
7
  6
CONTINUOUS
 10
147.2975509561
 20
165.1939724079
 40
8.65
100
AcDbArc
 50
73.4422896142
 51
78.879304842
  0
ARC
  5
816
100
AcDbEntity
  8
0
100
AcDbCircle
 62
7
  6
CONTINUOUS
 10
142.7858581738
 20
170.8786821076
 40
2.5499986575
100
AcDbArc
 50
87.752529198
 51
272.247470802
  0
ARC
  5
817
100
AcDbEntity
  8
0
100
AcDbCircle
 62
7
  6
CONTINUOUS
 10
142.7858581738
 20
170.8786821076
 40
1.7999999246
100
AcDbArc
 50
86.8152613297
 51
167.9753003079
  0
ARC
  5
818
100
AcDbEntity
  8
0
100
AcDbCircle
 62
7
  6
CONTINUOUS
 10
142.7858581738
 20
170.8786821076
 40
1.7999968808
100
AcDbArc
 50
192.0247203293
 51
273.1847440612
  0
ARC
  5
819
100
AcDbEntity
  8
0
100
AcDbCircle
 62
7
  6
CONTINUOUS
 10
149.8183021738
 20
114.1786821076
 40
0.8
100
AcDbArc
 50
270.0
 51
360.0
  0
ARC
  5
81A
100
AcDbEntity
  8
0
100
AcDbCircle
 62
7
  6
CONTINUOUS
 10
149.8183021738
 20
157.5786821076
 40
0.8
100
AcDbArc
 50
0.0
 51
90.0
  0
ELLIPSE
  5
81B
100
AcDbEntity
  8
0
100
AcDbEllipse
 62
7
  6
CONTINUOUS
 10
146.8683021738
 20
56.0165170943
 30
0.0
 11
40.2
 21
0.0
 31
0.0
 40
0.0087268678
 41
1.4973472198
 42
1.5707963268
  0
ELLIPSE
  5
81C
100
AcDbEntity
  8
0
100
AcDbEllipse
 62
7
  6
CONTINUOUS
 10
131.8683021738
 20
56.0165170943
 30
0.0
 11
40.2
 21
0.0
 31
0.0
 40
0.0087268678
 41
1.5707963268
 42
1.6442454337
  0
ELLIPSE
  5
81D
100
AcDbEntity
  8
0
100
AcDbEllipse
 62
7
  6
CONTINUOUS
 10
146.8683021738
 20
113.0165170943
 30
0.0
 11
40.2
 21
-0.0
 31
0.0
 40
0.0087268678
 41
1.4973472198
 42
1.5707963268
  0
ELLIPSE
  5
81E
100
AcDbEntity
  8
0
100
AcDbEllipse
 62
7
  6
CONTINUOUS
 10
133.3107484796
 20
41.4016208366
 30
0.0
 11
-0.0
 21
0.3
 31
0.0
 40
0.0174550649
 41
-4.4195310746
 42
-3.1939525311
  0
ELLIPSE
  5
81F
100
AcDbEntity
  8
0
100
AcDbEllipse
 62
7
  6
CONTINUOUS
 10
134.1258558681
 20
41.4016208366
 30
0.0
 11
0.0
 21
0.3
 31
0.0
 40
0.0174550649
 41
-3.089232776
 42
-1.8636542326
  0
ELLIPSE
  5
820
100
AcDbEntity
  8
0
100
AcDbEllipse
 62
7
  6
CONTINUOUS
 10
144.6107484796
 20
41.4016208366
 30
0.0
 11
0.0
 21
0.3
 31
0.0
 40
0.0174550649
 41
-4.4195310746
 42
-3.1939525311
  0
ELLIPSE
  5
821
100
AcDbEntity
  8
0
100
AcDbEllipse
 62
7
  6
CONTINUOUS
 10
145.4258558681
 20
41.4016208366
 30
0.0
 11
0.0
 21
0.3
 31
0.0
 40
0.0174550649
 41
-3.089232776
 42
-1.8636542326
  0
ELLIPSE
  5
822
100
AcDbEntity
  8
0
100
AcDbEllipse
 62
7
  6
CONTINUOUS
 10
122.8448584945
 20
102.8374406859
 30
0.0
 11
0.3
 21
-0.0
 31
0.0
 40
0.0174550649
 41
1.7989212973
 42
3.089232776
  0
ELLIPSE
  5
823
100
AcDbEntity
  8
0
100
AcDbEllipse
 62
7
  6
CONTINUOUS
 10
122.8448584945
 20
102.0199235293
 30
0.0
 11
0.3
 21
0.0
 31
0.0
 40
0.0174550649
 41
-3.089232776
 42
-1.7989212973
  0
ELLIPSE
  5
824
100
AcDbEntity
  8
0
100
AcDbEllipse
 62
7
  6
CONTINUOUS
 10
122.8448584945
 20
112.7374406859
 30
0.0
 11
0.3
 21
0.0
 31
0.0
 40
0.0174550649
 41
1.7989212973
 42
3.089232776
  0
ELLIPSE
  5
825
100
AcDbEntity
  8
0
100
AcDbEllipse
 62
7
  6
CONTINUOUS
 10
122.8448584945
 20
111.9199235293
 30
0.0
 11
0.3
 21
-0.0
 31
0.0
 40
0.0174550649
 41
-3.089232776
 42
-1.7989212973
  0
ELLIPSE
  5
826
100
AcDbEntity
  8
0
100
AcDbEllipse
 62
7
  6
CONTINUOUS
 10
155.8917458532
 20
112.7374406859
 30
0.0
 11
0.3
 21
0.0
 31
0.0
 40
0.0174550649
 41
0.0523598776
 42
1.3426713563
  0
ELLIPSE
  5
827
100
AcDbEntity
  8
0
100
AcDbEllipse
 62
7
  6
CONTINUOUS
 10
155.8917458532
 20
111.9199235293
 30
0.0
 11
0.3
 21
-0.0
 31
0.0
 40
0.0174550649
 41
-1.3426713563
 42
-0.0523598776
  0
ELLIPSE
  5
828
100
AcDbEntity
  8
0
100
AcDbEllipse
 62
7
  6
CONTINUOUS
 10
155.8917458532
 20
102.0199235293
 30
0.0
 11
0.3
 21
0.0
 31
0.0
 40
0.0174550649
 41
-1.3426713563
 42
-0.0523598776
  0
ELLIPSE
  5
829
100
AcDbEntity
  8
0
100
AcDbEllipse
 62
7
  6
CONTINUOUS
 10
155.8917458532
 20
102.8374406859
 30
0.0
 11
0.3
 21
0.0
 31
0.0
 40
0.0174550649
 41
0.0523598776
 42
1.3426713563
  0
ELLIPSE
  5
82A
100
AcDbEntity
  8
0
100
AcDbEllipse
 62
7
  6
CONTINUOUS
 10
145.4258558681
 20
173.3557433786
 30
0.0
 11
0.0
 21
0.3
 31
0.0
 40
0.0174550649
 41
-1.277938421
 42
-0.0523598776
  0
ELLIPSE
  5
82B
100
AcDbEntity
  8
0
100
AcDbEllipse
 62
7
  6
CONTINUOUS
 10
144.6107484796
 20
173.3557433786
 30
0.0
 11
0.0
 21
0.3
 31
0.0
 40
0.0174550649
 41
0.0523598776
 42
1.277938421
  0
ELLIPSE
  5
82C
100
AcDbEntity
  8
0
100
AcDbEllipse
 62
7
  6
CONTINUOUS
 10
134.1258558681
 20
173.3557433786
 30
0.0
 11
0.0
 21
0.3
 31
0.0
 40
0.0174550649
 41
-1.277938421
 42
-0.0523598776
  0
ELLIPSE
  5
82D
100
AcDbEntity
  8
0
100
AcDbEllipse
 62
7
  6
CONTINUOUS
 10
133.3107484796
 20
173.3557433786
 30
0.0
 11
0.0
 21
0.3
 31
0.0
 40
0.0174550649
 41
0.0523598776
 42
1.277938421
  0
ELLIPSE
  5
82E
100
AcDbEntity
  8
0
100
AcDbEllipse
 62
7
  6
CONTINUOUS
 10
140.6712420593
 20
162.5786821076
 30
0.0
 11
0.3106590941
 21
-0.0
 31
0.0
 40
0.9656887748
 41
6.2831853072
 42
7.853981634
  0
ELLIPSE
  5
82F
100
AcDbEntity
  8
0
100
AcDbEllipse
 62
7
  6
CONTINUOUS
 10
138.0653622884
 20
162.5786821076
 30
0.0
 11
0.3106590941
 21
0.0
 31
0.0
 40
0.9656887748
 41
1.5707963268
 42
3.1415926536
  0
ELLIPSE
  5
830
100
AcDbEntity
  8
0
100
AcDbEllipse
 62
7
  6
CONTINUOUS
 10
140.6712420593
 20
109.1786821076
 30
0.0
 11
0.3106590941
 21
-0.0
 31
0.0
 40
0.9656887748
 41
-1.5707963268
 42
0.0
  0
ELLIPSE
  5
831
100
AcDbEntity
  8
0
100
AcDbEllipse
 62
7
  6
CONTINUOUS
 10
138.0653622884
 20
109.1786821076
 30
0.0
 11
0.3106590941
 21
0.0
 31
0.0
 40
0.9656887748
 41
3.1415926536
 42
4.7123889804
  0
ELLIPSE
  5
832
100
AcDbEntity
  8
0
100
AcDbEllipse
 62
7
  6
CONTINUOUS
 10
140.6712420593
 20
52.1757422222
 30
0.0
 11
0.2870477648
 21
-0.1248082944
 31
0.0
 40
0.9518332917
 41
-1.1771837637
 42
0.3923945879
  0
ELLIPSE
  5
833
100
AcDbEntity
  8
0
100
AcDbEllipse
 62
7
  6
CONTINUOUS
 10
138.0653622884
 20
52.1757422222
 30
0.0
 11
0.2870477648
 21
0.1248082944
 31
0.0
 40
0.9518332917
 41
2.7491980657
 42
4.3187764173
  0
ELLIPSE
  5
834
100
AcDbEntity
  8
0
100
AcDbEllipse
 62
7
  6
CONTINUOUS
 10
140.6712420593
 20
105.581621993
 30
0.0
 11
0.2870477648
 21
0.1248082944
 31
0.0
 40
0.9518332917
 41
-0.3923945879
 42
1.1771837637
  0
ELLIPSE
  5
835
100
AcDbEntity
  8
0
100
AcDbEllipse
 62
7
  6
CONTINUOUS
 10
138.0653622884
 20
105.581621993
 30
0.0
 11
0.2870477648
 21
-0.1248082944
 31
0.0
 40
0.9518332917
 41
1.9644088899
 42
3.5339872415
  0
ELLIPSE
  5
836
100
AcDbEntity
  8
0
100
AcDbEllipse
 62
7
  6
CONTINUOUS
 10
132.9916867357
 20
103.0584562268
 30
0.0
 11
63.084423509
 21
-0.0
 31
0.0
 40
0.0174550649
 41
-1.7461778494
 42
-1.6709439072
  0
ELLIPSE
  5
837
100
AcDbEntity
  8
0
100
AcDbEllipse
 62
7
  6
CONTINUOUS
 10
132.9916867357
 20
111.6989079884
 30
0.0
 11
63.084423509
 21
0.0
 31
0.0
 40
0.0174550649
 41
1.6709439072
 42
1.7461778494
  0
ELLIPSE
  5
838
100
AcDbEntity
  8
0
100
AcDbEllipse
 62
7
  6
CONTINUOUS
 10
132.9916867357
 20
112.9584562268
 30
0.0
 11
63.084423509
 21
-0.0
 31
0.0
 40
0.0174550649
 41
-1.7461778494
 42
-1.6481649778
  0
ELLIPSE
  5
839
100
AcDbEntity
  8
0
100
AcDbEllipse
 62
7
  6
CONTINUOUS
 10
132.9916867357
 20
101.7989079884
 30
0.0
 11
63.084423509
 21
0.0
 31
0.0
 40
0.0174550649
 41
1.6481649778
 42
1.7461778494
  0
ELLIPSE
  5
83A
100
AcDbEntity
  8
0
100
AcDbEllipse
 62
7
  6
CONTINUOUS
 10
145.7449176119
 20
103.0584562268
 30
0.0
 11
63.084423509
 21
-0.0
 31
0.0
 40
0.0174550649
 41
-1.4706487464
 42
-1.3954148042
  0
ELLIPSE
  5
83B
100
AcDbEntity
  8
0
100
AcDbEllipse
 62
7
  6
CONTINUOUS
 10
145.7449176119
 20
101.7989079884
 30
0.0
 11
63.084423509
 21
0.0
 31
0.0
 40
0.0174550649
 41
1.3954148042
 42
1.4934276758
  0
ELLIPSE
  5
83C
100
AcDbEntity
  8
0
100
AcDbEllipse
 62
7
  6
CONTINUOUS
 10
145.7449176119
 20
112.9584562268
 30
0.0
 11
63.084423509
 21
-0.0
 31
0.0
 40
0.0174550649
 41
-1.4934276758
 42
-1.3954148042
  0
ELLIPSE
  5
83D
100
AcDbEntity
  8
0
100
AcDbEllipse
 62
7
  6
CONTINUOUS
 10
145.7449176119
 20
111.6989079884
 30
0.0
 11
63.084423509
 21
0.0
 31
0.0
 40
0.0174550649
 41
1.3954148042
 42
1.4706487464
  0
ELLIPSE
  5
83E
100
AcDbEntity
  8
0
100
AcDbEllipse
 62
7
  6
CONTINUOUS
 10
139.3683021738
 20
106.2863523247
 30
0.0
 11
145.5852999826
 21
0.0
 31
0.0
 40
0.0087268678
 41
-1.576335385
 42
-1.5652572686
  0
ELLIPSE
  5
83F
100
AcDbEntity
  8
0
100
AcDbEllipse
 62
7
  6
CONTINUOUS
 10
139.3683021738
 20
100.3631577113
 30
0.0
 11
145.5852999826
 21
-0.0
 31
0.0
 40
0.0174550649
 41
1.5652572686
 42
1.576335385
  0
ELLIPSE
  5
840
100
AcDbEntity
  8
0
100
AcDbEllipse
 62
7
  6
CONTINUOUS
 10
139.3683021738
 20
108.4710118905
 30
0.0
 11
145.5852999826
 21
0.0
 31
0.0
 40
0.0087268678
 41
1.5652572686
 42
1.576335385
  0
ELLIPSE
  5
841
100
AcDbEntity
  8
0
100
AcDbEllipse
 62
7
  6
CONTINUOUS
 10
139.3683021738
 20
114.3942065039
 30
0.0
 11
145.5852999826
 21
-0.0
 31
0.0
 40
0.0174550649
 41
-1.576335385
 42
-1.5652572686
  0
ELLIPSE
  5
842
100
AcDbEntity
  8
0
100
AcDbEllipse
 62
7
  6
CONTINUOUS
 10
139.3683021738
 20
100.3631577113
 30
0.0
 11
145.5852999826
 21
-0.0
 31
0.0
 40
0.0174550649
 41
1.5855305285
 42
1.6481649778
  0
ELLIPSE
  5
843
100
AcDbEntity
  8
0
100
AcDbEllipse
 62
7
  6
CONTINUOUS
 10
139.3683021738
 20
114.3942065039
 30
0.0
 11
145.5852999826
 21
0.0
 31
0.0
 40
0.0174550649
 41
-1.6481649778
 42
-1.5855305285
  0
ELLIPSE
  5
844
100
AcDbEntity
  8
0
100
AcDbEllipse
 62
7
  6
CONTINUOUS
 10
139.3683021738
 20
114.3942065039
 30
0.0
 11
145.5852999826
 21
-0.0
 31
0.0
 40
0.0174550649
 41
-1.5560621251
 42
-1.4934276758
  0
ELLIPSE
  5
845
100
AcDbEntity
  8
0
100
AcDbEllipse
 62
7
  6
CONTINUOUS
 10
139.3683021738
 20
100.3631577113
 30
0.0
 11
145.5852999826
 21
0.0
 31
0.0
 40
0.0174550649
 41
1.4934276758
 42
1.5560621251
  0
ELLIPSE
  5
846
100
AcDbEntity
  8
0
100
AcDbEllipse
 62
7
  6
CONTINUOUS
 10
131.8683021738
 20
158.7408471209
 30
0.0
 11
40.2
 21
0.0
 31
0.0
 40
0.0087268678
 41
-1.6442454337
 42
-1.5707963268
  0
ELLIPSE
  5
847
100
AcDbEntity
  8
0
100
AcDbEllipse
 62
7
  6
CONTINUOUS
 10
146.8683021738
 20
158.7408471209
 30
0.0
 11
40.2
 21
-0.0
 31
0.0
 40
0.0087268678
 41
-1.5707963268
 42
-1.4973472198
  0
ELLIPSE
  5
848
100
AcDbEntity
  8
0
100
AcDbEllipse
 62
7
  6
CONTINUOUS
 10
131.8683021738
 20
101.7408471209
 30
0.0
 11
40.2
 21
0.0
 31
0.0
 40
0.0087268678
 41
-1.6442454337
 42
-1.5707963268
  0
ELLIPSE
  5
849
100
AcDbEntity
  8
0
100
AcDbEllipse
 62
7
  6
CONTINUOUS
 10
146.8683021738
 20
101.7408471209
 30
0.0
 11
40.2
 21
-0.0
 31
0.0
 40
0.0087268678
 41
-1.5707963268
 42
-1.4973472198
  0
ELLIPSE
  5
84A
100
AcDbEntity
  8
0
100
AcDbEllipse
 62
7
  6
CONTINUOUS
 10
131.8683021738
 20
113.0165170943
 30
0.0
 11
40.2
 21
0.0
 31
0.0
 40
0.0087268678
 41
1.5707963268
 42
1.6442454337
  0
ELLIPSE
  5
84B
100
AcDbEntity
  8
0
100
AcDbEllipse
 62
7
  6
CONTINUOUS
 10
146.8683021738
 20
159.6983369125
 30
0.0
 11
40.2
 21
-0.0
 31
0.0
 40
0.0174550649
 41
-1.4424785344
 42
-1.3466871571
  0
ELLIPSE
  5
84C
100
AcDbEntity
  8
0
100
AcDbEllipse
 62
7
  6
CONTINUOUS
 10
131.8683021738
 20
159.6983369125
 30
0.0
 11
40.2
 21
0.0
 31
0.0
 40
0.0174550649
 41
-1.7949054965
 42
-1.6991141192
  0
ELLIPSE
  5
84D
100
AcDbEntity
  8
0
100
AcDbEllipse
 62
7
  6
CONTINUOUS
 10
131.8683021738
 20
55.0590273026
 30
0.0
 11
40.2
 21
0.0
 31
0.0
 40
0.0174550649
 41
1.6991141192
 42
1.7949054965
  0
ELLIPSE
  5
84E
100
AcDbEntity
  8
0
100
AcDbEllipse
 62
7
  6
CONTINUOUS
 10
122.130786563
 20
111.9743183414
 30
0.0
 11
0.25
 21
0.0
 31
0.0
 40
0.0174550649
 41
0.0523598776
 42
1.5707963268
  0
ELLIPSE
  5
84F
100
AcDbEntity
  8
0
100
AcDbEllipse
 62
7
  6
CONTINUOUS
 10
122.0193722836
 20
111.8776424634
 30
0.0
 11
0.2
 21
-0.0
 31
0.0
 40
0.0174550649
 41
-3.1241393611
 42
-1.7461778494
  0
ELLIPSE
  5
850
100
AcDbEntity
  8
0
100
AcDbEllipse
 62
7
  6
CONTINUOUS
 10
137.2277167084
 20
111.8585174293
 30
0.0
 11
0.3
 21
-0.0
 31
0.0
 40
0.0174550649
 41
-1.5855305285
 42
-0.034906585
  0
ELLIPSE
  5
851
100
AcDbEntity
  8
0
100
AcDbEllipse
 62
7
  6
CONTINUOUS
 10
131.8683021738
 20
112.5983369125
 30
0.0
 11
40.2
 21
-0.0
 31
0.0
 40
0.0174550649
 41
-1.7989212973
 42
-1.5707963268
  0
ELLIPSE
  5
852
100
AcDbEntity
  8
0
100
AcDbEllipse
 62
7
  6
CONTINUOUS
 10
141.5088876393
 20
111.8585174293
 30
0.0
 11
0.3
 21
-0.0
 31
0.0
 40
0.0174550649
 41
-3.1066860685
 42
-1.5560621251
  0
ELLIPSE
  5
853
100
AcDbEntity
  8
0
100
AcDbEllipse
 62
7
  6
CONTINUOUS
 10
156.7172320641
 20
111.8776424634
 30
0.0
 11
0.2
 21
-0.0
 31
0.0
 40
0.0174550649
 41
-1.3954148042
 42
-0.0174532925
  0
ELLIPSE
  5
854
100
AcDbEntity
  8
0
100
AcDbEllipse
 62
7
  6
CONTINUOUS
 10
156.6058177847
 20
111.9743183414
 30
0.0
 11
0.25
 21
0.0
 31
0.0
 40
0.0174550649
 41
1.5707963268
 42
3.089232776
  0
ELLIPSE
  5
855
100
AcDbEntity
  8
0
100
AcDbEllipse
 62
7
  6
CONTINUOUS
 10
146.8683021738
 20
112.5983369125
 30
0.0
 11
40.2
 21
-0.0
 31
0.0
 40
0.0174550649
 41
-1.5707963268
 42
-1.3426713563
  0
ELLIPSE
  5
856
100
AcDbEntity
  8
0
100
AcDbEllipse
 62
7
  6
CONTINUOUS
 10
146.8683021738
 20
159.1590273026
 30
0.0
 11
40.2
 21
-0.0
 31
0.0
 40
0.0174550649
 41
1.3482536284
 42
1.5707963268
  0
ELLIPSE
  5
857
100
AcDbEntity
  8
0
100
AcDbEllipse
 62
7
  6
CONTINUOUS
 10
131.8683021738
 20
159.1590273026
 30
0.0
 11
40.2
 21
-0.0
 31
0.0
 40
0.0174550649
 41
1.5707963268
 42
1.7933390252
  0
ELLIPSE
  5
858
100
AcDbEntity
  8
0
100
AcDbEllipse
 62
7
  6
CONTINUOUS
 10
134.0726659401
 20
40.6911664967
 30
0.0
 11
0.0
 21
0.25
 31
0.0
 40
0.0174550649
 41
0.0523598776
 42
1.5707963268
  0
ELLIPSE
  5
859
100
AcDbEntity
  8
0
100
AcDbEllipse
 62
7
  6
CONTINUOUS
 10
133.6930182779
 20
48.8786821076
 30
0.0
 11
-0.0
 21
26.2
 31
0.0
 40
0.0174550649
 41
-1.8636542326
 42
-1.7631417519
  0
ELLIPSE
  5
85A
100
AcDbEntity
  8
0
100
AcDbEllipse
 62
7
  6
CONTINUOUS
 10
133.3639384076
 20
40.6911664967
 30
0.0
 11
0.0
 21
0.25
 31
0.0
 40
0.0174550649
 41
-1.5707963268
 42
-0.0523598776
  0
ELLIPSE
  5
85B
100
AcDbEntity
  8
0
100
AcDbEllipse
 62
7
  6
CONTINUOUS
 10
133.7435860698
 20
48.8786821076
 30
0.0
 11
-0.0
 21
26.2
 31
0.0
 40
0.0174550649
 41
-4.5200435552
 42
-4.4195310746
  0
ELLIPSE
  5
85C
100
AcDbEntity
  8
0
100
AcDbEllipse
 62
7
  6
CONTINUOUS
 10
145.3726659401
 20
40.6911664967
 30
0.0
 11
0.0
 21
0.25
 31
0.0
 40
0.0174550649
 41
0.0523598776
 42
1.5707963268
  0
ELLIPSE
  5
85D
100
AcDbEntity
  8
0
100
AcDbEllipse
 62
7
  6
CONTINUOUS
 10
144.9930182779
 20
48.8786821076
 30
0.0
 11
-0.0
 21
26.2
 31
0.0
 40
0.0174550649
 41
-1.8636542326
 42
-1.7631417519
  0
ELLIPSE
  5
85E
100
AcDbEntity
  8
0
100
AcDbEllipse
 62
7
  6
CONTINUOUS
 10
144.6639384076
 20
40.6911664967
 30
0.0
 11
0.0
 21
0.25
 31
0.0
 40
0.0174550649
 41
-1.5707963268
 42
-0.0523598776
  0
ELLIPSE
  5
85F
100
AcDbEntity
  8
0
100
AcDbEllipse
 62
7
  6
CONTINUOUS
 10
145.0435860698
 20
48.8786821076
 30
0.0
 11
-0.0
 21
26.2
 31
0.0
 40
0.0174550649
 41
-4.5200435552
 42
-4.4195310746
  0
ELLIPSE
  5
860
100
AcDbEntity
  8
0
100
AcDbEllipse
 62
7
  6
CONTINUOUS
 10
133.3639384076
 20
174.0661977185
 30
0.0
 11
0.0
 21
0.25
 31
0.0
 40
0.0174550649
 41
-3.089232776
 42
-1.5707963268
  0
ELLIPSE
  5
861
100
AcDbEntity
  8
0
100
AcDbEllipse
 62
7
  6
CONTINUOUS
 10
133.7435860698
 20
165.8786821076
 30
0.0
 11
0.0
 21
26.2
 31
0.0
 40
0.0174550649
 41
1.277938421
 42
1.3784509016
  0
ELLIPSE
  5
862
100
AcDbEntity
  8
0
100
AcDbEllipse
 62
7
  6
CONTINUOUS
 10
134.0726659401
 20
174.0661977185
 30
0.0
 11
0.0
 21
0.25
 31
0.0
 40
0.0174550649
 41
-4.7123889804
 42
-3.1939525311
  0
ELLIPSE
  5
863
100
AcDbEntity
  8
0
100
AcDbEllipse
 62
7
  6
CONTINUOUS
 10
133.6930182779
 20
165.8786821076
 30
0.0
 11
0.0
 21
26.2
 31
0.0
 40
0.0174550649
 41
-1.3784509016
 42
-1.277938421
  0
ELLIPSE
  5
864
100
AcDbEntity
  8
0
100
AcDbEllipse
 62
7
  6
CONTINUOUS
 10
156.6058177847
 20
112.6830458738
 30
0.0
 11
0.25
 21
0.0
 31
0.0
 40
0.0174550649
 41
-3.089232776
 42
-1.5707963268
  0
ELLIPSE
  5
865
100
AcDbEntity
  8
0
100
AcDbEllipse
 62
7
  6
CONTINUOUS
 10
156.7172320641
 20
112.7797217517
 30
0.0
 11
0.2
 21
-0.0
 31
0.0
 40
0.0174550649
 41
0.0174532925
 42
1.3954148042
  0
ELLIPSE
  5
866
100
AcDbEntity
  8
0
100
AcDbEllipse
 62
7
  6
CONTINUOUS
 10
146.8683021738
 20
112.0590273026
 30
0.0
 11
40.2
 21
-0.0
 31
0.0
 40
0.0174550649
 41
1.3426713563
 42
1.4424785344
  0
ELLIPSE
  5
867
100
AcDbEntity
  8
0
100
AcDbEllipse
 62
7
  6
CONTINUOUS
 10
156.7172320641
 20
101.9776424634
 30
0.0
 11
0.2
 21
-0.0
 31
0.0
 40
0.0174550649
 41
-1.3954148042
 42
-0.0174532925
  0
ELLIPSE
  5
868
100
AcDbEntity
  8
0
100
AcDbEllipse
 62
7
  6
CONTINUOUS
 10
156.6058177847
 20
102.0743183414
 30
0.0
 11
0.25
 21
0.0
 31
0.0
 40
0.0174550649
 41
1.5707963268
 42
3.089232776
  0
ELLIPSE
  5
869
100
AcDbEntity
  8
0
100
AcDbEllipse
 62
7
  6
CONTINUOUS
 10
146.8683021738
 20
102.6983369125
 30
0.0
 11
40.2
 21
-0.0
 31
0.0
 40
0.0174550649
 41
-1.4424785344
 42
-1.3426713563
  0
ELLIPSE
  5
86A
100
AcDbEntity
  8
0
100
AcDbEllipse
 62
7
  6
CONTINUOUS
 10
122.0193722836
 20
112.7797217517
 30
0.0
 11
0.2
 21
-0.0
 31
0.0
 40
0.0174550649
 41
1.7461778494
 42
3.1241393611
  0
ELLIPSE
  5
86B
100
AcDbEntity
  8
0
100
AcDbEllipse
 62
7
  6
CONTINUOUS
 10
122.130786563
 20
112.6830458738
 30
0.0
 11
0.25
 21
0.0
 31
0.0
 40
0.0174550649
 41
-1.5707963268
 42
-0.0523598776
  0
ELLIPSE
  5
86C
100
AcDbEntity
  8
0
100
AcDbEllipse
 62
7
  6
CONTINUOUS
 10
131.8683021738
 20
112.0590273026
 30
0.0
 11
40.2
 21
0.0
 31
0.0
 40
0.0174550649
 41
1.6991141192
 42
1.7989212973
  0
ELLIPSE
  5
86D
100
AcDbEntity
  8
0
100
AcDbEllipse
 62
7
  6
CONTINUOUS
 10
122.130786563
 20
102.0743183414
 30
0.0
 11
0.25
 21
0.0
 31
0.0
 40
0.0174550649
 41
0.0523598776
 42
1.5707963268
  0
ELLIPSE
  5
86E
100
AcDbEntity
  8
0
100
AcDbEllipse
 62
7
  6
CONTINUOUS
 10
122.0193722836
 20
101.9776424634
 30
0.0
 11
0.2
 21
-0.0
 31
0.0
 40
0.0174550649
 41
-3.1241393611
 42
-1.7461778494
  0
ELLIPSE
  5
86F
100
AcDbEntity
  8
0
100
AcDbEllipse
 62
7
  6
CONTINUOUS
 10
131.8683021738
 20
102.6983369125
 30
0.0
 11
40.2
 21
-0.0
 31
0.0
 40
0.0174550649
 41
-1.7989212973
 42
-1.6991141192
  0
ELLIPSE
  5
870
100
AcDbEntity
  8
0
100
AcDbEllipse
 62
7
  6
CONTINUOUS
 10
144.6639384076
 20
174.0661977185
 30
0.0
 11
0.0
 21
0.25
 31
0.0
 40
0.0174550649
 41
-3.089232776
 42
-1.5707963268
  0
ELLIPSE
  5
871
100
AcDbEntity
  8
0
100
AcDbEllipse
 62
7
  6
CONTINUOUS
 10
145.0435860698
 20
165.8786821076
 30
0.0
 11
0.0
 21
26.2
 31
0.0
 40
0.0174550649
 41
1.277938421
 42
1.3784509016
  0
ELLIPSE
  5
872
100
AcDbEntity
  8
0
100
AcDbEllipse
 62
7
  6
CONTINUOUS
 10
145.3726659401
 20
174.0661977185
 30
0.0
 11
0.0
 21
0.25
 31
0.0
 40
0.0174550649
 41
-4.7123889804
 42
-3.1939525311
  0
ELLIPSE
  5
873
100
AcDbEntity
  8
0
100
AcDbEllipse
 62
7
  6
CONTINUOUS
 10
144.9930182779
 20
165.8786821076
 30
0.0
 11
0.0
 21
26.2
 31
0.0
 40
0.0174550649
 41
-1.3784509016
 42
-1.277938421
  0
ELLIPSE
  5
874
100
AcDbEntity
  8
0
100
AcDbEllipse
 62
7
  6
CONTINUOUS
 10
151.1946532988
 20
97.8786821076
 30
0.0
 11
59.276299376
 21
-0.0
 31
0.0
 40
0.979895321
 41
-1.7117291838
 42
-1.7087483562
  0
ELLIPSE
  5
875
100
AcDbEntity
  8
0
100
AcDbEllipse
 62
7
  6
CONTINUOUS
 10
127.5419510489
 20
97.8786821076
 30
0.0
 11
59.276299376
 21
0.0
 31
0.0
 40
0.979895321
 41
-1.4328442974
 42
-1.4298634698
  0
ELLIPSE
  5
876
100
AcDbEntity
  8
0
100
AcDbEllipse
 62
7
  6
CONTINUOUS
 10
131.8683021738
 20
55.5983369125
 30
0.0
 11
40.2
 21
0.0
 31
0.0
 40
0.0174550649
 41
-1.7933390252
 42
-1.5707963268
  0
ELLIPSE
  5
877
100
AcDbEntity
  8
0
100
AcDbEllipse
 62
7
  6
CONTINUOUS
 10
146.8683021738
 20
55.5983369125
 30
0.0
 11
40.2
 21
-0.0
 31
0.0
 40
0.0174550649
 41
-1.5707963268
 42
-1.3482536284
  0
ELLIPSE
  5
878
100
AcDbEntity
  8
0
100
AcDbEllipse
 62
7
  6
CONTINUOUS
 10
137.2277167084
 20
102.8988467858
 30
0.0
 11
0.3
 21
-0.0
 31
0.0
 40
0.0174550649
 41
0.034906585
 42
1.5855305285
  0
ELLIPSE
  5
879
100
AcDbEntity
  8
0
100
AcDbEllipse
 62
7
  6
CONTINUOUS
 10
122.0193722836
 20
102.8797217517
 30
0.0
 11
0.2
 21
0.0
 31
0.0
 40
0.0174550649
 41
1.7461778494
 42
3.1241393611
  0
ELLIPSE
  5
87A
100
AcDbEntity
  8
0
100
AcDbEllipse
 62
7
  6
CONTINUOUS
 10
122.130786563
 20
102.7830458738
 30
0.0
 11
0.25
 21
0.0
 31
0.0
 40
0.0174550649
 41
-1.5707963268
 42
-0.0523598776
  0
ELLIPSE
  5
87B
100
AcDbEntity
  8
0
100
AcDbEllipse
 62
7
  6
CONTINUOUS
 10
131.8683021738
 20
102.1590273026
 30
0.0
 11
40.2
 21
0.0
 31
0.0
 40
0.0174550649
 41
1.5707963268
 42
1.7989212973
  0
ELLIPSE
  5
87C
100
AcDbEntity
  8
0
100
AcDbEllipse
 62
7
  6
CONTINUOUS
 10
156.6058177847
 20
102.7830458738
 30
0.0
 11
0.25
 21
0.0
 31
0.0
 40
0.0174550649
 41
-3.089232776
 42
-1.5707963268
  0
ELLIPSE
  5
87D
100
AcDbEntity
  8
0
100
AcDbEllipse
 62
7
  6
CONTINUOUS
 10
156.7172320641
 20
102.8797217517
 30
0.0
 11
0.2
 21
0.0
 31
0.0
 40
0.0174550649
 41
0.0174532925
 42
1.3954148042
  0
ELLIPSE
  5
87E
100
AcDbEntity
  8
0
100
AcDbEllipse
 62
7
  6
CONTINUOUS
 10
141.5088876393
 20
102.8988467858
 30
0.0
 11
0.3
 21
0.0
 31
0.0
 40
0.0174550649
 41
1.5560621251
 42
3.1066860685
  0
ELLIPSE
  5
87F
100
AcDbEntity
  8
0
100
AcDbEllipse
 62
7
  6
CONTINUOUS
 10
146.8683021738
 20
102.1590273026
 30
0.0
 11
40.2
 21
-0.0
 31
0.0
 40
0.0174550649
 41
1.3426713563
 42
1.5707963268
  0
ENDSEC
  0
SECTION
  2
OBJECTS
  0
DICTIONARY
  5
C
100
AcDbDictionary
280
0
281
1
  3
ACAD_GROUP
350
D
  3
ACAD_MLINESTYLE
350
17
  3
ACAD_LAYOUT
350
1A
  3
ACAD_PLOTSETTINGS
350
19
  3
ACAD_PLOTSTYLENAME
350
E
  0
DICTIONARY
  5
D
102
{ACAD_REACTORS
330
C
102
}
100
AcDbDictionary
280
0
281
1
  0
ACDBDICTIONARYWDFLT
  5
E
102
{ACAD_REACTORS
330
C
102
}
100
AcDbDictionary
281
1
  3
Normal
350
F
100
AcDbDictionaryWithDefault
340
F
  0
DICTIONARY
  5
17
102
{ACAD_REACTORS
330
C
102
}
100
AcDbDictionary
280
0
281
1
  3
Standard
350
18
  0
DICTIONARY
  5
19
102
{ACAD_REACTORS
330
C
102
}
100
AcDbDictionary
281
1
  0
DICTIONARY
  5
1A
102
{ACAD_REACTORS
330
C
102
}
100
AcDbDictionary
281
1
  3
Model
350
880
  3
Layout1
350
881
  0
ACDBPLACEHOLDER
  5
F
102
{ACAD_REACTORS
330
E
102
}
  0
MLINESTYLE
  5
18
102
{ACAD_REACTORS
330
17
102
}
100
AcDbMlineStyle
  2
STANDARD
 70
0
  3

 62
256
 51
90.0
 52
90.0
 71
2
 49
0.5
 62
256
  6
BYLAYER
 49
-0.5
 62
256
  6
BYLAYER
  0
LAYOUT
  5
880
102
{ACAD_REACTORS
330
1A
102
}
100
AcDbPlotSettings
  1

  2
none_device
  4
ISO_A4_(297.00_x_210.00_MM)
  6

 40
0.0
 41
0.0
 42
0.0
 43
0.0
 44
297.0
 45
210.0
 46
0.0
 47
0.0
 48
0.0
 49
0.0
140
0.0
141
0.0
142
1.0
143
1.0
 70
1024
 72
1
 73
0
 74
0
  7

 75
0
147
1.0
148
0.0
149
0.0
100
AcDbLayout
  1
Model
 70
0
 71
0
 10
0.0
 20
0.0
 11
297.0
 21
210.0
 12
0.0
 22
0.0
 32
0.0
 14
0.0
 24
0.0
 34
0.0
 15
0.0
 25
0.0
 35
0.0
146
0.0
 13
0.0
 23
0.0
 33
0.0
 16
1.0
 26
0.0
 36
0.0
 17
0.0
 27
1.0
 37
0.0
 76
0
330
21B
345
0
346
0
  0
LAYOUT
  5
881
102
{ACAD_REACTORS
330
1A
102
}
100
AcDbPlotSettings
  1

  2
none_device
  4
ISO_A4_(297.00_x_210.00_MM)
  6

 40
0.0
 41
0.0
 42
0.0
 43
0.0
 44
297.0
 45
210.0
 46
0.0
 47
0.0
 48
0.0
 49
0.0
140
0.0
141
0.0
142
1.0
143
1.0
 70
0
 72
1
 73
0
 74
0
  7

 75
0
147
1.0
148
0.0
149
0.0
100
AcDbLayout
  1
Layout1
 70
0
 71
1
 10
0.0
 20
0.0
 11
297.0
 21
210.0
 12
0.0
 22
0.0
 32
0.0
 14
0.0
 24
0.0
 34
0.0
 15
0.0
 25
0.0
 35
0.0
146
0.0
 13
0.0
 23
0.0
 33
0.0
 16
1.0
 26
0.0
 36
0.0
 17
0.0
 27
1.0
 37
0.0
 76
0
330
21C
345
0
346
0
  0
ENDSEC
  0
EOF
