  0
SECTION
  2
HEADER
  9
$ACADVER
  1
AC1021
  9
$DWGCODEPAGE
  3
ANSI_1252
  9
$EXTMAX
 10
297.0
 20
210.0
 30
0.0
  9
$EXTMIN
 10
0.0
 20
0.0
 30
0.0
  9
$LIMMIN
 10
0.0
 20
0.0
  9
$LIMMAX
 10
297.0
 20
210.0
  9
$VIEWCTR
 10
148.5
 20
105.0
  9
$VIEWSIZE
 40
210.0
  9
$CLAYER
  8
0
  9
$LTSCALE
 40
16.335
  9
$CELTYPE
  6
BYLAYER
  9
$DIMSCALE
 40
1.0
  9
$DIMASZ
 40
3.0
  9
$DIMEXO
 40
0.5
  9
$DIMDLI
 40
11.286
  9
$DIMEXE
 40
1.5
  9
$DIMCEN
 40
2.673
  9
$DIMLFAC
 40
1.0
  9
$DIMBLK
  1
_FILLED
  9
$DIMALT
 70
0
  9
$DIMALTF
 40
25.4
  9
$DIMTXT
 40
3.0
  9
$DIMTOL
 70
1
  9
$DIMLIM
 70
0
  9
$DIMTFAC
 40
1.0
  9
$DIMTP
 40
0.01
  9
$DIMTM
 40
0.01
  9
$DIMGAP
 40
0.625
  9
$DIMDSEP
 70
44
  9
$AUNITS
 70
0
  9
$PDMODE
 70
3
  9
$PDSIZE
 40
3.0
  9
$HANDSEED
  5
57C
  9
$TILEMODE
 70
1
  9
$MEASUREMENT
 70
1
  9
$INSUNITS
 70
4
  0
ENDSEC
  0
SECTION
  2
CLASSES
  0
CLASS
  1
ACDBDICTIONARYWDFLT
  2
AcDbDictionaryWithDefault
  3
AutoCAD 2000
 90
0
 91
1
280
0
281
0
  0
CLASS
  1
ACDBPLACEHOLDER
  2
AcDbPlaceHolder
  3
AutoCAD 2000
 90
0
 91
1
280
0
281
0
  0
CLASS
  1
LAYOUT
  2
AcDbLayout
  3
AutoCAD 2000
 90
0
 91
0
280
0
281
0
  0
ENDSEC
  0
SECTION
  2
TABLES
  0
TABLE
  2
VPORT
  5
8
100
AcDbSymbolTable
 70
2
  0
VPORT
  5
1F4
100
AcDbSymbolTableRecord
100
AcDbViewportTableRecord
  2
*ACTIVE
 70
0
 10
0.0
 20
0.0
 11
1.0
 21
1.0
 12
148.5
 22
105.0
 13
0.0
 23
0.0
 14
1.0
 24
1.0
 15
0.0
 25
0.0
 16
0.0
 26
0.0
 36
1.0
 17
0.0
 27
0.0
 37
0.0
 40
210.0
 41
1.4142857143
 42
50.0
 43
0.0
 44
0.0
 50
0.0
 51
0.0
 71
0
 72
100
 73
1
 74
1
 75
0
 76
0
 77
0
 78
0
  0
ENDTAB
  0
TABLE
  2
LTYPE
  5
5
100
AcDbSymbolTable
 70
6
  0
LTYPE
  5
14
100
AcDbSymbolTableRecord
100
AcDbLinetypeTableRecord
  2
BYBLOCK
 70
0
  3

 72
65
 73
0
 40
0.0
  0
LTYPE
  5
15
100
AcDbSymbolTableRecord
100
AcDbLinetypeTableRecord
  2
BYLAYER
 70
0
  3

 72
65
 73
0
 40
0.0
  0
LTYPE
  5
16
100
AcDbSymbolTableRecord
100
AcDbLinetypeTableRecord
  2
CONTINUOUS
 70
64
  3
Solid line
 72
65
 73
0
 40
0.0
  0
LTYPE
  5
1F5
100
AcDbSymbolTableRecord
100
AcDbLinetypeTableRecord
  2
CENTER
 70
64
  3
____ _ ____ _ ____ _ ____ _ ____ _ ____ _ ____
 72
65
 73
4
 40
0.6
 49
0.375
 74
0
 49
-0.075
 74
0
 49
0.075
 74
0
 49
-0.075
 74
0
  0
LTYPE
  5
1F6
100
AcDbSymbolTableRecord
100
AcDbLinetypeTableRecord
  2
HIDDEN
 70
64
  3
- - - - - - - - - - - - - - - - - - - -
 72
65
 73
2
 40
0.2
 49
0.1
 74
0
 49
-0.1
 74
0
  0
LTYPE
  5
1F7
100
AcDbSymbolTableRecord
100
AcDbLinetypeTableRecord
  2
PHANTOM
 70
64
  3
_____ _ _ _____ _ _ _____ _ _ _____
 72
65
 73
6
 40
0.8
 49
0.45
 74
0
 49
-0.05
 74
0
 49
0.1
 74
0
 49
-0.05
 74
0
 49
0.1
 74
0
 49
-0.05
 74
0
  0
LTYPE
  5
1F8
100
AcDbSymbolTableRecord
100
AcDbLinetypeTableRecord
  2
DOT
 70
64
  3
. . . . . . . . . . . . . . . . . . . .
 72
65
 73
2
 40
0.2
 49
0.1
 74
0
 49
-0.1
 74
0
  0
LTYPE
  5
1F9
100
AcDbSymbolTableRecord
100
AcDbLinetypeTableRecord
  2
DASHED
 70
64
  3
- - - - - - - - - - - - - - - - - - - -
 72
65
 73
2
 40
0.2
 49
0.1
 74
0
 49
-0.1
 74
0
  0
ENDTAB
  0
TABLE
  2
LAYER
  5
2
100
AcDbSymbolTable
 70
36
  0
LAYER
  5
10
100
AcDbSymbolTableRecord
100
AcDbLayerTableRecord
  2
0
 70
0
 62
7
  6
CONTINUOUS
370
-3
390
F
  0
LAYER
  5
1FA
100
AcDbSymbolTableRecord
100
AcDbLayerTableRecord
  2
DEFAULT_1
 70
0
 62
7
  6
CENTER
370
-3
390
F
  0
LAYER
  5
1FB
100
AcDbSymbolTableRecord
100
AcDbLayerTableRecord
  2
DEFAULT_2
 70
0
 62
7
  6
HIDDEN
370
-3
390
F
  0
LAYER
  5
1FC
100
AcDbSymbolTableRecord
100
AcDbLayerTableRecord
  2
DEFAULT_3
 70
0
 62
7
  6
PHANTOM
370
-3
390
F
  0
LAYER
  5
1FD
100
AcDbSymbolTableRecord
100
AcDbLayerTableRecord
  2
ASSI
 70
0
 62
7
  6
CONTINUOUS
370
-3
390
F
  0
LAYER
  5
1FE
100
AcDbSymbolTableRecord
100
AcDbLayerTableRecord
  2
COLOR3
 70
0
 62
7
  6
CONTINUOUS
370
-3
390
F
  0
LAYER
  5
1FF
100
AcDbSymbolTableRecord
100
AcDbLayerTableRecord
  2
COORDINATE
 70
0
 62
7
  6
CONTINUOUS
370
-3
390
F
  0
LAYER
  5
200
100
AcDbSymbolTableRecord
100
AcDbLayerTableRecord
  2
COPY_PUBLISH
 70
0
 62
7
  6
CONTINUOUS
370
-3
390
F
  0
LAYER
  5
201
100
AcDbSymbolTableRecord
100
AcDbLayerTableRecord
  2
COSMETIC
 70
0
 62
7
  6
CONTINUOUS
370
-3
390
F
  0
LAYER
  5
202
100
AcDbSymbolTableRecord
100
AcDbLayerTableRecord
  2
COSMETICI
 70
0
 62
7
  6
CONTINUOUS
370
-3
390
F
  0
LAYER
  5
203
100
AcDbSymbolTableRecord
100
AcDbLayerTableRecord
  2
CURVE
 70
0
 62
7
  6
CONTINUOUS
370
-3
390
F
  0
LAYER
  5
204
100
AcDbSymbolTableRecord
100
AcDbLayerTableRecord
  2
DRAFT
 70
0
 62
7
  6
CONTINUOUS
370
-3
390
F
  0
LAYER
  5
205
100
AcDbSymbolTableRecord
100
AcDbLayerTableRecord
  2
IMPORT_IGES
 70
0
 62
7
  6
CONTINUOUS
370
-3
390
F
  0
LAYER
  5
206
100
AcDbSymbolTableRecord
100
AcDbLayerTableRecord
  2
INTFCLR_1
 70
0
 62
7
  6
CONTINUOUS
370
-3
390
F
  0
LAYER
  5
207
100
AcDbSymbolTableRecord
100
AcDbLayerTableRecord
  2
INTF_10
 70
0
 62
7
  6
CONTINUOUS
370
-3
390
F
  0
LAYER
  5
208
100
AcDbSymbolTableRecord
100
AcDbLayerTableRecord
  2
INTF_13
 70
0
 62
7
  6
CONTINUOUS
370
-3
390
F
  0
LAYER
  5
209
100
AcDbSymbolTableRecord
100
AcDbLayerTableRecord
  2
INTF_15
 70
0
 62
7
  6
CONTINUOUS
370
-3
390
F
  0
LAYER
  5
20A
100
AcDbSymbolTableRecord
100
AcDbLayerTableRecord
  2
INTF_16
 70
0
 62
7
  6
CONTINUOUS
370
-3
390
F
  0
LAYER
  5
20B
100
AcDbSymbolTableRecord
100
AcDbLayerTableRecord
  2
INTF_18
 70
0
 62
7
  6
CONTINUOUS
370
-3
390
F
  0
LAYER
  5
20C
100
AcDbSymbolTableRecord
100
AcDbLayerTableRecord
  2
INTF_20
 70
0
 62
7
  6
CONTINUOUS
370
-3
390
F
  0
LAYER
  5
20D
100
AcDbSymbolTableRecord
100
AcDbLayerTableRecord
  2
INTF_3
 70
0
 62
7
  6
CONTINUOUS
370
-3
390
F
  0
LAYER
  5
20E
100
AcDbSymbolTableRecord
100
AcDbLayerTableRecord
  2
INTF_5
 70
0
 62
7
  6
CONTINUOUS
370
-3
390
F
  0
LAYER
  5
20F
100
AcDbSymbolTableRecord
100
AcDbLayerTableRecord
  2
INTF_8
 70
0
 62
7
  6
CONTINUOUS
370
-3
390
F
  0
LAYER
  5
210
100
AcDbSymbolTableRecord
100
AcDbLayerTableRecord
  2
NOTE
 70
0
 62
7
  6
CONTINUOUS
370
-3
390
F
  0
LAYER
  5
211
100
AcDbSymbolTableRecord
100
AcDbLayerTableRecord
  2
PIANI
 70
0
 62
7
  6
CONTINUOUS
370
-3
390
F
  0
LAYER
  5
212
100
AcDbSymbolTableRecord
100
AcDbLayerTableRecord
  2
PUNTI
 70
0
 62
7
  6
CONTINUOUS
370
-3
390
F
  0
LAYER
  5
213
100
AcDbSymbolTableRecord
100
AcDbLayerTableRecord
  2
RACCORDO
 70
0
 62
7
  6
CONTINUOUS
370
-3
390
F
  0
LAYER
  5
214
100
AcDbSymbolTableRecord
100
AcDbLayerTableRecord
  2
SIMBOLI
 70
0
 62
7
  6
CONTINUOUS
370
-3
390
F
  0
LAYER
  5
215
100
AcDbSymbolTableRecord
100
AcDbLayerTableRecord
  2
SNAPLINE
 70
0
 62
7
  6
CONTINUOUS
370
-3
390
F
  0
LAYER
  5
216
100
AcDbSymbolTableRecord
100
AcDbLayerTableRecord
  2
SOLIDO
 70
0
 62
7
  6
CONTINUOUS
370
-3
390
F
  0
LAYER
  5
217
100
AcDbSymbolTableRecord
100
AcDbLayerTableRecord
  2
SUPERFICI
 70
0
 62
7
  6
CONTINUOUS
370
-3
390
F
  0
LAYER
  5
218
100
AcDbSymbolTableRecord
100
AcDbLayerTableRecord
  2
SUPERFICI_SKEL
 70
0
 62
7
  6
CONTINUOUS
370
-3
390
F
  0
LAYER
  5
219
100
AcDbSymbolTableRecord
100
AcDbLayerTableRecord
  2
TRASH
 70
0
 62
7
  6
CONTINUOUS
370
-3
390
F
  0
LAYER
  5
21A
100
AcDbSymbolTableRecord
100
AcDbLayerTableRecord
  2
___SHELL
 70
0
 62
7
  6
CONTINUOUS
370
-3
390
F
  0
ENDTAB
  0
TABLE
  2
STYLE
  5
3
100
AcDbSymbolTable
 70
1
  0
STYLE
  5
11
100
AcDbSymbolTableRecord
100
AcDbTextStyleTableRecord
  2
STANDARD
 70
0
 40
0.0
 41
0.8
 50
0.0
 71
0
 42
0.2
  3
txt
  4

  0
STYLE
  5
21B
100
AcDbSymbolTableRecord
100
AcDbTextStyleTableRecord
  2
TEXTSTYLE_1
 70
0
 40
0.0
 41
0.8
 50
0.0
 71
0
 42
0.2
  3
gdt
  4

  0
ENDTAB
  0
TABLE
  2
VIEW
  5
6
100
AcDbSymbolTable
 70
0
  0
ENDTAB
  0
TABLE
  2
UCS
  5
7
100
AcDbSymbolTable
 70
0
  0
ENDTAB
  0
TABLE
  2
APPID
  5
9
100
AcDbSymbolTable
 70
1
  0
APPID
  5
21C
100
AcDbSymbolTableRecord
100
AcDbRegAppTableRecord
  2
ACAD
 70
0
  0
ENDTAB
  0
TABLE
  2
BLOCK_RECORD
  5
1
100
AcDbSymbolTable
 70
0
  0
BLOCK_RECORD
  5
21D
100
AcDbSymbolTableRecord
100
AcDbBlockTableRecord
  2
*Model_Space
  0
BLOCK_RECORD
  5
21E
100
AcDbSymbolTableRecord
100
AcDbBlockTableRecord
  2
*Paper_Space
  0
ENDTAB
  0
TABLE
  2
DIMSTYLE
  5
A
100
AcDbSymbolTable
 70
1
100
AcDbDimStyleTable
 71
0
  0
DIMSTYLE
105
21F
100
AcDbSymbolTableRecord
100
AcDbDimStyleTableRecord
  2
STANDARD
 70
0
  3

  4

 40
1.0
 41
3.0
 42
0.5
 43
0.38
 44
1.5
 45
0.0
 46
0.0
 47
0.01
 48
0.01
140
3.0
141
0.09
142
0.0
143
25.4
144
1.0
145
0.0
146
1.0
147
0.625
 71
1.0
 72
0.0
 73
0
 74
0
 75
0
 76
0
 77
1
 78
8
170
0
171
1
172
0
173
0
174
0
175
0
176
0
177
0
178
0
270
2
271
2
272
2
273
2
274
2
275
0
280
0
281
0
282
0
283
1
284
8
285
0
286
0
287
3
288
0
340
11
278
44
  0
ENDTAB
  0
ENDSEC
  0
SECTION
  2
BLOCKS
  0
BLOCK
  5
20
100
AcDbEntity
  8
0
100
AcDbBlockBegin
  2
*Model_Space
 70
0
 10
0.0
 20
0.0
 30
0.0
  3
*Model_Space
  1

  0
ENDBLK
  5
21
100
AcDbEntity
  8
0
100
AcDbBlockEnd
  0
BLOCK
  5
1C
100
AcDbEntity
  8
0
100
AcDbBlockBegin
  2
*Paper_Space
 70
0
 10
0.0
 20
0.0
 30
0.0
  3
*Paper_Space
  1

  0
ENDBLK
  5
1D
100
AcDbEntity
  8
0
100
AcDbBlockEnd
  0
ENDSEC
  0
SECTION
  2
ENTITIES
  0
LWPOLYLINE
  5
220
100
AcDbEntity
  8
0
100
AcDbPolyline
 62
253
  6
CONTINUOUS
 90
13
 70
0
 10
-10.2893791604
 20
20.2406245733
 10
-10.2872136288
 20
20.2416864861
 10
-10.2820381063
 20
20.2427322441
 10
-10.2739313641
 20
20.2437459448
 10
-10.2630167867
 20
20.2447121755
 10
-10.2494604935
 20
20.2456162336
 10
-10.2334688108
 20
20.2464443498
 10
-10.2152851315
 20
20.2471839118
 10
-10.1951862107
 20
20.2478236719
 10
-10.1734779533
 20
20.2483539026
 10
-10.1504907582
 20
20.2487665302
 10
-10.1265744899
 20
20.2490552589
 10
-10.1020931531
 20
20.2492156804
  0
LINE
  5
221
100
AcDbEntity
  8
0
100
AcDbLine
 62
7
  6
CONTINUOUS
 10
2.4613020588
 20
-22.3432916977
 11
3.2695924357
 21
-22.2699208067
  0
LINE
  5
222
100
AcDbEntity
  8
0
100
AcDbLine
 62
7
  6
CONTINUOUS
 10
-8.7386979412
 20
-22.3432916977
 11
-7.9304075643
 21
-22.2699208067
  0
LINE
  5
223
100
AcDbEntity
  8
0
100
AcDbLine
 62
7
  6
CONTINUOUS
 10
2.4613020588
 20
-20.7719033666
 11
3.2695924357
 21
-20.6985324756
  0
LWPOLYLINE
  5
224
100
AcDbEntity
  8
0
100
AcDbPolyline
 62
253
  6
CONTINUOUS
 90
13
 70
0
 10
9.1441026206
 20
-20.4841572134
 10
9.1702729136
 20
-20.4824029712
 10
9.1959941274
 20
-20.4772417251
 10
9.2208235123
 20
-20.4687618
 10
9.2443343106
 20
-20.4571082292
 10
9.2661207417
 20
-20.4424813897
 10
9.2858056149
 20
-20.4251345182
 10
9.303076498
 20
-20.4053324087
 10
9.3176014539
 20
-20.3834436204
 10
9.3290801915
 20
-20.3599681438
 10
9.3373518312
 20
-20.3353723306
 10
9.3423475005
 20
-20.310049211
 10
9.3440340856
 20
-20.2844313065
  0
LINE
  5
225
100
AcDbEntity
  8
0
100
AcDbLine
 62
7
  6
CONTINUOUS
 10
10.0885624166
 20
-22.3432916977
 11
7.7933528664
 21
-22.3432916977
  0
LINE
  5
226
100
AcDbEntity
  8
0
100
AcDbLine
 62
7
  6
CONTINUOUS
 10
2.4613020588
 20
-22.3432916977
 11
-3.4066471336
 21
-22.3432916977
  0
LINE
  5
227
100
AcDbEntity
  8
0
100
AcDbLine
 62
7
  6
CONTINUOUS
 10
-8.7386979412
 20
-22.3432916977
 11
-11.0339074914
 21
-22.3432916977
  0
LINE
  5
228
100
AcDbEntity
  8
0
100
AcDbLine
 62
7
  6
CONTINUOUS
 10
6.8118574088
 20
-22.2646800287
 11
3.4427975164
 21
-22.2646800287
  0
LINE
  5
229
100
AcDbEntity
  8
0
100
AcDbLine
 62
7
  6
CONTINUOUS
 10
-4.3881425912
 20
-22.2646800287
 11
-7.7572024836
 21
-22.2646800287
  0
LWPOLYLINE
  5
22A
100
AcDbEntity
  8
0
100
AcDbPolyline
 62
253
  6
CONTINUOUS
 90
4
 70
0
 10
-10.2739313642
 20
-20.2875527214
 10
-10.2819565673
 20
-20.2869663575
 10
-10.2871534586
 20
-20.2860362561
 10
-10.2893791604
 20
-20.2844313065
  0
LINE
  5
22B
100
AcDbEntity
  8
0
100
AcDbLine
 62
7
  6
CONTINUOUS
 10
-3.4066471336
 20
-22.3432916977
 11
-4.2149375105
 21
-22.2699208067
  0
LINE
  5
22C
100
AcDbEntity
  8
0
100
AcDbLine
 62
7
  6
CONTINUOUS
 10
7.7933528664
 20
-22.3432916977
 11
6.9850624895
 21
-22.2699208067
  0
LINE
  5
22D
100
AcDbEntity
  8
0
100
AcDbLine
 62
7
  6
CONTINUOUS
 10
-3.4066471336
 20
-20.7719033666
 11
-4.2149375105
 21
-20.6985324756
  0
LINE
  5
22E
100
AcDbEntity
  8
0
100
AcDbLine
 62
7
  6
CONTINUOUS
 10
-8.7386979412
 20
-20.7719033666
 11
-7.9304075643
 21
-20.6985324756
  0
LINE
  5
22F
100
AcDbEntity
  8
0
100
AcDbLine
 62
253
  6
CONTINUOUS
 10
-5.654841035
 20
-20.2827834737
 11
-10.1020946317
 21
-20.2930311524
  0
LWPOLYLINE
  5
230
100
AcDbEntity
  8
0
100
AcDbPolyline
 62
253
  6
CONTINUOUS
 90
4
 70
0
 10
-1.2583144941
 20
-20.4682786692
 10
-3.4499698233
 20
-20.4696847866
 10
-5.6475086416
 20
-20.4728393778
 10
-10.0894622891
 20
-20.4841864208
  0
LINE
  5
231
100
AcDbEntity
  8
0
100
AcDbLine
 62
253
  6
CONTINUOUS
 10
-1.259101639
 20
-20.2786867729
 11
-5.654841035
 21
-20.2827834737
  0
LINE
  5
232
100
AcDbEntity
  8
0
100
AcDbLine
 62
7
  6
CONTINUOUS
 10
-10.2332221179
 20
-20.7719033666
 11
-8.7386979412
 21
-20.7719033666
  0
LINE
  5
233
100
AcDbEntity
  8
0
100
AcDbLine
 62
7
  6
CONTINUOUS
 10
-3.4066471336
 20
-20.7719033666
 11
2.4613020588
 21
-20.7719033666
  0
LINE
  5
234
100
AcDbEntity
  8
0
100
AcDbLine
 62
7
  6
CONTINUOUS
 10
7.7933528664
 20
-20.7719033666
 11
9.2878770431
 21
-20.7719033666
  0
LINE
  5
235
100
AcDbEntity
  8
0
100
AcDbLine
 62
7
  6
CONTINUOUS
 10
6.8118574088
 20
-20.6932916977
 11
3.4427975164
 21
-20.6932916977
  0
LINE
  5
236
100
AcDbEntity
  8
0
100
AcDbLine
 62
7
  6
CONTINUOUS
 10
-4.3881425912
 20
-20.6932916977
 11
-7.7572024836
 21
-20.6932916977
  0
LINE
  5
237
100
AcDbEntity
  8
0
100
AcDbLine
 62
7
  6
CONTINUOUS
 10
-3.2749485374
 20
-19.3542043666
 11
-2.9622565374
 21
-19.3542043666
  0
LINE
  5
238
100
AcDbEntity
  8
0
100
AcDbLine
 62
7
  6
CONTINUOUS
 10
-2.2841745374
 20
-19.3542043666
 11
-1.9293465374
 21
-19.3542043666
  0
LINE
  5
239
100
AcDbEntity
  8
0
100
AcDbLine
 62
7
  6
CONTINUOUS
 10
-1.7383315374
 20
-19.3542043666
 11
-1.3988765374
 21
-19.3542043666
  0
LINE
  5
23A
100
AcDbEntity
  8
0
100
AcDbLine
 62
7
  6
CONTINUOUS
 10
-0.9060485374
 20
-19.3542043666
 11
-0.8562845374
 21
-19.3542043666
  0
LINE
  5
23B
100
AcDbEntity
  8
0
100
AcDbLine
 62
7
  6
CONTINUOUS
 10
-0.3614925374
 20
-19.3542043666
 11
-0.0143765374
 21
-19.3542043666
  0
LINE
  5
23C
100
AcDbEntity
  8
0
100
AcDbLine
 62
7
  6
CONTINUOUS
 10
0.0413404626
 20
-19.3542043666
 11
0.3923184626
 21
-19.3542043666
  0
LINE
  5
23D
100
AcDbEntity
  8
0
100
AcDbLine
 62
7
  6
CONTINUOUS
 10
1.0653654626
 20
-19.3542043666
 11
1.4393394626
 21
-19.3542043666
  0
LINE
  5
23E
100
AcDbEntity
  8
0
100
AcDbLine
 62
7
  6
CONTINUOUS
 10
1.5435341265
 20
-19.3542040533
 11
1.8969344586
 21
-19.3542040533
  0
LINE
  5
23F
100
AcDbEntity
  8
0
100
AcDbLine
 62
7
  6
CONTINUOUS
 10
2.4403046777
 20
-19.3542040533
 11
2.7816080211
 21
-19.3542040533
  0
LINE
  5
240
100
AcDbEntity
  8
0
100
AcDbLine
 62
7
  6
CONTINUOUS
 10
0.4902294626
 20
-19.0148513666
 11
0.9734464626
 21
-19.0148513666
  0
LINE
  5
241
100
AcDbEntity
  8
0
100
AcDbLine
 62
253
  6
CONTINUOUS
 10
3.0488946098
 20
-20.4702967335
 11
-1.2583144941
 21
-20.4682786692
  0
LINE
  5
242
100
AcDbEntity
  8
0
100
AcDbLine
 62
253
  6
CONTINUOUS
 10
3.053615709
 20
-20.2805195998
 11
-1.259101639
 21
-20.2786867729
  0
LWPOLYLINE
  5
243
100
AcDbEntity
  8
0
100
AcDbPolyline
 62
253
  6
CONTINUOUS
 90
3
 70
0
 10
9.156749564
 20
-20.2930219111
 10
7.1677948748
 20
-20.2876171024
 10
3.053615709
 20
-20.2805195998
  0
LWPOLYLINE
  5
244
100
AcDbEntity
  8
0
100
AcDbPolyline
 62
253
  6
CONTINUOUS
 90
3
 70
0
 10
9.1441011197
 20
-20.4841542095
 10
7.1572164967
 20
-20.4780633254
 10
3.0488946098
 20
-20.4702967335
  0
LWPOLYLINE
  5
245
100
AcDbEntity
  8
0
100
AcDbPolyline
 62
253
  6
CONTINUOUS
 90
9
 70
0
 10
-10.1020931525
 20
-20.2930224136
 10
-10.1264202641
 20
-20.2923328514
 10
-10.1503699204
 20
-20.2921471295
 10
-10.1734779533
 20
-20.2921606791
 10
-10.1952334779
 20
-20.2916993204
 10
-10.215289415
 20
-20.2908242449
 10
-10.2334688108
 20
-20.2902511415
 10
-10.2495515609
 20
-20.2895792193
 10
-10.2739313642
 20
-20.2875527214
  0
LINE
  5
246
100
AcDbEntity
  8
0
100
AcDbLine
 62
7
  6
CONTINUOUS
 10
7.7933528664
 20
-20.7719033666
 11
6.9850624895
 21
-20.6985324756
  0
LWPOLYLINE
  5
247
100
AcDbEntity
  8
0
100
AcDbPolyline
 62
253
  6
CONTINUOUS
 90
13
 70
0
 10
-10.0894476954
 20
-20.4841572134
 10
-10.0915395494
 20
-20.4812968145
 10
-10.0929525702
 20
-20.4755141155
 10
-10.0940126673
 20
-20.466954325
 10
-10.0953516496
 20
-20.4556564357
 10
-10.0969090847
 20
-20.4416515128
 10
-10.0979714563
 20
-20.4251937181
 10
-10.0988964088
 20
-20.406710362
 10
-10.1000735347
 20
-20.3864176729
 10
-10.1007914232
 20
-20.3644941171
 10
-10.1009852235
 20
-20.3412890996
 10
-10.1013188803
 20
-20.3173117482
 10
-10.1020931525
 20
-20.2930224136
  0
LWPOLYLINE
  5
248
100
AcDbEntity
  8
0
100
AcDbPolyline
 62
7
  6
CONTINUOUS
 90
7
 70
0
 10
2.4557796454
 20
-18.5506784678
 10
2.465328451
 20
-18.5481230795
 10
2.4747569224
 20
-18.5444903015
 10
2.4840650541
 20
-18.5397801307
 10
2.493201287
 20
-18.5337462772
 10
2.5022171701
 20
-18.5266350225
 10
2.5203738788
 20
-18.5116672906
  0
LWPOLYLINE
  5
249
100
AcDbEntity
  8
0
100
AcDbPolyline
 62
7
  6
CONTINUOUS
 90
10
 70
0
 10
1.8851688942
 20
-17.9439297156
 10
1.9164525707
 20
-17.9387241568
 10
1.9476249926
 20
-17.9345372109
 10
1.9786861789
 20
-17.9313688803
 10
2.0096203596
 20
-17.9292127488
 10
2.0404433422
 20
-17.928075237
 10
2.0712025115
 20
-17.9279756031
 10
2.101913675
 20
-17.9289202687
 10
2.1325610626
 20
-17.930902817
 10
2.1631446928
 20
-17.9339232497
  0
LINE
  5
24A
100
AcDbEntity
  8
0
100
AcDbLine
 62
7
  6
CONTINUOUS
 10
0.9025334626
 20
-18.7522613666
 11
0.5628114626
 21
-18.7522613666
  0
LINE
  5
24B
100
AcDbEntity
  8
0
100
AcDbLine
 62
7
  6
CONTINUOUS
 10
1.8969344586
 20
-18.6889716507
 11
2.0871847816
 21
-18.6889716507
  0
LINE
  5
24C
100
AcDbEntity
  8
0
100
AcDbLine
 62
7
  6
CONTINUOUS
 10
2.087949607
 20
-18.4105751981
 11
1.8851688942
 21
-18.4105751981
  0
LINE
  5
24D
100
AcDbEntity
  8
0
100
AcDbLine
 62
7
  6
CONTINUOUS
 10
0.9177794626
 20
-17.6543413666
 11
0.5745254626
 21
-17.6543413666
  0
LINE
  5
24E
100
AcDbEntity
  8
0
100
AcDbLine
 62
7
  6
CONTINUOUS
 10
-0.1733335374
 20
-17.6543413666
 11
-0.5244005374
 21
-17.6543413666
  0
LINE
  5
24F
100
AcDbEntity
  8
0
100
AcDbLine
 62
7
  6
CONTINUOUS
 10
-1.2303095374
 20
-17.6543413666
 11
-1.5848445374
 21
-17.6543413666
  0
LINE
  5
250
100
AcDbEntity
  8
0
100
AcDbLine
 62
7
  6
CONTINUOUS
 10
-2.4158525374
 20
-17.6543413666
 11
-2.7704385374
 21
-17.6543413666
  0
LINE
  5
251
100
AcDbEntity
  8
0
100
AcDbLine
 62
7
  6
CONTINUOUS
 10
-3.4283855374
 20
-17.6543413666
 11
-3.8138385374
 21
-17.6543413666
  0
LINE
  5
252
100
AcDbEntity
  8
0
100
AcDbLine
 62
7
  6
CONTINUOUS
 10
-1.9293465374
 20
-17.6542393666
 11
-2.2841745374
 21
-17.6542393666
  0
LWPOLYLINE
  5
253
100
AcDbEntity
  8
0
100
AcDbPolyline
 62
7
  6
CONTINUOUS
 90
13
 70
0
 10
2.0871847816
 20
-18.6889716507
 10
2.1093011159
 20
-18.6902429677
 10
2.1305346606
 20
-18.6938787664
 10
2.1508854514
 20
-18.6998790383
 10
2.1704367249
 20
-18.7084780795
 10
2.1891053106
 20
-18.7194415716
 10
2.2066416205
 20
-18.7320665798
 10
2.2230549289
 20
-18.7462192473
 10
2.2383359925
 20
-18.7620333966
 10
2.2522074291
 20
-18.7792076069
 10
2.2645767782
 20
-18.7976413905
 10
2.2755365064
 20
-18.8174351949
 10
2.2850866128
 20
-18.8385890001
  0
LWPOLYLINE
  5
254
100
AcDbEntity
  8
0
100
AcDbPolyline
 62
7
  6
CONTINUOUS
 90
25
 70
0
 10
2.1631446928
 20
-17.9339232497
 10
2.1769360999
 20
-17.9359403358
 10
2.1904606374
 20
-17.9386620816
 10
2.2037183118
 20
-17.9420884855
 10
2.2167464283
 20
-17.9462296289
 10
2.2295076942
 20
-17.9510754268
 10
2.2418902184
 20
-17.956595627
 10
2.2539102241
 20
-17.9627922625
 10
2.2655514988
 20
-17.9696632942
 10
2.2766534976
 20
-17.977172359
 10
2.2872073204
 20
-17.9853348016
 10
2.2972218752
 20
-17.9941352682
 10
2.3065633275
 20
-18.0034913463
 10
2.3151940176
 20
-18.0134251465
 10
2.3231516082
 20
-18.0239145473
 10
2.3304152461
 20
-18.0348107878
 10
2.3369833921
 20
-18.0461066399
 10
2.3428575834
 20
-18.0578093222
 10
2.3480215788
 20
-18.0697917435
 10
2.3524876965
 20
-18.0820444701
 10
2.3562436125
 20
-18.094576928
 10
2.3592361201
 20
-18.1072903171
 10
2.3614474802
 20
-18.1201517022
 10
2.3628954223
 20
-18.1331940124
 10
2.3635799411
 20
-18.1464172454
  0
LWPOLYLINE
  5
255
100
AcDbEntity
  8
0
100
AcDbPolyline
 62
7
  6
CONTINUOUS
 90
42
 70
0
 10
-3.4657189537
 20
18.4678605575
 10
-3.4748597763
 20
18.4600040788
 10
-3.4841235237
 20
18.4517366723
 10
-3.4935768194
 20
18.4430873905
 10
-3.5031530334
 20
18.4340271787
 10
-3.5127409019
 20
18.4243964941
 10
-3.52235135
 20
18.4141974728
 10
-3.5319734466
 20
18.4034279736
 10
-3.5414631454
 20
18.3919220341
 10
-3.5508146491
 20
18.3796440158
 10
-3.5600337509
 20
18.3666295483
 10
-3.5689937914
 20
18.3528195694
 10
-3.5776975468
 20
18.3382172111
 10
-3.5861422407
 20
18.3228193302
 10
-3.5941928883
 20
18.30655745
 10
-3.6018765709
 20
18.2894065218
 10
-3.609166212
 20
18.2713915809
 10
-3.6158455948
 20
18.2525192748
 10
-3.6219148613
 20
18.2327931163
 10
-3.6273738837
 20
18.2122095789
 10
-3.6320060469
 20
18.1907647516
 10
-3.6358158149
 20
18.1685084316
 10
-3.6387987479
 20
18.1453908094
 10
-3.6407248838
 20
18.121258563
 10
-3.6416611836
 20
18.0960758432
 10
-3.6415407219
 20
18.0698784874
 10
-3.6399327186
 20
18.0426207044
 10
-3.6369490231
 20
18.0141331028
 10
-3.6324778421
 20
17.9845850689
 10
-3.6257529496
 20
17.954438991
 10
-3.6166067878
 20
17.923432349
 10
-3.6052069967
 20
17.8918276898
 10
-3.5912901473
 20
17.8608750297
 10
-3.5747070218
 20
17.8306978367
 10
-3.5556068861
 20
17.801172717
 10
-3.5341740074
 20
17.7731794155
 10
-3.5101748772
 20
17.7466675495
 10
-3.4838429938
 20
17.7216875954
 10
-3.4560630874
 20
17.699270582
 10
-3.4271300284
 20
17.6797602035
 10
-3.3967488531
 20
17.6628128306
 10
-3.3649195114
 20
17.6484284939
  0
LWPOLYLINE
  5
256
100
AcDbEntity
  8
0
100
AcDbPolyline
 62
7
  6
CONTINUOUS
 90
13
 70
0
 10
2.4195744366
 20
-17.6922352271
 10
2.3611068323
 20
-17.6739846502
 10
2.299757708
 20
-17.6589673087
 10
2.2355269184
 20
-17.6471832929
 10
2.1682485839
 20
-17.6387017649
 10
2.0980882606
 20
-17.6334537464
 10
2.0255429597
 20
-17.6312320991
 10
1.9506907683
 20
-17.6322213052
 10
1.8734532622
 20
-17.6362370231
 10
1.7940927343
 20
-17.6425188575
 10
1.7126965402
 20
-17.6508133877
 10
1.6291770527
 20
-17.6613741728
 10
1.5435341265
 20
-17.6742012844
  0
LINE
  5
257
100
AcDbEntity
  8
0
100
AcDbLine
 62
7
  6
CONTINUOUS
 10
9.5309173011
 20
-13.1957227632
 11
8.8773274626
 21
-13.2014265553
  0
LINE
  5
258
100
AcDbEntity
  8
0
100
AcDbLine
 62
7
  6
CONTINUOUS
 10
-10.4226725374
 20
-13.2101220951
 11
-9.8226725374
 21
-13.2070990194
  0
LINE
  5
259
100
AcDbEntity
  8
0
100
AcDbLine
 62
7
  6
CONTINUOUS
 10
-11.5333936551
 20
-13.2219033666
 11
-10.0973833373
 21
-13.2219033666
  0
LINE
  5
25A
100
AcDbEntity
  8
0
100
AcDbLine
 62
7
  6
CONTINUOUS
 10
9.1520382633
 20
-13.2219033666
 11
10.5880485802
 21
-13.2219033666
  0
LINE
  5
25B
100
AcDbEntity
  8
0
100
AcDbLine
 62
7
  6
CONTINUOUS
 10
9.8614465024
 20
-13.1957227632
 11
9.5309173011
 21
-13.1957227632
  0
LINE
  5
25C
100
AcDbEntity
  8
0
100
AcDbLine
 62
7
  6
CONTINUOUS
 10
-10.4762623759
 20
-13.1957227632
 11
-10.8067915772
 21
-13.1957227632
  0
LINE
  5
25D
100
AcDbEntity
  8
0
100
AcDbLine
 62
7
  6
CONTINUOUS
 10
8.8773274626
 20
-13.2070990194
 11
9.4773274626
 21
-13.2101220951
  0
LINE
  5
25E
100
AcDbEntity
  8
0
100
AcDbLine
 62
7
  6
CONTINUOUS
 10
-9.8226725374
 20
-13.2014265553
 11
-10.4762623759
 21
-13.1957227632
  0
LWPOLYLINE
  5
25F
100
AcDbEntity
  8
0
100
AcDbPolyline
 62
253
  6
CONTINUOUS
 90
13
 70
0
 10
-10.2893791604
 20
-20.2844313065
 10
-10.2876359762
 20
-20.310478186
 10
-10.2825076397
 20
-20.3360801721
 10
-10.2740817453
 20
-20.3607999704
 10
-10.2625022115
 20
-20.3842153548
 10
-10.2479668224
 20
-20.4059263791
 10
-10.2307238493
 20
-20.4255622084
 10
-10.2110678108
 20
-20.4427874532
 10
-10.1893344416
 20
-20.4573078979
 10
-10.165894958
 20
-20.4688755263
 10
-10.1411497181
 20
-20.4772927576
 10
-10.1155213824
 20
-20.4824158214
 10
-10.0894476954
 20
-20.4841572134
  0
LINE
  5
260
100
AcDbEntity
  8
0
100
AcDbLine
 62
7
  6
CONTINUOUS
 10
-11.5333936551
 20
21.7994847294
 11
-11.5333936551
 21
4.1780966334
  0
LINE
  5
261
100
AcDbEntity
  8
0
100
AcDbLine
 62
7
  6
CONTINUOUS
 10
-11.5333936551
 20
-21.8432914625
 11
-11.5333936551
 21
-4.2219033666
  0
LINE
  5
262
100
AcDbEntity
  8
0
100
AcDbLine
 62
7
  6
CONTINUOUS
 10
-11.4731660354
 20
-0.7418799803
 11
-11.4731660354
 21
-4.2219033666
  0
LINE
  5
263
100
AcDbEntity
  8
0
100
AcDbLine
 62
7
  6
CONTINUOUS
 10
-11.4731660354
 20
0.6980732471
 11
-11.4731660354
 21
4.1780966334
  0
LINE
  5
264
100
AcDbEntity
  8
0
100
AcDbLine
 62
253
  6
CONTINUOUS
 10
-11.405969298
 20
13.1568781133
 11
-11.405969298
 21
8.9993151535
  0
LINE
  5
265
100
AcDbEntity
  8
0
100
AcDbLine
 62
253
  6
CONTINUOUS
 10
-11.405969298
 20
-9.0431218867
 11
-11.405969298
 21
-13.2006848465
  0
LINE
  5
266
100
AcDbEntity
  8
0
100
AcDbLine
 62
253
  6
CONTINUOUS
 10
-10.8067915772
 20
13.15191603
 11
-10.8067915772
 21
9.0042772368
  0
LINE
  5
267
100
AcDbEntity
  8
0
100
AcDbLine
 62
253
  6
CONTINUOUS
 10
-10.8067915772
 20
-9.04808397
 11
-10.8067915772
 21
-13.1957227632
  0
LWPOLYLINE
  5
268
100
AcDbEntity
  8
0
100
AcDbPolyline
 62
253
  6
CONTINUOUS
 90
3
 70
0
 10
-10.0992419945
 20
20.3627806459
 10
-10.0979687107
 20
20.3813874586
 10
-10.0955180421
 20
20.4117035609
  0
LWPOLYLINE
  5
269
100
AcDbEntity
  8
0
100
AcDbPolyline
 62
253
  6
CONTINUOUS
 90
5
 70
0
 10
-10.0955180421
 20
20.4117035609
 10
-10.0940106223
 20
20.4231478147
 10
-10.0921053769
 20
20.4318288393
 10
-10.0904728193
 20
20.4375829028
 10
-10.0894476948
 20
20.4403504802
  0
LINE
  5
26A
100
AcDbEntity
  8
0
100
AcDbLine
 62
7
  6
CONTINUOUS
 10
-11.5333936551
 20
-13.2219033666
 11
-11.405969298
 21
-13.2006848465
  0
LINE
  5
26B
100
AcDbEntity
  8
0
100
AcDbLine
 62
7
  6
CONTINUOUS
 10
10.5880485802
 20
-9.0219033666
 11
10.4606242232
 21
-9.0431218867
  0
LINE
  5
26C
100
AcDbEntity
  8
0
100
AcDbLine
 62
7
  6
CONTINUOUS
 10
10.5880485802
 20
-13.2219033666
 11
10.4606242232
 21
-13.2006848465
  0
LINE
  5
26D
100
AcDbEntity
  8
0
100
AcDbLine
 62
7
  6
CONTINUOUS
 10
-11.5333936551
 20
-9.0219033666
 11
-11.405969298
 21
-9.0431218867
  0
LWPOLYLINE
  5
26E
100
AcDbEntity
  8
0
100
AcDbPolyline
 62
253
  6
CONTINUOUS
 90
13
 70
0
 10
-10.2780263045
 20
1.7813494507
 10
-10.2762923178
 20
1.7551603374
 10
-10.2711426909
 20
1.7294169356
 10
-10.2626640129
 20
1.704563325
 10
-10.2509991687
 20
1.6810266238
 10
-10.2363480497
 20
1.6592161827
 10
-10.2189668305
 20
1.6395147586
 10
-10.1991186591
 20
1.6222335362
 10
-10.1771762586
 20
1.607708365
 10
-10.1536566835
 20
1.5962460545
 10
-10.1290357001
 20
1.5880029849
 10
-10.1037040008
 20
1.5830388448
 10
-10.0780948395
 20
1.5813799117
  0
LINE
  5
26F
100
AcDbEntity
  8
0
100
AcDbLine
 62
253
  6
CONTINUOUS
 10
-10.2893783971
 20
20.2406230457
 11
-10.282790937
 21
13.1780966334
  0
LINE
  5
270
100
AcDbEntity
  8
0
100
AcDbLine
 62
253
  6
CONTINUOUS
 10
-10.1022076971
 20
20.2742173744
 11
-10.0973833381
 21
13.1780966334
  0
LINE
  5
271
100
AcDbEntity
  8
0
100
AcDbLine
 62
253
  6
CONTINUOUS
 10
-10.2801924757
 20
8.9780966334
 11
-10.2780212462
 21
1.7813528224
  0
LINE
  5
272
100
AcDbEntity
  8
0
100
AcDbLine
 62
7
  6
CONTINUOUS
 10
-10.4762623759
 20
-9.04808397
 11
-10.4762623759
 21
-13.1957227632
  0
LINE
  5
273
100
AcDbEntity
  8
0
100
AcDbLine
 62
7
  6
CONTINUOUS
 10
-10.4762623759
 20
9.0042772368
 11
-10.4762623759
 21
13.15191603
  0
LINE
  5
274
100
AcDbEntity
  8
0
100
AcDbLine
 62
7
  6
CONTINUOUS
 10
-10.4330165833
 20
-4.2219033666
 11
-10.4330165833
 21
-9.0219033666
  0
LINE
  5
275
100
AcDbEntity
  8
0
100
AcDbLine
 62
7
  6
CONTINUOUS
 10
-10.4330165833
 20
-13.2219033666
 11
-10.4330165833
 21
-20.5719032725
  0
LINE
  5
276
100
AcDbEntity
  8
0
100
AcDbLine
 62
7
  6
CONTINUOUS
 10
-10.4330165833
 20
4.1780966334
 11
-10.4330165833
 21
8.9780966334
  0
LINE
  5
277
100
AcDbEntity
  8
0
100
AcDbLine
 62
7
  6
CONTINUOUS
 10
-10.4330165833
 20
13.1780966334
 11
-10.4330165833
 21
20.5280965394
  0
LINE
  5
278
100
AcDbEntity
  8
0
100
AcDbLine
 62
7
  6
CONTINUOUS
 10
-10.4226725374
 20
8.9898779049
 11
-10.4226725374
 21
8.9780966334
  0
LINE
  5
279
100
AcDbEntity
  8
0
100
AcDbLine
 62
7
  6
CONTINUOUS
 10
-10.4226725374
 20
-9.0219033666
 11
-10.4226725374
 21
-9.0336846381
  0
LINE
  5
27A
100
AcDbEntity
  8
0
100
AcDbLine
 62
7
  6
CONTINUOUS
 10
-10.4226725374
 20
-13.2219033666
 11
-10.4226725374
 21
-13.2101220951
  0
LINE
  5
27B
100
AcDbEntity
  8
0
100
AcDbLine
 62
7
  6
CONTINUOUS
 10
-10.4226725374
 20
13.1663153619
 11
-10.4226725374
 21
13.1780966334
  0
LINE
  5
27C
100
AcDbEntity
  8
0
100
AcDbLine
 62
7
  6
CONTINUOUS
 10
-10.3727889637
 20
-1.7619890975
 11
-10.3727889637
 21
-4.2219033666
  0
LINE
  5
27D
100
AcDbEntity
  8
0
100
AcDbLine
 62
7
  6
CONTINUOUS
 10
-10.3727889637
 20
1.7181823643
 11
-10.3727889637
 21
4.1780966334
  0
LINE
  5
27E
100
AcDbEntity
  8
0
100
AcDbLine
 62
253
  6
CONTINUOUS
 10
-10.0955280038
 20
8.9780966334
 11
-10.0939843436
 21
1.7821076417
  0
LINE
  5
27F
100
AcDbEntity
  8
0
100
AcDbLine
 62
7
  6
CONTINUOUS
 10
-9.8226725374
 20
-9.0423801778
 11
-9.8226725374
 21
-13.2014265553
  0
LINE
  5
280
100
AcDbEntity
  8
0
100
AcDbLine
 62
7
  6
CONTINUOUS
 10
-9.8226725374
 20
8.9985734447
 11
-9.8226725374
 21
13.1576198222
  0
LINE
  5
281
100
AcDbEntity
  8
0
100
AcDbLine
 62
7
  6
CONTINUOUS
 10
-8.9676407953
 20
-0.2419751625
 11
-8.9676407953
 21
-1.5620500159
  0
LINE
  5
282
100
AcDbEntity
  8
0
100
AcDbLine
 62
7
  6
CONTINUOUS
 10
-8.9676407953
 20
0.1981684293
 11
-8.9676407953
 21
1.5182432828
  0
LINE
  5
283
100
AcDbEntity
  8
0
100
AcDbLine
 62
7
  6
CONTINUOUS
 10
-8.8984825374
 20
-3.0839203666
 11
-8.8984825374
 21
-4.0836473666
  0
LINE
  5
284
100
AcDbEntity
  8
0
100
AcDbLine
 62
7
  6
CONTINUOUS
 10
-8.7675315374
 20
-4.0836473666
 11
-8.7675315374
 21
-3.2456883666
  0
LINE
  5
285
100
AcDbEntity
  8
0
100
AcDbLine
 62
7
  6
CONTINUOUS
 10
-8.7386979412
 20
22.2994849645
 11
-8.7386979412
 21
20.7280966334
  0
LINE
  5
286
100
AcDbEntity
  8
0
100
AcDbLine
 62
7
  6
CONTINUOUS
 10
-8.7386979412
 20
-22.3432916977
 11
-8.7386979412
 21
-20.7719033666
  0
LINE
  5
287
100
AcDbEntity
  8
0
100
AcDbLine
 62
7
  6
CONTINUOUS
 10
-8.7226725374
 20
-0.2664103923
 11
-8.7226725374
 21
-1.6109241977
  0
LINE
  5
288
100
AcDbEntity
  8
0
100
AcDbLine
 62
7
  6
CONTINUOUS
 10
-8.7226725374
 20
0.2226036591
 11
-8.7226725374
 21
1.5671174646
  0
LINE
  5
289
100
AcDbEntity
  8
0
100
AcDbLine
 62
7
  6
CONTINUOUS
 10
-8.6923895374
 20
-5.9593503666
 11
-8.6923895374
 21
-6.9598863666
  0
LINE
  5
28A
100
AcDbEntity
  8
0
100
AcDbLine
 62
253
  6
CONTINUOUS
 10
-10.0955280138
 20
-9.0219033666
 11
-10.0939806972
 21
-1.8259268567
  0
LINE
  5
28B
100
AcDbEntity
  8
0
100
AcDbLine
 62
253
  6
CONTINUOUS
 10
-10.2801924757
 20
-9.0219033666
 11
-10.2780208619
 21
-1.8251598117
  0
LINE
  5
28C
100
AcDbEntity
  8
0
100
AcDbLine
 62
253
  6
CONTINUOUS
 10
-10.1020946317
 20
-20.2930311524
 11
-10.0973833373
 21
-13.2219033666
  0
LINE
  5
28D
100
AcDbEntity
  8
0
100
AcDbLine
 62
253
  6
CONTINUOUS
 10
-10.2893784024
 20
-20.2844297894
 11
-10.282790937
 21
-13.2219033666
  0
LWPOLYLINE
  5
28E
100
AcDbEntity
  8
0
100
AcDbPolyline
 62
253
  6
CONTINUOUS
 90
3
 70
0
 10
-10.1022076971
 20
20.2742173744
 10
-10.1016789661
 20
20.2980207909
 10
-10.0992419945
 20
20.3627806459
  0
LWPOLYLINE
  5
28F
100
AcDbEntity
  8
0
100
AcDbPolyline
 62
253
  6
CONTINUOUS
 90
3
 70
0
 10
-10.0939813832
 20
-1.8259194675
 10
-10.0932152812
 20
-1.8002143253
 10
-10.0926809887
 20
-1.7499539256
  0
LWPOLYLINE
  5
290
100
AcDbEntity
  8
0
100
AcDbPolyline
 62
253
  6
CONTINUOUS
 90
10
 70
0
 10
-10.0926809887
 20
-1.7499539256
 10
-10.0918190234
 20
-1.7265542657
 10
-10.0903898628
 20
-1.7049166811
 10
-10.0892125903
 20
-1.6852427488
 10
-10.0878190914
 20
-1.6678205659
 10
-10.0858276762
 20
-1.6531414549
 10
-10.0840952613
 20
-1.641470159
 10
-10.0826715403
 20
-1.6328590671
 10
-10.080798126
 20
-1.6273776773
 10
-10.0780948389
 20
-1.6251866448
  0
LINE
  5
291
100
AcDbEntity
  8
0
100
AcDbLine
 62
7
  6
CONTINUOUS
 10
-9.8226725374
 20
-9.0423801778
 11
-10.4762623759
 21
-9.04808397
  0
LINE
  5
292
100
AcDbEntity
  8
0
100
AcDbLine
 62
7
  6
CONTINUOUS
 10
8.8773274626
 20
-9.0367077138
 11
9.4773274626
 21
-9.0336846381
  0
LINE
  5
293
100
AcDbEntity
  8
0
100
AcDbLine
 62
7
  6
CONTINUOUS
 10
9.8614465024
 20
-9.04808397
 11
9.5309173011
 21
-9.04808397
  0
LINE
  5
294
100
AcDbEntity
  8
0
100
AcDbLine
 62
7
  6
CONTINUOUS
 10
-10.4762623759
 20
-9.04808397
 11
-10.8067915772
 21
-9.04808397
  0
LINE
  5
295
100
AcDbEntity
  8
0
100
AcDbLine
 62
7
  6
CONTINUOUS
 10
9.150182929
 20
-9.0219033666
 11
10.5880485802
 21
-9.0219033666
  0
LINE
  5
296
100
AcDbEntity
  8
0
100
AcDbLine
 62
7
  6
CONTINUOUS
 10
-10.0955280138
 20
-9.0219033666
 11
-11.5333936551
 21
-9.0219033666
  0
LINE
  5
297
100
AcDbEntity
  8
0
100
AcDbLine
 62
7
  6
CONTINUOUS
 10
-10.4226725374
 20
-9.0336846381
 11
-9.8226725374
 21
-9.0367077138
  0
LINE
  5
298
100
AcDbEntity
  8
0
100
AcDbLine
 62
7
  6
CONTINUOUS
 10
9.5309173011
 20
-9.04808397
 11
8.8773274626
 21
-9.0423801778
  0
LINE
  5
299
100
AcDbEntity
  8
0
100
AcDbLine
 62
7
  6
CONTINUOUS
 10
-6.6697215374
 20
-6.9598863666
 11
-7.0319205374
 21
-5.9593503666
  0
LINE
  5
29A
100
AcDbEntity
  8
0
100
AcDbLine
 62
7
  6
CONTINUOUS
 10
-6.9162555374
 20
-6.6687033666
 11
-6.8173345374
 21
-6.9598863666
  0
LINE
  5
29B
100
AcDbEntity
  8
0
100
AcDbLine
 62
7
  6
CONTINUOUS
 10
-8.4179065374
 20
-3.9333593666
 11
-8.7048455374
 21
-3.0839203666
  0
LINE
  5
29C
100
AcDbEntity
  8
0
100
AcDbLine
 62
7
  6
CONTINUOUS
 10
-8.7675315374
 20
-3.2456883666
 11
-8.4861355374
 21
-4.0836473666
  0
LINE
  5
29D
100
AcDbEntity
  8
0
100
AcDbLine
 62
7
  6
CONTINUOUS
 10
-7.1140425374
 20
-6.1050563666
 11
-6.9650285374
 21
-6.5489953666
  0
LINE
  5
29E
100
AcDbEntity
  8
0
100
AcDbLine
 62
7
  6
CONTINUOUS
 10
-3.8138385374
 20
-17.6543413666
 11
-3.2749485374
 21
-19.3542043666
  0
LINE
  5
29F
100
AcDbEntity
  8
0
100
AcDbLine
 62
7
  6
CONTINUOUS
 10
-8.5572325374
 20
-6.9598863666
 11
-8.5572325374
 21
-5.9593503666
  0
LINE
  5
2A0
100
AcDbEntity
  8
0
100
AcDbLine
 62
7
  6
CONTINUOUS
 10
-8.4122885374
 20
-5.9593503666
 11
-8.4122885374
 21
-6.0790583666
  0
LINE
  5
2A1
100
AcDbEntity
  8
0
100
AcDbLine
 62
7
  6
CONTINUOUS
 10
-8.0737885374
 20
-6.0790583666
 11
-8.0737885374
 21
-6.9598863666
  0
LINE
  5
2A2
100
AcDbEntity
  8
0
100
AcDbLine
 62
7
  6
CONTINUOUS
 10
-8.0710385374
 20
-3.2440713666
 11
-8.0710385374
 21
-4.0836473666
  0
LINE
  5
2A3
100
AcDbEntity
  8
0
100
AcDbLine
 62
7
  6
CONTINUOUS
 10
-7.9400865374
 20
-4.0836473666
 11
-7.9400865374
 21
-3.0839203666
  0
LINE
  5
2A4
100
AcDbEntity
  8
0
100
AcDbLine
 62
7
  6
CONTINUOUS
 10
-7.9387115374
 20
-6.9598863666
 11
-7.9387115374
 21
-6.0790583666
  0
LINE
  5
2A5
100
AcDbEntity
  8
0
100
AcDbLine
 62
253
  6
CONTINUOUS
 10
-7.9304075643
 20
-22.2699208067
 11
-7.9304075643
 21
-20.6985324756
  0
LINE
  5
2A6
100
AcDbEntity
  8
0
100
AcDbLine
 62
253
  6
CONTINUOUS
 10
-7.9304075643
 20
20.6547257424
 11
-7.9304075643
 21
22.2261140735
  0
LINE
  5
2A7
100
AcDbEntity
  8
0
100
AcDbLine
 62
253
  6
CONTINUOUS
 10
-7.7572024836
 20
-22.2646800287
 11
-7.7572024836
 21
-20.6932916977
  0
LINE
  5
2A8
100
AcDbEntity
  8
0
100
AcDbLine
 62
253
  6
CONTINUOUS
 10
-7.7572024836
 20
20.6494849645
 11
-7.7572024836
 21
22.2208732956
  0
LINE
  5
2A9
100
AcDbEntity
  8
0
100
AcDbLine
 62
7
  6
CONTINUOUS
 10
-7.6002115374
 20
-6.0790583666
 11
-7.6002115374
 21
-5.9593503666
  0
LINE
  5
2AA
100
AcDbEntity
  8
0
100
AcDbLine
 62
7
  6
CONTINUOUS
 10
-7.5577475374
 20
-4.5220393666
 11
-7.5577475374
 21
-5.5217673666
  0
LINE
  5
2AB
100
AcDbEntity
  8
0
100
AcDbLine
 62
7
  6
CONTINUOUS
 10
-7.4225905374
 20
-5.5217673666
 11
-7.4225905374
 21
-4.5220393666
  0
LINE
  5
2AC
100
AcDbEntity
  8
0
100
AcDbLine
 62
7
  6
CONTINUOUS
 10
-7.1914235374
 20
-4.5220393666
 11
-7.1914235374
 21
-5.5217673666
  0
LINE
  5
2AD
100
AcDbEntity
  8
0
100
AcDbLine
 62
7
  6
CONTINUOUS
 10
-7.0603915374
 20
-5.5217673666
 11
-7.0603915374
 21
-4.7093643666
  0
LINE
  5
2AE
100
AcDbEntity
  8
0
100
AcDbLine
 62
7
  6
CONTINUOUS
 10
-6.7978415374
 20
-3.0839203666
 11
-6.7978415374
 21
-4.0836473666
  0
LINE
  5
2AF
100
AcDbEntity
  8
0
100
AcDbLine
 62
7
  6
CONTINUOUS
 10
-6.6627655374
 20
-3.9679833666
 11
-6.6627655374
 21
-3.1995843666
  0
LINE
  5
2B0
100
AcDbEntity
  8
0
100
AcDbLine
 62
7
  6
CONTINUOUS
 10
-6.5457255374
 20
-5.9593503666
 11
-6.5457255374
 21
-6.9598863666
  0
LINE
  5
2B1
100
AcDbEntity
  8
0
100
AcDbLine
 62
7
  6
CONTINUOUS
 10
-1.3376635374
 20
19.3103976334
 11
-1.4355745374
 21
18.9710446334
  0
LINE
  5
2B2
100
AcDbEntity
  8
0
100
AcDbLine
 62
7
  6
CONTINUOUS
 10
-1.5198705374
 20
17.6105346334
 11
-0.9866855374
 21
19.3103976334
  0
LINE
  5
2B3
100
AcDbEntity
  8
0
100
AcDbLine
 62
7
  6
CONTINUOUS
 10
-8.3524335374
 20
-4.0836473666
 11
-8.0710385374
 21
-3.2440713666
  0
LINE
  5
2B4
100
AcDbEntity
  8
0
100
AcDbLine
 62
7
  6
CONTINUOUS
 10
-8.1323485374
 20
-3.0839203666
 11
-8.4179065374
 21
-3.9333593666
  0
LINE
  5
2B5
100
AcDbEntity
  8
0
100
AcDbLine
 62
7
  6
CONTINUOUS
 10
-0.4209445374
 20
17.6105346334
 11
-0.0661165374
 21
18.5543036334
  0
LINE
  5
2B6
100
AcDbEntity
  8
0
100
AcDbLine
 62
7
  6
CONTINUOUS
 10
-0.0890605374
 20
19.3103976334
 11
-0.5109515374
 21
18.2050456334
  0
LINE
  5
2B7
100
AcDbEntity
  8
0
100
AcDbLine
 62
253
  6
CONTINUOUS
 10
-10.2780212462
 20
1.7813528224
 11
-10.3727889637
 21
1.7181823643
  0
LINE
  5
2B8
100
AcDbEntity
  8
0
100
AcDbLine
 62
253
  6
CONTINUOUS
 10
-10.0781010268
 20
1.5813757873
 11
-10.1728118067
 21
1.5182432828
  0
LINE
  5
2B9
100
AcDbEntity
  8
0
100
AcDbLine
 62
7
  6
CONTINUOUS
 10
-8.6923895374
 20
-6.9598863666
 11
-8.5572325374
 21
-6.9598863666
  0
LINE
  5
2BA
100
AcDbEntity
  8
0
100
AcDbLine
 62
7
  6
CONTINUOUS
 10
-8.0737885374
 20
-6.9598863666
 11
-7.9387115374
 21
-6.9598863666
  0
LINE
  5
2BB
100
AcDbEntity
  8
0
100
AcDbLine
 62
7
  6
CONTINUOUS
 10
-7.5612255374
 20
-6.9598863666
 11
-7.4219435374
 21
-6.9598863666
  0
LINE
  5
2BC
100
AcDbEntity
  8
0
100
AcDbLine
 62
7
  6
CONTINUOUS
 10
-6.5457255374
 20
-6.9598863666
 11
-5.9035865374
 21
-6.9598863666
  0
LINE
  5
2BD
100
AcDbEntity
  8
0
100
AcDbLine
 62
7
  6
CONTINUOUS
 10
-6.8173345374
 20
-6.9598863666
 11
-6.6697215374
 21
-6.9598863666
  0
LINE
  5
2BE
100
AcDbEntity
  8
0
100
AcDbLine
 62
7
  6
CONTINUOUS
 10
-5.6890015374
 20
-6.9598863666
 11
-5.5539255374
 21
-6.9598863666
  0
LINE
  5
2BF
100
AcDbEntity
  8
0
100
AcDbLine
 62
7
  6
CONTINUOUS
 10
-5.9035865374
 20
-6.8401773666
 11
-6.4106495374
 21
-6.8401773666
  0
LINE
  5
2C0
100
AcDbEntity
  8
0
100
AcDbLine
 62
7
  6
CONTINUOUS
 10
-7.3174405374
 20
-6.6687033666
 11
-6.9162555374
 21
-6.6687033666
  0
LINE
  5
2C1
100
AcDbEntity
  8
0
100
AcDbLine
 62
7
  6
CONTINUOUS
 10
-6.9650285374
 20
-6.5489953666
 11
-7.2757045374
 21
-6.5489953666
  0
LINE
  5
2C2
100
AcDbEntity
  8
0
100
AcDbLine
 62
253
  6
CONTINUOUS
 10
-10.3727889637
 20
-1.7619890975
 11
-10.2780208619
 21
-1.8251598117
  0
LINE
  5
2C3
100
AcDbEntity
  8
0
100
AcDbLine
 62
253
  6
CONTINUOUS
 10
-10.1728118067
 20
-1.5620500159
 11
-10.0780855865
 21
-1.6251928127
  0
LINE
  5
2C4
100
AcDbEntity
  8
0
100
AcDbLine
 62
7
  6
CONTINUOUS
 10
-6.0665685374
 20
-5.9593503666
 11
-5.6890015374
 21
-6.5570833666
  0
LINE
  5
2C5
100
AcDbEntity
  8
0
100
AcDbLine
 62
7
  6
CONTINUOUS
 10
-7.0603915374
 20
-4.7093643666
 11
-6.5492035374
 21
-5.5217673666
  0
LINE
  5
2C6
100
AcDbEntity
  8
0
100
AcDbLine
 62
7
  6
CONTINUOUS
 10
-6.5282545374
 20
-5.3338323666
 11
-7.0311925374
 21
-4.5220393666
  0
LINE
  5
2C7
100
AcDbEntity
  8
0
100
AcDbLine
 62
7
  6
CONTINUOUS
 10
-5.6221915374
 20
-6.4398013666
 11
-5.9091675374
 21
-5.9593503666
  0
LINE
  5
2C8
100
AcDbEntity
  8
0
100
AcDbLine
 62
7
  6
CONTINUOUS
 10
-1.3223045374
 20
-18.2442253666
 11
-0.9060485374
 21
-19.3542043666
  0
LINE
  5
2C9
100
AcDbEntity
  8
0
100
AcDbLine
 62
7
  6
CONTINUOUS
 10
-0.8792285374
 20
-18.5981103666
 11
-1.2303095374
 21
-17.6543413666
  0
LINE
  5
2CA
100
AcDbEntity
  8
0
100
AcDbLine
 62
7
  6
CONTINUOUS
 10
-6.9287925374
 20
-4.0836473666
 11
-7.2909915374
 21
-3.0839203666
  0
LINE
  5
2CB
100
AcDbEntity
  8
0
100
AcDbLine
 62
7
  6
CONTINUOUS
 10
-7.1753275374
 20
-3.7924653666
 11
-7.0764065374
 21
-4.0836473666
  0
LINE
  5
2CC
100
AcDbEntity
  8
0
100
AcDbLine
 62
7
  6
CONTINUOUS
 10
-7.3731145374
 20
-3.2288163666
 11
-7.2241005374
 21
-3.6727563666
  0
LINE
  5
2CD
100
AcDbEntity
  8
0
100
AcDbLine
 62
7
  6
CONTINUOUS
 10
-3.1043605374
 20
-18.8244093666
 11
-3.4283855374
 21
-17.6543413666
  0
LINE
  5
2CE
100
AcDbEntity
  8
0
100
AcDbLine
 62
7
  6
CONTINUOUS
 10
-6.5282545374
 20
-4.5220393666
 11
-6.5282545374
 21
-5.3338323666
  0
LINE
  5
2CF
100
AcDbEntity
  8
0
100
AcDbLine
 62
7
  6
CONTINUOUS
 10
-6.4106495374
 20
-6.8401773666
 11
-6.4106495374
 21
-5.9593503666
  0
LINE
  5
2D0
100
AcDbEntity
  8
0
100
AcDbLine
 62
7
  6
CONTINUOUS
 10
-6.3973845374
 20
-5.5217673666
 11
-6.3973845374
 21
-4.5220393666
  0
LINE
  5
2D1
100
AcDbEntity
  8
0
100
AcDbLine
 62
7
  6
CONTINUOUS
 10
-5.9035865374
 20
-6.9598863666
 11
-5.9035865374
 21
-6.8401773666
  0
LINE
  5
2D2
100
AcDbEntity
  8
0
100
AcDbLine
 62
7
  6
CONTINUOUS
 10
-5.7851725374
 20
-3.0839203666
 11
-5.7851725374
 21
-4.0836473666
  0
LINE
  5
2D3
100
AcDbEntity
  8
0
100
AcDbLine
 62
7
  6
CONTINUOUS
 10
-5.6890015374
 20
-6.5570833666
 11
-5.6890015374
 21
-6.9598863666
  0
LINE
  5
2D4
100
AcDbEntity
  8
0
100
AcDbLine
 62
7
  6
CONTINUOUS
 10
-5.6500155374
 20
-3.9639393666
 11
-5.6500155374
 21
-3.6298883666
  0
LINE
  5
2D5
100
AcDbEntity
  8
0
100
AcDbLine
 62
7
  6
CONTINUOUS
 10
-5.6500155374
 20
-3.5101793666
 11
-5.6500155374
 21
-3.2036293666
  0
LINE
  5
2D6
100
AcDbEntity
  8
0
100
AcDbLine
 62
7
  6
CONTINUOUS
 10
-5.5539255374
 20
-6.9598863666
 11
-5.5539255374
 21
-6.5570833666
  0
LINE
  5
2D7
100
AcDbEntity
  8
0
100
AcDbLine
 62
7
  6
CONTINUOUS
 10
-5.1025915374
 20
-3.6298883666
 11
-5.1025915374
 21
-3.5101793666
  0
LINE
  5
2D8
100
AcDbEntity
  8
0
100
AcDbLine
 62
7
  6
CONTINUOUS
 10
-5.0566495374
 20
-3.2036293666
 11
-5.0566495374
 21
-3.0839203666
  0
LINE
  5
2D9
100
AcDbEntity
  8
0
100
AcDbLine
 62
7
  6
CONTINUOUS
 10
-5.0468625374
 20
-4.0836473666
 11
-5.0468625374
 21
-3.9639393666
  0
LWPOLYLINE
  5
2DA
100
AcDbEntity
  8
0
100
AcDbPolyline
 62
7
  6
CONTINUOUS
 90
25
 70
0
 10
-5.9722758421
 20
-3.5837865801
 10
-5.9721616671
 20
-3.548997758
 10
-5.9737363858
 20
-3.5150980159
 10
-5.9769999845
 20
-3.4820873482
 10
-5.9820122192
 20
-3.4499666352
 10
-5.9887133025
 20
-3.4187349871
 10
-5.996923906
 20
-3.3883897445
 10
-6.0065438661
 20
-3.3588620609
 10
-6.0176733125
 20
-3.3302207778
 10
-6.0304333534
 20
-3.3026697701
 10
-6.0448470867
 20
-3.2761510167
 10
-6.0608913694
 20
-3.2507225372
 10
-6.0786179432
 20
-3.2267622698
 10
-6.0981006678
 20
-3.2042470621
 10
-6.1192656275
 20
-3.1832000717
 10
-6.1419428988
 20
-3.1640687067
 10
-6.1662833846
 20
-3.1469289389
 10
-6.1921361243
 20
-3.1317048108
 10
-6.2188784123
 20
-3.1186158408
 10
-6.2464595337
 20
-3.1077885222
 10
-6.2749301711
 20
-3.099096382
 10
-6.3038197354
 20
-3.0923794906
 10
-6.3329713639
 20
-3.0875845438
 10
-6.3625419102
 20
-3.0847648646
 10
-6.3925313697
 20
-3.0839204627
  0
LWPOLYLINE
  5
2DB
100
AcDbEntity
  8
0
100
AcDbPolyline
 62
7
  6
CONTINUOUS
 90
25
 70
0
 10
-6.1109166787
 20
-3.5837928096
 10
-6.1115753631
 20
-3.6109746526
 10
-6.1130345343
 20
-3.6373685511
 10
-6.1152941901
 20
-3.6629745093
 10
-6.1182488758
 20
-3.6877692136
 10
-6.1220040402
 20
-3.7117759852
 10
-6.1268760366
 20
-3.7350647815
 10
-6.1329179705
 20
-3.7577013675
 10
-6.140076728
 20
-3.7796199879
 10
-6.1485093311
 20
-3.8006933207
 10
-6.1582652289
 20
-3.8209431727
 10
-6.1692949555
 20
-3.8403477472
 10
-6.181607157
 20
-3.8587143171
 10
-6.195207004
 20
-3.8761280626
 10
-6.2100892999
 20
-3.8925038121
 10
-6.2262471346
 20
-3.9073933098
 10
-6.2438497157
 20
-3.9207395725
 10
-6.2627277959
 20
-3.9325995889
 10
-6.2823667829
 20
-3.9426960576
 10
-6.3027453369
 20
-3.9508514413
 10
-6.3238847629
 20
-3.9572432737
 10
-6.345334446
 20
-3.9621268558
 10
-6.3669441777
 20
-3.965587285
 10
-6.3888641479
 20
-3.9675394567
 10
-6.4110943465
 20
-3.9679833666
  0
LINE
  5
2DC
100
AcDbEntity
  8
0
100
AcDbLine
 62
7
  6
CONTINUOUS
 10
-1.5081565374
 20
18.7084546334
 11
-1.6848305374
 21
18.0776136334
  0
LINE
  5
2DD
100
AcDbEntity
  8
0
100
AcDbLine
 62
7
  6
CONTINUOUS
 10
-7.6810145374
 20
-4.0836473666
 11
-7.5765125374
 21
-3.7924653666
  0
LINE
  5
2DE
100
AcDbEntity
  8
0
100
AcDbLine
 62
7
  6
CONTINUOUS
 10
-7.4219435374
 20
-6.9598863666
 11
-7.3174405374
 21
-6.6687033666
  0
LINE
  5
2DF
100
AcDbEntity
  8
0
100
AcDbLine
 62
7
  6
CONTINUOUS
 10
-7.5346955374
 20
-3.6727563666
 11
-7.3731145374
 21
-3.2288163666
  0
LINE
  5
2E0
100
AcDbEntity
  8
0
100
AcDbLine
 62
7
  6
CONTINUOUS
 10
-7.2757045374
 20
-6.5489953666
 11
-7.1140425374
 21
-6.1050563666
  0
LINE
  5
2E1
100
AcDbEntity
  8
0
100
AcDbLine
 62
7
  6
CONTINUOUS
 10
-7.1851145374
 20
-5.9593503666
 11
-7.5612255374
 21
-6.9598863666
  0
LINE
  5
2E2
100
AcDbEntity
  8
0
100
AcDbLine
 62
7
  6
CONTINUOUS
 10
-7.4441865374
 20
-3.0839203666
 11
-7.8202975374
 21
-4.0836473666
  0
LINE
  5
2E3
100
AcDbEntity
  8
0
100
AcDbLine
 62
7
  6
CONTINUOUS
 10
-1.995589069
 20
4.8334157869
 11
-2.101839069
 21
4.6887349405
  0
LINE
  5
2E4
100
AcDbEntity
  8
0
100
AcDbLine
 62
7
  6
CONTINUOUS
 10
-2.4560060058
 20
3.8206498616
 11
-2.6685060058
 21
3.567458301
  0
LINE
  5
2E5
100
AcDbEntity
  8
0
100
AcDbLine
 62
7
  6
CONTINUOUS
 10
-1.889339069
 20
4.6887349405
 11
-1.783089069
 21
4.7610753574
  0
LINE
  5
2E6
100
AcDbEntity
  8
0
100
AcDbLine
 62
7
  6
CONTINUOUS
 10
-1.8185060058
 20
4.9419264218
 11
-1.995589069
 21
4.8334157869
  0
LINE
  5
2E7
100
AcDbEntity
  8
0
100
AcDbLine
 62
7
  6
CONTINUOUS
 10
0.8377439942
 20
-4.8048820905
 11
0.6960774626
 21
-4.841052299
  0
LINE
  5
2E8
100
AcDbEntity
  8
0
100
AcDbLine
 62
7
  6
CONTINUOUS
 10
0.341910931
 20
-4.1538182624
 11
0.4835774626
 21
-4.1176480539
  0
LINE
  5
2E9
100
AcDbEntity
  8
0
100
AcDbLine
 62
7
  6
CONTINUOUS
 10
0.6960774626
 20
-5.0219033666
 11
0.873160931
 21
-4.985733155
  0
LINE
  5
2EA
100
AcDbEntity
  8
0
100
AcDbLine
 62
7
  6
CONTINUOUS
 10
-2.4560059045
 20
-5.0219033666
 11
-2.2789225374
 21
-4.985733155
  0
LINE
  5
2EB
100
AcDbEntity
  8
0
100
AcDbLine
 62
7
  6
CONTINUOUS
 10
0.4835774626
 20
-3.9367970116
 11
0.3064939942
 21
-3.9729672201
  0
LINE
  5
2EC
100
AcDbEntity
  8
0
100
AcDbLine
 62
7
  6
CONTINUOUS
 10
-8.4122885374
 20
-6.0790583666
 11
-8.0737885374
 21
-6.0790583666
  0
LINE
  5
2ED
100
AcDbEntity
  8
0
100
AcDbLine
 62
7
  6
CONTINUOUS
 10
-7.9387115374
 20
-6.0790583666
 11
-7.6002115374
 21
-6.0790583666
  0
LINE
  5
2EE
100
AcDbEntity
  8
0
100
AcDbLine
 62
7
  6
CONTINUOUS
 10
-5.1764385374
 20
-5.9593503666
 11
-5.3352145374
 21
-5.9593503666
  0
LINE
  5
2EF
100
AcDbEntity
  8
0
100
AcDbLine
 62
7
  6
CONTINUOUS
 10
-5.9091675374
 20
-5.9593503666
 11
-6.0665685374
 21
-5.9593503666
  0
LINE
  5
2F0
100
AcDbEntity
  8
0
100
AcDbLine
 62
7
  6
CONTINUOUS
 10
-6.4106495374
 20
-5.9593503666
 11
-6.5457255374
 21
-5.9593503666
  0
LINE
  5
2F1
100
AcDbEntity
  8
0
100
AcDbLine
 62
7
  6
CONTINUOUS
 10
-7.0319205374
 20
-5.9593503666
 11
-7.1851145374
 21
-5.9593503666
  0
LINE
  5
2F2
100
AcDbEntity
  8
0
100
AcDbLine
 62
7
  6
CONTINUOUS
 10
-7.6002115374
 20
-5.9593503666
 11
-8.4122885374
 21
-5.9593503666
  0
LINE
  5
2F3
100
AcDbEntity
  8
0
100
AcDbLine
 62
7
  6
CONTINUOUS
 10
-8.5572325374
 20
-5.9593503666
 11
-8.6923895374
 21
-5.9593503666
  0
LINE
  5
2F4
100
AcDbEntity
  8
0
100
AcDbLine
 62
7
  6
CONTINUOUS
 10
-7.5577475374
 20
-5.5217673666
 11
-7.4225905374
 21
-5.5217673666
  0
LINE
  5
2F5
100
AcDbEntity
  8
0
100
AcDbLine
 62
7
  6
CONTINUOUS
 10
-7.1914235374
 20
-5.5217673666
 11
-7.0603915374
 21
-5.5217673666
  0
LINE
  5
2F6
100
AcDbEntity
  8
0
100
AcDbLine
 62
7
  6
CONTINUOUS
 10
-6.5492035374
 20
-5.5217673666
 11
-6.3973845374
 21
-5.5217673666
  0
LINE
  5
2F7
100
AcDbEntity
  8
0
100
AcDbLine
 62
7
  6
CONTINUOUS
 10
-3.6601725374
 20
-5.0219033666
 11
-3.4476725374
 21
-5.0219033666
  0
LINE
  5
2F8
100
AcDbEntity
  8
0
100
AcDbLine
 62
7
  6
CONTINUOUS
 10
-2.5976725374
 20
-5.0219033666
 11
-2.4560059045
 21
-5.0219033666
  0
LINE
  5
2F9
100
AcDbEntity
  8
0
100
AcDbLine
 62
7
  6
CONTINUOUS
 10
-1.2518392716
 20
-5.0219033666
 11
-1.0393392716
 21
-5.0219033666
  0
LINE
  5
2FA
100
AcDbEntity
  8
0
100
AcDbLine
 62
7
  6
CONTINUOUS
 10
0.4835774626
 20
-5.0219033666
 11
0.6960774626
 21
-5.0219033666
  0
LINE
  5
2FB
100
AcDbEntity
  8
0
100
AcDbLine
 62
7
  6
CONTINUOUS
 10
1.723160931
 20
-5.0219033666
 11
1.935660931
 21
-5.0219033666
  0
LINE
  5
2FC
100
AcDbEntity
  8
0
100
AcDbLine
 62
7
  6
CONTINUOUS
 10
0.6960774626
 20
-4.841052299
 11
0.4835774626
 21
-4.841052299
  0
LINE
  5
2FD
100
AcDbEntity
  8
0
100
AcDbLine
 62
7
  6
CONTINUOUS
 10
-2.4205891703
 20
-4.841052299
 11
-2.6330891703
 21
-4.841052299
  0
LINE
  5
2FE
100
AcDbEntity
  8
0
100
AcDbLine
 62
7
  6
CONTINUOUS
 10
-2.9164225374
 20
-4.6240310229
 11
-3.0935058539
 21
-4.6240310229
  0
LINE
  5
2FF
100
AcDbEntity
  8
0
100
AcDbLine
 62
7
  6
CONTINUOUS
 10
0.1648274626
 20
-4.5878608145
 11
-0.0476725374
 21
-4.5878608145
  0
LINE
  5
300
100
AcDbEntity
  8
0
100
AcDbLine
 62
7
  6
CONTINUOUS
 10
-6.3973845374
 20
-4.5220393666
 11
-6.5282545374
 21
-4.5220393666
  0
LINE
  5
301
100
AcDbEntity
  8
0
100
AcDbLine
 62
7
  6
CONTINUOUS
 10
-7.0311925374
 20
-4.5220393666
 11
-7.1914235374
 21
-4.5220393666
  0
LINE
  5
302
100
AcDbEntity
  8
0
100
AcDbLine
 62
7
  6
CONTINUOUS
 10
-7.4225905374
 20
-4.5220393666
 11
-7.5577475374
 21
-4.5220393666
  0
LINE
  5
303
100
AcDbEntity
  8
0
100
AcDbLine
 62
7
  6
CONTINUOUS
 10
-2.6330891703
 20
-4.4070097722
 11
-2.4560059045
 21
-4.4070097722
  0
LINE
  5
304
100
AcDbEntity
  8
0
100
AcDbLine
 62
7
  6
CONTINUOUS
 10
-0.0476725374
 20
-4.2623288877
 11
0.2002439942
 21
-4.2623288877
  0
LINE
  5
305
100
AcDbEntity
  8
0
100
AcDbLine
 62
7
  6
CONTINUOUS
 10
-2.4205891703
 20
-4.2261586793
 11
-2.6685059045
 21
-4.2261586793
  0
LINE
  5
306
100
AcDbEntity
  8
0
100
AcDbLine
 62
7
  6
CONTINUOUS
 10
-11.5333936551
 20
-4.2219033666
 11
-10.3727889637
 21
-4.2219033666
  0
LINE
  5
307
100
AcDbEntity
  8
0
100
AcDbLine
 62
7
  6
CONTINUOUS
 10
9.4274438889
 20
-4.2219033666
 11
10.5880485802
 21
-4.2219033666
  0
LINE
  5
308
100
AcDbEntity
  8
0
100
AcDbLine
 62
7
  6
CONTINUOUS
 10
0.4835774626
 20
-4.1176480539
 11
0.6960774626
 21
-4.1176480539
  0
LINE
  5
309
100
AcDbEntity
  8
0
100
AcDbLine
 62
7
  6
CONTINUOUS
 10
-8.8984825374
 20
-4.0836473666
 11
-8.7675315374
 21
-4.0836473666
  0
LINE
  5
30A
100
AcDbEntity
  8
0
100
AcDbLine
 62
7
  6
CONTINUOUS
 10
-8.4861355374
 20
-4.0836473666
 11
-8.3524335374
 21
-4.0836473666
  0
LINE
  5
30B
100
AcDbEntity
  8
0
100
AcDbLine
 62
7
  6
CONTINUOUS
 10
-8.0710385374
 20
-4.0836473666
 11
-7.9400865374
 21
-4.0836473666
  0
LINE
  5
30C
100
AcDbEntity
  8
0
100
AcDbLine
 62
7
  6
CONTINUOUS
 10
-7.8202975374
 20
-4.0836473666
 11
-7.6810145374
 21
-4.0836473666
  0
LINE
  5
30D
100
AcDbEntity
  8
0
100
AcDbLine
 62
7
  6
CONTINUOUS
 10
-7.0764065374
 20
-4.0836473666
 11
-6.9287925374
 21
-4.0836473666
  0
LINE
  5
30E
100
AcDbEntity
  8
0
100
AcDbLine
 62
7
  6
CONTINUOUS
 10
-6.7978415374
 20
-4.0836473666
 11
-6.3932259612
 21
-4.0836473666
  0
LINE
  5
30F
100
AcDbEntity
  8
0
100
AcDbLine
 62
7
  6
CONTINUOUS
 10
-5.7851725374
 20
-4.0836473666
 11
-5.0468625374
 21
-4.0836473666
  0
LINE
  5
310
100
AcDbEntity
  8
0
100
AcDbLine
 62
7
  6
CONTINUOUS
 10
-2.7747559045
 20
-4.985733155
 11
-2.5976725374
 21
-5.0219033666
  0
LINE
  5
311
100
AcDbEntity
  8
0
100
AcDbLine
 62
7
  6
CONTINUOUS
 10
-2.8101725374
 20
-4.3708395131
 11
-2.6330891703
 21
-4.4070097722
  0
LINE
  5
312
100
AcDbEntity
  8
0
100
AcDbLine
 62
7
  6
CONTINUOUS
 10
0.3064939942
 20
-4.985733155
 11
0.4835774626
 21
-5.0219033666
  0
LINE
  5
313
100
AcDbEntity
  8
0
100
AcDbLine
 62
7
  6
CONTINUOUS
 10
0.4835774626
 20
-4.841052299
 11
0.341910931
 21
-4.8048820905
  0
LINE
  5
314
100
AcDbEntity
  8
0
100
AcDbLine
 62
7
  6
CONTINUOUS
 10
-2.6330891703
 20
-4.841052299
 11
-2.7393391703
 21
-4.8048820905
  0
LINE
  5
315
100
AcDbEntity
  8
0
100
AcDbLine
 62
7
  6
CONTINUOUS
 10
-2.6685059045
 20
-4.2261586793
 11
-2.7747559045
 21
-4.1899884708
  0
LINE
  5
316
100
AcDbEntity
  8
0
100
AcDbLine
 62
7
  6
CONTINUOUS
 10
-2.9518391703
 20
-4.8772225201
 11
-2.7747559045
 21
-4.985733155
  0
LINE
  5
317
100
AcDbEntity
  8
0
100
AcDbLine
 62
7
  6
CONTINUOUS
 10
-2.9872559045
 20
-4.2623288877
 11
-2.8101725374
 21
-4.3708395131
  0
LINE
  5
318
100
AcDbEntity
  8
0
100
AcDbLine
 62
7
  6
CONTINUOUS
 10
-2.7393391703
 20
-4.8048820905
 11
-2.8455891703
 21
-4.7325416736
  0
LINE
  5
319
100
AcDbEntity
  8
0
100
AcDbLine
 62
7
  6
CONTINUOUS
 10
-2.7747559045
 20
-4.1899884708
 11
-2.8810059045
 21
-4.1176480539
  0
LWPOLYLINE
  5
31A
100
AcDbEntity
  8
0
100
AcDbPolyline
 62
253
  6
CONTINUOUS
 90
13
 70
0
 10
-10.0780948395
 20
1.5813799117
 10
-10.0801400155
 20
1.5835115358
 10
-10.0821510341
 20
1.5889700217
 10
-10.0840949593
 20
1.5976635767
 10
-10.0859400992
 20
1.609446007
 10
-10.0876556605
 20
1.6241191768
 10
-10.0892121702
 20
1.6414363408
 10
-10.0905829206
 20
1.6611062923
 10
-10.0917453946
 20
1.6827982582
 10
-10.0926806677
 20
1.7061474636
 10
-10.0933727777
 20
1.7307612664
 10
-10.0938090889
 20
1.7562257605
 10
-10.0939813827
 20
1.7821127343
  0
LINE
  5
31B
100
AcDbEntity
  8
0
100
AcDbLine
 62
7
  6
CONTINUOUS
 10
-3.058089221
 20
-4.7325416736
 11
-2.9518391703
 21
-4.8772225201
  0
LINE
  5
31C
100
AcDbEntity
  8
0
100
AcDbLine
 62
7
  6
CONTINUOUS
 10
-3.0935058539
 20
-4.1176480539
 11
-2.9872559045
 21
-4.2623288877
  0
LINE
  5
31D
100
AcDbEntity
  8
0
100
AcDbLine
 62
7
  6
CONTINUOUS
 10
-2.8455891703
 20
-4.7325416736
 11
-2.9164225374
 21
-4.6240310229
  0
LINE
  5
31E
100
AcDbEntity
  8
0
100
AcDbLine
 62
7
  6
CONTINUOUS
 10
-2.8810059045
 20
-4.1176480539
 11
-2.9518391703
 21
-4.0091374285
  0
LINE
  5
31F
100
AcDbEntity
  8
0
100
AcDbLine
 62
253
  6
CONTINUOUS
 10
-4.3881425912
 20
22.2208732956
 11
-4.3881425912
 21
20.6494849645
  0
LINE
  5
320
100
AcDbEntity
  8
0
100
AcDbLine
 62
253
  6
CONTINUOUS
 10
-4.3881425912
 20
-20.6932916977
 11
-4.3881425912
 21
-22.2646800287
  0
LINE
  5
321
100
AcDbEntity
  8
0
100
AcDbLine
 62
253
  6
CONTINUOUS
 10
-4.2149375105
 20
22.2261140735
 11
-4.2149375105
 21
20.6547257424
  0
LINE
  5
322
100
AcDbEntity
  8
0
100
AcDbLine
 62
253
  6
CONTINUOUS
 10
-4.2149375105
 20
-20.6985324756
 11
-4.2149375105
 21
-22.2699208067
  0
LINE
  5
323
100
AcDbEntity
  8
0
100
AcDbLine
 62
7
  6
CONTINUOUS
 10
-3.8726725374
 20
-3.5750948258
 11
-3.8726725374
 21
-3.8644565947
  0
LINE
  5
324
100
AcDbEntity
  8
0
100
AcDbLine
 62
7
  6
CONTINUOUS
 10
-3.6601725374
 20
-3.6112650342
 11
-3.6601725374
 21
-5.0219033666
  0
LINE
  5
325
100
AcDbEntity
  8
0
100
AcDbLine
 62
7
  6
CONTINUOUS
 10
-3.4476725374
 20
-5.0219033666
 11
-3.4476725374
 21
-3.3219033666
  0
LINE
  5
326
100
AcDbEntity
  8
0
100
AcDbLine
 62
7
  6
CONTINUOUS
 10
-3.4066471336
 20
22.2994849645
 11
-3.4066471336
 21
20.7280966334
  0
LINE
  5
327
100
AcDbEntity
  8
0
100
AcDbLine
 62
7
  6
CONTINUOUS
 10
-3.4066471336
 20
-22.3432916977
 11
-3.4066471336
 21
-20.7719033666
  0
LINE
  5
328
100
AcDbEntity
  8
0
100
AcDbLine
 62
7
  6
CONTINUOUS
 10
-3.4011247202
 20
18.5169164418
 11
-3.4011247202
 21
18.5068717346
  0
LINE
  5
329
100
AcDbEntity
  8
0
100
AcDbLine
 62
7
  6
CONTINUOUS
 10
-3.164339221
 20
-3.7921161778
 11
-3.164339221
 21
-3.9367970116
  0
LINE
  5
32A
100
AcDbEntity
  8
0
100
AcDbLine
 62
7
  6
CONTINUOUS
 10
-2.9872559045
 20
-3.9006268032
 11
-2.9872559045
 21
-3.8282863863
  0
LINE
  5
32B
100
AcDbEntity
  8
0
100
AcDbLine
 62
7
  6
CONTINUOUS
 10
-2.8810060058
 20
4.9780966334
 11
-2.8810060058
 21
3.2780966334
  0
LINE
  5
32C
100
AcDbEntity
  8
0
100
AcDbLine
 62
7
  6
CONTINUOUS
 10
-2.8422795334
 20
19.3103973201
 11
-2.8422795334
 21
18.6451649175
  0
LINE
  5
32D
100
AcDbEntity
  8
0
100
AcDbLine
 62
7
  6
CONTINUOUS
 10
-2.830513969
 20
18.3667684649
 11
-2.830513969
 21
17.9001229824
  0
LINE
  5
32E
100
AcDbEntity
  8
0
100
AcDbLine
 62
7
  6
CONTINUOUS
 10
-2.6685060058
 20
3.567458301
 11
-2.6685060058
 21
4.9780966334
  0
LINE
  5
32F
100
AcDbEntity
  8
0
100
AcDbLine
 62
7
  6
CONTINUOUS
 10
-2.4888792013
 20
17.6303945512
 11
-2.4888792013
 21
19.3103973201
  0
LINE
  5
330
100
AcDbEntity
  8
0
100
AcDbLine
 62
7
  6
CONTINUOUS
 10
-2.4560060058
 20
3.5312880926
 11
-2.4560060058
 21
3.8206498616
  0
LWPOLYLINE
  5
331
100
AcDbEntity
  8
0
100
AcDbPolyline
 62
7
  6
CONTINUOUS
 90
25
 70
0
 10
-3.3089250159
 20
18.1026105122
 10
-3.3085702488
 20
18.1213218263
 10
-3.3071396974
 20
18.1398027339
 10
-3.3046333489
 20
18.158053235
 10
-3.301058482
 20
18.1761391657
 10
-3.296407792
 20
18.1939946914
 10
-3.2906593908
 20
18.2114223081
 10
-3.2838244934
 20
18.2284924317
 10
-3.2758918589
 20
18.2451346547
 10
-3.266805916
 20
18.2609402436
 10
-3.2565260269
 20
18.2759216851
 10
-3.2450928073
 20
18.2900665115
 10
-3.232572572
 20
18.3029285633
 10
-3.2188442514
 20
18.3143500917
 10
-3.2040289073
 20
18.3244888743
 10
-3.1885560616
 20
18.3333720413
 10
-3.1724267326
 20
18.3409161811
 10
-3.1556399122
 20
18.3472047279
 10
-3.1386220899
 20
18.3525150722
 10
-3.1214866514
 20
18.3568515847
 10
-3.1041202279
 20
18.3602099054
 10
-3.0866091777
 20
18.3628543223
 10
-3.0689822904
 20
18.3648729328
 10
-3.0512107894
 20
18.3661776459
 10
-3.0332946819
 20
18.3667684649
  0
LINE
  5
332
100
AcDbEntity
  8
0
100
AcDbLine
 62
7
  6
CONTINUOUS
 10
1.8250934626
 20
17.6105346334
 11
2.1590154626
 21
18.7806026334
  0
LINE
  5
333
100
AcDbEntity
  8
0
100
AcDbLine
 62
7
  6
CONTINUOUS
 10
2.0169114626
 20
19.3103976334
 11
1.4705074626
 21
17.6105346334
  0
LINE
  5
334
100
AcDbEntity
  8
0
100
AcDbLine
 62
7
  6
CONTINUOUS
 10
-1.995589069
 20
4.4717136644
 11
-1.9601725374
 21
4.5802242898
  0
LINE
  5
335
100
AcDbEntity
  8
0
100
AcDbLine
 62
7
  6
CONTINUOUS
 10
-2.101839069
 20
4.6887349405
 11
-2.1726725374
 21
4.5078838728
  0
LINE
  5
336
100
AcDbEntity
  8
0
100
AcDbLine
 62
7
  6
CONTINUOUS
 10
-1.9601725374
 20
4.5802242898
 11
-1.889339069
 21
4.6887349405
  0
LINE
  5
337
100
AcDbEntity
  8
0
100
AcDbLine
 62
7
  6
CONTINUOUS
 10
-2.6685060058
 20
3.2780966334
 11
-2.4560060058
 21
3.5312880926
  0
LINE
  5
338
100
AcDbEntity
  8
0
100
AcDbLine
 62
7
  6
CONTINUOUS
 10
-1.145589069
 20
4.2185221546
 11
-1.2872560058
 21
4.1100115292
  0
LINE
  5
339
100
AcDbEntity
  8
0
100
AcDbLine
 62
7
  6
CONTINUOUS
 10
1.2627440955
 20
4.6887349405
 11
1.3689940955
 21
4.7610753574
  0
LINE
  5
33A
100
AcDbEntity
  8
0
100
AcDbLine
 62
7
  6
CONTINUOUS
 10
1.3335774626
 20
4.3270327799
 11
1.1210774626
 21
4.1823519461
  0
LINE
  5
33B
100
AcDbEntity
  8
0
100
AcDbLine
 62
7
  6
CONTINUOUS
 10
1.2627440955
 20
4.0738413207
 11
1.3689940955
 21
4.1461817376
  0
LINE
  5
33C
100
AcDbEntity
  8
0
100
AcDbLine
 62
7
  6
CONTINUOUS
 10
-1.251839069
 20
3.9291604869
 11
-1.0747560058
 21
4.0376711123
  0
LINE
  5
33D
100
AcDbEntity
  8
0
100
AcDbLine
 62
7
  6
CONTINUOUS
 10
1.3335774626
 20
4.9419264218
 11
1.1564941968
 21
4.8334157869
  0
LINE
  5
33E
100
AcDbEntity
  8
0
100
AcDbLine
 62
7
  6
CONTINUOUS
 10
1.3689940955
 20
4.7610753574
 11
1.4752440955
 21
4.7972455658
  0
LINE
  5
33F
100
AcDbEntity
  8
0
100
AcDbLine
 62
7
  6
CONTINUOUS
 10
1.3689940955
 20
4.1461817376
 11
1.4752440955
 21
4.1823519461
  0
LINE
  5
340
100
AcDbEntity
  8
0
100
AcDbLine
 62
7
  6
CONTINUOUS
 10
1.8294108297
 20
3.4951178841
 11
1.7231608297
 21
3.4589476757
  0
LINE
  5
341
100
AcDbEntity
  8
0
100
AcDbLine
 62
7
  6
CONTINUOUS
 10
-2.4560059045
 20
-4.4070097722
 11
-2.2789225374
 21
-4.3708395131
  0
LINE
  5
342
100
AcDbEntity
  8
0
100
AcDbLine
 62
7
  6
CONTINUOUS
 10
-2.6330891703
 20
-3.3219033666
 11
-2.8101725374
 21
-3.358073575
  0
LINE
  5
343
100
AcDbEntity
  8
0
100
AcDbLine
 62
7
  6
CONTINUOUS
 10
7.7773274626
 20
-1.6109241977
 11
8.0222957205
 21
-1.5620500159
  0
LWPOLYLINE
  5
344
100
AcDbEntity
  8
0
100
AcDbPolyline
 62
7
  6
CONTINUOUS
 90
25
 70
0
 10
-6.3932259612
 20
-4.0836473666
 10
-6.3630641418
 20
-4.0828550912
 10
-6.3332815777
 20
-4.0800393921
 10
-6.3038782866
 20
-4.0752002767
 10
-6.2746733319
 20
-4.0683911079
 10
-6.2458476846
 20
-4.0595585361
 10
-6.2179442345
 20
-4.0485424971
 10
-6.1909181222
 20
-4.0351940116
 10
-6.1648142652
 20
-4.0196620646
 10
-6.140310238
 20
-4.0022335311
 10
-6.1175863801
 20
-3.9828354242
 10
-6.0964624206
 20
-3.9615407221
 10
-6.077075021
 20
-3.9388552398
 10
-6.0595050548
 20
-3.9148241037
 10
-6.0436716979
 20
-3.889402172
 10
-6.0294690565
 20
-3.8629598552
 10
-6.0169118733
 20
-3.8355704597
 10
-6.0059854349
 20
-3.8071606625
 10
-5.9965396556
 20
-3.7778809316
 10
-5.9884646287
 20
-3.747798005
 10
-5.9818702768
 20
-3.716845129
 10
-5.9769362539
 20
-3.6849725342
 10
-5.9737224471
 20
-3.6521636239
 10
-5.9721689763
 20
-3.6184349758
 10
-5.9722758421
 20
-3.5837865801
  0
LWPOLYLINE
  5
345
100
AcDbEntity
  8
0
100
AcDbPolyline
 62
253
  6
CONTINUOUS
 90
6
 70
0
 10
9.2935459249
 20
-1.8257439953
 10
9.3068176935
 20
-1.8254343597
 10
9.3175443615
 20
-1.8254315633
 10
9.3255154034
 20
-1.8257754324
 10
9.3305760225
 20
-1.8257884663
 10
9.3326812296
 20
-1.8251561838
  0
LWPOLYLINE
  5
346
100
AcDbEntity
  8
0
100
AcDbPolyline
 62
253
  6
CONTINUOUS
 90
7
 70
0
 10
9.1486363078
 20
-1.8259194675
 10
9.173381321
 20
-1.8254760089
 10
9.1967966116
 20
-1.825553156
 10
9.2189841944
 20
-1.8258403187
 10
9.2400863235
 20
-1.8258018443
 10
9.2599235544
 20
-1.8255455892
 10
9.2935459249
 20
-1.8257439953
  0
LINE
  5
347
100
AcDbEntity
  8
0
100
AcDbLine
 62
7
  6
CONTINUOUS
 10
-6.4110943465
 20
-3.9679833666
 11
-6.6627655374
 21
-3.9679833666
  0
LINE
  5
348
100
AcDbEntity
  8
0
100
AcDbLine
 62
7
  6
CONTINUOUS
 10
-5.0468625374
 20
-3.9639393666
 11
-5.6500155374
 21
-3.9639393666
  0
LINE
  5
349
100
AcDbEntity
  8
0
100
AcDbLine
 62
7
  6
CONTINUOUS
 10
0.6960774626
 20
-3.9367970116
 11
0.4835774626
 21
-3.9367970116
  0
LINE
  5
34A
100
AcDbEntity
  8
0
100
AcDbLine
 62
7
  6
CONTINUOUS
 10
-7.5765125374
 20
-3.7924653666
 11
-7.1753275374
 21
-3.7924653666
  0
LINE
  5
34B
100
AcDbEntity
  8
0
100
AcDbLine
 62
7
  6
CONTINUOUS
 10
-7.2241005374
 20
-3.6727563666
 11
-7.5346955374
 21
-3.6727563666
  0
LINE
  5
34C
100
AcDbEntity
  8
0
100
AcDbLine
 62
7
  6
CONTINUOUS
 10
-5.6500155374
 20
-3.6298883666
 11
-5.1025915374
 21
-3.6298883666
  0
LINE
  5
34D
100
AcDbEntity
  8
0
100
AcDbLine
 62
7
  6
CONTINUOUS
 10
-5.1025915374
 20
-3.5101793666
 11
-5.6500155374
 21
-3.5101793666
  0
LINE
  5
34E
100
AcDbEntity
  8
0
100
AcDbLine
 62
7
  6
CONTINUOUS
 10
-2.6685059045
 20
-3.5027544089
 11
-2.4205891703
 21
-3.5027544089
  0
LINE
  5
34F
100
AcDbEntity
  8
0
100
AcDbLine
 62
7
  6
CONTINUOUS
 10
-1.6060058032
 20
-3.5027544089
 11
-0.5435058032
 21
-3.5027544089
  0
LINE
  5
350
100
AcDbEntity
  8
0
100
AcDbLine
 62
7
  6
CONTINUOUS
 10
0.129410931
 20
-3.5027544089
 11
1.1564939942
 21
-3.5027544089
  0
LINE
  5
351
100
AcDbEntity
  8
0
100
AcDbLine
 62
7
  6
CONTINUOUS
 10
1.935660931
 20
-3.3219033666
 11
1.723160931
 21
-3.3219033666
  0
LINE
  5
352
100
AcDbEntity
  8
0
100
AcDbLine
 62
7
  6
CONTINUOUS
 10
1.1564939942
 20
-3.3219033666
 11
-0.0476725374
 21
-3.3219033666
  0
LINE
  5
353
100
AcDbEntity
  8
0
100
AcDbLine
 62
7
  6
CONTINUOUS
 10
-0.3310060058
 20
-3.3219033666
 11
-1.6060058032
 21
-3.3219033666
  0
LINE
  5
354
100
AcDbEntity
  8
0
100
AcDbLine
 62
7
  6
CONTINUOUS
 10
-2.4560059045
 20
-3.3219033666
 11
-2.6330891703
 21
-3.3219033666
  0
LINE
  5
355
100
AcDbEntity
  8
0
100
AcDbLine
 62
7
  6
CONTINUOUS
 10
-3.4476725374
 20
-3.3219033666
 11
-3.6601725374
 21
-3.3219033666
  0
LINE
  5
356
100
AcDbEntity
  8
0
100
AcDbLine
 62
7
  6
CONTINUOUS
 10
-5.6500155374
 20
-3.2036293666
 11
-5.0566495374
 21
-3.2036293666
  0
LINE
  5
357
100
AcDbEntity
  8
0
100
AcDbLine
 62
7
  6
CONTINUOUS
 10
-6.6627655374
 20
-3.1995843666
 11
-6.4106494069
 21
-3.1995843666
  0
LINE
  5
358
100
AcDbEntity
  8
0
100
AcDbLine
 62
7
  6
CONTINUOUS
 10
-5.0566495374
 20
-3.0839203666
 11
-5.7851725374
 21
-3.0839203666
  0
LINE
  5
359
100
AcDbEntity
  8
0
100
AcDbLine
 62
7
  6
CONTINUOUS
 10
-6.3925313697
 20
-3.0839203666
 11
-6.7978415374
 21
-3.0839203666
  0
LINE
  5
35A
100
AcDbEntity
  8
0
100
AcDbLine
 62
7
  6
CONTINUOUS
 10
-7.2909915374
 20
-3.0839203666
 11
-7.4441865374
 21
-3.0839203666
  0
LINE
  5
35B
100
AcDbEntity
  8
0
100
AcDbLine
 62
7
  6
CONTINUOUS
 10
-7.9400865374
 20
-3.0839203666
 11
-8.1323485374
 21
-3.0839203666
  0
LINE
  5
35C
100
AcDbEntity
  8
0
100
AcDbLine
 62
7
  6
CONTINUOUS
 10
-8.7048455374
 20
-3.0839203666
 11
-8.8984825374
 21
-3.0839203666
  0
LWPOLYLINE
  5
35D
100
AcDbEntity
  8
0
100
AcDbPolyline
 62
7
  6
CONTINUOUS
 90
28
 70
0
 10
-6.4106494069
 20
-3.1995843666
 10
-6.3908800681
 20
-3.1999531344
 10
-6.3712850763
 20
-3.2015190218
 10
-6.3518644321
 20
-3.2042820251
 10
-6.3324974487
 20
-3.208178859
 10
-6.3133048136
 20
-3.2132728013
 10
-6.2946485941
 20
-3.2197536917
 10
-6.2765139432
 20
-3.2276993058
 10
-6.2589157205
 20
-3.2370318589
 10
-6.2422605634
 20
-3.2477078507
 10
-6.2266303833
 20
-3.2598752094
 10
-6.2119432933
 20
-3.2733859992
 10
-6.1983602401
 20
-3.2877529255
 10
-6.1859715324
 20
-3.3028599286
 10
-6.1746868868
 20
-3.3188230662
 10
-6.1643963607
 20
-3.3355032226
 10
-6.1550606628
 20
-3.3529025772
 10
-6.1467191037
 20
-3.3710189503
 10
-6.1393796414
 20
-3.3897066888
 10
-6.1331197158
 20
-3.408917875
 10
-6.1278619036
 20
-3.4287004287
 10
-6.1233818661
 20
-3.4490524527
 10
-6.1196592663
 20
-3.4699483861
 10
-6.1167144527
 20
-3.4914137919
 10
-6.114384114
 20
-3.5135234577
 10
-6.112613816
 20
-3.5363023132
 10
-6.1114580026
 20
-3.5597254302
 10
-6.1109166787
 20
-3.5837928096
  0
LINE
  5
35E
100
AcDbEntity
  8
0
100
AcDbLine
 62
7
  6
CONTINUOUS
 10
-8.7226725374
 20
-1.6109241977
 11
-8.9676407953
 21
-1.5620500159
  0
LINE
  5
35F
100
AcDbEntity
  8
0
100
AcDbLine
 62
7
  6
CONTINUOUS
 10
-2.2789225374
 20
-3.358073575
 11
-2.4560059045
 21
-3.3219033666
  0
LINE
  5
360
100
AcDbEntity
  8
0
100
AcDbLine
 62
7
  6
CONTINUOUS
 10
0.873160931
 20
-3.9729672201
 11
0.6960774626
 21
-3.9367970116
  0
LINE
  5
361
100
AcDbEntity
  8
0
100
AcDbLine
 62
7
  6
CONTINUOUS
 10
0.6960774626
 20
-4.1176480539
 11
0.8377439942
 21
-4.1538182624
  0
LINE
  5
362
100
AcDbEntity
  8
0
100
AcDbLine
 62
7
  6
CONTINUOUS
 10
-2.4205891703
 20
-3.5027544089
 11
-2.3143391703
 21
-3.5389246173
  0
LINE
  5
363
100
AcDbEntity
  8
0
100
AcDbLine
 62
7
  6
CONTINUOUS
 10
0.129410931
 20
-4.8772225201
 11
0.3064939942
 21
-4.985733155
  0
LINE
  5
364
100
AcDbEntity
  8
0
100
AcDbLine
 62
7
  6
CONTINUOUS
 10
-2.1018392716
 20
-3.4665842004
 11
-2.2789225374
 21
-3.358073575
  0
LINE
  5
365
100
AcDbEntity
  8
0
100
AcDbLine
 62
7
  6
CONTINUOUS
 10
1.0502439942
 20
-4.0814778454
 11
0.873160931
 21
-3.9729672201
  0
LINE
  5
366
100
AcDbEntity
  8
0
100
AcDbLine
 62
7
  6
CONTINUOUS
 10
-2.3143391703
 20
-3.5389246173
 11
-2.2080891703
 21
-3.6112650342
  0
LINE
  5
367
100
AcDbEntity
  8
0
100
AcDbLine
 62
7
  6
CONTINUOUS
 10
0.341910931
 20
-4.8048820905
 11
0.235660931
 21
-4.7325416736
  0
LINE
  5
368
100
AcDbEntity
  8
0
100
AcDbLine
 62
7
  6
CONTINUOUS
 10
0.8377439942
 20
-4.1538182624
 11
0.9439939942
 21
-4.2261586793
  0
LINE
  5
369
100
AcDbEntity
  8
0
100
AcDbLine
 62
7
  6
CONTINUOUS
 10
-1.9955892716
 20
-3.6112650342
 11
-2.1018392716
 21
-3.4665842004
  0
LINE
  5
36A
100
AcDbEntity
  8
0
100
AcDbLine
 62
7
  6
CONTINUOUS
 10
0.023160931
 20
-4.7325416736
 11
0.129410931
 21
-4.8772225201
  0
LINE
  5
36B
100
AcDbEntity
  8
0
100
AcDbLine
 62
7
  6
CONTINUOUS
 10
-2.2080891703
 20
-3.6112650342
 11
-2.1372558032
 21
-3.7197756596
  0
LINE
  5
36C
100
AcDbEntity
  8
0
100
AcDbLine
 62
7
  6
CONTINUOUS
 10
-3.164339221
 20
-3.9367970116
 11
-3.0935058539
 21
-4.1176480539
  0
LINE
  5
36D
100
AcDbEntity
  8
0
100
AcDbLine
 62
7
  6
CONTINUOUS
 10
-1.9247558032
 20
-3.7921161778
 11
-1.9955892716
 21
-3.6112650342
  0
LWPOLYLINE
  5
36E
100
AcDbEntity
  8
0
100
AcDbPolyline
 62
7
  6
CONTINUOUS
 90
6
 70
0
 10
2.2850866128
 20
-18.8385890001
 10
2.3032767394
 20
-18.8918973142
 10
2.3210361673
 20
-18.9462653551
 10
2.3383649027
 20
-19.0016930975
 10
2.3550032746
 20
-19.0582659985
 10
2.387767012
 20
-19.1743342744
  0
LINE
  5
36F
100
AcDbEntity
  8
0
100
AcDbLine
 62
7
  6
CONTINUOUS
 10
-3.0935058539
 20
-4.6240310229
 11
-3.058089221
 21
-4.7325416736
  0
LINE
  5
370
100
AcDbEntity
  8
0
100
AcDbLine
 62
7
  6
CONTINUOUS
 10
-2.9518391703
 20
-4.0091374285
 11
-2.9872559045
 21
-3.9006268032
  0
LINE
  5
371
100
AcDbEntity
  8
0
100
AcDbLine
 62
7
  6
CONTINUOUS
 10
-2.1372558032
 20
-3.7197756596
 11
-2.1018392716
 21
-3.8282863863
  0
LINE
  5
372
100
AcDbEntity
  8
0
100
AcDbLine
 62
7
  6
CONTINUOUS
 10
1.4393394626
 20
-19.3542043666
 11
0.9177794626
 21
-17.6543413666
  0
LINE
  5
373
100
AcDbEntity
  8
0
100
AcDbLine
 62
7
  6
CONTINUOUS
 10
2.387767012
 20
-19.1743342744
 11
2.4403046777
 21
-19.3542040533
  0
LINE
  5
374
100
AcDbEntity
  8
0
100
AcDbLine
 62
7
  6
CONTINUOUS
 10
0.9734464626
 20
-19.0148513666
 11
1.0653654626
 21
-19.3542043666
  0
LINE
  5
375
100
AcDbEntity
  8
0
100
AcDbLine
 62
7
  6
CONTINUOUS
 10
2.6881866727
 20
-18.9982312427
 11
2.6603067096
 21
-18.8941233223
  0
LINE
  5
376
100
AcDbEntity
  8
0
100
AcDbLine
 62
7
  6
CONTINUOUS
 10
0.7394854626
 20
-18.1214203666
 11
0.9025334626
 21
-18.7522613666
  0
LINE
  5
377
100
AcDbEntity
  8
0
100
AcDbLine
 62
7
  6
CONTINUOUS
 10
-1.8893392716
 20
-4.045307637
 11
-1.9247558032
 21
-3.7921161778
  0
LINE
  5
378
100
AcDbEntity
  8
0
100
AcDbLine
 62
7
  6
CONTINUOUS
 10
-0.0143765374
 20
-19.3542043666
 11
-0.1733335374
 21
-17.6543413666
  0
LINE
  5
379
100
AcDbEntity
  8
0
100
AcDbLine
 62
7
  6
CONTINUOUS
 10
-0.4343935374
 20
-18.2488523666
 11
-0.3614925374
 21
-19.3542043666
  0
LINE
  5
37A
100
AcDbEntity
  8
0
100
AcDbLine
 62
7
  6
CONTINUOUS
 10
-2.2841745374
 20
-17.6542393666
 11
-2.2841745374
 21
-19.3542043666
  0
LINE
  5
37B
100
AcDbEntity
  8
0
100
AcDbLine
 62
7
  6
CONTINUOUS
 10
-2.1726725374
 20
4.5078838728
 11
-2.1726725374
 21
4.363203039
  0
LINE
  5
37C
100
AcDbEntity
  8
0
100
AcDbLine
 62
7
  6
CONTINUOUS
 10
-2.1018392716
 20
-3.8282863863
 11
-2.1018392716
 21
-3.9006268032
  0
LINE
  5
37D
100
AcDbEntity
  8
0
100
AcDbLine
 62
7
  6
CONTINUOUS
 10
-2.101839069
 20
3.4589476757
 11
-2.101839069
 21
3.2780966334
  0
LINE
  5
37E
100
AcDbEntity
  8
0
100
AcDbLine
 62
7
  6
CONTINUOUS
 10
-2.0664225374
 20
-4.2261586793
 11
-2.0664225374
 21
-4.2984990962
  0
LINE
  5
37F
100
AcDbEntity
  8
0
100
AcDbLine
 62
7
  6
CONTINUOUS
 10
-1.995589069
 20
4.3993732475
 11
-1.995589069
 21
4.4717136644
  0
LINE
  5
380
100
AcDbEntity
  8
0
100
AcDbLine
 62
7
  6
CONTINUOUS
 10
-1.9293465374
 20
-19.3542043666
 11
-1.9293465374
 21
-17.6542393666
  0
LINE
  5
381
100
AcDbEntity
  8
0
100
AcDbLine
 62
7
  6
CONTINUOUS
 10
-1.8893392716
 20
-4.2984990962
 11
-1.8893392716
 21
-4.045307637
  0
LINE
  5
382
100
AcDbEntity
  8
0
100
AcDbLine
 62
7
  6
CONTINUOUS
 10
-1.6060058032
 20
-3.3219033666
 11
-1.6060058032
 21
-3.5027544089
  0
LINE
  5
383
100
AcDbEntity
  8
0
100
AcDbLine
 62
7
  6
CONTINUOUS
 10
-1.0747560058
 20
4.0376711123
 11
-1.0747560058
 21
3.4589476757
  0
LINE
  5
384
100
AcDbEntity
  8
0
100
AcDbLine
 62
7
  6
CONTINUOUS
 10
-0.8976725374
 20
3.2780966334
 11
-0.8976725374
 21
4.2185221546
  0
LINE
  5
385
100
AcDbEntity
  8
0
100
AcDbLine
 62
7
  6
CONTINUOUS
 10
-0.614339069
 20
3.4589476757
 11
-0.614339069
 21
3.2780966334
  0
LINE
  5
386
100
AcDbEntity
  8
0
100
AcDbLine
 62
7
  6
CONTINUOUS
 10
-0.3310060058
 20
-3.5027544089
 11
-0.3310060058
 21
-3.3219033666
  0
LINE
  5
387
100
AcDbEntity
  8
0
100
AcDbLine
 62
7
  6
CONTINUOUS
 10
0.4535314626
 20
19.3103976334
 11
0.3769594626
 21
18.2004186334
  0
LINE
  5
388
100
AcDbEntity
  8
0
100
AcDbLine
 62
7
  6
CONTINUOUS
 10
0.6394994626
 20
17.6105346334
 11
0.7929864626
 21
19.3103976334
  0
LINE
  5
389
100
AcDbEntity
  8
0
100
AcDbLine
 62
7
  6
CONTINUOUS
 10
-1.9247558032
 20
-4.551690606
 11
-1.8893392716
 21
-4.2984990962
  0
LINE
  5
38A
100
AcDbEntity
  8
0
100
AcDbLine
 62
7
  6
CONTINUOUS
 10
-2.0664225374
 20
-4.2984990962
 11
-2.1018392716
 21
-4.5155203976
  0
LINE
  5
38B
100
AcDbEntity
  8
0
100
AcDbLine
 62
7
  6
CONTINUOUS
 10
-2.9872559045
 20
-3.8282863863
 11
-2.9518391703
 21
-3.7197756596
  0
LINE
  5
38C
100
AcDbEntity
  8
0
100
AcDbLine
 62
7
  6
CONTINUOUS
 10
-2.1018392716
 20
-3.9006268032
 11
-2.1372558032
 21
-4.0091374285
  0
LINE
  5
38D
100
AcDbEntity
  8
0
100
AcDbLine
 62
7
  6
CONTINUOUS
 10
-2.1018392716
 20
-4.5155203976
 11
-2.1372558032
 21
-4.6240310229
  0
LINE
  5
38E
100
AcDbEntity
  8
0
100
AcDbLine
 62
7
  6
CONTINUOUS
 10
1.1564941968
 20
4.4717136644
 11
1.1919107284
 21
4.5802242898
  0
LINE
  5
38F
100
AcDbEntity
  8
0
100
AcDbLine
 62
7
  6
CONTINUOUS
 10
-3.0935058539
 20
-3.6112650342
 11
-3.164339221
 21
-3.7921161778
  0
LINE
  5
390
100
AcDbEntity
  8
0
100
AcDbLine
 62
7
  6
CONTINUOUS
 10
1.0502441968
 20
4.6887349405
 11
0.9794107284
 21
4.5078838728
  0
LINE
  5
391
100
AcDbEntity
  8
0
100
AcDbLine
 62
7
  6
CONTINUOUS
 10
0.0939941968
 20
4.9780966334
 11
-0.614339069
 21
3.4589476757
  0
LINE
  5
392
100
AcDbEntity
  8
0
100
AcDbLine
 62
7
  6
CONTINUOUS
 10
-0.4018392716
 20
3.4589476757
 11
0.3064941968
 21
4.9780966334
  0
LINE
  5
393
100
AcDbEntity
  8
0
100
AcDbLine
 62
253
  6
CONTINUOUS
 10
9.1441172143
 20
20.4403796877
 11
9.2878770431
 21
20.7280966334
  0
LINE
  5
394
100
AcDbEntity
  8
0
100
AcDbLine
 62
253
  6
CONTINUOUS
 10
9.3440333276
 20
20.2406230563
 11
9.4876715085
 21
20.5280965394
  0
LINE
  5
395
100
AcDbEntity
  8
0
100
AcDbLine
 62
253
  6
CONTINUOUS
 10
-10.2893784024
 20
-20.2844297894
 11
-10.4330165833
 21
-20.5719032725
  0
LINE
  5
396
100
AcDbEntity
  8
0
100
AcDbLine
 62
7
  6
CONTINUOUS
 10
-5.3352145374
 20
-5.9593503666
 11
-5.6221915374
 21
-6.4398013666
  0
LINE
  5
397
100
AcDbEntity
  8
0
100
AcDbLine
 62
7
  6
CONTINUOUS
 10
-5.5539255374
 20
-6.5570833666
 11
-5.1764385374
 21
-5.9593503666
  0
LINE
  5
398
100
AcDbEntity
  8
0
100
AcDbLine
 62
7
  6
CONTINUOUS
 10
1.1919107284
 20
4.5802242898
 11
1.2627440955
 21
4.6887349405
  0
LINE
  5
399
100
AcDbEntity
  8
0
100
AcDbLine
 62
7
  6
CONTINUOUS
 10
1.1919107284
 20
3.9653306954
 11
1.2627440955
 21
4.0738413207
  0
LINE
  5
39A
100
AcDbEntity
  8
0
100
AcDbLine
 62
7
  6
CONTINUOUS
 10
-2.9518391703
 20
-3.7197756596
 11
-2.8810059045
 21
-3.6112650342
  0
LINE
  5
39B
100
AcDbEntity
  8
0
100
AcDbLine
 62
7
  6
CONTINUOUS
 10
2.0064940955
 20
3.6759689264
 11
1.9356608297
 21
3.567458301
  0
LINE
  5
39C
100
AcDbEntity
  8
0
100
AcDbLine
 62
7
  6
CONTINUOUS
 10
1.1564941968
 20
4.8334157869
 11
1.0502441968
 21
4.6887349405
  0
LINE
  5
39D
100
AcDbEntity
  8
0
100
AcDbLine
 62
7
  6
CONTINUOUS
 10
2.0419108297
 20
3.4227774672
 11
2.148160779
 21
3.567458301
  0
LINE
  5
39E
100
AcDbEntity
  8
0
100
AcDbLine
 62
7
  6
CONTINUOUS
 10
-2.9872559045
 20
-3.4665842004
 11
-3.0935058539
 21
-3.6112650342
  0
LINE
  5
39F
100
AcDbEntity
  8
0
100
AcDbLine
 62
7
  6
CONTINUOUS
 10
-3.6601725374
 20
-3.3219033666
 11
-3.8726725374
 21
-3.5750948258
  0
LINE
  5
3A0
100
AcDbEntity
  8
0
100
AcDbLine
 62
7
  6
CONTINUOUS
 10
-3.8726725374
 20
-3.8644565947
 11
-3.6601725374
 21
-3.6112650342
  0
LINE
  5
3A1
100
AcDbEntity
  8
0
100
AcDbLine
 62
7
  6
CONTINUOUS
 10
2.9273274626
 20
3.8206498616
 11
2.7148274626
 21
3.567458301
  0
LINE
  5
3A2
100
AcDbEntity
  8
0
100
AcDbLine
 62
7
  6
CONTINUOUS
 10
1.9356608297
 20
3.567458301
 11
1.8294108297
 21
3.4951178841
  0
LINE
  5
3A3
100
AcDbEntity
  8
0
100
AcDbLine
 62
7
  6
CONTINUOUS
 10
1.8648274626
 20
3.3142668419
 11
2.0419108297
 21
3.4227774672
  0
LWPOLYLINE
  5
3A4
100
AcDbEntity
  8
0
100
AcDbPolyline
 62
253
  6
CONTINUOUS
 90
7
 70
0
 10
-10.2780263045
 20
-1.8251561838
 10
-10.2758147163
 20
-1.8248032272
 10
-10.2707124058
 20
-1.8250013819
 10
-10.2628894361
 20
-1.8254315679
 10
-10.2523303999
 20
-1.8255344741
 10
-10.2390148441
 20
-1.82540807
 10
-10.2054237571
 20
-1.8258890793
  0
LWPOLYLINE
  5
3A5
100
AcDbEntity
  8
0
100
AcDbPolyline
 62
253
  6
CONTINUOUS
 90
7
 70
0
 10
9.3326812296
 20
1.7813494507
 10
9.3304696415
 20
1.780996494
 10
9.325367331
 20
1.7811946487
 10
9.3175443613
 20
1.7816248347
 10
9.3069853251
 20
1.781727741
 10
9.2936697692
 20
1.7816013368
 10
9.2600786823
 20
1.7820823462
  0
LINE
  5
3A6
100
AcDbEntity
  8
0
100
AcDbLine
 62
7
  6
CONTINUOUS
 10
7.7773274626
 20
-0.2664103923
 11
8.0222957205
 21
-0.2419751625
  0
LWPOLYLINE
  5
3A7
100
AcDbEntity
  8
0
100
AcDbPolyline
 62
253
  6
CONTINUOUS
 90
13
 70
0
 10
-10.0780948395
 20
-1.6251866448
 10
-10.1041835885
 20
-1.6269083393
 10
-10.1298262111
 20
-1.6320201394
 10
-10.1545842097
 20
-1.6404346316
 10
-10.178034214
 20
-1.6520079251
 10
-10.199775221
 20
-1.6665421128
 10
-10.219435452
 20
-1.683788655
 10
-10.2366787106
 20
-1.7034526301
 10
-10.2512101309
 20
-1.7251977773
 10
-10.2627812209
 20
-1.7486522473
 10
-10.271194111
 20
-1.7734149607
 10
-10.2763049378
 20
-1.7990624665
 10
-10.2780263045
 20
-1.8251561838
  0
LWPOLYLINE
  5
3A8
100
AcDbEntity
  8
0
100
AcDbPolyline
 62
253
  6
CONTINUOUS
 90
6
 70
0
 10
-10.2054237571
 20
-1.8258890793
 10
-10.185722388
 20
-1.8257131091
 10
-10.1643292689
 20
-1.8258403233
 10
-10.1415969834
 20
-1.8263124541
 10
-10.1179995311
 20
-1.8264441618
 10
-10.0939813832
 20
-1.8259194675
  0
LINE
  5
3A9
100
AcDbEntity
  8
0
100
AcDbLine
 62
253
  6
CONTINUOUS
 10
2.8121205087
 20
-1.8319433275
 11
9.1486392687
 21
-1.8259143749
  0
LINE
  5
3AA
100
AcDbEntity
  8
0
100
AcDbLine
 62
253
  6
CONTINUOUS
 10
2.8066805634
 20
-1.6310826175
 11
9.132755952
 21
-1.6251825204
  0
LINE
  5
3AB
100
AcDbEntity
  8
0
100
AcDbLine
 62
7
  6
CONTINUOUS
 10
-8.7226725374
 20
-1.6109241977
 11
7.7773274626
 21
-1.6109241977
  0
LINE
  5
3AC
100
AcDbEntity
  8
0
100
AcDbLine
 62
7
  6
CONTINUOUS
 10
-10.1728118067
 20
-1.5620500159
 11
-8.9676407953
 21
-1.5620500159
  0
LINE
  5
3AD
100
AcDbEntity
  8
0
100
AcDbLine
 62
7
  6
CONTINUOUS
 10
8.0222957205
 20
-1.5620500159
 11
9.2274667319
 21
-1.5620500159
  0
LINE
  5
3AE
100
AcDbEntity
  8
0
100
AcDbLine
 62
7
  6
CONTINUOUS
 10
-8.7226725374
 20
-0.2664103923
 11
7.7773274626
 21
-0.2664103923
  0
LINE
  5
3AF
100
AcDbEntity
  8
0
100
AcDbLine
 62
7
  6
CONTINUOUS
 10
10.0277638206
 20
-0.2419751625
 11
8.0222957205
 21
-0.2419751625
  0
LINE
  5
3B0
100
AcDbEntity
  8
0
100
AcDbLine
 62
7
  6
CONTINUOUS
 10
-8.9676407953
 20
-0.2419751625
 11
-10.9731088954
 21
-0.2419751625
  0
LINE
  5
3B1
100
AcDbEntity
  8
0
100
AcDbLine
 62
7
  6
CONTINUOUS
 10
-10.9731088954
 20
0.1981684293
 11
-8.9676407953
 21
0.1981684293
  0
LINE
  5
3B2
100
AcDbEntity
  8
0
100
AcDbLine
 62
7
  6
CONTINUOUS
 10
8.0222957205
 20
0.1981684293
 11
10.0277638206
 21
0.1981684293
  0
LINE
  5
3B3
100
AcDbEntity
  8
0
100
AcDbLine
 62
7
  6
CONTINUOUS
 10
7.7773274626
 20
0.2226036591
 11
-8.7226725374
 21
0.2226036591
  0
LINE
  5
3B4
100
AcDbEntity
  8
0
100
AcDbLine
 62
253
  6
CONTINUOUS
 10
-3.7078316168
 20
-1.8319671349
 11
2.8121205087
 21
-1.8319433275
  0
LINE
  5
3B5
100
AcDbEntity
  8
0
100
AcDbLine
 62
253
  6
CONTINUOUS
 10
-3.7024863115
 20
-1.631105906
 11
2.8066805634
 21
-1.6310826175
  0
LINE
  5
3B6
100
AcDbEntity
  8
0
100
AcDbLine
 62
253
  6
CONTINUOUS
 10
-10.0780855865
 20
-1.6251928127
 11
-3.7024863115
 21
-1.631105906
  0
LINE
  5
3B7
100
AcDbEntity
  8
0
100
AcDbLine
 62
253
  6
CONTINUOUS
 10
-10.0939806972
 20
-1.8259268567
 11
-3.7078316168
 21
-1.8319671349
  0
LINE
  5
3B8
100
AcDbEntity
  8
0
100
AcDbLine
 62
7
  6
CONTINUOUS
 10
-8.7226725374
 20
-0.2664103923
 11
-8.9676407953
 21
-0.2419751625
  0
LINE
  5
3B9
100
AcDbEntity
  8
0
100
AcDbLine
 62
7
  6
CONTINUOUS
 10
1.1564939942
 20
-4.2261586793
 11
1.0502439942
 21
-4.0814778454
  0
LINE
  5
3BA
100
AcDbEntity
  8
0
100
AcDbLine
 62
7
  6
CONTINUOUS
 10
0.9439939942
 20
-4.2261586793
 11
1.0148274626
 21
-4.3346693046
  0
LINE
  5
3BB
100
AcDbEntity
  8
0
100
AcDbLine
 62
253
  6
CONTINUOUS
 10
9.2878770431
 20
-20.7719033666
 11
9.1441011197
 21
-20.4841542095
  0
LINE
  5
3BC
100
AcDbEntity
  8
0
100
AcDbLine
 62
253
  6
CONTINUOUS
 10
9.4876715085
 20
-20.5719032725
 11
9.3440333223
 21
-20.2844297789
  0
LINE
  5
3BD
100
AcDbEntity
  8
0
100
AcDbLine
 62
253
  6
CONTINUOUS
 10
-10.4330165833
 20
20.5280965394
 11
-10.2893783971
 21
20.2406230457
  0
LINE
  5
3BE
100
AcDbEntity
  8
0
100
AcDbLine
 62
7
  6
CONTINUOUS
 10
-0.0476725374
 20
-4.5878608145
 11
0.023160931
 21
-4.7325416736
  0
LINE
  5
3BF
100
AcDbEntity
  8
0
100
AcDbLine
 62
7
  6
CONTINUOUS
 10
0.235660931
 20
-4.7325416736
 11
0.1648274626
 21
-4.5878608145
  0
LINE
  5
3C0
100
AcDbEntity
  8
0
100
AcDbLine
 62
7
  6
CONTINUOUS
 10
1.2273274626
 20
-4.4070097722
 11
1.1564939942
 21
-4.2261586793
  0
LINE
  5
3C1
100
AcDbEntity
  8
0
100
AcDbLine
 62
7
  6
CONTINUOUS
 10
-2.1726725374
 20
4.363203039
 11
-2.101839069
 21
4.1823519461
  0
LINE
  5
3C2
100
AcDbEntity
  8
0
100
AcDbLine
 62
7
  6
CONTINUOUS
 10
-1.9601725374
 20
4.2908625715
 11
-1.995589069
 21
4.3993732475
  0
LINE
  5
3C3
100
AcDbEntity
  8
0
100
AcDbLine
 62
7
  6
CONTINUOUS
 10
1.0148274626
 20
-4.3346693046
 11
1.0502439942
 21
-4.4431799807
  0
LWPOLYLINE
  5
3C4
100
AcDbEntity
  8
0
100
AcDbPolyline
 62
7
  6
CONTINUOUS
 90
28
 70
0
 10
2.6603067096
 20
-18.8941233223
 10
2.6556499135
 20
-18.8764561698
 10
2.6509674454
 20
-18.8592882774
 10
2.6462593032
 20
-18.8426196479
 10
2.6415718214
 20
-18.8264739191
 10
2.6368586609
 20
-18.8108274584
 10
2.6319808104
 20
-18.7956093638
 10
2.626910014
 20
-18.7808247895
 10
2.6216745263
 20
-18.7664685868
 10
2.6162201039
 20
-18.7524543996
 10
2.6105513091
 20
-18.738773216
 10
2.604663579
 20
-18.7254340528
 10
2.598488984
 20
-18.7123775976
 10
2.5920401574
 20
-18.6995928843
 10
2.5853044662
 20
-18.6870908839
 10
2.5781760824
 20
-18.6748451904
 10
2.5706422495
 20
-18.6628062551
 10
2.5627157251
 20
-18.6510236328
 10
2.554328953
 20
-18.6396195742
 10
2.5454894424
 20
-18.6285850506
 10
2.5361896828
 20
-18.6179290986
 10
2.5263395867
 20
-18.607801069
 10
2.5158988242
 20
-18.5981653808
 10
2.5049077207
 20
-18.589057625
 10
2.4933971676
 20
-18.5807339112
 10
2.4813774574
 20
-18.5732796124
 10
2.4688382856
 20
-18.5666093655
 10
2.4557796454
 20
-18.560723175
  0
LWPOLYLINE
  5
3C5
100
AcDbEntity
  8
0
100
AcDbPolyline
 62
7
  6
CONTINUOUS
 90
3
 70
0
 10
2.7816080211
 20
-19.3542040533
 10
2.7153123765
 20
-19.1012567062
 10
2.6881866727
 20
-18.9982312427
  0
LINE
  5
3C6
100
AcDbEntity
  8
0
100
AcDbLine
 62
7
  6
CONTINUOUS
 10
-0.9309685374
 20
19.3103976334
 11
-0.7720115374
 21
17.6105346334
  0
LINE
  5
3C7
100
AcDbEntity
  8
0
100
AcDbLine
 62
7
  6
CONTINUOUS
 10
-0.5109515374
 20
18.2050456334
 11
-0.5838525374
 21
19.3103976334
  0
LINE
  5
3C8
100
AcDbEntity
  8
0
100
AcDbLine
 62
7
  6
CONTINUOUS
 10
-0.0476725374
 20
-3.3219033666
 11
-0.0476725374
 21
-4.2623288877
  0
LINE
  5
3C9
100
AcDbEntity
  8
0
100
AcDbLine
 62
7
  6
CONTINUOUS
 10
0.129410931
 20
-4.0814778454
 11
0.129410931
 21
-3.5027544089
  0
LINE
  5
3CA
100
AcDbEntity
  8
0
100
AcDbLine
 62
7
  6
CONTINUOUS
 10
0.6606607284
 20
3.2780966334
 11
0.6606607284
 21
3.4589476757
  0
LINE
  5
3CB
100
AcDbEntity
  8
0
100
AcDbLine
 62
7
  6
CONTINUOUS
 10
0.9439941968
 20
4.254692363
 11
0.9439941968
 21
4.0015009038
  0
LINE
  5
3CC
100
AcDbEntity
  8
0
100
AcDbLine
 62
7
  6
CONTINUOUS
 10
0.9840014626
 20
19.3103976334
 11
0.9840014626
 21
17.6104326334
  0
LINE
  5
3CD
100
AcDbEntity
  8
0
100
AcDbLine
 62
7
  6
CONTINUOUS
 10
1.0502439942
 20
-4.4431799807
 11
1.0502439942
 21
-4.5155203976
  0
LINE
  5
3CE
100
AcDbEntity
  8
0
100
AcDbLine
 62
7
  6
CONTINUOUS
 10
1.1210774626
 20
4.1823519461
 11
1.1210774626
 21
4.254692363
  0
LINE
  5
3CF
100
AcDbEntity
  8
0
100
AcDbLine
 62
7
  6
CONTINUOUS
 10
1.1564939942
 20
-3.5027544089
 11
1.1564939942
 21
-3.3219033666
  0
LINE
  5
3D0
100
AcDbEntity
  8
0
100
AcDbLine
 62
7
  6
CONTINUOUS
 10
1.1564941968
 20
3.7844796531
 11
1.1564941968
 21
3.85682007
  0
LINE
  5
3D1
100
AcDbEntity
  8
0
100
AcDbLine
 62
7
  6
CONTINUOUS
 10
1.2273274626
 20
-4.551690606
 11
1.2273274626
 21
-4.4070097722
  0
LINE
  5
3D2
100
AcDbEntity
  8
0
100
AcDbLine
 62
7
  6
CONTINUOUS
 10
1.3388294626
 20
17.6104326334
 11
1.3388294626
 21
19.3103976334
  0
LINE
  5
3D3
100
AcDbEntity
  8
0
100
AcDbLine
 62
7
  6
CONTINUOUS
 10
1.510660931
 20
-3.5750948258
 11
1.510660931
 21
-3.8644565947
  0
LINE
  5
3D4
100
AcDbEntity
  8
0
100
AcDbLine
 62
7
  6
CONTINUOUS
 10
1.5435341265
 20
-17.6742012844
 11
1.5435341265
 21
-19.3542040533
  0
LINE
  5
3D5
100
AcDbEntity
  8
0
100
AcDbLine
 62
7
  6
CONTINUOUS
 10
1.723160931
 20
-3.6112650342
 11
1.723160931
 21
-5.0219033666
  0
LINE
  5
3D6
100
AcDbEntity
  8
0
100
AcDbLine
 62
7
  6
CONTINUOUS
 10
1.8851688942
 20
-18.4105751981
 11
1.8851688942
 21
-17.9439297156
  0
LINE
  5
3D7
100
AcDbEntity
  8
0
100
AcDbLine
 62
7
  6
CONTINUOUS
 10
1.8969344586
 20
-19.3542040533
 11
1.8969344586
 21
-18.6889716507
  0
LINE
  5
3D8
100
AcDbEntity
  8
0
100
AcDbLine
 62
7
  6
CONTINUOUS
 10
-1.3988765374
 20
-19.3542043666
 11
-1.3223045374
 21
-18.2442253666
  0
LINE
  5
3D9
100
AcDbEntity
  8
0
100
AcDbLine
 62
7
  6
CONTINUOUS
 10
-1.5848445374
 20
-17.6543413666
 11
-1.7383315374
 21
-19.3542043666
  0
LINE
  5
3DA
100
AcDbEntity
  8
0
100
AcDbLine
 62
7
  6
CONTINUOUS
 10
0.9794107284
 20
4.5078838728
 11
0.9439941968
 21
4.254692363
  0
LINE
  5
3DB
100
AcDbEntity
  8
0
100
AcDbLine
 62
7
  6
CONTINUOUS
 10
1.1210774626
 20
4.254692363
 11
1.1564941968
 21
4.4717136644
  0
LINE
  5
3DC
100
AcDbEntity
  8
0
100
AcDbLine
 62
7
  6
CONTINUOUS
 10
1.1564941968
 20
3.85682007
 11
1.1919107284
 21
3.9653306954
  0
LINE
  5
3DD
100
AcDbEntity
  8
0
100
AcDbLine
 62
7
  6
CONTINUOUS
 10
2.0419108297
 20
3.7844796531
 11
2.0064940955
 21
3.6759689264
  0
LINE
  5
3DE
100
AcDbEntity
  8
0
100
AcDbLine
 62
7
  6
CONTINUOUS
 10
-1.9955892716
 20
-4.7325416736
 11
-1.9247558032
 21
-4.551690606
  0
LINE
  5
3DF
100
AcDbEntity
  8
0
100
AcDbLine
 62
7
  6
CONTINUOUS
 10
2.148160779
 20
3.567458301
 11
2.2189941461
 21
3.7483094446
  0
LINE
  5
3E0
100
AcDbEntity
  8
0
100
AcDbLine
 62
7
  6
CONTINUOUS
 10
-0.5435058032
 20
-3.5027544089
 11
-1.2518392716
 21
-5.0219033666
  0
LINE
  5
3E1
100
AcDbEntity
  8
0
100
AcDbLine
 62
7
  6
CONTINUOUS
 10
-1.0393392716
 20
-5.0219033666
 11
-0.3310060058
 21
-3.5027544089
  0
LINE
  5
3E2
100
AcDbEntity
  8
0
100
AcDbLine
 62
253
  6
CONTINUOUS
 10
-10.0894622891
 20
-20.4841864208
 11
-10.2332221179
 21
-20.7719033666
  0
LINE
  5
3E3
100
AcDbEntity
  8
0
100
AcDbLine
 62
7
  6
CONTINUOUS
 10
4.3898694626
 20
5.9155436334
 11
4.6768464626
 21
6.3959946334
  0
LINE
  5
3E4
100
AcDbEntity
  8
0
100
AcDbLine
 62
7
  6
CONTINUOUS
 10
4.6085804626
 20
6.5132766334
 11
4.2310934626
 21
5.9155436334
  0
LINE
  5
3E5
100
AcDbEntity
  8
0
100
AcDbLine
 62
7
  6
CONTINUOUS
 10
-2.1372558032
 20
-4.0091374285
 11
-2.2080891703
 21
-4.1176480539
  0
LINE
  5
3E6
100
AcDbEntity
  8
0
100
AcDbLine
 62
7
  6
CONTINUOUS
 10
-2.1372558032
 20
-4.6240310229
 11
-2.2080891703
 21
-4.7325416736
  0
LINE
  5
3E7
100
AcDbEntity
  8
0
100
AcDbLine
 62
7
  6
CONTINUOUS
 10
-2.1018392716
 20
-4.8772225201
 11
-1.9955892716
 21
-4.7325416736
  0
LINE
  5
3E8
100
AcDbEntity
  8
0
100
AcDbLine
 62
7
  6
CONTINUOUS
 10
2.7148274626
 20
3.2780966334
 11
2.9273274626
 21
3.5312880926
  0
LINE
  5
3E9
100
AcDbEntity
  8
0
100
AcDbLine
 62
7
  6
CONTINUOUS
 10
-2.8810059045
 20
-3.6112650342
 11
-2.7747559045
 21
-3.5389246173
  0
LINE
  5
3EA
100
AcDbEntity
  8
0
100
AcDbLine
 62
7
  6
CONTINUOUS
 10
-2.8101725374
 20
-3.358073575
 11
-2.9872559045
 21
-3.4665842004
  0
LINE
  5
3EB
100
AcDbEntity
  8
0
100
AcDbLine
 62
7
  6
CONTINUOUS
 10
-8.7226725374
 20
0.2226036591
 11
-8.9676407953
 21
0.1981684293
  0
LWPOLYLINE
  5
3EC
100
AcDbEntity
  8
0
100
AcDbPolyline
 62
253
  6
CONTINUOUS
 90
13
 70
0
 10
9.1327497646
 20
1.5813799117
 10
9.1588385137
 20
1.5831016062
 10
9.1844811363
 20
1.5882134062
 10
9.2092391349
 20
1.5966278984
 10
9.2326891392
 20
1.6082011919
 10
9.2544301462
 20
1.6227353796
 10
9.2740903772
 20
1.6399819218
 10
9.2913336357
 20
1.6596458969
 10
9.3058650561
 20
1.6813910442
 10
9.3174361461
 20
1.7048455142
 10
9.3258490361
 20
1.7296082275
 10
9.3309598629
 20
1.7552557334
 10
9.3326812296
 20
1.7813494507
  0
LWPOLYLINE
  5
3ED
100
AcDbEntity
  8
0
100
AcDbPolyline
 62
253
  6
CONTINUOUS
 90
6
 70
0
 10
-10.2388909997
 20
1.7819372622
 10
-10.2521627683
 20
1.7816276265
 10
-10.2628894363
 20
1.7816248302
 10
-10.2708604782
 20
1.7819686993
 10
-10.2759210973
 20
1.7819817332
 10
-10.2780263045
 20
1.7813494507
  0
LWPOLYLINE
  5
3EE
100
AcDbEntity
  8
0
100
AcDbPolyline
 62
253
  6
CONTINUOUS
 90
7
 70
0
 10
-10.0939813827
 20
1.7821127343
 10
-10.1187263958
 20
1.7816692757
 10
-10.1421416864
 20
1.7817464228
 10
-10.1643292692
 20
1.7820335856
 10
-10.1854313983
 20
1.7819951112
 10
-10.2052686292
 20
1.781738856
 10
-10.2388909997
 20
1.7819372622
  0
LWPOLYLINE
  5
3EF
100
AcDbEntity
  8
0
100
AcDbPolyline
 62
253
  6
CONTINUOUS
 90
6
 70
0
 10
9.2600786823
 20
1.7820823462
 10
9.2403773132
 20
1.7819063759
 10
9.2189841941
 20
1.7820335901
 10
9.1962519086
 20
1.7825057209
 10
9.1726544563
 20
1.7826374286
 10
9.1486363084
 20
1.7821127343
  0
LINE
  5
3F0
100
AcDbEntity
  8
0
100
AcDbLine
 62
253
  6
CONTINUOUS
 10
-3.7520256382
 20
1.5872758843
 11
-10.0781010268
 21
1.5813757873
  0
LINE
  5
3F1
100
AcDbEntity
  8
0
100
AcDbLine
 62
253
  6
CONTINUOUS
 10
-3.7574655836
 20
1.7881365943
 11
-10.0939843436
 21
1.7821076417
  0
LINE
  5
3F2
100
AcDbEntity
  8
0
100
AcDbLine
 62
7
  6
CONTINUOUS
 10
9.2274667319
 20
1.5182432828
 11
8.0222957205
 21
1.5182432828
  0
LINE
  5
3F3
100
AcDbEntity
  8
0
100
AcDbLine
 62
7
  6
CONTINUOUS
 10
-8.9676407953
 20
1.5182432828
 11
-10.1728118067
 21
1.5182432828
  0
LINE
  5
3F4
100
AcDbEntity
  8
0
100
AcDbLine
 62
7
  6
CONTINUOUS
 10
7.7773274626
 20
1.5671174646
 11
-8.7226725374
 21
1.5671174646
  0
LINE
  5
3F5
100
AcDbEntity
  8
0
100
AcDbLine
 62
253
  6
CONTINUOUS
 10
2.7571412367
 20
1.5872991728
 11
-3.7520256382
 21
1.5872758843
  0
LINE
  5
3F6
100
AcDbEntity
  8
0
100
AcDbLine
 62
253
  6
CONTINUOUS
 10
2.762486542
 20
1.7881604017
 11
-3.7574655836
 21
1.7881365943
  0
LINE
  5
3F7
100
AcDbEntity
  8
0
100
AcDbLine
 62
253
  6
CONTINUOUS
 10
9.1327405116
 20
1.5813860795
 11
2.7571412367
 21
1.5872991728
  0
LINE
  5
3F8
100
AcDbEntity
  8
0
100
AcDbLine
 62
253
  6
CONTINUOUS
 10
9.1486356224
 20
1.7821201235
 11
2.762486542
 21
1.7881604017
  0
LINE
  5
3F9
100
AcDbEntity
  8
0
100
AcDbLine
 62
7
  6
CONTINUOUS
 10
7.7773274626
 20
0.2226036591
 11
8.0222957205
 21
0.1981684293
  0
LINE
  5
3FA
100
AcDbEntity
  8
0
100
AcDbLine
 62
7
  6
CONTINUOUS
 10
-2.101839069
 20
4.1823519461
 11
-1.995589069
 21
4.0376711123
  0
LINE
  5
3FB
100
AcDbEntity
  8
0
100
AcDbLine
 62
7
  6
CONTINUOUS
 10
-0.9685060058
 20
4.6887349405
 11
-1.0747560058
 21
4.8334157869
  0
LINE
  5
3FC
100
AcDbEntity
  8
0
100
AcDbLine
 62
7
  6
CONTINUOUS
 10
-1.889339069
 20
4.1823519461
 11
-1.9601725374
 21
4.2908625715
  0
LINE
  5
3FD
100
AcDbEntity
  8
0
100
AcDbLine
 62
253
  6
CONTINUOUS
 10
-10.2332221179
 20
20.7280966334
 11
-10.0894461945
 21
20.4403474764
  0
LINE
  5
3FE
100
AcDbEntity
  8
0
100
AcDbLine
 62
7
  6
CONTINUOUS
 10
-1.1810060058
 20
4.6887349405
 11
-1.1101725374
 21
4.5440540813
  0
LINE
  5
3FF
100
AcDbEntity
  8
0
100
AcDbLine
 62
7
  6
CONTINUOUS
 10
-0.8976725374
 20
4.5440540813
 11
-0.9685060058
 21
4.6887349405
  0
LINE
  5
400
100
AcDbEntity
  8
0
100
AcDbLine
 62
7
  6
CONTINUOUS
 10
-3.6472080426
 20
19.0060738307
 11
-3.6056517844
 21
18.8503165892
  0
LWPOLYLINE
  5
401
100
AcDbEntity
  8
0
100
AcDbPolyline
 62
7
  6
CONTINUOUS
 90
28
 70
0
 10
-3.6056517844
 20
18.8503165892
 10
-3.6009949883
 20
18.8326494366
 10
-3.5963125202
 20
18.8154815442
 10
-3.591604378
 20
18.7988129148
 10
-3.5869168962
 20
18.7826671859
 10
-3.5822037357
 20
18.7670207253
 10
-3.5773258852
 20
18.7518026306
 10
-3.5722550889
 20
18.7370180563
 10
-3.5670196011
 20
18.7226618536
 10
-3.5615651787
 20
18.7086476664
 10
-3.5558963839
 20
18.6949664828
 10
-3.5500086538
 20
18.6816273196
 10
-3.5438340589
 20
18.6685708644
 10
-3.5373852322
 20
18.6557861511
 10
-3.530649541
 20
18.6432841507
 10
-3.5235211572
 20
18.6310384573
 10
-3.5159873243
 20
18.6189995219
 10
-3.5080607999
 20
18.6072168996
 10
-3.4996740278
 20
18.5958128411
 10
-3.4908345172
 20
18.5847783175
 10
-3.4815347576
 20
18.5741223655
 10
-3.4716846615
 20
18.5639943358
 10
-3.461243899
 20
18.5543586476
 10
-3.4502527955
 20
18.5452508919
 10
-3.4387422424
 20
18.536927178
 10
-3.4267225322
 20
18.5294728793
 10
-3.4141833604
 20
18.5228026323
 10
-3.4011247202
 20
18.5169164418
  0
LINE
  5
402
100
AcDbEntity
  8
0
100
AcDbLine
 62
7
  6
CONTINUOUS
 10
-3.7269530959
 20
19.3103973201
 11
-3.6472080426
 21
19.0060738307
  0
LINE
  5
403
100
AcDbEntity
  8
0
100
AcDbLine
 62
7
  6
CONTINUOUS
 10
0.9439941968
 20
4.0015009038
 11
0.9794107284
 21
3.7483094446
  0
LINE
  5
404
100
AcDbEntity
  8
0
100
AcDbLine
 62
7
  6
CONTINUOUS
 10
1.935660931
 20
-5.0219033666
 11
1.935660931
 21
-3.3219033666
  0
LINE
  5
405
100
AcDbEntity
  8
0
100
AcDbLine
 62
7
  6
CONTINUOUS
 10
2.0419108297
 20
3.85682007
 11
2.0419108297
 21
3.7844796531
  0
LINE
  5
406
100
AcDbEntity
  8
0
100
AcDbLine
 62
7
  6
CONTINUOUS
 10
2.2189941461
 20
3.7483094446
 11
2.2189941461
 21
3.8929902785
  0
LINE
  5
407
100
AcDbEntity
  8
0
100
AcDbLine
 62
7
  6
CONTINUOUS
 10
2.4557796454
 20
-18.560723175
 11
2.4557796454
 21
-18.5506784678
  0
LINE
  5
408
100
AcDbEntity
  8
0
100
AcDbLine
 62
7
  6
CONTINUOUS
 10
2.4613020588
 20
22.2994849645
 11
2.4613020588
 21
20.7280966334
  0
LINE
  5
409
100
AcDbEntity
  8
0
100
AcDbLine
 62
7
  6
CONTINUOUS
 10
2.4613020588
 20
-22.3432916977
 11
2.4613020588
 21
-20.7719033666
  0
LINE
  5
40A
100
AcDbEntity
  8
0
100
AcDbLine
 62
7
  6
CONTINUOUS
 10
2.5023274626
 20
4.9780966334
 11
2.5023274626
 21
3.2780966334
  0
LINE
  5
40B
100
AcDbEntity
  8
0
100
AcDbLine
 62
7
  6
CONTINUOUS
 10
2.7148274626
 20
3.567458301
 11
2.7148274626
 21
4.9780966334
  0
LINE
  5
40C
100
AcDbEntity
  8
0
100
AcDbLine
 62
7
  6
CONTINUOUS
 10
2.9273274626
 20
3.5312880926
 11
2.9273274626
 21
3.8206498616
  0
LINE
  5
40D
100
AcDbEntity
  8
0
100
AcDbLine
 62
253
  6
CONTINUOUS
 10
3.2695924357
 20
-22.2699208067
 11
3.2695924357
 21
-20.6985324756
  0
LINE
  5
40E
100
AcDbEntity
  8
0
100
AcDbLine
 62
253
  6
CONTINUOUS
 10
3.2695924357
 20
20.6547257424
 11
3.2695924357
 21
22.2261140735
  0
LINE
  5
40F
100
AcDbEntity
  8
0
100
AcDbLine
 62
253
  6
CONTINUOUS
 10
3.4427975164
 20
-22.2646800287
 11
3.4427975164
 21
-20.6932916977
  0
LINE
  5
410
100
AcDbEntity
  8
0
100
AcDbLine
 62
253
  6
CONTINUOUS
 10
3.4427975164
 20
20.6494849645
 11
3.4427975164
 21
22.2208732956
  0
LWPOLYLINE
  5
411
100
AcDbEntity
  8
0
100
AcDbPolyline
 62
7
  6
CONTINUOUS
 90
25
 70
0
 10
2.3635799411
 20
-18.1464172454
 10
2.363225174
 20
-18.1651285594
 10
2.3617946226
 20
-18.183609467
 10
2.3592882741
 20
-18.2018599681
 10
2.3557134072
 20
-18.2199458988
 10
2.3510627172
 20
-18.2378014245
 10
2.345314316
 20
-18.2552290412
 10
2.3384794186
 20
-18.2722991648
 10
2.3305467841
 20
-18.2889413879
 10
2.3214608412
 20
-18.3047469767
 10
2.3111809521
 20
-18.3197284183
 10
2.2997477325
 20
-18.3338732447
 10
2.2872274972
 20
-18.3467352965
 10
2.2734991766
 20
-18.3581568249
 10
2.2586838325
 20
-18.3682956075
 10
2.2432109868
 20
-18.3771787745
 10
2.2270816578
 20
-18.3847229143
 10
2.2102948374
 20
-18.391011461
 10
2.1932770151
 20
-18.3963218054
 10
2.1761415766
 20
-18.4006583179
 10
2.1587751531
 20
-18.4040166386
 10
2.1412641029
 20
-18.4066610555
 10
2.1236372156
 20
-18.408679666
 10
2.1058657146
 20
-18.4099843791
 10
2.087949607
 20
-18.4105751981
  0
LINE
  5
412
100
AcDbEntity
  8
0
100
AcDbLine
 62
7
  6
CONTINUOUS
 10
-2.7704385374
 20
-17.6543413666
 11
-3.1043605374
 21
-18.8244093666
  0
LINE
  5
413
100
AcDbEntity
  8
0
100
AcDbLine
 62
7
  6
CONTINUOUS
 10
-2.9622565374
 20
-19.3542043666
 11
-2.4158525374
 21
-17.6543413666
  0
LINE
  5
414
100
AcDbEntity
  8
0
100
AcDbLine
 62
7
  6
CONTINUOUS
 10
1.0502439942
 20
-4.5155203976
 11
1.0148274626
 21
-4.6240310229
  0
LINE
  5
415
100
AcDbEntity
  8
0
100
AcDbLine
 62
7
  6
CONTINUOUS
 10
6.4765984626
 20
6.9160796334
 11
6.3720954626
 21
6.6248966334
  0
LINE
  5
416
100
AcDbEntity
  8
0
100
AcDbLine
 62
7
  6
CONTINUOUS
 10
6.3303594626
 20
6.5051886334
 11
6.1686974626
 21
6.0612496334
  0
LINE
  5
417
100
AcDbEntity
  8
0
100
AcDbLine
 62
7
  6
CONTINUOUS
 10
6.2397694626
 20
5.9155436334
 11
6.6158804626
 21
6.9160796334
  0
LINE
  5
418
100
AcDbEntity
  8
0
100
AcDbLine
 62
7
  6
CONTINUOUS
 10
1.1564939942
 20
-4.7325416736
 11
1.2273274626
 21
-4.551690606
  0
LINE
  5
419
100
AcDbEntity
  8
0
100
AcDbLine
 62
7
  6
CONTINUOUS
 10
1.0148274626
 20
-4.6240310229
 11
0.9439939942
 21
-4.7325416736
  0
LINE
  5
41A
100
AcDbEntity
  8
0
100
AcDbLine
 62
7
  6
CONTINUOUS
 10
1.0502439942
 20
-4.8772225201
 11
1.1564939942
 21
-4.7325416736
  0
LINE
  5
41B
100
AcDbEntity
  8
0
100
AcDbLine
 62
7
  6
CONTINUOUS
 10
1.723160931
 20
-3.3219033666
 11
1.510660931
 21
-3.5750948258
  0
LINE
  5
41C
100
AcDbEntity
  8
0
100
AcDbLine
 62
7
  6
CONTINUOUS
 10
1.510660931
 20
-3.8644565947
 11
1.723160931
 21
-3.6112650342
  0
LINE
  5
41D
100
AcDbEntity
  8
0
100
AcDbLine
 62
7
  6
CONTINUOUS
 10
0.2002439942
 20
-4.2623288877
 11
0.341910931
 21
-4.1538182624
  0
LINE
  5
41E
100
AcDbEntity
  8
0
100
AcDbLine
 62
7
  6
CONTINUOUS
 10
-2.2080891703
 20
-4.1176480539
 11
-2.3143391703
 21
-4.1899884708
  0
LINE
  5
41F
100
AcDbEntity
  8
0
100
AcDbLine
 62
7
  6
CONTINUOUS
 10
-2.2789225374
 20
-4.3708395131
 11
-2.0664225374
 21
-4.2261586793
  0
LINE
  5
420
100
AcDbEntity
  8
0
100
AcDbLine
 62
7
  6
CONTINUOUS
 10
-2.2080891703
 20
-4.7325416736
 11
-2.3143391703
 21
-4.8048820905
  0
LINE
  5
421
100
AcDbEntity
  8
0
100
AcDbLine
 62
7
  6
CONTINUOUS
 10
-2.2789225374
 20
-4.985733155
 11
-2.1018392716
 21
-4.8772225201
  0
LINE
  5
422
100
AcDbEntity
  8
0
100
AcDbLine
 62
7
  6
CONTINUOUS
 10
0.3064939942
 20
-3.9729672201
 11
0.129410931
 21
-4.0814778454
  0
LINE
  5
423
100
AcDbEntity
  8
0
100
AcDbLine
 62
7
  6
CONTINUOUS
 10
-2.7747559045
 20
-3.5389246173
 11
-2.6685059045
 21
-3.5027544089
  0
LINE
  5
424
100
AcDbEntity
  8
0
100
AcDbLine
 62
7
  6
CONTINUOUS
 10
-2.3143391703
 20
-4.1899884708
 11
-2.4205891703
 21
-4.2261586793
  0
LINE
  5
425
100
AcDbEntity
  8
0
100
AcDbLine
 62
7
  6
CONTINUOUS
 10
-2.3143391703
 20
-4.8048820905
 11
-2.4205891703
 21
-4.841052299
  0
LINE
  5
426
100
AcDbEntity
  8
0
100
AcDbLine
 62
7
  6
CONTINUOUS
 10
-1.2872560058
 20
4.1100115292
 11
-1.4289225374
 21
4.0738413207
  0
LINE
  5
427
100
AcDbEntity
  8
0
100
AcDbLine
 62
7
  6
CONTINUOUS
 10
1.6877440955
 20
3.2780966334
 11
1.8648274626
 21
3.3142668419
  0
LINE
  5
428
100
AcDbEntity
  8
0
100
AcDbLine
 62
7
  6
CONTINUOUS
 10
1.5106608297
 20
4.363203039
 11
1.3335774626
 21
4.3270327799
  0
LINE
  5
429
100
AcDbEntity
  8
0
100
AcDbLine
 62
7
  6
CONTINUOUS
 10
-1.4289225374
 20
3.8929902785
 11
-1.251839069
 21
3.9291604869
  0
LINE
  5
42A
100
AcDbEntity
  8
0
100
AcDbLine
 62
7
  6
CONTINUOUS
 10
1.5106608297
 20
4.9780966334
 11
1.3335774626
 21
4.9419264218
  0
LINE
  5
42B
100
AcDbEntity
  8
0
100
AcDbLine
 62
7
  6
CONTINUOUS
 10
-8.7226725374
 20
1.5671174646
 11
-8.9676407953
 21
1.5182432828
  0
LWPOLYLINE
  5
42C
100
AcDbEntity
  8
0
100
AcDbPolyline
 62
7
  6
CONTINUOUS
 90
25
 70
0
 10
5.4478808864
 20
4.0398406334
 10
5.4177190669
 20
4.0390483581
 10
5.3879365029
 20
4.036232659
 10
5.3585332118
 20
4.0313935435
 10
5.3293282571
 20
4.0245843747
 10
5.3005026097
 20
4.0157518029
 10
5.2725991597
 20
4.0047357639
 10
5.2455730474
 20
3.9913872784
 10
5.2194691904
 20
3.9758553314
 10
5.1949651632
 20
3.9584267979
 10
5.1722413053
 20
3.9390286911
 10
5.1511173458
 20
3.9177339889
 10
5.1317299461
 20
3.8950485066
 10
5.11415998
 20
3.8710173706
 10
5.0983266231
 20
3.8455954388
 10
5.0841239817
 20
3.819153122
 10
5.0715667985
 20
3.7917637265
 10
5.0606403601
 20
3.7633539294
 10
5.0511945807
 20
3.7340741985
 10
5.0431195539
 20
3.7039912718
 10
5.036525202
 20
3.6730383959
 10
5.0315911791
 20
3.641165801
 10
5.0283773723
 20
3.6083568908
 10
5.0268239014
 20
3.5746282426
 10
5.0269307673
 20
3.539979847
  0
LINE
  5
42D
100
AcDbEntity
  8
0
100
AcDbLine
 62
7
  6
CONTINUOUS
 10
4.1113044626
 20
3.0401136334
 11
4.8398274626
 21
3.0401136334
  0
LINE
  5
42E
100
AcDbEntity
  8
0
100
AcDbLine
 62
7
  6
CONTINUOUS
 10
5.4471862949
 20
3.0401136334
 11
5.8524964626
 21
3.0401136334
  0
LINE
  5
42F
100
AcDbEntity
  8
0
100
AcDbLine
 62
7
  6
CONTINUOUS
 10
6.3456464626
 20
3.0401136334
 11
6.4988414626
 21
3.0401136334
  0
LINE
  5
430
100
AcDbEntity
  8
0
100
AcDbLine
 62
7
  6
CONTINUOUS
 10
6.9947414626
 20
3.0401136334
 11
7.1870034626
 21
3.0401136334
  0
LINE
  5
431
100
AcDbEntity
  8
0
100
AcDbLine
 62
7
  6
CONTINUOUS
 10
7.7595004626
 20
3.0401136334
 11
7.9531374626
 21
3.0401136334
  0
LINE
  5
432
100
AcDbEntity
  8
0
100
AcDbLine
 62
7
  6
CONTINUOUS
 10
5.7174204626
 20
3.1557776334
 11
5.465304332
 21
3.1557776334
  0
LINE
  5
433
100
AcDbEntity
  8
0
100
AcDbLine
 62
7
  6
CONTINUOUS
 10
4.7046704626
 20
3.1598226334
 11
4.1113044626
 21
3.1598226334
  0
LINE
  5
434
100
AcDbEntity
  8
0
100
AcDbLine
 62
7
  6
CONTINUOUS
 10
-2.8810060058
 20
3.2780966334
 11
-2.6685060058
 21
3.2780966334
  0
LINE
  5
435
100
AcDbEntity
  8
0
100
AcDbLine
 62
7
  6
CONTINUOUS
 10
-2.101839069
 20
3.2780966334
 11
-0.8976725374
 21
3.2780966334
  0
LINE
  5
436
100
AcDbEntity
  8
0
100
AcDbLine
 62
7
  6
CONTINUOUS
 10
-0.614339069
 20
3.2780966334
 11
0.6606607284
 21
3.2780966334
  0
LINE
  5
437
100
AcDbEntity
  8
0
100
AcDbLine
 62
7
  6
CONTINUOUS
 10
1.5106608297
 20
3.2780966334
 11
1.6877440955
 21
3.2780966334
  0
LINE
  5
438
100
AcDbEntity
  8
0
100
AcDbLine
 62
7
  6
CONTINUOUS
 10
2.5023274626
 20
3.2780966334
 11
2.7148274626
 21
3.2780966334
  0
LINE
  5
439
100
AcDbEntity
  8
0
100
AcDbLine
 62
7
  6
CONTINUOUS
 10
1.7231608297
 20
3.4589476757
 11
1.4752440955
 21
3.4589476757
  0
LINE
  5
43A
100
AcDbEntity
  8
0
100
AcDbLine
 62
7
  6
CONTINUOUS
 10
0.6606607284
 20
3.4589476757
 11
-0.4018392716
 21
3.4589476757
  0
LINE
  5
43B
100
AcDbEntity
  8
0
100
AcDbLine
 62
7
  6
CONTINUOUS
 10
-1.0747560058
 20
3.4589476757
 11
-2.101839069
 21
3.4589476757
  0
LINE
  5
43C
100
AcDbEntity
  8
0
100
AcDbLine
 62
7
  6
CONTINUOUS
 10
4.1572464626
 20
3.4663726334
 11
4.7046704626
 21
3.4663726334
  0
LINE
  5
43D
100
AcDbEntity
  8
0
100
AcDbLine
 62
7
  6
CONTINUOUS
 10
4.7046704626
 20
3.5860816334
 11
4.1572464626
 21
3.5860816334
  0
LINE
  5
43E
100
AcDbEntity
  8
0
100
AcDbLine
 62
7
  6
CONTINUOUS
 10
6.2787554626
 20
3.6289496334
 11
6.5893504626
 21
3.6289496334
  0
LINE
  5
43F
100
AcDbEntity
  8
0
100
AcDbLine
 62
7
  6
CONTINUOUS
 10
6.6311674626
 20
3.7486586334
 11
6.2299824626
 21
3.7486586334
  0
LINE
  5
440
100
AcDbEntity
  8
0
100
AcDbLine
 62
7
  6
CONTINUOUS
 10
-1.6414225374
 20
3.8929902785
 11
-1.4289225374
 21
3.8929902785
  0
LINE
  5
441
100
AcDbEntity
  8
0
100
AcDbLine
 62
7
  6
CONTINUOUS
 10
4.1015174626
 20
3.9201326334
 11
4.7046704626
 21
3.9201326334
  0
LINE
  5
442
100
AcDbEntity
  8
0
100
AcDbLine
 62
7
  6
CONTINUOUS
 10
5.4657492717
 20
3.9241766334
 11
5.7174204626
 21
3.9241766334
  0
LINE
  5
443
100
AcDbEntity
  8
0
100
AcDbLine
 62
7
  6
CONTINUOUS
 10
7.9531374626
 20
4.0398406334
 11
7.8221864626
 21
4.0398406334
  0
LINE
  5
444
100
AcDbEntity
  8
0
100
AcDbLine
 62
7
  6
CONTINUOUS
 10
7.5407904626
 20
4.0398406334
 11
7.4070884626
 21
4.0398406334
  0
LINE
  5
445
100
AcDbEntity
  8
0
100
AcDbLine
 62
7
  6
CONTINUOUS
 10
7.1256934626
 20
4.0398406334
 11
6.9947414626
 21
4.0398406334
  0
LINE
  5
446
100
AcDbEntity
  8
0
100
AcDbLine
 62
7
  6
CONTINUOUS
 10
6.8749524626
 20
4.0398406334
 11
6.7356694626
 21
4.0398406334
  0
LINE
  5
447
100
AcDbEntity
  8
0
100
AcDbLine
 62
7
  6
CONTINUOUS
 10
6.1310614626
 20
4.0398406334
 11
5.9834474626
 21
4.0398406334
  0
LINE
  5
448
100
AcDbEntity
  8
0
100
AcDbLine
 62
7
  6
CONTINUOUS
 10
5.8524964626
 20
4.0398406334
 11
5.4478808864
 21
4.0398406334
  0
LINE
  5
449
100
AcDbEntity
  8
0
100
AcDbLine
 62
7
  6
CONTINUOUS
 10
4.8398274626
 20
4.0398406334
 11
4.1015174626
 21
4.0398406334
  0
LINE
  5
44A
100
AcDbEntity
  8
0
100
AcDbLine
 62
7
  6
CONTINUOUS
 10
-1.4289225374
 20
4.0738413207
 11
-1.6414225374
 21
4.0738413207
  0
LINE
  5
44B
100
AcDbEntity
  8
0
100
AcDbLine
 62
7
  6
CONTINUOUS
 10
10.5880485802
 20
4.1780966334
 11
9.4274438889
 21
4.1780966334
  0
LINE
  5
44C
100
AcDbEntity
  8
0
100
AcDbLine
 62
7
  6
CONTINUOUS
 10
-10.3727889637
 20
4.1780966334
 11
-11.5333936551
 21
4.1780966334
  0
LINE
  5
44D
100
AcDbEntity
  8
0
100
AcDbLine
 62
7
  6
CONTINUOUS
 10
1.4752440955
 20
4.1823519461
 11
1.7231608297
 21
4.1823519461
  0
LINE
  5
44E
100
AcDbEntity
  8
0
100
AcDbLine
 62
7
  6
CONTINUOUS
 10
-0.8976725374
 20
4.2185221546
 11
-1.145589069
 21
4.2185221546
  0
LINE
  5
44F
100
AcDbEntity
  8
0
100
AcDbLine
 62
7
  6
CONTINUOUS
 10
1.6877440955
 20
4.363203039
 11
1.5106608297
 21
4.363203039
  0
LINE
  5
450
100
AcDbEntity
  8
0
100
AcDbLine
 62
7
  6
CONTINUOUS
 10
5.4520394626
 20
4.4782326334
 11
5.5829094626
 21
4.4782326334
  0
LINE
  5
451
100
AcDbEntity
  8
0
100
AcDbLine
 62
7
  6
CONTINUOUS
 10
6.0858474626
 20
4.4782326334
 11
6.2460784626
 21
4.4782326334
  0
LINE
  5
452
100
AcDbEntity
  8
0
100
AcDbLine
 62
7
  6
CONTINUOUS
 10
6.4772454626
 20
4.4782326334
 11
6.6124024626
 21
4.4782326334
  0
LWPOLYLINE
  5
453
100
AcDbEntity
  8
0
100
AcDbPolyline
 62
7
  6
CONTINUOUS
 90
28
 70
0
 10
5.465304332
 20
3.1557776334
 10
5.4455349933
 20
3.1561464012
 10
5.4259400015
 20
3.1577122887
 10
5.4065193573
 20
3.160475292
 10
5.3871523739
 20
3.1643721258
 10
5.3679597388
 20
3.1694660681
 10
5.3493035193
 20
3.1759469586
 10
5.3311688684
 20
3.1838925726
 10
5.3135706457
 20
3.1932251258
 10
5.2969154886
 20
3.2039011175
 10
5.2812853084
 20
3.2160684762
 10
5.2665982185
 20
3.229579266
 10
5.2530151653
 20
3.2439461924
 10
5.2406264576
 20
3.2590531954
 10
5.229341812
 20
3.275016333
 10
5.2190512859
 20
3.2916964894
 10
5.209715588
 20
3.309095844
 10
5.2013740289
 20
3.3272122171
 10
5.1940345666
 20
3.3458999556
 10
5.187774641
 20
3.3651111418
 10
5.1825168287
 20
3.3848936955
 10
5.1780367913
 20
3.4052457195
 10
5.1743141915
 20
3.426141653
 10
5.1713693779
 20
3.4476070587
 10
5.1690390392
 20
3.4697167246
 10
5.1672687412
 20
3.49249558
 10
5.1661129278
 20
3.515918697
 10
5.1655716039
 20
3.5399860764
  0
LINE
  5
454
100
AcDbEntity
  8
0
100
AcDbLine
 62
7
  6
CONTINUOUS
 10
7.7773274626
 20
1.5671174646
 11
8.0222957205
 21
1.5182432828
  0
LINE
  5
455
100
AcDbEntity
  8
0
100
AcDbLine
 62
7
  6
CONTINUOUS
 10
-1.8185060058
 20
3.9291604869
 11
-1.6414225374
 21
3.8929902785
  0
LINE
  5
456
100
AcDbEntity
  8
0
100
AcDbLine
 62
7
  6
CONTINUOUS
 10
1.3335774626
 20
3.3142668419
 11
1.5106608297
 21
3.2780966334
  0
LINE
  5
457
100
AcDbEntity
  8
0
100
AcDbLine
 62
7
  6
CONTINUOUS
 10
-1.6414225374
 20
4.0738413207
 11
-1.783089069
 21
4.1100115292
  0
LINE
  5
458
100
AcDbEntity
  8
0
100
AcDbLine
 62
7
  6
CONTINUOUS
 10
-1.4289225374
 20
4.7972455658
 11
-1.2872560058
 21
4.7610753574
  0
LINE
  5
459
100
AcDbEntity
  8
0
100
AcDbLine
 62
7
  6
CONTINUOUS
 10
1.4752440955
 20
3.4589476757
 11
1.3689940955
 21
3.4951178841
  0
LINE
  5
45A
100
AcDbEntity
  8
0
100
AcDbLine
 62
7
  6
CONTINUOUS
 10
-1.995589069
 20
4.0376711123
 11
-1.8185060058
 21
3.9291604869
  0
LINE
  5
45B
100
AcDbEntity
  8
0
100
AcDbLine
 62
7
  6
CONTINUOUS
 10
1.1564941968
 20
3.4227774672
 11
1.3335774626
 21
3.3142668419
  0
LINE
  5
45C
100
AcDbEntity
  8
0
100
AcDbLine
 62
7
  6
CONTINUOUS
 10
-1.0747560058
 20
4.8334157869
 11
-1.251839069
 21
4.9419264218
  0
LINE
  5
45D
100
AcDbEntity
  8
0
100
AcDbLine
 62
7
  6
CONTINUOUS
 10
-1.783089069
 20
4.1100115292
 11
-1.889339069
 21
4.1823519461
  0
LINE
  5
45E
100
AcDbEntity
  8
0
100
AcDbLine
 62
7
  6
CONTINUOUS
 10
-1.2872560058
 20
4.7610753574
 11
-1.1810060058
 21
4.6887349405
  0
LINE
  5
45F
100
AcDbEntity
  8
0
100
AcDbLine
 62
7
  6
CONTINUOUS
 10
1.3689940955
 20
3.4951178841
 11
1.2627440955
 21
3.567458301
  0
LINE
  5
460
100
AcDbEntity
  8
0
100
AcDbLine
 62
7
  6
CONTINUOUS
 10
1.0502441968
 20
3.567458301
 11
1.1564941968
 21
3.4227774672
  0
LINE
  5
461
100
AcDbEntity
  8
0
100
AcDbLine
 62
7
  6
CONTINUOUS
 10
1.2627440955
 20
3.567458301
 11
1.1919107284
 21
3.6759689264
  0
LINE
  5
462
100
AcDbEntity
  8
0
100
AcDbLine
 62
7
  6
CONTINUOUS
 10
1.9356608297
 20
4.0738413207
 11
2.0064940955
 21
3.9653306954
  0
LINE
  5
463
100
AcDbEntity
  8
0
100
AcDbLine
 62
7
  6
CONTINUOUS
 10
0.9794107284
 20
3.7483094446
 11
1.0502441968
 21
3.567458301
  0
LINE
  5
464
100
AcDbEntity
  8
0
100
AcDbLine
 62
7
  6
CONTINUOUS
 10
2.2189941461
 20
3.8929902785
 11
2.148160779
 21
4.0738413207
  0
LWPOLYLINE
  5
465
100
AcDbEntity
  8
0
100
AcDbPolyline
 62
7
  6
CONTINUOUS
 90
6
 70
0
 10
-3.2304316876
 20
18.7947822669
 10
-3.2486218143
 20
18.848090581
 10
-3.2663812421
 20
18.9024586219
 10
-3.2837099775
 20
18.9578863644
 10
-3.3003483495
 20
19.0144592653
 10
-3.3331120868
 20
19.1305275412
  0
LINE
  5
466
100
AcDbEntity
  8
0
100
AcDbLine
 62
7
  6
CONTINUOUS
 10
1.1919107284
 20
3.6759689264
 11
1.1564941968
 21
3.7844796531
  0
LINE
  5
467
100
AcDbEntity
  8
0
100
AcDbLine
 62
7
  6
CONTINUOUS
 10
2.0064940955
 20
3.9653306954
 11
2.0419108297
 21
3.85682007
  0
LINE
  5
468
100
AcDbEntity
  8
0
100
AcDbLine
 62
7
  6
CONTINUOUS
 10
2.148160779
 20
4.5802242898
 11
2.1127441461
 21
4.6887349405
  0
LINE
  5
469
100
AcDbEntity
  8
0
100
AcDbLine
 62
7
  6
CONTINUOUS
 10
-2.3846845374
 20
19.3103976334
 11
-1.8631245374
 21
17.6105346334
  0
LINE
  5
46A
100
AcDbEntity
  8
0
100
AcDbLine
 62
7
  6
CONTINUOUS
 10
-3.3331120868
 20
19.1305275412
 11
-3.3856497525
 21
19.3103973201
  0
LINE
  5
46B
100
AcDbEntity
  8
0
100
AcDbLine
 62
7
  6
CONTINUOUS
 10
-1.9187915374
 20
18.9710446334
 11
-2.0107105374
 21
19.3103976334
  0
LINE
  5
46C
100
AcDbEntity
  8
0
100
AcDbLine
 62
7
  6
CONTINUOUS
 10
-1.6848305374
 20
18.0776136334
 11
-1.8478785374
 21
18.7084546334
  0
LINE
  5
46D
100
AcDbEntity
  8
0
100
AcDbLine
 62
7
  6
CONTINUOUS
 10
4.1015174626
 20
4.0398406334
 11
4.1015174626
 21
3.9201326334
  0
LINE
  5
46E
100
AcDbEntity
  8
0
100
AcDbLine
 62
7
  6
CONTINUOUS
 10
4.1113044626
 20
3.1598226334
 11
4.1113044626
 21
3.0401136334
  0
LINE
  5
46F
100
AcDbEntity
  8
0
100
AcDbLine
 62
7
  6
CONTINUOUS
 10
4.1572464626
 20
3.5860816334
 11
4.1572464626
 21
3.4663726334
  0
LINE
  5
470
100
AcDbEntity
  8
0
100
AcDbLine
 62
7
  6
CONTINUOUS
 10
4.6085804626
 20
6.9160796334
 11
4.6085804626
 21
6.5132766334
  0
LINE
  5
471
100
AcDbEntity
  8
0
100
AcDbLine
 62
7
  6
CONTINUOUS
 10
4.7046704626
 20
3.9201326334
 11
4.7046704626
 21
3.5860816334
  0
LINE
  5
472
100
AcDbEntity
  8
0
100
AcDbLine
 62
7
  6
CONTINUOUS
 10
4.7046704626
 20
3.4663726334
 11
4.7046704626
 21
3.1598226334
  0
LINE
  5
473
100
AcDbEntity
  8
0
100
AcDbLine
 62
7
  6
CONTINUOUS
 10
4.7436564626
 20
6.5132766334
 11
4.7436564626
 21
6.9160796334
  0
LINE
  5
474
100
AcDbEntity
  8
0
100
AcDbLine
 62
7
  6
CONTINUOUS
 10
4.8398274626
 20
3.0401136334
 11
4.8398274626
 21
4.0398406334
  0
LINE
  5
475
100
AcDbEntity
  8
0
100
AcDbLine
 62
7
  6
CONTINUOUS
 10
4.9582414626
 20
6.9160796334
 11
4.9582414626
 21
6.7963706334
  0
LINE
  5
476
100
AcDbEntity
  8
0
100
AcDbLine
 62
7
  6
CONTINUOUS
 10
5.4520394626
 20
5.4779606334
 11
5.4520394626
 21
4.4782326334
  0
LINE
  5
477
100
AcDbEntity
  8
0
100
AcDbLine
 62
7
  6
CONTINUOUS
 10
5.4653044626
 20
6.7963706334
 11
5.4653044626
 21
5.9155436334
  0
LINE
  5
478
100
AcDbEntity
  8
0
100
AcDbLine
 62
7
  6
CONTINUOUS
 10
5.5829094626
 20
4.4782326334
 11
5.5829094626
 21
5.2900256334
  0
LINE
  5
479
100
AcDbEntity
  8
0
100
AcDbLine
 62
7
  6
CONTINUOUS
 10
5.6003804626
 20
5.9155436334
 11
5.6003804626
 21
6.9160796334
  0
LINE
  5
47A
100
AcDbEntity
  8
0
100
AcDbLine
 62
7
  6
CONTINUOUS
 10
5.7174204626
 20
3.9241766334
 11
5.7174204626
 21
3.1557776334
  0
LINE
  5
47B
100
AcDbEntity
  8
0
100
AcDbLine
 62
7
  6
CONTINUOUS
 10
5.8524964626
 20
3.0401136334
 11
5.8524964626
 21
4.0398406334
  0
LINE
  5
47C
100
AcDbEntity
  8
0
100
AcDbLine
 62
7
  6
CONTINUOUS
 10
6.1150464626
 20
5.4779606334
 11
6.1150464626
 21
4.6655576334
  0
LWPOLYLINE
  5
47D
100
AcDbEntity
  8
0
100
AcDbPolyline
 62
7
  6
CONTINUOUS
 90
25
 70
0
 10
5.0269307673
 20
3.539979847
 10
5.0268165923
 20
3.5051910248
 10
5.028391311
 20
3.4712912827
 10
5.0316549097
 20
3.438280615
 10
5.0366671444
 20
3.4061599021
 10
5.0433682277
 20
3.374928254
 10
5.0515788311
 20
3.3445830114
 10
5.0611987913
 20
3.3150553277
 10
5.0723282377
 20
3.2864140446
 10
5.0850882786
 20
3.258863037
 10
5.0995020119
 20
3.2323442836
 10
5.1155462946
 20
3.206915804
 10
5.1332728684
 20
3.1829555367
 10
5.152755593
 20
3.160440329
 10
5.1739205527
 20
3.1393933385
 10
5.196597824
 20
3.1202619736
 10
5.2209383098
 20
3.1031222058
 10
5.2467910495
 20
3.0878980776
 10
5.2735333374
 20
3.0748091077
 10
5.3011144589
 20
3.063981789
 10
5.3295850963
 20
3.0552896488
 10
5.3584746605
 20
3.0485727574
 10
5.3876262891
 20
3.0437778107
 10
5.4171968354
 20
3.0409581314
 10
5.4471862949
 20
3.0401137295
  0
LWPOLYLINE
  5
47E
100
AcDbEntity
  8
0
100
AcDbPolyline
 62
7
  6
CONTINUOUS
 90
25
 70
0
 10
5.1655716039
 20
3.5399860764
 10
5.1662302883
 20
3.5671679195
 10
5.1676894595
 20
3.593561818
 10
5.1699491153
 20
3.6191677761
 10
5.172903801
 20
3.6439624804
 10
5.1766589654
 20
3.667969252
 10
5.1815309618
 20
3.6912580483
 10
5.1875728957
 20
3.7138946344
 10
5.1947316532
 20
3.7358132547
 10
5.2031642563
 20
3.7568865875
 10
5.2129201541
 20
3.7771364396
 10
5.2239498807
 20
3.7965410141
 10
5.2362620821
 20
3.8149075839
 10
5.2498619292
 20
3.8323213294
 10
5.2647442251
 20
3.8486970789
 10
5.2809020597
 20
3.8635865767
 10
5.2985046408
 20
3.8769328394
 10
5.3173827211
 20
3.8887928558
 10
5.3370217081
 20
3.8988893244
 10
5.3574002621
 20
3.9070447081
 10
5.3785396881
 20
3.9134365405
 10
5.3999893712
 20
3.9183201226
 10
5.4215991029
 20
3.9217805519
 10
5.443519073
 20
3.9237327235
 10
5.4657492717
 20
3.9241766334
  0
LINE
  5
47F
100
AcDbEntity
  8
0
100
AcDbLine
 62
7
  6
CONTINUOUS
 10
0.5628114626
 20
-18.7522613666
 11
0.7394854626
 21
-18.1214203666
  0
LINE
  5
480
100
AcDbEntity
  8
0
100
AcDbLine
 62
7
  6
CONTINUOUS
 10
0.3923184626
 20
-19.3542043666
 11
0.4902294626
 21
-19.0148513666
  0
LINE
  5
481
100
AcDbEntity
  8
0
100
AcDbLine
 62
7
  6
CONTINUOUS
 10
0.5745254626
 20
-17.6543413666
 11
0.0413404626
 21
-19.3542043666
  0
LINE
  5
482
100
AcDbEntity
  8
0
100
AcDbLine
 62
7
  6
CONTINUOUS
 10
7.4070884626
 20
4.0398406334
 11
7.1256934626
 21
3.2002646334
  0
LINE
  5
483
100
AcDbEntity
  8
0
100
AcDbLine
 62
7
  6
CONTINUOUS
 10
7.1870034626
 20
3.0401136334
 11
7.4725614626
 21
3.8895526334
  0
LINE
  5
484
100
AcDbEntity
  8
0
100
AcDbLine
 62
7
  6
CONTINUOUS
 10
6.7356694626
 20
4.0398406334
 11
6.6311674626
 21
3.7486586334
  0
LINE
  5
485
100
AcDbEntity
  8
0
100
AcDbLine
 62
7
  6
CONTINUOUS
 10
6.5893504626
 20
3.6289496334
 11
6.4277694626
 21
3.1850096334
  0
LINE
  5
486
100
AcDbEntity
  8
0
100
AcDbLine
 62
7
  6
CONTINUOUS
 10
-0.5244005374
 20
-17.6543413666
 11
-0.8792285374
 21
-18.5981103666
  0
LINE
  5
487
100
AcDbEntity
  8
0
100
AcDbLine
 62
7
  6
CONTINUOUS
 10
6.4988414626
 20
3.0401136334
 11
6.8749524626
 21
4.0398406334
  0
LINE
  5
488
100
AcDbEntity
  8
0
100
AcDbLine
 62
7
  6
CONTINUOUS
 10
-0.8562845374
 20
-19.3542043666
 11
-0.4343935374
 21
-18.2488523666
  0
LINE
  5
489
100
AcDbEntity
  8
0
100
AcDbLine
 62
7
  6
CONTINUOUS
 10
0.9439939942
 20
-4.7325416736
 11
0.8377439942
 21
-4.8048820905
  0
LINE
  5
48A
100
AcDbEntity
  8
0
100
AcDbLine
 62
7
  6
CONTINUOUS
 10
0.873160931
 20
-4.985733155
 11
1.0502439942
 21
-4.8772225201
  0
LINE
  5
48B
100
AcDbEntity
  8
0
100
AcDbLine
 62
7
  6
CONTINUOUS
 10
-1.783089069
 20
4.7610753574
 11
-1.6414225374
 21
4.7972455658
  0
LINE
  5
48C
100
AcDbEntity
  8
0
100
AcDbLine
 62
7
  6
CONTINUOUS
 10
-1.6414225374
 20
4.9780966334
 11
-1.8185060058
 21
4.9419264218
  0
LINE
  5
48D
100
AcDbEntity
  8
0
100
AcDbLine
 62
7
  6
CONTINUOUS
 10
-1.1101725374
 20
4.5440540813
 11
-0.8976725374
 21
4.5440540813
  0
LINE
  5
48E
100
AcDbEntity
  8
0
100
AcDbLine
 62
7
  6
CONTINUOUS
 10
1.9710774626
 20
4.5802242898
 11
2.148160779
 21
4.5802242898
  0
LINE
  5
48F
100
AcDbEntity
  8
0
100
AcDbLine
 62
7
  6
CONTINUOUS
 10
-1.6414225374
 20
4.7972455658
 11
-1.4289225374
 21
4.7972455658
  0
LINE
  5
490
100
AcDbEntity
  8
0
100
AcDbLine
 62
7
  6
CONTINUOUS
 10
1.4752440955
 20
4.7972455658
 11
1.6877440955
 21
4.7972455658
  0
LINE
  5
491
100
AcDbEntity
  8
0
100
AcDbLine
 62
7
  6
CONTINUOUS
 10
2.7148274626
 20
4.9780966334
 11
2.5023274626
 21
4.9780966334
  0
LINE
  5
492
100
AcDbEntity
  8
0
100
AcDbLine
 62
7
  6
CONTINUOUS
 10
1.6523274626
 20
4.9780966334
 11
1.5106608297
 21
4.9780966334
  0
LINE
  5
493
100
AcDbEntity
  8
0
100
AcDbLine
 62
7
  6
CONTINUOUS
 10
0.3064941968
 20
4.9780966334
 11
0.0939941968
 21
4.9780966334
  0
LINE
  5
494
100
AcDbEntity
  8
0
100
AcDbLine
 62
7
  6
CONTINUOUS
 10
-1.4289225374
 20
4.9780966334
 11
-1.6414225374
 21
4.9780966334
  0
LINE
  5
495
100
AcDbEntity
  8
0
100
AcDbLine
 62
7
  6
CONTINUOUS
 10
-2.6685060058
 20
4.9780966334
 11
-2.8810060058
 21
4.9780966334
  0
LINE
  5
496
100
AcDbEntity
  8
0
100
AcDbLine
 62
7
  6
CONTINUOUS
 10
6.6124024626
 20
5.4779606334
 11
6.4772454626
 21
5.4779606334
  0
LINE
  5
497
100
AcDbEntity
  8
0
100
AcDbLine
 62
7
  6
CONTINUOUS
 10
6.2460784626
 20
5.4779606334
 11
6.1150464626
 21
5.4779606334
  0
LINE
  5
498
100
AcDbEntity
  8
0
100
AcDbLine
 62
7
  6
CONTINUOUS
 10
5.6038584626
 20
5.4779606334
 11
5.4520394626
 21
5.4779606334
  0
LINE
  5
499
100
AcDbEntity
  8
0
100
AcDbLine
 62
7
  6
CONTINUOUS
 10
4.2310934626
 20
5.9155436334
 11
4.3898694626
 21
5.9155436334
  0
LINE
  5
49A
100
AcDbEntity
  8
0
100
AcDbLine
 62
7
  6
CONTINUOUS
 10
4.9638224626
 20
5.9155436334
 11
5.1212234626
 21
5.9155436334
  0
LINE
  5
49B
100
AcDbEntity
  8
0
100
AcDbLine
 62
7
  6
CONTINUOUS
 10
5.4653044626
 20
5.9155436334
 11
5.6003804626
 21
5.9155436334
  0
LINE
  5
49C
100
AcDbEntity
  8
0
100
AcDbLine
 62
7
  6
CONTINUOUS
 10
6.0865754626
 20
5.9155436334
 11
6.2397694626
 21
5.9155436334
  0
LINE
  5
49D
100
AcDbEntity
  8
0
100
AcDbLine
 62
7
  6
CONTINUOUS
 10
6.6548664626
 20
5.9155436334
 11
7.4669434626
 21
5.9155436334
  0
LINE
  5
49E
100
AcDbEntity
  8
0
100
AcDbLine
 62
7
  6
CONTINUOUS
 10
7.6118874626
 20
5.9155436334
 11
7.7470444626
 21
5.9155436334
  0
LINE
  5
49F
100
AcDbEntity
  8
0
100
AcDbLine
 62
7
  6
CONTINUOUS
 10
7.4669434626
 20
6.0352516334
 11
7.1284434626
 21
6.0352516334
  0
LINE
  5
4A0
100
AcDbEntity
  8
0
100
AcDbLine
 62
7
  6
CONTINUOUS
 10
6.9933664626
 20
6.0352516334
 11
6.6548664626
 21
6.0352516334
  0
LINE
  5
4A1
100
AcDbEntity
  8
0
100
AcDbLine
 62
7
  6
CONTINUOUS
 10
6.0196834626
 20
6.5051886334
 11
6.3303594626
 21
6.5051886334
  0
LINE
  5
4A2
100
AcDbEntity
  8
0
100
AcDbLine
 62
7
  6
CONTINUOUS
 10
-1.251839069
 20
4.9419264218
 11
-1.4289225374
 21
4.9780966334
  0
LINE
  5
4A3
100
AcDbEntity
  8
0
100
AcDbLine
 62
7
  6
CONTINUOUS
 10
1.8648274626
 20
4.3270327799
 11
1.6877440955
 21
4.363203039
  0
LINE
  5
4A4
100
AcDbEntity
  8
0
100
AcDbLine
 62
7
  6
CONTINUOUS
 10
1.8294108297
 20
4.9419264218
 11
1.6523274626
 21
4.9780966334
  0
LINE
  5
4A5
100
AcDbEntity
  8
0
100
AcDbLine
 62
7
  6
CONTINUOUS
 10
1.7231608297
 20
4.1823519461
 11
1.8294108297
 21
4.1461817376
  0
LINE
  5
4A6
100
AcDbEntity
  8
0
100
AcDbLine
 62
7
  6
CONTINUOUS
 10
1.6877440955
 20
4.7972455658
 11
1.7939940955
 21
4.7610753574
  0
LINE
  5
4A7
100
AcDbEntity
  8
0
100
AcDbLine
 62
7
  6
CONTINUOUS
 10
2.0419108297
 20
4.2185221546
 11
1.8648274626
 21
4.3270327799
  0
LINE
  5
4A8
100
AcDbEntity
  8
0
100
AcDbLine
 62
7
  6
CONTINUOUS
 10
2.0064940955
 20
4.8334157869
 11
1.8294108297
 21
4.9419264218
  0
LINE
  5
4A9
100
AcDbEntity
  8
0
100
AcDbLine
 62
7
  6
CONTINUOUS
 10
1.8294108297
 20
4.1461817376
 11
1.9356608297
 21
4.0738413207
  0
LINE
  5
4AA
100
AcDbEntity
  8
0
100
AcDbLine
 62
7
  6
CONTINUOUS
 10
1.7939940955
 20
4.7610753574
 11
1.9002440955
 21
4.6887349405
  0
LWPOLYLINE
  5
4AB
100
AcDbEntity
  8
0
100
AcDbPolyline
 62
253
  6
CONTINUOUS
 90
13
 70
0
 10
9.1327497647
 20
-1.6251866448
 10
9.1347949407
 20
-1.6273182689
 10
9.1368059593
 20
-1.6327767548
 10
9.1387498845
 20
-1.6414703099
 10
9.1405950244
 20
-1.6532527401
 10
9.1423105857
 20
-1.6679259099
 10
9.1438670954
 20
-1.685243074
 10
9.1452378458
 20
-1.7049130254
 10
9.1464003197
 20
-1.7266049914
 10
9.1473355929
 20
-1.7499541968
 10
9.1480277029
 20
-1.7745679996
 10
9.1484640141
 20
-1.8000324937
 10
9.1486363078
 20
-1.8259194675
  0
LINE
  5
4AC
100
AcDbEntity
  8
0
100
AcDbLine
 62
7
  6
CONTINUOUS
 10
2.148160779
 20
4.0738413207
 11
2.0419108297
 21
4.2185221546
  0
LINE
  5
4AD
100
AcDbEntity
  8
0
100
AcDbLine
 62
7
  6
CONTINUOUS
 10
2.1127441461
 20
4.6887349405
 11
2.0064940955
 21
4.8334157869
  0
LINE
  5
4AE
100
AcDbEntity
  8
0
100
AcDbLine
 62
7
  6
CONTINUOUS
 10
1.9002440955
 20
4.6887349405
 11
1.9710774626
 21
4.5802242898
  0
LINE
  5
4AF
100
AcDbEntity
  8
0
100
AcDbLine
 62
7
  6
CONTINUOUS
 10
6.2460784626
 20
4.4782326334
 11
6.2460784626
 21
5.4779606334
  0
LINE
  5
4B0
100
AcDbEntity
  8
0
100
AcDbLine
 62
7
  6
CONTINUOUS
 10
6.4772454626
 20
5.4779606334
 11
6.4772454626
 21
4.4782326334
  0
LINE
  5
4B1
100
AcDbEntity
  8
0
100
AcDbLine
 62
7
  6
CONTINUOUS
 10
6.6124024626
 20
4.4782326334
 11
6.6124024626
 21
5.4779606334
  0
LINE
  5
4B2
100
AcDbEntity
  8
0
100
AcDbLine
 62
7
  6
CONTINUOUS
 10
6.6548664626
 20
6.0352516334
 11
6.6548664626
 21
5.9155436334
  0
LINE
  5
4B3
100
AcDbEntity
  8
0
100
AcDbLine
 62
253
  6
CONTINUOUS
 10
6.8118574088
 20
22.2208732956
 11
6.8118574088
 21
20.6494849645
  0
LINE
  5
4B4
100
AcDbEntity
  8
0
100
AcDbLine
 62
253
  6
CONTINUOUS
 10
6.8118574088
 20
-20.6932916977
 11
6.8118574088
 21
-22.2646800287
  0
LINE
  5
4B5
100
AcDbEntity
  8
0
100
AcDbLine
 62
253
  6
CONTINUOUS
 10
6.9850624895
 20
22.2261140735
 11
6.9850624895
 21
20.6547257424
  0
LINE
  5
4B6
100
AcDbEntity
  8
0
100
AcDbLine
 62
253
  6
CONTINUOUS
 10
6.9850624895
 20
-20.6985324756
 11
6.9850624895
 21
-22.2699208067
  0
LINE
  5
4B7
100
AcDbEntity
  8
0
100
AcDbLine
 62
7
  6
CONTINUOUS
 10
6.9933664626
 20
6.9160796334
 11
6.9933664626
 21
6.0352516334
  0
LINE
  5
4B8
100
AcDbEntity
  8
0
100
AcDbLine
 62
7
  6
CONTINUOUS
 10
6.9947414626
 20
4.0398406334
 11
6.9947414626
 21
3.0401136334
  0
LINE
  5
4B9
100
AcDbEntity
  8
0
100
AcDbLine
 62
7
  6
CONTINUOUS
 10
7.1256934626
 20
3.2002646334
 11
7.1256934626
 21
4.0398406334
  0
LINE
  5
4BA
100
AcDbEntity
  8
0
100
AcDbLine
 62
7
  6
CONTINUOUS
 10
7.1284434626
 20
6.0352516334
 11
7.1284434626
 21
6.9160796334
  0
LINE
  5
4BB
100
AcDbEntity
  8
0
100
AcDbLine
 62
7
  6
CONTINUOUS
 10
7.4669434626
 20
5.9155436334
 11
7.4669434626
 21
6.0352516334
  0
LINE
  5
4BC
100
AcDbEntity
  8
0
100
AcDbLine
 62
7
  6
CONTINUOUS
 10
7.6118874626
 20
6.9160796334
 11
7.6118874626
 21
5.9155436334
  0
LINE
  5
4BD
100
AcDbEntity
  8
0
100
AcDbLine
 62
7
  6
CONTINUOUS
 10
7.7470444626
 20
5.9155436334
 11
7.7470444626
 21
6.9160796334
  0
LINE
  5
4BE
100
AcDbEntity
  8
0
100
AcDbLine
 62
7
  6
CONTINUOUS
 10
7.7773274626
 20
-0.2664103923
 11
7.7773274626
 21
-1.6109241977
  0
LINE
  5
4BF
100
AcDbEntity
  8
0
100
AcDbLine
 62
7
  6
CONTINUOUS
 10
7.7773274626
 20
0.2226036591
 11
7.7773274626
 21
1.5671174646
  0
LINE
  5
4C0
100
AcDbEntity
  8
0
100
AcDbLine
 62
7
  6
CONTINUOUS
 10
7.7933528664
 20
22.2994849645
 11
7.7933528664
 21
20.7280966334
  0
LINE
  5
4C1
100
AcDbEntity
  8
0
100
AcDbLine
 62
7
  6
CONTINUOUS
 10
7.7933528664
 20
-22.3432916977
 11
7.7933528664
 21
-20.7719033666
  0
LINE
  5
4C2
100
AcDbEntity
  8
0
100
AcDbLine
 62
7
  6
CONTINUOUS
 10
7.8221864626
 20
4.0398406334
 11
7.8221864626
 21
3.2018816334
  0
LINE
  5
4C3
100
AcDbEntity
  8
0
100
AcDbLine
 62
7
  6
CONTINUOUS
 10
7.9531374626
 20
3.0401136334
 11
7.9531374626
 21
4.0398406334
  0
LINE
  5
4C4
100
AcDbEntity
  8
0
100
AcDbLine
 62
7
  6
CONTINUOUS
 10
8.0222957205
 20
-0.2419751625
 11
8.0222957205
 21
-1.5620500159
  0
LINE
  5
4C5
100
AcDbEntity
  8
0
100
AcDbLine
 62
7
  6
CONTINUOUS
 10
8.0222957205
 20
0.1981684293
 11
8.0222957205
 21
1.5182432828
  0
LINE
  5
4C6
100
AcDbEntity
  8
0
100
AcDbLine
 62
253
  6
CONTINUOUS
 10
9.132755952
 20
-1.6251825204
 11
9.2274667319
 21
-1.5620500159
  0
LINE
  5
4C7
100
AcDbEntity
  8
0
100
AcDbLine
 62
253
  6
CONTINUOUS
 10
9.3326761714
 20
-1.8251595556
 11
9.4274438889
 21
-1.7619890975
  0
LINE
  5
4C8
100
AcDbEntity
  8
0
100
AcDbLine
 62
7
  6
CONTINUOUS
 10
6.3720954626
 20
6.6248966334
 11
5.9709104626
 21
6.6248966334
  0
LINE
  5
4C9
100
AcDbEntity
  8
0
100
AcDbLine
 62
7
  6
CONTINUOUS
 10
4.9582414626
 20
6.7963706334
 11
5.4653044626
 21
6.7963706334
  0
LINE
  5
4CA
100
AcDbEntity
  8
0
100
AcDbLine
 62
7
  6
CONTINUOUS
 10
7.7470444626
 20
6.9160796334
 11
7.6118874626
 21
6.9160796334
  0
LINE
  5
4CB
100
AcDbEntity
  8
0
100
AcDbLine
 62
7
  6
CONTINUOUS
 10
7.1284434626
 20
6.9160796334
 11
6.9933664626
 21
6.9160796334
  0
LINE
  5
4CC
100
AcDbEntity
  8
0
100
AcDbLine
 62
7
  6
CONTINUOUS
 10
6.6158804626
 20
6.9160796334
 11
6.4765984626
 21
6.9160796334
  0
LINE
  5
4CD
100
AcDbEntity
  8
0
100
AcDbLine
 62
7
  6
CONTINUOUS
 10
5.8719894626
 20
6.9160796334
 11
5.7243764626
 21
6.9160796334
  0
LINE
  5
4CE
100
AcDbEntity
  8
0
100
AcDbLine
 62
7
  6
CONTINUOUS
 10
5.6003804626
 20
6.9160796334
 11
4.9582414626
 21
6.9160796334
  0
LINE
  5
4CF
100
AcDbEntity
  8
0
100
AcDbLine
 62
7
  6
CONTINUOUS
 10
4.7436564626
 20
6.9160796334
 11
4.6085804626
 21
6.9160796334
  0
LINE
  5
4D0
100
AcDbEntity
  8
0
100
AcDbLine
 62
253
  6
CONTINUOUS
 10
9.2274667319
 20
1.5182432828
 11
9.1327405116
 21
1.5813860795
  0
LINE
  5
4D1
100
AcDbEntity
  8
0
100
AcDbLine
 62
253
  6
CONTINUOUS
 10
9.4274438889
 20
1.7181823643
 11
9.3326757871
 21
1.7813530786
  0
LINE
  5
4D2
100
AcDbEntity
  8
0
100
AcDbLine
 62
7
  6
CONTINUOUS
 10
5.1212234626
 20
5.9155436334
 11
4.7436564626
 21
6.5132766334
  0
LINE
  5
4D3
100
AcDbEntity
  8
0
100
AcDbLine
 62
7
  6
CONTINUOUS
 10
6.1150464626
 20
4.6655576334
 11
5.6038584626
 21
5.4779606334
  0
LINE
  5
4D4
100
AcDbEntity
  8
0
100
AcDbLine
 62
7
  6
CONTINUOUS
 10
5.5829094626
 20
5.2900256334
 11
6.0858474626
 21
4.4782326334
  0
LINE
  5
4D5
100
AcDbEntity
  8
0
100
AcDbLine
 62
7
  6
CONTINUOUS
 10
4.6768464626
 20
6.3959946334
 11
4.9638224626
 21
5.9155436334
  0
LINE
  5
4D6
100
AcDbEntity
  8
0
100
AcDbLine
 62
7
  6
CONTINUOUS
 10
0.3769594626
 20
18.2004186334
 11
-0.0392965374
 21
19.3103976334
  0
LINE
  5
4D7
100
AcDbEntity
  8
0
100
AcDbLine
 62
7
  6
CONTINUOUS
 10
-0.0661165374
 20
18.5543036334
 11
0.2849644626
 21
17.6105346334
  0
LINE
  5
4D8
100
AcDbEntity
  8
0
100
AcDbLine
 62
7
  6
CONTINUOUS
 10
5.9834474626
 20
4.0398406334
 11
6.3456464626
 21
3.0401136334
  0
LINE
  5
4D9
100
AcDbEntity
  8
0
100
AcDbLine
 62
7
  6
CONTINUOUS
 10
5.7243764626
 20
6.9160796334
 11
6.0865754626
 21
5.9155436334
  0
LINE
  5
4DA
100
AcDbEntity
  8
0
100
AcDbLine
 62
7
  6
CONTINUOUS
 10
6.2299824626
 20
3.7486586334
 11
6.1310614626
 21
4.0398406334
  0
LINE
  5
4DB
100
AcDbEntity
  8
0
100
AcDbLine
 62
7
  6
CONTINUOUS
 10
5.9709104626
 20
6.6248966334
 11
5.8719894626
 21
6.9160796334
  0
LINE
  5
4DC
100
AcDbEntity
  8
0
100
AcDbLine
 62
7
  6
CONTINUOUS
 10
6.4277694626
 20
3.1850096334
 11
6.2787554626
 21
3.6289496334
  0
LINE
  5
4DD
100
AcDbEntity
  8
0
100
AcDbLine
 62
7
  6
CONTINUOUS
 10
6.1686974626
 20
6.0612496334
 11
6.0196834626
 21
6.5051886334
  0
LINE
  5
4DE
100
AcDbEntity
  8
0
100
AcDbLine
 62
7
  6
CONTINUOUS
 10
2.8684934626
 20
17.6105346334
 11
2.3296034626
 21
19.3103976334
  0
LINE
  5
4DF
100
AcDbEntity
  8
0
100
AcDbLine
 62
7
  6
CONTINUOUS
 10
2.1590154626
 20
18.7806026334
 11
2.4830404626
 21
17.6105346334
  0
LWPOLYLINE
  5
4E0
100
AcDbEntity
  8
0
100
AcDbPolyline
 62
253
  6
CONTINUOUS
 90
13
 70
0
 10
9.3326812296
 20
-1.8251561838
 10
9.330947243
 20
-1.7989670706
 10
9.3257976161
 20
-1.7732236687
 10
9.3173189381
 20
-1.7483700582
 10
9.3056540939
 20
-1.724833357
 10
9.2910029749
 20
-1.7030229159
 10
9.2736217557
 20
-1.6833214918
 10
9.2537735843
 20
-1.6660402694
 10
9.2318311838
 20
-1.6515150981
 10
9.2083116087
 20
-1.6400527876
 10
9.1836906253
 20
-1.6318097181
 10
9.158358926
 20
-1.626845578
 10
9.1327497646
 20
-1.6251866448
  0
LINE
  5
4E1
100
AcDbEntity
  8
0
100
AcDbLine
 62
253
  6
CONTINUOUS
 10
9.3440333223
 20
-20.2844297789
 11
9.3374458622
 21
-13.2219033666
  0
LINE
  5
4E2
100
AcDbEntity
  8
0
100
AcDbLine
 62
253
  6
CONTINUOUS
 10
9.1568626223
 20
-20.3180241076
 11
9.1520382633
 21
-13.2219033666
  0
LINE
  5
4E3
100
AcDbEntity
  8
0
100
AcDbLine
 62
253
  6
CONTINUOUS
 10
9.3348474009
 20
-9.0219033666
 11
9.3326761714
 21
-1.8251595556
  0
LINE
  5
4E4
100
AcDbEntity
  8
0
100
AcDbLine
 62
7
  6
CONTINUOUS
 10
8.8773274626
 20
-9.0423801778
 11
8.8773274626
 21
-13.2014265553
  0
LINE
  5
4E5
100
AcDbEntity
  8
0
100
AcDbLine
 62
7
  6
CONTINUOUS
 10
8.8773274626
 20
8.9985734447
 11
8.8773274626
 21
13.1576198222
  0
LINE
  5
4E6
100
AcDbEntity
  8
0
100
AcDbLine
 62
253
  6
CONTINUOUS
 10
9.150182929
 20
-9.0219033666
 11
9.1486392687
 21
-1.8259143749
  0
LINE
  5
4E7
100
AcDbEntity
  8
0
100
AcDbLine
 62
7
  6
CONTINUOUS
 10
9.4274438889
 20
-1.7619890975
 11
9.4274438889
 21
-4.2219033666
  0
LINE
  5
4E8
100
AcDbEntity
  8
0
100
AcDbLine
 62
7
  6
CONTINUOUS
 10
9.4274438889
 20
1.7181823643
 11
9.4274438889
 21
4.1780966334
  0
LINE
  5
4E9
100
AcDbEntity
  8
0
100
AcDbLine
 62
7
  6
CONTINUOUS
 10
9.4773274626
 20
13.1780966334
 11
9.4773274626
 21
13.1663153619
  0
LINE
  5
4EA
100
AcDbEntity
  8
0
100
AcDbLine
 62
7
  6
CONTINUOUS
 10
9.4773274626
 20
-13.2101220951
 11
9.4773274626
 21
-13.2219033666
  0
LINE
  5
4EB
100
AcDbEntity
  8
0
100
AcDbLine
 62
7
  6
CONTINUOUS
 10
9.4773274626
 20
-9.0336846381
 11
9.4773274626
 21
-9.0219033666
  0
LINE
  5
4EC
100
AcDbEntity
  8
0
100
AcDbLine
 62
7
  6
CONTINUOUS
 10
9.4773274626
 20
8.9780966334
 11
9.4773274626
 21
8.9898779049
  0
LINE
  5
4ED
100
AcDbEntity
  8
0
100
AcDbLine
 62
7
  6
CONTINUOUS
 10
9.4876715085
 20
-4.2219033666
 11
9.4876715085
 21
-9.0219033666
  0
LINE
  5
4EE
100
AcDbEntity
  8
0
100
AcDbLine
 62
7
  6
CONTINUOUS
 10
9.4876715085
 20
-13.2219033666
 11
9.4876715085
 21
-20.5719032725
  0
LINE
  5
4EF
100
AcDbEntity
  8
0
100
AcDbLine
 62
7
  6
CONTINUOUS
 10
9.4876715085
 20
4.1780966334
 11
9.4876715085
 21
8.9780966334
  0
LINE
  5
4F0
100
AcDbEntity
  8
0
100
AcDbLine
 62
7
  6
CONTINUOUS
 10
9.4876715085
 20
13.1780966334
 11
9.4876715085
 21
20.5280965394
  0
LINE
  5
4F1
100
AcDbEntity
  8
0
100
AcDbLine
 62
7
  6
CONTINUOUS
 10
9.5309173011
 20
-9.04808397
 11
9.5309173011
 21
-13.1957227632
  0
LINE
  5
4F2
100
AcDbEntity
  8
0
100
AcDbLine
 62
7
  6
CONTINUOUS
 10
9.5309173011
 20
9.0042772368
 11
9.5309173011
 21
13.15191603
  0
LINE
  5
4F3
100
AcDbEntity
  8
0
100
AcDbLine
 62
253
  6
CONTINUOUS
 10
9.8614465024
 20
-13.1957227632
 11
9.8614465024
 21
-9.04808397
  0
LINE
  5
4F4
100
AcDbEntity
  8
0
100
AcDbLine
 62
253
  6
CONTINUOUS
 10
9.8614465024
 20
9.0042772368
 11
9.8614465024
 21
13.15191603
  0
LINE
  5
4F5
100
AcDbEntity
  8
0
100
AcDbLine
 62
253
  6
CONTINUOUS
 10
9.150182939
 20
8.9780966334
 11
9.1486356224
 21
1.7821201235
  0
LINE
  5
4F6
100
AcDbEntity
  8
0
100
AcDbLine
 62
253
  6
CONTINUOUS
 10
9.3348474009
 20
8.9780966334
 11
9.3326757871
 21
1.7813530786
  0
LINE
  5
4F7
100
AcDbEntity
  8
0
100
AcDbLine
 62
253
  6
CONTINUOUS
 10
9.1567495569
 20
20.2492244192
 11
9.1520382625
 21
13.1780966334
  0
LINE
  5
4F8
100
AcDbEntity
  8
0
100
AcDbLine
 62
253
  6
CONTINUOUS
 10
9.3440333276
 20
20.2406230563
 11
9.3374458622
 21
13.1780966334
  0
LWPOLYLINE
  5
4F9
100
AcDbEntity
  8
0
100
AcDbPolyline
 62
253
  6
CONTINUOUS
 90
3
 70
0
 10
9.1568626223
 20
-20.3180241076
 10
9.1563338913
 20
-20.3418275241
 10
9.1538969197
 20
-20.406587379
  0
LWPOLYLINE
  5
4FA
100
AcDbEntity
  8
0
100
AcDbPolyline
 62
253
  6
CONTINUOUS
 90
3
 70
0
 10
9.1486363084
 20
1.7821127343
 10
9.1478702064
 20
1.7564075921
 10
9.1473359139
 20
1.7061471925
  0
LWPOLYLINE
  5
4FB
100
AcDbEntity
  8
0
100
AcDbPolyline
 62
253
  6
CONTINUOUS
 90
10
 70
0
 10
9.1473359139
 20
1.7061471925
 10
9.1464739486
 20
1.6827475325
 10
9.145044788
 20
1.6611099479
 10
9.1438675155
 20
1.6414360156
 10
9.1424740166
 20
1.6240138328
 10
9.1404826013
 20
1.6093347217
 10
9.1387501865
 20
1.5976634258
 10
9.1373264655
 20
1.589052334
 10
9.1354530512
 20
1.5835709441
 10
9.1327497641
 20
1.5813799117
  0
LINE
  5
4FC
100
AcDbEntity
  8
0
100
AcDbLine
 62
7
  6
CONTINUOUS
 10
-11.5333936551
 20
8.9780966334
 11
-11.405969298
 21
8.9993151535
  0
LINE
  5
4FD
100
AcDbEntity
  8
0
100
AcDbLine
 62
7
  6
CONTINUOUS
 10
8.8773274626
 20
8.9985734447
 11
9.5309173011
 21
9.0042772368
  0
LINE
  5
4FE
100
AcDbEntity
  8
0
100
AcDbLine
 62
7
  6
CONTINUOUS
 10
-9.8226725374
 20
8.9929009806
 11
-10.4226725374
 21
8.9898779049
  0
LINE
  5
4FF
100
AcDbEntity
  8
0
100
AcDbLine
 62
7
  6
CONTINUOUS
 10
9.150182939
 20
8.9780966334
 11
10.5880485802
 21
8.9780966334
  0
LINE
  5
500
100
AcDbEntity
  8
0
100
AcDbLine
 62
7
  6
CONTINUOUS
 10
-10.0955280038
 20
8.9780966334
 11
-11.5333936551
 21
8.9780966334
  0
LINE
  5
501
100
AcDbEntity
  8
0
100
AcDbLine
 62
7
  6
CONTINUOUS
 10
-10.8067915772
 20
9.0042772368
 11
-10.4762623759
 21
9.0042772368
  0
LINE
  5
502
100
AcDbEntity
  8
0
100
AcDbLine
 62
7
  6
CONTINUOUS
 10
9.5309173011
 20
9.0042772368
 11
9.8614465024
 21
9.0042772368
  0
LINE
  5
503
100
AcDbEntity
  8
0
100
AcDbLine
 62
7
  6
CONTINUOUS
 10
9.4773274626
 20
8.9898779049
 11
8.8773274626
 21
8.9929009806
  0
LINE
  5
504
100
AcDbEntity
  8
0
100
AcDbLine
 62
7
  6
CONTINUOUS
 10
-10.4762623759
 20
9.0042772368
 11
-9.8226725374
 21
8.9985734447
  0
LINE
  5
505
100
AcDbEntity
  8
0
100
AcDbLine
 62
7
  6
CONTINUOUS
 10
10.5880485802
 20
8.9780966334
 11
10.4606242232
 21
8.9993151535
  0
LINE
  5
506
100
AcDbEntity
  8
0
100
AcDbLine
 62
7
  6
CONTINUOUS
 10
7.4725614626
 20
3.8895526334
 11
7.7595004626
 21
3.0401136334
  0
LINE
  5
507
100
AcDbEntity
  8
0
100
AcDbLine
 62
7
  6
CONTINUOUS
 10
7.8221864626
 20
3.2018816334
 11
7.5407904626
 21
4.0398406334
  0
LWPOLYLINE
  5
508
100
AcDbEntity
  8
0
100
AcDbPolyline
 62
253
  6
CONTINUOUS
 90
13
 70
0
 10
9.3440340856
 20
20.2406245733
 10
9.3422909014
 20
20.2666714528
 10
9.3371625649
 20
20.2922734389
 10
9.3287366705
 20
20.3169932372
 10
9.3171571367
 20
20.3404086216
 10
9.3026217475
 20
20.3621196459
 10
9.2853787745
 20
20.3817554752
 10
9.265722736
 20
20.39898072
 10
9.2439893667
 20
20.4135011647
 10
9.2205498832
 20
20.4250687931
 10
9.1958046432
 20
20.4334860244
 10
9.1701763076
 20
20.4386090883
 10
9.1441026206
 20
20.4403504802
  0
LINE
  5
509
100
AcDbEntity
  8
0
100
AcDbLine
 62
253
  6
CONTINUOUS
 10
10.4606242232
 20
-13.2006848465
 11
10.4606242232
 21
-9.0431218867
  0
LINE
  5
50A
100
AcDbEntity
  8
0
100
AcDbLine
 62
253
  6
CONTINUOUS
 10
10.4606242232
 20
8.9993151535
 11
10.4606242232
 21
13.1568781133
  0
LINE
  5
50B
100
AcDbEntity
  8
0
100
AcDbLine
 62
7
  6
CONTINUOUS
 10
10.5278209606
 20
-0.7418799803
 11
10.5278209606
 21
-4.2219033666
  0
LINE
  5
50C
100
AcDbEntity
  8
0
100
AcDbLine
 62
7
  6
CONTINUOUS
 10
10.5278209606
 20
0.6980732471
 11
10.5278209606
 21
4.1780966334
  0
LINE
  5
50D
100
AcDbEntity
  8
0
100
AcDbLine
 62
7
  6
CONTINUOUS
 10
10.5880485802
 20
-21.8432914625
 11
10.5880485802
 21
-4.2219033666
  0
LINE
  5
50E
100
AcDbEntity
  8
0
100
AcDbLine
 62
7
  6
CONTINUOUS
 10
10.5880485802
 20
4.1780966334
 11
10.5880485802
 21
21.7994847294
  0
LWPOLYLINE
  5
50F
100
AcDbEntity
  8
0
100
AcDbPolyline
 62
253
  6
CONTINUOUS
 90
3
 70
0
 10
9.1538969197
 20
-20.406587379
 10
9.1526236359
 20
-20.4251941918
 10
9.1501729673
 20
-20.4555102941
  0
LWPOLYLINE
  5
510
100
AcDbEntity
  8
0
100
AcDbPolyline
 62
253
  6
CONTINUOUS
 90
5
 70
0
 10
9.1501729673
 20
-20.4555102941
 10
9.1486655474
 20
-20.4669545479
 10
9.146760302
 20
-20.4756355725
 10
9.1451277445
 20
-20.4813896359
 10
9.14410262
 20
-20.4841572134
  0
LINE
  5
511
100
AcDbEntity
  8
0
100
AcDbLine
 62
7
  6
CONTINUOUS
 10
10.5880485802
 20
13.1780966334
 11
10.4606242232
 21
13.1568781133
  0
LINE
  5
512
100
AcDbEntity
  8
0
100
AcDbLine
 62
7
  6
CONTINUOUS
 10
-11.5333936551
 20
13.1780966334
 11
-11.405969298
 21
13.1568781133
  0
LINE
  5
513
100
AcDbEntity
  8
0
100
AcDbLine
 62
7
  6
CONTINUOUS
 10
-10.4762623759
 20
13.15191603
 11
-9.8226725374
 21
13.1576198222
  0
LINE
  5
514
100
AcDbEntity
  8
0
100
AcDbLine
 62
7
  6
CONTINUOUS
 10
9.4773274626
 20
13.1663153619
 11
8.8773274626
 21
13.1632922862
  0
LINE
  5
515
100
AcDbEntity
  8
0
100
AcDbLine
 62
7
  6
CONTINUOUS
 10
-10.8067915772
 20
13.15191603
 11
-10.4762623759
 21
13.15191603
  0
LINE
  5
516
100
AcDbEntity
  8
0
100
AcDbLine
 62
7
  6
CONTINUOUS
 10
9.5309173011
 20
13.15191603
 11
9.8614465024
 21
13.15191603
  0
LINE
  5
517
100
AcDbEntity
  8
0
100
AcDbLine
 62
7
  6
CONTINUOUS
 10
10.5880485802
 20
13.1780966334
 11
9.1520382625
 21
13.1780966334
  0
LINE
  5
518
100
AcDbEntity
  8
0
100
AcDbLine
 62
7
  6
CONTINUOUS
 10
-10.0973833381
 20
13.1780966334
 11
-11.5333936551
 21
13.1780966334
  0
LINE
  5
519
100
AcDbEntity
  8
0
100
AcDbLine
 62
7
  6
CONTINUOUS
 10
-9.8226725374
 20
13.1632922862
 11
-10.4226725374
 21
13.1663153619
  0
LINE
  5
51A
100
AcDbEntity
  8
0
100
AcDbLine
 62
7
  6
CONTINUOUS
 10
8.8773274626
 20
13.1576198222
 11
9.5309173011
 21
13.15191603
  0
LWPOLYLINE
  5
51B
100
AcDbEntity
  8
0
100
AcDbPolyline
 62
7
  6
CONTINUOUS
 90
42
 70
0
 10
2.5203738788
 20
-18.5116672906
 10
2.5295147015
 20
-18.503810812
 10
2.5387784489
 20
-18.4955434055
 10
2.5482317446
 20
-18.4868941236
 10
2.5578079586
 20
-18.4778339118
 10
2.5673958271
 20
-18.4682032272
 10
2.5770062752
 20
-18.458004206
 10
2.5866283718
 20
-18.4472347067
 10
2.5961180705
 20
-18.4357287673
 10
2.6054695743
 20
-18.423450749
 10
2.6146886761
 20
-18.4104362815
 10
2.6236487166
 20
-18.3966263026
 10
2.632352472
 20
-18.3820239443
 10
2.6407971659
 20
-18.3666260634
 10
2.6488478135
 20
-18.3503641832
 10
2.6565314961
 20
-18.333213255
 10
2.6638211372
 20
-18.315198314
 10
2.67050052
 20
-18.296326008
 10
2.6765697865
 20
-18.2765998495
 10
2.6820288088
 20
-18.2560163121
 10
2.6866609721
 20
-18.2345714847
 10
2.69047074
 20
-18.2123151648
 10
2.6934536731
 20
-18.1891975426
 10
2.695379809
 20
-18.1650652962
 10
2.6963161088
 20
-18.1398825764
 10
2.6961956471
 20
-18.1136852205
 10
2.6945876438
 20
-18.0864274376
 10
2.6916039483
 20
-18.0579398359
 10
2.6871327673
 20
-18.028391802
 10
2.6804078748
 20
-17.9982457241
 10
2.671261713
 20
-17.9672390821
 10
2.6598619218
 20
-17.935634423
 10
2.6459450725
 20
-17.9046817629
 10
2.629361947
 20
-17.8745045698
 10
2.6102618113
 20
-17.8449794501
 10
2.5888289326
 20
-17.8169861487
 10
2.5648298024
 20
-17.7904742827
 10
2.538497919
 20
-17.7654943285
 10
2.5107180126
 20
-17.7430773152
 10
2.4817849536
 20
-17.7235669367
 10
2.4514037782
 20
-17.7066195637
 10
2.4195744366
 20
-17.6922352271
  0
LWPOLYLINE
  5
51C
100
AcDbEntity
  8
0
100
AcDbPolyline
 62
7
  6
CONTINUOUS
 90
13
 70
0
 10
-3.3649195114
 20
17.6484284939
 10
-3.3064519071
 20
17.6301779171
 10
-3.2451027828
 20
17.6151605756
 10
-3.1808719932
 20
17.6033765598
 10
-3.1135936587
 20
17.5948950318
 10
-3.0434333354
 20
17.5896470132
 10
-2.9708880345
 20
17.587425366
 10
-2.8960358431
 20
17.588414572
 10
-2.818798337
 20
17.59243029
 10
-2.7394378091
 20
17.5987121243
 10
-2.658041615
 20
17.6070066546
 10
-2.5745221275
 20
17.6175674396
 10
-2.4888792013
 20
17.6303945512
  0
LWPOLYLINE
  5
51D
100
AcDbEntity
  8
0
100
AcDbPolyline
 62
7
  6
CONTINUOUS
 90
7
 70
0
 10
-3.4011247202
 20
18.5068717346
 10
-3.4106735258
 20
18.5043163463
 10
-3.4201019972
 20
18.5006835684
 10
-3.4294101289
 20
18.4959733975
 10
-3.4385463619
 20
18.489939544
 10
-3.4475622449
 20
18.4828282893
 10
-3.4657189537
 20
18.4678605575
  0
LWPOLYLINE
  5
51E
100
AcDbEntity
  8
0
100
AcDbPolyline
 62
7
  6
CONTINUOUS
 90
10
 70
0
 10
-2.830513969
 20
17.9001229824
 10
-2.8617976455
 20
17.8949174237
 10
-2.8929700675
 20
17.8907304777
 10
-2.9240312538
 20
17.8875621472
 10
-2.9549654344
 20
17.8854060157
 10
-2.985788417
 20
17.8842685038
 10
-3.0165475863
 20
17.88416887
 10
-3.0472587498
 20
17.8851135356
 10
-3.0779061374
 20
17.8870960838
 10
-3.1084897677
 20
17.8901165165
  0
LINE
  5
51F
100
AcDbEntity
  8
0
100
AcDbLine
 62
7
  6
CONTINUOUS
 10
0.9840014626
 20
17.6104326334
 11
1.3388294626
 21
17.6104326334
  0
LINE
  5
520
100
AcDbEntity
  8
0
100
AcDbLine
 62
7
  6
CONTINUOUS
 10
-1.8631245374
 20
17.6105346334
 11
-1.5198705374
 21
17.6105346334
  0
LINE
  5
521
100
AcDbEntity
  8
0
100
AcDbLine
 62
7
  6
CONTINUOUS
 10
-0.7720115374
 20
17.6105346334
 11
-0.4209445374
 21
17.6105346334
  0
LINE
  5
522
100
AcDbEntity
  8
0
100
AcDbLine
 62
7
  6
CONTINUOUS
 10
0.2849644626
 20
17.6105346334
 11
0.6394994626
 21
17.6105346334
  0
LINE
  5
523
100
AcDbEntity
  8
0
100
AcDbLine
 62
7
  6
CONTINUOUS
 10
1.4705074626
 20
17.6105346334
 11
1.8250934626
 21
17.6105346334
  0
LINE
  5
524
100
AcDbEntity
  8
0
100
AcDbLine
 62
7
  6
CONTINUOUS
 10
2.4830404626
 20
17.6105346334
 11
2.8684934626
 21
17.6105346334
  0
LINE
  5
525
100
AcDbEntity
  8
0
100
AcDbLine
 62
7
  6
CONTINUOUS
 10
-3.0332946819
 20
18.3667684649
 11
-2.830513969
 21
18.3667684649
  0
LINE
  5
526
100
AcDbEntity
  8
0
100
AcDbLine
 62
7
  6
CONTINUOUS
 10
-2.8422795334
 20
18.6451649175
 11
-3.0325298564
 21
18.6451649175
  0
LINE
  5
527
100
AcDbEntity
  8
0
100
AcDbLine
 62
7
  6
CONTINUOUS
 10
-1.8478785374
 20
18.7084546334
 11
-1.5081565374
 21
18.7084546334
  0
LINE
  5
528
100
AcDbEntity
  8
0
100
AcDbLine
 62
7
  6
CONTINUOUS
 10
-1.4355745374
 20
18.9710446334
 11
-1.9187915374
 21
18.9710446334
  0
LINE
  5
529
100
AcDbEntity
  8
0
100
AcDbLine
 62
7
  6
CONTINUOUS
 10
2.3296034626
 20
19.3103976334
 11
2.0169114626
 21
19.3103976334
  0
LINE
  5
52A
100
AcDbEntity
  8
0
100
AcDbLine
 62
7
  6
CONTINUOUS
 10
1.3388294626
 20
19.3103976334
 11
0.9840014626
 21
19.3103976334
  0
LINE
  5
52B
100
AcDbEntity
  8
0
100
AcDbLine
 62
7
  6
CONTINUOUS
 10
0.7929864626
 20
19.3103976334
 11
0.4535314626
 21
19.3103976334
  0
LINE
  5
52C
100
AcDbEntity
  8
0
100
AcDbLine
 62
7
  6
CONTINUOUS
 10
-0.0392965374
 20
19.3103976334
 11
-0.0890605374
 21
19.3103976334
  0
LINE
  5
52D
100
AcDbEntity
  8
0
100
AcDbLine
 62
7
  6
CONTINUOUS
 10
-0.5838525374
 20
19.3103976334
 11
-0.9309685374
 21
19.3103976334
  0
LINE
  5
52E
100
AcDbEntity
  8
0
100
AcDbLine
 62
7
  6
CONTINUOUS
 10
-0.9866855374
 20
19.3103976334
 11
-1.3376635374
 21
19.3103976334
  0
LINE
  5
52F
100
AcDbEntity
  8
0
100
AcDbLine
 62
7
  6
CONTINUOUS
 10
-2.0107105374
 20
19.3103976334
 11
-2.3846845374
 21
19.3103976334
  0
LINE
  5
530
100
AcDbEntity
  8
0
100
AcDbLine
 62
7
  6
CONTINUOUS
 10
-2.4888792013
 20
19.3103973201
 11
-2.8422795334
 21
19.3103973201
  0
LINE
  5
531
100
AcDbEntity
  8
0
100
AcDbLine
 62
7
  6
CONTINUOUS
 10
-3.3856497525
 20
19.3103973201
 11
-3.7269530959
 21
19.3103973201
  0
LWPOLYLINE
  5
532
100
AcDbEntity
  8
0
100
AcDbPolyline
 62
7
  6
CONTINUOUS
 90
13
 70
0
 10
-3.0325298564
 20
18.6451649175
 10
-3.0546461907
 20
18.6464362346
 10
-3.0758797355
 20
18.6500720332
 10
-3.0962305262
 20
18.6560723051
 10
-3.1157817997
 20
18.6646713463
 10
-3.1344503854
 20
18.6756348385
 10
-3.1519866953
 20
18.6882598467
 10
-3.1684000037
 20
18.7024125141
 10
-3.1836810673
 20
18.7182266634
 10
-3.1975525039
 20
18.7354008738
 10
-3.209921853
 20
18.7538346574
 10
-3.2208815812
 20
18.7736284617
 10
-3.2304316876
 20
18.7947822669
  0
LWPOLYLINE
  5
533
100
AcDbEntity
  8
0
100
AcDbPolyline
 62
7
  6
CONTINUOUS
 90
25
 70
0
 10
-3.1084897677
 20
17.8901165165
 10
-3.1222811747
 20
17.8921336027
 10
-3.1358057122
 20
17.8948553485
 10
-3.1490633866
 20
17.8982817523
 10
-3.1620915031
 20
17.9024228957
 10
-3.174852769
 20
17.9072686936
 10
-3.1872352932
 20
17.9127888938
 10
-3.1992552989
 20
17.9189855294
 10
-3.2108965736
 20
17.925856561
 10
-3.2219985725
 20
17.9333656258
 10
-3.2325523952
 20
17.9415280684
 10
-3.24256695
 20
17.9503285351
 10
-3.2519084023
 20
17.9596846131
 10
-3.2605390924
 20
17.9696184133
 10
-3.268496683
 20
17.9801078142
 10
-3.2757603209
 20
17.9910040546
 10
-3.2823284669
 20
18.0022999067
 10
-3.2882026582
 20
18.014002589
 10
-3.2933666536
 20
18.0259850104
 10
-3.2978327713
 20
18.0382377369
 10
-3.3015886873
 20
18.0507701948
 10
-3.3045811949
 20
18.063483584
 10
-3.306792555
 20
18.076344969
 10
-3.3082404971
 20
18.0893872793
 10
-3.3089250159
 20
18.1026105122
  0
LINE
  5
534
100
AcDbEntity
  8
0
100
AcDbLine
 62
7
  6
CONTINUOUS
 10
7.7933528664
 20
20.7280966334
 11
6.9850624895
 21
20.6547257424
  0
LINE
  5
535
100
AcDbEntity
  8
0
100
AcDbLine
 62
7
  6
CONTINUOUS
 10
-3.4066471336
 20
20.7280966334
 11
-4.2149375105
 21
20.6547257424
  0
LWPOLYLINE
  5
536
100
AcDbEntity
  8
0
100
AcDbPolyline
 62
253
  6
CONTINUOUS
 90
13
 70
0
 10
-10.0894476954
 20
20.4403504802
 10
-10.1156179884
 20
20.438596238
 10
-10.1413392023
 20
20.433434992
 10
-10.1661685871
 20
20.4249550668
 10
-10.1896793854
 20
20.4133014961
 10
-10.2114658165
 20
20.3986746565
 10
-10.2311506897
 20
20.3813277851
 10
-10.2484215729
 20
20.3615256756
 10
-10.2629465287
 20
20.3396368872
 10
-10.2744252663
 20
20.3161614106
 10
-10.282696906
 20
20.2915655974
 10
-10.2876925753
 20
20.2662424779
 10
-10.2893791604
 20
20.2406245733
  0
LINE
  5
537
100
AcDbEntity
  8
0
100
AcDbLine
 62
253
  6
CONTINUOUS
 10
4.7094959602
 20
20.2389767405
 11
9.1567495569
 21
20.2492244192
  0
LINE
  5
538
100
AcDbEntity
  8
0
100
AcDbLine
 62
253
  6
CONTINUOUS
 10
0.3137565642
 20
20.2348800397
 11
4.7094959602
 21
20.2389767405
  0
LWPOLYLINE
  5
539
100
AcDbEntity
  8
0
100
AcDbPolyline
 62
253
  6
CONTINUOUS
 90
4
 70
0
 10
0.3129694193
 20
20.424471936
 10
2.5046247484
 20
20.4258780534
 10
4.7021635667
 20
20.4290326447
 10
9.1441172143
 20
20.4403796877
  0
LINE
  5
53A
100
AcDbEntity
  8
0
100
AcDbLine
 62
7
  6
CONTINUOUS
 10
-7.7572024836
 20
20.6494849645
 11
-4.3881425912
 21
20.6494849645
  0
LINE
  5
53B
100
AcDbEntity
  8
0
100
AcDbLine
 62
7
  6
CONTINUOUS
 10
3.4427975164
 20
20.6494849645
 11
6.8118574088
 21
20.6494849645
  0
LINE
  5
53C
100
AcDbEntity
  8
0
100
AcDbLine
 62
7
  6
CONTINUOUS
 10
9.2878770431
 20
20.7280966334
 11
7.7933528664
 21
20.7280966334
  0
LINE
  5
53D
100
AcDbEntity
  8
0
100
AcDbLine
 62
7
  6
CONTINUOUS
 10
2.4613020588
 20
20.7280966334
 11
-3.4066471336
 21
20.7280966334
  0
LINE
  5
53E
100
AcDbEntity
  8
0
100
AcDbLine
 62
7
  6
CONTINUOUS
 10
-8.7386979412
 20
20.7280966334
 11
-10.2332221179
 21
20.7280966334
  0
LINE
  5
53F
100
AcDbEntity
  8
0
100
AcDbLine
 62
253
  6
CONTINUOUS
 10
-3.9989607838
 20
20.2367128666
 11
0.3137565642
 21
20.2348800397
  0
LINE
  5
540
100
AcDbEntity
  8
0
100
AcDbLine
 62
253
  6
CONTINUOUS
 10
-3.9942396846
 20
20.4264900004
 11
0.3129694193
 21
20.424471936
  0
LWPOLYLINE
  5
541
100
AcDbEntity
  8
0
100
AcDbPolyline
 62
253
  6
CONTINUOUS
 90
3
 70
0
 10
-10.1020946388
 20
20.2492151779
 10
-8.1131399496
 20
20.2438103693
 10
-3.9989607838
 20
20.2367128666
  0
LWPOLYLINE
  5
542
100
AcDbEntity
  8
0
100
AcDbPolyline
 62
253
  6
CONTINUOUS
 90
3
 70
0
 10
-10.0894461945
 20
20.4403474764
 10
-8.1025615715
 20
20.4342565923
 10
-3.9942396846
 20
20.4264900004
  0
LWPOLYLINE
  5
543
100
AcDbEntity
  8
0
100
AcDbPolyline
 62
253
  6
CONTINUOUS
 90
9
 70
0
 10
9.1567480777
 20
20.2492156804
 10
9.1810751893
 20
20.2485261182
 10
9.2050248456
 20
20.2483403963
 10
9.2281328785
 20
20.2483539459
 10
9.2498884031
 20
20.2478925872
 10
9.2699443402
 20
20.2470175118
 10
9.288123736
 20
20.2464444084
 10
9.3042064861
 20
20.2457724861
 10
9.3285862894
 20
20.2437459882
  0
LWPOLYLINE
  5
544
100
AcDbEntity
  8
0
100
AcDbPolyline
 62
253
  6
CONTINUOUS
 90
4
 70
0
 10
9.3285862894
 20
20.2437459882
 10
9.3366114924
 20
20.2431596244
 10
9.3418083838
 20
20.2422295229
 10
9.3440340856
 20
20.2406245733
  0
LINE
  5
545
100
AcDbEntity
  8
0
100
AcDbLine
 62
7
  6
CONTINUOUS
 10
-8.7386979412
 20
20.7280966334
 11
-7.9304075643
 21
20.6547257424
  0
LINE
  5
546
100
AcDbEntity
  8
0
100
AcDbLine
 62
7
  6
CONTINUOUS
 10
2.4613020588
 20
20.7280966334
 11
3.2695924357
 21
20.6547257424
  0
LWPOLYLINE
  5
547
100
AcDbEntity
  8
0
100
AcDbPolyline
 62
253
  6
CONTINUOUS
 90
13
 70
0
 10
9.1441026206
 20
20.4403504802
 10
9.1461944746
 20
20.4374900814
 10
9.1476074954
 20
20.4317073823
 10
9.1486675924
 20
20.4231475918
 10
9.1500065748
 20
20.4118497026
 10
9.1515640099
 20
20.3978447797
 10
9.1526263815
 20
20.3813869849
 10
9.153551334
 20
20.3629036289
 10
9.1547284599
 20
20.3426109398
 10
9.1554463484
 20
20.320687384
 10
9.1556401487
 20
20.2974823665
 10
9.1559738055
 20
20.273505015
 10
9.1567480777
 20
20.2492156804
  0
LWPOLYLINE
  5
548
100
AcDbEntity
  8
0
100
AcDbPolyline
 62
253
  6
CONTINUOUS
 90
13
 70
0
 10
9.3440340856
 20
-20.2844313065
 10
9.341868554
 20
-20.2854932192
 10
9.3366930315
 20
-20.2865389772
 10
9.3285862893
 20
-20.287552678
 10
9.3176717119
 20
-20.2885189086
 10
9.3041154186
 20
-20.2894229668
 10
9.288123736
 20
-20.290251083
 10
9.2699400567
 20
-20.290990645
 10
9.2498411359
 20
-20.291630405
 10
9.2281328784
 20
-20.2921606357
 10
9.2051456834
 20
-20.2925732634
 10
9.1812294151
 20
-20.2928619921
 10
9.1567480783
 20
-20.2930224136
  0
LINE
  5
549
100
AcDbEntity
  8
0
100
AcDbLine
 62
7
  6
CONTINUOUS
 10
7.7933528664
 20
22.2994849645
 11
6.9850624895
 21
22.2261140735
  0
LINE
  5
54A
100
AcDbEntity
  8
0
100
AcDbLine
 62
7
  6
CONTINUOUS
 10
-3.4066471336
 20
22.2994849645
 11
-4.2149375105
 21
22.2261140735
  0
LINE
  5
54B
100
AcDbEntity
  8
0
100
AcDbLine
 62
7
  6
CONTINUOUS
 10
-7.7572024836
 20
22.2208732956
 11
-4.3881425912
 21
22.2208732956
  0
LINE
  5
54C
100
AcDbEntity
  8
0
100
AcDbLine
 62
7
  6
CONTINUOUS
 10
3.4427975164
 20
22.2208732956
 11
6.8118574088
 21
22.2208732956
  0
LINE
  5
54D
100
AcDbEntity
  8
0
100
AcDbLine
 62
7
  6
CONTINUOUS
 10
-11.0339074914
 20
22.2994849645
 11
-8.7386979412
 21
22.2994849645
  0
LINE
  5
54E
100
AcDbEntity
  8
0
100
AcDbLine
 62
7
  6
CONTINUOUS
 10
-3.4066471336
 20
22.2994849645
 11
2.4613020588
 21
22.2994849645
  0
LINE
  5
54F
100
AcDbEntity
  8
0
100
AcDbLine
 62
7
  6
CONTINUOUS
 10
7.7933528664
 20
22.2994849645
 11
10.0885624166
 21
22.2994849645
  0
LINE
  5
550
100
AcDbEntity
  8
0
100
AcDbLine
 62
7
  6
CONTINUOUS
 10
-8.7386979412
 20
22.2994849645
 11
-7.9304075643
 21
22.2261140735
  0
LINE
  5
551
100
AcDbEntity
  8
0
100
AcDbLine
 62
7
  6
CONTINUOUS
 10
2.4613020588
 20
22.2994849645
 11
3.2695924357
 21
22.2261140735
  0
ELLIPSE
  5
552
100
AcDbEntity
  8
0
100
AcDbEllipse
 62
7
  6
CONTINUOUS
 10
-11.0332222588
 20
21.7987987915
 30
0.0
 11
0.2238673116
 21
-0.4480418466
 31
0.0
 40
0.9982882662
 41
2.6789040089
 42
4.2483303396
  0
ELLIPSE
  5
553
100
AcDbEntity
  8
0
100
AcDbEllipse
 62
7
  6
CONTINUOUS
 10
10.087877184
 20
21.7987987915
 30
0.0
 11
0.2238673116
 21
0.4480418466
 31
0.0
 40
0.9982882662
 41
-1.1067376861
 42
0.4626886447
  0
ELLIPSE
  5
554
100
AcDbEntity
  8
0
100
AcDbEllipse
 62
7
  6
CONTINUOUS
 10
-4.3881425912
 20
22.2313548514
 30
0.0
 11
0.2
 21
-0.0
 31
0.0
 40
0.0524077793
 41
-1.5707963268
 42
-0.5235987756
  0
ELLIPSE
  5
555
100
AcDbEntity
  8
0
100
AcDbEllipse
 62
7
  6
CONTINUOUS
 10
-7.7572024836
 20
22.2313548514
 30
0.0
 11
0.2
 21
0.0
 31
0.0
 40
0.0524077793
 41
-2.617993878
 42
-1.5707963268
  0
ELLIPSE
  5
556
100
AcDbEntity
  8
0
100
AcDbEllipse
 62
7
  6
CONTINUOUS
 10
3.4427975164
 20
22.2313548514
 30
0.0
 11
0.2
 21
-0.0
 31
0.0
 40
0.0524077793
 41
-2.617993878
 42
-1.5707963268
  0
ELLIPSE
  5
557
100
AcDbEntity
  8
0
100
AcDbEllipse
 62
7
  6
CONTINUOUS
 10
6.8118574088
 20
22.2313548514
 30
0.0
 11
0.2
 21
-0.0
 31
0.0
 40
0.0524077793
 41
-1.5707963268
 42
-0.5235987756
  0
ELLIPSE
  5
558
100
AcDbEntity
  8
0
100
AcDbEllipse
 62
7
  6
CONTINUOUS
 10
10.0276495644
 20
0.6981874685
 30
0.0
 11
0.4745319423
 21
-0.1581451893
 31
0.0
 40
0.9996192872
 41
-1.2489924673
 42
0.3215754254
  0
ELLIPSE
  5
559
100
AcDbEntity
  8
0
100
AcDbEllipse
 62
7
  6
CONTINUOUS
 10
-10.9729946392
 20
0.6981874685
 30
0.0
 11
0.4745319423
 21
0.1581451893
 31
0.0
 40
0.9996192872
 41
2.8200172282
 42
4.3905851209
  0
ELLIPSE
  5
55A
100
AcDbEntity
  8
0
100
AcDbEllipse
 62
7
  6
CONTINUOUS
 10
-10.8067915772
 20
8.9990411161
 30
0.0
 11
0.6
 21
0.0
 31
0.0
 40
0.0087268678
 41
1.5707963268
 42
3.089232776
  0
ELLIPSE
  5
55B
100
AcDbEntity
  8
0
100
AcDbEllipse
 62
7
  6
CONTINUOUS
 10
9.8614465024
 20
8.9990411161
 30
0.0
 11
0.6
 21
-0.0
 31
0.0
 40
0.0087268678
 41
0.0523598776
 42
1.5707963268
  0
ELLIPSE
  5
55C
100
AcDbEntity
  8
0
100
AcDbEllipse
 62
7
  6
CONTINUOUS
 10
-10.8067915772
 20
13.1571521507
 30
0.0
 11
0.6
 21
0.0
 31
0.0
 40
0.0087268678
 41
-3.089232776
 42
-1.5707963268
  0
ELLIPSE
  5
55D
100
AcDbEntity
  8
0
100
AcDbEllipse
 62
7
  6
CONTINUOUS
 10
9.8614465024
 20
13.1571521507
 30
0.0
 11
0.6
 21
0.0
 31
0.0
 40
0.0087268678
 41
-1.5707963268
 42
-0.0523598776
  0
ELLIPSE
  5
55E
100
AcDbEntity
  8
0
100
AcDbEllipse
 62
7
  6
CONTINUOUS
 10
-10.2329480248
 20
20.5278221642
 30
0.0
 11
-0.0895469246
 21
0.1792167386
 31
0.0
 40
0.9982882662
 41
-0.4626886447
 42
1.1067376861
  0
ELLIPSE
  5
55F
100
AcDbEntity
  8
0
100
AcDbEllipse
 62
7
  6
CONTINUOUS
 10
9.28760295
 20
20.5278221642
 30
0.0
 11
0.0895469246
 21
0.1792167386
 31
0.0
 40
0.9982882662
 41
-1.1067376861
 42
0.4626886447
  0
ELLIPSE
  5
560
100
AcDbEntity
  8
0
100
AcDbEllipse
 62
7
  6
CONTINUOUS
 10
-4.3881425912
 20
20.6599665203
 30
0.0
 11
0.2
 21
0.0
 31
0.0
 40
0.0524077793
 41
-1.5707963268
 42
-0.5235987756
  0
ELLIPSE
  5
561
100
AcDbEntity
  8
0
100
AcDbEllipse
 62
7
  6
CONTINUOUS
 10
-7.7572024836
 20
20.6599665203
 30
0.0
 11
0.2
 21
-0.0
 31
0.0
 40
0.0524077793
 41
-2.617993878
 42
-1.5707963268
  0
ELLIPSE
  5
562
100
AcDbEntity
  8
0
100
AcDbEllipse
 62
7
  6
CONTINUOUS
 10
3.4427975164
 20
20.6599665203
 30
0.0
 11
0.2
 21
0.0
 31
0.0
 40
0.0524077793
 41
-2.617993878
 42
-1.5707963268
  0
ELLIPSE
  5
563
100
AcDbEntity
  8
0
100
AcDbEllipse
 62
7
  6
CONTINUOUS
 10
6.8118574088
 20
20.6599665203
 30
0.0
 11
0.2
 21
0.0
 31
0.0
 40
0.0524077793
 41
-1.5707963268
 42
-0.5235987756
  0
ELLIPSE
  5
564
100
AcDbEntity
  8
0
100
AcDbEllipse
 62
7
  6
CONTINUOUS
 10
-10.1727204052
 20
1.7182737484
 30
0.0
 11
0.1664989464
 21
0.1109852068
 31
0.0
 40
0.9995051766
 41
2.5538770461
 42
4.1242165221
  0
ELLIPSE
  5
565
100
AcDbEntity
  8
0
100
AcDbEllipse
 62
7
  6
CONTINUOUS
 10
9.2273753304
 20
1.7182737484
 30
0.0
 11
0.1664989464
 21
-0.1109852068
 31
0.0
 40
0.9995051766
 41
-0.9826238685
 42
0.5877156075
  0
ELLIPSE
  5
566
100
AcDbEntity
  8
0
100
AcDbEllipse
 62
7
  6
CONTINUOUS
 10
10.087877184
 20
-21.8426055247
 30
0.0
 11
-0.2238673116
 21
0.4480418466
 31
0.0
 40
0.9982882662
 41
2.6789040089
 42
4.2483303396
  0
ELLIPSE
  5
567
100
AcDbEntity
  8
0
100
AcDbEllipse
 62
7
  6
CONTINUOUS
 10
-11.0332222588
 20
-21.8426055247
 30
0.0
 11
-0.2238673116
 21
-0.4480418466
 31
0.0
 40
0.9982882662
 41
-1.1067376861
 42
0.4626886447
  0
ELLIPSE
  5
568
100
AcDbEntity
  8
0
100
AcDbEllipse
 62
7
  6
CONTINUOUS
 10
3.4427975164
 20
-22.2751615846
 30
0.0
 11
0.2
 21
0.0
 31
0.0
 40
0.0524077793
 41
1.5707963268
 42
2.617993878
  0
ELLIPSE
  5
569
100
AcDbEntity
  8
0
100
AcDbEllipse
 62
7
  6
CONTINUOUS
 10
6.8118574088
 20
-22.2751615846
 30
0.0
 11
0.2
 21
-0.0
 31
0.0
 40
0.0524077793
 41
0.5235987756
 42
1.5707963268
  0
ELLIPSE
  5
56A
100
AcDbEntity
  8
0
100
AcDbEllipse
 62
7
  6
CONTINUOUS
 10
-4.3881425912
 20
-22.2751615846
 30
0.0
 11
0.2
 21
0.0
 31
0.0
 40
0.0524077793
 41
0.5235987756
 42
1.5707963268
  0
ELLIPSE
  5
56B
100
AcDbEntity
  8
0
100
AcDbEllipse
 62
7
  6
CONTINUOUS
 10
-7.7572024836
 20
-22.2751615846
 30
0.0
 11
0.2
 21
0.0
 31
0.0
 40
0.0524077793
 41
1.5707963268
 42
2.617993878
  0
ELLIPSE
  5
56C
100
AcDbEntity
  8
0
100
AcDbEllipse
 62
7
  6
CONTINUOUS
 10
-10.9729946392
 20
-0.7419942017
 30
0.0
 11
-0.4745319423
 21
0.1581451893
 31
0.0
 40
0.9996192872
 41
-1.2489924673
 42
0.3215754254
  0
ELLIPSE
  5
56D
100
AcDbEntity
  8
0
100
AcDbEllipse
 62
7
  6
CONTINUOUS
 10
10.0276495644
 20
-0.7419942017
 30
0.0
 11
-0.4745319423
 21
-0.1581451893
 31
0.0
 40
0.9996192872
 41
2.8200172282
 42
4.3905851209
  0
ELLIPSE
  5
56E
100
AcDbEntity
  8
0
100
AcDbEllipse
 62
7
  6
CONTINUOUS
 10
9.8614465024
 20
-9.0428478493
 30
0.0
 11
0.6
 21
-0.0
 31
0.0
 40
0.0087268678
 41
-1.5707963268
 42
-0.0523598776
  0
ELLIPSE
  5
56F
100
AcDbEntity
  8
0
100
AcDbEllipse
 62
7
  6
CONTINUOUS
 10
-10.8067915772
 20
-9.0428478493
 30
0.0
 11
0.6
 21
-0.0
 31
0.0
 40
0.0087268678
 41
-3.089232776
 42
-1.5707963268
  0
ELLIPSE
  5
570
100
AcDbEntity
  8
0
100
AcDbEllipse
 62
7
  6
CONTINUOUS
 10
9.8614465024
 20
-13.2009588839
 30
0.0
 11
0.6
 21
0.0
 31
0.0
 40
0.0087268678
 41
0.0523598776
 42
1.5707963268
  0
ELLIPSE
  5
571
100
AcDbEntity
  8
0
100
AcDbEllipse
 62
7
  6
CONTINUOUS
 10
-10.8067915772
 20
-13.2009588839
 30
0.0
 11
0.6
 21
-0.0
 31
0.0
 40
0.0087268678
 41
1.5707963268
 42
3.089232776
  0
ELLIPSE
  5
572
100
AcDbEntity
  8
0
100
AcDbEllipse
 62
7
  6
CONTINUOUS
 10
9.28760295
 20
-20.5716288974
 30
0.0
 11
-0.0895469246
 21
0.1792167386
 31
0.0
 40
0.9982882662
 41
-3.6042812983
 42
-2.0348549675
  0
ELLIPSE
  5
573
100
AcDbEntity
  8
0
100
AcDbEllipse
 62
7
  6
CONTINUOUS
 10
-10.2329480248
 20
-20.5716288974
 30
0.0
 11
0.0895469246
 21
0.1792167386
 31
0.0
 40
0.9982882662
 41
-4.2483303396
 42
-2.6789040089
  0
ELLIPSE
  5
574
100
AcDbEntity
  8
0
100
AcDbEllipse
 62
7
  6
CONTINUOUS
 10
3.4427975164
 20
-20.7037732535
 30
0.0
 11
0.2
 21
-0.0
 31
0.0
 40
0.0524077793
 41
1.5707963268
 42
2.617993878
  0
ELLIPSE
  5
575
100
AcDbEntity
  8
0
100
AcDbEllipse
 62
7
  6
CONTINUOUS
 10
6.8118574088
 20
-20.7037732535
 30
0.0
 11
0.2
 21
-0.0
 31
0.0
 40
0.0524077793
 41
0.5235987756
 42
1.5707963268
  0
ELLIPSE
  5
576
100
AcDbEntity
  8
0
100
AcDbEllipse
 62
7
  6
CONTINUOUS
 10
-4.3881425912
 20
-20.7037732535
 30
0.0
 11
0.2
 21
-0.0
 31
0.0
 40
0.0524077793
 41
0.5235987756
 42
1.5707963268
  0
ELLIPSE
  5
577
100
AcDbEntity
  8
0
100
AcDbEllipse
 62
7
  6
CONTINUOUS
 10
-7.7572024836
 20
-20.7037732535
 30
0.0
 11
0.2
 21
-0.0
 31
0.0
 40
0.0524077793
 41
1.5707963268
 42
2.617993878
  0
ELLIPSE
  5
578
100
AcDbEntity
  8
0
100
AcDbEllipse
 62
7
  6
CONTINUOUS
 10
9.2273753304
 20
-1.7620804815
 30
0.0
 11
0.1664989464
 21
0.1109852068
 31
0.0
 40
0.9995051766
 41
-0.5877156075
 42
0.9826238685
  0
ELLIPSE
  5
579
100
AcDbEntity
  8
0
100
AcDbEllipse
 62
7
  6
CONTINUOUS
 10
-10.1727204052
 20
-1.7620804815
 30
0.0
 11
0.1664989464
 21
-0.1109852068
 31
0.0
 40
0.9995051766
 41
2.1589687851
 42
3.7293082611
  0
ENDSEC
  0
SECTION
  2
OBJECTS
  0
DICTIONARY
  5
C
100
AcDbDictionary
280
0
281
1
  3
ACAD_GROUP
350
D
  3
ACAD_MLINESTYLE
350
17
  3
ACAD_LAYOUT
350
1A
  3
ACAD_PLOTSETTINGS
350
19
  3
ACAD_PLOTSTYLENAME
350
E
  0
DICTIONARY
  5
D
102
{ACAD_REACTORS
330
C
102
}
100
AcDbDictionary
280
0
281
1
  0
ACDBDICTIONARYWDFLT
  5
E
102
{ACAD_REACTORS
330
C
102
}
100
AcDbDictionary
281
1
  3
Normal
350
F
100
AcDbDictionaryWithDefault
340
F
  0
DICTIONARY
  5
17
102
{ACAD_REACTORS
330
C
102
}
100
AcDbDictionary
280
0
281
1
  3
Standard
350
18
  0
DICTIONARY
  5
19
102
{ACAD_REACTORS
330
C
102
}
100
AcDbDictionary
281
1
  0
DICTIONARY
  5
1A
102
{ACAD_REACTORS
330
C
102
}
100
AcDbDictionary
281
1
  3
Model
350
57A
  3
Layout1
350
57B
  0
ACDBPLACEHOLDER
  5
F
102
{ACAD_REACTORS
330
E
102
}
  0
MLINESTYLE
  5
18
102
{ACAD_REACTORS
330
17
102
}
100
AcDbMlineStyle
  2
STANDARD
 70
0
  3

 62
256
 51
90.0
 52
90.0
 71
2
 49
0.5
 62
256
  6
BYLAYER
 49
-0.5
 62
256
  6
BYLAYER
  0
LAYOUT
  5
57A
102
{ACAD_REACTORS
330
1A
102
}
100
AcDbPlotSettings
  1

  2
none_device
  4
ISO_A4_(297.00_x_210.00_MM)
  6

 40
0.0
 41
0.0
 42
0.0
 43
0.0
 44
297.0
 45
210.0
 46
0.0
 47
0.0
 48
0.0
 49
0.0
140
0.0
141
0.0
142
1.0
143
1.0
 70
1024
 72
1
 73
0
 74
0
  7

 75
0
147
1.0
148
0.0
149
0.0
100
AcDbLayout
  1
Model
 70
0
 71
0
 10
0.0
 20
0.0
 11
297.0
 21
210.0
 12
0.0
 22
0.0
 32
0.0
 14
0.0
 24
0.0
 34
0.0
 15
0.0
 25
0.0
 35
0.0
146
0.0
 13
0.0
 23
0.0
 33
0.0
 16
1.0
 26
0.0
 36
0.0
 17
0.0
 27
1.0
 37
0.0
 76
0
330
21D
345
0
346
0
  0
LAYOUT
  5
57B
102
{ACAD_REACTORS
330
1A
102
}
100
AcDbPlotSettings
  1

  2
none_device
  4
ISO_A4_(297.00_x_210.00_MM)
  6

 40
0.0
 41
0.0
 42
0.0
 43
0.0
 44
297.0
 45
210.0
 46
0.0
 47
0.0
 48
0.0
 49
0.0
140
0.0
141
0.0
142
1.0
143
1.0
 70
0
 72
1
 73
0
 74
0
  7

 75
0
147
1.0
148
0.0
149
0.0
100
AcDbLayout
  1
Layout1
 70
0
 71
1
 10
0.0
 20
0.0
 11
297.0
 21
210.0
 12
0.0
 22
0.0
 32
0.0
 14
0.0
 24
0.0
 34
0.0
 15
0.0
 25
0.0
 35
0.0
146
0.0
 13
0.0
 23
0.0
 33
0.0
 16
1.0
 26
0.0
 36
0.0
 17
0.0
 27
1.0
 37
0.0
 76
0
330
21E
345
0
346
0
  0
ENDSEC
  0
EOF
