  0
SECTION
  2
HEADER
  9
$ACADVER
  1
AC1024
  9
$DWGCODEPAGE
  3
ANSI_1252
  9
$EXTMAX
 10
210.0
 20
297.0
 30
0.0
  9
$EXTMIN
 10
0.0
 20
0.0
 30
0.0
  9
$LIMMIN
 10
0.0
 20
0.0
  9
$LIMMAX
 10
210.0
 20
297.0
  9
$VIEWCTR
 10
105.0
 20
148.5
  9
$VIEWSIZE
 40
297.0
  9
$CLAYER
  8
0
  9
$LTSCALE
 40
19.36
  9
$CELTYPE
  6
BYLAYER
  9
$DIMSCALE
 40
1.0
  9
$DIMASZ
 40
3.0
  9
$DIMEXO
 40
0.5
  9
$DIMDLI
 40
13.376
  9
$DIMEXE
 40
1.5
  9
$DIMCEN
 40
3.168
  9
$DIMLFAC
 40
1.0
  9
$DIMBLK
  1
_FILLED
  9
$DIMALT
 70
0
  9
$DIMALTF
 40
0.0393700787
  9
$DIMTXT
 40
3.0
  9
$DIMTOL
 70
1
  9
$DIMLIM
 70
0
  9
$DIMTFAC
 40
1.0
  9
$DIMTP
 40
0.01
  9
$DIMTM
 40
0.01
  9
$DIMGAP
 40
0.625
  9
$DIMDSEP
 70
44
  9
$AUNITS
 70
0
  9
$PDMODE
 70
3
  9
$PDSIZE
 40
3.0
  9
$HANDSEED
  5
57C
  9
$TILEMODE
 70
1
  9
$MEASUREMENT
 70
1
  9
$INSUNITS
 70
4
  0
ENDSEC
  0
SECTION
  2
CLASSES
  0
CLASS
  1
ACDBDICTIONARYWDFLT
  2
AcDbDictionaryWithDefault
  3
AutoCAD 2000
 90
0
 91
1
280
0
281
0
  0
CLASS
  1
ACDBPLACEHOLDER
  2
AcDbPlaceHolder
  3
AutoCAD 2000
 90
0
 91
1
280
0
281
0
  0
CLASS
  1
LAYOUT
  2
AcDbLayout
  3
AutoCAD 2000
 90
0
 91
0
280
0
281
0
  0
ENDSEC
  0
SECTION
  2
TABLES
  0
TABLE
  2
VPORT
  5
8
100
AcDbSymbolTable
 70
2
  0
VPORT
  5
1F4
100
AcDbSymbolTableRecord
100
AcDbViewportTableRecord
  2
*ACTIVE
 70
0
 10
0.0
 20
0.0
 11
1.0
 21
1.0
 12
105.0
 22
148.5
 13
0.0
 23
0.0
 14
1.0
 24
1.0
 15
0.0
 25
0.0
 16
0.0
 26
0.0
 36
1.0
 17
0.0
 27
0.0
 37
0.0
 40
297.0
 41
0.7070707071
 42
50.0
 43
0.0
 44
0.0
 50
0.0
 51
0.0
 71
0
 72
100
 73
1
 74
1
 75
0
 76
0
 77
0
 78
0
  0
ENDTAB
  0
TABLE
  2
LTYPE
  5
5
100
AcDbSymbolTable
 70
6
  0
LTYPE
  5
14
100
AcDbSymbolTableRecord
100
AcDbLinetypeTableRecord
  2
BYBLOCK
 70
0
  3

 72
65
 73
0
 40
0.0
  0
LTYPE
  5
15
100
AcDbSymbolTableRecord
100
AcDbLinetypeTableRecord
  2
BYLAYER
 70
0
  3

 72
65
 73
0
 40
0.0
  0
LTYPE
  5
16
100
AcDbSymbolTableRecord
100
AcDbLinetypeTableRecord
  2
CONTINUOUS
 70
64
  3
Solid line
 72
65
 73
0
 40
0.0
  0
LTYPE
  5
1F5
100
AcDbSymbolTableRecord
100
AcDbLinetypeTableRecord
  2
CENTER
 70
64
  3
____ _ ____ _ ____ _ ____ _ ____ _ ____ _ ____
 72
65
 73
4
 40
0.6
 49
0.375
 74
0
 49
-0.075
 74
0
 49
0.075
 74
0
 49
-0.075
 74
0
  0
LTYPE
  5
1F6
100
AcDbSymbolTableRecord
100
AcDbLinetypeTableRecord
  2
HIDDEN
 70
64
  3
- - - - - - - - - - - - - - - - - - - -
 72
65
 73
2
 40
0.2
 49
0.1
 74
0
 49
-0.1
 74
0
  0
LTYPE
  5
1F7
100
AcDbSymbolTableRecord
100
AcDbLinetypeTableRecord
  2
PHANTOM
 70
64
  3
_____ _ _ _____ _ _ _____ _ _ _____
 72
65
 73
6
 40
0.8
 49
0.45
 74
0
 49
-0.05
 74
0
 49
0.1
 74
0
 49
-0.05
 74
0
 49
0.1
 74
0
 49
-0.05
 74
0
  0
LTYPE
  5
1F8
100
AcDbSymbolTableRecord
100
AcDbLinetypeTableRecord
  2
DOT
 70
64
  3
. . . . . . . . . . . . . . . . . . . .
 72
65
 73
2
 40
0.2
 49
0.1
 74
0
 49
-0.1
 74
0
  0
LTYPE
  5
1F9
100
AcDbSymbolTableRecord
100
AcDbLinetypeTableRecord
  2
DASHED
 70
64
  3
- - - - - - - - - - - - - - - - - - - -
 72
65
 73
2
 40
0.2
 49
0.1
 74
0
 49
-0.1
 74
0
  0
ENDTAB
  0
TABLE
  2
LAYER
  5
2
100
AcDbSymbolTable
 70
36
  0
LAYER
  5
10
100
AcDbSymbolTableRecord
100
AcDbLayerTableRecord
  2
0
 70
0
 62
7
  6
CONTINUOUS
370
-3
390
F
  0
LAYER
  5
1FA
100
AcDbSymbolTableRecord
100
AcDbLayerTableRecord
  2
DEFAULT_1
 70
0
 62
7
  6
CENTER
370
-3
390
F
  0
LAYER
  5
1FB
100
AcDbSymbolTableRecord
100
AcDbLayerTableRecord
  2
DEFAULT_2
 70
0
 62
7
  6
HIDDEN
370
-3
390
F
  0
LAYER
  5
1FC
100
AcDbSymbolTableRecord
100
AcDbLayerTableRecord
  2
DEFAULT_3
 70
0
 62
7
  6
PHANTOM
370
-3
390
F
  0
LAYER
  5
1FD
100
AcDbSymbolTableRecord
100
AcDbLayerTableRecord
  2
ASSI
 70
0
 62
7
  6
CONTINUOUS
370
-3
390
F
  0
LAYER
  5
1FE
100
AcDbSymbolTableRecord
100
AcDbLayerTableRecord
  2
COORDINATE
 70
0
 62
7
  6
CONTINUOUS
370
-3
390
F
  0
LAYER
  5
1FF
100
AcDbSymbolTableRecord
100
AcDbLayerTableRecord
  2
COPY_PUBLISH
 70
0
 62
7
  6
CONTINUOUS
370
-3
390
F
  0
LAYER
  5
200
100
AcDbSymbolTableRecord
100
AcDbLayerTableRecord
  2
COSMETICI
 70
0
 62
7
  6
CONTINUOUS
370
-3
390
F
  0
LAYER
  5
201
100
AcDbSymbolTableRecord
100
AcDbLayerTableRecord
  2
CURVE
 70
0
 62
7
  6
CONTINUOUS
370
-3
390
F
  0
LAYER
  5
202
100
AcDbSymbolTableRecord
100
AcDbLayerTableRecord
  2
DRAFT
 70
0
 62
7
  6
CONTINUOUS
370
-3
390
F
  0
LAYER
  5
203
100
AcDbSymbolTableRecord
100
AcDbLayerTableRecord
  2
IMPORT_IGES
 70
0
 62
7
  6
CONTINUOUS
370
-3
390
F
  0
LAYER
  5
204
100
AcDbSymbolTableRecord
100
AcDbLayerTableRecord
  2
INTFCLR_1
 70
0
 62
7
  6
CONTINUOUS
370
-3
390
F
  0
LAYER
  5
205
100
AcDbSymbolTableRecord
100
AcDbLayerTableRecord
  2
INTFCLR_2
 70
0
 62
7
  6
CONTINUOUS
370
-3
390
F
  0
LAYER
  5
206
100
AcDbSymbolTableRecord
100
AcDbLayerTableRecord
  2
INTF_2
 70
0
 62
7
  6
CONTINUOUS
370
-3
390
F
  0
LAYER
  5
207
100
AcDbSymbolTableRecord
100
AcDbLayerTableRecord
  2
INTF_5
 70
0
 62
7
  6
CONTINUOUS
370
-3
390
F
  0
LAYER
  5
208
100
AcDbSymbolTableRecord
100
AcDbLayerTableRecord
  2
INTF_9
 70
0
 62
7
  6
CONTINUOUS
370
-3
390
F
  0
LAYER
  5
209
100
AcDbSymbolTableRecord
100
AcDbLayerTableRecord
  2
NOTE
 70
0
 62
7
  6
CONTINUOUS
370
-3
390
F
  0
LAYER
  5
20A
100
AcDbSymbolTableRecord
100
AcDbLayerTableRecord
  2
PIANI
 70
0
 62
7
  6
CONTINUOUS
370
-3
390
F
  0
LAYER
  5
20B
100
AcDbSymbolTableRecord
100
AcDbLayerTableRecord
  2
PUNTI
 70
0
 62
7
  6
CONTINUOUS
370
-3
390
F
  0
LAYER
  5
20C
100
AcDbSymbolTableRecord
100
AcDbLayerTableRecord
  2
RACCORDO
 70
0
 62
7
  6
CONTINUOUS
370
-3
390
F
  0
LAYER
  5
20D
100
AcDbSymbolTableRecord
100
AcDbLayerTableRecord
  2
SIMBOLI
 70
0
 62
7
  6
CONTINUOUS
370
-3
390
F
  0
LAYER
  5
20E
100
AcDbSymbolTableRecord
100
AcDbLayerTableRecord
  2
SMUSSO
 70
0
 62
7
  6
CONTINUOUS
370
-3
390
F
  0
LAYER
  5
20F
100
AcDbSymbolTableRecord
100
AcDbLayerTableRecord
  2
SNAPLINE
 70
0
 62
7
  6
CONTINUOUS
370
-3
390
F
  0
LAYER
  5
210
100
AcDbSymbolTableRecord
100
AcDbLayerTableRecord
  2
SUPERFICI
 70
0
 62
7
  6
CONTINUOUS
370
-3
390
F
  0
LAYER
  5
211
100
AcDbSymbolTableRecord
100
AcDbLayerTableRecord
  2
TRASH
 70
0
 62
7
  6
CONTINUOUS
370
-3
390
F
  0
ENDTAB
  0
TABLE
  2
STYLE
  5
3
100
AcDbSymbolTable
 70
1
  0
STYLE
  5
11
100
AcDbSymbolTableRecord
100
AcDbTextStyleTableRecord
  2
STANDARD
 70
0
 40
0.0
 41
0.8
 50
0.0
 71
0
 42
0.2
  3
txt
  4

  0
STYLE
  5
212
100
AcDbSymbolTableRecord
100
AcDbTextStyleTableRecord
  2
TEXTSTYLE_1
 70
0
 40
0.0
 41
0.8
 50
0.0
 71
0
 42
0.2
  3
gdt
  4

  0
ENDTAB
  0
TABLE
  2
VIEW
  5
6
100
AcDbSymbolTable
 70
0
  0
ENDTAB
  0
TABLE
  2
UCS
  5
7
100
AcDbSymbolTable
 70
0
  0
ENDTAB
  0
TABLE
  2
APPID
  5
9
100
AcDbSymbolTable
 70
1
  0
APPID
  5
213
100
AcDbSymbolTableRecord
100
AcDbRegAppTableRecord
  2
ACAD
 70
0
  0
ENDTAB
  0
TABLE
  2
BLOCK_RECORD
  5
1
100
AcDbSymbolTable
 70
0
  0
BLOCK_RECORD
  5
214
100
AcDbSymbolTableRecord
100
AcDbBlockTableRecord
  2
*Model_Space
  0
BLOCK_RECORD
  5
215
100
AcDbSymbolTableRecord
100
AcDbBlockTableRecord
  2
*Paper_Space
  0
BLOCK_RECORD
  5
216
100
AcDbSymbolTableRecord
100
AcDbBlockTableRecord
  2
_FILLED
  0
ENDTAB
  0
TABLE
  2
DIMSTYLE
  5
A
100
AcDbSymbolTable
 70
1
100
AcDbDimStyleTable
 71
0
  0
DIMSTYLE
105
217
100
AcDbSymbolTableRecord
100
AcDbDimStyleTableRecord
  2
STANDARD
 70
0
  3

  4

 40
1.0
 41
3.0
 42
0.5
 43
0.38
 44
1.5
 45
0.0
 46
0.0
 47
0.01
 48
0.01
140
3.0
141
0.09
142
0.0
143
25.4
144
1.0
145
0.0
146
1.0
147
0.625
 71
1
 72
0
 73
0
 74
0
 75
0
 76
0
 77
1
 78
8
 79
2
170
0
171
1
172
0
173
0
174
0
175
0
176
0
177
0
178
0
270
2
179
2
271
2
272
2
273
2
274
2
275
0
280
0
281
0
282
0
283
1
284
8
285
0
286
0
287
3
288
0
340
11
278
44
341
216
342
216
343
216
344
216
  0
ENDTAB
  0
ENDSEC
  0
SECTION
  2
BLOCKS
  0
BLOCK
  5
20
100
AcDbEntity
  8
0
100
AcDbBlockBegin
  2
*Model_Space
 70
0
 10
0.0
 20
0.0
 30
0.0
  3
*Model_Space
  1

  0
ENDBLK
  5
21
100
AcDbEntity
  8
0
100
AcDbBlockEnd
  0
BLOCK
  5
1C
100
AcDbEntity
  8
0
100
AcDbBlockBegin
  2
*Paper_Space
 70
0
 10
0.0
 20
0.0
 30
0.0
  3
*Paper_Space
  1

  0
ENDBLK
  5
1D
100
AcDbEntity
  8
0
100
AcDbBlockEnd
  0
BLOCK
  5
218
100
AcDbEntity
  8
0
100
AcDbBlockBegin
  2
_FILLED
 70
64
 10
0.0
 20
0.0
  3
_FILLED
  1

  0
SOLID
  5
219
100
AcDbEntity
  8
0
  6
BYBLOCK
 62
0
100
AcDbTrace
 10
0.0
 20
0.0
 11
-1.0
 21
0.3166666667
 12
-1.0
 22
-0.3166666667
 13
-1.0
 23
-0.3166666667
  0
ENDBLK
  5
21A
100
AcDbEntity
  8
0
  6
BYBLOCK
 62
0
100
AcDbBlockEnd
  0
ENDSEC
  0
SECTION
  2
ENTITIES
  0
LINE
  5
21B
100
AcDbEntity
  8
ASSI
100
AcDbLine
 62
7
  6
CONTINUOUS
 10
3.6300686997
 20
-22.1215343859
 11
3.2216437067
 21
-22.1586083218
  0
LINE
  5
21C
100
AcDbEntity
  8
ASSI
100
AcDbLine
 62
7
  6
CONTINUOUS
 10
-10.7496905115
 20
-22.1586083218
 11
-7.9783562933
 21
-22.1586083218
  0
LINE
  5
21D
100
AcDbEntity
  8
ASSI
100
AcDbLine
 62
7
  6
CONTINUOUS
 10
-3.5615063074
 20
-22.1586083218
 11
3.2216437067
 21
-22.1586083218
  0
LINE
  5
21E
100
AcDbEntity
  8
ASSI
100
AcDbLine
 62
7
  6
CONTINUOUS
 10
7.6384936926
 20
-22.1586083218
 11
10.4098279108
 21
-22.1586083218
  0
LINE
  5
21F
100
AcDbEntity
  8
ASSI
100
AcDbLine
 62
7
  6
CONTINUOUS
 10
-7.5699313003
 20
-22.1215343859
 11
-3.9699313003
 21
-22.1215343859
  0
LINE
  5
220
100
AcDbEntity
  8
ASSI
100
AcDbLine
 62
7
  6
CONTINUOUS
 10
3.6300686997
 20
-22.1215343859
 11
7.2300686997
 21
-22.1215343859
  0
LINE
  5
221
100
AcDbEntity
  8
ASSI
100
AcDbLine
 62
7
  6
CONTINUOUS
 10
-3.9699313003
 20
-22.1215343859
 11
-3.5615063074
 21
-22.1586083218
  0
LINE
  5
222
100
AcDbEntity
  8
ASSI
100
AcDbLine
 62
7
  6
CONTINUOUS
 10
3.6300686997
 20
-20.5751187747
 11
3.1468499705
 21
-20.6778844659
  0
LINE
  5
223
100
AcDbEntity
  8
ASSI
100
AcDbLine
 62
7
  6
CONTINUOUS
 10
-7.5699313003
 20
-22.1215343859
 11
-7.9783562933
 21
-22.1586083218
  0
LINE
  5
224
100
AcDbEntity
  8
ASSI
100
AcDbLine
 62
7
  6
CONTINUOUS
 10
-6.1727587675
 20
-20.3464957045
 11
-10.0147604013
 21
-20.3712057039
  0
LINE
  5
225
100
AcDbEntity
  8
ASSI
100
AcDbLine
 62
7
  6
CONTINUOUS
 10
-3.0568176835
 20
-20.3352551144
 11
-5.3665829763
 21
-20.3428318294
  0
LINE
  5
226
100
AcDbEntity
  8
ASSI
100
AcDbLine
 62
7
  6
CONTINUOUS
 10
-0.7472737873
 20
-20.3320079508
 11
-3.0568176835
 21
-20.3352551144
  0
LINE
  5
227
100
AcDbEntity
  8
ASSI
100
AcDbLine
 62
7
  6
CONTINUOUS
 10
-10.0583578834
 20
-20.6778844659
 11
-8.0531500295
 21
-20.6778844659
  0
LINE
  5
228
100
AcDbEntity
  8
ASSI
100
AcDbLine
 62
7
  6
CONTINUOUS
 10
-3.4867125712
 20
-20.6778844659
 11
3.1468499705
 21
-20.6778844659
  0
LINE
  5
229
100
AcDbEntity
  8
ASSI
100
AcDbLine
 62
7
  6
CONTINUOUS
 10
7.7132874288
 20
-20.6778844659
 11
9.7184952828
 21
-20.6778844659
  0
LINE
  5
22A
100
AcDbEntity
  8
ASSI
100
AcDbLine
 62
7
  6
CONTINUOUS
 10
-7.5699313003
 20
-20.5751187747
 11
-6.14025769
 21
-20.5751187747
  0
LINE
  5
22B
100
AcDbEntity
  8
ASSI
100
AcDbLine
 62
7
  6
CONTINUOUS
 10
-5.3996049107
 20
-20.5751187747
 11
-3.9699313003
 21
-20.5751187747
  0
LINE
  5
22C
100
AcDbEntity
  8
ASSI
100
AcDbLine
 62
7
  6
CONTINUOUS
 10
3.6300686997
 20
-20.5751187747
 11
5.05974231
 21
-20.5751187747
  0
LINE
  5
22D
100
AcDbEntity
  8
ASSI
100
AcDbLine
 62
7
  6
CONTINUOUS
 10
5.8003950893
 20
-20.5751187747
 11
7.2300686997
 21
-20.5751187747
  0
LINE
  5
22E
100
AcDbEntity
  8
ASSI
100
AcDbLine
 62
7
  6
CONTINUOUS
 10
-5.6456880774
 20
-20.3582532286
 11
-5.8941745233
 21
-20.3582532286
  0
LINE
  5
22F
100
AcDbEntity
  8
ASSI
100
AcDbLine
 62
7
  6
CONTINUOUS
 10
5.3058254767
 20
-20.3582532286
 11
5.5543119226
 21
-20.3582532286
  0
LINE
  5
230
100
AcDbEntity
  8
ASSI
100
AcDbLine
 62
7
  6
CONTINUOUS
 10
1.5621435967
 20
-20.3330903387
 11
-0.7472737873
 21
-20.3320079508
  0
LWPOLYLINE
  5
231
100
AcDbEntity
  8
ASSI
100
AcDbPolyline
 62
7
  6
CONTINUOUS
 90
3
 70
0
 10
5.0267203757
 20
-20.3428318294
 10
3.8718140069
 20
-20.338502278
 10
1.5621435967
 20
-20.3330903387
  0
LINE
  5
232
100
AcDbEntity
  8
ASSI
100
AcDbLine
 62
7
  6
CONTINUOUS
 10
9.6748978006
 20
-20.3712057039
 11
5.8328961668
 21
-20.3464957045
  0
LINE
  5
233
100
AcDbEntity
  8
ASSI
100
AcDbLine
 62
7
  6
CONTINUOUS
 10
7.2300686997
 20
-22.1215343859
 11
7.6384936926
 21
-22.1586083218
  0
LINE
  5
234
100
AcDbEntity
  8
ASSI
100
AcDbLine
 62
7
  6
CONTINUOUS
 10
-3.9699313003
 20
-20.5751187747
 11
-3.4867125712
 21
-20.6778844659
  0
LINE
  5
235
100
AcDbEntity
  8
ASSI
100
AcDbLine
 62
7
  6
CONTINUOUS
 10
-7.5699313003
 20
-20.5751187747
 11
-8.0531500295
 21
-20.6778844659
  0
LINE
  5
236
100
AcDbEntity
  8
ASSI
100
AcDbLine
 62
7
  6
CONTINUOUS
 10
7.2300686997
 20
-20.5751187747
 11
7.7132874288
 21
-20.6778844659
  0
LINE
  5
237
100
AcDbEntity
  8
ASSI
100
AcDbLine
 62
250
  6
CONTINUOUS
 10
-5.6643980272
 20
-18.0595727648
 11
-5.8754645729
 21
-18.0595726958
  0
LINE
  5
238
100
AcDbEntity
  8
ASSI
100
AcDbLine
 62
250
  6
CONTINUOUS
 10
5.5356019728
 20
-18.0595727648
 11
5.3245354271
 21
-18.0595726958
  0
LINE
  5
239
100
AcDbEntity
  8
ASSI
100
AcDbLine
 62
250
  6
CONTINUOUS
 10
-6.1253447265
 20
-17.9327872173
 11
-5.4145178741
 21
-17.9327872173
  0
LINE
  5
23A
100
AcDbEntity
  8
ASSI
100
AcDbLine
 62
250
  6
CONTINUOUS
 10
5.0746552735
 20
-17.9327872173
 11
5.7854821259
 21
-17.9327872173
  0
LINE
  5
23B
100
AcDbEntity
  8
ASSI
100
AcDbLine
 62
250
  6
CONTINUOUS
 10
-6.1253447265
 20
-17.6507813726
 11
-5.4145178741
 21
-17.6507813726
  0
LINE
  5
23C
100
AcDbEntity
  8
ASSI
100
AcDbLine
 62
250
  6
CONTINUOUS
 10
5.0746552735
 20
-17.6507813726
 11
5.7854821259
 21
-17.6507813726
  0
LINE
  5
23D
100
AcDbEntity
  8
ASSI
100
AcDbLine
 62
250
  6
CONTINUOUS
 10
5.5362412972
 20
-17.3553401191
 11
5.3238961022
 21
-17.3553401191
  0
LINE
  5
23E
100
AcDbEntity
  8
ASSI
100
AcDbLine
 62
250
  6
CONTINUOUS
 10
-5.6637587028
 20
-17.3553401191
 11
-5.8761038978
 21
-17.3553401191
  0
LINE
  5
23F
100
AcDbEntity
  8
ASSI
100
AcDbLine
 62
7
  6
CONTINUOUS
 10
-5.6384121937
 20
-17.0992956161
 11
-5.901450407
 21
-17.0992956161
  0
LINE
  5
240
100
AcDbEntity
  8
ASSI
100
AcDbLine
 62
7
  6
CONTINUOUS
 10
5.298549593
 20
-17.0992956161
 11
5.5615878063
 21
-17.0992956161
  0
LINE
  5
241
100
AcDbEntity
  8
ASSI
100
AcDbLine
 62
250
  6
CONTINUOUS
 10
-6.1761147505
 20
15.8444828576
 11
-6.1558758585
 21
15.8647217495
  0
LINE
  5
242
100
AcDbEntity
  8
ASSI
100
AcDbLine
 62
250
  6
CONTINUOUS
 10
-5.9265015738
 20
15.5941721867
 11
-5.905916634
 21
15.6147571265
  0
LINE
  5
243
100
AcDbEntity
  8
ASSI
100
AcDbLine
 62
7
  6
CONTINUOUS
 10
-5.6131377925
 20
-15.5925401844
 11
-5.9265015738
 21
-15.5927634189
  0
LINE
  5
244
100
AcDbEntity
  8
ASSI
100
AcDbLine
 62
250
  6
CONTINUOUS
 10
-6.1550183369
 20
-15.9133053664
 11
-5.3848442637
 21
-15.9133053664
  0
LINE
  5
245
100
AcDbEntity
  8
ASSI
100
AcDbLine
 62
250
  6
CONTINUOUS
 10
5.0449816631
 20
-15.9133053664
 11
5.8151557363
 21
-15.9133053664
  0
LINE
  5
246
100
AcDbEntity
  8
ASSI
100
AcDbLine
 62
250
  6
CONTINUOUS
 10
5.5660540334
 20
-15.6133483586
 11
5.2940833586
 21
-15.6133483512
  0
LINE
  5
247
100
AcDbEntity
  8
ASSI
100
AcDbLine
 62
250
  6
CONTINUOUS
 10
-5.6339459666
 20
-15.6133483586
 11
-5.9059166414
 21
-15.6133483512
  0
LINE
  5
248
100
AcDbEntity
  8
ASSI
100
AcDbLine
 62
7
  6
CONTINUOUS
 10
5.5866389731
 20
-15.5927634189
 11
5.2732751918
 21
-15.5925401844
  0
LWPOLYLINE
  5
249
100
AcDbEntity
  8
ASSI
100
AcDbPolyline
 62
7
  6
CONTINUOUS
 90
16
 70
0
 10
-5.6131377925
 20
-15.5925401844
 10
-5.5869591344
 20
-15.5938950669
 10
-5.5610642618
 20
-15.5979836148
 10
-5.5357376863
 20
-15.6047628078
 10
-5.5112437043
 20
-15.6141662686
 10
-5.4878679402
 20
-15.6260891943
 10
-5.465906915
 20
-15.6403748355
 10
-5.4456197626
 20
-15.6568335272
 10
-5.4271910733
 20
-15.6752924145
 10
-5.4107812832
 20
-15.6955848367
 10
-5.3965620311
 20
-15.7175107216
 10
-5.3847062412
 20
-15.7408170539
 10
-5.375350133
 20
-15.7652410245
 10
-5.3685977389
 20
-15.7905125774
 10
-5.3645228675
 20
-15.8163589038
 10
-5.363171345
 20
-15.8424975845
  0
LWPOLYLINE
  5
24A
100
AcDbEntity
  8
ASSI
100
AcDbPolyline
 62
7
  6
CONTINUOUS
 90
16
 70
0
 10
5.5866389731
 20
-15.5927634189
 10
5.6127658817
 20
-15.594154764
 10
5.638612704
 20
-15.598276105
 10
5.6638952085
 20
-15.6050851433
 10
5.6883489557
 20
-15.6145166627
 10
5.711688578
 20
-15.6264661979
 10
5.7336182627
 20
-15.6407763898
 10
5.7538786798
 20
-15.6572579631
 10
5.7722848908
 20
-15.6757387413
 10
5.7886768315
 20
-15.69605171
 10
5.8028822781
 20
-15.7179967672
 10
5.814727898
 20
-15.7413214889
 10
5.8240777305
 20
-15.7657636403
 10
5.8308270572
 20
-15.7910534246
 10
5.8349007881
 20
-15.816917809
 10
5.8362521498
 20
-15.8430740897
  0
LINE
  5
24B
100
AcDbEntity
  8
ASSI
100
AcDbLine
 62
250
  6
CONTINUOUS
 10
-6.1558758585
 20
-15.8633129817
 11
-6.1761147505
 21
-15.8430740897
  0
LINE
  5
24C
100
AcDbEntity
  8
ASSI
100
AcDbLine
 62
250
  6
CONTINUOUS
 10
-5.9059166414
 20
-15.6133483512
 11
-5.9265015738
 21
-15.5927634189
  0
LINE
  5
24D
100
AcDbEntity
  8
ASSI
100
AcDbLine
 62
7
  6
CONTINUOUS
 10
-10.0530544013
 20
-13.9492956161
 11
-9.6699313003
 21
-13.9492956161
  0
LINE
  5
24E
100
AcDbEntity
  8
ASSI
100
AcDbLine
 62
7
  6
CONTINUOUS
 10
9.3300686997
 20
-13.9492956161
 11
9.7131918006
 21
-13.9492956161
  0
LINE
  5
24F
100
AcDbEntity
  8
ASSI
100
AcDbLine
 62
7
  6
CONTINUOUS
 10
-11.2699313003
 20
-13.0992956161
 11
-10.0699313003
 21
-13.0992956161
  0
LINE
  5
250
100
AcDbEntity
  8
ASSI
100
AcDbLine
 62
7
  6
CONTINUOUS
 10
9.7300686997
 20
-13.0992956161
 11
10.9300686997
 21
-13.0992956161
  0
LINE
  5
251
100
AcDbEntity
  8
ASSI
100
AcDbLine
 62
7
  6
CONTINUOUS
 10
-11.2503169331
 20
-21.6608901675
 11
-11.2699313003
 21
-13.0992956161
  0
LINE
  5
252
100
AcDbEntity
  8
ASSI
100
AcDbLine
 62
7
  6
CONTINUOUS
 10
-10.0583578834
 20
-20.6778844659
 11
-10.0699313003
 21
-13.0992956161
  0
LINE
  5
253
100
AcDbEntity
  8
ASSI
100
AcDbLine
 62
7
  6
CONTINUOUS
 10
-10.0107062286
 20
13.9507246336
 11
-10.0147604013
 21
20.3726144718
  0
LINE
  5
254
100
AcDbEntity
  8
ASSI
100
AcDbLine
 62
7
  6
CONTINUOUS
 10
-11.2699313003
 20
13.1007043839
 11
-11.2699313003
 21
0.533574948
  0
LINE
  5
255
100
AcDbEntity
  8
ASSI
100
AcDbLine
 62
7
  6
CONTINUOUS
 10
-11.2699313003
 20
-0.5321661802
 11
-11.2699313003
 21
-13.0992956161
  0
LINE
  5
256
100
AcDbEntity
  8
ASSI
100
AcDbLine
 62
7
  6
CONTINUOUS
 10
-10.0699313003
 20
-0.1322423259
 11
-10.0699313003
 21
-13.0992956161
  0
LINE
  5
257
100
AcDbEntity
  8
ASSI
100
AcDbLine
 62
7
  6
CONTINUOUS
 10
-10.0699313003
 20
0.1336510938
 11
-10.0699313003
 21
13.1007043839
  0
LINE
  5
258
100
AcDbEntity
  8
ASSI
100
AcDbLine
 62
7
  6
CONTINUOUS
 10
-10.0530544013
 20
13.9507043839
 11
-10.0530544013
 21
10.4507043839
  0
LINE
  5
259
100
AcDbEntity
  8
ASSI
100
AcDbLine
 62
7
  6
CONTINUOUS
 10
-10.0530544013
 20
-13.9492956161
 11
-10.0530544013
 21
-10.4492956161
  0
LINE
  5
25A
100
AcDbEntity
  8
ASSI
100
AcDbLine
 62
7
  6
CONTINUOUS
 10
-10.0158205991
 20
1.3781594489
 11
-10.0158205991
 21
0.1607043839
  0
LINE
  5
25B
100
AcDbEntity
  8
ASSI
100
AcDbLine
 62
7
  6
CONTINUOUS
 10
-10.0158205991
 20
-1.376750681
 11
-10.0158205991
 21
-0.1592956161
  0
LINE
  5
25C
100
AcDbEntity
  8
ASSI
100
AcDbLine
 62
7
  6
CONTINUOUS
 10
-10.0071574972
 20
1.3868225508
 11
-10.0091481391
 21
10.4507219676
  0
LINE
  5
25D
100
AcDbEntity
  8
ASSI
100
AcDbLine
 62
7
  6
CONTINUOUS
 10
-10.0091481391
 20
-10.4493131997
 11
-10.0071574972
 21
-1.3854137829
  0
LINE
  5
25E
100
AcDbEntity
  8
ASSI
100
AcDbLine
 62
7
  6
CONTINUOUS
 10
-10.0147604013
 20
-20.3712057039
 11
-10.0107062286
 21
-13.9493158658
  0
LINE
  5
25F
100
AcDbEntity
  8
ASSI
100
AcDbLine
 62
7
  6
CONTINUOUS
 10
-10.0583578834
 20
20.6792932338
 11
-10.0699313003
 21
13.1007043839
  0
LINE
  5
260
100
AcDbEntity
  8
ASSI
100
AcDbLine
 62
7
  6
CONTINUOUS
 10
-11.2503169331
 20
21.6622989354
 11
-11.2699313003
 21
13.1007043839
  0
LINE
  5
261
100
AcDbEntity
  8
ASSI
100
AcDbLine
 62
7
  6
CONTINUOUS
 10
-10.0530544013
 20
-10.4492956161
 11
-9.6699313003
 21
-10.4492956161
  0
LINE
  5
262
100
AcDbEntity
  8
ASSI
100
AcDbLine
 62
7
  6
CONTINUOUS
 10
9.3300686997
 20
-10.4492956161
 11
9.7131918006
 21
-10.4492956161
  0
LINE
  5
263
100
AcDbEntity
  8
ASSI
100
AcDbLine
 62
7
  6
CONTINUOUS
 10
-7.9783562933
 20
-22.1586083218
 11
-8.0531500295
 21
-20.6778844659
  0
LINE
  5
264
100
AcDbEntity
  8
ASSI
100
AcDbLine
 62
7
  6
CONTINUOUS
 10
-9.6699313003
 20
13.9507043839
 11
-9.6699313003
 21
10.4507043839
  0
LINE
  5
265
100
AcDbEntity
  8
ASSI
100
AcDbLine
 62
7
  6
CONTINUOUS
 10
-9.6699313003
 20
-13.9492956161
 11
-9.6699313003
 21
-10.4492956161
  0
LINE
  5
266
100
AcDbEntity
  8
ASSI
100
AcDbLine
 62
7
  6
CONTINUOUS
 10
-8.2699313003
 20
-0.1592956161
 11
-8.2699313003
 21
-1.376750681
  0
LINE
  5
267
100
AcDbEntity
  8
ASSI
100
AcDbLine
 62
7
  6
CONTINUOUS
 10
-8.2699313003
 20
0.1607043839
 11
-8.2699313003
 21
1.3781594489
  0
LINE
  5
268
100
AcDbEntity
  8
ASSI
100
AcDbLine
 62
7
  6
CONTINUOUS
 10
-8.0531500295
 20
20.6792932338
 11
-7.9783562933
 21
22.1600170897
  0
LINE
  5
269
100
AcDbEntity
  8
ASSI
100
AcDbLine
 62
7
  6
CONTINUOUS
 10
-6.1727587675
 20
20.3479044724
 11
-6.14025769
 21
20.5765275426
  0
LWPOLYLINE
  5
26A
100
AcDbEntity
  8
ASSI
100
AcDbPolyline
 62
250
  6
CONTINUOUS
 90
13
 70
0
 10
-6.1254264967
 20
17.9553268982
 10
-6.1228198703
 20
17.9689812045
 10
-6.1160656171
 20
17.9824065568
 10
-6.1052769917
 20
17.9953778404
 10
-6.0906348966
 20
18.0076775541
 10
-6.0723848489
 20
18.0190994577
 10
-6.0508328635
 20
18.02945203
 10
-6.0263403215
 20
18.03856168
 10
-5.9993179114
 20
18.0462756583
 10
-5.970218742
 20
18.0524646177
 10
-5.9395307449
 20
18.0570247824
 10
-5.9077684932
 20
18.0598796879
 10
-5.8754645729
 20
18.0609814637
  0
LWPOLYLINE
  5
26B
100
AcDbEntity
  8
ASSI
100
AcDbPolyline
 62
250
  6
CONTINUOUS
 90
8
 70
0
 10
-6.1558758585
 20
15.8647217495
 10
-6.1557837911
 20
15.8651096241
 10
-6.1556948024
 20
15.8660023724
 10
-6.1556088927
 20
15.8673999944
 10
-6.1555252252
 20
15.869328894
 10
-6.1554446367
 20
15.8717626673
 10
-6.1553696363
 20
15.8746221028
 10
-6.15523676
 20
15.8816436213
  0
LINE
  5
26C
100
AcDbEntity
  8
ASSI
100
AcDbLine
 62
250
  6
CONTINUOUS
 10
-7.2102854359
 20
6.210304557
 11
-7.2305109643
 21
6.1900790285
  0
LINE
  5
26D
100
AcDbEntity
  8
ASSI
100
AcDbLine
 62
250
  6
CONTINUOUS
 10
-6.9099636028
 20
5.9107177729
 11
-6.9305566557
 21
5.89012472
  0
LINE
  5
26E
100
AcDbEntity
  8
ASSI
100
AcDbLine
 62
250
  6
CONTINUOUS
 10
-7.2305109643
 20
-6.1886702607
 11
-7.2102854359
 21
-6.2088957891
  0
LINE
  5
26F
100
AcDbEntity
  8
ASSI
100
AcDbLine
 62
250
  6
CONTINUOUS
 10
-6.9305566557
 20
-5.8887159521
 11
-6.9099636028
 21
-5.909309005
  0
LWPOLYLINE
  5
270
100
AcDbEntity
  8
ASSI
100
AcDbPolyline
 62
250
  6
CONTINUOUS
 90
13
 70
0
 10
-6.1254264967
 20
-17.9539181304
 10
-6.1228198696
 20
-17.9675724381
 10
-6.1160656147
 20
-17.9809977916
 10
-6.105276987
 20
-17.993969076
 10
-6.0906348893
 20
-18.0062687901
 10
-6.0723848391
 20
-18.0176906937
 10
-6.0508328517
 20
-18.0280432656
 10
-6.0263403089
 20
-18.0371529149
 10
-5.9993178992
 20
-18.0448668923
 10
-5.9702187312
 20
-18.0510558508
 10
-5.9395307367
 20
-18.0556160147
 10
-5.9077684887
 20
-18.0584709199
 10
-5.8754645729
 20
-18.0595726958
  0
LINE
  5
271
100
AcDbEntity
  8
ASSI
100
AcDbLine
 62
7
  6
CONTINUOUS
 10
-6.1727587675
 20
-20.3464957045
 11
-6.14025769
 21
-20.5751187747
  0
LINE
  5
272
100
AcDbEntity
  8
ASSI
100
AcDbLine
 62
250
  6
CONTINUOUS
 10
-6.1260659278
 20
-17.601540985
 11
-6.1550183369
 21
-17.3090705239
  0
LINE
  5
273
100
AcDbEntity
  8
ASSI
100
AcDbLine
 62
250
  6
CONTINUOUS
 10
-5.8761038978
 20
-17.3553401191
 11
-5.901450407
 21
-17.0992956161
  0
LWPOLYLINE
  5
274
100
AcDbEntity
  8
ASSI
100
AcDbPolyline
 62
250
  6
CONTINUOUS
 90
13
 70
0
 10
-7.7191417079
 20
3.7351232601
 10
-7.7162641764
 20
3.7013975994
 10
-7.7083598189
 20
3.6682426095
 10
-7.6955623846
 20
3.6362193048
 10
-7.6780884186
 20
3.6058695505
 10
-7.6562335972
 20
3.5777068939
 10
-7.6303677251
 20
3.5522078743
 10
-7.6009284779
 20
3.5298039598
 10
-7.568413996
 20
3.5108742462
 10
-7.5333744559
 20
3.4957390425
 10
-7.4964027606
 20
3.4846544511
 10
-7.4581245067
 20
3.4778080339
 10
-7.4191873993
 20
3.475315639
  0
LWPOLYLINE
  5
275
100
AcDbEntity
  8
ASSI
100
AcDbPolyline
 62
250
  6
CONTINUOUS
 90
13
 70
0
 10
-7.707621365
 20
4.1161744378
 10
-7.7047439308
 20
4.082449375
 10
-7.696839813
 20
4.0492948393
 10
-7.6840427013
 20
4.0172718298
 10
-7.6665690787
 20
3.9869222069
 10
-7.644714565
 20
3.958759531
 10
-7.6188489211
 20
3.9332603703
 10
-7.5894097766
 20
3.910856219
 10
-7.5568952449
 20
3.8919262146
 10
-7.5218555106
 20
3.8767907196
 10
-7.4848834832
 20
3.8657058763
 10
-7.4466047576
 20
3.8588592808
 10
-7.4076670564
 20
3.8563668184
  0
LWPOLYLINE
  5
276
100
AcDbEntity
  8
ASSI
100
AcDbPolyline
 62
250
  6
CONTINUOUS
 90
13
 70
0
 10
-6.9322412357
 20
-4.1147656699
 10
-6.9351186699
 20
-4.0810406071
 10
-6.9430227877
 20
-4.0478860714
 10
-6.9558198993
 20
-4.0158630619
 10
-6.973293522
 20
-3.985513439
 10
-6.9951480356
 20
-3.9573507631
 10
-7.0210136796
 20
-3.9318516024
 10
-7.0504528241
 20
-3.9094474511
 10
-7.0829673558
 20
-3.8905174467
 10
-7.11800709
 20
-3.8753819517
 10
-7.1549791175
 20
-3.8642971084
 10
-7.1932578431
 20
-3.8574505129
 10
-7.2321955442
 20
-3.8549580505
  0
LWPOLYLINE
  5
277
100
AcDbEntity
  8
ASSI
100
AcDbPolyline
 62
250
  6
CONTINUOUS
 90
13
 70
0
 10
-6.9207208928
 20
-3.7337144922
 10
-6.9235984243
 20
-3.6999888315
 10
-6.9315027818
 20
-3.6668338416
 10
-6.9443002161
 20
-3.6348105369
 10
-6.9617741821
 20
-3.6044607826
 10
-6.9836290035
 20
-3.576298126
 10
-7.0094948756
 20
-3.5507991064
 10
-7.0389341228
 20
-3.5283951919
 10
-7.0714486047
 20
-3.5094654783
 10
-7.1064881447
 20
-3.4943302746
 10
-7.1434598401
 20
-3.4832456832
 10
-7.181738094
 20
-3.476399266
 10
-7.2206752013
 20
-3.4739068711
  0
LWPOLYLINE
  5
278
100
AcDbEntity
  8
ASSI
100
AcDbPolyline
 62
7
  6
CONTINUOUS
 90
16
 70
0
 10
-5.3848442637
 20
-17.3090705239
 10
-5.3862185684
 20
-17.2905414838
 10
-5.3896287986
 20
-17.2717229893
 10
-5.395170659
 20
-17.2528118876
 10
-5.402917474
 20
-17.2340768189
 10
-5.4129240219
 20
-17.2156976924
 10
-5.4252401309
 20
-17.1977711964
 10
-5.4398562776
 20
-17.180607131
 10
-5.4567717572
 20
-17.1644503799
 10
-5.4760560401
 20
-17.1493622072
 10
-5.4975767854
 20
-17.1357500811
 10
-5.5212830218
 20
-17.1238943993
 10
-5.5474048907
 20
-17.1138377187
 10
-5.5759013635
 20
-17.1059899744
 10
-5.6063662587
 20
-17.1009780478
 10
-5.6384121937
 20
-17.0992956161
  0
LWPOLYLINE
  5
279
100
AcDbEntity
  8
ASSI
100
AcDbPolyline
 62
250
  6
CONTINUOUS
 90
13
 70
0
 10
-5.4137966729
 20
-17.601540985
 10
-5.4160256101
 20
-17.5694665265
 10
-5.4224770452
 20
-17.5379387897
 10
-5.4330410059
 20
-17.5074951487
 10
-5.4475374257
 20
-17.478654495
 10
-5.46571921
 20
-17.4519084011
 10
-5.4872764449
 20
-17.4277127402
 10
-5.5118416838
 20
-17.4064799083
 10
-5.538996222
 20
-17.3885717904
 10
-5.5682772306
 20
-17.3742936032
 10
-5.5991856338
 20
-17.3638886993
 10
-5.631194613
 20
-17.3575344156
 10
-5.6637585967
 20
-17.3553390467
  0
LWPOLYLINE
  5
27A
100
AcDbEntity
  8
ASSI
100
AcDbPolyline
 62
250
  6
CONTINUOUS
 90
13
 70
0
 10
-7.7093059449
 20
-5.8887159521
 10
-7.7067292604
 20
-5.927857306
 10
-7.699066974
 20
-5.9663298235
 10
-7.6864499161
 20
-6.003475526
 10
-7.6690936795
 20
-6.0386590545
 10
-7.6472949009
 20
-6.0712786231
 10
-7.6214261608
 20
-6.1007762932
 10
-7.5919296369
 20
-6.1266474524
 10
-7.5593097386
 20
-6.1484493325
 10
-7.5241244741
 20
-6.1658087349
 10
-7.4869756817
 20
-6.1784285611
 10
-7.4484986885
 20
-6.1860928244
 10
-7.4093516364
 20
-6.1886702607
  0
LWPOLYLINE
  5
27B
100
AcDbEntity
  8
ASSI
100
AcDbPolyline
 62
250
  6
CONTINUOUS
 90
4
 70
0
 10
-7.4191875759
 20
-3.4739028744
 10
-7.4202266972
 20
-3.4504559985
 10
-7.4211908967
 20
-3.4238931085
 10
-7.4220801744
 20
-3.3944175632
  0
LWPOLYLINE
  5
27C
100
AcDbEntity
  8
ASSI
100
AcDbPolyline
 62
250
  6
CONTINUOUS
 90
4
 70
0
 10
-7.2206750248
 20
3.4753116423
 10
-7.2196359035
 20
3.4518647664
 10
-7.218671704
 20
3.4253018764
 10
-7.2177824262
 20
3.395826331
  0
LINE
  5
27D
100
AcDbEntity
  8
ASSI
100
AcDbLine
 62
250
  6
CONTINUOUS
 10
-7.4076670565
 20
-3.8549580488
 11
-7.4191875202
 21
-3.4739028745
  0
LINE
  5
27E
100
AcDbEntity
  8
ASSI
100
AcDbLine
 62
250
  6
CONTINUOUS
 10
-7.2321955442
 20
3.8563668166
 11
-7.2206750805
 21
3.4753116424
  0
LINE
  5
27F
100
AcDbEntity
  8
ASSI
100
AcDbLine
 62
250
  6
CONTINUOUS
 10
-7.707361714
 20
-4.1242822434
 11
-7.7201763137
 21
-3.6958464082
  0
LINE
  5
280
100
AcDbEntity
  8
ASSI
100
AcDbLine
 62
250
  6
CONTINUOUS
 10
-6.9325008866
 20
4.1256910112
 11
-6.919686287
 21
3.6972551761
  0
LWPOLYLINE
  5
281
100
AcDbEntity
  8
ASSI
100
AcDbPolyline
 62
250
  6
CONTINUOUS
 90
7
 70
0
 10
-7.7072878534
 20
5.8508128798
 10
-7.7075889779
 20
5.8622205496
 10
-7.7079123062
 20
5.8719125551
 10
-7.7082467735
 20
5.8795798769
 10
-7.7085886916
 20
5.8851195083
 10
-7.7089417488
 20
5.888634456
 10
-7.7093059449
 20
5.89012472
  0
LWPOLYLINE
  5
282
100
AcDbEntity
  8
ASSI
100
AcDbPolyline
 62
250
  6
CONTINUOUS
 90
7
 70
0
 10
-6.9325747473
 20
-5.849404112
 10
-6.9322736228
 20
-5.8608117817
 10
-6.9319502945
 20
-5.8705037872
 10
-6.9316158272
 20
-5.878171109
 10
-6.9312739091
 20
-5.8837107404
 10
-6.9309208519
 20
-5.8872256882
 10
-6.9305566557
 20
-5.8887159521
  0
LWPOLYLINE
  5
283
100
AcDbEntity
  8
ASSI
100
AcDbPolyline
 62
250
  6
CONTINUOUS
 90
4
 70
0
 10
-7.2315748032
 20
-6.1620705608
 10
-7.2312321557
 20
-6.1761916418
 10
-7.2308775427
 20
-6.185089991
 10
-7.2305109643
 20
-6.1886702607
  0
LWPOLYLINE
  5
284
100
AcDbEntity
  8
ASSI
100
AcDbPolyline
 62
250
  6
CONTINUOUS
 90
4
 70
0
 10
-7.4082877975
 20
6.1634793287
 10
-7.408630445
 20
6.1776004096
 10
-7.408985058
 20
6.1864987588
 10
-7.4093516364
 20
6.1900790285
  0
LINE
  5
285
100
AcDbEntity
  8
ASSI
100
AcDbLine
 62
250
  6
CONTINUOUS
 10
-7.4220801744
 20
-3.3944175632
 11
-7.4236449954
 21
-3.3276525819
  0
LINE
  5
286
100
AcDbEntity
  8
ASSI
100
AcDbLine
 62
250
  6
CONTINUOUS
 10
-7.2177824262
 20
3.395826331
 11
-7.2162176053
 21
3.3290613498
  0
LINE
  5
287
100
AcDbEntity
  8
ASSI
100
AcDbLine
 62
250
  6
CONTINUOUS
 10
-7.7201763137
 20
-3.6958464082
 11
-7.7220255691
 21
-3.6070461137
  0
LINE
  5
288
100
AcDbEntity
  8
ASSI
100
AcDbLine
 62
250
  6
CONTINUOUS
 10
-7.706898281
 20
-4.146553706
 11
-7.707361714
 21
-4.1242822434
  0
LINE
  5
289
100
AcDbEntity
  8
ASSI
100
AcDbLine
 62
250
  6
CONTINUOUS
 10
-6.9329643197
 20
4.1479624739
 11
-6.9325008866
 21
4.1256910112
  0
LINE
  5
28A
100
AcDbEntity
  8
ASSI
100
AcDbLine
 62
250
  6
CONTINUOUS
 10
-6.919686287
 20
3.6972551761
 11
-6.9178370316
 21
3.6084548816
  0
LINE
  5
28B
100
AcDbEntity
  8
ASSI
100
AcDbLine
 62
250
  6
CONTINUOUS
 10
-7.7067541879
 20
5.8227421123
 11
-7.7072878534
 21
5.8508128798
  0
LINE
  5
28C
100
AcDbEntity
  8
ASSI
100
AcDbLine
 62
250
  6
CONTINUOUS
 10
-6.9331084128
 20
-5.8213333445
 11
-6.9325747473
 21
-5.849404112
  0
LINE
  5
28D
100
AcDbEntity
  8
ASSI
100
AcDbLine
 62
250
  6
CONTINUOUS
 10
-7.4236449954
 20
-3.3276525819
 11
-7.4248585438
 21
-3.2521810901
  0
LINE
  5
28E
100
AcDbEntity
  8
ASSI
100
AcDbLine
 62
250
  6
CONTINUOUS
 10
-7.2162176053
 20
3.3290613498
 11
-7.2150040569
 21
3.253589858
  0
LINE
  5
28F
100
AcDbEntity
  8
ASSI
100
AcDbLine
 62
250
  6
CONTINUOUS
 10
-7.7220255691
 20
-3.6070461137
 11
-7.7235938424
 21
-3.4999489832
  0
LINE
  5
290
100
AcDbEntity
  8
ASSI
100
AcDbLine
 62
250
  6
CONTINUOUS
 10
-6.9178370316
 20
3.6084548816
 11
-6.9162687583
 21
3.5013577511
  0
LINE
  5
291
100
AcDbEntity
  8
ASSI
100
AcDbLine
 62
250
  6
CONTINUOUS
 10
-7.7065064456
 20
-4.1733572842
 11
-7.706898281
 21
-4.146553706
  0
LINE
  5
292
100
AcDbEntity
  8
ASSI
100
AcDbLine
 62
250
  6
CONTINUOUS
 10
-7.4076316195
 20
6.1202285085
 11
-7.4082877975
 21
6.1634793287
  0
LINE
  5
293
100
AcDbEntity
  8
ASSI
100
AcDbLine
 62
250
  6
CONTINUOUS
 10
-7.2322309812
 20
-6.1188197406
 11
-7.2315748032
 21
-6.1620705608
  0
LINE
  5
294
100
AcDbEntity
  8
ASSI
100
AcDbLine
 62
250
  6
CONTINUOUS
 10
-6.9333561551
 20
4.1747660521
 11
-6.9329643197
 21
4.1479624739
  0
LINE
  5
295
100
AcDbEntity
  8
ASSI
100
AcDbLine
 62
250
  6
CONTINUOUS
 10
-7.7063346238
 20
5.7891752229
 11
-7.7067541879
 21
5.8227421123
  0
LINE
  5
296
100
AcDbEntity
  8
ASSI
100
AcDbLine
 62
250
  6
CONTINUOUS
 10
-6.9335279768
 20
-5.787766455
 11
-6.9331084128
 21
-5.8213333445
  0
LINE
  5
297
100
AcDbEntity
  8
ASSI
100
AcDbLine
 62
250
  6
CONTINUOUS
 10
-7.4248585438
 20
-3.2521810901
 11
-7.4256935671
 21
-3.1702997199
  0
LINE
  5
298
100
AcDbEntity
  8
ASSI
100
AcDbLine
 62
250
  6
CONTINUOUS
 10
-7.2150040569
 20
3.253589858
 11
-7.2141690336
 21
3.1717084877
  0
LINE
  5
299
100
AcDbEntity
  8
ASSI
100
AcDbLine
 62
250
  6
CONTINUOUS
 10
-7.4069439148
 20
-3.9344179105
 11
-7.4076670565
 21
-3.8549580488
  0
LINE
  5
29A
100
AcDbEntity
  8
ASSI
100
AcDbLine
 62
250
  6
CONTINUOUS
 10
-7.2329186858
 20
3.9358266784
 11
-7.2321955442
 21
3.8563668166
  0
LINE
  5
29B
100
AcDbEntity
  8
ASSI
100
AcDbLine
 62
250
  6
CONTINUOUS
 10
-7.7235938424
 20
-3.4999489832
 11
-7.7252805666
 21
-3.3144268001
  0
LINE
  5
29C
100
AcDbEntity
  8
ASSI
100
AcDbLine
 62
250
  6
CONTINUOUS
 10
-7.7060855319
 20
-4.2197781701
 11
-7.7065064456
 21
-4.1733572842
  0
LINE
  5
29D
100
AcDbEntity
  8
ASSI
100
AcDbLine
 62
250
  6
CONTINUOUS
 10
-6.9337770688
 20
4.221186938
 11
-6.9333561551
 21
4.1747660521
  0
LINE
  5
29E
100
AcDbEntity
  8
ASSI
100
AcDbLine
 62
250
  6
CONTINUOUS
 10
-6.9162687583
 20
3.5013577511
 11
-6.914582034
 21
3.315835568
  0
LINE
  5
29F
100
AcDbEntity
  8
ASSI
100
AcDbLine
 62
250
  6
CONTINUOUS
 10
-7.4067995594
 20
6.0216805802
 11
-7.4076316195
 21
6.1202285085
  0
LINE
  5
2A0
100
AcDbEntity
  8
ASSI
100
AcDbLine
 62
250
  6
CONTINUOUS
 10
-7.2330630413
 20
-6.0202718123
 11
-7.2322309812
 21
-6.1188197406
  0
LINE
  5
2A1
100
AcDbEntity
  8
ASSI
100
AcDbLine
 62
250
  6
CONTINUOUS
 10
-7.705951418
 20
5.7314792704
 11
-7.7063346238
 21
5.7891752229
  0
LINE
  5
2A2
100
AcDbEntity
  8
ASSI
100
AcDbLine
 62
250
  6
CONTINUOUS
 10
-6.9339111827
 20
-5.7300705025
 11
-6.9335279768
 21
-5.787766455
  0
LINE
  5
2A3
100
AcDbEntity
  8
ASSI
100
AcDbLine
 62
250
  6
CONTINUOUS
 10
-7.4256935671
 20
-3.1702997199
 11
-7.4261127556
 21
-3.0845242948
  0
LINE
  5
2A4
100
AcDbEntity
  8
ASSI
100
AcDbLine
 62
250
  6
CONTINUOUS
 10
-7.2141690336
 20
3.1717084877
 11
-7.213749845
 21
3.0859330626
  0
LINE
  5
2A5
100
AcDbEntity
  8
ASSI
100
AcDbLine
 62
250
  6
CONTINUOUS
 10
-7.7252805666
 20
-3.3144268001
 11
-7.7260675275
 21
-3.1114679606
  0
LINE
  5
2A6
100
AcDbEntity
  8
ASSI
100
AcDbLine
 62
250
  6
CONTINUOUS
 10
-7.7058896132
 20
-4.2704111975
 11
-7.7060855319
 21
-4.2197781701
  0
LINE
  5
2A7
100
AcDbEntity
  8
ASSI
100
AcDbLine
 62
250
  6
CONTINUOUS
 10
-6.9339729875
 20
4.2718199654
 11
-6.9337770688
 21
4.221186938
  0
LINE
  5
2A8
100
AcDbEntity
  8
ASSI
100
AcDbLine
 62
250
  6
CONTINUOUS
 10
-6.914582034
 20
3.315835568
 11
-6.9137950732
 21
3.1128767285
  0
LINE
  5
2A9
100
AcDbEntity
  8
ASSI
100
AcDbLine
 62
250
  6
CONTINUOUS
 10
-7.4060405164
 20
-4.1585628018
 11
-7.4069439148
 21
-3.9344179105
  0
LINE
  5
2AA
100
AcDbEntity
  8
ASSI
100
AcDbLine
 62
250
  6
CONTINUOUS
 10
-7.2338220843
 20
4.1599715697
 11
-7.2329186858
 21
3.9358266784
  0
LINE
  5
2AB
100
AcDbEntity
  8
ASSI
100
AcDbLine
 62
250
  6
CONTINUOUS
 10
-7.4059976899
 20
5.7929710832
 11
-7.4067995594
 21
6.0216805802
  0
LINE
  5
2AC
100
AcDbEntity
  8
ASSI
100
AcDbLine
 62
250
  6
CONTINUOUS
 10
-7.2338649108
 20
-5.7915623153
 11
-7.2330630413
 21
-6.0202718123
  0
LINE
  5
2AD
100
AcDbEntity
  8
ASSI
100
AcDbLine
 62
7
  6
CONTINUOUS
 10
-7.7297183671
 20
-1.3882832543
 11
-7.7290654546
 21
-5.9084754617
  0
LINE
  5
2AE
100
AcDbEntity
  8
ASSI
100
AcDbLine
 62
250
  6
CONTINUOUS
 10
-7.7260675275
 20
-3.1114679606
 11
-7.7261237338
 21
-1.384688621
  0
LINE
  5
2AF
100
AcDbEntity
  8
ASSI
100
AcDbLine
 62
7
  6
CONTINUOUS
 10
-7.5699313003
 20
22.1229431537
 11
-7.5699313003
 21
20.5765275426
  0
LINE
  5
2B0
100
AcDbEntity
  8
ASSI
100
AcDbLine
 62
7
  6
CONTINUOUS
 10
-7.5699313003
 20
-20.5751187747
 11
-7.5699313003
 21
-22.1215343859
  0
LINE
  5
2B1
100
AcDbEntity
  8
ASSI
100
AcDbLine
 62
250
  6
CONTINUOUS
 10
-7.4261127556
 20
-3.0845242948
 11
-7.4261694253
 21
-1.3795434914
  0
LINE
  5
2B2
100
AcDbEntity
  8
ASSI
100
AcDbLine
 62
250
  6
CONTINUOUS
 10
-7.213749845
 20
3.0859330626
 11
-7.2136931754
 21
1.3809522593
  0
LINE
  5
2B3
100
AcDbEntity
  8
ASSI
100
AcDbLine
 62
250
  6
CONTINUOUS
 10
-6.9137950732
 20
3.1128767285
 11
-6.9137388668
 21
1.3860973889
  0
LINE
  5
2B4
100
AcDbEntity
  8
ASSI
100
AcDbLine
 62
7
  6
CONTINUOUS
 10
-6.909295075
 20
1.3905411807
 11
-6.9099636028
 21
5.9107177729
  0
LINE
  5
2B5
100
AcDbEntity
  8
ASSI
100
AcDbLine
 62
7
  6
CONTINUOUS
 10
-7.7290654546
 20
5.9098842296
 11
-7.7297183671
 21
1.3896920222
  0
LINE
  5
2B6
100
AcDbEntity
  8
ASSI
100
AcDbLine
 62
7
  6
CONTINUOUS
 10
-6.9099636028
 20
-5.909309005
 11
-6.909295075
 21
-1.3891324128
  0
LINE
  5
2B7
100
AcDbEntity
  8
ASSI
100
AcDbLine
 62
250
  6
CONTINUOUS
 10
-7.7058896132
 20
4.2718199654
 11
-7.705951418
 21
5.7314792704
  0
LINE
  5
2B8
100
AcDbEntity
  8
ASSI
100
AcDbLine
 62
250
  6
CONTINUOUS
 10
-6.9339729875
 20
-4.2704111975
 11
-6.9339111827
 21
-5.7300705025
  0
LINE
  5
2B9
100
AcDbEntity
  8
ASSI
100
AcDbLine
 62
250
  6
CONTINUOUS
 10
-7.4062171656
 20
-5.8899841798
 11
-7.4060405164
 21
-4.1585628018
  0
LINE
  5
2BA
100
AcDbEntity
  8
ASSI
100
AcDbLine
 62
250
  6
CONTINUOUS
 10
-7.2336454351
 20
5.8913929477
 11
-7.2338220843
 21
4.1599715697
  0
LINE
  5
2BB
100
AcDbEntity
  8
ASSI
100
AcDbLine
 62
250
  6
CONTINUOUS
 10
-7.705951418
 20
-5.7300705025
 11
-7.7058896132
 21
-4.2704111975
  0
LINE
  5
2BC
100
AcDbEntity
  8
ASSI
100
AcDbLine
 62
250
  6
CONTINUOUS
 10
-6.9339111827
 20
5.7314792704
 11
-6.9339729875
 21
4.2718199654
  0
LINE
  5
2BD
100
AcDbEntity
  8
ASSI
100
AcDbLine
 62
250
  6
CONTINUOUS
 10
-7.4062493045
 20
4.0780721804
 11
-7.4059976899
 21
5.7929710832
  0
LINE
  5
2BE
100
AcDbEntity
  8
ASSI
100
AcDbLine
 62
250
  6
CONTINUOUS
 10
-7.2336132962
 20
-4.0766634126
 11
-7.2338649108
 21
-5.7915623153
  0
LINE
  5
2BF
100
AcDbEntity
  8
ASSI
100
AcDbLine
 62
250
  6
CONTINUOUS
 10
-7.4261694253
 20
1.3809522593
 11
-7.4259536252
 21
3.1292427325
  0
LINE
  5
2C0
100
AcDbEntity
  8
ASSI
100
AcDbLine
 62
250
  6
CONTINUOUS
 10
-7.2136931754
 20
-1.3795434914
 11
-7.2139089755
 21
-3.1278339646
  0
LINE
  5
2C1
100
AcDbEntity
  8
ASSI
100
AcDbLine
 62
250
  6
CONTINUOUS
 10
-7.7261237338
 20
1.3860973889
 11
-7.7256469747
 21
3.2495563437
  0
LINE
  5
2C2
100
AcDbEntity
  8
ASSI
100
AcDbLine
 62
250
  6
CONTINUOUS
 10
-6.9137388668
 20
-1.384688621
 11
-6.914215626
 21
-3.2481475758
  0
LINE
  5
2C3
100
AcDbEntity
  8
ASSI
100
AcDbLine
 62
250
  6
CONTINUOUS
 10
-7.7060855319
 20
4.221186938
 11
-7.7058896132
 21
4.2718199654
  0
LINE
  5
2C4
100
AcDbEntity
  8
ASSI
100
AcDbLine
 62
250
  6
CONTINUOUS
 10
-6.9337770688
 20
-4.2197781701
 11
-6.9339729875
 21
-4.2704111975
  0
LINE
  5
2C5
100
AcDbEntity
  8
ASSI
100
AcDbLine
 62
250
  6
CONTINUOUS
 10
-7.4070545363
 20
-6.0571864175
 11
-7.4062171656
 21
-5.8899841798
  0
LINE
  5
2C6
100
AcDbEntity
  8
ASSI
100
AcDbLine
 62
250
  6
CONTINUOUS
 10
-7.2328080644
 20
6.0585951854
 11
-7.2336454351
 21
5.8913929477
  0
LINE
  5
2C7
100
AcDbEntity
  8
ASSI
100
AcDbLine
 62
250
  6
CONTINUOUS
 10
-7.4071662334
 20
3.9063576047
 11
-7.4062493045
 21
4.0780721804
  0
LINE
  5
2C8
100
AcDbEntity
  8
ASSI
100
AcDbLine
 62
250
  6
CONTINUOUS
 10
-7.2326963673
 20
-3.9049488368
 11
-7.2336132962
 21
-4.0766634126
  0
LINE
  5
2C9
100
AcDbEntity
  8
ASSI
100
AcDbLine
 62
250
  6
CONTINUOUS
 10
-7.7063346238
 20
-5.787766455
 11
-7.705951418
 21
-5.7300705025
  0
LINE
  5
2CA
100
AcDbEntity
  8
ASSI
100
AcDbLine
 62
250
  6
CONTINUOUS
 10
-6.9335279768
 20
5.7891752229
 11
-6.9339111827
 21
5.7314792704
  0
LINE
  5
2CB
100
AcDbEntity
  8
ASSI
100
AcDbLine
 62
250
  6
CONTINUOUS
 10
-7.4259536252
 20
3.1292427325
 11
-7.4253262604
 21
3.2134025176
  0
LINE
  5
2CC
100
AcDbEntity
  8
ASSI
100
AcDbLine
 62
250
  6
CONTINUOUS
 10
-7.2139089755
 20
-3.1278339646
 11
-7.2145363403
 21
-3.2119937497
  0
LINE
  5
2CD
100
AcDbEntity
  8
ASSI
100
AcDbLine
 62
250
  6
CONTINUOUS
 10
-7.7256469747
 20
3.2495563437
 11
-7.7242484019
 21
3.4427087575
  0
LINE
  5
2CE
100
AcDbEntity
  8
ASSI
100
AcDbLine
 62
250
  6
CONTINUOUS
 10
-6.914215626
 20
-3.2481475758
 11
-6.9156141988
 21
-3.4412999897
  0
LINE
  5
2CF
100
AcDbEntity
  8
ASSI
100
AcDbLine
 62
250
  6
CONTINUOUS
 10
-7.4076316195
 20
-6.1188197406
 11
-7.4070545363
 21
-6.0571864175
  0
LINE
  5
2D0
100
AcDbEntity
  8
ASSI
100
AcDbLine
 62
250
  6
CONTINUOUS
 10
-7.2322309812
 20
6.1202285085
 11
-7.2328080644
 21
6.0585951854
  0
LINE
  5
2D1
100
AcDbEntity
  8
ASSI
100
AcDbLine
 62
250
  6
CONTINUOUS
 10
-7.7065064456
 20
4.1747660521
 11
-7.7060855319
 21
4.221186938
  0
LINE
  5
2D2
100
AcDbEntity
  8
ASSI
100
AcDbLine
 62
250
  6
CONTINUOUS
 10
-7.4076670565
 20
3.8563668166
 11
-7.4071662334
 21
3.9063576047
  0
LINE
  5
2D3
100
AcDbEntity
  8
ASSI
100
AcDbLine
 62
250
  6
CONTINUOUS
 10
-7.2321955442
 20
-3.8549580488
 11
-7.2326963673
 21
-3.9049488368
  0
LINE
  5
2D4
100
AcDbEntity
  8
ASSI
100
AcDbLine
 62
250
  6
CONTINUOUS
 10
-6.9333561551
 20
-4.1733572842
 11
-6.9337770688
 21
-4.2197781701
  0
LINE
  5
2D5
100
AcDbEntity
  8
ASSI
100
AcDbLine
 62
250
  6
CONTINUOUS
 10
-7.7242484019
 20
3.4427087575
 11
-7.7228417187
 21
3.5573602131
  0
LINE
  5
2D6
100
AcDbEntity
  8
ASSI
100
AcDbLine
 62
250
  6
CONTINUOUS
 10
-6.9156141988
 20
-3.4412999897
 11
-6.917020882
 21
-3.5559514452
  0
LINE
  5
2D7
100
AcDbEntity
  8
ASSI
100
AcDbLine
 62
250
  6
CONTINUOUS
 10
-7.7067541879
 20
-5.8213333445
 11
-7.7063346238
 21
-5.787766455
  0
LINE
  5
2D8
100
AcDbEntity
  8
ASSI
100
AcDbLine
 62
250
  6
CONTINUOUS
 10
-6.9331084128
 20
5.8227421123
 11
-6.9335279768
 21
5.7891752229
  0
LINE
  5
2D9
100
AcDbEntity
  8
ASSI
100
AcDbLine
 62
250
  6
CONTINUOUS
 10
-7.4253262604
 20
3.2134025176
 11
-7.4242971934
 21
3.2923574275
  0
LINE
  5
2DA
100
AcDbEntity
  8
ASSI
100
AcDbLine
 62
250
  6
CONTINUOUS
 10
-7.2145363403
 20
-3.2119937497
 11
-7.2155654073
 21
-3.2909486596
  0
LINE
  5
2DB
100
AcDbEntity
  8
ASSI
100
AcDbLine
 62
250
  6
CONTINUOUS
 10
-7.706898281
 20
4.1479624739
 11
-7.7065064456
 21
4.1747660521
  0
LINE
  5
2DC
100
AcDbEntity
  8
ASSI
100
AcDbLine
 62
250
  6
CONTINUOUS
 10
-6.9329643197
 20
-4.146553706
 11
-6.9333561551
 21
-4.1733572842
  0
LWPOLYLINE
  5
2DD
100
AcDbEntity
  8
ASSI
100
AcDbPolyline
 62
250
  6
CONTINUOUS
 90
3
 70
0
 10
-7.7228417187
 20
3.5573602131
 10
-7.7211328292
 20
3.6552988964
 10
-7.7201733798
 20
3.6974169704
  0
LWPOLYLINE
  5
2DE
100
AcDbEntity
  8
ASSI
100
AcDbPolyline
 62
250
  6
CONTINUOUS
 90
3
 70
0
 10
-6.917020882
 20
-3.5559514452
 10
-6.9187297715
 20
-3.6538901285
 10
-6.9196892209
 20
-3.6960082025
  0
LWPOLYLINE
  5
2DF
100
AcDbEntity
  8
ASSI
100
AcDbPolyline
 62
250
  6
CONTINUOUS
 90
6
 70
0
 10
-7.4242971934
 20
3.2923574275
 10
-7.4228951535
 20
3.3638589851
 10
-7.4220743981
 20
3.3960330308
 10
-7.4211859157
 20
3.4254619892
 10
-7.420223658
 20
3.4519513321
 10
-7.419187625
 20
3.4753105328
  0
LWPOLYLINE
  5
2E0
100
AcDbEntity
  8
ASSI
100
AcDbPolyline
 62
250
  6
CONTINUOUS
 90
6
 70
0
 10
-7.2155654073
 20
-3.2909486596
 10
-7.2169674472
 20
-3.3624502173
 10
-7.2177882025
 20
-3.3946242629
 10
-7.2186766849
 20
-3.4240532213
 10
-7.2196389427
 20
-3.4505425642
 10
-7.2206749757
 20
-3.473901765
  0
LINE
  5
2E1
100
AcDbEntity
  8
ASSI
100
AcDbLine
 62
250
  6
CONTINUOUS
 10
-7.707361714
 20
4.1256910112
 11
-7.706898281
 21
4.1479624739
  0
LINE
  5
2E2
100
AcDbEntity
  8
ASSI
100
AcDbLine
 62
250
  6
CONTINUOUS
 10
-6.9325008866
 20
-4.1242822434
 11
-6.9329643197
 21
-4.146553706
  0
LINE
  5
2E3
100
AcDbEntity
  8
ASSI
100
AcDbLine
 62
250
  6
CONTINUOUS
 10
-7.7201733798
 20
3.6974169704
 11
-7.707361714
 21
4.1256910112
  0
LINE
  5
2E4
100
AcDbEntity
  8
ASSI
100
AcDbLine
 62
250
  6
CONTINUOUS
 10
-7.4191875537
 20
3.4753105329
 11
-7.4076670565
 21
3.8563668166
  0
LINE
  5
2E5
100
AcDbEntity
  8
ASSI
100
AcDbLine
 62
250
  6
CONTINUOUS
 10
-7.220675047
 20
-3.4739017651
 11
-7.2321955442
 21
-3.8549580488
  0
LINE
  5
2E6
100
AcDbEntity
  8
ASSI
100
AcDbLine
 62
250
  6
CONTINUOUS
 10
-6.9196892209
 20
-3.6960082025
 11
-6.9325008866
 21
-4.1242822434
  0
LWPOLYLINE
  5
2E7
100
AcDbEntity
  8
ASSI
100
AcDbPolyline
 62
7
  6
CONTINUOUS
 90
16
 70
0
 10
-7.7290654546
 20
5.9098842296
 10
-7.7274209266
 20
5.9411980686
 10
-7.7225171895
 20
5.9721827287
 10
-7.7144045621
 20
6.0024989784
 10
-7.7031623952
 20
6.031828811
 10
-7.68891393
 20
6.0598342059
 10
-7.6718396792
 20
6.0861681244
 10
-7.6521699138
 20
6.1105112018
 10
-7.6301023081
 20
6.1326495278
 10
-7.6057995177
 20
6.1524119221
 10
-7.5794555454
 20
6.1696000777
 10
-7.5513981837
 20
6.1839623581
 10
-7.5220182084
 20
6.195290757
 10
-7.4916739174
 20
6.2034617189
 10
-7.4606722057
 20
6.2084073132
 10
-7.4293546424
 20
6.2100820345
  0
LWPOLYLINE
  5
2E8
100
AcDbEntity
  8
ASSI
100
AcDbPolyline
 62
250
  6
CONTINUOUS
 90
13
 70
0
 10
-7.7093059449
 20
5.89012472
 10
-7.7067288651
 20
5.9292690669
 10
-7.6990655488
 20
5.9677439026
 10
-7.6864470666
 20
6.0048911667
 10
-7.6690892409
 20
6.0400755055
 10
-7.6472889537
 20
6.0726951382
 10
-7.6214190694
 20
6.1021921503
 10
-7.5919220576
 20
6.128062035
 10
-7.5593024248
 20
6.1498623229
 10
-7.5241180856
 20
6.1672201493
 10
-7.4869708209
 20
6.1798386319
 10
-7.4484959844
 20
6.1875019486
 10
-7.4093516364
 20
6.1900790285
  0
LWPOLYLINE
  5
2E9
100
AcDbEntity
  8
ASSI
100
AcDbPolyline
 62
250
  6
CONTINUOUS
 90
13
 70
0
 10
-5.4137966729
 20
17.6029497528
 10
-5.4160255881
 20
17.5708754511
 10
-5.4224769668
 20
17.5393478369
 10
-5.433040849
 20
17.50890428
 10
-5.4475371795
 20
17.4800636729
 10
-5.4657188771
 20
17.4533175868
 10
-5.4872760451
 20
17.429121893
 10
-5.5118412546
 20
17.4078889929
 10
-5.5389958058
 20
17.3899807887
 10
-5.5682768654
 20
17.3757025153
 10
-5.599185355
 20
17.3652975375
 10
-5.6311944575
 20
17.3589432019
 10
-5.6637585967
 20
17.3567478146
  0
LWPOLYLINE
  5
2EA
100
AcDbEntity
  8
ASSI
100
AcDbPolyline
 62
7
  6
CONTINUOUS
 90
16
 70
0
 10
-5.3848442637
 20
17.3104792917
 10
-5.386243308
 20
17.2913600381
 10
-5.3897171286
 20
17.2724534607
 10
-5.3953338685
 20
17.2537595596
 10
-5.4031284647
 20
17.2350978232
 10
-5.413134615
 20
17.216648763
 10
-5.4254136576
 20
17.1989539141
 10
-5.4399381787
 20
17.1819807349
 10
-5.45669927
 20
17.165761767
 10
-5.4758217703
 20
17.1509361697
 10
-5.4972802401
 20
17.1374139336
 10
-5.5209395226
 20
17.1252850682
 10
-5.5467597459
 20
17.1154587617
 10
-5.5745708512
 20
17.1082380769
 10
-5.60404257
 20
17.1033199509
 10
-5.6348061875
 20
17.1007043839
  0
LWPOLYLINE
  5
2EB
100
AcDbEntity
  8
ASSI
100
AcDbPolyline
 62
250
  6
CONTINUOUS
 90
7
 70
0
 10
-6.1260659278
 20
17.6029497528
 10
-6.1259852792
 20
17.6040034474
 10
-6.1259080011
 20
17.6054444111
 10
-6.1258340933
 20
17.6072726439
 10
-6.1257629869
 20
17.6095113197
 10
-6.1256952509
 20
17.6121372647
 10
-6.125575149
 20
17.6183496968
  0
LWPOLYLINE
  5
2EC
100
AcDbEntity
  8
ASSI
100
AcDbPolyline
 62
250
  6
CONTINUOUS
 90
13
 70
0
 10
-7.7191417079
 20
-3.7337144922
 10
-7.7162637821
 20
-3.6999863853
 10
-7.70835846
 20
-3.6668295631
 10
-7.695559745
 20
-3.6348050981
 10
-7.6780844546
 20
-3.604454885
 10
-7.656228497
 20
-3.5762923908
 10
-7.6303618187
 20
-3.5507939905
 10
-7.6009222673
 20
-3.5283910482
 10
-7.5684080829
 20
-3.5094624962
 10
-7.5333693487
 20
-3.4943284146
 10
-7.4963989096
 20
-3.4832447651
 10
-7.4581223806
 20
-3.4763990084
 10
-7.4191873994
 20
-3.4739068706
  0
LWPOLYLINE
  5
2ED
100
AcDbEntity
  8
ASSI
100
AcDbPolyline
 62
250
  6
CONTINUOUS
 90
13
 70
0
 10
-7.707621365
 20
-4.1147656699
 10
-7.7047438336
 20
-4.0810400092
 10
-7.696839476
 20
-4.0478850193
 10
-7.6840420418
 20
-4.0158617145
 10
-7.6665680757
 20
-3.9855119603
 10
-7.6447132543
 20
-3.9573493037
 10
-7.6188473822
 20
-3.9318502841
 10
-7.589408135
 20
-3.9094463696
 10
-7.5568936531
 20
-3.8905166559
 10
-7.5218541131
 20
-3.8753814523
 10
-7.4848824177
 20
-3.8642968609
 10
-7.4466041638
 20
-3.8574504437
 10
-7.4076670565
 20
-3.8549580488
  0
LWPOLYLINE
  5
2EE
100
AcDbEntity
  8
ASSI
100
AcDbPolyline
 62
250
  6
CONTINUOUS
 90
13
 70
0
 10
-6.9322412357
 20
4.1161744378
 10
-6.9351187671
 20
4.0824487771
 10
-6.9430231247
 20
4.0492937871
 10
-6.9558205589
 20
4.0172704824
 10
-6.9732945249
 20
3.9869207282
 10
-6.9951493463
 20
3.9587580716
 10
-7.0210152184
 20
3.933259052
 10
-7.0504544657
 20
3.9108551374
 10
-7.0829689475
 20
3.8919254238
 10
-7.1180084876
 20
3.8767902202
 10
-7.154980183
 20
3.8657056288
 10
-7.1932584368
 20
3.8588592116
 10
-7.2321955442
 20
3.8563668166
  0
LWPOLYLINE
  5
2EF
100
AcDbEntity
  8
ASSI
100
AcDbPolyline
 62
250
  6
CONTINUOUS
 90
13
 70
0
 10
-6.9207208928
 20
3.7351232601
 10
-6.9235988186
 20
3.7013951531
 10
-6.9315041407
 20
3.668238331
 10
-6.9443028556
 20
3.636213866
 10
-6.9617781461
 20
3.6058636529
 10
-6.9836341037
 20
3.5777011587
 10
-7.009500782
 20
3.5522027584
 10
-7.0389403334
 20
3.5297998161
 10
-7.0714545177
 20
3.5108712641
 10
-7.1064932519
 20
3.4957371825
 10
-7.1434636911
 20
3.4846535329
 10
-7.1817402201
 20
3.4778077762
 10
-7.2206752013
 20
3.4753156385
  0
LINE
  5
2F0
100
AcDbEntity
  8
ASSI
100
AcDbLine
 62
250
  6
CONTINUOUS
 10
-6.1550183369
 20
17.3104792917
 11
-6.1260659278
 21
17.6029497528
  0
LINE
  5
2F1
100
AcDbEntity
  8
ASSI
100
AcDbLine
 62
250
  6
CONTINUOUS
 10
-5.901450407
 20
17.1007043839
 11
-5.8761038978
 21
17.356748887
  0
LWPOLYLINE
  5
2F2
100
AcDbEntity
  8
ASSI
100
AcDbPolyline
 62
250
  6
CONTINUOUS
 90
5
 70
0
 10
-7.2305109643
 20
6.1900790285
 10
-7.2308775427
 20
6.1864987588
 10
-7.2312321557
 20
6.1776004096
 10
-7.2315748032
 20
6.1634793287
 10
-7.2322309812
 20
6.1202285085
  0
LWPOLYLINE
  5
2F3
100
AcDbEntity
  8
ASSI
100
AcDbPolyline
 62
250
  6
CONTINUOUS
 90
5
 70
0
 10
-7.4093516364
 20
-6.1886702607
 10
-7.408985058
 20
-6.185089991
 10
-7.408630445
 20
-6.1761916418
 10
-7.4082877975
 20
-6.1620705608
 10
-7.4076316195
 20
-6.1188197406
  0
LINE
  5
2F4
100
AcDbEntity
  8
ASSI
100
AcDbLine
 62
7
  6
CONTINUOUS
 10
-10.0147604013
 20
-20.3712057039
 11
-10.0583578834
 21
-20.6778844659
  0
LWPOLYLINE
  5
2F5
100
AcDbEntity
  8
ASSI
100
AcDbPolyline
 62
250
  6
CONTINUOUS
 90
8
 70
0
 10
-6.9305566557
 20
5.89012472
 10
-6.9309208519
 20
5.888634456
 10
-6.9312739091
 20
5.8851195083
 10
-6.9316158272
 20
5.8795798768
 10
-6.9319502945
 20
5.8719125551
 10
-6.9322736228
 20
5.8622205496
 10
-6.9325747473
 20
5.8508128798
 10
-6.9331084128
 20
5.8227421123
  0
LINE
  5
2F6
100
AcDbEntity
  8
ASSI
100
AcDbLine
 62
7
  6
CONTINUOUS
 10
-10.0158205991
 20
1.3781594489
 11
-10.0071574972
 21
1.3868225508
  0
LINE
  5
2F7
100
AcDbEntity
  8
ASSI
100
AcDbLine
 62
250
  6
CONTINUOUS
 10
5.0233087444
 20
15.8439063524
 11
5.0441241415
 21
15.8647217495
  0
LINE
  5
2F8
100
AcDbEntity
  8
ASSI
100
AcDbLine
 62
250
  6
CONTINUOUS
 10
5.2732751918
 20
15.5939489523
 11
5.294083366
 21
15.6147571265
  0
LWPOLYLINE
  5
2F9
100
AcDbEntity
  8
ASSI
100
AcDbPolyline
 62
7
  6
CONTINUOUS
 90
16
 70
0
 10
-7.4293546424
 20
-6.2086732666
 10
-7.4606722057
 20
-6.2069985454
 10
-7.4916739174
 20
-6.202052951
 10
-7.5220182084
 20
-6.1938819891
 10
-7.5513981837
 20
-6.1825535902
 10
-7.5794555454
 20
-6.1681913099
 10
-7.6057995177
 20
-6.1510031543
 10
-7.6301023081
 20
-6.1312407599
 10
-7.6521699138
 20
-6.1091024339
 10
-7.6718396792
 20
-6.0847593566
 10
-7.68891393
 20
-6.058425438
 10
-7.7031623952
 20
-6.0304200432
 10
-7.7144045621
 20
-6.0010902105
 10
-7.7225171895
 20
-5.9707739608
 10
-7.7274209266
 20
-5.9397893007
 10
-7.7290654546
 20
-5.9084754617
  0
LINE
  5
2FA
100
AcDbEntity
  8
ASSI
100
AcDbLine
 62
7
  6
CONTINUOUS
 10
-10.0158205991
 20
-1.376750681
 11
-10.0071574972
 21
-1.3854137829
  0
LINE
  5
2FB
100
AcDbEntity
  8
ASSI
100
AcDbLine
 62
250
  6
CONTINUOUS
 10
5.0441241415
 20
-15.8633129817
 11
5.0233087444
 21
-15.8424975845
  0
LINE
  5
2FC
100
AcDbEntity
  8
ASSI
100
AcDbLine
 62
250
  6
CONTINUOUS
 10
5.2940833586
 20
-15.6133483512
 11
5.2732751918
 21
-15.5925401844
  0
LINE
  5
2FD
100
AcDbEntity
  8
ASSI
100
AcDbLine
 62
7
  6
CONTINUOUS
 10
-10.0147604013
 20
20.3726144718
 11
-10.0583578834
 21
20.6792932338
  0
LWPOLYLINE
  5
2FE
100
AcDbEntity
  8
ASSI
100
AcDbPolyline
 62
250
  6
CONTINUOUS
 90
13
 70
0
 10
-6.9305566557
 20
5.89012472
 10
-6.9331333403
 20
5.9292660739
 10
-6.9407956267
 20
5.9677385914
 10
-6.9534126846
 20
6.0048842939
 10
-6.9707689212
 20
6.0400678224
 10
-6.9925676997
 20
6.072687391
 10
-7.0184364399
 20
6.102185061
 10
-7.0479329638
 20
6.1280562202
 10
-7.0805528621
 20
6.1498581004
 10
-7.1157381265
 20
6.1672175028
 10
-7.1528869189
 20
6.179837329
 10
-7.1913639122
 20
6.1875015922
 10
-7.2305109642
 20
6.1900790286
  0
LWPOLYLINE
  5
2FF
100
AcDbEntity
  8
ASSI
100
AcDbPolyline
 62
250
  6
CONTINUOUS
 90
13
 70
0
 10
-5.3839867421
 20
-15.8633129817
 10
-5.3861343118
 20
-15.8306926689
 10
-5.392520417
 20
-15.7986302873
 10
-5.4030358303
 20
-15.767674221
 10
-5.4175006983
 20
-15.7383539314
 10
-5.4356676173
 20
-15.7111709027
 10
-5.4572258642
 20
-15.6865900641
 10
-5.481806712
 20
-15.6650318371
 10
-5.5089897376
 20
-15.6468649436
 10
-5.5383100128
 20
-15.6324001015
 10
-5.5692660539
 20
-15.6218847106
 10
-5.6013283992
 20
-15.6154986215
 10
-5.6339486659
 20
-15.6133510579
  0
LWPOLYLINE
  5
300
100
AcDbEntity
  8
ASSI
100
AcDbPolyline
 62
250
  6
CONTINUOUS
 90
13
 70
0
 10
-6.1558758585
 20
15.8647217495
 10
-6.1537282889
 20
15.8321014368
 10
-6.1473421837
 20
15.8000390552
 10
-6.1368267704
 20
15.7690829889
 10
-6.1223619024
 20
15.7397626993
 10
-6.1041949834
 20
15.7125796706
 10
-6.0826367364
 20
15.687998832
 10
-6.0580558887
 20
15.666440605
 10
-6.030872863
 20
15.6482737115
 10
-6.0015525879
 20
15.6338088693
 10
-5.9705965468
 20
15.6232934785
 10
-5.9385342014
 20
15.6169073893
 10
-5.9059139347
 20
15.6147598257
  0
LWPOLYLINE
  5
301
100
AcDbEntity
  8
ASSI
100
AcDbPolyline
 62
250
  6
CONTINUOUS
 90
7
 70
0
 10
-6.1553696372
 20
-15.8732132958
 10
-6.1554446365
 20
-15.8703538847
 10
-6.1555252234
 20
-15.8679201549
 10
-6.1556088898
 20
-15.8659912821
 10
-6.1556947998
 20
-15.8645936582
 10
-6.1557837894
 20
-15.8637008914
 10
-6.1558758585
 20
-15.8633129817
  0
LWPOLYLINE
  5
302
100
AcDbEntity
  8
ASSI
100
AcDbPolyline
 62
250
  6
CONTINUOUS
 90
7
 70
0
 10
-5.3844929635
 20
15.8746220636
 10
-5.3844179642
 20
15.8717626525
 10
-5.3843373773
 20
15.8693289227
 10
-5.3842537108
 20
15.86740005
 10
-5.3841678008
 20
15.8660024261
 10
-5.3840788113
 20
15.8651096593
 10
-5.3839867421
 20
15.8647217495
  0
LWPOLYLINE
  5
303
100
AcDbEntity
  8
ASSI
100
AcDbPolyline
 62
250
  6
CONTINUOUS
 90
6
 70
0
 10
-6.1256952509
 20
-17.6107284968
 10
-6.1257629869
 20
-17.6081025519
 10
-6.1258340933
 20
-17.605863876
 10
-6.1259080011
 20
-17.6040356432
 10
-6.1259852792
 20
-17.6025946795
 10
-6.1260659278
 20
-17.601540985
  0
LWPOLYLINE
  5
304
100
AcDbEntity
  8
ASSI
100
AcDbPolyline
 62
250
  6
CONTINUOUS
 90
6
 70
0
 10
-5.4141673498
 20
17.6121372647
 10
-5.4140996138
 20
17.6095113197
 10
-5.4140285074
 20
17.6072726439
 10
-5.4139545996
 20
17.6054444111
 10
-5.4138773214
 20
17.6040034474
 10
-5.4137966729
 20
17.6029497528
  0
LINE
  5
305
100
AcDbEntity
  8
ASSI
100
AcDbLine
 62
250
  6
CONTINUOUS
 10
-6.125575149
 20
-17.6169409289
 11
-6.1256952509
 21
-17.6107284968
  0
LINE
  5
306
100
AcDbEntity
  8
ASSI
100
AcDbLine
 62
250
  6
CONTINUOUS
 10
-5.4142874517
 20
17.6183496968
 11
-5.4141673498
 21
17.6121372647
  0
LINE
  5
307
100
AcDbEntity
  8
ASSI
100
AcDbLine
 62
250
  6
CONTINUOUS
 10
-6.1552367601
 20
-15.8802348628
 11
-6.1553696372
 21
-15.8732132958
  0
LINE
  5
308
100
AcDbEntity
  8
ASSI
100
AcDbLine
 62
250
  6
CONTINUOUS
 10
-5.3846258406
 20
15.8816436307
 11
-5.3844929635
 21
15.8746220636
  0
LWPOLYLINE
  5
309
100
AcDbEntity
  8
ASSI
100
AcDbPolyline
 62
250
  6
CONTINUOUS
 90
3
 70
0
 10
-5.9057333693
 20
-15.6208305409
 10
-5.9058223568
 20
-15.6154888338
 10
-5.9059143782
 20
-15.6133483913
  0
LWPOLYLINE
  5
30A
100
AcDbEntity
  8
ASSI
100
AcDbPolyline
 62
250
  6
CONTINUOUS
 90
3
 70
0
 10
-5.6341292314
 20
15.6222393088
 10
-5.6340402439
 20
15.6168976017
 10
-5.6339482224
 20
15.6147571592
  0
LINE
  5
30B
100
AcDbEntity
  8
ASSI
100
AcDbLine
 62
250
  6
CONTINUOUS
 10
-6.1254767874
 20
-17.6243402304
 11
-6.125575149
 21
-17.6169409289
  0
LINE
  5
30C
100
AcDbEntity
  8
ASSI
100
AcDbLine
 62
250
  6
CONTINUOUS
 10
-5.4143858133
 20
17.6257489983
 11
-5.4142874517
 21
17.6183496968
  0
LINE
  5
30D
100
AcDbEntity
  8
ASSI
100
AcDbLine
 62
250
  6
CONTINUOUS
 10
-6.1551323752
 20
-15.8886179209
 11
-6.1552367601
 21
-15.8802348628
  0
LINE
  5
30E
100
AcDbEntity
  8
ASSI
100
AcDbLine
 62
250
  6
CONTINUOUS
 10
-5.3847302255
 20
15.8900266888
 11
-5.3846258406
 21
15.8816436307
  0
LINE
  5
30F
100
AcDbEntity
  8
ASSI
100
AcDbLine
 62
250
  6
CONTINUOUS
 10
-5.8759466252
 20
-17.3700868997
 11
-5.876103987
 21
-17.3553401192
  0
LINE
  5
310
100
AcDbEntity
  8
ASSI
100
AcDbLine
 62
250
  6
CONTINUOUS
 10
-5.6639159755
 20
17.3714956676
 11
-5.6637586137
 21
17.3567488871
  0
LINE
  5
311
100
AcDbEntity
  8
ASSI
100
AcDbLine
 62
250
  6
CONTINUOUS
 10
-5.6643980272
 20
-18.0595727648
 11
-5.6456880774
 21
-20.3582532286
  0
LINE
  5
312
100
AcDbEntity
  8
ASSI
100
AcDbLine
 62
250
  6
CONTINUOUS
 10
-5.8754645735
 20
18.0609815327
 11
-5.8941745233
 21
20.3596619965
  0
LINE
  5
313
100
AcDbEntity
  8
ASSI
100
AcDbLine
 62
250
  6
CONTINUOUS
 10
-5.9055635976
 20
-15.6408309054
 11
-5.9057333693
 21
-15.6208305409
  0
LINE
  5
314
100
AcDbEntity
  8
ASSI
100
AcDbLine
 62
250
  6
CONTINUOUS
 10
-5.634299003
 20
15.6422396733
 11
-5.6341292314
 21
15.6222393088
  0
LINE
  5
315
100
AcDbEntity
  8
ASSI
100
AcDbLine
 62
250
  6
CONTINUOUS
 10
-6.1253783152
 20
-17.6370452167
 11
-6.1254767874
 21
-17.6243402304
  0
LINE
  5
316
100
AcDbEntity
  8
ASSI
100
AcDbLine
 62
250
  6
CONTINUOUS
 10
-5.4144842855
 20
17.6384539846
 11
-5.4143858133
 21
17.6257489983
  0
LINE
  5
317
100
AcDbEntity
  8
ASSI
100
AcDbLine
 62
250
  6
CONTINUOUS
 10
-6.1550370962
 20
-15.9030081865
 11
-6.1551323752
 21
-15.8886179209
  0
LINE
  5
318
100
AcDbEntity
  8
ASSI
100
AcDbLine
 62
250
  6
CONTINUOUS
 10
-5.3848255044
 20
15.9044169544
 11
-5.3847302255
 21
15.8900266888
  0
LINE
  5
319
100
AcDbEntity
  8
ASSI
100
AcDbLine
 62
250
  6
CONTINUOUS
 10
-6.1253447265
 20
17.9341959851
 11
-6.14025769
 21
19.7774683023
  0
LINE
  5
31A
100
AcDbEntity
  8
ASSI
100
AcDbLine
 62
250
  6
CONTINUOUS
 10
-5.4145178741
 20
-17.9327872173
 11
-5.3996049107
 21
-19.7760595344
  0
LINE
  5
31B
100
AcDbEntity
  8
ASSI
100
AcDbLine
 62
250
  6
CONTINUOUS
 10
-5.875561366
 20
-17.4688463507
 11
-5.8759466252
 21
-17.3700868997
  0
LINE
  5
31C
100
AcDbEntity
  8
ASSI
100
AcDbLine
 62
250
  6
CONTINUOUS
 10
-5.6643012347
 20
17.4702551185
 11
-5.6639159755
 21
17.3714956676
  0
LINE
  5
31D
100
AcDbEntity
  8
ASSI
100
AcDbLine
 62
250
  6
CONTINUOUS
 10
-5.9051304632
 20
-15.7925618085
 11
-5.9055635976
 21
-15.6408309054
  0
LINE
  5
31E
100
AcDbEntity
  8
ASSI
100
AcDbLine
 62
250
  6
CONTINUOUS
 10
-5.6347321375
 20
15.7939705764
 11
-5.634299003
 21
15.6422396733
  0
LINE
  5
31F
100
AcDbEntity
  8
ASSI
100
AcDbLine
 62
7
  6
CONTINUOUS
 10
-6.1761147505
 20
-15.8430740897
 11
-6.1727587675
 21
-20.3464957045
  0
LINE
  5
320
100
AcDbEntity
  8
ASSI
100
AcDbLine
 62
7
  6
CONTINUOUS
 10
-5.363171345
 20
15.8439063524
 11
-5.3665829763
 21
20.3442405973
  0
LINE
  5
321
100
AcDbEntity
  8
ASSI
100
AcDbLine
 62
250
  6
CONTINUOUS
 10
-6.1550183369
 20
-17.3090705239
 11
-6.1550370962
 21
-15.9030081865
  0
LINE
  5
322
100
AcDbEntity
  8
ASSI
100
AcDbLine
 62
7
  6
CONTINUOUS
 10
-6.14025769
 20
-20.5751187747
 11
-6.14025769
 21
-19.7760595344
  0
LINE
  5
323
100
AcDbEntity
  8
ASSI
100
AcDbLine
 62
7
  6
CONTINUOUS
 10
-6.14025769
 20
19.7774683023
 11
-6.14025769
 21
20.5765275426
  0
LINE
  5
324
100
AcDbEntity
  8
ASSI
100
AcDbLine
 62
250
  6
CONTINUOUS
 10
-6.1253447265
 20
-17.9327872173
 11
-6.1253783152
 21
-17.6370452167
  0
LINE
  5
325
100
AcDbEntity
  8
ASSI
100
AcDbLine
 62
250
  6
CONTINUOUS
 10
-5.9050564131
 20
-17.0992956161
 11
-5.9051304632
 21
-15.7925618085
  0
LINE
  5
326
100
AcDbEntity
  8
ASSI
100
AcDbLine
 62
250
  6
CONTINUOUS
 10
-5.7245937343
 20
1.3641344703
 11
-5.7245937333
 21
1.1641649314
  0
LINE
  5
327
100
AcDbEntity
  8
ASSI
100
AcDbLine
 62
250
  6
CONTINUOUS
 10
-5.7245937343
 20
-1.3627257025
 11
-5.7245937343
 21
-1.1627561634
  0
LINE
  5
328
100
AcDbEntity
  8
ASSI
100
AcDbLine
 62
250
  6
CONTINUOUS
 10
-5.6348061875
 20
17.1007043839
 11
-5.6347321375
 21
15.7939705764
  0
LINE
  5
329
100
AcDbEntity
  8
ASSI
100
AcDbLine
 62
250
  6
CONTINUOUS
 10
-5.4145178741
 20
17.9341959851
 11
-5.4144842855
 21
17.6384539846
  0
LINE
  5
32A
100
AcDbEntity
  8
ASSI
100
AcDbLine
 62
7
  6
CONTINUOUS
 10
-5.3996049107
 20
20.5765275426
 11
-5.3996049107
 21
19.7774683023
  0
LINE
  5
32B
100
AcDbEntity
  8
ASSI
100
AcDbLine
 62
7
  6
CONTINUOUS
 10
-5.3996049107
 20
-19.7760595344
 11
-5.3996049107
 21
-20.5751187747
  0
LINE
  5
32C
100
AcDbEntity
  8
ASSI
100
AcDbLine
 62
250
  6
CONTINUOUS
 10
-5.3848442637
 20
17.3104792917
 11
-5.3848255044
 21
15.9044169544
  0
LINE
  5
32D
100
AcDbEntity
  8
ASSI
100
AcDbLine
 62
250
  6
CONTINUOUS
 10
-5.8754645729
 20
-18.0595726958
 11
-5.875561366
 21
-17.4688463507
  0
LINE
  5
32E
100
AcDbEntity
  8
ASSI
100
AcDbLine
 62
250
  6
CONTINUOUS
 10
-5.6643980277
 20
18.0609814637
 11
-5.6643012347
 21
17.4702551185
  0
LINE
  5
32F
100
AcDbEntity
  8
ASSI
100
AcDbLine
 62
7
  6
CONTINUOUS
 10
-6.1727587675
 20
20.3479044724
 11
-6.1761147505
 21
15.8444828576
  0
LINE
  5
330
100
AcDbEntity
  8
ASSI
100
AcDbLine
 62
7
  6
CONTINUOUS
 10
-5.3665829763
 20
-20.3428318294
 11
-5.363171345
 21
-15.8424975845
  0
LINE
  5
331
100
AcDbEntity
  8
ASSI
100
AcDbLine
 62
250
  6
CONTINUOUS
 10
-6.1550370965
 20
15.9044168965
 11
-6.1550183369
 21
17.3104792917
  0
LINE
  5
332
100
AcDbEntity
  8
ASSI
100
AcDbLine
 62
250
  6
CONTINUOUS
 10
-5.3848255041
 20
-15.9030081286
 11
-5.3848442637
 21
-17.3090705239
  0
LINE
  5
333
100
AcDbEntity
  8
ASSI
100
AcDbLine
 62
250
  6
CONTINUOUS
 10
-5.9054077573
 20
15.6738692075
 11
-5.9050564131
 21
17.1007043839
  0
LINE
  5
334
100
AcDbEntity
  8
ASSI
100
AcDbLine
 62
250
  6
CONTINUOUS
 10
-5.6344548433
 20
-15.6724604396
 11
-5.6348061875
 21
-17.0992956161
  0
LINE
  5
335
100
AcDbEntity
  8
ASSI
100
AcDbLine
 62
250
  6
CONTINUOUS
 10
-5.8757335593
 20
17.4115530098
 11
-5.875464573
 21
18.0609815327
  0
LINE
  5
336
100
AcDbEntity
  8
ASSI
100
AcDbLine
 62
250
  6
CONTINUOUS
 10
-5.6641290414
 20
-17.4101442419
 11
-5.6643980277
 21
-18.0595727648
  0
LINE
  5
337
100
AcDbEntity
  8
ASSI
100
AcDbLine
 62
250
  6
CONTINUOUS
 10
-6.1253783152
 20
17.6384539846
 11
-6.1253447265
 21
17.9341959851
  0
LINE
  5
338
100
AcDbEntity
  8
ASSI
100
AcDbLine
 62
250
  6
CONTINUOUS
 10
-5.4144842855
 20
-17.6370452167
 11
-5.4145178741
 21
-17.9327872173
  0
LINE
  5
339
100
AcDbEntity
  8
ASSI
100
AcDbLine
 62
250
  6
CONTINUOUS
 10
-5.8759466252
 20
17.3714956676
 11
-5.8757335593
 21
17.4115530098
  0
LINE
  5
33A
100
AcDbEntity
  8
ASSI
100
AcDbLine
 62
250
  6
CONTINUOUS
 10
-5.6639159755
 20
-17.3700868997
 11
-5.6641290414
 21
-17.4101442419
  0
LINE
  5
33B
100
AcDbEntity
  8
ASSI
100
AcDbLine
 62
250
  6
CONTINUOUS
 10
-6.14025769
 20
-19.7760595344
 11
-6.1253447265
 21
-17.9327872173
  0
LINE
  5
33C
100
AcDbEntity
  8
ASSI
100
AcDbLine
 62
250
  6
CONTINUOUS
 10
-5.6456880774
 20
20.3596619965
 11
-5.6643980277
 21
18.0609814637
  0
LINE
  5
33D
100
AcDbEntity
  8
ASSI
100
AcDbLine
 62
250
  6
CONTINUOUS
 10
-5.8941745233
 20
-20.3582532286
 11
-5.8754645729
 21
-18.0595726958
  0
LINE
  5
33E
100
AcDbEntity
  8
ASSI
100
AcDbLine
 62
250
  6
CONTINUOUS
 10
-5.3996049107
 20
19.7774683023
 11
-5.4145178741
 21
17.9341959851
  0
LINE
  5
33F
100
AcDbEntity
  8
ASSI
100
AcDbLine
 62
250
  6
CONTINUOUS
 10
-6.1551323758
 20
15.8900266329
 11
-6.1550370965
 21
15.9044168965
  0
LINE
  5
340
100
AcDbEntity
  8
ASSI
100
AcDbLine
 62
250
  6
CONTINUOUS
 10
-5.3847302249
 20
-15.888617865
 11
-5.3848255041
 21
-15.9030081286
  0
LINE
  5
341
100
AcDbEntity
  8
ASSI
100
AcDbLine
 62
250
  6
CONTINUOUS
 10
-6.1254767874
 20
17.6257489983
 11
-6.1253783152
 21
17.6384539846
  0
LINE
  5
342
100
AcDbEntity
  8
ASSI
100
AcDbLine
 62
250
  6
CONTINUOUS
 10
-5.4143858133
 20
-17.6243402304
 11
-5.4144842855
 21
-17.6370452167
  0
LINE
  5
343
100
AcDbEntity
  8
ASSI
100
AcDbLine
 62
250
  6
CONTINUOUS
 10
-5.876103987
 20
17.3567488871
 11
-5.8759466252
 21
17.3714956676
  0
LINE
  5
344
100
AcDbEntity
  8
ASSI
100
AcDbLine
 62
250
  6
CONTINUOUS
 10
-5.6637586137
 20
-17.3553401192
 11
-5.6639159755
 21
-17.3700868997
  0
LINE
  5
345
100
AcDbEntity
  8
ASSI
100
AcDbLine
 62
250
  6
CONTINUOUS
 10
-6.15523676
 20
15.8816436213
 11
-6.1551323758
 21
15.8900266329
  0
LINE
  5
346
100
AcDbEntity
  8
ASSI
100
AcDbLine
 62
250
  6
CONTINUOUS
 10
-5.3846258407
 20
-15.8802348534
 11
-5.3847302249
 21
-15.888617865
  0
LINE
  5
347
100
AcDbEntity
  8
ASSI
100
AcDbLine
 62
250
  6
CONTINUOUS
 10
-6.125575149
 20
17.6183496968
 11
-6.1254767874
 21
17.6257489983
  0
LINE
  5
348
100
AcDbEntity
  8
ASSI
100
AcDbLine
 62
250
  6
CONTINUOUS
 10
-5.4142874517
 20
-17.6169409289
 11
-5.4143858133
 21
-17.6243402304
  0
LWPOLYLINE
  5
349
100
AcDbEntity
  8
ASSI
100
AcDbPolyline
 62
250
  6
CONTINUOUS
 90
5
 70
0
 10
-5.905914377
 20
15.6147571663
 10
-5.905822358
 20
15.6168975574
 10
-5.9057333719
 20
15.6222391217
 10
-5.9056474188
 20
15.6307192349
 10
-5.9054077573
 20
15.6738692075
  0
LWPOLYLINE
  5
34A
100
AcDbEntity
  8
ASSI
100
AcDbPolyline
 62
250
  6
CONTINUOUS
 90
5
 70
0
 10
-5.6339482237
 20
-15.6133483984
 10
-5.6340402427
 20
-15.6154887896
 10
-5.6341292288
 20
-15.6208303538
 10
-5.6342151819
 20
-15.629310467
 10
-5.6344548433
 20
-15.6724604396
  0
LWPOLYLINE
  5
34B
100
AcDbEntity
  8
ASSI
100
AcDbPolyline
 62
7
  6
CONTINUOUS
 90
16
 70
0
 10
-5.363171345
 20
15.8439063524
 10
-5.3645228675
 20
15.8177676716
 10
-5.3685977389
 20
15.7919213453
 10
-5.375350133
 20
15.7666497924
 10
-5.3847062412
 20
15.7422258218
 10
-5.3965620311
 20
15.7189194895
 10
-5.4107812832
 20
15.6969936046
 10
-5.4271910733
 20
15.6767011824
 10
-5.4456197626
 20
15.6582422951
 10
-5.465906915
 20
15.6417836034
 10
-5.4878679402
 20
15.6274979622
 10
-5.5112437043
 20
15.6155750365
 10
-5.5357376863
 20
15.6061715757
 10
-5.5610642618
 20
15.5993923827
 10
-5.5869591344
 20
15.5953038348
 10
-5.6131377925
 20
15.5939489523
  0
LWPOLYLINE
  5
34C
100
AcDbEntity
  8
ASSI
100
AcDbPolyline
 62
7
  6
CONTINUOUS
 90
16
 70
0
 10
-6.1761147505
 20
-15.8430740897
 10
-6.1747633888
 20
-15.816917809
 10
-6.1706896579
 20
-15.7910534246
 10
-6.1639403311
 20
-15.7657636403
 10
-6.1545904987
 20
-15.7413214889
 10
-6.1427448788
 20
-15.7179967672
 10
-6.1285394322
 20
-15.69605171
 10
-6.1121474915
 20
-15.6757387413
 10
-6.0937412804
 20
-15.6572579631
 10
-6.0734808634
 20
-15.6407763898
 10
-6.0515511787
 20
-15.6264661979
 10
-6.0282115564
 20
-15.6145166627
 10
-6.0037578092
 20
-15.6050851433
 10
-5.9784753047
 20
-15.598276105
 10
-5.9526284824
 20
-15.594154764
 10
-5.9265015738
 20
-15.5927634189
  0
LWPOLYLINE
  5
34D
100
AcDbEntity
  8
ASSI
100
AcDbPolyline
 62
7
  6
CONTINUOUS
 90
16
 70
0
 10
-6.9099636028
 20
-5.909309005
 10
-6.9116109214
 20
-5.9406093858
 10
-6.9165216169
 20
-5.9715740106
 10
-6.9246452514
 20
-6.0018640088
 10
-6.9359025764
 20
-6.031161046
 10
-6.9501701016
 20
-6.0591282645
 10
-6.967267111
 20
-6.085421069
 10
-6.9869633009
 20
-6.1097195267
 10
-7.0090617964
 20
-6.1318106991
 10
-7.0334022008
 20
-6.1515270385
 10
-7.0597917267
 20
-6.168668934
 10
-7.0879033848
 20
-6.1829838528
 10
-7.1173491509
 20
-6.1942657013
 10
-7.1477721652
 20
-6.2023890846
 10
-7.1788649568
 20
-6.2072819216
 10
-7.2102854359
 20
-6.2088957891
  0
LWPOLYLINE
  5
34E
100
AcDbEntity
  8
ASSI
100
AcDbPolyline
 62
250
  6
CONTINUOUS
 90
13
 70
0
 10
-6.9305566557
 20
-5.8887159521
 10
-6.9331337356
 20
-5.9278602991
 10
-6.9407970519
 20
-5.9663351347
 10
-6.9534155341
 20
-6.0034823989
 10
-6.9707733598
 20
-6.0386667376
 10
-6.992573647
 20
-6.0712863703
 10
-7.0184435312
 20
-6.1007833824
 10
-7.0479405431
 20
-6.1266532671
 10
-7.0805601759
 20
-6.148453555
 10
-7.115744515
 20
-6.1658113814
 10
-7.1528917798
 20
-6.178429864
 10
-7.1913666163
 20
-6.1860931807
 10
-7.2305109643
 20
-6.1886702607
  0
LWPOLYLINE
  5
34F
100
AcDbEntity
  8
ASSI
100
AcDbPolyline
 62
250
  6
CONTINUOUS
 90
13
 70
0
 10
-5.3839867421
 20
15.8647217495
 10
-5.3861343087
 20
15.8321014602
 10
-5.3925204057
 20
15.800039097
 10
-5.4030358077
 20
15.7690830433
 10
-5.4175006627
 20
15.7397627608
 10
-5.4356675691
 20
15.7125797333
 10
-5.4572258062
 20
15.6879988898
 10
-5.4818066497
 20
15.6664406527
 10
-5.5089896772
 20
15.6482737463
 10
-5.5383099597
 20
15.6338088913
 10
-5.5692660134
 20
15.6232934893
 10
-5.6013283766
 20
15.6169073923
 10
-5.6339486659
 20
15.6147598258
  0
LWPOLYLINE
  5
350
100
AcDbEntity
  8
ASSI
100
AcDbPolyline
 62
250
  6
CONTINUOUS
 90
13
 70
0
 10
-6.1558758585
 20
-15.8633129817
 10
-6.153728292
 20
-15.8306926923
 10
-6.1473421949
 20
-15.7986303291
 10
-6.136826793
 20
-15.7676742754
 10
-6.122361938
 20
-15.7383539929
 10
-6.1041950316
 20
-15.7111709654
 10
-6.0826367944
 20
-15.686590122
 10
-6.058055951
 20
-15.6650318848
 10
-6.0308729235
 20
-15.6468649784
 10
-6.001552641
 20
-15.6324001234
 10
-5.9705965873
 20
-15.6218847215
 10
-5.938534224
 20
-15.6154986244
 10
-5.9059139347
 20
-15.6133510579
  0
LWPOLYLINE
  5
351
100
AcDbEntity
  8
ASSI
100
AcDbPolyline
 62
250
  6
CONTINUOUS
 90
8
 70
0
 10
-7.7093059449
 20
-5.8887159521
 10
-7.7089417488
 20
-5.8872256882
 10
-7.7085886916
 20
-5.8837107404
 10
-7.7082467735
 20
-5.878171109
 10
-7.7079123062
 20
-5.8705037872
 10
-7.7075889779
 20
-5.8608117817
 10
-7.7072878534
 20
-5.849404112
 10
-7.7067541879
 20
-5.8213333445
  0
LINE
  5
352
100
AcDbEntity
  8
ASSI
100
AcDbLine
 62
7
  6
CONTINUOUS
 10
-6.909295075
 20
1.3905411807
 11
-6.9137388668
 21
1.3860973889
  0
LINE
  5
353
100
AcDbEntity
  8
ASSI
100
AcDbLine
 62
7
  6
CONTINUOUS
 10
6.8704228352
 20
-6.2088957891
 11
7.0894920417
 21
-6.2086732666
  0
LINE
  5
354
100
AcDbEntity
  8
ASSI
100
AcDbLine
 62
250
  6
CONTINUOUS
 10
7.0694890357
 20
-6.1886702607
 11
6.8906483636
 21
-6.1886702607
  0
LINE
  5
355
100
AcDbEntity
  8
ASSI
100
AcDbLine
 62
250
  6
CONTINUOUS
 10
-7.2305109643
 20
-6.1886702607
 11
-7.4093516364
 21
-6.1886702607
  0
LINE
  5
356
100
AcDbEntity
  8
ASSI
100
AcDbLine
 62
250
  6
CONTINUOUS
 10
-7.7058758585
 20
-5.6887464131
 11
-6.9339867421
 21
-5.6887464131
  0
LINE
  5
357
100
AcDbEntity
  8
ASSI
100
AcDbLine
 62
250
  6
CONTINUOUS
 10
6.5941241415
 20
-5.6887464131
 11
7.3660132579
 21
-5.6887464131
  0
LINE
  5
358
100
AcDbEntity
  8
ASSI
100
AcDbLine
 62
7
  6
CONTINUOUS
 10
-7.4293546424
 20
-6.2086732666
 11
-7.2102854359
 21
-6.2088957891
  0
LWPOLYLINE
  5
359
100
AcDbEntity
  8
ASSI
100
AcDbPolyline
 62
7
  6
CONTINUOUS
 90
16
 70
0
 10
6.8704228352
 20
-6.2088957891
 10
6.8390023561
 20
-6.2072819216
 10
6.8079095645
 20
-6.2023890846
 10
6.7774865502
 20
-6.1942657013
 10
6.7480407841
 20
-6.1829838528
 10
6.7199291261
 20
-6.168668934
 10
6.6935396001
 20
-6.1515270385
 10
6.6691991957
 20
-6.1318106991
 10
6.6471007002
 20
-6.1097195267
 10
6.6274045103
 20
-6.085421069
 10
6.610307501
 20
-6.0591282645
 10
6.5960399757
 20
-6.031161046
 10
6.5847826507
 20
-6.0018640088
 10
6.5766590163
 20
-5.9715740106
 10
6.5717483207
 20
-5.9406093858
 10
6.5701010022
 20
-5.909309005
  0
LINE
  5
35A
100
AcDbEntity
  8
ASSI
100
AcDbLine
 62
7
  6
CONTINUOUS
 10
-6.909295075
 20
-1.3891324128
 11
-6.9137388668
 21
-1.384688621
  0
LWPOLYLINE
  5
35B
100
AcDbEntity
  8
ASSI
100
AcDbPolyline
 62
7
  6
CONTINUOUS
 90
10
 70
0
 10
-5.4939514059
 20
-1.5172591864
 10
-5.514082689
 20
-1.4918986012
 10
-5.536234474
 20
-1.469218784
 10
-5.5604067229
 20
-1.4492197398
 10
-5.5869332379
 20
-1.4317291537
 10
-5.615480134
 20
-1.4169193541
 10
-5.6450458581
 20
-1.4053073166
 10
-5.6752965528
 20
-1.3970653772
 10
-5.7065660362
 20
-1.3920212285
 10
-5.7388542887
 20
-1.3901748857
  0
LWPOLYLINE
  5
35C
100
AcDbEntity
  8
ASSI
100
AcDbPolyline
 62
250
  6
CONTINUOUS
 90
13
 70
0
 10
-5.3148477833
 20
-1.3762675304
 10
-5.3393828082
 20
-1.3441190681
 10
-5.3660089031
 20
-1.3143742327
 10
-5.394726068
 20
-1.2870330243
 10
-5.4257386859
 20
-1.2619581932
 10
-5.4588423738
 20
-1.2392869891
 10
-5.4934239827
 20
-1.2194311608
 10
-5.5295061645
 20
-1.202434862
 10
-5.5670662673
 20
-1.188253939
 10
-5.6054231862
 20
-1.177167679
 10
-5.6443498862
 20
-1.1692691775
 10
-5.6840734022
 20
-1.164465339
 10
-5.7245937343
 20
-1.1627561634
  0
LWPOLYLINE
  5
35D
100
AcDbEntity
  8
ASSI
100
AcDbPolyline
 62
250
  6
CONTINUOUS
 90
13
 70
0
 10
-5.4787461637
 20
-1.4908325226
 10
-5.4932944142
 20
-1.4716964053
 10
-5.5093190387
 20
-1.4537965567
 10
-5.5267149632
 20
-1.437245671
 10
-5.5453642762
 20
-1.4221507307
 10
-5.5651495204
 20
-1.4086019979
 10
-5.5859569397
 20
-1.3966760127
 10
-5.6076584301
 20
-1.3864478104
 10
-5.6301114307
 20
-1.3779860914
 10
-5.6531742035
 20
-1.3713453214
 10
-5.6767000398
 20
-1.3665690724
 10
-5.7005380407
 20
-1.3636893107
 10
-5.7245356763
 20
-1.3627257056
  0
LWPOLYLINE
  5
35E
100
AcDbEntity
  8
ASSI
100
AcDbPolyline
 62
7
  6
CONTINUOUS
 90
16
 70
0
 10
-5.4939514059
 20
-1.5172591864
 10
-5.392948226
 20
-1.651110218
 10
-5.2836513104
 20
-1.7782308107
 10
-5.1665094826
 20
-1.8981100973
 10
-5.0420453817
 20
-2.0102319629
 10
-4.9107300877
 20
-2.1141880368
 10
-4.7729594781
 20
-2.2096516727
 10
-4.6291484225
 20
-2.2962883387
 10
-4.4799890006
 20
-2.3736359448
 10
-4.3263377197
 20
-2.4412510875
 10
-4.1689958291
 20
-2.4988310265
 10
-4.008455066
 20
-2.5462445102
 10
-3.8451391809
 20
-2.5833715944
 10
-3.6796274082
 20
-2.6100556923
 10
-3.5126658563
 20
-2.6261528903
 10
-3.3449313003
 20
-2.6315816311
  0
LWPOLYLINE
  5
35F
100
AcDbEntity
  8
ASSI
100
AcDbPolyline
 62
7
  6
CONTINUOUS
 90
13
 70
0
 10
-5.2459009411
 20
-0.9490005248
 10
-5.2622248249
 20
-0.9198795196
 10
-5.2805014407
 20
-0.8930400058
 10
-5.3007307885
 20
-0.8684819831
 10
-5.323113331
 20
-0.84609798
 10
-5.3474486054
 20
-0.8259954682
 10
-5.3731352238
 20
-0.808496863
 10
-5.4000354201
 20
-0.7936924704
 10
-5.4282869604
 20
-0.7814919845
 10
-5.4577017543
 20
-0.7719469026
 10
-5.4882171051
 20
-0.7650743906
 10
-5.5198957096
 20
-0.7608572826
 10
-5.5527375677
 20
-0.7592955787
  0
LINE
  5
360
100
AcDbEntity
  8
ASSI
100
AcDbLine
 62
250
  6
CONTINUOUS
 10
-5.6637587028
 20
17.356748887
 11
-5.6384121937
 21
17.1007043839
  0
LINE
  5
361
100
AcDbEntity
  8
ASSI
100
AcDbLine
 62
250
  6
CONTINUOUS
 10
-5.4137966729
 20
17.6029497528
 11
-5.3848442637
 21
17.3104792917
  0
LWPOLYLINE
  5
362
100
AcDbEntity
  8
ASSI
100
AcDbPolyline
 62
7
  6
CONTINUOUS
 90
16
 70
0
 10
-6.1550183369
 20
17.3104792917
 10
-6.1536440323
 20
17.2919502517
 10
-6.150233802
 20
17.2731317572
 10
-6.1446919416
 20
17.2542206555
 10
-6.1369451267
 20
17.2354855868
 10
-6.1269385788
 20
17.2171064603
 10
-6.1146224697
 20
17.1991799643
 10
-6.1000063231
 20
17.1820158989
 10
-6.0830908435
 20
17.1658591477
 10
-6.0638065606
 20
17.1507709751
 10
-6.0422858153
 20
17.137158849
 10
-6.0185795788
 20
17.1253031672
 10
-5.9924577099
 20
17.1152464866
 10
-5.9639612372
 20
17.1073987423
 10
-5.933496342
 20
17.1023868157
 10
-5.901450407
 20
17.1007043839
  0
LWPOLYLINE
  5
363
100
AcDbEntity
  8
ASSI
100
AcDbPolyline
 62
250
  6
CONTINUOUS
 90
13
 70
0
 10
-6.1260659278
 20
17.6029497528
 10
-6.1238369906
 20
17.5708752944
 10
-6.1173855554
 20
17.5393475576
 10
-6.1068215947
 20
17.5089039165
 10
-6.092325175
 20
17.4800632628
 10
-6.0741433907
 20
17.453317169
 10
-6.0525861558
 20
17.4291215081
 10
-6.0280209169
 20
17.4078886761
 10
-6.0008663786
 20
17.3899805583
 10
-5.9715853701
 20
17.3757023711
 10
-5.9406769669
 20
17.3652974672
 10
-5.9086679876
 20
17.3589431835
 10
-5.876104004
 20
17.3567478146
  0
LINE
  5
364
100
AcDbEntity
  8
ASSI
100
AcDbLine
 62
7
  6
CONTINUOUS
 10
-3.9699313003
 20
-22.1215343859
 11
-3.9699313003
 21
-20.5751187747
  0
LINE
  5
365
100
AcDbEntity
  8
ASSI
100
AcDbLine
 62
7
  6
CONTINUOUS
 10
-3.9699313003
 20
20.5765275426
 11
-3.9699313003
 21
22.1229431537
  0
LINE
  5
366
100
AcDbEntity
  8
ASSI
100
AcDbLine
 62
250
  6
CONTINUOUS
 10
-3.3449313003
 20
-1.5242956161
 11
-3.3449313003
 21
-2.1242956161
  0
LINE
  5
367
100
AcDbEntity
  8
ASSI
100
AcDbLine
 62
250
  6
CONTINUOUS
 10
-3.3449313003
 20
2.4041649313
 11
-3.3449313003
 21
2.632990399
  0
LINE
  5
368
100
AcDbEntity
  8
ASSI
100
AcDbLine
 62
250
  6
CONTINUOUS
 10
-3.3449313003
 20
-2.4027561634
 11
-3.3449313003
 21
-2.6315816311
  0
LINE
  5
369
100
AcDbEntity
  8
ASSI
100
AcDbLine
 62
250
  6
CONTINUOUS
 10
-3.3449309885
 20
1.5257043839
 11
-3.3449313003
 21
2.1257043839
  0
LWPOLYLINE
  5
36A
100
AcDbEntity
  8
ASSI
100
AcDbPolyline
 62
250
  6
CONTINUOUS
 90
13
 70
0
 10
-6.1260659278
 20
-17.601540985
 10
-6.1238370126
 20
-17.5694666832
 10
-6.1173856339
 20
-17.537939069
 10
-6.1068217517
 20
-17.5074955121
 10
-6.0923254211
 20
-17.478654905
 10
-6.0741437236
 20
-17.4519088189
 10
-6.0525865555
 20
-17.4277131251
 10
-6.0280213461
 20
-17.406480225
 10
-6.0008667949
 20
-17.3885720208
 10
-5.9715857353
 20
-17.3742937474
 10
-5.9406772457
 20
-17.3638887696
 10
-5.9086681431
 20
-17.357534434
 10
-5.876104004
 20
-17.3553390467
  0
LWPOLYLINE
  5
36B
100
AcDbEntity
  8
ASSI
100
AcDbPolyline
 62
7
  6
CONTINUOUS
 90
16
 70
0
 10
-6.1550183369
 20
-17.3090705239
 10
-6.1536192927
 20
-17.2899512702
 10
-6.1501454721
 20
-17.2710446928
 10
-6.1445287321
 20
-17.2523507917
 10
-6.136734136
 20
-17.2336890553
 10
-6.1267279857
 20
-17.2152399951
 10
-6.1144489431
 20
-17.1975451462
 10
-6.099924422
 20
-17.180571967
 10
-6.0831633307
 20
-17.1643529991
 10
-6.0640408303
 20
-17.1495274018
 10
-6.0425823605
 20
-17.1360051657
 10
-6.0189230781
 20
-17.1238763003
 10
-5.9931028548
 20
-17.1140499938
 10
-5.9652917495
 20
-17.106829309
 10
-5.9358200307
 20
-17.1019111831
 10
-5.9050564131
 20
-17.0992956161
  0
LWPOLYLINE
  5
36C
100
AcDbEntity
  8
ASSI
100
AcDbPolyline
 62
250
  6
CONTINUOUS
 90
7
 70
0
 10
-5.4137966729
 20
-17.601540985
 10
-5.4138773214
 20
-17.6025946795
 10
-5.4139545996
 20
-17.6040356432
 10
-5.4140285074
 20
-17.605863876
 10
-5.4140996138
 20
-17.6081025519
 10
-5.4141673498
 20
-17.6107284968
 10
-5.4142874517
 20
-17.6169409289
  0
LINE
  5
36D
100
AcDbEntity
  8
ASSI
100
AcDbLine
 62
250
  6
CONTINUOUS
 10
-5.6384121937
 20
-17.0992956161
 11
-5.6637587028
 21
-17.3553401191
  0
LINE
  5
36E
100
AcDbEntity
  8
ASSI
100
AcDbLine
 62
250
  6
CONTINUOUS
 10
-5.3848442637
 20
-17.3090705239
 11
-5.4137966729
 21
-17.601540985
  0
LWPOLYLINE
  5
36F
100
AcDbEntity
  8
ASSI
100
AcDbPolyline
 62
7
  6
CONTINUOUS
 90
10
 70
0
 10
-4.8149804066
 20
0.4128391242
 10
-4.8136187363
 20
0.416326838
 10
-4.8122923788
 20
0.4198161268
 10
-4.8110013028
 20
0.4233072933
 10
-4.8097460263
 20
0.4267998297
 10
-4.8085259686
 20
0.4302948486
 10
-4.8073394315
 20
0.4337950689
 10
-4.8061858048
 20
0.4373015808
 10
-4.805065586
 20
0.4408138606
 10
-4.8039787184
 20
0.4443321916
  0
LWPOLYLINE
  5
370
100
AcDbEntity
  8
ASSI
100
AcDbPolyline
 62
7
  6
CONTINUOUS
 90
13
 70
0
 10
-4.814980418
 20
0.4128391274
 10
-4.82999917
 20
0.3794218572
 10
-4.847957789
 20
0.3476537331
 10
-4.8686676641
 20
0.3177682945
 10
-4.89189485
 20
0.2900132653
 10
-4.9174454752
 20
0.2645586341
 10
-4.9451896715
 20
0.2415157488
 10
-4.974907198
 20
0.2210798586
 10
-5.0063560918
 20
0.2034157333
 10
-5.0393871353
 20
0.1886069591
 10
-5.0737842351
 20
0.176794737
 10
-5.1092522163
 20
0.1681491248
 10
-5.1455172488
 20
0.1627937303
  0
LINE
  5
371
100
AcDbEntity
  8
ASSI
100
AcDbLine
 62
250
  6
CONTINUOUS
 10
-5.7291134515
 20
-1.3714076501
 11
-5.7388542887
 21
-1.3901748857
  0
LINE
  5
372
100
AcDbEntity
  8
ASSI
100
AcDbLine
 62
250
  6
CONTINUOUS
 10
-5.7245356776
 20
-1.3627257025
 11
-5.7291134515
 21
-1.3714076501
  0
LINE
  5
373
100
AcDbEntity
  8
ASSI
100
AcDbLine
 62
250
  6
CONTINUOUS
 10
-5.4787461637
 20
-1.4908325227
 11
-5.4939514059
 21
-1.5172591864
  0
LWPOLYLINE
  5
374
100
AcDbEntity
  8
ASSI
100
AcDbPolyline
 62
250
  6
CONTINUOUS
 90
10
 70
0
 10
-5.5527372632
 20
-0.7592955787
 10
-5.5095161286
 20
-0.6899487032
 10
-5.4655467879
 20
-0.6209547451
 10
-5.4208292414
 20
-0.5523137043
 10
-5.3750410545
 20
-0.4835253421
 10
-5.3285046616
 20
-0.4150898973
 10
-5.2821873658
 20
-0.3485080862
 10
-5.2364116014
 20
-0.2842801477
 10
-5.190854934
 20
-0.2219058429
 10
-5.1455173636
 20
-0.1613851718
  0
LWPOLYLINE
  5
375
100
AcDbEntity
  8
ASSI
100
AcDbPolyline
 62
250
  6
CONTINUOUS
 90
9
 70
0
 10
-5.2459009668
 20
-0.9490005303
 10
-5.1997812267
 20
-0.8853085267
 10
-5.15312033
 20
-0.8220054931
 10
-5.1058081009
 20
-0.7592470493
 10
-5.0573582997
 20
-0.6968108172
 10
-5.0080404163
 20
-0.6352732528
 10
-4.9589892356
 20
-0.575854286
 10
-4.9106418298
 20
-0.5189124562
 10
-4.8626286093
 20
-0.4641000596
  0
LINE
  5
376
100
AcDbEntity
  8
ASSI
100
AcDbLine
 62
250
  6
CONTINUOUS
 10
-4.8626286093
 20
-0.4641000596
 11
-4.8149803821
 21
-0.4114303294
  0
LINE
  5
377
100
AcDbEntity
  8
ASSI
100
AcDbLine
 62
7
  6
CONTINUOUS
 10
-7.7297183671
 20
-1.3882832543
 11
-7.7261237338
 21
-1.384688621
  0
LINE
  5
378
100
AcDbEntity
  8
ASSI
100
AcDbLine
 62
7
  6
CONTINUOUS
 10
-10.0158205991
 20
0.1607043839
 11
-10.0699313003
 21
0.1336510938
  0
LINE
  5
379
100
AcDbEntity
  8
ASSI
100
AcDbLine
 62
250
  6
CONTINUOUS
 10
-7.7058758585
 20
-4.2879707507
 11
-6.9339867421
 21
-4.2879707507
  0
LINE
  5
37A
100
AcDbEntity
  8
ASSI
100
AcDbLine
 62
250
  6
CONTINUOUS
 10
6.5941241415
 20
-4.2879707507
 11
7.3660132579
 21
-4.2879707507
  0
LINE
  5
37B
100
AcDbEntity
  8
ASSI
100
AcDbLine
 62
250
  6
CONTINUOUS
 10
7.0678044558
 20
-3.8549580488
 11
6.8923329435
 21
-3.8549580488
  0
LINE
  5
37C
100
AcDbEntity
  8
ASSI
100
AcDbLine
 62
250
  6
CONTINUOUS
 10
-7.2321955442
 20
-3.8549580488
 11
-7.4076670565
 21
-3.8549580488
  0
LINE
  5
37D
100
AcDbEntity
  8
ASSI
100
AcDbLine
 62
250
  6
CONTINUOUS
 10
6.8808124798
 20
-3.4739028745
 11
7.079324953
 21
-3.4739017651
  0
LINE
  5
37E
100
AcDbEntity
  8
ASSI
100
AcDbLine
 62
250
  6
CONTINUOUS
 10
-7.4191875202
 20
-3.4739028745
 11
-7.220675047
 21
-3.4739017651
  0
LINE
  5
37F
100
AcDbEntity
  8
ASSI
100
AcDbLine
 62
7
  6
CONTINUOUS
 10
-10.0699313003
 20
-0.1322423259
 11
-10.0158205991
 21
-0.1592956161
  0
LINE
  5
380
100
AcDbEntity
  8
ASSI
100
AcDbLine
 62
7
  6
CONTINUOUS
 10
-7.7297183671
 20
1.3896920222
 11
-7.7261237338
 21
1.3860973889
  0
LINE
  5
381
100
AcDbEntity
  8
ASSI
100
AcDbLine
 62
250
  6
CONTINUOUS
 10
-4.8623441707
 20
0.465207633
 11
-4.8149804066
 21
0.4128391242
  0
LWPOLYLINE
  5
382
100
AcDbEntity
  8
ASSI
100
AcDbPolyline
 62
250
  6
CONTINUOUS
 90
9
 70
0
 10
-5.2459009679
 20
0.9504092998
 10
-5.1994892006
 20
0.8862930468
 10
-5.1525994511
 20
0.8226988458
 10
-5.1051304197
 20
0.7597729246
 10
-5.0566183698
 20
0.6972872282
 10
-5.0073281788
 20
0.635802157
 10
-4.9583619764
 20
0.5765137082
 10
-4.9101503502
 20
0.5197667511
 10
-4.8623441707
 20
0.465207633
  0
LWPOLYLINE
  5
383
100
AcDbEntity
  8
ASSI
100
AcDbPolyline
 62
250
  6
CONTINUOUS
 90
10
 70
0
 10
-5.5527372613
 20
0.7607043436
 10
-5.5092260932
 20
0.6909097322
 10
-5.4650430673
 20
0.6215908666
 10
-5.4201881835
 20
0.5527477468
 10
-5.3743441312
 20
0.4838946642
 10
-5.3278282211
 20
0.4155173273
 10
-5.2815923847
 20
0.3490728621
 10
-5.2359539324
 20
0.2850469772
 10
-5.1905955538
 20
0.222953964
 10
-5.1455172488
 20
0.1627938224
  0
LINE
  5
384
100
AcDbEntity
  8
ASSI
100
AcDbLine
 62
250
  6
CONTINUOUS
 10
-5.4939514059
 20
1.5186679543
 11
-5.4787788114
 21
1.4921945832
  0
LINE
  5
385
100
AcDbEntity
  8
ASSI
100
AcDbLine
 62
250
  6
CONTINUOUS
 10
-5.729620323
 20
1.3737910975
 11
-5.7245319172
 21
1.3641344703
  0
LINE
  5
386
100
AcDbEntity
  8
ASSI
100
AcDbLine
 62
250
  6
CONTINUOUS
 10
-5.7388542887
 20
1.3915836536
 11
-5.729620323
 21
1.3737910975
  0
LWPOLYLINE
  5
387
100
AcDbEntity
  8
ASSI
100
AcDbPolyline
 62
7
  6
CONTINUOUS
 90
10
 70
0
 10
-4.8039787184
 20
-0.4429234238
 10
-4.8050655862
 20
-0.4394050918
 10
-4.8061858054
 20
-0.4358928112
 10
-4.8073394323
 20
-0.4323862984
 10
-4.8085259708
 20
-0.4288860779
 10
-4.8097460299
 20
-0.4253910587
 10
-4.8110013048
 20
-0.4218985201
 10
-4.812292375
 20
-0.4184073484
 10
-4.8136187237
 20
-0.4149180525
 10
-4.8149803821
 20
-0.4114303294
  0
LINE
  5
388
100
AcDbEntity
  8
ASSI
100
AcDbLine
 62
7
  6
CONTINUOUS
 10
-3.5615063074
 20
22.1600170897
 11
-3.4867125712
 21
20.6792932338
  0
LINE
  5
389
100
AcDbEntity
  8
ASSI
100
AcDbLine
 62
7
  6
CONTINUOUS
 10
-3.4867125712
 20
-20.6778844659
 11
-3.5615063074
 21
-22.1586083218
  0
LINE
  5
38A
100
AcDbEntity
  8
ASSI
100
AcDbLine
 62
7
  6
CONTINUOUS
 10
-5.3665829763
 20
-20.3428318294
 11
-5.3996049107
 21
-20.5751187747
  0
LWPOLYLINE
  5
38B
100
AcDbEntity
  8
ASSI
100
AcDbPolyline
 62
250
  6
CONTINUOUS
 90
13
 70
0
 10
-5.4144361039
 20
-17.9539181304
 10
-5.4170427304
 20
-17.9675724366
 10
-5.4237969836
 20
-17.9809977889
 10
-5.434585609
 20
-17.9939690725
 10
-5.449227704
 20
-18.0062687862
 10
-5.4674777517
 20
-18.0176906898
 10
-5.4890297372
 20
-18.0280432621
 10
-5.5135222792
 20
-18.0371529122
 10
-5.5405446893
 20
-18.0448668905
 10
-5.5696438587
 20
-18.0510558498
 10
-5.6003318558
 20
-18.0556160145
 10
-5.6320941074
 20
-18.05847092
 10
-5.6643980277
 20
-18.0595726958
  0
LINE
  5
38C
100
AcDbEntity
  8
ASSI
100
AcDbLine
 62
250
  6
CONTINUOUS
 10
-5.4787461637
 20
-1.4908325226
 11
-5.3148477849
 21
-1.3762675287
  0
LWPOLYLINE
  5
38D
100
AcDbEntity
  8
ASSI
100
AcDbPolyline
 62
7
  6
CONTINUOUS
 90
10
 70
0
 10
5.398991688
 20
-1.3901748857
 10
5.3667034356
 20
-1.3920212285
 10
5.3354339522
 20
-1.3970653772
 10
5.3051832575
 20
-1.4053073166
 10
5.2756175333
 20
-1.4169193541
 10
5.2470706373
 20
-1.4317291537
 10
5.2205441223
 20
-1.4492197398
 10
5.1963718734
 20
-1.469218784
 10
5.1742200883
 20
-1.4918986012
 10
5.1540888052
 20
-1.5172591864
  0
LWPOLYLINE
  5
38E
100
AcDbEntity
  8
ASSI
100
AcDbPolyline
 62
250
  6
CONTINUOUS
 90
13
 70
0
 10
5.3846693151
 20
-1.3627257062
 10
5.3606735998
 20
-1.3636894594
 10
5.3368402467
 20
-1.3665686192
 10
5.3133216165
 20
-1.3713428675
 10
5.2902730905
 20
-1.377978041
 10
5.2678359708
 20
-1.3864308202
 10
5.2461381167
 20
-1.3966532012
 10
5.225310839
 20
-1.4085869917
 10
5.2054975533
 20
-1.4221538064
 10
5.1868359423
 20
-1.4372600873
 10
5.1694479109
 20
-1.4538053434
 10
5.1534407479
 20
-1.4716855807
 10
5.1389162143
 20
-1.4907858164
  0
LWPOLYLINE
  5
38F
100
AcDbEntity
  8
ASSI
100
AcDbPolyline
 62
7
  6
CONTINUOUS
 90
16
 70
0
 10
3.0050686997
 20
-2.6315816311
 10
3.1728208861
 20
-2.6261517558
 10
3.3397997831
 20
-2.6100511907
 10
3.5053284043
 20
-2.5833615353
 10
3.6686629393
 20
-2.5462261113
 10
3.829221357
 20
-2.4988019196
 10
3.9865724809
 20
-2.4412118976
 10
4.1402210038
 20
-2.3735906569
 10
4.2893704509
 20
-2.2962409647
 10
4.4331696202
 20
-2.2096046223
 10
4.570927752
 20
-2.1141433708
 10
4.7022293316
 20
-2.0101926376
 10
4.8266802194
 20
-1.8980780855
 10
4.943809967
 20
-1.7782076228
 10
5.0530956965
 20
-1.6510977198
 10
5.1540888052
 20
-1.5172591864
  0
LINE
  5
390
100
AcDbEntity
  8
ASSI
100
AcDbLine
 62
250
  6
CONTINUOUS
 10
6.5738762662
 20
-3.0408941692
 11
7.3862611332
 21
-3.0408941692
  0
LINE
  5
391
100
AcDbEntity
  8
ASSI
100
AcDbLine
 62
250
  6
CONTINUOUS
 10
-6.9137388668
 20
-3.0408941692
 11
-7.7261237338
 21
-3.0408941692
  0
LINE
  5
392
100
AcDbEntity
  8
ASSI
100
AcDbLine
 62
250
  6
CONTINUOUS
 10
3.0050686997
 20
-2.6027257025
 11
-3.3449313003
 21
-2.6027257025
  0
LINE
  5
393
100
AcDbEntity
  8
ASSI
100
AcDbLine
 62
250
  6
CONTINUOUS
 10
3.0050686997
 20
-2.4027561634
 11
-3.3449313003
 21
-2.4027561634
  0
LINE
  5
394
100
AcDbEntity
  8
ASSI
100
AcDbLine
 62
7
  6
CONTINUOUS
 10
-3.3449313003
 20
-2.1242956161
 11
3.0050686997
 21
-2.1242956161
  0
LINE
  5
395
100
AcDbEntity
  8
ASSI
100
AcDbLine
 62
7
  6
CONTINUOUS
 10
-3.3449313003
 20
-1.5242956161
 11
3.0050683878
 21
-1.5242956161
  0
LINE
  5
396
100
AcDbEntity
  8
ASSI
100
AcDbLine
 62
7
  6
CONTINUOUS
 10
-3.3449313003
 20
-2.6315816311
 11
3.0050686997
 21
-2.6315816311
  0
LINE
  5
397
100
AcDbEntity
  8
ASSI
100
AcDbLine
 62
250
  6
CONTINUOUS
 10
-5.4787461637
 20
1.4922412905
 11
-5.3148477833
 21
1.3776762983
  0
LWPOLYLINE
  5
398
100
AcDbEntity
  8
ASSI
100
AcDbPolyline
 62
250
  6
CONTINUOUS
 90
13
 70
0
 10
-5.4144361039
 20
17.9553268982
 10
-5.4170427311
 20
17.968981206
 10
-5.423796986
 20
17.9824065595
 10
-5.4345856137
 20
17.9953778439
 10
-5.4492277114
 20
18.007677558
 10
-5.4674777616
 20
18.0190994616
 10
-5.489029749
 20
18.0294520334
 10
-5.5135222918
 20
18.0385616828
 10
-5.5405447015
 20
18.0462756601
 10
-5.5696438694
 20
18.0524646187
 10
-5.600331864
 20
18.0570247826
 10
-5.632094112
 20
18.0598796878
 10
-5.6643980277
 20
18.0609814637
  0
LINE
  5
399
100
AcDbEntity
  8
ASSI
100
AcDbLine
 62
7
  6
CONTINUOUS
 10
-5.3665829763
 20
20.3442405973
 11
-5.3996049107
 21
20.5765275426
  0
LWPOLYLINE
  5
39A
100
AcDbEntity
  8
ASSI
100
AcDbPolyline
 62
250
  6
CONTINUOUS
 90
8
 70
0
 10
-5.3839867421
 20
-15.8633129817
 10
-5.3840788096
 20
-15.8637008562
 10
-5.3841677982
 20
-15.8645936045
 10
-5.384253708
 20
-15.8659912265
 10
-5.3843373754
 20
-15.8679201261
 10
-5.384417964
 20
-15.8703538994
 10
-5.3844929644
 20
-15.8732133349
 10
-5.3846258407
 20
-15.8802348534
  0
LINE
  5
39B
100
AcDbEntity
  8
ASSI
100
AcDbLine
 62
250
  6
CONTINUOUS
 10
-7.7290654546
 20
-5.9084754617
 11
-7.7093059449
 21
-5.8887159521
  0
LINE
  5
39C
100
AcDbEntity
  8
ASSI
100
AcDbLine
 62
250
  6
CONTINUOUS
 10
-7.4293546424
 20
-6.2086732666
 11
-7.4093516364
 21
-6.1886702607
  0
LWPOLYLINE
  5
39D
100
AcDbEntity
  8
ASSI
100
AcDbPolyline
 62
7
  6
CONTINUOUS
 90
13
 70
0
 10
5.2128749884
 20
-0.7592955757
 10
5.1798903383
 20
-0.7608864404
 10
5.1481075592
 20
-0.7651323573
 10
5.117526651
 20
-0.7720333263
 10
5.0880881242
 20
-0.7816165188
 10
5.0598514685
 20
-0.7938547635
 10
5.0329951522
 20
-0.8086665467
 10
5.0073995158
 20
-0.8261142529
 10
4.9831842189
 20
-0.8461354976
 10
4.9608867086
 20
-0.8684616132
 10
4.940686134
 20
-0.893003044
 10
4.922403346
 20
-0.9198493457
 10
4.9060383447
 20
-0.9490005184
  0
LWPOLYLINE
  5
39E
100
AcDbEntity
  8
ASSI
100
AcDbPolyline
 62
250
  6
CONTINUOUS
 90
13
 70
0
 10
5.3847311336
 20
-1.1627561634
 10
5.3442236318
 20
-1.1644649282
 10
5.3045140693
 20
-1.1692652624
 10
5.2656024462
 20
-1.1771571661
 10
5.2272676956
 20
-1.1882292862
 10
5.1897308843
 20
-1.2023929758
 10
5.1536552133
 20
-1.2193822933
 10
5.1190479106
 20
-1.2392514424
 10
5.0859017482
 20
-1.2619462194
 10
5.0548582425
 20
-1.2870380719
 10
5.0261312324
 20
-1.3143841492
 10
4.9995068792
 20
-1.344127302
 10
4.9749851826
 20
-1.3762675304
  0
LWPOLYLINE
  5
39F
100
AcDbEntity
  8
ASSI
100
AcDbPolyline
 62
7
  6
CONTINUOUS
 90
10
 70
0
 10
4.8468025079
 20
-0.1592956161
 10
4.8422557102
 20
-0.1593207355
 10
4.8377036231
 20
-0.1593973215
 10
4.8331462465
 20
-0.1595253741
 10
4.8285849234
 20
-0.1597045019
 10
4.8240183107
 20
-0.1599350963
 10
4.8194423797
 20
-0.1602183314
 10
4.8148557875
 20
-0.1605545985
 10
4.810259877
 20
-0.1609435062
 10
4.8056546481
 20
-0.1613850545
  0
LWPOLYLINE
  5
3A0
100
AcDbEntity
  8
ASSI
100
AcDbPolyline
 62
7
  6
CONTINUOUS
 90
10
 70
0
 10
-5.1866651085
 20
0.1607043839
 10
-5.1821183109
 20
0.1607295033
 10
-5.1775662238
 20
0.1608060893
 10
-5.1730088472
 20
0.1609341419
 10
-5.168447524
 20
0.1611132698
 10
-5.1638809114
 20
0.1613438642
 10
-5.1593049804
 20
0.1616270993
 10
-5.1547183882
 20
0.1619633663
 10
-5.1501224777
 20
0.1623522741
 10
-5.1455172488
 20
0.1627938224
  0
LINE
  5
3A1
100
AcDbEntity
  8
ASSI
100
AcDbLine
 62
7
  6
CONTINUOUS
 10
9.6672948965
 20
-1.3854137829
 11
7.3898557665
 21
-1.3882832543
  0
LINE
  5
3A2
100
AcDbEntity
  8
ASSI
100
AcDbLine
 62
7
  6
CONTINUOUS
 10
6.5694324743
 20
-1.3891324128
 11
5.398991688
 21
-1.3901748857
  0
LINE
  5
3A3
100
AcDbEntity
  8
ASSI
100
AcDbLine
 62
7
  6
CONTINUOUS
 10
-7.2136931754
 20
-1.3795434914
 11
-7.4261694253
 21
-1.3795434914
  0
LINE
  5
3A4
100
AcDbEntity
  8
ASSI
100
AcDbLine
 62
7
  6
CONTINUOUS
 10
6.8738305747
 20
-1.3795434914
 11
7.0863068246
 21
-1.3795434914
  0
LINE
  5
3A5
100
AcDbEntity
  8
ASSI
100
AcDbLine
 62
7
  6
CONTINUOUS
 10
9.6759579984
 20
-1.376750681
 11
7.9300686997
 21
-1.376750681
  0
LINE
  5
3A6
100
AcDbEntity
  8
ASSI
100
AcDbLine
 62
7
  6
CONTINUOUS
 10
-8.2699313003
 20
-1.376750681
 11
-10.0158205991
 21
-1.376750681
  0
LINE
  5
3A7
100
AcDbEntity
  8
ASSI
100
AcDbLine
 62
250
  6
CONTINUOUS
 10
7.9300686997
 20
-1.3627257025
 11
5.3846693165
 21
-1.3627257025
  0
LINE
  5
3A8
100
AcDbEntity
  8
ASSI
100
AcDbLine
 62
250
  6
CONTINUOUS
 10
-5.7245356776
 20
-1.3627257025
 11
-8.2699313003
 21
-1.3627257025
  0
LINE
  5
3A9
100
AcDbEntity
  8
ASSI
100
AcDbLine
 62
250
  6
CONTINUOUS
 10
7.9300686997
 20
-1.1627561634
 11
5.3847311336
 21
-1.1627561634
  0
LINE
  5
3AA
100
AcDbEntity
  8
ASSI
100
AcDbLine
 62
250
  6
CONTINUOUS
 10
-5.7245937343
 20
-1.1627561634
 11
-8.2699313003
 21
-1.1627561634
  0
LINE
  5
3AB
100
AcDbEntity
  8
ASSI
100
AcDbLine
 62
7
  6
CONTINUOUS
 10
-8.2699313003
 20
-0.7592956161
 11
-5.5527375677
 21
-0.7592955787
  0
LINE
  5
3AC
100
AcDbEntity
  8
ASSI
100
AcDbLine
 62
7
  6
CONTINUOUS
 10
5.2128749884
 20
-0.7592955757
 11
7.9300686997
 21
-0.7592956161
  0
LINE
  5
3AD
100
AcDbEntity
  8
ASSI
100
AcDbLine
 62
7
  6
CONTINUOUS
 10
-10.0158205991
 20
-0.1592956161
 11
-5.1866651085
 21
-0.1592956161
  0
LINE
  5
3AE
100
AcDbEntity
  8
ASSI
100
AcDbLine
 62
7
  6
CONTINUOUS
 10
4.8468025078
 20
-0.1592956161
 11
9.6759579984
 21
-0.1592956161
  0
LINE
  5
3AF
100
AcDbEntity
  8
ASSI
100
AcDbLine
 62
7
  6
CONTINUOUS
 10
10.5300229876
 20
-0.1322423259
 11
9.7300686997
 21
-0.1322423259
  0
LINE
  5
3B0
100
AcDbEntity
  8
ASSI
100
AcDbLine
 62
7
  6
CONTINUOUS
 10
-10.0699313003
 20
-0.1322423259
 11
-10.8698855883
 21
-0.1322423259
  0
LINE
  5
3B1
100
AcDbEntity
  8
ASSI
100
AcDbLine
 62
7
  6
CONTINUOUS
 10
-10.8698855883
 20
0.1336510938
 11
-10.0699313003
 21
0.1336510938
  0
LINE
  5
3B2
100
AcDbEntity
  8
ASSI
100
AcDbLine
 62
7
  6
CONTINUOUS
 10
9.7300686997
 20
0.1336510938
 11
10.5300229876
 21
0.1336510938
  0
LINE
  5
3B3
100
AcDbEntity
  8
ASSI
100
AcDbLine
 62
7
  6
CONTINUOUS
 10
9.6759579984
 20
0.1607043839
 11
4.8468025078
 21
0.1607043839
  0
LINE
  5
3B4
100
AcDbEntity
  8
ASSI
100
AcDbLine
 62
7
  6
CONTINUOUS
 10
-5.1866651085
 20
0.1607043839
 11
-10.0158205991
 21
0.1607043839
  0
LINE
  5
3B5
100
AcDbEntity
  8
ASSI
100
AcDbLine
 62
7
  6
CONTINUOUS
 10
-5.7388542887
 20
-1.3901748857
 11
-6.909295075
 21
-1.3891324128
  0
LINE
  5
3B6
100
AcDbEntity
  8
ASSI
100
AcDbLine
 62
7
  6
CONTINUOUS
 10
-7.7297183671
 20
-1.3882832543
 11
-10.0071574972
 21
-1.3854137829
  0
LWPOLYLINE
  5
3B7
100
AcDbEntity
  8
ASSI
100
AcDbPolyline
 62
7
  6
CONTINUOUS
 90
10
 70
0
 10
-5.1455173636
 20
-0.1613851718
 10
-5.1501225661
 20
-0.1609435695
 10
-5.1547184547
 20
-0.1605546216
 10
-5.1593050296
 20
-0.1602183281
 10
-5.1638809493
 20
-0.1599350848
 10
-5.1684475553
 20
-0.1597044958
 10
-5.1730088717
 20
-0.1595253732
 10
-5.1775662401
 20
-0.1593973211
 10
-5.182118319
 20
-0.1593207354
 10
-5.1866651085
 20
-0.1592956161
  0
LWPOLYLINE
  5
3B8
100
AcDbEntity
  8
ASSI
100
AcDbPolyline
 62
7
  6
CONTINUOUS
 90
13
 70
0
 10
-5.1455173636
 20
-0.161384948
 10
-5.1092523521
 20
-0.1667403246
 10
-5.0737843801
 20
-0.175385922
 10
-5.0393872807
 20
-0.1871981317
 10
-5.0063562308
 20
-0.2020068947
 10
-4.9749073253
 20
-0.2196710104
 10
-4.9451897836
 20
-0.2401068951
 10
-4.9174455689
 20
-0.2631497806
 10
-4.8918949236
 20
-0.2886044171
 10
-4.8686677187
 20
-0.3163594554
 10
-4.8479578266
 20
-0.3462449069
 10
-4.8299991919
 20
-0.3780130486
 10
-4.8149804257
 20
-0.4114303417
  0
LINE
  5
3B9
100
AcDbEntity
  8
ASSI
100
AcDbLine
 62
250
  6
CONTINUOUS
 10
-7.7093059449
 20
5.89012472
 11
-7.7290654546
 21
5.9098842296
  0
LINE
  5
3BA
100
AcDbEntity
  8
ASSI
100
AcDbLine
 62
250
  6
CONTINUOUS
 10
-7.4093516364
 20
6.1900790285
 11
-7.4293546424
 21
6.2100820345
  0
LWPOLYLINE
  5
3BB
100
AcDbEntity
  8
ASSI
100
AcDbPolyline
 62
250
  6
CONTINUOUS
 90
13
 70
0
 10
5.0745735033
 20
17.9553268982
 10
5.0771801297
 20
17.9689812045
 10
5.0839343829
 20
17.9824065568
 10
5.0947230083
 20
17.9953778404
 10
5.1093651034
 20
18.0076775541
 10
5.1276151511
 20
18.0190994577
 10
5.1491671365
 20
18.02945203
 10
5.1736596785
 20
18.03856168
 10
5.2006820886
 20
18.0462756583
 10
5.229781258
 20
18.0524646177
 10
5.2604692551
 20
18.0570247824
 10
5.2922315068
 20
18.0598796879
 10
5.3245354271
 20
18.0609814637
  0
LWPOLYLINE
  5
3BC
100
AcDbEntity
  8
ASSI
100
AcDbPolyline
 62
250
  6
CONTINUOUS
 90
8
 70
0
 10
5.0441241415
 20
15.8647217495
 10
5.0442162089
 20
15.8651096241
 10
5.0443051976
 20
15.8660023724
 10
5.0443911073
 20
15.8673999944
 10
5.0444747748
 20
15.869328894
 10
5.0445553633
 20
15.8717626673
 10
5.0446303637
 20
15.8746221028
 10
5.04476324
 20
15.8816436213
  0
LINE
  5
3BD
100
AcDbEntity
  8
ASSI
100
AcDbLine
 62
250
  6
CONTINUOUS
 10
7.0894920417
 20
6.2100820345
 11
7.0694890357
 21
6.1900790285
  0
LINE
  5
3BE
100
AcDbEntity
  8
ASSI
100
AcDbLine
 62
250
  6
CONTINUOUS
 10
7.3892028539
 20
5.9098842296
 11
7.3694433443
 21
5.89012472
  0
LINE
  5
3BF
100
AcDbEntity
  8
ASSI
100
AcDbLine
 62
250
  6
CONTINUOUS
 10
5.138883563
 20
1.4922412905
 11
4.9749851842
 21
1.3776762966
  0
LWPOLYLINE
  5
3C0
100
AcDbEntity
  8
ASSI
100
AcDbPolyline
 62
7
  6
CONTINUOUS
 90
10
 70
0
 10
-5.7388542887
 20
1.3915836536
 10
-5.7065660362
 20
1.3934299964
 10
-5.6752965528
 20
1.398474145
 10
-5.6450458581
 20
1.4067160845
 10
-5.615480134
 20
1.4183281219
 10
-5.5869332379
 20
1.4331379215
 10
-5.5604067229
 20
1.4506285077
 10
-5.536234474
 20
1.4706275519
 10
-5.514082689
 20
1.4933073691
 10
-5.4939514059
 20
1.5186679543
  0
LWPOLYLINE
  5
3C1
100
AcDbEntity
  8
ASSI
100
AcDbPolyline
 62
7
  6
CONTINUOUS
 90
13
 70
0
 10
-5.5527375891
 20
0.7607043436
 10
-5.519752939
 20
0.7622952083
 10
-5.4879701598
 20
0.7665411251
 10
-5.4573892516
 20
0.7734420942
 10
-5.4279507249
 20
0.7830252867
 10
-5.3997140692
 20
0.7952635314
 10
-5.3728577529
 20
0.8100753145
 10
-5.3472621165
 20
0.8275230208
 10
-5.3230468195
 20
0.8475442655
 10
-5.3007493093
 20
0.8698703811
 10
-5.2805487347
 20
0.8944118119
 10
-5.2622659467
 20
0.9212581136
 10
-5.2459009454
 20
0.9504092863
  0
LWPOLYLINE
  5
3C2
100
AcDbEntity
  8
ASSI
100
AcDbPolyline
 62
250
  6
CONTINUOUS
 90
13
 70
0
 10
-5.7245937343
 20
1.1641649313
 10
-5.6840862325
 20
1.1658736961
 10
-5.64437667
 20
1.1706740303
 10
-5.6054650469
 20
1.1785659339
 10
-5.5671302963
 20
1.1896380541
 10
-5.529593485
 20
1.2038017437
 10
-5.4935178139
 20
1.2207910612
 10
-5.4589105113
 20
1.2406602103
 10
-5.4257643488
 20
1.2633549873
 10
-5.3947208432
 20
1.2884468398
 10
-5.3659938331
 20
1.3157929171
 10
-5.3393694798
 20
1.3455360699
 10
-5.3148477833
 20
1.3776762983
  0
LWPOLYLINE
  5
3C3
100
AcDbEntity
  8
ASSI
100
AcDbPolyline
 62
250
  6
CONTINUOUS
 90
13
 70
0
 10
-5.7245319158
 20
1.3641344741
 10
-5.7005362005
 20
1.3650982273
 10
-5.6767028474
 20
1.3679773871
 10
-5.6531842172
 20
1.3727516354
 10
-5.6301356912
 20
1.3793868089
 10
-5.6076985715
 20
1.3878395881
 10
-5.5860007174
 20
1.398061969
 10
-5.5651734397
 20
1.4099957596
 10
-5.545360154
 20
1.4235625743
 10
-5.5266985429
 20
1.4386688552
 10
-5.5093105116
 20
1.4552141113
 10
-5.4933033486
 20
1.4730943486
 10
-5.478778815
 20
1.4921945843
  0
LINE
  5
3C4
100
AcDbEntity
  8
ASSI
100
AcDbLine
 62
7
  6
CONTINUOUS
 10
-10.0071574972
 20
1.3868225508
 11
-7.7297183671
 21
1.3896920222
  0
LINE
  5
3C5
100
AcDbEntity
  8
ASSI
100
AcDbLine
 62
7
  6
CONTINUOUS
 10
-6.909295075
 20
1.3905411807
 11
-5.7388542887
 21
1.3915836536
  0
LINE
  5
3C6
100
AcDbEntity
  8
ASSI
100
AcDbLine
 62
7
  6
CONTINUOUS
 10
7.9300686997
 20
0.7607043839
 11
5.2128749671
 21
0.7607043466
  0
LINE
  5
3C7
100
AcDbEntity
  8
ASSI
100
AcDbLine
 62
7
  6
CONTINUOUS
 10
-5.5527375891
 20
0.7607043436
 11
-8.2699313003
 21
0.7607043839
  0
LINE
  5
3C8
100
AcDbEntity
  8
ASSI
100
AcDbLine
 62
250
  6
CONTINUOUS
 10
-8.2699313003
 20
1.1641649313
 11
-5.7245937343
 21
1.1641649313
  0
LINE
  5
3C9
100
AcDbEntity
  8
ASSI
100
AcDbLine
 62
250
  6
CONTINUOUS
 10
5.3847311336
 20
1.1641649313
 11
7.9300686997
 21
1.1641649313
  0
LINE
  5
3CA
100
AcDbEntity
  8
ASSI
100
AcDbLine
 62
250
  6
CONTINUOUS
 10
-8.2699313003
 20
1.3641344703
 11
-5.7245319172
 21
1.3641344703
  0
LINE
  5
3CB
100
AcDbEntity
  8
ASSI
100
AcDbLine
 62
250
  6
CONTINUOUS
 10
5.3846730769
 20
1.3641344703
 11
7.9300686997
 21
1.3641344703
  0
LINE
  5
3CC
100
AcDbEntity
  8
ASSI
100
AcDbLine
 62
7
  6
CONTINUOUS
 10
-10.0158205991
 20
1.3781594489
 11
-8.2699313003
 21
1.3781594489
  0
LINE
  5
3CD
100
AcDbEntity
  8
ASSI
100
AcDbLine
 62
7
  6
CONTINUOUS
 10
7.9300686997
 20
1.3781594489
 11
9.6759579984
 21
1.3781594489
  0
LINE
  5
3CE
100
AcDbEntity
  8
ASSI
100
AcDbLine
 62
7
  6
CONTINUOUS
 10
-7.2136931754
 20
1.3809522593
 11
-7.4261694253
 21
1.3809522593
  0
LINE
  5
3CF
100
AcDbEntity
  8
ASSI
100
AcDbLine
 62
7
  6
CONTINUOUS
 10
6.8738305747
 20
1.3809522593
 11
7.0863068246
 21
1.3809522593
  0
LINE
  5
3D0
100
AcDbEntity
  8
ASSI
100
AcDbLine
 62
7
  6
CONTINUOUS
 10
3.0050686997
 20
1.5257043839
 11
-3.3449309885
 21
1.5257043839
  0
LINE
  5
3D1
100
AcDbEntity
  8
ASSI
100
AcDbLine
 62
7
  6
CONTINUOUS
 10
5.398991688
 20
1.3915836536
 11
6.5694324743
 21
1.3905411807
  0
LINE
  5
3D2
100
AcDbEntity
  8
ASSI
100
AcDbLine
 62
7
  6
CONTINUOUS
 10
7.3898557665
 20
1.3896920222
 11
9.6672948965
 21
1.3868225508
  0
LWPOLYLINE
  5
3D3
100
AcDbEntity
  8
ASSI
100
AcDbPolyline
 62
7
  6
CONTINUOUS
 90
10
 70
0
 10
4.805654763
 20
0.1627939397
 10
4.8102599654
 20
0.1623523374
 10
4.8148558541
 20
0.1619633895
 10
4.819442429
 20
0.1616270959
 10
4.8240183487
 20
0.1613438527
 10
4.8285849546
 20
0.1611132637
 10
4.833146271
 20
0.1609341411
 10
4.8377036394
 20
0.160806089
 10
4.8422557184
 20
0.1607295033
 10
4.8468025078
 20
0.1607043839
  0
LWPOLYLINE
  5
3D4
100
AcDbEntity
  8
ASSI
100
AcDbPolyline
 62
7
  6
CONTINUOUS
 90
13
 70
0
 10
4.805654763
 20
0.1627937159
 10
4.7693897514
 20
0.1681490925
 10
4.7339217794
 20
0.1767946899
 10
4.6995246801
 20
0.1886068996
 10
4.6664936301
 20
0.2034156626
 10
4.6350447246
 20
0.2210797783
 10
4.6053271829
 20
0.241515663
 10
4.5775829682
 20
0.2645585485
 10
4.5520323229
 20
0.290013185
 10
4.528805118
 20
0.3177682233
 10
4.508095226
 20
0.3476536747
 10
4.4901365912
 20
0.3794218164
 10
4.4751178251
 20
0.4128391096
  0
LINE
  5
3D5
100
AcDbEntity
  8
ASSI
100
AcDbLine
 62
250
  6
CONTINUOUS
 10
5.138883563
 20
-1.4908325226
 11
4.9749851826
 21
-1.3762675304
  0
LINE
  5
3D6
100
AcDbEntity
  8
ASSI
100
AcDbLine
 62
250
  6
CONTINUOUS
 10
7.0694890357
 20
-6.1886702607
 11
7.0894920417
 21
-6.2086732666
  0
LINE
  5
3D7
100
AcDbEntity
  8
ASSI
100
AcDbLine
 62
250
  6
CONTINUOUS
 10
7.3694433443
 20
-5.8887159521
 11
7.3892028539
 21
-5.9084754617
  0
LWPOLYLINE
  5
3D8
100
AcDbEntity
  8
ASSI
100
AcDbPolyline
 62
250
  6
CONTINUOUS
 90
13
 70
0
 10
5.0745735033
 20
-17.9539181304
 10
5.0771801304
 20
-17.9675724381
 10
5.0839343853
 20
-17.9809977916
 10
5.094723013
 20
-17.993969076
 10
5.1093651107
 20
-18.0062687901
 10
5.1276151609
 20
-18.0176906937
 10
5.1491671483
 20
-18.0280432656
 10
5.1736596911
 20
-18.0371529149
 10
5.2006821008
 20
-18.0448668923
 10
5.2297812688
 20
-18.0510558508
 10
5.2604692633
 20
-18.0556160147
 10
5.2922315113
 20
-18.0584709199
 10
5.3245354271
 20
-18.0595726958
  0
LINE
  5
3D9
100
AcDbEntity
  8
ASSI
100
AcDbLine
 62
250
  6
CONTINUOUS
 10
5.0739340722
 20
-17.601540985
 11
5.0449816631
 21
-17.3090705239
  0
LINE
  5
3DA
100
AcDbEntity
  8
ASSI
100
AcDbLine
 62
7
  6
CONTINUOUS
 10
3.2216437067
 20
-22.1586083218
 11
3.1468499705
 21
-20.6778844659
  0
LINE
  5
3DB
100
AcDbEntity
  8
ASSI
100
AcDbLine
 62
250
  6
CONTINUOUS
 10
3.0050683878
 20
-1.5242956161
 11
3.0050686997
 21
-2.1242956161
  0
LINE
  5
3DC
100
AcDbEntity
  8
ASSI
100
AcDbLine
 62
250
  6
CONTINUOUS
 10
3.0050686997
 20
1.5257043839
 11
3.0050686997
 21
2.1257043839
  0
LINE
  5
3DD
100
AcDbEntity
  8
ASSI
100
AcDbLine
 62
250
  6
CONTINUOUS
 10
3.0050686997
 20
2.4041649313
 11
3.0050686997
 21
2.632990399
  0
LINE
  5
3DE
100
AcDbEntity
  8
ASSI
100
AcDbLine
 62
250
  6
CONTINUOUS
 10
3.0050686997
 20
-2.4027561634
 11
3.0050686997
 21
-2.6315816311
  0
LINE
  5
3DF
100
AcDbEntity
  8
ASSI
100
AcDbLine
 62
7
  6
CONTINUOUS
 10
3.1468499705
 20
20.6792932338
 11
3.2216437067
 21
22.1600170897
  0
LINE
  5
3E0
100
AcDbEntity
  8
ASSI
100
AcDbLine
 62
250
  6
CONTINUOUS
 10
5.0449816631
 20
17.3104792917
 11
5.0739340722
 21
17.6029497528
  0
LINE
  5
3E1
100
AcDbEntity
  8
ASSI
100
AcDbLine
 62
7
  6
CONTINUOUS
 10
5.0267203757
 20
20.3442405973
 11
5.05974231
 21
20.5765275426
  0
LINE
  5
3E2
100
AcDbEntity
  8
ASSI
100
AcDbLine
 62
250
  6
CONTINUOUS
 10
4.5227660086
 20
0.4655088275
 11
4.4751177814
 21
0.4128390973
  0
LWPOLYLINE
  5
3E3
100
AcDbEntity
  8
ASSI
100
AcDbPolyline
 62
7
  6
CONTINUOUS
 90
16
 70
0
 10
-3.3449313003
 20
2.632990399
 10
-3.5126834868
 20
2.6275605237
 10
-3.6796623838
 20
2.6114599586
 10
-3.845191005
 20
2.5847703032
 10
-4.0085255399
 20
2.5476348792
 10
-4.1690839577
 20
2.5002106875
 10
-4.3264350815
 20
2.4426206655
 10
-4.4800836044
 20
2.3749994247
 10
-4.6292330516
 20
2.2976497326
 10
-4.7730322209
 20
2.2110133902
 10
-4.9107903526
 20
2.1155521387
 10
-5.0420919323
 20
2.0116014055
 10
-5.1665428201
 20
1.8994868534
 10
-5.2836725677
 20
1.7796163907
 10
-5.3929582972
 20
1.6525064877
 10
-5.4939514059
 20
1.5186679543
  0
LINE
  5
3E4
100
AcDbEntity
  8
ASSI
100
AcDbLine
 62
7
  6
CONTINUOUS
 10
3.0050686997
 20
2.1257043839
 11
-3.3449313003
 21
2.1257043839
  0
LINE
  5
3E5
100
AcDbEntity
  8
ASSI
100
AcDbLine
 62
250
  6
CONTINUOUS
 10
-3.3449313003
 20
2.4041649313
 11
3.0050686997
 21
2.4041649313
  0
LINE
  5
3E6
100
AcDbEntity
  8
ASSI
100
AcDbLine
 62
250
  6
CONTINUOUS
 10
-3.3449313003
 20
2.6041344703
 11
3.0050686997
 21
2.6041344703
  0
LINE
  5
3E7
100
AcDbEntity
  8
ASSI
100
AcDbLine
 62
250
  6
CONTINUOUS
 10
-6.9137388668
 20
3.0423029371
 11
-7.7261237338
 21
3.0423029371
  0
LINE
  5
3E8
100
AcDbEntity
  8
ASSI
100
AcDbLine
 62
250
  6
CONTINUOUS
 10
7.3862611332
 20
3.0423029371
 11
6.5738762662
 21
3.0423029371
  0
LINE
  5
3E9
100
AcDbEntity
  8
ASSI
100
AcDbLine
 62
250
  6
CONTINUOUS
 10
7.0793249195
 20
3.4753116424
 11
6.8808124463
 21
3.4753105329
  0
LINE
  5
3EA
100
AcDbEntity
  8
ASSI
100
AcDbLine
 62
250
  6
CONTINUOUS
 10
-7.2206750805
 20
3.4753116424
 11
-7.4191875537
 21
3.4753105329
  0
LINE
  5
3EB
100
AcDbEntity
  8
ASSI
100
AcDbLine
 62
7
  6
CONTINUOUS
 10
3.0050686997
 20
2.632990399
 11
-3.3449313003
 21
2.632990399
  0
LINE
  5
3EC
100
AcDbEntity
  8
ASSI
100
AcDbLine
 62
250
  6
CONTINUOUS
 10
4.52248157
 20
-0.4637988651
 11
4.4751178059
 21
-0.4114303563
  0
LINE
  5
3ED
100
AcDbEntity
  8
ASSI
100
AcDbLine
 62
7
  6
CONTINUOUS
 10
5.0267203757
 20
-20.3428318294
 11
5.05974231
 21
-20.5751187747
  0
LINE
  5
3EE
100
AcDbEntity
  8
ASSI
100
AcDbLine
 62
250
  6
CONTINUOUS
 10
5.3238961022
 20
-17.3553401191
 11
5.298549593
 21
-17.0992956161
  0
LWPOLYLINE
  5
3EF
100
AcDbEntity
  8
ASSI
100
AcDbPolyline
 62
7
  6
CONTINUOUS
 90
16
 70
0
 10
5.8151557363
 20
-17.3090705239
 10
5.8137814316
 20
-17.2905414838
 10
5.8103712014
 20
-17.2717229893
 10
5.804829341
 20
-17.2528118876
 10
5.797082526
 20
-17.2340768189
 10
5.7870759781
 20
-17.2156976924
 10
5.7747598691
 20
-17.1977711964
 10
5.7601437224
 20
-17.180607131
 10
5.7432282428
 20
-17.1644503799
 10
5.7239439599
 20
-17.1493622072
 10
5.7024232146
 20
-17.1357500811
 10
5.6787169782
 20
-17.1238943993
 10
5.6525951093
 20
-17.1138377187
 10
5.6240986365
 20
-17.1059899744
 10
5.5936337413
 20
-17.1009780478
 10
5.5615878063
 20
-17.0992956161
  0
LWPOLYLINE
  5
3F0
100
AcDbEntity
  8
ASSI
100
AcDbPolyline
 62
250
  6
CONTINUOUS
 90
13
 70
0
 10
5.7862033271
 20
-17.601540985
 10
5.7839743899
 20
-17.5694665265
 10
5.7775229548
 20
-17.5379387897
 10
5.7669589941
 20
-17.5074951487
 10
5.7524625743
 20
-17.478654495
 10
5.73428079
 20
-17.4519084011
 10
5.7127235551
 20
-17.4277127402
 10
5.6881583162
 20
-17.4064799083
 10
5.661003778
 20
-17.3885717904
 10
5.6317227694
 20
-17.3742936032
 10
5.6008143662
 20
-17.3638886993
 10
5.568805387
 20
-17.3575344156
 10
5.5362414033
 20
-17.3553390467
  0
LWPOLYLINE
  5
3F1
100
AcDbEntity
  8
ASSI
100
AcDbPolyline
 62
250
  6
CONTINUOUS
 90
13
 70
0
 10
5.8160132579
 20
-15.8633129817
 10
5.8138656882
 20
-15.8306926689
 10
5.807479583
 20
-15.7986302873
 10
5.7969641697
 20
-15.767674221
 10
5.7824993017
 20
-15.7383539314
 10
5.7643323827
 20
-15.7111709027
 10
5.7427741358
 20
-15.6865900641
 10
5.718193288
 20
-15.6650318371
 10
5.6910102624
 20
-15.6468649436
 10
5.6616899872
 20
-15.6324001015
 10
5.6307339461
 20
-15.6218847106
 10
5.5986716008
 20
-15.6154986215
 10
5.5660513341
 20
-15.6133510579
  0
LWPOLYLINE
  5
3F2
100
AcDbEntity
  8
ASSI
100
AcDbPolyline
 62
250
  6
CONTINUOUS
 90
7
 70
0
 10
5.0446303628
 20
-15.8732132958
 10
5.0445553635
 20
-15.8703538847
 10
5.0444747766
 20
-15.8679201549
 10
5.0443911102
 20
-15.8659912821
 10
5.0443052002
 20
-15.8645936582
 10
5.0442162106
 20
-15.8637008914
 10
5.0441241415
 20
-15.8633129817
  0
LWPOLYLINE
  5
3F3
100
AcDbEntity
  8
ASSI
100
AcDbPolyline
 62
250
  6
CONTINUOUS
 90
6
 70
0
 10
5.0743047491
 20
-17.6107284968
 10
5.0742370131
 20
-17.6081025519
 10
5.0741659067
 20
-17.605863876
 10
5.0740919989
 20
-17.6040356432
 10
5.0740147208
 20
-17.6025946795
 10
5.0739340722
 20
-17.601540985
  0
LINE
  5
3F4
100
AcDbEntity
  8
ASSI
100
AcDbLine
 62
250
  6
CONTINUOUS
 10
5.074424851
 20
-17.6169409289
 11
5.0743047491
 21
-17.6107284968
  0
LINE
  5
3F5
100
AcDbEntity
  8
ASSI
100
AcDbLine
 62
250
  6
CONTINUOUS
 10
5.0447632399
 20
-15.8802348628
 11
5.0446303628
 21
-15.8732132958
  0
LWPOLYLINE
  5
3F6
100
AcDbEntity
  8
ASSI
100
AcDbPolyline
 62
250
  6
CONTINUOUS
 90
3
 70
0
 10
5.2942666307
 20
-15.6208305409
 10
5.2941776432
 20
-15.6154888338
 10
5.2940856218
 20
-15.6133483913
  0
LINE
  5
3F7
100
AcDbEntity
  8
ASSI
100
AcDbLine
 62
250
  6
CONTINUOUS
 10
5.0745232126
 20
-17.6243402304
 11
5.074424851
 21
-17.6169409289
  0
LINE
  5
3F8
100
AcDbEntity
  8
ASSI
100
AcDbLine
 62
250
  6
CONTINUOUS
 10
5.0448676248
 20
-15.8886179209
 11
5.0447632399
 21
-15.8802348628
  0
LINE
  5
3F9
100
AcDbEntity
  8
ASSI
100
AcDbLine
 62
250
  6
CONTINUOUS
 10
5.0746216848
 20
-17.6370452167
 11
5.0745232126
 21
-17.6243402304
  0
LINE
  5
3FA
100
AcDbEntity
  8
ASSI
100
AcDbLine
 62
250
  6
CONTINUOUS
 10
5.0449629038
 20
-15.9030081865
 11
5.0448676248
 21
-15.8886179209
  0
LINE
  5
3FB
100
AcDbEntity
  8
ASSI
100
AcDbLine
 62
250
  6
CONTINUOUS
 10
5.0746512865
 20
-17.6460880796
 11
5.0746216848
 21
-17.6370452167
  0
LINE
  5
3FC
100
AcDbEntity
  8
ASSI
100
AcDbLine
 62
250
  6
CONTINUOUS
 10
5.0449816631
 20
-15.9133053664
 11
5.0449629038
 21
-15.9030081865
  0
LINE
  5
3FD
100
AcDbEntity
  8
ASSI
100
AcDbLine
 62
7
  6
CONTINUOUS
 10
5.0233087444
 20
-15.8424975845
 11
5.0267203757
 21
-20.3428318294
  0
LINE
  5
3FE
100
AcDbEntity
  8
ASSI
100
AcDbLine
 62
7
  6
CONTINUOUS
 10
3.6300686997
 20
22.1229431537
 11
3.6300686997
 21
20.5765275426
  0
LINE
  5
3FF
100
AcDbEntity
  8
ASSI
100
AcDbLine
 62
7
  6
CONTINUOUS
 10
3.6300686997
 20
-20.5751187747
 11
3.6300686997
 21
-22.1215343859
  0
LINE
  5
400
100
AcDbEntity
  8
ASSI
100
AcDbLine
 62
7
  6
CONTINUOUS
 10
5.0267203757
 20
20.3442405973
 11
5.0233087444
 21
15.8439063524
  0
LINE
  5
401
100
AcDbEntity
  8
ASSI
100
AcDbLine
 62
250
  6
CONTINUOUS
 10
5.0449402664
 20
15.8994998713
 11
5.0449816631
 21
15.9147141343
  0
LINE
  5
402
100
AcDbEntity
  8
ASSI
100
AcDbLine
 62
250
  6
CONTINUOUS
 10
5.0745957904
 20
17.6340671638
 11
5.0746512865
 21
17.6474968475
  0
LINE
  5
403
100
AcDbEntity
  8
ASSI
100
AcDbLine
 62
250
  6
CONTINUOUS
 10
5.0448676242
 20
15.8900266329
 11
5.0449402664
 21
15.8994998713
  0
LINE
  5
404
100
AcDbEntity
  8
ASSI
100
AcDbLine
 62
250
  6
CONTINUOUS
 10
5.0744772169
 20
17.6219361839
 11
5.0745957904
 21
17.6340671638
  0
LINE
  5
405
100
AcDbEntity
  8
ASSI
100
AcDbLine
 62
250
  6
CONTINUOUS
 10
5.04476324
 20
15.8816436213
 11
5.0448676242
 21
15.8900266329
  0
LWPOLYLINE
  5
406
100
AcDbEntity
  8
ASSI
100
AcDbPolyline
 62
250
  6
CONTINUOUS
 90
5
 70
0
 10
5.294085623
 20
15.6147571663
 10
5.294177642
 20
15.6168975574
 10
5.2942666281
 20
15.6222391217
 10
5.2943525812
 20
15.6307192349
 10
5.2945922427
 20
15.6738692075
  0
LWPOLYLINE
  5
407
100
AcDbEntity
  8
ASSI
100
AcDbPolyline
 62
7
  6
CONTINUOUS
 90
16
 70
0
 10
5.8362521498
 20
15.8444828576
 10
5.8349007881
 20
15.8183265769
 10
5.8308270572
 20
15.7924621925
 10
5.8240777305
 20
15.7671724082
 10
5.814727898
 20
15.7427302568
 10
5.8028822781
 20
15.7194055351
 10
5.7886768315
 20
15.6974604779
 10
5.7722848908
 20
15.6771475092
 10
5.7538786798
 20
15.6586667309
 10
5.7336182627
 20
15.6421851577
 10
5.711688578
 20
15.6278749658
 10
5.6883489557
 20
15.6159254306
 10
5.6638952085
 20
15.6064939112
 10
5.638612704
 20
15.5996848729
 10
5.6127658817
 20
15.5955635319
 10
5.5866389731
 20
15.5941721867
  0
LWPOLYLINE
  5
408
100
AcDbEntity
  8
ASSI
100
AcDbPolyline
 62
250
  6
CONTINUOUS
 90
13
 70
0
 10
5.8160132579
 20
15.8647217495
 10
5.8138656913
 20
15.8321014602
 10
5.8074795943
 20
15.800039097
 10
5.7969641923
 20
15.7690830433
 10
5.7824993373
 20
15.7397627608
 10
5.7643324309
 20
15.7125797333
 10
5.7427741938
 20
15.6879988898
 10
5.7181933503
 20
15.6664406527
 10
5.6910103228
 20
15.6482737463
 10
5.6616900403
 20
15.6338088913
 10
5.6307339866
 20
15.6232934893
 10
5.5986716234
 20
15.6169073923
 10
5.5660513341
 20
15.6147598258
  0
LWPOLYLINE
  5
409
100
AcDbEntity
  8
ASSI
100
AcDbPolyline
 62
250
  6
CONTINUOUS
 90
13
 70
0
 10
5.7862033271
 20
17.6029497528
 10
5.7839744119
 20
17.5708754511
 10
5.7775230332
 20
17.5393478369
 10
5.766959151
 20
17.50890428
 10
5.7524628205
 20
17.4800636729
 10
5.7342811229
 20
17.4533175868
 10
5.7127239549
 20
17.429121893
 10
5.6881587454
 20
17.4078889929
 10
5.6610041942
 20
17.3899807887
 10
5.6317231346
 20
17.3757025153
 10
5.600814645
 20
17.3652975375
 10
5.5688055425
 20
17.3589432019
 10
5.5362414033
 20
17.3567478146
  0
LWPOLYLINE
  5
40A
100
AcDbEntity
  8
ASSI
100
AcDbPolyline
 62
7
  6
CONTINUOUS
 90
16
 70
0
 10
5.8151557363
 20
17.3104792917
 10
5.813756692
 20
17.2913600381
 10
5.8102828714
 20
17.2724534607
 10
5.8046661315
 20
17.2537595596
 10
5.7968715353
 20
17.2350978232
 10
5.786865385
 20
17.216648763
 10
5.7745863424
 20
17.1989539141
 10
5.7600618213
 20
17.1819807349
 10
5.74330073
 20
17.165761767
 10
5.7241782297
 20
17.1509361697
 10
5.7027197599
 20
17.1374139336
 10
5.6790604774
 20
17.1252850682
 10
5.6532402541
 20
17.1154587617
 10
5.6254291488
 20
17.1082380769
 10
5.59595743
 20
17.1033199509
 10
5.5651938125
 20
17.1007043839
  0
LWPOLYLINE
  5
40B
100
AcDbEntity
  8
ASSI
100
AcDbPolyline
 62
250
  6
CONTINUOUS
 90
8
 70
0
 10
5.0739340722
 20
17.6029497528
 10
5.0740147208
 20
17.6040034474
 10
5.0740919989
 20
17.6054444111
 10
5.0741659067
 20
17.6072726439
 10
5.0742370131
 20
17.6095113197
 10
5.0743047491
 20
17.6121372647
 10
5.0743674077
 20
17.6150809572
 10
5.0744772169
 20
17.6219361839
  0
LINE
  5
40C
100
AcDbEntity
  8
ASSI
100
AcDbLine
 62
250
  6
CONTINUOUS
 10
5.298549593
 20
17.1007043839
 11
5.3238961022
 21
17.356748887
  0
LWPOLYLINE
  5
40D
100
AcDbEntity
  8
ASSI
100
AcDbPolyline
 62
7
  6
CONTINUOUS
 90
10
 70
0
 10
4.4751178059
 20
-0.4114303563
 10
4.4737561356
 20
-0.4149180701
 10
4.4724297781
 20
-0.4184073589
 10
4.4711387022
 20
-0.4218985254
 10
4.4698834256
 20
-0.4253910618
 10
4.4686633679
 20
-0.4288860808
 10
4.4674768308
 20
-0.4323863011
 10
4.4663232042
 20
-0.435892813
 10
4.4652029853
 20
-0.4394050927
 10
4.4641161178
 20
-0.4429234237
  0
LWPOLYLINE
  5
40E
100
AcDbEntity
  8
ASSI
100
AcDbPolyline
 62
7
  6
CONTINUOUS
 90
13
 70
0
 10
4.4751178173
 20
-0.4114303595
 10
4.4901365693
 20
-0.3780130894
 10
4.5080951884
 20
-0.3462449653
 10
4.5288050634
 20
-0.3163595266
 10
4.5520322494
 20
-0.2886044974
 10
4.5775828745
 20
-0.2631498662
 10
4.6053270708
 20
-0.2401069809
 10
4.6350445973
 20
-0.2196710907
 10
4.6664934911
 20
-0.2020069655
 10
4.6995245347
 20
-0.1871981912
 10
4.7339216344
 20
-0.1753859692
 10
4.7693896156
 20
-0.1667403569
 10
4.8056546481
 20
-0.1613849624
  0
LINE
  5
40F
100
AcDbEntity
  8
ASSI
100
AcDbLine
 62
250
  6
CONTINUOUS
 10
5.3892508508
 20
1.372816418
 11
5.398991688
 21
1.3915836536
  0
LINE
  5
410
100
AcDbEntity
  8
ASSI
100
AcDbLine
 62
250
  6
CONTINUOUS
 10
5.3846730769
 20
1.3641344703
 11
5.3892508508
 21
1.372816418
  0
LINE
  5
411
100
AcDbEntity
  8
ASSI
100
AcDbLine
 62
250
  6
CONTINUOUS
 10
5.138883563
 20
1.4922412905
 11
5.1540888052
 21
1.5186679543
  0
LWPOLYLINE
  5
412
100
AcDbEntity
  8
ASSI
100
AcDbPolyline
 62
250
  6
CONTINUOUS
 90
10
 70
0
 10
5.2128746625
 20
0.7607043466
 10
5.1696535279
 20
0.6913574711
 10
5.1256841873
 20
0.622363513
 10
5.0809666407
 20
0.5537224722
 10
5.0351784538
 20
0.48493411
 10
4.988642061
 20
0.4164986652
 10
4.9423247652
 20
0.3499168541
 10
4.8965490007
 20
0.2856889156
 10
4.8509923333
 20
0.2233146107
 10
4.805654763
 20
0.1627939397
  0
LWPOLYLINE
  5
413
100
AcDbEntity
  8
ASSI
100
AcDbPolyline
 62
250
  6
CONTINUOUS
 90
9
 70
0
 10
4.9060383661
 20
0.9504092982
 10
4.859918626
 20
0.8867172945
 10
4.8132577293
 20
0.823414261
 10
4.7659455003
 20
0.7606558172
 10
4.717495699
 20
0.6982195851
 10
4.6681778156
 20
0.6366820207
 10
4.619126635
 20
0.5772630539
 10
4.5707792291
 20
0.5203212241
 10
4.5227660086
 20
0.4655088275
  0
LINE
  5
414
100
AcDbEntity
  8
ASSI
100
AcDbLine
 62
7
  6
CONTINUOUS
 10
7.3898557665
 20
1.3896920222
 11
7.3862611332
 21
1.3860973889
  0
LINE
  5
415
100
AcDbEntity
  8
ASSI
100
AcDbLine
 62
7
  6
CONTINUOUS
 10
9.6759579984
 20
-0.1592956161
 11
9.7300686997
 21
-0.1322423259
  0
LINE
  5
416
100
AcDbEntity
  8
ASSI
100
AcDbLine
 62
250
  6
CONTINUOUS
 10
-7.4076670565
 20
3.8563668166
 11
-7.2321955442
 21
3.8563668166
  0
LINE
  5
417
100
AcDbEntity
  8
ASSI
100
AcDbLine
 62
250
  6
CONTINUOUS
 10
6.8923329435
 20
3.8563668166
 11
7.0678044558
 21
3.8563668166
  0
LINE
  5
418
100
AcDbEntity
  8
ASSI
100
AcDbLine
 62
250
  6
CONTINUOUS
 10
-7.7058758585
 20
4.2893795185
 11
-6.9339867421
 21
4.2893795185
  0
LINE
  5
419
100
AcDbEntity
  8
ASSI
100
AcDbLine
 62
250
  6
CONTINUOUS
 10
6.5941241415
 20
4.2893795185
 11
7.3660132579
 21
4.2893795185
  0
LINE
  5
41A
100
AcDbEntity
  8
ASSI
100
AcDbLine
 62
7
  6
CONTINUOUS
 10
9.7300686997
 20
0.1336510938
 11
9.6759579984
 21
0.1607043839
  0
LINE
  5
41B
100
AcDbEntity
  8
ASSI
100
AcDbLine
 62
7
  6
CONTINUOUS
 10
7.3898557665
 20
-1.3882832543
 11
7.3862611332
 21
-1.384688621
  0
LWPOLYLINE
  5
41C
100
AcDbEntity
  8
ASSI
100
AcDbPolyline
 62
7
  6
CONTINUOUS
 90
10
 70
0
 10
5.1540888052
 20
1.5186679543
 10
5.1742200883
 20
1.4933073691
 10
5.1963718734
 20
1.4706275519
 10
5.2205441223
 20
1.4506285077
 10
5.2470706373
 20
1.4331379215
 10
5.2756175333
 20
1.4183281219
 10
5.3051832575
 20
1.4067160845
 10
5.3354339522
 20
1.398474145
 10
5.3667034356
 20
1.3934299964
 10
5.398991688
 20
1.3915836536
  0
LWPOLYLINE
  5
41D
100
AcDbEntity
  8
ASSI
100
AcDbPolyline
 62
250
  6
CONTINUOUS
 90
13
 70
0
 10
4.9749851826
 20
1.3776762983
 10
4.9995202076
 20
1.3455278359
 10
5.0261463025
 20
1.3157830006
 10
5.0548634674
 20
1.2884417922
 10
5.0858760853
 20
1.2633669611
 10
5.1189797731
 20
1.240695757
 10
5.153561382
 20
1.2208399286
 10
5.1896435638
 20
1.2038436299
 10
5.2272036667
 20
1.1896627069
 10
5.2655605855
 20
1.1785764469
 10
5.3044872855
 20
1.1706779454
 10
5.3442108015
 20
1.1658741069
 10
5.3847311336
 20
1.1641649313
  0
LWPOLYLINE
  5
41E
100
AcDbEntity
  8
ASSI
100
AcDbPolyline
 62
250
  6
CONTINUOUS
 90
13
 70
0
 10
5.138883563
 20
1.4922412905
 10
5.1534318136
 20
1.4731051732
 10
5.169456438
 20
1.4552053246
 10
5.1868523625
 20
1.4386544388
 10
5.2055016755
 20
1.4235594986
 10
5.2252869197
 20
1.4100107657
 10
5.246094339
 20
1.3980847806
 10
5.2677958295
 20
1.3878565783
 10
5.29024883
 20
1.3793948593
 10
5.3133116028
 20
1.3727540893
 10
5.3368374391
 20
1.3679778403
 10
5.36067544
 20
1.3650980786
 10
5.3846730756
 20
1.3641344735
  0
LWPOLYLINE
  5
41F
100
AcDbEntity
  8
ASSI
100
AcDbPolyline
 62
7
  6
CONTINUOUS
 90
16
 70
0
 10
5.1540888052
 20
1.5186679543
 10
5.0530856253
 20
1.6525189859
 10
4.9437887098
 20
1.7796395786
 10
4.8266468819
 20
1.8995188652
 10
4.702182781
 20
2.0116407308
 10
4.5708674871
 20
2.1155968047
 10
4.4330968775
 20
2.2110604406
 10
4.2892858218
 20
2.2976971066
 10
4.1401263999
 20
2.3750447127
 10
3.986475119
 20
2.4426598554
 10
3.8291332285
 20
2.5002397944
 10
3.6685924653
 20
2.5476532781
 10
3.5052765803
 20
2.5847803623
 10
3.3397648075
 20
2.6114644602
 10
3.1728032556
 20
2.6275616581
 10
3.0050686997
 20
2.632990399
  0
LWPOLYLINE
  5
420
100
AcDbEntity
  8
ASSI
100
AcDbPolyline
 62
250
  6
CONTINUOUS
 90
9
 70
0
 10
4.9060383672
 20
-0.9490005319
 10
4.8596265999
 20
-0.8848842789
 10
4.8127368504
 20
-0.8212900779
 10
4.765267819
 20
-0.7583641567
 10
4.7167557691
 20
-0.6958784603
 10
4.6674655782
 20
-0.6343933891
 10
4.6184993757
 20
-0.5751049403
 10
4.5702877495
 20
-0.5183579832
 10
4.52248157
 20
-0.4637988651
  0
LWPOLYLINE
  5
421
100
AcDbEntity
  8
ASSI
100
AcDbPolyline
 62
250
  6
CONTINUOUS
 90
10
 70
0
 10
5.2128746606
 20
-0.7592955757
 10
5.1693634926
 20
-0.6895009643
 10
5.1251804666
 20
-0.6201820987
 10
5.0803255828
 20
-0.5513389789
 10
5.0344815306
 20
-0.4824858963
 10
4.9879656204
 20
-0.4141085594
 10
4.941729784
 20
-0.3476640942
 10
4.8960913317
 20
-0.2836382093
 10
4.8507329531
 20
-0.2215451961
 10
4.8056546481
 20
-0.1613850545
  0
LINE
  5
422
100
AcDbEntity
  8
ASSI
100
AcDbLine
 62
250
  6
CONTINUOUS
 10
5.1540888052
 20
-1.5172591864
 11
5.1389162107
 21
-1.4907858153
  0
LWPOLYLINE
  5
423
100
AcDbEntity
  8
ASSI
100
AcDbPolyline
 62
7
  6
CONTINUOUS
 90
13
 70
0
 10
4.9060383404
 20
0.9504092927
 10
4.9223622242
 20
0.9212882875
 10
4.94063884
 20
0.8944487736
 10
4.9608681878
 20
0.869890751
 10
4.9832507303
 20
0.8475067479
 10
5.0075860048
 20
0.8274042361
 10
5.0332726231
 20
0.8099056309
 10
5.0601728195
 20
0.7951012383
 10
5.0884243597
 20
0.7829007524
 10
5.1178391536
 20
0.7733556705
 10
5.1483545044
 20
0.7664831585
 10
5.1800331089
 20
0.7622660505
 10
5.2128749671
 20
0.7607043466
  0
LINE
  5
424
100
AcDbEntity
  8
ASSI
100
AcDbLine
 62
250
  6
CONTINUOUS
 10
5.3897577223
 20
-1.3723823296
 11
5.3846693165
 21
-1.3627257025
  0
LINE
  5
425
100
AcDbEntity
  8
ASSI
100
AcDbLine
 62
250
  6
CONTINUOUS
 10
5.398991688
 20
-1.3901748857
 11
5.3897577223
 21
-1.3723823296
  0
LWPOLYLINE
  5
426
100
AcDbEntity
  8
ASSI
100
AcDbPolyline
 62
7
  6
CONTINUOUS
 90
10
 70
0
 10
4.4641161177
 20
0.4443321917
 10
4.4652029856
 20
0.4408138597
 10
4.4663232047
 20
0.4373015791
 10
4.4674768317
 20
0.4337950663
 10
4.4686633701
 20
0.4302948458
 10
4.4698834292
 20
0.4267998266
 10
4.4711387041
 20
0.4233072879
 10
4.4724297743
 20
0.4198161163
 10
4.473756123
 20
0.4163268204
 10
4.4751177814
 20
0.4128390973
  0
LWPOLYLINE
  5
427
100
AcDbEntity
  8
ASSI
100
AcDbPolyline
 62
7
  6
CONTINUOUS
 90
16
 70
0
 10
5.0449816631
 20
17.3104792917
 10
5.0463559677
 20
17.2919502517
 10
5.049766198
 20
17.2731317572
 10
5.0553080584
 20
17.2542206555
 10
5.0630548733
 20
17.2354855868
 10
5.0730614212
 20
17.2171064603
 10
5.0853775303
 20
17.1991799643
 10
5.0999936769
 20
17.1820158989
 10
5.1169091565
 20
17.1658591477
 10
5.1361934394
 20
17.1507709751
 10
5.1577141847
 20
17.137158849
 10
5.1814204212
 20
17.1253031672
 10
5.2075422901
 20
17.1152464866
 10
5.2360387628
 20
17.1073987423
 10
5.266503658
 20
17.1023868157
 10
5.298549593
 20
17.1007043839
  0
LWPOLYLINE
  5
428
100
AcDbEntity
  8
ASSI
100
AcDbPolyline
 62
250
  6
CONTINUOUS
 90
13
 70
0
 10
5.0739340722
 20
17.6029497528
 10
5.0761630094
 20
17.5708752944
 10
5.0826144446
 20
17.5393475576
 10
5.0931784053
 20
17.5089039165
 10
5.107674825
 20
17.4800632628
 10
5.1258566093
 20
17.453317169
 10
5.1474138442
 20
17.4291215081
 10
5.1719790831
 20
17.4078886761
 10
5.1991336214
 20
17.3899805583
 10
5.2284146299
 20
17.3757023711
 10
5.2593230331
 20
17.3652974672
 10
5.2913320124
 20
17.3589431835
 10
5.323895996
 20
17.3567478146
  0
LWPOLYLINE
  5
429
100
AcDbEntity
  8
ASSI
100
AcDbPolyline
 62
250
  6
CONTINUOUS
 90
13
 70
0
 10
5.0441241415
 20
15.8647217495
 10
5.0462717111
 20
15.8321014368
 10
5.0526578163
 20
15.8000390552
 10
5.0631732296
 20
15.7690829889
 10
5.0776380976
 20
15.7397626993
 10
5.0958050166
 20
15.7125796706
 10
5.1173632636
 20
15.687998832
 10
5.1419441113
 20
15.666440605
 10
5.169127137
 20
15.6482737115
 10
5.1984474121
 20
15.6338088693
 10
5.2294034532
 20
15.6232934785
 10
5.2614657986
 20
15.6169073893
 10
5.2940860653
 20
15.6147598257
  0
LWPOLYLINE
  5
42A
100
AcDbEntity
  8
ASSI
100
AcDbPolyline
 62
250
  6
CONTINUOUS
 90
13
 70
0
 10
6.5906940551
 20
-5.8887159521
 10
6.5932707396
 20
-5.927857306
 10
6.600933026
 20
-5.9663298235
 10
6.6135500839
 20
-6.003475526
 10
6.6309063205
 20
-6.0386590545
 10
6.6527050991
 20
-6.0712786231
 10
6.6785738392
 20
-6.1007762932
 10
6.7080703631
 20
-6.1266474524
 10
6.7406902614
 20
-6.1484493325
 10
6.7758755259
 20
-6.1658087349
 10
6.8130243183
 20
-6.1784285611
 10
6.8515013115
 20
-6.1860928244
 10
6.8906483636
 20
-6.1886702607
  0
LINE
  5
42B
100
AcDbEntity
  8
ASSI
100
AcDbLine
 62
250
  6
CONTINUOUS
 10
6.592638286
 20
-4.1242822434
 11
6.5798236863
 21
-3.6958464082
  0
LWPOLYLINE
  5
42C
100
AcDbEntity
  8
ASSI
100
AcDbPolyline
 62
250
  6
CONTINUOUS
 90
7
 70
0
 10
5.8155070365
 20
15.8746220636
 10
5.8155820358
 20
15.8717626525
 10
5.8156626227
 20
15.8693289227
 10
5.8157462892
 20
15.86740005
 10
5.8158321992
 20
15.8660024261
 10
5.8159211887
 20
15.8651096593
 10
5.8160132579
 20
15.8647217495
  0
LWPOLYLINE
  5
42D
100
AcDbEntity
  8
ASSI
100
AcDbPolyline
 62
250
  6
CONTINUOUS
 90
6
 70
0
 10
5.7858326502
 20
17.6121372647
 10
5.7859003862
 20
17.6095113197
 10
5.7859714926
 20
17.6072726439
 10
5.7860454004
 20
17.6054444111
 10
5.7861226786
 20
17.6040034474
 10
5.7862033271
 20
17.6029497528
  0
LINE
  5
42E
100
AcDbEntity
  8
ASSI
100
AcDbLine
 62
250
  6
CONTINUOUS
 10
6.5798236863
 20
-3.6958464082
 11
6.5779744309
 21
-3.6070461137
  0
LINE
  5
42F
100
AcDbEntity
  8
ASSI
100
AcDbLine
 62
250
  6
CONTINUOUS
 10
6.593101719
 20
-4.146553706
 11
6.592638286
 21
-4.1242822434
  0
LINE
  5
430
100
AcDbEntity
  8
ASSI
100
AcDbLine
 62
250
  6
CONTINUOUS
 10
5.7857125483
 20
17.6183496968
 11
5.7858326502
 21
17.6121372647
  0
LINE
  5
431
100
AcDbEntity
  8
ASSI
100
AcDbLine
 62
250
  6
CONTINUOUS
 10
5.8153741594
 20
15.8816436307
 11
5.8155070365
 21
15.8746220636
  0
LWPOLYLINE
  5
432
100
AcDbEntity
  8
ASSI
100
AcDbPolyline
 62
250
  6
CONTINUOUS
 90
3
 70
0
 10
5.5658707686
 20
15.6222393088
 10
5.5659597561
 20
15.6168976017
 10
5.5660517776
 20
15.6147571592
  0
LINE
  5
433
100
AcDbEntity
  8
ASSI
100
AcDbLine
 62
250
  6
CONTINUOUS
 10
6.5934712324
 20
5.8066049041
 11
6.5929900813
 21
5.8376353282
  0
LINE
  5
434
100
AcDbEntity
  8
ASSI
100
AcDbLine
 62
250
  6
CONTINUOUS
 10
6.5779744309
 20
-3.6070461137
 11
6.5764061576
 21
-3.4999489832
  0
LINE
  5
435
100
AcDbEntity
  8
ASSI
100
AcDbLine
 62
250
  6
CONTINUOUS
 10
6.5934935544
 20
-4.1733572842
 11
6.593101719
 21
-4.146553706
  0
LINE
  5
436
100
AcDbEntity
  8
ASSI
100
AcDbLine
 62
250
  6
CONTINUOUS
 10
5.7856141867
 20
17.6257489983
 11
5.7857125483
 21
17.6183496968
  0
LINE
  5
437
100
AcDbEntity
  8
ASSI
100
AcDbLine
 62
250
  6
CONTINUOUS
 10
5.8152697745
 20
15.8900266888
 11
5.8153741594
 21
15.8816436307
  0
LINE
  5
438
100
AcDbEntity
  8
ASSI
100
AcDbLine
 62
250
  6
CONTINUOUS
 10
5.3240533748
 20
-17.3700868997
 11
5.323896013
 21
-17.3553401192
  0
LINE
  5
439
100
AcDbEntity
  8
ASSI
100
AcDbLine
 62
250
  6
CONTINUOUS
 10
5.5360840245
 20
17.3714956676
 11
5.5362413863
 21
17.3567488871
  0
LINE
  5
43A
100
AcDbEntity
  8
ASSI
100
AcDbLine
 62
250
  6
CONTINUOUS
 10
6.5938292094
 20
5.7705015493
 11
6.5934712324
 21
5.8066049041
  0
LINE
  5
43B
100
AcDbEntity
  8
ASSI
100
AcDbLine
 62
250
  6
CONTINUOUS
 10
5.5356019728
 20
-18.0595727648
 11
5.5543119226
 21
-20.3582532286
  0
LINE
  5
43C
100
AcDbEntity
  8
ASSI
100
AcDbLine
 62
250
  6
CONTINUOUS
 10
5.3245354265
 20
18.0609815327
 11
5.3058254767
 21
20.3596619965
  0
LINE
  5
43D
100
AcDbEntity
  8
ASSI
100
AcDbLine
 62
250
  6
CONTINUOUS
 10
5.2944364024
 20
-15.6408309054
 11
5.2942666307
 21
-15.6208305409
  0
LINE
  5
43E
100
AcDbEntity
  8
ASSI
100
AcDbLine
 62
250
  6
CONTINUOUS
 10
5.565700997
 20
15.6422396733
 11
5.5658707686
 21
15.6222393088
  0
LINE
  5
43F
100
AcDbEntity
  8
ASSI
100
AcDbLine
 62
250
  6
CONTINUOUS
 10
6.5764061576
 20
-3.4999489832
 11
6.5747194334
 21
-3.3144268001
  0
LINE
  5
440
100
AcDbEntity
  8
ASSI
100
AcDbLine
 62
250
  6
CONTINUOUS
 10
6.5939144681
 20
-4.2197781701
 11
6.5934935544
 21
-4.1733572842
  0
LINE
  5
441
100
AcDbEntity
  8
ASSI
100
AcDbLine
 62
250
  6
CONTINUOUS
 10
5.7855157145
 20
17.6384539846
 11
5.7856141867
 21
17.6257489983
  0
LINE
  5
442
100
AcDbEntity
  8
ASSI
100
AcDbLine
 62
250
  6
CONTINUOUS
 10
5.8151744956
 20
15.9044169544
 11
5.8152697745
 21
15.8900266888
  0
LINE
  5
443
100
AcDbEntity
  8
ASSI
100
AcDbLine
 62
250
  6
CONTINUOUS
 10
5.0746552735
 20
17.9341959851
 11
5.05974231
 21
19.7774683023
  0
LINE
  5
444
100
AcDbEntity
  8
ASSI
100
AcDbLine
 62
250
  6
CONTINUOUS
 10
5.7854821259
 20
-17.9327872173
 11
5.8003950893
 21
-19.7760595344
  0
LINE
  5
445
100
AcDbEntity
  8
ASSI
100
AcDbLine
 62
250
  6
CONTINUOUS
 10
6.5941041214
 20
5.7111306651
 11
6.5938292094
 21
5.7705015493
  0
LINE
  5
446
100
AcDbEntity
  8
ASSI
100
AcDbLine
 62
250
  6
CONTINUOUS
 10
5.324438634
 20
-17.4688463507
 11
5.3240533748
 21
-17.3700868997
  0
LINE
  5
447
100
AcDbEntity
  8
ASSI
100
AcDbLine
 62
250
  6
CONTINUOUS
 10
5.5356987653
 20
17.4702551185
 11
5.5360840245
 21
17.3714956676
  0
LINE
  5
448
100
AcDbEntity
  8
ASSI
100
AcDbLine
 62
250
  6
CONTINUOUS
 10
6.5747194334
 20
-3.3144268001
 11
6.5739324725
 21
-3.1114679606
  0
LINE
  5
449
100
AcDbEntity
  8
ASSI
100
AcDbLine
 62
250
  6
CONTINUOUS
 10
6.5941103868
 20
-4.2704111975
 11
6.5939144681
 21
-4.2197781701
  0
LINE
  5
44A
100
AcDbEntity
  8
ASSI
100
AcDbLine
 62
250
  6
CONTINUOUS
 10
5.2948695368
 20
-15.7925618085
 11
5.2944364024
 21
-15.6408309054
  0
LINE
  5
44B
100
AcDbEntity
  8
ASSI
100
AcDbLine
 62
250
  6
CONTINUOUS
 10
5.5652678625
 20
15.7939705764
 11
5.565700997
 21
15.6422396733
  0
LINE
  5
44C
100
AcDbEntity
  8
ASSI
100
AcDbLine
 62
7
  6
CONTINUOUS
 10
5.8362521498
 20
15.8444828576
 11
5.8328961668
 21
20.3479044724
  0
LINE
  5
44D
100
AcDbEntity
  8
ASSI
100
AcDbLine
 62
250
  6
CONTINUOUS
 10
5.0449816631
 20
-17.3090705239
 11
5.0449816631
 21
-15.9133053664
  0
LINE
  5
44E
100
AcDbEntity
  8
ASSI
100
AcDbLine
 62
250
  6
CONTINUOUS
 10
5.0449816631
 20
15.9147141343
 11
5.0449816631
 21
17.3104792917
  0
LINE
  5
44F
100
AcDbEntity
  8
ASSI
100
AcDbLine
 62
7
  6
CONTINUOUS
 10
5.05974231
 20
-20.5751187747
 11
5.05974231
 21
-19.7760595344
  0
LINE
  5
450
100
AcDbEntity
  8
ASSI
100
AcDbLine
 62
7
  6
CONTINUOUS
 10
5.05974231
 20
19.7774683023
 11
5.05974231
 21
20.5765275426
  0
LINE
  5
451
100
AcDbEntity
  8
ASSI
100
AcDbLine
 62
250
  6
CONTINUOUS
 10
5.0746552735
 20
-17.9327872173
 11
5.0746512865
 21
-17.6460880796
  0
LINE
  5
452
100
AcDbEntity
  8
ASSI
100
AcDbLine
 62
250
  6
CONTINUOUS
 10
5.2949435869
 20
-17.0992956161
 11
5.2948695368
 21
-15.7925618085
  0
LINE
  5
453
100
AcDbEntity
  8
ASSI
100
AcDbLine
 62
250
  6
CONTINUOUS
 10
5.3847311336
 20
1.3641344703
 11
5.3847311336
 21
1.1641649313
  0
LINE
  5
454
100
AcDbEntity
  8
ASSI
100
AcDbLine
 62
250
  6
CONTINUOUS
 10
5.3847311336
 20
-1.3627257025
 11
5.3847311326
 21
-1.1627561635
  0
LINE
  5
455
100
AcDbEntity
  8
ASSI
100
AcDbLine
 62
250
  6
CONTINUOUS
 10
5.5651938125
 20
17.1007043839
 11
5.5652678625
 21
15.7939705764
  0
LINE
  5
456
100
AcDbEntity
  8
ASSI
100
AcDbLine
 62
250
  6
CONTINUOUS
 10
5.7854821259
 20
17.9341959851
 11
5.7855157145
 21
17.6384539846
  0
LINE
  5
457
100
AcDbEntity
  8
ASSI
100
AcDbLine
 62
7
  6
CONTINUOUS
 10
5.8003950893
 20
20.5765275426
 11
5.8003950893
 21
19.7774683023
  0
LINE
  5
458
100
AcDbEntity
  8
ASSI
100
AcDbLine
 62
7
  6
CONTINUOUS
 10
5.8003950893
 20
-19.7760595344
 11
5.8003950893
 21
-20.5751187747
  0
LINE
  5
459
100
AcDbEntity
  8
ASSI
100
AcDbLine
 62
250
  6
CONTINUOUS
 10
5.8151557363
 20
17.3104792917
 11
5.8151744956
 21
15.9044169544
  0
LINE
  5
45A
100
AcDbEntity
  8
ASSI
100
AcDbLine
 62
7
  6
CONTINUOUS
 10
6.5694324743
 20
-1.3891324128
 11
6.5701010022
 21
-5.909309005
  0
LINE
  5
45B
100
AcDbEntity
  8
ASSI
100
AcDbLine
 62
250
  6
CONTINUOUS
 10
6.5739324725
 20
-3.1114679606
 11
6.5738762662
 21
-1.384688621
  0
LINE
  5
45C
100
AcDbEntity
  8
ASSI
100
AcDbLine
 62
7
  6
CONTINUOUS
 10
6.5701010022
 20
5.9107177729
 11
6.5694324743
 21
1.3905411807
  0
LINE
  5
45D
100
AcDbEntity
  8
ASSI
100
AcDbLine
 62
250
  6
CONTINUOUS
 10
5.3245354271
 20
-18.0595726958
 11
5.324438634
 21
-17.4688463507
  0
LINE
  5
45E
100
AcDbEntity
  8
ASSI
100
AcDbLine
 62
250
  6
CONTINUOUS
 10
5.5356019723
 20
18.0609814637
 11
5.5356987653
 21
17.4702551185
  0
LINE
  5
45F
100
AcDbEntity
  8
ASSI
100
AcDbLine
 62
250
  6
CONTINUOUS
 10
5.0746512865
 20
17.6474968475
 11
5.0746552735
 21
17.9341959851
  0
LINE
  5
460
100
AcDbEntity
  8
ASSI
100
AcDbLine
 62
7
  6
CONTINUOUS
 10
5.8328961668
 20
-20.3464957045
 11
5.8362521498
 21
-15.8430740897
  0
LINE
  5
461
100
AcDbEntity
  8
ASSI
100
AcDbLine
 62
250
  6
CONTINUOUS
 10
6.5940710044
 20
4.254623296
 11
6.5941041214
 21
5.7111306651
  0
LINE
  5
462
100
AcDbEntity
  8
ASSI
100
AcDbLine
 62
250
  6
CONTINUOUS
 10
5.8151744959
 20
-15.9030081286
 11
5.8151557363
 21
-17.3090705239
  0
LINE
  5
463
100
AcDbEntity
  8
ASSI
100
AcDbLine
 62
250
  6
CONTINUOUS
 10
6.594048582
 20
-5.7300705025
 11
6.5941103868
 21
-4.2704111975
  0
LINE
  5
464
100
AcDbEntity
  8
ASSI
100
AcDbLine
 62
250
  6
CONTINUOUS
 10
5.2945922427
 20
15.6738692075
 11
5.2949435869
 21
17.1007043839
  0
LINE
  5
465
100
AcDbEntity
  8
ASSI
100
AcDbLine
 62
250
  6
CONTINUOUS
 10
5.5655451567
 20
-15.6724604396
 11
5.5651938125
 21
-17.0992956161
  0
LINE
  5
466
100
AcDbEntity
  8
ASSI
100
AcDbLine
 62
250
  6
CONTINUOUS
 10
5.3242664407
 20
17.4115530098
 11
5.324535427
 21
18.0609815327
  0
LINE
  5
467
100
AcDbEntity
  8
ASSI
100
AcDbLine
 62
250
  6
CONTINUOUS
 10
5.5358709586
 20
-17.4101442419
 11
5.5356019723
 21
-18.0595727648
  0
LINE
  5
468
100
AcDbEntity
  8
ASSI
100
AcDbLine
 62
250
  6
CONTINUOUS
 10
6.5738762662
 20
1.3860973889
 11
6.5743530253
 21
3.2495563437
  0
LINE
  5
469
100
AcDbEntity
  8
ASSI
100
AcDbLine
 62
250
  6
CONTINUOUS
 10
5.7855157145
 20
-17.6370452167
 11
5.7854821259
 21
-17.9327872173
  0
LINE
  5
46A
100
AcDbEntity
  8
ASSI
100
AcDbLine
 62
250
  6
CONTINUOUS
 10
5.3240533748
 20
17.3714956676
 11
5.3242664407
 21
17.4115530098
  0
LINE
  5
46B
100
AcDbEntity
  8
ASSI
100
AcDbLine
 62
250
  6
CONTINUOUS
 10
5.5360840245
 20
-17.3700868997
 11
5.5358709586
 21
-17.4101442419
  0
LINE
  5
46C
100
AcDbEntity
  8
ASSI
100
AcDbLine
 62
250
  6
CONTINUOUS
 10
6.5937973144
 20
4.2049472492
 11
6.5940710044
 21
4.254623296
  0
LINE
  5
46D
100
AcDbEntity
  8
ASSI
100
AcDbLine
 62
250
  6
CONTINUOUS
 10
5.05974231
 20
-19.7760595344
 11
5.0746552735
 21
-17.9327872173
  0
LINE
  5
46E
100
AcDbEntity
  8
ASSI
100
AcDbLine
 62
250
  6
CONTINUOUS
 10
5.5543119226
 20
20.3596619965
 11
5.5356019723
 21
18.0609814637
  0
LINE
  5
46F
100
AcDbEntity
  8
ASSI
100
AcDbLine
 62
250
  6
CONTINUOUS
 10
5.3058254767
 20
-20.3582532286
 11
5.3245354271
 21
-18.0595726958
  0
LINE
  5
470
100
AcDbEntity
  8
ASSI
100
AcDbLine
 62
250
  6
CONTINUOUS
 10
5.8003950893
 20
19.7774683023
 11
5.7854821259
 21
17.9341959851
  0
LINE
  5
471
100
AcDbEntity
  8
ASSI
100
AcDbLine
 62
250
  6
CONTINUOUS
 10
5.8152697751
 20
-15.888617865
 11
5.8151744959
 21
-15.9030081286
  0
LINE
  5
472
100
AcDbEntity
  8
ASSI
100
AcDbLine
 62
250
  6
CONTINUOUS
 10
6.5936653762
 20
-5.787766455
 11
6.594048582
 21
-5.7300705025
  0
LINE
  5
473
100
AcDbEntity
  8
ASSI
100
AcDbLine
 62
250
  6
CONTINUOUS
 10
6.5743530253
 20
3.2495563437
 11
6.5757515981
 21
3.4427087575
  0
LINE
  5
474
100
AcDbEntity
  8
ASSI
100
AcDbLine
 62
250
  6
CONTINUOUS
 10
5.7856141867
 20
-17.6243402304
 11
5.7855157145
 21
-17.6370452167
  0
LINE
  5
475
100
AcDbEntity
  8
ASSI
100
AcDbLine
 62
250
  6
CONTINUOUS
 10
5.323896013
 20
17.3567488871
 11
5.3240533748
 21
17.3714956676
  0
LINE
  5
476
100
AcDbEntity
  8
ASSI
100
AcDbLine
 62
250
  6
CONTINUOUS
 10
5.5362413863
 20
-17.3553401192
 11
5.5360840245
 21
-17.3700868997
  0
LINE
  5
477
100
AcDbEntity
  8
ASSI
100
AcDbLine
 62
250
  6
CONTINUOUS
 10
6.5757515981
 20
3.4427087575
 11
6.5771582813
 21
3.5573602131
  0
LINE
  5
478
100
AcDbEntity
  8
ASSI
100
AcDbLine
 62
250
  6
CONTINUOUS
 10
6.5933069482
 20
4.1608245437
 11
6.5937973144
 21
4.2049472492
  0
LINE
  5
479
100
AcDbEntity
  8
ASSI
100
AcDbLine
 62
250
  6
CONTINUOUS
 10
5.8153741593
 20
-15.8802348534
 11
5.8152697751
 21
-15.888617865
  0
LINE
  5
47A
100
AcDbEntity
  8
ASSI
100
AcDbLine
 62
250
  6
CONTINUOUS
 10
5.7857125483
 20
-17.6169409289
 11
5.7856141867
 21
-17.6243402304
  0
LWPOLYLINE
  5
47B
100
AcDbEntity
  8
ASSI
100
AcDbPolyline
 62
250
  6
CONTINUOUS
 90
3
 70
0
 10
6.5771582813
 20
3.5573602131
 10
6.5788671708
 20
3.6552988964
 10
6.5798266202
 20
3.6974169704
  0
LWPOLYLINE
  5
47C
100
AcDbEntity
  8
ASSI
100
AcDbPolyline
 62
250
  6
CONTINUOUS
 90
3
 70
0
 10
6.592638286
 20
4.1256910112
 10
6.592879314
 20
4.1362870233
 10
6.5933069482
 20
4.1608245437
  0
LINE
  5
47D
100
AcDbEntity
  8
ASSI
100
AcDbLine
 62
250
  6
CONTINUOUS
 10
6.5798266202
 20
3.6974169704
 11
6.592638286
 21
4.1256910112
  0
LWPOLYLINE
  5
47E
100
AcDbEntity
  8
ASSI
100
AcDbPolyline
 62
250
  6
CONTINUOUS
 90
5
 70
0
 10
5.5660517763
 20
-15.6133483984
 10
5.5659597573
 20
-15.6154887896
 10
5.5658707712
 20
-15.6208303538
 10
5.5657848181
 20
-15.629310467
 10
5.5655451567
 20
-15.6724604396
  0
LWPOLYLINE
  5
47F
100
AcDbEntity
  8
ASSI
100
AcDbPolyline
 62
7
  6
CONTINUOUS
 90
16
 70
0
 10
5.0233087444
 20
-15.8424975845
 10
5.0246602669
 20
-15.8163589038
 10
5.0287351382
 20
-15.7905125774
 10
5.0354875323
 20
-15.7652410245
 10
5.0448436405
 20
-15.7408170539
 10
5.0566994305
 20
-15.7175107216
 10
5.0709186825
 20
-15.6955848367
 10
5.0873284726
 20
-15.6752924145
 10
5.1057571619
 20
-15.6568335272
 10
5.1260443143
 20
-15.6403748355
 10
5.1480053396
 20
-15.6260891943
 10
5.1713811036
 20
-15.6141662686
 10
5.1958750856
 20
-15.6047628078
 10
5.2212016611
 20
-15.5979836148
 10
5.2470965337
 20
-15.5938950669
 10
5.2732751918
 20
-15.5925401844
  0
LWPOLYLINE
  5
480
100
AcDbEntity
  8
ASSI
100
AcDbPolyline
 62
7
  6
CONTINUOUS
 90
16
 70
0
 10
6.5701010022
 20
5.9107177729
 10
6.5717483207
 20
5.9420181537
 10
6.5766590163
 20
5.9729827785
 10
6.5847826507
 20
6.0032727767
 10
6.5960399757
 20
6.0325698139
 10
6.610307501
 20
6.0605370324
 10
6.6274045103
 20
6.0868298369
 10
6.6471007002
 20
6.1111282946
 10
6.6691991957
 20
6.133219467
 10
6.6935396001
 20
6.1529358063
 10
6.7199291261
 20
6.1700777019
 10
6.7480407841
 20
6.1843926207
 10
6.7774865502
 20
6.1956744692
 10
6.8079095645
 20
6.2037978525
 10
6.8390023561
 20
6.2086906895
 10
6.8704228352
 20
6.210304557
  0
LWPOLYLINE
  5
481
100
AcDbEntity
  8
ASSI
100
AcDbPolyline
 62
250
  6
CONTINUOUS
 90
13
 70
0
 10
5.0441241415
 20
-15.8633129817
 10
5.046271708
 20
-15.8306926923
 10
5.0526578051
 20
-15.7986303291
 10
5.063173207
 20
-15.7676742754
 10
5.077638062
 20
-15.7383539929
 10
5.0958049684
 20
-15.7111709654
 10
5.1173632056
 20
-15.686590122
 10
5.141944049
 20
-15.6650318848
 10
5.1691270765
 20
-15.6468649784
 10
5.198447359
 20
-15.6324001234
 10
5.2294034127
 20
-15.6218847215
 10
5.261465776
 20
-15.6154986244
 10
5.2940860653
 20
-15.6133510579
  0
LWPOLYLINE
  5
482
100
AcDbEntity
  8
ASSI
100
AcDbPolyline
 62
250
  6
CONTINUOUS
 90
13
 70
0
 10
6.5906940551
 20
5.89012472
 10
6.5932711349
 20
5.9292690669
 10
6.6009344512
 20
5.9677439026
 10
6.6135529334
 20
6.0048911667
 10
6.6309107591
 20
6.0400755055
 10
6.6527110463
 20
6.0726951382
 10
6.6785809306
 20
6.1021921503
 10
6.7080779424
 20
6.128062035
 10
6.7406975752
 20
6.1498623229
 10
6.7758819144
 20
6.1672201493
 10
6.8130291791
 20
6.1798386319
 10
6.8515040156
 20
6.1875019486
 10
6.8906483636
 20
6.1900790285
  0
LWPOLYLINE
  5
483
100
AcDbEntity
  8
ASSI
100
AcDbPolyline
 62
250
  6
CONTINUOUS
 90
13
 70
0
 10
5.0739340722
 20
-17.601540985
 10
5.0761629874
 20
-17.5694666832
 10
5.0826143661
 20
-17.537939069
 10
5.0931782483
 20
-17.5074955121
 10
5.1076745789
 20
-17.478654905
 10
5.1258562764
 20
-17.4519088189
 10
5.1474134445
 20
-17.4277131251
 10
5.1719786539
 20
-17.406480225
 10
5.1991332051
 20
-17.3885720208
 10
5.2284142647
 20
-17.3742937474
 10
5.2593227543
 20
-17.3638887696
 10
5.2913318569
 20
-17.357534434
 10
5.323895996
 20
-17.3553390467
  0
LWPOLYLINE
  5
484
100
AcDbEntity
  8
ASSI
100
AcDbPolyline
 62
7
  6
CONTINUOUS
 90
16
 70
0
 10
5.0449816631
 20
-17.3090705239
 10
5.0463807073
 20
-17.2899512702
 10
5.0498545279
 20
-17.2710446928
 10
5.0554712679
 20
-17.2523507917
 10
5.063265864
 20
-17.2336890553
 10
5.0732720143
 20
-17.2152399951
 10
5.0855510569
 20
-17.1975451462
 10
5.100075578
 20
-17.180571967
 10
5.1168366693
 20
-17.1643529991
 10
5.1359591697
 20
-17.1495274018
 10
5.1574176395
 20
-17.1360051657
 10
5.1810769219
 20
-17.1238763003
 10
5.2068971452
 20
-17.1140499938
 10
5.2347082505
 20
-17.106829309
 10
5.2641799693
 20
-17.1019111831
 10
5.2949435869
 20
-17.0992956161
  0
LWPOLYLINE
  5
485
100
AcDbEntity
  8
ASSI
100
AcDbPolyline
 62
250
  6
CONTINUOUS
 90
5
 70
0
 10
7.0694890357
 20
6.1900790285
 10
7.0691224573
 20
6.1864987588
 10
7.0687678443
 20
6.1776004096
 10
7.0684251968
 20
6.1634793287
 10
7.0677690188
 20
6.1202285085
  0
LWPOLYLINE
  5
486
100
AcDbEntity
  8
ASSI
100
AcDbPolyline
 62
250
  6
CONTINUOUS
 90
8
 70
0
 10
7.3694433443
 20
5.89012472
 10
7.3690791481
 20
5.888634456
 10
7.3687260909
 20
5.8851195083
 10
7.3683841728
 20
5.8795798768
 10
7.3680497055
 20
5.8719125551
 10
7.3677263772
 20
5.8622205496
 10
7.3674252527
 20
5.8508128798
 10
7.3668915872
 20
5.8227421123
  0
LINE
  5
487
100
AcDbEntity
  8
ASSI
100
AcDbLine
 62
7
  6
CONTINUOUS
 10
6.5694324743
 20
-1.3891324128
 11
6.5738762662
 21
-1.384688621
  0
LINE
  5
488
100
AcDbEntity
  8
ASSI
100
AcDbLine
 62
7
  6
CONTINUOUS
 10
-7.2102854359
 20
6.210304557
 11
-7.4293546424
 21
6.2100820345
  0
LINE
  5
489
100
AcDbEntity
  8
ASSI
100
AcDbLine
 62
250
  6
CONTINUOUS
 10
6.5941241415
 20
5.690155181
 11
7.3660132579
 21
5.690155181
  0
LINE
  5
48A
100
AcDbEntity
  8
ASSI
100
AcDbLine
 62
250
  6
CONTINUOUS
 10
-7.7058758585
 20
5.690155181
 11
-6.9339867421
 21
5.690155181
  0
LINE
  5
48B
100
AcDbEntity
  8
ASSI
100
AcDbLine
 62
250
  6
CONTINUOUS
 10
-7.4093516364
 20
6.1900790285
 11
-7.2305109643
 21
6.1900790285
  0
LINE
  5
48C
100
AcDbEntity
  8
ASSI
100
AcDbLine
 62
250
  6
CONTINUOUS
 10
6.8906483636
 20
6.1900790285
 11
7.0694890357
 21
6.1900790285
  0
LINE
  5
48D
100
AcDbEntity
  8
ASSI
100
AcDbLine
 62
7
  6
CONTINUOUS
 10
7.0894920417
 20
6.2100820345
 11
6.8704228352
 21
6.210304557
  0
LWPOLYLINE
  5
48E
100
AcDbEntity
  8
ASSI
100
AcDbPolyline
 62
7
  6
CONTINUOUS
 90
16
 70
0
 10
-7.2102854359
 20
6.210304557
 10
-7.1788649568
 20
6.2086906895
 10
-7.1477721652
 20
6.2037978525
 10
-7.1173491509
 20
6.1956744692
 10
-7.0879033848
 20
6.1843926207
 10
-7.0597917267
 20
6.1700777019
 10
-7.0334022008
 20
6.1529358063
 10
-7.0090617964
 20
6.133219467
 10
-6.9869633009
 20
6.1111282946
 10
-6.967267111
 20
6.0868298369
 10
-6.9501701016
 20
6.0605370324
 10
-6.9359025764
 20
6.0325698139
 10
-6.9246452514
 20
6.0032727767
 10
-6.9165216169
 20
5.9729827785
 10
-6.9116109214
 20
5.9420181537
 10
-6.9099636028
 20
5.9107177729
  0
LWPOLYLINE
  5
48F
100
AcDbEntity
  8
ASSI
100
AcDbPolyline
 62
7
  6
CONTINUOUS
 90
16
 70
0
 10
7.0894920417
 20
6.2100820345
 10
7.120809605
 20
6.2084073132
 10
7.1518113167
 20
6.2034617189
 10
7.1821556077
 20
6.195290757
 10
7.2115355831
 20
6.1839623581
 10
7.2395929448
 20
6.1696000777
 10
7.265936917
 20
6.1524119221
 10
7.2902397074
 20
6.1326495278
 10
7.3123073131
 20
6.1105112018
 10
7.3319770785
 20
6.0861681244
 10
7.3490513294
 20
6.0598342059
 10
7.3632997945
 20
6.031828811
 10
7.3745419615
 20
6.0024989784
 10
7.3826545888
 20
5.9721827287
 10
7.3875583259
 20
5.9411980686
 10
7.3892028539
 20
5.9098842296
  0
LINE
  5
490
100
AcDbEntity
  8
ASSI
100
AcDbLine
 62
7
  6
CONTINUOUS
 10
6.5694324743
 20
1.3905411807
 11
6.5738762662
 21
1.3860973889
  0
LINE
  5
491
100
AcDbEntity
  8
ASSI
100
AcDbLine
 62
250
  6
CONTINUOUS
 10
5.5362412972
 20
17.356748887
 11
5.5615878063
 21
17.1007043839
  0
LINE
  5
492
100
AcDbEntity
  8
ASSI
100
AcDbLine
 62
250
  6
CONTINUOUS
 10
5.7862033271
 20
17.6029497528
 11
5.8151557363
 21
17.3104792917
  0
LWPOLYLINE
  5
493
100
AcDbEntity
  8
ASSI
100
AcDbPolyline
 62
250
  6
CONTINUOUS
 90
13
 70
0
 10
6.5808582921
 20
3.7351232601
 10
6.5837358236
 20
3.7013975994
 10
6.5916401811
 20
3.6682426095
 10
6.6044376154
 20
3.6362193048
 10
6.6219115814
 20
3.6058695505
 10
6.6437664028
 20
3.5777068939
 10
6.6696322749
 20
3.5522078743
 10
6.6990715221
 20
3.5298039598
 10
6.731586004
 20
3.5108742462
 10
6.7666255441
 20
3.4957390425
 10
6.8035972394
 20
3.4846544511
 10
6.8418754933
 20
3.4778080339
 10
6.8808126007
 20
3.475315639
  0
LWPOLYLINE
  5
494
100
AcDbEntity
  8
ASSI
100
AcDbPolyline
 62
250
  6
CONTINUOUS
 90
13
 70
0
 10
6.592378635
 20
4.1161744378
 10
6.5952560692
 20
4.082449375
 10
6.603160187
 20
4.0492948393
 10
6.6159572987
 20
4.0172718298
 10
6.6334309213
 20
3.9869222069
 10
6.655285435
 20
3.958759531
 10
6.6811510789
 20
3.9332603703
 10
6.7105902234
 20
3.910856219
 10
6.7431047551
 20
3.8919262146
 10
6.7781444894
 20
3.8767907196
 10
6.8151165168
 20
3.8657058763
 10
6.8533952424
 20
3.8588592808
 10
6.8923329436
 20
3.8563668184
  0
LWPOLYLINE
  5
495
100
AcDbEntity
  8
ASSI
100
AcDbPolyline
 62
250
  6
CONTINUOUS
 90
13
 70
0
 10
7.3677587643
 20
-4.1147656699
 10
7.3648813301
 20
-4.0810406071
 10
7.3569772123
 20
-4.0478860714
 10
7.3441801007
 20
-4.0158630619
 10
7.326706478
 20
-3.985513439
 10
7.3048519644
 20
-3.9573507631
 10
7.2789863204
 20
-3.9318516024
 10
7.2495471759
 20
-3.9094474511
 10
7.2170326442
 20
-3.8905174467
 10
7.18199291
 20
-3.8753819517
 10
7.1450208825
 20
-3.8642971084
 10
7.1067421569
 20
-3.8574505129
 10
7.0678044558
 20
-3.8549580505
  0
LWPOLYLINE
  5
496
100
AcDbEntity
  8
ASSI
100
AcDbPolyline
 62
250
  6
CONTINUOUS
 90
13
 70
0
 10
7.3792791072
 20
-3.7337144922
 10
7.3764015757
 20
-3.6999888315
 10
7.3684972182
 20
-3.6668338416
 10
7.3556997839
 20
-3.6348105369
 10
7.3382258179
 20
-3.6044607826
 10
7.3163709965
 20
-3.576298126
 10
7.2905051244
 20
-3.5507991064
 10
7.2610658772
 20
-3.5283951919
 10
7.2285513953
 20
-3.5094654783
 10
7.1935118553
 20
-3.4943302746
 10
7.1565401599
 20
-3.4832456832
 10
7.118261906
 20
-3.476399266
 10
7.0793247987
 20
-3.4739068711
  0
LWPOLYLINE
  5
497
100
AcDbEntity
  8
ASSI
100
AcDbPolyline
 62
250
  6
CONTINUOUS
 90
13
 70
0
 10
7.3694433443
 20
5.89012472
 10
7.3668666597
 20
5.9292660739
 10
7.3592043733
 20
5.9677385914
 10
7.3465873154
 20
6.0048842939
 10
7.3292310788
 20
6.0400678224
 10
7.3074323003
 20
6.072687391
 10
7.2815635601
 20
6.102185061
 10
7.2520670362
 20
6.1280562202
 10
7.2194471379
 20
6.1498581004
 10
7.1842618735
 20
6.1672175028
 10
7.1471130811
 20
6.179837329
 10
7.1086360878
 20
6.1875015922
 10
7.0694890358
 20
6.1900790286
  0
LWPOLYLINE
  5
498
100
AcDbEntity
  8
ASSI
100
AcDbPolyline
 62
250
  6
CONTINUOUS
 90
4
 70
0
 10
6.8808124241
 20
-3.4739028744
 10
6.8797733028
 20
-3.4504559985
 10
6.8788091033
 20
-3.4238931085
 10
6.8779198256
 20
-3.3944175632
  0
LWPOLYLINE
  5
499
100
AcDbEntity
  8
ASSI
100
AcDbPolyline
 62
250
  6
CONTINUOUS
 90
4
 70
0
 10
7.0793249752
 20
3.4753116423
 10
7.0803640965
 20
3.4518647664
 10
7.081328296
 20
3.4253018764
 10
7.0822175738
 20
3.395826331
  0
LINE
  5
49A
100
AcDbEntity
  8
ASSI
100
AcDbLine
 62
250
  6
CONTINUOUS
 10
6.8923329435
 20
-3.8549580488
 11
6.8808124798
 21
-3.4739028745
  0
LINE
  5
49B
100
AcDbEntity
  8
ASSI
100
AcDbLine
 62
250
  6
CONTINUOUS
 10
7.0678044558
 20
3.8563668166
 11
7.0793249195
 21
3.4753116424
  0
LINE
  5
49C
100
AcDbEntity
  8
ASSI
100
AcDbLine
 62
250
  6
CONTINUOUS
 10
7.3674991134
 20
4.1256910112
 11
7.380313713
 21
3.6972551761
  0
LWPOLYLINE
  5
49D
100
AcDbEntity
  8
ASSI
100
AcDbPolyline
 62
250
  6
CONTINUOUS
 90
7
 70
0
 10
7.3674252527
 20
-5.849404112
 10
7.3677263772
 20
-5.8608117817
 10
7.3680497055
 20
-5.8705037872
 10
7.3683841728
 20
-5.878171109
 10
7.3687260909
 20
-5.8837107404
 10
7.3690791481
 20
-5.8872256882
 10
7.3694433443
 20
-5.8887159521
  0
LWPOLYLINE
  5
49E
100
AcDbEntity
  8
ASSI
100
AcDbPolyline
 62
250
  6
CONTINUOUS
 90
4
 70
0
 10
7.0684251968
 20
-6.1620705608
 10
7.0687678443
 20
-6.1761916418
 10
7.0691224573
 20
-6.185089991
 10
7.0694890357
 20
-6.1886702607
  0
LWPOLYLINE
  5
49F
100
AcDbEntity
  8
ASSI
100
AcDbPolyline
 62
250
  6
CONTINUOUS
 90
4
 70
0
 10
6.8917122025
 20
6.1634793287
 10
6.891369555
 20
6.1776004096
 10
6.891014942
 20
6.1864987588
 10
6.8906483636
 20
6.1900790285
  0
LINE
  5
4A0
100
AcDbEntity
  8
ASSI
100
AcDbLine
 62
250
  6
CONTINUOUS
 10
6.8779198256
 20
-3.3944175632
 11
6.8763550046
 21
-3.3276525819
  0
LINE
  5
4A1
100
AcDbEntity
  8
ASSI
100
AcDbLine
 62
250
  6
CONTINUOUS
 10
7.0822175738
 20
3.395826331
 11
7.0837823947
 21
3.3290613498
  0
LWPOLYLINE
  5
4A2
100
AcDbEntity
  8
ASSI
100
AcDbPolyline
 62
250
  6
CONTINUOUS
 90
8
 70
0
 10
6.5929900813
 20
5.8376353282
 10
6.5927121466
 20
5.8508128798
 10
6.5924110221
 20
5.8622205496
 10
6.5920876938
 20
5.8719125551
 10
6.5917532265
 20
5.8795798769
 10
6.5914113084
 20
5.8851195083
 10
6.5910582512
 20
5.888634456
 10
6.5906940551
 20
5.89012472
  0
LINE
  5
4A3
100
AcDbEntity
  8
ASSI
100
AcDbLine
 62
250
  6
CONTINUOUS
 10
7.3670356803
 20
4.1479624739
 11
7.3674991134
 21
4.1256910112
  0
LINE
  5
4A4
100
AcDbEntity
  8
ASSI
100
AcDbLine
 62
250
  6
CONTINUOUS
 10
7.380313713
 20
3.6972551761
 11
7.3821629684
 21
3.6084548816
  0
LINE
  5
4A5
100
AcDbEntity
  8
ASSI
100
AcDbLine
 62
250
  6
CONTINUOUS
 10
7.3668915872
 20
-5.8213333445
 11
7.3674252527
 21
-5.849404112
  0
LINE
  5
4A6
100
AcDbEntity
  8
ASSI
100
AcDbLine
 62
250
  6
CONTINUOUS
 10
6.8763550046
 20
-3.3276525819
 11
6.8751414562
 21
-3.2521810901
  0
LINE
  5
4A7
100
AcDbEntity
  8
ASSI
100
AcDbLine
 62
250
  6
CONTINUOUS
 10
7.0837823947
 20
3.3290613498
 11
7.0849959431
 21
3.253589858
  0
LINE
  5
4A8
100
AcDbEntity
  8
ASSI
100
AcDbLine
 62
250
  6
CONTINUOUS
 10
7.3821629684
 20
3.6084548816
 11
7.3837312417
 21
3.5013577511
  0
LINE
  5
4A9
100
AcDbEntity
  8
ASSI
100
AcDbLine
 62
250
  6
CONTINUOUS
 10
6.8923683805
 20
6.1202285085
 11
6.8917122025
 21
6.1634793287
  0
LINE
  5
4AA
100
AcDbEntity
  8
ASSI
100
AcDbLine
 62
250
  6
CONTINUOUS
 10
7.0677690188
 20
-6.1188197406
 11
7.0684251968
 21
-6.1620705608
  0
LINE
  5
4AB
100
AcDbEntity
  8
ASSI
100
AcDbLine
 62
250
  6
CONTINUOUS
 10
7.3666438449
 20
4.1747660521
 11
7.3670356803
 21
4.1479624739
  0
LINE
  5
4AC
100
AcDbEntity
  8
ASSI
100
AcDbLine
 62
250
  6
CONTINUOUS
 10
7.3664720232
 20
-5.787766455
 11
7.3668915872
 21
-5.8213333445
  0
LINE
  5
4AD
100
AcDbEntity
  8
ASSI
100
AcDbLine
 62
250
  6
CONTINUOUS
 10
6.8751414562
 20
-3.2521810901
 11
6.8743064329
 21
-3.1702997199
  0
LINE
  5
4AE
100
AcDbEntity
  8
ASSI
100
AcDbLine
 62
250
  6
CONTINUOUS
 10
7.0849959431
 20
3.253589858
 11
7.0858309664
 21
3.1717084877
  0
LINE
  5
4AF
100
AcDbEntity
  8
ASSI
100
AcDbLine
 62
250
  6
CONTINUOUS
 10
6.8930560852
 20
-3.9344179105
 11
6.8923329435
 21
-3.8549580488
  0
LINE
  5
4B0
100
AcDbEntity
  8
ASSI
100
AcDbLine
 62
250
  6
CONTINUOUS
 10
7.0670813142
 20
3.9358266784
 11
7.0678044558
 21
3.8563668166
  0
LINE
  5
4B1
100
AcDbEntity
  8
ASSI
100
AcDbLine
 62
250
  6
CONTINUOUS
 10
7.3662229312
 20
4.221186938
 11
7.3666438449
 21
4.1747660521
  0
LINE
  5
4B2
100
AcDbEntity
  8
ASSI
100
AcDbLine
 62
250
  6
CONTINUOUS
 10
7.3837312417
 20
3.5013577511
 11
7.385417966
 21
3.315835568
  0
LINE
  5
4B3
100
AcDbEntity
  8
ASSI
100
AcDbLine
 62
250
  6
CONTINUOUS
 10
6.8932004406
 20
6.0216805802
 11
6.8923683805
 21
6.1202285085
  0
LINE
  5
4B4
100
AcDbEntity
  8
ASSI
100
AcDbLine
 62
250
  6
CONTINUOUS
 10
7.0669369587
 20
-6.0202718123
 11
7.0677690188
 21
-6.1188197406
  0
LINE
  5
4B5
100
AcDbEntity
  8
ASSI
100
AcDbLine
 62
250
  6
CONTINUOUS
 10
7.3660888173
 20
-5.7300705025
 11
7.3664720232
 21
-5.787766455
  0
LINE
  5
4B6
100
AcDbEntity
  8
ASSI
100
AcDbLine
 62
250
  6
CONTINUOUS
 10
6.8743064329
 20
-3.1702997199
 11
6.8738872444
 21
-3.0845242948
  0
LINE
  5
4B7
100
AcDbEntity
  8
ASSI
100
AcDbLine
 62
250
  6
CONTINUOUS
 10
7.0858309664
 20
3.1717084877
 11
7.086250155
 21
3.0859330626
  0
LINE
  5
4B8
100
AcDbEntity
  8
ASSI
100
AcDbLine
 62
250
  6
CONTINUOUS
 10
7.3660270125
 20
4.2718199654
 11
7.3662229312
 21
4.221186938
  0
LINE
  5
4B9
100
AcDbEntity
  8
ASSI
100
AcDbLine
 62
250
  6
CONTINUOUS
 10
7.385417966
 20
3.315835568
 11
7.3862049268
 21
3.1128767285
  0
LINE
  5
4BA
100
AcDbEntity
  8
ASSI
100
AcDbLine
 62
250
  6
CONTINUOUS
 10
6.8939594836
 20
-4.1585628018
 11
6.8930560852
 21
-3.9344179105
  0
LINE
  5
4BB
100
AcDbEntity
  8
ASSI
100
AcDbLine
 62
250
  6
CONTINUOUS
 10
7.0661779157
 20
4.1599715697
 11
7.0670813142
 21
3.9358266784
  0
LINE
  5
4BC
100
AcDbEntity
  8
ASSI
100
AcDbLine
 62
250
  6
CONTINUOUS
 10
6.8940023101
 20
5.7929710832
 11
6.8932004406
 21
6.0216805802
  0
LINE
  5
4BD
100
AcDbEntity
  8
ASSI
100
AcDbLine
 62
250
  6
CONTINUOUS
 10
7.0661350892
 20
-5.7915623153
 11
7.0669369587
 21
-6.0202718123
  0
LINE
  5
4BE
100
AcDbEntity
  8
ASSI
100
AcDbLine
 62
250
  6
CONTINUOUS
 10
6.8738872444
 20
-3.0845242948
 11
6.8738305747
 21
-1.3795434914
  0
LINE
  5
4BF
100
AcDbEntity
  8
ASSI
100
AcDbLine
 62
250
  6
CONTINUOUS
 10
7.086250155
 20
3.0859330626
 11
7.0863068246
 21
1.3809522593
  0
LINE
  5
4C0
100
AcDbEntity
  8
ASSI
100
AcDbLine
 62
7
  6
CONTINUOUS
 10
7.2300686997
 20
-22.1215343859
 11
7.2300686997
 21
-20.5751187747
  0
LINE
  5
4C1
100
AcDbEntity
  8
ASSI
100
AcDbLine
 62
7
  6
CONTINUOUS
 10
7.2300686997
 20
20.5765275426
 11
7.2300686997
 21
22.1229431537
  0
LINE
  5
4C2
100
AcDbEntity
  8
ASSI
100
AcDbLine
 62
250
  6
CONTINUOUS
 10
7.3862049268
 20
3.1128767285
 11
7.3862611332
 21
1.3860973889
  0
LINE
  5
4C3
100
AcDbEntity
  8
ASSI
100
AcDbLine
 62
7
  6
CONTINUOUS
 10
7.3898557665
 20
1.3896920222
 11
7.3892028539
 21
5.9098842296
  0
LINE
  5
4C4
100
AcDbEntity
  8
ASSI
100
AcDbLine
 62
7
  6
CONTINUOUS
 10
7.9300686997
 20
0.1607043839
 11
7.9300686997
 21
1.3781594489
  0
LINE
  5
4C5
100
AcDbEntity
  8
ASSI
100
AcDbLine
 62
7
  6
CONTINUOUS
 10
7.9300686997
 20
-0.1592956161
 11
7.9300686997
 21
-1.376750681
  0
LINE
  5
4C6
100
AcDbEntity
  8
ASSI
100
AcDbLine
 62
7
  6
CONTINUOUS
 10
7.3892028539
 20
-5.9084754617
 11
7.3898557665
 21
-1.3882832543
  0
LINE
  5
4C7
100
AcDbEntity
  8
ASSI
100
AcDbLine
 62
250
  6
CONTINUOUS
 10
7.3660270125
 20
-4.2704111975
 11
7.3660888173
 21
-5.7300705025
  0
LINE
  5
4C8
100
AcDbEntity
  8
ASSI
100
AcDbLine
 62
250
  6
CONTINUOUS
 10
6.8937828344
 20
-5.8899841798
 11
6.8939594836
 21
-4.1585628018
  0
LINE
  5
4C9
100
AcDbEntity
  8
ASSI
100
AcDbLine
 62
250
  6
CONTINUOUS
 10
7.0663545649
 20
5.8913929477
 11
7.0661779157
 21
4.1599715697
  0
LINE
  5
4CA
100
AcDbEntity
  8
ASSI
100
AcDbLine
 62
250
  6
CONTINUOUS
 10
7.3660888173
 20
5.7314792704
 11
7.3660270125
 21
4.2718199654
  0
LINE
  5
4CB
100
AcDbEntity
  8
ASSI
100
AcDbLine
 62
250
  6
CONTINUOUS
 10
6.8937506955
 20
4.0780721804
 11
6.8940023101
 21
5.7929710832
  0
LINE
  5
4CC
100
AcDbEntity
  8
ASSI
100
AcDbLine
 62
250
  6
CONTINUOUS
 10
7.0663867038
 20
-4.0766634126
 11
7.0661350892
 21
-5.7915623153
  0
LINE
  5
4CD
100
AcDbEntity
  8
ASSI
100
AcDbLine
 62
250
  6
CONTINUOUS
 10
6.8738305747
 20
1.3809522593
 11
6.8740463748
 21
3.1292427325
  0
LINE
  5
4CE
100
AcDbEntity
  8
ASSI
100
AcDbLine
 62
250
  6
CONTINUOUS
 10
7.0863068246
 20
-1.3795434914
 11
7.0860910245
 21
-3.1278339646
  0
LINE
  5
4CF
100
AcDbEntity
  8
ASSI
100
AcDbLine
 62
250
  6
CONTINUOUS
 10
7.3862611332
 20
-1.384688621
 11
7.385784374
 21
-3.2481475758
  0
LINE
  5
4D0
100
AcDbEntity
  8
ASSI
100
AcDbLine
 62
250
  6
CONTINUOUS
 10
7.3662229312
 20
-4.2197781701
 11
7.3660270125
 21
-4.2704111975
  0
LINE
  5
4D1
100
AcDbEntity
  8
ASSI
100
AcDbLine
 62
250
  6
CONTINUOUS
 10
6.8929454637
 20
-6.0571864175
 11
6.8937828344
 21
-5.8899841798
  0
LINE
  5
4D2
100
AcDbEntity
  8
ASSI
100
AcDbLine
 62
250
  6
CONTINUOUS
 10
7.0671919356
 20
6.0585951854
 11
7.0663545649
 21
5.8913929477
  0
LINE
  5
4D3
100
AcDbEntity
  8
ASSI
100
AcDbLine
 62
250
  6
CONTINUOUS
 10
6.8928337666
 20
3.9063576047
 11
6.8937506955
 21
4.0780721804
  0
LINE
  5
4D4
100
AcDbEntity
  8
ASSI
100
AcDbLine
 62
250
  6
CONTINUOUS
 10
7.0673036327
 20
-3.9049488368
 11
7.0663867038
 21
-4.0766634126
  0
LINE
  5
4D5
100
AcDbEntity
  8
ASSI
100
AcDbLine
 62
250
  6
CONTINUOUS
 10
7.3664720232
 20
5.7891752229
 11
7.3660888173
 21
5.7314792704
  0
LINE
  5
4D6
100
AcDbEntity
  8
ASSI
100
AcDbLine
 62
250
  6
CONTINUOUS
 10
6.8740463748
 20
3.1292427325
 11
6.8746737396
 21
3.2134025176
  0
LINE
  5
4D7
100
AcDbEntity
  8
ASSI
100
AcDbLine
 62
250
  6
CONTINUOUS
 10
7.0860910245
 20
-3.1278339646
 11
7.0854636597
 21
-3.2119937497
  0
LINE
  5
4D8
100
AcDbEntity
  8
ASSI
100
AcDbLine
 62
250
  6
CONTINUOUS
 10
7.385784374
 20
-3.2481475758
 11
7.3843858012
 21
-3.4412999897
  0
LINE
  5
4D9
100
AcDbEntity
  8
ASSI
100
AcDbLine
 62
250
  6
CONTINUOUS
 10
6.8923683805
 20
-6.1188197406
 11
6.8929454637
 21
-6.0571864175
  0
LINE
  5
4DA
100
AcDbEntity
  8
ASSI
100
AcDbLine
 62
250
  6
CONTINUOUS
 10
7.0677690188
 20
6.1202285085
 11
7.0671919356
 21
6.0585951854
  0
LINE
  5
4DB
100
AcDbEntity
  8
ASSI
100
AcDbLine
 62
250
  6
CONTINUOUS
 10
6.8923329435
 20
3.8563668166
 11
6.8928337666
 21
3.9063576047
  0
LINE
  5
4DC
100
AcDbEntity
  8
ASSI
100
AcDbLine
 62
250
  6
CONTINUOUS
 10
7.0678044558
 20
-3.8549580488
 11
7.0673036327
 21
-3.9049488368
  0
LINE
  5
4DD
100
AcDbEntity
  8
ASSI
100
AcDbLine
 62
250
  6
CONTINUOUS
 10
7.3666438449
 20
-4.1733572842
 11
7.3662229312
 21
-4.2197781701
  0
LINE
  5
4DE
100
AcDbEntity
  8
ASSI
100
AcDbLine
 62
250
  6
CONTINUOUS
 10
7.3843858012
 20
-3.4412999897
 11
7.382979118
 21
-3.5559514452
  0
LINE
  5
4DF
100
AcDbEntity
  8
ASSI
100
AcDbLine
 62
250
  6
CONTINUOUS
 10
7.3668915872
 20
5.8227421123
 11
7.3664720232
 21
5.7891752229
  0
LINE
  5
4E0
100
AcDbEntity
  8
ASSI
100
AcDbLine
 62
250
  6
CONTINUOUS
 10
6.8746737396
 20
3.2134025176
 11
6.8757028066
 21
3.2923574275
  0
LINE
  5
4E1
100
AcDbEntity
  8
ASSI
100
AcDbLine
 62
250
  6
CONTINUOUS
 10
7.0854636597
 20
-3.2119937497
 11
7.0844345927
 21
-3.2909486596
  0
LINE
  5
4E2
100
AcDbEntity
  8
ASSI
100
AcDbLine
 62
250
  6
CONTINUOUS
 10
7.3670356803
 20
-4.146553706
 11
7.3666438449
 21
-4.1733572842
  0
LWPOLYLINE
  5
4E3
100
AcDbEntity
  8
ASSI
100
AcDbPolyline
 62
250
  6
CONTINUOUS
 90
3
 70
0
 10
7.382979118
 20
-3.5559514452
 10
7.3812702285
 20
-3.6538901285
 10
7.3803107791
 20
-3.6960082025
  0
LWPOLYLINE
  5
4E4
100
AcDbEntity
  8
ASSI
100
AcDbPolyline
 62
250
  6
CONTINUOUS
 90
6
 70
0
 10
6.8757028066
 20
3.2923574275
 10
6.8771048465
 20
3.3638589851
 10
6.8779256019
 20
3.3960330308
 10
6.8788140843
 20
3.4254619892
 10
6.879776342
 20
3.4519513321
 10
6.880812375
 20
3.4753105328
  0
LWPOLYLINE
  5
4E5
100
AcDbEntity
  8
ASSI
100
AcDbPolyline
 62
250
  6
CONTINUOUS
 90
6
 70
0
 10
7.0844345927
 20
-3.2909486596
 10
7.0830325528
 20
-3.3624502173
 10
7.0822117975
 20
-3.3946242629
 10
7.0813233151
 20
-3.4240532213
 10
7.0803610573
 20
-3.4505425642
 10
7.0793250243
 20
-3.473901765
  0
LINE
  5
4E6
100
AcDbEntity
  8
ASSI
100
AcDbLine
 62
250
  6
CONTINUOUS
 10
7.3674991134
 20
-4.1242822434
 11
7.3670356803
 21
-4.146553706
  0
LINE
  5
4E7
100
AcDbEntity
  8
ASSI
100
AcDbLine
 62
250
  6
CONTINUOUS
 10
6.8808124463
 20
3.4753105329
 11
6.8923329435
 21
3.8563668166
  0
LINE
  5
4E8
100
AcDbEntity
  8
ASSI
100
AcDbLine
 62
250
  6
CONTINUOUS
 10
7.079324953
 20
-3.4739017651
 11
7.0678044558
 21
-3.8549580488
  0
LINE
  5
4E9
100
AcDbEntity
  8
ASSI
100
AcDbLine
 62
250
  6
CONTINUOUS
 10
7.3803107791
 20
-3.6960082025
 11
7.3674991134
 21
-4.1242822434
  0
LWPOLYLINE
  5
4EA
100
AcDbEntity
  8
ASSI
100
AcDbPolyline
 62
7
  6
CONTINUOUS
 90
16
 70
0
 10
7.3892028539
 20
-5.9084754617
 10
7.3875583259
 20
-5.9397893007
 10
7.3826545888
 20
-5.9707739608
 10
7.3745419615
 20
-6.0010902105
 10
7.3632997945
 20
-6.0304200432
 10
7.3490513294
 20
-6.058425438
 10
7.3319770785
 20
-6.0847593566
 10
7.3123073131
 20
-6.1091024339
 10
7.2902397074
 20
-6.1312407599
 10
7.265936917
 20
-6.1510031543
 10
7.2395929448
 20
-6.1681913099
 10
7.2115355831
 20
-6.1825535902
 10
7.1821556077
 20
-6.1938819891
 10
7.1518113167
 20
-6.202052951
 10
7.120809605
 20
-6.2069985454
 10
7.0894920417
 20
-6.2086732666
  0
LWPOLYLINE
  5
4EB
100
AcDbEntity
  8
ASSI
100
AcDbPolyline
 62
250
  6
CONTINUOUS
 90
13
 70
0
 10
7.3694433443
 20
-5.8887159521
 10
7.3668662644
 20
-5.9278602991
 10
7.3592029481
 20
-5.9663351347
 10
7.3465844659
 20
-6.0034823989
 10
7.3292266402
 20
-6.0386667376
 10
7.307426353
 20
-6.0712863703
 10
7.2815564688
 20
-6.1007833824
 10
7.2520594569
 20
-6.1266532671
 10
7.2194398241
 20
-6.148453555
 10
7.184255485
 20
-6.1658113814
 10
7.1471082202
 20
-6.178429864
 10
7.1086333837
 20
-6.1860931807
 10
7.0694890357
 20
-6.1886702607
  0
LWPOLYLINE
  5
4EC
100
AcDbEntity
  8
ASSI
100
AcDbPolyline
 62
250
  6
CONTINUOUS
 90
7
 70
0
 10
5.7862033271
 20
-17.601540985
 10
5.7861226786
 20
-17.6025946795
 10
5.7860454004
 20
-17.6040356432
 10
5.7859714926
 20
-17.605863876
 10
5.7859003862
 20
-17.6081025519
 10
5.7858326502
 20
-17.6107284968
 10
5.7857125483
 20
-17.6169409289
  0
LWPOLYLINE
  5
4ED
100
AcDbEntity
  8
ASSI
100
AcDbPolyline
 62
250
  6
CONTINUOUS
 90
13
 70
0
 10
6.5808582921
 20
-3.7337144922
 10
6.5837362179
 20
-3.6999863853
 10
6.59164154
 20
-3.6668295631
 10
6.604440255
 20
-3.6348050981
 10
6.6219155454
 20
-3.604454885
 10
6.643771503
 20
-3.5762923908
 10
6.6696381813
 20
-3.5507939905
 10
6.6990777327
 20
-3.5283910482
 10
6.7315919171
 20
-3.5094624962
 10
6.7666306513
 20
-3.4943284146
 10
6.8036010904
 20
-3.4832447651
 10
6.8418776194
 20
-3.4763990084
 10
6.8808126006
 20
-3.4739068706
  0
LWPOLYLINE
  5
4EE
100
AcDbEntity
  8
ASSI
100
AcDbPolyline
 62
250
  6
CONTINUOUS
 90
13
 70
0
 10
6.592378635
 20
-4.1147656699
 10
6.5952561664
 20
-4.0810400092
 10
6.603160524
 20
-4.0478850193
 10
6.6159579582
 20
-4.0158617145
 10
6.6334319243
 20
-3.9855119603
 10
6.6552867457
 20
-3.9573493037
 10
6.6811526178
 20
-3.9318502841
 10
6.710591865
 20
-3.9094463696
 10
6.7431063469
 20
-3.8905166559
 10
6.7781458869
 20
-3.8753814523
 10
6.8151175823
 20
-3.8642968609
 10
6.8533958362
 20
-3.8574504437
 10
6.8923329435
 20
-3.8549580488
  0
LWPOLYLINE
  5
4EF
100
AcDbEntity
  8
ASSI
100
AcDbPolyline
 62
250
  6
CONTINUOUS
 90
13
 70
0
 10
7.3677587643
 20
4.1161744378
 10
7.3648812329
 20
4.0824487771
 10
7.3569768753
 20
4.0492937871
 10
7.3441794411
 20
4.0172704824
 10
7.3267054751
 20
3.9869207282
 10
7.3048506537
 20
3.9587580716
 10
7.2789847816
 20
3.933259052
 10
7.2495455343
 20
3.9108551374
 10
7.2170310525
 20
3.8919254238
 10
7.1819915124
 20
3.8767902202
 10
7.145019817
 20
3.8657056288
 10
7.1067415632
 20
3.8588592116
 10
7.0678044558
 20
3.8563668166
  0
LWPOLYLINE
  5
4F0
100
AcDbEntity
  8
ASSI
100
AcDbPolyline
 62
250
  6
CONTINUOUS
 90
13
 70
0
 10
7.3792791072
 20
3.7351232601
 10
7.3764011814
 20
3.7013951531
 10
7.3684958593
 20
3.668238331
 10
7.3556971444
 20
3.636213866
 10
7.3382218539
 20
3.6058636529
 10
7.3163658963
 20
3.5777011587
 10
7.290499218
 20
3.5522027584
 10
7.2610596666
 20
3.5297998161
 10
7.2285454823
 20
3.5108712641
 10
7.1935067481
 20
3.4957371825
 10
7.1565363089
 20
3.4846535329
 10
7.1182597799
 20
3.4778077762
 10
7.0793247987
 20
3.4753156385
  0
LINE
  5
4F1
100
AcDbEntity
  8
ASSI
100
AcDbLine
 62
250
  6
CONTINUOUS
 10
5.5615878063
 20
-17.0992956161
 11
5.5362412972
 21
-17.3553401191
  0
LINE
  5
4F2
100
AcDbEntity
  8
ASSI
100
AcDbLine
 62
250
  6
CONTINUOUS
 10
5.8151557363
 20
-17.3090705239
 11
5.7862033271
 21
-17.601540985
  0
LWPOLYLINE
  5
4F3
100
AcDbEntity
  8
ASSI
100
AcDbPolyline
 62
250
  6
CONTINUOUS
 90
5
 70
0
 10
6.8906483636
 20
-6.1886702607
 10
6.891014942
 20
-6.185089991
 10
6.891369555
 20
-6.1761916418
 10
6.8917122025
 20
-6.1620705608
 10
6.8923683805
 20
-6.1188197406
  0
LINE
  5
4F4
100
AcDbEntity
  8
ASSI
100
AcDbLine
 62
7
  6
CONTINUOUS
 10
9.6748978006
 20
20.3726144718
 11
9.7184952828
 21
20.6792932338
  0
LWPOLYLINE
  5
4F5
100
AcDbEntity
  8
ASSI
100
AcDbPolyline
 62
250
  6
CONTINUOUS
 90
10
 70
0
 10
6.5906940551
 20
-5.8887159521
 10
6.5910582512
 20
-5.8872256882
 10
6.5914113084
 20
-5.8837107404
 10
6.5917532265
 20
-5.878171109
 10
6.5920876938
 20
-5.8705037872
 10
6.5924110221
 20
-5.8608117817
 10
6.5927121466
 20
-5.849404112
 10
6.5929900813
 20
-5.8362265604
 10
6.5932458121
 20
-5.8213333445
 10
6.5936653762
 20
-5.787766455
  0
LINE
  5
4F6
100
AcDbEntity
  8
ASSI
100
AcDbLine
 62
250
  6
CONTINUOUS
 10
-5.6131377925
 20
-15.5925401844
 11
-5.6339459666
 21
-15.6133483586
  0
LINE
  5
4F7
100
AcDbEntity
  8
ASSI
100
AcDbLine
 62
250
  6
CONTINUOUS
 10
-5.363171345
 20
-15.8424975845
 11
-5.3839867421
 21
-15.8633129817
  0
LINE
  5
4F8
100
AcDbEntity
  8
ASSI
100
AcDbLine
 62
7
  6
CONTINUOUS
 10
9.6759579984
 20
-1.376750681
 11
9.6672948965
 21
-1.3854137829
  0
LINE
  5
4F9
100
AcDbEntity
  8
ASSI
100
AcDbLine
 62
250
  6
CONTINUOUS
 10
-5.6339459593
 20
15.6147571191
 11
-5.6131377925
 21
15.5939489523
  0
LINE
  5
4FA
100
AcDbEntity
  8
ASSI
100
AcDbLine
 62
250
  6
CONTINUOUS
 10
-5.3839867421
 20
15.8647217495
 11
-5.363171345
 21
15.8439063524
  0
LINE
  5
4FB
100
AcDbEntity
  8
ASSI
100
AcDbLine
 62
7
  6
CONTINUOUS
 10
9.6759579984
 20
1.3781594489
 11
9.6672948965
 21
1.3868225508
  0
LINE
  5
4FC
100
AcDbEntity
  8
ASSI
100
AcDbLine
 62
7
  6
CONTINUOUS
 10
9.6748978006
 20
-20.3712057039
 11
9.7184952828
 21
-20.6778844659
  0
LINE
  5
4FD
100
AcDbEntity
  8
ASSI
100
AcDbLine
 62
7
  6
CONTINUOUS
 10
7.6384936926
 20
22.1600170897
 11
7.7132874288
 21
20.6792932338
  0
LINE
  5
4FE
100
AcDbEntity
  8
ASSI
100
AcDbLine
 62
7
  6
CONTINUOUS
 10
9.7184952828
 20
20.6792932338
 11
9.7300686997
 21
13.1007043839
  0
LINE
  5
4FF
100
AcDbEntity
  8
ASSI
100
AcDbLine
 62
7
  6
CONTINUOUS
 10
9.6708436279
 20
-13.9493158658
 11
9.6748978006
 21
-20.3712057039
  0
LINE
  5
500
100
AcDbEntity
  8
ASSI
100
AcDbLine
 62
7
  6
CONTINUOUS
 10
9.3300686997
 20
13.9507043839
 11
9.3300686997
 21
10.4507043839
  0
LINE
  5
501
100
AcDbEntity
  8
ASSI
100
AcDbLine
 62
7
  6
CONTINUOUS
 10
9.3300686997
 20
-13.9492956161
 11
9.3300686997
 21
-10.4492956161
  0
LINE
  5
502
100
AcDbEntity
  8
ASSI
100
AcDbLine
 62
7
  6
CONTINUOUS
 10
9.6672948965
 20
-1.3854137829
 11
9.6692855384
 21
-10.4493131997
  0
LINE
  5
503
100
AcDbEntity
  8
ASSI
100
AcDbLine
 62
7
  6
CONTINUOUS
 10
9.6759579984
 20
1.3781594489
 11
9.6759579984
 21
0.1607043839
  0
LINE
  5
504
100
AcDbEntity
  8
ASSI
100
AcDbLine
 62
7
  6
CONTINUOUS
 10
9.6759579984
 20
-1.376750681
 11
9.6759579984
 21
-0.1592956161
  0
LINE
  5
505
100
AcDbEntity
  8
ASSI
100
AcDbLine
 62
7
  6
CONTINUOUS
 10
9.7131918006
 20
13.9507043839
 11
9.7131918006
 21
10.4507043839
  0
LINE
  5
506
100
AcDbEntity
  8
ASSI
100
AcDbLine
 62
7
  6
CONTINUOUS
 10
9.7131918006
 20
-13.9492956161
 11
9.7131918006
 21
-10.4492956161
  0
LINE
  5
507
100
AcDbEntity
  8
ASSI
100
AcDbLine
 62
7
  6
CONTINUOUS
 10
9.7300686997
 20
-0.1322423259
 11
9.7300686997
 21
-13.0992956161
  0
LINE
  5
508
100
AcDbEntity
  8
ASSI
100
AcDbLine
 62
7
  6
CONTINUOUS
 10
9.7300686997
 20
0.1336510938
 11
9.7300686997
 21
13.1007043839
  0
LINE
  5
509
100
AcDbEntity
  8
ASSI
100
AcDbLine
 62
7
  6
CONTINUOUS
 10
9.6692855384
 20
10.4507219676
 11
9.6672948965
 21
1.3868225508
  0
LINE
  5
50A
100
AcDbEntity
  8
ASSI
100
AcDbLine
 62
7
  6
CONTINUOUS
 10
9.6748978006
 20
20.3726144718
 11
9.6708436279
 21
13.9507246336
  0
LINE
  5
50B
100
AcDbEntity
  8
ASSI
100
AcDbLine
 62
7
  6
CONTINUOUS
 10
9.7184952828
 20
-20.6778844659
 11
9.7300686997
 21
-13.0992956161
  0
LINE
  5
50C
100
AcDbEntity
  8
ASSI
100
AcDbLine
 62
7
  6
CONTINUOUS
 10
7.7132874288
 20
-20.6778844659
 11
7.6384936926
 21
-22.1586083218
  0
LINE
  5
50D
100
AcDbEntity
  8
ASSI
100
AcDbLine
 62
7
  6
CONTINUOUS
 10
5.8328961668
 20
-20.3464957045
 11
5.8003950893
 21
-20.5751187747
  0
LWPOLYLINE
  5
50E
100
AcDbEntity
  8
ASSI
100
AcDbPolyline
 62
250
  6
CONTINUOUS
 90
13
 70
0
 10
5.7855638961
 20
-17.9539181304
 10
5.7829572696
 20
-17.9675724366
 10
5.7762030164
 20
-17.9809977889
 10
5.765414391
 20
-17.9939690725
 10
5.750772296
 20
-18.0062687862
 10
5.7325222483
 20
-18.0176906898
 10
5.7109702628
 20
-18.0280432621
 10
5.6864777208
 20
-18.0371529122
 10
5.6594553107
 20
-18.0448668905
 10
5.6303561413
 20
-18.0510558498
 10
5.5996681442
 20
-18.0556160145
 10
5.5679058926
 20
-18.05847092
 10
5.5356019723
 20
-18.0595726958
  0
LWPOLYLINE
  5
50F
100
AcDbEntity
  8
ASSI
100
AcDbPolyline
 62
250
  6
CONTINUOUS
 90
8
 70
0
 10
5.8160132579
 20
-15.8633129817
 10
5.8159211904
 20
-15.8637008562
 10
5.8158322018
 20
-15.8645936045
 10
5.815746292
 20
-15.8659912265
 10
5.8156626246
 20
-15.8679201261
 10
5.815582036
 20
-15.8703538994
 10
5.8155070356
 20
-15.8732133349
 10
5.8153741593
 20
-15.8802348534
  0
LINE
  5
510
100
AcDbEntity
  8
ASSI
100
AcDbLine
 62
250
  6
CONTINUOUS
 10
6.5701010022
 20
-5.909309005
 11
6.5906940551
 21
-5.8887159521
  0
LINE
  5
511
100
AcDbEntity
  8
ASSI
100
AcDbLine
 62
250
  6
CONTINUOUS
 10
6.8704228352
 20
-6.2088957891
 11
6.8906483636
 21
-6.1886702607
  0
LINE
  5
512
100
AcDbEntity
  8
ASSI
100
AcDbLine
 62
250
  6
CONTINUOUS
 10
6.5906940551
 20
5.89012472
 11
6.5701010022
 21
5.9107177729
  0
LINE
  5
513
100
AcDbEntity
  8
ASSI
100
AcDbLine
 62
250
  6
CONTINUOUS
 10
6.8906483636
 20
6.1900790285
 11
6.8704228352
 21
6.210304557
  0
LWPOLYLINE
  5
514
100
AcDbEntity
  8
ASSI
100
AcDbPolyline
 62
250
  6
CONTINUOUS
 90
13
 70
0
 10
5.7855638961
 20
17.9553268982
 10
5.7829572689
 20
17.968981206
 10
5.776203014
 20
17.9824065595
 10
5.7654143863
 20
17.9953778439
 10
5.7507722886
 20
18.007677558
 10
5.7325222384
 20
18.0190994616
 10
5.710970251
 20
18.0294520334
 10
5.6864777082
 20
18.0385616828
 10
5.6594552985
 20
18.0462756601
 10
5.6303561306
 20
18.0524646187
 10
5.599668136
 20
18.0570247826
 10
5.567905888
 20
18.0598796878
 10
5.5356019723
 20
18.0609814637
  0
LINE
  5
515
100
AcDbEntity
  8
ASSI
100
AcDbLine
 62
7
  6
CONTINUOUS
 10
5.8328961668
 20
20.3479044724
 11
5.8003950893
 21
20.5765275426
  0
LINE
  5
516
100
AcDbEntity
  8
ASSI
100
AcDbLine
 62
7
  6
CONTINUOUS
 10
10.9104543324
 20
21.6622989354
 11
10.9300686997
 21
13.1007043839
  0
LINE
  5
517
100
AcDbEntity
  8
ASSI
100
AcDbLine
 62
7
  6
CONTINUOUS
 10
10.9300686997
 20
-13.0992956161
 11
10.9300686997
 21
-0.5321661802
  0
LINE
  5
518
100
AcDbEntity
  8
ASSI
100
AcDbLine
 62
7
  6
CONTINUOUS
 10
10.9300686997
 20
0.533574948
 11
10.9300686997
 21
13.1007043839
  0
LINE
  5
519
100
AcDbEntity
  8
ASSI
100
AcDbLine
 62
7
  6
CONTINUOUS
 10
10.9104543324
 20
-21.6608901675
 11
10.9300686997
 21
-13.0992956161
  0
LINE
  5
51A
100
AcDbEntity
  8
ASSI
100
AcDbLine
 62
7
  6
CONTINUOUS
 10
9.7131918006
 20
10.4507043839
 11
9.3300686997
 21
10.4507043839
  0
LINE
  5
51B
100
AcDbEntity
  8
ASSI
100
AcDbLine
 62
7
  6
CONTINUOUS
 10
-9.6699313003
 20
10.4507043839
 11
-10.0530544013
 21
10.4507043839
  0
LINE
  5
51C
100
AcDbEntity
  8
ASSI
100
AcDbLine
 62
7
  6
CONTINUOUS
 10
10.9300686997
 20
13.1007043839
 11
9.7300686997
 21
13.1007043839
  0
LINE
  5
51D
100
AcDbEntity
  8
ASSI
100
AcDbLine
 62
7
  6
CONTINUOUS
 10
-10.0699313003
 20
13.1007043839
 11
-11.2699313003
 21
13.1007043839
  0
LINE
  5
51E
100
AcDbEntity
  8
ASSI
100
AcDbLine
 62
250
  6
CONTINUOUS
 10
5.5866389731
 20
-15.5927634189
 11
5.5660540334
 21
-15.6133483586
  0
LINE
  5
51F
100
AcDbEntity
  8
ASSI
100
AcDbLine
 62
7
  6
CONTINUOUS
 10
9.7131918006
 20
13.9507043839
 11
9.3300686997
 21
13.9507043839
  0
LINE
  5
520
100
AcDbEntity
  8
ASSI
100
AcDbLine
 62
7
  6
CONTINUOUS
 10
-9.6699313003
 20
13.9507043839
 11
-10.0530544013
 21
13.9507043839
  0
LINE
  5
521
100
AcDbEntity
  8
ASSI
100
AcDbLine
 62
250
  6
CONTINUOUS
 10
5.5660540407
 20
15.6147571191
 11
5.5866389731
 21
15.5941721867
  0
LINE
  5
522
100
AcDbEntity
  8
ASSI
100
AcDbLine
 62
250
  6
CONTINUOUS
 10
5.8362521498
 20
-15.8430740897
 11
5.8160132579
 21
-15.8633129817
  0
LINE
  5
523
100
AcDbEntity
  8
ASSI
100
AcDbLine
 62
7
  6
CONTINUOUS
 10
5.2732751918
 20
15.5939489523
 11
5.5866389731
 21
15.5941721867
  0
LINE
  5
524
100
AcDbEntity
  8
ASSI
100
AcDbLine
 62
250
  6
CONTINUOUS
 10
-5.905916634
 20
15.6147571265
 11
-5.6339459593
 21
15.6147571191
  0
LINE
  5
525
100
AcDbEntity
  8
ASSI
100
AcDbLine
 62
250
  6
CONTINUOUS
 10
5.294083366
 20
15.6147571265
 11
5.5660540407
 21
15.6147571191
  0
LINE
  5
526
100
AcDbEntity
  8
ASSI
100
AcDbLine
 62
250
  6
CONTINUOUS
 10
-6.1550183369
 20
15.9147141343
 11
-5.3848442637
 21
15.9147141343
  0
LINE
  5
527
100
AcDbEntity
  8
ASSI
100
AcDbLine
 62
250
  6
CONTINUOUS
 10
5.0449816631
 20
15.9147141343
 11
5.8151557363
 21
15.9147141343
  0
LINE
  5
528
100
AcDbEntity
  8
ASSI
100
AcDbLine
 62
7
  6
CONTINUOUS
 10
-5.9265015738
 20
15.5941721867
 11
-5.6131377925
 21
15.5939489523
  0
LWPOLYLINE
  5
529
100
AcDbEntity
  8
ASSI
100
AcDbPolyline
 62
7
  6
CONTINUOUS
 90
16
 70
0
 10
5.2732751918
 20
15.5939489523
 10
5.2470965337
 20
15.5953038348
 10
5.2212016611
 20
15.5993923827
 10
5.1958750856
 20
15.6061715757
 10
5.1713811036
 20
15.6155750365
 10
5.1480053396
 20
15.6274979622
 10
5.1260443143
 20
15.6417836034
 10
5.1057571619
 20
15.6582422951
 10
5.0873284726
 20
15.6767011824
 10
5.0709186825
 20
15.6969936046
 10
5.0566994305
 20
15.7189194895
 10
5.0448436405
 20
15.7422258218
 10
5.0354875323
 20
15.7666497924
 10
5.0287351382
 20
15.7919213453
 10
5.0246602669
 20
15.8177676716
 10
5.0233087444
 20
15.8439063524
  0
LWPOLYLINE
  5
52A
100
AcDbEntity
  8
ASSI
100
AcDbPolyline
 62
7
  6
CONTINUOUS
 90
16
 70
0
 10
-5.9265015738
 20
15.5941721867
 10
-5.9526284824
 20
15.5955635319
 10
-5.9784753047
 20
15.5996848729
 10
-6.0037578092
 20
15.6064939112
 10
-6.0282115564
 20
15.6159254306
 10
-6.0515511787
 20
15.6278749658
 10
-6.0734808634
 20
15.6421851577
 10
-6.0937412804
 20
15.6586667309
 10
-6.1121474915
 20
15.6771475092
 10
-6.1285394322
 20
15.6974604779
 10
-6.1427448788
 20
15.7194055351
 10
-6.1545904987
 20
15.7427302568
 10
-6.1639403311
 20
15.7671724082
 10
-6.1706896579
 20
15.7924621925
 10
-6.1747633888
 20
15.8183265769
 10
-6.1761147505
 20
15.8444828576
  0
LINE
  5
52B
100
AcDbEntity
  8
ASSI
100
AcDbLine
 62
250
  6
CONTINUOUS
 10
5.8160132579
 20
15.8647217495
 11
5.8362521498
 21
15.8444828576
  0
LINE
  5
52C
100
AcDbEntity
  8
ASSI
100
AcDbLine
 62
7
  6
CONTINUOUS
 10
-5.6384121937
 20
17.1007043839
 11
-5.901450407
 21
17.1007043839
  0
LINE
  5
52D
100
AcDbEntity
  8
ASSI
100
AcDbLine
 62
7
  6
CONTINUOUS
 10
5.298549593
 20
17.1007043839
 11
5.5615878063
 21
17.1007043839
  0
LINE
  5
52E
100
AcDbEntity
  8
ASSI
100
AcDbLine
 62
250
  6
CONTINUOUS
 10
-5.8761038978
 20
17.356748887
 11
-5.6637587028
 21
17.356748887
  0
LINE
  5
52F
100
AcDbEntity
  8
ASSI
100
AcDbLine
 62
250
  6
CONTINUOUS
 10
5.3238961022
 20
17.356748887
 11
5.5362412972
 21
17.356748887
  0
LINE
  5
530
100
AcDbEntity
  8
ASSI
100
AcDbLine
 62
250
  6
CONTINUOUS
 10
-6.1253447265
 20
17.6521901405
 11
-5.4145178741
 21
17.6521901405
  0
LINE
  5
531
100
AcDbEntity
  8
ASSI
100
AcDbLine
 62
250
  6
CONTINUOUS
 10
5.0746552735
 20
17.6521901405
 11
5.7854821259
 21
17.6521901405
  0
LINE
  5
532
100
AcDbEntity
  8
ASSI
100
AcDbLine
 62
250
  6
CONTINUOUS
 10
-6.1253447265
 20
17.9341959851
 11
-5.4145178741
 21
17.9341959851
  0
LINE
  5
533
100
AcDbEntity
  8
ASSI
100
AcDbLine
 62
250
  6
CONTINUOUS
 10
5.0746552735
 20
17.9341959851
 11
5.7854821259
 21
17.9341959851
  0
LINE
  5
534
100
AcDbEntity
  8
ASSI
100
AcDbLine
 62
250
  6
CONTINUOUS
 10
-5.8754645735
 20
18.0609815327
 11
-5.6643980277
 21
18.0609814637
  0
LINE
  5
535
100
AcDbEntity
  8
ASSI
100
AcDbLine
 62
250
  6
CONTINUOUS
 10
5.3245354265
 20
18.0609815327
 11
5.5356019723
 21
18.0609814637
  0
LINE
  5
536
100
AcDbEntity
  8
ASSI
100
AcDbLine
 62
7
  6
CONTINUOUS
 10
7.2300686997
 20
20.5765275426
 11
7.7132874288
 21
20.6792932338
  0
LINE
  5
537
100
AcDbEntity
  8
ASSI
100
AcDbLine
 62
7
  6
CONTINUOUS
 10
-7.5699313003
 20
20.5765275426
 11
-8.0531500295
 21
20.6792932338
  0
LINE
  5
538
100
AcDbEntity
  8
ASSI
100
AcDbLine
 62
7
  6
CONTINUOUS
 10
-3.9699313003
 20
20.5765275426
 11
-3.4867125712
 21
20.6792932338
  0
LINE
  5
539
100
AcDbEntity
  8
ASSI
100
AcDbLine
 62
7
  6
CONTINUOUS
 10
7.2300686997
 20
22.1229431537
 11
7.6384936926
 21
22.1600170897
  0
LINE
  5
53A
100
AcDbEntity
  8
ASSI
100
AcDbLine
 62
7
  6
CONTINUOUS
 10
5.8328961668
 20
20.3479044724
 11
9.6748978006
 21
20.3726144718
  0
LINE
  5
53B
100
AcDbEntity
  8
ASSI
100
AcDbLine
 62
7
  6
CONTINUOUS
 10
2.7169550828
 20
20.3366638823
 11
5.0267203757
 21
20.3442405973
  0
LINE
  5
53C
100
AcDbEntity
  8
ASSI
100
AcDbLine
 62
7
  6
CONTINUOUS
 10
0.4074111867
 20
20.3334167187
 11
2.7169550828
 21
20.3366638823
  0
LINE
  5
53D
100
AcDbEntity
  8
ASSI
100
AcDbLine
 62
7
  6
CONTINUOUS
 10
-5.6456880774
 20
20.3596619965
 11
-5.8941745233
 21
20.3596619965
  0
LINE
  5
53E
100
AcDbEntity
  8
ASSI
100
AcDbLine
 62
7
  6
CONTINUOUS
 10
5.3058254767
 20
20.3596619965
 11
5.5543119226
 21
20.3596619965
  0
LINE
  5
53F
100
AcDbEntity
  8
ASSI
100
AcDbLine
 62
7
  6
CONTINUOUS
 10
7.2300686997
 20
20.5765275426
 11
5.8003950893
 21
20.5765275426
  0
LINE
  5
540
100
AcDbEntity
  8
ASSI
100
AcDbLine
 62
7
  6
CONTINUOUS
 10
5.05974231
 20
20.5765275426
 11
3.6300686997
 21
20.5765275426
  0
LINE
  5
541
100
AcDbEntity
  8
ASSI
100
AcDbLine
 62
7
  6
CONTINUOUS
 10
-3.9699313003
 20
20.5765275426
 11
-5.3996049107
 21
20.5765275426
  0
LINE
  5
542
100
AcDbEntity
  8
ASSI
100
AcDbLine
 62
7
  6
CONTINUOUS
 10
-6.14025769
 20
20.5765275426
 11
-7.5699313003
 21
20.5765275426
  0
LINE
  5
543
100
AcDbEntity
  8
ASSI
100
AcDbLine
 62
7
  6
CONTINUOUS
 10
9.7184952828
 20
20.6792932338
 11
7.7132874288
 21
20.6792932338
  0
LINE
  5
544
100
AcDbEntity
  8
ASSI
100
AcDbLine
 62
7
  6
CONTINUOUS
 10
3.1468499705
 20
20.6792932338
 11
-3.4867125712
 21
20.6792932338
  0
LINE
  5
545
100
AcDbEntity
  8
ASSI
100
AcDbLine
 62
7
  6
CONTINUOUS
 10
-8.0531500295
 20
20.6792932338
 11
-10.0583578834
 21
20.6792932338
  0
LINE
  5
546
100
AcDbEntity
  8
ASSI
100
AcDbLine
 62
7
  6
CONTINUOUS
 10
-1.9020061974
 20
20.3344991066
 11
0.4074111867
 21
20.3334167187
  0
LWPOLYLINE
  5
547
100
AcDbEntity
  8
ASSI
100
AcDbPolyline
 62
7
  6
CONTINUOUS
 90
3
 70
0
 10
-5.3665829763
 20
20.3442405973
 10
-4.2116766076
 20
20.3399110459
 10
-1.9020061974
 20
20.3344991066
  0
LINE
  5
548
100
AcDbEntity
  8
ASSI
100
AcDbLine
 62
7
  6
CONTINUOUS
 10
-10.0147604013
 20
20.3726144718
 11
-6.1727587675
 21
20.3479044724
  0
LINE
  5
549
100
AcDbEntity
  8
ASSI
100
AcDbLine
 62
7
  6
CONTINUOUS
 10
-7.5699313003
 20
22.1229431537
 11
-7.9783562933
 21
22.1600170897
  0
LINE
  5
54A
100
AcDbEntity
  8
ASSI
100
AcDbLine
 62
7
  6
CONTINUOUS
 10
3.6300686997
 20
20.5765275426
 11
3.1468499705
 21
20.6792932338
  0
LINE
  5
54B
100
AcDbEntity
  8
ASSI
100
AcDbLine
 62
7
  6
CONTINUOUS
 10
-3.9699313003
 20
22.1229431537
 11
-3.5615063074
 21
22.1600170897
  0
LINE
  5
54C
100
AcDbEntity
  8
ASSI
100
AcDbLine
 62
7
  6
CONTINUOUS
 10
7.2300686997
 20
22.1229431537
 11
3.6300686997
 21
22.1229431537
  0
LINE
  5
54D
100
AcDbEntity
  8
ASSI
100
AcDbLine
 62
7
  6
CONTINUOUS
 10
-3.9699313003
 20
22.1229431537
 11
-7.5699313003
 21
22.1229431537
  0
LINE
  5
54E
100
AcDbEntity
  8
ASSI
100
AcDbLine
 62
7
  6
CONTINUOUS
 10
10.4098279108
 20
22.1600170897
 11
7.6384936926
 21
22.1600170897
  0
LINE
  5
54F
100
AcDbEntity
  8
ASSI
100
AcDbLine
 62
7
  6
CONTINUOUS
 10
3.2216437067
 20
22.1600170897
 11
-3.5615063074
 21
22.1600170897
  0
LINE
  5
550
100
AcDbEntity
  8
ASSI
100
AcDbLine
 62
7
  6
CONTINUOUS
 10
-7.9783562933
 20
22.1600170897
 11
-10.7496905115
 21
22.1600170897
  0
LINE
  5
551
100
AcDbEntity
  8
ASSI
100
AcDbLine
 62
7
  6
CONTINUOUS
 10
3.6300686997
 20
22.1229431537
 11
3.2216437067
 21
22.1600170897
  0
ARC
  5
552
100
AcDbEntity
  8
ASSI
100
AcDbCircle
 62
250
  6
CONTINUOUS
 10
-3.3449313003
 20
0.0007043839
 40
2.6034300864
100
AcDbArc
 50
90.0
 51
145.0476998388
  0
ARC
  5
553
100
AcDbEntity
  8
ASSI
100
AcDbCircle
 62
250
  6
CONTINUOUS
 10
3.0050686997
 20
0.0007043839
 40
2.6034300864
100
AcDbArc
 50
34.9535543071
 51
90.0
  0
ARC
  5
554
100
AcDbEntity
  8
ASSI
100
AcDbCircle
 62
250
  6
CONTINUOUS
 10
3.0050686997
 20
0.0007043839
 40
2.6034300864
100
AcDbArc
 50
270.0
 51
325.0476998388
  0
ARC
  5
555
100
AcDbEntity
  8
ASSI
100
AcDbCircle
 62
250
  6
CONTINUOUS
 10
-3.3449313003
 20
0.0007043839
 40
2.6034300864
100
AcDbArc
 50
214.9535543071
 51
270.0
  0
ARC
  5
556
100
AcDbEntity
  8
ASSI
100
AcDbCircle
 62
250
  6
CONTINUOUS
 10
-3.3449313003
 20
0.0007043839
 40
2.4034605474
100
AcDbArc
 50
90.0
 51
145.0464456931
  0
ARC
  5
557
100
AcDbEntity
  8
ASSI
100
AcDbCircle
 62
250
  6
CONTINUOUS
 10
3.0050686997
 20
0.0007043839
 40
2.4034605474
100
AcDbArc
 50
34.9535543069
 51
90.0
  0
ARC
  5
558
100
AcDbEntity
  8
ASSI
100
AcDbCircle
 62
250
  6
CONTINUOUS
 10
3.0050686997
 20
0.0007043839
 40
2.4034605474
100
AcDbArc
 50
270.0
 51
325.0464456931
  0
ARC
  5
559
100
AcDbEntity
  8
ASSI
100
AcDbCircle
 62
250
  6
CONTINUOUS
 10
-3.3449313003
 20
0.0007043839
 40
2.4034605474
100
AcDbArc
 50
214.9535543069
 51
270.0
  0
ARC
  5
55A
100
AcDbEntity
  8
ASSI
100
AcDbCircle
 62
7
  6
CONTINUOUS
 10
3.0050686997
 20
0.0007043839
 40
2.125
100
AcDbArc
 50
26.54624268
 51
90.0
  0
ARC
  5
55B
100
AcDbEntity
  8
ASSI
100
AcDbCircle
 62
7
  6
CONTINUOUS
 10
-3.3449313003
 20
0.0007043839
 40
2.125
100
AcDbArc
 50
90.0
 51
153.4537575263
  0
ARC
  5
55C
100
AcDbEntity
  8
ASSI
100
AcDbCircle
 62
7
  6
CONTINUOUS
 10
-3.3449313003
 20
0.0007043839
 40
2.125
100
AcDbArc
 50
206.54624268
 51
270.0
  0
ARC
  5
55D
100
AcDbEntity
  8
ASSI
100
AcDbCircle
 62
7
  6
CONTINUOUS
 10
3.0050686997
 20
0.0007043839
 40
2.125
100
AcDbArc
 50
270.0
 51
333.4537575263
  0
ARC
  5
55E
100
AcDbEntity
  8
ASSI
100
AcDbCircle
 62
7
  6
CONTINUOUS
 10
-3.3449313003
 20
0.0007043839
 40
1.525
100
AcDbArc
 50
89.9999882847
 51
163.0879461817
  0
ARC
  5
55F
100
AcDbEntity
  8
ASSI
100
AcDbCircle
 62
7
  6
CONTINUOUS
 10
3.0050686997
 20
0.0007043839
 40
1.525
100
AcDbArc
 50
16.9120538183
 51
90.0
  0
ARC
  5
560
100
AcDbEntity
  8
ASSI
100
AcDbCircle
 62
7
  6
CONTINUOUS
 10
3.0050686997
 20
0.0007043839
 40
1.525
100
AcDbArc
 50
269.9999882847
 51
343.0879461817
  0
ARC
  5
561
100
AcDbEntity
  8
ASSI
100
AcDbCircle
 62
7
  6
CONTINUOUS
 10
-3.3449313003
 20
0.0007043839
 40
1.525
100
AcDbArc
 50
196.9120538183
 51
270.0
  0
ELLIPSE
  5
562
100
AcDbEntity
  8
ASSI
100
AcDbEllipse
 62
7
  6
CONTINUOUS
 10
-10.7501471011
 20
21.6616161282
 30
0.0
 11
0.4962344879
 21
0.0628595572
 31
0.0
 40
0.9963456432
 41
1.4443370775
 42
3.0137634083
  0
ELLIPSE
  5
563
100
AcDbEntity
  8
ASSI
100
AcDbEllipse
 62
7
  6
CONTINUOUS
 10
10.4102845005
 20
21.6616161282
 30
0.0
 11
0.4962344879
 21
-0.0628595572
 31
0.0
 40
0.9963456432
 41
0.1278292453
 42
1.6972555761
  0
ELLIPSE
  5
564
100
AcDbEntity
  8
ASSI
100
AcDbEllipse
 62
7
  6
CONTINUOUS
 10
10.5299315827
 20
0.5336663251
 30
0.0
 11
0.3796255539
 21
-0.1265161514
 31
0.0
 40
0.9996192872
 41
-1.2489924673
 42
0.3215754254
  0
ELLIPSE
  5
565
100
AcDbEntity
  8
ASSI
100
AcDbEllipse
 62
7
  6
CONTINUOUS
 10
-10.8697941833
 20
0.5336663251
 30
0.0
 11
0.3796255539
 21
0.1265161514
 31
0.0
 40
0.9996192872
 41
2.8200172282
 42
4.3905851209
  0
ELLIPSE
  5
566
100
AcDbEntity
  8
ASSI
100
AcDbEllipse
 62
7
  6
CONTINUOUS
 10
-7.4261694253
 20
1.3861887787
 30
0.0
 11
0.3
 21
-0.0
 31
0.0
 40
0.0174550649
 41
-3.1241393611
 42
-1.5707963268
  0
ELLIPSE
  5
567
100
AcDbEntity
  8
ASSI
100
AcDbEllipse
 62
7
  6
CONTINUOUS
 10
-7.2136931754
 20
1.3861887787
 30
0.0
 11
0.3
 21
-0.0
 31
0.0
 40
0.0174550649
 41
-1.5707963268
 42
-0.0174532925
  0
ELLIPSE
  5
568
100
AcDbEntity
  8
ASSI
100
AcDbEllipse
 62
7
  6
CONTINUOUS
 10
6.8738305747
 20
1.3861887787
 30
0.0
 11
0.3
 21
-0.0
 31
0.0
 40
0.0174550649
 41
-3.1241393611
 42
-1.5707963268
  0
ELLIPSE
  5
569
100
AcDbEntity
  8
ASSI
100
AcDbEllipse
 62
7
  6
CONTINUOUS
 10
7.0863068246
 20
1.3861887787
 30
0.0
 11
0.3
 21
-0.0
 31
0.0
 40
0.0174550649
 41
-1.5707963268
 42
-0.0174532925
  0
ELLIPSE
  5
56A
100
AcDbEntity
  8
ASSI
100
AcDbEllipse
 62
7
  6
CONTINUOUS
 10
-5.8902196079
 20
19.7681116007
 30
0.0
 11
-0.0048148548
 21
0.5915468962
 31
0.0
 40
0.4226067633
 41
-0.0034397648
 42
1.5515386505
  0
ELLIPSE
  5
56B
100
AcDbEntity
  8
ASSI
100
AcDbEllipse
 62
7
  6
CONTINUOUS
 10
-5.6496429927
 20
19.7681116007
 30
0.0
 11
0.0048148548
 21
0.5915468962
 31
0.0
 40
0.4226067633
 41
-1.5515386505
 42
0.0034397648
  0
ELLIPSE
  5
56C
100
AcDbEntity
  8
ASSI
100
AcDbEllipse
 62
7
  6
CONTINUOUS
 10
5.3097803921
 20
19.7681116007
 30
0.0
 11
-0.0048148548
 21
0.5915468962
 31
0.0
 40
0.4226067633
 41
-0.0034397648
 42
1.5515386505
  0
ELLIPSE
  5
56D
100
AcDbEntity
  8
ASSI
100
AcDbEllipse
 62
7
  6
CONTINUOUS
 10
5.5503570073
 20
19.7681116007
 30
0.0
 11
0.0048148548
 21
0.5915468962
 31
0.0
 40
0.4226067633
 41
-1.5515386505
 42
0.0034397648
  0
ELLIPSE
  5
56E
100
AcDbEntity
  8
ASSI
100
AcDbEllipse
 62
7
  6
CONTINUOUS
 10
10.4102845005
 20
-21.6602073603
 30
0.0
 11
0.4962344879
 21
0.0628595572
 31
0.0
 40
0.9963456432
 41
-1.6972555761
 42
-0.1278292453
  0
ELLIPSE
  5
56F
100
AcDbEntity
  8
ASSI
100
AcDbEllipse
 62
7
  6
CONTINUOUS
 10
-10.7501471011
 20
-21.6602073603
 30
0.0
 11
0.4962344879
 21
-0.0628595572
 31
0.0
 40
0.9963456432
 41
-3.0137634083
 42
-1.4443370775
  0
ELLIPSE
  5
570
100
AcDbEntity
  8
ASSI
100
AcDbEllipse
 62
7
  6
CONTINUOUS
 10
-10.8697941833
 20
-0.5322575573
 30
0.0
 11
-0.3796255539
 21
0.1265161514
 31
0.0
 40
0.9996192872
 41
-1.2489924673
 42
0.3215754254
  0
ELLIPSE
  5
571
100
AcDbEntity
  8
ASSI
100
AcDbEllipse
 62
7
  6
CONTINUOUS
 10
10.5299315827
 20
-0.5322575573
 30
0.0
 11
-0.3796255539
 21
-0.1265161514
 31
0.0
 40
0.9996192872
 41
2.8200172282
 42
4.3905851209
  0
ELLIPSE
  5
572
100
AcDbEntity
  8
ASSI
100
AcDbEllipse
 62
7
  6
CONTINUOUS
 10
7.0863068246
 20
-1.3847800109
 30
0.0
 11
0.3
 21
-0.0
 31
0.0
 40
0.0174550649
 41
0.0174532925
 42
1.5707963268
  0
ELLIPSE
  5
573
100
AcDbEntity
  8
ASSI
100
AcDbEllipse
 62
7
  6
CONTINUOUS
 10
6.8738305747
 20
-1.3847800109
 30
0.0
 11
0.3
 21
-0.0
 31
0.0
 40
0.0174550649
 41
1.5707963268
 42
3.1241393611
  0
ELLIPSE
  5
574
100
AcDbEntity
  8
ASSI
100
AcDbEllipse
 62
7
  6
CONTINUOUS
 10
-7.2136931754
 20
-1.3847800109
 30
0.0
 11
0.3
 21
-0.0
 31
0.0
 40
0.0174550649
 41
0.0174532925
 42
1.5707963268
  0
ELLIPSE
  5
575
100
AcDbEntity
  8
ASSI
100
AcDbEllipse
 62
7
  6
CONTINUOUS
 10
-7.4261694253
 20
-1.3847800109
 30
0.0
 11
0.3
 21
-0.0
 31
0.0
 40
0.0174550649
 41
1.5707963268
 42
3.1241393611
  0
ELLIPSE
  5
576
100
AcDbEntity
  8
ASSI
100
AcDbEllipse
 62
7
  6
CONTINUOUS
 10
5.5503570073
 20
-19.7667028328
 30
0.0
 11
-0.0048148548
 21
0.5915468962
 31
0.0
 40
0.4226067633
 41
-3.1450324184
 42
-1.5900540031
  0
ELLIPSE
  5
577
100
AcDbEntity
  8
ASSI
100
AcDbEllipse
 62
7
  6
CONTINUOUS
 10
5.3097803921
 20
-19.7667028328
 30
0.0
 11
0.0048148548
 21
0.5915468962
 31
0.0
 40
0.4226067633
 41
-4.6931313041
 42
-3.1381528888
  0
ELLIPSE
  5
578
100
AcDbEntity
  8
ASSI
100
AcDbEllipse
 62
7
  6
CONTINUOUS
 10
-5.6496429927
 20
-19.7667028328
 30
0.0
 11
-0.0048148548
 21
0.5915468962
 31
0.0
 40
0.4226067633
 41
-3.1450324184
 42
-1.5900540031
  0
ELLIPSE
  5
579
100
AcDbEntity
  8
ASSI
100
AcDbEllipse
 62
7
  6
CONTINUOUS
 10
-5.8902196079
 20
-19.7667028328
 30
0.0
 11
0.0048148548
 21
0.5915468962
 31
0.0
 40
0.4226067633
 41
-4.6931313041
 42
-3.1381528888
  0
ENDSEC
  0
SECTION
  2
OBJECTS
  0
DICTIONARY
  5
C
100
AcDbDictionary
280
0
281
1
  3
ACAD_GROUP
350
D
  3
ACAD_MLINESTYLE
350
17
  3
ACAD_LAYOUT
350
1A
  3
ACAD_PLOTSETTINGS
350
19
  3
ACAD_PLOTSTYLENAME
350
E
  0
DICTIONARY
  5
D
102
{ACAD_REACTORS
330
C
102
}
100
AcDbDictionary
280
0
281
1
  0
ACDBDICTIONARYWDFLT
  5
E
102
{ACAD_REACTORS
330
C
102
}
100
AcDbDictionary
281
1
  3
Normal
350
F
100
AcDbDictionaryWithDefault
340
F
  0
DICTIONARY
  5
17
102
{ACAD_REACTORS
330
C
102
}
100
AcDbDictionary
280
0
281
1
  3
Standard
350
18
  0
DICTIONARY
  5
19
102
{ACAD_REACTORS
330
C
102
}
100
AcDbDictionary
281
1
  0
DICTIONARY
  5
1A
102
{ACAD_REACTORS
330
C
102
}
100
AcDbDictionary
281
1
  3
Model
350
57A
  3
Layout1
350
57B
  0
ACDBPLACEHOLDER
  5
F
102
{ACAD_REACTORS
330
E
102
}
  0
MLINESTYLE
  5
18
102
{ACAD_REACTORS
330
17
102
}
100
AcDbMlineStyle
  2
STANDARD
 70
0
  3

 62
256
 51
90.0
 52
90.0
 71
2
 49
0.5
 62
256
  6
BYLAYER
 49
-0.5
 62
256
  6
BYLAYER
  0
LAYOUT
  5
57A
102
{ACAD_REACTORS
330
1A
102
}
100
AcDbPlotSettings
  1

  2
none_device
  4

  6

 40
0.0
 41
0.0
 42
0.0
 43
0.0
 44
210.0
 45
297.0
 46
0.0
 47
0.0
 48
0.0
 49
0.0
140
0.0
141
0.0
142
1.0
143
1.0
 70
1024
 72
1
 73
0
 74
0
  7

 75
0
147
1.0
148
0.0
149
0.0
100
AcDbLayout
  1
Model
 70
0
 71
0
 10
0.0
 20
0.0
 11
210.0
 21
297.0
 12
0.0
 22
0.0
 32
0.0
 14
0.0
 24
0.0
 34
0.0
 15
0.0
 25
0.0
 35
0.0
146
0.0
 13
0.0
 23
0.0
 33
0.0
 16
1.0
 26
0.0
 36
0.0
 17
0.0
 27
1.0
 37
0.0
 76
0
330
214
345
0
346
0
  0
LAYOUT
  5
57B
102
{ACAD_REACTORS
330
1A
102
}
100
AcDbPlotSettings
  1

  2
none_device
  4

  6

 40
0.0
 41
0.0
 42
0.0
 43
0.0
 44
210.0
 45
297.0
 46
0.0
 47
0.0
 48
0.0
 49
0.0
140
0.0
141
0.0
142
1.0
143
1.0
 70
0
 72
1
 73
0
 74
0
  7

 75
0
147
1.0
148
0.0
149
0.0
100
AcDbLayout
  1
Layout1
 70
0
 71
1
 10
0.0
 20
0.0
 11
210.0
 21
297.0
 12
0.0
 22
0.0
 32
0.0
 14
0.0
 24
0.0
 34
0.0
 15
0.0
 25
0.0
 35
0.0
146
0.0
 13
0.0
 23
0.0
 33
0.0
 16
1.0
 26
0.0
 36
0.0
 17
0.0
 27
1.0
 37
0.0
 76
0
330
215
345
0
346
0
  0
ENDSEC
  0
EOF
