  0
SECTION
  2
HEADER
  9
$ACADVER
  1
AC1024
  9
$DWGCODEPAGE
  3
ANSI_1252
  9
$EXTMAX
 10
210.0
 20
297.0
 30
0.0
  9
$EXTMIN
 10
0.0
 20
0.0
 30
0.0
  9
$LIMMIN
 10
0.0
 20
0.0
  9
$LIMMAX
 10
210.0
 20
297.0
  9
$VIEWCTR
 10
105.0
 20
148.5
  9
$VIEWSIZE
 40
297.0
  9
$CLAYER
  8
0
  9
$LTSCALE
 40
19.36
  9
$CELTYPE
  6
BYLAYER
  9
$DIMSCALE
 40
1.0
  9
$DIMASZ
 40
3.0
  9
$DIMEXO
 40
0.5
  9
$DIMDLI
 40
13.376
  9
$DIMEXE
 40
1.5
  9
$DIMCEN
 40
3.168
  9
$DIMLFAC
 40
1.0
  9
$DIMBLK
  1
_FILLED
  9
$DIMALT
 70
0
  9
$DIMALTF
 40
0.0393700787
  9
$DIMTXT
 40
3.0
  9
$DIMTOL
 70
1
  9
$DIMLIM
 70
0
  9
$DIMTFAC
 40
1.0
  9
$DIMTP
 40
0.01
  9
$DIMTM
 40
0.01
  9
$DIMGAP
 40
0.625
  9
$DIMDSEP
 70
44
  9
$AUNITS
 70
0
  9
$PDMODE
 70
3
  9
$PDSIZE
 40
3.0
  9
$HANDSEED
  5
57C
  9
$TILEMODE
 70
1
  9
$MEASUREMENT
 70
1
  9
$INSUNITS
 70
4
  0
ENDSEC
  0
SECTION
  2
CLASSES
  0
CLASS
  1
ACDBDICTIONARYWDFLT
  2
AcDbDictionaryWithDefault
  3
AutoCAD 2000
 90
0
 91
1
280
0
281
0
  0
CLASS
  1
ACDBPLACEHOLDER
  2
AcDbPlaceHolder
  3
AutoCAD 2000
 90
0
 91
1
280
0
281
0
  0
CLASS
  1
LAYOUT
  2
AcDbLayout
  3
AutoCAD 2000
 90
0
 91
0
280
0
281
0
  0
ENDSEC
  0
SECTION
  2
TABLES
  0
TABLE
  2
VPORT
  5
8
100
AcDbSymbolTable
 70
2
  0
VPORT
  5
1F4
100
AcDbSymbolTableRecord
100
AcDbViewportTableRecord
  2
*ACTIVE
 70
0
 10
0.0
 20
0.0
 11
1.0
 21
1.0
 12
105.0
 22
148.5
 13
0.0
 23
0.0
 14
1.0
 24
1.0
 15
0.0
 25
0.0
 16
0.0
 26
0.0
 36
1.0
 17
0.0
 27
0.0
 37
0.0
 40
297.0
 41
0.7070707071
 42
50.0
 43
0.0
 44
0.0
 50
0.0
 51
0.0
 71
0
 72
100
 73
1
 74
1
 75
0
 76
0
 77
0
 78
0
  0
ENDTAB
  0
TABLE
  2
LTYPE
  5
5
100
AcDbSymbolTable
 70
6
  0
LTYPE
  5
14
100
AcDbSymbolTableRecord
100
AcDbLinetypeTableRecord
  2
BYBLOCK
 70
0
  3

 72
65
 73
0
 40
0.0
  0
LTYPE
  5
15
100
AcDbSymbolTableRecord
100
AcDbLinetypeTableRecord
  2
BYLAYER
 70
0
  3

 72
65
 73
0
 40
0.0
  0
LTYPE
  5
16
100
AcDbSymbolTableRecord
100
AcDbLinetypeTableRecord
  2
CONTINUOUS
 70
64
  3
Solid line
 72
65
 73
0
 40
0.0
  0
LTYPE
  5
1F5
100
AcDbSymbolTableRecord
100
AcDbLinetypeTableRecord
  2
CENTER
 70
64
  3
____ _ ____ _ ____ _ ____ _ ____ _ ____ _ ____
 72
65
 73
4
 40
0.6
 49
0.375
 74
0
 49
-0.075
 74
0
 49
0.075
 74
0
 49
-0.075
 74
0
  0
LTYPE
  5
1F6
100
AcDbSymbolTableRecord
100
AcDbLinetypeTableRecord
  2
HIDDEN
 70
64
  3
- - - - - - - - - - - - - - - - - - - -
 72
65
 73
2
 40
0.2
 49
0.1
 74
0
 49
-0.1
 74
0
  0
LTYPE
  5
1F7
100
AcDbSymbolTableRecord
100
AcDbLinetypeTableRecord
  2
PHANTOM
 70
64
  3
_____ _ _ _____ _ _ _____ _ _ _____
 72
65
 73
6
 40
0.8
 49
0.45
 74
0
 49
-0.05
 74
0
 49
0.1
 74
0
 49
-0.05
 74
0
 49
0.1
 74
0
 49
-0.05
 74
0
  0
LTYPE
  5
1F8
100
AcDbSymbolTableRecord
100
AcDbLinetypeTableRecord
  2
DOT
 70
64
  3
. . . . . . . . . . . . . . . . . . . .
 72
65
 73
2
 40
0.2
 49
0.1
 74
0
 49
-0.1
 74
0
  0
LTYPE
  5
1F9
100
AcDbSymbolTableRecord
100
AcDbLinetypeTableRecord
  2
DASHED
 70
64
  3
- - - - - - - - - - - - - - - - - - - -
 72
65
 73
2
 40
0.2
 49
0.1
 74
0
 49
-0.1
 74
0
  0
ENDTAB
  0
TABLE
  2
LAYER
  5
2
100
AcDbSymbolTable
 70
36
  0
LAYER
  5
10
100
AcDbSymbolTableRecord
100
AcDbLayerTableRecord
  2
0
 70
0
 62
7
  6
CONTINUOUS
370
-3
390
F
  0
LAYER
  5
1FA
100
AcDbSymbolTableRecord
100
AcDbLayerTableRecord
  2
DEFAULT_1
 70
0
 62
7
  6
CENTER
370
-3
390
F
  0
LAYER
  5
1FB
100
AcDbSymbolTableRecord
100
AcDbLayerTableRecord
  2
DEFAULT_2
 70
0
 62
7
  6
HIDDEN
370
-3
390
F
  0
LAYER
  5
1FC
100
AcDbSymbolTableRecord
100
AcDbLayerTableRecord
  2
DEFAULT_3
 70
0
 62
7
  6
PHANTOM
370
-3
390
F
  0
LAYER
  5
1FD
100
AcDbSymbolTableRecord
100
AcDbLayerTableRecord
  2
ASSI
 70
0
 62
7
  6
CONTINUOUS
370
-3
390
F
  0
LAYER
  5
1FE
100
AcDbSymbolTableRecord
100
AcDbLayerTableRecord
  2
COORDINATE
 70
0
 62
7
  6
CONTINUOUS
370
-3
390
F
  0
LAYER
  5
1FF
100
AcDbSymbolTableRecord
100
AcDbLayerTableRecord
  2
COPY_PUBLISH
 70
0
 62
7
  6
CONTINUOUS
370
-3
390
F
  0
LAYER
  5
200
100
AcDbSymbolTableRecord
100
AcDbLayerTableRecord
  2
COSMETICI
 70
0
 62
7
  6
CONTINUOUS
370
-3
390
F
  0
LAYER
  5
201
100
AcDbSymbolTableRecord
100
AcDbLayerTableRecord
  2
CURVE
 70
0
 62
7
  6
CONTINUOUS
370
-3
390
F
  0
LAYER
  5
202
100
AcDbSymbolTableRecord
100
AcDbLayerTableRecord
  2
DRAFT
 70
0
 62
7
  6
CONTINUOUS
370
-3
390
F
  0
LAYER
  5
203
100
AcDbSymbolTableRecord
100
AcDbLayerTableRecord
  2
IMPORT_IGES
 70
0
 62
7
  6
CONTINUOUS
370
-3
390
F
  0
LAYER
  5
204
100
AcDbSymbolTableRecord
100
AcDbLayerTableRecord
  2
INTFCLR_1
 70
0
 62
7
  6
CONTINUOUS
370
-3
390
F
  0
LAYER
  5
205
100
AcDbSymbolTableRecord
100
AcDbLayerTableRecord
  2
INTF_2
 70
0
 62
7
  6
CONTINUOUS
370
-3
390
F
  0
LAYER
  5
206
100
AcDbSymbolTableRecord
100
AcDbLayerTableRecord
  2
INTF_5
 70
0
 62
7
  6
CONTINUOUS
370
-3
390
F
  0
LAYER
  5
207
100
AcDbSymbolTableRecord
100
AcDbLayerTableRecord
  2
INTF_9
 70
0
 62
7
  6
CONTINUOUS
370
-3
390
F
  0
LAYER
  5
208
100
AcDbSymbolTableRecord
100
AcDbLayerTableRecord
  2
INTF_YELLOW
 70
0
 62
7
  6
CONTINUOUS
370
-3
390
F
  0
LAYER
  5
209
100
AcDbSymbolTableRecord
100
AcDbLayerTableRecord
  2
NOTE
 70
0
 62
7
  6
CONTINUOUS
370
-3
390
F
  0
LAYER
  5
20A
100
AcDbSymbolTableRecord
100
AcDbLayerTableRecord
  2
PIANI
 70
0
 62
7
  6
CONTINUOUS
370
-3
390
F
  0
LAYER
  5
20B
100
AcDbSymbolTableRecord
100
AcDbLayerTableRecord
  2
PUNTI
 70
0
 62
7
  6
CONTINUOUS
370
-3
390
F
  0
LAYER
  5
20C
100
AcDbSymbolTableRecord
100
AcDbLayerTableRecord
  2
RACCORDO
 70
0
 62
7
  6
CONTINUOUS
370
-3
390
F
  0
LAYER
  5
20D
100
AcDbSymbolTableRecord
100
AcDbLayerTableRecord
  2
SIMBOLI
 70
0
 62
7
  6
CONTINUOUS
370
-3
390
F
  0
LAYER
  5
20E
100
AcDbSymbolTableRecord
100
AcDbLayerTableRecord
  2
SMUSSO
 70
0
 62
7
  6
CONTINUOUS
370
-3
390
F
  0
LAYER
  5
20F
100
AcDbSymbolTableRecord
100
AcDbLayerTableRecord
  2
SNAPLINE
 70
0
 62
7
  6
CONTINUOUS
370
-3
390
F
  0
LAYER
  5
210
100
AcDbSymbolTableRecord
100
AcDbLayerTableRecord
  2
SUPERFICI
 70
0
 62
7
  6
CONTINUOUS
370
-3
390
F
  0
LAYER
  5
211
100
AcDbSymbolTableRecord
100
AcDbLayerTableRecord
  2
TRASH
 70
0
 62
7
  6
CONTINUOUS
370
-3
390
F
  0
ENDTAB
  0
TABLE
  2
STYLE
  5
3
100
AcDbSymbolTable
 70
1
  0
STYLE
  5
11
100
AcDbSymbolTableRecord
100
AcDbTextStyleTableRecord
  2
STANDARD
 70
0
 40
0.0
 41
0.8
 50
0.0
 71
0
 42
0.2
  3
txt
  4

  0
STYLE
  5
212
100
AcDbSymbolTableRecord
100
AcDbTextStyleTableRecord
  2
TEXTSTYLE_1
 70
0
 40
0.0
 41
0.8
 50
0.0
 71
0
 42
0.2
  3
gdt
  4

  0
ENDTAB
  0
TABLE
  2
VIEW
  5
6
100
AcDbSymbolTable
 70
0
  0
ENDTAB
  0
TABLE
  2
UCS
  5
7
100
AcDbSymbolTable
 70
0
  0
ENDTAB
  0
TABLE
  2
APPID
  5
9
100
AcDbSymbolTable
 70
1
  0
APPID
  5
213
100
AcDbSymbolTableRecord
100
AcDbRegAppTableRecord
  2
ACAD
 70
0
  0
ENDTAB
  0
TABLE
  2
BLOCK_RECORD
  5
1
100
AcDbSymbolTable
 70
0
  0
BLOCK_RECORD
  5
214
100
AcDbSymbolTableRecord
100
AcDbBlockTableRecord
  2
*Model_Space
  0
BLOCK_RECORD
  5
215
100
AcDbSymbolTableRecord
100
AcDbBlockTableRecord
  2
*Paper_Space
  0
BLOCK_RECORD
  5
216
100
AcDbSymbolTableRecord
100
AcDbBlockTableRecord
  2
_FILLED
  0
ENDTAB
  0
TABLE
  2
DIMSTYLE
  5
A
100
AcDbSymbolTable
 70
1
100
AcDbDimStyleTable
 71
0
  0
DIMSTYLE
105
217
100
AcDbSymbolTableRecord
100
AcDbDimStyleTableRecord
  2
STANDARD
 70
0
  3

  4

 40
1.0
 41
3.0
 42
0.5
 43
0.38
 44
1.5
 45
0.0
 46
0.0
 47
0.01
 48
0.01
140
3.0
141
0.09
142
0.0
143
25.4
144
1.0
145
0.0
146
1.0
147
0.625
 71
1
 72
0
 73
0
 74
0
 75
0
 76
0
 77
1
 78
8
 79
2
170
0
171
1
172
0
173
0
174
0
175
0
176
0
177
0
178
0
270
2
179
2
271
2
272
2
273
2
274
2
275
0
280
0
281
0
282
0
283
1
284
8
285
0
286
0
287
3
288
0
340
11
278
44
341
216
342
216
343
216
344
216
  0
ENDTAB
  0
ENDSEC
  0
SECTION
  2
BLOCKS
  0
BLOCK
  5
20
100
AcDbEntity
  8
0
100
AcDbBlockBegin
  2
*Model_Space
 70
0
 10
0.0
 20
0.0
 30
0.0
  3
*Model_Space
  1

  0
ENDBLK
  5
21
100
AcDbEntity
  8
0
100
AcDbBlockEnd
  0
BLOCK
  5
1C
100
AcDbEntity
  8
0
100
AcDbBlockBegin
  2
*Paper_Space
 70
0
 10
0.0
 20
0.0
 30
0.0
  3
*Paper_Space
  1

  0
ENDBLK
  5
1D
100
AcDbEntity
  8
0
100
AcDbBlockEnd
  0
BLOCK
  5
218
100
AcDbEntity
  8
0
100
AcDbBlockBegin
  2
_FILLED
 70
64
 10
0.0
 20
0.0
  3
_FILLED
  1

  0
SOLID
  5
219
100
AcDbEntity
  8
0
  6
BYBLOCK
 62
0
100
AcDbTrace
 10
0.0
 20
0.0
 11
-1.0
 21
0.3166666667
 12
-1.0
 22
-0.3166666667
 13
-1.0
 23
-0.3166666667
  0
ENDBLK
  5
21A
100
AcDbEntity
  8
0
  6
BYBLOCK
 62
0
100
AcDbBlockEnd
  0
ENDSEC
  0
SECTION
  2
ENTITIES
  0
LINE
  5
21B
100
AcDbEntity
  8
ASSI
100
AcDbLine
 62
7
  6
CONTINUOUS
 10
3.6406211742
 20
-22.0839033553
 11
3.2321961812
 21
-22.1209772912
  0
LINE
  5
21C
100
AcDbEntity
  8
ASSI
100
AcDbLine
 62
7
  6
CONTINUOUS
 10
3.6406211742
 20
-20.5374877441
 11
3.157402445
 21
-20.6402534353
  0
LINE
  5
21D
100
AcDbEntity
  8
ASSI
100
AcDbLine
 62
7
  6
CONTINUOUS
 10
-7.5593788258
 20
-22.0839033553
 11
-7.9678038188
 21
-22.1209772912
  0
LINE
  5
21E
100
AcDbEntity
  8
ASSI
100
AcDbLine
 62
7
  6
CONTINUOUS
 10
-10.7391380369
 20
-22.1209772912
 11
-7.9678038188
 21
-22.1209772912
  0
LINE
  5
21F
100
AcDbEntity
  8
ASSI
100
AcDbLine
 62
7
  6
CONTINUOUS
 10
-3.5509538328
 20
-22.1209772912
 11
3.2321961812
 21
-22.1209772912
  0
LINE
  5
220
100
AcDbEntity
  8
ASSI
100
AcDbLine
 62
7
  6
CONTINUOUS
 10
7.6490461672
 20
-22.1209772912
 11
10.4203803853
 21
-22.1209772912
  0
LINE
  5
221
100
AcDbEntity
  8
ASSI
100
AcDbLine
 62
7
  6
CONTINUOUS
 10
-7.5593788258
 20
-22.0839033553
 11
-3.9593788258
 21
-22.0839033553
  0
LINE
  5
222
100
AcDbEntity
  8
ASSI
100
AcDbLine
 62
7
  6
CONTINUOUS
 10
3.6406211742
 20
-22.0839033553
 11
7.2406211742
 21
-22.0839033553
  0
LINE
  5
223
100
AcDbEntity
  8
ASSI
100
AcDbLine
 62
7
  6
CONTINUOUS
 10
-10.0478054089
 20
-20.6402534353
 11
-8.042597555
 21
-20.6402534353
  0
LINE
  5
224
100
AcDbEntity
  8
ASSI
100
AcDbLine
 62
7
  6
CONTINUOUS
 10
-3.4761600966
 20
-20.6402534353
 11
3.157402445
 21
-20.6402534353
  0
LINE
  5
225
100
AcDbEntity
  8
ASSI
100
AcDbLine
 62
7
  6
CONTINUOUS
 10
7.7238399034
 20
-20.6402534353
 11
9.7290477573
 21
-20.6402534353
  0
LINE
  5
226
100
AcDbEntity
  8
ASSI
100
AcDbLine
 62
7
  6
CONTINUOUS
 10
-7.5593788258
 20
-20.5374877441
 11
-6.1297052154
 21
-20.5374877441
  0
LINE
  5
227
100
AcDbEntity
  8
ASSI
100
AcDbLine
 62
7
  6
CONTINUOUS
 10
-5.3890524362
 20
-20.5374877441
 11
-3.9593788258
 21
-20.5374877441
  0
LINE
  5
228
100
AcDbEntity
  8
ASSI
100
AcDbLine
 62
7
  6
CONTINUOUS
 10
3.6406211742
 20
-20.5374877441
 11
5.0702947846
 21
-20.5374877441
  0
LINE
  5
229
100
AcDbEntity
  8
ASSI
100
AcDbLine
 62
7
  6
CONTINUOUS
 10
5.8109475638
 20
-20.5374877441
 11
7.2406211742
 21
-20.5374877441
  0
LINE
  5
22A
100
AcDbEntity
  8
ASSI
100
AcDbLine
 62
7
  6
CONTINUOUS
 10
-3.9593788258
 20
-22.0839033553
 11
-3.5509538328
 21
-22.1209772912
  0
LINE
  5
22B
100
AcDbEntity
  8
ASSI
100
AcDbLine
 62
7
  6
CONTINUOUS
 10
7.2406211742
 20
-22.0839033553
 11
7.6490461672
 21
-22.1209772912
  0
LINE
  5
22C
100
AcDbEntity
  8
ASSI
100
AcDbLine
 62
7
  6
CONTINUOUS
 10
-7.5593788258
 20
-20.5374877441
 11
-8.042597555
 21
-20.6402534353
  0
LINE
  5
22D
100
AcDbEntity
  8
ASSI
100
AcDbLine
 62
7
  6
CONTINUOUS
 10
-6.162206293
 20
-20.3088646739
 11
-10.0042079267
 21
-20.3335746734
  0
LINE
  5
22E
100
AcDbEntity
  8
ASSI
100
AcDbLine
 62
7
  6
CONTINUOUS
 10
-3.046265209
 20
-20.2976240838
 11
-5.3560305018
 21
-20.3052007988
  0
LINE
  5
22F
100
AcDbEntity
  8
ASSI
100
AcDbLine
 62
7
  6
CONTINUOUS
 10
-0.7367213128
 20
-20.2943769203
 11
-3.046265209
 21
-20.2976240838
  0
LINE
  5
230
100
AcDbEntity
  8
ASSI
100
AcDbLine
 62
7
  6
CONTINUOUS
 10
-5.6351356029
 20
-20.3206221981
 11
-5.8836220487
 21
-20.3206221981
  0
LINE
  5
231
100
AcDbEntity
  8
ASSI
100
AcDbLine
 62
7
  6
CONTINUOUS
 10
5.3163779513
 20
-20.3206221981
 11
5.5648643971
 21
-20.3206221981
  0
LINE
  5
232
100
AcDbEntity
  8
ASSI
100
AcDbLine
 62
7
  6
CONTINUOUS
 10
1.5726960713
 20
-20.2954593081
 11
-0.7367213128
 21
-20.2943769203
  0
LWPOLYLINE
  5
233
100
AcDbEntity
  8
ASSI
100
AcDbPolyline
 62
7
  6
CONTINUOUS
 90
3
 70
0
 10
5.0372728502
 20
-20.3052007988
 10
3.8823664815
 20
-20.3008712474
 10
1.5726960713
 20
-20.2954593081
  0
LINE
  5
234
100
AcDbEntity
  8
ASSI
100
AcDbLine
 62
7
  6
CONTINUOUS
 10
9.6854502752
 20
-20.3335746734
 11
5.8434486414
 21
-20.3088646739
  0
LINE
  5
235
100
AcDbEntity
  8
ASSI
100
AcDbLine
 62
7
  6
CONTINUOUS
 10
-3.9593788258
 20
-20.5374877441
 11
-3.4761600966
 21
-20.6402534353
  0
LINE
  5
236
100
AcDbEntity
  8
ASSI
100
AcDbLine
 62
250
  6
CONTINUOUS
 10
-5.6538455526
 20
-18.0219417342
 11
-5.8649120984
 21
-18.0219416652
  0
LINE
  5
237
100
AcDbEntity
  8
ASSI
100
AcDbLine
 62
250
  6
CONTINUOUS
 10
5.5461544474
 20
-18.0219417342
 11
5.3350879016
 21
-18.0219416652
  0
LINE
  5
238
100
AcDbEntity
  8
ASSI
100
AcDbLine
 62
250
  6
CONTINUOUS
 10
-6.114792252
 20
-17.8951561867
 11
-5.4039653996
 21
-17.8951561867
  0
LINE
  5
239
100
AcDbEntity
  8
ASSI
100
AcDbLine
 62
250
  6
CONTINUOUS
 10
5.085207748
 20
-17.8951561867
 11
5.7960346004
 21
-17.8951561867
  0
LINE
  5
23A
100
AcDbEntity
  8
ASSI
100
AcDbLine
 62
250
  6
CONTINUOUS
 10
5.7960346004
 20
-17.6131503421
 11
5.085207748
 21
-17.6131503421
  0
LINE
  5
23B
100
AcDbEntity
  8
ASSI
100
AcDbLine
 62
250
  6
CONTINUOUS
 10
-6.114792252
 20
-17.6131503421
 11
-5.4039653996
 21
-17.6131503421
  0
LINE
  5
23C
100
AcDbEntity
  8
ASSI
100
AcDbLine
 62
250
  6
CONTINUOUS
 10
5.5467937717
 20
-17.3177090886
 11
5.3344485767
 21
-17.3177090886
  0
LINE
  5
23D
100
AcDbEntity
  8
ASSI
100
AcDbLine
 62
250
  6
CONTINUOUS
 10
-5.6532062283
 20
-17.3177090886
 11
-5.8655514233
 21
-17.3177090886
  0
LINE
  5
23E
100
AcDbEntity
  8
ASSI
100
AcDbLine
 62
7
  6
CONTINUOUS
 10
-5.6278597192
 20
-17.0616645855
 11
-5.8908979324
 21
-17.0616645855
  0
LINE
  5
23F
100
AcDbEntity
  8
ASSI
100
AcDbLine
 62
7
  6
CONTINUOUS
 10
5.3091020676
 20
-17.0616645855
 11
5.5721402808
 21
-17.0616645855
  0
LINE
  5
240
100
AcDbEntity
  8
ASSI
100
AcDbLine
 62
7
  6
CONTINUOUS
 10
7.2406211742
 20
-20.5374877441
 11
7.7238399034
 21
-20.6402534353
  0
LINE
  5
241
100
AcDbEntity
  8
ASSI
100
AcDbLine
 62
7
  6
CONTINUOUS
 10
-5.602585318
 20
-15.5549091539
 11
-5.9159490992
 21
-15.5551323883
  0
LINE
  5
242
100
AcDbEntity
  8
ASSI
100
AcDbLine
 62
250
  6
CONTINUOUS
 10
-6.1444658624
 20
-15.8756743359
 11
-5.3742917892
 21
-15.8756743359
  0
LINE
  5
243
100
AcDbEntity
  8
ASSI
100
AcDbLine
 62
250
  6
CONTINUOUS
 10
5.0555341376
 20
-15.8756743359
 11
5.8257082108
 21
-15.8756743359
  0
LINE
  5
244
100
AcDbEntity
  8
ASSI
100
AcDbLine
 62
250
  6
CONTINUOUS
 10
5.5766065079
 20
-15.575717328
 11
5.3046358332
 21
-15.5757173207
  0
LINE
  5
245
100
AcDbEntity
  8
ASSI
100
AcDbLine
 62
250
  6
CONTINUOUS
 10
-5.6233934921
 20
-15.575717328
 11
-5.8953641668
 21
-15.5757173207
  0
LINE
  5
246
100
AcDbEntity
  8
ASSI
100
AcDbLine
 62
7
  6
CONTINUOUS
 10
5.5971914476
 20
-15.5551323883
 11
5.2838276664
 21
-15.5549091539
  0
LWPOLYLINE
  5
247
100
AcDbEntity
  8
ASSI
100
AcDbPolyline
 62
7
  6
CONTINUOUS
 90
16
 70
0
 10
-5.602585318
 20
-15.5549091539
 10
-5.5764066599
 20
-15.5562640364
 10
-5.5505117873
 20
-15.5603525842
 10
-5.5251852118
 20
-15.5671317773
 10
-5.5006912298
 20
-15.576535238
 10
-5.4773154657
 20
-15.5884581637
 10
-5.4553544405
 20
-15.6027438049
 10
-5.4350672881
 20
-15.6192024966
 10
-5.4166385987
 20
-15.6376613839
 10
-5.4002288086
 20
-15.6579538061
 10
-5.3860095566
 20
-15.679879691
 10
-5.3741537666
 20
-15.7031860233
 10
-5.3647976585
 20
-15.7276099939
 10
-5.3580452643
 20
-15.7528815469
 10
-5.353970393
 20
-15.7787278732
 10
-5.3526188705
 20
-15.804866554
  0
LWPOLYLINE
  5
248
100
AcDbEntity
  8
ASSI
100
AcDbPolyline
 62
7
  6
CONTINUOUS
 90
16
 70
0
 10
5.5971914476
 20
-15.5551323883
 10
5.6233183563
 20
-15.5565237334
 10
5.6491651786
 20
-15.5606450745
 10
5.6744476831
 20
-15.5674541128
 10
5.6989014303
 20
-15.5768856321
 10
5.7222410525
 20
-15.5888351673
 10
5.7441707373
 20
-15.6031453593
 10
5.7644311543
 20
-15.6196269325
 10
5.7828373654
 20
-15.6381077107
 10
5.799229306
 20
-15.6584206794
 10
5.8134347527
 20
-15.6803657366
 10
5.8252803726
 20
-15.7036904584
 10
5.834630205
 20
-15.7281326097
 10
5.8413795317
 20
-15.753422394
 10
5.8454532627
 20
-15.7792867784
 10
5.8468046243
 20
-15.8054430592
  0
LINE
  5
249
100
AcDbEntity
  8
ASSI
100
AcDbLine
 62
7
  6
CONTINUOUS
 10
-10.0425019267
 20
-13.9116645855
 11
-9.6593788258
 21
-13.9116645855
  0
LINE
  5
24A
100
AcDbEntity
  8
ASSI
100
AcDbLine
 62
7
  6
CONTINUOUS
 10
9.3406211742
 20
-13.9116645855
 11
9.7237442752
 21
-13.9116645855
  0
LINE
  5
24B
100
AcDbEntity
  8
ASSI
100
AcDbLine
 62
7
  6
CONTINUOUS
 10
-11.2593788258
 20
-13.0616645855
 11
-10.0593788258
 21
-13.0616645855
  0
LINE
  5
24C
100
AcDbEntity
  8
ASSI
100
AcDbLine
 62
7
  6
CONTINUOUS
 10
9.7406211742
 20
-13.0616645855
 11
10.9406211742
 21
-13.0616645855
  0
LINE
  5
24D
100
AcDbEntity
  8
ASSI
100
AcDbLine
 62
250
  6
CONTINUOUS
 10
-6.145323384
 20
-15.8256819511
 11
-6.1655622759
 21
-15.8054430592
  0
LINE
  5
24E
100
AcDbEntity
  8
ASSI
100
AcDbLine
 62
250
  6
CONTINUOUS
 10
-5.8953641668
 20
-15.5757173207
 11
-5.9159490992
 21
-15.5551323883
  0
LINE
  5
24F
100
AcDbEntity
  8
ASSI
100
AcDbLine
 62
7
  6
CONTINUOUS
 10
-10.0425019267
 20
-10.4116645855
 11
-9.6593788258
 21
-10.4116645855
  0
LINE
  5
250
100
AcDbEntity
  8
ASSI
100
AcDbLine
 62
7
  6
CONTINUOUS
 10
9.3406211742
 20
-10.4116645855
 11
9.7237442752
 21
-10.4116645855
  0
LINE
  5
251
100
AcDbEntity
  8
ASSI
100
AcDbLine
 62
250
  6
CONTINUOUS
 10
-6.1655622759
 20
15.8821138882
 11
-6.145323384
 21
15.9023527801
  0
LINE
  5
252
100
AcDbEntity
  8
ASSI
100
AcDbLine
 62
250
  6
CONTINUOUS
 10
-5.9159490992
 20
15.6318032173
 11
-5.8953641595
 21
15.652388157
  0
LINE
  5
253
100
AcDbEntity
  8
ASSI
100
AcDbLine
 62
7
  6
CONTINUOUS
 10
6.8809753097
 20
-6.1712647585
 11
7.1000445162
 21
-6.1710422361
  0
LINE
  5
254
100
AcDbEntity
  8
ASSI
100
AcDbLine
 62
250
  6
CONTINUOUS
 10
7.0800415103
 20
-6.1510392301
 11
6.9012008381
 21
-6.1510392301
  0
LINE
  5
255
100
AcDbEntity
  8
ASSI
100
AcDbLine
 62
250
  6
CONTINUOUS
 10
-7.2199584897
 20
-6.1510392301
 11
-7.3987991619
 21
-6.1510392301
  0
LINE
  5
256
100
AcDbEntity
  8
ASSI
100
AcDbLine
 62
250
  6
CONTINUOUS
 10
-7.695323384
 20
-5.6511153825
 11
-6.9234342676
 21
-5.6511153825
  0
LINE
  5
257
100
AcDbEntity
  8
ASSI
100
AcDbLine
 62
250
  6
CONTINUOUS
 10
6.604676616
 20
-5.6511153825
 11
7.3765657324
 21
-5.6511153825
  0
LINE
  5
258
100
AcDbEntity
  8
ASSI
100
AcDbLine
 62
7
  6
CONTINUOUS
 10
-7.4188021678
 20
-6.1710422361
 11
-7.1997329613
 21
-6.1712647585
  0
LWPOLYLINE
  5
259
100
AcDbEntity
  8
ASSI
100
AcDbPolyline
 62
7
  6
CONTINUOUS
 90
16
 70
0
 10
6.8809753097
 20
-6.1712647585
 10
6.8495548306
 20
-6.169650891
 10
6.818462039
 20
-6.1647580541
 10
6.7880390247
 20
-6.1566346707
 10
6.7585932586
 20
-6.1453528222
 10
6.7304816006
 20
-6.1310379034
 10
6.7040920746
 20
-6.1138960079
 10
6.6797516702
 20
-6.0941796686
 10
6.6576531747
 20
-6.0720884961
 10
6.6379569849
 20
-6.0477900384
 10
6.6208599755
 20
-6.0214972339
 10
6.6065924502
 20
-5.9935300154
 10
6.5953351253
 20
-5.9642329782
 10
6.5872114908
 20
-5.9339429801
 10
6.5823007952
 20
-5.9029783553
 10
6.5806534767
 20
-5.8716779744
  0
LWPOLYLINE
  5
25A
100
AcDbEntity
  8
ASSI
100
AcDbPolyline
 62
7
  6
CONTINUOUS
 90
16
 70
0
 10
-7.4188021678
 20
-6.1710422361
 10
-7.4501197312
 20
-6.1693675148
 10
-7.4811214429
 20
-6.1644219205
 10
-7.5114657338
 20
-6.1562509585
 10
-7.5408457092
 20
-6.1449225596
 10
-7.5689030709
 20
-6.1305602793
 10
-7.5952470431
 20
-6.1133721237
 10
-7.6195498336
 20
-6.0936097294
 10
-7.6416174393
 20
-6.0714714033
 10
-7.6612872046
 20
-6.047128326
 10
-7.6783614555
 20
-6.0207944074
 10
-7.6926099206
 20
-5.9927890126
 10
-7.7038520876
 20
-5.9634591799
 10
-7.7119647149
 20
-5.9331429303
 10
-7.7168684521
 20
-5.9021582702
 10
-7.71851298
 20
-5.8708444312
  0
LINE
  5
25B
100
AcDbEntity
  8
ASSI
100
AcDbLine
 62
250
  6
CONTINUOUS
 10
-7.2199584897
 20
-6.1510392301
 11
-7.1997329613
 21
-6.1712647585
  0
LINE
  5
25C
100
AcDbEntity
  8
ASSI
100
AcDbLine
 62
250
  6
CONTINUOUS
 10
-6.9200041812
 20
-5.8510849215
 11
-6.8994111283
 21
-5.8716779744
  0
LINE
  5
25D
100
AcDbEntity
  8
ASSI
100
AcDbLine
 62
7
  6
CONTINUOUS
 10
-11.2397644586
 20
-21.6232591369
 11
-11.2593788258
 21
-13.0616645855
  0
LINE
  5
25E
100
AcDbEntity
  8
ASSI
100
AcDbLine
 62
7
  6
CONTINUOUS
 10
-10.0478054089
 20
-20.6402534353
 11
-10.0593788258
 21
-13.0616645855
  0
LINE
  5
25F
100
AcDbEntity
  8
ASSI
100
AcDbLine
 62
7
  6
CONTINUOUS
 10
-10.0001537541
 20
13.9883556642
 11
-10.0042079267
 21
20.4102455024
  0
LINE
  5
260
100
AcDbEntity
  8
ASSI
100
AcDbLine
 62
7
  6
CONTINUOUS
 10
-11.2593788258
 20
13.1383354145
 11
-11.2593788258
 21
0.5712059786
  0
LINE
  5
261
100
AcDbEntity
  8
ASSI
100
AcDbLine
 62
7
  6
CONTINUOUS
 10
-11.2593788258
 20
-0.4945351496
 11
-11.2593788258
 21
-13.0616645855
  0
LINE
  5
262
100
AcDbEntity
  8
ASSI
100
AcDbLine
 62
7
  6
CONTINUOUS
 10
-10.0593788258
 20
-0.0946112953
 11
-10.0593788258
 21
-13.0616645855
  0
LINE
  5
263
100
AcDbEntity
  8
ASSI
100
AcDbLine
 62
7
  6
CONTINUOUS
 10
-10.0593788258
 20
0.1712821244
 11
-10.0593788258
 21
13.1383354145
  0
LINE
  5
264
100
AcDbEntity
  8
ASSI
100
AcDbLine
 62
7
  6
CONTINUOUS
 10
-10.0425019267
 20
13.9883354145
 11
-10.0425019267
 21
10.4883354145
  0
LINE
  5
265
100
AcDbEntity
  8
ASSI
100
AcDbLine
 62
7
  6
CONTINUOUS
 10
-10.0425019267
 20
-13.9116645855
 11
-10.0425019267
 21
-10.4116645855
  0
LINE
  5
266
100
AcDbEntity
  8
ASSI
100
AcDbLine
 62
7
  6
CONTINUOUS
 10
-10.0052681245
 20
1.4157904794
 11
-10.0052681245
 21
0.1983354145
  0
LINE
  5
267
100
AcDbEntity
  8
ASSI
100
AcDbLine
 62
7
  6
CONTINUOUS
 10
-10.0052681245
 20
-1.3391196504
 11
-10.0052681245
 21
-0.1216645855
  0
LINE
  5
268
100
AcDbEntity
  8
ASSI
100
AcDbLine
 62
7
  6
CONTINUOUS
 10
-9.9966050226
 20
1.4244535813
 11
-9.9985956645
 21
10.4883529981
  0
LINE
  5
269
100
AcDbEntity
  8
ASSI
100
AcDbLine
 62
7
  6
CONTINUOUS
 10
-9.6593788258
 20
13.9883354145
 11
-9.6593788258
 21
10.4883354145
  0
LINE
  5
26A
100
AcDbEntity
  8
ASSI
100
AcDbLine
 62
7
  6
CONTINUOUS
 10
-9.6593788258
 20
-13.9116645855
 11
-9.6593788258
 21
-10.4116645855
  0
LINE
  5
26B
100
AcDbEntity
  8
ASSI
100
AcDbLine
 62
7
  6
CONTINUOUS
 10
-9.9985956645
 20
-10.4116821691
 11
-9.9966050226
 21
-1.3477827523
  0
LINE
  5
26C
100
AcDbEntity
  8
ASSI
100
AcDbLine
 62
7
  6
CONTINUOUS
 10
-10.0042079267
 20
-20.3335746734
 11
-10.0001537541
 21
-13.9116848352
  0
LINE
  5
26D
100
AcDbEntity
  8
ASSI
100
AcDbLine
 62
7
  6
CONTINUOUS
 10
-10.0478054089
 20
20.7169242644
 11
-10.0593788258
 21
13.1383354145
  0
LINE
  5
26E
100
AcDbEntity
  8
ASSI
100
AcDbLine
 62
7
  6
CONTINUOUS
 10
-11.2397644586
 20
21.6999299659
 11
-11.2593788258
 21
13.1383354145
  0
LINE
  5
26F
100
AcDbEntity
  8
ASSI
100
AcDbLine
 62
250
  6
CONTINUOUS
 10
-7.695323384
 20
-4.2503397201
 11
-6.9234342676
 21
-4.2503397201
  0
LINE
  5
270
100
AcDbEntity
  8
ASSI
100
AcDbLine
 62
250
  6
CONTINUOUS
 10
6.604676616
 20
-4.2503397201
 11
7.3765657324
 21
-4.2503397201
  0
LINE
  5
271
100
AcDbEntity
  8
ASSI
100
AcDbLine
 62
250
  6
CONTINUOUS
 10
7.0783569303
 20
-3.8173270182
 11
6.9028854181
 21
-3.8173270182
  0
LINE
  5
272
100
AcDbEntity
  8
ASSI
100
AcDbLine
 62
250
  6
CONTINUOUS
 10
-7.2216430697
 20
-3.8173270182
 11
-7.3971145819
 21
-3.8173270182
  0
LINE
  5
273
100
AcDbEntity
  8
ASSI
100
AcDbLine
 62
250
  6
CONTINUOUS
 10
6.8913649544
 20
-3.4362718439
 11
7.0898774276
 21
-3.4362707345
  0
LINE
  5
274
100
AcDbEntity
  8
ASSI
100
AcDbLine
 62
250
  6
CONTINUOUS
 10
-7.4086350456
 20
-3.4362718439
 11
-7.2101225724
 21
-3.4362707345
  0
LINE
  5
275
100
AcDbEntity
  8
ASSI
100
AcDbLine
 62
250
  6
CONTINUOUS
 10
-7.7155712593
 20
-3.0032631386
 11
-6.9031863923
 21
-3.0032631386
  0
LINE
  5
276
100
AcDbEntity
  8
ASSI
100
AcDbLine
 62
250
  6
CONTINUOUS
 10
6.5844287407
 20
-3.0032631386
 11
7.3968136077
 21
-3.0032631386
  0
LINE
  5
277
100
AcDbEntity
  8
ASSI
100
AcDbLine
 62
7
  6
CONTINUOUS
 10
-10.0052681245
 20
-1.3391196504
 11
-9.9966050226
 21
-1.3477827523
  0
LINE
  5
278
100
AcDbEntity
  8
ASSI
100
AcDbLine
 62
250
  6
CONTINUOUS
 10
5.054676616
 20
-15.8256819511
 11
5.0338612189
 21
-15.804866554
  0
LINE
  5
279
100
AcDbEntity
  8
ASSI
100
AcDbLine
 62
250
  6
CONTINUOUS
 10
5.3046358332
 20
-15.5757173207
 11
5.2838276664
 21
-15.5549091539
  0
LWPOLYLINE
  5
27A
100
AcDbEntity
  8
ASSI
100
AcDbPolyline
 62
250
  6
CONTINUOUS
 90
13
 70
0
 10
-6.1148740222
 20
-17.9162870998
 10
-6.1122673951
 20
-17.9299414076
 10
-6.1055131402
 20
-17.9433667611
 10
-6.0947245125
 20
-17.9563380454
 10
-6.0800824148
 20
-17.9686377596
 10
-6.0618323646
 20
-17.9800596632
 10
-6.0402803771
 20
-17.990412235
 10
-6.0157878344
 20
-17.9995218843
 10
-5.9887654246
 20
-18.0072358617
 10
-5.9596662567
 20
-18.0134248202
 10
-5.9289782622
 20
-18.0179849842
 10
-5.8972160141
 20
-18.0208398894
 10
-5.8649120984
 20
-18.0219416652
  0
LINE
  5
27B
100
AcDbEntity
  8
ASSI
100
AcDbLine
 62
250
  6
CONTINUOUS
 10
-6.1155134532
 20
-17.5639099544
 11
-6.1444658624
 21
-17.2714394933
  0
LINE
  5
27C
100
AcDbEntity
  8
ASSI
100
AcDbLine
 62
250
  6
CONTINUOUS
 10
-5.8655514233
 20
-17.3177090886
 11
-5.8908979324
 21
-17.0616645855
  0
LWPOLYLINE
  5
27D
100
AcDbEntity
  8
ASSI
100
AcDbPolyline
 62
250
  6
CONTINUOUS
 90
13
 70
0
 10
-7.6987534704
 20
-5.8510849215
 10
-7.6961767858
 20
-5.8902262754
 10
-7.6885144995
 20
-5.9286987929
 10
-7.6758974415
 20
-5.9658444955
 10
-7.658541205
 20
-6.0010280239
 10
-7.6367424264
 20
-6.0336475926
 10
-7.6108736862
 20
-6.0631452626
 10
-7.5813771623
 20
-6.0890164218
 10
-7.5487572641
 20
-6.110818302
 10
-7.5135719996
 20
-6.1281777043
 10
-7.4764232072
 20
-6.1407975305
 10
-7.4379462139
 20
-6.1484617938
 10
-7.3987991619
 20
-6.1510392301
  0
LINE
  5
27E
100
AcDbEntity
  8
ASSI
100
AcDbLine
 62
7
  6
CONTINUOUS
 10
-7.9678038188
 20
-22.1209772912
 11
-8.042597555
 21
-20.6402534353
  0
LWPOLYLINE
  5
27F
100
AcDbEntity
  8
ASSI
100
AcDbPolyline
 62
250
  6
CONTINUOUS
 90
4
 70
0
 10
-7.4086351014
 20
-3.4362718439
 10
-7.4096742227
 20
-3.4128249679
 10
-7.4106384222
 20
-3.386262078
 10
-7.4115276999
 20
-3.3567865326
  0
LINE
  5
280
100
AcDbEntity
  8
ASSI
100
AcDbLine
 62
250
  6
CONTINUOUS
 10
-7.6968092395
 20
-4.0866512128
 11
-7.7096238392
 21
-3.6582153776
  0
LINE
  5
281
100
AcDbEntity
  8
ASSI
100
AcDbLine
 62
250
  6
CONTINUOUS
 10
-7.7096238392
 20
-3.6582153776
 11
-7.7114730945
 21
-3.5694150832
  0
LINE
  5
282
100
AcDbEntity
  8
ASSI
100
AcDbLine
 62
250
  6
CONTINUOUS
 10
-7.6963458065
 20
-4.1089226754
 11
-7.6968092395
 21
-4.0866512128
  0
LINE
  5
283
100
AcDbEntity
  8
ASSI
100
AcDbLine
 62
250
  6
CONTINUOUS
 10
-7.7114730945
 20
-3.5694150832
 11
-7.7130413679
 21
-3.4623179526
  0
LINE
  5
284
100
AcDbEntity
  8
ASSI
100
AcDbLine
 62
250
  6
CONTINUOUS
 10
-7.695953971
 20
-4.1357262537
 11
-7.6963458065
 21
-4.1089226754
  0
LINE
  5
285
100
AcDbEntity
  8
ASSI
100
AcDbLine
 62
250
  6
CONTINUOUS
 10
-7.695618316
 20
5.8081325799
 11
-7.6959762931
 21
5.8442359346
  0
LINE
  5
286
100
AcDbEntity
  8
ASSI
100
AcDbLine
 62
250
  6
CONTINUOUS
 10
-7.7130413679
 20
-3.4623179526
 11
-7.7147280921
 21
-3.2767957696
  0
LINE
  5
287
100
AcDbEntity
  8
ASSI
100
AcDbLine
 62
250
  6
CONTINUOUS
 10
-7.6955330573
 20
-4.1821471395
 11
-7.695953971
 21
-4.1357262537
  0
LINE
  5
288
100
AcDbEntity
  8
ASSI
100
AcDbLine
 62
250
  6
CONTINUOUS
 10
-7.6953434041
 20
5.7487616956
 11
-7.695618316
 21
5.8081325799
  0
LINE
  5
289
100
AcDbEntity
  8
ASSI
100
AcDbLine
 62
250
  6
CONTINUOUS
 10
-7.7147280921
 20
-3.2767957696
 11
-7.7155150529
 21
-3.07383693
  0
LINE
  5
28A
100
AcDbEntity
  8
ASSI
100
AcDbLine
 62
250
  6
CONTINUOUS
 10
-7.6953371386
 20
-4.2327801669
 11
-7.6955330573
 21
-4.1821471395
  0
LINE
  5
28B
100
AcDbEntity
  8
ASSI
100
AcDbLine
 62
7
  6
CONTINUOUS
 10
-8.2593788258
 20
-0.1216645855
 11
-8.2593788258
 21
-1.3391196504
  0
LINE
  5
28C
100
AcDbEntity
  8
ASSI
100
AcDbLine
 62
7
  6
CONTINUOUS
 10
-8.2593788258
 20
0.1983354145
 11
-8.2593788258
 21
1.4157904794
  0
LINE
  5
28D
100
AcDbEntity
  8
ASSI
100
AcDbLine
 62
7
  6
CONTINUOUS
 10
-7.7191658926
 20
-1.3506522237
 11
-7.71851298
 21
-5.8708444312
  0
LINE
  5
28E
100
AcDbEntity
  8
ASSI
100
AcDbLine
 62
250
  6
CONTINUOUS
 10
-7.7155150529
 20
-3.07383693
 11
-7.7155712593
 21
-1.3470575904
  0
LINE
  5
28F
100
AcDbEntity
  8
ASSI
100
AcDbLine
 62
7
  6
CONTINUOUS
 10
-7.71851298
 20
5.9475152602
 11
-7.7191658926
 21
1.4273230527
  0
LINE
  5
290
100
AcDbEntity
  8
ASSI
100
AcDbLine
 62
250
  6
CONTINUOUS
 10
-7.6953765211
 20
4.2922543266
 11
-7.6953434041
 21
5.7487616956
  0
LINE
  5
291
100
AcDbEntity
  8
ASSI
100
AcDbLine
 62
250
  6
CONTINUOUS
 10
-7.7155712593
 20
1.4237284194
 11
-7.7150945001
 21
3.2871873742
  0
LWPOLYLINE
  5
292
100
AcDbEntity
  8
ASSI
100
AcDbPolyline
 62
250
  6
CONTINUOUS
 90
3
 70
0
 10
-7.695490002
 20
-5.7121611985
 10
-7.6953989434
 20
-5.6924394719
 10
-7.6953371386
 20
-4.2327801669
  0
LINE
  5
293
100
AcDbEntity
  8
ASSI
100
AcDbLine
 62
250
  6
CONTINUOUS
 10
-7.6956502111
 20
4.2425782798
 11
-7.6953765211
 21
4.2922543266
  0
LINE
  5
294
100
AcDbEntity
  8
ASSI
100
AcDbLine
 62
250
  6
CONTINUOUS
 10
-7.7150945001
 20
3.2871873742
 11
-7.7136959274
 21
3.4803397881
  0
LINE
  5
295
100
AcDbEntity
  8
ASSI
100
AcDbLine
 62
250
  6
CONTINUOUS
 10
-7.7136959274
 20
3.4803397881
 11
-7.7122892442
 21
3.5949912437
  0
LINE
  5
296
100
AcDbEntity
  8
ASSI
100
AcDbLine
 62
250
  6
CONTINUOUS
 10
-7.6961405773
 20
4.1984555743
 11
-7.6956502111
 21
4.2425782798
  0
LWPOLYLINE
  5
297
100
AcDbEntity
  8
ASSI
100
AcDbPolyline
 62
250
  6
CONTINUOUS
 90
3
 70
0
 10
-7.7122892442
 20
3.5949912437
 10
-7.7105803546
 20
3.692929927
 10
-7.7096209052
 20
3.735048001
  0
LWPOLYLINE
  5
298
100
AcDbEntity
  8
ASSI
100
AcDbPolyline
 62
250
  6
CONTINUOUS
 90
3
 70
0
 10
-7.6968092395
 20
4.1633220418
 10
-7.6965682115
 20
4.1739180538
 10
-7.6961405773
 20
4.1984555743
  0
LINE
  5
299
100
AcDbEntity
  8
ASSI
100
AcDbLine
 62
250
  6
CONTINUOUS
 10
-7.7096209052
 20
3.735048001
 11
-7.6968092395
 21
4.1633220418
  0
LINE
  5
29A
100
AcDbEntity
  8
ASSI
100
AcDbLine
 62
7
  6
CONTINUOUS
 10
-8.042597555
 20
20.7169242644
 11
-7.9678038188
 21
22.1976481202
  0
LWPOLYLINE
  5
29B
100
AcDbEntity
  8
ASSI
100
AcDbPolyline
 62
7
  6
CONTINUOUS
 90
16
 70
0
 10
-7.71851298
 20
5.9475152602
 10
-7.7168684521
 20
5.9788290992
 10
-7.7119647149
 20
6.0098137593
 10
-7.7038520876
 20
6.0401300089
 10
-7.6926099206
 20
6.0694598416
 10
-7.6783614555
 20
6.0974652364
 10
-7.6612872046
 20
6.123799155
 10
-7.6416174393
 20
6.1481422323
 10
-7.6195498336
 20
6.1702805584
 10
-7.5952470431
 20
6.1900429527
 10
-7.5689030709
 20
6.2072311083
 10
-7.5408457092
 20
6.2215933886
 10
-7.5114657338
 20
6.2329217875
 10
-7.4811214429
 20
6.2410927495
 10
-7.4501197312
 20
6.2460383438
 10
-7.4188021678
 20
6.2477130651
  0
LWPOLYLINE
  5
29C
100
AcDbEntity
  8
ASSI
100
AcDbPolyline
 62
250
  6
CONTINUOUS
 90
13
 70
0
 10
-7.6987534704
 20
5.9277557506
 10
-7.6961763906
 20
5.9669000975
 10
-7.6885130742
 20
6.0053749332
 10
-7.6758945921
 20
6.0425221973
 10
-7.6585367663
 20
6.077706536
 10
-7.6367364791
 20
6.1103261688
 10
-7.6108665949
 20
6.1398231808
 10
-7.5813695831
 20
6.1656930656
 10
-7.5487499502
 20
6.1874933534
 10
-7.5135656111
 20
6.2048511798
 10
-7.4764183464
 20
6.2174696625
 10
-7.4379435099
 20
6.2251329792
 10
-7.3987991619
 20
6.2277100591
  0
LINE
  5
29D
100
AcDbEntity
  8
ASSI
100
AcDbLine
 62
7
  6
CONTINUOUS
 10
-6.162206293
 20
20.3855355029
 11
-6.1297052154
 21
20.6141585732
  0
LWPOLYLINE
  5
29E
100
AcDbEntity
  8
ASSI
100
AcDbPolyline
 62
250
  6
CONTINUOUS
 90
13
 70
0
 10
-6.1148740222
 20
17.9929579288
 10
-6.1122673958
 20
18.0066122351
 10
-6.1055131425
 20
18.0200375874
 10
-6.0947245172
 20
18.033008871
 10
-6.0800824221
 20
18.0453085847
 10
-6.0618323744
 20
18.0567304883
 10
-6.0402803889
 20
18.0670830605
 10
-6.015787847
 20
18.0761927106
 10
-5.9887654369
 20
18.0839066889
 10
-5.9596662674
 20
18.0900956483
 10
-5.9289782704
 20
18.0946558129
 10
-5.8972160187
 20
18.0975107185
 10
-5.8649120984
 20
18.0986124942
  0
LWPOLYLINE
  5
29F
100
AcDbEntity
  8
ASSI
100
AcDbPolyline
 62
250
  6
CONTINUOUS
 90
8
 70
0
 10
-6.145323384
 20
15.9023527801
 10
-6.1452313165
 20
15.9027406547
 10
-6.1451423279
 20
15.9036334029
 10
-6.1450564181
 20
15.905031025
 10
-6.1449727507
 20
15.9069599246
 10
-6.1448921621
 20
15.9093936979
 10
-6.1448171618
 20
15.9122531334
 10
-6.1446842855
 20
15.9192746519
  0
LINE
  5
2A0
100
AcDbEntity
  8
ASSI
100
AcDbLine
 62
250
  6
CONTINUOUS
 10
-7.1997329613
 20
6.2479355875
 11
-7.2199584897
 21
6.2277100591
  0
LINE
  5
2A1
100
AcDbEntity
  8
ASSI
100
AcDbLine
 62
250
  6
CONTINUOUS
 10
-6.8994111283
 20
5.9483488035
 11
-6.9200041812
 21
5.9277557506
  0
LWPOLYLINE
  5
2A2
100
AcDbEntity
  8
ASSI
100
AcDbPolyline
 62
7
  6
CONTINUOUS
 90
10
 70
0
 10
5.4095441625
 20
-1.3525438552
 10
5.3772559101
 20
-1.3543901979
 10
5.3459864267
 20
-1.3594343466
 10
5.315735732
 20
-1.367676286
 10
5.2861700078
 20
-1.3792883235
 10
5.2576231118
 20
-1.3940981231
 10
5.2310965968
 20
-1.4115887092
 10
5.2069243479
 20
-1.4315877535
 10
5.1847725629
 20
-1.4542675707
 10
5.1646412797
 20
-1.4796281558
  0
LWPOLYLINE
  5
2A3
100
AcDbEntity
  8
ASSI
100
AcDbPolyline
 62
7
  6
CONTINUOUS
 90
13
 70
0
 10
5.223427463
 20
-0.7216645451
 10
5.1904428129
 20
-0.7232554098
 10
5.1586600337
 20
-0.7275013267
 10
5.1280791255
 20
-0.7344022958
 10
5.0986405988
 20
-0.7439854883
 10
5.070403943
 20
-0.7562237329
 10
5.0435476267
 20
-0.7710355161
 10
5.0179519903
 20
-0.7884832223
 10
4.9937366934
 20
-0.808504467
 10
4.9714391831
 20
-0.8308305827
 10
4.9512386085
 20
-0.8553720134
 10
4.9329558206
 20
-0.8822183152
 10
4.9165908193
 20
-0.9113694879
  0
LWPOLYLINE
  5
2A4
100
AcDbEntity
  8
ASSI
100
AcDbPolyline
 62
250
  6
CONTINUOUS
 90
13
 70
0
 10
5.3952836081
 20
-1.1251251329
 10
5.3547761063
 20
-1.1268338977
 10
5.3150665439
 20
-1.1316342319
 10
5.2761549208
 20
-1.1395261355
 10
5.2378201701
 20
-1.1505982557
 10
5.2002833588
 20
-1.1647619453
 10
5.1642076878
 20
-1.1817512628
 10
5.1296003851
 20
-1.2016204118
 10
5.0964542227
 20
-1.2243151888
 10
5.065410717
 20
-1.2494070414
 10
5.036683707
 20
-1.2767531186
 10
5.0100593537
 20
-1.3064962715
 10
4.9855376572
 20
-1.3386364998
  0
LWPOLYLINE
  5
2A5
100
AcDbEntity
  8
ASSI
100
AcDbPolyline
 62
250
  6
CONTINUOUS
 90
13
 70
0
 10
5.3952217896
 20
-1.3250946756
 10
5.3712260743
 20
-1.3260584288
 10
5.3473927213
 20
-1.3289375887
 10
5.323874091
 20
-1.333711837
 10
5.3008255651
 20
-1.3403470105
 10
5.2783884454
 20
-1.3487997897
 10
5.2566905912
 20
-1.3590221706
 10
5.2358633135
 20
-1.3709559611
 10
5.2160500278
 20
-1.3845227759
 10
5.1973884168
 20
-1.3996290567
 10
5.1800003854
 20
-1.4161743128
 10
5.1639932224
 20
-1.4340545501
 10
5.1494686889
 20
-1.4531547858
  0
LWPOLYLINE
  5
2A6
100
AcDbEntity
  8
ASSI
100
AcDbPolyline
 62
7
  6
CONTINUOUS
 90
16
 70
0
 10
3.0156211742
 20
-2.5939506006
 10
3.1833733607
 20
-2.5885207252
 10
3.3503522576
 20
-2.5724201601
 10
3.5158808788
 20
-2.5457305047
 10
3.6792154138
 20
-2.5085950807
 10
3.8397738315
 20
-2.4611708891
 10
3.9971249554
 20
-2.403580867
 10
4.1507734783
 20
-2.3359596263
 10
4.2999229254
 20
-2.2586099342
 10
4.4437220948
 20
-2.1719735918
 10
4.5814802265
 20
-2.0765123403
 10
4.7127818061
 20
-1.972561607
 10
4.8372326939
 20
-1.8604470549
 10
4.9543624416
 20
-1.7405765922
 10
5.0636481711
 20
-1.6134666893
 10
5.1646412797
 20
-1.4796281558
  0
LINE
  5
2A7
100
AcDbEntity
  8
ASSI
100
AcDbLine
 62
7
  6
CONTINUOUS
 10
9.677847371
 20
-1.3477827523
 11
7.400408241
 21
-1.3506522237
  0
LINE
  5
2A8
100
AcDbEntity
  8
ASSI
100
AcDbLine
 62
7
  6
CONTINUOUS
 10
6.5799849488
 20
-1.3515013823
 11
5.4095441625
 21
-1.3525438552
  0
LINE
  5
2A9
100
AcDbEntity
  8
ASSI
100
AcDbLine
 62
250
  6
CONTINUOUS
 10
3.0156211742
 20
-2.5650946719
 11
-3.3343788258
 21
-2.5650946719
  0
LINE
  5
2AA
100
AcDbEntity
  8
ASSI
100
AcDbLine
 62
250
  6
CONTINUOUS
 10
3.0156211742
 20
-2.3651251329
 11
-3.3343788258
 21
-2.3651251329
  0
LINE
  5
2AB
100
AcDbEntity
  8
ASSI
100
AcDbLine
 62
7
  6
CONTINUOUS
 10
-3.3343788258
 20
-2.0866645855
 11
3.0156211742
 21
-2.0866645855
  0
LINE
  5
2AC
100
AcDbEntity
  8
ASSI
100
AcDbLine
 62
7
  6
CONTINUOUS
 10
-3.3343788258
 20
-1.4866645855
 11
3.0156208624
 21
-1.4866645855
  0
LINE
  5
2AD
100
AcDbEntity
  8
ASSI
100
AcDbLine
 62
7
  6
CONTINUOUS
 10
-7.2031407008
 20
-1.3419124608
 11
-7.4156169508
 21
-1.3419124608
  0
LINE
  5
2AE
100
AcDbEntity
  8
ASSI
100
AcDbLine
 62
7
  6
CONTINUOUS
 10
6.8843830492
 20
-1.3419124608
 11
7.0968592992
 21
-1.3419124608
  0
LINE
  5
2AF
100
AcDbEntity
  8
ASSI
100
AcDbLine
 62
7
  6
CONTINUOUS
 10
9.6865104729
 20
-1.3391196504
 11
7.9406211742
 21
-1.3391196504
  0
LINE
  5
2B0
100
AcDbEntity
  8
ASSI
100
AcDbLine
 62
7
  6
CONTINUOUS
 10
-8.2593788258
 20
-1.3391196504
 11
-10.0052681245
 21
-1.3391196504
  0
LINE
  5
2B1
100
AcDbEntity
  8
ASSI
100
AcDbLine
 62
250
  6
CONTINUOUS
 10
7.9406211742
 20
-1.3250946719
 11
5.395221791
 21
-1.3250946719
  0
LINE
  5
2B2
100
AcDbEntity
  8
ASSI
100
AcDbLine
 62
250
  6
CONTINUOUS
 10
-5.7139832031
 20
-1.3250946719
 11
-8.2593788258
 21
-1.3250946719
  0
LINE
  5
2B3
100
AcDbEntity
  8
ASSI
100
AcDbLine
 62
250
  6
CONTINUOUS
 10
7.9406211742
 20
-1.1251251329
 11
5.3952836081
 21
-1.1251251329
  0
LINE
  5
2B4
100
AcDbEntity
  8
ASSI
100
AcDbLine
 62
250
  6
CONTINUOUS
 10
-5.7140412597
 20
-1.1251251329
 11
-8.2593788258
 21
-1.1251251329
  0
LINE
  5
2B5
100
AcDbEntity
  8
ASSI
100
AcDbLine
 62
7
  6
CONTINUOUS
 10
-3.3343788258
 20
-2.5939506006
 11
3.0156211742
 21
-2.5939506006
  0
LINE
  5
2B6
100
AcDbEntity
  8
ASSI
100
AcDbLine
 62
7
  6
CONTINUOUS
 10
-5.7283018141
 20
-1.3525438552
 11
-6.8987426004
 21
-1.3515013823
  0
LINE
  5
2B7
100
AcDbEntity
  8
ASSI
100
AcDbLine
 62
7
  6
CONTINUOUS
 10
-7.7191658926
 20
-1.3506522237
 11
-9.9966050226
 21
-1.3477827523
  0
LINE
  5
2B8
100
AcDbEntity
  8
ASSI
100
AcDbLine
 62
7
  6
CONTINUOUS
 10
-10.0593788258
 20
-0.0946112953
 11
-10.0052681245
 21
-0.1216645855
  0
LINE
  5
2B9
100
AcDbEntity
  8
ASSI
100
AcDbLine
 62
7
  6
CONTINUOUS
 10
-6.8987426004
 20
-1.3515013823
 11
-6.9031863923
 21
-1.3470575904
  0
LWPOLYLINE
  5
2BA
100
AcDbEntity
  8
ASSI
100
AcDbPolyline
 62
7
  6
CONTINUOUS
 90
10
 70
0
 10
-5.4833989313
 20
-1.4796281558
 10
-5.5035302145
 20
-1.4542675707
 10
-5.5256819995
 20
-1.4315877535
 10
-5.5498542484
 20
-1.4115887092
 10
-5.5763807634
 20
-1.3940981231
 10
-5.6049276594
 20
-1.3792883235
 10
-5.6344933836
 20
-1.367676286
 10
-5.6647440783
 20
-1.3594343466
 10
-5.6960135617
 20
-1.3543901979
 10
-5.7283018141
 20
-1.3525438552
  0
LINE
  5
2BB
100
AcDbEntity
  8
ASSI
100
AcDbLine
 62
7
  6
CONTINUOUS
 10
-6.162206293
 20
-20.3088646739
 11
-6.1297052154
 21
-20.5374877441
  0
LWPOLYLINE
  5
2BC
100
AcDbEntity
  8
ASSI
100
AcDbPolyline
 62
250
  6
CONTINUOUS
 90
13
 70
0
 10
-7.7085892333
 20
3.7727542907
 10
-7.7057117019
 20
3.73902863
 10
-7.6978073443
 20
3.70587364
 10
-7.6850099101
 20
3.6738503353
 10
-7.667535944
 20
3.6435005811
 10
-7.6456811226
 20
3.6153379245
 10
-7.6198152505
 20
3.5898389049
 10
-7.5903760033
 20
3.5674349903
 10
-7.5578615215
 20
3.5485052767
 10
-7.5228219814
 20
3.5333700731
 10
-7.485850286
 20
3.5222854817
 10
-7.4475720321
 20
3.5154390645
 10
-7.4086349248
 20
3.5129466695
  0
LWPOLYLINE
  5
2BD
100
AcDbEntity
  8
ASSI
100
AcDbPolyline
 62
250
  6
CONTINUOUS
 90
13
 70
0
 10
-7.6970688905
 20
4.1538054683
 10
-7.6941914563
 20
4.1200804056
 10
-7.6862873385
 20
4.0869258698
 10
-7.6734902268
 20
4.0549028604
 10
-7.6560166041
 20
4.0245532374
 10
-7.6341620905
 20
3.9963905616
 10
-7.6082964465
 20
3.9708914009
 10
-7.578857302
 20
3.9484872495
 10
-7.5463427703
 20
3.9295572451
 10
-7.5113030361
 20
3.9144217501
 10
-7.4743310087
 20
3.9033369068
 10
-7.4360522831
 20
3.8964903113
 10
-7.3971145819
 20
3.893997849
  0
LWPOLYLINE
  5
2BE
100
AcDbEntity
  8
ASSI
100
AcDbPolyline
 62
250
  6
CONTINUOUS
 90
13
 70
0
 10
-6.9216887611
 20
-4.0771346393
 10
-6.9245661953
 20
-4.0434095766
 10
-6.9324703131
 20
-4.0102550408
 10
-6.9452674248
 20
-3.9782320314
 10
-6.9627410475
 20
-3.9478824084
 10
-6.9845955611
 20
-3.9197197325
 10
-7.0104612051
 20
-3.8942205719
 10
-7.0399003496
 20
-3.8718164205
 10
-7.0724148813
 20
-3.8528864161
 10
-7.1074546155
 20
-3.8377509211
 10
-7.1444266429
 20
-3.8266660778
 10
-7.1827053685
 20
-3.8198194823
 10
-7.2216430697
 20
-3.81732702
  0
LWPOLYLINE
  5
2BF
100
AcDbEntity
  8
ASSI
100
AcDbPolyline
 62
250
  6
CONTINUOUS
 90
13
 70
0
 10
-6.9101684183
 20
-3.6960834617
 10
-6.9130459497
 20
-3.662357801
 10
-6.9209503073
 20
-3.629202811
 10
-6.9337477415
 20
-3.5971795063
 10
-6.9512217076
 20
-3.5668297521
 10
-6.973076529
 20
-3.5386670955
 10
-6.998942401
 20
-3.5131680759
 10
-7.0283816483
 20
-3.4907641613
 10
-7.0608961301
 20
-3.4718344477
 10
-7.0959356702
 20
-3.4566992441
 10
-7.1329073656
 20
-3.4456146527
 10
-7.1711856195
 20
-3.4387682355
 10
-7.2101227268
 20
-3.4362758405
  0
LWPOLYLINE
  5
2C0
100
AcDbEntity
  8
ASSI
100
AcDbPolyline
 62
7
  6
CONTINUOUS
 90
16
 70
0
 10
-5.3742917892
 20
-17.2714394933
 10
-5.3756660939
 20
-17.2529104533
 10
-5.3790763241
 20
-17.2340919588
 10
-5.3846181845
 20
-17.2151808571
 10
-5.3923649994
 20
-17.1964457884
 10
-5.4023715474
 20
-17.1780666618
 10
-5.4146876564
 20
-17.1601401658
 10
-5.4293038031
 20
-17.1429761004
 10
-5.4462192826
 20
-17.1268193493
 10
-5.4655035655
 20
-17.1117311767
 10
-5.4870243108
 20
-17.0981190505
 10
-5.5107305473
 20
-17.0862633688
 10
-5.5368524162
 20
-17.0762066881
 10
-5.5653488889
 20
-17.0683589439
 10
-5.5958137841
 20
-17.0633470172
 10
-5.6278597192
 20
-17.0616645855
  0
LWPOLYLINE
  5
2C1
100
AcDbEntity
  8
ASSI
100
AcDbPolyline
 62
250
  6
CONTINUOUS
 90
13
 70
0
 10
-5.4032441984
 20
-17.5639099544
 10
-5.4054731356
 20
-17.531835496
 10
-5.4119245707
 20
-17.5003077591
 10
-5.4224885314
 20
-17.4698641181
 10
-5.4369849512
 20
-17.4410234644
 10
-5.4551667354
 20
-17.4142773706
 10
-5.4767239703
 20
-17.3900817097
 10
-5.5012892093
 20
-17.3688488777
 10
-5.5284437475
 20
-17.3509407598
 10
-5.5577247561
 20
-17.3366625727
 10
-5.5886331592
 20
-17.3262576688
 10
-5.6206421385
 20
-17.319903385
 10
-5.6532061221
 20
-17.3177080161
  0
LWPOLYLINE
  5
2C2
100
AcDbEntity
  8
ASSI
100
AcDbPolyline
 62
250
  6
CONTINUOUS
 90
13
 70
0
 10
-6.9200041812
 20
5.9277557506
 10
-6.9225808658
 20
5.9668971044
 10
-6.9302431521
 20
6.0053696219
 10
-6.9428602101
 20
6.0425153245
 10
-6.9602164466
 20
6.0776988529
 10
-6.9820152252
 20
6.1103184216
 10
-7.0078839653
 20
6.1398160916
 10
-7.0373804893
 20
6.1656872508
 10
-7.0700003875
 20
6.187489131
 10
-7.105185652
 20
6.2048485333
 10
-7.1423344444
 20
6.2174683595
 10
-7.1808114377
 20
6.2251326228
 10
-7.2199584897
 20
6.2277100592
  0
LWPOLYLINE
  5
2C3
100
AcDbEntity
  8
ASSI
100
AcDbPolyline
 62
250
  6
CONTINUOUS
 90
13
 70
0
 10
-5.3734342676
 20
-15.8256819511
 10
-5.3755818373
 20
-15.7930616383
 10
-5.3819679425
 20
-15.7609992567
 10
-5.3924833558
 20
-15.7300431904
 10
-5.4069482238
 20
-15.7007229009
 10
-5.4251151428
 20
-15.6735398721
 10
-5.4466733897
 20
-15.6489590335
 10
-5.4712542375
 20
-15.6274008065
 10
-5.4984372631
 20
-15.609233913
 10
-5.5277575382
 20
-15.5947690709
 10
-5.5587135794
 20
-15.5842536801
 10
-5.5907759247
 20
-15.5778675909
 10
-5.6233961914
 20
-15.5757200273
  0
LWPOLYLINE
  5
2C4
100
AcDbEntity
  8
ASSI
100
AcDbPolyline
 62
250
  6
CONTINUOUS
 90
4
 70
0
 10
-7.2101225502
 20
3.5129426729
 10
-7.2090834289
 20
3.4894957969
 10
-7.2081192294
 20
3.462932907
 10
-7.2072299517
 20
3.4334573616
  0
LINE
  5
2C5
100
AcDbEntity
  8
ASSI
100
AcDbLine
 62
250
  6
CONTINUOUS
 10
-7.3971145819
 20
-3.8173270182
 11
-7.4086350456
 21
-3.4362718439
  0
LINE
  5
2C6
100
AcDbEntity
  8
ASSI
100
AcDbLine
 62
250
  6
CONTINUOUS
 10
-7.2216430697
 20
3.8939978472
 11
-7.210122606
 21
3.5129426729
  0
LINE
  5
2C7
100
AcDbEntity
  8
ASSI
100
AcDbLine
 62
250
  6
CONTINUOUS
 10
-6.9219484121
 20
4.1633220418
 11
-6.9091338124
 21
3.7348862066
  0
LWPOLYLINE
  5
2C8
100
AcDbEntity
  8
ASSI
100
AcDbPolyline
 62
250
  6
CONTINUOUS
 90
7
 70
0
 10
-7.6967353788
 20
5.8884439104
 10
-7.6970365033
 20
5.8998515802
 10
-7.6973598316
 20
5.9095435857
 10
-7.697694299
 20
5.9172109074
 10
-7.6980362171
 20
5.9227505389
 10
-7.6983892742
 20
5.9262654866
 10
-7.6987534704
 20
5.9277557506
  0
LWPOLYLINE
  5
2C9
100
AcDbEntity
  8
ASSI
100
AcDbPolyline
 62
250
  6
CONTINUOUS
 90
7
 70
0
 10
-6.9220222728
 20
-5.8117730814
 10
-6.9217211483
 20
-5.8231807512
 10
-6.92139782
 20
-5.8328727567
 10
-6.9210633526
 20
-5.8405400784
 10
-6.9207214345
 20
-5.8460797099
 10
-6.9203683774
 20
-5.8495946576
 10
-6.9200041812
 20
-5.8510849215
  0
LWPOLYLINE
  5
2CA
100
AcDbEntity
  8
ASSI
100
AcDbPolyline
 62
250
  6
CONTINUOUS
 90
7
 70
0
 10
-6.1448171627
 20
-15.8355822652
 10
-6.1448921619
 20
-15.8327228541
 10
-6.1449727488
 20
-15.8302891243
 10
-6.1450564153
 20
-15.8283602515
 10
-6.1451423253
 20
-15.8269626277
 10
-6.1452313149
 20
-15.8260698609
 10
-6.145323384
 20
-15.8256819511
  0
LWPOLYLINE
  5
2CB
100
AcDbEntity
  8
ASSI
100
AcDbPolyline
 62
250
  6
CONTINUOUS
 90
6
 70
0
 10
-6.1151427764
 20
-17.5730974663
 10
-6.1152105124
 20
-17.5704715213
 10
-6.1152816187
 20
-17.5682328454
 10
-6.1153555265
 20
-17.5664046126
 10
-6.1154328047
 20
-17.5649636489
 10
-6.1155134532
 20
-17.5639099544
  0
LWPOLYLINE
  5
2CC
100
AcDbEntity
  8
ASSI
100
AcDbPolyline
 62
250
  6
CONTINUOUS
 90
4
 70
0
 10
-7.2210223287
 20
-6.1244395302
 10
-7.2206796811
 20
-6.1385606112
 10
-7.2203250681
 20
-6.1474589604
 10
-7.2199584897
 20
-6.1510392301
  0
LWPOLYLINE
  5
2CD
100
AcDbEntity
  8
ASSI
100
AcDbPolyline
 62
250
  6
CONTINUOUS
 90
4
 70
0
 10
-7.3977353229
 20
6.2011103592
 10
-7.3980779705
 20
6.2152314402
 10
-7.3984325835
 20
6.2241297894
 10
-7.3987991619
 20
6.2277100591
  0
LINE
  5
2CE
100
AcDbEntity
  8
ASSI
100
AcDbLine
 62
250
  6
CONTINUOUS
 10
-7.4115276999
 20
-3.3567865326
 11
-7.4130925208
 21
-3.2900215513
  0
LINE
  5
2CF
100
AcDbEntity
  8
ASSI
100
AcDbLine
 62
250
  6
CONTINUOUS
 10
-7.2072299517
 20
3.4334573616
 11
-7.2056651308
 21
3.3666923803
  0
LINE
  5
2D0
100
AcDbEntity
  8
ASSI
100
AcDbLine
 62
250
  6
CONTINUOUS
 10
-6.9224118451
 20
4.1855935044
 11
-6.9219484121
 21
4.1633220418
  0
LINE
  5
2D1
100
AcDbEntity
  8
ASSI
100
AcDbLine
 62
250
  6
CONTINUOUS
 10
-6.9091338124
 20
3.7348862066
 11
-6.9072845571
 21
3.6460859122
  0
LINE
  5
2D2
100
AcDbEntity
  8
ASSI
100
AcDbLine
 62
250
  6
CONTINUOUS
 10
-6.1150226745
 20
-17.5793098984
 11
-6.1151427764
 21
-17.5730974663
  0
LINE
  5
2D3
100
AcDbEntity
  8
ASSI
100
AcDbLine
 62
250
  6
CONTINUOUS
 10
-6.9225559382
 20
-5.7837023139
 11
-6.9220222728
 21
-5.8117730814
  0
LINE
  5
2D4
100
AcDbEntity
  8
ASSI
100
AcDbLine
 62
250
  6
CONTINUOUS
 10
-6.1446842855
 20
-15.8426038322
 11
-6.1448171627
 21
-15.8355822652
  0
LWPOLYLINE
  5
2D5
100
AcDbEntity
  8
ASSI
100
AcDbPolyline
 62
250
  6
CONTINUOUS
 90
3
 70
0
 10
-5.8951808948
 20
-15.5831995104
 10
-5.8952698823
 20
-15.5778578033
 10
-5.8953619037
 20
-15.5757173607
  0
LINE
  5
2D6
100
AcDbEntity
  8
ASSI
100
AcDbLine
 62
250
  6
CONTINUOUS
 10
-7.4130925208
 20
-3.2900215513
 11
-7.4143060692
 21
-3.2145500596
  0
LINE
  5
2D7
100
AcDbEntity
  8
ASSI
100
AcDbLine
 62
250
  6
CONTINUOUS
 10
-7.2056651308
 20
3.3666923803
 11
-7.2044515824
 21
3.2912208886
  0
LWPOLYLINE
  5
2D8
100
AcDbEntity
  8
ASSI
100
AcDbPolyline
 62
250
  6
CONTINUOUS
 90
3
 70
0
 10
-7.6959762931
 20
5.8442359346
 10
-7.6962017134
 20
5.8603731429
 10
-7.6967353788
 20
5.8884439104
  0
LINE
  5
2D9
100
AcDbEntity
  8
ASSI
100
AcDbLine
 62
250
  6
CONTINUOUS
 10
-6.9072845571
 20
3.6460859122
 11
-6.9057162837
 21
3.5389887816
  0
LINE
  5
2DA
100
AcDbEntity
  8
ASSI
100
AcDbLine
 62
250
  6
CONTINUOUS
 10
-7.3970791449
 20
6.1578595391
 11
-7.3977353229
 21
6.2011103592
  0
LINE
  5
2DB
100
AcDbEntity
  8
ASSI
100
AcDbLine
 62
250
  6
CONTINUOUS
 10
-7.2216785066
 20
-6.0811887101
 11
-7.2210223287
 21
-6.1244395302
  0
LINE
  5
2DC
100
AcDbEntity
  8
ASSI
100
AcDbLine
 62
250
  6
CONTINUOUS
 10
-6.9228036806
 20
4.2123970827
 11
-6.9224118451
 21
4.1855935044
  0
LINE
  5
2DD
100
AcDbEntity
  8
ASSI
100
AcDbLine
 62
250
  6
CONTINUOUS
 10
-6.1149243129
 20
-17.5867091998
 11
-6.1150226745
 21
-17.5793098984
  0
LINE
  5
2DE
100
AcDbEntity
  8
ASSI
100
AcDbLine
 62
250
  6
CONTINUOUS
 10
-6.9229755023
 20
-5.7501354244
 11
-6.9225559382
 21
-5.7837023139
  0
LINE
  5
2DF
100
AcDbEntity
  8
ASSI
100
AcDbLine
 62
250
  6
CONTINUOUS
 10
-6.1445799007
 20
-15.8509868903
 11
-6.1446842855
 21
-15.8426038322
  0
LINE
  5
2E0
100
AcDbEntity
  8
ASSI
100
AcDbLine
 62
250
  6
CONTINUOUS
 10
-5.8653941507
 20
-17.3324558691
 11
-5.8655515124
 21
-17.3177090886
  0
LINE
  5
2E1
100
AcDbEntity
  8
ASSI
100
AcDbLine
 62
250
  6
CONTINUOUS
 10
-7.4143060692
 20
-3.2145500596
 11
-7.4151410925
 21
-3.1326686893
  0
LINE
  5
2E2
100
AcDbEntity
  8
ASSI
100
AcDbLine
 62
250
  6
CONTINUOUS
 10
-7.2044515824
 20
3.2912208886
 11
-7.2036165591
 21
3.2093395183
  0
LINE
  5
2E3
100
AcDbEntity
  8
ASSI
100
AcDbLine
 62
250
  6
CONTINUOUS
 10
-5.6538455526
 20
-18.0219417342
 11
-5.6351356029
 21
-20.3206221981
  0
LINE
  5
2E4
100
AcDbEntity
  8
ASSI
100
AcDbLine
 62
250
  6
CONTINUOUS
 10
-5.864912099
 20
18.0986125633
 11
-5.8836220487
 21
20.3972930271
  0
LINE
  5
2E5
100
AcDbEntity
  8
ASSI
100
AcDbLine
 62
250
  6
CONTINUOUS
 10
-7.3963914403
 20
-3.8967868799
 11
-7.3971145819
 21
-3.8173270182
  0
LINE
  5
2E6
100
AcDbEntity
  8
ASSI
100
AcDbLine
 62
250
  6
CONTINUOUS
 10
-7.2223662113
 20
3.9734577089
 11
-7.2216430697
 21
3.8939978472
  0
LINE
  5
2E7
100
AcDbEntity
  8
ASSI
100
AcDbLine
 62
250
  6
CONTINUOUS
 10
-6.9232245943
 20
4.2588179685
 11
-6.9228036806
 21
4.2123970827
  0
LINE
  5
2E8
100
AcDbEntity
  8
ASSI
100
AcDbLine
 62
250
  6
CONTINUOUS
 10
-6.9057162837
 20
3.5389887816
 11
-6.9040295595
 21
3.3534665986
  0
LINE
  5
2E9
100
AcDbEntity
  8
ASSI
100
AcDbLine
 62
250
  6
CONTINUOUS
 10
-5.8950111231
 20
-15.6031998749
 11
-5.8951808948
 21
-15.5831995104
  0
LINE
  5
2EA
100
AcDbEntity
  8
ASSI
100
AcDbLine
 62
250
  6
CONTINUOUS
 10
-7.3962470849
 20
6.0593116107
 11
-7.3970791449
 21
6.1578595391
  0
LINE
  5
2EB
100
AcDbEntity
  8
ASSI
100
AcDbLine
 62
250
  6
CONTINUOUS
 10
-7.2225105667
 20
-5.9826407817
 11
-7.2216785066
 21
-6.0811887101
  0
LINE
  5
2EC
100
AcDbEntity
  8
ASSI
100
AcDbLine
 62
250
  6
CONTINUOUS
 10
-6.1148258406
 20
-17.5994141861
 11
-6.1149243129
 21
-17.5867091998
  0
LINE
  5
2ED
100
AcDbEntity
  8
ASSI
100
AcDbLine
 62
250
  6
CONTINUOUS
 10
-6.9233587082
 20
-5.692439472
 11
-6.9229755023
 21
-5.7501354244
  0
LINE
  5
2EE
100
AcDbEntity
  8
ASSI
100
AcDbLine
 62
250
  6
CONTINUOUS
 10
-6.1444846217
 20
-15.8653771559
 11
-6.1445799007
 21
-15.8509868903
  0
LINE
  5
2EF
100
AcDbEntity
  8
ASSI
100
AcDbLine
 62
250
  6
CONTINUOUS
 10
-6.114792252
 20
17.9718270157
 11
-6.1297052154
 21
19.8150993329
  0
LINE
  5
2F0
100
AcDbEntity
  8
ASSI
100
AcDbLine
 62
250
  6
CONTINUOUS
 10
-7.4151410925
 20
-3.1326686893
 11
-7.4155602811
 21
-3.0468932642
  0
LINE
  5
2F1
100
AcDbEntity
  8
ASSI
100
AcDbLine
 62
250
  6
CONTINUOUS
 10
-7.2036165591
 20
3.2093395183
 11
-7.2031973705
 21
3.1235640932
  0
LINE
  5
2F2
100
AcDbEntity
  8
ASSI
100
AcDbLine
 62
250
  6
CONTINUOUS
 10
-5.8650088914
 20
-17.4312153201
 11
-5.8653941507
 21
-17.3324558691
  0
LINE
  5
2F3
100
AcDbEntity
  8
ASSI
100
AcDbLine
 62
250
  6
CONTINUOUS
 10
-6.923420513
 20
4.3094509959
 11
-6.9232245943
 21
4.2588179685
  0
LINE
  5
2F4
100
AcDbEntity
  8
ASSI
100
AcDbLine
 62
250
  6
CONTINUOUS
 10
-6.9040295595
 20
3.3534665986
 11
-6.9032425987
 21
3.150507759
  0
LINE
  5
2F5
100
AcDbEntity
  8
ASSI
100
AcDbLine
 62
250
  6
CONTINUOUS
 10
-7.3954880419
 20
-4.1209317712
 11
-7.3963914403
 21
-3.8967868799
  0
LINE
  5
2F6
100
AcDbEntity
  8
ASSI
100
AcDbLine
 62
250
  6
CONTINUOUS
 10
-7.2232696097
 20
4.1976026002
 11
-7.2223662113
 21
3.9734577089
  0
LINE
  5
2F7
100
AcDbEntity
  8
ASSI
100
AcDbLine
 62
250
  6
CONTINUOUS
 10
-7.3954452154
 20
5.8306021138
 11
-7.3962470849
 21
6.0593116107
  0
LINE
  5
2F8
100
AcDbEntity
  8
ASSI
100
AcDbLine
 62
250
  6
CONTINUOUS
 10
-7.2233124362
 20
-5.7539312848
 11
-7.2225105667
 21
-5.9826407817
  0
LINE
  5
2F9
100
AcDbEntity
  8
ASSI
100
AcDbLine
 62
250
  6
CONTINUOUS
 10
-5.8945779887
 20
-15.7549307779
 11
-5.8950111231
 21
-15.6031998749
  0
LINE
  5
2FA
100
AcDbEntity
  8
ASSI
100
AcDbLine
 62
7
  6
CONTINUOUS
 10
-6.1655622759
 20
-15.8054430592
 11
-6.162206293
 21
-20.3088646739
  0
LINE
  5
2FB
100
AcDbEntity
  8
ASSI
100
AcDbLine
 62
7
  6
CONTINUOUS
 10
-7.5593788258
 20
22.1605741843
 11
-7.5593788258
 21
20.6141585732
  0
LINE
  5
2FC
100
AcDbEntity
  8
ASSI
100
AcDbLine
 62
7
  6
CONTINUOUS
 10
-7.5593788258
 20
-20.5374877441
 11
-7.5593788258
 21
-22.0839033553
  0
LINE
  5
2FD
100
AcDbEntity
  8
ASSI
100
AcDbLine
 62
250
  6
CONTINUOUS
 10
-7.4155602811
 20
-3.0468932642
 11
-7.4156169508
 21
-1.3419124608
  0
LINE
  5
2FE
100
AcDbEntity
  8
ASSI
100
AcDbLine
 62
250
  6
CONTINUOUS
 10
-7.2031973705
 20
3.1235640932
 11
-7.2031407008
 21
1.4185832898
  0
LINE
  5
2FF
100
AcDbEntity
  8
ASSI
100
AcDbLine
 62
250
  6
CONTINUOUS
 10
-6.9032425987
 20
3.150507759
 11
-6.9031863923
 21
1.4237284194
  0
LINE
  5
300
100
AcDbEntity
  8
ASSI
100
AcDbLine
 62
7
  6
CONTINUOUS
 10
-6.8987426004
 20
1.4281722113
 11
-6.8994111283
 21
5.9483488035
  0
LINE
  5
301
100
AcDbEntity
  8
ASSI
100
AcDbLine
 62
250
  6
CONTINUOUS
 10
-6.1444658624
 20
-17.2714394933
 11
-6.1444846217
 21
-15.8653771559
  0
LINE
  5
302
100
AcDbEntity
  8
ASSI
100
AcDbLine
 62
7
  6
CONTINUOUS
 10
-6.1297052154
 20
-20.5374877441
 11
-6.1297052154
 21
-19.7384285039
  0
LINE
  5
303
100
AcDbEntity
  8
ASSI
100
AcDbLine
 62
7
  6
CONTINUOUS
 10
-6.1297052154
 20
19.8150993329
 11
-6.1297052154
 21
20.6141585732
  0
LINE
  5
304
100
AcDbEntity
  8
ASSI
100
AcDbLine
 62
250
  6
CONTINUOUS
 10
-6.114792252
 20
-17.8951561867
 11
-6.1148258406
 21
-17.5994141861
  0
LINE
  5
305
100
AcDbEntity
  8
ASSI
100
AcDbLine
 62
250
  6
CONTINUOUS
 10
-5.8945039386
 20
-17.0616645855
 11
-5.8945779887
 21
-15.7549307779
  0
LINE
  5
306
100
AcDbEntity
  8
ASSI
100
AcDbLine
 62
7
  6
CONTINUOUS
 10
-6.8994111283
 20
-5.8716779744
 11
-6.8987426004
 21
-1.3515013823
  0
LINE
  5
307
100
AcDbEntity
  8
ASSI
100
AcDbLine
 62
250
  6
CONTINUOUS
 10
-5.8649120984
 20
-18.0219416652
 11
-5.8650088914
 21
-17.4312153201
  0
LINE
  5
308
100
AcDbEntity
  8
ASSI
100
AcDbLine
 62
250
  6
CONTINUOUS
 10
-6.923420513
 20
-4.2327801669
 11
-6.9233587082
 21
-5.692439472
  0
LINE
  5
309
100
AcDbEntity
  8
ASSI
100
AcDbLine
 62
7
  6
CONTINUOUS
 10
-6.162206293
 20
20.3855355029
 11
-6.1655622759
 21
15.8821138882
  0
LINE
  5
30A
100
AcDbEntity
  8
ASSI
100
AcDbLine
 62
250
  6
CONTINUOUS
 10
-7.395664691
 20
-5.8523531493
 11
-7.3954880419
 21
-4.1209317712
  0
LINE
  5
30B
100
AcDbEntity
  8
ASSI
100
AcDbLine
 62
250
  6
CONTINUOUS
 10
-7.2230929606
 20
5.9290239783
 11
-7.2232696097
 21
4.1976026002
  0
LINE
  5
30C
100
AcDbEntity
  8
ASSI
100
AcDbLine
 62
250
  6
CONTINUOUS
 10
-6.9233587082
 20
5.769110301
 11
-6.923420513
 21
4.3094509959
  0
LINE
  5
30D
100
AcDbEntity
  8
ASSI
100
AcDbLine
 62
250
  6
CONTINUOUS
 10
-6.144484622
 20
15.942047927
 11
-6.1444658624
 21
17.3481103223
  0
LINE
  5
30E
100
AcDbEntity
  8
ASSI
100
AcDbLine
 62
250
  6
CONTINUOUS
 10
-7.3956968299
 20
4.115703211
 11
-7.3954452154
 21
5.8306021138
  0
LINE
  5
30F
100
AcDbEntity
  8
ASSI
100
AcDbLine
 62
250
  6
CONTINUOUS
 10
-7.2230608217
 20
-4.039032382
 11
-7.2233124362
 21
-5.7539312848
  0
LINE
  5
310
100
AcDbEntity
  8
ASSI
100
AcDbLine
 62
250
  6
CONTINUOUS
 10
-5.8948552828
 20
15.7115002381
 11
-5.8945039386
 21
17.1383354145
  0
LINE
  5
311
100
AcDbEntity
  8
ASSI
100
AcDbLine
 62
250
  6
CONTINUOUS
 10
-7.4156169508
 20
1.4185832898
 11
-7.4154011507
 21
3.1668737631
  0
LINE
  5
312
100
AcDbEntity
  8
ASSI
100
AcDbLine
 62
250
  6
CONTINUOUS
 10
-7.2031407008
 20
-1.3419124608
 11
-7.2033565009
 21
-3.0902029341
  0
LINE
  5
313
100
AcDbEntity
  8
ASSI
100
AcDbLine
 62
250
  6
CONTINUOUS
 10
-5.8651810848
 20
17.4491840404
 11
-5.8649120985
 21
18.0986125633
  0
LINE
  5
314
100
AcDbEntity
  8
ASSI
100
AcDbLine
 62
250
  6
CONTINUOUS
 10
-6.9031863923
 20
-1.3470575904
 11
-6.9036631515
 21
-3.2105165452
  0
LINE
  5
315
100
AcDbEntity
  8
ASSI
100
AcDbLine
 62
250
  6
CONTINUOUS
 10
-6.1148258406
 20
17.6760850152
 11
-6.114792252
 21
17.9718270157
  0
LINE
  5
316
100
AcDbEntity
  8
ASSI
100
AcDbLine
 62
250
  6
CONTINUOUS
 10
-6.9232245943
 20
-4.1821471395
 11
-6.923420513
 21
-4.2327801669
  0
LINE
  5
317
100
AcDbEntity
  8
ASSI
100
AcDbLine
 62
250
  6
CONTINUOUS
 10
-5.8653941507
 20
17.4091266981
 11
-5.8651810848
 21
17.4491840404
  0
LINE
  5
318
100
AcDbEntity
  8
ASSI
100
AcDbLine
 62
250
  6
CONTINUOUS
 10
-7.3965020618
 20
-6.019555387
 11
-7.395664691
 21
-5.8523531493
  0
LINE
  5
319
100
AcDbEntity
  8
ASSI
100
AcDbLine
 62
250
  6
CONTINUOUS
 10
-7.2222555898
 20
6.096226216
 11
-7.2230929606
 21
5.9290239783
  0
LINE
  5
31A
100
AcDbEntity
  8
ASSI
100
AcDbLine
 62
250
  6
CONTINUOUS
 10
-7.3966137589
 20
3.9439886352
 11
-7.3956968299
 21
4.115703211
  0
LINE
  5
31B
100
AcDbEntity
  8
ASSI
100
AcDbLine
 62
250
  6
CONTINUOUS
 10
-7.2221438927
 20
-3.8673178062
 11
-7.2230608217
 21
-4.039032382
  0
LINE
  5
31C
100
AcDbEntity
  8
ASSI
100
AcDbLine
 62
250
  6
CONTINUOUS
 10
-6.1297052154
 20
-19.7384285039
 11
-6.114792252
 21
-17.8951561867
  0
LINE
  5
31D
100
AcDbEntity
  8
ASSI
100
AcDbLine
 62
250
  6
CONTINUOUS
 10
-5.6351356029
 20
20.3972930271
 11
-5.6538455532
 21
18.0986124942
  0
LINE
  5
31E
100
AcDbEntity
  8
ASSI
100
AcDbLine
 62
250
  6
CONTINUOUS
 10
-7.6957821493
 20
-5.7501354244
 11
-7.695490002
 21
-5.7121611985
  0
LINE
  5
31F
100
AcDbEntity
  8
ASSI
100
AcDbLine
 62
250
  6
CONTINUOUS
 10
-6.9229755023
 20
5.8268062534
 11
-6.9233587082
 21
5.769110301
  0
LINE
  5
320
100
AcDbEntity
  8
ASSI
100
AcDbLine
 62
250
  6
CONTINUOUS
 10
-6.1445799012
 20
15.9276576635
 11
-6.144484622
 21
15.942047927
  0
LINE
  5
321
100
AcDbEntity
  8
ASSI
100
AcDbLine
 62
250
  6
CONTINUOUS
 10
-7.4154011507
 20
3.1668737631
 11
-7.4147737859
 21
3.2510335481
  0
LINE
  5
322
100
AcDbEntity
  8
ASSI
100
AcDbLine
 62
250
  6
CONTINUOUS
 10
-7.2033565009
 20
-3.0902029341
 11
-7.2039838657
 21
-3.1743627191
  0
LINE
  5
323
100
AcDbEntity
  8
ASSI
100
AcDbLine
 62
250
  6
CONTINUOUS
 10
-6.9036631515
 20
-3.2105165452
 11
-6.9050617242
 21
-3.4036689591
  0
LINE
  5
324
100
AcDbEntity
  8
ASSI
100
AcDbLine
 62
250
  6
CONTINUOUS
 10
-6.1149243129
 20
17.6633800289
 11
-6.1148258406
 21
17.6760850152
  0
LINE
  5
325
100
AcDbEntity
  8
ASSI
100
AcDbLine
 62
250
  6
CONTINUOUS
 10
-7.3970791449
 20
-6.0811887101
 11
-7.3965020618
 21
-6.019555387
  0
LINE
  5
326
100
AcDbEntity
  8
ASSI
100
AcDbLine
 62
250
  6
CONTINUOUS
 10
-7.2216785066
 20
6.1578595391
 11
-7.2222555898
 21
6.096226216
  0
LINE
  5
327
100
AcDbEntity
  8
ASSI
100
AcDbLine
 62
250
  6
CONTINUOUS
 10
-7.3971145819
 20
3.8939978472
 11
-7.3966137589
 21
3.9439886352
  0
LINE
  5
328
100
AcDbEntity
  8
ASSI
100
AcDbLine
 62
250
  6
CONTINUOUS
 10
-7.2216430697
 20
-3.8173270182
 11
-7.2221438927
 21
-3.8673178062
  0
LINE
  5
329
100
AcDbEntity
  8
ASSI
100
AcDbLine
 62
250
  6
CONTINUOUS
 10
-6.9228036806
 20
-4.1357262537
 11
-6.9232245943
 21
-4.1821471395
  0
LINE
  5
32A
100
AcDbEntity
  8
ASSI
100
AcDbLine
 62
250
  6
CONTINUOUS
 10
-5.8655515124
 20
17.3943799176
 11
-5.8653941507
 21
17.4091266981
  0
LINE
  5
32B
100
AcDbEntity
  8
ASSI
100
AcDbLine
 62
250
  6
CONTINUOUS
 10
-6.9050617242
 20
-3.4036689591
 11
-6.9064684074
 21
-3.5183204147
  0
LINE
  5
32C
100
AcDbEntity
  8
ASSI
100
AcDbLine
 62
250
  6
CONTINUOUS
 10
-7.6962017134
 20
-5.7837023139
 11
-7.6957821493
 21
-5.7501354244
  0
LINE
  5
32D
100
AcDbEntity
  8
ASSI
100
AcDbLine
 62
250
  6
CONTINUOUS
 10
-6.9225559382
 20
5.8603731429
 11
-6.9229755023
 21
5.8268062534
  0
LINE
  5
32E
100
AcDbEntity
  8
ASSI
100
AcDbLine
 62
250
  6
CONTINUOUS
 10
-6.1446842855
 20
15.9192746519
 11
-6.1445799012
 21
15.9276576635
  0
LINE
  5
32F
100
AcDbEntity
  8
ASSI
100
AcDbLine
 62
250
  6
CONTINUOUS
 10
-7.4147737859
 20
3.2510335481
 11
-7.4137447188
 21
3.329988458
  0
LINE
  5
330
100
AcDbEntity
  8
ASSI
100
AcDbLine
 62
250
  6
CONTINUOUS
 10
-7.2039838657
 20
-3.1743627191
 11
-7.2050129328
 21
-3.253317629
  0
LINE
  5
331
100
AcDbEntity
  8
ASSI
100
AcDbLine
 62
250
  6
CONTINUOUS
 10
-6.1150226745
 20
17.6559807274
 11
-6.1149243129
 21
17.6633800289
  0
LINE
  5
332
100
AcDbEntity
  8
ASSI
100
AcDbLine
 62
250
  6
CONTINUOUS
 10
-6.9224118451
 20
-4.1089226754
 11
-6.9228036806
 21
-4.1357262537
  0
LWPOLYLINE
  5
333
100
AcDbEntity
  8
ASSI
100
AcDbPolyline
 62
250
  6
CONTINUOUS
 90
3
 70
0
 10
-6.9064684074
 20
-3.5183204147
 10
-6.9081772969
 20
-3.6162590979
 10
-6.9091367464
 20
-3.6583771719
  0
LWPOLYLINE
  5
334
100
AcDbEntity
  8
ASSI
100
AcDbPolyline
 62
250
  6
CONTINUOUS
 90
6
 70
0
 10
-7.4137447188
 20
3.329988458
 10
-7.4123426789
 20
3.4014900157
 10
-7.4115219236
 20
3.4336640614
 10
-7.4106334412
 20
3.4630930197
 10
-7.4096711835
 20
3.4895823627
 10
-7.4086351504
 20
3.5129415634
  0
LWPOLYLINE
  5
335
100
AcDbEntity
  8
ASSI
100
AcDbPolyline
 62
250
  6
CONTINUOUS
 90
6
 70
0
 10
-7.2050129328
 20
-3.253317629
 10
-7.2064149727
 20
-3.3248191867
 10
-7.207235728
 20
-3.3569932324
 10
-7.2081242104
 20
-3.3864221907
 10
-7.2090864681
 20
-3.4129115337
 10
-7.2101225012
 20
-3.4362707344
  0
LINE
  5
336
100
AcDbEntity
  8
ASSI
100
AcDbLine
 62
250
  6
CONTINUOUS
 10
-6.9219484121
 20
-4.0866512128
 11
-6.9224118451
 21
-4.1089226754
  0
LINE
  5
337
100
AcDbEntity
  8
ASSI
100
AcDbLine
 62
250
  6
CONTINUOUS
 10
-7.4086350792
 20
3.5129415635
 11
-7.3971145819
 21
3.8939978472
  0
LINE
  5
338
100
AcDbEntity
  8
ASSI
100
AcDbLine
 62
250
  6
CONTINUOUS
 10
-7.2101225724
 20
-3.4362707345
 11
-7.2216430697
 21
-3.8173270182
  0
LINE
  5
339
100
AcDbEntity
  8
ASSI
100
AcDbLine
 62
250
  6
CONTINUOUS
 10
-6.9091367464
 20
-3.6583771719
 11
-6.9219484121
 21
-4.0866512128
  0
LWPOLYLINE
  5
33A
100
AcDbEntity
  8
ASSI
100
AcDbPolyline
 62
250
  6
CONTINUOUS
 90
5
 70
0
 10
-5.8953619025
 20
15.6523881969
 10
-5.8952698834
 20
15.654528588
 10
-5.8951808974
 20
15.6598701523
 10
-5.8950949443
 20
15.6683502655
 10
-5.8948552828
 20
15.7115002381
  0
LWPOLYLINE
  5
33B
100
AcDbEntity
  8
ASSI
100
AcDbPolyline
 62
7
  6
CONTINUOUS
 90
16
 70
0
 10
-5.3526188705
 20
15.881537383
 10
-5.353970393
 20
15.8553987022
 10
-5.3580452643
 20
15.8295523759
 10
-5.3647976585
 20
15.804280823
 10
-5.3741537666
 20
15.7798568523
 10
-5.3860095566
 20
15.75655052
 10
-5.4002288086
 20
15.7346246351
 10
-5.4166385987
 20
15.7143322129
 10
-5.4350672881
 20
15.6958733257
 10
-5.4553544405
 20
15.6794146339
 10
-5.4773154657
 20
15.6651289928
 10
-5.5006912298
 20
15.653206067
 10
-5.5251852118
 20
15.6438026063
 10
-5.5505117873
 20
15.6370234132
 10
-5.5764066599
 20
15.6329348654
 10
-5.602585318
 20
15.6315799829
  0
LWPOLYLINE
  5
33C
100
AcDbEntity
  8
ASSI
100
AcDbPolyline
 62
7
  6
CONTINUOUS
 90
16
 70
0
 10
-6.8994111283
 20
-5.8716779744
 10
-6.9010584468
 20
-5.9029783553
 10
-6.9059691424
 20
-5.9339429801
 10
-6.9140927769
 20
-5.9642329782
 10
-6.9253501018
 20
-5.9935300154
 10
-6.9396176271
 20
-6.0214972339
 10
-6.9567146365
 20
-6.0477900384
 10
-6.9764108263
 20
-6.0720884961
 10
-6.9985093218
 20
-6.0941796686
 10
-7.0228497262
 20
-6.1138960079
 10
-7.0492392522
 20
-6.1310379034
 10
-7.0773509102
 20
-6.1453528222
 10
-7.1067966763
 20
-6.1566346707
 10
-7.1372196906
 20
-6.1647580541
 10
-7.1683124822
 20
-6.169650891
 10
-7.1997329613
 20
-6.1712647585
  0
LWPOLYLINE
  5
33D
100
AcDbEntity
  8
ASSI
100
AcDbPolyline
 62
250
  6
CONTINUOUS
 90
13
 70
0
 10
-6.9200041812
 20
-5.8510849215
 10
-6.922581261
 20
-5.8902292685
 10
-6.9302445774
 20
-5.9287041041
 10
-6.9428630595
 20
-5.9658513683
 10
-6.9602208853
 20
-6.001035707
 10
-6.9820211725
 20
-6.0336553398
 10
-7.0078910567
 20
-6.0631523518
 10
-7.0373880685
 20
-6.0890222366
 10
-7.0700077014
 20
-6.1108225244
 10
-7.1051920405
 20
-6.1281803508
 10
-7.1423393052
 20
-6.1407988335
 10
-7.1808141417
 20
-6.1484621502
 10
-7.2199584897
 20
-6.1510392301
  0
LWPOLYLINE
  5
33E
100
AcDbEntity
  8
ASSI
100
AcDbPolyline
 62
250
  6
CONTINUOUS
 90
13
 70
0
 10
-5.3734342676
 20
15.9023527801
 10
-5.3755818342
 20
15.8697324908
 10
-5.3819679312
 20
15.8376701276
 10
-5.3924833331
 20
15.8067140739
 10
-5.4069481882
 20
15.7773937913
 10
-5.4251150945
 20
15.7502107638
 10
-5.4466733317
 20
15.7256299204
 10
-5.4712541751
 20
15.7040716832
 10
-5.4984372026
 20
15.6859047769
 10
-5.5277574852
 20
15.6714399218
 10
-5.5587135388
 20
15.6609245199
 10
-5.5907759021
 20
15.6545384229
 10
-5.6233961914
 20
15.6523908563
  0
LWPOLYLINE
  5
33F
100
AcDbEntity
  8
ASSI
100
AcDbPolyline
 62
250
  6
CONTINUOUS
 90
13
 70
0
 10
-5.4032441984
 20
17.6405807834
 10
-5.4054731136
 20
17.6085064816
 10
-5.4119244922
 20
17.5769788675
 10
-5.4224883744
 20
17.5465353106
 10
-5.436984705
 20
17.5176947035
 10
-5.4551664025
 20
17.4909486174
 10
-5.4767235706
 20
17.4667529236
 10
-5.50128878
 20
17.4455200234
 10
-5.5284433312
 20
17.4276118192
 10
-5.5577243909
 20
17.4133335459
 10
-5.5886328805
 20
17.402928568
 10
-5.620641983
 20
17.3965742325
 10
-5.6532061221
 20
17.3943788452
  0
LWPOLYLINE
  5
340
100
AcDbEntity
  8
ASSI
100
AcDbPolyline
 62
7
  6
CONTINUOUS
 90
16
 70
0
 10
-5.3742917892
 20
17.3481103223
 10
-5.3756908334
 20
17.3289910686
 10
-5.3791646541
 20
17.3100844913
 10
-5.384781394
 20
17.2913905902
 10
-5.3925759902
 20
17.2727288537
 10
-5.4025821404
 20
17.2542797936
 10
-5.4148611831
 20
17.2365849446
 10
-5.4293857042
 20
17.2196117655
 10
-5.4461467954
 20
17.2033927975
 10
-5.4652692958
 20
17.1885672003
 10
-5.4867277656
 20
17.1750449642
 10
-5.5103870481
 20
17.1629160988
 10
-5.5362072713
 20
17.1530897923
 10
-5.5640183766
 20
17.1458691074
 10
-5.5934900955
 20
17.1409509815
 10
-5.624253713
 20
17.1383354145
  0
LWPOLYLINE
  5
341
100
AcDbEntity
  8
ASSI
100
AcDbPolyline
 62
250
  6
CONTINUOUS
 90
7
 70
0
 10
-6.1155134532
 20
17.6405807834
 10
-6.1154328047
 20
17.6416344779
 10
-6.1153555265
 20
17.6430754416
 10
-6.1152816187
 20
17.6449036745
 10
-6.1152105124
 20
17.6471423503
 10
-6.1151427764
 20
17.6497682953
 10
-6.1150226745
 20
17.6559807274
  0
LWPOLYLINE
  5
342
100
AcDbEntity
  8
ASSI
100
AcDbPolyline
 62
250
  6
CONTINUOUS
 90
13
 70
0
 10
-7.7085892333
 20
-3.6960834617
 10
-7.7057113075
 20
-3.6623553547
 10
-7.6978059854
 20
-3.6291985325
 10
-7.6850072705
 20
-3.5971740675
 10
-7.66753198
 20
-3.5668238544
 10
-7.6456760225
 20
-3.5386613603
 10
-7.6198093442
 20
-3.5131629599
 10
-7.5903697928
 20
-3.4907600176
 10
-7.5578556084
 20
-3.4718314656
 10
-7.5228168742
 20
-3.456697384
 10
-7.4858464351
 20
-3.4456137345
 10
-7.447569906
 20
-3.4387679778
 10
-7.4086349248
 20
-3.43627584
  0
LWPOLYLINE
  5
343
100
AcDbEntity
  8
ASSI
100
AcDbPolyline
 62
250
  6
CONTINUOUS
 90
13
 70
0
 10
-7.6970688905
 20
-4.0771346393
 10
-7.694191359
 20
-4.0434089786
 10
-7.6862870015
 20
-4.0102539887
 10
-7.6734895672
 20
-3.978230684
 10
-7.6560156012
 20
-3.9478809297
 10
-7.6341607798
 20
-3.9197182731
 10
-7.6082949077
 20
-3.8942192535
 10
-7.5788556605
 20
-3.871815339
 10
-7.5463411786
 20
-3.8528856254
 10
-7.5113016385
 20
-3.8377504217
 10
-7.4743299432
 20
-3.8266658303
 10
-7.4360516893
 20
-3.8198194131
 10
-7.3971145819
 20
-3.8173270182
  0
LWPOLYLINE
  5
344
100
AcDbEntity
  8
ASSI
100
AcDbPolyline
 62
250
  6
CONTINUOUS
 90
13
 70
0
 10
-6.9216887611
 20
4.1538054683
 10
-6.9245662926
 20
4.1200798076
 10
-6.9324706501
 20
4.0869248177
 10
-6.9452680844
 20
4.054901513
 10
-6.9627420504
 20
4.0245517587
 10
-6.9845968718
 20
3.9963891021
 10
-7.0104627439
 20
3.9708900826
 10
-7.0399019911
 20
3.948486168
 10
-7.072416473
 20
3.9295564544
 10
-7.107456013
 20
3.9144212507
 10
-7.1444277084
 20
3.9033366593
 10
-7.1827059623
 20
3.8964902422
 10
-7.2216430697
 20
3.8939978472
  0
LWPOLYLINE
  5
345
100
AcDbEntity
  8
ASSI
100
AcDbPolyline
 62
250
  6
CONTINUOUS
 90
13
 70
0
 10
-6.9101684183
 20
3.7727542907
 10
-6.9130463441
 20
3.7390261837
 10
-6.9209516662
 20
3.7058693616
 10
-6.9337503811
 20
3.6738448965
 10
-6.9512256716
 20
3.6434946835
 10
-6.9730816291
 20
3.6153321893
 10
-6.9989483074
 20
3.5898337889
 10
-7.0283878588
 20
3.5674308466
 10
-7.0609020432
 20
3.5485022946
 10
-7.0959407774
 20
3.533368213
 10
-7.1329112165
 20
3.5222845635
 10
-7.1711877456
 20
3.5154388068
 10
-7.2101227268
 20
3.512946669
  0
LINE
  5
346
100
AcDbEntity
  8
ASSI
100
AcDbLine
 62
250
  6
CONTINUOUS
 10
-6.1444658624
 20
17.3481103223
 11
-6.1155134532
 21
17.6405807834
  0
LINE
  5
347
100
AcDbEntity
  8
ASSI
100
AcDbLine
 62
250
  6
CONTINUOUS
 10
-5.8908979324
 20
17.1383354145
 11
-5.8655514233
 21
17.3943799176
  0
LWPOLYLINE
  5
348
100
AcDbEntity
  8
ASSI
100
AcDbPolyline
 62
250
  6
CONTINUOUS
 90
5
 70
0
 10
-7.2199584897
 20
6.2277100591
 10
-7.2203250681
 20
6.2241297894
 10
-7.2206796811
 20
6.2152314402
 10
-7.2210223287
 20
6.2011103592
 10
-7.2216785066
 20
6.1578595391
  0
LWPOLYLINE
  5
349
100
AcDbEntity
  8
ASSI
100
AcDbPolyline
 62
250
  6
CONTINUOUS
 90
5
 70
0
 10
-7.3987991619
 20
-6.1510392301
 10
-7.3984325835
 20
-6.1474589604
 10
-7.3980779705
 20
-6.1385606112
 10
-7.3977353229
 20
-6.1244395302
 10
-7.3970791449
 20
-6.0811887101
  0
LINE
  5
34A
100
AcDbEntity
  8
ASSI
100
AcDbLine
 62
7
  6
CONTINUOUS
 10
-10.0042079267
 20
-20.3335746734
 11
-10.0478054089
 21
-20.6402534353
  0
LWPOLYLINE
  5
34B
100
AcDbEntity
  8
ASSI
100
AcDbPolyline
 62
250
  6
CONTINUOUS
 90
8
 70
0
 10
-6.9200041812
 20
5.9277557506
 10
-6.9203683774
 20
5.9262654866
 10
-6.9207214345
 20
5.9227505389
 10
-6.9210633526
 20
5.9172109074
 10
-6.92139782
 20
5.9095435857
 10
-6.9217211483
 20
5.8998515802
 10
-6.9220222728
 20
5.8884439104
 10
-6.9225559382
 20
5.8603731429
  0
LINE
  5
34C
100
AcDbEntity
  8
ASSI
100
AcDbLine
 62
7
  6
CONTINUOUS
 10
-10.0052681245
 20
1.4157904794
 11
-9.9966050226
 21
1.4244535813
  0
LINE
  5
34D
100
AcDbEntity
  8
ASSI
100
AcDbLine
 62
250
  6
CONTINUOUS
 10
5.0338612189
 20
15.881537383
 11
5.054676616
 21
15.9023527801
  0
LINE
  5
34E
100
AcDbEntity
  8
ASSI
100
AcDbLine
 62
250
  6
CONTINUOUS
 10
5.2838276664
 20
15.6315799829
 11
5.3046358405
 21
15.652388157
  0
LWPOLYLINE
  5
34F
100
AcDbEntity
  8
ASSI
100
AcDbPolyline
 62
7
  6
CONTINUOUS
 90
13
 70
0
 10
-5.5421851146
 20
0.7983353741
 10
-5.5092004645
 20
0.7999262388
 10
-5.4774176853
 20
0.8041721557
 10
-5.4468367771
 20
0.8110731248
 10
-5.4173982504
 20
0.8206563173
 10
-5.3891615946
 20
0.832894562
 10
-5.3623052783
 20
0.8477063451
 10
-5.3367096419
 20
0.8651540513
 10
-5.312494345
 20
0.885175296
 10
-5.2901968347
 20
0.9075014117
 10
-5.2699962601
 20
0.9320428425
 10
-5.2517134722
 20
0.9588891442
 10
-5.2353484709
 20
0.9880403169
  0
LWPOLYLINE
  5
350
100
AcDbEntity
  8
ASSI
100
AcDbPolyline
 62
7
  6
CONTINUOUS
 90
10
 70
0
 10
4.8573549824
 20
-0.1216645855
 10
4.8528081848
 20
-0.1216897049
 10
4.8482560977
 20
-0.1217662909
 10
4.8436987211
 20
-0.1218943435
 10
4.8391373979
 20
-0.1220734713
 10
4.8345707852
 20
-0.1223040657
 10
4.8299948543
 20
-0.1225873008
 10
4.8254082621
 20
-0.1229235679
 10
4.8208123515
 20
-0.1233124756
 10
4.8162071227
 20
-0.123754024
  0
LWPOLYLINE
  5
351
100
AcDbEntity
  8
ASSI
100
AcDbPolyline
 62
7
  6
CONTINUOUS
 90
10
 70
0
 10
-5.176112634
 20
0.1983354145
 10
-5.1715658364
 20
0.1983605339
 10
-5.1670137493
 20
0.1984371199
 10
-5.1624563726
 20
0.1985651725
 10
-5.1578950495
 20
0.1987443003
 10
-5.1533284368
 20
0.1989748948
 10
-5.1487525059
 20
0.1992581298
 10
-5.1441659137
 20
0.1995943969
 10
-5.1395700031
 20
0.1999833046
 10
-5.1349647743
 20
0.200424853
  0
LINE
  5
352
100
AcDbEntity
  8
ASSI
100
AcDbLine
 62
7
  6
CONTINUOUS
 10
-8.2593788258
 20
-0.7216645855
 11
-5.5421850932
 21
-0.7216645481
  0
LINE
  5
353
100
AcDbEntity
  8
ASSI
100
AcDbLine
 62
7
  6
CONTINUOUS
 10
5.223427463
 20
-0.7216645451
 11
7.9406211742
 21
-0.7216645855
  0
LINE
  5
354
100
AcDbEntity
  8
ASSI
100
AcDbLine
 62
7
  6
CONTINUOUS
 10
-10.0052681245
 20
-0.1216645855
 11
-5.1761126339
 21
-0.1216645855
  0
LINE
  5
355
100
AcDbEntity
  8
ASSI
100
AcDbLine
 62
7
  6
CONTINUOUS
 10
4.8573549823
 20
-0.1216645855
 11
9.6865104729
 21
-0.1216645855
  0
LINE
  5
356
100
AcDbEntity
  8
ASSI
100
AcDbLine
 62
7
  6
CONTINUOUS
 10
10.5405754622
 20
-0.0946112953
 11
9.7406211742
 21
-0.0946112953
  0
LINE
  5
357
100
AcDbEntity
  8
ASSI
100
AcDbLine
 62
7
  6
CONTINUOUS
 10
-10.0593788258
 20
-0.0946112953
 11
-10.8593331138
 21
-0.0946112953
  0
LINE
  5
358
100
AcDbEntity
  8
ASSI
100
AcDbLine
 62
7
  6
CONTINUOUS
 10
-10.8593331138
 20
0.1712821244
 11
-10.0593788258
 21
0.1712821244
  0
LINE
  5
359
100
AcDbEntity
  8
ASSI
100
AcDbLine
 62
7
  6
CONTINUOUS
 10
9.7406211742
 20
0.1712821244
 11
10.5405754622
 21
0.1712821244
  0
LINE
  5
35A
100
AcDbEntity
  8
ASSI
100
AcDbLine
 62
7
  6
CONTINUOUS
 10
9.6865104729
 20
0.1983354145
 11
4.8573549823
 21
0.1983354145
  0
LINE
  5
35B
100
AcDbEntity
  8
ASSI
100
AcDbLine
 62
7
  6
CONTINUOUS
 10
-5.1761126339
 20
0.1983354145
 11
-10.0052681245
 21
0.1983354145
  0
LINE
  5
35C
100
AcDbEntity
  8
ASSI
100
AcDbLine
 62
7
  6
CONTINUOUS
 10
7.9406211742
 20
0.7983354145
 11
5.2234274416
 21
0.7983353771
  0
LINE
  5
35D
100
AcDbEntity
  8
ASSI
100
AcDbLine
 62
7
  6
CONTINUOUS
 10
-5.5421851146
 20
0.7983353741
 11
-8.2593788258
 21
0.7983354145
  0
LWPOLYLINE
  5
35E
100
AcDbEntity
  8
ASSI
100
AcDbPolyline
 62
7
  6
CONTINUOUS
 90
10
 70
0
 10
-5.1349648891
 20
-0.1237541412
 10
-5.1395700915
 20
-0.123312539
 10
-5.1441659802
 20
-0.1229235911
 10
-5.1487525551
 20
-0.1225872975
 10
-5.1533284748
 20
-0.1223040542
 10
-5.1578950807
 20
-0.1220734652
 10
-5.1624563972
 20
-0.1218943427
 10
-5.1670137656
 20
-0.1217662905
 10
-5.1715658445
 20
-0.1216897048
 10
-5.1761126339
 20
-0.1216645855
  0
LWPOLYLINE
  5
35F
100
AcDbEntity
  8
ASSI
100
AcDbPolyline
 62
7
  6
CONTINUOUS
 90
13
 70
0
 10
-5.1349648891
 20
-0.1237539174
 10
-5.0986998776
 20
-0.129109294
 10
-5.0632319056
 20
-0.1377548914
 10
-5.0288348062
 20
-0.1495671011
 10
-4.9958037562
 20
-0.1643758642
 10
-4.9643548507
 20
-0.1820399798
 10
-4.9346373091
 20
-0.2024758645
 10
-4.9068930943
 20
-0.2255187501
 10
-4.8813424491
 20
-0.2509733865
 10
-4.8581152442
 20
-0.2787284249
 10
-4.8374053521
 20
-0.3086138763
 10
-4.8194467173
 20
-0.340382018
 10
-4.8044279512
 20
-0.3737993111
  0
LINE
  5
360
100
AcDbEntity
  8
ASSI
100
AcDbLine
 62
7
  6
CONTINUOUS
 10
-7.7191658926
 20
1.4273230527
 11
-7.7155712593
 21
1.4237284194
  0
LINE
  5
361
100
AcDbEntity
  8
ASSI
100
AcDbLine
 62
250
  6
CONTINUOUS
 10
-4.8517916961
 20
0.5028386636
 11
-4.8044279321
 21
0.4504701547
  0
LWPOLYLINE
  5
362
100
AcDbEntity
  8
ASSI
100
AcDbPolyline
 62
250
  6
CONTINUOUS
 90
13
 70
0
 10
-5.3042953088
 20
-1.3386364998
 10
-5.3288303337
 20
-1.3064880375
 10
-5.3554564286
 20
-1.2767432021
 10
-5.3841735935
 20
-1.2494019937
 10
-5.4151862114
 20
-1.2243271626
 10
-5.4482898993
 20
-1.2016559585
 10
-5.4828715082
 20
-1.1818001302
 10
-5.51895369
 20
-1.1648038315
 10
-5.5565137928
 20
-1.1506229085
 10
-5.5948707117
 20
-1.1395366484
 10
-5.6337974116
 20
-1.131638147
 10
-5.6735209276
 20
-1.1268343085
 10
-5.7140412597
 20
-1.1251251329
  0
LWPOLYLINE
  5
363
100
AcDbEntity
  8
ASSI
100
AcDbPolyline
 62
250
  6
CONTINUOUS
 90
13
 70
0
 10
-5.4681936892
 20
-1.4532014921
 10
-5.4827419397
 20
-1.4340653747
 10
-5.4987665641
 20
-1.4161655261
 10
-5.5161624887
 20
-1.3996146404
 10
-5.5348118016
 20
-1.3845197002
 10
-5.5545970458
 20
-1.3709709673
 10
-5.5754044652
 20
-1.3590449822
 10
-5.5971059556
 20
-1.3488167798
 10
-5.6195589561
 20
-1.3403550609
 10
-5.6426217289
 20
-1.3337142908
 10
-5.6661475653
 20
-1.3289380419
 10
-5.6899855661
 20
-1.3260582801
 10
-5.7139832018
 20
-1.325094675
  0
LWPOLYLINE
  5
364
100
AcDbEntity
  8
ASSI
100
AcDbPolyline
 62
7
  6
CONTINUOUS
 90
16
 70
0
 10
-5.4833989313
 20
-1.4796281558
 10
-5.3823957514
 20
-1.6134791875
 10
-5.2730988359
 20
-1.7405997802
 10
-5.1559570081
 20
-1.8604790667
 10
-5.0314929072
 20
-1.9726009324
 10
-4.9001776132
 20
-2.0765570063
 10
-4.7624070036
 20
-2.1720206422
 10
-4.618595948
 20
-2.2586573082
 10
-4.4694365261
 20
-2.3360049142
 10
-4.3157852451
 20
-2.403620057
 10
-4.1584433546
 20
-2.461199996
 10
-3.9979025914
 20
-2.5086134797
 10
-3.8345867064
 20
-2.5457405639
 10
-3.6690749337
 20
-2.5724246617
 10
-3.5021133817
 20
-2.5885218597
 10
-3.3343788258
 20
-2.5939506006
  0
LWPOLYLINE
  5
365
100
AcDbEntity
  8
ASSI
100
AcDbPolyline
 62
250
  6
CONTINUOUS
 90
9
 70
0
 10
-5.2353484934
 20
0.9880403304
 10
-5.1889367261
 20
0.9239240773
 10
-5.1420469765
 20
0.8603298764
 10
-5.0945779452
 20
0.7974039552
 10
-5.0460658953
 20
0.7349182587
 10
-4.9967757043
 20
0.6734331876
 10
-4.9478095018
 20
0.6141447388
 10
-4.8995978757
 20
0.5573977817
 10
-4.8517916961
 20
0.5028386636
  0
LWPOLYLINE
  5
366
100
AcDbEntity
  8
ASSI
100
AcDbPolyline
 62
250
  6
CONTINUOUS
 90
10
 70
0
 10
-5.5421847868
 20
0.7983353741
 10
-5.4986736187
 20
0.7285407628
 10
-5.4544905928
 20
0.6592218972
 10
-5.4096357089
 20
0.5903787774
 10
-5.3637916567
 20
0.5215256947
 10
-5.3172757466
 20
0.4531483579
 10
-5.2710399101
 20
0.3867038927
 10
-5.2254014578
 20
0.3226780078
 10
-5.1800430792
 20
0.2605849945
 10
-5.1349647743
 20
0.200424853
  0
LINE
  5
367
100
AcDbEntity
  8
ASSI
100
AcDbLine
 62
250
  6
CONTINUOUS
 10
-5.4833989313
 20
1.5562989848
 11
-5.4682263369
 21
1.5298256137
  0
LWPOLYLINE
  5
368
100
AcDbEntity
  8
ASSI
100
AcDbPolyline
 62
7
  6
CONTINUOUS
 90
13
 70
0
 10
-5.2353484665
 20
-0.9113694942
 10
-5.2516723503
 20
-0.8822484891
 10
-5.2699489661
 20
-0.8554089752
 10
-5.2901783139
 20
-0.8308509526
 10
-5.3125608564
 20
-0.8084669495
 10
-5.3368961309
 20
-0.7883644376
 10
-5.3625827493
 20
-0.7708658324
 10
-5.3894829456
 20
-0.7560614399
 10
-5.4177344858
 20
-0.7438609539
 10
-5.4471492797
 20
-0.734315872
 10
-5.4776646305
 20
-0.72744336
 10
-5.509343235
 20
-0.723226252
 10
-5.5421850932
 20
-0.7216645481
  0
LINE
  5
369
100
AcDbEntity
  8
ASSI
100
AcDbLine
 62
250
  6
CONTINUOUS
 10
-5.7190678485
 20
1.4114221281
 11
-5.7139794426
 21
1.4017655009
  0
LINE
  5
36A
100
AcDbEntity
  8
ASSI
100
AcDbLine
 62
250
  6
CONTINUOUS
 10
-5.7283018141
 20
1.4292146842
 11
-5.7190678485
 21
1.4114221281
  0
LINE
  5
36B
100
AcDbEntity
  8
ASSI
100
AcDbLine
 62
7
  6
CONTINUOUS
 10
-10.0042079267
 20
20.4102455024
 11
-10.0478054089
 21
20.7169242644
  0
LINE
  5
36C
100
AcDbEntity
  8
ASSI
100
AcDbLine
 62
250
  6
CONTINUOUS
 10
-5.6532062283
 20
17.3943799176
 11
-5.6278597192
 21
17.1383354145
  0
LINE
  5
36D
100
AcDbEntity
  8
ASSI
100
AcDbLine
 62
250
  6
CONTINUOUS
 10
-5.4032441984
 20
17.6405807834
 11
-5.3742917892
 21
17.3481103223
  0
LWPOLYLINE
  5
36E
100
AcDbEntity
  8
ASSI
100
AcDbPolyline
 62
7
  6
CONTINUOUS
 90
16
 70
0
 10
-6.1444658624
 20
17.3481103223
 10
-6.1430915577
 20
17.3295812823
 10
-6.1396813275
 20
17.3107627878
 10
-6.1341394671
 20
17.2918516861
 10
-6.1263926522
 20
17.2731166174
 10
-6.1163861042
 20
17.2547374908
 10
-6.1040699952
 20
17.2368109948
 10
-6.0894538485
 20
17.2196469294
 10
-6.072538369
 20
17.2034901783
 10
-6.0532540861
 20
17.1884020057
 10
-6.0317333408
 20
17.1747898796
 10
-6.0080271043
 20
17.1629341978
 10
-5.9819052354
 20
17.1528775171
 10
-5.9534087627
 20
17.1450297729
 10
-5.9229438675
 20
17.1400178462
 10
-5.8908979324
 20
17.1383354145
  0
LWPOLYLINE
  5
36F
100
AcDbEntity
  8
ASSI
100
AcDbPolyline
 62
250
  6
CONTINUOUS
 90
13
 70
0
 10
-6.1155134532
 20
17.6405807834
 10
-6.113284516
 20
17.608506325
 10
-6.1068330809
 20
17.5769785881
 10
-6.0962691202
 20
17.5465349471
 10
-6.0817727004
 20
17.5176942934
 10
-6.0635909162
 20
17.4909481996
 10
-6.0420336813
 20
17.4667525387
 10
-6.0174684423
 20
17.4455197067
 10
-5.9903139041
 20
17.4276115888
 10
-5.9610328955
 20
17.4133334017
 10
-5.9301244924
 20
17.4029284978
 10
-5.8981155131
 20
17.396574214
 10
-5.8655515295
 20
17.3943788451
  0
LWPOLYLINE
  5
370
100
AcDbEntity
  8
ASSI
100
AcDbPolyline
 62
250
  6
CONTINUOUS
 90
13
 70
0
 10
-6.145323384
 20
15.9023527801
 10
-6.1431758143
 20
15.8697324674
 10
-6.1367897091
 20
15.8376700858
 10
-6.1262742958
 20
15.8067140195
 10
-6.1118094278
 20
15.7773937299
 10
-6.0936425088
 20
15.7502107011
 10
-6.0720842619
 20
15.7256298625
 10
-6.0475034141
 20
15.7040716355
 10
-6.0203203885
 20
15.6859047421
 10
-5.9910001134
 20
15.6714398999
 10
-5.9600440722
 20
15.6609245091
 10
-5.9279817269
 20
15.6545384199
 10
-5.8953614602
 20
15.6523908563
  0
LWPOLYLINE
  5
371
100
AcDbEntity
  8
ASSI
100
AcDbPolyline
 62
250
  6
CONTINUOUS
 90
7
 70
0
 10
-5.3739404889
 20
15.9122530942
 10
-5.3738654897
 20
15.9093936831
 10
-5.3737849028
 20
15.9069599533
 10
-5.3737012363
 20
15.9050310805
 10
-5.3736153263
 20
15.9036334567
 10
-5.3735263367
 20
15.9027406899
 10
-5.3734342676
 20
15.9023527801
  0
LWPOLYLINE
  5
372
100
AcDbEntity
  8
ASSI
100
AcDbPolyline
 62
250
  6
CONTINUOUS
 90
6
 70
0
 10
-5.4036148752
 20
17.6497682953
 10
-5.4035471392
 20
17.6471423503
 10
-5.4034760328
 20
17.6449036745
 10
-5.4034021251
 20
17.6430754416
 10
-5.4033248469
 20
17.6416344779
 10
-5.4032441984
 20
17.6405807834
  0
LINE
  5
373
100
AcDbEntity
  8
ASSI
100
AcDbLine
 62
250
  6
CONTINUOUS
 10
-5.4037349771
 20
17.6559807274
 11
-5.4036148752
 21
17.6497682953
  0
LINE
  5
374
100
AcDbEntity
  8
ASSI
100
AcDbLine
 62
250
  6
CONTINUOUS
 10
-5.3740733661
 20
15.9192746612
 11
-5.3739404889
 21
15.9122530942
  0
LWPOLYLINE
  5
375
100
AcDbEntity
  8
ASSI
100
AcDbPolyline
 62
250
  6
CONTINUOUS
 90
3
 70
0
 10
-5.6235767568
 20
15.6598703394
 10
-5.6234877693
 20
15.6545286323
 10
-5.6233957479
 20
15.6523881897
  0
LINE
  5
376
100
AcDbEntity
  8
ASSI
100
AcDbLine
 62
250
  6
CONTINUOUS
 10
-5.4038333387
 20
17.6633800289
 11
-5.4037349771
 21
17.6559807274
  0
LINE
  5
377
100
AcDbEntity
  8
ASSI
100
AcDbLine
 62
250
  6
CONTINUOUS
 10
-5.3741777509
 20
15.9276577193
 11
-5.3740733661
 21
15.9192746612
  0
LINE
  5
378
100
AcDbEntity
  8
ASSI
100
AcDbLine
 62
250
  6
CONTINUOUS
 10
-5.6533635009
 20
17.4091266981
 11
-5.6532061392
 21
17.3943799176
  0
LINE
  5
379
100
AcDbEntity
  8
ASSI
100
AcDbLine
 62
250
  6
CONTINUOUS
 10
-5.6237465285
 20
15.6798707039
 11
-5.6235767568
 21
15.6598703394
  0
LINE
  5
37A
100
AcDbEntity
  8
ASSI
100
AcDbLine
 62
250
  6
CONTINUOUS
 10
-5.403931811
 20
17.6760850152
 11
-5.4038333387
 21
17.6633800289
  0
LINE
  5
37B
100
AcDbEntity
  8
ASSI
100
AcDbLine
 62
250
  6
CONTINUOUS
 10
-5.3742730299
 20
15.9420479849
 11
-5.3741777509
 21
15.9276577193
  0
LINE
  5
37C
100
AcDbEntity
  8
ASSI
100
AcDbLine
 62
250
  6
CONTINUOUS
 10
-5.4039653996
 20
-17.8951561867
 11
-5.3890524362
 21
-19.7384285039
  0
LINE
  5
37D
100
AcDbEntity
  8
ASSI
100
AcDbLine
 62
250
  6
CONTINUOUS
 10
-5.6537487602
 20
17.5078861491
 11
-5.6533635009
 21
17.4091266981
  0
LINE
  5
37E
100
AcDbEntity
  8
ASSI
100
AcDbLine
 62
250
  6
CONTINUOUS
 10
-5.6241796629
 20
15.8316016069
 11
-5.6237465285
 21
15.6798707039
  0
LINE
  5
37F
100
AcDbEntity
  8
ASSI
100
AcDbLine
 62
7
  6
CONTINUOUS
 10
-5.3526188705
 20
15.881537383
 11
-5.3560305018
 21
20.3818716278
  0
LINE
  5
380
100
AcDbEntity
  8
ASSI
100
AcDbLine
 62
250
  6
CONTINUOUS
 10
-5.7140412597
 20
1.4017655009
 11
-5.7140412587
 21
1.201795962
  0
LINE
  5
381
100
AcDbEntity
  8
ASSI
100
AcDbLine
 62
250
  6
CONTINUOUS
 10
-5.7140412597
 20
-1.3250946719
 11
-5.7140412597
 21
-1.1251251329
  0
LINE
  5
382
100
AcDbEntity
  8
ASSI
100
AcDbLine
 62
250
  6
CONTINUOUS
 10
-5.624253713
 20
17.1383354145
 11
-5.6241796629
 21
15.8316016069
  0
LINE
  5
383
100
AcDbEntity
  8
ASSI
100
AcDbLine
 62
250
  6
CONTINUOUS
 10
-5.4039653996
 20
17.9718270157
 11
-5.403931811
 21
17.6760850152
  0
LINE
  5
384
100
AcDbEntity
  8
ASSI
100
AcDbLine
 62
7
  6
CONTINUOUS
 10
-5.3890524362
 20
20.6141585732
 11
-5.3890524362
 21
19.8150993329
  0
LINE
  5
385
100
AcDbEntity
  8
ASSI
100
AcDbLine
 62
7
  6
CONTINUOUS
 10
-5.3890524362
 20
-19.7384285039
 11
-5.3890524362
 21
-20.5374877441
  0
LINE
  5
386
100
AcDbEntity
  8
ASSI
100
AcDbLine
 62
250
  6
CONTINUOUS
 10
-5.3742917892
 20
17.3481103223
 11
-5.3742730299
 21
15.9420479849
  0
LINE
  5
387
100
AcDbEntity
  8
ASSI
100
AcDbLine
 62
7
  6
CONTINUOUS
 10
-3.9593788258
 20
-22.0839033553
 11
-3.9593788258
 21
-20.5374877441
  0
LINE
  5
388
100
AcDbEntity
  8
ASSI
100
AcDbLine
 62
7
  6
CONTINUOUS
 10
-3.9593788258
 20
20.6141585732
 11
-3.9593788258
 21
22.1605741843
  0
LINE
  5
389
100
AcDbEntity
  8
ASSI
100
AcDbLine
 62
250
  6
CONTINUOUS
 10
-5.6538455532
 20
18.0986124942
 11
-5.6537487602
 21
17.5078861491
  0
LINE
  5
38A
100
AcDbEntity
  8
ASSI
100
AcDbLine
 62
7
  6
CONTINUOUS
 10
-5.3560305018
 20
-20.3052007988
 11
-5.3526188705
 21
-15.804866554
  0
LINE
  5
38B
100
AcDbEntity
  8
ASSI
100
AcDbLine
 62
250
  6
CONTINUOUS
 10
-5.3742730296
 20
-15.865377098
 11
-5.3742917892
 21
-17.2714394933
  0
LINE
  5
38C
100
AcDbEntity
  8
ASSI
100
AcDbLine
 62
250
  6
CONTINUOUS
 10
-5.6239023688
 20
-15.6348294091
 11
-5.624253713
 21
-17.0616645855
  0
LINE
  5
38D
100
AcDbEntity
  8
ASSI
100
AcDbLine
 62
250
  6
CONTINUOUS
 10
-5.6535765668
 20
-17.3725132114
 11
-5.6538455531
 21
-18.0219417342
  0
LINE
  5
38E
100
AcDbEntity
  8
ASSI
100
AcDbLine
 62
250
  6
CONTINUOUS
 10
-5.403931811
 20
-17.5994141861
 11
-5.4039653996
 21
-17.8951561867
  0
LINE
  5
38F
100
AcDbEntity
  8
ASSI
100
AcDbLine
 62
250
  6
CONTINUOUS
 10
-5.6533635009
 20
-17.3324558691
 11
-5.6535765668
 21
-17.3725132114
  0
LINE
  5
390
100
AcDbEntity
  8
ASSI
100
AcDbLine
 62
250
  6
CONTINUOUS
 10
-5.8836220487
 20
-20.3206221981
 11
-5.8649120984
 21
-18.0219416652
  0
LINE
  5
391
100
AcDbEntity
  8
ASSI
100
AcDbLine
 62
250
  6
CONTINUOUS
 10
-5.3890524362
 20
19.8150993329
 11
-5.4039653996
 21
17.9718270157
  0
LINE
  5
392
100
AcDbEntity
  8
ASSI
100
AcDbLine
 62
250
  6
CONTINUOUS
 10
-5.3741777504
 20
-15.8509868345
 11
-5.3742730296
 21
-15.865377098
  0
LINE
  5
393
100
AcDbEntity
  8
ASSI
100
AcDbLine
 62
250
  6
CONTINUOUS
 10
-5.4038333387
 20
-17.5867091998
 11
-5.403931811
 21
-17.5994141861
  0
LINE
  5
394
100
AcDbEntity
  8
ASSI
100
AcDbLine
 62
250
  6
CONTINUOUS
 10
-5.6532061392
 20
-17.3177090886
 11
-5.6533635009
 21
-17.3324558691
  0
LINE
  5
395
100
AcDbEntity
  8
ASSI
100
AcDbLine
 62
250
  6
CONTINUOUS
 10
-5.3740733661
 20
-15.8426038229
 11
-5.3741777504
 21
-15.8509868345
  0
LINE
  5
396
100
AcDbEntity
  8
ASSI
100
AcDbLine
 62
250
  6
CONTINUOUS
 10
-5.4037349771
 20
-17.5793098984
 11
-5.4038333387
 21
-17.5867091998
  0
LWPOLYLINE
  5
397
100
AcDbEntity
  8
ASSI
100
AcDbPolyline
 62
250
  6
CONTINUOUS
 90
5
 70
0
 10
-5.6233957491
 20
-15.5757173679
 10
-5.6234877682
 20
-15.577857759
 10
-5.6235767542
 20
-15.5831993232
 10
-5.6236627073
 20
-15.5916794364
 10
-5.6239023688
 20
-15.6348294091
  0
LWPOLYLINE
  5
398
100
AcDbEntity
  8
ASSI
100
AcDbPolyline
 62
7
  6
CONTINUOUS
 90
16
 70
0
 10
-6.1655622759
 20
-15.8054430592
 10
-6.1642109143
 20
-15.7792867784
 10
-6.1601371833
 20
-15.753422394
 10
-6.1533878566
 20
-15.7281326097
 10
-6.1440380242
 20
-15.7036904584
 10
-6.1321924043
 20
-15.6803657366
 10
-6.1179869576
 20
-15.6584206794
 10
-6.101595017
 20
-15.6381077107
 10
-6.0831888059
 20
-15.6196269325
 10
-6.0629283889
 20
-15.6031453593
 10
-6.0409987041
 20
-15.5888351673
 10
-6.0176590819
 20
-15.5768856321
 10
-5.9932053347
 20
-15.5674541128
 10
-5.9679228302
 20
-15.5606450745
 10
-5.9420760079
 20
-15.5565237334
 10
-5.9159490992
 20
-15.5551323883
  0
LWPOLYLINE
  5
399
100
AcDbEntity
  8
ASSI
100
AcDbPolyline
 62
250
  6
CONTINUOUS
 90
13
 70
0
 10
-6.145323384
 20
-15.8256819511
 10
-6.1431758174
 20
-15.7930616618
 10
-6.1367897204
 20
-15.7609992985
 10
-6.1262743185
 20
-15.7300432449
 10
-6.1118094634
 20
-15.7007229623
 10
-6.0936425571
 20
-15.6735399348
 10
-6.0720843199
 20
-15.6489590914
 10
-6.0475034765
 20
-15.6274008542
 10
-6.020320449
 20
-15.6092339479
 10
-5.9910001664
 20
-15.5947690928
 10
-5.9600441127
 20
-15.5842536909
 10
-5.9279817495
 20
-15.5778675939
 10
-5.8953614602
 20
-15.5757200273
  0
LWPOLYLINE
  5
39A
100
AcDbEntity
  8
ASSI
100
AcDbPolyline
 62
250
  6
CONTINUOUS
 90
13
 70
0
 10
-6.1155134532
 20
-17.5639099544
 10
-6.113284538
 20
-17.5318356526
 10
-6.1068331594
 20
-17.5003080385
 10
-6.0962692772
 20
-17.4698644816
 10
-6.0817729466
 20
-17.4410238745
 10
-6.0635912491
 20
-17.4142777884
 10
-6.042034081
 20
-17.3900820946
 10
-6.0174688716
 20
-17.3688491944
 10
-5.9903143204
 20
-17.3509409902
 10
-5.9610332607
 20
-17.3366627168
 10
-5.9301247711
 20
-17.326257739
 10
-5.8981156686
 20
-17.3199034035
 10
-5.8655515295
 20
-17.3177080161
  0
LWPOLYLINE
  5
39B
100
AcDbEntity
  8
ASSI
100
AcDbPolyline
 62
7
  6
CONTINUOUS
 90
16
 70
0
 10
-6.1444658624
 20
-17.2714394933
 10
-6.1430668181
 20
-17.2523202396
 10
-6.1395929975
 20
-17.2334136622
 10
-6.1339762576
 20
-17.2147197612
 10
-6.1261816614
 20
-17.1960580247
 10
-6.1161755112
 20
-17.1776089645
 10
-6.1038964685
 20
-17.1599141156
 10
-6.0893719474
 20
-17.1429409364
 10
-6.0726108562
 20
-17.1267219685
 10
-6.0534883558
 20
-17.1118963713
 10
-6.032029886
 20
-17.0983741352
 10
-6.0083706035
 20
-17.0862452697
 10
-5.9825503803
 20
-17.0764189633
 10
-5.954739275
 20
-17.0691982784
 10
-5.9252675561
 20
-17.0642801525
 10
-5.8945039386
 20
-17.0616645855
  0
LWPOLYLINE
  5
39C
100
AcDbEntity
  8
ASSI
100
AcDbPolyline
 62
250
  6
CONTINUOUS
 90
7
 70
0
 10
-5.4032441984
 20
-17.5639099544
 10
-5.4033248469
 20
-17.5649636489
 10
-5.4034021251
 20
-17.5664046126
 10
-5.4034760328
 20
-17.5682328454
 10
-5.4035471392
 20
-17.5704715213
 10
-5.4036148752
 20
-17.5730974663
 10
-5.4037349771
 20
-17.5793098984
  0
LWPOLYLINE
  5
39D
100
AcDbEntity
  8
ASSI
100
AcDbPolyline
 62
250
  6
CONTINUOUS
 90
8
 70
0
 10
-7.6987534704
 20
-5.8510849215
 10
-7.6983892742
 20
-5.8495946576
 10
-7.6980362171
 20
-5.8460797099
 10
-7.697694299
 20
-5.8405400784
 10
-7.6973598316
 20
-5.8328727567
 10
-7.6970365033
 20
-5.8231807512
 10
-7.6967353788
 20
-5.8117730814
 10
-7.6962017134
 20
-5.7837023139
  0
LWPOLYLINE
  5
39E
100
AcDbEntity
  8
ASSI
100
AcDbPolyline
 62
7
  6
CONTINUOUS
 90
10
 70
0
 10
-4.8044279321
 20
0.4504701547
 10
-4.8030662617
 20
0.4539578686
 10
-4.8017399042
 20
0.4574471573
 10
-4.8004488283
 20
0.4609383238
 10
-4.7991935517
 20
0.4644308602
 10
-4.797973494
 20
0.4679258792
 10
-4.7967869569
 20
0.4714260995
 10
-4.7956333303
 20
0.4749326114
 10
-4.7945131114
 20
0.4784448912
 10
-4.7934262439
 20
0.4819632222
  0
LWPOLYLINE
  5
39F
100
AcDbEntity
  8
ASSI
100
AcDbPolyline
 62
7
  6
CONTINUOUS
 90
13
 70
0
 10
-4.8044279434
 20
0.4504701579
 10
-4.8194466954
 20
0.4170528878
 10
-4.8374053145
 20
0.3852847637
 10
-4.8581151896
 20
0.3553993251
 10
-4.8813423755
 20
0.3276442959
 10
-4.9068930006
 20
0.3021896647
 10
-4.9346371969
 20
0.2791467793
 10
-4.9643547234
 20
0.2587108892
 10
-4.9958036173
 20
0.2410467639
 10
-5.0288346608
 20
0.2262379897
 10
-5.0632317605
 20
0.2144257676
 10
-5.0986997418
 20
0.2057801554
 10
-5.1349647743
 20
0.2004247609
  0
LINE
  5
3A0
100
AcDbEntity
  8
ASSI
100
AcDbLine
 62
7
  6
CONTINUOUS
 10
-6.8987426004
 20
1.4281722113
 11
-6.9031863923
 21
1.4237284194
  0
LINE
  5
3A1
100
AcDbEntity
  8
ASSI
100
AcDbLine
 62
7
  6
CONTINUOUS
 10
-7.7191658926
 20
-1.3506522237
 11
-7.7155712593
 21
-1.3470575904
  0
LINE
  5
3A2
100
AcDbEntity
  8
ASSI
100
AcDbLine
 62
7
  6
CONTINUOUS
 10
-10.0052681245
 20
0.1983354145
 11
-10.0593788258
 21
0.1712821244
  0
LWPOLYLINE
  5
3A3
100
AcDbEntity
  8
ASSI
100
AcDbPolyline
 62
7
  6
CONTINUOUS
 90
10
 70
0
 10
-5.7283018141
 20
1.4292146842
 10
-5.6960135617
 20
1.4310610269
 10
-5.6647440783
 20
1.4361051756
 10
-5.6344933836
 20
1.444347115
 10
-5.6049276594
 20
1.4559591525
 10
-5.5763807634
 20
1.4707689521
 10
-5.5498542484
 20
1.4882595382
 10
-5.5256819995
 20
1.5082585825
 10
-5.5035302145
 20
1.5309383997
 10
-5.4833989313
 20
1.5562989848
  0
LWPOLYLINE
  5
3A4
100
AcDbEntity
  8
ASSI
100
AcDbPolyline
 62
250
  6
CONTINUOUS
 90
13
 70
0
 10
-5.7140412597
 20
1.2017959619
 10
-5.6735337579
 20
1.2035047267
 10
-5.6338241955
 20
1.2083050609
 10
-5.5949125724
 20
1.2161969645
 10
-5.5565778217
 20
1.2272690847
 10
-5.5190410104
 20
1.2414327743
 10
-5.4829653394
 20
1.2584220918
 10
-5.4483580367
 20
1.2782912409
 10
-5.4152118743
 20
1.3009860178
 10
-5.3841683686
 20
1.3260778704
 10
-5.3554413586
 20
1.3534239477
 10
-5.3288170053
 20
1.3831671005
 10
-5.3042953088
 20
1.4153073288
  0
LWPOLYLINE
  5
3A5
100
AcDbEntity
  8
ASSI
100
AcDbPolyline
 62
250
  6
CONTINUOUS
 90
13
 70
0
 10
-5.7139794412
 20
1.4017655046
 10
-5.6899837259
 20
1.4027292578
 10
-5.6661503729
 20
1.4056084177
 10
-5.6426317426
 20
1.410382666
 10
-5.6195832167
 20
1.4170178395
 10
-5.597146097
 20
1.4254706187
 10
-5.5754482428
 20
1.4356929996
 10
-5.5546209651
 20
1.4476267901
 10
-5.5348076794
 20
1.4611936049
 10
-5.5161460684
 20
1.4762998858
 10
-5.498758037
 20
1.4928451418
 10
-5.482750874
 20
1.5107253791
 10
-5.4682263405
 20
1.5298256148
  0
LWPOLYLINE
  5
3A6
100
AcDbEntity
  8
ASSI
100
AcDbPolyline
 62
7
  6
CONTINUOUS
 90
16
 70
0
 10
-3.3343788258
 20
2.6706214296
 10
-3.5021310123
 20
2.6651915542
 10
-3.6691099092
 20
2.6490909891
 10
-3.8346385304
 20
2.6224013337
 10
-3.9979730654
 20
2.5852659097
 10
-4.1585314831
 20
2.5378417181
 10
-4.315882607
 20
2.480251696
 10
-4.4695311299
 20
2.4126304553
 10
-4.618680577
 20
2.3352807632
 10
-4.7624797464
 20
2.2486444208
 10
-4.9002378781
 20
2.1531831693
 10
-5.0315394577
 20
2.049232436
 10
-5.1559903455
 20
1.9371178839
 10
-5.2731200932
 20
1.8172474212
 10
-5.3824058227
 20
1.6901375183
 10
-5.4833989313
 20
1.5562989848
  0
LINE
  5
3A7
100
AcDbEntity
  8
ASSI
100
AcDbLine
 62
7
  6
CONTINUOUS
 10
-9.9966050226
 20
1.4244535813
 11
-7.7191658926
 21
1.4273230527
  0
LINE
  5
3A8
100
AcDbEntity
  8
ASSI
100
AcDbLine
 62
7
  6
CONTINUOUS
 10
-6.8987426004
 20
1.4281722113
 11
-5.7283018141
 21
1.4292146842
  0
LINE
  5
3A9
100
AcDbEntity
  8
ASSI
100
AcDbLine
 62
250
  6
CONTINUOUS
 10
-8.2593788258
 20
1.2017959619
 11
-5.7140412597
 21
1.2017959619
  0
LINE
  5
3AA
100
AcDbEntity
  8
ASSI
100
AcDbLine
 62
250
  6
CONTINUOUS
 10
5.3952836081
 20
1.2017959619
 11
7.9406211742
 21
1.2017959619
  0
LINE
  5
3AB
100
AcDbEntity
  8
ASSI
100
AcDbLine
 62
250
  6
CONTINUOUS
 10
-8.2593788258
 20
1.4017655009
 11
-5.7139794426
 21
1.4017655009
  0
LINE
  5
3AC
100
AcDbEntity
  8
ASSI
100
AcDbLine
 62
250
  6
CONTINUOUS
 10
5.3952255515
 20
1.4017655009
 11
7.9406211742
 21
1.4017655009
  0
LINE
  5
3AD
100
AcDbEntity
  8
ASSI
100
AcDbLine
 62
7
  6
CONTINUOUS
 10
-10.0052681245
 20
1.4157904794
 11
-8.2593788258
 21
1.4157904794
  0
LINE
  5
3AE
100
AcDbEntity
  8
ASSI
100
AcDbLine
 62
7
  6
CONTINUOUS
 10
7.9406211742
 20
1.4157904794
 11
9.6865104729
 21
1.4157904794
  0
LINE
  5
3AF
100
AcDbEntity
  8
ASSI
100
AcDbLine
 62
7
  6
CONTINUOUS
 10
-7.2031407008
 20
1.4185832898
 11
-7.4156169508
 21
1.4185832898
  0
LINE
  5
3B0
100
AcDbEntity
  8
ASSI
100
AcDbLine
 62
7
  6
CONTINUOUS
 10
6.8843830492
 20
1.4185832898
 11
7.0968592992
 21
1.4185832898
  0
LINE
  5
3B1
100
AcDbEntity
  8
ASSI
100
AcDbLine
 62
7
  6
CONTINUOUS
 10
3.0156211742
 20
1.5633354145
 11
-3.334378514
 21
1.5633354145
  0
LINE
  5
3B2
100
AcDbEntity
  8
ASSI
100
AcDbLine
 62
7
  6
CONTINUOUS
 10
3.0156211742
 20
2.1633354145
 11
-3.3343788258
 21
2.1633354145
  0
LINE
  5
3B3
100
AcDbEntity
  8
ASSI
100
AcDbLine
 62
250
  6
CONTINUOUS
 10
-3.3343788258
 20
2.4417959619
 11
3.0156211742
 21
2.4417959619
  0
LINE
  5
3B4
100
AcDbEntity
  8
ASSI
100
AcDbLine
 62
250
  6
CONTINUOUS
 10
-3.3343788258
 20
2.6417655009
 11
3.0156211742
 21
2.6417655009
  0
LINE
  5
3B5
100
AcDbEntity
  8
ASSI
100
AcDbLine
 62
7
  6
CONTINUOUS
 10
3.0156211742
 20
2.6706214296
 11
-3.3343788258
 21
2.6706214296
  0
LINE
  5
3B6
100
AcDbEntity
  8
ASSI
100
AcDbLine
 62
7
  6
CONTINUOUS
 10
5.4095441625
 20
1.4292146842
 11
6.5799849488
 21
1.4281722113
  0
LINE
  5
3B7
100
AcDbEntity
  8
ASSI
100
AcDbLine
 62
7
  6
CONTINUOUS
 10
7.400408241
 20
1.4273230527
 11
9.677847371
 21
1.4244535813
  0
LWPOLYLINE
  5
3B8
100
AcDbEntity
  8
ASSI
100
AcDbPolyline
 62
7
  6
CONTINUOUS
 90
10
 70
0
 10
4.8162072375
 20
0.2004249702
 10
4.8208124399
 20
0.199983368
 10
4.8254083286
 20
0.1995944201
 10
4.8299949035
 20
0.1992581265
 10
4.8345708232
 20
0.1989748832
 10
4.8391374291
 20
0.1987442942
 10
4.8436987456
 20
0.1985651717
 10
4.848256114
 20
0.1984371195
 10
4.8528081929
 20
0.1983605338
 10
4.8573549824
 20
0.1983354145
  0
LWPOLYLINE
  5
3B9
100
AcDbEntity
  8
ASSI
100
AcDbPolyline
 62
7
  6
CONTINUOUS
 90
13
 70
0
 10
4.8162072375
 20
0.2004247464
 10
4.779942226
 20
0.205780123
 10
4.744474254
 20
0.2144257204
 10
4.7100771546
 20
0.2262379302
 10
4.6770461046
 20
0.2410466932
 10
4.6455971991
 20
0.2587108089
 10
4.6158796575
 20
0.2791466935
 10
4.5881354427
 20
0.3021895791
 10
4.5625847975
 20
0.3276442156
 10
4.5393575926
 20
0.3553992539
 10
4.5186477005
 20
0.3852847053
 10
4.5006890657
 20
0.417052847
 10
4.4856702996
 20
0.4504701401
  0
LINE
  5
3BA
100
AcDbEntity
  8
ASSI
100
AcDbLine
 62
250
  6
CONTINUOUS
 10
-5.4681936892
 20
1.5298723211
 11
-5.3042953088
 21
1.4153073288
  0
LINE
  5
3BB
100
AcDbEntity
  8
ASSI
100
AcDbLine
 62
250
  6
CONTINUOUS
 10
-7.6987534704
 20
5.9277557506
 11
-7.71851298
 21
5.9475152602
  0
LINE
  5
3BC
100
AcDbEntity
  8
ASSI
100
AcDbLine
 62
250
  6
CONTINUOUS
 10
-7.3987991619
 20
6.2277100591
 11
-7.4188021678
 21
6.2477130651
  0
LWPOLYLINE
  5
3BD
100
AcDbEntity
  8
ASSI
100
AcDbPolyline
 62
7
  6
CONTINUOUS
 90
10
 70
0
 10
-4.7934262439
 20
-0.4052923932
 10
-4.7945131117
 20
-0.4017740613
 10
-4.7956333309
 20
-0.3982617806
 10
-4.7967869578
 20
-0.3947552678
 10
-4.7979734963
 20
-0.3912550473
 10
-4.7991935554
 20
-0.3877600282
 10
-4.8004488303
 20
-0.3842674895
 10
-4.8017399005
 20
-0.3807763179
 10
-4.8030662491
 20
-0.377287022
 10
-4.8044279076
 20
-0.3737992989
  0
LINE
  5
3BE
100
AcDbEntity
  8
ASSI
100
AcDbLine
 62
7
  6
CONTINUOUS
 10
-3.5509538328
 20
22.1976481202
 11
-3.4761600966
 21
20.7169242644
  0
LINE
  5
3BF
100
AcDbEntity
  8
ASSI
100
AcDbLine
 62
250
  6
CONTINUOUS
 10
-3.334378514
 20
1.5633354145
 11
-3.3343788258
 21
2.1633354145
  0
LINE
  5
3C0
100
AcDbEntity
  8
ASSI
100
AcDbLine
 62
250
  6
CONTINUOUS
 10
-3.3343788258
 20
-1.4866645855
 11
-3.3343788258
 21
-2.0866645855
  0
LINE
  5
3C1
100
AcDbEntity
  8
ASSI
100
AcDbLine
 62
250
  6
CONTINUOUS
 10
-3.3343788258
 20
2.4417959619
 11
-3.3343788258
 21
2.6706214296
  0
LINE
  5
3C2
100
AcDbEntity
  8
ASSI
100
AcDbLine
 62
250
  6
CONTINUOUS
 10
-3.3343788258
 20
-2.3651251329
 11
-3.3343788258
 21
-2.5939506006
  0
LINE
  5
3C3
100
AcDbEntity
  8
ASSI
100
AcDbLine
 62
7
  6
CONTINUOUS
 10
-3.4761600966
 20
-20.6402534353
 11
-3.5509538328
 21
-22.1209772912
  0
LINE
  5
3C4
100
AcDbEntity
  8
ASSI
100
AcDbLine
 62
250
  6
CONTINUOUS
 10
-5.6278597192
 20
-17.0616645855
 11
-5.6532062283
 21
-17.3177090886
  0
LINE
  5
3C5
100
AcDbEntity
  8
ASSI
100
AcDbLine
 62
250
  6
CONTINUOUS
 10
-5.3742917892
 20
-17.2714394933
 11
-5.4032441984
 21
-17.5639099544
  0
LINE
  5
3C6
100
AcDbEntity
  8
ASSI
100
AcDbLine
 62
7
  6
CONTINUOUS
 10
-5.3560305018
 20
-20.3052007988
 11
-5.3890524362
 21
-20.5374877441
  0
LINE
  5
3C7
100
AcDbEntity
  8
ASSI
100
AcDbLine
 62
250
  6
CONTINUOUS
 10
-5.7185609769
 20
-1.3337766196
 11
-5.7283018141
 21
-1.3525438552
  0
LINE
  5
3C8
100
AcDbEntity
  8
ASSI
100
AcDbLine
 62
250
  6
CONTINUOUS
 10
-5.7139832031
 20
-1.3250946719
 11
-5.7185609769
 21
-1.3337766196
  0
LINE
  5
3C9
100
AcDbEntity
  8
ASSI
100
AcDbLine
 62
250
  6
CONTINUOUS
 10
-5.4681936892
 20
-1.4532014921
 11
-5.4833989313
 21
-1.4796281558
  0
LWPOLYLINE
  5
3CA
100
AcDbEntity
  8
ASSI
100
AcDbPolyline
 62
250
  6
CONTINUOUS
 90
10
 70
0
 10
-5.5421847887
 20
-0.7216645481
 10
-5.498963654
 20
-0.6523176726
 10
-5.4549943134
 20
-0.5833237145
 10
-5.4102767668
 20
-0.5146826738
 10
-5.3644885799
 20
-0.4458943116
 10
-5.3179521871
 20
-0.3774588668
 10
-5.2716348913
 20
-0.3108770557
 10
-5.2258591269
 20
-0.2466491171
 10
-5.1803024595
 20
-0.1842748123
 10
-5.1349648891
 20
-0.1237541412
  0
LWPOLYLINE
  5
3CB
100
AcDbEntity
  8
ASSI
100
AcDbPolyline
 62
250
  6
CONTINUOUS
 90
9
 70
0
 10
-5.2353484923
 20
-0.9113694997
 10
-5.1892287522
 20
-0.8476774961
 10
-5.1425678554
 20
-0.7843744626
 10
-5.0952556264
 20
-0.7216160187
 10
-5.0468058251
 20
-0.6591797866
 10
-4.9974879418
 20
-0.5976422222
 10
-4.9484367611
 20
-0.5382232554
 10
-4.9000893553
 20
-0.4812814256
 10
-4.8520761347
 20
-0.4264690291
  0
LINE
  5
3CC
100
AcDbEntity
  8
ASSI
100
AcDbLine
 62
250
  6
CONTINUOUS
 10
-4.8520761347
 20
-0.4264690291
 11
-4.8044279076
 21
-0.3737992989
  0
LINE
  5
3CD
100
AcDbEntity
  8
ASSI
100
AcDbLine
 62
250
  6
CONTINUOUS
 10
-6.9031863923
 20
3.0799339676
 11
-7.7155712593
 21
3.0799339676
  0
LINE
  5
3CE
100
AcDbEntity
  8
ASSI
100
AcDbLine
 62
250
  6
CONTINUOUS
 10
7.3968136077
 20
3.0799339676
 11
6.5844287407
 21
3.0799339676
  0
LINE
  5
3CF
100
AcDbEntity
  8
ASSI
100
AcDbLine
 62
250
  6
CONTINUOUS
 10
7.089877394
 20
3.5129426729
 11
6.8913649208
 21
3.5129415635
  0
LINE
  5
3D0
100
AcDbEntity
  8
ASSI
100
AcDbLine
 62
250
  6
CONTINUOUS
 10
-7.210122606
 20
3.5129426729
 11
-7.4086350792
 21
3.5129415635
  0
LINE
  5
3D1
100
AcDbEntity
  8
ASSI
100
AcDbLine
 62
250
  6
CONTINUOUS
 10
-7.3971145819
 20
3.8939978472
 11
-7.2216430697
 21
3.8939978472
  0
LINE
  5
3D2
100
AcDbEntity
  8
ASSI
100
AcDbLine
 62
250
  6
CONTINUOUS
 10
6.9028854181
 20
3.8939978472
 11
7.0783569303
 21
3.8939978472
  0
LINE
  5
3D3
100
AcDbEntity
  8
ASSI
100
AcDbLine
 62
250
  6
CONTINUOUS
 10
-7.695323384
 20
4.3270105491
 11
-6.9234342676
 21
4.3270105491
  0
LINE
  5
3D4
100
AcDbEntity
  8
ASSI
100
AcDbLine
 62
250
  6
CONTINUOUS
 10
6.604676616
 20
4.3270105491
 11
7.3765657324
 21
4.3270105491
  0
LINE
  5
3D5
100
AcDbEntity
  8
ASSI
100
AcDbLine
 62
250
  6
CONTINUOUS
 10
5.1494360376
 20
-1.4532014921
 11
4.9855376572
 21
-1.3386364998
  0
LINE
  5
3D6
100
AcDbEntity
  8
ASSI
100
AcDbLine
 62
250
  6
CONTINUOUS
 10
7.0800415103
 20
-6.1510392301
 11
7.1000445162
 21
-6.1710422361
  0
LINE
  5
3D7
100
AcDbEntity
  8
ASSI
100
AcDbLine
 62
250
  6
CONTINUOUS
 10
7.3799958188
 20
-5.8510849215
 11
7.3997553284
 21
-5.8708444312
  0
LWPOLYLINE
  5
3D8
100
AcDbEntity
  8
ASSI
100
AcDbPolyline
 62
250
  6
CONTINUOUS
 90
13
 70
0
 10
-5.4038836294
 20
17.9929579288
 10
-5.4064902565
 20
18.0066122366
 10
-5.4132445114
 20
18.0200375901
 10
-5.4240331391
 20
18.0330088744
 10
-5.4386752368
 20
18.0453085886
 10
-5.456925287
 20
18.0567304922
 10
-5.4784772745
 20
18.067083064
 10
-5.5029698172
 20
18.0761927133
 10
-5.529992227
 20
18.0839066907
 10
-5.5590913949
 20
18.0900956492
 10
-5.5897793894
 20
18.0946558132
 10
-5.6215416375
 20
18.0975107184
 10
-5.6538455532
 20
18.0986124942
  0
LINE
  5
3D9
100
AcDbEntity
  8
ASSI
100
AcDbLine
 62
7
  6
CONTINUOUS
 10
-5.3560305018
 20
20.3818716278
 11
-5.3890524362
 21
20.6141585732
  0
LWPOLYLINE
  5
3DA
100
AcDbEntity
  8
ASSI
100
AcDbPolyline
 62
250
  6
CONTINUOUS
 90
13
 70
0
 10
-5.4038836294
 20
-17.9162870998
 10
-5.4064902558
 20
-17.9299414061
 10
-5.413244509
 20
-17.9433667584
 10
-5.4240331344
 20
-17.9563380419
 10
-5.4386752295
 20
-17.9686377557
 10
-5.4569252772
 20
-17.9800596593
 10
-5.4784772627
 20
-17.9904122315
 10
-5.5029698046
 20
-17.9995218816
 10
-5.5299922147
 20
-18.0072358599
 10
-5.5590913842
 20
-18.0134248193
 10
-5.5897793812
 20
-18.0179849839
 10
-5.6215416329
 20
-18.0208398895
 10
-5.6538455532
 20
-18.0219416652
  0
LWPOLYLINE
  5
3DB
100
AcDbEntity
  8
ASSI
100
AcDbPolyline
 62
250
  6
CONTINUOUS
 90
8
 70
0
 10
-5.3734342676
 20
-15.8256819511
 10
-5.3735263351
 20
-15.8260698257
 10
-5.3736153237
 20
-15.8269625739
 10
-5.3737012335
 20
-15.828360196
 10
-5.3737849009
 20
-15.8302890955
 10
-5.3738654895
 20
-15.8327228689
 10
-5.3739404898
 20
-15.8355823044
 10
-5.3740733661
 20
-15.8426038229
  0
LINE
  5
3DC
100
AcDbEntity
  8
ASSI
100
AcDbLine
 62
250
  6
CONTINUOUS
 10
-7.71851298
 20
-5.8708444312
 11
-7.6987534704
 21
-5.8510849215
  0
LINE
  5
3DD
100
AcDbEntity
  8
ASSI
100
AcDbLine
 62
250
  6
CONTINUOUS
 10
-7.4188021678
 20
-6.1710422361
 11
-7.3987991619
 21
-6.1510392301
  0
LINE
  5
3DE
100
AcDbEntity
  8
ASSI
100
AcDbLine
 62
250
  6
CONTINUOUS
 10
-5.4681936892
 20
-1.4532014921
 11
-5.3042953104
 21
-1.3386364981
  0
LINE
  5
3DF
100
AcDbEntity
  8
ASSI
100
AcDbLine
 62
7
  6
CONTINUOUS
 10
-7.1997329613
 20
6.2479355875
 11
-7.4188021678
 21
6.2477130651
  0
LINE
  5
3E0
100
AcDbEntity
  8
ASSI
100
AcDbLine
 62
250
  6
CONTINUOUS
 10
-7.695323384
 20
5.7277862115
 11
-6.9234342676
 21
5.7277862115
  0
LINE
  5
3E1
100
AcDbEntity
  8
ASSI
100
AcDbLine
 62
250
  6
CONTINUOUS
 10
6.604676616
 20
5.7277862115
 11
7.3765657324
 21
5.7277862115
  0
LINE
  5
3E2
100
AcDbEntity
  8
ASSI
100
AcDbLine
 62
250
  6
CONTINUOUS
 10
-7.3987991619
 20
6.2277100591
 11
-7.2199584897
 21
6.2277100591
  0
LINE
  5
3E3
100
AcDbEntity
  8
ASSI
100
AcDbLine
 62
250
  6
CONTINUOUS
 10
6.9012008381
 20
6.2277100591
 11
7.0800415103
 21
6.2277100591
  0
LINE
  5
3E4
100
AcDbEntity
  8
ASSI
100
AcDbLine
 62
7
  6
CONTINUOUS
 10
7.1000445162
 20
6.2477130651
 11
6.8809753097
 21
6.2479355875
  0
LWPOLYLINE
  5
3E5
100
AcDbEntity
  8
ASSI
100
AcDbPolyline
 62
7
  6
CONTINUOUS
 90
16
 70
0
 10
-7.1997329613
 20
6.2479355875
 10
-7.1683124822
 20
6.24632172
 10
-7.1372196906
 20
6.2414288831
 10
-7.1067966763
 20
6.2333054998
 10
-7.0773509102
 20
6.2220236512
 10
-7.0492392522
 20
6.2077087324
 10
-7.0228497262
 20
6.1905668369
 10
-6.9985093218
 20
6.1708504976
 10
-6.9764108263
 20
6.1487593251
 10
-6.9567146365
 20
6.1244608674
 10
-6.9396176271
 20
6.0981680629
 10
-6.9253501018
 20
6.0702008444
 10
-6.9140927769
 20
6.0409038072
 10
-6.9059691424
 20
6.0106138091
 10
-6.9010584468
 20
5.9796491843
 10
-6.8994111283
 20
5.9483488035
  0
LINE
  5
3E6
100
AcDbEntity
  8
ASSI
100
AcDbLine
 62
7
  6
CONTINUOUS
 10
9.7406211742
 20
0.1712821244
 11
9.6865104729
 21
0.1983354145
  0
LINE
  5
3E7
100
AcDbEntity
  8
ASSI
100
AcDbLine
 62
7
  6
CONTINUOUS
 10
3.2321961812
 20
-22.1209772912
 11
3.157402445
 21
-20.6402534353
  0
LWPOLYLINE
  5
3E8
100
AcDbEntity
  8
ASSI
100
AcDbPolyline
 62
250
  6
CONTINUOUS
 90
13
 70
0
 10
5.0851259778
 20
17.9929579288
 10
5.0877326042
 20
18.0066122351
 10
5.0944868575
 20
18.0200375874
 10
5.1052754828
 20
18.033008871
 10
5.1199175779
 20
18.0453085847
 10
5.1381676256
 20
18.0567304883
 10
5.1597196111
 20
18.0670830605
 10
5.184212153
 20
18.0761927106
 10
5.2112345631
 20
18.0839066889
 10
5.2403337326
 20
18.0900956483
 10
5.2710217296
 20
18.0946558129
 10
5.3027839813
 20
18.0975107185
 10
5.3350879016
 20
18.0986124942
  0
LWPOLYLINE
  5
3E9
100
AcDbEntity
  8
ASSI
100
AcDbPolyline
 62
250
  6
CONTINUOUS
 90
8
 70
0
 10
5.054676616
 20
15.9023527801
 10
5.0547686835
 20
15.9027406547
 10
5.0548576721
 20
15.9036334029
 10
5.0549435819
 20
15.905031025
 10
5.0550272493
 20
15.9069599246
 10
5.0551078379
 20
15.9093936979
 10
5.0551828382
 20
15.9122531334
 10
5.0553157145
 20
15.9192746519
  0
LINE
  5
3EA
100
AcDbEntity
  8
ASSI
100
AcDbLine
 62
250
  6
CONTINUOUS
 10
7.1000445162
 20
6.2477130651
 11
7.0800415103
 21
6.2277100591
  0
LINE
  5
3EB
100
AcDbEntity
  8
ASSI
100
AcDbLine
 62
250
  6
CONTINUOUS
 10
7.3997553284
 20
5.9475152602
 11
7.3799958188
 21
5.9277557506
  0
LWPOLYLINE
  5
3EC
100
AcDbEntity
  8
ASSI
100
AcDbPolyline
 62
7
  6
CONTINUOUS
 90
16
 70
0
 10
7.1000445162
 20
6.2477130651
 10
7.1313620796
 20
6.2460383438
 10
7.1623637913
 20
6.2410927495
 10
7.1927080822
 20
6.2329217875
 10
7.2220880576
 20
6.2215933886
 10
7.2501454193
 20
6.2072311083
 10
7.2764893915
 20
6.1900429527
 10
7.300792182
 20
6.1702805584
 10
7.3228597877
 20
6.1481422323
 10
7.342529553
 20
6.123799155
 10
7.3596038039
 20
6.0974652364
 10
7.373852269
 20
6.0694598416
 10
7.385094436
 20
6.0401300089
 10
7.3932070633
 20
6.0098137593
 10
7.3981108005
 20
5.9788290992
 10
7.3997553284
 20
5.9475152602
  0
LINE
  5
3ED
100
AcDbEntity
  8
ASSI
100
AcDbLine
 62
7
  6
CONTINUOUS
 10
7.400408241
 20
-1.3506522237
 11
7.3968136077
 21
-1.3470575904
  0
LINE
  5
3EE
100
AcDbEntity
  8
ASSI
100
AcDbLine
 62
250
  6
CONTINUOUS
 10
4.5330340445
 20
-0.4261678346
 11
4.4856702805
 21
-0.3737993257
  0
LWPOLYLINE
  5
3EF
100
AcDbEntity
  8
ASSI
100
AcDbPolyline
 62
250
  6
CONTINUOUS
 90
9
 70
0
 10
4.9165908418
 20
-0.9113695014
 10
4.8701790745
 20
-0.8472532483
 10
4.8232893249
 20
-0.7836590474
 10
4.7758202936
 20
-0.7207331262
 10
4.7273082437
 20
-0.6582474297
 10
4.6780180527
 20
-0.5967623586
 10
4.6290518502
 20
-0.5374739098
 10
4.5808402241
 20
-0.4807269527
 10
4.5330340445
 20
-0.4261678346
  0
LINE
  5
3F0
100
AcDbEntity
  8
ASSI
100
AcDbLine
 62
250
  6
CONTINUOUS
 10
5.1646412797
 20
-1.4796281558
 11
5.1494686853
 21
-1.4531547847
  0
LWPOLYLINE
  5
3F1
100
AcDbEntity
  8
ASSI
100
AcDbPolyline
 62
250
  6
CONTINUOUS
 90
13
 70
0
 10
5.0851259778
 20
-17.9162870998
 10
5.0877326049
 20
-17.9299414076
 10
5.0944868598
 20
-17.9433667611
 10
5.1052754875
 20
-17.9563380454
 10
5.1199175852
 20
-17.9686377596
 10
5.1381676354
 20
-17.9800596632
 10
5.1597196229
 20
-17.990412235
 10
5.1842121656
 20
-17.9995218843
 10
5.2112345754
 20
-18.0072358617
 10
5.2403337433
 20
-18.0134248202
 10
5.2710217378
 20
-18.0179849842
 10
5.3027839859
 20
-18.0208398894
 10
5.3350879016
 20
-18.0219416652
  0
LINE
  5
3F2
100
AcDbEntity
  8
ASSI
100
AcDbLine
 62
7
  6
CONTINUOUS
 10
5.0372728502
 20
-20.3052007988
 11
5.0702947846
 21
-20.5374877441
  0
LINE
  5
3F3
100
AcDbEntity
  8
ASSI
100
AcDbLine
 62
250
  6
CONTINUOUS
 10
5.0844865468
 20
-17.5639099544
 11
5.0555341376
 21
-17.2714394933
  0
LINE
  5
3F4
100
AcDbEntity
  8
ASSI
100
AcDbLine
 62
250
  6
CONTINUOUS
 10
5.3344485767
 20
-17.3177090886
 11
5.3091020676
 21
-17.0616645855
  0
LINE
  5
3F5
100
AcDbEntity
  8
ASSI
100
AcDbLine
 62
250
  6
CONTINUOUS
 10
3.0156208624
 20
-1.4866645855
 11
3.0156211742
 21
-2.0866645855
  0
LINE
  5
3F6
100
AcDbEntity
  8
ASSI
100
AcDbLine
 62
250
  6
CONTINUOUS
 10
3.0156211742
 20
1.5633354145
 11
3.0156211742
 21
2.1633354145
  0
LINE
  5
3F7
100
AcDbEntity
  8
ASSI
100
AcDbLine
 62
250
  6
CONTINUOUS
 10
3.0156211742
 20
2.4417959619
 11
3.0156211742
 21
2.6706214296
  0
LINE
  5
3F8
100
AcDbEntity
  8
ASSI
100
AcDbLine
 62
250
  6
CONTINUOUS
 10
3.0156211742
 20
-2.3651251329
 11
3.0156211742
 21
-2.5939506006
  0
LINE
  5
3F9
100
AcDbEntity
  8
ASSI
100
AcDbLine
 62
7
  6
CONTINUOUS
 10
3.6406211742
 20
22.1605741843
 11
3.6406211742
 21
20.6141585732
  0
LINE
  5
3FA
100
AcDbEntity
  8
ASSI
100
AcDbLine
 62
7
  6
CONTINUOUS
 10
3.6406211742
 20
-20.5374877441
 11
3.6406211742
 21
-22.0839033553
  0
LINE
  5
3FB
100
AcDbEntity
  8
ASSI
100
AcDbLine
 62
7
  6
CONTINUOUS
 10
3.157402445
 20
20.7169242644
 11
3.2321961812
 21
22.1976481202
  0
LWPOLYLINE
  5
3FC
100
AcDbEntity
  8
ASSI
100
AcDbPolyline
 62
250
  6
CONTINUOUS
 90
7
 70
0
 10
5.0844865468
 20
17.6405807834
 10
5.0845671953
 20
17.6416344779
 10
5.0846444735
 20
17.6430754416
 10
5.0847183813
 20
17.6449036745
 10
5.0847894876
 20
17.6471423503
 10
5.0848572236
 20
17.6497682953
 10
5.0849773255
 20
17.6559807274
  0
LINE
  5
3FD
100
AcDbEntity
  8
ASSI
100
AcDbLine
 62
250
  6
CONTINUOUS
 10
5.0555341376
 20
17.3481103223
 11
5.0844865468
 21
17.6405807834
  0
LINE
  5
3FE
100
AcDbEntity
  8
ASSI
100
AcDbLine
 62
250
  6
CONTINUOUS
 10
5.3091020676
 20
17.1383354145
 11
5.3344485767
 21
17.3943799176
  0
LINE
  5
3FF
100
AcDbEntity
  8
ASSI
100
AcDbLine
 62
7
  6
CONTINUOUS
 10
5.0372728502
 20
20.3818716278
 11
5.0702947846
 21
20.6141585732
  0
LINE
  5
400
100
AcDbEntity
  8
ASSI
100
AcDbLine
 62
250
  6
CONTINUOUS
 10
4.5333184831
 20
0.5031398581
 11
4.485670256
 21
0.4504701279
  0
LINE
  5
401
100
AcDbEntity
  8
ASSI
100
AcDbLine
 62
250
  6
CONTINUOUS
 10
5.1494360376
 20
1.5298723211
 11
4.9855376588
 21
1.4153073272
  0
LINE
  5
402
100
AcDbEntity
  8
ASSI
100
AcDbLine
 62
7
  6
CONTINUOUS
 10
9.7237442752
 20
10.4883354145
 11
9.3406211742
 21
10.4883354145
  0
LINE
  5
403
100
AcDbEntity
  8
ASSI
100
AcDbLine
 62
7
  6
CONTINUOUS
 10
-9.6593788258
 20
10.4883354145
 11
-10.0425019267
 21
10.4883354145
  0
LINE
  5
404
100
AcDbEntity
  8
ASSI
100
AcDbLine
 62
7
  6
CONTINUOUS
 10
6.5799849488
 20
1.4281722113
 11
6.5844287407
 21
1.4237284194
  0
LWPOLYLINE
  5
405
100
AcDbEntity
  8
ASSI
100
AcDbPolyline
 62
7
  6
CONTINUOUS
 90
10
 70
0
 10
5.1646412797
 20
1.5562989848
 10
5.1847725629
 20
1.5309383997
 10
5.2069243479
 20
1.5082585825
 10
5.2310965968
 20
1.4882595382
 10
5.2576231118
 20
1.4707689521
 10
5.2861700078
 20
1.4559591525
 10
5.315735732
 20
1.444347115
 10
5.3459864267
 20
1.4361051756
 10
5.3772559101
 20
1.4310610269
 10
5.4095441625
 20
1.4292146842
  0
LWPOLYLINE
  5
406
100
AcDbEntity
  8
ASSI
100
AcDbPolyline
 62
250
  6
CONTINUOUS
 90
13
 70
0
 10
4.9855376572
 20
1.4153073288
 10
5.0100726821
 20
1.3831588665
 10
5.036698777
 20
1.3534140311
 10
5.0654159419
 20
1.3260728227
 10
5.0964285598
 20
1.3009979917
 10
5.1295322477
 20
1.2783267876
 10
5.1641138566
 20
1.2584709592
 10
5.2001960384
 20
1.2414746605
 10
5.2377561412
 20
1.2272937375
 10
5.2761130601
 20
1.2162074774
 10
5.31503976
 20
1.208308976
 10
5.3547632761
 20
1.2035051375
 10
5.3952836081
 20
1.2017959619
  0
LWPOLYLINE
  5
407
100
AcDbEntity
  8
ASSI
100
AcDbPolyline
 62
250
  6
CONTINUOUS
 90
13
 70
0
 10
5.1494360376
 20
1.5298723211
 10
5.1639842881
 20
1.5107362037
 10
5.1800089125
 20
1.4928363552
 10
5.1974048371
 20
1.4762854694
 10
5.21605415
 20
1.4611905292
 10
5.2358393942
 20
1.4476417963
 10
5.2566468136
 20
1.4357158112
 10
5.278348304
 20
1.4254876088
 10
5.3008013045
 20
1.4170258899
 10
5.3238640773
 20
1.4103851198
 10
5.3473899137
 20
1.4056088709
 10
5.3712279145
 20
1.4027291091
 10
5.3952255502
 20
1.4017655041
  0
LWPOLYLINE
  5
408
100
AcDbEntity
  8
ASSI
100
AcDbPolyline
 62
7
  6
CONTINUOUS
 90
16
 70
0
 10
5.1646412797
 20
1.5562989848
 10
5.0636380998
 20
1.6901500165
 10
4.9543411843
 20
1.8172706092
 10
4.8371993565
 20
1.9371498957
 10
4.7127352556
 20
2.0492717614
 10
4.5814199616
 20
2.1532278353
 10
4.443649352
 20
2.2486914712
 10
4.2998382964
 20
2.3353281372
 10
4.1506788745
 20
2.4126757432
 10
3.9970275935
 20
2.480290886
 10
3.839685703
 20
2.537870825
 10
3.6791449398
 20
2.5852843087
 10
3.5158290548
 20
2.6224113929
 10
3.3503172821
 20
2.6490954907
 10
3.1833557301
 20
2.6651926887
 10
3.0156211742
 20
2.6706214296
  0
LWPOLYLINE
  5
409
100
AcDbEntity
  8
ASSI
100
AcDbPolyline
 62
250
  6
CONTINUOUS
 90
10
 70
0
 10
5.2234271352
 20
-0.7216645451
 10
5.1799159671
 20
-0.6518699338
 10
5.1357329412
 20
-0.5825510682
 10
5.0908780573
 20
-0.5137079484
 10
5.0450340051
 20
-0.4448548657
 10
4.998518095
 20
-0.3764775288
 10
4.9522822585
 20
-0.3100330637
 10
4.9066438063
 20
-0.2460071788
 10
4.8612854276
 20
-0.1839141655
 10
4.8162071227
 20
-0.123754024
  0
LWPOLYLINE
  5
40A
100
AcDbEntity
  8
ASSI
100
AcDbPolyline
 62
7
  6
CONTINUOUS
 90
13
 70
0
 10
4.9165908149
 20
0.9880403232
 10
4.9329146987
 20
0.9589193181
 10
4.9511913145
 20
0.9320798042
 10
4.9714206623
 20
0.9075217816
 10
4.9938032048
 20
0.8851377785
 10
5.0181384793
 20
0.8650352666
 10
5.0438250977
 20
0.8475366614
 10
5.070725294
 20
0.8327322689
 10
5.0989768342
 20
0.8205317829
 10
5.1283916281
 20
0.810986701
 10
5.1589069789
 20
0.804114189
 10
5.1905855834
 20
0.7998970811
 10
5.2234274416
 20
0.7983353771
  0
LINE
  5
40B
100
AcDbEntity
  8
ASSI
100
AcDbLine
 62
250
  6
CONTINUOUS
 10
5.4003101969
 20
-1.3347512991
 11
5.395221791
 21
-1.3250946719
  0
LINE
  5
40C
100
AcDbEntity
  8
ASSI
100
AcDbLine
 62
250
  6
CONTINUOUS
 10
5.4095441625
 20
-1.3525438552
 11
5.4003101969
 21
-1.3347512991
  0
LWPOLYLINE
  5
40D
100
AcDbEntity
  8
ASSI
100
AcDbPolyline
 62
7
  6
CONTINUOUS
 90
10
 70
0
 10
4.4746685923
 20
0.4819632222
 10
4.4757554601
 20
0.4784448903
 10
4.4768756793
 20
0.4749326096
 10
4.4780293062
 20
0.4714260968
 10
4.4792158447
 20
0.4679258763
 10
4.4804359038
 20
0.4644308572
 10
4.4816911787
 20
0.4609383185
 10
4.4829822489
 20
0.4574471469
 10
4.4843085975
 20
0.453957851
 10
4.485670256
 20
0.4504701279
  0
LWPOLYLINE
  5
40E
100
AcDbEntity
  8
ASSI
100
AcDbPolyline
 62
7
  6
CONTINUOUS
 90
16
 70
0
 10
5.8257082108
 20
-17.2714394933
 10
5.8243339061
 20
-17.2529104533
 10
5.8209236759
 20
-17.2340919588
 10
5.8153818155
 20
-17.2151808571
 10
5.8076350006
 20
-17.1964457884
 10
5.7976284526
 20
-17.1780666618
 10
5.7853123436
 20
-17.1601401658
 10
5.7706961969
 20
-17.1429761004
 10
5.7537807174
 20
-17.1268193493
 10
5.7344964345
 20
-17.1117311767
 10
5.7129756892
 20
-17.0981190505
 10
5.6892694527
 20
-17.0862633688
 10
5.6631475838
 20
-17.0762066881
 10
5.6346511111
 20
-17.0683589439
 10
5.6041862159
 20
-17.0633470172
 10
5.5721402808
 20
-17.0616645855
  0
LWPOLYLINE
  5
40F
100
AcDbEntity
  8
ASSI
100
AcDbPolyline
 62
250
  6
CONTINUOUS
 90
13
 70
0
 10
5.7967558016
 20
-17.5639099544
 10
5.7945268644
 20
-17.531835496
 10
5.7880754293
 20
-17.5003077591
 10
5.7775114686
 20
-17.4698641181
 10
5.7630150488
 20
-17.4410234644
 10
5.7448332646
 20
-17.4142773706
 10
5.7232760297
 20
-17.3900817097
 10
5.6987107907
 20
-17.3688488777
 10
5.6715562525
 20
-17.3509407598
 10
5.6422752439
 20
-17.3366625727
 10
5.6113668408
 20
-17.3262576688
 10
5.5793578615
 20
-17.319903385
 10
5.5467938779
 20
-17.3177080161
  0
LWPOLYLINE
  5
410
100
AcDbEntity
  8
ASSI
100
AcDbPolyline
 62
250
  6
CONTINUOUS
 90
13
 70
0
 10
5.8265657324
 20
-15.8256819511
 10
5.8244181627
 20
-15.7930616383
 10
5.8180320575
 20
-15.7609992567
 10
5.8075166442
 20
-15.7300431904
 10
5.7930517762
 20
-15.7007229009
 10
5.7748848572
 20
-15.6735398721
 10
5.7533266103
 20
-15.6489590335
 10
5.7287457625
 20
-15.6274008065
 10
5.7015627369
 20
-15.609233913
 10
5.6722424618
 20
-15.5947690709
 10
5.6412864206
 20
-15.5842536801
 10
5.6092240753
 20
-15.5778675909
 10
5.5766038086
 20
-15.5757200273
  0
LWPOLYLINE
  5
411
100
AcDbEntity
  8
ASSI
100
AcDbPolyline
 62
250
  6
CONTINUOUS
 90
13
 70
0
 10
5.054676616
 20
15.9023527801
 10
5.0568241857
 20
15.8697324674
 10
5.0632102909
 20
15.8376700858
 10
5.0737257042
 20
15.8067140195
 10
5.0881905722
 20
15.7773937299
 10
5.1063574912
 20
15.7502107011
 10
5.1279157381
 20
15.7256298625
 10
5.1524965859
 20
15.7040716355
 10
5.1796796115
 20
15.6859047421
 10
5.2089998866
 20
15.6714398999
 10
5.2399559278
 20
15.6609245091
 10
5.2720182731
 20
15.6545384199
 10
5.3046385398
 20
15.6523908563
  0
LWPOLYLINE
  5
412
100
AcDbEntity
  8
ASSI
100
AcDbPolyline
 62
250
  6
CONTINUOUS
 90
7
 70
0
 10
5.0551828373
 20
-15.8355822652
 10
5.0551078381
 20
-15.8327228541
 10
5.0550272512
 20
-15.8302891243
 10
5.0549435847
 20
-15.8283602515
 10
5.0548576747
 20
-15.8269626277
 10
5.0547686851
 20
-15.8260698609
 10
5.054676616
 20
-15.8256819511
  0
LWPOLYLINE
  5
413
100
AcDbEntity
  8
ASSI
100
AcDbPolyline
 62
250
  6
CONTINUOUS
 90
6
 70
0
 10
5.0848572236
 20
-17.5730974663
 10
5.0847894876
 20
-17.5704715213
 10
5.0847183813
 20
-17.5682328454
 10
5.0846444735
 20
-17.5664046126
 10
5.0845671953
 20
-17.5649636489
 10
5.0844865468
 20
-17.5639099544
  0
LINE
  5
414
100
AcDbEntity
  8
ASSI
100
AcDbLine
 62
250
  6
CONTINUOUS
 10
5.0849773255
 20
-17.5793098984
 11
5.0848572236
 21
-17.5730974663
  0
LINE
  5
415
100
AcDbEntity
  8
ASSI
100
AcDbLine
 62
250
  6
CONTINUOUS
 10
5.0553157145
 20
-15.8426038322
 11
5.0551828373
 21
-15.8355822652
  0
LWPOLYLINE
  5
416
100
AcDbEntity
  8
ASSI
100
AcDbPolyline
 62
250
  6
CONTINUOUS
 90
3
 70
0
 10
5.3048191052
 20
-15.5831995104
 10
5.3047301177
 20
-15.5778578033
 10
5.3046380963
 20
-15.5757173607
  0
LWPOLYLINE
  5
417
100
AcDbEntity
  8
ASSI
100
AcDbPolyline
 62
250
  6
CONTINUOUS
 90
3
 70
0
 10
5.5764232432
 20
15.6598703394
 10
5.5765122307
 20
15.6545286323
 10
5.5766042521
 20
15.6523881897
  0
LINE
  5
418
100
AcDbEntity
  8
ASSI
100
AcDbLine
 62
250
  6
CONTINUOUS
 10
5.0850756871
 20
-17.5867091998
 11
5.0849773255
 21
-17.5793098984
  0
LINE
  5
419
100
AcDbEntity
  8
ASSI
100
AcDbLine
 62
250
  6
CONTINUOUS
 10
5.0554200993
 20
-15.8509868903
 11
5.0553157145
 21
-15.8426038322
  0
LINE
  5
41A
100
AcDbEntity
  8
ASSI
100
AcDbLine
 62
250
  6
CONTINUOUS
 10
5.3346058493
 20
-17.3324558691
 11
5.3344484876
 21
-17.3177090886
  0
LINE
  5
41B
100
AcDbEntity
  8
ASSI
100
AcDbLine
 62
250
  6
CONTINUOUS
 10
5.5466364991
 20
17.4091266981
 11
5.5467938608
 21
17.3943799176
  0
LINE
  5
41C
100
AcDbEntity
  8
ASSI
100
AcDbLine
 62
250
  6
CONTINUOUS
 10
5.5461544474
 20
-18.0219417342
 11
5.5648643971
 21
-20.3206221981
  0
LINE
  5
41D
100
AcDbEntity
  8
ASSI
100
AcDbLine
 62
250
  6
CONTINUOUS
 10
5.335087901
 20
18.0986125633
 11
5.3163779513
 21
20.3972930271
  0
LINE
  5
41E
100
AcDbEntity
  8
ASSI
100
AcDbLine
 62
250
  6
CONTINUOUS
 10
5.3049888769
 20
-15.6031998749
 11
5.3048191052
 21
-15.5831995104
  0
LINE
  5
41F
100
AcDbEntity
  8
ASSI
100
AcDbLine
 62
250
  6
CONTINUOUS
 10
5.5762534715
 20
15.6798707039
 11
5.5764232432
 21
15.6598703394
  0
LINE
  5
420
100
AcDbEntity
  8
ASSI
100
AcDbLine
 62
250
  6
CONTINUOUS
 10
5.0851741594
 20
-17.5994141861
 11
5.0850756871
 21
-17.5867091998
  0
LINE
  5
421
100
AcDbEntity
  8
ASSI
100
AcDbLine
 62
250
  6
CONTINUOUS
 10
5.0555153783
 20
-15.8653771559
 11
5.0554200993
 21
-15.8509868903
  0
LINE
  5
422
100
AcDbEntity
  8
ASSI
100
AcDbLine
 62
250
  6
CONTINUOUS
 10
5.085207748
 20
17.9718270157
 11
5.0702947846
 21
19.8150993329
  0
LINE
  5
423
100
AcDbEntity
  8
ASSI
100
AcDbLine
 62
250
  6
CONTINUOUS
 10
5.7960346004
 20
-17.8951561867
 11
5.8109475638
 21
-19.7384285039
  0
LINE
  5
424
100
AcDbEntity
  8
ASSI
100
AcDbLine
 62
250
  6
CONTINUOUS
 10
5.3349911086
 20
-17.4312153201
 11
5.3346058493
 21
-17.3324558691
  0
LINE
  5
425
100
AcDbEntity
  8
ASSI
100
AcDbLine
 62
250
  6
CONTINUOUS
 10
5.5462512398
 20
17.5078861491
 11
5.5466364991
 21
17.4091266981
  0
LINE
  5
426
100
AcDbEntity
  8
ASSI
100
AcDbLine
 62
250
  6
CONTINUOUS
 10
5.7960385873
 20
17.685127878
 11
5.7960940835
 21
17.6716981944
  0
LINE
  5
427
100
AcDbEntity
  8
ASSI
100
AcDbLine
 62
250
  6
CONTINUOUS
 10
5.3054220113
 20
-15.7549307779
 11
5.3049888769
 21
-15.6031998749
  0
LINE
  5
428
100
AcDbEntity
  8
ASSI
100
AcDbLine
 62
250
  6
CONTINUOUS
 10
5.5758203371
 20
15.8316016069
 11
5.5762534715
 21
15.6798707039
  0
LINE
  5
429
100
AcDbEntity
  8
ASSI
100
AcDbLine
 62
250
  6
CONTINUOUS
 10
5.8257082108
 20
15.9523451649
 11
5.8257496071
 21
15.9371309718
  0
LINE
  5
42A
100
AcDbEntity
  8
ASSI
100
AcDbLine
 62
7
  6
CONTINUOUS
 10
5.0338612189
 20
-15.804866554
 11
5.0372728502
 21
-20.3052007988
  0
LINE
  5
42B
100
AcDbEntity
  8
ASSI
100
AcDbLine
 62
7
  6
CONTINUOUS
 10
5.8468046243
 20
15.8821138882
 11
5.8434486414
 21
20.3855355029
  0
LINE
  5
42C
100
AcDbEntity
  8
ASSI
100
AcDbLine
 62
250
  6
CONTINUOUS
 10
5.0555341376
 20
-17.2714394933
 11
5.0555153783
 21
-15.8653771559
  0
LINE
  5
42D
100
AcDbEntity
  8
ASSI
100
AcDbLine
 62
7
  6
CONTINUOUS
 10
5.0702947846
 20
-20.5374877441
 11
5.0702947846
 21
-19.7384285039
  0
LINE
  5
42E
100
AcDbEntity
  8
ASSI
100
AcDbLine
 62
7
  6
CONTINUOUS
 10
5.0702947846
 20
19.8150993329
 11
5.0702947846
 21
20.6141585732
  0
LINE
  5
42F
100
AcDbEntity
  8
ASSI
100
AcDbLine
 62
250
  6
CONTINUOUS
 10
5.085207748
 20
-17.8951561867
 11
5.0851741594
 21
-17.5994141861
  0
LINE
  5
430
100
AcDbEntity
  8
ASSI
100
AcDbLine
 62
250
  6
CONTINUOUS
 10
5.3054960614
 20
-17.0616645855
 11
5.3054220113
 21
-15.7549307779
  0
LINE
  5
431
100
AcDbEntity
  8
ASSI
100
AcDbLine
 62
250
  6
CONTINUOUS
 10
5.3952836081
 20
1.4017655009
 11
5.3952836081
 21
1.2017959619
  0
LINE
  5
432
100
AcDbEntity
  8
ASSI
100
AcDbLine
 62
250
  6
CONTINUOUS
 10
5.3952836081
 20
-1.3250946719
 11
5.3952836071
 21
-1.1251251329
  0
LINE
  5
433
100
AcDbEntity
  8
ASSI
100
AcDbLine
 62
250
  6
CONTINUOUS
 10
5.575746287
 20
17.1383354145
 11
5.5758203371
 21
15.8316016069
  0
LINE
  5
434
100
AcDbEntity
  8
ASSI
100
AcDbLine
 62
250
  6
CONTINUOUS
 10
5.7960346004
 20
17.9718270157
 11
5.7960385873
 21
17.685127878
  0
LINE
  5
435
100
AcDbEntity
  8
ASSI
100
AcDbLine
 62
7
  6
CONTINUOUS
 10
5.8109475638
 20
20.6141585732
 11
5.8109475638
 21
19.8150993329
  0
LINE
  5
436
100
AcDbEntity
  8
ASSI
100
AcDbLine
 62
7
  6
CONTINUOUS
 10
5.8109475638
 20
-19.7384285039
 11
5.8109475638
 21
-20.5374877441
  0
LINE
  5
437
100
AcDbEntity
  8
ASSI
100
AcDbLine
 62
250
  6
CONTINUOUS
 10
5.8257082108
 20
17.3481103223
 11
5.8257082108
 21
15.9523451649
  0
LINE
  5
438
100
AcDbEntity
  8
ASSI
100
AcDbLine
 62
250
  6
CONTINUOUS
 10
5.3350879016
 20
-18.0219416652
 11
5.3349911086
 21
-17.4312153201
  0
LINE
  5
439
100
AcDbEntity
  8
ASSI
100
AcDbLine
 62
250
  6
CONTINUOUS
 10
5.5461544468
 20
18.0986124942
 11
5.5462512398
 21
17.5078861491
  0
LINE
  5
43A
100
AcDbEntity
  8
ASSI
100
AcDbLine
 62
7
  6
CONTINUOUS
 10
5.0372728502
 20
20.3818716278
 11
5.0338612189
 21
15.881537383
  0
LINE
  5
43B
100
AcDbEntity
  8
ASSI
100
AcDbLine
 62
7
  6
CONTINUOUS
 10
5.8434486414
 20
-20.3088646739
 11
5.8468046243
 21
-15.8054430592
  0
LINE
  5
43C
100
AcDbEntity
  8
ASSI
100
AcDbLine
 62
250
  6
CONTINUOUS
 10
5.055515378
 20
15.942047927
 11
5.0555341376
 21
17.3481103223
  0
LINE
  5
43D
100
AcDbEntity
  8
ASSI
100
AcDbLine
 62
250
  6
CONTINUOUS
 10
5.3051447172
 20
15.7115002381
 11
5.3054960614
 21
17.1383354145
  0
LINE
  5
43E
100
AcDbEntity
  8
ASSI
100
AcDbLine
 62
250
  6
CONTINUOUS
 10
5.5760976312
 20
-15.6348294091
 11
5.575746287
 21
-17.0616645855
  0
LINE
  5
43F
100
AcDbEntity
  8
ASSI
100
AcDbLine
 62
250
  6
CONTINUOUS
 10
5.3348189152
 20
17.4491840404
 11
5.3350879015
 21
18.0986125633
  0
LINE
  5
440
100
AcDbEntity
  8
ASSI
100
AcDbLine
 62
250
  6
CONTINUOUS
 10
5.5464234332
 20
-17.3725132114
 11
5.5461544469
 21
-18.0219417342
  0
LINE
  5
441
100
AcDbEntity
  8
ASSI
100
AcDbLine
 62
250
  6
CONTINUOUS
 10
5.0851741594
 20
17.6760850152
 11
5.085207748
 21
17.9718270157
  0
LINE
  5
442
100
AcDbEntity
  8
ASSI
100
AcDbLine
 62
250
  6
CONTINUOUS
 10
5.796068189
 20
-17.5994141861
 11
5.7960346004
 21
-17.8951561867
  0
LWPOLYLINE
  5
443
100
AcDbEntity
  8
ASSI
100
AcDbPolyline
 62
250
  6
CONTINUOUS
 90
3
 70
0
 10
5.8257496075
 20
-15.8604600729
 10
5.8257269704
 20
-15.865377098
 10
5.8257082108
 20
-17.2714394933
  0
LINE
  5
444
100
AcDbEntity
  8
ASSI
100
AcDbLine
 62
250
  6
CONTINUOUS
 10
5.3346058493
 20
17.4091266981
 11
5.3348189152
 21
17.4491840404
  0
LINE
  5
445
100
AcDbEntity
  8
ASSI
100
AcDbLine
 62
250
  6
CONTINUOUS
 10
5.5466364991
 20
-17.3324558691
 11
5.5464234332
 21
-17.3725132114
  0
LINE
  5
446
100
AcDbEntity
  8
ASSI
100
AcDbLine
 62
250
  6
CONTINUOUS
 10
5.0702947846
 20
-19.7384285039
 11
5.085207748
 21
-17.8951561867
  0
LINE
  5
447
100
AcDbEntity
  8
ASSI
100
AcDbLine
 62
250
  6
CONTINUOUS
 10
5.5648643971
 20
20.3972930271
 11
5.5461544468
 21
18.0986124942
  0
LINE
  5
448
100
AcDbEntity
  8
ASSI
100
AcDbLine
 62
250
  6
CONTINUOUS
 10
5.3163779513
 20
-20.3206221981
 11
5.3350879016
 21
-18.0219416652
  0
LINE
  5
449
100
AcDbEntity
  8
ASSI
100
AcDbLine
 62
250
  6
CONTINUOUS
 10
5.8109475638
 20
19.8150993329
 11
5.7960346004
 21
17.9718270157
  0
LINE
  5
44A
100
AcDbEntity
  8
ASSI
100
AcDbLine
 62
250
  6
CONTINUOUS
 10
5.0554200988
 20
15.9276576635
 11
5.055515378
 21
15.942047927
  0
LINE
  5
44B
100
AcDbEntity
  8
ASSI
100
AcDbLine
 62
250
  6
CONTINUOUS
 10
5.0850756871
 20
17.6633800289
 11
5.0851741594
 21
17.6760850152
  0
LINE
  5
44C
100
AcDbEntity
  8
ASSI
100
AcDbLine
 62
250
  6
CONTINUOUS
 10
5.3344484876
 20
17.3943799176
 11
5.3346058493
 21
17.4091266981
  0
LINE
  5
44D
100
AcDbEntity
  8
ASSI
100
AcDbLine
 62
250
  6
CONTINUOUS
 10
5.5467938608
 20
-17.3177090886
 11
5.5466364991
 21
-17.3324558691
  0
LINE
  5
44E
100
AcDbEntity
  8
ASSI
100
AcDbLine
 62
250
  6
CONTINUOUS
 10
5.0553157145
 20
15.9192746519
 11
5.0554200988
 21
15.9276576635
  0
LINE
  5
44F
100
AcDbEntity
  8
ASSI
100
AcDbLine
 62
250
  6
CONTINUOUS
 10
5.0849773255
 20
17.6559807274
 11
5.0850756871
 21
17.6633800289
  0
LWPOLYLINE
  5
450
100
AcDbEntity
  8
ASSI
100
AcDbPolyline
 62
250
  6
CONTINUOUS
 90
5
 70
0
 10
5.3046380975
 20
15.6523881969
 10
5.3047301166
 20
15.654528588
 10
5.3048191026
 20
15.6598701523
 10
5.3049050557
 20
15.6683502655
 10
5.3051447172
 20
15.7115002381
  0
LWPOLYLINE
  5
451
100
AcDbEntity
  8
ASSI
100
AcDbPolyline
 62
7
  6
CONTINUOUS
 90
16
 70
0
 10
5.8468046243
 20
15.8821138882
 10
5.8454532627
 20
15.8559576074
 10
5.8413795317
 20
15.8300932231
 10
5.834630205
 20
15.8048034387
 10
5.8252803726
 20
15.7803612874
 10
5.8134347527
 20
15.7570365656
 10
5.799229306
 20
15.7350915084
 10
5.7828373654
 20
15.7147785397
 10
5.7644311543
 20
15.6962977615
 10
5.7441707373
 20
15.6798161883
 10
5.7222410525
 20
15.6655059964
 10
5.6989014303
 20
15.6535564611
 10
5.6744476831
 20
15.6441249418
 10
5.6491651786
 20
15.6373159035
 10
5.6233183563
 20
15.6331945624
 10
5.5971914476
 20
15.6318032173
  0
LWPOLYLINE
  5
452
100
AcDbEntity
  8
ASSI
100
AcDbPolyline
 62
250
  6
CONTINUOUS
 90
13
 70
0
 10
5.8265657324
 20
15.9023527801
 10
5.8244181658
 20
15.8697324908
 10
5.8180320688
 20
15.8376701276
 10
5.8075166669
 20
15.8067140739
 10
5.7930518118
 20
15.7773937913
 10
5.7748849055
 20
15.7502107638
 10
5.7533266683
 20
15.7256299204
 10
5.7287458249
 20
15.7040716832
 10
5.7015627974
 20
15.6859047769
 10
5.6722425148
 20
15.6714399218
 10
5.6412864612
 20
15.6609245199
 10
5.6092240979
 20
15.6545384229
 10
5.5766038086
 20
15.6523908563
  0
LWPOLYLINE
  5
453
100
AcDbEntity
  8
ASSI
100
AcDbPolyline
 62
250
  6
CONTINUOUS
 90
13
 70
0
 10
5.7967558016
 20
17.6405807834
 10
5.7945268864
 20
17.6085064816
 10
5.7880755078
 20
17.5769788675
 10
5.7775116256
 20
17.5465353106
 10
5.763015295
 20
17.5176947035
 10
5.7448335975
 20
17.4909486174
 10
5.7232764294
 20
17.4667529236
 10
5.69871122
 20
17.4455200234
 10
5.6715566688
 20
17.4276118192
 10
5.6422756091
 20
17.4133335459
 10
5.6113671195
 20
17.402928568
 10
5.579358017
 20
17.3965742325
 10
5.5467938779
 20
17.3943788452
  0
LWPOLYLINE
  5
454
100
AcDbEntity
  8
ASSI
100
AcDbPolyline
 62
7
  6
CONTINUOUS
 90
16
 70
0
 10
5.8257082108
 20
17.3481103223
 10
5.8243091666
 20
17.3289910686
 10
5.8208353459
 20
17.3100844913
 10
5.815218606
 20
17.2913905902
 10
5.8074240098
 20
17.2727288537
 10
5.7974178596
 20
17.2542797936
 10
5.7851388169
 20
17.2365849446
 10
5.7706142958
 20
17.2196117655
 10
5.7538532046
 20
17.2033927975
 10
5.7347307042
 20
17.1885672003
 10
5.7132722344
 20
17.1750449642
 10
5.6896129519
 20
17.1629160988
 10
5.6637927287
 20
17.1530897923
 10
5.6359816234
 20
17.1458691074
 10
5.6065099045
 20
17.1409509815
 10
5.575746287
 20
17.1383354145
  0
LWPOLYLINE
  5
455
100
AcDbEntity
  8
ASSI
100
AcDbPolyline
 62
7
  6
CONTINUOUS
 90
10
 70
0
 10
4.4856702805
 20
-0.3737993257
 10
4.4843086101
 20
-0.3772870396
 10
4.4829822526
 20
-0.3807763283
 10
4.4816911767
 20
-0.3842674948
 10
4.4804359002
 20
-0.3877600312
 10
4.4792158424
 20
-0.3912550502
 10
4.4780293053
 20
-0.3947552705
 10
4.4768756787
 20
-0.3982617824
 10
4.4757554598
 20
-0.4017740622
 10
4.4746685923
 20
-0.4052923932
  0
LWPOLYLINE
  5
456
100
AcDbEntity
  8
ASSI
100
AcDbPolyline
 62
7
  6
CONTINUOUS
 90
13
 70
0
 10
4.4856702918
 20
-0.3737993289
 10
4.5006890438
 20
-0.3403820588
 10
4.5186476629
 20
-0.3086139347
 10
4.539357538
 20
-0.2787284961
 10
4.5625847239
 20
-0.2509734669
 10
4.588135349
 20
-0.2255188356
 10
4.6158795453
 20
-0.2024759503
 10
4.6455970718
 20
-0.1820400602
 10
4.6770459657
 20
-0.1643759349
 10
4.7100770092
 20
-0.1495671607
 10
4.7444741089
 20
-0.1377549386
 10
4.7799420902
 20
-0.1291093264
 10
4.8162071227
 20
-0.1237539319
  0
LINE
  5
457
100
AcDbEntity
  8
ASSI
100
AcDbLine
 62
250
  6
CONTINUOUS
 10
5.3998033253
 20
1.4104474486
 11
5.4095441625
 21
1.4292146842
  0
LINE
  5
458
100
AcDbEntity
  8
ASSI
100
AcDbLine
 62
250
  6
CONTINUOUS
 10
5.3952255515
 20
1.4017655009
 11
5.3998033253
 21
1.4104474486
  0
LINE
  5
459
100
AcDbEntity
  8
ASSI
100
AcDbLine
 62
250
  6
CONTINUOUS
 10
5.1494360376
 20
1.5298723211
 11
5.1646412797
 21
1.5562989848
  0
LWPOLYLINE
  5
45A
100
AcDbEntity
  8
ASSI
100
AcDbPolyline
 62
250
  6
CONTINUOUS
 90
10
 70
0
 10
5.2234271371
 20
0.7983353771
 10
5.1802060024
 20
0.7289885016
 10
5.1362366618
 20
0.6599945435
 10
5.0915191152
 20
0.5913535028
 10
5.0457309283
 20
0.5225651406
 10
4.9991945355
 20
0.4541296958
 10
4.9528772397
 20
0.3875478847
 10
4.9071014753
 20
0.3233199461
 10
4.8615448079
 20
0.2609456413
 10
4.8162072375
 20
0.2004249702
  0
LWPOLYLINE
  5
45B
100
AcDbEntity
  8
ASSI
100
AcDbPolyline
 62
250
  6
CONTINUOUS
 90
9
 70
0
 10
4.9165908407
 20
0.9880403287
 10
4.8704711006
 20
0.9243483251
 10
4.8238102038
 20
0.8610452916
 10
4.7764979748
 20
0.7982868477
 10
4.7280481735
 20
0.7358506156
 10
4.6787302902
 20
0.6743130512
 10
4.6296791095
 20
0.6148940844
 10
4.5813317037
 20
0.5579522547
 10
4.5333184831
 20
0.5031398581
  0
LINE
  5
45C
100
AcDbEntity
  8
ASSI
100
AcDbLine
 62
7
  6
CONTINUOUS
 10
7.400408241
 20
1.4273230527
 11
7.3968136077
 21
1.4237284194
  0
LINE
  5
45D
100
AcDbEntity
  8
ASSI
100
AcDbLine
 62
7
  6
CONTINUOUS
 10
9.6865104729
 20
-0.1216645855
 11
9.7406211742
 21
-0.0946112953
  0
LINE
  5
45E
100
AcDbEntity
  8
ASSI
100
AcDbLine
 62
250
  6
CONTINUOUS
 10
-5.6233934848
 20
15.6523881497
 11
-5.602585318
 21
15.6315799829
  0
LINE
  5
45F
100
AcDbEntity
  8
ASSI
100
AcDbLine
 62
250
  6
CONTINUOUS
 10
-5.3734342676
 20
15.9023527801
 11
-5.3526188705
 21
15.881537383
  0
LINE
  5
460
100
AcDbEntity
  8
ASSI
100
AcDbLine
 62
7
  6
CONTINUOUS
 10
9.6865104729
 20
1.4157904794
 11
9.677847371
 21
1.4244535813
  0
LINE
  5
461
100
AcDbEntity
  8
ASSI
100
AcDbLine
 62
250
  6
CONTINUOUS
 10
6.6012465296
 20
5.9277557506
 11
6.5806534767
 21
5.9483488035
  0
LINE
  5
462
100
AcDbEntity
  8
ASSI
100
AcDbLine
 62
250
  6
CONTINUOUS
 10
5.5467937717
 20
17.3943799176
 11
5.5721402808
 21
17.1383354145
  0
LINE
  5
463
100
AcDbEntity
  8
ASSI
100
AcDbLine
 62
250
  6
CONTINUOUS
 10
5.7967558016
 20
17.6405807834
 11
5.8257082108
 21
17.3481103223
  0
LWPOLYLINE
  5
464
100
AcDbEntity
  8
ASSI
100
AcDbPolyline
 62
250
  6
CONTINUOUS
 90
13
 70
0
 10
6.5914107667
 20
3.7727542907
 10
6.5942882981
 20
3.73902863
 10
6.6021926557
 20
3.70587364
 10
6.6149900899
 20
3.6738503353
 10
6.632464056
 20
3.6435005811
 10
6.6543188774
 20
3.6153379245
 10
6.6801847495
 20
3.5898389049
 10
6.7096239967
 20
3.5674349903
 10
6.7421384785
 20
3.5485052767
 10
6.7771780186
 20
3.5333700731
 10
6.814149714
 20
3.5222854817
 10
6.8524279679
 20
3.5154390645
 10
6.8913650752
 20
3.5129466695
  0
LWPOLYLINE
  5
465
100
AcDbEntity
  8
ASSI
100
AcDbPolyline
 62
250
  6
CONTINUOUS
 90
13
 70
0
 10
6.6029311095
 20
4.1538054683
 10
6.6058085437
 20
4.1200804056
 10
6.6137126615
 20
4.0869258698
 10
6.6265097732
 20
4.0549028604
 10
6.6439833959
 20
4.0245532374
 10
6.6658379095
 20
3.9963905616
 10
6.6917035535
 20
3.9708914009
 10
6.721142698
 20
3.9484872495
 10
6.7536572297
 20
3.9295572451
 10
6.7886969639
 20
3.9144217501
 10
6.8256689913
 20
3.9033369068
 10
6.8639477169
 20
3.8964903113
 10
6.9028854181
 20
3.893997849
  0
LWPOLYLINE
  5
466
100
AcDbEntity
  8
ASSI
100
AcDbPolyline
 62
250
  6
CONTINUOUS
 90
13
 70
0
 10
7.3783112389
 20
-4.0771346393
 10
7.3754338047
 20
-4.0434095766
 10
7.3675296869
 20
-4.0102550408
 10
7.3547325752
 20
-3.9782320314
 10
7.3372589525
 20
-3.9478824084
 10
7.3154044389
 20
-3.9197197325
 10
7.2895387949
 20
-3.8942205719
 10
7.2600996504
 20
-3.8718164205
 10
7.2275851187
 20
-3.8528864161
 10
7.1925453845
 20
-3.8377509211
 10
7.1555733571
 20
-3.8266660778
 10
7.1172946315
 20
-3.8198194823
 10
7.0783569303
 20
-3.81732702
  0
LWPOLYLINE
  5
467
100
AcDbEntity
  8
ASSI
100
AcDbPolyline
 62
250
  6
CONTINUOUS
 90
13
 70
0
 10
7.3898315817
 20
-3.6960834617
 10
7.3869540503
 20
-3.662357801
 10
7.3790496927
 20
-3.629202811
 10
7.3662522585
 20
-3.5971795063
 10
7.3487782924
 20
-3.5668297521
 10
7.326923471
 20
-3.5386670955
 10
7.301057599
 20
-3.5131680759
 10
7.2716183517
 20
-3.4907641613
 10
7.2391038699
 20
-3.4718344477
 10
7.2040643298
 20
-3.4566992441
 10
7.1670926344
 20
-3.4456146527
 10
7.1288143805
 20
-3.4387682355
 10
7.0898772732
 20
-3.4362758405
  0
LWPOLYLINE
  5
468
100
AcDbEntity
  8
ASSI
100
AcDbPolyline
 62
7
  6
CONTINUOUS
 90
16
 70
0
 10
5.0555341376
 20
17.3481103223
 10
5.0569084423
 20
17.3295812823
 10
5.0603186725
 20
17.3107627878
 10
5.0658605329
 20
17.2918516861
 10
5.0736073478
 20
17.2731166174
 10
5.0836138958
 20
17.2547374908
 10
5.0959300048
 20
17.2368109948
 10
5.1105461515
 20
17.2196469294
 10
5.127461631
 20
17.2034901783
 10
5.1467459139
 20
17.1884020057
 10
5.1682666592
 20
17.1747898796
 10
5.1919728957
 20
17.1629341978
 10
5.2180947646
 20
17.1528775171
 10
5.2465912373
 20
17.1450297729
 10
5.2770561325
 20
17.1400178462
 10
5.3091020676
 20
17.1383354145
  0
LWPOLYLINE
  5
469
100
AcDbEntity
  8
ASSI
100
AcDbPolyline
 62
250
  6
CONTINUOUS
 90
13
 70
0
 10
5.0844865468
 20
17.6405807834
 10
5.086715484
 20
17.608506325
 10
5.0931669191
 20
17.5769785881
 10
5.1037308798
 20
17.5465349471
 10
5.1182272996
 20
17.5176942934
 10
5.1364090838
 20
17.4909481996
 10
5.1579663187
 20
17.4667525387
 10
5.1825315577
 20
17.4455197067
 10
5.2096860959
 20
17.4276115888
 10
5.2389671045
 20
17.4133334017
 10
5.2698755076
 20
17.4029284978
 10
5.3018844869
 20
17.396574214
 10
5.3344484705
 20
17.3943788451
  0
LWPOLYLINE
  5
46A
100
AcDbEntity
  8
ASSI
100
AcDbPolyline
 62
250
  6
CONTINUOUS
 90
13
 70
0
 10
6.6012465296
 20
-5.8510849215
 10
6.6038232142
 20
-5.8902262754
 10
6.6114855005
 20
-5.9286987929
 10
6.6241025585
 20
-5.9658444955
 10
6.641458795
 20
-6.0010280239
 10
6.6632575736
 20
-6.0336475926
 10
6.6891263138
 20
-6.0631452626
 10
6.7186228377
 20
-6.0890164218
 10
6.7512427359
 20
-6.110818302
 10
6.7864280004
 20
-6.1281777043
 10
6.8235767928
 20
-6.1407975305
 10
6.8620537861
 20
-6.1484617938
 10
6.9012008381
 20
-6.1510392301
  0
LWPOLYLINE
  5
46B
100
AcDbEntity
  8
ASSI
100
AcDbPolyline
 62
250
  6
CONTINUOUS
 90
13
 70
0
 10
7.3799958188
 20
5.9277557506
 10
7.3774191342
 20
5.9668971044
 10
7.3697568479
 20
6.0053696219
 10
7.3571397899
 20
6.0425153245
 10
7.3397835534
 20
6.0776988529
 10
7.3179847748
 20
6.1103184216
 10
7.2921160347
 20
6.1398160916
 10
7.2626195107
 20
6.1656872508
 10
7.2299996125
 20
6.187489131
 10
7.194814348
 20
6.2048485333
 10
7.1576655556
 20
6.2174683595
 10
7.1191885623
 20
6.2251326228
 10
7.0800415103
 20
6.2277100592
  0
LWPOLYLINE
  5
46C
100
AcDbEntity
  8
ASSI
100
AcDbPolyline
 62
250
  6
CONTINUOUS
 90
4
 70
0
 10
6.8913648986
 20
-3.4362718439
 10
6.8903257773
 20
-3.4128249679
 10
6.8893615778
 20
-3.386262078
 10
6.8884723001
 20
-3.3567865326
  0
LWPOLYLINE
  5
46D
100
AcDbEntity
  8
ASSI
100
AcDbPolyline
 62
250
  6
CONTINUOUS
 90
4
 70
0
 10
7.0898774498
 20
3.5129426729
 10
7.0909165711
 20
3.4894957969
 10
7.0918807706
 20
3.462932907
 10
7.0927700483
 20
3.4334573616
  0
LINE
  5
46E
100
AcDbEntity
  8
ASSI
100
AcDbLine
 62
250
  6
CONTINUOUS
 10
6.9028854181
 20
-3.8173270182
 11
6.8913649544
 21
-3.4362718439
  0
LINE
  5
46F
100
AcDbEntity
  8
ASSI
100
AcDbLine
 62
250
  6
CONTINUOUS
 10
7.0783569303
 20
3.8939978472
 11
7.089877394
 21
3.5129426729
  0
LINE
  5
470
100
AcDbEntity
  8
ASSI
100
AcDbLine
 62
250
  6
CONTINUOUS
 10
6.6031907605
 20
-4.0866512128
 11
6.5903761608
 21
-3.6582153776
  0
LINE
  5
471
100
AcDbEntity
  8
ASSI
100
AcDbLine
 62
250
  6
CONTINUOUS
 10
7.3780515879
 20
4.1633220418
 11
7.3908661876
 21
3.7348862066
  0
LWPOLYLINE
  5
472
100
AcDbEntity
  8
ASSI
100
AcDbPolyline
 62
250
  6
CONTINUOUS
 90
7
 70
0
 10
6.6032646212
 20
5.8884439104
 10
6.6029634967
 20
5.8998515802
 10
6.6026401684
 20
5.9095435857
 10
6.602305701
 20
5.9172109074
 10
6.6019637829
 20
5.9227505389
 10
6.6016107258
 20
5.9262654866
 10
6.6012465296
 20
5.9277557506
  0
LWPOLYLINE
  5
473
100
AcDbEntity
  8
ASSI
100
AcDbPolyline
 62
250
  6
CONTINUOUS
 90
7
 70
0
 10
7.3779777272
 20
-5.8117730814
 10
7.3782788517
 20
-5.8231807512
 10
7.37860218
 20
-5.8328727567
 10
7.3789366474
 20
-5.8405400784
 10
7.3792785655
 20
-5.8460797099
 10
7.3796316226
 20
-5.8495946576
 10
7.3799958188
 20
-5.8510849215
  0
LWPOLYLINE
  5
474
100
AcDbEntity
  8
ASSI
100
AcDbPolyline
 62
250
  6
CONTINUOUS
 90
7
 70
0
 10
5.8260595111
 20
15.9122530942
 10
5.8261345103
 20
15.9093936831
 10
5.8262150972
 20
15.9069599533
 10
5.8262987637
 20
15.9050310805
 10
5.8263846737
 20
15.9036334567
 10
5.8264736633
 20
15.9027406899
 10
5.8265657324
 20
15.9023527801
  0
LWPOLYLINE
  5
475
100
AcDbEntity
  8
ASSI
100
AcDbPolyline
 62
250
  6
CONTINUOUS
 90
6
 70
0
 10
5.7963851248
 20
17.6497682953
 10
5.7964528608
 20
17.6471423503
 10
5.7965239672
 20
17.6449036745
 10
5.7965978749
 20
17.6430754416
 10
5.7966751531
 20
17.6416344779
 10
5.7967558016
 20
17.6405807834
  0
LWPOLYLINE
  5
476
100
AcDbEntity
  8
ASSI
100
AcDbPolyline
 62
250
  6
CONTINUOUS
 90
4
 70
0
 10
7.0789776713
 20
-6.1244395302
 10
7.0793203189
 20
-6.1385606112
 10
7.0796749319
 20
-6.1474589604
 10
7.0800415103
 20
-6.1510392301
  0
LWPOLYLINE
  5
477
100
AcDbEntity
  8
ASSI
100
AcDbPolyline
 62
250
  6
CONTINUOUS
 90
4
 70
0
 10
6.9022646771
 20
6.2011103592
 10
6.9019220295
 20
6.2152314402
 10
6.9015674165
 20
6.2241297894
 10
6.9012008381
 20
6.2277100591
  0
LINE
  5
478
100
AcDbEntity
  8
ASSI
100
AcDbLine
 62
250
  6
CONTINUOUS
 10
6.8884723001
 20
-3.3567865326
 11
6.8869074792
 21
-3.2900215513
  0
LINE
  5
479
100
AcDbEntity
  8
ASSI
100
AcDbLine
 62
250
  6
CONTINUOUS
 10
7.0927700483
 20
3.4334573616
 11
7.0943348692
 21
3.3666923803
  0
LINE
  5
47A
100
AcDbEntity
  8
ASSI
100
AcDbLine
 62
250
  6
CONTINUOUS
 10
6.5903761608
 20
-3.6582153776
 11
6.5885269055
 21
-3.5694150832
  0
LINE
  5
47B
100
AcDbEntity
  8
ASSI
100
AcDbLine
 62
250
  6
CONTINUOUS
 10
6.6036541935
 20
-4.1089226754
 11
6.6031907605
 21
-4.0866512128
  0
LINE
  5
47C
100
AcDbEntity
  8
ASSI
100
AcDbLine
 62
250
  6
CONTINUOUS
 10
7.3775881549
 20
4.1855935044
 11
7.3780515879
 21
4.1633220418
  0
LINE
  5
47D
100
AcDbEntity
  8
ASSI
100
AcDbLine
 62
250
  6
CONTINUOUS
 10
7.3908661876
 20
3.7348862066
 11
7.3927154429
 21
3.6460859122
  0
LINE
  5
47E
100
AcDbEntity
  8
ASSI
100
AcDbLine
 62
250
  6
CONTINUOUS
 10
5.7962650229
 20
17.6559807274
 11
5.7963851248
 21
17.6497682953
  0
LINE
  5
47F
100
AcDbEntity
  8
ASSI
100
AcDbLine
 62
250
  6
CONTINUOUS
 10
5.8259266339
 20
15.9192746612
 11
5.8260595111
 21
15.9122530942
  0
LINE
  5
480
100
AcDbEntity
  8
ASSI
100
AcDbLine
 62
250
  6
CONTINUOUS
 10
6.6037982866
 20
5.8603731429
 11
6.6032646212
 21
5.8884439104
  0
LINE
  5
481
100
AcDbEntity
  8
ASSI
100
AcDbLine
 62
250
  6
CONTINUOUS
 10
7.3774440618
 20
-5.7837023139
 11
7.3779777272
 21
-5.8117730814
  0
LINE
  5
482
100
AcDbEntity
  8
ASSI
100
AcDbLine
 62
250
  6
CONTINUOUS
 10
6.8869074792
 20
-3.2900215513
 11
6.8856939308
 21
-3.2145500596
  0
LINE
  5
483
100
AcDbEntity
  8
ASSI
100
AcDbLine
 62
250
  6
CONTINUOUS
 10
7.0943348692
 20
3.3666923803
 11
7.0955484176
 21
3.2912208886
  0
LINE
  5
484
100
AcDbEntity
  8
ASSI
100
AcDbLine
 62
250
  6
CONTINUOUS
 10
6.5885269055
 20
-3.5694150832
 11
6.5869586321
 21
-3.4623179526
  0
LINE
  5
485
100
AcDbEntity
  8
ASSI
100
AcDbLine
 62
250
  6
CONTINUOUS
 10
7.3927154429
 20
3.6460859122
 11
7.3942837163
 21
3.5389887816
  0
LINE
  5
486
100
AcDbEntity
  8
ASSI
100
AcDbLine
 62
250
  6
CONTINUOUS
 10
6.604046029
 20
-4.1357262537
 11
6.6036541935
 21
-4.1089226754
  0
LINE
  5
487
100
AcDbEntity
  8
ASSI
100
AcDbLine
 62
250
  6
CONTINUOUS
 10
6.9029208551
 20
6.1578595391
 11
6.9022646771
 21
6.2011103592
  0
LINE
  5
488
100
AcDbEntity
  8
ASSI
100
AcDbLine
 62
250
  6
CONTINUOUS
 10
7.0783214934
 20
-6.0811887101
 11
7.0789776713
 21
-6.1244395302
  0
LINE
  5
489
100
AcDbEntity
  8
ASSI
100
AcDbLine
 62
250
  6
CONTINUOUS
 10
7.3771963194
 20
4.2123970827
 11
7.3775881549
 21
4.1855935044
  0
LINE
  5
48A
100
AcDbEntity
  8
ASSI
100
AcDbLine
 62
250
  6
CONTINUOUS
 10
5.7961666613
 20
17.6633800289
 11
5.7962650229
 21
17.6559807274
  0
LINE
  5
48B
100
AcDbEntity
  8
ASSI
100
AcDbLine
 62
250
  6
CONTINUOUS
 10
6.6042178507
 20
5.8268062534
 11
6.6037982866
 21
5.8603731429
  0
LINE
  5
48C
100
AcDbEntity
  8
ASSI
100
AcDbLine
 62
250
  6
CONTINUOUS
 10
7.3770244977
 20
-5.7501354244
 11
7.3774440618
 21
-5.7837023139
  0
LINE
  5
48D
100
AcDbEntity
  8
ASSI
100
AcDbLine
 62
250
  6
CONTINUOUS
 10
5.8258222491
 20
15.9276577193
 11
5.8259266339
 21
15.9192746612
  0
LINE
  5
48E
100
AcDbEntity
  8
ASSI
100
AcDbLine
 62
250
  6
CONTINUOUS
 10
6.8856939308
 20
-3.2145500596
 11
6.8848589075
 21
-3.1326686893
  0
LINE
  5
48F
100
AcDbEntity
  8
ASSI
100
AcDbLine
 62
250
  6
CONTINUOUS
 10
7.0955484176
 20
3.2912208886
 11
7.0963834409
 21
3.2093395183
  0
LINE
  5
490
100
AcDbEntity
  8
ASSI
100
AcDbLine
 62
250
  6
CONTINUOUS
 10
5.7960940835
 20
17.6716981944
 11
5.7961666613
 21
17.6633800289
  0
LINE
  5
491
100
AcDbEntity
  8
ASSI
100
AcDbLine
 62
250
  6
CONTINUOUS
 10
6.9036085597
 20
-3.8967868799
 11
6.9028854181
 21
-3.8173270182
  0
LINE
  5
492
100
AcDbEntity
  8
ASSI
100
AcDbLine
 62
250
  6
CONTINUOUS
 10
7.0776337887
 20
3.9734577089
 11
7.0783569303
 21
3.8939978472
  0
LINE
  5
493
100
AcDbEntity
  8
ASSI
100
AcDbLine
 62
250
  6
CONTINUOUS
 10
6.5869586321
 20
-3.4623179526
 11
6.5852719079
 21
-3.2767957696
  0
LINE
  5
494
100
AcDbEntity
  8
ASSI
100
AcDbLine
 62
250
  6
CONTINUOUS
 10
6.6044669427
 20
-4.1821471395
 11
6.604046029
 21
-4.1357262537
  0
LINE
  5
495
100
AcDbEntity
  8
ASSI
100
AcDbLine
 62
250
  6
CONTINUOUS
 10
7.3767754057
 20
4.2588179685
 11
7.3771963194
 21
4.2123970827
  0
LINE
  5
496
100
AcDbEntity
  8
ASSI
100
AcDbLine
 62
250
  6
CONTINUOUS
 10
7.3942837163
 20
3.5389887816
 11
7.3959704405
 21
3.3534665986
  0
LINE
  5
497
100
AcDbEntity
  8
ASSI
100
AcDbLine
 62
250
  6
CONTINUOUS
 10
6.9037529151
 20
6.0593116107
 11
6.9029208551
 21
6.1578595391
  0
LINE
  5
498
100
AcDbEntity
  8
ASSI
100
AcDbLine
 62
250
  6
CONTINUOUS
 10
7.0774894333
 20
-5.9826407817
 11
7.0783214934
 21
-6.0811887101
  0
LINE
  5
499
100
AcDbEntity
  8
ASSI
100
AcDbLine
 62
250
  6
CONTINUOUS
 10
5.8257496071
 20
15.9371309718
 11
5.8258222491
 21
15.9276577193
  0
LINE
  5
49A
100
AcDbEntity
  8
ASSI
100
AcDbLine
 62
250
  6
CONTINUOUS
 10
6.6046010566
 20
5.769110301
 11
6.6042178507
 21
5.8268062534
  0
LINE
  5
49B
100
AcDbEntity
  8
ASSI
100
AcDbLine
 62
250
  6
CONTINUOUS
 10
7.3766412918
 20
-5.692439472
 11
7.3770244977
 21
-5.7501354244
  0
LINE
  5
49C
100
AcDbEntity
  8
ASSI
100
AcDbLine
 62
250
  6
CONTINUOUS
 10
6.8848589075
 20
-3.1326686893
 11
6.8844397189
 21
-3.0468932642
  0
LINE
  5
49D
100
AcDbEntity
  8
ASSI
100
AcDbLine
 62
250
  6
CONTINUOUS
 10
7.0963834409
 20
3.2093395183
 11
7.0968026295
 21
3.1235640932
  0
LINE
  5
49E
100
AcDbEntity
  8
ASSI
100
AcDbLine
 62
250
  6
CONTINUOUS
 10
6.5852719079
 20
-3.2767957696
 11
6.5844849471
 21
-3.07383693
  0
LINE
  5
49F
100
AcDbEntity
  8
ASSI
100
AcDbLine
 62
250
  6
CONTINUOUS
 10
6.6046628614
 20
-4.2327801669
 11
6.6044669427
 21
-4.1821471395
  0
LINE
  5
4A0
100
AcDbEntity
  8
ASSI
100
AcDbLine
 62
250
  6
CONTINUOUS
 10
7.376579487
 20
4.3094509959
 11
7.3767754057
 21
4.2588179685
  0
LINE
  5
4A1
100
AcDbEntity
  8
ASSI
100
AcDbLine
 62
250
  6
CONTINUOUS
 10
7.3959704405
 20
3.3534665986
 11
7.3967574013
 21
3.150507759
  0
LINE
  5
4A2
100
AcDbEntity
  8
ASSI
100
AcDbLine
 62
250
  6
CONTINUOUS
 10
6.9045119581
 20
-4.1209317712
 11
6.9036085597
 21
-3.8967868799
  0
LINE
  5
4A3
100
AcDbEntity
  8
ASSI
100
AcDbLine
 62
250
  6
CONTINUOUS
 10
7.0767303903
 20
4.1976026002
 11
7.0776337887
 21
3.9734577089
  0
LINE
  5
4A4
100
AcDbEntity
  8
ASSI
100
AcDbLine
 62
250
  6
CONTINUOUS
 10
6.9045547846
 20
5.8306021138
 11
6.9037529151
 21
6.0593116107
  0
LINE
  5
4A5
100
AcDbEntity
  8
ASSI
100
AcDbLine
 62
250
  6
CONTINUOUS
 10
7.0766875638
 20
-5.7539312848
 11
7.0774894333
 21
-5.9826407817
  0
LINE
  5
4A6
100
AcDbEntity
  8
ASSI
100
AcDbLine
 62
7
  6
CONTINUOUS
 10
6.5799849488
 20
-1.3515013823
 11
6.5806534767
 21
-5.8716779744
  0
LINE
  5
4A7
100
AcDbEntity
  8
ASSI
100
AcDbLine
 62
250
  6
CONTINUOUS
 10
6.5844849471
 20
-3.07383693
 11
6.5844287407
 21
-1.3470575904
  0
LINE
  5
4A8
100
AcDbEntity
  8
ASSI
100
AcDbLine
 62
250
  6
CONTINUOUS
 10
6.8844397189
 20
-3.0468932642
 11
6.8843830492
 21
-1.3419124608
  0
LINE
  5
4A9
100
AcDbEntity
  8
ASSI
100
AcDbLine
 62
250
  6
CONTINUOUS
 10
7.0968026295
 20
3.1235640932
 11
7.0968592992
 21
1.4185832898
  0
LINE
  5
4AA
100
AcDbEntity
  8
ASSI
100
AcDbLine
 62
7
  6
CONTINUOUS
 10
7.2406211742
 20
-22.0839033553
 11
7.2406211742
 21
-20.5374877441
  0
LINE
  5
4AB
100
AcDbEntity
  8
ASSI
100
AcDbLine
 62
7
  6
CONTINUOUS
 10
7.2406211742
 20
20.6141585732
 11
7.2406211742
 21
22.1605741843
  0
LINE
  5
4AC
100
AcDbEntity
  8
ASSI
100
AcDbLine
 62
250
  6
CONTINUOUS
 10
7.3967574013
 20
3.150507759
 11
7.3968136077
 21
1.4237284194
  0
LINE
  5
4AD
100
AcDbEntity
  8
ASSI
100
AcDbLine
 62
7
  6
CONTINUOUS
 10
7.400408241
 20
1.4273230527
 11
7.3997553284
 21
5.9475152602
  0
LINE
  5
4AE
100
AcDbEntity
  8
ASSI
100
AcDbLine
 62
7
  6
CONTINUOUS
 10
6.5806534767
 20
5.9483488035
 11
6.5799849488
 21
1.4281722113
  0
LINE
  5
4AF
100
AcDbEntity
  8
ASSI
100
AcDbLine
 62
7
  6
CONTINUOUS
 10
7.3997553284
 20
-5.8708444312
 11
7.400408241
 21
-1.3506522237
  0
LINE
  5
4B0
100
AcDbEntity
  8
ASSI
100
AcDbLine
 62
250
  6
CONTINUOUS
 10
6.6046628614
 20
4.3094509959
 11
6.6046010566
 21
5.769110301
  0
LINE
  5
4B1
100
AcDbEntity
  8
ASSI
100
AcDbLine
 62
250
  6
CONTINUOUS
 10
7.376579487
 20
-4.2327801669
 11
7.3766412918
 21
-5.692439472
  0
LINE
  5
4B2
100
AcDbEntity
  8
ASSI
100
AcDbLine
 62
250
  6
CONTINUOUS
 10
6.904335309
 20
-5.8523531493
 11
6.9045119581
 21
-4.1209317712
  0
LINE
  5
4B3
100
AcDbEntity
  8
ASSI
100
AcDbLine
 62
250
  6
CONTINUOUS
 10
7.0769070394
 20
5.9290239783
 11
7.0767303903
 21
4.1976026002
  0
LINE
  5
4B4
100
AcDbEntity
  8
ASSI
100
AcDbLine
 62
250
  6
CONTINUOUS
 10
6.6046010566
 20
-5.6924394719
 11
6.6046628614
 21
-4.2327801669
  0
LINE
  5
4B5
100
AcDbEntity
  8
ASSI
100
AcDbLine
 62
250
  6
CONTINUOUS
 10
7.3766412918
 20
5.769110301
 11
7.376579487
 21
4.3094509959
  0
LINE
  5
4B6
100
AcDbEntity
  8
ASSI
100
AcDbLine
 62
250
  6
CONTINUOUS
 10
6.9043031701
 20
4.115703211
 11
6.9045547846
 21
5.8306021138
  0
LINE
  5
4B7
100
AcDbEntity
  8
ASSI
100
AcDbLine
 62
250
  6
CONTINUOUS
 10
7.0769391783
 20
-4.039032382
 11
7.0766875638
 21
-5.7539312848
  0
LINE
  5
4B8
100
AcDbEntity
  8
ASSI
100
AcDbLine
 62
250
  6
CONTINUOUS
 10
6.8843830492
 20
1.4185832898
 11
6.8845988493
 21
3.1668737631
  0
LINE
  5
4B9
100
AcDbEntity
  8
ASSI
100
AcDbLine
 62
250
  6
CONTINUOUS
 10
7.0968592992
 20
-1.3419124608
 11
7.0966434991
 21
-3.0902029341
  0
LINE
  5
4BA
100
AcDbEntity
  8
ASSI
100
AcDbLine
 62
250
  6
CONTINUOUS
 10
6.5844287407
 20
1.4237284194
 11
6.5849054999
 21
3.2871873742
  0
LINE
  5
4BB
100
AcDbEntity
  8
ASSI
100
AcDbLine
 62
250
  6
CONTINUOUS
 10
7.3968136077
 20
-1.3470575904
 11
7.3963368485
 21
-3.2105165452
  0
LINE
  5
4BC
100
AcDbEntity
  8
ASSI
100
AcDbLine
 62
250
  6
CONTINUOUS
 10
6.6044669427
 20
4.2588179685
 11
6.6046628614
 21
4.3094509959
  0
LINE
  5
4BD
100
AcDbEntity
  8
ASSI
100
AcDbLine
 62
250
  6
CONTINUOUS
 10
7.3767754057
 20
-4.1821471395
 11
7.376579487
 21
-4.2327801669
  0
LINE
  5
4BE
100
AcDbEntity
  8
ASSI
100
AcDbLine
 62
250
  6
CONTINUOUS
 10
6.9034979382
 20
-6.019555387
 11
6.904335309
 21
-5.8523531493
  0
LINE
  5
4BF
100
AcDbEntity
  8
ASSI
100
AcDbLine
 62
250
  6
CONTINUOUS
 10
7.0777444102
 20
6.096226216
 11
7.0769070394
 21
5.9290239783
  0
LINE
  5
4C0
100
AcDbEntity
  8
ASSI
100
AcDbLine
 62
250
  6
CONTINUOUS
 10
6.9033862411
 20
3.9439886352
 11
6.9043031701
 21
4.115703211
  0
LINE
  5
4C1
100
AcDbEntity
  8
ASSI
100
AcDbLine
 62
250
  6
CONTINUOUS
 10
7.0778561073
 20
-3.8673178062
 11
7.0769391783
 21
-4.039032382
  0
LINE
  5
4C2
100
AcDbEntity
  8
ASSI
100
AcDbLine
 62
250
  6
CONTINUOUS
 10
5.8258222496
 20
-15.8509868345
 11
5.8257496075
 21
-15.8604600729
  0
LINE
  5
4C3
100
AcDbEntity
  8
ASSI
100
AcDbLine
 62
250
  6
CONTINUOUS
 10
6.6042178507
 20
-5.7501354244
 11
6.6046010566
 21
-5.6924394719
  0
LINE
  5
4C4
100
AcDbEntity
  8
ASSI
100
AcDbLine
 62
250
  6
CONTINUOUS
 10
7.3770244977
 20
5.8268062534
 11
7.3766412918
 21
5.769110301
  0
LINE
  5
4C5
100
AcDbEntity
  8
ASSI
100
AcDbLine
 62
250
  6
CONTINUOUS
 10
6.8845988493
 20
3.1668737631
 11
6.8852262141
 21
3.2510335481
  0
LINE
  5
4C6
100
AcDbEntity
  8
ASSI
100
AcDbLine
 62
250
  6
CONTINUOUS
 10
7.0966434991
 20
-3.0902029341
 11
7.0960161343
 21
-3.1743627191
  0
LINE
  5
4C7
100
AcDbEntity
  8
ASSI
100
AcDbLine
 62
250
  6
CONTINUOUS
 10
6.5849054999
 20
3.2871873742
 11
6.5863040726
 21
3.4803397881
  0
LINE
  5
4C8
100
AcDbEntity
  8
ASSI
100
AcDbLine
 62
250
  6
CONTINUOUS
 10
7.3963368485
 20
-3.2105165452
 11
7.3949382758
 21
-3.4036689591
  0
LINE
  5
4C9
100
AcDbEntity
  8
ASSI
100
AcDbLine
 62
250
  6
CONTINUOUS
 10
5.7961666613
 20
-17.5867091998
 11
5.796068189
 21
-17.5994141861
  0
LINE
  5
4CA
100
AcDbEntity
  8
ASSI
100
AcDbLine
 62
250
  6
CONTINUOUS
 10
6.9029208551
 20
-6.0811887101
 11
6.9034979382
 21
-6.019555387
  0
LINE
  5
4CB
100
AcDbEntity
  8
ASSI
100
AcDbLine
 62
250
  6
CONTINUOUS
 10
7.0783214934
 20
6.1578595391
 11
7.0777444102
 21
6.096226216
  0
LINE
  5
4CC
100
AcDbEntity
  8
ASSI
100
AcDbLine
 62
250
  6
CONTINUOUS
 10
6.604046029
 20
4.2123970827
 11
6.6044669427
 21
4.2588179685
  0
LINE
  5
4CD
100
AcDbEntity
  8
ASSI
100
AcDbLine
 62
250
  6
CONTINUOUS
 10
6.9028854181
 20
3.8939978472
 11
6.9033862411
 21
3.9439886352
  0
LINE
  5
4CE
100
AcDbEntity
  8
ASSI
100
AcDbLine
 62
250
  6
CONTINUOUS
 10
7.0783569303
 20
-3.8173270182
 11
7.0778561073
 21
-3.8673178062
  0
LINE
  5
4CF
100
AcDbEntity
  8
ASSI
100
AcDbLine
 62
250
  6
CONTINUOUS
 10
7.3771963194
 20
-4.1357262537
 11
7.3767754057
 21
-4.1821471395
  0
LINE
  5
4D0
100
AcDbEntity
  8
ASSI
100
AcDbLine
 62
250
  6
CONTINUOUS
 10
6.5863040726
 20
3.4803397881
 11
6.5877107558
 21
3.5949912437
  0
LINE
  5
4D1
100
AcDbEntity
  8
ASSI
100
AcDbLine
 62
250
  6
CONTINUOUS
 10
7.3949382758
 20
-3.4036689591
 11
7.3935315926
 21
-3.5183204147
  0
LINE
  5
4D2
100
AcDbEntity
  8
ASSI
100
AcDbLine
 62
250
  6
CONTINUOUS
 10
5.8259266339
 20
-15.8426038229
 11
5.8258222496
 21
-15.8509868345
  0
LINE
  5
4D3
100
AcDbEntity
  8
ASSI
100
AcDbLine
 62
250
  6
CONTINUOUS
 10
6.6037982866
 20
-5.7837023139
 11
6.6042178507
 21
-5.7501354244
  0
LINE
  5
4D4
100
AcDbEntity
  8
ASSI
100
AcDbLine
 62
250
  6
CONTINUOUS
 10
7.3774440618
 20
5.8603731429
 11
7.3770244977
 21
5.8268062534
  0
LINE
  5
4D5
100
AcDbEntity
  8
ASSI
100
AcDbLine
 62
250
  6
CONTINUOUS
 10
6.8852262141
 20
3.2510335481
 11
6.8862552812
 21
3.329988458
  0
LINE
  5
4D6
100
AcDbEntity
  8
ASSI
100
AcDbLine
 62
250
  6
CONTINUOUS
 10
7.0960161343
 20
-3.1743627191
 11
7.0949870672
 21
-3.253317629
  0
LINE
  5
4D7
100
AcDbEntity
  8
ASSI
100
AcDbLine
 62
250
  6
CONTINUOUS
 10
5.7962650229
 20
-17.5793098984
 11
5.7961666613
 21
-17.5867091998
  0
LINE
  5
4D8
100
AcDbEntity
  8
ASSI
100
AcDbLine
 62
250
  6
CONTINUOUS
 10
6.6036541935
 20
4.1855935045
 11
6.604046029
 21
4.2123970827
  0
LINE
  5
4D9
100
AcDbEntity
  8
ASSI
100
AcDbLine
 62
250
  6
CONTINUOUS
 10
7.3775881549
 20
-4.1089226754
 11
7.3771963194
 21
-4.1357262537
  0
LWPOLYLINE
  5
4DA
100
AcDbEntity
  8
ASSI
100
AcDbPolyline
 62
250
  6
CONTINUOUS
 90
3
 70
0
 10
6.5877107558
 20
3.5949912437
 10
6.5894196454
 20
3.692929927
 10
6.5903790948
 20
3.735048001
  0
LWPOLYLINE
  5
4DB
100
AcDbEntity
  8
ASSI
100
AcDbPolyline
 62
250
  6
CONTINUOUS
 90
3
 70
0
 10
7.3935315926
 20
-3.5183204147
 10
7.3918227031
 20
-3.6162590979
 10
7.3908632536
 20
-3.6583771719
  0
LWPOLYLINE
  5
4DC
100
AcDbEntity
  8
ASSI
100
AcDbPolyline
 62
250
  6
CONTINUOUS
 90
6
 70
0
 10
6.8862552812
 20
3.329988458
 10
6.8876573211
 20
3.4014900157
 10
6.8884780764
 20
3.4336640614
 10
6.8893665588
 20
3.4630930197
 10
6.8903288165
 20
3.4895823627
 10
6.8913648496
 20
3.5129415634
  0
LWPOLYLINE
  5
4DD
100
AcDbEntity
  8
ASSI
100
AcDbPolyline
 62
250
  6
CONTINUOUS
 90
6
 70
0
 10
7.0949870672
 20
-3.253317629
 10
7.0935850273
 20
-3.3248191867
 10
7.092764272
 20
-3.3569932324
 10
7.0918757896
 20
-3.3864221907
 10
7.0909135319
 20
-3.4129115337
 10
7.0898774988
 20
-3.4362707344
  0
LINE
  5
4DE
100
AcDbEntity
  8
ASSI
100
AcDbLine
 62
250
  6
CONTINUOUS
 10
6.6031907605
 20
4.1633220418
 11
6.6036541935
 21
4.1855935045
  0
LINE
  5
4DF
100
AcDbEntity
  8
ASSI
100
AcDbLine
 62
250
  6
CONTINUOUS
 10
7.3780515879
 20
-4.0866512128
 11
7.3775881549
 21
-4.1089226754
  0
LINE
  5
4E0
100
AcDbEntity
  8
ASSI
100
AcDbLine
 62
250
  6
CONTINUOUS
 10
6.5903790948
 20
3.735048001
 11
6.6031907605
 21
4.1633220418
  0
LINE
  5
4E1
100
AcDbEntity
  8
ASSI
100
AcDbLine
 62
250
  6
CONTINUOUS
 10
6.8913649208
 20
3.5129415635
 11
6.9028854181
 21
3.8939978472
  0
LINE
  5
4E2
100
AcDbEntity
  8
ASSI
100
AcDbLine
 62
250
  6
CONTINUOUS
 10
7.0898774276
 20
-3.4362707345
 11
7.0783569303
 21
-3.8173270182
  0
LINE
  5
4E3
100
AcDbEntity
  8
ASSI
100
AcDbLine
 62
250
  6
CONTINUOUS
 10
7.3908632536
 20
-3.6583771719
 11
7.3780515879
 21
-4.0866512128
  0
LWPOLYLINE
  5
4E4
100
AcDbEntity
  8
ASSI
100
AcDbPolyline
 62
250
  6
CONTINUOUS
 90
5
 70
0
 10
5.5766042509
 20
-15.5757173679
 10
5.5765122318
 20
-15.577857759
 10
5.5764232458
 20
-15.5831993232
 10
5.5763372927
 20
-15.5916794364
 10
5.5760976312
 20
-15.6348294091
  0
LWPOLYLINE
  5
4E5
100
AcDbEntity
  8
ASSI
100
AcDbPolyline
 62
7
  6
CONTINUOUS
 90
16
 70
0
 10
5.0338612189
 20
-15.804866554
 10
5.0352127414
 20
-15.7787278732
 10
5.0392876127
 20
-15.7528815469
 10
5.0460400069
 20
-15.7276099939
 10
5.055396115
 20
-15.7031860233
 10
5.067251905
 20
-15.679879691
 10
5.081471157
 20
-15.6579538061
 10
5.0978809471
 20
-15.6376613839
 10
5.1163096365
 20
-15.6192024966
 10
5.1365967889
 20
-15.6027438049
 10
5.1585578141
 20
-15.5884581637
 10
5.1819335782
 20
-15.576535238
 10
5.2064275602
 20
-15.5671317773
 10
5.2317541357
 20
-15.5603525842
 10
5.2576490083
 20
-15.5562640364
 10
5.2838276664
 20
-15.5549091539
  0
LWPOLYLINE
  5
4E6
100
AcDbEntity
  8
ASSI
100
AcDbPolyline
 62
7
  6
CONTINUOUS
 90
16
 70
0
 10
6.5806534767
 20
5.9483488035
 10
6.5823007952
 20
5.9796491843
 10
6.5872114908
 20
6.0106138091
 10
6.5953351253
 20
6.0409038072
 10
6.6065924502
 20
6.0702008444
 10
6.6208599755
 20
6.0981680629
 10
6.6379569849
 20
6.1244608674
 10
6.6576531747
 20
6.1487593251
 10
6.6797516702
 20
6.1708504976
 10
6.7040920746
 20
6.1905668369
 10
6.7304816006
 20
6.2077087324
 10
6.7585932586
 20
6.2220236512
 10
6.7880390247
 20
6.2333054998
 10
6.818462039
 20
6.2414288831
 10
6.8495548306
 20
6.24632172
 10
6.8809753097
 20
6.2479355875
  0
LWPOLYLINE
  5
4E7
100
AcDbEntity
  8
ASSI
100
AcDbPolyline
 62
7
  6
CONTINUOUS
 90
16
 70
0
 10
7.3997553284
 20
-5.8708444312
 10
7.3981108005
 20
-5.9021582702
 10
7.3932070633
 20
-5.9331429303
 10
7.385094436
 20
-5.9634591799
 10
7.373852269
 20
-5.9927890126
 10
7.3596038039
 20
-6.0207944074
 10
7.342529553
 20
-6.047128326
 10
7.3228597877
 20
-6.0714714033
 10
7.300792182
 20
-6.0936097294
 10
7.2764893915
 20
-6.1133721237
 10
7.2501454193
 20
-6.1305602793
 10
7.2220880576
 20
-6.1449225596
 10
7.1927080822
 20
-6.1562509585
 10
7.1623637913
 20
-6.1644219205
 10
7.1313620796
 20
-6.1693675148
 10
7.1000445162
 20
-6.1710422361
  0
LWPOLYLINE
  5
4E8
100
AcDbEntity
  8
ASSI
100
AcDbPolyline
 62
250
  6
CONTINUOUS
 90
13
 70
0
 10
5.054676616
 20
-15.8256819511
 10
5.0568241826
 20
-15.7930616618
 10
5.0632102796
 20
-15.7609992985
 10
5.0737256815
 20
-15.7300432449
 10
5.0881905366
 20
-15.7007229623
 10
5.1063574429
 20
-15.6735399348
 10
5.1279156801
 20
-15.6489590914
 10
5.1524965235
 20
-15.6274008542
 10
5.179679551
 20
-15.6092339479
 10
5.2089998336
 20
-15.5947690928
 10
5.2399558873
 20
-15.5842536909
 10
5.2720182505
 20
-15.5778675939
 10
5.3046385398
 20
-15.5757200273
  0
LWPOLYLINE
  5
4E9
100
AcDbEntity
  8
ASSI
100
AcDbPolyline
 62
250
  6
CONTINUOUS
 90
13
 70
0
 10
6.6012465296
 20
5.9277557506
 10
6.6038236094
 20
5.9669000975
 10
6.6114869258
 20
6.0053749332
 10
6.6241054079
 20
6.0425221973
 10
6.6414632337
 20
6.077706536
 10
6.6632635209
 20
6.1103261688
 10
6.6891334051
 20
6.1398231808
 10
6.7186304169
 20
6.1656930656
 10
6.7512500498
 20
6.1874933534
 10
6.7864343889
 20
6.2048511798
 10
6.8235816536
 20
6.2174696625
 10
6.8620564901
 20
6.2251329792
 10
6.9012008381
 20
6.2277100591
  0
LWPOLYLINE
  5
4EA
100
AcDbEntity
  8
ASSI
100
AcDbPolyline
 62
250
  6
CONTINUOUS
 90
13
 70
0
 10
5.0844865468
 20
-17.5639099544
 10
5.086715462
 20
-17.5318356526
 10
5.0931668406
 20
-17.5003080385
 10
5.1037307228
 20
-17.4698644816
 10
5.1182270534
 20
-17.4410238745
 10
5.1364087509
 20
-17.4142777884
 10
5.157965919
 20
-17.3900820946
 10
5.1825311284
 20
-17.3688491944
 10
5.2096856796
 20
-17.3509409902
 10
5.2389667393
 20
-17.3366627168
 10
5.2698752289
 20
-17.326257739
 10
5.3018843314
 20
-17.3199034035
 10
5.3344484705
 20
-17.3177080161
  0
LWPOLYLINE
  5
4EB
100
AcDbEntity
  8
ASSI
100
AcDbPolyline
 62
7
  6
CONTINUOUS
 90
16
 70
0
 10
5.0555341376
 20
-17.2714394933
 10
5.0569331819
 20
-17.2523202396
 10
5.0604070025
 20
-17.2334136622
 10
5.0660237424
 20
-17.2147197612
 10
5.0738183386
 20
-17.1960580247
 10
5.0838244888
 20
-17.1776089645
 10
5.0961035315
 20
-17.1599141156
 10
5.1106280526
 20
-17.1429409364
 10
5.1273891438
 20
-17.1267219685
 10
5.1465116442
 20
-17.1118963713
 10
5.167970114
 20
-17.0983741352
 10
5.1916293965
 20
-17.0862452697
 10
5.2174496197
 20
-17.0764189633
 10
5.245260725
 20
-17.0691982784
 10
5.2747324439
 20
-17.0642801525
 10
5.3054960614
 20
-17.0616645855
  0
LWPOLYLINE
  5
4EC
100
AcDbEntity
  8
ASSI
100
AcDbPolyline
 62
250
  6
CONTINUOUS
 90
7
 70
0
 10
5.7967558016
 20
-17.5639099544
 10
5.7966751531
 20
-17.5649636489
 10
5.7965978749
 20
-17.5664046126
 10
5.7965239672
 20
-17.5682328454
 10
5.7964528608
 20
-17.5704715213
 10
5.7963851248
 20
-17.5730974663
 10
5.7962650229
 20
-17.5793098984
  0
LWPOLYLINE
  5
4ED
100
AcDbEntity
  8
ASSI
100
AcDbPolyline
 62
250
  6
CONTINUOUS
 90
13
 70
0
 10
6.5914107667
 20
-3.6960834617
 10
6.5942886925
 20
-3.6623553547
 10
6.6021940146
 20
-3.6291985325
 10
6.6149927295
 20
-3.5971740675
 10
6.63246802
 20
-3.5668238544
 10
6.6543239775
 20
-3.5386613603
 10
6.6801906558
 20
-3.5131629599
 10
6.7096302072
 20
-3.4907600176
 10
6.7421443916
 20
-3.4718314656
 10
6.7771831258
 20
-3.456697384
 10
6.8141535649
 20
-3.4456137345
 10
6.852430094
 20
-3.4387679778
 10
6.8913650752
 20
-3.43627584
  0
LWPOLYLINE
  5
4EE
100
AcDbEntity
  8
ASSI
100
AcDbPolyline
 62
250
  6
CONTINUOUS
 90
13
 70
0
 10
6.6029311095
 20
-4.0771346393
 10
6.605808641
 20
-4.0434089786
 10
6.6137129985
 20
-4.0102539887
 10
6.6265104328
 20
-3.978230684
 10
6.6439843988
 20
-3.9478809297
 10
6.6658392202
 20
-3.9197182731
 10
6.6917050923
 20
-3.8942192535
 10
6.7211443395
 20
-3.871815339
 10
6.7536588214
 20
-3.8528856254
 10
6.7886983615
 20
-3.8377504217
 10
6.8256700568
 20
-3.8266658303
 10
6.8639483107
 20
-3.8198194131
 10
6.9028854181
 20
-3.8173270182
  0
LWPOLYLINE
  5
4EF
100
AcDbEntity
  8
ASSI
100
AcDbPolyline
 62
250
  6
CONTINUOUS
 90
13
 70
0
 10
7.3783112389
 20
4.1538054683
 10
7.3754337074
 20
4.1200798076
 10
7.3675293499
 20
4.0869248177
 10
7.3547319156
 20
4.054901513
 10
7.3372579496
 20
4.0245517587
 10
7.3154031282
 20
3.9963891021
 10
7.2895372561
 20
3.9708900826
 10
7.2600980089
 20
3.948486168
 10
7.227583527
 20
3.9295564544
 10
7.192543987
 20
3.9144212507
 10
7.1555722916
 20
3.9033366593
 10
7.1172940377
 20
3.8964902422
 10
7.0783569303
 20
3.8939978472
  0
LWPOLYLINE
  5
4F0
100
AcDbEntity
  8
ASSI
100
AcDbPolyline
 62
250
  6
CONTINUOUS
 90
13
 70
0
 10
7.3898315817
 20
3.7727542907
 10
7.3869536559
 20
3.7390261837
 10
7.3790483338
 20
3.7058693616
 10
7.3662496189
 20
3.6738448965
 10
7.3487743284
 20
3.6434946835
 10
7.3269183709
 20
3.6153321893
 10
7.3010516926
 20
3.5898337889
 10
7.2716121412
 20
3.5674308466
 10
7.2390979568
 20
3.5485022946
 10
7.2040592226
 20
3.533368213
 10
7.1670887835
 20
3.5222845635
 10
7.1288122544
 20
3.5154388068
 10
7.0898772732
 20
3.512946669
  0
LINE
  5
4F1
100
AcDbEntity
  8
ASSI
100
AcDbLine
 62
250
  6
CONTINUOUS
 10
5.5721402808
 20
-17.0616645855
 11
5.5467937717
 21
-17.3177090886
  0
LINE
  5
4F2
100
AcDbEntity
  8
ASSI
100
AcDbLine
 62
250
  6
CONTINUOUS
 10
5.8257082108
 20
-17.2714394933
 11
5.7967558016
 21
-17.5639099544
  0
LWPOLYLINE
  5
4F3
100
AcDbEntity
  8
ASSI
100
AcDbPolyline
 62
250
  6
CONTINUOUS
 90
5
 70
0
 10
7.0800415103
 20
6.2277100591
 10
7.0796749319
 20
6.2241297894
 10
7.0793203189
 20
6.2152314402
 10
7.0789776713
 20
6.2011103592
 10
7.0783214934
 20
6.1578595391
  0
LWPOLYLINE
  5
4F4
100
AcDbEntity
  8
ASSI
100
AcDbPolyline
 62
250
  6
CONTINUOUS
 90
5
 70
0
 10
6.9012008381
 20
-6.1510392301
 10
6.9015674165
 20
-6.1474589604
 10
6.9019220295
 20
-6.1385606112
 10
6.9022646771
 20
-6.1244395302
 10
6.9029208551
 20
-6.0811887101
  0
LINE
  5
4F5
100
AcDbEntity
  8
ASSI
100
AcDbLine
 62
7
  6
CONTINUOUS
 10
9.6854502752
 20
20.4102455024
 11
9.7290477573
 21
20.7169242644
  0
LWPOLYLINE
  5
4F6
100
AcDbEntity
  8
ASSI
100
AcDbPolyline
 62
250
  6
CONTINUOUS
 90
8
 70
0
 10
7.3799958188
 20
5.9277557506
 10
7.3796316226
 20
5.9262654866
 10
7.3792785655
 20
5.9227505389
 10
7.3789366474
 20
5.9172109074
 10
7.37860218
 20
5.9095435857
 10
7.3782788517
 20
5.8998515802
 10
7.3779777272
 20
5.8884439104
 10
7.3774440618
 20
5.8603731429
  0
LINE
  5
4F7
100
AcDbEntity
  8
ASSI
100
AcDbLine
 62
7
  6
CONTINUOUS
 10
6.5799849488
 20
-1.3515013823
 11
6.5844287407
 21
-1.3470575904
  0
LINE
  5
4F8
100
AcDbEntity
  8
ASSI
100
AcDbLine
 62
250
  6
CONTINUOUS
 10
-5.602585318
 20
-15.5549091539
 11
-5.6233934921
 21
-15.575717328
  0
LINE
  5
4F9
100
AcDbEntity
  8
ASSI
100
AcDbLine
 62
7
  6
CONTINUOUS
 10
10.9406211742
 20
13.1383354145
 11
9.7406211742
 21
13.1383354145
  0
LINE
  5
4FA
100
AcDbEntity
  8
ASSI
100
AcDbLine
 62
7
  6
CONTINUOUS
 10
-10.0593788258
 20
13.1383354145
 11
-11.2593788258
 21
13.1383354145
  0
LINE
  5
4FB
100
AcDbEntity
  8
ASSI
100
AcDbLine
 62
7
  6
CONTINUOUS
 10
9.7237442752
 20
13.9883354145
 11
9.3406211742
 21
13.9883354145
  0
LINE
  5
4FC
100
AcDbEntity
  8
ASSI
100
AcDbLine
 62
7
  6
CONTINUOUS
 10
-9.6593788258
 20
13.9883354145
 11
-10.0425019267
 21
13.9883354145
  0
LINE
  5
4FD
100
AcDbEntity
  8
ASSI
100
AcDbLine
 62
250
  6
CONTINUOUS
 10
6.9012008381
 20
6.2277100591
 11
6.8809753097
 21
6.2479355875
  0
LINE
  5
4FE
100
AcDbEntity
  8
ASSI
100
AcDbLine
 62
7
  6
CONTINUOUS
 10
9.6854502752
 20
-20.3335746734
 11
9.7290477573
 21
-20.6402534353
  0
LINE
  5
4FF
100
AcDbEntity
  8
ASSI
100
AcDbLine
 62
7
  6
CONTINUOUS
 10
7.6490461672
 20
22.1976481202
 11
7.7238399034
 21
20.7169242644
  0
LINE
  5
500
100
AcDbEntity
  8
ASSI
100
AcDbLine
 62
7
  6
CONTINUOUS
 10
9.7290477573
 20
20.7169242644
 11
9.7406211742
 21
13.1383354145
  0
LINE
  5
501
100
AcDbEntity
  8
ASSI
100
AcDbLine
 62
7
  6
CONTINUOUS
 10
9.6813961025
 20
-13.9116848352
 11
9.6854502752
 21
-20.3335746734
  0
LINE
  5
502
100
AcDbEntity
  8
ASSI
100
AcDbLine
 62
7
  6
CONTINUOUS
 10
7.9406211742
 20
0.1983354145
 11
7.9406211742
 21
1.4157904794
  0
LINE
  5
503
100
AcDbEntity
  8
ASSI
100
AcDbLine
 62
7
  6
CONTINUOUS
 10
7.9406211742
 20
-0.1216645855
 11
7.9406211742
 21
-1.3391196504
  0
LINE
  5
504
100
AcDbEntity
  8
ASSI
100
AcDbLine
 62
7
  6
CONTINUOUS
 10
9.3406211742
 20
13.9883354145
 11
9.3406211742
 21
10.4883354145
  0
LINE
  5
505
100
AcDbEntity
  8
ASSI
100
AcDbLine
 62
7
  6
CONTINUOUS
 10
9.3406211742
 20
-13.9116645855
 11
9.3406211742
 21
-10.4116645855
  0
LINE
  5
506
100
AcDbEntity
  8
ASSI
100
AcDbLine
 62
7
  6
CONTINUOUS
 10
9.677847371
 20
-1.3477827523
 11
9.6798380129
 21
-10.4116821691
  0
LINE
  5
507
100
AcDbEntity
  8
ASSI
100
AcDbLine
 62
7
  6
CONTINUOUS
 10
9.6865104729
 20
1.4157904794
 11
9.6865104729
 21
0.1983354145
  0
LINE
  5
508
100
AcDbEntity
  8
ASSI
100
AcDbLine
 62
7
  6
CONTINUOUS
 10
9.6865104729
 20
-1.3391196504
 11
9.6865104729
 21
-0.1216645855
  0
LINE
  5
509
100
AcDbEntity
  8
ASSI
100
AcDbLine
 62
7
  6
CONTINUOUS
 10
9.7237442752
 20
13.9883354145
 11
9.7237442752
 21
10.4883354145
  0
LINE
  5
50A
100
AcDbEntity
  8
ASSI
100
AcDbLine
 62
7
  6
CONTINUOUS
 10
9.7237442752
 20
-13.9116645855
 11
9.7237442752
 21
-10.4116645855
  0
LINE
  5
50B
100
AcDbEntity
  8
ASSI
100
AcDbLine
 62
7
  6
CONTINUOUS
 10
9.7406211742
 20
-0.0946112953
 11
9.7406211742
 21
-13.0616645855
  0
LINE
  5
50C
100
AcDbEntity
  8
ASSI
100
AcDbLine
 62
7
  6
CONTINUOUS
 10
9.7406211742
 20
0.1712821244
 11
9.7406211742
 21
13.1383354145
  0
LINE
  5
50D
100
AcDbEntity
  8
ASSI
100
AcDbLine
 62
7
  6
CONTINUOUS
 10
9.6798380129
 20
10.4883529981
 11
9.677847371
 21
1.4244535813
  0
LINE
  5
50E
100
AcDbEntity
  8
ASSI
100
AcDbLine
 62
7
  6
CONTINUOUS
 10
9.6854502752
 20
20.4102455024
 11
9.6813961025
 21
13.9883556642
  0
LINE
  5
50F
100
AcDbEntity
  8
ASSI
100
AcDbLine
 62
7
  6
CONTINUOUS
 10
9.7290477573
 20
-20.6402534353
 11
9.7406211742
 21
-13.0616645855
  0
LINE
  5
510
100
AcDbEntity
  8
ASSI
100
AcDbLine
 62
7
  6
CONTINUOUS
 10
7.7238399034
 20
-20.6402534353
 11
7.6490461672
 21
-22.1209772912
  0
LWPOLYLINE
  5
511
100
AcDbEntity
  8
ASSI
100
AcDbPolyline
 62
250
  6
CONTINUOUS
 90
13
 70
0
 10
7.3799958188
 20
-5.8510849215
 10
7.377418739
 20
-5.8902292685
 10
7.3697554226
 20
-5.9287041041
 10
7.3571369405
 20
-5.9658513683
 10
7.3397791147
 20
-6.001035707
 10
7.3179788275
 20
-6.0336553398
 10
7.2921089433
 20
-6.0631523518
 10
7.2626119315
 20
-6.0890222366
 10
7.2299922986
 20
-6.1108225244
 10
7.1948079595
 20
-6.1281803508
 10
7.1576606948
 20
-6.1407988335
 10
7.1191858583
 20
-6.1484621502
 10
7.0800415103
 20
-6.1510392301
  0
LINE
  5
512
100
AcDbEntity
  8
ASSI
100
AcDbLine
 62
7
  6
CONTINUOUS
 10
5.8434486414
 20
-20.3088646739
 11
5.8109475638
 21
-20.5374877441
  0
LWPOLYLINE
  5
513
100
AcDbEntity
  8
ASSI
100
AcDbPolyline
 62
250
  6
CONTINUOUS
 90
13
 70
0
 10
5.7961163706
 20
-17.9162870998
 10
5.7935097442
 20
-17.9299414061
 10
5.786755491
 20
-17.9433667584
 10
5.7759668656
 20
-17.9563380419
 10
5.7613247705
 20
-17.9686377557
 10
5.7430747228
 20
-17.9800596593
 10
5.7215227373
 20
-17.9904122315
 10
5.6970301954
 20
-17.9995218816
 10
5.6700077853
 20
-18.0072358599
 10
5.6409086158
 20
-18.0134248193
 10
5.6102206188
 20
-18.0179849839
 10
5.5784583671
 20
-18.0208398895
 10
5.5461544468
 20
-18.0219416652
  0
LWPOLYLINE
  5
514
100
AcDbEntity
  8
ASSI
100
AcDbPolyline
 62
250
  6
CONTINUOUS
 90
8
 70
0
 10
6.6012465296
 20
-5.8510849215
 10
6.6016107258
 20
-5.8495946576
 10
6.6019637829
 20
-5.8460797099
 10
6.602305701
 20
-5.8405400784
 10
6.6026401684
 20
-5.8328727567
 10
6.6029634967
 20
-5.8231807512
 10
6.6032646212
 20
-5.8117730814
 10
6.6037982866
 20
-5.7837023139
  0
LINE
  5
515
100
AcDbEntity
  8
ASSI
100
AcDbLine
 62
250
  6
CONTINUOUS
 10
-5.3526188705
 20
-15.804866554
 11
-5.3734342676
 21
-15.8256819511
  0
LINE
  5
516
100
AcDbEntity
  8
ASSI
100
AcDbLine
 62
7
  6
CONTINUOUS
 10
9.6865104729
 20
-1.3391196504
 11
9.677847371
 21
-1.3477827523
  0
LINE
  5
517
100
AcDbEntity
  8
ASSI
100
AcDbLine
 62
250
  6
CONTINUOUS
 10
6.5806534767
 20
-5.8716779744
 11
6.6012465296
 21
-5.8510849215
  0
LINE
  5
518
100
AcDbEntity
  8
ASSI
100
AcDbLine
 62
7
  6
CONTINUOUS
 10
5.2838276664
 20
15.6315799829
 11
5.5971914476
 21
15.6318032173
  0
LINE
  5
519
100
AcDbEntity
  8
ASSI
100
AcDbLine
 62
250
  6
CONTINUOUS
 10
-5.8953641595
 20
15.652388157
 11
-5.6233934848
 21
15.6523881497
  0
LINE
  5
51A
100
AcDbEntity
  8
ASSI
100
AcDbLine
 62
250
  6
CONTINUOUS
 10
5.3046358405
 20
15.652388157
 11
5.5766065152
 21
15.6523881497
  0
LINE
  5
51B
100
AcDbEntity
  8
ASSI
100
AcDbLine
 62
250
  6
CONTINUOUS
 10
-6.1444658624
 20
15.9523451649
 11
-5.3742917892
 21
15.9523451649
  0
LINE
  5
51C
100
AcDbEntity
  8
ASSI
100
AcDbLine
 62
250
  6
CONTINUOUS
 10
5.0555341376
 20
15.9523451649
 11
5.8257082108
 21
15.9523451649
  0
LINE
  5
51D
100
AcDbEntity
  8
ASSI
100
AcDbLine
 62
7
  6
CONTINUOUS
 10
-5.9159490992
 20
15.6318032173
 11
-5.602585318
 21
15.6315799829
  0
LWPOLYLINE
  5
51E
100
AcDbEntity
  8
ASSI
100
AcDbPolyline
 62
7
  6
CONTINUOUS
 90
16
 70
0
 10
5.2838276664
 20
15.6315799829
 10
5.2576490083
 20
15.6329348654
 10
5.2317541357
 20
15.6370234132
 10
5.2064275602
 20
15.6438026063
 10
5.1819335782
 20
15.653206067
 10
5.1585578141
 20
15.6651289928
 10
5.1365967889
 20
15.6794146339
 10
5.1163096365
 20
15.6958733257
 10
5.0978809471
 20
15.7143322129
 10
5.081471157
 20
15.7346246351
 10
5.067251905
 20
15.75655052
 10
5.055396115
 20
15.7798568523
 10
5.0460400069
 20
15.804280823
 10
5.0392876127
 20
15.8295523759
 10
5.0352127414
 20
15.8553987022
 10
5.0338612189
 20
15.881537383
  0
LWPOLYLINE
  5
51F
100
AcDbEntity
  8
ASSI
100
AcDbPolyline
 62
7
  6
CONTINUOUS
 90
16
 70
0
 10
-5.9159490992
 20
15.6318032173
 10
-5.9420760079
 20
15.6331945624
 10
-5.9679228302
 20
15.6373159035
 10
-5.9932053347
 20
15.6441249418
 10
-6.0176590819
 20
15.6535564611
 10
-6.0409987041
 20
15.6655059964
 10
-6.0629283889
 20
15.6798161883
 10
-6.0831888059
 20
15.6962977615
 10
-6.101595017
 20
15.7147785397
 10
-6.1179869576
 20
15.7350915084
 10
-6.1321924043
 20
15.7570365656
 10
-6.1440380242
 20
15.7803612874
 10
-6.1533878566
 20
15.8048034387
 10
-6.1601371833
 20
15.8300932231
 10
-6.1642109143
 20
15.8559576074
 10
-6.1655622759
 20
15.8821138882
  0
LWPOLYLINE
  5
520
100
AcDbEntity
  8
ASSI
100
AcDbPolyline
 62
250
  6
CONTINUOUS
 90
13
 70
0
 10
5.7961163706
 20
17.9929579288
 10
5.7935097435
 20
18.0066122366
 10
5.7867554886
 20
18.0200375901
 10
5.7759668609
 20
18.0330088744
 10
5.7613247632
 20
18.0453085886
 10
5.743074713
 20
18.0567304922
 10
5.7215227255
 20
18.067083064
 10
5.6970301828
 20
18.0761927133
 10
5.670007773
 20
18.0839066907
 10
5.6409086051
 20
18.0900956492
 10
5.6102206106
 20
18.0946558132
 10
5.5784583625
 20
18.0975107184
 10
5.5461544468
 20
18.0986124942
  0
LINE
  5
521
100
AcDbEntity
  8
ASSI
100
AcDbLine
 62
7
  6
CONTINUOUS
 10
5.8434486414
 20
20.3855355029
 11
5.8109475638
 21
20.6141585732
  0
LINE
  5
522
100
AcDbEntity
  8
ASSI
100
AcDbLine
 62
7
  6
CONTINUOUS
 10
10.921006807
 20
21.6999299659
 11
10.9406211742
 21
13.1383354145
  0
LINE
  5
523
100
AcDbEntity
  8
ASSI
100
AcDbLine
 62
7
  6
CONTINUOUS
 10
10.9406211742
 20
-13.0616645855
 11
10.9406211742
 21
-0.4945351496
  0
LINE
  5
524
100
AcDbEntity
  8
ASSI
100
AcDbLine
 62
7
  6
CONTINUOUS
 10
10.9406211742
 20
0.5712059786
 11
10.9406211742
 21
13.1383354145
  0
LINE
  5
525
100
AcDbEntity
  8
ASSI
100
AcDbLine
 62
7
  6
CONTINUOUS
 10
10.921006807
 20
-21.6232591369
 11
10.9406211742
 21
-13.0616645855
  0
LWPOLYLINE
  5
526
100
AcDbEntity
  8
ASSI
100
AcDbPolyline
 62
250
  6
CONTINUOUS
 90
8
 70
0
 10
5.8265657324
 20
-15.8256819511
 10
5.8264736649
 20
-15.8260698257
 10
5.8263846763
 20
-15.8269625739
 10
5.8262987665
 20
-15.828360196
 10
5.8262150991
 20
-15.8302890955
 10
5.8261345105
 20
-15.8327228689
 10
5.8260595102
 20
-15.8355823044
 10
5.8259266339
 20
-15.8426038229
  0
LINE
  5
527
100
AcDbEntity
  8
ASSI
100
AcDbLine
 62
250
  6
CONTINUOUS
 10
6.8809753097
 20
-6.1712647585
 11
6.9012008381
 21
-6.1510392301
  0
LINE
  5
528
100
AcDbEntity
  8
ASSI
100
AcDbLine
 62
7
  6
CONTINUOUS
 10
7.2406211742
 20
20.6141585732
 11
7.7238399034
 21
20.7169242644
  0
LINE
  5
529
100
AcDbEntity
  8
ASSI
100
AcDbLine
 62
7
  6
CONTINUOUS
 10
-5.6278597192
 20
17.1383354145
 11
-5.8908979324
 21
17.1383354145
  0
LINE
  5
52A
100
AcDbEntity
  8
ASSI
100
AcDbLine
 62
7
  6
CONTINUOUS
 10
5.3091020676
 20
17.1383354145
 11
5.5721402808
 21
17.1383354145
  0
LINE
  5
52B
100
AcDbEntity
  8
ASSI
100
AcDbLine
 62
250
  6
CONTINUOUS
 10
-5.8655514233
 20
17.3943799176
 11
-5.6532062283
 21
17.3943799176
  0
LINE
  5
52C
100
AcDbEntity
  8
ASSI
100
AcDbLine
 62
250
  6
CONTINUOUS
 10
5.3344485767
 20
17.3943799176
 11
5.5467937717
 21
17.3943799176
  0
LINE
  5
52D
100
AcDbEntity
  8
ASSI
100
AcDbLine
 62
250
  6
CONTINUOUS
 10
-6.114792252
 20
17.6898211711
 11
-5.4039653996
 21
17.6898211711
  0
LINE
  5
52E
100
AcDbEntity
  8
ASSI
100
AcDbLine
 62
250
  6
CONTINUOUS
 10
5.085207748
 20
17.6898211711
 11
5.7960346004
 21
17.6898211711
  0
LINE
  5
52F
100
AcDbEntity
  8
ASSI
100
AcDbLine
 62
250
  6
CONTINUOUS
 10
-6.114792252
 20
17.9718270157
 11
-5.4039653996
 21
17.9718270157
  0
LINE
  5
530
100
AcDbEntity
  8
ASSI
100
AcDbLine
 62
250
  6
CONTINUOUS
 10
5.085207748
 20
17.9718270157
 11
5.7960346004
 21
17.9718270157
  0
LINE
  5
531
100
AcDbEntity
  8
ASSI
100
AcDbLine
 62
250
  6
CONTINUOUS
 10
-5.864912099
 20
18.0986125633
 11
-5.6538455532
 21
18.0986124942
  0
LINE
  5
532
100
AcDbEntity
  8
ASSI
100
AcDbLine
 62
250
  6
CONTINUOUS
 10
5.335087901
 20
18.0986125633
 11
5.5461544468
 21
18.0986124942
  0
LINE
  5
533
100
AcDbEntity
  8
ASSI
100
AcDbLine
 62
7
  6
CONTINUOUS
 10
-3.9593788258
 20
20.6141585732
 11
-3.4761600966
 21
20.7169242644
  0
LINE
  5
534
100
AcDbEntity
  8
ASSI
100
AcDbLine
 62
7
  6
CONTINUOUS
 10
-7.5593788258
 20
20.6141585732
 11
-8.042597555
 21
20.7169242644
  0
LINE
  5
535
100
AcDbEntity
  8
ASSI
100
AcDbLine
 62
250
  6
CONTINUOUS
 10
5.5766065152
 20
15.6523881497
 11
5.5971914476
 21
15.6318032173
  0
LINE
  5
536
100
AcDbEntity
  8
ASSI
100
AcDbLine
 62
250
  6
CONTINUOUS
 10
5.8265657324
 20
15.9023527801
 11
5.8468046243
 21
15.8821138882
  0
LINE
  5
537
100
AcDbEntity
  8
ASSI
100
AcDbLine
 62
250
  6
CONTINUOUS
 10
5.5971914476
 20
-15.5551323883
 11
5.5766065079
 21
-15.575717328
  0
LINE
  5
538
100
AcDbEntity
  8
ASSI
100
AcDbLine
 62
7
  6
CONTINUOUS
 10
7.2406211742
 20
22.1605741843
 11
7.6490461672
 21
22.1976481202
  0
LINE
  5
539
100
AcDbEntity
  8
ASSI
100
AcDbLine
 62
7
  6
CONTINUOUS
 10
-3.9593788258
 20
22.1605741843
 11
-3.5509538328
 21
22.1976481202
  0
LINE
  5
53A
100
AcDbEntity
  8
ASSI
100
AcDbLine
 62
7
  6
CONTINUOUS
 10
5.8434486414
 20
20.3855355029
 11
9.6854502752
 21
20.4102455024
  0
LINE
  5
53B
100
AcDbEntity
  8
ASSI
100
AcDbLine
 62
7
  6
CONTINUOUS
 10
2.7275075574
 20
20.3742949128
 11
5.0372728502
 21
20.3818716278
  0
LINE
  5
53C
100
AcDbEntity
  8
ASSI
100
AcDbLine
 62
7
  6
CONTINUOUS
 10
0.4179636612
 20
20.3710477493
 11
2.7275075574
 21
20.3742949128
  0
LINE
  5
53D
100
AcDbEntity
  8
ASSI
100
AcDbLine
 62
7
  6
CONTINUOUS
 10
-5.6351356029
 20
20.3972930271
 11
-5.8836220487
 21
20.3972930271
  0
LINE
  5
53E
100
AcDbEntity
  8
ASSI
100
AcDbLine
 62
7
  6
CONTINUOUS
 10
5.3163779513
 20
20.3972930271
 11
5.5648643971
 21
20.3972930271
  0
LINE
  5
53F
100
AcDbEntity
  8
ASSI
100
AcDbLine
 62
7
  6
CONTINUOUS
 10
7.2406211742
 20
20.6141585732
 11
5.8109475638
 21
20.6141585732
  0
LINE
  5
540
100
AcDbEntity
  8
ASSI
100
AcDbLine
 62
7
  6
CONTINUOUS
 10
5.0702947846
 20
20.6141585732
 11
3.6406211742
 21
20.6141585732
  0
LINE
  5
541
100
AcDbEntity
  8
ASSI
100
AcDbLine
 62
7
  6
CONTINUOUS
 10
-3.9593788258
 20
20.6141585732
 11
-5.3890524362
 21
20.6141585732
  0
LINE
  5
542
100
AcDbEntity
  8
ASSI
100
AcDbLine
 62
7
  6
CONTINUOUS
 10
-6.1297052154
 20
20.6141585732
 11
-7.5593788258
 21
20.6141585732
  0
LINE
  5
543
100
AcDbEntity
  8
ASSI
100
AcDbLine
 62
7
  6
CONTINUOUS
 10
9.7290477573
 20
20.7169242644
 11
7.7238399034
 21
20.7169242644
  0
LINE
  5
544
100
AcDbEntity
  8
ASSI
100
AcDbLine
 62
7
  6
CONTINUOUS
 10
3.157402445
 20
20.7169242644
 11
-3.4761600966
 21
20.7169242644
  0
LINE
  5
545
100
AcDbEntity
  8
ASSI
100
AcDbLine
 62
7
  6
CONTINUOUS
 10
-8.042597555
 20
20.7169242644
 11
-10.0478054089
 21
20.7169242644
  0
LINE
  5
546
100
AcDbEntity
  8
ASSI
100
AcDbLine
 62
7
  6
CONTINUOUS
 10
7.2406211742
 20
22.1605741843
 11
3.6406211742
 21
22.1605741843
  0
LINE
  5
547
100
AcDbEntity
  8
ASSI
100
AcDbLine
 62
7
  6
CONTINUOUS
 10
-3.9593788258
 20
22.1605741843
 11
-7.5593788258
 21
22.1605741843
  0
LINE
  5
548
100
AcDbEntity
  8
ASSI
100
AcDbLine
 62
7
  6
CONTINUOUS
 10
10.4203803853
 20
22.1976481202
 11
7.6490461672
 21
22.1976481202
  0
LINE
  5
549
100
AcDbEntity
  8
ASSI
100
AcDbLine
 62
7
  6
CONTINUOUS
 10
3.2321961812
 20
22.1976481202
 11
-3.5509538328
 21
22.1976481202
  0
LINE
  5
54A
100
AcDbEntity
  8
ASSI
100
AcDbLine
 62
7
  6
CONTINUOUS
 10
-7.9678038188
 20
22.1976481202
 11
-10.7391380369
 21
22.1976481202
  0
LINE
  5
54B
100
AcDbEntity
  8
ASSI
100
AcDbLine
 62
7
  6
CONTINUOUS
 10
-1.8914537229
 20
20.3721301371
 11
0.4179636612
 21
20.3710477493
  0
LWPOLYLINE
  5
54C
100
AcDbEntity
  8
ASSI
100
AcDbPolyline
 62
7
  6
CONTINUOUS
 90
3
 70
0
 10
-5.3560305018
 20
20.3818716278
 10
-4.2011241331
 20
20.3775420764
 10
-1.8914537229
 20
20.3721301371
  0
LINE
  5
54D
100
AcDbEntity
  8
ASSI
100
AcDbLine
 62
7
  6
CONTINUOUS
 10
-10.0042079267
 20
20.4102455024
 11
-6.162206293
 21
20.3855355029
  0
LINE
  5
54E
100
AcDbEntity
  8
ASSI
100
AcDbLine
 62
7
  6
CONTINUOUS
 10
-7.5593788258
 20
22.1605741843
 11
-7.9678038188
 21
22.1976481202
  0
LINE
  5
54F
100
AcDbEntity
  8
ASSI
100
AcDbLine
 62
7
  6
CONTINUOUS
 10
3.6406211742
 20
20.6141585732
 11
3.157402445
 21
20.7169242644
  0
LINE
  5
550
100
AcDbEntity
  8
ASSI
100
AcDbLine
 62
250
  6
CONTINUOUS
 10
5.8468046243
 20
-15.8054430592
 11
5.8265657324
 21
-15.8256819511
  0
LINE
  5
551
100
AcDbEntity
  8
ASSI
100
AcDbLine
 62
7
  6
CONTINUOUS
 10
3.6406211742
 20
22.1605741843
 11
3.2321961812
 21
22.1976481202
  0
ARC
  5
552
100
AcDbEntity
  8
ASSI
100
AcDbCircle
 62
250
  6
CONTINUOUS
 10
-3.3343788258
 20
0.0383354145
 40
2.6034300864
100
AcDbArc
 50
90.0
 51
145.0476998388
  0
ARC
  5
553
100
AcDbEntity
  8
ASSI
100
AcDbCircle
 62
250
  6
CONTINUOUS
 10
3.0156211742
 20
0.0383354145
 40
2.6034300864
100
AcDbArc
 50
34.9535543071
 51
90.0
  0
ARC
  5
554
100
AcDbEntity
  8
ASSI
100
AcDbCircle
 62
250
  6
CONTINUOUS
 10
3.0156211742
 20
0.0383354145
 40
2.6034300864
100
AcDbArc
 50
270.0
 51
325.0476998388
  0
ARC
  5
555
100
AcDbEntity
  8
ASSI
100
AcDbCircle
 62
250
  6
CONTINUOUS
 10
-3.3343788258
 20
0.0383354145
 40
2.6034300864
100
AcDbArc
 50
214.9535543071
 51
270.0
  0
ARC
  5
556
100
AcDbEntity
  8
ASSI
100
AcDbCircle
 62
250
  6
CONTINUOUS
 10
-3.3343788258
 20
0.0383354145
 40
2.4034605474
100
AcDbArc
 50
90.0
 51
145.0464456931
  0
ARC
  5
557
100
AcDbEntity
  8
ASSI
100
AcDbCircle
 62
250
  6
CONTINUOUS
 10
3.0156211742
 20
0.0383354145
 40
2.4034605474
100
AcDbArc
 50
34.9535543069
 51
90.0
  0
ARC
  5
558
100
AcDbEntity
  8
ASSI
100
AcDbCircle
 62
250
  6
CONTINUOUS
 10
3.0156211742
 20
0.0383354145
 40
2.4034605474
100
AcDbArc
 50
270.0
 51
325.0464456931
  0
ARC
  5
559
100
AcDbEntity
  8
ASSI
100
AcDbCircle
 62
250
  6
CONTINUOUS
 10
-3.3343788258
 20
0.0383354145
 40
2.4034605474
100
AcDbArc
 50
214.9535543069
 51
270.0
  0
ARC
  5
55A
100
AcDbEntity
  8
ASSI
100
AcDbCircle
 62
7
  6
CONTINUOUS
 10
-3.3343788258
 20
0.0383354145
 40
2.125
100
AcDbArc
 50
90.0
 51
153.4537575263
  0
ARC
  5
55B
100
AcDbEntity
  8
ASSI
100
AcDbCircle
 62
7
  6
CONTINUOUS
 10
3.0156211742
 20
0.0383354145
 40
2.125
100
AcDbArc
 50
26.54624268
 51
90.0
  0
ARC
  5
55C
100
AcDbEntity
  8
ASSI
100
AcDbCircle
 62
7
  6
CONTINUOUS
 10
3.0156211742
 20
0.0383354145
 40
2.125
100
AcDbArc
 50
270.0
 51
333.4537575263
  0
ARC
  5
55D
100
AcDbEntity
  8
ASSI
100
AcDbCircle
 62
7
  6
CONTINUOUS
 10
-3.3343788258
 20
0.0383354145
 40
2.125
100
AcDbArc
 50
206.54624268
 51
270.0
  0
ARC
  5
55E
100
AcDbEntity
  8
ASSI
100
AcDbCircle
 62
7
  6
CONTINUOUS
 10
-3.3343788258
 20
0.0383354145
 40
1.525
100
AcDbArc
 50
89.9999882847
 51
163.0879461817
  0
ARC
  5
55F
100
AcDbEntity
  8
ASSI
100
AcDbCircle
 62
7
  6
CONTINUOUS
 10
3.0156211742
 20
0.0383354145
 40
1.525
100
AcDbArc
 50
16.9120538183
 51
90.0
  0
ARC
  5
560
100
AcDbEntity
  8
ASSI
100
AcDbCircle
 62
7
  6
CONTINUOUS
 10
3.0156211742
 20
0.0383354145
 40
1.525
100
AcDbArc
 50
269.9999882847
 51
343.0879461817
  0
ARC
  5
561
100
AcDbEntity
  8
ASSI
100
AcDbCircle
 62
7
  6
CONTINUOUS
 10
-3.3343788258
 20
0.0383354145
 40
1.525
100
AcDbArc
 50
196.9120538183
 51
270.0
  0
ELLIPSE
  5
562
100
AcDbEntity
  8
ASSI
100
AcDbEllipse
 62
7
  6
CONTINUOUS
 10
-10.7395946266
 20
21.6992471588
 30
0.0
 11
0.4962344879
 21
0.0628595572
 31
0.0
 40
0.9963456432
 41
1.4443370775
 42
3.0137634083
  0
ELLIPSE
  5
563
100
AcDbEntity
  8
ASSI
100
AcDbEllipse
 62
7
  6
CONTINUOUS
 10
10.420836975
 20
21.6992471588
 30
0.0
 11
0.4962344879
 21
-0.0628595572
 31
0.0
 40
0.9963456432
 41
0.1278292453
 42
1.6972555761
  0
ELLIPSE
  5
564
100
AcDbEntity
  8
ASSI
100
AcDbEllipse
 62
7
  6
CONTINUOUS
 10
10.5404840572
 20
0.5712973557
 30
0.0
 11
0.3796255539
 21
-0.1265161514
 31
0.0
 40
0.9996192872
 41
-1.2489924673
 42
0.3215754254
  0
ELLIPSE
  5
565
100
AcDbEntity
  8
ASSI
100
AcDbEllipse
 62
7
  6
CONTINUOUS
 10
-10.8592417088
 20
0.5712973557
 30
0.0
 11
0.3796255539
 21
0.1265161514
 31
0.0
 40
0.9996192872
 41
2.8200172282
 42
4.3905851209
  0
ELLIPSE
  5
566
100
AcDbEntity
  8
ASSI
100
AcDbEllipse
 62
7
  6
CONTINUOUS
 10
5.5609094818
 20
19.8057426313
 30
0.0
 11
0.0048148548
 21
0.5915468962
 31
0.0
 40
0.4226067633
 41
-1.5515386505
 42
0.0034397648
  0
ELLIPSE
  5
567
100
AcDbEntity
  8
ASSI
100
AcDbEllipse
 62
7
  6
CONTINUOUS
 10
5.3203328666
 20
19.8057426313
 30
0.0
 11
-0.0048148548
 21
0.5915468962
 31
0.0
 40
0.4226067633
 41
-0.0034397648
 42
1.5515386505
  0
ELLIPSE
  5
568
100
AcDbEntity
  8
ASSI
100
AcDbEllipse
 62
7
  6
CONTINUOUS
 10
-5.6390905182
 20
19.8057426313
 30
0.0
 11
0.0048148548
 21
0.5915468962
 31
0.0
 40
0.4226067633
 41
-1.5515386505
 42
0.0034397648
  0
ELLIPSE
  5
569
100
AcDbEntity
  8
ASSI
100
AcDbEllipse
 62
7
  6
CONTINUOUS
 10
-5.8796671334
 20
19.8057426313
 30
0.0
 11
-0.0048148548
 21
0.5915468962
 31
0.0
 40
0.4226067633
 41
-0.0034397648
 42
1.5515386505
  0
ELLIPSE
  5
56A
100
AcDbEntity
  8
ASSI
100
AcDbEllipse
 62
7
  6
CONTINUOUS
 10
-7.4156169508
 20
1.4238198093
 30
0.0
 11
0.3
 21
-0.0
 31
0.0
 40
0.0174550649
 41
-3.1241393611
 42
-1.5707963268
  0
ELLIPSE
  5
56B
100
AcDbEntity
  8
ASSI
100
AcDbEllipse
 62
7
  6
CONTINUOUS
 10
-7.2031407008
 20
1.4238198093
 30
0.0
 11
0.3
 21
-0.0
 31
0.0
 40
0.0174550649
 41
-1.5707963268
 42
-0.0174532925
  0
ELLIPSE
  5
56C
100
AcDbEntity
  8
ASSI
100
AcDbEllipse
 62
7
  6
CONTINUOUS
 10
6.8843830492
 20
1.4238198093
 30
0.0
 11
0.3
 21
-0.0
 31
0.0
 40
0.0174550649
 41
-3.1241393611
 42
-1.5707963268
  0
ELLIPSE
  5
56D
100
AcDbEntity
  8
ASSI
100
AcDbEllipse
 62
7
  6
CONTINUOUS
 10
7.0968592992
 20
1.4238198093
 30
0.0
 11
0.3
 21
-0.0
 31
0.0
 40
0.0174550649
 41
-1.5707963268
 42
-0.0174532925
  0
ELLIPSE
  5
56E
100
AcDbEntity
  8
ASSI
100
AcDbEllipse
 62
7
  6
CONTINUOUS
 10
10.420836975
 20
-21.6225763298
 30
0.0
 11
0.4962344879
 21
0.0628595572
 31
0.0
 40
0.9963456432
 41
-1.6972555761
 42
-0.1278292453
  0
ELLIPSE
  5
56F
100
AcDbEntity
  8
ASSI
100
AcDbEllipse
 62
7
  6
CONTINUOUS
 10
-10.7395946266
 20
-21.6225763298
 30
0.0
 11
0.4962344879
 21
-0.0628595572
 31
0.0
 40
0.9963456432
 41
-3.0137634083
 42
-1.4443370775
  0
ELLIPSE
  5
570
100
AcDbEntity
  8
ASSI
100
AcDbEllipse
 62
7
  6
CONTINUOUS
 10
-10.8592417088
 20
-0.4946265267
 30
0.0
 11
-0.3796255539
 21
0.1265161514
 31
0.0
 40
0.9996192872
 41
-1.2489924673
 42
0.3215754254
  0
ELLIPSE
  5
571
100
AcDbEntity
  8
ASSI
100
AcDbEllipse
 62
7
  6
CONTINUOUS
 10
10.5404840572
 20
-0.4946265267
 30
0.0
 11
-0.3796255539
 21
-0.1265161514
 31
0.0
 40
0.9996192872
 41
2.8200172282
 42
4.3905851209
  0
ELLIPSE
  5
572
100
AcDbEntity
  8
ASSI
100
AcDbEllipse
 62
7
  6
CONTINUOUS
 10
-5.8796671334
 20
-19.7290718023
 30
0.0
 11
0.0048148548
 21
0.5915468962
 31
0.0
 40
0.4226067633
 41
-4.6931313041
 42
-3.1381528888
  0
ELLIPSE
  5
573
100
AcDbEntity
  8
ASSI
100
AcDbEllipse
 62
7
  6
CONTINUOUS
 10
-5.6390905182
 20
-19.7290718023
 30
0.0
 11
-0.0048148548
 21
0.5915468962
 31
0.0
 40
0.4226067633
 41
-3.1450324184
 42
-1.5900540031
  0
ELLIPSE
  5
574
100
AcDbEntity
  8
ASSI
100
AcDbEllipse
 62
7
  6
CONTINUOUS
 10
5.3203328666
 20
-19.7290718023
 30
0.0
 11
0.0048148548
 21
0.5915468962
 31
0.0
 40
0.4226067633
 41
-4.6931313041
 42
-3.1381528888
  0
ELLIPSE
  5
575
100
AcDbEntity
  8
ASSI
100
AcDbEllipse
 62
7
  6
CONTINUOUS
 10
5.5609094818
 20
-19.7290718023
 30
0.0
 11
-0.0048148548
 21
0.5915468962
 31
0.0
 40
0.4226067633
 41
-3.1450324184
 42
-1.5900540031
  0
ELLIPSE
  5
576
100
AcDbEntity
  8
ASSI
100
AcDbEllipse
 62
7
  6
CONTINUOUS
 10
7.0968592992
 20
-1.3471489803
 30
0.0
 11
0.3
 21
-0.0
 31
0.0
 40
0.0174550649
 41
0.0174532925
 42
1.5707963268
  0
ELLIPSE
  5
577
100
AcDbEntity
  8
ASSI
100
AcDbEllipse
 62
7
  6
CONTINUOUS
 10
6.8843830492
 20
-1.3471489803
 30
0.0
 11
0.3
 21
-0.0
 31
0.0
 40
0.0174550649
 41
1.5707963268
 42
3.1241393611
  0
ELLIPSE
  5
578
100
AcDbEntity
  8
ASSI
100
AcDbEllipse
 62
7
  6
CONTINUOUS
 10
-7.2031407008
 20
-1.3471489803
 30
0.0
 11
0.3
 21
-0.0
 31
0.0
 40
0.0174550649
 41
0.0174532925
 42
1.5707963268
  0
ELLIPSE
  5
579
100
AcDbEntity
  8
ASSI
100
AcDbEllipse
 62
7
  6
CONTINUOUS
 10
-7.4156169508
 20
-1.3471489803
 30
0.0
 11
0.3
 21
-0.0
 31
0.0
 40
0.0174550649
 41
1.5707963268
 42
3.1241393611
  0
ENDSEC
  0
SECTION
  2
OBJECTS
  0
DICTIONARY
  5
C
100
AcDbDictionary
280
0
281
1
  3
ACAD_GROUP
350
D
  3
ACAD_MLINESTYLE
350
17
  3
ACAD_LAYOUT
350
1A
  3
ACAD_PLOTSETTINGS
350
19
  3
ACAD_PLOTSTYLENAME
350
E
  0
DICTIONARY
  5
D
102
{ACAD_REACTORS
330
C
102
}
100
AcDbDictionary
280
0
281
1
  0
ACDBDICTIONARYWDFLT
  5
E
102
{ACAD_REACTORS
330
C
102
}
100
AcDbDictionary
281
1
  3
Normal
350
F
100
AcDbDictionaryWithDefault
340
F
  0
DICTIONARY
  5
17
102
{ACAD_REACTORS
330
C
102
}
100
AcDbDictionary
280
0
281
1
  3
Standard
350
18
  0
DICTIONARY
  5
19
102
{ACAD_REACTORS
330
C
102
}
100
AcDbDictionary
281
1
  0
DICTIONARY
  5
1A
102
{ACAD_REACTORS
330
C
102
}
100
AcDbDictionary
281
1
  3
Model
350
57A
  3
Layout1
350
57B
  0
ACDBPLACEHOLDER
  5
F
102
{ACAD_REACTORS
330
E
102
}
  0
MLINESTYLE
  5
18
102
{ACAD_REACTORS
330
17
102
}
100
AcDbMlineStyle
  2
STANDARD
 70
0
  3

 62
256
 51
90.0
 52
90.0
 71
2
 49
0.5
 62
256
  6
BYLAYER
 49
-0.5
 62
256
  6
BYLAYER
  0
LAYOUT
  5
57A
102
{ACAD_REACTORS
330
1A
102
}
100
AcDbPlotSettings
  1

  2
none_device
  4

  6

 40
0.0
 41
0.0
 42
0.0
 43
0.0
 44
210.0
 45
297.0
 46
0.0
 47
0.0
 48
0.0
 49
0.0
140
0.0
141
0.0
142
1.0
143
1.0
 70
1024
 72
1
 73
0
 74
0
  7

 75
0
147
1.0
148
0.0
149
0.0
100
AcDbLayout
  1
Model
 70
0
 71
0
 10
0.0
 20
0.0
 11
210.0
 21
297.0
 12
0.0
 22
0.0
 32
0.0
 14
0.0
 24
0.0
 34
0.0
 15
0.0
 25
0.0
 35
0.0
146
0.0
 13
0.0
 23
0.0
 33
0.0
 16
1.0
 26
0.0
 36
0.0
 17
0.0
 27
1.0
 37
0.0
 76
0
330
214
345
0
346
0
  0
LAYOUT
  5
57B
102
{ACAD_REACTORS
330
1A
102
}
100
AcDbPlotSettings
  1

  2
none_device
  4

  6

 40
0.0
 41
0.0
 42
0.0
 43
0.0
 44
210.0
 45
297.0
 46
0.0
 47
0.0
 48
0.0
 49
0.0
140
0.0
141
0.0
142
1.0
143
1.0
 70
0
 72
1
 73
0
 74
0
  7

 75
0
147
1.0
148
0.0
149
0.0
100
AcDbLayout
  1
Layout1
 70
0
 71
1
 10
0.0
 20
0.0
 11
210.0
 21
297.0
 12
0.0
 22
0.0
 32
0.0
 14
0.0
 24
0.0
 34
0.0
 15
0.0
 25
0.0
 35
0.0
146
0.0
 13
0.0
 23
0.0
 33
0.0
 16
1.0
 26
0.0
 36
0.0
 17
0.0
 27
1.0
 37
0.0
 76
0
330
215
345
0
346
0
  0
ENDSEC
  0
EOF
