  0
SECTION
  2
HEADER
  9
$ACADVER
  1
AC1021
  9
$DWGCODEPAGE
  3
ANSI_1252
  9
$EXTMAX
 10
297.0
 20
210.0
 30
0.0
  9
$EXTMIN
 10
0.0
 20
0.0
 30
0.0
  9
$LIMMIN
 10
0.0
 20
0.0
  9
$LIMMAX
 10
297.0
 20
210.0
  9
$VIEWCTR
 10
148.5
 20
105.0
  9
$VIEWSIZE
 40
210.0
  9
$CLAYER
  8
0
  9
$LTSCALE
 40
16.335
  9
$CELTYPE
  6
BYLAYER
  9
$DIMSCALE
 40
1.0
  9
$DIMASZ
 40
3.0
  9
$DIMEXO
 40
1.85625
  9
$DIMDLI
 40
11.286
  9
$DIMEXE
 40
5.346
  9
$DIMCEN
 40
2.673
  9
$DIMLFAC
 40
1.0
  9
$DIMBLK
  1
_FILLED
  9
$DIMTXT
 40
3.0
  9
$DIMTOL
 70
1
  9
$DIMLIM
 70
0
  9
$DIMTFAC
 40
1.0
  9
$DIMTP
 40
0.01
  9
$DIMTM
 40
0.01
  9
$PDMODE
 70
3
  9
$PDSIZE
 40
3.0
  9
$HANDSEED
  5
3CA
  9
$TILEMODE
 70
1
  9
$MEASUREMENT
 70
1
  9
$INSUNITS
 70
4
  0
ENDSEC
  0
SECTION
  2
CLASSES
  0
CLASS
  1
ACDBDICTIONARYWDFLT
  2
AcDbDictionaryWithDefault
  3
AutoCAD 2000
 90
0
 91
1
280
0
281
0
  0
CLASS
  1
ACDBPLACEHOLDER
  2
AcDbPlaceHolder
  3
AutoCAD 2000
 90
0
 91
1
280
0
281
0
  0
CLASS
  1
LAYOUT
  2
AcDbLayout
  3
AutoCAD 2000
 90
0
 91
0
280
0
281
0
  0
ENDSEC
  0
SECTION
  2
TABLES
  0
TABLE
  2
VPORT
  5
8
100
AcDbSymbolTable
 70
2
  0
VPORT
  5
1F4
100
AcDbSymbolTableRecord
100
AcDbViewportTableRecord
  2
*ACTIVE
 70
0
 10
0.0
 20
0.0
 11
1.0
 21
1.0
 12
148.5
 22
105.0
 13
0.0
 23
0.0
 14
1.0
 24
1.0
 15
0.0
 25
0.0
 16
0.0
 26
0.0
 36
1.0
 17
0.0
 27
0.0
 37
0.0
 40
210.0
 41
1.4142857143
 42
50.0
 43
0.0
 44
0.0
 50
0.0
 51
0.0
 71
0
 72
100
 73
1
 74
1
 75
0
 76
0
 77
0
 78
0
  0
ENDTAB
  0
TABLE
  2
LTYPE
  5
5
100
AcDbSymbolTable
 70
6
  0
LTYPE
  5
14
100
AcDbSymbolTableRecord
100
AcDbLinetypeTableRecord
  2
BYBLOCK
 70
0
  3

 72
65
 73
0
 40
0.0
  0
LTYPE
  5
15
100
AcDbSymbolTableRecord
100
AcDbLinetypeTableRecord
  2
BYLAYER
 70
0
  3

 72
65
 73
0
 40
0.0
  0
LTYPE
  5
16
100
AcDbSymbolTableRecord
100
AcDbLinetypeTableRecord
  2
CONTINUOUS
 70
64
  3
Solid line
 72
65
 73
0
 40
0.0
  0
LTYPE
  5
1F5
100
AcDbSymbolTableRecord
100
AcDbLinetypeTableRecord
  2
CENTER
 70
64
  3
____ _ ____ _ ____ _ ____ _ ____ _ ____ _ ____
 72
65
 73
4
 40
0.6
 49
0.375
 74
0
 49
-0.075
 74
0
 49
0.075
 74
0
 49
-0.075
 74
0
  0
LTYPE
  5
1F6
100
AcDbSymbolTableRecord
100
AcDbLinetypeTableRecord
  2
HIDDEN
 70
64
  3
- - - - - - - - - - - - - - - - - - - -
 72
65
 73
2
 40
0.2
 49
0.1
 74
0
 49
-0.1
 74
0
  0
LTYPE
  5
1F7
100
AcDbSymbolTableRecord
100
AcDbLinetypeTableRecord
  2
PHANTOM
 70
64
  3
_____ _ _ _____ _ _ _____ _ _ _____
 72
65
 73
6
 40
0.8
 49
0.45
 74
0
 49
-0.05
 74
0
 49
0.1
 74
0
 49
-0.05
 74
0
 49
0.1
 74
0
 49
-0.05
 74
0
  0
LTYPE
  5
1F8
100
AcDbSymbolTableRecord
100
AcDbLinetypeTableRecord
  2
DOT
 70
64
  3
. . . . . . . . . . . . . . . . . . . .
 72
65
 73
2
 40
0.2
 49
0.1
 74
0
 49
-0.1
 74
0
  0
LTYPE
  5
1F9
100
AcDbSymbolTableRecord
100
AcDbLinetypeTableRecord
  2
DASHED
 70
64
  3
- - - - - - - - - - - - - - - - - - - -
 72
65
 73
2
 40
0.2
 49
0.1
 74
0
 49
-0.1
 74
0
  0
ENDTAB
  0
TABLE
  2
LAYER
  5
2
100
AcDbSymbolTable
 70
36
  0
LAYER
  5
10
100
AcDbSymbolTableRecord
100
AcDbLayerTableRecord
  2
0
 70
0
 62
7
  6
CONTINUOUS
370
-3
390
F
  0
LAYER
  5
1FA
100
AcDbSymbolTableRecord
100
AcDbLayerTableRecord
  2
DEFAULT_1
 70
0
 62
7
  6
CENTER
370
-3
390
F
  0
LAYER
  5
1FB
100
AcDbSymbolTableRecord
100
AcDbLayerTableRecord
  2
DEFAULT_2
 70
0
 62
7
  6
HIDDEN
370
-3
390
F
  0
LAYER
  5
1FC
100
AcDbSymbolTableRecord
100
AcDbLayerTableRecord
  2
DEFAULT_3
 70
0
 62
7
  6
PHANTOM
370
-3
390
F
  0
LAYER
  5
1FD
100
AcDbSymbolTableRecord
100
AcDbLayerTableRecord
  2
ASSI
 70
0
 62
7
  6
CONTINUOUS
370
-3
390
F
  0
LAYER
  5
1FE
100
AcDbSymbolTableRecord
100
AcDbLayerTableRecord
  2
COLOR5
 70
0
 62
7
  6
CONTINUOUS
370
-3
390
F
  0
LAYER
  5
1FF
100
AcDbSymbolTableRecord
100
AcDbLayerTableRecord
  2
COORDINATE
 70
0
 62
7
  6
CONTINUOUS
370
-3
390
F
  0
LAYER
  5
200
100
AcDbSymbolTableRecord
100
AcDbLayerTableRecord
  2
COORD_ORIGINE
 70
0
 62
7
  6
CONTINUOUS
370
-3
390
F
  0
LAYER
  5
201
100
AcDbSymbolTableRecord
100
AcDbLayerTableRecord
  2
COPY_PUBLISH
 70
0
 62
7
  6
CONTINUOUS
370
-3
390
F
  0
LAYER
  5
202
100
AcDbSymbolTableRecord
100
AcDbLayerTableRecord
  2
COSMETICI
 70
0
 62
7
  6
CONTINUOUS
370
-3
390
F
  0
LAYER
  5
203
100
AcDbSymbolTableRecord
100
AcDbLayerTableRecord
  2
CURVE
 70
0
 62
7
  6
CONTINUOUS
370
-3
390
F
  0
LAYER
  5
204
100
AcDbSymbolTableRecord
100
AcDbLayerTableRecord
  2
DRAFT
 70
0
 62
7
  6
CONTINUOUS
370
-3
390
F
  0
LAYER
  5
205
100
AcDbSymbolTableRecord
100
AcDbLayerTableRecord
  2
IMPORT_IGES
 70
0
 62
7
  6
CONTINUOUS
370
-3
390
F
  0
LAYER
  5
206
100
AcDbSymbolTableRecord
100
AcDbLayerTableRecord
  2
IMPORT_SCRITTE
 70
0
 62
7
  6
CONTINUOUS
370
-3
390
F
  0
LAYER
  5
207
100
AcDbSymbolTableRecord
100
AcDbLayerTableRecord
  2
INTFCLR_1
 70
0
 62
7
  6
CONTINUOUS
370
-3
390
F
  0
LAYER
  5
208
100
AcDbSymbolTableRecord
100
AcDbLayerTableRecord
  2
INTFCLR_12603
 70
0
 62
7
  6
CONTINUOUS
370
-3
390
F
  0
LAYER
  5
209
100
AcDbSymbolTableRecord
100
AcDbLayerTableRecord
  2
INTFCLR_1391
 70
0
 62
7
  6
CONTINUOUS
370
-3
390
F
  0
LAYER
  5
20A
100
AcDbSymbolTableRecord
100
AcDbLayerTableRecord
  2
INTFCLR_35371
 70
0
 62
7
  6
CONTINUOUS
370
-3
390
F
  0
LAYER
  5
20B
100
AcDbSymbolTableRecord
100
AcDbLayerTableRecord
  2
INTF_1
 70
0
 62
7
  6
CONTINUOUS
370
-3
390
F
  0
LAYER
  5
20C
100
AcDbSymbolTableRecord
100
AcDbLayerTableRecord
  2
INTF_10
 70
0
 62
7
  6
CONTINUOUS
370
-3
390
F
  0
LAYER
  5
20D
100
AcDbSymbolTableRecord
100
AcDbLayerTableRecord
  2
INTF_15
 70
0
 62
7
  6
CONTINUOUS
370
-3
390
F
  0
LAYER
  5
20E
100
AcDbSymbolTableRecord
100
AcDbLayerTableRecord
  2
INTF_18
 70
0
 62
7
  6
CONTINUOUS
370
-3
390
F
  0
LAYER
  5
20F
100
AcDbSymbolTableRecord
100
AcDbLayerTableRecord
  2
INTF_20
 70
0
 62
7
  6
CONTINUOUS
370
-3
390
F
  0
LAYER
  5
210
100
AcDbSymbolTableRecord
100
AcDbLayerTableRecord
  2
INTF_22
 70
0
 62
7
  6
CONTINUOUS
370
-3
390
F
  0
LAYER
  5
211
100
AcDbSymbolTableRecord
100
AcDbLayerTableRecord
  2
INTF_4
 70
0
 62
7
  6
CONTINUOUS
370
-3
390
F
  0
LAYER
  5
212
100
AcDbSymbolTableRecord
100
AcDbLayerTableRecord
  2
INTF_8
 70
0
 62
7
  6
CONTINUOUS
370
-3
390
F
  0
LAYER
  5
213
100
AcDbSymbolTableRecord
100
AcDbLayerTableRecord
  2
NOTE
 70
0
 62
7
  6
CONTINUOUS
370
-3
390
F
  0
LAYER
  5
214
100
AcDbSymbolTableRecord
100
AcDbLayerTableRecord
  2
PIANI
 70
0
 62
7
  6
CONTINUOUS
370
-3
390
F
  0
LAYER
  5
215
100
AcDbSymbolTableRecord
100
AcDbLayerTableRecord
  2
PIANI_ORIGINE
 70
0
 62
7
  6
CONTINUOUS
370
-3
390
F
  0
LAYER
  5
216
100
AcDbSymbolTableRecord
100
AcDbLayerTableRecord
  2
PIANI_STAMPO
 70
0
 62
7
  6
CONTINUOUS
370
-3
390
F
  0
LAYER
  5
217
100
AcDbSymbolTableRecord
100
AcDbLayerTableRecord
  2
PUNTI
 70
0
 62
7
  6
CONTINUOUS
370
-3
390
F
  0
LAYER
  5
218
100
AcDbSymbolTableRecord
100
AcDbLayerTableRecord
  2
RACCORDO
 70
0
 62
7
  6
CONTINUOUS
370
-3
390
F
  0
LAYER
  5
219
100
AcDbSymbolTableRecord
100
AcDbLayerTableRecord
  2
SIMBOLI
 70
0
 62
7
  6
CONTINUOUS
370
-3
390
F
  0
LAYER
  5
21A
100
AcDbSymbolTableRecord
100
AcDbLayerTableRecord
  2
SMUSSO
 70
0
 62
7
  6
CONTINUOUS
370
-3
390
F
  0
LAYER
  5
21B
100
AcDbSymbolTableRecord
100
AcDbLayerTableRecord
  2
SNAPLINE
 70
0
 62
7
  6
CONTINUOUS
370
-3
390
F
  0
LAYER
  5
21C
100
AcDbSymbolTableRecord
100
AcDbLayerTableRecord
  2
SUPERFICI
 70
0
 62
7
  6
CONTINUOUS
370
-3
390
F
  0
LAYER
  5
21D
100
AcDbSymbolTableRecord
100
AcDbLayerTableRecord
  2
TRASH
 70
0
 62
7
  6
CONTINUOUS
370
-3
390
F
  0
LAYER
  5
21E
100
AcDbSymbolTableRecord
100
AcDbLayerTableRecord
  2
XSEC_DATUMS
 70
0
 62
7
  6
CONTINUOUS
370
-3
390
F
  0
ENDTAB
  0
TABLE
  2
STYLE
  5
3
100
AcDbSymbolTable
 70
1
  0
STYLE
  5
11
100
AcDbSymbolTableRecord
100
AcDbTextStyleTableRecord
  2
STANDARD
 70
0
 40
0.0
 41
0.8
 50
0.0
 71
0
 42
0.2
  3
txt
  4

  0
STYLE
  5
21F
100
AcDbSymbolTableRecord
100
AcDbTextStyleTableRecord
  2
TEXTSTYLE_1
 70
0
 40
0.0
 41
0.8
 50
0.0
 71
0
 42
0.2
  3
gdt
  4

  0
ENDTAB
  0
TABLE
  2
VIEW
  5
6
100
AcDbSymbolTable
 70
0
  0
ENDTAB
  0
TABLE
  2
UCS
  5
7
100
AcDbSymbolTable
 70
0
  0
ENDTAB
  0
TABLE
  2
APPID
  5
9
100
AcDbSymbolTable
 70
1
  0
APPID
  5
220
100
AcDbSymbolTableRecord
100
AcDbRegAppTableRecord
  2
ACAD
 70
0
  0
ENDTAB
  0
TABLE
  2
BLOCK_RECORD
  5
1
100
AcDbSymbolTable
 70
0
  0
BLOCK_RECORD
  5
221
100
AcDbSymbolTableRecord
100
AcDbBlockTableRecord
  2
*Model_Space
  0
BLOCK_RECORD
  5
222
100
AcDbSymbolTableRecord
100
AcDbBlockTableRecord
  2
*Paper_Space
  0
ENDTAB
  0
TABLE
  2
DIMSTYLE
  5
A
100
AcDbSymbolTable
 70
1
100
AcDbDimStyleTable
 71
0
  0
DIMSTYLE
105
223
100
AcDbSymbolTableRecord
100
AcDbDimStyleTableRecord
  2
STANDARD
 70
0
  3

  4

 40
1.0
 41
3.0
 42
0.0625
 43
0.38
 44
0.18
 45
0.0
 46
0.0
 47
0.01
 48
0.01
140
3.0
141
0.09
142
0.0
143
25.4
144
1.0
145
0.0
146
1.0
147
0.09
 71
1.0
 72
0.0
 73
0
 74
0
 75
0
 76
0
 77
1
 78
8
170
0
171
2
172
0
173
0
174
0
175
0
176
0
177
0
178
0
270
2
271
2
272
2
273
2
274
2
275
0
280
0
281
0
282
0
283
1
284
8
285
0
286
0
287
3
288
0
340
11
  0
ENDTAB
  0
ENDSEC
  0
SECTION
  2
BLOCKS
  0
BLOCK
  5
20
100
AcDbEntity
  8
0
100
AcDbBlockBegin
  2
*Model_Space
 70
0
 10
0.0
 20
0.0
 30
0.0
  3
*Model_Space
  1

  0
ENDBLK
  5
21
100
AcDbEntity
  8
0
100
AcDbBlockEnd
  0
BLOCK
  5
1C
100
AcDbEntity
  8
0
100
AcDbBlockBegin
  2
*Paper_Space
 70
0
 10
0.0
 20
0.0
 30
0.0
  3
*Paper_Space
  1

  0
ENDBLK
  5
1D
100
AcDbEntity
  8
0
100
AcDbBlockEnd
  0
ENDSEC
  0
SECTION
  2
ENTITIES
  0
LWPOLYLINE
  5
224
100
AcDbEntity
  8
RACCORDO
100
AcDbPolyline
 62
7
  6
CONTINUOUS
 90
10
 70
0
 10
47.4664387532
 20
139.965371729
 10
47.2363590038
 20
139.5212350864
 10
46.9769255923
 20
138.9643637615
 10
46.7413912998
 20
138.391449515
 10
46.5300484505
 20
137.8024448549
 10
46.3433250912
 20
137.1977354843
 10
46.1816979403
 20
136.5781300191
 10
46.0454448996
 20
135.9440319012
 10
45.9347311932
 20
135.2954539288
 10
45.8551474997
 20
134.6819270803
  0
LINE
  5
225
100
AcDbEntity
  8
RACCORDO
100
AcDbLine
 62
7
  6
CONTINUOUS
 10
47.4664390924
 20
139.9653723545
 11
47.4661847243
 21
139.9649030436
  0
LINE
  5
226
100
AcDbEntity
  8
RACCORDO
100
AcDbLine
 62
7
  6
CONTINUOUS
 10
45.8460461538
 20
52.6071920983
 11
45.8460499468
 21
134.5169421296
  0
LINE
  5
227
100
AcDbEntity
  8
RACCORDO
100
AcDbLine
 62
253
  6
CONTINUOUS
 10
48.9168526877
 20
121.7707232187
 11
48.9168526911
 21
122.5519079791
  0
LINE
  5
228
100
AcDbEntity
  8
RACCORDO
100
AcDbLine
 62
253
  6
CONTINUOUS
 10
49.1491867122
 20
80.9379774666
 11
49.1491867122
 21
80.565336011
  0
LINE
  5
229
100
AcDbEntity
  8
RACCORDO
100
AcDbLine
 62
253
  6
CONTINUOUS
 10
49.2545662131
 20
140.9138141043
 11
49.2545660537
 21
140.9673985167
  0
LINE
  5
22A
100
AcDbEntity
  8
RACCORDO
100
AcDbLine
 62
253
  6
CONTINUOUS
 10
49.6394328948
 20
54.2059927985
 11
49.6394328885
 21
54.5050400879
  0
LINE
  5
22B
100
AcDbEntity
  8
RACCORDO
100
AcDbLine
 62
253
  6
CONTINUOUS
 10
50.9587848213
 20
60.1910929396
 11
50.9587848008
 21
59.237964221
  0
LINE
  5
22C
100
AcDbEntity
  8
RACCORDO
100
AcDbLine
 62
7
  6
CONTINUOUS
 10
61.146049896
 20
79.7330023373
 11
61.146049896
 21
71.8100740835
  0
LINE
  5
22D
100
AcDbEntity
  8
RACCORDO
100
AcDbLine
 62
7
  6
CONTINUOUS
 10
61.346049896
 20
69.9430468305
 11
61.346049896
 21
71.8100740835
  0
LINE
  5
22E
100
AcDbEntity
  8
RACCORDO
100
AcDbLine
 62
7
  6
CONTINUOUS
 10
61.494780624
 20
80.9379774666
 11
61.494780624
 21
71.8100740835
  0
LINE
  5
22F
100
AcDbEntity
  8
DRAFT
100
AcDbLine
 62
7
  6
CONTINUOUS
 10
74.1841696807
 20
95.8600740835
 11
74.1841696807
 21
93.3600740835
  0
LINE
  5
230
100
AcDbEntity
  8
DRAFT
100
AcDbLine
 62
7
  6
CONTINUOUS
 10
74.646049896
 20
95.8600740835
 11
74.646049896
 21
93.3600740835
  0
LINE
  5
231
100
AcDbEntity
  8
DRAFT
100
AcDbLine
 62
7
  6
CONTINUOUS
 10
75.146049896
 20
93.3600740835
 11
75.146049896
 21
95.8600740835
  0
LINE
  5
232
100
AcDbEntity
  8
DRAFT
100
AcDbLine
 62
7
  6
CONTINUOUS
 10
75.6079301114
 20
93.3600740835
 11
75.6079301114
 21
95.8600740835
  0
LINE
  5
233
100
AcDbEntity
  8
DRAFT
100
AcDbLine
 62
7
  6
CONTINUOUS
 10
78.6841696807
 20
95.8600740835
 11
78.6841696807
 21
93.3600740835
  0
LINE
  5
234
100
AcDbEntity
  8
DRAFT
100
AcDbLine
 62
7
  6
CONTINUOUS
 10
78.7973191681
 20
71.8100740835
 11
78.7973191681
 21
75.9588048115
  0
LINE
  5
235
100
AcDbEntity
  8
DRAFT
100
AcDbLine
 62
7
  6
CONTINUOUS
 10
78.946049896
 20
71.8100740835
 11
78.946049896
 21
75.8100740835
  0
LINE
  5
236
100
AcDbEntity
  8
DRAFT
100
AcDbLine
 62
7
  6
CONTINUOUS
 10
79.146049896
 20
95.8600740835
 11
79.146049896
 21
93.3600740835
  0
LINE
  5
237
100
AcDbEntity
  8
RACCORDO
100
AcDbLine
 62
7
  6
CONTINUOUS
 10
79.146049896
 20
71.8100740835
 11
79.146049896
 21
74.8100740835
  0
LINE
  5
238
100
AcDbEntity
  8
DRAFT
100
AcDbLine
 62
7
  6
CONTINUOUS
 10
79.646049896
 20
93.3600740835
 11
79.646049896
 21
95.8600740835
  0
LINE
  5
239
100
AcDbEntity
  8
DRAFT
100
AcDbLine
 62
7
  6
CONTINUOUS
 10
80.1079301114
 20
93.3600743615
 11
80.1079301114
 21
95.8600743624
  0
LINE
  5
23A
100
AcDbEntity
  8
DRAFT
100
AcDbLine
 62
7
  6
CONTINUOUS
 10
84.646049896
 20
75.8100740835
 11
84.646049896
 21
75.6100740835
  0
LINE
  5
23B
100
AcDbEntity
  8
DRAFT
100
AcDbLine
 62
7
  6
CONTINUOUS
 10
84.647364514
 20
72.1100740835
 11
84.647364514
 21
68.9788410882
  0
LINE
  5
23C
100
AcDbEntity
  8
DRAFT
100
AcDbLine
 62
7
  6
CONTINUOUS
 10
84.7785975092
 20
72.1100740835
 11
84.7785975092
 21
69.1100740835
  0
LINE
  5
23D
100
AcDbEntity
  8
DRAFT
100
AcDbLine
 62
7
  6
CONTINUOUS
 10
78.7973191681
 20
75.9588048115
 11
78.946049896
 21
75.8100740835
  0
LINE
  5
23E
100
AcDbEntity
  8
DRAFT
100
AcDbLine
 62
7
  6
CONTINUOUS
 10
93.5135022829
 20
69.1100740835
 11
93.5135022829
 21
72.1100740835
  0
LINE
  5
23F
100
AcDbEntity
  8
DRAFT
100
AcDbLine
 62
7
  6
CONTINUOUS
 10
93.6447352781
 20
68.9788410882
 11
93.6447352781
 21
72.1100740835
  0
LINE
  5
240
100
AcDbEntity
  8
DRAFT
100
AcDbLine
 62
7
  6
CONTINUOUS
 10
93.646049896
 20
75.6100740835
 11
93.646049896
 21
75.8100740835
  0
LINE
  5
241
100
AcDbEntity
  8
DRAFT
100
AcDbLine
 62
7
  6
CONTINUOUS
 10
93.6447352781
 20
68.9788410882
 11
93.5135022829
 21
69.1100740835
  0
LINE
  5
242
100
AcDbEntity
  8
RACCORDO
100
AcDbLine
 62
7
  6
CONTINUOUS
 10
47.8454463326
 20
50.6100740835
 11
255.9466067851
 21
50.6100740835
  0
LINE
  5
243
100
AcDbEntity
  8
DRAFT
100
AcDbLine
 62
7
  6
CONTINUOUS
 10
111.996049896
 20
119.0554743591
 11
112.0309600259
 21
118.3275338905
  0
LINE
  5
244
100
AcDbEntity
  8
DRAFT
100
AcDbLine
 62
7
  6
CONTINUOUS
 10
114.8226332576
 20
112.3275338905
 11
114.996049896
 21
106.3579640733
  0
LINE
  5
245
100
AcDbEntity
  8
DRAFT
100
AcDbLine
 62
7
  6
CONTINUOUS
 10
111.996049896
 20
119.0554743591
 11
111.996049896
 21
106.3579640733
  0
LINE
  5
246
100
AcDbEntity
  8
DRAFT
100
AcDbLine
 62
7
  6
CONTINUOUS
 10
113.9341696807
 20
95.1100740835
 11
113.9341696807
 21
92.1100740835
  0
LINE
  5
247
100
AcDbEntity
  8
DRAFT
100
AcDbLine
 62
7
  6
CONTINUOUS
 10
114.396049896
 20
95.1100740835
 11
114.396049896
 21
92.1100740835
  0
LINE
  5
248
100
AcDbEntity
  8
DRAFT
100
AcDbLine
 62
7
  6
CONTINUOUS
 10
114.896049896
 20
92.1100740835
 11
114.896049896
 21
95.1100740835
  0
LINE
  5
249
100
AcDbEntity
  8
DRAFT
100
AcDbLine
 62
7
  6
CONTINUOUS
 10
114.9611397662
 20
118.3275338905
 11
114.9611397662
 21
107.5596853114
  0
LINE
  5
24A
100
AcDbEntity
  8
DRAFT
100
AcDbLine
 62
7
  6
CONTINUOUS
 10
114.996049896
 20
119.0554743591
 11
114.996049896
 21
106.3579640733
  0
LINE
  5
24B
100
AcDbEntity
  8
DRAFT
100
AcDbLine
 62
7
  6
CONTINUOUS
 10
115.3579301114
 20
92.1100740835
 11
115.3579301114
 21
95.1100740835
  0
LINE
  5
24C
100
AcDbEntity
  8
DRAFT
100
AcDbLine
 62
7
  6
CONTINUOUS
 10
111.996049896
 20
106.3579640733
 11
112.1694665345
 21
112.3275338905
  0
LINE
  5
24D
100
AcDbEntity
  8
DRAFT
100
AcDbLine
 62
7
  6
CONTINUOUS
 10
114.996049896
 20
119.0554743591
 11
114.9611397662
 21
118.3275338905
  0
LINE
  5
24E
100
AcDbEntity
  8
RACCORDO
100
AcDbLine
 62
253
  6
CONTINUOUS
 10
47.6558148927
 20
56.1664346065
 11
47.9092867558
 21
56.1716571037
  0
LINE
  5
24F
100
AcDbEntity
  8
RACCORDO
100
AcDbLine
 62
253
  6
CONTINUOUS
 10
254.1526668363
 20
54.2059928028
 11
49.639432895
 21
54.2059927985
  0
LINE
  5
250
100
AcDbEntity
  8
RACCORDO
100
AcDbLine
 62
7
  6
CONTINUOUS
 10
49.8584859353
 20
54.4919319175
 11
253.9336138568
 21
54.4919319175
  0
LINE
  5
251
100
AcDbEntity
  8
RACCORDO
100
AcDbLine
 62
253
  6
CONTINUOUS
 10
136.4993072565
 20
55.8896563155
 11
167.2927925356
 21
55.8896563155
  0
LINE
  5
252
100
AcDbEntity
  8
RACCORDO
100
AcDbLine
 62
253
  6
CONTINUOUS
 10
136.4993072565
 20
56.8614050239
 11
167.2927925356
 21
56.8614050239
  0
LINE
  5
253
100
AcDbEntity
  8
RACCORDO
100
AcDbLine
 62
253
  6
CONTINUOUS
 10
50.9587679808
 20
59.237964221
 11
133.7088074928
 21
59.2379641687
  0
LINE
  5
254
100
AcDbEntity
  8
RACCORDO
100
AcDbLine
 62
253
  6
CONTINUOUS
 10
170.0832923
 20
59.2379641684
 11
252.8333333741
 21
59.2379642206
  0
LINE
  5
255
100
AcDbEntity
  8
RACCORDO
100
AcDbLine
 62
253
  6
CONTINUOUS
 10
50.9587848213
 20
60.1910929396
 11
133.7101707419
 21
60.1910919069
  0
LINE
  5
256
100
AcDbEntity
  8
RACCORDO
100
AcDbLine
 62
253
  6
CONTINUOUS
 10
170.0819290526
 20
60.1910919045
 11
252.8333149709
 21
60.1910929377
  0
LINE
  5
257
100
AcDbEntity
  8
RACCORDO
100
AcDbLine
 62
253
  6
CONTINUOUS
 10
163.3549592738
 20
60.7992382857
 11
140.4371405183
 21
60.7992382857
  0
LINE
  5
258
100
AcDbEntity
  8
RACCORDO
100
AcDbLine
 62
253
  6
CONTINUOUS
 10
256.136283584
 20
56.1664345525
 11
255.8828130116
 21
56.1716569699
  0
LINE
  5
259
100
AcDbEntity
  8
RACCORDO
100
AcDbLine
 62
253
  6
CONTINUOUS
 10
133.7101692342
 20
60.1910903992
 11
134.399320992
 21
59.5019386414
  0
LINE
  5
25A
100
AcDbEntity
  8
DRAFT
100
AcDbLine
 62
7
  6
CONTINUOUS
 10
84.647364514
 20
68.9788410882
 11
84.7785975092
 21
69.1100740835
  0
LINE
  5
25B
100
AcDbEntity
  8
RACCORDO
100
AcDbLine
 62
253
  6
CONTINUOUS
 10
49.9764038804
 20
61.1872171706
 11
48.9795242315
 21
61.1570360696
  0
LINE
  5
25C
100
AcDbEntity
  8
RACCORDO
100
AcDbLine
 62
253
  6
CONTINUOUS
 10
163.3549592738
 20
61.5652827288
 11
140.4371405183
 21
61.5652827288
  0
LINE
  5
25D
100
AcDbEntity
  8
DRAFT
100
AcDbLine
 62
7
  6
CONTINUOUS
 10
84.647364514
 20
68.9788410882
 11
93.6447352781
 21
68.9788410882
  0
LINE
  5
25E
100
AcDbEntity
  8
DRAFT
100
AcDbLine
 62
7
  6
CONTINUOUS
 10
210.147364514
 20
68.9788410882
 11
219.1447352781
 21
68.9788410882
  0
LINE
  5
25F
100
AcDbEntity
  8
DRAFT
100
AcDbLine
 62
7
  6
CONTINUOUS
 10
84.7785975092
 20
69.1100740835
 11
93.5135022829
 21
69.1100740835
  0
LINE
  5
260
100
AcDbEntity
  8
DRAFT
100
AcDbLine
 62
7
  6
CONTINUOUS
 10
210.2785975092
 20
69.1100740835
 11
219.0135022829
 21
69.1100740835
  0
LINE
  5
261
100
AcDbEntity
  8
RACCORDO
100
AcDbLine
 62
253
  6
CONTINUOUS
 10
253.8156959117
 20
61.187217166
 11
254.8125991207
 21
61.1570352946
  0
LINE
  5
262
100
AcDbEntity
  8
RACCORDO
100
AcDbLine
 62
253
  6
CONTINUOUS
 10
140.4371405183
 20
60.7992382857
 11
139.7479887605
 21
61.4883900435
  0
LINE
  5
263
100
AcDbEntity
  8
DRAFT
100
AcDbLine
 62
7
  6
CONTINUOUS
 10
128.4341696807
 20
95.1100740835
 11
128.4341696807
 21
92.1100740835
  0
LINE
  5
264
100
AcDbEntity
  8
DRAFT
100
AcDbLine
 62
7
  6
CONTINUOUS
 10
128.896049896
 20
95.1100740835
 11
128.896049896
 21
92.1100740835
  0
LINE
  5
265
100
AcDbEntity
  8
DRAFT
100
AcDbLine
 62
7
  6
CONTINUOUS
 10
129.396049896
 20
92.1100740835
 11
129.396049896
 21
95.1100740835
  0
LINE
  5
266
100
AcDbEntity
  8
DRAFT
100
AcDbLine
 62
7
  6
CONTINUOUS
 10
129.8579301114
 20
92.1100740835
 11
129.8579301114
 21
95.1100740835
  0
LINE
  5
267
100
AcDbEntity
  8
RACCORDO
100
AcDbLine
 62
253
  6
CONTINUOUS
 10
133.7101692342
 20
60.1910919069
 11
133.7101692342
 21
59.2379641687
  0
LINE
  5
268
100
AcDbEntity
  8
RACCORDO
100
AcDbLine
 62
253
  6
CONTINUOUS
 10
49.5957948427
 20
73.3157477056
 11
48.5985841973
 21
73.2832199992
  0
LINE
  5
269
100
AcDbEntity
  8
RACCORDO
100
AcDbLine
 62
253
  6
CONTINUOUS
 10
47.2779670446
 20
73.1682453943
 11
47.503751818
 21
73.1736363224
  0
LINE
  5
26A
100
AcDbEntity
  8
RACCORDO
100
AcDbLine
 62
253
  6
CONTINUOUS
 10
146.1885388569
 20
70.9510947699
 11
157.6035609352
 21
70.9510947699
  0
LINE
  5
26B
100
AcDbEntity
  8
RACCORDO
100
AcDbLine
 62
253
  6
CONTINUOUS
 10
146.1885388569
 20
71.717139213
 11
157.6035609352
 21
71.717139213
  0
LINE
  5
26C
100
AcDbEntity
  8
DRAFT
100
AcDbLine
 62
253
  6
CONTINUOUS
 10
242.446049896
 20
71.8100740835
 11
242.2973191681
 21
71.8100740835
  0
LINE
  5
26D
100
AcDbEntity
  8
DRAFT
100
AcDbLine
 62
253
  6
CONTINUOUS
 10
224.994780624
 20
71.8100740835
 11
224.846049896
 21
71.8100740835
  0
LINE
  5
26E
100
AcDbEntity
  8
DRAFT
100
AcDbLine
 62
253
  6
CONTINUOUS
 10
61.346049896
 20
71.8100740835
 11
61.494780624
 21
71.8100740835
  0
LINE
  5
26F
100
AcDbEntity
  8
DRAFT
100
AcDbLine
 62
253
  6
CONTINUOUS
 10
78.7973191681
 20
71.8100740835
 11
78.946049896
 21
71.8100740835
  0
LINE
  5
270
100
AcDbEntity
  8
0
100
AcDbLine
 62
7
  6
CONTINUOUS
 10
84.7785975092
 20
71.8100740835
 11
93.5135022829
 21
71.8100740835
  0
LINE
  5
271
100
AcDbEntity
  8
0
100
AcDbLine
 62
7
  6
CONTINUOUS
 10
210.2785975092
 20
71.8100740835
 11
219.0135022829
 21
71.8100740835
  0
LINE
  5
272
100
AcDbEntity
  8
DRAFT
100
AcDbLine
 62
7
  6
CONTINUOUS
 10
219.1447352781
 20
72.1100740835
 11
210.147364514
 21
72.1100740835
  0
LINE
  5
273
100
AcDbEntity
  8
DRAFT
100
AcDbLine
 62
7
  6
CONTINUOUS
 10
93.6447352781
 20
72.1100740835
 11
84.647364514
 21
72.1100740835
  0
LINE
  5
274
100
AcDbEntity
  8
RACCORDO
100
AcDbLine
 62
7
  6
CONTINUOUS
 10
79.946049896
 20
75.6100740835
 11
223.846049896
 21
75.6100740835
  0
LINE
  5
275
100
AcDbEntity
  8
DRAFT
100
AcDbLine
 62
7
  6
CONTINUOUS
 10
219.146049896
 20
75.6726132402
 11
210.146049896
 21
75.6726132402
  0
LINE
  5
276
100
AcDbEntity
  8
DRAFT
100
AcDbLine
 62
7
  6
CONTINUOUS
 10
93.646049896
 20
75.6726132402
 11
84.646049896
 21
75.6726132402
  0
LINE
  5
277
100
AcDbEntity
  8
DRAFT
100
AcDbLine
 62
7
  6
CONTINUOUS
 10
78.946049896
 20
75.8100740835
 11
224.846049896
 21
75.8100740835
  0
LINE
  5
278
100
AcDbEntity
  8
DRAFT
100
AcDbLine
 62
7
  6
CONTINUOUS
 10
224.994780624
 20
75.9588048115
 11
78.7973191681
 21
75.9588048115
  0
LINE
  5
279
100
AcDbEntity
  8
RACCORDO
100
AcDbLine
 62
253
  6
CONTINUOUS
 10
256.5141608984
 20
73.1682447226
 11
256.2883479757
 21
73.1736363847
  0
LINE
  5
27A
100
AcDbEntity
  8
RACCORDO
100
AcDbLine
 62
253
  6
CONTINUOUS
 10
254.1963049494
 20
73.3157477056
 11
255.1935155927
 21
73.2832199992
  0
LINE
  5
27B
100
AcDbEntity
  8
RACCORDO
100
AcDbLine
 62
253
  6
CONTINUOUS
 10
144.3794876516
 20
70.8604088166
 11
145.0686394094
 21
70.1712570589
  0
LINE
  5
27C
100
AcDbEntity
  8
RACCORDO
100
AcDbLine
 62
253
  6
CONTINUOUS
 10
163.3549592738
 20
60.7992382857
 11
167.2927925356
 21
56.8614050239
  0
LINE
  5
27D
100
AcDbEntity
  8
RACCORDO
100
AcDbLine
 62
253
  6
CONTINUOUS
 10
136.4993072565
 20
56.8614050239
 11
136.4993072565
 21
55.8896563155
  0
LINE
  5
27E
100
AcDbEntity
  8
RACCORDO
100
AcDbLine
 62
253
  6
CONTINUOUS
 10
140.4371405183
 20
61.5652827288
 11
140.4371405183
 21
60.7992382857
  0
LINE
  5
27F
100
AcDbEntity
  8
RACCORDO
100
AcDbLine
 62
253
  6
CONTINUOUS
 10
60.7427038004
 20
80.4616699036
 11
61.4643423676
 21
80.4616699036
  0
LINE
  5
280
100
AcDbEntity
  8
RACCORDO
100
AcDbLine
 62
253
  6
CONTINUOUS
 10
242.3277574245
 20
80.4616699036
 11
243.0493440883
 21
80.4616699036
  0
LINE
  5
281
100
AcDbEntity
  8
RACCORDO
100
AcDbLine
 62
7
  6
CONTINUOUS
 10
254.4312062818
 20
80.5731500514
 11
243.446049896
 21
80.5731500514
  0
LINE
  5
282
100
AcDbEntity
  8
RACCORDO
100
AcDbLine
 62
7
  6
CONTINUOUS
 10
60.346049896
 20
80.5731500514
 11
49.3608935103
 21
80.5731500514
  0
LINE
  5
283
100
AcDbEntity
  8
RACCORDO
100
AcDbLine
 62
253
  6
CONTINUOUS
 10
49.1491867131
 20
80.9379774666
 11
61.494780624
 21
80.9379774666
  0
LINE
  5
284
100
AcDbEntity
  8
RACCORDO
100
AcDbLine
 62
253
  6
CONTINUOUS
 10
242.2973191681
 20
80.9379774666
 11
254.642913079
 21
80.9379774666
  0
LINE
  5
285
100
AcDbEntity
  8
RACCORDO
100
AcDbLine
 62
253
  6
CONTINUOUS
 10
164.0441110316
 20
61.4883900435
 11
168.9759012519
 21
56.5565998232
  0
LINE
  5
286
100
AcDbEntity
  8
RACCORDO
100
AcDbLine
 62
253
  6
CONTINUOUS
 10
158.7234603827
 20
70.1712570589
 11
169.3941342353
 21
59.5005832063
  0
LINE
  5
287
100
AcDbEntity
  8
RACCORDO
100
AcDbLine
 62
253
  6
CONTINUOUS
 10
159.4126121405
 20
70.8604088166
 11
170.0819290526
 21
60.1910919045
  0
LINE
  5
288
100
AcDbEntity
  8
RACCORDO
100
AcDbLine
 62
253
  6
CONTINUOUS
 10
157.6035609352
 20
70.9510947699
 11
163.3549592738
 21
61.5652827288
  0
LINE
  5
289
100
AcDbEntity
  8
RACCORDO
100
AcDbLine
 62
253
  6
CONTINUOUS
 10
146.1885388569
 20
71.717139213
 11
146.1885388569
 21
70.9510947699
  0
LINE
  5
28A
100
AcDbEntity
  8
ASSI
100
AcDbLine
 62
7
  6
CONTINUOUS
 10
146.396049896
 20
65.1547571318
 11
146.396049896
 21
66.761726156
  0
LINE
  5
28B
100
AcDbEntity
  8
ASSI
100
AcDbLine
 62
7
  6
CONTINUOUS
 10
148.296049896
 20
63.6339933836
 11
148.296049896
 21
63.8207125118
  0
LINE
  5
28C
100
AcDbEntity
  8
DRAFT
100
AcDbLine
 62
253
  6
CONTINUOUS
 10
189.8579301114
 20
92.1100740835
 11
189.396049896
 21
92.1100740835
  0
LINE
  5
28D
100
AcDbEntity
  8
DRAFT
100
AcDbLine
 62
253
  6
CONTINUOUS
 10
175.3579301114
 20
92.1100740835
 11
174.896049896
 21
92.1100740835
  0
LINE
  5
28E
100
AcDbEntity
  8
DRAFT
100
AcDbLine
 62
253
  6
CONTINUOUS
 10
129.8579301114
 20
92.1100740835
 11
129.396049896
 21
92.1100740835
  0
LINE
  5
28F
100
AcDbEntity
  8
DRAFT
100
AcDbLine
 62
253
  6
CONTINUOUS
 10
115.3579301114
 20
92.1100740835
 11
114.896049896
 21
92.1100740835
  0
LINE
  5
290
100
AcDbEntity
  8
DRAFT
100
AcDbLine
 62
253
  6
CONTINUOUS
 10
113.9341696807
 20
92.1100740835
 11
114.396049896
 21
92.1100740835
  0
LINE
  5
291
100
AcDbEntity
  8
DRAFT
100
AcDbLine
 62
253
  6
CONTINUOUS
 10
128.4341696807
 20
92.1100740835
 11
128.896049896
 21
92.1100740835
  0
LINE
  5
292
100
AcDbEntity
  8
DRAFT
100
AcDbLine
 62
253
  6
CONTINUOUS
 10
173.9341696807
 20
92.1100740835
 11
174.396049896
 21
92.1100740835
  0
LINE
  5
293
100
AcDbEntity
  8
DRAFT
100
AcDbLine
 62
253
  6
CONTINUOUS
 10
188.4341696807
 20
92.1100740835
 11
188.896049896
 21
92.1100740835
  0
LINE
  5
294
100
AcDbEntity
  8
DRAFT
100
AcDbLine
 62
253
  6
CONTINUOUS
 10
229.6079301114
 20
93.3600743615
 11
229.146049896
 21
93.3600740835
  0
LINE
  5
295
100
AcDbEntity
  8
DRAFT
100
AcDbLine
 62
253
  6
CONTINUOUS
 10
225.1079301114
 20
93.3600740835
 11
224.646049896
 21
93.3600740835
  0
LINE
  5
296
100
AcDbEntity
  8
DRAFT
100
AcDbLine
 62
253
  6
CONTINUOUS
 10
75.6079301114
 20
93.3600740835
 11
75.146049896
 21
93.3600740835
  0
LINE
  5
297
100
AcDbEntity
  8
DRAFT
100
AcDbLine
 62
253
  6
CONTINUOUS
 10
74.1841696807
 20
93.3600740835
 11
74.646049896
 21
93.3600740835
  0
LINE
  5
298
100
AcDbEntity
  8
DRAFT
100
AcDbLine
 62
253
  6
CONTINUOUS
 10
78.6841696807
 20
93.3600740835
 11
79.146049896
 21
93.3600740835
  0
LINE
  5
299
100
AcDbEntity
  8
DRAFT
100
AcDbLine
 62
253
  6
CONTINUOUS
 10
223.6841696807
 20
93.3600740835
 11
224.146049896
 21
93.3600740835
  0
LINE
  5
29A
100
AcDbEntity
  8
DRAFT
100
AcDbLine
 62
253
  6
CONTINUOUS
 10
228.1841696807
 20
93.3600740835
 11
228.646049896
 21
93.3600740835
  0
LINE
  5
29B
100
AcDbEntity
  8
DRAFT
100
AcDbLine
 62
253
  6
CONTINUOUS
 10
80.1079301114
 20
93.3600743615
 11
79.646049896
 21
93.3600740835
  0
LINE
  5
29C
100
AcDbEntity
  8
DRAFT
100
AcDbLine
 62
253
  6
CONTINUOUS
 10
189.8579301114
 20
95.1100740835
 11
189.396049896
 21
95.1100740835
  0
LINE
  5
29D
100
AcDbEntity
  8
DRAFT
100
AcDbLine
 62
253
  6
CONTINUOUS
 10
175.3579301114
 20
95.1100740835
 11
174.896049896
 21
95.1100740835
  0
LINE
  5
29E
100
AcDbEntity
  8
DRAFT
100
AcDbLine
 62
253
  6
CONTINUOUS
 10
129.8579301114
 20
95.1100740835
 11
129.396049896
 21
95.1100740835
  0
LINE
  5
29F
100
AcDbEntity
  8
DRAFT
100
AcDbLine
 62
253
  6
CONTINUOUS
 10
115.3579301114
 20
95.1100740835
 11
114.896049896
 21
95.1100740835
  0
LINE
  5
2A0
100
AcDbEntity
  8
DRAFT
100
AcDbLine
 62
253
  6
CONTINUOUS
 10
113.9341696807
 20
95.1100740835
 11
114.396049896
 21
95.1100740835
  0
LINE
  5
2A1
100
AcDbEntity
  8
DRAFT
100
AcDbLine
 62
253
  6
CONTINUOUS
 10
128.4341696807
 20
95.1100740835
 11
128.896049896
 21
95.1100740835
  0
LINE
  5
2A2
100
AcDbEntity
  8
DRAFT
100
AcDbLine
 62
253
  6
CONTINUOUS
 10
173.9341696807
 20
95.1100740835
 11
174.396049896
 21
95.1100740835
  0
LINE
  5
2A3
100
AcDbEntity
  8
DRAFT
100
AcDbLine
 62
253
  6
CONTINUOUS
 10
188.4341696807
 20
95.1100740835
 11
188.896049896
 21
95.1100740835
  0
LINE
  5
2A4
100
AcDbEntity
  8
DRAFT
100
AcDbLine
 62
253
  6
CONTINUOUS
 10
229.6079301114
 20
95.8600743624
 11
229.146049896
 21
95.8600740835
  0
LINE
  5
2A5
100
AcDbEntity
  8
DRAFT
100
AcDbLine
 62
253
  6
CONTINUOUS
 10
225.1079301114
 20
95.8600740835
 11
224.646049896
 21
95.8600740835
  0
LINE
  5
2A6
100
AcDbEntity
  8
DRAFT
100
AcDbLine
 62
253
  6
CONTINUOUS
 10
75.6079301114
 20
95.8600740835
 11
75.146049896
 21
95.8600740835
  0
LINE
  5
2A7
100
AcDbEntity
  8
DRAFT
100
AcDbLine
 62
253
  6
CONTINUOUS
 10
74.1841696807
 20
95.8600740835
 11
74.646049896
 21
95.8600740835
  0
LINE
  5
2A8
100
AcDbEntity
  8
DRAFT
100
AcDbLine
 62
253
  6
CONTINUOUS
 10
78.6841696807
 20
95.8600740835
 11
79.146049896
 21
95.8600740835
  0
LINE
  5
2A9
100
AcDbEntity
  8
DRAFT
100
AcDbLine
 62
253
  6
CONTINUOUS
 10
223.6841696807
 20
95.8600740835
 11
224.146049896
 21
95.8600740835
  0
LINE
  5
2AA
100
AcDbEntity
  8
DRAFT
100
AcDbLine
 62
253
  6
CONTINUOUS
 10
228.1841696807
 20
95.8600740835
 11
228.646049896
 21
95.8600740835
  0
LINE
  5
2AB
100
AcDbEntity
  8
DRAFT
100
AcDbLine
 62
253
  6
CONTINUOUS
 10
80.1079301114
 20
95.8600743624
 11
79.646049896
 21
95.8600740835
  0
LINE
  5
2AC
100
AcDbEntity
  8
RACCORDO
100
AcDbLine
 62
253
  6
CONTINUOUS
 10
158.7234603827
 20
70.1712570589
 11
164.0441110316
 21
61.4883900435
  0
LINE
  5
2AD
100
AcDbEntity
  8
ASSI
100
AcDbLine
 62
7
  6
CONTINUOUS
 10
155.496049896
 20
63.6339933836
 11
155.496049896
 21
63.8207125118
  0
LINE
  5
2AE
100
AcDbEntity
  8
ASSI
100
AcDbLine
 62
7
  6
CONTINUOUS
 10
157.396049896
 20
66.761726156
 11
157.396049896
 21
65.1547571318
  0
LINE
  5
2AF
100
AcDbEntity
  8
RACCORDO
100
AcDbLine
 62
253
  6
CONTINUOUS
 10
157.6035609352
 20
71.717139213
 11
157.6035609353
 21
70.9510947699
  0
LINE
  5
2B0
100
AcDbEntity
  8
RACCORDO
100
AcDbLine
 62
253
  6
CONTINUOUS
 10
139.7479887605
 20
61.4883900435
 11
145.0686394094
 21
70.1712570589
  0
LINE
  5
2B1
100
AcDbEntity
  8
RACCORDO
100
AcDbLine
 62
253
  6
CONTINUOUS
 10
140.4371405183
 20
61.5652827288
 11
146.1885388569
 21
70.9510947699
  0
LINE
  5
2B2
100
AcDbEntity
  8
RACCORDO
100
AcDbLine
 62
253
  6
CONTINUOUS
 10
163.3549592738
 20
60.7992382857
 11
163.3549592738
 21
61.5652827288
  0
LINE
  5
2B3
100
AcDbEntity
  8
RACCORDO
100
AcDbLine
 62
253
  6
CONTINUOUS
 10
167.2927925356
 20
56.8614050239
 11
167.2927925357
 21
55.8896563155
  0
LINE
  5
2B4
100
AcDbEntity
  8
RACCORDO
100
AcDbLine
 62
253
  6
CONTINUOUS
 10
170.0819305579
 20
60.1910919045
 11
170.0819305579
 21
59.2379641684
  0
LINE
  5
2B5
100
AcDbEntity
  8
RACCORDO
100
AcDbLine
 62
253
  6
CONTINUOUS
 10
133.7101707419
 20
60.1910919069
 11
144.3794876516
 21
70.8604088166
  0
LINE
  5
2B6
100
AcDbEntity
  8
RACCORDO
100
AcDbLine
 62
253
  6
CONTINUOUS
 10
134.3979655575
 20
59.500583207
 11
145.0686394094
 21
70.1712570589
  0
LINE
  5
2B7
100
AcDbEntity
  8
RACCORDO
100
AcDbLine
 62
253
  6
CONTINUOUS
 10
134.8161985402
 20
56.5565998232
 11
139.7479887605
 21
61.4883900435
  0
LINE
  5
2B8
100
AcDbEntity
  8
RACCORDO
100
AcDbLine
 62
253
  6
CONTINUOUS
 10
136.4993072565
 20
56.8614050239
 11
140.4371405183
 21
60.7992382857
  0
LINE
  5
2B9
100
AcDbEntity
  8
DRAFT
100
AcDbLine
 62
7
  6
CONTINUOUS
 10
114.996049896
 20
106.3579640733
 11
111.996049896
 21
106.3579640733
  0
LINE
  5
2BA
100
AcDbEntity
  8
DRAFT
100
AcDbLine
 62
7
  6
CONTINUOUS
 10
188.796049896
 20
106.3579640733
 11
191.796049896
 21
106.3579640733
  0
LINE
  5
2BB
100
AcDbEntity
  8
RACCORDO
100
AcDbLine
 62
7
  6
CONTINUOUS
 10
191.6564225746
 20
112.3275338905
 11
188.8309600259
 21
112.3275338905
  0
LINE
  5
2BC
100
AcDbEntity
  8
RACCORDO
100
AcDbLine
 62
7
  6
CONTINUOUS
 10
114.9611397662
 20
112.3275338905
 11
112.1356772174
 21
112.3275338905
  0
LINE
  5
2BD
100
AcDbEntity
  8
0
100
AcDbLine
 62
7
  6
CONTINUOUS
 10
112.1356772174
 20
112.3275338905
 11
114.9611397662
 21
112.3275338905
  0
LINE
  5
2BE
100
AcDbEntity
  8
0
100
AcDbLine
 62
7
  6
CONTINUOUS
 10
188.8309600259
 20
112.3275338905
 11
191.6564225746
 21
112.3275338905
  0
LINE
  5
2BF
100
AcDbEntity
  8
DRAFT
100
AcDbLine
 62
7
  6
CONTINUOUS
 10
173.9341696807
 20
95.1100740835
 11
173.9341696807
 21
92.1100740835
  0
LINE
  5
2C0
100
AcDbEntity
  8
DRAFT
100
AcDbLine
 62
7
  6
CONTINUOUS
 10
174.396049896
 20
95.1100740835
 11
174.396049896
 21
92.1100740835
  0
LINE
  5
2C1
100
AcDbEntity
  8
DRAFT
100
AcDbLine
 62
7
  6
CONTINUOUS
 10
174.896049896
 20
92.1100740835
 11
174.896049896
 21
95.1100740835
  0
LINE
  5
2C2
100
AcDbEntity
  8
DRAFT
100
AcDbLine
 62
7
  6
CONTINUOUS
 10
175.3579301114
 20
92.1100740835
 11
175.3579301114
 21
95.1100740835
  0
LINE
  5
2C3
100
AcDbEntity
  8
RACCORDO
100
AcDbLine
 62
253
  6
CONTINUOUS
 10
159.4126121405
 20
70.8604088166
 11
158.7234603827
 21
70.1712570589
  0
LINE
  5
2C4
100
AcDbEntity
  8
RACCORDO
100
AcDbLine
 62
253
  6
CONTINUOUS
 10
47.9605323671
 20
120.5023880008
 11
46.9622295453
 21
120.4748859217
  0
LINE
  5
2C5
100
AcDbEntity
  8
DRAFT
100
AcDbLine
 62
7
  6
CONTINUOUS
 10
114.9611397662
 20
118.3275338905
 11
112.0309600259
 21
118.3275338905
  0
LINE
  5
2C6
100
AcDbEntity
  8
DRAFT
100
AcDbLine
 62
7
  6
CONTINUOUS
 10
188.8309600259
 20
118.3275338905
 11
191.7611397662
 21
118.3275338905
  0
LINE
  5
2C7
100
AcDbEntity
  8
DRAFT
100
AcDbLine
 62
7
  6
CONTINUOUS
 10
114.996049896
 20
119.0554743591
 11
111.996049896
 21
119.0554743591
  0
LINE
  5
2C8
100
AcDbEntity
  8
DRAFT
100
AcDbLine
 62
7
  6
CONTINUOUS
 10
188.796049896
 20
119.0554743591
 11
191.796049896
 21
119.0554743591
  0
LINE
  5
2C9
100
AcDbEntity
  8
RACCORDO
100
AcDbLine
 62
253
  6
CONTINUOUS
 10
254.8752471013
 20
121.7707232073
 11
48.9168526877
 21
121.7707232187
  0
LINE
  5
2CA
100
AcDbEntity
  8
RACCORDO
100
AcDbLine
 62
253
  6
CONTINUOUS
 10
254.8752239461
 20
122.5519079932
 11
48.9168357685
 21
122.5519079977
  0
LINE
  5
2CB
100
AcDbEntity
  8
RACCORDO
100
AcDbLine
 62
253
  6
CONTINUOUS
 10
255.831567423
 20
120.5023879788
 11
256.8298484184
 21
120.4748868963
  0
LINE
  5
2CC
100
AcDbEntity
  8
DRAFT
100
AcDbLine
 62
7
  6
CONTINUOUS
 10
188.4341696807
 20
95.1100740835
 11
188.4341696807
 21
92.1100740835
  0
LINE
  5
2CD
100
AcDbEntity
  8
DRAFT
100
AcDbLine
 62
7
  6
CONTINUOUS
 10
188.796049896
 20
119.0554743591
 11
188.796049896
 21
106.3579640733
  0
LINE
  5
2CE
100
AcDbEntity
  8
DRAFT
100
AcDbLine
 62
7
  6
CONTINUOUS
 10
188.8309600259
 20
107.5596853114
 11
188.8309600259
 21
118.3275338905
  0
LINE
  5
2CF
100
AcDbEntity
  8
DRAFT
100
AcDbLine
 62
7
  6
CONTINUOUS
 10
188.896049896
 20
95.1100740835
 11
188.896049896
 21
92.1100740835
  0
LINE
  5
2D0
100
AcDbEntity
  8
DRAFT
100
AcDbLine
 62
7
  6
CONTINUOUS
 10
188.796049896
 20
106.3579640733
 11
188.9694665345
 21
112.3275338905
  0
LINE
  5
2D1
100
AcDbEntity
  8
RACCORDO
100
AcDbLine
 62
253
  6
CONTINUOUS
 10
163.3549592738
 20
60.7992382857
 11
164.0441110316
 21
61.4883900435
  0
LINE
  5
2D2
100
AcDbEntity
  8
DRAFT
100
AcDbLine
 62
7
  6
CONTINUOUS
 10
219.1447352781
 20
68.9788410882
 11
219.0135022829
 21
69.1100740835
  0
LINE
  5
2D3
100
AcDbEntity
  8
DRAFT
100
AcDbLine
 62
7
  6
CONTINUOUS
 10
188.8309600259
 20
118.3275338905
 11
188.796049896
 21
119.0554743591
  0
LINE
  5
2D4
100
AcDbEntity
  8
DRAFT
100
AcDbLine
 62
7
  6
CONTINUOUS
 10
191.6226332576
 20
112.3275338905
 11
191.796049896
 21
106.3579640733
  0
LINE
  5
2D5
100
AcDbEntity
  8
DRAFT
100
AcDbLine
 62
7
  6
CONTINUOUS
 10
189.396049896
 20
92.1100740835
 11
189.396049896
 21
95.1100740835
  0
LINE
  5
2D6
100
AcDbEntity
  8
DRAFT
100
AcDbLine
 62
7
  6
CONTINUOUS
 10
189.8579301114
 20
92.1100740835
 11
189.8579301114
 21
95.1100740835
  0
LINE
  5
2D7
100
AcDbEntity
  8
DRAFT
100
AcDbLine
 62
7
  6
CONTINUOUS
 10
191.796049896
 20
119.0554743591
 11
191.796049896
 21
106.3579640733
  0
LINE
  5
2D8
100
AcDbEntity
  8
DRAFT
100
AcDbLine
 62
7
  6
CONTINUOUS
 10
191.7611397662
 20
118.3275338905
 11
191.796049896
 21
119.0554743591
  0
LINE
  5
2D9
100
AcDbEntity
  8
RACCORDO
100
AcDbLine
 62
253
  6
CONTINUOUS
 10
169.3927788001
 20
59.5019386414
 11
170.0819305579
 21
60.1910903992
  0
LINE
  5
2DA
100
AcDbEntity
  8
RACCORDO
100
AcDbLine
 62
7
  6
CONTINUOUS
 10
255.9462304916
 20
135.9905400832
 11
47.8458693005
 21
135.9905400832
  0
LINE
  5
2DB
100
AcDbEntity
  8
RACCORDO
100
AcDbLine
 62
7
  6
CONTINUOUS
 10
255.9469678599
 20
136.2469094286
 11
47.8451292871
 21
136.2469092658
  0
LINE
  5
2DC
100
AcDbEntity
  8
RACCORDO
100
AcDbLine
 62
253
  6
CONTINUOUS
 10
254.5375326371
 20
140.9138140732
 11
49.254566714
 21
140.9138141043
  0
LINE
  5
2DD
100
AcDbEntity
  8
RACCORDO
100
AcDbLine
 62
7
  6
CONTINUOUS
 10
254.5375332815
 20
140.9673985167
 11
49.2421489396
 21
140.9673609412
  0
LINE
  5
2DE
100
AcDbEntity
  8
RACCORDO
100
AcDbLine
 62
7
  6
CONTINUOUS
 10
254.5568694433
 20
140.9673106178
 11
254.5375332814
 21
140.967394342
  0
LWPOLYLINE
  5
2DF
100
AcDbEntity
  8
RACCORDO
100
AcDbPolyline
 62
7
  6
CONTINUOUS
 90
24
 70
0
 10
49.2421489396
 20
140.9673609412
 10
49.1438320724
 20
140.9646689403
 10
49.0459608811
 20
140.9576984586
 10
48.9487114565
 20
140.9464616752
 10
48.8523128861
 20
140.9309921406
 10
48.7570592586
 20
140.9113471589
 10
48.6631263059
 20
140.8875695846
 10
48.5707022083
 20
140.859718355
 10
48.4800895975
 20
140.8278947177
 10
48.3914770866
 20
140.7921736734
 10
48.3050326523
 20
140.7526418186
 10
48.2210174081
 20
140.7094361431
 10
48.1396027236
 20
140.662659704
 10
48.0609453173
 20
140.6124298557
 10
47.9852751695
 20
140.5589216765
 10
47.9127685112
 20
140.5022876162
 10
47.8435357665
 20
140.4426579588
 10
47.7777064739
 20
140.3801840046
 10
47.7154320124
 20
140.3150396509
 10
47.6568102071
 20
140.2473748906
 10
47.6019021943
 20
140.1773045916
 10
47.5508256812
 20
140.1050015911
 10
47.5036829742
 20
140.0306463707
 10
47.4661598204
 20
139.9648523723
  0
LINE
  5
2E0
100
AcDbEntity
  8
DRAFT
100
AcDbLine
 62
7
  6
CONTINUOUS
 10
210.146049896
 20
75.8100740835
 11
210.146049896
 21
75.6100740835
  0
LINE
  5
2E1
100
AcDbEntity
  8
DRAFT
100
AcDbLine
 62
7
  6
CONTINUOUS
 10
210.147364514
 20
72.1100740835
 11
210.147364514
 21
68.9788410882
  0
LINE
  5
2E2
100
AcDbEntity
  8
DRAFT
100
AcDbLine
 62
7
  6
CONTINUOUS
 10
210.2785975092
 20
72.1100740835
 11
210.2785975092
 21
69.1100740835
  0
LINE
  5
2E3
100
AcDbEntity
  8
DRAFT
100
AcDbLine
 62
7
  6
CONTINUOUS
 10
210.147364514
 20
68.9788410882
 11
210.2785975092
 21
69.1100740835
  0
LINE
  5
2E4
100
AcDbEntity
  8
DRAFT
100
AcDbLine
 62
7
  6
CONTINUOUS
 10
219.0135022829
 20
69.1100740835
 11
219.0135022829
 21
72.1100740835
  0
LINE
  5
2E5
100
AcDbEntity
  8
DRAFT
100
AcDbLine
 62
7
  6
CONTINUOUS
 10
219.1447352781
 20
68.9788410882
 11
219.1447352781
 21
72.1100740835
  0
LINE
  5
2E6
100
AcDbEntity
  8
DRAFT
100
AcDbLine
 62
7
  6
CONTINUOUS
 10
219.146049896
 20
75.6100740835
 11
219.146049896
 21
75.8100740835
  0
LINE
  5
2E7
100
AcDbEntity
  8
DRAFT
100
AcDbLine
 62
7
  6
CONTINUOUS
 10
223.6841696807
 20
95.8600740835
 11
223.6841696807
 21
93.3600740835
  0
LINE
  5
2E8
100
AcDbEntity
  8
DRAFT
100
AcDbLine
 62
7
  6
CONTINUOUS
 10
224.146049896
 20
95.8600740835
 11
224.146049896
 21
93.3600740835
  0
LINE
  5
2E9
100
AcDbEntity
  8
RACCORDO
100
AcDbLine
 62
7
  6
CONTINUOUS
 10
224.646049896
 20
74.8100740835
 11
224.646049896
 21
71.8100740835
  0
LINE
  5
2EA
100
AcDbEntity
  8
DRAFT
100
AcDbLine
 62
7
  6
CONTINUOUS
 10
224.646049896
 20
93.3600740835
 11
224.646049896
 21
95.8600740835
  0
LINE
  5
2EB
100
AcDbEntity
  8
DRAFT
100
AcDbLine
 62
7
  6
CONTINUOUS
 10
224.846049896
 20
75.8100740835
 11
224.846049896
 21
71.8100740835
  0
LINE
  5
2EC
100
AcDbEntity
  8
DRAFT
100
AcDbLine
 62
7
  6
CONTINUOUS
 10
224.994780624
 20
75.9588048115
 11
224.846049896
 21
75.8100740835
  0
LINE
  5
2ED
100
AcDbEntity
  8
DRAFT
100
AcDbLine
 62
7
  6
CONTINUOUS
 10
224.994780624
 20
75.9588048115
 11
224.994780624
 21
71.8100740835
  0
LINE
  5
2EE
100
AcDbEntity
  8
DRAFT
100
AcDbLine
 62
7
  6
CONTINUOUS
 10
225.1079301114
 20
93.3600740835
 11
225.1079301114
 21
95.8600740835
  0
LINE
  5
2EF
100
AcDbEntity
  8
DRAFT
100
AcDbLine
 62
7
  6
CONTINUOUS
 10
228.1841696807
 20
95.8600740835
 11
228.1841696807
 21
93.3600740835
  0
LINE
  5
2F0
100
AcDbEntity
  8
DRAFT
100
AcDbLine
 62
7
  6
CONTINUOUS
 10
228.646049896
 20
95.8600740835
 11
228.646049896
 21
93.3600740835
  0
LINE
  5
2F1
100
AcDbEntity
  8
DRAFT
100
AcDbLine
 62
7
  6
CONTINUOUS
 10
229.146049896
 20
93.3600740835
 11
229.146049896
 21
95.8600740835
  0
LINE
  5
2F2
100
AcDbEntity
  8
DRAFT
100
AcDbLine
 62
7
  6
CONTINUOUS
 10
229.6079301114
 20
93.3600743615
 11
229.6079301114
 21
95.8600743624
  0
LINE
  5
2F3
100
AcDbEntity
  8
RACCORDO
100
AcDbLine
 62
7
  6
CONTINUOUS
 10
242.2973191681
 20
71.8100740835
 11
242.2973191681
 21
80.9379774666
  0
LINE
  5
2F4
100
AcDbEntity
  8
RACCORDO
100
AcDbLine
 62
7
  6
CONTINUOUS
 10
242.446049896
 20
69.9430468305
 11
242.446049896
 21
71.8100740835
  0
LINE
  5
2F5
100
AcDbEntity
  8
RACCORDO
100
AcDbLine
 62
7
  6
CONTINUOUS
 10
242.646049896
 20
79.7330023373
 11
242.646049896
 21
71.8100740835
  0
LINE
  5
2F6
100
AcDbEntity
  8
RACCORDO
100
AcDbLine
 62
253
  6
CONTINUOUS
 10
252.8333149709
 20
60.1910929377
 11
252.833315012
 21
59.2379642206
  0
LINE
  5
2F7
100
AcDbEntity
  8
RACCORDO
100
AcDbLine
 62
253
  6
CONTINUOUS
 10
254.1526668365
 20
54.2059928028
 11
254.1526668327
 21
54.5050400805
  0
LINE
  5
2F8
100
AcDbEntity
  8
RACCORDO
100
AcDbLine
 62
253
  6
CONTINUOUS
 10
254.537533322
 20
140.9138140732
 11
254.5375332815
 21
140.9673985167
  0
LINE
  5
2F9
100
AcDbEntity
  8
RACCORDO
100
AcDbLine
 62
253
  6
CONTINUOUS
 10
254.6429130799
 20
80.9379774666
 11
254.6429131103
 21
80.5653187764
  0
LINE
  5
2FA
100
AcDbEntity
  8
RACCORDO
100
AcDbLine
 62
253
  6
CONTINUOUS
 10
254.8752471013
 20
121.7707232073
 11
254.8752470996
 21
122.5519079932
  0
LINE
  5
2FB
100
AcDbEntity
  8
RACCORDO
100
AcDbLine
 62
7
  6
CONTINUOUS
 10
257.9460498786
 20
134.5169417241
 11
257.9460536384
 21
52.6071920988
  0
LWPOLYLINE
  5
2FC
100
AcDbEntity
  8
RACCORDO
100
AcDbPolyline
 62
7
  6
CONTINUOUS
 90
24
 70
0
 10
256.3259367394
 20
139.9648563189
 10
256.2894409366
 20
140.0289337055
 10
256.2424978056
 20
140.1031698017
 10
256.1916359402
 20
140.1753677738
 10
256.1369562813
 20
140.2453479335
 10
256.0785756467
 20
140.3129384735
 10
256.0165545262
 20
140.3780255607
 10
255.9509891313
 20
140.440459838
 10
255.8820298537
 20
140.5000680062
 10
255.8098060174
 20
140.5566992808
 10
255.7344274446
 20
140.6102232354
 10
255.6560684065
 20
140.660488529
 10
255.5749562264
 20
140.7073218861
 10
255.4912463665
 20
140.7506058086
 10
255.4051086209
 20
140.7902373937
 10
255.3168005738
 20
140.826081117
 10
255.226488612
 20
140.8580499183
 10
255.1343598712
 20
140.8860682859
 10
255.0407133558
 20
140.9100356413
 10
254.9457358995
 20
140.929892209
 10
254.8496026218
 20
140.9455942067
 10
254.7526050893
 20
140.9570842435
 10
254.6549693677
 20
140.9643274326
 10
254.5568694433
 20
140.9673106178
  0
LINE
  5
2FD
100
AcDbEntity
  8
RACCORDO
100
AcDbLine
 62
7
  6
CONTINUOUS
 10
256.3259118416
 20
139.9649069802
 11
256.3256635273
 21
139.965365122
  0
LWPOLYLINE
  5
2FE
100
AcDbEntity
  8
RACCORDO
100
AcDbPolyline
 62
7
  6
CONTINUOUS
 90
10
 70
0
 10
257.936953389
 20
134.6819187696
 10
257.8568724808
 20
135.2987802843
 10
257.7460330005
 20
135.9472542698
 10
257.6096557146
 20
136.5812675959
 10
257.447903042
 20
137.2008019496
 10
257.2610492386
 20
137.8054463771
 10
257.0495721873
 20
138.3943997636
 10
256.8138991425
 20
138.9672758299
 10
256.5543185776
 20
139.524111804
 10
256.3256638665
 20
139.9653644966
  0
ARC
  5
2FF
100
AcDbEntity
  8
RACCORDO
100
AcDbCircle
 62
7
  6
CONTINUOUS
 10
-5158.7912356938
 20
-52.1721530661
 40
5207.8036707165
100
AcDbArc
 50
1.1953175378
 51
1.3792479039
  0
ARC
  5
300
100
AcDbEntity
  8
RACCORDO
100
AcDbCircle
 62
253
  6
CONTINUOUS
 10
-5149.5128828291
 20
-50.8364974455
 40
5198.2700988736
100
AcDbArc
 50
1.1827325487
 51
1.3669205835
  0
ARC
  5
301
100
AcDbEntity
  8
RACCORDO
100
AcDbCircle
 62
253
  6
CONTINUOUS
 10
-5136.2901250312
 20
-95.6573835077
 40
5187.6402973433
100
AcDbArc
 50
1.7322275139
 51
1.8662233246
  0
ARC
  5
302
100
AcDbEntity
  8
RACCORDO
100
AcDbCircle
 62
253
  6
CONTINUOUS
 10
-5131.9531728046
 20
-95.3582246628
 40
5184.2936464943
100
AcDbArc
 50
1.7303720325
 51
1.864480149
  0
ARC
  5
303
100
AcDbEntity
  8
RACCORDO
100
AcDbCircle
 62
253
  6
CONTINUOUS
 10
-24.2589378848
 20
92.3327297384
 40
73.315949073
100
AcDbArc
 50
348.7581824558
 51
348.9152214
  0
ARC
  5
304
100
AcDbEntity
  8
RACCORDO
100
AcDbCircle
 62
253
  6
CONTINUOUS
 10
-17.4322825536
 20
90.966657393
 40
66.3539603416
100
AcDbArc
 50
348.2629353981
 51
348.7659568682
  0
ARC
  5
305
100
AcDbEntity
  8
RACCORDO
100
AcDbCircle
 62
253
  6
CONTINUOUS
 10
-5.8480498399
 20
88.5355724161
 40
54.5174096036
100
AcDbArc
 50
347.3386330603
 51
348.2879289681
  0
ARC
  5
306
100
AcDbEntity
  8
RACCORDO
100
AcDbCircle
 62
253
  6
CONTINUOUS
 10
-21.3101192906
 20
115.4064447695
 40
279.6938078842
100
AcDbArc
 50
351.3380238634
 51
352.2934702726
  0
ARC
  5
307
100
AcDbEntity
  8
RACCORDO
100
AcDbCircle
 62
253
  6
CONTINUOUS
 10
-17.6438285501
 20
114.9777223131
 40
276.2012882002
100
AcDbArc
 50
352.3557507042
 51
356.1869622179
  0
ARC
  5
308
100
AcDbEntity
  8
RACCORDO
100
AcDbCircle
 62
253
  6
CONTINUOUS
 10
-98.4735988687
 20
106.2826836952
 40
148.8320589102
100
AcDbArc
 50
350.0121224935
 51
350.1309788797
  0
ARC
  5
309
100
AcDbEntity
  8
RACCORDO
100
AcDbCircle
 62
253
  6
CONTINUOUS
 10
-87.5626696904
 20
104.3551732837
 40
137.7521837213
100
AcDbArc
 50
349.7646569266
 51
350.0145800298
  0
ARC
  5
30A
100
AcDbEntity
  8
RACCORDO
100
AcDbCircle
 62
7
  6
CONTINUOUS
 10
-69.5621634078
 20
100.7633291893
 40
119.7006223666
100
AcDbArc
 50
348.988480758
 51
350.1447175716
  0
ARC
  5
30B
100
AcDbEntity
  8
RACCORDO
100
AcDbCircle
 62
253
  6
CONTINUOUS
 10
-60.9127300207
 20
99.4811653858
 40
110.6602917553
100
AcDbArc
 50
348.9318061986
 51
349.7962237894
  0
ARC
  5
30C
100
AcDbEntity
  8
RACCORDO
100
AcDbCircle
 62
253
  6
CONTINUOUS
 10
111.9890782263
 20
74.7132541942
 40
64.7295806238
100
AcDbArc
 50
181.0883730587
 51
181.3677043594
  0
ARC
  5
30D
100
AcDbEntity
  8
ASSI
100
AcDbCircle
 62
7
  6
CONTINUOUS
 10
70.146049896
 20
71.8100740835
 40
9.0
100
AcDbArc
 50
180.0
 51
360.0
  0
ARC
  5
30E
100
AcDbEntity
  8
DRAFT
100
AcDbCircle
 62
7
  6
CONTINUOUS
 10
70.146049896
 20
71.8100740835
 40
8.8
100
AcDbArc
 50
180.0
 51
360.0
  0
ARC
  5
30F
100
AcDbEntity
  8
DRAFT
100
AcDbCircle
 62
7
  6
CONTINUOUS
 10
70.146049896
 20
71.8100740835
 40
8.651269272
100
AcDbArc
 50
180.0
 51
360.0
  0
ARC
  5
310
100
AcDbEntity
  8
DRAFT
100
AcDbCircle
 62
7
  6
CONTINUOUS
 10
121.896049896
 20
92.1100740835
 40
7.9618802154
100
AcDbArc
 50
180.0
 51
360.0
  0
ARC
  5
311
100
AcDbEntity
  8
DRAFT
100
AcDbCircle
 62
7
  6
CONTINUOUS
 10
121.896049896
 20
92.1100740835
 40
7.5
100
AcDbArc
 50
180.0
 51
360.0
  0
ARC
  5
312
100
AcDbEntity
  8
DRAFT
100
AcDbCircle
 62
7
  6
CONTINUOUS
 10
121.896049896
 20
92.1100740835
 40
7.0
100
AcDbArc
 50
180.0
 51
360.0
  0
CIRCLE
  5
313
100
AcDbEntity
  8
0
100
AcDbCircle
 62
7
  6
CONTINUOUS
 10
70.146049896
 20
71.8100740835
 40
6.8660254038
  0
ARC
  5
314
100
AcDbEntity
  8
DRAFT
100
AcDbCircle
 62
7
  6
CONTINUOUS
 10
121.896049896
 20
92.1100740835
 40
6.5381197846
100
AcDbArc
 50
180.0
 51
360.0
  0
CIRCLE
  5
315
100
AcDbEntity
  8
0
100
AcDbCircle
 62
7
  6
CONTINUOUS
 10
70.146049896
 20
71.8100740835
 40
6.0
  0
ARC
  5
316
100
AcDbEntity
  8
ASSI
100
AcDbCircle
 62
7
  6
CONTINUOUS
 10
151.1544770844
 20
68.7800614395
 40
5.8892544653
100
AcDbArc
 50
241.6707885113
 51
245.8221200968
  0
ARC
  5
317
100
AcDbEntity
  8
ASSI
100
AcDbCircle
 62
7
  6
CONTINUOUS
 10
151.0169950694
 20
68.521763323
 40
5.5966511922
100
AcDbArc
 50
240.8841409901
 51
241.6548643606
  0
CIRCLE
  5
318
100
AcDbEntity
  8
0
100
AcDbCircle
 62
7
  6
CONTINUOUS
 10
70.146049896
 20
71.8100740835
 40
4.048134511
  0
ARC
  5
319
100
AcDbEntity
  8
DRAFT
100
AcDbCircle
 62
7
  6
CONTINUOUS
 10
77.146049896
 20
93.3600740835
 40
2.9618802154
100
AcDbArc
 50
180.0
 51
0.0000053774
  0
ARC
  5
31A
100
AcDbEntity
  8
DRAFT
100
AcDbCircle
 62
7
  6
CONTINUOUS
 10
77.146049896
 20
93.3600740835
 40
2.5
100
AcDbArc
 50
180.0
 51
360.0
  0
ARC
  5
31B
100
AcDbEntity
  8
RACCORDO
100
AcDbCircle
 62
253
  6
CONTINUOUS
 10
50.9781175038
 20
61.2379659495
 40
2.0001753782
100
AcDbArc
 50
182.3188274436
 51
269.4456942048
  0
ARC
  5
31C
100
AcDbEntity
  8
DRAFT
100
AcDbCircle
 62
7
  6
CONTINUOUS
 10
77.146049896
 20
93.3600740835
 40
2.0
100
AcDbArc
 50
180.0
 51
360.0
  0
ARC
  5
31D
100
AcDbEntity
  8
RACCORDO
100
AcDbCircle
 62
253
  6
CONTINUOUS
 10
49.6451923639
 20
56.1891464921
 40
1.9831616222
100
AcDbArc
 50
261.573455107
 51
269.8336019856
  0
ARC
  5
31E
100
AcDbEntity
  8
DRAFT
100
AcDbCircle
 62
7
  6
CONTINUOUS
 10
77.146049896
 20
93.3600740835
 40
1.5381197846
100
AcDbArc
 50
180.0
 51
360.0
  0
ARC
  5
31F
100
AcDbEntity
  8
RACCORDO
100
AcDbCircle
 62
7
  6
CONTINUOUS
 10
79.946049896
 20
74.8100740835
 40
0.8
100
AcDbArc
 50
90.0
 51
180.0
  0
ARC
  5
320
100
AcDbEntity
  8
DRAFT
100
AcDbCircle
 62
7
  6
CONTINUOUS
 10
121.896049896
 20
95.1100740835
 40
7.9618802154
100
AcDbArc
 50
0.0
 51
180.0
  0
ARC
  5
321
100
AcDbEntity
  8
DRAFT
100
AcDbCircle
 62
7
  6
CONTINUOUS
 10
121.896049896
 20
95.1100740835
 40
7.5
100
AcDbArc
 50
0.0
 51
180.0
  0
ARC
  5
322
100
AcDbEntity
  8
DRAFT
100
AcDbCircle
 62
7
  6
CONTINUOUS
 10
121.896049896
 20
95.1100740835
 40
7.0
100
AcDbArc
 50
0.0
 51
180.0
  0
CIRCLE
  5
323
100
AcDbEntity
  8
0
100
AcDbCircle
 62
7
  6
CONTINUOUS
 10
62.146049896
 20
113.6100740835
 40
6.8660254038
  0
ARC
  5
324
100
AcDbEntity
  8
DRAFT
100
AcDbCircle
 62
7
  6
CONTINUOUS
 10
121.896049896
 20
95.1100740835
 40
6.5381197846
100
AcDbArc
 50
0.0
 51
180.0
  0
CIRCLE
  5
325
100
AcDbEntity
  8
0
100
AcDbCircle
 62
7
  6
CONTINUOUS
 10
62.146049896
 20
113.6100740835
 40
6.0
  0
CIRCLE
  5
326
100
AcDbEntity
  8
0
100
AcDbCircle
 62
7
  6
CONTINUOUS
 10
62.146049896
 20
113.6100740835
 40
4.048134511
  0
ARC
  5
327
100
AcDbEntity
  8
DRAFT
100
AcDbCircle
 62
7
  6
CONTINUOUS
 10
77.146049896
 20
95.8600740835
 40
2.9618802154
100
AcDbArc
 50
0.0000053944
 51
180.0
  0
ARC
  5
328
100
AcDbEntity
  8
DRAFT
100
AcDbCircle
 62
7
  6
CONTINUOUS
 10
77.146049896
 20
95.8600740835
 40
2.5
100
AcDbArc
 50
0.0
 51
180.0
  0
ARC
  5
329
100
AcDbEntity
  8
RACCORDO
100
AcDbCircle
 62
7
  6
CONTINUOUS
 10
47.8451834838
 20
133.934282419
 40
2.3126268474
100
AcDbArc
 50
90.0013427326
 51
94.6933925354
  0
ARC
  5
32A
100
AcDbEntity
  8
RACCORDO
100
AcDbCircle
 62
7
  6
CONTINUOUS
 10
47.8441814638
 20
133.9461019495
 40
2.3007649612
100
AcDbArc
 50
94.6926070018
 51
97.0480224896
  0
ARC
  5
32B
100
AcDbEntity
  8
DRAFT
100
AcDbCircle
 62
7
  6
CONTINUOUS
 10
77.146049896
 20
95.8600740835
 40
2.0
100
AcDbArc
 50
0.0
 51
180.0
  0
ARC
  5
32C
100
AcDbEntity
  8
DRAFT
100
AcDbCircle
 62
7
  6
CONTINUOUS
 10
77.146049896
 20
95.8600740835
 40
1.5381197846
100
AcDbArc
 50
0.0
 51
180.0
  0
ARC
  5
32D
100
AcDbEntity
  8
RACCORDO
100
AcDbCircle
 62
253
  6
CONTINUOUS
 10
-8509.7684547598
 20
364.2202386771
 40
8769.9862023571
100
AcDbArc
 50
358.1478720676
 51
358.4073659564
  0
ARC
  5
32E
100
AcDbEntity
  8
RACCORDO
100
AcDbCircle
 62
253
  6
CONTINUOUS
 10
-8501.777105318
 20
363.811759396
 40
8760.9879074844
100
AcDbArc
 50
358.1497187986
 51
358.4085821276
  0
ARC
  5
32F
100
AcDbEntity
  8
RACCORDO
100
AcDbCircle
 62
253
  6
CONTINUOUS
 10
48.8840940733
 20
139.1966000986
 40
1.6126860769
100
AcDbArc
 50
149.0757078058
 51
151.5297230786
  0
ARC
  5
330
100
AcDbEntity
  8
RACCORDO
100
AcDbCircle
 62
7
  6
CONTINUOUS
 10
47.3492818312
 20
134.5167577559
 40
1.5032318957
100
AcDbArc
 50
173.6918364467
 51
179.9929725837
  0
ARC
  5
331
100
AcDbEntity
  8
RACCORDO
100
AcDbCircle
 62
253
  6
CONTINUOUS
 10
192.4732769653
 20
74.7006466205
 40
64.0592153421
100
AcDbArc
 50
358.629259868
 51
358.9128776979
  0
ARC
  5
332
100
AcDbEntity
  8
ASSI
100
AcDbCircle
 62
7
  6
CONTINUOUS
 10
233.646049896
 20
71.8100740835
 40
9.0
100
AcDbArc
 50
180.0
 51
360.0
  0
ARC
  5
333
100
AcDbEntity
  8
DRAFT
100
AcDbCircle
 62
7
  6
CONTINUOUS
 10
233.646049896
 20
71.8100740835
 40
8.8
100
AcDbArc
 50
180.0
 51
360.0
  0
ARC
  5
334
100
AcDbEntity
  8
DRAFT
100
AcDbCircle
 62
7
  6
CONTINUOUS
 10
233.646049896
 20
71.8100740835
 40
8.651269272
100
AcDbArc
 50
180.0
 51
360.0
  0
ARC
  5
335
100
AcDbEntity
  8
DRAFT
100
AcDbCircle
 62
7
  6
CONTINUOUS
 10
181.896049896
 20
92.1100740835
 40
7.9618802154
100
AcDbArc
 50
180.0
 51
360.0
  0
ARC
  5
336
100
AcDbEntity
  8
DRAFT
100
AcDbCircle
 62
7
  6
CONTINUOUS
 10
181.896049896
 20
92.1100740835
 40
7.5
100
AcDbArc
 50
180.0
 51
360.0
  0
ARC
  5
337
100
AcDbEntity
  8
DRAFT
100
AcDbCircle
 62
7
  6
CONTINUOUS
 10
181.896049896
 20
92.1100740835
 40
7.0
100
AcDbArc
 50
180.0
 51
360.0
  0
CIRCLE
  5
338
100
AcDbEntity
  8
0
100
AcDbCircle
 62
7
  6
CONTINUOUS
 10
233.646049896
 20
71.8100740835
 40
6.8660254038
  0
ARC
  5
339
100
AcDbEntity
  8
DRAFT
100
AcDbCircle
 62
7
  6
CONTINUOUS
 10
181.896049896
 20
92.1100740835
 40
6.5381197846
100
AcDbArc
 50
180.0
 51
360.0
  0
CIRCLE
  5
33A
100
AcDbEntity
  8
0
100
AcDbCircle
 62
7
  6
CONTINUOUS
 10
233.646049896
 20
71.8100740835
 40
6.0
  0
ARC
  5
33B
100
AcDbEntity
  8
ASSI
100
AcDbCircle
 62
7
  6
CONTINUOUS
 10
152.6142284647
 20
68.8255210744
 40
5.9403085284
100
AcDbArc
 50
294.2041450718
 51
299.0458917807
  0
ARC
  5
33C
100
AcDbEntity
  8
ASSI
100
AcDbCircle
 62
7
  6
CONTINUOUS
 10
152.8345833189
 20
68.4151381923
 40
5.4745585423
100
AcDbArc
 50
299.1150073286
 51
300.1127527969
  0
CIRCLE
  5
33D
100
AcDbEntity
  8
0
100
AcDbCircle
 62
7
  6
CONTINUOUS
 10
233.646049896
 20
71.8100740835
 40
4.048134511
  0
ARC
  5
33E
100
AcDbEntity
  8
DRAFT
100
AcDbCircle
 62
7
  6
CONTINUOUS
 10
226.646049896
 20
93.3600740835
 40
2.9618802154
100
AcDbArc
 50
180.0
 51
0.0000053774
  0
ARC
  5
33F
100
AcDbEntity
  8
DRAFT
100
AcDbCircle
 62
7
  6
CONTINUOUS
 10
226.646049896
 20
93.3600740835
 40
2.5
100
AcDbArc
 50
180.0
 51
360.0
  0
ARC
  5
340
100
AcDbEntity
  8
RACCORDO
100
AcDbCircle
 62
253
  6
CONTINUOUS
 10
252.8139823457
 20
61.2379659156
 40
2.0001753174
100
AcDbArc
 50
270.5543488089
 51
357.6811733272
  0
ARC
  5
341
100
AcDbEntity
  8
DRAFT
100
AcDbCircle
 62
7
  6
CONTINUOUS
 10
226.646049896
 20
93.3600740835
 40
2.0
100
AcDbArc
 50
180.0
 51
360.0
  0
ARC
  5
342
100
AcDbEntity
  8
RACCORDO
100
AcDbCircle
 62
253
  6
CONTINUOUS
 10
254.1469038146
 20
56.1891636766
 40
1.9831789328
100
AcDbArc
 50
270.1664991501
 51
278.4981653768
  0
ARC
  5
343
100
AcDbEntity
  8
DRAFT
100
AcDbCircle
 62
7
  6
CONTINUOUS
 10
226.646049896
 20
93.3600740835
 40
1.5381197846
100
AcDbArc
 50
180.0
 51
360.0
  0
ARC
  5
344
100
AcDbEntity
  8
RACCORDO
100
AcDbCircle
 62
7
  6
CONTINUOUS
 10
223.846049896
 20
74.8100740835
 40
0.8
100
AcDbArc
 50
0.0
 51
90.0
  0
ARC
  5
345
100
AcDbEntity
  8
DRAFT
100
AcDbCircle
 62
7
  6
CONTINUOUS
 10
181.896049896
 20
95.1100740835
 40
7.9618802154
100
AcDbArc
 50
0.0
 51
180.0
  0
ARC
  5
346
100
AcDbEntity
  8
DRAFT
100
AcDbCircle
 62
7
  6
CONTINUOUS
 10
181.896049896
 20
95.1100740835
 40
7.5
100
AcDbArc
 50
0.0
 51
180.0
  0
ARC
  5
347
100
AcDbEntity
  8
DRAFT
100
AcDbCircle
 62
7
  6
CONTINUOUS
 10
181.896049896
 20
95.1100740835
 40
7.0
100
AcDbArc
 50
0.0
 51
180.0
  0
CIRCLE
  5
348
100
AcDbEntity
  8
0
100
AcDbCircle
 62
7
  6
CONTINUOUS
 10
241.646049896
 20
113.6100740835
 40
6.8660254038
  0
ARC
  5
349
100
AcDbEntity
  8
DRAFT
100
AcDbCircle
 62
7
  6
CONTINUOUS
 10
181.896049896
 20
95.1100740835
 40
6.5381197846
100
AcDbArc
 50
0.0
 51
180.0
  0
CIRCLE
  5
34A
100
AcDbEntity
  8
0
100
AcDbCircle
 62
7
  6
CONTINUOUS
 10
241.646049896
 20
113.6100740835
 40
6.0
  0
CIRCLE
  5
34B
100
AcDbEntity
  8
0
100
AcDbCircle
 62
7
  6
CONTINUOUS
 10
241.646049896
 20
113.6100740835
 40
4.048134511
  0
ARC
  5
34C
100
AcDbEntity
  8
DRAFT
100
AcDbCircle
 62
7
  6
CONTINUOUS
 10
226.646049896
 20
95.8600740835
 40
2.9618802154
100
AcDbArc
 50
0.0000053944
 51
180.0
  0
ARC
  5
34D
100
AcDbEntity
  8
DRAFT
100
AcDbCircle
 62
7
  6
CONTINUOUS
 10
226.646049896
 20
95.8600740835
 40
2.5
100
AcDbArc
 50
0.0
 51
180.0
  0
ARC
  5
34E
100
AcDbEntity
  8
RACCORDO
100
AcDbCircle
 62
7
  6
CONTINUOUS
 10
255.9469375949
 20
133.9353794122
 40
2.3115300165
100
AcDbArc
 50
87.6498092321
 51
89.999249824
  0
ARC
  5
34F
100
AcDbEntity
  8
RACCORDO
100
AcDbCircle
 62
7
  6
CONTINUOUS
 10
255.9472519195
 20
133.9395893826
 40
2.3073107021
100
AcDbArc
 50
82.9553969156
 51
87.6533210531
  0
ARC
  5
350
100
AcDbEntity
  8
DRAFT
100
AcDbCircle
 62
7
  6
CONTINUOUS
 10
226.646049896
 20
95.8600740835
 40
2.0
100
AcDbArc
 50
0.0
 51
180.0
  0
ARC
  5
351
100
AcDbEntity
  8
DRAFT
100
AcDbCircle
 62
7
  6
CONTINUOUS
 10
226.646049896
 20
95.8600740835
 40
1.5381197846
100
AcDbArc
 50
0.0
 51
180.0
  0
ARC
  5
352
100
AcDbEntity
  8
RACCORDO
100
AcDbCircle
 62
253
  6
CONTINUOUS
 10
328.051037684
 20
92.3327297398
 40
73.3159490802
100
AcDbArc
 50
191.0847786
 51
191.2418175442
  0
ARC
  5
353
100
AcDbEntity
  8
RACCORDO
100
AcDbCircle
 62
253
  6
CONTINUOUS
 10
322.7079245918
 20
91.268097962
 40
67.8678034105
100
AcDbArc
 50
191.2396533052
 51
191.7314544285
  0
ARC
  5
354
100
AcDbEntity
  8
RACCORDO
100
AcDbCircle
 62
253
  6
CONTINUOUS
 10
311.8458204089
 20
89.0119201763
 40
56.7738570807
100
AcDbArc
 50
191.7309360746
 51
192.642501897
  0
ARC
  5
355
100
AcDbEntity
  8
RACCORDO
100
AcDbCircle
 62
253
  6
CONTINUOUS
 10
325.1022190822
 20
115.4064447694
 40
279.6938078836
100
AcDbArc
 50
187.7065297274
 51
188.6619761366
  0
ARC
  5
356
100
AcDbEntity
  8
RACCORDO
100
AcDbCircle
 62
253
  6
CONTINUOUS
 10
321.4359283423
 20
114.9777223131
 40
276.2012882003
100
AcDbArc
 50
183.8130377821
 51
187.6442492958
  0
ARC
  5
357
100
AcDbEntity
  8
RACCORDO
100
AcDbCircle
 62
253
  6
CONTINUOUS
 10
402.2656986245
 20
106.282683689
 40
148.8320588734
100
AcDbArc
 50
189.8690211204
 51
189.9878775065
  0
ARC
  5
358
100
AcDbEntity
  8
RACCORDO
100
AcDbCircle
 62
253
  6
CONTINUOUS
 10
393.5063124963
 20
104.7388236905
 40
139.9376590952
100
AcDbArc
 50
189.9873715594
 51
190.2333914843
  0
ARC
  5
359
100
AcDbEntity
  8
RACCORDO
100
AcDbCircle
 62
7
  6
CONTINUOUS
 10
381.9225811583
 20
102.3410735568
 40
128.4125766003
100
AcDbArc
 50
189.8945051833
 51
190.972296487
  0
ARC
  5
35A
100
AcDbEntity
  8
RACCORDO
100
AcDbCircle
 62
253
  6
CONTINUOUS
 10
370.5912020589
 20
100.5865969156
 40
116.649400262
100
AcDbArc
 50
190.2259674156
 51
191.0460025963
  0
ARC
  5
35B
100
AcDbEntity
  8
RACCORDO
100
AcDbCircle
 62
7
  6
CONTINUOUS
 10
5462.663164943
 20
-52.1739469234
 40
5207.8835202231
100
AcDbArc
 50
178.6207535061
 51
178.8046810522
  0
ARC
  5
35C
100
AcDbEntity
  8
RACCORDO
100
AcDbCircle
 62
253
  6
CONTINUOUS
 10
5453.3063434121
 20
-50.8365274432
 40
5198.2714599928
100
AcDbArc
 50
178.6330794437
 51
178.8172674303
  0
ARC
  5
35D
100
AcDbEntity
  8
RACCORDO
100
AcDbCircle
 62
253
  6
CONTINUOUS
 10
5440.0822813333
 20
-95.6573852812
 40
5187.6403538811
100
AcDbArc
 50
178.1337766762
 51
178.2677724854
  0
ARC
  5
35E
100
AcDbEntity
  8
RACCORDO
100
AcDbCircle
 62
253
  6
CONTINUOUS
 10
5435.7454048943
 20
-95.3582287529
 40
5184.2937788549
100
AcDbArc
 50
178.1355198534
 51
178.2696279666
  0
ARC
  5
35F
100
AcDbEntity
  8
RACCORDO
100
AcDbCircle
 62
253
  6
CONTINUOUS
 10
8813.5587349429
 20
364.220185395
 40
8769.9843819767
100
AcDbArc
 50
181.5926341854
 51
181.8521279687
  0
ARC
  5
360
100
AcDbEntity
  8
RACCORDO
100
AcDbCircle
 62
253
  6
CONTINUOUS
 10
8805.5692018897
 20
363.8117596124
 40
8760.9879042727
100
AcDbArc
 50
181.5914178743
 51
181.8502812034
  0
ARC
  5
361
100
AcDbEntity
  8
RACCORDO
100
AcDbCircle
 62
253
  6
CONTINUOUS
 10
254.9115581971
 20
139.1985789483
 40
1.608618935
100
AcDbArc
 50
28.468361891
 51
29.8582308499
  0
ARC
  5
362
100
AcDbEntity
  8
RACCORDO
100
AcDbCircle
 62
7
  6
CONTINUOUS
 10
256.4428064796
 20
134.5167580252
 40
1.5032434102
100
AcDbArc
 50
0.0070016423
 51
6.307785882
  0
SPLINE
  5
363
100
AcDbEntity
  8
RACCORDO
100
AcDbSpline
 62
7
  6
CONTINUOUS
 70
0
 71
3
 72
11
 73
7
 74
5
 42
0.0000001
 43
0.0000001
 44
0.0000000001
 12
0.0
 22
1.2800571967
 32
0.0
 13
-1.2800571967
 23
0.0
 33
0.0
 40
0.0
 40
0.0
 40
0.0
 40
0.0
 40
0.25009784
 40
0.5001809249
 40
0.7501319568
 40
1.0
 40
1.0
 40
1.0
 40
1.0
 10
61.146049896
 20
79.7330023373
 30
0.0
 10
61.146049896
 20
79.8397155173
 30
0.0
 10
61.1066087666
 20
80.0552028568
 30
0.0
 10
60.9343401742
 20
80.3338615539
 30
0.0
 10
60.6685344704
 20
80.5268321834
 30
0.0
 10
60.452665025
 20
80.5731500514
 30
0.0
 10
60.346049896
 20
80.5731500514
 30
0.0
 11
61.146049896
 21
79.7330023373
 31
0.0
 11
61.0877500042
 21
80.0477886897
 31
0.0
 11
60.918700193
 21
80.3196331187
 31
0.0
 11
60.658825178
 21
80.5062718442
 31
0.0
 11
60.346049896
 21
80.5731500514
 31
0.0
  0
SPLINE
  5
364
100
AcDbEntity
  8
RACCORDO
100
AcDbSpline
 62
7
  6
CONTINUOUS
 70
0
 71
3
 72
11
 73
7
 74
5
 42
0.0000001
 43
0.0000001
 44
0.0000000001
 12
-1.2800572702
 22
0.0
 32
0.0
 13
0.0
 23
-1.2800572702
 33
0.0
 40
0.0
 40
0.0
 40
0.0
 40
0.0
 40
0.2498735624
 40
0.4998304692
 40
0.7499090068
 40
1.0
 40
1.0
 40
1.0
 40
1.0
 10
243.446049896
 20
80.5731500514
 30
0.0
 10
243.339432406
 20
80.5731500514
 30
0.0
 10
243.1235579514
 20
80.5268297553
 30
0.0
 10
242.8577523095
 20
80.3338535098
 30
0.0
 10
242.6854881217
 20
80.0551951438
 30
0.0
 10
242.646049896
 20
79.839712602
 30
0.0
 10
242.646049896
 20
79.7330023373
 30
0.0
 11
243.446049896
 21
80.5731500514
 31
0.0
 11
243.1332680409
 21
80.5062687105
 31
0.0
 11
242.8733893955
 21
80.3196221165
 31
0.0
 11
242.7043460783
 21
80.0477804821
 31
0.0
 11
242.646049896
 21
79.7330023373
 31
0.0
  0
SPLINE
  5
365
100
AcDbEntity
  8
RACCORDO
100
AcDbSpline
 62
7
  6
CONTINUOUS
 70
0
 71
3
 72
11
 73
7
 74
5
 42
0.0000001
 43
0.0000001
 44
0.0000000001
 12
-3.078661046
 22
0.00000929
 32
0.0
 13
-0.0643158071
 23
3.0779891671
 33
0.0
 40
0.0
 40
0.0
 40
0.0
 40
0.0
 40
0.2499766634
 40
0.4999145645
 40
0.7499059194
 40
1.0
 40
1.0
 40
1.0
 40
1.0
 10
49.8584859353
 20
54.4919319175
 30
0.0
 10
49.6019547967
 20
54.4919326916
 30
0.0
 10
49.0831188124
 20
54.5951307467
 30
0.0
 10
48.4295973874
 20
55.0373800863
 30
0.0
 10
47.9923302109
 20
55.6933636164
 30
0.0
 10
47.8845350871
 20
56.2097508886
 30
0.0
 10
47.8791734196
 20
56.4663465122
 30
0.0
 11
49.8584859353
 21
54.4919319175
 31
0.0
 11
49.1038755152
 21
54.6430515382
 31
0.0
 11
48.4656894667
 21
55.0729456268
 31
0.0
 11
48.0383104956
 21
55.7130166079
 31
0.0
 11
47.8791734196
 21
56.4663465122
 31
0.0
  0
SPLINE
  5
366
100
AcDbEntity
  8
RACCORDO
100
AcDbSpline
 62
7
  6
CONTINUOUS
 70
0
 71
3
 72
11
 73
7
 74
5
 42
0.0000001
 43
0.0000001
 44
0.0000000001
 12
-0.0643155685
 22
-3.0779891699
 32
0.0
 13
-3.0786610437
 23
-0.0000112653
 33
0.0
 40
0.0
 40
0.0
 40
0.0
 40
0.0
 40
0.2500940805
 40
0.5000854334
 40
0.750023338
 40
1.0
 40
1.0
 40
1.0
 40
1.0
 10
255.9129263725
 20
56.4663465122
 30
0.0
 10
255.9075647249
 20
56.2097508885
 30
0.0
 10
255.7997695677
 20
55.6933636127
 30
0.0
 10
255.3625023972
 20
55.0373801175
 30
0.0
 10
254.7089809844
 20
54.5951306549
 30
0.0
 10
254.1901449939
 20
54.4919328562
 30
0.0
 10
253.9336138568
 20
54.4919319175
 30
0.0
 11
255.9129263725
 21
56.4663465122
 31
0.0
 11
255.753789292
 21
55.7130166096
 31
0.0
 11
255.3264103227
 21
55.0729456356
 31
0.0
 11
254.6882242739
 21
54.6430515294
 31
0.0
 11
253.9336138568
 21
54.4919319175
 31
0.0
  0
SPLINE
  5
367
100
AcDbEntity
  8
ASSI
100
AcDbSpline
 62
7
  6
CONTINUOUS
 70
0
 71
3
 72
9
 73
5
 74
3
 42
0.0000001
 43
0.0000001
 44
0.0000000001
 12
0.0
 22
0.9374865611
 32
0.0
 13
0.3604697093
 23
0.865414722
 33
0.0
 40
0.0
 40
0.0
 40
0.0
 40
0.0
 40
0.2465293064
 40
1.0
 40
1.0
 40
1.0
 40
1.0
 10
146.396049896
 20
66.761726156
 30
0.0
 10
146.396049896
 20
66.8387654599
 30
0.0
 10
146.4120019455
 20
67.151163263
 30
0.0
 10
146.4929233975
 20
67.4593824935
 30
0.0
 10
146.5834578515
 20
67.6767373704
 30
0.0
 11
146.396049896
 21
66.761726156
 31
0.0
 11
146.4078638172
 21
66.9925419275
 31
0.0
 11
146.5834578515
 21
67.6767373704
 31
0.0
  0
SPLINE
  5
368
100
AcDbEntity
  8
ASSI
100
AcDbSpline
 62
7
  6
CONTINUOUS
 70
0
 71
3
 72
19
 73
15
 74
13
 42
0.0000001
 43
0.0000001
 44
0.0000000001
 12
5.1480022355
 22
12.3593101135
 32
0.0
 13
0.0
 23
-13.3885949038
 33
0.0
 40
0.0
 40
0.0
 40
0.0
 40
0.0
 40
0.0513145216
 40
0.1067633802
 40
0.1669102672
 40
0.2316425679
 40
0.371726532
 40
0.518701247
 40
0.6616852365
 40
0.7910146266
 40
0.8490072715
 40
0.9024574708
 40
0.9522864153
 40
1.0
 40
1.0
 40
1.0
 40
1.0
 10
146.5834578515
 20
67.6767373704
 30
0.0
 10
146.6715136087
 20
67.8881413989
 30
0.0
 10
146.914063659
 20
68.3046424677
 30
0.0
 10
147.4251253641
 20
68.8530928849
 30
0.0
 10
148.0769299859
 20
69.3321791276
 30
0.0
 10
149.1330727607
 20
69.8728920136
 30
0.0
 10
150.6680315542
 20
70.2832025748
 30
0.0
 10
152.6020726338
 20
70.3414724115
 30
0.0
 10
154.4534986779
 20
69.9748050005
 30
0.0
 10
155.8017449598
 20
69.3196282572
 30
0.0
 10
156.6179099091
 20
68.6116951453
 30
0.0
 10
157.0590284121
 20
68.0354322581
 30
0.0
 10
157.3330811597
 20
67.4121533284
 30
0.0
 10
157.396049896
 20
66.9746654416
 30
0.0
 10
157.396049896
 20
66.761726156
 30
0.0
 11
146.5834578515
 21
67.6767373704
 31
0.0
 11
146.9241565887
 21
68.2733391533
 31
0.0
 11
147.425439806
 21
68.8209216798
 31
0.0
 11
148.0711163656
 21
69.3021507017
 31
0.0
 11
148.84043959
 21
69.701232843
 31
0.0
 11
150.647129394
 21
70.2046960058
 31
0.0
 11
152.6139350197
 21
70.2667695569
 31
0.0
 11
154.4887294338
 21
69.8796005102
 31
0.0
 11
156.0311362719
 21
69.0927029267
 31
0.0
 11
156.6135552144
 21
68.5792369637
 31
0.0
 11
157.0434775469
 21
68.0071502902
 31
0.0
 11
157.307152339
 21
67.3943283047
 31
0.0
 11
157.396049896
 21
66.761726156
 31
0.0
  0
SPLINE
  5
369
100
AcDbEntity
  8
RACCORDO
100
AcDbSpline
 62
7
  6
CONTINUOUS
 70
0
 71
3
 72
12
 73
8
 74
6
 42
0.0000001
 43
0.0000001
 44
0.0000000001
 12
1.0729888706
 22
0.0
 32
0.0
 13
0.1847068885
 23
-1.0569713723
 33
0.0
 40
0.0
 40
0.0
 40
0.0
 40
0.0
 40
0.349257964
 40
0.6494019563
 40
0.7698337124
 40
0.867730458
 40
1.0
 40
1.0
 40
1.0
 40
1.0
 10
254.4312074212
 20
80.5731500514
 30
0.0
 10
254.5561240573
 20
80.5731500514
 30
0.0
 10
254.788691006
 20
80.5592682547
 30
0.0
 10
255.0600706587
 20
80.5081435229
 30
0.0
 10
255.2357693911
 20
80.4442540363
 30
0.0
 10
255.344813327
 20
80.3870691814
 30
0.0
 10
255.411893912
 20
80.3219483305
 30
0.0
 10
255.4200376105
 20
80.2753466241
 30
0.0
 11
254.4312074212
 21
80.5731500514
 31
0.0
 11
254.8052266338
 21
80.5497594042
 31
0.0
 11
255.1205007464
 21
80.4840388917
 31
0.0
 11
255.2415555648
 21
80.4388278405
 31
0.0
 11
255.3333073832
 21
80.3876863654
 31
0.0
 11
255.4200376105
 21
80.2753466241
 31
0.0
  0
SPLINE
  5
36A
100
AcDbEntity
  8
RACCORDO
100
AcDbSpline
 62
7
  6
CONTINUOUS
 70
0
 71
3
 72
9
 73
5
 74
3
 42
0.0000001
 43
0.0000001
 44
0.0000000001
 12
0.3498319249
 22
-1.7942052779
 32
0.0
 13
0.4026518159
 23
-1.783094633
 33
0.0
 40
0.0
 40
0.0
 40
0.0
 40
0.0
 40
0.2658375869
 40
1.0
 40
1.0
 40
1.0
 40
1.0
 10
255.8574727273
 20
77.8997506506
 30
0.0
 10
255.8884722189
 20
77.7407615835
 30
0.0
 10
256.0069762912
 20
77.1430669923
 30
0.0
 10
256.1332350664
 20
76.5468866162
 30
0.0
 10
256.2317723426
 20
76.1105262634
 30
0.0
 11
255.8574727273
 21
77.8997506506
 31
0.0
 11
255.9520259141
 21
77.4230892169
 31
0.0
 11
256.2317723426
 21
76.1105262634
 31
0.0
  0
SPLINE
  5
36B
100
AcDbEntity
  8
RACCORDO
100
AcDbSpline
 62
7
  6
CONTINUOUS
 70
0
 71
3
 72
12
 73
8
 74
6
 42
0.0000001
 43
0.0000001
 44
0.0000000001
 12
0.1847069374
 22
1.0569716519
 32
0.0
 13
1.0729891545
 23
0.0
 33
0.0
 40
0.0
 40
0.0
 40
0.0
 40
0.0
 40
0.1322644023
 40
0.2301634121
 40
0.3505982482
 40
0.6507459198
 40
1.0
 40
1.0
 40
1.0
 40
1.0
 10
48.3720621816
 20
80.2753466241
 30
0.0
 10
48.3802055658
 20
80.321946532
 30
0.0
 10
48.4472828417
 20
80.387068522
 30
0.0
 10
48.5563283395
 20
80.4442512698
 30
0.0
 10
48.732028757
 20
80.5081449886
 30
0.0
 10
49.0034104361
 20
80.5592678971
 30
0.0
 10
49.2359770909
 20
80.5731500514
 30
0.0
 10
49.3608923709
 20
80.5731500514
 30
0.0
 11
48.3720621816
 21
80.2753466241
 31
0.0
 11
48.4587873024
 21
80.387683388
 31
0.0
 11
48.5505415386
 21
80.4388255726
 31
0.0
 11
48.6715990952
 21
80.4840388355
 31
0.0
 11
48.9868771995
 21
80.5497599625
 31
0.0
 11
49.3608923709
 21
80.5731500514
 31
0.0
  0
SPLINE
  5
36C
100
AcDbEntity
  8
RACCORDO
100
AcDbSpline
 62
7
  6
CONTINUOUS
 70
0
 71
3
 72
9
 73
5
 74
3
 42
0.0000001
 43
0.0000001
 44
0.0000000001
 12
0.4026523465
 22
1.783096983
 32
0.0
 13
0.3498323859
 23
1.7942076426
 33
0.0
 40
0.0
 40
0.0
 40
0.0
 40
0.0
 40
0.2341484494
 40
1.0
 40
1.0
 40
1.0
 40
1.0
 10
47.5603274495
 20
76.1105262634
 30
0.0
 10
47.591754257
 20
76.2496960613
 30
0.0
 10
47.7233800018
 20
76.8446464723
 30
0.0
 10
47.8453205064
 20
77.4417184156
 30
0.0
 10
47.9346270648
 20
77.8997506506
 30
0.0
 11
47.5603274495
 21
76.1105262634
 31
0.0
 11
47.652863187
 21
76.5284258077
 31
0.0
 11
47.9346270648
 21
77.8997506506
 31
0.0
  0
SPLINE
  5
36D
100
AcDbEntity
  8
RACCORDO
100
AcDbSpline
 62
7
  6
CONTINUOUS
 70
0
 71
3
 72
13
 73
9
 74
7
 42
0.0000001
 43
0.0000001
 44
0.0000000001
 12
0.0706986396
 22
2.9326325347
 32
0.0
 13
-0.6461586615
 23
2.8614351059
 33
0.0
 40
0.0
 40
0.0
 40
0.0
 40
0.0
 40
0.3399443045
 40
0.6412141166
 40
0.7663901685
 40
0.8696784432
 40
0.9482458541
 40
1.0
 40
1.0
 40
1.0
 40
1.0
 10
256.288504238
 20
73.1801618248
 30
0.0
 10
256.2965154379
 20
73.5124724006
 30
0.0
 10
256.3060432935
 20
74.1394229354
 30
0.0
 10
256.3034433954
 20
74.8889176252
 30
0.0
 10
256.2900394236
 20
75.406722309
 30
0.0
 10
256.2765028486
 20
75.7067387541
 30
0.0
 10
256.2587884157
 20
75.9343745473
 30
0.0
 10
256.2429194725
 20
76.0611625535
 30
0.0
 10
256.2317723426
 20
76.1105262634
 30
0.0
 11
256.288504238
 21
73.1801618248
 31
0.0
 11
256.3033286075
 21
74.1772730128
 31
0.0
 11
256.2981825825
 21
75.0610283838
 31
0.0
 11
256.2881972168
 21
75.4280946122
 31
0.0
 11
256.2735508955
 21
75.730734977
 31
0.0
 11
256.2545792582
 21
75.9604291153
 31
0.0
 11
256.2317723426
 21
76.1105262634
 31
0.0
  0
SPLINE
  5
36E
100
AcDbEntity
  8
RACCORDO
100
AcDbSpline
 62
7
  6
CONTINUOUS
 70
0
 71
3
 72
13
 73
9
 74
7
 42
0.0000001
 43
0.0000001
 44
0.0000000001
 12
-0.6461586606
 22
-2.8614351019
 32
0.0
 13
0.0706986395
 23
-2.9326325305
 33
0.0
 40
0.0
 40
0.0
 40
0.0
 40
0.0
 40
0.0517545445
 40
0.1303244297
 40
0.2336140976
 40
0.3587897067
 40
0.6600583248
 40
1.0
 40
1.0
 40
1.0
 40
1.0
 10
47.5603274495
 20
76.1105262634
 30
0.0
 10
47.5491802337
 20
76.0611621732
 30
0.0
 10
47.5333110414
 20
75.9343713553
 30
0.0
 10
47.5155966176
 20
75.7067313845
 30
0.0
 10
47.5020598284
 20
75.4067115974
 30
0.0
 10
47.4886564349
 20
74.8889071351
 30
0.0
 10
47.4860565107
 20
74.1394166265
 30
0.0
 10
47.4955844162
 20
73.5124698299
 30
0.0
 10
47.5035955541
 20
73.1801618248
 30
0.0
 11
47.5603274495
 21
76.1105262634
 31
0.0
 11
47.537520438
 21
75.9604279471
 31
0.0
 11
47.5185484431
 21
75.7307265558
 31
0.0
 11
47.5039020388
 21
75.4280821037
 31
0.0
 11
47.4939169944
 21
75.0610171666
 31
0.0
 11
47.4887712199
 21
74.177265298
 31
0.0
 11
47.5035955541
 21
73.1801618248
 31
0.0
  0
SPLINE
  5
36F
100
AcDbEntity
  8
ASSI
100
AcDbSpline
 62
7
  6
CONTINUOUS
 70
0
 71
3
 72
9
 73
5
 74
3
 42
0.0000001
 43
0.0000001
 44
0.0000000001
 12
0.0
 22
-0.9374865611
 32
0.0
 13
0.3604697093
 23
-0.865414722
 33
0.0
 40
0.0
 40
0.0
 40
0.0
 40
0.0
 40
0.2465293064
 40
1.0
 40
1.0
 40
1.0
 40
1.0
 10
146.396049896
 20
66.3038237965
 30
0.0
 10
146.396049896
 20
66.2267844926
 30
0.0
 10
146.4120019455
 20
65.9143866895
 30
0.0
 10
146.4929233975
 20
65.606167459
 30
0.0
 10
146.5834578515
 20
65.3888125821
 30
0.0
 11
146.396049896
 21
66.3038237965
 31
0.0
 11
146.4078638172
 21
66.073008025
 31
0.0
 11
146.5834578515
 21
65.3888125821
 31
0.0
  0
SPLINE
  5
370
100
AcDbEntity
  8
ASSI
100
AcDbSpline
 62
7
  6
CONTINUOUS
 70
0
 71
3
 72
9
 73
5
 74
3
 42
0.0000001
 43
0.0000001
 44
0.0000000001
 12
0.1256896663
 22
-0.3017554175
 32
0.0
 13
0.1610038745
 23
-0.2844854593
 33
0.0
 40
0.0
 40
0.0
 40
0.0
 40
0.0
 40
0.2472205809
 40
1.0
 40
1.0
 40
1.0
 40
1.0
 10
146.5834578515
 20
65.3888125821
 30
0.0
 10
146.5938155422
 20
65.3639458656
 30
0.0
 10
146.6372809258
 20
65.2640192775
 30
0.0
 10
146.6869131954
 20
65.1667922778
 30
0.0
 10
146.7273133298
 20
65.0954073449
 30
0.0
 11
146.5834578515
 21
65.3888125821
 31
0.0
 11
146.6156835248
 21
65.3147030407
 31
0.0
 11
146.7273133298
 21
65.0954073449
 31
0.0
  0
SPLINE
  5
371
100
AcDbEntity
  8
ASSI
100
AcDbSpline
 62
7
  6
CONTINUOUS
 70
0
 71
3
 72
9
 73
5
 74
3
 42
0.0000001
 43
0.0000001
 44
0.0000000001
 12
1.0655372006
 22
-1.8827487278
 32
0.0
 13
1.8899671582
 23
-1.0526805968
 33
0.0
 40
0.0
 40
0.0
 40
0.0
 40
0.0
 40
0.4714323293
 40
1.0
 40
1.0
 40
1.0
 40
1.0
 10
146.7273133298
 20
65.0954073449
 30
0.0
 10
146.8947562246
 20
64.7995444721
 30
0.0
 10
147.3634516647
 20
64.234379445
 30
0.0
 10
147.9608002734
 20
63.8177895196
 30
0.0
 10
148.2937921195
 20
63.6323185426
 30
0.0
 11
146.7273133298
 21
65.0954073449
 31
0.0
 11
147.3652655569
 21
64.2996909265
 31
0.0
 11
148.2937921195
 21
63.6323185426
 31
0.0
  0
SPLINE
  5
372
100
AcDbEntity
  8
ASSI
100
AcDbSpline
 62
7
  6
CONTINUOUS
 70
0
 71
3
 72
11
 73
7
 74
5
 42
0.0000001
 43
0.0000001
 44
0.0000000001
 12
5.9006183271
 22
-2.6550806412
 32
0.0
 13
5.9006183271
 23
2.6550806412
 33
0.0
 40
0.0
 40
0.0
 40
0.0
 40
0.0
 40
0.2432392448
 40
0.5
 40
0.7567607552
 40
1.0
 40
1.0
 40
1.0
 40
1.0
 10
148.7424100539
 20
63.4074223489
 30
0.0
 10
149.2208307025
 20
63.1921490789
 30
0.0
 10
150.2616755803
 20
62.8721694825
 30
0.0
 10
151.896049896
 20
62.7152512966
 30
0.0
 10
153.5304242118
 20
62.8721694825
 30
0.0
 10
154.5712690896
 20
63.1921490789
 30
0.0
 10
155.0496897382
 20
63.4074223489
 30
0.0
 11
148.7424100539
 21
63.4074223489
 31
0.0
 11
150.2427586993
 21
62.9320130279
 31
0.0
 11
151.896049896
 21
62.7684919432
 31
0.0
 11
153.5493410928
 21
62.9320130279
 31
0.0
 11
155.0496897382
 21
63.4074223489
 31
0.0
  0
SPLINE
  5
373
100
AcDbEntity
  8
ASSI
100
AcDbSpline
 62
7
  6
CONTINUOUS
 70
0
 71
3
 72
9
 73
5
 74
3
 42
0.0000001
 43
0.0000001
 44
0.0000000001
 12
1.7850068441
 22
1.0353505299
 32
0.0
 13
1.0163739263
 23
1.7958797831
 33
0.0
 40
0.0
 40
0.0
 40
0.0
 40
0.0
 40
0.2718999796
 40
1.0
 40
1.0
 40
1.0
 40
1.0
 10
155.5811873435
 20
63.6794273095
 30
0.0
 10
155.7429684517
 20
63.7732645722
 30
0.0
 10
156.3187062181
 20
64.1477383915
 30
0.0
 10
156.8181125035
 20
64.6595473093
 30
0.0
 10
157.0647864623
 20
65.0954073449
 30
0.0
 11
155.5811873435
 21
63.6794273095
 31
0.0
 11
156.0504114699
 21
63.9870565486
 31
0.0
 11
157.0647864623
 21
65.0954073449
 31
0.0
  0
SPLINE
  5
374
100
AcDbEntity
  8
ASSI
100
AcDbSpline
 62
7
  6
CONTINUOUS
 70
0
 71
3
 72
9
 73
5
 74
3
 42
0.0000001
 43
0.0000001
 44
0.0000000001
 12
0.1610028705
 22
0.2844836852
 32
0.0
 13
0.1256888825
 23
0.3017535356
 33
0.0
 40
0.0
 40
0.0
 40
0.0
 40
0.0
 40
0.2530018404
 40
1.0
 40
1.0
 40
1.0
 40
1.0
 10
157.0647864623
 20
65.0954073449
 30
0.0
 10
157.0783644698
 20
65.1193989769
 30
0.0
 10
157.1306592016
 20
65.2149952026
 30
0.0
 10
157.177345486
 20
65.3136761368
 30
0.0
 10
157.2086419406
 20
65.3888125821
 30
0.0
 11
157.0647864623
 21
65.0954073449
 31
0.0
 11
157.1044668003
 21
65.1679684709
 31
0.0
 11
157.2086419406
 21
65.3888125821
 31
0.0
  0
SPLINE
  5
375
100
AcDbEntity
  8
ASSI
100
AcDbSpline
 62
7
  6
CONTINUOUS
 70
0
 71
3
 72
9
 73
5
 74
3
 42
0.0000001
 43
0.0000001
 44
0.0000000001
 12
0.3604393819
 22
0.8653419121
 32
0.0
 13
0.0
 23
0.9374076877
 33
0.0
 40
0.0
 40
0.0
 40
0.0
 40
0.0
 40
0.2558793219
 40
1.0
 40
1.0
 40
1.0
 40
1.0
 10
157.2086419406
 20
65.3888125821
 30
0.0
 10
157.2393849355
 20
65.4626202826
 30
0.0
 10
157.346230019
 20
65.7563719437
 30
0.0
 10
157.396049896
 20
66.0713089817
 30
0.0
 10
157.396049896
 20
66.3038237965
 30
0.0
 11
157.2086419406
 21
65.3888125821
 31
0.0
 11
157.2903301492
 21
65.6143373305
 31
0.0
 11
157.396049896
 21
66.3038237965
 31
0.0
  0
SPLINE
  5
376
100
AcDbEntity
  8
RACCORDO
100
AcDbSpline
 62
253
  6
CONTINUOUS
 70
0
 71
3
 72
9
 73
5
 74
3
 42
0.0000001
 43
0.0000001
 44
0.0000000001
 12
-0.5554825977
 22
-0.5047691541
 32
0.0
 13
-0.7505665958
 23
-0.0016126124
 33
0.0
 40
0.0
 40
0.0
 40
0.0
 40
0.0
 40
0.4971741103
 40
1.0
 40
1.0
 40
1.0
 40
1.0
 10
134.399320992
 20
59.5019386414
 30
0.0
 10
134.3072638032
 20
59.4182859231
 30
0.0
 10
134.0882051027
 20
59.2843318097
 30
0.0
 10
133.835970673
 20
59.23823438
 30
0.0
 10
133.7101692342
 20
59.2379640923
 30
0.0
 11
134.399320992
 21
59.5019386414
 31
0.0
 11
134.0812427279
 21
59.306805488
 31
0.0
 11
133.7101692342
 21
59.2379640923
 31
0.0
  0
SPLINE
  5
377
100
AcDbEntity
  8
RACCORDO
100
AcDbSpline
 62
253
  6
CONTINUOUS
 70
0
 71
3
 72
9
 73
5
 74
3
 42
0.0000001
 43
0.0000001
 44
0.0000000001
 12
-0.5498544808
 22
-0.5201629937
 32
0.0
 13
-0.756795727
 23
-0.0130275738
 33
0.0
 40
0.0
 40
0.0
 40
0.0
 40
0.0
 40
0.4993422134
 40
1.0
 40
1.0
 40
1.0
 40
1.0
 10
134.8161985111
 20
56.5565998522
 30
0.0
 10
134.72467666
 20
56.470020072
 30
0.0
 10
134.506955595
 20
56.3299369238
 30
0.0
 10
134.2533453403
 20
56.2783256596
 30
0.0
 10
134.1270467824
 20
56.2761515409
 30
0.0
 11
134.8161985111
 21
56.5565998522
 31
0.0
 11
134.4982933175
 21
56.3521810271
 31
0.0
 11
134.1270467824
 21
56.2761515409
 31
0.0
  0
SPLINE
  5
378
100
AcDbEntity
  8
RACCORDO
100
AcDbSpline
 62
253
  6
CONTINUOUS
 70
0
 71
3
 72
9
 73
5
 74
3
 42
0.0000001
 43
0.0000001
 44
0.0000000001
 12
0.5498546688
 22
-0.5201622021
 32
0.0
 13
0.7567953395
 23
-0.0130264115
 33
0.0
 40
0.0
 40
0.0
 40
0.0
 40
0.0
 40
0.4993422
 40
1.0
 40
1.0
 40
1.0
 40
1.0
 10
168.9759012519
 20
56.5565998232
 30
0.0
 10
169.0674231319
 20
56.470020177
 30
0.0
 10
169.2851443118
 20
56.3299374141
 30
0.0
 10
169.5387545131
 20
56.2783266222
 30
0.0
 10
169.6650530097
 20
56.2761526973
 30
0.0
 11
168.9759012519
 21
56.5565998232
 31
0.0
 11
169.2938065409
 21
56.3521815412
 31
0.0
 11
169.6650530097
 21
56.2761526973
 31
0.0
  0
SPLINE
  5
379
100
AcDbEntity
  8
RACCORDO
100
AcDbSpline
 62
253
  6
CONTINUOUS
 70
0
 71
3
 72
9
 73
5
 74
3
 42
0.0000001
 43
0.0000001
 44
0.0000000001
 12
0.5541299203
 22
-0.5062455475
 32
0.0
 13
0.7505565704
 23
-0.0030590268
 33
0.0
 40
0.0
 40
0.0
 40
0.0
 40
0.0
 40
0.497171338
 40
1.0
 40
1.0
 40
1.0
 40
1.0
 10
169.3927788001
 20
59.5019386414
 30
0.0
 10
169.4846113048
 20
59.418041716
 30
0.0
 10
169.7040173775
 20
59.2843642305
 30
0.0
 10
169.9561301059
 20
59.2384768144
 30
0.0
 10
170.0819305579
 20
59.2379640923
 30
0.0
 11
169.3927788001
 21
59.5019386414
 31
0.0
 11
169.7108605358
 21
59.3068203787
 31
0.0
 11
170.0819305579
 21
59.2379640923
 31
0.0
  0
SPLINE
  5
37A
100
AcDbEntity
  8
RACCORDO
100
AcDbSpline
 62
253
  6
CONTINUOUS
 70
0
 71
3
 72
18
 73
14
 74
12
 42
0.0000001
 43
0.0000001
 44
0.0000000001
 12
-0.0881620231
 22
-1.7576620142
 32
0.0
 13
1.6694709573
 23
0.5567899253
 33
0.0
 40
0.0
 40
0.0
 40
0.0
 40
0.0
 40
0.0223473621
 40
0.0366321332
 40
0.0543378951
 40
0.0995654464
 40
0.1546677105
 40
0.2161098178
 40
0.2815039325
 40
0.4191865677
 40
0.5618318492
 40
0.7069284219
 40
1.0
 40
1.0
 40
1.0
 40
1.0
 10
134.8161985402
 20
56.5565998232
 30
0.0
 10
134.8155418106
 20
56.5435067867
 30
0.0
 10
134.8266455307
 20
56.5208530177
 30
0.0
 10
134.8554724286
 20
56.5063897218
 30
0.0
 10
134.8991808242
 20
56.49391327
 30
0.0
 10
134.9689168896
 20
56.490008257
 30
0.0
 10
135.0636469465
 20
56.4947390922
 30
0.0
 10
135.169703506
 20
56.5076227467
 30
0.0
 10
135.3227972007
 20
56.533008421
 30
0.0
 10
135.5211880237
 20
56.5756151817
 30
0.0
 10
135.7631310444
 20
56.6369244647
 30
0.0
 10
136.0910627445
 20
56.7295045023
 30
0.0
 10
136.3362157604
 20
56.8070119232
 30
0.0
 10
136.4993072565
 20
56.8614050239
 30
0.0
 11
134.8161985402
 21
56.5565998232
 31
0.0
 11
134.8321895208
 21
56.5206690756
 31
0.0
 11
134.8538841614
 21
56.5079674933
 31
0.0
 11
134.8837258107
 21
56.499000142
 31
0.0
 11
134.9629762743
 21
56.4916056773
 31
0.0
 11
135.0598653709
 21
56.4956366726
 31
0.0
 11
135.1672758888
 21
56.5080916312
 31
0.0
 11
135.2808557258
 21
56.5266452127
 31
0.0
 11
135.5179929771
 21
56.5764150901
 31
0.0
 11
135.761446896
 21
56.6376520105
 31
0.0
 11
136.007269289
 21
56.7067581747
 31
0.0
 11
136.4993072565
 21
56.8614050239
 31
0.0
  0
SPLINE
  5
37B
100
AcDbEntity
  8
RACCORDO
100
AcDbSpline
 62
253
  6
CONTINUOUS
 70
0
 71
3
 72
9
 73
5
 74
3
 42
0.0000001
 43
0.0000001
 44
0.0000000001
 12
-0.6863834599
 22
0.1737814425
 32
0.0
 13
-0.5924335751
 23
-0.3877430888
 33
0.0
 40
0.0
 40
0.0
 40
0.0
 40
0.0
 40
0.5339484769
 40
1.0
 40
1.0
 40
1.0
 40
1.0
 10
140.4371405183
 20
61.5652827288
 30
0.0
 10
140.3149760506
 20
61.596212841
 30
0.0
 10
140.0752520773
 20
61.6211480297
 30
0.0
 10
139.8400236172
 20
61.5486261292
 30
0.0
 10
139.7479887605
 20
61.4883900435
 30
0.0
 11
140.4371405183
 21
61.5652827288
 31
0.0
 11
140.060257225
 21
61.5950559418
 31
0.0
 11
139.7479887605
 21
61.4883900435
 31
0.0
  0
SPLINE
  5
37C
100
AcDbEntity
  8
RACCORDO
100
AcDbSpline
 62
253
  6
CONTINUOUS
 70
0
 71
3
 72
10
 73
6
 74
4
 42
0.0000001
 43
0.0000001
 44
0.0000000001
 12
0.9019996809
 22
1.0508186137
 32
0.0
 13
1.3597325159
 23
0.2625845929
 33
0.0
 40
0.0
 40
0.0
 40
0.0
 40
0.0
 40
0.4971138744
 40
0.7474927141
 40
1.0
 40
1.0
 40
1.0
 40
1.0
 10
145.0686394094
 20
70.1712570589
 30
0.0
 10
145.2181049281
 20
70.345382563
 30
0.0
 10
145.4668277059
 20
70.5900637519
 30
0.0
 10
145.8544209322
 20
70.8427179532
 30
0.0
 10
146.0740914012
 20
70.9289932623
 30
0.0
 10
146.1885388569
 20
70.9510947699
 30
0.0
 11
145.0686394094
 21
70.1712570589
 31
0.0
 11
145.5670606494
 21
70.646139107
 31
0.0
 11
145.8597324872
 21
70.8320710658
 31
0.0
 11
146.1885388569
 21
70.9510947699
 31
0.0
  0
SPLINE
  5
37D
100
AcDbEntity
  8
RACCORDO
100
AcDbSpline
 62
253
  6
CONTINUOUS
 70
0
 71
3
 72
9
 73
5
 74
3
 42
0.0000001
 43
0.0000001
 44
0.0000000001
 12
0.6863833633
 22
0.1737814181
 32
0.0
 13
0.5924334917
 23
-0.3877430342
 33
0.0
 40
0.0
 40
0.0
 40
0.0
 40
0.0
 40
0.5339489121
 40
1.0
 40
1.0
 40
1.0
 40
1.0
 10
163.3549592738
 20
61.5652827288
 30
0.0
 10
163.4771238239
 20
61.5962128619
 30
0.0
 10
163.7168477659
 20
61.6211475367
 30
0.0
 10
163.9520762738
 20
61.5486260645
 30
0.0
 10
164.0441110316
 20
61.4883900435
 30
0.0
 11
163.3549592738
 21
61.5652827288
 31
0.0
 11
163.7318428452
 21
61.5950556589
 31
0.0
 11
164.0441110316
 21
61.4883900435
 31
0.0
  0
SPLINE
  5
37E
100
AcDbEntity
  8
RACCORDO
100
AcDbSpline
 62
253
  6
CONTINUOUS
 70
0
 71
3
 72
11
 73
7
 74
5
 42
0.0000001
 43
0.0000001
 44
0.0000000001
 12
1.5391491351
 22
-0.0000673608
 32
0.0
 13
0.0458497393
 23
1.5384660757
 33
0.0
 40
0.0
 40
0.0
 40
0.0
 40
0.0
 40
0.2496871127
 40
0.4995919262
 40
0.7497061424
 40
1.0
 40
1.0
 40
1.0
 40
1.0
 10
252.8333149709
 20
60.1910929377
 30
0.0
 10
252.9614168721
 20
60.1910873313
 30
0.0
 10
253.2207819277
 20
60.2442612622
 30
0.0
 10
253.5442532821
 20
60.4703442649
 30
0.0
 10
253.758071938
 20
60.8011678175
 30
0.0
 10
253.811870609
 20
61.058860963
 30
0.0
 10
253.8156959117
 20
61.187217166
 30
0.0
 11
252.8333149709
 21
60.1910929377
 31
0.0
 11
253.2097261932
 21
60.2685878784
 31
0.0
 11
253.525866128
 21
60.4876861888
 31
0.0
 11
253.7358356955
 21
60.8103459999
 31
0.0
 11
253.8156959117
 21
61.187217166
 31
0.0
  0
SPLINE
  5
37F
100
AcDbEntity
  8
RACCORDO
100
AcDbSpline
 62
253
  6
CONTINUOUS
 70
0
 71
3
 72
10
 73
6
 74
4
 42
0.0000001
 43
0.0000001
 44
0.0000000001
 12
1.359732632
 22
-0.2625839896
 32
0.0
 13
0.9019996171
 23
-1.050818668
 33
0.0
 40
0.0
 40
0.0
 40
0.0
 40
0.0
 40
0.2525072835
 40
0.5028861252
 40
1.0
 40
1.0
 40
1.0
 40
1.0
 10
157.6035609352
 20
70.9510947699
 30
0.0
 10
157.7180083996
 20
70.9289933133
 30
0.0
 10
157.9376788516
 20
70.8427179243
 30
0.0
 10
158.3252720902
 20
70.5900637709
 30
0.0
 10
158.5739948745
 20
70.3453825721
 30
0.0
 10
158.7234603827
 20
70.1712570589
 30
0.0
 11
157.6035609352
 21
70.9510947699
 31
0.0
 11
157.9323673005
 21
70.8320710638
 31
0.0
 11
158.2250391439
 21
70.6461391087
 31
0.0
 11
158.7234603827
 21
70.1712570589
 31
0.0
  0
SPLINE
  5
380
100
AcDbEntity
  8
RACCORDO
100
AcDbSpline
 62
253
  6
CONTINUOUS
 70
0
 71
3
 72
18
 73
14
 74
12
 42
0.0000001
 43
0.0000001
 44
0.0000000001
 12
1.6694709771
 22
-0.5567898661
 32
0.0
 13
-0.0881622441
 23
1.7576620031
 33
0.0
 40
0.0
 40
0.0
 40
0.0
 40
0.0
 40
0.2930715783
 40
0.4381681509
 40
0.5808134322
 40
0.7184960675
 40
0.7838901822
 40
0.8453322896
 40
0.9004345536
 40
0.9456621047
 40
0.9633678666
 40
0.9776526378
 40
1.0
 40
1.0
 40
1.0
 40
1.0
 10
167.2927925356
 20
56.8614050239
 30
0.0
 10
167.4558840337
 20
56.8070119289
 30
0.0
 10
167.7010370525
 20
56.7295045186
 30
0.0
 10
168.0289687451
 20
56.6369244536
 30
0.0
 10
168.27091177
 20
56.5756151874
 30
0.0
 10
168.4693025912
 20
56.5330084196
 30
0.0
 10
168.6223962863
 20
56.5076227468
 30
0.0
 10
168.7284528456
 20
56.4947390922
 30
0.0
 10
168.8231829026
 20
56.4900082566
 30
0.0
 10
168.8929189677
 20
56.4939132706
 30
0.0
 10
168.9366273634
 20
56.5063897222
 30
0.0
 10
168.9654542616
 20
56.520853017
 30
0.0
 10
168.9765579831
 20
56.5435067867
 30
0.0
 10
168.9759012519
 20
56.5565998232
 30
0.0
 11
167.2927925356
 21
56.8614050239
 31
0.0
 11
167.7848305053
 21
56.7067581805
 31
0.0
 11
168.0306528951
 21
56.6376520056
 31
0.0
 11
168.2741068155
 21
56.5764150917
 31
0.0
 11
168.5112440664
 21
56.5266452123
 31
0.0
 11
168.6248239033
 21
56.5080916312
 31
0.0
 11
168.7322344214
 21
56.4956366725
 31
0.0
 11
168.8291235179
 21
56.4916056772
 31
0.0
 11
168.9083739812
 21
56.4990001424
 31
0.0
 11
168.9382156306
 21
56.5079674935
 31
0.0
 11
168.9599102716
 21
56.5206690753
 31
0.0
 11
168.9759012519
 21
56.5565998232
 31
0.0
  0
SPLINE
  5
381
100
AcDbEntity
  8
RACCORDO
100
AcDbSpline
 62
253
  6
CONTINUOUS
 70
0
 71
3
 72
9
 73
5
 74
3
 42
0.0000001
 43
0.0000001
 44
0.0000000001
 12
2.0388938141
 22
0.0002740445
 32
0.0
 13
1.4417991278
 23
-1.4416321776
 33
0.0
 40
0.0
 40
0.0
 40
0.0
 40
0.0
 40
0.4988527329
 40
1.0
 40
1.0
 40
1.0
 40
1.0
 10
157.6035609352
 20
71.717139213
 30
0.0
 10
157.9425968523
 20
71.7171847823
 30
0.0
 10
158.6235150839
 20
71.5195027124
 30
0.0
 10
159.1717609096
 20
71.1012321586
 30
0.0
 10
159.4126121405
 20
70.8604088166
 30
0.0
 11
157.6035609352
 21
71.717139213
 31
0.0
 11
158.5889366284
 21
71.4650619632
 31
0.0
 11
159.4126121405
 21
70.8604088166
 31
0.0
  0
SPLINE
  5
382
100
AcDbEntity
  8
RACCORDO
100
AcDbSpline
 62
253
  6
CONTINUOUS
 70
0
 71
3
 72
9
 73
5
 74
3
 42
0.0000001
 43
0.0000001
 44
0.0000000001
 12
1.44179931
 22
1.441631994
 32
0.0
 13
2.0388938133
 23
-0.000273128
 33
0.0
 40
0.0
 40
0.0
 40
0.0
 40
0.0
 40
0.5011472669
 40
1.0
 40
1.0
 40
1.0
 40
1.0
 10
144.3794876516
 20
70.8604088166
 30
0.0
 10
144.6203389128
 20
71.1012321278
 30
0.0
 10
145.168584695
 20
71.5195027995
 30
0.0
 10
145.8495029398
 20
71.7171846299
 30
0.0
 10
146.1885388569
 20
71.717139213
 30
0.0
 11
144.3794876516
 21
70.8604088166
 31
0.0
 11
145.2031631644
 21
71.4650619607
 31
0.0
 11
146.1885388569
 21
71.717139213
 31
0.0
  0
SPLINE
  5
383
100
AcDbEntity
  8
RACCORDO
100
AcDbSpline
 62
253
  6
CONTINUOUS
 70
0
 71
3
 72
11
 73
7
 74
5
 42
0.0000001
 43
0.0000001
 44
0.0000000001
 12
0.0458505017
 22
-1.5384660703
 32
0.0
 13
1.5391491526
 23
0.000064276
 33
0.0
 40
0.0
 40
0.0
 40
0.0
 40
0.0
 40
0.2502938561
 40
0.500408062
 40
0.7503128705
 40
1.0
 40
1.0
 40
1.0
 40
1.0
 10
49.9764038804
 20
61.1872171706
 30
0.0
 10
49.9802292467
 20
61.0588609688
 30
0.0
 10
50.0340277432
 20
60.8011677723
 30
0.0
 10
50.2478466196
 20
60.4703444175
 30
0.0
 10
50.5713177838
 20
60.2442610012
 30
0.0
 10
50.8306829101
 20
60.19108759
 30
0.0
 10
50.9587848213
 20
60.1910929396
 30
0.0
 11
49.9764038804
 21
61.1872171706
 31
0.0
 11
50.0562640678
 21
60.8103459962
 31
0.0
 11
50.2662337018
 21
60.4876862422
 31
0.0
 11
50.5823735562
 21
60.2685878215
 31
0.0
 11
50.9587848213
 21
60.1910929396
 31
0.0
  0
SPLINE
  5
384
100
AcDbEntity
  8
RACCORDO
100
AcDbSpline
 62
253
  6
CONTINUOUS
 70
0
 71
3
 72
8
 73
4
 74
2
 42
0.0000001
 43
0.0000001
 44
0.0000000001
 12
0.2329641582
 22
-7.2574647878
 32
0.0
 13
0.2367250342
 23
-7.2573430885
 33
0.0
 40
0.0
 40
0.0
 40
0.0
 40
0.0
 40
1.0
 40
1.0
 40
1.0
 40
1.0
 10
49.3608935103
 20
80.5731500514
 30
0.0
 10
49.4385482297
 20
78.1539951221
 30
0.0
 10
49.516886498
 20
75.7348620684
 30
0.0
 10
49.5957948427
 20
73.3157477056
 30
0.0
 11
49.3608935103
 21
80.5731500514
 31
0.0
 11
49.5957948427
 21
73.3157477056
 31
0.0
  0
SPLINE
  5
385
100
AcDbEntity
  8
RACCORDO
100
AcDbSpline
 62
253
  6
CONTINUOUS
 70
0
 71
3
 72
9
 73
5
 74
3
 42
0.0000001
 43
0.0000001
 44
0.0000000001
 12
0.070066962
 22
-2.978692273
 32
0.0
 13
0.8231646431
 23
-2.8635497214
 33
0.0
 40
0.0
 40
0.0
 40
0.0
 40
0.0
 40
0.5218928725
 40
1.0
 40
1.0
 40
1.0
 40
1.0
 10
134.3979655575
 20
59.500583207
 30
0.0
 10
134.4101547069
 20
58.9823971181
 30
0.0
 10
134.4862955748
 20
57.9898015516
 30
0.0
 10
134.6850115792
 20
57.0129610004
 30
0.0
 10
134.8161985402
 20
56.5565998232
 30
0.0
 11
134.3979655575
 21
59.500583207
 31
0.0
 11
134.5230155154
 21
57.9506312428
 31
0.0
 11
134.8161985402
 21
56.5565998232
 31
0.0
  0
SPLINE
  5
386
100
AcDbEntity
  8
RACCORDO
100
AcDbSpline
 62
253
  6
CONTINUOUS
 70
0
 71
3
 72
9
 73
5
 74
3
 42
0.0000001
 43
0.0000001
 44
0.0000000001
 12
0.8231646126
 22
2.8635497292
 32
0.0
 13
0.0700669147
 23
2.9786922732
 33
0.0
 40
0.0
 40
0.0
 40
0.0
 40
0.0
 40
0.4781071281
 40
1.0
 40
1.0
 40
1.0
 40
1.0
 10
168.9759012519
 20
56.5565998232
 30
0.0
 10
169.1070882082
 20
57.0129610022
 30
0.0
 10
169.3058042109
 20
57.9898015521
 30
0.0
 10
169.3819450942
 20
58.982397118
 30
0.0
 10
169.3941342353
 20
59.5005832063
 30
0.0
 11
168.9759012519
 21
56.5565998232
 31
0.0
 11
169.2690842744
 21
57.9506312449
 31
0.0
 11
169.3941342353
 21
59.5005832063
 31
0.0
  0
SPLINE
  5
387
100
AcDbEntity
  8
RACCORDO
100
AcDbSpline
 62
253
  6
CONTINUOUS
 70
0
 71
3
 72
9
 73
5
 74
3
 42
0.0000001
 43
0.0000001
 44
0.0000000001
 12
-1.3262567264
 22
4.6888121194
 32
0.0
 13
-0.9401583142
 23
4.781215153
 33
0.0
 40
0.0
 40
0.0
 40
0.0
 40
0.0
 40
0.4521206982
 40
1.0
 40
1.0
 40
1.0
 40
1.0
 10
253.9332675768
 20
54.4919319175
 30
0.0
 10
253.7333915378
 20
55.198568254
 30
0.0
 10
253.3395369245
 20
56.7750995752
 30
0.0
 10
253.0050311343
 20
58.3647879474
 30
0.0
 10
252.8333333741
 20
59.2379642206
 30
0.0
 11
253.9332675768
 21
54.4919319175
 31
0.0
 11
253.3893835707
 21
56.6268226114
 31
0.0
 11
252.8333333741
 21
59.2379642206
 31
0.0
  0
SPLINE
  5
388
100
AcDbEntity
  8
RACCORDO
100
AcDbSpline
 62
253
  6
CONTINUOUS
 70
0
 71
3
 72
9
 73
5
 74
3
 42
0.0000001
 43
0.0000001
 44
0.0000000001
 12
-0.9401626585
 22
-4.7812372595
 32
0.0
 13
-1.3262628614
 23
-4.6888337973
 33
0.0
 40
0.0
 40
0.0
 40
0.0
 40
0.0
 40
0.5478765396
 40
1.0
 40
1.0
 40
1.0
 40
1.0
 10
50.9587679808
 20
59.237964221
 30
0.0
 10
50.7870702928
 20
58.3647883127
 30
0.0
 10
50.452631705
 20
56.7750755933
 30
0.0
 10
50.0586221598
 20
55.198575838
 30
0.0
 10
49.858743975
 20
54.4919319175
 30
0.0
 11
50.9587679808
 21
59.237964221
 31
0.0
 11
50.4027268434
 21
56.6268218236
 31
0.0
 11
49.858743975
 21
54.4919319175
 31
0.0
  0
SPLINE
  5
389
100
AcDbEntity
  8
RACCORDO
100
AcDbSpline
 62
253
  6
CONTINUOUS
 70
0
 71
3
 72
9
 73
5
 74
3
 42
0.0000001
 43
0.0000001
 44
0.0000000001
 12
0.0700899024
 22
-2.9963298968
 32
0.0
 13
0.8237808036
 23
-2.8817166121
 33
0.0
 40
0.0
 40
0.0
 40
0.0
 40
0.0
 40
0.5221892166
 40
1.0
 40
1.0
 40
1.0
 40
1.0
 10
133.7088074928
 20
59.2379641687
 30
0.0
 10
133.7210075566
 20
58.7164137815
 30
0.0
 10
133.7969663954
 20
57.7179191142
 30
0.0
 10
133.9958429987
 20
56.7351242191
 30
0.0
 10
134.1270467824
 20
56.2761524618
 30
0.0
 11
133.7088074928
 21
59.2379641687
 31
0.0
 11
133.8338547396
 21
57.6778885239
 31
0.0
 11
134.1270467824
 21
56.2761524618
 31
0.0
  0
SPLINE
  5
38A
100
AcDbEntity
  8
RACCORDO
100
AcDbSpline
 62
253
  6
CONTINUOUS
 70
0
 71
3
 72
14
 73
10
 74
8
 42
0.0000001
 43
0.0000001
 44
0.0000000001
 12
0.6720174774
 22
-2.355345788
 32
0.0
 13
2.4493389448
 23
-0.0000651516
 33
0.0
 40
0.0
 40
0.0
 40
0.0
 40
0.0
 40
0.0509705735
 40
0.0885425702
 40
0.134317692
 40
0.2468603427
 40
0.3801603835
 40
0.680923814
 40
1.0
 40
1.0
 40
1.0
 40
1.0
 10
134.1270467824
 20
56.2761524618
 30
0.0
 10
134.1384644878
 20
56.2361346866
 30
0.0
 10
134.1998137191
 20
56.1839306361
 30
0.0
 10
134.2957881268
 20
56.1348811074
 30
0.0
 10
134.4465964482
 20
56.078426554
 30
0.0
 10
134.6781425316
 20
56.0224918917
 30
0.0
 10
135.1191087926
 20
55.9513283856
 30
0.0
 10
135.7326939274
 20
55.9016814377
 30
0.0
 10
136.2387986802
 20
55.8896632449
 30
0.0
 10
136.4993072565
 20
55.8896563155
 30
0.0
 11
134.1270467824
 21
56.2761524618
 31
0.0
 11
134.2097326858
 21
56.18261574
 31
0.0
 11
134.2908638566
 21
56.1391805019
 31
0.0
 11
134.3955141106
 21
56.0989443597
 31
0.0
 11
134.6623168884
 21
56.0296478203
 31
0.0
 11
134.9843364053
 21
55.9757617396
 31
0.0
 11
135.7180380667
 21
55.9096792594
 31
0.0
 11
136.4993072565
 21
55.8896563155
 31
0.0
  0
SPLINE
  5
38B
100
AcDbEntity
  8
RACCORDO
100
AcDbSpline
 62
253
  6
CONTINUOUS
 70
0
 71
3
 72
14
 73
10
 74
8
 42
0.0000001
 43
0.0000001
 44
0.0000000001
 12
2.4493389446
 22
0.0000647415
 32
0.0
 13
0.6720171082
 23
2.3553458931
 33
0.0
 40
0.0
 40
0.0
 40
0.0
 40
0.0
 40
0.3190761854
 40
0.6198396163
 40
0.7531396573
 40
0.865682308
 40
0.9114574297
 40
0.9490294265
 40
1.0
 40
1.0
 40
1.0
 40
1.0
 10
167.2927925356
 20
55.8896563155
 30
0.0
 10
167.5533011114
 20
55.8896632013
 30
0.0
 10
168.0594058639
 20
55.9016814617
 30
0.0
 10
168.6729909988
 20
55.9513283828
 30
0.0
 10
169.1139572605
 20
56.0224918922
 30
0.0
 10
169.3455033434
 20
56.0784265537
 30
0.0
 10
169.4963116657
 20
56.1348811075
 30
0.0
 10
169.5922860707
 20
56.1839306367
 30
0.0
 10
169.6536353106
 20
56.2361346848
 30
0.0
 10
169.6650530097
 20
56.2761524618
 30
0.0
 11
167.2927925356
 21
55.8896563155
 31
0.0
 11
168.0740617237
 21
55.9096792616
 31
0.0
 11
168.8077633865
 21
55.9757617396
 31
0.0
 11
169.1297829036
 21
56.0296478203
 31
0.0
 11
169.3965856816
 21
56.0989443596
 31
0.0
 11
169.501235935
 21
56.1391805019
 31
0.0
 11
169.5823671062
 21
56.1826157402
 31
0.0
 11
169.6650530097
 21
56.2761524618
 31
0.0
  0
SPLINE
  5
38C
100
AcDbEntity
  8
RACCORDO
100
AcDbSpline
 62
253
  6
CONTINUOUS
 70
0
 71
3
 72
9
 73
5
 74
3
 42
0.0000001
 43
0.0000001
 44
0.0000000001
 12
0.8237807779
 22
2.8817166189
 32
0.0
 13
0.0700898552
 23
2.9963298974
 33
0.0
 40
0.0
 40
0.0
 40
0.0
 40
0.0
 40
0.4778107833
 40
1.0
 40
1.0
 40
1.0
 40
1.0
 10
169.6650530097
 20
56.2761524618
 30
0.0
 10
169.7962567893
 20
56.7351242201
 30
0.0
 10
169.9951333903
 20
57.7179191141
 30
0.0
 10
170.0710922445
 20
58.716413781
 30
0.0
 10
170.0832923
 20
59.2379641684
 30
0.0
 11
169.6650530097
 21
56.2761524618
 31
0.0
 11
169.9582450502
 21
57.6778885239
 31
0.0
 11
170.0832923
 21
59.2379641684
 31
0.0
  0
SPLINE
  5
38D
100
AcDbEntity
  8
RACCORDO
100
AcDbSpline
 62
253
  6
CONTINUOUS
 70
0
 71
3
 72
8
 73
4
 74
2
 42
0.0000001
 43
0.0000001
 44
0.0000000001
 12
0.2282090261
 22
6.9920718039
 32
0.0
 13
0.2247314186
 23
6.9921844413
 33
0.0
 40
0.0
 40
0.0
 40
0.0
 40
0.0
 40
1.0
 40
1.0
 40
1.0
 40
1.0
 10
255.1935155927
 20
73.2832199992
 30
0.0
 10
255.2695852681
 20
75.6139106006
 30
0.0
 10
255.3451271311
 20
77.9446185136
 30
0.0
 10
255.4200376039
 20
80.2753466607
 30
0.0
 11
255.1935155927
 21
73.2832199992
 31
0.0
 11
255.4200376039
 21
80.2753466607
 31
0.0
  0
SPLINE
  5
38E
100
AcDbEntity
  8
ASSI
100
AcDbSpline
 62
7
  6
CONTINUOUS
 70
0
 71
3
 72
11
 73
7
 74
5
 42
0.0000001
 43
0.0000001
 44
0.0000000001
 12
0.0
 22
-3.5019059444
 32
0.0
 13
-3.0820046793
 23
-1.6627063482
 33
0.0
 40
0.0
 40
0.0
 40
0.0
 40
0.0
 40
0.2215580431
 40
0.4569360034
 40
0.715257932
 40
1.0
 40
1.0
 40
1.0
 40
1.0
 10
157.396049896
 20
65.1547571318
 30
0.0
 10
157.396049896
 20
64.8961319891
 30
0.0
 10
157.3014682406
 20
64.3590857013
 30
0.0
 10
156.8963773194
 20
63.6154838015
 30
0.0
 10
156.2583558152
 20
62.9561288096
 30
0.0
 10
155.7248175929
 20
62.6048778882
 30
0.0
 10
155.4322921309
 20
62.4470637402
 30
0.0
 11
157.396049896
 21
65.1547571318
 31
0.0
 11
157.2657227418
 21
64.3899058307
 31
0.0
 11
156.8809513897
 21
63.6609514585
 31
0.0
 11
156.2600000769
 21
63.0031101565
 31
0.0
 11
155.4322921309
 21
62.4470637402
 31
0.0
  0
SPLINE
  5
38F
100
AcDbEntity
  8
ASSI
100
AcDbSpline
 62
7
  6
CONTINUOUS
 70
0
 71
3
 72
11
 73
7
 74
5
 42
0.0000001
 43
0.0000001
 44
0.0000000001
 12
-6.4398998271
 22
-3.4742524552
 32
0.0
 13
-6.4398998271
 23
3.4742524552
 33
0.0
 40
0.0
 40
0.0
 40
0.0
 40
0.0
 40
0.2411986402
 40
0.5
 40
0.7588013598
 40
1.0
 40
1.0
 40
1.0
 40
1.0
 10
155.4322921309
 20
62.4470637402
 30
0.0
 10
154.9145271038
 20
62.1677354175
 30
0.0
 10
153.7500103313
 20
61.7525416506
 30
0.0
 10
151.896049896
 20
61.5505238823
 30
0.0
 10
150.0420894608
 20
61.7525416506
 30
0.0
 10
148.8775726883
 20
62.1677354175
 30
0.0
 10
148.3598076612
 20
62.4470637402
 30
0.0
 11
155.4322921309
 21
62.4470637402
 31
0.0
 11
153.7777152481
 21
61.8328001522
 31
0.0
 11
151.896049896
 21
61.6194252785
 31
0.0
 11
150.014384544
 21
61.8328001522
 31
0.0
 11
148.3598076612
 21
62.4470637402
 31
0.0
  0
SPLINE
  5
390
100
AcDbEntity
  8
ASSI
100
AcDbSpline
 62
7
  6
CONTINUOUS
 70
0
 71
3
 72
11
 73
7
 74
5
 42
0.0000001
 43
0.0000001
 44
0.0000000001
 12
-3.0820046793
 22
1.6627063482
 32
0.0
 13
0.0
 23
3.5019059444
 33
0.0
 40
0.0
 40
0.0
 40
0.0
 40
0.0
 40
0.284742068
 40
0.5430639966
 40
0.7784419569
 40
1.0
 40
1.0
 40
1.0
 40
1.0
 10
148.3598076612
 20
62.4470637402
 30
0.0
 10
148.0672821992
 20
62.6048778882
 30
0.0
 10
147.5337439769
 20
62.9561288096
 30
0.0
 10
146.8957224727
 20
63.6154838015
 30
0.0
 10
146.4906315515
 20
64.3590857013
 30
0.0
 10
146.396049896
 20
64.8961319891
 30
0.0
 10
146.396049896
 20
65.1547571318
 30
0.0
 11
148.3598076612
 21
62.4470637402
 31
0.0
 11
147.5320997152
 21
63.0031101565
 31
0.0
 11
146.9111484024
 21
63.6609514585
 31
0.0
 11
146.5263770503
 21
64.3899058307
 31
0.0
 11
146.396049896
 21
65.1547571318
 31
0.0
  0
SPLINE
  5
391
100
AcDbEntity
  8
RACCORDO
100
AcDbSpline
 62
253
  6
CONTINUOUS
 70
0
 71
3
 72
9
 73
5
 74
3
 42
0.0000001
 43
0.0000001
 44
0.0000000001
 12
-1.3251081653
 22
4.6317975814
 32
0.0
 13
-0.9403497193
 23
4.7249553321
 33
0.0
 40
0.0
 40
0.0
 40
0.0
 40
0.0
 40
0.4521402807
 40
1.0
 40
1.0
 40
1.0
 40
1.0
 10
255.9129567004
 20
56.4677600258
 30
0.0
 10
255.7132451078
 20
57.1658341119
 30
0.0
 10
255.3182783572
 20
58.7231264028
 30
0.0
 10
254.9843255603
 20
60.2941644238
 30
0.0
 10
254.8125989826
 20
61.1570353244
 30
0.0
 11
255.9129567004
 21
56.4677600258
 31
0.0
 11
255.3685574862
 21
58.57687331
 31
0.0
 11
254.8125989826
 21
61.1570353244
 31
0.0
  0
SPLINE
  5
392
100
AcDbEntity
  8
RACCORDO
100
AcDbSpline
 62
253
  6
CONTINUOUS
 70
0
 71
3
 72
8
 73
4
 74
2
 42
0.0000001
 43
0.0000001
 44
0.0000000001
 12
0.2247314186
 22
-6.9921844413
 32
0.0
 13
0.2282090261
 23
-6.9920718039
 33
0.0
 40
0.0
 40
0.0
 40
0.0
 40
0.0
 40
1.0
 40
1.0
 40
1.0
 40
1.0
 10
48.3720621882
 20
80.2753466607
 30
0.0
 10
48.446972661
 20
77.9446185136
 30
0.0
 10
48.522514524
 20
75.6139106006
 30
0.0
 10
48.5985841994
 20
73.2832199992
 30
0.0
 11
48.3720621882
 21
80.2753466607
 31
0.0
 11
48.5985841994
 21
73.2832199992
 31
0.0
  0
SPLINE
  5
393
100
AcDbEntity
  8
RACCORDO
100
AcDbSpline
 62
253
  6
CONTINUOUS
 70
0
 71
3
 72
9
 73
5
 74
3
 42
0.0000001
 43
0.0000001
 44
0.0000000001
 12
-0.9404023012
 22
-4.7252195773
 32
0.0
 13
-1.3251838693
 23
-4.6320561584
 33
0.0
 40
0.0
 40
0.0
 40
0.0
 40
0.0
 40
0.5478239326
 40
1.0
 40
1.0
 40
1.0
 40
1.0
 10
48.9795008094
 20
61.1570353291
 30
0.0
 10
48.8077758471
 20
60.2941725387
 30
0.0
 10
48.4737416607
 20
58.7230623207
 30
0.0
 10
48.0788879132
 20
57.1656481681
 30
0.0
 10
47.879149103
 20
56.4674798555
 30
0.0
 11
48.9795008094
 21
61.1570353291
 31
0.0
 11
48.4235393808
 21
58.576899323
 31
0.0
 11
47.879149103
 21
56.4674798555
 31
0.0
  0
SPLINE
  5
394
100
AcDbEntity
  8
RACCORDO
100
AcDbSpline
 62
253
  6
CONTINUOUS
 70
0
 71
3
 72
8
 73
4
 74
2
 42
0.0000001
 43
0.0000001
 44
0.0000000001
 12
0.2367250342
 22
7.2573430884
 32
0.0
 13
0.2329641581
 23
7.2574647878
 33
0.0
 40
0.0
 40
0.0
 40
0.0
 40
0.0
 40
1.0
 40
1.0
 40
1.0
 40
1.0
 10
254.1963049494
 20
73.3157477056
 30
0.0
 10
254.2752132941
 20
75.7348620684
 30
0.0
 10
254.3535515624
 20
78.1539951222
 30
0.0
 10
254.4312062818
 20
80.5731500514
 30
0.0
 11
254.1963049494
 21
73.3157477056
 31
0.0
 11
254.4312062818
 21
80.5731500514
 31
0.0
  0
SPLINE
  5
395
100
AcDbEntity
  8
RACCORDO
100
AcDbSpline
 62
7
  6
CONTINUOUS
 70
0
 71
3
 72
13
 73
9
 74
7
 42
0.0000001
 43
0.0000001
 44
0.0000000001
 12
-2.4581402779
 22
-0.3039854188
 32
0.0
 13
-0.2720518179
 23
-2.4618790728
 33
0.0
 40
0.0
 40
0.0
 40
0.0
 40
0.0
 40
0.2645703563
 40
0.5199734988
 40
0.6436919963
 40
0.7645646647
 40
0.8830723375
 40
1.0
 40
1.0
 40
1.0
 40
1.0
 10
47.5618748338
 20
136.2294815442
 30
0.0
 10
47.3450911508
 20
136.202673034
 30
0.0
 10
46.9239136824
 20
136.0886005389
 30
0.0
 10
46.4678502802
 20
135.7976434866
 30
0.0
 10
46.1845672932
 20
135.49490983
 30
0.0
 10
46.0198810544
 20
135.242441154
 30
0.0
 10
45.9059011645
 20
134.9695015797
 30
0.0
 10
45.8657549992
 20
134.7778806808
 30
0.0
 10
45.8551515381
 20
134.681926759
 30
0.0
 11
47.5618748338
 21
136.2294815442
 31
0.0
 11
46.9301500527
 21
136.0552731807
 31
0.0
 11
46.3989719076
 21
135.71171614
 31
0.0
 11
46.1900272776
 21
135.4875645037
 31
0.0
 11
46.0269664947
 21
135.2364813783
 31
0.0
 11
45.9143060311
 21
134.965435211
 31
0.0
 11
45.8551515381
 21
134.681926759
 31
0.0
  0
SPLINE
  5
396
100
AcDbEntity
  8
RACCORDO
100
AcDbSpline
 62
253
  6
CONTINUOUS
 70
0
 71
3
 72
11
 73
7
 74
5
 42
0.0000001
 43
0.0000001
 44
0.0000000001
 12
-1.0373565137
 22
1.8071181726
 32
0.0
 13
-2.0829245287
 23
-0.0566571617
 33
0.0
 40
0.0
 40
0.0
 40
0.0
 40
0.0
 40
0.2386139383
 40
0.4851766598
 40
0.7397138173
 40
1.0
 40
1.0
 40
1.0
 40
1.0
 10
256.3066489271
 20
139.9994389443
 30
0.0
 10
256.224139686
 20
140.1431734723
 30
0.0
 10
256.0096586403
 20
140.4107181349
 30
0.0
 10
255.5822598664
 20
140.7070744499
 30
0.0
 10
255.0784822428
 20
140.8857300961
 30
0.0
 10
254.7182516153
 20
140.9187276774
 30
0.0
 10
254.5375327905
 20
140.9138119852
 30
0.0
 11
256.3066489271
 21
139.9994389443
 31
0.0
 11
255.9972453173
 21
140.3886380077
 31
0.0
 11
255.5766924404
 21
140.6837416387
 31
0.0
 11
255.0774965869
 21
140.8629178047
 31
0.0
 11
254.5375327905
 21
140.9138119852
 31
0.0
  0
SPLINE
  5
397
100
AcDbEntity
  8
RACCORDO
100
AcDbSpline
 62
7
  6
CONTINUOUS
 70
0
 71
3
 72
13
 73
9
 74
7
 42
0.0000001
 43
0.0000001
 44
0.0000000001
 12
-0.2720369338
 22
2.4618895662
 32
0.0
 13
-2.4581494737
 23
0.3039827208
 33
0.0
 40
0.0
 40
0.0
 40
0.0
 40
0.0
 40
0.1169276618
 40
0.235435319
 40
0.3563079664
 40
0.4800264479
 40
0.7354295912
 40
1.0
 40
1.0
 40
1.0
 40
1.0
 10
257.9369493062
 20
134.6819184447
 30
0.0
 10
257.9263464253
 20
134.7778727749
 30
0.0
 10
257.88620114
 20
134.9694945761
 30
0.0
 10
257.7722220909
 20
135.2424356188
 30
0.0
 10
257.6075362164
 20
135.4949057734
 30
0.0
 10
257.3242531172
 20
135.7976413424
 30
0.0
 10
256.868188516
 20
136.0886001407
 30
0.0
 10
256.4470095968
 20
136.2026738707
 30
0.0
 10
256.2302250597
 20
136.2294821483
 30
0.0
 11
257.9369493062
 21
134.6819184447
 31
0.0
 11
257.8777961832
 21
134.9654282313
 31
0.0
 11
257.7651365628
 21
135.2364758361
 31
0.0
 11
257.6020761611
 21
135.4875604146
 31
0.0
 11
257.3931314727
 21
135.7117134298
 31
0.0
 11
256.8619520892
 21
136.0552726953
 31
0.0
 11
256.2302250597
 21
136.2294821483
 31
0.0
  0
SPLINE
  5
398
100
AcDbEntity
  8
RACCORDO
100
AcDbSpline
 62
253
  6
CONTINUOUS
 70
0
 71
3
 72
11
 73
7
 74
5
 42
0.0000001
 43
0.0000001
 44
0.0000000001
 12
2.3303086398
 22
-4.3147732924
 32
0.0
 13
0.5356578279
 23
-4.8744925493
 33
0.0
 40
0.0
 40
0.0
 40
0.0
 40
0.0
 40
0.2414866445
 40
0.4872884863
 40
0.7395015054
 40
1.0
 40
1.0
 40
1.0
 40
1.0
 10
254.5375326371
 20
140.9138140732
 30
0.0
 10
254.7251121084
 20
140.5664940318
 30
0.0
 10
255.0673931418
 20
139.8454314455
 30
0.0
 10
255.4731599298
 20
138.7047369157
 30
0.0
 10
255.7734453753
 20
137.4998984782
 30
0.0
 10
255.9004548635
 20
136.6701754386
 30
0.0
 10
255.9469675494
 20
136.2469094484
 30
0.0
 11
254.5375326371
 21
140.9138140732
 31
0.0
 11
255.045966173
 21
139.8443044834
 31
0.0
 11
255.4511026128
 21
138.7090574191
 31
0.0
 11
255.7517825551
 21
137.5093517537
 31
0.0
 11
255.9469675494
 21
136.2469094484
 31
0.0
  0
SPLINE
  5
399
100
AcDbEntity
  8
RACCORDO
100
AcDbSpline
 62
253
  6
CONTINUOUS
 70
0
 71
3
 72
11
 73
7
 74
5
 42
0.0000001
 43
0.0000001
 44
0.0000000001
 12
0.5356720746
 22
4.8744908813
 32
0.0
 13
2.330310001
 23
4.3147724416
 33
0.0
 40
0.0
 40
0.0
 40
0.0
 40
0.0
 40
0.2604982706
 40
0.5127112728
 40
0.7585132632
 40
1.0
 40
1.0
 40
1.0
 40
1.0
 10
47.8451322437
 20
136.2469094545
 30
0.0
 10
47.8916461267
 20
136.670174936
 30
0.0
 10
48.0186545356
 20
137.4998976043
 30
0.0
 10
48.3189387674
 20
138.7047362593
 30
0.0
 10
48.7247061899
 20
139.8454309191
 30
0.0
 10
49.0669870613
 20
140.5664939985
 30
0.0
 10
49.254566714
 20
140.9138141043
 30
0.0
 11
47.8451322437
 21
136.2469094545
 31
0.0
 11
48.0403173213
 21
137.5093506086
 31
0.0
 11
48.3409962878
 21
138.7090564069
 31
0.0
 11
48.7461330361
 21
139.8443041078
 31
0.0
 11
49.254566714
 21
140.9138141043
 31
0.0
  0
SPLINE
  5
39A
100
AcDbEntity
  8
RACCORDO
100
AcDbSpline
 62
253
  6
CONTINUOUS
 70
0
 71
3
 72
11
 73
7
 74
5
 42
0.0000001
 43
0.0000001
 44
0.0000000001
 12
-2.0531810906
 22
0.0558477599
 32
0.0
 13
-1.0554637148
 23
-1.7620067848
 33
0.0
 40
0.0
 40
0.0
 40
0.0
 40
0.0
 40
0.2600840848
 40
0.5145566602
 40
0.7612186848
 40
1.0
 40
1.0
 40
1.0
 40
1.0
 10
49.2545665977
 20
140.9138134782
 30
0.0
 10
49.0765666894
 20
140.9186551827
 30
0.0
 10
48.7217326322
 20
140.8867847459
 30
0.0
 10
48.2244284986
 20
140.7136396743
 30
0.0
 10
47.8002020217
 20
140.4259433937
 30
0.0
 10
47.5846643402
 20
140.1656123144
 30
0.0
 10
47.5006560022
 20
140.0253675486
 30
0.0
 11
49.2545665977
 21
140.9138134782
 31
0.0
 11
48.722633916
 21
140.8646778783
 31
0.0
 11
48.2296577015
 21
140.6910115949
 31
0.0
 11
47.8118945618
 21
140.4043985706
 31
0.0
 11
47.5006560022
 21
140.0253675486
 31
0.0
  0
SPLINE
  5
39B
100
AcDbEntity
  8
RACCORDO
100
AcDbSpline
 62
7
  6
CONTINUOUS
 70
0
 71
3
 72
11
 73
7
 74
5
 42
0.0000001
 43
0.0000001
 44
0.0000000001
 12
-3.118858283
 22
-0.000003197
 32
0.0
 13
-0.0000105297
 23
3.118858283
 33
0.0
 40
0.0
 40
0.0
 40
0.0
 40
0.0
 40
0.2500785269
 40
0.5000864702
 40
0.7500550674
 40
1.0
 40
1.0
 40
1.0
 40
1.0
 10
47.8455175597
 20
50.6100740835
 30
0.0
 10
47.5855310647
 20
50.610073817
 30
0.0
 10
47.0599176106
 20
50.7138024553
 30
0.0
 10
46.3954111097
 20
51.1581484313
 30
0.0
 10
45.9500564142
 20
51.821881299
 30
0.0
 10
45.8460470311
 20
52.3473444905
 30
0.0
 10
45.8460461538
 20
52.6071920983
 30
0.0
 11
47.8455175597
 21
50.6100740835
 31
0.0
 11
47.0804905105
 21
50.7619635566
 31
0.0
 11
46.4318896819
 21
51.1947572846
 31
0.0
 11
45.998265297
 21
51.8426554112
 31
0.0
 11
45.8460461538
 21
52.6071920983
 31
0.0
  0
SPLINE
  5
39C
100
AcDbEntity
  8
RACCORDO
100
AcDbSpline
 62
7
  6
CONTINUOUS
 70
0
 71
3
 72
11
 73
7
 74
5
 42
0.0000001
 43
0.0000001
 44
0.0000000001
 12
-0.0000105292
 22
-3.1188582913
 32
0.0
 13
-3.1188582913
 23
0.0000001757
 33
0.0
 40
0.0
 40
0.0
 40
0.0
 40
0.0
 40
0.2499449324
 40
0.4999135269
 40
0.7499214753
 40
1.0
 40
1.0
 40
1.0
 40
1.0
 10
257.9460536384
 20
52.6071920988
 30
0.0
 10
257.9460527611
 20
52.3473444905
 30
0.0
 10
257.8420433808
 20
51.8218812875
 30
0.0
 10
257.3966886696
 20
51.1581484758
 30
0.0
 10
256.7321821978
 20
50.713802293
 30
0.0
 10
256.2065687258
 20
50.6100740689
 30
0.0
 10
255.9465822324
 20
50.6100740835
 30
0.0
 11
257.9460536384
 21
52.6071920988
 31
0.0
 11
257.7938344943
 21
51.8426554105
 31
0.0
 11
257.3602101103
 21
51.194757291
 31
0.0
 11
256.7116092822
 21
50.7619635297
 31
0.0
 11
255.9465822324
 21
50.6100740835
 31
0.0
  0
SPLINE
  5
39D
100
AcDbEntity
  8
RACCORDO
100
AcDbSpline
 62
7
  6
CONTINUOUS
 70
0
 71
3
 72
11
 73
7
 74
5
 42
0.0000001
 43
0.0000001
 44
0.0000000001
 12
-0.0000001318
 22
2.9153754309
 32
0.0
 13
2.9153754309
 23
0.0000043579
 33
0.0
 40
0.0
 40
0.0
 40
0.0
 40
0.0
 40
0.2332361804
 40
0.4766009122
 40
0.7336453829
 40
1.0
 40
1.0
 40
1.0
 40
1.0
 10
45.846049896
 20
134.259346534
 30
0.0
 10
45.8460498858
 20
134.486003544
 30
0.0
 10
45.9561227803
 20
134.9550774672
 30
0.0
 10
46.4116792893
 20
135.528949079
 30
0.0
 10
47.0739037272
 20
135.9044586273
 30
0.0
 10
47.587028065
 20
135.9905396962
 30
0.0
 10
47.8458693005
 20
135.9905400832
 30
0.0
 11
45.846049896
 21
134.259346534
 31
0.0
 11
45.9982975084
 21
134.9220540608
 31
0.0
 11
46.4319113126
 21
135.4836310317
 31
0.0
 11
47.0805956271
 21
135.8588386344
 31
0.0
 11
47.8458693005
 21
135.9905400832
 31
0.0
  0
SPLINE
  5
39E
100
AcDbEntity
  8
RACCORDO
100
AcDbSpline
 62
7
  6
CONTINUOUS
 70
0
 71
3
 72
11
 73
7
 74
5
 42
0.0000001
 43
0.0000001
 44
0.0000000001
 12
2.9153754221
 22
-0.000001847
 32
0.0
 13
-0.0000001375
 23
-2.9153754221
 33
0.0
 40
0.0
 40
0.0
 40
0.0
 40
0.0
 40
0.2663546189
 40
0.5233990852
 40
0.7667638194
 40
1.0
 40
1.0
 40
1.0
 40
1.0
 10
255.9462304916
 20
135.9905400832
 30
0.0
 10
256.2050717281
 20
135.9905399192
 30
0.0
 10
256.7181960502
 20
135.9044584832
 30
0.0
 10
257.3804205125
 20
135.5289491153
 30
0.0
 10
257.8359770056
 20
134.9550774565
 30
0.0
 10
257.9460499067
 20
134.4860035435
 30
0.0
 10
257.946049896
 20
134.259346534
 30
0.0
 11
255.9462304916
 21
135.9905400832
 31
0.0
 11
256.7115041636
 21
135.8588386089
 31
0.0
 11
257.3601884779
 21
135.483631036
 31
0.0
 11
257.793802282
 21
134.9220540589
 31
0.0
 11
257.946049896
 21
134.259346534
 31
0.0
  0
SPLINE
  5
39F
100
AcDbEntity
  8
ASSI
100
AcDbSpline
 62
7
  6
CONTINUOUS
 70
0
 71
3
 72
11
 73
7
 74
5
 42
0.0000001
 43
0.0000001
 44
0.0000000001
 12
6.5197301354
 22
-3.6282910764
 32
0.0
 13
6.5197301354
 23
3.6282910764
 33
0.0
 40
0.0
 40
0.0
 40
0.0
 40
0.0
 40
0.2408351458
 40
0.5
 40
0.7591648542
 40
1.0
 40
1.0
 40
1.0
 40
1.0
 10
148.296049896
 20
63.8207125118
 30
0.0
 10
148.8194432819
 20
63.529439175
 30
0.0
 10
150.0045724314
 20
63.0966296264
 30
0.0
 10
151.896049896
 20
62.8864047163
 30
0.0
 10
153.7875273607
 20
63.0966296264
 30
0.0
 10
154.9726565102
 20
63.529439175
 30
0.0
 10
155.496049896
 20
63.8207125118
 30
0.0
 11
148.296049896
 21
63.8207125118
 31
0.0
 11
149.9751934908
 21
63.1807875745
 31
0.0
 11
151.896049896
 21
62.9581716163
 31
0.0
 11
153.8169063013
 21
63.1807875745
 31
0.0
 11
155.496049896
 21
63.8207125118
 31
0.0
  0
SPLINE
  5
3A0
100
AcDbEntity
  8
RACCORDO
100
AcDbSpline
 62
253
  6
CONTINUOUS
 70
0
 71
3
 72
9
 73
5
 74
3
 42
0.0000001
 43
0.0000001
 44
0.0000000001
 12
-0.026797687
 22
-0.5105007825
 32
0.0
 13
-0.4599878826
 23
-0.2230253636
 33
0.0
 40
0.0
 40
0.0
 40
0.0
 40
0.0
 40
0.4937895585
 40
1.0
 40
1.0
 40
1.0
 40
1.0
 10
255.6360354932
 20
80.7733982142
 30
0.0
 10
255.6316246872
 20
80.6893715622
 30
0.0
 10
255.5732278635
 20
80.5189370037
 30
0.0
 10
255.436262251
 20
80.4032431812
 30
0.0
 10
255.3586453613
 20
80.3656105919
 30
0.0
 11
255.6360354932
 21
80.7733982142
 31
0.0
 11
255.5547959229
 21
80.5344012826
 31
0.0
 11
255.3586453613
 21
80.3656105919
 31
0.0
  0
SPLINE
  5
3A1
100
AcDbEntity
  8
RACCORDO
100
AcDbSpline
 62
253
  6
CONTINUOUS
 70
0
 71
3
 72
9
 73
5
 74
3
 42
0.0000001
 43
0.0000001
 44
0.0000000001
 12
-0.021062286
 22
-0.469987669
 32
0.0
 13
-0.400352267
 23
-0.2470831667
 33
0.0
 40
0.0
 40
0.0
 40
0.0
 40
0.0
 40
0.4960209051
 40
1.0
 40
1.0
 40
1.0
 40
1.0
 10
256.1028874173
 20
78.2369125483
 30
0.0
 10
256.0994049726
 20
78.1592046453
 30
0.0
 10
256.0518162186
 20
78.0021010936
 30
0.0
 10
255.9360902086
 20
77.8863167131
 30
0.0
 10
255.8688338176
 20
77.8448084628
 30
0.0
 11
256.1028874173
 21
78.2369125483
 31
0.0
 11
256.0354306707
 21
78.0135173876
 31
0.0
 11
255.8688338176
 21
77.8448084628
 31
0.0
  0
SPLINE
  5
3A2
100
AcDbEntity
  8
RACCORDO
100
AcDbSpline
 62
253
  6
CONTINUOUS
 70
0
 71
3
 72
9
 73
5
 74
3
 42
0.0000001
 43
0.0000001
 44
0.0000000001
 12
-0.0178659374
 22
-0.4751870383
 32
0.0
 13
-0.4035995337
 23
-0.2514544282
 33
0.0
 40
0.0
 40
0.0
 40
0.0
 40
0.0
 40
0.4970995231
 40
1.0
 40
1.0
 40
1.0
 40
1.0
 10
256.4484331983
 20
76.5859906897
 30
0.0
 10
256.4454728153
 20
76.507252273
 30
0.0
 10
256.3987880291
 20
76.3480658698
 30
0.0
 10
256.2826314003
 20
76.2300687223
 30
0.0
 10
256.214974601
 20
76.1879165384
 30
0.0
 11
256.4484331983
 21
76.5859906897
 31
0.0
 11
256.3818918018
 21
76.3591674948
 31
0.0
 11
256.214974601
 21
76.1879165384
 31
0.0
  0
SPLINE
  5
3A3
100
AcDbEntity
  8
RACCORDO
100
AcDbSpline
 62
253
  6
CONTINUOUS
 70
0
 71
3
 72
9
 73
5
 74
3
 42
0.0000001
 43
0.0000001
 44
0.0000000001
 12
0.0179822804
 22
-0.4751324376
 32
0.0
 13
0.4035825205
 23
-0.251386843
 33
0.0
 40
0.0
 40
0.0
 40
0.0
 40
0.0
 40
0.4970998196
 40
1.0
 40
1.0
 40
1.0
 40
1.0
 10
47.3436358511
 20
76.5859899004
 30
0.0
 10
47.3466155139
 20
76.507260484
 30
0.0
 10
47.3933296729
 20
76.3481030163
 30
0.0
 10
47.5094893508
 20
76.2301368101
 30
0.0
 10
47.5771432583
 20
76.1879959805
 30
0.0
 11
47.3436358511
 21
76.5859899004
 31
0.0
 11
47.4102192732
 21
76.3592048868
 31
0.0
 11
47.5771432583
 21
76.1879959805
 31
0.0
  0
SPLINE
  5
3A4
100
AcDbEntity
  8
RACCORDO
100
AcDbSpline
 62
253
  6
CONTINUOUS
 70
0
 71
3
 72
9
 73
5
 74
3
 42
0.0000001
 43
0.0000001
 44
0.0000000001
 12
0.0210622904
 22
-0.4699876589
 32
0.0
 13
0.4003522559
 23
-0.2470831657
 33
0.0
 40
0.0
 40
0.0
 40
0.0
 40
0.0
 40
0.4960209052
 40
1.0
 40
1.0
 40
1.0
 40
1.0
 10
47.689212381
 20
78.2369125485
 30
0.0
 10
47.6926948265
 20
78.1592046471
 30
0.0
 10
47.7402835802
 20
78.0021010993
 30
0.0
 10
47.8560095868
 20
77.8863167207
 30
0.0
 10
47.923265976
 20
77.8448084707
 30
0.0
 11
47.689212381
 21
78.2369125485
 31
0.0
 11
47.7566691273
 21
78.0135173928
 31
0.0
 11
47.923265976
 21
77.8448084707
 31
0.0
  0
SPLINE
  5
3A5
100
AcDbEntity
  8
RACCORDO
100
AcDbSpline
 62
253
  6
CONTINUOUS
 70
0
 71
3
 72
9
 73
5
 74
3
 42
0.0000001
 43
0.0000001
 44
0.0000000001
 12
0.0267950931
 22
-0.5104515093
 32
0.0
 13
0.4599213933
 23
-0.2230493944
 33
0.0
 40
0.0
 40
0.0
 40
0.0
 40
0.0
 40
0.4937901756
 40
1.0
 40
1.0
 40
1.0
 40
1.0
 10
48.1560635251
 20
80.7733981947
 30
0.0
 10
48.1604739097
 20
80.6893795479
 30
0.0
 10
48.2188601312
 20
80.5189617116
 30
0.0
 10
48.3558022822
 20
80.4032695604
 30
0.0
 10
48.4334078581
 20
80.3656329622
 30
0.0
 11
48.1560635251
 21
80.7733981947
 31
0.0
 11
48.2372891879
 21
80.534421936
 31
0.0
 11
48.4334078581
 21
80.3656329622
 31
0.0
  0
SPLINE
  5
3A6
100
AcDbEntity
  8
RACCORDO
100
AcDbSpline
 62
253
  6
CONTINUOUS
 70
0
 71
3
 72
13
 73
9
 74
7
 42
0.0000001
 43
0.0000001
 44
0.0000000001
 12
1.0207997727
 22
-0.0163866324
 32
0.0
 13
0.3602149543
 23
-0.9552726755
 33
0.0
 40
0.0
 40
0.0
 40
0.0
 40
0.0
 40
0.3617619891
 40
0.6728901499
 40
0.7960015061
 40
0.8922443422
 40
0.9596780496
 40
1.0
 40
1.0
 40
1.0
 40
1.0
 10
254.6429130799
 20
80.9379774666
 30
0.0
 10
254.7660085986
 20
80.9360014464
 30
0.0
 10
254.9948336589
 20
80.9257277294
 30
0.0
 10
255.2646816912
 20
80.8964756926
 30
0.0
 10
255.4418584016
 20
80.8627619299
 30
0.0
 10
255.5366471722
 20
80.8366431988
 30
0.0
 10
255.5999310541
 20
80.8107457237
 30
0.0
 10
255.6311939315
 20
80.7862377066
 30
0.0
 10
255.6360354547
 20
80.7733982208
 30
0.0
 11
254.6429130799
 21
80.9379774666
 31
0.0
 11
255.0118464623
 21
80.9207768307
 31
0.0
 11
255.3273027857
 21
80.8835910945
 31
0.0
 11
255.4505922964
 21
80.8591528225
 31
0.0
 11
255.5450202484
 21
80.8319891821
 31
0.0
 11
255.6074937952
 21
80.8030631557
 31
0.0
 11
255.6360354547
 21
80.7733982208
 31
0.0
  0
SPLINE
  5
3A7
100
AcDbEntity
  8
RACCORDO
100
AcDbSpline
 62
253
  6
CONTINUOUS
 70
0
 71
3
 72
13
 73
9
 74
7
 42
0.0000001
 43
0.0000001
 44
0.0000000001
 12
0.3602203534
 22
0.9552706558
 32
0.0
 13
1.0207997451
 23
0.0163893024
 33
0.0
 40
0.0
 40
0.0
 40
0.0
 40
0.0
 40
0.040321889
 40
0.1077552464
 40
0.2039977326
 40
0.3271086896
 40
0.6382363796
 40
1.0
 40
1.0
 40
1.0
 40
1.0
 10
48.1560643375
 20
80.7733982208
 30
0.0
 10
48.1609059258
 20
80.7862376599
 30
0.0
 10
48.1921685128
 20
80.8107456779
 30
0.0
 10
48.2554522704
 20
80.8366429971
 30
0.0
 10
48.3502406059
 20
80.8627617342
 30
0.0
 10
48.5274169044
 20
80.896475563
 30
0.0
 10
48.7972651576
 20
80.9257280616
 30
0.0
 10
49.0260906417
 20
80.9360011155
 30
0.0
 10
49.1491867122
 20
80.9379774666
 30
0.0
 11
48.1560643375
 21
80.7733982208
 31
0.0
 11
48.1846059309
 21
80.803063133
 31
0.0
 11
48.2470791528
 21
80.8319890132
 31
0.0
 11
48.3415067438
 21
80.8591526216
 31
0.0
 11
48.4647958333
 21
80.8835909323
 31
0.0
 11
48.7802516561
 21
80.9207768488
 31
0.0
 11
49.1491867122
 21
80.9379774666
 31
0.0
  0
SPLINE
  5
3A8
100
AcDbEntity
  8
RACCORDO
100
AcDbSpline
 62
253
  6
CONTINUOUS
 70
0
 71
3
 72
11
 73
7
 74
5
 42
0.0000001
 43
0.0000001
 44
0.0000000001
 12
-0.0659876941
 22
-2.7839990417
 32
0.0
 13
-2.754154891
 23
-0.4118687611
 33
0.0
 40
0.0
 40
0.0
 40
0.0
 40
0.0
 40
0.2499383372
 40
0.4999845213
 40
0.7500278827
 40
1.0
 40
1.0
 40
1.0
 40
1.0
 10
256.1362840403
 20
56.1664414146
 30
0.0
 10
256.1307864221
 20
55.9344987175
 30
0.0
 10
256.0390324249
 20
55.4684603044
 30
0.0
 10
255.6727683281
 20
54.860225421
 30
0.0
 10
255.1202610436
 20
54.4137957113
 30
0.0
 10
254.6694608302
 20
54.2620774358
 30
0.0
 10
254.4399735203
 20
54.227758867
 30
0.0
 11
256.1362840403
 21
56.1664414146
 31
0.0
 11
256.0009672937
 21
55.4836983261
 31
0.0
 11
255.6417258108
 21
54.8871981437
 31
0.0
 11
255.0995824618
 21
54.4502352705
 31
0.0
 11
254.4399735203
 21
54.227758867
 31
0.0
  0
SPLINE
  5
3A9
100
AcDbEntity
  8
RACCORDO
100
AcDbSpline
 62
253
  6
CONTINUOUS
 70
0
 71
3
 72
11
 73
7
 74
5
 42
0.0000001
 43
0.0000001
 44
0.0000000001
 12
-2.7570821615
 22
0.4087767142
 32
0.0
 13
-0.0660444686
 23
2.7864383316
 33
0.0
 40
0.0
 40
0.0
 40
0.0
 40
0.0
 40
0.2499658121
 40
0.5000062288
 40
0.7500552477
 40
1.0
 40
1.0
 40
1.0
 40
1.0
 10
49.3545772052
 20
54.2273939977
 30
0.0
 10
49.124851778
 20
54.2614540655
 30
0.0
 10
48.6734786049
 20
54.4128109826
 30
0.0
 10
48.1201207782
 20
54.8592087389
 30
0.0
 10
47.7532296865
 20
55.4678288478
 30
0.0
 10
47.6613182035
 20
55.9342899648
 30
0.0
 10
47.6558157141
 20
56.1664418443
 30
0.0
 11
49.3545772052
 21
54.2273939977
 31
0.0
 11
48.6941624326
 21
54.4493333345
 31
0.0
 11
48.1512053967
 21
54.8862454405
 31
0.0
 11
47.7913616985
 21
55.483104271
 31
0.0
 11
47.6558157141
 21
56.1664418443
 31
0.0
  0
SPLINE
  5
3AA
100
AcDbEntity
  8
RACCORDO
100
AcDbSpline
 62
253
  6
CONTINUOUS
 70
0
 71
3
 72
11
 73
7
 74
5
 42
0.0000001
 43
0.0000001
 44
0.0000000001
 12
0.0373764516
 22
3.1454359492
 32
0.0
 13
-3.1451656236
 23
0.0556552751
 33
0.0
 40
0.0
 40
0.0
 40
0.0
 40
0.0
 40
0.2452096407
 40
0.4933642067
 40
0.7454022249
 40
1.0
 40
1.0
 40
1.0
 40
1.0
 10
256.8298483017
 20
120.4748869003
 30
0.0
 10
256.8329033238
 20
120.7319839733
 30
0.0
 10
256.7435786055
 20
121.2553914004
 30
0.0
 10
256.3302268159
 20
121.9404727528
 30
0.0
 10
255.6777792662
 20
122.4244651789
 30
0.0
 10
255.1421413995
 20
122.5471968404
 30
0.0
 10
254.8752240094
 20
122.5519200768
 30
0.0
 11
256.8298483017
 21
120.4748869003
 31
0.0
 11
256.6985943112
 21
121.2349832974
 31
0.0
 11
256.2942305448
 21
121.9026965417
 31
0.0
 11
255.6558137886
 21
122.3727988464
 31
0.0
 11
254.8752240094
 21
122.5519200768
 31
0.0
  0
SPLINE
  5
3AB
100
AcDbEntity
  8
RACCORDO
100
AcDbSpline
 62
253
  6
CONTINUOUS
 70
0
 71
3
 72
11
 73
7
 74
5
 42
0.0000001
 43
0.0000001
 44
0.0000000001
 12
-3.1451518703
 22
-0.055344345
 32
0.0
 13
0.037291578
 23
-3.1454177182
 33
0.0
 40
0.0
 40
0.0
 40
0.0
 40
0.0
 40
0.2545770204
 40
0.5066131379
 40
0.7547814881
 40
1.0
 40
1.0
 40
1.0
 40
1.0
 10
48.9168358178
 20
122.5519188467
 30
0.0
 10
48.6499413538
 20
122.5472223806
 30
0.0
 10
48.1143353797
 20
122.4244483441
 30
0.0
 10
47.4618902923
 20
121.9404989355
 30
0.0
 10
47.0485125952
 20
121.2554009748
 30
0.0
 10
46.9592035191
 20
120.7319722477
 30
0.0
 10
46.9622517142
 20
120.4748673636
 30
0.0
 11
48.9168358178
 21
122.5519188467
 31
0.0
 11
48.1363150238
 21
122.3728107917
 31
0.0
 11
47.4978969894
 21
121.9027284835
 31
0.0
 11
47.0935045526
 21
121.2349874912
 31
0.0
 11
46.9622517142
 21
120.4748673636
 31
0.0
  0
SPLINE
  5
3AC
100
AcDbEntity
  8
RACCORDO
100
AcDbSpline
 62
253
  6
CONTINUOUS
 70
0
 71
3
 72
12
 73
8
 74
6
 42
0.0000001
 43
0.0000001
 44
0.0000000001
 12
-1.759016942
 22
0.0000283827
 32
0.0
 13
0.048425693
 23
-1.7583502368
 33
0.0
 40
0.0
 40
0.0
 40
0.0
 40
0.0
 40
0.1251608328
 40
0.2503928614
 40
0.4996299487
 40
0.7496815665
 40
1.0
 40
1.0
 40
1.0
 40
1.0
 10
48.9168526877
 20
121.7707232187
 30
0.0
 10
48.8434660126
 20
121.7707244029
 30
0.0
 10
48.6957936042
 20
121.7496076344
 30
0.0
 10
48.4254742256
 20
121.6286105217
 30
0.0
 10
48.1604896552
 20
121.356935917
 30
0.0
 10
47.9877429206
 20
120.9452198078
 30
0.0
 10
47.9564917526
 20
120.6491038264
 30
0.0
 10
47.9605323671
 20
120.5023880008
 30
0.0
 11
48.9168526877
 21
121.7707232187
 31
0.0
 11
48.6988838734
 21
121.7397388224
 31
0.0
 11
48.4974549214
 21
121.6505649863
 31
0.0
 11
48.1849532785
 21
121.3430783489
 31
0.0
 11
48.0087967416
 21
120.9400491604
 31
0.0
 11
47.9605323671
 21
120.5023880008
 31
0.0
  0
SPLINE
  5
3AD
100
AcDbEntity
  8
RACCORDO
100
AcDbSpline
 62
253
  6
CONTINUOUS
 70
0
 71
3
 72
12
 73
8
 74
6
 42
0.0000001
 43
0.0000001
 44
0.0000000001
 12
0.0484272945
 22
1.7583520668
 32
0.0
 13
-1.759018815
 23
0.0000463698
 33
0.0
 40
0.0
 40
0.0
 40
0.0
 40
0.0
 40
0.2503236263
 40
0.5003708362
 40
0.7495979817
 40
0.8748350664
 40
1.0
 40
1.0
 40
1.0
 40
1.0
 10
255.831567423
 20
120.5023879788
 30
0.0
 10
255.8356082549
 20
120.6491070007
 30
0.0
 10
255.80435676
 20
120.9452242103
 30
0.0
 10
255.6316092822
 20
121.3569337514
 30
0.0
 10
255.3666342238
 20
121.6286089992
 30
0.0
 10
255.0963138298
 20
121.7496065898
 30
0.0
 10
254.948636259
 20
121.7707212727
 30
0.0
 10
254.8752471013
 20
121.7707232073
 30
0.0
 11
255.831567423
 21
120.5023879788
 31
0.0
 11
255.7833010922
 21
120.940058584
 31
0.0
 11
255.607146132
 21
121.343080511
 31
0.0
 11
255.2946603323
 21
121.6505589817
 31
0.0
 11
255.0932231487
 21
121.7397367739
 31
0.0
 11
254.8752471013
 21
121.7707232073
 31
0.0
  0
SPLINE
  5
3AE
100
AcDbEntity
  8
RACCORDO
100
AcDbSpline
 62
253
  6
CONTINUOUS
 70
0
 71
3
 72
9
 73
5
 74
3
 42
0.0000001
 43
0.0000001
 44
0.0000000001
 12
0.929297037
 22
-13.7986835009
 32
0.0
 13
1.2626899113
 23
-13.7721775158
 33
0.0
 40
0.0
 40
0.0
 40
0.0
 40
0.0
 40
0.2317318105
 40
1.0
 40
1.0
 40
1.0
 40
1.0
 10
45.846049896
 20
134.2594855708
 30
0.0
 10
45.9178324577
 20
133.1936209341
 30
0.0
 10
46.245980233
 20
128.5952955633
 30
0.0
 10
46.6388686902
 20
124.0017701162
 30
0.0
 10
46.9622301876
 20
120.4748614877
 30
0.0
 11
45.846049896
 21
134.2594855708
 31
0.0
 11
46.0733935647
 21
131.0627221614
 31
0.0
 11
46.9622301876
 21
120.4748614877
 31
0.0
  0
SPLINE
  5
3AF
100
AcDbEntity
  8
RACCORDO
100
AcDbSpline
 62
253
  6
CONTINUOUS
 70
0
 71
3
 72
9
 73
5
 74
3
 42
0.0000001
 43
0.0000001
 44
0.0000000001
 12
-0.0422261094
 22
2.2222798536
 32
0.0
 13
0.0715774504
 23
2.2215281814
 33
0.0
 40
0.0
 40
0.0
 40
0.0
 40
0.0
 40
0.5442646687
 40
1.0
 40
1.0
 40
1.0
 40
1.0
 10
47.2711756447
 20
73.4837448741
 30
0.0
 10
47.2635149182
 20
73.8869143435
 30
0.0
 10
47.2562379341
 20
74.6278043023
 30
0.0
 10
47.2645404192
 20
75.3687857336
 30
0.0
 10
47.2754138768
 20
75.7062620276
 30
0.0
 11
47.2711756447
 21
73.4837448741
 31
0.0
 11
47.2602087206
 21
74.6934218957
 31
0.0
 11
47.2754138768
 21
75.7062620276
 31
0.0
  0
SPLINE
  5
3B0
100
AcDbEntity
  8
RACCORDO
100
AcDbSpline
 62
253
  6
CONTINUOUS
 70
0
 71
3
 72
9
 73
5
 74
3
 42
0.0000001
 43
0.0000001
 44
0.0000000001
 12
0.0257227234
 22
0.7983485673
 32
0.0
 13
0.1158632055
 23
0.7903150074
 33
0.0
 40
0.0
 40
0.0
 40
0.0
 40
0.0
 40
0.5951824799
 40
1.0
 40
1.0
 40
1.0
 40
1.0
 10
47.2754138768
 20
75.7062620276
 30
0.0
 10
47.280517115
 20
75.8646497209
 30
0.0
 10
47.2921622255
 20
76.1305780691
 30
0.0
 10
47.3131452556
 20
76.3963600162
 30
0.0
 10
47.3287797407
 20
76.50300447
 30
0.0
 11
47.2754138768
 21
75.7062620276
 31
0.0
 11
47.2976869315
 21
76.181149647
 31
0.0
 11
47.3287797407
 21
76.50300447
 31
0.0
  0
SPLINE
  5
3B1
100
AcDbEntity
  8
RACCORDO
100
AcDbSpline
 62
253
  6
CONTINUOUS
 70
0
 71
3
 72
9
 73
5
 74
3
 42
0.0000001
 43
0.0000001
 44
0.0000000001
 12
0.0122301253
 22
0.0834229601
 32
0.0
 13
0.01852926
 23
0.0822534665
 33
0.0
 40
0.0
 40
0.0
 40
0.0
 40
0.0
 40
0.2812874385
 40
1.0
 40
1.0
 40
1.0
 40
1.0
 10
47.3287797407
 20
76.50300447
 30
0.0
 10
47.3299264676
 20
76.5108264136
 30
0.0
 10
47.3341907118
 20
76.5386038702
 30
0.0
 10
47.3391967893
 20
76.5662843674
 30
0.0
 10
47.3436358599
 20
76.5859899006
 30
0.0
 11
47.3287797407
 21
76.50300447
 31
0.0
 11
47.3323841201
 21
76.5264456412
 31
0.0
 11
47.3436358599
 21
76.5859899006
 31
0.0
  0
LINE
  5
3B2
100
AcDbEntity
  8
RACCORDO
100
AcDbLine
 62
253
  6
CONTINUOUS
 10
47.6558158789
 20
56.1664418957
 11
47.6497223642
 21
56.461573475
  0
SPLINE
  5
3B3
100
AcDbEntity
  8
RACCORDO
100
AcDbSpline
 62
253
  6
CONTINUOUS
 70
0
 71
3
 72
15
 73
11
 74
9
 42
0.0000001
 43
0.0000001
 44
0.0000000001
 12
-1.1448215006
 22
-3.9441748959
 32
0.0
 13
-4.1054605471
 23
0.1110206022
 33
0.0
 40
0.0
 40
0.0
 40
0.0
 40
0.0
 40
0.2130959088
 40
0.3999944452
 40
0.560784757
 40
0.695706195
 40
0.8052340413
 40
0.8903749813
 40
0.9533541592
 40
1.0
 40
1.0
 40
1.0
 40
1.0
 10
47.6558158789
 20
56.1664418957
 30
0.0
 10
47.5744969529
 20
55.8862793845
 30
0.0
 10
47.4149010756
 20
55.3623592518
 30
0.0
 10
47.1658406625
 20
54.6359780564
 30
0.0
 10
46.9241996753
 20
54.0207769225
 30
0.0
 10
46.691386895
 20
53.5167403444
 30
0.0
 10
46.4693965668
 20
53.1231991708
 30
0.0
 10
46.2584383832
 20
52.838569512
 30
0.0
 10
46.0593073839
 20
52.6581156064
 30
0.0
 10
45.9098803758
 20
52.604612177
 30
0.0
 10
45.8460461561
 20
52.6063383934
 30
0.0
 11
47.6558158789
 21
56.1664418957
 31
0.0
 11
47.399324655
 21
55.3296943496
 31
0.0
 11
47.1485621206
 21
54.6042255383
 31
0.0
 11
46.9047941136
 21
53.9905057621
 31
0.0
 11
46.6694236486
 21
53.4888619185
 31
0.0
 11
46.4440201861
 21
53.099584021
 31
0.0
 11
46.2303271881
 21
52.822808302
 31
0.0
 11
46.0302823825
 21
52.658846486
 31
0.0
 11
45.8460461561
 21
52.6063383934
 31
0.0
  0
SPLINE
  5
3B4
100
AcDbEntity
  8
RACCORDO
100
AcDbSpline
 62
253
  6
CONTINUOUS
 70
0
 71
3
 72
9
 73
5
 74
3
 42
0.0000001
 43
0.0000001
 44
0.0000000001
 12
1.2626823349
 22
13.7720953819
 32
0.0
 13
0.9292914765
 23
13.7986012058
 33
0.0
 40
0.0
 40
0.0
 40
0.0
 40
0.0
 40
0.2679435007
 40
1.0
 40
1.0
 40
1.0
 40
1.0
 10
256.829870276
 20
120.4748858733
 30
0.0
 10
256.9426461177
 20
121.7049336897
 30
0.0
 10
257.3532638935
 20
126.2965420355
 30
0.0
 10
257.7192852744
 20
130.8923358874
 30
0.0
 10
257.946049896
 20
134.2594544519
 30
0.0
 11
256.829870276
 21
120.4748858733
 31
0.0
 11
257.1594891053
 21
124.1658174112
 31
0.0
 11
257.946049896
 21
134.2594544519
 31
0.0
  0
LINE
  5
3B5
100
AcDbEntity
  8
RACCORDO
100
AcDbLine
 62
253
  6
CONTINUOUS
 10
256.1423774288
 20
56.461573475
 11
256.1362839051
 21
56.1664414663
  0
SPLINE
  5
3B6
100
AcDbEntity
  8
RACCORDO
100
AcDbSpline
 62
253
  6
CONTINUOUS
 70
0
 71
3
 72
9
 73
5
 74
3
 42
0.0000001
 43
0.0000001
 44
0.0000000001
 12
0.0717972395
 22
-0.319517892
 32
0.0
 13
0.0253618457
 23
-0.3265016136
 33
0.0
 40
0.0
 40
0.0
 40
0.0
 40
0.0
 40
0.4092149898
 40
1.0
 40
1.0
 40
1.0
 40
1.0
 10
256.4484639322
 20
76.5859899006
 30
0.0
 10
256.4582574344
 20
76.5424060636
 30
0.0
 10
256.4736046147
 20
76.4341056492
 30
0.0
 10
256.4836580294
 20
76.3254406817
 30
0.0
 10
256.4886524955
 20
76.261143262
 30
0.0
 11
256.4484639322
 21
76.5859899006
 31
0.0
 11
256.4699315492
 21
76.4537087107
 31
0.0
 11
256.4886524955
 21
76.261143262
 31
0.0
  0
SPLINE
  5
3B7
100
AcDbEntity
  8
RACCORDO
100
AcDbSpline
 62
253
  6
CONTINUOUS
 70
0
 71
3
 72
9
 73
5
 74
3
 42
0.0000001
 43
0.0000001
 44
0.0000000001
 12
0.0429499696
 22
-0.5529264122
 32
0.0
 13
0.0178841034
 23
-0.5543035955
 33
0.0
 40
0.0
 40
0.0
 40
0.0
 40
0.0
 40
0.2140804892
 40
1.0
 40
1.0
 40
1.0
 40
1.0
 10
256.4886524955
 20
76.261143262
 30
0.0
 10
256.4917174124
 20
76.2216863431
 30
0.0
 10
256.5043639931
 20
76.0372480782
 30
0.0
 10
256.5119672703
 20
75.8524985349
 30
0.0
 10
256.5166524256
 20
75.7072858647
 30
0.0
 11
256.4886524955
 21
76.261143262
 31
0.0
 11
256.4969010478
 21
76.1427028091
 31
0.0
 11
256.5166524256
 21
75.7072858647
 31
0.0
  0
SPLINE
  5
3B8
100
AcDbEntity
  8
RACCORDO
100
AcDbSpline
 62
253
  6
CONTINUOUS
 70
0
 71
3
 72
9
 73
5
 74
3
 42
0.0000001
 43
0.0000001
 44
0.0000000001
 12
0.071659372
 22
-2.2210253766
 32
0.0
 13
-0.0421734136
 23
-2.2217808605
 33
0.0
 40
0.0
 40
0.0
 40
0.0
 40
0.0
 40
0.4556810886
 40
1.0
 40
1.0
 40
1.0
 40
1.0
 10
256.5166524256
 20
75.7072858647
 30
0.0
 10
256.5275370324
 20
75.3699261109
 30
0.0
 10
256.5358561823
 20
74.6291115015
 30
0.0
 10
256.5286136833
 20
73.8883878503
 30
0.0
 10
256.5209617545
 20
73.4852687372
 30
0.0
 11
256.5166524256
 21
75.7072858647
 31
0.0
 11
256.5318874884
 21
74.6947945826
 31
0.0
 11
256.5209617545
 21
73.4852687372
 31
0.0
  0
SPLINE
  5
3B9
100
AcDbEntity
  8
RACCORDO
100
AcDbSpline
 62
253
  6
CONTINUOUS
 70
0
 71
3
 72
15
 73
11
 74
9
 42
0.0000001
 43
0.0000001
 44
0.0000000001
 12
-4.1053620458
 22
-0.1110185816
 32
0.0
 13
-1.1447919647
 23
3.9440808828
 33
0.0
 40
0.0
 40
0.0
 40
0.0
 40
0.0
 40
0.0466112906
 40
0.1096091937
 40
0.1947467846
 40
0.3042792715
 40
0.4392032189
 40
0.5999979859
 40
0.7868988029
 40
1.0
 40
1.0
 40
1.0
 40
1.0
 10
257.9460536373
 20
52.6067986809
 30
0.0
 10
257.8822682295
 20
52.6050737744
 30
0.0
 10
257.732623351
 20
52.6577351545
 30
0.0
 10
257.5337506734
 20
52.8387448489
 30
0.0
 10
257.3226595071
 20
53.1231330212
 30
0.0
 10
257.1007267838
 20
53.5167732695
 30
0.0
 10
256.8678907572
 20
54.0207732383
 30
0.0
 10
256.6262602696
 20
54.6359855938
 30
0.0
 10
256.3771953185
 20
55.3623594107
 30
0.0
 10
256.2176027512
 20
55.8862786805
 30
0.0
 10
256.1362839051
 20
56.1664414663
 30
0.0
 11
257.9460536373
 21
52.6067986809
 31
0.0
 11
257.7618153261
 21
52.6587623862
 31
0.0
 11
257.5617698744
 21
52.8228349177
 31
0.0
 11
257.348076652
 21
53.0995824889
 31
0.0
 11
257.1226732627
 21
53.4888699827
 31
0.0
 11
256.8873030054
 21
53.9905106241
 31
0.0
 11
256.6435348313
 21
54.6042329766
 31
0.0
 11
256.3927743161
 21
55.3296929135
 31
0.0
 11
256.1362839051
 21
56.1664414663
 31
0.0
  0
SPLINE
  5
3BA
100
AcDbEntity
  8
RACCORDO
100
AcDbSpline
 62
253
  6
CONTINUOUS
 70
0
 71
3
 72
15
 73
11
 74
9
 42
0.0000001
 43
0.0000001
 44
0.0000000001
 12
-4.1275093073
 22
0.000003093
 32
0.0
 13
-1.1366976833
 23
3.9679026524
 33
0.0
 40
0.0
 40
0.0
 40
0.0
 40
0.0
 40
0.046367076
 40
0.109541971
 40
0.1949604467
 40
0.3047397792
 40
0.4398022937
 40
0.6005832941
 40
0.7872902218
 40
1.0
 40
1.0
 40
1.0
 40
1.0
 10
255.9466067851
 20
50.6100740835
 30
0.0
 10
255.8828132725
 20
50.6100741313
 30
0.0
 10
255.7340108058
 20
50.6665710398
 30
0.0
 10
255.537603126
 20
50.8524524
 30
0.0
 10
255.3283260761
 20
51.1414494141
 30
0.0
 10
255.1084231339
 20
51.5398567199
 30
0.0
 10
254.8776660368
 20
52.0484088494
 30
0.0
 10
254.6382377532
 20
52.6679336237
 30
0.0
 10
254.3914513467
 20
53.3982803692
 30
0.0
 10
254.233262407
 20
53.9246555718
 30
0.0
 10
254.1526668363
 20
54.2059928028
 30
0.0
 11
255.9466067851
 21
50.6100740835
 31
0.0
 11
255.7637311469
 21
50.6664922652
 31
0.0
 11
255.5653149162
 21
50.8356790027
 31
0.0
 11
255.3534455102
 21
51.1174835884
 31
0.0
 11
255.1300299822
 21
51.5116902616
 31
0.0
 11
254.8967813252
 21
52.0180200512
 31
0.0
 11
254.6552405472
 21
52.6361270755
 31
0.0
 11
254.4067889351
 21
53.3656128226
 31
0.0
 11
254.1526668363
 21
54.2059928028
 31
0.0
  0
SPLINE
  5
3BB
100
AcDbEntity
  8
RACCORDO
100
AcDbSpline
 62
253
  6
CONTINUOUS
 70
0
 71
3
 72
15
 73
11
 74
9
 42
0.0000001
 43
0.0000001
 44
0.0000000001
 12
-1.1367135073
 22
-3.9679457933
 32
0.0
 13
-4.1275551378
 23
-0.000003456
 33
0.0
 40
0.0
 40
0.0
 40
0.0
 40
0.0
 40
0.2127073029
 40
0.3994138158
 40
0.5601928007
 40
0.6952538292
 40
0.8050315905
 40
0.8904491376
 40
0.9536210676
 40
1.0
 40
1.0
 40
1.0
 40
1.0
 10
49.639432895
 20
54.2059927985
 30
0.0
 10
49.5588371403
 20
53.9246557826
 30
0.0
 10
49.4006464874
 20
53.3982788506
 30
0.0
 10
49.1538604521
 20
52.6679302261
 30
0.0
 10
48.9144318278
 20
52.0484030339
 30
0.0
 10
48.6836734849
 20
51.5398534048
 30
0.0
 10
48.4637737643
 20
51.1414421892
 30
0.0
 10
48.2544911179
 20
50.8524591551
 30
0.0
 10
48.058083704
 20
50.6665473292
 30
0.0
 10
47.9092568662
 20
50.610074137
 30
0.0
 10
47.8454463326
 20
50.6100740835
 30
0.0
 11
49.639432895
 21
54.2059927985
 31
0.0
 11
49.3853100584
 21
53.3656135307
 31
0.0
 11
49.1368567017
 21
52.6361211469
 31
0.0
 11
48.895316288
 21
52.0180150006
 31
0.0
 11
48.6620672864
 21
51.5116853079
 31
0.0
 11
48.4386524394
 21
51.1174799193
 31
0.0
 11
48.2267807643
 21
50.8356769378
 31
0.0
 11
48.02837561
 21
50.6664916094
 31
0.0
 11
47.8454463326
 21
50.6100740835
 31
0.0
  0
SPLINE
  5
3BC
100
AcDbEntity
  8
RACCORDO
100
AcDbSpline
 62
253
  6
CONTINUOUS
 70
0
 71
3
 72
9
 73
5
 74
3
 42
0.0000001
 43
0.0000001
 44
0.0000000001
 12
0.8961885845
 22
-13.4515878114
 32
0.0
 13
1.2090229837
 23
-13.4270857617
 33
0.0
 40
0.0
 40
0.0
 40
0.0
 40
0.0
 40
0.2322040765
 40
1.0
 40
1.0
 40
1.0
 40
1.0
 10
47.8460127563
 20
135.9905400832
 30
0.0
 10
47.9153789705
 20
134.9493689081
 30
0.0
 10
48.2310982001
 20
130.4666362471
 30
0.0
 10
48.6074081291
 20
125.9883285684
 30
0.0
 10
48.9168357685
 20
122.5519079977
 30
0.0
 11
47.8460127563
 21
135.9905400832
 31
0.0
 11
48.0652685285
 21
132.867789902
 31
0.0
 11
48.9168357685
 21
122.5519079977
 31
0.0
  0
SPLINE
  5
3BD
100
AcDbEntity
  8
RACCORDO
100
AcDbSpline
 62
253
  6
CONTINUOUS
 70
0
 71
3
 72
9
 73
5
 74
3
 42
0.0000001
 43
0.0000001
 44
0.0000000001
 12
1.2090216868
 22
13.4270712155
 32
0.0
 13
0.8961876426
 23
13.4515732379
 33
0.0
 40
0.0
 40
0.0
 40
0.0
 40
0.0
 40
0.2674899759
 40
1.0
 40
1.0
 40
1.0
 40
1.0
 10
254.8752239461
 20
122.5519079932
 30
0.0
 10
254.98302434
 20
123.749110312
 30
0.0
 10
255.376325967
 20
128.225646359
 30
0.0
 10
255.7273382065
 20
132.7060693377
 30
0.0
 10
255.9461603504
 20
135.9905400832
 30
0.0
 11
254.8752239461
 21
122.5519079932
 31
0.0
 11
255.1904069823
 21
126.1442454644
 31
0.0
 11
255.9461603504
 21
135.9905400832
 31
0.0
  0
ELLIPSE
  5
3BE
100
AcDbEntity
  8
DRAFT
100
AcDbEllipse
 62
7
  6
CONTINUOUS
 10
210.5585612325
 20
72.1100740835
 30
0.0
 11
-0.0
 21
1.0
 31
0.0
 40
0.0874886635
 41
-4.7123889804
 42
-4.4070811429
  0
ELLIPSE
  5
3BF
100
AcDbEntity
  8
DRAFT
100
AcDbEllipse
 62
7
  6
CONTINUOUS
 10
218.7335385596
 20
72.1100740835
 30
0.0
 11
0.0
 21
1.0
 31
0.0
 40
0.0874886635
 41
-1.8761041449
 42
-1.5707963268
  0
ELLIPSE
  5
3C0
100
AcDbEntity
  8
DRAFT
100
AcDbEllipse
 62
7
  6
CONTINUOUS
 10
85.0585612325
 20
72.1100740835
 30
0.0
 11
0.0
 21
1.0
 31
0.0
 40
0.0874886635
 41
-4.7123889804
 42
-4.4070811429
  0
ELLIPSE
  5
3C1
100
AcDbEntity
  8
DRAFT
100
AcDbEllipse
 62
7
  6
CONTINUOUS
 10
93.2335385596
 20
72.1100740835
 30
0.0
 11
-0.0
 21
1.0
 31
0.0
 40
0.0874886635
 41
-1.8761041449
 42
-1.5707963268
  0
ELLIPSE
  5
3C2
100
AcDbEntity
  8
DRAFT
100
AcDbEllipse
 62
7
  6
CONTINUOUS
 10
112.1356904155
 20
118.3275338905
 30
0.0
 11
0.0
 21
6.0
 31
0.0
 40
0.0174550649
 41
-4.7123889804
 42
-3.1417186732
  0
ELLIPSE
  5
3C3
100
AcDbEntity
  8
DRAFT
100
AcDbEllipse
 62
7
  6
CONTINUOUS
 10
191.6564093766
 20
118.3275338905
 30
0.0
 11
0.0
 21
6.0
 31
0.0
 40
0.0174550649
 41
-3.1414666342
 42
-1.5707963268
  0
ELLIPSE
  5
3C4
100
AcDbEntity
  8
RACCORDO
100
AcDbEllipse
 62
7
  6
CONTINUOUS
 10
247.1179445283
 20
251.9323925801
 30
0.0
 11
0.0
 21
180.0
 31
0.0
 40
0.0874886635
 41
-3.4506683627
 42
-3.4311787244
  0
ELLIPSE
  5
3C5
100
AcDbEntity
  8
RACCORDO
100
AcDbEllipse
 62
7
  6
CONTINUOUS
 10
242.3410634998
 20
80.9379774666
 30
0.0
 11
0.0
 21
0.5
 31
0.0
 40
0.0874886635
 41
-4.7123889804
 42
-3.4506683627
  0
ELLIPSE
  5
3C6
100
AcDbEntity
  8
RACCORDO
100
AcDbEllipse
 62
7
  6
CONTINUOUS
 10
61.4510362923
 20
80.9379774666
 30
0.0
 11
-0.0
 21
0.5
 31
0.0
 40
0.0874886635
 41
-2.8325169445
 42
-1.5707963268
  0
ELLIPSE
  5
3C7
100
AcDbEntity
  8
RACCORDO
100
AcDbEllipse
 62
7
  6
CONTINUOUS
 10
56.6741552638
 20
251.9323925801
 30
0.0
 11
0.0
 21
180.0
 31
0.0
 40
0.0874886635
 41
-2.8520065827
 42
-2.8325169445
  0
ENDSEC
  0
SECTION
  2
OBJECTS
  0
DICTIONARY
  5
C
100
AcDbDictionary
280
0
281
1
  3
ACAD_GROUP
350
D
  3
ACAD_MLINESTYLE
350
17
  3
ACAD_LAYOUT
350
1A
  3
ACAD_PLOTSETTINGS
350
19
  3
ACAD_PLOTSTYLENAME
350
E
  0
DICTIONARY
  5
D
102
{ACAD_REACTORS
330
C
102
}
100
AcDbDictionary
280
0
281
1
  0
ACDBDICTIONARYWDFLT
  5
E
102
{ACAD_REACTORS
330
C
102
}
100
AcDbDictionary
281
1
  3
Normal
350
F
100
AcDbDictionaryWithDefault
340
F
  0
DICTIONARY
  5
17
102
{ACAD_REACTORS
330
C
102
}
100
AcDbDictionary
280
0
281
1
  3
Standard
350
18
  0
DICTIONARY
  5
19
102
{ACAD_REACTORS
330
C
102
}
100
AcDbDictionary
281
1
  0
DICTIONARY
  5
1A
102
{ACAD_REACTORS
330
C
102
}
100
AcDbDictionary
281
1
  3
Model
350
3C8
  3
Layout1
350
3C9
  0
ACDBPLACEHOLDER
  5
F
102
{ACAD_REACTORS
330
E
102
}
  0
MLINESTYLE
  5
18
102
{ACAD_REACTORS
330
17
102
}
100
AcDbMlineStyle
  2
STANDARD
 70
0
  3

 62
256
 51
90.0
 52
90.0
 71
2
 49
0.5
 62
256
  6
BYLAYER
 49
-0.5
 62
256
  6
BYLAYER
  0
LAYOUT
  5
3C8
102
{ACAD_REACTORS
330
1A
102
}
100
AcDbPlotSettings
  1

  2
none_device
  4
ISO_A4_(297.00_x_210.00_MM)
  6

 40
0.0
 41
0.0
 42
0.0
 43
0.0
 44
297.0
 45
210.0
 46
0.0
 47
0.0
 48
0.0
 49
0.0
140
0.0
141
0.0
142
1.0
143
1.0
 70
1024
 72
1
 73
0
 74
0
  7

 75
0
147
1.0
148
0.0
149
0.0
100
AcDbLayout
  1
Model
 70
0
 71
0
 10
0.0
 20
0.0
 11
297.0
 21
210.0
 12
0.0
 22
0.0
 32
0.0
 14
0.0
 24
0.0
 34
0.0
 15
0.0
 25
0.0
 35
0.0
146
0.0
 13
0.0
 23
0.0
 33
0.0
 16
1.0
 26
0.0
 36
0.0
 17
0.0
 27
1.0
 37
0.0
 76
0
330
221
345
0
346
0
  0
LAYOUT
  5
3C9
102
{ACAD_REACTORS
330
1A
102
}
100
AcDbPlotSettings
  1

  2
none_device
  4
ISO_A4_(297.00_x_210.00_MM)
  6

 40
0.0
 41
0.0
 42
0.0
 43
0.0
 44
297.0
 45
210.0
 46
0.0
 47
0.0
 48
0.0
 49
0.0
140
0.0
141
0.0
142
1.0
143
1.0
 70
0
 72
1
 73
0
 74
0
  7

 75
0
147
1.0
148
0.0
149
0.0
100
AcDbLayout
  1
Layout1
 70
0
 71
1
 10
0.0
 20
0.0
 11
297.0
 21
210.0
 12
0.0
 22
0.0
 32
0.0
 14
0.0
 24
0.0
 34
0.0
 15
0.0
 25
0.0
 35
0.0
146
0.0
 13
0.0
 23
0.0
 33
0.0
 16
1.0
 26
0.0
 36
0.0
 17
0.0
 27
1.0
 37
0.0
 76
0
330
222
345
0
346
0
  0
ENDSEC
  0
EOF
