  0
SECTION
  2
HEADER
  9
$ACADVER
  1
AC1021
  9
$DWGCODEPAGE
  3
ANSI_1252
  9
$EXTMAX
 10
297.0
 20
210.0
 30
0.0
  9
$EXTMIN
 10
0.0
 20
0.0
 30
0.0
  9
$LIMMIN
 10
0.0
 20
0.0
  9
$LIMMAX
 10
297.0
 20
210.0
  9
$VIEWCTR
 10
148.5
 20
105.0
  9
$VIEWSIZE
 40
210.0
  9
$CLAYER
  8
0
  9
$LTSCALE
 40
16.335
  9
$CELTYPE
  6
BYLAYER
  9
$DIMSCALE
 40
1.0
  9
$DIMASZ
 40
3.0
  9
$DIMEXO
 40
1.85625
  9
$DIMDLI
 40
11.286
  9
$DIMEXE
 40
5.346
  9
$DIMCEN
 40
2.673
  9
$DIMLFAC
 40
1.0
  9
$DIMBLK
  1
_FILLED
  9
$DIMTXT
 40
3.0
  9
$DIMTOL
 70
1
  9
$DIMLIM
 70
0
  9
$DIMTFAC
 40
1.0
  9
$DIMTP
 40
0.01
  9
$DIMTM
 40
0.01
  9
$PDMODE
 70
3
  9
$PDSIZE
 40
3.0
  9
$HANDSEED
  5
576
  9
$TILEMODE
 70
1
  9
$MEASUREMENT
 70
1
  9
$INSUNITS
 70
4
  0
ENDSEC
  0
SECTION
  2
CLASSES
  0
CLASS
  1
ACDBDICTIONARYWDFLT
  2
AcDbDictionaryWithDefault
  3
AutoCAD 2000
 90
0
 91
1
280
0
281
0
  0
CLASS
  1
ACDBPLACEHOLDER
  2
AcDbPlaceHolder
  3
AutoCAD 2000
 90
0
 91
1
280
0
281
0
  0
CLASS
  1
LAYOUT
  2
AcDbLayout
  3
AutoCAD 2000
 90
0
 91
0
280
0
281
0
  0
ENDSEC
  0
SECTION
  2
TABLES
  0
TABLE
  2
VPORT
  5
8
100
AcDbSymbolTable
 70
2
  0
VPORT
  5
1F4
100
AcDbSymbolTableRecord
100
AcDbViewportTableRecord
  2
*ACTIVE
 70
0
 10
0.0
 20
0.0
 11
1.0
 21
1.0
 12
148.5
 22
105.0
 13
0.0
 23
0.0
 14
1.0
 24
1.0
 15
0.0
 25
0.0
 16
0.0
 26
0.0
 36
1.0
 17
0.0
 27
0.0
 37
0.0
 40
210.0
 41
1.4142857143
 42
50.0
 43
0.0
 44
0.0
 50
0.0
 51
0.0
 71
0
 72
100
 73
1
 74
1
 75
0
 76
0
 77
0
 78
0
  0
ENDTAB
  0
TABLE
  2
LTYPE
  5
5
100
AcDbSymbolTable
 70
6
  0
LTYPE
  5
14
100
AcDbSymbolTableRecord
100
AcDbLinetypeTableRecord
  2
BYBLOCK
 70
0
  3

 72
65
 73
0
 40
0.0
  0
LTYPE
  5
15
100
AcDbSymbolTableRecord
100
AcDbLinetypeTableRecord
  2
BYLAYER
 70
0
  3

 72
65
 73
0
 40
0.0
  0
LTYPE
  5
16
100
AcDbSymbolTableRecord
100
AcDbLinetypeTableRecord
  2
CONTINUOUS
 70
64
  3
Solid line
 72
65
 73
0
 40
0.0
  0
LTYPE
  5
1F5
100
AcDbSymbolTableRecord
100
AcDbLinetypeTableRecord
  2
CENTER
 70
64
  3
____ _ ____ _ ____ _ ____ _ ____ _ ____ _ ____
 72
65
 73
4
 40
0.6
 49
0.375
 74
0
 49
-0.075
 74
0
 49
0.075
 74
0
 49
-0.075
 74
0
  0
LTYPE
  5
1F6
100
AcDbSymbolTableRecord
100
AcDbLinetypeTableRecord
  2
HIDDEN
 70
64
  3
- - - - - - - - - - - - - - - - - - - -
 72
65
 73
2
 40
0.2
 49
0.1
 74
0
 49
-0.1
 74
0
  0
LTYPE
  5
1F7
100
AcDbSymbolTableRecord
100
AcDbLinetypeTableRecord
  2
PHANTOM
 70
64
  3
_____ _ _ _____ _ _ _____ _ _ _____
 72
65
 73
6
 40
0.8
 49
0.45
 74
0
 49
-0.05
 74
0
 49
0.1
 74
0
 49
-0.05
 74
0
 49
0.1
 74
0
 49
-0.05
 74
0
  0
LTYPE
  5
1F8
100
AcDbSymbolTableRecord
100
AcDbLinetypeTableRecord
  2
DOT
 70
64
  3
. . . . . . . . . . . . . . . . . . . .
 72
65
 73
2
 40
0.2
 49
0.1
 74
0
 49
-0.1
 74
0
  0
LTYPE
  5
1F9
100
AcDbSymbolTableRecord
100
AcDbLinetypeTableRecord
  2
DASHED
 70
64
  3
- - - - - - - - - - - - - - - - - - - -
 72
65
 73
2
 40
0.2
 49
0.1
 74
0
 49
-0.1
 74
0
  0
ENDTAB
  0
TABLE
  2
LAYER
  5
2
100
AcDbSymbolTable
 70
36
  0
LAYER
  5
10
100
AcDbSymbolTableRecord
100
AcDbLayerTableRecord
  2
0
 70
0
 62
7
  6
CONTINUOUS
370
-3
390
F
  0
LAYER
  5
1FA
100
AcDbSymbolTableRecord
100
AcDbLayerTableRecord
  2
DEFAULT_1
 70
0
 62
7
  6
CENTER
370
-3
390
F
  0
LAYER
  5
1FB
100
AcDbSymbolTableRecord
100
AcDbLayerTableRecord
  2
DEFAULT_2
 70
0
 62
7
  6
HIDDEN
370
-3
390
F
  0
LAYER
  5
1FC
100
AcDbSymbolTableRecord
100
AcDbLayerTableRecord
  2
DEFAULT_3
 70
0
 62
7
  6
PHANTOM
370
-3
390
F
  0
LAYER
  5
1FD
100
AcDbSymbolTableRecord
100
AcDbLayerTableRecord
  2
ASSEMBLY_1
 70
0
 62
7
  6
CONTINUOUS
370
-3
390
F
  0
LAYER
  5
1FE
100
AcDbSymbolTableRecord
100
AcDbLayerTableRecord
  2
ASSI
 70
0
 62
7
  6
CONTINUOUS
370
-3
390
F
  0
LAYER
  5
1FF
100
AcDbSymbolTableRecord
100
AcDbLayerTableRecord
  2
CAVI_V15B-12
 70
0
 62
7
  6
CONTINUOUS
370
-3
390
F
  0
LAYER
  5
200
100
AcDbSymbolTableRecord
100
AcDbLayerTableRecord
  2
CAVI_V15B-7
 70
0
 62
7
  6
CONTINUOUS
370
-3
390
F
  0
LAYER
  5
201
100
AcDbSymbolTableRecord
100
AcDbLayerTableRecord
  2
COLOR17
 70
0
 62
7
  6
CONTINUOUS
370
-3
390
F
  0
LAYER
  5
202
100
AcDbSymbolTableRecord
100
AcDbLayerTableRecord
  2
COLOR18
 70
0
 62
7
  6
CONTINUOUS
370
-3
390
F
  0
LAYER
  5
203
100
AcDbSymbolTableRecord
100
AcDbLayerTableRecord
  2
COLOR19
 70
0
 62
7
  6
CONTINUOUS
370
-3
390
F
  0
LAYER
  5
204
100
AcDbSymbolTableRecord
100
AcDbLayerTableRecord
  2
COLOR20
 70
0
 62
7
  6
CONTINUOUS
370
-3
390
F
  0
LAYER
  5
205
100
AcDbSymbolTableRecord
100
AcDbLayerTableRecord
  2
COLOR21
 70
0
 62
7
  6
CONTINUOUS
370
-3
390
F
  0
LAYER
  5
206
100
AcDbSymbolTableRecord
100
AcDbLayerTableRecord
  2
COLOR22
 70
0
 62
7
  6
CONTINUOUS
370
-3
390
F
  0
LAYER
  5
207
100
AcDbSymbolTableRecord
100
AcDbLayerTableRecord
  2
COLOR23
 70
0
 62
7
  6
CONTINUOUS
370
-3
390
F
  0
LAYER
  5
208
100
AcDbSymbolTableRecord
100
AcDbLayerTableRecord
  2
COLOR24
 70
0
 62
7
  6
CONTINUOUS
370
-3
390
F
  0
LAYER
  5
209
100
AcDbSymbolTableRecord
100
AcDbLayerTableRecord
  2
COLOR25
 70
0
 62
7
  6
CONTINUOUS
370
-3
390
F
  0
LAYER
  5
20A
100
AcDbSymbolTableRecord
100
AcDbLayerTableRecord
  2
COLOR26
 70
0
 62
7
  6
CONTINUOUS
370
-3
390
F
  0
LAYER
  5
20B
100
AcDbSymbolTableRecord
100
AcDbLayerTableRecord
  2
COLOR27
 70
0
 62
7
  6
CONTINUOUS
370
-3
390
F
  0
LAYER
  5
20C
100
AcDbSymbolTableRecord
100
AcDbLayerTableRecord
  2
COLOR28
 70
0
 62
7
  6
CONTINUOUS
370
-3
390
F
  0
LAYER
  5
20D
100
AcDbSymbolTableRecord
100
AcDbLayerTableRecord
  2
COLOR29
 70
0
 62
7
  6
CONTINUOUS
370
-3
390
F
  0
LAYER
  5
20E
100
AcDbSymbolTableRecord
100
AcDbLayerTableRecord
  2
COLOR5
 70
0
 62
7
  6
CONTINUOUS
370
-3
390
F
  0
LAYER
  5
20F
100
AcDbSymbolTableRecord
100
AcDbLayerTableRecord
  2
COLOR8
 70
0
 62
7
  6
CONTINUOUS
370
-3
390
F
  0
LAYER
  5
210
100
AcDbSymbolTableRecord
100
AcDbLayerTableRecord
  2
COLOR9
 70
0
 62
7
  6
CONTINUOUS
370
-3
390
F
  0
LAYER
  5
211
100
AcDbSymbolTableRecord
100
AcDbLayerTableRecord
  2
COORDINATE
 70
0
 62
7
  6
CONTINUOUS
370
-3
390
F
  0
LAYER
  5
212
100
AcDbSymbolTableRecord
100
AcDbLayerTableRecord
  2
COORD_ORIGINE
 70
0
 62
7
  6
CONTINUOUS
370
-3
390
F
  0
LAYER
  5
213
100
AcDbSymbolTableRecord
100
AcDbLayerTableRecord
  2
COPY_PUBLISH
 70
0
 62
7
  6
CONTINUOUS
370
-3
390
F
  0
LAYER
  5
214
100
AcDbSymbolTableRecord
100
AcDbLayerTableRecord
  2
CORPO_SCATOLA4_4M_V15B_DEFA-100
 70
0
 62
7
  6
CONTINUOUS
370
-3
390
F
  0
LAYER
  5
215
100
AcDbSymbolTableRecord
100
AcDbLayerTableRecord
  2
CORPO_SCATOLA4_4M_V15B_DEFA-110
 70
0
 62
7
  6
CONTINUOUS
370
-3
390
F
  0
LAYER
  5
216
100
AcDbSymbolTableRecord
100
AcDbLayerTableRecord
  2
COSMETIC
 70
0
 62
7
  6
CONTINUOUS
370
-3
390
F
  0
LAYER
  5
217
100
AcDbSymbolTableRecord
100
AcDbLayerTableRecord
  2
COSMETICI
 70
0
 62
7
  6
CONTINUOUS
370
-3
390
F
  0
LAYER
  5
218
100
AcDbSymbolTableRecord
100
AcDbLayerTableRecord
  2
CURVA_2
 70
0
 62
7
  6
CONTINUOUS
370
-3
390
F
  0
LAYER
  5
219
100
AcDbSymbolTableRecord
100
AcDbLayerTableRecord
  2
CURVE
 70
0
 62
7
  6
CONTINUOUS
370
-3
390
F
  0
LAYER
  5
21A
100
AcDbSymbolTableRecord
100
AcDbLayerTableRecord
  2
DRAFT
 70
0
 62
7
  6
CONTINUOUS
370
-3
390
F
  0
LAYER
  5
21B
100
AcDbSymbolTableRecord
100
AcDbLayerTableRecord
  2
ENTLASTUNGSSCHELLE_VIMAR_01
 70
0
 62
7
  6
CONTINUOUS
370
-3
390
F
  0
LAYER
  5
21C
100
AcDbSymbolTableRecord
100
AcDbLayerTableRecord
  2
ENTLASTUNGSSCHELLE_VIMAR_01_1
 70
0
 62
7
  6
CONTINUOUS
370
-3
390
F
  0
LAYER
  5
21D
100
AcDbSymbolTableRecord
100
AcDbLayerTableRecord
  2
ENTLASTUNGSSCHELLE_VIMAR_01_2
 70
0
 62
7
  6
CONTINUOUS
370
-3
390
F
  0
LAYER
  5
21E
100
AcDbSymbolTableRecord
100
AcDbLayerTableRecord
  2
ESTENSIONE_SCATOLA_V15B_DEFAULT
 70
0
 62
7
  6
CONTINUOUS
370
-3
390
F
  0
LAYER
  5
21F
100
AcDbSymbolTableRecord
100
AcDbLayerTableRecord
  2
IGES
 70
0
 62
7
  6
CONTINUOUS
370
-3
390
F
  0
LAYER
  5
220
100
AcDbSymbolTableRecord
100
AcDbLayerTableRecord
  2
IMPORT_IGES
 70
0
 62
7
  6
CONTINUOUS
370
-3
390
F
  0
LAYER
  5
221
100
AcDbSymbolTableRecord
100
AcDbLayerTableRecord
  2
INSERTOFISSASCATOLA_V15B
 70
0
 62
7
  6
CONTINUOUS
370
-3
390
F
  0
LAYER
  5
222
100
AcDbSymbolTableRecord
100
AcDbLayerTableRecord
  2
INTF_1
 70
0
 62
7
  6
CONTINUOUS
370
-3
390
F
  0
LAYER
  5
223
100
AcDbSymbolTableRecord
100
AcDbLayerTableRecord
  2
INTF_5
 70
0
 62
7
  6
CONTINUOUS
370
-3
390
F
  0
LAYER
  5
224
100
AcDbSymbolTableRecord
100
AcDbLayerTableRecord
  2
INTF_7
 70
0
 62
7
  6
CONTINUOUS
370
-3
390
F
  0
LAYER
  5
225
100
AcDbSymbolTableRecord
100
AcDbLayerTableRecord
  2
INTF_BLANK
 70
0
 62
7
  6
CONTINUOUS
370
-3
390
F
  0
LAYER
  5
226
100
AcDbSymbolTableRecord
100
AcDbLayerTableRecord
  2
NOTE
 70
0
 62
7
  6
CONTINUOUS
370
-3
390
F
  0
LAYER
  5
227
100
AcDbSymbolTableRecord
100
AcDbLayerTableRecord
  2
PIANI
 70
0
 62
7
  6
CONTINUOUS
370
-3
390
F
  0
LAYER
  5
228
100
AcDbSymbolTableRecord
100
AcDbLayerTableRecord
  2
PIANI_ORIGINE
 70
0
 62
7
  6
CONTINUOUS
370
-3
390
F
  0
LAYER
  5
229
100
AcDbSymbolTableRecord
100
AcDbLayerTableRecord
  2
PIASTRABASE_V15B
 70
0
 62
7
  6
CONTINUOUS
370
-3
390
F
  0
LAYER
  5
22A
100
AcDbSymbolTableRecord
100
AcDbLayerTableRecord
  2
PIEDINOGOMMA_V15B
 70
0
 62
7
  6
CONTINUOUS
370
-3
390
F
  0
LAYER
  5
22B
100
AcDbSymbolTableRecord
100
AcDbLayerTableRecord
  2
PIEDINOGOMMA_V15B_1
 70
0
 62
7
  6
CONTINUOUS
370
-3
390
F
  0
LAYER
  5
22C
100
AcDbSymbolTableRecord
100
AcDbLayerTableRecord
  2
PIEDINOGOMMA_V15B_2
 70
0
 62
7
  6
CONTINUOUS
370
-3
390
F
  0
LAYER
  5
22D
100
AcDbSymbolTableRecord
100
AcDbLayerTableRecord
  2
PIEDINOGOMMA_V15B_3
 70
0
 62
7
  6
CONTINUOUS
370
-3
390
F
  0
LAYER
  5
22E
100
AcDbSymbolTableRecord
100
AcDbLayerTableRecord
  2
PUNTI
 70
0
 62
7
  6
CONTINUOUS
370
-3
390
F
  0
LAYER
  5
22F
100
AcDbSymbolTableRecord
100
AcDbLayerTableRecord
  2
PUNZONI
 70
0
 62
7
  6
CONTINUOUS
370
-3
390
F
  0
LAYER
  5
230
100
AcDbSymbolTableRecord
100
AcDbLayerTableRecord
  2
RACCORDO
 70
0
 62
7
  6
CONTINUOUS
370
-3
390
F
  0
LAYER
  5
231
100
AcDbSymbolTableRecord
100
AcDbLayerTableRecord
  2
RGB__255__255__255__
 70
0
 62
7
  6
CONTINUOUS
370
-3
390
F
  0
LAYER
  5
232
100
AcDbSymbolTableRecord
100
AcDbLayerTableRecord
  2
RGB____0____0____0__
 70
0
 62
7
  6
CONTINUOUS
370
-3
390
F
  0
LAYER
  5
233
100
AcDbSymbolTableRecord
100
AcDbLayerTableRecord
  2
SHELL
 70
0
 62
7
  6
CONTINUOUS
370
-3
390
F
  0
LAYER
  5
234
100
AcDbSymbolTableRecord
100
AcDbLayerTableRecord
  2
SHELL_1
 70
0
 62
7
  6
CONTINUOUS
370
-3
390
F
  0
LAYER
  5
235
100
AcDbSymbolTableRecord
100
AcDbLayerTableRecord
  2
SHELL_2
 70
0
 62
7
  6
CONTINUOUS
370
-3
390
F
  0
LAYER
  5
236
100
AcDbSymbolTableRecord
100
AcDbLayerTableRecord
  2
SHELL_3
 70
0
 62
7
  6
CONTINUOUS
370
-3
390
F
  0
LAYER
  5
237
100
AcDbSymbolTableRecord
100
AcDbLayerTableRecord
  2
SHELL_4
 70
0
 62
7
  6
CONTINUOUS
370
-3
390
F
  0
LAYER
  5
238
100
AcDbSymbolTableRecord
100
AcDbLayerTableRecord
  2
SHELL_5
 70
0
 62
7
  6
CONTINUOUS
370
-3
390
F
  0
LAYER
  5
239
100
AcDbSymbolTableRecord
100
AcDbLayerTableRecord
  2
SHELL_6
 70
0
 62
7
  6
CONTINUOUS
370
-3
390
F
  0
LAYER
  5
23A
100
AcDbSymbolTableRecord
100
AcDbLayerTableRecord
  2
SHELL_7
 70
0
 62
7
  6
CONTINUOUS
370
-3
390
F
  0
LAYER
  5
23B
100
AcDbSymbolTableRecord
100
AcDbLayerTableRecord
  2
SHELL_8
 70
0
 62
7
  6
CONTINUOUS
370
-3
390
F
  0
LAYER
  5
23C
100
AcDbSymbolTableRecord
100
AcDbLayerTableRecord
  2
SIMBOLI
 70
0
 62
7
  6
CONTINUOUS
370
-3
390
F
  0
LAYER
  5
23D
100
AcDbSymbolTableRecord
100
AcDbLayerTableRecord
  2
SMUSSO
 70
0
 62
7
  6
CONTINUOUS
370
-3
390
F
  0
LAYER
  5
23E
100
AcDbSymbolTableRecord
100
AcDbLayerTableRecord
  2
SNAPLINE
 70
0
 62
7
  6
CONTINUOUS
370
-3
390
F
  0
LAYER
  5
23F
100
AcDbSymbolTableRecord
100
AcDbLayerTableRecord
  2
SOLIDO
 70
0
 62
7
  6
CONTINUOUS
370
-3
390
F
  0
LAYER
  5
240
100
AcDbSymbolTableRecord
100
AcDbLayerTableRecord
  2
SUPERFICI
 70
0
 62
7
  6
CONTINUOUS
370
-3
390
F
  0
LAYER
  5
241
100
AcDbSymbolTableRecord
100
AcDbLayerTableRecord
  2
SUPERFICI_1
 70
0
 62
7
  6
CONTINUOUS
370
-3
390
F
  0
LAYER
  5
242
100
AcDbSymbolTableRecord
100
AcDbLayerTableRecord
  2
SUP_COLORE
 70
0
 62
7
  6
CONTINUOUS
370
-3
390
F
  0
LAYER
  5
243
100
AcDbSymbolTableRecord
100
AcDbLayerTableRecord
  2
TRASH
 70
0
 62
7
  6
CONTINUOUS
370
-3
390
F
  0
LAYER
  5
244
100
AcDbSymbolTableRecord
100
AcDbLayerTableRecord
  2
XSEC_DATUMS
 70
0
 62
7
  6
CONTINUOUS
370
-3
390
F
  0
ENDTAB
  0
TABLE
  2
STYLE
  5
3
100
AcDbSymbolTable
 70
1
  0
STYLE
  5
11
100
AcDbSymbolTableRecord
100
AcDbTextStyleTableRecord
  2
STANDARD
 70
0
 40
0.0
 41
0.8
 50
0.0
 71
0
 42
0.2
  3
txt
  4

  0
STYLE
  5
245
100
AcDbSymbolTableRecord
100
AcDbTextStyleTableRecord
  2
TEXTSTYLE_1
 70
0
 40
0.0
 41
0.8
 50
0.0
 71
0
 42
0.2
  3
gdt
  4

  0
ENDTAB
  0
TABLE
  2
VIEW
  5
6
100
AcDbSymbolTable
 70
0
  0
ENDTAB
  0
TABLE
  2
UCS
  5
7
100
AcDbSymbolTable
 70
0
  0
ENDTAB
  0
TABLE
  2
APPID
  5
9
100
AcDbSymbolTable
 70
1
  0
APPID
  5
246
100
AcDbSymbolTableRecord
100
AcDbRegAppTableRecord
  2
ACAD
 70
0
  0
ENDTAB
  0
TABLE
  2
BLOCK_RECORD
  5
1
100
AcDbSymbolTable
 70
0
  0
BLOCK_RECORD
  5
247
100
AcDbSymbolTableRecord
100
AcDbBlockTableRecord
  2
*Model_Space
  0
BLOCK_RECORD
  5
248
100
AcDbSymbolTableRecord
100
AcDbBlockTableRecord
  2
*Paper_Space
  0
ENDTAB
  0
TABLE
  2
DIMSTYLE
  5
A
100
AcDbSymbolTable
 70
1
100
AcDbDimStyleTable
 71
0
  0
DIMSTYLE
105
249
100
AcDbSymbolTableRecord
100
AcDbDimStyleTableRecord
  2
STANDARD
 70
0
  3

  4

 40
1.0
 41
3.0
 42
0.0625
 43
0.38
 44
0.18
 45
0.0
 46
0.0
 47
0.01
 48
0.01
140
3.0
141
0.09
142
0.0
143
25.4
144
1.0
145
0.0
146
1.0
147
0.09
 71
1.0
 72
0.0
 73
0
 74
0
 75
0
 76
0
 77
1
 78
8
170
0
171
2
172
0
173
0
174
0
175
0
176
0
177
0
178
0
270
2
271
2
272
2
273
2
274
2
275
0
280
0
281
0
282
0
283
1
284
8
285
0
286
0
287
3
288
0
340
11
  0
ENDTAB
  0
ENDSEC
  0
SECTION
  2
BLOCKS
  0
BLOCK
  5
20
100
AcDbEntity
  8
0
100
AcDbBlockBegin
  2
*Model_Space
 70
0
 10
0.0
 20
0.0
 30
0.0
  3
*Model_Space
  1

  0
ENDBLK
  5
21
100
AcDbEntity
  8
0
100
AcDbBlockEnd
  0
BLOCK
  5
1C
100
AcDbEntity
  8
0
100
AcDbBlockBegin
  2
*Paper_Space
 70
0
 10
0.0
 20
0.0
 30
0.0
  3
*Paper_Space
  1

  0
ENDBLK
  5
1D
100
AcDbEntity
  8
0
100
AcDbBlockEnd
  0
ENDSEC
  0
SECTION
  2
ENTITIES
  0
LINE
  5
24A
100
AcDbEntity
  8
RACCORDO
100
AcDbLine
 62
253
  6
CONTINUOUS
 10
83.9103649036
 20
191.3395441126
 11
83.6619198249
 21
191.068272095
  0
LINE
  5
24B
100
AcDbEntity
  8
RACCORDO
100
AcDbLine
 62
253
  6
CONTINUOUS
 10
83.2580314798
 20
189.6794719981
 11
83.2622951165
 21
189.6841112335
  0
LINE
  5
24C
100
AcDbEntity
  8
RACCORDO
100
AcDbLine
 62
253
  6
CONTINUOUS
 10
84.2042737603
 20
191.5606894312
 11
83.9103649036
 21
191.3395441126
  0
LINE
  5
24D
100
AcDbEntity
  8
RACCORDO
100
AcDbLine
 62
253
  6
CONTINUOUS
 10
84.5336991937
 20
191.7242234957
 11
84.2042737603
 21
191.5606894312
  0
LWPOLYLINE
  5
24E
100
AcDbEntity
  8
RACCORDO
100
AcDbPolyline
 62
253
  6
CONTINUOUS
 90
4
 70
0
 10
77.8738662804
 20
181.4335646887
 10
77.8579733715
 20
181.402850067
 10
77.8458176472
 20
181.370126281
 10
77.8374026888
 20
181.3355064556
  0
LINE
  5
24F
100
AcDbEntity
  8
RACCORDO
100
AcDbLine
 62
253
  6
CONTINUOUS
 10
83.6619198249
 20
191.068272095
 11
83.4673470263
 21
190.7560544469
  0
LINE
  5
250
100
AcDbEntity
  8
RACCORDO
100
AcDbLine
 62
253
  6
CONTINUOUS
 10
83.6233555622
 20
185.6841446007
 11
83.6191184825
 21
185.6787897098
  0
LWPOLYLINE
  5
251
100
AcDbEntity
  8
RACCORDO
100
AcDbPolyline
 62
253
  6
CONTINUOUS
 90
6
 70
0
 10
94.5395724558
 20
191.8584560862
 10
94.476913493
 20
191.8246120534
 10
94.4163750372
 20
191.7242251107
 10
94.3600059797
 20
191.5606923874
 10
94.3097140918
 20
191.3395481074
 10
94.2672015466
 20
191.0682764969
  0
LINE
  5
252
100
AcDbEntity
  8
RACCORDO
100
AcDbLine
 62
253
  6
CONTINUOUS
 10
83.4673470263
 20
190.7560544469
 11
83.333231729
 21
190.4134580217
  0
LWPOLYLINE
  5
253
100
AcDbEntity
  8
RACCORDO
100
AcDbPolyline
 62
253
  6
CONTINUOUS
 90
30
 70
0
 10
89.6449916887
 20
174.9982527441
 10
89.7076847518
 20
175.124990032
 10
89.7759576963
 20
175.2495108075
 10
89.8496590783
 20
175.3715805173
 10
89.9286897595
 20
175.4910740467
 10
90.0129042313
 20
175.6077869794
 10
90.1021364848
 20
175.7215246659
 10
90.1962546724
 20
175.8321528855
 10
90.2951601508
 20
175.9395615001
 10
90.3986956592
 20
176.043592701
 10
90.5066982598
 20
176.1440955046
 10
90.6190669219
 20
176.2409664933
 10
90.7356319905
 20
176.3340578823
 10
90.8562183577
 20
176.4232286727
 10
90.9807218733
 20
176.5083803869
 10
91.1089901315
 20
176.5893928552
 10
91.2408070158
 20
176.6661146602
 10
91.3759694389
 20
176.7384026842
 10
91.5143355067
 20
176.8061650605
 10
91.6556410116
 20
176.8692582263
 10
91.7994792948
 20
176.9274908981
 10
91.9456350091
 20
176.9807863024
 10
92.0938670233
 20
177.0290691118
 10
92.2437050565
 20
177.0722038058
 10
92.3949011156
 20
177.1101552032
 10
92.5472192846
 20
177.1429024652
 10
92.7001925598
 20
177.1703894901
 10
92.8535017177
 20
177.1926201228
 10
93.0069821438
 20
177.2096332968
 10
93.1603983459
 20
177.2214599575
  0
LWPOLYLINE
  5
254
100
AcDbEntity
  8
RACCORDO
100
AcDbPolyline
 62
253
  6
CONTINUOUS
 90
25
 70
0
 10
77.8327267414
 20
46.3925927395
 10
77.8345835855
 20
46.3498380564
 10
77.839831141
 20
46.3072057907
 10
77.8484471011
 20
46.2648771692
 10
77.8603948399
 20
46.223032128
 10
77.8756235685
 20
46.1818485476
 10
77.8940685506
 20
46.1415014962
 10
77.9156513781
 20
46.1021624863
 10
77.9402803039
 20
46.0639987456
 10
77.9678506323
 20
46.0271725055
 10
77.9982451638
 20
45.9918403119
 10
78.0313346936
 20
45.9581523597
 10
78.0669785604
 20
45.926251854
 10
78.1050252449
 20
45.8962744019
 10
78.1453130133
 20
45.8683474356
 10
78.1876706054
 20
45.8425896708
 10
78.2319179621
 20
45.8191106021
 10
78.2778669911
 20
45.7980100377
 10
78.3253223667
 20
45.7793776746
 10
78.3740823593
 20
45.7632927179
 10
78.4239396939
 20
45.7498235439
 10
78.4746824307
 20
45.7390274092
 10
78.5260948659
 20
45.7309502075
 10
78.5779584491
 20
45.7256262747
 10
78.6300527121
 20
45.7230782425
  0
LWPOLYLINE
  5
255
100
AcDbEntity
  8
RACCORDO
100
AcDbPolyline
 62
253
  6
CONTINUOUS
 90
25
 70
0
 10
77.8308935098
 20
46.3638690318
 10
77.8326663145
 20
46.3195004025
 10
77.8378498701
 20
46.2752617866
 10
77.8464220143
 20
46.2313423272
 10
77.8583460966
 20
46.1879298027
 10
77.8735711354
 20
46.1452098241
 10
77.892032036
 20
46.1033650414
 10
77.9136498683
 20
46.0625743627
 10
77.9383322049
 20
46.0230121894
 10
77.9659735161
 20
45.9848476701
 10
77.9964556209
 20
45.948243978
 10
78.0296481927
 20
45.9133576128
 10
78.0654093159
 20
45.8803377318
 10
78.1035860933
 20
45.8493255121
 10
78.1440152993
 20
45.820453547
 10
78.1865240782
 20
45.7938452791
 10
78.230930683
 20
45.7696144725
 10
78.2770452524
 20
45.7478647265
 10
78.3246706227
 20
45.7286890326
 10
78.3736031709
 20
45.7121693766
 10
78.4236336849
 20
45.6983763889
 10
78.4745482584
 20
45.6873690414
 10
78.5261292052
 20
45.6791943964
 10
78.57815599
 20
45.6738874046
 10
78.6304061715
 20
45.6714707562
  0
LINE
  5
256
100
AcDbEntity
  8
RACCORDO
100
AcDbLine
 62
7
  6
CONTINUOUS
 10
77.3756125884
 20
175.5471275192
 11
77.3775745074
 21
175.5952194195
  0
LINE
  5
257
100
AcDbEntity
  8
RACCORDO
100
AcDbLine
 62
253
  6
CONTINUOUS
 10
77.8321129709
 20
181.2917105689
 11
77.8349125689
 21
181.3506855079
  0
LINE
  5
258
100
AcDbEntity
  8
RACCORDO
100
AcDbLine
 62
253
  6
CONTINUOUS
 10
77.8327083574
 20
181.2990767414
 11
77.3756125884
 21
175.5471275192
  0
LINE
  5
259
100
AcDbEntity
  8
RACCORDO
100
AcDbLine
 62
7
  6
CONTINUOUS
 10
77.3775127689
 20
175.5949486344
 11
77.8350046731
 21
181.3517939828
  0
LINE
  5
25A
100
AcDbEntity
  8
RACCORDO
100
AcDbLine
 62
253
  6
CONTINUOUS
 10
77.8374026888
 20
181.3355064556
 11
77.8327083574
 21
181.2990767414
  0
LWPOLYLINE
  5
25B
100
AcDbEntity
  8
RACCORDO
100
AcDbPolyline
 62
253
  6
CONTINUOUS
 90
3
 70
0
 10
83.333231729
 20
190.4134580217
 10
83.2641129994
 20
190.0520778277
 10
83.2623301273
 20
189.6841446007
  0
LINE
  5
25C
100
AcDbEntity
  8
RACCORDO
100
AcDbLine
 62
253
  6
CONTINUOUS
 10
89.2904512586
 20
174.7496826202
 11
89.3379291031
 21
174.8879227693
  0
LWPOLYLINE
  5
25D
100
AcDbEntity
  8
RACCORDO
100
AcDbPolyline
 62
253
  6
CONTINUOUS
 90
3
 70
0
 10
89.5369776783
 20
174.7394732782
 10
89.5880643407
 20
174.8696835573
 10
89.6449916887
 20
174.9982527441
  0
LWPOLYLINE
  5
25E
100
AcDbEntity
  8
RACCORDO
100
AcDbPolyline
 62
253
  6
CONTINUOUS
 90
32
 70
0
 10
89.3379291031
 20
174.8879227693
 10
89.3915335855
 20
175.0244517224
 10
89.4513271462
 20
175.1592457775
 10
89.5172474137
 20
175.2923278555
 10
89.5888937242
 20
175.4228974207
 10
89.6662782911
 20
175.5508793071
 10
89.7493889849
 20
175.6763477238
 10
89.8377886257
 20
175.7987262136
 10
89.9314741731
 20
175.9179722528
 10
90.0304487613
 20
176.0341272863
 10
90.1342844686
 20
176.1467408507
 10
90.2429906801
 20
176.2558025106
 10
90.3565581104
 20
176.3613215432
 10
90.4745308266
 20
176.4628771202
 10
90.5969187072
 20
176.5604600776
 10
90.7237119746
 20
176.6540783922
 10
90.8544252036
 20
176.743337042
 10
90.9891041811
 20
176.8282410077
 10
91.1277032182
 20
176.9087841386
 10
91.269599664
 20
176.9845548548
 10
91.4148798962
 20
177.055548859
 10
91.5634576253
 20
177.1217693784
 10
91.7144511793
 20
177.1828163454
 10
91.8678951956
 20
177.2386390836
 10
92.0237551033
 20
177.2892874415
 10
92.1810453913
 20
177.3345124472
 10
92.3397923105
 20
177.3742551487
 10
92.4999696486
 20
177.4085739885
 10
92.660513169
 20
177.4373964451
 10
92.8210681213
 20
177.4606983855
 10
92.9819892589
 20
177.4785038537
 10
93.1432765849
 20
177.4908127838
  0
LWPOLYLINE
  5
25F
100
AcDbEntity
  8
0
100
AcDbPolyline
 62
7
  6
CONTINUOUS
 90
6
 70
0
 10
89.535583552
 20
157.9347865132
 10
89.5023121605
 20
157.8595577302
 10
89.4771049379
 20
157.7821703705
 10
89.4601780355
 20
157.7032775992
 10
89.4516770257
 20
157.6235434454
 10
89.4506125884
 20
157.5835728229
  0
LINE
  5
260
100
AcDbEntity
  8
DRAFT
100
AcDbLine
 62
7
  6
CONTINUOUS
 10
133.9482195188
 20
183.650481583
 11
134.1130990422
 21
183.7388914327
  0
LWPOLYLINE
  5
261
100
AcDbEntity
  8
SUPERFICI
100
AcDbPolyline
 62
253
  6
CONTINUOUS
 90
10
 70
0
 10
104.4604264331
 20
171.2551829143
 10
104.4687264929
 20
171.2579998899
 10
104.485681348
 20
171.260830715
 10
104.5120959367
 20
171.2636753898
 10
104.5487695152
 20
171.2665529023
 10
104.5964822694
 20
171.2694442644
 10
104.6559783649
 20
171.2722925115
 10
104.7279668351
 20
171.2751039799
 10
104.8131059814
 20
171.2778723334
 10
104.9119739111
 20
171.2805215989
  0
LWPOLYLINE
  5
262
100
AcDbEntity
  8
RACCORDO
100
AcDbPolyline
 62
7
  6
CONTINUOUS
 90
9
 70
0
 10
90.1021364144
 20
61.3342081697
 10
90.0129041651
 20
61.4437872068
 10
89.9286896976
 20
61.5565512313
 10
89.8496590208
 20
61.672305458
 10
89.7759576432
 20
61.7908719906
 10
89.7076847028
 20
61.9121216165
 10
89.644991644
 20
62.0358186526
 10
89.5880643005
 20
62.1616074691
 10
89.5369776436
 20
62.2892922155
  0
LWPOLYLINE
  5
263
100
AcDbEntity
  8
RACCORDO
100
AcDbPolyline
 62
253
  6
CONTINUOUS
 90
4
 70
0
 10
89.9314741732
 20
61.3280048693
 10
89.8377886258
 20
61.4431488699
 10
89.7493889849
 20
61.5616507421
 10
89.6662782911
 20
61.6834691449
  0
LWPOLYLINE
  5
264
100
AcDbEntity
  8
RACCORDO
100
AcDbPolyline
 62
7
  6
CONTINUOUS
 90
3
 70
0
 10
90.0377580132
 20
61.9348261926
 10
90.4211262059
 20
61.4607951356
 10
90.9050278637
 20
61.0342138928
  0
LWPOLYLINE
  5
265
100
AcDbEntity
  8
RACCORDO
100
AcDbPolyline
 62
7
  6
CONTINUOUS
 90
8
 70
0
 10
90.07788158
 20
61.3750973183
 10
89.983227744
 20
61.4935096623
 10
89.8945678534
 20
61.6154146684
 10
89.8120591012
 20
61.7405948042
 10
89.7358570485
 20
61.868829489
 10
89.6660999992
 20
61.9999027507
 10
89.6029135506
 20
62.1335819299
 10
89.5464205223
 20
62.2696360548
  0
LWPOLYLINE
  5
266
100
AcDbEntity
  8
RACCORDO
100
AcDbPolyline
 62
253
  6
CONTINUOUS
 90
14
 70
0
 10
89.6662782911
 20
61.6834691449
 10
89.5888937241
 20
61.8080478469
 10
89.5172474138
 20
61.9354625865
 10
89.4513271465
 20
62.0656385821
 10
89.3915335859
 20
62.1977938364
 10
89.337929103
 20
62.3319548494
 10
89.2904512578
 20
62.4680959022
 10
89.2493134989
 20
62.6053566475
 10
89.2145853638
 20
62.743754917
 10
89.186197267
 20
62.8832734201
 10
89.1641539771
 20
63.0229990692
 10
89.1484570756
 20
63.1626275916
 10
89.1391049572
 20
63.3024635284
 10
89.136097616
 20
63.4425069462
  0
LINE
  5
267
100
AcDbEntity
  8
RACCORDO
100
AcDbLine
 62
253
  6
CONTINUOUS
 10
78.6304061597
 20
45.6714724101
 11
78.6300526969
 21
45.7230736546
  0
LINE
  5
268
100
AcDbEntity
  8
RACCORDO
100
AcDbLine
 62
7
  6
CONTINUOUS
 10
77.3756125884
 20
39.4508142977
 11
77.3756125884
 21
175.5471275192
  0
LINE
  5
269
100
AcDbEntity
  8
RACCORDO
100
AcDbLine
 62
253
  6
CONTINUOUS
 10
77.8327083574
 20
181.2990767414
 11
77.8327083574
 21
46.3925930637
  0
LINE
  5
26A
100
AcDbEntity
  8
RACCORDO
100
AcDbLine
 62
253
  6
CONTINUOUS
 10
79.5389768129
 20
181.3005740195
 11
79.5389768129
 21
48.1243216194
  0
LWPOLYLINE
  5
26B
100
AcDbEntity
  8
RACCORDO
100
AcDbPolyline
 62
253
  6
CONTINUOUS
 90
31
 70
0
 10
78.6300526969
 20
45.7230736546
 10
78.6307666685
 20
45.7714190448
 10
78.63355809
 20
45.8229422601
 10
78.6384363745
 20
45.8775682896
 10
78.6454049194
 20
45.9351719778
 10
78.6544794372
 20
45.9957002165
 10
78.6656883018
 20
46.0591904409
 10
78.679045959
 20
46.1255638737
 10
78.6945585725
 20
46.1947058968
 10
78.7122430109
 20
46.2666124442
 10
78.7321212868
 20
46.3411812155
 10
78.7541936356
 20
46.4182784345
 10
78.7784451937
 20
46.4978522786
 10
78.8049091743
 20
46.5797784343
 10
78.8335761206
 20
46.6638864031
 10
78.8643678416
 20
46.7500443489
 10
78.8973267545
 20
46.8380960551
 10
78.9324349101
 20
46.9278304115
 10
78.9695235732
 20
47.0190152403
 10
79.0086489984
 20
47.1114682768
 10
79.0497786717
 20
47.2049281053
 10
79.092609441
 20
47.299024845
 10
79.1371756953
 20
47.3935048476
 10
79.1834633009
 20
47.4881142278
 10
79.2310940726
 20
47.5824713523
 10
79.2801577701
 20
47.6764075779
 10
79.3305809695
 20
47.7695440049
 10
79.381735713
 20
47.8611968503
 10
79.4334129324
 20
47.9509763979
 10
79.4858261393
 20
48.0387671978
 10
79.5389768174
 20
48.1243215756
  0
LINE
  5
26C
100
AcDbEntity
  8
RACCORDO
100
AcDbLine
 62
253
  6
CONTINUOUS
 10
77.3756125884
 20
39.4508142977
 11
77.8327083574
 21
46.3925930637
  0
LINE
  5
26D
100
AcDbEntity
  8
RACCORDO
100
AcDbLine
 62
253
  6
CONTINUOUS
 10
78.17512525
 20
38.7584160221
 11
78.6304062806
 21
45.6714724135
  0
LINE
  5
26E
100
AcDbEntity
  8
DRAFT
100
AcDbLine
 62
7
  6
CONTINUOUS
 10
150.2623911102
 20
183.6509377071
 11
150.4519754719
 21
183.7393482475
  0
LINE
  5
26F
100
AcDbEntity
  8
RACCORDO
100
AcDbLine
 62
7
  6
CONTINUOUS
 10
152.8692646914
 20
180.3282471188
 11
152.9148593509
 21
180.341595147
  0
LINE
  5
270
100
AcDbEntity
  8
RACCORDO
100
AcDbLine
 62
7
  6
CONTINUOUS
 10
78.17512525
 20
38.7584160221
 11
218.8260999268
 21
38.7584160221
  0
LINE
  5
271
100
AcDbEntity
  8
RACCORDO
100
AcDbLine
 62
7
  6
CONTINUOUS
 10
91.4447030032
 20
60.6937208739
 11
92.0252326139
 21
60.452183148
  0
LINE
  5
272
100
AcDbEntity
  8
RACCORDO
100
AcDbLine
 62
7
  6
CONTINUOUS
 10
90.9050278637
 20
61.0342138928
 11
91.4447030032
 21
60.6937208739
  0
LWPOLYLINE
  5
273
100
AcDbEntity
  8
RACCORDO
100
AcDbPolyline
 62
7
  6
CONTINUOUS
 90
4
 70
0
 10
89.5464205223
 20
62.2696360548
 10
89.4967239346
 20
62.4078401519
 10
89.4539169748
 20
62.5479485583
 10
89.4180909742
 20
62.689717492
  0
LWPOLYLINE
  5
274
100
AcDbEntity
  8
RACCORDO
100
AcDbPolyline
 62
7
  6
CONTINUOUS
 90
5
 70
0
 10
89.5369776436
 20
62.2892922155
 10
89.4918032385
 20
62.4186608133
 10
89.4526560273
 20
62.5493123411
 10
89.4195584198
 20
62.6810265866
 10
89.3925199212
 20
62.8135947654
  0
LINE
  5
275
100
AcDbEntity
  8
RACCORDO
100
AcDbLine
 62
7
  6
CONTINUOUS
 10
89.4180909742
 20
62.689717492
 11
89.3893155694
 21
62.832922034
  0
LINE
  5
276
100
AcDbEntity
  8
RACCORDO
100
AcDbLine
 62
7
  6
CONTINUOUS
 10
89.3676527181
 20
62.9773272633
 11
89.3526166827
 21
63.1301355803
  0
LINE
  5
277
100
AcDbEntity
  8
RACCORDO
100
AcDbLine
 62
7
  6
CONTINUOUS
 10
89.3566721668
 20
63.0798318971
 11
89.3530287824
 21
63.1244495457
  0
LINE
  5
278
100
AcDbEntity
  8
DRAFT
100
AcDbLine
 62
7
  6
CONTINUOUS
 10
89.4006125884
 20
76.5742387202
 11
89.4285333866
 21
76.198682636
  0
LINE
  5
279
100
AcDbEntity
  8
RACCORDO
100
AcDbLine
 62
253
  6
CONTINUOUS
 10
89.3770140952
 20
62.9120407892
 11
89.3448361568
 21
63.346144262
  0
LINE
  5
27A
100
AcDbEntity
  8
RACCORDO
100
AcDbLine
 62
7
  6
CONTINUOUS
 10
89.3530287824
 20
63.1244495457
 11
89.352606568
 21
63.1302206713
  0
LINE
  5
27B
100
AcDbEntity
  8
DRAFT
100
AcDbLine
 62
7
  6
CONTINUOUS
 10
89.4075927878
 20
85.1408556991
 11
89.4285333866
 21
84.8410255544
  0
LINE
  5
27C
100
AcDbEntity
  8
DRAFT
100
AcDbLine
 62
7
  6
CONTINUOUS
 10
89.4285333866
 20
71.8201207381
 11
89.4006125884
 21
72.2441117013
  0
LWPOLYLINE
  5
27D
100
AcDbEntity
  8
RACCORDO
100
AcDbPolyline
 62
7
  6
CONTINUOUS
 90
3
 70
0
 10
89.352606568
 20
63.1302206713
 10
89.3477793041
 20
63.2130750353
 10
89.3448361615
 20
63.3461442043
  0
LWPOLYLINE
  5
27E
100
AcDbEntity
  8
0
100
AcDbPolyline
 62
7
  6
CONTINUOUS
 90
6
 70
0
 10
89.4506125884
 20
79.6412864823
 10
89.4516770254
 20
79.6013620242
 10
89.4601780347
 20
79.5219971443
 10
89.4771049368
 20
79.4438429209
 10
89.5023121596
 20
79.3675633829
 10
89.535583552
 20
79.2938116959
  0
LWPOLYLINE
  5
27F
100
AcDbEntity
  8
0
100
AcDbPolyline
 62
7
  6
CONTINUOUS
 90
6
 70
0
 10
89.4506125884
 20
118.6124296526
 10
89.4516770254
 20
118.5725051945
 10
89.4601780347
 20
118.4931403146
 10
89.4771049368
 20
118.4149860912
 10
89.5023121596
 20
118.3387065532
 10
89.535583552
 20
118.2649548662
  0
LINE
  5
280
100
AcDbEntity
  8
0
100
AcDbLine
 62
7
  6
CONTINUOUS
 10
86.7845337986
 20
192.6659551287
 11
86.7845337986
 21
191.8584560862
  0
LINE
  5
281
100
AcDbEntity
  8
RACCORDO
100
AcDbLine
 62
253
  6
CONTINUOUS
 10
89.136097616
 20
63.4425069462
 11
89.136097616
 21
173.7684356161
  0
LINE
  5
282
100
AcDbEntity
  8
RACCORDO
100
AcDbLine
 62
253
  6
CONTINUOUS
 10
89.3448361568
 20
63.346144262
 11
89.3448361568
 21
173.6719746093
  0
LINE
  5
283
100
AcDbEntity
  8
DRAFT
100
AcDbLine
 62
7
  6
CONTINUOUS
 10
89.4006125884
 20
72.2441117013
 11
89.4006125884
 21
76.5742387202
  0
LINE
  5
284
100
AcDbEntity
  8
DRAFT
100
AcDbLine
 62
7
  6
CONTINUOUS
 10
89.4006125884
 20
158.8466520797
 11
89.4006125884
 21
163.1767790987
  0
LINE
  5
285
100
AcDbEntity
  8
DRAFT
100
AcDbLine
 62
7
  6
CONTINUOUS
 10
89.4075927878
 20
85.1408556991
 11
89.4075927878
 21
93.7884970969
  0
LINE
  5
286
100
AcDbEntity
  8
DRAFT
100
AcDbLine
 62
7
  6
CONTINUOUS
 10
89.4075927878
 20
134.5043037148
 11
89.4075927878
 21
143.1519451126
  0
LINE
  5
287
100
AcDbEntity
  8
RACCORDO
100
AcDbLine
 62
7
  6
CONTINUOUS
 10
89.4285333866
 20
62.648395278
 11
89.4285333866
 21
71.8201207381
  0
LINE
  5
288
100
AcDbEntity
  8
ASSI
100
AcDbLine
 62
7
  6
CONTINUOUS
 10
89.4506125884
 20
157.5837805395
 11
89.4506125884
 21
157.2360980365
  0
LINE
  5
289
100
AcDbEntity
  8
ASSI
100
AcDbLine
 62
7
  6
CONTINUOUS
 10
89.4506125884
 20
118.6126373692
 11
89.4506125884
 21
118.2649548662
  0
LINE
  5
28A
100
AcDbEntity
  8
ASSI
100
AcDbLine
 62
7
  6
CONTINUOUS
 10
89.4506125884
 20
79.6414941989
 11
89.4506125884
 21
79.2938116959
  0
LINE
  5
28B
100
AcDbEntity
  8
RACCORDO
100
AcDbLine
 62
7
  6
CONTINUOUS
 10
89.5006125884
 20
63.1301355803
 11
89.5006125884
 21
62.5726694153
  0
LINE
  5
28C
100
AcDbEntity
  8
0
100
AcDbLine
 62
7
  6
CONTINUOUS
 10
89.535583552
 20
173.6252650111
 11
89.535583552
 21
157.9347865132
  0
LINE
  5
28D
100
AcDbEntity
  8
0
100
AcDbLine
 62
7
  6
CONTINUOUS
 10
89.535583552
 20
157.2360980365
 11
89.535583552
 21
118.9636433429
  0
LINE
  5
28E
100
AcDbEntity
  8
0
100
AcDbLine
 62
7
  6
CONTINUOUS
 10
89.535583552
 20
118.2649548662
 11
89.535583552
 21
79.9925001726
  0
LINE
  5
28F
100
AcDbEntity
  8
0
100
AcDbLine
 62
7
  6
CONTINUOUS
 10
89.535583552
 20
79.2938116959
 11
89.535583552
 21
63.6033332008
  0
LINE
  5
290
100
AcDbEntity
  8
0
100
AcDbLine
 62
7
  6
CONTINUOUS
 10
90.2615038922
 20
192.6659551287
 11
90.2615038922
 21
191.8584560862
  0
LWPOLYLINE
  5
291
100
AcDbEntity
  8
RACCORDO
100
AcDbPolyline
 62
253
  6
CONTINUOUS
 90
8
 70
0
 10
89.136097616
 20
173.7684356161
 10
89.1391049563
 20
173.9086123924
 10
89.1484570742
 20
174.048862999
 10
89.1641539756
 20
174.1891873696
 10
89.1861972662
 20
174.3298898927
 10
89.214585364
 20
174.4706659115
 10
89.2493134998
 20
174.6106017231
 10
89.2904512586
 20
174.7496826202
  0
LWPOLYLINE
  5
292
100
AcDbEntity
  8
RACCORDO
100
AcDbPolyline
 62
253
  6
CONTINUOUS
 90
9
 70
0
 10
89.3448361615
 20
173.6719745446
 10
89.3477793077
 20
173.8054461086
 10
89.356672176
 20
173.9393426459
 10
89.371567417
 20
174.0734668966
 10
89.3925199417
 20
174.2076873713
 10
89.4195584425
 20
174.3417287286
 10
89.4526560522
 20
174.4751759026
 10
89.4918032676
 20
174.6078286075
 10
89.5369776783
 20
174.7394732782
  0
LINE
  5
293
100
AcDbEntity
  8
RACCORDO
100
AcDbLine
 62
7
  6
CONTINUOUS
 10
89.5399527767
 20
173.733063706
 11
89.535583552
 21
173.6252650111
  0
LWPOLYLINE
  5
294
100
AcDbEntity
  8
RACCORDO
100
AcDbPolyline
 62
7
  6
CONTINUOUS
 90
3
 70
0
 10
96.21354315
 20
177.1375891832
 10
96.0692824537
 20
175.6653364872
 10
96.0058047023
 20
174.9344087801
  0
LWPOLYLINE
  5
295
100
AcDbEntity
  8
RACCORDO
100
AcDbPolyline
 62
253
  6
CONTINUOUS
 90
3
 70
0
 10
96.2477139151
 20
177.3749545853
 10
96.1157055012
 20
176.0920796254
 10
96.0006125888
 20
174.809450495
  0
LWPOLYLINE
  5
296
100
AcDbEntity
  8
RACCORDO
100
AcDbPolyline
 62
253
  6
CONTINUOUS
 90
31
 70
0
 10
77.8327083574
 20
46.3925930637
 10
77.8373964696
 20
46.4375572678
 10
77.8458032237
 20
46.4843319119
 10
77.8579542206
 20
46.5328306805
 10
77.8738560935
 20
46.5829337128
 10
77.8935245774
 20
46.634584531
 10
77.9170069824
 20
46.6877874495
 10
77.9443184083
 20
46.7424557803
 10
77.9754595658
 20
46.7984855357
 10
78.0104791802
 20
46.8558467604
 10
78.0493823402
 20
46.9144515667
 10
78.0921523338
 20
46.9741798874
 10
78.1388166297
 20
47.0349442814
 10
78.189361348
 20
47.0966596852
 10
78.243740028
 20
47.159186547
 10
78.3019276536
 20
47.2223485398
 10
78.3638786207
 20
47.286063095
 10
78.4295046489
 20
47.3501780597
 10
78.4986968046
 20
47.4144114739
 10
78.5713740153
 20
47.4786969889
 10
78.6473886793
 20
47.5428689834
 10
78.7264957827
 20
47.6065070735
 10
78.8085262714
 20
47.6695269642
 10
78.8933069195
 20
47.7318098066
 10
78.9805471984
 20
47.7929031307
 10
79.0701337728
 20
47.8528113377
 10
79.161746885
 20
47.9113599459
 10
79.2547419119
 20
47.9678746824
 10
79.3487209811
 20
48.0221231269
 10
79.4435548255
 20
48.0742795014
 10
79.5389768129
 20
48.1243216194
  0
LWPOLYLINE
  5
297
100
AcDbEntity
  8
RACCORDO
100
AcDbPolyline
 62
253
  6
CONTINUOUS
 90
5
 70
0
 10
94.2672015466
 20
191.0682764969
 10
94.2339072834
 20
190.7560586416
 10
94.2109581886
 20
190.4134614291
 10
94.1991309786
 20
190.0520798005
 10
94.1988259835
 20
189.6841446006
  0
LWPOLYLINE
  5
298
100
AcDbEntity
  8
RACCORDO
100
AcDbPolyline
 62
253
  6
CONTINUOUS
 90
5
 70
0
 10
96.944758838
 20
182.5079295576
 10
96.7451545933
 20
181.2245166943
 10
96.562446392
 20
179.9412222473
 10
96.3966310715
 20
178.6580261957
 10
96.2477139151
 20
177.3749545853
  0
LWPOLYLINE
  5
299
100
AcDbEntity
  8
RACCORDO
100
AcDbPolyline
 62
7
  6
CONTINUOUS
 90
5
 70
0
 10
97.0101820908
 20
183.0301786847
 10
96.7780907565
 20
181.5566686285
 10
96.5679496996
 20
180.0833390048
 10
96.3797660087
 20
178.6102831483
 10
96.21354315
 20
177.1375891832
  0
LINE
  5
29A
100
AcDbEntity
  8
RACCORDO
100
AcDbLine
 62
7
  6
CONTINUOUS
 10
97.1529686836
 20
183.8584560862
 11
97.0101820908
 21
183.0301786847
  0
LWPOLYLINE
  5
29B
100
AcDbEntity
  8
RACCORDO
100
AcDbPolyline
 62
253
  6
CONTINUOUS
 90
3
 70
0
 10
97.1734435334
 20
183.8584560862
 10
97.1612571096
 20
183.7914346987
 10
96.944758838
 20
182.5079295576
  0
LWPOLYLINE
  5
29C
100
AcDbEntity
  8
0
100
AcDbPolyline
 62
7
  6
CONTINUOUS
 90
6
 70
0
 10
89.535583552
 20
118.9636433429
 10
89.5023121605
 20
118.8884145599
 10
89.4771049379
 20
118.8110272002
 10
89.4601780355
 20
118.7321344289
 10
89.4516770257
 20
118.6524002751
 10
89.4506125884
 20
118.6124296526
  0
LINE
  5
29D
100
AcDbEntity
  8
0
100
AcDbLine
 62
7
  6
CONTINUOUS
 10
137.3395628072
 20
174.9910962949
 11
137.3379996624
 21
174.9897771356
  0
LWPOLYLINE
  5
29E
100
AcDbEntity
  8
0
100
AcDbPolyline
 62
7
  6
CONTINUOUS
 90
3
 70
0
 10
137.3379996624
 20
174.9897771356
 10
137.3275186233
 20
174.9811956787
 10
137.3165818598
 20
174.9725863703
  0
LINE
  5
29F
100
AcDbEntity
  8
0
100
AcDbLine
 62
7
  6
CONTINUOUS
 10
135.1561515353
 20
175.8580829862
 11
133.789858844
 21
174.858044786
  0
LWPOLYLINE
  5
2A0
100
AcDbEntity
  8
RACCORDO
100
AcDbPolyline
 62
7
  6
CONTINUOUS
 90
14
 70
0
 10
152.8262077697
 20
180.3111639533
 10
152.7854898204
 20
180.2909903026
 10
152.7474477578
 20
180.2677767756
 10
152.7117446676
 20
180.2414727634
 10
152.6787867355
 20
180.2125711377
 10
152.6485287349
 20
180.1810264912
 10
152.6210158924
 20
180.146884231
 10
152.5967900735
 20
180.1107734507
 10
152.5758741405
 20
180.0724124851
 10
152.5582452311
 20
180.0320829992
 10
152.544376624
 20
179.9912590815
 10
152.5344260785
 20
179.9504320946
 10
152.5282358353
 20
179.9091106758
 10
152.5258058942
 20
179.8672948251
  0
LWPOLYLINE
  5
2A1
100
AcDbEntity
  8
0
100
AcDbPolyline
 62
7
  6
CONTINUOUS
 90
20
 70
0
 10
143.4368993658
 20
175.3179149934
 10
143.4468023523
 20
175.3224718981
 10
143.4564133503
 20
175.3275199261
 10
143.4657578253
 20
175.3330760194
 10
143.4748103119
 20
175.339123236
 10
143.4834944143
 20
175.3456107493
 10
143.4918068571
 20
175.3525420873
 10
143.4997509158
 20
175.359913722
 10
143.5072600203
 20
175.3676642418
 10
143.5143304643
 20
175.3757963338
 10
143.5209659541
 20
175.384307311
 10
143.5271110395
 20
175.3931277008
 10
143.5327620357
 20
175.4022597209
 10
143.5379226275
 20
175.4117011536
 10
143.5425484191
 20
175.4213758732
 10
143.5466357637
 20
175.4312868193
 10
143.5501883082
 20
175.4414310524
 10
143.5531725977
 20
175.4517236282
 10
143.5555774807
 20
175.4621362321
 10
143.5574125654
 20
175.4726883041
  0
LINE
  5
2A2
100
AcDbEntity
  8
0
100
AcDbLine
 62
7
  6
CONTINUOUS
 10
143.4267043911
 20
175.313849212
 11
143.4368657507
 21
175.3179015876
  0
LINE
  5
2A3
100
AcDbEntity
  8
0
100
AcDbLine
 62
7
  6
CONTINUOUS
 10
158.4266994906
 20
175.3142685933
 11
158.4368608502
 21
175.318320969
  0
LINE
  5
2A4
100
AcDbEntity
  8
RACCORDO
100
AcDbLine
 62
7
  6
CONTINUOUS
 10
152.8262077697
 20
180.3111639533
 11
152.8708803857
 21
180.328247164
  0
LWPOLYLINE
  5
2A5
100
AcDbEntity
  8
0
100
AcDbPolyline
 62
7
  6
CONTINUOUS
 90
6
 70
0
 10
163.5642828656
 20
178.5377296654
 10
163.582318482
 20
178.544067263
 10
163.6030452747
 20
178.5490604721
 10
163.6253621057
 20
178.5531465971
 10
163.649080505
 20
178.5563721355
 10
163.6580786638
 20
178.5571910928
  0
LWPOLYLINE
  5
2A6
100
AcDbEntity
  8
RACCORDO
100
AcDbPolyline
 62
7
  6
CONTINUOUS
 90
8
 70
0
 10
205.0546766172
 20
60.1543133879
 10
204.906467697
 20
60.1124773372
 10
204.7566711954
 20
60.0758279725
 10
204.6055362212
 20
60.044388589
 10
204.4532981117
 20
60.0181732744
 10
204.3004209925
 20
59.9972116985
 10
204.1472229306
 20
59.9814836599
 10
203.9938691999
 20
59.9709448259
  0
LWPOLYLINE
  5
2A7
100
AcDbEntity
  8
RACCORDO
100
AcDbPolyline
 62
253
  6
CONTINUOUS
 90
25
 70
0
 10
78.6304062806
 20
45.6714724135
 10
84.2732954624
 20
45.8215548112
 10
89.9153103417
 20
45.9589816233
 10
95.5564509183
 20
46.0837528498
 10
101.1961773068
 20
46.1958532795
 10
106.8350293927
 20
46.2952981237
 10
112.4746268327
 20
46.3821330158
 10
118.1162941629
 20
46.4563755564
 10
123.7587068471
 20
46.5180081449
 10
129.3995109341
 20
46.5670236135
 10
135.0321252608
 20
46.6034414807
 10
140.6631309903
 20
46.6272422279
 10
146.3099176607
 20
46.6383601314
 10
151.9606316294
 20
46.6371066308
 10
157.627126539
 20
46.6231702865
 10
163.362352855
 20
46.5955510557
 10
169.1706506787
 20
46.5546695571
 10
175.0476799088
 20
46.5001051721
 10
181.0333707082
 20
46.4295960023
 10
187.1757905353
 20
46.3422289653
 10
193.4268719316
 20
46.2389171436
 10
199.6823426843
 20
46.1201378864
 10
205.907445389
 20
45.98605031
 10
212.1369374501
 20
45.836495298
 10
218.3708188675
 20
45.6714728506
  0
LWPOLYLINE
  5
2A8
100
AcDbEntity
  8
RACCORDO
100
AcDbPolyline
 62
253
  6
CONTINUOUS
 90
22
 70
0
 10
79.5389768129
 20
48.1243216194
 10
85.8976282065
 20
48.2900270029
 10
92.2578429763
 20
48.4397160946
 10
98.6194776483
 20
48.573384637
 10
104.9821960172
 20
48.6910257275
 10
111.3460471416
 20
48.7926396913
 10
117.7114656227
 20
48.8782295037
 10
124.079332253
 20
48.9477975835
 10
130.4484793449
 20
49.0013229521
 10
136.8162682922
 20
49.0387876656
 10
143.1635885284
 20
49.0601757389
 10
149.5092623723
 20
49.0656170309
 10
155.9075515739
 20
49.0549436488
 10
162.3447113016
 20
49.0278959852
 10
168.8341842602
 20
48.9840432775
 10
175.470986057
 20
48.9218765739
 10
182.3274418655
 20
48.8393326847
 10
189.3307787892
 20
48.7358800545
 10
196.3583658047
 20
48.612535438
 10
203.3692127161
 20
48.4699328687
 10
210.4039107973
 20
48.3072601426
 10
217.462248364
 20
48.1243216194
  0
LWPOLYLINE
  5
2A9
100
AcDbEntity
  8
RACCORDO
100
AcDbPolyline
 62
7
  6
CONTINUOUS
 90
3
 70
0
 10
92.0252326139
 20
60.452183148
 10
92.6615409383
 20
60.2966698925
 10
93.3536311663
 20
60.227141347
  0
LWPOLYLINE
  5
2AA
100
AcDbEntity
  8
RACCORDO
100
AcDbPolyline
 62
7
  6
CONTINUOUS
 90
17
 70
0
 10
92.0938669062
 20
60.1154816472
 10
91.9456348888
 20
60.1573586468
 10
91.7994791729
 20
60.2043150886
 10
91.6556408924
 20
60.2562791467
 10
91.5143353916
 20
60.3131808157
 10
91.3759693277
 20
60.374860517
 10
91.2408069079
 20
60.441178658
 10
91.1089900267
 20
60.5120445996
 10
90.9807217718
 20
60.5873409435
 10
90.8562182598
 20
60.6669184494
 10
90.7356318963
 20
60.7506572078
 10
90.6190668315
 20
60.8384813769
 10
90.5066981733
 20
60.9302503455
 10
90.3986955766
 20
61.0258168558
 10
90.2951600722
 20
61.1251007211
 10
90.1962545979
 20
61.2279505377
 10
90.1021364144
 20
61.3342081697
  0
LWPOLYLINE
  5
2AB
100
AcDbEntity
  8
RACCORDO
100
AcDbPolyline
 62
7
  6
CONTINUOUS
 90
16
 70
0
 10
92.0777334201
 20
60.141468529
 10
91.9189477022
 20
60.1868058096
 10
91.7626539711
 20
60.2379262672
 10
91.6091370933
 20
60.2947407666
 10
91.4586765385
 20
60.3571456134
 10
91.3115340405
 20
60.4250419977
 10
91.1679747285
 20
60.4983103555
 10
91.0282635177
 20
60.5768169848
 10
90.892654681
 20
60.6604298174
 10
90.7613945565
 20
60.7489971405
 10
90.6347218742
 20
60.8423596027
 10
90.5128663293
 20
60.940358853
 10
90.39604767
 20
61.0428162079
 10
90.2844786891
 20
61.1495486885
 10
90.1783601055
 20
61.2603760035
 10
90.07788158
 20
61.3750973183
  0
LINE
  5
2AC
100
AcDbEntity
  8
RACCORDO
100
AcDbLine
 62
7
  6
CONTINUOUS
 10
89.3925199212
 20
62.8135947654
 11
89.3715674014
 21
62.9466216848
  0
LINE
  5
2AD
100
AcDbEntity
  8
RACCORDO
100
AcDbLine
 62
7
  6
CONTINUOUS
 10
89.3893155694
 20
62.832922034
 11
89.3676527181
 21
62.9773272633
  0
LINE
  5
2AE
100
AcDbEntity
  8
RACCORDO
100
AcDbLine
 62
7
  6
CONTINUOUS
 10
89.3715674014
 20
62.9466216848
 11
89.3566721668
 21
63.0798318971
  0
LINE
  5
2AF
100
AcDbEntity
  8
RACCORDO
100
AcDbLine
 62
7
  6
CONTINUOUS
 10
89.5287350817
 20
62.3188185132
 11
89.5006125884
 21
62.5726694153
  0
LWPOLYLINE
  5
2B0
100
AcDbEntity
  8
RACCORDO
100
AcDbPolyline
 62
7
  6
CONTINUOUS
 90
4
 70
0
 10
89.535583552
 20
63.6033332008
 10
89.6024493456
 20
62.9996248252
 10
89.7698402818
 20
62.4434621072
 10
90.0377580132
 20
61.9348261926
  0
LINE
  5
2B1
100
AcDbEntity
  8
RACCORDO
100
AcDbLine
 62
7
  6
CONTINUOUS
 10
83.2581019341
 20
189.678691391
 11
83.6191340144
 21
185.6786176244
  0
LINE
  5
2B2
100
AcDbEntity
  8
RACCORDO
100
AcDbLine
 62
253
  6
CONTINUOUS
 10
83.2622920274
 20
189.6841446007
 11
83.6233555622
 21
185.6841446007
  0
LINE
  5
2B3
100
AcDbEntity
  8
RACCORDO
100
AcDbLine
 62
253
  6
CONTINUOUS
 10
86.7711191405
 20
189.6841446007
 11
87.1116759813
 21
185.6841446007
  0
LINE
  5
2B4
100
AcDbEntity
  8
DRAFT
100
AcDbLine
 62
7
  6
CONTINUOUS
 10
89.4285333866
 20
162.7830576292
 11
89.4006125884
 21
163.1767790987
  0
LINE
  5
2B5
100
AcDbEntity
  8
DRAFT
100
AcDbLine
 62
7
  6
CONTINUOUS
 10
89.4075927878
 20
134.5043037148
 11
89.4285333866
 21
134.2044735701
  0
LINE
  5
2B6
100
AcDbEntity
  8
DRAFT
100
AcDbLine
 62
7
  6
CONTINUOUS
 10
89.4285333866
 20
158.4408265018
 11
89.4006125884
 21
158.8466520797
  0
LINE
  5
2B7
100
AcDbEntity
  8
RACCORDO
100
AcDbLine
 62
253
  6
CONTINUOUS
 10
89.3448361568
 20
173.6719746093
 11
89.4285333866
 21
172.404274896
  0
LINE
  5
2B8
100
AcDbEntity
  8
RACCORDO
100
AcDbLine
 62
253
  6
CONTINUOUS
 10
93.1487920908
 20
177.3932073635
 11
93.1537903245
 21
177.3134312922
  0
LWPOLYLINE
  5
2B9
100
AcDbEntity
  8
RACCORDO
100
AcDbPolyline
 62
253
  6
CONTINUOUS
 90
3
 70
0
 10
93.1432765849
 20
177.4908127829
 10
93.1442492989
 20
177.4726005454
 10
93.1487920908
 20
177.3932073635
  0
LWPOLYLINE
  5
2BA
100
AcDbEntity
  8
0
100
AcDbPolyline
 62
7
  6
CONTINUOUS
 90
6
 70
0
 10
89.4506125884
 20
157.5835728229
 10
89.4516770254
 20
157.5436483648
 10
89.4601780347
 20
157.4642834849
 10
89.4771049368
 20
157.3861292615
 10
89.5023121596
 20
157.3098497235
 10
89.535583552
 20
157.2360980365
  0
LINE
  5
2BB
100
AcDbEntity
  8
RACCORDO
100
AcDbLine
 62
7
  6
CONTINUOUS
 10
96.0006125887
 20
63.9331121605
 11
96.0006125888
 21
174.809450495
  0
LINE
  5
2BC
100
AcDbEntity
  8
RACCORDO
100
AcDbLine
 62
253
  6
CONTINUOUS
 10
89.5006125884
 20
62.5726694153
 11
89.5193357678
 21
63.1244787142
  0
LINE
  5
2BD
100
AcDbEntity
  8
RACCORDO
100
AcDbLine
 62
253
  6
CONTINUOUS
 10
93.3454025319
 20
59.9854002341
 11
93.3536311663
 21
60.227141347
  0
LWPOLYLINE
  5
2BE
100
AcDbEntity
  8
RACCORDO
100
AcDbPolyline
 62
253
  6
CONTINUOUS
 90
6
 70
0
 10
93.1432765946
 20
59.8918211832
 10
93.1442493057
 20
59.9090229974
 10
93.1452985621
 20
59.9249950569
 10
93.1464133463
 20
59.9395696473
 10
93.1475819524
 20
59.9525937281
 10
93.1487921095
 20
59.9639305399
  0
LINE
  5
2BF
100
AcDbEntity
  8
RACCORDO
100
AcDbLine
 62
7
  6
CONTINUOUS
 10
96.0006125891
 20
174.8094504932
 11
96.0092651715
 21
174.9342123883
  0
LWPOLYLINE
  5
2C0
100
AcDbEntity
  8
0
100
AcDbPolyline
 62
7
  6
CONTINUOUS
 90
13
 70
0
 10
137.4571626658
 20
175.1108480258
 10
137.4499454772
 20
175.1022710582
 10
137.442416394
 20
175.0935322611
 10
137.4345754162
 20
175.0846316345
 10
137.4264397093
 20
175.0755613495
 10
137.4179921077
 20
175.0663292351
 10
137.4091811156
 20
175.056958778
 10
137.3999720137
 20
175.0474097995
 10
137.3903995212
 20
175.0377224784
 10
137.3805162997
 20
175.0280408374
 10
137.3702737963
 20
175.018330364
 10
137.3597205639
 20
175.0086255708
 10
137.349054922
 20
174.9991740188
  0
LINE
  5
2C1
100
AcDbEntity
  8
0
100
AcDbLine
 62
7
  6
CONTINUOUS
 10
137.349054922
 20
174.9991740188
 11
137.3395628072
 21
174.9910962949
  0
LINE
  5
2C2
100
AcDbEntity
  8
0
100
AcDbLine
 62
7
  6
CONTINUOUS
 10
140.6802282748
 20
174.9992671543
 11
140.6691730152
 21
174.9898702711
  0
LWPOLYLINE
  5
2C3
100
AcDbEntity
  8
0
100
AcDbPolyline
 62
7
  6
CONTINUOUS
 90
3
 70
0
 10
140.6691730152
 20
174.9898702711
 10
140.658691976
 20
174.9812888142
 10
140.6477552125
 20
174.9726795058
  0
LWPOLYLINE
  5
2C4
100
AcDbEntity
  8
0
100
AcDbPolyline
 62
7
  6
CONTINUOUS
 90
20
 70
0
 10
158.4368944653
 20
175.3183343748
 10
158.4467974518
 20
175.3228912795
 10
158.4564084498
 20
175.3279393074
 10
158.4657529248
 20
175.3334954008
 10
158.4748054114
 20
175.3395426174
 10
158.4834895138
 20
175.3460301306
 10
158.4918019567
 20
175.3529614687
 10
158.4997460153
 20
175.3603331034
 10
158.5072551199
 20
175.3680836232
 10
158.5143255638
 20
175.3762157152
 10
158.5209610536
 20
175.3847266923
 10
158.5271061391
 20
175.3935470821
 10
158.5327571352
 20
175.4026791022
 10
158.537917727
 20
175.4121205349
 10
158.5425435186
 20
175.4217952546
 10
158.5466308632
 20
175.4317062007
 10
158.5501834077
 20
175.4418504338
 10
158.5531676972
 20
175.4521430096
 10
158.5555725802
 20
175.4625556134
 10
158.557407665
 20
175.4731076855
  0
LWPOLYLINE
  5
2C5
100
AcDbEntity
  8
0
100
AcDbPolyline
 62
7
  6
CONTINUOUS
 90
20
 70
0
 10
161.7563540345
 20
175.3184271828
 10
161.7662570209
 20
175.3229840875
 10
161.7758680189
 20
175.3280321154
 10
161.7852124939
 20
175.3335882088
 10
161.7942649805
 20
175.3396354254
 10
161.8029490829
 20
175.3461229386
 10
161.8112615258
 20
175.3530542767
 10
161.8192055844
 20
175.3604259113
 10
161.826714689
 20
175.3681764312
 10
161.8337851329
 20
175.3763085232
 10
161.8404206227
 20
175.3848195003
 10
161.8465657082
 20
175.3936398901
 10
161.8522167043
 20
175.4027719102
 10
161.8573772961
 20
175.4122133429
 10
161.8620030877
 20
175.4218880626
 10
161.8660904323
 20
175.4317990087
 10
161.8696429768
 20
175.4419432418
 10
161.8726272663
 20
175.4522358176
 10
161.8750321493
 20
175.4626484214
 10
161.8768672341
 20
175.4732004935
  0
LINE
  5
2C6
100
AcDbEntity
  8
0
100
AcDbLine
 62
7
  6
CONTINUOUS
 10
161.7461590597
 20
175.3143614013
 11
161.7563204193
 21
175.318413777
  0
LWPOLYLINE
  5
2C7
100
AcDbEntity
  8
RACCORDO
100
AcDbPolyline
 62
7
  6
CONTINUOUS
 90
3
 70
0
 10
203.6473621431
 20
60.2243763928
 10
204.3398141509
 20
60.2940309858
 10
204.9763594861
 20
60.449626941
  0
LWPOLYLINE
  5
2C8
100
AcDbEntity
  8
RACCORDO
100
AcDbPolyline
 62
7
  6
CONTINUOUS
 90
7
 70
0
 10
93.066887278
 20
59.994378014
 10
92.8991430389
 20
60.0037888056
 10
92.7321449774
 20
60.0192849478
 10
92.566223819
 20
60.0408430709
 10
92.4016649074
 20
60.0684224082
 10
92.2387372566
 20
60.1019831428
 10
92.0777334201
 20
60.141468529
  0
LWPOLYLINE
  5
2C9
100
AcDbEntity
  8
RACCORDO
100
AcDbPolyline
 62
7
  6
CONTINUOUS
 90
10
 70
0
 10
99.3524497013
 20
60.9763416694
 10
98.7445914767
 20
61.0360231818
 10
98.1858763748
 20
61.1712118687
 10
97.6763021959
 20
61.3819384827
 10
97.2029071775
 20
61.6793808716
 10
96.7786494725
 20
62.0524105343
 10
96.4424056038
 20
62.4676128384
 10
96.2071323667
 20
62.9138760165
 10
96.0598684061
 20
63.4023709491
 10
96.0006125889
 20
63.9331121553
  0
LWPOLYLINE
  5
2CA
100
AcDbEntity
  8
RACCORDO
100
AcDbPolyline
 62
253
  6
CONTINUOUS
 90
10
 70
0
 10
101.518002526
 20
78.5532238915
 10
101.4426344058
 20
78.8641472443
 10
101.3726495968
 20
79.2349649683
 10
101.3099761088
 20
79.6554614199
 10
101.2563405325
 20
80.1140523579
 10
101.2132204732
 20
80.5981040777
 10
101.1818038444
 20
81.0942814563
 10
101.1629561422
 20
81.5889153214
 10
101.1571966016
 20
82.0683790231
 10
101.1646838921
 20
82.5194638336
  0
LINE
  5
2CB
100
AcDbEntity
  8
RACCORDO
100
AcDbLine
 62
7
  6
CONTINUOUS
 10
83.6191184825
 20
185.6787897098
 11
83.6191315118
 21
185.6786714346
  0
LINE
  5
2CC
100
AcDbEntity
  8
RACCORDO
100
AcDbLine
 62
253
  6
CONTINUOUS
 10
94.19882598
 20
189.6841446007
 11
94.5475489284
 21
185.6841446007
  0
LINE
  5
2CD
100
AcDbEntity
  8
RACCORDO
100
AcDbLine
 62
253
  6
CONTINUOUS
 10
93.1584152471
 20
177.2464999356
 11
93.1603420117
 21
177.2214564902
  0
LWPOLYLINE
  5
2CE
100
AcDbEntity
  8
RACCORDO
100
AcDbPolyline
 62
253
  6
CONTINUOUS
 90
3
 70
0
 10
93.1537903245
 20
177.3134312922
 10
93.1550136174
 20
177.2950083934
 10
93.1584152471
 20
177.2464999356
  0
LINE
  5
2CF
100
AcDbEntity
  8
RACCORDO
100
AcDbLine
 62
7
  6
CONTINUOUS
 10
104.1085398958
 20
171.4911914509
 11
104.1080130429
 21
171.5355316363
  0
LINE
  5
2D0
100
AcDbEntity
  8
RACCORDO
100
AcDbLine
 62
253
  6
CONTINUOUS
 10
98.1661836843
 20
81.5752836624
 11
98.1661836971
 21
183.8584560862
  0
LINE
  5
2D1
100
AcDbEntity
  8
RACCORDO
100
AcDbLine
 62
253
  6
CONTINUOUS
 10
100.6728989182
 20
82.9062462364
 11
100.6728985306
 21
183.8584560862
  0
LINE
  5
2D2
100
AcDbEntity
  8
0
100
AcDbLine
 62
7
  6
CONTINUOUS
 10
102.2615038922
 20
192.6659551287
 11
102.2615038922
 21
191.8584560862
  0
LWPOLYLINE
  5
2D3
100
AcDbEntity
  8
RACCORDO
100
AcDbPolyline
 62
253
  6
CONTINUOUS
 90
6
 70
0
 10
103.4863184853
 20
183.2885271014
 10
103.4888913322
 20
183.3869234632
 10
103.4861679813
 20
183.4850080371
 10
103.4781557622
 20
183.5825168471
 10
103.4648762381
 20
183.6791874662
 10
103.4463651485
 20
183.7747597237
  0
LINE
  5
2D4
100
AcDbEntity
  8
SMUSSO
100
AcDbLine
 62
253
  6
CONTINUOUS
 10
103.798597717
 20
158.5979956294
 11
104.4604264331
 21
171.2551829143
  0
LINE
  5
2D5
100
AcDbEntity
  8
SMUSSO
100
AcDbLine
 62
253
  6
CONTINUOUS
 10
106.5563719935
 20
156.1484287376
 11
107.207439908
 21
168.5243082056
  0
LWPOLYLINE
  5
2D6
100
AcDbEntity
  8
RACCORDO
100
AcDbPolyline
 62
253
  6
CONTINUOUS
 90
10
 70
0
 10
96.0006125887
 20
63.9331121605
 10
96.1421306669
 20
65.9003050131
 10
96.3084470862
 20
67.8659072075
 10
96.4995495914
 20
69.8298314528
 10
96.7154162406
 20
71.7919153674
 10
96.9560389471
 20
73.7521469963
 10
97.2214326572
 20
75.710664501
 10
97.5115996726
 20
77.6674555689
 10
97.8265204738
 20
79.6223577317
 10
98.1661836843
 20
81.5752836624
  0
LWPOLYLINE
  5
2D7
100
AcDbEntity
  8
RACCORDO
100
AcDbPolyline
 62
253
  6
CONTINUOUS
 90
10
 70
0
 10
99.3524496906
 20
60.9763416701
 10
99.4938501966
 20
62.9365016032
 10
99.6600802449
 20
64.8948752053
 10
99.8511257176
 20
66.8514667021
 10
100.0669596553
 20
68.8063057855
 10
100.3075810491
 20
70.7593729719
 10
100.5730148211
 20
72.7105996111
 10
100.8632601098
 20
74.6599674033
 10
101.1782902885
 20
76.607508388
 10
101.5180917436
 20
78.5532303087
  0
LWPOLYLINE
  5
2D8
100
AcDbEntity
  8
SUPERFICI
100
AcDbPolyline
 62
253
  6
CONTINUOUS
 90
22
 70
0
 10
107.207439908
 20
168.5243082056
 10
107.2077639224
 20
168.5271366071
 10
107.2087745808
 20
168.5299753858
 10
107.2104718837
 20
168.5328245457
 10
107.2128041993
 20
168.5357032557
 10
107.2158231614
 20
168.5385923626
 10
107.2196836699
 20
168.5414343947
 10
107.2243966696
 20
168.5442342584
 10
107.2299512211
 20
168.5469870896
 10
107.2364693992
 20
168.5496207738
 10
107.2439714976
 20
168.5521392826
 10
107.2524372327
 20
168.5545387238
 10
107.2619278156
 20
168.5567352024
 10
107.2724746259
 20
168.5587306885
 10
107.2840462995
 20
168.560523333
 10
107.2966099326
 20
168.5620235224
 10
107.310203442
 20
168.5632296328
 10
107.3247889305
 20
168.5641434413
 10
107.3402197721
 20
168.5646804296
 10
107.3564470973
 20
168.5648124715
 10
107.3735197953
 20
168.5645678463
 10
107.3914378766
 20
168.5639466383
  0
LWPOLYLINE
  5
2D9
100
AcDbEntity
  8
RACCORDO
100
AcDbPolyline
 62
253
  6
CONTINUOUS
 90
7
 70
0
 10
93.1487921095
 20
59.9639305399
 10
93.1500311103
 20
59.9734610407
 10
93.1512859446
 20
59.9810851553
 10
93.1525434362
 20
59.9867228269
 10
93.1537903807
 20
59.9903148571
 10
93.1550136846
 20
59.9918235277
 10
93.1552897059
 20
59.9918737314
  0
LWPOLYLINE
  5
2DA
100
AcDbEntity
  8
0
100
AcDbPolyline
 62
7
  6
CONTINUOUS
 90
13
 70
0
 10
140.7883360186
 20
175.1109411613
 10
140.7811188299
 20
175.1023641937
 10
140.7735897467
 20
175.0936253966
 10
140.7657487689
 20
175.08472477
 10
140.757613062
 20
175.075654485
 10
140.7491654605
 20
175.0664223706
 10
140.7403544684
 20
175.0570519135
 10
140.7311453665
 20
175.047502935
 10
140.721572874
 20
175.0378156139
 10
140.7116896524
 20
175.0281339729
 10
140.7014471491
 20
175.0184234995
 10
140.6908939166
 20
175.0087187063
 10
140.6802282748
 20
174.9992671543
  0
LINE
  5
2DB
100
AcDbEntity
  8
0
100
AcDbLine
 62
7
  6
CONTINUOUS
 10
152.5171037158
 20
175.858568377
 11
151.5163241541
 21
174.8585403961
  0
LINE
  5
2DC
100
AcDbEntity
  8
0
100
AcDbLine
 62
7
  6
CONTINUOUS
 10
155.6802233743
 20
174.9996865356
 11
155.6691681147
 21
174.9902896524
  0
LINE
  5
2DD
100
AcDbEntity
  8
0
100
AcDbLine
 62
7
  6
CONTINUOUS
 10
158.9996829434
 20
174.9997793436
 11
158.9886276838
 21
174.9903824604
  0
LWPOLYLINE
  5
2DE
100
AcDbEntity
  8
0
100
AcDbPolyline
 62
7
  6
CONTINUOUS
 90
3
 70
0
 10
155.6691681147
 20
174.9902896524
 10
155.6586870755
 20
174.9817081955
 10
155.6477503121
 20
174.9730988872
  0
LWPOLYLINE
  5
2DF
100
AcDbEntity
  8
0
100
AcDbPolyline
 62
7
  6
CONTINUOUS
 90
3
 70
0
 10
158.9886276838
 20
174.9903824604
 10
158.9781466446
 20
174.9818010035
 10
158.9672098812
 20
174.9731916952
  0
LINE
  5
2E0
100
AcDbEntity
  8
RACCORDO
100
AcDbLine
 62
7
  6
CONTINUOUS
 10
163.4059926862
 20
172.7788488714
 11
163.8887269124
 21
173.085566695
  0
LWPOLYLINE
  5
2E1
100
AcDbEntity
  8
RACCORDO
100
AcDbPolyline
 62
7
  6
CONTINUOUS
 90
3
 70
0
 10
164.7913506567
 20
173.083669138
 10
164.3090363703
 20
172.7788960244
 10
163.7723579546
 20
172.5500256379
  0
LWPOLYLINE
  5
2E2
100
AcDbEntity
  8
RACCORDO
100
AcDbPolyline
 62
253
  6
CONTINUOUS
 90
10
 70
0
 10
202.1147444709
 20
183.8584560862
 10
202.1705719832
 20
183.8855650663
 10
202.2248862776
 20
183.9661574751
 10
202.2762149179
 20
184.0980490548
 10
202.3231664482
 20
184.2776648978
 10
202.3644679177
 20
184.5001361179
 10
202.3989994156
 20
184.7594316509
 10
202.4258246948
 20
185.0485221289
 10
202.4442165304
 20
185.3595705892
 10
202.4536762554
 20
185.6841446006
  0
LINE
  5
2E3
100
AcDbEntity
  8
RACCORDO
100
AcDbLine
 62
253
  6
CONTINUOUS
 10
212.0336510806
 20
183.9661597724
 11
212.335226223
 21
184.0980533038
  0
LINE
  5
2E4
100
AcDbEntity
  8
RACCORDO
100
AcDbLine
 62
7
  6
CONTINUOUS
 10
203.9938691999
 20
59.9709448259
 11
203.8405948709
 21
59.9655532261
  0
LINE
  5
2E5
100
AcDbEntity
  8
RACCORDO
100
AcDbLine
 62
7
  6
CONTINUOUS
 10
203.9404585707
 20
59.9918436695
 11
203.8457027298
 21
59.9890987075
  0
LWPOLYLINE
  5
2E6
100
AcDbEntity
  8
RACCORDO
100
AcDbPolyline
 62
7
  6
CONTINUOUS
 90
4
 70
0
 10
203.8457027602
 20
59.9890972475
 10
197.774605163
 20
59.8817763309
 10
191.6207729814
 20
59.7857452404
 10
185.464944932
 20
59.7025192904
  0
LWPOLYLINE
  5
2E7
100
AcDbEntity
  8
RACCORDO
100
AcDbPolyline
 62
253
  6
CONTINUOUS
 90
46
 70
0
 10
203.857705762
 20
59.889046866
 10
200.5103549218
 20
59.8302424509
 10
197.3407167644
 20
59.7758646089
 10
194.3488567406
 20
59.7265451176
 10
191.5642307848
 20
59.6840623295
 10
188.9574934928
 20
59.6478528159
 10
186.4404809356
 20
59.6147236346
 10
184.0120017654
 20
59.5842274073
 10
181.6732923375
 20
59.5573067922
 10
179.3397991082
 20
59.5323586432
 10
176.9899257809
 20
59.5087935148
 10
174.6452825074
 20
59.4871908096
 10
172.2861117165
 20
59.4674258593
 10
169.8940216282
 20
59.4493499251
 10
167.4874150789
 20
59.4330021408
 10
165.10172757
 20
59.418582563
 10
162.7456353933
 20
59.4063519579
 10
160.4104802494
 20
59.3961761743
 10
158.1056984974
 20
59.3877820131
 10
155.8383870182
 20
59.3812652518
 10
153.601464654
 20
59.3766977991
 10
151.383100091
 20
59.3737640723
 10
149.1857493029
 20
59.3724150201
 10
147.0069687196
 20
59.3727955178
 10
144.8275770061
 20
59.3748037665
 10
142.6492174208
 20
59.3783021628
 10
140.4702582291
 20
59.3834279882
 10
138.266606259
 20
59.3903860219
 10
136.0298154035
 20
59.3990633792
 10
133.7683460586
 20
59.4094361375
 10
131.483465981
 20
59.4217858032
 10
129.1663757009
 20
59.4361884384
 10
126.8258917202
 20
59.4524321166
 10
124.4897041167
 20
59.470441031
 10
122.1738092943
 20
59.4901340554
 10
119.8622230876
 20
59.5116422354
 10
117.5346645475
 20
59.5352278046
 10
115.2088358423
 20
59.5603553208
 10
112.8670512882
 20
59.587507453
 10
110.4359607318
 20
59.6182272109
 10
107.9165299195
 20
59.6516638183
 10
105.307838167
 20
59.6881743348
 10
102.5337331905
 20
59.730683091
 10
99.5688703688
 20
59.7797092586
 10
96.4386978472
 20
59.8336153895
 10
93.1432765851
 20
59.8918212987
  0
LWPOLYLINE
  5
2E8
100
AcDbEntity
  8
RACCORDO
100
AcDbPolyline
 62
7
  6
CONTINUOUS
 90
10
 70
0
 10
197.6487754754
 20
60.9763416694
 10
186.7330211602
 20
60.8237109169
 10
175.8133865628
 20
60.7092741983
 10
164.8905964434
 20
60.6330062493
 10
153.96447944
 20
60.5948866839
 10
143.036658352
 20
60.5948869027
 10
132.1105500924
 20
60.6330066614
 10
121.1877774568
 20
60.709274468
 10
110.2681690766
 20
60.8237110137
 10
99.3524497013
 20
60.9763416694
  0
LWPOLYLINE
  5
2E9
100
AcDbEntity
  8
RACCORDO
100
AcDbPolyline
 62
7
  6
CONTINUOUS
 90
6
 70
0
 10
185.464944932
 20
59.7025192904
 10
179.3073957246
 20
59.6321068897
 10
173.1484105061
 20
59.5745154202
 10
166.9882719648
 20
59.5297498144
 10
160.8272671604
 20
59.4978123882
 10
154.6656863219
 20
59.4787044943
  0
LWPOLYLINE
  5
2EA
100
AcDbEntity
  8
0
100
AcDbPolyline
 62
7
  6
CONTINUOUS
 90
7
 70
0
 10
148.9041373642
 20
59.711043883
 10
158.0285859247
 20
59.7260885894
 10
167.1533679845
 20
59.7693437312
 10
176.2780602158
 20
59.8408036138
 10
185.4022391151
 20
59.9404639842
 10
194.5254810228
 20
60.0683220325
 10
203.6473621431
 20
60.2243763928
  0
LINE
  5
2EB
100
AcDbEntity
  8
RACCORDO
100
AcDbLine
 62
7
  6
CONTINUOUS
 10
154.6656863219
 20
59.4787044943
 11
148.5038183354
 21
59.4724318848
  0
LWPOLYLINE
  5
2EC
100
AcDbEntity
  8
RACCORDO
100
AcDbPolyline
 62
253
  6
CONTINUOUS
 90
19
 70
0
 10
89.136097616
 20
63.4425069462
 10
89.1536498226
 20
63.4425106476
 10
89.1711350847
 20
63.4417448768
 10
89.1884187308
 20
63.4402155315
 10
89.2053676422
 20
63.4379343909
 10
89.2218512786
 20
63.4349190243
 10
89.2377426828
 20
63.431192656
 10
89.2529194593
 20
63.4267839865
 10
89.2672647165
 20
63.4217269715
 10
89.2806679673
 20
63.41606056
 10
89.2930259799
 20
63.4098283947
 10
89.3042435727
 20
63.4030784758
 10
89.314234348
 20
63.3958627912
 10
89.3229213567
 20
63.388236916
 10
89.3302376916
 20
63.3802595847
 10
89.3361270021
 20
63.3719922389
 10
89.3405439289
 20
63.3634985534
 10
89.3434544527
 20
63.3548439468
 10
89.3448361568
 20
63.3460950769
  0
LWPOLYLINE
  5
2ED
100
AcDbEntity
  8
RACCORDO
100
AcDbPolyline
 62
253
  6
CONTINUOUS
 90
19
 70
0
 10
207.8651275608
 20
63.4397373491
 10
207.8475752085
 20
63.4397410474
 10
207.8300898234
 20
63.4389752619
 10
207.8128060794
 20
63.4374458936
 10
207.7958570972
 20
63.4351647245
 10
207.7793734171
 20
63.432149327
 10
207.7634819934
 20
63.4284229278
 10
207.7483052209
 20
63.4240142302
 10
207.7339599885
 20
63.4189571921
 10
207.720556778
 20
63.4132907636
 10
207.7081988185
 20
63.4070585892
 10
207.6969812876
 20
63.4003086703
 10
207.686990577
 20
63.3930929939
 10
207.6783036323
 20
63.3854671358
 10
207.6709873575
 20
63.3774898305
 10
207.6650980978
 20
63.3692225168
 10
207.6606812103
 20
63.3607288684
 10
207.6577707127
 20
63.3520743037
 10
207.6563890201
 20
63.3433254798
  0
LWPOLYLINE
  5
2EE
100
AcDbEntity
  8
RACCORDO
100
AcDbPolyline
 62
7
  6
CONTINUOUS
 90
6
 70
0
 10
148.5038183354
 20
59.4724318848
 10
142.3419507717
 20
59.4789991643
 10
136.1803709619
 20
59.4984018348
 10
130.0193673906
 20
59.5306339787
 10
123.8592299432
 20
59.5756943339
 10
117.7002455443
 20
59.6335805943
  0
LWPOLYLINE
  5
2EF
100
AcDbEntity
  8
RACCORDO
100
AcDbPolyline
 62
7
  6
CONTINUOUS
 90
4
 70
0
 10
117.7002455443
 20
59.6335805943
 10
111.5426968996
 20
59.7042878235
 10
105.3868696199
 20
59.7878086478
 10
99.2330388687
 20
59.8841346614
  0
LWPOLYLINE
  5
2F0
100
AcDbEntity
  8
0
100
AcDbPolyline
 62
7
  6
CONTINUOUS
 90
7
 70
0
 10
93.3536311663
 20
60.227141347
 10
102.4755389013
 20
60.0706285502
 10
111.5988087152
 20
59.9423124729
 10
120.7230168091
 20
59.8421944681
 10
129.8477395201
 20
59.7702773327
 10
138.9725533408
 20
59.7265653064
 10
148.0970349394
 20
59.711064071
  0
LINE
  5
2F1
100
AcDbEntity
  8
RACCORDO
100
AcDbLine
 62
7
  6
CONTINUOUS
 10
99.2330388687
 20
59.8841346614
 11
93.1552896639
 21
59.9918714929
  0
LINE
  5
2F2
100
AcDbEntity
  8
RACCORDO
100
AcDbLine
 62
7
  6
CONTINUOUS
 10
93.1552897397
 20
59.9918737308
 11
93.066887278
 21
59.994378014
  0
LWPOLYLINE
  5
2F3
100
AcDbEntity
  8
RACCORDO
100
AcDbPolyline
 62
253
  6
CONTINUOUS
 90
24
 70
0
 10
93.1432765851
 20
59.8918212987
 10
92.9819892589
 20
59.8974517905
 10
92.8210681211
 20
59.9085745869
 10
92.6605131688
 20
59.9251897538
 10
92.4999696486
 20
59.9473066285
 10
92.3397923109
 20
59.9749159627
 10
92.1810453919
 20
60.0079901344
 10
92.0237551037
 20
60.0465892004
 10
91.8678951958
 20
60.0906536134
 10
91.7144511792
 20
60.1399767039
 10
91.5634576252
 20
60.1946106229
 10
91.4148798963
 20
60.2545040472
 10
91.2695996642
 20
60.319295405
 10
91.1277032184
 20
60.3889926965
 10
90.9891041812
 20
60.4635889915
 10
90.8544252037
 20
60.5427005473
 10
90.7237119747
 20
60.62632437
 10
90.5969187072
 20
60.7144646235
 10
90.4745308267
 20
60.8067484417
 10
90.3565581105
 20
60.9031854366
 10
90.2429906801
 20
61.0037671834
 10
90.1342844687
 20
61.108093855
 10
90.0304487613
 20
61.2161763205
 10
89.9314741732
 20
61.3280048693
  0
LWPOLYLINE
  5
2F4
100
AcDbEntity
  8
RACCORDO
100
AcDbPolyline
 62
7
  6
CONTINUOUS
 90
8
 70
0
 10
93.1603983523
 20
59.968327228
 10
93.0069820689
 20
59.9737338938
 10
92.853501586
 20
59.9842962119
 10
92.7001923955
 20
60.0000547277
 10
92.5472191217
 20
60.0210524492
 10
92.3949009775
 20
60.0473080529
 10
92.2437049376
 20
60.0787898086
 10
92.0938669062
 20
60.1154816472
  0
LWPOLYLINE
  5
2F5
100
AcDbEntity
  8
0
100
AcDbPolyline
 62
7
  6
CONTINUOUS
 90
7
 70
0
 10
148.0970349394
 20
59.711064071
 10
148.224463882
 20
59.6701998838
 10
148.3547280776
 20
59.6456805859
 10
148.4878275249
 20
59.6375057638
 10
148.6237622228
 20
59.645674995
 10
148.7625321697
 20
59.6701878482
 10
148.9041373642
 20
59.711043883
  0
LWPOLYLINE
  5
2F6
100
AcDbEntity
  8
RACCORDO
100
AcDbPolyline
 62
253
  6
CONTINUOUS
 90
16
 70
0
 10
104.0432103619
 20
171.1677766728
 10
104.0555989832
 20
171.0293411577
 10
104.067522825
 20
170.9038275468
 10
104.0788932783
 20
170.7925234348
 10
104.0893341868
 20
170.7025147063
 10
104.0988410175
 20
170.6348574868
 10
104.1074183034
 20
170.588495651
 10
104.1147034871
 20
170.5673467074
 10
104.1205967218
 20
170.5734209332
 10
104.1251978544
 20
170.6047080513
 10
104.1284438685
 20
170.6590947391
 10
104.1302274423
 20
170.7374393523
 10
104.1306558975
 20
170.8388835353
 10
104.1299881833
 20
170.9587388979
 10
104.1282578819
 20
171.0960469558
 10
104.1216669728
 20
171.4240836733
  0
LINE
  5
2F7
100
AcDbEntity
  8
RACCORDO
100
AcDbLine
 62
253
  6
CONTINUOUS
 10
104.0168832837
 20
171.4840530982
 11
104.0432103619
 21
171.1677766728
  0
LINE
  5
2F8
100
AcDbEntity
  8
RACCORDO
100
AcDbLine
 62
253
  6
CONTINUOUS
 10
103.9888972626
 20
171.8422088598
 11
104.0168832837
 21
171.4840530982
  0
LWPOLYLINE
  5
2F9
100
AcDbEntity
  8
RACCORDO
100
AcDbPolyline
 62
253
  6
CONTINUOUS
 90
13
 70
0
 10
104.0621261947
 20
171.4807396685
 10
104.0702264395
 20
171.3712907906
 10
104.077841894
 20
171.2781167
 10
104.0848634416
 20
171.2015526799
 10
104.0911096989
 20
171.147639562
 10
104.0965564999
 20
171.118018177
 10
104.1011275426
 20
171.1110476943
 10
104.1046608079
 20
171.1278464536
 10
104.107150585
 20
171.1704149888
 10
104.1086698975
 20
171.2367527661
 10
104.1092764563
 20
171.3219765242
 10
104.109028565
 20
171.4252437823
 10
104.1085398958
 20
171.4911914509
  0
LINE
  5
2FA
100
AcDbEntity
  8
RACCORDO
100
AcDbLine
 62
253
  6
CONTINUOUS
 10
103.9589113594
 20
172.2444609982
 11
103.9888972626
 21
171.8422088598
  0
LINE
  5
2FB
100
AcDbEntity
  8
RACCORDO
100
AcDbLine
 62
253
  6
CONTINUOUS
 10
103.910326052
 20
172.9253701333
 11
103.9589113594
 21
172.2444609982
  0
LINE
  5
2FC
100
AcDbEntity
  8
SMUSSO
100
AcDbLine
 62
7
  6
CONTINUOUS
 10
103.2086401549
 20
158.8635408046
 11
101.4829927634
 21
183.8584560862
  0
LINE
  5
2FD
100
AcDbEntity
  8
RACCORDO
100
AcDbLine
 62
7
  6
CONTINUOUS
 10
101.7534408547
 20
183.8584560862
 11
103.4972970562
 21
158.5473261403
  0
LINE
  5
2FE
100
AcDbEntity
  8
SMUSSO
100
AcDbLine
 62
7
  6
CONTINUOUS
 10
103.4988721366
 20
158.5774466409
 11
101.7569805513
 21
183.8584560862
  0
LINE
  5
2FF
100
AcDbEntity
  8
SMUSSO
100
AcDbLine
 62
7
  6
CONTINUOUS
 10
103.798597717
 20
158.5979956294
 11
102.0582749214
 21
183.8584560862
  0
LINE
  5
300
100
AcDbEntity
  8
RACCORDO
100
AcDbLine
 62
253
  6
CONTINUOUS
 10
103.8406398802
 20
173.945813665
 11
103.910326052
 21
172.9253701333
  0
LINE
  5
301
100
AcDbEntity
  8
RACCORDO
100
AcDbLine
 62
253
  6
CONTINUOUS
 10
104.0446162192
 20
171.7444326541
 11
104.0621261947
 21
171.4807396685
  0
LINE
  5
302
100
AcDbEntity
  8
RACCORDO
100
AcDbLine
 62
253
  6
CONTINUOUS
 10
103.7495852783
 20
175.3311926248
 11
103.8406398802
 21
173.945813665
  0
LINE
  5
303
100
AcDbEntity
  8
RACCORDO
100
AcDbLine
 62
253
  6
CONTINUOUS
 10
103.6120247763
 20
177.4974902827
 11
103.7495852783
 21
175.3311926248
  0
LINE
  5
304
100
AcDbEntity
  8
RACCORDO
100
AcDbLine
 62
253
  6
CONTINUOUS
 10
103.4522309294
 20
180.0863677056
 11
103.6120247763
 21
177.4974902827
  0
LINE
  5
305
100
AcDbEntity
  8
RACCORDO
100
AcDbLine
 62
253
  6
CONTINUOUS
 10
103.3183908589
 20
182.2961612461
 11
103.4522309294
 21
180.0863677056
  0
LINE
  5
306
100
AcDbEntity
  8
RACCORDO
100
AcDbLine
 62
253
  6
CONTINUOUS
 10
103.2248142584
 20
183.8584560862
 11
103.3183908589
 21
182.2961612461
  0
LINE
  5
307
100
AcDbEntity
  8
RACCORDO
100
AcDbLine
 62
253
  6
CONTINUOUS
 10
104.0258315296
 20
172.0519166822
 11
104.0446162192
 21
171.7444326541
  0
LINE
  5
308
100
AcDbEntity
  8
RACCORDO
100
AcDbLine
 62
253
  6
CONTINUOUS
 10
103.9950987276
 20
172.5918508043
 11
104.0258315296
 21
172.0519166822
  0
LINE
  5
309
100
AcDbEntity
  8
0
100
AcDbLine
 62
253
  6
CONTINUOUS
 10
103.8001743972
 20
183.8584560862
 11
104.4604264331
 21
171.2551829143
  0
LINE
  5
30A
100
AcDbEntity
  8
RACCORDO
100
AcDbLine
 62
253
  6
CONTINUOUS
 10
103.9493068443
 20
173.4496231585
 11
103.9950987276
 21
172.5918508043
  0
LINE
  5
30B
100
AcDbEntity
  8
RACCORDO
100
AcDbLine
 62
253
  6
CONTINUOUS
 10
103.8734884123
 20
174.953291261
 11
103.9493068443
 21
173.4496231585
  0
LINE
  5
30C
100
AcDbEntity
  8
RACCORDO
100
AcDbLine
 62
253
  6
CONTINUOUS
 10
103.7648141255
 20
177.2132204354
 11
103.8734884123
 21
174.953291261
  0
LINE
  5
30D
100
AcDbEntity
  8
RACCORDO
100
AcDbLine
 62
253
  6
CONTINUOUS
 10
103.6891770055
 20
178.8319516397
 11
103.7648141255
 21
177.2132204354
  0
LINE
  5
30E
100
AcDbEntity
  8
RACCORDO
100
AcDbLine
 62
253
  6
CONTINUOUS
 10
103.585939357
 20
181.0827189923
 11
103.6891770055
 21
178.8319516397
  0
LINE
  5
30F
100
AcDbEntity
  8
RACCORDO
100
AcDbLine
 62
253
  6
CONTINUOUS
 10
103.4863183911
 20
183.2885270969
 11
103.585939357
 21
181.0827189923
  0
LINE
  5
310
100
AcDbEntity
  8
RACCORDO
100
AcDbLine
 62
7
  6
CONTINUOUS
 10
103.5976604708
 20
184.1449438007
 11
103.679911121
 21
182.312611064
  0
LINE
  5
311
100
AcDbEntity
  8
RACCORDO
100
AcDbLine
 62
7
  6
CONTINUOUS
 10
103.679911121
 20
182.312611064
 11
103.7571444247
 21
180.5680256636
  0
LINE
  5
312
100
AcDbEntity
  8
RACCORDO
100
AcDbLine
 62
253
  6
CONTINUOUS
 10
103.7953684602
 20
179.8165644661
 11
103.6157774944
 21
183.8584560862
  0
LINE
  5
313
100
AcDbEntity
  8
RACCORDO
100
AcDbLine
 62
7
  6
CONTINUOUS
 10
103.7571444247
 20
180.5680256636
 11
103.8238809862
 21
179.0356744778
  0
LINE
  5
314
100
AcDbEntity
  8
RACCORDO
100
AcDbLine
 62
7
  6
CONTINUOUS
 10
103.8238809862
 20
179.0356744778
 11
103.8820089631
 21
177.6754173955
  0
LINE
  5
315
100
AcDbEntity
  8
RACCORDO
100
AcDbLine
 62
253
  6
CONTINUOUS
 10
103.9132775183
 20
177.0639028495
 11
103.7953684602
 21
179.8165644661
  0
LINE
  5
316
100
AcDbEntity
  8
RACCORDO
100
AcDbLine
 62
7
  6
CONTINUOUS
 10
103.8820089631
 20
177.6754173955
 11
103.9328640508
 21
176.4581047741
  0
LINE
  5
317
100
AcDbEntity
  8
RACCORDO
100
AcDbLine
 62
7
  6
CONTINUOUS
 10
103.9328640508
 20
176.4581047741
 11
103.9778058192
 21
175.3516495977
  0
LINE
  5
318
100
AcDbEntity
  8
RACCORDO
100
AcDbLine
 62
253
  6
CONTINUOUS
 10
103.994775718
 20
175.0726014069
 11
103.9132775183
 21
177.0639028495
  0
LINE
  5
319
100
AcDbEntity
  8
RACCORDO
100
AcDbLine
 62
7
  6
CONTINUOUS
 10
103.9778058192
 20
175.3516495977
 11
104.0166186504
 21
174.3605953825
  0
LINE
  5
31A
100
AcDbEntity
  8
RACCORDO
100
AcDbLine
 62
253
  6
CONTINUOUS
 10
104.0412760995
 20
173.8737427324
 11
103.994775718
 21
175.0726014069
  0
LINE
  5
31B
100
AcDbEntity
  8
RACCORDO
100
AcDbLine
 62
7
  6
CONTINUOUS
 10
104.0166186504
 20
174.3605953825
 11
104.047853883
 21
173.5237511067
  0
LINE
  5
31C
100
AcDbEntity
  8
RACCORDO
100
AcDbLine
 62
253
  6
CONTINUOUS
 10
104.0718842887
 20
173.0364393416
 11
104.0412760995
 21
173.8737427324
  0
LINE
  5
31D
100
AcDbEntity
  8
RACCORDO
100
AcDbLine
 62
7
  6
CONTINUOUS
 10
104.047853883
 20
173.5237511067
 11
104.0722929466
 21
172.8249040643
  0
LINE
  5
31E
100
AcDbEntity
  8
RACCORDO
100
AcDbLine
 62
253
  6
CONTINUOUS
 10
104.0976763784
 20
172.271608777
 11
104.0718842887
 21
173.0364393416
  0
LINE
  5
31F
100
AcDbEntity
  8
RACCORDO
100
AcDbLine
 62
7
  6
CONTINUOUS
 10
104.0722929466
 20
172.8249040643
 11
104.0854643491
 21
172.4178332438
  0
LINE
  5
320
100
AcDbEntity
  8
RACCORDO
100
AcDbLine
 62
253
  6
CONTINUOUS
 10
104.1113290248
 20
171.8195380067
 11
104.0976763784
 21
172.271608777
  0
LINE
  5
321
100
AcDbEntity
  8
RACCORDO
100
AcDbLine
 62
7
  6
CONTINUOUS
 10
104.0854643491
 20
172.4178332438
 11
104.0962092078
 21
172.0533846309
  0
LINE
  5
322
100
AcDbEntity
  8
RACCORDO
100
AcDbLine
 62
253
  6
CONTINUOUS
 10
104.1216669728
 20
171.4240836733
 11
104.1113290248
 21
171.8195380067
  0
LINE
  5
323
100
AcDbEntity
  8
RACCORDO
100
AcDbLine
 62
7
  6
CONTINUOUS
 10
104.0962092078
 20
172.0533846309
 11
104.1039700847
 21
171.747406045
  0
LINE
  5
324
100
AcDbEntity
  8
RACCORDO
100
AcDbLine
 62
7
  6
CONTINUOUS
 10
104.1039700847
 20
171.747406045
 11
104.1080130429
 21
171.5355316363
  0
LINE
  5
325
100
AcDbEntity
  8
0
100
AcDbLine
 62
253
  6
CONTINUOUS
 10
107.1339262991
 20
183.8584560862
 11
107.2247690119
 21
171.2949100649
  0
LWPOLYLINE
  5
326
100
AcDbEntity
  8
SUPERFICI
100
AcDbPolyline
 62
253
  6
CONTINUOUS
 90
10
 70
0
 10
107.224754538
 20
171.2949105705
 10
107.211864262
 20
170.8826693129
 10
107.2071607653
 20
170.4813634566
 10
107.2107344025
 20
170.0987021216
 10
107.2225165238
 20
169.7420362647
 10
107.2422807938
 20
169.4182174675
 10
107.2696475387
 20
169.1334663166
 10
107.3040910412
 20
168.893252906
 10
107.3449496387
 20
168.7021917558
 10
107.391438434
 20
168.5639531672
  0
LWPOLYLINE
  5
327
100
AcDbEntity
  8
RACCORDO
100
AcDbPolyline
 62
253
  6
CONTINUOUS
 90
10
 70
0
 10
98.1661836843
 20
81.575283639
 10
98.2412685342
 20
81.7902739068
 10
98.3779532061
 20
81.9975408218
 10
98.5733442221
 20
82.192696751
 10
98.8233053501
 20
82.3716104385
 10
99.1225451631
 20
82.5304944607
 10
99.4647290537
 20
82.6659854017
 10
99.8426133313
 20
82.775215054
 10
100.248198564
 20
82.855871135
 10
100.6728989182
 20
82.9062462364
  0
LWPOLYLINE
  5
328
100
AcDbEntity
  8
0
100
AcDbPolyline
 62
7
  6
CONTINUOUS
 90
6
 70
0
 10
89.535583552
 20
79.9925001726
 10
89.5023121605
 20
79.9172713896
 10
89.4771049379
 20
79.8398840299
 10
89.4601780355
 20
79.7609912586
 10
89.4516770257
 20
79.6812571048
 10
89.4506125884
 20
79.6412864823
  0
LWPOLYLINE
  5
329
100
AcDbEntity
  8
0
100
AcDbPolyline
 62
7
  6
CONTINUOUS
 90
13
 70
0
 10
155.7883311181
 20
175.1113605427
 10
155.7811139294
 20
175.1027835751
 10
155.7735848462
 20
175.0940447779
 10
155.7657438685
 20
175.0851441514
 10
155.7576081615
 20
175.0760738664
 10
155.74916056
 20
175.066841752
 10
155.7403495679
 20
175.0574712949
 10
155.731140466
 20
175.0479223164
 10
155.7215679735
 20
175.0382349952
 10
155.7116847519
 20
175.0285533543
 10
155.7014422486
 20
175.0188428809
 10
155.6908890161
 20
175.0091380877
 10
155.6802233743
 20
174.9996865356
  0
LWPOLYLINE
  5
32A
100
AcDbEntity
  8
0
100
AcDbPolyline
 62
7
  6
CONTINUOUS
 90
4
 70
0
 10
163.5275298627
 20
178.5104449426
 10
163.5370582809
 20
178.5208150329
 10
163.5493138559
 20
178.5299201724
 10
163.5642828656
 20
178.5377296654
  0
LWPOLYLINE
  5
32B
100
AcDbEntity
  8
RACCORDO
100
AcDbPolyline
 62
7
  6
CONTINUOUS
 90
5
 70
0
 10
163.8887269124
 20
173.085566695
 10
164.3047015286
 20
173.4579138102
 10
164.6380847174
 20
173.8808612742
 10
164.8816788819
 20
174.3392048498
 10
165.0360460582
 20
174.8189949463
  0
LWPOLYLINE
  5
32C
100
AcDbEntity
  8
RACCORDO
100
AcDbPolyline
 62
253
  6
CONTINUOUS
 90
27
 70
0
 10
217.462248364
 20
181.3005740195
 10
217.5570699903
 20
181.342975248
 10
217.651462509
 20
181.3825325701
 10
217.7451598778
 20
181.4192558523
 10
217.8380811093
 20
181.4533479483
 10
217.9297719443
 20
181.4846372845
 10
218.0194345985
 20
181.5126264431
 10
218.1066991439
 20
181.5373289601
 10
218.1915042427
 20
181.5589045149
 10
218.2735660648
 20
181.5771328118
 10
218.3527030666
 20
181.5920915461
 10
218.4287541285
 20
181.6039058872
 10
218.5015015578
 20
181.6124437315
 10
218.570824604
 20
181.617789639
 10
218.6366039325
 20
181.6200850213
 10
218.6986657106
 20
181.619296503
 10
218.7568761679
 20
181.6155309669
 10
218.8112510122
 20
181.6089240195
 10
218.8618533658
 20
181.5994818607
 10
218.9086804833
 20
181.5872857506
 10
218.9516415141
 20
181.5724690018
 10
218.9906749673
 20
181.5551092466
 10
219.0257393618
 20
181.5353266431
 10
219.0568905392
 20
181.5132166065
 10
219.0842128054
 20
181.4888137377
 10
219.1077178726
 20
181.4622005268
 10
219.127403333
 20
181.4334845004
  0
LINE
  5
32D
100
AcDbEntity
  8
SMUSSO
100
AcDbLine
 62
7
  6
CONTINUOUS
 10
103.2885541369
 20
158.3663190981
 11
103.2086401549
 21
158.8635408046
  0
LINE
  5
32E
100
AcDbEntity
  8
SMUSSO
100
AcDbLine
 62
7
  6
CONTINUOUS
 10
103.5688502548
 20
158.1343891361
 11
103.4988721366
 21
158.5774466409
  0
LINE
  5
32F
100
AcDbEntity
  8
SMUSSO
100
AcDbLine
 62
7
  6
CONTINUOUS
 10
103.8618232733
 20
158.1901713906
 11
103.798597717
 21
158.5979956291
  0
LWPOLYLINE
  5
330
100
AcDbEntity
  8
RACCORDO
100
AcDbPolyline
 62
7
  6
CONTINUOUS
 90
4
 70
0
 10
103.4972970562
 20
158.5473261403
 10
103.5254799776
 20
158.3012635998
 10
103.5741994642
 20
158.0667431838
 10
103.6409383966
 20
157.8450140547
  0
LINE
  5
331
100
AcDbEntity
  8
DRAFT
100
AcDbLine
 62
7
  6
CONTINUOUS
 10
146.773786788
 20
183.65084017
 11
146.8621893718
 21
183.8404282904
  0
LWPOLYLINE
  5
332
100
AcDbEntity
  8
0
100
AcDbPolyline
 62
7
  6
CONTINUOUS
 90
13
 70
0
 10
159.1077906872
 20
175.1114533507
 10
159.1005734985
 20
175.1028763831
 10
159.0930444153
 20
175.0941375859
 10
159.0852034376
 20
175.0852369594
 10
159.0770677306
 20
175.0761666744
 10
159.0686201291
 20
175.06693456
 10
159.059809137
 20
175.0575641029
 10
159.0506000351
 20
175.0480151244
 10
159.0410275426
 20
175.0383278032
 10
159.031144321
 20
175.0286461623
 10
159.0209018177
 20
175.0189356889
 10
159.0103485852
 20
175.0092308957
 10
158.9996829434
 20
174.9997793436
  0
LINE
  5
333
100
AcDbEntity
  8
RACCORDO
100
AcDbLine
 62
253
  6
CONTINUOUS
 10
212.335226223
 20
184.0980533038
 11
212.611082311
 21
184.2776707471
  0
LWPOLYLINE
  5
334
100
AcDbEntity
  8
RACCORDO
100
AcDbPolyline
 62
253
  6
CONTINUOUS
 90
25
 70
0
 10
101.5180901215
 20
78.5532205958
 10
101.3153466229
 20
78.5720006459
 10
101.1157728925
 20
78.600275681
 10
100.919983899
 20
78.637653668
 10
100.729731172
 20
78.6833973216
 10
100.5443198205
 20
78.7372952837
 10
100.3608075198
 20
78.8001976074
 10
100.1792359774
 20
78.8723650606
 10
100.0009527569
 20
78.9535669428
 10
99.8253023317
 20
79.0445392327
 10
99.652885511
 20
79.145524032
 10
99.4849123804
 20
79.2564057851
 10
99.3218909992
 20
79.3775711532
 10
99.1648444318
 20
79.5090185847
 10
99.0149268544
 20
79.65060771
 10
98.8730296609
 20
79.8025180871
 10
98.7403850392
 20
79.9645156291
 10
98.61826887
 20
80.1362559424
 10
98.5078090829
 20
80.3176801401
 10
98.4103743866
 20
80.5082657882
 10
98.3273446134
 20
80.7073523699
 10
98.2600116274
 20
80.9145385033
 10
98.2097795492
 20
81.1290459075
 10
98.1780629769
 20
81.3496951698
 10
98.1661844269
 20
81.5752834964
  0
LWPOLYLINE
  5
335
100
AcDbEntity
  8
RACCORDO
100
AcDbPolyline
 62
253
  6
CONTINUOUS
 90
3
 70
0
 10
83.7870839006
 20
185.0483249908
 10
83.6789670257
 20
185.359452852
 10
83.6233555612
 20
185.684144436
  0
LWPOLYLINE
  5
336
100
AcDbEntity
  8
RACCORDO
100
AcDbPolyline
 62
253
  6
CONTINUOUS
 90
10
 70
0
 10
103.4972850818
 20
158.5473255119
 10
103.5047323478
 20
158.5091792378
 10
103.5264176791
 20
158.4731796251
 10
103.5615531303
 20
158.4406347382
 10
103.6088620405
 20
158.4127271129
 10
103.6666254213
 20
158.3904707881
 10
103.7327444167
 20
158.374674461
 10
103.8048165666
 20
158.3659121019
 10
103.8802231002
 20
158.3645020997
 10
103.9562240906
 20
158.3704956927
  0
LWPOLYLINE
  5
337
100
AcDbEntity
  8
SUPERFICI
100
AcDbPolyline
 62
253
  6
CONTINUOUS
 90
10
 70
0
 10
104.4604283517
 20
171.2551830149
 10
104.5255863982
 20
170.7990976912
 10
104.6645826657
 20
170.3584650876
 10
104.8739138177
 20
169.9443911416
 10
105.1483037597
 20
169.5673123925
 10
105.4808366204
 20
169.2367329331
 10
105.8631310634
 20
168.9609848632
 10
106.2855515349
 20
168.7470182837
 10
106.7374511228
 20
168.6002261218
 10
107.207439908
 20
168.5243082052
  0
LWPOLYLINE
  5
338
100
AcDbEntity
  8
RACCORDO
100
AcDbPolyline
 62
253
  6
CONTINUOUS
 90
9
 70
0
 10
191.5932594578
 20
156.3275755942
 10
191.753373892
 20
156.4104953424
 10
191.906124922
 20
156.5021843096
 10
192.0513263114
 20
156.6031170347
 10
192.1891675111
 20
156.7128301917
 10
192.3170765966
 20
156.8286056894
 10
192.4345970596
 20
156.9508337602
 10
192.5421890858
 20
157.0791367242
 10
192.6184386175
 20
157.182293995
  0
LWPOLYLINE
  5
339
100
AcDbEntity
  8
RACCORDO
100
AcDbPolyline
 62
253
  6
CONTINUOUS
 90
25
 70
0
 10
101.164683892
 20
82.5194638342
 10
101.1346251871
 20
82.518632985
 10
101.1052155807
 20
82.5191669021
 10
101.076455042
 20
82.5210656821
 10
101.0484273699
 20
82.5243192569
 10
101.0210487037
 20
82.5289378891
 10
100.9940675362
 20
82.5349521332
 10
100.9673533417
 20
82.542329076
 10
100.9410366155
 20
82.5511017269
 10
100.9152573867
 20
82.5613995067
 10
100.8899395159
 20
82.5732328578
 10
100.8651591004
 20
82.5865914703
 10
100.8412845044
 20
82.6015736992
 10
100.8182797383
 20
82.6182022278
 10
100.7961807238
 20
82.636454585
 10
100.7754636619
 20
82.6563614868
 10
100.756102986
 20
82.6779572937
 10
100.7381241732
 20
82.701207924
 10
100.7220799614
 20
82.7260415196
 10
100.7079562396
 20
82.752504732
 10
100.6957670238
 20
82.7805512046
 10
100.6861072241
 20
82.8099696256
 10
100.6791751159
 20
82.8406896439
 10
100.6747723533
 20
82.8727818287
 10
100.6728989182
 20
82.9062462364
  0
LWPOLYLINE
  5
33A
100
AcDbEntity
  8
RACCORDO
100
AcDbPolyline
 62
253
  6
CONTINUOUS
 90
13
 70
0
 10
195.8365412442
 20
82.5194638272
 10
188.9594801895
 20
82.8612229133
 10
181.6703357659
 20
83.1725078039
 10
173.9699558775
 20
83.4387344036
 10
165.7285064629
 20
83.644808191
 10
157.0813631287
 20
83.7705324245
 10
148.4309617244
 20
83.8095504979
 10
139.7845202624
 20
83.7691494593
 10
131.1491982482
 20
83.6423802228
 10
122.9273030813
 20
83.4356918753
 10
115.2540915979
 20
83.1694717344
 10
107.9996423734
 20
82.8591316406
 10
101.164683892
 20
82.5194638342
  0
LWPOLYLINE
  5
33B
100
AcDbEntity
  8
RACCORDO
100
AcDbPolyline
 62
253
  6
CONTINUOUS
 90
13
 70
0
 10
195.4832154445
 20
78.553227167
 10
188.6534000816
 20
78.9195841424
 10
181.4190017588
 20
79.2201209981
 10
173.7797523566
 20
79.4576375725
 10
165.5994048372
 20
79.6435832381
 10
157.0138185
 20
79.7733243582
 10
148.4314801853
 20
79.8224378182
 10
139.8531052837
 20
79.7721324114
 10
131.2792758308
 20
79.6411350085
 10
123.1182717036
 20
79.4546442024
 10
115.5058774254
 20
79.2175228784
 10
108.3059079274
 20
78.9179978782
 10
101.5180917436
 20
78.5532303087
  0
LWPOLYLINE
  5
33C
100
AcDbEntity
  8
RACCORDO
100
AcDbPolyline
 62
253
  6
CONTINUOUS
 90
31
 70
0
 10
217.462248364
 20
48.1243216194
 10
217.5576929621
 20
48.07426723
 10
217.6525425435
 20
48.0221012097
 10
217.7465304805
 20
47.9678462811
 10
217.8395251505
 20
47.9113303361
 10
217.9311314583
 20
47.8527848622
 10
218.020712299
 20
47.7928794953
 10
218.1079509575
 20
47.7317863725
 10
218.1927308646
 20
47.6695031128
 10
218.2747593818
 20
47.6064836815
 10
218.3538621885
 20
47.5428480232
 10
218.4298716482
 20
47.4786795695
 10
218.5025444185
 20
47.4143972935
 10
218.5717335487
 20
47.3501660821
 10
218.6373571833
 20
47.2860528864
 10
218.6993058065
 20
47.2223401846
 10
218.757490984
 20
47.1591803526
 10
218.8118673478
 20
47.0966557435
 10
218.8624099563
 20
47.034942582
 10
218.909072066
 20
46.9741807129
 10
218.9518401674
 20
46.914454905
 10
218.9907425454
 20
46.8558515453
 10
219.0257631463
 20
46.7984892706
 10
219.0569057629
 20
46.7424572427
 10
219.0842174018
 20
46.687788499
 10
219.1076980271
 20
46.6345898323
 10
219.1273647104
 20
46.5829452982
 10
219.1432666323
 20
46.5328454669
 10
219.1554191636
 20
46.4843450085
 10
219.1638276015
 20
46.4375654384
 10
219.1685168195
 20
46.3925930609
  0
LINE
  5
33D
100
AcDbEntity
  8
RACCORDO
100
AcDbLine
 62
7
  6
CONTINUOUS
 10
103.6409383966
 20
157.8450140547
 11
103.7228343581
 21
157.6379509863
  0
LINE
  5
33E
100
AcDbEntity
  8
SMUSSO
100
AcDbLine
 62
7
  6
CONTINUOUS
 10
103.7170861347
 20
157.7018481156
 11
103.5688502548
 21
158.1343891361
  0
LWPOLYLINE
  5
33F
100
AcDbEntity
  8
RACCORDO
100
AcDbPolyline
 62
253
  6
CONTINUOUS
 90
7
 70
0
 10
103.2849023083
 20
183.8584560862
 10
103.2884979779
 20
183.8440598589
 10
103.3130242379
 20
183.7556390147
 10
103.3406548998
 20
183.6653717664
 10
103.3715962629
 20
183.5734613609
 10
103.4060546238
 20
183.4800090159
 10
103.4442267843
 20
183.3850135583
  0
LINE
  5
340
100
AcDbEntity
  8
RACCORDO
100
AcDbLine
 62
7
  6
CONTINUOUS
 10
130.9758506694
 20
175.3060988669
 11
130.558530425
 21
183.8584560862
  0
LINE
  5
341
100
AcDbEntity
  8
DRAFT
100
AcDbLine
 62
7
  6
CONTINUOUS
 10
133.4341954031
 20
173.3410036797
 11
133.2506125884
 21
183.8584560862
  0
LINE
  5
342
100
AcDbEntity
  8
DRAFT
100
AcDbLine
 62
253
  6
CONTINUOUS
 10
133.1458376569
 20
173.064030073
 11
132.9824480018
 21
183.8727050015
  0
LINE
  5
343
100
AcDbEntity
  8
RACCORDO
100
AcDbLine
 62
7
  6
CONTINUOUS
 10
134.1603942284
 20
179.6580551475
 11
134.1636689409
 21
179.8667814424
  0
LINE
  5
344
100
AcDbEntity
  8
RACCORDO
100
AcDbLine
 62
7
  6
CONTINUOUS
 10
135.161793134
 20
179.6580831454
 11
135.1650678465
 21
179.8668094403
  0
LINE
  5
345
100
AcDbEntity
  8
DRAFT
100
AcDbLine
 62
7
  6
CONTINUOUS
 10
134.0374075929
 20
178.8580517087
 11
134.0549867715
 21
179.8667784038
  0
LWPOLYLINE
  5
346
100
AcDbEntity
  8
RACCORDO
100
AcDbPolyline
 62
7
  6
CONTINUOUS
 90
19
 70
0
 10
135.1650678465
 20
179.8668094403
 10
135.1671710986
 20
179.9086252818
 10
135.1725293508
 20
179.9499466773
 10
135.1811426033
 20
179.9907736268
 10
135.1931474142
 20
180.0315974925
 10
135.2084072253
 20
180.0719269121
 10
135.2265123621
 20
180.1102877991
 10
135.2474826156
 20
180.1463984885
 10
135.2712981948
 20
180.1805406452
 10
135.2974900515
 20
180.2120851781
 10
135.3260190369
 20
180.24098668
 10
135.3569242999
 20
180.267290558
 10
135.3898542392
 20
180.2905039421
 10
135.425100495
 20
180.3106774398
 10
135.4623714271
 20
180.3277604436
 10
135.5004405139
 20
180.3411082614
 10
135.5388989147
 20
180.3505059958
 10
135.5781554703
 20
180.3561685442
 10
135.6182101805
 20
180.3580959066
  0
LWPOLYLINE
  5
347
100
AcDbEntity
  8
SMUSSO
100
AcDbPolyline
 62
7
  6
CONTINUOUS
 90
3
 70
0
 10
192.4937301864
 20
156.6719836452
 10
192.1330931795
 20
156.4504943907
 10
191.6535133451
 20
156.2451825716
  0
LWPOLYLINE
  5
348
100
AcDbEntity
  8
RACCORDO
100
AcDbPolyline
 62
253
  6
CONTINUOUS
 90
22
 70
0
 10
79.538976813
 20
181.3005740183
 10
79.4858430899
 20
181.3810167411
 10
79.4334618814
 20
181.4586259403
 10
79.3818310065
 20
181.5331864109
 10
79.3307405698
 20
181.6045838435
 10
79.280394595
 20
181.672521911
 10
79.2314075819
 20
181.7365702625
 10
79.1838474511
 20
181.796545246
 10
79.1376291469
 20
181.8523984157
 10
79.0931329332
 20
181.9039817163
 10
79.0503739243
 20
181.9512299044
 10
79.0093159768
 20
181.9940896744
 10
78.9702602743
 20
182.0324839031
 10
78.933238183
 20
182.0663974808
 10
78.898194097
 20
182.0958523814
 10
78.8652975462
 20
182.1208686719
 10
78.834567231
 20
182.1414821161
 10
78.8059596121
 20
182.1577519303
 10
78.7795509131
 20
182.1697495602
 10
78.7553499113
 20
182.1775430457
 10
78.733323911
 20
182.1812136138
 10
78.7228648072
 20
182.1815249395
  0
LINE
  5
349
100
AcDbEntity
  8
RACCORDO
100
AcDbLine
 62
253
  6
CONTINUOUS
 10
83.9447604645
 20
184.7591958347
 11
83.7870839006
 21
185.0483249908
  0
LWPOLYLINE
  5
34A
100
AcDbEntity
  8
SMUSSO
100
AcDbPolyline
 62
7
  6
CONTINUOUS
 90
3
 70
0
 10
104.2008674349
 20
157.4126836461
 10
103.9960582253
 20
157.7913418151
 10
103.8618232733
 20
158.1901713906
  0
LINE
  5
34B
100
AcDbEntity
  8
0
100
AcDbLine
 62
7
  6
CONTINUOUS
 10
135.1119698778
 20
175.8257448602
 11
135.1427643808
 21
175.4831711693
  0
LINE
  5
34C
100
AcDbEntity
  8
0
100
AcDbLine
 62
7
  6
CONTINUOUS
 10
134.707297027
 20
180.3580704385
 11
134.7635437487
 21
179.6580720109
  0
LINE
  5
34D
100
AcDbEntity
  8
DRAFT
100
AcDbLine
 62
7
  6
CONTINUOUS
 10
134.9622471913
 20
182.7932128567
 11
134.9960792074
 21
180.8580785127
  0
LINE
  5
34E
100
AcDbEntity
  8
RACCORDO
100
AcDbLine
 62
7
  6
CONTINUOUS
 10
135.0171038609
 20
179.655553539
 11
134.9960800848
 21
180.8580785128
  0
LINE
  5
34F
100
AcDbEntity
  8
DRAFT
100
AcDbLine
 62
7
  6
CONTINUOUS
 10
138.2747984906
 20
183.8584560862
 11
138.3358869755
 21
180.364297632
  0
LINE
  5
350
100
AcDbEntity
  8
DRAFT
100
AcDbLine
 62
7
  6
CONTINUOUS
 10
138.2655710118
 20
183.8584560862
 11
138.295531678
 21
180.8581707614
  0
LINE
  5
351
100
AcDbEntity
  8
DRAFT
100
AcDbLine
 62
253
  6
CONTINUOUS
 10
141.0191624808
 20
178.8582469099
 11
141.0192886601
 21
175.8582469123
  0
LINE
  5
352
100
AcDbEntity
  8
DRAFT
100
AcDbLine
 62
7
  6
CONTINUOUS
 10
142.1618264715
 20
183.8584560862
 11
142.1503636404
 21
180.8582785377
  0
LINE
  5
353
100
AcDbEntity
  8
DRAFT
100
AcDbLine
 62
7
  6
CONTINUOUS
 10
137.9422394081
 20
183.8584560862
 11
137.9260603396
 21
180.8581604314
  0
LINE
  5
354
100
AcDbEntity
  8
DRAFT
100
AcDbLine
 62
7
  6
CONTINUOUS
 10
137.3861601242
 20
179.8668715398
 11
137.3162996271
 21
175.8581433813
  0
LINE
  5
355
100
AcDbEntity
  8
0
100
AcDbLine
 62
7
  6
CONTINUOUS
 10
143.5586824819
 20
175.483406468
 11
143.5644011682
 21
175.5470475122
  0
LINE
  5
356
100
AcDbEntity
  8
0
100
AcDbLine
 62
7
  6
CONTINUOUS
 10
143.5644011682
 20
175.5470475122
 11
143.5923618873
 21
175.8583188522
  0
LINE
  5
357
100
AcDbEntity
  8
0
100
AcDbLine
 62
7
  6
CONTINUOUS
 10
143.5574125654
 20
175.4726883041
 11
143.5586824819
 21
175.483406468
  0
LWPOLYLINE
  5
358
100
AcDbEntity
  8
RACCORDO
100
AcDbPolyline
 62
253
  6
CONTINUOUS
 90
9
 70
0
 10
193.354732141
 20
183.0597475591
 10
193.3707298701
 20
183.0798125119
 10
193.391924889
 20
183.1072946379
 10
193.4129531736
 20
183.1355125305
 10
193.4337604082
 20
183.1644932693
 10
193.4543930655
 20
183.1942806404
 10
193.4748401106
 20
183.2248892392
 10
193.4950253685
 20
183.2563044703
 10
193.5149067323
 20
183.2885263337
  0
LINE
  5
359
100
AcDbEntity
  8
RACCORDO
100
AcDbLine
 62
253
  6
CONTINUOUS
 10
212.611082311
 20
184.2776707471
 11
212.8537409813
 21
184.5001427354
  0
LWPOLYLINE
  5
35A
100
AcDbEntity
  8
SMUSSO
100
AcDbPolyline
 62
7
  6
CONTINUOUS
 90
3
 70
0
 10
192.988956877
 20
157.0924249392
 10
192.5822650217
 20
156.7364693121
 10
192.4937301864
 20
156.6719836452
  0
LWPOLYLINE
  5
35B
100
AcDbEntity
  8
RACCORDO
100
AcDbPolyline
 62
253
  6
CONTINUOUS
 90
11
 70
0
 10
104.386127213
 20
157.1780632576
 10
104.4344724271
 20
157.1089921526
 10
104.5461821138
 20
156.9733867519
 10
104.6655912561
 20
156.8468167004
 10
104.7923988875
 20
156.7288557843
 10
104.9269087452
 20
156.6199207271
 10
105.0683806343
 20
156.5196706152
 10
105.2167705753
 20
156.4277993127
 10
105.3721254754
 20
156.3446027464
 10
105.5338412741
 20
156.2706437105
 10
105.7023280999
 20
156.2056964841
  0
LINE
  5
35C
100
AcDbEntity
  8
RACCORDO
100
AcDbLine
 62
253
  6
CONTINUOUS
 10
103.4442267843
 20
183.3850135583
 11
103.486318388
 21
183.2885272327
  0
LINE
  5
35D
100
AcDbEntity
  8
RACCORDO
100
AcDbLine
 62
7
  6
CONTINUOUS
 10
131.9000345169
 20
175.3060988669
 11
131.9666972787
 21
174.8140282069
  0
LINE
  5
35E
100
AcDbEntity
  8
RACCORDO
100
AcDbLine
 62
7
  6
CONTINUOUS
 10
133.411608035
 20
173.1623829144
 11
133.3908988788
 21
173.3410036797
  0
LINE
  5
35F
100
AcDbEntity
  8
0
100
AcDbLine
 62
7
  6
CONTINUOUS
 10
138.4402373641
 20
175.8581748052
 11
138.4739377336
 21
175.4832643048
  0
LINE
  5
360
100
AcDbEntity
  8
0
100
AcDbLine
 62
7
  6
CONTINUOUS
 10
148.0970349394
 20
59.711064071
 11
148.1158349806
 21
59.472845395
  0
LINE
  5
361
100
AcDbEntity
  8
RACCORDO
100
AcDbLine
 62
7
  6
CONTINUOUS
 10
144.5103599528
 20
179.6583445198
 11
144.5065642986
 21
179.867070617
  0
LINE
  5
362
100
AcDbEntity
  8
DRAFT
100
AcDbLine
 62
7
  6
CONTINUOUS
 10
144.6638505532
 20
178.8583488109
 11
144.6498641342
 21
179.6583484202
  0
LINE
  5
363
100
AcDbEntity
  8
ASSI
100
AcDbLine
 62
7
  6
CONTINUOUS
 10
146.1613580379
 20
178.5613649626
 11
146.1613612165
 21
178.4476730495
  0
LINE
  5
364
100
AcDbEntity
  8
0
100
AcDbLine
 62
253
  6
CONTINUOUS
 10
146.2582208057
 20
178.3975801723
 11
146.2582176636
 21
178.5099621139
  0
LINE
  5
365
100
AcDbEntity
  8
DRAFT
100
AcDbLine
 62
7
  6
CONTINUOUS
 10
143.7050544017
 20
180.8575931469
 11
143.6964084539
 21
180.3614722259
  0
LWPOLYLINE
  5
366
100
AcDbEntity
  8
RACCORDO
100
AcDbPolyline
 62
7
  6
CONTINUOUS
 90
14
 70
0
 10
152.5274215885
 20
179.8672948703
 10
152.5298515296
 20
179.909110721
 10
152.5360417728
 20
179.9504321398
 10
152.5459923183
 20
179.9912591266
 10
152.5598609254
 20
180.0320830444
 10
152.5774898348
 20
180.0724125302
 10
152.5984057678
 20
180.1107734958
 10
152.6226315867
 20
180.1468842762
 10
152.6501444292
 20
180.1810265363
 10
152.6804024298
 20
180.2125711829
 10
152.7133603619
 20
180.2414728086
 10
152.7490634521
 20
180.2677768207
 10
152.7871055147
 20
180.2909903478
 10
152.827823464
 20
180.3111639985
  0
LINE
  5
367
100
AcDbEntity
  8
SMUSSO
100
AcDbLine
 62
253
  6
CONTINUOUS
 10
193.7925272366
 20
158.8635584915
 11
193.5022984232
 21
158.5774637184
  0
LINE
  5
368
100
AcDbEntity
  8
RACCORDO
100
AcDbLine
 62
253
  6
CONTINUOUS
 10
84.1477110954
 20
184.4998972247
 11
83.9447604645
 21
184.7591958347
  0
LWPOLYLINE
  5
369
100
AcDbEntity
  8
0
100
AcDbPolyline
 62
7
  6
CONTINUOUS
 90
20
 70
0
 10
135.1440391948
 20
175.4724168177
 10
135.1458884787
 20
175.4618096999
 10
135.1483122327
 20
175.4513498157
 10
135.1513230462
 20
175.441005658
 10
135.1549083297
 20
175.430808734
 10
135.1590303148
 20
175.4208535655
 10
135.1636938151
 20
175.4111448613
 10
135.1688940171
 20
175.4016779127
 10
135.1745787112
 20
175.3925331154
 10
135.1807506736
 20
175.3837153829
 10
135.1874071281
 20
175.3752198018
 10
135.1944875362
 20
175.3671120282
 10
135.201993197
 20
175.359396274
 10
135.2099228112
 20
175.3520683273
 10
135.2182119426
 20
175.3451812084
 10
135.2268619181
 20
175.3387377993
 10
135.2358714107
 20
175.332735218
 10
135.2451720022
 20
175.3272178393
 10
135.2547408867
 20
175.3222004548
 10
135.2645903665
 20
175.3176731009
  0
LINE
  5
36A
100
AcDbEntity
  8
0
100
AcDbLine
 62
7
  6
CONTINUOUS
 10
135.1427643808
 20
175.4831711693
 11
135.1440348967
 21
175.4724530764
  0
LINE
  5
36B
100
AcDbEntity
  8
0
100
AcDbLine
 62
7
  6
CONTINUOUS
 10
138.4739377336
 20
175.4832643048
 11
138.4752082494
 21
175.4725462119
  0
LINE
  5
36C
100
AcDbEntity
  8
DRAFT
100
AcDbLine
 62
7
  6
CONTINUOUS
 10
153.3272611718
 20
180.8578181593
 11
153.335933599
 21
180.3617699286
  0
LINE
  5
36D
100
AcDbEntity
  8
DRAFT
100
AcDbLine
 62
7
  6
CONTINUOUS
 10
154.8743470304
 20
183.8584560862
 11
154.8858916514
 21
180.8586346074
  0
LINE
  5
36E
100
AcDbEntity
  8
ASSI
100
AcDbLine
 62
7
  6
CONTINUOUS
 10
150.8039155888
 20
178.4101557788
 11
150.8039124405
 21
178.5227608737
  0
LINE
  5
36F
100
AcDbEntity
  8
0
100
AcDbLine
 62
7
  6
CONTINUOUS
 10
150.978366893
 20
178.622511516
 11
150.9783701163
 21
178.5072251765
  0
LINE
  5
370
100
AcDbEntity
  8
DRAFT
100
AcDbLine
 62
253
  6
CONTINUOUS
 10
156.0191575803
 20
178.8586662913
 11
156.0192837597
 21
175.8586662937
  0
LINE
  5
371
100
AcDbEntity
  8
DRAFT
100
AcDbLine
 62
7
  6
CONTINUOUS
 10
152.3685760451
 20
178.8585642256
 11
152.38251773
 21
179.6585646157
  0
LINE
  5
372
100
AcDbEntity
  8
RACCORDO
100
AcDbLine
 62
7
  6
CONTINUOUS
 10
152.5220219115
 20
179.658568516
 11
152.5258058942
 21
179.8672948251
  0
LINE
  5
373
100
AcDbEntity
  8
RACCORDO
100
AcDbLine
 62
7
  6
CONTINUOUS
 10
152.5236376058
 20
179.6585685612
 11
152.5274215885
 21
179.8672948703
  0
LINE
  5
374
100
AcDbEntity
  8
0
100
AcDbLine
 62
7
  6
CONTINUOUS
 10
162.3142443607
 20
180.3588422948
 11
162.2579843069
 21
179.6588407215
  0
LINE
  5
375
100
AcDbEntity
  8
0
100
AcDbLine
 62
7
  6
CONTINUOUS
 10
148.8853363962
 20
59.4728202596
 11
148.9041373642
 21
59.711043883
  0
LINE
  5
376
100
AcDbEntity
  8
0
100
AcDbLine
 62
7
  6
CONTINUOUS
 10
158.5586775814
 20
175.4838258493
 11
158.5643962677
 21
175.5474668936
  0
LINE
  5
377
100
AcDbEntity
  8
0
100
AcDbLine
 62
7
  6
CONTINUOUS
 10
158.5643962677
 20
175.5474668936
 11
158.5923569868
 21
175.8587382336
  0
LINE
  5
378
100
AcDbEntity
  8
0
100
AcDbLine
 62
7
  6
CONTINUOUS
 10
161.8781371506
 20
175.4839186573
 11
161.8838558368
 21
175.5475597016
  0
LINE
  5
379
100
AcDbEntity
  8
0
100
AcDbLine
 62
7
  6
CONTINUOUS
 10
161.8838558368
 20
175.5475597016
 11
161.9091720995
 21
175.8293847605
  0
LWPOLYLINE
  5
37A
100
AcDbEntity
  8
0
100
AcDbPolyline
 62
7
  6
CONTINUOUS
 90
3
 70
0
 10
163.5212090938
 20
178.4867839119
 10
163.5224258961
 20
178.4978936806
 10
163.5275298627
 20
178.5104449426
  0
LWPOLYLINE
  5
37B
100
AcDbEntity
  8
RACCORDO
100
AcDbPolyline
 62
7
  6
CONTINUOUS
 90
5
 70
0
 10
163.6103262981
 20
173.3410036797
 10
163.5896171418
 20
173.1623829144
 10
163.5434898931
 20
172.9985438917
 10
163.4719445519
 20
172.8494866116
 10
163.4329219081
 20
172.7959590573
  0
LINE
  5
37C
100
AcDbEntity
  8
0
100
AcDbLine
 62
7
  6
CONTINUOUS
 10
158.557407665
 20
175.4731076855
 11
158.5586775814
 21
175.4838258493
  0
LINE
  5
37D
100
AcDbEntity
  8
0
100
AcDbLine
 62
7
  6
CONTINUOUS
 10
161.8768672341
 20
175.4732004935
 11
161.8781371506
 21
175.4839186573
  0
LINE
  5
37E
100
AcDbEntity
  8
RACCORDO
100
AcDbLine
 62
7
  6
CONTINUOUS
 10
165.0360460582
 20
174.8189949463
 11
165.1011905402
 21
175.3060988669
  0
LWPOLYLINE
  5
37F
100
AcDbEntity
  8
RACCORDO
100
AcDbPolyline
 62
7
  6
CONTINUOUS
 90
6
 70
0
 10
166.0253745074
 20
175.3060988669
 10
165.95385307
 20
174.8140986015
 10
165.7931414226
 20
174.3317228601
 10
165.5441257914
 20
173.8730853665
 10
165.2076838285
 20
173.4525612702
 10
164.7913506567
 20
173.083669138
  0
LINE
  5
380
100
AcDbEntity
  8
RACCORDO
100
AcDbLine
 62
253
  6
CONTINUOUS
 10
212.8537409813
 20
184.5001427354
 11
213.0566238412
 21
184.7594381299
  0
LWPOLYLINE
  5
381
100
AcDbEntity
  8
SMUSSO
100
AcDbPolyline
 62
7
  6
CONTINUOUS
 90
5
 70
0
 10
192.8003577419
 20
157.4126836461
 10
192.5255553234
 20
157.0646628784
 10
192.1863788086
 20
156.7600907515
 10
191.796770506
 20
156.5107757568
 10
191.3700743829
 20
156.3232184469
  0
LINE
  5
382
100
AcDbEntity
  8
SMUSSO
100
AcDbLine
 62
7
  6
CONTINUOUS
 10
193.316926376
 20
157.4862154894
 11
192.988956877
 21
157.0924249392
  0
LWPOLYLINE
  5
383
100
AcDbEntity
  8
SMUSSO
100
AcDbPolyline
 62
7
  6
CONTINUOUS
 90
5
 70
0
 10
104.4189601551
 20
156.7364693121
 10
104.0122682998
 20
157.0924249392
 10
103.6842988008
 20
157.4862154894
 10
103.4471006433
 20
157.9072316774
 10
103.2885541369
 20
158.3663190981
  0
LINE
  5
384
100
AcDbEntity
  8
SMUSSO
100
AcDbLine
 62
253
  6
CONTINUOUS
 10
103.2086401545
 20
158.8635408045
 11
103.4988721362
 21
158.5774466408
  0
LWPOLYLINE
  5
385
100
AcDbEntity
  8
RACCORDO
100
AcDbPolyline
 62
253
  6
CONTINUOUS
 90
10
 70
0
 10
103.4863183911
 20
183.2885270969
 10
103.504491221
 20
183.2590495924
 10
103.5228792146
 20
183.2302872368
 10
103.5414526762
 20
183.2022400301
 10
103.5601539943
 20
183.1749297379
 10
103.5789797826
 20
183.1483345947
 10
103.5979752735
 20
183.1223893036
 10
103.6171002185
 20
183.0970744244
 10
103.6363164612
 20
183.0724093972
 10
103.6556595734
 20
183.0483872456
  0
LWPOLYLINE
  5
386
100
AcDbEntity
  8
RACCORDO
100
AcDbPolyline
 62
7
  6
CONTINUOUS
 90
5
 70
0
 10
131.9666972787
 20
174.8140282069
 10
132.1230677129
 20
174.331662658
 10
132.3682267066
 20
173.8731049451
 10
132.7011031802
 20
173.4527696615
 10
133.1142875772
 20
173.0840578931
  0
LWPOLYLINE
  5
387
100
AcDbEntity
  8
0
100
AcDbPolyline
 62
7
  6
CONTINUOUS
 90
20
 70
0
 10
138.4752125475
 20
175.4725099532
 10
138.4770618314
 20
175.4619028354
 10
138.4794855854
 20
175.4514429512
 10
138.4824963989
 20
175.4410987935
 10
138.4860816824
 20
175.4309018695
 10
138.4902036675
 20
175.420946701
 10
138.4948671679
 20
175.4112379968
 10
138.5000673699
 20
175.4017710482
 10
138.5057520639
 20
175.392626251
 10
138.5119240264
 20
175.3838085184
 10
138.5185804809
 20
175.3753129373
 10
138.5256608889
 20
175.3672051637
 10
138.5331665497
 20
175.3594894095
 10
138.541096164
 20
175.3521614628
 10
138.5493852953
 20
175.3452743439
 10
138.5580352708
 20
175.3388309348
 10
138.5670447634
 20
175.3328283535
 10
138.576345355
 20
175.3273109748
 10
138.5859142395
 20
175.3222935903
 10
138.5957637192
 20
175.3177662364
  0
LINE
  5
388
100
AcDbEntity
  8
0
100
AcDbLine
 62
7
  6
CONTINUOUS
 10
153.4402324636
 20
175.8585941866
 11
153.4739328331
 21
175.4836836861
  0
LINE
  5
389
100
AcDbEntity
  8
DRAFT
100
AcDbLine
 62
7
  6
CONTINUOUS
 10
159.6462100686
 20
179.8674939033
 11
159.7162947238
 21
175.8587696575
  0
LINE
  5
38A
100
AcDbEntity
  8
DRAFT
100
AcDbLine
 62
7
  6
CONTINUOUS
 10
162.9833052218
 20
178.8588610003
 11
162.9656696377
 21
179.8675867108
  0
LINE
  5
38B
100
AcDbEntity
  8
RACCORDO
100
AcDbLine
 62
7
  6
CONTINUOUS
 10
161.8630962798
 20
179.6588296809
 11
161.8598068342
 21
179.8675557923
  0
LINE
  5
38C
100
AcDbEntity
  8
RACCORDO
100
AcDbLine
 62
7
  6
CONTINUOUS
 10
162.8616967208
 20
179.6588576006
 11
162.8584072752
 21
179.8675837119
  0
LINE
  5
38D
100
AcDbEntity
  8
DRAFT
100
AcDbLine
 62
7
  6
CONTINUOUS
 10
159.082606858
 20
183.8584560862
 11
159.0988679097
 21
180.858752397
  0
LINE
  5
38E
100
AcDbEntity
  8
ASSI
100
AcDbLine
 62
7
  6
CONTINUOUS
 10
163.521432869
 20
178.4866917991
 11
163.5214359945
 21
178.3749051397
  0
LINE
  5
38F
100
AcDbEntity
  8
DRAFT
100
AcDbLine
 62
7
  6
CONTINUOUS
 10
158.7591857818
 20
183.8584560862
 11
158.7293010748
 21
180.8587420644
  0
LINE
  5
390
100
AcDbEntity
  8
DRAFT
100
AcDbLine
 62
253
  6
CONTINUOUS
 10
164.018777175
 20
183.8727050015
 11
163.8553929165
 21
173.0643870684
  0
LINE
  5
391
100
AcDbEntity
  8
DRAFT
100
AcDbLine
 62
7
  6
CONTINUOUS
 10
158.7573385241
 20
183.8584560862
 11
158.6964554045
 21
180.3648669195
  0
LINE
  5
392
100
AcDbEntity
  8
RACCORDO
100
AcDbLine
 62
7
  6
CONTINUOUS
 10
162.0035656447
 20
179.6563817084
 11
162.0245208948
 21
180.8588341947
  0
LINE
  5
393
100
AcDbEntity
  8
DRAFT
100
AcDbLine
 62
7
  6
CONTINUOUS
 10
162.0515337867
 20
182.4088349505
 11
162.003566515
 21
179.6563816924
  0
LINE
  5
394
100
AcDbEntity
  8
DRAFT
100
AcDbLine
 62
7
  6
CONTINUOUS
 10
163.5670297738
 20
173.3410036797
 11
163.7506125884
 21
183.8584560862
  0
LINE
  5
395
100
AcDbEntity
  8
RACCORDO
100
AcDbLine
 62
7
  6
CONTINUOUS
 10
166.4426947519
 20
183.8584560862
 11
166.0253745074
 21
175.3060988669
  0
LWPOLYLINE
  5
396
100
AcDbEntity
  8
RACCORDO
100
AcDbPolyline
 62
253
  6
CONTINUOUS
 90
7
 70
0
 10
193.5149066141
 20
183.2885258277
 10
193.5570555707
 20
183.3851500386
 10
193.5952670913
 20
183.48026022
 10
193.6297492991
 20
183.5738033935
 10
193.6607013686
 20
183.6657800397
 10
193.6883319216
 20
183.7560883557
 10
193.7128495027
 20
183.8445246157
  0
LINE
  5
397
100
AcDbEntity
  8
SMUSSO
100
AcDbLine
 62
7
  6
CONTINUOUS
 10
193.0051669515
 20
157.7913418151
 11
192.8003577419
 21
157.4126836461
  0
LINE
  5
398
100
AcDbEntity
  8
SMUSSO
100
AcDbLine
 62
7
  6
CONTINUOUS
 10
193.2841390422
 20
157.7018481156
 11
193.0581807234
 21
157.2921339988
  0
LINE
  5
399
100
AcDbEntity
  8
SMUSSO
100
AcDbLine
 62
7
  6
CONTINUOUS
 10
193.5541245335
 20
157.9072316774
 11
193.316926376
 21
157.4862154894
  0
LINE
  5
39A
100
AcDbEntity
  8
SMUSSO
100
AcDbLine
 62
7
  6
CONTINUOUS
 10
104.5074949905
 20
156.6719836452
 11
104.4189601551
 21
156.7364693121
  0
LINE
  5
39B
100
AcDbEntity
  8
DRAFT
100
AcDbLine
 62
7
  6
CONTINUOUS
 10
133.3817003026
 20
183.8400513926
 11
133.4598879823
 21
183.6504679298
  0
LINE
  5
39C
100
AcDbEntity
  8
DRAFT
100
AcDbLine
 62
7
  6
CONTINUOUS
 10
133.8733456982
 20
183.8400651384
 11
133.9482195188
 21
183.650481583
  0
LINE
  5
39D
100
AcDbEntity
  8
0
100
AcDbLine
 62
7
  6
CONTINUOUS
 10
153.4739328331
 20
175.4836836861
 11
153.4752033489
 21
175.4729655933
  0
LWPOLYLINE
  5
39E
100
AcDbEntity
  8
RACCORDO
100
AcDbPolyline
 62
7
  6
CONTINUOUS
 90
18
 70
0
 10
162.8584072752
 20
179.8675837119
 10
162.8562997209
 20
179.9093994357
 10
162.8509341564
 20
179.9507205314
 10
162.8423105815
 20
179.991546999
 10
162.8302922832
 20
180.032370193
 10
162.8150159746
 20
180.0726987588
 10
162.7968917951
 20
180.1110586329
 10
162.7758999508
 20
180.1471681491
 10
162.7520602356
 20
180.1813089734
 10
162.7258421704
 20
180.212852041
 10
162.6972849434
 20
180.2417519468
 10
162.6663493663
 20
180.2680540958
 10
162.6333873963
 20
180.2912656377
 10
162.5981071182
 20
180.3114371635
 10
162.5608004471
 20
180.3285180822
 10
162.5226950854
 20
180.3418637703
 10
162.4842002673
 20
180.3512593532
 10
162.4449067586
 20
180.3569197054
  0
LWPOLYLINE
  5
39F
100
AcDbEntity
  8
ASSI
100
AcDbPolyline
 62
7
  6
CONTINUOUS
 90
3
 70
0
 10
163.5212282974
 20
178.3749887406
 10
163.521279767
 20
178.3730515753
 10
163.5237585913
 20
178.3588761105
  0
LINE
  5
3A0
100
AcDbEntity
  8
RACCORDO
100
AcDbLine
 62
253
  6
CONTINUOUS
 10
213.0566238412
 20
184.7594381299
 11
213.2142308063
 21
185.048527522
  0
LWPOLYLINE
  5
3A1
100
AcDbEntity
  8
RACCORDO
100
AcDbPolyline
 62
253
  6
CONTINUOUS
 90
22
 70
0
 10
217.4622483594
 20
181.3005739753
 10
217.5149915716
 20
181.380429194
 10
217.5670858386
 20
181.4576347771
 10
217.6185318624
 20
181.5319631678
 10
217.6695707695
 20
181.6033291793
 10
217.7199640614
 20
181.6713706535
 10
217.7689986663
 20
181.7355186638
 10
217.8165726832
 20
181.7955499049
 10
217.8628055157
 20
181.8514607712
 10
217.9073221671
 20
181.9031097555
 10
217.9501057718
 20
181.9504269951
 10
217.9911941158
 20
181.9933617531
 10
218.0302960799
 20
182.0318482817
 10
218.0673946353
 20
182.0658792941
 10
218.1025304238
 20
182.0954532222
 10
218.1355003449
 20
182.1205620358
 10
218.1662614613
 20
182.1412317198
 10
218.1948823159
 20
182.1575508819
 10
218.2213267537
 20
182.1696135384
 10
218.245614754
 20
182.1774807034
 10
218.2677492388
 20
182.1812024042
 10
218.278361865
 20
182.1815248848
  0
LINE
  5
3A2
100
AcDbEntity
  8
SMUSSO
100
AcDbLine
 62
7
  6
CONTINUOUS
 10
104.8681319973
 20
156.4504943907
 11
104.5074949905
 21
156.6719836452
  0
LWPOLYLINE
  5
3A3
100
AcDbEntity
  8
0
100
AcDbPolyline
 62
7
  6
CONTINUOUS
 90
20
 70
0
 10
153.475207647
 20
175.4729293346
 10
153.4770569309
 20
175.4623222167
 10
153.4794806849
 20
175.4518623326
 10
153.4824914984
 20
175.4415181749
 10
153.4860767819
 20
175.4313212509
 10
153.490198767
 20
175.4213660824
 10
153.4948622674
 20
175.4116573782
 10
153.5000624694
 20
175.4021904295
 10
153.5057471634
 20
175.3930456323
 10
153.5119191259
 20
175.3842278998
 10
153.5185755804
 20
175.3757323187
 10
153.5256559884
 20
175.3676245451
 10
153.5331616492
 20
175.3599087909
 10
153.5410912635
 20
175.3525808442
 10
153.5493803948
 20
175.3456937253
 10
153.5580303703
 20
175.3392503162
 10
153.5670398629
 20
175.3332477349
 10
153.5763404545
 20
175.3277303562
 10
153.585909339
 20
175.3227129716
 10
153.5957588188
 20
175.3181856178
  0
LINE
  5
3A4
100
AcDbEntity
  8
SMUSSO
100
AcDbLine
 62
7
  6
CONTINUOUS
 10
193.432374922
 20
158.1343891361
 11
193.2841390422
 21
157.7018481156
  0
LWPOLYLINE
  5
3A5
100
AcDbEntity
  8
RACCORDO
100
AcDbPolyline
 62
7
  6
CONTINUOUS
 90
6
 70
0
 10
193.2938571303
 20
157.6735532396
 10
193.3532824414
 20
157.8251997622
 10
193.4017984063
 20
157.9744189962
 10
193.4404677408
 20
158.1216652356
 10
193.4699941511
 20
158.2667507027
 10
193.4909268012
 20
158.4087845845
  0
LWPOLYLINE
  5
3A6
100
AcDbEntity
  8
SMUSSO
100
AcDbPolyline
 62
7
  6
CONTINUOUS
 90
5
 70
0
 10
105.631150794
 20
156.3232184469
 10
105.2044546708
 20
156.5107757568
 10
104.8148463682
 20
156.7600907515
 10
104.4756698535
 20
157.0646628784
 10
104.2008674349
 20
157.4126836461
  0
LWPOLYLINE
  5
3A7
100
AcDbEntity
  8
RACCORDO
100
AcDbPolyline
 62
253
  6
CONTINUOUS
 90
3
 70
0
 10
84.6662863583
 20
184.0978981976
 10
84.3904198992
 20
184.2774558135
 10
84.1477110954
 20
184.4998972247
  0
LWPOLYLINE
  5
3A8
100
AcDbEntity
  8
RACCORDO
100
AcDbPolyline
 62
7
  6
CONTINUOUS
 90
4
 70
0
 10
133.568449652
 20
172.7957582626
 10
133.5292806249
 20
172.8494866116
 10
133.4577352838
 20
172.9985438917
 10
133.411608035
 20
173.1623829144
  0
LWPOLYLINE
  5
3A9
100
AcDbEntity
  8
RACCORDO
100
AcDbPolyline
 62
253
  6
CONTINUOUS
 90
31
 70
0
 10
217.4622483639
 20
48.1243216183
 10
217.5154115719
 20
48.0387460579
 10
217.5678334222
 20
47.9509394853
 10
217.6195154563
 20
47.8611501792
 10
217.6706698126
 20
47.7694967152
 10
217.7210889252
 20
47.6763666525
 10
217.7701491402
 20
47.5824359231
 10
217.8177788185
 20
47.4880797486
 10
217.8640658975
 20
47.3934702355
 10
217.9086310398
 20
47.2989915908
 10
217.9514594159
 20
47.2048992667
 10
217.9925861366
 20
47.1114453232
 10
218.0317090284
 20
47.0189975079
 10
218.0687960025
 20
46.927816251
 10
218.1039028734
 20
46.8380847675
 10
218.1368605769
 20
46.7500360109
 10
218.1676510325
 20
46.6638813474
 10
218.1963167891
 20
46.5797766785
 10
218.2227797253
 20
46.4978537396
 10
218.2470303206
 20
46.4182835303
 10
218.2691018514
 20
46.3411897931
 10
218.2889797077
 20
46.266622766
 10
218.3066644205
 20
46.1947144613
 10
218.3221776894
 20
46.1255693142
 10
218.3355357325
 20
46.0591954003
 10
218.3467442998
 20
45.9957105294
 10
218.3558182708
 20
45.9351894296
 10
218.3627866344
 20
45.877588216
 10
218.3676652954
 20
45.8229586164
 10
218.3704574398
 20
45.7714285317
 10
218.3711724787
 20
45.7230736235
  0
LWPOLYLINE
  5
3AA
100
AcDbEntity
  8
0
100
AcDbPolyline
 62
7
  6
CONTINUOUS
 90
3
 70
0
 10
163.5241890636
 20
178.4686257683
 10
163.5213041595
 20
178.4839345688
 10
163.5212090938
 20
178.4867839119
  0
LWPOLYLINE
  5
3AB
100
AcDbEntity
  8
SUPERFICI
100
AcDbPolyline
 62
253
  6
CONTINUOUS
 90
10
 70
0
 10
192.5407987438
 20
171.2551829144
 10
192.4756405994
 20
170.7990975338
 10
192.3366441944
 20
170.3584648839
 10
192.1273128688
 20
169.9443909062
 10
191.8529227214
 20
169.5673121432
 10
191.5203896286
 20
169.2367326898
 10
191.1380949325
 20
168.9609846478
 10
190.7156741935
 20
168.7470181184
 10
190.2637743301
 20
168.6002260289
 10
189.7937852688
 20
168.5243082056
  0
LWPOLYLINE
  5
3AC
100
AcDbEntity
  8
SMUSSO
100
AcDbPolyline
 62
7
  6
CONTINUOUS
 90
3
 70
0
 10
193.2026274598
 20
158.5979956291
 10
193.1394019036
 20
158.1901713906
 10
193.0051669515
 20
157.7913418151
  0
LINE
  5
3AD
100
AcDbEntity
  8
SMUSSO
100
AcDbLine
 62
7
  6
CONTINUOUS
 10
193.5023530402
 20
158.5774466409
 11
193.432374922
 21
158.1343891361
  0
LWPOLYLINE
  5
3AE
100
AcDbEntity
  8
SMUSSO
100
AcDbPolyline
 62
7
  6
CONTINUOUS
 90
3
 70
0
 10
193.7925850219
 20
158.8635408046
 10
193.7126710399
 20
158.3663190981
 10
193.5541245335
 20
157.9072316774
  0
LWPOLYLINE
  5
3AF
100
AcDbEntity
  8
RACCORDO
100
AcDbPolyline
 62
253
  6
CONTINUOUS
 90
10
 70
0
 10
193.5039281206
 20
158.5473261403
 10
193.496480823
 20
158.5091803039
 10
193.4747960007
 20
158.4731811018
 10
193.4396615551
 20
158.4406365376
 10
193.3923540694
 20
158.412729093
 10
193.3345924247
 20
158.3904727636
 10
193.268475346
 20
158.374676216
 10
193.1964051468
 20
158.3659134057
 10
193.1210004424
 20
158.3645027227
 10
193.0450010049
 20
158.370495423
  0
LWPOLYLINE
  5
3B0
100
AcDbEntity
  8
RACCORDO
100
AcDbPolyline
 62
253
  6
CONTINUOUS
 90
3
 70
0
 10
213.2142308063
 20
185.048527522
 10
213.3222892061
 20
185.359573798
 10
213.3778696147
 20
185.6841446007
  0
LWPOLYLINE
  5
3B1
100
AcDbEntity
  8
0
100
AcDbPolyline
 62
7
  6
CONTINUOUS
 90
3
 70
0
 10
207.4656416249
 20
157.2360980365
 10
207.4989130164
 20
157.3098497214
 10
207.5241202389
 20
157.3861292575
  0
LINE
  5
3B2
100
AcDbEntity
  8
SMUSSO
100
AcDbLine
 62
7
  6
CONTINUOUS
 10
191.3700743829
 20
156.3232184469
 11
190.9154972487
 21
156.2014870276
  0
LWPOLYLINE
  5
3B3
100
AcDbEntity
  8
SMUSSO
100
AcDbPolyline
 62
7
  6
CONTINUOUS
 90
3
 70
0
 10
191.6535133451
 20
156.2451825716
 10
191.1314029073
 20
156.1096712143
 10
190.5667311755
 20
156.0438483303
  0
LWPOLYLINE
  5
3B4
100
AcDbEntity
  8
SMUSSO
100
AcDbPolyline
 62
7
  6
CONTINUOUS
 90
3
 70
0
 10
105.8698222695
 20
156.1096712143
 10
105.3477118317
 20
156.2451825716
 10
104.8681319973
 20
156.4504943907
  0
LWPOLYLINE
  5
3B5
100
AcDbEntity
  8
RACCORDO
100
AcDbPolyline
 62
7
  6
CONTINUOUS
 90
6
 70
0
 10
132.2081729504
 20
173.0850796048
 10
131.7893584353
 20
173.4572035662
 10
131.4524775875
 20
173.8800414159
 10
131.20487868
 20
174.3384753401
 10
131.0459820706
 20
174.8185408362
 10
130.9758506694
 20
175.3060988669
  0
LWPOLYLINE
  5
3B6
100
AcDbEntity
  8
0
100
AcDbPolyline
 62
7
  6
CONTINUOUS
 90
13
 70
0
 10
137.9133206955
 20
175.1108607794
 10
137.9227311529
 20
175.0997630483
 10
137.9321443958
 20
175.0889210691
 10
137.9415603855
 20
175.0783348381
 10
137.9509775577
 20
175.0680040683
 10
137.9603973999
 20
175.0579290391
 10
137.969824445
 20
175.0481105953
 10
137.9792703015
 20
175.0385380911
 10
137.9887232613
 20
175.0292221625
 10
137.998152911
 20
175.0201955801
 10
138.0075714617
 20
175.0114523295
 10
138.0169666695
 20
175.0029984219
 10
138.025415617
 20
174.9956310415
  0
LWPOLYLINE
  5
3B7
100
AcDbEntity
  8
0
100
AcDbPolyline
 62
7
  6
CONTINUOUS
 90
13
 70
0
 10
141.2444940483
 20
175.1109539149
 10
141.2539045056
 20
175.0998561838
 10
141.2633177486
 20
175.0890142046
 10
141.2727337382
 20
175.0784279736
 10
141.2821509104
 20
175.0680972038
 10
141.2915707526
 20
175.0580221746
 10
141.3009977977
 20
175.0482037308
 10
141.3104436542
 20
175.0386312266
 10
141.3198966141
 20
175.029315298
 10
141.3293262637
 20
175.0202887156
 10
141.3387448144
 20
175.011545465
 10
141.3481400223
 20
175.0030915574
 10
141.3565889697
 20
174.995724177
  0
LINE
  5
3B8
100
AcDbEntity
  8
DRAFT
100
AcDbLine
 62
7
  6
CONTINUOUS
 10
150.173983272
 20
183.8405208841
 11
150.2623911102
 21
183.6509377071
  0
LINE
  5
3B9
100
AcDbEntity
  8
SMUSSO
100
AcDbLine
 62
253
  6
CONTINUOUS
 10
189.7937852688
 20
168.5243082056
 11
190.4448531834
 21
156.1484287376
  0
LWPOLYLINE
  5
3BA
100
AcDbEntity
  8
SUPERFICI
100
AcDbPolyline
 62
253
  6
CONTINUOUS
 90
10
 70
0
 10
189.7764707876
 20
171.2949105137
 10
189.7893614145
 20
170.8826677443
 10
189.7940651996
 20
170.4813603989
 10
189.7904917775
 20
170.0986976833
 10
189.7787097905
 20
169.7420306359
 10
189.7589455697
 20
169.4182109119
 10
189.7315787873
 20
169.1334591625
 10
189.6971351631
 20
168.8932455337
 10
189.6562763654
 20
168.7021845843
 10
189.6097873002
 20
168.5639466389
  0
LWPOLYLINE
  5
3BB
100
AcDbEntity
  8
RACCORDO
100
AcDbPolyline
 62
253
  6
CONTINUOUS
 90
12
 70
0
 10
192.8919498535
 20
171.3598131741
 10
192.8922095395
 20
171.2687936991
 10
192.8933310989
 20
171.194575123
 10
192.8953990847
 20
171.1431097997
 10
192.898497416
 20
171.1161125031
 10
192.902638695
 20
171.1118684595
 10
192.9077010098
 20
171.1311857015
 10
192.9136247355
 20
171.1759556094
 10
192.9203954755
 20
171.244286803
 10
192.9278602416
 20
171.3313131746
 10
192.9358998529
 20
171.4361663812
 10
192.9537517416
 20
171.6996972501
  0
LINE
  5
3BC
100
AcDbEntity
  8
0
100
AcDbLine
 62
253
  6
CONTINUOUS
 10
189.8672987273
 20
183.8584560862
 11
189.7764552549
 21
171.2949095394
  0
LINE
  5
3BD
100
AcDbEntity
  8
RACCORDO
100
AcDbLine
 62
253
  6
CONTINUOUS
 10
192.8926967059
 20
171.4924767439
 11
192.8919498535
 21
171.3598131741
  0
LINE
  5
3BE
100
AcDbEntity
  8
RACCORDO
100
AcDbLine
 62
7
  6
CONTINUOUS
 10
192.8927099112
 20
171.4939555307
 11
192.8926967059
 21
171.4924767439
  0
LINE
  5
3BF
100
AcDbEntity
  8
RACCORDO
100
AcDbLine
 62
7
  6
CONTINUOUS
 10
192.8927125454
 20
171.4946660749
 11
192.8932426399
 21
171.5376696804
  0
LWPOLYLINE
  5
3C0
100
AcDbEntity
  8
RACCORDO
100
AcDbPolyline
 62
253
  6
CONTINUOUS
 90
16
 70
0
 10
192.8738635213
 20
171.1498205584
 10
192.8718575068
 20
171.0131875591
 10
192.8707568459
 20
170.8897755123
 10
192.8706029055
 20
170.7807819405
 10
192.8717565712
 20
170.6932676058
 10
192.874327695
 20
170.6283615622
 10
192.878206425
 20
170.5849347557
 10
192.8834240916
 20
170.5666607872
 10
192.8900878868
 20
170.5755306784
 10
192.8980906186
 20
170.6095534075
 10
192.9071420412
 20
170.6664295102
 10
192.917218878
 20
170.7469287631
 10
192.9283444055
 20
170.8502813894
 10
192.9402982083
 20
170.971878594
 10
192.9530176596
 20
171.1107696441
 10
192.9809088522
 20
171.4415288823
  0
LINE
  5
3C1
100
AcDbEntity
  8
RACCORDO
100
AcDbLine
 62
7
  6
CONTINUOUS
 10
192.8932426399
 20
171.5376696804
 11
192.8971685352
 21
171.7434932635
  0
LINE
  5
3C2
100
AcDbEntity
  8
RACCORDO
100
AcDbLine
 62
253
  6
CONTINUOUS
 10
192.880478926
 20
171.462873787
 11
192.8738635213
 21
171.1498205584
  0
LINE
  5
3C3
100
AcDbEntity
  8
RACCORDO
100
AcDbLine
 62
7
  6
CONTINUOUS
 10
192.8971685352
 20
171.7434932635
 11
192.9047023072
 21
172.0420093539
  0
LINE
  5
3C4
100
AcDbEntity
  8
RACCORDO
100
AcDbLine
 62
253
  6
CONTINUOUS
 10
192.8898267474
 20
171.8175174541
 11
192.880478926
 21
171.462873787
  0
LINE
  5
3C5
100
AcDbEntity
  8
RACCORDO
100
AcDbLine
 62
7
  6
CONTINUOUS
 10
192.9047023072
 20
172.0420093539
 11
192.9152804483
 21
172.4023344979
  0
LINE
  5
3C6
100
AcDbEntity
  8
RACCORDO
100
AcDbLine
 62
253
  6
CONTINUOUS
 10
192.9017900189
 20
172.2159632454
 11
192.8898267474
 21
171.8175174541
  0
LINE
  5
3C7
100
AcDbEntity
  8
RACCORDO
100
AcDbLine
 62
7
  6
CONTINUOUS
 10
192.9152804483
 20
172.4023344979
 11
192.9283967897
 21
172.8089005889
  0
LINE
  5
3C8
100
AcDbEntity
  8
RACCORDO
100
AcDbLine
 62
253
  6
CONTINUOUS
 10
192.9242521617
 20
172.8910795084
 11
192.9017900189
 21
172.2159632454
  0
LINE
  5
3C9
100
AcDbEntity
  8
RACCORDO
100
AcDbLine
 62
7
  6
CONTINUOUS
 10
192.9283967897
 20
172.8089005889
 11
192.9529035144
 21
173.510827823
  0
LINE
  5
3CA
100
AcDbEntity
  8
RACCORDO
100
AcDbLine
 62
253
  6
CONTINUOUS
 10
192.9611821122
 20
173.9062066526
 11
192.9242521617
 21
172.8910795084
  0
LINE
  5
3CB
100
AcDbEntity
  8
RACCORDO
100
AcDbLine
 62
7
  6
CONTINUOUS
 10
192.9529035144
 20
173.510827823
 11
192.9841908655
 21
174.3497353146
  0
LINE
  5
3CC
100
AcDbEntity
  8
RACCORDO
100
AcDbLine
 62
7
  6
CONTINUOUS
 10
192.9841908655
 20
174.3497353146
 11
193.0230691351
 21
175.3428758411
  0
LINE
  5
3CD
100
AcDbEntity
  8
RACCORDO
100
AcDbLine
 62
253
  6
CONTINUOUS
 10
193.0151871985
 20
175.2915733952
 11
192.9611821122
 21
173.9062066526
  0
LINE
  5
3CE
100
AcDbEntity
  8
RACCORDO
100
AcDbLine
 62
7
  6
CONTINUOUS
 10
193.0230691351
 20
175.3428758411
 11
193.0682329478
 21
176.4549941218
  0
LINE
  5
3CF
100
AcDbEntity
  8
RACCORDO
100
AcDbLine
 62
253
  6
CONTINUOUS
 10
193.1048560933
 20
177.4659422568
 11
193.0151871985
 21
175.2915733952
  0
LINE
  5
3D0
100
AcDbEntity
  8
RACCORDO
100
AcDbLine
 62
7
  6
CONTINUOUS
 10
193.0682329478
 20
176.4549941218
 11
193.1194022659
 21
177.6798201537
  0
LINE
  5
3D1
100
AcDbEntity
  8
RACCORDO
100
AcDbLine
 62
7
  6
CONTINUOUS
 10
193.1194022659
 20
177.6798201537
 11
193.1779096501
 21
179.0487794152
  0
LINE
  5
3D2
100
AcDbEntity
  8
RACCORDO
100
AcDbLine
 62
253
  6
CONTINUOUS
 10
193.2168507038
 20
180.0682527947
 11
193.1048560933
 21
177.4659422568
  0
LINE
  5
3D3
100
AcDbEntity
  8
RACCORDO
100
AcDbLine
 62
7
  6
CONTINUOUS
 10
193.1779096501
 20
179.0487794152
 11
193.2451389499
 21
180.5921187488
  0
LINE
  5
3D4
100
AcDbEntity
  8
RACCORDO
100
AcDbLine
 62
7
  6
CONTINUOUS
 10
193.2451389499
 20
180.5921187488
 11
193.3230192075
 21
182.3508406243
  0
LINE
  5
3D5
100
AcDbEntity
  8
RACCORDO
100
AcDbLine
 62
253
  6
CONTINUOUS
 10
193.3593590565
 20
183.2791362744
 11
193.2168507038
 21
180.0682527947
  0
LINE
  5
3D6
100
AcDbEntity
  8
RACCORDO
100
AcDbLine
 62
7
  6
CONTINUOUS
 10
193.3230192075
 20
182.3508406243
 11
193.3826001168
 21
183.6800473338
  0
LINE
  5
3D7
100
AcDbEntity
  8
RACCORDO
100
AcDbLine
 62
253
  6
CONTINUOUS
 10
193.3854458782
 20
183.8584560862
 11
193.3593590565
 21
183.2791362744
  0
LINE
  5
3D8
100
AcDbEntity
  8
RACCORDO
100
AcDbLine
 62
253
  6
CONTINUOUS
 10
193.2813107666
 20
178.1705617815
 11
193.5149067323
 21
183.2885263337
  0
LINE
  5
3D9
100
AcDbEntity
  8
RACCORDO
100
AcDbLine
 62
253
  6
CONTINUOUS
 10
193.1432363709
 20
175.2694524112
 11
193.2813107666
 21
178.1705617815
  0
LINE
  5
3DA
100
AcDbEntity
  8
RACCORDO
100
AcDbLine
 62
253
  6
CONTINUOUS
 10
193.0598629845
 20
173.6030701429
 11
193.1432363709
 21
175.2694524112
  0
LINE
  5
3DB
100
AcDbEntity
  8
0
100
AcDbLine
 62
253
  6
CONTINUOUS
 10
193.2010509
 20
183.8584560862
 11
192.540799107
 21
171.2551759671
  0
LINE
  5
3DC
100
AcDbEntity
  8
RACCORDO
100
AcDbLine
 62
253
  6
CONTINUOUS
 10
193.0084542567
 20
172.6344876762
 11
193.0598629845
 21
173.6030701429
  0
LINE
  5
3DD
100
AcDbEntity
  8
RACCORDO
100
AcDbLine
 62
253
  6
CONTINUOUS
 10
192.9740110936
 20
172.0288356043
 11
193.0084542567
 21
172.6344876762
  0
LINE
  5
3DE
100
AcDbEntity
  8
RACCORDO
100
AcDbLine
 62
253
  6
CONTINUOUS
 10
193.5332471216
 20
179.8285841881
 11
193.7764091851
 21
183.8584560862
  0
LINE
  5
3DF
100
AcDbEntity
  8
RACCORDO
100
AcDbLine
 62
253
  6
CONTINUOUS
 10
193.363166141
 20
177.0822621939
 11
193.5332471216
 21
179.8285841881
  0
LINE
  5
3E0
100
AcDbEntity
  8
RACCORDO
100
AcDbLine
 62
253
  6
CONTINUOUS
 10
192.9537517416
 20
171.6996972501
 11
192.9740110936
 21
172.0288356043
  0
LINE
  5
3E1
100
AcDbEntity
  8
RACCORDO
100
AcDbLine
 62
253
  6
CONTINUOUS
 10
193.2362900286
 20
175.0944172756
 11
193.363166141
 21
177.0822621939
  0
LINE
  5
3E2
100
AcDbEntity
  8
RACCORDO
100
AcDbLine
 62
253
  6
CONTINUOUS
 10
193.1573063942
 20
173.8967495302
 11
193.2362900286
 21
175.0944172756
  0
LINE
  5
3E3
100
AcDbEntity
  8
RACCORDO
100
AcDbLine
 62
253
  6
CONTINUOUS
 10
193.1002282284
 20
173.059280216
 11
193.1573063942
 21
173.8967495302
  0
LINE
  5
3E4
100
AcDbEntity
  8
SMUSSO
100
AcDbLine
 62
7
  6
CONTINUOUS
 10
194.9429502554
 20
183.8584560862
 11
193.2026274598
 21
158.5979956294
  0
LINE
  5
3E5
100
AcDbEntity
  8
SMUSSO
100
AcDbLine
 62
7
  6
CONTINUOUS
 10
195.2442446255
 20
183.8584560862
 11
193.5023530402
 21
158.5774466409
  0
LINE
  5
3E6
100
AcDbEntity
  8
RACCORDO
100
AcDbLine
 62
7
  6
CONTINUOUS
 10
193.5039281206
 20
158.5473261403
 11
195.2477843221
 21
183.8584560862
  0
LINE
  5
3E7
100
AcDbEntity
  8
SMUSSO
100
AcDbLine
 62
7
  6
CONTINUOUS
 10
195.5182324134
 20
183.8584560862
 11
193.7925850219
 21
158.8635408046
  0
LINE
  5
3E8
100
AcDbEntity
  8
RACCORDO
100
AcDbLine
 62
253
  6
CONTINUOUS
 10
193.0458672645
 20
172.293118571
 11
193.1002282284
 21
173.059280216
  0
LINE
  5
3E9
100
AcDbEntity
  8
RACCORDO
100
AcDbLine
 62
253
  6
CONTINUOUS
 10
193.0120974127
 20
171.8393427174
 11
193.0458672645
 21
172.293118571
  0
LINE
  5
3EA
100
AcDbEntity
  8
RACCORDO
100
AcDbLine
 62
253
  6
CONTINUOUS
 10
192.9809088522
 20
171.4415288823
 11
193.0120974127
 21
171.8393427174
  0
LINE
  5
3EB
100
AcDbEntity
  8
RACCORDO
100
AcDbLine
 62
7
  6
CONTINUOUS
 10
193.4909268012
 20
158.4087845845
 11
193.5039281206
 21
158.5473261403
  0
LINE
  5
3EC
100
AcDbEntity
  8
SMUSSO
100
AcDbLine
 62
7
  6
CONTINUOUS
 10
190.9154972487
 20
156.2014870276
 11
190.4448531837
 21
156.1484287376
  0
LWPOLYLINE
  5
3ED
100
AcDbEntity
  8
SMUSSO
100
AcDbPolyline
 62
7
  6
CONTINUOUS
 90
3
 70
0
 10
106.5563719931
 20
156.1484287376
 10
106.0857279281
 20
156.2014870276
 10
105.631150794
 20
156.3232184469
  0
LINE
  5
3EE
100
AcDbEntity
  8
SMUSSO
100
AcDbLine
 62
7
  6
CONTINUOUS
 10
106.4344940013
 20
156.0438483303
 11
105.8698222695
 21
156.1096712143
  0
LINE
  5
3EF
100
AcDbEntity
  8
RACCORDO
100
AcDbLine
 62
253
  6
CONTINUOUS
 10
84.9678182577
 20
183.9660761608
 11
84.6662863583
 21
184.0978981976
  0
LWPOLYLINE
  5
3F0
100
AcDbEntity
  8
RACCORDO
100
AcDbPolyline
 62
253
  6
CONTINUOUS
 90
27
 70
0
 10
79.5389768129
 20
181.3005740195
 10
79.4434478044
 20
181.3432806021
 10
79.3485330014
 20
181.3830319176
 10
79.2544992073
 20
181.4198521786
 10
79.1614834317
 20
181.4539371304
 10
79.0698746298
 20
181.4851536353
 10
78.9802931049
 20
181.5130727602
 10
78.8930496829
 20
181.537725422
 10
78.8082670139
 20
181.559250363
 10
78.7262394883
 20
181.577425331
 10
78.647142261
 20
181.5923284671
 10
78.5711415702
 20
181.6040855304
 10
78.4984791
 20
181.6125654875
 10
78.4293006077
 20
181.6178545774
 10
78.363688857
 20
181.620098516
 10
78.3017547426
 20
181.619265898
 10
78.2435878187
 20
181.6154556251
 10
78.189231167
 20
181.6088039257
 10
78.1387063147
 20
181.5993340215
 10
78.0920593089
 20
181.5871470929
 10
78.0493046685
 20
181.5723663247
 10
78.0104139531
 20
181.5550404768
 10
77.9754000639
 20
181.5352666427
 10
77.9442635518
 20
181.5131551928
 10
77.9169653213
 20
181.4887663147
 10
77.8935095196
 20
181.4622082555
 10
77.8738662804
 20
181.4335646887
  0
LWPOLYLINE
  5
3F1
100
AcDbEntity
  8
RACCORDO
100
AcDbPolyline
 62
253
  6
CONTINUOUS
 90
10
 70
0
 10
94.886480706
 20
183.8584560862
 10
94.8306923815
 20
183.8855239813
 10
94.7764037205
 20
183.9660172667
 10
94.7250861621
 20
184.0977889057
 10
94.67813127
 20
184.2773042627
 10
94.6368158656
 20
184.4997239476
 10
94.6022659451
 20
184.7590246781
 10
94.5754222036
 20
185.0481818237
 10
94.5570156513
 20
185.359367248
 10
94.5475496193
 20
185.6841441263
  0
LWPOLYLINE
  5
3F2
100
AcDbEntity
  8
0
100
AcDbPolyline
 62
7
  6
CONTINUOUS
 90
3
 70
0
 10
138.0354638561
 20
174.9871280452
 10
138.0445659851
 20
174.9797115909
 10
138.0535780035
 20
174.9726353216
  0
LINE
  5
3F3
100
AcDbEntity
  8
0
100
AcDbLine
 62
7
  6
CONTINUOUS
 10
138.025415617
 20
174.9956310415
 11
138.0354638561
 21
174.9871280452
  0
LINE
  5
3F4
100
AcDbEntity
  8
0
100
AcDbLine
 62
7
  6
CONTINUOUS
 10
144.5171063294
 20
175.858344707
 11
145.5163261143
 21
174.8583726435
  0
LWPOLYLINE
  5
3F5
100
AcDbEntity
  8
RACCORDO
100
AcDbPolyline
 62
253
  6
CONTINUOUS
 90
10
 70
0
 10
198.8350414917
 20
81.575283624
 10
198.7599559945
 20
81.790274434
 10
198.6232702044
 20
81.9975416381
 10
198.4278779326
 20
82.1926975926
 10
198.177915751
 20
82.3716110631
 10
197.8786753541
 20
82.5304947181
 10
197.5364914898
 20
82.6659852823
 10
197.158607951
 20
82.7752146761
 10
196.75302426
 20
82.8558707429
 10
196.3283262386
 20
82.9062462186
  0
LWPOLYLINE
  5
3F6
100
AcDbEntity
  8
RACCORDO
100
AcDbPolyline
 62
253
  6
CONTINUOUS
 90
10
 70
0
 10
195.4832154445
 20
78.553227167
 10
195.822981002
 20
76.6075028501
 10
196.1379841699
 20
74.6599606301
 10
196.4282113376
 20
72.7105927668
 10
196.6936388106
 20
70.759367864
 10
196.9342628036
 20
68.8063035841
 10
197.1500994528
 20
66.8514666572
 10
197.3411448182
 20
64.8948759259
 10
197.5073748688
 20
62.9365023387
 10
197.6487754862
 20
60.9763416701
  0
LWPOLYLINE
  5
3F7
100
AcDbEntity
  8
RACCORDO
100
AcDbPolyline
 62
253
  6
CONTINUOUS
 90
10
 70
0
 10
198.8350414917
 20
81.5752836453
 10
199.1747046438
 20
79.622358067
 10
199.4896253941
 20
77.6674562656
 10
199.7797923665
 20
75.7106655679
 10
200.0451860253
 20
73.7521485708
 10
200.2858086923
 20
71.7919174585
 10
200.501675354
 20
69.8298336837
 10
200.6927779209
 20
67.8659090725
 10
200.8590944221
 20
65.9003061345
 10
201.0006125882
 20
63.9331121605
  0
LWPOLYLINE
  5
3F8
100
AcDbEntity
  8
RACCORDO
100
AcDbPolyline
 62
253
  6
CONTINUOUS
 90
6
 70
0
 10
203.857705762
 20
59.8890468659
 10
203.8567342333
 20
59.9062483894
 10
203.8556861499
 20
59.9222201601
 10
203.8545725171
 20
59.93679447
 10
203.8534050282
 20
59.9498182846
 10
203.8521959422
 20
59.9611548503
  0
LINE
  5
3F9
100
AcDbEntity
  8
SMUSSO
100
AcDbLine
 62
253
  6
CONTINUOUS
 10
192.540799107
 20
171.2551759671
 11
193.2026274598
 21
158.5979956294
  0
LWPOLYLINE
  5
3FA
100
AcDbEntity
  8
RACCORDO
100
AcDbPolyline
 62
253
  6
CONTINUOUS
 90
6
 70
0
 10
193.5149070863
 20
183.2885258108
 10
193.512334198
 20
183.38692229
 10
193.5150575184
 20
183.4850069833
 10
193.5230697183
 20
183.5825159134
 10
193.5363492342
 20
183.6791866527
 10
193.5548603268
 20
183.7747590295
  0
LINE
  5
3FB
100
AcDbEntity
  8
0
100
AcDbLine
 62
7
  6
CONTINUOUS
 10
194.7397212846
 20
192.6659551287
 11
194.7397212846
 21
191.8584560862
  0
LINE
  5
3FC
100
AcDbEntity
  8
RACCORDO
100
AcDbLine
 62
253
  6
CONTINUOUS
 10
196.3283266458
 20
183.8584560862
 11
196.3283262386
 21
82.9062462186
  0
LINE
  5
3FD
100
AcDbEntity
  8
RACCORDO
100
AcDbLine
 62
253
  6
CONTINUOUS
 10
198.8350414797
 20
183.8584560862
 11
198.8350414917
 21
81.5752836453
  0
LINE
  5
3FE
100
AcDbEntity
  8
RACCORDO
100
AcDbLine
 62
7
  6
CONTINUOUS
 10
201.0006125882
 20
63.9331121605
 11
201.0006125881
 21
174.8094504944
  0
LWPOLYLINE
  5
3FF
100
AcDbEntity
  8
RACCORDO
100
AcDbPolyline
 62
253
  6
CONTINUOUS
 90
19
 70
0
 10
196.3283262386
 20
82.9062462186
 10
196.3270400488
 20
82.8728418861
 10
196.3223599624
 20
82.8397791189
 10
196.3142859533
 20
82.8070578365
 10
196.302831861
 20
82.7743342068
 10
196.2879837378
 20
82.7419517268
 10
196.2696998479
 20
82.7109412182
 10
196.2478294228
 20
82.6813469541
 10
196.2225230024
 20
82.6531239526
 10
196.1941908011
 20
82.6271691128
 10
196.1626901121
 20
82.6035552066
 10
196.1281633428
 20
82.582208531
 10
196.09144842
 20
82.5638064022
 10
196.0524666656
 20
82.5484670041
 10
196.0112964863
 20
82.536071304
 10
195.9690115427
 20
82.5269411261
 10
195.925969703
 20
82.521183684
 10
195.881812963
 20
82.5186913341
 10
195.8365412442
 20
82.5194638272
  0
LWPOLYLINE
  5
400
100
AcDbEntity
  8
RACCORDO
100
AcDbPolyline
 62
253
  6
CONTINUOUS
 90
19
 70
0
 10
198.8350407101
 20
81.5752834812
 10
198.8233470332
 20
81.3513338003
 10
198.7904574994
 20
81.123719825
 10
198.7353420778
 20
80.8938776994
 10
198.6569129127
 20
80.6628674078
 10
198.554544866
 20
80.4329892036
 10
198.4285923504
 20
80.2076483948
 10
198.2792577058
 20
79.9888492402
 10
198.1067973397
 20
79.7783292098
 10
197.9126917713
 20
79.5789031645
 10
197.6979450877
 20
79.3923335946
 10
197.4638231314
 20
79.2203436065
 10
197.2130353055
 20
79.0652389271
 10
196.9474952518
 20
78.9283898518
 10
196.6690896801
 20
78.8109161307
 10
196.3810627677
 20
78.7140949565
 10
196.0860721311
 20
78.6386290035
 10
195.7860239066
 20
78.5849006649
 10
195.4832154709
 20
78.5532261215
  0
LINE
  5
401
100
AcDbEntity
  8
RACCORDO
100
AcDbLine
 62
253
  6
CONTINUOUS
 10
203.8577057523
 20
177.4935971412
 11
203.8545725087
 21
177.4365866794
  0
LINE
  5
402
100
AcDbEntity
  8
RACCORDO
100
AcDbLine
 62
253
  6
CONTINUOUS
 10
203.8545725087
 20
177.4365866794
 11
203.8497040302
 21
177.3552987091
  0
LINE
  5
403
100
AcDbEntity
  8
RACCORDO
100
AcDbLine
 62
253
  6
CONTINUOUS
 10
203.8497040302
 20
177.3552987091
 11
203.8459785846
 21
177.2977910688
  0
LINE
  5
404
100
AcDbEntity
  8
RACCORDO
100
AcDbLine
 62
253
  6
CONTINUOUS
 10
203.8459785846
 20
177.2977910688
 11
203.8425782888
 21
177.249282029
  0
LINE
  5
405
100
AcDbEntity
  8
RACCORDO
100
AcDbLine
 62
253
  6
CONTINUOUS
 10
203.8425782888
 20
177.249282029
 11
203.840651834
 21
177.2242382945
  0
LINE
  5
406
100
AcDbEntity
  8
RACCORDO
100
AcDbLine
 62
253
  6
CONTINUOUS
 10
202.8023991934
 20
189.6841446007
 11
202.4536762556
 21
185.6841446007
  0
LWPOLYLINE
  5
407
100
AcDbEntity
  8
0
100
AcDbPolyline
 62
7
  6
CONTINUOUS
 90
4
 70
0
 10
207.5241202389
 20
157.3861292575
 10
207.5410471413
 20
157.4642834797
 10
207.5495481511
 20
157.543648359
 10
207.5506125884
 20
157.5835728222
  0
LWPOLYLINE
  5
408
100
AcDbEntity
  8
RACCORDO
100
AcDbPolyline
 62
253
  6
CONTINUOUS
 90
10
 70
0
 10
195.4832221275
 20
78.5532340791
 10
195.5585897075
 20
78.8641575756
 10
195.6285739786
 20
79.2349744788
 10
195.6912469683
 20
79.6554692772
 10
195.7448821202
 20
80.1140578999
 10
195.7880018581
 20
80.5981068416
 10
195.8194182915
 20
81.0942811995
 10
195.8382659405
 20
81.5889120316
 10
195.8440255782
 20
82.0683729178
 10
195.8365385352
 20
82.5194553501
  0
LWPOLYLINE
  5
409
100
AcDbEntity
  8
0
100
AcDbPolyline
 62
7
  6
CONTINUOUS
 90
3
 70
0
 10
207.4656416249
 20
118.2649548662
 10
207.4989130164
 20
118.3387065511
 10
207.5241202389
 20
118.4149860872
  0
LWPOLYLINE
  5
40A
100
AcDbEntity
  8
SMUSSO
100
AcDbPolyline
 62
7
  6
CONTINUOUS
 90
9
 70
0
 10
190.5667311755
 20
156.0438483303
 10
181.2708377677
 20
155.7339578711
 10
171.9381920469
 20
155.5023942878
 10
162.5778635596
 20
155.3485046934
 10
153.1957253433
 20
155.2718033339
 10
143.8041858825
 20
155.2717939926
 10
134.4221802194
 20
155.348479066
 10
125.0621160633
 20
155.5023604766
 10
115.7298649099
 20
155.7339305767
  0
LWPOLYLINE
  5
40B
100
AcDbEntity
  8
SMUSSO
100
AcDbPolyline
 62
7
  6
CONTINUOUS
 90
10
 70
0
 10
190.4448531834
 20
156.1484287376
 10
181.1720815512
 20
155.8390028262
 10
171.8694999917
 20
155.6058367672
 10
162.5418952555
 20
155.4496239212
 10
153.1854393265
 20
155.3709779074
 10
143.813654296
 20
155.3709868428
 10
134.4574125278
 20
155.4496526305
 10
125.1302354378
 20
155.6058807699
 10
115.8282936745
 20
155.8390410691
 10
106.5563719935
 20
156.1484287376
  0
LINE
  5
40C
100
AcDbEntity
  8
SMUSSO
100
AcDbLine
 62
7
  6
CONTINUOUS
 10
115.7298649099
 20
155.7339305767
 11
106.4344940013
 21
156.0438483303
  0
LINE
  5
40D
100
AcDbEntity
  8
RACCORDO
100
AcDbLine
 62
7
  6
CONTINUOUS
 10
133.1142875772
 20
173.0840578931
 11
133.5944040589
 21
172.7792825454
  0
LWPOLYLINE
  5
40E
100
AcDbEntity
  8
0
100
AcDbPolyline
 62
7
  6
CONTINUOUS
 90
3
 70
0
 10
141.3666372088
 20
174.9872211807
 10
141.3757393379
 20
174.9798047264
 10
141.3847513562
 20
174.9727284571
  0
LINE
  5
40F
100
AcDbEntity
  8
0
100
AcDbLine
 62
7
  6
CONTINUOUS
 10
141.3565889697
 20
174.995724177
 11
141.3666372088
 21
174.9872211807
  0
LWPOLYLINE
  5
410
100
AcDbEntity
  8
0
100
AcDbPolyline
 62
7
  6
CONTINUOUS
 90
13
 70
0
 10
156.2444891478
 20
175.1113732963
 10
156.2538996051
 20
175.1002755651
 10
156.2633128481
 20
175.089433586
 10
156.2727288378
 20
175.0788473549
 10
156.2821460099
 20
175.0685165852
 10
156.2915658521
 20
175.0584415559
 10
156.3009928972
 20
175.0486231122
 10
156.3104387537
 20
175.039050608
 10
156.3198917136
 20
175.0297346793
 10
156.3293213632
 20
175.020708097
 10
156.338739914
 20
175.0119648464
 10
156.3481351218
 20
175.0035109388
 10
156.3565840692
 20
174.9961435584
  0
LWPOLYLINE
  5
411
100
AcDbEntity
  8
0
100
AcDbPolyline
 62
7
  6
CONTINUOUS
 90
13
 70
0
 10
159.5639487169
 20
175.1114661043
 10
159.5733591742
 20
175.1003683731
 10
159.5827724172
 20
175.0895263939
 10
159.5921884069
 20
175.0789401629
 10
159.601605579
 20
175.0686093932
 10
159.6110254212
 20
175.0585343639
 10
159.6204524663
 20
175.0487159202
 10
159.6298983228
 20
175.039143416
 10
159.6393512827
 20
175.0298274873
 10
159.6487809323
 20
175.020800905
 10
159.6581994831
 20
175.0120576544
 10
159.6675946909
 20
175.0036037468
 10
159.6760436384
 20
174.9962363664
  0
LWPOLYLINE
  5
412
100
AcDbEntity
  8
RACCORDO
100
AcDbPolyline
 62
253
  6
CONTINUOUS
 90
7
 70
0
 10
203.8521959422
 20
59.9611548503
 10
203.850957955
 20
59.9706851299
 10
203.8497040656
 20
59.9783090527
 10
203.8484474403
 20
59.9839465654
 10
203.847201274
 20
59.9875384725
 10
203.8459786518
 20
59.989047058
 10
203.8457027602
 20
59.9890972475
  0
LINE
  5
413
100
AcDbEntity
  8
RACCORDO
100
AcDbLine
 62
7
  6
CONTINUOUS
 10
200.9378090484
 20
175.6003098519
 11
200.7945176839
 21
177.0725495292
  0
LWPOLYLINE
  5
414
100
AcDbEntity
  8
RACCORDO
100
AcDbPolyline
 62
253
  6
CONTINUOUS
 90
3
 70
0
 10
201.0006125881
 20
174.8094504944
 10
200.8855191502
 20
176.0920850909
 10
200.7535100463
 20
177.3749657038
  0
LINE
  5
415
100
AcDbEntity
  8
RACCORDO
100
AcDbLine
 62
7
  6
CONTINUOUS
 10
200.9954204709
 20
174.9344091791
 11
200.9378090484
 21
175.6003098519
  0
LINE
  5
416
100
AcDbEntity
  8
RACCORDO
100
AcDbLine
 62
7
  6
CONTINUOUS
 10
200.9919599691
 20
174.934212785
 11
201.0006125878
 21
174.8094504929
  0
LINE
  5
417
100
AcDbEntity
  8
RACCORDO
100
AcDbLine
 62
253
  6
CONTINUOUS
 10
203.6473621431
 20
60.2243763928
 11
203.6555910803
 21
59.9826260385
  0
LINE
  5
418
100
AcDbEntity
  8
RACCORDO
100
AcDbLine
 62
253
  6
CONTINUOUS
 10
207.4818509269
 20
63.1228513236
 11
207.5006125884
 21
62.5699069775
  0
LWPOLYLINE
  5
419
100
AcDbEntity
  8
0
100
AcDbPolyline
 62
7
  6
CONTINUOUS
 90
6
 70
0
 10
207.5506125884
 20
79.6412864816
 10
207.5495481514
 20
79.681257099
 10
207.5410471422
 20
79.7609912535
 10
207.52412024
 20
79.8398840259
 10
207.4989130172
 20
79.9172713874
 10
207.4656416249
 20
79.9925001726
  0
LWPOLYLINE
  5
41A
100
AcDbEntity
  8
0
100
AcDbPolyline
 62
7
  6
CONTINUOUS
 90
6
 70
0
 10
207.5506125884
 20
118.6124296519
 10
207.5495481514
 20
118.6524002693
 10
207.5410471422
 20
118.7321344238
 10
207.52412024
 20
118.8110271962
 10
207.4989130172
 20
118.8884145577
 10
207.4656416249
 20
118.9636433429
  0
LINE
  5
41B
100
AcDbEntity
  8
0
100
AcDbLine
 62
7
  6
CONTINUOUS
 10
206.7397212846
 20
192.6659551287
 11
206.7397212846
 21
191.8584560862
  0
LINE
  5
41C
100
AcDbEntity
  8
0
100
AcDbLine
 62
7
  6
CONTINUOUS
 10
207.4656416249
 20
63.6005724421
 11
207.4656416249
 21
79.2938116959
  0
LINE
  5
41D
100
AcDbEntity
  8
0
100
AcDbLine
 62
7
  6
CONTINUOUS
 10
207.4656416249
 20
79.9925001726
 11
207.4656416249
 21
118.2649548662
  0
LINE
  5
41E
100
AcDbEntity
  8
0
100
AcDbLine
 62
7
  6
CONTINUOUS
 10
207.4656416249
 20
118.9636433429
 11
207.4656416249
 21
157.2360980365
  0
LINE
  5
41F
100
AcDbEntity
  8
0
100
AcDbLine
 62
7
  6
CONTINUOUS
 10
207.4656416249
 20
157.9347865132
 11
207.4656416249
 21
173.6280257698
  0
LINE
  5
420
100
AcDbEntity
  8
RACCORDO
100
AcDbLine
 62
7
  6
CONTINUOUS
 10
207.5006125884
 20
63.1285123118
 11
207.5006125884
 21
62.5699069775
  0
LINE
  5
421
100
AcDbEntity
  8
ASSI
100
AcDbLine
 62
7
  6
CONTINUOUS
 10
207.5506125884
 20
157.5837805395
 11
207.5506125884
 21
157.2360980365
  0
LINE
  5
422
100
AcDbEntity
  8
ASSI
100
AcDbLine
 62
7
  6
CONTINUOUS
 10
207.5506125884
 20
118.6126373692
 11
207.5506125884
 21
118.2649548662
  0
LINE
  5
423
100
AcDbEntity
  8
ASSI
100
AcDbLine
 62
7
  6
CONTINUOUS
 10
207.5506125884
 20
79.6414941989
 11
207.5506125884
 21
79.2938116959
  0
LINE
  5
424
100
AcDbEntity
  8
RACCORDO
100
AcDbLine
 62
7
  6
CONTINUOUS
 10
207.5726917903
 20
62.6456429479
 11
207.5726917903
 21
71.8201207381
  0
LINE
  5
425
100
AcDbEntity
  8
DRAFT
100
AcDbLine
 62
7
  6
CONTINUOUS
 10
207.593632389
 20
85.1408556991
 11
207.593632389
 21
93.7884970969
  0
LINE
  5
426
100
AcDbEntity
  8
DRAFT
100
AcDbLine
 62
7
  6
CONTINUOUS
 10
207.593632389
 20
134.5043037148
 11
207.593632389
 21
143.1519451126
  0
LINE
  5
427
100
AcDbEntity
  8
DRAFT
100
AcDbLine
 62
7
  6
CONTINUOUS
 10
207.6006125884
 20
72.2441117013
 11
207.6006125884
 21
76.5742387202
  0
LINE
  5
428
100
AcDbEntity
  8
DRAFT
100
AcDbLine
 62
7
  6
CONTINUOUS
 10
207.6006125884
 20
158.8466520797
 11
207.6006125884
 21
163.1767790987
  0
LINE
  5
429
100
AcDbEntity
  8
RACCORDO
100
AcDbLine
 62
253
  6
CONTINUOUS
 10
207.6563890201
 20
173.6747441537
 11
207.6563890201
 21
63.3433740771
  0
LINE
  5
42A
100
AcDbEntity
  8
RACCORDO
100
AcDbLine
 62
253
  6
CONTINUOUS
 10
207.8651275608
 20
173.7712052132
 11
207.8651275608
 21
63.4397373491
  0
LINE
  5
42B
100
AcDbEntity
  8
RACCORDO
100
AcDbLine
 62
253
  6
CONTINUOUS
 10
207.5726917903
 20
172.407040467
 11
207.6563890201
 21
173.6747441537
  0
LINE
  5
42C
100
AcDbEntity
  8
DRAFT
100
AcDbLine
 62
7
  6
CONTINUOUS
 10
207.5726917903
 20
158.4408265018
 11
207.6006125884
 21
158.8466520797
  0
LINE
  5
42D
100
AcDbEntity
  8
DRAFT
100
AcDbLine
 62
7
  6
CONTINUOUS
 10
207.593632389
 20
134.5043037148
 11
207.5726917903
 21
134.2044735701
  0
LINE
  5
42E
100
AcDbEntity
  8
DRAFT
100
AcDbLine
 62
7
  6
CONTINUOUS
 10
207.5726917903
 20
162.7830576292
 11
207.6006125884
 21
163.1767790987
  0
LINE
  5
42F
100
AcDbEntity
  8
RACCORDO
100
AcDbLine
 62
253
  6
CONTINUOUS
 10
210.2301060363
 20
189.6841446007
 11
209.8895491956
 21
185.6841446007
  0
LINE
  5
430
100
AcDbEntity
  8
RACCORDO
100
AcDbLine
 62
253
  6
CONTINUOUS
 10
213.7388950495
 20
189.6841446007
 11
213.3778494464
 21
185.6841446007
  0
LINE
  5
431
100
AcDbEntity
  8
RACCORDO
100
AcDbLine
 62
7
  6
CONTINUOUS
 10
213.3820937109
 20
185.6786458594
 11
213.7431359367
 21
189.6788320352
  0
LWPOLYLINE
  5
432
100
AcDbEntity
  8
RACCORDO
100
AcDbPolyline
 62
7
  6
CONTINUOUS
 90
10
 70
0
 10
201.0006125879
 20
63.9331121553
 10
200.9413674382
 20
63.4023332408
 10
200.7940783105
 20
62.9137996966
 10
200.5587440711
 20
62.4674969951
 10
200.2223591391
 20
62.0522404546
 10
199.7979245315
 20
61.6791555905
 10
199.3244494459
 20
61.3816984081
 10
198.8149362655
 20
61.1710112659
 10
198.2563790068
 20
61.0359025808
 10
197.6487754754
 20
60.9763416694
  0
LINE
  5
433
100
AcDbEntity
  8
RACCORDO
100
AcDbLine
 62
7
  6
CONTINUOUS
 10
213.7431133193
 20
189.6785814443
 11
213.7430840704
 21
189.6783507901
  0
LWPOLYLINE
  5
434
100
AcDbEntity
  8
0
100
AcDbPolyline
 62
7
  6
CONTINUOUS
 90
4
 70
0
 10
207.5241202389
 20
118.4149860872
 10
207.5410471413
 20
118.4931403094
 10
207.5495481511
 20
118.5725051887
 10
207.5506125884
 20
118.6124296519
  0
LINE
  5
435
100
AcDbEntity
  8
RACCORDO
100
AcDbLine
 62
253
  6
CONTINUOUS
 10
211.7145324819
 20
183.8855657411
 11
212.0336510806
 21
183.9661597724
  0
LWPOLYLINE
  5
436
100
AcDbEntity
  8
RACCORDO
100
AcDbPolyline
 62
7
  6
CONTINUOUS
 90
3
 70
0
 10
163.7723579546
 20
172.5500256379
 10
163.1907653391
 20
172.4072987296
 10
162.5777039732
 20
172.3584560862
  0
LWPOLYLINE
  5
437
100
AcDbEntity
  8
SUPERFICI
100
AcDbPolyline
 62
253
  6
CONTINUOUS
 90
21
 70
0
 10
189.6202057023
 20
168.5644116798
 10
189.6308032327
 20
168.5647080462
 10
189.6415798902
 20
168.5648357485
 10
189.6525890997
 20
168.5648121004
 10
189.6637774331
 20
168.5646198133
 10
189.6749846101
 20
168.5642069846
 10
189.6862359956
 20
168.5635728304
 10
189.6975062243
 20
168.5627181382
 10
189.7085589246
 20
168.5615933363
 10
189.7194159701
 20
168.5601950097
 10
189.7300554906
 20
168.5585265465
 10
189.7401755041
 20
168.5565485467
 10
189.7497951589
 20
168.5542541671
 10
189.7588953142
 20
168.5516501918
 10
189.7671165578
 20
168.5487176256
 10
189.7744680925
 20
168.5454454152
 10
189.7809407257
 20
168.5418445344
 10
189.786147456
 20
168.5379290022
 10
189.7899592868
 20
168.5337034632
 10
189.7925052236
 20
168.529163204
 10
189.7937852688
 20
168.5243082056
  0
LWPOLYLINE
  5
438
100
AcDbEntity
  8
SUPERFICI
100
AcDbPolyline
 62
253
  6
CONTINUOUS
 90
10
 70
0
 10
107.3914378766
 20
168.5639466383
 10
116.4984944272
 20
168.1678964175
 10
125.6250334208
 20
167.8705679356
 10
134.7664947338
 20
167.6721447635
 10
143.9206217009
 20
167.572790257
 10
153.0805194421
 20
167.572790002
 10
162.2346548505
 20
167.6721438569
 10
171.3761330208
 20
167.8705664373
 10
180.5026972371
 20
168.1678950735
 10
189.6202057023
 20
168.5644116798
  0
LINE
  5
439
100
AcDbEntity
  8
RACCORDO
100
AcDbLine
 62
253
  6
CONTINUOUS
 10
85.2868398891
 20
183.8855412368
 11
84.9678182577
 21
183.9660761608
  0
LINE
  5
43A
100
AcDbEntity
  8
0
100
AcDbLine
 62
7
  6
CONTINUOUS
 10
135.2645903665
 20
175.3176731009
 11
135.2747519527
 21
175.3136212934
  0
LINE
  5
43B
100
AcDbEntity
  8
0
100
AcDbLine
 62
7
  6
CONTINUOUS
 10
138.5957637192
 20
175.3177662364
 11
138.6059253055
 21
175.3137144289
  0
LWPOLYLINE
  5
43C
100
AcDbEntity
  8
RACCORDO
100
AcDbPolyline
 62
7
  6
CONTINUOUS
 90
3
 70
0
 10
133.2303231446
 20
172.5495108069
 10
132.6928231251
 20
172.7785651305
 10
132.2081729504
 20
173.0850796048
  0
LWPOLYLINE
  5
43D
100
AcDbEntity
  8
RACCORDO
100
AcDbPolyline
 62
7
  6
CONTINUOUS
 90
3
 70
0
 10
133.5944040589
 20
172.7792825454
 10
134.1300766864
 20
172.5502614027
 10
134.7117106736
 20
172.4073738795
  0
LWPOLYLINE
  5
43E
100
AcDbEntity
  8
0
100
AcDbPolyline
 62
7
  6
CONTINUOUS
 90
3
 70
0
 10
156.3666323083
 20
174.987640562
 10
156.3757344374
 20
174.9802241078
 10
156.3847464557
 20
174.9731478384
  0
LWPOLYLINE
  5
43F
100
AcDbEntity
  8
0
100
AcDbPolyline
 62
7
  6
CONTINUOUS
 90
3
 70
0
 10
159.6860918775
 20
174.98773337
 10
159.6951940065
 20
174.9803169158
 10
159.7042060248
 20
174.9732406464
  0
LINE
  5
440
100
AcDbEntity
  8
0
100
AcDbLine
 62
7
  6
CONTINUOUS
 10
156.3565840692
 20
174.9961435584
 11
156.3666323083
 21
174.987640562
  0
LINE
  5
441
100
AcDbEntity
  8
0
100
AcDbLine
 62
7
  6
CONTINUOUS
 10
159.6760436384
 20
174.9962363664
 11
159.6860918775
 21
174.98773337
  0
LWPOLYLINE
  5
442
100
AcDbEntity
  8
RACCORDO
100
AcDbPolyline
 62
253
  6
CONTINUOUS
 90
5
 70
0
 10
200.7535100463
 20
177.3749657038
 10
200.6045920279
 20
178.6580431535
 10
200.4387753852
 20
179.9412473036
 10
200.2560656205
 20
181.224550032
 10
200.0564605711
 20
182.5079651422
  0
LWPOLYLINE
  5
443
100
AcDbEntity
  8
RACCORDO
100
AcDbPolyline
 62
7
  6
CONTINUOUS
 90
6
 70
0
 10
200.7945176839
 20
177.0725495292
 10
200.6292637349
 20
178.5452348521
 10
200.4420485883
 20
180.018286198
 10
200.2328756081
 20
181.4916149895
 10
200.0017517531
 20
182.9651280701
 10
199.8483379453
 20
183.8584560862
  0
LWPOLYLINE
  5
444
100
AcDbEntity
  8
RACCORDO
100
AcDbPolyline
 62
253
  6
CONTINUOUS
 90
5
 70
0
 10
202.7339798458
 20
191.0686761346
 10
202.7672933333
 20
190.7564402093
 10
202.7902590956
 20
190.4137716426
 10
202.8020971057
 20
190.0522594182
 10
202.8024027923
 20
189.6841443007
  0
LINE
  5
445
100
AcDbEntity
  8
RACCORDO
100
AcDbLine
 62
253
  6
CONTINUOUS
 10
218.3708188675
 20
45.6714728506
 11
218.8260999268
 21
38.7584160221
  0
LINE
  5
446
100
AcDbEntity
  8
RACCORDO
100
AcDbLine
 62
253
  6
CONTINUOUS
 10
219.1685168195
 20
46.3925930609
 11
219.6256125884
 21
39.4508142977
  0
LINE
  5
447
100
AcDbEntity
  8
RACCORDO
100
AcDbLine
 62
7
  6
CONTINUOUS
 10
207.4656416249
 20
173.6280257698
 11
207.4612777229
 21
173.7358248406
  0
LWPOLYLINE
  5
448
100
AcDbEntity
  8
0
100
AcDbPolyline
 62
7
  6
CONTINUOUS
 90
6
 70
0
 10
207.5506125884
 20
157.5835728222
 10
207.5495481514
 20
157.6235434396
 10
207.5410471422
 20
157.7032775941
 10
207.52412024
 20
157.7821703665
 10
207.4989130172
 20
157.859557728
 10
207.4656416249
 20
157.9347865132
  0
LINE
  5
449
100
AcDbEntity
  8
RACCORDO
100
AcDbLine
 62
253
  6
CONTINUOUS
 10
207.6534456566
 20
173.8082205469
 11
207.6563890154
 21
173.6747440888
  0
LINE
  5
44A
100
AcDbEntity
  8
0
100
AcDbLine
 62
7
  6
CONTINUOUS
 10
210.2166913782
 20
192.6659551287
 11
210.2166913782
 21
191.8584560862
  0
LWPOLYLINE
  5
44B
100
AcDbEntity
  8
RACCORDO
100
AcDbPolyline
 62
253
  6
CONTINUOUS
 90
13
 70
0
 10
207.8651275608
 20
63.4397373491
 10
207.8621147925
 20
63.2995905099
 10
207.8527494518
 20
63.1596564528
 10
207.8370315329
 20
63.0199351113
 10
207.8149572545
 20
62.8801180546
 10
207.786530374
 20
62.7405134443
 10
207.7517621878
 20
62.6020460345
 10
207.7105832074
 20
62.4647373785
 10
207.6630628735
 20
62.3285653813
 10
207.6094208712
 20
62.1943892683
 10
207.5495968565
 20
62.0622377741
 10
207.4836511047
 20
61.9320813833
 10
207.4119842278
 20
61.8046919235
  0
LWPOLYLINE
  5
44C
100
AcDbEntity
  8
RACCORDO
100
AcDbPolyline
 62
7
  6
CONTINUOUS
 90
3
 70
0
 10
207.6563890154
 20
63.34337402
 10
207.6534399476
 20
63.2101719107
 10
207.6487025043
 20
63.1286164094
  0
LINE
  5
44D
100
AcDbEntity
  8
DRAFT
100
AcDbLine
 62
7
  6
CONTINUOUS
 10
207.6006125884
 20
72.2441117013
 11
207.5726917903
 21
71.8201207381
  0
LINE
  5
44E
100
AcDbEntity
  8
DRAFT
100
AcDbLine
 62
7
  6
CONTINUOUS
 10
207.593632389
 20
85.1408556991
 11
207.5726917903
 21
84.8410255544
  0
LINE
  5
44F
100
AcDbEntity
  8
RACCORDO
100
AcDbLine
 62
7
  6
CONTINUOUS
 10
207.6487025043
 20
63.1286164094
 11
207.6481963384
 21
63.1216791768
  0
LINE
  5
450
100
AcDbEntity
  8
RACCORDO
100
AcDbLine
 62
253
  6
CONTINUOUS
 10
207.6242078343
 20
62.9092288414
 11
207.6563890201
 21
63.3433740771
  0
LINE
  5
451
100
AcDbEntity
  8
DRAFT
100
AcDbLine
 62
7
  6
CONTINUOUS
 10
207.5726917903
 20
76.198682636
 11
207.6006125884
 21
76.5742387202
  0
LINE
  5
452
100
AcDbEntity
  8
RACCORDO
100
AcDbLine
 62
7
  6
CONTINUOUS
 10
207.6481963384
 20
63.1216791768
 11
207.644530355
 21
63.0768084111
  0
LINE
  5
453
100
AcDbEntity
  8
RACCORDO
100
AcDbLine
 62
7
  6
CONTINUOUS
 10
207.6486917686
 20
63.1285123118
 11
207.6336019099
 21
62.9747929389
  0
LINE
  5
454
100
AcDbEntity
  8
RACCORDO
100
AcDbLine
 62
7
  6
CONTINUOUS
 10
207.3987600535
 20
62.9968946039
 11
207.4656416249
 21
63.6005724421
  0
LINE
  5
455
100
AcDbEntity
  8
RACCORDO
100
AcDbLine
 62
7
  6
CONTINUOUS
 10
207.5006125884
 20
62.5699069775
 11
207.4724934613
 21
62.3160351669
  0
LINE
  5
456
100
AcDbEntity
  8
RACCORDO
100
AcDbLine
 62
7
  6
CONTINUOUS
 10
207.644530355
 20
63.0768084111
 11
207.6296091524
 21
62.9434908666
  0
LINE
  5
457
100
AcDbEntity
  8
RACCORDO
100
AcDbLine
 62
7
  6
CONTINUOUS
 10
207.6336019099
 20
62.9747929389
 11
207.6119735157
 21
62.8305175881
  0
LWPOLYLINE
  5
458
100
AcDbEntity
  8
RACCORDO
100
AcDbPolyline
 62
7
  6
CONTINUOUS
 90
5
 70
0
 10
207.6296091524
 20
62.9434908666
 10
207.6086228656
 20
62.8103691604
 10
207.5815445096
 20
62.6777198241
 10
207.5484033223
 20
62.545940627
 10
207.5092110262
 20
62.4152409369
  0
LWPOLYLINE
  5
459
100
AcDbEntity
  8
RACCORDO
100
AcDbPolyline
 62
7
  6
CONTINUOUS
 90
4
 70
0
 10
207.6119735157
 20
62.8305175881
 10
207.5832450954
 20
62.6874364777
 10
207.5474765879
 20
62.5457849129
 10
207.5047403071
 20
62.4057898131
  0
LWPOLYLINE
  5
45A
100
AcDbEntity
  8
0
100
AcDbPolyline
 62
7
  6
CONTINUOUS
 90
4
 70
0
 10
207.5241202389
 20
79.4438429169
 10
207.5410471413
 20
79.5219971391
 10
207.5495481511
 20
79.6013620184
 10
207.5506125884
 20
79.6412864816
  0
LWPOLYLINE
  5
45B
100
AcDbEntity
  8
0
100
AcDbPolyline
 62
7
  6
CONTINUOUS
 90
3
 70
0
 10
207.4656416249
 20
79.2938116959
 10
207.4989130164
 20
79.3675633808
 10
207.5241202389
 20
79.4438429169
  0
LINE
  5
45C
100
AcDbEntity
  8
RACCORDO
100
AcDbLine
 62
7
  6
CONTINUOUS
 10
204.9763594861
 20
60.449626941
 11
205.5570013471
 21
60.6912041226
  0
LWPOLYLINE
  5
45D
100
AcDbEntity
  8
RACCORDO
100
AcDbPolyline
 62
7
  6
CONTINUOUS
 90
8
 70
0
 10
205.0865883354
 20
60.185358575
 10
204.9280656603
 20
60.1399144763
 10
204.7673259678
 20
60.1003065966
 10
204.6046617103
 20
60.0666080918
 10
204.4403634685
 20
60.0388736297
 10
204.2746980383
 20
60.0171439771
 10
204.1079513536
 20
60.0014600352
 10
203.9404585707
 20
59.9918436695
  0
LWPOLYLINE
  5
45E
100
AcDbEntity
  8
0
100
AcDbPolyline
 62
7
  6
CONTINUOUS
 90
4
 70
0
 10
158.910676278
 20
174.9595270333
 10
158.9248451179
 20
174.9630223157
 10
158.9396614278
 20
174.9667860569
 10
158.9552000742
 20
174.9708291786
  0
LWPOLYLINE
  5
45F
100
AcDbEntity
  8
0
100
AcDbPolyline
 62
7
  6
CONTINUOUS
 90
4
 70
0
 10
155.5912167089
 20
174.9594342253
 10
155.6053855488
 20
174.9629295077
 10
155.6202018587
 20
174.9666932489
 10
155.6357405051
 20
174.9707363706
  0
LWPOLYLINE
  5
460
100
AcDbEntity
  8
0
100
AcDbPolyline
 62
7
  6
CONTINUOUS
 90
4
 70
0
 10
140.5912216094
 20
174.9590148439
 10
140.6053904493
 20
174.9625101263
 10
140.6202067592
 20
174.9662738675
 10
140.6357454056
 20
174.9703169892
  0
LWPOLYLINE
  5
461
100
AcDbEntity
  8
0
100
AcDbPolyline
 62
7
  6
CONTINUOUS
 90
4
 70
0
 10
137.2600482567
 20
174.9589217084
 10
137.2742170966
 20
174.9624169908
 10
137.2890334065
 20
174.966180732
 10
137.3045720528
 20
174.9702238537
  0
LINE
  5
462
100
AcDbEntity
  8
0
100
AcDbLine
 62
7
  6
CONTINUOUS
 10
158.9672098812
 20
174.9731916952
 11
158.9552000742
 21
174.9708291786
  0
LINE
  5
463
100
AcDbEntity
  8
0
100
AcDbLine
 62
7
  6
CONTINUOUS
 10
155.6477503121
 20
174.9730988872
 11
155.6357405051
 21
174.9707363706
  0
LINE
  5
464
100
AcDbEntity
  8
0
100
AcDbLine
 62
7
  6
CONTINUOUS
 10
140.6477552125
 20
174.9726795058
 11
140.6357454056
 21
174.9703169892
  0
LWPOLYLINE
  5
465
100
AcDbEntity
  8
0
100
AcDbPolyline
 62
7
  6
CONTINUOUS
 90
21
 70
0
 10
158.6894878499
 20
174.9215912876
 10
158.6997175745
 20
174.9226657865
 10
158.7099705594
 20
174.923808428
 10
158.72024347
 20
174.9250228801
 10
158.7305354677
 20
174.9263087033
 10
158.7408430683
 20
174.927661147
 10
158.7511435423
 20
174.9290797244
 10
158.7614440151
 20
174.9305681352
 10
158.7717844066
 20
174.9321278122
 10
158.7821395974
 20
174.9337536754
 10
158.7925230058
 20
174.9354542618
 10
158.8030550761
 20
174.9372521979
 10
158.8137769744
 20
174.9391480041
 10
158.8246784926
 20
174.9411465999
 10
158.835841129
 20
174.9432790813
 10
158.8473235391
 20
174.9455476186
 10
158.8591354275
 20
174.9479584729
 10
158.8713211345
 20
174.9505516247
 10
158.8839544247
 20
174.9533306327
 10
158.8970669649
 20
174.9563048644
 10
158.910676278
 20
174.9595270333
  0
LWPOLYLINE
  5
466
100
AcDbEntity
  8
0
100
AcDbPolyline
 62
7
  6
CONTINUOUS
 90
21
 70
0
 10
155.3700282808
 20
174.9214984796
 10
155.3802580054
 20
174.9225729785
 10
155.3905109903
 20
174.92371562
 10
155.4007839008
 20
174.9249300721
 10
155.4110758986
 20
174.9262158953
 10
155.4213834991
 20
174.927568339
 10
155.4316839732
 20
174.9289869164
 10
155.4419844459
 20
174.9304753272
 10
155.4523248375
 20
174.9320350042
 10
155.4626800282
 20
174.9336608674
 10
155.4730634367
 20
174.9353614538
 10
155.4835955069
 20
174.9371593899
 10
155.4943174053
 20
174.9390551961
 10
155.5052189235
 20
174.9410537919
 10
155.5163815599
 20
174.9431862733
 10
155.52786397
 20
174.9454548106
 10
155.5396758584
 20
174.9478656649
 10
155.5518615654
 20
174.9504588167
 10
155.5644948556
 20
174.9532378247
 10
155.5776073958
 20
174.9562120564
 10
155.5912167089
 20
174.9594342253
  0
LWPOLYLINE
  5
467
100
AcDbEntity
  8
0
100
AcDbPolyline
 62
7
  6
CONTINUOUS
 90
21
 70
0
 10
140.3700331813
 20
174.9210790982
 10
140.3802629059
 20
174.9221535972
 10
140.3905158908
 20
174.9232962386
 10
140.4007888013
 20
174.9245106907
 10
140.4110807991
 20
174.9257965139
 10
140.4213883996
 20
174.9271489577
 10
140.4316888737
 20
174.9285675351
 10
140.4419893464
 20
174.9300559458
 10
140.452329738
 20
174.9316156228
 10
140.4626849287
 20
174.933241486
 10
140.4730683372
 20
174.9349420724
 10
140.4836004074
 20
174.9367400085
 10
140.4943223058
 20
174.9386358148
 10
140.505223824
 20
174.9406344105
 10
140.5163864604
 20
174.9427668919
 10
140.5278688705
 20
174.9450354293
 10
140.5396807589
 20
174.9474462835
 10
140.5518664659
 20
174.9500394353
 10
140.5644997561
 20
174.9528184433
 10
140.5776122963
 20
174.955792675
 10
140.5912216094
 20
174.9590148439
  0
LINE
  5
468
100
AcDbEntity
  8
0
100
AcDbLine
 62
7
  6
CONTINUOUS
 10
158.6792843027
 20
174.9205834566
 11
158.6891143295
 21
174.921554394
  0
LINE
  5
469
100
AcDbEntity
  8
0
100
AcDbLine
 62
7
  6
CONTINUOUS
 10
155.3598247336
 20
174.9204906486
 11
155.3696547604
 21
174.921461586
  0
LINE
  5
46A
100
AcDbEntity
  8
0
100
AcDbLine
 62
7
  6
CONTINUOUS
 10
140.3598296341
 20
174.9200712673
 11
140.3696596609
 21
174.9210422047
  0
LINE
  5
46B
100
AcDbEntity
  8
0
100
AcDbLine
 62
7
  6
CONTINUOUS
 10
137.0286562813
 20
174.9199781318
 11
137.0384863082
 21
174.9209490692
  0
LINE
  5
46C
100
AcDbEntity
  8
0
100
AcDbLine
 62
7
  6
CONTINUOUS
 10
160.067110986
 20
174.9246530994
 11
160.1044048442
 21
174.9270263018
  0
LINE
  5
46D
100
AcDbEntity
  8
0
100
AcDbLine
 62
7
  6
CONTINUOUS
 10
156.7476514169
 20
174.9245602914
 11
156.7849452751
 21
174.9269334938
  0
LINE
  5
46E
100
AcDbEntity
  8
0
100
AcDbLine
 62
7
  6
CONTINUOUS
 10
141.7476563174
 20
174.92414091
 11
141.7849501756
 21
174.9265141124
  0
LINE
  5
46F
100
AcDbEntity
  8
0
100
AcDbLine
 62
7
  6
CONTINUOUS
 10
138.4164829647
 20
174.9240477745
 11
138.4537768229
 21
174.9264209769
  0
LINE
  5
470
100
AcDbEntity
  8
0
100
AcDbLine
 62
7
  6
CONTINUOUS
 10
160.0297655707
 20
174.9225209935
 11
160.067110986
 21
174.9246530994
  0
LINE
  5
471
100
AcDbEntity
  8
0
100
AcDbLine
 62
7
  6
CONTINUOUS
 10
156.7103060016
 20
174.9224281855
 11
156.7476514169
 21
174.9245602914
  0
LINE
  5
472
100
AcDbEntity
  8
0
100
AcDbLine
 62
7
  6
CONTINUOUS
 10
141.7103109021
 20
174.9220088041
 11
141.7476563174
 21
174.92414091
  0
LINE
  5
473
100
AcDbEntity
  8
0
100
AcDbLine
 62
7
  6
CONTINUOUS
 10
138.3791375493
 20
174.9219156686
 11
138.4164829647
 21
174.9240477745
  0
LINE
  5
474
100
AcDbEntity
  8
0
100
AcDbLine
 62
7
  6
CONTINUOUS
 10
159.9922764019
 20
174.9206201171
 11
160.0297655707
 21
174.9225209935
  0
LINE
  5
475
100
AcDbEntity
  8
0
100
AcDbLine
 62
7
  6
CONTINUOUS
 10
156.6728168328
 20
174.9205273091
 11
156.7103060016
 21
174.9224281855
  0
LINE
  5
476
100
AcDbEntity
  8
0
100
AcDbLine
 62
7
  6
CONTINUOUS
 10
141.6728217333
 20
174.9201079278
 11
141.7103109021
 21
174.9220088041
  0
LINE
  5
477
100
AcDbEntity
  8
0
100
AcDbLine
 62
7
  6
CONTINUOUS
 10
138.3416483805
 20
174.9200147923
 11
138.3791375493
 21
174.9219156686
  0
LINE
  5
478
100
AcDbEntity
  8
SUPERFICI
100
AcDbLine
 62
253
  6
CONTINUOUS
 10
180.6387786844
 20
170.9024279758
 11
189.7764552549
 21
171.2949095394
  0
LINE
  5
479
100
AcDbEntity
  8
SUPERFICI
100
AcDbLine
 62
253
  6
CONTINUOUS
 10
171.4741447506
 20
170.608066889
 11
180.6387786844
 21
170.9024279758
  0
LINE
  5
47A
100
AcDbEntity
  8
SUPERFICI
100
AcDbLine
 62
253
  6
CONTINUOUS
 10
104.9119739111
 20
171.2805215989
 11
105.1528397519
 21
171.2854716543
  0
LINE
  5
47B
100
AcDbEntity
  8
SUPERFICI
100
AcDbLine
 62
253
  6
CONTINUOUS
 10
105.1528397519
 20
171.2854716543
 11
105.4533476409
 21
171.2896782488
  0
LINE
  5
47C
100
AcDbEntity
  8
RACCORDO
100
AcDbLine
 62
7
  6
CONTINUOUS
 10
134.4701424146
 20
175.3559685193
 11
135.1621783402
 21
175.3644170782
  0
LINE
  5
47D
100
AcDbEntity
  8
RACCORDO
100
AcDbLine
 62
253
  6
CONTINUOUS
 10
135.1613940473
 20
175.4168016372
 11
134.5432213912
 21
175.4094576206
  0
LINE
  5
47E
100
AcDbEntity
  8
SUPERFICI
100
AcDbLine
 62
253
  6
CONTINUOUS
 10
105.4533476409
 20
171.2896782488
 11
105.8142112008
 21
171.2929620051
  0
LINE
  5
47F
100
AcDbEntity
  8
SUPERFICI
100
AcDbLine
 62
253
  6
CONTINUOUS
 10
105.8142112008
 20
171.2929620051
 11
106.2333577179
 21
171.2950332054
  0
LINE
  5
480
100
AcDbEntity
  8
SUPERFICI
100
AcDbLine
 62
253
  6
CONTINUOUS
 10
189.7764552586
 20
171.2949100478
 11
190.2489154671
 21
171.2957772625
  0
LINE
  5
481
100
AcDbEntity
  8
SUPERFICI
100
AcDbLine
 62
253
  6
CONTINUOUS
 10
106.2333577179
 20
171.2950332054
 11
106.7062544106
 21
171.2957032847
  0
LWPOLYLINE
  5
482
100
AcDbEntity
  8
RACCORDO
100
AcDbPolyline
 62
253
  6
CONTINUOUS
 90
19
 70
0
 10
89.136097616
 20
173.7684356161
 10
89.1536499167
 20
173.7684393155
 10
89.1711352582
 20
173.7676735353
 10
89.1884189674
 20
173.7661441751
 10
89.2053679245
 20
173.7638630161
 10
89.2218515891
 20
173.7608476295
 10
89.2377430059
 20
173.7571212413
 10
89.2529197798
 20
173.7527125537
 10
89.2672650209
 20
173.7476555238
 10
89.2806682457
 20
173.7419891013
 10
89.293026224
 20
173.7357569302
 10
89.3042437768
 20
173.7290070113
 10
89.3142345104
 20
173.721791332
 10
89.3229214778
 20
173.7141654678
 10
89.330237774
 20
173.7061881533
 10
89.3361270517
 20
173.6979208282
 10
89.3405439531
 20
173.6894271666
 10
89.3434544601
 20
173.6807725871
 10
89.3448361568
 20
173.6720237468
  0
LINE
  5
483
100
AcDbEntity
  8
RACCORDO
100
AcDbLine
 62
7
  6
CONTINUOUS
 10
162.5777039732
 20
172.3584560862
 11
134.4235212037
 21
172.3584560862
  0
LINE
  5
484
100
AcDbEntity
  8
RACCORDO
100
AcDbLine
 62
253
  6
CONTINUOUS
 10
133.3908988788
 20
173.3410036797
 11
133.4341953276
 21
173.3410036797
  0
LINE
  5
485
100
AcDbEntity
  8
RACCORDO
100
AcDbLine
 62
253
  6
CONTINUOUS
 10
163.56703179
 20
173.3410036797
 11
163.6103262981
 21
173.3410036797
  0
LINE
  5
486
100
AcDbEntity
  8
0
100
AcDbLine
 62
7
  6
CONTINUOUS
 10
133.4077155385
 20
174.8580341017
 11
133.789858844
 21
174.858044786
  0
LINE
  5
487
100
AcDbEntity
  8
0
100
AcDbLine
 62
7
  6
CONTINUOUS
 10
145.5163261143
 20
174.8583726435
 11
151.5163241541
 21
174.8585403961
  0
LINE
  5
488
100
AcDbEntity
  8
0
100
AcDbLine
 62
7
  6
CONTINUOUS
 10
163.234712953
 20
174.8588680278
 11
163.5935243696
 21
174.8588780597
  0
LINE
  5
489
100
AcDbEntity
  8
0
100
AcDbLine
 62
7
  6
CONTINUOUS
 10
159.5639487169
 20
175.1114661043
 11
159.1077906872
 21
175.1114533507
  0
LINE
  5
48A
100
AcDbEntity
  8
0
100
AcDbLine
 62
7
  6
CONTINUOUS
 10
156.2444891478
 20
175.1113732963
 11
155.7883311181
 21
175.1113605427
  0
LINE
  5
48B
100
AcDbEntity
  8
0
100
AcDbLine
 62
7
  6
CONTINUOUS
 10
141.2444940483
 20
175.1109539149
 11
140.7883360186
 21
175.1109411613
  0
LINE
  5
48C
100
AcDbEntity
  8
0
100
AcDbLine
 62
7
  6
CONTINUOUS
 10
137.9133206955
 20
175.1108607794
 11
137.4571626658
 21
175.1108480258
  0
LINE
  5
48D
100
AcDbEntity
  8
RACCORDO
100
AcDbLine
 62
253
  6
CONTINUOUS
 10
130.9758506694
 20
175.3060988669
 11
131.9000345169
 21
175.3060988669
  0
LINE
  5
48E
100
AcDbEntity
  8
RACCORDO
100
AcDbLine
 62
253
  6
CONTINUOUS
 10
165.1011905402
 20
175.3060988669
 11
166.0253745074
 21
175.3060988669
  0
LINE
  5
48F
100
AcDbEntity
  8
0
100
AcDbLine
 62
253
  6
CONTINUOUS
 10
161.7461590597
 20
175.3143614013
 11
153.605920405
 21
175.3141338103
  0
LINE
  5
490
100
AcDbEntity
  8
0
100
AcDbLine
 62
253
  6
CONTINUOUS
 10
143.4267043911
 20
175.313849212
 11
135.2747519527
 21
175.3136212934
  0
LINE
  5
491
100
AcDbEntity
  8
0
100
AcDbLine
 62
253
  6
CONTINUOUS
 10
161.8781371506
 20
175.4839186573
 11
153.4739328331
 21
175.4836836861
  0
LINE
  5
492
100
AcDbEntity
  8
0
100
AcDbLine
 62
253
  6
CONTINUOUS
 10
143.5586824819
 20
175.483406468
 11
135.1427643808
 21
175.4831711693
  0
LINE
  5
493
100
AcDbEntity
  8
RACCORDO
100
AcDbLine
 62
253
  6
CONTINUOUS
 10
153.4222641906
 20
175.5091765675
 11
152.1674487856
 21
175.509176036
  0
LINE
  5
494
100
AcDbEntity
  8
RACCORDO
100
AcDbLine
 62
253
  6
CONTINUOUS
 10
144.8660154112
 20
175.5091729434
 11
143.558682471
 21
175.5091723897
  0
LWPOLYLINE
  5
495
100
AcDbEntity
  8
RACCORDO
100
AcDbPolyline
 62
253
  6
CONTINUOUS
 90
19
 70
0
 10
207.8651275608
 20
173.7712052132
 10
207.8475753543
 20
173.7712089146
 10
207.8300900922
 20
173.7704431438
 10
207.8128064461
 20
173.7689137985
 10
207.7958575346
 20
173.7666326579
 10
207.7793738983
 20
173.7636172913
 10
207.7634824941
 20
173.759890923
 10
207.7483057176
 20
173.7554822535
 10
207.7339604603
 20
173.7504252385
 10
207.7205572095
 20
173.744758827
 10
207.708199197
 20
173.7385266617
 10
207.6969816041
 20
173.7317767428
 10
207.6869908288
 20
173.7245610582
 10
207.6783038201
 20
173.716935183
 10
207.6709874853
 20
173.7089578517
 10
207.6650981747
 20
173.7006905059
 10
207.6606812479
 20
173.6921968204
 10
207.6577707241
 20
173.6835422138
 10
207.6563890201
 20
173.6747933439
  0
LINE
  5
496
100
AcDbEntity
  8
RACCORDO
100
AcDbLine
 62
7
  6
CONTINUOUS
 10
143.5586805012
 20
175.4578494287
 11
144.9174055417
 21
175.457744123
  0
LINE
  5
497
100
AcDbEntity
  8
RACCORDO
100
AcDbLine
 62
7
  6
CONTINUOUS
 10
152.1154199292
 20
175.4571862531
 11
153.4739307713
 21
175.457080964
  0
LINE
  5
498
100
AcDbEntity
  8
SUPERFICI
100
AcDbLine
 62
253
  6
CONTINUOUS
 10
106.7062544106
 20
171.2957032847
 11
107.2247690119
 21
171.2949100649
  0
LINE
  5
499
100
AcDbEntity
  8
SUPERFICI
100
AcDbLine
 62
253
  6
CONTINUOUS
 10
190.2489154671
 20
171.2957772625
 11
190.7456123258
 21
171.2951472945
  0
LINE
  5
49A
100
AcDbEntity
  8
SUPERFICI
100
AcDbLine
 62
253
  6
CONTINUOUS
 10
190.7456123258
 20
171.2951472945
 11
191.0803982274
 21
171.2936393369
  0
LINE
  5
49B
100
AcDbEntity
  8
SUPERFICI
100
AcDbLine
 62
253
  6
CONTINUOUS
 10
191.0803982274
 20
171.2936393369
 11
191.4083203253
 21
171.2910773907
  0
LINE
  5
49C
100
AcDbEntity
  8
RACCORDO
100
AcDbLine
 62
253
  6
CONTINUOUS
 10
162.4831172241
 20
175.4091613131
 11
161.8637013495
 21
175.4165196014
  0
LINE
  5
49D
100
AcDbEntity
  8
RACCORDO
100
AcDbLine
 62
7
  6
CONTINUOUS
 10
161.8628360108
 20
175.3638389301
 11
162.5567360898
 21
175.3552600389
  0
LINE
  5
49E
100
AcDbEntity
  8
SUPERFICI
100
AcDbLine
 62
253
  6
CONTINUOUS
 10
191.4083203253
 20
171.2910773907
 11
191.7188540121
 21
171.2873819931
  0
LWPOLYLINE
  5
49F
100
AcDbEntity
  8
SUPERFICI
100
AcDbPolyline
 62
253
  6
CONTINUOUS
 90
9
 70
0
 10
191.7188540121
 20
171.2873819931
 10
191.9998689995
 20
171.2824660805
 10
192.1250444232
 20
171.2795314957
 10
192.2375239758
 20
171.2762606671
 10
192.3353544167
 20
171.272665074
 10
192.4166081161
 20
171.2687581185
 10
192.4792702107
 20
171.2645442679
 10
192.5213149829
 20
171.2600190549
 10
192.5407994481
 20
171.2551824794
  0
LWPOLYLINE
  5
4A0
100
AcDbEntity
  8
SUPERFICI
100
AcDbPolyline
 62
253
  6
CONTINUOUS
 90
7
 70
0
 10
116.3624274239
 20
170.9024286795
 10
125.5270476498
 20
170.6080679266
 10
134.7104138845
 20
170.4118273101
 10
143.9030972345
 20
170.3137067166
 10
153.0980813858
 20
170.3137062594
 10
162.2907693369
 20
170.411826279
 10
171.4741447506
 20
170.608066889
  0
LINE
  5
4A1
100
AcDbEntity
  8
SUPERFICI
100
AcDbLine
 62
253
  6
CONTINUOUS
 10
107.2247690155
 20
171.2949095687
 11
116.3624274239
 21
170.9024286795
  0
LINE
  5
4A2
100
AcDbEntity
  8
0
100
AcDbLine
 62
7
  6
CONTINUOUS
 10
136.9905603715
 20
174.9219111386
 11
137.0286562813
 21
174.9199781318
  0
LINE
  5
4A3
100
AcDbEntity
  8
0
100
AcDbLine
 62
7
  6
CONTINUOUS
 10
140.3217337243
 20
174.9220042741
 11
140.3598296341
 21
174.9200712673
  0
LINE
  5
4A4
100
AcDbEntity
  8
0
100
AcDbLine
 62
7
  6
CONTINUOUS
 10
155.3217288238
 20
174.9224236555
 11
155.3598247336
 21
174.9204906486
  0
LINE
  5
4A5
100
AcDbEntity
  8
0
100
AcDbLine
 62
7
  6
CONTINUOUS
 10
158.6411883929
 20
174.9225164635
 11
158.6792843027
 21
174.9205834566
  0
LINE
  5
4A6
100
AcDbEntity
  8
0
100
AcDbLine
 62
7
  6
CONTINUOUS
 10
136.953221263
 20
174.924041638
 11
136.9905603715
 21
174.9219111386
  0
LINE
  5
4A7
100
AcDbEntity
  8
0
100
AcDbLine
 62
7
  6
CONTINUOUS
 10
140.2843946157
 20
174.9241347735
 11
140.3217337243
 21
174.9220042741
  0
LINE
  5
4A8
100
AcDbEntity
  8
0
100
AcDbLine
 62
7
  6
CONTINUOUS
 10
155.2843897152
 20
174.9245541549
 11
155.3217288238
 21
174.9224236555
  0
LINE
  5
4A9
100
AcDbEntity
  8
0
100
AcDbLine
 62
7
  6
CONTINUOUS
 10
158.6038492843
 20
174.9246469629
 11
158.6411883929
 21
174.9225164635
  0
LINE
  5
4AA
100
AcDbEntity
  8
0
100
AcDbLine
 62
7
  6
CONTINUOUS
 10
136.9165296767
 20
174.926377792
 11
136.953221263
 21
174.924041638
  0
LINE
  5
4AB
100
AcDbEntity
  8
0
100
AcDbLine
 62
7
  6
CONTINUOUS
 10
140.2477030295
 20
174.9264709275
 11
140.2843946157
 21
174.9241347735
  0
LINE
  5
4AC
100
AcDbEntity
  8
0
100
AcDbLine
 62
7
  6
CONTINUOUS
 10
155.247698129
 20
174.9268903089
 11
155.2843897152
 21
174.9245541549
  0
LINE
  5
4AD
100
AcDbEntity
  8
0
100
AcDbLine
 62
7
  6
CONTINUOUS
 10
158.5671576981
 20
174.9269831169
 11
158.6038492843
 21
174.9246469629
  0
LWPOLYLINE
  5
4AE
100
AcDbEntity
  8
RACCORDO
100
AcDbPolyline
 62
7
  6
CONTINUOUS
 90
3
 70
0
 10
134.4235212037
 20
172.3584560862
 10
133.8117414491
 20
172.4070745154
 10
133.2303231446
 20
172.5495108069
  0
LINE
  5
4AF
100
AcDbEntity
  8
0
100
AcDbLine
 62
7
  6
CONTINUOUS
 10
138.3318186429
 20
174.9209852291
 11
138.3416483805
 21
174.9200147923
  0
LINE
  5
4B0
100
AcDbEntity
  8
0
100
AcDbLine
 62
7
  6
CONTINUOUS
 10
141.6629919956
 20
174.9210783646
 11
141.6728217333
 21
174.9201079278
  0
LINE
  5
4B1
100
AcDbEntity
  8
0
100
AcDbLine
 62
7
  6
CONTINUOUS
 10
156.6629870952
 20
174.921497746
 11
156.6728168328
 21
174.9205273091
  0
LINE
  5
4B2
100
AcDbEntity
  8
0
100
AcDbLine
 62
7
  6
CONTINUOUS
 10
159.9824466643
 20
174.921590554
 11
159.9922764019
 21
174.9206201171
  0
LINE
  5
4B3
100
AcDbEntity
  8
0
100
AcDbLine
 62
7
  6
CONTINUOUS
 10
138.0535780035
 20
174.9726353216
 11
138.0657301925
 21
174.9702451216
  0
LINE
  5
4B4
100
AcDbEntity
  8
0
100
AcDbLine
 62
7
  6
CONTINUOUS
 10
141.3847513562
 20
174.9727284571
 11
141.3969035453
 21
174.9703382571
  0
LINE
  5
4B5
100
AcDbEntity
  8
0
100
AcDbLine
 62
7
  6
CONTINUOUS
 10
156.3847464557
 20
174.9731478384
 11
156.3968986448
 21
174.9707576384
  0
LWPOLYLINE
  5
4B6
100
AcDbEntity
  8
0
100
AcDbPolyline
 62
7
  6
CONTINUOUS
 90
24
 70
0
 10
138.1057318951
 20
174.9600376933
 10
138.1182358992
 20
174.9570446132
 10
138.1303776366
 20
174.9542426749
 10
138.1420887027
 20
174.9516134647
 10
138.1533949274
 20
174.9491545319
 10
138.1643599173
 20
174.9468575021
 10
138.1749670839
 20
174.944696822
 10
138.1852239949
 20
174.9426705647
 10
138.1951974322
 20
174.940772894
 10
138.2049393775
 20
174.9389743785
 10
138.2144499384
 20
174.9372712624
 10
138.2237727358
 20
174.9356623145
 10
138.2329960405
 20
174.9341236206
 10
138.2421131357
 20
174.9326509254
 10
138.2511431191
 20
174.9312453604
 10
138.2601846879
 20
174.9298922292
 10
138.2692551541
 20
174.9285847603
 10
138.2783206593
 20
174.9273276697
 10
138.2873912119
 20
174.926123814
 10
138.2964697375
 20
174.9249715336
 10
138.3055419563
 20
174.9238703285
 10
138.3145974346
 20
174.9228246098
 10
138.3236336067
 20
174.9218350617
 10
138.3318186429
 20
174.9209852291
  0
LWPOLYLINE
  5
4B7
100
AcDbEntity
  8
0
100
AcDbPolyline
 62
7
  6
CONTINUOUS
 90
24
 70
0
 10
141.4369052478
 20
174.9601308288
 10
141.4494092519
 20
174.9571377487
 10
141.4615509893
 20
174.9543358104
 10
141.4732620554
 20
174.9517066002
 10
141.4845682801
 20
174.9492476674
 10
141.49553327
 20
174.9469506376
 10
141.5061404366
 20
174.9447899575
 10
141.5163973476
 20
174.9427637002
 10
141.5263707849
 20
174.9408660295
 10
141.5361127303
 20
174.939067514
 10
141.5456232911
 20
174.9373643979
 10
141.5549460885
 20
174.93575545
 10
141.5641693932
 20
174.9342167561
 10
141.5732864884
 20
174.9327440609
 10
141.5823164718
 20
174.9313384959
 10
141.5913580406
 20
174.9299853647
 10
141.6004285069
 20
174.9286778958
 10
141.6094940121
 20
174.9274208052
 10
141.6185645647
 20
174.9262169495
 10
141.6276430902
 20
174.9250646691
 10
141.636715309
 20
174.923963464
 10
141.6457707874
 20
174.9229177453
 10
141.6548069594
 20
174.9219281972
 10
141.6629919956
 20
174.9210783646
  0
LWPOLYLINE
  5
4B8
100
AcDbEntity
  8
0
100
AcDbPolyline
 62
7
  6
CONTINUOUS
 90
24
 70
0
 10
156.4369003473
 20
174.9605502102
 10
156.4494043514
 20
174.9575571301
 10
156.4615460888
 20
174.9547551918
 10
156.4732571549
 20
174.9521259816
 10
156.4845633797
 20
174.9496670488
 10
156.4955283695
 20
174.947370019
 10
156.5061355361
 20
174.9452093389
 10
156.5163924471
 20
174.9431830816
 10
156.5263658844
 20
174.9412854108
 10
156.5361078298
 20
174.9394868954
 10
156.5456183906
 20
174.9377837793
 10
156.554941188
 20
174.9361748313
 10
156.5641644927
 20
174.9346361375
 10
156.5732815879
 20
174.9331634423
 10
156.5823115713
 20
174.9317578773
 10
156.5913531401
 20
174.9304047461
 10
156.6004236064
 20
174.9290972772
 10
156.6094891116
 20
174.9278401866
 10
156.6185596642
 20
174.9266363309
 10
156.6276381897
 20
174.9254840504
 10
156.6367104085
 20
174.9243828454
 10
156.6457658869
 20
174.9233371266
 10
156.6548020589
 20
174.9223475786
 10
156.6629870952
 20
174.921497746
  0
LWPOLYLINE
  5
4B9
100
AcDbEntity
  8
0
100
AcDbPolyline
 62
7
  6
CONTINUOUS
 90
4
 70
0
 10
138.0657301925
 20
174.9702451216
 10
138.0795410462
 20
174.9666328744
 10
138.0928605048
 20
174.9632328349
 10
138.1057318951
 20
174.9600376933
  0
LWPOLYLINE
  5
4BA
100
AcDbEntity
  8
0
100
AcDbPolyline
 62
7
  6
CONTINUOUS
 90
4
 70
0
 10
141.3969035453
 20
174.9703382571
 10
141.410714399
 20
174.9667260099
 10
141.4240338576
 20
174.9633259704
 10
141.4369052478
 20
174.9601308288
  0
LWPOLYLINE
  5
4BB
100
AcDbEntity
  8
0
100
AcDbPolyline
 62
7
  6
CONTINUOUS
 90
4
 70
0
 10
156.3968986448
 20
174.9707576384
 10
156.4107094985
 20
174.9671453912
 10
156.4240289571
 20
174.9637453518
 10
156.4369003473
 20
174.9605502102
  0
LWPOLYLINE
  5
4BC
100
AcDbEntity
  8
0
100
AcDbPolyline
 62
7
  6
CONTINUOUS
 90
4
 70
0
 10
159.7163582139
 20
174.9708504464
 10
159.7301690676
 20
174.9672381992
 10
159.7434885262
 20
174.9638381598
 10
159.7563599164
 20
174.9606430182
  0
LINE
  5
4BD
100
AcDbEntity
  8
0
100
AcDbLine
 62
7
  6
CONTINUOUS
 10
153.5957588188
 20
175.3181856178
 11
153.605920405
 21
175.3141338103
  0
LINE
  5
4BE
100
AcDbEntity
  8
0
100
AcDbLine
 62
7
  6
CONTINUOUS
 10
161.8689557293
 20
175.8588298433
 11
163.234712953
 21
174.8588680278
  0
LWPOLYLINE
  5
4BF
100
AcDbEntity
  8
0
100
AcDbPolyline
 62
7
  6
CONTINUOUS
 90
7
 70
0
 10
163.6211686545
 20
178.358878834
 10
163.599790773
 20
178.3753190948
 10
163.5764392497
 20
178.3956619076
 10
163.5571579602
 20
178.4152857214
 10
163.5421351212
 20
178.4340468124
 10
163.531130658
 20
178.4519411176
 10
163.5241890636
 20
178.4686257683
  0
LWPOLYLINE
  5
4C0
100
AcDbEntity
  8
RACCORDO
100
AcDbPolyline
 62
253
  6
CONTINUOUS
 90
3
 70
0
 10
200.0564605711
 20
182.5079651422
 10
199.8399628542
 20
183.7914644329
 10
199.8277818206
 20
183.8584560862
  0
LINE
  5
4C1
100
AcDbEntity
  8
RACCORDO
100
AcDbLine
 62
7
  6
CONTINUOUS
 10
207.4612777229
 20
173.7358248406
 11
207.3987706898
 21
174.2347010577
  0
LINE
  5
4C2
100
AcDbEntity
  8
RACCORDO
100
AcDbLine
 62
253
  6
CONTINUOUS
 10
219.1663126077
 20
181.3506855059
 11
219.1691122081
 21
181.2917105416
  0
LINE
  5
4C3
100
AcDbEntity
  8
RACCORDO
100
AcDbLine
 62
7
  6
CONTINUOUS
 10
219.6236506554
 20
175.5952194488
 11
219.6256125884
 21
175.5471275192
  0
LINE
  5
4C4
100
AcDbEntity
  8
RACCORDO
100
AcDbLine
 62
253
  6
CONTINUOUS
 10
217.462248364
 20
181.3005740195
 11
217.462248364
 21
48.1243216194
  0
LINE
  5
4C5
100
AcDbEntity
  8
RACCORDO
100
AcDbLine
 62
253
  6
CONTINUOUS
 10
219.1685168195
 20
181.2990767405
 11
219.1685168195
 21
46.3925930609
  0
LINE
  5
4C6
100
AcDbEntity
  8
RACCORDO
100
AcDbLine
 62
7
  6
CONTINUOUS
 10
219.6256125884
 20
39.4508142977
 11
219.6256125884
 21
175.5471275192
  0
LINE
  5
4C7
100
AcDbEntity
  8
RACCORDO
100
AcDbLine
 62
253
  6
CONTINUOUS
 10
218.3711724787
 20
45.7230736235
 11
218.3708190179
 21
45.6714728464
  0
LWPOLYLINE
  5
4C8
100
AcDbEntity
  8
RACCORDO
100
AcDbPolyline
 62
253
  6
CONTINUOUS
 90
25
 70
0
 10
219.1703316649
 20
46.3638690644
 10
219.1685588601
 20
46.3195004347
 10
219.1633753044
 20
46.2752618184
 10
219.1548031602
 20
46.2313423587
 10
219.1428790777
 20
46.1879298339
 10
219.1276540386
 20
46.145209855
 10
219.1091931378
 20
46.1033650721
 10
219.0875753053
 20
46.0625743933
 10
219.0628929684
 20
46.0230122199
 10
219.035251657
 20
45.9848477006
 10
219.0047695519
 20
45.9482440085
 10
218.97157698
 20
45.9133576434
 10
218.9358158566
 20
45.8803377625
 10
218.8976390792
 20
45.849325543
 10
218.8572098731
 20
45.820453578
 10
218.8147010941
 20
45.7938453103
 10
218.7702944894
 20
45.769614504
 10
218.7241799202
 20
45.7478647582
 10
218.67655455
 20
45.7286890644
 10
218.6276220021
 20
45.7121694087
 10
218.5775914884
 20
45.6983764211
 10
218.5266769152
 20
45.6873690738
 10
218.4750959688
 20
45.6791944288
 10
218.4230691843
 20
45.6738874371
 10
218.3708190032
 20
45.6714707888
  0
LWPOLYLINE
  5
4C9
100
AcDbEntity
  8
RACCORDO
100
AcDbPolyline
 62
253
  6
CONTINUOUS
 90
25
 70
0
 10
219.1685168195
 20
46.3925930609
 10
219.1666601168
 20
46.3498380615
 10
219.1614126038
 20
46.3072054695
 10
219.1527965875
 20
46.2648765147
 10
219.1408486944
 20
46.2230311361
 10
219.1256197145
 20
46.1818472172
 10
219.1071743857
 20
46.1414998294
 10
219.0855911186
 20
46.1021604883
 10
219.060961663
 20
46.0639964242
 10
219.0333907178
 20
46.0271698711
 10
219.0029954864
 20
45.9918373778
 10
218.9699051779
 20
45.9581491415
 10
218.934260458
 20
45.9262483698
 10
218.8962128515
 20
45.8962706719
 10
218.8559240975
 20
45.8683434821
 10
218.8135654622
 20
45.8425855179
 10
218.7693170109
 20
45.8191062757
 10
218.7233668422
 20
45.7980055649
 10
218.6759102889
 20
45.779373084
 10
218.6271490874
 20
45.7632880392
 10
218.5772905199
 20
45.7498188073
 10
218.5265465337
 20
45.7390226458
 10
218.4751328398
 20
45.7309454487
 10
218.4232679962
 20
45.725621552
 10
218.3711724788
 20
45.7230735873
  0
LWPOLYLINE
  5
4CA
100
AcDbEntity
  8
RACCORDO
100
AcDbPolyline
 62
7
  6
CONTINUOUS
 90
10
 70
0
 10
207.5092110262
 20
62.4152409369
 10
207.4639918764
 20
62.2858400994
 10
207.4128630444
 20
62.1581391443
 10
207.3558995177
 20
62.0323525731
 10
207.2931770911
 20
61.9086725631
 10
207.2248787919
 20
61.787445931
 10
207.1511566898
 20
61.6689077954
 10
207.0721107053
 20
61.5531871294
 10
206.987881588
 20
61.4404544147
 10
206.8986337289
 20
61.3309029926
  0
LWPOLYLINE
  5
4CB
100
AcDbEntity
  8
RACCORDO
100
AcDbPolyline
 62
7
  6
CONTINUOUS
 90
9
 70
0
 10
207.5047403071
 20
62.4057898131
 10
207.4551259618
 20
62.2676951281
 10
207.3987252968
 20
62.1317459702
 10
207.3356441782
 20
61.9981668177
 10
207.2660037285
 20
61.8671889657
 10
207.1899286901
 20
61.7390441521
 10
207.1075592585
 20
61.6139471267
 10
207.0190488617
 20
61.4921187775
 10
206.9245545342
 20
61.3737756897
  0
LWPOLYLINE
  5
4CC
100
AcDbEntity
  8
RACCORDO
100
AcDbPolyline
 62
7
  6
CONTINUOUS
 90
3
 70
0
 10
206.9635345935
 20
61.9321691479
 10
207.2313915936
 20
62.4407664541
 10
207.3987600535
 20
62.9968946039
  0
LWPOLYLINE
  5
4CD
100
AcDbEntity
  8
RACCORDO
100
AcDbPolyline
 62
253
  6
CONTINUOUS
 90
5
 70
0
 10
207.4119842278
 20
61.8046919235
 10
207.3345855878
 20
61.6801435423
 10
207.2514657391
 20
61.558361136
 10
207.1630570836
 20
61.4398926713
 10
207.0693624717
 20
61.3247774187
  0
LWPOLYLINE
  5
4CE
100
AcDbEntity
  8
RACCORDO
100
AcDbPolyline
 62
7
  6
CONTINUOUS
 90
15
 70
0
 10
206.9245545342
 20
61.3737756897
 10
206.8242466016
 20
61.2591149397
 10
206.718307375
 20
61.1483399295
 10
206.6069269481
 20
61.0416502487
 10
206.4903065232
 20
60.9392255486
 10
206.3686567891
 20
60.8412494359
 10
206.2421981154
 20
60.7478987905
 10
206.1111600436
 20
60.6593317496
 10
205.9757792448
 20
60.5757081884
 10
205.836302863
 20
60.4971778045
 10
205.6929852088
 20
60.42387314
 10
205.5460899459
 20
60.3559285644
 10
205.3958821331
 20
60.2934610561
 10
205.2426221769
 20
60.2365696666
 10
205.0865883354
 20
60.185358575
  0
LWPOLYLINE
  5
4CF
100
AcDbEntity
  8
RACCORDO
100
AcDbPolyline
 62
7
  6
CONTINUOUS
 90
16
 70
0
 10
206.8986337289
 20
61.3309029926
 10
206.8044998111
 20
61.2246709984
 10
206.705576127
 20
61.1218429373
 10
206.6020186815
 20
61.0225766768
 10
206.493990531
 20
60.9270247182
 10
206.3815921743
 20
60.8352676551
 10
206.2649920243
 20
60.7474526517
 10
206.1443655377
 20
60.6637214706
 10
206.0198190129
 20
60.5841520284
 10
205.8915028829
 20
60.508863482
 10
205.7596349878
 20
60.4380065823
 10
205.6244270118
 20
60.3717030841
 10
205.4860211788
 20
60.3100429387
 10
205.3446824174
 20
60.2531652424
 10
205.2008276676
 20
60.2012322818
 10
205.0546766172
 20
60.1543133879
  0
LWPOLYLINE
  5
4D0
100
AcDbEntity
  8
RACCORDO
100
AcDbPolyline
 62
7
  6
CONTINUOUS
 90
3
 70
0
 10
206.0966096485
 20
61.0316777162
 10
206.5803197232
 20
61.4581964716
 10
206.9635345935
 20
61.9321691479
  0
LINE
  5
4D1
100
AcDbEntity
  8
RACCORDO
100
AcDbLine
 62
7
  6
CONTINUOUS
 10
205.5570013471
 20
60.6912041226
 11
206.0966096485
 21
61.0316777162
  0
LWPOLYLINE
  5
4D2
100
AcDbEntity
  8
RACCORDO
100
AcDbPolyline
 62
7
  6
CONTINUOUS
 90
17
 70
0
 10
134.5375000091
 20
180.3504779979
 10
134.4990416083
 20
180.3410802635
 10
134.4609725215
 20
180.3277324457
 10
134.4237015894
 20
180.3106494419
 10
134.3884553336
 20
180.2904759442
 10
134.3555253943
 20
180.2672625601
 10
134.3246201313
 20
180.2409586821
 10
134.2960911459
 20
180.2120571802
 10
134.2698992892
 20
180.1805126473
 10
134.24608371
 20
180.1463704906
 10
134.2251134565
 20
180.1102598012
 10
134.2070083197
 20
180.0718989142
 10
134.1917485086
 20
180.0315694946
 10
134.1797436977
 20
179.990745629
 10
134.1711304452
 20
179.9499186795
 10
134.165772193
 20
179.9085972839
 10
134.1636689409
 20
179.8667814424
  0
LINE
  5
4D3
100
AcDbEntity
  8
RACCORDO
100
AcDbLine
 62
7
  6
CONTINUOUS
 10
152.9592880499
 20
180.3509930484
 11
152.9132436566
 21
180.3415951019
  0
LINE
  5
4D4
100
AcDbEntity
  8
0
100
AcDbLine
 62
7
  6
CONTINUOUS
 10
137.3165818598
 20
174.9725863703
 11
137.3045720528
 21
174.9702238537
  0
LINE
  5
4D5
100
AcDbEntity
  8
RACCORDO
100
AcDbLine
 62
7
  6
CONTINUOUS
 10
134.5767565647
 20
180.3561405463
 11
134.5375000091
 21
180.3504779979
  0
LINE
  5
4D6
100
AcDbEntity
  8
RACCORDO
100
AcDbLine
 62
7
  6
CONTINUOUS
 10
153.0046387923
 20
180.3566557672
 11
152.9576723556
 21
180.3509930032
  0
LWPOLYLINE
  5
4D7
100
AcDbEntity
  8
RACCORDO
100
AcDbPolyline
 62
253
  6
CONTINUOUS
 90
10
 70
0
 10
209.8895491955
 20
185.6841446007
 10
209.7395170432
 20
185.6660397513
 10
209.3847402532
 20
185.6507107212
 10
208.833716069
 20
185.6396826023
 10
208.0981907665
 20
185.6338174608
 10
207.1960739565
 20
185.6338422743
 10
206.1533308845
 20
185.6399940378
 10
204.9974871469
 20
185.651463045
 10
203.7546557413
 20
185.6667746439
 10
202.4536762544
 20
185.6841446007
  0
LWPOLYLINE
  5
4D8
100
AcDbEntity
  8
0
100
AcDbPolyline
 62
7
  6
CONTINUOUS
 90
21
 70
0
 10
137.0388598285
 20
174.9209859627
 10
137.0490895532
 20
174.9220604617
 10
137.0593425381
 20
174.9232031031
 10
137.0696154486
 20
174.9244175552
 10
137.0799074464
 20
174.9257033784
 10
137.0902150469
 20
174.9270558222
 10
137.1005155209
 20
174.9284743996
 10
137.1108159937
 20
174.9299628103
 10
137.1211563853
 20
174.9315224873
 10
137.131511576
 20
174.9331483505
 10
137.1418949845
 20
174.9348489369
 10
137.1524270547
 20
174.936646873
 10
137.1631489531
 20
174.9385426793
 10
137.1740504713
 20
174.940541275
 10
137.1852131077
 20
174.9426737564
 10
137.1966955178
 20
174.9449422938
 10
137.2085074061
 20
174.947353148
 10
137.2206931131
 20
174.9499462998
 10
137.2333264033
 20
174.9527253078
 10
137.2464389435
 20
174.9556995395
 10
137.2600482567
 20
174.9589217084
  0
LINE
  5
4D9
100
AcDbEntity
  8
RACCORDO
100
AcDbLine
 62
253
  6
CONTINUOUS
 10
211.386521622
 20
183.8584560862
 11
211.7145324819
 21
183.8855657411
  0
LWPOLYLINE
  5
4DA
100
AcDbEntity
  8
RACCORDO
100
AcDbPolyline
 62
253
  6
CONTINUOUS
 90
10
 70
0
 10
207.8982012029
 20
183.8584560862
 10
208.2259603969
 20
183.8855238879
 10
208.5449131436
 20
183.966016948
 10
208.8464142309
 20
184.0977883139
 10
209.1222878547
 20
184.2773034412
 10
209.3650320576
 20
184.4997230071
 10
209.5680307497
 20
184.7590237476
 10
209.7257568231
 20
185.048181044
 10
209.8339154044
 20
185.3593667798
 10
209.8895491756
 20
185.6841441203
  0
LINE
  5
4DB
100
AcDbEntity
  8
RACCORDO
100
AcDbLine
 62
253
  6
CONTINUOUS
 10
93.1432765849
 20
177.4908127838
 11
96.2734631524
 21
177.6684657824
  0
LINE
  5
4DC
100
AcDbEntity
  8
0
100
AcDbLine
 62
7
  6
CONTINUOUS
 10
96.2344062769
 20
177.3224313967
 11
93.35363116
 21
177.1641736614
  0
LINE
  5
4DD
100
AcDbEntity
  8
RACCORDO
100
AcDbLine
 62
7
  6
CONTINUOUS
 10
134.6168112749
 20
180.3580679087
 11
134.5767565647
 21
180.3561405463
  0
LINE
  5
4DE
100
AcDbEntity
  8
RACCORDO
100
AcDbLine
 62
7
  6
CONTINUOUS
 10
153.0509115783
 20
180.3585833034
 11
153.003023098
 21
180.356655722
  0
LWPOLYLINE
  5
4DF
100
AcDbEntity
  8
RACCORDO
100
AcDbPolyline
 62
253
  6
CONTINUOUS
 90
4
 70
0
 10
96.7912749754
 20
181.640373085
 10
93.6200485309
 20
181.5869058272
 10
86.5914610079
 20
181.4521622636
 10
79.5389768129
 20
181.3005740195
  0
LINE
  5
4E0
100
AcDbEntity
  8
DRAFT
100
AcDbLine
 62
7
  6
CONTINUOUS
 10
163.6109794431
 20
175.8588785481
 11
133.3902604821
 21
175.8580336141
  0
LINE
  5
4E1
100
AcDbEntity
  8
0
100
AcDbLine
 62
7
  6
CONTINUOUS
 10
133.3466228411
 20
178.358032395
 11
134.3312236896
 21
178.3580599232
  0
LINE
  5
4E2
100
AcDbEntity
  8
0
100
AcDbLine
 62
7
  6
CONTINUOUS
 10
146.3387981367
 20
178.3583956402
 11
150.6976956561
 21
178.3585175096
  0
LINE
  5
4E3
100
AcDbEntity
  8
0
100
AcDbLine
 62
7
  6
CONTINUOUS
 10
162.6973133562
 20
178.3588530041
 11
163.6546171267
 21
178.3588797692
  0
LINE
  5
4E4
100
AcDbEntity
  8
DRAFT
100
AcDbLine
 62
7
  6
CONTINUOUS
 10
156.0191575803
 20
178.8586662913
 11
151.5191590504
 21
178.8585404769
  0
LINE
  5
4E5
100
AcDbEntity
  8
DRAFT
100
AcDbLine
 62
7
  6
CONTINUOUS
 10
145.5191610106
 20
178.8583727244
 11
141.0191624808
 21
178.8582469099
  0
LINE
  5
4E6
100
AcDbEntity
  8
DRAFT
100
AcDbLine
 62
7
  6
CONTINUOUS
 10
137.3685809456
 20
178.8581448442
 11
133.3378953129
 21
178.8580321512
  0
LINE
  5
4E7
100
AcDbEntity
  8
DRAFT
100
AcDbLine
 62
7
  6
CONTINUOUS
 10
159.6638456527
 20
178.8587681923
 11
163.6633446635
 21
178.8588800134
  0
LINE
  5
4E8
100
AcDbEntity
  8
DRAFT
100
AcDbLine
 62
7
  6
CONTINUOUS
 10
134.1603942284
 20
179.6580551475
 11
135.161793134
 21
179.6580831454
  0
LINE
  5
4E9
100
AcDbEntity
  8
DRAFT
100
AcDbLine
 62
7
  6
CONTINUOUS
 10
144.5103599528
 20
179.6583445198
 11
144.649864118
 21
179.6583484202
  0
LINE
  5
4EA
100
AcDbEntity
  8
DRAFT
100
AcDbLine
 62
7
  6
CONTINUOUS
 10
152.3825177462
 20
179.6585646157
 11
152.5236376058
 21
179.6585685612
  0
LINE
  5
4EB
100
AcDbEntity
  8
DRAFT
100
AcDbLine
 62
7
  6
CONTINUOUS
 10
161.8630962798
 20
179.6588296809
 11
162.8616967208
 21
179.6588576006
  0
LINE
  5
4EC
100
AcDbEntity
  8
RACCORDO
100
AcDbLine
 62
253
  6
CONTINUOUS
 10
134.0549867715
 20
179.8667784038
 11
134.1636689409
 21
179.8667814424
  0
LINE
  5
4ED
100
AcDbEntity
  8
RACCORDO
100
AcDbLine
 62
253
  6
CONTINUOUS
 10
135.1650678465
 20
179.8668094403
 11
144.5065642986
 21
179.867070617
  0
LINE
  5
4EE
100
AcDbEntity
  8
RACCORDO
100
AcDbLine
 62
253
  6
CONTINUOUS
 10
152.5274215885
 20
179.8672948703
 11
161.8598068342
 21
179.8675557923
  0
LINE
  5
4EF
100
AcDbEntity
  8
RACCORDO
100
AcDbLine
 62
253
  6
CONTINUOUS
 10
162.8584072752
 20
179.8675837119
 11
162.9656696377
 21
179.8675867108
  0
LINE
  5
4F0
100
AcDbEntity
  8
RACCORDO
100
AcDbLine
 62
7
  6
CONTINUOUS
 10
162.4047597542
 20
180.3588448255
 11
162.3142443607
 21
180.3588422948
  0
LINE
  5
4F1
100
AcDbEntity
  8
0
100
AcDbLine
 62
7
  6
CONTINUOUS
 10
162.3142443607
 20
180.3588422948
 11
162.0158082191
 21
180.3588339509
  0
LINE
  5
4F2
100
AcDbEntity
  8
RACCORDO
100
AcDbLine
 62
7
  6
CONTINUOUS
 10
134.707297027
 20
180.3580704385
 11
134.6168664267
 21
180.3580679102
  0
LINE
  5
4F3
100
AcDbEntity
  8
RACCORDO
100
AcDbLine
 62
7
  6
CONTINUOUS
 10
134.5552038125
 20
180.3580661862
 11
134.585798565
 21
180.3580670416
  0
LINE
  5
4F4
100
AcDbEntity
  8
0
100
AcDbLine
 62
7
  6
CONTINUOUS
 10
134.7123361692
 20
180.3580705794
 11
135.0048215938
 21
180.358078757
  0
LINE
  5
4F5
100
AcDbEntity
  8
RACCORDO
100
AcDbLine
 62
7
  6
CONTINUOUS
 10
135.6182649345
 20
180.3580959081
 11
143.9829831245
 21
180.3583297753
  0
LINE
  5
4F6
100
AcDbEntity
  8
RACCORDO
100
AcDbLine
 62
7
  6
CONTINUOUS
 10
153.049295884
 20
180.3585832582
 11
161.406158915
 21
180.3588169058
  0
LINE
  5
4F7
100
AcDbEntity
  8
RACCORDO
100
AcDbLine
 62
7
  6
CONTINUOUS
 10
162.4568577032
 20
180.3588462821
 11
162.4654918617
 21
180.3588465235
  0
LINE
  5
4F8
100
AcDbEntity
  8
DRAFT
100
AcDbLine
 62
7
  6
CONTINUOUS
 10
162.8458270216
 20
180.8588571574
 11
162.0119766395
 21
180.8588338439
  0
LINE
  5
4F9
100
AcDbEntity
  8
DRAFT
100
AcDbLine
 62
7
  6
CONTINUOUS
 10
160.8486261397
 20
180.8588013181
 11
159.0988679097
 21
180.858752397
  0
LINE
  5
4FA
100
AcDbEntity
  8
DRAFT
100
AcDbLine
 62
7
  6
CONTINUOUS
 10
138.3272525602
 20
180.8581716482
 11
138.295531678
 21
180.8581707614
  0
LINE
  5
4FB
100
AcDbEntity
  8
DRAFT
100
AcDbLine
 62
7
  6
CONTINUOUS
 10
134.1734988252
 20
180.8580555144
 11
135.0082086613
 21
180.8580788519
  0
LINE
  5
4FC
100
AcDbEntity
  8
DRAFT
100
AcDbLine
 62
7
  6
CONTINUOUS
 10
136.1762966364
 20
180.8581115102
 11
137.9260603396
 21
180.8581604314
  0
LINE
  5
4FD
100
AcDbEntity
  8
DRAFT
100
AcDbLine
 62
7
  6
CONTINUOUS
 10
142.1503636404
 20
180.8582785377
 11
143.664007272
 21
180.8583208573
  0
LINE
  5
4FE
100
AcDbEntity
  8
DRAFT
100
AcDbLine
 62
7
  6
CONTINUOUS
 10
153.3722480198
 20
180.8585922878
 11
154.8858916514
 21
180.8586346074
  0
LINE
  5
4FF
100
AcDbEntity
  8
RACCORDO
100
AcDbLine
 62
7
  6
CONTINUOUS
 10
163.7104733618
 20
181.5588813321
 11
163.1571684642
 21
181.5588658624
  0
LINE
  5
500
100
AcDbEntity
  8
RACCORDO
100
AcDbLine
 62
7
  6
CONTINUOUS
 10
153.0114299886
 20
181.5585822
 11
144.0183431252
 21
181.5583307644
  0
LINE
  5
501
100
AcDbEntity
  8
RACCORDO
100
AcDbLine
 62
7
  6
CONTINUOUS
 10
133.8578135666
 20
181.5580466885
 11
133.2907666605
 21
181.5580308346
  0
LINE
  5
502
100
AcDbEntity
  8
RACCORDO
100
AcDbLine
 62
253
  6
CONTINUOUS
 10
163.719048582
 20
182.0501553688
 11
163.4509077779
 21
182.0501478719
  0
LINE
  5
503
100
AcDbEntity
  8
RACCORDO
100
AcDbLine
 62
253
  6
CONTINUOUS
 10
152.6822242821
 20
182.0498467928
 11
144.3475352158
 21
182.0496137652
  0
LINE
  5
504
100
AcDbEntity
  8
RACCORDO
100
AcDbLine
 62
253
  6
CONTINUOUS
 10
133.5685500847
 20
182.049312398
 11
133.2821914487
 21
182.0493043918
  0
LINE
  5
505
100
AcDbEntity
  8
DRAFT
100
AcDbLine
 62
7
  6
CONTINUOUS
 10
161.2513452634
 20
182.4088125782
 11
163.7253101742
 21
182.4088817472
  0
LWPOLYLINE
  5
506
100
AcDbEntity
  8
RACCORDO
100
AcDbPolyline
 62
253
  6
CONTINUOUS
 90
4
 70
0
 10
217.462248364
 20
181.3005740195
 10
211.1026214978
 20
181.4379581473
 10
204.7413401906
 20
181.5620643126
 10
200.2094445216
 20
181.6409981521
  0
LWPOLYLINE
  5
507
100
AcDbEntity
  8
RACCORDO
100
AcDbPolyline
 62
7
  6
CONTINUOUS
 90
19
 70
0
 10
143.983046838
 20
180.3583297771
 10
144.0293197317
 20
180.3564048283
 10
144.0746707907
 20
180.3507446454
 10
144.1191000152
 20
180.3413492285
 10
144.1630797266
 20
180.3280037046
 10
144.2061376035
 20
180.3109229467
 10
144.2468566808
 20
180.290751573
 10
144.2849000414
 20
180.2675401732
 10
144.3206046024
 20
180.2412381575
 10
144.3535641506
 20
180.2123383747
 10
144.383823915
 20
180.1807954202
 10
144.4113386666
 20
180.1466546986
 10
144.4355665047
 20
180.1105452729
 10
144.4564845827
 20
180.0721854769
 10
144.4741157472
 20
180.0318569769
 10
144.4879866371
 20
179.9910338347
 10
144.4979394655
 20
179.9502074043
 10
144.5041320193
 20
179.9088863317
 10
144.5065642986
 20
179.867070617
  0
LWPOLYLINE
  5
508
100
AcDbEntity
  8
RACCORDO
100
AcDbPolyline
 62
7
  6
CONTINUOUS
 90
19
 70
0
 10
161.4062141183
 20
180.3588169074
 10
161.4463063176
 20
180.3568917858
 10
161.4855998263
 20
180.3512314335
 10
161.5240946444
 20
180.3418358507
 10
161.5622000061
 20
180.3284901626
 10
161.5995066772
 20
180.3114092439
 10
161.6347869553
 20
180.2912377181
 10
161.6677489253
 20
180.2680261762
 10
161.6986845024
 20
180.2417240272
 10
161.7272417294
 20
180.2128241214
 10
161.7534597946
 20
180.1812810538
 10
161.7772995098
 20
180.1471402294
 10
161.7982913541
 20
180.1110307133
 10
161.8164155336
 20
180.0726708392
 10
161.8316918422
 20
180.0323422733
 10
161.8437101405
 20
179.9915190794
 10
161.8523337154
 20
179.9506926118
 10
161.8576992799
 20
179.9093715161
 10
161.8598068342
 20
179.8675557923
  0
LINE
  5
509
100
AcDbEntity
  8
RACCORDO
100
AcDbLine
 62
7
  6
CONTINUOUS
 10
162.4449067586
 20
180.3569197054
 11
162.4048145593
 21
180.358844827
  0
LINE
  5
50A
100
AcDbEntity
  8
0
100
AcDbLine
 62
7
  6
CONTINUOUS
 10
203.6473621494
 20
177.166948166
 11
200.7661802154
 21
177.3250831244
  0
LINE
  5
50B
100
AcDbEntity
  8
RACCORDO
100
AcDbLine
 62
253
  6
CONTINUOUS
 10
200.7273525178
 20
177.6711019686
 11
203.8577057619
 21
177.4935972567
  0
LWPOLYLINE
  5
50C
100
AcDbEntity
  8
RACCORDO
100
AcDbPolyline
 62
253
  6
CONTINUOUS
 90
32
 70
0
 10
203.8577057619
 20
177.4935972567
 10
204.0189996106
 20
177.4812958865
 10
204.1799276055
 20
177.4634975396
 10
204.3404897495
 20
177.4402022819
 10
204.5010408363
 20
177.411386084
 10
204.6612260751
 20
177.3770730642
 10
204.8199811087
 20
177.3373356998
 10
204.9772797263
 20
177.2921155386
 10
205.1331481772
 20
177.2414715422
 10
205.2866008246
 20
177.1856526675
 10
205.4376030952
 20
177.1246090565
 10
205.5861896284
 20
177.058391395
 10
205.7314786332
 20
176.9873997649
 10
205.8733838094
 20
176.9116309343
 10
206.0119915452
 20
176.8310892053
 10
206.1466791019
 20
176.7461861854
 10
206.2774007847
 20
176.6569280242
 10
206.4042023865
 20
176.5633097424
 10
206.5265984121
 20
176.4657263942
 10
206.6445790829
 20
176.3641700011
 10
206.7581542785
 20
176.258649729
 10
206.866868
 20
176.1495864428
 10
206.9707109611
 20
176.0369708634
 10
207.0696925478
 20
175.9208134284
 10
207.1633847757
 20
175.8015646434
 10
207.2517907796
 20
175.6791830584
 10
207.3349075184
 20
175.5537112024
 10
207.4122977477
 20
175.4257255905
 10
207.4839493364
 20
175.2951520038
 10
207.5498744992
 20
175.1620656181
 10
207.6096725128
 20
175.0272670554
 10
207.6632809965
 20
174.890733391
  0
LWPOLYLINE
  5
50D
100
AcDbEntity
  8
RACCORDO
100
AcDbPolyline
 62
253
  6
CONTINUOUS
 90
30
 70
0
 10
203.8405956025
 20
177.2242439858
 10
203.9940180793
 20
177.2124245052
 10
204.147505118
 20
177.1954181196
 10
204.3008212022
 20
177.1731938696
 10
204.4538016915
 20
177.1457128123
 10
204.6061273375
 20
177.1129710866
 10
204.7573311118
 20
177.0750247715
 10
204.9071770825
 20
177.0318946928
 10
205.0554172131
 20
176.9836160264
 10
205.2015811557
 20
176.9303242901
 10
205.3454277447
 20
176.8720948112
 10
205.4867416072
 20
176.8090043631
 10
205.6251160306
 20
176.7412442356
 10
205.7602867711
 20
176.6689579987
 10
205.8921119139
 20
176.5922375259
 10
206.020388343
 20
176.5112259449
 10
206.1448999113
 20
176.4260746842
 10
206.2654941907
 20
176.3369039229
 10
206.3820670163
 20
176.2438121476
 10
206.4944432547
 20
176.1469403684
 10
206.6024532267
 20
176.0464363825
 10
206.7059958869
 20
175.9424036171
 10
206.8049082738
 20
175.8349930689
 10
206.8990331038
 20
175.7243625609
 10
206.9882717187
 20
175.6106222424
 10
207.0724922515
 20
175.4939063467
 10
207.1515286691
 20
175.3744095418
 10
207.2252354415
 20
175.2523362649
 10
207.2935134159
 20
175.1278116428
 10
207.3562111253
 20
175.0010702535
  0
LINE
  5
50E
100
AcDbEntity
  8
RACCORDO
100
AcDbLine
 62
253
  6
CONTINUOUS
 10
85.6147035548
 20
183.8584560862
 11
85.2868398891
 21
183.8855412368
  0
LWPOLYLINE
  5
50F
100
AcDbEntity
  8
RACCORDO
100
AcDbPolyline
 62
253
  6
CONTINUOUS
 90
10
 70
0
 10
89.103023974
 20
183.8584560862
 10
88.7750131852
 20
183.8855657294
 10
88.4558946405
 20
183.9661597307
 10
88.1543195318
 20
184.0980532216
 10
87.8784634634
 20
184.277670618
 10
87.6358047925
 20
184.5001425629
 10
87.4329219008
 20
184.7594379396
 10
87.2753148817
 20
185.0485273544
 10
87.1672564276
 20
185.359573694
 10
87.1116759813
 20
185.6841446007
  0
LWPOLYLINE
  5
510
100
AcDbEntity
  8
RACCORDO
100
AcDbPolyline
 62
253
  6
CONTINUOUS
 90
9
 70
0
 10
86.7711191405
 20
189.6841446007
 10
86.9237579044
 20
189.6658140569
 10
87.284794422
 20
189.650445188
 10
87.8448044081
 20
189.6395306438
 10
88.5929183452
 20
189.6336080054
 10
89.5090042512
 20
189.6336963172
 10
90.5583374996
 20
189.6404177641
 10
91.7074259002
 20
189.6525191935
 10
94.1988259838
 20
189.6841446007
  0
LINE
  5
511
100
AcDbEntity
  8
0
100
AcDbLine
 62
7
  6
CONTINUOUS
 10
159.7042060248
 20
174.9732406464
 11
159.7163582139
 21
174.9708504464
  0
LWPOLYLINE
  5
512
100
AcDbEntity
  8
0
100
AcDbPolyline
 62
7
  6
CONTINUOUS
 90
24
 70
0
 10
159.7563599164
 20
174.9606430182
 10
159.7688639206
 20
174.9576499381
 10
159.7810056579
 20
174.9548479998
 10
159.7927167241
 20
174.9522187896
 10
159.8040229488
 20
174.9497598567
 10
159.8149879386
 20
174.947462827
 10
159.8255951053
 20
174.9453021469
 10
159.8358520163
 20
174.9432758896
 10
159.8458254535
 20
174.9413782188
 10
159.8555673989
 20
174.9395797034
 10
159.8650779598
 20
174.9378765873
 10
159.8744007571
 20
174.9362676393
 10
159.8836240618
 20
174.9347289455
 10
159.892741157
 20
174.9332562503
 10
159.9017711404
 20
174.9318506853
 10
159.9108127092
 20
174.9304975541
 10
159.9198831755
 20
174.9291900852
 10
159.9289486807
 20
174.9279329946
 10
159.9380192333
 20
174.9267291389
 10
159.9470977589
 20
174.9255768584
 10
159.9561699776
 20
174.9244756534
 10
159.965225456
 20
174.9234299346
 10
159.974261628
 20
174.9224403866
 10
159.9824466643
 20
174.921590554
  0
LINE
  5
513
100
AcDbEntity
  8
DRAFT
100
AcDbLine
 62
7
  6
CONTINUOUS
 10
146.5841999761
 20
183.7392401093
 11
146.773786788
 21
183.65084017
  0
LINE
  5
514
100
AcDbEntity
  8
RACCORDO
100
AcDbLine
 62
7
  6
CONTINUOUS
 10
219.1662008034
 20
181.3517955299
 11
219.1654049868
 21
181.360806094
  0
LINE
  5
515
100
AcDbEntity
  8
RACCORDO
100
AcDbLine
 62
253
  6
CONTINUOUS
 10
219.1685168195
 20
181.2990767405
 11
219.6256125884
 21
175.5471275192
  0
LINE
  5
516
100
AcDbEntity
  8
RACCORDO
100
AcDbLine
 62
7
  6
CONTINUOUS
 10
219.1662202349
 20
181.3517971811
 11
219.623712408
 21
175.5949486344
  0
LWPOLYLINE
  5
517
100
AcDbEntity
  8
RACCORDO
100
AcDbPolyline
 62
253
  6
CONTINUOUS
 90
24
 70
0
 10
207.0693624717
 20
61.3247774187
 10
206.9703789593
 20
61.2129750287
 10
206.8665302612
 20
61.1049140784
 10
206.7578062191
 20
61.0006030401
 10
206.6442168916
 20
60.900032282
 10
206.5262163249
 20
60.8036032894
 10
206.4037932177
 20
60.7113237793
 10
206.2769587701
 20
60.6231848455
 10
206.1462007893
 20
60.5395631342
 10
206.0114710643
 20
60.4604542618
 10
205.8728177078
 20
60.38586144
 10
205.7308730248
 20
60.3161728494
 10
205.5855498519
 20
60.251396793
 10
205.4369352646
 20
60.1915238991
 10
205.2859229465
 20
60.1369160652
 10
205.1324817211
 20
60.0876265307
 10
204.9766426993
 20
60.0436012349
 10
204.8193930226
 20
60.0050414358
 10
204.6607113263
 20
59.9720068732
 10
204.5006189373
 20
59.9444373057
 10
204.3401670651
 20
59.9223543772
 10
204.1797061176
 20
59.9057653431
 10
204.0188856843
 20
59.8946628609
 10
203.857705762
 20
59.889046866
  0
LWPOLYLINE
  5
518
100
AcDbEntity
  8
RACCORDO
100
AcDbPolyline
 62
7
  6
CONTINUOUS
 90
10
 70
0
 10
93.35363116
 20
177.1641736614
 10
92.6612118916
 20
177.0657896722
 10
92.0246992222
 20
176.8834735316
 10
91.4440899536
 20
176.6172651016
 10
90.904516399
 20
176.2536836672
 10
90.4208409977
 20
175.8062738757
 10
90.037654045
 20
175.3156321767
 10
89.7698159793
 20
174.7953251701
 10
89.6024596988
 20
174.2318631676
 10
89.5399527767
 20
173.733063706
  0
LWPOLYLINE
  5
519
100
AcDbEntity
  8
RACCORDO
100
AcDbPolyline
 62
7
  6
CONTINUOUS
 90
27
 70
0
 10
78.7228524277
 20
182.1815231446
 10
78.6966827213
 20
182.1805851063
 10
78.6421457234
 20
182.1763934138
 10
78.5881379151
 20
182.16916706
 10
78.5348406166
 20
182.1589034279
 10
78.4824774091
 20
182.1456357501
 10
78.4312858221
 20
182.1294335244
 10
78.3813887101
 20
182.1103544017
 10
78.3328422419
 20
182.0884296756
 10
78.285828063
 20
182.0637470613
 10
78.2405098034
 20
182.0364054498
 10
78.196918318
 20
182.0064263202
 10
78.155226983
 20
181.9739222565
 10
78.115577505
 20
181.9390041875
 10
78.0779653022
 20
181.9016470458
 10
78.0425179781
 20
181.8619265758
 10
78.0094154851
 20
181.81999279
 10
77.9787434729
 20
181.77589322
 10
77.9506236837
 20
181.7297158535
 10
77.9252156992
 20
181.6816271803
 10
77.9026440975
 20
181.6317636358
 10
77.88300582
 20
181.5802128548
 10
77.8664173787
 20
181.5271472825
 10
77.8529789314
 20
181.4727706856
 10
77.8427503026
 20
181.4171887402
 10
77.8357876794
 20
181.3604642931
 10
77.8350232578
 20
181.3517924035
  0
LWPOLYLINE
  5
51A
100
AcDbEntity
  8
RACCORDO
100
AcDbPolyline
 62
7
  6
CONTINUOUS
 90
4
 70
0
 10
96.933478767
 20
182.5432017822
 10
91.8384450325
 20
182.4539548885
 10
85.1766724817
 20
182.3226588389
 10
78.7227069818
 20
182.1815214445
  0
LWPOLYLINE
  5
51B
100
AcDbEntity
  8
RACCORDO
100
AcDbPolyline
 62
253
  6
CONTINUOUS
 90
10
 70
0
 10
94.5475489227
 20
185.6841446007
 10
93.2204340702
 20
185.6660538515
 10
91.9608602202
 20
185.6507263068
 10
90.7977189996
 20
185.6396908278
 10
89.7562905726
 20
185.6338231224
 10
88.8622264733
 20
185.6338456661
 10
88.1387632201
 20
185.6399824838
 10
87.6007454766
 20
185.6514335466
 10
87.2566797691
 20
185.6667453138
 10
87.1116759813
 20
185.6841446007
  0
LINE
  5
51C
100
AcDbEntity
  8
DRAFT
100
AcDbLine
 62
7
  6
CONTINUOUS
 10
133.4598879823
 20
183.6504679298
 11
133.9482195188
 21
183.650481583
  0
LINE
  5
51D
100
AcDbEntity
  8
RACCORDO
100
AcDbLine
 62
7
  6
CONTINUOUS
 10
211.3943925548
 20
183.8584560862
 11
85.6147035548
 21
183.8584560862
  0
LINE
  5
51E
100
AcDbEntity
  8
RACCORDO
100
AcDbLine
 62
253
  6
CONTINUOUS
 10
213.3778494464
 20
185.6841446007
 11
209.8895491956
 21
185.6841446007
  0
LINE
  5
51F
100
AcDbEntity
  8
RACCORDO
100
AcDbLine
 62
253
  6
CONTINUOUS
 10
202.4536762556
 20
185.6841446007
 11
94.5475489284
 21
185.6841446007
  0
LINE
  5
520
100
AcDbEntity
  8
RACCORDO
100
AcDbLine
 62
253
  6
CONTINUOUS
 10
87.1116759813
 20
185.6841446007
 11
83.6233555622
 21
185.6841446007
  0
LINE
  5
521
100
AcDbEntity
  8
RACCORDO
100
AcDbLine
 62
253
  6
CONTINUOUS
 10
83.2622920274
 20
189.6841446007
 11
86.7711191405
 21
189.6841446007
  0
LINE
  5
522
100
AcDbEntity
  8
RACCORDO
100
AcDbLine
 62
253
  6
CONTINUOUS
 10
94.19882598
 20
189.6841446007
 11
202.8023991934
 21
189.6841446007
  0
LINE
  5
523
100
AcDbEntity
  8
RACCORDO
100
AcDbLine
 62
253
  6
CONTINUOUS
 10
210.2301060363
 20
189.6841446007
 11
213.7388950495
 21
189.6841446007
  0
LWPOLYLINE
  5
524
100
AcDbEntity
  8
RACCORDO
100
AcDbPolyline
 62
253
  6
CONTINUOUS
 90
9
 70
0
 10
204.1427958545
 20
189.6658223945
 10
205.4124420298
 20
189.6504540212
 10
206.5819252401
 20
189.6395349325
 10
207.6278982203
 20
189.6336089036
 10
208.5218314134
 20
189.6336962436
 10
209.2364381695
 20
189.6404148145
 10
209.7602322615
 20
189.6525120776
 10
210.0914604268
 20
189.6678153566
 10
210.2301060364
 20
189.6841446007
  0
LINE
  5
525
100
AcDbEntity
  8
RACCORDO
100
AcDbLine
 62
253
  6
CONTINUOUS
 10
202.8023991929
 20
189.6841446007
 11
204.1427958545
 21
189.6658223945
  0
LWPOLYLINE
  5
526
100
AcDbEntity
  8
RACCORDO
100
AcDbPolyline
 62
7
  6
CONTINUOUS
 90
4
 70
0
 10
218.2785182845
 20
182.1815214134
 10
211.8311595025
 20
182.3225213771
 10
205.1693458638
 20
182.4538327718
 10
200.0679317574
 20
182.5432023368
  0
LWPOLYLINE
  5
527
100
AcDbEntity
  8
RACCORDO
100
AcDbPolyline
 62
253
  6
CONTINUOUS
 90
10
 70
0
 10
207.3562111253
 20
175.0010702535
 10
207.4131427081
 20
174.8724967531
 10
207.4642331817
 20
174.7422819711
 10
207.5094109698
 20
174.6106326296
 10
207.5485611128
 20
174.4779751301
 10
207.5816611975
 20
174.3445230564
 10
207.6087017171
 20
174.2104767226
 10
207.6296557978
 20
174.0762512544
 10
207.6445521373
 20
173.9421220293
 10
207.6534456566
 20
173.8082205469
  0
LWPOLYLINE
  5
528
100
AcDbEntity
  8
RACCORDO
100
AcDbPolyline
 62
253
  6
CONTINUOUS
 90
9
 70
0
 10
207.6632809965
 20
174.890733391
 10
207.7107623997
 20
174.7524883309
 10
207.7519032413
 20
174.613402421
 10
207.786633973
 20
174.473461494
 10
207.815024191
 20
174.3326802583
 10
207.8370691256
 20
174.1919725179
 10
207.8527671949
 20
174.0516429638
 10
207.8621200047
 20
173.9113871734
 10
207.8651275608
 20
173.7712052132
  0
LWPOLYLINE
  5
529
100
AcDbEntity
  8
RACCORDO
100
AcDbPolyline
 62
7
  6
CONTINUOUS
 90
9
 70
0
 10
207.3987706898
 20
174.2347010577
 10
207.2313677826
 20
174.7982368201
 10
206.9634312504
 20
175.3186141999
 10
206.5800351938
 20
175.8093435367
 10
206.0960988413
 20
176.256837491
 10
205.5563888762
 20
176.6204376004
 10
204.9758265422
 20
176.8865786444
 10
204.3394853633
 20
177.0687620871
 10
203.6473621494
 20
177.166948166
  0
LWPOLYLINE
  5
52A
100
AcDbEntity
  8
RACCORDO
100
AcDbPolyline
 62
253
  6
CONTINUOUS
 90
3
 70
0
 10
213.667954068
 20
190.4135947558
 10
213.737104555
 20
190.0521570178
 10
213.7388950899
 20
189.6841445429
  0
LINE
  5
52B
100
AcDbEntity
  8
RACCORDO
100
AcDbLine
 62
253
  6
CONTINUOUS
 10
219.1638379534
 20
181.3354321494
 11
219.1685168195
 21
181.2990767405
  0
LWPOLYLINE
  5
52C
100
AcDbEntity
  8
RACCORDO
100
AcDbPolyline
 62
7
  6
CONTINUOUS
 90
26
 70
0
 10
219.1654049868
 20
181.360806094
 10
219.1583745854
 20
181.4178418631
 10
219.1480430589
 20
181.4737158537
 10
219.1344678332
 20
181.5283648834
 10
219.1177102117
 20
181.5816818326
 10
219.0978734768
 20
181.6334585165
 10
219.0750800016
 20
181.6835172645
 10
219.049429147
 20
181.7317717591
 10
219.0210448651
 20
181.7780901292
 10
218.9900877913
 20
181.8223059942
 10
218.9566830533
 20
181.864327903
 10
218.920918238
 20
181.9041071349
 10
218.8829770335
 20
181.9414916534
 10
218.8429888726
 20
181.9764056079
 10
218.800948208
 20
182.0088749704
 10
218.7570001624
 20
182.0387874044
 10
218.7113207499
 20
182.0660299739
 10
218.6639383492
 20
182.090582407
 10
218.6150180243
 20
182.1123451623
 10
218.5647454074
 20
182.1312291801
 10
218.513177703
 20
182.1472025513
 10
218.4604373713
 20
182.1602077501
 10
218.4067673952
 20
182.170174987
 10
218.3524004434
 20
182.1770718148
 10
218.2975211201
 20
182.1809039966
 10
218.2783782486
 20
182.1815228081
  0
LINE
  5
52D
100
AcDbEntity
  8
RACCORDO
100
AcDbLine
 62
253
  6
CONTINUOUS
 10
85.2536781199
 20
191.8584560862
 11
84.8874919612
 21
191.8246115758
  0
LINE
  5
52E
100
AcDbEntity
  8
RACCORDO
100
AcDbLine
 62
253
  6
CONTINUOUS
 10
88.7624671331
 20
191.8584560862
 11
88.3965171474
 21
191.8246555778
  0
LINE
  5
52F
100
AcDbEntity
  8
RACCORDO
100
AcDbLine
 62
7
  6
CONTINUOUS
 10
85.2460665726
 20
191.8584560862
 11
211.7475470569
 21
191.8584560862
  0
LINE
  5
530
100
AcDbEntity
  8
0
100
AcDbLine
 62
7
  6
CONTINUOUS
 10
210.2166913782
 20
192.6659551287
 11
194.7397212846
 21
192.6659551287
  0
LINE
  5
531
100
AcDbEntity
  8
0
100
AcDbLine
 62
7
  6
CONTINUOUS
 10
102.2615038922
 20
192.6659551287
 11
86.7845337986
 21
192.6659551287
  0
LINE
  5
532
100
AcDbEntity
  8
0
100
AcDbLine
 62
7
  6
CONTINUOUS
 10
209.2407586337
 20
193.2584560862
 11
195.7156540291
 21
193.2584560862
  0
LINE
  5
533
100
AcDbEntity
  8
0
100
AcDbLine
 62
7
  6
CONTINUOUS
 10
101.2855711477
 20
193.2584560862
 11
87.7604665431
 21
193.2584560862
  0
LINE
  5
534
100
AcDbEntity
  8
RACCORDO
100
AcDbLine
 62
253
  6
CONTINUOUS
 10
208.2387580437
 20
191.8584560862
 11
208.6049440163
 21
191.8246116104
  0
LINE
  5
535
100
AcDbEntity
  8
RACCORDO
100
AcDbLine
 62
253
  6
CONTINUOUS
 10
211.7475470569
 20
191.8584560862
 11
212.1136311067
 21
191.8246306165
  0
LWPOLYLINE
  5
536
100
AcDbEntity
  8
RACCORDO
100
AcDbPolyline
 62
253
  6
CONTINUOUS
 90
9
 70
0
 10
88.3965171474
 20
191.8246555778
 10
88.0428739041
 20
191.7243723836
 10
87.7135050404
 20
191.5609621624
 10
87.4195608313
 20
191.3399132333
 10
87.1710187411
 20
191.0686797872
 10
86.9763317613
 20
190.7564436989
 10
86.8421123836
 20
190.4137744792
 10
86.7729200341
 20
190.0522610581
 10
86.7711192871
 20
189.6841442909
  0
LWPOLYLINE
  5
537
100
AcDbEntity
  8
RACCORDO
100
AcDbPolyline
 62
253
  6
CONTINUOUS
 90
9
 70
0
 10
208.6049440163
 20
191.8246116104
 10
208.9587366578
 20
191.7242236158
 10
209.2881620322
 20
191.5606896588
 10
209.582070891
 20
191.3395444441
 10
209.8305160253
 20
191.0682724999
 10
210.0250889207
 20
190.756054865
 10
210.1592043269
 20
190.413458375
 10
210.2283231402
 20
190.0520780385
 10
210.2301060364
 20
189.6841446007
  0
LWPOLYLINE
  5
538
100
AcDbEntity
  8
RACCORDO
100
AcDbPolyline
 62
253
  6
CONTINUOUS
 90
4
 70
0
 10
219.127403333
 20
181.4334845004
 10
219.1433057695
 20
181.4027282926
 10
219.1554449496
 20
181.3700114783
 10
219.1638379534
 20
181.3354321494
  0
LINE
  5
539
100
AcDbEntity
  8
RACCORDO
100
AcDbLine
 62
253
  6
CONTINUOUS
 10
213.5337938224
 20
190.7562226477
 11
213.667954068
 21
190.4135947558
  0
LINE
  5
53A
100
AcDbEntity
  8
RACCORDO
100
AcDbLine
 62
253
  6
CONTINUOUS
 10
84.8874919612
 20
191.8246115758
 11
84.5336991937
 21
191.7242234957
  0
LINE
  5
53B
100
AcDbEntity
  8
RACCORDO
100
AcDbLine
 62
253
  6
CONTINUOUS
 10
212.1136311067
 20
191.8246306165
 11
212.4673592584
 21
191.7242879152
  0
LINE
  5
53C
100
AcDbEntity
  8
RACCORDO
100
AcDbLine
 62
253
  6
CONTINUOUS
 10
212.4673592584
 20
191.7242879152
 11
212.7967602926
 21
191.5608074159
  0
LWPOLYLINE
  5
53D
100
AcDbEntity
  8
RACCORDO
100
AcDbPolyline
 62
253
  6
CONTINUOUS
 90
6
 70
0
 10
202.461652721
 20
191.8584560862
 10
202.5242745382
 20
191.8246551844
 10
202.5847899485
 20
191.7243710523
 10
202.6411511165
 20
191.5609597229
 10
202.6914502007
 20
191.3399099295
 10
202.7339798458
 20
191.0686761346
  0
LINE
  5
53E
100
AcDbEntity
  8
RACCORDO
100
AcDbLine
 62
253
  6
CONTINUOUS
 10
212.7967602926
 20
191.5608074159
 11
213.0906845316
 21
191.3397037443
  0
LINE
  5
53F
100
AcDbEntity
  8
RACCORDO
100
AcDbLine
 62
253
  6
CONTINUOUS
 10
213.3821713142
 20
185.6795064206
 11
213.3778510271
 21
185.6841623511
  0
LINE
  5
540
100
AcDbEntity
  8
RACCORDO
100
AcDbLine
 62
253
  6
CONTINUOUS
 10
213.0906845316
 20
191.3397037443
 11
213.3391716426
 21
191.0684483263
  0
LINE
  5
541
100
AcDbEntity
  8
RACCORDO
100
AcDbLine
 62
253
  6
CONTINUOUS
 10
213.7388950496
 20
189.6841446007
 11
213.7431133193
 21
189.6785814443
  0
LINE
  5
542
100
AcDbEntity
  8
RACCORDO
100
AcDbLine
 62
253
  6
CONTINUOUS
 10
213.3391716426
 20
191.0684483263
 11
213.5337938224
 21
190.7562226477
  0
ARC
  5
543
100
AcDbEntity
  8
0
100
AcDbCircle
 62
7
  6
CONTINUOUS
 10
137.6849585204
 20
181.8581536909
 40
6.9742383097
100
AcDbArc
 50
249.78236332
 51
263.6742480554
  0
ARC
  5
544
100
AcDbEntity
  8
0
100
AcDbCircle
 62
7
  6
CONTINUOUS
 10
137.6849585204
 20
181.8581536909
 40
6.9742383097
100
AcDbArc
 50
276.3289710939
 51
283.8185589112
  0
ARC
  5
545
100
AcDbEntity
  8
0
100
AcDbCircle
 62
7
  6
CONTINUOUS
 10
141.0161318731
 20
181.8582468264
 40
6.9742383097
100
AcDbArc
 50
249.78236332
 51
263.6742480554
  0
ARC
  5
546
100
AcDbEntity
  8
0
100
AcDbCircle
 62
7
  6
CONTINUOUS
 10
141.0161318731
 20
181.8582468264
 40
6.9742383097
100
AcDbArc
 50
276.3289710939
 51
290.2208405187
  0
ARC
  5
547
100
AcDbEntity
  8
RACCORDO
100
AcDbCircle
 62
7
  6
CONTINUOUS
 10
134.5549108629
 20
179.8580661778
 40
0.5
100
AcDbArc
 50
90.0016019194
 51
179.0016019194
  0
ARC
  5
548
100
AcDbEntity
  8
RACCORDO
100
AcDbCircle
 62
7
  6
CONTINUOUS
 10
137.8860842156
 20
179.8581593133
 40
0.5
100
AcDbArc
 50
90.0016019194
 51
179.0016018633
  0
ARC
  5
549
100
AcDbEntity
  8
ASSI
100
AcDbCircle
 62
7
  6
CONTINUOUS
 10
148.493220679
 20
192.1959558806
 40
9.0375
100
AcDbArc
 50
255.0701847412
 51
285.7958069013
  0
ARC
  5
54A
100
AcDbEntity
  8
RACCORDO
100
AcDbCircle
 62
7
  6
CONTINUOUS
 10
85.2500059838
 20
189.8584560862
 40
2.0
100
AcDbArc
 50
90.0000002866
 51
185.1577871029
  0
ARC
  5
54B
100
AcDbEntity
  8
RACCORDO
100
AcDbCircle
 62
7
  6
CONTINUOUS
 10
85.6123853946
 20
185.8584560862
 40
2.0
100
AcDbArc
 50
185.1623482406
 51
269.9999947603
  0
ARC
  5
54C
100
AcDbEntity
  8
0
100
AcDbCircle
 62
7
  6
CONTINUOUS
 10
87.7604665431
 20
192.1584560862
 40
1.1
100
AcDbArc
 50
90.0
 51
152.5249206873
  0
ARC
  5
54D
100
AcDbEntity
  8
0
100
AcDbCircle
 62
7
  6
CONTINUOUS
 10
101.2855711477
 20
192.1584560862
 40
1.1
100
AcDbArc
 50
27.4750793127
 51
90.0
  0
ARC
  5
54E
100
AcDbEntity
  8
0
100
AcDbCircle
 62
7
  6
CONTINUOUS
 10
91.2374366367
 20
192.1584560862
 40
1.1
100
AcDbArc
 50
90.0
 51
152.5249206873
  0
ARC
  5
54F
100
AcDbEntity
  8
0
100
AcDbCircle
 62
7
  6
CONTINUOUS
 10
159.3355865417
 20
181.8587590158
 40
6.9742383097
100
AcDbArc
 50
256.2342138594
 51
263.6742480554
  0
ARC
  5
550
100
AcDbEntity
  8
0
100
AcDbCircle
 62
7
  6
CONTINUOUS
 10
159.3355865417
 20
181.8587590158
 40
6.9742383097
100
AcDbArc
 50
276.3289710939
 51
290.2208405187
  0
ARC
  5
551
100
AcDbEntity
  8
0
100
AcDbCircle
 62
7
  6
CONTINUOUS
 10
156.0161269726
 20
181.8586662078
 40
6.9742383097
100
AcDbArc
 50
249.78236332
 51
263.6742480554
  0
ARC
  5
552
100
AcDbEntity
  8
0
100
AcDbCircle
 62
7
  6
CONTINUOUS
 10
156.0161269726
 20
181.8586662078
 40
6.9742383097
100
AcDbArc
 50
276.3289710939
 51
290.2208405187
  0
ARC
  5
553
100
AcDbEntity
  8
DRAFT
100
AcDbCircle
 62
7
  6
CONTINUOUS
 10
148.5182057359
 20
178.8584565739
 40
5.25
100
AcDbArc
 50
111.6158990365
 51
157.6089997109
  0
ARC
  5
554
100
AcDbEntity
  8
DRAFT
100
AcDbCircle
 62
7
  6
CONTINUOUS
 10
148.5182057359
 20
178.8584565739
 40
5.25
100
AcDbArc
 50
22.394388493
 51
68.3869304064
  0
ARC
  5
555
100
AcDbEntity
  8
DRAFT
100
AcDbCircle
 62
7
  6
CONTINUOUS
 10
148.5190564961
 20
182.8584565993
 40
5.0
100
AcDbArc
 50
233.131637153
 51
306.8714144962
  0
ARC
  5
556
100
AcDbEntity
  8
0
100
AcDbCircle
 62
7
  6
CONTINUOUS
 10
148.516561844
 20
182.8584565295
 40
4.9
100
AcDbArc
 50
293.3170647188
 51
297.828146276
  0
ARC
  5
557
100
AcDbEntity
  8
0
100
AcDbCircle
 62
7
  6
CONTINUOUS
 10
148.5164385845
 20
182.8584565261
 40
4.9
100
AcDbArc
 50
242.5566520693
 51
246.6960112633
  0
ARC
  5
558
100
AcDbEntity
  8
0
100
AcDbCircle
 62
7
  6
CONTINUOUS
 10
148.5154243387
 20
182.8584564977
 40
4.9
100
AcDbArc
 50
297.5998437333
 51
300.1753784785
  0
ARC
  5
559
100
AcDbEntity
  8
0
100
AcDbCircle
 62
7
  6
CONTINUOUS
 10
148.5156365576
 20
182.8584565037
 40
4.9
100
AcDbArc
 50
241.2823116392
 51
242.5649755209
  0
ARC
  5
55A
100
AcDbEntity
  8
RACCORDO
100
AcDbCircle
 62
7
  6
CONTINUOUS
 10
162.4657460343
 20
179.8588465304
 40
0.5
100
AcDbArc
 50
1.0016019194
 51
90.0016019194
  0
ARC
  5
55B
100
AcDbEntity
  8
RACCORDO
100
AcDbCircle
 62
7
  6
CONTINUOUS
 10
159.1462864652
 20
179.8587537224
 40
0.5
100
AcDbArc
 50
1.0016019754
 51
90.0016019194
  0
ARC
  5
55C
100
AcDbEntity
  8
RACCORDO
100
AcDbCircle
 62
7
  6
CONTINUOUS
 10
211.7506733997
 20
189.8584560862
 40
2.0
100
AcDbArc
 50
354.8355672078
 51
89.9999767877
  0
ARC
  5
55D
100
AcDbEntity
  8
RACCORDO
100
AcDbCircle
 62
7
  6
CONTINUOUS
 10
211.3901412346
 20
185.8584560862
 40
2.0
100
AcDbArc
 50
269.9999999935
 51
354.8430996152
  0
ARC
  5
55E
100
AcDbEntity
  8
0
100
AcDbCircle
 62
7
  6
CONTINUOUS
 10
209.2407586337
 20
192.1584560862
 40
1.1
100
AcDbArc
 50
27.4750793127
 51
90.0
  0
ARC
  5
55F
100
AcDbEntity
  8
0
100
AcDbCircle
 62
7
  6
CONTINUOUS
 10
205.7637885401
 20
192.1584560862
 40
1.1
100
AcDbArc
 50
27.4750793127
 51
90.0
  0
ARC
  5
560
100
AcDbEntity
  8
0
100
AcDbCircle
 62
7
  6
CONTINUOUS
 10
195.7156540291
 20
192.1584560862
 40
1.1
100
AcDbArc
 50
90.0
 51
152.5249206873
  0
ELLIPSE
  5
561
100
AcDbEntity
  8
DRAFT
100
AcDbEllipse
 62
7
  6
CONTINUOUS
 10
132.9841813671
 20
182.8580222633
 30
0.0
 11
-0.1742091006
 21
4.9977256077
 31
0.0
 40
0.8653577806
 41
-3.0960448845
 42
-2.5282225606
  0
ELLIPSE
  5
562
100
AcDbEntity
  8
0
100
AcDbEllipse
 62
7
  6
CONTINUOUS
 10
130.1913726764
 20
182.8579441798
 30
0.0
 11
-4.3312575662
 21
4.3310153798
 31
0.0
 40
0.5768118299
 41
-3.5042150131
 42
-3.2137606938
  0
ELLIPSE
  5
563
100
AcDbEntity
  8
0
100
AcDbEllipse
 62
7
  6
CONTINUOUS
 10
166.8323768572
 20
182.8589686172
 30
0.0
 11
4.3289958182
 21
4.3292378917
 31
0.0
 40
0.5778889597
 41
-3.0686167662
 42
-2.7856442532
  0
ELLIPSE
  5
564
100
AcDbEntity
  8
DRAFT
100
AcDbEllipse
 62
7
  6
CONTINUOUS
 10
164.0473728247
 20
182.8588907519
 30
0.0
 11
0.1744156707
 21
4.9977183977
 31
0.0
 40
0.8661653837
 41
-3.7548503831
 42
-3.1940730479
  0
ELLIPSE
  5
565
100
AcDbEntity
  8
DRAFT
100
AcDbEllipse
 62
7
  6
CONTINUOUS
 10
131.9920011743
 20
178.8579945216
 30
0.0
 11
-0.1829195556
 21
5.2476118881
 31
0.0
 40
0.8653577806
 41
5.0730840952
 42
5.8055607645
  0
ELLIPSE
  5
566
100
AcDbEntity
  8
DRAFT
100
AcDbEllipse
 62
7
  6
CONTINUOUS
 10
129.9892033631
 20
178.8579385259
 30
0.0
 11
-0.1829195556
 21
5.2476118881
 31
0.0
 40
0.8653577806
 41
-1.210101212
 42
-0.8487789876
  0
ELLIPSE
  5
567
100
AcDbEntity
  8
DRAFT
100
AcDbEllipse
 62
7
  6
CONTINUOUS
 10
167.0342045548
 20
178.8589742585
 30
0.0
 11
0.1831364542
 21
5.2476043176
 31
0.0
 40
0.8661653837
 41
7.1416456079
 42
7.4933988827
  0
ELLIPSE
  5
568
100
AcDbEntity
  8
DRAFT
100
AcDbEllipse
 62
7
  6
CONTINUOUS
 10
165.0370036728
 20
178.8589184192
 30
0.0
 11
0.1831364542
 21
5.2476043176
 31
0.0
 40
0.8661653837
 41
0.8584603007
 42
1.2102135755
  0
ELLIPSE
  5
569
100
AcDbEntity
  8
DRAFT
100
AcDbEllipse
 62
7
  6
CONTINUOUS
 10
132.396563471
 20
178.8580058327
 30
0.0
 11
0.1826261218
 21
5.2476221083
 31
0.0
 40
0.8653577806
 41
-1.1498391804
 42
-0.3471130134
  0
ELLIPSE
  5
56A
100
AcDbEntity
  8
DRAFT
100
AcDbEllipse
 62
7
  6
CONTINUOUS
 10
164.6335719477
 20
178.8589071397
 30
0.0
 11
-0.183429887
 21
5.2475940688
 31
0.0
 40
0.8661653837
 41
7.0811588492
 42
7.4329121241
  0
ELLIPSE
  5
56B
100
AcDbEntity
  8
DRAFT
100
AcDbEllipse
 62
7
  6
CONTINUOUS
 10
166.6307728297
 20
178.858962979
 30
0.0
 11
-0.183429887
 21
5.2475940688
 31
0.0
 40
0.8661653837
 41
0.7979735421
 42
1.1497268169
  0
ELLIPSE
  5
56C
100
AcDbEntity
  8
DRAFT
100
AcDbEllipse
 62
7
  6
CONTINUOUS
 10
130.3937656598
 20
178.8579498369
 30
0.0
 11
0.1826261218
 21
5.2476221083
 31
0.0
 40
0.8653577806
 41
5.1333461268
 42
5.6383944419
  0
ELLIPSE
  5
56D
100
AcDbEntity
  8
RACCORDO
100
AcDbEllipse
 62
7
  6
CONTINUOUS
 10
131.2506125884
 20
148.1926835827
 30
0.0
 11
-0.0
 21
75.0999595064
 31
0.0
 40
0.0302453443
 41
-1.2357089709
 42
-1.2293347654
  0
ELLIPSE
  5
56E
100
AcDbEntity
  8
RACCORDO
100
AcDbEllipse
 62
7
  6
CONTINUOUS
 10
165.7506125884
 20
148.1926835827
 30
0.0
 11
0.0
 21
75.0999595064
 31
0.0
 40
0.0302453443
 41
1.2293347654
 42
1.2354790663
  0
ELLIPSE
  5
56F
100
AcDbEntity
  8
0
100
AcDbEllipse
 62
7
  6
CONTINUOUS
 10
206.5506125884
 20
183.7964314691
 30
0.0
 11
-0.9995444035
 21
28.6580691046
 31
0.0
 40
0.001053195
 41
-3.5266219648
 42
-3.5168383922
  0
ELLIPSE
  5
570
100
AcDbEntity
  8
0
100
AcDbEllipse
 62
7
  6
CONTINUOUS
 10
206.5506125884
 20
144.8252882988
 30
0.0
 11
-0.9995444035
 21
28.6580691046
 31
0.0
 40
0.001053195
 41
-3.5266219648
 42
-3.5168383922
  0
ELLIPSE
  5
571
100
AcDbEntity
  8
0
100
AcDbEllipse
 62
7
  6
CONTINUOUS
 10
206.5506125884
 20
105.8541451285
 30
0.0
 11
-0.9995444035
 21
28.6580691046
 31
0.0
 40
0.001053195
 41
-3.5266219648
 42
-3.5168383922
  0
ELLIPSE
  5
572
100
AcDbEntity
  8
RACCORDO
100
AcDbEllipse
 62
7
  6
CONTINUOUS
 10
78.1761002239
 20
39.4516586498
 30
0.0
 11
0.800482292
 21
0.0033773257
 31
0.0
 40
0.8660209074
 41
3.1379388293
 42
4.7075171809
  0
ELLIPSE
  5
573
100
AcDbEntity
  8
RACCORDO
100
AcDbEllipse
 62
7
  6
CONTINUOUS
 10
218.825124953
 20
39.4516586498
 30
0.0
 11
0.800482292
 21
-0.0033773257
 31
0.0
 40
0.8660209074
 41
-1.5659245273
 42
0.0036538243
  0
ENDSEC
  0
SECTION
  2
OBJECTS
  0
DICTIONARY
  5
C
100
AcDbDictionary
280
0
281
1
  3
ACAD_GROUP
350
D
  3
ACAD_MLINESTYLE
350
17
  3
ACAD_LAYOUT
350
1A
  3
ACAD_PLOTSETTINGS
350
19
  3
ACAD_PLOTSTYLENAME
350
E
  0
DICTIONARY
  5
D
102
{ACAD_REACTORS
330
C
102
}
100
AcDbDictionary
280
0
281
1
  0
ACDBDICTIONARYWDFLT
  5
E
102
{ACAD_REACTORS
330
C
102
}
100
AcDbDictionary
281
1
  3
Normal
350
F
100
AcDbDictionaryWithDefault
340
F
  0
DICTIONARY
  5
17
102
{ACAD_REACTORS
330
C
102
}
100
AcDbDictionary
280
0
281
1
  3
Standard
350
18
  0
DICTIONARY
  5
19
102
{ACAD_REACTORS
330
C
102
}
100
AcDbDictionary
281
1
  0
DICTIONARY
  5
1A
102
{ACAD_REACTORS
330
C
102
}
100
AcDbDictionary
281
1
  3
Model
350
574
  3
Layout1
350
575
  0
ACDBPLACEHOLDER
  5
F
102
{ACAD_REACTORS
330
E
102
}
  0
MLINESTYLE
  5
18
102
{ACAD_REACTORS
330
17
102
}
100
AcDbMlineStyle
  2
STANDARD
 70
0
  3

 62
256
 51
90.0
 52
90.0
 71
2
 49
0.5
 62
256
  6
BYLAYER
 49
-0.5
 62
256
  6
BYLAYER
  0
LAYOUT
  5
574
102
{ACAD_REACTORS
330
1A
102
}
100
AcDbPlotSettings
  1

  2
none_device
  4
ISO_A4_(297.00_x_210.00_MM)
  6

 40
0.0
 41
0.0
 42
0.0
 43
0.0
 44
297.0
 45
210.0
 46
0.0
 47
0.0
 48
0.0
 49
0.0
140
0.0
141
0.0
142
1.0
143
1.0
 70
1024
 72
1
 73
0
 74
0
  7

 75
0
147
1.0
148
0.0
149
0.0
100
AcDbLayout
  1
Model
 70
0
 71
0
 10
0.0
 20
0.0
 11
297.0
 21
210.0
 12
0.0
 22
0.0
 32
0.0
 14
0.0
 24
0.0
 34
0.0
 15
0.0
 25
0.0
 35
0.0
146
0.0
 13
0.0
 23
0.0
 33
0.0
 16
1.0
 26
0.0
 36
0.0
 17
0.0
 27
1.0
 37
0.0
 76
0
330
247
345
0
346
0
  0
LAYOUT
  5
575
102
{ACAD_REACTORS
330
1A
102
}
100
AcDbPlotSettings
  1

  2
none_device
  4
ISO_A4_(297.00_x_210.00_MM)
  6

 40
0.0
 41
0.0
 42
0.0
 43
0.0
 44
297.0
 45
210.0
 46
0.0
 47
0.0
 48
0.0
 49
0.0
140
0.0
141
0.0
142
1.0
143
1.0
 70
0
 72
1
 73
0
 74
0
  7

 75
0
147
1.0
148
0.0
149
0.0
100
AcDbLayout
  1
Layout1
 70
0
 71
1
 10
0.0
 20
0.0
 11
297.0
 21
210.0
 12
0.0
 22
0.0
 32
0.0
 14
0.0
 24
0.0
 34
0.0
 15
0.0
 25
0.0
 35
0.0
146
0.0
 13
0.0
 23
0.0
 33
0.0
 16
1.0
 26
0.0
 36
0.0
 17
0.0
 27
1.0
 37
0.0
 76
0
330
248
345
0
346
0
  0
ENDSEC
  0
EOF
