  0
SECTION
  2
HEADER
  9
$ACADVER
  1
AC1015
  9
$DWGCODEPAGE
  3
ANSI_1252
  9
$EXTMAX
 10
297.0
 20
210.0
 30
0.0
  9
$EXTMIN
 10
0.0
 20
0.0
 30
0.0
  9
$LIMMIN
 10
0.0
 20
0.0
  9
$LIMMAX
 10
297.0
 20
210.0
  9
$VIEWCTR
 10
148.5
 20
105.0
  9
$VIEWSIZE
 40
210.0
  9
$CLAYER
  8
0
  9
$LTSCALE
 40
16.335
  9
$CELTYPE
  6
BYLAYER
  9
$DIMSCALE
 40
1.0
  9
$DIMASZ
 40
3.0
  9
$DIMEXO
 40
0.5
  9
$DIMDLI
 40
11.286
  9
$DIMEXE
 40
1.5
  9
$DIMCEN
 40
2.673
  9
$DIMLFAC
 40
1.0
  9
$DIMBLK
  1
_FILLED
  9
$DIMTXT
 40
3.0
  9
$DIMTOL
 70
1
  9
$DIMLIM
 70
0
  9
$DIMTFAC
 40
1.0
  9
$DIMTP
 40
0.01
  9
$DIMTM
 40
0.01
  9
$DIMGAP
 40
0.625
  9
$DIMDSEP
 70
44
  9
$PDMODE
 70
3
  9
$PDSIZE
 40
3.0
  9
$HANDSEED
  5
5FC
  9
$TILEMODE
 70
1
  9
$MEASUREMENT
 70
1
  9
$INSUNITS
 70
4
  0
ENDSEC
  0
SECTION
  2
CLASSES
  0
CLASS
  1
ACDBDICTIONARYWDFLT
  2
AcDbDictionaryWithDefault
  3
AutoCAD 2000
 90
0
280
0
281
0
  0
CLASS
  1
ACDBPLACEHOLDER
  2
AcDbPlaceHolder
  3
AutoCAD 2000
 90
0
280
0
281
0
  0
CLASS
  1
LAYOUT
  2
AcDbLayout
  3
AutoCAD 2000
 90
0
280
0
281
0
  0
ENDSEC
  0
SECTION
  2
TABLES
  0
TABLE
  2
VPORT
  5
8
100
AcDbSymbolTable
 70
2
  0
VPORT
  5
1F4
100
AcDbSymbolTableRecord
100
AcDbViewportTableRecord
  2
*ACTIVE
 70
0
 10
0.0
 20
0.0
 11
1.0
 21
1.0
 12
148.5
 22
105.0
 13
0.0
 23
0.0
 14
1.0
 24
1.0
 15
0.0
 25
0.0
 16
0.0
 26
0.0
 36
1.0
 17
0.0
 27
0.0
 37
0.0
 40
210.0
 41
1.4142857143
 42
50.0
 43
0.0
 44
0.0
 50
0.0
 51
0.0
 71
0
 72
100
 73
1
 74
1
 75
0
 76
0
 77
0
 78
0
  0
ENDTAB
  0
TABLE
  2
LTYPE
  5
5
100
AcDbSymbolTable
 70
6
  0
LTYPE
  5
14
100
AcDbSymbolTableRecord
100
AcDbLinetypeTableRecord
  2
BYBLOCK
 70
0
  3

 72
65
 73
0
 40
0.0
  0
LTYPE
  5
15
100
AcDbSymbolTableRecord
100
AcDbLinetypeTableRecord
  2
BYLAYER
 70
0
  3

 72
65
 73
0
 40
0.0
  0
LTYPE
  5
16
100
AcDbSymbolTableRecord
100
AcDbLinetypeTableRecord
  2
CONTINUOUS
 70
64
  3
Solid line
 72
65
 73
0
 40
0.0
  0
LTYPE
  5
1F5
100
AcDbSymbolTableRecord
100
AcDbLinetypeTableRecord
  2
CENTER
 70
64
  3
____ _ ____ _ ____ _ ____ _ ____ _ ____ _ ____
 72
65
 73
4
 40
0.6
 49
0.375
 74
0
 49
-0.075
 74
0
 49
0.075
 74
0
 49
-0.075
 74
0
  0
LTYPE
  5
1F6
100
AcDbSymbolTableRecord
100
AcDbLinetypeTableRecord
  2
HIDDEN
 70
64
  3
- - - - - - - - - - - - - - - - - - - -
 72
65
 73
2
 40
0.2
 49
0.1
 74
0
 49
-0.1
 74
0
  0
LTYPE
  5
1F7
100
AcDbSymbolTableRecord
100
AcDbLinetypeTableRecord
  2
PHANTOM
 70
64
  3
_____ _ _ _____ _ _ _____ _ _ _____
 72
65
 73
6
 40
0.8
 49
0.45
 74
0
 49
-0.05
 74
0
 49
0.1
 74
0
 49
-0.05
 74
0
 49
0.1
 74
0
 49
-0.05
 74
0
  0
LTYPE
  5
1F8
100
AcDbSymbolTableRecord
100
AcDbLinetypeTableRecord
  2
DOT
 70
64
  3
. . . . . . . . . . . . . . . . . . . .
 72
65
 73
2
 40
0.2
 49
0.1
 74
0
 49
-0.1
 74
0
  0
LTYPE
  5
1F9
100
AcDbSymbolTableRecord
100
AcDbLinetypeTableRecord
  2
DASHED
 70
64
  3
- - - - - - - - - - - - - - - - - - - -
 72
65
 73
2
 40
0.2
 49
0.1
 74
0
 49
-0.1
 74
0
  0
ENDTAB
  0
TABLE
  2
LAYER
  5
2
100
AcDbSymbolTable
 70
36
  0
LAYER
  5
10
100
AcDbSymbolTableRecord
100
AcDbLayerTableRecord
  2
0
 70
0
 62
7
  6
CONTINUOUS
370
-3
390
F
  0
LAYER
  5
1FA
100
AcDbSymbolTableRecord
100
AcDbLayerTableRecord
  2
DEFAULT_1
 70
0
 62
7
  6
CENTER
370
-3
390
F
  0
LAYER
  5
1FB
100
AcDbSymbolTableRecord
100
AcDbLayerTableRecord
  2
DEFAULT_2
 70
0
 62
7
  6
HIDDEN
370
-3
390
F
  0
LAYER
  5
1FC
100
AcDbSymbolTableRecord
100
AcDbLayerTableRecord
  2
DEFAULT_3
 70
0
 62
7
  6
PHANTOM
370
-3
390
F
  0
LAYER
  5
1FD
100
AcDbSymbolTableRecord
100
AcDbLayerTableRecord
  2
ASSI
 70
0
 62
7
  6
CONTINUOUS
370
-3
390
F
  0
LAYER
  5
1FE
100
AcDbSymbolTableRecord
100
AcDbLayerTableRecord
  2
COLOR3
 70
0
 62
7
  6
CONTINUOUS
370
-3
390
F
  0
LAYER
  5
1FF
100
AcDbSymbolTableRecord
100
AcDbLayerTableRecord
  2
COORDINATE
 70
0
 62
7
  6
CONTINUOUS
370
-3
390
F
  0
LAYER
  5
200
100
AcDbSymbolTableRecord
100
AcDbLayerTableRecord
  2
COPY_PUBLISH
 70
0
 62
7
  6
CONTINUOUS
370
-3
390
F
  0
LAYER
  5
201
100
AcDbSymbolTableRecord
100
AcDbLayerTableRecord
  2
COSMETIC
 70
0
 62
7
  6
CONTINUOUS
370
-3
390
F
  0
LAYER
  5
202
100
AcDbSymbolTableRecord
100
AcDbLayerTableRecord
  2
COSMETICI
 70
0
 62
7
  6
CONTINUOUS
370
-3
390
F
  0
LAYER
  5
203
100
AcDbSymbolTableRecord
100
AcDbLayerTableRecord
  2
CURVE
 70
0
 62
7
  6
CONTINUOUS
370
-3
390
F
  0
LAYER
  5
204
100
AcDbSymbolTableRecord
100
AcDbLayerTableRecord
  2
DRAFT
 70
0
 62
7
  6
CONTINUOUS
370
-3
390
F
  0
LAYER
  5
205
100
AcDbSymbolTableRecord
100
AcDbLayerTableRecord
  2
IMPORT_IGES
 70
0
 62
7
  6
CONTINUOUS
370
-3
390
F
  0
LAYER
  5
206
100
AcDbSymbolTableRecord
100
AcDbLayerTableRecord
  2
INTFCLR_1
 70
0
 62
7
  6
CONTINUOUS
370
-3
390
F
  0
LAYER
  5
207
100
AcDbSymbolTableRecord
100
AcDbLayerTableRecord
  2
INTF_10
 70
0
 62
7
  6
CONTINUOUS
370
-3
390
F
  0
LAYER
  5
208
100
AcDbSymbolTableRecord
100
AcDbLayerTableRecord
  2
INTF_13
 70
0
 62
7
  6
CONTINUOUS
370
-3
390
F
  0
LAYER
  5
209
100
AcDbSymbolTableRecord
100
AcDbLayerTableRecord
  2
INTF_15
 70
0
 62
7
  6
CONTINUOUS
370
-3
390
F
  0
LAYER
  5
20A
100
AcDbSymbolTableRecord
100
AcDbLayerTableRecord
  2
INTF_16
 70
0
 62
7
  6
CONTINUOUS
370
-3
390
F
  0
LAYER
  5
20B
100
AcDbSymbolTableRecord
100
AcDbLayerTableRecord
  2
INTF_18
 70
0
 62
7
  6
CONTINUOUS
370
-3
390
F
  0
LAYER
  5
20C
100
AcDbSymbolTableRecord
100
AcDbLayerTableRecord
  2
INTF_20
 70
0
 62
7
  6
CONTINUOUS
370
-3
390
F
  0
LAYER
  5
20D
100
AcDbSymbolTableRecord
100
AcDbLayerTableRecord
  2
INTF_3
 70
0
 62
7
  6
CONTINUOUS
370
-3
390
F
  0
LAYER
  5
20E
100
AcDbSymbolTableRecord
100
AcDbLayerTableRecord
  2
INTF_5
 70
0
 62
7
  6
CONTINUOUS
370
-3
390
F
  0
LAYER
  5
20F
100
AcDbSymbolTableRecord
100
AcDbLayerTableRecord
  2
INTF_8
 70
0
 62
7
  6
CONTINUOUS
370
-3
390
F
  0
LAYER
  5
210
100
AcDbSymbolTableRecord
100
AcDbLayerTableRecord
  2
NOTE
 70
0
 62
7
  6
CONTINUOUS
370
-3
390
F
  0
LAYER
  5
211
100
AcDbSymbolTableRecord
100
AcDbLayerTableRecord
  2
PIANI
 70
0
 62
7
  6
CONTINUOUS
370
-3
390
F
  0
LAYER
  5
212
100
AcDbSymbolTableRecord
100
AcDbLayerTableRecord
  2
PUNTI
 70
0
 62
7
  6
CONTINUOUS
370
-3
390
F
  0
LAYER
  5
213
100
AcDbSymbolTableRecord
100
AcDbLayerTableRecord
  2
RACCORDO
 70
0
 62
7
  6
CONTINUOUS
370
-3
390
F
  0
LAYER
  5
214
100
AcDbSymbolTableRecord
100
AcDbLayerTableRecord
  2
SIMBOLI
 70
0
 62
7
  6
CONTINUOUS
370
-3
390
F
  0
LAYER
  5
215
100
AcDbSymbolTableRecord
100
AcDbLayerTableRecord
  2
SNAPLINE
 70
0
 62
7
  6
CONTINUOUS
370
-3
390
F
  0
LAYER
  5
216
100
AcDbSymbolTableRecord
100
AcDbLayerTableRecord
  2
SOLIDO
 70
0
 62
7
  6
CONTINUOUS
370
-3
390
F
  0
LAYER
  5
217
100
AcDbSymbolTableRecord
100
AcDbLayerTableRecord
  2
SUPERFICI
 70
0
 62
7
  6
CONTINUOUS
370
-3
390
F
  0
LAYER
  5
218
100
AcDbSymbolTableRecord
100
AcDbLayerTableRecord
  2
SUPERFICI_SKEL
 70
0
 62
7
  6
CONTINUOUS
370
-3
390
F
  0
LAYER
  5
219
100
AcDbSymbolTableRecord
100
AcDbLayerTableRecord
  2
TRASH
 70
0
 62
7
  6
CONTINUOUS
370
-3
390
F
  0
LAYER
  5
21A
100
AcDbSymbolTableRecord
100
AcDbLayerTableRecord
  2
___SHELL
 70
0
 62
7
  6
CONTINUOUS
370
-3
390
F
  0
ENDTAB
  0
TABLE
  2
STYLE
  5
3
100
AcDbSymbolTable
 70
1
  0
STYLE
  5
11
100
AcDbSymbolTableRecord
100
AcDbTextStyleTableRecord
  2
STANDARD
 70
0
 40
0.0
 41
0.8
 50
0.0
 71
0
 42
0.2
  3
txt
  4

  0
STYLE
  5
21B
100
AcDbSymbolTableRecord
100
AcDbTextStyleTableRecord
  2
TEXTSTYLE_1
 70
0
 40
0.0
 41
0.8
 50
0.0
 71
0
 42
0.2
  3
gdt
  4

  0
ENDTAB
  0
TABLE
  2
VIEW
  5
6
100
AcDbSymbolTable
 70
0
  0
ENDTAB
  0
TABLE
  2
UCS
  5
7
100
AcDbSymbolTable
 70
0
  0
ENDTAB
  0
TABLE
  2
APPID
  5
9
100
AcDbSymbolTable
 70
1
  0
APPID
  5
21C
100
AcDbSymbolTableRecord
100
AcDbRegAppTableRecord
  2
ACAD
 70
0
  0
ENDTAB
  0
TABLE
  2
BLOCK_RECORD
  5
1
100
AcDbSymbolTable
 70
0
  0
BLOCK_RECORD
  5
21D
100
AcDbSymbolTableRecord
100
AcDbBlockTableRecord
  2
*Model_Space
  0
BLOCK_RECORD
  5
21E
100
AcDbSymbolTableRecord
100
AcDbBlockTableRecord
  2
*Paper_Space
  0
ENDTAB
  0
TABLE
  2
DIMSTYLE
  5
A
100
AcDbSymbolTable
 70
1
100
AcDbDimStyleTable
 71
0
  0
DIMSTYLE
105
21F
100
AcDbSymbolTableRecord
100
AcDbDimStyleTableRecord
  2
STANDARD
 70
0
  3

  4

 40
1.0
 41
3.0
 42
0.5
 43
0.38
 44
1.5
 45
0.0
 46
0.0
 47
0.01
 48
0.01
140
3.0
141
0.09
142
0.0
143
25.4
144
1.0
145
0.0
146
1.0
147
0.625
 71
1.0
 72
0.0
 73
0
 74
0
 75
0
 76
0
 77
1
 78
8
170
0
171
2
172
0
173
0
174
0
175
0
176
0
177
0
178
0
270
2
271
2
272
2
273
2
274
2
275
0
280
0
281
0
282
0
283
1
284
8
285
0
286
0
287
3
288
0
340
11
278
44
  0
ENDTAB
  0
ENDSEC
  0
SECTION
  2
BLOCKS
  0
BLOCK
  5
20
100
AcDbEntity
  8
0
100
AcDbBlockBegin
  2
*Model_Space
 70
0
 10
0.0
 20
0.0
 30
0.0
  3
*Model_Space
  1

  0
ENDBLK
  5
21
100
AcDbEntity
  8
0
100
AcDbBlockEnd
  0
BLOCK
  5
1C
100
AcDbEntity
  8
0
100
AcDbBlockBegin
  2
*Paper_Space
 70
0
 10
0.0
 20
0.0
 30
0.0
  3
*Paper_Space
  1

  0
ENDBLK
  5
1D
100
AcDbEntity
  8
0
100
AcDbBlockEnd
  0
ENDSEC
  0
SECTION
  2
ENTITIES
  0
LWPOLYLINE
  5
220
100
AcDbEntity
  8
0
100
AcDbPolyline
 62
253
  6
CONTINUOUS
 90
6
 70
0
 10
117.1362805912
 20
86.3349832434
 10
117.1352508954
 20
86.3377505293
 10
117.133615084
 20
86.343503917
 10
117.1317078208
 20
86.3521838962
 10
117.1301993627
 20
86.3636266951
 10
117.1277498031
 20
86.3939390377
  0
LWPOLYLINE
  5
221
100
AcDbEntity
  8
0
100
AcDbPolyline
 62
253
  6
CONTINUOUS
 90
13
 70
0
 10
159.06988788
 20
86.5347091504
 10
159.0677416617
 20
86.5341706309
 10
159.0625753818
 20
86.5330181718
 10
159.0544383105
 20
86.5315794788
 10
159.0434858339
 20
86.5305191534
 10
159.0299357104
 20
86.5298286447
 10
159.0139711431
 20
86.5288741153
 10
158.9956693123
 20
86.5279500303
 10
158.975466128
 20
86.5274854973
 10
158.9539741327
 20
86.5269599344
 10
158.9313979763
 20
86.526268759
 10
158.9076211392
 20
86.5258878064
 10
158.8825834766
 20
86.5260965182
  0
LINE
  5
222
100
AcDbEntity
  8
0
100
AcDbLine
 62
7
  6
CONTINUOUS
 10
151.6097428301
 20
84.5860306896
 11
152.9953834762
 21
84.7118093598
  0
LINE
  5
223
100
AcDbEntity
  8
0
100
AcDbLine
 62
7
  6
CONTINUOUS
 10
124.3964941761
 20
84.5860306896
 11
123.01085353
 21
84.7118093598
  0
LINE
  5
224
100
AcDbEntity
  8
0
100
AcDbLine
 62
253
  6
CONTINUOUS
 10
117.1277498031
 20
86.3939390377
 11
117.1264789624
 21
86.4125434989
  0
LWPOLYLINE
  5
225
100
AcDbEntity
  8
0
100
AcDbPolyline
 62
253
  6
CONTINUOUS
 90
13
 70
0
 10
116.9363491262
 20
86.5347091504
 10
116.9380357144
 20
86.5090912226
 10
116.9430313912
 20
86.4837680867
 10
116.9513030402
 20
86.4591722646
 10
116.9627817858
 20
86.4356967879
 10
116.9773067463
 20
86.4138080055
 10
116.994577633
 20
86.3940059024
 10
117.0142625113
 20
86.3766590354
 10
117.0360489468
 20
86.3620322011
 10
117.0595597441
 20
86.3503786383
 10
117.0843891204
 20
86.341898722
 10
117.1101103192
 20
86.3367374829
 10
117.1362805912
 20
86.3349832434
  0
LINE
  5
226
100
AcDbEntity
  8
0
100
AcDbLine
 62
253
  6
CONTINUOUS
 10
117.1264789624
 20
86.4125434989
 11
117.1240545491
 21
86.477296684
  0
LWPOLYLINE
  5
227
100
AcDbEntity
  8
0
100
AcDbPolyline
 62
253
  6
CONTINUOUS
 90
3
 70
0
 10
117.1240545491
 20
86.477296684
 10
117.1235319554
 20
86.5010979281
 10
117.1236535296
 20
86.5260965182
  0
LINE
  5
228
100
AcDbEntity
  8
0
100
AcDbLine
 62
253
  6
CONTINUOUS
 10
116.9363489088
 20
127.1700729897
 11
116.9429960012
 21
120.0523908524
  0
LINE
  5
229
100
AcDbEntity
  8
0
100
AcDbLine
 62
253
  6
CONTINUOUS
 10
117.1236537318
 20
127.1786831751
 11
117.1284022387
 21
120.0523908524
  0
LINE
  5
22A
100
AcDbEntity
  8
0
100
AcDbLine
 62
253
  6
CONTINUOUS
 10
116.94559167
 20
115.8523908524
 11
116.9477756514
 21
108.4382430044
  0
LINE
  5
22B
100
AcDbEntity
  8
0
100
AcDbLine
 62
7
  6
CONTINUOUS
 10
115.7198926031
 20
128.6187507801
 11
115.7198926031
 21
111.0523908524
  0
LINE
  5
22C
100
AcDbEntity
  8
0
100
AcDbLine
 62
7
  6
CONTINUOUS
 10
115.7198926031
 20
85.0860309247
 11
115.7198926031
 21
102.6523908524
  0
LINE
  5
22D
100
AcDbEntity
  8
0
100
AcDbLine
 62
7
  6
CONTINUOUS
 10
115.7801202227
 20
106.1324142387
 11
115.7801202227
 21
102.6523908524
  0
LINE
  5
22E
100
AcDbEntity
  8
0
100
AcDbLine
 62
7
  6
CONTINUOUS
 10
115.7801202227
 20
107.5723674661
 11
115.7801202227
 21
111.0523908524
  0
LINE
  5
22F
100
AcDbEntity
  8
0
100
AcDbLine
 62
253
  6
CONTINUOUS
 10
115.8473169601
 20
120.0311723323
 11
115.8473169601
 21
115.8736093725
  0
LINE
  5
230
100
AcDbEntity
  8
0
100
AcDbLine
 62
253
  6
CONTINUOUS
 10
115.8473169601
 20
97.8311723323
 11
115.8473169601
 21
93.6736093725
  0
LINE
  5
231
100
AcDbEntity
  8
0
100
AcDbLine
 62
253
  6
CONTINUOUS
 10
116.446494681
 20
120.026210249
 11
116.446494681
 21
115.8785714558
  0
LINE
  5
232
100
AcDbEntity
  8
0
100
AcDbLine
 62
253
  6
CONTINUOUS
 10
116.446494681
 20
97.826210249
 11
116.446494681
 21
93.6785714558
  0
LINE
  5
233
100
AcDbEntity
  8
0
100
AcDbLine
 62
7
  6
CONTINUOUS
 10
116.7495286646
 20
97.826210249
 11
116.7495286646
 21
93.6785714558
  0
LINE
  5
234
100
AcDbEntity
  8
0
100
AcDbLine
 62
7
  6
CONTINUOUS
 10
116.7495286646
 20
115.8785714558
 11
116.7495286646
 21
120.026210249
  0
LINE
  5
235
100
AcDbEntity
  8
0
100
AcDbLine
 62
7
  6
CONTINUOUS
 10
116.8031185031
 20
115.8641721239
 11
116.8031185031
 21
115.8523908524
  0
LINE
  5
236
100
AcDbEntity
  8
0
100
AcDbLine
 62
7
  6
CONTINUOUS
 10
116.8031185031
 20
97.8523908524
 11
116.8031185031
 21
97.8406095809
  0
LINE
  5
237
100
AcDbEntity
  8
0
100
AcDbLine
 62
7
  6
CONTINUOUS
 10
116.8031185031
 20
93.6523908524
 11
116.8031185031
 21
93.6641721239
  0
LINE
  5
238
100
AcDbEntity
  8
0
100
AcDbLine
 62
7
  6
CONTINUOUS
 10
116.8031185031
 20
120.0406095809
 11
116.8031185031
 21
120.0523908524
  0
LINE
  5
239
100
AcDbEntity
  8
0
100
AcDbLine
 62
7
  6
CONTINUOUS
 10
116.8202696749
 20
102.6523908524
 11
116.8202696749
 21
97.8523908524
  0
LINE
  5
23A
100
AcDbEntity
  8
0
100
AcDbLine
 62
7
  6
CONTINUOUS
 10
116.8202696749
 20
93.6523908524
 11
116.8202696749
 21
86.3023909464
  0
LINE
  5
23B
100
AcDbEntity
  8
0
100
AcDbLine
 62
7
  6
CONTINUOUS
 10
116.8202696749
 20
111.0523908524
 11
116.8202696749
 21
115.8523908524
  0
LINE
  5
23C
100
AcDbEntity
  8
0
100
AcDbLine
 62
7
  6
CONTINUOUS
 10
116.8202696749
 20
120.0523908524
 11
116.8202696749
 21
127.4023907583
  0
LINE
  5
23D
100
AcDbEntity
  8
0
100
AcDbLine
 62
7
  6
CONTINUOUS
 10
116.8804972945
 20
105.3122442031
 11
116.8804972945
 21
102.6523908524
  0
LINE
  5
23E
100
AcDbEntity
  8
0
100
AcDbLine
 62
7
  6
CONTINUOUS
 10
116.8804972945
 20
108.3925375017
 11
116.8804972945
 21
111.0523908524
  0
LINE
  5
23F
100
AcDbEntity
  8
0
100
AcDbLine
 62
253
  6
CONTINUOUS
 10
117.1302533172
 20
115.8523908524
 11
117.1317972062
 21
108.6380652602
  0
LINE
  5
240
100
AcDbEntity
  8
0
100
AcDbLine
 62
253
  6
CONTINUOUS
 10
117.1317972062
 20
105.0667164446
 11
117.130253318
 21
97.8523908524
  0
LINE
  5
241
100
AcDbEntity
  8
0
100
AcDbLine
 62
253
  6
CONTINUOUS
 10
116.9477756513
 20
105.266538701
 11
116.94559167
 21
97.8523908524
  0
LINE
  5
242
100
AcDbEntity
  8
0
100
AcDbLine
 62
253
  6
CONTINUOUS
 10
117.1284022388
 20
93.6523908524
 11
117.123656975
 21
86.5260978416
  0
LINE
  5
243
100
AcDbEntity
  8
0
100
AcDbLine
 62
253
  6
CONTINUOUS
 10
116.9429960012
 20
93.6523908524
 11
116.936353245
 21
86.5347173935
  0
LWPOLYLINE
  5
244
100
AcDbEntity
  8
0
100
AcDbPolyline
 62
253
  6
CONTINUOUS
 90
13
 70
0
 10
117.1236535296
 20
127.1786851866
 10
117.1238972256
 20
127.2031264429
 10
117.1243278864
 20
127.2270686187
 10
117.1249389891
 20
127.2501502112
 10
117.1257212836
 20
127.2720227116
 10
117.1266629528
 20
127.292355867
 10
117.1277497928
 20
127.3108426672
 10
117.1289654055
 20
127.32720398
 10
117.1302914242
 20
127.341192766
 10
117.1317078131
 20
127.3525978087
 10
117.1331931913
 20
127.3612469033
 10
117.1347251543
 20
127.3670094571
 10
117.1362805912
 20
127.3697984614
  0
LINE
  5
245
100
AcDbEntity
  8
0
100
AcDbLine
 62
7
  6
CONTINUOUS
 10
141.8531185031
 20
84.6384384688
 11
141.2757682339
 21
84.5860306896
  0
LINE
  5
246
100
AcDbEntity
  8
0
100
AcDbLine
 62
7
  6
CONTINUOUS
 10
151.6097428301
 20
86.1023908524
 11
152.9953834762
 21
86.2281695227
  0
LINE
  5
247
100
AcDbEntity
  8
0
100
AcDbLine
 62
7
  6
CONTINUOUS
 10
130.5531185031
 20
84.6384384688
 11
129.9757682339
 21
84.5860306896
  0
LINE
  5
248
100
AcDbEntity
  8
0
100
AcDbLine
 62
7
  6
CONTINUOUS
 10
141.8531185031
 20
86.1547986317
 11
141.2757682339
 21
86.1023908524
  0
LWPOLYLINE
  5
249
100
AcDbEntity
  8
0
100
AcDbPolyline
 62
253
  6
CONTINUOUS
 90
13
 70
0
 10
158.869956415
 20
86.3349832434
 10
158.8956001369
 20
86.3366680229
 10
158.9209488861
 20
86.3416583676
 10
158.9455697122
 20
86.3499212375
 10
158.969069212
 20
86.3613878867
 10
158.9909805207
 20
86.3758976338
 10
159.0108030556
 20
86.3931504737
 10
159.0281677952
 20
86.4128147103
 10
159.042809789
 20
86.4345783318
 10
159.0544756687
 20
86.4580648555
 10
159.0629647569
 20
86.4828690818
 10
159.0681316791
 20
86.5085646168
 10
159.06988788
 20
86.5347091504
  0
LINE
  5
24A
100
AcDbEntity
  8
0
100
AcDbLine
 62
7
  6
CONTINUOUS
 10
159.7868582395
 20
84.5860306896
 11
158.0964941761
 21
84.5860306896
  0
LINE
  5
24B
100
AcDbEntity
  8
0
100
AcDbLine
 62
7
  6
CONTINUOUS
 10
151.6097428301
 20
84.5860306896
 11
146.0304687723
 21
84.5860306896
  0
LINE
  5
24C
100
AcDbEntity
  8
0
100
AcDbLine
 62
7
  6
CONTINUOUS
 10
141.2757682339
 20
84.5860306896
 11
134.7304687723
 21
84.5860306896
  0
LINE
  5
24D
100
AcDbEntity
  8
0
100
AcDbLine
 62
7
  6
CONTINUOUS
 10
129.9757682339
 20
84.5860306896
 11
124.3964941761
 21
84.5860306896
  0
LINE
  5
24E
100
AcDbEntity
  8
0
100
AcDbLine
 62
7
  6
CONTINUOUS
 10
117.9097428301
 20
84.5860306896
 11
116.2193787667
 21
84.5860306896
  0
LINE
  5
24F
100
AcDbEntity
  8
0
100
AcDbLine
 62
7
  6
CONTINUOUS
 10
134.1531185031
 20
84.6384384688
 11
130.5531185031
 21
84.6384384688
  0
LINE
  5
250
100
AcDbEntity
  8
0
100
AcDbLine
 62
7
  6
CONTINUOUS
 10
141.8531185031
 20
84.6384384688
 11
145.4531185031
 21
84.6384384688
  0
LINE
  5
251
100
AcDbEntity
  8
0
100
AcDbLine
 62
7
  6
CONTINUOUS
 10
122.8376484493
 20
84.7170501378
 11
119.468588557
 21
84.7170501378
  0
LINE
  5
252
100
AcDbEntity
  8
0
100
AcDbLine
 62
7
  6
CONTINUOUS
 10
153.168588557
 20
84.7170501378
 11
156.5376484493
 21
84.7170501378
  0
LINE
  5
253
100
AcDbEntity
  8
0
100
AcDbLine
 62
7
  6
CONTINUOUS
 10
134.1531185031
 20
84.6384384688
 11
134.7304687723
 21
84.5860306896
  0
LINE
  5
254
100
AcDbEntity
  8
0
100
AcDbLine
 62
7
  6
CONTINUOUS
 10
124.3964941761
 20
86.1023908524
 11
123.01085353
 21
86.2281695227
  0
LINE
  5
255
100
AcDbEntity
  8
0
100
AcDbLine
 62
7
  6
CONTINUOUS
 10
145.4531185031
 20
84.6384384688
 11
146.0304687723
 21
84.5860306896
  0
LINE
  5
256
100
AcDbEntity
  8
0
100
AcDbLine
 62
7
  6
CONTINUOUS
 10
134.1531185031
 20
86.1547986317
 11
134.7304687723
 21
86.1023908524
  0
LWPOLYLINE
  5
257
100
AcDbEntity
  8
0
100
AcDbPolyline
 62
7
  6
CONTINUOUS
 90
10
 70
0
 10
116.9477756513
 20
105.266538701
 10
116.947721702
 20
105.2667548552
 10
116.9476677079
 20
105.266949859
 10
116.9476136691
 20
105.2671237126
 10
116.9475595797
 20
105.2672764305
 10
116.9475054456
 20
105.2674079982
 10
116.9474512842
 20
105.2675183716
 10
116.9473971014
 20
105.2676075362
 10
116.9473428912
 20
105.2676755066
 10
116.9472886538
 20
105.2677222827
  0
LINE
  5
258
100
AcDbEntity
  8
0
100
AcDbLine
 62
7
  6
CONTINUOUS
 10
117.4031185031
 20
97.8319140411
 11
117.4031185031
 21
93.6728676637
  0
LINE
  5
259
100
AcDbEntity
  8
0
100
AcDbLine
 62
7
  6
CONTINUOUS
 10
117.4031185031
 20
115.8728676637
 11
117.4031185031
 21
120.0319140411
  0
LINE
  5
25A
100
AcDbEntity
  8
0
100
AcDbLine
 62
7
  6
CONTINUOUS
 10
117.9097428301
 20
129.1187510152
 11
117.9097428301
 21
127.6023908524
  0
LINE
  5
25B
100
AcDbEntity
  8
0
100
AcDbLine
 62
7
  6
CONTINUOUS
 10
117.9097428301
 20
84.5860306896
 11
117.9097428301
 21
86.1023908524
  0
LINE
  5
25C
100
AcDbEntity
  8
0
100
AcDbLine
 62
7
  6
CONTINUOUS
 10
118.3456389088
 20
106.6323190565
 11
118.3456389088
 21
105.3122442031
  0
LINE
  5
25D
100
AcDbEntity
  8
0
100
AcDbLine
 62
7
  6
CONTINUOUS
 10
118.3456389088
 20
107.0724626483
 11
118.3456389088
 21
108.3925375017
  0
LINE
  5
25E
100
AcDbEntity
  8
0
100
AcDbLine
 62
7
  6
CONTINUOUS
 10
118.5031185031
 20
106.6166106944
 11
118.5031185031
 21
105.2808250862
  0
LINE
  5
25F
100
AcDbEntity
  8
0
100
AcDbLine
 62
7
  6
CONTINUOUS
 10
118.5031185031
 20
107.0881710103
 11
118.5031185031
 21
108.4239566186
  0
LINE
  5
260
100
AcDbEntity
  8
0
100
AcDbLine
 62
253
  6
CONTINUOUS
 10
119.2953834762
 20
84.7118093598
 11
119.2953834762
 21
86.2281695227
  0
LINE
  5
261
100
AcDbEntity
  8
0
100
AcDbLine
 62
253
  6
CONTINUOUS
 10
119.2953834762
 20
127.4766121821
 11
119.2953834762
 21
128.9929723449
  0
LINE
  5
262
100
AcDbEntity
  8
0
100
AcDbLine
 62
7
  6
CONTINUOUS
 10
117.9097428301
 20
84.5860306896
 11
119.2953834762
 21
84.7118093598
  0
LINE
  5
263
100
AcDbEntity
  8
0
100
AcDbLine
 62
7
  6
CONTINUOUS
 10
130.5531185031
 20
86.1547986317
 11
129.9757682339
 21
86.1023908524
  0
LINE
  5
264
100
AcDbEntity
  8
0
100
AcDbLine
 62
7
  6
CONTINUOUS
 10
117.9097428301
 20
86.1023908524
 11
119.2953834762
 21
86.2281695227
  0
LINE
  5
265
100
AcDbEntity
  8
0
100
AcDbLine
 62
253
  6
CONTINUOUS
 10
117.1362823862
 20
86.3349868359
 11
120.2577228178
 21
86.3436772792
  0
LINE
  5
266
100
AcDbEntity
  8
0
100
AcDbLine
 62
253
  6
CONTINUOUS
 10
117.123656975
 20
86.5260978416
 11
120.7702502152
 21
86.5349463916
  0
LINE
  5
267
100
AcDbEntity
  8
0
100
AcDbLine
 62
253
  6
CONTINUOUS
 10
120.2577228178
 20
86.3436772792
 11
123.3768972659
 21
86.3489976289
  0
LINE
  5
268
100
AcDbEntity
  8
0
100
AcDbLine
 62
253
  6
CONTINUOUS
 10
120.7702502152
 20
86.5349463916
 11
123.9027939056
 21
86.5392460049
  0
LINE
  5
269
100
AcDbEntity
  8
0
100
AcDbLine
 62
253
  6
CONTINUOUS
 10
123.3768972659
 20
86.3489976289
 11
126.7531844092
 21
86.35096728
  0
LINE
  5
26A
100
AcDbEntity
  8
0
100
AcDbLine
 62
7
  6
CONTINUOUS
 10
117.0200641403
 20
86.1023908524
 11
117.9097428301
 21
86.1023908524
  0
LINE
  5
26B
100
AcDbEntity
  8
0
100
AcDbLine
 62
7
  6
CONTINUOUS
 10
124.3964941761
 20
86.1023908524
 11
129.9757682339
 21
86.1023908524
  0
LINE
  5
26C
100
AcDbEntity
  8
0
100
AcDbLine
 62
7
  6
CONTINUOUS
 10
134.7304687723
 20
86.1023908524
 11
141.2757682339
 21
86.1023908524
  0
LINE
  5
26D
100
AcDbEntity
  8
0
100
AcDbLine
 62
7
  6
CONTINUOUS
 10
146.0304687723
 20
86.1023908524
 11
151.6097428301
 21
86.1023908524
  0
LINE
  5
26E
100
AcDbEntity
  8
0
100
AcDbLine
 62
7
  6
CONTINUOUS
 10
158.0964941761
 20
86.1023908524
 11
158.9861728659
 21
86.1023908524
  0
LINE
  5
26F
100
AcDbEntity
  8
0
100
AcDbLine
 62
7
  6
CONTINUOUS
 10
134.1531185031
 20
86.1547986317
 11
130.5531185031
 21
86.1547986317
  0
LINE
  5
270
100
AcDbEntity
  8
0
100
AcDbLine
 62
7
  6
CONTINUOUS
 10
141.8531185031
 20
86.1547986317
 11
145.4531185031
 21
86.1547986317
  0
LINE
  5
271
100
AcDbEntity
  8
0
100
AcDbLine
 62
7
  6
CONTINUOUS
 10
122.8376484493
 20
86.2334103006
 11
119.468588557
 21
86.2334103006
  0
LINE
  5
272
100
AcDbEntity
  8
0
100
AcDbLine
 62
7
  6
CONTINUOUS
 10
153.168588557
 20
86.2334103006
 11
156.5376484493
 21
86.2334103006
  0
LINE
  5
273
100
AcDbEntity
  8
0
100
AcDbLine
 62
7
  6
CONTINUOUS
 10
135.2008425031
 20
87.5200898524
 11
135.5135345031
 21
87.5200898524
  0
LINE
  5
274
100
AcDbEntity
  8
0
100
AcDbLine
 62
7
  6
CONTINUOUS
 10
136.1916165031
 20
87.5200898524
 11
136.5464445031
 21
87.5200898524
  0
LINE
  5
275
100
AcDbEntity
  8
0
100
AcDbLine
 62
7
  6
CONTINUOUS
 10
136.7374595031
 20
87.5200898524
 11
137.0769145031
 21
87.5200898524
  0
LINE
  5
276
100
AcDbEntity
  8
0
100
AcDbLine
 62
7
  6
CONTINUOUS
 10
137.5697425031
 20
87.5200898524
 11
137.6195065031
 21
87.5200898524
  0
LINE
  5
277
100
AcDbEntity
  8
0
100
AcDbLine
 62
7
  6
CONTINUOUS
 10
138.1142985031
 20
87.5200898524
 11
138.4614145031
 21
87.5200898524
  0
LINE
  5
278
100
AcDbEntity
  8
0
100
AcDbLine
 62
7
  6
CONTINUOUS
 10
138.5171315031
 20
87.5200898524
 11
138.8681095031
 21
87.5200898524
  0
LINE
  5
279
100
AcDbEntity
  8
0
100
AcDbLine
 62
7
  6
CONTINUOUS
 10
139.5411565031
 20
87.5200898524
 11
139.9151305031
 21
87.5200898524
  0
LINE
  5
27A
100
AcDbEntity
  8
0
100
AcDbLine
 62
7
  6
CONTINUOUS
 10
140.019325167
 20
87.5200901657
 11
140.3727254991
 21
87.5200901657
  0
LINE
  5
27B
100
AcDbEntity
  8
0
100
AcDbLine
 62
7
  6
CONTINUOUS
 10
140.9160957182
 20
87.5200901657
 11
141.2573990616
 21
87.5200901657
  0
LINE
  5
27C
100
AcDbEntity
  8
0
100
AcDbLine
 62
7
  6
CONTINUOUS
 10
138.9660205031
 20
87.8594428524
 11
139.4492375031
 21
87.8594428524
  0
LINE
  5
27D
100
AcDbEntity
  8
0
100
AcDbLine
 62
7
  6
CONTINUOUS
 10
139.3783245031
 20
88.1220328524
 11
139.0386025031
 21
88.1220328524
  0
LINE
  5
27E
100
AcDbEntity
  8
0
100
AcDbLine
 62
253
  6
CONTINUOUS
 10
126.7531844092
 20
86.35096728
 11
151.9570671725
 21
86.3497061703
  0
LINE
  5
27F
100
AcDbEntity
  8
0
100
AcDbLine
 62
253
  6
CONTINUOUS
 10
123.9027939056
 20
86.5392460049
 11
153.5431285538
 21
86.5376483594
  0
LINE
  5
280
100
AcDbEntity
  8
0
100
AcDbLine
 62
253
  6
CONTINUOUS
 10
151.9570671725
 20
86.3497061703
 11
155.1225988638
 21
86.3450144672
  0
LINE
  5
281
100
AcDbEntity
  8
0
100
AcDbLine
 62
253
  6
CONTINUOUS
 10
153.5431285538
 20
86.5376483594
 11
156.7117834429
 21
86.531864631
  0
LINE
  5
282
100
AcDbEntity
  8
0
100
AcDbLine
 62
253
  6
CONTINUOUS
 10
156.7117834429
 20
86.531864631
 11
158.8825832745
 21
86.5260985297
  0
LWPOLYLINE
  5
283
100
AcDbEntity
  8
0
100
AcDbPolyline
 62
253
  6
CONTINUOUS
 90
3
 70
0
 10
155.1225988638
 20
86.3450144672
 10
158.3184284944
 20
86.3367622611
 10
158.8699536665
 20
86.3349887442
  0
LWPOLYLINE
  5
284
100
AcDbEntity
  8
0
100
AcDbPolyline
 62
253
  6
CONTINUOUS
 90
13
 70
0
 10
117.1236535296
 20
86.5260965182
 10
117.099170399
 20
86.5262572141
 10
117.0752521544
 20
86.5265465583
 10
117.0522628758
 20
86.5269601357
 10
117.030552503
 20
86.5274916387
 10
117.0104515082
 20
86.528132974
 10
116.9922658659
 20
86.5288743869
 10
116.9762723954
 20
86.5297045981
 10
116.9627145472
 20
86.5306109639
 10
116.951798697
 20
86.53157968
 10
116.9436910046
 20
86.5325960037
 10
116.9385148843
 20
86.5336444768
 10
116.9363491262
 20
86.5347091504
  0
LINE
  5
285
100
AcDbEntity
  8
0
100
AcDbLine
 62
7
  6
CONTINUOUS
 10
158.0964941761
 20
84.5860306896
 11
156.71085353
 21
84.7118093598
  0
LINE
  5
286
100
AcDbEntity
  8
0
100
AcDbLine
 62
7
  6
CONTINUOUS
 10
145.4531185031
 20
86.1547986317
 11
146.0304687723
 21
86.1023908524
  0
LINE
  5
287
100
AcDbEntity
  8
0
100
AcDbLine
 62
7
  6
CONTINUOUS
 10
158.0964941761
 20
86.1023908524
 11
156.71085353
 21
86.2281695227
  0
LINE
  5
288
100
AcDbEntity
  8
0
100
AcDbLine
 62
253
  6
CONTINUOUS
 10
119.468588557
 20
84.7170501378
 11
119.468588557
 21
86.2334103006
  0
LINE
  5
289
100
AcDbEntity
  8
0
100
AcDbLine
 62
253
  6
CONTINUOUS
 10
119.468588557
 20
127.4713714042
 11
119.468588557
 21
128.987731567
  0
LWPOLYLINE
  5
28A
100
AcDbEntity
  8
0
100
AcDbPolyline
 62
7
  6
CONTINUOUS
 90
5
 70
0
 10
116.9710103943
 20
108.4690971264
 10
116.9621241047
 20
108.4583766855
 10
116.955435145
 20
108.4493365161
 10
116.9506586153
 20
108.4424787176
 10
116.9477756514
 20
108.4382430044
  0
LWPOLYLINE
  5
28B
100
AcDbEntity
  8
0
100
AcDbPolyline
 62
7
  6
CONTINUOUS
 90
3
 70
0
 10
117.0066922547
 20
108.5086110351
 10
116.9937542472
 20
108.494382582
 10
116.9710103943
 20
108.4690971264
  0
LWPOLYLINE
  5
28C
100
AcDbEntity
  8
0
100
AcDbPolyline
 62
7
  6
CONTINUOUS
 90
7
 70
0
 10
140.9315706859
 20
88.3236157512
 10
140.9411223211
 20
88.3261726423
 10
140.9505531847
 20
88.3298069058
 10
140.9598632768
 20
88.3345185431
 10
140.9690009256
 20
88.3405538741
 10
140.9780178028
 20
88.3476665832
 10
140.9961765608
 20
88.3626369057
  0
LWPOLYLINE
  5
28D
100
AcDbEntity
  8
0
100
AcDbPolyline
 62
7
  6
CONTINUOUS
 90
10
 70
0
 10
140.3609599347
 20
88.9303645034
 10
140.3922442206
 20
88.935570196
 10
140.4234174799
 20
88.9397572144
 10
140.4544797126
 20
88.9429255571
 10
140.4854155785
 20
88.945081609
 10
140.5162404177
 20
88.9462189833
 10
140.5470002508
 20
88.9463185222
 10
140.5777104179
 20
88.9453738395
 10
140.6083555787
 20
88.9433913217
 10
140.6389357334
 20
88.9403709693
  0
LINE
  5
28E
100
AcDbEntity
  8
0
100
AcDbLine
 62
7
  6
CONTINUOUS
 10
140.3727254991
 20
88.1853225683
 11
140.5629758222
 21
88.1853225683
  0
LINE
  5
28F
100
AcDbEntity
  8
0
100
AcDbLine
 62
7
  6
CONTINUOUS
 10
140.5637406476
 20
88.4637190209
 11
140.3609599347
 21
88.4637190209
  0
LINE
  5
290
100
AcDbEntity
  8
0
100
AcDbLine
 62
7
  6
CONTINUOUS
 10
139.3935705031
 20
89.2199528524
 11
139.0503165031
 21
89.2199528524
  0
LINE
  5
291
100
AcDbEntity
  8
0
100
AcDbLine
 62
7
  6
CONTINUOUS
 10
138.3024575031
 20
89.2199528524
 11
137.9513905031
 21
89.2199528524
  0
LINE
  5
292
100
AcDbEntity
  8
0
100
AcDbLine
 62
7
  6
CONTINUOUS
 10
137.2454815031
 20
89.2199528524
 11
136.8909465031
 21
89.2199528524
  0
LINE
  5
293
100
AcDbEntity
  8
0
100
AcDbLine
 62
7
  6
CONTINUOUS
 10
136.0599385031
 20
89.2199528524
 11
135.7053525031
 21
89.2199528524
  0
LINE
  5
294
100
AcDbEntity
  8
0
100
AcDbLine
 62
7
  6
CONTINUOUS
 10
135.0474055031
 20
89.2199528524
 11
134.6619525031
 21
89.2199528524
  0
LINE
  5
295
100
AcDbEntity
  8
0
100
AcDbLine
 62
7
  6
CONTINUOUS
 10
136.5464445031
 20
89.2200548524
 11
136.1916165031
 21
89.2200548524
  0
LWPOLYLINE
  5
296
100
AcDbEntity
  8
0
100
AcDbPolyline
 62
7
  6
CONTINUOUS
 90
13
 70
0
 10
140.5629758222
 20
88.1853225683
 10
140.5850882734
 20
88.1840523476
 10
140.6063190506
 20
88.1804175976
 10
140.6266681536
 20
88.1744183214
 10
140.646219006
 20
88.1658203374
 10
140.6648881842
 20
88.1548578399
 10
140.6824254181
 20
88.1422333951
 10
140.6988398694
 20
88.1280806838
 10
140.7141223763
 20
88.1122660406
 10
140.7279951837
 20
88.0950910106
 10
140.7403657065
 20
88.0766561136
 10
140.7513265297
 20
88.0568608464
 10
140.7608776533
 20
88.0357052189
  0
LWPOLYLINE
  5
297
100
AcDbEntity
  8
0
100
AcDbPolyline
 62
7
  6
CONTINUOUS
 90
25
 70
0
 10
140.6389357334
 20
88.9403709693
 10
140.6527376227
 20
88.9383521979
 10
140.6662726886
 20
88.9356274139
 10
140.6795409309
 20
88.9321966179
 10
140.6925798352
 20
88.9280497773
 10
140.7053519159
 20
88.9231969266
 10
140.7177447171
 20
88.9176681676
 10
140.7297745737
 20
88.911461356
 10
140.7414251506
 20
88.9045786389
 10
140.752534987
 20
88.8970565552
 10
140.763095001
 20
88.8888795181
 10
140.7731142745
 20
88.8800631178
 10
140.7824585912
 20
88.8706906588
 10
140.79109009
 20
88.8607400537
 10
140.799046632
 20
88.8502333936
 10
140.8063075848
 20
88.8393202495
 10
140.8128714794
 20
88.8280079543
 10
140.8187397847
 20
88.8162891782
 10
140.8238962745
 20
88.8042914967
 10
140.8283532982
 20
88.7920243416
 10
140.8320985065
 20
88.7794782834
 10
140.8350786245
 20
88.7667526047
 10
140.8372758941
 20
88.7538804001
 10
140.8387080735
 20
88.7408285765
 10
140.8393751628
 20
88.7275971347
  0
LWPOLYLINE
  5
298
100
AcDbEntity
  8
0
100
AcDbPolyline
 62
7
  6
CONTINUOUS
 90
3
 70
0
 10
116.993754249
 20
105.2103991279
 10
116.9818138316
 20
105.2236352279
 10
116.9621241047
 20
105.2464050224
  0
LWPOLYLINE
  5
299
100
AcDbEntity
  8
0
100
AcDbPolyline
 62
7
  6
CONTINUOUS
 90
4
 70
0
 10
116.9621241047
 20
105.2464050224
 10
116.9548710067
 20
105.2548803804
 10
116.9499482648
 20
105.2615918379
 10
116.9477756513
 20
105.266538701
  0
LINE
  5
29A
100
AcDbEntity
  8
0
100
AcDbLine
 62
253
  6
CONTINUOUS
 10
122.8376484493
 20
128.987731567
 11
122.8376484493
 21
127.4713714042
  0
LINE
  5
29B
100
AcDbEntity
  8
0
100
AcDbLine
 62
253
  6
CONTINUOUS
 10
122.8376484493
 20
86.2334103006
 11
122.8376484493
 21
84.7170501378
  0
LINE
  5
29C
100
AcDbEntity
  8
0
100
AcDbLine
 62
253
  6
CONTINUOUS
 10
123.01085353
 20
128.9929723449
 11
123.01085353
 21
127.4766121821
  0
LINE
  5
29D
100
AcDbEntity
  8
0
100
AcDbLine
 62
253
  6
CONTINUOUS
 10
123.01085353
 20
86.2281695227
 11
123.01085353
 21
84.7118093598
  0
LWPOLYLINE
  5
29E
100
AcDbEntity
  8
0
100
AcDbPolyline
 62
7
  6
CONTINUOUS
 90
3
 70
0
 10
117.0988510746
 20
108.6049412359
 10
117.0506916113
 20
108.5552098139
 10
117.0066922547
 20
108.5086110351
  0
LWPOLYLINE
  5
29F
100
AcDbEntity
  8
0
100
AcDbPolyline
 62
7
  6
CONTINUOUS
 90
3
 70
0
 10
117.1317972071
 20
108.6380652602
 10
117.1152252643
 20
108.6215973677
 10
117.0988510746
 20
108.6049412359
  0
LWPOLYLINE
  5
2A0
100
AcDbEntity
  8
0
100
AcDbPolyline
 62
7
  6
CONTINUOUS
 90
10
 70
0
 10
116.9472886538
 20
108.4370594221
 10
116.9473428912
 20
108.4371061982
 10
116.9473971014
 20
108.4371741686
 10
116.9474512843
 20
108.4372633333
 10
116.9475054457
 20
108.4373737068
 10
116.9475595798
 20
108.4375052745
 10
116.9476136692
 20
108.4376579925
 10
116.947667708
 20
108.4378318462
 10
116.9477217021
 20
108.4380268502
 10
116.9477756514
 20
108.4382430044
  0
LWPOLYLINE
  5
2A1
100
AcDbEntity
  8
0
100
AcDbPolyline
 62
7
  6
CONTINUOUS
 90
42
 70
0
 10
135.0100604454
 20
125.3421447991
 10
135.0009185646
 20
125.3342871844
 10
134.9916542413
 20
125.3260189829
 10
134.9822010338
 20
125.3173693176
 10
134.9726253839
 20
125.308309063
 10
134.9630384173
 20
125.298678685
 10
134.953429184
 20
125.2884802353
 10
134.9438086342
 20
125.2777116583
 10
134.9343207433
 20
125.2662072577
 10
134.9249713887
 20
125.2539315159
 10
134.9157546931
 20
125.2409199444
 10
134.9067970004
 20
125.2271133891
 10
134.8980954798
 20
125.2125149165
 10
134.8896529622
 20
125.1971214524
 10
134.8816042839
 20
125.180864631
 10
134.8739224595
 20
125.1637197177
 10
134.8666344745
 20
125.1457114371
 10
134.859956122
 20
125.1268456119
 10
134.8538870961
 20
125.1071253428
 10
134.8484277027
 20
125.0865475177
 10
134.8437946534
 20
125.0651086408
 10
134.8399835941
 20
125.0428585251
 10
134.8369988789
 20
125.0197473448
 10
134.8350702815
 20
124.995622144
 10
134.8341310307
 20
124.9704473139
 10
134.8342478978
 20
124.9442584461
 10
134.8358509707
 20
124.9170093828
 10
134.8388280993
 20
124.8885315467
 10
134.8432914336
 20
124.8589934942
 10
134.8500075114
 20
124.8288547715
 10
134.859143211
 20
124.7978521983
 10
134.8705316541
 20
124.7662489409
 10
134.884438743
 20
124.7352940834
 10
134.9010137195
 20
124.7051103257
 10
134.9201073419
 20
124.6755749824
 10
134.9415377872
 20
124.6475690811
 10
134.9655392094
 20
124.6210415764
 10
134.9918774547
 20
124.5960435417
 10
135.0196682378
 20
124.5736091983
 10
135.048616797
 20
124.5540833025
 10
135.0790178942
 20
124.5371211358
 10
135.1108715292
 20
124.5227227129
  0
LWPOLYLINE
  5
2A2
100
AcDbEntity
  8
0
100
AcDbPolyline
 62
7
  6
CONTINUOUS
 90
13
 70
0
 10
140.8953654771
 20
89.1820589919
 10
140.8368679283
 20
89.200315978
 10
140.7754939899
 20
89.2153371115
 10
140.7112436619
 20
89.2271223764
 10
140.6439512488
 20
89.2356018271
 10
140.5737824461
 20
89.2408453871
 10
140.5012343396
 20
89.2430628485
 10
140.4263855628
 20
89.2420702992
 10
140.3491574823
 20
89.23805165
 10
140.2698112838
 20
89.231768431
 10
140.1884340295
 20
89.2234744887
 10
140.1049386572
 20
89.2129159873
 10
140.019325167
 20
89.2000929346
  0
LWPOLYLINE
  5
2A3
100
AcDbEntity
  8
0
100
AcDbPolyline
 62
7
  6
CONTINUOUS
 90
3
 70
0
 10
117.1317972054
 20
105.0667164445
 10
117.1154521828
 20
105.0834120181
 10
117.0826798511
 20
105.1165590858
  0
LWPOLYLINE
  5
2A4
100
AcDbEntity
  8
0
100
AcDbPolyline
 62
7
  6
CONTINUOUS
 90
3
 70
0
 10
117.0826798511
 20
105.1165590858
 10
117.0665508754
 20
105.1331455728
 10
117.0354220127
 20
105.1656690706
  0
LWPOLYLINE
  5
2A5
100
AcDbEntity
  8
0
100
AcDbPolyline
 62
7
  6
CONTINUOUS
 90
3
 70
0
 10
117.0354220127
 20
105.1656690706
 10
117.0207232479
 20
105.1812267041
 10
116.993754249
 20
105.2103991279
  0
LINE
  5
2A6
100
AcDbEntity
  8
0
100
AcDbLine
 62
7
  6
CONTINUOUS
 10
124.3964941761
 20
129.1187510152
 11
124.3964941761
 21
127.6023908524
  0
LINE
  5
2A7
100
AcDbEntity
  8
0
100
AcDbLine
 62
7
  6
CONTINUOUS
 10
124.3964941761
 20
84.5860306896
 11
124.3964941761
 21
86.1023908524
  0
LINE
  5
2A8
100
AcDbEntity
  8
0
100
AcDbLine
 62
7
  6
CONTINUOUS
 10
116.9472886538
 20
108.4370594221
 11
116.8804972945
 21
108.3925375017
  0
LINE
  5
2A9
100
AcDbEntity
  8
0
100
AcDbLine
 62
7
  6
CONTINUOUS
 10
160.2863444031
 20
97.8523908524
 11
160.1589200461
 21
97.8311723323
  0
LINE
  5
2AA
100
AcDbEntity
  8
0
100
AcDbLine
 62
7
  6
CONTINUOUS
 10
159.2567083416
 20
93.6785714558
 11
158.6031185031
 21
93.6728676637
  0
LINE
  5
2AB
100
AcDbEntity
  8
0
100
AcDbLine
 62
7
  6
CONTINUOUS
 10
116.8031185031
 20
93.6641721239
 11
117.4031185031
 21
93.6671951996
  0
LINE
  5
2AC
100
AcDbEntity
  8
0
100
AcDbLine
 62
7
  6
CONTINUOUS
 10
135.8534725031
 20
93.1299118524
 11
136.0224185031
 21
93.1299118524
  0
LINE
  5
2AD
100
AcDbEntity
  8
0
100
AcDbLine
 62
7
  6
CONTINUOUS
 10
136.6267235031
 20
93.1299118524
 11
136.7955695031
 21
93.1299118524
  0
LINE
  5
2AE
100
AcDbEntity
  8
0
100
AcDbLine
 62
7
  6
CONTINUOUS
 10
137.2674275031
 20
93.1299118524
 11
137.4415305031
 21
93.1299118524
  0
LINE
  5
2AF
100
AcDbEntity
  8
0
100
AcDbLine
 62
7
  6
CONTINUOUS
 10
138.1972905031
 20
93.1299118524
 11
138.3818075031
 21
93.1299118524
  0
LINE
  5
2B0
100
AcDbEntity
  8
0
100
AcDbLine
 62
7
  6
CONTINUOUS
 10
138.5368015031
 20
93.1299118524
 11
139.3394755031
 21
93.1299118524
  0
LINE
  5
2B1
100
AcDbEntity
  8
0
100
AcDbLine
 62
7
  6
CONTINUOUS
 10
139.6077075031
 20
93.1299118524
 11
139.7765525031
 21
93.1299118524
  0
LINE
  5
2B2
100
AcDbEntity
  8
0
100
AcDbLine
 62
7
  6
CONTINUOUS
 10
139.3394755031
 20
93.2795478524
 11
138.7056475031
 21
93.2795478524
  0
LINE
  5
2B3
100
AcDbEntity
  8
0
100
AcDbLine
 62
7
  6
CONTINUOUS
 10
137.5721575031
 20
93.4938908524
 11
138.0736395031
 21
93.4938908524
  0
LINE
  5
2B4
100
AcDbEntity
  8
0
100
AcDbLine
 62
7
  6
CONTINUOUS
 10
138.0126725031
 20
93.6435258524
 11
137.6243285031
 21
93.6435258524
  0
LINE
  5
2B5
100
AcDbEntity
  8
0
100
AcDbLine
 62
7
  6
CONTINUOUS
 10
115.7198926031
 20
93.6523908524
 11
117.1284022388
 21
93.6523908524
  0
LINE
  5
2B6
100
AcDbEntity
  8
0
100
AcDbLine
 62
7
  6
CONTINUOUS
 10
158.8778347676
 20
93.6523908524
 11
160.2863444031
 21
93.6523908524
  0
LINE
  5
2B7
100
AcDbEntity
  8
0
100
AcDbLine
 62
7
  6
CONTINUOUS
 10
159.5597423252
 20
93.6785714558
 11
159.2567083416
 21
93.6785714558
  0
LINE
  5
2B8
100
AcDbEntity
  8
0
100
AcDbLine
 62
7
  6
CONTINUOUS
 10
116.7495286646
 20
93.6785714558
 11
116.446494681
 21
93.6785714558
  0
LINE
  5
2B9
100
AcDbEntity
  8
0
100
AcDbLine
 62
7
  6
CONTINUOUS
 10
136.2035995031
 20
94.2309468524
 11
136.6267235031
 21
94.2309468524
  0
LINE
  5
2BA
100
AcDbEntity
  8
0
100
AcDbLine
 62
7
  6
CONTINUOUS
 10
136.7955695031
 20
94.2309468524
 11
137.2186945031
 21
94.2309468524
  0
LINE
  5
2BB
100
AcDbEntity
  8
0
100
AcDbLine
 62
7
  6
CONTINUOUS
 10
140.2484105031
 20
94.3805828524
 11
140.0499415031
 21
94.3805828524
  0
LINE
  5
2BC
100
AcDbEntity
  8
0
100
AcDbLine
 62
7
  6
CONTINUOUS
 10
139.3324995031
 20
94.3805828524
 11
139.1357485031
 21
94.3805828524
  0
LINE
  5
2BD
100
AcDbEntity
  8
0
100
AcDbLine
 62
7
  6
CONTINUOUS
 10
138.7056475031
 20
94.3805828524
 11
138.5368015031
 21
94.3805828524
  0
LINE
  5
2BE
100
AcDbEntity
  8
0
100
AcDbLine
 62
7
  6
CONTINUOUS
 10
137.9290585031
 20
94.3805828524
 11
137.7375655031
 21
94.3805828524
  0
LINE
  5
2BF
100
AcDbEntity
  8
0
100
AcDbLine
 62
7
  6
CONTINUOUS
 10
137.2186945031
 20
94.3805828524
 11
136.2035995031
 21
94.3805828524
  0
LINE
  5
2C0
100
AcDbEntity
  8
0
100
AcDbLine
 62
7
  6
CONTINUOUS
 10
136.0224185031
 20
94.3805828524
 11
135.8534725031
 21
94.3805828524
  0
LINE
  5
2C1
100
AcDbEntity
  8
0
100
AcDbLine
 62
7
  6
CONTINUOUS
 10
158.6031185031
 20
93.6671951996
 11
159.2031185031
 21
93.6641721239
  0
LINE
  5
2C2
100
AcDbEntity
  8
0
100
AcDbLine
 62
7
  6
CONTINUOUS
 10
117.4031185031
 20
93.6728676637
 11
116.7495286646
 21
93.6785714558
  0
LINE
  5
2C3
100
AcDbEntity
  8
0
100
AcDbLine
 62
7
  6
CONTINUOUS
 10
115.7198926031
 20
97.8523908524
 11
115.8473169601
 21
97.8311723323
  0
LINE
  5
2C4
100
AcDbEntity
  8
0
100
AcDbLine
 62
7
  6
CONTINUOUS
 10
116.9472886538
 20
105.2677222827
 11
116.8804972945
 21
105.3122442031
  0
LINE
  5
2C5
100
AcDbEntity
  8
0
100
AcDbLine
 62
253
  6
CONTINUOUS
 10
126.7548457629
 20
108.4440191782
 11
126.7531844092
 21
127.3538144248
  0
LINE
  5
2C6
100
AcDbEntity
  8
0
100
AcDbLine
 62
253
  6
CONTINUOUS
 10
126.7548457629
 20
105.2607625266
 11
126.7531844092
 21
86.35096728
  0
LINE
  5
2C7
100
AcDbEntity
  8
0
100
AcDbLine
 62
7
  6
CONTINUOUS
 10
137.2717745031
 20
94.9275608524
 11
137.4407215031
 21
94.9275608524
  0
LINE
  5
2C8
100
AcDbEntity
  8
0
100
AcDbLine
 62
7
  6
CONTINUOUS
 10
137.7296795031
 20
94.9275608524
 11
137.8934695031
 21
94.9275608524
  0
LINE
  5
2C9
100
AcDbEntity
  8
0
100
AcDbLine
 62
7
  6
CONTINUOUS
 10
138.5324545031
 20
94.9275608524
 11
138.7222285031
 21
94.9275608524
  0
LINE
  5
2CA
100
AcDbEntity
  8
0
100
AcDbLine
 62
7
  6
CONTINUOUS
 10
138.7222285031
 20
96.1772208524
 11
138.5586405031
 21
96.1772208524
  0
LINE
  5
2CB
100
AcDbEntity
  8
0
100
AcDbLine
 62
7
  6
CONTINUOUS
 10
137.9299685031
 20
96.1772208524
 11
137.7296795031
 21
96.1772208524
  0
LINE
  5
2CC
100
AcDbEntity
  8
0
100
AcDbLine
 62
7
  6
CONTINUOUS
 10
137.4407215031
 20
96.1772208524
 11
137.2717745031
 21
96.1772208524
  0
LINE
  5
2CD
100
AcDbEntity
  8
0
100
AcDbLine
 62
253
  6
CONTINUOUS
 10
116.8202696749
 20
86.3023909464
 11
116.936353245
 21
86.5347173935
  0
LINE
  5
2CE
100
AcDbEntity
  8
0
100
AcDbLine
 62
253
  6
CONTINUOUS
 10
117.0200641403
 20
86.1023908524
 11
117.1362823862
 21
86.3349868359
  0
LINE
  5
2CF
100
AcDbEntity
  8
0
100
AcDbLine
 62
7
  6
CONTINUOUS
 10
136.2296845031
 20
120.0713658524
 11
135.7578265031
 21
119.3241988524
  0
LINE
  5
2D0
100
AcDbEntity
  8
0
100
AcDbLine
 62
7
  6
CONTINUOUS
 10
115.7198926031
 20
93.6523908524
 11
115.8473169601
 21
93.6736093725
  0
LWPOLYLINE
  5
2D1
100
AcDbEntity
  8
0
100
AcDbPolyline
 62
7
  6
CONTINUOUS
 90
31
 70
0
 10
138.7282949628
 20
96.7252102225
 10
138.7549198527
 20
96.7257638129
 10
138.7813757119
 20
96.7275475406
 10
138.8076625403
 20
96.7305614059
 10
138.8338465657
 20
96.7347747154
 10
138.8598615604
 20
96.7402181642
 10
138.8855088412
 20
96.7469838363
 10
138.9108256354
 20
96.7550958174
 10
138.9357747157
 20
96.7645300255
 10
138.960045717
 20
96.7753062935
 10
138.9835688512
 20
96.7874135491
 10
139.0064139064
 20
96.8008628704
 10
139.0284798813
 20
96.8157073168
 10
139.0497536704
 20
96.831929316
 10
139.0702483791
 20
96.8495464483
 10
139.0899023232
 20
96.8686645026
 10
139.108744001
 20
96.8893277895
 10
139.1267449142
 20
96.9114920097
 10
139.1437578834
 20
96.9351300386
 10
139.1597709856
 20
96.9601849847
 10
139.1747961438
 20
96.9867137525
 10
139.1887219475
 20
97.0148599125
 10
139.2015678503
 20
97.0445671173
 10
139.2133143984
 20
97.0758917311
 10
139.2237918206
 20
97.1091463943
 10
139.2331676298
 20
97.1444276527
 10
139.2412743129
 20
97.1816389846
 10
139.2474395597
 20
97.2208034319
 10
139.2514392669
 20
97.2619286845
 10
139.2534975377
 20
97.3050070801
 10
139.2536143722
 20
97.3500386335
  0
LINE
  5
2D2
100
AcDbEntity
  8
0
100
AcDbLine
 62
7
  6
CONTINUOUS
 10
117.4031185031
 20
97.8319140411
 11
116.7495286646
 21
97.826210249
  0
LINE
  5
2D3
100
AcDbEntity
  8
0
100
AcDbLine
 62
7
  6
CONTINUOUS
 10
158.6031185031
 20
97.8375865052
 11
159.2031185031
 21
97.8406095809
  0
LINE
  5
2D4
100
AcDbEntity
  8
0
100
AcDbLine
 62
7
  6
CONTINUOUS
 10
135.5958565031
 20
96.7252098524
 11
135.7595455031
 21
96.7252098524
  0
LINE
  5
2D5
100
AcDbEntity
  8
0
100
AcDbLine
 62
7
  6
CONTINUOUS
 10
136.1112905031
 20
96.7252098524
 11
136.2784165031
 21
96.7252098524
  0
LINE
  5
2D6
100
AcDbEntity
  8
0
100
AcDbLine
 62
7
  6
CONTINUOUS
 10
136.6301615031
 20
96.7252098524
 11
136.7938505031
 21
96.7252098524
  0
LINE
  5
2D7
100
AcDbEntity
  8
0
100
AcDbLine
 62
7
  6
CONTINUOUS
 10
136.9435875031
 20
96.7252098524
 11
137.1176905031
 21
96.7252098524
  0
LINE
  5
2D8
100
AcDbEntity
  8
0
100
AcDbLine
 62
7
  6
CONTINUOUS
 10
137.8734515031
 20
96.7252098524
 11
138.0579685031
 21
96.7252098524
  0
LINE
  5
2D9
100
AcDbEntity
  8
0
100
AcDbLine
 62
7
  6
CONTINUOUS
 10
138.2216575031
 20
96.7252098524
 11
138.7282949628
 21
96.7252098524
  0
LINE
  5
2DA
100
AcDbEntity
  8
0
100
AcDbLine
 62
7
  6
CONTINUOUS
 10
139.4874935031
 20
96.7252098524
 11
140.4103805031
 21
96.7252098524
  0
LINE
  5
2DB
100
AcDbEntity
  8
0
100
AcDbLine
 62
7
  6
CONTINUOUS
 10
138.7056474163
 20
96.8697908524
 11
138.3905025031
 21
96.8697908524
  0
LINE
  5
2DC
100
AcDbEntity
  8
0
100
AcDbLine
 62
7
  6
CONTINUOUS
 10
140.4103805031
 20
96.8748458524
 11
139.6564395031
 21
96.8748458524
  0
LINE
  5
2DD
100
AcDbEntity
  8
0
100
AcDbLine
 62
7
  6
CONTINUOUS
 10
137.2483185031
 20
97.0891888524
 11
137.7497995031
 21
97.0891888524
  0
LINE
  5
2DE
100
AcDbEntity
  8
0
100
AcDbLine
 62
7
  6
CONTINUOUS
 10
139.6564395031
 20
97.2924098524
 11
140.3407195031
 21
97.2924098524
  0
LINE
  5
2DF
100
AcDbEntity
  8
0
100
AcDbLine
 62
7
  6
CONTINUOUS
 10
140.3407195031
 20
97.4420458524
 11
139.6564395031
 21
97.4420458524
  0
LINE
  5
2E0
100
AcDbEntity
  8
0
100
AcDbLine
 62
7
  6
CONTINUOUS
 10
139.6564395031
 20
97.8252338524
 11
140.3981475031
 21
97.8252338524
  0
LINE
  5
2E1
100
AcDbEntity
  8
0
100
AcDbLine
 62
7
  6
CONTINUOUS
 10
159.5597423252
 20
97.826210249
 11
159.2567083416
 21
97.826210249
  0
LINE
  5
2E2
100
AcDbEntity
  8
0
100
AcDbLine
 62
7
  6
CONTINUOUS
 10
116.7495286646
 20
97.826210249
 11
116.446494681
 21
97.826210249
  0
LINE
  5
2E3
100
AcDbEntity
  8
0
100
AcDbLine
 62
7
  6
CONTINUOUS
 10
138.3905025031
 20
97.8302888524
 11
138.7056474163
 21
97.8302888524
  0
LINE
  5
2E4
100
AcDbEntity
  8
0
100
AcDbLine
 62
7
  6
CONTINUOUS
 10
115.7198926031
 20
97.8523908524
 11
117.130253318
 21
97.8523908524
  0
LINE
  5
2E5
100
AcDbEntity
  8
0
100
AcDbLine
 62
7
  6
CONTINUOUS
 10
158.8759836891
 20
97.8523908524
 11
160.2863444031
 21
97.8523908524
  0
LINE
  5
2E6
100
AcDbEntity
  8
0
100
AcDbLine
 62
7
  6
CONTINUOUS
 10
140.3981475031
 20
97.9748698524
 11
139.4874935031
 21
97.9748698524
  0
LINE
  5
2E7
100
AcDbEntity
  8
0
100
AcDbLine
 62
7
  6
CONTINUOUS
 10
138.7282949628
 20
97.9748698524
 11
138.2216575031
 21
97.9748698524
  0
LINE
  5
2E8
100
AcDbEntity
  8
0
100
AcDbLine
 62
7
  6
CONTINUOUS
 10
137.6052195031
 20
97.9748698524
 11
137.4137265031
 21
97.9748698524
  0
LINE
  5
2E9
100
AcDbEntity
  8
0
100
AcDbLine
 62
7
  6
CONTINUOUS
 10
136.7938505031
 20
97.9748698524
 11
136.5535235031
 21
97.9748698524
  0
LINE
  5
2EA
100
AcDbEntity
  8
0
100
AcDbLine
 62
7
  6
CONTINUOUS
 10
135.8379015031
 20
97.9748698524
 11
135.5958565031
 21
97.9748698524
  0
LINE
  5
2EB
100
AcDbEntity
  8
0
100
AcDbLine
 62
7
  6
CONTINUOUS
 10
116.8031185031
 20
97.8406095809
 11
117.4031185031
 21
97.8375865052
  0
LINE
  5
2EC
100
AcDbEntity
  8
0
100
AcDbLine
 62
7
  6
CONTINUOUS
 10
159.2567083416
 20
97.826210249
 11
158.6031185031
 21
97.8319140411
  0
LWPOLYLINE
  5
2ED
100
AcDbEntity
  8
0
100
AcDbPolyline
 62
7
  6
CONTINUOUS
 90
28
 70
0
 10
138.7056474163
 20
97.8302888524
 10
138.7303305553
 20
97.8298288248
 10
138.7547958483
 20
97.8278764603
 10
138.7790432953
 20
97.8244317595
 10
138.8032229971
 20
97.81957338
 10
138.8271848529
 20
97.8132226663
 10
138.8504785602
 20
97.80514365
 10
138.8731244555
 20
97.7952384062
 10
138.8951022023
 20
97.7836048652
 10
138.9159004887
 20
97.7703008425
 10
138.9354135173
 20
97.7551450265
 10
138.9537470855
 20
97.7383187373
 10
138.9707072746
 20
97.7204237367
 10
138.9861832117
 20
97.7016048216
 10
139.0002857696
 20
97.6817172018
 10
139.0131536476
 20
97.6609282564
 10
139.0248372733
 20
97.63923631
 10
139.0352862191
 20
97.6166430448
 10
139.0444879016
 20
97.5933208755
 10
139.0523473454
 20
97.5693297412
 10
139.0589595259
 20
97.5446097088
 10
139.064596786
 20
97.519153385
 10
139.0692824392
 20
97.4929916744
 10
139.072993172
 20
97.4660936791
 10
139.0759313868
 20
97.4383593025
 10
139.0781645513
 20
97.4097551819
 10
139.0796251979
 20
97.3803146886
 10
139.0803133265
 20
97.3500378273
  0
LINE
  5
2EE
100
AcDbEntity
  8
0
100
AcDbLine
 62
7
  6
CONTINUOUS
 10
160.2863444031
 20
93.6523908524
 11
160.1589200461
 21
93.6736093725
  0
LINE
  5
2EF
100
AcDbEntity
  8
0
100
AcDbLine
 62
253
  6
CONTINUOUS
 10
116.8202696749
 20
127.4023907583
 11
116.9363489088
 21
127.1700729897
  0
LINE
  5
2F0
100
AcDbEntity
  8
0
100
AcDbLine
 62
253
  6
CONTINUOUS
 10
117.0200641403
 20
127.6023908524
 11
117.1362833398
 21
127.3697929605
  0
LINE
  5
2F1
100
AcDbEntity
  8
0
100
AcDbLine
 62
7
  6
CONTINUOUS
 10
134.6619525031
 20
89.2199528524
 11
135.2008425031
 21
87.5200898524
  0
LINE
  5
2F2
100
AcDbEntity
  8
0
100
AcDbLine
 62
7
  6
CONTINUOUS
 10
129.9757682339
 20
129.1187510152
 11
129.9757682339
 21
127.6023908524
  0
LINE
  5
2F3
100
AcDbEntity
  8
0
100
AcDbLine
 62
7
  6
CONTINUOUS
 10
129.9757682339
 20
84.5860306896
 11
129.9757682339
 21
86.1023908524
  0
LINE
  5
2F4
100
AcDbEntity
  8
0
100
AcDbLine
 62
7
  6
CONTINUOUS
 10
130.5531185031
 20
129.0663432359
 11
130.5531185031
 21
127.5499830731
  0
LINE
  5
2F5
100
AcDbEntity
  8
0
100
AcDbLine
 62
7
  6
CONTINUOUS
 10
130.5531185031
 20
84.6384384688
 11
130.5531185031
 21
86.1547986317
  0
LINE
  5
2F6
100
AcDbEntity
  8
0
100
AcDbLine
 62
7
  6
CONTINUOUS
 10
136.9676345031
 20
125.5827488524
 11
136.7909605031
 21
124.9519078524
  0
LINE
  5
2F7
100
AcDbEntity
  8
0
100
AcDbLine
 62
7
  6
CONTINUOUS
 10
137.1381275031
 20
126.1846918524
 11
137.0402165031
 21
125.8453388524
  0
LINE
  5
2F8
100
AcDbEntity
  8
0
100
AcDbLine
 62
7
  6
CONTINUOUS
 10
136.9559205031
 20
124.4848288524
 11
137.4891055031
 21
126.1846918524
  0
LINE
  5
2F9
100
AcDbEntity
  8
0
100
AcDbLine
 62
7
  6
CONTINUOUS
 10
138.0548465031
 20
124.4848288524
 11
138.4096745031
 21
125.4285978524
  0
LINE
  5
2FA
100
AcDbEntity
  8
0
100
AcDbLine
 62
7
  6
CONTINUOUS
 10
138.3867305031
 20
126.1846918524
 11
137.9648395031
 21
125.0793398524
  0
LINE
  5
2FB
100
AcDbEntity
  8
0
100
AcDbLine
 62
7
  6
CONTINUOUS
 10
135.9562955031
 20
119.3241988524
 11
136.3150165031
 21
119.9247638524
  0
LINE
  5
2FC
100
AcDbEntity
  8
0
100
AcDbLine
 62
7
  6
CONTINUOUS
 10
137.1534865031
 20
88.6300688524
 11
137.5697425031
 21
87.5200898524
  0
LINE
  5
2FD
100
AcDbEntity
  8
0
100
AcDbLine
 62
7
  6
CONTINUOUS
 10
137.5965625031
 20
88.2761838524
 11
137.2454815031
 21
89.2199528524
  0
LINE
  5
2FE
100
AcDbEntity
  8
0
100
AcDbLine
 62
7
  6
CONTINUOUS
 10
135.3714305031
 20
88.0498848524
 11
135.0474055031
 21
89.2199528524
  0
LINE
  5
2FF
100
AcDbEntity
  8
0
100
AcDbLine
 62
7
  6
CONTINUOUS
 10
138.5647065031
 20
120.5748698524
 11
138.4340795031
 21
120.2108908524
  0
LINE
  5
300
100
AcDbEntity
  8
0
100
AcDbLine
 62
7
  6
CONTINUOUS
 10
138.3819085031
 20
120.0612558524
 11
138.1798305031
 21
119.5063318524
  0
LINE
  5
301
100
AcDbEntity
  8
0
100
AcDbLine
 62
7
  6
CONTINUOUS
 10
138.2686715031
 20
119.3241988524
 11
138.7388095031
 21
120.5748698524
  0
LINE
  5
302
100
AcDbEntity
  8
0
100
AcDbLine
 62
7
  6
CONTINUOUS
 10
135.0281185031
 20
110.1523908524
 11
135.8781185031
 21
111.128986582
  0
LINE
  5
303
100
AcDbEntity
  8
0
100
AcDbLine
 62
7
  6
CONTINUOUS
 10
135.6302019716
 20
111.128986582
 11
135.0281185031
 21
110.44175252
  0
LINE
  5
304
100
AcDbEntity
  8
0
100
AcDbLine
 62
7
  6
CONTINUOUS
 10
138.2156185031
 20
111.8162206408
 11
138.0385352373
 21
111.7077100059
  0
LINE
  5
305
100
AcDbEntity
  8
0
100
AcDbLine
 62
7
  6
CONTINUOUS
 10
138.1447852373
 20
111.5630291594
 11
138.2864517689
 21
111.6353695763
  0
LINE
  5
306
100
AcDbEntity
  8
0
100
AcDbLine
 62
7
  6
CONTINUOUS
 10
137.7197852373
 20
102.0694121284
 11
137.5781185031
 21
102.03324192
  0
LINE
  5
307
100
AcDbEntity
  8
0
100
AcDbLine
 62
7
  6
CONTINUOUS
 10
137.6135352373
 20
101.8523908524
 11
137.7906185031
 21
101.888561064
  0
LINE
  5
308
100
AcDbEntity
  8
0
100
AcDbLine
 62
7
  6
CONTINUOUS
 10
136.019785136
 20
101.8523908524
 11
136.1968685031
 21
101.888561064
  0
LINE
  5
309
100
AcDbEntity
  8
0
100
AcDbLine
 62
7
  6
CONTINUOUS
 10
157.5031185031
 20
105.2808250862
 11
157.6605980975
 21
105.3122442031
  0
LINE
  5
30A
100
AcDbEntity
  8
0
100
AcDbLine
 62
7
  6
CONTINUOUS
 10
134.8156185031
 20
101.8523908524
 11
135.0281185031
 21
101.8523908524
  0
LINE
  5
30B
100
AcDbEntity
  8
0
100
AcDbLine
 62
7
  6
CONTINUOUS
 10
135.8781185031
 20
101.8523908524
 11
136.019785136
 21
101.8523908524
  0
LINE
  5
30C
100
AcDbEntity
  8
0
100
AcDbLine
 62
7
  6
CONTINUOUS
 10
137.4010352373
 20
101.8523908524
 11
137.6135352373
 21
101.8523908524
  0
LINE
  5
30D
100
AcDbEntity
  8
0
100
AcDbLine
 62
7
  6
CONTINUOUS
 10
139.2781185031
 20
101.8523908524
 11
139.4906185031
 21
101.8523908524
  0
LINE
  5
30E
100
AcDbEntity
  8
0
100
AcDbLine
 62
7
  6
CONTINUOUS
 10
140.9781185031
 20
101.8523908524
 11
141.1906185031
 21
101.8523908524
  0
LINE
  5
30F
100
AcDbEntity
  8
0
100
AcDbLine
 62
7
  6
CONTINUOUS
 10
137.5781185031
 20
102.03324192
 11
137.4364517689
 21
102.03324192
  0
LINE
  5
310
100
AcDbEntity
  8
0
100
AcDbLine
 62
7
  6
CONTINUOUS
 10
136.0552018702
 20
102.03324192
 11
135.8427018702
 21
102.03324192
  0
LINE
  5
311
100
AcDbEntity
  8
0
100
AcDbLine
 62
7
  6
CONTINUOUS
 10
135.5593685031
 20
102.2502631961
 11
135.3822851867
 21
102.2502631961
  0
LINE
  5
312
100
AcDbEntity
  8
0
100
AcDbLine
 62
7
  6
CONTINUOUS
 10
138.4281185031
 20
102.3587738214
 11
139.2781185031
 21
102.3587738214
  0
LINE
  5
313
100
AcDbEntity
  8
0
100
AcDbLine
 62
7
  6
CONTINUOUS
 10
139.4906185031
 20
102.3587738214
 11
139.8447850347
 21
102.3587738214
  0
LINE
  5
314
100
AcDbEntity
  8
0
100
AcDbLine
 62
7
  6
CONTINUOUS
 10
140.1281185031
 20
102.3587738214
 11
140.9781185031
 21
102.3587738214
  0
LINE
  5
315
100
AcDbEntity
  8
0
100
AcDbLine
 62
7
  6
CONTINUOUS
 10
141.1906185031
 20
102.3587738214
 11
141.54478544
 21
102.3587738214
  0
LINE
  5
316
100
AcDbEntity
  8
0
100
AcDbLine
 62
7
  6
CONTINUOUS
 10
135.8427018702
 20
102.4672844468
 11
136.019785136
 21
102.4672844468
  0
LINE
  5
317
100
AcDbEntity
  8
0
100
AcDbLine
 62
7
  6
CONTINUOUS
 10
141.54478544
 20
102.5757951228
 11
141.1906185031
 21
102.5757951228
  0
LINE
  5
318
100
AcDbEntity
  8
0
100
AcDbLine
 62
7
  6
CONTINUOUS
 10
140.9781185031
 20
102.5757951228
 11
140.3760350347
 21
102.5757951228
  0
LINE
  5
319
100
AcDbEntity
  8
0
100
AcDbLine
 62
7
  6
CONTINUOUS
 10
139.8447850347
 20
102.5757951228
 11
139.4906185031
 21
102.5757951228
  0
LINE
  5
31A
100
AcDbEntity
  8
0
100
AcDbLine
 62
7
  6
CONTINUOUS
 10
139.2781185031
 20
102.5757951228
 11
138.6760350347
 21
102.5757951228
  0
LINE
  5
31B
100
AcDbEntity
  8
0
100
AcDbLine
 62
7
  6
CONTINUOUS
 10
136.0552018702
 20
102.6481355397
 11
135.807285136
 21
102.6481355397
  0
LINE
  5
31C
100
AcDbEntity
  8
0
100
AcDbLine
 62
7
  6
CONTINUOUS
 10
137.4364517689
 20
102.6481355397
 11
137.5781185031
 21
102.6481355397
  0
LINE
  5
31D
100
AcDbEntity
  8
0
100
AcDbLine
 62
7
  6
CONTINUOUS
 10
115.7198926031
 20
102.6523908524
 11
116.8804972945
 21
102.6523908524
  0
LINE
  5
31E
100
AcDbEntity
  8
0
100
AcDbLine
 62
7
  6
CONTINUOUS
 10
159.1257397118
 20
102.6523908524
 11
160.2863444031
 21
102.6523908524
  0
LINE
  5
31F
100
AcDbEntity
  8
0
100
AcDbLine
 62
7
  6
CONTINUOUS
 10
137.5781185031
 20
102.7928163735
 11
137.4364517689
 21
102.7928163735
  0
LINE
  5
320
100
AcDbEntity
  8
0
100
AcDbLine
 62
7
  6
CONTINUOUS
 10
118.5031185031
 20
105.2808250862
 11
118.3456389088
 21
105.3122442031
  0
LINE
  5
321
100
AcDbEntity
  8
0
100
AcDbLine
 62
7
  6
CONTINUOUS
 10
135.701035136
 20
101.888561064
 11
135.8781185031
 21
101.8523908524
  0
LINE
  5
322
100
AcDbEntity
  8
0
100
AcDbLine
 62
7
  6
CONTINUOUS
 10
137.2239517689
 20
101.888561064
 11
137.4010352373
 21
101.8523908524
  0
LINE
  5
323
100
AcDbEntity
  8
0
100
AcDbLine
 62
7
  6
CONTINUOUS
 10
135.6656185031
 20
102.5034547059
 11
135.8427018702
 21
102.4672844468
  0
LINE
  5
324
100
AcDbEntity
  8
0
100
AcDbLine
 62
7
  6
CONTINUOUS
 10
137.4364517689
 20
102.03324192
 11
137.2947852373
 21
102.0694121284
  0
LINE
  5
325
100
AcDbEntity
  8
0
100
AcDbLine
 62
7
  6
CONTINUOUS
 10
137.5781185031
 20
102.6481355397
 11
137.7197852373
 21
102.6119653313
  0
LINE
  5
326
100
AcDbEntity
  8
0
100
AcDbLine
 62
7
  6
CONTINUOUS
 10
137.4364517689
 20
102.7928163735
 11
137.2947852373
 21
102.828986582
  0
LINE
  5
327
100
AcDbEntity
  8
0
100
AcDbLine
 62
7
  6
CONTINUOUS
 10
135.8427018702
 20
102.03324192
 11
135.7364518702
 21
102.0694121284
  0
LINE
  5
328
100
AcDbEntity
  8
0
100
AcDbLine
 62
7
  6
CONTINUOUS
 10
135.807285136
 20
102.6481355397
 11
135.701035136
 21
102.6843057482
  0
LINE
  5
329
100
AcDbEntity
  8
0
100
AcDbLine
 62
7
  6
CONTINUOUS
 10
137.2947852373
 20
102.0694121284
 11
137.1531185031
 21
102.1417525454
  0
LINE
  5
32A
100
AcDbEntity
  8
0
100
AcDbLine
 62
7
  6
CONTINUOUS
 10
137.0822852373
 20
102.7566461651
 11
137.1531185031
 21
102.7204759566
  0
LINE
  5
32B
100
AcDbEntity
  8
0
100
AcDbLine
 62
7
  6
CONTINUOUS
 10
135.5239518702
 20
101.9970716989
 11
135.701035136
 21
101.888561064
  0
LINE
  5
32C
100
AcDbEntity
  8
0
100
AcDbLine
 62
7
  6
CONTINUOUS
 10
135.488535136
 20
102.6119653313
 11
135.6656185031
 21
102.5034547059
  0
LINE
  5
32D
100
AcDbEntity
  8
0
100
AcDbLine
 62
7
  6
CONTINUOUS
 10
137.0468685031
 20
101.9970716989
 11
137.2239517689
 21
101.888561064
  0
LINE
  5
32E
100
AcDbEntity
  8
0
100
AcDbLine
 62
7
  6
CONTINUOUS
 10
135.7364518702
 20
102.0694121284
 11
135.6302018702
 21
102.1417525454
  0
LINE
  5
32F
100
AcDbEntity
  8
0
100
AcDbLine
 62
7
  6
CONTINUOUS
 10
135.701035136
 20
102.6843057482
 11
135.594785136
 21
102.7566461651
  0
LINE
  5
330
100
AcDbEntity
  8
0
100
AcDbLine
 62
7
  6
CONTINUOUS
 10
136.1614518702
 20
103.3353696017
 11
136.2677018702
 21
103.2630291848
  0
LINE
  5
331
100
AcDbEntity
  8
0
100
AcDbLine
 62
7
  6
CONTINUOUS
 10
136.9406185031
 20
102.1055823369
 11
137.0468685031
 21
101.9970716989
  0
LINE
  5
332
100
AcDbEntity
  8
0
100
AcDbLine
 62
7
  6
CONTINUOUS
 10
135.4177018196
 20
102.1417525454
 11
135.5239518702
 21
101.9970716989
  0
LINE
  5
333
100
AcDbEntity
  8
0
100
AcDbLine
 62
7
  6
CONTINUOUS
 10
135.3822851867
 20
102.7566461651
 11
135.488535136
 21
102.6119653313
  0
LINE
  5
334
100
AcDbEntity
  8
0
100
AcDbLine
 62
7
  6
CONTINUOUS
 10
135.6302018702
 20
102.1417525454
 11
135.5593685031
 21
102.2502631961
  0
LINE
  5
335
100
AcDbEntity
  8
0
100
AcDbLine
 62
7
  6
CONTINUOUS
 10
135.594785136
 20
102.7566461651
 11
135.5239518702
 21
102.8651567904
  0
LINE
  5
336
100
AcDbEntity
  8
0
100
AcDbLine
 62
7
  6
CONTINUOUS
 10
139.1357485031
 20
94.3805828524
 11
139.6077075031
 21
93.6334158524
  0
LINE
  5
337
100
AcDbEntity
  8
0
100
AcDbLine
 62
7
  6
CONTINUOUS
 10
137.8934695031
 20
95.9430648524
 11
138.5324545031
 21
94.9275608524
  0
LINE
  5
338
100
AcDbEntity
  8
0
100
AcDbLine
 62
7
  6
CONTINUOUS
 10
138.5586405031
 20
95.1624798524
 11
137.9299685031
 21
96.1772208524
  0
LINE
  5
339
100
AcDbEntity
  8
0
100
AcDbLine
 62
7
  6
CONTINUOUS
 10
139.6912205031
 20
93.7800178524
 11
139.3324995031
 21
94.3805828524
  0
LINE
  5
33A
100
AcDbEntity
  8
0
100
AcDbLine
 62
7
  6
CONTINUOUS
 10
138.3818075031
 20
93.1299118524
 11
137.9290585031
 21
94.3805828524
  0
LINE
  5
33B
100
AcDbEntity
  8
0
100
AcDbLine
 62
7
  6
CONTINUOUS
 10
138.0736395031
 20
93.4938908524
 11
138.1972905031
 21
93.1299118524
  0
LINE
  5
33C
100
AcDbEntity
  8
0
100
AcDbLine
 62
7
  6
CONTINUOUS
 10
136.1965765031
 20
96.9130708524
 11
135.8379015031
 21
97.9748698524
  0
LINE
  5
33D
100
AcDbEntity
  8
0
100
AcDbLine
 62
7
  6
CONTINUOUS
 10
135.7595455031
 20
97.7726588524
 11
136.1112905031
 21
96.7252098524
  0
LINE
  5
33E
100
AcDbEntity
  8
0
100
AcDbLine
 62
7
  6
CONTINUOUS
 10
137.8264065031
 20
94.1984498524
 11
138.0126725031
 21
93.6435258524
  0
LINE
  5
33F
100
AcDbEntity
  8
0
100
AcDbLine
 62
7
  6
CONTINUOUS
 10
134.1531185031
 20
129.0663432359
 11
134.1531185031
 21
127.5499830731
  0
LINE
  5
340
100
AcDbEntity
  8
0
100
AcDbLine
 62
7
  6
CONTINUOUS
 10
134.1531185031
 20
84.6384384688
 11
134.1531185031
 21
86.1547986317
  0
LINE
  5
341
100
AcDbEntity
  8
0
100
AcDbLine
 62
7
  6
CONTINUOUS
 10
134.4614515662
 20
111.3460078834
 11
134.4614515662
 21
111.128986582
  0
LINE
  5
342
100
AcDbEntity
  8
0
100
AcDbLine
 62
7
  6
CONTINUOUS
 10
134.6031185031
 20
103.2991993932
 11
134.6031185031
 21
103.0098376243
  0
LINE
  5
343
100
AcDbEntity
  8
0
100
AcDbLine
 62
7
  6
CONTINUOUS
 10
134.7304687723
 20
129.1187510152
 11
134.7304687723
 21
127.6023908524
  0
LINE
  5
344
100
AcDbEntity
  8
0
100
AcDbLine
 62
7
  6
CONTINUOUS
 10
134.7304687723
 20
84.5860306896
 11
134.7304687723
 21
86.1023908524
  0
LINE
  5
345
100
AcDbEntity
  8
0
100
AcDbLine
 62
7
  6
CONTINUOUS
 10
134.8156185031
 20
111.8523908524
 11
134.8156185031
 21
111.3460078834
  0
LINE
  5
346
100
AcDbEntity
  8
0
100
AcDbLine
 62
7
  6
CONTINUOUS
 10
134.8156185031
 20
111.128986582
 11
134.8156185031
 21
110.1523908524
  0
LINE
  5
347
100
AcDbEntity
  8
0
100
AcDbLine
 62
7
  6
CONTINUOUS
 10
134.8156185031
 20
103.2630291848
 11
134.8156185031
 21
101.8523908524
  0
LINE
  5
348
100
AcDbEntity
  8
0
100
AcDbLine
 62
7
  6
CONTINUOUS
 10
135.0281185031
 20
101.8523908524
 11
135.0281185031
 21
103.5523908524
  0
LINE
  5
349
100
AcDbEntity
  8
0
100
AcDbLine
 62
7
  6
CONTINUOUS
 10
135.0281185031
 20
110.44175252
 11
135.0281185031
 21
111.128986582
  0
LINE
  5
34A
100
AcDbEntity
  8
0
100
AcDbLine
 62
7
  6
CONTINUOUS
 10
135.0281185031
 20
111.3460078834
 11
135.0281185031
 21
111.8523908524
  0
LINE
  5
34B
100
AcDbEntity
  8
0
100
AcDbLine
 62
7
  6
CONTINUOUS
 10
135.0746663204
 20
125.3912106608
 11
135.0746663204
 21
125.3811659536
  0
LINE
  5
34C
100
AcDbEntity
  8
0
100
AcDbLine
 62
7
  6
CONTINUOUS
 10
135.3114518196
 20
103.0821780412
 11
135.3114518196
 21
102.9374972073
  0
LINE
  5
34D
100
AcDbEntity
  8
0
100
AcDbLine
 62
7
  6
CONTINUOUS
 10
135.488535136
 20
102.9736674158
 11
135.488535136
 21
103.0460078327
  0
LINE
  5
34E
100
AcDbEntity
  8
0
100
AcDbLine
 62
7
  6
CONTINUOUS
 10
135.5958565031
 20
116.9795718524
 11
135.5958565031
 21
116.8299358524
  0
LINE
  5
34F
100
AcDbEntity
  8
0
100
AcDbLine
 62
7
  6
CONTINUOUS
 10
135.5958565031
 20
97.9748698524
 11
135.5958565031
 21
96.7252098524
  0
LINE
  5
350
100
AcDbEntity
  8
0
100
AcDbLine
 62
7
  6
CONTINUOUS
 10
135.6080895031
 20
115.8795478524
 11
135.6080895031
 21
115.7299118524
  0
LINE
  5
351
100
AcDbEntity
  8
0
100
AcDbLine
 62
7
  6
CONTINUOUS
 10
135.6335115071
 20
126.1846915391
 11
135.6335115071
 21
125.5194591365
  0
LINE
  5
352
100
AcDbEntity
  8
0
100
AcDbLine
 62
7
  6
CONTINUOUS
 10
135.6452770715
 20
125.2410626839
 11
135.6452770715
 21
124.7744172014
  0
LINE
  5
353
100
AcDbEntity
  8
0
100
AcDbLine
 62
7
  6
CONTINUOUS
 10
135.6655175031
 20
116.4123718524
 11
135.6655175031
 21
116.2627358524
  0
LINE
  5
354
100
AcDbEntity
  8
0
100
AcDbLine
 62
7
  6
CONTINUOUS
 10
135.7595455031
 20
96.7252098524
 11
135.7595455031
 21
97.7726588524
  0
LINE
  5
355
100
AcDbEntity
  8
0
100
AcDbLine
 62
7
  6
CONTINUOUS
 10
135.8534725031
 20
94.3805828524
 11
135.8534725031
 21
93.1299118524
  0
LINE
  5
356
100
AcDbEntity
  8
0
100
AcDbLine
 62
7
  6
CONTINUOUS
 10
135.8781185031
 20
111.128986582
 11
135.8781185031
 21
111.3460078834
  0
LINE
  5
357
100
AcDbEntity
  8
0
100
AcDbLine
 62
7
  6
CONTINUOUS
 10
135.9869118392
 20
124.5046887702
 11
135.9869118392
 21
126.1846915391
  0
LINE
  5
358
100
AcDbEntity
  8
0
100
AcDbLine
 62
7
  6
CONTINUOUS
 10
136.0224185031
 20
93.1299118524
 11
136.0224185031
 21
94.3805828524
  0
LINE
  5
359
100
AcDbEntity
  8
0
100
AcDbLine
 62
7
  6
CONTINUOUS
 10
136.1614519716
 20
111.3460078834
 11
136.1614519716
 21
111.128986582
  0
LWPOLYLINE
  5
35A
100
AcDbEntity
  8
0
100
AcDbPolyline
 62
7
  6
CONTINUOUS
 90
25
 70
0
 10
135.1668618435
 20
124.97718457
 10
135.1672327291
 20
124.9958761012
 10
135.168677056
 20
125.014336981
 10
135.1711948242
 20
125.032567211
 10
135.1747785491
 20
125.0506324725
 10
135.1794357153
 20
125.0684670868
 10
135.185188776
 20
125.0858740156
 10
135.1920265591
 20
125.1029235087
 10
135.1999602366
 20
125.1195453212
 10
135.2090457786
 20
125.1353316761
 10
135.2193237134
 20
125.150295021
 10
135.2307535125
 20
125.1644229172
 10
135.2432695603
 20
125.1772702631
 10
135.2569928641
 20
125.1886797422
 10
135.2718024164
 20
125.1988086822
 10
135.2872695793
 20
125.2076839494
 10
135.3033934601
 20
125.2152223733
 10
135.3201749515
 20
125.2215071318
 10
135.3371880937
 20
125.2268146122
 10
135.3543199127
 20
125.2311490489
 10
135.3716833826
 20
125.234506211
 10
135.3891914659
 20
125.2371497862
 10
135.4068151501
 20
125.239167671
 10
135.4245834477
 20
125.2404719701
 10
135.4424963587
 20
125.2410626839
  0
LINE
  5
35B
100
AcDbEntity
  8
0
100
AcDbLine
 62
7
  6
CONTINUOUS
 10
140.3008845031
 20
124.4848288524
 11
140.6348065031
 21
125.6548968524
  0
LINE
  5
35C
100
AcDbEntity
  8
0
100
AcDbLine
 62
7
  6
CONTINUOUS
 10
140.4927025031
 20
126.1846918524
 11
139.9462985031
 21
124.4848288524
  0
LINE
  5
35D
100
AcDbEntity
  8
0
100
AcDbLine
 62
7
  6
CONTINUOUS
 10
138.8885465031
 20
116.9795718524
 11
138.7579185031
 21
116.6155928524
  0
LINE
  5
35E
100
AcDbEntity
  8
0
100
AcDbLine
 62
7
  6
CONTINUOUS
 10
138.5925105031
 20
115.7299118524
 11
139.0626495031
 21
116.9795718524
  0
LINE
  5
35F
100
AcDbEntity
  8
0
100
AcDbLine
 62
7
  6
CONTINUOUS
 10
138.0739517689
 20
110.6587738721
 11
138.1447852373
 21
110.7672844974
  0
LINE
  5
360
100
AcDbEntity
  8
0
100
AcDbLine
 62
7
  6
CONTINUOUS
 10
138.0385352373
 20
111.4183483003
 11
138.1447852373
 21
111.5630291594
  0
LINE
  5
361
100
AcDbEntity
  8
0
100
AcDbLine
 62
7
  6
CONTINUOUS
 10
138.9593685031
 20
111.3098376749
 11
138.8531185031
 21
111.1651567904
  0
LINE
  5
362
100
AcDbEntity
  8
0
100
AcDbLine
 62
7
  6
CONTINUOUS
 10
136.7281185031
 20
110.1523908524
 11
137.5781185031
 21
111.128986582
  0
LINE
  5
363
100
AcDbEntity
  8
0
100
AcDbLine
 62
7
  6
CONTINUOUS
 10
137.3302019716
 20
111.128986582
 11
136.7281185031
 21
110.44175252
  0
LINE
  5
364
100
AcDbEntity
  8
0
100
AcDbLine
 62
7
  6
CONTINUOUS
 10
138.0385352373
 20
111.7077100059
 11
137.9322850347
 21
111.5991993679
  0
LINE
  5
365
100
AcDbEntity
  8
0
100
AcDbLine
 62
7
  6
CONTINUOUS
 10
138.0739517689
 20
110.9481355397
 11
137.9677019716
 21
110.8396249143
  0
LINE
  5
366
100
AcDbEntity
  8
0
100
AcDbLine
 62
7
  6
CONTINUOUS
 10
138.1447852373
 20
110.7672844974
 11
138.2864517689
 21
110.8757951228
  0
LINE
  5
367
100
AcDbEntity
  8
0
100
AcDbLine
 62
7
  6
CONTINUOUS
 10
138.9239517689
 20
111.0204759566
 11
139.0656185031
 21
111.128986582
  0
LINE
  5
368
100
AcDbEntity
  8
0
100
AcDbLine
 62
7
  6
CONTINUOUS
 10
138.8531185031
 20
110.4779227285
 11
138.7114517689
 21
110.3694121031
  0
LINE
  5
369
100
AcDbEntity
  8
0
100
AcDbLine
 62
7
  6
CONTINUOUS
 10
139.738535136
 20
111.5630291594
 11
139.844785136
 21
111.6353695763
  0
LINE
  5
36A
100
AcDbEntity
  8
0
100
AcDbLine
 62
7
  6
CONTINUOUS
 10
139.8093685031
 20
111.2013269989
 11
139.5968685031
 21
111.0566461651
  0
LINE
  5
36B
100
AcDbEntity
  8
0
100
AcDbLine
 62
7
  6
CONTINUOUS
 10
139.738535136
 20
110.9481355397
 11
139.844785136
 21
111.0204759566
  0
LINE
  5
36C
100
AcDbEntity
  8
0
100
AcDbLine
 62
7
  6
CONTINUOUS
 10
139.8093685031
 20
111.8162206408
 11
139.6322852373
 21
111.7077100059
  0
LINE
  5
36D
100
AcDbEntity
  8
0
100
AcDbLine
 62
7
  6
CONTINUOUS
 10
138.7468685031
 20
110.1885610608
 11
138.9239517689
 21
110.2970716862
  0
LINE
  5
36E
100
AcDbEntity
  8
0
100
AcDbLine
 62
7
  6
CONTINUOUS
 10
138.1447852373
 20
110.9843057482
 11
138.0739517689
 21
110.9481355397
  0
LINE
  5
36F
100
AcDbEntity
  8
0
100
AcDbLine
 62
7
  6
CONTINUOUS
 10
138.8531185031
 20
111.1651567904
 11
138.7114517689
 21
111.0928163735
  0
LINE
  5
370
100
AcDbEntity
  8
0
100
AcDbLine
 62
7
  6
CONTINUOUS
 10
138.8531185031
 20
110.9843057482
 11
138.9239517689
 21
111.0204759566
  0
LINE
  5
371
100
AcDbEntity
  8
0
100
AcDbLine
 62
7
  6
CONTINUOUS
 10
139.844785136
 20
111.6353695763
 11
139.951035136
 21
111.6715397848
  0
LINE
  5
372
100
AcDbEntity
  8
0
100
AcDbLine
 62
7
  6
CONTINUOUS
 10
139.844785136
 20
111.0204759566
 11
139.951035136
 21
111.0566461651
  0
LINE
  5
373
100
AcDbEntity
  8
0
100
AcDbLine
 62
7
  6
CONTINUOUS
 10
140.3052018702
 20
110.3694121031
 11
140.1989518702
 21
110.3332418947
  0
LINE
  5
374
100
AcDbEntity
  8
0
100
AcDbLine
 62
7
  6
CONTINUOUS
 10
137.2947852373
 20
102.6119653313
 11
137.4364517689
 21
102.6481355397
  0
LINE
  5
375
100
AcDbEntity
  8
0
100
AcDbLine
 62
7
  6
CONTINUOUS
 10
137.7197852373
 20
102.828986582
 11
137.5781185031
 21
102.7928163735
  0
LINE
  5
376
100
AcDbEntity
  8
0
100
AcDbLine
 62
7
  6
CONTINUOUS
 10
137.2947852373
 20
103.3353696017
 11
137.4364517689
 21
103.3715398101
  0
LINE
  5
377
100
AcDbEntity
  8
0
100
AcDbLine
 62
7
  6
CONTINUOUS
 10
136.019785136
 20
102.4672844468
 11
136.1968685031
 21
102.5034547059
  0
LINE
  5
378
100
AcDbEntity
  8
0
100
AcDbLine
 62
7
  6
CONTINUOUS
 10
137.4364517689
 20
103.5523908524
 11
137.2593685031
 21
103.5162206439
  0
LINE
  5
379
100
AcDbEntity
  8
0
100
AcDbLine
 62
7
  6
CONTINUOUS
 10
135.8427018702
 20
103.5523908524
 11
135.6656185031
 21
103.5162206439
  0
LINE
  5
37A
100
AcDbEntity
  8
0
100
AcDbLine
 62
7
  6
CONTINUOUS
 10
157.5031185031
 20
106.6166106944
 11
157.6605980975
 21
106.6323190565
  0
LINE
  5
37B
100
AcDbEntity
  8
0
100
AcDbLine
 62
7
  6
CONTINUOUS
 10
135.807285136
 20
103.3715398101
 11
136.0552018702
 21
103.3715398101
  0
LINE
  5
37C
100
AcDbEntity
  8
0
100
AcDbLine
 62
7
  6
CONTINUOUS
 10
137.4364517689
 20
103.3715398101
 11
137.5781185031
 21
103.3715398101
  0
LINE
  5
37D
100
AcDbEntity
  8
0
100
AcDbLine
 62
7
  6
CONTINUOUS
 10
141.1906185031
 20
103.5523908524
 11
140.9781185031
 21
103.5523908524
  0
LINE
  5
37E
100
AcDbEntity
  8
0
100
AcDbLine
 62
7
  6
CONTINUOUS
 10
139.4906185031
 20
103.5523908524
 11
139.2781185031
 21
103.5523908524
  0
LINE
  5
37F
100
AcDbEntity
  8
0
100
AcDbLine
 62
7
  6
CONTINUOUS
 10
137.5781185031
 20
103.5523908524
 11
137.4364517689
 21
103.5523908524
  0
LINE
  5
380
100
AcDbEntity
  8
0
100
AcDbLine
 62
7
  6
CONTINUOUS
 10
136.019785136
 20
103.5523908524
 11
135.8427018702
 21
103.5523908524
  0
LINE
  5
381
100
AcDbEntity
  8
0
100
AcDbLine
 62
7
  6
CONTINUOUS
 10
135.0281185031
 20
103.5523908524
 11
134.8156185031
 21
103.5523908524
  0
LINE
  5
382
100
AcDbEntity
  8
0
100
AcDbLine
 62
7
  6
CONTINUOUS
 10
118.5031185031
 20
106.6166106944
 11
118.3456389088
 21
106.6323190565
  0
LINE
  5
383
100
AcDbEntity
  8
0
100
AcDbLine
 62
7
  6
CONTINUOUS
 10
136.1968685031
 20
103.5162206439
 11
136.019785136
 21
103.5523908524
  0
LINE
  5
384
100
AcDbEntity
  8
0
100
AcDbLine
 62
7
  6
CONTINUOUS
 10
137.7552017689
 20
103.5162206439
 11
137.5781185031
 21
103.5523908524
  0
LINE
  5
385
100
AcDbEntity
  8
0
100
AcDbLine
 62
7
  6
CONTINUOUS
 10
137.5781185031
 20
103.3715398101
 11
137.7197852373
 21
103.3353696017
  0
LINE
  5
386
100
AcDbEntity
  8
0
100
AcDbLine
 62
7
  6
CONTINUOUS
 10
136.0552018702
 20
103.3715398101
 11
136.1614518702
 21
103.3353696017
  0
LINE
  5
387
100
AcDbEntity
  8
0
100
AcDbLine
 62
7
  6
CONTINUOUS
 10
137.7197852373
 20
102.6119653313
 11
137.8614517689
 21
102.5396249143
  0
LINE
  5
388
100
AcDbEntity
  8
0
100
AcDbLine
 62
7
  6
CONTINUOUS
 10
137.9322852373
 20
102.6843057482
 11
137.8614517689
 21
102.7204759566
  0
LINE
  5
389
100
AcDbEntity
  8
0
100
AcDbLine
 62
7
  6
CONTINUOUS
 10
136.3739517689
 20
103.4077100186
 11
136.1968685031
 21
103.5162206439
  0
LINE
  5
38A
100
AcDbEntity
  8
0
100
AcDbLine
 62
7
  6
CONTINUOUS
 10
137.9322852373
 20
103.4077100186
 11
137.7552017689
 21
103.5162206439
  0
LINE
  5
38B
100
AcDbEntity
  8
0
100
AcDbLine
 62
7
  6
CONTINUOUS
 10
137.2947852373
 20
102.828986582
 11
137.1531185031
 21
102.9374972073
  0
LINE
  5
38C
100
AcDbEntity
  8
0
100
AcDbLine
 62
7
  6
CONTINUOUS
 10
138.0739519716
 20
102.5757951228
 11
137.9322852373
 21
102.6843057482
  0
LINE
  5
38D
100
AcDbEntity
  8
0
100
AcDbLine
 62
7
  6
CONTINUOUS
 10
137.7197852373
 20
103.3353696017
 11
137.8614517689
 21
103.2268589763
  0
LINE
  5
38E
100
AcDbEntity
  8
0
100
AcDbLine
 62
7
  6
CONTINUOUS
 10
136.9760352373
 20
102.8651567904
 11
137.0822852373
 21
102.7566461651
  0
LINE
  5
38F
100
AcDbEntity
  8
0
100
AcDbLine
 62
7
  6
CONTINUOUS
 10
138.0385350347
 20
103.2991993932
 11
137.9322852373
 21
103.4077100186
  0
LINE
  5
390
100
AcDbEntity
  8
0
100
AcDbLine
 62
7
  6
CONTINUOUS
 10
137.1531185031
 20
102.1417525454
 11
137.0468685031
 21
102.2864334045
  0
LINE
  5
391
100
AcDbEntity
  8
0
100
AcDbLine
 62
7
  6
CONTINUOUS
 10
136.4802017689
 20
103.2630291848
 11
136.3739517689
 21
103.4077100186
  0
LINE
  5
392
100
AcDbEntity
  8
0
100
AcDbLine
 62
7
  6
CONTINUOUS
 10
137.8614517689
 20
102.5396249143
 11
137.9677017689
 21
102.3949440299
  0
LINE
  5
393
100
AcDbEntity
  8
0
100
AcDbLine
 62
7
  6
CONTINUOUS
 10
136.2677018702
 20
103.2630291848
 11
136.3385352373
 21
103.1545185594
  0
LINE
  5
394
100
AcDbEntity
  8
0
100
AcDbLine
 62
7
  6
CONTINUOUS
 10
137.1531185031
 20
102.9374972073
 11
137.0822852373
 21
103.0460078327
  0
LINE
  5
395
100
AcDbEntity
  8
0
100
AcDbLine
 62
7
  6
CONTINUOUS
 10
137.8614517689
 20
103.2268589763
 11
137.9322852373
 21
103.1183482496
  0
LINE
  5
396
100
AcDbEntity
  8
0
100
AcDbLine
 62
7
  6
CONTINUOUS
 10
136.9052017689
 20
103.0098376243
 11
136.9760352373
 21
102.8651567904
  0
LINE
  5
397
100
AcDbEntity
  8
0
100
AcDbLine
 62
7
  6
CONTINUOUS
 10
135.3114518196
 20
102.9374972073
 11
135.3822851867
 21
102.7566461651
  0
LINE
  5
398
100
AcDbEntity
  8
0
100
AcDbLine
 62
7
  6
CONTINUOUS
 10
136.5510352373
 20
103.0821780412
 11
136.4802017689
 21
103.2630291848
  0
LINE
  5
399
100
AcDbEntity
  8
0
100
AcDbLine
 62
7
  6
CONTINUOUS
 10
136.8697852373
 20
102.2864334045
 11
136.9406185031
 21
102.1055823369
  0
LINE
  5
39A
100
AcDbEntity
  8
0
100
AcDbLine
 62
7
  6
CONTINUOUS
 10
138.0579685031
 20
96.7252098524
 11
137.6052195031
 21
97.9748698524
  0
LWPOLYLINE
  5
39B
100
AcDbEntity
  8
0
100
AcDbPolyline
 62
7
  6
CONTINUOUS
 90
6
 70
0
 10
140.7608776533
 20
88.0357052189
 10
140.7790700174
 20
87.9823892271
 10
140.7968310836
 20
87.9280155948
 10
140.8141608519
 20
87.8725843436
 10
140.8307995624
 20
87.8160102315
 10
140.8635623691
 20
87.6999451006
  0
LINE
  5
39C
100
AcDbEntity
  8
0
100
AcDbLine
 62
7
  6
CONTINUOUS
 10
137.7497995031
 20
97.0891888524
 11
137.8734515031
 21
96.7252098524
  0
LINE
  5
39D
100
AcDbEntity
  8
0
100
AcDbLine
 62
7
  6
CONTINUOUS
 10
135.3822851867
 20
102.2502631961
 11
135.4177018196
 21
102.1417525454
  0
LINE
  5
39E
100
AcDbEntity
  8
0
100
AcDbLine
 62
7
  6
CONTINUOUS
 10
135.5239518702
 20
102.8651567904
 11
135.488535136
 21
102.9736674158
  0
LINE
  5
39F
100
AcDbEntity
  8
0
100
AcDbLine
 62
7
  6
CONTINUOUS
 10
136.3385352373
 20
103.1545185594
 11
136.3739517689
 21
103.0460078327
  0
LINE
  5
3A0
100
AcDbEntity
  8
0
100
AcDbLine
 62
7
  6
CONTINUOUS
 10
139.9151305031
 20
87.5200898524
 11
139.3935705031
 21
89.2199528524
  0
LINE
  5
3A1
100
AcDbEntity
  8
0
100
AcDbLine
 62
7
  6
CONTINUOUS
 10
140.8635623691
 20
87.6999451006
 11
140.9160957182
 21
87.5200901657
  0
LINE
  5
3A2
100
AcDbEntity
  8
0
100
AcDbLine
 62
7
  6
CONTINUOUS
 10
139.4492375031
 20
87.8594428524
 11
139.5411565031
 21
87.5200898524
  0
LINE
  5
3A3
100
AcDbEntity
  8
0
100
AcDbLine
 62
7
  6
CONTINUOUS
 10
141.163976873
 20
87.8760662084
 11
141.1360977501
 21
87.9801708967
  0
LINE
  5
3A4
100
AcDbEntity
  8
0
100
AcDbLine
 62
7
  6
CONTINUOUS
 10
139.2152765031
 20
88.7528738524
 11
139.3783245031
 21
88.1220328524
  0
LINE
  5
3A5
100
AcDbEntity
  8
0
100
AcDbLine
 62
7
  6
CONTINUOUS
 10
136.5864517689
 20
102.828986582
 11
136.5510352373
 21
103.0821780412
  0
LINE
  5
3A6
100
AcDbEntity
  8
0
100
AcDbLine
 62
7
  6
CONTINUOUS
 10
138.4614145031
 20
87.5200898524
 11
138.3024575031
 21
89.2199528524
  0
LINE
  5
3A7
100
AcDbEntity
  8
0
100
AcDbLine
 62
7
  6
CONTINUOUS
 10
138.0413975031
 20
88.6254418524
 11
138.1142985031
 21
87.5200898524
  0
LWPOLYLINE
  5
3A8
100
AcDbEntity
  8
0
100
AcDbPolyline
 62
7
  6
CONTINUOUS
 90
31
 70
0
 10
136.752622634
 20
116.3547430713
 10
136.7527391558
 20
116.3097105132
 10
136.7547975708
 20
116.2666301784
 10
136.7587978789
 20
116.2255020825
 10
136.7649641358
 20
116.186333707
 10
136.773072286
 20
116.149117599
 10
136.7824501624
 20
116.1138313706
 10
136.7929303028
 20
116.0805716288
 10
136.8046801696
 20
116.0492417906
 10
136.817529982
 20
116.0195296798
 10
136.8314604592
 20
115.9913788873
 10
136.8464908821
 20
115.9648458387
 10
136.8625093128
 20
115.9397876071
 10
136.8795277452
 20
115.9161474572
 10
136.8975341853
 20
115.8939821367
 10
136.9163807131
 20
115.8733189424
 10
136.9360388308
 20
115.854202394
 10
136.9565370362
 20
115.8365879822
 10
136.9778129025
 20
115.82036946
 10
136.9998793147
 20
115.8055293533
 10
137.0227233877
 20
115.7920851435
 10
137.0462440392
 20
115.7799830151
 10
137.070510696
 20
115.7692118879
 10
137.0954539313
 20
115.7597828473
 10
137.1207643826
 20
115.7516753264
 10
137.1464047757
 20
115.744913168
 10
137.1724123849
 20
115.7394725325
 10
137.1985896702
 20
115.7352613287
 10
137.2248707851
 20
115.73224886
 10
137.2513215762
 20
115.7304658245
 10
137.2779420435
 20
115.7299122225
  0
LINE
  5
3A9
100
AcDbEntity
  8
0
100
AcDbLine
 62
7
  6
CONTINUOUS
 10
136.1916165031
 20
89.2200548524
 11
136.1916165031
 21
87.5200898524
  0
LINE
  5
3AA
100
AcDbEntity
  8
0
100
AcDbLine
 62
7
  6
CONTINUOUS
 10
136.2035995031
 20
94.3805828524
 11
136.2035995031
 21
94.2309468524
  0
LINE
  5
3AB
100
AcDbEntity
  8
0
100
AcDbLine
 62
7
  6
CONTINUOUS
 10
136.2296845031
 20
120.5748698524
 11
136.2296845031
 21
120.0713658524
  0
LINE
  5
3AC
100
AcDbEntity
  8
0
100
AcDbLine
 62
7
  6
CONTINUOUS
 10
136.3497975031
 20
116.8299358524
 11
136.3497975031
 21
116.4123718524
  0
LINE
  5
3AD
100
AcDbEntity
  8
0
100
AcDbLine
 62
7
  6
CONTINUOUS
 10
136.3497975031
 20
116.2627358524
 11
136.3497975031
 21
115.8795478524
  0
LINE
  5
3AE
100
AcDbEntity
  8
0
100
AcDbLine
 62
7
  6
CONTINUOUS
 10
136.3739517689
 20
103.0460078327
 11
136.3739517689
 21
102.9736674158
  0
LINE
  5
3AF
100
AcDbEntity
  8
0
100
AcDbLine
 62
7
  6
CONTINUOUS
 10
136.3985295031
 20
120.0713658524
 11
136.3985295031
 21
120.5748698524
  0
LINE
  5
3B0
100
AcDbEntity
  8
0
100
AcDbLine
 62
7
  6
CONTINUOUS
 10
136.4093685031
 20
102.6481355397
 11
136.4093685031
 21
102.5757951228
  0
LINE
  5
3B1
100
AcDbEntity
  8
0
100
AcDbLine
 62
7
  6
CONTINUOUS
 10
136.5156185031
 20
111.8523908524
 11
136.5156185031
 21
111.3460078834
  0
LINE
  5
3B2
100
AcDbEntity
  8
0
100
AcDbLine
 62
7
  6
CONTINUOUS
 10
136.5156185031
 20
111.128986582
 11
136.5156185031
 21
110.1523908524
  0
LINE
  5
3B3
100
AcDbEntity
  8
0
100
AcDbLine
 62
7
  6
CONTINUOUS
 10
136.5187435031
 20
115.7299118524
 11
136.5187435031
 21
116.9795718524
  0
LINE
  5
3B4
100
AcDbEntity
  8
0
100
AcDbLine
 62
7
  6
CONTINUOUS
 10
136.5464445031
 20
87.5200898524
 11
136.5464445031
 21
89.2200548524
  0
LINE
  5
3B5
100
AcDbEntity
  8
0
100
AcDbLine
 62
7
  6
CONTINUOUS
 10
136.5864517689
 20
102.5757951228
 11
136.5864517689
 21
102.828986582
  0
LINE
  5
3B6
100
AcDbEntity
  8
0
100
AcDbLine
 62
7
  6
CONTINUOUS
 10
136.6267235031
 20
94.2309468524
 11
136.6267235031
 21
93.1299118524
  0
LINE
  5
3B7
100
AcDbEntity
  8
0
100
AcDbLine
 62
7
  6
CONTINUOUS
 10
136.6301615031
 20
97.7746818524
 11
136.6301615031
 21
96.7252098524
  0
LINE
  5
3B8
100
AcDbEntity
  8
0
100
AcDbLine
 62
7
  6
CONTINUOUS
 10
136.6667615031
 20
120.5748698524
 11
136.6667615031
 21
120.4252338524
  0
LINE
  5
3B9
100
AcDbEntity
  8
0
100
AcDbLine
 62
7
  6
CONTINUOUS
 10
136.7281185031
 20
110.44175252
 11
136.7281185031
 21
111.128986582
  0
LINE
  5
3BA
100
AcDbEntity
  8
0
100
AcDbLine
 62
7
  6
CONTINUOUS
 10
136.7281185031
 20
111.3460078834
 11
136.7281185031
 21
111.8523908524
  0
LINE
  5
3BB
100
AcDbEntity
  8
0
100
AcDbLine
 62
7
  6
CONTINUOUS
 10
136.7938505031
 20
96.7252098524
 11
136.7938505031
 21
97.9748698524
  0
LINE
  5
3BC
100
AcDbEntity
  8
0
100
AcDbLine
 62
7
  6
CONTINUOUS
 10
136.7955695031
 20
93.1299118524
 11
136.7955695031
 21
94.2309468524
  0
LINE
  5
3BD
100
AcDbEntity
  8
0
100
AcDbLine
 62
7
  6
CONTINUOUS
 10
136.8697852373
 20
102.3949440299
 11
136.8697852373
 21
102.2864334045
  0
LINE
  5
3BE
100
AcDbEntity
  8
0
100
AcDbLine
 62
7
  6
CONTINUOUS
 10
136.9052017689
 20
103.1183482496
 11
136.9052017689
 21
103.0098376243
  0
LINE
  5
3BF
100
AcDbEntity
  8
0
100
AcDbLine
 62
7
  6
CONTINUOUS
 10
137.0468685031
 20
102.2864334045
 11
137.0468685031
 21
102.3949440299
  0
LINE
  5
3C0
100
AcDbEntity
  8
0
100
AcDbLine
 62
7
  6
CONTINUOUS
 10
137.0822852373
 20
103.0460078327
 11
137.0822852373
 21
103.1183482496
  0
LINE
  5
3C1
100
AcDbEntity
  8
0
100
AcDbLine
 62
7
  6
CONTINUOUS
 10
137.2186945031
 20
94.2309468524
 11
137.2186945031
 21
94.3805828524
  0
LINE
  5
3C2
100
AcDbEntity
  8
0
100
AcDbLine
 62
7
  6
CONTINUOUS
 10
137.2717745031
 20
96.1772208524
 11
137.2717745031
 21
94.9275608524
  0
LINE
  5
3C3
100
AcDbEntity
  8
0
100
AcDbLine
 62
7
  6
CONTINUOUS
 10
137.2840085031
 20
118.7772208524
 11
137.2840085031
 21
117.5275608524
  0
LINE
  5
3C4
100
AcDbEntity
  8
0
100
AcDbLine
 62
7
  6
CONTINUOUS
 10
137.3005895031
 20
120.4252338524
 11
137.3005895031
 21
119.3241988524
  0
LINE
  5
3C5
100
AcDbEntity
  8
0
100
AcDbLine
 62
7
  6
CONTINUOUS
 10
137.4407215031
 20
94.9275608524
 11
137.4407215031
 21
96.1772208524
  0
LINE
  5
3C6
100
AcDbEntity
  8
0
100
AcDbLine
 62
7
  6
CONTINUOUS
 10
137.4475965031
 20
117.5275608524
 11
137.4475965031
 21
118.5423018524
  0
LINE
  5
3C7
100
AcDbEntity
  8
0
100
AcDbLine
 62
7
  6
CONTINUOUS
 10
137.4694355031
 20
119.3241988524
 11
137.4694355031
 21
120.5748698524
  0
LINE
  5
3C8
100
AcDbEntity
  8
0
100
AcDbLine
 62
7
  6
CONTINUOUS
 10
137.5781185031
 20
111.128986582
 11
137.5781185031
 21
111.3460078834
  0
LINE
  5
3C9
100
AcDbEntity
  8
0
100
AcDbLine
 62
7
  6
CONTINUOUS
 10
137.6157345031
 20
116.8349908524
 11
137.6157345031
 21
115.8744928524
  0
LINE
  5
3CA
100
AcDbEntity
  8
0
100
AcDbLine
 62
7
  6
CONTINUOUS
 10
137.7296795031
 20
96.1772208524
 11
137.7296795031
 21
94.9275608524
  0
LINE
  5
3CB
100
AcDbEntity
  8
0
100
AcDbLine
 62
7
  6
CONTINUOUS
 10
137.7845795031
 20
115.7299118524
 11
137.7845795031
 21
116.9795718524
  0
LINE
  5
3CC
100
AcDbEntity
  8
0
100
AcDbLine
 62
7
  6
CONTINUOUS
 10
137.8614519716
 20
111.4183483003
 11
137.8614519716
 21
111.3098376749
  0
LINE
  5
3CD
100
AcDbEntity
  8
0
100
AcDbLine
 62
7
  6
CONTINUOUS
 10
137.8934695031
 20
94.9275608524
 11
137.8934695031
 21
95.9430648524
  0
LINE
  5
3CE
100
AcDbEntity
  8
0
100
AcDbLine
 62
7
  6
CONTINUOUS
 10
137.8968685031
 20
110.6949440805
 11
137.8968685031
 21
110.5864334552
  0
LINE
  5
3CF
100
AcDbEntity
  8
0
100
AcDbLine
 62
7
  6
CONTINUOUS
 10
137.9322852373
 20
103.1183482496
 11
137.9322852373
 21
103.0460078327
  0
LINE
  5
3D0
100
AcDbEntity
  8
0
100
AcDbLine
 62
7
  6
CONTINUOUS
 10
137.9677017689
 20
102.3949440299
 11
137.9677017689
 21
102.2864334045
  0
LINE
  5
3D1
100
AcDbEntity
  8
0
100
AcDbLine
 62
7
  6
CONTINUOUS
 10
138.0385352373
 20
111.3098376749
 11
138.0385352373
 21
111.4183483003
  0
LINE
  5
3D2
100
AcDbEntity
  8
0
100
AcDbLine
 62
7
  6
CONTINUOUS
 10
138.0739517689
 20
110.5864334552
 11
138.0739517689
 21
110.6587738721
  0
LINE
  5
3D3
100
AcDbEntity
  8
0
100
AcDbLine
 62
7
  6
CONTINUOUS
 10
138.1093685031
 20
103.0098376243
 11
138.1093685031
 21
103.1183482496
  0
LINE
  5
3D4
100
AcDbEntity
  8
0
100
AcDbLine
 62
7
  6
CONTINUOUS
 10
138.1127675031
 20
118.7772208524
 11
138.1127675031
 21
117.7617168524
  0
LINE
  5
3D5
100
AcDbEntity
  8
0
100
AcDbLine
 62
7
  6
CONTINUOUS
 10
138.1447850347
 20
102.2864334045
 11
138.1447850347
 21
102.3949440299
  0
LINE
  5
3D6
100
AcDbEntity
  8
0
100
AcDbLine
 62
7
  6
CONTINUOUS
 10
138.2216575031
 20
97.9748698524
 11
138.2216575031
 21
96.7252098524
  0
LINE
  5
3D7
100
AcDbEntity
  8
0
100
AcDbLine
 62
7
  6
CONTINUOUS
 10
138.2765575031
 20
117.5275608524
 11
138.2765575031
 21
118.7772208524
  0
LWPOLYLINE
  5
3D8
100
AcDbEntity
  8
0
100
AcDbPolyline
 62
7
  6
CONTINUOUS
 90
25
 70
0
 10
136.9259236797
 20
116.3547438775
 10
136.9267583216
 20
116.3888677416
 10
136.9285936366
 20
116.4219684719
 10
136.9314296248
 20
116.4540460743
 10
136.9351369225
 20
116.4850658131
 10
136.9398448933
 20
116.5150624353
 10
136.9459416286
 20
116.5441401706
 10
136.9534922933
 20
116.5723797073
 10
136.9624317224
 20
116.599700366
 10
136.9729525126
 20
116.6259643249
 10
136.9851134867
 20
116.6512018908
 10
136.9988558218
 20
116.6753827665
 10
137.0141956458
 20
116.6982782256
 10
137.0311367638
 20
116.719996794
 10
137.0496753706
 20
116.7404299559
 10
137.0698161792
 20
116.7590234249
 10
137.0917762788
 20
116.7757130704
 10
137.1153385801
 20
116.7905630352
 10
137.1398565284
 20
116.8032114451
 10
137.1653053501
 20
116.8134323038
 10
137.1917098188
 20
116.8214516174
 10
137.2184977005
 20
116.8275855147
 10
137.2454782506
 20
116.8319393729
 10
137.2728422138
 20
116.8344078186
 10
137.3005895899
 20
116.8349908524
  0
LINE
  5
3D9
100
AcDbEntity
  8
0
100
AcDbLine
 62
7
  6
CONTINUOUS
 10
138.9293225031
 20
126.1846918524
 11
138.8527505031
 21
125.0747128524
  0
LINE
  5
3DA
100
AcDbEntity
  8
0
100
AcDbLine
 62
7
  6
CONTINUOUS
 10
139.1152905031
 20
124.4848288524
 11
139.2687775031
 21
126.1846918524
  0
LINE
  5
3DB
100
AcDbEntity
  8
0
100
AcDbLine
 62
7
  6
CONTINUOUS
 10
136.5510352373
 20
102.322603613
 11
136.5864517689
 21
102.5757951228
  0
LINE
  5
3DC
100
AcDbEntity
  8
0
100
AcDbLine
 62
7
  6
CONTINUOUS
 10
136.4093685031
 20
102.5757951228
 11
136.3739517689
 21
102.3587738214
  0
LINE
  5
3DD
100
AcDbEntity
  8
0
100
AcDbLine
 62
7
  6
CONTINUOUS
 10
135.488535136
 20
103.0460078327
 11
135.5239518702
 21
103.1545185594
  0
LINE
  5
3DE
100
AcDbEntity
  8
0
100
AcDbLine
 62
7
  6
CONTINUOUS
 10
136.3739517689
 20
102.9736674158
 11
136.3385352373
 21
102.8651567904
  0
LINE
  5
3DF
100
AcDbEntity
  8
0
100
AcDbLine
 62
7
  6
CONTINUOUS
 10
136.3739517689
 20
102.3587738214
 11
136.3385352373
 21
102.2502631961
  0
LINE
  5
3E0
100
AcDbEntity
  8
0
100
AcDbLine
 62
7
  6
CONTINUOUS
 10
139.6322852373
 20
111.3460078834
 11
139.6677017689
 21
111.4545185087
  0
LINE
  5
3E1
100
AcDbEntity
  8
0
100
AcDbLine
 62
7
  6
CONTINUOUS
 10
139.7278205031
 20
116.9795718524
 11
139.3760755031
 21
115.9300998524
  0
LINE
  5
3E2
100
AcDbEntity
  8
0
100
AcDbLine
 62
7
  6
CONTINUOUS
 10
139.4527135031
 20
115.7299118524
 11
139.8096605031
 21
116.7917108524
  0
LINE
  5
3E3
100
AcDbEntity
  8
0
100
AcDbLine
 62
7
  6
CONTINUOUS
 10
137.9322850347
 20
111.5991993679
 11
137.8614519716
 21
111.4183483003
  0
LINE
  5
3E4
100
AcDbEntity
  8
0
100
AcDbLine
 62
7
  6
CONTINUOUS
 10
135.3822851867
 20
103.2630291848
 11
135.3114518196
 21
103.0821780412
  0
LINE
  5
3E5
100
AcDbEntity
  8
0
100
AcDbLine
 62
7
  6
CONTINUOUS
 10
139.0656185031
 20
111.128986582
 11
139.1364517689
 21
111.3098376749
  0
LINE
  5
3E6
100
AcDbEntity
  8
0
100
AcDbLine
 62
7
  6
CONTINUOUS
 10
139.0302017689
 20
110.4055823116
 11
139.1010352373
 21
110.5864334552
  0
LINE
  5
3E7
100
AcDbEntity
  8
0
100
AcDbLine
 62
7
  6
CONTINUOUS
 10
139.5260352373
 20
111.5630291594
 11
139.4552017689
 21
111.3821780918
  0
LINE
  5
3E8
100
AcDbEntity
  8
0
100
AcDbLine
 62
7
  6
CONTINUOUS
 10
137.9677019716
 20
110.8396249143
 11
137.8968685031
 21
110.6949440805
  0
LINE
  5
3E9
100
AcDbEntity
  8
0
100
AcDbLine
 62
7
  6
CONTINUOUS
 10
138.9239517689
 20
110.5864334552
 11
138.8531185031
 21
110.4779227285
  0
LINE
  5
3EA
100
AcDbEntity
  8
0
100
AcDbLine
 62
7
  6
CONTINUOUS
 10
139.6677017689
 20
111.4545185087
 11
139.738535136
 21
111.5630291594
  0
LINE
  5
3EB
100
AcDbEntity
  8
0
100
AcDbLine
 62
7
  6
CONTINUOUS
 10
139.6677017689
 20
110.8396249143
 11
139.738535136
 21
110.9481355397
  0
LINE
  5
3EC
100
AcDbEntity
  8
0
100
AcDbLine
 62
7
  6
CONTINUOUS
 10
135.5239518702
 20
103.1545185594
 11
135.594785136
 21
103.2630291848
  0
LINE
  5
3ED
100
AcDbEntity
  8
0
100
AcDbLine
 62
7
  6
CONTINUOUS
 10
140.482285136
 20
110.5502631454
 11
140.4114518702
 21
110.44175252
  0
LINE
  5
3EE
100
AcDbEntity
  8
0
100
AcDbLine
 62
7
  6
CONTINUOUS
 10
139.6322852373
 20
111.7077100059
 11
139.5260352373
 21
111.5630291594
  0
LINE
  5
3EF
100
AcDbEntity
  8
0
100
AcDbLine
 62
7
  6
CONTINUOUS
 10
140.5177018702
 20
110.2970716862
 11
140.6239518196
 21
110.44175252
  0
LINE
  5
3F0
100
AcDbEntity
  8
0
100
AcDbLine
 62
7
  6
CONTINUOUS
 10
135.488535136
 20
103.4077100186
 11
135.3822851867
 21
103.2630291848
  0
LINE
  5
3F1
100
AcDbEntity
  8
0
100
AcDbLine
 62
7
  6
CONTINUOUS
 10
134.8156185031
 20
103.5523908524
 11
134.6031185031
 21
103.2991993932
  0
LINE
  5
3F2
100
AcDbEntity
  8
0
100
AcDbLine
 62
7
  6
CONTINUOUS
 10
134.6031185031
 20
103.0098376243
 11
134.8156185031
 21
103.2630291848
  0
LINE
  5
3F3
100
AcDbEntity
  8
0
100
AcDbLine
 62
7
  6
CONTINUOUS
 10
141.4031185031
 20
110.6949440805
 11
141.1906185031
 21
110.44175252
  0
LINE
  5
3F4
100
AcDbEntity
  8
0
100
AcDbLine
 62
7
  6
CONTINUOUS
 10
138.9239517689
 20
110.2970716862
 11
139.0302017689
 21
110.4055823116
  0
LINE
  5
3F5
100
AcDbEntity
  8
0
100
AcDbLine
 62
7
  6
CONTINUOUS
 10
140.4114518702
 20
110.44175252
 11
140.3052018702
 21
110.3694121031
  0
LINE
  5
3F6
100
AcDbEntity
  8
0
100
AcDbLine
 62
7
  6
CONTINUOUS
 10
140.3406185031
 20
110.1885610608
 11
140.5177018702
 21
110.2970716862
  0
LINE
  5
3F7
100
AcDbEntity
  8
0
100
AcDbLine
 62
253
  6
CONTINUOUS
 10
149.2513888066
 20
105.0598947406
 11
158.8744398
 21
105.0667164446
  0
LINE
  5
3F8
100
AcDbEntity
  8
0
100
AcDbLine
 62
253
  6
CONTINUOUS
 10
149.2513912433
 20
105.2607625433
 11
159.0589483524
 21
105.2677222827
  0
LINE
  5
3F9
100
AcDbEntity
  8
0
100
AcDbLine
 62
7
  6
CONTINUOUS
 10
118.5031185031
 20
105.2808250862
 11
157.5031185031
 21
105.2808250862
  0
LINE
  5
3FA
100
AcDbEntity
  8
0
100
AcDbLine
 62
7
  6
CONTINUOUS
 10
116.8804972945
 20
105.3122442031
 11
118.3456389088
 21
105.3122442031
  0
LINE
  5
3FB
100
AcDbEntity
  8
0
100
AcDbLine
 62
7
  6
CONTINUOUS
 10
157.6605980975
 20
105.3122442031
 11
159.1257397118
 21
105.3122442031
  0
LINE
  5
3FC
100
AcDbEntity
  8
0
100
AcDbLine
 62
7
  6
CONTINUOUS
 10
118.5031185031
 20
106.6166106944
 11
157.5031185031
 21
106.6166106944
  0
LINE
  5
3FD
100
AcDbEntity
  8
0
100
AcDbLine
 62
7
  6
CONTINUOUS
 10
159.7260596434
 20
106.6323190565
 11
157.6605980975
 21
106.6323190565
  0
LINE
  5
3FE
100
AcDbEntity
  8
0
100
AcDbLine
 62
7
  6
CONTINUOUS
 10
118.3456389088
 20
106.6323190565
 11
116.2801773628
 21
106.6323190565
  0
LINE
  5
3FF
100
AcDbEntity
  8
0
100
AcDbLine
 62
7
  6
CONTINUOUS
 10
116.2801773628
 20
107.0724626483
 11
118.3456389088
 21
107.0724626483
  0
LINE
  5
400
100
AcDbEntity
  8
0
100
AcDbLine
 62
7
  6
CONTINUOUS
 10
157.6605980975
 20
107.0724626483
 11
159.7260596434
 21
107.0724626483
  0
LINE
  5
401
100
AcDbEntity
  8
0
100
AcDbLine
 62
7
  6
CONTINUOUS
 10
157.5031185031
 20
107.0881710103
 11
118.5031185031
 21
107.0881710103
  0
LINE
  5
402
100
AcDbEntity
  8
0
100
AcDbLine
 62
253
  6
CONTINUOUS
 10
117.1317972062
 20
105.0667164446
 11
149.2513888066
 21
105.0598938483
  0
LINE
  5
403
100
AcDbEntity
  8
0
100
AcDbLine
 62
253
  6
CONTINUOUS
 10
116.9472886538
 20
105.2677222827
 11
149.2513912433
 21
105.2607625433
  0
LINE
  5
404
100
AcDbEntity
  8
0
100
AcDbLine
 62
7
  6
CONTINUOUS
 10
138.1447850347
 20
102.3949440299
 11
138.0739519716
 21
102.5757951228
  0
LINE
  5
405
100
AcDbEntity
  8
0
100
AcDbLine
 62
7
  6
CONTINUOUS
 10
138.1093685031
 20
103.1183482496
 11
138.0385350347
 21
103.2991993932
  0
LWPOLYLINE
  5
406
100
AcDbEntity
  8
0
100
AcDbPolyline
 62
7
  6
CONTINUOUS
 90
28
 70
0
 10
141.1360977501
 20
87.9801708967
 10
141.1314430391
 20
87.9978300036
 10
141.1267625417
 20
88.0149908931
 10
141.1220562577
 20
88.0316535623
 10
141.1173705358
 20
88.0477944165
 10
141.1126590274
 20
88.0634370443
 10
141.1077826864
 20
88.0786522175
 10
141.1027132578
 20
88.0934348348
 10
141.0974789967
 20
88.1077899929
 10
141.0920256215
 20
88.1218037611
 10
141.0863576783
 20
88.1354851429
 10
141.0804706211
 20
88.1488251316
 10
141.0742965304
 20
88.1618827823
 10
141.0678480384
 20
88.1746690396
 10
141.0611125129
 20
88.1871729564
 10
141.0539841372
 20
88.1994207504
 10
141.0464501694
 20
88.2114619503
 10
141.0385233513
 20
88.2232470254
 10
141.030136092
 20
88.234653604
 10
141.0212959519
 20
88.2456906912
 10
141.0119953706
 20
88.2563492789
 10
141.0021440755
 20
88.2664799738
 10
140.9917016086
 20
88.2761184751
 10
140.9807084279
 20
88.2852290801
 10
140.9691956351
 20
88.2935552912
 10
140.9571735974
 20
88.3010116077
 10
140.9446319477
 20
88.3076835259
 10
140.9315706859
 20
88.313571044
  0
LWPOLYLINE
  5
407
100
AcDbEntity
  8
0
100
AcDbPolyline
 62
7
  6
CONTINUOUS
 90
3
 70
0
 10
141.2573990616
 20
87.5200901657
 10
141.1911021842
 20
87.7730422055
 10
141.163976873
 20
87.8760662084
  0
LINE
  5
408
100
AcDbEntity
  8
0
100
AcDbLine
 62
7
  6
CONTINUOUS
 10
137.5448225031
 20
126.1846918524
 11
137.7037795031
 21
124.4848288524
  0
LINE
  5
409
100
AcDbEntity
  8
0
100
AcDbLine
 62
7
  6
CONTINUOUS
 10
137.9648395031
 20
125.0793398524
 11
137.8919385031
 21
126.1846918524
  0
LWPOLYLINE
  5
40A
100
AcDbEntity
  8
0
100
AcDbPolyline
 62
7
  6
CONTINUOUS
 90
31
 70
0
 10
139.2536143722
 20
97.3500386335
 10
139.2534978504
 20
97.3950711916
 10
139.2514394355
 20
97.4381515264
 10
139.2474391273
 20
97.4792796223
 10
139.2412728704
 20
97.5184479978
 10
139.2331647203
 20
97.5556641057
 10
139.2237868439
 20
97.5909503342
 10
139.2133067034
 20
97.624210076
 10
139.2015568367
 20
97.6555399142
 10
139.1887070243
 20
97.6852520249
 10
139.174776547
 20
97.7134028174
 10
139.1597461241
 20
97.7399358661
 10
139.1437276935
 20
97.7649940977
 10
139.1267092611
 20
97.7886342476
 10
139.108702821
 20
97.8107995681
 10
139.0898562932
 20
97.8314627623
 10
139.0701981754
 20
97.8505793108
 10
139.04969997
 20
97.8681937225
 10
139.0284241038
 20
97.8844122448
 10
139.0063576916
 20
97.8992523515
 10
138.9835136185
 20
97.9126965613
 10
138.959992967
 20
97.9247986897
 10
138.9357263102
 20
97.9355698169
 10
138.910783075
 20
97.9449988575
 10
138.8854726237
 20
97.9531063784
 10
138.8598322305
 20
97.9598685368
 10
138.8338246214
 20
97.9653091723
 10
138.807647336
 20
97.969520376
 10
138.7813662211
 20
97.9725328447
 10
138.75491543
 20
97.9743158803
 10
138.7282949628
 20
97.9748694823
  0
LINE
  5
40B
100
AcDbEntity
  8
0
100
AcDbLine
 62
7
  6
CONTINUOUS
 10
138.3905025031
 20
96.8697908524
 11
138.3905025031
 21
97.8302888524
  0
LINE
  5
40C
100
AcDbEntity
  8
0
100
AcDbLine
 62
7
  6
CONTINUOUS
 10
138.4281185031
 20
102.5757951228
 11
138.4281185031
 21
102.3587738214
  0
LINE
  5
40D
100
AcDbEntity
  8
0
100
AcDbLine
 62
7
  6
CONTINUOUS
 10
138.5368015031
 20
94.3805828524
 11
138.5368015031
 21
93.1299118524
  0
LINE
  5
40E
100
AcDbEntity
  8
0
100
AcDbLine
 62
7
  6
CONTINUOUS
 10
138.5586405031
 20
96.1772208524
 11
138.5586405031
 21
95.1624798524
  0
LINE
  5
40F
100
AcDbEntity
  8
0
100
AcDbLine
 62
7
  6
CONTINUOUS
 10
138.5655155031
 20
118.7772208524
 11
138.5655155031
 21
117.5275608524
  0
LINE
  5
410
100
AcDbEntity
  8
0
100
AcDbLine
 62
7
  6
CONTINUOUS
 10
138.7056475031
 20
93.2795478524
 11
138.7056475031
 21
94.3805828524
  0
LINE
  5
411
100
AcDbEntity
  8
0
100
AcDbLine
 62
7
  6
CONTINUOUS
 10
138.7222285031
 20
94.9275608524
 11
138.7222285031
 21
96.1772208524
  0
LINE
  5
412
100
AcDbEntity
  8
0
100
AcDbLine
 62
7
  6
CONTINUOUS
 10
138.7344625031
 20
117.5275608524
 11
138.7344625031
 21
118.7772208524
  0
LINE
  5
413
100
AcDbEntity
  8
0
100
AcDbLine
 62
7
  6
CONTINUOUS
 10
138.7875425031
 20
119.4738348524
 11
138.7875425031
 21
119.3241988524
  0
LINE
  5
414
100
AcDbEntity
  8
0
100
AcDbLine
 62
7
  6
CONTINUOUS
 10
138.9239517689
 20
110.6587738721
 11
138.9239517689
 21
110.5864334552
  0
LINE
  5
415
100
AcDbEntity
  8
0
100
AcDbLine
 62
7
  6
CONTINUOUS
 10
138.9593685031
 20
111.4183483003
 11
138.9593685031
 21
111.3098376749
  0
LINE
  5
416
100
AcDbEntity
  8
0
100
AcDbLine
 62
7
  6
CONTINUOUS
 10
139.1010352373
 20
110.5864334552
 11
139.1010352373
 21
110.6949440805
  0
LINE
  5
417
100
AcDbEntity
  8
0
100
AcDbLine
 62
7
  6
CONTINUOUS
 10
139.1364517689
 20
111.3098376749
 11
139.1364517689
 21
111.4183483003
  0
LINE
  5
418
100
AcDbEntity
  8
0
100
AcDbLine
 62
7
  6
CONTINUOUS
 10
139.2106675031
 20
120.5748698524
 11
139.2106675031
 21
119.4738348524
  0
LINE
  5
419
100
AcDbEntity
  8
0
100
AcDbLine
 62
7
  6
CONTINUOUS
 10
139.2123865031
 20
116.9795718524
 11
139.2123865031
 21
115.7299118524
  0
LINE
  5
41A
100
AcDbEntity
  8
0
100
AcDbLine
 62
7
  6
CONTINUOUS
 10
139.2781185031
 20
103.2630291848
 11
139.2781185031
 21
102.5757951228
  0
LINE
  5
41B
100
AcDbEntity
  8
0
100
AcDbLine
 62
7
  6
CONTINUOUS
 10
139.2781185031
 20
102.3587738214
 11
139.2781185031
 21
101.8523908524
  0
LINE
  5
41C
100
AcDbEntity
  8
0
100
AcDbLine
 62
7
  6
CONTINUOUS
 10
139.3394755031
 20
93.1299118524
 11
139.3394755031
 21
93.2795478524
  0
LINE
  5
41D
100
AcDbEntity
  8
0
100
AcDbLine
 62
7
  6
CONTINUOUS
 10
139.3760755031
 20
115.9300998524
 11
139.3760755031
 21
116.9795718524
  0
LINE
  5
41E
100
AcDbEntity
  8
0
100
AcDbLine
 62
7
  6
CONTINUOUS
 10
139.3795135031
 20
119.4738348524
 11
139.3795135031
 21
120.5748698524
  0
LINE
  5
41F
100
AcDbEntity
  8
0
100
AcDbLine
 62
7
  6
CONTINUOUS
 10
139.4197852373
 20
111.128986582
 11
139.4197852373
 21
110.8757951228
  0
LINE
  5
420
100
AcDbEntity
  8
0
100
AcDbLine
 62
7
  6
CONTINUOUS
 10
139.4597925031
 20
126.1846918524
 11
139.4597925031
 21
124.4847268524
  0
LINE
  5
421
100
AcDbEntity
  8
0
100
AcDbLine
 62
7
  6
CONTINUOUS
 10
139.4874935031
 20
97.9748698524
 11
139.4874935031
 21
96.7252098524
  0
LINE
  5
422
100
AcDbEntity
  8
0
100
AcDbLine
 62
7
  6
CONTINUOUS
 10
139.4906185031
 20
101.8523908524
 11
139.4906185031
 21
102.3587738214
  0
LINE
  5
423
100
AcDbEntity
  8
0
100
AcDbLine
 62
7
  6
CONTINUOUS
 10
139.4906185031
 20
102.5757951228
 11
139.4906185031
 21
103.5523908524
  0
LINE
  5
424
100
AcDbEntity
  8
0
100
AcDbLine
 62
7
  6
CONTINUOUS
 10
139.5968685031
 20
111.0566461651
 11
139.5968685031
 21
111.128986582
  0
LINE
  5
425
100
AcDbEntity
  8
0
100
AcDbLine
 62
7
  6
CONTINUOUS
 10
139.6077075031
 20
93.6334158524
 11
139.6077075031
 21
93.1299118524
  0
LINE
  5
426
100
AcDbEntity
  8
0
100
AcDbLine
 62
7
  6
CONTINUOUS
 10
139.6322852373
 20
110.6587738721
 11
139.6322852373
 21
110.731114289
  0
LINE
  5
427
100
AcDbEntity
  8
0
100
AcDbLine
 62
7
  6
CONTINUOUS
 10
139.6564395031
 20
96.8748458524
 11
139.6564395031
 21
97.2924098524
  0
LINE
  5
428
100
AcDbEntity
  8
0
100
AcDbLine
 62
7
  6
CONTINUOUS
 10
139.6564395031
 20
97.4420458524
 11
139.6564395031
 21
97.8252338524
  0
LINE
  5
429
100
AcDbEntity
  8
0
100
AcDbLine
 62
7
  6
CONTINUOUS
 10
139.7765525031
 20
93.1299118524
 11
139.7765525031
 21
93.6334158524
  0
LINE
  5
42A
100
AcDbEntity
  8
0
100
AcDbLine
 62
7
  6
CONTINUOUS
 10
139.8026375031
 20
119.3241988524
 11
139.8026375031
 21
119.4738348524
  0
LINE
  5
42B
100
AcDbEntity
  8
0
100
AcDbLine
 62
7
  6
CONTINUOUS
 10
139.8146205031
 20
124.4847268524
 11
139.8146205031
 21
126.1846918524
  0
LINE
  5
42C
100
AcDbEntity
  8
0
100
AcDbLine
 62
7
  6
CONTINUOUS
 10
139.8447850347
 20
102.3587738214
 11
139.8447850347
 21
102.5757951228
  0
LINE
  5
42D
100
AcDbEntity
  8
0
100
AcDbLine
 62
7
  6
CONTINUOUS
 10
139.9838185031
 20
120.5748698524
 11
139.9838185031
 21
119.3241988524
  0
LINE
  5
42E
100
AcDbEntity
  8
0
100
AcDbLine
 62
7
  6
CONTINUOUS
 10
140.019325167
 20
89.2000929346
 11
140.019325167
 21
87.5200901657
  0
LINE
  5
42F
100
AcDbEntity
  8
0
100
AcDbLine
 62
7
  6
CONTINUOUS
 10
140.1281185031
 20
102.5757951228
 11
140.1281185031
 21
102.3587738214
  0
LINE
  5
430
100
AcDbEntity
  8
0
100
AcDbLine
 62
7
  6
CONTINUOUS
 10
140.1527645031
 20
119.3241988524
 11
140.1527645031
 21
120.5748698524
  0
LINE
  5
431
100
AcDbEntity
  8
0
100
AcDbLine
 62
7
  6
CONTINUOUS
 10
140.2466915031
 20
116.9795718524
 11
140.2466915031
 21
115.9321228524
  0
LINE
  5
432
100
AcDbEntity
  8
0
100
AcDbLine
 62
7
  6
CONTINUOUS
 10
140.3407195031
 20
97.2924098524
 11
140.3407195031
 21
97.4420458524
  0
LINE
  5
433
100
AcDbEntity
  8
0
100
AcDbLine
 62
7
  6
CONTINUOUS
 10
140.3609599347
 20
88.4637190209
 11
140.3609599347
 21
88.9303645034
  0
LINE
  5
434
100
AcDbEntity
  8
0
100
AcDbLine
 62
7
  6
CONTINUOUS
 10
140.3727254991
 20
87.5200901657
 11
140.3727254991
 21
88.1853225683
  0
LWPOLYLINE
  5
435
100
AcDbEntity
  8
0
100
AcDbPolyline
 62
7
  6
CONTINUOUS
 90
25
 70
0
 10
139.0803133265
 20
97.3500378273
 10
139.0794786847
 20
97.3159139632
 10
139.0776433696
 20
97.2828132329
 10
139.0748073814
 20
97.2507356305
 10
139.0711000838
 20
97.2197158917
 10
139.066392113
 20
97.1897192694
 10
139.0602953777
 20
97.1606415341
 10
139.052744713
 20
97.1324019975
 10
139.0438052838
 20
97.1050813388
 10
139.0332844936
 20
97.0788173799
 10
139.0211235195
 20
97.053579814
 10
139.0073811844
 20
97.0293989382
 10
138.9920413604
 20
97.0065034791
 10
138.9751002425
 20
96.9847849108
 10
138.9565616356
 20
96.9643517489
 10
138.936420827
 20
96.9457582799
 10
138.9144607275
 20
96.9290686344
 10
138.8908984262
 20
96.9142186696
 10
138.8663804779
 20
96.9015702597
 10
138.8409316562
 20
96.891349401
 10
138.8145271874
 20
96.8833300874
 10
138.7877393057
 20
96.8771961901
 10
138.7607587556
 20
96.8728423318
 10
138.7333947925
 20
96.8703738862
 10
138.7056474163
 20
96.8697908524
  0
LINE
  5
436
100
AcDbEntity
  8
0
100
AcDbLine
 62
7
  6
CONTINUOUS
 10
137.0769145031
 20
87.5200898524
 11
137.1534865031
 21
88.6300688524
  0
LINE
  5
437
100
AcDbEntity
  8
0
100
AcDbLine
 62
7
  6
CONTINUOUS
 10
136.8909465031
 20
89.2199528524
 11
136.7374595031
 21
87.5200898524
  0
LINE
  5
438
100
AcDbEntity
  8
0
100
AcDbLine
 62
7
  6
CONTINUOUS
 10
139.4552017689
 20
111.3821780918
 11
139.4197852373
 21
111.128986582
  0
LINE
  5
439
100
AcDbEntity
  8
0
100
AcDbLine
 62
7
  6
CONTINUOUS
 10
139.5968685031
 20
111.128986582
 11
139.6322852373
 21
111.3460078834
  0
LINE
  5
43A
100
AcDbEntity
  8
0
100
AcDbLine
 62
7
  6
CONTINUOUS
 10
139.6322852373
 20
110.731114289
 11
139.6677017689
 21
110.8396249143
  0
LINE
  5
43B
100
AcDbEntity
  8
0
100
AcDbLine
 62
7
  6
CONTINUOUS
 10
140.5177018702
 20
110.6587738721
 11
140.482285136
 21
110.5502631454
  0
LINE
  5
43C
100
AcDbEntity
  8
0
100
AcDbLine
 62
7
  6
CONTINUOUS
 10
136.2784165031
 20
96.7252098524
 11
136.6301615031
 21
97.7746818524
  0
LINE
  5
43D
100
AcDbEntity
  8
0
100
AcDbLine
 62
7
  6
CONTINUOUS
 10
136.5535235031
 20
97.9748698524
 11
136.1965765031
 21
96.9130708524
  0
LINE
  5
43E
100
AcDbEntity
  8
0
100
AcDbLine
 62
7
  6
CONTINUOUS
 10
136.4802017689
 20
102.1417525454
 11
136.5510352373
 21
102.322603613
  0
LINE
  5
43F
100
AcDbEntity
  8
0
100
AcDbLine
 62
7
  6
CONTINUOUS
 10
136.9760352373
 20
103.2991993932
 11
136.9052017689
 21
103.1183482496
  0
LINE
  5
440
100
AcDbEntity
  8
0
100
AcDbLine
 62
7
  6
CONTINUOUS
 10
136.9406185031
 20
102.5757951228
 11
136.8697852373
 21
102.3949440299
  0
LINE
  5
441
100
AcDbEntity
  8
0
100
AcDbLine
 62
7
  6
CONTINUOUS
 10
140.6239518196
 20
110.44175252
 11
140.6947851867
 21
110.6226036636
  0
LINE
  5
442
100
AcDbEntity
  8
0
100
AcDbLine
 62
7
  6
CONTINUOUS
 10
138.0739519716
 20
102.1055823369
 11
138.1447850347
 21
102.2864334045
  0
LINE
  5
443
100
AcDbEntity
  8
0
100
AcDbLine
 62
7
  6
CONTINUOUS
 10
138.0385350347
 20
102.8651567904
 11
138.1093685031
 21
103.0098376243
  0
LINE
  5
444
100
AcDbEntity
  8
0
100
AcDbLine
 62
7
  6
CONTINUOUS
 10
136.3385352373
 20
102.8651567904
 11
136.2677018702
 21
102.7566461651
  0
LINE
  5
445
100
AcDbEntity
  8
0
100
AcDbLine
 62
7
  6
CONTINUOUS
 10
136.3385352373
 20
102.2502631961
 11
136.2677018702
 21
102.1417525454
  0
LINE
  5
446
100
AcDbEntity
  8
0
100
AcDbLine
 62
7
  6
CONTINUOUS
 10
137.0822852373
 20
103.1183482496
 11
137.1531185031
 21
103.2268589763
  0
LINE
  5
447
100
AcDbEntity
  8
0
100
AcDbLine
 62
7
  6
CONTINUOUS
 10
137.9322852373
 20
103.0460078327
 11
137.8614517689
 21
102.9374972073
  0
LINE
  5
448
100
AcDbEntity
  8
0
100
AcDbLine
 62
7
  6
CONTINUOUS
 10
136.3739517689
 20
101.9970716989
 11
136.4802017689
 21
102.1417525454
  0
LINE
  5
449
100
AcDbEntity
  8
0
100
AcDbLine
 62
7
  6
CONTINUOUS
 10
137.0468685031
 20
102.3949440299
 11
137.1531185031
 21
102.5396249143
  0
LINE
  5
44A
100
AcDbEntity
  8
0
100
AcDbLine
 62
7
  6
CONTINUOUS
 10
141.1906185031
 20
110.1523908524
 11
141.4031185031
 21
110.4055823116
  0
LINE
  5
44B
100
AcDbEntity
  8
0
100
AcDbLine
 62
7
  6
CONTINUOUS
 10
137.0822852373
 20
103.4077100186
 11
136.9760352373
 21
103.2991993932
  0
LINE
  5
44C
100
AcDbEntity
  8
0
100
AcDbLine
 62
7
  6
CONTINUOUS
 10
137.1531185031
 20
103.2268589763
 11
137.2947852373
 21
103.3353696017
  0
LINE
  5
44D
100
AcDbEntity
  8
0
100
AcDbLine
 62
7
  6
CONTINUOUS
 10
135.594785136
 20
103.2630291848
 11
135.701035136
 21
103.3353696017
  0
LINE
  5
44E
100
AcDbEntity
  8
0
100
AcDbLine
 62
7
  6
CONTINUOUS
 10
135.6656185031
 20
103.5162206439
 11
135.488535136
 21
103.4077100186
  0
LINE
  5
44F
100
AcDbEntity
  8
0
100
AcDbLine
 62
7
  6
CONTINUOUS
 10
118.5031185031
 20
107.0881710103
 11
118.3456389088
 21
107.0724626483
  0
LINE
  5
450
100
AcDbEntity
  8
0
100
AcDbLine
 62
7
  6
CONTINUOUS
 10
159.1257397118
 20
108.3925375017
 11
157.6605980975
 21
108.3925375017
  0
LINE
  5
451
100
AcDbEntity
  8
0
100
AcDbLine
 62
7
  6
CONTINUOUS
 10
118.3456389088
 20
108.3925375017
 11
116.8804972945
 21
108.3925375017
  0
LINE
  5
452
100
AcDbEntity
  8
0
100
AcDbLine
 62
7
  6
CONTINUOUS
 10
157.5031185031
 20
108.4239566186
 11
118.5031185031
 21
108.4239566186
  0
LINE
  5
453
100
AcDbEntity
  8
0
100
AcDbLine
 62
253
  6
CONTINUOUS
 10
126.1856700832
 20
108.4439920067
 11
116.9472886538
 21
108.4370594221
  0
LINE
  5
454
100
AcDbEntity
  8
0
100
AcDbLine
 62
253
  6
CONTINUOUS
 10
126.1956399108
 20
108.6448601501
 11
117.1317972062
 21
108.6380652602
  0
LINE
  5
455
100
AcDbEntity
  8
0
100
AcDbLine
 62
253
  6
CONTINUOUS
 10
159.0589483524
 20
108.4370594221
 11
126.1856700832
 21
108.4439920067
  0
LINE
  5
456
100
AcDbEntity
  8
0
100
AcDbLine
 62
253
  6
CONTINUOUS
 10
158.8744398
 20
108.6380652602
 11
126.1956399108
 21
108.6448601501
  0
LINE
  5
457
100
AcDbEntity
  8
0
100
AcDbLine
 62
7
  6
CONTINUOUS
 10
157.5031185031
 20
107.0881710103
 11
157.6605980975
 21
107.0724626483
  0
LINE
  5
458
100
AcDbEntity
  8
0
100
AcDbLine
 62
7
  6
CONTINUOUS
 10
138.1447852373
 20
110.4779227285
 11
138.0739517689
 21
110.5864334552
  0
LINE
  5
459
100
AcDbEntity
  8
0
100
AcDbLine
 62
7
  6
CONTINUOUS
 10
137.8968685031
 20
110.5864334552
 11
137.9677019716
 21
110.4055823116
  0
LINE
  5
45A
100
AcDbEntity
  8
0
100
AcDbLine
 62
7
  6
CONTINUOUS
 10
137.8614519716
 20
111.3098376749
 11
137.9322850347
 21
111.128986582
  0
LINE
  5
45B
100
AcDbEntity
  8
0
100
AcDbLine
 62
7
  6
CONTINUOUS
 10
134.8285840949
 20
125.8803638698
 11
134.8701392562
 21
125.7246108081
  0
LWPOLYLINE
  5
45C
100
AcDbEntity
  8
0
100
AcDbPolyline
 62
7
  6
CONTINUOUS
 90
28
 70
0
 10
134.8701392562
 20
125.7246108081
 10
134.8747939671
 20
125.7069517012
 10
134.8794744646
 20
125.6897908116
 10
134.8841807486
 20
125.6731281425
 10
134.8888664704
 20
125.6569872883
 10
134.8935779788
 20
125.6413446604
 10
134.8984543199
 20
125.6261294872
 10
134.9035237484
 20
125.6113468699
 10
134.9087580096
 20
125.5969917119
 10
134.9142113848
 20
125.5829779437
 10
134.9198793279
 20
125.5692965618
 10
134.9257663851
 20
125.5559565732
 10
134.9319404759
 20
125.5428989225
 10
134.9383889678
 20
125.5301126652
 10
134.9451244933
 20
125.5176087484
 10
134.952252869
 20
125.5053609544
 10
134.9597868369
 20
125.4933197545
 10
134.967713655
 20
125.4815346794
 10
134.9761009143
 20
125.4701281008
 10
134.9849410544
 20
125.4590910136
 10
134.9942416357
 20
125.4484324259
 10
135.0040929308
 20
125.4383017309
 10
135.0145353977
 20
125.4286632296
 10
135.0255285784
 20
125.4195526247
 10
135.0370413712
 20
125.4112264135
 10
135.0490634088
 20
125.4037700971
 10
135.0616050585
 20
125.3970981789
 10
135.0746663204
 20
125.3912106608
  0
LINE
  5
45D
100
AcDbEntity
  8
0
100
AcDbLine
 62
7
  6
CONTINUOUS
 10
134.7488379447
 20
126.1846915391
 11
134.8285840949
 21
125.8803638698
  0
LINE
  5
45E
100
AcDbEntity
  8
0
100
AcDbLine
 62
7
  6
CONTINUOUS
 10
139.4197852373
 20
110.8757951228
 11
139.4552017689
 21
110.6226036636
  0
LINE
  5
45F
100
AcDbEntity
  8
0
100
AcDbLine
 62
7
  6
CONTINUOUS
 10
140.3981475031
 20
97.8252338524
 11
140.3981475031
 21
97.9748698524
  0
LINE
  5
460
100
AcDbEntity
  8
0
100
AcDbLine
 62
7
  6
CONTINUOUS
 10
140.4103805031
 20
96.7252098524
 11
140.4103805031
 21
96.8748458524
  0
LINE
  5
461
100
AcDbEntity
  8
0
100
AcDbLine
 62
7
  6
CONTINUOUS
 10
140.4103805031
 20
115.7299118524
 11
140.4103805031
 21
116.9795718524
  0
LINE
  5
462
100
AcDbEntity
  8
0
100
AcDbLine
 62
7
  6
CONTINUOUS
 10
140.5177018702
 20
110.731114289
 11
140.5177018702
 21
110.6587738721
  0
LINE
  5
463
100
AcDbEntity
  8
0
100
AcDbLine
 62
7
  6
CONTINUOUS
 10
140.6947851867
 20
110.6226036636
 11
140.6947851867
 21
110.7672844974
  0
LINE
  5
464
100
AcDbEntity
  8
0
100
AcDbLine
 62
7
  6
CONTINUOUS
 10
140.9315706859
 20
88.313571044
 11
140.9315706859
 21
88.3236157512
  0
LINE
  5
465
100
AcDbEntity
  8
0
100
AcDbLine
 62
7
  6
CONTINUOUS
 10
140.9781185031
 20
111.8523908524
 11
140.9781185031
 21
110.1523908524
  0
LINE
  5
466
100
AcDbEntity
  8
0
100
AcDbLine
 62
7
  6
CONTINUOUS
 10
140.9781185031
 20
103.2630291848
 11
140.9781185031
 21
102.5757951228
  0
LINE
  5
467
100
AcDbEntity
  8
0
100
AcDbLine
 62
7
  6
CONTINUOUS
 10
140.9781185031
 20
102.3587738214
 11
140.9781185031
 21
101.8523908524
  0
LINE
  5
468
100
AcDbEntity
  8
0
100
AcDbLine
 62
7
  6
CONTINUOUS
 10
141.1906185031
 20
101.8523908524
 11
141.1906185031
 21
102.3587738214
  0
LINE
  5
469
100
AcDbEntity
  8
0
100
AcDbLine
 62
7
  6
CONTINUOUS
 10
141.1906185031
 20
102.5757951228
 11
141.1906185031
 21
103.5523908524
  0
LINE
  5
46A
100
AcDbEntity
  8
0
100
AcDbLine
 62
7
  6
CONTINUOUS
 10
141.1906185031
 20
110.44175252
 11
141.1906185031
 21
111.8523908524
  0
LINE
  5
46B
100
AcDbEntity
  8
0
100
AcDbLine
 62
7
  6
CONTINUOUS
 10
141.2757682339
 20
129.1187510152
 11
141.2757682339
 21
127.6023908524
  0
LINE
  5
46C
100
AcDbEntity
  8
0
100
AcDbLine
 62
7
  6
CONTINUOUS
 10
141.2757682339
 20
84.5860306896
 11
141.2757682339
 21
86.1023908524
  0
LINE
  5
46D
100
AcDbEntity
  8
0
100
AcDbLine
 62
7
  6
CONTINUOUS
 10
141.4031185031
 20
110.4055823116
 11
141.4031185031
 21
110.6949440805
  0
LINE
  5
46E
100
AcDbEntity
  8
0
100
AcDbLine
 62
7
  6
CONTINUOUS
 10
141.54478544
 20
102.3587738214
 11
141.54478544
 21
102.5757951228
  0
LINE
  5
46F
100
AcDbEntity
  8
0
100
AcDbLine
 62
7
  6
CONTINUOUS
 10
141.8531185031
 20
129.0663432359
 11
141.8531185031
 21
127.5499830731
  0
LINE
  5
470
100
AcDbEntity
  8
0
100
AcDbLine
 62
7
  6
CONTINUOUS
 10
141.8531185031
 20
84.6384384688
 11
141.8531185031
 21
86.1547986317
  0
LWPOLYLINE
  5
471
100
AcDbEntity
  8
0
100
AcDbPolyline
 62
7
  6
CONTINUOUS
 90
25
 70
0
 10
140.8393751628
 20
88.7275971347
 10
140.8390042771
 20
88.7089056036
 10
140.8375599502
 20
88.6904447238
 10
140.8350421821
 20
88.6722144938
 10
140.8314584571
 20
88.6541492322
 10
140.8268012909
 20
88.636314618
 10
140.8210482302
 20
88.6189076892
 10
140.8142104472
 20
88.601858196
 10
140.8062767696
 20
88.5852363836
 10
140.7971912277
 20
88.5694500287
 10
140.7869132929
 20
88.5544866838
 10
140.7754834937
 20
88.5403587876
 10
140.7629674459
 20
88.5275114417
 10
140.7492441422
 20
88.5161019626
 10
140.7344345898
 20
88.5059730226
 10
140.7189674269
 20
88.4970977554
 10
140.7028435461
 20
88.4895593315
 10
140.6860620547
 20
88.483274573
 10
140.6690489125
 20
88.4779670926
 10
140.6519170935
 20
88.4736326558
 10
140.6345536236
 20
88.4702754938
 10
140.6170455404
 20
88.4676319186
 10
140.5994218562
 20
88.4656140338
 10
140.5816535586
 20
88.4643097347
 10
140.5637406476
 20
88.4637190209
  0
LINE
  5
472
100
AcDbEntity
  8
0
100
AcDbLine
 62
7
  6
CONTINUOUS
 10
135.7053525031
 20
89.2199528524
 11
135.3714305031
 21
88.0498848524
  0
LINE
  5
473
100
AcDbEntity
  8
0
100
AcDbLine
 62
7
  6
CONTINUOUS
 10
135.5135345031
 20
87.5200898524
 11
136.0599385031
 21
89.2199528524
  0
LINE
  5
474
100
AcDbEntity
  8
0
100
AcDbLine
 62
7
  6
CONTINUOUS
 10
137.1176905031
 20
96.7252098524
 11
137.2483185031
 21
97.0891888524
  0
LINE
  5
475
100
AcDbEntity
  8
0
100
AcDbLine
 62
7
  6
CONTINUOUS
 10
137.4415305031
 20
93.1299118524
 11
137.5721575031
 21
93.4938908524
  0
LINE
  5
476
100
AcDbEntity
  8
0
100
AcDbLine
 62
7
  6
CONTINUOUS
 10
137.6243285031
 20
93.6435258524
 11
137.8264065031
 21
94.1984498524
  0
LINE
  5
477
100
AcDbEntity
  8
0
100
AcDbLine
 62
7
  6
CONTINUOUS
 10
137.7375655031
 20
94.3805828524
 11
137.2674275031
 21
93.1299118524
  0
LINE
  5
478
100
AcDbEntity
  8
0
100
AcDbLine
 62
7
  6
CONTINUOUS
 10
137.4137265031
 20
97.9748698524
 11
136.9435875031
 21
96.7252098524
  0
LINE
  5
479
100
AcDbEntity
  8
0
100
AcDbLine
 62
7
  6
CONTINUOUS
 10
137.9677017689
 20
102.2864334045
 11
137.8614517689
 21
102.1417525454
  0
LINE
  5
47A
100
AcDbEntity
  8
0
100
AcDbLine
 62
7
  6
CONTINUOUS
 10
139.2781185031
 20
103.5523908524
 11
138.4281185031
 21
102.5757951228
  0
LINE
  5
47B
100
AcDbEntity
  8
0
100
AcDbLine
 62
7
  6
CONTINUOUS
 10
140.9781185031
 20
103.5523908524
 11
140.1281185031
 21
102.5757951228
  0
LINE
  5
47C
100
AcDbEntity
  8
0
100
AcDbLine
 62
7
  6
CONTINUOUS
 10
138.6760350347
 20
102.5757951228
 11
139.2781185031
 21
103.2630291848
  0
LINE
  5
47D
100
AcDbEntity
  8
0
100
AcDbLine
 62
7
  6
CONTINUOUS
 10
137.9322852373
 20
102.7566461651
 11
138.0385350347
 21
102.8651567904
  0
LINE
  5
47E
100
AcDbEntity
  8
0
100
AcDbLine
 62
7
  6
CONTINUOUS
 10
137.9677017689
 20
101.9970716989
 11
138.0739519716
 21
102.1055823369
  0
LINE
  5
47F
100
AcDbEntity
  8
0
100
AcDbLine
 62
7
  6
CONTINUOUS
 10
137.0822852373
 20
102.6843057482
 11
136.9406185031
 21
102.5757951228
  0
LINE
  5
480
100
AcDbEntity
  8
0
100
AcDbLine
 62
7
  6
CONTINUOUS
 10
137.8614517689
 20
102.9374972073
 11
137.7197852373
 21
102.828986582
  0
LINE
  5
481
100
AcDbEntity
  8
0
100
AcDbLine
 62
7
  6
CONTINUOUS
 10
136.2677018702
 20
102.7566461651
 11
136.1614518702
 21
102.6843057482
  0
LINE
  5
482
100
AcDbEntity
  8
0
100
AcDbLine
 62
7
  6
CONTINUOUS
 10
136.1968685031
 20
102.5034547059
 11
136.4093685031
 21
102.6481355397
  0
LINE
  5
483
100
AcDbEntity
  8
0
100
AcDbLine
 62
7
  6
CONTINUOUS
 10
136.2677018702
 20
102.1417525454
 11
136.1614518702
 21
102.0694121284
  0
LINE
  5
484
100
AcDbEntity
  8
0
100
AcDbLine
 62
7
  6
CONTINUOUS
 10
137.2593685031
 20
103.5162206439
 11
137.0822852373
 21
103.4077100186
  0
LINE
  5
485
100
AcDbEntity
  8
0
100
AcDbLine
 62
7
  6
CONTINUOUS
 10
136.1968685031
 20
101.888561064
 11
136.3739517689
 21
101.9970716989
  0
LINE
  5
486
100
AcDbEntity
  8
0
100
AcDbLine
 62
7
  6
CONTINUOUS
 10
137.7906185031
 20
101.888561064
 11
137.9677017689
 21
101.9970716989
  0
LINE
  5
487
100
AcDbEntity
  8
0
100
AcDbLine
 62
7
  6
CONTINUOUS
 10
137.1531185031
 20
102.7204759566
 11
137.0822852373
 21
102.6843057482
  0
LINE
  5
488
100
AcDbEntity
  8
0
100
AcDbLine
 62
7
  6
CONTINUOUS
 10
137.1531185031
 20
102.5396249143
 11
137.2947852373
 21
102.6119653313
  0
LINE
  5
489
100
AcDbEntity
  8
0
100
AcDbLine
 62
7
  6
CONTINUOUS
 10
137.8614517689
 20
102.7204759566
 11
137.9322852373
 21
102.7566461651
  0
LINE
  5
48A
100
AcDbEntity
  8
0
100
AcDbLine
 62
7
  6
CONTINUOUS
 10
137.8614517689
 20
102.1417525454
 11
137.7197852373
 21
102.0694121284
  0
LINE
  5
48B
100
AcDbEntity
  8
0
100
AcDbLine
 62
7
  6
CONTINUOUS
 10
135.701035136
 20
103.3353696017
 11
135.807285136
 21
103.3715398101
  0
LINE
  5
48C
100
AcDbEntity
  8
0
100
AcDbLine
 62
7
  6
CONTINUOUS
 10
136.1614518702
 20
102.6843057482
 11
136.0552018702
 21
102.6481355397
  0
LINE
  5
48D
100
AcDbEntity
  8
0
100
AcDbLine
 62
7
  6
CONTINUOUS
 10
136.1614518702
 20
102.0694121284
 11
136.0552018702
 21
102.03324192
  0
LINE
  5
48E
100
AcDbEntity
  8
0
100
AcDbLine
 62
7
  6
CONTINUOUS
 10
138.7114517689
 20
110.3694121031
 11
138.5697852373
 21
110.3332418947
  0
LINE
  5
48F
100
AcDbEntity
  8
0
100
AcDbLine
 62
7
  6
CONTINUOUS
 10
138.2864517689
 20
110.8757951228
 11
138.4281185031
 21
110.9119653313
  0
LINE
  5
490
100
AcDbEntity
  8
0
100
AcDbLine
 62
7
  6
CONTINUOUS
 10
138.7114517689
 20
111.0928163735
 11
138.5697852373
 21
111.0566461651
  0
LINE
  5
491
100
AcDbEntity
  8
0
100
AcDbLine
 62
7
  6
CONTINUOUS
 10
140.163535136
 20
110.1523908524
 11
140.3406185031
 21
110.1885610608
  0
LINE
  5
492
100
AcDbEntity
  8
0
100
AcDbLine
 62
7
  6
CONTINUOUS
 10
138.5697852373
 20
110.1523908524
 11
138.7468685031
 21
110.1885610608
  0
LINE
  5
493
100
AcDbEntity
  8
0
100
AcDbLine
 62
7
  6
CONTINUOUS
 10
139.9864518702
 20
111.237497258
 11
139.8093685031
 21
111.2013269989
  0
LINE
  5
494
100
AcDbEntity
  8
0
100
AcDbLine
 62
7
  6
CONTINUOUS
 10
139.9864518702
 20
111.8523908524
 11
139.8093685031
 21
111.8162206408
  0
LINE
  5
495
100
AcDbEntity
  8
0
100
AcDbLine
 62
7
  6
CONTINUOUS
 10
134.8156185031
 20
110.1523908524
 11
135.0281185031
 21
110.1523908524
  0
LINE
  5
496
100
AcDbEntity
  8
0
100
AcDbLine
 62
7
  6
CONTINUOUS
 10
136.5156185031
 20
110.1523908524
 11
136.7281185031
 21
110.1523908524
  0
LINE
  5
497
100
AcDbEntity
  8
0
100
AcDbLine
 62
7
  6
CONTINUOUS
 10
138.4281185031
 20
110.1523908524
 11
138.5697852373
 21
110.1523908524
  0
LINE
  5
498
100
AcDbEntity
  8
0
100
AcDbLine
 62
7
  6
CONTINUOUS
 10
139.9864518702
 20
110.1523908524
 11
140.163535136
 21
110.1523908524
  0
LINE
  5
499
100
AcDbEntity
  8
0
100
AcDbLine
 62
7
  6
CONTINUOUS
 10
140.9781185031
 20
110.1523908524
 11
141.1906185031
 21
110.1523908524
  0
LINE
  5
49A
100
AcDbEntity
  8
0
100
AcDbLine
 62
7
  6
CONTINUOUS
 10
140.1989518702
 20
110.3332418947
 11
139.951035136
 21
110.3332418947
  0
LINE
  5
49B
100
AcDbEntity
  8
0
100
AcDbLine
 62
7
  6
CONTINUOUS
 10
138.5697852373
 20
110.3332418947
 11
138.4281185031
 21
110.3332418947
  0
LINE
  5
49C
100
AcDbEntity
  8
0
100
AcDbLine
 62
7
  6
CONTINUOUS
 10
138.4281185031
 20
110.9119653313
 11
138.5697852373
 21
110.9119653313
  0
LINE
  5
49D
100
AcDbEntity
  8
0
100
AcDbLine
 62
7
  6
CONTINUOUS
 10
160.2863444031
 20
111.0523908524
 11
159.1257397118
 21
111.0523908524
  0
LINE
  5
49E
100
AcDbEntity
  8
0
100
AcDbLine
 62
7
  6
CONTINUOUS
 10
115.7198926031
 20
111.0523908524
 11
116.8804972945
 21
111.0523908524
  0
LINE
  5
49F
100
AcDbEntity
  8
0
100
AcDbLine
 62
7
  6
CONTINUOUS
 10
138.5697852373
 20
111.0566461651
 11
138.4281185031
 21
111.0566461651
  0
LINE
  5
4A0
100
AcDbEntity
  8
0
100
AcDbLine
 62
7
  6
CONTINUOUS
 10
139.951035136
 20
111.0566461651
 11
140.1989518702
 21
111.0566461651
  0
LINE
  5
4A1
100
AcDbEntity
  8
0
100
AcDbLine
 62
7
  6
CONTINUOUS
 10
134.4614515662
 20
111.128986582
 11
134.8156185031
 21
111.128986582
  0
LINE
  5
4A2
100
AcDbEntity
  8
0
100
AcDbLine
 62
7
  6
CONTINUOUS
 10
135.0281185031
 20
111.128986582
 11
135.6302019716
 21
111.128986582
  0
LINE
  5
4A3
100
AcDbEntity
  8
0
100
AcDbLine
 62
7
  6
CONTINUOUS
 10
136.1614519716
 20
111.128986582
 11
136.5156185031
 21
111.128986582
  0
LINE
  5
4A4
100
AcDbEntity
  8
0
100
AcDbLine
 62
7
  6
CONTINUOUS
 10
136.7281185031
 20
111.128986582
 11
137.3302019716
 21
111.128986582
  0
LINE
  5
4A5
100
AcDbEntity
  8
0
100
AcDbLine
 62
7
  6
CONTINUOUS
 10
140.163535136
 20
111.237497258
 11
139.9864518702
 21
111.237497258
  0
LINE
  5
4A6
100
AcDbEntity
  8
0
100
AcDbLine
 62
7
  6
CONTINUOUS
 10
137.5781185031
 20
111.3460078834
 11
136.7281185031
 21
111.3460078834
  0
LINE
  5
4A7
100
AcDbEntity
  8
0
100
AcDbLine
 62
7
  6
CONTINUOUS
 10
136.5156185031
 20
111.3460078834
 11
136.1614519716
 21
111.3460078834
  0
LINE
  5
4A8
100
AcDbEntity
  8
0
100
AcDbLine
 62
7
  6
CONTINUOUS
 10
135.8781185031
 20
111.3460078834
 11
135.0281185031
 21
111.3460078834
  0
LINE
  5
4A9
100
AcDbEntity
  8
0
100
AcDbLine
 62
7
  6
CONTINUOUS
 10
134.8156185031
 20
111.3460078834
 11
134.4614515662
 21
111.3460078834
  0
LINE
  5
4AA
100
AcDbEntity
  8
0
100
AcDbLine
 62
7
  6
CONTINUOUS
 10
138.2510352373
 20
110.1885610608
 11
138.4281185031
 21
110.1523908524
  0
LINE
  5
4AB
100
AcDbEntity
  8
0
100
AcDbLine
 62
7
  6
CONTINUOUS
 10
139.8093685031
 20
110.1885610608
 11
139.9864518702
 21
110.1523908524
  0
LINE
  5
4AC
100
AcDbEntity
  8
0
100
AcDbLine
 62
7
  6
CONTINUOUS
 10
138.4281185031
 20
110.3332418947
 11
138.2864517689
 21
110.3694121031
  0
LINE
  5
4AD
100
AcDbEntity
  8
0
100
AcDbLine
 62
7
  6
CONTINUOUS
 10
138.5697852373
 20
110.9119653313
 11
138.7114517689
 21
110.8757951228
  0
LINE
  5
4AE
100
AcDbEntity
  8
0
100
AcDbLine
 62
7
  6
CONTINUOUS
 10
138.4281185031
 20
111.0566461651
 11
138.2864517689
 21
111.0928163735
  0
LINE
  5
4AF
100
AcDbEntity
  8
0
100
AcDbLine
 62
7
  6
CONTINUOUS
 10
139.951035136
 20
110.3332418947
 11
139.844785136
 21
110.3694121031
  0
LINE
  5
4B0
100
AcDbEntity
  8
0
100
AcDbLine
 62
7
  6
CONTINUOUS
 10
138.0739517689
 20
111.0204759566
 11
138.1447852373
 21
110.9843057482
  0
LINE
  5
4B1
100
AcDbEntity
  8
0
100
AcDbLine
 62
7
  6
CONTINUOUS
 10
138.2864517689
 20
111.0928163735
 11
138.1447852373
 21
111.1651567904
  0
LINE
  5
4B2
100
AcDbEntity
  8
0
100
AcDbLine
 62
7
  6
CONTINUOUS
 10
138.9239517689
 20
110.9481355397
 11
138.8531185031
 21
110.9843057482
  0
LINE
  5
4B3
100
AcDbEntity
  8
0
100
AcDbLine
 62
7
  6
CONTINUOUS
 10
138.0739517689
 20
110.2970716862
 11
138.2510352373
 21
110.1885610608
  0
LINE
  5
4B4
100
AcDbEntity
  8
0
100
AcDbLine
 62
7
  6
CONTINUOUS
 10
139.6322852373
 20
110.2970716862
 11
139.8093685031
 21
110.1885610608
  0
LINE
  5
4B5
100
AcDbEntity
  8
0
100
AcDbLine
 62
7
  6
CONTINUOUS
 10
139.844785136
 20
110.3694121031
 11
139.738535136
 21
110.44175252
  0
LINE
  5
4B6
100
AcDbEntity
  8
0
100
AcDbLine
 62
7
  6
CONTINUOUS
 10
138.2864517689
 20
110.3694121031
 11
138.1447852373
 21
110.4779227285
  0
LINE
  5
4B7
100
AcDbEntity
  8
0
100
AcDbLine
 62
7
  6
CONTINUOUS
 10
137.9322850347
 20
111.128986582
 11
138.0739517689
 21
111.0204759566
  0
LINE
  5
4B8
100
AcDbEntity
  8
0
100
AcDbLine
 62
7
  6
CONTINUOUS
 10
138.7114517689
 20
110.8757951228
 11
138.8531185031
 21
110.7672844974
  0
LINE
  5
4B9
100
AcDbEntity
  8
0
100
AcDbLine
 62
7
  6
CONTINUOUS
 10
137.9677019716
 20
110.4055823116
 11
138.0739517689
 21
110.2970716862
  0
LINE
  5
4BA
100
AcDbEntity
  8
0
100
AcDbLine
 62
7
  6
CONTINUOUS
 10
139.0302017689
 20
110.8396249143
 11
138.9239517689
 21
110.9481355397
  0
LINE
  5
4BB
100
AcDbEntity
  8
0
100
AcDbLine
 62
7
  6
CONTINUOUS
 10
139.0656185031
 20
111.5991993679
 11
138.9593685031
 21
111.7077100059
  0
LINE
  5
4BC
100
AcDbEntity
  8
0
100
AcDbLine
 62
7
  6
CONTINUOUS
 10
138.1447852373
 20
111.1651567904
 11
138.0385352373
 21
111.3098376749
  0
LINE
  5
4BD
100
AcDbEntity
  8
0
100
AcDbLine
 62
7
  6
CONTINUOUS
 10
139.5260352373
 20
110.44175252
 11
139.6322852373
 21
110.2970716862
  0
LINE
  5
4BE
100
AcDbEntity
  8
0
100
AcDbLine
 62
7
  6
CONTINUOUS
 10
138.8531185031
 20
111.5630291594
 11
138.9593685031
 21
111.4183483003
  0
LINE
  5
4BF
100
AcDbEntity
  8
0
100
AcDbLine
 62
7
  6
CONTINUOUS
 10
138.8531185031
 20
110.7672844974
 11
138.9239517689
 21
110.6587738721
  0
LINE
  5
4C0
100
AcDbEntity
  8
0
100
AcDbLine
 62
7
  6
CONTINUOUS
 10
139.738535136
 20
110.44175252
 11
139.6677017689
 21
110.5502631454
  0
LINE
  5
4C1
100
AcDbEntity
  8
0
100
AcDbLine
 62
7
  6
CONTINUOUS
 10
140.4114518702
 20
110.9481355397
 11
140.482285136
 21
110.8396249143
  0
LINE
  5
4C2
100
AcDbEntity
  8
0
100
AcDbLine
 62
7
  6
CONTINUOUS
 10
139.1010352373
 20
110.6949440805
 11
139.0302017689
 21
110.8396249143
  0
LINE
  5
4C3
100
AcDbEntity
  8
0
100
AcDbLine
 62
7
  6
CONTINUOUS
 10
139.1364517689
 20
111.4183483003
 11
139.0656185031
 21
111.5991993679
  0
LINE
  5
4C4
100
AcDbEntity
  8
0
100
AcDbLine
 62
7
  6
CONTINUOUS
 10
139.4552017689
 20
110.6226036636
 11
139.5260352373
 21
110.44175252
  0
LINE
  5
4C5
100
AcDbEntity
  8
0
100
AcDbLine
 62
7
  6
CONTINUOUS
 10
140.6947851867
 20
110.7672844974
 11
140.6239518196
 21
110.9481355397
  0
LINE
  5
4C6
100
AcDbEntity
  8
0
100
AcDbLine
 62
7
  6
CONTINUOUS
 10
137.9482685031
 20
116.9795718524
 11
138.4010175031
 21
115.7299118524
  0
LINE
  5
4C7
100
AcDbEntity
  8
0
100
AcDbLine
 62
7
  6
CONTINUOUS
 10
137.6244295031
 20
120.5748698524
 11
138.0771785031
 21
119.3241988524
  0
LWPOLYLINE
  5
4C8
100
AcDbEntity
  8
0
100
AcDbPolyline
 62
7
  6
CONTINUOUS
 90
6
 70
0
 10
135.2453593529
 20
125.6690764859
 10
135.2271669888
 20
125.7223924777
 10
135.2094059226
 20
125.77676611
 10
135.1920761544
 20
125.8321973611
 10
135.1754374438
 20
125.8887714732
 10
135.1426746372
 20
126.0048366042
  0
LINE
  5
4C9
100
AcDbEntity
  8
0
100
AcDbLine
 62
7
  6
CONTINUOUS
 10
138.2564375031
 20
116.6155928524
 11
138.1327855031
 21
116.9795718524
  0
LINE
  5
4CA
100
AcDbEntity
  8
0
100
AcDbLine
 62
7
  6
CONTINUOUS
 10
137.9325975031
 20
120.2108908524
 11
137.8089465031
 21
120.5748698524
  0
LINE
  5
4CB
100
AcDbEntity
  8
0
100
AcDbLine
 62
7
  6
CONTINUOUS
 10
138.1798305031
 20
119.5063318524
 11
137.9935645031
 21
120.0612558524
  0
LINE
  5
4CC
100
AcDbEntity
  8
0
100
AcDbLine
 62
7
  6
CONTINUOUS
 10
139.6677017689
 20
110.5502631454
 11
139.6322852373
 21
110.6587738721
  0
LINE
  5
4CD
100
AcDbEntity
  8
0
100
AcDbLine
 62
7
  6
CONTINUOUS
 10
140.482285136
 20
110.8396249143
 11
140.5177018702
 21
110.731114289
  0
LINE
  5
4CE
100
AcDbEntity
  8
0
100
AcDbLine
 62
7
  6
CONTINUOUS
 10
140.6239518196
 20
111.4545185087
 11
140.5885351867
 21
111.5630291594
  0
LINE
  5
4CF
100
AcDbEntity
  8
0
100
AcDbLine
 62
7
  6
CONTINUOUS
 10
136.0911065031
 20
126.1846918524
 11
136.6126665031
 21
124.4848288524
  0
LINE
  5
4D0
100
AcDbEntity
  8
0
100
AcDbLine
 62
7
  6
CONTINUOUS
 10
135.1426746372
 20
126.0048366042
 11
135.090141288
 21
126.1846915391
  0
LINE
  5
4D1
100
AcDbEntity
  8
0
100
AcDbLine
 62
7
  6
CONTINUOUS
 10
136.5569995031
 20
125.8453388524
 11
136.4650805031
 21
126.1846918524
  0
LINE
  5
4D2
100
AcDbEntity
  8
0
100
AcDbLine
 62
7
  6
CONTINUOUS
 10
136.7909605031
 20
124.9519078524
 11
136.6279125031
 21
125.5827488524
  0
LINE
  5
4D3
100
AcDbEntity
  8
0
100
AcDbLine
 62
7
  6
CONTINUOUS
 10
139.0386025031
 20
88.1220328524
 11
139.2152765031
 21
88.7528738524
  0
LINE
  5
4D4
100
AcDbEntity
  8
0
100
AcDbLine
 62
7
  6
CONTINUOUS
 10
138.8681095031
 20
87.5200898524
 11
138.9660205031
 21
87.8594428524
  0
LINE
  5
4D5
100
AcDbEntity
  8
0
100
AcDbLine
 62
7
  6
CONTINUOUS
 10
139.0503165031
 20
89.2199528524
 11
138.5171315031
 21
87.5200898524
  0
LINE
  5
4D6
100
AcDbEntity
  8
0
100
AcDbLine
 62
7
  6
CONTINUOUS
 10
137.9513905031
 20
89.2199528524
 11
137.5965625031
 21
88.2761838524
  0
LINE
  5
4D7
100
AcDbEntity
  8
0
100
AcDbLine
 62
7
  6
CONTINUOUS
 10
137.6195065031
 20
87.5200898524
 11
138.0413975031
 21
88.6254418524
  0
LINE
  5
4D8
100
AcDbEntity
  8
0
100
AcDbLine
 62
7
  6
CONTINUOUS
 10
140.3760350347
 20
102.5757951228
 11
140.9781185031
 21
103.2630291848
  0
LINE
  5
4D9
100
AcDbEntity
  8
0
100
AcDbLine
 62
7
  6
CONTINUOUS
 10
138.2864517689
 20
111.6353695763
 11
138.4281185031
 21
111.6715397848
  0
LINE
  5
4DA
100
AcDbEntity
  8
0
100
AcDbLine
 62
7
  6
CONTINUOUS
 10
138.3927017689
 20
111.8523908524
 11
138.2156185031
 21
111.8162206408
  0
LINE
  5
4DB
100
AcDbEntity
  8
0
100
AcDbLine
 62
7
  6
CONTINUOUS
 10
118.5031185031
 20
108.4239566186
 11
118.3456389088
 21
108.3925375017
  0
LINE
  5
4DC
100
AcDbEntity
  8
0
100
AcDbLine
 62
7
  6
CONTINUOUS
 10
140.4468685031
 20
111.4545185087
 11
140.6239518196
 21
111.4545185087
  0
LINE
  5
4DD
100
AcDbEntity
  8
0
100
AcDbLine
 62
7
  6
CONTINUOUS
 10
138.4281185031
 20
111.6715397848
 11
138.5697852373
 21
111.6715397848
  0
LINE
  5
4DE
100
AcDbEntity
  8
0
100
AcDbLine
 62
7
  6
CONTINUOUS
 10
139.951035136
 20
111.6715397848
 11
140.163535136
 21
111.6715397848
  0
LINE
  5
4DF
100
AcDbEntity
  8
0
100
AcDbLine
 62
7
  6
CONTINUOUS
 10
141.1906185031
 20
111.8523908524
 11
140.9781185031
 21
111.8523908524
  0
LINE
  5
4E0
100
AcDbEntity
  8
0
100
AcDbLine
 62
7
  6
CONTINUOUS
 10
140.1281185031
 20
111.8523908524
 11
139.9864518702
 21
111.8523908524
  0
LINE
  5
4E1
100
AcDbEntity
  8
0
100
AcDbLine
 62
7
  6
CONTINUOUS
 10
138.6052017689
 20
111.8523908524
 11
138.3927017689
 21
111.8523908524
  0
LINE
  5
4E2
100
AcDbEntity
  8
0
100
AcDbLine
 62
7
  6
CONTINUOUS
 10
136.7281185031
 20
111.8523908524
 11
136.5156185031
 21
111.8523908524
  0
LINE
  5
4E3
100
AcDbEntity
  8
0
100
AcDbLine
 62
7
  6
CONTINUOUS
 10
135.0281185031
 20
111.8523908524
 11
134.8156185031
 21
111.8523908524
  0
LINE
  5
4E4
100
AcDbEntity
  8
0
100
AcDbLine
 62
7
  6
CONTINUOUS
 10
157.5031185031
 20
108.4239566186
 11
157.6605980975
 21
108.3925375017
  0
LINE
  5
4E5
100
AcDbEntity
  8
0
100
AcDbLine
 62
7
  6
CONTINUOUS
 10
140.3406185031
 20
111.2013269989
 11
140.163535136
 21
111.237497258
  0
LINE
  5
4E6
100
AcDbEntity
  8
0
100
AcDbLine
 62
7
  6
CONTINUOUS
 10
138.7822852373
 20
111.8162206408
 11
138.6052017689
 21
111.8523908524
  0
LINE
  5
4E7
100
AcDbEntity
  8
0
100
AcDbLine
 62
7
  6
CONTINUOUS
 10
140.3052018702
 20
111.8162206408
 11
140.1281185031
 21
111.8523908524
  0
LINE
  5
4E8
100
AcDbEntity
  8
0
100
AcDbLine
 62
7
  6
CONTINUOUS
 10
138.5697852373
 20
111.6715397848
 11
138.7114517689
 21
111.6353695763
  0
LINE
  5
4E9
100
AcDbEntity
  8
0
100
AcDbLine
 62
7
  6
CONTINUOUS
 10
140.1989518702
 20
111.0566461651
 11
140.3052018702
 21
111.0204759566
  0
LINE
  5
4EA
100
AcDbEntity
  8
0
100
AcDbLine
 62
7
  6
CONTINUOUS
 10
140.163535136
 20
111.6715397848
 11
140.269785136
 21
111.6353695763
  0
LINE
  5
4EB
100
AcDbEntity
  8
0
100
AcDbLine
 62
7
  6
CONTINUOUS
 10
138.7114517689
 20
111.6353695763
 11
138.8531185031
 21
111.5630291594
  0
LINE
  5
4EC
100
AcDbEntity
  8
0
100
AcDbLine
 62
7
  6
CONTINUOUS
 10
138.9593685031
 20
111.7077100059
 11
138.7822852373
 21
111.8162206408
  0
LINE
  5
4ED
100
AcDbEntity
  8
0
100
AcDbLine
 62
7
  6
CONTINUOUS
 10
140.5177018702
 20
111.0928163735
 11
140.3406185031
 21
111.2013269989
  0
LINE
  5
4EE
100
AcDbEntity
  8
0
100
AcDbLine
 62
7
  6
CONTINUOUS
 10
140.482285136
 20
111.7077100059
 11
140.3052018702
 21
111.8162206408
  0
LINE
  5
4EF
100
AcDbEntity
  8
0
100
AcDbLine
 62
7
  6
CONTINUOUS
 10
140.3052018702
 20
111.0204759566
 11
140.4114518702
 21
110.9481355397
  0
LINE
  5
4F0
100
AcDbEntity
  8
0
100
AcDbLine
 62
7
  6
CONTINUOUS
 10
140.269785136
 20
111.6353695763
 11
140.376035136
 21
111.5630291594
  0
LINE
  5
4F1
100
AcDbEntity
  8
0
100
AcDbLine
 62
7
  6
CONTINUOUS
 10
140.6239518196
 20
110.9481355397
 11
140.5177018702
 21
111.0928163735
  0
LINE
  5
4F2
100
AcDbEntity
  8
0
100
AcDbLine
 62
7
  6
CONTINUOUS
 10
140.5885351867
 20
111.5630291594
 11
140.482285136
 21
111.7077100059
  0
LINE
  5
4F3
100
AcDbEntity
  8
0
100
AcDbLine
 62
7
  6
CONTINUOUS
 10
140.376035136
 20
111.5630291594
 11
140.4468685031
 21
111.4545185087
  0
LINE
  5
4F4
100
AcDbEntity
  8
0
100
AcDbLine
 62
7
  6
CONTINUOUS
 10
136.8704885031
 20
119.3241988524
 11
136.3985295031
 21
120.0713658524
  0
LINE
  5
4F5
100
AcDbEntity
  8
0
100
AcDbLine
 62
7
  6
CONTINUOUS
 10
138.1127675031
 20
117.7617168524
 11
137.4737825031
 21
118.7772208524
  0
LINE
  5
4F6
100
AcDbEntity
  8
0
100
AcDbLine
 62
7
  6
CONTINUOUS
 10
137.4475965031
 20
118.5423018524
 11
138.0762685031
 21
117.5275608524
  0
LINE
  5
4F7
100
AcDbEntity
  8
0
100
AcDbLine
 62
7
  6
CONTINUOUS
 10
136.3150165031
 20
119.9247638524
 11
136.6737375031
 21
119.3241988524
  0
LINE
  5
4F8
100
AcDbEntity
  8
0
100
AcDbLine
 62
7
  6
CONTINUOUS
 10
139.8096605031
 20
116.7917108524
 11
140.1683355031
 21
115.7299118524
  0
LINE
  5
4F9
100
AcDbEntity
  8
0
100
AcDbLine
 62
7
  6
CONTINUOUS
 10
140.2466915031
 20
115.9321228524
 11
139.8949465031
 21
116.9795718524
  0
LINE
  5
4FA
100
AcDbEntity
  8
0
100
AcDbLine
 62
7
  6
CONTINUOUS
 10
145.4531185031
 20
129.0663432359
 11
145.4531185031
 21
127.5499830731
  0
LINE
  5
4FB
100
AcDbEntity
  8
0
100
AcDbLine
 62
7
  6
CONTINUOUS
 10
145.4531185031
 20
84.6384384688
 11
145.4531185031
 21
86.1547986317
  0
LINE
  5
4FC
100
AcDbEntity
  8
0
100
AcDbLine
 62
7
  6
CONTINUOUS
 10
146.0304687723
 20
129.1187510152
 11
146.0304687723
 21
127.6023908524
  0
LINE
  5
4FD
100
AcDbEntity
  8
0
100
AcDbLine
 62
7
  6
CONTINUOUS
 10
146.0304687723
 20
84.5860306896
 11
146.0304687723
 21
86.1023908524
  0
LINE
  5
4FE
100
AcDbEntity
  8
0
100
AcDbLine
 62
7
  6
CONTINUOUS
 10
140.0499415031
 20
94.3805828524
 11
139.6912205031
 21
93.7800178524
  0
LINE
  5
4FF
100
AcDbEntity
  8
0
100
AcDbLine
 62
7
  6
CONTINUOUS
 10
139.7765525031
 20
93.6334158524
 11
140.2484105031
 21
94.3805828524
  0
LINE
  5
500
100
AcDbEntity
  8
0
100
AcDbLine
 62
7
  6
CONTINUOUS
 10
138.8527505031
 20
125.0747128524
 11
138.4364945031
 21
126.1846918524
  0
LINE
  5
501
100
AcDbEntity
  8
0
100
AcDbLine
 62
7
  6
CONTINUOUS
 10
138.4096745031
 20
125.4285978524
 11
138.7607555031
 21
124.4848288524
  0
LINE
  5
502
100
AcDbEntity
  8
0
100
AcDbLine
 62
7
  6
CONTINUOUS
 10
141.3442845031
 20
124.4848288524
 11
140.8053945031
 21
126.1846918524
  0
LINE
  5
503
100
AcDbEntity
  8
0
100
AcDbLine
 62
7
  6
CONTINUOUS
 10
140.6348065031
 20
125.6548968524
 11
140.9588315031
 21
124.4848288524
  0
LINE
  5
504
100
AcDbEntity
  8
0
100
AcDbLine
 62
253
  6
CONTINUOUS
 10
158.9861728659
 20
127.6023908524
 11
158.86995462
 21
127.3697948689
  0
LINE
  5
505
100
AcDbEntity
  8
0
100
AcDbLine
 62
253
  6
CONTINUOUS
 10
159.1859673314
 20
127.4023907583
 11
159.0698837613
 21
127.1700643113
  0
LINE
  5
506
100
AcDbEntity
  8
0
100
AcDbLine
 62
7
  6
CONTINUOUS
 10
160.2863444031
 20
120.0523908524
 11
160.1589200461
 21
120.0311723323
  0
LWPOLYLINE
  5
507
100
AcDbEntity
  8
0
100
AcDbPolyline
 62
7
  6
CONTINUOUS
 90
31
 70
0
 10
137.2779420435
 20
116.9795714823
 10
137.2513171536
 20
116.9790178919
 10
137.2248612944
 20
116.9772341642
 10
137.1985744659
 20
116.9742202989
 10
137.1723904405
 20
116.9700069894
 10
137.1463754458
 20
116.9645635406
 10
137.120728165
 20
116.9577978685
 10
137.0954113708
 20
116.9496858874
 10
137.0704622905
 20
116.9402516793
 10
137.0461912893
 20
116.9294754113
 10
137.022668155
 20
116.9173681557
 10
136.9998230998
 20
116.9039188343
 10
136.9777571249
 20
116.889074388
 10
136.9564833359
 20
116.8728523888
 10
136.9359886271
 20
116.8552352565
 10
136.916334683
 20
116.8361172022
 10
136.8974930052
 20
116.8154539153
 10
136.879492092
 20
116.7932896951
 10
136.8624791229
 20
116.7696516662
 10
136.8464660206
 20
116.7445967201
 10
136.8314408624
 20
116.7180679522
 10
136.8175150587
 20
116.6899217923
 10
136.804669156
 20
116.6602145875
 10
136.7929226078
 20
116.6288899736
 10
136.7824451856
 20
116.5956353105
 10
136.7730693765
 20
116.5603540521
 10
136.7649626933
 20
116.5231427201
 10
136.7587974465
 20
116.4839782728
 10
136.7547977394
 20
116.4428530203
 10
136.7527394686
 20
116.3997746247
 10
136.752622634
 20
116.3547430713
  0
LINE
  5
508
100
AcDbEntity
  8
0
100
AcDbLine
 62
7
  6
CONTINUOUS
 10
158.6031185031
 20
115.8728676637
 11
159.2567083416
 21
115.8785714558
  0
LINE
  5
509
100
AcDbEntity
  8
0
100
AcDbLine
 62
7
  6
CONTINUOUS
 10
117.4031185031
 20
115.8671951996
 11
116.8031185031
 21
115.8641721239
  0
LINE
  5
50A
100
AcDbEntity
  8
0
100
AcDbLine
 62
7
  6
CONTINUOUS
 10
135.6080895031
 20
115.7299118524
 11
136.5187435031
 21
115.7299118524
  0
LINE
  5
50B
100
AcDbEntity
  8
0
100
AcDbLine
 62
7
  6
CONTINUOUS
 10
137.2779420435
 20
115.7299118524
 11
137.7845795031
 21
115.7299118524
  0
LINE
  5
50C
100
AcDbEntity
  8
0
100
AcDbLine
 62
7
  6
CONTINUOUS
 10
138.4010175031
 20
115.7299118524
 11
138.5925105031
 21
115.7299118524
  0
LINE
  5
50D
100
AcDbEntity
  8
0
100
AcDbLine
 62
7
  6
CONTINUOUS
 10
139.2123865031
 20
115.7299118524
 11
139.4527135031
 21
115.7299118524
  0
LINE
  5
50E
100
AcDbEntity
  8
0
100
AcDbLine
 62
7
  6
CONTINUOUS
 10
140.1683355031
 20
115.7299118524
 11
140.4103805031
 21
115.7299118524
  0
LINE
  5
50F
100
AcDbEntity
  8
0
100
AcDbLine
 62
7
  6
CONTINUOUS
 10
115.7198926031
 20
115.8523908524
 11
117.1302533172
 21
115.8523908524
  0
LINE
  5
510
100
AcDbEntity
  8
0
100
AcDbLine
 62
7
  6
CONTINUOUS
 10
158.8759836882
 20
115.8523908524
 11
160.2863444031
 21
115.8523908524
  0
LINE
  5
511
100
AcDbEntity
  8
0
100
AcDbLine
 62
7
  6
CONTINUOUS
 10
137.6157345031
 20
115.8744928524
 11
137.3005895899
 21
115.8744928524
  0
LINE
  5
512
100
AcDbEntity
  8
0
100
AcDbLine
 62
7
  6
CONTINUOUS
 10
116.446494681
 20
115.8785714558
 11
116.7495286646
 21
115.8785714558
  0
LINE
  5
513
100
AcDbEntity
  8
0
100
AcDbLine
 62
7
  6
CONTINUOUS
 10
159.2567083416
 20
115.8785714558
 11
159.5597423252
 21
115.8785714558
  0
LINE
  5
514
100
AcDbEntity
  8
0
100
AcDbLine
 62
7
  6
CONTINUOUS
 10
136.3497975031
 20
115.8795478524
 11
135.6080895031
 21
115.8795478524
  0
LINE
  5
515
100
AcDbEntity
  8
0
100
AcDbLine
 62
7
  6
CONTINUOUS
 10
135.6655175031
 20
116.2627358524
 11
136.3497975031
 21
116.2627358524
  0
LINE
  5
516
100
AcDbEntity
  8
0
100
AcDbLine
 62
7
  6
CONTINUOUS
 10
136.3497975031
 20
116.4123718524
 11
135.6655175031
 21
116.4123718524
  0
LINE
  5
517
100
AcDbEntity
  8
0
100
AcDbLine
 62
7
  6
CONTINUOUS
 10
138.7579185031
 20
116.6155928524
 11
138.2564375031
 21
116.6155928524
  0
LINE
  5
518
100
AcDbEntity
  8
0
100
AcDbLine
 62
7
  6
CONTINUOUS
 10
135.5958565031
 20
116.8299358524
 11
136.3497975031
 21
116.8299358524
  0
LINE
  5
519
100
AcDbEntity
  8
0
100
AcDbLine
 62
7
  6
CONTINUOUS
 10
137.3005895899
 20
116.8349908524
 11
137.6157345031
 21
116.8349908524
  0
LINE
  5
51A
100
AcDbEntity
  8
0
100
AcDbLine
 62
7
  6
CONTINUOUS
 10
140.4103805031
 20
116.9795718524
 11
140.2466915031
 21
116.9795718524
  0
LINE
  5
51B
100
AcDbEntity
  8
0
100
AcDbLine
 62
7
  6
CONTINUOUS
 10
139.8949465031
 20
116.9795718524
 11
139.7278205031
 21
116.9795718524
  0
LINE
  5
51C
100
AcDbEntity
  8
0
100
AcDbLine
 62
7
  6
CONTINUOUS
 10
139.3760755031
 20
116.9795718524
 11
139.2123865031
 21
116.9795718524
  0
LINE
  5
51D
100
AcDbEntity
  8
0
100
AcDbLine
 62
7
  6
CONTINUOUS
 10
139.0626495031
 20
116.9795718524
 11
138.8885465031
 21
116.9795718524
  0
LINE
  5
51E
100
AcDbEntity
  8
0
100
AcDbLine
 62
7
  6
CONTINUOUS
 10
138.1327855031
 20
116.9795718524
 11
137.9482685031
 21
116.9795718524
  0
LINE
  5
51F
100
AcDbEntity
  8
0
100
AcDbLine
 62
7
  6
CONTINUOUS
 10
137.7845795031
 20
116.9795718524
 11
137.2779420435
 21
116.9795718524
  0
LINE
  5
520
100
AcDbEntity
  8
0
100
AcDbLine
 62
7
  6
CONTINUOUS
 10
136.5187435031
 20
116.9795718524
 11
135.5958565031
 21
116.9795718524
  0
LINE
  5
521
100
AcDbEntity
  8
0
100
AcDbLine
 62
7
  6
CONTINUOUS
 10
137.2840085031
 20
117.5275608524
 11
137.4475965031
 21
117.5275608524
  0
LINE
  5
522
100
AcDbEntity
  8
0
100
AcDbLine
 62
7
  6
CONTINUOUS
 10
138.0762685031
 20
117.5275608524
 11
138.2765575031
 21
117.5275608524
  0
LINE
  5
523
100
AcDbEntity
  8
0
100
AcDbLine
 62
7
  6
CONTINUOUS
 10
138.5655155031
 20
117.5275608524
 11
138.7344625031
 21
117.5275608524
  0
LINE
  5
524
100
AcDbEntity
  8
0
100
AcDbLine
 62
7
  6
CONTINUOUS
 10
159.2031185031
 20
115.8641721239
 11
158.6031185031
 21
115.8671951996
  0
LINE
  5
525
100
AcDbEntity
  8
0
100
AcDbLine
 62
7
  6
CONTINUOUS
 10
116.7495286646
 20
115.8785714558
 11
117.4031185031
 21
115.8728676637
  0
LWPOLYLINE
  5
526
100
AcDbEntity
  8
0
100
AcDbPolyline
 62
7
  6
CONTINUOUS
 90
28
 70
0
 10
137.3005895899
 20
115.8744928524
 10
137.2759064509
 20
115.87495288
 10
137.2514411579
 20
115.8769052445
 10
137.2271937109
 20
115.8803499452
 10
137.2030140091
 20
115.8852083247
 10
137.1790521533
 20
115.8915590385
 10
137.155758446
 20
115.8996380548
 10
137.1331125508
 20
115.9095432986
 10
137.111134804
 20
115.9211768396
 10
137.0903365175
 20
115.9344808623
 10
137.070823489
 20
115.9496366783
 10
137.0524899207
 20
115.9664629675
 10
137.0355297317
 20
115.9843579681
 10
137.0200537946
 20
116.0031768831
 10
137.0059512366
 20
116.023064503
 10
136.9930833586
 20
116.0438534484
 10
136.9813997329
 20
116.0655453948
 10
136.9709507871
 20
116.08813866
 10
136.9617491046
 20
116.1114608292
 10
136.9538896608
 20
116.1354519636
 10
136.9472774803
 20
116.160171996
 10
136.9416402202
 20
116.1856283198
 10
136.9369545671
 20
116.2117900304
 10
136.9332438343
 20
116.2386880256
 10
136.9303056194
 20
116.2664224023
 10
136.9280724549
 20
116.2950265229
 10
136.9266118084
 20
116.3244670162
 10
136.9259236797
 20
116.3547438775
  0
LINE
  5
527
100
AcDbEntity
  8
0
100
AcDbLine
 62
7
  6
CONTINUOUS
 10
115.7198926031
 20
120.0523908524
 11
115.8473169601
 21
120.0311723323
  0
LINE
  5
528
100
AcDbEntity
  8
0
100
AcDbLine
 62
253
  6
CONTINUOUS
 10
158.9861728659
 20
86.1023908524
 11
158.8699536665
 21
86.3349887442
  0
LINE
  5
529
100
AcDbEntity
  8
0
100
AcDbLine
 62
253
  6
CONTINUOUS
 10
159.1859673314
 20
86.3023909464
 11
159.0698880975
 21
86.5347087151
  0
LINE
  5
52A
100
AcDbEntity
  8
0
100
AcDbLine
 62
253
  6
CONTINUOUS
 10
149.2530525971
 20
86.35096728
 11
149.2513912433
 21
105.2607625266
  0
LINE
  5
52B
100
AcDbEntity
  8
0
100
AcDbLine
 62
253
  6
CONTINUOUS
 10
149.2513912433
 20
108.4440191782
 11
149.2530525971
 21
127.3538144248
  0
LINE
  5
52C
100
AcDbEntity
  8
0
100
AcDbLine
 62
7
  6
CONTINUOUS
 10
115.7198926031
 20
115.8523908524
 11
115.8473169601
 21
115.8736093725
  0
LINE
  5
52D
100
AcDbEntity
  8
0
100
AcDbLine
 62
7
  6
CONTINUOUS
 10
138.7344625031
 20
118.7772208524
 11
138.5655155031
 21
118.7772208524
  0
LINE
  5
52E
100
AcDbEntity
  8
0
100
AcDbLine
 62
7
  6
CONTINUOUS
 10
138.2765575031
 20
118.7772208524
 11
138.1127675031
 21
118.7772208524
  0
LINE
  5
52F
100
AcDbEntity
  8
0
100
AcDbLine
 62
7
  6
CONTINUOUS
 10
137.4737825031
 20
118.7772208524
 11
137.2840085031
 21
118.7772208524
  0
LINE
  5
530
100
AcDbEntity
  8
0
100
AcDbLine
 62
7
  6
CONTINUOUS
 10
135.7578265031
 20
119.3241988524
 11
135.9562955031
 21
119.3241988524
  0
LINE
  5
531
100
AcDbEntity
  8
0
100
AcDbLine
 62
7
  6
CONTINUOUS
 10
136.6737375031
 20
119.3241988524
 11
136.8704885031
 21
119.3241988524
  0
LINE
  5
532
100
AcDbEntity
  8
0
100
AcDbLine
 62
7
  6
CONTINUOUS
 10
137.3005895031
 20
119.3241988524
 11
137.4694355031
 21
119.3241988524
  0
LINE
  5
533
100
AcDbEntity
  8
0
100
AcDbLine
 62
7
  6
CONTINUOUS
 10
138.0771785031
 20
119.3241988524
 11
138.2686715031
 21
119.3241988524
  0
LINE
  5
534
100
AcDbEntity
  8
0
100
AcDbLine
 62
7
  6
CONTINUOUS
 10
138.7875425031
 20
119.3241988524
 11
139.8026375031
 21
119.3241988524
  0
LINE
  5
535
100
AcDbEntity
  8
0
100
AcDbLine
 62
7
  6
CONTINUOUS
 10
139.9838185031
 20
119.3241988524
 11
140.1527645031
 21
119.3241988524
  0
LINE
  5
536
100
AcDbEntity
  8
0
100
AcDbLine
 62
7
  6
CONTINUOUS
 10
139.8026375031
 20
119.4738348524
 11
139.3795135031
 21
119.4738348524
  0
LINE
  5
537
100
AcDbEntity
  8
0
100
AcDbLine
 62
7
  6
CONTINUOUS
 10
139.2106675031
 20
119.4738348524
 11
138.7875425031
 21
119.4738348524
  0
LINE
  5
538
100
AcDbEntity
  8
0
100
AcDbLine
 62
7
  6
CONTINUOUS
 10
160.2863444031
 20
115.8523908524
 11
160.1589200461
 21
115.8736093725
  0
LINE
  5
539
100
AcDbEntity
  8
0
100
AcDbLine
 62
7
  6
CONTINUOUS
 10
151.6097428301
 20
129.1187510152
 11
151.6097428301
 21
127.6023908524
  0
LINE
  5
53A
100
AcDbEntity
  8
0
100
AcDbLine
 62
7
  6
CONTINUOUS
 10
151.6097428301
 20
84.5860306896
 11
151.6097428301
 21
86.1023908524
  0
LINE
  5
53B
100
AcDbEntity
  8
0
100
AcDbLine
 62
253
  6
CONTINUOUS
 10
152.9953834762
 20
84.7118093598
 11
152.9953834762
 21
86.2281695227
  0
LINE
  5
53C
100
AcDbEntity
  8
0
100
AcDbLine
 62
253
  6
CONTINUOUS
 10
152.9953834762
 20
127.4766121821
 11
152.9953834762
 21
128.9929723449
  0
LWPOLYLINE
  5
53D
100
AcDbEntity
  8
0
100
AcDbPolyline
 62
7
  6
CONTINUOUS
 90
10
 70
0
 10
159.0589483524
 20
105.2677222827
 10
159.058894115
 20
105.2676755066
 10
159.0588399049
 20
105.2676075361
 10
159.058785722
 20
105.2675183715
 10
159.0587315606
 20
105.267407998
 10
159.0586774264
 20
105.2672764303
 10
159.058623337
 20
105.2671237123
 10
159.0585692982
 20
105.2669498586
 10
159.0585153041
 20
105.2667548546
 10
159.0584613548
 20
105.2665387004
  0
LINE
  5
53E
100
AcDbEntity
  8
0
100
AcDbLine
 62
7
  6
CONTINUOUS
 10
159.0589483524
 20
105.2677222827
 11
159.1257397118
 21
105.3122442031
  0
LINE
  5
53F
100
AcDbEntity
  8
0
100
AcDbLine
 62
7
  6
CONTINUOUS
 10
116.7495286646
 20
120.026210249
 11
117.4031185031
 21
120.0319140411
  0
LINE
  5
540
100
AcDbEntity
  8
0
100
AcDbLine
 62
7
  6
CONTINUOUS
 10
159.2031185031
 20
120.0406095809
 11
158.6031185031
 21
120.0375865052
  0
LINE
  5
541
100
AcDbEntity
  8
0
100
AcDbLine
 62
7
  6
CONTINUOUS
 10
116.446494681
 20
120.026210249
 11
116.7495286646
 21
120.026210249
  0
LINE
  5
542
100
AcDbEntity
  8
0
100
AcDbLine
 62
7
  6
CONTINUOUS
 10
159.2567083416
 20
120.026210249
 11
159.5597423252
 21
120.026210249
  0
LINE
  5
543
100
AcDbEntity
  8
0
100
AcDbLine
 62
7
  6
CONTINUOUS
 10
160.2863444031
 20
120.0523908524
 11
158.8778347675
 21
120.0523908524
  0
LINE
  5
544
100
AcDbEntity
  8
0
100
AcDbLine
 62
7
  6
CONTINUOUS
 10
115.7198926031
 20
120.0523908524
 11
117.1284022387
 21
120.0523908524
  0
LINE
  5
545
100
AcDbEntity
  8
0
100
AcDbLine
 62
7
  6
CONTINUOUS
 10
137.9935645031
 20
120.0612558524
 11
138.3819085031
 21
120.0612558524
  0
LINE
  5
546
100
AcDbEntity
  8
0
100
AcDbLine
 62
7
  6
CONTINUOUS
 10
138.4340795031
 20
120.2108908524
 11
137.9325975031
 21
120.2108908524
  0
LINE
  5
547
100
AcDbEntity
  8
0
100
AcDbLine
 62
7
  6
CONTINUOUS
 10
136.6667615031
 20
120.4252338524
 11
137.3005895031
 21
120.4252338524
  0
LINE
  5
548
100
AcDbEntity
  8
0
100
AcDbLine
 62
7
  6
CONTINUOUS
 10
140.1527645031
 20
120.5748698524
 11
139.9838185031
 21
120.5748698524
  0
LINE
  5
549
100
AcDbEntity
  8
0
100
AcDbLine
 62
7
  6
CONTINUOUS
 10
139.3795135031
 20
120.5748698524
 11
139.2106675031
 21
120.5748698524
  0
LINE
  5
54A
100
AcDbEntity
  8
0
100
AcDbLine
 62
7
  6
CONTINUOUS
 10
138.7388095031
 20
120.5748698524
 11
138.5647065031
 21
120.5748698524
  0
LINE
  5
54B
100
AcDbEntity
  8
0
100
AcDbLine
 62
7
  6
CONTINUOUS
 10
137.8089465031
 20
120.5748698524
 11
137.6244295031
 21
120.5748698524
  0
LINE
  5
54C
100
AcDbEntity
  8
0
100
AcDbLine
 62
7
  6
CONTINUOUS
 10
137.4694355031
 20
120.5748698524
 11
136.6667615031
 21
120.5748698524
  0
LINE
  5
54D
100
AcDbEntity
  8
0
100
AcDbLine
 62
7
  6
CONTINUOUS
 10
136.3985295031
 20
120.5748698524
 11
136.2296845031
 21
120.5748698524
  0
LINE
  5
54E
100
AcDbEntity
  8
0
100
AcDbLine
 62
7
  6
CONTINUOUS
 10
117.4031185031
 20
120.0375865052
 11
116.8031185031
 21
120.0406095809
  0
LINE
  5
54F
100
AcDbEntity
  8
0
100
AcDbLine
 62
7
  6
CONTINUOUS
 10
158.6031185031
 20
120.0319140411
 11
159.2567083416
 21
120.026210249
  0
LINE
  5
550
100
AcDbEntity
  8
0
100
AcDbLine
 62
7
  6
CONTINUOUS
 10
159.0589483524
 20
108.4370594221
 11
159.1257397118
 21
108.3925375017
  0
LINE
  5
551
100
AcDbEntity
  8
0
100
AcDbLine
 62
253
  6
CONTINUOUS
 10
153.168588557
 20
84.7170501378
 11
153.168588557
 21
86.2334103006
  0
LINE
  5
552
100
AcDbEntity
  8
0
100
AcDbLine
 62
253
  6
CONTINUOUS
 10
153.168588557
 20
127.4713714042
 11
153.168588557
 21
128.987731567
  0
LWPOLYLINE
  5
553
100
AcDbEntity
  8
0
100
AcDbPolyline
 62
7
  6
CONTINUOUS
 90
3
 70
0
 10
158.9995447515
 20
105.1961706697
 10
159.012482759
 20
105.2103991228
 10
159.0352266119
 20
105.2356845784
  0
LINE
  5
554
100
AcDbEntity
  8
0
100
AcDbLine
 62
7
  6
CONTINUOUS
 10
158.9555453949
 20
105.1495718908
 11
158.9995447515
 21
105.1961706697
  0
LINE
  5
555
100
AcDbEntity
  8
0
100
AcDbLine
 62
7
  6
CONTINUOUS
 10
158.9073859316
 20
105.0998404689
 11
158.9555453949
 21
105.1495718908
  0
LWPOLYLINE
  5
556
100
AcDbEntity
  8
0
100
AcDbPolyline
 62
7
  6
CONTINUOUS
 90
3
 70
0
 10
158.8744397991
 20
105.0667164446
 10
158.8910117419
 20
105.0831843371
 10
158.9073859316
 20
105.0998404689
  0
LWPOLYLINE
  5
557
100
AcDbEntity
  8
0
100
AcDbPolyline
 62
7
  6
CONTINUOUS
 90
42
 70
0
 10
140.9961765608
 20
88.3626369057
 10
141.0053184416
 20
88.3704945203
 10
141.014582765
 20
88.3787627219
 10
141.0240359724
 20
88.3874123872
 10
141.0336116224
 20
88.3964726418
 10
141.043198589
 20
88.4061030198
 10
141.0528078222
 20
88.4163014695
 10
141.0624283721
 20
88.4270700465
 10
141.071916263
 20
88.4385744471
 10
141.0812656176
 20
88.4508501889
 10
141.0904823132
 20
88.4638617604
 10
141.0994400059
 20
88.4776683156
 10
141.1081415264
 20
88.4922667883
 10
141.1165840441
 20
88.5076602524
 10
141.1246327223
 20
88.5239170738
 10
141.1323145467
 20
88.5410619871
 10
141.1396025318
 20
88.5590702677
 10
141.1462808842
 20
88.5779360929
 10
141.1523499102
 20
88.597656362
 10
141.1578093035
 20
88.618234187
 10
141.1624423528
 20
88.639673064
 10
141.1662534121
 20
88.6619231797
 10
141.1692381274
 20
88.68503436
 10
141.1711667247
 20
88.7091595608
 10
141.1721059755
 20
88.7343343909
 10
141.1719891084
 20
88.7605232587
 10
141.1703860356
 20
88.787772322
 10
141.167408907
 20
88.8162501581
 10
141.1629455726
 20
88.8457882106
 10
141.1562294949
 20
88.8759269333
 10
141.1470937953
 20
88.9069295065
 10
141.1357053522
 20
88.9385327639
 10
141.1217982633
 20
88.9694876214
 10
141.1052232867
 20
88.9996713791
 10
141.0861296644
 20
89.0292067223
 10
141.0646992191
 20
89.0572126237
 10
141.0406977968
 20
89.0837401283
 10
141.0143595516
 20
89.1087381631
 10
140.9865687685
 20
89.1311725065
 10
140.9576202092
 20
89.1506984023
 10
140.9272191121
 20
89.1676605689
 10
140.8953654771
 20
89.1820589919
  0
LWPOLYLINE
  5
558
100
AcDbEntity
  8
0
100
AcDbPolyline
 62
7
  6
CONTINUOUS
 90
13
 70
0
 10
135.1108715292
 20
124.5227227129
 10
135.1693690779
 20
124.5044657268
 10
135.2307430163
 20
124.4894445932
 10
135.2949933444
 20
124.4776593284
 10
135.3622857574
 20
124.4691798776
 10
135.4324545602
 20
124.4639363176
 10
135.5050026666
 20
124.4617188563
 10
135.5798514435
 20
124.4627114056
 10
135.657079524
 20
124.4667300548
 10
135.7364257224
 20
124.4730132738
 10
135.8178029768
 20
124.481307216
 10
135.901298349
 20
124.4918657175
 10
135.9869118392
 20
124.5046887702
  0
LWPOLYLINE
  5
559
100
AcDbEntity
  8
0
100
AcDbPolyline
 62
7
  6
CONTINUOUS
 90
3
 70
0
 10
158.8744398009
 20
108.6380652603
 10
158.8907848234
 20
108.6213696867
 10
158.9235571551
 20
108.588222619
  0
LWPOLYLINE
  5
55A
100
AcDbEntity
  8
0
100
AcDbPolyline
 62
7
  6
CONTINUOUS
 90
3
 70
0
 10
158.9235571551
 20
108.588222619
 10
158.9396861309
 20
108.571636132
 10
158.9708149936
 20
108.5391126342
  0
LWPOLYLINE
  5
55B
100
AcDbEntity
  8
0
100
AcDbPolyline
 62
7
  6
CONTINUOUS
 90
3
 70
0
 10
158.9708149936
 20
108.5391126342
 10
158.9855137583
 20
108.5235550007
 10
159.0124827573
 20
108.4943825769
  0
LWPOLYLINE
  5
55C
100
AcDbEntity
  8
0
100
AcDbPolyline
 62
7
  6
CONTINUOUS
 90
3
 70
0
 10
159.0124827573
 20
108.4943825769
 10
159.0244231746
 20
108.4811464769
 10
159.0441129015
 20
108.4583766824
  0
LWPOLYLINE
  5
55D
100
AcDbEntity
  8
0
100
AcDbPolyline
 62
7
  6
CONTINUOUS
 90
4
 70
0
 10
159.0441129015
 20
108.4583766824
 10
159.0513659996
 20
108.4499013243
 10
159.0562887414
 20
108.4431898669
 10
159.0584613549
 20
108.4382430038
  0
LINE
  5
55E
100
AcDbEntity
  8
0
100
AcDbLine
 62
253
  6
CONTINUOUS
 10
156.5376484493
 20
128.987731567
 11
156.5376484493
 21
127.4713714042
  0
LINE
  5
55F
100
AcDbEntity
  8
0
100
AcDbLine
 62
253
  6
CONTINUOUS
 10
156.5376484493
 20
86.2334103006
 11
156.5376484493
 21
84.7170501378
  0
LINE
  5
560
100
AcDbEntity
  8
0
100
AcDbLine
 62
253
  6
CONTINUOUS
 10
156.71085353
 20
128.9929723449
 11
156.71085353
 21
127.4766121821
  0
LINE
  5
561
100
AcDbEntity
  8
0
100
AcDbLine
 62
253
  6
CONTINUOUS
 10
156.71085353
 20
86.2281695227
 11
156.71085353
 21
84.7118093598
  0
LWPOLYLINE
  5
562
100
AcDbEntity
  8
0
100
AcDbPolyline
 62
7
  6
CONTINUOUS
 90
5
 70
0
 10
159.0352266119
 20
105.2356845784
 10
159.0441129015
 20
105.2464050193
 10
159.0508018613
 20
105.2554451887
 10
159.055578391
 20
105.2623029872
 10
159.0584613548
 20
105.2665387004
  0
LWPOLYLINE
  5
563
100
AcDbEntity
  8
0
100
AcDbPolyline
 62
7
  6
CONTINUOUS
 90
7
 70
0
 10
135.0746663204
 20
125.3811659536
 10
135.0651146852
 20
125.3786090625
 10
135.0556838215
 20
125.374974799
 10
135.0463737294
 20
125.3702631617
 10
135.0372360807
 20
125.3642278307
 10
135.0282192034
 20
125.3571151216
 10
135.0100604454
 20
125.3421447991
  0
LWPOLYLINE
  5
564
100
AcDbEntity
  8
0
100
AcDbPolyline
 62
7
  6
CONTINUOUS
 90
10
 70
0
 10
135.6452770715
 20
124.7744172014
 10
135.6139927856
 20
124.7692115088
 10
135.5828195263
 20
124.7650244904
 10
135.5517572937
 20
124.7618561476
 10
135.5208214278
 20
124.7597000958
 10
135.4899965885
 20
124.7585627214
 10
135.4592367554
 20
124.7584631826
 10
135.4285265884
 20
124.7594078652
 10
135.3978814275
 20
124.7613903831
 10
135.3673012729
 20
124.7644107355
  0
LINE
  5
565
100
AcDbEntity
  8
0
100
AcDbLine
 62
7
  6
CONTINUOUS
 10
158.0964941761
 20
127.6023908524
 11
156.71085353
 21
127.4766121821
  0
LINE
  5
566
100
AcDbEntity
  8
0
100
AcDbLine
 62
7
  6
CONTINUOUS
 10
139.4597925031
 20
124.4847268524
 11
139.8146205031
 21
124.4847268524
  0
LINE
  5
567
100
AcDbEntity
  8
0
100
AcDbLine
 62
7
  6
CONTINUOUS
 10
136.6126665031
 20
124.4848288524
 11
136.9559205031
 21
124.4848288524
  0
LINE
  5
568
100
AcDbEntity
  8
0
100
AcDbLine
 62
7
  6
CONTINUOUS
 10
137.7037795031
 20
124.4848288524
 11
138.0548465031
 21
124.4848288524
  0
LINE
  5
569
100
AcDbEntity
  8
0
100
AcDbLine
 62
7
  6
CONTINUOUS
 10
138.7607555031
 20
124.4848288524
 11
139.1152905031
 21
124.4848288524
  0
LINE
  5
56A
100
AcDbEntity
  8
0
100
AcDbLine
 62
7
  6
CONTINUOUS
 10
139.9462985031
 20
124.4848288524
 11
140.3008845031
 21
124.4848288524
  0
LINE
  5
56B
100
AcDbEntity
  8
0
100
AcDbLine
 62
7
  6
CONTINUOUS
 10
140.9588315031
 20
124.4848288524
 11
141.3442845031
 21
124.4848288524
  0
LINE
  5
56C
100
AcDbEntity
  8
0
100
AcDbLine
 62
7
  6
CONTINUOUS
 10
135.4424963587
 20
125.2410626839
 11
135.6452770715
 21
125.2410626839
  0
LINE
  5
56D
100
AcDbEntity
  8
0
100
AcDbLine
 62
7
  6
CONTINUOUS
 10
135.6335115071
 20
125.5194591365
 11
135.4432611841
 21
125.5194591365
  0
LINE
  5
56E
100
AcDbEntity
  8
0
100
AcDbLine
 62
7
  6
CONTINUOUS
 10
136.6279125031
 20
125.5827488524
 11
136.9676345031
 21
125.5827488524
  0
LINE
  5
56F
100
AcDbEntity
  8
0
100
AcDbLine
 62
7
  6
CONTINUOUS
 10
137.0402165031
 20
125.8453388524
 11
136.5569995031
 21
125.8453388524
  0
LWPOLYLINE
  5
570
100
AcDbEntity
  8
0
100
AcDbPolyline
 62
7
  6
CONTINUOUS
 90
13
 70
0
 10
135.4432611841
 20
125.5194591365
 10
135.4211487328
 20
125.5207293572
 10
135.3999179557
 20
125.5243641072
 10
135.3795688526
 20
125.5303633834
 10
135.3600180003
 20
125.5389613673
 10
135.341348822
 20
125.5499238649
 10
135.3238115881
 20
125.5625483097
 10
135.3073971368
 20
125.576701021
 10
135.2921146299
 20
125.5925156641
 10
135.2782418225
 20
125.6096906942
 10
135.2658712998
 20
125.6281255912
 10
135.2549104766
 20
125.6479208583
 10
135.2453593529
 20
125.6690764859
  0
LINE
  5
571
100
AcDbEntity
  8
0
100
AcDbLine
 62
7
  6
CONTINUOUS
 10
117.9097428301
 20
127.6023908524
 11
119.2953834762
 21
127.4766121821
  0
LWPOLYLINE
  5
572
100
AcDbEntity
  8
0
100
AcDbPolyline
 62
7
  6
CONTINUOUS
 90
25
 70
0
 10
135.3673012729
 20
124.7644107355
 10
135.3534993835
 20
124.7664295069
 10
135.3399643177
 20
124.7691542909
 10
135.3266960753
 20
124.7725850868
 10
135.3136571711
 20
124.7767319275
 10
135.3008850903
 20
124.7815847782
 10
135.2884922891
 20
124.7871135372
 10
135.2764624326
 20
124.7933203488
 10
135.2648118556
 20
124.8002030659
 10
135.2537020193
 20
124.8077251496
 10
135.2431420052
 20
124.8159021867
 10
135.2331227318
 20
124.824718587
 10
135.2237784151
 20
124.834091046
 10
135.2151469163
 20
124.8440416511
 10
135.2071903742
 20
124.8545483112
 10
135.1999294214
 20
124.8654614553
 10
135.1933655268
 20
124.8767737504
 10
135.1874972215
 20
124.8884925266
 10
135.1823407318
 20
124.9004902081
 10
135.177883708
 20
124.9127573632
 10
135.1741384998
 20
124.9253034214
 10
135.1711583817
 20
124.9380291001
 10
135.1689611121
 20
124.9509013047
 10
135.1675289327
 20
124.9639531283
 10
135.1668618435
 20
124.97718457
  0
LWPOLYLINE
  5
573
100
AcDbEntity
  8
0
100
AcDbPolyline
 62
253
  6
CONTINUOUS
 90
3
 70
0
 10
158.8821824571
 20
127.2274850208
 10
158.8827050509
 20
127.2036837767
 10
158.8778347675
 20
120.0523908524
  0
LINE
  5
574
100
AcDbEntity
  8
0
100
AcDbLine
 62
253
  6
CONTINUOUS
 10
159.0698880975
 20
86.5347087151
 11
159.0632410051
 21
93.6523908524
  0
LINE
  5
575
100
AcDbEntity
  8
0
100
AcDbLine
 62
253
  6
CONTINUOUS
 10
158.8825832745
 20
86.5260985297
 11
158.8778347676
 21
93.6523908524
  0
LINE
  5
576
100
AcDbEntity
  8
0
100
AcDbLine
 62
253
  6
CONTINUOUS
 10
159.0606453362
 20
97.8523908524
 11
159.0584613548
 21
105.2665387004
  0
LINE
  5
577
100
AcDbEntity
  8
0
100
AcDbLine
 62
7
  6
CONTINUOUS
 10
157.5031185031
 20
106.6166106944
 11
157.5031185031
 21
105.2808250862
  0
LINE
  5
578
100
AcDbEntity
  8
0
100
AcDbLine
 62
7
  6
CONTINUOUS
 10
157.5031185031
 20
107.0881710103
 11
157.5031185031
 21
108.4239566186
  0
LINE
  5
579
100
AcDbEntity
  8
0
100
AcDbLine
 62
7
  6
CONTINUOUS
 10
157.6605980975
 20
106.6323190565
 11
157.6605980975
 21
105.3122442031
  0
LINE
  5
57A
100
AcDbEntity
  8
0
100
AcDbLine
 62
7
  6
CONTINUOUS
 10
157.6605980975
 20
107.0724626483
 11
157.6605980975
 21
108.3925375017
  0
LINE
  5
57B
100
AcDbEntity
  8
0
100
AcDbLine
 62
7
  6
CONTINUOUS
 10
158.0964941761
 20
129.1187510152
 11
158.0964941761
 21
127.6023908524
  0
LINE
  5
57C
100
AcDbEntity
  8
0
100
AcDbLine
 62
7
  6
CONTINUOUS
 10
158.0964941761
 20
84.5860306896
 11
158.0964941761
 21
86.1023908524
  0
LINE
  5
57D
100
AcDbEntity
  8
0
100
AcDbLine
 62
7
  6
CONTINUOUS
 10
158.6031185031
 20
97.8319140411
 11
158.6031185031
 21
93.6728676637
  0
LINE
  5
57E
100
AcDbEntity
  8
0
100
AcDbLine
 62
7
  6
CONTINUOUS
 10
158.6031185031
 20
115.8728676637
 11
158.6031185031
 21
120.0319140411
  0
LINE
  5
57F
100
AcDbEntity
  8
0
100
AcDbLine
 62
253
  6
CONTINUOUS
 10
158.8759836891
 20
97.8523908524
 11
158.8744398
 21
105.0667164446
  0
LINE
  5
580
100
AcDbEntity
  8
0
100
AcDbLine
 62
7
  6
CONTINUOUS
 10
159.1257397118
 20
105.3122442031
 11
159.1257397118
 21
102.6523908524
  0
LINE
  5
581
100
AcDbEntity
  8
0
100
AcDbLine
 62
7
  6
CONTINUOUS
 10
159.1257397118
 20
108.3925375017
 11
159.1257397118
 21
111.0523908524
  0
LINE
  5
582
100
AcDbEntity
  8
0
100
AcDbLine
 62
7
  6
CONTINUOUS
 10
159.1859673314
 20
102.6523908524
 11
159.1859673314
 21
97.8523908524
  0
LINE
  5
583
100
AcDbEntity
  8
0
100
AcDbLine
 62
7
  6
CONTINUOUS
 10
159.1859673314
 20
93.6523908524
 11
159.1859673314
 21
86.3023909464
  0
LINE
  5
584
100
AcDbEntity
  8
0
100
AcDbLine
 62
7
  6
CONTINUOUS
 10
159.1859673314
 20
111.0523908524
 11
159.1859673314
 21
115.8523908524
  0
LINE
  5
585
100
AcDbEntity
  8
0
100
AcDbLine
 62
7
  6
CONTINUOUS
 10
159.1859673314
 20
120.0523908524
 11
159.1859673314
 21
127.4023907583
  0
LINE
  5
586
100
AcDbEntity
  8
0
100
AcDbLine
 62
7
  6
CONTINUOUS
 10
159.2031185031
 20
120.0523908524
 11
159.2031185031
 21
120.0406095809
  0
LINE
  5
587
100
AcDbEntity
  8
0
100
AcDbLine
 62
7
  6
CONTINUOUS
 10
159.2031185031
 20
93.6641721239
 11
159.2031185031
 21
93.6523908524
  0
LINE
  5
588
100
AcDbEntity
  8
0
100
AcDbLine
 62
7
  6
CONTINUOUS
 10
159.2031185031
 20
97.8406095809
 11
159.2031185031
 21
97.8523908524
  0
LINE
  5
589
100
AcDbEntity
  8
0
100
AcDbLine
 62
7
  6
CONTINUOUS
 10
159.2031185031
 20
115.8523908524
 11
159.2031185031
 21
115.8641721239
  0
LINE
  5
58A
100
AcDbEntity
  8
0
100
AcDbLine
 62
7
  6
CONTINUOUS
 10
159.2567083416
 20
97.826210249
 11
159.2567083416
 21
93.6785714558
  0
LINE
  5
58B
100
AcDbEntity
  8
0
100
AcDbLine
 62
7
  6
CONTINUOUS
 10
159.2567083416
 20
115.8785714558
 11
159.2567083416
 21
120.026210249
  0
LINE
  5
58C
100
AcDbEntity
  8
0
100
AcDbLine
 62
253
  6
CONTINUOUS
 10
158.8744398
 20
108.6380652602
 11
158.8759836882
 21
115.8523908524
  0
LINE
  5
58D
100
AcDbEntity
  8
0
100
AcDbLine
 62
253
  6
CONTINUOUS
 10
159.0584613549
 20
108.4382430038
 11
159.0606453362
 21
115.8523908524
  0
LINE
  5
58E
100
AcDbEntity
  8
0
100
AcDbLine
 62
253
  6
CONTINUOUS
 10
159.0632410051
 20
120.0523908524
 11
159.0698837613
 21
127.1700643113
  0
LWPOLYLINE
  5
58F
100
AcDbEntity
  8
0
100
AcDbPolyline
 62
253
  6
CONTINUOUS
 90
13
 70
0
 10
158.8825834766
 20
86.5260965182
 10
158.8823397807
 20
86.5016552618
 10
158.8819091199
 20
86.4777130861
 10
158.8812980172
 20
86.4546314936
 10
158.8805157226
 20
86.4327589932
 10
158.8795740534
 20
86.4124258378
 10
158.8784872135
 20
86.3939390376
 10
158.8772716007
 20
86.3775777248
 10
158.875945582
 20
86.3635889388
 10
158.8745291931
 20
86.3521838961
 10
158.8730438149
 20
86.3435348015
 10
158.8715118519
 20
86.3377722477
 10
158.869956415
 20
86.3349832434
  0
LINE
  5
590
100
AcDbEntity
  8
0
100
AcDbLine
 62
7
  6
CONTINUOUS
 10
145.4531185031
 20
127.5499830731
 11
146.0304687723
 21
127.6023908524
  0
LINE
  5
591
100
AcDbEntity
  8
0
100
AcDbLine
 62
7
  6
CONTINUOUS
 10
158.0964941761
 20
129.1187510152
 11
156.71085353
 21
128.9929723449
  0
LINE
  5
592
100
AcDbEntity
  8
0
100
AcDbLine
 62
7
  6
CONTINUOUS
 10
134.1531185031
 20
127.5499830731
 11
134.7304687723
 21
127.6023908524
  0
LWPOLYLINE
  5
593
100
AcDbEntity
  8
0
100
AcDbPolyline
 62
253
  6
CONTINUOUS
 90
4
 70
0
 10
117.0522628735
 20
127.1778217704
 10
117.07483903
 20
127.1785129458
 10
117.0986158671
 20
127.1788938984
 10
117.1236535296
 20
127.1786851866
  0
LINE
  5
594
100
AcDbEntity
  8
0
100
AcDbLine
 62
253
  6
CONTINUOUS
 10
158.86995462
 20
127.3697948689
 11
155.7485141884
 21
127.3611044256
  0
LINE
  5
595
100
AcDbEntity
  8
0
100
AcDbLine
 62
253
  6
CONTINUOUS
 10
158.8825800312
 20
127.1786838632
 11
155.7570433569
 21
127.1708463399
  0
LINE
  5
596
100
AcDbEntity
  8
0
100
AcDbLine
 62
253
  6
CONTINUOUS
 10
155.7485141884
 20
127.3611044256
 11
152.6293397404
 21
127.3557840759
  0
LINE
  5
597
100
AcDbEntity
  8
0
100
AcDbLine
 62
253
  6
CONTINUOUS
 10
155.7570433569
 20
127.1708463399
 11
152.633775437
 21
127.1660497169
  0
LINE
  5
598
100
AcDbEntity
  8
0
100
AcDbLine
 62
253
  6
CONTINUOUS
 10
152.6293397404
 20
127.3557840759
 11
149.2530525971
 21
127.3538144248
  0
LINE
  5
599
100
AcDbEntity
  8
0
100
AcDbLine
 62
7
  6
CONTINUOUS
 10
140.8053945031
 20
126.1846918524
 11
140.4927025031
 21
126.1846918524
  0
LINE
  5
59A
100
AcDbEntity
  8
0
100
AcDbLine
 62
7
  6
CONTINUOUS
 10
139.8146205031
 20
126.1846918524
 11
139.4597925031
 21
126.1846918524
  0
LINE
  5
59B
100
AcDbEntity
  8
0
100
AcDbLine
 62
7
  6
CONTINUOUS
 10
139.2687775031
 20
126.1846918524
 11
138.9293225031
 21
126.1846918524
  0
LINE
  5
59C
100
AcDbEntity
  8
0
100
AcDbLine
 62
7
  6
CONTINUOUS
 10
138.4364945031
 20
126.1846918524
 11
138.3867305031
 21
126.1846918524
  0
LINE
  5
59D
100
AcDbEntity
  8
0
100
AcDbLine
 62
7
  6
CONTINUOUS
 10
137.8919385031
 20
126.1846918524
 11
137.5448225031
 21
126.1846918524
  0
LINE
  5
59E
100
AcDbEntity
  8
0
100
AcDbLine
 62
7
  6
CONTINUOUS
 10
137.4891055031
 20
126.1846918524
 11
137.1381275031
 21
126.1846918524
  0
LINE
  5
59F
100
AcDbEntity
  8
0
100
AcDbLine
 62
7
  6
CONTINUOUS
 10
136.4650805031
 20
126.1846918524
 11
136.0911065031
 21
126.1846918524
  0
LINE
  5
5A0
100
AcDbEntity
  8
0
100
AcDbLine
 62
7
  6
CONTINUOUS
 10
135.9869118392
 20
126.1846915391
 11
135.6335115071
 21
126.1846915391
  0
LINE
  5
5A1
100
AcDbEntity
  8
0
100
AcDbLine
 62
7
  6
CONTINUOUS
 10
135.090141288
 20
126.1846915391
 11
134.7488379447
 21
126.1846915391
  0
LINE
  5
5A2
100
AcDbEntity
  8
0
100
AcDbLine
 62
253
  6
CONTINUOUS
 10
152.633775437
 20
127.1660497169
 11
149.2530512481
 21
127.1642742724
  0
LINE
  5
5A3
100
AcDbEntity
  8
0
100
AcDbLine
 62
7
  6
CONTINUOUS
 10
122.8376484493
 20
127.4713714042
 11
119.468588557
 21
127.4713714042
  0
LINE
  5
5A4
100
AcDbEntity
  8
0
100
AcDbLine
 62
7
  6
CONTINUOUS
 10
153.168588557
 20
127.4713714042
 11
156.5376484493
 21
127.4713714042
  0
LINE
  5
5A5
100
AcDbEntity
  8
0
100
AcDbLine
 62
7
  6
CONTINUOUS
 10
134.1531185031
 20
127.5499830731
 11
130.5531185031
 21
127.5499830731
  0
LINE
  5
5A6
100
AcDbEntity
  8
0
100
AcDbLine
 62
7
  6
CONTINUOUS
 10
141.8531185031
 20
127.5499830731
 11
145.4531185031
 21
127.5499830731
  0
LINE
  5
5A7
100
AcDbEntity
  8
0
100
AcDbLine
 62
7
  6
CONTINUOUS
 10
158.9861728659
 20
127.6023908524
 11
158.0964941761
 21
127.6023908524
  0
LINE
  5
5A8
100
AcDbEntity
  8
0
100
AcDbLine
 62
7
  6
CONTINUOUS
 10
151.6097428301
 20
127.6023908524
 11
146.0304687723
 21
127.6023908524
  0
LINE
  5
5A9
100
AcDbEntity
  8
0
100
AcDbLine
 62
7
  6
CONTINUOUS
 10
141.2757682339
 20
127.6023908524
 11
134.7304687723
 21
127.6023908524
  0
LINE
  5
5AA
100
AcDbEntity
  8
0
100
AcDbLine
 62
7
  6
CONTINUOUS
 10
129.9757682339
 20
127.6023908524
 11
124.3964941761
 21
127.6023908524
  0
LINE
  5
5AB
100
AcDbEntity
  8
0
100
AcDbLine
 62
7
  6
CONTINUOUS
 10
117.9097428301
 20
127.6023908524
 11
117.0200641403
 21
127.6023908524
  0
LINE
  5
5AC
100
AcDbEntity
  8
0
100
AcDbLine
 62
253
  6
CONTINUOUS
 10
149.2530525971
 20
127.3538144248
 11
124.0491698337
 21
127.3550755345
  0
LINE
  5
5AD
100
AcDbEntity
  8
0
100
AcDbLine
 62
253
  6
CONTINUOUS
 10
149.2530512481
 20
127.164274835
 11
123.5199523247
 21
127.1658981738
  0
LINE
  5
5AE
100
AcDbEntity
  8
0
100
AcDbLine
 62
253
  6
CONTINUOUS
 10
123.5199523247
 20
127.1658981738
 11
120.3469213586
 21
127.1706502822
  0
LINE
  5
5AF
100
AcDbEntity
  8
0
100
AcDbLine
 62
253
  6
CONTINUOUS
 10
124.0491698337
 20
127.3550755345
 11
120.8836381425
 21
127.3597672376
  0
LINE
  5
5B0
100
AcDbEntity
  8
0
100
AcDbLine
 62
253
  6
CONTINUOUS
 10
120.3469213586
 20
127.1706502822
 11
117.1236537318
 21
127.1786831751
  0
LWPOLYLINE
  5
5B1
100
AcDbEntity
  8
0
100
AcDbPolyline
 62
253
  6
CONTINUOUS
 90
3
 70
0
 10
120.8836381425
 20
127.3597672376
 10
117.6878085119
 20
127.3680194437
 10
117.1362833398
 20
127.3697929605
  0
LWPOLYLINE
  5
5B2
100
AcDbEntity
  8
0
100
AcDbPolyline
 62
253
  6
CONTINUOUS
 90
13
 70
0
 10
158.8825834766
 20
127.1786851866
 10
158.9070666072
 20
127.1785244907
 10
158.9309848519
 20
127.1782351465
 10
158.9539741304
 20
127.1778215691
 10
158.9756845032
 20
127.1772900661
 10
158.995785498
 20
127.1766487308
 10
159.0139711404
 20
127.1759073179
 10
159.0299646109
 20
127.1750771067
 10
159.0435224591
 20
127.1741707409
 10
159.0544383092
 20
127.1732020248
 10
159.0625460016
 20
127.1721857011
 10
159.067722122
 20
127.171137228
 10
159.06988788
 20
127.1700725544
  0
LINE
  5
5B3
100
AcDbEntity
  8
0
100
AcDbLine
 62
7
  6
CONTINUOUS
 10
130.5531185031
 20
127.5499830731
 11
129.9757682339
 21
127.6023908524
  0
LINE
  5
5B4
100
AcDbEntity
  8
0
100
AcDbLine
 62
7
  6
CONTINUOUS
 10
117.9097428301
 20
129.1187510152
 11
119.2953834762
 21
128.9929723449
  0
LINE
  5
5B5
100
AcDbEntity
  8
0
100
AcDbLine
 62
7
  6
CONTINUOUS
 10
141.8531185031
 20
127.5499830731
 11
141.2757682339
 21
127.6023908524
  0
LWPOLYLINE
  5
5B6
100
AcDbEntity
  8
0
100
AcDbPolyline
 62
7
  6
CONTINUOUS
 90
10
 70
0
 10
159.0584613549
 20
108.4382430038
 10
159.0585153042
 20
108.4380268496
 10
159.0585692983
 20
108.4378318458
 10
159.0586233371
 20
108.4376579922
 10
159.0586774265
 20
108.4375052743
 10
159.0587315606
 20
108.4373737066
 10
159.058785722
 20
108.4372633332
 10
159.0588399049
 20
108.4371741686
 10
159.058894115
 20
108.4371061982
 10
159.0589483524
 20
108.4370594221
  0
LINE
  5
5B7
100
AcDbEntity
  8
0
100
AcDbLine
 62
253
  6
CONTINUOUS
 10
158.8784872031
 20
127.3108426671
 11
158.8797580439
 21
127.2922382059
  0
LWPOLYLINE
  5
5B8
100
AcDbEntity
  8
0
100
AcDbPolyline
 62
253
  6
CONTINUOUS
 90
13
 70
0
 10
159.06988788
 20
127.1700725544
 10
159.0682012918
 20
127.1956904822
 10
159.0632056151
 20
127.2210136181
 10
159.054933966
 20
127.2456094402
 10
159.0434552205
 20
127.2690849169
 10
159.0289302599
 20
127.2909736993
 10
159.0116593732
 20
127.3107758024
 10
158.9919744949
 20
127.3281226694
 10
158.9701880594
 20
127.3427495036
 10
158.9466772621
 20
127.3544030665
 10
158.9218478858
 20
127.3628829828
 10
158.896126687
 20
127.3680442219
 10
158.869956415
 20
127.3697984614
  0
LINE
  5
5B9
100
AcDbEntity
  8
0
100
AcDbLine
 62
253
  6
CONTINUOUS
 10
158.8797580439
 20
127.2922382059
 11
158.8821824571
 21
127.2274850208
  0
LINE
  5
5BA
100
AcDbEntity
  8
0
100
AcDbLine
 62
253
  6
CONTINUOUS
 10
159.5597423252
 20
93.6785714558
 11
159.5597423252
 21
97.826210249
  0
LINE
  5
5BB
100
AcDbEntity
  8
0
100
AcDbLine
 62
253
  6
CONTINUOUS
 10
159.5597423252
 20
115.8785714558
 11
159.5597423252
 21
120.026210249
  0
LINE
  5
5BC
100
AcDbEntity
  8
0
100
AcDbLine
 62
253
  6
CONTINUOUS
 10
160.1589200461
 20
93.6736093725
 11
160.1589200461
 21
97.8311723323
  0
LINE
  5
5BD
100
AcDbEntity
  8
0
100
AcDbLine
 62
253
  6
CONTINUOUS
 10
160.1589200461
 20
115.8736093725
 11
160.1589200461
 21
120.0311723323
  0
LINE
  5
5BE
100
AcDbEntity
  8
0
100
AcDbLine
 62
7
  6
CONTINUOUS
 10
160.2261167835
 20
106.1324142387
 11
160.2261167835
 21
102.6523908524
  0
LINE
  5
5BF
100
AcDbEntity
  8
0
100
AcDbLine
 62
7
  6
CONTINUOUS
 10
160.2261167835
 20
107.5723674661
 11
160.2261167835
 21
111.0523908524
  0
LINE
  5
5C0
100
AcDbEntity
  8
0
100
AcDbLine
 62
7
  6
CONTINUOUS
 10
160.2863444031
 20
85.0860309247
 11
160.2863444031
 21
102.6523908524
  0
LINE
  5
5C1
100
AcDbEntity
  8
0
100
AcDbLine
 62
7
  6
CONTINUOUS
 10
160.2863444031
 20
111.0523908524
 11
160.2863444031
 21
128.6187507801
  0
LINE
  5
5C2
100
AcDbEntity
  8
0
100
AcDbLine
 62
7
  6
CONTINUOUS
 10
145.4531185031
 20
129.0663432359
 11
146.0304687723
 21
129.1187510152
  0
LINE
  5
5C3
100
AcDbEntity
  8
0
100
AcDbLine
 62
7
  6
CONTINUOUS
 10
124.3964941761
 20
127.6023908524
 11
123.01085353
 21
127.4766121821
  0
LINE
  5
5C4
100
AcDbEntity
  8
0
100
AcDbLine
 62
7
  6
CONTINUOUS
 10
134.1531185031
 20
129.0663432359
 11
134.7304687723
 21
129.1187510152
  0
LINE
  5
5C5
100
AcDbEntity
  8
0
100
AcDbLine
 62
7
  6
CONTINUOUS
 10
124.3964941761
 20
129.1187510152
 11
123.01085353
 21
128.9929723449
  0
LWPOLYLINE
  5
5C6
100
AcDbEntity
  8
0
100
AcDbPolyline
 62
253
  6
CONTINUOUS
 90
13
 70
0
 10
117.1362805912
 20
127.3697984614
 10
117.1106368694
 20
127.3681136819
 10
117.0852881201
 20
127.3631233372
 10
117.060667294
 20
127.3548604673
 10
117.0371677942
 20
127.3433938181
 10
117.0152564855
 20
127.3288840709
 10
116.9954339506
 20
127.311631231
 10
116.978069211
 20
127.2919669945
 10
116.9634272172
 20
127.270203373
 10
116.9517613376
 20
127.2467168493
 10
116.9432722494
 20
127.221912623
 10
116.9381053272
 20
127.196217088
 10
116.9363491262
 20
127.1700725544
  0
LINE
  5
5C7
100
AcDbEntity
  8
0
100
AcDbLine
 62
7
  6
CONTINUOUS
 10
122.8376484493
 20
128.987731567
 11
119.468588557
 21
128.987731567
  0
LINE
  5
5C8
100
AcDbEntity
  8
0
100
AcDbLine
 62
7
  6
CONTINUOUS
 10
153.168588557
 20
128.987731567
 11
156.5376484493
 21
128.987731567
  0
LINE
  5
5C9
100
AcDbEntity
  8
0
100
AcDbLine
 62
7
  6
CONTINUOUS
 10
134.1531185031
 20
129.0663432359
 11
130.5531185031
 21
129.0663432359
  0
LINE
  5
5CA
100
AcDbEntity
  8
0
100
AcDbLine
 62
7
  6
CONTINUOUS
 10
141.8531185031
 20
129.0663432359
 11
145.4531185031
 21
129.0663432359
  0
LINE
  5
5CB
100
AcDbEntity
  8
0
100
AcDbLine
 62
7
  6
CONTINUOUS
 10
116.2193787667
 20
129.1187510152
 11
117.9097428301
 21
129.1187510152
  0
LINE
  5
5CC
100
AcDbEntity
  8
0
100
AcDbLine
 62
7
  6
CONTINUOUS
 10
124.3964941761
 20
129.1187510152
 11
129.9757682339
 21
129.1187510152
  0
LINE
  5
5CD
100
AcDbEntity
  8
0
100
AcDbLine
 62
7
  6
CONTINUOUS
 10
134.7304687723
 20
129.1187510152
 11
141.2757682339
 21
129.1187510152
  0
LINE
  5
5CE
100
AcDbEntity
  8
0
100
AcDbLine
 62
7
  6
CONTINUOUS
 10
146.0304687723
 20
129.1187510152
 11
151.6097428301
 21
129.1187510152
  0
LINE
  5
5CF
100
AcDbEntity
  8
0
100
AcDbLine
 62
7
  6
CONTINUOUS
 10
158.0964941761
 20
129.1187510152
 11
159.7868582395
 21
129.1187510152
  0
LINE
  5
5D0
100
AcDbEntity
  8
0
100
AcDbLine
 62
7
  6
CONTINUOUS
 10
130.5531185031
 20
129.0663432359
 11
129.9757682339
 21
129.1187510152
  0
LINE
  5
5D1
100
AcDbEntity
  8
0
100
AcDbLine
 62
7
  6
CONTINUOUS
 10
151.6097428301
 20
127.6023908524
 11
152.9953834762
 21
127.4766121821
  0
LINE
  5
5D2
100
AcDbEntity
  8
0
100
AcDbLine
 62
7
  6
CONTINUOUS
 10
141.8531185031
 20
129.0663432359
 11
141.2757682339
 21
129.1187510152
  0
LINE
  5
5D3
100
AcDbEntity
  8
0
100
AcDbLine
 62
7
  6
CONTINUOUS
 10
151.6097428301
 20
129.1187510152
 11
152.9953834762
 21
128.9929723449
  0
LWPOLYLINE
  5
5D4
100
AcDbEntity
  8
0
100
AcDbPolyline
 62
253
  6
CONTINUOUS
 90
9
 70
0
 10
116.9363491262
 20
127.1700725544
 10
116.9384953445
 20
127.1706110739
 10
116.9436616244
 20
127.171763533
 10
116.9517986957
 20
127.173202226
 10
116.9627511724
 20
127.1742625513
 10
116.9763012958
 20
127.17495306
 10
116.9922658631
 20
127.1759075895
 10
117.0105676939
 20
127.1768316745
 10
117.0522628735
 20
127.1778217704
  0
LWPOLYLINE
  5
5D5
100
AcDbEntity
  8
0
100
AcDbPolyline
 62
253
  6
CONTINUOUS
 90
6
 70
0
 10
158.869956415
 20
127.3697984614
 10
158.8709861109
 20
127.3670311755
 10
158.8726219223
 20
127.3612777877
 10
158.8745291855
 20
127.3525978086
 10
158.8760376435
 20
127.3411550097
 10
158.8784872031
 20
127.3108426671
  0
ELLIPSE
  5
5D6
100
AcDbEntity
  8
0
100
AcDbEllipse
 62
7
  6
CONTINUOUS
 10
116.2200639994
 20
128.6180648422
 30
0.0
 11
0.2238673116
 21
-0.4480418466
 31
0.0
 40
0.9982882662
 41
2.6789040089
 42
4.2483303396
  0
ELLIPSE
  5
5D7
100
AcDbEntity
  8
0
100
AcDbEllipse
 62
7
  6
CONTINUOUS
 10
159.7861730069
 20
128.6180648422
 30
0.0
 11
0.2238673116
 21
0.4480418466
 31
0.0
 40
0.9982882662
 41
-1.1067376861
 42
0.4626886447
  0
ELLIPSE
  5
5D8
100
AcDbEntity
  8
0
100
AcDbEllipse
 62
7
  6
CONTINUOUS
 10
116.280291619
 20
107.5724816875
 30
0.0
 11
0.4745319423
 21
0.1581451893
 31
0.0
 40
0.9996192872
 41
2.8200172282
 42
4.3905851209
  0
ELLIPSE
  5
5D9
100
AcDbEntity
  8
0
100
AcDbEllipse
 62
7
  6
CONTINUOUS
 10
159.7259453873
 20
107.5724816875
 30
0.0
 11
0.4745319423
 21
-0.1581451893
 31
0.0
 40
0.9996192872
 41
-1.2489924673
 42
0.3215754254
  0
ELLIPSE
  5
5DA
100
AcDbEntity
  8
0
100
AcDbEllipse
 62
7
  6
CONTINUOUS
 10
156.5376484493
 20
128.9982131229
 30
0.0
 11
0.2
 21
0.0
 31
0.0
 40
0.0524077793
 41
-1.5707963268
 42
-0.5235987756
  0
ELLIPSE
  5
5DB
100
AcDbEntity
  8
0
100
AcDbEllipse
 62
7
  6
CONTINUOUS
 10
153.168588557
 20
128.9982131229
 30
0.0
 11
0.2
 21
0.0
 31
0.0
 40
0.0524077793
 41
-2.617993878
 42
-1.5707963268
  0
ELLIPSE
  5
5DC
100
AcDbEntity
  8
0
100
AcDbEllipse
 62
7
  6
CONTINUOUS
 10
119.468588557
 20
128.9982131229
 30
0.0
 11
0.2
 21
0.0
 31
0.0
 40
0.0524077793
 41
-2.617993878
 42
-1.5707963268
  0
ELLIPSE
  5
5DD
100
AcDbEntity
  8
0
100
AcDbEllipse
 62
7
  6
CONTINUOUS
 10
122.8376484493
 20
128.9982131229
 30
0.0
 11
0.2
 21
0.0
 31
0.0
 40
0.0524077793
 41
-1.5707963268
 42
-0.5235987756
  0
ELLIPSE
  5
5DE
100
AcDbEntity
  8
0
100
AcDbEllipse
 62
7
  6
CONTINUOUS
 10
159.5597423252
 20
120.0314463697
 30
0.0
 11
0.6
 21
-0.0
 31
0.0
 40
0.0087268678
 41
-1.5707963268
 42
-0.0523598776
  0
ELLIPSE
  5
5DF
100
AcDbEntity
  8
0
100
AcDbEllipse
 62
7
  6
CONTINUOUS
 10
156.5376484493
 20
127.48185296
 30
0.0
 11
0.2
 21
-0.0
 31
0.0
 40
0.0524077793
 41
-1.5707963268
 42
-0.5235987756
  0
ELLIPSE
  5
5E0
100
AcDbEntity
  8
0
100
AcDbEllipse
 62
7
  6
CONTINUOUS
 10
153.168588557
 20
127.48185296
 30
0.0
 11
0.2
 21
-0.0
 31
0.0
 40
0.0524077793
 41
-2.617993878
 42
-1.5707963268
  0
ELLIPSE
  5
5E1
100
AcDbEntity
  8
0
100
AcDbEllipse
 62
7
  6
CONTINUOUS
 10
119.468588557
 20
127.48185296
 30
0.0
 11
0.2
 21
-0.0
 31
0.0
 40
0.0524077793
 41
-2.617993878
 42
-1.5707963268
  0
ELLIPSE
  5
5E2
100
AcDbEntity
  8
0
100
AcDbEllipse
 62
7
  6
CONTINUOUS
 10
122.8376484493
 20
127.48185296
 30
0.0
 11
0.2
 21
-0.0
 31
0.0
 40
0.0524077793
 41
-1.5707963268
 42
-0.5235987756
  0
ELLIPSE
  5
5E3
100
AcDbEntity
  8
0
100
AcDbEllipse
 62
7
  6
CONTINUOUS
 10
158.9858987729
 20
127.4021163832
 30
0.0
 11
0.0895469246
 21
0.1792167386
 31
0.0
 40
0.9982882662
 41
-1.1067376861
 42
0.4626886447
  0
ELLIPSE
  5
5E4
100
AcDbEntity
  8
0
100
AcDbEllipse
 62
7
  6
CONTINUOUS
 10
117.0203382334
 20
127.4021163832
 30
0.0
 11
-0.0895469246
 21
0.1792167386
 31
0.0
 40
0.9982882662
 41
-0.4626886447
 42
1.1067376861
  0
ELLIPSE
  5
5E5
100
AcDbEntity
  8
0
100
AcDbEllipse
 62
7
  6
CONTINUOUS
 10
116.446494681
 20
115.8733353351
 30
0.0
 11
0.6
 21
-0.0
 31
0.0
 40
0.0087268678
 41
1.5707963268
 42
3.089232776
  0
ELLIPSE
  5
5E6
100
AcDbEntity
  8
0
100
AcDbEllipse
 62
7
  6
CONTINUOUS
 10
159.5597423252
 20
115.8733353351
 30
0.0
 11
0.6
 21
-0.0
 31
0.0
 40
0.0087268678
 41
0.0523598776
 42
1.5707963268
  0
ELLIPSE
  5
5E7
100
AcDbEntity
  8
0
100
AcDbEllipse
 62
7
  6
CONTINUOUS
 10
116.446494681
 20
120.0314463697
 30
0.0
 11
0.6
 21
0.0
 31
0.0
 40
0.0087268678
 41
-3.089232776
 42
-1.5707963268
  0
ELLIPSE
  5
5E8
100
AcDbEntity
  8
0
100
AcDbEllipse
 62
7
  6
CONTINUOUS
 10
159.7861730069
 20
85.0867168626
 30
0.0
 11
-0.2238673116
 21
0.4480418466
 31
0.0
 40
0.9982882662
 41
2.6789040089
 42
4.2483303396
  0
ELLIPSE
  5
5E9
100
AcDbEntity
  8
0
100
AcDbEllipse
 62
7
  6
CONTINUOUS
 10
116.2200639994
 20
85.0867168626
 30
0.0
 11
-0.2238673116
 21
-0.4480418466
 31
0.0
 40
0.9982882662
 41
-1.1067376861
 42
0.4626886447
  0
ELLIPSE
  5
5EA
100
AcDbEntity
  8
0
100
AcDbEllipse
 62
7
  6
CONTINUOUS
 10
159.7259453873
 20
106.1323000173
 30
0.0
 11
-0.4745319423
 21
-0.1581451893
 31
0.0
 40
0.9996192872
 41
2.8200172282
 42
4.3905851209
  0
ELLIPSE
  5
5EB
100
AcDbEntity
  8
0
100
AcDbEllipse
 62
7
  6
CONTINUOUS
 10
116.280291619
 20
106.1323000173
 30
0.0
 11
-0.4745319423
 21
0.1581451893
 31
0.0
 40
0.9996192872
 41
-1.2489924673
 42
0.3215754254
  0
ELLIPSE
  5
5EC
100
AcDbEntity
  8
0
100
AcDbEllipse
 62
7
  6
CONTINUOUS
 10
119.468588557
 20
84.7065685819
 30
0.0
 11
0.2
 21
0.0
 31
0.0
 40
0.0524077793
 41
1.5707963268
 42
2.617993878
  0
ELLIPSE
  5
5ED
100
AcDbEntity
  8
0
100
AcDbEllipse
 62
7
  6
CONTINUOUS
 10
122.8376484493
 20
84.7065685819
 30
0.0
 11
0.2
 21
-0.0
 31
0.0
 40
0.0524077793
 41
0.5235987756
 42
1.5707963268
  0
ELLIPSE
  5
5EE
100
AcDbEntity
  8
0
100
AcDbEllipse
 62
7
  6
CONTINUOUS
 10
156.5376484493
 20
84.7065685819
 30
0.0
 11
0.2
 21
0.0
 31
0.0
 40
0.0524077793
 41
0.5235987756
 42
1.5707963268
  0
ELLIPSE
  5
5EF
100
AcDbEntity
  8
0
100
AcDbEllipse
 62
7
  6
CONTINUOUS
 10
153.168588557
 20
84.7065685819
 30
0.0
 11
0.2
 21
0.0
 31
0.0
 40
0.0524077793
 41
1.5707963268
 42
2.617993878
  0
ELLIPSE
  5
5F0
100
AcDbEntity
  8
0
100
AcDbEllipse
 62
7
  6
CONTINUOUS
 10
116.446494681
 20
93.6733353351
 30
0.0
 11
0.6
 21
0.0
 31
0.0
 40
0.0087268678
 41
1.5707963268
 42
3.089232776
  0
ELLIPSE
  5
5F1
100
AcDbEntity
  8
0
100
AcDbEllipse
 62
7
  6
CONTINUOUS
 10
119.468588557
 20
86.2229287447
 30
0.0
 11
0.2
 21
0.0
 31
0.0
 40
0.0524077793
 41
1.5707963268
 42
2.617993878
  0
ELLIPSE
  5
5F2
100
AcDbEntity
  8
0
100
AcDbEllipse
 62
7
  6
CONTINUOUS
 10
122.8376484493
 20
86.2229287447
 30
0.0
 11
0.2
 21
0.0
 31
0.0
 40
0.0524077793
 41
0.5235987756
 42
1.5707963268
  0
ELLIPSE
  5
5F3
100
AcDbEntity
  8
0
100
AcDbEllipse
 62
7
  6
CONTINUOUS
 10
156.5376484493
 20
86.2229287447
 30
0.0
 11
0.2
 21
-0.0
 31
0.0
 40
0.0524077793
 41
0.5235987756
 42
1.5707963268
  0
ELLIPSE
  5
5F4
100
AcDbEntity
  8
0
100
AcDbEllipse
 62
7
  6
CONTINUOUS
 10
153.168588557
 20
86.2229287447
 30
0.0
 11
0.2
 21
-0.0
 31
0.0
 40
0.0524077793
 41
1.5707963268
 42
2.617993878
  0
ELLIPSE
  5
5F5
100
AcDbEntity
  8
0
100
AcDbEllipse
 62
7
  6
CONTINUOUS
 10
117.0203382334
 20
86.3026653216
 30
0.0
 11
0.0895469246
 21
0.1792167386
 31
0.0
 40
0.9982882662
 41
-4.2483303396
 42
-2.6789040089
  0
ELLIPSE
  5
5F6
100
AcDbEntity
  8
0
100
AcDbEllipse
 62
7
  6
CONTINUOUS
 10
158.9858987729
 20
86.3026653216
 30
0.0
 11
-0.0895469246
 21
0.1792167386
 31
0.0
 40
0.9982882662
 41
-3.6042812983
 42
-2.0348549675
  0
ELLIPSE
  5
5F7
100
AcDbEntity
  8
0
100
AcDbEllipse
 62
7
  6
CONTINUOUS
 10
159.5597423252
 20
97.8314463697
 30
0.0
 11
0.6
 21
-0.0
 31
0.0
 40
0.0087268678
 41
-1.5707963268
 42
-0.0523598776
  0
ELLIPSE
  5
5F8
100
AcDbEntity
  8
0
100
AcDbEllipse
 62
7
  6
CONTINUOUS
 10
116.446494681
 20
97.8314463697
 30
0.0
 11
0.6
 21
-0.0
 31
0.0
 40
0.0087268678
 41
-3.089232776
 42
-1.5707963268
  0
ELLIPSE
  5
5F9
100
AcDbEntity
  8
0
100
AcDbEllipse
 62
7
  6
CONTINUOUS
 10
159.5597423252
 20
93.6733353351
 30
0.0
 11
0.6
 21
-0.0
 31
0.0
 40
0.0087268678
 41
0.0523598776
 42
1.5707963268
  0
ENDSEC
  0
SECTION
  2
OBJECTS
  0
DICTIONARY
  5
C
100
AcDbDictionary
280
0
281
1
  3
ACAD_GROUP
350
D
  3
ACAD_MLINESTYLE
350
17
  3
ACAD_LAYOUT
350
1A
  3
ACAD_PLOTSETTINGS
350
19
  3
ACAD_PLOTSTYLENAME
350
E
  0
DICTIONARY
  5
D
102
{ACAD_REACTORS
330
C
102
}
100
AcDbDictionary
280
0
281
1
  0
ACDBDICTIONARYWDFLT
  5
E
102
{ACAD_REACTORS
330
C
102
}
100
AcDbDictionary
281
1
  3
Normal
350
F
100
AcDbDictionaryWithDefault
340
F
  0
DICTIONARY
  5
17
102
{ACAD_REACTORS
330
C
102
}
100
AcDbDictionary
280
0
281
1
  3
Standard
350
18
  0
DICTIONARY
  5
19
102
{ACAD_REACTORS
330
C
102
}
100
AcDbDictionary
281
1
  0
DICTIONARY
  5
1A
102
{ACAD_REACTORS
330
C
102
}
100
AcDbDictionary
281
1
  3
Model
350
5FA
  3
Layout1
350
5FB
  0
ACDBPLACEHOLDER
  5
F
102
{ACAD_REACTORS
330
E
102
}
  0
MLINESTYLE
  5
18
102
{ACAD_REACTORS
330
17
102
}
100
AcDbMlineStyle
  2
STANDARD
 70
0
  3

 62
256
 51
90.0
 52
90.0
 71
2
 49
0.5
 62
256
  6
BYLAYER
 49
-0.5
 62
256
  6
BYLAYER
  0
LAYOUT
  5
5FA
102
{ACAD_REACTORS
330
1A
102
}
100
AcDbPlotSettings
  1

  2
none_device
  4
ISO_A4_(297.00_x_210.00_MM)
  6

 40
0.0
 41
0.0
 42
0.0
 43
0.0
 44
297.0
 45
210.0
 46
0.0
 47
0.0
 48
0.0
 49
0.0
140
0.0
141
0.0
142
1.0
143
1.0
 70
1024
 72
1
 73
0
 74
0
  7

 75
0
147
1.0
148
0.0
149
0.0
100
AcDbLayout
  1
Model
 70
0
 71
0
 10
0.0
 20
0.0
 11
297.0
 21
210.0
 12
0.0
 22
0.0
 32
0.0
 14
0.0
 24
0.0
 34
0.0
 15
0.0
 25
0.0
 35
0.0
146
0.0
 13
0.0
 23
0.0
 33
0.0
 16
1.0
 26
0.0
 36
0.0
 17
0.0
 27
1.0
 37
0.0
 76
0
330
21D
345
0
346
0
  0
LAYOUT
  5
5FB
102
{ACAD_REACTORS
330
1A
102
}
100
AcDbPlotSettings
  1

  2
none_device
  4
ISO_A4_(297.00_x_210.00_MM)
  6

 40
0.0
 41
0.0
 42
0.0
 43
0.0
 44
297.0
 45
210.0
 46
0.0
 47
0.0
 48
0.0
 49
0.0
140
0.0
141
0.0
142
1.0
143
1.0
 70
0
 72
1
 73
0
 74
0
  7

 75
0
147
1.0
148
0.0
149
0.0
100
AcDbLayout
  1
Layout1
 70
0
 71
1
 10
0.0
 20
0.0
 11
297.0
 21
210.0
 12
0.0
 22
0.0
 32
0.0
 14
0.0
 24
0.0
 34
0.0
 15
0.0
 25
0.0
 35
0.0
146
0.0
 13
0.0
 23
0.0
 33
0.0
 16
1.0
 26
0.0
 36
0.0
 17
0.0
 27
1.0
 37
0.0
 76
0
330
21E
345
0
346
0
  0
ENDSEC
  0
EOF
