  0
SECTION
  2
HEADER
  9
$ACADVER
  1
AC1015
  9
$DWGCODEPAGE
  3
ANSI_1252
  9
$EXTMAX
 10
297.0
 20
210.0
 30
0.0
  9
$EXTMIN
 10
0.0
 20
0.0
 30
0.0
  9
$LIMMIN
 10
0.0
 20
0.0
  9
$LIMMAX
 10
297.0
 20
210.0
  9
$VIEWCTR
 10
148.5
 20
105.0
  9
$VIEWSIZE
 40
210.0
  9
$CLAYER
  8
0
  9
$LTSCALE
 40
16.335
  9
$CELTYPE
  6
BYLAYER
  9
$DIMSCALE
 40
1.0
  9
$DIMASZ
 40
3.0
  9
$DIMEXO
 40
1.85625
  9
$DIMDLI
 40
11.286
  9
$DIMEXE
 40
5.346
  9
$DIMCEN
 40
2.673
  9
$DIMLFAC
 40
1.0
  9
$DIMBLK
  1
_FILLED
  9
$DIMTXT
 40
3.0
  9
$DIMTOL
 70
1
  9
$DIMLIM
 70
0
  9
$DIMTFAC
 40
1.0
  9
$DIMTP
 40
0.01
  9
$DIMTM
 40
0.01
  9
$PDMODE
 70
3
  9
$PDSIZE
 40
3.0
  9
$HANDSEED
  5
6EC
  9
$TILEMODE
 70
1
  9
$MEASUREMENT
 70
1
  9
$INSUNITS
 70
4
  0
ENDSEC
  0
SECTION
  2
CLASSES
  0
CLASS
  1
ACDBDICTIONARYWDFLT
  2
AcDbDictionaryWithDefault
  3
AutoCAD 2000
 90
0
280
0
281
0
  0
CLASS
  1
ACDBPLACEHOLDER
  2
AcDbPlaceHolder
  3
AutoCAD 2000
 90
0
280
0
281
0
  0
CLASS
  1
LAYOUT
  2
AcDbLayout
  3
AutoCAD 2000
 90
0
280
0
281
0
  0
ENDSEC
  0
SECTION
  2
TABLES
  0
TABLE
  2
VPORT
  5
8
100
AcDbSymbolTable
 70
2
  0
VPORT
  5
1F4
100
AcDbSymbolTableRecord
100
AcDbViewportTableRecord
  2
*ACTIVE
 70
0
 10
0.0
 20
0.0
 11
1.0
 21
1.0
 12
148.5
 22
105.0
 13
0.0
 23
0.0
 14
1.0
 24
1.0
 15
0.0
 25
0.0
 16
0.0
 26
0.0
 36
1.0
 17
0.0
 27
0.0
 37
0.0
 40
210.0
 41
1.4142857143
 42
50.0
 43
0.0
 44
0.0
 50
0.0
 51
0.0
 71
0
 72
100
 73
1
 74
1
 75
0
 76
0
 77
0
 78
0
  0
ENDTAB
  0
TABLE
  2
LTYPE
  5
5
100
AcDbSymbolTable
 70
6
  0
LTYPE
  5
14
100
AcDbSymbolTableRecord
100
AcDbLinetypeTableRecord
  2
BYBLOCK
 70
0
  3

 72
65
 73
0
 40
0.0
  0
LTYPE
  5
15
100
AcDbSymbolTableRecord
100
AcDbLinetypeTableRecord
  2
BYLAYER
 70
0
  3

 72
65
 73
0
 40
0.0
  0
LTYPE
  5
16
100
AcDbSymbolTableRecord
100
AcDbLinetypeTableRecord
  2
CONTINUOUS
 70
64
  3
Solid line
 72
65
 73
0
 40
0.0
  0
LTYPE
  5
1F5
100
AcDbSymbolTableRecord
100
AcDbLinetypeTableRecord
  2
CENTER
 70
64
  3
____ _ ____ _ ____ _ ____ _ ____ _ ____ _ ____
 72
65
 73
4
 40
0.6
 49
0.375
 74
0
 49
-0.075
 74
0
 49
0.075
 74
0
 49
-0.075
 74
0
  0
LTYPE
  5
1F6
100
AcDbSymbolTableRecord
100
AcDbLinetypeTableRecord
  2
HIDDEN
 70
64
  3
- - - - - - - - - - - - - - - - - - - -
 72
65
 73
2
 40
0.2
 49
0.1
 74
0
 49
-0.1
 74
0
  0
LTYPE
  5
1F7
100
AcDbSymbolTableRecord
100
AcDbLinetypeTableRecord
  2
PHANTOM
 70
64
  3
_____ _ _ _____ _ _ _____ _ _ _____
 72
65
 73
6
 40
0.8
 49
0.45
 74
0
 49
-0.05
 74
0
 49
0.1
 74
0
 49
-0.05
 74
0
 49
0.1
 74
0
 49
-0.05
 74
0
  0
LTYPE
  5
1F8
100
AcDbSymbolTableRecord
100
AcDbLinetypeTableRecord
  2
DOT
 70
64
  3
. . . . . . . . . . . . . . . . . . . .
 72
65
 73
2
 40
0.2
 49
0.1
 74
0
 49
-0.1
 74
0
  0
LTYPE
  5
1F9
100
AcDbSymbolTableRecord
100
AcDbLinetypeTableRecord
  2
DASHED
 70
64
  3
- - - - - - - - - - - - - - - - - - - -
 72
65
 73
2
 40
0.2
 49
0.1
 74
0
 49
-0.1
 74
0
  0
ENDTAB
  0
TABLE
  2
LAYER
  5
2
100
AcDbSymbolTable
 70
36
  0
LAYER
  5
10
100
AcDbSymbolTableRecord
100
AcDbLayerTableRecord
  2
0
 70
0
 62
7
  6
CONTINUOUS
370
-3
390
F
  0
LAYER
  5
1FA
100
AcDbSymbolTableRecord
100
AcDbLayerTableRecord
  2
DEFAULT_1
 70
0
 62
7
  6
CENTER
370
-3
390
F
  0
LAYER
  5
1FB
100
AcDbSymbolTableRecord
100
AcDbLayerTableRecord
  2
DEFAULT_2
 70
0
 62
7
  6
HIDDEN
370
-3
390
F
  0
LAYER
  5
1FC
100
AcDbSymbolTableRecord
100
AcDbLayerTableRecord
  2
DEFAULT_3
 70
0
 62
7
  6
PHANTOM
370
-3
390
F
  0
LAYER
  5
1FD
100
AcDbSymbolTableRecord
100
AcDbLayerTableRecord
  2
ASSI
 70
0
 62
7
  6
CONTINUOUS
370
-3
390
F
  0
LAYER
  5
1FE
100
AcDbSymbolTableRecord
100
AcDbLayerTableRecord
  2
COLORE_TOP
 70
0
 62
7
  6
CONTINUOUS
370
-3
390
F
  0
LAYER
  5
1FF
100
AcDbSymbolTableRecord
100
AcDbLayerTableRecord
  2
COORDINATE
 70
0
 62
7
  6
CONTINUOUS
370
-3
390
F
  0
LAYER
  5
200
100
AcDbSymbolTableRecord
100
AcDbLayerTableRecord
  2
COORD_ORIGINE
 70
0
 62
7
  6
CONTINUOUS
370
-3
390
F
  0
LAYER
  5
201
100
AcDbSymbolTableRecord
100
AcDbLayerTableRecord
  2
COPY
 70
0
 62
7
  6
CONTINUOUS
370
-3
390
F
  0
LAYER
  5
202
100
AcDbSymbolTableRecord
100
AcDbLayerTableRecord
  2
COPY_PUBLISH
 70
0
 62
7
  6
CONTINUOUS
370
-3
390
F
  0
LAYER
  5
203
100
AcDbSymbolTableRecord
100
AcDbLayerTableRecord
  2
COSMETIC
 70
0
 62
7
  6
CONTINUOUS
370
-3
390
F
  0
LAYER
  5
204
100
AcDbSymbolTableRecord
100
AcDbLayerTableRecord
  2
COSMETICHE
 70
0
 62
7
  6
CONTINUOUS
370
-3
390
F
  0
LAYER
  5
205
100
AcDbSymbolTableRecord
100
AcDbLayerTableRecord
  2
COSMETICI
 70
0
 62
7
  6
CONTINUOUS
370
-3
390
F
  0
LAYER
  5
206
100
AcDbSymbolTableRecord
100
AcDbLayerTableRecord
  2
CURVE
 70
0
 62
7
  6
CONTINUOUS
370
-3
390
F
  0
LAYER
  5
207
100
AcDbSymbolTableRecord
100
AcDbLayerTableRecord
  2
DRAFT
 70
0
 62
7
  6
CONTINUOUS
370
-3
390
F
  0
LAYER
  5
208
100
AcDbSymbolTableRecord
100
AcDbLayerTableRecord
  2
IMPORTED
 70
0
 62
7
  6
CONTINUOUS
370
-3
390
F
  0
LAYER
  5
209
100
AcDbSymbolTableRecord
100
AcDbLayerTableRecord
  2
IMPORT_IGES
 70
0
 62
7
  6
CONTINUOUS
370
-3
390
F
  0
LAYER
  5
20A
100
AcDbSymbolTableRecord
100
AcDbLayerTableRecord
  2
INCISIONI_LASER
 70
0
 62
7
  6
CONTINUOUS
370
-3
390
F
  0
LAYER
  5
20B
100
AcDbSymbolTableRecord
100
AcDbLayerTableRecord
  2
NOTE
 70
0
 62
7
  6
CONTINUOUS
370
-3
390
F
  0
LAYER
  5
20C
100
AcDbSymbolTableRecord
100
AcDbLayerTableRecord
  2
PIANI
 70
0
 62
7
  6
CONTINUOUS
370
-3
390
F
  0
LAYER
  5
20D
100
AcDbSymbolTableRecord
100
AcDbLayerTableRecord
  2
PIANI_ORIGINE
 70
0
 62
7
  6
CONTINUOUS
370
-3
390
F
  0
LAYER
  5
20E
100
AcDbSymbolTableRecord
100
AcDbLayerTableRecord
  2
PIANI_RIFERIMENTO
 70
0
 62
7
  6
CONTINUOUS
370
-3
390
F
  0
LAYER
  5
20F
100
AcDbSymbolTableRecord
100
AcDbLayerTableRecord
  2
PIANI_SFORMO
 70
0
 62
7
  6
CONTINUOUS
370
-3
390
F
  0
LAYER
  5
210
100
AcDbSymbolTableRecord
100
AcDbLayerTableRecord
  2
PUNTI
 70
0
 62
7
  6
CONTINUOUS
370
-3
390
F
  0
LAYER
  5
211
100
AcDbSymbolTableRecord
100
AcDbLayerTableRecord
  2
RACCORDO
 70
0
 62
7
  6
CONTINUOUS
370
-3
390
F
  0
LAYER
  5
212
100
AcDbSymbolTableRecord
100
AcDbLayerTableRecord
  2
SMUSSO
 70
0
 62
7
  6
CONTINUOUS
370
-3
390
F
  0
LAYER
  5
213
100
AcDbSymbolTableRecord
100
AcDbLayerTableRecord
  2
SNAPLINE
 70
0
 62
7
  6
CONTINUOUS
370
-3
390
F
  0
LAYER
  5
214
100
AcDbSymbolTableRecord
100
AcDbLayerTableRecord
  2
SUPERFICI
 70
0
 62
7
  6
CONTINUOUS
370
-3
390
F
  0
LAYER
  5
215
100
AcDbSymbolTableRecord
100
AcDbLayerTableRecord
  2
TRASH
 70
0
 62
7
  6
CONTINUOUS
370
-3
390
F
  0
LAYER
  5
216
100
AcDbSymbolTableRecord
100
AcDbLayerTableRecord
  2
XSEC_DATUMS
 70
0
 62
7
  6
CONTINUOUS
370
-3
390
F
  0
ENDTAB
  0
TABLE
  2
STYLE
  5
3
100
AcDbSymbolTable
 70
1
  0
STYLE
  5
11
100
AcDbSymbolTableRecord
100
AcDbTextStyleTableRecord
  2
STANDARD
 70
0
 40
0.0
 41
0.8
 50
0.0
 71
0
 42
0.2
  3
txt
  4

  0
STYLE
  5
217
100
AcDbSymbolTableRecord
100
AcDbTextStyleTableRecord
  2
TEXTSTYLE_1
 70
0
 40
0.0
 41
0.8
 50
0.0
 71
0
 42
0.2
  3
gdt
  4

  0
ENDTAB
  0
TABLE
  2
VIEW
  5
6
100
AcDbSymbolTable
 70
0
  0
ENDTAB
  0
TABLE
  2
UCS
  5
7
100
AcDbSymbolTable
 70
0
  0
ENDTAB
  0
TABLE
  2
APPID
  5
9
100
AcDbSymbolTable
 70
1
  0
APPID
  5
218
100
AcDbSymbolTableRecord
100
AcDbRegAppTableRecord
  2
ACAD
 70
0
  0
ENDTAB
  0
TABLE
  2
BLOCK_RECORD
  5
1
100
AcDbSymbolTable
 70
0
  0
BLOCK_RECORD
  5
219
100
AcDbSymbolTableRecord
100
AcDbBlockTableRecord
  2
*Model_Space
  0
BLOCK_RECORD
  5
21A
100
AcDbSymbolTableRecord
100
AcDbBlockTableRecord
  2
*Paper_Space
  0
ENDTAB
  0
TABLE
  2
DIMSTYLE
  5
A
100
AcDbSymbolTable
 70
1
100
AcDbDimStyleTable
 71
0
  0
DIMSTYLE
105
21B
100
AcDbSymbolTableRecord
100
AcDbDimStyleTableRecord
  2
STANDARD
 70
0
  3

  4

 40
1.0
 41
3.0
 42
0.0625
 43
0.38
 44
0.18
 45
0.0
 46
0.0
 47
0.01
 48
0.01
140
3.0
141
0.09
142
0.0
143
25.4
144
1.0
145
0.0
146
1.0
147
0.09
 71
1.0
 72
0.0
 73
0
 74
0
 75
0
 76
0
 77
1
 78
8
170
0
171
2
172
0
173
0
174
0
175
0
176
0
177
0
178
0
270
2
271
2
272
2
273
2
274
2
275
0
280
0
281
0
282
0
283
1
284
8
285
0
286
0
287
3
288
0
340
11
  0
ENDTAB
  0
ENDSEC
  0
SECTION
  2
BLOCKS
  0
BLOCK
  5
20
100
AcDbEntity
  8
0
100
AcDbBlockBegin
  2
*Model_Space
 70
0
 10
0.0
 20
0.0
 30
0.0
  3
*Model_Space
  1

  0
ENDBLK
  5
21
100
AcDbEntity
  8
0
100
AcDbBlockEnd
  0
BLOCK
  5
1C
100
AcDbEntity
  8
0
100
AcDbBlockBegin
  2
*Paper_Space
 70
0
 10
0.0
 20
0.0
 30
0.0
  3
*Paper_Space
  1

  0
ENDBLK
  5
1D
100
AcDbEntity
  8
0
100
AcDbBlockEnd
  0
ENDSEC
  0
SECTION
  2
ENTITIES
  0
LINE
  5
21C
100
AcDbEntity
  8
0
100
AcDbLine
 62
7
  6
CONTINUOUS
 10
-8.8699973527
 20
-23.0582398268
 11
-6.4787325592
 21
-23.0582398268
  0
LINE
  5
21D
100
AcDbEntity
  8
0
100
AcDbLine
 62
7
  6
CONTINUOUS
 10
8.5300026473
 20
-23.0582398268
 11
10.9212674408
 21
-23.0582398268
  0
LINE
  5
21E
100
AcDbEntity
  8
0
100
AcDbLine
 62
253
  6
CONTINUOUS
 10
-6.22873679
 20
-22.8082440576
 11
-9.119993122
 21
-22.8082440576
  0
LINE
  5
21F
100
AcDbEntity
  8
0
100
AcDbLine
 62
253
  6
CONTINUOUS
 10
8.280006878
 20
-22.8082440576
 11
11.17126321
 21
-22.8082440576
  0
LINE
  5
220
100
AcDbEntity
  8
0
100
AcDbLine
 62
7
  6
CONTINUOUS
 10
-3.424364956
 20
-22.5626116608
 11
-0.174364956
 21
-22.5626116608
  0
LINE
  5
221
100
AcDbEntity
  8
0
100
AcDbLine
 62
7
  6
CONTINUOUS
 10
2.225635044
 20
-22.5626116608
 11
5.475635044
 21
-22.5626116608
  0
LINE
  5
222
100
AcDbEntity
  8
0
100
AcDbLine
 62
7
  6
CONTINUOUS
 10
4.525635044
 20
-22.556793831
 11
2.225635044
 21
-22.556793831
  0
LINE
  5
223
100
AcDbEntity
  8
0
100
AcDbLine
 62
7
  6
CONTINUOUS
 10
-0.174364956
 20
-22.556793831
 11
-2.474364956
 21
-22.556793831
  0
LINE
  5
224
100
AcDbEntity
  8
0
100
AcDbLine
 62
7
  6
CONTINUOUS
 10
5.4319843972
 20
-22.5189610139
 11
4.525635044
 21
-22.5189610139
  0
LINE
  5
225
100
AcDbEntity
  8
0
100
AcDbLine
 62
7
  6
CONTINUOUS
 10
-2.474364956
 20
-22.5189610139
 11
-3.3807143091
 21
-22.5189610139
  0
LINE
  5
226
100
AcDbEntity
  8
0
100
AcDbLine
 62
253
  6
CONTINUOUS
 10
-6.22873679
 20
-22.4069492281
 11
-9.119993122
 21
-22.4069492281
  0
LINE
  5
227
100
AcDbEntity
  8
0
100
AcDbLine
 62
253
  6
CONTINUOUS
 10
8.280006878
 20
-22.4069492281
 11
11.17126321
 21
-22.4069492281
  0
LINE
  5
228
100
AcDbEntity
  8
0
100
AcDbLine
 62
253
  6
CONTINUOUS
 10
10.9212674408
 20
-22.1904428771
 11
8.5300026473
 21
-22.1904428771
  0
LINE
  5
229
100
AcDbEntity
  8
0
100
AcDbLine
 62
253
  6
CONTINUOUS
 10
-6.4787325592
 20
-22.1904428771
 11
-8.8699973527
 21
-22.1904428771
  0
LINE
  5
22A
100
AcDbEntity
  8
0
100
AcDbLine
 62
7
  6
CONTINUOUS
 10
-8.8750879538
 20
-21.6852613916
 11
-6.4736419581
 21
-21.6852613916
  0
LINE
  5
22B
100
AcDbEntity
  8
0
100
AcDbLine
 62
7
  6
CONTINUOUS
 10
10.9263580419
 20
-21.6852613916
 11
8.5249120462
 21
-21.6852613916
  0
LINE
  5
22C
100
AcDbEntity
  8
0
100
AcDbLine
 62
7
  6
CONTINUOUS
 10
5.475635044
 20
-20.9626116608
 11
11.6760777335
 21
-20.9626116608
  0
LINE
  5
22D
100
AcDbEntity
  8
0
100
AcDbLine
 62
7
  6
CONTINUOUS
 10
-3.424364956
 20
-20.9626116608
 11
-9.6248076454
 21
-20.9626116608
  0
LINE
  5
22E
100
AcDbEntity
  8
0
100
AcDbLine
 62
7
  6
CONTINUOUS
 10
2.025635044
 20
-20.9573756252
 11
0.025635044
 21
-20.9573756252
  0
LINE
  5
22F
100
AcDbEntity
  8
0
100
AcDbLine
 62
7
  6
CONTINUOUS
 10
11.6673508657
 20
-20.956793831
 11
8.2814528739
 21
-20.956793831
  0
LINE
  5
230
100
AcDbEntity
  8
0
100
AcDbLine
 62
7
  6
CONTINUOUS
 10
-6.2301827858
 20
-20.956793831
 11
-9.6160807776
 21
-20.956793831
  0
LINE
  5
231
100
AcDbEntity
  8
0
100
AcDbLine
 62
253
  6
CONTINUOUS
 10
-6.2883949304
 20
-20.8985816863
 11
-1.974364956
 21
-20.8985816863
  0
LINE
  5
232
100
AcDbEntity
  8
0
100
AcDbLine
 62
253
  6
CONTINUOUS
 10
4.025635044
 20
-20.8985816863
 11
8.3396650185
 21
-20.8985816863
  0
LINE
  5
233
100
AcDbEntity
  8
0
100
AcDbLine
 62
7
  6
CONTINUOUS
 10
-1.974364956
 20
-20.2626116608
 11
4.025635044
 21
-20.2626116608
  0
LINE
  5
234
100
AcDbEntity
  8
ASSI
100
AcDbLine
 62
253
  6
CONTINUOUS
 10
-6.3084656751
 20
-19.8985986094
 11
-1.974364956
 21
-19.8985986094
  0
LINE
  5
235
100
AcDbEntity
  8
ASSI
100
AcDbLine
 62
253
  6
CONTINUOUS
 10
4.025635044
 20
-19.8985986094
 11
8.3597357632
 21
-19.8985986094
  0
LINE
  5
236
100
AcDbEntity
  8
RACCORDO
100
AcDbLine
 62
7
  6
CONTINUOUS
 10
-7.774364956
 20
22.2873883392
 11
-9.5386677364
 21
20.5230855587
  0
LINE
  5
237
100
AcDbEntity
  8
ASSI
100
AcDbLine
 62
7
  6
CONTINUOUS
 10
-10.1073475638
 20
19.9544057314
 11
-6.2883949304
 21
23.7733583647
  0
LINE
  5
238
100
AcDbEntity
  8
0
100
AcDbLine
 62
7
  6
CONTINUOUS
 10
-6.2883949304
 20
23.7733583647
 11
-6.2301827858
 21
23.8315705094
  0
LINE
  5
239
100
AcDbEntity
  8
DRAFT
100
AcDbLine
 62
7
  6
CONTINUOUS
 10
-8.7665338916
 20
21.0483675081
 11
-7.7020637097
 21
22.1128376899
  0
LINE
  5
23A
100
AcDbEntity
  8
RACCORDO
100
AcDbLine
 62
253
  6
CONTINUOUS
 10
-8.6868763376
 20
20.856057161
 11
-9.1718067401
 21
20.3711267585
  0
LINE
  5
23B
100
AcDbEntity
  8
DRAFT
100
AcDbLine
 62
7
  6
CONTINUOUS
 10
-6.374364956
 20
22.2018585211
 11
-6.4633857871
 21
22.1128376899
  0
LINE
  5
23C
100
AcDbEntity
  8
RACCORDO
100
AcDbLine
 62
253
  6
CONTINUOUS
 10
-8.272725862
 20
19.8562094658
 11
-8.4648076547
 21
19.6641276731
  0
LINE
  5
23D
100
AcDbEntity
  8
RACCORDO
100
AcDbLine
 62
7
  6
CONTINUOUS
 10
-6.574364956
 20
-19.4626116608
 11
-6.974364956
 21
-19.4626116608
  0
LINE
  5
23E
100
AcDbEntity
  8
RACCORDO
100
AcDbLine
 62
7
  6
CONTINUOUS
 10
8.625635044
 20
-19.4626116608
 11
9.025635044
 21
-19.4626116608
  0
LINE
  5
23F
100
AcDbEntity
  8
DRAFT
100
AcDbLine
 62
7
  6
CONTINUOUS
 10
-7.774364956
 20
-19.4126116608
 11
-6.4598947741
 21
-19.4126116608
  0
LINE
  5
240
100
AcDbEntity
  8
DRAFT
100
AcDbLine
 62
7
  6
CONTINUOUS
 10
8.5111648622
 20
-19.4126116608
 11
9.825635044
 21
-19.4126116608
  0
LINE
  5
241
100
AcDbEntity
  8
0
100
AcDbLine
 62
7
  6
CONTINUOUS
 10
4.025635044
 20
-19.3626116608
 11
-1.974364956
 21
-19.3626116608
  0
LINE
  5
242
100
AcDbEntity
  8
DRAFT
100
AcDbLine
 62
7
  6
CONTINUOUS
 10
-7.7020637097
 20
-19.2380610115
 11
-6.4633857871
 21
-19.2380610115
  0
LINE
  5
243
100
AcDbEntity
  8
DRAFT
100
AcDbLine
 62
7
  6
CONTINUOUS
 10
8.5146558752
 20
-19.2380610115
 11
9.7533337978
 21
-19.2380610115
  0
LINE
  5
244
100
AcDbEntity
  8
RACCORDO
100
AcDbLine
 62
7
  6
CONTINUOUS
 10
7.3011352442
 20
-18.5626116608
 11
-5.2498651561
 21
-18.5626116608
  0
LINE
  5
245
100
AcDbEntity
  8
RACCORDO
100
AcDbLine
 62
7
  6
CONTINUOUS
 10
-4.724364956
 20
-18.4626116608
 11
-2.3675665665
 21
-18.4626116608
  0
LINE
  5
246
100
AcDbEntity
  8
RACCORDO
100
AcDbLine
 62
7
  6
CONTINUOUS
 10
4.4188366546
 20
-18.4626116608
 11
6.775635044
 21
-18.4626116608
  0
LINE
  5
247
100
AcDbEntity
  8
RACCORDO
100
AcDbLine
 62
7
  6
CONTINUOUS
 10
-1.374364956
 20
-18.4469986119
 11
3.425635044
 21
-18.4469986119
  0
LINE
  5
248
100
AcDbEntity
  8
DRAFT
100
AcDbLine
 62
7
  6
CONTINUOUS
 10
-4.6353441248
 20
-18.3735908296
 11
6.6866142129
 21
-18.3735908296
  0
LINE
  5
249
100
AcDbEntity
  8
DRAFT
100
AcDbLine
 62
7
  6
CONTINUOUS
 10
8.425635044
 20
-18.2626116608
 11
6.775635044
 21
-18.2626116608
  0
LINE
  5
24A
100
AcDbEntity
  8
DRAFT
100
AcDbLine
 62
7
  6
CONTINUOUS
 10
-4.724364956
 20
-18.2626116608
 11
-6.374364956
 21
-18.2626116608
  0
LINE
  5
24B
100
AcDbEntity
  8
DRAFT
100
AcDbLine
 62
7
  6
CONTINUOUS
 10
10.8178039796
 20
-18.1735908296
 11
8.5146558752
 21
-18.1735908296
  0
LINE
  5
24C
100
AcDbEntity
  8
DRAFT
100
AcDbLine
 62
7
  6
CONTINUOUS
 10
6.6866142129
 20
-18.1735908296
 11
-4.6353441248
 21
-18.1735908296
  0
LINE
  5
24D
100
AcDbEntity
  8
DRAFT
100
AcDbLine
 62
7
  6
CONTINUOUS
 10
-6.4633857871
 20
-18.1735908296
 11
-8.7665338916
 21
-18.1735908296
  0
LINE
  5
24E
100
AcDbEntity
  8
RACCORDO
100
AcDbLine
 62
253
  6
CONTINUOUS
 10
-0.1350277173
 20
-18.1505946123
 11
-8.7570085465
 21
-18.1505946123
  0
LINE
  5
24F
100
AcDbEntity
  8
RACCORDO
100
AcDbLine
 62
7
  6
CONTINUOUS
 10
-9.5386677364
 20
-17.6483088803
 11
-7.774364956
 21
-19.4126116608
  0
LINE
  5
250
100
AcDbEntity
  8
0
100
AcDbLine
 62
7
  6
CONTINUOUS
 10
-6.2883949304
 20
-20.8985816863
 11
-6.2301827858
 21
-20.956793831
  0
LINE
  5
251
100
AcDbEntity
  8
ASSI
100
AcDbLine
 62
7
  6
CONTINUOUS
 10
-6.2883949304
 20
-20.8985816863
 11
-10.1073475638
 21
-17.079629053
  0
LINE
  5
252
100
AcDbEntity
  8
DRAFT
100
AcDbLine
 62
7
  6
CONTINUOUS
 10
-8.7665338916
 20
-18.1735908296
 11
-7.7020637097
 21
-19.2380610115
  0
LINE
  5
253
100
AcDbEntity
  8
RACCORDO
100
AcDbLine
 62
253
  6
CONTINUOUS
 10
-8.7570085465
 20
-18.1505946123
 11
-9.3411208699
 21
-17.566482289
  0
LINE
  5
254
100
AcDbEntity
  8
DRAFT
100
AcDbLine
 62
7
  6
CONTINUOUS
 10
-6.374364956
 20
-19.3270818426
 11
-6.4633857871
 21
-19.2380610115
  0
LINE
  5
255
100
AcDbEntity
  8
RACCORDO
100
AcDbLine
 62
253
  6
CONTINUOUS
 10
-8.3428580708
 20
-17.1507469172
 11
-8.6341217845
 21
-16.8594832036
  0
LINE
  5
256
100
AcDbEntity
  8
DRAFT
100
AcDbLine
 62
7
  6
CONTINUOUS
 10
-6.374364956
 20
21.1373883392
 11
-6.4633857871
 21
21.0483675081
  0
LINE
  5
257
100
AcDbEntity
  8
DRAFT
100
AcDbLine
 62
7
  6
CONTINUOUS
 10
-6.9827601959
 20
19.5192414067
 11
-6.9742602444
 21
19.5277413582
  0
LINE
  5
258
100
AcDbEntity
  8
DRAFT
100
AcDbLine
 62
7
  6
CONTINUOUS
 10
-7.0268308783
 20
19.4792433775
 11
-6.9827601959
 21
19.508623418
  0
LINE
  5
259
100
AcDbEntity
  8
0
100
AcDbLine
 62
253
  6
CONTINUOUS
 10
10.7381464257
 20
-17.9812804825
 11
9.5710716788
 21
-17.9812804825
  0
LINE
  5
25A
100
AcDbEntity
  8
RACCORDO
100
AcDbLine
 62
253
  6
CONTINUOUS
 10
2.9801984093
 20
-17.9812804825
 11
1.5083323072
 21
-17.9812804825
  0
LINE
  5
25B
100
AcDbEntity
  8
RACCORDO
100
AcDbLine
 62
253
  6
CONTINUOUS
 10
-0.1350277173
 20
-17.1507469172
 11
-8.3428580708
 21
-17.1507469172
  0
LINE
  5
25C
100
AcDbEntity
  8
0
100
AcDbLine
 62
7
  6
CONTINUOUS
 10
9.078025555
 20
-17.1126116608
 11
3.4732445331
 21
-17.1126116608
  0
LINE
  5
25D
100
AcDbEntity
  8
ASSI
100
AcDbLine
 62
253
  6
CONTINUOUS
 10
10.32399595
 20
-16.9814327874
 11
9.0781009663
 21
-16.9814327874
  0
LINE
  5
25E
100
AcDbEntity
  8
RACCORDO
100
AcDbLine
 62
253
  6
CONTINUOUS
 10
3.4731691217
 20
-16.9814327874
 11
0.508484612
 21
-16.9814327874
  0
LINE
  5
25F
100
AcDbEntity
  8
DRAFT
100
AcDbLine
 62
7
  6
CONTINUOUS
 10
3.4731691217
 20
-16.604466699
 11
9.0781009663
 21
-16.604466699
  0
LINE
  5
260
100
AcDbEntity
  8
DRAFT
100
AcDbLine
 62
7
  6
CONTINUOUS
 10
-6.374364956
 20
-18.2626116608
 11
-6.4633857871
 21
-18.1735908296
  0
LINE
  5
261
100
AcDbEntity
  8
RACCORDO
100
AcDbLine
 62
253
  6
CONTINUOUS
 10
-9.9268180894
 20
-16.1524841182
 11
-8.9269703942
 21
-16.1524841182
  0
LINE
  5
262
100
AcDbEntity
  8
RACCORDO
100
AcDbLine
 62
253
  6
CONTINUOUS
 10
11.8087740477
 20
-16.0823519093
 11
10.8089263525
 21
-16.0823519093
  0
LINE
  5
263
100
AcDbEntity
  8
DRAFT
100
AcDbLine
 62
7
  6
CONTINUOUS
 10
-8.3818601574
 20
12.2298931378
 11
-8.4552883786
 21
12.1564649166
  0
LINE
  5
264
100
AcDbEntity
  8
RACCORDO
100
AcDbLine
 62
253
  6
CONTINUOUS
 10
-9.3706005924
 20
11.931719291
 11
-9.6102305709
 21
11.7524442734
  0
LINE
  5
265
100
AcDbEntity
  8
RACCORDO
100
AcDbLine
 62
253
  6
CONTINUOUS
 10
-4.474364995
 20
15.5021379729
 11
-4.7178709708
 21
15.3281640501
  0
LINE
  5
266
100
AcDbEntity
  8
RACCORDO
100
AcDbLine
 62
253
  6
CONTINUOUS
 10
-4.9763520848
 20
14.9971619051
 11
-4.7253585869
 21
15.1601474796
  0
LINE
  5
267
100
AcDbEntity
  8
RACCORDO
100
AcDbLine
 62
253
  6
CONTINUOUS
 10
10.0377803157
 20
19.7373883392
 11
10.3955872369
 21
19.8554539391
  0
LINE
  5
268
100
AcDbEntity
  8
0
100
AcDbLine
 62
7
  6
CONTINUOUS
 10
9.3304314312
 20
-12.2553881709
 11
9.2472121656
 21
-12.2764458824
  0
LINE
  5
269
100
AcDbEntity
  8
0
100
AcDbLine
 62
7
  6
CONTINUOUS
 10
8.6900727551
 20
-12.4174238265
 11
9.2161163382
 21
-12.2843143364
  0
LINE
  5
26A
100
AcDbEntity
  8
RACCORDO
100
AcDbLine
 62
253
  6
CONTINUOUS
 10
-8.6218869703
 20
10.7921521073
 11
-8.7576562644
 21
10.5254523475
  0
LINE
  5
26B
100
AcDbEntity
  8
0
100
AcDbLine
 62
7
  6
CONTINUOUS
 10
5.4319843972
 20
25.3937376924
 11
5.475635044
 21
25.4373883392
  0
LINE
  5
26C
100
AcDbEntity
  8
0
100
AcDbLine
 62
7
  6
CONTINUOUS
 10
5.475635044
 20
23.8373883392
 11
5.431712797
 21
23.7934660922
  0
LINE
  5
26D
100
AcDbEntity
  8
0
100
AcDbLine
 62
253
  6
CONTINUOUS
 10
11.6760777335
 20
23.8373883392
 11
11.6673508657
 21
23.8315705094
  0
LINE
  5
26E
100
AcDbEntity
  8
DRAFT
100
AcDbLine
 62
7
  6
CONTINUOUS
 10
5.125635044
 20
19.7373883392
 11
5.2146490955
 21
19.7961367715
  0
LINE
  5
26F
100
AcDbEntity
  8
RACCORDO
100
AcDbLine
 62
253
  6
CONTINUOUS
 10
11.5899378245
 20
20.5230855587
 11
11.2230768281
 21
20.3711267585
  0
LINE
  5
270
100
AcDbEntity
  8
0
100
AcDbLine
 62
7
  6
CONTINUOUS
 10
4.825635044
 20
17.4334324125
 11
3.4518963343
 21
16.9341176451
  0
LINE
  5
271
100
AcDbEntity
  8
RACCORDO
100
AcDbLine
 62
253
  6
CONTINUOUS
 10
10.537806213
 20
19.2374303058
 11
10.8954180013
 21
19.3554315177
  0
LINE
  5
272
100
AcDbEntity
  8
0
100
AcDbLine
 62
7
  6
CONTINUOUS
 10
10.2854456666
 20
-12.2126116608
 11
9.6738617714
 21
-12.2126116608
  0
LINE
  5
273
100
AcDbEntity
  8
0
100
AcDbLine
 62
7
  6
CONTINUOUS
 10
3.2170585222
 20
-12.2126116608
 11
4.525635044
 21
-12.2126116608
  0
LINE
  5
274
100
AcDbEntity
  8
0
100
AcDbLine
 62
7
  6
CONTINUOUS
 10
8.2658244213
 20
-12.2126116608
 11
9.3342062914
 21
-12.2126116608
  0
LINE
  5
275
100
AcDbEntity
  8
RACCORDO
100
AcDbLine
 62
253
  6
CONTINUOUS
 10
11.4619043068
 20
-12.1310266969
 11
11.7618586154
 21
-12.1310266969
  0
LINE
  5
276
100
AcDbEntity
  8
0
100
AcDbLine
 62
253
  6
CONTINUOUS
 10
2.7958665538
 20
-12.1126116608
 11
4.525635044
 21
-12.1126116608
  0
LINE
  5
277
100
AcDbEntity
  8
0
100
AcDbLine
 62
253
  6
CONTINUOUS
 10
8.126858372
 20
-12.1126116608
 11
10.275635044
 21
-12.1126116608
  0
LINE
  5
278
100
AcDbEntity
  8
0
100
AcDbLine
 62
253
  6
CONTINUOUS
 10
2.456618535
 20
-11.8126116608
 11
4.525635044
 21
-11.8126116608
  0
LINE
  5
279
100
AcDbEntity
  8
0
100
AcDbLine
 62
253
  6
CONTINUOUS
 10
8.025635044
 20
-11.8126116608
 11
10.275635044
 21
-11.8126116608
  0
LINE
  5
27A
100
AcDbEntity
  8
0
100
AcDbLine
 62
7
  6
CONTINUOUS
 10
3.3040515501
 20
-12.27644427
 11
3.2208386569
 21
-12.2553881709
  0
LINE
  5
27B
100
AcDbEntity
  8
0
100
AcDbLine
 62
7
  6
CONTINUOUS
 10
3.3351562209
 20
-12.2843149617
 11
3.8373812087
 21
-12.4113974206
  0
LINE
  5
27C
100
AcDbEntity
  8
RACCORDO
100
AcDbLine
 62
253
  6
CONTINUOUS
 10
11.2230768281
 20
-17.4963500801
 11
11.5899378245
 21
-17.6483088803
  0
LINE
  5
27D
100
AcDbEntity
  8
DRAFT
100
AcDbLine
 62
7
  6
CONTINUOUS
 10
3.5172398041
 20
-16.6338467396
 11
3.4731691217
 21
-16.604466699
  0
LINE
  5
27E
100
AcDbEntity
  8
0
100
AcDbLine
 62
253
  6
CONTINUOUS
 10
11.6673508657
 20
-20.956793831
 11
11.6760777335
 21
-20.9626116608
  0
LINE
  5
27F
100
AcDbEntity
  8
0
100
AcDbLine
 62
7
  6
CONTINUOUS
 10
5.4319843972
 20
-22.5189610139
 11
5.475635044
 21
-22.5626116608
  0
LINE
  5
280
100
AcDbEntity
  8
0
100
AcDbLine
 62
7
  6
CONTINUOUS
 10
5.475635044
 20
-20.9626116608
 11
5.431712797
 21
-20.9186894137
  0
LINE
  5
281
100
AcDbEntity
  8
0
100
AcDbLine
 62
7
  6
CONTINUOUS
 10
-10.1248012993
 20
-20.4626285838
 11
-10.1248012993
 21
23.3374052623
  0
LINE
  5
282
100
AcDbEntity
  8
RACCORDO
100
AcDbLine
 62
7
  6
CONTINUOUS
 10
-10.124364956
 20
19.1090873879
 11
-10.124364956
 21
-16.2343107095
  0
LINE
  5
283
100
AcDbEntity
  8
0
100
AcDbLine
 62
7
  6
CONTINUOUS
 10
-10.1160744316
 20
-20.456810754
 11
-10.1160744316
 21
-17.0709021852
  0
LINE
  5
284
100
AcDbEntity
  8
0
100
AcDbLine
 62
7
  6
CONTINUOUS
 10
-10.1160744316
 20
19.9456788636
 11
-10.1160744316
 21
23.3315874324
  0
LINE
  5
285
100
AcDbEntity
  8
0
100
AcDbLine
 62
7
  6
CONTINUOUS
 10
-10.1073475638
 20
19.9544057314
 11
-10.1073475638
 21
19.3683279616
  0
LINE
  5
286
100
AcDbEntity
  8
0
100
AcDbLine
 62
7
  6
CONTINUOUS
 10
-10.1073475638
 20
-16.4935512832
 11
-10.1073475638
 21
-17.079629053
  0
LINE
  5
287
100
AcDbEntity
  8
RACCORDO
100
AcDbLine
 62
253
  6
CONTINUOUS
 10
-9.9268180894
 20
-16.1524841182
 11
-9.9268180894
 21
-8.5732744221
  0
LINE
  5
288
100
AcDbEntity
  8
RACCORDO
100
AcDbLine
 62
253
  6
CONTINUOUS
 10
-9.7575039596
 20
-6.9299143977
 11
-9.7575039596
 21
-1.6902608738
  0
LINE
  5
289
100
AcDbEntity
  8
RACCORDO
100
AcDbLine
 62
253
  6
CONTINUOUS
 10
-9.7575039596
 20
1.7650372166
 11
-9.7575039596
 21
11.8097391692
  0
LINE
  5
28A
100
AcDbEntity
  8
RACCORDO
100
AcDbLine
 62
253
  6
CONTINUOUS
 10
-9.7575039596
 20
15.2650372293
 11
-9.7575039596
 21
18.9571285877
  0
LINE
  5
28B
100
AcDbEntity
  8
RACCORDO
100
AcDbLine
 62
253
  6
CONTINUOUS
 10
-9.7105885273
 20
15.0225636103
 11
-9.7105885273
 21
14.8251913068
  0
LINE
  5
28C
100
AcDbEntity
  8
RACCORDO
100
AcDbLine
 62
253
  6
CONTINUOUS
 10
-9.7105885273
 20
12.2495853717
 11
-9.7105885273
 21
12.0522131616
  0
LINE
  5
28D
100
AcDbEntity
  8
RACCORDO
100
AcDbLine
 62
253
  6
CONTINUOUS
 10
-9.7105885273
 20
1.5225636116
 11
-9.7105885273
 21
1.3251913068
  0
LINE
  5
28E
100
AcDbEntity
  8
RACCORDO
100
AcDbLine
 62
253
  6
CONTINUOUS
 10
-9.7105885273
 20
-1.2504146283
 11
-9.7105885273
 21
-1.4477868585
  0
LINE
  5
28F
100
AcDbEntity
  8
0
100
AcDbLine
 62
253
  6
CONTINUOUS
 10
-1.4744696675
 20
19.9873883392
 11
-0.9221097881
 21
20.9441401446
  0
LINE
  5
290
100
AcDbEntity
  8
RACCORDO
100
AcDbLine
 62
253
  6
CONTINUOUS
 10
-4.2308590018
 20
11.7466125863
 11
-4.4743649469
 21
11.5726387056
  0
LINE
  5
291
100
AcDbEntity
  8
0
100
AcDbLine
 62
253
  6
CONTINUOUS
 10
12.1760713874
 20
23.3374052623
 11
12.1673445196
 21
23.3315874324
  0
LINE
  5
292
100
AcDbEntity
  8
RACCORDO
100
AcDbLine
 62
253
  6
CONTINUOUS
 10
-3.9723778271
 20
12.0776147731
 11
-4.2233713248
 21
11.9146291987
  0
LINE
  5
293
100
AcDbEntity
  8
RACCORDO
100
AcDbLine
 62
253
  6
CONTINUOUS
 10
12.175635044
 20
19.1090873879
 11
11.8087740477
 21
18.9571285877
  0
LINE
  5
294
100
AcDbEntity
  8
RACCORDO
100
AcDbLine
 62
253
  6
CONTINUOUS
 10
1.1764946521
 20
14.6376970165
 11
1.155886918
 21
14.6298804147
  0
LINE
  5
295
100
AcDbEntity
  8
DRAFT
100
AcDbLine
 62
7
  6
CONTINUOUS
 10
10.275635044
 20
-9.4650904139
 11
10.3231562909
 21
-9.4650904139
  0
LINE
  5
296
100
AcDbEntity
  8
DRAFT
100
AcDbLine
 62
7
  6
CONTINUOUS
 10
10.275635044
 20
-9.2975217906
 11
10.4907249142
 21
-9.2975217906
  0
LINE
  5
297
100
AcDbEntity
  8
RACCORDO
100
AcDbLine
 62
253
  6
CONTINUOUS
 10
11.4619043068
 20
-9.1941964298
 11
11.7618586154
 21
-9.1941964298
  0
LINE
  5
298
100
AcDbEntity
  8
RACCORDO
100
AcDbLine
 62
253
  6
CONTINUOUS
 10
11.8087740477
 20
-16.0823519093
 11
12.175635044
 21
-16.2343107095
  0
LINE
  5
299
100
AcDbEntity
  8
0
100
AcDbLine
 62
253
  6
CONTINUOUS
 10
12.1673445196
 20
-20.456810754
 11
12.1760713874
 21
-20.4626285838
  0
LINE
  5
29A
100
AcDbEntity
  8
DRAFT
100
AcDbLine
 62
7
  6
CONTINUOUS
 10
-7.0268308783
 20
-6.504466699
 11
-6.9827601959
 21
-6.5338467396
  0
LINE
  5
29B
100
AcDbEntity
  8
DRAFT
100
AcDbLine
 62
7
  6
CONTINUOUS
 10
-6.9827601959
 20
-6.5444647282
 11
-6.9742602444
 21
-6.5529646797
  0
LINE
  5
29C
100
AcDbEntity
  8
DRAFT
100
AcDbLine
 62
7
  6
CONTINUOUS
 10
3.5172398041
 20
-16.6444647282
 11
3.5257397556
 21
-16.6529646797
  0
LINE
  5
29D
100
AcDbEntity
  8
0
100
AcDbLine
 62
253
  6
CONTINUOUS
 10
-9.119993122
 20
-22.4069492281
 11
-9.124364956
 21
-21.973096809
  0
LINE
  5
29E
100
AcDbEntity
  8
0
100
AcDbLine
 62
253
  6
CONTINUOUS
 10
-8.8699973527
 20
-22.1904428771
 11
-8.8750879538
 21
-21.6852613916
  0
LINE
  5
29F
100
AcDbEntity
  8
RACCORDO
100
AcDbLine
 62
253
  6
CONTINUOUS
 10
-9.4106342187
 20
15.0225636103
 11
-9.4106342187
 21
14.7499173948
  0
LINE
  5
2A0
100
AcDbEntity
  8
RACCORDO
100
AcDbLine
 62
253
  6
CONTINUOUS
 10
-9.4106342187
 20
12.3248592837
 11
-9.4106342187
 21
12.0522131616
  0
LINE
  5
2A1
100
AcDbEntity
  8
RACCORDO
100
AcDbLine
 62
253
  6
CONTINUOUS
 10
-9.4106342187
 20
1.5225636116
 11
-9.4106342187
 21
1.2499173948
  0
LINE
  5
2A2
100
AcDbEntity
  8
RACCORDO
100
AcDbLine
 62
253
  6
CONTINUOUS
 10
-9.4106342187
 20
-1.1751407163
 11
-9.4106342187
 21
-1.4477868585
  0
LINE
  5
2A3
100
AcDbEntity
  8
0
100
AcDbLine
 62
7
  6
CONTINUOUS
 10
-9.124364956
 20
-20.9626116608
 11
-9.124364956
 21
-22.4069492281
  0
LINE
  5
2A4
100
AcDbEntity
  8
0
100
AcDbLine
 62
7
  6
CONTINUOUS
 10
-9.124364956
 20
23.8373883392
 11
-9.124364956
 21
25.2817259065
  0
LINE
  5
2A5
100
AcDbEntity
  8
0
100
AcDbLine
 62
7
  6
CONTINUOUS
 10
-9.119993122
 20
25.683020736
 11
-9.119993122
 21
25.2817259065
  0
LINE
  5
2A6
100
AcDbEntity
  8
0
100
AcDbLine
 62
7
  6
CONTINUOUS
 10
-9.119993122
 20
-22.4069492281
 11
-9.119993122
 21
-22.8082440576
  0
LINE
  5
2A7
100
AcDbEntity
  8
RACCORDO
100
AcDbLine
 62
253
  6
CONTINUOUS
 10
-8.9269703942
 20
-16.1524841182
 11
-8.9269703942
 21
-8.5732744221
  0
LINE
  5
2A8
100
AcDbEntity
  8
DRAFT
100
AcDbLine
 62
7
  6
CONTINUOUS
 10
-8.8971700987
 20
0.8271755286
 11
-8.8971700987
 21
-0.4260113389
  0
LINE
  5
2A9
100
AcDbEntity
  8
0
100
AcDbLine
 62
253
  6
CONTINUOUS
 10
-8.8699973527
 20
-22.1904428771
 11
-8.8699973527
 21
-23.0582398268
  0
LINE
  5
2AA
100
AcDbEntity
  8
0
100
AcDbLine
 62
253
  6
CONTINUOUS
 10
-8.8699973527
 20
25.0652195556
 11
-8.8699973527
 21
25.9330165052
  0
LINE
  5
2AB
100
AcDbEntity
  8
RACCORDO
100
AcDbLine
 62
253
  6
CONTINUOUS
 10
-8.7576539851
 20
3.0493254076
 11
-8.7576536713
 21
10.5254511226
  0
LINE
  5
2AC
100
AcDbEntity
  8
RACCORDO
100
AcDbLine
 62
253
  6
CONTINUOUS
 10
-8.7576562644
 20
-7.9297620928
 11
-8.7576536713
 21
-2.9745488774
  0
LINE
  5
2AD
100
AcDbEntity
  8
RACCORDO
100
AcDbLine
 62
253
  6
CONTINUOUS
 10
-8.7576539851
 20
16.5493254076
 11
-8.7576562644
 21
18.9572506677
  0
LINE
  5
2AE
100
AcDbEntity
  8
0
100
AcDbLine
 62
7
  6
CONTINUOUS
 10
-8.724364956
 20
1.1200073271
 11
-8.724364956
 21
0.454026934
  0
LINE
  5
2AF
100
AcDbEntity
  8
0
100
AcDbLine
 62
7
  6
CONTINUOUS
 10
-8.474364956
 20
1.2955110365
 11
-8.474364956
 21
1.4011351055
  0
LINE
  5
2B0
100
AcDbEntity
  8
RACCORDO
100
AcDbLine
 62
7
  6
CONTINUOUS
 10
-8.3818601574
 20
12.2298931378
 11
-8.3818601574
 21
14.9805147455
  0
LINE
  5
2B1
100
AcDbEntity
  8
0
100
AcDbLine
 62
7
  6
CONTINUOUS
 10
-8.2709606208
 20
0.1373883392
 11
-8.2709606208
 21
0.454026934
  0
LINE
  5
2B2
100
AcDbEntity
  8
0
100
AcDbLine
 62
7
  6
CONTINUOUS
 10
-8.224364956
 20
11.9810979533
 11
-8.224364956
 21
14.0920221828
  0
LINE
  5
2B3
100
AcDbEntity
  8
0
100
AcDbLine
 62
253
  6
CONTINUOUS
 10
-7.9911963286
 20
0.1373883392
 11
-7.9911963286
 21
-1.6460720335
  0
LINE
  5
2B4
100
AcDbEntity
  8
RACCORDO
100
AcDbLine
 62
7
  6
CONTINUOUS
 10
-8.4966727163
 20
12.1945238219
 11
-8.4944118376
 21
14.8823858594
  0
LINE
  5
2B5
100
AcDbEntity
  8
DRAFT
100
AcDbLine
 62
7
  6
CONTINUOUS
 10
-8.8088984407
 20
0.9920923307
 11
-8.8108432827
 21
-0.1638893761
  0
LINE
  5
2B6
100
AcDbEntity
  8
0
100
AcDbLine
 62
253
  6
CONTINUOUS
 10
-9.124364956
 20
24.8478734874
 11
-9.119993122
 21
25.2817259065
  0
LINE
  5
2B7
100
AcDbEntity
  8
0
100
AcDbLine
 62
253
  6
CONTINUOUS
 10
-8.8750879538
 20
24.56003807
 11
-8.8699973527
 21
25.0652195556
  0
LINE
  5
2B8
100
AcDbEntity
  8
DRAFT
100
AcDbLine
 62
7
  6
CONTINUOUS
 10
-8.7799775597
 20
-0.0795936014
 11
-8.7613145815
 21
1.0669844209
  0
LINE
  5
2B9
100
AcDbEntity
  8
DRAFT
100
AcDbLine
 62
7
  6
CONTINUOUS
 10
-7.1401947645
 20
14.0920221828
 11
-7.0702679525
 21
15.0920221828
  0
LINE
  5
2BA
100
AcDbEntity
  8
DRAFT
100
AcDbLine
 62
7
  6
CONTINUOUS
 10
-6.9687890887
 20
15.0920221828
 11
-7.0387159007
 21
14.0920221828
  0
LINE
  5
2BB
100
AcDbEntity
  8
RACCORDO
100
AcDbLine
 62
7
  6
CONTINUOUS
 10
-8.9572159449
 20
-0.6103091506
 11
-8.8080941637
 21
-0.1555048796
  0
LINE
  5
2BC
100
AcDbEntity
  8
DRAFT
100
AcDbLine
 62
7
  6
CONTINUOUS
 10
6.775635044
 20
21.3373883392
 11
6.6866142129
 21
21.2483675081
  0
LINE
  5
2BD
100
AcDbEntity
  8
DRAFT
100
AcDbLine
 62
7
  6
CONTINUOUS
 10
6.775635044
 20
21.1373883392
 11
6.6866142129
 21
21.0483675081
  0
LINE
  5
2BE
100
AcDbEntity
  8
RACCORDO
100
AcDbLine
 62
253
  6
CONTINUOUS
 10
5.2137110066
 20
19.5754547826
 11
5.125635044
 21
19.48737882
  0
LINE
  5
2BF
100
AcDbEntity
  8
RACCORDO
100
AcDbLine
 62
253
  6
CONTINUOUS
 10
1.4875686007
 20
15.8493123766
 11
1.5756445633
 21
15.9373883392
  0
LINE
  5
2C0
100
AcDbEntity
  8
RACCORDO
100
AcDbLine
 62
7
  6
CONTINUOUS
 10
5.2145487585
 20
19.5445199669
 11
5.1824171308
 21
19.5123883392
  0
LINE
  5
2C1
100
AcDbEntity
  8
RACCORDO
100
AcDbLine
 62
7
  6
CONTINUOUS
 10
1.550635044
 20
15.8806062524
 11
1.5185034164
 21
15.8484746248
  0
LINE
  5
2C2
100
AcDbEntity
  8
RACCORDO
100
AcDbLine
 62
253
  6
CONTINUOUS
 10
5.4287722194
 20
19.2905350339
 11
5.3756255248
 21
19.2373883392
  0
LINE
  5
2C3
100
AcDbEntity
  8
RACCORDO
100
AcDbLine
 62
253
  6
CONTINUOUS
 10
1.7724883494
 20
15.6342511638
 11
1.825635044
 21
15.6873978585
  0
LINE
  5
2C4
100
AcDbEntity
  8
DRAFT
100
AcDbLine
 62
7
  6
CONTINUOUS
 10
8.5111648622
 20
22.2873883392
 11
8.425635044
 21
22.2018585211
  0
LINE
  5
2C5
100
AcDbEntity
  8
RACCORDO
100
AcDbLine
 62
253
  6
CONTINUOUS
 10
0.3648961303
 20
-8.5732744221
 11
-9.9268180894
 21
-8.5732744221
  0
LINE
  5
2C6
100
AcDbEntity
  8
RACCORDO
100
AcDbLine
 62
253
  6
CONTINUOUS
 10
1.3091999011
 20
-8.4296859404
 11
0.508484612
 21
-8.4296859404
  0
LINE
  5
2C7
100
AcDbEntity
  8
RACCORDO
100
AcDbLine
 62
253
  6
CONTINUOUS
 10
-8.9012447462
 20
-8.0733505746
 11
-4.9532626317
 21
-8.0733505746
  0
LINE
  5
2C8
100
AcDbEntity
  8
RACCORDO
100
AcDbLine
 62
253
  6
CONTINUOUS
 10
-3.4954672802
 20
-8.0733505746
 11
-0.1350277173
 21
-8.0733505746
  0
LINE
  5
2C9
100
AcDbEntity
  8
RACCORDO
100
AcDbLine
 62
253
  6
CONTINUOUS
 10
-8.7576562644
 20
-7.9297620928
 11
-7.4855855959
 21
-7.9297620928
  0
LINE
  5
2CA
100
AcDbEntity
  8
RACCORDO
100
AcDbLine
 62
253
  6
CONTINUOUS
 10
-0.963144316
 20
-7.9297620928
 11
0.0085607644
 21
-7.9297620928
  0
LINE
  5
2CB
100
AcDbEntity
  8
DRAFT
100
AcDbLine
 62
7
  6
CONTINUOUS
 10
6.6866142129
 20
-18.3735908296
 11
6.775635044
 21
-18.4626116608
  0
LINE
  5
2CC
100
AcDbEntity
  8
DRAFT
100
AcDbLine
 62
7
  6
CONTINUOUS
 10
6.775635044
 20
-18.2626116608
 11
6.6866142129
 21
-18.1735908296
  0
LINE
  5
2CD
100
AcDbEntity
  8
DRAFT
100
AcDbLine
 62
7
  6
CONTINUOUS
 10
8.5111648622
 20
-19.4126116608
 11
8.425635044
 21
-19.3270818426
  0
LINE
  5
2CE
100
AcDbEntity
  8
0
100
AcDbLine
 62
7
  6
CONTINUOUS
 10
-7.5198015907
 20
20.856057161
 11
-7.5266201238
 21
20.9441401446
  0
LINE
  5
2CF
100
AcDbEntity
  8
0
100
AcDbLine
 62
253
  6
CONTINUOUS
 10
-6.4787325592
 20
25.0652195556
 11
-6.4736419581
 21
24.56003807
  0
LINE
  5
2D0
100
AcDbEntity
  8
0
100
AcDbLine
 62
253
  6
CONTINUOUS
 10
-6.22873679
 20
25.2817259065
 11
-6.224364956
 21
24.8478734874
  0
LINE
  5
2D1
100
AcDbEntity
  8
0
100
AcDbLine
 62
7
  6
CONTINUOUS
 10
-7.6225916833
 20
15.0920221828
 11
-7.6225916833
 21
15.3439066904
  0
LINE
  5
2D2
100
AcDbEntity
  8
0
100
AcDbLine
 62
7
  6
CONTINUOUS
 10
-7.574364956
 20
-1.7791263167
 11
-7.574364956
 21
-1.7426116608
  0
LINE
  5
2D3
100
AcDbEntity
  8
0
100
AcDbLine
 62
7
  6
CONTINUOUS
 10
-7.434364956
 20
0.1373883392
 11
-7.434364956
 21
1.5636824449
  0
LINE
  5
2D4
100
AcDbEntity
  8
0
100
AcDbLine
 62
253
  6
CONTINUOUS
 10
-7.424364956
 20
0.1373883392
 11
-7.424364956
 21
-1.7426116608
  0
LINE
  5
2D5
100
AcDbEntity
  8
0
100
AcDbLine
 62
7
  6
CONTINUOUS
 10
-7.424364956
 20
-1.7426116608
 11
-7.424364956
 21
-1.8016541545
  0
LINE
  5
2D6
100
AcDbEntity
  8
DRAFT
100
AcDbLine
 62
7
  6
CONTINUOUS
 10
-7.0268308783
 20
19.8562094658
 11
-7.0268308783
 21
19.4792433775
  0
LINE
  5
2D7
100
AcDbEntity
  8
RACCORDO
100
AcDbLine
 62
7
  6
CONTINUOUS
 10
-7.0268308783
 20
-6.504466699
 11
-7.0268308783
 21
-6.9299143977
  0
LINE
  5
2D8
100
AcDbEntity
  8
DRAFT
100
AcDbLine
 62
7
  6
CONTINUOUS
 10
-6.9827601959
 20
-6.5444647282
 11
-6.9827601959
 21
-6.5338467396
  0
LINE
  5
2D9
100
AcDbEntity
  8
DRAFT
100
AcDbLine
 62
7
  6
CONTINUOUS
 10
-6.9827601959
 20
19.508623418
 11
-6.9827601959
 21
19.5192414067
  0
LINE
  5
2DA
100
AcDbEntity
  8
RACCORDO
100
AcDbLine
 62
7
  6
CONTINUOUS
 10
-6.974364956
 20
-19.4626116608
 11
-6.974364956
 21
-20.2126116608
  0
LINE
  5
2DB
100
AcDbEntity
  8
RACCORDO
100
AcDbLine
 62
7
  6
CONTINUOUS
 10
-6.974364956
 20
22.3373883392
 11
-6.974364956
 21
23.0873883392
  0
LINE
  5
2DC
100
AcDbEntity
  8
0
100
AcDbLine
 62
253
  6
CONTINUOUS
 10
-6.9742602444
 20
19.9873883392
 11
-6.9742602444
 21
19.5277413582
  0
LINE
  5
2DD
100
AcDbEntity
  8
0
100
AcDbLine
 62
253
  6
CONTINUOUS
 10
-6.9742602444
 20
-7.0126116608
 11
-6.9742602444
 21
-6.5529646797
  0
LINE
  5
2DE
100
AcDbEntity
  8
ASSI
100
AcDbLine
 62
7
  6
CONTINUOUS
 10
-6.874364956
 20
14.5420221828
 11
-6.874364956
 21
14.0920221828
  0
LINE
  5
2DF
100
AcDbEntity
  8
0
100
AcDbLine
 62
7
  6
CONTINUOUS
 10
-6.874364956
 20
11.7208736835
 11
-6.874364956
 21
14.0920221828
  0
LINE
  5
2E0
100
AcDbEntity
  8
0
100
AcDbLine
 62
7
  6
CONTINUOUS
 10
-6.874364956
 20
14.5420221828
 11
-6.874364956
 21
15.0920221828
  0
LINE
  5
2E1
100
AcDbEntity
  8
ASSI
100
AcDbLine
 62
253
  6
CONTINUOUS
 10
-6.8083895227
 20
-19.4626116608
 11
-6.8083895227
 21
-20.378587094
  0
LINE
  5
2E2
100
AcDbEntity
  8
ASSI
100
AcDbLine
 62
253
  6
CONTINUOUS
 10
-6.8083895227
 20
22.3373883392
 11
-6.8083895227
 21
23.2533637725
  0
LINE
  5
2E3
100
AcDbEntity
  8
0
100
AcDbLine
 62
253
  6
CONTINUOUS
 10
-6.4787325592
 20
-22.1904428771
 11
-6.4787325592
 21
-23.0582398268
  0
LINE
  5
2E4
100
AcDbEntity
  8
0
100
AcDbLine
 62
253
  6
CONTINUOUS
 10
-6.4787325592
 20
25.0652195556
 11
-6.4787325592
 21
25.9330165052
  0
LINE
  5
2E5
100
AcDbEntity
  8
DRAFT
100
AcDbLine
 62
7
  6
CONTINUOUS
 10
-6.4633857871
 20
-19.2380610115
 11
-6.4633857871
 21
-18.1735908296
  0
LINE
  5
2E6
100
AcDbEntity
  8
DRAFT
100
AcDbLine
 62
7
  6
CONTINUOUS
 10
-6.4633857871
 20
21.0483675081
 11
-6.4633857871
 21
22.1128376899
  0
LINE
  5
2E7
100
AcDbEntity
  8
0
100
AcDbLine
 62
7
  6
CONTINUOUS
 10
-6.424364956
 20
1.1487132046
 11
-6.424364956
 21
1.7053761096
  0
LINE
  5
2E8
100
AcDbEntity
  8
DRAFT
100
AcDbLine
 62
7
  6
CONTINUOUS
 10
-6.374364956
 20
22.2018585211
 11
-6.374364956
 21
21.1373883392
  0
LINE
  5
2E9
100
AcDbEntity
  8
DRAFT
100
AcDbLine
 62
7
  6
CONTINUOUS
 10
-6.374364956
 20
-18.2626116608
 11
-6.374364956
 21
-19.3270818426
  0
LINE
  5
2EA
100
AcDbEntity
  8
RACCORDO
100
AcDbLine
 62
253
  6
CONTINUOUS
 10
-6.3084656751
 20
22.7733752879
 11
-6.3084656751
 21
22.1763040419
  0
LINE
  5
2EB
100
AcDbEntity
  8
RACCORDO
100
AcDbLine
 62
253
  6
CONTINUOUS
 10
-6.3084656751
 20
-19.3015273634
 11
-6.3084656751
 21
-19.8985986094
  0
LINE
  5
2EC
100
AcDbEntity
  8
RACCORDO
100
AcDbLine
 62
7
  6
CONTINUOUS
 10
-6.274364956
 20
-19.1626116608
 11
-6.274364956
 21
-18.6626116608
  0
LINE
  5
2ED
100
AcDbEntity
  8
RACCORDO
100
AcDbLine
 62
7
  6
CONTINUOUS
 10
-6.274364956
 20
21.5373883392
 11
-6.274364956
 21
22.0373883392
  0
LINE
  5
2EE
100
AcDbEntity
  8
0
100
AcDbLine
 62
7
  6
CONTINUOUS
 10
-6.22873679
 20
-22.8082440576
 11
-6.22873679
 21
-22.4069492281
  0
LINE
  5
2EF
100
AcDbEntity
  8
0
100
AcDbLine
 62
7
  6
CONTINUOUS
 10
-6.22873679
 20
25.2817259065
 11
-6.22873679
 21
25.683020736
  0
LINE
  5
2F0
100
AcDbEntity
  8
0
100
AcDbLine
 62
7
  6
CONTINUOUS
 10
-6.224364956
 20
-20.9626116608
 11
-6.224364956
 21
-22.4069492281
  0
LINE
  5
2F1
100
AcDbEntity
  8
0
100
AcDbLine
 62
7
  6
CONTINUOUS
 10
-6.224364956
 20
23.8373883392
 11
-6.224364956
 21
25.2817259065
  0
LINE
  5
2F2
100
AcDbEntity
  8
0
100
AcDbLine
 62
7
  6
CONTINUOUS
 10
-5.974364956
 20
14.9011351057
 11
-5.974364956
 21
12.1736415727
  0
LINE
  5
2F3
100
AcDbEntity
  8
0
100
AcDbLine
 62
7
  6
CONTINUOUS
 10
-5.974364956
 20
-1.3263584273
 11
-5.974364956
 21
1.4011351057
  0
LINE
  5
2F4
100
AcDbEntity
  8
RACCORDO
100
AcDbLine
 62
7
  6
CONTINUOUS
 10
-7.4855855959
 20
-7.9297620928
 11
-7.4864296304
 21
-8.0178389543
  0
LINE
  5
2F5
100
AcDbEntity
  8
0
100
AcDbLine
 62
253
  6
CONTINUOUS
 10
-6.4736419581
 20
-21.6852613916
 11
-6.4787325592
 21
-22.1904428771
  0
LINE
  5
2F6
100
AcDbEntity
  8
0
100
AcDbLine
 62
253
  6
CONTINUOUS
 10
-6.224364956
 20
-21.973096809
 11
-6.22873679
 21
-22.4069492281
  0
LINE
  5
2F7
100
AcDbEntity
  8
0
100
AcDbLine
 62
7
  6
CONTINUOUS
 10
-7.6332623727
 20
-1.7426116608
 11
-7.6395118852
 21
-1.7653268342
  0
LINE
  5
2F8
100
AcDbEntity
  8
DRAFT
100
AcDbLine
 62
7
  6
CONTINUOUS
 10
1.295635044
 20
15.9373883392
 11
1.2480654207
 21
15.8653121197
  0
LINE
  5
2F9
100
AcDbEntity
  8
RACCORDO
100
AcDbLine
 62
253
  6
CONTINUOUS
 10
1.2397498513
 20
11.5214948533
 11
1.295635044
 21
11.577380046
  0
LINE
  5
2FA
100
AcDbEntity
  8
RACCORDO
100
AcDbLine
 62
7
  6
CONTINUOUS
 10
10.537806213
 20
14.9373883392
 11
10.7089267782
 21
15.0229421057
  0
LINE
  5
2FB
100
AcDbEntity
  8
0
100
AcDbLine
 62
7
  6
CONTINUOUS
 10
-6.9742602444
 20
-7.0126116608
 11
-1.4744696675
 21
-7.0126116608
  0
LINE
  5
2FC
100
AcDbEntity
  8
RACCORDO
100
AcDbLine
 62
7
  6
CONTINUOUS
 10
-7.0268009863
 20
-7.0126116608
 11
-6.9742602444
 21
-7.0126116608
  0
LINE
  5
2FD
100
AcDbEntity
  8
RACCORDO
100
AcDbLine
 62
7
  6
CONTINUOUS
 10
-1.4744696675
 20
-7.0126116608
 11
-1.4219289257
 21
-7.0126116608
  0
LINE
  5
2FE
100
AcDbEntity
  8
RACCORDO
100
AcDbLine
 62
253
  6
CONTINUOUS
 10
-9.7575039596
 20
-6.9299143977
 11
-7.0268308783
 21
-6.9299143977
  0
LINE
  5
2FF
100
AcDbEntity
  8
RACCORDO
100
AcDbLine
 62
253
  6
CONTINUOUS
 10
-1.4218990337
 20
-6.9299143977
 11
0.0085607644
 21
-6.9299143977
  0
LINE
  5
300
100
AcDbEntity
  8
DRAFT
100
AcDbLine
 62
7
  6
CONTINUOUS
 10
-1.4218990337
 20
-6.504466699
 11
-7.0268308783
 21
-6.504466699
  0
LINE
  5
301
100
AcDbEntity
  8
DRAFT
100
AcDbLine
 62
7
  6
CONTINUOUS
 10
7.875635044
 20
-5.5626116608
 11
9.575635044
 21
-5.5626116608
  0
LINE
  5
302
100
AcDbEntity
  8
DRAFT
100
AcDbLine
 62
7
  6
CONTINUOUS
 10
7.8878526589
 20
-5.5503940459
 11
9.5634174291
 21
-5.5503940459
  0
LINE
  5
303
100
AcDbEntity
  8
RACCORDO
100
AcDbLine
 62
253
  6
CONTINUOUS
 10
6.022112247
 20
-12.1063337047
 11
6.2738735087
 21
-12.2681306949
  0
LINE
  5
304
100
AcDbEntity
  8
RACCORDO
100
AcDbLine
 62
253
  6
CONTINUOUS
 10
6.2814064485
 20
-12.4371509626
 11
6.5256350303
 21
-12.61010896
  0
LINE
  5
305
100
AcDbEntity
  8
RACCORDO
100
AcDbLine
 62
253
  6
CONTINUOUS
 10
-8.7576562644
 20
3.049324331
 11
-8.6218869703
 21
2.7826245712
  0
LINE
  5
306
100
AcDbEntity
  8
0
100
AcDbLine
 62
7
  6
CONTINUOUS
 10
-5.606303956
 20
14.4340661402
 11
-5.606303956
 21
12.6407105383
  0
LINE
  5
307
100
AcDbEntity
  8
0
100
AcDbLine
 62
7
  6
CONTINUOUS
 10
-5.606303956
 20
-0.8592894617
 11
-5.606303956
 21
0.9340661402
  0
LINE
  5
308
100
AcDbEntity
  8
DRAFT
100
AcDbLine
 62
7
  6
CONTINUOUS
 10
-4.724364956
 20
-18.2626116608
 11
-4.724364956
 21
-18.4626116608
  0
LINE
  5
309
100
AcDbEntity
  8
DRAFT
100
AcDbLine
 62
7
  6
CONTINUOUS
 10
-4.724364956
 20
21.1373883392
 11
-4.724364956
 21
21.3373883392
  0
LINE
  5
30A
100
AcDbEntity
  8
DRAFT
100
AcDbLine
 62
7
  6
CONTINUOUS
 10
-4.6353441248
 20
21.2483675081
 11
-4.6353441248
 21
21.0483675081
  0
LINE
  5
30B
100
AcDbEntity
  8
DRAFT
100
AcDbLine
 62
7
  6
CONTINUOUS
 10
-4.6353441248
 20
-18.1735908296
 11
-4.6353441248
 21
-18.3735908296
  0
LINE
  5
30C
100
AcDbEntity
  8
0
100
AcDbLine
 62
253
  6
CONTINUOUS
 10
-1.4726964333
 20
15.2115018347
 11
-1.4586586924
 21
15.2669784466
  0
LINE
  5
30D
100
AcDbEntity
  8
0
100
AcDbLine
 62
7
  6
CONTINUOUS
 10
-1.2726964333
 20
15.1608940545
 11
-1.2568156468
 21
15.2236543115
  0
LINE
  5
30E
100
AcDbEntity
  8
0
100
AcDbLine
 62
7
  6
CONTINUOUS
 10
-1.1695685688
 20
15.134798693
 11
-1.1550545436
 21
15.1921575622
  0
LINE
  5
30F
100
AcDbEntity
  8
RACCORDO
100
AcDbLine
 62
253
  6
CONTINUOUS
 10
-8.6218869703
 20
-2.7078478927
 11
-8.7576562644
 21
-2.9745476525
  0
LINE
  5
310
100
AcDbEntity
  8
RACCORDO
100
AcDbLine
 62
253
  6
CONTINUOUS
 10
1.7397415572
 20
11.0215031456
 11
1.7956267509
 21
11.0773883392
  0
LINE
  5
311
100
AcDbEntity
  8
RACCORDO
100
AcDbLine
 62
253
  6
CONTINUOUS
 10
11.2230768281
 20
20.3711267585
 11
10.6421616857
 21
19.790211616
  0
LINE
  5
312
100
AcDbEntity
  8
DRAFT
100
AcDbLine
 62
7
  6
CONTINUOUS
 10
0.025635044
 20
7.7873883392
 11
0.0378526589
 21
7.7996059541
  0
LINE
  5
313
100
AcDbEntity
  8
RACCORDO
100
AcDbLine
 62
7
  6
CONTINUOUS
 10
6.125635044
 20
11.0773883392
 11
6.040959295
 21
11.0215031456
  0
LINE
  5
314
100
AcDbEntity
  8
0
100
AcDbLine
 62
7
  6
CONTINUOUS
 10
7.8878526589
 20
-5.2126116608
 11
9.5634174291
 21
-5.2126116608
  0
LINE
  5
315
100
AcDbEntity
  8
DRAFT
100
AcDbLine
 62
7
  6
CONTINUOUS
 10
9.2180377166
 20
-4.8050143334
 11
8.3332323715
 21
-4.8050143334
  0
LINE
  5
316
100
AcDbEntity
  8
DRAFT
100
AcDbLine
 62
7
  6
CONTINUOUS
 10
9.5058201017
 20
-4.7050143334
 11
9.2180377166
 21
-4.7050143334
  0
LINE
  5
317
100
AcDbEntity
  8
DRAFT
100
AcDbLine
 62
7
  6
CONTINUOUS
 10
8.3332323715
 20
-4.7050143334
 11
7.9454499864
 21
-4.7050143334
  0
LINE
  5
318
100
AcDbEntity
  8
RACCORDO
100
AcDbLine
 62
7
  6
CONTINUOUS
 10
7.875635044
 20
-3.9626116608
 11
1.677520248
 21
-3.9626116608
  0
LINE
  5
319
100
AcDbEntity
  8
RACCORDO
100
AcDbLine
 62
7
  6
CONTINUOUS
 10
9.575635044
 20
-3.9626116608
 11
10.3957111965
 21
-3.9626116608
  0
LINE
  5
31A
100
AcDbEntity
  8
DRAFT
100
AcDbLine
 62
7
  6
CONTINUOUS
 10
9.5058201017
 20
-3.8229711414
 11
7.9454499864
 21
-3.8229711414
  0
LINE
  5
31B
100
AcDbEntity
  8
RACCORDO
100
AcDbLine
 62
7
  6
CONTINUOUS
 10
1.7368446452
 20
-3.782824492
 11
10.2159240277
 21
-3.782824492
  0
LINE
  5
31C
100
AcDbEntity
  8
RACCORDO
100
AcDbLine
 62
253
  6
CONTINUOUS
 10
7.0291578368
 20
-9.2188896347
 11
6.7773965689
 21
-9.0570926412
  0
LINE
  5
31D
100
AcDbEntity
  8
RACCORDO
100
AcDbLine
 62
253
  6
CONTINUOUS
 10
-4.9763520849
 20
-1.4223852252
 11
-4.7253585863
 21
-1.5853707985
  0
LINE
  5
31E
100
AcDbEntity
  8
RACCORDO
100
AcDbLine
 62
253
  6
CONTINUOUS
 10
-4.7178709706
 20
-1.7533873714
 11
-4.4743649951
 21
-1.9273612939
  0
LINE
  5
31F
100
AcDbEntity
  8
RACCORDO
100
AcDbLine
 62
253
  6
CONTINUOUS
 10
-9.3706005656
 20
1.6430574716
 11
-9.6102305149
 21
1.8223324751
  0
LINE
  5
320
100
AcDbEntity
  8
RACCORDO
100
AcDbLine
 62
253
  6
CONTINUOUS
 10
11.2230768281
 20
-17.4963500801
 11
10.5160777427
 21
-16.7893509947
  0
LINE
  5
321
100
AcDbEntity
  8
RACCORDO
100
AcDbLine
 62
253
  6
CONTINUOUS
 10
1.6917932432
 20
-8.4075100146
 11
1.488688618
 21
-8.1877131892
  0
LINE
  5
322
100
AcDbEntity
  8
0
100
AcDbLine
 62
253
  6
CONTINUOUS
 10
-1.4744696675
 20
-7.0126116608
 11
-0.9623002815
 21
-8.0178389543
  0
LINE
  5
323
100
AcDbEntity
  8
0
100
AcDbLine
 62
7
  6
CONTINUOUS
 10
-3.424364956
 20
25.4373883392
 11
-3.424364956
 21
24.8053332864
  0
LINE
  5
324
100
AcDbEntity
  8
0
100
AcDbLine
 62
7
  6
CONTINUOUS
 10
-3.424364956
 20
24.369443392
 11
-3.424364956
 21
23.8373883392
  0
LINE
  5
325
100
AcDbEntity
  8
0
100
AcDbLine
 62
7
  6
CONTINUOUS
 10
-3.424364956
 20
-20.9626116608
 11
-3.424364956
 21
-21.4946667136
  0
LINE
  5
326
100
AcDbEntity
  8
0
100
AcDbLine
 62
7
  6
CONTINUOUS
 10
-3.424364956
 20
-21.930556608
 11
-3.424364956
 21
-22.5626116608
  0
LINE
  5
327
100
AcDbEntity
  8
0
100
AcDbLine
 62
7
  6
CONTINUOUS
 10
-3.3804427089
 20
25.3912806123
 11
-3.3804427089
 21
23.7934660922
  0
LINE
  5
328
100
AcDbEntity
  8
0
100
AcDbLine
 62
7
  6
CONTINUOUS
 10
-3.3804427089
 20
-20.9186894137
 11
-3.3804427089
 21
-22.5165039338
  0
LINE
  5
329
100
AcDbEntity
  8
0
100
AcDbLine
 62
7
  6
CONTINUOUS
 10
-2.842425956
 20
14.8835865786
 11
-2.842425956
 21
12.1911900999
  0
LINE
  5
32A
100
AcDbEntity
  8
0
100
AcDbLine
 62
7
  6
CONTINUOUS
 10
-2.842425956
 20
-1.3088099001
 11
-2.842425956
 21
1.3835865786
  0
LINE
  5
32B
100
AcDbEntity
  8
0
100
AcDbLine
 62
7
  6
CONTINUOUS
 10
-2.474364956
 20
15.1183968955
 11
-2.474364956
 21
11.956379783
  0
LINE
  5
32C
100
AcDbEntity
  8
0
100
AcDbLine
 62
7
  6
CONTINUOUS
 10
-2.474364956
 20
-20.9187047477
 11
-2.474364956
 21
-22.5167596049
  0
LINE
  5
32D
100
AcDbEntity
  8
0
100
AcDbLine
 62
7
  6
CONTINUOUS
 10
-2.474364956
 20
-22.5189610139
 11
-2.474364956
 21
-22.556793831
  0
LINE
  5
32E
100
AcDbEntity
  8
0
100
AcDbLine
 62
7
  6
CONTINUOUS
 10
-2.474364956
 20
-1.543620217
 11
-2.474364956
 21
1.6183968955
  0
LINE
  5
32F
100
AcDbEntity
  8
0
100
AcDbLine
 62
7
  6
CONTINUOUS
 10
-2.474364956
 20
23.7934814261
 11
-2.474364956
 21
25.4315705094
  0
LINE
  5
330
100
AcDbEntity
  8
RACCORDO
100
AcDbLine
 62
7
  6
CONTINUOUS
 10
-2.374364956
 20
21.4373883392
 11
-2.374364956
 21
21.3373883392
  0
LINE
  5
331
100
AcDbEntity
  8
RACCORDO
100
AcDbLine
 62
7
  6
CONTINUOUS
 10
-2.374364956
 20
-18.4626116608
 11
-2.374364956
 21
-18.5626116608
  0
LINE
  5
332
100
AcDbEntity
  8
0
100
AcDbLine
 62
7
  6
CONTINUOUS
 10
-0.9221097881
 20
20.9441401446
 11
-0.9289283212
 21
20.856057161
  0
LINE
  5
333
100
AcDbEntity
  8
DRAFT
100
AcDbLine
 62
7
  6
CONTINUOUS
 10
1.2236394163
 20
7.8572032815
 11
1.1775622145
 21
7.7873883392
  0
LINE
  5
334
100
AcDbEntity
  8
RACCORDO
100
AcDbLine
 62
253
  6
CONTINUOUS
 10
7.4476972653
 20
17.846477397
 11
7.4932815747
 21
17.9114291892
  0
LINE
  5
335
100
AcDbEntity
  8
DRAFT
100
AcDbLine
 62
7
  6
CONTINUOUS
 10
0.425635044
 20
7.7996059541
 11
0.4832323715
 21
7.8572032815
  0
LINE
  5
336
100
AcDbEntity
  8
RACCORDO
100
AcDbLine
 62
253
  6
CONTINUOUS
 10
9.4786944733
 20
15.2404382493
 11
9.425635044
 21
15.18737882
  0
LINE
  5
337
100
AcDbEntity
  8
RACCORDO
100
AcDbLine
 62
253
  6
CONTINUOUS
 10
5.8224978686
 20
11.5842416446
 11
5.8756445633
 21
11.6373883392
  0
LINE
  5
338
100
AcDbEntity
  8
RACCORDO
100
AcDbLine
 62
7
  6
CONTINUOUS
 10
6.0390664744
 20
11.3333103121
 11
6.0687759025
 21
11.3630197403
  0
LINE
  5
339
100
AcDbEntity
  8
RACCORDO
100
AcDbLine
 62
253
  6
CONTINUOUS
 10
9.7308665049
 20
14.9926293193
 11
9.6756255248
 21
14.9373883392
  0
LINE
  5
33A
100
AcDbEntity
  8
RACCORDO
100
AcDbLine
 62
253
  6
CONTINUOUS
 10
6.0394456965
 20
11.3012085109
 11
6.125635044
 21
11.3873978585
  0
LINE
  5
33B
100
AcDbEntity
  8
RACCORDO
100
AcDbLine
 62
253
  6
CONTINUOUS
 10
-9.3706005881
 20
-1.5682807185
 11
-9.6102305643
 21
-1.747555744
  0
LINE
  5
33C
100
AcDbEntity
  8
RACCORDO
100
AcDbLine
 62
253
  6
CONTINUOUS
 10
-4.474364995
 20
2.0021379729
 11
-4.7178709708
 21
1.8281640501
  0
LINE
  5
33D
100
AcDbEntity
  8
RACCORDO
100
AcDbLine
 62
253
  6
CONTINUOUS
 10
6.7698636466
 20
-8.8880723483
 11
6.5256350622
 21
-8.7151143482
  0
LINE
  5
33E
100
AcDbEntity
  8
RACCORDO
100
AcDbLine
 62
253
  6
CONTINUOUS
 10
11.4225171903
 20
-12.2506576017
 11
11.6631169481
 21
-12.4286289234
  0
LINE
  5
33F
100
AcDbEntity
  8
0
100
AcDbLine
 62
7
  6
CONTINUOUS
 10
-7.2791613431
 20
15.134798693
 11
-7.3421027323
 21
15.3835406413
  0
LINE
  5
340
100
AcDbEntity
  8
0
100
AcDbLine
 62
7
  6
CONTINUOUS
 10
-7.2328049423
 20
15.3852526944
 11
-7.1760334786
 21
15.1608940545
  0
LINE
  5
341
100
AcDbEntity
  8
0
100
AcDbLine
 62
253
  6
CONTINUOUS
 10
-6.9760334786
 20
15.2115018347
 11
-7.0175866564
 21
15.3757183944
  0
LINE
  5
342
100
AcDbEntity
  8
RACCORDO
100
AcDbLine
 62
7
  6
CONTINUOUS
 10
-0.963144316
 20
-7.9297620928
 11
-0.9623002815
 21
-8.0178389543
  0
LINE
  5
343
100
AcDbEntity
  8
0
100
AcDbLine
 62
7
  6
CONTINUOUS
 10
-2.024364956
 20
1.1487132046
 11
-2.024364956
 21
1.7260634738
  0
LINE
  5
344
100
AcDbEntity
  8
0
100
AcDbLine
 62
7
  6
CONTINUOUS
 10
-1.974364956
 20
-20.9162666807
 11
-1.974364956
 21
-19.3626116608
  0
LINE
  5
345
100
AcDbEntity
  8
0
100
AcDbLine
 62
7
  6
CONTINUOUS
 10
-1.974364956
 20
22.2373883392
 11
-1.974364956
 21
23.7910433592
  0
LINE
  5
346
100
AcDbEntity
  8
ASSI
100
AcDbLine
 62
7
  6
CONTINUOUS
 10
-1.574364956
 20
14.5420221828
 11
-1.574364956
 21
14.0920221828
  0
LINE
  5
347
100
AcDbEntity
  8
0
100
AcDbLine
 62
7
  6
CONTINUOUS
 10
-1.574364956
 20
11.7939481486
 11
-1.574364956
 21
14.0920221828
  0
LINE
  5
348
100
AcDbEntity
  8
0
100
AcDbLine
 62
7
  6
CONTINUOUS
 10
-1.574364956
 20
14.5420221828
 11
-1.574364956
 21
15.0920221828
  0
LINE
  5
349
100
AcDbEntity
  8
0
100
AcDbLine
 62
253
  6
CONTINUOUS
 10
-1.4744696675
 20
19.9873883392
 11
-1.4744696675
 21
19.5277413582
  0
LINE
  5
34A
100
AcDbEntity
  8
0
100
AcDbLine
 62
253
  6
CONTINUOUS
 10
-1.4744696675
 20
-7.0126116608
 11
-1.4744696675
 21
-6.5529646797
  0
LINE
  5
34B
100
AcDbEntity
  8
DRAFT
100
AcDbLine
 62
7
  6
CONTINUOUS
 10
-1.465969716
 20
-6.5444647282
 11
-1.465969716
 21
-6.5338467396
  0
LINE
  5
34C
100
AcDbEntity
  8
DRAFT
100
AcDbLine
 62
7
  6
CONTINUOUS
 10
-1.465969716
 20
19.508623418
 11
-1.465969716
 21
19.5192414067
  0
LINE
  5
34D
100
AcDbEntity
  8
DRAFT
100
AcDbLine
 62
7
  6
CONTINUOUS
 10
-1.4218990337
 20
19.8562094658
 11
-1.4218990337
 21
19.4792433775
  0
LINE
  5
34E
100
AcDbEntity
  8
RACCORDO
100
AcDbLine
 62
7
  6
CONTINUOUS
 10
-1.4218990337
 20
-6.504466699
 11
-1.4218990337
 21
-6.9299143977
  0
LINE
  5
34F
100
AcDbEntity
  8
RACCORDO
100
AcDbLine
 62
253
  6
CONTINUOUS
 10
-1.374364956
 20
21.4373883392
 11
-1.374364956
 21
21.3217752904
  0
LINE
  5
350
100
AcDbEntity
  8
RACCORDO
100
AcDbLine
 62
253
  6
CONTINUOUS
 10
-1.374364956
 20
-18.4469986119
 11
-1.374364956
 21
-18.5626116608
  0
LINE
  5
351
100
AcDbEntity
  8
0
100
AcDbLine
 62
253
  6
CONTINUOUS
 10
-1.024364956
 20
0.1373883392
 11
-1.024364956
 21
-1.5664002568
  0
LINE
  5
352
100
AcDbEntity
  8
0
100
AcDbLine
 62
7
  6
CONTINUOUS
 10
-1.014364956
 20
0.1373883392
 11
-1.014364956
 21
1.5629174853
  0
LINE
  5
353
100
AcDbEntity
  8
0
100
AcDbLine
 62
253
  6
CONTINUOUS
 10
-6.9742602444
 20
-7.0126116608
 11
-7.4864296304
 21
-8.0178389543
  0
LINE
  5
354
100
AcDbEntity
  8
DRAFT
100
AcDbLine
 62
7
  6
CONTINUOUS
 10
1.2236394163
 20
4.7572032815
 11
1.1775622145
 21
4.6873883392
  0
LINE
  5
355
100
AcDbEntity
  8
RACCORDO
100
AcDbLine
 62
253
  6
CONTINUOUS
 10
8.2417341866
 20
17.0535286757
 11
8.2572280912
 21
17.0756055019
  0
LINE
  5
356
100
AcDbEntity
  8
DRAFT
100
AcDbLine
 62
7
  6
CONTINUOUS
 10
1.025635044
 20
4.6873883392
 11
1.0954499864
 21
4.7572032815
  0
LINE
  5
357
100
AcDbEntity
  8
RACCORDO
100
AcDbLine
 62
253
  6
CONTINUOUS
 10
-9.9010924413
 20
-7.0735028794
 11
-9.7575039596
 21
-6.9299143977
  0
LINE
  5
358
100
AcDbEntity
  8
RACCORDO
100
AcDbLine
 62
253
  6
CONTINUOUS
 10
-4.9763520848
 20
1.4971619051
 11
-4.7253585869
 21
1.6601474796
  0
LINE
  5
359
100
AcDbEntity
  8
0
100
AcDbLine
 62
7
  6
CONTINUOUS
 10
-7.728217742
 20
-1.7426116608
 11
-7.424364956
 21
-1.7426116608
  0
LINE
  5
35A
100
AcDbEntity
  8
0
100
AcDbLine
 62
253
  6
CONTINUOUS
 10
-7.424364956
 20
-1.7426116608
 11
-6.7205121693
 21
-1.7426116608
  0
LINE
  5
35B
100
AcDbEntity
  8
RACCORDO
100
AcDbLine
 62
253
  6
CONTINUOUS
 10
-9.4106342187
 20
-1.4477868585
 11
-9.7105885273
 21
-1.4477868585
  0
LINE
  5
35C
100
AcDbEntity
  8
RACCORDO
100
AcDbLine
 62
253
  6
CONTINUOUS
 10
1.1677608573
 20
-0.6447835182
 11
0.8677658332
 21
-0.6447835182
  0
LINE
  5
35D
100
AcDbEntity
  8
RACCORDO
100
AcDbLine
 62
253
  6
CONTINUOUS
 10
0.8677658332
 20
-0.6447835182
 11
1.1571805867
 21
-0.7209488879
  0
LINE
  5
35E
100
AcDbEntity
  8
RACCORDO
100
AcDbLine
 62
253
  6
CONTINUOUS
 10
1.1558869339
 20
-1.0551036579
 11
1.1764946516
 21
-1.0629202557
  0
LINE
  5
35F
100
AcDbEntity
  8
RACCORDO
100
AcDbLine
 62
253
  6
CONTINUOUS
 10
-3.9723778271
 20
1.4971619034
 11
-4.2233713257
 21
1.6601474768
  0
LINE
  5
360
100
AcDbEntity
  8
RACCORDO
100
AcDbLine
 62
253
  6
CONTINUOUS
 10
-4.4743649718
 20
2.0021379897
 11
-4.2308590014
 21
1.8281640906
  0
LINE
  5
361
100
AcDbEntity
  8
0
100
AcDbLine
 62
253
  6
CONTINUOUS
 10
9.0255303325
 20
-17.1126116608
 11
9.5778902119
 21
-18.0693634661
  0
LINE
  5
362
100
AcDbEntity
  8
RACCORDO
100
AcDbLine
 62
253
  6
CONTINUOUS
 10
-8.7576562644
 20
16.549324331
 11
-8.6218869703
 21
16.2826245712
  0
LINE
  5
363
100
AcDbEntity
  8
0
100
AcDbLine
 62
253
  6
CONTINUOUS
 10
-0.4575335833
 20
0.1373883392
 11
-0.4575335833
 21
-1.1699280385
  0
LINE
  5
364
100
AcDbEntity
  8
0
100
AcDbLine
 62
7
  6
CONTINUOUS
 10
-0.224364956
 20
12.636189327
 11
-0.224364956
 21
14.0920221828
  0
LINE
  5
365
100
AcDbEntity
  8
0
100
AcDbLine
 62
253
  6
CONTINUOUS
 10
-0.174364956
 20
-22.5626116608
 11
-0.174364956
 21
-22.556793831
  0
LINE
  5
366
100
AcDbEntity
  8
0
100
AcDbLine
 62
253
  6
CONTINUOUS
 10
-0.174364956
 20
25.4315705094
 11
-0.174364956
 21
25.4373883392
  0
LINE
  5
367
100
AcDbEntity
  8
RACCORDO
100
AcDbLine
 62
253
  6
CONTINUOUS
 10
-0.1350277173
 20
-18.1505946123
 11
-0.1350277173
 21
-8.0733505746
  0
LINE
  5
368
100
AcDbEntity
  8
RACCORDO
100
AcDbLine
 62
253
  6
CONTINUOUS
 10
0.0085607644
 20
-6.9299143977
 11
0.0085607644
 21
-7.9297620928
  0
LINE
  5
369
100
AcDbEntity
  8
DRAFT
100
AcDbLine
 62
7
  6
CONTINUOUS
 10
0.025635044
 20
9.4873883392
 11
0.025635044
 21
7.7873883392
  0
LINE
  5
36A
100
AcDbEntity
  8
0
100
AcDbLine
 62
7
  6
CONTINUOUS
 10
0.025635044
 20
-22.3567904463
 11
0.025635044
 21
-20.9573756252
  0
LINE
  5
36B
100
AcDbEntity
  8
0
100
AcDbLine
 62
7
  6
CONTINUOUS
 10
0.025635044
 20
23.8321523036
 11
0.025635044
 21
25.2315671247
  0
LINE
  5
36C
100
AcDbEntity
  8
DRAFT
100
AcDbLine
 62
7
  6
CONTINUOUS
 10
0.0378526589
 20
9.4751707243
 11
0.0378526589
 21
7.7996059541
  0
LINE
  5
36D
100
AcDbEntity
  8
0
100
AcDbLine
 62
7
  6
CONTINUOUS
 10
0.275635044
 20
8.8920221828
 11
0.275635044
 21
8.0920221828
  0
LINE
  5
36E
100
AcDbEntity
  8
0
100
AcDbLine
 62
7
  6
CONTINUOUS
 10
0.275635044
 20
8.0906369004
 11
0.275635044
 21
7.8920221828
  0
LINE
  5
36F
100
AcDbEntity
  8
RACCORDO
100
AcDbLine
 62
253
  6
CONTINUOUS
 10
0.3648961303
 20
-8.5732744221
 11
0.3648961303
 21
-17.1250212691
  0
LINE
  5
370
100
AcDbEntity
  8
DRAFT
100
AcDbLine
 62
7
  6
CONTINUOUS
 10
0.4832323715
 20
9.4175733969
 11
0.4832323715
 21
7.8572032815
  0
LINE
  5
371
100
AcDbEntity
  8
RACCORDO
100
AcDbLine
 62
253
  6
CONTINUOUS
 10
0.508484612
 20
-16.9814327874
 11
0.508484612
 21
-8.4296859404
  0
LINE
  5
372
100
AcDbEntity
  8
RACCORDO
100
AcDbLine
 62
253
  6
CONTINUOUS
 10
0.8677658332
 20
-0.6447808647
 11
0.8677658332
 21
0.719557547
  0
LINE
  5
373
100
AcDbEntity
  8
RACCORDO
100
AcDbLine
 62
253
  6
CONTINUOUS
 10
0.8677658332
 20
12.8552191353
 11
0.8677658332
 21
14.219557547
  0
LINE
  5
374
100
AcDbEntity
  8
DRAFT
100
AcDbLine
 62
7
  6
CONTINUOUS
 10
1.025635044
 20
6.3873883392
 11
1.025635044
 21
4.6873883392
  0
LINE
  5
375
100
AcDbEntity
  8
DRAFT
100
AcDbLine
 62
7
  6
CONTINUOUS
 10
1.0954499864
 20
6.3175733969
 11
1.0954499864
 21
4.7572032815
  0
LINE
  5
376
100
AcDbEntity
  8
RACCORDO
100
AcDbLine
 62
253
  6
CONTINUOUS
 10
1.1677608573
 20
-0.6447800818
 11
1.1677608573
 21
0.7195593023
  0
LINE
  5
377
100
AcDbEntity
  8
RACCORDO
100
AcDbLine
 62
253
  6
CONTINUOUS
 10
1.1677608573
 20
12.85521151
 11
1.1677608573
 21
14.2195620906
  0
LINE
  5
378
100
AcDbEntity
  8
RACCORDO
100
AcDbLine
 62
7
  6
CONTINUOUS
 10
1.1775622145
 20
19.3554694619
 11
1.1775622145
 21
15.2698892345
  0
LINE
  5
379
100
AcDbEntity
  8
RACCORDO
100
AcDbLine
 62
7
  6
CONTINUOUS
 10
1.1775622145
 20
11.804887444
 11
1.1775622145
 21
9.4873883392
  0
LINE
  5
37A
100
AcDbEntity
  8
DRAFT
100
AcDbLine
 62
7
  6
CONTINUOUS
 10
1.1775622145
 20
7.7873883392
 11
1.1775622145
 21
6.3873883392
  0
LINE
  5
37B
100
AcDbEntity
  8
RACCORDO
100
AcDbLine
 62
7
  6
CONTINUOUS
 10
1.1775622145
 20
4.6873883392
 11
1.1775622145
 21
1.7698892345
  0
LINE
  5
37C
100
AcDbEntity
  8
RACCORDO
100
AcDbLine
 62
7
  6
CONTINUOUS
 10
1.1775622145
 20
-1.695112556
 11
1.1775622145
 21
-3.4625857635
  0
LINE
  5
37D
100
AcDbEntity
  8
DRAFT
100
AcDbLine
 62
7
  6
CONTINUOUS
 10
1.2236394163
 20
9.4175733969
 11
1.2236394163
 21
7.8572032815
  0
LINE
  5
37E
100
AcDbEntity
  8
DRAFT
100
AcDbLine
 62
7
  6
CONTINUOUS
 10
1.2236394163
 20
6.3175733969
 11
1.2236394163
 21
4.7572032815
  0
LINE
  5
37F
100
AcDbEntity
  8
RACCORDO
100
AcDbLine
 62
7
  6
CONTINUOUS
 10
1.2368866119
 20
10.6571406398
 11
1.2368866118
 21
-3.2827985947
  0
LINE
  5
380
100
AcDbEntity
  8
DRAFT
100
AcDbLine
 62
7
  6
CONTINUOUS
 10
1.2480654207
 20
15.0094645587
 11
1.2480654207
 21
15.8653121197
  0
LINE
  5
381
100
AcDbEntity
  8
RACCORDO
100
AcDbLine
 62
7
  6
CONTINUOUS
 10
-8.7570085465
 20
-18.1505946123
 11
-8.7665338916
 21
-18.1735908296
  0
LINE
  5
382
100
AcDbEntity
  8
DRAFT
100
AcDbLine
 62
7
  6
CONTINUOUS
 10
-7.774364956
 20
-19.4126116608
 11
-7.7020637097
 21
-19.2380610115
  0
LINE
  5
383
100
AcDbEntity
  8
DRAFT
100
AcDbLine
 62
7
  6
CONTINUOUS
 10
9.825635044
 20
22.2873883392
 11
9.7533337978
 21
22.1128376899
  0
LINE
  5
384
100
AcDbEntity
  8
RACCORDO
100
AcDbLine
 62
253
  6
CONTINUOUS
 10
-8.9012447462
 20
-8.0733505746
 11
-8.7576562644
 21
-7.9297620928
  0
LINE
  5
385
100
AcDbEntity
  8
RACCORDO
100
AcDbLine
 62
253
  6
CONTINUOUS
 10
-4.2308590018
 20
-1.7533874137
 11
-4.4743649469
 21
-1.9273612944
  0
LINE
  5
386
100
AcDbEntity
  8
RACCORDO
100
AcDbLine
 62
253
  6
CONTINUOUS
 10
-3.9723778271
 20
-1.4223852269
 11
-4.2233713248
 21
-1.5853708013
  0
LINE
  5
387
100
AcDbEntity
  8
RACCORDO
100
AcDbLine
 62
253
  6
CONTINUOUS
 10
1.1571805867
 20
0.7957255664
 11
0.8677658332
 21
0.7195601966
  0
LINE
  5
388
100
AcDbEntity
  8
RACCORDO
100
AcDbLine
 62
7
  6
CONTINUOUS
 10
-8.5762471266
 20
0.1373883392
 11
-7.9911963286
 21
0.1373883392
  0
LINE
  5
389
100
AcDbEntity
  8
0
100
AcDbLine
 62
7
  6
CONTINUOUS
 10
-7.9911963286
 20
0.1373883392
 11
-7.424364956
 21
0.1373883392
  0
LINE
  5
38A
100
AcDbEntity
  8
0
100
AcDbLine
 62
7
  6
CONTINUOUS
 10
-1.024364956
 20
0.1373883392
 11
-0.4575335833
 21
0.1373883392
  0
LINE
  5
38B
100
AcDbEntity
  8
RACCORDO
100
AcDbLine
 62
7
  6
CONTINUOUS
 10
-0.4575335833
 20
0.1373883392
 11
0.0226556736
 21
0.1373883392
  0
LINE
  5
38C
100
AcDbEntity
  8
0
100
AcDbLine
 62
7
  6
CONTINUOUS
 10
-8.724364956
 20
0.454026934
 11
-8.0222276909
 21
0.454026934
  0
LINE
  5
38D
100
AcDbEntity
  8
0
100
AcDbLine
 62
7
  6
CONTINUOUS
 10
-0.0247314072
 20
0.454026934
 11
-0.426502221
 21
0.454026934
  0
LINE
  5
38E
100
AcDbEntity
  8
RACCORDO
100
AcDbLine
 62
253
  6
CONTINUOUS
 10
0.8677658332
 20
0.7195601966
 11
1.1677608573
 21
0.7195601966
  0
LINE
  5
38F
100
AcDbEntity
  8
0
100
AcDbLine
 62
253
  6
CONTINUOUS
 10
-8.724364956
 20
0.8447753349
 11
-7.434364956
 21
0.8447753349
  0
LINE
  5
390
100
AcDbEntity
  8
0
100
AcDbLine
 62
253
  6
CONTINUOUS
 10
-1.014364956
 20
0.8447753349
 11
-0.1718181932
 21
0.8447753349
  0
LINE
  5
391
100
AcDbEntity
  8
0
100
AcDbLine
 62
7
  6
CONTINUOUS
 10
-1.014364956
 20
1.1487132046
 11
-2.024364956
 21
1.1487132046
  0
LINE
  5
392
100
AcDbEntity
  8
0
100
AcDbLine
 62
7
  6
CONTINUOUS
 10
-6.424364956
 20
1.1487132046
 11
-7.434364956
 21
1.1487132046
  0
LINE
  5
393
100
AcDbEntity
  8
0
100
AcDbLine
 62
253
  6
CONTINUOUS
 10
-7.434364956
 20
1.2641832585
 11
-6.424364956
 21
1.2641832585
  0
LINE
  5
394
100
AcDbEntity
  8
0
100
AcDbLine
 62
253
  6
CONTINUOUS
 10
-1.014364956
 20
1.2641832585
 11
-2.024364956
 21
1.2641832585
  0
LINE
  5
395
100
AcDbEntity
  8
RACCORDO
100
AcDbLine
 62
253
  6
CONTINUOUS
 10
-9.4106342187
 20
1.5225636116
 11
-9.7105885273
 21
1.5225636116
  0
LINE
  5
396
100
AcDbEntity
  8
0
100
AcDbLine
 62
253
  6
CONTINUOUS
 10
-7.3085874092
 20
1.61059342
 11
-6.424364956
 21
1.61059342
  0
LINE
  5
397
100
AcDbEntity
  8
0
100
AcDbLine
 62
253
  6
CONTINUOUS
 10
-1.1426477941
 20
1.61059342
 11
-2.024364956
 21
1.61059342
  0
LINE
  5
398
100
AcDbEntity
  8
RACCORDO
100
AcDbLine
 62
7
  6
CONTINUOUS
 10
-8.6868763376
 20
20.856057161
 11
-8.7665338916
 21
21.0483675081
  0
LINE
  5
399
100
AcDbEntity
  8
DRAFT
100
AcDbLine
 62
7
  6
CONTINUOUS
 10
-7.774364956
 20
22.2873883392
 11
-7.7020637097
 21
22.1128376899
  0
LINE
  5
39A
100
AcDbEntity
  8
DRAFT
100
AcDbLine
 62
7
  6
CONTINUOUS
 10
9.825635044
 20
-19.4126116608
 11
9.7533337978
 21
-19.2380610115
  0
LINE
  5
39B
100
AcDbEntity
  8
RACCORDO
100
AcDbLine
 62
7
  6
CONTINUOUS
 10
1.295635044
 20
19.2373966324
 11
1.295635044
 21
15.9373883392
  0
LINE
  5
39C
100
AcDbEntity
  8
RACCORDO
100
AcDbLine
 62
7
  6
CONTINUOUS
 10
1.295635044
 20
14.9373883392
 11
1.295635044
 21
11.577380046
  0
LINE
  5
39D
100
AcDbEntity
  8
RACCORDO
100
AcDbLine
 62
253
  6
CONTINUOUS
 10
1.2985117933
 20
15.0264023907
 11
1.2985117933
 21
15.8483742878
  0
LINE
  5
39E
100
AcDbEntity
  8
RACCORDO
100
AcDbLine
 62
253
  6
CONTINUOUS
 10
1.5083339913
 20
-13.1555198118
 11
1.5083323072
 21
-17.9812804825
  0
LINE
  5
39F
100
AcDbEntity
  8
RACCORDO
100
AcDbLine
 62
253
  6
CONTINUOUS
 10
1.5185034164
 20
15.0263020537
 11
1.5185034164
 21
15.8484746248
  0
LINE
  5
3A0
100
AcDbEntity
  8
RACCORDO
100
AcDbLine
 62
7
  6
CONTINUOUS
 10
1.550635044
 20
14.994170426
 11
1.550635044
 21
15.8806062524
  0
LINE
  5
3A1
100
AcDbEntity
  8
RACCORDO
100
AcDbLine
 62
7
  6
CONTINUOUS
 10
1.560655777
 20
14.9955867255
 11
1.560655777
 21
15.8791899529
  0
LINE
  5
3A2
100
AcDbEntity
  8
RACCORDO
100
AcDbLine
 62
253
  6
CONTINUOUS
 10
1.7397415572
 20
10.5215114388
 11
1.7397415572
 21
11.0215031456
  0
LINE
  5
3A3
100
AcDbEntity
  8
RACCORDO
100
AcDbLine
 62
7
  6
CONTINUOUS
 10
1.7724883494
 20
15.2405255146
 11
1.7724883494
 21
15.6342511638
  0
LINE
  5
3A4
100
AcDbEntity
  8
RACCORDO
100
AcDbLine
 62
7
  6
CONTINUOUS
 10
1.825635044
 20
15.18737882
 11
1.825635044
 21
15.6873978585
  0
LINE
  5
3A5
100
AcDbEntity
  8
0
100
AcDbLine
 62
7
  6
CONTINUOUS
 10
2.025635044
 20
-22.3567904463
 11
2.025635044
 21
-20.9573756252
  0
LINE
  5
3A6
100
AcDbEntity
  8
0
100
AcDbLine
 62
7
  6
CONTINUOUS
 10
2.025635044
 20
23.8321523036
 11
2.025635044
 21
25.2315671247
  0
LINE
  5
3A7
100
AcDbEntity
  8
0
100
AcDbLine
 62
253
  6
CONTINUOUS
 10
2.225635044
 20
25.4373883392
 11
2.225635044
 21
25.4315705094
  0
LINE
  5
3A8
100
AcDbEntity
  8
0
100
AcDbLine
 62
253
  6
CONTINUOUS
 10
2.225635044
 20
-22.556793831
 11
2.225635044
 21
-22.5626116608
  0
LINE
  5
3A9
100
AcDbEntity
  8
RACCORDO
100
AcDbLine
 62
253
  6
CONTINUOUS
 10
1.1775622145
 20
-3.4625857635
 11
1.2368866118
 21
-3.2827985947
  0
LINE
  5
3AA
100
AcDbEntity
  8
RACCORDO
100
AcDbLine
 62
7
  6
CONTINUOUS
 10
10.7381464257
 20
20.856057161
 11
10.8178039796
 21
21.0483675081
  0
LINE
  5
3AB
100
AcDbEntity
  8
RACCORDO
100
AcDbLine
 62
253
  6
CONTINUOUS
 10
1.1764946523
 20
1.1376970689
 11
1.155886887
 21
1.1298804514
  0
LINE
  5
3AC
100
AcDbEntity
  8
0
100
AcDbLine
 62
7
  6
CONTINUOUS
 10
-6.9238065589
 20
1.7260634738
 11
-6.4688883513
 21
1.7260634738
  0
LINE
  5
3AD
100
AcDbEntity
  8
0
100
AcDbLine
 62
7
  6
CONTINUOUS
 10
-2.024364956
 20
1.7260634738
 11
-1.5278435652
 21
1.7260634738
  0
LINE
  5
3AE
100
AcDbEntity
  8
DRAFT
100
AcDbLine
 62
7
  6
CONTINUOUS
 10
9.575635044
 20
-5.5626116608
 11
9.5634174291
 21
-5.5503940459
  0
LINE
  5
3AF
100
AcDbEntity
  8
DRAFT
100
AcDbLine
 62
7
  6
CONTINUOUS
 10
9.5634174291
 20
-4.7626116608
 11
9.5058201017
 21
-4.7050143334
  0
LINE
  5
3B0
100
AcDbEntity
  8
RACCORDO
100
AcDbLine
 62
253
  6
CONTINUOUS
 10
10.6727541528
 20
-13.3968278628
 11
10.8089263525
 21
-13.6633221313
  0
LINE
  5
3B1
100
AcDbEntity
  8
RACCORDO
100
AcDbLine
 62
7
  6
CONTINUOUS
 10
10.7381464257
 20
-17.9812804825
 11
10.8178039796
 21
-18.1735908296
  0
LINE
  5
3B2
100
AcDbEntity
  8
RACCORDO
100
AcDbLine
 62
253
  6
CONTINUOUS
 10
3.425635044
 20
21.4373883392
 11
3.425635044
 21
21.3217752904
  0
LINE
  5
3B3
100
AcDbEntity
  8
RACCORDO
100
AcDbLine
 62
253
  6
CONTINUOUS
 10
3.425635044
 20
-18.4469986119
 11
3.425635044
 21
-18.5626116608
  0
LINE
  5
3B4
100
AcDbEntity
  8
DRAFT
100
AcDbLine
 62
7
  6
CONTINUOUS
 10
3.4731691217
 20
-16.9814327874
 11
3.4731691217
 21
-16.604466699
  0
LINE
  5
3B5
100
AcDbEntity
  8
DRAFT
100
AcDbLine
 62
7
  6
CONTINUOUS
 10
3.5172398041
 20
-16.6444647282
 11
3.5172398041
 21
-16.6338467396
  0
LINE
  5
3B6
100
AcDbEntity
  8
0
100
AcDbLine
 62
253
  6
CONTINUOUS
 10
3.5257397556
 20
-16.6529646797
 11
3.5257397556
 21
-17.1126116608
  0
LINE
  5
3B7
100
AcDbEntity
  8
0
100
AcDbLine
 62
7
  6
CONTINUOUS
 10
4.025635044
 20
-20.9162666807
 11
4.025635044
 21
-19.3626116608
  0
LINE
  5
3B8
100
AcDbEntity
  8
0
100
AcDbLine
 62
7
  6
CONTINUOUS
 10
4.025635044
 20
22.2373883392
 11
4.025635044
 21
23.7910433592
  0
LINE
  5
3B9
100
AcDbEntity
  8
RACCORDO
100
AcDbLine
 62
7
  6
CONTINUOUS
 10
4.425635044
 20
21.4373883392
 11
4.425635044
 21
21.3373883392
  0
LINE
  5
3BA
100
AcDbEntity
  8
RACCORDO
100
AcDbLine
 62
7
  6
CONTINUOUS
 10
4.425635044
 20
-18.4626116608
 11
4.425635044
 21
-18.5626116608
  0
LINE
  5
3BB
100
AcDbEntity
  8
0
100
AcDbLine
 62
7
  6
CONTINUOUS
 10
4.525635044
 20
-9.0816031045
 11
4.525635044
 21
-12.243620217
  0
LINE
  5
3BC
100
AcDbEntity
  8
0
100
AcDbLine
 62
7
  6
CONTINUOUS
 10
4.525635044
 20
-20.9187047477
 11
4.525635044
 21
-22.5167596049
  0
LINE
  5
3BD
100
AcDbEntity
  8
0
100
AcDbLine
 62
7
  6
CONTINUOUS
 10
4.525635044
 20
-22.5189610139
 11
4.525635044
 21
-22.556793831
  0
LINE
  5
3BE
100
AcDbEntity
  8
0
100
AcDbLine
 62
7
  6
CONTINUOUS
 10
4.525635044
 20
23.7934814261
 11
4.525635044
 21
25.4315705094
  0
LINE
  5
3BF
100
AcDbEntity
  8
RACCORDO
100
AcDbLine
 62
253
  6
CONTINUOUS
 10
4.8306659302
 20
14.5139920447
 11
4.8306659302
 21
12.4412111647
  0
LINE
  5
3C0
100
AcDbEntity
  8
0
100
AcDbLine
 62
7
  6
CONTINUOUS
 10
2.9801984093
 20
-17.9812804825
 11
2.9733798762
 21
-18.0693634661
  0
LINE
  5
3C1
100
AcDbEntity
  8
RACCORDO
100
AcDbLine
 62
253
  6
CONTINUOUS
 10
1.677520248
 20
-3.9626116608
 11
1.7368446452
 21
-3.782824492
  0
LINE
  5
3C2
100
AcDbEntity
  8
DRAFT
100
AcDbLine
 62
7
  6
CONTINUOUS
 10
1.025635044
 20
4.6873883392
 11
1.1775622145
 21
4.6873883392
  0
LINE
  5
3C3
100
AcDbEntity
  8
DRAFT
100
AcDbLine
 62
7
  6
CONTINUOUS
 10
1.0954499864
 20
4.7572032815
 11
1.2236394163
 21
4.7572032815
  0
LINE
  5
3C4
100
AcDbEntity
  8
RACCORDO
100
AcDbLine
 62
253
  6
CONTINUOUS
 10
10.3957111965
 20
-3.9626116608
 11
10.2159240277
 21
-3.782824492
  0
LINE
  5
3C5
100
AcDbEntity
  8
DRAFT
100
AcDbLine
 62
7
  6
CONTINUOUS
 10
1.025635044
 20
6.3873883392
 11
1.0954499864
 21
6.3175733969
  0
LINE
  5
3C6
100
AcDbEntity
  8
RACCORDO
100
AcDbLine
 62
253
  6
CONTINUOUS
 10
10.8955694029
 20
-3.462622172
 11
10.7158478753
 21
-3.2829006444
  0
LINE
  5
3C7
100
AcDbEntity
  8
DRAFT
100
AcDbLine
 62
7
  6
CONTINUOUS
 10
1.2236394163
 20
6.3175733969
 11
1.1775622145
 21
6.3873883392
  0
LINE
  5
3C8
100
AcDbEntity
  8
0
100
AcDbLine
 62
253
  6
CONTINUOUS
 10
-6.9742602444
 20
19.9873883392
 11
-7.5266201238
 21
20.9441401446
  0
LINE
  5
3C9
100
AcDbEntity
  8
0
100
AcDbLine
 62
7
  6
CONTINUOUS
 10
4.893696044
 20
-12.0088099001
 11
4.893696044
 21
-9.3164134214
  0
LINE
  5
3CA
100
AcDbEntity
  8
RACCORDO
100
AcDbLine
 62
7
  6
CONTINUOUS
 10
5.125635044
 20
19.7373883392
 11
5.125635044
 21
19.48737882
  0
LINE
  5
3CB
100
AcDbEntity
  8
RACCORDO
100
AcDbLine
 62
7
  6
CONTINUOUS
 10
5.125635044
 20
11.0773883392
 11
5.125635044
 21
11.3873978585
  0
LINE
  5
3CC
100
AcDbEntity
  8
RACCORDO
100
AcDbLine
 62
7
  6
CONTINUOUS
 10
5.2146490955
 20
19.7961367715
 11
5.2146490955
 21
19.7645115899
  0
LINE
  5
3CD
100
AcDbEntity
  8
RACCORDO
100
AcDbLine
 62
7
  6
CONTINUOUS
 10
5.2146490955
 20
10.8333293506
 11
5.2146490955
 21
10.5215114388
  0
LINE
  5
3CE
100
AcDbEntity
  8
0
100
AcDbLine
 62
7
  6
CONTINUOUS
 10
5.431712797
 20
25.3912806123
 11
5.431712797
 21
23.7934660922
  0
LINE
  5
3CF
100
AcDbEntity
  8
0
100
AcDbLine
 62
7
  6
CONTINUOUS
 10
5.431712797
 20
-20.9186894137
 11
5.431712797
 21
-22.5165039338
  0
LINE
  5
3D0
100
AcDbEntity
  8
0
100
AcDbLine
 62
7
  6
CONTINUOUS
 10
5.475635044
 20
-22.5626116608
 11
5.475635044
 21
-21.930556608
  0
LINE
  5
3D1
100
AcDbEntity
  8
0
100
AcDbLine
 62
7
  6
CONTINUOUS
 10
5.475635044
 20
-21.4946667136
 11
5.475635044
 21
-20.9626116608
  0
LINE
  5
3D2
100
AcDbEntity
  8
0
100
AcDbLine
 62
7
  6
CONTINUOUS
 10
5.475635044
 20
23.8373883392
 11
5.475635044
 21
24.369443392
  0
LINE
  5
3D3
100
AcDbEntity
  8
0
100
AcDbLine
 62
7
  6
CONTINUOUS
 10
5.475635044
 20
24.8053332864
 11
5.475635044
 21
25.4373883392
  0
LINE
  5
3D4
100
AcDbEntity
  8
RACCORDO
100
AcDbLine
 62
7
  6
CONTINUOUS
 10
6.0366209926
 20
10.5215114388
 11
6.0366209926
 21
10.8333293506
  0
LINE
  5
3D5
100
AcDbEntity
  8
RACCORDO
100
AcDbLine
 62
7
  6
CONTINUOUS
 10
6.0366209926
 20
19.7645115899
 11
6.0366209926
 21
19.7961367715
  0
LINE
  5
3D6
100
AcDbEntity
  8
RACCORDO
100
AcDbLine
 62
7
  6
CONTINUOUS
 10
6.125635044
 20
19.7373883392
 11
6.125635044
 21
19.48737882
  0
LINE
  5
3D7
100
AcDbEntity
  8
RACCORDO
100
AcDbLine
 62
7
  6
CONTINUOUS
 10
6.125635044
 20
11.0773883392
 11
6.125635044
 21
11.3873978585
  0
LINE
  5
3D8
100
AcDbEntity
  8
RACCORDO
100
AcDbLine
 62
253
  6
CONTINUOUS
 10
6.3286102323
 20
15.4368576365
 11
6.3286102323
 21
12.4182276735
  0
LINE
  5
3D9
100
AcDbEntity
  8
RACCORDO
100
AcDbLine
 62
7
  6
CONTINUOUS
 10
6.3327244492
 20
12.4192175933
 11
6.3327244492
 21
15.4368576365
  0
LINE
  5
3DA
100
AcDbEntity
  8
0
100
AcDbLine
 62
7
  6
CONTINUOUS
 10
3.2208386569
 20
-12.2553881709
 11
3.2052431692
 21
-12.3170209384
  0
LINE
  5
3DB
100
AcDbEntity
  8
0
100
AcDbLine
 62
7
  6
CONTINUOUS
 10
3.3349599441
 20
-12.284265296
 11
3.3179124869
 21
-12.3516361909
  0
LINE
  5
3DC
100
AcDbEntity
  8
DRAFT
100
AcDbLine
 62
7
  6
CONTINUOUS
 10
-1.465969716
 20
-6.5444647282
 11
-1.4744696675
 21
-6.5529646797
  0
LINE
  5
3DD
100
AcDbEntity
  8
DRAFT
100
AcDbLine
 62
7
  6
CONTINUOUS
 10
-1.465969716
 20
-6.5338467396
 11
-1.4218990337
 21
-6.504466699
  0
LINE
  5
3DE
100
AcDbEntity
  8
DRAFT
100
AcDbLine
 62
7
  6
CONTINUOUS
 10
1.2236394163
 20
6.3175733969
 11
1.0954499864
 21
6.3175733969
  0
LINE
  5
3DF
100
AcDbEntity
  8
DRAFT
100
AcDbLine
 62
7
  6
CONTINUOUS
 10
1.1775622145
 20
6.3873883392
 11
1.025635044
 21
6.3873883392
  0
LINE
  5
3E0
100
AcDbEntity
  8
RACCORDO
100
AcDbLine
 62
253
  6
CONTINUOUS
 10
-4.7178709706
 20
11.7466126286
 11
-4.4743649951
 21
11.5726387061
  0
LINE
  5
3E1
100
AcDbEntity
  8
RACCORDO
100
AcDbLine
 62
253
  6
CONTINUOUS
 10
-9.370600566
 20
15.1430574702
 11
-9.6102305159
 21
15.3223324744
  0
LINE
  5
3E2
100
AcDbEntity
  8
DRAFT
100
AcDbLine
 62
7
  6
CONTINUOUS
 10
0.025635044
 20
9.4873883392
 11
0.0378526589
 21
9.4751707243
  0
LINE
  5
3E3
100
AcDbEntity
  8
DRAFT
100
AcDbLine
 62
7
  6
CONTINUOUS
 10
0.425635044
 20
9.4751707243
 11
0.4832323715
 21
9.4175733969
  0
LINE
  5
3E4
100
AcDbEntity
  8
DRAFT
100
AcDbLine
 62
7
  6
CONTINUOUS
 10
1.2236394163
 20
9.4175733969
 11
1.1775622145
 21
9.4873883392
  0
LINE
  5
3E5
100
AcDbEntity
  8
DRAFT
100
AcDbLine
 62
7
  6
CONTINUOUS
 10
9.575635044
 20
-3.9626116608
 11
9.5058201017
 21
-3.8229711414
  0
LINE
  5
3E6
100
AcDbEntity
  8
0
100
AcDbLine
 62
253
  6
CONTINUOUS
 10
9.0032418317
 20
-12.3381798676
 11
9.0436540496
 21
-12.4978873979
  0
LINE
  5
3E7
100
AcDbEntity
  8
0
100
AcDbLine
 62
7
  6
CONTINUOUS
 10
9.2741835918
 20
-12.5129789347
 11
9.216310144
 21
-12.284265296
  0
LINE
  5
3E8
100
AcDbEntity
  8
0
100
AcDbLine
 62
7
  6
CONTINUOUS
 10
9.3304314312
 20
-12.2553881709
 11
9.3945283343
 21
-12.5086966656
  0
LINE
  5
3E9
100
AcDbEntity
  8
0
100
AcDbLine
 62
7
  6
CONTINUOUS
 10
9.5710716788
 20
-17.9812804825
 11
9.5778902119
 21
-18.0693634661
  0
LINE
  5
3EA
100
AcDbEntity
  8
0
100
AcDbLine
 62
253
  6
CONTINUOUS
 10
8.280006878
 20
-22.4069492281
 11
8.275635044
 21
-21.973096809
  0
LINE
  5
3EB
100
AcDbEntity
  8
0
100
AcDbLine
 62
253
  6
CONTINUOUS
 10
8.5300026473
 20
-22.1904428771
 11
8.5249120462
 21
-21.6852613916
  0
LINE
  5
3EC
100
AcDbEntity
  8
DRAFT
100
AcDbLine
 62
7
  6
CONTINUOUS
 10
6.6866142129
 20
21.2483675081
 11
6.6866142129
 21
21.0483675081
  0
LINE
  5
3ED
100
AcDbEntity
  8
DRAFT
100
AcDbLine
 62
7
  6
CONTINUOUS
 10
6.6866142129
 20
-18.3735908296
 11
6.6866142129
 21
-18.1735908296
  0
LINE
  5
3EE
100
AcDbEntity
  8
DRAFT
100
AcDbLine
 62
7
  6
CONTINUOUS
 10
6.775635044
 20
-18.2626116608
 11
6.775635044
 21
-18.4626116608
  0
LINE
  5
3EF
100
AcDbEntity
  8
DRAFT
100
AcDbLine
 62
7
  6
CONTINUOUS
 10
6.775635044
 20
21.1373883392
 11
6.775635044
 21
21.3373883392
  0
LINE
  5
3F0
100
AcDbEntity
  8
0
100
AcDbLine
 62
7
  6
CONTINUOUS
 10
7.3327244492
 20
17.4334324125
 11
7.3327244492
 21
12.8499445503
  0
LINE
  5
3F1
100
AcDbEntity
  8
RACCORDO
100
AcDbLine
 62
253
  6
CONTINUOUS
 10
7.4476972653
 20
17.7427630261
 11
7.4476972653
 21
17.846477397
  0
LINE
  5
3F2
100
AcDbEntity
  8
0
100
AcDbLine
 62
7
  6
CONTINUOUS
 10
7.657574044
 20
-11.5592894617
 11
7.657574044
 21
-9.7659338598
  0
LINE
  5
3F3
100
AcDbEntity
  8
DRAFT
100
AcDbLine
 62
7
  6
CONTINUOUS
 10
7.875635044
 20
-5.5626116608
 11
7.875635044
 21
-3.9626116608
  0
LINE
  5
3F4
100
AcDbEntity
  8
DRAFT
100
AcDbLine
 62
7
  6
CONTINUOUS
 10
7.8878526589
 20
-5.5503940459
 11
7.8878526589
 21
-4.7626116608
  0
LINE
  5
3F5
100
AcDbEntity
  8
DRAFT
100
AcDbLine
 62
7
  6
CONTINUOUS
 10
7.9454499864
 20
-3.8229711414
 11
7.9454499864
 21
-4.7050143334
  0
LINE
  5
3F6
100
AcDbEntity
  8
0
100
AcDbLine
 62
7
  6
CONTINUOUS
 10
8.025635044
 20
-9.2988648943
 11
8.025635044
 21
-12.0263584273
  0
LINE
  5
3F7
100
AcDbEntity
  8
RACCORDO
100
AcDbLine
 62
253
  6
CONTINUOUS
 10
8.1424795714
 20
13.6276923679
 11
8.1424795714
 21
17.048932895
  0
LINE
  5
3F8
100
AcDbEntity
  8
RACCORDO
100
AcDbLine
 62
253
  6
CONTINUOUS
 10
8.2417341866
 20
13.7743394429
 11
8.2417341866
 21
17.0535286757
  0
LINE
  5
3F9
100
AcDbEntity
  8
0
100
AcDbLine
 62
7
  6
CONTINUOUS
 10
8.275635044
 20
-20.9626116608
 11
8.275635044
 21
-22.4069492281
  0
LINE
  5
3FA
100
AcDbEntity
  8
0
100
AcDbLine
 62
7
  6
CONTINUOUS
 10
8.275635044
 20
23.8373883392
 11
8.275635044
 21
25.2817259065
  0
LINE
  5
3FB
100
AcDbEntity
  8
0
100
AcDbLine
 62
7
  6
CONTINUOUS
 10
8.280006878
 20
25.683020736
 11
8.280006878
 21
25.2817259065
  0
LINE
  5
3FC
100
AcDbEntity
  8
0
100
AcDbLine
 62
7
  6
CONTINUOUS
 10
8.280006878
 20
-22.4069492281
 11
8.280006878
 21
-22.8082440576
  0
LINE
  5
3FD
100
AcDbEntity
  8
RACCORDO
100
AcDbLine
 62
7
  6
CONTINUOUS
 10
8.325635044
 20
22.0373883392
 11
8.325635044
 21
21.5373883392
  0
LINE
  5
3FE
100
AcDbEntity
  8
RACCORDO
100
AcDbLine
 62
7
  6
CONTINUOUS
 10
8.325635044
 20
-18.6626116608
 11
8.325635044
 21
-19.1626116608
  0
LINE
  5
3FF
100
AcDbEntity
  8
DRAFT
100
AcDbLine
 62
7
  6
CONTINUOUS
 10
8.3332323715
 20
-4.8050143334
 11
8.3332323715
 21
-4.7050143334
  0
LINE
  5
400
100
AcDbEntity
  8
RACCORDO
100
AcDbLine
 62
253
  6
CONTINUOUS
 10
8.3597357632
 20
-19.3015273634
 11
8.3597357632
 21
-19.8985986094
  0
LINE
  5
401
100
AcDbEntity
  8
RACCORDO
100
AcDbLine
 62
253
  6
CONTINUOUS
 10
8.3597357632
 20
22.1763040419
 11
8.3597357632
 21
22.7733752879
  0
LINE
  5
402
100
AcDbEntity
  8
DRAFT
100
AcDbLine
 62
7
  6
CONTINUOUS
 10
8.425635044
 20
-19.3270818426
 11
8.425635044
 21
-18.2626116608
  0
LINE
  5
403
100
AcDbEntity
  8
DRAFT
100
AcDbLine
 62
7
  6
CONTINUOUS
 10
8.425635044
 20
21.1373883392
 11
8.425635044
 21
22.2018585211
  0
LINE
  5
404
100
AcDbEntity
  8
0
100
AcDbLine
 62
253
  6
CONTINUOUS
 10
8.275635044
 20
24.8478734874
 11
8.280006878
 21
25.2817259065
  0
LINE
  5
405
100
AcDbEntity
  8
0
100
AcDbLine
 62
253
  6
CONTINUOUS
 10
8.5249120462
 20
24.56003807
 11
8.5300026473
 21
25.0652195556
  0
LINE
  5
406
100
AcDbEntity
  8
0
100
AcDbLine
 62
253
  6
CONTINUOUS
 10
3.5480282564
 20
-12.3381798676
 11
3.5334719734
 21
-12.3957057377
  0
LINE
  5
407
100
AcDbEntity
  8
RACCORDO
100
AcDbLine
 62
253
  6
CONTINUOUS
 10
0.0085607644
 20
-7.9297620928
 11
-0.1350277173
 21
-8.0733505746
  0
LINE
  5
408
100
AcDbEntity
  8
RACCORDO
100
AcDbLine
 62
253
  6
CONTINUOUS
 10
-9.3411208699
 20
-17.566482289
 11
-8.6341217845
 21
-16.8594832036
  0
LINE
  5
409
100
AcDbEntity
  8
RACCORDO
100
AcDbLine
 62
253
  6
CONTINUOUS
 10
0.508484612
 20
-8.4296859404
 11
0.3648961303
 21
-8.5732744221
  0
LINE
  5
40A
100
AcDbEntity
  8
DRAFT
100
AcDbLine
 62
7
  6
CONTINUOUS
 10
0.025635044
 20
7.7873883392
 11
1.1775622145
 21
7.7873883392
  0
LINE
  5
40B
100
AcDbEntity
  8
DRAFT
100
AcDbLine
 62
7
  6
CONTINUOUS
 10
0.0378526589
 20
7.7996059541
 11
0.425635044
 21
7.7996059541
  0
LINE
  5
40C
100
AcDbEntity
  8
DRAFT
100
AcDbLine
 62
7
  6
CONTINUOUS
 10
0.4832323715
 20
7.8572032815
 11
1.2236394163
 21
7.8572032815
  0
LINE
  5
40D
100
AcDbEntity
  8
0
100
AcDbLine
 62
7
  6
CONTINUOUS
 10
0.275635044
 20
7.8920221828
 11
0.0378526589
 21
7.8920221828
  0
LINE
  5
40E
100
AcDbEntity
  8
0
100
AcDbLine
 62
7
  6
CONTINUOUS
 10
0.0378526589
 20
8.0920221828
 11
0.275635044
 21
8.0920221828
  0
LINE
  5
40F
100
AcDbEntity
  8
RACCORDO
100
AcDbLine
 62
253
  6
CONTINUOUS
 10
-4.9763520849
 20
12.0776147748
 11
-4.7253585863
 21
11.9146292015
  0
LINE
  5
410
100
AcDbEntity
  8
RACCORDO
100
AcDbLine
 62
253
  6
CONTINUOUS
 10
-8.4648076547
 20
19.6641276731
 11
-9.1718067401
 21
20.3711267585
  0
LINE
  5
411
100
AcDbEntity
  8
RACCORDO
100
AcDbLine
 62
253
  6
CONTINUOUS
 10
8.4717246005
 20
14.209031884
 11
8.4717246005
 21
16.6657447945
  0
LINE
  5
412
100
AcDbEntity
  8
DRAFT
100
AcDbLine
 62
7
  6
CONTINUOUS
 10
8.5146558752
 20
22.1128376899
 11
8.5146558752
 21
21.0483675081
  0
LINE
  5
413
100
AcDbEntity
  8
DRAFT
100
AcDbLine
 62
7
  6
CONTINUOUS
 10
8.5146558752
 20
-18.1735908296
 11
8.5146558752
 21
-19.2380610115
  0
LINE
  5
414
100
AcDbEntity
  8
0
100
AcDbLine
 62
253
  6
CONTINUOUS
 10
8.5300026473
 20
-22.1904428771
 11
8.5300026473
 21
-23.0582398268
  0
LINE
  5
415
100
AcDbEntity
  8
0
100
AcDbLine
 62
253
  6
CONTINUOUS
 10
8.5300026473
 20
25.0652195556
 11
8.5300026473
 21
25.9330165052
  0
LINE
  5
416
100
AcDbEntity
  8
RACCORDO
100
AcDbLine
 62
7
  6
CONTINUOUS
 10
8.6994524467
 20
15.838698127
 11
8.6994524467
 21
15.0360785515
  0
LINE
  5
417
100
AcDbEntity
  8
ASSI
100
AcDbLine
 62
253
  6
CONTINUOUS
 10
8.8596596108
 20
-19.4626116608
 11
8.8596596108
 21
-20.378587094
  0
LINE
  5
418
100
AcDbEntity
  8
ASSI
100
AcDbLine
 62
253
  6
CONTINUOUS
 10
8.8596596108
 20
22.3373883392
 11
8.8596596108
 21
23.2533637725
  0
LINE
  5
419
100
AcDbEntity
  8
0
100
AcDbLine
 62
253
  6
CONTINUOUS
 10
9.0255303325
 20
-16.6529646797
 11
9.0255303325
 21
-17.1126116608
  0
LINE
  5
41A
100
AcDbEntity
  8
RACCORDO
100
AcDbLine
 62
7
  6
CONTINUOUS
 10
9.025635044
 20
-19.4626116608
 11
9.025635044
 21
-20.2126116608
  0
LINE
  5
41B
100
AcDbEntity
  8
RACCORDO
100
AcDbLine
 62
7
  6
CONTINUOUS
 10
9.025635044
 20
22.3373883392
 11
9.025635044
 21
23.0873883392
  0
LINE
  5
41C
100
AcDbEntity
  8
DRAFT
100
AcDbLine
 62
7
  6
CONTINUOUS
 10
9.034030284
 20
-16.6444647282
 11
9.034030284
 21
-16.6338467396
  0
LINE
  5
41D
100
AcDbEntity
  8
DRAFT
100
AcDbLine
 62
7
  6
CONTINUOUS
 10
9.0781009663
 20
-16.9814327874
 11
9.0781009663
 21
-16.604466699
  0
LINE
  5
41E
100
AcDbEntity
  8
DRAFT
100
AcDbLine
 62
7
  6
CONTINUOUS
 10
9.2180377166
 20
-4.7050143334
 11
9.2180377166
 21
-4.8050143334
  0
LINE
  5
41F
100
AcDbEntity
  8
RACCORDO
100
AcDbLine
 62
7
  6
CONTINUOUS
 10
9.425635044
 20
15.6873978585
 11
9.425635044
 21
15.18737882
  0
LINE
  5
420
100
AcDbEntity
  8
RACCORDO
100
AcDbLine
 62
7
  6
CONTINUOUS
 10
9.4786944733
 20
15.6343384292
 11
9.4786944733
 21
15.2404382493
  0
LINE
  5
421
100
AcDbEntity
  8
DRAFT
100
AcDbLine
 62
7
  6
CONTINUOUS
 10
9.5058201017
 20
-3.8229711414
 11
9.5058201017
 21
-4.7050143334
  0
LINE
  5
422
100
AcDbEntity
  8
DRAFT
100
AcDbLine
 62
7
  6
CONTINUOUS
 10
9.5634174291
 20
-5.5503940459
 11
9.5634174291
 21
-4.7626116608
  0
LINE
  5
423
100
AcDbEntity
  8
DRAFT
100
AcDbLine
 62
7
  6
CONTINUOUS
 10
9.575635044
 20
-5.5626116608
 11
9.575635044
 21
-3.9626116608
  0
LINE
  5
424
100
AcDbEntity
  8
0
100
AcDbLine
 62
7
  6
CONTINUOUS
 10
9.6738617714
 20
-12.2126116608
 11
9.6738617714
 21
-12.4691300119
  0
LINE
  5
425
100
AcDbEntity
  8
RACCORDO
100
AcDbLine
 62
253
  6
CONTINUOUS
 10
10.145655777
 20
15.4518498035
 11
10.145655777
 21
15.8785589998
  0
LINE
  5
426
100
AcDbEntity
  8
RACCORDO
100
AcDbLine
 62
253
  6
CONTINUOUS
 10
10.2071447122
 20
11.0215031456
 11
10.2071447122
 21
10.5215114388
  0
LINE
  5
427
100
AcDbEntity
  8
RACCORDO
100
AcDbLine
 62
253
  6
CONTINUOUS
 10
10.145655777
 20
15.4229268749
 11
10.145655777
 21
14.9962176787
  0
LINE
  5
428
100
AcDbEntity
  8
DRAFT
100
AcDbLine
 62
7
  6
CONTINUOUS
 10
7.875635044
 20
-3.9626116608
 11
7.9454499864
 21
-3.8229711414
  0
LINE
  5
429
100
AcDbEntity
  8
0
100
AcDbLine
 62
7
  6
CONTINUOUS
 10
0.0378526589
 20
8.8920221828
 11
0.275635044
 21
8.8920221828
  0
LINE
  5
42A
100
AcDbEntity
  8
DRAFT
100
AcDbLine
 62
7
  6
CONTINUOUS
 10
1.2236394163
 20
9.4175733969
 11
0.4832323715
 21
9.4175733969
  0
LINE
  5
42B
100
AcDbEntity
  8
DRAFT
100
AcDbLine
 62
7
  6
CONTINUOUS
 10
0.425635044
 20
9.4751707243
 11
0.0378526589
 21
9.4751707243
  0
LINE
  5
42C
100
AcDbEntity
  8
DRAFT
100
AcDbLine
 62
7
  6
CONTINUOUS
 10
1.1775622145
 20
9.4873883392
 11
0.025635044
 21
9.4873883392
  0
LINE
  5
42D
100
AcDbEntity
  8
RACCORDO
100
AcDbLine
 62
253
  6
CONTINUOUS
 10
10.2071447122
 20
10.5215114388
 11
6.0366209926
 21
10.5215114388
  0
LINE
  5
42E
100
AcDbEntity
  8
RACCORDO
100
AcDbLine
 62
253
  6
CONTINUOUS
 10
5.2146490955
 20
10.5215114388
 11
1.7397415572
 21
10.5215114388
  0
LINE
  5
42F
100
AcDbEntity
  8
RACCORDO
100
AcDbLine
 62
253
  6
CONTINUOUS
 10
-3.9723778271
 20
14.9971619034
 11
-4.2233713257
 21
15.1601474768
  0
LINE
  5
430
100
AcDbEntity
  8
RACCORDO
100
AcDbLine
 62
253
  6
CONTINUOUS
 10
-4.4743649718
 20
15.5021379897
 11
-4.2308590014
 21
15.3281640906
  0
LINE
  5
431
100
AcDbEntity
  8
DRAFT
100
AcDbLine
 62
7
  6
CONTINUOUS
 10
1.295635044
 20
14.9373883392
 11
1.2480654207
 21
15.0094645587
  0
LINE
  5
432
100
AcDbEntity
  8
0
100
AcDbLine
 62
253
  6
CONTINUOUS
 10
10.9212674408
 20
25.0652195556
 11
10.9263580419
 21
24.56003807
  0
LINE
  5
433
100
AcDbEntity
  8
0
100
AcDbLine
 62
253
  6
CONTINUOUS
 10
11.17126321
 20
25.2817259065
 11
11.175635044
 21
24.8478734874
  0
LINE
  5
434
100
AcDbEntity
  8
0
100
AcDbLine
 62
7
  6
CONTINUOUS
 10
10.275635044
 20
-12.2126116608
 11
10.275635044
 21
-9.1063212749
  0
LINE
  5
435
100
AcDbEntity
  8
RACCORDO
100
AcDbLine
 62
7
  6
CONTINUOUS
 10
10.3231562909
 20
-9.4650904139
 11
10.3231562909
 21
-12.1874014866
  0
LINE
  5
436
100
AcDbEntity
  8
RACCORDO
100
AcDbLine
 62
7
  6
CONTINUOUS
 10
10.4907249142
 20
-9.2677090398
 11
10.4907249142
 21
-9.2975217906
  0
LINE
  5
437
100
AcDbEntity
  8
RACCORDO
100
AcDbLine
 62
7
  6
CONTINUOUS
 10
10.537806213
 20
11.5773463727
 11
10.537806213
 21
14.9373883392
  0
LINE
  5
438
100
AcDbEntity
  8
RACCORDO
100
AcDbLine
 62
7
  6
CONTINUOUS
 10
10.537806213
 20
15.9373883392
 11
10.537806213
 21
19.2374303058
  0
LINE
  5
439
100
AcDbEntity
  8
RACCORDO
100
AcDbLine
 62
7
  6
CONTINUOUS
 10
10.7158478753
 20
15.4518498035
 11
10.7158478753
 21
15.4229268749
  0
LINE
  5
43A
100
AcDbEntity
  8
RACCORDO
100
AcDbLine
 62
7
  6
CONTINUOUS
 10
10.7158478753
 20
-3.2829006444
 11
10.7158478749
 21
10.6605342473
  0
LINE
  5
43B
100
AcDbEntity
  8
RACCORDO
100
AcDbLine
 62
253
  6
CONTINUOUS
 10
10.8089237445
 20
-13.6633233676
 11
10.8089263525
 21
-16.0823519093
  0
LINE
  5
43C
100
AcDbEntity
  8
RACCORDO
100
AcDbLine
 62
253
  6
CONTINUOUS
 10
10.8089237468
 20
-7.661899955
 11
10.8089263525
 21
-3.7440925582
  0
LINE
  5
43D
100
AcDbEntity
  8
RACCORDO
100
AcDbLine
 62
7
  6
CONTINUOUS
 10
10.8955694029
 20
18.9571285877
 11
10.8955694029
 21
-3.462622172
  0
LINE
  5
43E
100
AcDbEntity
  8
0
100
AcDbLine
 62
253
  6
CONTINUOUS
 10
10.9212674408
 20
-22.1904428771
 11
10.9212674408
 21
-23.0582398268
  0
LINE
  5
43F
100
AcDbEntity
  8
0
100
AcDbLine
 62
253
  6
CONTINUOUS
 10
10.9212674408
 20
25.0652195556
 11
10.9212674408
 21
25.9330165052
  0
LINE
  5
440
100
AcDbEntity
  8
0
100
AcDbLine
 62
7
  6
CONTINUOUS
 10
11.17126321
 20
-22.8082440576
 11
11.17126321
 21
-22.4069492281
  0
LINE
  5
441
100
AcDbEntity
  8
0
100
AcDbLine
 62
7
  6
CONTINUOUS
 10
11.17126321
 20
25.2817259065
 11
11.17126321
 21
25.683020736
  0
LINE
  5
442
100
AcDbEntity
  8
0
100
AcDbLine
 62
7
  6
CONTINUOUS
 10
11.175635044
 20
-20.9626116608
 11
11.175635044
 21
-22.4069492281
  0
LINE
  5
443
100
AcDbEntity
  8
0
100
AcDbLine
 62
7
  6
CONTINUOUS
 10
11.175635044
 20
23.8373883392
 11
11.175635044
 21
25.2817259065
  0
LINE
  5
444
100
AcDbEntity
  8
RACCORDO
100
AcDbLine
 62
253
  6
CONTINUOUS
 10
11.4619043068
 20
-12.1310266969
 11
11.4619043068
 21
-11.8751407163
  0
LINE
  5
445
100
AcDbEntity
  8
RACCORDO
100
AcDbLine
 62
253
  6
CONTINUOUS
 10
11.4619043068
 20
-9.4500826052
 11
11.4619043068
 21
-9.1941964298
  0
LINE
  5
446
100
AcDbEntity
  8
RACCORDO
100
AcDbLine
 62
253
  6
CONTINUOUS
 10
11.7618586154
 20
-12.1310266969
 11
11.7618586154
 21
-11.9504146283
  0
LINE
  5
447
100
AcDbEntity
  8
RACCORDO
100
AcDbLine
 62
253
  6
CONTINUOUS
 10
11.7618586154
 20
-9.3748086932
 11
11.7618586154
 21
-9.1941964298
  0
LINE
  5
448
100
AcDbEntity
  8
RACCORDO
100
AcDbLine
 62
253
  6
CONTINUOUS
 10
11.8087740477
 20
18.9571285877
 11
11.8087740477
 21
-8.950446647
  0
LINE
  5
449
100
AcDbEntity
  8
RACCORDO
100
AcDbLine
 62
253
  6
CONTINUOUS
 10
11.8087740477
 20
-12.3747766083
 11
11.8087740477
 21
-16.0823519093
  0
LINE
  5
44A
100
AcDbEntity
  8
RACCORDO
100
AcDbLine
 62
7
  6
CONTINUOUS
 10
10.5527912022
 20
-9.3243213165
 11
10.5482809213
 21
-12.0051571846
  0
LINE
  5
44B
100
AcDbEntity
  8
0
100
AcDbLine
 62
253
  6
CONTINUOUS
 10
10.9263580419
 20
-21.6852613916
 11
10.9212674408
 21
-22.1904428771
  0
LINE
  5
44C
100
AcDbEntity
  8
0
100
AcDbLine
 62
253
  6
CONTINUOUS
 10
11.175635044
 20
-21.973096809
 11
11.17126321
 21
-22.4069492281
  0
LINE
  5
44D
100
AcDbEntity
  8
RACCORDO
100
AcDbLine
 62
253
  6
CONTINUOUS
 10
1.7096923484
 20
-12.9341223524
 11
1.5083323072
 21
-13.1555183706
  0
LINE
  5
44E
100
AcDbEntity
  8
DRAFT
100
AcDbLine
 62
7
  6
CONTINUOUS
 10
7.8878526589
 20
-4.7626116608
 11
7.9454499864
 21
-4.7050143334
  0
LINE
  5
44F
100
AcDbEntity
  8
DRAFT
100
AcDbLine
 62
7
  6
CONTINUOUS
 10
-6.4598947741
 20
-19.4126116608
 11
-6.374364956
 21
-19.3270818426
  0
LINE
  5
450
100
AcDbEntity
  8
DRAFT
100
AcDbLine
 62
7
  6
CONTINUOUS
 10
7.8878526589
 20
-5.5503940459
 11
7.875635044
 21
-5.5626116608
  0
LINE
  5
451
100
AcDbEntity
  8
DRAFT
100
AcDbLine
 62
7
  6
CONTINUOUS
 10
-4.724364956
 20
-18.2626116608
 11
-4.6353441248
 21
-18.1735908296
  0
LINE
  5
452
100
AcDbEntity
  8
DRAFT
100
AcDbLine
 62
7
  6
CONTINUOUS
 10
-4.724364956
 20
-18.4626116608
 11
-4.6353441248
 21
-18.3735908296
  0
LINE
  5
453
100
AcDbEntity
  8
RACCORDO
100
AcDbLine
 62
253
  6
CONTINUOUS
 10
6.0366209926
 20
10.8333293506
 11
5.2146490955
 21
10.8333293506
  0
LINE
  5
454
100
AcDbEntity
  8
RACCORDO
100
AcDbLine
 62
253
  6
CONTINUOUS
 10
10.2071447122
 20
11.0215031456
 11
6.040959295
 21
11.0215031456
  0
LINE
  5
455
100
AcDbEntity
  8
RACCORDO
100
AcDbLine
 62
253
  6
CONTINUOUS
 10
5.210310793
 20
11.0215031456
 11
1.7397415572
 21
11.0215031456
  0
LINE
  5
456
100
AcDbEntity
  8
RACCORDO
100
AcDbLine
 62
7
  6
CONTINUOUS
 10
1.7956267509
 20
11.0773883392
 11
5.125635044
 21
11.0773883392
  0
LINE
  5
457
100
AcDbEntity
  8
RACCORDO
100
AcDbLine
 62
7
  6
CONTINUOUS
 10
6.125635044
 20
11.0773883392
 11
10.0377803157
 21
11.0773883392
  0
LINE
  5
458
100
AcDbEntity
  8
RACCORDO
100
AcDbLine
 62
253
  6
CONTINUOUS
 10
6.0390664744
 20
11.3333103121
 11
5.2122036137
 21
11.3333103121
  0
LINE
  5
459
100
AcDbEntity
  8
RACCORDO
100
AcDbLine
 62
7
  6
CONTINUOUS
 10
6.0687759025
 20
11.3630197403
 11
5.1824941856
 21
11.3630197403
  0
LINE
  5
45A
100
AcDbEntity
  8
RACCORDO
100
AcDbLine
 62
7
  6
CONTINUOUS
 10
6.0674366577
 20
11.3724090721
 11
5.1838334303
 21
11.3724090721
  0
LINE
  5
45B
100
AcDbEntity
  8
RACCORDO
100
AcDbLine
 62
7
  6
CONTINUOUS
 10
5.8224978686
 20
11.5842416446
 11
5.4287722194
 21
11.5842416446
  0
LINE
  5
45C
100
AcDbEntity
  8
RACCORDO
100
AcDbLine
 62
7
  6
CONTINUOUS
 10
5.8756445633
 20
11.6373883392
 11
5.3756255248
 21
11.6373883392
  0
LINE
  5
45D
100
AcDbEntity
  8
RACCORDO
100
AcDbLine
 62
253
  6
CONTINUOUS
 10
-9.4106342187
 20
12.0522131616
 11
-9.7105885273
 21
12.0522131616
  0
LINE
  5
45E
100
AcDbEntity
  8
DRAFT
100
AcDbLine
 62
7
  6
CONTINUOUS
 10
-8.224364956
 20
12.1150136994
 11
-8.407185032
 21
12.1150136994
  0
LINE
  5
45F
100
AcDbEntity
  8
DRAFT
100
AcDbLine
 62
7
  6
CONTINUOUS
 10
-8.224364956
 20
12.2298931378
 11
-8.3818601574
 21
12.2298931378
  0
LINE
  5
460
100
AcDbEntity
  8
RACCORDO
100
AcDbLine
 62
253
  6
CONTINUOUS
 10
0.8677658332
 20
12.8552164818
 11
1.1571805867
 21
12.7790511121
  0
LINE
  5
461
100
AcDbEntity
  8
RACCORDO
100
AcDbLine
 62
253
  6
CONTINUOUS
 10
1.1558868698
 20
12.4448961272
 11
1.1764946528
 21
12.4370795064
  0
LINE
  5
462
100
AcDbEntity
  8
RACCORDO
100
AcDbLine
 62
7
  6
CONTINUOUS
 10
5.210310793
 20
11.0215031456
 11
5.125635044
 21
11.0773883392
  0
LINE
  5
463
100
AcDbEntity
  8
DRAFT
100
AcDbLine
 62
7
  6
CONTINUOUS
 10
-6.4598947741
 20
22.2873883392
 11
-6.374364956
 21
22.2018585211
  0
LINE
  5
464
100
AcDbEntity
  8
DRAFT
100
AcDbLine
 62
7
  6
CONTINUOUS
 10
-4.724364956
 20
21.1373883392
 11
-4.6353441248
 21
21.0483675081
  0
LINE
  5
465
100
AcDbEntity
  8
RACCORDO
100
AcDbLine
 62
253
  6
CONTINUOUS
 10
1.4875686007
 20
15.0254643018
 11
1.5756445633
 21
14.9373883392
  0
LINE
  5
466
100
AcDbEntity
  8
RACCORDO
100
AcDbLine
 62
253
  6
CONTINUOUS
 10
5.2118243916
 20
11.3012085109
 11
5.125635044
 21
11.3873978585
  0
LINE
  5
467
100
AcDbEntity
  8
RACCORDO
100
AcDbLine
 62
7
  6
CONTINUOUS
 10
1.5185034164
 20
15.0263020537
 11
1.550635044
 21
14.994170426
  0
LINE
  5
468
100
AcDbEntity
  8
RACCORDO
100
AcDbLine
 62
7
  6
CONTINUOUS
 10
5.1824941856
 20
11.3630197403
 11
5.2122036137
 21
11.3333103121
  0
LINE
  5
469
100
AcDbEntity
  8
DRAFT
100
AcDbLine
 62
7
  6
CONTINUOUS
 10
-4.6353441248
 20
21.2483675081
 11
-4.724364956
 21
21.3373883392
  0
LINE
  5
46A
100
AcDbEntity
  8
RACCORDO
100
AcDbLine
 62
253
  6
CONTINUOUS
 10
1.7724883494
 20
15.2405255146
 11
1.825635044
 21
15.18737882
  0
LINE
  5
46B
100
AcDbEntity
  8
RACCORDO
100
AcDbLine
 62
253
  6
CONTINUOUS
 10
5.4287722194
 20
11.5842416446
 11
5.3756255248
 21
11.6373883392
  0
LINE
  5
46C
100
AcDbEntity
  8
ASSI
100
AcDbLine
 62
7
  6
CONTINUOUS
 10
12.1586176519
 20
-17.079629053
 11
12.1586176519
 21
-16.4935512832
  0
LINE
  5
46D
100
AcDbEntity
  8
ASSI
100
AcDbLine
 62
7
  6
CONTINUOUS
 10
12.1586176519
 20
19.3683279616
 11
12.1586176519
 21
19.9544057314
  0
LINE
  5
46E
100
AcDbEntity
  8
0
100
AcDbLine
 62
7
  6
CONTINUOUS
 10
12.1673445196
 20
-20.456810754
 11
12.1673445196
 21
-17.0709021852
  0
LINE
  5
46F
100
AcDbEntity
  8
0
100
AcDbLine
 62
7
  6
CONTINUOUS
 10
12.1673445196
 20
19.9456788636
 11
12.1673445196
 21
23.3315874324
  0
LINE
  5
470
100
AcDbEntity
  8
RACCORDO
100
AcDbLine
 62
7
  6
CONTINUOUS
 10
12.175635044
 20
-16.2343107095
 11
12.175635044
 21
19.1090873879
  0
LINE
  5
471
100
AcDbEntity
  8
0
100
AcDbLine
 62
7
  6
CONTINUOUS
 10
12.1760713874
 20
-20.4626285838
 11
12.1760713874
 21
23.3374052623
  0
LINE
  5
472
100
AcDbEntity
  8
0
100
AcDbLine
 62
253
  6
CONTINUOUS
 10
3.5257397556
 20
-17.1126116608
 11
2.9733798762
 21
-18.0693634661
  0
LINE
  5
473
100
AcDbEntity
  8
RACCORDO
100
AcDbLine
 62
253
  6
CONTINUOUS
 10
0.508484612
 20
-16.9814327874
 11
0.3648961303
 21
-17.1250212691
  0
LINE
  5
474
100
AcDbEntity
  8
0
100
AcDbLine
 62
7
  6
CONTINUOUS
 10
-3.424364956
 20
-20.9626116608
 11
-3.3804427089
 21
-20.9186894137
  0
LINE
  5
475
100
AcDbEntity
  8
RACCORDO
100
AcDbLine
 62
253
  6
CONTINUOUS
 10
6.2814064703
 20
-8.888072321
 11
6.5256350408
 21
-8.7151143474
  0
LINE
  5
476
100
AcDbEntity
  8
0
100
AcDbLine
 62
253
  6
CONTINUOUS
 10
-10.1248012993
 20
-20.4626285838
 11
-10.1160744316
 21
-20.456810754
  0
LINE
  5
477
100
AcDbEntity
  8
0
100
AcDbLine
 62
253
  6
CONTINUOUS
 10
-9.6248076454
 20
-20.9626116608
 11
-9.6160807776
 21
-20.956793831
  0
LINE
  5
478
100
AcDbEntity
  8
RACCORDO
100
AcDbLine
 62
253
  6
CONTINUOUS
 10
6.0221122514
 20
-9.2188896313
 11
6.273873518
 21
-9.0570926325
  0
LINE
  5
479
100
AcDbEntity
  8
RACCORDO
100
AcDbLine
 62
253
  6
CONTINUOUS
 10
-10.124364956
 20
-16.2343107095
 11
-9.9268180894
 21
-16.1524841182
  0
LINE
  5
47A
100
AcDbEntity
  8
RACCORDO
100
AcDbLine
 62
253
  6
CONTINUOUS
 10
1.1571805867
 20
14.2957255664
 11
0.8677658332
 21
14.2195601966
  0
LINE
  5
47B
100
AcDbEntity
  8
RACCORDO
100
AcDbLine
 62
253
  6
CONTINUOUS
 10
1.1677608573
 20
12.8552164818
 11
0.8677658332
 21
12.8552164818
  0
LINE
  5
47C
100
AcDbEntity
  8
0
100
AcDbLine
 62
7
  6
CONTINUOUS
 10
-8.224364956
 20
14.0920221828
 11
-6.874364956
 21
14.0920221828
  0
LINE
  5
47D
100
AcDbEntity
  8
0
100
AcDbLine
 62
7
  6
CONTINUOUS
 10
-1.574364956
 20
14.0920221828
 11
-0.224364956
 21
14.0920221828
  0
LINE
  5
47E
100
AcDbEntity
  8
RACCORDO
100
AcDbLine
 62
253
  6
CONTINUOUS
 10
0.8677658332
 20
14.2195601966
 11
1.1677608573
 21
14.2195601966
  0
LINE
  5
47F
100
AcDbEntity
  8
0
100
AcDbLine
 62
7
  6
CONTINUOUS
 10
-1.1695685688
 20
15.134798693
 11
-1.7700633551
 21
15.2867472337
  0
LINE
  5
480
100
AcDbEntity
  8
RACCORDO
100
AcDbLine
 62
253
  6
CONTINUOUS
 10
10.2071447122
 20
11.0215031456
 11
10.0377803157
 21
11.0773883392
  0
LINE
  5
481
100
AcDbEntity
  8
RACCORDO
100
AcDbLine
 62
253
  6
CONTINUOUS
 10
10.7072726398
 20
11.5214275121
 11
10.537806213
 21
11.5773463727
  0
LINE
  5
482
100
AcDbEntity
  8
RACCORDO
100
AcDbLine
 62
253
  6
CONTINUOUS
 10
-9.7575039596
 20
18.9571285877
 11
-10.124364956
 21
19.1090873879
  0
LINE
  5
483
100
AcDbEntity
  8
0
100
AcDbLine
 62
253
  6
CONTINUOUS
 10
-10.1160744316
 20
23.3315874324
 11
-10.1248012993
 21
23.3374052623
  0
LINE
  5
484
100
AcDbEntity
  8
0
100
AcDbLine
 62
253
  6
CONTINUOUS
 10
-9.6160807776
 20
23.8315705094
 11
-9.6248076454
 21
23.8373883392
  0
LINE
  5
485
100
AcDbEntity
  8
DRAFT
100
AcDbLine
 62
7
  6
CONTINUOUS
 10
-1.465969716
 20
19.5192414067
 11
-1.4744696675
 21
19.5277413582
  0
LINE
  5
486
100
AcDbEntity
  8
0
100
AcDbLine
 62
7
  6
CONTINUOUS
 10
-3.424364956
 20
23.8373883392
 11
-3.3804427089
 21
23.7934660922
  0
LINE
  5
487
100
AcDbEntity
  8
RACCORDO
100
AcDbLine
 62
253
  6
CONTINUOUS
 10
1.295635044
 20
19.2373966324
 11
1.1775622145
 21
19.3554694619
  0
LINE
  5
488
100
AcDbEntity
  8
RACCORDO
100
AcDbLine
 62
253
  6
CONTINUOUS
 10
10.6727541528
 20
-7.9283954587
 11
10.8089263525
 21
-7.6619011903
  0
LINE
  5
489
100
AcDbEntity
  8
0
100
AcDbLine
 62
7
  6
CONTINUOUS
 10
-3.3807143091
 20
-22.5189610139
 11
-3.424364956
 21
-22.5626116608
  0
LINE
  5
48A
100
AcDbEntity
  8
RACCORDO
100
AcDbLine
 62
253
  6
CONTINUOUS
 10
1.5083323072
 20
-17.9812804825
 11
1.3647438254
 21
-18.1248689643
  0
LINE
  5
48B
100
AcDbEntity
  8
DRAFT
100
AcDbLine
 62
7
  6
CONTINUOUS
 10
10.3231562909
 20
-9.4650904139
 11
10.4907249142
 21
-9.2975217906
  0
LINE
  5
48C
100
AcDbEntity
  8
RACCORDO
100
AcDbLine
 62
253
  6
CONTINUOUS
 10
-9.5386677364
 20
-17.6483088803
 11
-9.3411208699
 21
-17.566482289
  0
LINE
  5
48D
100
AcDbEntity
  8
RACCORDO
100
AcDbLine
 62
7
  6
CONTINUOUS
 10
10.145655777
 20
14.9962176787
 11
9.7308665049
 21
14.9926293193
  0
LINE
  5
48E
100
AcDbEntity
  8
RACCORDO
100
AcDbLine
 62
253
  6
CONTINUOUS
 10
2.6664773514
 20
14.5139920447
 11
4.8306659302
 21
14.5139920447
  0
LINE
  5
48F
100
AcDbEntity
  8
0
100
AcDbLine
 62
253
  6
CONTINUOUS
 10
-6.874364956
 20
14.5420221828
 11
-5.974364956
 21
14.5420221828
  0
LINE
  5
490
100
AcDbEntity
  8
0
100
AcDbLine
 62
253
  6
CONTINUOUS
 10
-2.474364956
 20
14.5420221828
 11
-1.574364956
 21
14.5420221828
  0
LINE
  5
491
100
AcDbEntity
  8
0
100
AcDbLine
 62
253
  6
CONTINUOUS
 10
-6.874364956
 20
14.5920221828
 11
-5.974364956
 21
14.5920221828
  0
LINE
  5
492
100
AcDbEntity
  8
0
100
AcDbLine
 62
253
  6
CONTINUOUS
 10
-2.474364956
 20
14.5920221828
 11
-1.574364956
 21
14.5920221828
  0
LINE
  5
493
100
AcDbEntity
  8
RACCORDO
100
AcDbLine
 62
7
  6
CONTINUOUS
 10
10.537806213
 20
14.9373883392
 11
9.6756255248
 21
14.9373883392
  0
LINE
  5
494
100
AcDbEntity
  8
RACCORDO
100
AcDbLine
 62
7
  6
CONTINUOUS
 10
1.295635044
 20
14.9373883392
 11
1.5756445633
 21
14.9373883392
  0
LINE
  5
495
100
AcDbEntity
  8
0
100
AcDbLine
 62
253
  6
CONTINUOUS
 10
-6.874364956
 20
14.9920221828
 11
-6.0815193071
 21
14.9920221828
  0
LINE
  5
496
100
AcDbEntity
  8
0
100
AcDbLine
 62
253
  6
CONTINUOUS
 10
-2.474364956
 20
14.9920221828
 11
-1.574364956
 21
14.9920221828
  0
LINE
  5
497
100
AcDbEntity
  8
RACCORDO
100
AcDbLine
 62
253
  6
CONTINUOUS
 10
-9.4106342187
 20
15.0225636103
 11
-9.7105885273
 21
15.0225636103
  0
LINE
  5
498
100
AcDbEntity
  8
RACCORDO
100
AcDbLine
 62
253
  6
CONTINUOUS
 10
10.1456587978
 20
15.0229421057
 11
10.7089267782
 21
15.0229421057
  0
LINE
  5
499
100
AcDbEntity
  8
RACCORDO
100
AcDbLine
 62
7
  6
CONTINUOUS
 10
1.2480654207
 20
15.0264023907
 11
1.2985117933
 21
15.0264023907
  0
LINE
  5
49A
100
AcDbEntity
  8
0
100
AcDbLine
 62
7
  6
CONTINUOUS
 10
-8.2269485346
 20
15.0920221828
 11
-7.6225916833
 21
15.0920221828
  0
LINE
  5
49B
100
AcDbEntity
  8
0
100
AcDbLine
 62
7
  6
CONTINUOUS
 10
-7.5003341579
 20
15.0920221828
 11
-6.2217813767
 21
15.0920221828
  0
LINE
  5
49C
100
AcDbEntity
  8
0
100
AcDbLine
 62
7
  6
CONTINUOUS
 10
-2.474364956
 20
15.0920221828
 11
-0.948395754
 21
15.0920221828
  0
LINE
  5
49D
100
AcDbEntity
  8
RACCORDO
100
AcDbLine
 62
253
  6
CONTINUOUS
 10
10.145655777
 20
15.4229268749
 11
10.7158478753
 21
15.4229268749
  0
LINE
  5
49E
100
AcDbEntity
  8
RACCORDO
100
AcDbLine
 62
253
  6
CONTINUOUS
 10
6.3286102323
 20
15.4368576365
 11
6.3327244492
 21
15.4368576365
  0
LINE
  5
49F
100
AcDbEntity
  8
RACCORDO
100
AcDbLine
 62
253
  6
CONTINUOUS
 10
10.7158478753
 20
15.4518498035
 11
10.145655777
 21
15.4518498035
  0
LINE
  5
4A0
100
AcDbEntity
  8
RACCORDO
100
AcDbLine
 62
7
  6
CONTINUOUS
 10
1.2985117933
 20
15.8483742878
 11
1.2480654207
 21
15.8483742878
  0
LINE
  5
4A1
100
AcDbEntity
  8
RACCORDO
100
AcDbLine
 62
253
  6
CONTINUOUS
 10
10.7089267782
 20
15.8518345727
 11
10.145655777
 21
15.8518345727
  0
LINE
  5
4A2
100
AcDbEntity
  8
RACCORDO
100
AcDbLine
 62
7
  6
CONTINUOUS
 10
5.8334096818
 20
15.9354881104
 11
2.5660661418
 21
15.9354881104
  0
LINE
  5
4A3
100
AcDbEntity
  8
RACCORDO
100
AcDbLine
 62
7
  6
CONTINUOUS
 10
1.295635044
 20
15.9373883392
 11
1.5756445633
 21
15.9373883392
  0
LINE
  5
4A4
100
AcDbEntity
  8
RACCORDO
100
AcDbLine
 62
7
  6
CONTINUOUS
 10
9.6756255248
 20
15.9373883392
 11
10.537806213
 21
15.9373883392
  0
LINE
  5
4A5
100
AcDbEntity
  8
RACCORDO
100
AcDbLine
 62
7
  6
CONTINUOUS
 10
9.7308665049
 20
15.8821473591
 11
10.145655777
 21
15.8785589998
  0
LINE
  5
4A6
100
AcDbEntity
  8
RACCORDO
100
AcDbLine
 62
253
  6
CONTINUOUS
 10
-9.1718067401
 20
20.3711267585
 11
-9.5386677364
 21
20.5230855587
  0
LINE
  5
4A7
100
AcDbEntity
  8
DRAFT
100
AcDbLine
 62
7
  6
CONTINUOUS
 10
-1.465969716
 20
19.508623418
 11
-1.4218990337
 21
19.4792433775
  0
LINE
  5
4A8
100
AcDbEntity
  8
RACCORDO
100
AcDbLine
 62
253
  6
CONTINUOUS
 10
1.7956267509
 20
19.7373883392
 11
1.6775539214
 21
19.8554611687
  0
LINE
  5
4A9
100
AcDbEntity
  8
0
100
AcDbLine
 62
7
  6
CONTINUOUS
 10
-3.424364956
 20
25.4373883392
 11
-3.3807143091
 21
25.3937376924
  0
LINE
  5
4AA
100
AcDbEntity
  8
RACCORDO
100
AcDbLine
 62
253
  6
CONTINUOUS
 10
11.4225171357
 20
-9.074565549
 11
11.6631168365
 21
-8.8965942414
  0
LINE
  5
4AB
100
AcDbEntity
  8
RACCORDO
100
AcDbLine
 62
253
  6
CONTINUOUS
 10
6.7698636177
 20
-12.4371509843
 11
6.5256350464
 21
-12.6101089607
  0
LINE
  5
4AC
100
AcDbEntity
  8
RACCORDO
100
AcDbLine
 62
253
  6
CONTINUOUS
 10
7.029157841
 20
-12.1063337083
 11
6.7773965806
 21
-12.2681307045
  0
LINE
  5
4AD
100
AcDbEntity
  8
0
100
AcDbLine
 62
7
  6
CONTINUOUS
 10
-7.2791613431
 20
15.134798693
 11
-6.6468202695
 21
15.2948055833
  0
LINE
  5
4AE
100
AcDbEntity
  8
RACCORDO
100
AcDbLine
 62
7
  6
CONTINUOUS
 10
3.4518963343
 20
16.9341176451
 11
2.9109261961
 21
16.9341176451
  0
LINE
  5
4AF
100
AcDbEntity
  8
0
100
AcDbLine
 62
7
  6
CONTINUOUS
 10
2.9109261961
 20
16.9341176451
 11
3.4518963343
 21
16.9341176451
  0
LINE
  5
4B0
100
AcDbEntity
  8
0
100
AcDbLine
 62
7
  6
CONTINUOUS
 10
7.3327244492
 20
17.4334324125
 11
4.825635044
 21
17.4334324125
  0
LINE
  5
4B1
100
AcDbEntity
  8
RACCORDO
100
AcDbLine
 62
253
  6
CONTINUOUS
 10
7.4476972653
 20
17.7427630261
 11
3.5533571088
 21
17.7427630261
  0
LINE
  5
4B2
100
AcDbEntity
  8
RACCORDO
100
AcDbLine
 62
253
  6
CONTINUOUS
 10
5.8224978686
 20
19.2905350339
 11
5.8756445633
 21
19.2373883392
  0
LINE
  5
4B3
100
AcDbEntity
  8
RACCORDO
100
AcDbLine
 62
253
  6
CONTINUOUS
 10
9.4786944733
 20
15.6343384292
 11
9.425635044
 21
15.6873978585
  0
LINE
  5
4B4
100
AcDbEntity
  8
RACCORDO
100
AcDbLine
 62
7
  6
CONTINUOUS
 10
6.0688529573
 20
19.5123883392
 11
6.0367213296
 21
19.5445199669
  0
LINE
  5
4B5
100
AcDbEntity
  8
RACCORDO
100
AcDbLine
 62
253
  6
CONTINUOUS
 10
6.0375590815
 20
19.5754547826
 11
6.125635044
 21
19.48737882
  0
LINE
  5
4B6
100
AcDbEntity
  8
RACCORDO
100
AcDbLine
 62
253
  6
CONTINUOUS
 10
9.7308665049
 20
15.8821473591
 11
9.6756255248
 21
15.9373883392
  0
LINE
  5
4B7
100
AcDbEntity
  8
RACCORDO
100
AcDbLine
 62
253
  6
CONTINUOUS
 10
7.4476972653
 20
17.846477397
 11
3.6747960622
 21
17.846477397
  0
LINE
  5
4B8
100
AcDbEntity
  8
RACCORDO
100
AcDbLine
 62
253
  6
CONTINUOUS
 10
7.0814234634
 20
18.1741842275
 11
4.1698466247
 21
18.1741842275
  0
LINE
  5
4B9
100
AcDbEntity
  8
DRAFT
100
AcDbLine
 62
253
  6
CONTINUOUS
 10
11.8087740477
 20
18.9571285877
 11
10.8955694029
 21
18.9571285877
  0
LINE
  5
4BA
100
AcDbEntity
  8
RACCORDO
100
AcDbLine
 62
7
  6
CONTINUOUS
 10
5.3756255248
 20
19.2373883392
 11
5.8756445633
 21
19.2373883392
  0
LINE
  5
4BB
100
AcDbEntity
  8
RACCORDO
100
AcDbLine
 62
7
  6
CONTINUOUS
 10
5.4287722194
 20
19.2905350339
 11
5.8224978686
 21
19.2905350339
  0
LINE
  5
4BC
100
AcDbEntity
  8
DRAFT
100
AcDbLine
 62
7
  6
CONTINUOUS
 10
-7.0268308783
 20
19.4792433775
 11
-1.4218990337
 21
19.4792433775
  0
LINE
  5
4BD
100
AcDbEntity
  8
RACCORDO
100
AcDbLine
 62
7
  6
CONTINUOUS
 10
5.1838334303
 20
19.5023676063
 11
6.0674366577
 21
19.5023676063
  0
LINE
  5
4BE
100
AcDbEntity
  8
RACCORDO
100
AcDbLine
 62
7
  6
CONTINUOUS
 10
5.1824171308
 20
19.5123883392
 11
6.0688529573
 21
19.5123883392
  0
LINE
  5
4BF
100
AcDbEntity
  8
RACCORDO
100
AcDbLine
 62
253
  6
CONTINUOUS
 10
5.2145487585
 20
19.5445199669
 11
6.0367213296
 21
19.5445199669
  0
LINE
  5
4C0
100
AcDbEntity
  8
RACCORDO
100
AcDbLine
 62
7
  6
CONTINUOUS
 10
10.537806213
 20
15.9373883392
 11
10.7089267782
 21
15.8518345727
  0
LINE
  5
4C1
100
AcDbEntity
  8
DRAFT
100
AcDbLine
 62
7
  6
CONTINUOUS
 10
6.0366209926
 20
19.7961367715
 11
6.125635044
 21
19.7373883392
  0
LINE
  5
4C2
100
AcDbEntity
  8
DRAFT
100
AcDbLine
 62
7
  6
CONTINUOUS
 10
9.034030284
 20
-16.6444647282
 11
9.0255303325
 21
-16.6529646797
  0
LINE
  5
4C3
100
AcDbEntity
  8
DRAFT
100
AcDbLine
 62
7
  6
CONTINUOUS
 10
8.425635044
 20
-18.2626116608
 11
8.5146558752
 21
-18.1735908296
  0
LINE
  5
4C4
100
AcDbEntity
  8
RACCORDO
100
AcDbLine
 62
253
  6
CONTINUOUS
 10
10.5160777427
 20
-16.7893509947
 11
10.32399595
 21
-16.9814327874
  0
LINE
  5
4C5
100
AcDbEntity
  8
DRAFT
100
AcDbLine
 62
7
  6
CONTINUOUS
 10
8.425635044
 20
-19.3270818426
 11
8.5146558752
 21
-19.2380610115
  0
LINE
  5
4C6
100
AcDbEntity
  8
DRAFT
100
AcDbLine
 62
7
  6
CONTINUOUS
 10
9.0781009663
 20
-16.604466699
 11
9.034030284
 21
-16.6338467396
  0
LINE
  5
4C7
100
AcDbEntity
  8
RACCORDO
100
AcDbLine
 62
7
  6
CONTINUOUS
 10
1.7956267509
 20
19.7373883392
 11
5.125635044
 21
19.7373883392
  0
LINE
  5
4C8
100
AcDbEntity
  8
RACCORDO
100
AcDbLine
 62
7
  6
CONTINUOUS
 10
6.125635044
 20
19.7373883392
 11
10.0377803157
 21
19.7373883392
  0
LINE
  5
4C9
100
AcDbEntity
  8
RACCORDO
100
AcDbLine
 62
253
  6
CONTINUOUS
 10
5.2146490955
 20
19.7645115899
 11
6.0366209926
 21
19.7645115899
  0
LINE
  5
4CA
100
AcDbEntity
  8
DRAFT
100
AcDbLine
 62
7
  6
CONTINUOUS
 10
5.2146490955
 20
19.7961367715
 11
6.0366209926
 21
19.7961367715
  0
LINE
  5
4CB
100
AcDbEntity
  8
RACCORDO
100
AcDbLine
 62
7
  6
CONTINUOUS
 10
10.3247442472
 20
19.8554611687
 11
1.6775539214
 21
19.8554611687
  0
LINE
  5
4CC
100
AcDbEntity
  8
RACCORDO
100
AcDbLine
 62
253
  6
CONTINUOUS
 10
-8.272725862
 20
19.8562094658
 11
-7.0268308783
 21
19.8562094658
  0
LINE
  5
4CD
100
AcDbEntity
  8
ASSI
100
AcDbLine
 62
253
  6
CONTINUOUS
 10
-1.4218990337
 20
19.8562094658
 11
10.32399595
 21
19.8562094658
  0
LINE
  5
4CE
100
AcDbEntity
  8
0
100
AcDbLine
 62
7
  6
CONTINUOUS
 10
-7.0267554669
 20
19.9873883392
 11
-1.421974445
 21
19.9873883392
  0
LINE
  5
4CF
100
AcDbEntity
  8
RACCORDO
100
AcDbLine
 62
253
  6
CONTINUOUS
 10
-8.6868763376
 20
20.856057161
 11
-7.5198015907
 21
20.856057161
  0
LINE
  5
4D0
100
AcDbEntity
  8
0
100
AcDbLine
 62
253
  6
CONTINUOUS
 10
-0.9289283212
 20
20.856057161
 11
10.7381464257
 21
20.856057161
  0
LINE
  5
4D1
100
AcDbEntity
  8
DRAFT
100
AcDbLine
 62
7
  6
CONTINUOUS
 10
10.8178039796
 20
21.0483675081
 11
8.5146558752
 21
21.0483675081
  0
LINE
  5
4D2
100
AcDbEntity
  8
DRAFT
100
AcDbLine
 62
7
  6
CONTINUOUS
 10
6.6866142129
 20
21.0483675081
 11
-4.6353441248
 21
21.0483675081
  0
LINE
  5
4D3
100
AcDbEntity
  8
DRAFT
100
AcDbLine
 62
7
  6
CONTINUOUS
 10
-6.4633857871
 20
21.0483675081
 11
-8.7665338916
 21
21.0483675081
  0
LINE
  5
4D4
100
AcDbEntity
  8
DRAFT
100
AcDbLine
 62
7
  6
CONTINUOUS
 10
-6.374364956
 20
21.1373883392
 11
-4.724364956
 21
21.1373883392
  0
LINE
  5
4D5
100
AcDbEntity
  8
DRAFT
100
AcDbLine
 62
7
  6
CONTINUOUS
 10
6.775635044
 20
21.1373883392
 11
8.425635044
 21
21.1373883392
  0
LINE
  5
4D6
100
AcDbEntity
  8
DRAFT
100
AcDbLine
 62
7
  6
CONTINUOUS
 10
6.6866142129
 20
21.2483675081
 11
-4.6353441248
 21
21.2483675081
  0
LINE
  5
4D7
100
AcDbEntity
  8
RACCORDO
100
AcDbLine
 62
7
  6
CONTINUOUS
 10
-1.374364956
 20
21.3217752904
 11
3.425635044
 21
21.3217752904
  0
LINE
  5
4D8
100
AcDbEntity
  8
RACCORDO
100
AcDbLine
 62
7
  6
CONTINUOUS
 10
-4.724364956
 20
21.3373883392
 11
-2.3675665665
 21
21.3373883392
  0
LINE
  5
4D9
100
AcDbEntity
  8
RACCORDO
100
AcDbLine
 62
7
  6
CONTINUOUS
 10
4.4188366546
 20
21.3373883392
 11
6.775635044
 21
21.3373883392
  0
LINE
  5
4DA
100
AcDbEntity
  8
DRAFT
100
AcDbLine
 62
7
  6
CONTINUOUS
 10
8.425635044
 20
21.1373883392
 11
8.5146558752
 21
21.0483675081
  0
LINE
  5
4DB
100
AcDbEntity
  8
DRAFT
100
AcDbLine
 62
253
  6
CONTINUOUS
 10
10.32399595
 20
19.8562094658
 11
10.3247442472
 21
19.8554611687
  0
LINE
  5
4DC
100
AcDbEntity
  8
DRAFT
100
AcDbLine
 62
7
  6
CONTINUOUS
 10
8.425635044
 20
22.2018585211
 11
8.5146558752
 21
22.1128376899
  0
LINE
  5
4DD
100
AcDbEntity
  8
RACCORDO
100
AcDbLine
 62
253
  6
CONTINUOUS
 10
11.2230768281
 20
-17.4963500801
 11
10.7381464257
 21
-17.9812804825
  0
LINE
  5
4DE
100
AcDbEntity
  8
DRAFT
100
AcDbLine
 62
7
  6
CONTINUOUS
 10
10.8178039796
 20
-18.1735908296
 11
9.7533337978
 21
-19.2380610115
  0
LINE
  5
4DF
100
AcDbEntity
  8
0
100
AcDbLine
 62
7
  6
CONTINUOUS
 10
8.3396650185
 20
-20.8985816863
 11
8.2814528739
 21
-20.956793831
  0
LINE
  5
4E0
100
AcDbEntity
  8
ASSI
100
AcDbLine
 62
7
  6
CONTINUOUS
 10
8.3396650185
 20
-20.8985816863
 11
12.1586176519
 21
-17.079629053
  0
LINE
  5
4E1
100
AcDbEntity
  8
RACCORDO
100
AcDbLine
 62
7
  6
CONTINUOUS
 10
9.825635044
 20
-19.4126116608
 11
11.5899378245
 21
-17.6483088803
  0
LINE
  5
4E2
100
AcDbEntity
  8
RACCORDO
100
AcDbLine
 62
7
  6
CONTINUOUS
 10
-5.2498651561
 20
21.4373883392
 11
7.3011352442
 21
21.4373883392
  0
LINE
  5
4E3
100
AcDbEntity
  8
DRAFT
100
AcDbLine
 62
7
  6
CONTINUOUS
 10
9.7533337978
 20
22.1128376899
 11
8.5146558752
 21
22.1128376899
  0
LINE
  5
4E4
100
AcDbEntity
  8
DRAFT
100
AcDbLine
 62
7
  6
CONTINUOUS
 10
-6.4633857871
 20
22.1128376899
 11
-7.7020637097
 21
22.1128376899
  0
LINE
  5
4E5
100
AcDbEntity
  8
0
100
AcDbLine
 62
7
  6
CONTINUOUS
 10
4.025635044
 20
22.2373883392
 11
-1.974364956
 21
22.2373883392
  0
LINE
  5
4E6
100
AcDbEntity
  8
DRAFT
100
AcDbLine
 62
7
  6
CONTINUOUS
 10
9.825635044
 20
22.2873883392
 11
8.5111648622
 21
22.2873883392
  0
LINE
  5
4E7
100
AcDbEntity
  8
DRAFT
100
AcDbLine
 62
7
  6
CONTINUOUS
 10
-6.4598947741
 20
22.2873883392
 11
-7.774364956
 21
22.2873883392
  0
LINE
  5
4E8
100
AcDbEntity
  8
RACCORDO
100
AcDbLine
 62
7
  6
CONTINUOUS
 10
-6.574364956
 20
22.3373883392
 11
-6.974364956
 21
22.3373883392
  0
LINE
  5
4E9
100
AcDbEntity
  8
RACCORDO
100
AcDbLine
 62
7
  6
CONTINUOUS
 10
8.625635044
 20
22.3373883392
 11
9.025635044
 21
22.3373883392
  0
LINE
  5
4EA
100
AcDbEntity
  8
ASSI
100
AcDbLine
 62
253
  6
CONTINUOUS
 10
8.3597357632
 20
22.7733752879
 11
4.025635044
 21
22.7733752879
  0
LINE
  5
4EB
100
AcDbEntity
  8
ASSI
100
AcDbLine
 62
253
  6
CONTINUOUS
 10
-1.974364956
 20
22.7733752879
 11
-6.3084656751
 21
22.7733752879
  0
LINE
  5
4EC
100
AcDbEntity
  8
0
100
AcDbLine
 62
7
  6
CONTINUOUS
 10
4.025635044
 20
23.1373883392
 11
-1.974364956
 21
23.1373883392
  0
LINE
  5
4ED
100
AcDbEntity
  8
RACCORDO
100
AcDbLine
 62
253
  6
CONTINUOUS
 10
10.7381464257
 20
20.856057161
 11
11.2230768281
 21
20.3711267585
  0
LINE
  5
4EE
100
AcDbEntity
  8
DRAFT
100
AcDbLine
 62
7
  6
CONTINUOUS
 10
10.8178039796
 20
21.0483675081
 11
9.7533337978
 21
22.1128376899
  0
LINE
  5
4EF
100
AcDbEntity
  8
RACCORDO
100
AcDbLine
 62
7
  6
CONTINUOUS
 10
11.5899378245
 20
20.5230855587
 11
9.825635044
 21
22.2873883392
  0
LINE
  5
4F0
100
AcDbEntity
  8
ASSI
100
AcDbLine
 62
7
  6
CONTINUOUS
 10
12.1586176519
 20
19.9544057314
 11
8.3396650185
 21
23.7733583647
  0
LINE
  5
4F1
100
AcDbEntity
  8
0
100
AcDbLine
 62
7
  6
CONTINUOUS
 10
8.3396650185
 20
23.7733583647
 11
8.2814528739
 21
23.8315705094
  0
LINE
  5
4F2
100
AcDbEntity
  8
0
100
AcDbLine
 62
253
  6
CONTINUOUS
 10
8.3396650185
 20
23.7733583647
 11
4.025635044
 21
23.7733583647
  0
LINE
  5
4F3
100
AcDbEntity
  8
0
100
AcDbLine
 62
253
  6
CONTINUOUS
 10
-1.974364956
 20
23.7733583647
 11
-6.2883949304
 21
23.7733583647
  0
LINE
  5
4F4
100
AcDbEntity
  8
0
100
AcDbLine
 62
7
  6
CONTINUOUS
 10
11.6673508657
 20
23.8315705094
 11
8.2814528739
 21
23.8315705094
  0
LINE
  5
4F5
100
AcDbEntity
  8
0
100
AcDbLine
 62
7
  6
CONTINUOUS
 10
-6.2301827858
 20
23.8315705094
 11
-9.6160807776
 21
23.8315705094
  0
LINE
  5
4F6
100
AcDbEntity
  8
0
100
AcDbLine
 62
7
  6
CONTINUOUS
 10
2.025635044
 20
23.8321523036
 11
0.025635044
 21
23.8321523036
  0
LINE
  5
4F7
100
AcDbEntity
  8
0
100
AcDbLine
 62
7
  6
CONTINUOUS
 10
5.475635044
 20
23.8373883392
 11
11.6751428905
 21
23.8373883392
  0
LINE
  5
4F8
100
AcDbEntity
  8
0
100
AcDbLine
 62
7
  6
CONTINUOUS
 10
-3.424364956
 20
23.8373883392
 11
-9.6238728024
 21
23.8373883392
  0
LINE
  5
4F9
100
AcDbEntity
  8
0
100
AcDbLine
 62
7
  6
CONTINUOUS
 10
-8.8750879538
 20
24.56003807
 11
-6.4736419581
 21
24.56003807
  0
LINE
  5
4FA
100
AcDbEntity
  8
0
100
AcDbLine
 62
7
  6
CONTINUOUS
 10
10.9263580419
 20
24.56003807
 11
8.5249120462
 21
24.56003807
  0
LINE
  5
4FB
100
AcDbEntity
  8
0
100
AcDbLine
 62
253
  6
CONTINUOUS
 10
-8.8699973527
 20
25.0652195556
 11
-6.4787325592
 21
25.0652195556
  0
LINE
  5
4FC
100
AcDbEntity
  8
0
100
AcDbLine
 62
253
  6
CONTINUOUS
 10
8.5300026473
 20
25.0652195556
 11
10.9212674408
 21
25.0652195556
  0
LINE
  5
4FD
100
AcDbEntity
  8
0
100
AcDbLine
 62
253
  6
CONTINUOUS
 10
-6.22873679
 20
25.2817259065
 11
-9.119993122
 21
25.2817259065
  0
LINE
  5
4FE
100
AcDbEntity
  8
0
100
AcDbLine
 62
253
  6
CONTINUOUS
 10
8.280006878
 20
25.2817259065
 11
11.17126321
 21
25.2817259065
  0
LINE
  5
4FF
100
AcDbEntity
  8
0
100
AcDbLine
 62
7
  6
CONTINUOUS
 10
5.4319843972
 20
25.3937376924
 11
4.525635044
 21
25.3937376924
  0
LINE
  5
500
100
AcDbEntity
  8
0
100
AcDbLine
 62
7
  6
CONTINUOUS
 10
-2.474364956
 20
25.3937376924
 11
-3.3807143091
 21
25.3937376924
  0
LINE
  5
501
100
AcDbEntity
  8
0
100
AcDbLine
 62
7
  6
CONTINUOUS
 10
4.525635044
 20
25.4315705094
 11
2.225635044
 21
25.4315705094
  0
LINE
  5
502
100
AcDbEntity
  8
0
100
AcDbLine
 62
7
  6
CONTINUOUS
 10
-0.174364956
 20
25.4315705094
 11
-2.474364956
 21
25.4315705094
  0
LINE
  5
503
100
AcDbEntity
  8
0
100
AcDbLine
 62
7
  6
CONTINUOUS
 10
5.475635044
 20
25.4373883392
 11
2.225635044
 21
25.4373883392
  0
LINE
  5
504
100
AcDbEntity
  8
0
100
AcDbLine
 62
7
  6
CONTINUOUS
 10
-0.174364956
 20
25.4373883392
 11
-3.424364956
 21
25.4373883392
  0
LINE
  5
505
100
AcDbEntity
  8
0
100
AcDbLine
 62
253
  6
CONTINUOUS
 10
-6.22873679
 20
25.683020736
 11
-9.119993122
 21
25.683020736
  0
LINE
  5
506
100
AcDbEntity
  8
0
100
AcDbLine
 62
253
  6
CONTINUOUS
 10
8.280006878
 20
25.683020736
 11
11.17126321
 21
25.683020736
  0
LINE
  5
507
100
AcDbEntity
  8
0
100
AcDbLine
 62
7
  6
CONTINUOUS
 10
10.9212674408
 20
25.9330165052
 11
8.5300026473
 21
25.9330165052
  0
LINE
  5
508
100
AcDbEntity
  8
0
100
AcDbLine
 62
7
  6
CONTINUOUS
 10
-6.4787325592
 20
25.9330165052
 11
-8.8699973527
 21
25.9330165052
  0
ARC
  5
509
100
AcDbEntity
  8
RACCORDO
100
AcDbCircle
 62
7
  6
CONTINUOUS
 10
-14.8191905275
 20
-19.667029145
 40
21.6048868058
100
AcDbArc
 50
75.5023977401
 51
76.3225439616
  0
ARC
  5
50A
100
AcDbEntity
  8
0
100
AcDbCircle
 62
7
  6
CONTINUOUS
 10
2.8394942517
 20
-15.8494364852
 40
3.6367864649
100
AcDbArc
 50
84.0941030778
 51
85.2704951259
  0
ARC
  5
50B
100
AcDbEntity
  8
RACCORDO
100
AcDbCircle
 62
253
  6
CONTINUOUS
 10
-7.9268181228
 20
-16.1523579585
 40
1.9999999706
100
AcDbArc
 50
180.0036142072
 51
224.9963857928
  0
ARC
  5
50C
100
AcDbEntity
  8
RACCORDO
100
AcDbCircle
 62
253
  6
CONTINUOUS
 10
1.5086978917
 20
-16.9810672029
 40
1.0002157485
100
AcDbArc
 50
180.0209419829
 51
269.9790580171
  0
ARC
  5
50D
100
AcDbEntity
  8
RACCORDO
100
AcDbCircle
 62
253
  6
CONTINUOUS
 10
1.3651094099
 20
-17.1246556846
 40
1.0002157485
100
AcDbArc
 50
180.0209419829
 51
269.9790580171
  0
ARC
  5
50E
100
AcDbEntity
  8
RACCORDO
100
AcDbCircle
 62
253
  6
CONTINUOUS
 10
-7.9271352444
 20
-16.1524893146
 40
0.9998351499
100
AcDbArc
 50
179.9997022169
 51
225.0002977831
  0
ARC
  5
50F
100
AcDbEntity
  8
0
100
AcDbCircle
 62
7
  6
CONTINUOUS
 10
-2.974364956
 20
-21.7126116608
 40
0.5
100
AcDbArc
 50
144.3637748935
 51
215.6362251065
  0
ARC
  5
510
100
AcDbEntity
  8
0
100
AcDbCircle
 62
7
  6
CONTINUOUS
 10
-9.6248181907
 20
-20.4626285523
 40
0.4999831086
100
AcDbArc
 50
180.0000036164
 51
270.0012084401
  0
ARC
  5
511
100
AcDbEntity
  8
RACCORDO
100
AcDbCircle
 62
7
  6
CONTINUOUS
 10
-5.2498651561
 20
-18.1626116608
 40
0.4
100
AcDbArc
 50
218.6821874535
 51
270.0
  0
ARC
  5
512
100
AcDbEntity
  8
RACCORDO
100
AcDbCircle
 62
7
  6
CONTINUOUS
 10
-5.874364956
 20
-18.6626116608
 40
0.4
100
AcDbArc
 50
38.6821874535
 51
180.0
  0
ARC
  5
513
100
AcDbEntity
  8
0
100
AcDbCircle
 62
7
  6
CONTINUOUS
 10
-6.974364956
 20
-19.1626116608
 40
0.3
100
AcDbArc
 50
236.548974696
 51
270.0
  0
ARC
  5
514
100
AcDbEntity
  8
RACCORDO
100
AcDbCircle
 62
7
  6
CONTINUOUS
 10
-6.574364956
 20
-19.1626116608
 40
0.3
100
AcDbArc
 50
270.0
 51
360.0
  0
ARC
  5
515
100
AcDbEntity
  8
RACCORDO
100
AcDbCircle
 62
7
  6
CONTINUOUS
 10
-6.974364956
 20
-19.1626116608
 40
0.3
100
AcDbArc
 50
236.5488443604
 51
270.0
  0
ARC
  5
516
100
AcDbEntity
  8
0
100
AcDbCircle
 62
7
  6
CONTINUOUS
 10
-6.4749754884
 20
-22.8109657482
 40
0.2517327723
100
AcDbArc
 50
280.9754118398
 51
299.9333941588
  0
ARC
  5
517
100
AcDbEntity
  8
0
100
AcDbCircle
 62
7
  6
CONTINUOUS
 10
-8.8727190434
 20
-22.8120011283
 40
0.2517327723
100
AcDbArc
 50
190.9754118398
 51
209.9333941588
  0
ARC
  5
518
100
AcDbEntity
  8
0
100
AcDbCircle
 62
7
  6
CONTINUOUS
 10
-6.4744132381
 20
-22.8120567097
 40
0.2505549566
100
AcDbArc
 50
270.0120084182
 51
280.8966878703
  0
ARC
  5
519
100
AcDbEntity
  8
0
100
AcDbCircle
 62
7
  6
CONTINUOUS
 10
-8.8738100049
 20
-22.8125633786
 40
0.2505549566
100
AcDbArc
 50
180.0120084182
 51
190.8966878703
  0
ARC
  5
51A
100
AcDbEntity
  8
0
100
AcDbCircle
 62
7
  6
CONTINUOUS
 10
-6.4787434079
 20
-22.8082332088
 40
0.2500066182
100
AcDbArc
 50
270.0024862874
 51
359.9975137126
  0
ARC
  5
51B
100
AcDbEntity
  8
0
100
AcDbCircle
 62
7
  6
CONTINUOUS
 10
-8.869986504
 20
-22.8082332088
 40
0.2500066182
100
AcDbArc
 50
180.0024862874
 51
269.9975137126
  0
ARC
  5
51C
100
AcDbEntity
  8
RACCORDO
100
AcDbCircle
 62
7
  6
CONTINUOUS
 10
-14.8191905275
 20
-6.1670291449
 40
21.6048868057
100
AcDbArc
 50
75.5023977401
 51
76.3225439616
  0
ARC
  5
51D
100
AcDbEntity
  8
RACCORDO
100
AcDbCircle
 62
253
  6
CONTINUOUS
 10
-29.8959525162
 20
-2.2572615117
 40
20.5362118544
100
AcDbArc
 50
10.6061345103
 51
11.2951837788
  0
ARC
  5
51E
100
AcDbEntity
  8
RACCORDO
100
AcDbCircle
 62
253
  6
CONTINUOUS
 10
-23.4711066926
 20
0.5242848135
 40
13.9215235114
100
AcDbArc
 50
5.350049612
 51
6.2017303598
  0
ARC
  5
51F
100
AcDbEntity
  8
RACCORDO
100
AcDbCircle
 62
253
  6
CONTINUOUS
 10
-23.3566967965
 20
-0.4610966753
 40
13.8065314534
100
AcDbArc
 50
353.7947877551
 51
354.6535629629
  0
ARC
  5
520
100
AcDbEntity
  8
RACCORDO
100
AcDbCircle
 62
253
  6
CONTINUOUS
 10
0.0086578128
 20
-8.4295876771
 40
1.4996683395
100
AcDbArc
 50
9.2816333911
 51
90.0037077827
  0
ARC
  5
521
100
AcDbEntity
  8
0
100
AcDbCircle
 62
7
  6
CONTINUOUS
 10
2.8774083167
 20
-13.6126116608
 40
1.4
100
AcDbArc
 50
75.8
 51
86.207915294
  0
ARC
  5
522
100
AcDbEntity
  8
0
100
AcDbCircle
 62
7
  6
CONTINUOUS
 10
-4.3905375007
 20
-7.5969530554
 40
1.2164253689
100
AcDbArc
 50
117.2699536052
 51
122.6536671546
  0
ARC
  5
523
100
AcDbEntity
  8
0
100
AcDbCircle
 62
7
  6
CONTINUOUS
 10
-4.0581924112
 20
-7.5969530554
 40
1.2164253689
100
AcDbArc
 50
57.3463328454
 51
62.7300463948
  0
ARC
  5
524
100
AcDbEntity
  8
RACCORDO
100
AcDbCircle
 62
253
  6
CONTINUOUS
 10
-8.9008791616
 20
-7.0731372949
 40
1.0002157485
100
AcDbArc
 50
180.0209419829
 51
269.9790580171
  0
ARC
  5
525
100
AcDbEntity
  8
RACCORDO
100
AcDbCircle
 62
253
  6
CONTINUOUS
 10
-8.7572906799
 20
-6.9295488131
 40
1.0002157485
100
AcDbArc
 50
180.0209419833
 51
269.9790580167
  0
ARC
  5
526
100
AcDbEntity
  8
RACCORDO
100
AcDbCircle
 62
253
  6
CONTINUOUS
 10
-0.1352104031
 20
-8.5734571079
 40
0.5001077272
100
AcDbArc
 50
0.0209297839
 51
89.9790702161
  0
ARC
  5
527
100
AcDbEntity
  8
RACCORDO
100
AcDbCircle
 62
253
  6
CONTINUOUS
 10
0.0090164754
 20
-8.4292302294
 40
0.4994624521
100
AcDbArc
 50
359.9477237752
 51
90.0522762249
  0
ARC
  5
528
100
AcDbEntity
  8
RACCORDO
100
AcDbCircle
 62
253
  6
CONTINUOUS
 10
-9.2111501408
 20
-1.4472631362
 40
0.4994395546
100
AcDbArc
 50
180.0600816133
 51
216.9600483939
  0
ARC
  5
529
100
AcDbEntity
  8
RACCORDO
100
AcDbCircle
 62
253
  6
CONTINUOUS
 10
-9.2094918143
 20
-1.4478554945
 40
0.2011424161
100
AcDbArc
 50
179.980448925
 51
216.7772965556
  0
ARC
  5
52A
100
AcDbEntity
  8
RACCORDO
100
AcDbCircle
 62
253
  6
CONTINUOUS
 10
-7.224364956
 20
0.0373883392
 40
3.3797545258
100
AcDbArc
 50
243.0206929646
 51
324.4559231778
  0
ARC
  5
52B
100
AcDbEntity
  8
RACCORDO
100
AcDbCircle
 62
253
  6
CONTINUOUS
 10
-7.224364956
 20
0.0373883392
 40
3.3797545258
100
AcDbArc
 50
35.5440768123
 51
116.9793129153
  0
ARC
  5
52C
100
AcDbEntity
  8
RACCORDO
100
AcDbCircle
 62
253
  6
CONTINUOUS
 10
-7.224364956
 20
0.0373883392
 40
3.0804853108
100
AcDbArc
 50
35.5440783369
 51
116.9793556318
  0
ARC
  5
52D
100
AcDbEntity
  8
RACCORDO
100
AcDbCircle
 62
253
  6
CONTINUOUS
 10
-7.224364956
 20
0.0373883392
 40
3.0804853108
100
AcDbArc
 50
243.0206443682
 51
324.4559216247
  0
ARC
  5
52E
100
AcDbEntity
  8
RACCORDO
100
AcDbCircle
 62
253
  6
CONTINUOUS
 10
-7.224364956
 20
0.0373883392
 40
2.9796610653
100
AcDbArc
 50
32.9981784532
 51
143.1986340811
  0
ARC
  5
52F
100
AcDbEntity
  8
RACCORDO
100
AcDbCircle
 62
253
  6
CONTINUOUS
 10
-7.224364956
 20
0.0373883392
 40
2.9796610653
100
AcDbArc
 50
216.8013636893
 51
327.0018646969
  0
ARC
  5
530
100
AcDbEntity
  8
RACCORDO
100
AcDbCircle
 62
7
  6
CONTINUOUS
 10
-7.224364956
 20
0.0373883392
 40
2.8
100
AcDbArc
 50
152.6192098778
 51
207.3807901222
  0
ARC
  5
531
100
AcDbEntity
  8
RACCORDO
100
AcDbCircle
 62
253
  6
CONTINUOUS
 10
-7.224364956
 20
0.0373883392
 40
2.6803918503
100
AcDbArc
 50
32.9981523689
 51
143.1986347748
  0
ARC
  5
532
100
AcDbEntity
  8
RACCORDO
100
AcDbCircle
 62
253
  6
CONTINUOUS
 10
-7.224364956
 20
0.0373883392
 40
2.6803918503
100
AcDbArc
 50
216.8013636601
 51
327.0018476567
  0
ARC
  5
533
100
AcDbEntity
  8
RACCORDO
100
AcDbCircle
 62
253
  6
CONTINUOUS
 10
-7.224364956
 20
0.0373883392
 40
2.5
100
AcDbArc
 50
150.9867661318
 51
209.0132338682
  0
CIRCLE
  5
534
100
AcDbEntity
  8
RACCORDO
100
AcDbCircle
 62
253
  6
CONTINUOUS
 10
-7.224364956
 20
0.0373883392
 40
2.4886488208
  0
CIRCLE
  5
535
100
AcDbEntity
  8
RACCORDO
100
AcDbCircle
 62
253
  6
CONTINUOUS
 10
-7.224364956
 20
0.0373883392
 40
2.2405122853
  0
CIRCLE
  5
536
100
AcDbEntity
  8
DRAFT
100
AcDbCircle
 62
7
  6
CONTINUOUS
 10
-7.224364956
 20
0.0373883392
 40
1.85
  0
ARC
  5
537
100
AcDbEntity
  8
0
100
AcDbCircle
 62
7
  6
CONTINUOUS
 10
-7.7733432871
 20
0.1224161988
 40
0.3877475101
100
AcDbArc
 50
112.5444589898
 51
115.3909973758
  0
ARC
  5
538
100
AcDbEntity
  8
RACCORDO
100
AcDbCircle
 62
253
  6
CONTINUOUS
 10
0.8480033143
 20
-0.9424643075
 40
0.3278413479
100
AcDbArc
 50
339.9049009423
 51
0.0887509205
  0
ARC
  5
539
100
AcDbEntity
  8
RACCORDO
100
AcDbCircle
 62
253
  6
CONTINUOUS
 10
0.8848976328
 20
-0.6443080184
 40
0.2828636241
100
AcDbArc
 50
344.2794114231
 51
359.9036845294
  0
ARC
  5
53A
100
AcDbEntity
  8
RACCORDO
100
AcDbCircle
 62
253
  6
CONTINUOUS
 10
-1.724364956
 20
0.0373883392
 40
3.3797545258
100
AcDbArc
 50
215.5440768148
 51
329.1620652596
  0
ARC
  5
53B
100
AcDbEntity
  8
RACCORDO
100
AcDbCircle
 62
253
  6
CONTINUOUS
 10
-1.724364956
 20
0.0373883392
 40
3.3797545258
100
AcDbArc
 50
30.8379347404
 51
144.4559231811
  0
ARC
  5
53C
100
AcDbEntity
  8
RACCORDO
100
AcDbCircle
 62
253
  6
CONTINUOUS
 10
-1.724364956
 20
0.0373883392
 40
3.0804853108
100
AcDbArc
 50
20.7719381232
 51
144.4559216689
  0
ARC
  5
53D
100
AcDbEntity
  8
RACCORDO
100
AcDbCircle
 62
253
  6
CONTINUOUS
 10
-1.724364956
 20
0.0373883392
 40
3.0804853108
100
AcDbArc
 50
215.5440783494
 51
339.2280433041
  0
ARC
  5
53E
100
AcDbEntity
  8
RACCORDO
100
AcDbCircle
 62
253
  6
CONTINUOUS
 10
-1.724364956
 20
0.0373883392
 40
2.9796610653
100
AcDbArc
 50
14.7441320642
 51
147.0018647007
  0
ARC
  5
53F
100
AcDbEntity
  8
RACCORDO
100
AcDbCircle
 62
253
  6
CONTINUOUS
 10
-1.724364956
 20
0.0373883392
 40
2.9796610653
100
AcDbArc
 50
212.9981784571
 51
345.255583013
  0
ARC
  5
540
100
AcDbEntity
  8
RACCORDO
100
AcDbCircle
 62
253
  6
CONTINUOUS
 10
-1.724364956
 20
0.0373883392
 40
2.6803918503
100
AcDbArc
 50
14.7441732088
 51
147.001847661
  0
ARC
  5
541
100
AcDbEntity
  8
RACCORDO
100
AcDbCircle
 62
253
  6
CONTINUOUS
 10
-1.724364956
 20
0.0373883392
 40
2.6803918503
100
AcDbArc
 50
212.9981523733
 51
345.2558268703
  0
CIRCLE
  5
542
100
AcDbEntity
  8
RACCORDO
100
AcDbCircle
 62
253
  6
CONTINUOUS
 10
-1.724364956
 20
0.0373883392
 40
2.3886488206
  0
CIRCLE
  5
543
100
AcDbEntity
  8
RACCORDO
100
AcDbCircle
 62
253
  6
CONTINUOUS
 10
-1.724364956
 20
0.0373883392
 40
2.1405122853
  0
CIRCLE
  5
544
100
AcDbEntity
  8
DRAFT
100
AcDbCircle
 62
7
  6
CONTINUOUS
 10
-1.724364956
 20
0.0373883392
 40
1.75
  0
ARC
  5
545
100
AcDbEntity
  8
RACCORDO
100
AcDbCircle
 62
253
  6
CONTINUOUS
 10
0.8480037918
 20
1.0172411828
 40
0.3278408708
100
AcDbArc
 50
359.9111640809
 51
20.094913275
  0
ARC
  5
546
100
AcDbEntity
  8
RACCORDO
100
AcDbCircle
 62
253
  6
CONTINUOUS
 10
0.8848594242
 20
0.7190793892
 40
0.2829018416
100
AcDbArc
 50
0.0973774079
 51
15.7195266399
  0
ARC
  5
547
100
AcDbEntity
  8
RACCORDO
100
AcDbCircle
 62
7
  6
CONTINUOUS
 10
17.0326389073
 20
-31.013283286
 40
22.2711631395
100
AcDbArc
 50
103.6897242107
 51
104.4853340876
  0
ARC
  5
548
100
AcDbEntity
  8
0
100
AcDbCircle
 62
7
  6
CONTINUOUS
 10
9.6855299658
 20
-15.5674686249
 40
3.3536109337
100
AcDbArc
 50
94.7125376574
 51
96.0079992824
  0
ARC
  5
549
100
AcDbEntity
  8
RACCORDO
100
AcDbCircle
 62
253
  6
CONTINUOUS
 10
9.8087740811
 20
-16.0822257497
 40
1.9999999706
100
AcDbArc
 50
315.0036142072
 51
359.9963857928
  0
ARC
  5
54A
100
AcDbEntity
  8
RACCORDO
100
AcDbCircle
 62
253
  6
CONTINUOUS
 10
9.8090912027
 20
-16.0823571057
 40
0.9998351499
100
AcDbArc
 50
314.9997022169
 51
0.0002977831
  0
ARC
  5
54B
100
AcDbEntity
  8
0
100
AcDbCircle
 62
7
  6
CONTINUOUS
 10
5.025635044
 20
-21.7126116608
 40
0.5
100
AcDbArc
 50
324.3637748935
 51
35.6362251065
  0
ARC
  5
54C
100
AcDbEntity
  8
0
100
AcDbCircle
 62
7
  6
CONTINUOUS
 10
11.6760882788
 20
-20.4626285523
 40
0.4999831086
100
AcDbArc
 50
269.9987915599
 51
359.9999963836
  0
ARC
  5
54D
100
AcDbEntity
  8
RACCORDO
100
AcDbCircle
 62
7
  6
CONTINUOUS
 10
7.3011352442
 20
-18.1626116608
 40
0.4
100
AcDbArc
 50
270.0
 51
321.3178125465
  0
ARC
  5
54E
100
AcDbEntity
  8
RACCORDO
100
AcDbCircle
 62
7
  6
CONTINUOUS
 10
7.925635044
 20
-18.6626116608
 40
0.4
100
AcDbArc
 50
0.0
 51
141.3178125465
  0
ARC
  5
54F
100
AcDbEntity
  8
0
100
AcDbCircle
 62
7
  6
CONTINUOUS
 10
9.025635044
 20
-19.1626116608
 40
0.3
100
AcDbArc
 50
270.0
 51
303.451025304
  0
ARC
  5
550
100
AcDbEntity
  8
RACCORDO
100
AcDbCircle
 62
7
  6
CONTINUOUS
 10
8.625635044
 20
-19.1626116608
 40
0.3
100
AcDbArc
 50
180.0
 51
270.0
  0
ARC
  5
551
100
AcDbEntity
  8
RACCORDO
100
AcDbCircle
 62
7
  6
CONTINUOUS
 10
9.025635044
 20
-19.1626116608
 40
0.3
100
AcDbArc
 50
270.0
 51
303.4499355247
  0
ARC
  5
552
100
AcDbEntity
  8
0
100
AcDbCircle
 62
7
  6
CONTINUOUS
 10
10.9250245116
 20
-22.8109657482
 40
0.2517327723
100
AcDbArc
 50
280.9754118398
 51
299.9333941588
  0
ARC
  5
553
100
AcDbEntity
  8
0
100
AcDbCircle
 62
7
  6
CONTINUOUS
 10
8.5272809566
 20
-22.8120011283
 40
0.2517327723
100
AcDbArc
 50
190.9754118398
 51
209.9333941588
  0
ARC
  5
554
100
AcDbEntity
  8
0
100
AcDbCircle
 62
7
  6
CONTINUOUS
 10
10.9255867619
 20
-22.8120567097
 40
0.2505549566
100
AcDbArc
 50
270.0120084182
 51
280.8966878703
  0
ARC
  5
555
100
AcDbEntity
  8
0
100
AcDbCircle
 62
7
  6
CONTINUOUS
 10
8.5261899951
 20
-22.8125633786
 40
0.2505549566
100
AcDbArc
 50
180.0120084182
 51
190.8966878703
  0
ARC
  5
556
100
AcDbEntity
  8
0
100
AcDbCircle
 62
7
  6
CONTINUOUS
 10
10.9212565921
 20
-22.8082332088
 40
0.2500066182
100
AcDbArc
 50
270.0024862874
 51
359.9975137126
  0
ARC
  5
557
100
AcDbEntity
  8
0
100
AcDbCircle
 62
7
  6
CONTINUOUS
 10
8.5300134956
 20
-22.8082332093
 40
0.2500066177
100
AcDbArc
 50
180.0024861811
 51
269.9975138189
  0
ARC
  5
558
100
AcDbEntity
  8
RACCORDO
100
AcDbCircle
 62
253
  6
CONTINUOUS
 10
3.9994404149
 20
-10.9094836081
 40
3.403690252
100
AcDbArc
 50
132.6862976006
 51
137.9073939934
  0
ARC
  5
559
100
AcDbEntity
  8
RACCORDO
100
AcDbCircle
 62
253
  6
CONTINUOUS
 10
3.775635044
 20
-10.6626116608
 40
3.3697545258
100
AcDbArc
 50
35.305394642
 51
132.7395977584
  0
ARC
  5
55A
100
AcDbEntity
  8
RACCORDO
100
AcDbCircle
 62
253
  6
CONTINUOUS
 10
3.775635044
 20
-10.6626116608
 40
3.3697545258
100
AcDbArc
 50
227.7134666856
 51
324.694605462
  0
ARC
  5
55B
100
AcDbEntity
  8
RACCORDO
100
AcDbCircle
 62
253
  6
CONTINUOUS
 10
3.775635044
 20
-10.6626116608
 40
3.0704853108
100
AcDbArc
 50
35.3053953152
 51
132.7396858107
  0
ARC
  5
55C
100
AcDbEntity
  8
RACCORDO
100
AcDbCircle
 62
253
  6
CONTINUOUS
 10
3.775635044
 20
-10.6626116608
 40
3.0704853108
100
AcDbArc
 50
227.713429014
 51
324.6946049597
  0
ARC
  5
55D
100
AcDbEntity
  8
RACCORDO
100
AcDbCircle
 62
253
  6
CONTINUOUS
 10
3.775635044
 20
-10.6626116608
 40
2.9696610653
100
AcDbArc
 50
32.7272771892
 51
327.2727664739
  0
ARC
  5
55E
100
AcDbEntity
  8
RACCORDO
100
AcDbCircle
 62
253
  6
CONTINUOUS
 10
3.775635044
 20
-10.6626116608
 40
2.6703918503
100
AcDbArc
 50
32.7272509266
 51
327.2727487611
  0
CIRCLE
  5
55F
100
AcDbEntity
  8
RACCORDO
100
AcDbCircle
 62
253
  6
CONTINUOUS
 10
3.775635044
 20
-10.6626116608
 40
2.3886487525
  0
CIRCLE
  5
560
100
AcDbEntity
  8
RACCORDO
100
AcDbCircle
 62
253
  6
CONTINUOUS
 10
3.775635044
 20
-10.6626116608
 40
2.1405122843
  0
CIRCLE
  5
561
100
AcDbEntity
  8
DRAFT
100
AcDbCircle
 62
7
  6
CONTINUOUS
 10
3.775635044
 20
-10.6626116608
 40
1.75
  0
ARC
  5
562
100
AcDbEntity
  8
0
100
AcDbCircle
 62
7
  6
CONTINUOUS
 10
9.6738617714
 20
-13.6126116608
 40
1.4
100
AcDbArc
 50
90.0
 51
104.2
  0
ARC
  5
563
100
AcDbEntity
  8
RACCORDO
100
AcDbCircle
 62
253
  6
CONTINUOUS
 10
11.2624300679
 20
-12.1304998569
 40
0.499429724
100
AcDbArc
 50
323.3490880097
 51
359.9395595337
  0
ARC
  5
564
100
AcDbEntity
  8
RACCORDO
100
AcDbCircle
 62
253
  6
CONTINUOUS
 10
11.2607389077
 20
-12.131094607
 40
0.2011654106
100
AcDbArc
 50
323.5335731647
 51
0.019342105
  0
ARC
  5
565
100
AcDbEntity
  8
RACCORDO
100
AcDbCircle
 62
253
  6
CONTINUOUS
 10
9.275635044
 20
-10.6626116608
 40
3.3697545258
100
AcDbArc
 50
62.9341028144
 51
144.6946053555
  0
ARC
  5
566
100
AcDbEntity
  8
RACCORDO
100
AcDbCircle
 62
253
  6
CONTINUOUS
 10
9.275635044
 20
-10.6626116608
 40
3.3697545258
100
AcDbArc
 50
215.3053945365
 51
297.0658971429
  0
ARC
  5
567
100
AcDbEntity
  8
RACCORDO
100
AcDbCircle
 62
253
  6
CONTINUOUS
 10
9.275635044
 20
-10.6626116608
 40
3.0704853108
100
AcDbArc
 50
62.9340538051
 51
144.6946046864
  0
ARC
  5
568
100
AcDbEntity
  8
RACCORDO
100
AcDbCircle
 62
253
  6
CONTINUOUS
 10
9.275635044
 20
-10.6626116608
 40
3.0704853108
100
AcDbArc
 50
215.3053950431
 51
297.0659461949
  0
ARC
  5
569
100
AcDbEntity
  8
RACCORDO
100
AcDbCircle
 62
253
  6
CONTINUOUS
 10
9.275635044
 20
-10.6626116608
 40
2.9696610653
100
AcDbArc
 50
36.4902902657
 51
147.2727667903
  0
ARC
  5
56A
100
AcDbEntity
  8
RACCORDO
100
AcDbCircle
 62
253
  6
CONTINUOUS
 10
9.275635044
 20
-10.6626116608
 40
2.9696610653
100
AcDbArc
 50
212.7272775082
 51
323.5097143501
  0
ARC
  5
56B
100
AcDbEntity
  8
RACCORDO
100
AcDbCircle
 62
7
  6
CONTINUOUS
 10
9.275635044
 20
-10.6626116608
 40
2.8
100
AcDbArc
 50
332.6192098778
 51
27.3807901222
  0
ARC
  5
56C
100
AcDbEntity
  8
RACCORDO
100
AcDbCircle
 62
253
  6
CONTINUOUS
 10
9.275635044
 20
-10.6626116608
 40
2.6703918503
100
AcDbArc
 50
212.7272513029
 51
323.5097151762
  0
ARC
  5
56D
100
AcDbEntity
  8
RACCORDO
100
AcDbCircle
 62
253
  6
CONTINUOUS
 10
9.275635044
 20
-10.6626116608
 40
2.6703918503
100
AcDbArc
 50
36.4902884676
 51
147.2727491338
  0
ARC
  5
56E
100
AcDbEntity
  8
RACCORDO
100
AcDbCircle
 62
253
  6
CONTINUOUS
 10
9.275635044
 20
-10.6626116608
 40
2.5
100
AcDbArc
 50
330.9867661318
 51
29.0132338682
  0
CIRCLE
  5
56F
100
AcDbEntity
  8
RACCORDO
100
AcDbCircle
 62
253
  6
CONTINUOUS
 10
9.275635044
 20
-10.6626116608
 40
2.4886488201
  0
CIRCLE
  5
570
100
AcDbEntity
  8
RACCORDO
100
AcDbCircle
 62
253
  6
CONTINUOUS
 10
9.275635044
 20
-10.6626116608
 40
2.2405122853
  0
CIRCLE
  5
571
100
AcDbEntity
  8
DRAFT
100
AcDbCircle
 62
7
  6
CONTINUOUS
 10
9.275635044
 20
-10.6626116608
 40
1.85
  0
ARC
  5
572
100
AcDbEntity
  8
RACCORDO
100
AcDbCircle
 62
253
  6
CONTINUOUS
 10
11.2624301566
 20
-9.1947234355
 40
0.4994297209
100
AcDbArc
 50
0.0604594931
 51
36.6509428655
  0
ARC
  5
573
100
AcDbEntity
  8
RACCORDO
100
AcDbCircle
 62
253
  6
CONTINUOUS
 10
11.2607394938
 20
-9.1941284245
 40
0.2011648245
100
AcDbArc
 50
359.9806307216
 51
36.466507995
  0
ARC
  5
574
100
AcDbEntity
  8
RACCORDO
100
AcDbCircle
 62
7
  6
CONTINUOUS
 10
10.3953749187
 20
-3.4627337046
 40
0.500191615
100
AcDbArc
 50
325.770669218
 51
0.0127757268
  0
ARC
  5
575
100
AcDbEntity
  8
RACCORDO
100
AcDbCircle
 62
253
  6
CONTINUOUS
 10
31.5780864502
 20
-8.4433151764
 40
20.1564407041
100
AcDbArc
 50
190.5418985663
 51
191.2474928109
  0
ARC
  5
576
100
AcDbEntity
  8
RACCORDO
100
AcDbCircle
 62
253
  6
CONTINUOUS
 10
30.7288444936
 20
-12.71845325
 40
19.2916287399
100
AcDbArc
 50
168.7366862359
 51
169.4739111609
  0
ARC
  5
577
100
AcDbEntity
  8
RACCORDO
100
AcDbCircle
 62
253
  6
CONTINUOUS
 10
25.4900687844
 20
-11.1539931066
 40
13.8855786482
100
AcDbArc
 50
185.2669185348
 51
186.1280809428
  0
ARC
  5
578
100
AcDbEntity
  8
RACCORDO
100
AcDbCircle
 62
253
  6
CONTINUOUS
 10
25.3868287047
 20
-10.160950896
 40
13.7818310447
100
AcDbArc
 50
173.8685918501
 51
174.7362358396
  0
ARC
  5
579
100
AcDbEntity
  8
RACCORDO
100
AcDbCircle
 62
253
  6
CONTINUOUS
 10
35.7870819161
 20
-0.0734233606
 40
34.6284018124
100
AcDbArc
 50
178.1959420672
 51
178.6878247522
  0
ARC
  5
57A
100
AcDbEntity
  8
RACCORDO
100
AcDbCircle
 62
253
  6
CONTINUOUS
 10
35.1250420177
 20
0.1301842776
 40
33.9661230282
100
AcDbArc
 50
181.307362641
 51
181.8088411295
  0
ARC
  5
57B
100
AcDbEntity
  8
RACCORDO
100
AcDbCircle
 62
253
  6
CONTINUOUS
 10
-29.0348557205
 20
2.1654209105
 40
19.6591600262
100
AcDbArc
 50
348.6894632823
 51
349.4092545958
  0
ARC
  5
57C
100
AcDbEntity
  8
RACCORDO
100
AcDbCircle
 62
253
  6
CONTINUOUS
 10
-29.8959852396
 20
11.2427323883
 40
20.5362451412
100
AcDbArc
 50
10.6061344312
 51
11.2951826213
  0
ARC
  5
57D
100
AcDbEntity
  8
RACCORDO
100
AcDbCircle
 62
253
  6
CONTINUOUS
 10
-29.035151481
 20
15.6654785219
 40
19.6594613333
100
AcDbArc
 50
348.6894678177
 51
349.4092480335
  0
ARC
  5
57E
100
AcDbEntity
  8
RACCORDO
100
AcDbCircle
 62
253
  6
CONTINUOUS
 10
-23.4724554391
 20
14.0241511272
 40
13.9228788456
100
AcDbArc
 50
5.3500798372
 51
6.2016778129
  0
ARC
  5
57F
100
AcDbEntity
  8
RACCORDO
100
AcDbCircle
 62
253
  6
CONTINUOUS
 10
-23.3550595639
 20
13.0387565817
 40
13.8048876716
100
AcDbArc
 50
353.7946597032
 51
354.6535362239
  0
ARC
  5
580
100
AcDbEntity
  8
RACCORDO
100
AcDbCircle
 62
253
  6
CONTINUOUS
 10
-9.2111501021
 20
1.5220398724
 40
0.4994395931
100
AcDbArc
 50
143.0399469719
 51
179.9399164558
  0
ARC
  5
581
100
AcDbEntity
  8
RACCORDO
100
AcDbCircle
 62
253
  6
CONTINUOUS
 10
-9.2094920372
 20
1.5226322915
 40
0.2011421932
100
AcDbArc
 50
143.2226716226
 51
180.0195636209
  0
ARC
  5
582
100
AcDbEntity
  8
RACCORDO
100
AcDbCircle
 62
253
  6
CONTINUOUS
 10
-7.224364956
 20
13.5373883392
 40
3.3797545258
100
AcDbArc
 50
243.0206929646
 51
324.4559231778
  0
ARC
  5
583
100
AcDbEntity
  8
RACCORDO
100
AcDbCircle
 62
253
  6
CONTINUOUS
 10
-7.224364956
 20
13.5373883392
 40
3.3797545258
100
AcDbArc
 50
35.5440768123
 51
116.9793129153
  0
ARC
  5
584
100
AcDbEntity
  8
RACCORDO
100
AcDbCircle
 62
253
  6
CONTINUOUS
 10
-7.224364956
 20
13.5373883392
 40
3.0804853108
100
AcDbArc
 50
35.5440783369
 51
116.9793556318
  0
ARC
  5
585
100
AcDbEntity
  8
RACCORDO
100
AcDbCircle
 62
253
  6
CONTINUOUS
 10
-7.224364956
 20
13.5373883392
 40
3.0804853108
100
AcDbArc
 50
243.0206443682
 51
324.4559216247
  0
ARC
  5
586
100
AcDbEntity
  8
RACCORDO
100
AcDbCircle
 62
253
  6
CONTINUOUS
 10
-7.224364956
 20
13.5373883392
 40
2.9796610653
100
AcDbArc
 50
32.9981784532
 51
143.1986341249
  0
ARC
  5
587
100
AcDbEntity
  8
RACCORDO
100
AcDbCircle
 62
253
  6
CONTINUOUS
 10
-7.224364956
 20
13.5373883392
 40
2.9796610653
100
AcDbArc
 50
216.8013636184
 51
327.0018646969
  0
ARC
  5
588
100
AcDbEntity
  8
RACCORDO
100
AcDbCircle
 62
7
  6
CONTINUOUS
 10
-7.224364956
 20
13.5373883392
 40
2.8
100
AcDbArc
 50
152.6192098778
 51
207.3807901222
  0
ARC
  5
589
100
AcDbEntity
  8
RACCORDO
100
AcDbCircle
 62
253
  6
CONTINUOUS
 10
-7.224364956
 20
13.5373883392
 40
2.6803918503
100
AcDbArc
 50
32.9981523689
 51
143.1986348034
  0
ARC
  5
58A
100
AcDbEntity
  8
RACCORDO
100
AcDbCircle
 62
253
  6
CONTINUOUS
 10
-7.224364956
 20
13.5373883392
 40
2.6803918503
100
AcDbArc
 50
216.8013634404
 51
327.0018476567
  0
ARC
  5
58B
100
AcDbEntity
  8
RACCORDO
100
AcDbCircle
 62
253
  6
CONTINUOUS
 10
-7.224364956
 20
13.5373883392
 40
2.5
100
AcDbArc
 50
150.9867661318
 51
209.0132338682
  0
CIRCLE
  5
58C
100
AcDbEntity
  8
RACCORDO
100
AcDbCircle
 62
253
  6
CONTINUOUS
 10
-7.224364956
 20
13.5373883392
 40
2.4886488208
  0
CIRCLE
  5
58D
100
AcDbEntity
  8
RACCORDO
100
AcDbCircle
 62
253
  6
CONTINUOUS
 10
-7.224364956
 20
13.5373883392
 40
2.2405122853
  0
CIRCLE
  5
58E
100
AcDbEntity
  8
DRAFT
100
AcDbCircle
 62
7
  6
CONTINUOUS
 10
-7.224364956
 20
13.5373883392
 40
1.85
  0
ARC
  5
58F
100
AcDbEntity
  8
RACCORDO
100
AcDbCircle
 62
253
  6
CONTINUOUS
 10
-9.2111501089
 20
12.0527369007
 40
0.4994395868
100
AcDbArc
 50
180.0600835437
 51
216.9600485226
  0
ARC
  5
590
100
AcDbEntity
  8
RACCORDO
100
AcDbCircle
 62
253
  6
CONTINUOUS
 10
-9.2094917586
 20
12.0521445278
 40
0.2011424718
100
AcDbArc
 50
179.9804495407
 51
216.777289203
  0
ARC
  5
591
100
AcDbEntity
  8
RACCORDO
100
AcDbCircle
 62
7
  6
CONTINUOUS
 10
-3.974364956
 20
15.9373883392
 40
2.7
100
AcDbArc
 50
332.752342502
 51
341.8433672891
  0
ARC
  5
592
100
AcDbEntity
  8
0
100
AcDbCircle
 62
7
  6
CONTINUOUS
 10
-7.5751768026
 20
17.4016031143
 40
2.3024739526
100
AcDbArc
 50
277.700436954
 51
279.246209559
  0
ARC
  5
593
100
AcDbEntity
  8
0
100
AcDbCircle
 62
7
  6
CONTINUOUS
 10
-7.4636959296
 20
16.7258503219
 40
1.6175894288
100
AcDbArc
 50
279.1946979835
 51
281.1316841445
  0
ARC
  5
594
100
AcDbEntity
  8
0
100
AcDbCircle
 62
7
  6
CONTINUOUS
 10
-7.6225916833
 20
16.4920221828
 40
1.4
100
AcDbArc
 50
270.0
 51
284.2
  0
ARC
  5
595
100
AcDbEntity
  8
RACCORDO
100
AcDbCircle
 62
253
  6
CONTINUOUS
 10
-9.2111501031
 20
15.0220398717
 40
0.4994395921
100
AcDbArc
 50
143.0399470761
 51
179.9399165186
  0
ARC
  5
596
100
AcDbEntity
  8
RACCORDO
100
AcDbCircle
 62
253
  6
CONTINUOUS
 10
-9.2094920334
 20
15.0226322894
 40
0.2011421971
100
AcDbArc
 50
143.2226721719
 51
180.0195633799
  0
ARC
  5
597
100
AcDbEntity
  8
RACCORDO
100
AcDbCircle
 62
253
  6
CONTINUOUS
 10
-1.724364956
 20
13.5373883392
 40
3.3797545258
100
AcDbArc
 50
215.5440768148
 51
329.1620652596
  0
ARC
  5
598
100
AcDbEntity
  8
RACCORDO
100
AcDbCircle
 62
253
  6
CONTINUOUS
 10
-1.724364956
 20
13.5373883392
 40
3.3797545258
100
AcDbArc
 50
30.8379347404
 51
144.4559231811
  0
ARC
  5
599
100
AcDbEntity
  8
RACCORDO
100
AcDbCircle
 62
253
  6
CONTINUOUS
 10
-1.724364956
 20
13.5373883392
 40
3.0804853108
100
AcDbArc
 50
20.771939809
 51
144.4559216689
  0
ARC
  5
59A
100
AcDbEntity
  8
RACCORDO
100
AcDbCircle
 62
253
  6
CONTINUOUS
 10
-1.724364956
 20
13.5373883392
 40
3.0804853108
100
AcDbArc
 50
215.5440783494
 51
339.2280361172
  0
ARC
  5
59B
100
AcDbEntity
  8
RACCORDO
100
AcDbCircle
 62
253
  6
CONTINUOUS
 10
-1.724364956
 20
13.5373883392
 40
2.9796610653
100
AcDbArc
 50
14.7441267197
 51
147.0018647007
  0
ARC
  5
59C
100
AcDbEntity
  8
RACCORDO
100
AcDbCircle
 62
253
  6
CONTINUOUS
 10
-1.724364956
 20
13.5373883392
 40
2.9796610653
100
AcDbArc
 50
212.9981784571
 51
345.2556050185
  0
ARC
  5
59D
100
AcDbEntity
  8
RACCORDO
100
AcDbCircle
 62
253
  6
CONTINUOUS
 10
-0.0113224616
 20
11.7431644069
 40
2.7708028592
100
AcDbArc
 50
95.2395624678
 51
122.015717738
  0
ARC
  5
59E
100
AcDbEntity
  8
RACCORDO
100
AcDbCircle
 62
253
  6
CONTINUOUS
 10
-1.724364956
 20
13.5373883392
 40
2.6803918503
100
AcDbArc
 50
14.7441732085
 51
147.001847661
  0
ARC
  5
59F
100
AcDbEntity
  8
RACCORDO
100
AcDbCircle
 62
253
  6
CONTINUOUS
 10
-1.724364956
 20
13.5373883392
 40
2.6803918503
100
AcDbArc
 50
212.9981523733
 51
345.2558268706
  0
CIRCLE
  5
5A0
100
AcDbEntity
  8
RACCORDO
100
AcDbCircle
 62
253
  6
CONTINUOUS
 10
-1.724364956
 20
13.5373883392
 40
2.3886488206
  0
CIRCLE
  5
5A1
100
AcDbEntity
  8
RACCORDO
100
AcDbCircle
 62
253
  6
CONTINUOUS
 10
-1.724364956
 20
13.5373883392
 40
2.1405122853
  0
CIRCLE
  5
5A2
100
AcDbEntity
  8
DRAFT
100
AcDbCircle
 62
7
  6
CONTINUOUS
 10
-1.724364956
 20
13.5373883392
 40
1.75
  0
ARC
  5
5A3
100
AcDbEntity
  8
RACCORDO
100
AcDbCircle
 62
253
  6
CONTINUOUS
 10
1.7397398759
 20
11.5215051096
 40
0.9999936708
100
AcDbArc
 50
239.8108383868
 51
270.0000963352
  0
ARC
  5
5A4
100
AcDbEntity
  8
RACCORDO
100
AcDbCircle
 62
253
  6
CONTINUOUS
 10
1.7397151154
 20
11.5214684105
 40
0.4999648488
100
AcDbArc
 50
179.9969870216
 51
270.0036011361
  0
ARC
  5
5A5
100
AcDbEntity
  8
RACCORDO
100
AcDbCircle
 62
253
  6
CONTINUOUS
 10
0.8480016705
 20
12.5575357441
 40
0.3278429919
100
AcDbArc
 50
339.9049147228
 51
0.0887645173
  0
ARC
  5
5A6
100
AcDbEntity
  8
RACCORDO
100
AcDbCircle
 62
253
  6
CONTINUOUS
 10
0.8848594231
 20
14.2190793891
 40
0.2829018428
100
AcDbArc
 50
0.0973774406
 51
15.7195266073
  0
ARC
  5
5A7
100
AcDbEntity
  8
RACCORDO
100
AcDbCircle
 62
253
  6
CONTINUOUS
 10
0.884897635
 20
12.8556919813
 40
0.2828636219
100
AcDbArc
 50
344.2794113627
 51
359.9036845897
  0
ARC
  5
5A8
100
AcDbEntity
  8
0
100
AcDbCircle
 62
7
  6
CONTINUOUS
 10
-0.8261382286
 20
16.4920221828
 40
1.4
100
AcDbArc
 50
255.8
 51
265.8089754708
  0
ARC
  5
5A9
100
AcDbEntity
  8
RACCORDO
100
AcDbCircle
 62
253
  6
CONTINUOUS
 10
0.8480021188
 20
14.517240872
 40
0.3278425437
100
AcDbArc
 50
359.9111667504
 51
20.0948882523
  0
ARC
  5
5AA
100
AcDbEntity
  8
RACCORDO
100
AcDbCircle
 62
7
  6
CONTINUOUS
 10
-14.9813688193
 20
33.8880599648
 40
22.2711631399
100
AcDbArc
 50
283.6897242107
 51
284.4853340875
  0
ARC
  5
5AB
100
AcDbEntity
  8
RACCORDO
100
AcDbCircle
 62
7
  6
CONTINUOUS
 10
-14.9813688192
 20
20.3880599643
 40
22.2711631394
100
AcDbArc
 50
283.6897242107
 51
284.4853340876
  0
ARC
  5
5AC
100
AcDbEntity
  8
0
100
AcDbCircle
 62
7
  6
CONTINUOUS
 10
-7.7250595624
 20
18.4865513272
 40
3.3977231122
100
AcDbArc
 50
276.5688356916
 51
277.7536375415
  0
ARC
  5
5AD
100
AcDbEntity
  8
RACCORDO
100
AcDbCircle
 62
253
  6
CONTINUOUS
 10
-7.757503993
 20
18.9570024281
 40
1.9999999706
100
AcDbArc
 50
135.0036142072
 51
179.9963857928
  0
ARC
  5
5AE
100
AcDbEntity
  8
RACCORDO
100
AcDbCircle
 62
253
  6
CONTINUOUS
 10
-7.7578210753
 20
18.9571337583
 40
0.9998351959
100
AcDbArc
 50
134.9997027574
 51
179.9933004798
  0
ARC
  5
5AF
100
AcDbEntity
  8
0
100
AcDbCircle
 62
7
  6
CONTINUOUS
 10
-2.974364956
 20
24.5873883392
 40
0.5
100
AcDbArc
 50
144.3637748935
 51
215.6362251065
  0
ARC
  5
5B0
100
AcDbEntity
  8
0
100
AcDbCircle
 62
7
  6
CONTINUOUS
 10
-9.6248181907
 20
23.3374052307
 40
0.4999831086
100
AcDbArc
 50
89.9987915599
 51
179.9999963836
  0
ARC
  5
5B1
100
AcDbEntity
  8
RACCORDO
100
AcDbCircle
 62
7
  6
CONTINUOUS
 10
-5.2498651561
 20
21.0373883392
 40
0.4
100
AcDbArc
 50
90.0
 51
141.3178125465
  0
ARC
  5
5B2
100
AcDbEntity
  8
RACCORDO
100
AcDbCircle
 62
7
  6
CONTINUOUS
 10
-5.874364956
 20
21.5373883392
 40
0.4
100
AcDbArc
 50
180.0
 51
321.3178125465
  0
ARC
  5
5B3
100
AcDbEntity
  8
0
100
AcDbCircle
 62
7
  6
CONTINUOUS
 10
-6.974364956
 20
22.0373883392
 40
0.3
100
AcDbArc
 50
90.0
 51
123.451025304
  0
ARC
  5
5B4
100
AcDbEntity
  8
RACCORDO
100
AcDbCircle
 62
7
  6
CONTINUOUS
 10
-6.574364956
 20
22.0373883392
 40
0.3
100
AcDbArc
 50
0.0
 51
90.0
  0
ARC
  5
5B5
100
AcDbEntity
  8
RACCORDO
100
AcDbCircle
 62
7
  6
CONTINUOUS
 10
-6.974364956
 20
22.0373883392
 40
0.3
100
AcDbArc
 50
90.0
 51
123.4499355247
  0
ARC
  5
5B6
100
AcDbEntity
  8
0
100
AcDbCircle
 62
7
  6
CONTINUOUS
 10
-8.8737544235
 20
25.6857424266
 40
0.2517327723
100
AcDbArc
 50
100.9754118398
 51
119.9333941588
  0
ARC
  5
5B7
100
AcDbEntity
  8
0
100
AcDbCircle
 62
7
  6
CONTINUOUS
 10
-6.4760108685
 20
25.6867778068
 40
0.2517327723
100
AcDbArc
 50
10.9754118398
 51
29.9333941588
  0
ARC
  5
5B8
100
AcDbEntity
  8
0
100
AcDbCircle
 62
7
  6
CONTINUOUS
 10
-8.8743166738
 20
25.6868333882
 40
0.2505549566
100
AcDbArc
 50
90.0120084182
 51
100.8966878703
  0
ARC
  5
5B9
100
AcDbEntity
  8
0
100
AcDbCircle
 62
7
  6
CONTINUOUS
 10
-6.474919907
 20
25.6873400571
 40
0.2505549566
100
AcDbArc
 50
0.0120084182
 51
10.8966878703
  0
ARC
  5
5BA
100
AcDbEntity
  8
0
100
AcDbCircle
 62
7
  6
CONTINUOUS
 10
-8.869986504
 20
25.6830098872
 40
0.2500066182
100
AcDbArc
 50
90.0024862874
 51
179.9975137126
  0
ARC
  5
5BB
100
AcDbEntity
  8
0
100
AcDbCircle
 62
7
  6
CONTINUOUS
 10
-6.4787434075
 20
25.6830098877
 40
0.2500066177
100
AcDbArc
 50
0.0024861811
 51
89.9975138189
  0
ARC
  5
5BC
100
AcDbEntity
  8
RACCORDO
100
AcDbCircle
 62
253
  6
CONTINUOUS
 10
35.7875463892
 20
13.4265554715
 40
34.6288667123
100
AcDbArc
 50
178.1959317407
 51
178.6878027241
  0
ARC
  5
5BD
100
AcDbEntity
  8
RACCORDO
100
AcDbCircle
 62
253
  6
CONTINUOUS
 10
35.1414348936
 20
13.6306525915
 40
33.9825225138
100
AcDbArc
 50
181.3075355972
 51
181.8087576839
  0
ARC
  5
5BE
100
AcDbEntity
  8
RACCORDO
100
AcDbCircle
 62
7
  6
CONTINUOUS
 10
16.8704606156
 20
9.0418058236
 40
21.604886806
100
AcDbArc
 50
255.5023977401
 51
256.3225439616
  0
CIRCLE
  5
5BF
100
AcDbEntity
  8
0
100
AcDbCircle
 62
7
  6
CONTINUOUS
 10
5.625635044
 20
15.4373883392
 40
3.1
  0
ARC
  5
5C0
100
AcDbEntity
  8
RACCORDO
100
AcDbCircle
 62
253
  6
CONTINUOUS
 10
10.2071545365
 20
11.5216935549
 40
1.0001821162
100
AcDbArc
 50
269.9994372099
 51
300.5706688728
  0
ARC
  5
5C1
100
AcDbEntity
  8
RACCORDO
100
AcDbCircle
 62
253
  6
CONTINUOUS
 10
7.4455149995
 20
17.0410571709
 40
0.8054231825
100
AcDbArc
 50
79.438778109
 51
89.8447589099
  0
ARC
  5
5C2
100
AcDbEntity
  8
RACCORDO
100
AcDbCircle
 62
253
  6
CONTINUOUS
 10
7.4412458114
 20
17.0520499632
 40
0.800489741
100
AcDbArc
 50
0.1058402486
 51
3.6449183294
  0
ARC
  5
5C3
100
AcDbEntity
  8
RACCORDO
100
AcDbCircle
 62
253
  6
CONTINUOUS
 10
7.4483641468
 20
17.0445308694
 40
0.6982324752
100
AcDbArc
 50
59.9466434069
 51
90.0547231819
  0
ARC
  5
5C4
100
AcDbEntity
  8
RACCORDO
100
AcDbCircle
 62
253
  6
CONTINUOUS
 10
7.444250504
 20
17.0491283152
 40
0.6982290948
100
AcDbArc
 50
359.9839640707
 51
22.9928899766
  0
ARC
  5
5C5
100
AcDbEntity
  8
RACCORDO
100
AcDbCircle
 62
253
  6
CONTINUOUS
 10
10.207338392
 20
11.5214607328
 40
0.4999447616
100
AcDbArc
 50
269.9772662123
 51
359.9960632194
  0
ARC
  5
5C6
100
AcDbEntity
  8
RACCORDO
100
AcDbCircle
 62
7
  6
CONTINUOUS
 10
10.1418222679
 20
15.4373883392
 40
0.4411849109
100
AcDbArc
 50
89.5021464937
 51
270.4978535063
  0
ARC
  5
5C7
100
AcDbEntity
  8
RACCORDO
100
AcDbCircle
 62
253
  6
CONTINUOUS
 10
10.145655777
 20
15.4373883392
 40
0.4144462335
100
AcDbArc
 50
90.0
 51
270.0004176259
  0
ARC
  5
5C8
100
AcDbEntity
  8
RACCORDO
100
AcDbCircle
 62
253
  6
CONTINUOUS
 10
10.145655781
 20
15.4373883392
 40
0.0144614643
100
AcDbArc
 50
90.0000161446
 51
269.9999838554
  0
ARC
  5
5C9
100
AcDbEntity
  8
RACCORDO
100
AcDbCircle
 62
253
  6
CONTINUOUS
 10
9.8087740811
 20
18.9570024281
 40
1.9999999706
100
AcDbArc
 50
0.0036142072
 51
44.9963857928
  0
ARC
  5
5CA
100
AcDbEntity
  8
RACCORDO
100
AcDbCircle
 62
7
  6
CONTINUOUS
 10
10.3945792074
 20
19.3548465323
 40
0.5008413645
100
AcDbArc
 50
0.0669220891
 51
60.374069353
  0
ARC
  5
5CB
100
AcDbEntity
  8
0
100
AcDbCircle
 62
7
  6
CONTINUOUS
 10
5.025635044
 20
24.5873883392
 40
0.5
100
AcDbArc
 50
324.3637748935
 51
35.6362251065
  0
ARC
  5
5CC
100
AcDbEntity
  8
0
100
AcDbCircle
 62
7
  6
CONTINUOUS
 10
11.6760882788
 20
23.3374052307
 40
0.4999831086
100
AcDbArc
 50
0.0000036164
 51
90.0012084401
  0
ARC
  5
5CD
100
AcDbEntity
  8
RACCORDO
100
AcDbCircle
 62
7
  6
CONTINUOUS
 10
10.3954426795
 20
19.3563392177
 40
0.4991147424
100
AcDbArc
 50
60.3755277441
 51
89.9834055614
  0
ARC
  5
5CE
100
AcDbEntity
  8
RACCORDO
100
AcDbCircle
 62
7
  6
CONTINUOUS
 10
7.3011352442
 20
21.0373883392
 40
0.4
100
AcDbArc
 50
38.6821874535
 51
90.0
  0
ARC
  5
5CF
100
AcDbEntity
  8
RACCORDO
100
AcDbCircle
 62
7
  6
CONTINUOUS
 10
7.925635044
 20
21.5373883392
 40
0.4
100
AcDbArc
 50
218.6821874535
 51
360.0
  0
ARC
  5
5D0
100
AcDbEntity
  8
0
100
AcDbCircle
 62
7
  6
CONTINUOUS
 10
9.025635044
 20
22.0373883392
 40
0.3
100
AcDbArc
 50
56.548974696
 51
90.0
  0
ARC
  5
5D1
100
AcDbEntity
  8
RACCORDO
100
AcDbCircle
 62
7
  6
CONTINUOUS
 10
8.625635044
 20
22.0373883392
 40
0.3
100
AcDbArc
 50
90.0
 51
180.0
  0
ARC
  5
5D2
100
AcDbEntity
  8
RACCORDO
100
AcDbCircle
 62
7
  6
CONTINUOUS
 10
9.025635044
 20
22.0373883392
 40
0.3
100
AcDbArc
 50
56.5488443604
 51
90.0
  0
ARC
  5
5D3
100
AcDbEntity
  8
0
100
AcDbCircle
 62
7
  6
CONTINUOUS
 10
10.9239891315
 20
25.6867778068
 40
0.2517327723
100
AcDbArc
 50
10.9754118398
 51
29.9333941588
  0
ARC
  5
5D4
100
AcDbEntity
  8
0
100
AcDbCircle
 62
7
  6
CONTINUOUS
 10
8.5262455765
 20
25.6857424266
 40
0.2517327723
100
AcDbArc
 50
100.9754118398
 51
119.9333941588
  0
ARC
  5
5D5
100
AcDbEntity
  8
0
100
AcDbCircle
 62
7
  6
CONTINUOUS
 10
10.925080093
 20
25.6873400571
 40
0.2505549566
100
AcDbArc
 50
0.0120084182
 51
10.8966878703
  0
ARC
  5
5D6
100
AcDbEntity
  8
0
100
AcDbCircle
 62
7
  6
CONTINUOUS
 10
8.5256833262
 20
25.6868333882
 40
0.2505549566
100
AcDbArc
 50
90.0120084182
 51
100.8966878703
  0
ARC
  5
5D7
100
AcDbEntity
  8
0
100
AcDbCircle
 62
7
  6
CONTINUOUS
 10
10.9212565921
 20
25.6830098872
 40
0.2500066182
100
AcDbArc
 50
0.0024862874
 51
89.9975137126
  0
ARC
  5
5D8
100
AcDbEntity
  8
0
100
AcDbCircle
 62
7
  6
CONTINUOUS
 10
8.5300134956
 20
25.6830098877
 40
0.2500066177
100
AcDbArc
 50
90.0024861811
 51
179.9975138189
  0
ARC
  5
5D9
100
AcDbEntity
  8
RACCORDO
100
AcDbCircle
 62
7
  6
CONTINUOUS
 10
140.7495400987
 20
10.6271761499
 40
139.5126567048
100
AcDbArc
 50
179.6327140534
 51
179.9876940282
  0
SPLINE
  5
5DA
100
AcDbEntity
  8
RACCORDO
100
AcDbSpline
 62
253
  6
CONTINUOUS
 70
0
 71
3
 72
23
 73
19
 74
17
 42
0.0000001
 43
0.0000001
 44
0.0000000001
 12
1.465627088
 22
0.9778080991
 32
0.0
 13
1.6728049972
 23
-0.5530776448
 33
0.0
 40
0.0
 40
0.0
 40
0.0
 40
0.0
 40
0.1777156993
 40
0.3508620371
 40
0.5151508398
 40
0.5924873047
 40
0.6657048733
 40
0.7340106431
 40
0.7965691118
 40
0.8524529602
 40
0.9007076015
 40
0.9403638638
 40
0.9566810131
 40
0.9705259588
 40
0.9818080329
 40
0.990464087
 40
0.9964900117
 40
1.0
 40
1.0
 40
1.0
 40
1.0
 10
4.8306659302
 20
14.5139920447
 30
0.0
 10
4.9174875778
 20
14.5719159948
 30
0.0
 10
5.0894322539
 20
14.6854747892
 30
0.0
 10
5.3428768945
 20
14.850697365
 30
0.0
 10
5.5478958011
 20
14.9822467554
 30
0.0
 10
5.7042186168
 20
15.0810028737
 30
0.0
 10
5.8132339725
 20
15.1490967286
 30
0.0
 10
5.9152757976
 20
15.2119688913
 30
0.0
 10
6.009085309
 20
15.2687897855
 30
0.0
 10
6.0933067707
 20
15.3187052009
 30
0.0
 10
6.1665108743
 20
15.3608114605
 30
0.0
 10
6.2201320567
 20
15.3903578219
 30
0.0
 10
6.2565236326
 20
15.4092448856
 30
0.0
 10
6.2783795723
 20
15.4199879184
 30
0.0
 10
6.2964318917
 20
15.4281565102
 30
0.0
 10
6.310691142
 20
15.4337981333
 30
0.0
 10
6.3208128126
 20
15.4367484907
 30
0.0
 10
6.326653057
 20
15.4375047352
 30
0.0
 10
6.3286102323
 20
15.4368576365
 30
0.0
 11
4.8306659302
 21
14.5139920447
 31
0.0
 11
5.0918441732
 21
14.6866899536
 31
0.0
 11
5.3474400553
 21
14.853221427
 31
0.0
 11
5.591123442
 21
15.0094344571
 31
0.0
 11
5.7063270658
 21
15.082194016
 31
0.0
 11
5.8157524874
 21
15.1505091514
 31
0.0
 11
5.91823245
 21
15.2136037014
 31
0.0
 11
6.0125341733
 21
15.2706611495
 31
0.0
 11
6.0972768007
 21
15.3207912655
 31
0.0
 11
6.1710305094
 21
15.3630817602
 31
0.0
 11
6.2323293665
 21
15.3966098014
 31
0.0
 11
6.2578663043
 21
15.4098139093
 31
0.0
 11
6.2797845342
 21
15.4205193569
 31
0.0
 11
6.2979298198
 21
15.428635001
 31
0.0
 11
6.3121722776
 21
15.4340883942
 31
0.0
 11
6.3224261262
 21
15.4368409466
 31
0.0
 11
6.3286102323
 21
15.4368576365
 31
0.0
  0
SPLINE
  5
5DB
100
AcDbEntity
  8
RACCORDO
100
AcDbSpline
 62
253
  6
CONTINUOUS
 70
0
 71
3
 72
25
 73
21
 74
19
 42
0.0000001
 43
0.0000001
 44
0.0000000001
 12
0.9667311939
 22
1.4449975821
 32
0.0
 13
1.7385101803
 23
0.0130217732
 33
0.0
 40
0.0
 40
0.0
 40
0.0
 40
0.0
 40
0.1798108446
 40
0.3546045831
 40
0.5200303554
 40
0.5977216544
 40
0.6711390484
 40
0.7394789068
 40
0.8018946124
 40
0.8574487095
 40
0.9051765503
 40
0.9257995302
 40
0.9440992974
 40
0.9599669715
 40
0.9733038012
 40
0.9840140413
 40
0.9920265013
 40
0.9973212977
 40
0.9989673611
 40
1.0
 40
1.0
 40
1.0
 40
1.0
 10
4.8306659302
 20
14.5139920447
 30
0.0
 10
4.8886088476
 20
14.6006007899
 30
0.0
 10
5.0029659678
 20
14.7713433792
 30
0.0
 10
5.17191485
 20
15.0209022279
 30
0.0
 10
5.3086853412
 20
15.2207752895
 30
0.0
 10
5.412953037
 20
15.371698573
 30
0.0
 10
5.4856234065
 20
15.4760658075
 30
0.0
 10
5.5536435798
 20
15.5728826563
 30
0.0
 10
5.61616183
 20
15.6609119053
 30
0.0
 10
5.6722827752
 20
15.7388311196
 30
0.0
 10
5.7147750912
 20
15.7967158823
 30
0.0
 10
5.7449170094
 20
15.8368799945
 30
0.0
 10
5.7641981407
 20
15.8621075686
 30
0.0
 10
5.7811656551
 20
15.8837900183
 30
0.0
 10
5.7957100843
 20
15.9017718603
 30
0.0
 10
5.8077301592
 20
15.9159597735
 30
0.0
 10
5.817135163
 20
15.9261845732
 30
0.0
 10
5.8234283273
 20
15.9322410279
 30
0.0
 10
5.8272037724
 20
15.9348542086
 30
0.0
 10
5.8286970472
 20
15.9354836281
 30
0.0
 10
5.8292954649
 20
15.9354881104
 30
0.0
 11
4.8306659302
 21
14.5139920447
 31
0.0
 11
5.0048019303
 21
14.7736124626
 31
0.0
 11
5.1751729015
 21
15.0252518654
 31
0.0
 11
5.3376383521
 21
15.2625705337
 31
0.0
 11
5.4144306205
 21
15.3736880226
 31
0.0
 11
5.4873808734
 21
15.4784274589
 31
0.0
 11
5.5557033334
 21
15.5756310599
 31
0.0
 11
5.6185678096
 21
15.6640799831
 31
0.0
 11
5.6750604277
 21
15.7424194187
 31
0.0
 11
5.7242342475
 21
15.8092567457
 31
0.0
 11
5.7457694185
 21
15.8379231863
 31
0.0
 11
5.7651056806
 21
15.8631881315
 31
0.0
 11
5.7821317675
 21
15.8848940911
 31
0.0
 11
5.7967451608
 21
15.9028962973
 31
0.0
 11
5.808843708
 21
15.9170505845
 31
0.0
 11
5.8183405547
 21
15.9272416854
 31
0.0
 11
5.8251765506
 21
15.9334066668
 31
0.0
 11
5.8275791574
 21
15.9349614194
 31
0.0
 11
5.8292954649
 21
15.9354881104
 31
0.0
  0
SPLINE
  5
5DC
100
AcDbEntity
  8
RACCORDO
100
AcDbSpline
 62
253
  6
CONTINUOUS
 70
0
 71
3
 72
11
 73
7
 74
5
 42
0.0000001
 43
0.0000001
 44
0.0000000001
 12
-0.0021183732
 22
0.7744520531
 32
0.0
 13
-0.7744281198
 23
0.0064464937
 33
0.0
 40
0.0
 40
0.0
 40
0.0
 40
0.0
 40
0.2501722268
 40
0.5002152747
 40
0.7501292442
 40
1.0
 40
1.0
 40
1.0
 40
1.0
 10
6.3286102323
 20
15.4368576365
 30
0.0
 10
6.3284335796
 20
15.5014397681
 30
0.0
 10
6.3024688221
 20
15.6318921921
 30
0.0
 10
6.1924104732
 20
15.7970258781
 30
0.0
 10
6.0281053643
 20
15.908199222
 30
0.0
 10
5.8979055188
 20
15.9349340782
 30
0.0
 10
5.8334032056
 20
15.9354710083
 30
0.0
 11
6.3286102323
 21
15.4368576365
 31
0.0
 11
6.2905993876
 21
15.6268395356
 31
0.0
 11
6.1833370625
 21
15.7880660339
 31
0.0
 11
6.0229237212
 21
15.8963621283
 31
0.0
 11
5.8334032056
 21
15.9354710083
 31
0.0
  0
SPLINE
  5
5DD
100
AcDbEntity
  8
RACCORDO
100
AcDbSpline
 62
7
  6
CONTINUOUS
 70
0
 71
3
 72
14
 73
10
 74
8
 42
0.0000001
 43
0.0000001
 44
0.0000000001
 12
-0.3940320363
 22
0.0
 32
0.0
 13
-0.1227651272
 23
-0.3744195096
 33
0.0
 40
0.0
 40
0.0
 40
0.0
 40
0.0
 40
0.0824315749
 40
0.1711240556
 40
0.270826974
 40
0.3846122441
 40
0.5141638616
 40
0.6601285239
 40
1.0
 40
1.0
 40
1.0
 40
1.0
 10
-8.5762471266
 20
0.1373883392
 30
0.0
 10
-8.5870740204
 20
0.1373883392
 30
0.0
 10
-8.6096649544
 20
0.1338553796
 30
0.0
 10
-8.6422123995
 20
0.1186140715
 30
0.0
 10
-8.6736362695
 20
0.0939378362
 30
0.0
 10
-8.7038481485
 20
0.0602876232
 30
0.0
 10
-8.7327366541
 20
0.0179552419
 30
0.0
 10
-8.7711891357
 20
-0.0532543843
 30
0.0
 10
-8.7941860421
 20
-0.1130867091
 30
0.0
 10
-8.8080941637
 20
-0.1555048796
 30
0.0
 11
-8.5762471266
 21
0.1373883392
 31
0.0
 11
-8.6083684017
 21
0.1325697977
 31
0.0
 11
-8.6402132792
 21
0.1181738248
 31
0.0
 11
-8.67143059
 21
0.0943226066
 31
0.0
 11
-8.7017218785
 21
0.0612678217
 31
0.0
 11
-8.7308046985
 21
0.0193150438
 31
0.0
 11
-8.7584084811
 21
-0.0311426415
 31
0.0
 11
-8.8080941637
 21
-0.1555048796
 31
0.0
  0
SPLINE
  5
5DE
100
AcDbEntity
  8
0
100
AcDbSpline
 62
7
  6
CONTINUOUS
 70
0
 71
3
 72
9
 73
5
 74
3
 42
0.0000001
 43
0.0000001
 44
0.0000000001
 12
-0.0060923503
 22
-0.0349240865
 32
0.0
 13
-0.035384841
 23
0.0021729186
 33
0.0
 40
0.0
 40
0.0
 40
0.0
 40
0.0
 40
0.2952654954
 40
1.0
 40
1.0
 40
1.0
 40
1.0
 10
3.4756871854
 20
-12.2944213087
 30
0.0
 10
3.4750875652
 20
-12.2978586012
 30
0.0
 10
3.4593075981
 20
-12.3003033276
 30
0.0
 10
3.4496320574
 20
-12.2999151805
 30
0.0
 10
3.4413197513
 20
-12.2994047369
 30
0.0
 11
3.4756871854
 21
-12.2944213087
 31
0.0
 11
3.4663011999
 21
-12.2990553132
 31
0.0
 11
3.4413197513
 21
-12.2994047369
 31
0.0
  0
SPLINE
  5
5DF
100
AcDbEntity
  8
0
100
AcDbSpline
 62
7
  6
CONTINUOUS
 70
0
 71
3
 72
9
 73
5
 74
3
 42
0.0000001
 43
0.0000001
 44
0.0000000001
 12
-0.0109386747
 22
0.0015690127
 32
0.0
 13
-0.0018934343
 23
0.0108872087
 33
0.0
 40
0.0
 40
0.0
 40
0.0
 40
0.0
 40
0.3706957604
 40
1.0
 40
1.0
 40
1.0
 40
1.0
 10
9.0853128689
 20
-12.2991183726
 30
0.0
 10
9.0839612287
 20
-12.2989244971
 30
0.0
 10
9.080597701
 20
-12.298312902
 30
0.0
 10
9.0759665515
 20
-12.2966628385
 30
0.0
 10
9.0755693695
 20
-12.2943790496
 30
0.0
 11
9.0853128689
 21
-12.2991183726
 31
0.0
 11
9.0812933471
 21
-12.2983283642
 31
0.0
 11
9.0755693695
 21
-12.2943790496
 31
0.0
  0
SPLINE
  5
5E0
100
AcDbEntity
  8
0
100
AcDbSpline
 62
7
  6
CONTINUOUS
 70
0
 71
3
 72
9
 73
5
 74
3
 42
0.0000001
 43
0.0000001
 44
0.0000000001
 12
0.0654670523
 22
-0.0068467064
 32
0.0
 13
0.0652448119
 23
-0.008713601
 33
0.0
 40
0.0
 40
0.0
 40
0.0
 40
0.0
 40
0.2620884677
 40
1.0
 40
1.0
 40
1.0
 40
1.0
 10
3.2137010741
 20
-12.2319532378
 30
0.0
 10
3.2194204606
 20
-12.2325513854
 30
0.0
 10
3.2412357422
 20
-12.2348997969
 30
0.0
 10
3.2630219657
 20
-12.2375250473
 30
0.0
 10
3.2790702654
 20
-12.2396683361
 30
0.0
 11
3.2137010741
 21
-12.2319532378
 31
0.0
 11
3.230853532
 21
-12.2338013847
 31
0.0
 11
3.2790702654
 21
-12.2396683361
 31
0.0
  0
SPLINE
  5
5E1
100
AcDbEntity
  8
0
100
AcDbSpline
 62
7
  6
CONTINUOUS
 70
0
 71
3
 72
9
 73
5
 74
3
 42
0.0000001
 43
0.0000001
 44
0.0000000001
 12
0.0572105852
 22
-0.0076406108
 32
0.0
 13
0.0568855251
 23
-0.0097707226
 33
0.0
 40
0.0
 40
0.0
 40
0.0
 40
0.0
 40
0.2635584767
 40
1.0
 40
1.0
 40
1.0
 40
1.0
 10
3.2790702654
 20
-12.2396683361
 30
0.0
 10
3.284096377
 20
-12.2403395854
 30
0.0
 10
3.3031559517
 20
-12.2429643671
 30
0.0
 10
3.3221727183
 20
-12.2459073753
 30
0.0
 10
3.3361370059
 20
-12.2483058973
 30
0.0
 11
3.2790702654
 21
-12.2396683361
 31
0.0
 11
3.2941400283
 21
-12.2417452573
 31
0.0
 11
3.3361370059
 21
-12.2483058973
 31
0.0
  0
SPLINE
  5
5E2
100
AcDbEntity
  8
0
100
AcDbSpline
 62
7
  6
CONTINUOUS
 70
0
 71
3
 72
9
 73
5
 74
3
 42
0.0000001
 43
0.0000001
 44
0.0000000001
 12
0.1189115903
 22
-0.0204243902
 32
0.0
 13
0.1111056288
 23
-0.0470389335
 33
0.0
 40
0.0
 40
0.0
 40
0.0
 40
0.0
 40
0.3124140615
 40
1.0
 40
1.0
 40
1.0
 40
1.0
 10
3.3361370059
 20
-12.2483058973
 30
0.0
 10
3.3485202235
 20
-12.2504328528
 30
0.0
 10
3.3879721939
 20
-12.2579315533
 30
0.0
 10
3.4274638656
 20
-12.2673630802
 30
0.0
 10
3.452928755
 20
-12.2781441833
 30
0.0
 11
3.3361370059
 21
-12.2483058973
 31
0.0
 11
3.3731747991
 21
-12.2553069005
 31
0.0
 11
3.452928755
 21
-12.2781441833
 31
0.0
  0
SPLINE
  5
5E3
100
AcDbEntity
  8
0
100
AcDbSpline
 62
7
  6
CONTINUOUS
 70
0
 71
3
 72
9
 73
5
 74
3
 42
0.0000001
 43
0.0000001
 44
0.0000000001
 12
0.0188959755
 22
-0.0080000135
 32
0.0
 13
0.0163619815
 23
-0.0123832011
 33
0.0
 40
0.0
 40
0.0
 40
0.0
 40
0.0
 40
0.3040343161
 40
1.0
 40
1.0
 40
1.0
 40
1.0
 10
3.452928755
 20
-12.2781441833
 30
0.0
 10
3.4548437633
 20
-12.2789549428
 30
0.0
 10
3.4610790053
 20
-12.2817409782
 30
0.0
 10
3.4672266687
 20
-12.2849035303
 30
0.0
 10
3.4710224612
 20
-12.2877762913
 30
0.0
 11
3.452928755
 21
-12.2781441833
 31
0.0
 11
3.4586271229
 21
-12.2806838476
 31
0.0
 11
3.4710224612
 21
-12.2877762913
 31
0.0
  0
SPLINE
  5
5E4
100
AcDbEntity
  8
0
100
AcDbSpline
 62
7
  6
CONTINUOUS
 70
0
 71
3
 72
9
 73
5
 74
3
 42
0.0000001
 43
0.0000001
 44
0.0000000001
 12
0.0065883582
 22
-0.0049862521
 32
0.0
 13
-0.0014199159
 23
-0.0081395953
 33
0.0
 40
0.0
 40
0.0
 40
0.0
 40
0.0
 40
0.3471155823
 40
1.0
 40
1.0
 40
1.0
 40
1.0
 10
3.4710224612
 20
-12.2877762913
 30
0.0
 10
3.4717847685
 20
-12.2883532265
 30
0.0
 10
3.4738158841
 20
-12.2900230849
 30
0.0
 10
3.4759961991
 20
-12.2926499037
 30
0.0
 10
3.4756871854
 20
-12.2944213087
 30
0.0
 11
3.4710224612
 21
-12.2877762913
 31
0.0
 11
3.4732128092
 21
-12.2896277977
 31
0.0
 11
3.4756871854
 21
-12.2944213087
 31
0.0
  0
SPLINE
  5
5E5
100
AcDbEntity
  8
0
100
AcDbSpline
 62
7
  6
CONTINUOUS
 70
0
 71
3
 72
9
 73
5
 74
3
 42
0.0000001
 43
0.0000001
 44
0.0000000001
 12
-0.0047286267
 22
0.0271895073
 32
0.0
 13
0.0253676671
 23
0.0108678739
 33
0.0
 40
0.0
 40
0.0
 40
0.0
 40
0.0
 40
0.3174848174
 40
1.0
 40
1.0
 40
1.0
 40
1.0
 10
9.0755693695
 20
-12.2943790496
 30
0.0
 10
9.0750689471
 20
-12.291501631
 30
0.0
 10
9.0843504153
 20
-12.2843042426
 30
0.0
 10
9.0916293746
 20
-12.280967333
 30
0.0
 10
9.0974006472
 20
-12.2784948366
 30
0.0
 11
9.0755693695
 21
-12.2943790496
 31
0.0
 11
9.0807605515
 21
-12.2873206311
 31
0.0
 11
9.0974006472
 21
-12.2784948366
 31
0.0
  0
SPLINE
  5
5E6
100
AcDbEntity
  8
0
100
AcDbSpline
 62
7
  6
CONTINUOUS
 70
0
 71
3
 72
9
 73
5
 74
3
 42
0.0000001
 43
0.0000001
 44
0.0000000001
 12
0.0280291593
 22
0.0120080955
 32
0.0
 13
0.0291815316
 23
0.0088468266
 33
0.0
 40
0.0
 40
0.0
 40
0.0
 40
0.0
 40
0.2189756633
 40
1.0
 40
1.0
 40
1.0
 40
1.0
 10
9.0974006472
 20
-12.2784948366
 30
0.0
 10
9.0994465485
 20
-12.2776183431
 30
0.0
 10
9.108865963
 20
-12.2737941129
 30
0.0
 10
9.1185219993
 20
-12.2705735845
 30
0.0
 10
9.1261191614
 20
-12.2682703889
 30
0.0
 11
9.0974006472
 21
-12.2784948366
 31
0.0
 11
9.1035831397
 21
-12.2759724641
 31
0.0
 11
9.1261191614
 21
-12.2682703889
 31
0.0
  0
SPLINE
  5
5E7
100
AcDbEntity
  8
0
100
AcDbSpline
 62
7
  6
CONTINUOUS
 70
0
 71
3
 72
9
 73
5
 74
3
 42
0.0000001
 43
0.0000001
 44
0.0000000001
 12
0.0842394258
 22
0.0255384674
 32
0.0
 13
0.0867135942
 23
0.0151408968
 33
0.0
 40
0.0
 40
0.0
 40
0.0
 40
0.0
 40
0.2118613656
 40
1.0
 40
1.0
 40
1.0
 40
1.0
 10
9.1261191614
 20
-12.2682703889
 30
0.0
 10
9.132068188
 20
-12.2664668507
 30
0.0
 10
9.160346716
 20
-12.2586099951
 30
0.0
 10
9.1891663151
 20
-12.2528419939
 30
0.0
 10
9.211947093
 20
-12.2488642853
 30
0.0
 11
9.1261191614
 21
-12.2682703889
 31
0.0
 11
9.1440747292
 21
-12.2632314811
 31
0.0
 11
9.211947093
 21
-12.2488642853
 31
0.0
  0
SPLINE
  5
5E8
100
AcDbEntity
  8
0
100
AcDbSpline
 62
7
  6
CONTINUOUS
 70
0
 71
3
 72
9
 73
5
 74
3
 42
0.0000001
 43
0.0000001
 44
0.0000000001
 12
0.0566228584
 22
0.0098868103
 32
0.0
 13
0.0569594355
 23
0.0077149085
 33
0.0
 40
0.0
 40
0.0
 40
0.0
 40
0.0
 40
0.2355105786
 40
1.0
 40
1.0
 40
1.0
 40
1.0
 10
9.211947093
 20
-12.2488642853
 30
0.0
 10
9.216392187
 20
-12.2480881359
 30
0.0
 10
9.2352846169
 20
-12.2448966499
 30
0.0
 10
9.2542425709
 20
-12.2420986935
 30
0.0
 10
9.2687575329
 20
-12.2401327048
 30
0.0
 11
9.211947093
 21
-12.2488642853
 31
0.0
 11
9.2252945555
 21
-12.2466067057
 31
0.0
 11
9.2687575329
 21
-12.2401327048
 31
0.0
  0
SPLINE
  5
5E9
100
AcDbEntity
  8
0
100
AcDbSpline
 62
7
  6
CONTINUOUS
 70
0
 71
3
 72
9
 73
5
 74
3
 42
0.0000001
 43
0.0000001
 44
0.0000000001
 12
0.0656285514
 22
0.0088891027
 32
0.0
 13
0.0658612047
 23
0.0069587803
 33
0.0
 40
0.0
 40
0.0
 40
0.0
 40
0.0
 40
0.2372107769
 40
1.0
 40
1.0
 40
1.0
 40
1.0
 10
9.2687575329
 20
-12.2401327048
 30
0.0
 10
9.2739467995
 20
-12.2394298412
 30
0.0
 10
9.2958358043
 20
-12.236561572
 30
0.0
 10
9.317770454
 20
-12.2340474575
 30
0.0
 10
9.3345165264
 20
-12.2322780966
 30
0.0
 11
9.2687575329
 21
-12.2401327048
 31
0.0
 11
9.2843339836
 21
-12.2380890004
 31
0.0
 11
9.3345165264
 21
-12.2322780966
 31
0.0
  0
SPLINE
  5
5EA
100
AcDbEntity
  8
RACCORDO
100
AcDbSpline
 62
253
  6
CONTINUOUS
 70
0
 71
3
 72
12
 73
8
 74
6
 42
0.0000001
 43
0.0000001
 44
0.0000000001
 12
0.0994855792
 22
0.0000000002
 32
0.0
 13
0.0915186818
 23
0.039009119
 33
0.0
 40
0.0
 40
0.0
 40
0.0
 40
0.0
 40
0.3557514205
 40
0.6662835319
 40
0.8901518951
 40
0.9604740158
 40
1.0
 40
1.0
 40
1.0
 40
1.0
 10
8.1424795714
 20
17.048932895
 30
0.0
 10
8.1542769501
 20
17.048932895
 30
0.0
 10
8.1763802704
 20
17.049117691
 30
0.0
 10
8.2058619182
 20
17.050033831
 30
0.0
 10
8.2259438257
 20
17.0510695625
 30
0.0
 10
8.2368838753
 20
17.0524231253
 30
0.0
 10
8.2405283979
 20
17.0530147178
 30
0.0
 10
8.2417341866
 20
17.0535286757
 30
0.0
 11
8.1424795714
 21
17.048932895
 31
0.0
 11
8.177870073
 21
17.0492730434
 31
0.0
 11
8.2087482034
 21
17.0502463673
 31
0.0
 11
8.2309702898
 21
17.0517317397
 31
0.0
 11
8.2379112476
 21
17.0526078885
 31
0.0
 11
8.2417341866
 21
17.0535286757
 31
0.0
  0
SPLINE
  5
5EB
100
AcDbEntity
  8
0
100
AcDbSpline
 62
7
  6
CONTINUOUS
 70
0
 71
3
 72
8
 73
4
 74
2
 42
0.0000001
 43
0.0000001
 44
0.0000000001
 12
-0.0647014934
 22
0.1120714463
 32
0.0
 13
-0.1120714463
 23
0.0647014934
 33
0.0
 40
0.0
 40
0.0
 40
0.0
 40
0.0
 40
1.0
 40
1.0
 40
1.0
 40
1.0
 10
11.1421422785
 20
25.8123906767
 30
0.0
 10
11.120575114
 20
25.8497478255
 30
0.0
 10
11.0879945303
 20
25.8823284092
 30
0.0
 10
11.0506373816
 20
25.9038955737
 30
0.0
 11
11.1421422785
 21
25.8123906767
 31
0.0
 11
11.0506373816
 21
25.9038955737
 31
0.0
  0
SPLINE
  5
5EC
100
AcDbEntity
  8
0
100
AcDbSpline
 62
7
  6
CONTINUOUS
 70
0
 71
3
 72
8
 73
4
 74
2
 42
0.0000001
 43
0.0000001
 44
0.0000000001
 12
-0.1120714453
 22
0.0647014928
 32
0.0
 13
-0.1294074651
 23
0.0
 33
0.0
 40
0.0
 40
0.0
 40
0.0
 40
0.0
 40
1.0
 40
1.0
 40
1.0
 40
1.0
 10
11.0506373816
 20
25.9038955737
 30
0.0
 10
11.0132802331
 20
25.9254627379
 30
0.0
 10
10.9687750965
 20
25.9373883392
 30
0.0
 10
10.9256392748
 20
25.9373883392
 30
0.0
 11
11.0506373816
 21
25.9038955737
 31
0.0
 11
10.9256392748
 21
25.9373883392
 31
0.0
  0
SPLINE
  5
5ED
100
AcDbEntity
  8
0
100
AcDbSpline
 62
7
  6
CONTINUOUS
 70
0
 71
3
 72
8
 73
4
 74
2
 42
0.0000001
 43
0.0000001
 44
0.0000000001
 12
-0.1120714463
 22
-0.0647014934
 32
0.0
 13
-0.0647014934
 23
-0.1120714463
 33
0.0
 40
0.0
 40
0.0
 40
0.0
 40
0.0
 40
1.0
 40
1.0
 40
1.0
 40
1.0
 10
8.4006327065
 20
25.9038955737
 30
0.0
 10
8.3632755577
 20
25.8823284092
 30
0.0
 10
8.330694974
 20
25.8497478255
 30
0.0
 10
8.3091278096
 20
25.8123906767
 30
0.0
 11
8.4006327065
 21
25.9038955737
 31
0.0
 11
8.3091278096
 21
25.8123906767
 31
0.0
  0
SPLINE
  5
5EE
100
AcDbEntity
  8
0
100
AcDbSpline
 62
7
  6
CONTINUOUS
 70
0
 71
3
 72
8
 73
4
 74
2
 42
0.0000001
 43
0.0000001
 44
0.0000000001
 12
-0.0647014928
 22
-0.1120714453
 32
0.0
 13
0.0
 23
-0.1294074651
 33
0.0
 40
0.0
 40
0.0
 40
0.0
 40
0.0
 40
1.0
 40
1.0
 40
1.0
 40
1.0
 10
8.3091278096
 20
25.8123906767
 30
0.0
 10
8.2875606453
 20
25.7750335283
 30
0.0
 10
8.275635044
 20
25.7305283917
 30
0.0
 10
8.275635044
 20
25.68739257
 30
0.0
 11
8.3091278096
 21
25.8123906767
 31
0.0
 11
8.275635044
 21
25.68739257
 31
0.0
  0
SPLINE
  5
5EF
100
AcDbEntity
  8
0
100
AcDbSpline
 62
7
  6
CONTINUOUS
 70
0
 71
3
 72
8
 73
4
 74
2
 42
0.0000001
 43
0.0000001
 44
0.0000000001
 12
-0.1120714463
 22
-0.0647014934
 32
0.0
 13
-0.0647014934
 23
-0.1120714463
 33
0.0
 40
0.0
 40
0.0
 40
0.0
 40
0.0
 40
1.0
 40
1.0
 40
1.0
 40
1.0
 10
-8.9993672935
 20
25.9038955737
 30
0.0
 10
-9.0367244423
 20
25.8823284092
 30
0.0
 10
-9.069305026
 20
25.8497478255
 30
0.0
 10
-9.0908721904
 20
25.8123906767
 30
0.0
 11
-8.9993672935
 21
25.9038955737
 31
0.0
 11
-9.0908721904
 21
25.8123906767
 31
0.0
  0
SPLINE
  5
5F0
100
AcDbEntity
  8
0
100
AcDbSpline
 62
7
  6
CONTINUOUS
 70
0
 71
3
 72
8
 73
4
 74
2
 42
0.0000001
 43
0.0000001
 44
0.0000000001
 12
-0.0647014928
 22
-0.1120714453
 32
0.0
 13
0.0
 23
-0.1294074651
 33
0.0
 40
0.0
 40
0.0
 40
0.0
 40
0.0
 40
1.0
 40
1.0
 40
1.0
 40
1.0
 10
-9.0908721904
 20
25.8123906767
 30
0.0
 10
-9.1124393547
 20
25.7750335283
 30
0.0
 10
-9.124364956
 20
25.7305283917
 30
0.0
 10
-9.124364956
 20
25.68739257
 30
0.0
 11
-9.0908721904
 21
25.8123906767
 31
0.0
 11
-9.124364956
 21
25.68739257
 31
0.0
  0
SPLINE
  5
5F1
100
AcDbEntity
  8
0
100
AcDbSpline
 62
7
  6
CONTINUOUS
 70
0
 71
3
 72
8
 73
4
 74
2
 42
0.0000001
 43
0.0000001
 44
0.0000000001
 12
-0.0647014934
 22
0.1120714463
 32
0.0
 13
-0.1120714463
 23
0.0647014934
 33
0.0
 40
0.0
 40
0.0
 40
0.0
 40
0.0
 40
1.0
 40
1.0
 40
1.0
 40
1.0
 10
-6.2578577215
 20
25.8123906767
 30
0.0
 10
-6.279424886
 20
25.8497478255
 30
0.0
 10
-6.3120054697
 20
25.8823284092
 30
0.0
 10
-6.3493626184
 20
25.9038955737
 30
0.0
 11
-6.2578577215
 21
25.8123906767
 31
0.0
 11
-6.3493626184
 21
25.9038955737
 31
0.0
  0
SPLINE
  5
5F2
100
AcDbEntity
  8
0
100
AcDbSpline
 62
7
  6
CONTINUOUS
 70
0
 71
3
 72
8
 73
4
 74
2
 42
0.0000001
 43
0.0000001
 44
0.0000000001
 12
-0.1120714453
 22
0.0647014928
 32
0.0
 13
-0.1294074651
 23
0.0
 33
0.0
 40
0.0
 40
0.0
 40
0.0
 40
0.0
 40
1.0
 40
1.0
 40
1.0
 40
1.0
 10
-6.3493626184
 20
25.9038955737
 30
0.0
 10
-6.3867197669
 20
25.9254627379
 30
0.0
 10
-6.4312249035
 20
25.9373883392
 30
0.0
 10
-6.4743607252
 20
25.9373883392
 30
0.0
 11
-6.3493626184
 21
25.9038955737
 31
0.0
 11
-6.4743607252
 21
25.9373883392
 31
0.0
  0
SPLINE
  5
5F3
100
AcDbEntity
  8
0
100
AcDbSpline
 62
7
  6
CONTINUOUS
 70
0
 71
3
 72
8
 73
4
 74
2
 42
0.0000001
 43
0.0000001
 44
0.0000000001
 12
0.1120714463
 22
0.0647014934
 32
0.0
 13
0.0647014934
 23
0.1120714463
 33
0.0
 40
0.0
 40
0.0
 40
0.0
 40
0.0
 40
1.0
 40
1.0
 40
1.0
 40
1.0
 10
11.0506373816
 20
-23.0291188952
 30
0.0
 10
11.0879945303
 20
-23.0075517308
 30
0.0
 10
11.120575114
 20
-22.9749711471
 30
0.0
 10
11.1421422785
 20
-22.9376139983
 30
0.0
 11
11.0506373816
 21
-23.0291188952
 31
0.0
 11
11.1421422785
 21
-22.9376139983
 31
0.0
  0
SPLINE
  5
5F4
100
AcDbEntity
  8
0
100
AcDbSpline
 62
7
  6
CONTINUOUS
 70
0
 71
3
 72
8
 73
4
 74
2
 42
0.0000001
 43
0.0000001
 44
0.0000000001
 12
0.0647014928
 22
0.1120714453
 32
0.0
 13
0.0
 23
0.1294074651
 33
0.0
 40
0.0
 40
0.0
 40
0.0
 40
0.0
 40
1.0
 40
1.0
 40
1.0
 40
1.0
 10
11.1421422785
 20
-22.9376139983
 30
0.0
 10
11.1637094428
 20
-22.9002568499
 30
0.0
 10
11.175635044
 20
-22.8557517133
 30
0.0
 10
11.175635044
 20
-22.8126158916
 30
0.0
 11
11.1421422785
 21
-22.9376139983
 31
0.0
 11
11.175635044
 21
-22.8126158916
 31
0.0
  0
SPLINE
  5
5F5
100
AcDbEntity
  8
0
100
AcDbSpline
 62
7
  6
CONTINUOUS
 70
0
 71
3
 72
8
 73
4
 74
2
 42
0.0000001
 43
0.0000001
 44
0.0000000001
 12
0.0647014934
 22
-0.1120714463
 32
0.0
 13
0.1120714463
 23
-0.0647014934
 33
0.0
 40
0.0
 40
0.0
 40
0.0
 40
0.0
 40
1.0
 40
1.0
 40
1.0
 40
1.0
 10
8.3091278096
 20
-22.9376139983
 30
0.0
 10
8.330694974
 20
-22.9749711471
 30
0.0
 10
8.3632755577
 20
-23.0075517308
 30
0.0
 10
8.4006327065
 20
-23.0291188952
 30
0.0
 11
8.3091278096
 21
-22.9376139983
 31
0.0
 11
8.4006327065
 21
-23.0291188952
 31
0.0
  0
SPLINE
  5
5F6
100
AcDbEntity
  8
0
100
AcDbSpline
 62
7
  6
CONTINUOUS
 70
0
 71
3
 72
8
 73
4
 74
2
 42
0.0000001
 43
0.0000001
 44
0.0000000001
 12
0.1120714453
 22
-0.0647014928
 32
0.0
 13
0.1294074651
 23
0.0
 33
0.0
 40
0.0
 40
0.0
 40
0.0
 40
0.0
 40
1.0
 40
1.0
 40
1.0
 40
1.0
 10
8.4006327065
 20
-23.0291188952
 30
0.0
 10
8.437989855
 20
-23.0506860595
 30
0.0
 10
8.4824949915
 20
-23.0626116608
 30
0.0
 10
8.5256308133
 20
-23.0626116608
 30
0.0
 11
8.4006327065
 21
-23.0291188952
 31
0.0
 11
8.5256308133
 21
-23.0626116608
 31
0.0
  0
SPLINE
  5
5F7
100
AcDbEntity
  8
0
100
AcDbSpline
 62
7
  6
CONTINUOUS
 70
0
 71
3
 72
8
 73
4
 74
2
 42
0.0000001
 43
0.0000001
 44
0.0000000001
 12
0.1120714463
 22
0.0647014934
 32
0.0
 13
0.0647014934
 23
0.1120714463
 33
0.0
 40
0.0
 40
0.0
 40
0.0
 40
0.0
 40
1.0
 40
1.0
 40
1.0
 40
1.0
 10
-6.3493626184
 20
-23.0291188952
 30
0.0
 10
-6.3120054697
 20
-23.0075517308
 30
0.0
 10
-6.279424886
 20
-22.9749711471
 30
0.0
 10
-6.2578577215
 20
-22.9376139983
 30
0.0
 11
-6.3493626184
 21
-23.0291188952
 31
0.0
 11
-6.2578577215
 21
-22.9376139983
 31
0.0
  0
SPLINE
  5
5F8
100
AcDbEntity
  8
0
100
AcDbSpline
 62
7
  6
CONTINUOUS
 70
0
 71
3
 72
8
 73
4
 74
2
 42
0.0000001
 43
0.0000001
 44
0.0000000001
 12
0.0647014928
 22
0.1120714453
 32
0.0
 13
0.0
 23
0.1294074651
 33
0.0
 40
0.0
 40
0.0
 40
0.0
 40
0.0
 40
1.0
 40
1.0
 40
1.0
 40
1.0
 10
-6.2578577215
 20
-22.9376139983
 30
0.0
 10
-6.2362905572
 20
-22.9002568499
 30
0.0
 10
-6.224364956
 20
-22.8557517133
 30
0.0
 10
-6.224364956
 20
-22.8126158916
 30
0.0
 11
-6.2578577215
 21
-22.9376139983
 31
0.0
 11
-6.224364956
 21
-22.8126158916
 31
0.0
  0
SPLINE
  5
5F9
100
AcDbEntity
  8
0
100
AcDbSpline
 62
7
  6
CONTINUOUS
 70
0
 71
3
 72
8
 73
4
 74
2
 42
0.0000001
 43
0.0000001
 44
0.0000000001
 12
0.0647014934
 22
-0.1120714463
 32
0.0
 13
0.1120714463
 23
-0.0647014934
 33
0.0
 40
0.0
 40
0.0
 40
0.0
 40
0.0
 40
1.0
 40
1.0
 40
1.0
 40
1.0
 10
-9.0908721904
 20
-22.9376139983
 30
0.0
 10
-9.069305026
 20
-22.9749711471
 30
0.0
 10
-9.0367244423
 20
-23.0075517308
 30
0.0
 10
-8.9993672935
 20
-23.0291188952
 30
0.0
 11
-9.0908721904
 21
-22.9376139983
 31
0.0
 11
-8.9993672935
 21
-23.0291188952
 31
0.0
  0
SPLINE
  5
5FA
100
AcDbEntity
  8
0
100
AcDbSpline
 62
7
  6
CONTINUOUS
 70
0
 71
3
 72
8
 73
4
 74
2
 42
0.0000001
 43
0.0000001
 44
0.0000000001
 12
0.1120714453
 22
-0.0647014928
 32
0.0
 13
0.1294074651
 23
0.0
 33
0.0
 40
0.0
 40
0.0
 40
0.0
 40
0.0
 40
1.0
 40
1.0
 40
1.0
 40
1.0
 10
-8.9993672935
 20
-23.0291188952
 30
0.0
 10
-8.962010145
 20
-23.0506860595
 30
0.0
 10
-8.9175050085
 20
-23.0626116608
 30
0.0
 10
-8.8743691867
 20
-23.0626116608
 30
0.0
 11
-8.9993672935
 21
-23.0291188952
 31
0.0
 11
-8.8743691867
 21
-23.0626116608
 31
0.0
  0
SPLINE
  5
5FB
100
AcDbEntity
  8
0
100
AcDbSpline
 62
7
  6
CONTINUOUS
 70
0
 71
3
 72
11
 73
7
 74
5
 42
0.0000001
 43
0.0000001
 44
0.0000000001
 12
0.0
 22
-0.0649331207
 32
0.0
 13
-0.0420652658
 23
-0.0494653776
 33
0.0
 40
0.0
 40
0.0
 40
0.0
 40
0.0
 40
0.1128125205
 40
0.3212841351
 40
0.6204121545
 40
1.0
 40
1.0
 40
1.0
 40
1.0
 10
-2.474364956
 20
25.3915362833
 30
0.0
 10
-2.474364956
 20
25.389094527
 30
0.0
 10
-2.4779484707
 20
25.3826535256
 30
0.0
 10
-2.4852288706
 20
25.3716887839
 30
0.0
 10
-2.497208478
 20
25.3564972245
 30
0.0
 10
-2.5065817391
 20
25.3452380703
 30
0.0
 10
-2.5119042269
 20
25.3389792516
 30
0.0
 11
-2.474364956
 21
25.3915362833
 31
0.0
 11
-2.4769045322
 21
25.3846653213
 31
0.0
 11
-2.4843164235
 21
25.3733380775
 31
0.0
 11
-2.4961625601
 21
25.3579454089
 31
0.0
 11
-2.5119042269
 21
25.3389792516
 31
0.0
  0
SPLINE
  5
5FC
100
AcDbEntity
  8
0
100
AcDbSpline
 62
7
  6
CONTINUOUS
 70
0
 71
3
 72
10
 73
6
 74
4
 42
0.0000001
 43
0.0000001
 44
0.0000000001
 12
-0.39454775
 22
-0.4639564996
 32
0.0
 13
-0.4199094045
 23
-0.4411345063
 33
0.0
 40
0.0
 40
0.0
 40
0.0
 40
0.0
 40
0.1970182317
 40
0.4446562538
 40
1.0
 40
1.0
 40
1.0
 40
1.0
 10
-2.5119042269
 20
25.3389792516
 30
0.0
 10
-2.5378152603
 20
25.3085099552
 30
0.0
 10
-2.5986105122
 20
25.2417419339
 30
0.0
 10
-2.7371675367
 20
25.0933831709
 30
0.0
 10
-2.849676312
 20
24.9754065837
 30
0.0
 10
-2.9274076659
 20
24.8937461539
 30
0.0
 11
-2.5119042269
 21
25.3389792516
 31
0.0
 11
-2.5918495637
 21
25.2494997559
 31
0.0
 11
-2.6946516349
 21
25.139143653
 31
0.0
 11
-2.9274076659
 21
24.8937461539
 31
0.0
  0
SPLINE
  5
5FD
100
AcDbEntity
  8
ASSI
100
AcDbSpline
 62
7
  6
CONTINUOUS
 70
0
 71
3
 72
10
 73
6
 74
4
 42
0.0000001
 43
0.0000001
 44
0.0000000001
 12
-0.3506606047
 22
0.613485731
 32
0.0
 13
-0.4079736927
 23
0.5769619293
 33
0.0
 40
0.0
 40
0.0
 40
0.0
 40
0.0
 40
0.2326782901
 40
0.4810106203
 40
1.0
 40
1.0
 40
1.0
 40
1.0
 10
8.7524665221
 20
-20.4857801828
 30
0.0
 10
8.7252694854
 20
-20.4381985791
 30
0.0
 10
8.6656160314
 20
-20.3418033485
 30
0.0
 10
8.5348057891
 20
-20.1459088661
 30
0.0
 10
8.4303137678
 20
-19.9984109807
 30
0.0
 10
8.3597357632
 20
-19.8985986094
 30
0.0
 11
8.7524665221
 21
-20.4857801828
 31
0.0
 11
8.666792788
 21
-20.3454477149
 31
0.0
 11
8.5697791344
 21
-20.1992240572
 31
0.0
 11
8.3597357632
 21
-19.8985986094
 31
0.0
  0
SPLINE
  5
5FE
100
AcDbEntity
  8
ASSI
100
AcDbSpline
 62
7
  6
CONTINUOUS
 70
0
 71
3
 72
10
 73
6
 74
4
 42
0.0000001
 43
0.0000001
 44
0.0000000001
 12
-0.4079736912
 22
-0.5769619272
 32
0.0
 13
-0.3506606034
 23
-0.6134857287
 33
0.0
 40
0.0
 40
0.0
 40
0.0
 40
0.0
 40
0.5189884678
 40
0.7673193289
 40
1.0
 40
1.0
 40
1.0
 40
1.0
 10
-6.3084656751
 20
-19.8985986094
 30
0.0
 10
-6.3790435554
 20
-19.9984108049
 30
0.0
 10
-6.4835352891
 20
-20.145908209
 30
0.0
 10
-6.6143454377
 20
-20.3418027491
 30
0.0
 10
-6.6739991191
 20
-20.4381980924
 30
0.0
 10
-6.701196434
 20
-20.4857801828
 30
0.0
 11
-6.3084656751
 21
-19.8985986094
 31
0.0
 11
-6.5185086744
 21
-20.1992235294
 31
0.0
 11
-6.6155217437
 21
-20.3454463281
 31
0.0
 11
-6.701196434
 21
-20.4857801828
 31
0.0
  0
SPLINE
  5
5FF
100
AcDbEntity
  8
ASSI
100
AcDbSpline
 62
7
  6
CONTINUOUS
 70
0
 71
3
 72
10
 73
6
 74
4
 42
0.0000001
 43
0.0000001
 44
0.0000000001
 12
0.3506606047
 22
-0.613485731
 32
0.0
 13
0.4079736927
 23
-0.5769619293
 33
0.0
 40
0.0
 40
0.0
 40
0.0
 40
0.0
 40
0.2326782901
 40
0.4810106203
 40
1.0
 40
1.0
 40
1.0
 40
1.0
 10
-6.701196434
 20
23.3605568612
 30
0.0
 10
-6.6739993973
 20
23.3129752576
 30
0.0
 10
-6.6143459433
 20
23.216580027
 30
0.0
 10
-6.483535701
 20
23.0206855446
 30
0.0
 10
-6.3790436797
 20
22.8731876591
 30
0.0
 10
-6.3084656751
 20
22.7733752879
 30
0.0
 11
-6.701196434
 21
23.3605568612
 31
0.0
 11
-6.6155226999
 21
23.2202243933
 31
0.0
 11
-6.5185090464
 21
23.0740007357
 31
0.0
 11
-6.3084656751
 21
22.7733752879
 31
0.0
  0
SPLINE
  5
600
100
AcDbEntity
  8
ASSI
100
AcDbSpline
 62
7
  6
CONTINUOUS
 70
0
 71
3
 72
10
 73
6
 74
4
 42
0.0000001
 43
0.0000001
 44
0.0000000001
 12
0.4079736912
 22
0.5769619272
 32
0.0
 13
0.3506606034
 23
0.6134857287
 33
0.0
 40
0.0
 40
0.0
 40
0.0
 40
0.0
 40
0.5189884678
 40
0.7673193289
 40
1.0
 40
1.0
 40
1.0
 40
1.0
 10
8.3597357632
 20
22.7733752879
 30
0.0
 10
8.4303136435
 20
22.8731874834
 30
0.0
 10
8.5348053772
 20
23.0206848874
 30
0.0
 10
8.6656155258
 20
23.2165794275
 30
0.0
 10
8.7252692072
 20
23.3129747709
 30
0.0
 10
8.7524665221
 20
23.3605568612
 30
0.0
 11
8.3597357632
 21
22.7733752879
 31
0.0
 11
8.5697787625
 21
23.0740002078
 31
0.0
 11
8.6667918317
 21
23.2202230066
 31
0.0
 11
8.7524665221
 21
23.3605568612
 31
0.0
  0
SPLINE
  5
601
100
AcDbEntity
  8
0
100
AcDbSpline
 62
253
  6
CONTINUOUS
 70
0
 71
3
 72
11
 73
7
 74
5
 42
0.0000001
 43
0.0000001
 44
0.0000000001
 12
0.0012232482
 22
0.3641907438
 32
0.0
 13
0.3641916425
 23
0.0009174695
 33
0.0
 40
0.0
 40
0.0
 40
0.0
 40
0.0
 40
0.2331623084
 40
0.476670585
 40
0.7338116789
 40
1.0
 40
1.0
 40
1.0
 40
1.0
 10
-9.119993122
 20
-22.4069492281
 30
0.0
 10
-9.1198980502
 20
-22.3786440432
 30
0.0
 10
-9.1059681924
 20
-22.320100904
 30
0.0
 10
-9.0490357683
 20
-22.2484397893
 30
0.0
 10
-8.9663677281
 20
-22.2014415922
 30
0.0
 10
-8.9023118734
 20
-22.1905242837
 30
0.0
 10
-8.8699973527
 20
-22.1904428771
 30
0.0
 11
-9.119993122
 21
-22.4069492281
 31
0.0
 11
-9.1007548925
 21
-22.3242411675
 31
0.0
 11
-9.0465143264
 21
-22.2540784577
 31
0.0
 11
-8.9654987786
 21
-22.2071039545
 31
0.0
 11
-8.8699973527
 21
-22.1904428771
 31
0.0
  0
SPLINE
  5
602
100
AcDbEntity
  8
0
100
AcDbSpline
 62
253
  6
CONTINUOUS
 70
0
 71
3
 72
11
 73
7
 74
5
 42
0.0000001
 43
0.0000001
 44
0.0000000001
 12
-0.0012232482
 22
0.3641907438
 32
0.0
 13
-0.3641916425
 23
0.0009174695
 33
0.0
 40
0.0
 40
0.0
 40
0.0
 40
0.0
 40
0.2331623084
 40
0.476670585
 40
0.7338116789
 40
1.0
 40
1.0
 40
1.0
 40
1.0
 10
-6.22873679
 20
-22.4069492281
 30
0.0
 10
-6.2288318618
 20
-22.3786440432
 30
0.0
 10
-6.2427617195
 20
-22.320100904
 30
0.0
 10
-6.2996941436
 20
-22.2484397893
 30
0.0
 10
-6.3823621838
 20
-22.2014415922
 30
0.0
 10
-6.4464180385
 20
-22.1905242837
 30
0.0
 10
-6.4787325592
 20
-22.1904428771
 30
0.0
 11
-6.22873679
 21
-22.4069492281
 31
0.0
 11
-6.2479750194
 21
-22.3242411675
 31
0.0
 11
-6.3022155855
 21
-22.2540784577
 31
0.0
 11
-6.3832311334
 21
-22.2071039545
 31
0.0
 11
-6.4787325592
 21
-22.1904428771
 31
0.0
  0
SPLINE
  5
603
100
AcDbEntity
  8
0
100
AcDbSpline
 62
253
  6
CONTINUOUS
 70
0
 71
3
 72
11
 73
7
 74
5
 42
0.0000001
 43
0.0000001
 44
0.0000000001
 12
0.0012232482
 22
0.3641907438
 32
0.0
 13
0.3641916425
 23
0.0009174695
 33
0.0
 40
0.0
 40
0.0
 40
0.0
 40
0.0
 40
0.2331623084
 40
0.476670585
 40
0.7338116789
 40
1.0
 40
1.0
 40
1.0
 40
1.0
 10
8.280006878
 20
-22.4069492281
 30
0.0
 10
8.2801019498
 20
-22.3786440432
 30
0.0
 10
8.2940318076
 20
-22.320100904
 30
0.0
 10
8.3509642317
 20
-22.2484397893
 30
0.0
 10
8.4336322719
 20
-22.2014415922
 30
0.0
 10
8.4976881266
 20
-22.1905242837
 30
0.0
 10
8.5300026473
 20
-22.1904428771
 30
0.0
 11
8.280006878
 21
-22.4069492281
 31
0.0
 11
8.2992451075
 21
-22.3242411675
 31
0.0
 11
8.3534856736
 21
-22.2540784577
 31
0.0
 11
8.4345012214
 21
-22.2071039545
 31
0.0
 11
8.5300026473
 21
-22.1904428771
 31
0.0
  0
SPLINE
  5
604
100
AcDbEntity
  8
0
100
AcDbSpline
 62
253
  6
CONTINUOUS
 70
0
 71
3
 72
11
 73
7
 74
5
 42
0.0000001
 43
0.0000001
 44
0.0000000001
 12
-0.0012232482
 22
0.3641907438
 32
0.0
 13
-0.3641916425
 23
0.0009174695
 33
0.0
 40
0.0
 40
0.0
 40
0.0
 40
0.0
 40
0.2331623084
 40
0.476670585
 40
0.7338116789
 40
1.0
 40
1.0
 40
1.0
 40
1.0
 10
11.17126321
 20
-22.4069492281
 30
0.0
 10
11.1711681382
 20
-22.3786440432
 30
0.0
 10
11.1572382805
 20
-22.320100904
 30
0.0
 10
11.1003058564
 20
-22.2484397893
 30
0.0
 10
11.0176378162
 20
-22.2014415922
 30
0.0
 10
10.9535819615
 20
-22.1905242837
 30
0.0
 10
10.9212674408
 20
-22.1904428771
 30
0.0
 11
11.17126321
 21
-22.4069492281
 31
0.0
 11
11.1520249806
 21
-22.3242411675
 31
0.0
 11
11.0977844145
 21
-22.2540784577
 31
0.0
 11
11.0167688666
 21
-22.2071039545
 31
0.0
 11
10.9212674408
 21
-22.1904428771
 31
0.0
  0
SPLINE
  5
605
100
AcDbEntity
  8
0
100
AcDbSpline
 62
253
  6
CONTINUOUS
 70
0
 71
3
 72
11
 73
7
 74
5
 42
0.0000001
 43
0.0000001
 44
0.0000000001
 12
0.0012232482
 22
-0.3641907438
 32
0.0
 13
0.3641916425
 23
-0.0009174695
 33
0.0
 40
0.0
 40
0.0
 40
0.0
 40
0.0
 40
0.2331623162
 40
0.4766706026
 40
0.7338117062
 40
1.0
 40
1.0
 40
1.0
 40
1.0
 10
-9.119993122
 20
25.2817259065
 30
0.0
 10
-9.1198980502
 20
25.2534207207
 30
0.0
 10
-9.1059681913
 20
25.1948775793
 30
0.0
 10
-9.0490357634
 20
25.1232164632
 30
0.0
 10
-8.9663677226
 20
25.0762182686
 30
0.0
 10
-8.9023118701
 20
25.0653009621
 30
0.0
 10
-8.8699973527
 20
25.0652195556
 30
0.0
 11
-9.119993122
 21
25.2817259065
 31
0.0
 11
-9.1007548912
 21
25.1990178434
 31
0.0
 11
-9.0465143214
 21
25.1288551318
 31
0.0
 11
-8.9654987691
 21
25.0818806293
 31
0.0
 11
-8.8699973527
 21
25.0652195556
 31
0.0
  0
SPLINE
  5
606
100
AcDbEntity
  8
0
100
AcDbSpline
 62
253
  6
CONTINUOUS
 70
0
 71
3
 72
11
 73
7
 74
5
 42
0.0000001
 43
0.0000001
 44
0.0000000001
 12
-0.0012232482
 22
-0.3641907442
 32
0.0
 13
-0.3641916429
 23
-0.0009174695
 33
0.0
 40
0.0
 40
0.0
 40
0.0
 40
0.0
 40
0.2331622206
 40
0.4766705204
 40
0.7338116472
 40
1.0
 40
1.0
 40
1.0
 40
1.0
 10
-6.22873679
 20
25.2817259065
 30
0.0
 10
-6.2288318617
 20
25.2534207323
 30
0.0
 10
-6.2427617101
 20
25.1948776009
 30
0.0
 10
-6.2996941251
 20
25.1232164821
 30
0.0
 10
-6.3823621718
 20
25.0762182737
 30
0.0
 10
-6.4464180347
 20
25.0653009621
 30
0.0
 10
-6.4787325592
 20
25.0652195556
 30
0.0
 11
-6.22873679
 21
25.2817259065
 31
0.0
 11
-6.2479750043
 21
25.1990178752
 31
0.0
 11
-6.3022155673
 21
25.1288551521
 31
0.0
 11
-6.3832311223
 21
25.0818806372
 31
0.0
 11
-6.4787325592
 21
25.0652195556
 31
0.0
  0
SPLINE
  5
607
100
AcDbEntity
  8
0
100
AcDbSpline
 62
253
  6
CONTINUOUS
 70
0
 71
3
 72
11
 73
7
 74
5
 42
0.0000001
 43
0.0000001
 44
0.0000000001
 12
-0.0012232482
 22
-0.3641907438
 32
0.0
 13
-0.3641916425
 23
-0.0009174695
 33
0.0
 40
0.0
 40
0.0
 40
0.0
 40
0.0
 40
0.2331623162
 40
0.4766706026
 40
0.7338117062
 40
1.0
 40
1.0
 40
1.0
 40
1.0
 10
11.17126321
 20
25.2817259065
 30
0.0
 10
11.1711681382
 20
25.2534207207
 30
0.0
 10
11.1572382794
 20
25.1948775793
 30
0.0
 10
11.1003058515
 20
25.1232164632
 30
0.0
 10
11.0176378107
 20
25.0762182686
 30
0.0
 10
10.9535819581
 20
25.0653009621
 30
0.0
 10
10.9212674408
 20
25.0652195556
 30
0.0
 11
11.17126321
 21
25.2817259065
 31
0.0
 11
11.1520249793
 21
25.1990178434
 31
0.0
 11
11.0977844095
 21
25.1288551318
 31
0.0
 11
11.0167688572
 21
25.0818806293
 31
0.0
 11
10.9212674408
 21
25.0652195556
 31
0.0
  0
SPLINE
  5
608
100
AcDbEntity
  8
0
100
AcDbSpline
 62
253
  6
CONTINUOUS
 70
0
 71
3
 72
11
 73
7
 74
5
 42
0.0000001
 43
0.0000001
 44
0.0000000001
 12
0.0012232482
 22
-0.3641907442
 32
0.0
 13
0.3641916429
 23
-0.0009174695
 33
0.0
 40
0.0
 40
0.0
 40
0.0
 40
0.0
 40
0.2331622206
 40
0.4766705204
 40
0.7338116472
 40
1.0
 40
1.0
 40
1.0
 40
1.0
 10
8.280006878
 20
25.2817259065
 30
0.0
 10
8.2801019498
 20
25.2534207323
 30
0.0
 10
8.2940317982
 20
25.1948776009
 30
0.0
 10
8.3509642131
 20
25.1232164821
 30
0.0
 10
8.4336322598
 20
25.0762182737
 30
0.0
 10
8.4976881227
 20
25.0653009621
 30
0.0
 10
8.5300026473
 20
25.0652195556
 30
0.0
 11
8.280006878
 21
25.2817259065
 31
0.0
 11
8.2992450924
 21
25.1990178752
 31
0.0
 11
8.3534856553
 21
25.1288551521
 31
0.0
 11
8.4345012104
 21
25.0818806372
 31
0.0
 11
8.5300026473
 21
25.0652195556
 31
0.0
  0
SPLINE
  5
609
100
AcDbEntity
  8
0
100
AcDbSpline
 62
7
  6
CONTINUOUS
 70
0
 71
3
 72
18
 73
14
 74
12
 42
0.0000001
 43
0.0000001
 44
0.0000000001
 12
-0.4645026772
 22
0.487981829
 32
0.0
 13
-0.0392554892
 23
0.6725682189
 33
0.0
 40
0.0
 40
0.0
 40
0.0
 40
0.0
 40
0.1636778156
 40
0.3250651433
 40
0.4815207483
 40
0.6295730363
 40
0.7642644103
 40
0.8244082433
 40
0.8781857762
 40
0.9241530805
 40
0.9607159207
 40
0.9863262087
 40
1.0
 40
1.0
 40
1.0
 40
1.0
 10
-2.9274076659
 20
24.8937461539
 30
0.0
 10
-2.9527505937
 20
24.9203700872
 30
0.0
 10
-3.0030820313
 20
24.9732452228
 30
0.0
 10
-3.0775588786
 20
25.0516446552
 30
0.0
 10
-3.1494509345
 20
25.1276604693
 30
0.0
 10
-3.2169272665
 20
25.199596349
 30
0.0
 10
-3.2692207819
 20
25.2561280024
 30
0.0
 10
-3.3066711001
 20
25.2975245274
 30
0.0
 10
-3.3305028257
 20
25.3244126726
 30
0.0
 10
-3.3503346104
 20
25.3476488249
 30
0.0
 10
-3.3658154056
 20
25.3665820868
 30
0.0
 10
-3.375349629
 20
25.3802980279
 30
0.0
 10
-3.3802637851
 20
25.3882150931
 30
0.0
 10
-3.3804427089
 20
25.3912806123
 30
0.0
 11
-2.9274076659
 21
24.8937461539
 31
0.0
 11
-3.003423092
 21
24.9736306664
 31
0.0
 11
-3.0782921209
 21
25.0524758454
 31
0.0
 11
-3.1506934171
 21
25.12908204
 31
0.0
 11
-3.2188927048
 21
25.2018684953
 31
0.0
 11
-3.2804156552
 21
25.2685713793
 31
0.0
 11
-3.3075797686
 21
25.2986372213
 31
0.0
 11
-3.3315637596
 21
25.3257928033
 31
0.0
 11
-3.3516430269
 21
25.3493700664
 31
0.0
 11
-3.3670080823
 21
25.368623446
 31
0.0
 11
-3.3768398925
 21
25.3828021392
 31
0.0
 11
-3.3804427089
 21
25.3912806123
 31
0.0
  0
SPLINE
  5
60A
100
AcDbEntity
  8
0
100
AcDbSpline
 62
7
  6
CONTINUOUS
 70
0
 71
3
 72
18
 73
14
 74
12
 42
0.0000001
 43
0.0000001
 44
0.0000000001
 12
-0.4646710751
 22
0.4881587388
 32
0.0
 13
0.0
 23
0.6739570923
 33
0.0
 40
0.0
 40
0.0
 40
0.0
 40
0.0
 40
0.1641060183
 40
0.3259011307
 40
0.482718549
 40
0.6310477659
 40
0.7658671704
 40
0.8259881902
 40
0.8796624717
 40
0.9254267902
 40
0.9616703427
 40
0.9868411377
 40
1.0
 40
1.0
 40
1.0
 40
1.0
 10
4.978677754
 20
24.8937461539
 30
0.0
 10
4.953259314
 20
24.9204494162
 30
0.0
 10
4.9027801316
 20
24.9734797536
 30
0.0
 10
4.8280914714
 20
25.0521031404
 30
0.0
 10
4.7560132593
 20
25.1283188911
 30
0.0
 10
4.6883989095
 20
25.200409891
 30
0.0
 10
4.636033702
 20
25.2570319587
 30
0.0
 10
4.5985826757
 20
25.2984528062
 30
0.0
 10
4.5747984016
 20
25.3253087943
 30
0.0
 10
4.5550829872
 20
25.3484540659
 30
0.0
 10
4.539724746
 20
25.3672699652
 30
0.0
 10
4.5304704488
 20
25.3807477198
 30
0.0
 10
4.525635044
 20
25.3885801138
 30
0.0
 10
4.525635044
 20
25.3915362833
 30
0.0
 11
4.978677754
 21
24.8937461539
 31
0.0
 11
4.9024359123
 21
24.9738687685
 31
0.0
 11
4.8273511011
 21
25.0529423988
 31
0.0
 11
4.7547579214
 21
25.1297553421
 31
0.0
 11
4.6864107104
 21
25.2027085144
 31
0.0
 11
4.6248166308
 21
25.2695079317
 31
0.0
 11
4.5976616324
 21
25.2995810829
 31
0.0
 11
4.5737281485
 21
25.3267059497
 31
0.0
 11
4.5537509014
 21
25.3502051365
 31
0.0
 11
4.5385487136
 21
25.3693245569
 31
0.0
 11
4.528945817
 21
25.383308937
 31
0.0
 11
4.525635044
 21
25.3915362833
 31
0.0
  0
SPLINE
  5
60B
100
AcDbEntity
  8
0
100
AcDbSpline
 62
7
  6
CONTINUOUS
 70
0
 71
3
 72
18
 73
14
 74
12
 42
0.0000001
 43
0.0000001
 44
0.0000000001
 12
-0.0392554892
 22
-0.6725682189
 32
0.0
 13
-0.4645026772
 23
-0.4879818289
 33
0.0
 40
0.0
 40
0.0
 40
0.0
 40
0.0
 40
0.013673802
 40
0.0392841065
 40
0.0758469559
 40
0.1218142562
 40
0.1755917792
 40
0.2357356036
 40
0.3704269753
 40
0.5184792767
 40
0.6749348536
 40
0.8363221475
 40
1.0
 40
1.0
 40
1.0
 40
1.0
 10
5.431712797
 20
25.3912806123
 30
0.0
 10
5.4315338731
 20
25.3882150907
 30
0.0
 10
5.4266197123
 20
25.3802980205
 30
0.0
 10
5.4170854836
 20
25.3665820735
 30
0.0
 10
5.4016046847
 20
25.3476488083
 30
0.0
 10
5.3817729002
 20
25.3244126572
 30
0.0
 10
5.3579411778
 20
25.2975245159
 30
0.0
 10
5.3204908627
 20
25.2561279945
 30
0.0
 10
5.2681973469
 20
25.1995963407
 30
0.0
 10
5.2007210174
 20
25.1276604638
 30
0.0
 10
5.1288289689
 20
25.0516446577
 30
0.0
 10
5.0543521256
 20
24.9732452293
 30
0.0
 10
5.0040206875
 20
24.9203700932
 30
0.0
 10
4.978677754
 20
24.8937461539
 30
0.0
 11
5.431712797
 21
25.3912806123
 31
0.0
 11
5.4281099769
 21
25.3828021328
 31
0.0
 11
5.4182781594
 21
25.3686234313
 31
0.0
 11
5.4029130994
 21
25.3493700475
 31
0.0
 11
5.3828338333
 21
25.3257927868
 31
0.0
 11
5.3588498465
 21
25.29863721
 31
0.0
 11
5.331685737
 21
25.2685713724
 31
0.0
 11
5.2701627875
 21
25.2018684895
 31
0.0
 11
5.2019634936
 21
25.1290820277
 31
0.0
 11
5.1295622104
 21
25.0524758469
 31
0.0
 11
5.0546931972
 21
24.9736306844
 31
0.0
 11
4.978677754
 21
24.8937461539
 31
0.0
  0
SPLINE
  5
60C
100
AcDbEntity
  8
0
100
AcDbSpline
 62
7
  6
CONTINUOUS
 70
0
 71
3
 72
18
 73
14
 74
12
 42
0.0000001
 43
0.0000001
 44
0.0000000001
 12
0.4646710749
 22
-0.4881587386
 32
0.0
 13
0.0
 23
-0.673957092
 33
0.0
 40
0.0
 40
0.0
 40
0.0
 40
0.0
 40
0.1641064696
 40
0.3259015364
 40
0.4827187367
 40
0.631047858
 40
0.7658671698
 40
0.8259880963
 40
0.879662272
 40
0.9254265467
 40
0.9616701868
 40
0.9868410964
 40
1.0
 40
1.0
 40
1.0
 40
1.0
 10
-2.9274076659
 20
-22.0189694755
 30
0.0
 10
-2.901989156
 20
-22.0456728112
 30
0.0
 10
-2.851509911
 20
-22.0987032148
 30
0.0
 10
-2.7768212224
 20
-22.1773266327
 30
0.0
 10
-2.7047430656
 20
-22.2535423246
 30
0.0
 10
-2.637128779
 20
-22.3256332586
 30
0.0
 10
-2.5847636144
 20
-22.3822552798
 30
0.0
 10
-2.5473126325
 20
-22.423676079
 30
0.0
 10
-2.5235283936
 20
-22.4505320253
 30
0.0
 10
-2.5038129852
 20
-22.4736772837
 30
0.0
 10
-2.4884547169
 20
-22.4924932078
 30
0.0
 10
-2.4792003862
 20
-22.5059710025
 30
0.0
 10
-2.474364956
 20
-22.5138034261
 30
0.0
 10
-2.474364956
 20
-22.5167596049
 30
0.0
 11
-2.9274076659
 21
-22.0189694755
 31
0.0
 11
-2.8511656149
 21
-22.0990923106
 31
0.0
 11
-2.7760808253
 21
-22.178165919
 31
0.0
 11
-2.7034877467
 21
-22.2549787557
 31
0.0
 11
-2.6351405802
 21
-22.3279318813
 31
0.0
 11
-2.5735465432
 21
-22.3947312529
 31
0.0
 11
-2.546391587
 21
-22.4248043575
 31
0.0
 11
-2.522458149
 21
-22.4519291696
 31
0.0
 11
-2.5024809177
 21
-22.4754283312
 31
0.0
 11
-2.4872786886
 21
-22.4945477941
 31
0.0
 11
-2.4776757428
 21
-22.5085322342
 31
0.0
 11
-2.474364956
 21
-22.5167596049
 31
0.0
  0
SPLINE
  5
60D
100
AcDbEntity
  8
0
100
AcDbSpline
 62
7
  6
CONTINUOUS
 70
0
 71
3
 72
18
 73
14
 74
12
 42
0.0000001
 43
0.0000001
 44
0.0000000001
 12
0.0392554892
 22
0.6725682188
 32
0.0
 13
0.4645026771
 23
0.4879818289
 33
0.0
 40
0.0
 40
0.0
 40
0.0
 40
0.0
 40
0.0136738202
 40
0.0392842007
 40
0.0758471061
 40
0.1218143585
 40
0.175591793
 40
0.2357355402
 40
0.3704268326
 40
0.5184790161
 40
0.6749344368
 40
0.8363217555
 40
1.0
 40
1.0
 40
1.0
 40
1.0
 10
-3.3804427089
 20
-22.5165039338
 30
0.0
 10
-3.3802637847
 20
-22.5134384082
 30
0.0
 10
-3.3753496096
 20
-22.5055213201
 30
0.0
 10
-3.3658153602
 20
-22.4918053481
 30
0.0
 10
-3.3503345468
 20
-22.4728720698
 30
0.0
 10
-3.3305027721
 20
-22.4496359341
 30
0.0
 10
-3.3066710813
 20
-22.422747829
 30
0.0
 10
-3.2692208039
 20
-22.3813513477
 30
0.0
 10
-3.2169273297
 20
-22.3248197393
 30
0.0
 10
-3.1494510559
 20
-22.2528839191
 30
0.0
 10
-3.0775590456
 20
-22.1768681539
 30
0.0
 10
-3.0030821626
 20
-22.0984686825
 30
0.0
 10
-2.9527506601
 20
-22.0455934785
 30
0.0
 10
-2.9274076659
 20
-22.0189694755
 30
0.0
 11
-3.3804427089
 21
-22.5165039338
 31
0.0
 11
-3.3768398825
 21
-22.5080254438
 31
0.0
 11
-3.3670080331
 21
-22.4938467021
 31
0.0
 11
-3.3516429469
 21
-22.4745932908
 31
0.0
 11
-3.3315636997
 21
-22.4510160564
 31
0.0
 11
-3.3075797519
 21
-22.4238605248
 31
0.0
 11
-3.2804156776
 21
-22.3937947254
 31
0.0
 11
-3.2188927647
 21
-22.3270918815
 31
0.0
 11
-3.150693526
 21
-22.254305477
 31
0.0
 11
-3.0782923152
 21
-22.1776993725
 31
0.0
 11
-3.003423291
 21
-22.0988541975
 31
0.0
 11
-2.9274076659
 21
-22.0189694755
 31
0.0
  0
SPLINE
  5
60E
100
AcDbEntity
  8
0
100
AcDbSpline
 62
7
  6
CONTINUOUS
 70
0
 71
3
 72
18
 73
14
 74
12
 42
0.0000001
 43
0.0000001
 44
0.0000000001
 12
0.4645026771
 22
-0.4879818288
 32
0.0
 13
0.0392554892
 23
-0.6725682188
 33
0.0
 40
0.0
 40
0.0
 40
0.0
 40
0.0
 40
0.1636782756
 40
0.3250655602
 40
0.4815209525
 40
0.6295731481
 40
0.764264436
 40
0.8244081756
 40
0.878185601
 40
0.9241528523
 40
0.9607157693
 40
0.9863261679
 40
1.0
 40
1.0
 40
1.0
 40
1.0
 10
4.978677754
 20
-22.0189694755
 30
0.0
 10
5.004020753
 20
-22.0455934836
 30
0.0
 10
5.054352255
 20
-22.0984686871
 30
0.0
 10
5.1288291331
 20
-22.1768681534
 30
0.0
 10
5.2007211356
 20
-22.2528839104
 30
0.0
 10
5.2681974064
 20
-22.324819727
 30
0.0
 10
5.3204908805
 20
-22.3813513354
 30
0.0
 10
5.357941155
 20
-22.422747813
 30
0.0
 10
5.3817728434
 20
-22.4496359149
 30
0.0
 10
5.4016046187
 20
-22.4728720505
 30
0.0
 10
5.417085437
 20
-22.4918053331
 30
0.0
 10
5.4266196924
 20
-22.5055213119
 30
0.0
 10
5.4315338727
 20
-22.5134384055
 30
0.0
 10
5.431712797
 20
-22.5165039338
 30
0.0
 11
4.978677754
 21
-22.0189694755
 31
0.0
 11
5.0546933934
 21
-22.0988542126
 31
0.0
 11
5.1295624019
 21
-22.177699371
 31
0.0
 11
5.2019635995
 21
-22.2543054616
 31
0.0
 11
5.270162844
 21
-22.327091872
 31
0.0
 11
5.3316857548
 21
-22.3937947136
 31
0.0
 11
5.3588498258
 21
-22.423860509
 31
0.0
 11
5.3828337699
 21
-22.4510160358
 31
0.0
 11
5.4029130171
 21
-22.4745932692
 31
0.0
 11
5.418278109
 21
-22.4938466859
 31
0.0
 11
5.4281099666
 21
-22.5080254368
 31
0.0
 11
5.431712797
 21
-22.5165039338
 31
0.0
  0
SPLINE
  5
60F
100
AcDbEntity
  8
0
100
AcDbSpline
 62
7
  6
CONTINUOUS
 70
0
 71
3
 72
11
 73
7
 74
5
 42
0.0000001
 43
0.0000001
 44
0.0000000001
 12
0.0
 22
0.0650116577
 32
0.0
 13
0.0421191248
 23
0.0495226712
 33
0.0
 40
0.0
 40
0.0
 40
0.0
 40
0.0
 40
0.112791836
 40
0.3212660392
 40
0.6204059374
 40
1.0
 40
1.0
 40
1.0
 40
1.0
 10
4.525635044
 20
-22.5167596049
 30
0.0
 10
4.525635044
 20
-22.5143153434
 30
0.0
 10
4.5292244319
 20
-22.5078675094
 30
0.0
 10
4.5365144085
 20
-22.4968905434
 30
0.0
 10
4.548510334
 20
-22.4816812949
 30
0.0
 10
4.5578958625
 20
-22.4704088494
 30
0.0
 10
4.5632252524
 20
-22.4641426788
 30
0.0
 11
4.525635044
 21
-22.5167596049
 31
0.0
 11
4.5281782845
 21
-22.5098819852
 31
0.0
 11
4.5356006578
 21
-22.4985418328
 31
0.0
 11
4.5474629912
 21
-22.4831310106
 31
0.0
 11
4.5632252524
 21
-22.4641426788
 31
0.0
  0
SPLINE
  5
610
100
AcDbEntity
  8
0
100
AcDbSpline
 62
7
  6
CONTINUOUS
 70
0
 71
3
 72
10
 73
6
 74
4
 42
0.0000001
 43
0.0000001
 44
0.0000000001
 12
0.3945247475
 22
0.4638728708
 32
0.0
 13
0.4198552068
 23
0.4410775691
 33
0.0
 40
0.0
 40
0.0
 40
0.0
 40
0.0
 40
0.1970536341
 40
0.4446913356
 40
1.0
 40
1.0
 40
1.0
 40
1.0
 10
4.5632252524
 20
-22.4641426788
 30
0.0
 10
4.5891394308
 20
-22.4336734004
 30
0.0
 10
4.6499321674
 20
-22.3669093242
 30
0.0
 10
4.7884722415
 20
-22.2185705158
 30
0.0
 10
4.9009613426
 20
-22.1006142074
 30
0.0
 10
4.978677754
 20
-22.0189694755
 30
0.0
 11
4.5632252524
 21
-22.4641426788
 31
0.0
 11
4.6431769354
 21
-22.3746607116
 31
0.0
 11
4.7459662712
 21
-22.264319616
 31
0.0
 11
4.978677754
 21
-22.0189694755
 31
0.0
  0
LINE
  5
611
100
AcDbEntity
  8
RACCORDO
100
AcDbLine
 62
7
  6
CONTINUOUS
 10
11.7618586154
 20
-9.3748086932
 11
11.7619500052
 21
-9.3748857918
  0
SPLINE
  5
612
100
AcDbEntity
  8
RACCORDO
100
AcDbSpline
 62
253
  6
CONTINUOUS
 70
0
 71
3
 72
11
 73
7
 74
5
 42
0.0000001
 43
0.0000001
 44
0.0000000001
 12
0.054952874
 22
-0.1909039708
 32
0.0
 13
-0.1169073951
 23
-0.1606138394
 33
0.0
 40
0.0
 40
0.0
 40
0.0
 40
0.0
 40
0.2713731261
 40
0.5271298768
 40
0.7686358602
 40
1.0
 40
1.0
 40
1.0
 40
1.0
 10
-9.6068848314
 20
15.718971915
 30
0.0
 10
-9.6019139203
 20
15.7017031792
 30
0.0
 10
-9.5951728484
 20
15.6672050918
 30
0.0
 10
-9.595626213
 20
15.615925868
 30
0.0
 10
-9.607040257
 20
15.5685839307
 30
0.0
 10
-9.6220391234
 20
15.5406062226
 30
0.0
 10
-9.631055183
 20
15.5282194616
 30
0.0
 11
-9.6068848314
 21
15.718971915
 31
0.0
 11
-9.5968421454
 21
15.6660057259
 31
0.0
 11
-9.5976176729
 21
15.6152040719
 31
0.0
 11
-9.6091792323
 21
15.5686414034
 31
0.0
 11
-9.631055183
 21
15.5282194616
 31
0.0
  0
LINE
  5
613
100
AcDbEntity
  8
RACCORDO
100
AcDbLine
 62
7
  6
CONTINUOUS
 10
1.1764946523
 20
1.1376970689
 11
1.1758442524
 21
1.0167323451
  0
SPLINE
  5
614
100
AcDbEntity
  8
RACCORDO
100
AcDbSpline
 62
7
  6
CONTINUOUS
 70
0
 71
3
 72
10
 73
6
 74
4
 42
0.0000001
 43
0.0000001
 44
0.0000000001
 12
0.0
 22
-0.6321934357
 32
0.0
 13
-0.0031637631
 23
-0.6321855192
 33
0.0
 40
0.0
 40
0.0
 40
0.0
 40
0.0
 40
0.5236245099
 40
0.7736050296
 40
1.0
 40
1.0
 40
1.0
 40
1.0
 10
1.1775622145
 20
1.7698892345
 30
0.0
 10
1.1775622145
 20
1.6595452419
 30
0.0
 10
1.1774398815
 20
1.4965224989
 30
0.0
 10
1.1770244663
 20
1.2857918094
 30
0.0
 10
1.1767334057
 20
1.1854049429
 30
0.0
 10
1.1764946523
 20
1.1376970689
 30
0.0
 11
1.1775622145
 21
1.7698892345
 31
0.0
 11
1.1773054229
 21
1.4388573562
 31
0.0
 11
1.1769890133
 21
1.2808216293
 31
0.0
 11
1.1764946523
 21
1.1376970689
 31
0.0
  0
SPLINE
  5
615
100
AcDbEntity
  8
RACCORDO
100
AcDbSpline
 62
253
  6
CONTINUOUS
 70
0
 71
3
 72
11
 73
7
 74
5
 42
0.0000001
 43
0.0000001
 44
0.0000000001
 12
0.0549528671
 22
-0.19090397
 32
0.0
 13
-0.1169073872
 23
-0.1606138418
 33
0.0
 40
0.0
 40
0.0
 40
0.0
 40
0.0
 40
0.2713731241
 40
0.5271298751
 40
0.7686358598
 40
1.0
 40
1.0
 40
1.0
 40
1.0
 10
-9.6068848312
 20
2.218971916
 30
0.0
 10
-9.6019139208
 20
2.2017031804
 30
0.0
 10
-9.59517285
 20
2.1672050934
 30
0.0
 10
-9.5956262153
 20
2.1159258703
 30
0.0
 10
-9.6070402589
 20
2.0685839336
 30
0.0
 10
-9.6220391243
 20
2.0406062254
 30
0.0
 10
-9.6310551834
 20
2.0282194642
 30
0.0
 11
-9.6068848312
 21
2.218971916
 31
0.0
 11
-9.5968421468
 21
2.1660057277
 31
0.0
 11
-9.5976176751
 21
2.1152040743
 31
0.0
 11
-9.609179234
 21
2.0686414062
 31
0.0
 11
-9.6310551834
 21
2.0282194642
 31
0.0
  0
SPLINE
  5
616
100
AcDbEntity
  8
RACCORDO
100
AcDbSpline
 62
253
  6
CONTINUOUS
 70
0
 71
3
 72
11
 73
7
 74
5
 42
0.0000001
 43
0.0000001
 44
0.0000000001
 12
-0.1155120707
 22
-0.1601569871
 32
0.0
 13
0.0544924635
 23
-0.1897995532
 33
0.0
 40
0.0
 40
0.0
 40
0.0
 40
0.0
 40
0.2316064351
 40
0.4732126457
 40
0.7288819187
 40
1.0
 40
1.0
 40
1.0
 40
1.0
 10
11.6838348778
 20
-12.6362982356
 30
0.0
 10
11.6749170981
 20
-12.6486626986
 30
0.0
 10
11.660090978
 20
-12.676536027
 30
0.0
 10
11.6488127174
 20
-12.723622802
 30
0.0
 10
11.6483777292
 20
-12.7745758577
 30
0.0
 10
11.6550580651
 20
-12.8088467744
 30
0.0
 10
11.6599826958
 20
-12.8259994713
 30
0.0
 11
11.6838348778
 21
-12.6362982356
 31
0.0
 11
11.6622018125
 21
-12.6765930383
 31
0.0
 11
11.6507802367
 21
-12.7229150128
 31
0.0
 11
11.6500302848
 21
-12.7733957404
 31
0.0
 11
11.6599826958
 21
-12.8259994713
 31
0.0
  0
SPLINE
  5
617
100
AcDbEntity
  8
RACCORDO
100
AcDbSpline
 62
7
  6
CONTINUOUS
 70
0
 71
3
 72
18
 73
14
 74
12
 42
0.0000001
 43
0.0000001
 44
0.0000000001
 12
-0.0218937457
 22
-0.0218937457
 32
0.0
 13
-0.0309591032
 23
-0.0004540093
 33
0.0
 40
0.0
 40
0.0
 40
0.0
 40
0.0
 40
0.0061230804
 40
0.0197886283
 40
0.0411558385
 40
0.0702391084
 40
0.1070103274
 40
0.1514243738
 40
0.262966748
 40
0.4042993245
 40
0.5747622367
 40
0.7736343141
 40
1.0
 40
1.0
 40
1.0
 40
1.0
 10
1.5185034164
 20
15.8484746248
 30
0.0
 10
1.5184587307
 20
15.8484299391
 30
0.0
 10
1.5182294518
 20
15.848424897
 30
0.0
 10
1.5178256141
 20
15.8483941528
 30
0.0
 10
1.5171529966
 20
15.8484148243
 30
0.0
 10
1.5162580788
 20
15.8484463237
 30
0.0
 10
1.5151197416
 20
15.8485058304
 30
0.0
 10
1.5131346042
 20
15.8486171403
 30
0.0
 10
1.5100711506
 20
15.8487984971
 30
0.0
 10
1.5057079742
 20
15.8490244952
 30
0.0
 10
1.5004411519
 20
15.8492294304
 30
0.0
 10
1.4942939636
 20
15.8493557626
 30
0.0
 10
1.4899046269
 20
15.849346634
 30
0.0
 10
1.4875686007
 20
15.8493123766
 30
0.0
 11
1.5185034164
 21
15.8484746248
 31
0.0
 11
1.5183202029
 21
15.8484258862
 31
0.0
 11
1.5178975705
 21
15.8484056068
 31
0.0
 11
1.5172360276
 21
15.8484126871
 31
0.0
 11
1.5163361494
 21
15.84844584
 31
0.0
 11
1.5151990256
 21
15.8485023371
 31
0.0
 11
1.5138259851
 21
15.8485787812
 31
0.0
 11
1.5103780306
 21
15.8487765755
 31
0.0
 11
1.5060077608
 21
15.849000453
 31
0.0
 11
1.5007337079
 21
15.8492031414
 31
0.0
 11
1.494577415
 21
15.8493282111
 31
0.0
 11
1.4875686007
 21
15.8493123766
 31
0.0
  0
SPLINE
  5
618
100
AcDbEntity
  8
RACCORDO
100
AcDbSpline
 62
7
  6
CONTINUOUS
 70
0
 71
3
 72
18
 73
14
 74
12
 42
0.0000001
 43
0.0000001
 44
0.0000000001
 12
0.0309591033
 22
-0.0004540093
 32
0.0
 13
0.0218937457
 23
-0.0218937457
 33
0.0
 40
0.0
 40
0.0
 40
0.0
 40
0.0
 40
0.226365674
 40
0.4252377396
 40
0.5957006744
 40
0.7370332524
 40
0.8485756137
 40
0.8929896623
 40
0.9297608876
 40
0.9588441629
 40
0.9802113739
 40
0.9938769205
 40
1.0
 40
1.0
 40
1.0
 40
1.0
 10
1.4875686007
 20
15.0254643018
 30
0.0
 10
1.4899046268
 20
15.0254300444
 30
0.0
 10
1.4942939633
 20
15.025420916
 30
0.0
 10
1.5004411515
 20
15.0255472478
 30
0.0
 10
1.505707974
 20
15.0257521831
 30
0.0
 10
1.5100711505
 20
15.0259781816
 30
0.0
 10
1.513134604
 20
15.0261595381
 30
0.0
 10
1.5151197414
 20
15.0262708478
 30
0.0
 10
1.5162580787
 20
15.0263303547
 30
0.0
 10
1.5171529966
 20
15.0263618542
 30
0.0
 10
1.5178256141
 20
15.0263825257
 30
0.0
 10
1.5182294519
 20
15.0263517815
 30
0.0
 10
1.5184587307
 20
15.0263467394
 30
0.0
 10
1.5185034164
 20
15.0263020537
 30
0.0
 11
1.4875686007
 21
15.0254643018
 31
0.0
 11
1.4945774146
 21
15.0254484675
 31
0.0
 11
1.5007337071
 21
15.0255735369
 31
0.0
 11
1.5060077608
 21
15.0257762254
 31
0.0
 11
1.5103780306
 21
15.026000103
 31
0.0
 11
1.5138259847
 21
15.0261978971
 31
0.0
 11
1.5151990253
 21
15.0262743412
 31
0.0
 11
1.5163361492
 21
15.0263308383
 31
0.0
 11
1.5172360277
 21
15.0263639914
 31
0.0
 11
1.5178975706
 21
15.0263710717
 31
0.0
 11
1.5183202029
 21
15.0263507923
 31
0.0
 11
1.5185034164
 21
15.0263020537
 31
0.0
  0
SPLINE
  5
619
100
AcDbEntity
  8
RACCORDO
100
AcDbSpline
 62
253
  6
CONTINUOUS
 70
0
 71
3
 72
17
 73
13
 74
11
 42
0.0000001
 43
0.0000001
 44
0.0000000001
 12
0.0646961796
 22
0.252334794
 32
0.0
 13
-0.1899748474
 23
0.1782358024
 33
0.0
 40
0.0
 40
0.0
 40
0.0
 40
0.0
 40
0.0170104535
 40
0.0400003301
 40
0.0698281713
 40
0.1067452377
 40
0.201573614
 40
0.3228124814
 40
0.4674456208
 40
0.631602963
 40
0.810776546
 40
1.0
 40
1.0
 40
1.0
 40
1.0
 10
1.4736900299
 20
-8.6278849994
 30
0.0
 10
1.474056867
 20
-8.626454223
 30
0.0
 10
1.4739931152
 20
-8.6228831278
 30
0.0
 10
1.4723526896
 20
-8.6170310589
 30
0.0
 10
1.4692081049
 20
-8.6098776545
 30
0.0
 10
1.4623842541
 20
-8.5976077116
 30
0.0
 10
1.4498593341
 20
-8.5795102338
 30
0.0
 10
1.4303704007
 20
-8.5549826183
 30
0.0
 10
1.4057952881
 20
-8.526852468
 30
0.0
 10
1.3768265524
 20
-8.4959234226
 30
0.0
 10
1.3442641371
 20
-8.463081451
 30
0.0
 10
1.3211827941
 20
-8.4409285298
 30
0.0
 10
1.3092002285
 20
-8.4296863984
 30
0.0
 11
1.4736900299
 21
-8.6278849994
 31
0.0
 11
1.4738442349
 21
-8.6234565192
 31
0.0
 11
1.4723977433
 21
-8.617645049
 31
0.0
 11
1.4693606825
 21
-8.6104931313
 31
0.0
 11
1.4647548109
 21
-8.6020510835
 31
0.0
 11
1.4509786781
 21
-8.5815466973
 31
0.0
 11
1.431462103
 21
-8.5567163677
 31
0.0
 11
1.406760723
 21
-8.5282671971
 31
0.0
 11
1.3775785167
 21
-8.4970098255
 31
0.0
 11
1.3447470728
 21
-8.4638350211
 31
0.0
 11
1.3092002285
 21
-8.4296863984
 31
0.0
  0
SPLINE
  5
61A
100
AcDbEntity
  8
RACCORDO
100
AcDbSpline
 62
7
  6
CONTINUOUS
 70
0
 71
3
 72
18
 73
14
 74
12
 42
0.0000001
 43
0.0000001
 44
0.0000000001
 12
-0.0218937457
 22
0.0218937457
 32
0.0
 13
-0.0004540093
 23
0.0309591032
 33
0.0
 40
0.0
 40
0.0
 40
0.0
 40
0.0
 40
0.0061230804
 40
0.0197886283
 40
0.0411558385
 40
0.0702391084
 40
0.1070103274
 40
0.1514243738
 40
0.262966748
 40
0.4042993245
 40
0.5747622367
 40
0.7736343141
 40
1.0
 40
1.0
 40
1.0
 40
1.0
 10
6.0367213296
 20
19.5445199669
 30
0.0
 10
6.0366766439
 20
19.5445646526
 30
0.0
 10
6.0366716018
 20
19.5447939315
 30
0.0
 10
6.0366408576
 20
19.5451977692
 30
0.0
 10
6.0366615291
 20
19.5458703867
 30
0.0
 10
6.0366930285
 20
19.5467653045
 30
0.0
 10
6.0367525353
 20
19.5479036417
 30
0.0
 10
6.0368638451
 20
19.549888779
 30
0.0
 10
6.037045202
 20
19.5529522326
 30
0.0
 10
6.0372712
 20
19.5573154091
 30
0.0
 10
6.0374761352
 20
19.5625822314
 30
0.0
 10
6.0376024674
 20
19.5687294196
 30
0.0
 10
6.0375933388
 20
19.5731187563
 30
0.0
 10
6.0375590815
 20
19.5754547826
 30
0.0
 11
6.0367213296
 21
19.5445199669
 31
0.0
 11
6.036672591
 21
19.5447031804
 31
0.0
 11
6.0366523116
 21
19.5451258127
 31
0.0
 11
6.0366593919
 21
19.5457873556
 31
0.0
 11
6.0366925449
 21
19.5466872339
 31
0.0
 11
6.0367490419
 21
19.5478243576
 31
0.0
 11
6.036825486
 21
19.5491973982
 31
0.0
 11
6.0370232804
 21
19.5526453527
 31
0.0
 11
6.0372471578
 21
19.5570156224
 31
0.0
 11
6.0374498462
 21
19.5622896754
 31
0.0
 11
6.0375749159
 21
19.5684459683
 31
0.0
 11
6.0375590815
 21
19.5754547826
 31
0.0
  0
SPLINE
  5
61B
100
AcDbEntity
  8
RACCORDO
100
AcDbSpline
 62
7
  6
CONTINUOUS
 70
0
 71
3
 72
18
 73
14
 74
12
 42
0.0000001
 43
0.0000001
 44
0.0000000001
 12
-0.0004540093
 22
-0.0309591033
 32
0.0
 13
-0.0218937457
 23
-0.0218937457
 33
0.0
 40
0.0
 40
0.0
 40
0.0
 40
0.0
 40
0.226365674
 40
0.4252377396
 40
0.5957006744
 40
0.7370332524
 40
0.8485756137
 40
0.8929896623
 40
0.9297608876
 40
0.9588441629
 40
0.9802113739
 40
0.9938769205
 40
1.0
 40
1.0
 40
1.0
 40
1.0
 10
5.2137110066
 20
19.5754547826
 30
0.0
 10
5.2136767492
 20
19.5731187565
 30
0.0
 10
5.2136676208
 20
19.56872942
 30
0.0
 10
5.2137939527
 20
19.5625822318
 30
0.0
 10
5.213998888
 20
19.5573154093
 30
0.0
 10
5.2142248864
 20
19.5529522328
 30
0.0
 10
5.2144062429
 20
19.5498887792
 30
0.0
 10
5.2145175527
 20
19.5479036419
 30
0.0
 10
5.2145770595
 20
19.5467653046
 30
0.0
 10
5.214608559
 20
19.5458703867
 30
0.0
 10
5.2146292305
 20
19.5451977691
 30
0.0
 10
5.2145984863
 20
19.5447939314
 30
0.0
 10
5.2145934442
 20
19.5445646526
 30
0.0
 10
5.2145487585
 20
19.5445199669
 30
0.0
 11
5.2137110066
 21
19.5754547826
 31
0.0
 11
5.2136951723
 21
19.5684459687
 31
0.0
 11
5.2138202417
 21
19.5622896761
 31
0.0
 11
5.2140229302
 21
19.5570156225
 31
0.0
 11
5.2142468079
 21
19.5526453527
 31
0.0
 11
5.214444602
 21
19.5491973985
 31
0.0
 11
5.214521046
 21
19.5478243579
 31
0.0
 11
5.2145775432
 21
19.546687234
 31
0.0
 11
5.2146106962
 21
19.5457873556
 31
0.0
 11
5.2146177765
 21
19.5451258127
 31
0.0
 11
5.2145974971
 21
19.5447031804
 31
0.0
 11
5.2145487585
 21
19.5445199669
 31
0.0
  0
SPLINE
  5
61C
100
AcDbEntity
  8
RACCORDO
100
AcDbSpline
 62
253
  6
CONTINUOUS
 70
0
 71
3
 72
11
 73
7
 74
5
 42
0.0000001
 43
0.0000001
 44
0.0000000001
 12
-0.1155126165
 22
0.1601562031
 32
0.0
 13
0.0544919657
 23
0.1897993667
 33
0.0
 40
0.0
 40
0.0
 40
0.0
 40
0.0
 40
0.2316064789
 40
0.4732126703
 40
0.7288819139
 40
1.0
 40
1.0
 40
1.0
 40
1.0
 10
11.6838353501
 20
-8.6889245366
 30
0.0
 10
11.6749175267
 20
-8.6765601318
 30
0.0
 10
11.6600913025
 20
-8.6486869131
 30
0.0
 10
11.6488128713
 20
-8.6016002563
 30
0.0
 10
11.6483777189
 20
-8.5506472839
 30
0.0
 10
11.6550579594
 20
-8.5163764054
 30
0.0
 10
11.6599825452
 20
-8.4992237251
 30
0.0
 11
11.6838353501
 21
-8.6889245366
 31
0.0
 11
11.662202136
 21
-8.6486298872
 31
0.0
 11
11.650780396
 21
-8.6023080359
 31
0.0
 11
11.6500302816
 21
-8.5518273974
 31
0.0
 11
11.6599825452
 21
-8.4992237251
 31
0.0
  0
LINE
  5
61D
100
AcDbEntity
  8
RACCORDO
100
AcDbLine
 62
7
  6
CONTINUOUS
 10
1.1764946528
 20
12.4370795064
 11
1.1758442552
 21
12.5580440967
  0
SPLINE
  5
61E
100
AcDbEntity
  8
RACCORDO
100
AcDbSpline
 62
7
  6
CONTINUOUS
 70
0
 71
3
 72
10
 73
6
 74
4
 42
0.0000001
 43
0.0000001
 44
0.0000000001
 12
0.0031637599
 22
-0.6321854161
 32
0.0
 13
0.0
 23
-0.6321933326
 33
0.0
 40
0.0
 40
0.0
 40
0.0
 40
0.0
 40
0.2263950786
 40
0.4763756231
 40
1.0
 40
1.0
 40
1.0
 40
1.0
 10
1.1764946528
 20
12.4370795064
 30
0.0
 10
1.1767334061
 20
12.3893716174
 30
0.0
 10
1.1770244666
 20
12.2889847393
 30
0.0
 10
1.1774398815
 20
12.0782540842
 30
0.0
 10
1.1775622145
 20
11.9152313906
 30
0.0
 10
1.1775622145
 20
11.804887444
 30
0.0
 11
1.1764946528
 21
12.4370795064
 31
0.0
 11
1.1769890137
 21
12.2939549009
 31
0.0
 11
1.1773054231
 21
12.1359191842
 31
0.0
 11
1.1775622145
 21
11.804887444
 31
0.0
  0
SPLINE
  5
61F
100
AcDbEntity
  8
RACCORDO
100
AcDbSpline
 62
253
  6
CONTINUOUS
 70
0
 71
3
 72
11
 73
7
 74
5
 42
0.0000001
 43
0.0000001
 44
0.0000000001
 12
0.1169073886
 22
-0.1606138779
 32
0.0
 13
-0.0549529328
 23
-0.1909039823
 33
0.0
 40
0.0
 40
0.0
 40
0.0
 40
0.0
 40
0.2313641417
 40
0.4728701232
 40
0.7286268725
 40
1.0
 40
1.0
 40
1.0
 40
1.0
 10
-9.6310552
 20
11.5465574096
 30
0.0
 10
-9.6220391408
 20
11.5341706456
 30
0.0
 10
-9.6070402767
 20
11.506192931
 30
0.0
 10
-9.5956262409
 20
11.4588509848
 30
0.0
 10
-9.5951728888
 20
11.4075717538
 30
0.0
 10
-9.6019139708
 20
11.3730736634
 30
0.0
 10
-9.6068848872
 20
11.3558049265
 30
0.0
 11
-9.6310552
 21
11.5465574096
 31
0.0
 11
-9.6091792526
 21
11.5061354583
 31
0.0
 11
-9.5976177013
 21
11.4595727815
 31
0.0
 11
-9.5968421859
 21
11.4087711205
 31
0.0
 11
-9.6068848872
 21
11.3558049265
 31
0.0
  0
LINE
  5
620
100
AcDbEntity
  8
RACCORDO
100
AcDbLine
 62
7
  6
CONTINUOUS
 10
1.1764946516
 20
-1.0629202557
 11
1.1758442552
 21
-0.9419560351
  0
SPLINE
  5
621
100
AcDbEntity
  8
RACCORDO
100
AcDbSpline
 62
7
  6
CONTINUOUS
 70
0
 71
3
 72
10
 73
6
 74
4
 42
0.0000001
 43
0.0000001
 44
0.0000000001
 12
0.0031637672
 22
-0.632185654
 32
0.0
 13
0.0
 23
-0.6321935704
 33
0.0
 40
0.0
 40
0.0
 40
0.0
 40
0.0
 40
0.2263950278
 40
0.4763755795
 40
1.0
 40
1.0
 40
1.0
 40
1.0
 10
1.1764946516
 20
-1.0629202557
 30
0.0
 10
1.1767334054
 20
-1.110628152
 30
0.0
 10
1.1770244661
 20
-1.2110150587
 30
0.0
 10
1.1774398815
 20
-1.4217457931
 30
0.0
 10
1.1775622145
 20
-1.5847685587
 30
0.0
 10
1.1775622145
 20
-1.695112556
 30
0.0
 11
1.1764946516
 21
-1.0629202557
 31
0.0
 11
1.1769890131
 21
-1.2060448829
 31
0.0
 11
1.1773054229
 21
-1.3640806637
 31
0.0
 11
1.1775622145
 21
-1.695112556
 31
0.0
  0
SPLINE
  5
622
100
AcDbEntity
  8
RACCORDO
100
AcDbSpline
 62
253
  6
CONTINUOUS
 70
0
 71
3
 72
11
 73
7
 74
5
 42
0.0000001
 43
0.0000001
 44
0.0000000001
 12
0.1169074452
 22
-0.1606138387
 32
0.0
 13
-0.0549529444
 23
-0.1909039807
 33
0.0
 40
0.0
 40
0.0
 40
0.0
 40
0.0
 40
0.2313641382
 40
0.4728701121
 40
0.7286268603
 40
1.0
 40
1.0
 40
1.0
 40
1.0
 10
-9.6310551876
 20
-1.9534426879
 30
0.0
 10
-9.6220391241
 20
-1.9658294487
 30
0.0
 10
-9.607040252
 20
-1.9938071589
 30
0.0
 10
-9.5956262089
 20
-2.0411491033
 30
0.0
 10
-9.5951728547
 20
-2.0924283353
 30
0.0
 10
-9.6019139382
 20
-2.1269264267
 30
0.0
 10
-9.6068848558
 20
-2.1441951642
 30
0.0
 11
-9.6310551876
 21
-1.9534426879
 31
0.0
 11
-9.6091792287
 21
-1.9938646326
 31
0.0
 11
-9.5976176703
 21
-2.0404273066
 31
0.0
 11
-9.5968421524
 21
-2.0912289677
 31
0.0
 11
-9.6068848558
 21
-2.1441951642
 31
0.0
  0
LINE
  5
623
100
AcDbEntity
  8
RACCORDO
100
AcDbLine
 62
7
  6
CONTINUOUS
 10
-9.7106799172
 20
1.3251142082
 11
-9.7105885273
 21
1.3251913068
  0
LINE
  5
624
100
AcDbEntity
  8
RACCORDO
100
AcDbLine
 62
7
  6
CONTINUOUS
 10
-9.7106799172
 20
14.8251142082
 11
-9.7105885273
 21
14.8251913068
  0
LINE
  5
625
100
AcDbEntity
  8
RACCORDO
100
AcDbLine
 62
7
  6
CONTINUOUS
 10
11.7619500052
 20
-11.9503375298
 11
11.7618586154
 21
-11.9504146283
  0
SPLINE
  5
626
100
AcDbEntity
  8
RACCORDO
100
AcDbSpline
 62
7
  6
CONTINUOUS
 70
0
 71
3
 72
17
 73
13
 74
11
 42
0.0000001
 43
0.0000001
 44
0.0000000001
 12
0.0227191893
 22
-0.0227191893
 32
0.0
 13
0.0007438399
 23
-0.0321211742
 33
0.0
 40
0.0
 40
0.0
 40
0.0
 40
0.0
 40
0.0071965274
 40
0.0215438192
 40
0.0433194385
 40
0.0725797704
 40
0.1535702685
 40
0.2643742891
 40
0.4047436472
 40
0.5743686079
 40
0.772925085
 40
1.0
 40
1.0
 40
1.0
 40
1.0
 10
5.2122036137
 20
11.3333103121
 30
0.0
 10
5.2122581135
 20
11.3332558123
 30
0.0
 10
5.212300346
 20
11.3330089988
 30
0.0
 10
5.2123493374
 20
11.332561666
 30
0.0
 10
5.2123632341
 20
11.3318538945
 30
0.0
 10
5.2123555932
 20
11.3304440746
 30
0.0
 10
5.2122699951
 20
11.3280747629
 30
0.0
 10
5.2121224972
 20
11.3245219505
 30
0.0
 10
5.2119441621
 20
11.3200181275
 30
0.0
 10
5.2117921031
 20
11.3145737329
 30
0.0
 10
5.2117187699
 20
11.3081985666
 30
0.0
 10
5.2117680891
 20
11.3036398152
 30
0.0
 10
5.2118243916
 20
11.3012085109
 30
0.0
 11
5.2122036137
 21
11.3333103121
 31
0.0
 11
5.2122843345
 21
11.3330936368
 31
0.0
 11
5.2123357031
 21
11.3326355325
 31
0.0
 11
5.2123591309
 21
11.3319362788
 31
0.0
 11
5.2123560294
 21
11.3309961558
 31
0.0
 11
5.2122795962
 21
11.3283950712
 31
0.0
 11
5.2121366155
 21
11.3248378341
 31
0.0
 11
5.2119644929
 21
11.3203310824
 31
0.0
 11
5.2118144929
 21
11.3148831333
 31
0.0
 11
5.2117444274
 21
11.3085039411
 31
0.0
 11
5.2118243916
 21
11.3012085109
 31
0.0
  0
SPLINE
  5
627
100
AcDbEntity
  8
RACCORDO
100
AcDbSpline
 62
7
  6
CONTINUOUS
 70
0
 71
3
 72
17
 73
13
 74
11
 42
0.0000001
 43
0.0000001
 44
0.0000000001
 12
0.0007438415
 22
0.0321212393
 32
0.0
 13
0.0227192354
 23
0.0227192354
 33
0.0
 40
0.0
 40
0.0
 40
0.0
 40
0.0
 40
0.2270911668
 40
0.4256331189
 40
0.5952516089
 40
0.7356225284
 40
0.8464329267
 40
0.9274178789
 40
0.9566793852
 40
0.9784550101
 40
0.9928022467
 40
1.0
 40
1.0
 40
1.0
 40
1.0
 10
6.0394456965
 20
11.3012085109
 30
0.0
 10
6.0395020031
 20
11.3036399942
 30
0.0
 10
6.0395507467
 20
11.308198771
 30
0.0
 10
6.0394785712
 20
11.3145739197
 30
0.0
 10
6.0393249186
 20
11.3200180716
 30
0.0
 10
6.0391484402
 20
11.3245219825
 30
0.0
 10
6.038999001
 20
11.3280747673
 30
0.0
 10
6.0389150652
 20
11.3304441364
 30
0.0
 10
6.0389065152
 20
11.3318539128
 30
0.0
 10
6.0389203637
 20
11.3325616875
 30
0.0
 10
6.038969524
 20
11.3330090606
 30
0.0
 10
6.0390119652
 20
11.333255803
 30
0.0
 10
6.0390664744
 20
11.3333103121
 30
0.0
 11
6.0394456965
 21
11.3012085109
 31
0.0
 11
6.0395254496
 21
11.3085044804
 31
0.0
 11
6.0394556955
 21
11.3148832223
 31
0.0
 11
6.0393052005
 21
11.3203309607
 31
0.0
 11
6.0391336499
 21
11.3248377936
 31
0.0
 11
6.0389900764
 21
11.3283952191
 31
0.0
 11
6.0389141615
 21
11.3309961459
 31
0.0
 11
6.0389106702
 21
11.3319363072
 31
0.0
 11
6.0389340531
 21
11.332635564
 31
0.0
 11
6.0389856157
 21
11.3330936457
 31
0.0
 11
6.0390664744
 21
11.3333103121
 31
0.0
  0
SPLINE
  5
628
100
AcDbEntity
  8
RACCORDO
100
AcDbSpline
 62
253
  6
CONTINUOUS
 70
0
 71
3
 72
11
 73
7
 74
5
 42
0.0000001
 43
0.0000001
 44
0.0000000001
 12
0.2157430467
 22
-0.2037499223
 32
0.0
 13
0.0124082515
 23
-0.2964879902
 33
0.0
 40
0.0
 40
0.0
 40
0.0
 40
0.0
 40
0.2746264757
 40
0.5282488583
 40
0.7679687271
 40
1.0
 40
1.0
 40
1.0
 40
1.0
 10
11.6838361999
 20
-8.6889253368
 30
0.0
 10
11.7035857841
 20
-8.7075770445
 30
0.0
 10
11.7384159355
 20
-8.7470264768
 30
0.0
 10
11.7771735368
 20
-8.8128821818
 30
0.0
 10
11.8011659912
 20
-8.880965819
 30
0.0
 10
11.8078143469
 20
-8.9275151518
 30
0.0
 10
11.8087740477
 20
-8.950446647
 30
0.0
 11
11.6838361999
 21
-8.6889253368
 31
0.0
 11
11.7375925096
 21
-8.7501760482
 31
0.0
 11
11.7756075541
 21
-8.8151313948
 31
0.0
 11
11.7991079067
 21
-8.8822738062
 31
0.0
 11
11.8087740477
 21
-8.950446647
 31
0.0
  0
SPLINE
  5
629
100
AcDbEntity
  8
RACCORDO
100
AcDbSpline
 62
253
  6
CONTINUOUS
 70
0
 71
3
 72
11
 73
7
 74
5
 42
0.0000001
 43
0.0000001
 44
0.0000000001
 12
-0.012408171
 22
-0.2964881768
 32
0.0
 13
-0.2157430592
 23
-0.2037501757
 33
0.0
 40
0.0
 40
0.0
 40
0.0
 40
0.0
 40
0.2320308673
 40
0.4717506048
 40
0.7253731083
 40
1.0
 40
1.0
 40
1.0
 40
1.0
 10
11.8087740477
 20
-12.3747766083
 30
0.0
 10
11.8078143548
 20
-12.3977080779
 30
0.0
 10
11.8011659543
 20
-12.4442573833
 30
0.0
 10
11.777173453
 20
-12.5123410031
 30
0.0
 10
11.7384157973
 20
-12.5781967754
 30
0.0
 10
11.7035856026
 20
-12.6176462814
 30
0.0
 10
11.6838359873
 20
-12.6362980406
 30
0.0
 11
11.8087740477
 21
-12.3747766083
 31
0.0
 11
11.7991078827
 21
-12.4429493671
 31
0.0
 11
11.7756074865
 21
-12.5100917684
 31
0.0
 11
11.737592391
 21
-12.5750471805
 31
0.0
 11
11.6838359873
 21
-12.6362980406
 31
0.0
  0
SPLINE
  5
62A
100
AcDbEntity
  8
RACCORDO
100
AcDbSpline
 62
253
  6
CONTINUOUS
 70
0
 71
3
 72
11
 73
7
 74
5
 42
0.0000001
 43
0.0000001
 44
0.0000000001
 12
-0.2182353257
 22
0.2044218497
 32
0.0
 13
-0.0124944275
 23
0.2987621785
 33
0.0
 40
0.0
 40
0.0
 40
0.0
 40
0.0
 40
0.2748694542
 40
0.5285177108
 40
0.7681351479
 40
1.0
 40
1.0
 40
1.0
 40
1.0
 10
-9.6310562132
 20
11.5465583545
 30
0.0
 10
-9.6510516215
 20
11.5652881286
 30
0.0
 10
-9.6863118435
 20
11.6049376317
 30
0.0
 10
-9.7255450474
 20
11.6712180504
 30
0.0
 10
-9.7498190332
 20
11.7397683798
 30
0.0
 10
-9.7565382867
 20
11.7866483531
 30
0.0
 10
-9.7575039596
 20
11.8097391692
 30
0.0
 11
-9.6310562132
 21
11.5465583545
 31
0.0
 11
-9.685491923
 21
11.6081403374
 31
0.0
 11
-9.7239660122
 21
11.6735044963
 31
0.0
 11
-9.7477374799
 21
11.7410974859
 31
0.0
 11
-9.7575039596
 21
11.8097391692
 31
0.0
  0
SPLINE
  5
62B
100
AcDbEntity
  8
RACCORDO
100
AcDbSpline
 62
253
  6
CONTINUOUS
 70
0
 71
3
 72
11
 73
7
 74
5
 42
0.0000001
 43
0.0000001
 44
0.0000000001
 12
-0.2182357773
 22
-0.2044220794
 32
0.0
 13
-0.0124944412
 23
-0.298762665
 33
0.0
 40
0.0
 40
0.0
 40
0.0
 40
0.0
 40
0.2748694171
 40
0.5285178441
 40
0.7681353593
 40
1.0
 40
1.0
 40
1.0
 40
1.0
 10
-9.6310561535
 20
15.5282185574
 30
0.0
 10
-9.6510516004
 20
15.5094887648
 30
0.0
 10
-9.6863118704
 20
15.4698391616
 30
0.0
 10
-9.7255450421
 20
15.4035585536
 30
0.0
 10
-9.7498190119
 20
15.3350080953
 30
0.0
 10
-9.7565382865
 20
15.288128062
 30
0.0
 10
-9.7575039596
 20
15.2650372293
 30
0.0
 11
-9.6310561535
 21
15.5282185574
 31
0.0
 11
-9.6854919203
 21
15.4666364612
 31
0.0
 11
-9.7239660132
 21
15.4012721022
 31
0.0
 11
-9.7477374748
 21
15.333678962
 31
0.0
 11
-9.7575039596
 21
15.2650372293
 31
0.0
  0
SPLINE
  5
62C
100
AcDbEntity
  8
RACCORDO
100
AcDbSpline
 62
253
  6
CONTINUOUS
 70
0
 71
3
 72
11
 73
7
 74
5
 42
0.0000001
 43
0.0000001
 44
0.0000000001
 12
-0.2182354472
 22
0.2044221452
 32
0.0
 13
-0.0124944574
 23
0.2987624682
 33
0.0
 40
0.0
 40
0.0
 40
0.0
 40
0.0
 40
0.2748697639
 40
0.5285180581
 40
0.768135381
 40
1.0
 40
1.0
 40
1.0
 40
1.0
 10
-9.6310560054
 20
-1.9534419249
 30
0.0
 10
-9.6510514473
 20
-1.9347121027
 30
0.0
 10
-9.686311704
 20
-1.895062516
 30
0.0
 10
-9.7255449659
 20
-1.8287820224
 30
0.0
 10
-9.749819012
 20
-1.7602316728
 30
0.0
 10
-9.7565382854
 20
-1.7133516891
 30
0.0
 10
-9.7575039596
 20
-1.6902608738
 30
0.0
 11
-9.6310560054
 21
-1.9534419249
 31
0.0
 11
-9.685491804
 21
-1.8918597904
 31
0.0
 11
-9.7239659432
 21
-1.8264955623
 31
0.0
 11
-9.7477374585
 21
-1.7589025518
 31
0.0
 11
-9.7575039596
 21
-1.6902608738
 31
0.0
  0
SPLINE
  5
62D
100
AcDbEntity
  8
RACCORDO
100
AcDbSpline
 62
253
  6
CONTINUOUS
 70
0
 71
3
 72
11
 73
7
 74
5
 42
0.0000001
 43
0.0000001
 44
0.0000000001
 12
-0.218235772
 22
-0.2044220413
 32
0.0
 13
-0.0124944406
 23
-0.2987626351
 33
0.0
 40
0.0
 40
0.0
 40
0.0
 40
0.0
 40
0.2748693615
 40
0.5285177679
 40
0.7681353076
 40
1.0
 40
1.0
 40
1.0
 40
1.0
 10
-9.6310561899
 20
2.0282185264
 30
0.0
 10
-9.6510516323
 20
2.0094887411
 30
0.0
 10
-9.6863118942
 20
1.9698391477
 30
0.0
 10
-9.7255450574
 20
1.9035585492
 30
0.0
 10
-9.7498190164
 20
1.8350080884
 30
0.0
 10
-9.7565382864
 20
1.7881280521
 30
0.0
 10
-9.7575039596
 20
1.7650372166
 30
0.0
 11
-9.6310561899
 21
2.0282185264
 31
0.0
 11
-9.6854919419
 21
1.9666364504
 31
0.0
 11
-9.7239660252
 21
1.9012721016
 31
0.0
 11
-9.7477374788
 21
1.8336789585
 31
0.0
 11
-9.7575039596
 21
1.7650372166
 31
0.0
  0
LINE
  5
62E
100
AcDbEntity
  8
RACCORDO
100
AcDbLine
 62
253
  6
CONTINUOUS
 10
-4.7178709847
 20
15.3281640696
 11
-4.7253593266
 21
15.1601486186
  0
SPLINE
  5
62F
100
AcDbEntity
  8
RACCORDO
100
AcDbSpline
 62
253
  6
CONTINUOUS
 70
0
 71
3
 72
15
 73
11
 74
9
 42
0.0000001
 43
0.0000001
 44
0.0000000001
 12
-0.3214892324
 22
-0.5031374491
 32
0.0
 13
-0.3214921235
 23
0.5031356018
 33
0.0
 40
0.0
 40
0.0
 40
0.0
 40
0.0
 40
0.1247104312
 40
0.249641424
 40
0.3747644403
 40
0.5000000733
 40
0.6252357095
 40
0.7503587073
 40
0.8752897011
 40
1.0
 40
1.0
 40
1.0
 40
1.0
 10
-4.2233718869
 20
15.1601467759
 30
0.0
 10
-4.2367362405
 20
15.1392312798
 30
0.0
 10
-4.2687114797
 20
15.100442728
 30
0.0
 10
-4.3293844507
 20
15.0557951041
 30
0.0
 10
-4.3994122039
 20
15.027562854
 30
0.0
 10
-4.4743661432
 20
15.0179065752
 30
0.0
 10
-4.5493200193
 20
15.0275634354
 30
0.0
 10
-4.619347498
 20
15.0557962821
 30
0.0
 10
-4.6800202377
 20
15.100444279
 30
0.0
 10
-4.7119947848
 20
15.139233289
 30
0.0
 10
-4.7253592444
 20
15.1601486861
 30
0.0
 11
-4.2233718869
 21
15.1601467759
 31
0.0
 11
-4.2707896971
 21
15.102734873
 31
0.0
 11
-4.3308950924
 21
15.0585585641
 31
0.0
 11
-4.4002018953
 21
15.0306678883
 31
0.0
 11
-4.4743661327
 21
15.0211263969
 31
0.0
 11
-4.5485302967
 21
15.0306684735
 31
0.0
 11
-4.6178368637
 21
15.0585597059
 31
0.0
 11
-4.6779419061
 21
15.102736496
 31
0.0
 11
-4.7253592444
 21
15.1601486861
 31
0.0
  0
LINE
  5
630
100
AcDbEntity
  8
RACCORDO
100
AcDbLine
 62
253
  6
CONTINUOUS
 10
-4.2308589274
 20
15.3281640693
 11
-4.2233718076
 21
15.1601467364
  0
SPLINE
  5
631
100
AcDbEntity
  8
RACCORDO
100
AcDbSpline
 62
253
  6
CONTINUOUS
 70
0
 71
3
 72
15
 73
11
 74
9
 42
0.0000001
 43
0.0000001
 44
0.0000000001
 12
-0.3320980392
 22
-0.4581977875
 32
0.0
 13
-0.3320980303
 23
0.458197794
 33
0.0
 40
0.0
 40
0.0
 40
0.0
 40
0.0
 40
0.1247349824
 40
0.2496780774
 40
0.3747912712
 40
0.4999999999
 40
0.6252087289
 40
0.7503219226
 40
0.8752650176
 40
1.0
 40
1.0
 40
1.0
 40
1.0
 10
-4.2308590014
 20
15.3281640906
 30
0.0
 10
-4.2446670824
 20
15.3091129929
 30
0.0
 10
-4.276977047
 20
15.2741319956
 30
0.0
 10
-4.3363155714
 20
15.2345538181
 30
0.0
 10
-4.4033669428
 20
15.2098698368
 30
0.0
 10
-4.4743649523
 20
15.201491825
 30
0.0
 10
-4.5453629615
 20
15.2098698395
 30
0.0
 10
-4.6124143319
 20
15.2345538235
 30
0.0
 10
-4.6717528549
 20
15.2741320033
 30
0.0
 10
-4.7040628175
 20
15.3091130023
 30
0.0
 10
-4.7178708982
 20
15.3281641002
 30
0.0
 11
-4.2308590014
 21
15.3281640906
 31
0.0
 11
-4.2787521367
 21
15.2763112758
 31
0.0
 11
-4.3375592712
 21
15.2370579003
 31
0.0
 11
-4.4039991569
 21
15.2125942726
 31
0.0
 11
-4.4743649522
 21
15.2042852065
 31
0.0
 11
-4.5447307473
 21
15.2125942753
 31
0.0
 11
-4.611170632
 21
15.2370579056
 31
0.0
 11
-4.6699777649
 21
15.2763112835
 31
0.0
 11
-4.7178708982
 21
15.3281641002
 31
0.0
  0
LINE
  5
632
100
AcDbEntity
  8
RACCORDO
100
AcDbLine
 62
253
  6
CONTINUOUS
 10
-4.7178709847
 20
1.8281640696
 11
-4.7253593266
 21
1.6601486186
  0
SPLINE
  5
633
100
AcDbEntity
  8
RACCORDO
100
AcDbSpline
 62
253
  6
CONTINUOUS
 70
0
 71
3
 72
15
 73
11
 74
9
 42
0.0000001
 43
0.0000001
 44
0.0000000001
 12
-0.3214892324
 22
-0.5031374491
 32
0.0
 13
-0.3214921235
 23
0.5031356018
 33
0.0
 40
0.0
 40
0.0
 40
0.0
 40
0.0
 40
0.1247104312
 40
0.249641424
 40
0.3747644403
 40
0.5000000733
 40
0.6252357095
 40
0.7503587073
 40
0.8752897011
 40
1.0
 40
1.0
 40
1.0
 40
1.0
 10
-4.2233718869
 20
1.6601467759
 30
0.0
 10
-4.2367362405
 20
1.6392312798
 30
0.0
 10
-4.2687114797
 20
1.600442728
 30
0.0
 10
-4.3293844507
 20
1.5557951041
 30
0.0
 10
-4.3994122039
 20
1.527562854
 30
0.0
 10
-4.4743661432
 20
1.5179065752
 30
0.0
 10
-4.5493200193
 20
1.5275634354
 30
0.0
 10
-4.619347498
 20
1.5557962821
 30
0.0
 10
-4.6800202377
 20
1.600444279
 30
0.0
 10
-4.7119947848
 20
1.639233289
 30
0.0
 10
-4.7253592444
 20
1.6601486861
 30
0.0
 11
-4.2233718869
 21
1.6601467759
 31
0.0
 11
-4.2707896971
 21
1.602734873
 31
0.0
 11
-4.3308950924
 21
1.5585585641
 31
0.0
 11
-4.4002018953
 21
1.5306678883
 31
0.0
 11
-4.4743661327
 21
1.5211263969
 31
0.0
 11
-4.5485302967
 21
1.5306684735
 31
0.0
 11
-4.6178368637
 21
1.5585597059
 31
0.0
 11
-4.6779419061
 21
1.602736496
 31
0.0
 11
-4.7253592444
 21
1.6601486861
 31
0.0
  0
LINE
  5
634
100
AcDbEntity
  8
RACCORDO
100
AcDbLine
 62
253
  6
CONTINUOUS
 10
-4.2308589274
 20
1.8281640693
 11
-4.2233718076
 21
1.6601467364
  0
SPLINE
  5
635
100
AcDbEntity
  8
RACCORDO
100
AcDbSpline
 62
253
  6
CONTINUOUS
 70
0
 71
3
 72
15
 73
11
 74
9
 42
0.0000001
 43
0.0000001
 44
0.0000000001
 12
-0.3320980392
 22
-0.4581977875
 32
0.0
 13
-0.3320980303
 23
0.458197794
 33
0.0
 40
0.0
 40
0.0
 40
0.0
 40
0.0
 40
0.1247349824
 40
0.2496780774
 40
0.3747912712
 40
0.4999999999
 40
0.6252087289
 40
0.7503219226
 40
0.8752650176
 40
1.0
 40
1.0
 40
1.0
 40
1.0
 10
-4.2308590014
 20
1.8281640906
 30
0.0
 10
-4.2446670824
 20
1.8091129929
 30
0.0
 10
-4.276977047
 20
1.7741319956
 30
0.0
 10
-4.3363155714
 20
1.7345538181
 30
0.0
 10
-4.4033669428
 20
1.7098698368
 30
0.0
 10
-4.4743649523
 20
1.701491825
 30
0.0
 10
-4.5453629615
 20
1.7098698395
 30
0.0
 10
-4.6124143319
 20
1.7345538235
 30
0.0
 10
-4.6717528549
 20
1.7741320033
 30
0.0
 10
-4.7040628175
 20
1.8091130023
 30
0.0
 10
-4.7178708982
 20
1.8281641002
 30
0.0
 11
-4.2308590014
 21
1.8281640906
 31
0.0
 11
-4.2787521367
 21
1.7763112758
 31
0.0
 11
-4.3375592712
 21
1.7370579003
 31
0.0
 11
-4.4039991569
 21
1.7125942726
 31
0.0
 11
-4.4743649522
 21
1.7042852065
 31
0.0
 11
-4.5447307473
 21
1.7125942753
 31
0.0
 11
-4.611170632
 21
1.7370579056
 31
0.0
 11
-4.6699777649
 21
1.7763112835
 31
0.0
 11
-4.7178708982
 21
1.8281641002
 31
0.0
  0
LINE
  5
636
100
AcDbEntity
  8
RACCORDO
100
AcDbLine
 62
253
  6
CONTINUOUS
 10
6.281406439
 20
-8.8880723447
 11
6.2738727787
 21
-9.0570914821
  0
SPLINE
  5
637
100
AcDbEntity
  8
RACCORDO
100
AcDbSpline
 62
253
  6
CONTINUOUS
 70
0
 71
3
 72
15
 73
11
 74
9
 42
0.0000001
 43
0.0000001
 44
0.0000000001
 12
-0.3206190159
 22
-0.5071260386
 32
0.0
 13
-0.3206219847
 23
0.5071241616
 33
0.0
 40
0.0
 40
0.0
 40
0.0
 40
0.0
 40
0.1247047806
 40
0.2496340568
 40
0.3747594443
 40
0.5000000749
 40
0.6252407089
 40
0.7503660776
 40
0.8752953544
 40
1.0
 40
1.0
 40
1.0
 40
1.0
 10
6.7773959217
 20
-9.0570933174
 30
0.0
 10
6.764068347
 20
-9.0781736645
 30
0.0
 10
6.7321038683
 20
-9.1172913412
 30
0.0
 10
6.6712759442
 20
-9.1623550385
 30
0.0
 10
6.6009563384
 20
-9.1908686502
 30
0.0
 10
6.5256338378
 20
-9.2006244669
 30
0.0
 10
6.4503114022
 20
-9.1908680561
 30
0.0
 10
6.3799920783
 20
-9.162353835
 30
0.0
 10
6.3191643918
 20
-9.1172897573
 30
0.0
 10
6.287200622
 20
-9.0781716163
 30
0.0
 10
6.2738729383
 20
-9.05709137
 30
0.0
 11
6.7773959217
 21
-9.0570933174
 31
0.0
 11
6.7299979326
 21
-9.1149852699
 31
0.0
 11
6.6697436714
 21
-9.1595682831
 31
0.0
 11
6.6001547239
 21
-9.1877330135
 31
0.0
 11
6.5256338486
 21
-9.1973714311
 31
0.0
 11
6.4511130488
 21
-9.1877324155
 31
0.0
 11
6.3815243436
 21
-9.1595671167
 31
0.0
 11
6.3212704446
 21
-9.1149836131
 31
0.0
 11
6.2738729383
 21
-9.05709137
 31
0.0
  0
LINE
  5
638
100
AcDbEntity
  8
RACCORDO
100
AcDbLine
 62
253
  6
CONTINUOUS
 10
6.7698636491
 20
-8.8880723448
 11
6.777396077
 21
-9.0570933997
  0
SPLINE
  5
639
100
AcDbEntity
  8
RACCORDO
100
AcDbSpline
 62
253
  6
CONTINUOUS
 70
0
 71
3
 72
15
 73
11
 74
9
 42
0.0000001
 43
0.0000001
 44
0.0000000001
 12
0.3316383484
 22
-0.4615392896
 32
0.0
 13
0.3316383443
 23
0.4615392926
 33
0.0
 40
0.0
 40
0.0
 40
0.0
 40
0.0
 40
0.1247302224
 40
0.249672102
 40
0.3747873226
 40
0.5000000001
 40
0.6252126774
 40
0.7503278979
 40
0.8752697775
 40
1.0
 40
1.0
 40
1.0
 40
1.0
 10
6.2814064703
 20
-8.888072321
 30
0.0
 10
6.2951949119
 20
-8.9072616204
 30
0.0
 10
6.327520712
 20
-8.9425119451
 30
0.0
 10
6.3870183028
 20
-8.9824142989
 30
0.0
 10
6.4543275535
 20
-9.0073089001
 30
0.0
 10
6.5256350422
 20
-9.0157597266
 30
0.0
 10
6.5969425308
 20
-9.0073088991
 30
0.0
 10
6.664251781
 20
-8.982414297
 30
0.0
 10
6.7237493714
 20
-8.9425119424
 30
0.0
 10
6.7560751707
 20
-8.907261617
 30
0.0
 10
6.7698636121
 20
-8.8880723174
 30
0.0
 11
6.2814064703
 21
-8.888072321
 31
0.0
 11
6.3293176398
 21
-8.9403185922
 31
0.0
 11
6.3882775449
 21
-8.9798906991
 31
0.0
 11
6.4549677535
 21
-9.0045613035
 31
0.0
 11
6.5256350422
 21
-9.0129420532
 31
0.0
 11
6.5963023308
 21
-9.0045613025
 31
0.0
 11
6.662992539
 21
-8.9798906972
 31
0.0
 11
6.7219524434
 21
-8.9403185894
 31
0.0
 11
6.7698636121
 21
-8.8880723174
 31
0.0
  0
LINE
  5
63A
100
AcDbEntity
  8
RACCORDO
100
AcDbLine
 62
253
  6
CONTINUOUS
 10
-4.2308589268
 20
11.7466126083
 11
-4.2233705852
 21
11.9146280597
  0
SPLINE
  5
63B
100
AcDbEntity
  8
RACCORDO
100
AcDbSpline
 62
253
  6
CONTINUOUS
 70
0
 71
3
 72
15
 73
11
 74
9
 42
0.0000001
 43
0.0000001
 44
0.0000000001
 12
0.3214892324
 22
0.5031374492
 32
0.0
 13
0.3214921235
 23
-0.5031356019
 33
0.0
 40
0.0
 40
0.0
 40
0.0
 40
0.0
 40
0.1247104312
 40
0.249641424
 40
0.3747644403
 40
0.5000000733
 40
0.6252357095
 40
0.7503587073
 40
0.8752897011
 40
1.0
 40
1.0
 40
1.0
 40
1.0
 10
-4.725358025
 20
11.9146299023
 30
0.0
 10
-4.7119936714
 20
11.9355453984
 30
0.0
 10
-4.6800184322
 20
11.9743339502
 30
0.0
 10
-4.6193454612
 20
12.0189815742
 30
0.0
 10
-4.549317708
 20
12.0472138242
 30
0.0
 10
-4.4743637687
 20
12.0568701031
 30
0.0
 10
-4.3994098926
 20
12.0472132429
 30
0.0
 10
-4.3293824139
 20
12.0189803961
 30
0.0
 10
-4.2687096742
 20
11.9743323993
 30
0.0
 10
-4.2367351271
 20
11.9355433892
 30
0.0
 10
-4.2233706675
 20
11.9146279921
 30
0.0
 11
-4.725358025
 21
11.9146299023
 31
0.0
 11
-4.6779402148
 21
11.9720418052
 31
0.0
 11
-4.6178348196
 21
12.0162181142
 31
0.0
 11
-4.5485280166
 21
12.0441087899
 31
0.0
 11
-4.4743637793
 21
12.0536502814
 31
0.0
 11
-4.4001996152
 21
12.0441082048
 31
0.0
 11
-4.3308930482
 21
12.0162169723
 31
0.0
 11
-4.2707880058
 21
11.9720401823
 31
0.0
 11
-4.2233706675
 21
11.9146279921
 31
0.0
  0
LINE
  5
63C
100
AcDbEntity
  8
RACCORDO
100
AcDbLine
 62
253
  6
CONTINUOUS
 10
-4.7178709859
 20
11.7466126072
 11
-4.7253581044
 21
11.9146299419
  0
SPLINE
  5
63D
100
AcDbEntity
  8
RACCORDO
100
AcDbSpline
 62
253
  6
CONTINUOUS
 70
0
 71
3
 72
15
 73
11
 74
9
 42
0.0000001
 43
0.0000001
 44
0.0000000001
 12
-0.3320980382
 22
0.4581977871
 32
0.0
 13
-0.3320980294
 23
-0.4581977935
 33
0.0
 40
0.0
 40
0.0
 40
0.0
 40
0.0
 40
0.1247349824
 40
0.2496780774
 40
0.3747912712
 40
0.5000000002
 40
0.6252087289
 40
0.7503219227
 40
0.8752650177
 40
1.0
 40
1.0
 40
1.0
 40
1.0
 10
-4.2308590018
 20
11.7466125863
 30
0.0
 10
-4.2446670828
 20
11.765663684
 30
0.0
 10
-4.2769770472
 20
11.8006446813
 30
0.0
 10
-4.3363155714
 20
11.8402228589
 30
0.0
 10
-4.4033669427
 20
11.8649068404
 30
0.0
 10
-4.474364952
 20
11.8732848524
 30
0.0
 10
-4.5453629611
 20
11.8649068381
 30
0.0
 10
-4.6124143315
 20
11.8402228545
 30
0.0
 10
-4.6717528546
 20
11.800644675
 30
0.0
 10
-4.7040628175
 20
11.7656636764
 30
0.0
 10
-4.7178708981
 20
11.7466125786
 30
0.0
 11
-4.2308590018
 21
11.7466125863
 31
0.0
 11
-4.278752137
 21
11.7984654011
 31
0.0
 11
-4.3375592712
 21
11.8377187768
 31
0.0
 11
-4.4039991567
 21
11.8621824047
 31
0.0
 11
-4.474364952
 21
11.8704914709
 31
0.0
 11
-4.544730747
 21
11.8621824024
 31
0.0
 11
-4.6111706317
 21
11.8377187723
 31
0.0
 11
-4.6699777647
 21
11.7984653948
 31
0.0
 11
-4.7178708981
 21
11.7466125786
 31
0.0
  0
LINE
  5
63E
100
AcDbEntity
  8
RACCORDO
100
AcDbLine
 62
253
  6
CONTINUOUS
 10
-4.2308589268
 20
-1.7533873917
 11
-4.2233705852
 21
-1.5853719403
  0
SPLINE
  5
63F
100
AcDbEntity
  8
RACCORDO
100
AcDbSpline
 62
253
  6
CONTINUOUS
 70
0
 71
3
 72
15
 73
11
 74
9
 42
0.0000001
 43
0.0000001
 44
0.0000000001
 12
0.3214892324
 22
0.5031374492
 32
0.0
 13
0.3214921235
 23
-0.5031356019
 33
0.0
 40
0.0
 40
0.0
 40
0.0
 40
0.0
 40
0.1247104312
 40
0.249641424
 40
0.3747644403
 40
0.5000000733
 40
0.6252357095
 40
0.7503587073
 40
0.8752897011
 40
1.0
 40
1.0
 40
1.0
 40
1.0
 10
-4.725358025
 20
-1.5853700977
 30
0.0
 10
-4.7119936714
 20
-1.5644546016
 30
0.0
 10
-4.6800184322
 20
-1.5256660498
 30
0.0
 10
-4.6193454612
 20
-1.4810184258
 30
0.0
 10
-4.549317708
 20
-1.4527861758
 30
0.0
 10
-4.4743637687
 20
-1.4431298969
 30
0.0
 10
-4.3994098926
 20
-1.4527867571
 30
0.0
 10
-4.3293824139
 20
-1.4810196039
 30
0.0
 10
-4.2687096742
 20
-1.5256676007
 30
0.0
 10
-4.2367351271
 20
-1.5644566108
 30
0.0
 10
-4.2233706675
 20
-1.5853720079
 30
0.0
 11
-4.725358025
 21
-1.5853700977
 31
0.0
 11
-4.6779402148
 21
-1.5279581948
 31
0.0
 11
-4.6178348196
 21
-1.4837818858
 31
0.0
 11
-4.5485280166
 21
-1.4558912101
 31
0.0
 11
-4.4743637793
 21
-1.4463497186
 31
0.0
 11
-4.4001996152
 21
-1.4558917952
 31
0.0
 11
-4.3308930482
 21
-1.4837830277
 31
0.0
 11
-4.2707880058
 21
-1.5279598177
 31
0.0
 11
-4.2233706675
 21
-1.5853720079
 31
0.0
  0
LINE
  5
640
100
AcDbEntity
  8
RACCORDO
100
AcDbLine
 62
253
  6
CONTINUOUS
 10
-4.7178709859
 20
-1.7533873928
 11
-4.7253581044
 21
-1.5853700581
  0
SPLINE
  5
641
100
AcDbEntity
  8
RACCORDO
100
AcDbSpline
 62
253
  6
CONTINUOUS
 70
0
 71
3
 72
15
 73
11
 74
9
 42
0.0000001
 43
0.0000001
 44
0.0000000001
 12
-0.3320980382
 22
0.4581977871
 32
0.0
 13
-0.3320980294
 23
-0.4581977935
 33
0.0
 40
0.0
 40
0.0
 40
0.0
 40
0.0
 40
0.1247349824
 40
0.2496780774
 40
0.3747912712
 40
0.5000000002
 40
0.6252087289
 40
0.7503219227
 40
0.8752650177
 40
1.0
 40
1.0
 40
1.0
 40
1.0
 10
-4.2308590018
 20
-1.7533874137
 30
0.0
 10
-4.2446670828
 20
-1.734336316
 30
0.0
 10
-4.2769770472
 20
-1.6993553187
 30
0.0
 10
-4.3363155714
 20
-1.6597771411
 30
0.0
 10
-4.4033669427
 20
-1.6350931596
 30
0.0
 10
-4.474364952
 20
-1.6267151476
 30
0.0
 10
-4.5453629611
 20
-1.6350931619
 30
0.0
 10
-4.6124143315
 20
-1.6597771455
 30
0.0
 10
-4.6717528546
 20
-1.699355325
 30
0.0
 10
-4.7040628175
 20
-1.7343363236
 30
0.0
 10
-4.7178708981
 20
-1.7533874214
 30
0.0
 11
-4.2308590018
 21
-1.7533874137
 31
0.0
 11
-4.278752137
 21
-1.7015345989
 31
0.0
 11
-4.3375592712
 21
-1.6622812232
 31
0.0
 11
-4.4039991567
 21
-1.6378175953
 31
0.0
 11
-4.474364952
 21
-1.6295085291
 31
0.0
 11
-4.544730747
 21
-1.6378175976
 31
0.0
 11
-4.6111706317
 21
-1.6622812277
 31
0.0
 11
-4.6699777647
 21
-1.7015346052
 31
0.0
 11
-4.7178708981
 21
-1.7533874214
 31
0.0
  0
LINE
  5
642
100
AcDbEntity
  8
RACCORDO
100
AcDbLine
 62
253
  6
CONTINUOUS
 10
6.769863641
 20
-12.4371509647
 11
6.7773973187
 21
-12.2681318531
  0
SPLINE
  5
643
100
AcDbEntity
  8
RACCORDO
100
AcDbSpline
 62
253
  6
CONTINUOUS
 70
0
 71
3
 72
15
 73
11
 74
9
 42
0.0000001
 43
0.0000001
 44
0.0000000001
 12
0.3206190124
 22
0.5071260462
 32
0.0
 13
0.3206219805
 23
-0.5071241697
 33
0.0
 40
0.0
 40
0.0
 40
0.0
 40
0.0
 40
0.1247047792
 40
0.2496340554
 40
0.3747594436
 40
0.5000000749
 40
0.6252407097
 40
0.7503660789
 40
0.8752953559
 40
1.0
 40
1.0
 40
1.0
 40
1.0
 10
6.2738741672
 20
-12.2681300234
 30
0.0
 10
6.2872017416
 20
-12.2470496762
 30
0.0
 10
6.3191662191
 20
-12.2079319984
 30
0.0
 10
6.3799941426
 20
-12.1628682994
 30
0.0
 10
6.4503137487
 20
-12.1343546859
 30
0.0
 10
6.5256362503
 20
-12.1245988686
 30
0.0
 10
6.6009586869
 20
-12.1343552801
 30
0.0
 10
6.671278011
 20
-12.1628695031
 30
0.0
 10
6.7321056968
 20
-12.2079335825
 30
0.0
 10
6.7640694655
 20
-12.2470517246
 30
0.0
 10
6.7773971488
 20
-12.268131971
 30
0.0
 11
6.2738741672
 21
-12.2681300234
 31
0.0
 11
6.3212721548
 21
-12.21023807
 31
0.0
 11
6.3815264154
 21
-12.1656550549
 31
0.0
 11
6.4511153632
 21
-12.1374903229
 31
0.0
 11
6.5256362394
 21
-12.1278519046
 31
0.0
 11
6.6001570403
 21
-12.137490921
 31
0.0
 11
6.6697457458
 21
-12.1656562215
 31
0.0
 11
6.7299996442
 21
-12.2102397269
 31
0.0
 11
6.7773971488
 21
-12.268131971
 31
0.0
  0
LINE
  5
644
100
AcDbEntity
  8
RACCORDO
100
AcDbLine
 62
253
  6
CONTINUOUS
 10
6.2814064471
 20
-12.4371509645
 11
6.2738740019
 21
-12.2681299354
  0
SPLINE
  5
645
100
AcDbEntity
  8
RACCORDO
100
AcDbSpline
 62
253
  6
CONTINUOUS
 70
0
 71
3
 72
15
 73
11
 74
9
 42
0.0000001
 43
0.0000001
 44
0.0000000001
 12
-0.3316383468
 22
0.4615392968
 32
0.0
 13
-0.3316383437
 23
-0.461539299
 33
0.0
 40
0.0
 40
0.0
 40
0.0
 40
0.0
 40
0.1247302237
 40
0.2496721031
 40
0.3747873233
 40
0.5000000001
 40
0.6252126767
 40
0.7503278968
 40
0.8752697762
 40
1.0
 40
1.0
 40
1.0
 40
1.0
 10
6.7698636177
 20
-12.4371509843
 30
0.0
 10
6.7560751759
 20
-12.4179616844
 30
0.0
 10
6.7237493764
 20
-12.3827113583
 30
0.0
 10
6.6642517852
 20
-12.3428090037
 30
0.0
 10
6.5969425344
 20
-12.3179144017
 30
0.0
 10
6.5256350454
 20
-12.309463575
 30
0.0
 10
6.4543275565
 20
-12.3179144025
 30
0.0
 10
6.3870183061
 20
-12.3428090051
 30
0.0
 10
6.3275207152
 20
-12.3827113604
 30
0.0
 10
6.2951949164
 20
-12.417961687
 30
0.0
 10
6.2814064747
 20
-12.437150987
 30
0.0
 11
6.7698636177
 21
-12.4371509843
 31
0.0
 11
6.7219524482
 21
-12.3849047113
 31
0.0
 11
6.6629925431
 21
-12.3453326034
 31
0.0
 11
6.5963023344
 21
-12.3206619984
 31
0.0
 11
6.5256350454
 21
-12.3122812484
 31
0.0
 11
6.4549677566
 21
-12.3206619992
 31
0.0
 11
6.3882775482
 21
-12.3453326048
 31
0.0
 11
6.3293176436
 21
-12.3849047133
 31
0.0
 11
6.2814064747
 21
-12.437150987
 31
0.0
  0
LINE
  5
646
100
AcDbEntity
  8
RACCORDO
100
AcDbLine
 62
7
  6
CONTINUOUS
 10
-8.6868763376
 20
20.856057161
 11
-8.272725862
 21
19.8562094658
  0
SPLINE
  5
647
100
AcDbEntity
  8
RACCORDO
100
AcDbSpline
 62
253
  6
CONTINUOUS
 70
0
 71
3
 72
13
 73
9
 74
7
 42
0.0000001
 43
0.0000001
 44
0.0000000001
 12
-0.9954050691
 22
-0.6587530571
 32
0.0
 13
-0.7131643042
 23
-0.9571747579
 33
0.0
 40
0.0
 40
0.0
 40
0.0
 40
0.0
 40
0.2726468871
 40
0.535364985
 40
0.6609037866
 40
0.7813169229
 40
0.8951655473
 40
1.0
 40
1.0
 40
1.0
 40
1.0
 10
-8.7576539851
 20
16.5493258857
 30
0.0
 10
-8.8481186829
 20
16.4894568956
 30
0.0
 10
-9.0191593813
 20
16.3616275896
 30
0.0
 10
-9.2123995582
 20
16.1826533977
 30
0.0
 10
-9.3510479653
 20
16.0351435662
 30
0.0
 10
-9.4447528716
 20
15.9268640691
 30
0.0
 10
-9.5293594264
 20
15.8217384772
 30
0.0
 10
-9.581963418
 20
15.7524202123
 30
0.0
 10
-9.6068848145
 20
15.718971915
 30
0.0
 11
-8.7576539851
 21
16.5493258857
 31
0.0
 11
-9.0185690756
 21
16.3548092198
 31
0.0
 11
-9.2489861587
 21
16.1420936961
 31
0.0
 11
-9.3516675062
 21
16.0329553974
 31
0.0
 11
-9.445786029
 21
15.9243269073
 31
0.0
 11
-9.531077625
 21
15.8185312008
 31
0.0
 11
-9.6068848145
 21
15.718971915
 31
0.0
  0
LINE
  5
648
100
AcDbEntity
  8
RACCORDO
100
AcDbLine
 62
253
  6
CONTINUOUS
 10
-9.7575039596
 20
18.9571285877
 11
-8.7576562644
 21
18.9572506677
  0
SPLINE
  5
649
100
AcDbEntity
  8
RACCORDO
100
AcDbSpline
 62
253
  6
CONTINUOUS
 70
0
 71
3
 72
11
 73
7
 74
5
 42
0.0000001
 43
0.0000001
 44
0.0000000001
 12
-0.2900407821
 22
-0.3892813761
 32
0.0
 13
-0.0093147396
 23
-0.485362628
 33
0.0
 40
0.0
 40
0.0
 40
0.0
 40
0.0
 40
0.2573020621
 40
0.5082787691
 40
0.7552410902
 40
1.0
 40
1.0
 40
1.0
 40
1.0
 10
-9.6068848145
 20
15.718971915
 30
0.0
 10
-9.631760845
 20
15.6855842814
 30
0.0
 10
-9.6750559587
 20
15.6150806116
 30
0.0
 10
-9.7213485875
 20
15.5014675355
 30
0.0
 10
-9.7495079265
 20
15.3841969556
 30
0.0
 10
-9.7567440044
 20
15.3046361719
 30
0.0
 10
-9.7575039596
 20
15.2650372293
 30
0.0
 11
-9.6068848145
 21
15.718971915
 31
0.0
 11
-9.6724837216
 21
15.6126763737
 31
0.0
 11
-9.7186370488
 21
15.4999192889
 31
0.0
 11
-9.7467139785
 21
15.383364996
 31
0.0
 11
-9.7575039596
 21
15.2650372293
 31
0.0
  0
SPLINE
  5
64A
100
AcDbEntity
  8
RACCORDO
100
AcDbSpline
 62
253
  6
CONTINUOUS
 70
0
 71
3
 72
13
 73
9
 74
7
 42
0.0000001
 43
0.0000001
 44
0.0000000001
 12
-0.9954050683
 22
-0.6587530566
 32
0.0
 13
-0.7131643035
 23
-0.9571747572
 33
0.0
 40
0.0
 40
0.0
 40
0.0
 40
0.0
 40
0.2726468871
 40
0.5353649851
 40
0.6609037867
 40
0.781316923
 40
0.8951655475
 40
1.0
 40
1.0
 40
1.0
 40
1.0
 10
-8.7576539851
 20
3.0493258857
 30
0.0
 10
-8.8481186828
 20
2.9894568956
 30
0.0
 10
-9.0191593811
 20
2.8616275897
 30
0.0
 10
-9.212399558
 20
2.682653398
 30
0.0
 10
-9.351047965
 20
2.5351435665
 30
0.0
 10
-9.4447528713
 20
2.4268640696
 30
0.0
 10
-9.5293594258
 20
2.3217384776
 30
0.0
 10
-9.5819634179
 20
2.2524202132
 30
0.0
 10
-9.6068848143
 20
2.218971916
 30
0.0
 11
-8.7576539851
 21
3.0493258857
 31
0.0
 11
-9.0185690754
 21
2.8548092199
 31
0.0
 11
-9.2489861584
 21
2.6420936964
 31
0.0
 11
-9.3516675059
 21
2.5329553977
 31
0.0
 11
-9.4457860286
 21
2.4243269077
 31
0.0
 11
-9.5310776246
 21
2.3185312012
 31
0.0
 11
-9.6068848143
 21
2.218971916
 31
0.0
  0
SPLINE
  5
64B
100
AcDbEntity
  8
RACCORDO
100
AcDbSpline
 62
253
  6
CONTINUOUS
 70
0
 71
3
 72
13
 73
9
 74
7
 42
0.0000001
 43
0.0000001
 44
0.0000000001
 12
-0.9954032305
 22
0.6587568199
 32
0.0
 13
-0.7131645764
 23
0.9571752327
 33
0.0
 40
0.0
 40
0.0
 40
0.0
 40
0.0
 40
0.2726468758
 40
0.5353650217
 40
0.6609037804
 40
0.7813169866
 40
0.8951656045
 40
1.0
 40
1.0
 40
1.0
 40
1.0
 10
-8.7576536713
 20
10.5254505788
 30
0.0
 10
-8.8481181983
 20
10.5853199084
 30
0.0
 10
-9.0191593046
 20
10.7131488017
 30
0.0
 10
-9.212399475
 20
10.8921232195
 30
0.0
 10
-9.3510479962
 20
11.0396331047
 30
0.0
 10
-9.4447529263
 20
11.1479126792
 30
0.0
 10
-9.5293595496
 20
11.2530382985
 30
0.0
 10
-9.5819634765
 20
11.3223566308
 30
0.0
 10
-9.6068848689
 20
11.3558049265
 30
0.0
 11
-8.7576536713
 21
10.5254505788
 31
0.0
 11
-9.0185688841
 21
10.719967306
 31
0.0
 11
-9.2489861338
 21
10.9326829441
 31
0.0
 11
-9.3516674994
 21
11.0418212492
 31
0.0
 11
-9.4457861123
 21
11.1504498581
 31
0.0
 11
-9.5310777374
 21
11.2562456108
 31
0.0
 11
-9.6068848689
 21
11.3558049265
 31
0.0
  0
SPLINE
  5
64C
100
AcDbEntity
  8
RACCORDO
100
AcDbSpline
 62
253
  6
CONTINUOUS
 70
0
 71
3
 72
11
 73
7
 74
5
 42
0.0000001
 43
0.0000001
 44
0.0000000001
 12
-0.2900405081
 22
0.3892810218
 32
0.0
 13
-0.0093147361
 23
0.4853621802
 33
0.0
 40
0.0
 40
0.0
 40
0.0
 40
0.0
 40
0.2573022098
 40
0.5082788332
 40
0.7552410578
 40
1.0
 40
1.0
 40
1.0
 40
1.0
 10
-9.6068848689
 20
11.3558049265
 30
0.0
 10
-9.6317608901
 20
11.3891925489
 30
0.0
 10
-9.6750559105
 20
11.4596961952
 30
0.0
 10
-9.7213486061
 20
11.5733091097
 30
0.0
 10
-9.7495079425
 20
11.6905795578
 30
0.0
 10
-9.7567440046
 20
11.770140258
 30
0.0
 10
-9.7575039596
 20
11.8097391692
 30
0.0
 11
-9.6068848689
 21
11.3558049265
 31
0.0
 11
-9.6724837258
 21
11.4621004476
 31
0.0
 11
-9.7186370584
 21
11.5748573649
 31
0.0
 11
-9.7467139872
 21
11.691411496
 31
0.0
 11
-9.7575039596
 21
11.8097391692
 31
0.0
  0
SPLINE
  5
64D
100
AcDbEntity
  8
RACCORDO
100
AcDbSpline
 62
253
  6
CONTINUOUS
 70
0
 71
3
 72
11
 73
7
 74
5
 42
0.0000001
 43
0.0000001
 44
0.0000000001
 12
-0.2900408228
 22
-0.3892813663
 32
0.0
 13
-0.009314741
 23
-0.4853626445
 33
0.0
 40
0.0
 40
0.0
 40
0.0
 40
0.0
 40
0.2573020424
 40
0.5082787365
 40
0.7552410647
 40
1.0
 40
1.0
 40
1.0
 40
1.0
 10
-9.6068848143
 20
2.218971916
 30
0.0
 10
-9.6317608464
 20
2.1855842858
 30
0.0
 10
-9.6750559642
 20
2.1150806211
 30
0.0
 10
-9.7213485939
 20
2.0014675449
 30
0.0
 10
-9.7495079288
 20
1.8841969563
 30
0.0
 10
-9.7567440042
 20
1.8046361646
 30
0.0
 10
-9.7575039596
 20
1.7650372166
 30
0.0
 11
-9.6068848143
 21
2.218971916
 31
0.0
 11
-9.6724837255
 21
2.1126763834
 31
0.0
 11
-9.718637053
 21
1.999919301
 31
0.0
 11
-9.7467139802
 21
1.8833649999
 31
0.0
 11
-9.7575039596
 21
1.7650372166
 31
0.0
  0
SPLINE
  5
64E
100
AcDbEntity
  8
RACCORDO
100
AcDbSpline
 62
253
  6
CONTINUOUS
 70
0
 71
3
 72
15
 73
11
 74
9
 42
0.0000001
 43
0.0000001
 44
0.0000000001
 12
-0.6474941417
 22
-0.9971360268
 32
0.0
 13
-0.6475077548
 23
0.997127187
 33
0.0
 40
0.0
 40
0.0
 40
0.0
 40
0.0
 40
0.1250045598
 40
0.2500059306
 40
0.3750038814
 40
0.5000000667
 40
0.6249962573
 40
0.7499942062
 40
0.8749956066
 40
1.0
 40
1.0
 40
1.0
 40
1.0
 10
-3.9723778271
 20
1.4971619034
 30
0.0
 10
-3.9993577338
 20
1.4556130534
 30
0.0
 10
-4.0638571465
 20
1.3788407144
 30
0.0
 10
-4.185646925
 20
1.2911352697
 30
0.0
 10
-4.3253711729
 20
1.2360779365
 30
0.0
 10
-4.4743650634
 20
1.217327672
 30
0.0
 10
-4.6233589927
 20
1.2360778899
 30
0.0
 10
-4.7630831524
 20
1.2911353176
 30
0.0
 10
-4.8848731834
 20
1.3788405817
 30
0.0
 10
-4.9493716468
 20
1.4556134787
 30
0.0
 10
-4.9763520848
 20
1.4971619051
 30
0.0
 11
-3.9723778271
 21
1.4971619034
 31
0.0
 11
-4.0680317904
 21
1.383415167
 31
0.0
 11
-4.1886376768
 21
1.2965756946
 31
0.0
 11
-4.3269171183
 21
1.2421288282
 31
0.0
 11
-4.4743650679
 21
1.223577723
 31
0.0
 11
-4.6218130267
 21
1.2421288051
 31
0.0
 11
-4.7600924556
 21
1.2965756975
 31
0.0
 11
-4.8806983208
 21
1.3834152595
 31
0.0
 11
-4.9763520848
 21
1.4971619051
 31
0.0
  0
SPLINE
  5
64F
100
AcDbEntity
  8
RACCORDO
100
AcDbSpline
 62
253
  6
CONTINUOUS
 70
0
 71
3
 72
15
 73
11
 74
9
 42
0.0000001
 43
0.0000001
 44
0.0000000001
 12
0.6474941418
 22
0.9971360268
 32
0.0
 13
0.6475077548
 23
-0.997127187
 33
0.0
 40
0.0
 40
0.0
 40
0.0
 40
0.0
 40
0.1250045598
 40
0.2500059306
 40
0.3750038814
 40
0.5000000667
 40
0.6249962573
 40
0.7499942062
 40
0.8749956066
 40
1.0
 40
1.0
 40
1.0
 40
1.0
 10
-4.9763520849
 20
-1.4223852252
 30
0.0
 10
-4.9493721782
 20
-1.3808363752
 30
0.0
 10
-4.8848727654
 20
-1.3040640362
 30
0.0
 10
-4.7630829869
 20
-1.2163585915
 30
0.0
 10
-4.623358739
 20
-1.1613012582
 30
0.0
 10
-4.4743648485
 20
-1.1425509937
 30
0.0
 10
-4.3253709192
 20
-1.1613012117
 30
0.0
 10
-4.1856467596
 20
-1.2163586394
 30
0.0
 10
-4.0638567285
 20
-1.3040639035
 30
0.0
 10
-3.9993582651
 20
-1.3808368005
 30
0.0
 10
-3.9723778271
 20
-1.4223852269
 30
0.0
 11
-4.9763520849
 21
-1.4223852252
 31
0.0
 11
-4.8806981215
 21
-1.3086384888
 31
0.0
 11
-4.7600922352
 21
-1.2217990164
 31
0.0
 11
-4.6218127936
 21
-1.16735215
 31
0.0
 11
-4.474364844
 21
-1.1488010448
 31
0.0
 11
-4.3269168852
 21
-1.1673521269
 31
0.0
 11
-4.1886374563
 21
-1.2217990193
 31
0.0
 11
-4.0680315911
 21
-1.3086385813
 31
0.0
 11
-3.9723778271
 21
-1.4223852269
 31
0.0
  0
SPLINE
  5
650
100
AcDbEntity
  8
RACCORDO
100
AcDbSpline
 62
253
  6
CONTINUOUS
 70
0
 71
3
 72
15
 73
11
 74
9
 42
0.0000001
 43
0.0000001
 44
0.0000000001
 12
-0.6474941417
 22
-0.9971360268
 32
0.0
 13
-0.6475077548
 23
0.997127187
 33
0.0
 40
0.0
 40
0.0
 40
0.0
 40
0.0
 40
0.1250045598
 40
0.2500059306
 40
0.3750038814
 40
0.5000000667
 40
0.6249962573
 40
0.7499942062
 40
0.8749956066
 40
1.0
 40
1.0
 40
1.0
 40
1.0
 10
-3.9723778271
 20
14.9971619034
 30
0.0
 10
-3.9993577338
 20
14.9556130534
 30
0.0
 10
-4.0638571465
 20
14.8788407144
 30
0.0
 10
-4.185646925
 20
14.7911352697
 30
0.0
 10
-4.3253711729
 20
14.7360779365
 30
0.0
 10
-4.4743650634
 20
14.717327672
 30
0.0
 10
-4.6233589927
 20
14.7360778899
 30
0.0
 10
-4.7630831524
 20
14.7911353176
 30
0.0
 10
-4.8848731834
 20
14.8788405817
 30
0.0
 10
-4.9493716468
 20
14.9556134787
 30
0.0
 10
-4.9763520848
 20
14.9971619051
 30
0.0
 11
-3.9723778271
 21
14.9971619034
 31
0.0
 11
-4.0680317904
 21
14.883415167
 31
0.0
 11
-4.1886376768
 21
14.7965756946
 31
0.0
 11
-4.3269171183
 21
14.7421288282
 31
0.0
 11
-4.4743650679
 21
14.723577723
 31
0.0
 11
-4.6218130267
 21
14.7421288051
 31
0.0
 11
-4.7600924556
 21
14.7965756975
 31
0.0
 11
-4.8806983208
 21
14.8834152595
 31
0.0
 11
-4.9763520848
 21
14.9971619051
 31
0.0
  0
SPLINE
  5
651
100
AcDbEntity
  8
RACCORDO
100
AcDbSpline
 62
253
  6
CONTINUOUS
 70
0
 71
3
 72
15
 73
11
 74
9
 42
0.0000001
 43
0.0000001
 44
0.0000000001
 12
0.6474941418
 22
0.9971360268
 32
0.0
 13
0.6475077548
 23
-0.997127187
 33
0.0
 40
0.0
 40
0.0
 40
0.0
 40
0.0
 40
0.1250045598
 40
0.2500059306
 40
0.3750038814
 40
0.5000000667
 40
0.6249962573
 40
0.7499942062
 40
0.8749956066
 40
1.0
 40
1.0
 40
1.0
 40
1.0
 10
-4.9763520849
 20
12.0776147748
 30
0.0
 10
-4.9493721782
 20
12.1191636248
 30
0.0
 10
-4.8848727654
 20
12.1959359638
 30
0.0
 10
-4.7630829869
 20
12.2836414085
 30
0.0
 10
-4.623358739
 20
12.3386987418
 30
0.0
 10
-4.4743648485
 20
12.3574490063
 30
0.0
 10
-4.3253709192
 20
12.3386987883
 30
0.0
 10
-4.1856467596
 20
12.2836413606
 30
0.0
 10
-4.0638567285
 20
12.1959360965
 30
0.0
 10
-3.9993582651
 20
12.1191631995
 30
0.0
 10
-3.9723778271
 20
12.0776147731
 30
0.0
 11
-4.9763520849
 21
12.0776147748
 31
0.0
 11
-4.8806981215
 21
12.1913615112
 31
0.0
 11
-4.7600922352
 21
12.2782009836
 31
0.0
 11
-4.6218127936
 21
12.33264785
 31
0.0
 11
-4.474364844
 21
12.3511989552
 31
0.0
 11
-4.3269168852
 21
12.3326478731
 31
0.0
 11
-4.1886374563
 21
12.2782009807
 31
0.0
 11
-4.0680315911
 21
12.1913614187
 31
0.0
 11
-3.9723778271
 21
12.0776147731
 31
0.0
  0
SPLINE
  5
652
100
AcDbEntity
  8
RACCORDO
100
AcDbSpline
 62
253
  6
CONTINUOUS
 70
0
 71
3
 72
15
 73
11
 74
9
 42
0.0000001
 43
0.0000001
 44
0.0000000001
 12
0.6458296101
 22
1.0049438117
 32
0.0
 13
0.6458435425
 23
-1.0049348579
 33
0.0
 40
0.0
 40
0.0
 40
0.0
 40
0.0
 40
0.1250047062
 40
0.2500061206
 40
0.3750040077
 40
0.5000000681
 40
0.6249961338
 40
0.749994019
 40
0.8749954636
 40
1.0
 40
1.0
 40
1.0
 40
1.0
 10
6.022112247
 20
-12.1063337047
 30
0.0
 10
6.0490228272
 20
-12.0644594694
 30
0.0
 10
6.1135137125
 20
-11.987043706
 30
0.0
 10
6.2356276189
 20
-11.8985438043
 30
0.0
 10
6.3759289385
 20
-11.8429615949
 30
0.0
 10
6.5256351544
 20
-11.824028239
 30
0.0
 10
6.67534141
 20
-11.842961549
 30
0.0
 10
6.8156426387
 20
-11.8985438555
 30
0.0
 10
6.9377568027
 20
-11.9870435755
 30
0.0
 10
7.0022467168
 20
-12.064459903
 30
0.0
 10
7.029157841
 20
-12.1063337083
 30
0.0
 11
6.022112247
 21
-12.1063337047
 31
0.0
 11
6.1177445502
 21
-11.9916465617
 31
0.0
 11
6.2386605868
 21
-11.9040291212
 31
0.0
 11
6.3774974649
 21
-11.8490694383
 31
0.0
 11
6.525635159
 21
-11.8303393193
 31
0.0
 11
6.6737728624
 21
-11.8490694162
 31
0.0
 11
6.8126097271
 21
-11.9040291268
 31
0.0
 11
6.9335257413
 21
-11.9916466597
 31
0.0
 11
7.029157841
 21
-12.1063337083
 31
0.0
  0
SPLINE
  5
653
100
AcDbEntity
  8
RACCORDO
100
AcDbSpline
 62
253
  6
CONTINUOUS
 70
0
 71
3
 72
15
 73
11
 74
9
 42
0.0000001
 43
0.0000001
 44
0.0000000001
 12
-0.6458296093
 22
-1.0049438096
 32
0.0
 13
-0.6458435418
 23
1.0049348557
 33
0.0
 40
0.0
 40
0.0
 40
0.0
 40
0.0
 40
0.1250047059
 40
0.2500061203
 40
0.3750040076
 40
0.5000000681
 40
0.6249961339
 40
0.7499940193
 40
0.8749954639
 40
1.0
 40
1.0
 40
1.0
 40
1.0
 10
7.0291578368
 20
-9.2188896347
 30
0.0
 10
7.0022472567
 20
-9.2607638698
 30
0.0
 10
6.9377563779
 20
-9.3381796383
 30
0.0
 10
6.8156424686
 20
-9.426679537
 30
0.0
 10
6.6753411496
 20
-9.4822617462
 30
0.0
 10
6.5256349337
 20
-9.5011951016
 30
0.0
 10
6.3759286781
 20
-9.4822617922
 30
0.0
 10
6.2356274499
 20
-9.426679486
 30
0.0
 10
6.113513283
 20
-9.3381797691
 30
0.0
 10
6.0490233755
 20
-9.2607634364
 30
0.0
 10
6.0221122514
 20
-9.2188896313
 30
0.0
 11
7.0291578368
 21
-9.2188896347
 31
0.0
 11
6.9335255382
 21
-9.3335767808
 31
0.0
 11
6.8126095012
 21
-9.4211942206
 31
0.0
 11
6.6737726231
 21
-9.4761539027
 31
0.0
 11
6.5256349291
 21
-9.4948840215
 31
0.0
 11
6.3774972258
 21
-9.4761539249
 31
0.0
 11
6.238660361
 21
-9.4211942152
 31
0.0
 11
6.1177443464
 21
-9.333576683
 31
0.0
 11
6.0221122514
 21
-9.2188896313
 31
0.0
  0
LINE
  5
654
100
AcDbEntity
  8
RACCORDO
100
AcDbLine
 62
7
  6
CONTINUOUS
 10
10.7381464257
 20
-17.9812804825
 11
10.32399595
 21
-16.9814327874
  0
SPLINE
  5
655
100
AcDbEntity
  8
RACCORDO
100
AcDbSpline
 62
253
  6
CONTINUOUS
 70
0
 71
3
 72
13
 73
9
 74
7
 42
0.0000001
 43
0.0000001
 44
0.0000000001
 12
-0.7129688422
 22
-0.9651650076
 32
0.0
 13
-0.9995166286
 23
-0.6639537417
 33
0.0
 40
0.0
 40
0.0
 40
0.0
 40
0.0
 40
0.1047883449
 40
0.2186326035
 40
0.3390503279
 40
0.4645936258
 40
0.7273221541
 40
1.0
 40
1.0
 40
1.0
 40
1.0
 10
11.6599825677
 20
-12.8259994713
 30
0.0
 10
11.6350789594
 20
-12.8597121526
 30
0.0
 10
11.5824967027
 20
-12.9295973212
 30
0.0
 10
11.4978727765
 20
-13.0355987422
 30
0.0
 10
11.4040766404
 20
-13.1448007527
 30
0.0
 10
11.2652007559
 20
-13.2935733166
 30
0.0
 10
11.0714557211
 20
-13.4740827247
 30
0.0
 10
10.8997724249
 20
-13.6029754251
 30
0.0
 10
10.8089237445
 20
-13.6633239171
 30
0.0
 11
11.6599825677
 21
-12.8259994713
 31
0.0
 11
11.584218364
 21
-12.9263508375
 31
0.0
 11
11.4988996375
 21
-13.0330379822
 31
0.0
 11
11.4046864112
 21
-13.1425942309
 31
0.0
 11
11.3018364051
 21
-13.2526660668
 31
0.0
 11
11.0708231172
 21
-13.4671925132
 31
0.0
 11
10.8089237445
 21
-13.6633239171
 31
0.0
  0
SPLINE
  5
656
100
AcDbEntity
  8
RACCORDO
100
AcDbSpline
 62
253
  6
CONTINUOUS
 70
0
 71
3
 72
11
 73
7
 74
5
 42
0.0000001
 43
0.0000001
 44
0.0000000001
 12
-0.0092561062
 22
-0.482073414
 32
0.0
 13
-0.2864836871
 23
-0.3878241212
 33
0.0
 40
0.0
 40
0.0
 40
0.0
 40
0.0
 40
0.24481442
 40
0.4918115712
 40
0.7427809783
 40
1.0
 40
1.0
 40
1.0
 40
1.0
 10
11.8087740477
 20
-12.3747766083
 30
0.0
 10
11.8080187049
 20
-12.4141161161
 30
0.0
 10
11.8008609923
 20
-12.4931515292
 30
0.0
 10
11.7730312711
 20
-12.6096692971
 30
0.0
 10
11.7273009161
 20
-12.7225971813
 30
0.0
 10
11.6845455856
 20
-12.7927475576
 30
0.0
 10
11.6599825677
 20
-12.8259994713
 30
0.0
 11
11.8087740477
 21
-12.3747766083
 31
0.0
 11
11.7981004714
 21
-12.4923333243
 31
0.0
 11
11.7703514854
 21
-12.6081481183
 31
0.0
 11
11.7247571055
 21
-12.7202377402
 31
0.0
 11
11.6599825677
 21
-12.8259994713
 31
0.0
  0
SPLINE
  5
657
100
AcDbEntity
  8
RACCORDO
100
AcDbSpline
 62
253
  6
CONTINUOUS
 70
0
 71
3
 72
11
 73
7
 74
5
 42
0.0000001
 43
0.0000001
 44
0.0000000001
 12
0.2864840282
 22
-0.3878239941
 32
0.0
 13
0.0092561811
 23
-0.4820735129
 33
0.0
 40
0.0
 40
0.0
 40
0.0
 40
0.0
 40
0.257218851
 40
0.5081881889
 40
0.7551853863
 40
1.0
 40
1.0
 40
1.0
 40
1.0
 10
11.6599825268
 20
-8.4992237251
 30
0.0
 10
11.6845455577
 20
-8.5324756058
 30
0.0
 10
11.7273009556
 20
-8.6026259185
 30
0.0
 10
11.7730313009
 20
-8.7155538057
 30
0.0
 10
11.8008610142
 20
-8.8320716301
 30
0.0
 10
11.8080186982
 20
-8.9111071001
 30
0.0
 10
11.8087740477
 20
-8.950446647
 30
0.0
 11
11.6599825268
 21
-8.4992237251
 31
0.0
 11
11.7247571181
 21
-8.6049853572
 31
0.0
 11
11.7703515069
 21
-8.7170749666
 31
0.0
 11
11.7981004824
 21
-8.8328898115
 31
0.0
 11
11.8087740477
 21
-8.950446647
 31
0.0
  0
SPLINE
  5
658
100
AcDbEntity
  8
RACCORDO
100
AcDbSpline
 62
253
  6
CONTINUOUS
 70
0
 71
3
 72
13
 73
9
 74
7
 42
0.0000001
 43
0.0000001
 44
0.0000000001
 12
0.9995165649
 22
-0.6639536076
 32
0.0
 13
0.7129687808
 23
-0.9651648948
 33
0.0
 40
0.0
 40
0.0
 40
0.0
 40
0.0
 40
0.2726778463
 40
0.5354063769
 40
0.6609496774
 40
0.7813674055
 40
0.895211668
 40
1.0
 40
1.0
 40
1.0
 40
1.0
 10
10.8089237468
 20
-7.661899406
 30
0.0
 10
10.8997724215
 20
-7.7222478859
 30
0.0
 10
11.071455695
 20
-7.8511405811
 30
0.0
 10
11.2652007166
 20
-8.0316499647
 30
0.0
 10
11.4040765891
 20
-8.1804225147
 30
0.0
 10
11.4978727268
 20
-8.2896245097
 30
0.0
 10
11.5824966213
 20
-8.3956259339
 30
0.0
 10
11.6350789237
 20
-8.4655110519
 30
0.0
 10
11.6599825268
 20
-8.4992237251
 30
0.0
 11
10.8089237468
 21
-7.661899406
 31
0.0
 11
11.070823093
 21
-7.8580307881
 31
0.0
 11
11.3018363616
 21
-8.0725572103
 31
0.0
 11
11.404686361
 21
-8.1826290347
 31
0.0
 11
11.4988995824
 21
-8.2921852734
 31
0.0
 11
11.5842183042
 21
-8.3988724093
 31
0.0
 11
11.6599825268
 21
-8.4992237251
 31
0.0
  0
LINE
  5
659
100
AcDbEntity
  8
RACCORDO
100
AcDbLine
 62
7
  6
CONTINUOUS
 10
10.7381464257
 20
20.856057161
 11
10.32399595
 21
19.8562094658
  0
SPLINE
  5
65A
100
AcDbEntity
  8
RACCORDO
100
AcDbSpline
 62
253
  6
CONTINUOUS
 70
0
 71
3
 72
9
 73
5
 74
3
 42
0.0000001
 43
0.0000001
 44
0.0000000001
 12
0.1662397193
 22
0.2514175294
 32
0.0
 13
0.1939461893
 23
0.2307190804
 33
0.0
 40
0.0
 40
0.0
 40
0.0
 40
0.0
 40
0.4991141572
 40
1.0
 40
1.0
 40
1.0
 40
1.0
 10
1.3092005503
 20
-8.4296859404
 30
0.0
 10
1.3368580827
 20
-8.3878572576
 30
0.0
 10
1.3941983241
 20
-8.3052986124
 30
0.0
 10
1.4563105928
 20
-8.2262297275
 30
0.0
 10
1.4886922263
 20
-8.1877084205
 30
0.0
 11
1.3092005503
 21
-8.4296859404
 31
0.0
 11
1.3952855185
 21
-8.3063142318
 31
0.0
 11
1.4886922263
 21
-8.1877084205
 31
0.0
  0
SPLINE
  5
65B
100
AcDbEntity
  8
RACCORDO
100
AcDbSpline
 62
253
  6
CONTINUOUS
 70
0
 71
3
 72
22
 73
18
 74
16
 42
0.0000001
 43
0.0000001
 44
0.0000000001
 12
-3.2726680344
 22
3.8694765156
 32
0.0
 13
2.8868356725
 23
4.1652592198
 33
0.0
 40
0.0
 40
0.0
 40
0.0
 40
0.0
 40
0.0638753908
 40
0.127107627
 40
0.1895630102
 40
0.2513867871
 40
0.3743663583
 40
0.4365925189
 40
0.4999093897
 40
0.5638737857
 40
0.6272035214
 40
0.6894406034
 40
0.7510251573
 40
0.8125123455
 40
0.8743301165
 40
0.9367769566
 40
1.0
 40
1.0
 40
1.0
 40
1.0
 10
1.5083339913
 20
-13.1555204352
 30
0.0
 10
1.4386530081
 20
-13.073132327
 30
0.0
 10
1.3078965777
 20
-12.9023286405
 30
0.0
 10
1.137208914
 20
-12.6309202943
 30
0.0
 10
0.9921205798
 20
-12.348895955
 30
0.0
 10
0.8317655283
 20
-11.9628483435
 30
0.0
 10
0.7170146949
 20
-11.5596073022
 30
0.0
 10
0.6487040237
 20
-11.1450633664
 30
0.0
 10
0.6218131734
 20
-10.8256821141
 30
0.0
 10
0.621654349
 20
-10.5033062859
 30
0.0
 10
0.6482399818
 20
-10.1838796498
 30
0.0
 10
0.6994105585
 20
-9.8715769627
 30
0.0
 10
0.7735271133
 20
-9.567129187
 30
0.0
 10
0.8703479805
 20
-9.2698638177
 30
0.0
 10
0.9905804386
 20
-8.9796614488
 30
0.0
 10
1.1353476499
 20
-8.6975723211
 30
0.0
 10
1.2483617221
 20
-8.5174660618
 30
0.0
 10
1.3091999011
 20
-8.4296859404
 30
0.0
 11
1.5083339913
 21
-13.1555204352
 31
0.0
 11
1.3113526374
 21
-12.8986401043
 31
0.0
 11
1.1405389698
 21
-12.6275086772
 31
0.0
 11
0.9955622631
 21
-12.3461484353
 31
0.0
 11
0.8752327238
 21
-12.056862042
 31
0.0
 11
0.7042807165
 21
-11.4575227785
 31
0.0
 11
0.6531049372
 21
-11.1463494353
 31
0.0
 11
0.6263482473
 21
-10.8265859015
 31
0.0
 11
0.6261891269
 21
-10.5024233391
 31
0.0
 11
0.6526460392
 21
-10.1825694423
 31
0.0
 11
0.7035475958
 21
-9.871295041
 31
0.0
 11
0.7773782721
 21
-9.568051535
 31
0.0
 11
0.8739647694
 21
-9.2717900287
 31
0.0
 11
0.9940132455
 21
-8.9824198389
 31
0.0
 11
1.1386938647
 21
-8.7009559078
 31
0.0
 11
1.3091999011
 21
-8.4296859404
 31
0.0
  0
SPLINE
  5
65C
100
AcDbEntity
  8
RACCORDO
100
AcDbSpline
 62
253
  6
CONTINUOUS
 70
0
 71
3
 72
30
 73
26
 74
24
 42
0.0000001
 43
0.0000001
 44
0.0000000001
 12
-1.0612613281
 22
-1.0608965236
 32
0.0
 13
-1.5005922299
 23
-0.000005731
 33
0.0
 40
0.0
 40
0.0
 40
0.0
 40
0.0
 40
0.0008331678
 40
0.0022057903
 40
0.004145585
 40
0.0066608469
 40
0.0097540412
 40
0.0134255684
 40
0.0224993115
 40
0.0338668215
 40
0.0475041049
 40
0.063380782
 40
0.0814604861
 40
0.1017012485
 40
0.1240560177
 40
0.1748935375
 40
0.2334967288
 40
0.2993152905
 40
0.3717307047
 40
0.4500617386
 40
0.5335713774
 40
0.6214736815
 40
0.7129410596
 40
0.8071122228
 40
1.0
 40
1.0
 40
1.0
 40
1.0
 10
1.3647438254
 20
-18.1248689643
 30
0.0
 10
1.3644490892
 20
-18.1251635992
 30
0.0
 10
1.3634165424
 20
-18.1256449898
 30
0.0
 10
1.3614468115
 20
-18.1262430232
 30
0.0
 10
1.3585854658
 20
-18.1268512182
 30
0.0
 10
1.354863316
 20
-18.1274683341
 30
0.0
 10
1.350261275
 20
-18.1280879281
 30
0.0
 10
1.3423893916
 20
-18.1289793378
 30
0.0
 10
1.3303739359
 20
-18.1300482799
 30
0.0
 10
1.3133707816
 20
-18.1312591998
 30
0.0
 10
1.2929567778
 20
-18.1324600952
 30
0.0
 10
1.2691799945
 20
-18.1336474787
 30
0.0
 10
1.24209575
 20
-18.1348161259
 30
0.0
 10
1.2117677101
 20
-18.135962732
 30
0.0
 10
1.1650587442
 20
-18.1375250995
 30
0.0
 10
1.0991601349
 20
-18.1393631018
 30
0.0
 10
1.0115183239
 20
-18.1413570322
 30
0.0
 10
0.9130778919
 20
-18.1431992001
 30
0.0
 10
0.8047653778
 20
-18.1448709165
 30
0.0
 10
0.6876003555
 20
-18.1463547548
 30
0.0
 10
0.5626860282
 20
-18.1476359034
 30
0.0
 10
0.4311987009
 20
-18.148701627
 30
0.0
 10
0.2943767689
 20
-18.1495415483
 30
0.0
 10
0.105040563
 20
-18.1503555704
 30
0.0
 10
-0.0385457507
 20
-18.1505942439
 30
0.0
 10
-0.1350277173
 20
-18.1505946123
 30
0.0
 11
1.3647438254
 21
-18.1248689643
 31
0.0
 11
1.3636668521
 21
-18.1255039773
 31
0.0
 11
1.3617072803
 21
-18.1261385121
 31
0.0
 11
1.3588662236
 21
-18.1267720664
 31
0.0
 11
1.3551451484
 21
-18.1274041759
 31
0.0
 11
1.3505465204
 21
-18.1280344844
 31
0.0
 11
1.3450729833
 21
-18.1286626546
 31
0.0
 11
1.3315143561
 21
-18.1299111598
 31
0.0
 11
1.3145011655
 21
-18.1311467232
 31
0.0
 11
1.2940735445
 21
-18.1323664191
 31
0.0
 11
1.2702794153
 21
-18.1335673855
 31
0.0
 11
1.2431747994
 21
-18.1347467907
 31
0.0
 11
1.2128236398
 21
-18.1359018571
 31
0.0
 11
1.1792972174
 21
-18.1370298639
 31
0.0
 11
1.1030415371
 21
-18.1391941395
 31
0.0
 11
1.015125364
 21
-18.1412192359
 31
0.0
 11
0.9163761863
 21
-18.1430860779
 31
0.0
 11
0.8077233364
 21
-18.1447770734
 31
0.0
 11
0.690189957
 21
-18.146276291
 31
0.0
 11
0.5648827158
 21
-18.1475695998
 31
0.0
 11
0.4329815836
 21
-18.1486448077
 31
0.0
 11
0.2957289601
 21
-18.1494917818
 31
0.0
 11
0.1544177641
 21
-18.1501025299
 31
0.0
 11
-0.1350277173
 21
-18.1505946123
 31
0.0
  0
SPLINE
  5
65D
100
AcDbEntity
  8
RACCORDO
100
AcDbSpline
 62
253
  6
CONTINUOUS
 70
0
 71
3
 72
22
 73
18
 74
16
 42
0.0000001
 43
0.0000001
 44
0.0000000001
 12
-0.1587571066
 22
-0.4763705981
 32
0.0
 13
-0.5021282362
 23
-0.0000002162
 33
0.0
 40
0.0
 40
0.0
 40
0.0
 40
0.0
 40
0.0032312476
 40
0.008259023
 40
0.0153920945
 40
0.0247200331
 40
0.0500247474
 40
0.0841114913
 40
0.126722999
 40
0.1774919993
 40
0.2359616505
 40
0.301596142
 40
0.3737884464
 40
0.4518667066
 40
0.622712426
 40
0.8077402542
 40
1.0
 40
1.0
 40
1.0
 40
1.0
 10
0.3648961303
 20
-17.1250212691
 30
0.0
 10
0.3647251358
 20
-17.1255343596
 30
0.0
 10
0.3636874465
 20
-17.1265820178
 30
0.0
 10
0.3614096732
 20
-17.1277551355
 30
0.0
 10
0.3580098814
 20
-17.1289808253
 30
0.0
 10
0.3512561943
 20
-17.1307812874
 30
0.0
 10
0.3399278413
 20
-17.1328645501
 30
0.0
 10
0.3230111888
 20
-17.1351632533
 30
0.0
 10
0.3017883867
 20
-17.1373857317
 30
0.0
 10
0.2764604663
 20
-17.1395089689
 30
0.0
 10
0.2472577668
 20
-17.1415026963
 30
0.0
 10
0.2144536075
 20
-17.1433457586
 30
0.0
 10
0.1783544817
 20
-17.1450183901
 30
0.0
 10
0.1246455809
 20
-17.1470594033
 30
0.0
 10
0.0520365095
 20
-17.1490177352
 30
0.0
 10
-0.0396985851
 20
-17.1504308387
 30
0.0
 10
-0.102848035
 20
-17.1507469033
 30
0.0
 10
-0.1350277173
 20
-17.1507469172
 30
0.0
 11
0.3648961303
 21
-17.1250212691
 31
0.0
 11
0.3638849256
 21
-17.1262901164
 31
0.0
 11
0.361699959
 21
-17.1275548162
 31
0.0
 11
0.3583463439
 21
-17.1288125759
 31
0.0
 11
0.3538318014
 21
-17.1300604097
 31
0.0
 11
0.3413648231
 21
-17.1325144402
 31
0.0
 11
0.3244151077
 21
-17.1348938825
 31
0.0
 11
0.3031407564
 21
-17.1371763538
 31
0.0
 11
0.2777402249
 21
-17.1393403853
 31
0.0
 11
0.2484508948
 21
-17.1413655905
 31
0.0
 11
0.2155469037
 21
-17.1432328607
 31
0.0
 11
0.179336604
 21
-17.1449245455
 31
0.0
 11
0.1401600139
 21
-17.1464246333
 31
0.0
 11
0.0544063095
 21
-17.1487950482
 31
0.0
 11
-0.0384899272
 21
-17.1502542788
 31
0.0
 11
-0.1350277173
 21
-17.1507469172
 31
0.0
  0
LINE
  5
65E
100
AcDbEntity
  8
RACCORDO
100
AcDbLine
 62
7
  6
CONTINUOUS
 10
-8.7570085465
 20
-18.1505946123
 11
-8.3428580708
 21
-17.1507469172
  0
SPLINE
  5
65F
100
AcDbEntity
  8
RACCORDO
100
AcDbSpline
 62
253
  6
CONTINUOUS
 70
0
 71
3
 72
22
 73
18
 74
16
 42
0.0000001
 43
0.0000001
 44
0.0000000001
 12
0.0000002162
 22
0.5021282362
 32
0.0
 13
0.4763706216
 23
0.158757036
 33
0.0
 40
0.0
 40
0.0
 40
0.0
 40
0.0
 40
0.1922597458
 40
0.377287574
 40
0.5481332934
 40
0.6262115536
 40
0.698403858
 40
0.7640383495
 40
0.8225080007
 40
0.873277001
 40
0.9158885087
 40
0.9499752525
 40
0.9752799669
 40
0.9846079055
 40
0.991740977
 40
0.9967687524
 40
1.0
 40
1.0
 40
1.0
 40
1.0
 10
-8.9269703942
 20
-8.5732744221
 30
0.0
 10
-8.9269703804
 20
-8.5410947398
 30
0.0
 10
-8.9266543158
 20
-8.4779452899
 30
0.0
 10
-8.9252412122
 20
-8.3862101953
 30
0.0
 10
-8.9232828803
 20
-8.313601124
 30
0.0
 10
-8.9212418672
 20
-8.2598922231
 30
0.0
 10
-8.9195692356
 20
-8.2237930973
 30
0.0
 10
-8.9177261733
 20
-8.190988938
 30
0.0
 10
-8.9157324459
 20
-8.1617862385
 30
0.0
 10
-8.9136092087
 20
-8.1364583182
 30
0.0
 10
-8.9113867303
 20
-8.115235516
 30
0.0
 10
-8.9090880272
 20
-8.0983188635
 30
0.0
 10
-8.9070047643
 20
-8.0869905105
 30
0.0
 10
-8.9052043024
 20
-8.0802368233
 30
0.0
 10
-8.9039786124
 20
-8.0768370317
 30
0.0
 10
-8.9028054949
 20
-8.0745592584
 30
0.0
 10
-8.9017578366
 20
-8.073521569
 30
0.0
 10
-8.9012447462
 20
-8.0733505746
 30
0.0
 11
-8.9269703942
 21
-8.5732744221
 31
0.0
 11
-8.9264777558
 21
-8.4767366321
 31
0.0
 11
-8.9250185252
 21
-8.3838403953
 31
0.0
 11
-8.9226481103
 21
-8.2980866909
 31
0.0
 11
-8.9211480226
 21
-8.2589101008
 31
0.0
 11
-8.9194563378
 21
-8.2226998011
 31
0.0
 11
-8.9175890675
 21
-8.18979581
 31
0.0
 11
-8.9155638623
 21
-8.1605064799
 31
0.0
 11
-8.9133998308
 21
-8.1351059484
 31
0.0
 11
-8.9111173595
 21
-8.1138315971
 31
0.0
 11
-8.9087379172
 21
-8.0968818817
 31
0.0
 11
-8.9062838868
 21
-8.0844149034
 31
0.0
 11
-8.905036053
 21
-8.079900361
 31
0.0
 11
-8.9037782932
 21
-8.0765467459
 31
0.0
 11
-8.9025135935
 21
-8.0743617793
 31
0.0
 11
-8.9012447462
 21
-8.0733505746
 31
0.0
  0
SPLINE
  5
660
100
AcDbEntity
  8
RACCORDO
100
AcDbSpline
 62
253
  6
CONTINUOUS
 70
0
 71
3
 72
30
 73
26
 74
24
 42
0.0000001
 43
0.0000001
 44
0.0000000001
 12
0.0000057343
 22
1.5005922299
 32
0.0
 13
1.0608966513
 23
1.0612612005
 33
0.0
 40
0.0
 40
0.0
 40
0.0
 40
0.0
 40
0.1928877772
 40
0.2870589404
 40
0.3785263185
 40
0.4664286226
 40
0.5499382614
 40
0.6282692953
 40
0.7006847094
 40
0.7665032712
 40
0.8251064625
 40
0.8759439823
 40
0.8982987515
 40
0.9185395138
 40
0.936619218
 40
0.9524958951
 40
0.9661331785
 40
0.9775006885
 40
0.9865744316
 40
0.9902459588
 40
0.9933391531
 40
0.995854415
 40
0.9977942097
 40
0.9991668322
 40
1.0
 40
1.0
 40
1.0
 40
1.0
 10
-9.9268180894
 20
-8.5732744221
 30
0.0
 10
-9.9268177207
 20
-8.4767924556
 30
0.0
 10
-9.9265790475
 20
-8.3332061419
 30
0.0
 10
-9.9257650253
 20
-8.1438699359
 30
0.0
 10
-9.924925104
 20
-8.007048004
 30
0.0
 10
-9.9238593804
 20
-7.8755606766
 30
0.0
 10
-9.9225782318
 20
-7.7506463493
 30
0.0
 10
-9.9210943935
 20
-7.6334813271
 30
0.0
 10
-9.9194226771
 20
-7.5251688129
 30
0.0
 10
-9.9175805092
 20
-7.4267283809
 30
0.0
 10
-9.9155865788
 20
-7.33908657
 30
0.0
 10
-9.9137485765
 20
-7.2731879606
 30
0.0
 10
-9.912186209
 20
-7.2264789947
 30
0.0
 10
-9.9110396029
 20
-7.1961509548
 30
0.0
 10
-9.9098709557
 20
-7.1690667103
 30
0.0
 10
-9.9086835723
 20
-7.145289927
 30
0.0
 10
-9.9074826769
 20
-7.1248759233
 30
0.0
 10
-9.9062717569
 20
-7.107872769
 30
0.0
 10
-9.9052028148
 20
-7.0958573132
 30
0.0
 10
-9.9043114051
 20
-7.0879854298
 30
0.0
 10
-9.9036918111
 20
-7.0833833889
 30
0.0
 10
-9.9030746952
 20
-7.0796612391
 30
0.0
 10
-9.9024665002
 20
-7.0767998934
 30
0.0
 10
-9.9018684669
 20
-7.0748301624
 30
0.0
 10
-9.9013870763
 20
-7.0737976156
 30
0.0
 10
-9.9010924413
 20
-7.0735028794
 30
0.0
 11
-9.9268180894
 21
-8.5732744221
 31
0.0
 11
-9.9263260069
 21
-8.2838289407
 31
0.0
 11
-9.9257152589
 21
-8.1425177447
 31
0.0
 11
-9.9248682847
 21
-8.0052651212
 31
0.0
 11
-9.9237930768
 21
-7.873363989
 31
0.0
 11
-9.922499768
 21
-7.7480567478
 31
0.0
 11
-9.9210005504
 21
-7.6305233684
 31
0.0
 11
-9.919309555
 21
-7.5218705185
 31
0.0
 11
-9.9174427129
 21
-7.4231213408
 31
0.0
 11
-9.9154176165
 21
-7.3352051677
 31
0.0
 11
-9.9132533409
 21
-7.2589494874
 31
0.0
 11
-9.9121253341
 21
-7.225423065
 31
0.0
 11
-9.9109702677
 21
-7.1950719054
 31
0.0
 11
-9.9097908625
 21
-7.1679672895
 31
0.0
 11
-9.9085898961
 21
-7.1441731603
 31
0.0
 11
-9.9073702003
 21
-7.1237455393
 31
0.0
 11
-9.9061346368
 21
-7.1067323487
 31
0.0
 11
-9.9048861316
 21
-7.0931737214
 31
0.0
 11
-9.9042579615
 21
-7.0877001844
 31
0.0
 11
-9.903627653
 21
-7.0831015564
 31
0.0
 11
-9.9029955434
 21
-7.0793804813
 31
0.0
 11
-9.9023619892
 21
-7.0765394246
 31
0.0
 11
-9.9017274544
 21
-7.0745798527
 31
0.0
 11
-9.9010924413
 21
-7.0735028794
 31
0.0
  0
SPLINE
  5
661
100
AcDbEntity
  8
RACCORDO
100
AcDbSpline
 62
253
  6
CONTINUOUS
 70
0
 71
3
 72
13
 73
9
 74
7
 42
0.0000001
 43
0.0000001
 44
0.0000000001
 12
1.1316943657
 22
-0.578271183
 32
0.0
 13
0.88712837
 23
-0.9100181062
 33
0.0
 40
0.0
 40
0.0
 40
0.0
 40
0.0
 40
0.2834908057
 40
0.5516832151
 40
0.6768275295
 40
0.7944104489
 40
0.9028868891
 40
1.0
 40
1.0
 40
1.0
 40
1.0
 10
10.6727541528
 20
-7.9283954587
 30
0.0
 10
10.7796958019
 20
-7.9830403132
 30
0.0
 10
10.9826836121
 20
-8.0997822061
 30
0.0
 10
11.2164512809
 20
-8.2665494382
 30
0.0
 10
11.3837555112
 20
-8.4039482281
 30
0.0
 10
11.4948573019
 20
-8.5029574219
 30
0.0
 10
11.5938302658
 20
-8.5975789316
 30
0.0
 10
11.6551187616
 20
-8.6594673215
 30
0.0
 10
11.6838360269
 20
-8.6889255513
 30
0.0
 11
10.6727541528
 21
-7.9283954587
 31
0.0
 11
10.9850267716
 21
-8.1080868598
 31
0.0
 11
11.2625794718
 21
-8.305915585
 31
0.0
 11
11.3855146279
 21
-8.4068197682
 31
0.0
 11
11.4971209077
 21
-8.5061898157
 31
0.0
 11
11.59684424
 21
-8.6013775837
 31
0.0
 11
11.6838360269
 21
-8.6889255513
 31
0.0
  0
SPLINE
  5
662
100
AcDbEntity
  8
RACCORDO
100
AcDbSpline
 62
253
  6
CONTINUOUS
 70
0
 71
3
 72
13
 73
9
 74
7
 42
0.0000001
 43
0.0000001
 44
0.0000000001
 12
-0.8871282599
 22
-0.9100179387
 32
0.0
 13
-1.1316941878
 23
-0.5782710988
 33
0.0
 40
0.0
 40
0.0
 40
0.0
 40
0.0
 40
0.0971131604
 40
0.2055896065
 40
0.3231725248
 40
0.4483168336
 40
0.7165092227
 40
1.0
 40
1.0
 40
1.0
 40
1.0
 10
11.6838358849
 20
-12.6362979069
 30
0.0
 10
11.6551186086
 20
-12.6657561463
 30
0.0
 10
11.5938301109
 20
-12.7276445484
 30
0.0
 10
11.4948571368
 20
-12.8222660502
 30
0.0
 10
11.3837553592
 20
-12.9212752234
 30
0.0
 10
11.2164511564
 20
-13.058673976
 30
0.0
 10
10.9826835369
 20
-13.2254411607
 30
0.0
 10
10.7796957744
 20
-13.3421830218
 30
0.0
 10
10.6727541528
 20
-13.3968278628
 30
0.0
 11
11.6838358849
 21
-12.6362979069
 31
0.0
 11
11.5968440686
 21
-12.7238459071
 31
0.0
 11
11.4971207411
 21
-12.81903366
 31
0.0
 11
11.3855144742
 21
-12.918403685
 31
0.0
 11
11.2625793376
 21
-13.0193078419
 31
0.0
 11
10.9850266943
 21
-13.2171365116
 31
0.0
 11
10.6727541528
 21
-13.3968278628
 31
0.0
  0
SPLINE
  5
663
100
AcDbEntity
  8
RACCORDO
100
AcDbSpline
 62
253
  6
CONTINUOUS
 70
0
 71
3
 72
22
 73
18
 74
16
 42
0.0000001
 43
0.0000001
 44
0.0000000001
 12
-3.5626617196
 22
3.2402622963
 32
0.0
 13
3.2268864647
 23
3.5747813949
 33
0.0
 40
0.0
 40
0.0
 40
0.0
 40
0.0
 40
0.0651156404
 40
0.1291880356
 40
0.1918900371
 40
0.25336867
 40
0.3745703724
 40
0.4361905583
 40
0.4998953358
 40
0.5650718234
 40
0.6289283593
 40
0.6906581497
 40
0.7513236279
 40
0.811993561
 40
0.8734034618
 40
0.9360155423
 40
1.0
 40
1.0
 40
1.0
 40
1.0
 10
1.7096923484
 20
-12.9341223524
 30
0.0
 10
1.6323640153
 20
-12.8637917676
 30
0.0
 10
1.4852108145
 20
-12.7171691922
 30
0.0
 10
1.2878001811
 20
-12.4801688935
 30
0.0
 10
1.1164451743
 20
-12.2306834004
 30
0.0
 10
0.924082876
 20
-11.8864896919
 30
0.0
 10
0.7806936797
 20
-11.5184970842
 30
0.0
 10
0.6921666308
 20
-11.1322382264
 30
0.0
 10
0.6555999849
 20
-10.8279623473
 30
0.0
 10
0.6543806665
 20
-10.5178479551
 30
0.0
 10
0.6887234369
 20
-10.212907428
 30
0.0
 10
0.7536736508
 20
-9.9205406318
 30
0.0
 10
0.8453861661
 20
-9.6408802307
 30
0.0
 10
0.9627464885
 20
-9.37156618
 30
0.0
 10
1.1059857136
 20
-9.1114994675
 30
0.0
 10
1.2755484816
 20
-8.8613422391
 30
0.0
 10
1.4048664906
 20
-8.7041284714
 30
0.0
 10
1.4736900175
 20
-8.6278849884
 30
0.0
 11
1.7096923484
 21
-12.9341223524
 31
0.0
 11
1.4876423767
 21
-12.7126988433
 31
0.0
 11
1.2902287199
 21
-12.4755559945
 31
0.0
 11
1.1193305377
 21
-12.2266111155
 31
0.0
 11
0.9749772244
 21
-11.9681182032
 31
0.0
 11
0.7640301641
 21
-11.4238881794
 31
0.0
 11
0.697979382
 21
-11.1345823253
 31
0.0
 11
0.6617275029
 21
-10.8299427201
 31
0.0
 11
0.6605074205
 21
-10.5160686455
 31
0.0
 11
0.6945836291
 21
-10.2104426333
 31
0.0
 11
0.7587851606
 21
-9.9201801767
 31
0.0
 11
0.8496674948
 21
-9.6425231883
 31
0.0
 11
0.9662919433
 21
-9.3746346374
 31
0.0
 11
1.1088950478
 21
-9.1155498404
 31
0.0
 11
1.2780143021
 21
-8.8659159389
 31
0.0
 11
1.4736900175
 21
-8.6278849884
 31
0.0
  0
SPLINE
  5
664
100
AcDbEntity
  8
RACCORDO
100
AcDbSpline
 62
253
  6
CONTINUOUS
 70
0
 71
3
 72
13
 73
9
 74
7
 42
0.0000001
 43
0.0000001
 44
0.0000000001
 12
-0.9954031545
 22
0.6587567697
 32
0.0
 13
-0.7131645188
 23
0.957175162
 33
0.0
 40
0.0
 40
0.0
 40
0.0
 40
0.0
 40
0.2726468758
 40
0.5353650231
 40
0.6609037832
 40
0.7813169918
 40
0.8951656138
 40
1.0
 40
1.0
 40
1.0
 40
1.0
 10
-8.7576536713
 20
-2.9745494212
 30
0.0
 10
-8.8481181914
 20
-2.9146800962
 30
0.0
 10
-9.0191592853
 20
-2.7868512129
 30
0.0
 10
-9.2123994447
 20
-2.6078768109
 30
0.0
 10
-9.3510479573
 20
-2.4603669364
 30
0.0
 10
-9.4447528886
 20
-2.3520873727
 30
0.0
 10
-9.5293594897
 20
-2.2469617508
 30
0.0
 10
-9.5819634493
 20
-2.1776434544
 30
0.0
 10
-9.6068848375
 20
-2.1441951642
 30
0.0
 11
-8.7576536713
 21
-2.9745494212
 31
0.0
 11
-9.018568865
 21
-2.7800327099
 31
0.0
 11
-9.2489861007
 21
-2.5673170896
 31
0.0
 11
-9.3516674612
 21
-2.458178793
 31
0.0
 11
-9.4457860704
 21
-2.3495501916
 31
0.0
 11
-9.5310776932
 21
-2.2437544442
 31
0.0
 11
-9.6068848375
 21
-2.1441951642
 31
0.0
  0
SPLINE
  5
665
100
AcDbEntity
  8
RACCORDO
100
AcDbSpline
 62
253
  6
CONTINUOUS
 70
0
 71
3
 72
11
 73
7
 74
5
 42
0.0000001
 43
0.0000001
 44
0.0000000001
 12
-0.2900404128
 22
0.3892811473
 32
0.0
 13
-0.0093147462
 23
0.4853622237
 33
0.0
 40
0.0
 40
0.0
 40
0.0
 40
0.0
 40
0.257302277
 40
0.5082789728
 40
0.7552411633
 40
1.0
 40
1.0
 40
1.0
 40
1.0
 10
-9.6068848375
 20
-2.1441951642
 30
0.0
 10
-9.6317608571
 20
-2.1108075223
 30
0.0
 10
-9.6750558815
 20
-2.0403038435
 30
0.0
 10
-9.7213485669
 20
-1.9266908958
 30
0.0
 10
-9.7495079335
 20
-1.8094204567
 30
0.0
 10
-9.7567440041
 20
-1.7298597716
 30
0.0
 10
-9.7575039596
 20
-1.6902608738
 30
0.0
 11
-9.6068848375
 21
-2.1441951642
 31
0.0
 11
-9.6724836946
 21
-2.0378995916
 31
0.0
 11
-9.7186370325
 21
-1.9251426267
 31
0.0
 11
-9.7467139782
 21
-1.8085885055
 31
0.0
 11
-9.7575039596
 21
-1.6902608738
 31
0.0
  0
SPLINE
  5
666
100
AcDbEntity
  8
RACCORDO
100
AcDbSpline
 62
7
  6
CONTINUOUS
 70
0
 71
3
 72
15
 73
11
 74
9
 42
0.0000001
 43
0.0000001
 44
0.0000000001
 12
1.4579109107
 22
-0.0058339871
 32
0.0
 13
1.4579109107
 23
0.0058339871
 33
0.0
 40
0.0
 40
0.0
 40
0.0
 40
0.0
 40
0.1235922403
 40
0.2483330106
 40
0.3739340343
 40
0.5
 40
0.6260659657
 40
0.7516669894
 40
0.8764077597
 40
1.0
 40
1.0
 40
1.0
 40
1.0
 10
-4.9532626317
 20
-8.0733505746
 30
0.0
 10
-4.8932004732
 20
-8.0735909197
 30
0.0
 10
-4.7725233673
 20
-8.0751574391
 30
0.0
 10
-4.5908363155
 20
-8.0786848922
 30
0.0
 10
-4.4079342239
 20
-8.0816407007
 30
0.0
 10
-4.224364956
 20
-8.0827782112
 30
0.0
 10
-4.040795688
 20
-8.0816407007
 30
0.0
 10
-3.8578935964
 20
-8.0786848922
 30
0.0
 10
-3.6762065446
 20
-8.0751574391
 30
0.0
 10
-3.5555294388
 20
-8.0735909197
 30
0.0
 10
-3.4954672802
 20
-8.0733505746
 30
0.0
 11
-4.9532626317
 21
-8.0733505746
 31
0.0
 11
-4.7730857231
 21
-8.0753424271
 31
0.0
 11
-4.5912521312
 21
-8.0785785283
 31
0.0
 11
-4.4081562887
 21
-8.0813335776
 31
0.0
 11
-4.224364956
 21
-8.0823985743
 31
0.0
 11
-4.0405736232
 21
-8.0813335776
 31
0.0
 11
-3.8574777808
 21
-8.0785785283
 31
0.0
 11
-3.6756441889
 21
-8.0753424271
 31
0.0
 11
-3.4954672802
 21
-8.0733505746
 31
0.0
  0
LINE
  5
667
100
AcDbEntity
  8
RACCORDO
100
AcDbLine
 62
7
  6
CONTINUOUS
 10
1.1764946521
 20
14.6376970165
 11
1.1758442525
 21
14.516732051
  0
LINE
  5
668
100
AcDbEntity
  8
RACCORDO
100
AcDbLine
 62
7
  6
CONTINUOUS
 10
-9.7105885273
 20
-1.2504146283
 11
-9.7106799172
 21
-1.2503375298
  0
SPLINE
  5
669
100
AcDbEntity
  8
RACCORDO
100
AcDbSpline
 62
7
  6
CONTINUOUS
 70
0
 71
3
 72
10
 73
6
 74
4
 42
0.0000001
 43
0.0000001
 44
0.0000000001
 12
0.0
 22
-0.6321934881
 32
0.0
 13
-0.0031637647
 23
-0.6321855716
 33
0.0
 40
0.0
 40
0.0
 40
0.0
 40
0.0
 40
0.5236245195
 40
0.7736050409
 40
1.0
 40
1.0
 40
1.0
 40
1.0
 10
1.1775622145
 20
15.2698892345
 30
0.0
 10
1.1775622145
 20
15.1595452307
 30
0.0
 10
1.1774398814
 20
14.9965224718
 30
0.0
 10
1.1770244662
 20
14.7857917648
 30
0.0
 10
1.1767334055
 20
14.6854048921
 30
0.0
 10
1.1764946521
 20
14.6376970165
 30
0.0
 11
1.1775622145
 21
15.2698892345
 31
0.0
 11
1.1773054229
 21
14.9388573227
 31
0.0
 11
1.1769890132
 21
14.7808215816
 31
0.0
 11
1.1764946521
 21
14.6376970165
 31
0.0
  0
LINE
  5
66A
100
AcDbEntity
  8
RACCORDO
100
AcDbLine
 62
7
  6
CONTINUOUS
 10
-9.7105885273
 20
12.2495853717
 11
-9.7106799172
 21
12.2496624702
  0
SPLINE
  5
66B
100
AcDbEntity
  8
RACCORDO
100
AcDbSpline
 62
253
  6
CONTINUOUS
 70
0
 71
3
 72
13
 73
9
 74
7
 42
0.0000001
 43
0.0000001
 44
0.0000000001
 12
-1.1278218463
 22
-0.5741442446
 32
0.0
 13
-0.8872483073
 23
-0.9024489857
 33
0.0
 40
0.0
 40
0.0
 40
0.0
 40
0.0
 40
0.283378056
 40
0.5515235569
 40
0.6766667852
 40
0.7942647557
 40
0.9027839692
 40
1.0
 40
1.0
 40
1.0
 40
1.0
 10
-8.6218869703
 20
16.2826245712
 30
0.0
 10
-8.7284202911
 20
16.2283912779
 30
0.0
 10
-8.9307170434
 20
16.1125677819
 30
0.0
 10
-9.1639058687
 20
15.9471926338
 30
0.0
 10
-9.3309597167
 20
15.8109435389
 30
0.0
 10
-9.4419812204
 20
15.7127479905
 30
0.0
 10
-9.5409681368
 20
15.6188752949
 30
0.0
 10
-9.6023044655
 20
15.5574625649
 30
0.0
 10
-9.6310560517
 20
15.5282183954
 30
0.0
 11
-8.6218869703
 21
16.2826245712
 31
0.0
 11
-8.9330744999
 21
16.1043615401
 31
0.0
 11
-9.2099640366
 21
15.9081673777
 31
0.0
 11
-9.332722278
 21
15.8081015629
 31
0.0
 11
-9.444243949
 21
15.7095509456
 31
0.0
 11
-9.5439698896
 21
15.6151256839
 31
0.0
 11
-9.6310560517
 21
15.5282183954
 31
0.0
  0
SPLINE
  5
66C
100
AcDbEntity
  8
RACCORDO
100
AcDbSpline
 62
253
  6
CONTINUOUS
 70
0
 71
3
 72
13
 73
9
 74
7
 42
0.0000001
 43
0.0000001
 44
0.0000000001
 12
-1.1278219249
 22
0.5741445728
 32
0.0
 13
-0.8872479675
 23
0.9024496268
 33
0.0
 40
0.0
 40
0.0
 40
0.0
 40
0.0
 40
0.2833780394
 40
0.55152359
 40
0.6766667607
 40
0.7942648271
 40
0.9027840159
 40
1.0
 40
1.0
 40
1.0
 40
1.0
 10
-8.6218869703
 20
10.7921521073
 30
0.0
 10
-8.7284202922
 20
10.8463854284
 30
0.0
 10
-8.9307171062
 20
10.9622089225
 30
0.0
 10
-9.1639059558
 20
11.1275841075
 30
0.0
 10
-9.3309598581
 20
11.2638332532
 30
0.0
 10
-9.441981375
 20
11.3620288343
 30
0.0
 10
-9.5409683134
 20
11.4559015554
 30
0.0
 10
-9.602304638
 20
11.5173142687
 30
0.0
 10
-9.6310561995
 20
11.5465584448
 30
0.0
 11
-8.6218869703
 21
10.7921521073
 31
0.0
 11
-8.9330745343
 21
10.9704151608
 31
0.0
 11
-9.2099641666
 21
11.1666093988
 31
0.0
 11
-9.3327223687
 21
11.2666751896
 31
0.0
 11
-9.4442441424
 21
11.3652259131
 31
0.0
 11
-9.5439700757
 21
11.4596511714
 31
0.0
 11
-9.6310561995
 21
11.5465584448
 31
0.0
  0
LINE
  5
66D
100
AcDbEntity
  8
RACCORDO
100
AcDbLine
 62
253
  6
CONTINUOUS
 10
1.1558871998
 20
14.6298796717
 11
1.1571819269
 21
14.2957204736
  0
LINE
  5
66E
100
AcDbEntity
  8
RACCORDO
100
AcDbLine
 62
253
  6
CONTINUOUS
 10
1.1571783764
 20
12.7790427133
 11
1.1558867439
 21
12.4448957954
  0
LINE
  5
66F
100
AcDbEntity
  8
RACCORDO
100
AcDbLine
 62
253
  6
CONTINUOUS
 10
1.155887217
 20
1.1298795812
 11
1.1571818562
 21
0.7957207424
  0
LINE
  5
670
100
AcDbEntity
  8
RACCORDO
100
AcDbLine
 62
253
  6
CONTINUOUS
 10
1.1571780851
 20
-0.7209583934
 11
1.1558868658
 21
-1.0551038375
  0
SPLINE
  5
671
100
AcDbEntity
  8
RACCORDO
100
AcDbSpline
 62
253
  6
CONTINUOUS
 70
0
 71
3
 72
13
 73
9
 74
7
 42
0.0000001
 43
0.0000001
 44
0.0000000001
 12
-1.1278218908
 22
-0.5741442672
 32
0.0
 13
-0.8872483361
 23
-0.9024490274
 33
0.0
 40
0.0
 40
0.0
 40
0.0
 40
0.0
 40
0.2833780605
 40
0.5515235641
 40
0.6766667929
 40
0.7942647628
 40
0.9027839746
 40
1.0
 40
1.0
 40
1.0
 40
1.0
 10
-8.6218869703
 20
2.7826245712
 30
0.0
 10
-8.728420297
 20
2.7283912749
 30
0.0
 10
-8.9307170596
 20
2.6125677722
 30
0.0
 10
-9.1639058956
 20
2.4471926139
 30
0.0
 10
-9.3309597495
 20
2.3109435111
 30
0.0
 10
-9.4419812559
 20
2.2127479581
 30
0.0
 10
-9.5409681726
 20
2.1188752597
 30
0.0
 10
-9.6023045014
 20
2.0574625291
 30
0.0
 10
-9.631056087
 20
2.02821836
 30
0.0
 11
-8.6218869703
 21
2.7826245712
 31
0.0
 11
-8.9330745166
 21
2.6043615293
 31
0.0
 11
-9.2099640656
 21
2.4081673551
 31
0.0
 11
-9.3327223112
 21
2.3081015347
 31
0.0
 11
-9.4442439849
 21
2.2095509126
 31
0.0
 11
-9.5439699268
 21
2.1151256476
 31
0.0
 11
-9.631056087
 21
2.02821836
 31
0.0
  0
SPLINE
  5
672
100
AcDbEntity
  8
RACCORDO
100
AcDbSpline
 62
253
  6
CONTINUOUS
 70
0
 71
3
 72
13
 73
9
 74
7
 42
0.0000001
 43
0.0000001
 44
0.0000000001
 12
-1.1278216012
 22
0.574144408
 32
0.0
 13
-0.8872477608
 23
0.9024493206
 33
0.0
 40
0.0
 40
0.0
 40
0.0
 40
0.0
 40
0.2833780153
 40
0.5515235532
 40
0.6766667241
 40
0.7942647969
 40
0.9027840008
 40
1.0
 40
1.0
 40
1.0
 40
1.0
 10
-8.6218869703
 20
-2.7078478927
 30
0.0
 10
-8.7284202526
 20
-2.6536145918
 30
0.0
 10
-8.9307169968
 20
-2.5377911425
 30
0.0
 10
-9.1639057754
 20
-2.3724160265
 30
0.0
 10
-9.3309596374
 20
-2.2361669334
 30
0.0
 10
-9.4419811374
 20
-2.1379713835
 30
0.0
 10
-9.5409680648
 20
-2.0440986853
 30
0.0
 10
-9.6023043869
 20
-1.9826859868
 30
0.0
 10
-9.6310559461
 20
-1.953441816
 30
0.0
 11
-8.6218869703
 21
-2.7078478927
 31
0.0
 11
-8.9330744218
 21
-2.5295849113
 31
0.0
 11
-9.2099639717
 21
-2.3333907534
 31
0.0
 11
-9.332722146
 21
-2.2333249998
 31
0.0
 11
-9.4442439014
 21
-2.1347743079
 31
0.0
 11
-9.543969827
 21
-2.0403490712
 31
0.0
 11
-9.6310559461
 21
-1.953441816
 31
0.0
  0
LINE
  5
673
100
AcDbEntity
  8
RACCORDO
100
AcDbLine
 62
7
  6
CONTINUOUS
 10
10.8954180013
 20
19.3554315177
 11
10.8955694029
 21
18.9571285877
  0
SPLINE
  5
674
100
AcDbEntity
  8
RACCORDO
100
AcDbSpline
 62
7
  6
CONTINUOUS
 70
0
 71
3
 72
11
 73
7
 74
5
 42
0.0000001
 43
0.0000001
 44
0.0000000001
 12
0.0000000333
 22
0.8609476775
 32
0.0
 13
-0.0150209521
 23
0.8608166323
 33
0.0
 40
0.0
 40
0.0
 40
0.0
 40
0.0
 40
0.2900478582
 40
0.5538545411
 40
0.786807753
 40
1.0
 40
1.0
 40
1.0
 40
1.0
 10
10.7158478753
 20
10.6605342477
 30
0.0
 10
10.7158478785
 20
10.7437729243
 30
0.0
 10
10.7153457914
 20
10.9027198861
 30
0.0
 10
10.7133703567
 20
11.1285123721
 30
0.0
 10
10.7105534094
 20
11.3322374574
 30
0.0
 10
10.70834009
 20
11.460254368
 30
0.0
 10
10.7072726398
 20
11.5214275121
 30
0.0
 11
10.7158478753
 21
10.6605342477
 31
0.0
 11
10.7150783385
 21
10.9102490918
 31
0.0
 11
10.713088759
 21
11.1373641284
 31
0.0
 11
10.7103541954
 21
11.3379060119
 31
0.0
 11
10.7072726398
 21
11.5214275121
 31
0.0
  0
LINE
  5
675
100
AcDbEntity
  8
0
100
AcDbLine
 62
7
  6
CONTINUOUS
 10
-7.0248698572
 20
15.1810819861
 11
-7.0243034383
 21
15.1801059068
  0
SPLINE
  5
676
100
AcDbEntity
  8
0
100
AcDbSpline
 62
7
  6
CONTINUOUS
 70
0
 71
3
 72
11
 73
7
 74
5
 42
0.0000001
 43
0.0000001
 44
0.0000000001
 12
0.0097023139
 22
-0.050430621
 32
0.0
 13
-0.0491170941
 23
-0.0149964495
 33
0.0
 40
0.0
 40
0.0
 40
0.0
 40
0.0
 40
0.092922586
 40
0.2922488172
 40
0.5977105026
 40
1.0
 40
1.0
 40
1.0
 40
1.0
 10
-7.0243034383
 20
15.1801059068
 30
0.0
 10
-7.0240029169
 20
15.1785438589
 30
0.0
 10
-7.0287364486
 20
15.1744305725
 30
0.0
 10
-7.0370596478
 20
15.1701464742
 30
0.0
 10
-7.0518429989
 20
15.1640347386
 30
0.0
 10
-7.0632406119
 20
15.1603269753
 30
0.0
 10
-7.0698270422
 20
15.1583160039
 30
0.0
 11
-7.0243034383
 21
15.1801059068
 31
0.0
 11
-7.026945916
 21
15.1761322344
 31
0.0
 11
-7.0357684442
 21
15.170941021
 31
0.0
 11
-7.0502393704
 21
15.1648847748
 31
0.0
 11
-7.0698270422
 21
15.1583160039
 31
0.0
  0
SPLINE
  5
677
100
AcDbEntity
  8
0
100
AcDbSpline
 62
7
  6
CONTINUOUS
 70
0
 71
3
 72
9
 73
5
 74
3
 42
0.0000001
 43
0.0000001
 44
0.0000000001
 12
-0.0357373306
 22
-0.0109113351
 32
0.0
 13
-0.0363224278
 23
-0.0087689947
 33
0.0
 40
0.0
 40
0.0
 40
0.0
 40
0.0
 40
0.2276871949
 40
1.0
 40
1.0
 40
1.0
 40
1.0
 10
-7.0698270422
 20
15.1583160039
 30
0.0
 10
-7.0725393531
 20
15.1574878801
 30
0.0
 10
-7.0844866687
 20
15.1539650225
 30
0.0
 10
-7.0965509875
 20
15.1508476189
 30
0.0
 10
-7.1059017462
 20
15.1485901499
 30
0.0
 11
-7.0698270422
 21
15.1583160039
 31
0.0
 11
-7.0779859203
 21
15.1559046803
 31
0.0
 11
-7.1059017462
 21
15.1485901499
 31
0.0
  0
SPLINE
  5
678
100
AcDbEntity
  8
0
100
AcDbSpline
 62
7
  6
CONTINUOUS
 70
0
 71
3
 72
9
 73
5
 74
3
 42
0.0000001
 43
0.0000001
 44
0.0000000001
 12
-0.0452604657
 22
-0.0109268242
 32
0.0
 13
-0.0456801514
 23
-0.0090127134
 33
0.0
 40
0.0
 40
0.0
 40
0.0
 40
0.0
 40
0.2327178682
 40
1.0
 40
1.0
 40
1.0
 40
1.0
 10
-7.1059017462
 20
15.1485901499
 30
0.0
 10
-7.1094127192
 20
15.1477425275
 30
0.0
 10
-7.1245224394
 20
15.1441952132
 30
0.0
 10
-7.1397135103
 20
15.1409992366
 30
0.0
 10
-7.1513966983
 20
15.1386941386
 30
0.0
 11
-7.1059017462
 21
15.1485901499
 31
0.0
 11
-7.1164497287
 21
15.1461105083
 31
0.0
 11
-7.1513966983
 21
15.1386941386
 31
0.0
  0
SPLINE
  5
679
100
AcDbEntity
  8
0
100
AcDbSpline
 62
7
  6
CONTINUOUS
 70
0
 71
3
 72
9
 73
5
 74
3
 42
0.0000001
 43
0.0000001
 44
0.0000000001
 12
-0.1307978605
 22
0.0151647496
 32
0.0
 13
-0.1299714313
 23
0.0211063257
 33
0.0
 40
0.0
 40
0.0
 40
0.0
 40
0.0
 40
0.2724052491
 40
1.0
 40
1.0
 40
1.0
 40
1.0
 10
-1.1115963491
 20
15.1110460615
 30
0.0
 10
-1.1234730237
 20
15.1124230473
 30
0.0
 10
-1.1670495629
 20
15.1176642797
 30
0.0
 10
-1.210538608
 20
15.1236905256
 30
0.0
 10
-1.2420607851
 20
15.1288094762
 30
0.0
 11
-1.1115963491
 21
15.1110460615
 31
0.0
 11
-1.1472074873
 21
15.1153367774
 31
0.0
 11
-1.2420607851
 21
15.1288094762
 31
0.0
  0
SPLINE
  5
67A
100
AcDbEntity
  8
0
100
AcDbSpline
 62
7
  6
CONTINUOUS
 70
0
 71
3
 72
9
 73
5
 74
3
 42
0.0000001
 43
0.0000001
 44
0.0000000001
 12
-0.05399261
 22
0.00876797
 32
0.0
 13
-0.0536786583
 23
0.0105204977
 33
0.0
 40
0.0
 40
0.0
 40
0.0
 40
0.0
 40
0.263193907
 40
1.0
 40
1.0
 40
1.0
 40
1.0
 10
-1.2420607851
 20
15.1288094762
 30
0.0
 10
-1.2467976271
 20
15.1295787017
 30
0.0
 10
-1.264784367
 20
15.132566944
 30
0.0
 10
-1.2827277092
 20
15.1358202813
 30
0.0
 10
-1.2959112967
 20
15.1384041369
 30
0.0
 11
-1.2420607851
 21
15.1288094762
 31
0.0
 11
-1.2562626216
 21
15.1311700394
 31
0.0
 11
-1.2959112967
 21
15.1384041369
 31
0.0
  0
SPLINE
  5
67B
100
AcDbEntity
  8
0
100
AcDbSpline
 62
7
  6
CONTINUOUS
 70
0
 71
3
 72
9
 73
5
 74
3
 42
0.0000001
 43
0.0000001
 44
0.0000000001
 12
-0.0458187642
 22
0.0089800345
 32
0.0
 13
-0.0454023365
 23
0.010891649
 33
0.0
 40
0.0
 40
0.0
 40
0.0
 40
0.0
 40
0.2666858966
 40
1.0
 40
1.0
 40
1.0
 40
1.0
 10
-1.2959112967
 20
15.1384041369
 30
0.0
 10
-1.2999843694
 20
15.1392024198
 30
0.0
 10
-1.3152436481
 20
15.142264087
 30
0.0
 10
-1.3304485415
 20
15.1456032635
 30
0.0
 10
-1.3415465994
 20
15.1482655968
 30
0.0
 11
-1.2959112967
 21
15.1384041369
 31
0.0
 11
-1.3081193703
 21
15.1408551635
 31
0.0
 11
-1.3415465994
 21
15.1482655968
 31
0.0
  0
SPLINE
  5
67C
100
AcDbEntity
  8
0
100
AcDbSpline
 62
7
  6
CONTINUOUS
 70
0
 71
3
 72
9
 73
5
 74
3
 42
0.0000001
 43
0.0000001
 44
0.0000000001
 12
-0.0819412033
 22
0.0196570241
 32
0.0
 13
-0.0679762132
 23
0.0497995364
 33
0.0
 40
0.0
 40
0.0
 40
0.0
 40
0.0
 40
0.6355827558
 40
1.0
 40
1.0
 40
1.0
 40
1.0
 10
-1.3415465994
 20
15.1482655968
 30
0.0
 10
-1.358906738
 20
15.152430152
 30
0.0
 10
-1.3856554907
 20
15.1601757249
 30
0.0
 10
-1.4127605043
 20
15.169585102
 30
0.0
 10
-1.4210177391
 20
15.175634372
 30
0.0
 11
-1.3415465994
 21
15.1482655968
 31
0.0
 11
-1.393052747
 21
15.1629481765
 31
0.0
 11
-1.4210177391
 21
15.175634372
 31
0.0
  0
SPLINE
  5
67D
100
AcDbEntity
  8
0
100
AcDbSpline
 62
7
  6
CONTINUOUS
 70
0
 71
3
 72
9
 73
5
 74
3
 42
0.0000001
 43
0.0000001
 44
0.0000000001
 12
-0.0046256594
 22
0.0033887691
 32
0.0
 13
0.0010956296
 23
0.0056285057
 33
0.0
 40
0.0
 40
0.0
 40
0.0
 40
0.0
 40
0.356236234
 40
1.0
 40
1.0
 40
1.0
 40
1.0
 10
-1.4210177391
 20
15.175634372
 30
0.0
 10
-1.4215670149
 20
15.1760367727
 30
0.0
 10
-1.4229808793
 20
15.1771637676
 30
0.0
 10
-1.4246147829
 20
15.178951077
 30
0.0
 10
-1.424379674
 20
15.1801588864
 30
0.0
 11
-1.4210177391
 21
15.175634372
 31
0.0
 11
-1.4226022783
 21
15.1769235223
 31
0.0
 11
-1.424379674
 21
15.1801588864
 31
0.0
  0
SPLINE
  5
67E
100
AcDbEntity
  8
0
100
AcDbSpline
 62
7
  6
CONTINUOUS
 70
0
 71
3
 72
8
 73
4
 74
2
 42
0.0000001
 43
0.0000001
 44
0.0000000001
 12
0.1728411576
 22
-0.1043008895
 32
0.0
 13
0.1027083927
 23
-0.173792196
 33
0.0
 40
0.0
 40
0.0
 40
0.0
 40
0.0
 40
1.0
 40
1.0
 40
1.0
 40
1.0
 10
-7.574364956
 20
0.454026934
 30
0.0
 10
-7.5167512368
 20
0.4192599709
 30
0.0
 10
-7.4677052554
 20
0.367385518
 30
0.0
 10
-7.4334691245
 20
0.309454786
 30
0.0
 11
-7.574364956
 21
0.454026934
 31
0.0
 11
-7.4334691245
 21
0.309454786
 31
0.0
  0
SPLINE
  5
67F
100
AcDbEntity
  8
0
100
AcDbSpline
 62
7
  6
CONTINUOUS
 70
0
 71
3
 72
9
 73
5
 74
3
 42
0.0000001
 43
0.0000001
 44
0.0000000001
 12
0.2091508625
 22
0.0
 32
0.0
 13
0.1790723002
 23
-0.1080610687
 33
0.0
 40
0.0
 40
0.0
 40
0.0
 40
0.0
 40
0.7475925428
 40
1.0
 40
1.0
 40
1.0
 40
1.0
 10
-7.774364956
 20
0.5101337095
 30
0.0
 10
-7.7222450809
 20
0.5101337095
 30
0.0
 10
-7.6514648396
 20
0.4951050204
 30
0.0
 10
-7.5894313506
 20
0.4631187406
 30
0.0
 10
-7.574364956
 20
0.454026934
 30
0.0
 11
-7.774364956
 21
0.5101337095
 31
0.0
 11
-7.6213040325
 21
0.4781855317
 31
0.0
 11
-7.574364956
 21
0.454026934
 31
0.0
  0
SPLINE
  5
680
100
AcDbEntity
  8
0
100
AcDbSpline
 62
7
  6
CONTINUOUS
 70
0
 71
3
 72
8
 73
4
 74
2
 42
0.0000001
 43
0.0000001
 44
0.0000000001
 12
0.1390714705
 22
0.0577333481
 32
0.0
 13
0.1505789274
 23
0.0
 33
0.0
 40
0.0
 40
0.0
 40
0.0
 40
0.0
 40
1.0
 40
1.0
 40
1.0
 40
1.0
 10
-7.9220057626
 20
0.4805329394
 30
0.0
 10
-7.8756486058
 20
0.4997773888
 30
0.0
 10
-7.8245579318
 20
0.5101337095
 30
0.0
 10
-7.774364956
 20
0.5101337095
 30
0.0
 11
-7.9220057626
 21
0.4805329394
 31
0.0
 11
-7.774364956
 21
0.5101337095
 31
0.0
  0
SPLINE
  5
681
100
AcDbEntity
  8
0
100
AcDbSpline
 62
7
  6
CONTINUOUS
 70
0
 71
3
 72
8
 73
4
 74
2
 42
0.0000001
 43
0.0000001
 44
0.0000000001
 12
-0.0765235463
 22
-0.0363229508
 32
0.0
 13
-0.0847066107
 23
0.0
 33
0.0
 40
0.0
 40
0.0
 40
0.0
 40
0.0
 40
1.0
 40
1.0
 40
1.0
 40
1.0
 10
-7.9396067793
 20
0.4727083379
 30
0.0
 10
-7.965114628
 20
0.4606006876
 30
0.0
 10
-7.993992154
 20
0.454026934
 30
0.0
 10
-8.0222276909
 20
0.454026934
 30
0.0
 11
-7.9396067793
 21
0.4727083379
 31
0.0
 11
-8.0222276909
 21
0.454026934
 31
0.0
  0
SPLINE
  5
682
100
AcDbEntity
  8
0
100
AcDbSpline
 62
7
  6
CONTINUOUS
 70
0
 71
3
 72
8
 73
4
 74
2
 42
0.0000001
 43
0.0000001
 44
0.0000000001
 12
-0.0847066107
 22
0.0
 32
0.0
 13
-0.0765235463
 23
0.0363229508
 33
0.0
 40
0.0
 40
0.0
 40
0.0
 40
0.0
 40
1.0
 40
1.0
 40
1.0
 40
1.0
 10
-0.426502221
 20
0.454026934
 30
0.0
 10
-0.4547377579
 20
0.454026934
 30
0.0
 10
-0.4836152839
 20
0.4606006876
 30
0.0
 10
-0.5091231326
 20
0.4727083379
 30
0.0
 11
-0.426502221
 21
0.454026934
 31
0.0
 11
-0.5091231326
 21
0.4727083379
 31
0.0
  0
SPLINE
  5
683
100
AcDbEntity
  8
0
100
AcDbSpline
 62
7
  6
CONTINUOUS
 70
0
 71
3
 72
8
 73
4
 74
2
 42
0.0000001
 43
0.0000001
 44
0.0000000001
 12
0.1694270304
 22
0.0
 32
0.0
 13
0.1530595676
 23
-0.072651823
 33
0.0
 40
0.0
 40
0.0
 40
0.0
 40
0.0
 40
1.0
 40
1.0
 40
1.0
 40
1.0
 10
-0.674364956
 20
0.5101337095
 30
0.0
 10
-0.6178892792
 20
0.5101337095
 30
0.0
 10
-0.5601429885
 20
0.4969256122
 30
0.0
 10
-0.5091231326
 20
0.4727083379
 30
0.0
 11
-0.674364956
 21
0.5101337095
 31
0.0
 11
-0.5091231326
 21
0.4727083379
 31
0.0
  0
SPLINE
  5
684
100
AcDbEntity
  8
0
100
AcDbSpline
 62
7
  6
CONTINUOUS
 70
0
 71
3
 72
9
 73
5
 74
3
 42
0.0000001
 43
0.0000001
 44
0.0000000001
 12
0.1790723002
 22
0.1080610687
 32
0.0
 13
0.2091508625
 23
0.0
 33
0.0
 40
0.0
 40
0.0
 40
0.0
 40
0.0
 40
0.2524074572
 40
1.0
 40
1.0
 40
1.0
 40
1.0
 10
-0.874364956
 20
0.454026934
 30
0.0
 10
-0.8592985613
 20
0.4631187406
 30
0.0
 10
-0.7972650723
 20
0.4951050204
 30
0.0
 10
-0.726484831
 20
0.5101337095
 30
0.0
 10
-0.674364956
 20
0.5101337095
 30
0.0
 11
-0.874364956
 21
0.454026934
 31
0.0
 11
-0.8274258794
 21
0.4781855317
 31
0.0
 11
-0.674364956
 21
0.5101337095
 31
0.0
  0
SPLINE
  5
685
100
AcDbEntity
  8
0
100
AcDbSpline
 62
7
  6
CONTINUOUS
 70
0
 71
3
 72
8
 73
4
 74
2
 42
0.0000001
 43
0.0000001
 44
0.0000000001
 12
0.1027083927
 22
0.173792196
 32
0.0
 13
0.1728411576
 23
0.1043008895
 33
0.0
 40
0.0
 40
0.0
 40
0.0
 40
0.0
 40
1.0
 40
1.0
 40
1.0
 40
1.0
 10
-1.0152607874
 20
0.309454786
 30
0.0
 10
-0.9810246565
 20
0.367385518
 30
0.0
 10
-0.9319786752
 20
0.4192599709
 30
0.0
 10
-0.874364956
 20
0.454026934
 30
0.0
 11
-1.0152607874
 21
0.309454786
 31
0.0
 11
-0.874364956
 21
0.454026934
 31
0.0
  0
ELLIPSE
  5
686
100
AcDbEntity
  8
RACCORDO
100
AcDbEllipse
 62
7
  6
CONTINUOUS
 10
5.8320382762
 20
15.4354881104
 30
0.0
 11
0.426340999
 21
0.2633315858
 31
0.0
 40
0.9969414855
 41
-0.5519313763
 42
1.0161258948
  0
ELLIPSE
  5
687
100
AcDbEntity
  8
0
100
AcDbEllipse
 62
7
  6
CONTINUOUS
 10
-10.1709606208
 20
1.4530891261
 30
0.0
 11
1.7408984904
 21
-1.7408984904
 31
0.0
 40
0.9489645667
 41
6.5140331903
 42
6.6755747396
  0
ELLIPSE
  5
688
100
AcDbEntity
  8
0
100
AcDbEllipse
 62
7
  6
CONTINUOUS
 10
-1.474364956
 20
23.7960817476
 30
0.0
 11
1.0
 21
-0.0
 31
0.0
 40
0.0058178298
 41
-3.1415926536
 42
-2.0943951024
  0
ELLIPSE
  5
689
100
AcDbEntity
  8
0
100
AcDbEllipse
 62
7
  6
CONTINUOUS
 10
-1.474364956
 20
-20.9213050691
 30
0.0
 11
1.0
 21
-0.0
 31
0.0
 40
0.0058178298
 41
2.0943951024
 42
3.1415926536
  0
ELLIPSE
  5
68A
100
AcDbEntity
  8
0
100
AcDbEllipse
 62
7
  6
CONTINUOUS
 10
3.525635044
 20
23.7960817476
 30
0.0
 11
1.0
 21
0.0
 31
0.0
 40
0.0058178298
 41
5.235987756
 42
6.2831853072
  0
ELLIPSE
  5
68B
100
AcDbEntity
  8
0
100
AcDbEllipse
 62
7
  6
CONTINUOUS
 10
3.525635044
 20
-20.9213050691
 30
0.0
 11
1.0
 21
-0.0
 31
0.0
 40
0.0058178298
 41
0.0
 42
1.0471975512
  0
ELLIPSE
  5
68C
100
AcDbEntity
  8
0
100
AcDbEllipse
 62
7
  6
CONTINUOUS
 10
-0.174364956
 20
25.2315671247
 30
0.0
 11
-0.0
 21
-0.2000033847
 31
0.0
 40
0.9999830769
 41
1.5707963268
 42
3.1415926536
  0
ELLIPSE
  5
68D
100
AcDbEntity
  8
0
100
AcDbEllipse
 62
7
  6
CONTINUOUS
 10
-2.9274076659
 20
23.7934814261
 30
0.0
 11
0.4530427099
 21
-0.0
 31
0.0
 40
0.0058178298
 41
-3.1357748894
 42
-0.0
  0
ELLIPSE
  5
68E
100
AcDbEntity
  8
0
100
AcDbEllipse
 62
7
  6
CONTINUOUS
 10
4.978677754
 20
23.7934814261
 30
0.0
 11
0.4530427099
 21
0.0
 31
0.0
 40
0.0058178298
 41
-3.1415926536
 42
-0.0058177642
  0
ELLIPSE
  5
68F
100
AcDbEntity
  8
0
100
AcDbEllipse
 62
7
  6
CONTINUOUS
 10
4.978677754
 20
-20.9187047477
 30
0.0
 11
0.4530427099
 21
-0.0
 31
0.0
 40
0.0058178298
 41
0.0058177642
 42
3.1415926536
  0
ELLIPSE
  5
690
100
AcDbEntity
  8
0
100
AcDbEllipse
 62
7
  6
CONTINUOUS
 10
-2.9274076659
 20
-20.9187047477
 30
0.0
 11
0.4530427099
 21
-0.0
 31
0.0
 40
0.0058178298
 41
0.0
 42
3.1357748894
  0
ELLIPSE
  5
691
100
AcDbEntity
  8
0
100
AcDbEllipse
 62
7
  6
CONTINUOUS
 10
-3.3807312324
 20
24.8937461539
 30
0.0
 11
-0.0
 21
0.5
 31
0.0
 40
0.0058178298
 41
-0.0993492953
 42
-0.0058177642
  0
ELLIPSE
  5
692
100
AcDbEntity
  8
0
100
AcDbEllipse
 62
7
  6
CONTINUOUS
 10
5.4320013205
 20
24.8937461539
 30
0.0
 11
-0.0
 21
0.5
 31
0.0
 40
0.0058178298
 41
0.0058177642
 42
0.0993492953
  0
ELLIPSE
  5
693
100
AcDbEntity
  8
0
100
AcDbEllipse
 62
7
  6
CONTINUOUS
 10
-8.8743607251
 20
-21.9739365262
 30
0.0
 11
-0.0029088041
 21
0.2886641433
 31
0.0
 40
0.8660144118
 41
-0.0087264124
 42
1.5591610446
  0
ELLIPSE
  5
694
100
AcDbEntity
  8
0
100
AcDbEllipse
 62
7
  6
CONTINUOUS
 10
-6.4743691868
 20
-21.9739365262
 30
0.0
 11
0.0029088041
 21
0.2886641433
 31
0.0
 40
0.8660144118
 41
-1.5591610446
 42
0.0087264124
  0
ELLIPSE
  5
695
100
AcDbEntity
  8
0
100
AcDbEllipse
 62
7
  6
CONTINUOUS
 10
8.5256392749
 20
-21.9739365262
 30
0.0
 11
-0.0029088041
 21
0.2886641433
 31
0.0
 40
0.8660144118
 41
-0.0087264124
 42
1.5591610446
  0
ELLIPSE
  5
696
100
AcDbEntity
  8
0
100
AcDbEllipse
 62
7
  6
CONTINUOUS
 10
10.9256308132
 20
-21.9739365262
 30
0.0
 11
0.0029088041
 21
0.2886641433
 31
0.0
 40
0.8660144118
 41
-1.5591610446
 42
0.0087264124
  0
ELLIPSE
  5
697
100
AcDbEntity
  8
0
100
AcDbEllipse
 62
7
  6
CONTINUOUS
 10
-8.8743607251
 20
24.8487132046
 30
0.0
 11
0.0029088041
 21
0.2886641433
 31
0.0
 40
0.8660144118
 41
-4.7007536982
 42
-3.1328662412
  0
ELLIPSE
  5
698
100
AcDbEntity
  8
0
100
AcDbEllipse
 62
7
  6
CONTINUOUS
 10
-6.4743691868
 20
24.8487132046
 30
0.0
 11
-0.0029088041
 21
0.2886641433
 31
0.0
 40
0.8660144118
 41
-3.150319066
 42
-1.582431609
  0
ELLIPSE
  5
699
100
AcDbEntity
  8
0
100
AcDbEllipse
 62
7
  6
CONTINUOUS
 10
10.9256308132
 20
24.8487132046
 30
0.0
 11
-0.0029088041
 21
0.2886641433
 31
0.0
 40
0.8660144118
 41
-3.150319066
 42
-1.582431609
  0
ELLIPSE
  5
69A
100
AcDbEntity
  8
0
100
AcDbEllipse
 62
7
  6
CONTINUOUS
 10
8.5256392749
 20
24.8487132046
 30
0.0
 11
0.0029088041
 21
0.2886641433
 31
0.0
 40
0.8660144118
 41
-4.7007536982
 42
-3.1328662412
  0
ELLIPSE
  5
69B
100
AcDbEntity
  8
0
100
AcDbEllipse
 62
7
  6
CONTINUOUS
 10
-9.6160553924
 20
-20.4567853693
 30
0.0
 11
0.4160498344
 21
0.2773626446
 31
0.0
 40
0.9999450019
 41
2.5536219432
 42
4.1243675013
  0
ELLIPSE
  5
69C
100
AcDbEntity
  8
0
100
AcDbEllipse
 62
7
  6
CONTINUOUS
 10
-9.6160553924
 20
23.3315620477
 30
0.0
 11
-0.4160498344
 21
0.2773626446
 31
0.0
 40
0.9999450019
 41
-0.9827748477
 42
0.5879707104
  0
ELLIPSE
  5
69D
100
AcDbEntity
  8
0
100
AcDbEllipse
 62
7
  6
CONTINUOUS
 10
11.6673254804
 20
-20.4567853693
 30
0.0
 11
0.4160498344
 21
-0.2773626446
 31
0.0
 40
0.9999450019
 41
-0.9827748477
 42
0.5879707104
  0
ELLIPSE
  5
69E
100
AcDbEntity
  8
0
100
AcDbEllipse
 62
7
  6
CONTINUOUS
 10
11.6673254804
 20
23.3315620477
 30
0.0
 11
-0.4160498344
 21
-0.2773626446
 31
0.0
 40
0.9999450019
 41
2.5536219432
 42
4.1243675013
  0
ELLIPSE
  5
69F
100
AcDbEntity
  8
0
100
AcDbEllipse
 62
7
  6
CONTINUOUS
 10
2.225635044
 20
-22.3567904463
 30
0.0
 11
0.0
 21
0.2000033847
 31
0.0
 40
0.9999830769
 41
1.5707963268
 42
3.1415926536
  0
ELLIPSE
  5
6A0
100
AcDbEntity
  8
0
100
AcDbEllipse
 62
7
  6
CONTINUOUS
 10
-0.174364956
 20
-22.3567904463
 30
0.0
 11
-0.0
 21
-0.2000033847
 31
0.0
 40
0.9999830769
 41
0.0
 42
1.5707963268
  0
ELLIPSE
  5
6A1
100
AcDbEntity
  8
0
100
AcDbEllipse
 62
7
  6
CONTINUOUS
 10
2.225635044
 20
25.2315671247
 30
0.0
 11
0.0
 21
0.2000033847
 31
0.0
 40
0.9999830769
 41
0.0
 42
1.5707963268
  0
ELLIPSE
  5
6A2
100
AcDbEntity
  8
DRAFT
100
AcDbEllipse
 62
7
  6
CONTINUOUS
 10
-4.224364956
 20
19.508623418
 30
0.0
 11
2.75839524
 21
-0.0
 31
0.0
 40
0.0058178298
 41
3.1415926536
 42
6.2831853072
  0
ELLIPSE
  5
6A3
100
AcDbEntity
  8
DRAFT
100
AcDbEllipse
 62
7
  6
CONTINUOUS
 10
-4.224364956
 20
-6.5338467396
 30
0.0
 11
2.75839524
 21
0.0
 31
0.0
 40
0.0058178298
 41
0.0
 42
3.1415926536
  0
ELLIPSE
  5
6A4
100
AcDbEntity
  8
DRAFT
100
AcDbEllipse
 62
7
  6
CONTINUOUS
 10
6.275635044
 20
-16.6338467396
 30
0.0
 11
2.75839524
 21
-0.0
 31
0.0
 40
0.0058178298
 41
0.0
 42
3.1415926536
  0
ELLIPSE
  5
6A5
100
AcDbEntity
  8
RACCORDO
100
AcDbEllipse
 62
7
  6
CONTINUOUS
 10
10.175330388
 20
-16.2340583433
 30
0.0
 11
1.8480888181
 21
-0.7655034529
 31
0.0
 40
0.9998215708
 41
-0.3926359958
 42
0.3926359958
  0
ELLIPSE
  5
6A6
100
AcDbEntity
  8
RACCORDO
100
AcDbEllipse
 62
7
  6
CONTINUOUS
 10
10.175330388
 20
19.1088350218
 30
0.0
 11
1.8480888181
 21
0.7655034529
 31
0.0
 40
0.9998215708
 41
-0.3926359958
 42
0.3926359958
  0
ELLIPSE
  5
6A7
100
AcDbEntity
  8
RACCORDO
100
AcDbEllipse
 62
7
  6
CONTINUOUS
 10
-8.1240602999
 20
19.1088350218
 30
0.0
 11
1.8480888181
 21
-0.7655034529
 31
0.0
 40
0.9998215708
 41
2.7489566578
 42
3.5342286494
  0
ELLIPSE
  5
6A8
100
AcDbEntity
  8
RACCORDO
100
AcDbEllipse
 62
7
  6
CONTINUOUS
 10
-8.1240602999
 20
-16.2340583433
 30
0.0
 11
1.8480888181
 21
0.7655034529
 31
0.0
 40
0.9998215708
 41
2.7489566578
 42
3.5342286494
  0
ELLIPSE
  5
6A9
100
AcDbEntity
  8
DRAFT
100
AcDbEllipse
 62
7
  6
CONTINUOUS
 10
-4.224364956
 20
19.5275319311
 30
0.0
 11
2.75
 21
-0.0
 31
0.0
 40
0.0087268678
 41
0.0087266463
 42
3.1328660073
  0
ELLIPSE
  5
6AA
100
AcDbEntity
  8
DRAFT
100
AcDbEllipse
 62
7
  6
CONTINUOUS
 10
-4.224364956
 20
-6.5527552526
 30
0.0
 11
2.75
 21
0.0
 31
0.0
 40
0.0087268678
 41
-3.1328660073
 42
-0.0087266463
  0
ELLIPSE
  5
6AB
100
AcDbEntity
  8
DRAFT
100
AcDbEllipse
 62
7
  6
CONTINUOUS
 10
6.275635044
 20
-16.6527552526
 30
0.0
 11
2.75
 21
-0.0
 31
0.0
 40
0.0087268678
 41
-3.1328660073
 42
-0.0087266463
  0
ELLIPSE
  5
6AC
100
AcDbEntity
  8
RACCORDO
100
AcDbEllipse
 62
7
  6
CONTINUOUS
 10
9.6756445636
 20
15.1873978588
 30
0.0
 11
0.1767901578
 21
0.1767901578
 31
0.0
 40
0.9999238505
 41
2.3562325663
 42
3.9269527407
  0
ELLIPSE
  5
6AD
100
AcDbEntity
  8
RACCORDO
100
AcDbEllipse
 62
7
  6
CONTINUOUS
 10
10.7088658493
 20
15.4518498035
 30
0.0
 11
0.0
 21
0.4
 31
0.0
 40
0.0174550649
 41
-1.5707963268
 42
-0.0087266463
  0
ELLIPSE
  5
6AE
100
AcDbEntity
  8
RACCORDO
100
AcDbEllipse
 62
7
  6
CONTINUOUS
 10
10.7088658493
 20
15.4229268749
 30
0.0
 11
0.0
 21
0.4
 31
0.0
 40
0.0174550649
 41
-3.1328660073
 42
-1.5707963268
  0
ELLIPSE
  5
6AF
100
AcDbEntity
  8
RACCORDO
100
AcDbEllipse
 62
7
  6
CONTINUOUS
 10
3.425635044
 20
-18.4646685648
 30
0.0
 11
1.0
 21
-0.0
 31
0.0
 40
0.0176699529
 41
0.1166713885
 42
1.5707963268
  0
ELLIPSE
  5
6B0
100
AcDbEntity
  8
RACCORDO
100
AcDbEllipse
 62
7
  6
CONTINUOUS
 10
-1.374364956
 20
-18.4646685648
 30
0.0
 11
1.0
 21
0.0
 31
0.0
 40
0.0176699529
 41
1.5707963268
 42
3.0249212651
  0
ELLIPSE
  5
6B1
100
AcDbEntity
  8
RACCORDO
100
AcDbEllipse
 62
7
  6
CONTINUOUS
 10
3.425635044
 20
21.3394452432
 30
0.0
 11
1.0
 21
-0.0
 31
0.0
 40
0.0176699529
 41
-1.5707963268
 42
-0.1166713885
  0
ELLIPSE
  5
6B2
100
AcDbEntity
  8
RACCORDO
100
AcDbEllipse
 62
7
  6
CONTINUOUS
 10
-1.374364956
 20
21.3394452432
 30
0.0
 11
1.0
 21
-0.0
 31
0.0
 40
0.0176699529
 41
-3.0249212651
 42
-1.5707963268
  0
ELLIPSE
  5
6B3
100
AcDbEntity
  8
RACCORDO
100
AcDbEllipse
 62
7
  6
CONTINUOUS
 10
1.5756255244
 20
15.6873788196
 30
0.0
 11
0.1767901578
 21
0.1767901578
 31
0.0
 40
0.9999238505
 41
-0.7853600872
 42
0.7853600872
  0
ELLIPSE
  5
6B4
100
AcDbEntity
  8
RACCORDO
100
AcDbEllipse
 62
7
  6
CONTINUOUS
 10
5.2102856616
 20
10.5215114388
 30
0.0
 11
0.0
 21
0.5
 31
0.0
 40
0.0087268678
 41
-1.5707963268
 42
-0.0057595865
  0
ELLIPSE
  5
6B5
100
AcDbEntity
  8
RACCORDO
100
AcDbEllipse
 62
7
  6
CONTINUOUS
 10
1.5756255244
 20
15.1873978588
 30
0.0
 11
-0.1767901578
 21
0.1767901578
 31
0.0
 40
0.9999238505
 41
-3.9269527408
 42
-2.3562325664
  0
ELLIPSE
  5
6B6
100
AcDbEntity
  8
RACCORDO
100
AcDbEllipse
 62
7
  6
CONTINUOUS
 10
5.3756445636
 20
11.3873788196
 30
0.0
 11
0.1767901578
 21
-0.1767901578
 31
0.0
 40
0.9999238505
 41
2.3562325663
 42
3.9269527407
  0
ELLIPSE
  5
6B7
100
AcDbEntity
  8
RACCORDO
100
AcDbEllipse
 62
7
  6
CONTINUOUS
 10
6.0409844265
 20
10.5215114388
 30
0.0
 11
-0.0
 21
0.5
 31
0.0
 40
0.0087268678
 41
0.0057595865
 42
1.5707963268
  0
ELLIPSE
  5
6B8
100
AcDbEntity
  8
0
100
AcDbEllipse
 62
7
  6
CONTINUOUS
 10
-4.224364956
 20
20.9442180373
 30
0.0
 11
3.3022581827
 21
-0.0
 31
0.0
 40
0.0174559514
 41
-0.0013512702
 42
3.1429439238
  0
ELLIPSE
  5
6B9
100
AcDbEntity
  8
0
100
AcDbEllipse
 62
7
  6
CONTINUOUS
 10
6.275635044
 20
-18.0694413588
 30
0.0
 11
3.3022581827
 21
-0.0
 31
0.0
 40
0.0174559514
 41
3.1402413834
 42
6.2845365774
  0
ELLIPSE
  5
6BA
100
AcDbEntity
  8
RACCORDO
100
AcDbEllipse
 62
7
  6
CONTINUOUS
 10
-1.4306259014
 20
-6.9299143977
 30
0.0
 11
0.0
 21
1.0
 31
0.0
 40
0.0087268678
 41
-1.65358814
 42
-1.5707963268
  0
ELLIPSE
  5
6BB
100
AcDbEntity
  8
RACCORDO
100
AcDbEllipse
 62
7
  6
CONTINUOUS
 10
-1.4727638661
 20
-6.9299143977
 30
0.0
 11
-0.5095724847
 21
0.9999937684
 31
0.0
 40
0.0069280009
 41
-3.127669687
 42
-1.657118466
  0
ELLIPSE
  5
6BC
100
AcDbEntity
  8
RACCORDO
100
AcDbEllipse
 62
7
  6
CONTINUOUS
 10
-4.224364956
 20
-8.0178484793
 30
0.0
 11
3.26206472
 21
-0.0
 31
0.0
 40
0.0174557553
 41
3.1414253763
 42
4.4870398034
  0
ELLIPSE
  5
6BD
100
AcDbEntity
  8
RACCORDO
100
AcDbEllipse
 62
7
  6
CONTINUOUS
 10
-4.224364956
 20
-8.0178484793
 30
0.0
 11
3.26206472
 21
0.0
 31
0.0
 40
0.0174557553
 41
-1.3454471498
 42
0.0001672773
  0
ELLIPSE
  5
6BE
100
AcDbEntity
  8
RACCORDO
100
AcDbEllipse
 62
7
  6
CONTINUOUS
 10
10.3305038974
 20
19.8497015185
 30
0.0
 11
1.414225291
 21
-0.0000234575
 31
0.0
 40
0.0040726202
 41
1.5247596455
 42
1.5748690596
  0
ELLIPSE
  5
6BF
100
AcDbEntity
  8
RACCORDO
100
AcDbEllipse
 62
7
  6
CONTINUOUS
 10
10.037730049
 20
11.5773966325
 30
0.0
 11
-0.4748987463
 21
0.1567024058
 31
0.0
 40
0.9998311164
 41
1.8895672219
 42
3.4602630306
  0
ELLIPSE
  5
6C0
100
AcDbEntity
  8
RACCORDO
100
AcDbEllipse
 62
7
  6
CONTINUOUS
 10
1.7956433374
 20
11.5773966325
 30
0.0
 11
0.353565119
 21
0.353565119
 31
0.0
 40
0.9999668281
 41
2.3562110764
 42
3.9269742308
  0
ELLIPSE
  5
6C1
100
AcDbEntity
  8
RACCORDO
100
AcDbEllipse
 62
7
  6
CONTINUOUS
 10
-6.9759660458
 20
-6.9299143977
 30
0.0
 11
0.5095724847
 21
0.9999937684
 31
0.0
 40
0.0069280009
 41
-4.6260668412
 42
-3.1555156201
  0
ELLIPSE
  5
6C2
100
AcDbEntity
  8
RACCORDO
100
AcDbEllipse
 62
7
  6
CONTINUOUS
 10
-7.0181040105
 20
-6.9299143977
 30
0.0
 11
0.0
 21
1.0
 31
0.0
 40
0.0087268678
 41
1.5707963268
 42
1.65358814
  0
ELLIPSE
  5
6C3
100
AcDbEntity
  8
RACCORDO
100
AcDbEllipse
 62
7
  6
CONTINUOUS
 10
10.037730049
 20
19.2373800459
 30
0.0
 11
0.4748987463
 21
0.1567024058
 31
0.0
 40
0.9998311164
 41
-0.318670377
 42
1.2520254317
  0
ELLIPSE
  5
6C4
100
AcDbEntity
  8
RACCORDO
100
AcDbEllipse
 62
7
  6
CONTINUOUS
 10
1.6775705079
 20
19.3554528754
 30
0.0
 11
-0.353565119
 21
0.353565119
 31
0.0
 40
0.9999668281
 41
-0.7853815771
 42
0.7853815772
  0
ELLIPSE
  5
6C5
100
AcDbEntity
  8
RACCORDO
100
AcDbEllipse
 62
7
  6
CONTINUOUS
 10
1.7956433374
 20
19.2373800459
 30
0.0
 11
-0.353565119
 21
0.353565119
 31
0.0
 40
0.9999668281
 41
-0.7853815772
 42
0.7853815772
  0
ELLIPSE
  5
6C6
100
AcDbEntity
  8
RACCORDO
100
AcDbEllipse
 62
7
  6
CONTINUOUS
 10
1.7368949051
 20
-3.282748328
 30
0.0
 11
0.1567024058
 21
0.4748987463
 31
0.0
 40
0.9998311164
 41
1.8895672219
 42
3.4602630306
  0
ELLIPSE
  5
6C7
100
AcDbEntity
  8
RACCORDO
100
AcDbEllipse
 62
7
  6
CONTINUOUS
 10
1.6775705079
 20
-3.4625354968
 30
0.0
 11
0.1567024058
 21
0.4748987463
 31
0.0
 40
0.9998311164
 41
-4.3936180852
 42
-2.8229222765
  0
ELLIPSE
  5
6C8
100
AcDbEntity
  8
RACCORDO
100
AcDbEllipse
 62
7
  6
CONTINUOUS
 10
10.2157717113
 20
-3.282748328
 30
0.0
 11
-0.3536610946
 21
0.3536610946
 31
0.0
 40
0.9996954599
 41
2.3563467834
 42
3.9268385237
  0
ELLIPSE
  5
6C9
100
AcDbEntity
  8
RACCORDO
100
AcDbEllipse
 62
7
  6
CONTINUOUS
 10
10.39555888
 20
-3.4625354968
 30
0.0
 11
0.3536610946
 21
-0.3536610946
 31
0.0
 40
0.9996954599
 41
-0.7852458701
 42
0.1875048594
  0
ELLIPSE
  5
6CA
100
AcDbEntity
  8
RACCORDO
100
AcDbEllipse
 62
7
  6
CONTINUOUS
 10
1.5206462574
 20
15.6323995525
 30
0.0
 11
0.1767901578
 21
0.1767901578
 31
0.0
 40
0.9999238505
 41
0.6247131845
 42
0.6651961376
  0
ELLIPSE
  5
6CB
100
AcDbEntity
  8
RACCORDO
100
AcDbEllipse
 62
7
  6
CONTINUOUS
 10
1.5206462574
 20
15.2423771259
 30
0.0
 11
0.1767901578
 21
-0.1767901578
 31
0.0
 40
0.9999238505
 41
-0.6651961376
 42
-0.6247131845
  0
ELLIPSE
  5
6CC
100
AcDbEntity
  8
RACCORDO
100
AcDbEllipse
 62
7
  6
CONTINUOUS
 10
5.4306238307
 20
11.3323995525
 30
0.0
 11
-0.1767901578
 21
0.1767901578
 31
0.0
 40
0.9999238505
 41
0.6247131845
 42
0.6626518687
  0
ELLIPSE
  5
6CD
100
AcDbEntity
  8
RACCORDO
100
AcDbEllipse
 62
7
  6
CONTINUOUS
 10
5.8206462574
 20
11.3323995525
 30
0.0
 11
0.1767901578
 21
0.1767901578
 31
0.0
 40
0.9999238505
 41
-0.6626518687
 42
-0.6247131845
  0
ELLIPSE
  5
6CE
100
AcDbEntity
  8
RACCORDO
100
AcDbEllipse
 62
7
  6
CONTINUOUS
 10
5.8206462574
 20
19.5423771259
 30
0.0
 11
0.1767901578
 21
-0.1767901578
 31
0.0
 40
0.9999238505
 41
0.6247131845
 42
0.6651961376
  0
ELLIPSE
  5
6CF
100
AcDbEntity
  8
RACCORDO
100
AcDbEllipse
 62
7
  6
CONTINUOUS
 10
5.4306238307
 20
19.5423771259
 30
0.0
 11
-0.1767901578
 21
-0.1767901578
 31
0.0
 40
0.9999238505
 41
-0.6651961376
 42
-0.6247131845
  0
ELLIPSE
  5
6D0
100
AcDbEntity
  8
RACCORDO
100
AcDbEllipse
 62
7
  6
CONTINUOUS
 10
9.7308857099
 20
15.6321376734
 30
0.0
 11
0.232996159
 21
-0.0977033526
 31
0.0
 40
0.9877345005
 41
1.9635525228
 42
3.5342726972
  0
ELLIPSE
  5
6D1
100
AcDbEntity
  8
RACCORDO
100
AcDbEllipse
 62
7
  6
CONTINUOUS
 10
9.7308857099
 20
15.242639005
 30
0.0
 11
0.232996159
 21
0.0977033526
 31
0.0
 40
0.9877345005
 41
2.74891261
 42
4.3196327844
  0
ELLIPSE
  5
6D2
100
AcDbEntity
  8
RACCORDO
100
AcDbEllipse
 62
7
  6
CONTINUOUS
 10
1.5202971129
 20
15.6320504081
 30
0.0
 11
0.232996159
 21
0.0977033526
 31
0.0
 40
0.9877345005
 41
-0.3926800436
 42
1.0173932281
  0
ELLIPSE
  5
6D3
100
AcDbEntity
  8
RACCORDO
100
AcDbEllipse
 62
7
  6
CONTINUOUS
 10
1.5202971129
 20
15.2427262704
 30
0.0
 11
0.232996159
 21
-0.0977033526
 31
0.0
 40
0.9877345005
 41
-1.0173932281
 42
0.3926800436
  0
ELLIPSE
  5
6D4
100
AcDbEntity
  8
RACCORDO
100
AcDbEllipse
 62
7
  6
CONTINUOUS
 10
5.4309729752
 20
11.3320504081
 30
0.0
 11
-0.0977033526
 21
0.232996159
 31
0.0
 40
0.9877345005
 41
-0.3926800436
 42
1.0173932281
  0
ELLIPSE
  5
6D5
100
AcDbEntity
  8
RACCORDO
100
AcDbEllipse
 62
7
  6
CONTINUOUS
 10
5.8202971129
 20
11.3320504081
 30
0.0
 11
0.0977033526
 21
0.232996159
 31
0.0
 40
0.9877345005
 41
-1.0173932281
 42
0.3926800436
  0
ELLIPSE
  5
6D6
100
AcDbEntity
  8
RACCORDO
100
AcDbEllipse
 62
7
  6
CONTINUOUS
 10
5.8202971129
 20
19.5427262704
 30
0.0
 11
-0.0977033526
 21
0.232996159
 31
0.0
 40
0.9877345005
 41
-3.5342726972
 42
-2.1241994255
  0
ELLIPSE
  5
6D7
100
AcDbEntity
  8
RACCORDO
100
AcDbEllipse
 62
7
  6
CONTINUOUS
 10
5.8756255244
 20
11.3873788196
 30
0.0
 11
0.1767901578
 21
0.1767901578
 31
0.0
 40
0.9999238505
 41
-0.7853600872
 42
0.7853600872
  0
ELLIPSE
  5
6D8
100
AcDbEntity
  8
RACCORDO
100
AcDbEllipse
 62
7
  6
CONTINUOUS
 10
5.4309729752
 20
19.5427262704
 30
0.0
 11
0.0977033526
 21
0.232996159
 31
0.0
 40
0.9877345005
 41
-4.1589858817
 42
-2.74891261
  0
ELLIPSE
  5
6D9
100
AcDbEntity
  8
0
100
AcDbEllipse
 62
7
  6
CONTINUOUS
 10
-1.5063649432
 20
19.8562094658
 30
0.0
 11
0.5774011102
 21
0.9999928594
 31
0.0
 40
0.0065449328
 41
-1.4354592308
 42
-0.0136742321
  0
ELLIPSE
  5
6DA
100
AcDbEntity
  8
0
100
AcDbEllipse
 62
7
  6
CONTINUOUS
 10
-6.9423649687
 20
19.8562094658
 30
0.0
 11
-0.5774011102
 21
0.9999928594
 31
0.0
 40
0.0065449328
 41
0.0136742321
 42
1.4354592308
  0
ELLIPSE
  5
6DB
100
AcDbEntity
  8
0
100
AcDbEllipse
 62
7
  6
CONTINUOUS
 10
3.5576350313
 20
-16.9814327874
 30
0.0
 11
0.5774011102
 21
0.9999928594
 31
0.0
 40
0.0065449328
 41
-4.5770518843
 42
-3.1552668857
  0
ELLIPSE
  5
6DC
100
AcDbEntity
  8
0
100
AcDbEllipse
 62
7
  6
CONTINUOUS
 10
8.9936350568
 20
-16.9814327874
 30
0.0
 11
-0.5774011102
 21
0.9999928594
 31
0.0
 40
0.0065449328
 41
-3.1279184215
 42
-1.7061334228
  0
ELLIPSE
  5
6DD
100
AcDbEntity
  8
RACCORDO
100
AcDbEllipse
 62
7
  6
CONTINUOUS
 10
5.8756255244
 20
19.4873978588
 30
0.0
 11
0.1767901578
 21
-0.1767901578
 31
0.0
 40
0.9999238505
 41
-0.7853600873
 42
0.7853600871
  0
ELLIPSE
  5
6DE
100
AcDbEntity
  8
0
100
AcDbEllipse
 62
7
  6
CONTINUOUS
 10
-7.0181040105
 20
19.8562094658
 30
0.0
 11
0.0
 21
1.0
 31
0.0
 40
0.0087268678
 41
1.4392382912
 42
1.5707963268
  0
ELLIPSE
  5
6DF
100
AcDbEntity
  8
0
100
AcDbEllipse
 62
7
  6
CONTINUOUS
 10
-1.4306259014
 20
19.8562094658
 30
0.0
 11
0.0
 21
1.0
 31
0.0
 40
0.0087268678
 41
-1.5707963268
 42
-1.4392382912
  0
ELLIPSE
  5
6E0
100
AcDbEntity
  8
0
100
AcDbEllipse
 62
7
  6
CONTINUOUS
 10
9.0693740986
 20
-16.9814327874
 30
0.0
 11
-0.0
 21
1.0
 31
0.0
 40
0.0087268678
 41
-1.7023543624
 42
-1.5707963268
  0
ELLIPSE
  5
6E1
100
AcDbEntity
  8
0
100
AcDbEllipse
 62
7
  6
CONTINUOUS
 10
3.4818959895
 20
-16.9814327874
 30
0.0
 11
0.0
 21
1.0
 31
0.0
 40
0.0087268678
 41
1.5707963268
 42
1.7023543624
  0
ELLIPSE
  5
6E2
100
AcDbEntity
  8
RACCORDO
100
AcDbEllipse
 62
7
  6
CONTINUOUS
 10
5.3756445636
 20
19.4873978588
 30
0.0
 11
0.1767901578
 21
0.1767901578
 31
0.0
 40
0.9999238505
 41
-3.9269527407
 42
-2.3562325664
  0
ELLIPSE
  5
6E3
100
AcDbEntity
  8
RACCORDO
100
AcDbEllipse
 62
7
  6
CONTINUOUS
 10
9.6756445636
 20
15.6873788196
 30
0.0
 11
0.1767901578
 21
-0.1767901578
 31
0.0
 40
0.9999238505
 41
2.3562325664
 42
3.9269527407
  0
ELLIPSE
  5
6E4
100
AcDbEntity
  8
RACCORDO
100
AcDbEllipse
 62
7
  6
CONTINUOUS
 10
1.2985117933
 20
15.8502941987
 30
0.0
 11
0.22
 21
0.0
 31
0.0
 40
0.0087268678
 41
-1.5707963268
 42
-0.536800778
  0
ELLIPSE
  5
6E5
100
AcDbEntity
  8
RACCORDO
100
AcDbEllipse
 62
7
  6
CONTINUOUS
 10
1.2985117933
 20
15.0244824798
 30
0.0
 11
0.22
 21
0.0
 31
0.0
 40
0.0087268678
 41
0.536800778
 42
1.5707963268
  0
ELLIPSE
  5
6E6
100
AcDbEntity
  8
RACCORDO
100
AcDbEllipse
 62
7
  6
CONTINUOUS
 10
5.2127291846
 20
19.7645115899
 30
0.0
 11
-0.0
 21
0.22
 31
0.0
 40
0.0087268678
 41
-2.6047918756
 42
-1.5707963268
  0
ELLIPSE
  5
6E7
100
AcDbEntity
  8
RACCORDO
100
AcDbEllipse
 62
7
  6
CONTINUOUS
 10
6.0385409035
 20
19.7645115899
 30
0.0
 11
0.0
 21
0.22
 31
0.0
 40
0.0087268678
 41
1.5707963268
 42
2.6047918756
  0
ELLIPSE
  5
6E8
100
AcDbEntity
  8
RACCORDO
100
AcDbEllipse
 62
7
  6
CONTINUOUS
 10
5.2102856616
 20
10.8333293506
 30
0.0
 11
0.0
 21
0.5
 31
0.0
 40
0.0087268678
 41
-1.5707963268
 42
-0.3603929629
  0
ELLIPSE
  5
6E9
100
AcDbEntity
  8
RACCORDO
100
AcDbEllipse
 62
7
  6
CONTINUOUS
 10
6.0409844265
 20
10.8333293506
 30
0.0
 11
-0.0
 21
0.5
 31
0.0
 40
0.0087268678
 41
0.3603929629
 42
1.5707963268
  0
ENDSEC
  0
SECTION
  2
OBJECTS
  0
DICTIONARY
  5
C
100
AcDbDictionary
280
0
281
1
  3
ACAD_GROUP
350
D
  3
ACAD_MLINESTYLE
350
17
  3
ACAD_LAYOUT
350
1A
  3
ACAD_PLOTSETTINGS
350
19
  3
ACAD_PLOTSTYLENAME
350
E
  0
DICTIONARY
  5
D
102
{ACAD_REACTORS
330
C
102
}
100
AcDbDictionary
280
0
281
1
  0
ACDBDICTIONARYWDFLT
  5
E
102
{ACAD_REACTORS
330
C
102
}
100
AcDbDictionary
281
1
  3
Normal
350
F
100
AcDbDictionaryWithDefault
340
F
  0
DICTIONARY
  5
17
102
{ACAD_REACTORS
330
C
102
}
100
AcDbDictionary
280
0
281
1
  3
Standard
350
18
  0
DICTIONARY
  5
19
102
{ACAD_REACTORS
330
C
102
}
100
AcDbDictionary
281
1
  0
DICTIONARY
  5
1A
102
{ACAD_REACTORS
330
C
102
}
100
AcDbDictionary
281
1
  3
Model
350
6EA
  3
Layout1
350
6EB
  0
ACDBPLACEHOLDER
  5
F
102
{ACAD_REACTORS
330
E
102
}
  0
MLINESTYLE
  5
18
102
{ACAD_REACTORS
330
17
102
}
100
AcDbMlineStyle
  2
STANDARD
 70
0
  3

 62
256
 51
90.0
 52
90.0
 71
2
 49
0.5
 62
256
  6
BYLAYER
 49
-0.5
 62
256
  6
BYLAYER
  0
LAYOUT
  5
6EA
102
{ACAD_REACTORS
330
1A
102
}
100
AcDbPlotSettings
  1

  2
none_device
  4
ISO_A4_(297.00_x_210.00_MM)
  6

 40
0.0
 41
0.0
 42
0.0
 43
0.0
 44
297.0
 45
210.0
 46
0.0
 47
0.0
 48
0.0
 49
0.0
140
0.0
141
0.0
142
1.0
143
1.0
 70
1024
 72
1
 73
0
 74
0
  7

 75
0
147
1.0
148
0.0
149
0.0
100
AcDbLayout
  1
Model
 70
0
 71
0
 10
0.0
 20
0.0
 11
297.0
 21
210.0
 12
0.0
 22
0.0
 32
0.0
 14
0.0
 24
0.0
 34
0.0
 15
0.0
 25
0.0
 35
0.0
146
0.0
 13
0.0
 23
0.0
 33
0.0
 16
1.0
 26
0.0
 36
0.0
 17
0.0
 27
1.0
 37
0.0
 76
0
330
219
345
0
346
0
  0
LAYOUT
  5
6EB
102
{ACAD_REACTORS
330
1A
102
}
100
AcDbPlotSettings
  1

  2
none_device
  4
ISO_A4_(297.00_x_210.00_MM)
  6

 40
0.0
 41
0.0
 42
0.0
 43
0.0
 44
297.0
 45
210.0
 46
0.0
 47
0.0
 48
0.0
 49
0.0
140
0.0
141
0.0
142
1.0
143
1.0
 70
0
 72
1
 73
0
 74
0
  7

 75
0
147
1.0
148
0.0
149
0.0
100
AcDbLayout
  1
Layout1
 70
0
 71
1
 10
0.0
 20
0.0
 11
297.0
 21
210.0
 12
0.0
 22
0.0
 32
0.0
 14
0.0
 24
0.0
 34
0.0
 15
0.0
 25
0.0
 35
0.0
146
0.0
 13
0.0
 23
0.0
 33
0.0
 16
1.0
 26
0.0
 36
0.0
 17
0.0
 27
1.0
 37
0.0
 76
0
330
21A
345
0
346
0
  0
ENDSEC
  0
EOF
