  0
SECTION
  2
HEADER
  9
$ACADVER
  1
AC1024
  9
$DWGCODEPAGE
  3
ANSI_1252
  9
$EXTMAX
 10
297.0
 20
210.0
 30
0.0
  9
$EXTMIN
 10
0.0
 20
0.0
 30
0.0
  9
$LIMMIN
 10
0.0
 20
0.0
  9
$LIMMAX
 10
297.0
 20
210.0
  9
$VIEWCTR
 10
148.5
 20
105.0
  9
$VIEWSIZE
 40
210.0
  9
$CLAYER
  8
0
  9
$LTSCALE
 40
16.335
  9
$CELTYPE
  6
BYLAYER
  9
$DIMSCALE
 40
1.0
  9
$DIMASZ
 40
3.0
  9
$DIMEXO
 40
0.5
  9
$DIMDLI
 40
11.286
  9
$DIMEXE
 40
1.5
  9
$DIMCEN
 40
2.673
  9
$DIMLFAC
 40
1.0
  9
$DIMBLK
  1
_FILLED
  9
$DIMALT
 70
0
  9
$DIMALTF
 40
0.0393700787
  9
$DIMTXT
 40
3.0
  9
$DIMTOL
 70
1
  9
$DIMLIM
 70
0
  9
$DIMTFAC
 40
1.0
  9
$DIMTP
 40
0.01
  9
$DIMTM
 40
0.01
  9
$DIMGAP
 40
0.625
  9
$DIMDSEP
 70
44
  9
$AUNITS
 70
0
  9
$PDMODE
 70
3
  9
$PDSIZE
 40
3.0
  9
$HANDSEED
  5
460
  9
$TILEMODE
 70
1
  9
$MEASUREMENT
 70
1
  9
$INSUNITS
 70
4
  0
ENDSEC
  0
SECTION
  2
CLASSES
  0
CLASS
  1
ACDBDICTIONARYWDFLT
  2
AcDbDictionaryWithDefault
  3
AutoCAD 2000
 90
0
 91
1
280
0
281
0
  0
CLASS
  1
ACDBPLACEHOLDER
  2
AcDbPlaceHolder
  3
AutoCAD 2000
 90
0
 91
1
280
0
281
0
  0
CLASS
  1
LAYOUT
  2
AcDbLayout
  3
AutoCAD 2000
 90
0
 91
0
280
0
281
0
  0
ENDSEC
  0
SECTION
  2
TABLES
  0
TABLE
  2
VPORT
  5
8
100
AcDbSymbolTable
 70
2
  0
VPORT
  5
1F4
100
AcDbSymbolTableRecord
100
AcDbViewportTableRecord
  2
*ACTIVE
 70
0
 10
0.0
 20
0.0
 11
1.0
 21
1.0
 12
148.5
 22
105.0
 13
0.0
 23
0.0
 14
1.0
 24
1.0
 15
0.0
 25
0.0
 16
0.0
 26
0.0
 36
1.0
 17
0.0
 27
0.0
 37
0.0
 40
210.0
 41
1.4142857143
 42
50.0
 43
0.0
 44
0.0
 50
0.0
 51
0.0
 71
0
 72
100
 73
1
 74
1
 75
0
 76
0
 77
0
 78
0
  0
ENDTAB
  0
TABLE
  2
LTYPE
  5
5
100
AcDbSymbolTable
 70
6
  0
LTYPE
  5
14
100
AcDbSymbolTableRecord
100
AcDbLinetypeTableRecord
  2
BYBLOCK
 70
0
  3

 72
65
 73
0
 40
0.0
  0
LTYPE
  5
15
100
AcDbSymbolTableRecord
100
AcDbLinetypeTableRecord
  2
BYLAYER
 70
0
  3

 72
65
 73
0
 40
0.0
  0
LTYPE
  5
16
100
AcDbSymbolTableRecord
100
AcDbLinetypeTableRecord
  2
CONTINUOUS
 70
64
  3
Solid line
 72
65
 73
0
 40
0.0
  0
LTYPE
  5
1F5
100
AcDbSymbolTableRecord
100
AcDbLinetypeTableRecord
  2
CENTER
 70
64
  3
____ _ ____ _ ____ _ ____ _ ____ _ ____ _ ____
 72
65
 73
4
 40
0.6
 49
0.375
 74
0
 49
-0.075
 74
0
 49
0.075
 74
0
 49
-0.075
 74
0
  0
LTYPE
  5
1F6
100
AcDbSymbolTableRecord
100
AcDbLinetypeTableRecord
  2
HIDDEN
 70
64
  3
- - - - - - - - - - - - - - - - - - - -
 72
65
 73
2
 40
0.2
 49
0.1
 74
0
 49
-0.1
 74
0
  0
LTYPE
  5
1F7
100
AcDbSymbolTableRecord
100
AcDbLinetypeTableRecord
  2
PHANTOM
 70
64
  3
_____ _ _ _____ _ _ _____ _ _ _____
 72
65
 73
6
 40
0.8
 49
0.45
 74
0
 49
-0.05
 74
0
 49
0.1
 74
0
 49
-0.05
 74
0
 49
0.1
 74
0
 49
-0.05
 74
0
  0
LTYPE
  5
1F8
100
AcDbSymbolTableRecord
100
AcDbLinetypeTableRecord
  2
DOT
 70
64
  3
. . . . . . . . . . . . . . . . . . . .
 72
65
 73
2
 40
0.2
 49
0.1
 74
0
 49
-0.1
 74
0
  0
LTYPE
  5
1F9
100
AcDbSymbolTableRecord
100
AcDbLinetypeTableRecord
  2
DASHED
 70
64
  3
- - - - - - - - - - - - - - - - - - - -
 72
65
 73
2
 40
0.2
 49
0.1
 74
0
 49
-0.1
 74
0
  0
ENDTAB
  0
TABLE
  2
LAYER
  5
2
100
AcDbSymbolTable
 70
36
  0
LAYER
  5
10
100
AcDbSymbolTableRecord
100
AcDbLayerTableRecord
  2
0
 70
0
 62
7
  6
CONTINUOUS
370
-3
390
F
  0
LAYER
  5
1FA
100
AcDbSymbolTableRecord
100
AcDbLayerTableRecord
  2
DEFAULT_1
 70
0
 62
7
  6
CENTER
370
-3
390
F
  0
LAYER
  5
1FB
100
AcDbSymbolTableRecord
100
AcDbLayerTableRecord
  2
DEFAULT_2
 70
0
 62
7
  6
HIDDEN
370
-3
390
F
  0
LAYER
  5
1FC
100
AcDbSymbolTableRecord
100
AcDbLayerTableRecord
  2
DEFAULT_3
 70
0
 62
7
  6
PHANTOM
370
-3
390
F
  0
LAYER
  5
1FD
100
AcDbSymbolTableRecord
100
AcDbLayerTableRecord
  2
ASSI
 70
0
 62
7
  6
CONTINUOUS
370
-3
390
F
  0
LAYER
  5
1FE
100
AcDbSymbolTableRecord
100
AcDbLayerTableRecord
  2
COLOR9
 70
0
 62
7
  6
CONTINUOUS
370
-3
390
F
  0
LAYER
  5
1FF
100
AcDbSymbolTableRecord
100
AcDbLayerTableRecord
  2
COORDINATE
 70
0
 62
7
  6
CONTINUOUS
370
-3
390
F
  0
LAYER
  5
200
100
AcDbSymbolTableRecord
100
AcDbLayerTableRecord
  2
COORD_ORIGINE
 70
0
 62
7
  6
CONTINUOUS
370
-3
390
F
  0
LAYER
  5
201
100
AcDbSymbolTableRecord
100
AcDbLayerTableRecord
  2
COPY_0
 70
0
 62
7
  6
CONTINUOUS
370
-3
390
F
  0
LAYER
  5
202
100
AcDbSymbolTableRecord
100
AcDbLayerTableRecord
  2
CURVE
 70
0
 62
7
  6
CONTINUOUS
370
-3
390
F
  0
LAYER
  5
203
100
AcDbSymbolTableRecord
100
AcDbLayerTableRecord
  2
DRAFT
 70
0
 62
7
  6
CONTINUOUS
370
-3
390
F
  0
LAYER
  5
204
100
AcDbSymbolTableRecord
100
AcDbLayerTableRecord
  2
IGS_SIMBOLO
 70
0
 62
7
  6
CONTINUOUS
370
-3
390
F
  0
LAYER
  5
205
100
AcDbSymbolTableRecord
100
AcDbLayerTableRecord
  2
NOTE
 70
0
 62
7
  6
CONTINUOUS
370
-3
390
F
  0
LAYER
  5
206
100
AcDbSymbolTableRecord
100
AcDbLayerTableRecord
  2
PIANI
 70
0
 62
7
  6
CONTINUOUS
370
-3
390
F
  0
LAYER
  5
207
100
AcDbSymbolTableRecord
100
AcDbLayerTableRecord
  2
PIANI_ORIGINE
 70
0
 62
7
  6
CONTINUOUS
370
-3
390
F
  0
LAYER
  5
208
100
AcDbSymbolTableRecord
100
AcDbLayerTableRecord
  2
PIANI_RIFERIMENTO
 70
0
 62
7
  6
CONTINUOUS
370
-3
390
F
  0
LAYER
  5
209
100
AcDbSymbolTableRecord
100
AcDbLayerTableRecord
  2
RACCORDO
 70
0
 62
7
  6
CONTINUOUS
370
-3
390
F
  0
LAYER
  5
20A
100
AcDbSymbolTableRecord
100
AcDbLayerTableRecord
  2
SNAPLINE
 70
0
 62
7
  6
CONTINUOUS
370
-3
390
F
  0
LAYER
  5
20B
100
AcDbSymbolTableRecord
100
AcDbLayerTableRecord
  2
SUPERFICI
 70
0
 62
7
  6
CONTINUOUS
370
-3
390
F
  0
LAYER
  5
20C
100
AcDbSymbolTableRecord
100
AcDbLayerTableRecord
  2
TRASH
 70
0
 62
7
  6
CONTINUOUS
370
-3
390
F
  0
LAYER
  5
20D
100
AcDbSymbolTableRecord
100
AcDbLayerTableRecord
  2
XSEC_DATUMS
 70
0
 62
7
  6
CONTINUOUS
370
-3
390
F
  0
ENDTAB
  0
TABLE
  2
STYLE
  5
3
100
AcDbSymbolTable
 70
1
  0
STYLE
  5
11
100
AcDbSymbolTableRecord
100
AcDbTextStyleTableRecord
  2
STANDARD
 70
0
 40
0.0
 41
0.8
 50
0.0
 71
0
 42
0.2
  3
txt
  4

  0
STYLE
  5
20E
100
AcDbSymbolTableRecord
100
AcDbTextStyleTableRecord
  2
TEXTSTYLE_1
 70
0
 40
0.0
 41
0.8
 50
0.0
 71
0
 42
0.2
  3
gdt
  4

  0
ENDTAB
  0
TABLE
  2
VIEW
  5
6
100
AcDbSymbolTable
 70
0
  0
ENDTAB
  0
TABLE
  2
UCS
  5
7
100
AcDbSymbolTable
 70
0
  0
ENDTAB
  0
TABLE
  2
APPID
  5
9
100
AcDbSymbolTable
 70
1
  0
APPID
  5
20F
100
AcDbSymbolTableRecord
100
AcDbRegAppTableRecord
  2
ACAD
 70
0
  0
ENDTAB
  0
TABLE
  2
BLOCK_RECORD
  5
1
100
AcDbSymbolTable
 70
0
  0
BLOCK_RECORD
  5
210
100
AcDbSymbolTableRecord
100
AcDbBlockTableRecord
  2
*Model_Space
  0
BLOCK_RECORD
  5
211
100
AcDbSymbolTableRecord
100
AcDbBlockTableRecord
  2
*Paper_Space
  0
BLOCK_RECORD
  5
212
100
AcDbSymbolTableRecord
100
AcDbBlockTableRecord
  2
_FILLED
  0
ENDTAB
  0
TABLE
  2
DIMSTYLE
  5
A
100
AcDbSymbolTable
 70
1
100
AcDbDimStyleTable
 71
0
  0
DIMSTYLE
105
213
100
AcDbSymbolTableRecord
100
AcDbDimStyleTableRecord
  2
STANDARD
 70
0
  3

  4

 40
1.0
 41
3.0
 42
0.5
 43
0.38
 44
1.5
 45
0.0
 46
0.0
 47
0.01
 48
0.01
140
3.0
141
0.09
142
0.0
143
25.4
144
1.0
145
0.0
146
1.0
147
0.625
 71
1
 72
0
 73
0
 74
0
 75
0
 76
0
 77
1
 78
8
 79
2
170
0
171
1
172
0
173
0
174
0
175
0
176
0
177
0
178
0
270
2
179
2
271
2
272
2
273
2
274
2
275
0
280
0
281
0
282
0
283
1
284
8
285
0
286
0
287
3
288
0
340
11
278
44
341
212
342
212
343
212
344
212
  0
ENDTAB
  0
ENDSEC
  0
SECTION
  2
BLOCKS
  0
BLOCK
  5
20
100
AcDbEntity
  8
0
100
AcDbBlockBegin
  2
*Model_Space
 70
0
 10
0.0
 20
0.0
 30
0.0
  3
*Model_Space
  1

  0
ENDBLK
  5
21
100
AcDbEntity
  8
0
100
AcDbBlockEnd
  0
BLOCK
  5
1C
100
AcDbEntity
  8
0
100
AcDbBlockBegin
  2
*Paper_Space
 70
0
 10
0.0
 20
0.0
 30
0.0
  3
*Paper_Space
  1

  0
ENDBLK
  5
1D
100
AcDbEntity
  8
0
100
AcDbBlockEnd
  0
BLOCK
  5
214
100
AcDbEntity
  8
0
100
AcDbBlockBegin
  2
_FILLED
 70
64
 10
0.0
 20
0.0
  3
_FILLED
  1

  0
SOLID
  5
215
100
AcDbEntity
  8
0
  6
BYBLOCK
 62
0
100
AcDbTrace
 10
0.0
 20
0.0
 11
-1.0
 21
0.3166666667
 12
-1.0
 22
-0.3166666667
 13
-1.0
 23
-0.3166666667
  0
ENDBLK
  5
216
100
AcDbEntity
  8
0
  6
BYBLOCK
 62
0
100
AcDbBlockEnd
  0
ENDSEC
  0
SECTION
  2
ENTITIES
  0
LINE
  5
217
100
AcDbEntity
  8
RACCORDO
100
AcDbLine
 62
7
  6
CONTINUOUS
 10
-10.5001713375
 20
-22.1
 11
10.5001713375
 21
-22.1
  0
LINE
  5
218
100
AcDbEntity
  8
RACCORDO
100
AcDbLine
 62
7
  6
CONTINUOUS
 10
9.5001028025
 20
-20.6
 11
7.5
 21
-20.6
  0
LINE
  5
219
100
AcDbEntity
  8
DRAFT
100
AcDbLine
 62
7
  6
CONTINUOUS
 10
7.5
 20
-20.6
 11
-7.5
 21
-20.6
  0
LINE
  5
21A
100
AcDbEntity
  8
RACCORDO
100
AcDbLine
 62
7
  6
CONTINUOUS
 10
-7.5
 20
-20.6
 11
-9.5001028025
 21
-20.6
  0
LINE
  5
21B
100
AcDbEntity
  8
RACCORDO
100
AcDbLine
 62
7
  6
CONTINUOUS
 10
3.9632986652
 20
-20.5528653412
 11
3.8367013348
 21
-20.5528653412
  0
LINE
  5
21C
100
AcDbEntity
  8
RACCORDO
100
AcDbLine
 62
7
  6
CONTINUOUS
 10
-3.8367013348
 20
-20.5528653412
 11
-3.9632986652
 21
-20.5528653412
  0
LINE
  5
21D
100
AcDbEntity
  8
RACCORDO
100
AcDbLine
 62
250
  6
CONTINUOUS
 10
-9.4095764515
 20
-20.509473649
 11
-7.409473649
 21
-20.509473649
  0
LINE
  5
21E
100
AcDbEntity
  8
RACCORDO
100
AcDbLine
 62
250
  6
CONTINUOUS
 10
-6.0
 20
-20.509473649
 11
-4.2870319667
 21
-20.509473649
  0
LINE
  5
21F
100
AcDbEntity
  8
RACCORDO
100
AcDbLine
 62
250
  6
CONTINUOUS
 10
-3.5129680333
 20
-20.509473649
 11
3.5129680333
 21
-20.509473649
  0
LINE
  5
220
100
AcDbEntity
  8
RACCORDO
100
AcDbLine
 62
250
  6
CONTINUOUS
 10
4.2870319667
 20
-20.509473649
 11
6.0
 21
-20.509473649
  0
LINE
  5
221
100
AcDbEntity
  8
RACCORDO
100
AcDbLine
 62
250
  6
CONTINUOUS
 10
7.409473649
 20
-20.509473649
 11
9.4095764515
 21
-20.509473649
  0
LINE
  5
222
100
AcDbEntity
  8
RACCORDO
100
AcDbLine
 62
250
  6
CONTINUOUS
 10
-9.4095764515
 20
-20.2517243354
 11
-7.1517243354
 21
-20.2517243354
  0
LINE
  5
223
100
AcDbEntity
  8
RACCORDO
100
AcDbLine
 62
250
  6
CONTINUOUS
 10
-6.0
 20
-20.2517243354
 11
-4.2920794726
 21
-20.2517243354
  0
LINE
  5
224
100
AcDbEntity
  8
RACCORDO
100
AcDbLine
 62
250
  6
CONTINUOUS
 10
-3.5079205274
 20
-20.2517243354
 11
3.5079205274
 21
-20.2517243354
  0
LINE
  5
225
100
AcDbEntity
  8
RACCORDO
100
AcDbLine
 62
250
  6
CONTINUOUS
 10
4.2920794726
 20
-20.2517243354
 11
6.0
 21
-20.2517243354
  0
LINE
  5
226
100
AcDbEntity
  8
RACCORDO
100
AcDbLine
 62
250
  6
CONTINUOUS
 10
7.1517243354
 20
-20.2517243354
 11
9.4095764515
 21
-20.2517243354
  0
LINE
  5
227
100
AcDbEntity
  8
0
100
AcDbLine
 62
7
  6
CONTINUOUS
 10
6.0
 20
-20.0
 11
6.9
 21
-20.0
  0
LINE
  5
228
100
AcDbEntity
  8
0
100
AcDbLine
 62
7
  6
CONTINUOUS
 10
-6.0
 20
-20.0
 11
-6.9
 21
-20.0
  0
LINE
  5
229
100
AcDbEntity
  8
RACCORDO
100
AcDbLine
 62
250
  6
CONTINUOUS
 10
3.5367470262
 20
-19.929435023
 11
4.2632529738
 21
-19.929435023
  0
LINE
  5
22A
100
AcDbEntity
  8
RACCORDO
100
AcDbLine
 62
250
  6
CONTINUOUS
 10
-3.5367470262
 20
-19.929435023
 11
-4.2632529738
 21
-19.929435023
  0
LWPOLYLINE
  5
22B
100
AcDbEntity
  8
RACCORDO
100
AcDbPolyline
 62
250
  6
CONTINUOUS
 90
13
 70
0
 10
-9.4095764515
 20
-20.509473649
 10
-9.4487039214
 20
-20.5068834103
 10
-9.4871624926
 20
-20.4992105979
 10
-9.5242947015
 20
-20.4865863817
 10
-9.559465759
 20
-20.4692265771
 10
-9.5920744027
 20
-20.4474279567
 10
-9.6215631758
 20
-20.4215631758
 10
-9.6474279567
 20
-20.3920744027
 10
-9.6692265771
 20
-20.359465759
 10
-9.6865863817
 20
-20.3242947015
 10
-9.6992105979
 20
-20.2871624926
 10
-9.7068834103
 20
-20.2487039214
 10
-9.709473649
 20
-20.2095764515
  0
LWPOLYLINE
  5
22C
100
AcDbEntity
  8
RACCORDO
100
AcDbPolyline
 62
250
  6
CONTINUOUS
 90
16
 70
0
 10
-9.709473649
 20
20.2095764515
 10
-9.7070851442
 20
20.2139110692
 10
-9.7015436643
 20
20.2181997499
 10
-9.6929079377
 20
20.2223970456
 10
-9.681269485
 20
20.2264584773
 10
-9.6667516498
 20
20.2303410033
 10
-9.649508291
 20
20.2340034742
 10
-9.6297221524
 20
20.2374070745
 10
-9.607602926
 20
20.2405157351
 10
-9.5833850298
 20
20.2432965104
 10
-9.5573251232
 20
20.2457199284
 10
-9.5296993872
 20
20.2477603066
 10
-9.5008005973
 20
20.2493960237
 10
-9.4709350207
 20
20.2506097438
 10
-9.4404191705
 20
20.2513886001
 10
-9.4095764515
 20
20.2517243354
  0
LWPOLYLINE
  5
22D
100
AcDbEntity
  8
RACCORDO
100
AcDbPolyline
 62
7
  6
CONTINUOUS
 90
13
 70
0
 10
-9.6976692656
 20
16.4579448796
 10
-9.6941848181
 20
16.4598855984
 10
-9.6858019129
 20
16.4617355132
 10
-9.6726568335
 20
16.4634946242
 10
-9.6549646408
 20
16.4651887315
 10
-9.6330158784
 20
16.466792035
 10
-9.60717199
 20
16.4682271335
 10
-9.5778582045
 20
16.4694858067
 10
-9.5455589055
 20
16.470576275
 10
-9.510810735
 20
16.4714457988
 10
-9.4741897386
 20
16.4720767983
 10
-9.4363010822
 20
16.4724868533
 10
-9.3977720681
 20
16.4726759637
  0
LWPOLYLINE
  5
22E
100
AcDbEntity
  8
RACCORDO
100
AcDbPolyline
 62
7
  6
CONTINUOUS
 90
19
 70
0
 10
-3.9842447432
 20
-19.5
 10
-4.0153717478
 20
-19.5023106127
 10
-4.0454365747
 20
-19.5067729025
 10
-4.0741643215
 20
-19.5133868695
 10
-4.1013228778
 20
-19.5224018239
 10
-4.1267394697
 20
-19.5335684554
 10
-4.1502956481
 20
-19.5461388337
 10
-4.1718421548
 20
-19.5600384442
 10
-4.1913820243
 20
-19.5753418015
 10
-4.2090407229
 20
-19.5915245186
 10
-4.224797807
 20
-19.6085469618
 10
-4.2386213146
 20
-19.6264487649
 10
-4.2505867096
 20
-19.644824442
 10
-4.2607027947
 20
-19.6636659744
 10
-4.2689644239
 20
-19.6829813808
 10
-4.2754099891
 20
-19.7023892317
 10
-4.2800712037
 20
-19.7217623838
 10
-4.2829837618
 20
-19.7412279804
 10
-4.2841990517
 20
-19.7607860213
  0
LWPOLYLINE
  5
22F
100
AcDbEntity
  8
RACCORDO
100
AcDbPolyline
 62
250
  6
CONTINUOUS
 90
16
 70
0
 10
3.8367013348
 20
-19.6323546024
 10
3.8053151272
 20
-19.6340609132
 10
3.7742730839
 20
-19.6390101948
 10
3.7439160426
 20
-19.6471482401
 10
3.7145742
 20
-19.6583872216
 10
3.6865732085
 20
-19.6726031181
 10
3.6602289984
 20
-19.6896338863
 10
3.6358341762
 20
-19.709285422
 10
3.6136482475
 20
-19.7313433445
 10
3.5939059541
 20
-19.7555722269
 10
3.5768037584
 20
-19.78174113
 10
3.5625564874
 20
-19.8095330973
 10
3.5513546327
 20
-19.8385394271
 10
3.5432961917
 20
-19.8683962148
 10
3.5384206705
 20
-19.8988052722
 10
3.5367470262
 20
-19.929435023
  0
LWPOLYLINE
  5
230
100
AcDbEntity
  8
RACCORDO
100
AcDbPolyline
 62
250
  6
CONTINUOUS
 90
16
 70
0
 10
-3.9632986652
 20
-19.6323546024
 10
-3.9946848728
 20
-19.6340609132
 10
-4.0257269161
 20
-19.6390101948
 10
-4.0560839574
 20
-19.6471482401
 10
-4.0854258
 20
-19.6583872216
 10
-4.1134267915
 20
-19.6726031181
 10
-4.1397710016
 20
-19.6896338863
 10
-4.1641658238
 20
-19.709285422
 10
-4.1863517525
 20
-19.7313433445
 10
-4.2060940459
 20
-19.7555722269
 10
-4.2231962416
 20
-19.78174113
 10
-4.2374435126
 20
-19.8095330973
 10
-4.2486453673
 20
-19.8385394271
 10
-4.2567038083
 20
-19.8683962148
 10
-4.2615793295
 20
-19.8988052722
 10
-4.2632529738
 20
-19.929435023
  0
LWPOLYLINE
  5
231
100
AcDbEntity
  8
RACCORDO
100
AcDbPolyline
 62
250
  6
CONTINUOUS
 90
16
 70
0
 10
-3.9842447432
 20
-18.5479898447
 10
-4.0156743408
 20
-18.5496676655
 10
-4.0467587281
 20
-18.5546254844
 10
-4.0771556254
 20
-18.5628089725
 10
-4.106534001
 20
-18.574129939
 10
-4.1345662005
 20
-18.5884630851
 10
-4.1609334594
 20
-18.6056435633
 10
-4.1853414173
 20
-18.6254737758
 10
-4.2075311247
 20
-18.6477370834
 10
-4.2272686416
 20
-18.672196469
 10
-4.2443607114
 20
-18.6986248782
 10
-4.2585867726
 20
-18.7266956608
 10
-4.2697495977
 20
-18.7559749586
 10
-4.2777561497
 20
-18.7860856251
 10
-4.2825766053
 20
-18.8167317801
 10
-4.2841990517
 20
-18.8475787052
  0
LINE
  5
232
100
AcDbEntity
  8
RACCORDO
100
AcDbLine
 62
250
  6
CONTINUOUS
 10
3.9632986652
 20
-19.6323546024
 11
3.8367013348
 21
-19.6323546024
  0
LINE
  5
233
100
AcDbEntity
  8
RACCORDO
100
AcDbLine
 62
250
  6
CONTINUOUS
 10
-3.8367013348
 20
-19.6323546024
 11
-3.9632986652
 21
-19.6323546024
  0
LINE
  5
234
100
AcDbEntity
  8
RACCORDO
100
AcDbLine
 62
7
  6
CONTINUOUS
 10
3.9842447432
 20
-19.5
 11
3.8157552568
 21
-19.5
  0
LINE
  5
235
100
AcDbEntity
  8
RACCORDO
100
AcDbLine
 62
7
  6
CONTINUOUS
 10
-3.8157552568
 20
-19.5
 11
-3.9842447432
 21
-19.5
  0
LINE
  5
236
100
AcDbEntity
  8
RACCORDO
100
AcDbLine
 62
250
  6
CONTINUOUS
 10
3.5158009483
 20
-18.8475787052
 11
4.2841990517
 21
-18.8475787052
  0
LINE
  5
237
100
AcDbEntity
  8
RACCORDO
100
AcDbLine
 62
250
  6
CONTINUOUS
 10
-3.5158009483
 20
-18.8475787052
 11
-4.2841990517
 21
-18.8475787052
  0
LINE
  5
238
100
AcDbEntity
  8
RACCORDO
100
AcDbLine
 62
250
  6
CONTINUOUS
 10
-3.9842447432
 20
-18.5479898447
 11
-3.8157552568
 21
-18.5479898447
  0
LINE
  5
239
100
AcDbEntity
  8
RACCORDO
100
AcDbLine
 62
250
  6
CONTINUOUS
 10
3.8157552568
 20
-18.5479898447
 11
3.9842447432
 21
-18.5479898447
  0
LINE
  5
23A
100
AcDbEntity
  8
RACCORDO
100
AcDbLine
 62
7
  6
CONTINUOUS
 10
-3.9963114172
 20
-18.5117603839
 11
-3.8036885828
 21
-18.5117603839
  0
LINE
  5
23B
100
AcDbEntity
  8
RACCORDO
100
AcDbLine
 62
7
  6
CONTINUOUS
 10
3.8036885828
 20
-18.5117603839
 11
3.9963114172
 21
-18.5117603839
  0
LWPOLYLINE
  5
23C
100
AcDbEntity
  8
RACCORDO
100
AcDbPolyline
 62
7
  6
CONTINUOUS
 90
25
 70
0
 10
-3.8036885828
 20
-18.5117603839
 10
-3.783935644
 20
-18.5124164821
 10
-3.764274278
 20
-18.5143814402
 10
-3.7447897532
 20
-18.5176463563
 10
-3.7255633216
 20
-18.5221977926
 10
-3.7066816594
 20
-18.5280151301
 10
-3.6882358527
 20
-18.5350685242
 10
-3.6703062653
 20
-18.5433249647
 10
-3.6529682718
 20
-18.5527470884
 10
-3.6363006353
 20
-18.5632879538
 10
-3.6203735325
 20
-18.5748994987
 10
-3.6052534607
 20
-18.5875290937
 10
-3.5910070839
 20
-18.6011144431
 10
-3.5776946241
 20
-18.6155918072
 10
-3.5653670384
 20
-18.630898752
 10
-3.5540704845
 20
-18.6469694295
 10
-3.5438499837
 20
-18.6637339191
 10
-3.5347458025
 20
-18.6811194269
 10
-3.5267911135
 20
-18.6990528488
 10
-3.5200175306
 20
-18.7174559056
 10
-3.5144500492
 20
-18.7362521668
 10
-3.5101067716
 20
-18.7553697373
 10
-3.5070043518
 20
-18.7747310719
 10
-3.5051559128
 20
-18.7942527085
 10
-3.504568223
 20
-18.8138531253
  0
LWPOLYLINE
  5
23D
100
AcDbEntity
  8
RACCORDO
100
AcDbPolyline
 62
7
  6
CONTINUOUS
 90
25
 70
0
 10
3.9963114172
 20
-18.5117603839
 10
4.016064356
 20
-18.5124164821
 10
4.035725722
 20
-18.5143814402
 10
4.0552102468
 20
-18.5176463563
 10
4.0744366784
 20
-18.5221977926
 10
4.0933183406
 20
-18.5280151301
 10
4.1117641473
 20
-18.5350685242
 10
4.1296937347
 20
-18.5433249647
 10
4.1470317282
 20
-18.5527470884
 10
4.1636993647
 20
-18.5632879538
 10
4.1796264675
 20
-18.5748994987
 10
4.1947465393
 20
-18.5875290937
 10
4.2089929161
 20
-18.6011144431
 10
4.2223053759
 20
-18.6155918072
 10
4.2346329616
 20
-18.630898752
 10
4.2459295155
 20
-18.6469694295
 10
4.2561500163
 20
-18.6637339191
 10
4.2652541975
 20
-18.6811194269
 10
4.2732088865
 20
-18.6990528488
 10
4.2799824694
 20
-18.7174559056
 10
4.2855499508
 20
-18.7362521668
 10
4.2898932284
 20
-18.7553697373
 10
4.2929956482
 20
-18.7747310719
 10
4.2948440872
 20
-18.7942527085
 10
4.295431777
 20
-18.8138531253
  0
LWPOLYLINE
  5
23E
100
AcDbEntity
  8
RACCORDO
100
AcDbPolyline
 62
7
  6
CONTINUOUS
 90
19
 70
0
 10
-3.8202629937
 20
-19.5
 10
-3.7875007796
 20
-19.5015408899
 10
-3.7561909414
 20
-19.5060624097
 10
-3.7266245699
 20
-19.5131605127
 10
-3.6991498483
 20
-19.5223318737
 10
-3.6737681735
 20
-19.5332390734
 10
-3.650203631
 20
-19.5458434772
 10
-3.6284839216
 20
-19.5599346855
 10
-3.6087522651
 20
-19.5751880793
 10
-3.5909373897
 20
-19.5915463796
 10
-3.5750604872
 20
-19.6088078825
 10
-3.5611466232
 20
-19.6267358074
 10
-3.5491453955
 20
-19.6452787632
 10
-3.5390368769
 20
-19.6642803579
 10
-3.5308103484
 20
-19.6835377741
 10
-3.5244289269
 20
-19.7029584762
 10
-3.5198437387
 20
-19.7224126089
 10
-3.5169917717
 20
-19.7417323514
 10
-3.5158009483
 20
-19.7607860213
  0
LWPOLYLINE
  5
23F
100
AcDbEntity
  8
RACCORDO
100
AcDbPolyline
 62
250
  6
CONTINUOUS
 90
16
 70
0
 10
-3.8367013348
 20
-19.6323546024
 10
-3.8053957846
 20
-19.6340523252
 10
-3.7744321656
 20
-19.638976331
 10
-3.7441486744
 20
-19.6470728381
 10
-3.7148760788
 20
-19.6582534132
 10
-3.6869341054
 20
-19.6723959377
 10
-3.6606279471
 20
-19.6893459417
 10
-3.6362449297
 20
-19.7089182907
 10
-3.6140513741
 20
-19.730899208
 10
-3.5942896867
 20
-19.7550486095
 10
-3.5771757123
 20
-19.7811027263
 10
-3.5628963762
 20
-19.8087769853
 10
-3.5516076428
 20
-19.8377691176
 10
-3.543432812
 20
-19.8677624601
 10
-3.5384611724
 20
-19.898429414
 10
-3.5367470262
 20
-19.929435023
  0
LWPOLYLINE
  5
240
100
AcDbEntity
  8
RACCORDO
100
AcDbPolyline
 62
250
  6
CONTINUOUS
 90
16
 70
0
 10
3.9632986652
 20
-19.6323546024
 10
3.9946042154
 20
-19.6340523252
 10
4.0255678344
 20
-19.638976331
 10
4.0558513256
 20
-19.6470728381
 10
4.0851239212
 20
-19.6582534132
 10
4.1130658946
 20
-19.6723959377
 10
4.1393720529
 20
-19.6893459417
 10
4.1637550703
 20
-19.7089182907
 10
4.1859486259
 20
-19.730899208
 10
4.2057103133
 20
-19.7550486095
 10
4.2228242877
 20
-19.7811027263
 10
4.2371036238
 20
-19.8087769853
 10
4.2483923572
 20
-19.8377691176
 10
4.256567188
 20
-19.8677624601
 10
4.2615388276
 20
-19.898429414
 10
4.2632529738
 20
-19.929435023
  0
LWPOLYLINE
  5
241
100
AcDbEntity
  8
RACCORDO
100
AcDbPolyline
 62
7
  6
CONTINUOUS
 90
13
 70
0
 10
-9.6976692656
 20
-16.4579448635
 10
-9.6941848181
 20
-16.4598855825
 10
-9.6858019129
 20
-16.4617354975
 10
-9.6726568335
 20
-16.4634946086
 10
-9.6549646408
 20
-16.4651887161
 10
-9.6330158784
 20
-16.4667920196
 10
-9.60717199
 20
-16.4682271183
 10
-9.5778582045
 20
-16.4694857911
 10
-9.5455589055
 20
-16.4705762589
 10
-9.510810735
 20
-16.4714457839
 10
-9.4741897386
 20
-16.4720767867
 10
-9.4363010822
 20
-16.4724868467
 10
-9.3977720681
 20
-16.4726759637
  0
LWPOLYLINE
  5
242
100
AcDbEntity
  8
RACCORDO
100
AcDbPolyline
 62
250
  6
CONTINUOUS
 90
16
 70
0
 10
-9.709473649
 20
-20.2095764515
 10
-9.7070788104
 20
-20.2135300379
 10
-9.701494992
 20
-20.2179326893
 10
-9.6927650036
 20
-20.2224846474
 10
-9.6810278927
 20
-20.226602594
 10
-9.6664398618
 20
-20.2302790685
 10
-9.6490834761
 20
-20.2340424724
 10
-9.6290676781
 20
-20.2376051733
 10
-9.60671309
 20
-20.2406071633
 10
-9.582371153
 20
-20.2434604626
 10
-9.5561163479
 20
-20.2459984818
 10
-9.5283243855
 20
-20.2478669966
 10
-9.4997015798
 20
-20.2493981907
 10
-9.47047302
 20
-20.2507198518
 10
-9.440449311
 20
-20.2515516043
 10
-9.4095764515
 20
-20.2517243354
  0
LWPOLYLINE
  5
243
100
AcDbEntity
  8
RACCORDO
100
AcDbPolyline
 62
7
  6
CONTINUOUS
 90
13
 70
0
 10
9.3977720681
 20
-16.4726759637
 10
9.4363053681
 20
-16.4724867616
 10
9.4741964251
 20
-16.4720766506
 10
9.5108179406
 20
-16.4714456308
 10
9.5455644212
 20
-16.4705761268
 10
9.5778607388
 20
-16.4694857138
 10
9.6071719899
 20
-16.4682271183
 10
9.6330139129
 20
-16.4667921489
 10
9.6549613802
 20
-16.4651889969
 10
9.6726537202
 20
-16.4634949624
 10
9.6857999806
 20
-16.461735812
 10
9.6941841523
 20
-16.459885779
 10
9.6976692656
 20
-16.4579448635
  0
LINE
  5
244
100
AcDbEntity
  8
RACCORDO
100
AcDbLine
 62
7
  6
CONTINUOUS
 10
-9.3977720681
 20
-16.4726759637
 11
9.3977720681
 21
-16.4726759637
  0
LINE
  5
245
100
AcDbEntity
  8
0
100
AcDbLine
 62
7
  6
CONTINUOUS
 10
-4.6603073792
 20
-16.4
 11
4.6603073792
 21
-16.4
  0
LINE
  5
246
100
AcDbEntity
  8
RACCORDO
100
AcDbLine
 62
7
  6
CONTINUOUS
 10
-4.2870319667
 20
-20.509473649
 11
-4.2632529738
 21
-20.5451466669
  0
LINE
  5
247
100
AcDbEntity
  8
0
100
AcDbLine
 62
7
  6
CONTINUOUS
 10
-7.6382978857
 20
-10.77625
 11
-7.5425532162
 21
-10.8387501192
  0
LINE
  5
248
100
AcDbEntity
  8
0
100
AcDbLine
 62
7
  6
CONTINUOUS
 10
-7.4787234366
 20
-11.1200001192
 11
-7.2553191185
 21
-11.3075001192
  0
LINE
  5
249
100
AcDbEntity
  8
0
100
AcDbLine
 62
7
  6
CONTINUOUS
 10
-7.5425532162
 20
-10.8387501192
 11
-7.414893657
 21
-10.87
  0
LINE
  5
24A
100
AcDbEntity
  8
0
100
AcDbLine
 62
7
  6
CONTINUOUS
 10
-7.414893657
 20
-10.6825
 11
-7.5425532162
 21
-10.6199998808
  0
LINE
  5
24B
100
AcDbEntity
  8
0
100
AcDbLine
 62
7
  6
CONTINUOUS
 10
-8.276595749
 20
-9.37
 11
-8.1489361674
 21
-9.4325001192
  0
LINE
  5
24C
100
AcDbEntity
  8
0
100
AcDbLine
 62
7
  6
CONTINUOUS
 10
-7.3510637879
 20
-9.9325
 11
-7.2553191185
 21
-9.9950001192
  0
LINE
  5
24D
100
AcDbEntity
  8
0
100
AcDbLine
 62
7
  6
CONTINUOUS
 10
-8.0531914979
 20
-9.3074998808
 11
-8.2446808591
 21
-9.1825
  0
LINE
  5
24E
100
AcDbEntity
  8
0
100
AcDbLine
 62
7
  6
CONTINUOUS
 10
-7.0
 20
-11.3075001192
 11
-7.2234042287
 21
-11.1200001192
  0
LINE
  5
24F
100
AcDbEntity
  8
0
100
AcDbLine
 62
7
  6
CONTINUOUS
 10
-8.3723404296
 20
-9.27625
 11
-8.276595749
 21
-9.37
  0
LINE
  5
250
100
AcDbEntity
  8
0
100
AcDbLine
 62
7
  6
CONTINUOUS
 10
-7.0957446694
 20
-9.9325
 11
-7.2234042287
 21
-9.8075001192
  0
LINE
  5
251
100
AcDbEntity
  8
0
100
AcDbLine
 62
7
  6
CONTINUOUS
 10
-7.5425532162
 20
-10.6199998808
 11
-8.3404255286
 21
-9.745
  0
LINE
  5
252
100
AcDbEntity
  8
0
100
AcDbLine
 62
7
  6
CONTINUOUS
 10
-8.3404255286
 20
-9.9950001192
 11
-7.6382978857
 21
-10.77625
  0
LINE
  5
253
100
AcDbEntity
  8
0
100
AcDbLine
 62
7
  6
CONTINUOUS
 10
-8.2446808591
 20
-9.1825
 11
-8.3085106388
 21
-9.08875
  0
LINE
  5
254
100
AcDbEntity
  8
0
100
AcDbLine
 62
7
  6
CONTINUOUS
 10
-7.2553191185
 20
-9.9950001192
 11
-7.1914893389
 21
-10.0887501192
  0
LINE
  5
255
100
AcDbEntity
  8
0
100
AcDbLine
 62
7
  6
CONTINUOUS
 10
-8.4680851074
 20
-9.1199998808
 11
-8.3723404296
 21
-9.27625
  0
LINE
  5
256
100
AcDbEntity
  8
RACCORDO
100
AcDbLine
 62
7
  6
CONTINUOUS
 10
-11.0
 20
21.6001713375
 11
-11.0
 21
-21.6001713375
  0
LINE
  5
257
100
AcDbEntity
  8
0
100
AcDbLine
 62
7
  6
CONTINUOUS
 10
-10.5
 20
6.0
 11
-10.5
 21
-6.0
  0
LWPOLYLINE
  5
258
100
AcDbEntity
  8
RACCORDO
100
AcDbPolyline
 62
250
  6
CONTINUOUS
 90
13
 70
0
 10
-9.709473649
 20
20.2095764515
 10
-9.7068834103
 20
20.2487039214
 10
-9.6992105979
 20
20.2871624926
 10
-9.6865863817
 20
20.3242947015
 10
-9.6692265771
 20
20.359465759
 10
-9.6474279567
 20
20.3920744027
 10
-9.6215631758
 20
20.4215631758
 10
-9.5920744027
 20
20.4474279567
 10
-9.559465759
 20
20.4692265771
 10
-9.5242947015
 20
20.4865863817
 10
-9.4871624926
 20
20.4992105979
 10
-9.4487039214
 20
20.5068834103
 10
-9.4095764515
 20
20.509473649
  0
LINE
  5
259
100
AcDbEntity
  8
0
100
AcDbLine
 62
7
  6
CONTINUOUS
 10
-4.489721
 20
17.650482
 11
-4.204195
 21
18.5
  0
LINE
  5
25A
100
AcDbEntity
  8
0
100
AcDbLine
 62
7
  6
CONTINUOUS
 10
8.443673
 20
-11.501114
 11
6.444336
 21
-11.501114
  0
LINE
  5
25B
100
AcDbEntity
  8
0
100
AcDbLine
 62
7
  6
CONTINUOUS
 10
-8.5
 20
-11.4950001192
 11
-7.0
 21
-11.4950001192
  0
LINE
  5
25C
100
AcDbEntity
  8
0
100
AcDbLine
 62
7
  6
CONTINUOUS
 10
-7.2553191185
 20
-11.3075001192
 11
-8.5
 21
-11.3075001192
  0
LINE
  5
25D
100
AcDbEntity
  8
0
100
AcDbLine
 62
7
  6
CONTINUOUS
 10
7.03158
 20
-11.157369
 11
8.443673
 21
-11.157377
  0
LINE
  5
25E
100
AcDbEntity
  8
0
100
AcDbLine
 62
7
  6
CONTINUOUS
 10
-7.2234042287
 20
-11.1200001192
 11
-7.4787234366
 21
-11.1200001192
  0
LINE
  5
25F
100
AcDbEntity
  8
0
100
AcDbLine
 62
7
  6
CONTINUOUS
 10
-8.5
 20
-10.87
 11
-8.3404255286
 21
-10.87
  0
LINE
  5
260
100
AcDbEntity
  8
0
100
AcDbLine
 62
7
  6
CONTINUOUS
 10
-7.414893657
 20
-10.87
 11
-7.3510637879
 21
-10.87
  0
LINE
  5
261
100
AcDbEntity
  8
0
100
AcDbLine
 62
7
  6
CONTINUOUS
 10
-7.3510637879
 20
-10.6825
 11
-7.414893657
 21
-10.6825
  0
LINE
  5
262
100
AcDbEntity
  8
0
100
AcDbLine
 62
7
  6
CONTINUOUS
 10
6.444336
 20
-9.886505
 11
8.443673
 21
-9.886505
  0
LINE
  5
263
100
AcDbEntity
  8
0
100
AcDbLine
 62
7
  6
CONTINUOUS
 10
7.841017
 20
-10.235082
 11
6.444336
 21
-10.230238
  0
LINE
  5
264
100
AcDbEntity
  8
0
100
AcDbLine
 62
7
  6
CONTINUOUS
 10
-7.8617021143
 20
-9.3387501192
 11
-8.0531914979
 21
-9.3074998808
  0
LINE
  5
265
100
AcDbEntity
  8
0
100
AcDbLine
 62
7
  6
CONTINUOUS
 10
-8.0531914979
 20
-9.46375
 11
-7.8936170042
 21
-9.4949998808
  0
LINE
  5
266
100
AcDbEntity
  8
0
100
AcDbLine
 62
7
  6
CONTINUOUS
 10
-7.2234042287
 20
-9.8075001192
 11
-7.3510637879
 21
-9.7762498808
  0
LINE
  5
267
100
AcDbEntity
  8
0
100
AcDbLine
 62
7
  6
CONTINUOUS
 10
-8.1489361674
 20
-9.4325001192
 11
-8.0531914979
 21
-9.46375
  0
LINE
  5
268
100
AcDbEntity
  8
0
100
AcDbLine
 62
7
  6
CONTINUOUS
 10
-7.3510637879
 20
-8.4325
 11
-7.4468085468
 21
-8.4012499404
  0
LINE
  5
269
100
AcDbEntity
  8
0
100
AcDbLine
 62
7
  6
CONTINUOUS
 10
-8.1489361674
 20
-8.0575
 11
-8.0531914979
 21
-8.0887500596
  0
LINE
  5
26A
100
AcDbEntity
  8
0
100
AcDbLine
 62
7
  6
CONTINUOUS
 10
-8.276595749
 20
-7.9950000596
 11
-8.1489361674
 21
-8.0575
  0
LINE
  5
26B
100
AcDbEntity
  8
0
100
AcDbLine
 62
7
  6
CONTINUOUS
 10
-7.2234042287
 20
-8.4949999404
 11
-7.3510637879
 21
-8.4325
  0
LINE
  5
26C
100
AcDbEntity
  8
0
100
AcDbLine
 62
7
  6
CONTINUOUS
 10
-7.4468085468
 20
-8.5575000596
 11
-7.2553191185
 21
-8.6825001192
  0
LINE
  5
26D
100
AcDbEntity
  8
0
100
AcDbLine
 62
7
  6
CONTINUOUS
 10
-8.0531914979
 20
-7.9324999404
 11
-8.2446808591
 21
-7.8075000596
  0
LINE
  5
26E
100
AcDbEntity
  8
0
100
AcDbLine
 62
7
  6
CONTINUOUS
 10
-7.4468085468
 20
-7.1824999404
 11
-7.2553191185
 21
-7.3075
  0
LINE
  5
26F
100
AcDbEntity
  8
0
100
AcDbLine
 62
7
  6
CONTINUOUS
 10
-8.3723404296
 20
-7.9012500596
 11
-8.276595749
 21
-7.9950000596
  0
LINE
  5
270
100
AcDbEntity
  8
0
100
AcDbLine
 62
7
  6
CONTINUOUS
 10
-7.1276595592
 20
-8.5887499404
 11
-7.2234042287
 21
-8.4949999404
  0
LINE
  5
271
100
AcDbEntity
  8
0
100
AcDbLine
 62
7
  6
CONTINUOUS
 10
-7.1276595592
 20
-7.21375
 11
-7.2234042287
 21
-7.12
  0
LINE
  5
272
100
AcDbEntity
  8
0
100
AcDbLine
 62
7
  6
CONTINUOUS
 10
-7.5425532162
 20
-6.4949999702
 11
-8.3404255286
 21
-5.62
  0
LINE
  5
273
100
AcDbEntity
  8
0
100
AcDbLine
 62
7
  6
CONTINUOUS
 10
-8.3404255286
 20
-5.8700000075
 11
-7.6382978857
 21
-6.65125
  0
LINE
  5
274
100
AcDbEntity
  8
0
100
AcDbLine
 62
7
  6
CONTINUOUS
 10
-8.2446808591
 20
-7.8075000596
 11
-8.3085106388
 21
-7.7137500596
  0
LINE
  5
275
100
AcDbEntity
  8
0
100
AcDbLine
 62
7
  6
CONTINUOUS
 10
-7.2553191185
 20
-8.6825001192
 11
-7.1914893389
 21
-8.7762501192
  0
LINE
  5
276
100
AcDbEntity
  8
0
100
AcDbLine
 62
7
  6
CONTINUOUS
 10
-7.2553191185
 20
-7.3075
 11
-7.1914893389
 21
-7.40125
  0
LINE
  5
277
100
AcDbEntity
  8
0
100
AcDbLine
 62
7
  6
CONTINUOUS
 10
-8.4680851074
 20
-7.7449999404
 11
-8.3723404296
 21
-7.9012500596
  0
LINE
  5
278
100
AcDbEntity
  8
0
100
AcDbLine
 62
7
  6
CONTINUOUS
 10
-7.0319148898
 20
-8.7449998808
 11
-7.1276595592
 21
-8.5887499404
  0
LINE
  5
279
100
AcDbEntity
  8
0
100
AcDbLine
 62
7
  6
CONTINUOUS
 10
-7.0319148898
 20
-7.3699999404
 11
-7.1276595592
 21
-7.21375
  0
LINE
  5
27A
100
AcDbEntity
  8
0
100
AcDbLine
 62
7
  6
CONTINUOUS
 10
-7.0319148898
 20
-10.0574998808
 11
-7.0957446694
 21
-9.9325
  0
LINE
  5
27B
100
AcDbEntity
  8
RACCORDO
100
AcDbLine
 62
250
  6
CONTINUOUS
 10
-4.295431777
 20
-18.8138531253
 11
-4.2841990517
 21
-18.8475787052
  0
LINE
  5
27C
100
AcDbEntity
  8
0
100
AcDbLine
 62
7
  6
CONTINUOUS
 10
-8.3085106388
 20
-9.08875
 11
-8.3404255286
 21
-8.9324998808
  0
LINE
  5
27D
100
AcDbEntity
  8
0
100
AcDbLine
 62
7
  6
CONTINUOUS
 10
-8.5
 20
-8.9324998808
 11
-8.4680851074
 21
-9.1199998808
  0
LINE
  5
27E
100
AcDbEntity
  8
RACCORDO
100
AcDbLine
 62
250
  6
CONTINUOUS
 10
-9.709473649
 20
20.2095764515
 11
-9.6987734783
 21
16.8757483513
  0
LINE
  5
27F
100
AcDbEntity
  8
RACCORDO
100
AcDbLine
 62
7
  6
CONTINUOUS
 10
-9.8
 20
-20.3001028025
 11
-9.8
 21
-6.0
  0
LINE
  5
280
100
AcDbEntity
  8
RACCORDO
100
AcDbLine
 62
7
  6
CONTINUOUS
 10
-9.8
 20
6.0
 11
-9.8
 21
20.3001028025
  0
LINE
  5
281
100
AcDbEntity
  8
DRAFT
100
AcDbLine
 62
7
  6
CONTINUOUS
 10
-9.7811769562
 20
6.0
 11
-9.7811769562
 21
-6.0
  0
LINE
  5
282
100
AcDbEntity
  8
RACCORDO
100
AcDbLine
 62
250
  6
CONTINUOUS
 10
-9.6976692656
 20
2.4343622029
 11
-9.6987734783
 21
16.8757483513
  0
LINE
  5
283
100
AcDbEntity
  8
RACCORDO
100
AcDbLine
 62
250
  6
CONTINUOUS
 10
-9.4095764515
 20
20.509473649
 11
-9.3977343402
 21
16.4726759637
  0
LINE
  5
284
100
AcDbEntity
  8
RACCORDO
100
AcDbLine
 62
250
  6
CONTINUOUS
 10
-9.3977720681
 20
1.7578395831
 11
-9.3977720681
 21
16.4726759637
  0
LINE
  5
285
100
AcDbEntity
  8
0
100
AcDbLine
 62
7
  6
CONTINUOUS
 10
-8.5
 20
-5.62
 11
-8.5
 21
-6.745
  0
LINE
  5
286
100
AcDbEntity
  8
0
100
AcDbLine
 62
7
  6
CONTINUOUS
 10
-8.5
 20
-9.745
 11
-8.5
 21
-10.87
  0
LINE
  5
287
100
AcDbEntity
  8
0
100
AcDbLine
 62
7
  6
CONTINUOUS
 10
-8.5
 20
-11.3075001192
 11
-8.5
 21
-11.4950001192
  0
LINE
  5
288
100
AcDbEntity
  8
0
100
AcDbLine
 62
7
  6
CONTINUOUS
 10
-8.3404255286
 20
-10.87
 11
-8.3404255286
 21
-9.9950001192
  0
LINE
  5
289
100
AcDbEntity
  8
0
100
AcDbLine
 62
7
  6
CONTINUOUS
 10
-8.3404255286
 20
-6.745
 11
-8.3404255286
 21
-5.8700000075
  0
LINE
  5
28A
100
AcDbEntity
  8
RACCORDO
100
AcDbLine
 62
250
  6
CONTINUOUS
 10
-9.6976692656
 20
-2.4343622029
 11
-9.6987734707
 21
-16.8757457336
  0
LINE
  5
28B
100
AcDbEntity
  8
RACCORDO
100
AcDbLine
 62
250
  6
CONTINUOUS
 10
-9.3977720681
 20
-1.7578395831
 11
-9.3988411216
 21
-16.8935183149
  0
LWPOLYLINE
  5
28C
100
AcDbEntity
  8
RACCORDO
100
AcDbPolyline
 62
250
  6
CONTINUOUS
 90
3
 70
0
 10
-9.6987734707
 20
-16.8757457336
 10
-9.7079547145
 20
-19.7936977522
 10
-9.709473649
 20
-20.2095764515
  0
LINE
  5
28D
100
AcDbEntity
  8
RACCORDO
100
AcDbLine
 62
250
  6
CONTINUOUS
 10
-9.3988411216
 20
-16.8935183149
 11
-9.4095764515
 21
-20.509473649
  0
LWPOLYLINE
  5
28E
100
AcDbEntity
  8
RACCORDO
100
AcDbPolyline
 62
7
  6
CONTINUOUS
 90
34
 70
0
 10
-9.6976692656
 20
-2.4343622029
 10
-9.696695316
 20
-2.3999384558
 10
-9.6947761395
 20
-2.3664215255
 10
-9.6920129981
 20
-2.3338114118
 10
-9.6885183494
 20
-2.3021226396
 10
-9.6843814214
 20
-2.2713406841
 10
-9.679641836
 20
-2.2414219713
 10
-9.6743634577
 20
-2.2123681125
 10
-9.6686169589
 20
-2.1841774964
 10
-9.6624108913
 20
-2.1568017155
 10
-9.6557900904
 20
-2.1302380424
 10
-9.6488045923
 20
-2.1044892046
 10
-9.6414424822
 20
-2.0795149771
 10
-9.6337358396
 20
-2.0553088447
 10
-9.6257197983
 20
-2.0318773226
 10
-9.6173662286
 20
-2.0091997318
 10
-9.608699324
 20
-1.9872662567
 10
-9.5997425281
 20
-1.9660867129
 10
-9.5904499885
 20
-1.9456698678
 10
-9.580844204
 20
-1.9260035494
 10
-9.570936325
 20
-1.9070999296
 10
-9.560648176
 20
-1.889004292
 10
-9.5500796574
 20
-1.8717633121
 10
-9.5391570927
 20
-1.8553303143
 10
-9.5275094066
 20
-1.8396105558
 10
-9.5149336526
 20
-1.8242912035
 10
-9.5016119692
 20
-1.8096850905
 10
-9.4877431633
 20
-1.7966359725
 10
-9.4733045932
 20
-1.7852356973
 10
-9.4583581546
 20
-1.7753924171
 10
-9.4432588447
 20
-1.7676743443
 10
-9.4281560629
 20
-1.7622708831
 10
-9.4129807633
 20
-1.7589926294
 10
-9.3977720681
 20
-1.7578395831
  0
LINE
  5
28F
100
AcDbEntity
  8
0
100
AcDbLine
 62
7
  6
CONTINUOUS
 10
-4.42424
 20
17.5
 11
-4.142933
 21
18.339871
  0
LINE
  5
290
100
AcDbEntity
  8
0
100
AcDbLine
 62
7
  6
CONTINUOUS
 10
-3.752921
 20
17.5
 11
-3.648449
 21
17.791063
  0
LINE
  5
291
100
AcDbEntity
  8
0
100
AcDbLine
 62
7
  6
CONTINUOUS
 10
-3.606653
 20
17.910837
 11
-3.445044
 21
18.354951
  0
LINE
  5
292
100
AcDbEntity
  8
0
100
AcDbLine
 62
7
  6
CONTINUOUS
 10
-3.892185
 20
17.5
 11
-3.516156
 21
18.5
  0
LINE
  5
293
100
AcDbEntity
  8
DRAFT
100
AcDbLine
 62
7
  6
CONTINUOUS
 10
6.9
 20
20.0
 11
7.5
 21
20.6
  0
LINE
  5
294
100
AcDbEntity
  8
ASSI
100
AcDbLine
 62
7
  6
CONTINUOUS
 10
6.4
 20
10.841786
 11
8.450097
 21
11.5
  0
LINE
  5
295
100
AcDbEntity
  8
0
100
AcDbLine
 62
7
  6
CONTINUOUS
 10
-7.3510637879
 20
-10.87
 11
-7.2234042287
 21
-10.8387501192
  0
LWPOLYLINE
  5
296
100
AcDbEntity
  8
0
100
AcDbPolyline
 62
7
  6
CONTINUOUS
 90
10
 70
0
 10
7.4440116958
 20
-9.1758371304
 10
7.5277429858
 20
-9.1713473651
 10
7.6061396551
 20
-9.1622966979
 10
7.6792017037
 20
-9.148685129
 10
7.7471107964
 20
-9.1298771395
 10
7.8096852684
 20
-9.1065082483
 10
7.866380126
 20
-9.0804850113
 10
7.9170137046
 20
-9.0524429471
 10
7.9617676687
 20
-9.0217465372
 10
8.0006420184
 20
-8.9883957815
  0
LWPOLYLINE
  5
297
100
AcDbEntity
  8
0
100
AcDbPolyline
 62
7
  6
CONTINUOUS
 90
10
 70
0
 10
7.4440116958
 20
-7.9714380945
 10
7.3602918685
 20
-7.9759271848
 10
7.2819032683
 20
-7.9849776439
 10
7.2088458953
 20
-7.9985894717
 10
7.1409369891
 20
-8.017398454
 10
7.0783593101
 20
-8.040768805
 10
7.0216611392
 20
-8.0667931679
 10
6.9710252368
 20
-8.094835757
 10
6.9262688425
 20
-8.1255323581
 10
6.8873919563
 20
-8.1588829711
  0
LINE
  5
298
100
AcDbEntity
  8
0
100
AcDbLine
 62
7
  6
CONTINUOUS
 10
-8.3404255286
 20
-9.745
 11
-8.5
 21
-9.745
  0
LINE
  5
299
100
AcDbEntity
  8
0
100
AcDbLine
 62
7
  6
CONTINUOUS
 10
-7.8936170042
 20
-9.4949998808
 11
-7.6063829958
 21
-9.4949998808
  0
LINE
  5
29A
100
AcDbEntity
  8
0
100
AcDbLine
 62
7
  6
CONTINUOUS
 10
-7.6382978857
 20
-9.3387501192
 11
-7.8617021143
 21
-9.3387501192
  0
LINE
  5
29B
100
AcDbEntity
  8
0
100
AcDbLine
 62
7
  6
CONTINUOUS
 10
-7.8617021143
 20
-8.52625
 11
-7.6382978857
 21
-8.52625
  0
LINE
  5
29C
100
AcDbEntity
  8
0
100
AcDbLine
 62
7
  6
CONTINUOUS
 10
-7.6063829958
 20
-8.3700000596
 11
-7.8936170042
 21
-8.3700000596
  0
LWPOLYLINE
  5
29D
100
AcDbEntity
  8
0
100
AcDbPolyline
 62
7
  6
CONTINUOUS
 90
10
 70
0
 10
7.4442057199
 20
-9.5351308772
 10
7.3445315475
 20
-9.5303846567
 10
7.2484807033
 20
-9.5192489783
 10
7.1560531873
 20
-9.501723842
 10
7.0661304584
 20
-9.476961342
 10
6.9798310576
 20
-9.4458093841
 10
6.9005106086
 20
-9.4108116857
 10
6.8292876527
 20
-9.3728161524
 10
6.7650436485
 20
-9.3309748786
 10
6.7077785961
 20
-9.2852878642
  0
LINE
  5
29E
100
AcDbEntity
  8
0
100
AcDbLine
 62
7
  6
CONTINUOUS
 10
-7.6382978857
 20
-8.52625
 11
-7.4468085468
 21
-8.5575000596
  0
LINE
  5
29F
100
AcDbEntity
  8
0
100
AcDbLine
 62
7
  6
CONTINUOUS
 10
-7.8617021143
 20
-7.96375
 11
-8.0531914979
 21
-7.9324999404
  0
LINE
  5
2A0
100
AcDbEntity
  8
0
100
AcDbLine
 62
7
  6
CONTINUOUS
 10
-7.6382978857
 20
-7.1512500596
 11
-7.4468085468
 21
-7.1824999404
  0
LINE
  5
2A1
100
AcDbEntity
  8
0
100
AcDbLine
 62
7
  6
CONTINUOUS
 10
-7.4468085468
 20
-8.4012499404
 11
-7.6063829958
 21
-8.3700000596
  0
LINE
  5
2A2
100
AcDbEntity
  8
0
100
AcDbLine
 62
7
  6
CONTINUOUS
 10
-8.0531914979
 20
-8.0887500596
 11
-7.8936170042
 21
-8.1199999404
  0
LINE
  5
2A3
100
AcDbEntity
  8
0
100
AcDbLine
 62
7
  6
CONTINUOUS
 10
-7.4468085468
 20
-7.02625
 11
-7.6063829958
 21
-6.9950000298
  0
LINE
  5
2A4
100
AcDbEntity
  8
0
100
AcDbLine
 62
7
  6
CONTINUOUS
 10
-7.5425532162
 20
-6.7137500298
 11
-7.414893657
 21
-6.745
  0
LINE
  5
2A5
100
AcDbEntity
  8
0
100
AcDbLine
 62
7
  6
CONTINUOUS
 10
-7.3510637879
 20
-7.0574999702
 11
-7.4468085468
 21
-7.02625
  0
LINE
  5
2A6
100
AcDbEntity
  8
0
100
AcDbLine
 62
7
  6
CONTINUOUS
 10
-7.2234042287
 20
-7.12
 11
-7.3510637879
 21
-7.0574999702
  0
LINE
  5
2A7
100
AcDbEntity
  8
0
100
AcDbLine
 62
7
  6
CONTINUOUS
 10
-7.414893657
 20
-6.5575
 11
-7.5425532162
 21
-6.4949999702
  0
LINE
  5
2A8
100
AcDbEntity
  8
0
100
AcDbLine
 62
7
  6
CONTINUOUS
 10
-7.6382978857
 20
-6.65125
 11
-7.5425532162
 21
-6.7137500298
  0
LINE
  5
2A9
100
AcDbEntity
  8
0
100
AcDbLine
 62
7
  6
CONTINUOUS
 10
-7.3510637879
 20
-5.8075
 11
-7.2553191185
 21
-5.8700000075
  0
LINE
  5
2AA
100
AcDbEntity
  8
0
100
AcDbLine
 62
7
  6
CONTINUOUS
 10
-7.0957446694
 20
-5.8075
 11
-7.2234042287
 21
-5.6825000019
  0
LINE
  5
2AB
100
AcDbEntity
  8
DRAFT
100
AcDbLine
 62
7
  6
CONTINUOUS
 10
7.5
 20
-20.6
 11
6.9
 21
-20.0
  0
LINE
  5
2AC
100
AcDbEntity
  8
0
100
AcDbLine
 62
7
  6
CONTINUOUS
 10
-7.2553191185
 20
-5.8700000075
 11
-7.1914893389
 21
-5.9637500075
  0
LINE
  5
2AD
100
AcDbEntity
  8
RACCORDO
100
AcDbLine
 62
7
  6
CONTINUOUS
 10
3.5129680333
 20
-20.509473649
 11
3.5367470262
 21
-20.5451466669
  0
LINE
  5
2AE
100
AcDbEntity
  8
0
100
AcDbLine
 62
7
  6
CONTINUOUS
 10
-7.0319148898
 20
-5.9324999925
 11
-7.0957446694
 21
-5.8075
  0
LINE
  5
2AF
100
AcDbEntity
  8
RACCORDO
100
AcDbLine
 62
250
  6
CONTINUOUS
 10
-3.9963114172
 20
-18.5117603839
 11
-3.9842447432
 21
-18.5479898447
  0
LINE
  5
2B0
100
AcDbEntity
  8
0
100
AcDbLine
 62
7
  6
CONTINUOUS
 10
-8.3085106388
 20
-7.7137500596
 11
-8.3404255286
 21
-7.5574999404
  0
LINE
  5
2B1
100
AcDbEntity
  8
0
100
AcDbLine
 62
7
  6
CONTINUOUS
 10
-7.1914893389
 20
-10.0887501192
 11
-7.1595744491
 21
-10.2449998808
  0
LINE
  5
2B2
100
AcDbEntity
  8
0
100
AcDbLine
 62
7
  6
CONTINUOUS
 10
-7.1914893389
 20
-8.7762501192
 11
-7.1595744491
 21
-8.9324998808
  0
LINE
  5
2B3
100
AcDbEntity
  8
0
100
AcDbLine
 62
7
  6
CONTINUOUS
 10
-7.1914893389
 20
-7.40125
 11
-7.1595744491
 21
-7.5574999404
  0
LINE
  5
2B4
100
AcDbEntity
  8
0
100
AcDbLine
 62
7
  6
CONTINUOUS
 10
-7.1914893389
 20
-5.9637500075
 11
-7.1595744491
 21
-6.1200000149
  0
LINE
  5
2B5
100
AcDbEntity
  8
0
100
AcDbLine
 62
7
  6
CONTINUOUS
 10
-8.5
 20
-7.5574999404
 11
-8.4680851074
 21
-7.7449999404
  0
LINE
  5
2B6
100
AcDbEntity
  8
0
100
AcDbLine
 62
7
  6
CONTINUOUS
 10
-7.0
 20
-8.9324998808
 11
-7.0319148898
 21
-8.7449998808
  0
LINE
  5
2B7
100
AcDbEntity
  8
0
100
AcDbLine
 62
7
  6
CONTINUOUS
 10
-7.0
 20
-7.5574999404
 11
-7.0319148898
 21
-7.3699999404
  0
LINE
  5
2B8
100
AcDbEntity
  8
0
100
AcDbLine
 62
7
  6
CONTINUOUS
 10
-7.0
 20
-10.2762501192
 11
-7.0319148898
 21
-10.0574998808
  0
LINE
  5
2B9
100
AcDbEntity
  8
0
100
AcDbLine
 62
7
  6
CONTINUOUS
 10
-7.3510637879
 20
-5.6512500009
 11
-7.3510637879
 21
-5.8075
  0
LINE
  5
2BA
100
AcDbEntity
  8
0
100
AcDbLine
 62
7
  6
CONTINUOUS
 10
-7.3510637879
 20
-9.7762498808
 11
-7.3510637879
 21
-9.9325
  0
LINE
  5
2BB
100
AcDbEntity
  8
0
100
AcDbLine
 62
7
  6
CONTINUOUS
 10
-7.1595744491
 20
-6.1200000149
 11
-7.1595744491
 21
-6.2449999851
  0
LINE
  5
2BC
100
AcDbEntity
  8
0
100
AcDbLine
 62
7
  6
CONTINUOUS
 10
-7.1595744491
 20
-10.2449998808
 11
-7.1595744491
 21
-10.3700001192
  0
LINE
  5
2BD
100
AcDbEntity
  8
0
100
AcDbLine
 62
7
  6
CONTINUOUS
 10
-7.0
 20
-11.4950001192
 11
-7.0
 21
-11.3075001192
  0
LINE
  5
2BE
100
AcDbEntity
  8
0
100
AcDbLine
 62
7
  6
CONTINUOUS
 10
-7.0
 20
-10.40125
 11
-7.0
 21
-10.2762501192
  0
LINE
  5
2BF
100
AcDbEntity
  8
0
100
AcDbLine
 62
7
  6
CONTINUOUS
 10
-7.0
 20
-6.27625
 11
-7.0
 21
-6.1512499851
  0
LINE
  5
2C0
100
AcDbEntity
  8
0
100
AcDbLine
 62
7
  6
CONTINUOUS
 10
-8.4680851074
 20
-7.3699999404
 11
-8.5
 21
-7.5574999404
  0
LINE
  5
2C1
100
AcDbEntity
  8
0
100
AcDbLine
 62
7
  6
CONTINUOUS
 10
-8.4680851074
 20
-8.7449998808
 11
-8.5
 21
-8.9324998808
  0
LINE
  5
2C2
100
AcDbEntity
  8
0
100
AcDbLine
 62
7
  6
CONTINUOUS
 10
-8.3404255286
 20
-7.5574999404
 11
-8.3085106388
 21
-7.40125
  0
LINE
  5
2C3
100
AcDbEntity
  8
RACCORDO
100
AcDbLine
 62
250
  6
CONTINUOUS
 10
9.4095764515
 20
20.509473649
 11
9.5001028025
 21
20.6
  0
LINE
  5
2C4
100
AcDbEntity
  8
RACCORDO
100
AcDbLine
 62
250
  6
CONTINUOUS
 10
9.709473649
 20
20.2095764515
 11
9.8
 21
20.3001028025
  0
LINE
  5
2C5
100
AcDbEntity
  8
ASSI
100
AcDbLine
 62
7
  6
CONTINUOUS
 10
8.450097
 20
11.089979
 11
7.038498
 21
10.636765
  0
LINE
  5
2C6
100
AcDbEntity
  8
0
100
AcDbLine
 62
7
  6
CONTINUOUS
 10
-7.6063829958
 20
-9.4949998808
 11
-7.4468085468
 21
-9.46375
  0
LINE
  5
2C7
100
AcDbEntity
  8
0
100
AcDbLine
 62
7
  6
CONTINUOUS
 10
-7.8936170042
 20
-8.3700000596
 11
-8.0531914979
 21
-8.4012499404
  0
LINE
  5
2C8
100
AcDbEntity
  8
0
100
AcDbLine
 62
7
  6
CONTINUOUS
 10
-7.6063829958
 20
-8.1199999404
 11
-7.4468085468
 21
-8.0887500596
  0
LINE
  5
2C9
100
AcDbEntity
  8
0
100
AcDbLine
 62
7
  6
CONTINUOUS
 10
-7.4468085468
 20
-9.3074998808
 11
-7.6382978857
 21
-9.3387501192
  0
LINE
  5
2CA
100
AcDbEntity
  8
0
100
AcDbLine
 62
7
  6
CONTINUOUS
 10
-8.0531914979
 20
-8.5575000596
 11
-7.8617021143
 21
-8.52625
  0
LINE
  5
2CB
100
AcDbEntity
  8
0
100
AcDbLine
 62
7
  6
CONTINUOUS
 10
-7.4468085468
 20
-7.9324999404
 11
-7.6382978857
 21
-7.96375
  0
LINE
  5
2CC
100
AcDbEntity
  8
0
100
AcDbLine
 62
7
  6
CONTINUOUS
 10
-7.8936170042
 20
-8.1199999404
 11
-7.6063829958
 21
-8.1199999404
  0
LINE
  5
2CD
100
AcDbEntity
  8
0
100
AcDbLine
 62
7
  6
CONTINUOUS
 10
-7.6382978857
 20
-7.96375
 11
-7.8617021143
 21
-7.96375
  0
LINE
  5
2CE
100
AcDbEntity
  8
0
100
AcDbLine
 62
7
  6
CONTINUOUS
 10
-7.8617021143
 20
-7.1512500596
 11
-7.6382978857
 21
-7.1512500596
  0
LINE
  5
2CF
100
AcDbEntity
  8
0
100
AcDbLine
 62
7
  6
CONTINUOUS
 10
-7.6063829958
 20
-6.9950000298
 11
-7.8936170042
 21
-6.9950000298
  0
LINE
  5
2D0
100
AcDbEntity
  8
0
100
AcDbLine
 62
7
  6
CONTINUOUS
 10
-8.5
 20
-6.745
 11
-8.3404255286
 21
-6.745
  0
LINE
  5
2D1
100
AcDbEntity
  8
0
100
AcDbLine
 62
7
  6
CONTINUOUS
 10
-7.414893657
 20
-6.745
 11
-7.3510637879
 21
-6.745
  0
LINE
  5
2D2
100
AcDbEntity
  8
0
100
AcDbLine
 62
7
  6
CONTINUOUS
 10
-7.3510637879
 20
-6.5575
 11
-7.414893657
 21
-6.5575
  0
LWPOLYLINE
  5
2D3
100
AcDbEntity
  8
0
100
AcDbPolyline
 62
7
  6
CONTINUOUS
 90
10
 70
0
 10
7.4442057199
 20
-7.6121443476
 10
7.5438892312
 20
-7.616892411
 10
7.6399468891
 20
-7.628029903
 10
7.7323786933
 20
-7.6455568238
 10
7.8223028005
 20
-7.6703212625
 10
7.908601054
 20
-7.70147513
 10
7.9879189848
 20
-7.7364741586
 10
8.0591384364
 20
-7.7744702591
 10
8.1233775653
 20
-7.8163115209
 10
8.1806363713
 20
-7.8619979438
  0
LINE
  5
2D4
100
AcDbEntity
  8
0
100
AcDbLine
 62
7
  6
CONTINUOUS
 10
-7.2234042287
 20
-5.6825000019
 11
-7.3510637879
 21
-5.6512500009
  0
LINE
  5
2D5
100
AcDbEntity
  8
RACCORDO
100
AcDbLine
 62
250
  6
CONTINUOUS
 10
9.4095764515
 20
-20.509473649
 11
9.5001028025
 21
-20.6
  0
LINE
  5
2D6
100
AcDbEntity
  8
RACCORDO
100
AcDbLine
 62
250
  6
CONTINUOUS
 10
9.709473649
 20
-20.2095764515
 11
9.8
 21
-20.3001028025
  0
LINE
  5
2D7
100
AcDbEntity
  8
0
100
AcDbLine
 62
7
  6
CONTINUOUS
 10
-7.0
 20
-6.1512499851
 11
-7.0319148898
 21
-5.9324999925
  0
LINE
  5
2D8
100
AcDbEntity
  8
RACCORDO
100
AcDbLine
 62
250
  6
CONTINUOUS
 10
-4.2841990517
 20
-19.7607860213
 11
-4.2632529738
 21
-19.929435023
  0
LINE
  5
2D9
100
AcDbEntity
  8
DRAFT
100
AcDbLine
 62
7
  6
CONTINUOUS
 10
-6.0
 20
-20.6
 11
-6.0
 21
-20.0
  0
LINE
  5
2DA
100
AcDbEntity
  8
DRAFT
100
AcDbLine
 62
7
  6
CONTINUOUS
 10
-6.0
 20
20.0
 11
-6.0
 21
20.6
  0
LINE
  5
2DB
100
AcDbEntity
  8
0
100
AcDbLine
 62
7
  6
CONTINUOUS
 10
-5.6
 20
15.4603073792
 11
-5.6
 21
5.9396926208
  0
LINE
  5
2DC
100
AcDbEntity
  8
0
100
AcDbLine
 62
7
  6
CONTINUOUS
 10
-5.6
 20
-5.9396926208
 11
-5.6
 21
-15.4603073792
  0
LINE
  5
2DD
100
AcDbEntity
  8
0
100
AcDbLine
 62
7
  6
CONTINUOUS
 10
-4.970225
 20
17.5
 11
-4.970225
 21
18.5
  0
LINE
  5
2DE
100
AcDbEntity
  8
0
100
AcDbLine
 62
7
  6
CONTINUOUS
 10
-4.839311
 20
17.5
 11
-4.839311
 21
18.338496
  0
LINE
  5
2DF
100
AcDbEntity
  8
0
100
AcDbLine
 62
7
  6
CONTINUOUS
 10
-7.0319148898
 20
-6.46375
 11
-7.0
 21
-6.27625
  0
LINE
  5
2E0
100
AcDbEntity
  8
0
100
AcDbLine
 62
7
  6
CONTINUOUS
 10
-7.0319148898
 20
-7.7449999404
 11
-7.0
 21
-7.5574999404
  0
LINE
  5
2E1
100
AcDbEntity
  8
0
100
AcDbLine
 62
7
  6
CONTINUOUS
 10
-7.0319148898
 20
-9.1199998808
 11
-7.0
 21
-8.9324998808
  0
LINE
  5
2E2
100
AcDbEntity
  8
0
100
AcDbLine
 62
7
  6
CONTINUOUS
 10
-7.0319148898
 20
-10.58875
 11
-7.0
 21
-10.40125
  0
LINE
  5
2E3
100
AcDbEntity
  8
0
100
AcDbLine
 62
7
  6
CONTINUOUS
 10
-8.3404255286
 20
-8.9324998808
 11
-8.3085106388
 21
-8.7762501192
  0
LINE
  5
2E4
100
AcDbEntity
  8
0
100
AcDbLine
 62
7
  6
CONTINUOUS
 10
-7.1595744491
 20
-6.2449999851
 11
-7.1914893389
 21
-6.4012499702
  0
LINE
  5
2E5
100
AcDbEntity
  8
0
100
AcDbLine
 62
7
  6
CONTINUOUS
 10
-7.1595744491
 20
-7.5574999404
 11
-7.1914893389
 21
-7.7137500596
  0
LINE
  5
2E6
100
AcDbEntity
  8
0
100
AcDbLine
 62
7
  6
CONTINUOUS
 10
-7.1595744491
 20
-8.9324998808
 11
-7.1914893389
 21
-9.08875
  0
LINE
  5
2E7
100
AcDbEntity
  8
0
100
AcDbLine
 62
7
  6
CONTINUOUS
 10
-7.1595744491
 20
-10.3700001192
 11
-7.1914893389
 21
-10.5262498808
  0
LINE
  5
2E8
100
AcDbEntity
  8
0
100
AcDbLine
 62
7
  6
CONTINUOUS
 10
4.524532
 20
18.01945
 11
4.81139
 21
18.5
  0
LINE
  5
2E9
100
AcDbEntity
  8
0
100
AcDbLine
 62
7
  6
CONTINUOUS
 10
4.592708
 20
17.902507
 11
4.970225
 21
18.5
  0
LINE
  5
2EA
100
AcDbEntity
  8
ASSI
100
AcDbLine
 62
7
  6
CONTINUOUS
 10
6.400005
 20
7.882519
 11
7.751903
 21
8.270163
  0
LINE
  5
2EB
100
AcDbEntity
  8
ASSI
100
AcDbLine
 62
7
  6
CONTINUOUS
 10
8.450097
 20
8.060346
 11
7.115004
 21
7.677514
  0
LINE
  5
2EC
100
AcDbEntity
  8
0
100
AcDbLine
 62
7
  6
CONTINUOUS
 10
-7.8936170042
 20
-6.9950000298
 11
-8.0531914979
 21
-7.02625
  0
LINE
  5
2ED
100
AcDbEntity
  8
0
100
AcDbLine
 62
7
  6
CONTINUOUS
 10
-8.0531914979
 20
-7.1824999404
 11
-7.8617021143
 21
-7.1512500596
  0
LINE
  5
2EE
100
AcDbEntity
  8
0
100
AcDbLine
 62
7
  6
CONTINUOUS
 10
7.137242
 20
-6.239241
 11
6.444336
 21
-6.239248
  0
LINE
  5
2EF
100
AcDbEntity
  8
0
100
AcDbLine
 62
7
  6
CONTINUOUS
 10
8.443673
 20
-6.239248
 11
7.571958
 21
-6.239241
  0
LINE
  5
2F0
100
AcDbEntity
  8
DRAFT
100
AcDbLine
 62
7
  6
CONTINUOUS
 10
10.5
 20
-6.0
 11
9.7811769562
 21
-6.0
  0
LINE
  5
2F1
100
AcDbEntity
  8
DRAFT
100
AcDbLine
 62
7
  6
CONTINUOUS
 10
-9.7811769562
 20
-6.0
 11
-10.5
 21
-6.0
  0
LINE
  5
2F2
100
AcDbEntity
  8
0
100
AcDbLine
 62
7
  6
CONTINUOUS
 10
6.444336
 20
-5.882187
 11
8.443673
 21
-5.882187
  0
LINE
  5
2F3
100
AcDbEntity
  8
0
100
AcDbLine
 62
7
  6
CONTINUOUS
 10
-8.3404255286
 20
-5.62
 11
-8.5
 21
-5.62
  0
LINE
  5
2F4
100
AcDbEntity
  8
0
100
AcDbLine
 62
7
  6
CONTINUOUS
 10
8.443673
 20
-5.457553
 11
6.444336
 21
-5.457553
  0
LINE
  5
2F5
100
AcDbEntity
  8
0
100
AcDbLine
 62
7
  6
CONTINUOUS
 10
6.444336
 20
-5.100478
 11
8.443673
 21
-5.100478
  0
LINE
  5
2F6
100
AcDbEntity
  8
0
100
AcDbLine
 62
7
  6
CONTINUOUS
 10
4.6603073792
 20
-5.0
 11
2.75
 21
-5.0
  0
LINE
  5
2F7
100
AcDbEntity
  8
0
100
AcDbLine
 62
7
  6
CONTINUOUS
 10
-2.75
 20
-5.0
 11
-4.6603073792
 21
-5.0
  0
LINE
  5
2F8
100
AcDbEntity
  8
RACCORDO
100
AcDbLine
 62
250
  6
CONTINUOUS
 10
-3.9797370063
 20
-19.5
 11
-3.9632986652
 21
-19.6323546024
  0
LWPOLYLINE
  5
2F9
100
AcDbEntity
  8
RACCORDO
100
AcDbPolyline
 62
250
  6
CONTINUOUS
 90
16
 70
0
 10
-3.5158009483
 20
-18.8475787052
 10
-3.5174233947
 20
-18.8167317801
 10
-3.5222438503
 20
-18.7860856251
 10
-3.5302504023
 20
-18.7559749586
 10
-3.5414132274
 20
-18.7266956608
 10
-3.5556392886
 20
-18.6986248782
 10
-3.5727313584
 20
-18.672196469
 10
-3.5924688753
 20
-18.6477370834
 10
-3.6146585827
 20
-18.6254737758
 10
-3.6390665406
 20
-18.6056435633
 10
-3.6654337995
 20
-18.5884630851
 10
-3.693465999
 20
-18.574129939
 10
-3.7228443746
 20
-18.5628089725
 10
-3.7532412719
 20
-18.5546254844
 10
-3.7843256592
 20
-18.5496676655
 10
-3.8157552568
 20
-18.5479898447
  0
LINE
  5
2FA
100
AcDbEntity
  8
ASSI
100
AcDbLine
 62
7
  6
CONTINUOUS
 10
-4.8
 20
1.7578395831
 11
-4.8
 21
-1.7578395831
  0
LINE
  5
2FB
100
AcDbEntity
  8
RACCORDO
100
AcDbLine
 62
250
  6
CONTINUOUS
 10
-4.2841990517
 20
-18.8475787052
 11
-4.2841990517
 21
-19.7607860213
  0
LINE
  5
2FC
100
AcDbEntity
  8
RACCORDO
100
AcDbLine
 62
250
  6
CONTINUOUS
 10
-4.2632529738
 20
-19.929435023
 11
-4.2632529738
 21
-20.5451466669
  0
LINE
  5
2FD
100
AcDbEntity
  8
0
100
AcDbLine
 62
7
  6
CONTINUOUS
 10
-4.142933
 20
17.5
 11
-4.142933
 21
18.339871
  0
LINE
  5
2FE
100
AcDbEntity
  8
0
100
AcDbLine
 62
7
  6
CONTINUOUS
 10
-4.011967
 20
17.5
 11
-4.011967
 21
18.5
  0
LINE
  5
2FF
100
AcDbEntity
  8
RACCORDO
100
AcDbLine
 62
250
  6
CONTINUOUS
 10
-3.9842447432
 20
-18.5479898447
 11
-3.9842447432
 21
-19.5
  0
LINE
  5
300
100
AcDbEntity
  8
RACCORDO
100
AcDbLine
 62
250
  6
CONTINUOUS
 10
-3.9632986652
 20
-19.6323546024
 11
-3.9632986652
 21
-20.5528653412
  0
LINE
  5
301
100
AcDbEntity
  8
RACCORDO
100
AcDbLine
 62
250
  6
CONTINUOUS
 10
-3.8367013348
 20
-20.5528653412
 11
-3.8367013348
 21
-19.6323546024
  0
LINE
  5
302
100
AcDbEntity
  8
RACCORDO
100
AcDbLine
 62
250
  6
CONTINUOUS
 10
-3.8157552568
 20
-19.5
 11
-3.8157552568
 21
-18.5479898447
  0
LINE
  5
303
100
AcDbEntity
  8
RACCORDO
100
AcDbLine
 62
250
  6
CONTINUOUS
 10
-3.5367470262
 20
-20.5451466669
 11
-3.5367470262
 21
-19.929435023
  0
LINE
  5
304
100
AcDbEntity
  8
RACCORDO
100
AcDbLine
 62
250
  6
CONTINUOUS
 10
-3.5158009483
 20
-18.8475787052
 11
-3.5158009483
 21
-19.7607860213
  0
LWPOLYLINE
  5
305
100
AcDbEntity
  8
RACCORDO
100
AcDbPolyline
 62
7
  6
CONTINUOUS
 90
25
 70
0
 10
-4.295431777
 20
-18.8138531253
 10
-4.2948439889
 20
-18.7942511189
 10
-4.292995118
 20
-18.774726903
 10
-4.2898917412
 20
-18.7553620511
 10
-4.2855467155
 20
-18.7362397925
 10
-4.27997656
 20
-18.7174380938
 10
-4.2731995706
 20
-18.6990298655
 10
-4.2652407295
 20
-18.6810915462
 10
-4.2561317017
 20
-18.6637015583
 10
-4.2459063378
 20
-18.6469340623
 10
-4.2346052616
 20
-18.6308619648
 10
-4.2222736018
 20
-18.6155549028
 10
-4.2089580838
 20
-18.6010789759
 10
-4.1947101699
 20
-18.5874966288
 10
-4.1795900824
 20
-18.5748710934
 10
-4.163664269
 20
-18.5632641034
 10
-4.1469995271
 20
-18.552728184
 10
-4.1296659206
 20
-18.5433110225
 10
-4.1117411635
 20
-18.5350588511
 10
-4.0933004916
 20
-18.5280089746
 10
-4.0744242572
 20
-18.5221944114
 10
-4.0552025175
 20
-18.5176447958
 10
-4.035721519
 20
-18.5143808811
 10
-4.0160627474
 20
-18.5124163782
 10
-3.9963114172
 20
-18.5117603839
  0
LINE
  5
306
100
AcDbEntity
  8
0
100
AcDbLine
 62
7
  6
CONTINUOUS
 10
2.516064
 20
17.5
 11
2.620545
 21
17.791063
  0
LINE
  5
307
100
AcDbEntity
  8
0
100
AcDbLine
 62
7
  6
CONTINUOUS
 10
2.662332
 20
17.910837
 11
2.823933
 21
18.354951
  0
LINE
  5
308
100
AcDbEntity
  8
0
100
AcDbLine
 62
7
  6
CONTINUOUS
 10
2.376808
 20
17.5
 11
2.752886
 21
18.5
  0
LINE
  5
309
100
AcDbEntity
  8
0
100
AcDbLine
 62
7
  6
CONTINUOUS
 10
-7.0957446694
 20
-6.5887499702
 11
-7.0319148898
 21
-6.46375
  0
LINE
  5
30A
100
AcDbEntity
  8
0
100
AcDbLine
 62
7
  6
CONTINUOUS
 10
-8.3723404296
 20
-7.21375
 11
-8.4680851074
 21
-7.3699999404
  0
LINE
  5
30B
100
AcDbEntity
  8
0
100
AcDbLine
 62
7
  6
CONTINUOUS
 10
-7.3510637879
 20
-6.745
 11
-7.2234042287
 21
-6.7137500298
  0
LINE
  5
30C
100
AcDbEntity
  8
0
100
AcDbLine
 62
7
  6
CONTINUOUS
 10
6.761653
 20
-4.671057
 11
6.444336
 21
-4.671057
  0
LINE
  5
30D
100
AcDbEntity
  8
0
100
AcDbLine
 62
7
  6
CONTINUOUS
 10
8.443673
 20
-4.66302
 11
8.126356
 21
-4.66302
  0
LINE
  5
30E
100
AcDbEntity
  8
0
100
AcDbLine
 62
7
  6
CONTINUOUS
 10
7.629209
 20
-4.591377
 11
7.311885
 21
-4.591377
  0
LINE
  5
30F
100
AcDbEntity
  8
0
100
AcDbLine
 62
7
  6
CONTINUOUS
 10
8.126359
 20
-3.607054
 11
7.629216
 21
-3.607054
  0
LINE
  5
310
100
AcDbEntity
  8
0
100
AcDbLine
 62
7
  6
CONTINUOUS
 10
7.311877
 20
-3.607054
 11
6.761643
 21
-3.607054
  0
LINE
  5
311
100
AcDbEntity
  8
0
100
AcDbLine
 62
7
  6
CONTINUOUS
 10
6.444336
 20
-3.25
 11
8.443673
 21
-3.25
  0
LWPOLYLINE
  5
312
100
AcDbEntity
  8
0
100
AcDbPolyline
 62
7
  6
CONTINUOUS
 90
19
 70
0
 10
-2.0444481396
 20
18.0
 10
-2.0440949718
 20
17.9604103473
 10
-2.0463673743
 20
17.921081254
 10
-2.0512653471
 20
17.8820127683
 10
-2.0587878835
 20
17.8428774501
 10
-2.0689359903
 20
17.804002802
 10
-2.0817126876
 20
17.7663714336
 10
-2.096973146
 20
17.7299684291
 10
-2.1148621949
 20
17.694809072
 10
-2.1358173431
 20
17.661921546
 10
-2.1600132364
 20
17.6314017944
 10
-2.1872752289
 20
17.6031544407
 10
-2.2175168913
 20
17.5779208741
 10
-2.2505897136
 20
17.5556264355
 10
-2.2866422058
 20
17.5363463258
 10
-2.3260334693
 20
17.5210468195
 10
-2.3688832046
 20
17.5100501691
 10
-2.4150717112
 20
17.5030345275
 10
-2.4645989891
 20
17.5
  0
LINE
  5
313
100
AcDbEntity
  8
0
100
AcDbLine
 62
7
  6
CONTINUOUS
 10
-2.869912
 20
17.5
 11
-2.869912
 21
18.5
  0
LINE
  5
314
100
AcDbEntity
  8
0
100
AcDbLine
 62
7
  6
CONTINUOUS
 10
-2.75
 20
5.0
 11
-2.75
 21
-5.0
  0
LINE
  5
315
100
AcDbEntity
  8
0
100
AcDbLine
 62
7
  6
CONTINUOUS
 10
-2.734773
 20
17.615568
 11
-2.734773
 21
18.384432
  0
LINE
  5
316
100
AcDbEntity
  8
0
100
AcDbLine
 62
7
  6
CONTINUOUS
 10
-1.857337
 20
17.5
 11
-1.857337
 21
18.5
  0
LINE
  5
317
100
AcDbEntity
  8
0
100
AcDbLine
 62
7
  6
CONTINUOUS
 10
-1.722205
 20
17.619774
 11
-1.722205
 21
17.954023
  0
LINE
  5
318
100
AcDbEntity
  8
0
100
AcDbLine
 62
7
  6
CONTINUOUS
 10
-1.722205
 20
18.073797
 11
-1.722205
 21
18.380226
  0
LWPOLYLINE
  5
319
100
AcDbEntity
  8
0
100
AcDbPolyline
 62
7
  6
CONTINUOUS
 90
22
 70
0
 10
-2.1834101419
 20
17.9750326155
 10
-2.1834091897
 20
18.0249833477
 10
-2.1844188821
 20
18.0498892014
 10
-2.1864835994
 20
18.0747175668
 10
-2.1895719764
 20
18.0995408794
 10
-2.1937153783
 20
18.1242867102
 10
-2.1990079002
 20
18.1487377888
 10
-2.2052843199
 20
18.1729951931
 10
-2.2127098595
 20
18.1969578923
 10
-2.2218742803
 20
18.2201055244
 10
-2.2329262084
 20
18.2424404497
 10
-2.2457170176
 20
18.2639604543
 10
-2.2603905913
 20
18.2841384076
 10
-2.2770608572
 20
18.3029909769
 10
-2.2956138875
 20
18.3205017051
 10
-2.3158517824
 20
18.3360938503
 10
-2.337864982
 20
18.3497151424
 10
-2.3615630462
 20
18.361418082
 10
-2.3864767536
 20
18.3707831221
 10
-2.4124496974
 20
18.3776704742
 10
-2.4396382846
 20
18.3822200856
 10
-2.4680425151
 20
18.384432
  0
LINE
  5
31A
100
AcDbEntity
  8
0
100
AcDbLine
 62
7
  6
CONTINUOUS
 10
-8.3723404296
 20
-8.5887499404
 11
-8.4680851074
 21
-8.7449998808
  0
LINE
  5
31B
100
AcDbEntity
  8
0
100
AcDbLine
 62
7
  6
CONTINUOUS
 10
-7.1276595592
 20
-7.9012500596
 11
-7.0319148898
 21
-7.7449999404
  0
LINE
  5
31C
100
AcDbEntity
  8
0
100
AcDbLine
 62
7
  6
CONTINUOUS
 10
-8.3085106388
 20
-7.40125
 11
-8.2446808591
 21
-7.3075
  0
LINE
  5
31D
100
AcDbEntity
  8
0
100
AcDbLine
 62
7
  6
CONTINUOUS
 10
-7.1914893389
 20
-6.4012499702
 11
-7.2553191185
 21
-6.4949999702
  0
LINE
  5
31E
100
AcDbEntity
  8
0
100
AcDbLine
 62
7
  6
CONTINUOUS
 10
-8.3085106388
 20
-8.7762501192
 11
-8.2446808591
 21
-8.6825001192
  0
LINE
  5
31F
100
AcDbEntity
  8
0
100
AcDbLine
 62
7
  6
CONTINUOUS
 10
-7.1914893389
 20
-7.7137500596
 11
-7.2553191185
 21
-7.8075000596
  0
LINE
  5
320
100
AcDbEntity
  8
ASSI
100
AcDbLine
 62
7
  6
CONTINUOUS
 10
6.40001
 20
5.085063
 11
6.803174
 21
5.2145
  0
LINE
  5
321
100
AcDbEntity
  8
ASSI
100
AcDbLine
 62
7
  6
CONTINUOUS
 10
7.192689
 20
5.339571
 11
7.811604
 21
5.538282
  0
LINE
  5
322
100
AcDbEntity
  8
ASSI
100
AcDbLine
 62
7
  6
CONTINUOUS
 10
8.450103
 20
5.333262
 11
6.400005
 21
4.675043
  0
LINE
  5
323
100
AcDbEntity
  8
RACCORDO
100
AcDbLine
 62
7
  6
CONTINUOUS
 10
4.8
 20
-1.7578395831
 11
9.3977720681
 21
-1.7578395831
  0
LINE
  5
324
100
AcDbEntity
  8
RACCORDO
100
AcDbLine
 62
7
  6
CONTINUOUS
 10
-4.8
 20
-1.7578395831
 11
-9.3977720681
 21
-1.7578395831
  0
LWPOLYLINE
  5
325
100
AcDbEntity
  8
0
100
AcDbPolyline
 62
7
  6
CONTINUOUS
 90
10
 70
0
 10
6.8873919563
 20
-8.9883957815
 10
6.9262648871
 20
-9.0217460398
 10
6.9710176176
 20
-9.0524421026
 10
7.0216501478
 20
-9.08048397
 10
7.0783443084
 20
-9.1065071952
 10
7.1409182686
 20
-9.1298762249
 10
7.2088265367
 20
-9.1486843993
 10
7.2818872819
 20
-9.162296165
 10
7.360282335
 20
-9.1713470754
 10
7.4440116958
 20
-9.1758371304
  0
LWPOLYLINE
  5
326
100
AcDbEntity
  8
0
100
AcDbPolyline
 62
7
  6
CONTINUOUS
 90
10
 70
0
 10
6.7077785961
 20
-9.2852878642
 10
6.6472659186
 20
-9.2287508049
 10
6.593057844
 20
-9.1666500299
 10
6.5451543722
 20
-9.0989855392
 10
6.5031899551
 20
-9.0258486196
 10
6.467530141
 20
-8.9471479843
 10
6.439271574
 20
-8.8626097727
 10
6.4187798022
 20
-8.7721426979
 10
6.4056892775
 20
-8.6758380469
 10
6.4
 20
-8.5736958197
  0
LINE
  5
327
100
AcDbEntity
  8
RACCORDO
100
AcDbLine
 62
250
  6
CONTINUOUS
 10
3.5158009483
 20
-18.8475787052
 11
3.504568223
 21
-18.8138531253
  0
LINE
  5
328
100
AcDbEntity
  8
RACCORDO
100
AcDbLine
 62
250
  6
CONTINUOUS
 10
3.8157552568
 20
-18.5479898447
 11
3.8036885828
 21
-18.5117603839
  0
LINE
  5
329
100
AcDbEntity
  8
0
100
AcDbLine
 62
7
  6
CONTINUOUS
 10
-1.174846
 20
17.954023
 11
-1.174846
 21
18.073797
  0
LINE
  5
32A
100
AcDbEntity
  8
0
100
AcDbLine
 62
7
  6
CONTINUOUS
 10
-1.128885
 20
18.380226
 11
-1.128885
 21
18.5
  0
LINE
  5
32B
100
AcDbEntity
  8
0
100
AcDbLine
 62
7
  6
CONTINUOUS
 10
-1.119124
 20
17.5
 11
-1.119124
 21
17.619774
  0
LINE
  5
32C
100
AcDbEntity
  8
0
100
AcDbLine
 62
7
  6
CONTINUOUS
 10
-0.534134
 20
17.5
 11
-0.534134
 21
18.5
  0
LINE
  5
32D
100
AcDbEntity
  8
0
100
AcDbLine
 62
7
  6
CONTINUOUS
 10
-0.399043
 20
17.5
 11
-0.399043
 21
18.5
  0
LINE
  5
32E
100
AcDbEntity
  8
0
100
AcDbLine
 62
7
  6
CONTINUOUS
 10
-0.167874
 20
17.5
 11
-0.167874
 21
18.5
  0
LINE
  5
32F
100
AcDbEntity
  8
0
100
AcDbLine
 62
7
  6
CONTINUOUS
 10
-0.0369
 20
17.5
 11
-0.0369
 21
18.31212
  0
LINE
  5
330
100
AcDbEntity
  8
RACCORDO
100
AcDbLine
 62
250
  6
CONTINUOUS
 10
-3.8367013348
 20
-19.6323546024
 11
-3.8202629937
 21
-19.5
  0
LINE
  5
331
100
AcDbEntity
  8
RACCORDO
100
AcDbLine
 62
250
  6
CONTINUOUS
 10
-3.5367470262
 20
-19.929435023
 11
-3.5158009483
 21
-19.7607860213
  0
LINE
  5
332
100
AcDbEntity
  8
0
100
AcDbLine
 62
7
  6
CONTINUOUS
 10
-7.0957446694
 20
-10.7137498808
 11
-7.0319148898
 21
-10.58875
  0
LINE
  5
333
100
AcDbEntity
  8
0
100
AcDbLine
 62
7
  6
CONTINUOUS
 10
-7.1276595592
 20
-9.27625
 11
-7.0319148898
 21
-9.1199998808
  0
LINE
  5
334
100
AcDbEntity
  8
0
100
AcDbLine
 62
7
  6
CONTINUOUS
 10
-7.1914893389
 20
-9.08875
 11
-7.2553191185
 21
-9.1825
  0
LINE
  5
335
100
AcDbEntity
  8
0
100
AcDbLine
 62
7
  6
CONTINUOUS
 10
-7.1914893389
 20
-10.5262498808
 11
-7.2553191185
 21
-10.6199998808
  0
LINE
  5
336
100
AcDbEntity
  8
0
100
AcDbLine
 62
7
  6
CONTINUOUS
 10
-8.276595749
 20
-7.12
 11
-8.3723404296
 21
-7.21375
  0
LINE
  5
337
100
AcDbEntity
  8
0
100
AcDbLine
 62
7
  6
CONTINUOUS
 10
-7.2234042287
 20
-6.7137500298
 11
-7.0957446694
 21
-6.5887499702
  0
LINE
  5
338
100
AcDbEntity
  8
ASSI
100
AcDbLine
 62
7
  6
CONTINUOUS
 10
6.40001
 20
3.222894
 11
7.192689
 21
3.633781
  0
LWPOLYLINE
  5
339
100
AcDbEntity
  8
RACCORDO
100
AcDbPolyline
 62
7
  6
CONTINUOUS
 90
34
 70
0
 10
9.3977720681
 20
-1.7578395831
 10
9.4129815622
 20
-1.7589928206
 10
9.4281575603
 20
-1.7622713766
 10
9.443260936
 20
-1.7676752511
 10
9.4583607252
 20
-1.7753938877
 10
9.4733075343
 20
-1.7852378429
 10
9.4877463875
 20
-1.7966387856
 10
9.5016153727
 20
-1.8096885182
 10
9.5149371529
 20
-1.8242952384
 10
9.5275129965
 20
-1.8396152081
 10
9.5391607748
 20
-1.8553355715
 10
9.5500834247
 20
-1.8717691844
 10
9.5606520609
 20
-1.889010876
 10
9.5709403688
 20
-1.907107346
 10
9.5808484292
 20
-1.9260118947
 10
9.5904544088
 20
-1.9456792529
 10
9.5997471583
 20
-1.9660972711
 10
9.6087041659
 20
-1.9872780989
 10
9.6173712558
 20
-2.0092129157
 10
9.6257249996
 20
-2.031891973
 10
9.6337411781
 20
-2.0553250194
 10
9.6414478441
 20
-2.07953248
 10
9.6488098662
 20
-2.1045078282
 10
9.6557951793
 20
-2.1302575906
 10
9.6624156621
 20
-2.1568217726
 10
9.6686212972
 20
-2.1841976241
 10
9.6743672761
 20
-2.2123878952
 10
9.6796450448
 20
-2.2414408409
 10
9.6843839722
 20
-2.2713580642
 10
9.6885202316
 20
-2.3021379621
 10
9.6920142236
 20
-2.3338239804
 10
9.6947767802
 20
-2.3664306009
 10
9.6966955234
 20
-2.3999433417
 10
9.6976692656
 20
-2.4343622029
  0
LWPOLYLINE
  5
33A
100
AcDbEntity
  8
0
100
AcDbPolyline
 62
7
  6
CONTINUOUS
 90
10
 70
0
 10
8.0006420184
 20
-8.1588829711
 10
7.9617672675
 20
-8.1255314886
 10
7.9170129409
 20
-8.0948344188
 10
7.8663790387
 20
-8.0667917616
 10
7.8096838141
 20
-8.0407679761
 10
7.7471090138
 20
-8.0173986033
 10
7.6791998778
 20
-7.9985902665
 10
7.6061381529
 20
-7.9849785066
 10
7.5277420922
 20
-7.9759277826
 10
7.4440116958
 20
-7.9714380945
  0
LWPOLYLINE
  5
33B
100
AcDbEntity
  8
0
100
AcDbPolyline
 62
7
  6
CONTINUOUS
 90
10
 70
0
 10
8.1806363713
 20
-7.8619979438
 10
8.2411363704
 20
-7.9185235787
 10
8.2953360809
 20
-7.9806202147
 10
8.3432355028
 20
-8.0482878519
 10
8.3852018412
 20
-8.1214371895
 10
8.4208678909
 20
-8.2001575283
 10
8.4491320371
 20
-8.2847167704
 10
8.4696270748
 20
-8.3752042168
 10
8.482720209
 20
-8.4715305665
 10
8.4884114397
 20
-8.5736958197
  0
LINE
  5
33C
100
AcDbEntity
  8
0
100
AcDbLine
 62
7
  6
CONTINUOUS
 10
0.495158
 20
17.687716
 11
0.495158
 21
18.5
  0
LINE
  5
33D
100
AcDbEntity
  8
0
100
AcDbLine
 62
7
  6
CONTINUOUS
 10
0.626068
 20
17.5
 11
0.626068
 21
18.5
  0
LINE
  5
33E
100
AcDbEntity
  8
0
100
AcDbLine
 62
7
  6
CONTINUOUS
 10
1.245834
 20
17.5
 11
1.245834
 21
18.5
  0
LINE
  5
33F
100
AcDbEntity
  8
0
100
AcDbLine
 62
7
  6
CONTINUOUS
 10
1.380965
 20
17.5
 11
1.380965
 21
18.5
  0
LINE
  5
340
100
AcDbEntity
  8
0
100
AcDbLine
 62
7
  6
CONTINUOUS
 10
1.525818
 20
18.380226
 11
1.525818
 21
18.5
  0
LINE
  5
341
100
AcDbEntity
  8
0
100
AcDbLine
 62
7
  6
CONTINUOUS
 10
1.864273
 20
17.5
 11
1.864273
 21
18.380226
  0
LINE
  5
342
100
AcDbEntity
  8
0
100
AcDbLine
 62
7
  6
CONTINUOUS
 10
-8.276595749
 20
-8.4949999404
 11
-8.3723404296
 21
-8.5887499404
  0
LINE
  5
343
100
AcDbEntity
  8
0
100
AcDbLine
 62
7
  6
CONTINUOUS
 10
-7.2234042287
 20
-7.9950000596
 11
-7.1276595592
 21
-7.9012500596
  0
LINE
  5
344
100
AcDbEntity
  8
0
100
AcDbLine
 62
7
  6
CONTINUOUS
 10
-7.2234042287
 20
-9.37
 11
-7.1276595592
 21
-9.27625
  0
LINE
  5
345
100
AcDbEntity
  8
0
100
AcDbLine
 62
7
  6
CONTINUOUS
 10
-7.2553191185
 20
-6.4949999702
 11
-7.3510637879
 21
-6.5575
  0
LINE
  5
346
100
AcDbEntity
  8
0
100
AcDbLine
 62
7
  6
CONTINUOUS
 10
-8.2446808591
 20
-7.3075
 11
-8.0531914979
 21
-7.1824999404
  0
LINE
  5
347
100
AcDbEntity
  8
ASSI
100
AcDbLine
 62
7
  6
CONTINUOUS
 10
7.241998713
 20
3.1975158879
 11
6.400015
 21
2.761075
  0
LINE
  5
348
100
AcDbEntity
  8
RACCORDO
100
AcDbLine
 62
7
  6
CONTINUOUS
 10
4.8
 20
1.7578395831
 11
9.3977720681
 21
1.7578395831
  0
LINE
  5
349
100
AcDbEntity
  8
RACCORDO
100
AcDbLine
 62
7
  6
CONTINUOUS
 10
-4.8
 20
1.7578395831
 11
-9.3977720681
 21
1.7578395831
  0
LWPOLYLINE
  5
34A
100
AcDbEntity
  8
RACCORDO
100
AcDbPolyline
 62
7
  6
CONTINUOUS
 90
34
 70
0
 10
-9.3977720681
 20
1.7578395831
 10
-9.4129815622
 20
1.7589928206
 10
-9.4281575603
 20
1.7622713766
 10
-9.443260936
 20
1.7676752511
 10
-9.4583607252
 20
1.7753938877
 10
-9.4733075343
 20
1.7852378429
 10
-9.4877463875
 20
1.7966387856
 10
-9.5016153727
 20
1.8096885182
 10
-9.5149371529
 20
1.8242952384
 10
-9.5275129965
 20
1.8396152081
 10
-9.5391607748
 20
1.8553355715
 10
-9.5500834247
 20
1.8717691844
 10
-9.5606520609
 20
1.889010876
 10
-9.5709403688
 20
1.907107346
 10
-9.5808484292
 20
1.9260118947
 10
-9.5904544088
 20
1.9456792529
 10
-9.5997471583
 20
1.9660972711
 10
-9.6087041659
 20
1.9872780989
 10
-9.6173712558
 20
2.0092129157
 10
-9.6257249996
 20
2.031891973
 10
-9.6337411781
 20
2.0553250194
 10
-9.6414478441
 20
2.07953248
 10
-9.6488098662
 20
2.1045078282
 10
-9.6557951793
 20
2.1302575906
 10
-9.6624156621
 20
2.1568217726
 10
-9.6686212972
 20
2.1841976241
 10
-9.6743672761
 20
2.2123878952
 10
-9.6796450448
 20
2.2414408409
 10
-9.6843839722
 20
2.2713580642
 10
-9.6885202316
 20
2.3021379621
 10
-9.6920142236
 20
2.3338239804
 10
-9.6947767802
 20
2.3664306009
 10
-9.6966955234
 20
2.3999433417
 10
-9.6976692656
 20
2.4343622029
  0
LINE
  5
34B
100
AcDbEntity
  8
0
100
AcDbLine
 62
7
  6
CONTINUOUS
 10
7.571958
 20
-6.239241
 11
8.443673
 21
-7.125609
  0
LINE
  5
34C
100
AcDbEntity
  8
0
100
AcDbLine
 62
7
  6
CONTINUOUS
 10
8.443673
 20
-7.604369
 11
7.620965
 21
-6.744504
  0
LINE
  5
34D
100
AcDbEntity
  8
0
100
AcDbLine
 62
7
  6
CONTINUOUS
 10
7.375374
 20
-6.494577
 11
7.137242
 21
-6.239241
  0
LINE
  5
34E
100
AcDbEntity
  8
0
100
AcDbLine
 62
7
  6
CONTINUOUS
 10
-4.489721
 20
17.650482
 11
-4.776623
 21
18.5
  0
LINE
  5
34F
100
AcDbEntity
  8
0
100
AcDbLine
 62
7
  6
CONTINUOUS
 10
-4.55795
 20
17.5
 11
-4.839311
 21
18.338496
  0
LINE
  5
350
100
AcDbEntity
  8
RACCORDO
100
AcDbLine
 62
250
  6
CONTINUOUS
 10
3.5158009483
 20
-19.7607860213
 11
3.5367470262
 21
-19.929435023
  0
LINE
  5
351
100
AcDbEntity
  8
RACCORDO
100
AcDbLine
 62
250
  6
CONTINUOUS
 10
3.8202629937
 20
-19.5
 11
3.8367013348
 21
-19.6323546024
  0
LWPOLYLINE
  5
352
100
AcDbEntity
  8
RACCORDO
100
AcDbPolyline
 62
7
  6
CONTINUOUS
 90
19
 70
0
 10
4.2841990517
 20
-19.7607860213
 10
4.2829837618
 20
-19.7412279804
 10
4.2800712037
 20
-19.7217623838
 10
4.2754099891
 20
-19.7023892317
 10
4.2689644239
 20
-19.6829813808
 10
4.2607027947
 20
-19.6636659744
 10
4.2505867096
 20
-19.644824442
 10
4.2386213146
 20
-19.6264487649
 10
4.224797807
 20
-19.6085469618
 10
4.2090407229
 20
-19.5915245186
 10
4.1913820243
 20
-19.5753418015
 10
4.1718421548
 20
-19.5600384442
 10
4.1502956481
 20
-19.5461388337
 10
4.1267394697
 20
-19.5335684554
 10
4.1013228778
 20
-19.5224018239
 10
4.0741643215
 20
-19.5133868695
 10
4.0454365747
 20
-19.5067729025
 10
4.0153717478
 20
-19.5023106127
 10
3.9842447432
 20
-19.5
  0
LWPOLYLINE
  5
353
100
AcDbEntity
  8
RACCORDO
100
AcDbPolyline
 62
250
  6
CONTINUOUS
 90
16
 70
0
 10
4.2841990517
 20
-18.8475787052
 10
4.2825766053
 20
-18.8167317801
 10
4.2777561497
 20
-18.7860856251
 10
4.2697495977
 20
-18.7559749586
 10
4.2585867726
 20
-18.7266956608
 10
4.2443607114
 20
-18.6986248782
 10
4.2272686416
 20
-18.672196469
 10
4.2075311247
 20
-18.6477370834
 10
4.1853414173
 20
-18.6254737758
 10
4.1609334594
 20
-18.6056435633
 10
4.1345662005
 20
-18.5884630851
 10
4.106534001
 20
-18.574129939
 10
4.0771556254
 20
-18.5628089725
 10
4.0467587281
 20
-18.5546254844
 10
4.0156743408
 20
-18.5496676655
 10
3.9842447432
 20
-18.5479898447
  0
LINE
  5
354
100
AcDbEntity
  8
0
100
AcDbLine
 62
7
  6
CONTINUOUS
 10
1.999356
 20
17.5
 11
1.999356
 21
18.380226
  0
LINE
  5
355
100
AcDbEntity
  8
0
100
AcDbLine
 62
7
  6
CONTINUOUS
 10
2.337811
 20
18.380226
 11
2.337811
 21
18.5
  0
LINE
  5
356
100
AcDbEntity
  8
0
100
AcDbLine
 62
7
  6
CONTINUOUS
 10
2.75
 20
-5.0
 11
2.75
 21
5.0
  0
LINE
  5
357
100
AcDbEntity
  8
0
100
AcDbLine
 62
7
  6
CONTINUOUS
 10
3.392142
 20
17.5
 11
3.392142
 21
18.5
  0
LINE
  5
358
100
AcDbEntity
  8
RACCORDO
100
AcDbLine
 62
250
  6
CONTINUOUS
 10
3.5158009483
 20
-19.7607860213
 11
3.5158009483
 21
-18.8475787052
  0
LINE
  5
359
100
AcDbEntity
  8
0
100
AcDbLine
 62
7
  6
CONTINUOUS
 10
3.527281
 20
17.619774
 11
3.527281
 21
18.5
  0
LINE
  5
35A
100
AcDbEntity
  8
RACCORDO
100
AcDbLine
 62
250
  6
CONTINUOUS
 10
3.5367470262
 20
-19.929435023
 11
3.5367470262
 21
-20.5451466669
  0
LINE
  5
35B
100
AcDbEntity
  8
RACCORDO
100
AcDbLine
 62
250
  6
CONTINUOUS
 10
-3.8036885828
 20
-18.5117603839
 11
-3.8157552568
 21
-18.5479898447
  0
LINE
  5
35C
100
AcDbEntity
  8
RACCORDO
100
AcDbLine
 62
250
  6
CONTINUOUS
 10
-3.504568223
 20
-18.8138531253
 11
-3.5158009483
 21
-18.8475787052
  0
LINE
  5
35D
100
AcDbEntity
  8
0
100
AcDbLine
 62
7
  6
CONTINUOUS
 10
-7.2234042287
 20
-10.8387501192
 11
-7.0957446694
 21
-10.7137498808
  0
LINE
  5
35E
100
AcDbEntity
  8
0
100
AcDbLine
 62
7
  6
CONTINUOUS
 10
-7.2553191185
 20
-7.8075000596
 11
-7.4468085468
 21
-7.9324999404
  0
LINE
  5
35F
100
AcDbEntity
  8
0
100
AcDbLine
 62
7
  6
CONTINUOUS
 10
-8.2446808591
 20
-8.6825001192
 11
-8.0531914979
 21
-8.5575000596
  0
LINE
  5
360
100
AcDbEntity
  8
0
100
AcDbLine
 62
7
  6
CONTINUOUS
 10
-8.1489361674
 20
-7.0574999702
 11
-8.276595749
 21
-7.12
  0
LINE
  5
361
100
AcDbEntity
  8
0
100
AcDbLine
 62
7
  6
CONTINUOUS
 10
-3.000822
 20
17.5
 11
-3.362925
 21
18.5
  0
LINE
  5
362
100
AcDbEntity
  8
0
100
AcDbLine
 62
7
  6
CONTINUOUS
 10
-3.148473
 20
17.5
 11
-3.247349
 21
17.791063
  0
LINE
  5
363
100
AcDbEntity
  8
0
100
AcDbLine
 62
7
  6
CONTINUOUS
 10
-3.296059
 20
17.910837
 11
-3.445044
 21
18.354951
  0
LINE
  5
364
100
AcDbEntity
  8
RACCORDO
100
AcDbLine
 62
250
  6
CONTINUOUS
 10
3.8157552568
 20
-19.5
 11
3.8157552568
 21
-18.5479898447
  0
LINE
  5
365
100
AcDbEntity
  8
RACCORDO
100
AcDbLine
 62
250
  6
CONTINUOUS
 10
3.8367013348
 20
-19.6323546024
 11
3.8367013348
 21
-20.5528653412
  0
LINE
  5
366
100
AcDbEntity
  8
RACCORDO
100
AcDbLine
 62
250
  6
CONTINUOUS
 10
3.9632986652
 20
-20.5528653412
 11
3.9632986652
 21
-19.6323546024
  0
LINE
  5
367
100
AcDbEntity
  8
RACCORDO
100
AcDbLine
 62
250
  6
CONTINUOUS
 10
3.9842447432
 20
-19.5
 11
3.9842447432
 21
-18.5479898447
  0
LINE
  5
368
100
AcDbEntity
  8
0
100
AcDbLine
 62
7
  6
CONTINUOUS
 10
4.034277
 20
17.5
 11
4.034277
 21
17.619774
  0
LINE
  5
369
100
AcDbEntity
  8
RACCORDO
100
AcDbLine
 62
250
  6
CONTINUOUS
 10
4.2632529738
 20
-20.5451466669
 11
4.2632529738
 21
-19.929435023
  0
LINE
  5
36A
100
AcDbEntity
  8
RACCORDO
100
AcDbLine
 62
250
  6
CONTINUOUS
 10
4.2841990517
 20
-18.8475787052
 11
4.2841990517
 21
-19.7607860213
  0
LINE
  5
36B
100
AcDbEntity
  8
0
100
AcDbLine
 62
7
  6
CONTINUOUS
 10
4.457649
 20
17.5
 11
4.457649
 21
17.902507
  0
LINE
  5
36C
100
AcDbEntity
  8
0
100
AcDbLine
 62
7
  6
CONTINUOUS
 10
4.592708
 20
17.5
 11
4.592708
 21
17.902507
  0
LINE
  5
36D
100
AcDbEntity
  8
ASSI
100
AcDbLine
 62
7
  6
CONTINUOUS
 10
4.8
 20
1.7578395831
 11
4.8
 21
-1.7578395831
  0
LWPOLYLINE
  5
36E
100
AcDbEntity
  8
RACCORDO
100
AcDbPolyline
 62
7
  6
CONTINUOUS
 90
25
 70
0
 10
3.504568223
 20
-18.8138531253
 10
3.5051560111
 20
-18.7942511189
 10
3.507004882
 20
-18.774726903
 10
3.5101082588
 20
-18.7553620511
 10
3.5144532845
 20
-18.7362397925
 10
3.52002344
 20
-18.7174380938
 10
3.5268004294
 20
-18.6990298655
 10
3.5347592705
 20
-18.6810915462
 10
3.5438682983
 20
-18.6637015583
 10
3.5540936622
 20
-18.6469340623
 10
3.5653947384
 20
-18.6308619648
 10
3.5777263982
 20
-18.6155549028
 10
3.5910419162
 20
-18.6010789759
 10
3.6052898301
 20
-18.5874966288
 10
3.6204099176
 20
-18.5748710934
 10
3.636335731
 20
-18.5632641034
 10
3.6530004729
 20
-18.552728184
 10
3.6703340794
 20
-18.5433110225
 10
3.6882588365
 20
-18.5350588511
 10
3.7066995084
 20
-18.5280089746
 10
3.7255757428
 20
-18.5221944114
 10
3.7447974825
 20
-18.5176447958
 10
3.764278481
 20
-18.5143808811
 10
3.7839372526
 20
-18.5124163782
 10
3.8036885828
 20
-18.5117603839
  0
LWPOLYLINE
  5
36F
100
AcDbEntity
  8
RACCORDO
100
AcDbPolyline
 62
250
  6
CONTINUOUS
 90
16
 70
0
 10
3.5158009483
 20
-18.8475787052
 10
3.5174708423
 20
-18.8162812718
 10
3.5224050067
 20
-18.7853263413
 10
3.5305494446
 20
-18.7550526685
 10
3.5418150274
 20
-18.7257915528
 10
3.5560784704
 20
-18.6978632128
 10
3.573183682
 20
-18.6715732817
 10
3.5929434714
 20
-18.6472094629
 10
3.6151415978
 20
-18.6250383815
 10
3.6395351363
 20
-18.6053026664
 10
3.6658571367
 20
-18.5882182949
 10
3.6938195447
 20
-18.5739722297
 10
3.723116354
 20
-18.5627203723
 10
3.7534269556
 20
-18.5545858571
 10
3.7844196458
 20
-18.5496577042
 10
3.8157552568
 20
-18.5479898447
  0
LWPOLYLINE
  5
370
100
AcDbEntity
  8
RACCORDO
100
AcDbPolyline
 62
7
  6
CONTINUOUS
 90
19
 70
0
 10
3.5158009483
 20
-19.7607860213
 10
3.5170162382
 20
-19.7412279804
 10
3.5199287963
 20
-19.7217623838
 10
3.5245900109
 20
-19.7023892317
 10
3.5310355761
 20
-19.6829813808
 10
3.5392972053
 20
-19.6636659744
 10
3.5494132904
 20
-19.644824442
 10
3.5613786854
 20
-19.6264487649
 10
3.575202193
 20
-19.6085469618
 10
3.5909592771
 20
-19.5915245186
 10
3.6086179757
 20
-19.5753418015
 10
3.6281578452
 20
-19.5600384442
 10
3.6497043519
 20
-19.5461388337
 10
3.6732605303
 20
-19.5335684554
 10
3.6986771222
 20
-19.5224018239
 10
3.7258356785
 20
-19.5133868695
 10
3.7545634253
 20
-19.5067729025
 10
3.7846282522
 20
-19.5023106127
 10
3.8157552568
 20
-19.5
  0
LINE
  5
371
100
AcDbEntity
  8
0
100
AcDbLine
 62
7
  6
CONTINUOUS
 10
-7.2553191185
 20
-9.1825
 11
-7.4468085468
 21
-9.3074998808
  0
LINE
  5
372
100
AcDbEntity
  8
0
100
AcDbLine
 62
7
  6
CONTINUOUS
 10
-7.2553191185
 20
-10.6199998808
 11
-7.3510637879
 21
-10.6825
  0
LINE
  5
373
100
AcDbEntity
  8
0
100
AcDbLine
 62
7
  6
CONTINUOUS
 10
-8.1489361674
 20
-8.4325
 11
-8.276595749
 21
-8.4949999404
  0
LINE
  5
374
100
AcDbEntity
  8
0
100
AcDbLine
 62
7
  6
CONTINUOUS
 10
-7.3510637879
 20
-8.0575
 11
-7.2234042287
 21
-7.9950000596
  0
LINE
  5
375
100
AcDbEntity
  8
0
100
AcDbLine
 62
7
  6
CONTINUOUS
 10
-7.3510637879
 20
-9.4325001192
 11
-7.2234042287
 21
-9.37
  0
LINE
  5
376
100
AcDbEntity
  8
0
100
AcDbLine
 62
7
  6
CONTINUOUS
 10
-8.0531914979
 20
-7.02625
 11
-8.1489361674
 21
-7.0574999702
  0
LINE
  5
377
100
AcDbEntity
  8
ASSI
100
AcDbLine
 62
7
  6
CONTINUOUS
 10
8.070837
 20
3.997338
 11
7.571959
 21
3.997333
  0
LINE
  5
378
100
AcDbEntity
  8
ASSI
100
AcDbLine
 62
7
  6
CONTINUOUS
 10
6.40001
 20
4.401701
 11
8.450103
 21
4.401701
  0
LINE
  5
379
100
AcDbEntity
  8
0
100
AcDbLine
 62
7
  6
CONTINUOUS
 10
-4.6603073792
 20
5.0
 11
-2.75
 21
5.0
  0
LINE
  5
37A
100
AcDbEntity
  8
0
100
AcDbLine
 62
7
  6
CONTINUOUS
 10
2.75
 20
5.0
 11
4.6603073792
 21
5.0
  0
LINE
  5
37B
100
AcDbEntity
  8
ASSI
100
AcDbLine
 62
7
  6
CONTINUOUS
 10
7.192694
 20
3.991634
 11
6.40001
 21
3.99168
  0
LWPOLYLINE
  5
37C
100
AcDbEntity
  8
0
100
AcDbPolyline
 62
7
  6
CONTINUOUS
 90
10
 70
0
 10
6.7165449558
 20
-8.5746271351
 10
6.7196026352
 20
-8.63249342
 10
6.7268422504
 20
-8.6874845603
 10
6.7382638012
 20
-8.7396005562
 10
6.7541347619
 20
-8.7889718786
 10
6.7741876582
 20
-8.8354680564
 10
6.797620068
 20
-8.8786976769
 10
6.8241645173
 20
-8.9185302691
 10
6.8540884801
 20
-8.955096304
 10
6.8873919563
 20
-8.9883957815
  0
LINE
  5
37D
100
AcDbEntity
  8
0
100
AcDbLine
 62
7
  6
CONTINUOUS
 10
5.6
 20
-15.4603073792
 11
5.6
 21
-5.9396926208
  0
LINE
  5
37E
100
AcDbEntity
  8
0
100
AcDbLine
 62
7
  6
CONTINUOUS
 10
5.6
 20
5.9396926208
 11
5.6
 21
15.4603073792
  0
LINE
  5
37F
100
AcDbEntity
  8
DRAFT
100
AcDbLine
 62
7
  6
CONTINUOUS
 10
6.0
 20
20.6
 11
6.0
 21
20.0
  0
LINE
  5
380
100
AcDbEntity
  8
DRAFT
100
AcDbLine
 62
7
  6
CONTINUOUS
 10
6.0
 20
-20.0
 11
6.0
 21
-20.6
  0
LINE
  5
381
100
AcDbEntity
  8
ASSI
100
AcDbLine
 62
7
  6
CONTINUOUS
 10
6.400005
 20
4.675043
 11
6.40001
 21
5.085063
  0
LINE
  5
382
100
AcDbEntity
  8
ASSI
100
AcDbLine
 62
7
  6
CONTINUOUS
 10
6.400005
 20
6.674848
 11
6.400005
 21
7.084864
  0
LINE
  5
383
100
AcDbEntity
  8
ASSI
100
AcDbLine
 62
7
  6
CONTINUOUS
 10
6.400005
 20
8.270163
 11
6.400005
 21
8.680179
  0
LINE
  5
384
100
AcDbEntity
  8
ASSI
100
AcDbLine
 62
7
  6
CONTINUOUS
 10
6.40001
 20
3.99168
 11
6.40001
 21
4.401701
  0
LINE
  5
385
100
AcDbEntity
  8
ASSI
100
AcDbLine
 62
7
  6
CONTINUOUS
 10
6.400015
 20
2.761075
 11
6.40001
 21
3.222894
  0
LINE
  5
386
100
AcDbEntity
  8
ASSI
100
AcDbLine
 62
7
  6
CONTINUOUS
 10
6.40001
 20
5.991491
 11
6.400005
 21
6.401506
  0
LINE
  5
387
100
AcDbEntity
  8
ASSI
100
AcDbLine
 62
7
  6
CONTINUOUS
 10
6.40001
 20
7.472514
 11
6.400005
 21
7.882519
  0
LINE
  5
388
100
AcDbEntity
  8
ASSI
100
AcDbLine
 62
7
  6
CONTINUOUS
 10
6.400005
 20
9.090184
 11
6.4
 21
9.500199
  0
LINE
  5
389
100
AcDbEntity
  8
ASSI
100
AcDbLine
 62
7
  6
CONTINUOUS
 10
6.400005
 20
10.431755
 11
6.4
 21
10.841786
  0
LINE
  5
38A
100
AcDbEntity
  8
0
100
AcDbLine
 62
7
  6
CONTINUOUS
 10
6.444336
 20
-11.501114
 11
6.444336
 21
-11.14432
  0
LINE
  5
38B
100
AcDbEntity
  8
0
100
AcDbLine
 62
7
  6
CONTINUOUS
 10
6.444336
 20
-10.230238
 11
6.444336
 21
-9.886505
  0
LINE
  5
38C
100
AcDbEntity
  8
0
100
AcDbLine
 62
7
  6
CONTINUOUS
 10
6.444336
 20
-7.609082
 11
6.444336
 21
-7.159916
  0
LINE
  5
38D
100
AcDbEntity
  8
0
100
AcDbLine
 62
7
  6
CONTINUOUS
 10
6.444336
 20
-6.239248
 11
6.444336
 21
-5.882187
  0
LINE
  5
38E
100
AcDbEntity
  8
0
100
AcDbLine
 62
7
  6
CONTINUOUS
 10
6.444336
 20
-5.457553
 11
6.444336
 21
-5.100478
  0
LINE
  5
38F
100
AcDbEntity
  8
0
100
AcDbLine
 62
7
  6
CONTINUOUS
 10
6.444336
 20
-4.671057
 11
6.444336
 21
-3.25
  0
LINE
  5
390
100
AcDbEntity
  8
0
100
AcDbLine
 62
7
  6
CONTINUOUS
 10
6.761643
 20
-3.607054
 11
6.761653
 21
-4.671057
  0
LINE
  5
391
100
AcDbEntity
  8
ASSI
100
AcDbLine
 62
7
  6
CONTINUOUS
 10
6.803174
 20
5.2145
 11
6.803174
 21
5.862049
  0
LWPOLYLINE
  5
392
100
AcDbEntity
  8
0
100
AcDbPolyline
 62
7
  6
CONTINUOUS
 90
10
 70
0
 10
6.4
 20
-8.5736958197
 10
6.4056897796
 20
-8.4715444259
 10
6.418781944
 20
-8.3752276524
 10
6.4392764934
 20
-8.2847454991
 10
6.4675406602
 20
-8.2001861756
 10
6.503207212
 20
-8.1214614724
 10
6.5451744512
 20
-8.0483067604
 10
6.5930751454
 20
-7.9806338302
 10
6.647276527
 20
-7.9185308913
 10
6.7077785961
 20
-7.8619979438
  0
LINE
  5
393
100
AcDbEntity
  8
RACCORDO
100
AcDbLine
 62
250
  6
CONTINUOUS
 10
3.9632986652
 20
-19.6323546024
 11
3.9797370063
 21
-19.5
  0
LINE
  5
394
100
AcDbEntity
  8
RACCORDO
100
AcDbLine
 62
250
  6
CONTINUOUS
 10
4.2632529738
 20
-19.929435023
 11
4.2841990517
 21
-19.7607860213
  0
LINE
  5
395
100
AcDbEntity
  8
0
100
AcDbLine
 62
7
  6
CONTINUOUS
 10
-7.4468085468
 20
-8.0887500596
 11
-7.3510637879
 21
-8.0575
  0
LINE
  5
396
100
AcDbEntity
  8
0
100
AcDbLine
 62
7
  6
CONTINUOUS
 10
-8.0531914979
 20
-8.4012499404
 11
-8.1489361674
 21
-8.4325
  0
LINE
  5
397
100
AcDbEntity
  8
0
100
AcDbLine
 62
7
  6
CONTINUOUS
 10
-7.4468085468
 20
-9.46375
 11
-7.3510637879
 21
-9.4325001192
  0
LINE
  5
398
100
AcDbEntity
  8
DRAFT
100
AcDbLine
 62
7
  6
CONTINUOUS
 10
10.5
 20
6.0
 11
9.7811769562
 21
6.0
  0
LINE
  5
399
100
AcDbEntity
  8
DRAFT
100
AcDbLine
 62
7
  6
CONTINUOUS
 10
-9.7811769562
 20
6.0
 11
-10.5
 21
6.0
  0
LINE
  5
39A
100
AcDbEntity
  8
ASSI
100
AcDbLine
 62
7
  6
CONTINUOUS
 10
8.450097
 20
6.674848
 11
6.400005
 21
6.674848
  0
LWPOLYLINE
  5
39B
100
AcDbEntity
  8
0
100
AcDbPolyline
 62
7
  6
CONTINUOUS
 90
10
 70
0
 10
8.171489019
 20
-8.5746271351
 10
8.1683932938
 20
-8.5163467585
 10
8.1610942917
 20
-8.4609449741
 10
8.1495920127
 20
-8.408421782
 10
8.1335778459
 20
-8.3585864451
 10
8.1133604022
 20
-8.3116297004
 10
8.0898655144
 20
-8.2681237595
 10
8.0634017933
 20
-8.2282593596
 10
8.0336606279
 20
-8.1918457634
 10
8.0006420184
 20
-8.1588829711
  0
LINE
  5
39C
100
AcDbEntity
  8
ASSI
100
AcDbLine
 62
7
  6
CONTINUOUS
 10
7.192689
 20
3.633781
 11
7.192694
 21
3.991634
  0
LINE
  5
39D
100
AcDbEntity
  8
ASSI
100
AcDbLine
 62
7
  6
CONTINUOUS
 10
7.192689
 20
5.736984
 11
7.192689
 21
5.339571
  0
LINE
  5
39E
100
AcDbEntity
  8
0
100
AcDbLine
 62
7
  6
CONTINUOUS
 10
7.311885
 20
-4.591377
 11
7.311877
 21
-3.607054
  0
LINE
  5
39F
100
AcDbEntity
  8
ASSI
100
AcDbLine
 62
7
  6
CONTINUOUS
 10
7.571959
 20
3.997333
 11
7.571959
 21
3.4984886187
  0
LINE
  5
3A0
100
AcDbEntity
  8
0
100
AcDbLine
 62
7
  6
CONTINUOUS
 10
7.629216
 20
-3.607054
 11
7.629209
 21
-4.591377
  0
LINE
  5
3A1
100
AcDbEntity
  8
ASSI
100
AcDbLine
 62
7
  6
CONTINUOUS
 10
8.070837
 20
3.4984973813
 11
8.070837
 21
3.997338
  0
LINE
  5
3A2
100
AcDbEntity
  8
0
100
AcDbLine
 62
7
  6
CONTINUOUS
 10
8.126356
 20
-4.66302
 11
8.126359
 21
-3.607054
  0
LINE
  5
3A3
100
AcDbEntity
  8
0
100
AcDbLine
 62
7
  6
CONTINUOUS
 10
8.443673
 20
-3.25
 11
8.443673
 21
-4.66302
  0
LINE
  5
3A4
100
AcDbEntity
  8
0
100
AcDbLine
 62
7
  6
CONTINUOUS
 10
8.443673
 20
-5.100478
 11
8.443673
 21
-5.457553
  0
LINE
  5
3A5
100
AcDbEntity
  8
0
100
AcDbLine
 62
7
  6
CONTINUOUS
 10
8.443673
 20
-5.882187
 11
8.443673
 21
-6.239248
  0
LINE
  5
3A6
100
AcDbEntity
  8
0
100
AcDbLine
 62
7
  6
CONTINUOUS
 10
8.443673
 20
-7.125609
 11
8.443673
 21
-7.604369
  0
LINE
  5
3A7
100
AcDbEntity
  8
0
100
AcDbLine
 62
7
  6
CONTINUOUS
 10
8.443673
 20
-9.886505
 11
8.443673
 21
-10.235388
  0
LINE
  5
3A8
100
AcDbEntity
  8
0
100
AcDbLine
 62
7
  6
CONTINUOUS
 10
8.443673
 20
-11.157377
 11
8.443673
 21
-11.501114
  0
LINE
  5
3A9
100
AcDbEntity
  8
ASSI
100
AcDbLine
 62
7
  6
CONTINUOUS
 10
8.450097
 20
11.5
 11
8.450097
 21
11.089979
  0
LINE
  5
3AA
100
AcDbEntity
  8
ASSI
100
AcDbLine
 62
7
  6
CONTINUOUS
 10
8.450097
 20
10.183557
 11
8.450097
 21
9.773536
  0
LINE
  5
3AB
100
AcDbEntity
  8
ASSI
100
AcDbLine
 62
7
  6
CONTINUOUS
 10
8.450097
 20
9.500194
 11
8.450097
 21
9.090179
  0
LINE
  5
3AC
100
AcDbEntity
  8
ASSI
100
AcDbLine
 62
7
  6
CONTINUOUS
 10
8.450097
 20
8.680179
 11
8.450097
 21
8.060346
  0
LINE
  5
3AD
100
AcDbEntity
  8
ASSI
100
AcDbLine
 62
7
  6
CONTINUOUS
 10
8.450097
 20
7.294681
 11
8.450097
 21
6.674848
  0
LINE
  5
3AE
100
AcDbEntity
  8
ASSI
100
AcDbLine
 62
7
  6
CONTINUOUS
 10
8.450103
 20
5.743298
 11
8.450103
 21
5.333262
  0
LINE
  5
3AF
100
AcDbEntity
  8
ASSI
100
AcDbLine
 62
7
  6
CONTINUOUS
 10
8.450103
 20
4.401701
 11
8.450103
 21
3.4415831772
  0
LINE
  5
3B0
100
AcDbEntity
  8
RACCORDO
100
AcDbLine
 62
7
  6
CONTINUOUS
 10
-3.5129680333
 20
-20.509473649
 11
-3.5367470262
 21
-20.5451466669
  0
LINE
  5
3B1
100
AcDbEntity
  8
RACCORDO
100
AcDbLine
 62
250
  6
CONTINUOUS
 10
-9.709473649
 20
-20.2095764515
 11
-9.8
 21
-20.3001028025
  0
LINE
  5
3B2
100
AcDbEntity
  8
RACCORDO
100
AcDbLine
 62
250
  6
CONTINUOUS
 10
-9.4095764515
 20
-20.509473649
 11
-9.5001028025
 21
-20.6
  0
LINE
  5
3B3
100
AcDbEntity
  8
ASSI
100
AcDbLine
 62
7
  6
CONTINUOUS
 10
6.400005
 20
7.084864
 11
7.751903
 21
7.084869
  0
LINE
  5
3B4
100
AcDbEntity
  8
ASSI
100
AcDbLine
 62
7
  6
CONTINUOUS
 10
7.751903
 20
8.270163
 11
6.400005
 21
8.270163
  0
LINE
  5
3B5
100
AcDbEntity
  8
ASSI
100
AcDbLine
 62
7
  6
CONTINUOUS
 10
7.811604
 20
5.538282
 11
7.192689
 21
5.736984
  0
LINE
  5
3B6
100
AcDbEntity
  8
ASSI
100
AcDbLine
 62
7
  6
CONTINUOUS
 10
6.803174
 20
5.862049
 11
6.40001
 21
5.991491
  0
LINE
  5
3B7
100
AcDbEntity
  8
ASSI
100
AcDbLine
 62
7
  6
CONTINUOUS
 10
6.400005
 20
6.401506
 11
8.450103
 21
5.743298
  0
LINE
  5
3B8
100
AcDbEntity
  8
RACCORDO
100
AcDbLine
 62
250
  6
CONTINUOUS
 10
-9.709473649
 20
20.2095764515
 11
-9.8
 21
20.3001028025
  0
LINE
  5
3B9
100
AcDbEntity
  8
RACCORDO
100
AcDbLine
 62
250
  6
CONTINUOUS
 10
-9.4095764515
 20
20.509473649
 11
-9.5001028025
 21
20.6
  0
LINE
  5
3BA
100
AcDbEntity
  8
0
100
AcDbLine
 62
7
  6
CONTINUOUS
 10
3.120569
 20
17.5
 11
3.021685
 21
17.791063
  0
LINE
  5
3BB
100
AcDbEntity
  8
0
100
AcDbLine
 62
7
  6
CONTINUOUS
 10
2.972926
 20
17.910837
 11
2.823933
 21
18.354951
  0
LINE
  5
3BC
100
AcDbEntity
  8
RACCORDO
100
AcDbLine
 62
250
  6
CONTINUOUS
 10
9.709473649
 20
-20.2095764515
 11
9.6999295312
 21
-17.293310388
  0
LINE
  5
3BD
100
AcDbEntity
  8
RACCORDO
100
AcDbLine
 62
250
  6
CONTINUOUS
 10
9.6999295312
 20
-17.293310388
 11
9.6976692656
 21
-16.4579449064
  0
LINE
  5
3BE
100
AcDbEntity
  8
RACCORDO
100
AcDbLine
 62
250
  6
CONTINUOUS
 10
9.3977720681
 20
-1.7578395831
 11
9.3977720681
 21
-16.4726759637
  0
LINE
  5
3BF
100
AcDbEntity
  8
RACCORDO
100
AcDbLine
 62
250
  6
CONTINUOUS
 10
9.4095764515
 20
-20.509473649
 11
9.3977343402
 21
-16.4726759637
  0
LINE
  5
3C0
100
AcDbEntity
  8
RACCORDO
100
AcDbLine
 62
250
  6
CONTINUOUS
 10
9.6976692656
 20
-2.4343622029
 11
9.6976692656
 21
-16.4579449064
  0
LINE
  5
3C1
100
AcDbEntity
  8
DRAFT
100
AcDbLine
 62
7
  6
CONTINUOUS
 10
9.7811769562
 20
6.0
 11
9.7811769562
 21
-6.0
  0
LINE
  5
3C2
100
AcDbEntity
  8
RACCORDO
100
AcDbLine
 62
7
  6
CONTINUOUS
 10
9.8
 20
20.3001028025
 11
9.8
 21
6.0
  0
LINE
  5
3C3
100
AcDbEntity
  8
RACCORDO
100
AcDbLine
 62
7
  6
CONTINUOUS
 10
9.8
 20
-6.0
 11
9.8
 21
-20.3001028025
  0
LINE
  5
3C4
100
AcDbEntity
  8
RACCORDO
100
AcDbLine
 62
250
  6
CONTINUOUS
 10
9.3977720681
 20
1.7578395831
 11
9.3988411252
 21
16.893519555
  0
LINE
  5
3C5
100
AcDbEntity
  8
RACCORDO
100
AcDbLine
 62
250
  6
CONTINUOUS
 10
9.6976692656
 20
2.4343622029
 11
9.6987734783
 21
16.8757483513
  0
LINE
  5
3C6
100
AcDbEntity
  8
RACCORDO
100
AcDbLine
 62
250
  6
CONTINUOUS
 10
9.3988411252
 20
16.893519555
 11
9.4080516617
 21
19.8328192946
  0
LINE
  5
3C7
100
AcDbEntity
  8
RACCORDO
100
AcDbLine
 62
250
  6
CONTINUOUS
 10
9.4080516617
 20
19.8328192946
 11
9.4095764515
 21
20.509473649
  0
LINE
  5
3C8
100
AcDbEntity
  8
RACCORDO
100
AcDbLine
 62
250
  6
CONTINUOUS
 10
9.6987734783
 20
16.8757483513
 11
9.709473649
 21
20.2095764515
  0
LWPOLYLINE
  5
3C9
100
AcDbEntity
  8
RACCORDO
100
AcDbPolyline
 62
7
  6
CONTINUOUS
 90
34
 70
0
 10
9.6976692656
 20
2.4343622029
 10
9.696695316
 20
2.3999384558
 10
9.6947761395
 20
2.3664215255
 10
9.6920129981
 20
2.3338114118
 10
9.6885183494
 20
2.3021226396
 10
9.6843814214
 20
2.2713406841
 10
9.679641836
 20
2.2414219713
 10
9.6743634577
 20
2.2123681125
 10
9.6686169589
 20
2.1841774964
 10
9.6624108913
 20
2.1568017155
 10
9.6557900904
 20
2.1302380424
 10
9.6488045923
 20
2.1044892046
 10
9.6414424822
 20
2.0795149771
 10
9.6337358396
 20
2.0553088447
 10
9.6257197983
 20
2.0318773226
 10
9.6173662286
 20
2.0091997318
 10
9.608699324
 20
1.9872662567
 10
9.5997425281
 20
1.9660867129
 10
9.5904499885
 20
1.9456698678
 10
9.580844204
 20
1.9260035494
 10
9.570936325
 20
1.9070999296
 10
9.560648176
 20
1.889004292
 10
9.5500796574
 20
1.8717633121
 10
9.5391570927
 20
1.8553303143
 10
9.5275094066
 20
1.8396105558
 10
9.5149336526
 20
1.8242912035
 10
9.5016119692
 20
1.8096850905
 10
9.4877431633
 20
1.7966359725
 10
9.4733045932
 20
1.7852356973
 10
9.4583581546
 20
1.7753924171
 10
9.4432588447
 20
1.7676743443
 10
9.4281560629
 20
1.7622708831
 10
9.4129807633
 20
1.7589926294
 10
9.3977720681
 20
1.7578395831
  0
LWPOLYLINE
  5
3CA
100
AcDbEntity
  8
0
100
AcDbPolyline
 62
7
  6
CONTINUOUS
 90
10
 70
0
 10
8.4884114397
 20
-8.5736958197
 10
8.4827229822
 20
-8.6758336218
 10
8.4696335756
 20
-8.772134486
 10
8.4491432201
 20
-8.8625984124
 10
8.4208869076
 20
-8.9471334902
 10
8.3852296463
 20
-9.0258316302
 10
8.3432664596
 20
-9.0989685643
 10
8.2953623555
 20
-9.1666362034
 10
8.241152326
 20
-9.2287426367
 10
8.1806363713
 20
-9.2852878642
  0
LINE
  5
3CB
100
AcDbEntity
  8
RACCORDO
100
AcDbLine
 62
250
  6
CONTINUOUS
 10
3.9963114172
 20
-18.5117603839
 11
3.9842447432
 21
-18.5479898447
  0
LINE
  5
3CC
100
AcDbEntity
  8
RACCORDO
100
AcDbLine
 62
250
  6
CONTINUOUS
 10
4.295431777
 20
-18.8138531253
 11
4.2841990517
 21
-18.8475787052
  0
LINE
  5
3CD
100
AcDbEntity
  8
DRAFT
100
AcDbLine
 62
7
  6
CONTINUOUS
 10
-6.9
 20
-20.0
 11
-7.5
 21
-20.6
  0
LINE
  5
3CE
100
AcDbEntity
  8
0
100
AcDbLine
 62
7
  6
CONTINUOUS
 10
7.620965
 20
-6.744504
 11
6.444336
 21
-7.609082
  0
LINE
  5
3CF
100
AcDbEntity
  8
0
100
AcDbLine
 62
7
  6
CONTINUOUS
 10
6.444336
 20
-7.159916
 11
7.375374
 21
-6.494577
  0
LINE
  5
3D0
100
AcDbEntity
  8
ASSI
100
AcDbLine
 62
7
  6
CONTINUOUS
 10
6.400005
 20
8.680179
 11
8.450097
 21
8.680179
  0
LINE
  5
3D1
100
AcDbEntity
  8
ASSI
100
AcDbLine
 62
7
  6
CONTINUOUS
 10
8.450097
 20
9.090179
 11
6.400005
 21
9.090184
  0
LINE
  5
3D2
100
AcDbEntity
  8
ASSI
100
AcDbLine
 62
7
  6
CONTINUOUS
 10
6.4
 20
9.500199
 11
8.450097
 21
9.500194
  0
LINE
  5
3D3
100
AcDbEntity
  8
ASSI
100
AcDbLine
 62
7
  6
CONTINUOUS
 10
7.751903
 20
7.084869
 11
6.40001
 21
7.472514
  0
LINE
  5
3D4
100
AcDbEntity
  8
ASSI
100
AcDbLine
 62
7
  6
CONTINUOUS
 10
7.115004
 20
7.677514
 11
8.450097
 21
7.294681
  0
LINE
  5
3D5
100
AcDbEntity
  8
DRAFT
100
AcDbLine
 62
7
  6
CONTINUOUS
 10
-7.5
 20
20.6
 11
-6.9
 21
20.0
  0
LINE
  5
3D6
100
AcDbEntity
  8
0
100
AcDbLine
 62
7
  6
CONTINUOUS
 10
0.474261
 20
17.5
 11
-0.0369
 21
18.31212
  0
LINE
  5
3D7
100
AcDbEntity
  8
0
100
AcDbLine
 62
7
  6
CONTINUOUS
 10
0.495158
 20
17.687716
 11
-0.007672
 21
18.5
  0
LINE
  5
3D8
100
AcDbEntity
  8
0
100
AcDbLine
 62
7
  6
CONTINUOUS
 10
3.268244
 20
17.5
 11
2.906068
 21
18.5
  0
LINE
  5
3D9
100
AcDbEntity
  8
0
100
AcDbLine
 62
7
  6
CONTINUOUS
 10
10.5
 20
6.0
 11
10.5
 21
-6.0
  0
LINE
  5
3DA
100
AcDbEntity
  8
RACCORDO
100
AcDbLine
 62
7
  6
CONTINUOUS
 10
11.0
 20
21.6001713375
 11
11.0
 21
-21.6001713375
  0
LWPOLYLINE
  5
3DB
100
AcDbEntity
  8
RACCORDO
100
AcDbPolyline
 62
250
  6
CONTINUOUS
 90
13
 70
0
 10
9.709473649
 20
-20.2095764515
 10
9.7068834103
 20
-20.2487039214
 10
9.6992105979
 20
-20.2871624926
 10
9.6865863817
 20
-20.3242947015
 10
9.6692265771
 20
-20.359465759
 10
9.6474279567
 20
-20.3920744027
 10
9.6215631758
 20
-20.4215631758
 10
9.5920744027
 20
-20.4474279567
 10
9.559465759
 20
-20.4692265771
 10
9.5242947015
 20
-20.4865863817
 10
9.4871624926
 20
-20.4992105979
 10
9.4487039214
 20
-20.5068834103
 10
9.4095764515
 20
-20.509473649
  0
LWPOLYLINE
  5
3DC
100
AcDbEntity
  8
0
100
AcDbPolyline
 62
7
  6
CONTINUOUS
 90
10
 70
0
 10
6.8873919563
 20
-8.1588829711
 10
6.8543734558
 20
-8.191844618
 10
6.8246323902
 20
-8.2282571888
 10
6.7981687598
 20
-8.2681206833
 10
6.7746739776
 20
-8.3116256171
 10
6.7544566304
 20
-8.3585814747
 10
6.7384424786
 20
-8.4084167099
 10
6.726940109
 20
-8.4609408074
 10
6.7196409347
 20
-8.5163442824
 10
6.7165449558
 20
-8.5746271351
  0
LWPOLYLINE
  5
3DD
100
AcDbEntity
  8
0
100
AcDbPolyline
 62
7
  6
CONTINUOUS
 90
10
 70
0
 10
6.7077785961
 20
-7.8619979438
 10
6.7650331706
 20
-7.8163133595
 10
6.8292688203
 20
-7.7744734035
 10
6.9004855454
 20
-7.7364780757
 10
6.9798012258
 20
-7.7014791893
 10
7.0660979814
 20
-7.6703249312
 10
7.1560221727
 20
-7.645559862
 10
7.2484559195
 20
-7.6280321684
 10
7.3445171019
 20
-7.6168936636
 10
7.4442057199
 20
-7.6121443476
  0
LINE
  5
3DE
100
AcDbEntity
  8
ASSI
100
AcDbLine
 62
7
  6
CONTINUOUS
 10
8.450097
 20
9.773536
 11
6.400005
 21
10.431755
  0
LWPOLYLINE
  5
3DF
100
AcDbEntity
  8
0
100
AcDbPolyline
 62
7
  6
CONTINUOUS
 90
10
 70
0
 10
8.0006420184
 20
-8.9883957815
 10
8.0339445025
 20
-8.9550985119
 10
8.0638678186
 20
-8.9185340378
 10
8.0904119667
 20
-8.8787023593
 10
8.113844551
 20
-8.8354728786
 10
8.1338979672
 20
-8.7889761934
 10
8.1497694034
 20
-8.7396040972
 10
8.1611912553
 20
-8.6874871876
 10
8.1684311272
 20
-8.6324948669
 10
8.171489019
 20
-8.5746271351
  0
LWPOLYLINE
  5
3E0
100
AcDbEntity
  8
0
100
AcDbPolyline
 62
7
  6
CONTINUOUS
 90
10
 70
0
 10
8.1806363713
 20
-9.2852878642
 10
8.1233772058
 20
-9.3309741061
 10
8.0591385385
 20
-9.3728147047
 10
7.9879203692
 20
-9.4108096599
 10
7.9086055164
 20
-9.4458067498
 10
7.8223111617
 20
-9.4769581964
 10
7.7323888502
 20
-9.5017206658
 10
7.6399557636
 20
-9.5192463801
 10
7.5438947201
 20
-9.5303831172
 10
7.4442057199
 20
-9.5351308772
  0
LINE
  5
3E1
100
AcDbEntity
  8
0
100
AcDbLine
 62
7
  6
CONTINUOUS
 10
8.443673
 20
-10.235388
 11
7.03158
 21
-11.157369
  0
LINE
  5
3E2
100
AcDbEntity
  8
0
100
AcDbLine
 62
7
  6
CONTINUOUS
 10
6.444336
 20
-11.14432
 11
7.841017
 21
-10.235082
  0
LINE
  5
3E3
100
AcDbEntity
  8
ASSI
100
AcDbLine
 62
7
  6
CONTINUOUS
 10
7.038498
 20
10.636765
 11
8.450097
 21
10.183557
  0
LINE
  5
3E4
100
AcDbEntity
  8
0
100
AcDbLine
 62
7
  6
CONTINUOUS
 10
4.457649
 20
17.902507
 11
4.080213
 21
18.5
  0
LINE
  5
3E5
100
AcDbEntity
  8
0
100
AcDbLine
 62
7
  6
CONTINUOUS
 10
4.524532
 20
18.01945
 11
4.237593
 21
18.5
  0
LINE
  5
3E6
100
AcDbEntity
  8
RACCORDO
100
AcDbLine
 62
7
  6
CONTINUOUS
 10
4.2870319667
 20
-20.509473649
 11
4.2632529738
 21
-20.5451466669
  0
LINE
  5
3E7
100
AcDbEntity
  8
0
100
AcDbLine
 62
7
  6
CONTINUOUS
 10
4.6603073792
 20
16.4
 11
-4.6603073792
 21
16.4
  0
LINE
  5
3E8
100
AcDbEntity
  8
RACCORDO
100
AcDbLine
 62
7
  6
CONTINUOUS
 10
-9.3977720681
 20
16.4726759637
 11
9.3977720681
 21
16.4726759637
  0
LWPOLYLINE
  5
3E9
100
AcDbEntity
  8
RACCORDO
100
AcDbPolyline
 62
250
  6
CONTINUOUS
 90
16
 70
0
 10
9.709473649
 20
-20.2095764515
 10
9.7070851442
 20
-20.2139110661
 10
9.7015436643
 20
-20.2181997439
 10
9.6929079376
 20
-20.2223970369
 10
9.681269485
 20
-20.2264584665
 10
9.6667516498
 20
-20.230340991
 10
9.6495082909
 20
-20.2340034608
 10
9.6297221523
 20
-20.2374070606
 10
9.6076029259
 20
-20.2405157212
 10
9.5833850297
 20
-20.2432964971
 10
9.5573251231
 20
-20.2457199161
 10
9.5296993871
 20
-20.2477602957
 10
9.5008005972
 20
-20.249396015
 10
9.4709350206
 20
-20.2506097377
 10
9.4404191705
 20
-20.251388597
 10
9.4095764515
 20
-20.2517243354
  0
LWPOLYLINE
  5
3EA
100
AcDbEntity
  8
0
100
AcDbPolyline
 62
7
  6
CONTINUOUS
 90
21
 70
0
 10
-2.4680425151
 20
17.615568
 10
-2.4394276788
 20
17.6178315834
 10
-2.4120873953
 20
17.6224299629
 10
-2.3860216647
 20
17.6293630978
 10
-2.3610940567
 20
17.638769104
 10
-2.3374410015
 20
17.6505097172
 10
-2.3154717898
 20
17.6641703132
 10
-2.2952528417
 20
17.6798121491
 10
-2.2767177371
 20
17.6973737497
 10
-2.2600765057
 20
17.7162564295
 10
-2.2454531088
 20
17.7364324409
 10
-2.2327235851
 20
17.7579293326
 10
-2.2217260815
 20
17.7802314349
 10
-2.2126034345
 20
17.8033360841
 10
-2.2052128076
 20
17.8272457995
 10
-2.198963837
 20
17.8514527706
 10
-2.1936897185
 20
17.8758588505
 10
-2.1895572563
 20
17.9005621321
 10
-2.1864765007
 20
17.9253492313
 10
-2.1844174681
 20
17.9501490225
 10
-2.1834101419
 20
17.9750326155
  0
LINE
  5
3EB
100
AcDbEntity
  8
0
100
AcDbLine
 62
7
  6
CONTINUOUS
 10
-4.970225
 20
17.5
 11
-4.839311
 21
17.5
  0
LINE
  5
3EC
100
AcDbEntity
  8
0
100
AcDbLine
 62
7
  6
CONTINUOUS
 10
-4.55795
 20
17.5
 11
-4.42424
 21
17.5
  0
LINE
  5
3ED
100
AcDbEntity
  8
0
100
AcDbLine
 62
7
  6
CONTINUOUS
 10
-4.142933
 20
17.5
 11
-4.011967
 21
17.5
  0
LINE
  5
3EE
100
AcDbEntity
  8
0
100
AcDbLine
 62
7
  6
CONTINUOUS
 10
-3.892185
 20
17.5
 11
-3.752921
 21
17.5
  0
LINE
  5
3EF
100
AcDbEntity
  8
0
100
AcDbLine
 62
7
  6
CONTINUOUS
 10
-3.148473
 20
17.5
 11
-3.000822
 21
17.5
  0
LINE
  5
3F0
100
AcDbEntity
  8
0
100
AcDbLine
 62
7
  6
CONTINUOUS
 10
-2.869912
 20
17.5
 11
-2.4645989891
 21
17.5
  0
LINE
  5
3F1
100
AcDbEntity
  8
0
100
AcDbLine
 62
7
  6
CONTINUOUS
 10
-1.857337
 20
17.5
 11
-1.119124
 21
17.5
  0
LINE
  5
3F2
100
AcDbEntity
  8
0
100
AcDbLine
 62
7
  6
CONTINUOUS
 10
-0.534134
 20
17.5
 11
-0.399043
 21
17.5
  0
LINE
  5
3F3
100
AcDbEntity
  8
0
100
AcDbLine
 62
7
  6
CONTINUOUS
 10
-0.167874
 20
17.5
 11
-0.0369
 21
17.5
  0
LINE
  5
3F4
100
AcDbEntity
  8
0
100
AcDbLine
 62
7
  6
CONTINUOUS
 10
0.474261
 20
17.5
 11
0.626068
 21
17.5
  0
LINE
  5
3F5
100
AcDbEntity
  8
0
100
AcDbLine
 62
7
  6
CONTINUOUS
 10
1.245834
 20
17.5
 11
1.380965
 21
17.5
  0
LINE
  5
3F6
100
AcDbEntity
  8
0
100
AcDbLine
 62
7
  6
CONTINUOUS
 10
1.864273
 20
17.5
 11
1.999356
 21
17.5
  0
LINE
  5
3F7
100
AcDbEntity
  8
0
100
AcDbLine
 62
7
  6
CONTINUOUS
 10
2.376808
 20
17.5
 11
2.516064
 21
17.5
  0
LINE
  5
3F8
100
AcDbEntity
  8
0
100
AcDbLine
 62
7
  6
CONTINUOUS
 10
3.120569
 20
17.5
 11
3.268244
 21
17.5
  0
LINE
  5
3F9
100
AcDbEntity
  8
0
100
AcDbLine
 62
7
  6
CONTINUOUS
 10
3.392142
 20
17.5
 11
4.034277
 21
17.5
  0
LINE
  5
3FA
100
AcDbEntity
  8
0
100
AcDbLine
 62
7
  6
CONTINUOUS
 10
4.457649
 20
17.5
 11
4.592708
 21
17.5
  0
LINE
  5
3FB
100
AcDbEntity
  8
0
100
AcDbLine
 62
7
  6
CONTINUOUS
 10
-2.734773
 20
17.615568
 11
-2.4680425151
 21
17.615568
  0
LINE
  5
3FC
100
AcDbEntity
  8
0
100
AcDbLine
 62
7
  6
CONTINUOUS
 10
-1.722205
 20
17.619774
 11
-1.119124
 21
17.619774
  0
LINE
  5
3FD
100
AcDbEntity
  8
0
100
AcDbLine
 62
7
  6
CONTINUOUS
 10
3.527281
 20
17.619774
 11
4.034277
 21
17.619774
  0
LINE
  5
3FE
100
AcDbEntity
  8
0
100
AcDbLine
 62
7
  6
CONTINUOUS
 10
-3.648449
 20
17.791063
 11
-3.247349
 21
17.791063
  0
LINE
  5
3FF
100
AcDbEntity
  8
0
100
AcDbLine
 62
7
  6
CONTINUOUS
 10
2.620545
 20
17.791063
 11
3.021685
 21
17.791063
  0
LINE
  5
400
100
AcDbEntity
  8
0
100
AcDbLine
 62
7
  6
CONTINUOUS
 10
-3.606653
 20
17.910837
 11
-3.296059
 21
17.910837
  0
LINE
  5
401
100
AcDbEntity
  8
0
100
AcDbLine
 62
7
  6
CONTINUOUS
 10
2.662332
 20
17.910837
 11
2.972926
 21
17.910837
  0
LINE
  5
402
100
AcDbEntity
  8
0
100
AcDbLine
 62
7
  6
CONTINUOUS
 10
-1.722205
 20
17.954023
 11
-1.174846
 21
17.954023
  0
LINE
  5
403
100
AcDbEntity
  8
0
100
AcDbLine
 62
7
  6
CONTINUOUS
 10
-1.722205
 20
18.073797
 11
-1.174846
 21
18.073797
  0
LINE
  5
404
100
AcDbEntity
  8
0
100
AcDbLine
 62
7
  6
CONTINUOUS
 10
-1.722205
 20
18.380226
 11
-1.128885
 21
18.380226
  0
LINE
  5
405
100
AcDbEntity
  8
0
100
AcDbLine
 62
7
  6
CONTINUOUS
 10
1.525818
 20
18.380226
 11
1.864273
 21
18.380226
  0
LINE
  5
406
100
AcDbEntity
  8
0
100
AcDbLine
 62
7
  6
CONTINUOUS
 10
1.999356
 20
18.380226
 11
2.337811
 21
18.380226
  0
LINE
  5
407
100
AcDbEntity
  8
0
100
AcDbLine
 62
7
  6
CONTINUOUS
 10
-2.734773
 20
18.384432
 11
-2.4680425151
 21
18.384432
  0
LINE
  5
408
100
AcDbEntity
  8
0
100
AcDbLine
 62
7
  6
CONTINUOUS
 10
-4.970225
 20
18.5
 11
-4.776623
 21
18.5
  0
LINE
  5
409
100
AcDbEntity
  8
0
100
AcDbLine
 62
7
  6
CONTINUOUS
 10
-4.204195
 20
18.5
 11
-4.011967
 21
18.5
  0
LINE
  5
40A
100
AcDbEntity
  8
0
100
AcDbLine
 62
7
  6
CONTINUOUS
 10
-3.516156
 20
18.5
 11
-3.362925
 21
18.5
  0
LINE
  5
40B
100
AcDbEntity
  8
0
100
AcDbLine
 62
7
  6
CONTINUOUS
 10
-2.869912
 20
18.5
 11
-2.4603472154
 21
18.5
  0
LINE
  5
40C
100
AcDbEntity
  8
0
100
AcDbLine
 62
7
  6
CONTINUOUS
 10
-1.857337
 20
18.5
 11
-1.128885
 21
18.5
  0
LINE
  5
40D
100
AcDbEntity
  8
0
100
AcDbLine
 62
7
  6
CONTINUOUS
 10
-0.534134
 20
18.5
 11
-0.399043
 21
18.5
  0
LINE
  5
40E
100
AcDbEntity
  8
0
100
AcDbLine
 62
7
  6
CONTINUOUS
 10
-0.167874
 20
18.5
 11
-0.007672
 21
18.5
  0
LINE
  5
40F
100
AcDbEntity
  8
0
100
AcDbLine
 62
7
  6
CONTINUOUS
 10
0.495158
 20
18.5
 11
0.626068
 21
18.5
  0
LINE
  5
410
100
AcDbEntity
  8
0
100
AcDbLine
 62
7
  6
CONTINUOUS
 10
1.245834
 20
18.5
 11
1.380965
 21
18.5
  0
LINE
  5
411
100
AcDbEntity
  8
0
100
AcDbLine
 62
7
  6
CONTINUOUS
 10
1.525818
 20
18.5
 11
2.337811
 21
18.5
  0
LINE
  5
412
100
AcDbEntity
  8
0
100
AcDbLine
 62
7
  6
CONTINUOUS
 10
2.752886
 20
18.5
 11
2.906068
 21
18.5
  0
LINE
  5
413
100
AcDbEntity
  8
0
100
AcDbLine
 62
7
  6
CONTINUOUS
 10
3.392142
 20
18.5
 11
3.527281
 21
18.5
  0
LINE
  5
414
100
AcDbEntity
  8
0
100
AcDbLine
 62
7
  6
CONTINUOUS
 10
4.080213
 20
18.5
 11
4.237593
 21
18.5
  0
LINE
  5
415
100
AcDbEntity
  8
0
100
AcDbLine
 62
7
  6
CONTINUOUS
 10
4.81139
 20
18.5
 11
4.970225
 21
18.5
  0
LWPOLYLINE
  5
416
100
AcDbEntity
  8
0
100
AcDbPolyline
 62
7
  6
CONTINUOUS
 90
19
 70
0
 10
-2.4603472154
 20
18.5
 10
-2.4106163569
 20
18.4964607045
 10
-2.3643389507
 20
18.4889451781
 10
-2.3215149967
 20
18.4774532968
 10
-2.2822738536
 20
18.4616131296
 10
-2.2464861628
 20
18.4417961439
 10
-2.2137638479
 20
18.4191173074
 10
-2.1839826739
 20
18.3937163233
 10
-2.1572668758
 20
18.3654529344
 10
-2.1336010825
 20
18.3350222895
 10
-2.1131474756
 20
18.3023367827
 10
-2.0957438734
 20
18.2674834618
 10
-2.0808883602
 20
18.2314196461
 10
-2.0684067117
 20
18.1941504832
 10
-2.0584731522
 20
18.15567048
 10
-2.0511084394
 20
18.1169212684
 10
-2.0463194927
 20
18.0782167674
 10
-2.0440993928
 20
18.0392430226
 10
-2.0444481396
 20
18.0
  0
LINE
  5
417
100
AcDbEntity
  8
0
100
AcDbLine
 62
7
  6
CONTINUOUS
 10
6.0
 20
20.0
 11
6.9
 21
20.0
  0
LINE
  5
418
100
AcDbEntity
  8
0
100
AcDbLine
 62
7
  6
CONTINUOUS
 10
-6.0
 20
20.0
 11
-6.9
 21
20.0
  0
LINE
  5
419
100
AcDbEntity
  8
RACCORDO
100
AcDbLine
 62
250
  6
CONTINUOUS
 10
9.4095764515
 20
20.2517243354
 11
7.1517243354
 21
20.2517243354
  0
LINE
  5
41A
100
AcDbEntity
  8
RACCORDO
100
AcDbLine
 62
250
  6
CONTINUOUS
 10
6.0
 20
20.2517243354
 11
-6.0
 21
20.2517243354
  0
LINE
  5
41B
100
AcDbEntity
  8
RACCORDO
100
AcDbLine
 62
250
  6
CONTINUOUS
 10
-7.1517243354
 20
20.2517243354
 11
-9.4095764515
 21
20.2517243354
  0
LWPOLYLINE
  5
41C
100
AcDbEntity
  8
RACCORDO
100
AcDbPolyline
 62
7
  6
CONTINUOUS
 90
13
 70
0
 10
9.6976692656
 20
16.4579448796
 10
9.6941848181
 20
16.4598855984
 10
9.6858019129
 20
16.4617355132
 10
9.6726568335
 20
16.4634946242
 10
9.6549646408
 20
16.4651887315
 10
9.6330158784
 20
16.466792035
 10
9.60717199
 20
16.4682271335
 10
9.5778582045
 20
16.4694858067
 10
9.5455589055
 20
16.470576275
 10
9.510810735
 20
16.4714457988
 10
9.4741897386
 20
16.4720767983
 10
9.4363010822
 20
16.4724868533
 10
9.3977720681
 20
16.4726759637
  0
LWPOLYLINE
  5
41D
100
AcDbEntity
  8
RACCORDO
100
AcDbPolyline
 62
250
  6
CONTINUOUS
 90
16
 70
0
 10
9.709473649
 20
20.2095764515
 10
9.7070788104
 20
20.2135300413
 10
9.7014949922
 20
20.2179326955
 10
9.6927650038
 20
20.2224846561
 10
9.681027893
 20
20.2266026047
 10
9.6664398622
 20
20.2302790807
 10
9.6490834766
 20
20.2340424857
 10
9.6290676787
 20
20.237605187
 10
9.6067130908
 20
20.240607177
 10
9.5823711538
 20
20.2434604757
 10
9.5561163488
 20
20.245998494
 10
9.5283243863
 20
20.2478670072
 10
9.4997015805
 20
20.2493981993
 10
9.4704730203
 20
20.2507198581
 10
9.440449311
 20
20.2515516077
 10
9.4095764515
 20
20.2517243354
  0
LINE
  5
41E
100
AcDbEntity
  8
RACCORDO
100
AcDbLine
 62
250
  6
CONTINUOUS
 10
9.4095764515
 20
20.509473649
 11
7.409473649
 21
20.509473649
  0
LINE
  5
41F
100
AcDbEntity
  8
RACCORDO
100
AcDbLine
 62
250
  6
CONTINUOUS
 10
6.0
 20
20.509473649
 11
-6.0
 21
20.509473649
  0
LINE
  5
420
100
AcDbEntity
  8
RACCORDO
100
AcDbLine
 62
250
  6
CONTINUOUS
 10
-7.409473649
 20
20.509473649
 11
-9.4095764515
 21
20.509473649
  0
LINE
  5
421
100
AcDbEntity
  8
RACCORDO
100
AcDbLine
 62
7
  6
CONTINUOUS
 10
-9.5001028025
 20
20.6
 11
-7.5
 21
20.6
  0
LINE
  5
422
100
AcDbEntity
  8
RACCORDO
100
AcDbLine
 62
7
  6
CONTINUOUS
 10
7.5
 20
20.6
 11
9.5001028025
 21
20.6
  0
LINE
  5
423
100
AcDbEntity
  8
DRAFT
100
AcDbLine
 62
7
  6
CONTINUOUS
 10
7.5
 20
20.6
 11
-7.5
 21
20.6
  0
LWPOLYLINE
  5
424
100
AcDbEntity
  8
RACCORDO
100
AcDbPolyline
 62
250
  6
CONTINUOUS
 90
13
 70
0
 10
9.4095764515
 20
20.509473649
 10
9.4487039214
 20
20.5068834103
 10
9.4871624926
 20
20.4992105979
 10
9.5242947015
 20
20.4865863817
 10
9.559465759
 20
20.4692265771
 10
9.5920744027
 20
20.4474279567
 10
9.6215631758
 20
20.4215631758
 10
9.6474279567
 20
20.3920744027
 10
9.6692265771
 20
20.359465759
 10
9.6865863817
 20
20.3242947015
 10
9.6992105979
 20
20.2871624926
 10
9.7068834103
 20
20.2487039214
 10
9.709473649
 20
20.2095764515
  0
LINE
  5
425
100
AcDbEntity
  8
RACCORDO
100
AcDbLine
 62
7
  6
CONTINUOUS
 10
-10.5001713375
 20
22.1
 11
10.5001713375
 21
22.1
  0
CIRCLE
  5
426
100
AcDbEntity
  8
0
100
AcDbCircle
 62
7
  6
CONTINUOUS
 10
-4.0
 20
-15.1
 40
0.6
  0
CIRCLE
  5
427
100
AcDbEntity
  8
ASSI
100
AcDbCircle
 62
7
  6
CONTINUOUS
 10
-4.0
 20
-15.1
 40
0.6
  0
CIRCLE
  5
428
100
AcDbEntity
  8
0
100
AcDbCircle
 62
7
  6
CONTINUOUS
 10
-4.0
 20
-6.7
 40
0.6
  0
CIRCLE
  5
429
100
AcDbEntity
  8
ASSI
100
AcDbCircle
 62
7
  6
CONTINUOUS
 10
-4.0
 20
-6.7
 40
0.6
  0
CIRCLE
  5
42A
100
AcDbEntity
  8
DRAFT
100
AcDbCircle
 62
7
  6
CONTINUOUS
 10
-0.0
 20
-14.0
 40
0.6874886635
  0
CIRCLE
  5
42B
100
AcDbEntity
  8
0
100
AcDbCircle
 62
7
  6
CONTINUOUS
 10
-0.0
 20
-10.6
 40
0.6
  0
CIRCLE
  5
42C
100
AcDbEntity
  8
DRAFT
100
AcDbCircle
 62
7
  6
CONTINUOUS
 10
-0.0
 20
-14.0
 40
0.6
  0
CIRCLE
  5
42D
100
AcDbEntity
  8
ASSI
100
AcDbCircle
 62
7
  6
CONTINUOUS
 10
-0.0
 20
-10.6
 40
0.6
  0
CIRCLE
  5
42E
100
AcDbEntity
  8
0
100
AcDbCircle
 62
7
  6
CONTINUOUS
 10
-0.0
 20
-2.5
 40
0.6
  0
CIRCLE
  5
42F
100
AcDbEntity
  8
ASSI
100
AcDbCircle
 62
7
  6
CONTINUOUS
 10
-0.0
 20
-2.5
 40
0.6
  0
CIRCLE
  5
430
100
AcDbEntity
  8
0
100
AcDbCircle
 62
7
  6
CONTINUOUS
 10
-0.0
 20
2.5
 40
0.6
  0
CIRCLE
  5
431
100
AcDbEntity
  8
0
100
AcDbCircle
 62
7
  6
CONTINUOUS
 10
-4.0
 20
15.1
 40
0.6
  0
CIRCLE
  5
432
100
AcDbEntity
  8
0
100
AcDbCircle
 62
7
  6
CONTINUOUS
 10
-4.0
 20
6.7
 40
0.6
  0
CIRCLE
  5
433
100
AcDbEntity
  8
ASSI
100
AcDbCircle
 62
7
  6
CONTINUOUS
 10
-0.0
 20
2.5
 40
0.6
  0
CIRCLE
  5
434
100
AcDbEntity
  8
ASSI
100
AcDbCircle
 62
7
  6
CONTINUOUS
 10
-4.0
 20
15.1
 40
0.6
  0
CIRCLE
  5
435
100
AcDbEntity
  8
ASSI
100
AcDbCircle
 62
7
  6
CONTINUOUS
 10
-4.0
 20
6.7
 40
0.6
  0
CIRCLE
  5
436
100
AcDbEntity
  8
0
100
AcDbCircle
 62
7
  6
CONTINUOUS
 10
4.0
 20
-15.1
 40
0.6
  0
CIRCLE
  5
437
100
AcDbEntity
  8
0
100
AcDbCircle
 62
7
  6
CONTINUOUS
 10
4.0
 20
-6.7
 40
0.6
  0
CIRCLE
  5
438
100
AcDbEntity
  8
ASSI
100
AcDbCircle
 62
7
  6
CONTINUOUS
 10
4.0
 20
-15.1
 40
0.6
  0
CIRCLE
  5
439
100
AcDbEntity
  8
ASSI
100
AcDbCircle
 62
7
  6
CONTINUOUS
 10
4.0
 20
-6.7
 40
0.6
  0
ARC
  5
43A
100
AcDbEntity
  8
ASSI
100
AcDbCircle
 62
7
  6
CONTINUOUS
 10
7.821397
 20
3.441583
 40
0.6287061425
100
AcDbArc
 50
202.8428880619
 51
0.0000161486
  0
CIRCLE
  5
43B
100
AcDbEntity
  8
0
100
AcDbCircle
 62
7
  6
CONTINUOUS
 10
4.0
 20
15.1
 40
0.6
  0
CIRCLE
  5
43C
100
AcDbEntity
  8
0
100
AcDbCircle
 62
7
  6
CONTINUOUS
 10
4.0
 20
6.7
 40
0.6
  0
CIRCLE
  5
43D
100
AcDbEntity
  8
ASSI
100
AcDbCircle
 62
7
  6
CONTINUOUS
 10
4.0
 20
15.1
 40
0.6
  0
CIRCLE
  5
43E
100
AcDbEntity
  8
ASSI
100
AcDbCircle
 62
7
  6
CONTINUOUS
 10
4.0
 20
6.7
 40
0.6
  0
ARC
  5
43F
100
AcDbEntity
  8
ASSI
100
AcDbCircle
 62
7
  6
CONTINUOUS
 10
7.821397
 20
3.498493
 40
0.249439
100
AcDbArc
 50
180.0010063792
 51
0.0010063711
  0
ELLIPSE
  5
440
100
AcDbEntity
  8
0
100
AcDbEllipse
 62
7
  6
CONTINUOUS
 10
-4.5358222275
 20
-6.0641777725
 30
0.0
 11
-0.7952825482
 21
0.7952825482
 31
0.0
 40
0.8891264907
 41
-0.7267750543
 42
0.7267750543
  0
ELLIPSE
  5
441
100
AcDbEntity
  8
0
100
AcDbEllipse
 62
7
  6
CONTINUOUS
 10
-4.5358222275
 20
-15.3358222275
 30
0.0
 11
-0.7952825482
 21
-0.7952825482
 31
0.0
 40
0.8891264907
 41
-0.7267750543
 42
0.7267750543
  0
ELLIPSE
  5
442
100
AcDbEntity
  8
0
100
AcDbEllipse
 62
7
  6
CONTINUOUS
 10
4.5358222275
 20
-15.3358222275
 30
0.0
 11
0.7952825482
 21
-0.7952825482
 31
0.0
 40
0.8891264907
 41
-0.7267750543
 42
0.7267750543
  0
ELLIPSE
  5
443
100
AcDbEntity
  8
0
100
AcDbEllipse
 62
7
  6
CONTINUOUS
 10
4.5358222275
 20
-6.0641777725
 30
0.0
 11
0.7952825482
 21
0.7952825482
 31
0.0
 40
0.8891264907
 41
-0.7267750543
 42
0.7267750543
  0
ELLIPSE
  5
444
100
AcDbEntity
  8
0
100
AcDbEllipse
 62
7
  6
CONTINUOUS
 10
4.5358222275
 20
6.0641777725
 30
0.0
 11
0.7952825482
 21
-0.7952825482
 31
0.0
 40
0.8891264907
 41
-0.7267750543
 42
0.7267750543
  0
ELLIPSE
  5
445
100
AcDbEntity
  8
0
100
AcDbEllipse
 62
7
  6
CONTINUOUS
 10
4.5358222275
 20
15.3358222275
 30
0.0
 11
0.7952825482
 21
0.7952825482
 31
0.0
 40
0.8891264907
 41
-0.7267750543
 42
0.7267750543
  0
ELLIPSE
  5
446
100
AcDbEntity
  8
0
100
AcDbEllipse
 62
7
  6
CONTINUOUS
 10
-4.5358222275
 20
15.3358222275
 30
0.0
 11
-0.7952825482
 21
0.7952825482
 31
0.0
 40
0.8891264907
 41
-0.7267750543
 42
0.7267750543
  0
ELLIPSE
  5
447
100
AcDbEntity
  8
0
100
AcDbEllipse
 62
7
  6
CONTINUOUS
 10
-4.5358222275
 20
6.0641777725
 30
0.0
 11
-0.7952825482
 21
-0.7952825482
 31
0.0
 40
0.8891264907
 41
-0.7267750543
 42
0.7267750543
  0
ELLIPSE
  5
448
100
AcDbEntity
  8
RACCORDO
100
AcDbEllipse
 62
7
  6
CONTINUOUS
 10
10.4998286038
 20
-21.5998286038
 30
0.0
 11
-0.35379574
 21
0.35379574
 31
0.0
 40
0.999315002
 41
2.3565371065
 42
3.9266482006
  0
ELLIPSE
  5
449
100
AcDbEntity
  8
RACCORDO
100
AcDbEllipse
 62
7
  6
CONTINUOUS
 10
10.4998286038
 20
21.5998286038
 30
0.0
 11
0.35379574
 21
0.35379574
 31
0.0
 40
0.999315002
 41
-0.7850555471
 42
0.7850555471
  0
ELLIPSE
  5
44A
100
AcDbEntity
  8
RACCORDO
100
AcDbEllipse
 62
7
  6
CONTINUOUS
 10
-10.4998286038
 20
-21.5998286038
 30
0.0
 11
-0.35379574
 21
-0.35379574
 31
0.0
 40
0.999315002
 41
-0.7850555471
 42
0.7850555471
  0
ELLIPSE
  5
44B
100
AcDbEntity
  8
RACCORDO
100
AcDbEllipse
 62
7
  6
CONTINUOUS
 10
-10.4998286038
 20
21.5998286038
 30
0.0
 11
0.35379574
 21
-0.35379574
 31
0.0
 40
0.999315002
 41
2.3565371065
 42
3.9266482007
  0
ELLIPSE
  5
44C
100
AcDbEntity
  8
RACCORDO
100
AcDbEllipse
 62
7
  6
CONTINUOUS
 10
9.8209487373
 20
0.0
 30
0.0
 11
0.0
 21
5.3
 31
0.0
 40
0.0261859216
 41
1.0935739911
 42
2.0480186625
  0
ELLIPSE
  5
44D
100
AcDbEntity
  8
RACCORDO
100
AcDbEllipse
 62
7
  6
CONTINUOUS
 10
-9.8209487373
 20
0.0
 30
0.0
 11
0.0
 21
5.3
 31
0.0
 40
0.0261859216
 41
-2.0480186625
 42
-1.0935739911
  0
ELLIPSE
  5
44E
100
AcDbEntity
  8
RACCORDO
100
AcDbEllipse
 62
7
  6
CONTINUOUS
 10
-2.7591713946
 20
-7.79
 30
0.0
 11
0.0
 21
88.7
 31
0.0
 40
0.0174550649
 41
-4.5877843409
 42
-4.5714296988
  0
ELLIPSE
  5
44F
100
AcDbEntity
  8
RACCORDO
100
AcDbEllipse
 62
7
  6
CONTINUOUS
 10
-5.0408286054
 20
-7.79
 30
0.0
 11
0.0
 21
88.7
 31
0.0
 40
0.0174550649
 41
-1.7117556084
 42
-1.6954009663
  0
ELLIPSE
  5
450
100
AcDbEntity
  8
RACCORDO
100
AcDbEllipse
 62
7
  6
CONTINUOUS
 10
2.7591713946
 20
-7.79
 30
0.0
 11
0.0
 21
88.7
 31
0.0
 40
0.0174550649
 41
-1.7117556084
 42
-1.6954009663
  0
ELLIPSE
  5
451
100
AcDbEntity
  8
RACCORDO
100
AcDbEllipse
 62
7
  6
CONTINUOUS
 10
5.0408286054
 20
-7.79
 30
0.0
 11
0.0
 21
88.7
 31
0.0
 40
0.0174550649
 41
-4.5877843409
 42
-4.5714296988
  0
ELLIPSE
  5
452
100
AcDbEntity
  8
RACCORDO
100
AcDbEllipse
 62
7
  6
CONTINUOUS
 10
9.4998971623
 20
-20.2998971623
 30
0.0
 11
0.212277444
 21
-0.212277444
 31
0.0
 40
0.999315002
 41
-0.7850555471
 42
0.7850555471
  0
ELLIPSE
  5
453
100
AcDbEntity
  8
RACCORDO
100
AcDbEllipse
 62
7
  6
CONTINUOUS
 10
-9.4998971623
 20
-20.2998971623
 30
0.0
 11
0.212277444
 21
0.212277444
 31
0.0
 40
0.999315002
 41
2.3565371065
 42
3.9266482006
  0
ELLIPSE
  5
454
100
AcDbEntity
  8
RACCORDO
100
AcDbEllipse
 62
7
  6
CONTINUOUS
 10
9.4998971623
 20
20.2998971623
 30
0.0
 11
0.212277444
 21
0.212277444
 31
0.0
 40
0.999315002
 41
-0.7850555471
 42
0.7850555471
  0
ELLIPSE
  5
455
100
AcDbEntity
  8
RACCORDO
100
AcDbEllipse
 62
7
  6
CONTINUOUS
 10
-9.4998971623
 20
20.2998971623
 30
0.0
 11
0.212277444
 21
-0.212277444
 31
0.0
 40
0.999315002
 41
2.3565371065
 42
3.9266482006
  0
ELLIPSE
  5
456
100
AcDbEntity
  8
RACCORDO
100
AcDbEllipse
 62
7
  6
CONTINUOUS
 10
-4.2868948906
 20
-20.2095764515
 30
0.0
 11
-0.0
 21
0.3
 31
0.0
 40
0.0174550649
 41
-4.5714296988
 42
-3.1677725924
  0
ELLIPSE
  5
457
100
AcDbEntity
  8
RACCORDO
100
AcDbEllipse
 62
7
  6
CONTINUOUS
 10
4.2868948906
 20
-20.2095764515
 30
0.0
 11
-0.0
 21
0.3
 31
0.0
 40
0.0174550649
 41
-3.1154127148
 42
-1.7117556084
  0
ELLIPSE
  5
458
100
AcDbEntity
  8
RACCORDO
100
AcDbEllipse
 62
7
  6
CONTINUOUS
 10
-3.5131051094
 20
-20.2095764515
 30
0.0
 11
0.0
 21
0.3
 31
0.0
 40
0.0174550649
 41
-3.1154127148
 42
-1.7117556084
  0
ELLIPSE
  5
459
100
AcDbEntity
  8
RACCORDO
100
AcDbEllipse
 62
7
  6
CONTINUOUS
 10
3.5131051094
 20
-20.2095764515
 30
0.0
 11
0.0
 21
0.3
 31
0.0
 40
0.0174550649
 41
-4.5714296988
 42
-3.1677725924
  0
ELLIPSE
  5
45A
100
AcDbEntity
  8
RACCORDO
100
AcDbEllipse
 62
7
  6
CONTINUOUS
 10
3.8367013348
 20
-20.5450095647
 30
0.0
 11
0.3
 21
-0.0
 31
0.0
 40
0.0261859216
 41
-3.1241393611
 42
-1.5707963268
  0
ELLIPSE
  5
45B
100
AcDbEntity
  8
RACCORDO
100
AcDbEllipse
 62
7
  6
CONTINUOUS
 10
3.9632986652
 20
-20.5450095647
 30
0.0
 11
0.3
 21
-0.0
 31
0.0
 40
0.0261859216
 41
-1.5707963268
 42
-0.0174532925
  0
ELLIPSE
  5
45C
100
AcDbEntity
  8
RACCORDO
100
AcDbEllipse
 62
7
  6
CONTINUOUS
 10
-3.9632986652
 20
-20.5450095647
 30
0.0
 11
0.3
 21
-0.0
 31
0.0
 40
0.0261859216
 41
-3.1241393611
 42
-1.5707963268
  0
ELLIPSE
  5
45D
100
AcDbEntity
  8
RACCORDO
100
AcDbEllipse
 62
7
  6
CONTINUOUS
 10
-3.8367013348
 20
-20.5450095647
 30
0.0
 11
0.3
 21
-0.0
 31
0.0
 40
0.0261859216
 41
-1.5707963268
 42
-0.0174532925
  0
ENDSEC
  0
SECTION
  2
OBJECTS
  0
DICTIONARY
  5
C
100
AcDbDictionary
280
0
281
1
  3
ACAD_GROUP
350
D
  3
ACAD_MLINESTYLE
350
17
  3
ACAD_LAYOUT
350
1A
  3
ACAD_PLOTSETTINGS
350
19
  3
ACAD_PLOTSTYLENAME
350
E
  0
DICTIONARY
  5
D
102
{ACAD_REACTORS
330
C
102
}
100
AcDbDictionary
280
0
281
1
  0
ACDBDICTIONARYWDFLT
  5
E
102
{ACAD_REACTORS
330
C
102
}
100
AcDbDictionary
281
1
  3
Normal
350
F
100
AcDbDictionaryWithDefault
340
F
  0
DICTIONARY
  5
17
102
{ACAD_REACTORS
330
C
102
}
100
AcDbDictionary
280
0
281
1
  3
Standard
350
18
  0
DICTIONARY
  5
19
102
{ACAD_REACTORS
330
C
102
}
100
AcDbDictionary
281
1
  0
DICTIONARY
  5
1A
102
{ACAD_REACTORS
330
C
102
}
100
AcDbDictionary
281
1
  3
Model
350
45E
  3
Layout1
350
45F
  0
ACDBPLACEHOLDER
  5
F
102
{ACAD_REACTORS
330
E
102
}
  0
MLINESTYLE
  5
18
102
{ACAD_REACTORS
330
17
102
}
100
AcDbMlineStyle
  2
STANDARD
 70
0
  3

 62
256
 51
90.0
 52
90.0
 71
2
 49
0.5
 62
256
  6
BYLAYER
 49
-0.5
 62
256
  6
BYLAYER
  0
LAYOUT
  5
45E
102
{ACAD_REACTORS
330
1A
102
}
100
AcDbPlotSettings
  1

  2
none_device
  4
ISO_A4_(297.00_x_210.00_MM)
  6

 40
0.0
 41
0.0
 42
0.0
 43
0.0
 44
297.0
 45
210.0
 46
0.0
 47
0.0
 48
0.0
 49
0.0
140
0.0
141
0.0
142
1.0
143
1.0
 70
1024
 72
1
 73
0
 74
0
  7

 75
0
147
1.0
148
0.0
149
0.0
100
AcDbLayout
  1
Model
 70
0
 71
0
 10
0.0
 20
0.0
 11
297.0
 21
210.0
 12
0.0
 22
0.0
 32
0.0
 14
0.0
 24
0.0
 34
0.0
 15
0.0
 25
0.0
 35
0.0
146
0.0
 13
0.0
 23
0.0
 33
0.0
 16
1.0
 26
0.0
 36
0.0
 17
0.0
 27
1.0
 37
0.0
 76
0
330
210
345
0
346
0
  0
LAYOUT
  5
45F
102
{ACAD_REACTORS
330
1A
102
}
100
AcDbPlotSettings
  1

  2
none_device
  4
ISO_A4_(297.00_x_210.00_MM)
  6

 40
0.0
 41
0.0
 42
0.0
 43
0.0
 44
297.0
 45
210.0
 46
0.0
 47
0.0
 48
0.0
 49
0.0
140
0.0
141
0.0
142
1.0
143
1.0
 70
0
 72
1
 73
0
 74
0
  7

 75
0
147
1.0
148
0.0
149
0.0
100
AcDbLayout
  1
Layout1
 70
0
 71
1
 10
0.0
 20
0.0
 11
297.0
 21
210.0
 12
0.0
 22
0.0
 32
0.0
 14
0.0
 24
0.0
 34
0.0
 15
0.0
 25
0.0
 35
0.0
146
0.0
 13
0.0
 23
0.0
 33
0.0
 16
1.0
 26
0.0
 36
0.0
 17
0.0
 27
1.0
 37
0.0
 76
0
330
211
345
0
346
0
  0
ENDSEC
  0
EOF
