  0
SECTION
  2
HEADER
  9
$ACADVER
  1
AC1024
  9
$DWGCODEPAGE
  3
ANSI_1252
  9
$EXTMAX
 10
297.0
 20
210.0
 30
0.0
  9
$EXTMIN
 10
0.0
 20
0.0
 30
0.0
  9
$LIMMIN
 10
0.0
 20
0.0
  9
$LIMMAX
 10
297.0
 20
210.0
  9
$VIEWCTR
 10
148.5
 20
105.0
  9
$VIEWSIZE
 40
210.0
  9
$CLAYER
  8
0
  9
$LTSCALE
 40
16.335
  9
$CELTYPE
  6
BYLAYER
  9
$DIMSCALE
 40
1.0
  9
$DIMASZ
 40
3.0
  9
$DIMEXO
 40
0.5
  9
$DIMDLI
 40
11.286
  9
$DIMEXE
 40
1.5
  9
$DIMCEN
 40
2.673
  9
$DIMLFAC
 40
1.0
  9
$DIMBLK
  1
_FILLED
  9
$DIMALT
 70
0
  9
$DIMALTF
 40
0.0393700787
  9
$DIMTXT
 40
3.0
  9
$DIMTOL
 70
1
  9
$DIMLIM
 70
0
  9
$DIMTFAC
 40
1.0
  9
$DIMTP
 40
0.01
  9
$DIMTM
 40
0.01
  9
$DIMGAP
 40
0.625
  9
$DIMDSEP
 70
44
  9
$AUNITS
 70
0
  9
$PDMODE
 70
3
  9
$PDSIZE
 40
3.0
  9
$HANDSEED
  5
472
  9
$TILEMODE
 70
1
  9
$MEASUREMENT
 70
1
  9
$INSUNITS
 70
4
  0
ENDSEC
  0
SECTION
  2
CLASSES
  0
CLASS
  1
ACDBDICTIONARYWDFLT
  2
AcDbDictionaryWithDefault
  3
AutoCAD 2000
 90
0
 91
1
280
0
281
0
  0
CLASS
  1
ACDBPLACEHOLDER
  2
AcDbPlaceHolder
  3
AutoCAD 2000
 90
0
 91
1
280
0
281
0
  0
CLASS
  1
LAYOUT
  2
AcDbLayout
  3
AutoCAD 2000
 90
0
 91
0
280
0
281
0
  0
ENDSEC
  0
SECTION
  2
TABLES
  0
TABLE
  2
VPORT
  5
8
100
AcDbSymbolTable
 70
2
  0
VPORT
  5
1F4
100
AcDbSymbolTableRecord
100
AcDbViewportTableRecord
  2
*ACTIVE
 70
0
 10
0.0
 20
0.0
 11
1.0
 21
1.0
 12
148.5
 22
105.0
 13
0.0
 23
0.0
 14
1.0
 24
1.0
 15
0.0
 25
0.0
 16
0.0
 26
0.0
 36
1.0
 17
0.0
 27
0.0
 37
0.0
 40
210.0
 41
1.4142857143
 42
50.0
 43
0.0
 44
0.0
 50
0.0
 51
0.0
 71
0
 72
100
 73
1
 74
1
 75
0
 76
0
 77
0
 78
0
  0
ENDTAB
  0
TABLE
  2
LTYPE
  5
5
100
AcDbSymbolTable
 70
6
  0
LTYPE
  5
14
100
AcDbSymbolTableRecord
100
AcDbLinetypeTableRecord
  2
BYBLOCK
 70
0
  3

 72
65
 73
0
 40
0.0
  0
LTYPE
  5
15
100
AcDbSymbolTableRecord
100
AcDbLinetypeTableRecord
  2
BYLAYER
 70
0
  3

 72
65
 73
0
 40
0.0
  0
LTYPE
  5
16
100
AcDbSymbolTableRecord
100
AcDbLinetypeTableRecord
  2
CONTINUOUS
 70
64
  3
Solid line
 72
65
 73
0
 40
0.0
  0
LTYPE
  5
1F5
100
AcDbSymbolTableRecord
100
AcDbLinetypeTableRecord
  2
CENTER
 70
64
  3
____ _ ____ _ ____ _ ____ _ ____ _ ____ _ ____
 72
65
 73
4
 40
0.6
 49
0.375
 74
0
 49
-0.075
 74
0
 49
0.075
 74
0
 49
-0.075
 74
0
  0
LTYPE
  5
1F6
100
AcDbSymbolTableRecord
100
AcDbLinetypeTableRecord
  2
HIDDEN
 70
64
  3
- - - - - - - - - - - - - - - - - - - -
 72
65
 73
2
 40
0.2
 49
0.1
 74
0
 49
-0.1
 74
0
  0
LTYPE
  5
1F7
100
AcDbSymbolTableRecord
100
AcDbLinetypeTableRecord
  2
PHANTOM
 70
64
  3
_____ _ _ _____ _ _ _____ _ _ _____
 72
65
 73
6
 40
0.8
 49
0.45
 74
0
 49
-0.05
 74
0
 49
0.1
 74
0
 49
-0.05
 74
0
 49
0.1
 74
0
 49
-0.05
 74
0
  0
LTYPE
  5
1F8
100
AcDbSymbolTableRecord
100
AcDbLinetypeTableRecord
  2
DOT
 70
64
  3
. . . . . . . . . . . . . . . . . . . .
 72
65
 73
2
 40
0.2
 49
0.1
 74
0
 49
-0.1
 74
0
  0
LTYPE
  5
1F9
100
AcDbSymbolTableRecord
100
AcDbLinetypeTableRecord
  2
DASHED
 70
64
  3
- - - - - - - - - - - - - - - - - - - -
 72
65
 73
2
 40
0.2
 49
0.1
 74
0
 49
-0.1
 74
0
  0
ENDTAB
  0
TABLE
  2
LAYER
  5
2
100
AcDbSymbolTable
 70
36
  0
LAYER
  5
10
100
AcDbSymbolTableRecord
100
AcDbLayerTableRecord
  2
0
 70
0
 62
7
  6
CONTINUOUS
370
-3
390
F
  0
LAYER
  5
1FA
100
AcDbSymbolTableRecord
100
AcDbLayerTableRecord
  2
DEFAULT_1
 70
0
 62
7
  6
CENTER
370
-3
390
F
  0
LAYER
  5
1FB
100
AcDbSymbolTableRecord
100
AcDbLayerTableRecord
  2
DEFAULT_2
 70
0
 62
7
  6
HIDDEN
370
-3
390
F
  0
LAYER
  5
1FC
100
AcDbSymbolTableRecord
100
AcDbLayerTableRecord
  2
DEFAULT_3
 70
0
 62
7
  6
PHANTOM
370
-3
390
F
  0
LAYER
  5
1FD
100
AcDbSymbolTableRecord
100
AcDbLayerTableRecord
  2
ASSI
 70
0
 62
7
  6
CONTINUOUS
370
-3
390
F
  0
LAYER
  5
1FE
100
AcDbSymbolTableRecord
100
AcDbLayerTableRecord
  2
COLOR9
 70
0
 62
7
  6
CONTINUOUS
370
-3
390
F
  0
LAYER
  5
1FF
100
AcDbSymbolTableRecord
100
AcDbLayerTableRecord
  2
COORDINATE
 70
0
 62
7
  6
CONTINUOUS
370
-3
390
F
  0
LAYER
  5
200
100
AcDbSymbolTableRecord
100
AcDbLayerTableRecord
  2
COORD_ORIGINE
 70
0
 62
7
  6
CONTINUOUS
370
-3
390
F
  0
LAYER
  5
201
100
AcDbSymbolTableRecord
100
AcDbLayerTableRecord
  2
CURVE
 70
0
 62
7
  6
CONTINUOUS
370
-3
390
F
  0
LAYER
  5
202
100
AcDbSymbolTableRecord
100
AcDbLayerTableRecord
  2
DRAFT
 70
0
 62
7
  6
CONTINUOUS
370
-3
390
F
  0
LAYER
  5
203
100
AcDbSymbolTableRecord
100
AcDbLayerTableRecord
  2
IMPORT_IGES
 70
0
 62
7
  6
CONTINUOUS
370
-3
390
F
  0
LAYER
  5
204
100
AcDbSymbolTableRecord
100
AcDbLayerTableRecord
  2
INTF_YELLOW
 70
0
 62
7
  6
CONTINUOUS
370
-3
390
F
  0
LAYER
  5
205
100
AcDbSymbolTableRecord
100
AcDbLayerTableRecord
  2
NOTE
 70
0
 62
7
  6
CONTINUOUS
370
-3
390
F
  0
LAYER
  5
206
100
AcDbSymbolTableRecord
100
AcDbLayerTableRecord
  2
PIANI
 70
0
 62
7
  6
CONTINUOUS
370
-3
390
F
  0
LAYER
  5
207
100
AcDbSymbolTableRecord
100
AcDbLayerTableRecord
  2
PIANI_ORIGINE
 70
0
 62
7
  6
CONTINUOUS
370
-3
390
F
  0
LAYER
  5
208
100
AcDbSymbolTableRecord
100
AcDbLayerTableRecord
  2
PIANI_RIFERIMENTO
 70
0
 62
7
  6
CONTINUOUS
370
-3
390
F
  0
LAYER
  5
209
100
AcDbSymbolTableRecord
100
AcDbLayerTableRecord
  2
RACCORDO
 70
0
 62
7
  6
CONTINUOUS
370
-3
390
F
  0
LAYER
  5
20A
100
AcDbSymbolTableRecord
100
AcDbLayerTableRecord
  2
SMUSSO
 70
0
 62
7
  6
CONTINUOUS
370
-3
390
F
  0
LAYER
  5
20B
100
AcDbSymbolTableRecord
100
AcDbLayerTableRecord
  2
SNAPLINE
 70
0
 62
7
  6
CONTINUOUS
370
-3
390
F
  0
LAYER
  5
20C
100
AcDbSymbolTableRecord
100
AcDbLayerTableRecord
  2
SUPERFICI
 70
0
 62
7
  6
CONTINUOUS
370
-3
390
F
  0
LAYER
  5
20D
100
AcDbSymbolTableRecord
100
AcDbLayerTableRecord
  2
TRASH
 70
0
 62
7
  6
CONTINUOUS
370
-3
390
F
  0
LAYER
  5
20E
100
AcDbSymbolTableRecord
100
AcDbLayerTableRecord
  2
XSEC_DATUMS
 70
0
 62
7
  6
CONTINUOUS
370
-3
390
F
  0
ENDTAB
  0
TABLE
  2
STYLE
  5
3
100
AcDbSymbolTable
 70
1
  0
STYLE
  5
11
100
AcDbSymbolTableRecord
100
AcDbTextStyleTableRecord
  2
STANDARD
 70
0
 40
0.0
 41
0.8
 50
0.0
 71
0
 42
0.2
  3
txt
  4

  0
STYLE
  5
20F
100
AcDbSymbolTableRecord
100
AcDbTextStyleTableRecord
  2
TEXTSTYLE_1
 70
0
 40
0.0
 41
0.8
 50
0.0
 71
0
 42
0.2
  3
gdt
  4

  0
ENDTAB
  0
TABLE
  2
VIEW
  5
6
100
AcDbSymbolTable
 70
0
  0
ENDTAB
  0
TABLE
  2
UCS
  5
7
100
AcDbSymbolTable
 70
0
  0
ENDTAB
  0
TABLE
  2
APPID
  5
9
100
AcDbSymbolTable
 70
1
  0
APPID
  5
210
100
AcDbSymbolTableRecord
100
AcDbRegAppTableRecord
  2
ACAD
 70
0
  0
ENDTAB
  0
TABLE
  2
BLOCK_RECORD
  5
1
100
AcDbSymbolTable
 70
0
  0
BLOCK_RECORD
  5
211
100
AcDbSymbolTableRecord
100
AcDbBlockTableRecord
  2
*Model_Space
  0
BLOCK_RECORD
  5
212
100
AcDbSymbolTableRecord
100
AcDbBlockTableRecord
  2
*Paper_Space
  0
BLOCK_RECORD
  5
213
100
AcDbSymbolTableRecord
100
AcDbBlockTableRecord
  2
_FILLED
  0
ENDTAB
  0
TABLE
  2
DIMSTYLE
  5
A
100
AcDbSymbolTable
 70
1
100
AcDbDimStyleTable
 71
0
  0
DIMSTYLE
105
214
100
AcDbSymbolTableRecord
100
AcDbDimStyleTableRecord
  2
STANDARD
 70
0
  3

  4

 40
1.0
 41
3.0
 42
0.5
 43
0.38
 44
1.5
 45
0.0
 46
0.0
 47
0.01
 48
0.01
140
3.0
141
0.09
142
0.0
143
25.4
144
1.0
145
0.0
146
1.0
147
0.625
 71
1
 72
0
 73
0
 74
0
 75
0
 76
0
 77
1
 78
8
 79
2
170
0
171
1
172
0
173
0
174
0
175
0
176
0
177
0
178
0
270
2
179
2
271
2
272
2
273
2
274
2
275
0
280
0
281
0
282
0
283
1
284
8
285
0
286
0
287
3
288
0
340
11
278
44
341
213
342
213
343
213
344
213
  0
ENDTAB
  0
ENDSEC
  0
SECTION
  2
BLOCKS
  0
BLOCK
  5
20
100
AcDbEntity
  8
0
100
AcDbBlockBegin
  2
*Model_Space
 70
0
 10
0.0
 20
0.0
 30
0.0
  3
*Model_Space
  1

  0
ENDBLK
  5
21
100
AcDbEntity
  8
0
100
AcDbBlockEnd
  0
BLOCK
  5
1C
100
AcDbEntity
  8
0
100
AcDbBlockBegin
  2
*Paper_Space
 70
0
 10
0.0
 20
0.0
 30
0.0
  3
*Paper_Space
  1

  0
ENDBLK
  5
1D
100
AcDbEntity
  8
0
100
AcDbBlockEnd
  0
BLOCK
  5
215
100
AcDbEntity
  8
0
100
AcDbBlockBegin
  2
_FILLED
 70
64
 10
0.0
 20
0.0
  3
_FILLED
  1

  0
SOLID
  5
216
100
AcDbEntity
  8
0
  6
BYBLOCK
 62
0
100
AcDbTrace
 10
0.0
 20
0.0
 11
-1.0
 21
0.3166666667
 12
-1.0
 22
-0.3166666667
 13
-1.0
 23
-0.3166666667
  0
ENDBLK
  5
217
100
AcDbEntity
  8
0
  6
BYBLOCK
 62
0
100
AcDbBlockEnd
  0
ENDSEC
  0
SECTION
  2
ENTITIES
  0
LINE
  5
218
100
AcDbEntity
  8
RACCORDO
100
AcDbLine
 62
7
  6
CONTINUOUS
 10
-10.5001712994
 20
-22.1000000127
 11
10.5001713756
 21
-22.1000000127
  0
LINE
  5
219
100
AcDbEntity
  8
DRAFT
100
AcDbLine
 62
7
  6
CONTINUOUS
 10
-1.3910615465
 20
-21.6410615973
 11
1.3910616227
 21
-21.6410615973
  0
LINE
  5
21A
100
AcDbEntity
  8
DRAFT
100
AcDbLine
 62
7
  6
CONTINUOUS
 10
-1.2499999619
 20
-20.5790512754
 11
-1.3910615465
 21
-20.6000000127
  0
LINE
  5
21B
100
AcDbEntity
  8
DRAFT
100
AcDbLine
 62
7
  6
CONTINUOUS
 10
-1.2499999619
 20
-21.5000000127
 11
1.2500000381
 21
-21.5000000127
  0
LINE
  5
21C
100
AcDbEntity
  8
RACCORDO
100
AcDbLine
 62
7
  6
CONTINUOUS
 10
9.5001028406
 20
-20.6000000127
 11
7.5000000381
 21
-20.6000000127
  0
LINE
  5
21D
100
AcDbEntity
  8
DRAFT
100
AcDbLine
 62
7
  6
CONTINUOUS
 10
1.3910616227
 20
-20.6000000127
 11
7.5000000381
 21
-20.6000000127
  0
LINE
  5
21E
100
AcDbEntity
  8
DRAFT
100
AcDbLine
 62
7
  6
CONTINUOUS
 10
-1.3910615465
 20
-20.6000000127
 11
-7.4999999619
 21
-20.6000000127
  0
LINE
  5
21F
100
AcDbEntity
  8
RACCORDO
100
AcDbLine
 62
7
  6
CONTINUOUS
 10
-7.4999999619
 20
-20.6000000127
 11
-9.5001027644
 21
-20.6000000127
  0
LINE
  5
220
100
AcDbEntity
  8
DRAFT
100
AcDbLine
 62
7
  6
CONTINUOUS
 10
-1.2499999619
 20
-20.5790512754
 11
-0.4999999619
 21
-20.5790512754
  0
LINE
  5
221
100
AcDbEntity
  8
DRAFT
100
AcDbLine
 62
7
  6
CONTINUOUS
 10
0.5000000381
 20
-20.5790512754
 11
1.2500000381
 21
-20.5790512754
  0
LINE
  5
222
100
AcDbEntity
  8
RACCORDO
100
AcDbLine
 62
7
  6
CONTINUOUS
 10
3.9632987033
 20
-20.5528653539
 11
3.8367013729
 21
-20.5528653539
  0
LINE
  5
223
100
AcDbEntity
  8
RACCORDO
100
AcDbLine
 62
7
  6
CONTINUOUS
 10
-3.8367012967
 20
-20.5528653539
 11
-3.9632986271
 21
-20.5528653539
  0
LINE
  5
224
100
AcDbEntity
  8
RACCORDO
100
AcDbLine
 62
250
  6
CONTINUOUS
 10
-9.4095764134
 20
-20.5094736617
 11
-7.4094736109
 21
-20.5094736617
  0
LINE
  5
225
100
AcDbEntity
  8
RACCORDO
100
AcDbLine
 62
250
  6
CONTINUOUS
 10
-5.9999999619
 20
-20.5094736617
 11
-4.2870319286
 21
-20.5094736617
  0
LINE
  5
226
100
AcDbEntity
  8
ASSI
100
AcDbLine
 62
250
  6
CONTINUOUS
 10
-3.5129679952
 20
-20.5094736617
 11
-0.4951352522
 21
-20.5094736617
  0
LINE
  5
227
100
AcDbEntity
  8
ASSI
100
AcDbLine
 62
250
  6
CONTINUOUS
 10
0.4951353284
 20
-20.5094736617
 11
3.5129680714
 21
-20.5094736617
  0
LINE
  5
228
100
AcDbEntity
  8
RACCORDO
100
AcDbLine
 62
250
  6
CONTINUOUS
 10
4.2870320048
 20
-20.5094736617
 11
6.0000000381
 21
-20.5094736617
  0
LINE
  5
229
100
AcDbEntity
  8
RACCORDO
100
AcDbLine
 62
250
  6
CONTINUOUS
 10
7.4094736871
 20
-20.5094736617
 11
9.4095764896
 21
-20.5094736617
  0
LINE
  5
22A
100
AcDbEntity
  8
RACCORDO
100
AcDbLine
 62
250
  6
CONTINUOUS
 10
-9.4095764134
 20
-20.2517243481
 11
-7.1517242973
 21
-20.2517243481
  0
LINE
  5
22B
100
AcDbEntity
  8
RACCORDO
100
AcDbLine
 62
250
  6
CONTINUOUS
 10
-5.9999999619
 20
-20.2517243481
 11
-4.2920794345
 21
-20.2517243481
  0
LINE
  5
22C
100
AcDbEntity
  8
ASSI
100
AcDbLine
 62
250
  6
CONTINUOUS
 10
-3.5079204893
 20
-20.2517243481
 11
-0.3779643552
 21
-20.2517243481
  0
LINE
  5
22D
100
AcDbEntity
  8
ASSI
100
AcDbLine
 62
250
  6
CONTINUOUS
 10
0.3779644314
 20
-20.2517243481
 11
3.5079205655
 21
-20.2517243481
  0
LINE
  5
22E
100
AcDbEntity
  8
RACCORDO
100
AcDbLine
 62
250
  6
CONTINUOUS
 10
4.2920795107
 20
-20.2517243481
 11
6.0000000381
 21
-20.2517243481
  0
LINE
  5
22F
100
AcDbEntity
  8
RACCORDO
100
AcDbLine
 62
250
  6
CONTINUOUS
 10
7.1517243735
 20
-20.2517243481
 11
9.4095764896
 21
-20.2517243481
  0
LINE
  5
230
100
AcDbEntity
  8
0
100
AcDbLine
 62
7
  6
CONTINUOUS
 10
6.0000000381
 20
-20.0000000127
 11
6.9000000381
 21
-20.0000000127
  0
LINE
  5
231
100
AcDbEntity
  8
0
100
AcDbLine
 62
7
  6
CONTINUOUS
 10
-5.9999999619
 20
-20.0000000127
 11
-6.8999999619
 21
-20.0000000127
  0
LINE
  5
232
100
AcDbEntity
  8
RACCORDO
100
AcDbLine
 62
250
  6
CONTINUOUS
 10
3.5367470643
 20
-19.9294350357
 11
4.2632530119
 21
-19.9294350357
  0
LINE
  5
233
100
AcDbEntity
  8
RACCORDO
100
AcDbLine
 62
250
  6
CONTINUOUS
 10
-3.5367469881
 20
-19.9294350357
 11
-4.2632529357
 21
-19.9294350357
  0
LWPOLYLINE
  5
234
100
AcDbEntity
  8
RACCORDO
100
AcDbPolyline
 62
250
  6
CONTINUOUS
 90
13
 70
0
 10
-9.4095764134
 20
-20.5094736617
 10
-9.4487038833
 20
-20.506883423
 10
-9.4871624545
 20
-20.4992106106
 10
-9.5242946634
 20
-20.4865863944
 10
-9.5594657209
 20
-20.4692265898
 10
-9.5920743646
 20
-20.4474279694
 10
-9.6215631377
 20
-20.4215631885
 10
-9.6474279186
 20
-20.3920744154
 10
-9.669226539
 20
-20.3594657717
 10
-9.6865863436
 20
-20.3242947142
 10
-9.6992105598
 20
-20.2871625053
 10
-9.7068833722
 20
-20.2487039341
 10
-9.7094736109
 20
-20.2095764642
  0
LINE
  5
235
100
AcDbEntity
  8
DRAFT
100
AcDbLine
 62
7
  6
CONTINUOUS
 10
1.2500000381
 20
-20.5790512754
 11
1.3910616227
 21
-20.6000000127
  0
LWPOLYLINE
  5
236
100
AcDbEntity
  8
RACCORDO
100
AcDbPolyline
 62
250
  6
CONTINUOUS
 90
16
 70
0
 10
-9.7094736109
 20
20.2095764388
 10
-9.7070851061
 20
20.2139110565
 10
-9.7015436262
 20
20.2181997372
 10
-9.6929078996
 20
20.2223970329
 10
-9.6812694469
 20
20.2264584646
 10
-9.6667516117
 20
20.2303409906
 10
-9.6495082529
 20
20.2340034615
 10
-9.6297221143
 20
20.2374070618
 10
-9.6076028879
 20
20.2405157224
 10
-9.5833849917
 20
20.2432964977
 10
-9.5573250851
 20
20.2457199157
 10
-9.5296993491
 20
20.2477602939
 10
-9.5008005592
 20
20.249396011
 10
-9.4709349826
 20
20.2506097311
 10
-9.4404191324
 20
20.2513885874
 10
-9.4095764134
 20
20.2517243227
  0
LWPOLYLINE
  5
237
100
AcDbEntity
  8
RACCORDO
100
AcDbPolyline
 62
7
  6
CONTINUOUS
 90
19
 70
0
 10
-3.9842447051
 20
-19.5000000127
 10
-4.0153717097
 20
-19.5023106254
 10
-4.0454365366
 20
-19.5067729152
 10
-4.0741642834
 20
-19.5133868822
 10
-4.1013228397
 20
-19.5224018366
 10
-4.1267394316
 20
-19.5335684681
 10
-4.15029561
 20
-19.5461388464
 10
-4.1718421167
 20
-19.5600384569
 10
-4.1913819862
 20
-19.5753418142
 10
-4.2090406848
 20
-19.5915245313
 10
-4.2247977689
 20
-19.6085469745
 10
-4.2386212765
 20
-19.6264487776
 10
-4.2505866715
 20
-19.6448244547
 10
-4.2607027566
 20
-19.6636659871
 10
-4.2689643858
 20
-19.6829813935
 10
-4.275409951
 20
-19.7023892444
 10
-4.2800711656
 20
-19.7217623965
 10
-4.2829837237
 20
-19.7412279931
 10
-4.2841990136
 20
-19.760786034
  0
LWPOLYLINE
  5
238
100
AcDbEntity
  8
RACCORDO
100
AcDbPolyline
 62
250
  6
CONTINUOUS
 90
16
 70
0
 10
3.8367013729
 20
-19.6323546151
 10
3.8053151653
 20
-19.6340609259
 10
3.774273122
 20
-19.6390102075
 10
3.7439160807
 20
-19.6471482528
 10
3.7145742381
 20
-19.6583872343
 10
3.6865732466
 20
-19.6726031308
 10
3.6602290365
 20
-19.689633899
 10
3.6358342143
 20
-19.7092854347
 10
3.6136482856
 20
-19.7313433572
 10
3.5939059922
 20
-19.7555722396
 10
3.5768037965
 20
-19.7817411427
 10
3.5625565255
 20
-19.80953311
 10
3.5513546708
 20
-19.8385394398
 10
3.5432962298
 20
-19.8683962275
 10
3.5384207086
 20
-19.8988052849
 10
3.5367470643
 20
-19.9294350357
  0
LWPOLYLINE
  5
239
100
AcDbEntity
  8
RACCORDO
100
AcDbPolyline
 62
250
  6
CONTINUOUS
 90
16
 70
0
 10
-3.9632986271
 20
-19.6323546151
 10
-3.9946848347
 20
-19.6340609259
 10
-4.025726878
 20
-19.6390102075
 10
-4.0560839193
 20
-19.6471482528
 10
-4.0854257619
 20
-19.6583872343
 10
-4.1134267534
 20
-19.6726031308
 10
-4.1397709635
 20
-19.689633899
 10
-4.1641657857
 20
-19.7092854347
 10
-4.1863517144
 20
-19.7313433572
 10
-4.2060940078
 20
-19.7555722396
 10
-4.2231962035
 20
-19.7817411427
 10
-4.2374434745
 20
-19.80953311
 10
-4.2486453292
 20
-19.8385394398
 10
-4.2567037702
 20
-19.8683962275
 10
-4.2615792914
 20
-19.8988052849
 10
-4.2632529357
 20
-19.9294350357
  0
LWPOLYLINE
  5
23A
100
AcDbEntity
  8
RACCORDO
100
AcDbPolyline
 62
250
  6
CONTINUOUS
 90
16
 70
0
 10
-3.9842447051
 20
-18.5479898574
 10
-4.0156743027
 20
-18.5496676782
 10
-4.04675869
 20
-18.5546254971
 10
-4.0771555873
 20
-18.5628089852
 10
-4.1065339629
 20
-18.5741299517
 10
-4.1345661624
 20
-18.5884630978
 10
-4.1609334213
 20
-18.605643576
 10
-4.1853413792
 20
-18.6254737885
 10
-4.2075310866
 20
-18.6477370961
 10
-4.2272686035
 20
-18.6721964817
 10
-4.2443606733
 20
-18.6986248909
 10
-4.2585867345
 20
-18.7266956735
 10
-4.2697495596
 20
-18.7559749713
 10
-4.2777561116
 20
-18.7860856378
 10
-4.2825765672
 20
-18.8167317928
 10
-4.2841990136
 20
-18.8475787179
  0
LINE
  5
23B
100
AcDbEntity
  8
RACCORDO
100
AcDbLine
 62
250
  6
CONTINUOUS
 10
3.9632987033
 20
-19.6323546151
 11
3.8367013729
 21
-19.6323546151
  0
LINE
  5
23C
100
AcDbEntity
  8
RACCORDO
100
AcDbLine
 62
250
  6
CONTINUOUS
 10
-3.8367012967
 20
-19.6323546151
 11
-3.9632986271
 21
-19.6323546151
  0
LINE
  5
23D
100
AcDbEntity
  8
RACCORDO
100
AcDbLine
 62
7
  6
CONTINUOUS
 10
3.9842447813
 20
-19.5000000127
 11
3.8157552949
 21
-19.5000000127
  0
LINE
  5
23E
100
AcDbEntity
  8
RACCORDO
100
AcDbLine
 62
7
  6
CONTINUOUS
 10
-3.8157552187
 20
-19.5000000127
 11
-3.9842447051
 21
-19.5000000127
  0
LINE
  5
23F
100
AcDbEntity
  8
RACCORDO
100
AcDbLine
 62
250
  6
CONTINUOUS
 10
3.5158009864
 20
-18.8475787179
 11
4.2841990898
 21
-18.8475787179
  0
LINE
  5
240
100
AcDbEntity
  8
RACCORDO
100
AcDbLine
 62
250
  6
CONTINUOUS
 10
-3.5158009102
 20
-18.8475787179
 11
-4.2841990136
 21
-18.8475787179
  0
LINE
  5
241
100
AcDbEntity
  8
RACCORDO
100
AcDbLine
 62
250
  6
CONTINUOUS
 10
-3.9842447051
 20
-18.5479898574
 11
-3.8157552187
 21
-18.5479898574
  0
LINE
  5
242
100
AcDbEntity
  8
RACCORDO
100
AcDbLine
 62
250
  6
CONTINUOUS
 10
3.8157552949
 20
-18.5479898574
 11
3.9842447813
 21
-18.5479898574
  0
LINE
  5
243
100
AcDbEntity
  8
RACCORDO
100
AcDbLine
 62
7
  6
CONTINUOUS
 10
-3.9963113791
 20
-18.5117603966
 11
-3.8036885447
 21
-18.5117603966
  0
LINE
  5
244
100
AcDbEntity
  8
RACCORDO
100
AcDbLine
 62
7
  6
CONTINUOUS
 10
3.8036886209
 20
-18.5117603966
 11
3.9963114553
 21
-18.5117603966
  0
LWPOLYLINE
  5
245
100
AcDbEntity
  8
RACCORDO
100
AcDbPolyline
 62
7
  6
CONTINUOUS
 90
25
 70
0
 10
-3.8036885447
 20
-18.5117603966
 10
-3.7839356059
 20
-18.5124164948
 10
-3.7642742399
 20
-18.5143814529
 10
-3.744789715
 20
-18.517646369
 10
-3.7255632835
 20
-18.5221978053
 10
-3.7066816212
 20
-18.5280151428
 10
-3.6882358145
 20
-18.535068537
 10
-3.6703062272
 20
-18.5433249775
 10
-3.6529682336
 20
-18.5527471012
 10
-3.6363005971
 20
-18.5632879666
 10
-3.6203734943
 20
-18.5748995115
 10
-3.6052534225
 20
-18.5875291065
 10
-3.5910070457
 20
-18.6011144559
 10
-3.5776945859
 20
-18.61559182
 10
-3.5653670002
 20
-18.6308987649
 10
-3.5540704463
 20
-18.6469694423
 10
-3.5438499455
 20
-18.6637339319
 10
-3.5347457643
 20
-18.6811194397
 10
-3.5267910754
 20
-18.6990528616
 10
-3.5200174925
 20
-18.7174559183
 10
-3.5144500111
 20
-18.7362521796
 10
-3.5101067335
 20
-18.75536975
 10
-3.5070043137
 20
-18.7747310846
 10
-3.5051558747
 20
-18.7942527212
 10
-3.5045681849
 20
-18.813853138
  0
LWPOLYLINE
  5
246
100
AcDbEntity
  8
RACCORDO
100
AcDbPolyline
 62
7
  6
CONTINUOUS
 90
25
 70
0
 10
3.9963114553
 20
-18.5117603966
 10
4.0160643941
 20
-18.5124164948
 10
4.0357257601
 20
-18.5143814529
 10
4.055210285
 20
-18.517646369
 10
4.0744367165
 20
-18.5221978053
 10
4.0933183788
 20
-18.5280151428
 10
4.1117641855
 20
-18.535068537
 10
4.1296937728
 20
-18.5433249775
 10
4.1470317664
 20
-18.5527471012
 10
4.1636994029
 20
-18.5632879666
 10
4.1796265057
 20
-18.5748995115
 10
4.1947465775
 20
-18.5875291065
 10
4.2089929543
 20
-18.6011144559
 10
4.2223054141
 20
-18.61559182
 10
4.2346329998
 20
-18.6308987649
 10
4.2459295537
 20
-18.6469694423
 10
4.2561500545
 20
-18.6637339319
 10
4.2652542357
 20
-18.6811194397
 10
4.2732089246
 20
-18.6990528616
 10
4.2799825075
 20
-18.7174559183
 10
4.2855499889
 20
-18.7362521796
 10
4.2898932665
 20
-18.75536975
 10
4.2929956863
 20
-18.7747310846
 10
4.2948441253
 20
-18.7942527212
 10
4.2954318151
 20
-18.813853138
  0
LWPOLYLINE
  5
247
100
AcDbEntity
  8
RACCORDO
100
AcDbPolyline
 62
7
  6
CONTINUOUS
 90
19
 70
0
 10
-3.8202629556
 20
-19.5000000127
 10
-3.7875007415
 20
-19.5015409026
 10
-3.7561909033
 20
-19.5060624224
 10
-3.7266245318
 20
-19.5131605254
 10
-3.6991498102
 20
-19.5223318864
 10
-3.6737681354
 20
-19.5332390861
 10
-3.6502035929
 20
-19.5458434899
 10
-3.6284838835
 20
-19.5599346982
 10
-3.608752227
 20
-19.575188092
 10
-3.5909373516
 20
-19.5915463923
 10
-3.5750604491
 20
-19.6088078952
 10
-3.5611465851
 20
-19.6267358201
 10
-3.5491453574
 20
-19.6452787759
 10
-3.5390368388
 20
-19.6642803706
 10
-3.5308103103
 20
-19.6835377868
 10
-3.5244288888
 20
-19.7029584889
 10
-3.5198437006
 20
-19.7224126216
 10
-3.5169917336
 20
-19.7417323641
 10
-3.5158009102
 20
-19.760786034
  0
LWPOLYLINE
  5
248
100
AcDbEntity
  8
RACCORDO
100
AcDbPolyline
 62
250
  6
CONTINUOUS
 90
16
 70
0
 10
-3.8367012967
 20
-19.6323546151
 10
-3.8053957465
 20
-19.6340523379
 10
-3.7744321275
 20
-19.6389763437
 10
-3.7441486363
 20
-19.6470728508
 10
-3.7148760407
 20
-19.6582534259
 10
-3.6869340673
 20
-19.6723959504
 10
-3.660627909
 20
-19.6893459544
 10
-3.6362448916
 20
-19.7089183034
 10
-3.614051336
 20
-19.7308992207
 10
-3.5942896486
 20
-19.7550486222
 10
-3.5771756742
 20
-19.781102739
 10
-3.5628963381
 20
-19.808776998
 10
-3.5516076047
 20
-19.8377691303
 10
-3.5434327739
 20
-19.8677624728
 10
-3.5384611343
 20
-19.8984294267
 10
-3.5367469881
 20
-19.9294350357
  0
LWPOLYLINE
  5
249
100
AcDbEntity
  8
RACCORDO
100
AcDbPolyline
 62
250
  6
CONTINUOUS
 90
16
 70
0
 10
3.9632987033
 20
-19.6323546151
 10
3.9946042535
 20
-19.6340523379
 10
4.0255678725
 20
-19.6389763437
 10
4.0558513637
 20
-19.6470728508
 10
4.0851239593
 20
-19.6582534259
 10
4.1130659327
 20
-19.6723959504
 10
4.139372091
 20
-19.6893459544
 10
4.1637551084
 20
-19.7089183034
 10
4.185948664
 20
-19.7308992207
 10
4.2057103514
 20
-19.7550486222
 10
4.2228243258
 20
-19.781102739
 10
4.2371036619
 20
-19.808776998
 10
4.2483923953
 20
-19.8377691303
 10
4.2565672261
 20
-19.8677624728
 10
4.2615388657
 20
-19.8984294267
 10
4.2632530119
 20
-19.9294350357
  0
LWPOLYLINE
  5
24A
100
AcDbEntity
  8
RACCORDO
100
AcDbPolyline
 62
250
  6
CONTINUOUS
 90
16
 70
0
 10
-9.7094736109
 20
-20.2095764642
 10
-9.7070787723
 20
-20.2135300506
 10
-9.7014949539
 20
-20.217932702
 10
-9.6927649655
 20
-20.2224846601
 10
-9.6810278546
 20
-20.2266026067
 10
-9.6664398237
 20
-20.2302790812
 10
-9.649083438
 20
-20.2340424851
 10
-9.62906764
 20
-20.237605186
 10
-9.6067130519
 20
-20.240607176
 10
-9.5823711149
 20
-20.2434604753
 10
-9.5561163098
 20
-20.2459984946
 10
-9.5283243474
 20
-20.2478670093
 10
-9.4997015417
 20
-20.2493982034
 10
-9.4704729819
 20
-20.2507198645
 10
-9.4404492729
 20
-20.251551617
 10
-9.4095764134
 20
-20.2517243481
  0
LWPOLYLINE
  5
24B
100
AcDbEntity
  8
RACCORDO
100
AcDbPolyline
 62
7
  6
CONTINUOUS
 90
13
 70
0
 10
9.3977721062
 20
-16.4726759763
 10
9.4363054062
 20
-16.4724867742
 10
9.4741964632
 20
-16.4720766632
 10
9.5108179787
 20
-16.4714456434
 10
9.5455644593
 20
-16.4705761393
 10
9.5778607769
 20
-16.4694857264
 10
9.607172028
 20
-16.4682271309
 10
9.633013951
 20
-16.4667921615
 10
9.6549614183
 20
-16.4651890095
 10
9.6726537583
 20
-16.463494975
 10
9.6858000187
 20
-16.4617358245
 10
9.6941841904
 20
-16.4598857916
 10
9.6976693037
 20
-16.4579448761
  0
LINE
  5
24C
100
AcDbEntity
  8
RACCORDO
100
AcDbLine
 62
7
  6
CONTINUOUS
 10
-9.39777203
 20
-16.4726759763
 11
9.3977721062
 21
-16.4726759763
  0
LINE
  5
24D
100
AcDbEntity
  8
0
100
AcDbLine
 62
7
  6
CONTINUOUS
 10
4.5603074173
 20
-16.2500000127
 11
-4.5603073411
 21
-16.2500000127
  0
LWPOLYLINE
  5
24E
100
AcDbEntity
  8
RACCORDO
100
AcDbPolyline
 62
7
  6
CONTINUOUS
 90
13
 70
0
 10
-9.39777203
 20
-16.4726759763
 10
-9.43630533
 20
-16.4724867742
 10
-9.474196387
 20
-16.4720766632
 10
-9.5108179025
 20
-16.4714456434
 10
-9.5455643831
 20
-16.4705761393
 10
-9.5778607007
 20
-16.4694857264
 10
-9.6071719518
 20
-16.4682271309
 10
-9.6330138748
 20
-16.4667921615
 10
-9.6549613421
 20
-16.4651890095
 10
-9.6726536821
 20
-16.4634949749
 10
-9.6857999425
 20
-16.4617358245
 10
-9.6941841142
 20
-16.4598857916
 10
-9.6976692275
 20
-16.4579448761
  0
LINE
  5
24F
100
AcDbEntity
  8
RACCORDO
100
AcDbLine
 62
7
  6
CONTINUOUS
 10
-4.2870319286
 20
-20.5094736617
 11
-4.2632529357
 21
-20.5451466796
  0
LINE
  5
250
100
AcDbEntity
  8
0
100
AcDbLine
 62
7
  6
CONTINUOUS
 10
-7.6382978476
 20
-10.7762500127
 11
-7.5425531781
 21
-10.8387501319
  0
LINE
  5
251
100
AcDbEntity
  8
0
100
AcDbLine
 62
7
  6
CONTINUOUS
 10
-7.4787233985
 20
-11.1200001319
 11
-7.2553190804
 21
-11.3075001319
  0
LINE
  5
252
100
AcDbEntity
  8
DRAFT
100
AcDbLine
 62
7
  6
CONTINUOUS
 10
1.2500000381
 20
-21.5000000127
 11
1.3910616227
 21
-21.6410615973
  0
LINE
  5
253
100
AcDbEntity
  8
0
100
AcDbLine
 62
7
  6
CONTINUOUS
 10
-7.5425531781
 20
-10.8387501319
 11
-7.4148936189
 21
-10.8700000127
  0
LINE
  5
254
100
AcDbEntity
  8
0
100
AcDbLine
 62
7
  6
CONTINUOUS
 10
-7.4148936189
 20
-10.6825000127
 11
-7.5425531781
 21
-10.6199998935
  0
LINE
  5
255
100
AcDbEntity
  8
0
100
AcDbLine
 62
7
  6
CONTINUOUS
 10
-8.2765957109
 20
-9.3700000127
 11
-8.1489361293
 21
-9.4325001319
  0
LINE
  5
256
100
AcDbEntity
  8
0
100
AcDbLine
 62
7
  6
CONTINUOUS
 10
-7.3510637498
 20
-9.9325000127
 11
-7.2553190804
 21
-9.9950001319
  0
LINE
  5
257
100
AcDbEntity
  8
0
100
AcDbLine
 62
7
  6
CONTINUOUS
 10
-8.0531914598
 20
-9.3074998935
 11
-8.244680821
 21
-9.1825000127
  0
LINE
  5
258
100
AcDbEntity
  8
0
100
AcDbLine
 62
7
  6
CONTINUOUS
 10
-6.9999999619
 20
-11.3075001319
 11
-7.2234041906
 21
-11.1200001319
  0
LINE
  5
259
100
AcDbEntity
  8
0
100
AcDbLine
 62
7
  6
CONTINUOUS
 10
-8.3723403915
 20
-9.2762500127
 11
-8.2765957109
 21
-9.3700000127
  0
LINE
  5
25A
100
AcDbEntity
  8
0
100
AcDbLine
 62
7
  6
CONTINUOUS
 10
-7.0957446313
 20
-9.9325000127
 11
-7.2234041906
 21
-9.8075001319
  0
LINE
  5
25B
100
AcDbEntity
  8
0
100
AcDbLine
 62
7
  6
CONTINUOUS
 10
-7.5425531781
 20
-10.6199998935
 11
-8.3404254905
 21
-9.7450000127
  0
LINE
  5
25C
100
AcDbEntity
  8
0
100
AcDbLine
 62
7
  6
CONTINUOUS
 10
-8.3404254905
 20
-9.9950001319
 11
-7.6382978476
 21
-10.7762500127
  0
LINE
  5
25D
100
AcDbEntity
  8
0
100
AcDbLine
 62
7
  6
CONTINUOUS
 10
-8.244680821
 20
-9.1825000127
 11
-8.3085106007
 21
-9.0887500127
  0
LINE
  5
25E
100
AcDbEntity
  8
0
100
AcDbLine
 62
7
  6
CONTINUOUS
 10
-7.2553190804
 20
-9.9950001319
 11
-7.1914893008
 21
-10.0887501319
  0
LINE
  5
25F
100
AcDbEntity
  8
0
100
AcDbLine
 62
7
  6
CONTINUOUS
 10
-8.4680850693
 20
-9.1199998935
 11
-8.3723403915
 21
-9.2762500127
  0
LINE
  5
260
100
AcDbEntity
  8
RACCORDO
100
AcDbLine
 62
7
  6
CONTINUOUS
 10
-10.9999999619
 20
21.6001713248
 11
-10.9999999619
 21
-21.6001713502
  0
LINE
  5
261
100
AcDbEntity
  8
0
100
AcDbLine
 62
7
  6
CONTINUOUS
 10
-10.4999999619
 20
5.9999999873
 11
-10.4999999619
 21
-6.0000000127
  0
LWPOLYLINE
  5
262
100
AcDbEntity
  8
RACCORDO
100
AcDbPolyline
 62
250
  6
CONTINUOUS
 90
13
 70
0
 10
-9.7094736109
 20
20.2095764388
 10
-9.7068833722
 20
20.2487039087
 10
-9.6992105598
 20
20.2871624799
 10
-9.6865863436
 20
20.3242946888
 10
-9.669226539
 20
20.3594657463
 10
-9.6474279186
 20
20.39207439
 10
-9.6215631377
 20
20.4215631631
 10
-9.5920743646
 20
20.447427944
 10
-9.5594657209
 20
20.4692265644
 10
-9.5242946634
 20
20.486586369
 10
-9.4871624545
 20
20.4992105852
 10
-9.4487038833
 20
20.5068833976
 10
-9.4095764134
 20
20.5094736363
  0
LINE
  5
263
100
AcDbEntity
  8
0
100
AcDbLine
 62
7
  6
CONTINUOUS
 10
-4.4897209619
 20
17.6504819873
 11
-4.2041949619
 21
18.4999999873
  0
LINE
  5
264
100
AcDbEntity
  8
0
100
AcDbLine
 62
7
  6
CONTINUOUS
 10
8.4436730381
 20
-11.5011140127
 11
6.4443360381
 21
-11.5011140127
  0
LINE
  5
265
100
AcDbEntity
  8
0
100
AcDbLine
 62
7
  6
CONTINUOUS
 10
-8.4999999619
 20
-11.4950001319
 11
-6.9999999619
 21
-11.4950001319
  0
LINE
  5
266
100
AcDbEntity
  8
0
100
AcDbLine
 62
7
  6
CONTINUOUS
 10
-7.2553190804
 20
-11.3075001319
 11
-8.4999999619
 21
-11.3075001319
  0
LINE
  5
267
100
AcDbEntity
  8
0
100
AcDbLine
 62
7
  6
CONTINUOUS
 10
7.0315800381
 20
-11.1573690127
 11
8.4436730381
 21
-11.1573770127
  0
LINE
  5
268
100
AcDbEntity
  8
0
100
AcDbLine
 62
7
  6
CONTINUOUS
 10
-7.2234041906
 20
-11.1200001319
 11
-7.4787233985
 21
-11.1200001319
  0
LINE
  5
269
100
AcDbEntity
  8
0
100
AcDbLine
 62
7
  6
CONTINUOUS
 10
-8.4999999619
 20
-10.8700000127
 11
-8.3404254905
 21
-10.8700000127
  0
LINE
  5
26A
100
AcDbEntity
  8
0
100
AcDbLine
 62
7
  6
CONTINUOUS
 10
-7.4148936189
 20
-10.8700000127
 11
-7.3510637498
 21
-10.8700000127
  0
LINE
  5
26B
100
AcDbEntity
  8
0
100
AcDbLine
 62
7
  6
CONTINUOUS
 10
-7.3510637498
 20
-10.6825000127
 11
-7.4148936189
 21
-10.6825000127
  0
LINE
  5
26C
100
AcDbEntity
  8
0
100
AcDbLine
 62
7
  6
CONTINUOUS
 10
6.4443360381
 20
-9.8865050127
 11
8.4436730381
 21
-9.8865050127
  0
LINE
  5
26D
100
AcDbEntity
  8
0
100
AcDbLine
 62
7
  6
CONTINUOUS
 10
7.8410170381
 20
-10.2350820127
 11
6.4443360381
 21
-10.2302380127
  0
LINE
  5
26E
100
AcDbEntity
  8
0
100
AcDbLine
 62
7
  6
CONTINUOUS
 10
-7.8617020762
 20
-9.3387501319
 11
-8.0531914598
 21
-9.3074998935
  0
LINE
  5
26F
100
AcDbEntity
  8
0
100
AcDbLine
 62
7
  6
CONTINUOUS
 10
-8.0531914598
 20
-9.4637500127
 11
-7.8936169661
 21
-9.4949998935
  0
LINE
  5
270
100
AcDbEntity
  8
0
100
AcDbLine
 62
7
  6
CONTINUOUS
 10
-7.2234041906
 20
-9.8075001319
 11
-7.3510637498
 21
-9.7762498935
  0
LINE
  5
271
100
AcDbEntity
  8
0
100
AcDbLine
 62
7
  6
CONTINUOUS
 10
-8.1489361293
 20
-9.4325001319
 11
-8.0531914598
 21
-9.4637500127
  0
LINE
  5
272
100
AcDbEntity
  8
0
100
AcDbLine
 62
7
  6
CONTINUOUS
 10
-7.3510637498
 20
-8.4325000127
 11
-7.4468085087
 21
-8.4012499531
  0
LINE
  5
273
100
AcDbEntity
  8
0
100
AcDbLine
 62
7
  6
CONTINUOUS
 10
-8.1489361293
 20
-8.0575000127
 11
-8.0531914598
 21
-8.0887500723
  0
LINE
  5
274
100
AcDbEntity
  8
0
100
AcDbLine
 62
7
  6
CONTINUOUS
 10
-8.2765957109
 20
-7.9950000723
 11
-8.1489361293
 21
-8.0575000127
  0
LINE
  5
275
100
AcDbEntity
  8
0
100
AcDbLine
 62
7
  6
CONTINUOUS
 10
-7.2234041906
 20
-8.4949999531
 11
-7.3510637498
 21
-8.4325000127
  0
LINE
  5
276
100
AcDbEntity
  8
0
100
AcDbLine
 62
7
  6
CONTINUOUS
 10
-7.4468085087
 20
-8.5575000723
 11
-7.2553190804
 21
-8.6825001319
  0
LINE
  5
277
100
AcDbEntity
  8
0
100
AcDbLine
 62
7
  6
CONTINUOUS
 10
-8.0531914598
 20
-7.9324999531
 11
-8.244680821
 21
-7.8075000723
  0
LINE
  5
278
100
AcDbEntity
  8
0
100
AcDbLine
 62
7
  6
CONTINUOUS
 10
-7.4468085087
 20
-7.1824999531
 11
-7.2553190804
 21
-7.3075000127
  0
LINE
  5
279
100
AcDbEntity
  8
0
100
AcDbLine
 62
7
  6
CONTINUOUS
 10
-8.3723403915
 20
-7.9012500723
 11
-8.2765957109
 21
-7.9950000723
  0
LINE
  5
27A
100
AcDbEntity
  8
0
100
AcDbLine
 62
7
  6
CONTINUOUS
 10
-7.1276595211
 20
-8.5887499531
 11
-7.2234041906
 21
-8.4949999531
  0
LINE
  5
27B
100
AcDbEntity
  8
0
100
AcDbLine
 62
7
  6
CONTINUOUS
 10
-7.1276595211
 20
-7.2137500127
 11
-7.2234041906
 21
-7.1200000127
  0
LINE
  5
27C
100
AcDbEntity
  8
0
100
AcDbLine
 62
7
  6
CONTINUOUS
 10
-7.5425531781
 20
-6.4949999829
 11
-8.3404254905
 21
-5.6200000127
  0
LINE
  5
27D
100
AcDbEntity
  8
0
100
AcDbLine
 62
7
  6
CONTINUOUS
 10
-8.3404254905
 20
-5.8700000202
 11
-7.6382978476
 21
-6.6512500127
  0
LINE
  5
27E
100
AcDbEntity
  8
0
100
AcDbLine
 62
7
  6
CONTINUOUS
 10
-8.244680821
 20
-7.8075000723
 11
-8.3085106007
 21
-7.7137500723
  0
LINE
  5
27F
100
AcDbEntity
  8
0
100
AcDbLine
 62
7
  6
CONTINUOUS
 10
-7.2553190804
 20
-8.6825001319
 11
-7.1914893008
 21
-8.7762501319
  0
LINE
  5
280
100
AcDbEntity
  8
0
100
AcDbLine
 62
7
  6
CONTINUOUS
 10
-7.2553190804
 20
-7.3075000127
 11
-7.1914893008
 21
-7.4012500127
  0
LINE
  5
281
100
AcDbEntity
  8
0
100
AcDbLine
 62
7
  6
CONTINUOUS
 10
-8.4680850693
 20
-7.7449999531
 11
-8.3723403915
 21
-7.9012500723
  0
LINE
  5
282
100
AcDbEntity
  8
0
100
AcDbLine
 62
7
  6
CONTINUOUS
 10
-7.0319148517
 20
-8.7449998935
 11
-7.1276595211
 21
-8.5887499531
  0
LINE
  5
283
100
AcDbEntity
  8
0
100
AcDbLine
 62
7
  6
CONTINUOUS
 10
-7.0319148517
 20
-7.3699999531
 11
-7.1276595211
 21
-7.2137500127
  0
LINE
  5
284
100
AcDbEntity
  8
0
100
AcDbLine
 62
7
  6
CONTINUOUS
 10
-7.0319148517
 20
-10.0574998935
 11
-7.0957446313
 21
-9.9325000127
  0
LINE
  5
285
100
AcDbEntity
  8
RACCORDO
100
AcDbLine
 62
250
  6
CONTINUOUS
 10
-4.2954317389
 20
-18.813853138
 11
-4.2841990136
 21
-18.8475787179
  0
LINE
  5
286
100
AcDbEntity
  8
0
100
AcDbLine
 62
7
  6
CONTINUOUS
 10
-8.3085106007
 20
-9.0887500127
 11
-8.3404254905
 21
-8.9324998935
  0
LINE
  5
287
100
AcDbEntity
  8
0
100
AcDbLine
 62
7
  6
CONTINUOUS
 10
-8.4999999619
 20
-8.9324998935
 11
-8.4680850693
 21
-9.1199998935
  0
LINE
  5
288
100
AcDbEntity
  8
RACCORDO
100
AcDbLine
 62
250
  6
CONTINUOUS
 10
-9.7094736109
 20
20.2095764388
 11
-9.6987734402
 21
16.8757483385
  0
LINE
  5
289
100
AcDbEntity
  8
RACCORDO
100
AcDbLine
 62
7
  6
CONTINUOUS
 10
-9.7999999619
 20
-20.3001028152
 11
-9.7999999619
 21
-6.0000000127
  0
LINE
  5
28A
100
AcDbEntity
  8
RACCORDO
100
AcDbLine
 62
7
  6
CONTINUOUS
 10
-9.7999999619
 20
5.9999999873
 11
-9.7999999619
 21
20.3001027898
  0
LINE
  5
28B
100
AcDbEntity
  8
DRAFT
100
AcDbLine
 62
7
  6
CONTINUOUS
 10
-9.7811769181
 20
5.9999999873
 11
-9.7811769181
 21
-6.0000000127
  0
LINE
  5
28C
100
AcDbEntity
  8
RACCORDO
100
AcDbLine
 62
250
  6
CONTINUOUS
 10
-9.6976692275
 20
2.4343621902
 11
-9.6987734402
 21
16.8757483385
  0
LINE
  5
28D
100
AcDbEntity
  8
RACCORDO
100
AcDbLine
 62
250
  6
CONTINUOUS
 10
-9.4095764134
 20
20.5094736363
 11
-9.3977343021
 21
16.4726759509
  0
LINE
  5
28E
100
AcDbEntity
  8
RACCORDO
100
AcDbLine
 62
250
  6
CONTINUOUS
 10
-9.39777203
 20
1.7578395704
 11
-9.39777203
 21
16.4726759509
  0
LINE
  5
28F
100
AcDbEntity
  8
0
100
AcDbLine
 62
7
  6
CONTINUOUS
 10
-8.4999999619
 20
-5.6200000127
 11
-8.4999999619
 21
-6.7450000127
  0
LINE
  5
290
100
AcDbEntity
  8
0
100
AcDbLine
 62
7
  6
CONTINUOUS
 10
-8.4999999619
 20
-9.7450000127
 11
-8.4999999619
 21
-10.8700000127
  0
LINE
  5
291
100
AcDbEntity
  8
0
100
AcDbLine
 62
7
  6
CONTINUOUS
 10
-8.4999999619
 20
-11.3075001319
 11
-8.4999999619
 21
-11.4950001319
  0
LINE
  5
292
100
AcDbEntity
  8
0
100
AcDbLine
 62
7
  6
CONTINUOUS
 10
-8.3404254905
 20
-10.8700000127
 11
-8.3404254905
 21
-9.9950001319
  0
LINE
  5
293
100
AcDbEntity
  8
0
100
AcDbLine
 62
7
  6
CONTINUOUS
 10
-8.3404254905
 20
-6.7450000127
 11
-8.3404254905
 21
-5.8700000202
  0
LINE
  5
294
100
AcDbEntity
  8
RACCORDO
100
AcDbLine
 62
250
  6
CONTINUOUS
 10
-9.6976692275
 20
-2.4343622156
 11
-9.6987734326
 21
-16.8757457462
  0
LINE
  5
295
100
AcDbEntity
  8
RACCORDO
100
AcDbLine
 62
250
  6
CONTINUOUS
 10
-9.39777203
 20
-1.7578395958
 11
-9.3988410835
 21
-16.8935183274
  0
LWPOLYLINE
  5
296
100
AcDbEntity
  8
RACCORDO
100
AcDbPolyline
 62
250
  6
CONTINUOUS
 90
3
 70
0
 10
-9.6987734326
 20
-16.8757457462
 10
-9.7079546764
 20
-19.7936977649
 10
-9.7094736109
 20
-20.2095764642
  0
LINE
  5
297
100
AcDbEntity
  8
RACCORDO
100
AcDbLine
 62
250
  6
CONTINUOUS
 10
-9.3988410835
 20
-16.8935183274
 11
-9.4095764134
 21
-20.5094736617
  0
LWPOLYLINE
  5
298
100
AcDbEntity
  8
RACCORDO
100
AcDbPolyline
 62
7
  6
CONTINUOUS
 90
34
 70
0
 10
-9.6976692275
 20
-2.4343622156
 10
-9.6966952771
 20
-2.3999384485
 10
-9.6947760987
 20
-2.3664215001
 10
-9.6920129547
 20
-2.3338113703
 10
-9.6885183029
 20
-2.302122584
 10
-9.6843813714
 20
-2.2713406163
 10
-9.6796417824
 20
-2.2414218929
 10
-9.6743634003
 20
-2.2123680252
 10
-9.6686168977
 20
-2.1841774018
 10
-9.6624108263
 20
-2.1568016151
 10
-9.6557900216
 20
-2.1302379374
 10
-9.6488045199
 20
-2.1044890963
 10
-9.6414424063
 20
-2.0795148667
 10
-9.6337357605
 20
-2.0553087334
 10
-9.6257197162
 20
-2.0318772116
 10
-9.6173661438
 20
-2.0091996221
 10
-9.6086992366
 20
-1.9872661491
 10
-9.5997424385
 20
-1.9660866083
 10
-9.590449897
 20
-1.9456697672
 10
-9.5808441111
 20
-1.9260034538
 10
-9.5709362311
 20
-1.9070998401
 10
-9.5606480814
 20
-1.8890042089
 10
-9.5500795619
 20
-1.8717632353
 10
-9.5391569967
 20
-1.8553302444
 10
-9.5275093107
 20
-1.8396104935
 10
-9.5149335573
 20
-1.8242911502
 10
-9.5016118753
 20
-1.809685047
 10
-9.4877430725
 20
-1.7966359392
 10
-9.4733045076
 20
-1.7852356751
 10
-9.4583580759
 20
-1.7753924063
 10
-9.4432587743
 20
-1.767674343
 10
-9.4281560021
 20
-1.7622708885
 10
-9.4129807133
 20
-1.7589926395
 10
-9.39777203
 20
-1.7578395958
  0
LINE
  5
299
100
AcDbEntity
  8
0
100
AcDbLine
 62
7
  6
CONTINUOUS
 10
-4.4242399619
 20
17.4999999873
 11
-4.1429329619
 21
18.3398709873
  0
LINE
  5
29A
100
AcDbEntity
  8
0
100
AcDbLine
 62
7
  6
CONTINUOUS
 10
-3.7529209619
 20
17.4999999873
 11
-3.6484489619
 21
17.7910629873
  0
LINE
  5
29B
100
AcDbEntity
  8
0
100
AcDbLine
 62
7
  6
CONTINUOUS
 10
-3.6066529619
 20
17.9108369873
 11
-3.4450439619
 21
18.3549509873
  0
LINE
  5
29C
100
AcDbEntity
  8
0
100
AcDbLine
 62
7
  6
CONTINUOUS
 10
-3.8921849619
 20
17.4999999873
 11
-3.5161559619
 21
18.4999999873
  0
LINE
  5
29D
100
AcDbEntity
  8
DRAFT
100
AcDbLine
 62
7
  6
CONTINUOUS
 10
6.9000000381
 20
19.9999999873
 11
7.5000000381
 21
20.5999999873
  0
LINE
  5
29E
100
AcDbEntity
  8
ASSI
100
AcDbLine
 62
7
  6
CONTINUOUS
 10
6.4000000381
 20
10.8417859873
 11
8.4500970381
 21
11.4999999873
  0
LINE
  5
29F
100
AcDbEntity
  8
0
100
AcDbLine
 62
7
  6
CONTINUOUS
 10
-7.3510637498
 20
-10.8700000127
 11
-7.2234041906
 21
-10.8387501319
  0
LWPOLYLINE
  5
2A0
100
AcDbEntity
  8
0
100
AcDbPolyline
 62
7
  6
CONTINUOUS
 90
10
 70
0
 10
7.4440117339
 20
-9.1758371431
 10
7.5277430237
 20
-9.1713473778
 10
7.6061396929
 20
-9.1622967107
 10
7.6792017414
 20
-9.1486851418
 10
7.7471108339
 20
-9.1298771525
 10
7.8096853058
 20
-9.1065082613
 10
7.8663801633
 20
-9.0804850244
 10
7.917013742
 20
-9.0524429602
 10
7.9617677064
 20
-9.0217465501
 10
8.0006420565
 20
-8.9883957942
  0
LWPOLYLINE
  5
2A1
100
AcDbEntity
  8
0
100
AcDbPolyline
 62
7
  6
CONTINUOUS
 90
10
 70
0
 10
7.4440117339
 20
-7.9714381072
 10
7.3602919067
 20
-7.9759271975
 10
7.2819033067
 20
-7.9849776565
 10
7.2088459338
 20
-7.9985894843
 10
7.1409370278
 20
-8.0173984664
 10
7.0783593489
 20
-8.0407688173
 10
7.0216611781
 20
-8.0667931802
 10
6.9710252755
 20
-8.0948357694
 10
6.926268881
 20
-8.1255323706
 10
6.8873919944
 20
-8.1588829838
  0
LINE
  5
2A2
100
AcDbEntity
  8
0
100
AcDbLine
 62
7
  6
CONTINUOUS
 10
-8.3404254905
 20
-9.7450000127
 11
-8.4999999619
 21
-9.7450000127
  0
LINE
  5
2A3
100
AcDbEntity
  8
0
100
AcDbLine
 62
7
  6
CONTINUOUS
 10
-7.8936169661
 20
-9.4949998935
 11
-7.6063829577
 21
-9.4949998935
  0
LINE
  5
2A4
100
AcDbEntity
  8
0
100
AcDbLine
 62
7
  6
CONTINUOUS
 10
-7.6382978476
 20
-9.3387501319
 11
-7.8617020762
 21
-9.3387501319
  0
LINE
  5
2A5
100
AcDbEntity
  8
0
100
AcDbLine
 62
7
  6
CONTINUOUS
 10
-7.8617020762
 20
-8.5262500127
 11
-7.6382978476
 21
-8.5262500127
  0
LINE
  5
2A6
100
AcDbEntity
  8
0
100
AcDbLine
 62
7
  6
CONTINUOUS
 10
-7.6063829577
 20
-8.3700000723
 11
-7.8936169661
 21
-8.3700000723
  0
LWPOLYLINE
  5
2A7
100
AcDbEntity
  8
0
100
AcDbPolyline
 62
7
  6
CONTINUOUS
 90
10
 70
0
 10
7.444205758
 20
-9.5351308899
 10
7.3445315851
 20
-9.5303846693
 10
7.2484807406
 20
-9.5192489908
 10
7.1560532246
 20
-9.5017238545
 10
7.0661304958
 20
-9.4769613546
 10
6.9798310955
 20
-9.4458093968
 10
6.9005106469
 20
-9.4108116984
 10
6.829287691
 20
-9.3728161652
 10
6.7650436868
 20
-9.3309748914
 10
6.7077786342
 20
-9.2852878769
  0
LINE
  5
2A8
100
AcDbEntity
  8
0
100
AcDbLine
 62
7
  6
CONTINUOUS
 10
-7.6382978476
 20
-8.5262500127
 11
-7.4468085087
 21
-8.5575000723
  0
LINE
  5
2A9
100
AcDbEntity
  8
0
100
AcDbLine
 62
7
  6
CONTINUOUS
 10
-7.8617020762
 20
-7.9637500127
 11
-8.0531914598
 21
-7.9324999531
  0
LINE
  5
2AA
100
AcDbEntity
  8
0
100
AcDbLine
 62
7
  6
CONTINUOUS
 10
-7.6382978476
 20
-7.1512500723
 11
-7.4468085087
 21
-7.1824999531
  0
LINE
  5
2AB
100
AcDbEntity
  8
0
100
AcDbLine
 62
7
  6
CONTINUOUS
 10
-7.4468085087
 20
-8.4012499531
 11
-7.6063829577
 21
-8.3700000723
  0
LINE
  5
2AC
100
AcDbEntity
  8
0
100
AcDbLine
 62
7
  6
CONTINUOUS
 10
-8.0531914598
 20
-8.0887500723
 11
-7.8936169661
 21
-8.1199999531
  0
LINE
  5
2AD
100
AcDbEntity
  8
0
100
AcDbLine
 62
7
  6
CONTINUOUS
 10
-7.4468085087
 20
-7.0262500127
 11
-7.6063829577
 21
-6.9950000425
  0
LINE
  5
2AE
100
AcDbEntity
  8
0
100
AcDbLine
 62
7
  6
CONTINUOUS
 10
-7.5425531781
 20
-6.7137500425
 11
-7.4148936189
 21
-6.7450000127
  0
LINE
  5
2AF
100
AcDbEntity
  8
0
100
AcDbLine
 62
7
  6
CONTINUOUS
 10
-7.3510637498
 20
-7.0574999829
 11
-7.4468085087
 21
-7.0262500127
  0
LINE
  5
2B0
100
AcDbEntity
  8
0
100
AcDbLine
 62
7
  6
CONTINUOUS
 10
-7.2234041906
 20
-7.1200000127
 11
-7.3510637498
 21
-7.0574999829
  0
LINE
  5
2B1
100
AcDbEntity
  8
0
100
AcDbLine
 62
7
  6
CONTINUOUS
 10
-7.4148936189
 20
-6.5575000127
 11
-7.5425531781
 21
-6.4949999829
  0
LINE
  5
2B2
100
AcDbEntity
  8
0
100
AcDbLine
 62
7
  6
CONTINUOUS
 10
-7.6382978476
 20
-6.6512500127
 11
-7.5425531781
 21
-6.7137500425
  0
LINE
  5
2B3
100
AcDbEntity
  8
0
100
AcDbLine
 62
7
  6
CONTINUOUS
 10
-7.3510637498
 20
-5.8075000127
 11
-7.2553190804
 21
-5.8700000202
  0
LINE
  5
2B4
100
AcDbEntity
  8
0
100
AcDbLine
 62
7
  6
CONTINUOUS
 10
-7.0957446313
 20
-5.8075000127
 11
-7.2234041906
 21
-5.6825000146
  0
LINE
  5
2B5
100
AcDbEntity
  8
DRAFT
100
AcDbLine
 62
7
  6
CONTINUOUS
 10
7.5000000381
 20
-20.6000000127
 11
6.9000000381
 21
-20.0000000127
  0
LINE
  5
2B6
100
AcDbEntity
  8
0
100
AcDbLine
 62
7
  6
CONTINUOUS
 10
-7.2553190804
 20
-5.8700000202
 11
-7.1914893008
 21
-5.9637500202
  0
LINE
  5
2B7
100
AcDbEntity
  8
RACCORDO
100
AcDbLine
 62
7
  6
CONTINUOUS
 10
3.5129680714
 20
-20.5094736617
 11
3.5367470643
 21
-20.5451466796
  0
LINE
  5
2B8
100
AcDbEntity
  8
0
100
AcDbLine
 62
7
  6
CONTINUOUS
 10
-7.0319148517
 20
-5.9325000052
 11
-7.0957446313
 21
-5.8075000127
  0
LINE
  5
2B9
100
AcDbEntity
  8
RACCORDO
100
AcDbLine
 62
250
  6
CONTINUOUS
 10
-3.9963113791
 20
-18.5117603966
 11
-3.9842447051
 21
-18.5479898574
  0
LINE
  5
2BA
100
AcDbEntity
  8
0
100
AcDbLine
 62
7
  6
CONTINUOUS
 10
-8.3085106007
 20
-7.7137500723
 11
-8.3404254905
 21
-7.5574999531
  0
LINE
  5
2BB
100
AcDbEntity
  8
0
100
AcDbLine
 62
7
  6
CONTINUOUS
 10
-7.1914893008
 20
-10.0887501319
 11
-7.159574411
 21
-10.2449998935
  0
LINE
  5
2BC
100
AcDbEntity
  8
0
100
AcDbLine
 62
7
  6
CONTINUOUS
 10
-7.1914893008
 20
-8.7762501319
 11
-7.159574411
 21
-8.9324998935
  0
LINE
  5
2BD
100
AcDbEntity
  8
0
100
AcDbLine
 62
7
  6
CONTINUOUS
 10
-7.1914893008
 20
-7.4012500127
 11
-7.159574411
 21
-7.5574999531
  0
LINE
  5
2BE
100
AcDbEntity
  8
0
100
AcDbLine
 62
7
  6
CONTINUOUS
 10
-7.1914893008
 20
-5.9637500202
 11
-7.159574411
 21
-6.1200000276
  0
LINE
  5
2BF
100
AcDbEntity
  8
0
100
AcDbLine
 62
7
  6
CONTINUOUS
 10
-8.4999999619
 20
-7.5574999531
 11
-8.4680850693
 21
-7.7449999531
  0
LINE
  5
2C0
100
AcDbEntity
  8
0
100
AcDbLine
 62
7
  6
CONTINUOUS
 10
-6.9999999619
 20
-8.9324998935
 11
-7.0319148517
 21
-8.7449998935
  0
LINE
  5
2C1
100
AcDbEntity
  8
0
100
AcDbLine
 62
7
  6
CONTINUOUS
 10
-6.9999999619
 20
-7.5574999531
 11
-7.0319148517
 21
-7.3699999531
  0
LINE
  5
2C2
100
AcDbEntity
  8
0
100
AcDbLine
 62
7
  6
CONTINUOUS
 10
-6.9999999619
 20
-10.2762501319
 11
-7.0319148517
 21
-10.0574998935
  0
LINE
  5
2C3
100
AcDbEntity
  8
0
100
AcDbLine
 62
7
  6
CONTINUOUS
 10
-7.3510637498
 20
-5.6512500136
 11
-7.3510637498
 21
-5.8075000127
  0
LINE
  5
2C4
100
AcDbEntity
  8
0
100
AcDbLine
 62
7
  6
CONTINUOUS
 10
-7.3510637498
 20
-9.7762498935
 11
-7.3510637498
 21
-9.9325000127
  0
LINE
  5
2C5
100
AcDbEntity
  8
0
100
AcDbLine
 62
7
  6
CONTINUOUS
 10
-7.159574411
 20
-6.1200000276
 11
-7.159574411
 21
-6.2449999978
  0
LINE
  5
2C6
100
AcDbEntity
  8
0
100
AcDbLine
 62
7
  6
CONTINUOUS
 10
-7.159574411
 20
-10.2449998935
 11
-7.159574411
 21
-10.3700001319
  0
LINE
  5
2C7
100
AcDbEntity
  8
0
100
AcDbLine
 62
7
  6
CONTINUOUS
 10
-6.9999999619
 20
-11.4950001319
 11
-6.9999999619
 21
-11.3075001319
  0
LINE
  5
2C8
100
AcDbEntity
  8
0
100
AcDbLine
 62
7
  6
CONTINUOUS
 10
-6.9999999619
 20
-10.4012500127
 11
-6.9999999619
 21
-10.2762501319
  0
LINE
  5
2C9
100
AcDbEntity
  8
0
100
AcDbLine
 62
7
  6
CONTINUOUS
 10
-6.9999999619
 20
-6.2762500127
 11
-6.9999999619
 21
-6.1512499978
  0
LINE
  5
2CA
100
AcDbEntity
  8
0
100
AcDbLine
 62
7
  6
CONTINUOUS
 10
-8.4680850693
 20
-7.3699999531
 11
-8.4999999619
 21
-7.5574999531
  0
LINE
  5
2CB
100
AcDbEntity
  8
0
100
AcDbLine
 62
7
  6
CONTINUOUS
 10
-8.4680850693
 20
-8.7449998935
 11
-8.4999999619
 21
-8.9324998935
  0
LINE
  5
2CC
100
AcDbEntity
  8
0
100
AcDbLine
 62
7
  6
CONTINUOUS
 10
-8.3404254905
 20
-7.5574999531
 11
-8.3085106007
 21
-7.4012500127
  0
LINE
  5
2CD
100
AcDbEntity
  8
RACCORDO
100
AcDbLine
 62
250
  6
CONTINUOUS
 10
9.4095764896
 20
20.5094736363
 11
9.5001028406
 21
20.5999999873
  0
LINE
  5
2CE
100
AcDbEntity
  8
RACCORDO
100
AcDbLine
 62
250
  6
CONTINUOUS
 10
9.7094736871
 20
20.2095764388
 11
9.8000000381
 21
20.3001027898
  0
LINE
  5
2CF
100
AcDbEntity
  8
ASSI
100
AcDbLine
 62
7
  6
CONTINUOUS
 10
8.4500970381
 20
11.0899789873
 11
7.0384980381
 21
10.6367649873
  0
LINE
  5
2D0
100
AcDbEntity
  8
0
100
AcDbLine
 62
7
  6
CONTINUOUS
 10
-7.6063829577
 20
-9.4949998935
 11
-7.4468085087
 21
-9.4637500127
  0
LINE
  5
2D1
100
AcDbEntity
  8
0
100
AcDbLine
 62
7
  6
CONTINUOUS
 10
-7.8936169661
 20
-8.3700000723
 11
-8.0531914598
 21
-8.4012499531
  0
LINE
  5
2D2
100
AcDbEntity
  8
0
100
AcDbLine
 62
7
  6
CONTINUOUS
 10
-7.6063829577
 20
-8.1199999531
 11
-7.4468085087
 21
-8.0887500723
  0
LINE
  5
2D3
100
AcDbEntity
  8
0
100
AcDbLine
 62
7
  6
CONTINUOUS
 10
-7.4468085087
 20
-9.3074998935
 11
-7.6382978476
 21
-9.3387501319
  0
LINE
  5
2D4
100
AcDbEntity
  8
0
100
AcDbLine
 62
7
  6
CONTINUOUS
 10
-8.0531914598
 20
-8.5575000723
 11
-7.8617020762
 21
-8.5262500127
  0
LINE
  5
2D5
100
AcDbEntity
  8
0
100
AcDbLine
 62
7
  6
CONTINUOUS
 10
-7.4468085087
 20
-7.9324999531
 11
-7.6382978476
 21
-7.9637500127
  0
LINE
  5
2D6
100
AcDbEntity
  8
0
100
AcDbLine
 62
7
  6
CONTINUOUS
 10
-7.8936169661
 20
-8.1199999531
 11
-7.6063829577
 21
-8.1199999531
  0
LINE
  5
2D7
100
AcDbEntity
  8
0
100
AcDbLine
 62
7
  6
CONTINUOUS
 10
-7.6382978476
 20
-7.9637500127
 11
-7.8617020762
 21
-7.9637500127
  0
LINE
  5
2D8
100
AcDbEntity
  8
0
100
AcDbLine
 62
7
  6
CONTINUOUS
 10
-7.8617020762
 20
-7.1512500723
 11
-7.6382978476
 21
-7.1512500723
  0
LINE
  5
2D9
100
AcDbEntity
  8
0
100
AcDbLine
 62
7
  6
CONTINUOUS
 10
-7.6063829577
 20
-6.9950000425
 11
-7.8936169661
 21
-6.9950000425
  0
LINE
  5
2DA
100
AcDbEntity
  8
0
100
AcDbLine
 62
7
  6
CONTINUOUS
 10
-8.4999999619
 20
-6.7450000127
 11
-8.3404254905
 21
-6.7450000127
  0
LINE
  5
2DB
100
AcDbEntity
  8
0
100
AcDbLine
 62
7
  6
CONTINUOUS
 10
-7.4148936189
 20
-6.7450000127
 11
-7.3510637498
 21
-6.7450000127
  0
LINE
  5
2DC
100
AcDbEntity
  8
0
100
AcDbLine
 62
7
  6
CONTINUOUS
 10
-7.3510637498
 20
-6.5575000127
 11
-7.4148936189
 21
-6.5575000127
  0
LWPOLYLINE
  5
2DD
100
AcDbEntity
  8
0
100
AcDbPolyline
 62
7
  6
CONTINUOUS
 90
10
 70
0
 10
7.444205758
 20
-7.6121443603
 10
7.5438892698
 20
-7.6168924238
 10
7.6399469279
 20
-7.6280299159
 10
7.7323787323
 20
-7.6455568367
 10
7.8223028392
 20
-7.6703212754
 10
7.9086010923
 20
-7.7014751427
 10
7.9879190228
 20
-7.7364741712
 10
8.0591384743
 20
-7.7744702718
 10
8.1233776032
 20
-7.8163115335
 10
8.1806364094
 20
-7.8619979565
  0
LINE
  5
2DE
100
AcDbEntity
  8
0
100
AcDbLine
 62
7
  6
CONTINUOUS
 10
-7.2234041906
 20
-5.6825000146
 11
-7.3510637498
 21
-5.6512500136
  0
LINE
  5
2DF
100
AcDbEntity
  8
RACCORDO
100
AcDbLine
 62
250
  6
CONTINUOUS
 10
9.4095764896
 20
-20.5094736617
 11
9.5001028406
 21
-20.6000000127
  0
LINE
  5
2E0
100
AcDbEntity
  8
RACCORDO
100
AcDbLine
 62
250
  6
CONTINUOUS
 10
9.7094736871
 20
-20.2095764642
 11
9.8000000381
 21
-20.3001028152
  0
LINE
  5
2E1
100
AcDbEntity
  8
0
100
AcDbLine
 62
7
  6
CONTINUOUS
 10
-6.9999999619
 20
-6.1512499978
 11
-7.0319148517
 21
-5.9325000052
  0
LINE
  5
2E2
100
AcDbEntity
  8
RACCORDO
100
AcDbLine
 62
250
  6
CONTINUOUS
 10
-4.2841990136
 20
-19.760786034
 11
-4.2632529357
 21
-19.9294350357
  0
LINE
  5
2E3
100
AcDbEntity
  8
DRAFT
100
AcDbLine
 62
7
  6
CONTINUOUS
 10
-5.9999999619
 20
-20.6000000127
 11
-5.9999999619
 21
-20.0000000127
  0
LINE
  5
2E4
100
AcDbEntity
  8
DRAFT
100
AcDbLine
 62
7
  6
CONTINUOUS
 10
-5.9999999619
 20
19.9999999873
 11
-5.9999999619
 21
20.5999999873
  0
LINE
  5
2E5
100
AcDbEntity
  8
0
100
AcDbLine
 62
7
  6
CONTINUOUS
 10
-5.4999999619
 20
-15.3103073919
 11
-5.4999999619
 21
-6.0396926335
  0
LINE
  5
2E6
100
AcDbEntity
  8
0
100
AcDbLine
 62
7
  6
CONTINUOUS
 10
-5.4999999619
 20
6.0396926081
 11
-5.4999999619
 21
15.3103073665
  0
LINE
  5
2E7
100
AcDbEntity
  8
0
100
AcDbLine
 62
7
  6
CONTINUOUS
 10
-4.9702249619
 20
17.4999999873
 11
-4.9702249619
 21
18.4999999873
  0
LINE
  5
2E8
100
AcDbEntity
  8
0
100
AcDbLine
 62
7
  6
CONTINUOUS
 10
-4.8393109619
 20
17.4999999873
 11
-4.8393109619
 21
18.3384959873
  0
LINE
  5
2E9
100
AcDbEntity
  8
0
100
AcDbLine
 62
7
  6
CONTINUOUS
 10
-7.0319148517
 20
-6.4637500127
 11
-6.9999999619
 21
-6.2762500127
  0
LINE
  5
2EA
100
AcDbEntity
  8
0
100
AcDbLine
 62
7
  6
CONTINUOUS
 10
-7.0319148517
 20
-7.7449999531
 11
-6.9999999619
 21
-7.5574999531
  0
LINE
  5
2EB
100
AcDbEntity
  8
0
100
AcDbLine
 62
7
  6
CONTINUOUS
 10
-7.0319148517
 20
-9.1199998935
 11
-6.9999999619
 21
-8.9324998935
  0
LINE
  5
2EC
100
AcDbEntity
  8
0
100
AcDbLine
 62
7
  6
CONTINUOUS
 10
-7.0319148517
 20
-10.5887500127
 11
-6.9999999619
 21
-10.4012500127
  0
LINE
  5
2ED
100
AcDbEntity
  8
0
100
AcDbLine
 62
7
  6
CONTINUOUS
 10
-8.3404254905
 20
-8.9324998935
 11
-8.3085106007
 21
-8.7762501319
  0
LINE
  5
2EE
100
AcDbEntity
  8
0
100
AcDbLine
 62
7
  6
CONTINUOUS
 10
-7.159574411
 20
-6.2449999978
 11
-7.1914893008
 21
-6.4012499829
  0
LINE
  5
2EF
100
AcDbEntity
  8
0
100
AcDbLine
 62
7
  6
CONTINUOUS
 10
-7.159574411
 20
-7.5574999531
 11
-7.1914893008
 21
-7.7137500723
  0
LINE
  5
2F0
100
AcDbEntity
  8
0
100
AcDbLine
 62
7
  6
CONTINUOUS
 10
-7.159574411
 20
-8.9324998935
 11
-7.1914893008
 21
-9.0887500127
  0
LINE
  5
2F1
100
AcDbEntity
  8
0
100
AcDbLine
 62
7
  6
CONTINUOUS
 10
-7.159574411
 20
-10.3700001319
 11
-7.1914893008
 21
-10.5262498935
  0
LINE
  5
2F2
100
AcDbEntity
  8
0
100
AcDbLine
 62
7
  6
CONTINUOUS
 10
4.5245320381
 20
18.0194499873
 11
4.8113900381
 21
18.4999999873
  0
LINE
  5
2F3
100
AcDbEntity
  8
0
100
AcDbLine
 62
7
  6
CONTINUOUS
 10
4.5927080381
 20
17.9025069873
 11
4.9702250381
 21
18.4999999873
  0
LINE
  5
2F4
100
AcDbEntity
  8
ASSI
100
AcDbLine
 62
7
  6
CONTINUOUS
 10
6.4000050381
 20
7.8825189873
 11
7.7519030381
 21
8.2701629873
  0
LINE
  5
2F5
100
AcDbEntity
  8
ASSI
100
AcDbLine
 62
7
  6
CONTINUOUS
 10
8.4500970381
 20
8.0603459873
 11
7.1150040381
 21
7.6775139873
  0
LINE
  5
2F6
100
AcDbEntity
  8
0
100
AcDbLine
 62
7
  6
CONTINUOUS
 10
-7.8936169661
 20
-6.9950000425
 11
-8.0531914598
 21
-7.0262500127
  0
LINE
  5
2F7
100
AcDbEntity
  8
0
100
AcDbLine
 62
7
  6
CONTINUOUS
 10
-8.0531914598
 20
-7.1824999531
 11
-7.8617020762
 21
-7.1512500723
  0
LINE
  5
2F8
100
AcDbEntity
  8
0
100
AcDbLine
 62
7
  6
CONTINUOUS
 10
7.1372420381
 20
-6.2392410127
 11
6.4443360381
 21
-6.2392480127
  0
LINE
  5
2F9
100
AcDbEntity
  8
0
100
AcDbLine
 62
7
  6
CONTINUOUS
 10
8.4436730381
 20
-6.2392480127
 11
7.5719580381
 21
-6.2392410127
  0
LINE
  5
2FA
100
AcDbEntity
  8
DRAFT
100
AcDbLine
 62
7
  6
CONTINUOUS
 10
10.5000000381
 20
-6.0000000127
 11
9.7811769943
 21
-6.0000000127
  0
LINE
  5
2FB
100
AcDbEntity
  8
DRAFT
100
AcDbLine
 62
7
  6
CONTINUOUS
 10
-9.7811769181
 20
-6.0000000127
 11
-10.4999999619
 21
-6.0000000127
  0
LINE
  5
2FC
100
AcDbEntity
  8
0
100
AcDbLine
 62
7
  6
CONTINUOUS
 10
6.4443360381
 20
-5.8821870127
 11
8.4436730381
 21
-5.8821870127
  0
LINE
  5
2FD
100
AcDbEntity
  8
0
100
AcDbLine
 62
7
  6
CONTINUOUS
 10
-8.3404254905
 20
-5.6200000127
 11
-8.4999999619
 21
-5.6200000127
  0
LINE
  5
2FE
100
AcDbEntity
  8
0
100
AcDbLine
 62
7
  6
CONTINUOUS
 10
8.4436730381
 20
-5.4575530127
 11
6.4443360381
 21
-5.4575530127
  0
LINE
  5
2FF
100
AcDbEntity
  8
0
100
AcDbLine
 62
7
  6
CONTINUOUS
 10
6.4443360381
 20
-5.1004780127
 11
8.4436730381
 21
-5.1004780127
  0
LINE
  5
300
100
AcDbEntity
  8
0
100
AcDbLine
 62
7
  6
CONTINUOUS
 10
-4.5603073411
 20
-5.1000000127
 11
-2.6499999619
 21
-5.1000000127
  0
LINE
  5
301
100
AcDbEntity
  8
0
100
AcDbLine
 62
7
  6
CONTINUOUS
 10
2.6500000381
 20
-5.1000000127
 11
4.5603074173
 21
-5.1000000127
  0
LINE
  5
302
100
AcDbEntity
  8
RACCORDO
100
AcDbLine
 62
250
  6
CONTINUOUS
 10
-3.9797369682
 20
-19.5000000127
 11
-3.9632986271
 21
-19.6323546151
  0
LWPOLYLINE
  5
303
100
AcDbEntity
  8
RACCORDO
100
AcDbPolyline
 62
250
  6
CONTINUOUS
 90
16
 70
0
 10
-3.5158009102
 20
-18.8475787179
 10
-3.5174233566
 20
-18.8167317928
 10
-3.5222438122
 20
-18.7860856378
 10
-3.5302503642
 20
-18.7559749713
 10
-3.5414131893
 20
-18.7266956735
 10
-3.5556392505
 20
-18.6986248909
 10
-3.5727313203
 20
-18.6721964817
 10
-3.5924688372
 20
-18.6477370961
 10
-3.6146585446
 20
-18.6254737885
 10
-3.6390665025
 20
-18.605643576
 10
-3.6654337614
 20
-18.5884630978
 10
-3.6934659609
 20
-18.5741299517
 10
-3.7228443365
 20
-18.5628089852
 10
-3.7532412338
 20
-18.5546254971
 10
-3.7843256211
 20
-18.5496676782
 10
-3.8157552187
 20
-18.5479898574
  0
LINE
  5
304
100
AcDbEntity
  8
ASSI
100
AcDbLine
 62
7
  6
CONTINUOUS
 10
-4.7999999619
 20
1.7578395704
 11
-4.7999999619
 21
-1.7578395958
  0
LINE
  5
305
100
AcDbEntity
  8
RACCORDO
100
AcDbLine
 62
250
  6
CONTINUOUS
 10
-4.2841990136
 20
-18.8475787179
 11
-4.2841990136
 21
-19.760786034
  0
LINE
  5
306
100
AcDbEntity
  8
RACCORDO
100
AcDbLine
 62
250
  6
CONTINUOUS
 10
-4.2632529357
 20
-19.9294350357
 11
-4.2632529357
 21
-20.5451466796
  0
LINE
  5
307
100
AcDbEntity
  8
0
100
AcDbLine
 62
7
  6
CONTINUOUS
 10
-4.1429329619
 20
17.4999999873
 11
-4.1429329619
 21
18.3398709873
  0
LINE
  5
308
100
AcDbEntity
  8
0
100
AcDbLine
 62
7
  6
CONTINUOUS
 10
-4.0119669619
 20
17.4999999873
 11
-4.0119669619
 21
18.4999999873
  0
LINE
  5
309
100
AcDbEntity
  8
RACCORDO
100
AcDbLine
 62
250
  6
CONTINUOUS
 10
-3.9842447051
 20
-18.5479898574
 11
-3.9842447051
 21
-19.5000000127
  0
LINE
  5
30A
100
AcDbEntity
  8
RACCORDO
100
AcDbLine
 62
250
  6
CONTINUOUS
 10
-3.9632986271
 20
-19.6323546151
 11
-3.9632986271
 21
-20.5528653539
  0
LINE
  5
30B
100
AcDbEntity
  8
RACCORDO
100
AcDbLine
 62
250
  6
CONTINUOUS
 10
-3.8367012967
 20
-20.5528653539
 11
-3.8367012967
 21
-19.6323546151
  0
LINE
  5
30C
100
AcDbEntity
  8
RACCORDO
100
AcDbLine
 62
250
  6
CONTINUOUS
 10
-3.8157552187
 20
-19.5000000127
 11
-3.8157552187
 21
-18.5479898574
  0
LINE
  5
30D
100
AcDbEntity
  8
RACCORDO
100
AcDbLine
 62
250
  6
CONTINUOUS
 10
-3.5367469881
 20
-20.5451466796
 11
-3.5367469881
 21
-19.9294350357
  0
LINE
  5
30E
100
AcDbEntity
  8
RACCORDO
100
AcDbLine
 62
250
  6
CONTINUOUS
 10
-3.5158009102
 20
-18.8475787179
 11
-3.5158009102
 21
-19.760786034
  0
LWPOLYLINE
  5
30F
100
AcDbEntity
  8
RACCORDO
100
AcDbPolyline
 62
7
  6
CONTINUOUS
 90
25
 70
0
 10
-4.2954317389
 20
-18.813853138
 10
-4.2948439508
 20
-18.7942511316
 10
-4.2929950799
 20
-18.7747269157
 10
-4.2898917031
 20
-18.7553620638
 10
-4.2855466775
 20
-18.7362398053
 10
-4.2799765219
 20
-18.7174381065
 10
-4.2731995326
 20
-18.6990298783
 10
-4.2652406914
 20
-18.681091559
 10
-4.2561316636
 20
-18.6637015711
 10
-4.2459062998
 20
-18.6469340751
 10
-4.2346052235
 20
-18.6308619776
 10
-4.2222735638
 20
-18.6155549156
 10
-4.2089580458
 20
-18.6010789887
 10
-4.1947101319
 20
-18.5874966416
 10
-4.1795900444
 20
-18.5748711062
 10
-4.163664231
 20
-18.5632641161
 10
-4.1469994891
 20
-18.5527281968
 10
-4.1296658826
 20
-18.5433110352
 10
-4.1117411255
 20
-18.5350588638
 10
-4.0933004536
 20
-18.5280089873
 10
-4.0744242191
 20
-18.5221944242
 10
-4.0552024794
 20
-18.5176448085
 10
-4.0357214809
 20
-18.5143808938
 10
-4.0160627093
 20
-18.5124163909
 10
-3.9963113791
 20
-18.5117603966
  0
LINE
  5
310
100
AcDbEntity
  8
0
100
AcDbLine
 62
7
  6
CONTINUOUS
 10
2.5160640381
 20
17.4999999873
 11
2.6205450381
 21
17.7910629873
  0
LINE
  5
311
100
AcDbEntity
  8
0
100
AcDbLine
 62
7
  6
CONTINUOUS
 10
2.6623320381
 20
17.9108369873
 11
2.8239330381
 21
18.3549509873
  0
LINE
  5
312
100
AcDbEntity
  8
0
100
AcDbLine
 62
7
  6
CONTINUOUS
 10
2.3768080381
 20
17.4999999873
 11
2.7528860381
 21
18.4999999873
  0
LINE
  5
313
100
AcDbEntity
  8
0
100
AcDbLine
 62
7
  6
CONTINUOUS
 10
-7.0957446313
 20
-6.5887499829
 11
-7.0319148517
 21
-6.4637500127
  0
LINE
  5
314
100
AcDbEntity
  8
0
100
AcDbLine
 62
7
  6
CONTINUOUS
 10
-8.3723403915
 20
-7.2137500127
 11
-8.4680850693
 21
-7.3699999531
  0
LINE
  5
315
100
AcDbEntity
  8
0
100
AcDbLine
 62
7
  6
CONTINUOUS
 10
-7.3510637498
 20
-6.7450000127
 11
-7.2234041906
 21
-6.7137500425
  0
LINE
  5
316
100
AcDbEntity
  8
0
100
AcDbLine
 62
7
  6
CONTINUOUS
 10
6.7616530381
 20
-4.6710570127
 11
6.4443360381
 21
-4.6710570127
  0
LINE
  5
317
100
AcDbEntity
  8
0
100
AcDbLine
 62
7
  6
CONTINUOUS
 10
8.4436730381
 20
-4.6630200127
 11
8.1263560381
 21
-4.6630200127
  0
LINE
  5
318
100
AcDbEntity
  8
0
100
AcDbLine
 62
7
  6
CONTINUOUS
 10
7.6292090381
 20
-4.5913770127
 11
7.3118850381
 21
-4.5913770127
  0
LINE
  5
319
100
AcDbEntity
  8
0
100
AcDbLine
 62
7
  6
CONTINUOUS
 10
8.1263590381
 20
-3.6070540127
 11
7.6292160381
 21
-3.6070540127
  0
LINE
  5
31A
100
AcDbEntity
  8
0
100
AcDbLine
 62
7
  6
CONTINUOUS
 10
7.3118770381
 20
-3.6070540127
 11
6.7616430381
 21
-3.6070540127
  0
LINE
  5
31B
100
AcDbEntity
  8
0
100
AcDbLine
 62
7
  6
CONTINUOUS
 10
6.4443360381
 20
-3.2500000127
 11
8.4436730381
 21
-3.2500000127
  0
LWPOLYLINE
  5
31C
100
AcDbEntity
  8
0
100
AcDbPolyline
 62
7
  6
CONTINUOUS
 90
19
 70
0
 10
-2.0444481015
 20
17.9999999873
 10
-2.0440949337
 20
17.9604103345
 10
-2.0463673362
 20
17.9210812409
 10
-2.0512653091
 20
17.8820127551
 10
-2.0587878456
 20
17.8428774368
 10
-2.0689359524
 20
17.8040027885
 10
-2.0817126498
 20
17.76637142
 10
-2.0969731083
 20
17.7299684155
 10
-2.1148621573
 20
17.6948090584
 10
-2.1358173056
 20
17.6619215325
 10
-2.160013199
 20
17.6314017809
 10
-2.1872751916
 20
17.6031544272
 10
-2.2175168542
 20
17.5779208607
 10
-2.2505896765
 20
17.5556264222
 10
-2.2866421688
 20
17.5363463126
 10
-2.3260334323
 20
17.5210468065
 10
-2.3688831674
 20
17.5100501561
 10
-2.4150716736
 20
17.5030345147
 10
-2.464598951
 20
17.4999999873
  0
LINE
  5
31D
100
AcDbEntity
  8
0
100
AcDbLine
 62
7
  6
CONTINUOUS
 10
-2.8699119619
 20
17.4999999873
 11
-2.8699119619
 21
18.4999999873
  0
LINE
  5
31E
100
AcDbEntity
  8
0
100
AcDbLine
 62
7
  6
CONTINUOUS
 10
-2.7347729619
 20
17.6155679873
 11
-2.7347729619
 21
18.3844319873
  0
LINE
  5
31F
100
AcDbEntity
  8
0
100
AcDbLine
 62
7
  6
CONTINUOUS
 10
-2.6499999619
 20
-5.1000000127
 11
-2.6499999619
 21
5.0999999873
  0
LINE
  5
320
100
AcDbEntity
  8
0
100
AcDbLine
 62
7
  6
CONTINUOUS
 10
-1.8573369619
 20
17.4999999873
 11
-1.8573369619
 21
18.4999999873
  0
LINE
  5
321
100
AcDbEntity
  8
0
100
AcDbLine
 62
7
  6
CONTINUOUS
 10
-1.7222049619
 20
17.6197739873
 11
-1.7222049619
 21
17.9540229873
  0
LINE
  5
322
100
AcDbEntity
  8
0
100
AcDbLine
 62
7
  6
CONTINUOUS
 10
-1.7222049619
 20
18.0737969873
 11
-1.7222049619
 21
18.3802259873
  0
LWPOLYLINE
  5
323
100
AcDbEntity
  8
0
100
AcDbPolyline
 62
7
  6
CONTINUOUS
 90
22
 70
0
 10
-2.1834101038
 20
17.9750326028
 10
-2.1834091516
 20
18.024983335
 10
-2.184418844
 20
18.0498891886
 10
-2.1864835612
 20
18.074717554
 10
-2.1895719383
 20
18.0995408665
 10
-2.1937153402
 20
18.1242866972
 10
-2.199007862
 20
18.1487377757
 10
-2.2052842816
 20
18.1729951799
 10
-2.2127098212
 20
18.1969578791
 10
-2.221874242
 20
18.2201055113
 10
-2.2329261701
 20
18.2424404366
 10
-2.2457169793
 20
18.2639604413
 10
-2.260390553
 20
18.2841383946
 10
-2.277060819
 20
18.3029909641
 10
-2.2956138494
 20
18.3205016924
 10
-2.3158517444
 20
18.3360938377
 10
-2.3378649442
 20
18.3497151299
 10
-2.3615630086
 20
18.3614180695
 10
-2.3864767161
 20
18.3707831096
 10
-2.4124496598
 20
18.3776704617
 10
-2.4396382468
 20
18.382220073
 10
-2.468042477
 20
18.3844319873
  0
LINE
  5
324
100
AcDbEntity
  8
0
100
AcDbLine
 62
7
  6
CONTINUOUS
 10
-8.3723403915
 20
-8.5887499531
 11
-8.4680850693
 21
-8.7449998935
  0
LINE
  5
325
100
AcDbEntity
  8
0
100
AcDbLine
 62
7
  6
CONTINUOUS
 10
-7.1276595211
 20
-7.9012500723
 11
-7.0319148517
 21
-7.7449999531
  0
LINE
  5
326
100
AcDbEntity
  8
0
100
AcDbLine
 62
7
  6
CONTINUOUS
 10
-8.3085106007
 20
-7.4012500127
 11
-8.244680821
 21
-7.3075000127
  0
LINE
  5
327
100
AcDbEntity
  8
0
100
AcDbLine
 62
7
  6
CONTINUOUS
 10
-7.1914893008
 20
-6.4012499829
 11
-7.2553190804
 21
-6.4949999829
  0
LINE
  5
328
100
AcDbEntity
  8
0
100
AcDbLine
 62
7
  6
CONTINUOUS
 10
-8.3085106007
 20
-8.7762501319
 11
-8.244680821
 21
-8.6825001319
  0
LINE
  5
329
100
AcDbEntity
  8
0
100
AcDbLine
 62
7
  6
CONTINUOUS
 10
-7.1914893008
 20
-7.7137500723
 11
-7.2553190804
 21
-7.8075000723
  0
LINE
  5
32A
100
AcDbEntity
  8
ASSI
100
AcDbLine
 62
7
  6
CONTINUOUS
 10
6.4000100381
 20
5.0850629873
 11
6.8031740381
 21
5.2144999873
  0
LINE
  5
32B
100
AcDbEntity
  8
ASSI
100
AcDbLine
 62
7
  6
CONTINUOUS
 10
7.1926890381
 20
5.3395709873
 11
7.8116040381
 21
5.5382819873
  0
LINE
  5
32C
100
AcDbEntity
  8
ASSI
100
AcDbLine
 62
7
  6
CONTINUOUS
 10
8.4501030381
 20
5.3332619873
 11
6.4000050381
 21
4.6750429873
  0
LINE
  5
32D
100
AcDbEntity
  8
RACCORDO
100
AcDbLine
 62
7
  6
CONTINUOUS
 10
4.8000000381
 20
-1.7578395958
 11
9.3977721062
 21
-1.7578395958
  0
LINE
  5
32E
100
AcDbEntity
  8
RACCORDO
100
AcDbLine
 62
7
  6
CONTINUOUS
 10
-4.7999999619
 20
-1.7578395958
 11
-9.39777203
 21
-1.7578395958
  0
LWPOLYLINE
  5
32F
100
AcDbEntity
  8
0
100
AcDbPolyline
 62
7
  6
CONTINUOUS
 90
10
 70
0
 10
6.8873919944
 20
-8.9883957942
 10
6.9262649256
 20
-9.0217460527
 10
6.9710176563
 20
-9.0524421156
 10
7.0216501867
 20
-9.0804839831
 10
7.0783443472
 20
-9.1065072082
 10
7.1409183073
 20
-9.1298762378
 10
7.2088265752
 20
-9.1486844121
 10
7.2818873203
 20
-9.1622961778
 10
7.3602823732
 20
-9.1713470881
 10
7.4440117339
 20
-9.1758371431
  0
LWPOLYLINE
  5
330
100
AcDbEntity
  8
0
100
AcDbPolyline
 62
7
  6
CONTINUOUS
 90
10
 70
0
 10
6.7077786342
 20
-9.2852878769
 10
6.6472659567
 20
-9.2287508176
 10
6.5930578821
 20
-9.1666500426
 10
6.5451544103
 20
-9.0989855519
 10
6.5031899932
 20
-9.0258486323
 10
6.4675301791
 20
-8.947147997
 10
6.4392716121
 20
-8.8626097854
 10
6.4187798403
 20
-8.7721427106
 10
6.4056893156
 20
-8.6758380596
 10
6.4000000381
 20
-8.5736958324
  0
LINE
  5
331
100
AcDbEntity
  8
RACCORDO
100
AcDbLine
 62
250
  6
CONTINUOUS
 10
3.5158009864
 20
-18.8475787179
 11
3.5045682611
 21
-18.813853138
  0
LINE
  5
332
100
AcDbEntity
  8
RACCORDO
100
AcDbLine
 62
250
  6
CONTINUOUS
 10
3.8157552949
 20
-18.5479898574
 11
3.8036886209
 21
-18.5117603966
  0
LINE
  5
333
100
AcDbEntity
  8
DRAFT
100
AcDbLine
 62
7
  6
CONTINUOUS
 10
-1.3910615465
 20
-20.6000000127
 11
-1.3910615465
 21
-21.6410615973
  0
LINE
  5
334
100
AcDbEntity
  8
DRAFT
100
AcDbLine
 62
7
  6
CONTINUOUS
 10
-1.2499999619
 20
-20.5790512754
 11
-1.2499999619
 21
-21.5000000127
  0
LINE
  5
335
100
AcDbEntity
  8
0
100
AcDbLine
 62
7
  6
CONTINUOUS
 10
-1.1748459619
 20
17.9540229873
 11
-1.1748459619
 21
18.0737969873
  0
LINE
  5
336
100
AcDbEntity
  8
0
100
AcDbLine
 62
7
  6
CONTINUOUS
 10
-1.1288849619
 20
18.3802259873
 11
-1.1288849619
 21
18.4999999873
  0
LINE
  5
337
100
AcDbEntity
  8
0
100
AcDbLine
 62
7
  6
CONTINUOUS
 10
-1.1191239619
 20
17.4999999873
 11
-1.1191239619
 21
17.6197739873
  0
LINE
  5
338
100
AcDbEntity
  8
0
100
AcDbLine
 62
7
  6
CONTINUOUS
 10
-0.5341339619
 20
17.4999999873
 11
-0.5341339619
 21
18.4999999873
  0
LINE
  5
339
100
AcDbEntity
  8
0
100
AcDbLine
 62
7
  6
CONTINUOUS
 10
-0.3990429619
 20
17.4999999873
 11
-0.3990429619
 21
18.4999999873
  0
LINE
  5
33A
100
AcDbEntity
  8
0
100
AcDbLine
 62
7
  6
CONTINUOUS
 10
-0.1678739619
 20
17.4999999873
 11
-0.1678739619
 21
18.4999999873
  0
LINE
  5
33B
100
AcDbEntity
  8
0
100
AcDbLine
 62
7
  6
CONTINUOUS
 10
-0.0368999619
 20
17.4999999873
 11
-0.0368999619
 21
18.3121199873
  0
LINE
  5
33C
100
AcDbEntity
  8
RACCORDO
100
AcDbLine
 62
250
  6
CONTINUOUS
 10
-3.8367012967
 20
-19.6323546151
 11
-3.8202629556
 21
-19.5000000127
  0
LINE
  5
33D
100
AcDbEntity
  8
RACCORDO
100
AcDbLine
 62
250
  6
CONTINUOUS
 10
-3.5367469881
 20
-19.9294350357
 11
-3.5158009102
 21
-19.760786034
  0
LINE
  5
33E
100
AcDbEntity
  8
0
100
AcDbLine
 62
7
  6
CONTINUOUS
 10
-7.0957446313
 20
-10.7137498935
 11
-7.0319148517
 21
-10.5887500127
  0
LINE
  5
33F
100
AcDbEntity
  8
0
100
AcDbLine
 62
7
  6
CONTINUOUS
 10
-7.1276595211
 20
-9.2762500127
 11
-7.0319148517
 21
-9.1199998935
  0
LINE
  5
340
100
AcDbEntity
  8
0
100
AcDbLine
 62
7
  6
CONTINUOUS
 10
-7.1914893008
 20
-9.0887500127
 11
-7.2553190804
 21
-9.1825000127
  0
LINE
  5
341
100
AcDbEntity
  8
0
100
AcDbLine
 62
7
  6
CONTINUOUS
 10
-7.1914893008
 20
-10.5262498935
 11
-7.2553190804
 21
-10.6199998935
  0
LINE
  5
342
100
AcDbEntity
  8
0
100
AcDbLine
 62
7
  6
CONTINUOUS
 10
-8.2765957109
 20
-7.1200000127
 11
-8.3723403915
 21
-7.2137500127
  0
LINE
  5
343
100
AcDbEntity
  8
0
100
AcDbLine
 62
7
  6
CONTINUOUS
 10
-7.2234041906
 20
-6.7137500425
 11
-7.0957446313
 21
-6.5887499829
  0
LINE
  5
344
100
AcDbEntity
  8
ASSI
100
AcDbLine
 62
7
  6
CONTINUOUS
 10
6.4000100381
 20
3.2228939873
 11
7.1926890381
 21
3.6337809873
  0
LWPOLYLINE
  5
345
100
AcDbEntity
  8
RACCORDO
100
AcDbPolyline
 62
7
  6
CONTINUOUS
 90
34
 70
0
 10
9.3977721062
 20
-1.7578395958
 10
9.4129815883
 20
-1.7589928307
 10
9.4281575757
 20
-1.762271382
 10
9.4432609418
 20
-1.7676752498
 10
9.4583607226
 20
-1.775393877
 10
9.4733075248
 20
-1.7852378206
 10
9.4877463727
 20
-1.7966387521
 10
9.5016153549
 20
-1.8096884746
 10
9.5149371337
 20
-1.824295185
 10
9.5275129767
 20
-1.8396151457
 10
9.5391607549
 20
-1.8553355014
 10
9.5500834054
 20
-1.8717691075
 10
9.5606520423
 20
-1.8890107928
 10
9.5709403511
 20
-1.9071072563
 10
9.5808484124
 20
-1.926011799
 10
9.5904543934
 20
-1.9456791521
 10
9.5997471448
 20
-1.9660971663
 10
9.6087041546
 20
-1.987277991
 10
9.6173712471
 20
-2.0092128056
 10
9.6257249937
 20
-2.0318918617
 10
9.6337411751
 20
-2.0553249078
 10
9.6414478443
 20
-2.0795323692
 10
9.6488098699
 20
-2.1045077195
 10
9.6557951867
 20
-2.1302574852
 10
9.6624156732
 20
-2.1568216717
 10
9.6686213121
 20
-2.1841975292
 10
9.6743672948
 20
-2.2123878075
 10
9.6796450673
 20
-2.2414407621
 10
9.6843839984
 20
-2.271357996
 10
9.6885202612
 20
-2.3021379062
 10
9.6920142564
 20
-2.3338239386
 10
9.6947768156
 20
-2.3664305754
 10
9.6966955607
 20
-2.3999433343
 10
9.6976693037
 20
-2.4343622156
  0
LWPOLYLINE
  5
346
100
AcDbEntity
  8
0
100
AcDbPolyline
 62
7
  6
CONTINUOUS
 90
10
 70
0
 10
8.0006420565
 20
-8.1588829838
 10
7.9617673052
 20
-8.1255315011
 10
7.9170129784
 20
-8.0948344311
 10
7.866379076
 20
-8.066791774
 10
7.8096838514
 20
-8.0407679885
 10
7.7471090513
 20
-8.0173986158
 10
7.6791999155
 20
-7.9985902791
 10
7.6061381907
 20
-7.9849785192
 10
7.5277421301
 20
-7.9759277953
 10
7.4440117339
 20
-7.9714381072
  0
LWPOLYLINE
  5
347
100
AcDbEntity
  8
0
100
AcDbPolyline
 62
7
  6
CONTINUOUS
 90
10
 70
0
 10
8.1806364094
 20
-7.8619979565
 10
8.2411364085
 20
-7.9185235914
 10
8.295336119
 20
-7.9806202274
 10
8.3432355409
 20
-8.0482878646
 10
8.3852018793
 20
-8.1214372022
 10
8.420867929
 20
-8.200157541
 10
8.4491320752
 20
-8.2847167831
 10
8.4696271129
 20
-8.3752042295
 10
8.4827202471
 20
-8.4715305792
 10
8.4884114778
 20
-8.5736958324
  0
LINE
  5
348
100
AcDbEntity
  8
0
100
AcDbLine
 62
7
  6
CONTINUOUS
 10
0.4951580381
 20
17.6877159873
 11
0.4951580381
 21
18.4999999873
  0
LINE
  5
349
100
AcDbEntity
  8
0
100
AcDbLine
 62
7
  6
CONTINUOUS
 10
0.6260680381
 20
17.4999999873
 11
0.6260680381
 21
18.4999999873
  0
LINE
  5
34A
100
AcDbEntity
  8
0
100
AcDbLine
 62
7
  6
CONTINUOUS
 10
1.2458340381
 20
17.4999999873
 11
1.2458340381
 21
18.4999999873
  0
LINE
  5
34B
100
AcDbEntity
  8
DRAFT
100
AcDbLine
 62
7
  6
CONTINUOUS
 10
1.2500000381
 20
-20.5790512754
 11
1.2500000381
 21
-21.5000000127
  0
LINE
  5
34C
100
AcDbEntity
  8
0
100
AcDbLine
 62
7
  6
CONTINUOUS
 10
1.3809650381
 20
17.4999999873
 11
1.3809650381
 21
18.4999999873
  0
LINE
  5
34D
100
AcDbEntity
  8
DRAFT
100
AcDbLine
 62
7
  6
CONTINUOUS
 10
1.3910616227
 20
-21.6410615973
 11
1.3910616227
 21
-20.6000000127
  0
LINE
  5
34E
100
AcDbEntity
  8
0
100
AcDbLine
 62
7
  6
CONTINUOUS
 10
1.5258180381
 20
18.3802259873
 11
1.5258180381
 21
18.4999999873
  0
LINE
  5
34F
100
AcDbEntity
  8
0
100
AcDbLine
 62
7
  6
CONTINUOUS
 10
1.8642730381
 20
17.4999999873
 11
1.8642730381
 21
18.3802259873
  0
LINE
  5
350
100
AcDbEntity
  8
0
100
AcDbLine
 62
7
  6
CONTINUOUS
 10
-8.2765957109
 20
-8.4949999531
 11
-8.3723403915
 21
-8.5887499531
  0
LINE
  5
351
100
AcDbEntity
  8
0
100
AcDbLine
 62
7
  6
CONTINUOUS
 10
-7.2234041906
 20
-7.9950000723
 11
-7.1276595211
 21
-7.9012500723
  0
LINE
  5
352
100
AcDbEntity
  8
0
100
AcDbLine
 62
7
  6
CONTINUOUS
 10
-7.2234041906
 20
-9.3700000127
 11
-7.1276595211
 21
-9.2762500127
  0
LINE
  5
353
100
AcDbEntity
  8
0
100
AcDbLine
 62
7
  6
CONTINUOUS
 10
-7.2553190804
 20
-6.4949999829
 11
-7.3510637498
 21
-6.5575000127
  0
LINE
  5
354
100
AcDbEntity
  8
0
100
AcDbLine
 62
7
  6
CONTINUOUS
 10
-8.244680821
 20
-7.3075000127
 11
-8.0531914598
 21
-7.1824999531
  0
LINE
  5
355
100
AcDbEntity
  8
ASSI
100
AcDbLine
 62
7
  6
CONTINUOUS
 10
7.2419987511
 20
3.1975158752
 11
6.4000150381
 21
2.7610749873
  0
LINE
  5
356
100
AcDbEntity
  8
RACCORDO
100
AcDbLine
 62
7
  6
CONTINUOUS
 10
4.8000000381
 20
1.7578395704
 11
9.3977721062
 21
1.7578395704
  0
LINE
  5
357
100
AcDbEntity
  8
RACCORDO
100
AcDbLine
 62
7
  6
CONTINUOUS
 10
-4.7999999619
 20
1.7578395704
 11
-9.39777203
 21
1.7578395704
  0
LWPOLYLINE
  5
358
100
AcDbEntity
  8
RACCORDO
100
AcDbPolyline
 62
7
  6
CONTINUOUS
 90
34
 70
0
 10
-9.39777203
 20
1.7578395704
 10
-9.4129815121
 20
1.7589928053
 10
-9.4281574995
 20
1.7622713566
 10
-9.4432608656
 20
1.7676752244
 10
-9.4583606464
 20
1.7753938516
 10
-9.4733074486
 20
1.7852377952
 10
-9.4877462965
 20
1.7966387267
 10
-9.5016152787
 20
1.8096884492
 10
-9.5149370575
 20
1.8242951596
 10
-9.5275129005
 20
1.8396151203
 10
-9.5391606787
 20
1.855335476
 10
-9.5500833292
 20
1.8717690821
 10
-9.5606519661
 20
1.8890107674
 10
-9.5709402749
 20
1.9071072309
 10
-9.5808483362
 20
1.9260117736
 10
-9.5904543172
 20
1.9456791267
 10
-9.5997470686
 20
1.9660971409
 10
-9.6087040784
 20
1.9872779656
 10
-9.6173711709
 20
2.0092127802
 10
-9.6257249175
 20
2.0318918363
 10
-9.6337410989
 20
2.0553248824
 10
-9.6414477681
 20
2.0795323438
 10
-9.6488097937
 20
2.1045076941
 10
-9.6557951105
 20
2.1302574598
 10
-9.662415597
 20
2.1568216463
 10
-9.6686212359
 20
2.1841975038
 10
-9.6743672186
 20
2.2123877821
 10
-9.6796449911
 20
2.2414407367
 10
-9.6843839222
 20
2.2713579706
 10
-9.688520185
 20
2.3021378808
 10
-9.6920141802
 20
2.3338239132
 10
-9.6947767394
 20
2.36643055
 10
-9.6966954845
 20
2.3999433089
 10
-9.6976692275
 20
2.4343621902
  0
LINE
  5
359
100
AcDbEntity
  8
0
100
AcDbLine
 62
7
  6
CONTINUOUS
 10
7.5719580381
 20
-6.2392410127
 11
8.4436730381
 21
-7.1256090127
  0
LINE
  5
35A
100
AcDbEntity
  8
0
100
AcDbLine
 62
7
  6
CONTINUOUS
 10
8.4436730381
 20
-7.6043690127
 11
7.6209650381
 21
-6.7445040127
  0
LINE
  5
35B
100
AcDbEntity
  8
0
100
AcDbLine
 62
7
  6
CONTINUOUS
 10
7.3753740381
 20
-6.4945770127
 11
7.1372420381
 21
-6.2392410127
  0
LINE
  5
35C
100
AcDbEntity
  8
0
100
AcDbLine
 62
7
  6
CONTINUOUS
 10
-4.4897209619
 20
17.6504819873
 11
-4.7766229619
 21
18.4999999873
  0
LINE
  5
35D
100
AcDbEntity
  8
0
100
AcDbLine
 62
7
  6
CONTINUOUS
 10
-4.5579499619
 20
17.4999999873
 11
-4.8393109619
 21
18.3384959873
  0
LINE
  5
35E
100
AcDbEntity
  8
RACCORDO
100
AcDbLine
 62
250
  6
CONTINUOUS
 10
3.5158009864
 20
-19.760786034
 11
3.5367470643
 21
-19.9294350357
  0
LINE
  5
35F
100
AcDbEntity
  8
RACCORDO
100
AcDbLine
 62
250
  6
CONTINUOUS
 10
3.8202630318
 20
-19.5000000127
 11
3.8367013729
 21
-19.6323546151
  0
LWPOLYLINE
  5
360
100
AcDbEntity
  8
RACCORDO
100
AcDbPolyline
 62
7
  6
CONTINUOUS
 90
19
 70
0
 10
4.2841990898
 20
-19.760786034
 10
4.2829837999
 20
-19.7412279931
 10
4.2800712418
 20
-19.7217623965
 10
4.2754100272
 20
-19.7023892444
 10
4.268964462
 20
-19.6829813935
 10
4.2607028328
 20
-19.6636659871
 10
4.2505867477
 20
-19.6448244547
 10
4.2386213527
 20
-19.6264487776
 10
4.2247978451
 20
-19.6085469745
 10
4.209040761
 20
-19.5915245313
 10
4.1913820624
 20
-19.5753418142
 10
4.1718421929
 20
-19.5600384569
 10
4.1502956862
 20
-19.5461388464
 10
4.1267395078
 20
-19.5335684681
 10
4.1013229159
 20
-19.5224018366
 10
4.0741643596
 20
-19.5133868822
 10
4.0454366128
 20
-19.5067729152
 10
4.0153717859
 20
-19.5023106254
 10
3.9842447813
 20
-19.5000000127
  0
LWPOLYLINE
  5
361
100
AcDbEntity
  8
RACCORDO
100
AcDbPolyline
 62
250
  6
CONTINUOUS
 90
16
 70
0
 10
4.2841990898
 20
-18.8475787179
 10
4.2825766434
 20
-18.8167317928
 10
4.2777561878
 20
-18.7860856378
 10
4.2697496358
 20
-18.7559749713
 10
4.2585868107
 20
-18.7266956735
 10
4.2443607495
 20
-18.6986248909
 10
4.2272686797
 20
-18.6721964817
 10
4.2075311628
 20
-18.6477370961
 10
4.1853414554
 20
-18.6254737885
 10
4.1609334975
 20
-18.605643576
 10
4.1345662386
 20
-18.5884630978
 10
4.1065340391
 20
-18.5741299517
 10
4.0771556635
 20
-18.5628089852
 10
4.0467587662
 20
-18.5546254971
 10
4.0156743789
 20
-18.5496676782
 10
3.9842447813
 20
-18.5479898574
  0
LINE
  5
362
100
AcDbEntity
  8
0
100
AcDbLine
 62
7
  6
CONTINUOUS
 10
1.9993560381
 20
17.4999999873
 11
1.9993560381
 21
18.3802259873
  0
LINE
  5
363
100
AcDbEntity
  8
0
100
AcDbLine
 62
7
  6
CONTINUOUS
 10
2.3378110381
 20
18.3802259873
 11
2.3378110381
 21
18.4999999873
  0
LINE
  5
364
100
AcDbEntity
  8
0
100
AcDbLine
 62
7
  6
CONTINUOUS
 10
2.6500000381
 20
5.0999999873
 11
2.6500000381
 21
-5.1000000127
  0
LINE
  5
365
100
AcDbEntity
  8
0
100
AcDbLine
 62
7
  6
CONTINUOUS
 10
3.3921420381
 20
17.4999999873
 11
3.3921420381
 21
18.4999999873
  0
LINE
  5
366
100
AcDbEntity
  8
RACCORDO
100
AcDbLine
 62
250
  6
CONTINUOUS
 10
3.5158009864
 20
-19.760786034
 11
3.5158009864
 21
-18.8475787179
  0
LINE
  5
367
100
AcDbEntity
  8
0
100
AcDbLine
 62
7
  6
CONTINUOUS
 10
3.5272810381
 20
17.6197739873
 11
3.5272810381
 21
18.4999999873
  0
LINE
  5
368
100
AcDbEntity
  8
RACCORDO
100
AcDbLine
 62
250
  6
CONTINUOUS
 10
3.5367470643
 20
-19.9294350357
 11
3.5367470643
 21
-20.5451466796
  0
LINE
  5
369
100
AcDbEntity
  8
RACCORDO
100
AcDbLine
 62
250
  6
CONTINUOUS
 10
-3.8036885447
 20
-18.5117603966
 11
-3.8157552187
 21
-18.5479898574
  0
LINE
  5
36A
100
AcDbEntity
  8
RACCORDO
100
AcDbLine
 62
250
  6
CONTINUOUS
 10
-3.5045681849
 20
-18.813853138
 11
-3.5158009102
 21
-18.8475787179
  0
LINE
  5
36B
100
AcDbEntity
  8
0
100
AcDbLine
 62
7
  6
CONTINUOUS
 10
-7.2234041906
 20
-10.8387501319
 11
-7.0957446313
 21
-10.7137498935
  0
LINE
  5
36C
100
AcDbEntity
  8
0
100
AcDbLine
 62
7
  6
CONTINUOUS
 10
-7.2553190804
 20
-7.8075000723
 11
-7.4468085087
 21
-7.9324999531
  0
LINE
  5
36D
100
AcDbEntity
  8
0
100
AcDbLine
 62
7
  6
CONTINUOUS
 10
-8.244680821
 20
-8.6825001319
 11
-8.0531914598
 21
-8.5575000723
  0
LINE
  5
36E
100
AcDbEntity
  8
0
100
AcDbLine
 62
7
  6
CONTINUOUS
 10
-8.1489361293
 20
-7.0574999829
 11
-8.2765957109
 21
-7.1200000127
  0
LINE
  5
36F
100
AcDbEntity
  8
0
100
AcDbLine
 62
7
  6
CONTINUOUS
 10
-3.0008219619
 20
17.4999999873
 11
-3.3629249619
 21
18.4999999873
  0
LINE
  5
370
100
AcDbEntity
  8
0
100
AcDbLine
 62
7
  6
CONTINUOUS
 10
-3.1484729619
 20
17.4999999873
 11
-3.2473489619
 21
17.7910629873
  0
LINE
  5
371
100
AcDbEntity
  8
0
100
AcDbLine
 62
7
  6
CONTINUOUS
 10
-3.2960589619
 20
17.9108369873
 11
-3.4450439619
 21
18.3549509873
  0
LINE
  5
372
100
AcDbEntity
  8
RACCORDO
100
AcDbLine
 62
250
  6
CONTINUOUS
 10
3.8157552949
 20
-19.5000000127
 11
3.8157552949
 21
-18.5479898574
  0
LINE
  5
373
100
AcDbEntity
  8
RACCORDO
100
AcDbLine
 62
250
  6
CONTINUOUS
 10
3.8367013729
 20
-19.6323546151
 11
3.8367013729
 21
-20.5528653539
  0
LINE
  5
374
100
AcDbEntity
  8
RACCORDO
100
AcDbLine
 62
250
  6
CONTINUOUS
 10
3.9632987033
 20
-20.5528653539
 11
3.9632987033
 21
-19.6323546151
  0
LINE
  5
375
100
AcDbEntity
  8
RACCORDO
100
AcDbLine
 62
250
  6
CONTINUOUS
 10
3.9842447813
 20
-19.5000000127
 11
3.9842447813
 21
-18.5479898574
  0
LINE
  5
376
100
AcDbEntity
  8
0
100
AcDbLine
 62
7
  6
CONTINUOUS
 10
4.0342770381
 20
17.4999999873
 11
4.0342770381
 21
17.6197739873
  0
LINE
  5
377
100
AcDbEntity
  8
RACCORDO
100
AcDbLine
 62
250
  6
CONTINUOUS
 10
4.2632530119
 20
-20.5451466796
 11
4.2632530119
 21
-19.9294350357
  0
LINE
  5
378
100
AcDbEntity
  8
RACCORDO
100
AcDbLine
 62
250
  6
CONTINUOUS
 10
4.2841990898
 20
-18.8475787179
 11
4.2841990898
 21
-19.760786034
  0
LINE
  5
379
100
AcDbEntity
  8
0
100
AcDbLine
 62
7
  6
CONTINUOUS
 10
4.4576490381
 20
17.4999999873
 11
4.4576490381
 21
17.9025069873
  0
LINE
  5
37A
100
AcDbEntity
  8
0
100
AcDbLine
 62
7
  6
CONTINUOUS
 10
4.5927080381
 20
17.4999999873
 11
4.5927080381
 21
17.9025069873
  0
LINE
  5
37B
100
AcDbEntity
  8
ASSI
100
AcDbLine
 62
7
  6
CONTINUOUS
 10
4.8000000381
 20
1.7578395704
 11
4.8000000381
 21
-1.7578395958
  0
LWPOLYLINE
  5
37C
100
AcDbEntity
  8
RACCORDO
100
AcDbPolyline
 62
7
  6
CONTINUOUS
 90
25
 70
0
 10
3.5045682611
 20
-18.813853138
 10
3.5051560492
 20
-18.7942511316
 10
3.5070049201
 20
-18.7747269157
 10
3.5101082969
 20
-18.7553620638
 10
3.5144533225
 20
-18.7362398053
 10
3.5200234781
 20
-18.7174381065
 10
3.5268004674
 20
-18.6990298783
 10
3.5347593086
 20
-18.681091559
 10
3.5438683364
 20
-18.6637015711
 10
3.5540937002
 20
-18.6469340751
 10
3.5653947765
 20
-18.6308619776
 10
3.5777264362
 20
-18.6155549156
 10
3.5910419542
 20
-18.6010789887
 10
3.6052898681
 20
-18.5874966416
 10
3.6204099556
 20
-18.5748711062
 10
3.636335769
 20
-18.5632641161
 10
3.6530005109
 20
-18.5527281968
 10
3.6703341174
 20
-18.5433110352
 10
3.6882588745
 20
-18.5350588638
 10
3.7066995464
 20
-18.5280089873
 10
3.7255757809
 20
-18.5221944242
 10
3.7447975206
 20
-18.5176448085
 10
3.7642785191
 20
-18.5143808938
 10
3.7839372907
 20
-18.5124163909
 10
3.8036886209
 20
-18.5117603966
  0
LWPOLYLINE
  5
37D
100
AcDbEntity
  8
RACCORDO
100
AcDbPolyline
 62
250
  6
CONTINUOUS
 90
16
 70
0
 10
3.5158009864
 20
-18.8475787179
 10
3.5174708804
 20
-18.8162812845
 10
3.5224050448
 20
-18.785326354
 10
3.5305494827
 20
-18.7550526812
 10
3.5418150655
 20
-18.7257915655
 10
3.5560785085
 20
-18.6978632255
 10
3.5731837201
 20
-18.6715732944
 10
3.5929435095
 20
-18.6472094756
 10
3.6151416359
 20
-18.6250383942
 10
3.6395351744
 20
-18.6053026791
 10
3.6658571748
 20
-18.5882183076
 10
3.6938195828
 20
-18.5739722424
 10
3.7231163921
 20
-18.562720385
 10
3.7534269937
 20
-18.5545858698
 10
3.7844196839
 20
-18.5496577169
 10
3.8157552949
 20
-18.5479898574
  0
LWPOLYLINE
  5
37E
100
AcDbEntity
  8
RACCORDO
100
AcDbPolyline
 62
7
  6
CONTINUOUS
 90
19
 70
0
 10
3.5158009864
 20
-19.760786034
 10
3.5170162763
 20
-19.7412279931
 10
3.5199288344
 20
-19.7217623965
 10
3.524590049
 20
-19.7023892444
 10
3.5310356142
 20
-19.6829813935
 10
3.5392972434
 20
-19.6636659871
 10
3.5494133285
 20
-19.6448244547
 10
3.5613787235
 20
-19.6264487776
 10
3.5752022311
 20
-19.6085469745
 10
3.5909593152
 20
-19.5915245313
 10
3.6086180138
 20
-19.5753418142
 10
3.6281578833
 20
-19.5600384569
 10
3.64970439
 20
-19.5461388464
 10
3.6732605684
 20
-19.5335684681
 10
3.6986771603
 20
-19.5224018366
 10
3.7258357166
 20
-19.5133868822
 10
3.7545634634
 20
-19.5067729152
 10
3.7846282903
 20
-19.5023106254
 10
3.8157552949
 20
-19.5000000127
  0
LINE
  5
37F
100
AcDbEntity
  8
0
100
AcDbLine
 62
7
  6
CONTINUOUS
 10
-7.2553190804
 20
-9.1825000127
 11
-7.4468085087
 21
-9.3074998935
  0
LINE
  5
380
100
AcDbEntity
  8
0
100
AcDbLine
 62
7
  6
CONTINUOUS
 10
-7.2553190804
 20
-10.6199998935
 11
-7.3510637498
 21
-10.6825000127
  0
LINE
  5
381
100
AcDbEntity
  8
0
100
AcDbLine
 62
7
  6
CONTINUOUS
 10
-8.1489361293
 20
-8.4325000127
 11
-8.2765957109
 21
-8.4949999531
  0
LINE
  5
382
100
AcDbEntity
  8
0
100
AcDbLine
 62
7
  6
CONTINUOUS
 10
-7.3510637498
 20
-8.0575000127
 11
-7.2234041906
 21
-7.9950000723
  0
LINE
  5
383
100
AcDbEntity
  8
0
100
AcDbLine
 62
7
  6
CONTINUOUS
 10
-7.3510637498
 20
-9.4325001319
 11
-7.2234041906
 21
-9.3700000127
  0
LINE
  5
384
100
AcDbEntity
  8
0
100
AcDbLine
 62
7
  6
CONTINUOUS
 10
-8.0531914598
 20
-7.0262500127
 11
-8.1489361293
 21
-7.0574999829
  0
LINE
  5
385
100
AcDbEntity
  8
ASSI
100
AcDbLine
 62
7
  6
CONTINUOUS
 10
8.0708370381
 20
3.9973379873
 11
7.5719590381
 21
3.9973329873
  0
LINE
  5
386
100
AcDbEntity
  8
ASSI
100
AcDbLine
 62
7
  6
CONTINUOUS
 10
6.4000100381
 20
4.4017009873
 11
8.4501030381
 21
4.4017009873
  0
LINE
  5
387
100
AcDbEntity
  8
0
100
AcDbLine
 62
7
  6
CONTINUOUS
 10
4.5603074173
 20
5.0999999873
 11
2.6500000381
 21
5.0999999873
  0
LINE
  5
388
100
AcDbEntity
  8
0
100
AcDbLine
 62
7
  6
CONTINUOUS
 10
-2.6499999619
 20
5.0999999873
 11
-4.5603073411
 21
5.0999999873
  0
LINE
  5
389
100
AcDbEntity
  8
ASSI
100
AcDbLine
 62
7
  6
CONTINUOUS
 10
7.1926940381
 20
3.9916339873
 11
6.4000100381
 21
3.9916799873
  0
LWPOLYLINE
  5
38A
100
AcDbEntity
  8
0
100
AcDbPolyline
 62
7
  6
CONTINUOUS
 90
10
 70
0
 10
6.7165449939
 20
-8.5746271478
 10
6.7196026733
 20
-8.6324934327
 10
6.7268422885
 20
-8.687484573
 10
6.7382638393
 20
-8.7396005689
 10
6.7541348
 20
-8.7889718913
 10
6.7741876963
 20
-8.8354680691
 10
6.7976201061
 20
-8.8786976896
 10
6.8241645554
 20
-8.9185302818
 10
6.8540885182
 20
-8.9550963167
 10
6.8873919944
 20
-8.9883957942
  0
LINE
  5
38B
100
AcDbEntity
  8
0
100
AcDbLine
 62
7
  6
CONTINUOUS
 10
5.5000000381
 20
15.3103073665
 11
5.5000000381
 21
6.0396926081
  0
LINE
  5
38C
100
AcDbEntity
  8
0
100
AcDbLine
 62
7
  6
CONTINUOUS
 10
5.5000000381
 20
-6.0396926335
 11
5.5000000381
 21
-15.3103073919
  0
LINE
  5
38D
100
AcDbEntity
  8
DRAFT
100
AcDbLine
 62
7
  6
CONTINUOUS
 10
6.0000000381
 20
20.5999999873
 11
6.0000000381
 21
19.9999999873
  0
LINE
  5
38E
100
AcDbEntity
  8
DRAFT
100
AcDbLine
 62
7
  6
CONTINUOUS
 10
6.0000000381
 20
-20.0000000127
 11
6.0000000381
 21
-20.6000000127
  0
LINE
  5
38F
100
AcDbEntity
  8
ASSI
100
AcDbLine
 62
7
  6
CONTINUOUS
 10
6.4000050381
 20
4.6750429873
 11
6.4000100381
 21
5.0850629873
  0
LINE
  5
390
100
AcDbEntity
  8
ASSI
100
AcDbLine
 62
7
  6
CONTINUOUS
 10
6.4000050381
 20
6.6748479873
 11
6.4000050381
 21
7.0848639873
  0
LINE
  5
391
100
AcDbEntity
  8
ASSI
100
AcDbLine
 62
7
  6
CONTINUOUS
 10
6.4000050381
 20
8.2701629873
 11
6.4000050381
 21
8.6801789873
  0
LINE
  5
392
100
AcDbEntity
  8
ASSI
100
AcDbLine
 62
7
  6
CONTINUOUS
 10
6.4000100381
 20
3.9916799873
 11
6.4000100381
 21
4.4017009873
  0
LINE
  5
393
100
AcDbEntity
  8
ASSI
100
AcDbLine
 62
7
  6
CONTINUOUS
 10
6.4000150381
 20
2.7610749873
 11
6.4000100381
 21
3.2228939873
  0
LINE
  5
394
100
AcDbEntity
  8
ASSI
100
AcDbLine
 62
7
  6
CONTINUOUS
 10
6.4000100381
 20
5.9914909873
 11
6.4000050381
 21
6.4015059873
  0
LINE
  5
395
100
AcDbEntity
  8
ASSI
100
AcDbLine
 62
7
  6
CONTINUOUS
 10
6.4000100381
 20
7.4725139873
 11
6.4000050381
 21
7.8825189873
  0
LINE
  5
396
100
AcDbEntity
  8
ASSI
100
AcDbLine
 62
7
  6
CONTINUOUS
 10
6.4000050381
 20
9.0901839873
 11
6.4000000381
 21
9.5001989873
  0
LINE
  5
397
100
AcDbEntity
  8
ASSI
100
AcDbLine
 62
7
  6
CONTINUOUS
 10
6.4000050381
 20
10.4317549873
 11
6.4000000381
 21
10.8417859873
  0
LINE
  5
398
100
AcDbEntity
  8
0
100
AcDbLine
 62
7
  6
CONTINUOUS
 10
6.4443360381
 20
-11.5011140127
 11
6.4443360381
 21
-11.1443200127
  0
LINE
  5
399
100
AcDbEntity
  8
0
100
AcDbLine
 62
7
  6
CONTINUOUS
 10
6.4443360381
 20
-10.2302380127
 11
6.4443360381
 21
-9.8865050127
  0
LINE
  5
39A
100
AcDbEntity
  8
0
100
AcDbLine
 62
7
  6
CONTINUOUS
 10
6.4443360381
 20
-7.6090820127
 11
6.4443360381
 21
-7.1599160127
  0
LINE
  5
39B
100
AcDbEntity
  8
0
100
AcDbLine
 62
7
  6
CONTINUOUS
 10
6.4443360381
 20
-6.2392480127
 11
6.4443360381
 21
-5.8821870127
  0
LINE
  5
39C
100
AcDbEntity
  8
0
100
AcDbLine
 62
7
  6
CONTINUOUS
 10
6.4443360381
 20
-5.4575530127
 11
6.4443360381
 21
-5.1004780127
  0
LINE
  5
39D
100
AcDbEntity
  8
0
100
AcDbLine
 62
7
  6
CONTINUOUS
 10
6.4443360381
 20
-4.6710570127
 11
6.4443360381
 21
-3.2500000127
  0
LINE
  5
39E
100
AcDbEntity
  8
0
100
AcDbLine
 62
7
  6
CONTINUOUS
 10
6.7616430381
 20
-3.6070540127
 11
6.7616530381
 21
-4.6710570127
  0
LINE
  5
39F
100
AcDbEntity
  8
ASSI
100
AcDbLine
 62
7
  6
CONTINUOUS
 10
6.8031740381
 20
5.2144999873
 11
6.8031740381
 21
5.8620489873
  0
LWPOLYLINE
  5
3A0
100
AcDbEntity
  8
0
100
AcDbPolyline
 62
7
  6
CONTINUOUS
 90
10
 70
0
 10
6.4000000381
 20
-8.5736958324
 10
6.4056898177
 20
-8.4715444386
 10
6.4187819821
 20
-8.3752276651
 10
6.4392765315
 20
-8.2847455118
 10
6.4675406983
 20
-8.2001861883
 10
6.5032072501
 20
-8.1214614851
 10
6.5451744893
 20
-8.0483067731
 10
6.5930751835
 20
-7.9806338429
 10
6.6472765651
 20
-7.918530904
 10
6.7077786342
 20
-7.8619979565
  0
LINE
  5
3A1
100
AcDbEntity
  8
RACCORDO
100
AcDbLine
 62
250
  6
CONTINUOUS
 10
3.9632987033
 20
-19.6323546151
 11
3.9797370444
 21
-19.5000000127
  0
LINE
  5
3A2
100
AcDbEntity
  8
RACCORDO
100
AcDbLine
 62
250
  6
CONTINUOUS
 10
4.2632530119
 20
-19.9294350357
 11
4.2841990898
 21
-19.760786034
  0
LINE
  5
3A3
100
AcDbEntity
  8
0
100
AcDbLine
 62
7
  6
CONTINUOUS
 10
-7.4468085087
 20
-8.0887500723
 11
-7.3510637498
 21
-8.0575000127
  0
LINE
  5
3A4
100
AcDbEntity
  8
0
100
AcDbLine
 62
7
  6
CONTINUOUS
 10
-8.0531914598
 20
-8.4012499531
 11
-8.1489361293
 21
-8.4325000127
  0
LINE
  5
3A5
100
AcDbEntity
  8
0
100
AcDbLine
 62
7
  6
CONTINUOUS
 10
-7.4468085087
 20
-9.4637500127
 11
-7.3510637498
 21
-9.4325001319
  0
LINE
  5
3A6
100
AcDbEntity
  8
DRAFT
100
AcDbLine
 62
7
  6
CONTINUOUS
 10
10.5000000381
 20
5.9999999873
 11
9.7811769943
 21
5.9999999873
  0
LINE
  5
3A7
100
AcDbEntity
  8
DRAFT
100
AcDbLine
 62
7
  6
CONTINUOUS
 10
-9.7811769181
 20
5.9999999873
 11
-10.4999999619
 21
5.9999999873
  0
LINE
  5
3A8
100
AcDbEntity
  8
ASSI
100
AcDbLine
 62
7
  6
CONTINUOUS
 10
8.4500970381
 20
6.6748479873
 11
6.4000050381
 21
6.6748479873
  0
LWPOLYLINE
  5
3A9
100
AcDbEntity
  8
0
100
AcDbPolyline
 62
7
  6
CONTINUOUS
 90
10
 70
0
 10
8.1714890571
 20
-8.5746271478
 10
8.1683933319
 20
-8.5163467712
 10
8.1610943298
 20
-8.4609449868
 10
8.1495920508
 20
-8.4084217947
 10
8.133577884
 20
-8.3585864578
 10
8.1133604403
 20
-8.3116297131
 10
8.0898655525
 20
-8.2681237722
 10
8.0634018314
 20
-8.2282593723
 10
8.033660666
 20
-8.1918457761
 10
8.0006420565
 20
-8.1588829838
  0
LINE
  5
3AA
100
AcDbEntity
  8
ASSI
100
AcDbLine
 62
7
  6
CONTINUOUS
 10
7.1926890381
 20
3.6337809873
 11
7.1926940381
 21
3.9916339873
  0
LINE
  5
3AB
100
AcDbEntity
  8
ASSI
100
AcDbLine
 62
7
  6
CONTINUOUS
 10
7.1926890381
 20
5.7369839873
 11
7.1926890381
 21
5.3395709873
  0
LINE
  5
3AC
100
AcDbEntity
  8
0
100
AcDbLine
 62
7
  6
CONTINUOUS
 10
7.3118850381
 20
-4.5913770127
 11
7.3118770381
 21
-3.6070540127
  0
LINE
  5
3AD
100
AcDbEntity
  8
ASSI
100
AcDbLine
 62
7
  6
CONTINUOUS
 10
7.5719590381
 20
3.9973329873
 11
7.5719590381
 21
3.498488606
  0
LINE
  5
3AE
100
AcDbEntity
  8
0
100
AcDbLine
 62
7
  6
CONTINUOUS
 10
7.6292160381
 20
-3.6070540127
 11
7.6292090381
 21
-4.5913770127
  0
LINE
  5
3AF
100
AcDbEntity
  8
ASSI
100
AcDbLine
 62
7
  6
CONTINUOUS
 10
8.0708370381
 20
3.4984973686
 11
8.0708370381
 21
3.9973379873
  0
LINE
  5
3B0
100
AcDbEntity
  8
0
100
AcDbLine
 62
7
  6
CONTINUOUS
 10
8.1263560381
 20
-4.6630200127
 11
8.1263590381
 21
-3.6070540127
  0
LINE
  5
3B1
100
AcDbEntity
  8
0
100
AcDbLine
 62
7
  6
CONTINUOUS
 10
8.4436730381
 20
-3.2500000127
 11
8.4436730381
 21
-4.6630200127
  0
LINE
  5
3B2
100
AcDbEntity
  8
0
100
AcDbLine
 62
7
  6
CONTINUOUS
 10
8.4436730381
 20
-5.1004780127
 11
8.4436730381
 21
-5.4575530127
  0
LINE
  5
3B3
100
AcDbEntity
  8
0
100
AcDbLine
 62
7
  6
CONTINUOUS
 10
8.4436730381
 20
-5.8821870127
 11
8.4436730381
 21
-6.2392480127
  0
LINE
  5
3B4
100
AcDbEntity
  8
0
100
AcDbLine
 62
7
  6
CONTINUOUS
 10
8.4436730381
 20
-7.1256090127
 11
8.4436730381
 21
-7.6043690127
  0
LINE
  5
3B5
100
AcDbEntity
  8
0
100
AcDbLine
 62
7
  6
CONTINUOUS
 10
8.4436730381
 20
-9.8865050127
 11
8.4436730381
 21
-10.2353880127
  0
LINE
  5
3B6
100
AcDbEntity
  8
0
100
AcDbLine
 62
7
  6
CONTINUOUS
 10
8.4436730381
 20
-11.1573770127
 11
8.4436730381
 21
-11.5011140127
  0
LINE
  5
3B7
100
AcDbEntity
  8
ASSI
100
AcDbLine
 62
7
  6
CONTINUOUS
 10
8.4500970381
 20
11.4999999873
 11
8.4500970381
 21
11.0899789873
  0
LINE
  5
3B8
100
AcDbEntity
  8
ASSI
100
AcDbLine
 62
7
  6
CONTINUOUS
 10
8.4500970381
 20
10.1835569873
 11
8.4500970381
 21
9.7735359873
  0
LINE
  5
3B9
100
AcDbEntity
  8
ASSI
100
AcDbLine
 62
7
  6
CONTINUOUS
 10
8.4500970381
 20
9.5001939873
 11
8.4500970381
 21
9.0901789873
  0
LINE
  5
3BA
100
AcDbEntity
  8
ASSI
100
AcDbLine
 62
7
  6
CONTINUOUS
 10
8.4500970381
 20
8.6801789873
 11
8.4500970381
 21
8.0603459873
  0
LINE
  5
3BB
100
AcDbEntity
  8
ASSI
100
AcDbLine
 62
7
  6
CONTINUOUS
 10
8.4500970381
 20
7.2946809873
 11
8.4500970381
 21
6.6748479873
  0
LINE
  5
3BC
100
AcDbEntity
  8
ASSI
100
AcDbLine
 62
7
  6
CONTINUOUS
 10
8.4501030381
 20
5.7432979873
 11
8.4501030381
 21
5.3332619873
  0
LINE
  5
3BD
100
AcDbEntity
  8
ASSI
100
AcDbLine
 62
7
  6
CONTINUOUS
 10
8.4501030381
 20
4.4017009873
 11
8.4501030381
 21
3.4415831645
  0
LINE
  5
3BE
100
AcDbEntity
  8
RACCORDO
100
AcDbLine
 62
7
  6
CONTINUOUS
 10
-3.5129679952
 20
-20.5094736617
 11
-3.5367469881
 21
-20.5451466796
  0
LINE
  5
3BF
100
AcDbEntity
  8
RACCORDO
100
AcDbLine
 62
250
  6
CONTINUOUS
 10
-9.7094736109
 20
-20.2095764642
 11
-9.7999999619
 21
-20.3001028152
  0
LINE
  5
3C0
100
AcDbEntity
  8
RACCORDO
100
AcDbLine
 62
250
  6
CONTINUOUS
 10
-9.4095764134
 20
-20.5094736617
 11
-9.5001027644
 21
-20.6000000127
  0
LINE
  5
3C1
100
AcDbEntity
  8
ASSI
100
AcDbLine
 62
7
  6
CONTINUOUS
 10
6.4000050381
 20
7.0848639873
 11
7.7519030381
 21
7.0848689873
  0
LINE
  5
3C2
100
AcDbEntity
  8
ASSI
100
AcDbLine
 62
7
  6
CONTINUOUS
 10
7.7519030381
 20
8.2701629873
 11
6.4000050381
 21
8.2701629873
  0
LINE
  5
3C3
100
AcDbEntity
  8
ASSI
100
AcDbLine
 62
7
  6
CONTINUOUS
 10
7.8116040381
 20
5.5382819873
 11
7.1926890381
 21
5.7369839873
  0
LINE
  5
3C4
100
AcDbEntity
  8
ASSI
100
AcDbLine
 62
7
  6
CONTINUOUS
 10
6.8031740381
 20
5.8620489873
 11
6.4000100381
 21
5.9914909873
  0
LINE
  5
3C5
100
AcDbEntity
  8
ASSI
100
AcDbLine
 62
7
  6
CONTINUOUS
 10
6.4000050381
 20
6.4015059873
 11
8.4501030381
 21
5.7432979873
  0
LINE
  5
3C6
100
AcDbEntity
  8
RACCORDO
100
AcDbLine
 62
250
  6
CONTINUOUS
 10
-9.7094736109
 20
20.2095764388
 11
-9.7999999619
 21
20.3001027898
  0
LINE
  5
3C7
100
AcDbEntity
  8
RACCORDO
100
AcDbLine
 62
250
  6
CONTINUOUS
 10
-9.4095764134
 20
20.5094736363
 11
-9.5001027644
 21
20.5999999873
  0
LINE
  5
3C8
100
AcDbEntity
  8
0
100
AcDbLine
 62
7
  6
CONTINUOUS
 10
3.1205690381
 20
17.4999999873
 11
3.0216850381
 21
17.7910629873
  0
LINE
  5
3C9
100
AcDbEntity
  8
0
100
AcDbLine
 62
7
  6
CONTINUOUS
 10
2.9729260381
 20
17.9108369873
 11
2.8239330381
 21
18.3549509873
  0
LINE
  5
3CA
100
AcDbEntity
  8
RACCORDO
100
AcDbLine
 62
250
  6
CONTINUOUS
 10
9.7094736871
 20
-20.2095764642
 11
9.6999295693
 21
-17.2933104005
  0
LINE
  5
3CB
100
AcDbEntity
  8
RACCORDO
100
AcDbLine
 62
250
  6
CONTINUOUS
 10
9.6999295693
 20
-17.2933104005
 11
9.6976693037
 21
-16.4579449189
  0
LINE
  5
3CC
100
AcDbEntity
  8
RACCORDO
100
AcDbLine
 62
250
  6
CONTINUOUS
 10
9.3977721062
 20
-1.7578395958
 11
9.3977721062
 21
-16.4726759763
  0
LINE
  5
3CD
100
AcDbEntity
  8
RACCORDO
100
AcDbLine
 62
250
  6
CONTINUOUS
 10
9.4095764896
 20
-20.5094736617
 11
9.3977343783
 21
-16.4726759763
  0
LINE
  5
3CE
100
AcDbEntity
  8
RACCORDO
100
AcDbLine
 62
250
  6
CONTINUOUS
 10
9.6976693037
 20
-2.4343622156
 11
9.6976693037
 21
-16.4579449189
  0
LINE
  5
3CF
100
AcDbEntity
  8
DRAFT
100
AcDbLine
 62
7
  6
CONTINUOUS
 10
9.7811769943
 20
5.9999999873
 11
9.7811769943
 21
-6.0000000127
  0
LINE
  5
3D0
100
AcDbEntity
  8
RACCORDO
100
AcDbLine
 62
7
  6
CONTINUOUS
 10
9.8000000381
 20
20.3001027898
 11
9.8000000381
 21
5.9999999873
  0
LINE
  5
3D1
100
AcDbEntity
  8
RACCORDO
100
AcDbLine
 62
7
  6
CONTINUOUS
 10
9.8000000381
 20
-6.0000000127
 11
9.8000000381
 21
-20.3001028152
  0
LINE
  5
3D2
100
AcDbEntity
  8
RACCORDO
100
AcDbLine
 62
250
  6
CONTINUOUS
 10
9.3977721062
 20
1.7578395704
 11
9.3988411633
 21
16.8935195422
  0
LINE
  5
3D3
100
AcDbEntity
  8
RACCORDO
100
AcDbLine
 62
250
  6
CONTINUOUS
 10
9.6976693037
 20
2.4343621902
 11
9.6987735164
 21
16.8757483385
  0
LINE
  5
3D4
100
AcDbEntity
  8
RACCORDO
100
AcDbLine
 62
250
  6
CONTINUOUS
 10
9.3988411633
 20
16.8935195422
 11
9.4080516998
 21
19.8328192819
  0
LINE
  5
3D5
100
AcDbEntity
  8
RACCORDO
100
AcDbLine
 62
250
  6
CONTINUOUS
 10
9.4080516998
 20
19.8328192819
 11
9.4095764896
 21
20.5094736363
  0
LINE
  5
3D6
100
AcDbEntity
  8
RACCORDO
100
AcDbLine
 62
250
  6
CONTINUOUS
 10
9.6987735164
 20
16.8757483385
 11
9.7094736871
 21
20.2095764388
  0
LWPOLYLINE
  5
3D7
100
AcDbEntity
  8
RACCORDO
100
AcDbPolyline
 62
7
  6
CONTINUOUS
 90
34
 70
0
 10
9.6976693037
 20
2.4343621902
 10
9.6966953533
 20
2.3999384231
 10
9.6947761749
 20
2.3664214747
 10
9.6920130309
 20
2.3338113449
 10
9.6885183791
 20
2.3021225586
 10
9.6843814476
 20
2.2713405909
 10
9.6796418586
 20
2.2414218675
 10
9.6743634765
 20
2.2123679998
 10
9.6686169739
 20
2.1841773764
 10
9.6624109025
 20
2.1568015897
 10
9.6557900978
 20
2.130237912
 10
9.6488045961
 20
2.1044890709
 10
9.6414424825
 20
2.0795148413
 10
9.6337358367
 20
2.055308708
 10
9.6257197924
 20
2.0318771862
 10
9.61736622
 20
2.0091995967
 10
9.6086993128
 20
1.9872661237
 10
9.5997425147
 20
1.9660865829
 10
9.5904499732
 20
1.9456697418
 10
9.5808441873
 20
1.9260034284
 10
9.5709363073
 20
1.9070998147
 10
9.5606481576
 20
1.8890041835
 10
9.5500796381
 20
1.8717632099
 10
9.5391570729
 20
1.855330219
 10
9.5275093869
 20
1.8396104681
 10
9.5149336335
 20
1.8242911248
 10
9.5016119515
 20
1.8096850216
 10
9.4877431487
 20
1.7966359138
 10
9.4733045838
 20
1.7852356497
 10
9.4583581521
 20
1.7753923809
 10
9.4432588505
 20
1.7676743176
 10
9.4281560783
 20
1.7622708631
 10
9.4129807895
 20
1.7589926141
 10
9.3977721062
 20
1.7578395704
  0
LWPOLYLINE
  5
3D8
100
AcDbEntity
  8
0
100
AcDbPolyline
 62
7
  6
CONTINUOUS
 90
10
 70
0
 10
8.4884114778
 20
-8.5736958324
 10
8.4827230203
 20
-8.6758336345
 10
8.4696336137
 20
-8.7721344987
 10
8.4491432582
 20
-8.8625984251
 10
8.4208869457
 20
-8.9471335029
 10
8.3852296844
 20
-9.0258316429
 10
8.3432664977
 20
-9.098968577
 10
8.2953623936
 20
-9.1666362161
 10
8.2411523641
 20
-9.2287426494
 10
8.1806364094
 20
-9.2852878769
  0
LINE
  5
3D9
100
AcDbEntity
  8
RACCORDO
100
AcDbLine
 62
250
  6
CONTINUOUS
 10
3.9963114553
 20
-18.5117603966
 11
3.9842447813
 21
-18.5479898574
  0
LINE
  5
3DA
100
AcDbEntity
  8
RACCORDO
100
AcDbLine
 62
250
  6
CONTINUOUS
 10
4.2954318151
 20
-18.813853138
 11
4.2841990898
 21
-18.8475787179
  0
LINE
  5
3DB
100
AcDbEntity
  8
DRAFT
100
AcDbLine
 62
7
  6
CONTINUOUS
 10
-6.8999999619
 20
-20.0000000127
 11
-7.4999999619
 21
-20.6000000127
  0
LINE
  5
3DC
100
AcDbEntity
  8
0
100
AcDbLine
 62
7
  6
CONTINUOUS
 10
7.6209650381
 20
-6.7445040127
 11
6.4443360381
 21
-7.6090820127
  0
LINE
  5
3DD
100
AcDbEntity
  8
0
100
AcDbLine
 62
7
  6
CONTINUOUS
 10
6.4443360381
 20
-7.1599160127
 11
7.3753740381
 21
-6.4945770127
  0
LINE
  5
3DE
100
AcDbEntity
  8
ASSI
100
AcDbLine
 62
7
  6
CONTINUOUS
 10
6.4000050381
 20
8.6801789873
 11
8.4500970381
 21
8.6801789873
  0
LINE
  5
3DF
100
AcDbEntity
  8
ASSI
100
AcDbLine
 62
7
  6
CONTINUOUS
 10
8.4500970381
 20
9.0901789873
 11
6.4000050381
 21
9.0901839873
  0
LINE
  5
3E0
100
AcDbEntity
  8
ASSI
100
AcDbLine
 62
7
  6
CONTINUOUS
 10
6.4000000381
 20
9.5001989873
 11
8.4500970381
 21
9.5001939873
  0
LINE
  5
3E1
100
AcDbEntity
  8
ASSI
100
AcDbLine
 62
7
  6
CONTINUOUS
 10
7.7519030381
 20
7.0848689873
 11
6.4000100381
 21
7.4725139873
  0
LINE
  5
3E2
100
AcDbEntity
  8
ASSI
100
AcDbLine
 62
7
  6
CONTINUOUS
 10
7.1150040381
 20
7.6775139873
 11
8.4500970381
 21
7.2946809873
  0
LINE
  5
3E3
100
AcDbEntity
  8
DRAFT
100
AcDbLine
 62
7
  6
CONTINUOUS
 10
-7.4999999619
 20
20.5999999873
 11
-6.8999999619
 21
19.9999999873
  0
LINE
  5
3E4
100
AcDbEntity
  8
0
100
AcDbLine
 62
7
  6
CONTINUOUS
 10
0.4742610381
 20
17.4999999873
 11
-0.0368999619
 21
18.3121199873
  0
LINE
  5
3E5
100
AcDbEntity
  8
0
100
AcDbLine
 62
7
  6
CONTINUOUS
 10
0.4951580381
 20
17.6877159873
 11
-0.0076719619
 21
18.4999999873
  0
LINE
  5
3E6
100
AcDbEntity
  8
0
100
AcDbLine
 62
7
  6
CONTINUOUS
 10
3.2682440381
 20
17.4999999873
 11
2.9060680381
 21
18.4999999873
  0
LINE
  5
3E7
100
AcDbEntity
  8
0
100
AcDbLine
 62
7
  6
CONTINUOUS
 10
10.5000000381
 20
5.9999999873
 11
10.5000000381
 21
-6.0000000127
  0
LINE
  5
3E8
100
AcDbEntity
  8
RACCORDO
100
AcDbLine
 62
7
  6
CONTINUOUS
 10
11.0000000381
 20
21.6001713248
 11
11.0000000381
 21
-21.6001713502
  0
LWPOLYLINE
  5
3E9
100
AcDbEntity
  8
RACCORDO
100
AcDbPolyline
 62
250
  6
CONTINUOUS
 90
13
 70
0
 10
9.7094736871
 20
-20.2095764642
 10
9.7068834484
 20
-20.2487039341
 10
9.699210636
 20
-20.2871625053
 10
9.6865864198
 20
-20.3242947142
 10
9.6692266152
 20
-20.3594657717
 10
9.6474279948
 20
-20.3920744154
 10
9.6215632139
 20
-20.4215631885
 10
9.5920744408
 20
-20.4474279694
 10
9.5594657971
 20
-20.4692265898
 10
9.5242947396
 20
-20.4865863944
 10
9.4871625307
 20
-20.4992106106
 10
9.4487039595
 20
-20.506883423
 10
9.4095764896
 20
-20.5094736617
  0
LWPOLYLINE
  5
3EA
100
AcDbEntity
  8
0
100
AcDbPolyline
 62
7
  6
CONTINUOUS
 90
10
 70
0
 10
6.8873919944
 20
-8.1588829838
 10
6.8543734939
 20
-8.1918446307
 10
6.8246324283
 20
-8.2282572015
 10
6.7981687979
 20
-8.268120696
 10
6.7746740157
 20
-8.3116256298
 10
6.7544566685
 20
-8.3585814874
 10
6.7384425167
 20
-8.4084167226
 10
6.7269401471
 20
-8.4609408201
 10
6.7196409728
 20
-8.5163442951
 10
6.7165449939
 20
-8.5746271478
  0
LWPOLYLINE
  5
3EB
100
AcDbEntity
  8
0
100
AcDbPolyline
 62
7
  6
CONTINUOUS
 90
10
 70
0
 10
6.7077786342
 20
-7.8619979565
 10
6.7650332088
 20
-7.8163133721
 10
6.8292688586
 20
-7.7744734161
 10
6.9004855836
 20
-7.7364780883
 10
6.9798012637
 20
-7.701479202
 10
7.0660980189
 20
-7.6703249441
 10
7.1560222099
 20
-7.6455598749
 10
7.2484559569
 20
-7.6280321813
 10
7.3445171395
 20
-7.6168936764
 10
7.444205758
 20
-7.6121443603
  0
LINE
  5
3EC
100
AcDbEntity
  8
ASSI
100
AcDbLine
 62
7
  6
CONTINUOUS
 10
8.4500970381
 20
9.7735359873
 11
6.4000050381
 21
10.4317549873
  0
LWPOLYLINE
  5
3ED
100
AcDbEntity
  8
0
100
AcDbPolyline
 62
7
  6
CONTINUOUS
 90
10
 70
0
 10
8.0006420565
 20
-8.9883957942
 10
8.0339445406
 20
-8.9550985246
 10
8.0638678567
 20
-8.9185340505
 10
8.0904120048
 20
-8.878702372
 10
8.1138445891
 20
-8.8354728913
 10
8.1338980053
 20
-8.7889762061
 10
8.1497694415
 20
-8.7396041099
 10
8.1611912934
 20
-8.6874872003
 10
8.1684311653
 20
-8.6324948796
 10
8.1714890571
 20
-8.5746271478
  0
LWPOLYLINE
  5
3EE
100
AcDbEntity
  8
0
100
AcDbPolyline
 62
7
  6
CONTINUOUS
 90
10
 70
0
 10
8.1806364094
 20
-9.2852878769
 10
8.1233772438
 20
-9.3309741189
 10
8.0591385764
 20
-9.3728147174
 10
7.9879204072
 20
-9.4108096727
 10
7.9086055547
 20
-9.4458067625
 10
7.8223112004
 20
-9.4769582089
 10
7.7323888891
 20
-9.5017206783
 10
7.6399558024
 20
-9.5192463926
 10
7.5438947587
 20
-9.5303831298
 10
7.444205758
 20
-9.5351308899
  0
LINE
  5
3EF
100
AcDbEntity
  8
0
100
AcDbLine
 62
7
  6
CONTINUOUS
 10
8.4436730381
 20
-10.2353880127
 11
7.0315800381
 21
-11.1573690127
  0
LINE
  5
3F0
100
AcDbEntity
  8
0
100
AcDbLine
 62
7
  6
CONTINUOUS
 10
6.4443360381
 20
-11.1443200127
 11
7.8410170381
 21
-10.2350820127
  0
LINE
  5
3F1
100
AcDbEntity
  8
ASSI
100
AcDbLine
 62
7
  6
CONTINUOUS
 10
7.0384980381
 20
10.6367649873
 11
8.4500970381
 21
10.1835569873
  0
LINE
  5
3F2
100
AcDbEntity
  8
0
100
AcDbLine
 62
7
  6
CONTINUOUS
 10
4.4576490381
 20
17.9025069873
 11
4.0802130381
 21
18.4999999873
  0
LINE
  5
3F3
100
AcDbEntity
  8
0
100
AcDbLine
 62
7
  6
CONTINUOUS
 10
4.5245320381
 20
18.0194499873
 11
4.2375930381
 21
18.4999999873
  0
LINE
  5
3F4
100
AcDbEntity
  8
RACCORDO
100
AcDbLine
 62
7
  6
CONTINUOUS
 10
4.2870320048
 20
-20.5094736617
 11
4.2632530119
 21
-20.5451466796
  0
LINE
  5
3F5
100
AcDbEntity
  8
DRAFT
100
AcDbLine
 62
7
  6
CONTINUOUS
 10
-1.2499999619
 20
-21.5000000127
 11
-1.3910615465
 21
-21.6410615973
  0
LWPOLYLINE
  5
3F6
100
AcDbEntity
  8
RACCORDO
100
AcDbPolyline
 62
7
  6
CONTINUOUS
 90
13
 70
0
 10
-9.39777203
 20
16.4726759509
 10
-9.43630533
 20
16.4724867554
 10
-9.4741963871
 20
16.4720766494
 10
-9.5108179026
 20
16.4714456329
 10
-9.5455643832
 20
16.47057613
 10
-9.5778607007
 20
16.4694857166
 10
-9.6071719518
 20
16.4682271207
 10
-9.6330138748
 20
16.4667921514
 10
-9.6549613421
 20
16.4651889996
 10
-9.6726536821
 20
16.4634949652
 10
-9.6857999425
 20
16.4617358149
 10
-9.6941841142
 20
16.4598857821
 10
-9.6976692275
 20
16.4579448667
  0
LINE
  5
3F7
100
AcDbEntity
  8
0
100
AcDbLine
 62
7
  6
CONTINUOUS
 10
-4.5603073411
 20
16.2499999873
 11
4.5603074173
 21
16.2499999873
  0
LINE
  5
3F8
100
AcDbEntity
  8
RACCORDO
100
AcDbLine
 62
7
  6
CONTINUOUS
 10
-9.39777203
 20
16.4726759509
 11
9.3977721062
 21
16.4726759509
  0
LWPOLYLINE
  5
3F9
100
AcDbEntity
  8
RACCORDO
100
AcDbPolyline
 62
7
  6
CONTINUOUS
 90
13
 70
0
 10
9.3977721062
 20
16.4726759509
 10
9.4363054062
 20
16.4724867554
 10
9.4741964633
 20
16.4720766494
 10
9.5108179788
 20
16.4714456329
 10
9.5455644594
 20
16.47057613
 10
9.5778607769
 20
16.4694857166
 10
9.607172028
 20
16.4682271207
 10
9.633013951
 20
16.4667921514
 10
9.6549614183
 20
16.4651889995
 10
9.6726537583
 20
16.4634949652
 10
9.6858000187
 20
16.4617358149
 10
9.6941841904
 20
16.4598857821
 10
9.6976693037
 20
16.4579448667
  0
LWPOLYLINE
  5
3FA
100
AcDbEntity
  8
RACCORDO
100
AcDbPolyline
 62
250
  6
CONTINUOUS
 90
16
 70
0
 10
9.7094736871
 20
-20.2095764642
 10
9.7070851823
 20
-20.2139110788
 10
9.7015437024
 20
-20.2181997566
 10
9.6929079757
 20
-20.2223970496
 10
9.6812695231
 20
-20.2264584792
 10
9.6667516879
 20
-20.2303410037
 10
9.649508329
 20
-20.2340034735
 10
9.6297221904
 20
-20.2374070733
 10
9.607602964
 20
-20.2405157339
 10
9.5833850678
 20
-20.2432965098
 10
9.5573251612
 20
-20.2457199288
 10
9.5296994252
 20
-20.2477603084
 10
9.5008006353
 20
-20.2493960277
 10
9.4709350587
 20
-20.2506097504
 10
9.4404192086
 20
-20.2513886097
 10
9.4095764896
 20
-20.2517243481
  0
LWPOLYLINE
  5
3FB
100
AcDbEntity
  8
0
100
AcDbPolyline
 62
7
  6
CONTINUOUS
 90
21
 70
0
 10
-2.468042477
 20
17.6155679873
 10
-2.439427641
 20
17.6178315706
 10
-2.4120873578
 20
17.6224299501
 10
-2.3860216273
 20
17.6293630849
 10
-2.3610940192
 20
17.6387690911
 10
-2.3374409639
 20
17.6505097043
 10
-2.3154717519
 20
17.6641703004
 10
-2.2952528037
 20
17.6798121363
 10
-2.276717699
 20
17.6973737371
 10
-2.2600764675
 20
17.7162564169
 10
-2.2454530705
 20
17.7364324285
 10
-2.2327235469
 20
17.7579293203
 10
-2.2217260432
 20
17.7802314226
 10
-2.2126033963
 20
17.8033360718
 10
-2.2052127693
 20
17.8272457872
 10
-2.1989637989
 20
17.8514527582
 10
-2.1936896803
 20
17.875858838
 10
-2.1895572182
 20
17.9005621196
 10
-2.1864764625
 20
17.9253492187
 10
-2.18441743
 20
17.9501490098
 10
-2.1834101038
 20
17.9750326028
  0
LINE
  5
3FC
100
AcDbEntity
  8
0
100
AcDbLine
 62
7
  6
CONTINUOUS
 10
-4.9702249619
 20
17.4999999873
 11
-4.8393109619
 21
17.4999999873
  0
LINE
  5
3FD
100
AcDbEntity
  8
0
100
AcDbLine
 62
7
  6
CONTINUOUS
 10
-4.5579499619
 20
17.4999999873
 11
-4.4242399619
 21
17.4999999873
  0
LINE
  5
3FE
100
AcDbEntity
  8
0
100
AcDbLine
 62
7
  6
CONTINUOUS
 10
-4.1429329619
 20
17.4999999873
 11
-4.0119669619
 21
17.4999999873
  0
LINE
  5
3FF
100
AcDbEntity
  8
0
100
AcDbLine
 62
7
  6
CONTINUOUS
 10
-3.8921849619
 20
17.4999999873
 11
-3.7529209619
 21
17.4999999873
  0
LINE
  5
400
100
AcDbEntity
  8
0
100
AcDbLine
 62
7
  6
CONTINUOUS
 10
-3.1484729619
 20
17.4999999873
 11
-3.0008219619
 21
17.4999999873
  0
LINE
  5
401
100
AcDbEntity
  8
0
100
AcDbLine
 62
7
  6
CONTINUOUS
 10
-2.8699119619
 20
17.4999999873
 11
-2.464598951
 21
17.4999999873
  0
LINE
  5
402
100
AcDbEntity
  8
0
100
AcDbLine
 62
7
  6
CONTINUOUS
 10
-1.8573369619
 20
17.4999999873
 11
-1.1191239619
 21
17.4999999873
  0
LINE
  5
403
100
AcDbEntity
  8
0
100
AcDbLine
 62
7
  6
CONTINUOUS
 10
-0.5341339619
 20
17.4999999873
 11
-0.3990429619
 21
17.4999999873
  0
LINE
  5
404
100
AcDbEntity
  8
0
100
AcDbLine
 62
7
  6
CONTINUOUS
 10
-0.1678739619
 20
17.4999999873
 11
-0.0368999619
 21
17.4999999873
  0
LINE
  5
405
100
AcDbEntity
  8
0
100
AcDbLine
 62
7
  6
CONTINUOUS
 10
0.4742610381
 20
17.4999999873
 11
0.6260680381
 21
17.4999999873
  0
LINE
  5
406
100
AcDbEntity
  8
0
100
AcDbLine
 62
7
  6
CONTINUOUS
 10
1.2458340381
 20
17.4999999873
 11
1.3809650381
 21
17.4999999873
  0
LINE
  5
407
100
AcDbEntity
  8
0
100
AcDbLine
 62
7
  6
CONTINUOUS
 10
1.8642730381
 20
17.4999999873
 11
1.9993560381
 21
17.4999999873
  0
LINE
  5
408
100
AcDbEntity
  8
0
100
AcDbLine
 62
7
  6
CONTINUOUS
 10
2.3768080381
 20
17.4999999873
 11
2.5160640381
 21
17.4999999873
  0
LINE
  5
409
100
AcDbEntity
  8
0
100
AcDbLine
 62
7
  6
CONTINUOUS
 10
3.1205690381
 20
17.4999999873
 11
3.2682440381
 21
17.4999999873
  0
LINE
  5
40A
100
AcDbEntity
  8
0
100
AcDbLine
 62
7
  6
CONTINUOUS
 10
3.3921420381
 20
17.4999999873
 11
4.0342770381
 21
17.4999999873
  0
LINE
  5
40B
100
AcDbEntity
  8
0
100
AcDbLine
 62
7
  6
CONTINUOUS
 10
4.4576490381
 20
17.4999999873
 11
4.5927080381
 21
17.4999999873
  0
LINE
  5
40C
100
AcDbEntity
  8
0
100
AcDbLine
 62
7
  6
CONTINUOUS
 10
-2.7347729619
 20
17.6155679873
 11
-2.468042477
 21
17.6155679873
  0
LINE
  5
40D
100
AcDbEntity
  8
0
100
AcDbLine
 62
7
  6
CONTINUOUS
 10
-1.7222049619
 20
17.6197739873
 11
-1.1191239619
 21
17.6197739873
  0
LINE
  5
40E
100
AcDbEntity
  8
0
100
AcDbLine
 62
7
  6
CONTINUOUS
 10
3.5272810381
 20
17.6197739873
 11
4.0342770381
 21
17.6197739873
  0
LINE
  5
40F
100
AcDbEntity
  8
0
100
AcDbLine
 62
7
  6
CONTINUOUS
 10
-3.6484489619
 20
17.7910629873
 11
-3.2473489619
 21
17.7910629873
  0
LINE
  5
410
100
AcDbEntity
  8
0
100
AcDbLine
 62
7
  6
CONTINUOUS
 10
2.6205450381
 20
17.7910629873
 11
3.0216850381
 21
17.7910629873
  0
LINE
  5
411
100
AcDbEntity
  8
0
100
AcDbLine
 62
7
  6
CONTINUOUS
 10
-3.6066529619
 20
17.9108369873
 11
-3.2960589619
 21
17.9108369873
  0
LINE
  5
412
100
AcDbEntity
  8
0
100
AcDbLine
 62
7
  6
CONTINUOUS
 10
2.6623320381
 20
17.9108369873
 11
2.9729260381
 21
17.9108369873
  0
LINE
  5
413
100
AcDbEntity
  8
0
100
AcDbLine
 62
7
  6
CONTINUOUS
 10
-1.7222049619
 20
17.9540229873
 11
-1.1748459619
 21
17.9540229873
  0
LINE
  5
414
100
AcDbEntity
  8
0
100
AcDbLine
 62
7
  6
CONTINUOUS
 10
-1.7222049619
 20
18.0737969873
 11
-1.1748459619
 21
18.0737969873
  0
LINE
  5
415
100
AcDbEntity
  8
0
100
AcDbLine
 62
7
  6
CONTINUOUS
 10
-1.7222049619
 20
18.3802259873
 11
-1.1288849619
 21
18.3802259873
  0
LINE
  5
416
100
AcDbEntity
  8
0
100
AcDbLine
 62
7
  6
CONTINUOUS
 10
1.5258180381
 20
18.3802259873
 11
1.8642730381
 21
18.3802259873
  0
LINE
  5
417
100
AcDbEntity
  8
0
100
AcDbLine
 62
7
  6
CONTINUOUS
 10
1.9993560381
 20
18.3802259873
 11
2.3378110381
 21
18.3802259873
  0
LINE
  5
418
100
AcDbEntity
  8
0
100
AcDbLine
 62
7
  6
CONTINUOUS
 10
-2.7347729619
 20
18.3844319873
 11
-2.468042477
 21
18.3844319873
  0
LINE
  5
419
100
AcDbEntity
  8
0
100
AcDbLine
 62
7
  6
CONTINUOUS
 10
-4.9702249619
 20
18.4999999873
 11
-4.7766229619
 21
18.4999999873
  0
LINE
  5
41A
100
AcDbEntity
  8
0
100
AcDbLine
 62
7
  6
CONTINUOUS
 10
-4.2041949619
 20
18.4999999873
 11
-4.0119669619
 21
18.4999999873
  0
LINE
  5
41B
100
AcDbEntity
  8
0
100
AcDbLine
 62
7
  6
CONTINUOUS
 10
-3.5161559619
 20
18.4999999873
 11
-3.3629249619
 21
18.4999999873
  0
LINE
  5
41C
100
AcDbEntity
  8
0
100
AcDbLine
 62
7
  6
CONTINUOUS
 10
-2.8699119619
 20
18.4999999873
 11
-2.4603471773
 21
18.4999999873
  0
LINE
  5
41D
100
AcDbEntity
  8
0
100
AcDbLine
 62
7
  6
CONTINUOUS
 10
-1.8573369619
 20
18.4999999873
 11
-1.1288849619
 21
18.4999999873
  0
LINE
  5
41E
100
AcDbEntity
  8
0
100
AcDbLine
 62
7
  6
CONTINUOUS
 10
-0.5341339619
 20
18.4999999873
 11
-0.3990429619
 21
18.4999999873
  0
LINE
  5
41F
100
AcDbEntity
  8
0
100
AcDbLine
 62
7
  6
CONTINUOUS
 10
-0.1678739619
 20
18.4999999873
 11
-0.0076719619
 21
18.4999999873
  0
LINE
  5
420
100
AcDbEntity
  8
0
100
AcDbLine
 62
7
  6
CONTINUOUS
 10
0.4951580381
 20
18.4999999873
 11
0.6260680381
 21
18.4999999873
  0
LINE
  5
421
100
AcDbEntity
  8
0
100
AcDbLine
 62
7
  6
CONTINUOUS
 10
1.2458340381
 20
18.4999999873
 11
1.3809650381
 21
18.4999999873
  0
LINE
  5
422
100
AcDbEntity
  8
0
100
AcDbLine
 62
7
  6
CONTINUOUS
 10
1.5258180381
 20
18.4999999873
 11
2.3378110381
 21
18.4999999873
  0
LINE
  5
423
100
AcDbEntity
  8
0
100
AcDbLine
 62
7
  6
CONTINUOUS
 10
2.7528860381
 20
18.4999999873
 11
2.9060680381
 21
18.4999999873
  0
LINE
  5
424
100
AcDbEntity
  8
0
100
AcDbLine
 62
7
  6
CONTINUOUS
 10
3.3921420381
 20
18.4999999873
 11
3.5272810381
 21
18.4999999873
  0
LINE
  5
425
100
AcDbEntity
  8
0
100
AcDbLine
 62
7
  6
CONTINUOUS
 10
4.0802130381
 20
18.4999999873
 11
4.2375930381
 21
18.4999999873
  0
LINE
  5
426
100
AcDbEntity
  8
0
100
AcDbLine
 62
7
  6
CONTINUOUS
 10
4.8113900381
 20
18.4999999873
 11
4.9702250381
 21
18.4999999873
  0
LWPOLYLINE
  5
427
100
AcDbEntity
  8
0
100
AcDbPolyline
 62
7
  6
CONTINUOUS
 90
19
 70
0
 10
-2.4603471773
 20
18.4999999873
 10
-2.4106163192
 20
18.4964606918
 10
-2.3643389132
 20
18.4889451655
 10
-2.3215149593
 20
18.4774532844
 10
-2.2822738163
 20
18.4616131173
 10
-2.2464861254
 20
18.4417961317
 10
-2.2137638104
 20
18.4191172952
 10
-2.1839826364
 20
18.3937163112
 10
-2.1572668382
 20
18.3654529223
 10
-2.1336010449
 20
18.3350222774
 10
-2.1131474378
 20
18.3023367706
 10
-2.0957438356
 20
18.2674834498
 10
-2.0808883224
 20
18.2314196341
 10
-2.0684066738
 20
18.1941504711
 10
-2.0584731142
 20
18.1556704679
 10
-2.0511084014
 20
18.1169212561
 10
-2.0463194546
 20
18.078216755
 10
-2.0440993547
 20
18.03924301
 10
-2.0444481015
 20
17.9999999873
  0
LINE
  5
428
100
AcDbEntity
  8
0
100
AcDbLine
 62
7
  6
CONTINUOUS
 10
6.0000000381
 20
19.9999999873
 11
6.9000000381
 21
19.9999999873
  0
LINE
  5
429
100
AcDbEntity
  8
0
100
AcDbLine
 62
7
  6
CONTINUOUS
 10
-5.9999999619
 20
19.9999999873
 11
-6.8999999619
 21
19.9999999873
  0
LINE
  5
42A
100
AcDbEntity
  8
RACCORDO
100
AcDbLine
 62
250
  6
CONTINUOUS
 10
9.4095764896
 20
20.2517243227
 11
7.1517243735
 21
20.2517243227
  0
LINE
  5
42B
100
AcDbEntity
  8
RACCORDO
100
AcDbLine
 62
250
  6
CONTINUOUS
 10
6.0000000381
 20
20.2517243227
 11
-5.9999999619
 21
20.2517243227
  0
LINE
  5
42C
100
AcDbEntity
  8
RACCORDO
100
AcDbLine
 62
250
  6
CONTINUOUS
 10
-7.1517242973
 20
20.2517243227
 11
-9.4095764134
 21
20.2517243227
  0
LWPOLYLINE
  5
42D
100
AcDbEntity
  8
RACCORDO
100
AcDbPolyline
 62
250
  6
CONTINUOUS
 90
16
 70
0
 10
9.7094736871
 20
20.2095764388
 10
9.7070788485
 20
20.2135300286
 10
9.7014950303
 20
20.2179326828
 10
9.6927650419
 20
20.2224846434
 10
9.6810279311
 20
20.226602592
 10
9.6664399003
 20
20.230279068
 10
9.6490835147
 20
20.234042473
 10
9.6290677168
 20
20.2376051743
 10
9.6067131289
 20
20.2406071643
 10
9.5823711919
 20
20.243460463
 10
9.5561163869
 20
20.2459984813
 10
9.5283244244
 20
20.2478669945
 10
9.4997016186
 20
20.2493981866
 10
9.4704730584
 20
20.2507198454
 10
9.4404493491
 20
20.251551595
 10
9.4095764896
 20
20.2517243227
  0
LINE
  5
42E
100
AcDbEntity
  8
RACCORDO
100
AcDbLine
 62
250
  6
CONTINUOUS
 10
9.4095764896
 20
20.5094736363
 11
7.4094736871
 21
20.5094736363
  0
LINE
  5
42F
100
AcDbEntity
  8
RACCORDO
100
AcDbLine
 62
250
  6
CONTINUOUS
 10
6.0000000381
 20
20.5094736363
 11
-5.9999999619
 21
20.5094736363
  0
LINE
  5
430
100
AcDbEntity
  8
RACCORDO
100
AcDbLine
 62
250
  6
CONTINUOUS
 10
-7.4094736109
 20
20.5094736363
 11
-9.4095764134
 21
20.5094736363
  0
LINE
  5
431
100
AcDbEntity
  8
RACCORDO
100
AcDbLine
 62
7
  6
CONTINUOUS
 10
-9.5001027644
 20
20.5999999873
 11
-7.4999999619
 21
20.5999999873
  0
LINE
  5
432
100
AcDbEntity
  8
RACCORDO
100
AcDbLine
 62
7
  6
CONTINUOUS
 10
7.5000000381
 20
20.5999999873
 11
9.5001028406
 21
20.5999999873
  0
LINE
  5
433
100
AcDbEntity
  8
DRAFT
100
AcDbLine
 62
7
  6
CONTINUOUS
 10
7.5000000381
 20
20.5999999873
 11
-7.4999999619
 21
20.5999999873
  0
LWPOLYLINE
  5
434
100
AcDbEntity
  8
RACCORDO
100
AcDbPolyline
 62
250
  6
CONTINUOUS
 90
13
 70
0
 10
9.4095764896
 20
20.5094736363
 10
9.4487039595
 20
20.5068833976
 10
9.4871625307
 20
20.4992105852
 10
9.5242947396
 20
20.486586369
 10
9.5594657971
 20
20.4692265644
 10
9.5920744408
 20
20.447427944
 10
9.6215632139
 20
20.4215631631
 10
9.6474279948
 20
20.39207439
 10
9.6692266152
 20
20.3594657463
 10
9.6865864198
 20
20.3242946888
 10
9.699210636
 20
20.2871624799
 10
9.7068834484
 20
20.2487039087
 10
9.7094736871
 20
20.2095764388
  0
LINE
  5
435
100
AcDbEntity
  8
RACCORDO
100
AcDbLine
 62
7
  6
CONTINUOUS
 10
-10.5001712994
 20
22.0999999873
 11
10.5001713756
 21
22.0999999873
  0
CIRCLE
  5
436
100
AcDbEntity
  8
DRAFT
100
AcDbCircle
 62
7
  6
CONTINUOUS
 10
0.0000000381
 20
-14.0000000127
 40
0.6874886635
  0
CIRCLE
  5
437
100
AcDbEntity
  8
0
100
AcDbCircle
 62
7
  6
CONTINUOUS
 10
-3.9999999619
 20
-15.1000000127
 40
0.6
  0
CIRCLE
  5
438
100
AcDbEntity
  8
0
100
AcDbCircle
 62
7
  6
CONTINUOUS
 10
-3.9999999619
 20
-6.7000000127
 40
0.6
  0
CIRCLE
  5
439
100
AcDbEntity
  8
DRAFT
100
AcDbCircle
 62
7
  6
CONTINUOUS
 10
0.0000000381
 20
-14.0000000127
 40
0.6
  0
CIRCLE
  5
43A
100
AcDbEntity
  8
ASSI
100
AcDbCircle
 62
7
  6
CONTINUOUS
 10
-3.9999999619
 20
-15.1000000127
 40
0.6
  0
CIRCLE
  5
43B
100
AcDbEntity
  8
ASSI
100
AcDbCircle
 62
7
  6
CONTINUOUS
 10
-3.9999999619
 20
-6.7000000127
 40
0.6
  0
CIRCLE
  5
43C
100
AcDbEntity
  8
SMUSSO
100
AcDbCircle
 62
7
  6
CONTINUOUS
 10
0.0000000381
 20
-20.5790512754
 40
0.5
  0
CIRCLE
  5
43D
100
AcDbEntity
  8
SMUSSO
100
AcDbCircle
 62
7
  6
CONTINUOUS
 10
0.0000000381
 20
-20.5790512754
 40
0.3000028799
  0
CIRCLE
  5
43E
100
AcDbEntity
  8
0
100
AcDbCircle
 62
7
  6
CONTINUOUS
 10
-3.9999999619
 20
15.0999999873
 40
0.6
  0
CIRCLE
  5
43F
100
AcDbEntity
  8
0
100
AcDbCircle
 62
7
  6
CONTINUOUS
 10
-3.9999999619
 20
6.6999999873
 40
0.6
  0
CIRCLE
  5
440
100
AcDbEntity
  8
ASSI
100
AcDbCircle
 62
7
  6
CONTINUOUS
 10
-3.9999999619
 20
15.0999999873
 40
0.6
  0
CIRCLE
  5
441
100
AcDbEntity
  8
ASSI
100
AcDbCircle
 62
7
  6
CONTINUOUS
 10
-3.9999999619
 20
6.6999999873
 40
0.6
  0
CIRCLE
  5
442
100
AcDbEntity
  8
0
100
AcDbCircle
 62
7
  6
CONTINUOUS
 10
0.0000000381
 20
-2.5000000127
 40
0.6
  0
CIRCLE
  5
443
100
AcDbEntity
  8
0
100
AcDbCircle
 62
7
  6
CONTINUOUS
 10
0.0000000381
 20
2.4999999873
 40
0.6
  0
CIRCLE
  5
444
100
AcDbEntity
  8
ASSI
100
AcDbCircle
 62
7
  6
CONTINUOUS
 10
0.0000000381
 20
-2.5000000127
 40
0.6
  0
CIRCLE
  5
445
100
AcDbEntity
  8
ASSI
100
AcDbCircle
 62
7
  6
CONTINUOUS
 10
0.0000000381
 20
2.4999999873
 40
0.6
  0
CIRCLE
  5
446
100
AcDbEntity
  8
0
100
AcDbCircle
 62
7
  6
CONTINUOUS
 10
0.0000000381
 20
10.7999999873
 40
0.6
  0
CIRCLE
  5
447
100
AcDbEntity
  8
ASSI
100
AcDbCircle
 62
7
  6
CONTINUOUS
 10
0.0000000381
 20
10.7999999873
 40
0.6
  0
CIRCLE
  5
448
100
AcDbEntity
  8
0
100
AcDbCircle
 62
7
  6
CONTINUOUS
 10
4.0000000381
 20
-15.1000000127
 40
0.6
  0
CIRCLE
  5
449
100
AcDbEntity
  8
0
100
AcDbCircle
 62
7
  6
CONTINUOUS
 10
4.0000000381
 20
-6.7000000127
 40
0.6
  0
CIRCLE
  5
44A
100
AcDbEntity
  8
ASSI
100
AcDbCircle
 62
7
  6
CONTINUOUS
 10
4.0000000381
 20
-15.1000000127
 40
0.6
  0
CIRCLE
  5
44B
100
AcDbEntity
  8
ASSI
100
AcDbCircle
 62
7
  6
CONTINUOUS
 10
4.0000000381
 20
-6.7000000127
 40
0.6
  0
ARC
  5
44C
100
AcDbEntity
  8
ASSI
100
AcDbCircle
 62
7
  6
CONTINUOUS
 10
7.8213970381
 20
3.4415829873
 40
0.6287061425
100
AcDbArc
 50
202.8428880619
 51
0.0000161486
  0
CIRCLE
  5
44D
100
AcDbEntity
  8
0
100
AcDbCircle
 62
7
  6
CONTINUOUS
 10
4.0000000381
 20
15.0999999873
 40
0.6
  0
CIRCLE
  5
44E
100
AcDbEntity
  8
0
100
AcDbCircle
 62
7
  6
CONTINUOUS
 10
4.0000000381
 20
6.6999999873
 40
0.6
  0
CIRCLE
  5
44F
100
AcDbEntity
  8
ASSI
100
AcDbCircle
 62
7
  6
CONTINUOUS
 10
4.0000000381
 20
15.0999999873
 40
0.6
  0
CIRCLE
  5
450
100
AcDbEntity
  8
ASSI
100
AcDbCircle
 62
7
  6
CONTINUOUS
 10
4.0000000381
 20
6.6999999873
 40
0.6
  0
ARC
  5
451
100
AcDbEntity
  8
ASSI
100
AcDbCircle
 62
7
  6
CONTINUOUS
 10
7.8213970381
 20
3.4984929873
 40
0.249439
100
AcDbArc
 50
180.0010063792
 51
0.0010063711
  0
ELLIPSE
  5
452
100
AcDbEntity
  8
0
100
AcDbEllipse
 62
7
  6
CONTINUOUS
 10
-4.4358221894
 20
15.1858222148
 30
0.0
 11
0.7952825482
 21
-0.7952825482
 31
0.0
 40
0.8891264907
 41
2.4148175993
 42
3.8683677079
  0
ELLIPSE
  5
453
100
AcDbEntity
  8
0
100
AcDbEllipse
 62
7
  6
CONTINUOUS
 10
-4.4358221894
 20
6.1641777598
 30
0.0
 11
0.7952825482
 21
0.7952825482
 31
0.0
 40
0.8891264907
 41
-3.8683677079
 42
-2.4148175993
  0
ELLIPSE
  5
454
100
AcDbEntity
  8
0
100
AcDbEllipse
 62
7
  6
CONTINUOUS
 10
-4.4358221894
 20
-6.1641777852
 30
0.0
 11
0.7952825482
 21
-0.7952825482
 31
0.0
 40
0.8891264907
 41
2.4148175993
 42
3.8683677079
  0
ELLIPSE
  5
455
100
AcDbEntity
  8
0
100
AcDbEllipse
 62
7
  6
CONTINUOUS
 10
-4.4358221894
 20
-15.1858222402
 30
0.0
 11
0.7952825482
 21
0.7952825482
 31
0.0
 40
0.8891264907
 41
-3.8683677079
 42
-2.4148175993
  0
ELLIPSE
  5
456
100
AcDbEntity
  8
0
100
AcDbEllipse
 62
7
  6
CONTINUOUS
 10
4.4358222656
 20
-15.1858222402
 30
0.0
 11
0.7952825482
 21
-0.7952825482
 31
0.0
 40
0.8891264907
 41
-0.7267750543
 42
0.7267750543
  0
ELLIPSE
  5
457
100
AcDbEntity
  8
0
100
AcDbEllipse
 62
7
  6
CONTINUOUS
 10
4.4358222656
 20
-6.1641777852
 30
0.0
 11
0.7952825482
 21
0.7952825482
 31
0.0
 40
0.8891264907
 41
-0.7267750543
 42
0.7267750543
  0
ELLIPSE
  5
458
100
AcDbEntity
  8
0
100
AcDbEllipse
 62
7
  6
CONTINUOUS
 10
4.4358222656
 20
6.1641777598
 30
0.0
 11
0.7952825482
 21
-0.7952825482
 31
0.0
 40
0.8891264907
 41
-0.7267750543
 42
0.7267750543
  0
ELLIPSE
  5
459
100
AcDbEntity
  8
0
100
AcDbEllipse
 62
7
  6
CONTINUOUS
 10
4.4358222656
 20
15.1858222148
 30
0.0
 11
0.7952825482
 21
0.7952825482
 31
0.0
 40
0.8891264907
 41
-0.7267750543
 42
0.7267750543
  0
ELLIPSE
  5
45A
100
AcDbEntity
  8
RACCORDO
100
AcDbEllipse
 62
7
  6
CONTINUOUS
 10
-10.4998285657
 20
21.5998285911
 30
0.0
 11
0.35379574
 21
-0.35379574
 31
0.0
 40
0.999315002
 41
2.3565371065
 42
3.9266482007
  0
ELLIPSE
  5
45B
100
AcDbEntity
  8
RACCORDO
100
AcDbEllipse
 62
7
  6
CONTINUOUS
 10
-10.4998285657
 20
-21.5998286165
 30
0.0
 11
-0.35379574
 21
-0.35379574
 31
0.0
 40
0.999315002
 41
-0.7850555471
 42
0.7850555471
  0
ELLIPSE
  5
45C
100
AcDbEntity
  8
RACCORDO
100
AcDbEllipse
 62
7
  6
CONTINUOUS
 10
10.4998286419
 20
-21.5998286165
 30
0.0
 11
-0.35379574
 21
0.35379574
 31
0.0
 40
0.999315002
 41
2.3565371065
 42
3.9266482007
  0
ELLIPSE
  5
45D
100
AcDbEntity
  8
RACCORDO
100
AcDbEllipse
 62
7
  6
CONTINUOUS
 10
10.4998286419
 20
21.5998285911
 30
0.0
 11
0.35379574
 21
0.35379574
 31
0.0
 40
0.999315002
 41
-0.7850555471
 42
0.7850555471
  0
ELLIPSE
  5
45E
100
AcDbEntity
  8
RACCORDO
100
AcDbEllipse
 62
7
  6
CONTINUOUS
 10
9.8209487754
 20
-0.0000000127
 30
0.0
 11
0.0
 21
5.3
 31
0.0
 40
0.0261859216
 41
1.0935739911
 42
2.0480186625
  0
ELLIPSE
  5
45F
100
AcDbEntity
  8
RACCORDO
100
AcDbEllipse
 62
7
  6
CONTINUOUS
 10
-9.8209486992
 20
-0.0000000127
 30
0.0
 11
0.0
 21
5.3
 31
0.0
 40
0.0261859216
 41
-2.0480186625
 42
-1.0935739911
  0
ELLIPSE
  5
460
100
AcDbEntity
  8
RACCORDO
100
AcDbEllipse
 62
7
  6
CONTINUOUS
 10
-2.7591713565
 20
-7.7900000125
 30
0.0
 11
0.0
 21
88.7
 31
0.0
 40
0.0174550649
 41
-4.5877843409
 42
-4.5714296988
  0
ELLIPSE
  5
461
100
AcDbEntity
  8
RACCORDO
100
AcDbEllipse
 62
7
  6
CONTINUOUS
 10
-5.0408285673
 20
-7.7900000125
 30
0.0
 11
0.0
 21
88.7
 31
0.0
 40
0.0174550649
 41
-1.7117556084
 42
-1.6954009663
  0
ELLIPSE
  5
462
100
AcDbEntity
  8
RACCORDO
100
AcDbEllipse
 62
7
  6
CONTINUOUS
 10
2.7591714327
 20
-7.7900000125
 30
0.0
 11
0.0
 21
88.7
 31
0.0
 40
0.0174550649
 41
-1.7117556084
 42
-1.6954009663
  0
ELLIPSE
  5
463
100
AcDbEntity
  8
RACCORDO
100
AcDbEllipse
 62
7
  6
CONTINUOUS
 10
5.0408286435
 20
-7.7900000125
 30
0.0
 11
0.0
 21
88.7
 31
0.0
 40
0.0174550649
 41
-4.5877843409
 42
-4.5714296988
  0
ELLIPSE
  5
464
100
AcDbEntity
  8
RACCORDO
100
AcDbEllipse
 62
7
  6
CONTINUOUS
 10
9.4998972004
 20
-20.299897175
 30
0.0
 11
-0.212277444
 21
0.212277444
 31
0.0
 40
0.999315002
 41
-3.9266482006
 42
-2.3565371065
  0
ELLIPSE
  5
465
100
AcDbEntity
  8
RACCORDO
100
AcDbEllipse
 62
7
  6
CONTINUOUS
 10
-9.4998971242
 20
-20.299897175
 30
0.0
 11
0.212277444
 21
0.212277444
 31
0.0
 40
0.999315002
 41
-3.9266482006
 42
-2.3565371065
  0
ELLIPSE
  5
466
100
AcDbEntity
  8
RACCORDO
100
AcDbEllipse
 62
7
  6
CONTINUOUS
 10
9.4998972004
 20
20.2998971496
 30
0.0
 11
0.212277444
 21
0.212277444
 31
0.0
 40
0.999315002
 41
-0.7850555471
 42
0.7850555471
  0
ELLIPSE
  5
467
100
AcDbEntity
  8
RACCORDO
100
AcDbEllipse
 62
7
  6
CONTINUOUS
 10
-9.4998971242
 20
20.2998971496
 30
0.0
 11
-0.212277444
 21
0.212277444
 31
0.0
 40
0.999315002
 41
-0.7850555471
 42
0.7850555471
  0
ELLIPSE
  5
468
100
AcDbEntity
  8
RACCORDO
100
AcDbEllipse
 62
7
  6
CONTINUOUS
 10
4.2868949287
 20
-20.2095764642
 30
0.0
 11
-0.0
 21
0.3
 31
0.0
 40
0.0174550649
 41
-3.1154127148
 42
-1.7117556084
  0
ELLIPSE
  5
469
100
AcDbEntity
  8
RACCORDO
100
AcDbEllipse
 62
7
  6
CONTINUOUS
 10
-4.2868948525
 20
-20.2095764642
 30
0.0
 11
-0.0
 21
0.3
 31
0.0
 40
0.0174550649
 41
-4.5714296988
 42
-3.1677725924
  0
ELLIPSE
  5
46A
100
AcDbEntity
  8
RACCORDO
100
AcDbEllipse
 62
7
  6
CONTINUOUS
 10
3.5131051475
 20
-20.2095764642
 30
0.0
 11
0.0
 21
0.3
 31
0.0
 40
0.0174550649
 41
-4.5714296988
 42
-3.1677725924
  0
ELLIPSE
  5
46B
100
AcDbEntity
  8
RACCORDO
100
AcDbEllipse
 62
7
  6
CONTINUOUS
 10
-3.5131050713
 20
-20.2095764642
 30
0.0
 11
0.0
 21
0.3
 31
0.0
 40
0.0174550649
 41
-3.1154127148
 42
-1.7117556084
  0
ELLIPSE
  5
46C
100
AcDbEntity
  8
RACCORDO
100
AcDbEllipse
 62
7
  6
CONTINUOUS
 10
3.8367013729
 20
-20.5450095774
 30
0.0
 11
0.3
 21
-0.0
 31
0.0
 40
0.0261859216
 41
-3.1241393611
 42
-1.5707963268
  0
ELLIPSE
  5
46D
100
AcDbEntity
  8
RACCORDO
100
AcDbEllipse
 62
7
  6
CONTINUOUS
 10
3.9632987033
 20
-20.5450095774
 30
0.0
 11
0.3
 21
-0.0
 31
0.0
 40
0.0261859216
 41
-1.5707963268
 42
-0.0174532925
  0
ELLIPSE
  5
46E
100
AcDbEntity
  8
RACCORDO
100
AcDbEllipse
 62
7
  6
CONTINUOUS
 10
-3.9632986271
 20
-20.5450095774
 30
0.0
 11
0.3
 21
-0.0
 31
0.0
 40
0.0261859216
 41
-3.1241393611
 42
-1.5707963268
  0
ELLIPSE
  5
46F
100
AcDbEntity
  8
RACCORDO
100
AcDbEllipse
 62
7
  6
CONTINUOUS
 10
-3.8367012967
 20
-20.5450095774
 30
0.0
 11
0.3
 21
-0.0
 31
0.0
 40
0.0261859216
 41
-1.5707963268
 42
-0.0174532925
  0
ENDSEC
  0
SECTION
  2
OBJECTS
  0
DICTIONARY
  5
C
100
AcDbDictionary
280
0
281
1
  3
ACAD_GROUP
350
D
  3
ACAD_MLINESTYLE
350
17
  3
ACAD_LAYOUT
350
1A
  3
ACAD_PLOTSETTINGS
350
19
  3
ACAD_PLOTSTYLENAME
350
E
  0
DICTIONARY
  5
D
102
{ACAD_REACTORS
330
C
102
}
100
AcDbDictionary
280
0
281
1
  0
ACDBDICTIONARYWDFLT
  5
E
102
{ACAD_REACTORS
330
C
102
}
100
AcDbDictionary
281
1
  3
Normal
350
F
100
AcDbDictionaryWithDefault
340
F
  0
DICTIONARY
  5
17
102
{ACAD_REACTORS
330
C
102
}
100
AcDbDictionary
280
0
281
1
  3
Standard
350
18
  0
DICTIONARY
  5
19
102
{ACAD_REACTORS
330
C
102
}
100
AcDbDictionary
281
1
  0
DICTIONARY
  5
1A
102
{ACAD_REACTORS
330
C
102
}
100
AcDbDictionary
281
1
  3
Model
350
470
  3
Layout1
350
471
  0
ACDBPLACEHOLDER
  5
F
102
{ACAD_REACTORS
330
E
102
}
  0
MLINESTYLE
  5
18
102
{ACAD_REACTORS
330
17
102
}
100
AcDbMlineStyle
  2
STANDARD
 70
0
  3

 62
256
 51
90.0
 52
90.0
 71
2
 49
0.5
 62
256
  6
BYLAYER
 49
-0.5
 62
256
  6
BYLAYER
  0
LAYOUT
  5
470
102
{ACAD_REACTORS
330
1A
102
}
100
AcDbPlotSettings
  1

  2
none_device
  4
ISO_A4_(297.00_x_210.00_MM)
  6

 40
0.0
 41
0.0
 42
0.0
 43
0.0
 44
297.0
 45
210.0
 46
0.0
 47
0.0
 48
0.0
 49
0.0
140
0.0
141
0.0
142
1.0
143
1.0
 70
1024
 72
1
 73
0
 74
0
  7

 75
0
147
1.0
148
0.0
149
0.0
100
AcDbLayout
  1
Model
 70
0
 71
0
 10
0.0
 20
0.0
 11
297.0
 21
210.0
 12
0.0
 22
0.0
 32
0.0
 14
0.0
 24
0.0
 34
0.0
 15
0.0
 25
0.0
 35
0.0
146
0.0
 13
0.0
 23
0.0
 33
0.0
 16
1.0
 26
0.0
 36
0.0
 17
0.0
 27
1.0
 37
0.0
 76
0
330
211
345
0
346
0
  0
LAYOUT
  5
471
102
{ACAD_REACTORS
330
1A
102
}
100
AcDbPlotSettings
  1

  2
none_device
  4
ISO_A4_(297.00_x_210.00_MM)
  6

 40
0.0
 41
0.0
 42
0.0
 43
0.0
 44
297.0
 45
210.0
 46
0.0
 47
0.0
 48
0.0
 49
0.0
140
0.0
141
0.0
142
1.0
143
1.0
 70
0
 72
1
 73
0
 74
0
  7

 75
0
147
1.0
148
0.0
149
0.0
100
AcDbLayout
  1
Layout1
 70
0
 71
1
 10
0.0
 20
0.0
 11
297.0
 21
210.0
 12
0.0
 22
0.0
 32
0.0
 14
0.0
 24
0.0
 34
0.0
 15
0.0
 25
0.0
 35
0.0
146
0.0
 13
0.0
 23
0.0
 33
0.0
 16
1.0
 26
0.0
 36
0.0
 17
0.0
 27
1.0
 37
0.0
 76
0
330
212
345
0
346
0
  0
ENDSEC
  0
EOF
